  0
SECTION
  2
HEADER
  9
$ACADVER
  1
AC1015
  9
$ACADMAINTVER
 70
     6
  9
$DWGCODEPAGE
  3
DOS850
  9
$INSBASE
 10
0.0
 20
0.0
 30
0.0
  9
$EXTMIN
 10
-1.463122
 20
-2.043965
 30
1.000000E+20
  9
$EXTMAX
 10
1.942209
 20
4.530717
 30
-1.000000E+20
  9
$LIMMIN
 10
0.0
 20
0.0
  9
$LIMMAX
 10
0.0
 20
0.0
  9
$ORTHOMODE
 70
     0
  9
$REGENMODE
 70
     1
  9
$FILLMODE
 70
     1
  9
$QTEXTMODE
 70
     0
  9
$MIRRTEXT
 70
     1
  9
$LTSCALE
 40
1.0
  9
$ATTMODE
 70
     1
  9
$TEXTSIZE
 40
0.2
  9
$TRACEWID
 40
0.05
  9
$TEXTSTYLE
  7
Standard
  9
$CLAYER
  8
0
  9
$CELTYPE
  6
Continuous
  9
$CECOLOR
 62
   256
  9
$CELTSCALE
 40
1.0
  9
$DISPSILH
 70
     0
  9
$DIMSCALE
 40
1.0
  9
$DIMASZ
 40
0.18
  9
$DIMEXO
 40
0.0625
  9
$DIMDLI
 40
0.38
  9
$DIMRND
 40
0.0
  9
$DIMDLE
 40
0.0
  9
$DIMEXE
 40
0.18
  9
$DIMTP
 40
0.0
  9
$DIMTM
 40
0.0
  9
$DIMTXT
 40
0.18
  9
$DIMCEN
 40
0.09
  9
$DIMTSZ
 40
0.0
  9
$DIMTOL
 70
     0
  9
$DIMLIM
 70
     0
  9
$DIMTIH
 70
     1
  9
$DIMTOH
 70
     1
  9
$DIMSE1
 70
     0
  9
$DIMSE2
 70
     0
  9
$DIMTAD
 70
     0
  9
$DIMZIN
 70
     0
  9
$DIMBLK
  1

  9
$DIMASO
 70
     1
  9
$DIMSHO
 70
     1
  9
$DIMPOST
  1

  9
$DIMAPOST
  1

  9
$DIMALT
 70
     0
  9
$DIMALTD
 70
     2
  9
$DIMALTF
 40
25.4
  9
$DIMLFAC
 40
1.0
  9
$DIMTOFL
 70
     0
  9
$DIMTVP
 40
0.0
  9
$DIMTIX
 70
     0
  9
$DIMSOXD
 70
     0
  9
$DIMSAH
 70
     0
  9
$DIMBLK1
  1

  9
$DIMBLK2
  1

  9
$DIMSTYLE
  2
Standard
  9
$DIMCLRD
 70
     0
  9
$DIMCLRE
 70
     0
  9
$DIMCLRT
 70
     0
  9
$DIMTFAC
 40
1.0
  9
$DIMGAP
 40
0.09
  9
$DIMJUST
 70
     0
  9
$DIMSD1
 70
     0
  9
$DIMSD2
 70
     0
  9
$DIMTOLJ
 70
     1
  9
$DIMTZIN
 70
     0
  9
$DIMALTZ
 70
     0
  9
$DIMALTTZ
 70
     0
  9
$DIMUPT
 70
     0
  9
$DIMDEC
 70
     4
  9
$DIMTDEC
 70
     4
  9
$DIMALTU
 70
     2
  9
$DIMALTTD
 70
     2
  9
$DIMTXSTY
  7
Standard
  9
$DIMAUNIT
 70
     0
  9
$DIMADEC
 70
     0
  9
$DIMALTRND
 40
0.0
  9
$DIMAZIN
 70
     0
  9
$DIMDSEP
 70
     0
  9
$DIMATFIT
 70
     3
  9
$DIMFRAC
 70
     0
  9
$DIMLDRBLK
  1

  9
$DIMLUNIT
 70
     2
  9
$DIMLWD
 70
     0
  9
$DIMLWE
 70
     0
  9
$DIMTMOVE
 70
     0
  9
$LUNITS
 70
     2
  9
$LUPREC
 70
     4
  9
$SKETCHINC
 40
0.1
  9
$FILLETRAD
 40
0.0
  9
$AUNITS
 70
     0
  9
$AUPREC
 70
     0
  9
$MENU
  1
acad
  9
$ELEVATION
 40
0.0
  9
$PELEVATION
 40
0.0
  9
$THICKNESS
 40
0.0
  9
$LIMCHECK
 70
     0
  9
$CHAMFERA
 40
0.0
  9
$CHAMFERB
 40
0.0
  9
$CHAMFERC
 40
0.0
  9
$CHAMFERD
 40
0.0
  9
$SKPOLY
 70
     0
  9
$TDCREATE
 40
0.000000000
  9
$TDUCREATE
 40
0.000000000
  9
$TDUPDATE
 40
0.000000000
  9
$TDUUPDATE
 40
0.000000000
  9
$TDINDWG
 40
0.0000000000
  9
$TDUSRTIMER
 40
0.0000000000
  9
$USRTIMER
 70
     1
  9
$ANGBASE
 50
0.0
  9
$ANGDIR
 70
     0
  9
$PDMODE
 70
     0
  9
$PDSIZE
 40
0.0
  9
$PLINEWID
 40
0.0
  9
$SPLFRAME
 70
     0
  9
$SPLINETYPE
 70
     6
  9
$SPLINESEGS
 70
     8
  9
$HANDSEED
  5
A0
  9
$SURFTAB1
 70
     6
  9
$SURFTAB2
 70
     6
  9
$SURFTYPE
 70
     6
  9
$SURFU
 70
     6
  9
$SURFV
 70
     6
  9
$UCSBASE
  2

  9
$UCSNAME
  2

  9
$UCSORG
 10
0.0
 20
0.0
 30
0.0
  9
$UCSXDIR
 10
1.0
 20
0.0
 30
0.0
  9
$UCSYDIR
 10
0.0
 20
1.0
 30
0.0
  9
$UCSORTHOREF
  2

  9
$UCSORTHOVIEW
 70
     0
  9
$UCSORGTOP
 10
0.0
 20
0.0
 30
0.0
  9
$UCSORGBOTTOM
 10
0.0
 20
0.0
 30
0.0
  9
$UCSORGLEFT
 10
0.0
 20
0.0
 30
0.0
  9
$UCSORGRIGHT
 10
0.0
 20
0.0
 30
0.0
  9
$UCSORGFRONT
 10
0.0
 20
0.0
 30
0.0
  9
$UCSORGBACK
 10
0.0
 20
0.0
 30
0.0
  9
$PUCSBASE
  2

  9
$PUCSNAME
  2

  9
$PUCSORG
 10
0.0
 20
0.0
 30
0.0
  9
$PUCSXDIR
 10
1.0
 20
0.0
 30
0.0
  9
$PUCSYDIR
 10
0.0
 20
1.0
 30
0.0
  9
$PUCSORTHOREF
  2

  9
$PUCSORTHOVIEW
 70
     0
  9
$PUCSORGTOP
 10
0.0
 20
0.0
 30
0.0
  9
$PUCSORGBOTTOM
 10
0.0
 20
0.0
 30
0.0
  9
$PUCSORGLEFT
 10
0.0
 20
0.0
 30
0.0
  9
$PUCSORGRIGHT
 10
0.0
 20
0.0
 30
0.0
  9
$PUCSORGFRONT
 10
0.0
 20
0.0
 30
0.0
  9
$PUCSORGBACK
 10
0.0
 20
0.0
 30
0.0
  9
$USERI1
 70
     0
  9
$USERI2
 70
     0
  9
$USERI3
 70
     0
  9
$USERI4
 70
     0
  9
$USERI5
 70
     0
  9
$USERR1
 40
0.0
  9
$USERR2
 40
0.0
  9
$USERR3
 40
0.0
  9
$USERR4
 40
0.0
  9
$USERR5
 40
0.0
  9
$WORLDVIEW
 70
     1
  9
$SHADEDGE
 70
     3
  9
$SHADEDIF
 70
    70
  9
$TILEMODE
 70
     1
  9
$MAXACTVP
 70
    16
  9
$PINSBASE
 10
0.0
 20
0.0
 30
0.0
  9
$PLIMCHECK
 70
     0
  9
$PEXTMIN
 10
1.000000E+20
 20
1.000000E+20
 30
1.000000E+20
  9
$PEXTMAX
 10
-1.000000E+20
 20
-1.000000E+20
 30
-1.000000E+20
  9
$PLIMMIN
 10
0.0
 20
0.0
  9
$PLIMMAX
 10
12.0
 20
9.0
  9
$UNITMODE
 70
     0
  9
$VISRETAIN
 70
     0
  9
$PLINEGEN
 70
     1
  9
$PSLTSCALE
 70
     0
  9
$TREEDEPTH
 70
  3020
  9
$CMLSTYLE
  2
Standard
  9
$CMLJUST
 70
     0
  9
$CMLSCALE
 40
1.0
  9
$PROXYGRAPHICS
 70
     0
  9
$MEASUREMENT
 70
     0
  9
$CELWEIGHT
370
     0
  9
$ENDCAPS
280
     0
  9
$JOINSTYLE
280
     0
  9
$LWDISPLAY
290
     0
  9
$INSUNITS
 70
     1
  9
$HYPERLINKBASE
  1

  9
$XEDIT
290
     1
  9
$CEPSNTYPE
380
     0
  9
$PSTYLEMODE
290
     1
  9
$FINGERPRINTGUID
  2

  9
$VERSIONGUID
  2

  9
$EXTNAMES
290
     1
  9
$PSVPSCALE
 40
0.0
  0
ENDSEC
  0
SECTION
  2
CLASSES
  0
CLASS
  1
LWPOLYLINE
  2
AcDbPolyline
  3
AutoCAD 2000
 90
    32768
280
     0
281
     1
  0
CLASS
  1
IMAGE
  2
AcDbRasterImage
  3
ISM
 90
    32895
280
     0
281
     1
  0
CLASS
  1
OLE2FRAME
  2
AcDbOle2Frame
  3
AutoCAD 2000
 90
    32768
280
     0
281
     1
  0
CLASS
  1
HATCH
  2
AcDbHatch
  3
AutoCAD 2000
 90
    32768
280
     0
281
     1
  0
CLASS
  1
DICTIONARYVAR
  2
AcDbDictionaryVar
  3
AutoCAD 2000
 90
    32768
280
     0
281
     0
  0
CLASS
  1
RASTERVARIABLES
  2
AcDbRasterVariables
  3
ISM
 90
    32768
280
     0
281
     0
  0
CLASS
  1
IMAGEDEF
  2
AcDbRasterImageDef
  3
ISM
 90
    32768
280
     0
281
     0
  0
CLASS
  1
IMAGEDEF_REACTOR
  2
AcDbRasterImageDefReactor
  3
ISM
 90
    32769
280
     0
281
     0
  0
CLASS
  1
IDBUFFER
  2
AcDbIdBuffer
  3
AutoCAD 2000
 90
    32768
280
     0
281
     0
  0
CLASS
  1
SPATIAL_FILTER
  2
AcDbSpatialFilter
  3
AutoCAD 2000
 90
    32768
280
     0
281
     0
  0
CLASS
  1
XRECORD
  2
AcDbXrecord
  3
AutoCAD 2000
 90
    32768
280
     0
281
     0
  0
CLASS
  1
SORTENTSTABLE
  2
AcDbSortentsTable
  3
AutoCAD 2000
 90
    32768
280
     0
281
     0
  0
CLASS
  1
LAYER_INDEX
  2
AcDbLayerIndex
  3
AutoCAD 2000
 90
    32768
280
     0
281
     0
  0
CLASS
  1
SPATIAL_INDEX
  2
AcDbSpatialIndex
  3
AutoCAD 2000
 90
    32768
280
     0
281
     0
  0
CLASS
  1
OBJECT_PTR
  2
CAseDLPNTableRecord
  3
"ASE-LPNTableRecord"
 90
    32769
280
     0
281
     0
  0
CLASS
  1
LAYOUT
  2
AcDbLayout
  3
AutoCAD 2000
 90
        0
280
     0
281
     0
  0
CLASS
  1
PLOTSETTINGS
  2
AcDbPlotSettings
  3
AutoCAD 2000
 90
    32768
280
     0
281
     0
  0
CLASS
  1
ACDBDICTIONARYWDFLT
  2
AcDbDictionaryWithDefault
  3
AutoCAD 2000
 90
        0
280
     0
281
     0
  0
CLASS
  1
ACDBPLACEHOLDER
  2
AcDbPlaceHolder
  3
AutoCAD 2000
 90
        0
280
     0
281
     0
  0
CLASS
  1
VBA_PROJECT
  2
AcDbVbaProject
  3
acadvba
 90
    32768
280
     0
281
     0
  0
CLASS
  1
WIPEOUT
  2
AcDbWipeout
  3
WipeOut|AutoCAD Express Tool|expresstools@autodesk.com
 90
    32895
280
     0
281
     1
  0
CLASS
  1
WIPEOUTVARIABLES
  2
AcDbWipeoutVariables
  3
WipeOut|AutoCAD Express Tool|expresstools@autodesk.com
 90
        0
280
     0
281
     0
  0
CLASS
  1
RTEXT
  2
RText
  3
RText|AutoCAD Express Tool|expresstools@autodesk.com
 90
    32768
280
     0
281
     1
  0
CLASS
  1
ARCALIGNEDTEXT
  2
AcDbArcAlignedText
  3
ATEXT|AutoCAD Express Tool|expresstools@autodesk.com
 90
    32768
280
     0
281
     1
  0
ENDSEC
  0
SECTION
  2
TABLES
  0
TABLE
  2
VPORT
  5
7
100
AcDbSymbolTable
 70
     1
  0
VPORT
  5
15
100
AcDbSymbolTableRecord
100
AcDbViewportTableRecord
  2
*ACTIVE
 70
     0
 10
0.0
 20
0.0
 11
1.0
 21
1.0
 12
6.591288
 22
4.579184
 13
0.0
 23
0.0
 14
1.0
 24
1.0
 15
0.0
 25
0.0
 16
0.0
 26
0.0
 36
1.0
 17
0.0
 27
0.0
 37
0.0
 40
9.158369
 41
0.688564
 42
50.0
 43
0.0
 44
0.0
 50
0.0
 51
0.0
 71
     0
 72
   100
 73
     1
 74
     1
 75
     0
 76
     0
 77
     0
 78
     0
281
     0
 65
     0
110
0.0
120
0.0
130
0.0
111
1.0
121
0.0
131
0.0
112
0.0
122
1.0
132
0.0
345
0
346
0
 79
     0
146
0.0
  0
ENDTAB
  0
TABLE
  2
LTYPE
  5
4
100
AcDbSymbolTable
 70
     3
  0
LTYPE
  5
11
100
AcDbSymbolTableRecord
100
AcDbLinetypeTableRecord
  2
ByBlock
 70
    64
  3

 72
    65
 73
     0
 40
0.0
  0
LTYPE
  5
12
100
AcDbSymbolTableRecord
100
AcDbLinetypeTableRecord
  2
ByLayer
 70
    64
  3

 72
    65
 73
     0
 40
0.0
  0
LTYPE
  5
13
100
AcDbSymbolTableRecord
100
AcDbLinetypeTableRecord
  2
Continuous
 70
    64
  3
Solid line
 72
    65
 73
     0
 40
0.0
  0
ENDTAB
  0
TABLE
  2
LAYER
  5
2
100
AcDbSymbolTable
 70
     2
  0
LAYER
  5
14
100
AcDbSymbolTableRecord
100
AcDbLayerTableRecord
  2
0
 70
     0
 62
     7
  6
Continuous
290
     1
370
    -3
390
1D
  0
LAYER
  5
24
100
AcDbSymbolTableRecord
100
AcDbLayerTableRecord
  2
Layer 1
 70
     0
 62
     7
  6
Continuous
290
     1
370
    -3
390
1F
  0
ENDTAB
  0
TABLE
  2
STYLE
  5
3
100
AcDbSymbolTable
 70
     2
  0
STYLE
  5
17
100
AcDbSymbolTableRecord
100
AcDbTextStyleTableRecord
  2
Standard
 70
     0
 40
0.0
 41
1.0
 50
0.0
 71
     0
 42
0.0
  3
txt
  4

  0
STYLE
  5
26
100
AcDbSymbolTableRecord
100
AcDbTextStyleTableRecord
  2
Bookman Old Style
 70
     0
 40
1.0
 41
1.0
 50
0.0
 71
     0
 42
1.0
  3
Bookman Old Style
  4

  0
ENDTAB
  0
TABLE
  2
VIEW
  5
5
100
AcDbSymbolTable
 70
     0
  0
ENDTAB
  0
TABLE
  2
UCS
  5
6
100
AcDbSymbolTable
 70
     0
  0
ENDTAB
  0
TABLE
  2
APPID
  5
8
100
AcDbSymbolTable
 70
     1
  0
APPID
  5
16
100
AcDbSymbolTableRecord
100
AcDbRegAppTableRecord
  2
ACAD
 70
     0
  0
ENDTAB
  0
TABLE
  2
DIMSTYLE
  5
9
100
AcDbSymbolTable
 70
     1
100
AcDbDimStyleTable
 71
     0
  0
DIMSTYLE
105
18
100
AcDbSymbolTableRecord
100
AcDbDimStyleTableRecord
  2
Standard
 70
     0
  3

  4

 40
1.0
 41
0.18
 42
0.0625
 43
0.38
 44
0.18
 45
0.0
 46
0.0
 47
0.0
 48
0.0
 71
     0
 72
     0
 73
     1
 74
     1
 75
     0
 76
     0
 77
     0
 78
     0
 79
     0
140
0.18
141
0.09
142
0.0
143
25.4
144
1.0
145
0.0
146
1.0
147
0.09
148
0.0
170
     0
171
     2
172
     0
173
     0
174
     0
175
     0
176
     0
177
     0
178
     0
179
     0
271
     4
272
     4
273
     2
274
     2
275
     0
276
     0
277
     2
278
    46
279
     0
280
     0
281
     0
282
     0
283
     1
284
     0
285
     0
286
     0
288
     0
340
17
341
0
342
0
343
0
344
0
371
    -2
372
    -2
  0
ENDTAB
  0
TABLE
  2
BLOCK_RECORD
  5
1
100
AcDbSymbolTable
 70
     0
  0
BLOCK_RECORD
  5
A
100
AcDbSymbolTableRecord
100
AcDbBlockTableRecord
  2
*MODEL_SPACE
340
20
  0
BLOCK_RECORD
  5
B
100
AcDbSymbolTableRecord
100
AcDbBlockTableRecord
  2
*PAPER_SPACE
340
21
  0
ENDTAB
  0
ENDSEC
  0
SECTION
  2
BLOCKS
  0
BLOCK
  5
D
100
AcDbEntity
  8
0
100
AcDbBlockBegin
  2
*MODEL_SPACE
 70
     0
 10
0.0
 20
0.0
 30
0.0
  3
*MODEL_SPACE
  1

  0
ENDBLK
  5
E
100
AcDbEntity
  8
0
100
AcDbBlockEnd
  0
BLOCK
  5
F
100
AcDbEntity
 67
     1
  8
0
100
AcDbBlockBegin
  2
*PAPER_SPACE
 70
     0
 10
0.0
 20
0.0
 30
0.0
  3
*PAPER_SPACE
  1

  0
ENDBLK
  5
10
100
AcDbEntity
 67
     1
  8
0
100
AcDbBlockEnd
  0
ENDSEC
  0
SECTION
  2
ENTITIES
  0
SPLINE
  5
25
100
AcDbEntity
  8
Layer 1
370
     5
100
AcDbSpline
210
0.0
220
0.0
230
1.0
 70
     1
 71
     3
 72
    28
 73
    24
 74
     0
 42
0.0000000001
 43
0.0000000001
 40
0.0
 40
0.0
 40
0.0
 40
0.0
 40
0.1666666666666667
 40
0.1666666666666667
 40
0.1666666666666667
 40
0.1666666666666667
 40
0.3333333333333333
 40
0.3333333333333333
 40
0.3333333333333333
 40
0.3333333333333333
 40
0.5
 40
0.5
 40
0.5
 40
0.5
 40
0.6666666666666666
 40
0.6666666666666666
 40
0.6666666666666666
 40
0.6666666666666666
 40
0.8333333333333333
 40
0.8333333333333333
 40
0.8333333333333333
 40
0.8333333333333333
 40
1.0
 40
1.0
 40
1.0
 40
1.0
 10
0.3827637795275591
 20
2.1499645669291341
 30
0.0
 10
0.9004409448818898
 20
2.1499645669291341
 30
0.0
 10
1.3202637795275591
 20
2.5697874015748035
 30
0.0
 10
1.3202637795275591
 20
3.0874645669291341
 30
0.0
 10
1.3202637795275591
 20
3.0874645669291341
 30
0.0
 10
1.3202637795275591
 20
3.6051417322834647
 30
0.0
 10
0.9004409448818898
 20
4.0249645669291336
 30
0.0
 10
0.3827637795275591
 20
4.0249645669291336
 30
0.0
 10
0.3827637795275591
 20
4.0249645669291336
 30
0.0
 10
0.3827637795275591
 20
4.0249645669291336
 30
0.0
 10
0.3827637795275591
 20
4.5292165354330711
 30
0.0
 10
0.3827637795275591
 20
4.5292165354330711
 30
0.0
 10
0.3827637795275591
 20
4.5292165354330711
 30
0.0
 10
0.3827637795275591
 20
4.5292165354330711
 30
0.0
 10
-1.4246259842519686
 20
4.5292165354330711
 30
0.0
 10
-1.4246259842519686
 20
4.5292165354330711
 30
0.0
 10
-1.4246259842519686
 20
4.5292165354330711
 30
0.0
 10
-1.4246259842519686
 20
4.5292165354330711
 30
0.0
 10
-1.4246259842519686
 20
2.1499645669291341
 30
0.0
 10
-1.4246259842519686
 20
2.1499645669291341
 30
0.0
 10
-1.4246259842519686
 20
2.1499645669291341
 30
0.0
 10
-1.4246259842519686
 20
2.1499645669291341
 30
0.0
 10
0.3827637795275591
 20
2.1499645669291341
 30
0.0
 10
0.3827637795275591
 20
2.1499645669291341
 30
0.0
  0
TEXT
  5
27
100
AcDbEntity
  8
Layer 1
100
AcDbText
 10
-0.827181
 20
1.905461
 30
0.0
 40
0.119999
  1
BA 1555
 51
-0.000002
  7
Bookman Old Style
100
AcDbText
  0
TEXT
  5
28
100
AcDbEntity
  8
Layer 1
100
AcDbText
 10
-1.118846
 20
1.717961
 30
0.0
 40
0.119999
  1
2-3/8\u+201d x 2-3/4\u+201d  
 51
-0.000002
  7
Bookman Old Style
100
AcDbText
  0
SPLINE
  5
29
100
AcDbEntity
  8
Layer 1
 62
   253
100
AcDbSpline
210
0.0
220
0.0
230
1.0
 70
     1
 71
     3
 72
    20
 73
    16
 74
     0
 42
0.0000000001
 43
0.0000000001
 40
0.0
 40
0.0
 40
0.0
 40
0.0
 40
0.25
 40
0.25
 40
0.25
 40
0.25
 40
0.5
 40
0.5
 40
0.5
 40
0.5
 40
0.75
 40
0.75
 40
0.75
 40
0.75
 40
1.0
 40
1.0
 40
1.0
 40
1.0
 10
0.8318464566929135
 20
-1.4561338582677166
 30
0.0
 10
0.8318464566929135
 20
-1.4561338582677166
 30
0.0
 10
1.4892913385826771
 20
-1.0944606299212598
 30
0.0
 10
1.4892913385826771
 20
-1.0944606299212598
 30
0.0
 10
1.4892913385826771
 20
-1.0944606299212598
 30
0.0
 10
1.4892913385826771
 20
-1.0944606299212598
 30
0.0
 10
1.5273307086614174
 20
-1.0700748031496063
 30
0.0
 10
1.5273307086614174
 20
-1.0700748031496063
 30
0.0
 10
1.5273307086614174
 20
-1.0700748031496063
 30
0.0
 10
1.5273307086614174
 20
-1.0700748031496063
 30
0.0
 10
0.8698858267716536
 20
-1.4317480314960631
 30
0.0
 10
0.8698858267716536
 20
-1.4317480314960631
 30
0.0
 10
0.8698858267716536
 20
-1.4317480314960631
 30
0.0
 10
0.8698858267716536
 20
-1.4317480314960631
 30
0.0
 10
0.8318464566929135
 20
-1.4561338582677166
 30
0.0
 10
0.8318464566929135
 20
-1.4561338582677166
 30
0.0
  0
SPLINE
  5
2A
100
AcDbEntity
  8
Layer 1
 62
   253
100
AcDbSpline
210
0.0
220
0.0
230
1.0
 70
     1
 71
     3
 72
    20
 73
    16
 74
     0
 42
0.0000000001
 43
0.0000000001
 40
0.0
 40
0.0
 40
0.0
 40
0.0
 40
0.25
 40
0.25
 40
0.25
 40
0.25
 40
0.5
 40
0.5
 40
0.5
 40
0.5
 40
0.75
 40
0.75
 40
0.75
 40
0.75
 40
1.0
 40
1.0
 40
1.0
 40
1.0
 10
0.8698858267716536
 20
-1.4317480314960631
 30
0.0
 10
0.8698858267716536
 20
-1.4317480314960631
 30
0.0
 10
1.5273307086614174
 20
-1.0700748031496063
 30
0.0
 10
1.5273307086614174
 20
-1.0700748031496063
 30
0.0
 10
1.5273307086614174
 20
-1.0700748031496063
 30
0.0
 10
1.5273307086614174
 20
-1.0700748031496063
 30
0.0
 10
1.5640866141732284
 20
-1.0439330708661418
 30
0.0
 10
1.5640866141732284
 20
-1.0439330708661418
 30
0.0
 10
1.5640866141732284
 20
-1.0439330708661418
 30
0.0
 10
1.5640866141732284
 20
-1.0439330708661418
 30
0.0
 10
0.9066417322834646
 20
-1.4056062992125984
 30
0.0
 10
0.9066417322834646
 20
-1.4056062992125984
 30
0.0
 10
0.9066417322834646
 20
-1.4056062992125984
 30
0.0
 10
0.9066417322834646
 20
-1.4056062992125984
 30
0.0
 10
0.8698858267716536
 20
-1.4317480314960631
 30
0.0
 10
0.8698858267716536
 20
-1.4317480314960631
 30
0.0
  0
SPLINE
  5
2B
100
AcDbEntity
  8
Layer 1
 62
   253
100
AcDbSpline
210
0.0
220
0.0
230
1.0
 70
     1
 71
     3
 72
    20
 73
    16
 74
     0
 42
0.0000000001
 43
0.0000000001
 40
0.0
 40
0.0
 40
0.0
 40
0.0
 40
0.25
 40
0.25
 40
0.25
 40
0.25
 40
0.5
 40
0.5
 40
0.5
 40
0.5
 40
0.75
 40
0.75
 40
0.75
 40
0.75
 40
1.0
 40
1.0
 40
1.0
 40
1.0
 10
0.9066417322834646
 20
-1.4056062992125984
 30
0.0
 10
0.9066417322834646
 20
-1.4056062992125984
 30
0.0
 10
1.5640866141732284
 20
-1.0439330708661418
 30
0.0
 10
1.5640866141732284
 20
-1.0439330708661418
 30
0.0
 10
1.5640866141732284
 20
-1.0439330708661418
 30
0.0
 10
1.5640866141732284
 20
-1.0439330708661418
 30
0.0
 10
1.599507874015748
 20
-1.0161023622047245
 30
0.0
 10
1.599507874015748
 20
-1.0161023622047245
 30
0.0
 10
1.599507874015748
 20
-1.0161023622047245
 30
0.0
 10
1.599507874015748
 20
-1.0161023622047245
 30
0.0
 10
0.9420629921259843
 20
-1.3777755905511813
 30
0.0
 10
0.9420629921259843
 20
-1.3777755905511813
 30
0.0
 10
0.9420629921259843
 20
-1.3777755905511813
 30
0.0
 10
0.9420629921259843
 20
-1.3777755905511813
 30
0.0
 10
0.9066417322834646
 20
-1.4056062992125984
 30
0.0
 10
0.9066417322834646
 20
-1.4056062992125984
 30
0.0
  0
SPLINE
  5
2C
100
AcDbEntity
  8
Layer 1
 62
     9
100
AcDbSpline
210
0.0
220
0.0
230
1.0
 70
     1
 71
     3
 72
    20
 73
    16
 74
     0
 42
0.0000000001
 43
0.0000000001
 40
0.0
 40
0.0
 40
0.0
 40
0.0
 40
0.25
 40
0.25
 40
0.25
 40
0.25
 40
0.5
 40
0.5
 40
0.5
 40
0.5
 40
0.75
 40
0.75
 40
0.75
 40
0.75
 40
1.0
 40
1.0
 40
1.0
 40
1.0
 10
0.9420629921259843
 20
-1.3777755905511813
 30
0.0
 10
0.9420629921259843
 20
-1.3777755905511813
 30
0.0
 10
1.599507874015748
 20
-1.0161023622047245
 30
0.0
 10
1.599507874015748
 20
-1.0161023622047245
 30
0.0
 10
1.599507874015748
 20
-1.0161023622047245
 30
0.0
 10
1.599507874015748
 20
-1.0161023622047245
 30
0.0
 10
1.6335236220472442
 20
-0.9866338582677166
 30
0.0
 10
1.6335236220472442
 20
-0.9866338582677166
 30
0.0
 10
1.6335236220472442
 20
-0.9866338582677166
 30
0.0
 10
1.6335236220472442
 20
-0.9866338582677166
 30
0.0
 10
0.9760787401574803
 20
-1.3483070866141733
 30
0.0
 10
0.9760787401574803
 20
-1.3483070866141733
 30
0.0
 10
0.9760787401574803
 20
-1.3483070866141733
 30
0.0
 10
0.9760787401574803
 20
-1.3483070866141733
 30
0.0
 10
0.9420629921259843
 20
-1.3777755905511813
 30
0.0
 10
0.9420629921259843
 20
-1.3777755905511813
 30
0.0
  0
SPLINE
  5
2D
100
AcDbEntity
  8
Layer 1
 62
     9
100
AcDbSpline
210
0.0
220
0.0
230
1.0
 70
     1
 71
     3
 72
    20
 73
    16
 74
     0
 42
0.0000000001
 43
0.0000000001
 40
0.0
 40
0.0
 40
0.0
 40
0.0
 40
0.25
 40
0.25
 40
0.25
 40
0.25
 40
0.5
 40
0.5
 40
0.5
 40
0.5
 40
0.75
 40
0.75
 40
0.75
 40
0.75
 40
1.0
 40
1.0
 40
1.0
 40
1.0
 10
0.9760787401574803
 20
-1.3483070866141733
 30
0.0
 10
0.9760787401574803
 20
-1.3483070866141733
 30
0.0
 10
1.6335236220472442
 20
-0.9866338582677166
 30
0.0
 10
1.6335236220472442
 20
-0.9866338582677166
 30
0.0
 10
1.6335236220472442
 20
-0.9866338582677166
 30
0.0
 10
1.6335236220472442
 20
-0.9866338582677166
 30
0.0
 10
1.6660905511811024
 20
-0.9555944881889764
 30
0.0
 10
1.6660905511811024
 20
-0.9555944881889764
 30
0.0
 10
1.6660905511811024
 20
-0.9555944881889764
 30
0.0
 10
1.6660905511811024
 20
-0.9555944881889764
 30
0.0
 10
1.0086456692913386
 20
-1.3172677165354332
 30
0.0
 10
1.0086456692913386
 20
-1.3172677165354332
 30
0.0
 10
1.0086456692913386
 20
-1.3172677165354332
 30
0.0
 10
1.0086456692913386
 20
-1.3172677165354332
 30
0.0
 10
0.9760787401574803
 20
-1.3483070866141733
 30
0.0
 10
0.9760787401574803
 20
-1.3483070866141733
 30
0.0
  0
SPLINE
  5
2E
100
AcDbEntity
  8
Layer 1
 62
     9
100
AcDbSpline
210
0.0
220
0.0
230
1.0
 70
     1
 71
     3
 72
    20
 73
    16
 74
     0
 42
0.0000000001
 43
0.0000000001
 40
0.0
 40
0.0
 40
0.0
 40
0.0
 40
0.25
 40
0.25
 40
0.25
 40
0.25
 40
0.5
 40
0.5
 40
0.5
 40
0.5
 40
0.75
 40
0.75
 40
0.75
 40
0.75
 40
1.0
 40
1.0
 40
1.0
 40
1.0
 10
1.0086456692913386
 20
-1.3172677165354332
 30
0.0
 10
1.0086456692913386
 20
-1.3172677165354332
 30
0.0
 10
1.6660905511811024
 20
-0.9555944881889764
 30
0.0
 10
1.6660905511811024
 20
-0.9555944881889764
 30
0.0
 10
1.6660905511811024
 20
-0.9555944881889764
 30
0.0
 10
1.6660905511811024
 20
-0.9555944881889764
 30
0.0
 10
1.6971299212598425
 20
-0.9230275590551181
 30
0.0
 10
1.6971299212598425
 20
-0.9230275590551181
 30
0.0
 10
1.6971299212598425
 20
-0.9230275590551181
 30
0.0
 10
1.6971299212598425
 20
-0.9230275590551181
 30
0.0
 10
1.0396850393700787
 20
-1.2847007874015748
 30
0.0
 10
1.0396850393700787
 20
-1.2847007874015748
 30
0.0
 10
1.0396850393700787
 20
-1.2847007874015748
 30
0.0
 10
1.0396850393700787
 20
-1.2847007874015748
 30
0.0
 10
1.0086456692913386
 20
-1.3172677165354332
 30
0.0
 10
1.0086456692913386
 20
-1.3172677165354332
 30
0.0
  0
SPLINE
  5
2F
100
AcDbEntity
  8
Layer 1
 62
     9
100
AcDbSpline
210
0.0
220
0.0
230
1.0
 70
     1
 71
     3
 72
    20
 73
    16
 74
     0
 42
0.0000000001
 43
0.0000000001
 40
0.0
 40
0.0
 40
0.0
 40
0.0
 40
0.25
 40
0.25
 40
0.25
 40
0.25
 40
0.5
 40
0.5
 40
0.5
 40
0.5
 40
0.75
 40
0.75
 40
0.75
 40
0.75
 40
1.0
 40
1.0
 40
1.0
 40
1.0
 10
1.0396850393700787
 20
-1.2847007874015748
 30
0.0
 10
1.0396850393700787
 20
-1.2847007874015748
 30
0.0
 10
1.6971299212598425
 20
-0.9230275590551181
 30
0.0
 10
1.6971299212598425
 20
-0.9230275590551181
 30
0.0
 10
1.6971299212598425
 20
-0.9230275590551181
 30
0.0
 10
1.6971299212598425
 20
-0.9230275590551181
 30
0.0
 10
1.7265984251968505
 20
-0.889011811023622
 30
0.0
 10
1.7265984251968505
 20
-0.889011811023622
 30
0.0
 10
1.7265984251968505
 20
-0.889011811023622
 30
0.0
 10
1.7265984251968505
 20
-0.889011811023622
 30
0.0
 10
1.0691535433070867
 20
-1.2506850393700788
 30
0.0
 10
1.0691535433070867
 20
-1.2506850393700788
 30
0.0
 10
1.0691535433070867
 20
-1.2506850393700788
 30
0.0
 10
1.0691535433070867
 20
-1.2506850393700788
 30
0.0
 10
1.0396850393700787
 20
-1.2847007874015748
 30
0.0
 10
1.0396850393700787
 20
-1.2847007874015748
 30
0.0
  0
SPLINE
  5
30
100
AcDbEntity
  8
Layer 1
 62
     9
100
AcDbSpline
210
0.0
220
0.0
230
1.0
 70
     1
 71
     3
 72
    20
 73
    16
 74
     0
 42
0.0000000001
 43
0.0000000001
 40
0.0
 40
0.0
 40
0.0
 40
0.0
 40
0.25
 40
0.25
 40
0.25
 40
0.25
 40
0.5
 40
0.5
 40
0.5
 40
0.5
 40
0.75
 40
0.75
 40
0.75
 40
0.75
 40
1.0
 40
1.0
 40
1.0
 40
1.0
 10
1.0691535433070867
 20
-1.2506850393700788
 30
0.0
 10
1.0691535433070867
 20
-1.2506850393700788
 30
0.0
 10
1.7265984251968505
 20
-0.889011811023622
 30
0.0
 10
1.7265984251968505
 20
-0.889011811023622
 30
0.0
 10
1.7265984251968505
 20
-0.889011811023622
 30
0.0
 10
1.7265984251968505
 20
-0.889011811023622
 30
0.0
 10
1.7544291338582678
 20
-0.8535905511811024
 30
0.0
 10
1.7544291338582678
 20
-0.8535905511811024
 30
0.0
 10
1.7544291338582678
 20
-0.8535905511811024
 30
0.0
 10
1.7544291338582678
 20
-0.8535905511811024
 30
0.0
 10
1.096984251968504
 20
-1.2152637795275592
 30
0.0
 10
1.096984251968504
 20
-1.2152637795275592
 30
0.0
 10
1.096984251968504
 20
-1.2152637795275592
 30
0.0
 10
1.096984251968504
 20
-1.2152637795275592
 30
0.0
 10
1.0691535433070867
 20
-1.2506850393700788
 30
0.0
 10
1.0691535433070867
 20
-1.2506850393700788
 30
0.0
  0
SPLINE
  5
31
100
AcDbEntity
  8
Layer 1
 62
     9
100
AcDbSpline
210
0.0
220
0.0
230
1.0
 70
     1
 71
     3
 72
    20
 73
    16
 74
     0
 42
0.0000000001
 43
0.0000000001
 40
0.0
 40
0.0
 40
0.0
 40
0.0
 40
0.25
 40
0.25
 40
0.25
 40
0.25
 40
0.5
 40
0.5
 40
0.5
 40
0.5
 40
0.75
 40
0.75
 40
0.75
 40
0.75
 40
1.0
 40
1.0
 40
1.0
 40
1.0
 10
1.096984251968504
 20
-1.2152637795275592
 30
0.0
 10
1.096984251968504
 20
-1.2152637795275592
 30
0.0
 10
1.7544291338582678
 20
-0.8535905511811024
 30
0.0
 10
1.7544291338582678
 20
-0.8535905511811024
 30
0.0
 10
1.7544291338582678
 20
-0.8535905511811024
 30
0.0
 10
1.7544291338582678
 20
-0.8535905511811024
 30
0.0
 10
1.7805708661417323
 20
-0.8168346456692913
 30
0.0
 10
1.7805708661417323
 20
-0.8168346456692913
 30
0.0
 10
1.7805708661417323
 20
-0.8168346456692913
 30
0.0
 10
1.7805708661417323
 20
-0.8168346456692913
 30
0.0
 10
1.1231259842519685
 20
-1.178507874015748
 30
0.0
 10
1.1231259842519685
 20
-1.178507874015748
 30
0.0
 10
1.1231259842519685
 20
-1.178507874015748
 30
0.0
 10
1.1231259842519685
 20
-1.178507874015748
 30
0.0
 10
1.096984251968504
 20
-1.2152637795275592
 30
0.0
 10
1.096984251968504
 20
-1.2152637795275592
 30
0.0
  0
SPLINE
  5
32
100
AcDbEntity
  8
Layer 1
 62
     9
100
AcDbSpline
210
0.0
220
0.0
230
1.0
 70
     1
 71
     3
 72
    20
 73
    16
 74
     0
 42
0.0000000001
 43
0.0000000001
 40
0.0
 40
0.0
 40
0.0
 40
0.0
 40
0.25
 40
0.25
 40
0.25
 40
0.25
 40
0.5
 40
0.5
 40
0.5
 40
0.5
 40
0.75
 40
0.75
 40
0.75
 40
0.75
 40
1.0
 40
1.0
 40
1.0
 40
1.0
 10
1.1231259842519685
 20
-1.178507874015748
 30
0.0
 10
1.1231259842519685
 20
-1.178507874015748
 30
0.0
 10
1.7805708661417323
 20
-0.8168346456692913
 30
0.0
 10
1.7805708661417323
 20
-0.8168346456692913
 30
0.0
 10
1.7805708661417323
 20
-0.8168346456692913
 30
0.0
 10
1.7805708661417323
 20
-0.8168346456692913
 30
0.0
 10
1.8049566929133858
 20
-0.7787952755905512
 30
0.0
 10
1.8049566929133858
 20
-0.7787952755905512
 30
0.0
 10
1.8049566929133858
 20
-0.7787952755905512
 30
0.0
 10
1.8049566929133858
 20
-0.7787952755905512
 30
0.0
 10
1.147511811023622
 20
-1.1404685039370079
 30
0.0
 10
1.147511811023622
 20
-1.1404685039370079
 30
0.0
 10
1.147511811023622
 20
-1.1404685039370079
 30
0.0
 10
1.147511811023622
 20
-1.1404685039370079
 30
0.0
 10
1.1231259842519685
 20
-1.178507874015748
 30
0.0
 10
1.1231259842519685
 20
-1.178507874015748
 30
0.0
  0
SPLINE
  5
33
100
AcDbEntity
  8
Layer 1
 62
     9
100
AcDbSpline
210
0.0
220
0.0
230
1.0
 70
     1
 71
     3
 72
    20
 73
    16
 74
     0
 42
0.0000000001
 43
0.0000000001
 40
0.0
 40
0.0
 40
0.0
 40
0.0
 40
0.25
 40
0.25
 40
0.25
 40
0.25
 40
0.5
 40
0.5
 40
0.5
 40
0.5
 40
0.75
 40
0.75
 40
0.75
 40
0.75
 40
1.0
 40
1.0
 40
1.0
 40
1.0
 10
1.147511811023622
 20
-1.1404685039370079
 30
0.0
 10
1.147511811023622
 20
-1.1404685039370079
 30
0.0
 10
1.8049566929133858
 20
-0.7787952755905512
 30
0.0
 10
1.8049566929133858
 20
-0.7787952755905512
 30
0.0
 10
1.8049566929133858
 20
-0.7787952755905512
 30
0.0
 10
1.8049566929133858
 20
-0.7787952755905512
 30
0.0
 10
1.8275354330708662
 20
-0.7395393700787402
 30
0.0
 10
1.8275354330708662
 20
-0.7395393700787402
 30
0.0
 10
1.8275354330708662
 20
-0.7395393700787402
 30
0.0
 10
1.8275354330708662
 20
-0.7395393700787402
 30
0.0
 10
1.1700905511811024
 20
-1.1012125984251968
 30
0.0
 10
1.1700905511811024
 20
-1.1012125984251968
 30
0.0
 10
1.1700905511811024
 20
-1.1012125984251968
 30
0.0
 10
1.1700905511811024
 20
-1.1012125984251968
 30
0.0
 10
1.147511811023622
 20
-1.1404685039370079
 30
0.0
 10
1.147511811023622
 20
-1.1404685039370079
 30
0.0
  0
SPLINE
  5
34
100
AcDbEntity
  8
Layer 1
 62
     9
100
AcDbSpline
210
0.0
220
0.0
230
1.0
 70
     1
 71
     3
 72
    20
 73
    16
 74
     0
 42
0.0000000001
 43
0.0000000001
 40
0.0
 40
0.0
 40
0.0
 40
0.0
 40
0.25
 40
0.25
 40
0.25
 40
0.25
 40
0.5
 40
0.5
 40
0.5
 40
0.5
 40
0.75
 40
0.75
 40
0.75
 40
0.75
 40
1.0
 40
1.0
 40
1.0
 40
1.0
 10
1.1700905511811024
 20
-1.1012125984251968
 30
0.0
 10
1.1700905511811024
 20
-1.1012125984251968
 30
0.0
 10
1.8275354330708662
 20
-0.7395393700787402
 30
0.0
 10
1.8275354330708662
 20
-0.7395393700787402
 30
0.0
 10
1.8275354330708662
 20
-0.7395393700787402
 30
0.0
 10
1.8275354330708662
 20
-0.7395393700787402
 30
0.0
 10
1.8482401574803151
 20
-0.6991141732283465
 30
0.0
 10
1.8482401574803151
 20
-0.6991141732283465
 30
0.0
 10
1.8482401574803151
 20
-0.6991141732283465
 30
0.0
 10
1.8482401574803151
 20
-0.6991141732283465
 30
0.0
 10
1.1907952755905513
 20
-1.0607874015748031
 30
0.0
 10
1.1907952755905513
 20
-1.0607874015748031
 30
0.0
 10
1.1907952755905513
 20
-1.0607874015748031
 30
0.0
 10
1.1907952755905513
 20
-1.0607874015748031
 30
0.0
 10
1.1700905511811024
 20
-1.1012125984251968
 30
0.0
 10
1.1700905511811024
 20
-1.1012125984251968
 30
0.0
  0
SPLINE
  5
35
100
AcDbEntity
  8
Layer 1
 62
     9
100
AcDbSpline
210
0.0
220
0.0
230
1.0
 70
     1
 71
     3
 72
    20
 73
    16
 74
     0
 42
0.0000000001
 43
0.0000000001
 40
0.0
 40
0.0
 40
0.0
 40
0.0
 40
0.25
 40
0.25
 40
0.25
 40
0.25
 40
0.5
 40
0.5
 40
0.5
 40
0.5
 40
0.75
 40
0.75
 40
0.75
 40
0.75
 40
1.0
 40
1.0
 40
1.0
 40
1.0
 10
1.1907952755905513
 20
-1.0607874015748031
 30
0.0
 10
1.1907952755905513
 20
-1.0607874015748031
 30
0.0
 10
1.8482401574803151
 20
-0.6991141732283465
 30
0.0
 10
1.8482401574803151
 20
-0.6991141732283465
 30
0.0
 10
1.8482401574803151
 20
-0.6991141732283465
 30
0.0
 10
1.8482401574803151
 20
-0.6991141732283465
 30
0.0
 10
1.8670236220472443
 20
-0.6575905511811024
 30
0.0
 10
1.8670236220472443
 20
-0.6575905511811024
 30
0.0
 10
1.8670236220472443
 20
-0.6575905511811024
 30
0.0
 10
1.8670236220472443
 20
-0.6575905511811024
 30
0.0
 10
1.2095787401574805
 20
-1.0192637795275592
 30
0.0
 10
1.2095787401574805
 20
-1.0192637795275592
 30
0.0
 10
1.2095787401574805
 20
-1.0192637795275592
 30
0.0
 10
1.2095787401574805
 20
-1.0192637795275592
 30
0.0
 10
1.1907952755905513
 20
-1.0607874015748031
 30
0.0
 10
1.1907952755905513
 20
-1.0607874015748031
 30
0.0
  0
SPLINE
  5
36
100
AcDbEntity
  8
Layer 1
 62
     9
100
AcDbSpline
210
0.0
220
0.0
230
1.0
 70
     1
 71
     3
 72
    20
 73
    16
 74
     0
 42
0.0000000001
 43
0.0000000001
 40
0.0
 40
0.0
 40
0.0
 40
0.0
 40
0.25
 40
0.25
 40
0.25
 40
0.25
 40
0.5
 40
0.5
 40
0.5
 40
0.5
 40
0.75
 40
0.75
 40
0.75
 40
0.75
 40
1.0
 40
1.0
 40
1.0
 40
1.0
 10
1.2095787401574805
 20
-1.0192637795275592
 30
0.0
 10
1.2095787401574805
 20
-1.0192637795275592
 30
0.0
 10
1.8670236220472443
 20
-0.6575905511811024
 30
0.0
 10
1.8670236220472443
 20
-0.6575905511811024
 30
0.0
 10
1.8670236220472443
 20
-0.6575905511811024
 30
0.0
 10
1.8670236220472443
 20
-0.6575905511811024
 30
0.0
 10
1.8838070866141734
 20
-0.6150157480314961
 30
0.0
 10
1.8838070866141734
 20
-0.6150157480314961
 30
0.0
 10
1.8838070866141734
 20
-0.6150157480314961
 30
0.0
 10
1.8838070866141734
 20
-0.6150157480314961
 30
0.0
 10
1.2263622047244096
 20
-0.9766889763779528
 30
0.0
 10
1.2263622047244096
 20
-0.9766889763779528
 30
0.0
 10
1.2263622047244096
 20
-0.9766889763779528
 30
0.0
 10
1.2263622047244096
 20
-0.9766889763779528
 30
0.0
 10
1.2095787401574805
 20
-1.0192637795275592
 30
0.0
 10
1.2095787401574805
 20
-1.0192637795275592
 30
0.0
  0
SPLINE
  5
37
100
AcDbEntity
  8
Layer 1
 62
     9
100
AcDbSpline
210
0.0
220
0.0
230
1.0
 70
     1
 71
     3
 72
    20
 73
    16
 74
     0
 42
0.0000000001
 43
0.0000000001
 40
0.0
 40
0.0
 40
0.0
 40
0.0
 40
0.25
 40
0.25
 40
0.25
 40
0.25
 40
0.5
 40
0.5
 40
0.5
 40
0.5
 40
0.75
 40
0.75
 40
0.75
 40
0.75
 40
1.0
 40
1.0
 40
1.0
 40
1.0
 10
1.2263622047244096
 20
-0.9766889763779528
 30
0.0
 10
1.2263622047244096
 20
-0.9766889763779528
 30
0.0
 10
1.8838070866141734
 20
-0.6150157480314961
 30
0.0
 10
1.8838070866141734
 20
-0.6150157480314961
 30
0.0
 10
1.8838070866141734
 20
-0.6150157480314961
 30
0.0
 10
1.8838070866141734
 20
-0.6150157480314961
 30
0.0
 10
1.8985511811023623
 20
-0.5714606299212599
 30
0.0
 10
1.8985511811023623
 20
-0.5714606299212599
 30
0.0
 10
1.8985511811023623
 20
-0.5714606299212599
 30
0.0
 10
1.8985511811023623
 20
-0.5714606299212599
 30
0.0
 10
1.2411062992125985
 20
-0.9331338582677166
 30
0.0
 10
1.2411062992125985
 20
-0.9331338582677166
 30
0.0
 10
1.2411062992125985
 20
-0.9331338582677166
 30
0.0
 10
1.2411062992125985
 20
-0.9331338582677166
 30
0.0
 10
1.2263622047244096
 20
-0.9766889763779528
 30
0.0
 10
1.2263622047244096
 20
-0.9766889763779528
 30
0.0
  0
SPLINE
  5
38
100
AcDbEntity
  8
Layer 1
 62
     9
100
AcDbSpline
210
0.0
220
0.0
230
1.0
 70
     1
 71
     3
 72
    20
 73
    16
 74
     0
 42
0.0000000001
 43
0.0000000001
 40
0.0
 40
0.0
 40
0.0
 40
0.0
 40
0.25
 40
0.25
 40
0.25
 40
0.25
 40
0.5
 40
0.5
 40
0.5
 40
0.5
 40
0.75
 40
0.75
 40
0.75
 40
0.75
 40
1.0
 40
1.0
 40
1.0
 40
1.0
 10
1.2411062992125985
 20
-0.9331338582677166
 30
0.0
 10
1.2411062992125985
 20
-0.9331338582677166
 30
0.0
 10
1.8985511811023623
 20
-0.5714606299212599
 30
0.0
 10
1.8985511811023623
 20
-0.5714606299212599
 30
0.0
 10
1.8985511811023623
 20
-0.5714606299212599
 30
0.0
 10
1.8985511811023623
 20
-0.5714606299212599
 30
0.0
 10
1.9111850393700789
 20
-0.5269724409448819
 30
0.0
 10
1.9111850393700789
 20
-0.5269724409448819
 30
0.0
 10
1.9111850393700789
 20
-0.5269724409448819
 30
0.0
 10
1.9111850393700789
 20
-0.5269724409448819
 30
0.0
 10
1.2537401574803151
 20
-0.8886456692913386
 30
0.0
 10
1.2537401574803151
 20
-0.8886456692913386
 30
0.0
 10
1.2537401574803151
 20
-0.8886456692913386
 30
0.0
 10
1.2537401574803151
 20
-0.8886456692913386
 30
0.0
 10
1.2411062992125985
 20
-0.9331338582677166
 30
0.0
 10
1.2411062992125985
 20
-0.9331338582677166
 30
0.0
  0
SPLINE
  5
39
100
AcDbEntity
  8
Layer 1
 62
     9
100
AcDbSpline
210
0.0
220
0.0
230
1.0
 70
     1
 71
     3
 72
    20
 73
    16
 74
     0
 42
0.0000000001
 43
0.0000000001
 40
0.0
 40
0.0
 40
0.0
 40
0.0
 40
0.25
 40
0.25
 40
0.25
 40
0.25
 40
0.5
 40
0.5
 40
0.5
 40
0.5
 40
0.75
 40
0.75
 40
0.75
 40
0.75
 40
1.0
 40
1.0
 40
1.0
 40
1.0
 10
1.2537401574803151
 20
-0.8886456692913386
 30
0.0
 10
1.2537401574803151
 20
-0.8886456692913386
 30
0.0
 10
1.9111850393700789
 20
-0.5269724409448819
 30
0.0
 10
1.9111850393700789
 20
-0.5269724409448819
 30
0.0
 10
1.9111850393700789
 20
-0.5269724409448819
 30
0.0
 10
1.9111850393700789
 20
-0.5269724409448819
 30
0.0
 10
1.9216574803149606
 20
-0.4816220472440945
 30
0.0
 10
1.9216574803149606
 20
-0.4816220472440945
 30
0.0
 10
1.9216574803149606
 20
-0.4816220472440945
 30
0.0
 10
1.9216574803149606
 20
-0.4816220472440945
 30
0.0
 10
1.2642125984251968
 20
-0.8432952755905512
 30
0.0
 10
1.2642125984251968
 20
-0.8432952755905512
 30
0.0
 10
1.2642125984251968
 20
-0.8432952755905512
 30
0.0
 10
1.2642125984251968
 20
-0.8432952755905512
 30
0.0
 10
1.2537401574803151
 20
-0.8886456692913386
 30
0.0
 10
1.2537401574803151
 20
-0.8886456692913386
 30
0.0
  0
SPLINE
  5
3A
100
AcDbEntity
  8
Layer 1
 62
     9
100
AcDbSpline
210
0.0
220
0.0
230
1.0
 70
     1
 71
     3
 72
    20
 73
    16
 74
     0
 42
0.0000000001
 43
0.0000000001
 40
0.0
 40
0.0
 40
0.0
 40
0.0
 40
0.25
 40
0.25
 40
0.25
 40
0.25
 40
0.5
 40
0.5
 40
0.5
 40
0.5
 40
0.75
 40
0.75
 40
0.75
 40
0.75
 40
1.0
 40
1.0
 40
1.0
 40
1.0
 10
1.2642125984251968
 20
-0.8432952755905512
 30
0.0
 10
1.2642125984251968
 20
-0.8432952755905512
 30
0.0
 10
1.9216574803149606
 20
-0.4816220472440945
 30
0.0
 10
1.9216574803149606
 20
-0.4816220472440945
 30
0.0
 10
1.9216574803149606
 20
-0.4816220472440945
 30
0.0
 10
1.9216574803149606
 20
-0.4816220472440945
 30
0.0
 10
1.9299015748031496
 20
-0.4354566929133859
 30
0.0
 10
1.9299015748031496
 20
-0.4354566929133859
 30
0.0
 10
1.9299015748031496
 20
-0.4354566929133859
 30
0.0
 10
1.9299015748031496
 20
-0.4354566929133859
 30
0.0
 10
1.2724566929133858
 20
-0.7971299212598425
 30
0.0
 10
1.2724566929133858
 20
-0.7971299212598425
 30
0.0
 10
1.2724566929133858
 20
-0.7971299212598425
 30
0.0
 10
1.2724566929133858
 20
-0.7971299212598425
 30
0.0
 10
1.2642125984251968
 20
-0.8432952755905512
 30
0.0
 10
1.2642125984251968
 20
-0.8432952755905512
 30
0.0
  0
SPLINE
  5
3B
100
AcDbEntity
  8
Layer 1
 62
     9
100
AcDbSpline
210
0.0
220
0.0
230
1.0
 70
     1
 71
     3
 72
    20
 73
    16
 74
     0
 42
0.0000000001
 43
0.0000000001
 40
0.0
 40
0.0
 40
0.0
 40
0.0
 40
0.25
 40
0.25
 40
0.25
 40
0.25
 40
0.5
 40
0.5
 40
0.5
 40
0.5
 40
0.75
 40
0.75
 40
0.75
 40
0.75
 40
1.0
 40
1.0
 40
1.0
 40
1.0
 10
1.2724566929133858
 20
-0.7971299212598425
 30
0.0
 10
1.2724566929133858
 20
-0.7971299212598425
 30
0.0
 10
1.9299015748031496
 20
-0.4354566929133859
 30
0.0
 10
1.9299015748031496
 20
-0.4354566929133859
 30
0.0
 10
1.9299015748031496
 20
-0.4354566929133859
 30
0.0
 10
1.9299015748031496
 20
-0.4354566929133859
 30
0.0
 10
1.9358661417322836
 20
-0.3885472440944882
 30
0.0
 10
1.9358661417322836
 20
-0.3885472440944882
 30
0.0
 10
1.9358661417322836
 20
-0.3885472440944882
 30
0.0
 10
1.9358661417322836
 20
-0.3885472440944882
 30
0.0
 10
1.2784212598425198
 20
-0.7502204724409449
 30
0.0
 10
1.2784212598425198
 20
-0.7502204724409449
 30
0.0
 10
1.2784212598425198
 20
-0.7502204724409449
 30
0.0
 10
1.2784212598425198
 20
-0.7502204724409449
 30
0.0
 10
1.2724566929133858
 20
-0.7971299212598425
 30
0.0
 10
1.2724566929133858
 20
-0.7971299212598425
 30
0.0
  0
SPLINE
  5
3C
100
AcDbEntity
  8
Layer 1
 62
     9
100
AcDbSpline
210
0.0
220
0.0
230
1.0
 70
     1
 71
     3
 72
    20
 73
    16
 74
     0
 42
0.0000000001
 43
0.0000000001
 40
0.0
 40
0.0
 40
0.0
 40
0.0
 40
0.25
 40
0.25
 40
0.25
 40
0.25
 40
0.5
 40
0.5
 40
0.5
 40
0.5
 40
0.75
 40
0.75
 40
0.75
 40
0.75
 40
1.0
 40
1.0
 40
1.0
 40
1.0
 10
1.2784212598425198
 20
-0.7502204724409449
 30
0.0
 10
1.2784212598425198
 20
-0.7502204724409449
 30
0.0
 10
1.9358661417322836
 20
-0.3885472440944882
 30
0.0
 10
1.9358661417322836
 20
-0.3885472440944882
 30
0.0
 10
1.9358661417322836
 20
-0.3885472440944882
 30
0.0
 10
1.9358661417322836
 20
-0.3885472440944882
 30
0.0
 10
1.939488188976378
 20
-0.3409448818897638
 30
0.0
 10
1.939488188976378
 20
-0.3409448818897638
 30
0.0
 10
1.939488188976378
 20
-0.3409448818897638
 30
0.0
 10
1.939488188976378
 20
-0.3409448818897638
 30
0.0
 10
1.2820433070866142
 20
-0.7026181102362205
 30
0.0
 10
1.2820433070866142
 20
-0.7026181102362205
 30
0.0
 10
1.2820433070866142
 20
-0.7026181102362205
 30
0.0
 10
1.2820433070866142
 20
-0.7026181102362205
 30
0.0
 10
1.2784212598425198
 20
-0.7502204724409449
 30
0.0
 10
1.2784212598425198
 20
-0.7502204724409449
 30
0.0
  0
SPLINE
  5
3D
100
AcDbEntity
  8
Layer 1
 62
     9
100
AcDbSpline
210
0.0
220
0.0
230
1.0
 70
     1
 71
     3
 72
    20
 73
    16
 74
     0
 42
0.0000000001
 43
0.0000000001
 40
0.0
 40
0.0
 40
0.0
 40
0.0
 40
0.25
 40
0.25
 40
0.25
 40
0.25
 40
0.5
 40
0.5
 40
0.5
 40
0.5
 40
0.75
 40
0.75
 40
0.75
 40
0.75
 40
1.0
 40
1.0
 40
1.0
 40
1.0
 10
1.2820433070866142
 20
-0.7026181102362205
 30
0.0
 10
1.2820433070866142
 20
-0.7026181102362205
 30
0.0
 10
1.939488188976378
 20
-0.3409448818897638
 30
0.0
 10
1.939488188976378
 20
-0.3409448818897638
 30
0.0
 10
1.939488188976378
 20
-0.3409448818897638
 30
0.0
 10
1.939488188976378
 20
-0.3409448818897638
 30
0.0
 10
1.9407125984251969
 20
-0.2927165354330709
 30
0.0
 10
1.9407125984251969
 20
-0.2927165354330709
 30
0.0
 10
1.9407125984251969
 20
-0.2927165354330709
 30
0.0
 10
1.9407125984251969
 20
-0.2927165354330709
 30
0.0
 10
1.2832677165354331
 20
-0.6543897637795276
 30
0.0
 10
1.2832677165354331
 20
-0.6543897637795276
 30
0.0
 10
1.2832677165354331
 20
-0.6543897637795276
 30
0.0
 10
1.2832677165354331
 20
-0.6543897637795276
 30
0.0
 10
1.2820433070866142
 20
-0.7026181102362205
 30
0.0
 10
1.2820433070866142
 20
-0.7026181102362205
 30
0.0
  0
SPLINE
  5
3E
100
AcDbEntity
  8
Layer 1
 62
     9
100
AcDbSpline
210
0.0
220
0.0
230
1.0
 70
     1
 71
     3
 72
    20
 73
    16
 74
     0
 42
0.0000000001
 43
0.0000000001
 40
0.0
 40
0.0
 40
0.0
 40
0.0
 40
0.25
 40
0.25
 40
0.25
 40
0.25
 40
0.5
 40
0.5
 40
0.5
 40
0.5
 40
0.75
 40
0.75
 40
0.75
 40
0.75
 40
1.0
 40
1.0
 40
1.0
 40
1.0
 10
1.2832677165354331
 20
-0.6543897637795276
 30
0.0
 10
1.2832677165354331
 20
-0.6543897637795276
 30
0.0
 10
1.9407125984251969
 20
-0.2927165354330709
 30
0.0
 10
1.9407125984251969
 20
-0.2927165354330709
 30
0.0
 10
1.9407125984251969
 20
-0.2927165354330709
 30
0.0
 10
1.9407125984251969
 20
-0.2927165354330709
 30
0.0
 10
1.939488188976378
 20
-0.2444763779527559
 30
0.0
 10
1.939488188976378
 20
-0.2444763779527559
 30
0.0
 10
1.939488188976378
 20
-0.2444763779527559
 30
0.0
 10
1.939488188976378
 20
-0.2444763779527559
 30
0.0
 10
1.2820433070866142
 20
-0.6061496062992127
 30
0.0
 10
1.2820433070866142
 20
-0.6061496062992127
 30
0.0
 10
1.2820433070866142
 20
-0.6061496062992127
 30
0.0
 10
1.2820433070866142
 20
-0.6061496062992127
 30
0.0
 10
1.2832677165354331
 20
-0.6543897637795276
 30
0.0
 10
1.2832677165354331
 20
-0.6543897637795276
 30
0.0
  0
SPLINE
  5
3F
100
AcDbEntity
  8
Layer 1
 62
     9
100
AcDbSpline
210
0.0
220
0.0
230
1.0
 70
     1
 71
     3
 72
    20
 73
    16
 74
     0
 42
0.0000000001
 43
0.0000000001
 40
0.0
 40
0.0
 40
0.0
 40
0.0
 40
0.25
 40
0.25
 40
0.25
 40
0.25
 40
0.5
 40
0.5
 40
0.5
 40
0.5
 40
0.75
 40
0.75
 40
0.75
 40
0.75
 40
1.0
 40
1.0
 40
1.0
 40
1.0
 10
1.2820433070866142
 20
-0.6061496062992127
 30
0.0
 10
1.2820433070866142
 20
-0.6061496062992127
 30
0.0
 10
1.939488188976378
 20
-0.2444763779527559
 30
0.0
 10
1.939488188976378
 20
-0.2444763779527559
 30
0.0
 10
1.939488188976378
 20
-0.2444763779527559
 30
0.0
 10
1.939488188976378
 20
-0.2444763779527559
 30
0.0
 10
1.9358661417322836
 20
-0.1968740157480315
 30
0.0
 10
1.9358661417322836
 20
-0.1968740157480315
 30
0.0
 10
1.9358661417322836
 20
-0.1968740157480315
 30
0.0
 10
1.9358661417322836
 20
-0.1968740157480315
 30
0.0
 10
1.2784212598425198
 20
-0.5585472440944882
 30
0.0
 10
1.2784212598425198
 20
-0.5585472440944882
 30
0.0
 10
1.2784212598425198
 20
-0.5585472440944882
 30
0.0
 10
1.2784212598425198
 20
-0.5585472440944882
 30
0.0
 10
1.2820433070866142
 20
-0.6061496062992127
 30
0.0
 10
1.2820433070866142
 20
-0.6061496062992127
 30
0.0
  0
SPLINE
  5
40
100
AcDbEntity
  8
Layer 1
 62
     9
100
AcDbSpline
210
0.0
220
0.0
230
1.0
 70
     1
 71
     3
 72
    20
 73
    16
 74
     0
 42
0.0000000001
 43
0.0000000001
 40
0.0
 40
0.0
 40
0.0
 40
0.0
 40
0.25
 40
0.25
 40
0.25
 40
0.25
 40
0.5
 40
0.5
 40
0.5
 40
0.5
 40
0.75
 40
0.75
 40
0.75
 40
0.75
 40
1.0
 40
1.0
 40
1.0
 40
1.0
 10
1.2784212598425198
 20
-0.5585472440944882
 30
0.0
 10
1.2784212598425198
 20
-0.5585472440944882
 30
0.0
 10
1.9358661417322836
 20
-0.1968740157480315
 30
0.0
 10
1.9358661417322836
 20
-0.1968740157480315
 30
0.0
 10
1.9358661417322836
 20
-0.1968740157480315
 30
0.0
 10
1.9358661417322836
 20
-0.1968740157480315
 30
0.0
 10
1.9299015748031496
 20
-0.1499606299212599
 30
0.0
 10
1.9299015748031496
 20
-0.1499606299212599
 30
0.0
 10
1.9299015748031496
 20
-0.1499606299212599
 30
0.0
 10
1.9299015748031496
 20
-0.1499606299212599
 30
0.0
 10
1.2724566929133858
 20
-0.5116338582677166
 30
0.0
 10
1.2724566929133858
 20
-0.5116338582677166
 30
0.0
 10
1.2724566929133858
 20
-0.5116338582677166
 30
0.0
 10
1.2724566929133858
 20
-0.5116338582677166
 30
0.0
 10
1.2784212598425198
 20
-0.5585472440944882
 30
0.0
 10
1.2784212598425198
 20
-0.5585472440944882
 30
0.0
  0
SPLINE
  5
41
100
AcDbEntity
  8
Layer 1
 62
     9
100
AcDbSpline
210
0.0
220
0.0
230
1.0
 70
     1
 71
     3
 72
    20
 73
    16
 74
     0
 42
0.0000000001
 43
0.0000000001
 40
0.0
 40
0.0
 40
0.0
 40
0.0
 40
0.25
 40
0.25
 40
0.25
 40
0.25
 40
0.5
 40
0.5
 40
0.5
 40
0.5
 40
0.75
 40
0.75
 40
0.75
 40
0.75
 40
1.0
 40
1.0
 40
1.0
 40
1.0
 10
1.2724566929133858
 20
-0.5116338582677166
 30
0.0
 10
1.2724566929133858
 20
-0.5116338582677166
 30
0.0
 10
1.9299015748031496
 20
-0.1499606299212599
 30
0.0
 10
1.9299015748031496
 20
-0.1499606299212599
 30
0.0
 10
1.9299015748031496
 20
-0.1499606299212599
 30
0.0
 10
1.9299015748031496
 20
-0.1499606299212599
 30
0.0
 10
1.9216574803149606
 20
-0.1037992125984252
 30
0.0
 10
1.9216574803149606
 20
-0.1037992125984252
 30
0.0
 10
1.9216574803149606
 20
-0.1037992125984252
 30
0.0
 10
1.9216574803149606
 20
-0.1037992125984252
 30
0.0
 10
1.2642125984251968
 20
-0.4654724409448819
 30
0.0
 10
1.2642125984251968
 20
-0.4654724409448819
 30
0.0
 10
1.2642125984251968
 20
-0.4654724409448819
 30
0.0
 10
1.2642125984251968
 20
-0.4654724409448819
 30
0.0
 10
1.2724566929133858
 20
-0.5116338582677166
 30
0.0
 10
1.2724566929133858
 20
-0.5116338582677166
 30
0.0
  0
SPLINE
  5
42
100
AcDbEntity
  8
Layer 1
 62
     9
100
AcDbSpline
210
0.0
220
0.0
230
1.0
 70
     1
 71
     3
 72
    20
 73
    16
 74
     0
 42
0.0000000001
 43
0.0000000001
 40
0.0
 40
0.0
 40
0.0
 40
0.0
 40
0.25
 40
0.25
 40
0.25
 40
0.25
 40
0.5
 40
0.5
 40
0.5
 40
0.5
 40
0.75
 40
0.75
 40
0.75
 40
0.75
 40
1.0
 40
1.0
 40
1.0
 40
1.0
 10
1.2642125984251968
 20
-0.4654724409448819
 30
0.0
 10
1.2642125984251968
 20
-0.4654724409448819
 30
0.0
 10
1.9216574803149606
 20
-0.1037992125984252
 30
0.0
 10
1.9216574803149606
 20
-0.1037992125984252
 30
0.0
 10
1.9216574803149606
 20
-0.1037992125984252
 30
0.0
 10
1.9216574803149606
 20
-0.1037992125984252
 30
0.0
 10
1.9111850393700789
 20
-0.0584448818897638
 30
0.0
 10
1.9111850393700789
 20
-0.0584448818897638
 30
0.0
 10
1.9111850393700789
 20
-0.0584448818897638
 30
0.0
 10
1.9111850393700789
 20
-0.0584448818897638
 30
0.0
 10
1.2537401574803151
 20
-0.4201181102362205
 30
0.0
 10
1.2537401574803151
 20
-0.4201181102362205
 30
0.0
 10
1.2537401574803151
 20
-0.4201181102362205
 30
0.0
 10
1.2537401574803151
 20
-0.4201181102362205
 30
0.0
 10
1.2642125984251968
 20
-0.4654724409448819
 30
0.0
 10
1.2642125984251968
 20
-0.4654724409448819
 30
0.0
  0
SPLINE
  5
43
100
AcDbEntity
  8
Layer 1
 62
     9
100
AcDbSpline
210
0.0
220
0.0
230
1.0
 70
     1
 71
     3
 72
    20
 73
    16
 74
     0
 42
0.0000000001
 43
0.0000000001
 40
0.0
 40
0.0
 40
0.0
 40
0.0
 40
0.25
 40
0.25
 40
0.25
 40
0.25
 40
0.5
 40
0.5
 40
0.5
 40
0.5
 40
0.75
 40
0.75
 40
0.75
 40
0.75
 40
1.0
 40
1.0
 40
1.0
 40
1.0
 10
1.2537401574803151
 20
-0.4201181102362205
 30
0.0
 10
1.2537401574803151
 20
-0.4201181102362205
 30
0.0
 10
1.9111850393700789
 20
-0.0584448818897638
 30
0.0
 10
1.9111850393700789
 20
-0.0584448818897638
 30
0.0
 10
1.9111850393700789
 20
-0.0584448818897638
 30
0.0
 10
1.9111850393700789
 20
-0.0584448818897638
 30
0.0
 10
1.8985511811023623
 20
-0.0139606299212598
 30
0.0
 10
1.8985511811023623
 20
-0.0139606299212598
 30
0.0
 10
1.8985511811023623
 20
-0.0139606299212598
 30
0.0
 10
1.8985511811023623
 20
-0.0139606299212598
 30
0.0
 10
1.2411062992125985
 20
-0.3756338582677166
 30
0.0
 10
1.2411062992125985
 20
-0.3756338582677166
 30
0.0
 10
1.2411062992125985
 20
-0.3756338582677166
 30
0.0
 10
1.2411062992125985
 20
-0.3756338582677166
 30
0.0
 10
1.2537401574803151
 20
-0.4201181102362205
 30
0.0
 10
1.2537401574803151
 20
-0.4201181102362205
 30
0.0
  0
SPLINE
  5
44
100
AcDbEntity
  8
Layer 1
 62
     9
100
AcDbSpline
210
0.0
220
0.0
230
1.0
 70
     1
 71
     3
 72
    20
 73
    16
 74
     0
 42
0.0000000001
 43
0.0000000001
 40
0.0
 40
0.0
 40
0.0
 40
0.0
 40
0.25
 40
0.25
 40
0.25
 40
0.25
 40
0.5
 40
0.5
 40
0.5
 40
0.5
 40
0.75
 40
0.75
 40
0.75
 40
0.75
 40
1.0
 40
1.0
 40
1.0
 40
1.0
 10
1.2411062992125985
 20
-0.3756338582677166
 30
0.0
 10
1.2411062992125985
 20
-0.3756338582677166
 30
0.0
 10
1.8985511811023623
 20
-0.0139606299212598
 30
0.0
 10
1.8985511811023623
 20
-0.0139606299212598
 30
0.0
 10
1.8985511811023623
 20
-0.0139606299212598
 30
0.0
 10
1.8985511811023623
 20
-0.0139606299212598
 30
0.0
 10
1.8838070866141734
 20
0.0295984251968504
 30
0.0
 10
1.8838070866141734
 20
0.0295984251968504
 30
0.0
 10
1.8838070866141734
 20
0.0295984251968504
 30
0.0
 10
1.8838070866141734
 20
0.0295984251968504
 30
0.0
 10
1.2263622047244096
 20
-0.3320748031496063
 30
0.0
 10
1.2263622047244096
 20
-0.3320748031496063
 30
0.0
 10
1.2263622047244096
 20
-0.3320748031496063
 30
0.0
 10
1.2263622047244096
 20
-0.3320748031496063
 30
0.0
 10
1.2411062992125985
 20
-0.3756338582677166
 30
0.0
 10
1.2411062992125985
 20
-0.3756338582677166
 30
0.0
  0
SPLINE
  5
45
100
AcDbEntity
  8
Layer 1
 62
     9
100
AcDbSpline
210
0.0
220
0.0
230
1.0
 70
     1
 71
     3
 72
    20
 73
    16
 74
     0
 42
0.0000000001
 43
0.0000000001
 40
0.0
 40
0.0
 40
0.0
 40
0.0
 40
0.25
 40
0.25
 40
0.25
 40
0.25
 40
0.5
 40
0.5
 40
0.5
 40
0.5
 40
0.75
 40
0.75
 40
0.75
 40
0.75
 40
1.0
 40
1.0
 40
1.0
 40
1.0
 10
1.2263622047244096
 20
-0.3320748031496063
 30
0.0
 10
1.2263622047244096
 20
-0.3320748031496063
 30
0.0
 10
1.8838070866141734
 20
0.0295984251968504
 30
0.0
 10
1.8838070866141734
 20
0.0295984251968504
 30
0.0
 10
1.8838070866141734
 20
0.0295984251968504
 30
0.0
 10
1.8838070866141734
 20
0.0295984251968504
 30
0.0
 10
1.8670236220472443
 20
0.0721653543307087
 30
0.0
 10
1.8670236220472443
 20
0.0721653543307087
 30
0.0
 10
1.8670236220472443
 20
0.0721653543307087
 30
0.0
 10
1.8670236220472443
 20
0.0721653543307087
 30
0.0
 10
1.2095787401574805
 20
-0.2895078740157481
 30
0.0
 10
1.2095787401574805
 20
-0.2895078740157481
 30
0.0
 10
1.2095787401574805
 20
-0.2895078740157481
 30
0.0
 10
1.2095787401574805
 20
-0.2895078740157481
 30
0.0
 10
1.2263622047244096
 20
-0.3320748031496063
 30
0.0
 10
1.2263622047244096
 20
-0.3320748031496063
 30
0.0
  0
SPLINE
  5
46
100
AcDbEntity
  8
Layer 1
 62
     9
100
AcDbSpline
210
0.0
220
0.0
230
1.0
 70
     1
 71
     3
 72
    20
 73
    16
 74
     0
 42
0.0000000001
 43
0.0000000001
 40
0.0
 40
0.0
 40
0.0
 40
0.0
 40
0.25
 40
0.25
 40
0.25
 40
0.25
 40
0.5
 40
0.5
 40
0.5
 40
0.5
 40
0.75
 40
0.75
 40
0.75
 40
0.75
 40
1.0
 40
1.0
 40
1.0
 40
1.0
 10
1.2095787401574805
 20
-0.2895078740157481
 30
0.0
 10
1.2095787401574805
 20
-0.2895078740157481
 30
0.0
 10
1.8670236220472443
 20
0.0721653543307087
 30
0.0
 10
1.8670236220472443
 20
0.0721653543307087
 30
0.0
 10
1.8670236220472443
 20
0.0721653543307087
 30
0.0
 10
1.8670236220472443
 20
0.0721653543307087
 30
0.0
 10
1.8482401574803151
 20
0.1136968503937008
 30
0.0
 10
1.8482401574803151
 20
0.1136968503937008
 30
0.0
 10
1.8482401574803151
 20
0.1136968503937008
 30
0.0
 10
1.8482401574803151
 20
0.1136968503937008
 30
0.0
 10
1.1907952755905513
 20
-0.2479763779527559
 30
0.0
 10
1.1907952755905513
 20
-0.2479763779527559
 30
0.0
 10
1.1907952755905513
 20
-0.2479763779527559
 30
0.0
 10
1.1907952755905513
 20
-0.2479763779527559
 30
0.0
 10
1.2095787401574805
 20
-0.2895078740157481
 30
0.0
 10
1.2095787401574805
 20
-0.2895078740157481
 30
0.0
  0
SPLINE
  5
47
100
AcDbEntity
  8
Layer 1
 62
     9
100
AcDbSpline
210
0.0
220
0.0
230
1.0
 70
     1
 71
     3
 72
    20
 73
    16
 74
     0
 42
0.0000000001
 43
0.0000000001
 40
0.0
 40
0.0
 40
0.0
 40
0.0
 40
0.25
 40
0.25
 40
0.25
 40
0.25
 40
0.5
 40
0.5
 40
0.5
 40
0.5
 40
0.75
 40
0.75
 40
0.75
 40
0.75
 40
1.0
 40
1.0
 40
1.0
 40
1.0
 10
1.1907952755905513
 20
-0.2479763779527559
 30
0.0
 10
1.1907952755905513
 20
-0.2479763779527559
 30
0.0
 10
1.8482401574803151
 20
0.1136968503937008
 30
0.0
 10
1.8482401574803151
 20
0.1136968503937008
 30
0.0
 10
1.8482401574803151
 20
0.1136968503937008
 30
0.0
 10
1.8482401574803151
 20
0.1136968503937008
 30
0.0
 10
1.8275354330708662
 20
0.1541181102362205
 30
0.0
 10
1.8275354330708662
 20
0.1541181102362205
 30
0.0
 10
1.8275354330708662
 20
0.1541181102362205
 30
0.0
 10
1.8275354330708662
 20
0.1541181102362205
 30
0.0
 10
1.1700905511811024
 20
-0.2075551181102362
 30
0.0
 10
1.1700905511811024
 20
-0.2075551181102362
 30
0.0
 10
1.1700905511811024
 20
-0.2075551181102362
 30
0.0
 10
1.1700905511811024
 20
-0.2075551181102362
 30
0.0
 10
1.1907952755905513
 20
-0.2479763779527559
 30
0.0
 10
1.1907952755905513
 20
-0.2479763779527559
 30
0.0
  0
SPLINE
  5
48
100
AcDbEntity
  8
Layer 1
 62
     9
100
AcDbSpline
210
0.0
220
0.0
230
1.0
 70
     1
 71
     3
 72
    20
 73
    16
 74
     0
 42
0.0000000001
 43
0.0000000001
 40
0.0
 40
0.0
 40
0.0
 40
0.0
 40
0.25
 40
0.25
 40
0.25
 40
0.25
 40
0.5
 40
0.5
 40
0.5
 40
0.5
 40
0.75
 40
0.75
 40
0.75
 40
0.75
 40
1.0
 40
1.0
 40
1.0
 40
1.0
 10
1.1700905511811024
 20
-0.2075551181102362
 30
0.0
 10
1.1700905511811024
 20
-0.2075551181102362
 30
0.0
 10
1.8275354330708662
 20
0.1541181102362205
 30
0.0
 10
1.8275354330708662
 20
0.1541181102362205
 30
0.0
 10
1.8275354330708662
 20
0.1541181102362205
 30
0.0
 10
1.8275354330708662
 20
0.1541181102362205
 30
0.0
 10
1.8049566929133858
 20
0.1933779527559055
 30
0.0
 10
1.8049566929133858
 20
0.1933779527559055
 30
0.0
 10
1.8049566929133858
 20
0.1933779527559055
 30
0.0
 10
1.8049566929133858
 20
0.1933779527559055
 30
0.0
 10
1.147511811023622
 20
-0.1682952755905512
 30
0.0
 10
1.147511811023622
 20
-0.1682952755905512
 30
0.0
 10
1.147511811023622
 20
-0.1682952755905512
 30
0.0
 10
1.147511811023622
 20
-0.1682952755905512
 30
0.0
 10
1.1700905511811024
 20
-0.2075551181102362
 30
0.0
 10
1.1700905511811024
 20
-0.2075551181102362
 30
0.0
  0
SPLINE
  5
49
100
AcDbEntity
  8
Layer 1
 62
     9
100
AcDbSpline
210
0.0
220
0.0
230
1.0
 70
     1
 71
     3
 72
    20
 73
    16
 74
     0
 42
0.0000000001
 43
0.0000000001
 40
0.0
 40
0.0
 40
0.0
 40
0.0
 40
0.25
 40
0.25
 40
0.25
 40
0.25
 40
0.5
 40
0.5
 40
0.5
 40
0.5
 40
0.75
 40
0.75
 40
0.75
 40
0.75
 40
1.0
 40
1.0
 40
1.0
 40
1.0
 10
1.147511811023622
 20
-0.1682952755905512
 30
0.0
 10
1.147511811023622
 20
-0.1682952755905512
 30
0.0
 10
1.8049566929133858
 20
0.1933779527559055
 30
0.0
 10
1.8049566929133858
 20
0.1933779527559055
 30
0.0
 10
1.8049566929133858
 20
0.1933779527559055
 30
0.0
 10
1.8049566929133858
 20
0.1933779527559055
 30
0.0
 10
1.7805708661417323
 20
0.2314133858267717
 30
0.0
 10
1.7805708661417323
 20
0.2314133858267717
 30
0.0
 10
1.7805708661417323
 20
0.2314133858267717
 30
0.0
 10
1.7805708661417323
 20
0.2314133858267717
 30
0.0
 10
1.1231259842519685
 20
-0.130259842519685
 30
0.0
 10
1.1231259842519685
 20
-0.130259842519685
 30
0.0
 10
1.1231259842519685
 20
-0.130259842519685
 30
0.0
 10
1.1231259842519685
 20
-0.130259842519685
 30
0.0
 10
1.147511811023622
 20
-0.1682952755905512
 30
0.0
 10
1.147511811023622
 20
-0.1682952755905512
 30
0.0
  0
SPLINE
  5
4A
100
AcDbEntity
  8
Layer 1
 62
     9
100
AcDbSpline
210
0.0
220
0.0
230
1.0
 70
     1
 71
     3
 72
    20
 73
    16
 74
     0
 42
0.0000000001
 43
0.0000000001
 40
0.0
 40
0.0
 40
0.0
 40
0.0
 40
0.25
 40
0.25
 40
0.25
 40
0.25
 40
0.5
 40
0.5
 40
0.5
 40
0.5
 40
0.75
 40
0.75
 40
0.75
 40
0.75
 40
1.0
 40
1.0
 40
1.0
 40
1.0
 10
1.1231259842519685
 20
-0.130259842519685
 30
0.0
 10
1.1231259842519685
 20
-0.130259842519685
 30
0.0
 10
1.7805708661417323
 20
0.2314133858267717
 30
0.0
 10
1.7805708661417323
 20
0.2314133858267717
 30
0.0
 10
1.7805708661417323
 20
0.2314133858267717
 30
0.0
 10
1.7805708661417323
 20
0.2314133858267717
 30
0.0
 10
1.7544291338582678
 20
0.2681732283464567
 30
0.0
 10
1.7544291338582678
 20
0.2681732283464567
 30
0.0
 10
1.7544291338582678
 20
0.2681732283464567
 30
0.0
 10
1.7544291338582678
 20
0.2681732283464567
 30
0.0
 10
1.096984251968504
 20
-0.0935
 30
0.0
 10
1.096984251968504
 20
-0.0935
 30
0.0
 10
1.096984251968504
 20
-0.0935
 30
0.0
 10
1.096984251968504
 20
-0.0935
 30
0.0
 10
1.1231259842519685
 20
-0.130259842519685
 30
0.0
 10
1.1231259842519685
 20
-0.130259842519685
 30
0.0
  0
SPLINE
  5
4B
100
AcDbEntity
  8
Layer 1
 62
     9
100
AcDbSpline
210
0.0
220
0.0
230
1.0
 70
     1
 71
     3
 72
    20
 73
    16
 74
     0
 42
0.0000000001
 43
0.0000000001
 40
0.0
 40
0.0
 40
0.0
 40
0.0
 40
0.25
 40
0.25
 40
0.25
 40
0.25
 40
0.5
 40
0.5
 40
0.5
 40
0.5
 40
0.75
 40
0.75
 40
0.75
 40
0.75
 40
1.0
 40
1.0
 40
1.0
 40
1.0
 10
1.096984251968504
 20
-0.0935
 30
0.0
 10
1.096984251968504
 20
-0.0935
 30
0.0
 10
1.7544291338582678
 20
0.2681732283464567
 30
0.0
 10
1.7544291338582678
 20
0.2681732283464567
 30
0.0
 10
1.7544291338582678
 20
0.2681732283464567
 30
0.0
 10
1.7544291338582678
 20
0.2681732283464567
 30
0.0
 10
1.7265984251968505
 20
0.3035905511811024
 30
0.0
 10
1.7265984251968505
 20
0.3035905511811024
 30
0.0
 10
1.7265984251968505
 20
0.3035905511811024
 30
0.0
 10
1.7265984251968505
 20
0.3035905511811024
 30
0.0
 10
1.0691535433070867
 20
-0.0580826771653543
 30
0.0
 10
1.0691535433070867
 20
-0.0580826771653543
 30
0.0
 10
1.0691535433070867
 20
-0.0580826771653543
 30
0.0
 10
1.0691535433070867
 20
-0.0580826771653543
 30
0.0
 10
1.096984251968504
 20
-0.0935
 30
0.0
 10
1.096984251968504
 20
-0.0935
 30
0.0
  0
SPLINE
  5
4C
100
AcDbEntity
  8
Layer 1
 62
     9
100
AcDbSpline
210
0.0
220
0.0
230
1.0
 70
     1
 71
     3
 72
    20
 73
    16
 74
     0
 42
0.0000000001
 43
0.0000000001
 40
0.0
 40
0.0
 40
0.0
 40
0.0
 40
0.25
 40
0.25
 40
0.25
 40
0.25
 40
0.5
 40
0.5
 40
0.5
 40
0.5
 40
0.75
 40
0.75
 40
0.75
 40
0.75
 40
1.0
 40
1.0
 40
1.0
 40
1.0
 10
1.0691535433070867
 20
-0.0580826771653543
 30
0.0
 10
1.0691535433070867
 20
-0.0580826771653543
 30
0.0
 10
1.7265984251968505
 20
0.3035905511811024
 30
0.0
 10
1.7265984251968505
 20
0.3035905511811024
 30
0.0
 10
1.7265984251968505
 20
0.3035905511811024
 30
0.0
 10
1.7265984251968505
 20
0.3035905511811024
 30
0.0
 10
1.6971299212598425
 20
0.3376062992125984
 30
0.0
 10
1.6971299212598425
 20
0.3376062992125984
 30
0.0
 10
1.6971299212598425
 20
0.3376062992125984
 30
0.0
 10
1.6971299212598425
 20
0.3376062992125984
 30
0.0
 10
1.0396850393700787
 20
-0.0240669291338583
 30
0.0
 10
1.0396850393700787
 20
-0.0240669291338583
 30
0.0
 10
1.0396850393700787
 20
-0.0240669291338583
 30
0.0
 10
1.0396850393700787
 20
-0.0240669291338583
 30
0.0
 10
1.0691535433070867
 20
-0.0580826771653543
 30
0.0
 10
1.0691535433070867
 20
-0.0580826771653543
 30
0.0
  0
SPLINE
  5
4D
100
AcDbEntity
  8
Layer 1
 62
     9
100
AcDbSpline
210
0.0
220
0.0
230
1.0
 70
     1
 71
     3
 72
    20
 73
    16
 74
     0
 42
0.0000000001
 43
0.0000000001
 40
0.0
 40
0.0
 40
0.0
 40
0.0
 40
0.25
 40
0.25
 40
0.25
 40
0.25
 40
0.5
 40
0.5
 40
0.5
 40
0.5
 40
0.75
 40
0.75
 40
0.75
 40
0.75
 40
1.0
 40
1.0
 40
1.0
 40
1.0
 10
1.0396850393700787
 20
-0.0240669291338583
 30
0.0
 10
1.0396850393700787
 20
-0.0240669291338583
 30
0.0
 10
1.6971299212598425
 20
0.3376062992125984
 30
0.0
 10
1.6971299212598425
 20
0.3376062992125984
 30
0.0
 10
1.6971299212598425
 20
0.3376062992125984
 30
0.0
 10
1.6971299212598425
 20
0.3376062992125984
 30
0.0
 10
1.6660905511811024
 20
0.3701614173228346
 30
0.0
 10
1.6660905511811024
 20
0.3701614173228346
 30
0.0
 10
1.6660905511811024
 20
0.3701614173228346
 30
0.0
 10
1.6660905511811024
 20
0.3701614173228346
 30
0.0
 10
1.0086456692913386
 20
0.008488188976378
 30
0.0
 10
1.0086456692913386
 20
0.008488188976378
 30
0.0
 10
1.0086456692913386
 20
0.008488188976378
 30
0.0
 10
1.0086456692913386
 20
0.008488188976378
 30
0.0
 10
1.0396850393700787
 20
-0.0240669291338583
 30
0.0
 10
1.0396850393700787
 20
-0.0240669291338583
 30
0.0
  0
SPLINE
  5
4E
100
AcDbEntity
  8
Layer 1
 62
     9
100
AcDbSpline
210
0.0
220
0.0
230
1.0
 70
     1
 71
     3
 72
    20
 73
    16
 74
     0
 42
0.0000000001
 43
0.0000000001
 40
0.0
 40
0.0
 40
0.0
 40
0.0
 40
0.25
 40
0.25
 40
0.25
 40
0.25
 40
0.5
 40
0.5
 40
0.5
 40
0.5
 40
0.75
 40
0.75
 40
0.75
 40
0.75
 40
1.0
 40
1.0
 40
1.0
 40
1.0
 10
1.0086456692913386
 20
0.008488188976378
 30
0.0
 10
1.0086456692913386
 20
0.008488188976378
 30
0.0
 10
1.6660905511811024
 20
0.3701614173228346
 30
0.0
 10
1.6660905511811024
 20
0.3701614173228346
 30
0.0
 10
1.6660905511811024
 20
0.3701614173228346
 30
0.0
 10
1.6660905511811024
 20
0.3701614173228346
 30
0.0
 10
1.6335236220472442
 20
0.4012007874015748
 30
0.0
 10
1.6335236220472442
 20
0.4012007874015748
 30
0.0
 10
1.6335236220472442
 20
0.4012007874015748
 30
0.0
 10
1.6335236220472442
 20
0.4012007874015748
 30
0.0
 10
0.9760787401574803
 20
0.0395275590551181
 30
0.0
 10
0.9760787401574803
 20
0.0395275590551181
 30
0.0
 10
0.9760787401574803
 20
0.0395275590551181
 30
0.0
 10
0.9760787401574803
 20
0.0395275590551181
 30
0.0
 10
1.0086456692913386
 20
0.008488188976378
 30
0.0
 10
1.0086456692913386
 20
0.008488188976378
 30
0.0
  0
SPLINE
  5
4F
100
AcDbEntity
  8
Layer 1
 62
     9
100
AcDbSpline
210
0.0
220
0.0
230
1.0
 70
     1
 71
     3
 72
    20
 73
    16
 74
     0
 42
0.0000000001
 43
0.0000000001
 40
0.0
 40
0.0
 40
0.0
 40
0.0
 40
0.25
 40
0.25
 40
0.25
 40
0.25
 40
0.5
 40
0.5
 40
0.5
 40
0.5
 40
0.75
 40
0.75
 40
0.75
 40
0.75
 40
1.0
 40
1.0
 40
1.0
 40
1.0
 10
0.9760787401574803
 20
0.0395275590551181
 30
0.0
 10
0.9760787401574803
 20
0.0395275590551181
 30
0.0
 10
1.6335236220472442
 20
0.4012007874015748
 30
0.0
 10
1.6335236220472442
 20
0.4012007874015748
 30
0.0
 10
1.6335236220472442
 20
0.4012007874015748
 30
0.0
 10
1.6335236220472442
 20
0.4012007874015748
 30
0.0
 10
1.599507874015748
 20
0.4306692913385827
 30
0.0
 10
1.599507874015748
 20
0.4306692913385827
 30
0.0
 10
1.599507874015748
 20
0.4306692913385827
 30
0.0
 10
1.599507874015748
 20
0.4306692913385827
 30
0.0
 10
0.9420629921259843
 20
0.068996062992126
 30
0.0
 10
0.9420629921259843
 20
0.068996062992126
 30
0.0
 10
0.9420629921259843
 20
0.068996062992126
 30
0.0
 10
0.9420629921259843
 20
0.068996062992126
 30
0.0
 10
0.9760787401574803
 20
0.0395275590551181
 30
0.0
 10
0.9760787401574803
 20
0.0395275590551181
 30
0.0
  0
SPLINE
  5
50
100
AcDbEntity
  8
Layer 1
 62
     9
100
AcDbSpline
210
0.0
220
0.0
230
1.0
 70
     1
 71
     3
 72
    20
 73
    16
 74
     0
 42
0.0000000001
 43
0.0000000001
 40
0.0
 40
0.0
 40
0.0
 40
0.0
 40
0.25
 40
0.25
 40
0.25
 40
0.25
 40
0.5
 40
0.5
 40
0.5
 40
0.5
 40
0.75
 40
0.75
 40
0.75
 40
0.75
 40
1.0
 40
1.0
 40
1.0
 40
1.0
 10
0.9420629921259843
 20
0.068996062992126
 30
0.0
 10
0.9420629921259843
 20
0.068996062992126
 30
0.0
 10
1.599507874015748
 20
0.4306692913385827
 30
0.0
 10
1.599507874015748
 20
0.4306692913385827
 30
0.0
 10
1.599507874015748
 20
0.4306692913385827
 30
0.0
 10
1.599507874015748
 20
0.4306692913385827
 30
0.0
 10
1.5640866141732284
 20
0.4585
 30
0.0
 10
1.5640866141732284
 20
0.4585
 30
0.0
 10
1.5640866141732284
 20
0.4585
 30
0.0
 10
1.5640866141732284
 20
0.4585
 30
0.0
 10
0.9066417322834646
 20
0.0968267716535433
 30
0.0
 10
0.9066417322834646
 20
0.0968267716535433
 30
0.0
 10
0.9066417322834646
 20
0.0968267716535433
 30
0.0
 10
0.9066417322834646
 20
0.0968267716535433
 30
0.0
 10
0.9420629921259843
 20
0.068996062992126
 30
0.0
 10
0.9420629921259843
 20
0.068996062992126
 30
0.0
  0
SPLINE
  5
51
100
AcDbEntity
  8
Layer 1
 62
     9
100
AcDbSpline
210
0.0
220
0.0
230
1.0
 70
     1
 71
     3
 72
    20
 73
    16
 74
     0
 42
0.0000000001
 43
0.0000000001
 40
0.0
 40
0.0
 40
0.0
 40
0.0
 40
0.25
 40
0.25
 40
0.25
 40
0.25
 40
0.5
 40
0.5
 40
0.5
 40
0.5
 40
0.75
 40
0.75
 40
0.75
 40
0.75
 40
1.0
 40
1.0
 40
1.0
 40
1.0
 10
0.9066417322834646
 20
0.0968267716535433
 30
0.0
 10
0.9066417322834646
 20
0.0968267716535433
 30
0.0
 10
1.5640866141732284
 20
0.4585
 30
0.0
 10
1.5640866141732284
 20
0.4585
 30
0.0
 10
1.5640866141732284
 20
0.4585
 30
0.0
 10
1.5640866141732284
 20
0.4585
 30
0.0
 10
1.5273307086614174
 20
0.4846417322834646
 30
0.0
 10
1.5273307086614174
 20
0.4846417322834646
 30
0.0
 10
1.5273307086614174
 20
0.4846417322834646
 30
0.0
 10
1.5273307086614174
 20
0.4846417322834646
 30
0.0
 10
0.8698858267716536
 20
0.1229685039370079
 30
0.0
 10
0.8698858267716536
 20
0.1229685039370079
 30
0.0
 10
0.8698858267716536
 20
0.1229685039370079
 30
0.0
 10
0.8698858267716536
 20
0.1229685039370079
 30
0.0
 10
0.9066417322834646
 20
0.0968267716535433
 30
0.0
 10
0.9066417322834646
 20
0.0968267716535433
 30
0.0
  0
SPLINE
  5
52
100
AcDbEntity
  8
Layer 1
 62
     9
100
AcDbSpline
210
0.0
220
0.0
230
1.0
 70
     1
 71
     3
 72
    20
 73
    16
 74
     0
 42
0.0000000001
 43
0.0000000001
 40
0.0
 40
0.0
 40
0.0
 40
0.0
 40
0.25
 40
0.25
 40
0.25
 40
0.25
 40
0.5
 40
0.5
 40
0.5
 40
0.5
 40
0.75
 40
0.75
 40
0.75
 40
0.75
 40
1.0
 40
1.0
 40
1.0
 40
1.0
 10
0.8698858267716536
 20
0.1229685039370079
 30
0.0
 10
0.8698858267716536
 20
0.1229685039370079
 30
0.0
 10
1.5273307086614174
 20
0.4846417322834646
 30
0.0
 10
1.5273307086614174
 20
0.4846417322834646
 30
0.0
 10
1.5273307086614174
 20
0.4846417322834646
 30
0.0
 10
1.5273307086614174
 20
0.4846417322834646
 30
0.0
 10
1.4892913385826771
 20
0.5090275590551181
 30
0.0
 10
1.4892913385826771
 20
0.5090275590551181
 30
0.0
 10
1.4892913385826771
 20
0.5090275590551181
 30
0.0
 10
1.4892913385826771
 20
0.5090275590551181
 30
0.0
 10
0.8318464566929135
 20
0.1473543307086614
 30
0.0
 10
0.8318464566929135
 20
0.1473543307086614
 30
0.0
 10
0.8318464566929135
 20
0.1473543307086614
 30
0.0
 10
0.8318464566929135
 20
0.1473543307086614
 30
0.0
 10
0.8698858267716536
 20
0.1229685039370079
 30
0.0
 10
0.8698858267716536
 20
0.1229685039370079
 30
0.0
  0
SPLINE
  5
53
100
AcDbEntity
  8
Layer 1
 62
     9
100
AcDbSpline
210
0.0
220
0.0
230
1.0
 70
     1
 71
     3
 72
    20
 73
    16
 74
     0
 42
0.0000000001
 43
0.0000000001
 40
0.0
 40
0.0
 40
0.0
 40
0.0
 40
0.25
 40
0.25
 40
0.25
 40
0.25
 40
0.5
 40
0.5
 40
0.5
 40
0.5
 40
0.75
 40
0.75
 40
0.75
 40
0.75
 40
1.0
 40
1.0
 40
1.0
 40
1.0
 10
0.8318464566929135
 20
0.1473543307086614
 30
0.0
 10
0.8318464566929135
 20
0.1473543307086614
 30
0.0
 10
1.4892913385826771
 20
0.5090275590551181
 30
0.0
 10
1.4892913385826771
 20
0.5090275590551181
 30
0.0
 10
1.4892913385826771
 20
0.5090275590551181
 30
0.0
 10
1.4892913385826771
 20
0.5090275590551181
 30
0.0
 10
1.4500354330708662
 20
0.5316062992125985
 30
0.0
 10
1.4500354330708662
 20
0.5316062992125985
 30
0.0
 10
1.4500354330708662
 20
0.5316062992125985
 30
0.0
 10
1.4500354330708662
 20
0.5316062992125985
 30
0.0
 10
0.7925905511811024
 20
0.1699330708661417
 30
0.0
 10
0.7925905511811024
 20
0.1699330708661417
 30
0.0
 10
0.7925905511811024
 20
0.1699330708661417
 30
0.0
 10
0.7925905511811024
 20
0.1699330708661417
 30
0.0
 10
0.8318464566929135
 20
0.1473543307086614
 30
0.0
 10
0.8318464566929135
 20
0.1473543307086614
 30
0.0
  0
SPLINE
  5
54
100
AcDbEntity
  8
Layer 1
 62
   253
100
AcDbSpline
210
0.0
220
0.0
230
1.0
 70
     1
 71
     3
 72
    20
 73
    16
 74
     0
 42
0.0000000001
 43
0.0000000001
 40
0.0
 40
0.0
 40
0.0
 40
0.0
 40
0.25
 40
0.25
 40
0.25
 40
0.25
 40
0.5
 40
0.5
 40
0.5
 40
0.5
 40
0.75
 40
0.75
 40
0.75
 40
0.75
 40
1.0
 40
1.0
 40
1.0
 40
1.0
 10
0.7925905511811024
 20
0.1699330708661417
 30
0.0
 10
0.7925905511811024
 20
0.1699330708661417
 30
0.0
 10
1.4500354330708662
 20
0.5316062992125985
 30
0.0
 10
1.4500354330708662
 20
0.5316062992125985
 30
0.0
 10
1.4500354330708662
 20
0.5316062992125985
 30
0.0
 10
1.4500354330708662
 20
0.5316062992125985
 30
0.0
 10
1.4096102362204725
 20
0.5523110236220473
 30
0.0
 10
1.4096102362204725
 20
0.5523110236220473
 30
0.0
 10
1.4096102362204725
 20
0.5523110236220473
 30
0.0
 10
1.4096102362204725
 20
0.5523110236220473
 30
0.0
 10
0.7521653543307086
 20
0.1906377952755906
 30
0.0
 10
0.7521653543307086
 20
0.1906377952755906
 30
0.0
 10
0.7521653543307086
 20
0.1906377952755906
 30
0.0
 10
0.7521653543307086
 20
0.1906377952755906
 30
0.0
 10
0.7925905511811024
 20
0.1699330708661417
 30
0.0
 10
0.7925905511811024
 20
0.1699330708661417
 30
0.0
  0
SPLINE
  5
55
100
AcDbEntity
  8
Layer 1
 62
   253
100
AcDbSpline
210
0.0
220
0.0
230
1.0
 70
     1
 71
     3
 72
    20
 73
    16
 74
     0
 42
0.0000000001
 43
0.0000000001
 40
0.0
 40
0.0
 40
0.0
 40
0.0
 40
0.25
 40
0.25
 40
0.25
 40
0.25
 40
0.5
 40
0.5
 40
0.5
 40
0.5
 40
0.75
 40
0.75
 40
0.75
 40
0.75
 40
1.0
 40
1.0
 40
1.0
 40
1.0
 10
0.7521653543307086
 20
0.1906377952755906
 30
0.0
 10
0.7521653543307086
 20
0.1906377952755906
 30
0.0
 10
1.4096102362204725
 20
0.5523110236220473
 30
0.0
 10
1.4096102362204725
 20
0.5523110236220473
 30
0.0
 10
1.4096102362204725
 20
0.5523110236220473
 30
0.0
 10
1.4096102362204725
 20
0.5523110236220473
 30
0.0
 10
1.3680866141732284
 20
0.5710944881889764
 30
0.0
 10
1.3680866141732284
 20
0.5710944881889764
 30
0.0
 10
1.3680866141732284
 20
0.5710944881889764
 30
0.0
 10
1.3680866141732284
 20
0.5710944881889764
 30
0.0
 10
0.7106417322834646
 20
0.2094212598425197
 30
0.0
 10
0.7106417322834646
 20
0.2094212598425197
 30
0.0
 10
0.7106417322834646
 20
0.2094212598425197
 30
0.0
 10
0.7106417322834646
 20
0.2094212598425197
 30
0.0
 10
0.7521653543307086
 20
0.1906377952755906
 30
0.0
 10
0.7521653543307086
 20
0.1906377952755906
 30
0.0
  0
SPLINE
  5
56
100
AcDbEntity
  8
Layer 1
 62
   253
100
AcDbSpline
210
0.0
220
0.0
230
1.0
 70
     1
 71
     3
 72
    20
 73
    16
 74
     0
 42
0.0000000001
 43
0.0000000001
 40
0.0
 40
0.0
 40
0.0
 40
0.0
 40
0.25
 40
0.25
 40
0.25
 40
0.25
 40
0.5
 40
0.5
 40
0.5
 40
0.5
 40
0.75
 40
0.75
 40
0.75
 40
0.75
 40
1.0
 40
1.0
 40
1.0
 40
1.0
 10
0.7106417322834646
 20
0.2094212598425197
 30
0.0
 10
0.7106417322834646
 20
0.2094212598425197
 30
0.0
 10
1.3680866141732284
 20
0.5710944881889764
 30
0.0
 10
1.3680866141732284
 20
0.5710944881889764
 30
0.0
 10
1.3680866141732284
 20
0.5710944881889764
 30
0.0
 10
1.3680866141732284
 20
0.5710944881889764
 30
0.0
 10
1.3255118110236221
 20
0.5878779527559055
 30
0.0
 10
1.3255118110236221
 20
0.5878779527559055
 30
0.0
 10
1.3255118110236221
 20
0.5878779527559055
 30
0.0
 10
1.3255118110236221
 20
0.5878779527559055
 30
0.0
 10
0.6680669291338583
 20
0.2262047244094488
 30
0.0
 10
0.6680669291338583
 20
0.2262047244094488
 30
0.0
 10
0.6680669291338583
 20
0.2262047244094488
 30
0.0
 10
0.6680669291338583
 20
0.2262047244094488
 30
0.0
 10
0.7106417322834646
 20
0.2094212598425197
 30
0.0
 10
0.7106417322834646
 20
0.2094212598425197
 30
0.0
  0
SPLINE
  5
57
100
AcDbEntity
  8
Layer 1
 62
   253
100
AcDbSpline
210
0.0
220
0.0
230
1.0
 70
     1
 71
     3
 72
    20
 73
    16
 74
     0
 42
0.0000000001
 43
0.0000000001
 40
0.0
 40
0.0
 40
0.0
 40
0.0
 40
0.25
 40
0.25
 40
0.25
 40
0.25
 40
0.5
 40
0.5
 40
0.5
 40
0.5
 40
0.75
 40
0.75
 40
0.75
 40
0.75
 40
1.0
 40
1.0
 40
1.0
 40
1.0
 10
0.6680669291338583
 20
0.2262047244094488
 30
0.0
 10
0.6680669291338583
 20
0.2262047244094488
 30
0.0
 10
1.3255118110236221
 20
0.5878779527559055
 30
0.0
 10
1.3255118110236221
 20
0.5878779527559055
 30
0.0
 10
1.3255118110236221
 20
0.5878779527559055
 30
0.0
 10
1.3255118110236221
 20
0.5878779527559055
 30
0.0
 10
1.2819566929133859
 20
0.6026220472440945
 30
0.0
 10
1.2819566929133859
 20
0.6026220472440945
 30
0.0
 10
1.2819566929133859
 20
0.6026220472440945
 30
0.0
 10
1.2819566929133859
 20
0.6026220472440945
 30
0.0
 10
0.6245118110236221
 20
0.2409488188976378
 30
0.0
 10
0.6245118110236221
 20
0.2409488188976378
 30
0.0
 10
0.6245118110236221
 20
0.2409488188976378
 30
0.0
 10
0.6245118110236221
 20
0.2409488188976378
 30
0.0
 10
0.6680669291338583
 20
0.2262047244094488
 30
0.0
 10
0.6680669291338583
 20
0.2262047244094488
 30
0.0
  0
SPLINE
  5
58
100
AcDbEntity
  8
Layer 1
 62
   253
100
AcDbSpline
210
0.0
220
0.0
230
1.0
 70
     1
 71
     3
 72
    20
 73
    16
 74
     0
 42
0.0000000001
 43
0.0000000001
 40
0.0
 40
0.0
 40
0.0
 40
0.0
 40
0.25
 40
0.25
 40
0.25
 40
0.25
 40
0.5
 40
0.5
 40
0.5
 40
0.5
 40
0.75
 40
0.75
 40
0.75
 40
0.75
 40
1.0
 40
1.0
 40
1.0
 40
1.0
 10
0.6245118110236221
 20
0.2409488188976378
 30
0.0
 10
0.6245118110236221
 20
0.2409488188976378
 30
0.0
 10
1.2819566929133859
 20
0.6026220472440945
 30
0.0
 10
1.2819566929133859
 20
0.6026220472440945
 30
0.0
 10
1.2819566929133859
 20
0.6026220472440945
 30
0.0
 10
1.2819566929133859
 20
0.6026220472440945
 30
0.0
 10
1.2374685039370079
 20
0.6152559055118111
 30
0.0
 10
1.2374685039370079
 20
0.6152559055118111
 30
0.0
 10
1.2374685039370079
 20
0.6152559055118111
 30
0.0
 10
1.2374685039370079
 20
0.6152559055118111
 30
0.0
 10
0.5800236220472441
 20
0.2535826771653543
 30
0.0
 10
0.5800236220472441
 20
0.2535826771653543
 30
0.0
 10
0.5800236220472441
 20
0.2535826771653543
 30
0.0
 10
0.5800236220472441
 20
0.2535826771653543
 30
0.0
 10
0.6245118110236221
 20
0.2409488188976378
 30
0.0
 10
0.6245118110236221
 20
0.2409488188976378
 30
0.0
  0
SPLINE
  5
59
100
AcDbEntity
  8
Layer 1
 62
   253
100
AcDbSpline
210
0.0
220
0.0
230
1.0
 70
     1
 71
     3
 72
    20
 73
    16
 74
     0
 42
0.0000000001
 43
0.0000000001
 40
0.0
 40
0.0
 40
0.0
 40
0.0
 40
0.25
 40
0.25
 40
0.25
 40
0.25
 40
0.5
 40
0.5
 40
0.5
 40
0.5
 40
0.75
 40
0.75
 40
0.75
 40
0.75
 40
1.0
 40
1.0
 40
1.0
 40
1.0
 10
0.5800236220472441
 20
0.2535826771653543
 30
0.0
 10
0.5800236220472441
 20
0.2535826771653543
 30
0.0
 10
1.2374685039370079
 20
0.6152559055118111
 30
0.0
 10
1.2374685039370079
 20
0.6152559055118111
 30
0.0
 10
1.2374685039370079
 20
0.6152559055118111
 30
0.0
 10
1.2374685039370079
 20
0.6152559055118111
 30
0.0
 10
1.1921181102362206
 20
0.625728346456693
 30
0.0
 10
1.1921181102362206
 20
0.625728346456693
 30
0.0
 10
1.1921181102362206
 20
0.625728346456693
 30
0.0
 10
1.1921181102362206
 20
0.625728346456693
 30
0.0
 10
0.5346732283464567
 20
0.2640551181102362
 30
0.0
 10
0.5346732283464567
 20
0.2640551181102362
 30
0.0
 10
0.5346732283464567
 20
0.2640551181102362
 30
0.0
 10
0.5346732283464567
 20
0.2640551181102362
 30
0.0
 10
0.5800236220472441
 20
0.2535826771653543
 30
0.0
 10
0.5800236220472441
 20
0.2535826771653543
 30
0.0
  0
SPLINE
  5
5A
100
AcDbEntity
  8
Layer 1
 62
   253
100
AcDbSpline
210
0.0
220
0.0
230
1.0
 70
     1
 71
     3
 72
    20
 73
    16
 74
     0
 42
0.0000000001
 43
0.0000000001
 40
0.0
 40
0.0
 40
0.0
 40
0.0
 40
0.25
 40
0.25
 40
0.25
 40
0.25
 40
0.5
 40
0.5
 40
0.5
 40
0.5
 40
0.75
 40
0.75
 40
0.75
 40
0.75
 40
1.0
 40
1.0
 40
1.0
 40
1.0
 10
0.5346732283464567
 20
0.2640551181102362
 30
0.0
 10
0.5346732283464567
 20
0.2640551181102362
 30
0.0
 10
1.1921181102362206
 20
0.625728346456693
 30
0.0
 10
1.1921181102362206
 20
0.625728346456693
 30
0.0
 10
1.1921181102362206
 20
0.625728346456693
 30
0.0
 10
1.1921181102362206
 20
0.625728346456693
 30
0.0
 10
1.1459527559055118
 20
0.6339724409448819
 30
0.0
 10
1.1459527559055118
 20
0.6339724409448819
 30
0.0
 10
1.1459527559055118
 20
0.6339724409448819
 30
0.0
 10
1.1459527559055118
 20
0.6339724409448819
 30
0.0
 10
0.488507874015748
 20
0.2722992125984252
 30
0.0
 10
0.488507874015748
 20
0.2722992125984252
 30
0.0
 10
0.488507874015748
 20
0.2722992125984252
 30
0.0
 10
0.488507874015748
 20
0.2722992125984252
 30
0.0
 10
0.5346732283464567
 20
0.2640551181102362
 30
0.0
 10
0.5346732283464567
 20
0.2640551181102362
 30
0.0
  0
SPLINE
  5
5B
100
AcDbEntity
  8
Layer 1
 62
   253
100
AcDbSpline
210
0.0
220
0.0
230
1.0
 70
     1
 71
     3
 72
    20
 73
    16
 74
     0
 42
0.0000000001
 43
0.0000000001
 40
0.0
 40
0.0
 40
0.0
 40
0.0
 40
0.25
 40
0.25
 40
0.25
 40
0.25
 40
0.5
 40
0.5
 40
0.5
 40
0.5
 40
0.75
 40
0.75
 40
0.75
 40
0.75
 40
1.0
 40
1.0
 40
1.0
 40
1.0
 10
0.488507874015748
 20
0.2722992125984252
 30
0.0
 10
0.488507874015748
 20
0.2722992125984252
 30
0.0
 10
1.1459527559055118
 20
0.6339724409448819
 30
0.0
 10
1.1459527559055118
 20
0.6339724409448819
 30
0.0
 10
1.1459527559055118
 20
0.6339724409448819
 30
0.0
 10
1.1459527559055118
 20
0.6339724409448819
 30
0.0
 10
1.0990433070866141
 20
0.6399370078740158
 30
0.0
 10
1.0990433070866141
 20
0.6399370078740158
 30
0.0
 10
1.0990433070866141
 20
0.6399370078740158
 30
0.0
 10
1.0990433070866141
 20
0.6399370078740158
 30
0.0
 10
0.4415984251968504
 20
0.278263779527559
 30
0.0
 10
0.4415984251968504
 20
0.278263779527559
 30
0.0
 10
0.4415984251968504
 20
0.278263779527559
 30
0.0
 10
0.4415984251968504
 20
0.278263779527559
 30
0.0
 10
0.488507874015748
 20
0.2722992125984252
 30
0.0
 10
0.488507874015748
 20
0.2722992125984252
 30
0.0
  0
SPLINE
  5
5C
100
AcDbEntity
  8
Layer 1
 62
   253
100
AcDbSpline
210
0.0
220
0.0
230
1.0
 70
     1
 71
     3
 72
    20
 73
    16
 74
     0
 42
0.0000000001
 43
0.0000000001
 40
0.0
 40
0.0
 40
0.0
 40
0.0
 40
0.25
 40
0.25
 40
0.25
 40
0.25
 40
0.5
 40
0.5
 40
0.5
 40
0.5
 40
0.75
 40
0.75
 40
0.75
 40
0.75
 40
1.0
 40
1.0
 40
1.0
 40
1.0
 10
0.4415984251968504
 20
0.278263779527559
 30
0.0
 10
0.4415984251968504
 20
0.278263779527559
 30
0.0
 10
1.0990433070866141
 20
0.6399370078740158
 30
0.0
 10
1.0990433070866141
 20
0.6399370078740158
 30
0.0
 10
1.0990433070866141
 20
0.6399370078740158
 30
0.0
 10
1.0990433070866141
 20
0.6399370078740158
 30
0.0
 10
1.0514409448818898
 20
0.6435590551181103
 30
0.0
 10
1.0514409448818898
 20
0.6435590551181103
 30
0.0
 10
1.0514409448818898
 20
0.6435590551181103
 30
0.0
 10
1.0514409448818898
 20
0.6435590551181103
 30
0.0
 10
0.393996062992126
 20
0.2818858267716536
 30
0.0
 10
0.393996062992126
 20
0.2818858267716536
 30
0.0
 10
0.393996062992126
 20
0.2818858267716536
 30
0.0
 10
0.393996062992126
 20
0.2818858267716536
 30
0.0
 10
0.4415984251968504
 20
0.278263779527559
 30
0.0
 10
0.4415984251968504
 20
0.278263779527559
 30
0.0
  0
SPLINE
  5
5D
100
AcDbEntity
  8
Layer 1
 62
   253
100
AcDbSpline
210
0.0
220
0.0
230
1.0
 70
     1
 71
     3
 72
    20
 73
    16
 74
     0
 42
0.0000000001
 43
0.0000000001
 40
0.0
 40
0.0
 40
0.0
 40
0.0
 40
0.25
 40
0.25
 40
0.25
 40
0.25
 40
0.5
 40
0.5
 40
0.5
 40
0.5
 40
0.75
 40
0.75
 40
0.75
 40
0.75
 40
1.0
 40
1.0
 40
1.0
 40
1.0
 10
0.393996062992126
 20
0.2818858267716536
 30
0.0
 10
0.393996062992126
 20
0.2818858267716536
 30
0.0
 10
1.0514409448818898
 20
0.6435590551181103
 30
0.0
 10
1.0514409448818898
 20
0.6435590551181103
 30
0.0
 10
1.0514409448818898
 20
0.6435590551181103
 30
0.0
 10
1.0514409448818898
 20
0.6435590551181103
 30
0.0
 10
1.0032125984251969
 20
0.6447834645669291
 30
0.0
 10
1.0032125984251969
 20
0.6447834645669291
 30
0.0
 10
1.0032125984251969
 20
0.6447834645669291
 30
0.0
 10
1.0032125984251969
 20
0.6447834645669291
 30
0.0
 10
0.3457677165354331
 20
0.2831102362204724
 30
0.0
 10
0.3457677165354331
 20
0.2831102362204724
 30
0.0
 10
0.3457677165354331
 20
0.2831102362204724
 30
0.0
 10
0.3457677165354331
 20
0.2831102362204724
 30
0.0
 10
0.393996062992126
 20
0.2818858267716536
 30
0.0
 10
0.393996062992126
 20
0.2818858267716536
 30
0.0
  0
SPLINE
  5
5E
100
AcDbEntity
  8
Layer 1
370
     5
100
AcDbSpline
210
0.0
220
0.0
230
1.0
 70
     1
 71
     3
 72
   436
 73
   432
 74
     0
 42
0.0000000001
 43
0.0000000001
 40
0.0
 40
0.0
 40
0.0
 40
0.0
 40
0.0092592592592593
 40
0.0092592592592593
 40
0.0092592592592593
 40
0.0092592592592593
 40
0.0185185185185185
 40
0.0185185185185185
 40
0.0185185185185185
 40
0.0185185185185185
 40
0.0277777777777778
 40
0.0277777777777778
 40
0.0277777777777778
 40
0.0277777777777778
 40
0.037037037037037
 40
0.037037037037037
 40
0.037037037037037
 40
0.037037037037037
 40
0.0462962962962963
 40
0.0462962962962963
 40
0.0462962962962963
 40
0.0462962962962963
 40
0.0555555555555556
 40
0.0555555555555556
 40
0.0555555555555556
 40
0.0555555555555556
 40
0.0648148148148148
 40
0.0648148148148148
 40
0.0648148148148148
 40
0.0648148148148148
 40
0.0740740740740741
 40
0.0740740740740741
 40
0.0740740740740741
 40
0.0740740740740741
 40
0.0833333333333333
 40
0.0833333333333333
 40
0.0833333333333333
 40
0.0833333333333333
 40
0.0925925925925926
 40
0.0925925925925926
 40
0.0925925925925926
 40
0.0925925925925926
 40
0.1018518518518519
 40
0.1018518518518519
 40
0.1018518518518519
 40
0.1018518518518519
 40
0.1111111111111111
 40
0.1111111111111111
 40
0.1111111111111111
 40
0.1111111111111111
 40
0.1203703703703704
 40
0.1203703703703704
 40
0.1203703703703704
 40
0.1203703703703704
 40
0.1296296296296296
 40
0.1296296296296296
 40
0.1296296296296296
 40
0.1296296296296296
 40
0.1388888888888889
 40
0.1388888888888889
 40
0.1388888888888889
 40
0.1388888888888889
 40
0.1481481481481481
 40
0.1481481481481481
 40
0.1481481481481481
 40
0.1481481481481481
 40
0.1574074074074074
 40
0.1574074074074074
 40
0.1574074074074074
 40
0.1574074074074074
 40
0.1666666666666666
 40
0.1666666666666666
 40
0.1666666666666666
 40
0.1666666666666666
 40
0.1759259259259259
 40
0.1759259259259259
 40
0.1759259259259259
 40
0.1759259259259259
 40
0.1851851851851851
 40
0.1851851851851851
 40
0.1851851851851851
 40
0.1851851851851851
 40
0.1944444444444444
 40
0.1944444444444444
 40
0.1944444444444444
 40
0.1944444444444444
 40
0.2037037037037036
 40
0.2037037037037036
 40
0.2037037037037036
 40
0.2037037037037036
 40
0.2129629629629629
 40
0.2129629629629629
 40
0.2129629629629629
 40
0.2129629629629629
 40
0.2222222222222221
 40
0.2222222222222221
 40
0.2222222222222221
 40
0.2222222222222221
 40
0.2314814814814813
 40
0.2314814814814813
 40
0.2314814814814813
 40
0.2314814814814813
 40
0.2407407407407406
 40
0.2407407407407406
 40
0.2407407407407406
 40
0.2407407407407406
 40
0.2499999999999998
 40
0.2499999999999998
 40
0.2499999999999998
 40
0.2499999999999998
 40
0.2592592592592591
 40
0.2592592592592591
 40
0.2592592592592591
 40
0.2592592592592591
 40
0.2685185185185183
 40
0.2685185185185183
 40
0.2685185185185183
 40
0.2685185185185183
 40
0.2777777777777776
 40
0.2777777777777776
 40
0.2777777777777776
 40
0.2777777777777776
 40
0.2870370370370368
 40
0.2870370370370368
 40
0.2870370370370368
 40
0.2870370370370368
 40
0.2962962962962961
 40
0.2962962962962961
 40
0.2962962962962961
 40
0.2962962962962961
 40
0.3055555555555553
 40
0.3055555555555553
 40
0.3055555555555553
 40
0.3055555555555553
 40
0.3148148148148146
 40
0.3148148148148146
 40
0.3148148148148146
 40
0.3148148148148146
 40
0.3240740740740738
 40
0.3240740740740738
 40
0.3240740740740738
 40
0.3240740740740738
 40
0.333333333333333
 40
0.333333333333333
 40
0.333333333333333
 40
0.333333333333333
 40
0.3425925925925923
 40
0.3425925925925923
 40
0.3425925925925923
 40
0.3425925925925923
 40
0.3518518518518515
 40
0.3518518518518515
 40
0.3518518518518515
 40
0.3518518518518515
 40
0.3611111111111108
 40
0.3611111111111108
 40
0.3611111111111108
 40
0.3611111111111108
 40
0.37037037037037
 40
0.37037037037037
 40
0.37037037037037
 40
0.37037037037037
 40
0.3796296296296293
 40
0.3796296296296293
 40
0.3796296296296293
 40
0.3796296296296293
 40
0.3888888888888885
 40
0.3888888888888885
 40
0.3888888888888885
 40
0.3888888888888885
 40
0.3981481481481478
 40
0.3981481481481478
 40
0.3981481481481478
 40
0.3981481481481478
 40
0.407407407407407
 40
0.407407407407407
 40
0.407407407407407
 40
0.407407407407407
 40
0.4166666666666662
 40
0.4166666666666662
 40
0.4166666666666662
 40
0.4166666666666662
 40
0.4259259259259255
 40
0.4259259259259255
 40
0.4259259259259255
 40
0.4259259259259255
 40
0.4351851851851847
 40
0.4351851851851847
 40
0.4351851851851847
 40
0.4351851851851847
 40
0.444444444444444
 40
0.444444444444444
 40
0.444444444444444
 40
0.444444444444444
 40
0.4537037037037032
 40
0.4537037037037032
 40
0.4537037037037032
 40
0.4537037037037032
 40
0.4629629629629625
 40
0.4629629629629625
 40
0.4629629629629625
 40
0.4629629629629625
 40
0.4722222222222217
 40
0.4722222222222217
 40
0.4722222222222217
 40
0.4722222222222217
 40
0.481481481481481
 40
0.481481481481481
 40
0.481481481481481
 40
0.481481481481481
 40
0.4907407407407402
 40
0.4907407407407402
 40
0.4907407407407402
 40
0.4907407407407402
 40
0.4999999999999994
 40
0.4999999999999994
 40
0.4999999999999994
 40
0.4999999999999994
 40
0.5092592592592588
 40
0.5092592592592588
 40
0.5092592592592588
 40
0.5092592592592588
 40
0.5185185185185181
 40
0.5185185185185181
 40
0.5185185185185181
 40
0.5185185185185181
 40
0.5277777777777774
 40
0.5277777777777774
 40
0.5277777777777774
 40
0.5277777777777774
 40
0.5370370370370367
 40
0.5370370370370367
 40
0.5370370370370367
 40
0.5370370370370367
 40
0.546296296296296
 40
0.546296296296296
 40
0.546296296296296
 40
0.546296296296296
 40
0.5555555555555553
 40
0.5555555555555553
 40
0.5555555555555553
 40
0.5555555555555553
 40
0.5648148148148146
 40
0.5648148148148146
 40
0.5648148148148146
 40
0.5648148148148146
 40
0.5740740740740739
 40
0.5740740740740739
 40
0.5740740740740739
 40
0.5740740740740739
 40
0.5833333333333332
 40
0.5833333333333332
 40
0.5833333333333332
 40
0.5833333333333332
 40
0.5925925925925925
 40
0.5925925925925925
 40
0.5925925925925925
 40
0.5925925925925925
 40
0.6018518518518518
 40
0.6018518518518518
 40
0.6018518518518518
 40
0.6018518518518518
 40
0.6111111111111111
 40
0.6111111111111111
 40
0.6111111111111111
 40
0.6111111111111111
 40
0.6203703703703704
 40
0.6203703703703704
 40
0.6203703703703704
 40
0.6203703703703704
 40
0.6296296296296297
 40
0.6296296296296297
 40
0.6296296296296297
 40
0.6296296296296297
 40
0.638888888888889
 40
0.638888888888889
 40
0.638888888888889
 40
0.638888888888889
 40
0.6481481481481483
 40
0.6481481481481483
 40
0.6481481481481483
 40
0.6481481481481483
 40
0.6574074074074076
 40
0.6574074074074076
 40
0.6574074074074076
 40
0.6574074074074076
 40
0.6666666666666669
 40
0.6666666666666669
 40
0.6666666666666669
 40
0.6666666666666669
 40
0.6759259259259262
 40
0.6759259259259262
 40
0.6759259259259262
 40
0.6759259259259262
 40
0.6851851851851855
 40
0.6851851851851855
 40
0.6851851851851855
 40
0.6851851851851855
 40
0.6944444444444448
 40
0.6944444444444448
 40
0.6944444444444448
 40
0.6944444444444448
 40
0.7037037037037041
 40
0.7037037037037041
 40
0.7037037037037041
 40
0.7037037037037041
 40
0.7129629629629634
 40
0.7129629629629634
 40
0.7129629629629634
 40
0.7129629629629634
 40
0.7222222222222227
 40
0.7222222222222227
 40
0.7222222222222227
 40
0.7222222222222227
 40
0.731481481481482
 40
0.731481481481482
 40
0.731481481481482
 40
0.731481481481482
 40
0.7407407407407413
 40
0.7407407407407413
 40
0.7407407407407413
 40
0.7407407407407413
 40
0.7500000000000006
 40
0.7500000000000006
 40
0.7500000000000006
 40
0.7500000000000006
 40
0.7592592592592599
 40
0.7592592592592599
 40
0.7592592592592599
 40
0.7592592592592599
 40
0.7685185185185192
 40
0.7685185185185192
 40
0.7685185185185192
 40
0.7685185185185192
 40
0.7777777777777785
 40
0.7777777777777785
 40
0.7777777777777785
 40
0.7777777777777785
 40
0.7870370370370378
 40
0.7870370370370378
 40
0.7870370370370378
 40
0.7870370370370378
 40
0.7962962962962971
 40
0.7962962962962971
 40
0.7962962962962971
 40
0.7962962962962971
 40
0.8055555555555564
 40
0.8055555555555564
 40
0.8055555555555564
 40
0.8055555555555564
 40
0.8148148148148157
 40
0.8148148148148157
 40
0.8148148148148157
 40
0.8148148148148157
 40
0.824074074074075
 40
0.824074074074075
 40
0.824074074074075
 40
0.824074074074075
 40
0.8333333333333343
 40
0.8333333333333343
 40
0.8333333333333343
 40
0.8333333333333343
 40
0.8425925925925936
 40
0.8425925925925936
 40
0.8425925925925936
 40
0.8425925925925936
 40
0.8518518518518529
 40
0.8518518518518529
 40
0.8518518518518529
 40
0.8518518518518529
 40
0.8611111111111122
 40
0.8611111111111122
 40
0.8611111111111122
 40
0.8611111111111122
 40
0.8703703703703715
 40
0.8703703703703715
 40
0.8703703703703715
 40
0.8703703703703715
 40
0.8796296296296308
 40
0.8796296296296308
 40
0.8796296296296308
 40
0.8796296296296308
 40
0.8888888888888901
 40
0.8888888888888901
 40
0.8888888888888901
 40
0.8888888888888901
 40
0.8981481481481494
 40
0.8981481481481494
 40
0.8981481481481494
 40
0.8981481481481494
 40
0.9074074074074087
 40
0.9074074074074087
 40
0.9074074074074087
 40
0.9074074074074087
 40
0.916666666666668
 40
0.916666666666668
 40
0.916666666666668
 40
0.916666666666668
 40
0.9259259259259273
 40
0.9259259259259273
 40
0.9259259259259273
 40
0.9259259259259273
 40
0.9351851851851866
 40
0.9351851851851866
 40
0.9351851851851866
 40
0.9351851851851866
 40
0.9444444444444459
 40
0.9444444444444459
 40
0.9444444444444459
 40
0.9444444444444459
 40
0.9537037037037052
 40
0.9537037037037052
 40
0.9537037037037052
 40
0.9537037037037052
 40
0.9629629629629645
 40
0.9629629629629645
 40
0.9629629629629645
 40
0.9629629629629645
 40
0.9722222222222238
 40
0.9722222222222238
 40
0.9722222222222238
 40
0.9722222222222238
 40
0.9814814814814831
 40
0.9814814814814831
 40
0.9814814814814831
 40
0.9814814814814831
 40
0.9907407407407424
 40
0.9907407407407424
 40
0.9907407407407424
 40
0.9907407407407424
 40
1.0
 40
1.0
 40
1.0
 40
1.0
 10
0.8318464566929135
 20
-1.4561338582677166
 30
0.0
 10
0.8318464566929135
 20
-1.4561338582677166
 30
0.0
 10
1.4892913385826771
 20
-1.0944606299212598
 30
0.0
 10
1.4892913385826771
 20
-1.0944606299212598
 30
0.0
 10
1.4892913385826771
 20
-1.0944606299212598
 30
0.0
 10
1.4892913385826771
 20
-1.0944606299212598
 30
0.0
 10
1.5273307086614174
 20
-1.0700748031496063
 30
0.0
 10
1.5273307086614174
 20
-1.0700748031496063
 30
0.0
 10
1.5273307086614174
 20
-1.0700748031496063
 30
0.0
 10
1.5273307086614174
 20
-1.0700748031496063
 30
0.0
 10
1.5640866141732284
 20
-1.0439330708661418
 30
0.0
 10
1.5640866141732284
 20
-1.0439330708661418
 30
0.0
 10
1.5640866141732284
 20
-1.0439330708661418
 30
0.0
 10
1.5640866141732284
 20
-1.0439330708661418
 30
0.0
 10
1.599507874015748
 20
-1.0161023622047245
 30
0.0
 10
1.599507874015748
 20
-1.0161023622047245
 30
0.0
 10
1.599507874015748
 20
-1.0161023622047245
 30
0.0
 10
1.599507874015748
 20
-1.0161023622047245
 30
0.0
 10
1.6335236220472442
 20
-0.9866338582677166
 30
0.0
 10
1.6335236220472442
 20
-0.9866338582677166
 30
0.0
 10
1.6335236220472442
 20
-0.9866338582677166
 30
0.0
 10
1.6335236220472442
 20
-0.9866338582677166
 30
0.0
 10
1.6660905511811024
 20
-0.9555944881889764
 30
0.0
 10
1.6660905511811024
 20
-0.9555944881889764
 30
0.0
 10
1.6660905511811024
 20
-0.9555944881889764
 30
0.0
 10
1.6660905511811024
 20
-0.9555944881889764
 30
0.0
 10
1.6971299212598425
 20
-0.9230275590551181
 30
0.0
 10
1.6971299212598425
 20
-0.9230275590551181
 30
0.0
 10
1.6971299212598425
 20
-0.9230275590551181
 30
0.0
 10
1.6971299212598425
 20
-0.9230275590551181
 30
0.0
 10
1.7265984251968505
 20
-0.889011811023622
 30
0.0
 10
1.7265984251968505
 20
-0.889011811023622
 30
0.0
 10
1.7265984251968505
 20
-0.889011811023622
 30
0.0
 10
1.7265984251968505
 20
-0.889011811023622
 30
0.0
 10
1.7544291338582678
 20
-0.8535905511811024
 30
0.0
 10
1.7544291338582678
 20
-0.8535905511811024
 30
0.0
 10
1.7544291338582678
 20
-0.8535905511811024
 30
0.0
 10
1.7544291338582678
 20
-0.8535905511811024
 30
0.0
 10
1.7805708661417323
 20
-0.8168346456692913
 30
0.0
 10
1.7805708661417323
 20
-0.8168346456692913
 30
0.0
 10
1.7805708661417323
 20
-0.8168346456692913
 30
0.0
 10
1.7805708661417323
 20
-0.8168346456692913
 30
0.0
 10
1.8049566929133858
 20
-0.7787952755905512
 30
0.0
 10
1.8049566929133858
 20
-0.7787952755905512
 30
0.0
 10
1.8049566929133858
 20
-0.7787952755905512
 30
0.0
 10
1.8049566929133858
 20
-0.7787952755905512
 30
0.0
 10
1.8275354330708662
 20
-0.7395393700787402
 30
0.0
 10
1.8275354330708662
 20
-0.7395393700787402
 30
0.0
 10
1.8275354330708662
 20
-0.7395393700787402
 30
0.0
 10
1.8275354330708662
 20
-0.7395393700787402
 30
0.0
 10
1.8482401574803151
 20
-0.6991141732283465
 30
0.0
 10
1.8482401574803151
 20
-0.6991141732283465
 30
0.0
 10
1.8482401574803151
 20
-0.6991141732283465
 30
0.0
 10
1.8482401574803151
 20
-0.6991141732283465
 30
0.0
 10
1.8670236220472443
 20
-0.6575905511811024
 30
0.0
 10
1.8670236220472443
 20
-0.6575905511811024
 30
0.0
 10
1.8670236220472443
 20
-0.6575905511811024
 30
0.0
 10
1.8670236220472443
 20
-0.6575905511811024
 30
0.0
 10
1.8838070866141734
 20
-0.6150157480314961
 30
0.0
 10
1.8838070866141734
 20
-0.6150157480314961
 30
0.0
 10
1.8838070866141734
 20
-0.6150157480314961
 30
0.0
 10
1.8838070866141734
 20
-0.6150157480314961
 30
0.0
 10
1.8985511811023623
 20
-0.5714606299212599
 30
0.0
 10
1.8985511811023623
 20
-0.5714606299212599
 30
0.0
 10
1.8985511811023623
 20
-0.5714606299212599
 30
0.0
 10
1.8985511811023623
 20
-0.5714606299212599
 30
0.0
 10
1.9111850393700789
 20
-0.5269724409448819
 30
0.0
 10
1.9111850393700789
 20
-0.5269724409448819
 30
0.0
 10
1.9111850393700789
 20
-0.5269724409448819
 30
0.0
 10
1.9111850393700789
 20
-0.5269724409448819
 30
0.0
 10
1.9216574803149606
 20
-0.4816220472440945
 30
0.0
 10
1.9216574803149606
 20
-0.4816220472440945
 30
0.0
 10
1.9216574803149606
 20
-0.4816220472440945
 30
0.0
 10
1.9216574803149606
 20
-0.4816220472440945
 30
0.0
 10
1.9299015748031496
 20
-0.4354566929133859
 30
0.0
 10
1.9299015748031496
 20
-0.4354566929133859
 30
0.0
 10
1.9299015748031496
 20
-0.4354566929133859
 30
0.0
 10
1.9299015748031496
 20
-0.4354566929133859
 30
0.0
 10
1.9358661417322836
 20
-0.3885472440944882
 30
0.0
 10
1.9358661417322836
 20
-0.3885472440944882
 30
0.0
 10
1.9358661417322836
 20
-0.3885472440944882
 30
0.0
 10
1.9358661417322836
 20
-0.3885472440944882
 30
0.0
 10
1.939488188976378
 20
-0.3409448818897638
 30
0.0
 10
1.939488188976378
 20
-0.3409448818897638
 30
0.0
 10
1.939488188976378
 20
-0.3409448818897638
 30
0.0
 10
1.939488188976378
 20
-0.3409448818897638
 30
0.0
 10
1.9407125984251969
 20
-0.2927165354330709
 30
0.0
 10
1.9407125984251969
 20
-0.2927165354330709
 30
0.0
 10
1.9407125984251969
 20
-0.2927165354330709
 30
0.0
 10
1.9407125984251969
 20
-0.2927165354330709
 30
0.0
 10
1.939488188976378
 20
-0.2444763779527559
 30
0.0
 10
1.939488188976378
 20
-0.2444763779527559
 30
0.0
 10
1.939488188976378
 20
-0.2444763779527559
 30
0.0
 10
1.939488188976378
 20
-0.2444763779527559
 30
0.0
 10
1.9358661417322836
 20
-0.1968740157480315
 30
0.0
 10
1.9358661417322836
 20
-0.1968740157480315
 30
0.0
 10
1.9358661417322836
 20
-0.1968740157480315
 30
0.0
 10
1.9358661417322836
 20
-0.1968740157480315
 30
0.0
 10
1.9299015748031496
 20
-0.1499606299212599
 30
0.0
 10
1.9299015748031496
 20
-0.1499606299212599
 30
0.0
 10
1.9299015748031496
 20
-0.1499606299212599
 30
0.0
 10
1.9299015748031496
 20
-0.1499606299212599
 30
0.0
 10
1.9216574803149606
 20
-0.1037992125984252
 30
0.0
 10
1.9216574803149606
 20
-0.1037992125984252
 30
0.0
 10
1.9216574803149606
 20
-0.1037992125984252
 30
0.0
 10
1.9216574803149606
 20
-0.1037992125984252
 30
0.0
 10
1.9111850393700789
 20
-0.0584448818897638
 30
0.0
 10
1.9111850393700789
 20
-0.0584448818897638
 30
0.0
 10
1.9111850393700789
 20
-0.0584448818897638
 30
0.0
 10
1.9111850393700789
 20
-0.0584448818897638
 30
0.0
 10
1.8985511811023623
 20
-0.0139606299212598
 30
0.0
 10
1.8985511811023623
 20
-0.0139606299212598
 30
0.0
 10
1.8985511811023623
 20
-0.0139606299212598
 30
0.0
 10
1.8985511811023623
 20
-0.0139606299212598
 30
0.0
 10
1.8838070866141734
 20
0.0295984251968504
 30
0.0
 10
1.8838070866141734
 20
0.0295984251968504
 30
0.0
 10
1.8838070866141734
 20
0.0295984251968504
 30
0.0
 10
1.8838070866141734
 20
0.0295984251968504
 30
0.0
 10
1.8670236220472443
 20
0.0721653543307087
 30
0.0
 10
1.8670236220472443
 20
0.0721653543307087
 30
0.0
 10
1.8670236220472443
 20
0.0721653543307087
 30
0.0
 10
1.8670236220472443
 20
0.0721653543307087
 30
0.0
 10
1.8482401574803151
 20
0.1136968503937008
 30
0.0
 10
1.8482401574803151
 20
0.1136968503937008
 30
0.0
 10
1.8482401574803151
 20
0.1136968503937008
 30
0.0
 10
1.8482401574803151
 20
0.1136968503937008
 30
0.0
 10
1.8275354330708662
 20
0.1541181102362205
 30
0.0
 10
1.8275354330708662
 20
0.1541181102362205
 30
0.0
 10
1.8275354330708662
 20
0.1541181102362205
 30
0.0
 10
1.8275354330708662
 20
0.1541181102362205
 30
0.0
 10
1.8049566929133858
 20
0.1933779527559055
 30
0.0
 10
1.8049566929133858
 20
0.1933779527559055
 30
0.0
 10
1.8049566929133858
 20
0.1933779527559055
 30
0.0
 10
1.8049566929133858
 20
0.1933779527559055
 30
0.0
 10
1.7805708661417323
 20
0.2314133858267717
 30
0.0
 10
1.7805708661417323
 20
0.2314133858267717
 30
0.0
 10
1.7805708661417323
 20
0.2314133858267717
 30
0.0
 10
1.7805708661417323
 20
0.2314133858267717
 30
0.0
 10
1.7544291338582678
 20
0.2681732283464567
 30
0.0
 10
1.7544291338582678
 20
0.2681732283464567
 30
0.0
 10
1.7544291338582678
 20
0.2681732283464567
 30
0.0
 10
1.7544291338582678
 20
0.2681732283464567
 30
0.0
 10
1.7265984251968505
 20
0.3035905511811024
 30
0.0
 10
1.7265984251968505
 20
0.3035905511811024
 30
0.0
 10
1.7265984251968505
 20
0.3035905511811024
 30
0.0
 10
1.7265984251968505
 20
0.3035905511811024
 30
0.0
 10
1.6971299212598425
 20
0.3376062992125984
 30
0.0
 10
1.6971299212598425
 20
0.3376062992125984
 30
0.0
 10
1.6971299212598425
 20
0.3376062992125984
 30
0.0
 10
1.6971299212598425
 20
0.3376062992125984
 30
0.0
 10
1.6660905511811024
 20
0.3701614173228346
 30
0.0
 10
1.6660905511811024
 20
0.3701614173228346
 30
0.0
 10
1.6660905511811024
 20
0.3701614173228346
 30
0.0
 10
1.6660905511811024
 20
0.3701614173228346
 30
0.0
 10
1.6335236220472442
 20
0.4012007874015748
 30
0.0
 10
1.6335236220472442
 20
0.4012007874015748
 30
0.0
 10
1.6335236220472442
 20
0.4012007874015748
 30
0.0
 10
1.6335236220472442
 20
0.4012007874015748
 30
0.0
 10
1.599507874015748
 20
0.4306692913385827
 30
0.0
 10
1.599507874015748
 20
0.4306692913385827
 30
0.0
 10
1.599507874015748
 20
0.4306692913385827
 30
0.0
 10
1.599507874015748
 20
0.4306692913385827
 30
0.0
 10
1.5640866141732284
 20
0.4585
 30
0.0
 10
1.5640866141732284
 20
0.4585
 30
0.0
 10
1.5640866141732284
 20
0.4585
 30
0.0
 10
1.5640866141732284
 20
0.4585
 30
0.0
 10
1.5273307086614174
 20
0.4846417322834646
 30
0.0
 10
1.5273307086614174
 20
0.4846417322834646
 30
0.0
 10
1.5273307086614174
 20
0.4846417322834646
 30
0.0
 10
1.5273307086614174
 20
0.4846417322834646
 30
0.0
 10
1.4892913385826771
 20
0.5090275590551181
 30
0.0
 10
1.4892913385826771
 20
0.5090275590551181
 30
0.0
 10
1.4892913385826771
 20
0.5090275590551181
 30
0.0
 10
1.4892913385826771
 20
0.5090275590551181
 30
0.0
 10
1.4500354330708662
 20
0.5316062992125985
 30
0.0
 10
1.4500354330708662
 20
0.5316062992125985
 30
0.0
 10
1.4500354330708662
 20
0.5316062992125985
 30
0.0
 10
1.4500354330708662
 20
0.5316062992125985
 30
0.0
 10
1.4096102362204725
 20
0.5523110236220473
 30
0.0
 10
1.4096102362204725
 20
0.5523110236220473
 30
0.0
 10
1.4096102362204725
 20
0.5523110236220473
 30
0.0
 10
1.4096102362204725
 20
0.5523110236220473
 30
0.0
 10
1.3680866141732284
 20
0.5710944881889764
 30
0.0
 10
1.3680866141732284
 20
0.5710944881889764
 30
0.0
 10
1.3680866141732284
 20
0.5710944881889764
 30
0.0
 10
1.3680866141732284
 20
0.5710944881889764
 30
0.0
 10
1.3255118110236221
 20
0.5878779527559055
 30
0.0
 10
1.3255118110236221
 20
0.5878779527559055
 30
0.0
 10
1.3255118110236221
 20
0.5878779527559055
 30
0.0
 10
1.3255118110236221
 20
0.5878779527559055
 30
0.0
 10
1.2819566929133859
 20
0.6026220472440945
 30
0.0
 10
1.2819566929133859
 20
0.6026220472440945
 30
0.0
 10
1.2819566929133859
 20
0.6026220472440945
 30
0.0
 10
1.2819566929133859
 20
0.6026220472440945
 30
0.0
 10
1.2374685039370079
 20
0.6152559055118111
 30
0.0
 10
1.2374685039370079
 20
0.6152559055118111
 30
0.0
 10
1.2374685039370079
 20
0.6152559055118111
 30
0.0
 10
1.2374685039370079
 20
0.6152559055118111
 30
0.0
 10
1.1921181102362206
 20
0.625728346456693
 30
0.0
 10
1.1921181102362206
 20
0.625728346456693
 30
0.0
 10
1.1921181102362206
 20
0.625728346456693
 30
0.0
 10
1.1921181102362206
 20
0.625728346456693
 30
0.0
 10
1.1459527559055118
 20
0.6339724409448819
 30
0.0
 10
1.1459527559055118
 20
0.6339724409448819
 30
0.0
 10
1.1459527559055118
 20
0.6339724409448819
 30
0.0
 10
1.1459527559055118
 20
0.6339724409448819
 30
0.0
 10
1.0990433070866141
 20
0.6399370078740158
 30
0.0
 10
1.0990433070866141
 20
0.6399370078740158
 30
0.0
 10
1.0990433070866141
 20
0.6399370078740158
 30
0.0
 10
1.0990433070866141
 20
0.6399370078740158
 30
0.0
 10
1.0514409448818898
 20
0.6435590551181103
 30
0.0
 10
1.0514409448818898
 20
0.6435590551181103
 30
0.0
 10
1.0514409448818898
 20
0.6435590551181103
 30
0.0
 10
1.0514409448818898
 20
0.6435590551181103
 30
0.0
 10
1.0032125984251969
 20
0.6447834645669291
 30
0.0
 10
1.0032125984251969
 20
0.6447834645669291
 30
0.0
 10
1.0032125984251969
 20
0.6447834645669291
 30
0.0
 10
1.0032125984251969
 20
0.6447834645669291
 30
0.0
 10
0.3457677165354331
 20
0.2831102362204724
 30
0.0
 10
0.3457677165354331
 20
0.2831102362204724
 30
0.0
 10
0.3457677165354331
 20
0.2831102362204724
 30
0.0
 10
0.3457677165354331
 20
0.2831102362204724
 30
0.0
 10
0.393996062992126
 20
0.2818858267716536
 30
0.0
 10
0.393996062992126
 20
0.2818858267716536
 30
0.0
 10
0.393996062992126
 20
0.2818858267716536
 30
0.0
 10
0.393996062992126
 20
0.2818858267716536
 30
0.0
 10
0.4415984251968504
 20
0.278263779527559
 30
0.0
 10
0.4415984251968504
 20
0.278263779527559
 30
0.0
 10
0.4415984251968504
 20
0.278263779527559
 30
0.0
 10
0.4415984251968504
 20
0.278263779527559
 30
0.0
 10
0.488507874015748
 20
0.2722992125984252
 30
0.0
 10
0.488507874015748
 20
0.2722992125984252
 30
0.0
 10
0.488507874015748
 20
0.2722992125984252
 30
0.0
 10
0.488507874015748
 20
0.2722992125984252
 30
0.0
 10
0.5346732283464567
 20
0.2640551181102362
 30
0.0
 10
0.5346732283464567
 20
0.2640551181102362
 30
0.0
 10
0.5346732283464567
 20
0.2640551181102362
 30
0.0
 10
0.5346732283464567
 20
0.2640551181102362
 30
0.0
 10
0.5800236220472441
 20
0.2535826771653543
 30
0.0
 10
0.5800236220472441
 20
0.2535826771653543
 30
0.0
 10
0.5800236220472441
 20
0.2535826771653543
 30
0.0
 10
0.5800236220472441
 20
0.2535826771653543
 30
0.0
 10
0.6245118110236221
 20
0.2409488188976378
 30
0.0
 10
0.6245118110236221
 20
0.2409488188976378
 30
0.0
 10
0.6245118110236221
 20
0.2409488188976378
 30
0.0
 10
0.6245118110236221
 20
0.2409488188976378
 30
0.0
 10
0.6680669291338583
 20
0.2262047244094488
 30
0.0
 10
0.6680669291338583
 20
0.2262047244094488
 30
0.0
 10
0.6680669291338583
 20
0.2262047244094488
 30
0.0
 10
0.6680669291338583
 20
0.2262047244094488
 30
0.0
 10
0.7106417322834646
 20
0.2094212598425197
 30
0.0
 10
0.7106417322834646
 20
0.2094212598425197
 30
0.0
 10
0.7106417322834646
 20
0.2094212598425197
 30
0.0
 10
0.7106417322834646
 20
0.2094212598425197
 30
0.0
 10
0.7521653543307086
 20
0.1906377952755906
 30
0.0
 10
0.7521653543307086
 20
0.1906377952755906
 30
0.0
 10
0.7521653543307086
 20
0.1906377952755906
 30
0.0
 10
0.7521653543307086
 20
0.1906377952755906
 30
0.0
 10
0.7925905511811024
 20
0.1699330708661417
 30
0.0
 10
0.7925905511811024
 20
0.1699330708661417
 30
0.0
 10
0.7925905511811024
 20
0.1699330708661417
 30
0.0
 10
0.7925905511811024
 20
0.1699330708661417
 30
0.0
 10
0.8318464566929135
 20
0.1473543307086614
 30
0.0
 10
0.8318464566929135
 20
0.1473543307086614
 30
0.0
 10
0.8318464566929135
 20
0.1473543307086614
 30
0.0
 10
0.8318464566929135
 20
0.1473543307086614
 30
0.0
 10
0.8698858267716536
 20
0.1229685039370079
 30
0.0
 10
0.8698858267716536
 20
0.1229685039370079
 30
0.0
 10
0.8698858267716536
 20
0.1229685039370079
 30
0.0
 10
0.8698858267716536
 20
0.1229685039370079
 30
0.0
 10
0.9066417322834646
 20
0.0968267716535433
 30
0.0
 10
0.9066417322834646
 20
0.0968267716535433
 30
0.0
 10
0.9066417322834646
 20
0.0968267716535433
 30
0.0
 10
0.9066417322834646
 20
0.0968267716535433
 30
0.0
 10
0.9420629921259843
 20
0.068996062992126
 30
0.0
 10
0.9420629921259843
 20
0.068996062992126
 30
0.0
 10
0.9420629921259843
 20
0.068996062992126
 30
0.0
 10
0.9420629921259843
 20
0.068996062992126
 30
0.0
 10
0.9760787401574803
 20
0.0395275590551181
 30
0.0
 10
0.9760787401574803
 20
0.0395275590551181
 30
0.0
 10
0.9760787401574803
 20
0.0395275590551181
 30
0.0
 10
0.9760787401574803
 20
0.0395275590551181
 30
0.0
 10
1.0086456692913386
 20
0.008488188976378
 30
0.0
 10
1.0086456692913386
 20
0.008488188976378
 30
0.0
 10
1.0086456692913386
 20
0.008488188976378
 30
0.0
 10
1.0086456692913386
 20
0.008488188976378
 30
0.0
 10
1.0396850393700787
 20
-0.0240669291338583
 30
0.0
 10
1.0396850393700787
 20
-0.0240669291338583
 30
0.0
 10
1.0396850393700787
 20
-0.0240669291338583
 30
0.0
 10
1.0396850393700787
 20
-0.0240669291338583
 30
0.0
 10
1.0691535433070867
 20
-0.0580826771653543
 30
0.0
 10
1.0691535433070867
 20
-0.0580826771653543
 30
0.0
 10
1.0691535433070867
 20
-0.0580826771653543
 30
0.0
 10
1.0691535433070867
 20
-0.0580826771653543
 30
0.0
 10
1.096984251968504
 20
-0.0935
 30
0.0
 10
1.096984251968504
 20
-0.0935
 30
0.0
 10
1.096984251968504
 20
-0.0935
 30
0.0
 10
1.096984251968504
 20
-0.0935
 30
0.0
 10
1.1231259842519685
 20
-0.130259842519685
 30
0.0
 10
1.1231259842519685
 20
-0.130259842519685
 30
0.0
 10
1.1231259842519685
 20
-0.130259842519685
 30
0.0
 10
1.1231259842519685
 20
-0.130259842519685
 30
0.0
 10
1.147511811023622
 20
-0.1682952755905512
 30
0.0
 10
1.147511811023622
 20
-0.1682952755905512
 30
0.0
 10
1.147511811023622
 20
-0.1682952755905512
 30
0.0
 10
1.147511811023622
 20
-0.1682952755905512
 30
0.0
 10
1.1700905511811024
 20
-0.2075551181102362
 30
0.0
 10
1.1700905511811024
 20
-0.2075551181102362
 30
0.0
 10
1.1700905511811024
 20
-0.2075551181102362
 30
0.0
 10
1.1700905511811024
 20
-0.2075551181102362
 30
0.0
 10
1.1907952755905513
 20
-0.2479763779527559
 30
0.0
 10
1.1907952755905513
 20
-0.2479763779527559
 30
0.0
 10
1.1907952755905513
 20
-0.2479763779527559
 30
0.0
 10
1.1907952755905513
 20
-0.2479763779527559
 30
0.0
 10
1.2095787401574805
 20
-0.2895078740157481
 30
0.0
 10
1.2095787401574805
 20
-0.2895078740157481
 30
0.0
 10
1.2095787401574805
 20
-0.2895078740157481
 30
0.0
 10
1.2095787401574805
 20
-0.2895078740157481
 30
0.0
 10
1.2263622047244096
 20
-0.3320748031496063
 30
0.0
 10
1.2263622047244096
 20
-0.3320748031496063
 30
0.0
 10
1.2263622047244096
 20
-0.3320748031496063
 30
0.0
 10
1.2263622047244096
 20
-0.3320748031496063
 30
0.0
 10
1.2411062992125985
 20
-0.3756338582677166
 30
0.0
 10
1.2411062992125985
 20
-0.3756338582677166
 30
0.0
 10
1.2411062992125985
 20
-0.3756338582677166
 30
0.0
 10
1.2411062992125985
 20
-0.3756338582677166
 30
0.0
 10
1.2537401574803151
 20
-0.4201181102362205
 30
0.0
 10
1.2537401574803151
 20
-0.4201181102362205
 30
0.0
 10
1.2537401574803151
 20
-0.4201181102362205
 30
0.0
 10
1.2537401574803151
 20
-0.4201181102362205
 30
0.0
 10
1.2642125984251968
 20
-0.4654724409448819
 30
0.0
 10
1.2642125984251968
 20
-0.4654724409448819
 30
0.0
 10
1.2642125984251968
 20
-0.4654724409448819
 30
0.0
 10
1.2642125984251968
 20
-0.4654724409448819
 30
0.0
 10
1.2724566929133858
 20
-0.5116338582677166
 30
0.0
 10
1.2724566929133858
 20
-0.5116338582677166
 30
0.0
 10
1.2724566929133858
 20
-0.5116338582677166
 30
0.0
 10
1.2724566929133858
 20
-0.5116338582677166
 30
0.0
 10
1.2784212598425198
 20
-0.5585472440944882
 30
0.0
 10
1.2784212598425198
 20
-0.5585472440944882
 30
0.0
 10
1.2784212598425198
 20
-0.5585472440944882
 30
0.0
 10
1.2784212598425198
 20
-0.5585472440944882
 30
0.0
 10
1.2820433070866142
 20
-0.6061496062992127
 30
0.0
 10
1.2820433070866142
 20
-0.6061496062992127
 30
0.0
 10
1.2820433070866142
 20
-0.6061496062992127
 30
0.0
 10
1.2820433070866142
 20
-0.6061496062992127
 30
0.0
 10
1.2832677165354331
 20
-0.6543897637795276
 30
0.0
 10
1.2832677165354331
 20
-0.6543897637795276
 30
0.0
 10
1.2832677165354331
 20
-0.6543897637795276
 30
0.0
 10
1.2832677165354331
 20
-0.6543897637795276
 30
0.0
 10
1.2820433070866142
 20
-0.7026181102362205
 30
0.0
 10
1.2820433070866142
 20
-0.7026181102362205
 30
0.0
 10
1.2820433070866142
 20
-0.7026181102362205
 30
0.0
 10
1.2820433070866142
 20
-0.7026181102362205
 30
0.0
 10
1.2784212598425198
 20
-0.7502204724409449
 30
0.0
 10
1.2784212598425198
 20
-0.7502204724409449
 30
0.0
 10
1.2784212598425198
 20
-0.7502204724409449
 30
0.0
 10
1.2784212598425198
 20
-0.7502204724409449
 30
0.0
 10
1.2724566929133858
 20
-0.7971299212598425
 30
0.0
 10
1.2724566929133858
 20
-0.7971299212598425
 30
0.0
 10
1.2724566929133858
 20
-0.7971299212598425
 30
0.0
 10
1.2724566929133858
 20
-0.7971299212598425
 30
0.0
 10
1.2642125984251968
 20
-0.8432952755905512
 30
0.0
 10
1.2642125984251968
 20
-0.8432952755905512
 30
0.0
 10
1.2642125984251968
 20
-0.8432952755905512
 30
0.0
 10
1.2642125984251968
 20
-0.8432952755905512
 30
0.0
 10
1.2537401574803151
 20
-0.8886456692913386
 30
0.0
 10
1.2537401574803151
 20
-0.8886456692913386
 30
0.0
 10
1.2537401574803151
 20
-0.8886456692913386
 30
0.0
 10
1.2537401574803151
 20
-0.8886456692913386
 30
0.0
 10
1.2411062992125985
 20
-0.9331338582677166
 30
0.0
 10
1.2411062992125985
 20
-0.9331338582677166
 30
0.0
 10
1.2411062992125985
 20
-0.9331338582677166
 30
0.0
 10
1.2411062992125985
 20
-0.9331338582677166
 30
0.0
 10
1.2263622047244096
 20
-0.9766889763779528
 30
0.0
 10
1.2263622047244096
 20
-0.9766889763779528
 30
0.0
 10
1.2263622047244096
 20
-0.9766889763779528
 30
0.0
 10
1.2263622047244096
 20
-0.9766889763779528
 30
0.0
 10
1.2095787401574805
 20
-1.0192637795275592
 30
0.0
 10
1.2095787401574805
 20
-1.0192637795275592
 30
0.0
 10
1.2095787401574805
 20
-1.0192637795275592
 30
0.0
 10
1.2095787401574805
 20
-1.0192637795275592
 30
0.0
 10
1.1907952755905513
 20
-1.0607874015748031
 30
0.0
 10
1.1907952755905513
 20
-1.0607874015748031
 30
0.0
 10
1.1907952755905513
 20
-1.0607874015748031
 30
0.0
 10
1.1907952755905513
 20
-1.0607874015748031
 30
0.0
 10
1.1700905511811024
 20
-1.1012125984251968
 30
0.0
 10
1.1700905511811024
 20
-1.1012125984251968
 30
0.0
 10
1.1700905511811024
 20
-1.1012125984251968
 30
0.0
 10
1.1700905511811024
 20
-1.1012125984251968
 30
0.0
 10
1.147511811023622
 20
-1.1404685039370079
 30
0.0
 10
1.147511811023622
 20
-1.1404685039370079
 30
0.0
 10
1.147511811023622
 20
-1.1404685039370079
 30
0.0
 10
1.147511811023622
 20
-1.1404685039370079
 30
0.0
 10
1.1231259842519685
 20
-1.178507874015748
 30
0.0
 10
1.1231259842519685
 20
-1.178507874015748
 30
0.0
 10
1.1231259842519685
 20
-1.178507874015748
 30
0.0
 10
1.1231259842519685
 20
-1.178507874015748
 30
0.0
 10
1.096984251968504
 20
-1.2152637795275592
 30
0.0
 10
1.096984251968504
 20
-1.2152637795275592
 30
0.0
 10
1.096984251968504
 20
-1.2152637795275592
 30
0.0
 10
1.096984251968504
 20
-1.2152637795275592
 30
0.0
 10
1.0691535433070867
 20
-1.2506850393700788
 30
0.0
 10
1.0691535433070867
 20
-1.2506850393700788
 30
0.0
 10
1.0691535433070867
 20
-1.2506850393700788
 30
0.0
 10
1.0691535433070867
 20
-1.2506850393700788
 30
0.0
 10
1.0396850393700787
 20
-1.2847007874015748
 30
0.0
 10
1.0396850393700787
 20
-1.2847007874015748
 30
0.0
 10
1.0396850393700787
 20
-1.2847007874015748
 30
0.0
 10
1.0396850393700787
 20
-1.2847007874015748
 30
0.0
 10
1.0086456692913386
 20
-1.3172677165354332
 30
0.0
 10
1.0086456692913386
 20
-1.3172677165354332
 30
0.0
 10
1.0086456692913386
 20
-1.3172677165354332
 30
0.0
 10
1.0086456692913386
 20
-1.3172677165354332
 30
0.0
 10
0.9760787401574803
 20
-1.3483070866141733
 30
0.0
 10
0.9760787401574803
 20
-1.3483070866141733
 30
0.0
 10
0.9760787401574803
 20
-1.3483070866141733
 30
0.0
 10
0.9760787401574803
 20
-1.3483070866141733
 30
0.0
 10
0.9420629921259843
 20
-1.3777755905511813
 30
0.0
 10
0.9420629921259843
 20
-1.3777755905511813
 30
0.0
 10
0.9420629921259843
 20
-1.3777755905511813
 30
0.0
 10
0.9420629921259843
 20
-1.3777755905511813
 30
0.0
 10
0.9066417322834646
 20
-1.4056062992125984
 30
0.0
 10
0.9066417322834646
 20
-1.4056062992125984
 30
0.0
 10
0.9066417322834646
 20
-1.4056062992125984
 30
0.0
 10
0.9066417322834646
 20
-1.4056062992125984
 30
0.0
 10
0.8698858267716536
 20
-1.4317480314960631
 30
0.0
 10
0.8698858267716536
 20
-1.4317480314960631
 30
0.0
 10
0.8698858267716536
 20
-1.4317480314960631
 30
0.0
 10
0.8698858267716536
 20
-1.4317480314960631
 30
0.0
 10
0.8318464566929135
 20
-1.4561338582677166
 30
0.0
 10
0.8318464566929135
 20
-1.4561338582677166
 30
0.0
  0
SPLINE
  5
5F
100
AcDbEntity
  8
Layer 1
 62
     9
100
AcDbSpline
210
0.0
220
0.0
230
1.0
 70
     1
 71
     3
 72
    20
 73
    16
 74
     0
 42
0.0000000001
 43
0.0000000001
 40
0.0
 40
0.0
 40
0.0
 40
0.0
 40
0.25
 40
0.25
 40
0.25
 40
0.25
 40
0.5
 40
0.5
 40
0.5
 40
0.5
 40
0.75
 40
0.75
 40
0.75
 40
0.75
 40
1.0
 40
1.0
 40
1.0
 40
1.0
 10
0.3457677165354331
 20
0.2831102362204724
 30
0.0
 10
0.3457677165354331
 20
0.2831102362204724
 30
0.0
 10
1.0032125984251969
 20
0.6447834645669291
 30
0.0
 10
1.0032125984251969
 20
0.6447834645669291
 30
0.0
 10
1.0032125984251969
 20
0.6447834645669291
 30
0.0
 10
1.0032125984251969
 20
0.6447834645669291
 30
0.0
 10
1.0032125984251969
 20
1.1490354330708661
 30
0.0
 10
1.0032125984251969
 20
1.1490354330708661
 30
0.0
 10
1.0032125984251969
 20
1.1490354330708661
 30
0.0
 10
1.0032125984251969
 20
1.1490354330708661
 30
0.0
 10
0.3457677165354331
 20
0.7873622047244094
 30
0.0
 10
0.3457677165354331
 20
0.7873622047244094
 30
0.0
 10
0.3457677165354331
 20
0.7873622047244094
 30
0.0
 10
0.3457677165354331
 20
0.7873622047244094
 30
0.0
 10
0.3457677165354331
 20
0.2831102362204724
 30
0.0
 10
0.3457677165354331
 20
0.2831102362204724
 30
0.0
  0
SPLINE
  5
60
100
AcDbEntity
  8
Layer 1
370
     5
100
AcDbSpline
210
0.0
220
0.0
230
1.0
 70
     1
 71
     3
 72
    20
 73
    16
 74
     0
 42
0.0000000001
 43
0.0000000001
 40
0.0
 40
0.0
 40
0.0
 40
0.0
 40
0.25
 40
0.25
 40
0.25
 40
0.25
 40
0.5
 40
0.5
 40
0.5
 40
0.5
 40
0.75
 40
0.75
 40
0.75
 40
0.75
 40
1.0
 40
1.0
 40
1.0
 40
1.0
 10
0.3457677165354331
 20
0.2831102362204724
 30
0.0
 10
0.3457677165354331
 20
0.2831102362204724
 30
0.0
 10
1.0032125984251969
 20
0.6447834645669291
 30
0.0
 10
1.0032125984251969
 20
0.6447834645669291
 30
0.0
 10
1.0032125984251969
 20
0.6447834645669291
 30
0.0
 10
1.0032125984251969
 20
0.6447834645669291
 30
0.0
 10
1.0032125984251969
 20
1.1490354330708661
 30
0.0
 10
1.0032125984251969
 20
1.1490354330708661
 30
0.0
 10
1.0032125984251969
 20
1.1490354330708661
 30
0.0
 10
1.0032125984251969
 20
1.1490354330708661
 30
0.0
 10
0.3457677165354331
 20
0.7873622047244094
 30
0.0
 10
0.3457677165354331
 20
0.7873622047244094
 30
0.0
 10
0.3457677165354331
 20
0.7873622047244094
 30
0.0
 10
0.3457677165354331
 20
0.7873622047244094
 30
0.0
 10
0.3457677165354331
 20
0.2831102362204724
 30
0.0
 10
0.3457677165354331
 20
0.2831102362204724
 30
0.0
  0
SPLINE
  5
61
100
AcDbEntity
  8
Layer 1
 62
   253
100
AcDbSpline
210
0.0
220
0.0
230
1.0
 70
     1
 71
     3
 72
    20
 73
    16
 74
     0
 42
0.0000000001
 43
0.0000000001
 40
0.0
 40
0.0
 40
0.0
 40
0.0
 40
0.25
 40
0.25
 40
0.25
 40
0.25
 40
0.5
 40
0.5
 40
0.5
 40
0.5
 40
0.75
 40
0.75
 40
0.75
 40
0.75
 40
1.0
 40
1.0
 40
1.0
 40
1.0
 10
0.3457677165354331
 20
0.7873622047244094
 30
0.0
 10
0.3457677165354331
 20
0.7873622047244094
 30
0.0
 10
1.0032125984251969
 20
1.1490354330708661
 30
0.0
 10
1.0032125984251969
 20
1.1490354330708661
 30
0.0
 10
1.0032125984251969
 20
1.1490354330708661
 30
0.0
 10
1.0032125984251969
 20
1.1490354330708661
 30
0.0
 10
-0.8041771653543307
 20
1.1490354330708661
 30
0.0
 10
-0.8041771653543307
 20
1.1490354330708661
 30
0.0
 10
-0.8041771653543307
 20
1.1490354330708661
 30
0.0
 10
-0.8041771653543307
 20
1.1490354330708661
 30
0.0
 10
-1.4616220472440946
 20
0.7873622047244094
 30
0.0
 10
-1.4616220472440946
 20
0.7873622047244094
 30
0.0
 10
-1.4616220472440946
 20
0.7873622047244094
 30
0.0
 10
-1.4616220472440946
 20
0.7873622047244094
 30
0.0
 10
0.3457677165354331
 20
0.7873622047244094
 30
0.0
 10
0.3457677165354331
 20
0.7873622047244094
 30
0.0
  0
SPLINE
  5
62
100
AcDbEntity
  8
Layer 1
370
     5
100
AcDbSpline
210
0.0
220
0.0
230
1.0
 70
     1
 71
     3
 72
    20
 73
    16
 74
     0
 42
0.0000000001
 43
0.0000000001
 40
0.0
 40
0.0
 40
0.0
 40
0.0
 40
0.25
 40
0.25
 40
0.25
 40
0.25
 40
0.5
 40
0.5
 40
0.5
 40
0.5
 40
0.75
 40
0.75
 40
0.75
 40
0.75
 40
1.0
 40
1.0
 40
1.0
 40
1.0
 10
0.3457677165354331
 20
0.7873622047244094
 30
0.0
 10
0.3457677165354331
 20
0.7873622047244094
 30
0.0
 10
1.0032125984251969
 20
1.1490354330708661
 30
0.0
 10
1.0032125984251969
 20
1.1490354330708661
 30
0.0
 10
1.0032125984251969
 20
1.1490354330708661
 30
0.0
 10
1.0032125984251969
 20
1.1490354330708661
 30
0.0
 10
-0.8041771653543307
 20
1.1490354330708661
 30
0.0
 10
-0.8041771653543307
 20
1.1490354330708661
 30
0.0
 10
-0.8041771653543307
 20
1.1490354330708661
 30
0.0
 10
-0.8041771653543307
 20
1.1490354330708661
 30
0.0
 10
-1.4616220472440946
 20
0.7873622047244094
 30
0.0
 10
-1.4616220472440946
 20
0.7873622047244094
 30
0.0
 10
-1.4616220472440946
 20
0.7873622047244094
 30
0.0
 10
-1.4616220472440946
 20
0.7873622047244094
 30
0.0
 10
0.3457677165354331
 20
0.7873622047244094
 30
0.0
 10
0.3457677165354331
 20
0.7873622047244094
 30
0.0
  0
SPLINE
  5
63
100
AcDbEntity
  8
Layer 1
 62
   253
100
AcDbSpline
210
0.0
220
0.0
230
1.0
 70
     1
 71
     3
 72
    20
 73
    16
 74
     0
 42
0.0000000001
 43
0.0000000001
 40
0.0
 40
0.0
 40
0.0
 40
0.0
 40
0.25
 40
0.25
 40
0.25
 40
0.25
 40
0.5
 40
0.5
 40
0.5
 40
0.5
 40
0.75
 40
0.75
 40
0.75
 40
0.75
 40
1.0
 40
1.0
 40
1.0
 40
1.0
 10
0.8318464566929135
 20
-1.4561338582677166
 30
0.0
 10
0.8318464566929135
 20
-1.4561338582677166
 30
0.0
 10
1.4892913385826771
 20
-1.0944606299212598
 30
0.0
 10
1.4892913385826771
 20
-1.0944606299212598
 30
0.0
 10
1.4892913385826771
 20
-1.0944606299212598
 30
0.0
 10
1.4892913385826771
 20
-1.0944606299212598
 30
0.0
 10
1.5273307086614174
 20
-1.0700748031496063
 30
0.0
 10
1.5273307086614174
 20
-1.0700748031496063
 30
0.0
 10
1.5273307086614174
 20
-1.0700748031496063
 30
0.0
 10
1.5273307086614174
 20
-1.0700748031496063
 30
0.0
 10
0.8698858267716536
 20
-1.4317480314960631
 30
0.0
 10
0.8698858267716536
 20
-1.4317480314960631
 30
0.0
 10
0.8698858267716536
 20
-1.4317480314960631
 30
0.0
 10
0.8698858267716536
 20
-1.4317480314960631
 30
0.0
 10
0.8318464566929135
 20
-1.4561338582677166
 30
0.0
 10
0.8318464566929135
 20
-1.4561338582677166
 30
0.0
  0
SPLINE
  5
64
100
AcDbEntity
  8
Layer 1
 62
   253
100
AcDbSpline
210
0.0
220
0.0
230
1.0
 70
     1
 71
     3
 72
    20
 73
    16
 74
     0
 42
0.0000000001
 43
0.0000000001
 40
0.0
 40
0.0
 40
0.0
 40
0.0
 40
0.25
 40
0.25
 40
0.25
 40
0.25
 40
0.5
 40
0.5
 40
0.5
 40
0.5
 40
0.75
 40
0.75
 40
0.75
 40
0.75
 40
1.0
 40
1.0
 40
1.0
 40
1.0
 10
0.8698858267716536
 20
-1.4317480314960631
 30
0.0
 10
0.8698858267716536
 20
-1.4317480314960631
 30
0.0
 10
1.5273307086614174
 20
-1.0700748031496063
 30
0.0
 10
1.5273307086614174
 20
-1.0700748031496063
 30
0.0
 10
1.5273307086614174
 20
-1.0700748031496063
 30
0.0
 10
1.5273307086614174
 20
-1.0700748031496063
 30
0.0
 10
1.5640866141732284
 20
-1.0439330708661418
 30
0.0
 10
1.5640866141732284
 20
-1.0439330708661418
 30
0.0
 10
1.5640866141732284
 20
-1.0439330708661418
 30
0.0
 10
1.5640866141732284
 20
-1.0439330708661418
 30
0.0
 10
0.9066417322834646
 20
-1.4056062992125984
 30
0.0
 10
0.9066417322834646
 20
-1.4056062992125984
 30
0.0
 10
0.9066417322834646
 20
-1.4056062992125984
 30
0.0
 10
0.9066417322834646
 20
-1.4056062992125984
 30
0.0
 10
0.8698858267716536
 20
-1.4317480314960631
 30
0.0
 10
0.8698858267716536
 20
-1.4317480314960631
 30
0.0
  0
SPLINE
  5
65
100
AcDbEntity
  8
Layer 1
 62
   253
100
AcDbSpline
210
0.0
220
0.0
230
1.0
 70
     1
 71
     3
 72
    20
 73
    16
 74
     0
 42
0.0000000001
 43
0.0000000001
 40
0.0
 40
0.0
 40
0.0
 40
0.0
 40
0.25
 40
0.25
 40
0.25
 40
0.25
 40
0.5
 40
0.5
 40
0.5
 40
0.5
 40
0.75
 40
0.75
 40
0.75
 40
0.75
 40
1.0
 40
1.0
 40
1.0
 40
1.0
 10
0.9066417322834646
 20
-1.4056062992125984
 30
0.0
 10
0.9066417322834646
 20
-1.4056062992125984
 30
0.0
 10
1.5640866141732284
 20
-1.0439330708661418
 30
0.0
 10
1.5640866141732284
 20
-1.0439330708661418
 30
0.0
 10
1.5640866141732284
 20
-1.0439330708661418
 30
0.0
 10
1.5640866141732284
 20
-1.0439330708661418
 30
0.0
 10
1.599507874015748
 20
-1.0161023622047245
 30
0.0
 10
1.599507874015748
 20
-1.0161023622047245
 30
0.0
 10
1.599507874015748
 20
-1.0161023622047245
 30
0.0
 10
1.599507874015748
 20
-1.0161023622047245
 30
0.0
 10
0.9420629921259843
 20
-1.3777755905511813
 30
0.0
 10
0.9420629921259843
 20
-1.3777755905511813
 30
0.0
 10
0.9420629921259843
 20
-1.3777755905511813
 30
0.0
 10
0.9420629921259843
 20
-1.3777755905511813
 30
0.0
 10
0.9066417322834646
 20
-1.4056062992125984
 30
0.0
 10
0.9066417322834646
 20
-1.4056062992125984
 30
0.0
  0
SPLINE
  5
66
100
AcDbEntity
  8
Layer 1
 62
     9
100
AcDbSpline
210
0.0
220
0.0
230
1.0
 70
     1
 71
     3
 72
    20
 73
    16
 74
     0
 42
0.0000000001
 43
0.0000000001
 40
0.0
 40
0.0
 40
0.0
 40
0.0
 40
0.25
 40
0.25
 40
0.25
 40
0.25
 40
0.5
 40
0.5
 40
0.5
 40
0.5
 40
0.75
 40
0.75
 40
0.75
 40
0.75
 40
1.0
 40
1.0
 40
1.0
 40
1.0
 10
0.9420629921259843
 20
-1.3777755905511813
 30
0.0
 10
0.9420629921259843
 20
-1.3777755905511813
 30
0.0
 10
1.599507874015748
 20
-1.0161023622047245
 30
0.0
 10
1.599507874015748
 20
-1.0161023622047245
 30
0.0
 10
1.599507874015748
 20
-1.0161023622047245
 30
0.0
 10
1.599507874015748
 20
-1.0161023622047245
 30
0.0
 10
1.6335236220472442
 20
-0.9866338582677166
 30
0.0
 10
1.6335236220472442
 20
-0.9866338582677166
 30
0.0
 10
1.6335236220472442
 20
-0.9866338582677166
 30
0.0
 10
1.6335236220472442
 20
-0.9866338582677166
 30
0.0
 10
0.9760787401574803
 20
-1.3483070866141733
 30
0.0
 10
0.9760787401574803
 20
-1.3483070866141733
 30
0.0
 10
0.9760787401574803
 20
-1.3483070866141733
 30
0.0
 10
0.9760787401574803
 20
-1.3483070866141733
 30
0.0
 10
0.9420629921259843
 20
-1.3777755905511813
 30
0.0
 10
0.9420629921259843
 20
-1.3777755905511813
 30
0.0
  0
SPLINE
  5
67
100
AcDbEntity
  8
Layer 1
 62
     9
100
AcDbSpline
210
0.0
220
0.0
230
1.0
 70
     1
 71
     3
 72
    20
 73
    16
 74
     0
 42
0.0000000001
 43
0.0000000001
 40
0.0
 40
0.0
 40
0.0
 40
0.0
 40
0.25
 40
0.25
 40
0.25
 40
0.25
 40
0.5
 40
0.5
 40
0.5
 40
0.5
 40
0.75
 40
0.75
 40
0.75
 40
0.75
 40
1.0
 40
1.0
 40
1.0
 40
1.0
 10
0.9760787401574803
 20
-1.3483070866141733
 30
0.0
 10
0.9760787401574803
 20
-1.3483070866141733
 30
0.0
 10
1.6335236220472442
 20
-0.9866338582677166
 30
0.0
 10
1.6335236220472442
 20
-0.9866338582677166
 30
0.0
 10
1.6335236220472442
 20
-0.9866338582677166
 30
0.0
 10
1.6335236220472442
 20
-0.9866338582677166
 30
0.0
 10
1.6660905511811024
 20
-0.9555944881889764
 30
0.0
 10
1.6660905511811024
 20
-0.9555944881889764
 30
0.0
 10
1.6660905511811024
 20
-0.9555944881889764
 30
0.0
 10
1.6660905511811024
 20
-0.9555944881889764
 30
0.0
 10
1.0086456692913386
 20
-1.3172677165354332
 30
0.0
 10
1.0086456692913386
 20
-1.3172677165354332
 30
0.0
 10
1.0086456692913386
 20
-1.3172677165354332
 30
0.0
 10
1.0086456692913386
 20
-1.3172677165354332
 30
0.0
 10
0.9760787401574803
 20
-1.3483070866141733
 30
0.0
 10
0.9760787401574803
 20
-1.3483070866141733
 30
0.0
  0
SPLINE
  5
68
100
AcDbEntity
  8
Layer 1
 62
     9
100
AcDbSpline
210
0.0
220
0.0
230
1.0
 70
     1
 71
     3
 72
    20
 73
    16
 74
     0
 42
0.0000000001
 43
0.0000000001
 40
0.0
 40
0.0
 40
0.0
 40
0.0
 40
0.25
 40
0.25
 40
0.25
 40
0.25
 40
0.5
 40
0.5
 40
0.5
 40
0.5
 40
0.75
 40
0.75
 40
0.75
 40
0.75
 40
1.0
 40
1.0
 40
1.0
 40
1.0
 10
1.0086456692913386
 20
-1.3172677165354332
 30
0.0
 10
1.0086456692913386
 20
-1.3172677165354332
 30
0.0
 10
1.6660905511811024
 20
-0.9555944881889764
 30
0.0
 10
1.6660905511811024
 20
-0.9555944881889764
 30
0.0
 10
1.6660905511811024
 20
-0.9555944881889764
 30
0.0
 10
1.6660905511811024
 20
-0.9555944881889764
 30
0.0
 10
1.6971299212598425
 20
-0.9230275590551181
 30
0.0
 10
1.6971299212598425
 20
-0.9230275590551181
 30
0.0
 10
1.6971299212598425
 20
-0.9230275590551181
 30
0.0
 10
1.6971299212598425
 20
-0.9230275590551181
 30
0.0
 10
1.0396850393700787
 20
-1.2847007874015748
 30
0.0
 10
1.0396850393700787
 20
-1.2847007874015748
 30
0.0
 10
1.0396850393700787
 20
-1.2847007874015748
 30
0.0
 10
1.0396850393700787
 20
-1.2847007874015748
 30
0.0
 10
1.0086456692913386
 20
-1.3172677165354332
 30
0.0
 10
1.0086456692913386
 20
-1.3172677165354332
 30
0.0
  0
SPLINE
  5
69
100
AcDbEntity
  8
Layer 1
 62
     9
100
AcDbSpline
210
0.0
220
0.0
230
1.0
 70
     1
 71
     3
 72
    20
 73
    16
 74
     0
 42
0.0000000001
 43
0.0000000001
 40
0.0
 40
0.0
 40
0.0
 40
0.0
 40
0.25
 40
0.25
 40
0.25
 40
0.25
 40
0.5
 40
0.5
 40
0.5
 40
0.5
 40
0.75
 40
0.75
 40
0.75
 40
0.75
 40
1.0
 40
1.0
 40
1.0
 40
1.0
 10
1.0396850393700787
 20
-1.2847007874015748
 30
0.0
 10
1.0396850393700787
 20
-1.2847007874015748
 30
0.0
 10
1.6971299212598425
 20
-0.9230275590551181
 30
0.0
 10
1.6971299212598425
 20
-0.9230275590551181
 30
0.0
 10
1.6971299212598425
 20
-0.9230275590551181
 30
0.0
 10
1.6971299212598425
 20
-0.9230275590551181
 30
0.0
 10
1.7265984251968505
 20
-0.889011811023622
 30
0.0
 10
1.7265984251968505
 20
-0.889011811023622
 30
0.0
 10
1.7265984251968505
 20
-0.889011811023622
 30
0.0
 10
1.7265984251968505
 20
-0.889011811023622
 30
0.0
 10
1.0691535433070867
 20
-1.2506850393700788
 30
0.0
 10
1.0691535433070867
 20
-1.2506850393700788
 30
0.0
 10
1.0691535433070867
 20
-1.2506850393700788
 30
0.0
 10
1.0691535433070867
 20
-1.2506850393700788
 30
0.0
 10
1.0396850393700787
 20
-1.2847007874015748
 30
0.0
 10
1.0396850393700787
 20
-1.2847007874015748
 30
0.0
  0
SPLINE
  5
6A
100
AcDbEntity
  8
Layer 1
 62
     9
100
AcDbSpline
210
0.0
220
0.0
230
1.0
 70
     1
 71
     3
 72
    20
 73
    16
 74
     0
 42
0.0000000001
 43
0.0000000001
 40
0.0
 40
0.0
 40
0.0
 40
0.0
 40
0.25
 40
0.25
 40
0.25
 40
0.25
 40
0.5
 40
0.5
 40
0.5
 40
0.5
 40
0.75
 40
0.75
 40
0.75
 40
0.75
 40
1.0
 40
1.0
 40
1.0
 40
1.0
 10
1.0691535433070867
 20
-1.2506850393700788
 30
0.0
 10
1.0691535433070867
 20
-1.2506850393700788
 30
0.0
 10
1.7265984251968505
 20
-0.889011811023622
 30
0.0
 10
1.7265984251968505
 20
-0.889011811023622
 30
0.0
 10
1.7265984251968505
 20
-0.889011811023622
 30
0.0
 10
1.7265984251968505
 20
-0.889011811023622
 30
0.0
 10
1.7544291338582678
 20
-0.8535905511811024
 30
0.0
 10
1.7544291338582678
 20
-0.8535905511811024
 30
0.0
 10
1.7544291338582678
 20
-0.8535905511811024
 30
0.0
 10
1.7544291338582678
 20
-0.8535905511811024
 30
0.0
 10
1.096984251968504
 20
-1.2152637795275592
 30
0.0
 10
1.096984251968504
 20
-1.2152637795275592
 30
0.0
 10
1.096984251968504
 20
-1.2152637795275592
 30
0.0
 10
1.096984251968504
 20
-1.2152637795275592
 30
0.0
 10
1.0691535433070867
 20
-1.2506850393700788
 30
0.0
 10
1.0691535433070867
 20
-1.2506850393700788
 30
0.0
  0
SPLINE
  5
6B
100
AcDbEntity
  8
Layer 1
 62
     9
100
AcDbSpline
210
0.0
220
0.0
230
1.0
 70
     1
 71
     3
 72
    20
 73
    16
 74
     0
 42
0.0000000001
 43
0.0000000001
 40
0.0
 40
0.0
 40
0.0
 40
0.0
 40
0.25
 40
0.25
 40
0.25
 40
0.25
 40
0.5
 40
0.5
 40
0.5
 40
0.5
 40
0.75
 40
0.75
 40
0.75
 40
0.75
 40
1.0
 40
1.0
 40
1.0
 40
1.0
 10
1.096984251968504
 20
-1.2152637795275592
 30
0.0
 10
1.096984251968504
 20
-1.2152637795275592
 30
0.0
 10
1.7544291338582678
 20
-0.8535905511811024
 30
0.0
 10
1.7544291338582678
 20
-0.8535905511811024
 30
0.0
 10
1.7544291338582678
 20
-0.8535905511811024
 30
0.0
 10
1.7544291338582678
 20
-0.8535905511811024
 30
0.0
 10
1.7805708661417323
 20
-0.8168346456692913
 30
0.0
 10
1.7805708661417323
 20
-0.8168346456692913
 30
0.0
 10
1.7805708661417323
 20
-0.8168346456692913
 30
0.0
 10
1.7805708661417323
 20
-0.8168346456692913
 30
0.0
 10
1.1231259842519685
 20
-1.178507874015748
 30
0.0
 10
1.1231259842519685
 20
-1.178507874015748
 30
0.0
 10
1.1231259842519685
 20
-1.178507874015748
 30
0.0
 10
1.1231259842519685
 20
-1.178507874015748
 30
0.0
 10
1.096984251968504
 20
-1.2152637795275592
 30
0.0
 10
1.096984251968504
 20
-1.2152637795275592
 30
0.0
  0
SPLINE
  5
6C
100
AcDbEntity
  8
Layer 1
 62
     9
100
AcDbSpline
210
0.0
220
0.0
230
1.0
 70
     1
 71
     3
 72
    20
 73
    16
 74
     0
 42
0.0000000001
 43
0.0000000001
 40
0.0
 40
0.0
 40
0.0
 40
0.0
 40
0.25
 40
0.25
 40
0.25
 40
0.25
 40
0.5
 40
0.5
 40
0.5
 40
0.5
 40
0.75
 40
0.75
 40
0.75
 40
0.75
 40
1.0
 40
1.0
 40
1.0
 40
1.0
 10
1.1231259842519685
 20
-1.178507874015748
 30
0.0
 10
1.1231259842519685
 20
-1.178507874015748
 30
0.0
 10
1.7805708661417323
 20
-0.8168346456692913
 30
0.0
 10
1.7805708661417323
 20
-0.8168346456692913
 30
0.0
 10
1.7805708661417323
 20
-0.8168346456692913
 30
0.0
 10
1.7805708661417323
 20
-0.8168346456692913
 30
0.0
 10
1.8049566929133858
 20
-0.7787952755905512
 30
0.0
 10
1.8049566929133858
 20
-0.7787952755905512
 30
0.0
 10
1.8049566929133858
 20
-0.7787952755905512
 30
0.0
 10
1.8049566929133858
 20
-0.7787952755905512
 30
0.0
 10
1.147511811023622
 20
-1.1404685039370079
 30
0.0
 10
1.147511811023622
 20
-1.1404685039370079
 30
0.0
 10
1.147511811023622
 20
-1.1404685039370079
 30
0.0
 10
1.147511811023622
 20
-1.1404685039370079
 30
0.0
 10
1.1231259842519685
 20
-1.178507874015748
 30
0.0
 10
1.1231259842519685
 20
-1.178507874015748
 30
0.0
  0
SPLINE
  5
6D
100
AcDbEntity
  8
Layer 1
 62
     9
100
AcDbSpline
210
0.0
220
0.0
230
1.0
 70
     1
 71
     3
 72
    20
 73
    16
 74
     0
 42
0.0000000001
 43
0.0000000001
 40
0.0
 40
0.0
 40
0.0
 40
0.0
 40
0.25
 40
0.25
 40
0.25
 40
0.25
 40
0.5
 40
0.5
 40
0.5
 40
0.5
 40
0.75
 40
0.75
 40
0.75
 40
0.75
 40
1.0
 40
1.0
 40
1.0
 40
1.0
 10
1.147511811023622
 20
-1.1404685039370079
 30
0.0
 10
1.147511811023622
 20
-1.1404685039370079
 30
0.0
 10
1.8049566929133858
 20
-0.7787952755905512
 30
0.0
 10
1.8049566929133858
 20
-0.7787952755905512
 30
0.0
 10
1.8049566929133858
 20
-0.7787952755905512
 30
0.0
 10
1.8049566929133858
 20
-0.7787952755905512
 30
0.0
 10
1.8275354330708662
 20
-0.7395393700787402
 30
0.0
 10
1.8275354330708662
 20
-0.7395393700787402
 30
0.0
 10
1.8275354330708662
 20
-0.7395393700787402
 30
0.0
 10
1.8275354330708662
 20
-0.7395393700787402
 30
0.0
 10
1.1700905511811024
 20
-1.1012125984251968
 30
0.0
 10
1.1700905511811024
 20
-1.1012125984251968
 30
0.0
 10
1.1700905511811024
 20
-1.1012125984251968
 30
0.0
 10
1.1700905511811024
 20
-1.1012125984251968
 30
0.0
 10
1.147511811023622
 20
-1.1404685039370079
 30
0.0
 10
1.147511811023622
 20
-1.1404685039370079
 30
0.0
  0
SPLINE
  5
6E
100
AcDbEntity
  8
Layer 1
 62
     9
100
AcDbSpline
210
0.0
220
0.0
230
1.0
 70
     1
 71
     3
 72
    20
 73
    16
 74
     0
 42
0.0000000001
 43
0.0000000001
 40
0.0
 40
0.0
 40
0.0
 40
0.0
 40
0.25
 40
0.25
 40
0.25
 40
0.25
 40
0.5
 40
0.5
 40
0.5
 40
0.5
 40
0.75
 40
0.75
 40
0.75
 40
0.75
 40
1.0
 40
1.0
 40
1.0
 40
1.0
 10
1.1700905511811024
 20
-1.1012125984251968
 30
0.0
 10
1.1700905511811024
 20
-1.1012125984251968
 30
0.0
 10
1.8275354330708662
 20
-0.7395393700787402
 30
0.0
 10
1.8275354330708662
 20
-0.7395393700787402
 30
0.0
 10
1.8275354330708662
 20
-0.7395393700787402
 30
0.0
 10
1.8275354330708662
 20
-0.7395393700787402
 30
0.0
 10
1.8482401574803151
 20
-0.6991141732283465
 30
0.0
 10
1.8482401574803151
 20
-0.6991141732283465
 30
0.0
 10
1.8482401574803151
 20
-0.6991141732283465
 30
0.0
 10
1.8482401574803151
 20
-0.6991141732283465
 30
0.0
 10
1.1907952755905513
 20
-1.0607874015748031
 30
0.0
 10
1.1907952755905513
 20
-1.0607874015748031
 30
0.0
 10
1.1907952755905513
 20
-1.0607874015748031
 30
0.0
 10
1.1907952755905513
 20
-1.0607874015748031
 30
0.0
 10
1.1700905511811024
 20
-1.1012125984251968
 30
0.0
 10
1.1700905511811024
 20
-1.1012125984251968
 30
0.0
  0
SPLINE
  5
6F
100
AcDbEntity
  8
Layer 1
 62
     9
100
AcDbSpline
210
0.0
220
0.0
230
1.0
 70
     1
 71
     3
 72
    20
 73
    16
 74
     0
 42
0.0000000001
 43
0.0000000001
 40
0.0
 40
0.0
 40
0.0
 40
0.0
 40
0.25
 40
0.25
 40
0.25
 40
0.25
 40
0.5
 40
0.5
 40
0.5
 40
0.5
 40
0.75
 40
0.75
 40
0.75
 40
0.75
 40
1.0
 40
1.0
 40
1.0
 40
1.0
 10
1.1907952755905513
 20
-1.0607874015748031
 30
0.0
 10
1.1907952755905513
 20
-1.0607874015748031
 30
0.0
 10
1.8482401574803151
 20
-0.6991141732283465
 30
0.0
 10
1.8482401574803151
 20
-0.6991141732283465
 30
0.0
 10
1.8482401574803151
 20
-0.6991141732283465
 30
0.0
 10
1.8482401574803151
 20
-0.6991141732283465
 30
0.0
 10
1.8670236220472443
 20
-0.6575905511811024
 30
0.0
 10
1.8670236220472443
 20
-0.6575905511811024
 30
0.0
 10
1.8670236220472443
 20
-0.6575905511811024
 30
0.0
 10
1.8670236220472443
 20
-0.6575905511811024
 30
0.0
 10
1.2095787401574805
 20
-1.0192637795275592
 30
0.0
 10
1.2095787401574805
 20
-1.0192637795275592
 30
0.0
 10
1.2095787401574805
 20
-1.0192637795275592
 30
0.0
 10
1.2095787401574805
 20
-1.0192637795275592
 30
0.0
 10
1.1907952755905513
 20
-1.0607874015748031
 30
0.0
 10
1.1907952755905513
 20
-1.0607874015748031
 30
0.0
  0
SPLINE
  5
70
100
AcDbEntity
  8
Layer 1
 62
     9
100
AcDbSpline
210
0.0
220
0.0
230
1.0
 70
     1
 71
     3
 72
    20
 73
    16
 74
     0
 42
0.0000000001
 43
0.0000000001
 40
0.0
 40
0.0
 40
0.0
 40
0.0
 40
0.25
 40
0.25
 40
0.25
 40
0.25
 40
0.5
 40
0.5
 40
0.5
 40
0.5
 40
0.75
 40
0.75
 40
0.75
 40
0.75
 40
1.0
 40
1.0
 40
1.0
 40
1.0
 10
1.2095787401574805
 20
-1.0192637795275592
 30
0.0
 10
1.2095787401574805
 20
-1.0192637795275592
 30
0.0
 10
1.8670236220472443
 20
-0.6575905511811024
 30
0.0
 10
1.8670236220472443
 20
-0.6575905511811024
 30
0.0
 10
1.8670236220472443
 20
-0.6575905511811024
 30
0.0
 10
1.8670236220472443
 20
-0.6575905511811024
 30
0.0
 10
1.8838070866141734
 20
-0.6150157480314961
 30
0.0
 10
1.8838070866141734
 20
-0.6150157480314961
 30
0.0
 10
1.8838070866141734
 20
-0.6150157480314961
 30
0.0
 10
1.8838070866141734
 20
-0.6150157480314961
 30
0.0
 10
1.2263622047244096
 20
-0.9766889763779528
 30
0.0
 10
1.2263622047244096
 20
-0.9766889763779528
 30
0.0
 10
1.2263622047244096
 20
-0.9766889763779528
 30
0.0
 10
1.2263622047244096
 20
-0.9766889763779528
 30
0.0
 10
1.2095787401574805
 20
-1.0192637795275592
 30
0.0
 10
1.2095787401574805
 20
-1.0192637795275592
 30
0.0
  0
SPLINE
  5
71
100
AcDbEntity
  8
Layer 1
 62
     9
100
AcDbSpline
210
0.0
220
0.0
230
1.0
 70
     1
 71
     3
 72
    20
 73
    16
 74
     0
 42
0.0000000001
 43
0.0000000001
 40
0.0
 40
0.0
 40
0.0
 40
0.0
 40
0.25
 40
0.25
 40
0.25
 40
0.25
 40
0.5
 40
0.5
 40
0.5
 40
0.5
 40
0.75
 40
0.75
 40
0.75
 40
0.75
 40
1.0
 40
1.0
 40
1.0
 40
1.0
 10
1.2263622047244096
 20
-0.9766889763779528
 30
0.0
 10
1.2263622047244096
 20
-0.9766889763779528
 30
0.0
 10
1.8838070866141734
 20
-0.6150157480314961
 30
0.0
 10
1.8838070866141734
 20
-0.6150157480314961
 30
0.0
 10
1.8838070866141734
 20
-0.6150157480314961
 30
0.0
 10
1.8838070866141734
 20
-0.6150157480314961
 30
0.0
 10
1.8985511811023623
 20
-0.5714606299212599
 30
0.0
 10
1.8985511811023623
 20
-0.5714606299212599
 30
0.0
 10
1.8985511811023623
 20
-0.5714606299212599
 30
0.0
 10
1.8985511811023623
 20
-0.5714606299212599
 30
0.0
 10
1.2411062992125985
 20
-0.9331338582677166
 30
0.0
 10
1.2411062992125985
 20
-0.9331338582677166
 30
0.0
 10
1.2411062992125985
 20
-0.9331338582677166
 30
0.0
 10
1.2411062992125985
 20
-0.9331338582677166
 30
0.0
 10
1.2263622047244096
 20
-0.9766889763779528
 30
0.0
 10
1.2263622047244096
 20
-0.9766889763779528
 30
0.0
  0
SPLINE
  5
72
100
AcDbEntity
  8
Layer 1
 62
     9
100
AcDbSpline
210
0.0
220
0.0
230
1.0
 70
     1
 71
     3
 72
    20
 73
    16
 74
     0
 42
0.0000000001
 43
0.0000000001
 40
0.0
 40
0.0
 40
0.0
 40
0.0
 40
0.25
 40
0.25
 40
0.25
 40
0.25
 40
0.5
 40
0.5
 40
0.5
 40
0.5
 40
0.75
 40
0.75
 40
0.75
 40
0.75
 40
1.0
 40
1.0
 40
1.0
 40
1.0
 10
1.2411062992125985
 20
-0.9331338582677166
 30
0.0
 10
1.2411062992125985
 20
-0.9331338582677166
 30
0.0
 10
1.8985511811023623
 20
-0.5714606299212599
 30
0.0
 10
1.8985511811023623
 20
-0.5714606299212599
 30
0.0
 10
1.8985511811023623
 20
-0.5714606299212599
 30
0.0
 10
1.8985511811023623
 20
-0.5714606299212599
 30
0.0
 10
1.9111850393700789
 20
-0.5269724409448819
 30
0.0
 10
1.9111850393700789
 20
-0.5269724409448819
 30
0.0
 10
1.9111850393700789
 20
-0.5269724409448819
 30
0.0
 10
1.9111850393700789
 20
-0.5269724409448819
 30
0.0
 10
1.2537401574803151
 20
-0.8886456692913386
 30
0.0
 10
1.2537401574803151
 20
-0.8886456692913386
 30
0.0
 10
1.2537401574803151
 20
-0.8886456692913386
 30
0.0
 10
1.2537401574803151
 20
-0.8886456692913386
 30
0.0
 10
1.2411062992125985
 20
-0.9331338582677166
 30
0.0
 10
1.2411062992125985
 20
-0.9331338582677166
 30
0.0
  0
SPLINE
  5
73
100
AcDbEntity
  8
Layer 1
 62
     9
100
AcDbSpline
210
0.0
220
0.0
230
1.0
 70
     1
 71
     3
 72
    20
 73
    16
 74
     0
 42
0.0000000001
 43
0.0000000001
 40
0.0
 40
0.0
 40
0.0
 40
0.0
 40
0.25
 40
0.25
 40
0.25
 40
0.25
 40
0.5
 40
0.5
 40
0.5
 40
0.5
 40
0.75
 40
0.75
 40
0.75
 40
0.75
 40
1.0
 40
1.0
 40
1.0
 40
1.0
 10
1.2537401574803151
 20
-0.8886456692913386
 30
0.0
 10
1.2537401574803151
 20
-0.8886456692913386
 30
0.0
 10
1.9111850393700789
 20
-0.5269724409448819
 30
0.0
 10
1.9111850393700789
 20
-0.5269724409448819
 30
0.0
 10
1.9111850393700789
 20
-0.5269724409448819
 30
0.0
 10
1.9111850393700789
 20
-0.5269724409448819
 30
0.0
 10
1.9216574803149606
 20
-0.4816220472440945
 30
0.0
 10
1.9216574803149606
 20
-0.4816220472440945
 30
0.0
 10
1.9216574803149606
 20
-0.4816220472440945
 30
0.0
 10
1.9216574803149606
 20
-0.4816220472440945
 30
0.0
 10
1.2642125984251968
 20
-0.8432952755905512
 30
0.0
 10
1.2642125984251968
 20
-0.8432952755905512
 30
0.0
 10
1.2642125984251968
 20
-0.8432952755905512
 30
0.0
 10
1.2642125984251968
 20
-0.8432952755905512
 30
0.0
 10
1.2537401574803151
 20
-0.8886456692913386
 30
0.0
 10
1.2537401574803151
 20
-0.8886456692913386
 30
0.0
  0
SPLINE
  5
74
100
AcDbEntity
  8
Layer 1
 62
     9
100
AcDbSpline
210
0.0
220
0.0
230
1.0
 70
     1
 71
     3
 72
    20
 73
    16
 74
     0
 42
0.0000000001
 43
0.0000000001
 40
0.0
 40
0.0
 40
0.0
 40
0.0
 40
0.25
 40
0.25
 40
0.25
 40
0.25
 40
0.5
 40
0.5
 40
0.5
 40
0.5
 40
0.75
 40
0.75
 40
0.75
 40
0.75
 40
1.0
 40
1.0
 40
1.0
 40
1.0
 10
1.2642125984251968
 20
-0.8432952755905512
 30
0.0
 10
1.2642125984251968
 20
-0.8432952755905512
 30
0.0
 10
1.9216574803149606
 20
-0.4816220472440945
 30
0.0
 10
1.9216574803149606
 20
-0.4816220472440945
 30
0.0
 10
1.9216574803149606
 20
-0.4816220472440945
 30
0.0
 10
1.9216574803149606
 20
-0.4816220472440945
 30
0.0
 10
1.9299015748031496
 20
-0.4354566929133859
 30
0.0
 10
1.9299015748031496
 20
-0.4354566929133859
 30
0.0
 10
1.9299015748031496
 20
-0.4354566929133859
 30
0.0
 10
1.9299015748031496
 20
-0.4354566929133859
 30
0.0
 10
1.2724566929133858
 20
-0.7971299212598425
 30
0.0
 10
1.2724566929133858
 20
-0.7971299212598425
 30
0.0
 10
1.2724566929133858
 20
-0.7971299212598425
 30
0.0
 10
1.2724566929133858
 20
-0.7971299212598425
 30
0.0
 10
1.2642125984251968
 20
-0.8432952755905512
 30
0.0
 10
1.2642125984251968
 20
-0.8432952755905512
 30
0.0
  0
SPLINE
  5
75
100
AcDbEntity
  8
Layer 1
 62
     9
100
AcDbSpline
210
0.0
220
0.0
230
1.0
 70
     1
 71
     3
 72
    20
 73
    16
 74
     0
 42
0.0000000001
 43
0.0000000001
 40
0.0
 40
0.0
 40
0.0
 40
0.0
 40
0.25
 40
0.25
 40
0.25
 40
0.25
 40
0.5
 40
0.5
 40
0.5
 40
0.5
 40
0.75
 40
0.75
 40
0.75
 40
0.75
 40
1.0
 40
1.0
 40
1.0
 40
1.0
 10
1.2724566929133858
 20
-0.7971299212598425
 30
0.0
 10
1.2724566929133858
 20
-0.7971299212598425
 30
0.0
 10
1.9299015748031496
 20
-0.4354566929133859
 30
0.0
 10
1.9299015748031496
 20
-0.4354566929133859
 30
0.0
 10
1.9299015748031496
 20
-0.4354566929133859
 30
0.0
 10
1.9299015748031496
 20
-0.4354566929133859
 30
0.0
 10
1.9358661417322836
 20
-0.3885472440944882
 30
0.0
 10
1.9358661417322836
 20
-0.3885472440944882
 30
0.0
 10
1.9358661417322836
 20
-0.3885472440944882
 30
0.0
 10
1.9358661417322836
 20
-0.3885472440944882
 30
0.0
 10
1.2784212598425198
 20
-0.7502204724409449
 30
0.0
 10
1.2784212598425198
 20
-0.7502204724409449
 30
0.0
 10
1.2784212598425198
 20
-0.7502204724409449
 30
0.0
 10
1.2784212598425198
 20
-0.7502204724409449
 30
0.0
 10
1.2724566929133858
 20
-0.7971299212598425
 30
0.0
 10
1.2724566929133858
 20
-0.7971299212598425
 30
0.0
  0
SPLINE
  5
76
100
AcDbEntity
  8
Layer 1
 62
     9
100
AcDbSpline
210
0.0
220
0.0
230
1.0
 70
     1
 71
     3
 72
    20
 73
    16
 74
     0
 42
0.0000000001
 43
0.0000000001
 40
0.0
 40
0.0
 40
0.0
 40
0.0
 40
0.25
 40
0.25
 40
0.25
 40
0.25
 40
0.5
 40
0.5
 40
0.5
 40
0.5
 40
0.75
 40
0.75
 40
0.75
 40
0.75
 40
1.0
 40
1.0
 40
1.0
 40
1.0
 10
1.2784212598425198
 20
-0.7502204724409449
 30
0.0
 10
1.2784212598425198
 20
-0.7502204724409449
 30
0.0
 10
1.9358661417322836
 20
-0.3885472440944882
 30
0.0
 10
1.9358661417322836
 20
-0.3885472440944882
 30
0.0
 10
1.9358661417322836
 20
-0.3885472440944882
 30
0.0
 10
1.9358661417322836
 20
-0.3885472440944882
 30
0.0
 10
1.939488188976378
 20
-0.3409448818897638
 30
0.0
 10
1.939488188976378
 20
-0.3409448818897638
 30
0.0
 10
1.939488188976378
 20
-0.3409448818897638
 30
0.0
 10
1.939488188976378
 20
-0.3409448818897638
 30
0.0
 10
1.2820433070866142
 20
-0.7026181102362205
 30
0.0
 10
1.2820433070866142
 20
-0.7026181102362205
 30
0.0
 10
1.2820433070866142
 20
-0.7026181102362205
 30
0.0
 10
1.2820433070866142
 20
-0.7026181102362205
 30
0.0
 10
1.2784212598425198
 20
-0.7502204724409449
 30
0.0
 10
1.2784212598425198
 20
-0.7502204724409449
 30
0.0
  0
SPLINE
  5
77
100
AcDbEntity
  8
Layer 1
 62
     9
100
AcDbSpline
210
0.0
220
0.0
230
1.0
 70
     1
 71
     3
 72
    20
 73
    16
 74
     0
 42
0.0000000001
 43
0.0000000001
 40
0.0
 40
0.0
 40
0.0
 40
0.0
 40
0.25
 40
0.25
 40
0.25
 40
0.25
 40
0.5
 40
0.5
 40
0.5
 40
0.5
 40
0.75
 40
0.75
 40
0.75
 40
0.75
 40
1.0
 40
1.0
 40
1.0
 40
1.0
 10
1.2820433070866142
 20
-0.7026181102362205
 30
0.0
 10
1.2820433070866142
 20
-0.7026181102362205
 30
0.0
 10
1.939488188976378
 20
-0.3409448818897638
 30
0.0
 10
1.939488188976378
 20
-0.3409448818897638
 30
0.0
 10
1.939488188976378
 20
-0.3409448818897638
 30
0.0
 10
1.939488188976378
 20
-0.3409448818897638
 30
0.0
 10
1.9407125984251969
 20
-0.2927165354330709
 30
0.0
 10
1.9407125984251969
 20
-0.2927165354330709
 30
0.0
 10
1.9407125984251969
 20
-0.2927165354330709
 30
0.0
 10
1.9407125984251969
 20
-0.2927165354330709
 30
0.0
 10
1.2832677165354331
 20
-0.6543897637795276
 30
0.0
 10
1.2832677165354331
 20
-0.6543897637795276
 30
0.0
 10
1.2832677165354331
 20
-0.6543897637795276
 30
0.0
 10
1.2832677165354331
 20
-0.6543897637795276
 30
0.0
 10
1.2820433070866142
 20
-0.7026181102362205
 30
0.0
 10
1.2820433070866142
 20
-0.7026181102362205
 30
0.0
  0
SPLINE
  5
78
100
AcDbEntity
  8
Layer 1
 62
     9
100
AcDbSpline
210
0.0
220
0.0
230
1.0
 70
     1
 71
     3
 72
    20
 73
    16
 74
     0
 42
0.0000000001
 43
0.0000000001
 40
0.0
 40
0.0
 40
0.0
 40
0.0
 40
0.25
 40
0.25
 40
0.25
 40
0.25
 40
0.5
 40
0.5
 40
0.5
 40
0.5
 40
0.75
 40
0.75
 40
0.75
 40
0.75
 40
1.0
 40
1.0
 40
1.0
 40
1.0
 10
1.2832677165354331
 20
-0.6543897637795276
 30
0.0
 10
1.2832677165354331
 20
-0.6543897637795276
 30
0.0
 10
1.9407125984251969
 20
-0.2927165354330709
 30
0.0
 10
1.9407125984251969
 20
-0.2927165354330709
 30
0.0
 10
1.9407125984251969
 20
-0.2927165354330709
 30
0.0
 10
1.9407125984251969
 20
-0.2927165354330709
 30
0.0
 10
1.939488188976378
 20
-0.2444763779527559
 30
0.0
 10
1.939488188976378
 20
-0.2444763779527559
 30
0.0
 10
1.939488188976378
 20
-0.2444763779527559
 30
0.0
 10
1.939488188976378
 20
-0.2444763779527559
 30
0.0
 10
1.2820433070866142
 20
-0.6061496062992127
 30
0.0
 10
1.2820433070866142
 20
-0.6061496062992127
 30
0.0
 10
1.2820433070866142
 20
-0.6061496062992127
 30
0.0
 10
1.2820433070866142
 20
-0.6061496062992127
 30
0.0
 10
1.2832677165354331
 20
-0.6543897637795276
 30
0.0
 10
1.2832677165354331
 20
-0.6543897637795276
 30
0.0
  0
SPLINE
  5
79
100
AcDbEntity
  8
Layer 1
 62
     9
100
AcDbSpline
210
0.0
220
0.0
230
1.0
 70
     1
 71
     3
 72
    20
 73
    16
 74
     0
 42
0.0000000001
 43
0.0000000001
 40
0.0
 40
0.0
 40
0.0
 40
0.0
 40
0.25
 40
0.25
 40
0.25
 40
0.25
 40
0.5
 40
0.5
 40
0.5
 40
0.5
 40
0.75
 40
0.75
 40
0.75
 40
0.75
 40
1.0
 40
1.0
 40
1.0
 40
1.0
 10
1.2820433070866142
 20
-0.6061496062992127
 30
0.0
 10
1.2820433070866142
 20
-0.6061496062992127
 30
0.0
 10
1.939488188976378
 20
-0.2444763779527559
 30
0.0
 10
1.939488188976378
 20
-0.2444763779527559
 30
0.0
 10
1.939488188976378
 20
-0.2444763779527559
 30
0.0
 10
1.939488188976378
 20
-0.2444763779527559
 30
0.0
 10
1.9358661417322836
 20
-0.1968740157480315
 30
0.0
 10
1.9358661417322836
 20
-0.1968740157480315
 30
0.0
 10
1.9358661417322836
 20
-0.1968740157480315
 30
0.0
 10
1.9358661417322836
 20
-0.1968740157480315
 30
0.0
 10
1.2784212598425198
 20
-0.5585472440944882
 30
0.0
 10
1.2784212598425198
 20
-0.5585472440944882
 30
0.0
 10
1.2784212598425198
 20
-0.5585472440944882
 30
0.0
 10
1.2784212598425198
 20
-0.5585472440944882
 30
0.0
 10
1.2820433070866142
 20
-0.6061496062992127
 30
0.0
 10
1.2820433070866142
 20
-0.6061496062992127
 30
0.0
  0
SPLINE
  5
7A
100
AcDbEntity
  8
Layer 1
 62
     9
100
AcDbSpline
210
0.0
220
0.0
230
1.0
 70
     1
 71
     3
 72
    20
 73
    16
 74
     0
 42
0.0000000001
 43
0.0000000001
 40
0.0
 40
0.0
 40
0.0
 40
0.0
 40
0.25
 40
0.25
 40
0.25
 40
0.25
 40
0.5
 40
0.5
 40
0.5
 40
0.5
 40
0.75
 40
0.75
 40
0.75
 40
0.75
 40
1.0
 40
1.0
 40
1.0
 40
1.0
 10
1.2784212598425198
 20
-0.5585472440944882
 30
0.0
 10
1.2784212598425198
 20
-0.5585472440944882
 30
0.0
 10
1.9358661417322836
 20
-0.1968740157480315
 30
0.0
 10
1.9358661417322836
 20
-0.1968740157480315
 30
0.0
 10
1.9358661417322836
 20
-0.1968740157480315
 30
0.0
 10
1.9358661417322836
 20
-0.1968740157480315
 30
0.0
 10
1.9299015748031496
 20
-0.1499606299212599
 30
0.0
 10
1.9299015748031496
 20
-0.1499606299212599
 30
0.0
 10
1.9299015748031496
 20
-0.1499606299212599
 30
0.0
 10
1.9299015748031496
 20
-0.1499606299212599
 30
0.0
 10
1.2724566929133858
 20
-0.5116338582677166
 30
0.0
 10
1.2724566929133858
 20
-0.5116338582677166
 30
0.0
 10
1.2724566929133858
 20
-0.5116338582677166
 30
0.0
 10
1.2724566929133858
 20
-0.5116338582677166
 30
0.0
 10
1.2784212598425198
 20
-0.5585472440944882
 30
0.0
 10
1.2784212598425198
 20
-0.5585472440944882
 30
0.0
  0
SPLINE
  5
7B
100
AcDbEntity
  8
Layer 1
 62
     9
100
AcDbSpline
210
0.0
220
0.0
230
1.0
 70
     1
 71
     3
 72
    20
 73
    16
 74
     0
 42
0.0000000001
 43
0.0000000001
 40
0.0
 40
0.0
 40
0.0
 40
0.0
 40
0.25
 40
0.25
 40
0.25
 40
0.25
 40
0.5
 40
0.5
 40
0.5
 40
0.5
 40
0.75
 40
0.75
 40
0.75
 40
0.75
 40
1.0
 40
1.0
 40
1.0
 40
1.0
 10
1.2724566929133858
 20
-0.5116338582677166
 30
0.0
 10
1.2724566929133858
 20
-0.5116338582677166
 30
0.0
 10
1.9299015748031496
 20
-0.1499606299212599
 30
0.0
 10
1.9299015748031496
 20
-0.1499606299212599
 30
0.0
 10
1.9299015748031496
 20
-0.1499606299212599
 30
0.0
 10
1.9299015748031496
 20
-0.1499606299212599
 30
0.0
 10
1.9216574803149606
 20
-0.1037992125984252
 30
0.0
 10
1.9216574803149606
 20
-0.1037992125984252
 30
0.0
 10
1.9216574803149606
 20
-0.1037992125984252
 30
0.0
 10
1.9216574803149606
 20
-0.1037992125984252
 30
0.0
 10
1.2642125984251968
 20
-0.4654724409448819
 30
0.0
 10
1.2642125984251968
 20
-0.4654724409448819
 30
0.0
 10
1.2642125984251968
 20
-0.4654724409448819
 30
0.0
 10
1.2642125984251968
 20
-0.4654724409448819
 30
0.0
 10
1.2724566929133858
 20
-0.5116338582677166
 30
0.0
 10
1.2724566929133858
 20
-0.5116338582677166
 30
0.0
  0
SPLINE
  5
7C
100
AcDbEntity
  8
Layer 1
 62
     9
100
AcDbSpline
210
0.0
220
0.0
230
1.0
 70
     1
 71
     3
 72
    20
 73
    16
 74
     0
 42
0.0000000001
 43
0.0000000001
 40
0.0
 40
0.0
 40
0.0
 40
0.0
 40
0.25
 40
0.25
 40
0.25
 40
0.25
 40
0.5
 40
0.5
 40
0.5
 40
0.5
 40
0.75
 40
0.75
 40
0.75
 40
0.75
 40
1.0
 40
1.0
 40
1.0
 40
1.0
 10
1.2642125984251968
 20
-0.4654724409448819
 30
0.0
 10
1.2642125984251968
 20
-0.4654724409448819
 30
0.0
 10
1.9216574803149606
 20
-0.1037992125984252
 30
0.0
 10
1.9216574803149606
 20
-0.1037992125984252
 30
0.0
 10
1.9216574803149606
 20
-0.1037992125984252
 30
0.0
 10
1.9216574803149606
 20
-0.1037992125984252
 30
0.0
 10
1.9111850393700789
 20
-0.0584448818897638
 30
0.0
 10
1.9111850393700789
 20
-0.0584448818897638
 30
0.0
 10
1.9111850393700789
 20
-0.0584448818897638
 30
0.0
 10
1.9111850393700789
 20
-0.0584448818897638
 30
0.0
 10
1.2537401574803151
 20
-0.4201181102362205
 30
0.0
 10
1.2537401574803151
 20
-0.4201181102362205
 30
0.0
 10
1.2537401574803151
 20
-0.4201181102362205
 30
0.0
 10
1.2537401574803151
 20
-0.4201181102362205
 30
0.0
 10
1.2642125984251968
 20
-0.4654724409448819
 30
0.0
 10
1.2642125984251968
 20
-0.4654724409448819
 30
0.0
  0
SPLINE
  5
7D
100
AcDbEntity
  8
Layer 1
 62
     9
100
AcDbSpline
210
0.0
220
0.0
230
1.0
 70
     1
 71
     3
 72
    20
 73
    16
 74
     0
 42
0.0000000001
 43
0.0000000001
 40
0.0
 40
0.0
 40
0.0
 40
0.0
 40
0.25
 40
0.25
 40
0.25
 40
0.25
 40
0.5
 40
0.5
 40
0.5
 40
0.5
 40
0.75
 40
0.75
 40
0.75
 40
0.75
 40
1.0
 40
1.0
 40
1.0
 40
1.0
 10
1.2537401574803151
 20
-0.4201181102362205
 30
0.0
 10
1.2537401574803151
 20
-0.4201181102362205
 30
0.0
 10
1.9111850393700789
 20
-0.0584448818897638
 30
0.0
 10
1.9111850393700789
 20
-0.0584448818897638
 30
0.0
 10
1.9111850393700789
 20
-0.0584448818897638
 30
0.0
 10
1.9111850393700789
 20
-0.0584448818897638
 30
0.0
 10
1.8985511811023623
 20
-0.0139606299212598
 30
0.0
 10
1.8985511811023623
 20
-0.0139606299212598
 30
0.0
 10
1.8985511811023623
 20
-0.0139606299212598
 30
0.0
 10
1.8985511811023623
 20
-0.0139606299212598
 30
0.0
 10
1.2411062992125985
 20
-0.3756338582677166
 30
0.0
 10
1.2411062992125985
 20
-0.3756338582677166
 30
0.0
 10
1.2411062992125985
 20
-0.3756338582677166
 30
0.0
 10
1.2411062992125985
 20
-0.3756338582677166
 30
0.0
 10
1.2537401574803151
 20
-0.4201181102362205
 30
0.0
 10
1.2537401574803151
 20
-0.4201181102362205
 30
0.0
  0
SPLINE
  5
7E
100
AcDbEntity
  8
Layer 1
 62
     9
100
AcDbSpline
210
0.0
220
0.0
230
1.0
 70
     1
 71
     3
 72
    20
 73
    16
 74
     0
 42
0.0000000001
 43
0.0000000001
 40
0.0
 40
0.0
 40
0.0
 40
0.0
 40
0.25
 40
0.25
 40
0.25
 40
0.25
 40
0.5
 40
0.5
 40
0.5
 40
0.5
 40
0.75
 40
0.75
 40
0.75
 40
0.75
 40
1.0
 40
1.0
 40
1.0
 40
1.0
 10
1.2411062992125985
 20
-0.3756338582677166
 30
0.0
 10
1.2411062992125985
 20
-0.3756338582677166
 30
0.0
 10
1.8985511811023623
 20
-0.0139606299212598
 30
0.0
 10
1.8985511811023623
 20
-0.0139606299212598
 30
0.0
 10
1.8985511811023623
 20
-0.0139606299212598
 30
0.0
 10
1.8985511811023623
 20
-0.0139606299212598
 30
0.0
 10
1.8838070866141734
 20
0.0295984251968504
 30
0.0
 10
1.8838070866141734
 20
0.0295984251968504
 30
0.0
 10
1.8838070866141734
 20
0.0295984251968504
 30
0.0
 10
1.8838070866141734
 20
0.0295984251968504
 30
0.0
 10
1.2263622047244096
 20
-0.3320748031496063
 30
0.0
 10
1.2263622047244096
 20
-0.3320748031496063
 30
0.0
 10
1.2263622047244096
 20
-0.3320748031496063
 30
0.0
 10
1.2263622047244096
 20
-0.3320748031496063
 30
0.0
 10
1.2411062992125985
 20
-0.3756338582677166
 30
0.0
 10
1.2411062992125985
 20
-0.3756338582677166
 30
0.0
  0
SPLINE
  5
7F
100
AcDbEntity
  8
Layer 1
 62
     9
100
AcDbSpline
210
0.0
220
0.0
230
1.0
 70
     1
 71
     3
 72
    20
 73
    16
 74
     0
 42
0.0000000001
 43
0.0000000001
 40
0.0
 40
0.0
 40
0.0
 40
0.0
 40
0.25
 40
0.25
 40
0.25
 40
0.25
 40
0.5
 40
0.5
 40
0.5
 40
0.5
 40
0.75
 40
0.75
 40
0.75
 40
0.75
 40
1.0
 40
1.0
 40
1.0
 40
1.0
 10
1.2263622047244096
 20
-0.3320748031496063
 30
0.0
 10
1.2263622047244096
 20
-0.3320748031496063
 30
0.0
 10
1.8838070866141734
 20
0.0295984251968504
 30
0.0
 10
1.8838070866141734
 20
0.0295984251968504
 30
0.0
 10
1.8838070866141734
 20
0.0295984251968504
 30
0.0
 10
1.8838070866141734
 20
0.0295984251968504
 30
0.0
 10
1.8670236220472443
 20
0.0721653543307087
 30
0.0
 10
1.8670236220472443
 20
0.0721653543307087
 30
0.0
 10
1.8670236220472443
 20
0.0721653543307087
 30
0.0
 10
1.8670236220472443
 20
0.0721653543307087
 30
0.0
 10
1.2095787401574805
 20
-0.2895078740157481
 30
0.0
 10
1.2095787401574805
 20
-0.2895078740157481
 30
0.0
 10
1.2095787401574805
 20
-0.2895078740157481
 30
0.0
 10
1.2095787401574805
 20
-0.2895078740157481
 30
0.0
 10
1.2263622047244096
 20
-0.3320748031496063
 30
0.0
 10
1.2263622047244096
 20
-0.3320748031496063
 30
0.0
  0
SPLINE
  5
80
100
AcDbEntity
  8
Layer 1
 62
     9
100
AcDbSpline
210
0.0
220
0.0
230
1.0
 70
     1
 71
     3
 72
    20
 73
    16
 74
     0
 42
0.0000000001
 43
0.0000000001
 40
0.0
 40
0.0
 40
0.0
 40
0.0
 40
0.25
 40
0.25
 40
0.25
 40
0.25
 40
0.5
 40
0.5
 40
0.5
 40
0.5
 40
0.75
 40
0.75
 40
0.75
 40
0.75
 40
1.0
 40
1.0
 40
1.0
 40
1.0
 10
1.2095787401574805
 20
-0.2895078740157481
 30
0.0
 10
1.2095787401574805
 20
-0.2895078740157481
 30
0.0
 10
1.8670236220472443
 20
0.0721653543307087
 30
0.0
 10
1.8670236220472443
 20
0.0721653543307087
 30
0.0
 10
1.8670236220472443
 20
0.0721653543307087
 30
0.0
 10
1.8670236220472443
 20
0.0721653543307087
 30
0.0
 10
1.8482401574803151
 20
0.1136968503937008
 30
0.0
 10
1.8482401574803151
 20
0.1136968503937008
 30
0.0
 10
1.8482401574803151
 20
0.1136968503937008
 30
0.0
 10
1.8482401574803151
 20
0.1136968503937008
 30
0.0
 10
1.1907952755905513
 20
-0.2479763779527559
 30
0.0
 10
1.1907952755905513
 20
-0.2479763779527559
 30
0.0
 10
1.1907952755905513
 20
-0.2479763779527559
 30
0.0
 10
1.1907952755905513
 20
-0.2479763779527559
 30
0.0
 10
1.2095787401574805
 20
-0.2895078740157481
 30
0.0
 10
1.2095787401574805
 20
-0.2895078740157481
 30
0.0
  0
SPLINE
  5
81
100
AcDbEntity
  8
Layer 1
 62
     9
100
AcDbSpline
210
0.0
220
0.0
230
1.0
 70
     1
 71
     3
 72
    20
 73
    16
 74
     0
 42
0.0000000001
 43
0.0000000001
 40
0.0
 40
0.0
 40
0.0
 40
0.0
 40
0.25
 40
0.25
 40
0.25
 40
0.25
 40
0.5
 40
0.5
 40
0.5
 40
0.5
 40
0.75
 40
0.75
 40
0.75
 40
0.75
 40
1.0
 40
1.0
 40
1.0
 40
1.0
 10
1.1907952755905513
 20
-0.2479763779527559
 30
0.0
 10
1.1907952755905513
 20
-0.2479763779527559
 30
0.0
 10
1.8482401574803151
 20
0.1136968503937008
 30
0.0
 10
1.8482401574803151
 20
0.1136968503937008
 30
0.0
 10
1.8482401574803151
 20
0.1136968503937008
 30
0.0
 10
1.8482401574803151
 20
0.1136968503937008
 30
0.0
 10
1.8275354330708662
 20
0.1541181102362205
 30
0.0
 10
1.8275354330708662
 20
0.1541181102362205
 30
0.0
 10
1.8275354330708662
 20
0.1541181102362205
 30
0.0
 10
1.8275354330708662
 20
0.1541181102362205
 30
0.0
 10
1.1700905511811024
 20
-0.2075551181102362
 30
0.0
 10
1.1700905511811024
 20
-0.2075551181102362
 30
0.0
 10
1.1700905511811024
 20
-0.2075551181102362
 30
0.0
 10
1.1700905511811024
 20
-0.2075551181102362
 30
0.0
 10
1.1907952755905513
 20
-0.2479763779527559
 30
0.0
 10
1.1907952755905513
 20
-0.2479763779527559
 30
0.0
  0
SPLINE
  5
82
100
AcDbEntity
  8
Layer 1
 62
     9
100
AcDbSpline
210
0.0
220
0.0
230
1.0
 70
     1
 71
     3
 72
    20
 73
    16
 74
     0
 42
0.0000000001
 43
0.0000000001
 40
0.0
 40
0.0
 40
0.0
 40
0.0
 40
0.25
 40
0.25
 40
0.25
 40
0.25
 40
0.5
 40
0.5
 40
0.5
 40
0.5
 40
0.75
 40
0.75
 40
0.75
 40
0.75
 40
1.0
 40
1.0
 40
1.0
 40
1.0
 10
1.1700905511811024
 20
-0.2075551181102362
 30
0.0
 10
1.1700905511811024
 20
-0.2075551181102362
 30
0.0
 10
1.8275354330708662
 20
0.1541181102362205
 30
0.0
 10
1.8275354330708662
 20
0.1541181102362205
 30
0.0
 10
1.8275354330708662
 20
0.1541181102362205
 30
0.0
 10
1.8275354330708662
 20
0.1541181102362205
 30
0.0
 10
1.8049566929133858
 20
0.1933779527559055
 30
0.0
 10
1.8049566929133858
 20
0.1933779527559055
 30
0.0
 10
1.8049566929133858
 20
0.1933779527559055
 30
0.0
 10
1.8049566929133858
 20
0.1933779527559055
 30
0.0
 10
1.147511811023622
 20
-0.1682952755905512
 30
0.0
 10
1.147511811023622
 20
-0.1682952755905512
 30
0.0
 10
1.147511811023622
 20
-0.1682952755905512
 30
0.0
 10
1.147511811023622
 20
-0.1682952755905512
 30
0.0
 10
1.1700905511811024
 20
-0.2075551181102362
 30
0.0
 10
1.1700905511811024
 20
-0.2075551181102362
 30
0.0
  0
SPLINE
  5
83
100
AcDbEntity
  8
Layer 1
 62
     9
100
AcDbSpline
210
0.0
220
0.0
230
1.0
 70
     1
 71
     3
 72
    20
 73
    16
 74
     0
 42
0.0000000001
 43
0.0000000001
 40
0.0
 40
0.0
 40
0.0
 40
0.0
 40
0.25
 40
0.25
 40
0.25
 40
0.25
 40
0.5
 40
0.5
 40
0.5
 40
0.5
 40
0.75
 40
0.75
 40
0.75
 40
0.75
 40
1.0
 40
1.0
 40
1.0
 40
1.0
 10
1.147511811023622
 20
-0.1682952755905512
 30
0.0
 10
1.147511811023622
 20
-0.1682952755905512
 30
0.0
 10
1.8049566929133858
 20
0.1933779527559055
 30
0.0
 10
1.8049566929133858
 20
0.1933779527559055
 30
0.0
 10
1.8049566929133858
 20
0.1933779527559055
 30
0.0
 10
1.8049566929133858
 20
0.1933779527559055
 30
0.0
 10
1.7805708661417323
 20
0.2314133858267717
 30
0.0
 10
1.7805708661417323
 20
0.2314133858267717
 30
0.0
 10
1.7805708661417323
 20
0.2314133858267717
 30
0.0
 10
1.7805708661417323
 20
0.2314133858267717
 30
0.0
 10
1.1231259842519685
 20
-0.130259842519685
 30
0.0
 10
1.1231259842519685
 20
-0.130259842519685
 30
0.0
 10
1.1231259842519685
 20
-0.130259842519685
 30
0.0
 10
1.1231259842519685
 20
-0.130259842519685
 30
0.0
 10
1.147511811023622
 20
-0.1682952755905512
 30
0.0
 10
1.147511811023622
 20
-0.1682952755905512
 30
0.0
  0
SPLINE
  5
84
100
AcDbEntity
  8
Layer 1
 62
     9
100
AcDbSpline
210
0.0
220
0.0
230
1.0
 70
     1
 71
     3
 72
    20
 73
    16
 74
     0
 42
0.0000000001
 43
0.0000000001
 40
0.0
 40
0.0
 40
0.0
 40
0.0
 40
0.25
 40
0.25
 40
0.25
 40
0.25
 40
0.5
 40
0.5
 40
0.5
 40
0.5
 40
0.75
 40
0.75
 40
0.75
 40
0.75
 40
1.0
 40
1.0
 40
1.0
 40
1.0
 10
1.1231259842519685
 20
-0.130259842519685
 30
0.0
 10
1.1231259842519685
 20
-0.130259842519685
 30
0.0
 10
1.7805708661417323
 20
0.2314133858267717
 30
0.0
 10
1.7805708661417323
 20
0.2314133858267717
 30
0.0
 10
1.7805708661417323
 20
0.2314133858267717
 30
0.0
 10
1.7805708661417323
 20
0.2314133858267717
 30
0.0
 10
1.7544291338582678
 20
0.2681732283464567
 30
0.0
 10
1.7544291338582678
 20
0.2681732283464567
 30
0.0
 10
1.7544291338582678
 20
0.2681732283464567
 30
0.0
 10
1.7544291338582678
 20
0.2681732283464567
 30
0.0
 10
1.096984251968504
 20
-0.0935
 30
0.0
 10
1.096984251968504
 20
-0.0935
 30
0.0
 10
1.096984251968504
 20
-0.0935
 30
0.0
 10
1.096984251968504
 20
-0.0935
 30
0.0
 10
1.1231259842519685
 20
-0.130259842519685
 30
0.0
 10
1.1231259842519685
 20
-0.130259842519685
 30
0.0
  0
SPLINE
  5
85
100
AcDbEntity
  8
Layer 1
 62
     9
100
AcDbSpline
210
0.0
220
0.0
230
1.0
 70
     1
 71
     3
 72
    20
 73
    16
 74
     0
 42
0.0000000001
 43
0.0000000001
 40
0.0
 40
0.0
 40
0.0
 40
0.0
 40
0.25
 40
0.25
 40
0.25
 40
0.25
 40
0.5
 40
0.5
 40
0.5
 40
0.5
 40
0.75
 40
0.75
 40
0.75
 40
0.75
 40
1.0
 40
1.0
 40
1.0
 40
1.0
 10
1.096984251968504
 20
-0.0935
 30
0.0
 10
1.096984251968504
 20
-0.0935
 30
0.0
 10
1.7544291338582678
 20
0.2681732283464567
 30
0.0
 10
1.7544291338582678
 20
0.2681732283464567
 30
0.0
 10
1.7544291338582678
 20
0.2681732283464567
 30
0.0
 10
1.7544291338582678
 20
0.2681732283464567
 30
0.0
 10
1.7265984251968505
 20
0.3035905511811024
 30
0.0
 10
1.7265984251968505
 20
0.3035905511811024
 30
0.0
 10
1.7265984251968505
 20
0.3035905511811024
 30
0.0
 10
1.7265984251968505
 20
0.3035905511811024
 30
0.0
 10
1.0691535433070867
 20
-0.0580826771653543
 30
0.0
 10
1.0691535433070867
 20
-0.0580826771653543
 30
0.0
 10
1.0691535433070867
 20
-0.0580826771653543
 30
0.0
 10
1.0691535433070867
 20
-0.0580826771653543
 30
0.0
 10
1.096984251968504
 20
-0.0935
 30
0.0
 10
1.096984251968504
 20
-0.0935
 30
0.0
  0
SPLINE
  5
86
100
AcDbEntity
  8
Layer 1
 62
     9
100
AcDbSpline
210
0.0
220
0.0
230
1.0
 70
     1
 71
     3
 72
    20
 73
    16
 74
     0
 42
0.0000000001
 43
0.0000000001
 40
0.0
 40
0.0
 40
0.0
 40
0.0
 40
0.25
 40
0.25
 40
0.25
 40
0.25
 40
0.5
 40
0.5
 40
0.5
 40
0.5
 40
0.75
 40
0.75
 40
0.75
 40
0.75
 40
1.0
 40
1.0
 40
1.0
 40
1.0
 10
1.0691535433070867
 20
-0.0580826771653543
 30
0.0
 10
1.0691535433070867
 20
-0.0580826771653543
 30
0.0
 10
1.7265984251968505
 20
0.3035905511811024
 30
0.0
 10
1.7265984251968505
 20
0.3035905511811024
 30
0.0
 10
1.7265984251968505
 20
0.3035905511811024
 30
0.0
 10
1.7265984251968505
 20
0.3035905511811024
 30
0.0
 10
1.6971299212598425
 20
0.3376062992125984
 30
0.0
 10
1.6971299212598425
 20
0.3376062992125984
 30
0.0
 10
1.6971299212598425
 20
0.3376062992125984
 30
0.0
 10
1.6971299212598425
 20
0.3376062992125984
 30
0.0
 10
1.0396850393700787
 20
-0.0240669291338583
 30
0.0
 10
1.0396850393700787
 20
-0.0240669291338583
 30
0.0
 10
1.0396850393700787
 20
-0.0240669291338583
 30
0.0
 10
1.0396850393700787
 20
-0.0240669291338583
 30
0.0
 10
1.0691535433070867
 20
-0.0580826771653543
 30
0.0
 10
1.0691535433070867
 20
-0.0580826771653543
 30
0.0
  0
SPLINE
  5
87
100
AcDbEntity
  8
Layer 1
 62
     9
100
AcDbSpline
210
0.0
220
0.0
230
1.0
 70
     1
 71
     3
 72
    20
 73
    16
 74
     0
 42
0.0000000001
 43
0.0000000001
 40
0.0
 40
0.0
 40
0.0
 40
0.0
 40
0.25
 40
0.25
 40
0.25
 40
0.25
 40
0.5
 40
0.5
 40
0.5
 40
0.5
 40
0.75
 40
0.75
 40
0.75
 40
0.75
 40
1.0
 40
1.0
 40
1.0
 40
1.0
 10
1.0396850393700787
 20
-0.0240669291338583
 30
0.0
 10
1.0396850393700787
 20
-0.0240669291338583
 30
0.0
 10
1.6971299212598425
 20
0.3376062992125984
 30
0.0
 10
1.6971299212598425
 20
0.3376062992125984
 30
0.0
 10
1.6971299212598425
 20
0.3376062992125984
 30
0.0
 10
1.6971299212598425
 20
0.3376062992125984
 30
0.0
 10
1.6660905511811024
 20
0.3701614173228346
 30
0.0
 10
1.6660905511811024
 20
0.3701614173228346
 30
0.0
 10
1.6660905511811024
 20
0.3701614173228346
 30
0.0
 10
1.6660905511811024
 20
0.3701614173228346
 30
0.0
 10
1.0086456692913386
 20
0.008488188976378
 30
0.0
 10
1.0086456692913386
 20
0.008488188976378
 30
0.0
 10
1.0086456692913386
 20
0.008488188976378
 30
0.0
 10
1.0086456692913386
 20
0.008488188976378
 30
0.0
 10
1.0396850393700787
 20
-0.0240669291338583
 30
0.0
 10
1.0396850393700787
 20
-0.0240669291338583
 30
0.0
  0
SPLINE
  5
88
100
AcDbEntity
  8
Layer 1
 62
     9
100
AcDbSpline
210
0.0
220
0.0
230
1.0
 70
     1
 71
     3
 72
    20
 73
    16
 74
     0
 42
0.0000000001
 43
0.0000000001
 40
0.0
 40
0.0
 40
0.0
 40
0.0
 40
0.25
 40
0.25
 40
0.25
 40
0.25
 40
0.5
 40
0.5
 40
0.5
 40
0.5
 40
0.75
 40
0.75
 40
0.75
 40
0.75
 40
1.0
 40
1.0
 40
1.0
 40
1.0
 10
1.0086456692913386
 20
0.008488188976378
 30
0.0
 10
1.0086456692913386
 20
0.008488188976378
 30
0.0
 10
1.6660905511811024
 20
0.3701614173228346
 30
0.0
 10
1.6660905511811024
 20
0.3701614173228346
 30
0.0
 10
1.6660905511811024
 20
0.3701614173228346
 30
0.0
 10
1.6660905511811024
 20
0.3701614173228346
 30
0.0
 10
1.6335236220472442
 20
0.4012007874015748
 30
0.0
 10
1.6335236220472442
 20
0.4012007874015748
 30
0.0
 10
1.6335236220472442
 20
0.4012007874015748
 30
0.0
 10
1.6335236220472442
 20
0.4012007874015748
 30
0.0
 10
0.9760787401574803
 20
0.0395275590551181
 30
0.0
 10
0.9760787401574803
 20
0.0395275590551181
 30
0.0
 10
0.9760787401574803
 20
0.0395275590551181
 30
0.0
 10
0.9760787401574803
 20
0.0395275590551181
 30
0.0
 10
1.0086456692913386
 20
0.008488188976378
 30
0.0
 10
1.0086456692913386
 20
0.008488188976378
 30
0.0
  0
SPLINE
  5
89
100
AcDbEntity
  8
Layer 1
 62
     9
100
AcDbSpline
210
0.0
220
0.0
230
1.0
 70
     1
 71
     3
 72
    20
 73
    16
 74
     0
 42
0.0000000001
 43
0.0000000001
 40
0.0
 40
0.0
 40
0.0
 40
0.0
 40
0.25
 40
0.25
 40
0.25
 40
0.25
 40
0.5
 40
0.5
 40
0.5
 40
0.5
 40
0.75
 40
0.75
 40
0.75
 40
0.75
 40
1.0
 40
1.0
 40
1.0
 40
1.0
 10
0.9760787401574803
 20
0.0395275590551181
 30
0.0
 10
0.9760787401574803
 20
0.0395275590551181
 30
0.0
 10
1.6335236220472442
 20
0.4012007874015748
 30
0.0
 10
1.6335236220472442
 20
0.4012007874015748
 30
0.0
 10
1.6335236220472442
 20
0.4012007874015748
 30
0.0
 10
1.6335236220472442
 20
0.4012007874015748
 30
0.0
 10
1.599507874015748
 20
0.4306692913385827
 30
0.0
 10
1.599507874015748
 20
0.4306692913385827
 30
0.0
 10
1.599507874015748
 20
0.4306692913385827
 30
0.0
 10
1.599507874015748
 20
0.4306692913385827
 30
0.0
 10
0.9420629921259843
 20
0.068996062992126
 30
0.0
 10
0.9420629921259843
 20
0.068996062992126
 30
0.0
 10
0.9420629921259843
 20
0.068996062992126
 30
0.0
 10
0.9420629921259843
 20
0.068996062992126
 30
0.0
 10
0.9760787401574803
 20
0.0395275590551181
 30
0.0
 10
0.9760787401574803
 20
0.0395275590551181
 30
0.0
  0
SPLINE
  5
8A
100
AcDbEntity
  8
Layer 1
 62
     9
100
AcDbSpline
210
0.0
220
0.0
230
1.0
 70
     1
 71
     3
 72
    20
 73
    16
 74
     0
 42
0.0000000001
 43
0.0000000001
 40
0.0
 40
0.0
 40
0.0
 40
0.0
 40
0.25
 40
0.25
 40
0.25
 40
0.25
 40
0.5
 40
0.5
 40
0.5
 40
0.5
 40
0.75
 40
0.75
 40
0.75
 40
0.75
 40
1.0
 40
1.0
 40
1.0
 40
1.0
 10
0.9420629921259843
 20
0.068996062992126
 30
0.0
 10
0.9420629921259843
 20
0.068996062992126
 30
0.0
 10
1.599507874015748
 20
0.4306692913385827
 30
0.0
 10
1.599507874015748
 20
0.4306692913385827
 30
0.0
 10
1.599507874015748
 20
0.4306692913385827
 30
0.0
 10
1.599507874015748
 20
0.4306692913385827
 30
0.0
 10
1.5640866141732284
 20
0.4585
 30
0.0
 10
1.5640866141732284
 20
0.4585
 30
0.0
 10
1.5640866141732284
 20
0.4585
 30
0.0
 10
1.5640866141732284
 20
0.4585
 30
0.0
 10
0.9066417322834646
 20
0.0968267716535433
 30
0.0
 10
0.9066417322834646
 20
0.0968267716535433
 30
0.0
 10
0.9066417322834646
 20
0.0968267716535433
 30
0.0
 10
0.9066417322834646
 20
0.0968267716535433
 30
0.0
 10
0.9420629921259843
 20
0.068996062992126
 30
0.0
 10
0.9420629921259843
 20
0.068996062992126
 30
0.0
  0
SPLINE
  5
8B
100
AcDbEntity
  8
Layer 1
 62
     9
100
AcDbSpline
210
0.0
220
0.0
230
1.0
 70
     1
 71
     3
 72
    20
 73
    16
 74
     0
 42
0.0000000001
 43
0.0000000001
 40
0.0
 40
0.0
 40
0.0
 40
0.0
 40
0.25
 40
0.25
 40
0.25
 40
0.25
 40
0.5
 40
0.5
 40
0.5
 40
0.5
 40
0.75
 40
0.75
 40
0.75
 40
0.75
 40
1.0
 40
1.0
 40
1.0
 40
1.0
 10
0.9066417322834646
 20
0.0968267716535433
 30
0.0
 10
0.9066417322834646
 20
0.0968267716535433
 30
0.0
 10
1.5640866141732284
 20
0.4585
 30
0.0
 10
1.5640866141732284
 20
0.4585
 30
0.0
 10
1.5640866141732284
 20
0.4585
 30
0.0
 10
1.5640866141732284
 20
0.4585
 30
0.0
 10
1.5273307086614174
 20
0.4846417322834646
 30
0.0
 10
1.5273307086614174
 20
0.4846417322834646
 30
0.0
 10
1.5273307086614174
 20
0.4846417322834646
 30
0.0
 10
1.5273307086614174
 20
0.4846417322834646
 30
0.0
 10
0.8698858267716536
 20
0.1229685039370079
 30
0.0
 10
0.8698858267716536
 20
0.1229685039370079
 30
0.0
 10
0.8698858267716536
 20
0.1229685039370079
 30
0.0
 10
0.8698858267716536
 20
0.1229685039370079
 30
0.0
 10
0.9066417322834646
 20
0.0968267716535433
 30
0.0
 10
0.9066417322834646
 20
0.0968267716535433
 30
0.0
  0
SPLINE
  5
8C
100
AcDbEntity
  8
Layer 1
 62
     9
100
AcDbSpline
210
0.0
220
0.0
230
1.0
 70
     1
 71
     3
 72
    20
 73
    16
 74
     0
 42
0.0000000001
 43
0.0000000001
 40
0.0
 40
0.0
 40
0.0
 40
0.0
 40
0.25
 40
0.25
 40
0.25
 40
0.25
 40
0.5
 40
0.5
 40
0.5
 40
0.5
 40
0.75
 40
0.75
 40
0.75
 40
0.75
 40
1.0
 40
1.0
 40
1.0
 40
1.0
 10
0.8698858267716536
 20
0.1229685039370079
 30
0.0
 10
0.8698858267716536
 20
0.1229685039370079
 30
0.0
 10
1.5273307086614174
 20
0.4846417322834646
 30
0.0
 10
1.5273307086614174
 20
0.4846417322834646
 30
0.0
 10
1.5273307086614174
 20
0.4846417322834646
 30
0.0
 10
1.5273307086614174
 20
0.4846417322834646
 30
0.0
 10
1.4892913385826771
 20
0.5090275590551181
 30
0.0
 10
1.4892913385826771
 20
0.5090275590551181
 30
0.0
 10
1.4892913385826771
 20
0.5090275590551181
 30
0.0
 10
1.4892913385826771
 20
0.5090275590551181
 30
0.0
 10
0.8318464566929135
 20
0.1473543307086614
 30
0.0
 10
0.8318464566929135
 20
0.1473543307086614
 30
0.0
 10
0.8318464566929135
 20
0.1473543307086614
 30
0.0
 10
0.8318464566929135
 20
0.1473543307086614
 30
0.0
 10
0.8698858267716536
 20
0.1229685039370079
 30
0.0
 10
0.8698858267716536
 20
0.1229685039370079
 30
0.0
  0
SPLINE
  5
8D
100
AcDbEntity
  8
Layer 1
 62
     9
100
AcDbSpline
210
0.0
220
0.0
230
1.0
 70
     1
 71
     3
 72
    20
 73
    16
 74
     0
 42
0.0000000001
 43
0.0000000001
 40
0.0
 40
0.0
 40
0.0
 40
0.0
 40
0.25
 40
0.25
 40
0.25
 40
0.25
 40
0.5
 40
0.5
 40
0.5
 40
0.5
 40
0.75
 40
0.75
 40
0.75
 40
0.75
 40
1.0
 40
1.0
 40
1.0
 40
1.0
 10
0.8318464566929135
 20
0.1473543307086614
 30
0.0
 10
0.8318464566929135
 20
0.1473543307086614
 30
0.0
 10
1.4892913385826771
 20
0.5090275590551181
 30
0.0
 10
1.4892913385826771
 20
0.5090275590551181
 30
0.0
 10
1.4892913385826771
 20
0.5090275590551181
 30
0.0
 10
1.4892913385826771
 20
0.5090275590551181
 30
0.0
 10
1.4500354330708662
 20
0.5316062992125985
 30
0.0
 10
1.4500354330708662
 20
0.5316062992125985
 30
0.0
 10
1.4500354330708662
 20
0.5316062992125985
 30
0.0
 10
1.4500354330708662
 20
0.5316062992125985
 30
0.0
 10
0.7925905511811024
 20
0.1699330708661417
 30
0.0
 10
0.7925905511811024
 20
0.1699330708661417
 30
0.0
 10
0.7925905511811024
 20
0.1699330708661417
 30
0.0
 10
0.7925905511811024
 20
0.1699330708661417
 30
0.0
 10
0.8318464566929135
 20
0.1473543307086614
 30
0.0
 10
0.8318464566929135
 20
0.1473543307086614
 30
0.0
  0
SPLINE
  5
8E
100
AcDbEntity
  8
Layer 1
 62
   253
100
AcDbSpline
210
0.0
220
0.0
230
1.0
 70
     1
 71
     3
 72
    20
 73
    16
 74
     0
 42
0.0000000001
 43
0.0000000001
 40
0.0
 40
0.0
 40
0.0
 40
0.0
 40
0.25
 40
0.25
 40
0.25
 40
0.25
 40
0.5
 40
0.5
 40
0.5
 40
0.5
 40
0.75
 40
0.75
 40
0.75
 40
0.75
 40
1.0
 40
1.0
 40
1.0
 40
1.0
 10
0.7925905511811024
 20
0.1699330708661417
 30
0.0
 10
0.7925905511811024
 20
0.1699330708661417
 30
0.0
 10
1.4500354330708662
 20
0.5316062992125985
 30
0.0
 10
1.4500354330708662
 20
0.5316062992125985
 30
0.0
 10
1.4500354330708662
 20
0.5316062992125985
 30
0.0
 10
1.4500354330708662
 20
0.5316062992125985
 30
0.0
 10
1.4096102362204725
 20
0.5523110236220473
 30
0.0
 10
1.4096102362204725
 20
0.5523110236220473
 30
0.0
 10
1.4096102362204725
 20
0.5523110236220473
 30
0.0
 10
1.4096102362204725
 20
0.5523110236220473
 30
0.0
 10
0.7521653543307086
 20
0.1906377952755906
 30
0.0
 10
0.7521653543307086
 20
0.1906377952755906
 30
0.0
 10
0.7521653543307086
 20
0.1906377952755906
 30
0.0
 10
0.7521653543307086
 20
0.1906377952755906
 30
0.0
 10
0.7925905511811024
 20
0.1699330708661417
 30
0.0
 10
0.7925905511811024
 20
0.1699330708661417
 30
0.0
  0
SPLINE
  5
8F
100
AcDbEntity
  8
Layer 1
 62
   253
100
AcDbSpline
210
0.0
220
0.0
230
1.0
 70
     1
 71
     3
 72
    20
 73
    16
 74
     0
 42
0.0000000001
 43
0.0000000001
 40
0.0
 40
0.0
 40
0.0
 40
0.0
 40
0.25
 40
0.25
 40
0.25
 40
0.25
 40
0.5
 40
0.5
 40
0.5
 40
0.5
 40
0.75
 40
0.75
 40
0.75
 40
0.75
 40
1.0
 40
1.0
 40
1.0
 40
1.0
 10
0.7521653543307086
 20
0.1906377952755906
 30
0.0
 10
0.7521653543307086
 20
0.1906377952755906
 30
0.0
 10
1.4096102362204725
 20
0.5523110236220473
 30
0.0
 10
1.4096102362204725
 20
0.5523110236220473
 30
0.0
 10
1.4096102362204725
 20
0.5523110236220473
 30
0.0
 10
1.4096102362204725
 20
0.5523110236220473
 30
0.0
 10
1.3680866141732284
 20
0.5710944881889764
 30
0.0
 10
1.3680866141732284
 20
0.5710944881889764
 30
0.0
 10
1.3680866141732284
 20
0.5710944881889764
 30
0.0
 10
1.3680866141732284
 20
0.5710944881889764
 30
0.0
 10
0.7106417322834646
 20
0.2094212598425197
 30
0.0
 10
0.7106417322834646
 20
0.2094212598425197
 30
0.0
 10
0.7106417322834646
 20
0.2094212598425197
 30
0.0
 10
0.7106417322834646
 20
0.2094212598425197
 30
0.0
 10
0.7521653543307086
 20
0.1906377952755906
 30
0.0
 10
0.7521653543307086
 20
0.1906377952755906
 30
0.0
  0
SPLINE
  5
90
100
AcDbEntity
  8
Layer 1
 62
   253
100
AcDbSpline
210
0.0
220
0.0
230
1.0
 70
     1
 71
     3
 72
    20
 73
    16
 74
     0
 42
0.0000000001
 43
0.0000000001
 40
0.0
 40
0.0
 40
0.0
 40
0.0
 40
0.25
 40
0.25
 40
0.25
 40
0.25
 40
0.5
 40
0.5
 40
0.5
 40
0.5
 40
0.75
 40
0.75
 40
0.75
 40
0.75
 40
1.0
 40
1.0
 40
1.0
 40
1.0
 10
0.7106417322834646
 20
0.2094212598425197
 30
0.0
 10
0.7106417322834646
 20
0.2094212598425197
 30
0.0
 10
1.3680866141732284
 20
0.5710944881889764
 30
0.0
 10
1.3680866141732284
 20
0.5710944881889764
 30
0.0
 10
1.3680866141732284
 20
0.5710944881889764
 30
0.0
 10
1.3680866141732284
 20
0.5710944881889764
 30
0.0
 10
1.3255118110236221
 20
0.5878779527559055
 30
0.0
 10
1.3255118110236221
 20
0.5878779527559055
 30
0.0
 10
1.3255118110236221
 20
0.5878779527559055
 30
0.0
 10
1.3255118110236221
 20
0.5878779527559055
 30
0.0
 10
0.6680669291338583
 20
0.2262047244094488
 30
0.0
 10
0.6680669291338583
 20
0.2262047244094488
 30
0.0
 10
0.6680669291338583
 20
0.2262047244094488
 30
0.0
 10
0.6680669291338583
 20
0.2262047244094488
 30
0.0
 10
0.7106417322834646
 20
0.2094212598425197
 30
0.0
 10
0.7106417322834646
 20
0.2094212598425197
 30
0.0
  0
SPLINE
  5
91
100
AcDbEntity
  8
Layer 1
 62
   253
100
AcDbSpline
210
0.0
220
0.0
230
1.0
 70
     1
 71
     3
 72
    20
 73
    16
 74
     0
 42
0.0000000001
 43
0.0000000001
 40
0.0
 40
0.0
 40
0.0
 40
0.0
 40
0.25
 40
0.25
 40
0.25
 40
0.25
 40
0.5
 40
0.5
 40
0.5
 40
0.5
 40
0.75
 40
0.75
 40
0.75
 40
0.75
 40
1.0
 40
1.0
 40
1.0
 40
1.0
 10
0.6680669291338583
 20
0.2262047244094488
 30
0.0
 10
0.6680669291338583
 20
0.2262047244094488
 30
0.0
 10
1.3255118110236221
 20
0.5878779527559055
 30
0.0
 10
1.3255118110236221
 20
0.5878779527559055
 30
0.0
 10
1.3255118110236221
 20
0.5878779527559055
 30
0.0
 10
1.3255118110236221
 20
0.5878779527559055
 30
0.0
 10
1.2819566929133859
 20
0.6026220472440945
 30
0.0
 10
1.2819566929133859
 20
0.6026220472440945
 30
0.0
 10
1.2819566929133859
 20
0.6026220472440945
 30
0.0
 10
1.2819566929133859
 20
0.6026220472440945
 30
0.0
 10
0.6245118110236221
 20
0.2409488188976378
 30
0.0
 10
0.6245118110236221
 20
0.2409488188976378
 30
0.0
 10
0.6245118110236221
 20
0.2409488188976378
 30
0.0
 10
0.6245118110236221
 20
0.2409488188976378
 30
0.0
 10
0.6680669291338583
 20
0.2262047244094488
 30
0.0
 10
0.6680669291338583
 20
0.2262047244094488
 30
0.0
  0
SPLINE
  5
92
100
AcDbEntity
  8
Layer 1
 62
   253
100
AcDbSpline
210
0.0
220
0.0
230
1.0
 70
     1
 71
     3
 72
    20
 73
    16
 74
     0
 42
0.0000000001
 43
0.0000000001
 40
0.0
 40
0.0
 40
0.0
 40
0.0
 40
0.25
 40
0.25
 40
0.25
 40
0.25
 40
0.5
 40
0.5
 40
0.5
 40
0.5
 40
0.75
 40
0.75
 40
0.75
 40
0.75
 40
1.0
 40
1.0
 40
1.0
 40
1.0
 10
0.6245118110236221
 20
0.2409488188976378
 30
0.0
 10
0.6245118110236221
 20
0.2409488188976378
 30
0.0
 10
1.2819566929133859
 20
0.6026220472440945
 30
0.0
 10
1.2819566929133859
 20
0.6026220472440945
 30
0.0
 10
1.2819566929133859
 20
0.6026220472440945
 30
0.0
 10
1.2819566929133859
 20
0.6026220472440945
 30
0.0
 10
1.2374685039370079
 20
0.6152559055118111
 30
0.0
 10
1.2374685039370079
 20
0.6152559055118111
 30
0.0
 10
1.2374685039370079
 20
0.6152559055118111
 30
0.0
 10
1.2374685039370079
 20
0.6152559055118111
 30
0.0
 10
0.5800236220472441
 20
0.2535826771653543
 30
0.0
 10
0.5800236220472441
 20
0.2535826771653543
 30
0.0
 10
0.5800236220472441
 20
0.2535826771653543
 30
0.0
 10
0.5800236220472441
 20
0.2535826771653543
 30
0.0
 10
0.6245118110236221
 20
0.2409488188976378
 30
0.0
 10
0.6245118110236221
 20
0.2409488188976378
 30
0.0
  0
SPLINE
  5
93
100
AcDbEntity
  8
Layer 1
 62
   253
100
AcDbSpline
210
0.0
220
0.0
230
1.0
 70
     1
 71
     3
 72
    20
 73
    16
 74
     0
 42
0.0000000001
 43
0.0000000001
 40
0.0
 40
0.0
 40
0.0
 40
0.0
 40
0.25
 40
0.25
 40
0.25
 40
0.25
 40
0.5
 40
0.5
 40
0.5
 40
0.5
 40
0.75
 40
0.75
 40
0.75
 40
0.75
 40
1.0
 40
1.0
 40
1.0
 40
1.0
 10
0.5800236220472441
 20
0.2535826771653543
 30
0.0
 10
0.5800236220472441
 20
0.2535826771653543
 30
0.0
 10
1.2374685039370079
 20
0.6152559055118111
 30
0.0
 10
1.2374685039370079
 20
0.6152559055118111
 30
0.0
 10
1.2374685039370079
 20
0.6152559055118111
 30
0.0
 10
1.2374685039370079
 20
0.6152559055118111
 30
0.0
 10
1.1921181102362206
 20
0.625728346456693
 30
0.0
 10
1.1921181102362206
 20
0.625728346456693
 30
0.0
 10
1.1921181102362206
 20
0.625728346456693
 30
0.0
 10
1.1921181102362206
 20
0.625728346456693
 30
0.0
 10
0.5346732283464567
 20
0.2640551181102362
 30
0.0
 10
0.5346732283464567
 20
0.2640551181102362
 30
0.0
 10
0.5346732283464567
 20
0.2640551181102362
 30
0.0
 10
0.5346732283464567
 20
0.2640551181102362
 30
0.0
 10
0.5800236220472441
 20
0.2535826771653543
 30
0.0
 10
0.5800236220472441
 20
0.2535826771653543
 30
0.0
  0
SPLINE
  5
94
100
AcDbEntity
  8
Layer 1
 62
   253
100
AcDbSpline
210
0.0
220
0.0
230
1.0
 70
     1
 71
     3
 72
    20
 73
    16
 74
     0
 42
0.0000000001
 43
0.0000000001
 40
0.0
 40
0.0
 40
0.0
 40
0.0
 40
0.25
 40
0.25
 40
0.25
 40
0.25
 40
0.5
 40
0.5
 40
0.5
 40
0.5
 40
0.75
 40
0.75
 40
0.75
 40
0.75
 40
1.0
 40
1.0
 40
1.0
 40
1.0
 10
0.5346732283464567
 20
0.2640551181102362
 30
0.0
 10
0.5346732283464567
 20
0.2640551181102362
 30
0.0
 10
1.1921181102362206
 20
0.625728346456693
 30
0.0
 10
1.1921181102362206
 20
0.625728346456693
 30
0.0
 10
1.1921181102362206
 20
0.625728346456693
 30
0.0
 10
1.1921181102362206
 20
0.625728346456693
 30
0.0
 10
1.1459527559055118
 20
0.6339724409448819
 30
0.0
 10
1.1459527559055118
 20
0.6339724409448819
 30
0.0
 10
1.1459527559055118
 20
0.6339724409448819
 30
0.0
 10
1.1459527559055118
 20
0.6339724409448819
 30
0.0
 10
0.488507874015748
 20
0.2722992125984252
 30
0.0
 10
0.488507874015748
 20
0.2722992125984252
 30
0.0
 10
0.488507874015748
 20
0.2722992125984252
 30
0.0
 10
0.488507874015748
 20
0.2722992125984252
 30
0.0
 10
0.5346732283464567
 20
0.2640551181102362
 30
0.0
 10
0.5346732283464567
 20
0.2640551181102362
 30
0.0
  0
SPLINE
  5
95
100
AcDbEntity
  8
Layer 1
 62
   253
100
AcDbSpline
210
0.0
220
0.0
230
1.0
 70
     1
 71
     3
 72
    20
 73
    16
 74
     0
 42
0.0000000001
 43
0.0000000001
 40
0.0
 40
0.0
 40
0.0
 40
0.0
 40
0.25
 40
0.25
 40
0.25
 40
0.25
 40
0.5
 40
0.5
 40
0.5
 40
0.5
 40
0.75
 40
0.75
 40
0.75
 40
0.75
 40
1.0
 40
1.0
 40
1.0
 40
1.0
 10
0.488507874015748
 20
0.2722992125984252
 30
0.0
 10
0.488507874015748
 20
0.2722992125984252
 30
0.0
 10
1.1459527559055118
 20
0.6339724409448819
 30
0.0
 10
1.1459527559055118
 20
0.6339724409448819
 30
0.0
 10
1.1459527559055118
 20
0.6339724409448819
 30
0.0
 10
1.1459527559055118
 20
0.6339724409448819
 30
0.0
 10
1.0990433070866141
 20
0.6399370078740158
 30
0.0
 10
1.0990433070866141
 20
0.6399370078740158
 30
0.0
 10
1.0990433070866141
 20
0.6399370078740158
 30
0.0
 10
1.0990433070866141
 20
0.6399370078740158
 30
0.0
 10
0.4415984251968504
 20
0.278263779527559
 30
0.0
 10
0.4415984251968504
 20
0.278263779527559
 30
0.0
 10
0.4415984251968504
 20
0.278263779527559
 30
0.0
 10
0.4415984251968504
 20
0.278263779527559
 30
0.0
 10
0.488507874015748
 20
0.2722992125984252
 30
0.0
 10
0.488507874015748
 20
0.2722992125984252
 30
0.0
  0
SPLINE
  5
96
100
AcDbEntity
  8
Layer 1
 62
   253
100
AcDbSpline
210
0.0
220
0.0
230
1.0
 70
     1
 71
     3
 72
    20
 73
    16
 74
     0
 42
0.0000000001
 43
0.0000000001
 40
0.0
 40
0.0
 40
0.0
 40
0.0
 40
0.25
 40
0.25
 40
0.25
 40
0.25
 40
0.5
 40
0.5
 40
0.5
 40
0.5
 40
0.75
 40
0.75
 40
0.75
 40
0.75
 40
1.0
 40
1.0
 40
1.0
 40
1.0
 10
0.4415984251968504
 20
0.278263779527559
 30
0.0
 10
0.4415984251968504
 20
0.278263779527559
 30
0.0
 10
1.0990433070866141
 20
0.6399370078740158
 30
0.0
 10
1.0990433070866141
 20
0.6399370078740158
 30
0.0
 10
1.0990433070866141
 20
0.6399370078740158
 30
0.0
 10
1.0990433070866141
 20
0.6399370078740158
 30
0.0
 10
1.0514409448818898
 20
0.6435590551181103
 30
0.0
 10
1.0514409448818898
 20
0.6435590551181103
 30
0.0
 10
1.0514409448818898
 20
0.6435590551181103
 30
0.0
 10
1.0514409448818898
 20
0.6435590551181103
 30
0.0
 10
0.393996062992126
 20
0.2818858267716536
 30
0.0
 10
0.393996062992126
 20
0.2818858267716536
 30
0.0
 10
0.393996062992126
 20
0.2818858267716536
 30
0.0
 10
0.393996062992126
 20
0.2818858267716536
 30
0.0
 10
0.4415984251968504
 20
0.278263779527559
 30
0.0
 10
0.4415984251968504
 20
0.278263779527559
 30
0.0
  0
SPLINE
  5
97
100
AcDbEntity
  8
Layer 1
 62
   253
100
AcDbSpline
210
0.0
220
0.0
230
1.0
 70
     1
 71
     3
 72
    20
 73
    16
 74
     0
 42
0.0000000001
 43
0.0000000001
 40
0.0
 40
0.0
 40
0.0
 40
0.0
 40
0.25
 40
0.25
 40
0.25
 40
0.25
 40
0.5
 40
0.5
 40
0.5
 40
0.5
 40
0.75
 40
0.75
 40
0.75
 40
0.75
 40
1.0
 40
1.0
 40
1.0
 40
1.0
 10
0.393996062992126
 20
0.2818858267716536
 30
0.0
 10
0.393996062992126
 20
0.2818858267716536
 30
0.0
 10
1.0514409448818898
 20
0.6435590551181103
 30
0.0
 10
1.0514409448818898
 20
0.6435590551181103
 30
0.0
 10
1.0514409448818898
 20
0.6435590551181103
 30
0.0
 10
1.0514409448818898
 20
0.6435590551181103
 30
0.0
 10
1.0032125984251969
 20
0.6447834645669291
 30
0.0
 10
1.0032125984251969
 20
0.6447834645669291
 30
0.0
 10
1.0032125984251969
 20
0.6447834645669291
 30
0.0
 10
1.0032125984251969
 20
0.6447834645669291
 30
0.0
 10
0.3457677165354331
 20
0.2831102362204724
 30
0.0
 10
0.3457677165354331
 20
0.2831102362204724
 30
0.0
 10
0.3457677165354331
 20
0.2831102362204724
 30
0.0
 10
0.3457677165354331
 20
0.2831102362204724
 30
0.0
 10
0.393996062992126
 20
0.2818858267716536
 30
0.0
 10
0.393996062992126
 20
0.2818858267716536
 30
0.0
  0
SPLINE
  5
98
100
AcDbEntity
  8
Layer 1
370
     5
100
AcDbSpline
210
0.0
220
0.0
230
1.0
 70
     1
 71
     3
 72
   436
 73
   432
 74
     0
 42
0.0000000001
 43
0.0000000001
 40
0.0
 40
0.0
 40
0.0
 40
0.0
 40
0.0092592592592593
 40
0.0092592592592593
 40
0.0092592592592593
 40
0.0092592592592593
 40
0.0185185185185185
 40
0.0185185185185185
 40
0.0185185185185185
 40
0.0185185185185185
 40
0.0277777777777778
 40
0.0277777777777778
 40
0.0277777777777778
 40
0.0277777777777778
 40
0.037037037037037
 40
0.037037037037037
 40
0.037037037037037
 40
0.037037037037037
 40
0.0462962962962963
 40
0.0462962962962963
 40
0.0462962962962963
 40
0.0462962962962963
 40
0.0555555555555556
 40
0.0555555555555556
 40
0.0555555555555556
 40
0.0555555555555556
 40
0.0648148148148148
 40
0.0648148148148148
 40
0.0648148148148148
 40
0.0648148148148148
 40
0.0740740740740741
 40
0.0740740740740741
 40
0.0740740740740741
 40
0.0740740740740741
 40
0.0833333333333333
 40
0.0833333333333333
 40
0.0833333333333333
 40
0.0833333333333333
 40
0.0925925925925926
 40
0.0925925925925926
 40
0.0925925925925926
 40
0.0925925925925926
 40
0.1018518518518519
 40
0.1018518518518519
 40
0.1018518518518519
 40
0.1018518518518519
 40
0.1111111111111111
 40
0.1111111111111111
 40
0.1111111111111111
 40
0.1111111111111111
 40
0.1203703703703704
 40
0.1203703703703704
 40
0.1203703703703704
 40
0.1203703703703704
 40
0.1296296296296296
 40
0.1296296296296296
 40
0.1296296296296296
 40
0.1296296296296296
 40
0.1388888888888889
 40
0.1388888888888889
 40
0.1388888888888889
 40
0.1388888888888889
 40
0.1481481481481481
 40
0.1481481481481481
 40
0.1481481481481481
 40
0.1481481481481481
 40
0.1574074074074074
 40
0.1574074074074074
 40
0.1574074074074074
 40
0.1574074074074074
 40
0.1666666666666666
 40
0.1666666666666666
 40
0.1666666666666666
 40
0.1666666666666666
 40
0.1759259259259259
 40
0.1759259259259259
 40
0.1759259259259259
 40
0.1759259259259259
 40
0.1851851851851851
 40
0.1851851851851851
 40
0.1851851851851851
 40
0.1851851851851851
 40
0.1944444444444444
 40
0.1944444444444444
 40
0.1944444444444444
 40
0.1944444444444444
 40
0.2037037037037036
 40
0.2037037037037036
 40
0.2037037037037036
 40
0.2037037037037036
 40
0.2129629629629629
 40
0.2129629629629629
 40
0.2129629629629629
 40
0.2129629629629629
 40
0.2222222222222221
 40
0.2222222222222221
 40
0.2222222222222221
 40
0.2222222222222221
 40
0.2314814814814813
 40
0.2314814814814813
 40
0.2314814814814813
 40
0.2314814814814813
 40
0.2407407407407406
 40
0.2407407407407406
 40
0.2407407407407406
 40
0.2407407407407406
 40
0.2499999999999998
 40
0.2499999999999998
 40
0.2499999999999998
 40
0.2499999999999998
 40
0.2592592592592591
 40
0.2592592592592591
 40
0.2592592592592591
 40
0.2592592592592591
 40
0.2685185185185183
 40
0.2685185185185183
 40
0.2685185185185183
 40
0.2685185185185183
 40
0.2777777777777776
 40
0.2777777777777776
 40
0.2777777777777776
 40
0.2777777777777776
 40
0.2870370370370368
 40
0.2870370370370368
 40
0.2870370370370368
 40
0.2870370370370368
 40
0.2962962962962961
 40
0.2962962962962961
 40
0.2962962962962961
 40
0.2962962962962961
 40
0.3055555555555553
 40
0.3055555555555553
 40
0.3055555555555553
 40
0.3055555555555553
 40
0.3148148148148146
 40
0.3148148148148146
 40
0.3148148148148146
 40
0.3148148148148146
 40
0.3240740740740738
 40
0.3240740740740738
 40
0.3240740740740738
 40
0.3240740740740738
 40
0.333333333333333
 40
0.333333333333333
 40
0.333333333333333
 40
0.333333333333333
 40
0.3425925925925923
 40
0.3425925925925923
 40
0.3425925925925923
 40
0.3425925925925923
 40
0.3518518518518515
 40
0.3518518518518515
 40
0.3518518518518515
 40
0.3518518518518515
 40
0.3611111111111108
 40
0.3611111111111108
 40
0.3611111111111108
 40
0.3611111111111108
 40
0.37037037037037
 40
0.37037037037037
 40
0.37037037037037
 40
0.37037037037037
 40
0.3796296296296293
 40
0.3796296296296293
 40
0.3796296296296293
 40
0.3796296296296293
 40
0.3888888888888885
 40
0.3888888888888885
 40
0.3888888888888885
 40
0.3888888888888885
 40
0.3981481481481478
 40
0.3981481481481478
 40
0.3981481481481478
 40
0.3981481481481478
 40
0.407407407407407
 40
0.407407407407407
 40
0.407407407407407
 40
0.407407407407407
 40
0.4166666666666662
 40
0.4166666666666662
 40
0.4166666666666662
 40
0.4166666666666662
 40
0.4259259259259255
 40
0.4259259259259255
 40
0.4259259259259255
 40
0.4259259259259255
 40
0.4351851851851847
 40
0.4351851851851847
 40
0.4351851851851847
 40
0.4351851851851847
 40
0.444444444444444
 40
0.444444444444444
 40
0.444444444444444
 40
0.444444444444444
 40
0.4537037037037032
 40
0.4537037037037032
 40
0.4537037037037032
 40
0.4537037037037032
 40
0.4629629629629625
 40
0.4629629629629625
 40
0.4629629629629625
 40
0.4629629629629625
 40
0.4722222222222217
 40
0.4722222222222217
 40
0.4722222222222217
 40
0.4722222222222217
 40
0.481481481481481
 40
0.481481481481481
 40
0.481481481481481
 40
0.481481481481481
 40
0.4907407407407402
 40
0.4907407407407402
 40
0.4907407407407402
 40
0.4907407407407402
 40
0.4999999999999994
 40
0.4999999999999994
 40
0.4999999999999994
 40
0.4999999999999994
 40
0.5092592592592588
 40
0.5092592592592588
 40
0.5092592592592588
 40
0.5092592592592588
 40
0.5185185185185181
 40
0.5185185185185181
 40
0.5185185185185181
 40
0.5185185185185181
 40
0.5277777777777774
 40
0.5277777777777774
 40
0.5277777777777774
 40
0.5277777777777774
 40
0.5370370370370367
 40
0.5370370370370367
 40
0.5370370370370367
 40
0.5370370370370367
 40
0.546296296296296
 40
0.546296296296296
 40
0.546296296296296
 40
0.546296296296296
 40
0.5555555555555553
 40
0.5555555555555553
 40
0.5555555555555553
 40
0.5555555555555553
 40
0.5648148148148146
 40
0.5648148148148146
 40
0.5648148148148146
 40
0.5648148148148146
 40
0.5740740740740739
 40
0.5740740740740739
 40
0.5740740740740739
 40
0.5740740740740739
 40
0.5833333333333332
 40
0.5833333333333332
 40
0.5833333333333332
 40
0.5833333333333332
 40
0.5925925925925925
 40
0.5925925925925925
 40
0.5925925925925925
 40
0.5925925925925925
 40
0.6018518518518518
 40
0.6018518518518518
 40
0.6018518518518518
 40
0.6018518518518518
 40
0.6111111111111111
 40
0.6111111111111111
 40
0.6111111111111111
 40
0.6111111111111111
 40
0.6203703703703704
 40
0.6203703703703704
 40
0.6203703703703704
 40
0.6203703703703704
 40
0.6296296296296297
 40
0.6296296296296297
 40
0.6296296296296297
 40
0.6296296296296297
 40
0.638888888888889
 40
0.638888888888889
 40
0.638888888888889
 40
0.638888888888889
 40
0.6481481481481483
 40
0.6481481481481483
 40
0.6481481481481483
 40
0.6481481481481483
 40
0.6574074074074076
 40
0.6574074074074076
 40
0.6574074074074076
 40
0.6574074074074076
 40
0.6666666666666669
 40
0.6666666666666669
 40
0.6666666666666669
 40
0.6666666666666669
 40
0.6759259259259262
 40
0.6759259259259262
 40
0.6759259259259262
 40
0.6759259259259262
 40
0.6851851851851855
 40
0.6851851851851855
 40
0.6851851851851855
 40
0.6851851851851855
 40
0.6944444444444448
 40
0.6944444444444448
 40
0.6944444444444448
 40
0.6944444444444448
 40
0.7037037037037041
 40
0.7037037037037041
 40
0.7037037037037041
 40
0.7037037037037041
 40
0.7129629629629634
 40
0.7129629629629634
 40
0.7129629629629634
 40
0.7129629629629634
 40
0.7222222222222227
 40
0.7222222222222227
 40
0.7222222222222227
 40
0.7222222222222227
 40
0.731481481481482
 40
0.731481481481482
 40
0.731481481481482
 40
0.731481481481482
 40
0.7407407407407413
 40
0.7407407407407413
 40
0.7407407407407413
 40
0.7407407407407413
 40
0.7500000000000006
 40
0.7500000000000006
 40
0.7500000000000006
 40
0.7500000000000006
 40
0.7592592592592599
 40
0.7592592592592599
 40
0.7592592592592599
 40
0.7592592592592599
 40
0.7685185185185192
 40
0.7685185185185192
 40
0.7685185185185192
 40
0.7685185185185192
 40
0.7777777777777785
 40
0.7777777777777785
 40
0.7777777777777785
 40
0.7777777777777785
 40
0.7870370370370378
 40
0.7870370370370378
 40
0.7870370370370378
 40
0.7870370370370378
 40
0.7962962962962971
 40
0.7962962962962971
 40
0.7962962962962971
 40
0.7962962962962971
 40
0.8055555555555564
 40
0.8055555555555564
 40
0.8055555555555564
 40
0.8055555555555564
 40
0.8148148148148157
 40
0.8148148148148157
 40
0.8148148148148157
 40
0.8148148148148157
 40
0.824074074074075
 40
0.824074074074075
 40
0.824074074074075
 40
0.824074074074075
 40
0.8333333333333343
 40
0.8333333333333343
 40
0.8333333333333343
 40
0.8333333333333343
 40
0.8425925925925936
 40
0.8425925925925936
 40
0.8425925925925936
 40
0.8425925925925936
 40
0.8518518518518529
 40
0.8518518518518529
 40
0.8518518518518529
 40
0.8518518518518529
 40
0.8611111111111122
 40
0.8611111111111122
 40
0.8611111111111122
 40
0.8611111111111122
 40
0.8703703703703715
 40
0.8703703703703715
 40
0.8703703703703715
 40
0.8703703703703715
 40
0.8796296296296308
 40
0.8796296296296308
 40
0.8796296296296308
 40
0.8796296296296308
 40
0.8888888888888901
 40
0.8888888888888901
 40
0.8888888888888901
 40
0.8888888888888901
 40
0.8981481481481494
 40
0.8981481481481494
 40
0.8981481481481494
 40
0.8981481481481494
 40
0.9074074074074087
 40
0.9074074074074087
 40
0.9074074074074087
 40
0.9074074074074087
 40
0.916666666666668
 40
0.916666666666668
 40
0.916666666666668
 40
0.916666666666668
 40
0.9259259259259273
 40
0.9259259259259273
 40
0.9259259259259273
 40
0.9259259259259273
 40
0.9351851851851866
 40
0.9351851851851866
 40
0.9351851851851866
 40
0.9351851851851866
 40
0.9444444444444459
 40
0.9444444444444459
 40
0.9444444444444459
 40
0.9444444444444459
 40
0.9537037037037052
 40
0.9537037037037052
 40
0.9537037037037052
 40
0.9537037037037052
 40
0.9629629629629645
 40
0.9629629629629645
 40
0.9629629629629645
 40
0.9629629629629645
 40
0.9722222222222238
 40
0.9722222222222238
 40
0.9722222222222238
 40
0.9722222222222238
 40
0.9814814814814831
 40
0.9814814814814831
 40
0.9814814814814831
 40
0.9814814814814831
 40
0.9907407407407424
 40
0.9907407407407424
 40
0.9907407407407424
 40
0.9907407407407424
 40
1.0
 40
1.0
 40
1.0
 40
1.0
 10
0.8318464566929135
 20
-1.4561338582677166
 30
0.0
 10
0.8318464566929135
 20
-1.4561338582677166
 30
0.0
 10
1.4892913385826771
 20
-1.0944606299212598
 30
0.0
 10
1.4892913385826771
 20
-1.0944606299212598
 30
0.0
 10
1.4892913385826771
 20
-1.0944606299212598
 30
0.0
 10
1.4892913385826771
 20
-1.0944606299212598
 30
0.0
 10
1.5273307086614174
 20
-1.0700748031496063
 30
0.0
 10
1.5273307086614174
 20
-1.0700748031496063
 30
0.0
 10
1.5273307086614174
 20
-1.0700748031496063
 30
0.0
 10
1.5273307086614174
 20
-1.0700748031496063
 30
0.0
 10
1.5640866141732284
 20
-1.0439330708661418
 30
0.0
 10
1.5640866141732284
 20
-1.0439330708661418
 30
0.0
 10
1.5640866141732284
 20
-1.0439330708661418
 30
0.0
 10
1.5640866141732284
 20
-1.0439330708661418
 30
0.0
 10
1.599507874015748
 20
-1.0161023622047245
 30
0.0
 10
1.599507874015748
 20
-1.0161023622047245
 30
0.0
 10
1.599507874015748
 20
-1.0161023622047245
 30
0.0
 10
1.599507874015748
 20
-1.0161023622047245
 30
0.0
 10
1.6335236220472442
 20
-0.9866338582677166
 30
0.0
 10
1.6335236220472442
 20
-0.9866338582677166
 30
0.0
 10
1.6335236220472442
 20
-0.9866338582677166
 30
0.0
 10
1.6335236220472442
 20
-0.9866338582677166
 30
0.0
 10
1.6660905511811024
 20
-0.9555944881889764
 30
0.0
 10
1.6660905511811024
 20
-0.9555944881889764
 30
0.0
 10
1.6660905511811024
 20
-0.9555944881889764
 30
0.0
 10
1.6660905511811024
 20
-0.9555944881889764
 30
0.0
 10
1.6971299212598425
 20
-0.9230275590551181
 30
0.0
 10
1.6971299212598425
 20
-0.9230275590551181
 30
0.0
 10
1.6971299212598425
 20
-0.9230275590551181
 30
0.0
 10
1.6971299212598425
 20
-0.9230275590551181
 30
0.0
 10
1.7265984251968505
 20
-0.889011811023622
 30
0.0
 10
1.7265984251968505
 20
-0.889011811023622
 30
0.0
 10
1.7265984251968505
 20
-0.889011811023622
 30
0.0
 10
1.7265984251968505
 20
-0.889011811023622
 30
0.0
 10
1.7544291338582678
 20
-0.8535905511811024
 30
0.0
 10
1.7544291338582678
 20
-0.8535905511811024
 30
0.0
 10
1.7544291338582678
 20
-0.8535905511811024
 30
0.0
 10
1.7544291338582678
 20
-0.8535905511811024
 30
0.0
 10
1.7805708661417323
 20
-0.8168346456692913
 30
0.0
 10
1.7805708661417323
 20
-0.8168346456692913
 30
0.0
 10
1.7805708661417323
 20
-0.8168346456692913
 30
0.0
 10
1.7805708661417323
 20
-0.8168346456692913
 30
0.0
 10
1.8049566929133858
 20
-0.7787952755905512
 30
0.0
 10
1.8049566929133858
 20
-0.7787952755905512
 30
0.0
 10
1.8049566929133858
 20
-0.7787952755905512
 30
0.0
 10
1.8049566929133858
 20
-0.7787952755905512
 30
0.0
 10
1.8275354330708662
 20
-0.7395393700787402
 30
0.0
 10
1.8275354330708662
 20
-0.7395393700787402
 30
0.0
 10
1.8275354330708662
 20
-0.7395393700787402
 30
0.0
 10
1.8275354330708662
 20
-0.7395393700787402
 30
0.0
 10
1.8482401574803151
 20
-0.6991141732283465
 30
0.0
 10
1.8482401574803151
 20
-0.6991141732283465
 30
0.0
 10
1.8482401574803151
 20
-0.6991141732283465
 30
0.0
 10
1.8482401574803151
 20
-0.6991141732283465
 30
0.0
 10
1.8670236220472443
 20
-0.6575905511811024
 30
0.0
 10
1.8670236220472443
 20
-0.6575905511811024
 30
0.0
 10
1.8670236220472443
 20
-0.6575905511811024
 30
0.0
 10
1.8670236220472443
 20
-0.6575905511811024
 30
0.0
 10
1.8838070866141734
 20
-0.6150157480314961
 30
0.0
 10
1.8838070866141734
 20
-0.6150157480314961
 30
0.0
 10
1.8838070866141734
 20
-0.6150157480314961
 30
0.0
 10
1.8838070866141734
 20
-0.6150157480314961
 30
0.0
 10
1.8985511811023623
 20
-0.5714606299212599
 30
0.0
 10
1.8985511811023623
 20
-0.5714606299212599
 30
0.0
 10
1.8985511811023623
 20
-0.5714606299212599
 30
0.0
 10
1.8985511811023623
 20
-0.5714606299212599
 30
0.0
 10
1.9111850393700789
 20
-0.5269724409448819
 30
0.0
 10
1.9111850393700789
 20
-0.5269724409448819
 30
0.0
 10
1.9111850393700789
 20
-0.5269724409448819
 30
0.0
 10
1.9111850393700789
 20
-0.5269724409448819
 30
0.0
 10
1.9216574803149606
 20
-0.4816220472440945
 30
0.0
 10
1.9216574803149606
 20
-0.4816220472440945
 30
0.0
 10
1.9216574803149606
 20
-0.4816220472440945
 30
0.0
 10
1.9216574803149606
 20
-0.4816220472440945
 30
0.0
 10
1.9299015748031496
 20
-0.4354566929133859
 30
0.0
 10
1.9299015748031496
 20
-0.4354566929133859
 30
0.0
 10
1.9299015748031496
 20
-0.4354566929133859
 30
0.0
 10
1.9299015748031496
 20
-0.4354566929133859
 30
0.0
 10
1.9358661417322836
 20
-0.3885472440944882
 30
0.0
 10
1.9358661417322836
 20
-0.3885472440944882
 30
0.0
 10
1.9358661417322836
 20
-0.3885472440944882
 30
0.0
 10
1.9358661417322836
 20
-0.3885472440944882
 30
0.0
 10
1.939488188976378
 20
-0.3409448818897638
 30
0.0
 10
1.939488188976378
 20
-0.3409448818897638
 30
0.0
 10
1.939488188976378
 20
-0.3409448818897638
 30
0.0
 10
1.939488188976378
 20
-0.3409448818897638
 30
0.0
 10
1.9407125984251969
 20
-0.2927165354330709
 30
0.0
 10
1.9407125984251969
 20
-0.2927165354330709
 30
0.0
 10
1.9407125984251969
 20
-0.2927165354330709
 30
0.0
 10
1.9407125984251969
 20
-0.2927165354330709
 30
0.0
 10
1.939488188976378
 20
-0.2444763779527559
 30
0.0
 10
1.939488188976378
 20
-0.2444763779527559
 30
0.0
 10
1.939488188976378
 20
-0.2444763779527559
 30
0.0
 10
1.939488188976378
 20
-0.2444763779527559
 30
0.0
 10
1.9358661417322836
 20
-0.1968740157480315
 30
0.0
 10
1.9358661417322836
 20
-0.1968740157480315
 30
0.0
 10
1.9358661417322836
 20
-0.1968740157480315
 30
0.0
 10
1.9358661417322836
 20
-0.1968740157480315
 30
0.0
 10
1.9299015748031496
 20
-0.1499606299212599
 30
0.0
 10
1.9299015748031496
 20
-0.1499606299212599
 30
0.0
 10
1.9299015748031496
 20
-0.1499606299212599
 30
0.0
 10
1.9299015748031496
 20
-0.1499606299212599
 30
0.0
 10
1.9216574803149606
 20
-0.1037992125984252
 30
0.0
 10
1.9216574803149606
 20
-0.1037992125984252
 30
0.0
 10
1.9216574803149606
 20
-0.1037992125984252
 30
0.0
 10
1.9216574803149606
 20
-0.1037992125984252
 30
0.0
 10
1.9111850393700789
 20
-0.0584448818897638
 30
0.0
 10
1.9111850393700789
 20
-0.0584448818897638
 30
0.0
 10
1.9111850393700789
 20
-0.0584448818897638
 30
0.0
 10
1.9111850393700789
 20
-0.0584448818897638
 30
0.0
 10
1.8985511811023623
 20
-0.0139606299212598
 30
0.0
 10
1.8985511811023623
 20
-0.0139606299212598
 30
0.0
 10
1.8985511811023623
 20
-0.0139606299212598
 30
0.0
 10
1.8985511811023623
 20
-0.0139606299212598
 30
0.0
 10
1.8838070866141734
 20
0.0295984251968504
 30
0.0
 10
1.8838070866141734
 20
0.0295984251968504
 30
0.0
 10
1.8838070866141734
 20
0.0295984251968504
 30
0.0
 10
1.8838070866141734
 20
0.0295984251968504
 30
0.0
 10
1.8670236220472443
 20
0.0721653543307087
 30
0.0
 10
1.8670236220472443
 20
0.0721653543307087
 30
0.0
 10
1.8670236220472443
 20
0.0721653543307087
 30
0.0
 10
1.8670236220472443
 20
0.0721653543307087
 30
0.0
 10
1.8482401574803151
 20
0.1136968503937008
 30
0.0
 10
1.8482401574803151
 20
0.1136968503937008
 30
0.0
 10
1.8482401574803151
 20
0.1136968503937008
 30
0.0
 10
1.8482401574803151
 20
0.1136968503937008
 30
0.0
 10
1.8275354330708662
 20
0.1541181102362205
 30
0.0
 10
1.8275354330708662
 20
0.1541181102362205
 30
0.0
 10
1.8275354330708662
 20
0.1541181102362205
 30
0.0
 10
1.8275354330708662
 20
0.1541181102362205
 30
0.0
 10
1.8049566929133858
 20
0.1933779527559055
 30
0.0
 10
1.8049566929133858
 20
0.1933779527559055
 30
0.0
 10
1.8049566929133858
 20
0.1933779527559055
 30
0.0
 10
1.8049566929133858
 20
0.1933779527559055
 30
0.0
 10
1.7805708661417323
 20
0.2314133858267717
 30
0.0
 10
1.7805708661417323
 20
0.2314133858267717
 30
0.0
 10
1.7805708661417323
 20
0.2314133858267717
 30
0.0
 10
1.7805708661417323
 20
0.2314133858267717
 30
0.0
 10
1.7544291338582678
 20
0.2681732283464567
 30
0.0
 10
1.7544291338582678
 20
0.2681732283464567
 30
0.0
 10
1.7544291338582678
 20
0.2681732283464567
 30
0.0
 10
1.7544291338582678
 20
0.2681732283464567
 30
0.0
 10
1.7265984251968505
 20
0.3035905511811024
 30
0.0
 10
1.7265984251968505
 20
0.3035905511811024
 30
0.0
 10
1.7265984251968505
 20
0.3035905511811024
 30
0.0
 10
1.7265984251968505
 20
0.3035905511811024
 30
0.0
 10
1.6971299212598425
 20
0.3376062992125984
 30
0.0
 10
1.6971299212598425
 20
0.3376062992125984
 30
0.0
 10
1.6971299212598425
 20
0.3376062992125984
 30
0.0
 10
1.6971299212598425
 20
0.3376062992125984
 30
0.0
 10
1.6660905511811024
 20
0.3701614173228346
 30
0.0
 10
1.6660905511811024
 20
0.3701614173228346
 30
0.0
 10
1.6660905511811024
 20
0.3701614173228346
 30
0.0
 10
1.6660905511811024
 20
0.3701614173228346
 30
0.0
 10
1.6335236220472442
 20
0.4012007874015748
 30
0.0
 10
1.6335236220472442
 20
0.4012007874015748
 30
0.0
 10
1.6335236220472442
 20
0.4012007874015748
 30
0.0
 10
1.6335236220472442
 20
0.4012007874015748
 30
0.0
 10
1.599507874015748
 20
0.4306692913385827
 30
0.0
 10
1.599507874015748
 20
0.4306692913385827
 30
0.0
 10
1.599507874015748
 20
0.4306692913385827
 30
0.0
 10
1.599507874015748
 20
0.4306692913385827
 30
0.0
 10
1.5640866141732284
 20
0.4585
 30
0.0
 10
1.5640866141732284
 20
0.4585
 30
0.0
 10
1.5640866141732284
 20
0.4585
 30
0.0
 10
1.5640866141732284
 20
0.4585
 30
0.0
 10
1.5273307086614174
 20
0.4846417322834646
 30
0.0
 10
1.5273307086614174
 20
0.4846417322834646
 30
0.0
 10
1.5273307086614174
 20
0.4846417322834646
 30
0.0
 10
1.5273307086614174
 20
0.4846417322834646
 30
0.0
 10
1.4892913385826771
 20
0.5090275590551181
 30
0.0
 10
1.4892913385826771
 20
0.5090275590551181
 30
0.0
 10
1.4892913385826771
 20
0.5090275590551181
 30
0.0
 10
1.4892913385826771
 20
0.5090275590551181
 30
0.0
 10
1.4500354330708662
 20
0.5316062992125985
 30
0.0
 10
1.4500354330708662
 20
0.5316062992125985
 30
0.0
 10
1.4500354330708662
 20
0.5316062992125985
 30
0.0
 10
1.4500354330708662
 20
0.5316062992125985
 30
0.0
 10
1.4096102362204725
 20
0.5523110236220473
 30
0.0
 10
1.4096102362204725
 20
0.5523110236220473
 30
0.0
 10
1.4096102362204725
 20
0.5523110236220473
 30
0.0
 10
1.4096102362204725
 20
0.5523110236220473
 30
0.0
 10
1.3680866141732284
 20
0.5710944881889764
 30
0.0
 10
1.3680866141732284
 20
0.5710944881889764
 30
0.0
 10
1.3680866141732284
 20
0.5710944881889764
 30
0.0
 10
1.3680866141732284
 20
0.5710944881889764
 30
0.0
 10
1.3255118110236221
 20
0.5878779527559055
 30
0.0
 10
1.3255118110236221
 20
0.5878779527559055
 30
0.0
 10
1.3255118110236221
 20
0.5878779527559055
 30
0.0
 10
1.3255118110236221
 20
0.5878779527559055
 30
0.0
 10
1.2819566929133859
 20
0.6026220472440945
 30
0.0
 10
1.2819566929133859
 20
0.6026220472440945
 30
0.0
 10
1.2819566929133859
 20
0.6026220472440945
 30
0.0
 10
1.2819566929133859
 20
0.6026220472440945
 30
0.0
 10
1.2374685039370079
 20
0.6152559055118111
 30
0.0
 10
1.2374685039370079
 20
0.6152559055118111
 30
0.0
 10
1.2374685039370079
 20
0.6152559055118111
 30
0.0
 10
1.2374685039370079
 20
0.6152559055118111
 30
0.0
 10
1.1921181102362206
 20
0.625728346456693
 30
0.0
 10
1.1921181102362206
 20
0.625728346456693
 30
0.0
 10
1.1921181102362206
 20
0.625728346456693
 30
0.0
 10
1.1921181102362206
 20
0.625728346456693
 30
0.0
 10
1.1459527559055118
 20
0.6339724409448819
 30
0.0
 10
1.1459527559055118
 20
0.6339724409448819
 30
0.0
 10
1.1459527559055118
 20
0.6339724409448819
 30
0.0
 10
1.1459527559055118
 20
0.6339724409448819
 30
0.0
 10
1.0990433070866141
 20
0.6399370078740158
 30
0.0
 10
1.0990433070866141
 20
0.6399370078740158
 30
0.0
 10
1.0990433070866141
 20
0.6399370078740158
 30
0.0
 10
1.0990433070866141
 20
0.6399370078740158
 30
0.0
 10
1.0514409448818898
 20
0.6435590551181103
 30
0.0
 10
1.0514409448818898
 20
0.6435590551181103
 30
0.0
 10
1.0514409448818898
 20
0.6435590551181103
 30
0.0
 10
1.0514409448818898
 20
0.6435590551181103
 30
0.0
 10
1.0032125984251969
 20
0.6447834645669291
 30
0.0
 10
1.0032125984251969
 20
0.6447834645669291
 30
0.0
 10
1.0032125984251969
 20
0.6447834645669291
 30
0.0
 10
1.0032125984251969
 20
0.6447834645669291
 30
0.0
 10
0.3457677165354331
 20
0.2831102362204724
 30
0.0
 10
0.3457677165354331
 20
0.2831102362204724
 30
0.0
 10
0.3457677165354331
 20
0.2831102362204724
 30
0.0
 10
0.3457677165354331
 20
0.2831102362204724
 30
0.0
 10
0.393996062992126
 20
0.2818858267716536
 30
0.0
 10
0.393996062992126
 20
0.2818858267716536
 30
0.0
 10
0.393996062992126
 20
0.2818858267716536
 30
0.0
 10
0.393996062992126
 20
0.2818858267716536
 30
0.0
 10
0.4415984251968504
 20
0.278263779527559
 30
0.0
 10
0.4415984251968504
 20
0.278263779527559
 30
0.0
 10
0.4415984251968504
 20
0.278263779527559
 30
0.0
 10
0.4415984251968504
 20
0.278263779527559
 30
0.0
 10
0.488507874015748
 20
0.2722992125984252
 30
0.0
 10
0.488507874015748
 20
0.2722992125984252
 30
0.0
 10
0.488507874015748
 20
0.2722992125984252
 30
0.0
 10
0.488507874015748
 20
0.2722992125984252
 30
0.0
 10
0.5346732283464567
 20
0.2640551181102362
 30
0.0
 10
0.5346732283464567
 20
0.2640551181102362
 30
0.0
 10
0.5346732283464567
 20
0.2640551181102362
 30
0.0
 10
0.5346732283464567
 20
0.2640551181102362
 30
0.0
 10
0.5800236220472441
 20
0.2535826771653543
 30
0.0
 10
0.5800236220472441
 20
0.2535826771653543
 30
0.0
 10
0.5800236220472441
 20
0.2535826771653543
 30
0.0
 10
0.5800236220472441
 20
0.2535826771653543
 30
0.0
 10
0.6245118110236221
 20
0.2409488188976378
 30
0.0
 10
0.6245118110236221
 20
0.2409488188976378
 30
0.0
 10
0.6245118110236221
 20
0.2409488188976378
 30
0.0
 10
0.6245118110236221
 20
0.2409488188976378
 30
0.0
 10
0.6680669291338583
 20
0.2262047244094488
 30
0.0
 10
0.6680669291338583
 20
0.2262047244094488
 30
0.0
 10
0.6680669291338583
 20
0.2262047244094488
 30
0.0
 10
0.6680669291338583
 20
0.2262047244094488
 30
0.0
 10
0.7106417322834646
 20
0.2094212598425197
 30
0.0
 10
0.7106417322834646
 20
0.2094212598425197
 30
0.0
 10
0.7106417322834646
 20
0.2094212598425197
 30
0.0
 10
0.7106417322834646
 20
0.2094212598425197
 30
0.0
 10
0.7521653543307086
 20
0.1906377952755906
 30
0.0
 10
0.7521653543307086
 20
0.1906377952755906
 30
0.0
 10
0.7521653543307086
 20
0.1906377952755906
 30
0.0
 10
0.7521653543307086
 20
0.1906377952755906
 30
0.0
 10
0.7925905511811024
 20
0.1699330708661417
 30
0.0
 10
0.7925905511811024
 20
0.1699330708661417
 30
0.0
 10
0.7925905511811024
 20
0.1699330708661417
 30
0.0
 10
0.7925905511811024
 20
0.1699330708661417
 30
0.0
 10
0.8318464566929135
 20
0.1473543307086614
 30
0.0
 10
0.8318464566929135
 20
0.1473543307086614
 30
0.0
 10
0.8318464566929135
 20
0.1473543307086614
 30
0.0
 10
0.8318464566929135
 20
0.1473543307086614
 30
0.0
 10
0.8698858267716536
 20
0.1229685039370079
 30
0.0
 10
0.8698858267716536
 20
0.1229685039370079
 30
0.0
 10
0.8698858267716536
 20
0.1229685039370079
 30
0.0
 10
0.8698858267716536
 20
0.1229685039370079
 30
0.0
 10
0.9066417322834646
 20
0.0968267716535433
 30
0.0
 10
0.9066417322834646
 20
0.0968267716535433
 30
0.0
 10
0.9066417322834646
 20
0.0968267716535433
 30
0.0
 10
0.9066417322834646
 20
0.0968267716535433
 30
0.0
 10
0.9420629921259843
 20
0.068996062992126
 30
0.0
 10
0.9420629921259843
 20
0.068996062992126
 30
0.0
 10
0.9420629921259843
 20
0.068996062992126
 30
0.0
 10
0.9420629921259843
 20
0.068996062992126
 30
0.0
 10
0.9760787401574803
 20
0.0395275590551181
 30
0.0
 10
0.9760787401574803
 20
0.0395275590551181
 30
0.0
 10
0.9760787401574803
 20
0.0395275590551181
 30
0.0
 10
0.9760787401574803
 20
0.0395275590551181
 30
0.0
 10
1.0086456692913386
 20
0.008488188976378
 30
0.0
 10
1.0086456692913386
 20
0.008488188976378
 30
0.0
 10
1.0086456692913386
 20
0.008488188976378
 30
0.0
 10
1.0086456692913386
 20
0.008488188976378
 30
0.0
 10
1.0396850393700787
 20
-0.0240669291338583
 30
0.0
 10
1.0396850393700787
 20
-0.0240669291338583
 30
0.0
 10
1.0396850393700787
 20
-0.0240669291338583
 30
0.0
 10
1.0396850393700787
 20
-0.0240669291338583
 30
0.0
 10
1.0691535433070867
 20
-0.0580826771653543
 30
0.0
 10
1.0691535433070867
 20
-0.0580826771653543
 30
0.0
 10
1.0691535433070867
 20
-0.0580826771653543
 30
0.0
 10
1.0691535433070867
 20
-0.0580826771653543
 30
0.0
 10
1.096984251968504
 20
-0.0935
 30
0.0
 10
1.096984251968504
 20
-0.0935
 30
0.0
 10
1.096984251968504
 20
-0.0935
 30
0.0
 10
1.096984251968504
 20
-0.0935
 30
0.0
 10
1.1231259842519685
 20
-0.130259842519685
 30
0.0
 10
1.1231259842519685
 20
-0.130259842519685
 30
0.0
 10
1.1231259842519685
 20
-0.130259842519685
 30
0.0
 10
1.1231259842519685
 20
-0.130259842519685
 30
0.0
 10
1.147511811023622
 20
-0.1682952755905512
 30
0.0
 10
1.147511811023622
 20
-0.1682952755905512
 30
0.0
 10
1.147511811023622
 20
-0.1682952755905512
 30
0.0
 10
1.147511811023622
 20
-0.1682952755905512
 30
0.0
 10
1.1700905511811024
 20
-0.2075551181102362
 30
0.0
 10
1.1700905511811024
 20
-0.2075551181102362
 30
0.0
 10
1.1700905511811024
 20
-0.2075551181102362
 30
0.0
 10
1.1700905511811024
 20
-0.2075551181102362
 30
0.0
 10
1.1907952755905513
 20
-0.2479763779527559
 30
0.0
 10
1.1907952755905513
 20
-0.2479763779527559
 30
0.0
 10
1.1907952755905513
 20
-0.2479763779527559
 30
0.0
 10
1.1907952755905513
 20
-0.2479763779527559
 30
0.0
 10
1.2095787401574805
 20
-0.2895078740157481
 30
0.0
 10
1.2095787401574805
 20
-0.2895078740157481
 30
0.0
 10
1.2095787401574805
 20
-0.2895078740157481
 30
0.0
 10
1.2095787401574805
 20
-0.2895078740157481
 30
0.0
 10
1.2263622047244096
 20
-0.3320748031496063
 30
0.0
 10
1.2263622047244096
 20
-0.3320748031496063
 30
0.0
 10
1.2263622047244096
 20
-0.3320748031496063
 30
0.0
 10
1.2263622047244096
 20
-0.3320748031496063
 30
0.0
 10
1.2411062992125985
 20
-0.3756338582677166
 30
0.0
 10
1.2411062992125985
 20
-0.3756338582677166
 30
0.0
 10
1.2411062992125985
 20
-0.3756338582677166
 30
0.0
 10
1.2411062992125985
 20
-0.3756338582677166
 30
0.0
 10
1.2537401574803151
 20
-0.4201181102362205
 30
0.0
 10
1.2537401574803151
 20
-0.4201181102362205
 30
0.0
 10
1.2537401574803151
 20
-0.4201181102362205
 30
0.0
 10
1.2537401574803151
 20
-0.4201181102362205
 30
0.0
 10
1.2642125984251968
 20
-0.4654724409448819
 30
0.0
 10
1.2642125984251968
 20
-0.4654724409448819
 30
0.0
 10
1.2642125984251968
 20
-0.4654724409448819
 30
0.0
 10
1.2642125984251968
 20
-0.4654724409448819
 30
0.0
 10
1.2724566929133858
 20
-0.5116338582677166
 30
0.0
 10
1.2724566929133858
 20
-0.5116338582677166
 30
0.0
 10
1.2724566929133858
 20
-0.5116338582677166
 30
0.0
 10
1.2724566929133858
 20
-0.5116338582677166
 30
0.0
 10
1.2784212598425198
 20
-0.5585472440944882
 30
0.0
 10
1.2784212598425198
 20
-0.5585472440944882
 30
0.0
 10
1.2784212598425198
 20
-0.5585472440944882
 30
0.0
 10
1.2784212598425198
 20
-0.5585472440944882
 30
0.0
 10
1.2820433070866142
 20
-0.6061496062992127
 30
0.0
 10
1.2820433070866142
 20
-0.6061496062992127
 30
0.0
 10
1.2820433070866142
 20
-0.6061496062992127
 30
0.0
 10
1.2820433070866142
 20
-0.6061496062992127
 30
0.0
 10
1.2832677165354331
 20
-0.6543897637795276
 30
0.0
 10
1.2832677165354331
 20
-0.6543897637795276
 30
0.0
 10
1.2832677165354331
 20
-0.6543897637795276
 30
0.0
 10
1.2832677165354331
 20
-0.6543897637795276
 30
0.0
 10
1.2820433070866142
 20
-0.7026181102362205
 30
0.0
 10
1.2820433070866142
 20
-0.7026181102362205
 30
0.0
 10
1.2820433070866142
 20
-0.7026181102362205
 30
0.0
 10
1.2820433070866142
 20
-0.7026181102362205
 30
0.0
 10
1.2784212598425198
 20
-0.7502204724409449
 30
0.0
 10
1.2784212598425198
 20
-0.7502204724409449
 30
0.0
 10
1.2784212598425198
 20
-0.7502204724409449
 30
0.0
 10
1.2784212598425198
 20
-0.7502204724409449
 30
0.0
 10
1.2724566929133858
 20
-0.7971299212598425
 30
0.0
 10
1.2724566929133858
 20
-0.7971299212598425
 30
0.0
 10
1.2724566929133858
 20
-0.7971299212598425
 30
0.0
 10
1.2724566929133858
 20
-0.7971299212598425
 30
0.0
 10
1.2642125984251968
 20
-0.8432952755905512
 30
0.0
 10
1.2642125984251968
 20
-0.8432952755905512
 30
0.0
 10
1.2642125984251968
 20
-0.8432952755905512
 30
0.0
 10
1.2642125984251968
 20
-0.8432952755905512
 30
0.0
 10
1.2537401574803151
 20
-0.8886456692913386
 30
0.0
 10
1.2537401574803151
 20
-0.8886456692913386
 30
0.0
 10
1.2537401574803151
 20
-0.8886456692913386
 30
0.0
 10
1.2537401574803151
 20
-0.8886456692913386
 30
0.0
 10
1.2411062992125985
 20
-0.9331338582677166
 30
0.0
 10
1.2411062992125985
 20
-0.9331338582677166
 30
0.0
 10
1.2411062992125985
 20
-0.9331338582677166
 30
0.0
 10
1.2411062992125985
 20
-0.9331338582677166
 30
0.0
 10
1.2263622047244096
 20
-0.9766889763779528
 30
0.0
 10
1.2263622047244096
 20
-0.9766889763779528
 30
0.0
 10
1.2263622047244096
 20
-0.9766889763779528
 30
0.0
 10
1.2263622047244096
 20
-0.9766889763779528
 30
0.0
 10
1.2095787401574805
 20
-1.0192637795275592
 30
0.0
 10
1.2095787401574805
 20
-1.0192637795275592
 30
0.0
 10
1.2095787401574805
 20
-1.0192637795275592
 30
0.0
 10
1.2095787401574805
 20
-1.0192637795275592
 30
0.0
 10
1.1907952755905513
 20
-1.0607874015748031
 30
0.0
 10
1.1907952755905513
 20
-1.0607874015748031
 30
0.0
 10
1.1907952755905513
 20
-1.0607874015748031
 30
0.0
 10
1.1907952755905513
 20
-1.0607874015748031
 30
0.0
 10
1.1700905511811024
 20
-1.1012125984251968
 30
0.0
 10
1.1700905511811024
 20
-1.1012125984251968
 30
0.0
 10
1.1700905511811024
 20
-1.1012125984251968
 30
0.0
 10
1.1700905511811024
 20
-1.1012125984251968
 30
0.0
 10
1.147511811023622
 20
-1.1404685039370079
 30
0.0
 10
1.147511811023622
 20
-1.1404685039370079
 30
0.0
 10
1.147511811023622
 20
-1.1404685039370079
 30
0.0
 10
1.147511811023622
 20
-1.1404685039370079
 30
0.0
 10
1.1231259842519685
 20
-1.178507874015748
 30
0.0
 10
1.1231259842519685
 20
-1.178507874015748
 30
0.0
 10
1.1231259842519685
 20
-1.178507874015748
 30
0.0
 10
1.1231259842519685
 20
-1.178507874015748
 30
0.0
 10
1.096984251968504
 20
-1.2152637795275592
 30
0.0
 10
1.096984251968504
 20
-1.2152637795275592
 30
0.0
 10
1.096984251968504
 20
-1.2152637795275592
 30
0.0
 10
1.096984251968504
 20
-1.2152637795275592
 30
0.0
 10
1.0691535433070867
 20
-1.2506850393700788
 30
0.0
 10
1.0691535433070867
 20
-1.2506850393700788
 30
0.0
 10
1.0691535433070867
 20
-1.2506850393700788
 30
0.0
 10
1.0691535433070867
 20
-1.2506850393700788
 30
0.0
 10
1.0396850393700787
 20
-1.2847007874015748
 30
0.0
 10
1.0396850393700787
 20
-1.2847007874015748
 30
0.0
 10
1.0396850393700787
 20
-1.2847007874015748
 30
0.0
 10
1.0396850393700787
 20
-1.2847007874015748
 30
0.0
 10
1.0086456692913386
 20
-1.3172677165354332
 30
0.0
 10
1.0086456692913386
 20
-1.3172677165354332
 30
0.0
 10
1.0086456692913386
 20
-1.3172677165354332
 30
0.0
 10
1.0086456692913386
 20
-1.3172677165354332
 30
0.0
 10
0.9760787401574803
 20
-1.3483070866141733
 30
0.0
 10
0.9760787401574803
 20
-1.3483070866141733
 30
0.0
 10
0.9760787401574803
 20
-1.3483070866141733
 30
0.0
 10
0.9760787401574803
 20
-1.3483070866141733
 30
0.0
 10
0.9420629921259843
 20
-1.3777755905511813
 30
0.0
 10
0.9420629921259843
 20
-1.3777755905511813
 30
0.0
 10
0.9420629921259843
 20
-1.3777755905511813
 30
0.0
 10
0.9420629921259843
 20
-1.3777755905511813
 30
0.0
 10
0.9066417322834646
 20
-1.4056062992125984
 30
0.0
 10
0.9066417322834646
 20
-1.4056062992125984
 30
0.0
 10
0.9066417322834646
 20
-1.4056062992125984
 30
0.0
 10
0.9066417322834646
 20
-1.4056062992125984
 30
0.0
 10
0.8698858267716536
 20
-1.4317480314960631
 30
0.0
 10
0.8698858267716536
 20
-1.4317480314960631
 30
0.0
 10
0.8698858267716536
 20
-1.4317480314960631
 30
0.0
 10
0.8698858267716536
 20
-1.4317480314960631
 30
0.0
 10
0.8318464566929135
 20
-1.4561338582677166
 30
0.0
 10
0.8318464566929135
 20
-1.4561338582677166
 30
0.0
  0
SPLINE
  5
99
100
AcDbEntity
  8
Layer 1
 62
     9
100
AcDbSpline
210
0.0
220
0.0
230
1.0
 70
     1
 71
     3
 72
    20
 73
    16
 74
     0
 42
0.0000000001
 43
0.0000000001
 40
0.0
 40
0.0
 40
0.0
 40
0.0
 40
0.25
 40
0.25
 40
0.25
 40
0.25
 40
0.5
 40
0.5
 40
0.5
 40
0.5
 40
0.75
 40
0.75
 40
0.75
 40
0.75
 40
1.0
 40
1.0
 40
1.0
 40
1.0
 10
0.3457677165354331
 20
0.2831102362204724
 30
0.0
 10
0.3457677165354331
 20
0.2831102362204724
 30
0.0
 10
1.0032125984251969
 20
0.6447834645669291
 30
0.0
 10
1.0032125984251969
 20
0.6447834645669291
 30
0.0
 10
1.0032125984251969
 20
0.6447834645669291
 30
0.0
 10
1.0032125984251969
 20
0.6447834645669291
 30
0.0
 10
1.0032125984251969
 20
1.1490354330708661
 30
0.0
 10
1.0032125984251969
 20
1.1490354330708661
 30
0.0
 10
1.0032125984251969
 20
1.1490354330708661
 30
0.0
 10
1.0032125984251969
 20
1.1490354330708661
 30
0.0
 10
0.3457677165354331
 20
0.7873622047244094
 30
0.0
 10
0.3457677165354331
 20
0.7873622047244094
 30
0.0
 10
0.3457677165354331
 20
0.7873622047244094
 30
0.0
 10
0.3457677165354331
 20
0.7873622047244094
 30
0.0
 10
0.3457677165354331
 20
0.2831102362204724
 30
0.0
 10
0.3457677165354331
 20
0.2831102362204724
 30
0.0
  0
SPLINE
  5
9A
100
AcDbEntity
  8
Layer 1
370
     5
100
AcDbSpline
210
0.0
220
0.0
230
1.0
 70
     1
 71
     3
 72
    20
 73
    16
 74
     0
 42
0.0000000001
 43
0.0000000001
 40
0.0
 40
0.0
 40
0.0
 40
0.0
 40
0.25
 40
0.25
 40
0.25
 40
0.25
 40
0.5
 40
0.5
 40
0.5
 40
0.5
 40
0.75
 40
0.75
 40
0.75
 40
0.75
 40
1.0
 40
1.0
 40
1.0
 40
1.0
 10
0.3457677165354331
 20
0.2831102362204724
 30
0.0
 10
0.3457677165354331
 20
0.2831102362204724
 30
0.0
 10
1.0032125984251969
 20
0.6447834645669291
 30
0.0
 10
1.0032125984251969
 20
0.6447834645669291
 30
0.0
 10
1.0032125984251969
 20
0.6447834645669291
 30
0.0
 10
1.0032125984251969
 20
0.6447834645669291
 30
0.0
 10
1.0032125984251969
 20
1.1490354330708661
 30
0.0
 10
1.0032125984251969
 20
1.1490354330708661
 30
0.0
 10
1.0032125984251969
 20
1.1490354330708661
 30
0.0
 10
1.0032125984251969
 20
1.1490354330708661
 30
0.0
 10
0.3457677165354331
 20
0.7873622047244094
 30
0.0
 10
0.3457677165354331
 20
0.7873622047244094
 30
0.0
 10
0.3457677165354331
 20
0.7873622047244094
 30
0.0
 10
0.3457677165354331
 20
0.7873622047244094
 30
0.0
 10
0.3457677165354331
 20
0.2831102362204724
 30
0.0
 10
0.3457677165354331
 20
0.2831102362204724
 30
0.0
  0
SPLINE
  5
9B
100
AcDbEntity
  8
Layer 1
 62
   253
100
AcDbSpline
210
0.0
220
0.0
230
1.0
 70
     1
 71
     3
 72
    20
 73
    16
 74
     0
 42
0.0000000001
 43
0.0000000001
 40
0.0
 40
0.0
 40
0.0
 40
0.0
 40
0.25
 40
0.25
 40
0.25
 40
0.25
 40
0.5
 40
0.5
 40
0.5
 40
0.5
 40
0.75
 40
0.75
 40
0.75
 40
0.75
 40
1.0
 40
1.0
 40
1.0
 40
1.0
 10
0.3457677165354331
 20
0.7873622047244094
 30
0.0
 10
0.3457677165354331
 20
0.7873622047244094
 30
0.0
 10
1.0032125984251969
 20
1.1490354330708661
 30
0.0
 10
1.0032125984251969
 20
1.1490354330708661
 30
0.0
 10
1.0032125984251969
 20
1.1490354330708661
 30
0.0
 10
1.0032125984251969
 20
1.1490354330708661
 30
0.0
 10
-0.8041771653543307
 20
1.1490354330708661
 30
0.0
 10
-0.8041771653543307
 20
1.1490354330708661
 30
0.0
 10
-0.8041771653543307
 20
1.1490354330708661
 30
0.0
 10
-0.8041771653543307
 20
1.1490354330708661
 30
0.0
 10
-1.4616220472440946
 20
0.7873622047244094
 30
0.0
 10
-1.4616220472440946
 20
0.7873622047244094
 30
0.0
 10
-1.4616220472440946
 20
0.7873622047244094
 30
0.0
 10
-1.4616220472440946
 20
0.7873622047244094
 30
0.0
 10
0.3457677165354331
 20
0.7873622047244094
 30
0.0
 10
0.3457677165354331
 20
0.7873622047244094
 30
0.0
  0
SPLINE
  5
9C
100
AcDbEntity
  8
Layer 1
370
     5
100
AcDbSpline
210
0.0
220
0.0
230
1.0
 70
     1
 71
     3
 72
    20
 73
    16
 74
     0
 42
0.0000000001
 43
0.0000000001
 40
0.0
 40
0.0
 40
0.0
 40
0.0
 40
0.25
 40
0.25
 40
0.25
 40
0.25
 40
0.5
 40
0.5
 40
0.5
 40
0.5
 40
0.75
 40
0.75
 40
0.75
 40
0.75
 40
1.0
 40
1.0
 40
1.0
 40
1.0
 10
0.3457677165354331
 20
0.7873622047244094
 30
0.0
 10
0.3457677165354331
 20
0.7873622047244094
 30
0.0
 10
1.0032125984251969
 20
1.1490354330708661
 30
0.0
 10
1.0032125984251969
 20
1.1490354330708661
 30
0.0
 10
1.0032125984251969
 20
1.1490354330708661
 30
0.0
 10
1.0032125984251969
 20
1.1490354330708661
 30
0.0
 10
-0.8041771653543307
 20
1.1490354330708661
 30
0.0
 10
-0.8041771653543307
 20
1.1490354330708661
 30
0.0
 10
-0.8041771653543307
 20
1.1490354330708661
 30
0.0
 10
-0.8041771653543307
 20
1.1490354330708661
 30
0.0
 10
-1.4616220472440946
 20
0.7873622047244094
 30
0.0
 10
-1.4616220472440946
 20
0.7873622047244094
 30
0.0
 10
-1.4616220472440946
 20
0.7873622047244094
 30
0.0
 10
-1.4616220472440946
 20
0.7873622047244094
 30
0.0
 10
0.3457677165354331
 20
0.7873622047244094
 30
0.0
 10
0.3457677165354331
 20
0.7873622047244094
 30
0.0
  0
SPLINE
  5
9D
100
AcDbEntity
  8
Layer 1
370
     5
 62
     7
100
AcDbSpline
210
0.0
220
0.0
230
1.0
 70
     1
 71
     3
 72
    28
 73
    24
 74
     0
 42
0.0000000001
 43
0.0000000001
 40
0.0
 40
0.0
 40
0.0
 40
0.0
 40
0.1666666666666667
 40
0.1666666666666667
 40
0.1666666666666667
 40
0.1666666666666667
 40
0.3333333333333333
 40
0.3333333333333333
 40
0.3333333333333333
 40
0.3333333333333333
 40
0.5
 40
0.5
 40
0.5
 40
0.5
 40
0.6666666666666666
 40
0.6666666666666666
 40
0.6666666666666666
 40
0.6666666666666666
 40
0.8333333333333333
 40
0.8333333333333333
 40
0.8333333333333333
 40
0.8333333333333333
 40
1.0
 40
1.0
 40
1.0
 40
1.0
 10
0.3457677165354331
 20
-1.5918897637795275
 30
0.0
 10
0.8634448818897638
 20
-1.5918897637795275
 30
0.0
 10
1.2832677165354331
 20
-1.1720669291338583
 30
0.0
 10
1.2832677165354331
 20
-0.6543897637795276
 30
0.0
 10
1.2832677165354331
 20
-0.6543897637795276
 30
0.0
 10
1.2832677165354331
 20
-0.1367125984251969
 30
0.0
 10
0.8634448818897638
 20
0.2831102362204724
 30
0.0
 10
0.3457677165354331
 20
0.2831102362204724
 30
0.0
 10
0.3457677165354331
 20
0.2831102362204724
 30
0.0
 10
0.3457677165354331
 20
0.2831102362204724
 30
0.0
 10
0.3457677165354331
 20
0.7873622047244094
 30
0.0
 10
0.3457677165354331
 20
0.7873622047244094
 30
0.0
 10
0.3457677165354331
 20
0.7873622047244094
 30
0.0
 10
0.3457677165354331
 20
0.7873622047244094
 30
0.0
 10
-1.4616220472440946
 20
0.7873622047244094
 30
0.0
 10
-1.4616220472440946
 20
0.7873622047244094
 30
0.0
 10
-1.4616220472440946
 20
0.7873622047244094
 30
0.0
 10
-1.4616220472440946
 20
0.7873622047244094
 30
0.0
 10
-1.4616220472440946
 20
-1.5918897637795275
 30
0.0
 10
-1.4616220472440946
 20
-1.5918897637795275
 30
0.0
 10
-1.4616220472440946
 20
-1.5918897637795275
 30
0.0
 10
-1.4616220472440946
 20
-1.5918897637795275
 30
0.0
 10
0.3457677165354331
 20
-1.5918897637795275
 30
0.0
 10
0.3457677165354331
 20
-1.5918897637795275
 30
0.0
  0
TEXT
  5
9E
100
AcDbEntity
  8
Layer 1
100
AcDbText
 10
-0.109154
 20
-1.820157
 30
0.0
 40
0.119999
  1
BA 1555
 51
-0.000002
  7
Bookman Old Style
100
AcDbText
  0
TEXT
  5
9F
100
AcDbEntity
  8
Layer 1
100
AcDbText
 10
-0.400819
 20
-2.007657
 30
0.0
 40
0.119999
  1
2-3/8\u+201d x 2-3/4\u+201d  
 51
-0.000002
  7
Bookman Old Style
100
AcDbText
  0
ENDSEC
  0
SECTION
  2
OBJECTS
  0
DICTIONARY
  5
19
100
AcDbDictionary
280
     0
281
     1
  3
ACAD_GROUP
350
1A
  3
ACAD_MLINESTYLE
350
1B
  3
ACAD_LAYOUT
350
1E
  3
ACAD_PLOTSETTINGS
350
22
  3
ACAD_PLOTSTYLENAME
350
1F
  3
ACAD_WIPEOUT_VARS
350
23
  0
DICTIONARY
  5
1A
102
{ACAD_REACTORS
330
19
102
}
100
AcDbDictionary
280
     0
281
     1
  0
DICTIONARY
  5
1B
102
{ACAD_REACTORS
330
19
102
}
100
AcDbDictionary
280
     0
281
     1
  3
Standard
350
1C
  0
MLINESTYLE
  5
1C
102
{ACAD_REACTORS
330
1B
102
}
100
AcDbMlineStyle
  2
Standard
 70
     0
  3

 62
     0
 51
90.0
 52
90.0
 71
     2
 49
0.5
 62
   256
  6
BYLAYER
 49
-0.5
 62
   256
  6
BYLAYER
  0
ACDBDICTIONARYWDFLT
  5
1F
102
{ACAD_REACTORS
330
19
102
}
100
AcDbDictionary
281
     1
  3
Normal
350
1D
100
AcDbDictionaryWithDefault
340
1D
  0
ACDBPLACEHOLDER
  5
1D
102
{ACAD_REACTORS
330
1F
102
}
  0
LAYOUT
  5
20
102
{ACAD_REACTORS
330
1E
102
}
100
AcDbPlotSettings
  1

  2

  4

  6

 40
0.0
 41
0.0
 42
0.0
 43
0.0
 44
0.0
 45
0.0
 46
0.0
 47
0.0
 48
0.0
 49
0.0
140
0.0
141
0.0
142
1.0
143
1.0
 70
  1024
 72
     0
 73
     0
 74
     0
  7

 75
     0
147
1.0
148
0.0
149
0.0
100
AcDbLayout
  1
Model
 70
     0
 71
     0
 10
0.0
 20
0.0
 11
0.0
 21
0.0
 12
0.0
 22
0.0
 32
0.0
 14
0.0
 24
0.0
 34
0.0
 15
0.0
 25
0.0
 35
0.0
146
0.0
 13
0.0
 23
0.0
 33
0.0
 16
0.0
 26
0.0
 36
0.0
 17
0.0
 27
0.0
 37
0.0
 76
     0
330
A
331
0
345
0
346
0
  0
LAYOUT
  5
21
102
{ACAD_REACTORS
330
1E
102
}
100
AcDbPlotSettings
  1

  2

  4

  6

 40
0.0
 41
0.0
 42
0.0
 43
0.0
 44
0.0
 45
0.0
 46
0.0
 47
0.0
 48
0.0
 49
0.0
140
0.0
141
0.0
142
1.0
143
1.0
 70
     0
 72
     0
 73
     0
 74
     0
  7

 75
     0
147
1.0
148
0.0
149
0.0
100
AcDbLayout
  1
Layout1
 70
     0
 71
     0
 10
0.0
 20
0.0
 11
0.0
 21
0.0
 12
0.0
 22
0.0
 32
0.0
 14
0.0
 24
0.0
 34
0.0
 15
0.0
 25
0.0
 35
0.0
146
0.0
 13
0.0
 23
0.0
 33
0.0
 16
0.0
 26
0.0
 36
0.0
 17
0.0
 27
0.0
 37
0.0
 76
     0
330
B
331
0
345
0
346
0
  0
DICTIONARY
  5
1E
102
{ACAD_REACTORS
330
19
102
}
100
AcDbDictionary
280
     0
281
     1
  3
Layout1
350
21
  3
Model
350
20
  0
DICTIONARY
  5
22
102
{ACAD_REACTORS
330
19
102
}
100
AcDbDictionary
280
     0
281
     1
  0
WIPEOUTVARIABLES
  5
23
100
AcDbWipeoutVariables
 70
     1
  0
ENDSEC
  0
EOF
