  0
SECTION
  2
HEADER
  9
$ACADVER
  1
AC1015
  9
$ACADMAINTVER
 70
     6
  9
$DWGCODEPAGE
  3
DOS850
  9
$INSBASE
 10
0.0
 20
0.0
 30
0.0
  9
$EXTMIN
 10
-2.016705
 20
-2.999339
 30
1.000000E+20
  9
$EXTMAX
 10
3.291264
 20
3.568724
 30
-1.000000E+20
  9
$LIMMIN
 10
0.0
 20
0.0
  9
$LIMMAX
 10
0.0
 20
0.0
  9
$ORTHOMODE
 70
     0
  9
$REGENMODE
 70
     1
  9
$FILLMODE
 70
     1
  9
$QTEXTMODE
 70
     0
  9
$MIRRTEXT
 70
     1
  9
$LTSCALE
 40
1.0
  9
$ATTMODE
 70
     1
  9
$TEXTSIZE
 40
0.2
  9
$TRACEWID
 40
0.05
  9
$TEXTSTYLE
  7
Standard
  9
$CLAYER
  8
0
  9
$CELTYPE
  6
Continuous
  9
$CECOLOR
 62
   256
  9
$CELTSCALE
 40
1.0
  9
$DISPSILH
 70
     0
  9
$DIMSCALE
 40
1.0
  9
$DIMASZ
 40
0.18
  9
$DIMEXO
 40
0.0625
  9
$DIMDLI
 40
0.38
  9
$DIMRND
 40
0.0
  9
$DIMDLE
 40
0.0
  9
$DIMEXE
 40
0.18
  9
$DIMTP
 40
0.0
  9
$DIMTM
 40
0.0
  9
$DIMTXT
 40
0.18
  9
$DIMCEN
 40
0.09
  9
$DIMTSZ
 40
0.0
  9
$DIMTOL
 70
     0
  9
$DIMLIM
 70
     0
  9
$DIMTIH
 70
     1
  9
$DIMTOH
 70
     1
  9
$DIMSE1
 70
     0
  9
$DIMSE2
 70
     0
  9
$DIMTAD
 70
     0
  9
$DIMZIN
 70
     0
  9
$DIMBLK
  1

  9
$DIMASO
 70
     1
  9
$DIMSHO
 70
     1
  9
$DIMPOST
  1

  9
$DIMAPOST
  1

  9
$DIMALT
 70
     0
  9
$DIMALTD
 70
     2
  9
$DIMALTF
 40
25.4
  9
$DIMLFAC
 40
1.0
  9
$DIMTOFL
 70
     0
  9
$DIMTVP
 40
0.0
  9
$DIMTIX
 70
     0
  9
$DIMSOXD
 70
     0
  9
$DIMSAH
 70
     0
  9
$DIMBLK1
  1

  9
$DIMBLK2
  1

  9
$DIMSTYLE
  2
Standard
  9
$DIMCLRD
 70
     0
  9
$DIMCLRE
 70
     0
  9
$DIMCLRT
 70
     0
  9
$DIMTFAC
 40
1.0
  9
$DIMGAP
 40
0.09
  9
$DIMJUST
 70
     0
  9
$DIMSD1
 70
     0
  9
$DIMSD2
 70
     0
  9
$DIMTOLJ
 70
     1
  9
$DIMTZIN
 70
     0
  9
$DIMALTZ
 70
     0
  9
$DIMALTTZ
 70
     0
  9
$DIMUPT
 70
     0
  9
$DIMDEC
 70
     4
  9
$DIMTDEC
 70
     4
  9
$DIMALTU
 70
     2
  9
$DIMALTTD
 70
     2
  9
$DIMTXSTY
  7
Standard
  9
$DIMAUNIT
 70
     0
  9
$DIMADEC
 70
     0
  9
$DIMALTRND
 40
0.0
  9
$DIMAZIN
 70
     0
  9
$DIMDSEP
 70
     0
  9
$DIMATFIT
 70
     3
  9
$DIMFRAC
 70
     0
  9
$DIMLDRBLK
  1

  9
$DIMLUNIT
 70
     2
  9
$DIMLWD
 70
     0
  9
$DIMLWE
 70
     0
  9
$DIMTMOVE
 70
     0
  9
$LUNITS
 70
     2
  9
$LUPREC
 70
     4
  9
$SKETCHINC
 40
0.1
  9
$FILLETRAD
 40
0.0
  9
$AUNITS
 70
     0
  9
$AUPREC
 70
     0
  9
$MENU
  1
acad
  9
$ELEVATION
 40
0.0
  9
$PELEVATION
 40
0.0
  9
$THICKNESS
 40
0.0
  9
$LIMCHECK
 70
     0
  9
$CHAMFERA
 40
0.0
  9
$CHAMFERB
 40
0.0
  9
$CHAMFERC
 40
0.0
  9
$CHAMFERD
 40
0.0
  9
$SKPOLY
 70
     0
  9
$TDCREATE
 40
0.000000000
  9
$TDUCREATE
 40
0.000000000
  9
$TDUPDATE
 40
0.000000000
  9
$TDUUPDATE
 40
0.000000000
  9
$TDINDWG
 40
0.0000000000
  9
$TDUSRTIMER
 40
0.0000000000
  9
$USRTIMER
 70
     1
  9
$ANGBASE
 50
0.0
  9
$ANGDIR
 70
     0
  9
$PDMODE
 70
     0
  9
$PDSIZE
 40
0.0
  9
$PLINEWID
 40
0.0
  9
$SPLFRAME
 70
     0
  9
$SPLINETYPE
 70
     6
  9
$SPLINESEGS
 70
     8
  9
$HANDSEED
  5
58
  9
$SURFTAB1
 70
     6
  9
$SURFTAB2
 70
     6
  9
$SURFTYPE
 70
     6
  9
$SURFU
 70
     6
  9
$SURFV
 70
     6
  9
$UCSBASE
  2

  9
$UCSNAME
  2

  9
$UCSORG
 10
0.0
 20
0.0
 30
0.0
  9
$UCSXDIR
 10
1.0
 20
0.0
 30
0.0
  9
$UCSYDIR
 10
0.0
 20
1.0
 30
0.0
  9
$UCSORTHOREF
  2

  9
$UCSORTHOVIEW
 70
     0
  9
$UCSORGTOP
 10
0.0
 20
0.0
 30
0.0
  9
$UCSORGBOTTOM
 10
0.0
 20
0.0
 30
0.0
  9
$UCSORGLEFT
 10
0.0
 20
0.0
 30
0.0
  9
$UCSORGRIGHT
 10
0.0
 20
0.0
 30
0.0
  9
$UCSORGFRONT
 10
0.0
 20
0.0
 30
0.0
  9
$UCSORGBACK
 10
0.0
 20
0.0
 30
0.0
  9
$PUCSBASE
  2

  9
$PUCSNAME
  2

  9
$PUCSORG
 10
0.0
 20
0.0
 30
0.0
  9
$PUCSXDIR
 10
1.0
 20
0.0
 30
0.0
  9
$PUCSYDIR
 10
0.0
 20
1.0
 30
0.0
  9
$PUCSORTHOREF
  2

  9
$PUCSORTHOVIEW
 70
     0
  9
$PUCSORGTOP
 10
0.0
 20
0.0
 30
0.0
  9
$PUCSORGBOTTOM
 10
0.0
 20
0.0
 30
0.0
  9
$PUCSORGLEFT
 10
0.0
 20
0.0
 30
0.0
  9
$PUCSORGRIGHT
 10
0.0
 20
0.0
 30
0.0
  9
$PUCSORGFRONT
 10
0.0
 20
0.0
 30
0.0
  9
$PUCSORGBACK
 10
0.0
 20
0.0
 30
0.0
  9
$USERI1
 70
     0
  9
$USERI2
 70
     0
  9
$USERI3
 70
     0
  9
$USERI4
 70
     0
  9
$USERI5
 70
     0
  9
$USERR1
 40
0.0
  9
$USERR2
 40
0.0
  9
$USERR3
 40
0.0
  9
$USERR4
 40
0.0
  9
$USERR5
 40
0.0
  9
$WORLDVIEW
 70
     1
  9
$SHADEDGE
 70
     3
  9
$SHADEDIF
 70
    70
  9
$TILEMODE
 70
     1
  9
$MAXACTVP
 70
    16
  9
$PINSBASE
 10
0.0
 20
0.0
 30
0.0
  9
$PLIMCHECK
 70
     0
  9
$PEXTMIN
 10
1.000000E+20
 20
1.000000E+20
 30
1.000000E+20
  9
$PEXTMAX
 10
-1.000000E+20
 20
-1.000000E+20
 30
-1.000000E+20
  9
$PLIMMIN
 10
0.0
 20
0.0
  9
$PLIMMAX
 10
12.0
 20
9.0
  9
$UNITMODE
 70
     0
  9
$VISRETAIN
 70
     0
  9
$PLINEGEN
 70
     1
  9
$PSLTSCALE
 70
     0
  9
$TREEDEPTH
 70
  3020
  9
$CMLSTYLE
  2
Standard
  9
$CMLJUST
 70
     0
  9
$CMLSCALE
 40
1.0
  9
$PROXYGRAPHICS
 70
     0
  9
$MEASUREMENT
 70
     0
  9
$CELWEIGHT
370
     0
  9
$ENDCAPS
280
     0
  9
$JOINSTYLE
280
     0
  9
$LWDISPLAY
290
     0
  9
$INSUNITS
 70
     1
  9
$HYPERLINKBASE
  1

  9
$XEDIT
290
     1
  9
$CEPSNTYPE
380
     0
  9
$PSTYLEMODE
290
     1
  9
$FINGERPRINTGUID
  2

  9
$VERSIONGUID
  2

  9
$EXTNAMES
290
     1
  9
$PSVPSCALE
 40
0.0
  0
ENDSEC
  0
SECTION
  2
CLASSES
  0
CLASS
  1
LWPOLYLINE
  2
AcDbPolyline
  3
AutoCAD 2000
 90
    32768
280
     0
281
     1
  0
CLASS
  1
IMAGE
  2
AcDbRasterImage
  3
ISM
 90
    32895
280
     0
281
     1
  0
CLASS
  1
OLE2FRAME
  2
AcDbOle2Frame
  3
AutoCAD 2000
 90
    32768
280
     0
281
     1
  0
CLASS
  1
HATCH
  2
AcDbHatch
  3
AutoCAD 2000
 90
    32768
280
     0
281
     1
  0
CLASS
  1
DICTIONARYVAR
  2
AcDbDictionaryVar
  3
AutoCAD 2000
 90
    32768
280
     0
281
     0
  0
CLASS
  1
RASTERVARIABLES
  2
AcDbRasterVariables
  3
ISM
 90
    32768
280
     0
281
     0
  0
CLASS
  1
IMAGEDEF
  2
AcDbRasterImageDef
  3
ISM
 90
    32768
280
     0
281
     0
  0
CLASS
  1
IMAGEDEF_REACTOR
  2
AcDbRasterImageDefReactor
  3
ISM
 90
    32769
280
     0
281
     0
  0
CLASS
  1
IDBUFFER
  2
AcDbIdBuffer
  3
AutoCAD 2000
 90
    32768
280
     0
281
     0
  0
CLASS
  1
SPATIAL_FILTER
  2
AcDbSpatialFilter
  3
AutoCAD 2000
 90
    32768
280
     0
281
     0
  0
CLASS
  1
XRECORD
  2
AcDbXrecord
  3
AutoCAD 2000
 90
    32768
280
     0
281
     0
  0
CLASS
  1
SORTENTSTABLE
  2
AcDbSortentsTable
  3
AutoCAD 2000
 90
    32768
280
     0
281
     0
  0
CLASS
  1
LAYER_INDEX
  2
AcDbLayerIndex
  3
AutoCAD 2000
 90
    32768
280
     0
281
     0
  0
CLASS
  1
SPATIAL_INDEX
  2
AcDbSpatialIndex
  3
AutoCAD 2000
 90
    32768
280
     0
281
     0
  0
CLASS
  1
OBJECT_PTR
  2
CAseDLPNTableRecord
  3
"ASE-LPNTableRecord"
 90
    32769
280
     0
281
     0
  0
CLASS
  1
LAYOUT
  2
AcDbLayout
  3
AutoCAD 2000
 90
        0
280
     0
281
     0
  0
CLASS
  1
PLOTSETTINGS
  2
AcDbPlotSettings
  3
AutoCAD 2000
 90
    32768
280
     0
281
     0
  0
CLASS
  1
ACDBDICTIONARYWDFLT
  2
AcDbDictionaryWithDefault
  3
AutoCAD 2000
 90
        0
280
     0
281
     0
  0
CLASS
  1
ACDBPLACEHOLDER
  2
AcDbPlaceHolder
  3
AutoCAD 2000
 90
        0
280
     0
281
     0
  0
CLASS
  1
VBA_PROJECT
  2
AcDbVbaProject
  3
acadvba
 90
    32768
280
     0
281
     0
  0
CLASS
  1
WIPEOUT
  2
AcDbWipeout
  3
WipeOut|AutoCAD Express Tool|expresstools@autodesk.com
 90
    32895
280
     0
281
     1
  0
CLASS
  1
WIPEOUTVARIABLES
  2
AcDbWipeoutVariables
  3
WipeOut|AutoCAD Express Tool|expresstools@autodesk.com
 90
        0
280
     0
281
     0
  0
CLASS
  1
RTEXT
  2
RText
  3
RText|AutoCAD Express Tool|expresstools@autodesk.com
 90
    32768
280
     0
281
     1
  0
CLASS
  1
ARCALIGNEDTEXT
  2
AcDbArcAlignedText
  3
ATEXT|AutoCAD Express Tool|expresstools@autodesk.com
 90
    32768
280
     0
281
     1
  0
ENDSEC
  0
SECTION
  2
TABLES
  0
TABLE
  2
VPORT
  5
7
100
AcDbSymbolTable
 70
     1
  0
VPORT
  5
15
100
AcDbSymbolTableRecord
100
AcDbViewportTableRecord
  2
*ACTIVE
 70
     0
 10
0.0
 20
0.0
 11
1.0
 21
1.0
 12
6.591288
 22
4.579184
 13
0.0
 23
0.0
 14
1.0
 24
1.0
 15
0.0
 25
0.0
 16
0.0
 26
0.0
 36
1.0
 17
0.0
 27
0.0
 37
0.0
 40
9.158369
 41
0.688564
 42
50.0
 43
0.0
 44
0.0
 50
0.0
 51
0.0
 71
     0
 72
   100
 73
     1
 74
     1
 75
     0
 76
     0
 77
     0
 78
     0
281
     0
 65
     0
110
0.0
120
0.0
130
0.0
111
1.0
121
0.0
131
0.0
112
0.0
122
1.0
132
0.0
345
0
346
0
 79
     0
146
0.0
  0
ENDTAB
  0
TABLE
  2
LTYPE
  5
4
100
AcDbSymbolTable
 70
     3
  0
LTYPE
  5
11
100
AcDbSymbolTableRecord
100
AcDbLinetypeTableRecord
  2
ByBlock
 70
    64
  3

 72
    65
 73
     0
 40
0.0
  0
LTYPE
  5
12
100
AcDbSymbolTableRecord
100
AcDbLinetypeTableRecord
  2
ByLayer
 70
    64
  3

 72
    65
 73
     0
 40
0.0
  0
LTYPE
  5
13
100
AcDbSymbolTableRecord
100
AcDbLinetypeTableRecord
  2
Continuous
 70
    64
  3
Solid line
 72
    65
 73
     0
 40
0.0
  0
ENDTAB
  0
TABLE
  2
LAYER
  5
2
100
AcDbSymbolTable
 70
     2
  0
LAYER
  5
14
100
AcDbSymbolTableRecord
100
AcDbLayerTableRecord
  2
0
 70
     0
 62
     7
  6
Continuous
290
     1
370
    -3
390
1D
  0
LAYER
  5
24
100
AcDbSymbolTableRecord
100
AcDbLayerTableRecord
  2
Layer 1
 70
     0
 62
     7
  6
Continuous
290
     1
370
    -3
390
1F
  0
ENDTAB
  0
TABLE
  2
STYLE
  5
3
100
AcDbSymbolTable
 70
     2
  0
STYLE
  5
17
100
AcDbSymbolTableRecord
100
AcDbTextStyleTableRecord
  2
Standard
 70
     0
 40
0.0
 41
1.0
 50
0.0
 71
     0
 42
0.0
  3
txt
  4

  0
STYLE
  5
26
100
AcDbSymbolTableRecord
100
AcDbTextStyleTableRecord
  2
Bookman Old Style
 70
     0
 40
1.0
 41
1.0
 50
0.0
 71
     0
 42
1.0
  3
Bookman Old Style
  4

  0
ENDTAB
  0
TABLE
  2
VIEW
  5
5
100
AcDbSymbolTable
 70
     0
  0
ENDTAB
  0
TABLE
  2
UCS
  5
6
100
AcDbSymbolTable
 70
     0
  0
ENDTAB
  0
TABLE
  2
APPID
  5
8
100
AcDbSymbolTable
 70
     1
  0
APPID
  5
16
100
AcDbSymbolTableRecord
100
AcDbRegAppTableRecord
  2
ACAD
 70
     0
  0
ENDTAB
  0
TABLE
  2
DIMSTYLE
  5
9
100
AcDbSymbolTable
 70
     1
100
AcDbDimStyleTable
 71
     0
  0
DIMSTYLE
105
18
100
AcDbSymbolTableRecord
100
AcDbDimStyleTableRecord
  2
Standard
 70
     0
  3

  4

 40
1.0
 41
0.18
 42
0.0625
 43
0.38
 44
0.18
 45
0.0
 46
0.0
 47
0.0
 48
0.0
 71
     0
 72
     0
 73
     1
 74
     1
 75
     0
 76
     0
 77
     0
 78
     0
 79
     0
140
0.18
141
0.09
142
0.0
143
25.4
144
1.0
145
0.0
146
1.0
147
0.09
148
0.0
170
     0
171
     2
172
     0
173
     0
174
     0
175
     0
176
     0
177
     0
178
     0
179
     0
271
     4
272
     4
273
     2
274
     2
275
     0
276
     0
277
     2
278
    46
279
     0
280
     0
281
     0
282
     0
283
     1
284
     0
285
     0
286
     0
288
     0
340
17
341
0
342
0
343
0
344
0
371
    -2
372
    -2
  0
ENDTAB
  0
TABLE
  2
BLOCK_RECORD
  5
1
100
AcDbSymbolTable
 70
     0
  0
BLOCK_RECORD
  5
A
100
AcDbSymbolTableRecord
100
AcDbBlockTableRecord
  2
*MODEL_SPACE
340
20
  0
BLOCK_RECORD
  5
B
100
AcDbSymbolTableRecord
100
AcDbBlockTableRecord
  2
*PAPER_SPACE
340
21
  0
ENDTAB
  0
ENDSEC
  0
SECTION
  2
BLOCKS
  0
BLOCK
  5
D
100
AcDbEntity
  8
0
100
AcDbBlockBegin
  2
*MODEL_SPACE
 70
     0
 10
0.0
 20
0.0
 30
0.0
  3
*MODEL_SPACE
  1

  0
ENDBLK
  5
E
100
AcDbEntity
  8
0
100
AcDbBlockEnd
  0
BLOCK
  5
F
100
AcDbEntity
 67
     1
  8
0
100
AcDbBlockBegin
  2
*PAPER_SPACE
 70
     0
 10
0.0
 20
0.0
 30
0.0
  3
*PAPER_SPACE
  1

  0
ENDBLK
  5
10
100
AcDbEntity
 67
     1
  8
0
100
AcDbBlockEnd
  0
ENDSEC
  0
SECTION
  2
ENTITIES
  0
SPLINE
  5
25
100
AcDbEntity
  8
Layer 1
370
     5
100
AcDbSpline
210
0.0
220
0.0
230
1.0
 70
     1
 71
     3
 72
    56
 73
    52
 74
     0
 42
0.0000000001
 43
0.0000000001
 40
0.0
 40
0.0
 40
0.0
 40
0.0
 40
0.0769230769230769
 40
0.0769230769230769
 40
0.0769230769230769
 40
0.0769230769230769
 40
0.1538461538461539
 40
0.1538461538461539
 40
0.1538461538461539
 40
0.1538461538461539
 40
0.2307692307692308
 40
0.2307692307692308
 40
0.2307692307692308
 40
0.2307692307692308
 40
0.3076923076923077
 40
0.3076923076923077
 40
0.3076923076923077
 40
0.3076923076923077
 40
0.3846153846153846
 40
0.3846153846153846
 40
0.3846153846153846
 40
0.3846153846153846
 40
0.4615384615384616
 40
0.4615384615384616
 40
0.4615384615384616
 40
0.4615384615384616
 40
0.5384615384615386
 40
0.5384615384615386
 40
0.5384615384615386
 40
0.5384615384615386
 40
0.6153846153846154
 40
0.6153846153846154
 40
0.6153846153846154
 40
0.6153846153846154
 40
0.6923076923076923
 40
0.6923076923076923
 40
0.6923076923076923
 40
0.6923076923076923
 40
0.7692307692307692
 40
0.7692307692307692
 40
0.7692307692307692
 40
0.7692307692307692
 40
0.846153846153846
 40
0.846153846153846
 40
0.846153846153846
 40
0.846153846153846
 40
0.9230769230769229
 40
0.9230769230769229
 40
0.9230769230769229
 40
0.9230769230769229
 40
1.0
 40
1.0
 40
1.0
 40
1.0
 10
1.567503937007874
 20
1.4421456692913386
 30
0.0
 10
1.567503937007874
 20
1.4421456692913386
 30
0.0
 10
-1.3874291338582678
 20
1.4421456692913386
 30
0.0
 10
-1.3874291338582678
 20
1.4421456692913386
 30
0.0
 10
-1.3874291338582678
 20
1.4421456692913386
 30
0.0
 10
-1.4613582677165355
 20
1.4421456692913386
 30
0.0
 10
-1.5213070866141734
 20
1.5018543307086614
 30
0.0
 10
-1.5213070866141734
 20
1.5754881889763781
 30
0.0
 10
-1.5213070866141734
 20
1.5754881889763781
 30
0.0
 10
-1.5213070866141734
 20
1.6491141732283465
 30
0.0
 10
-1.4613582677165355
 20
1.7088228346456693
 30
0.0
 10
-1.3874291338582678
 20
1.7088228346456693
 30
0.0
 10
-1.3874291338582678
 20
1.7088228346456693
 30
0.0
 10
-1.3874291338582678
 20
1.7088228346456693
 30
0.0
 10
-1.3874685039370078
 20
1.7516259842519686
 30
0.0
 10
-1.3874685039370078
 20
1.7516259842519686
 30
0.0
 10
-1.3874685039370078
 20
1.7516259842519686
 30
0.0
 10
-1.3874685039370078
 20
1.7516259842519686
 30
0.0
 10
-1.5483818897637796
 20
1.7604488188976379
 30
0.0
 10
-1.5483818897637796
 20
1.7604488188976379
 30
0.0
 10
-1.5483818897637796
 20
1.7604488188976379
 30
0.0
 10
-1.5483818897637796
 20
1.7604488188976379
 30
0.0
 10
-1.8474606299212599
 20
2.9260590551181105
 30
0.0
 10
-1.8474606299212599
 20
2.9260590551181105
 30
0.0
 10
-1.8474606299212599
 20
2.9260590551181105
 30
0.0
 10
-1.8474606299212599
 20
2.9260590551181105
 30
0.0
 10
0.0900629921259843
 20
3.5671456692913388
 30
0.0
 10
0.0900629921259843
 20
3.5671456692913388
 30
0.0
 10
0.0900629921259843
 20
3.5671456692913388
 30
0.0
 10
0.0900629921259843
 20
3.5671456692913388
 30
0.0
 10
2.0275354330708661
 20
2.9260590551181105
 30
0.0
 10
2.0275354330708661
 20
2.9260590551181105
 30
0.0
 10
2.0275354330708661
 20
2.9260590551181105
 30
0.0
 10
2.0275354330708661
 20
2.9260590551181105
 30
0.0
 10
1.728456692913386
 20
1.7604488188976379
 30
0.0
 10
1.728456692913386
 20
1.7604488188976379
 30
0.0
 10
1.728456692913386
 20
1.7604488188976379
 30
0.0
 10
1.728456692913386
 20
1.7604488188976379
 30
0.0
 10
1.5675433070866143
 20
1.7516259842519686
 30
0.0
 10
1.5675433070866143
 20
1.7516259842519686
 30
0.0
 10
1.5675433070866143
 20
1.7516259842519686
 30
0.0
 10
1.5675433070866143
 20
1.7516259842519686
 30
0.0
 10
1.567503937007874
 20
1.7088228346456693
 30
0.0
 10
1.567503937007874
 20
1.7088228346456693
 30
0.0
 10
1.567503937007874
 20
1.7088228346456693
 30
0.0
 10
1.6414330708661418
 20
1.7088228346456693
 30
0.0
 10
1.7013818897637796
 20
1.6491141732283465
 30
0.0
 10
1.7013818897637796
 20
1.5754881889763781
 30
0.0
 10
1.7013818897637796
 20
1.5754881889763781
 30
0.0
 10
1.7013818897637796
 20
1.5018543307086614
 30
0.0
 10
1.6414330708661418
 20
1.4421456692913386
 30
0.0
 10
1.567503937007874
 20
1.4421456692913386
 30
0.0
  0
TEXT
  5
27
100
AcDbEntity
  8
Layer 1
100
AcDbText
 10
-0.192717
 20
1.201138
 30
0.0
 40
0.119999
  1
BA  1552
 51
-0.000002
  7
Bookman Old Style
100
AcDbText
  0
TEXT
  5
28
100
AcDbEntity
  8
Layer 1
100
AcDbText
 10
-0.457728
 20
1.013638
 30
0.0
 40
0.119999
  1
2-1/8\u+201d x 3-7/8\u+201d
 51
-0.000002
  7
Bookman Old Style
100
AcDbText
  0
TEXT
  5
29
100
AcDbEntity
  8
Layer 1
100
AcDbText
 10
2.10774
 20
3.167283
 30
0.0
 40
0.119999
  1
BA  1551
 51
-0.000002
  7
Bookman Old Style
100
AcDbText
  0
TEXT
  5
2A
100
AcDbEntity
  8
Layer 1
100
AcDbText
 10
2.10774
 20
2.979783
 30
0.0
 40
0.119999
  1
Top Knife
 51
-0.000002
  7
Bookman Old Style
100
AcDbText
  0
SPLINE
  5
2B
100
AcDbEntity
  8
Layer 1
 62
   118
100
AcDbSpline
210
0.0
220
0.0
230
1.0
 70
     1
 71
     3
 72
    68
 73
    64
 74
     0
 42
0.0000000001
 43
0.0000000001
 40
0.0
 40
0.0
 40
0.0
 40
0.0
 40
0.0625
 40
0.0625
 40
0.0625
 40
0.0625
 40
0.125
 40
0.125
 40
0.125
 40
0.125
 40
0.1875
 40
0.1875
 40
0.1875
 40
0.1875
 40
0.25
 40
0.25
 40
0.25
 40
0.25
 40
0.3125
 40
0.3125
 40
0.3125
 40
0.3125
 40
0.375
 40
0.375
 40
0.375
 40
0.375
 40
0.4375
 40
0.4375
 40
0.4375
 40
0.4375
 40
0.5
 40
0.5
 40
0.5
 40
0.5
 40
0.5625
 40
0.5625
 40
0.5625
 40
0.5625
 40
0.625
 40
0.625
 40
0.625
 40
0.625
 40
0.6875
 40
0.6875
 40
0.6875
 40
0.6875
 40
0.75
 40
0.75
 40
0.75
 40
0.75
 40
0.8125
 40
0.8125
 40
0.8125
 40
0.8125
 40
0.875
 40
0.875
 40
0.875
 40
0.875
 40
0.9375
 40
0.9375
 40
0.9375
 40
0.9375
 40
1.0
 40
1.0
 40
1.0
 40
1.0
 10
-1.6242834645669293
 20
-2.2871417322834646
 30
0.0
 10
-1.6242834645669293
 20
-2.2871417322834646
 30
0.0
 10
-0.9750354330708662
 20
-1.8993582677165355
 30
0.0
 10
-0.9750354330708662
 20
-1.8993582677165355
 30
0.0
 10
-0.9750354330708662
 20
-1.8993582677165355
 30
0.0
 10
-0.9750354330708662
 20
-1.8993582677165355
 30
0.0
 10
-0.9694291338582678
 20
-1.8961496062992127
 30
0.0
 10
-0.9694291338582678
 20
-1.8961496062992127
 30
0.0
 10
-0.9694291338582678
 20
-1.8961496062992127
 30
0.0
 10
-0.9694291338582678
 20
-1.8961496062992127
 30
0.0
 10
-0.9636574803149607
 20
-1.893204724409449
 30
0.0
 10
-0.9636574803149607
 20
-1.893204724409449
 30
0.0
 10
-0.9636574803149607
 20
-1.893204724409449
 30
0.0
 10
-0.9636574803149607
 20
-1.893204724409449
 30
0.0
 10
-0.957732283464567
 20
-1.8905393700787403
 30
0.0
 10
-0.957732283464567
 20
-1.8905393700787403
 30
0.0
 10
-0.957732283464567
 20
-1.8905393700787403
 30
0.0
 10
-0.957732283464567
 20
-1.8905393700787403
 30
0.0
 10
-0.9516496062992126
 20
-1.8881456692913388
 30
0.0
 10
-0.9516496062992126
 20
-1.8881456692913388
 30
0.0
 10
-0.9516496062992126
 20
-1.8881456692913388
 30
0.0
 10
-0.9516496062992126
 20
-1.8881456692913388
 30
0.0
 10
-0.9454291338582678
 20
-1.8860511811023624
 30
0.0
 10
-0.9454291338582678
 20
-1.8860511811023624
 30
0.0
 10
-0.9454291338582678
 20
-1.8860511811023624
 30
0.0
 10
-0.9454291338582678
 20
-1.8860511811023624
 30
0.0
 10
-0.9390748031496063
 20
-1.8842519685039372
 30
0.0
 10
-0.9390748031496063
 20
-1.8842519685039372
 30
0.0
 10
-0.9390748031496063
 20
-1.8842519685039372
 30
0.0
 10
-0.9390748031496063
 20
-1.8842519685039372
 30
0.0
 10
-0.9326023622047245
 20
-1.8827677165354331
 30
0.0
 10
-0.9326023622047245
 20
-1.8827677165354331
 30
0.0
 10
-0.9326023622047245
 20
-1.8827677165354331
 30
0.0
 10
-0.9326023622047245
 20
-1.8827677165354331
 30
0.0
 10
-1.5818503937007875
 20
-2.2705511811023622
 30
0.0
 10
-1.5818503937007875
 20
-2.2705511811023622
 30
0.0
 10
-1.5818503937007875
 20
-2.2705511811023622
 30
0.0
 10
-1.5818503937007875
 20
-2.2705511811023622
 30
0.0
 10
-1.5883228346456693
 20
-2.2720354330708661
 30
0.0
 10
-1.5883228346456693
 20
-2.2720354330708661
 30
0.0
 10
-1.5883228346456693
 20
-2.2720354330708661
 30
0.0
 10
-1.5883228346456693
 20
-2.2720354330708661
 30
0.0
 10
-1.5946771653543308
 20
-2.2738346456692913
 30
0.0
 10
-1.5946771653543308
 20
-2.2738346456692913
 30
0.0
 10
-1.5946771653543308
 20
-2.2738346456692913
 30
0.0
 10
-1.5946771653543308
 20
-2.2738346456692913
 30
0.0
 10
-1.6008976377952757
 20
-2.2759291338582677
 30
0.0
 10
-1.6008976377952757
 20
-2.2759291338582677
 30
0.0
 10
-1.6008976377952757
 20
-2.2759291338582677
 30
0.0
 10
-1.6008976377952757
 20
-2.2759291338582677
 30
0.0
 10
-1.6069803149606299
 20
-2.2783228346456692
 30
0.0
 10
-1.6069803149606299
 20
-2.2783228346456692
 30
0.0
 10
-1.6069803149606299
 20
-2.2783228346456692
 30
0.0
 10
-1.6069803149606299
 20
-2.2783228346456692
 30
0.0
 10
-1.6129055118110236
 20
-2.2809881889763779
 30
0.0
 10
-1.6129055118110236
 20
-2.2809881889763779
 30
0.0
 10
-1.6129055118110236
 20
-2.2809881889763779
 30
0.0
 10
-1.6129055118110236
 20
-2.2809881889763779
 30
0.0
 10
-1.6186771653543308
 20
-2.2839330708661416
 30
0.0
 10
-1.6186771653543308
 20
-2.2839330708661416
 30
0.0
 10
-1.6186771653543308
 20
-2.2839330708661416
 30
0.0
 10
-1.6186771653543308
 20
-2.2839330708661416
 30
0.0
 10
-1.6242834645669293
 20
-2.2871417322834646
 30
0.0
 10
-1.6242834645669293
 20
-2.2871417322834646
 30
0.0
  0
SPLINE
  5
2C
100
AcDbEntity
  8
Layer 1
 62
   252
100
AcDbSpline
210
0.0
220
0.0
230
1.0
 70
     1
 71
     3
 72
    44
 73
    40
 74
     0
 42
0.0000000001
 43
0.0000000001
 40
0.0
 40
0.0
 40
0.0
 40
0.0
 40
0.1
 40
0.1
 40
0.1
 40
0.1
 40
0.2
 40
0.2
 40
0.2
 40
0.2
 40
0.3
 40
0.3
 40
0.3
 40
0.3
 40
0.4
 40
0.4
 40
0.4
 40
0.4
 40
0.5
 40
0.5
 40
0.5
 40
0.5
 40
0.6
 40
0.6
 40
0.6
 40
0.6
 40
0.7
 40
0.7
 40
0.7
 40
0.7
 40
0.7999999999999999
 40
0.7999999999999999
 40
0.7999999999999999
 40
0.7999999999999999
 40
0.8999999999999999
 40
0.8999999999999999
 40
0.8999999999999999
 40
0.8999999999999999
 40
1.0
 40
1.0
 40
1.0
 40
1.0
 10
-1.5818503937007875
 20
-2.2705511811023622
 30
0.0
 10
-1.5818503937007875
 20
-2.2705511811023622
 30
0.0
 10
-0.9326023622047245
 20
-1.8827677165354331
 30
0.0
 10
-0.9326023622047245
 20
-1.8827677165354331
 30
0.0
 10
-0.9326023622047245
 20
-1.8827677165354331
 30
0.0
 10
-0.9326023622047245
 20
-1.8827677165354331
 30
0.0
 10
-0.926007874015748
 20
-1.8815905511811024
 30
0.0
 10
-0.926007874015748
 20
-1.8815905511811024
 30
0.0
 10
-0.926007874015748
 20
-1.8815905511811024
 30
0.0
 10
-0.926007874015748
 20
-1.8815905511811024
 30
0.0
 10
-0.9193110236220473
 20
-1.880748031496063
 30
0.0
 10
-0.9193110236220473
 20
-1.880748031496063
 30
0.0
 10
-0.9193110236220473
 20
-1.880748031496063
 30
0.0
 10
-0.9193110236220473
 20
-1.880748031496063
 30
0.0
 10
-0.9125118110236221
 20
-1.8802322834645671
 30
0.0
 10
-0.9125118110236221
 20
-1.8802322834645671
 30
0.0
 10
-0.9125118110236221
 20
-1.8802322834645671
 30
0.0
 10
-0.9125118110236221
 20
-1.8802322834645671
 30
0.0
 10
-0.9056299212598425
 20
-1.8800629921259844
 30
0.0
 10
-0.9056299212598425
 20
-1.8800629921259844
 30
0.0
 10
-0.9056299212598425
 20
-1.8800629921259844
 30
0.0
 10
-0.9056299212598425
 20
-1.8800629921259844
 30
0.0
 10
-1.5548779527559056
 20
-2.2678464566929133
 30
0.0
 10
-1.5548779527559056
 20
-2.2678464566929133
 30
0.0
 10
-1.5548779527559056
 20
-2.2678464566929133
 30
0.0
 10
-1.5548779527559056
 20
-2.2678464566929133
 30
0.0
 10
-1.561759842519685
 20
-2.268015748031496
 30
0.0
 10
-1.561759842519685
 20
-2.268015748031496
 30
0.0
 10
-1.561759842519685
 20
-2.268015748031496
 30
0.0
 10
-1.561759842519685
 20
-2.268015748031496
 30
0.0
 10
-1.5685590551181103
 20
-2.2685314960629923
 30
0.0
 10
-1.5685590551181103
 20
-2.2685314960629923
 30
0.0
 10
-1.5685590551181103
 20
-2.2685314960629923
 30
0.0
 10
-1.5685590551181103
 20
-2.2685314960629923
 30
0.0
 10
-1.5752559055118112
 20
-2.2693740157480318
 30
0.0
 10
-1.5752559055118112
 20
-2.2693740157480318
 30
0.0
 10
-1.5752559055118112
 20
-2.2693740157480318
 30
0.0
 10
-1.5752559055118112
 20
-2.2693740157480318
 30
0.0
 10
-1.5818503937007875
 20
-2.2705511811023622
 30
0.0
 10
-1.5818503937007875
 20
-2.2705511811023622
 30
0.0
  0
SPLINE
  5
2D
100
AcDbEntity
  8
Layer 1
370
     5
100
AcDbSpline
210
0.0
220
0.0
230
1.0
 70
     1
 71
     3
 72
   100
 73
    96
 74
     0
 42
0.0000000001
 43
0.0000000001
 40
0.0
 40
0.0
 40
0.0
 40
0.0
 40
0.0416666666666667
 40
0.0416666666666667
 40
0.0416666666666667
 40
0.0416666666666667
 40
0.0833333333333333
 40
0.0833333333333333
 40
0.0833333333333333
 40
0.0833333333333333
 40
0.125
 40
0.125
 40
0.125
 40
0.125
 40
0.1666666666666667
 40
0.1666666666666667
 40
0.1666666666666667
 40
0.1666666666666667
 40
0.2083333333333333
 40
0.2083333333333333
 40
0.2083333333333333
 40
0.2083333333333333
 40
0.25
 40
0.25
 40
0.25
 40
0.25
 40
0.2916666666666666
 40
0.2916666666666666
 40
0.2916666666666666
 40
0.2916666666666666
 40
0.3333333333333333
 40
0.3333333333333333
 40
0.3333333333333333
 40
0.3333333333333333
 40
0.375
 40
0.375
 40
0.375
 40
0.375
 40
0.4166666666666667
 40
0.4166666666666667
 40
0.4166666666666667
 40
0.4166666666666667
 40
0.4583333333333334
 40
0.4583333333333334
 40
0.4583333333333334
 40
0.4583333333333334
 40
0.5
 40
0.5
 40
0.5
 40
0.5
 40
0.5416666666666666
 40
0.5416666666666666
 40
0.5416666666666666
 40
0.5416666666666666
 40
0.5833333333333333
 40
0.5833333333333333
 40
0.5833333333333333
 40
0.5833333333333333
 40
0.6249999999999999
 40
0.6249999999999999
 40
0.6249999999999999
 40
0.6249999999999999
 40
0.6666666666666665
 40
0.6666666666666665
 40
0.6666666666666665
 40
0.6666666666666665
 40
0.7083333333333332
 40
0.7083333333333332
 40
0.7083333333333332
 40
0.7083333333333332
 40
0.7499999999999998
 40
0.7499999999999998
 40
0.7499999999999998
 40
0.7499999999999998
 40
0.7916666666666664
 40
0.7916666666666664
 40
0.7916666666666664
 40
0.7916666666666664
 40
0.833333333333333
 40
0.833333333333333
 40
0.833333333333333
 40
0.833333333333333
 40
0.8749999999999997
 40
0.8749999999999997
 40
0.8749999999999997
 40
0.8749999999999997
 40
0.9166666666666663
 40
0.9166666666666663
 40
0.9166666666666663
 40
0.9166666666666663
 40
0.9583333333333329
 40
0.9583333333333329
 40
0.9583333333333329
 40
0.9583333333333329
 40
1.0
 40
1.0
 40
1.0
 40
1.0
 10
-1.6242834645669293
 20
-2.2871417322834646
 30
0.0
 10
-1.6242834645669293
 20
-2.2871417322834646
 30
0.0
 10
-0.9750354330708662
 20
-1.8993582677165355
 30
0.0
 10
-0.9750354330708662
 20
-1.8993582677165355
 30
0.0
 10
-0.9750354330708662
 20
-1.8993582677165355
 30
0.0
 10
-0.9750354330708662
 20
-1.8993582677165355
 30
0.0
 10
-0.9694291338582678
 20
-1.8961496062992127
 30
0.0
 10
-0.9694291338582678
 20
-1.8961496062992127
 30
0.0
 10
-0.9694291338582678
 20
-1.8961496062992127
 30
0.0
 10
-0.9694291338582678
 20
-1.8961496062992127
 30
0.0
 10
-0.9636574803149607
 20
-1.893204724409449
 30
0.0
 10
-0.9636574803149607
 20
-1.893204724409449
 30
0.0
 10
-0.9636574803149607
 20
-1.893204724409449
 30
0.0
 10
-0.9636574803149607
 20
-1.893204724409449
 30
0.0
 10
-0.957732283464567
 20
-1.8905393700787403
 30
0.0
 10
-0.957732283464567
 20
-1.8905393700787403
 30
0.0
 10
-0.957732283464567
 20
-1.8905393700787403
 30
0.0
 10
-0.957732283464567
 20
-1.8905393700787403
 30
0.0
 10
-0.9516496062992126
 20
-1.8881456692913388
 30
0.0
 10
-0.9516496062992126
 20
-1.8881456692913388
 30
0.0
 10
-0.9516496062992126
 20
-1.8881456692913388
 30
0.0
 10
-0.9516496062992126
 20
-1.8881456692913388
 30
0.0
 10
-0.9454291338582678
 20
-1.8860511811023624
 30
0.0
 10
-0.9454291338582678
 20
-1.8860511811023624
 30
0.0
 10
-0.9454291338582678
 20
-1.8860511811023624
 30
0.0
 10
-0.9454291338582678
 20
-1.8860511811023624
 30
0.0
 10
-0.9390748031496063
 20
-1.8842519685039372
 30
0.0
 10
-0.9390748031496063
 20
-1.8842519685039372
 30
0.0
 10
-0.9390748031496063
 20
-1.8842519685039372
 30
0.0
 10
-0.9390748031496063
 20
-1.8842519685039372
 30
0.0
 10
-0.9326023622047245
 20
-1.8827677165354331
 30
0.0
 10
-0.9326023622047245
 20
-1.8827677165354331
 30
0.0
 10
-0.9326023622047245
 20
-1.8827677165354331
 30
0.0
 10
-0.9326023622047245
 20
-1.8827677165354331
 30
0.0
 10
-0.926007874015748
 20
-1.8815905511811024
 30
0.0
 10
-0.926007874015748
 20
-1.8815905511811024
 30
0.0
 10
-0.926007874015748
 20
-1.8815905511811024
 30
0.0
 10
-0.926007874015748
 20
-1.8815905511811024
 30
0.0
 10
-0.9193110236220473
 20
-1.880748031496063
 30
0.0
 10
-0.9193110236220473
 20
-1.880748031496063
 30
0.0
 10
-0.9193110236220473
 20
-1.880748031496063
 30
0.0
 10
-0.9193110236220473
 20
-1.880748031496063
 30
0.0
 10
-0.9125118110236221
 20
-1.8802322834645671
 30
0.0
 10
-0.9125118110236221
 20
-1.8802322834645671
 30
0.0
 10
-0.9125118110236221
 20
-1.8802322834645671
 30
0.0
 10
-0.9125118110236221
 20
-1.8802322834645671
 30
0.0
 10
-0.9056299212598425
 20
-1.8800629921259844
 30
0.0
 10
-0.9056299212598425
 20
-1.8800629921259844
 30
0.0
 10
-0.9056299212598425
 20
-1.8800629921259844
 30
0.0
 10
-0.9056299212598425
 20
-1.8800629921259844
 30
0.0
 10
-1.5548779527559056
 20
-2.2678464566929133
 30
0.0
 10
-1.5548779527559056
 20
-2.2678464566929133
 30
0.0
 10
-1.5548779527559056
 20
-2.2678464566929133
 30
0.0
 10
-1.5548779527559056
 20
-2.2678464566929133
 30
0.0
 10
-1.561759842519685
 20
-2.268015748031496
 30
0.0
 10
-1.561759842519685
 20
-2.268015748031496
 30
0.0
 10
-1.561759842519685
 20
-2.268015748031496
 30
0.0
 10
-1.561759842519685
 20
-2.268015748031496
 30
0.0
 10
-1.5685590551181103
 20
-2.2685314960629923
 30
0.0
 10
-1.5685590551181103
 20
-2.2685314960629923
 30
0.0
 10
-1.5685590551181103
 20
-2.2685314960629923
 30
0.0
 10
-1.5685590551181103
 20
-2.2685314960629923
 30
0.0
 10
-1.5752559055118112
 20
-2.2693740157480318
 30
0.0
 10
-1.5752559055118112
 20
-2.2693740157480318
 30
0.0
 10
-1.5752559055118112
 20
-2.2693740157480318
 30
0.0
 10
-1.5752559055118112
 20
-2.2693740157480318
 30
0.0
 10
-1.5818503937007875
 20
-2.2705511811023622
 30
0.0
 10
-1.5818503937007875
 20
-2.2705511811023622
 30
0.0
 10
-1.5818503937007875
 20
-2.2705511811023622
 30
0.0
 10
-1.5818503937007875
 20
-2.2705511811023622
 30
0.0
 10
-1.5883228346456693
 20
-2.2720354330708661
 30
0.0
 10
-1.5883228346456693
 20
-2.2720354330708661
 30
0.0
 10
-1.5883228346456693
 20
-2.2720354330708661
 30
0.0
 10
-1.5883228346456693
 20
-2.2720354330708661
 30
0.0
 10
-1.5946771653543308
 20
-2.2738346456692913
 30
0.0
 10
-1.5946771653543308
 20
-2.2738346456692913
 30
0.0
 10
-1.5946771653543308
 20
-2.2738346456692913
 30
0.0
 10
-1.5946771653543308
 20
-2.2738346456692913
 30
0.0
 10
-1.6008976377952757
 20
-2.2759291338582677
 30
0.0
 10
-1.6008976377952757
 20
-2.2759291338582677
 30
0.0
 10
-1.6008976377952757
 20
-2.2759291338582677
 30
0.0
 10
-1.6008976377952757
 20
-2.2759291338582677
 30
0.0
 10
-1.6069803149606299
 20
-2.2783228346456692
 30
0.0
 10
-1.6069803149606299
 20
-2.2783228346456692
 30
0.0
 10
-1.6069803149606299
 20
-2.2783228346456692
 30
0.0
 10
-1.6069803149606299
 20
-2.2783228346456692
 30
0.0
 10
-1.6129055118110236
 20
-2.2809881889763779
 30
0.0
 10
-1.6129055118110236
 20
-2.2809881889763779
 30
0.0
 10
-1.6129055118110236
 20
-2.2809881889763779
 30
0.0
 10
-1.6129055118110236
 20
-2.2809881889763779
 30
0.0
 10
-1.6186771653543308
 20
-2.2839330708661416
 30
0.0
 10
-1.6186771653543308
 20
-2.2839330708661416
 30
0.0
 10
-1.6186771653543308
 20
-2.2839330708661416
 30
0.0
 10
-1.6186771653543308
 20
-2.2839330708661416
 30
0.0
 10
-1.6242834645669293
 20
-2.2871417322834646
 30
0.0
 10
-1.6242834645669293
 20
-2.2871417322834646
 30
0.0
  0
SPLINE
  5
2E
100
AcDbEntity
  8
Layer 1
 62
   119
100
AcDbSpline
210
0.0
220
0.0
230
1.0
 70
     1
 71
     3
 72
    20
 73
    16
 74
     0
 42
0.0000000001
 43
0.0000000001
 40
0.0
 40
0.0
 40
0.0
 40
0.0
 40
0.25
 40
0.25
 40
0.25
 40
0.25
 40
0.5
 40
0.5
 40
0.5
 40
0.5
 40
0.75
 40
0.75
 40
0.75
 40
0.75
 40
1.0
 40
1.0
 40
1.0
 40
1.0
 10
-2.0149094488188979
 20
-1.0506102362204726
 30
0.0
 10
-2.0149094488188979
 20
-1.0506102362204726
 30
0.0
 10
-1.3656614173228347
 20
-0.6628267716535433
 30
0.0
 10
-1.3656614173228347
 20
-0.6628267716535433
 30
0.0
 10
-1.3656614173228347
 20
-0.6628267716535433
 30
0.0
 10
-1.3656614173228347
 20
-0.6628267716535433
 30
0.0
 10
0.5718622047244095
 20
-0.021740157480315
 30
0.0
 10
0.5718622047244095
 20
-0.021740157480315
 30
0.0
 10
0.5718622047244095
 20
-0.021740157480315
 30
0.0
 10
0.5718622047244095
 20
-0.021740157480315
 30
0.0
 10
-0.0773858267716536
 20
-0.4095236220472441
 30
0.0
 10
-0.0773858267716536
 20
-0.4095236220472441
 30
0.0
 10
-0.0773858267716536
 20
-0.4095236220472441
 30
0.0
 10
-0.0773858267716536
 20
-0.4095236220472441
 30
0.0
 10
-2.0149094488188979
 20
-1.0506102362204726
 30
0.0
 10
-2.0149094488188979
 20
-1.0506102362204726
 30
0.0
  0
SPLINE
  5
2F
100
AcDbEntity
  8
Layer 1
370
     5
100
AcDbSpline
210
0.0
220
0.0
230
1.0
 70
     1
 71
     3
 72
    20
 73
    16
 74
     0
 42
0.0000000001
 43
0.0000000001
 40
0.0
 40
0.0
 40
0.0
 40
0.0
 40
0.25
 40
0.25
 40
0.25
 40
0.25
 40
0.5
 40
0.5
 40
0.5
 40
0.5
 40
0.75
 40
0.75
 40
0.75
 40
0.75
 40
1.0
 40
1.0
 40
1.0
 40
1.0
 10
-2.0149094488188979
 20
-1.0506102362204726
 30
0.0
 10
-2.0149094488188979
 20
-1.0506102362204726
 30
0.0
 10
-1.3656614173228347
 20
-0.6628267716535433
 30
0.0
 10
-1.3656614173228347
 20
-0.6628267716535433
 30
0.0
 10
-1.3656614173228347
 20
-0.6628267716535433
 30
0.0
 10
-1.3656614173228347
 20
-0.6628267716535433
 30
0.0
 10
0.5718622047244095
 20
-0.021740157480315
 30
0.0
 10
0.5718622047244095
 20
-0.021740157480315
 30
0.0
 10
0.5718622047244095
 20
-0.021740157480315
 30
0.0
 10
0.5718622047244095
 20
-0.021740157480315
 30
0.0
 10
-0.0773858267716536
 20
-0.4095236220472441
 30
0.0
 10
-0.0773858267716536
 20
-0.4095236220472441
 30
0.0
 10
-0.0773858267716536
 20
-0.4095236220472441
 30
0.0
 10
-0.0773858267716536
 20
-0.4095236220472441
 30
0.0
 10
-2.0149094488188979
 20
-1.0506102362204726
 30
0.0
 10
-2.0149094488188979
 20
-1.0506102362204726
 30
0.0
  0
SPLINE
  5
30
100
AcDbEntity
  8
Layer 1
 62
   253
100
AcDbSpline
210
0.0
220
0.0
230
1.0
 70
     1
 71
     3
 72
    20
 73
    16
 74
     0
 42
0.0000000001
 43
0.0000000001
 40
0.0
 40
0.0
 40
0.0
 40
0.0
 40
0.25
 40
0.25
 40
0.25
 40
0.25
 40
0.5
 40
0.5
 40
0.5
 40
0.5
 40
0.75
 40
0.75
 40
0.75
 40
0.75
 40
1.0
 40
1.0
 40
1.0
 40
1.0
 10
-0.0773858267716536
 20
-0.4095236220472441
 30
0.0
 10
-0.0773858267716536
 20
-0.4095236220472441
 30
0.0
 10
0.5718622047244095
 20
-0.021740157480315
 30
0.0
 10
0.5718622047244095
 20
-0.021740157480315
 30
0.0
 10
0.5718622047244095
 20
-0.021740157480315
 30
0.0
 10
0.5718622047244095
 20
-0.021740157480315
 30
0.0
 10
2.5093346456692913
 20
-0.6628267716535433
 30
0.0
 10
2.5093346456692913
 20
-0.6628267716535433
 30
0.0
 10
2.5093346456692913
 20
-0.6628267716535433
 30
0.0
 10
2.5093346456692913
 20
-0.6628267716535433
 30
0.0
 10
1.8600866141732284
 20
-1.0506102362204726
 30
0.0
 10
1.8600866141732284
 20
-1.0506102362204726
 30
0.0
 10
1.8600866141732284
 20
-1.0506102362204726
 30
0.0
 10
1.8600866141732284
 20
-1.0506102362204726
 30
0.0
 10
-0.0773858267716536
 20
-0.4095236220472441
 30
0.0
 10
-0.0773858267716536
 20
-0.4095236220472441
 30
0.0
  0
SPLINE
  5
31
100
AcDbEntity
  8
Layer 1
370
     5
100
AcDbSpline
210
0.0
220
0.0
230
1.0
 70
     1
 71
     3
 72
    20
 73
    16
 74
     0
 42
0.0000000001
 43
0.0000000001
 40
0.0
 40
0.0
 40
0.0
 40
0.0
 40
0.25
 40
0.25
 40
0.25
 40
0.25
 40
0.5
 40
0.5
 40
0.5
 40
0.5
 40
0.75
 40
0.75
 40
0.75
 40
0.75
 40
1.0
 40
1.0
 40
1.0
 40
1.0
 10
-0.0773858267716536
 20
-0.4095236220472441
 30
0.0
 10
-0.0773858267716536
 20
-0.4095236220472441
 30
0.0
 10
0.5718622047244095
 20
-0.021740157480315
 30
0.0
 10
0.5718622047244095
 20
-0.021740157480315
 30
0.0
 10
0.5718622047244095
 20
-0.021740157480315
 30
0.0
 10
0.5718622047244095
 20
-0.021740157480315
 30
0.0
 10
2.5093346456692913
 20
-0.6628267716535433
 30
0.0
 10
2.5093346456692913
 20
-0.6628267716535433
 30
0.0
 10
2.5093346456692913
 20
-0.6628267716535433
 30
0.0
 10
2.5093346456692913
 20
-0.6628267716535433
 30
0.0
 10
1.8600866141732284
 20
-1.0506102362204726
 30
0.0
 10
1.8600866141732284
 20
-1.0506102362204726
 30
0.0
 10
1.8600866141732284
 20
-1.0506102362204726
 30
0.0
 10
1.8600866141732284
 20
-1.0506102362204726
 30
0.0
 10
-0.0773858267716536
 20
-0.4095236220472441
 30
0.0
 10
-0.0773858267716536
 20
-0.4095236220472441
 30
0.0
  0
SPLINE
  5
32
100
AcDbEntity
  8
Layer 1
 62
     9
100
AcDbSpline
210
0.0
220
0.0
230
1.0
 70
     1
 71
     3
 72
    20
 73
    16
 74
     0
 42
0.0000000001
 43
0.0000000001
 40
0.0
 40
0.0
 40
0.0
 40
0.0
 40
0.25
 40
0.25
 40
0.25
 40
0.25
 40
0.5
 40
0.5
 40
0.5
 40
0.5
 40
0.75
 40
0.75
 40
0.75
 40
0.75
 40
1.0
 40
1.0
 40
1.0
 40
1.0
 10
1.4000944881889765
 20
-2.2250433070866142
 30
0.0
 10
1.4000944881889765
 20
-2.2250433070866142
 30
0.0
 10
2.0493425196850397
 20
-1.8372598425196851
 30
0.0
 10
2.0493425196850397
 20
-1.8372598425196851
 30
0.0
 10
2.0493425196850397
 20
-1.8372598425196851
 30
0.0
 10
2.0493425196850397
 20
-1.8372598425196851
 30
0.0
 10
2.0493031496062994
 20
-1.8800629921259844
 30
0.0
 10
2.0493031496062994
 20
-1.8800629921259844
 30
0.0
 10
2.0493031496062994
 20
-1.8800629921259844
 30
0.0
 10
2.0493031496062994
 20
-1.8800629921259844
 30
0.0
 10
1.4000551181102363
 20
-2.2678464566929133
 30
0.0
 10
1.4000551181102363
 20
-2.2678464566929133
 30
0.0
 10
1.4000551181102363
 20
-2.2678464566929133
 30
0.0
 10
1.4000551181102363
 20
-2.2678464566929133
 30
0.0
 10
1.4000944881889765
 20
-2.2250433070866142
 30
0.0
 10
1.4000944881889765
 20
-2.2250433070866142
 30
0.0
  0
SPLINE
  5
33
100
AcDbEntity
  8
Layer 1
370
     5
100
AcDbSpline
210
0.0
220
0.0
230
1.0
 70
     1
 71
     3
 72
    20
 73
    16
 74
     0
 42
0.0000000001
 43
0.0000000001
 40
0.0
 40
0.0
 40
0.0
 40
0.0
 40
0.25
 40
0.25
 40
0.25
 40
0.25
 40
0.5
 40
0.5
 40
0.5
 40
0.5
 40
0.75
 40
0.75
 40
0.75
 40
0.75
 40
1.0
 40
1.0
 40
1.0
 40
1.0
 10
1.4000944881889765
 20
-2.2250433070866142
 30
0.0
 10
1.4000944881889765
 20
-2.2250433070866142
 30
0.0
 10
2.0493425196850397
 20
-1.8372598425196851
 30
0.0
 10
2.0493425196850397
 20
-1.8372598425196851
 30
0.0
 10
2.0493425196850397
 20
-1.8372598425196851
 30
0.0
 10
2.0493425196850397
 20
-1.8372598425196851
 30
0.0
 10
2.0493031496062994
 20
-1.8800629921259844
 30
0.0
 10
2.0493031496062994
 20
-1.8800629921259844
 30
0.0
 10
2.0493031496062994
 20
-1.8800629921259844
 30
0.0
 10
2.0493031496062994
 20
-1.8800629921259844
 30
0.0
 10
1.4000551181102363
 20
-2.2678464566929133
 30
0.0
 10
1.4000551181102363
 20
-2.2678464566929133
 30
0.0
 10
1.4000551181102363
 20
-2.2678464566929133
 30
0.0
 10
1.4000551181102363
 20
-2.2678464566929133
 30
0.0
 10
1.4000944881889765
 20
-2.2250433070866142
 30
0.0
 10
1.4000944881889765
 20
-2.2250433070866142
 30
0.0
  0
SPLINE
  5
34
100
AcDbEntity
  8
Layer 1
 62
   253
100
AcDbSpline
210
0.0
220
0.0
230
1.0
 70
     1
 71
     3
 72
    68
 73
    64
 74
     0
 42
0.0000000001
 43
0.0000000001
 40
0.0
 40
0.0
 40
0.0
 40
0.0
 40
0.0625
 40
0.0625
 40
0.0625
 40
0.0625
 40
0.125
 40
0.125
 40
0.125
 40
0.125
 40
0.1875
 40
0.1875
 40
0.1875
 40
0.1875
 40
0.25
 40
0.25
 40
0.25
 40
0.25
 40
0.3125
 40
0.3125
 40
0.3125
 40
0.3125
 40
0.375
 40
0.375
 40
0.375
 40
0.375
 40
0.4375
 40
0.4375
 40
0.4375
 40
0.4375
 40
0.5
 40
0.5
 40
0.5
 40
0.5
 40
0.5625
 40
0.5625
 40
0.5625
 40
0.5625
 40
0.625
 40
0.625
 40
0.625
 40
0.625
 40
0.6875
 40
0.6875
 40
0.6875
 40
0.6875
 40
0.75
 40
0.75
 40
0.75
 40
0.75
 40
0.8125
 40
0.8125
 40
0.8125
 40
0.8125
 40
0.875
 40
0.875
 40
0.875
 40
0.875
 40
0.9375
 40
0.9375
 40
0.9375
 40
0.9375
 40
1.0
 40
1.0
 40
1.0
 40
1.0
 10
1.4000551181102363
 20
-2.2678464566929133
 30
0.0
 10
1.4000551181102363
 20
-2.2678464566929133
 30
0.0
 10
2.0493031496062994
 20
-1.8800629921259844
 30
0.0
 10
2.0493031496062994
 20
-1.8800629921259844
 30
0.0
 10
2.0493031496062994
 20
-1.8800629921259844
 30
0.0
 10
2.0493031496062994
 20
-1.8800629921259844
 30
0.0
 10
2.0561850393700789
 20
-1.8802322834645671
 30
0.0
 10
2.0561850393700789
 20
-1.8802322834645671
 30
0.0
 10
2.0561850393700789
 20
-1.8802322834645671
 30
0.0
 10
2.0561850393700789
 20
-1.8802322834645671
 30
0.0
 10
2.062984251968504
 20
-1.880748031496063
 30
0.0
 10
2.062984251968504
 20
-1.880748031496063
 30
0.0
 10
2.062984251968504
 20
-1.880748031496063
 30
0.0
 10
2.062984251968504
 20
-1.880748031496063
 30
0.0
 10
2.0696811023622046
 20
-1.8815905511811024
 30
0.0
 10
2.0696811023622046
 20
-1.8815905511811024
 30
0.0
 10
2.0696811023622046
 20
-1.8815905511811024
 30
0.0
 10
2.0696811023622046
 20
-1.8815905511811024
 30
0.0
 10
2.0762755905511812
 20
-1.8827677165354331
 30
0.0
 10
2.0762755905511812
 20
-1.8827677165354331
 30
0.0
 10
2.0762755905511812
 20
-1.8827677165354331
 30
0.0
 10
2.0762755905511812
 20
-1.8827677165354331
 30
0.0
 10
2.0827480314960631
 20
-1.8842519685039372
 30
0.0
 10
2.0827480314960631
 20
-1.8842519685039372
 30
0.0
 10
2.0827480314960631
 20
-1.8842519685039372
 30
0.0
 10
2.0827480314960631
 20
-1.8842519685039372
 30
0.0
 10
2.0891023622047245
 20
-1.8860511811023624
 30
0.0
 10
2.0891023622047245
 20
-1.8860511811023624
 30
0.0
 10
2.0891023622047245
 20
-1.8860511811023624
 30
0.0
 10
2.0891023622047245
 20
-1.8860511811023624
 30
0.0
 10
2.0953228346456694
 20
-1.8881456692913388
 30
0.0
 10
2.0953228346456694
 20
-1.8881456692913388
 30
0.0
 10
2.0953228346456694
 20
-1.8881456692913388
 30
0.0
 10
2.0953228346456694
 20
-1.8881456692913388
 30
0.0
 10
1.4460748031496065
 20
-2.2759291338582677
 30
0.0
 10
1.4460748031496065
 20
-2.2759291338582677
 30
0.0
 10
1.4460748031496065
 20
-2.2759291338582677
 30
0.0
 10
1.4460748031496065
 20
-2.2759291338582677
 30
0.0
 10
1.4398543307086615
 20
-2.2738346456692913
 30
0.0
 10
1.4398543307086615
 20
-2.2738346456692913
 30
0.0
 10
1.4398543307086615
 20
-2.2738346456692913
 30
0.0
 10
1.4398543307086615
 20
-2.2738346456692913
 30
0.0
 10
1.4335
 20
-2.2720354330708661
 30
0.0
 10
1.4335
 20
-2.2720354330708661
 30
0.0
 10
1.4335
 20
-2.2720354330708661
 30
0.0
 10
1.4335
 20
-2.2720354330708661
 30
0.0
 10
1.4270275590551182
 20
-2.2705511811023622
 30
0.0
 10
1.4270275590551182
 20
-2.2705511811023622
 30
0.0
 10
1.4270275590551182
 20
-2.2705511811023622
 30
0.0
 10
1.4270275590551182
 20
-2.2705511811023622
 30
0.0
 10
1.4204330708661417
 20
-2.2693740157480318
 30
0.0
 10
1.4204330708661417
 20
-2.2693740157480318
 30
0.0
 10
1.4204330708661417
 20
-2.2693740157480318
 30
0.0
 10
1.4204330708661417
 20
-2.2693740157480318
 30
0.0
 10
1.4137362204724411
 20
-2.2685314960629923
 30
0.0
 10
1.4137362204724411
 20
-2.2685314960629923
 30
0.0
 10
1.4137362204724411
 20
-2.2685314960629923
 30
0.0
 10
1.4137362204724411
 20
-2.2685314960629923
 30
0.0
 10
1.4069370078740158
 20
-2.268015748031496
 30
0.0
 10
1.4069370078740158
 20
-2.268015748031496
 30
0.0
 10
1.4069370078740158
 20
-2.268015748031496
 30
0.0
 10
1.4069370078740158
 20
-2.268015748031496
 30
0.0
 10
1.4000551181102363
 20
-2.2678464566929133
 30
0.0
 10
1.4000551181102363
 20
-2.2678464566929133
 30
0.0
  0
SPLINE
  5
35
100
AcDbEntity
  8
Layer 1
 62
     9
100
AcDbSpline
210
0.0
220
0.0
230
1.0
 70
     1
 71
     3
 72
    68
 73
    64
 74
     0
 42
0.0000000001
 43
0.0000000001
 40
0.0
 40
0.0
 40
0.0
 40
0.0
 40
0.0625
 40
0.0625
 40
0.0625
 40
0.0625
 40
0.125
 40
0.125
 40
0.125
 40
0.125
 40
0.1875
 40
0.1875
 40
0.1875
 40
0.1875
 40
0.25
 40
0.25
 40
0.25
 40
0.25
 40
0.3125
 40
0.3125
 40
0.3125
 40
0.3125
 40
0.375
 40
0.375
 40
0.375
 40
0.375
 40
0.4375
 40
0.4375
 40
0.4375
 40
0.4375
 40
0.5
 40
0.5
 40
0.5
 40
0.5
 40
0.5625
 40
0.5625
 40
0.5625
 40
0.5625
 40
0.625
 40
0.625
 40
0.625
 40
0.625
 40
0.6875
 40
0.6875
 40
0.6875
 40
0.6875
 40
0.75
 40
0.75
 40
0.75
 40
0.75
 40
0.8125
 40
0.8125
 40
0.8125
 40
0.8125
 40
0.875
 40
0.875
 40
0.875
 40
0.875
 40
0.9375
 40
0.9375
 40
0.9375
 40
0.9375
 40
1.0
 40
1.0
 40
1.0
 40
1.0
 10
1.4460748031496065
 20
-2.2759291338582677
 30
0.0
 10
1.4460748031496065
 20
-2.2759291338582677
 30
0.0
 10
2.0953228346456694
 20
-1.8881456692913388
 30
0.0
 10
2.0953228346456694
 20
-1.8881456692913388
 30
0.0
 10
2.0953228346456694
 20
-1.8881456692913388
 30
0.0
 10
2.0953228346456694
 20
-1.8881456692913388
 30
0.0
 10
2.1014055118110235
 20
-1.8905393700787403
 30
0.0
 10
2.1014055118110235
 20
-1.8905393700787403
 30
0.0
 10
2.1014055118110235
 20
-1.8905393700787403
 30
0.0
 10
2.1014055118110235
 20
-1.8905393700787403
 30
0.0
 10
2.1073307086614173
 20
-1.893204724409449
 30
0.0
 10
2.1073307086614173
 20
-1.893204724409449
 30
0.0
 10
2.1073307086614173
 20
-1.893204724409449
 30
0.0
 10
2.1073307086614173
 20
-1.893204724409449
 30
0.0
 10
2.1131023622047245
 20
-1.8961496062992127
 30
0.0
 10
2.1131023622047245
 20
-1.8961496062992127
 30
0.0
 10
2.1131023622047245
 20
-1.8961496062992127
 30
0.0
 10
2.1131023622047245
 20
-1.8961496062992127
 30
0.0
 10
2.1187086614173229
 20
-1.8993582677165355
 30
0.0
 10
2.1187086614173229
 20
-1.8993582677165355
 30
0.0
 10
2.1187086614173229
 20
-1.8993582677165355
 30
0.0
 10
2.1187086614173229
 20
-1.8993582677165355
 30
0.0
 10
2.1241456692913387
 20
-1.9028307086614173
 30
0.0
 10
2.1241456692913387
 20
-1.9028307086614173
 30
0.0
 10
2.1241456692913387
 20
-1.9028307086614173
 30
0.0
 10
2.1241456692913387
 20
-1.9028307086614173
 30
0.0
 10
2.1293897637795278
 20
-1.9065472440944882
 30
0.0
 10
2.1293897637795278
 20
-1.9065472440944882
 30
0.0
 10
2.1293897637795278
 20
-1.9065472440944882
 30
0.0
 10
2.1293897637795278
 20
-1.9065472440944882
 30
0.0
 10
2.134452755905512
 20
-1.9105078740157482
 30
0.0
 10
2.134452755905512
 20
-1.9105078740157482
 30
0.0
 10
2.134452755905512
 20
-1.9105078740157482
 30
0.0
 10
2.134452755905512
 20
-1.9105078740157482
 30
0.0
 10
1.4852047244094488
 20
-2.2982913385826773
 30
0.0
 10
1.4852047244094488
 20
-2.2982913385826773
 30
0.0
 10
1.4852047244094488
 20
-2.2982913385826773
 30
0.0
 10
1.4852047244094488
 20
-2.2982913385826773
 30
0.0
 10
1.4801417322834647
 20
-2.2943307086614175
 30
0.0
 10
1.4801417322834647
 20
-2.2943307086614175
 30
0.0
 10
1.4801417322834647
 20
-2.2943307086614175
 30
0.0
 10
1.4801417322834647
 20
-2.2943307086614175
 30
0.0
 10
1.4748976377952756
 20
-2.2906141732283465
 30
0.0
 10
1.4748976377952756
 20
-2.2906141732283465
 30
0.0
 10
1.4748976377952756
 20
-2.2906141732283465
 30
0.0
 10
1.4748976377952756
 20
-2.2906141732283465
 30
0.0
 10
1.4694606299212598
 20
-2.2871417322834646
 30
0.0
 10
1.4694606299212598
 20
-2.2871417322834646
 30
0.0
 10
1.4694606299212598
 20
-2.2871417322834646
 30
0.0
 10
1.4694606299212598
 20
-2.2871417322834646
 30
0.0
 10
1.4638543307086616
 20
-2.2839330708661416
 30
0.0
 10
1.4638543307086616
 20
-2.2839330708661416
 30
0.0
 10
1.4638543307086616
 20
-2.2839330708661416
 30
0.0
 10
1.4638543307086616
 20
-2.2839330708661416
 30
0.0
 10
1.4580826771653543
 20
-2.2809881889763779
 30
0.0
 10
1.4580826771653543
 20
-2.2809881889763779
 30
0.0
 10
1.4580826771653543
 20
-2.2809881889763779
 30
0.0
 10
1.4580826771653543
 20
-2.2809881889763779
 30
0.0
 10
1.4521574803149606
 20
-2.2783228346456692
 30
0.0
 10
1.4521574803149606
 20
-2.2783228346456692
 30
0.0
 10
1.4521574803149606
 20
-2.2783228346456692
 30
0.0
 10
1.4521574803149606
 20
-2.2783228346456692
 30
0.0
 10
1.4460748031496065
 20
-2.2759291338582677
 30
0.0
 10
1.4460748031496065
 20
-2.2759291338582677
 30
0.0
  0
SPLINE
  5
36
100
AcDbEntity
  8
Layer 1
 62
     9
100
AcDbSpline
210
0.0
220
0.0
230
1.0
 70
     1
 71
     3
 72
    68
 73
    64
 74
     0
 42
0.0000000001
 43
0.0000000001
 40
0.0
 40
0.0
 40
0.0
 40
0.0
 40
0.0625
 40
0.0625
 40
0.0625
 40
0.0625
 40
0.125
 40
0.125
 40
0.125
 40
0.125
 40
0.1875
 40
0.1875
 40
0.1875
 40
0.1875
 40
0.25
 40
0.25
 40
0.25
 40
0.25
 40
0.3125
 40
0.3125
 40
0.3125
 40
0.3125
 40
0.375
 40
0.375
 40
0.375
 40
0.375
 40
0.4375
 40
0.4375
 40
0.4375
 40
0.4375
 40
0.5
 40
0.5
 40
0.5
 40
0.5
 40
0.5625
 40
0.5625
 40
0.5625
 40
0.5625
 40
0.625
 40
0.625
 40
0.625
 40
0.625
 40
0.6875
 40
0.6875
 40
0.6875
 40
0.6875
 40
0.75
 40
0.75
 40
0.75
 40
0.75
 40
0.8125
 40
0.8125
 40
0.8125
 40
0.8125
 40
0.875
 40
0.875
 40
0.875
 40
0.875
 40
0.9375
 40
0.9375
 40
0.9375
 40
0.9375
 40
1.0
 40
1.0
 40
1.0
 40
1.0
 10
1.4852047244094488
 20
-2.2982913385826773
 30
0.0
 10
1.4852047244094488
 20
-2.2982913385826773
 30
0.0
 10
2.134452755905512
 20
-1.9105078740157482
 30
0.0
 10
2.134452755905512
 20
-1.9105078740157482
 30
0.0
 10
2.134452755905512
 20
-1.9105078740157482
 30
0.0
 10
2.134452755905512
 20
-1.9105078740157482
 30
0.0
 10
2.1393110236220472
 20
-1.914696850393701
 30
0.0
 10
2.1393110236220472
 20
-1.914696850393701
 30
0.0
 10
2.1393110236220472
 20
-1.914696850393701
 30
0.0
 10
2.1393110236220472
 20
-1.914696850393701
 30
0.0
 10
2.1439645669291338
 20
-1.9191181102362205
 30
0.0
 10
2.1439645669291338
 20
-1.9191181102362205
 30
0.0
 10
2.1439645669291338
 20
-1.9191181102362205
 30
0.0
 10
2.1439645669291338
 20
-1.9191181102362205
 30
0.0
 10
2.1483937007874014
 20
-1.9237440944881889
 30
0.0
 10
2.1483937007874014
 20
-1.9237440944881889
 30
0.0
 10
2.1483937007874014
 20
-1.9237440944881889
 30
0.0
 10
2.1483937007874014
 20
-1.9237440944881889
 30
0.0
 10
2.1526023622047243
 20
-1.9285826771653545
 30
0.0
 10
2.1526023622047243
 20
-1.9285826771653545
 30
0.0
 10
2.1526023622047243
 20
-1.9285826771653545
 30
0.0
 10
2.1526023622047243
 20
-1.9285826771653545
 30
0.0
 10
2.1565748031496064
 20
-1.9336141732283465
 30
0.0
 10
2.1565748031496064
 20
-1.9336141732283465
 30
0.0
 10
2.1565748031496064
 20
-1.9336141732283465
 30
0.0
 10
2.1565748031496064
 20
-1.9336141732283465
 30
0.0
 10
2.1603110236220475
 20
-1.9388464566929136
 30
0.0
 10
2.1603110236220475
 20
-1.9388464566929136
 30
0.0
 10
2.1603110236220475
 20
-1.9388464566929136
 30
0.0
 10
2.1603110236220475
 20
-1.9388464566929136
 30
0.0
 10
2.1637874015748033
 20
-1.944251968503937
 30
0.0
 10
2.1637874015748033
 20
-1.944251968503937
 30
0.0
 10
2.1637874015748033
 20
-1.944251968503937
 30
0.0
 10
2.1637874015748033
 20
-1.944251968503937
 30
0.0
 10
1.5145393700787402
 20
-2.3320354330708661
 30
0.0
 10
1.5145393700787402
 20
-2.3320354330708661
 30
0.0
 10
1.5145393700787402
 20
-2.3320354330708661
 30
0.0
 10
1.5145393700787402
 20
-2.3320354330708661
 30
0.0
 10
1.5110629921259844
 20
-2.3266299212598427
 30
0.0
 10
1.5110629921259844
 20
-2.3266299212598427
 30
0.0
 10
1.5110629921259844
 20
-2.3266299212598427
 30
0.0
 10
1.5110629921259844
 20
-2.3266299212598427
 30
0.0
 10
1.5073267716535435
 20
-2.3213976377952759
 30
0.0
 10
1.5073267716535435
 20
-2.3213976377952759
 30
0.0
 10
1.5073267716535435
 20
-2.3213976377952759
 30
0.0
 10
1.5073267716535435
 20
-2.3213976377952759
 30
0.0
 10
1.5033543307086614
 20
-2.3163661417322836
 30
0.0
 10
1.5033543307086614
 20
-2.3163661417322836
 30
0.0
 10
1.5033543307086614
 20
-2.3163661417322836
 30
0.0
 10
1.5033543307086614
 20
-2.3163661417322836
 30
0.0
 10
1.4991456692913387
 20
-2.3115275590551181
 30
0.0
 10
1.4991456692913387
 20
-2.3115275590551181
 30
0.0
 10
1.4991456692913387
 20
-2.3115275590551181
 30
0.0
 10
1.4991456692913387
 20
-2.3115275590551181
 30
0.0
 10
1.4947165354330709
 20
-2.3069015748031498
 30
0.0
 10
1.4947165354330709
 20
-2.3069015748031498
 30
0.0
 10
1.4947165354330709
 20
-2.3069015748031498
 30
0.0
 10
1.4947165354330709
 20
-2.3069015748031498
 30
0.0
 10
1.4900629921259843
 20
-2.3024803149606301
 30
0.0
 10
1.4900629921259843
 20
-2.3024803149606301
 30
0.0
 10
1.4900629921259843
 20
-2.3024803149606301
 30
0.0
 10
1.4900629921259843
 20
-2.3024803149606301
 30
0.0
 10
1.4852047244094488
 20
-2.2982913385826773
 30
0.0
 10
1.4852047244094488
 20
-2.2982913385826773
 30
0.0
  0
SPLINE
  5
37
100
AcDbEntity
  8
Layer 1
 62
     9
100
AcDbSpline
210
0.0
220
0.0
230
1.0
 70
     1
 71
     3
 72
    68
 73
    64
 74
     0
 42
0.0000000001
 43
0.0000000001
 40
0.0
 40
0.0
 40
0.0
 40
0.0
 40
0.0625
 40
0.0625
 40
0.0625
 40
0.0625
 40
0.125
 40
0.125
 40
0.125
 40
0.125
 40
0.1875
 40
0.1875
 40
0.1875
 40
0.1875
 40
0.25
 40
0.25
 40
0.25
 40
0.25
 40
0.3125
 40
0.3125
 40
0.3125
 40
0.3125
 40
0.375
 40
0.375
 40
0.375
 40
0.375
 40
0.4375
 40
0.4375
 40
0.4375
 40
0.4375
 40
0.5
 40
0.5
 40
0.5
 40
0.5
 40
0.5625
 40
0.5625
 40
0.5625
 40
0.5625
 40
0.625
 40
0.625
 40
0.625
 40
0.625
 40
0.6875
 40
0.6875
 40
0.6875
 40
0.6875
 40
0.75
 40
0.75
 40
0.75
 40
0.75
 40
0.8125
 40
0.8125
 40
0.8125
 40
0.8125
 40
0.875
 40
0.875
 40
0.875
 40
0.875
 40
0.9375
 40
0.9375
 40
0.9375
 40
0.9375
 40
1.0
 40
1.0
 40
1.0
 40
1.0
 10
1.5145393700787402
 20
-2.3320354330708661
 30
0.0
 10
1.5145393700787402
 20
-2.3320354330708661
 30
0.0
 10
2.1637874015748033
 20
-1.944251968503937
 30
0.0
 10
2.1637874015748033
 20
-1.944251968503937
 30
0.0
 10
2.1637874015748033
 20
-1.944251968503937
 30
0.0
 10
2.1637874015748033
 20
-1.944251968503937
 30
0.0
 10
2.1670118110236221
 20
-1.9498385826771654
 30
0.0
 10
2.1670118110236221
 20
-1.9498385826771654
 30
0.0
 10
2.1670118110236221
 20
-1.9498385826771654
 30
0.0
 10
2.1670118110236221
 20
-1.9498385826771654
 30
0.0
 10
2.169968503937008
 20
-1.9555866141732283
 30
0.0
 10
2.169968503937008
 20
-1.9555866141732283
 30
0.0
 10
2.169968503937008
 20
-1.9555866141732283
 30
0.0
 10
2.169968503937008
 20
-1.9555866141732283
 30
0.0
 10
2.1726574803149608
 20
-1.9614960629921261
 30
0.0
 10
2.1726574803149608
 20
-1.9614960629921261
 30
0.0
 10
2.1726574803149608
 20
-1.9614960629921261
 30
0.0
 10
2.1726574803149608
 20
-1.9614960629921261
 30
0.0
 10
2.1750511811023623
 20
-1.9675472440944883
 30
0.0
 10
2.1750511811023623
 20
-1.9675472440944883
 30
0.0
 10
2.1750511811023623
 20
-1.9675472440944883
 30
0.0
 10
2.1750511811023623
 20
-1.9675472440944883
 30
0.0
 10
2.1771574803149609
 20
-1.973744094488189
 30
0.0
 10
2.1771574803149609
 20
-1.973744094488189
 30
0.0
 10
2.1771574803149609
 20
-1.973744094488189
 30
0.0
 10
2.1771574803149609
 20
-1.973744094488189
 30
0.0
 10
2.1789566929133861
 20
-1.9800669291338584
 30
0.0
 10
2.1789566929133861
 20
-1.9800669291338584
 30
0.0
 10
2.1789566929133861
 20
-1.9800669291338584
 30
0.0
 10
2.1789566929133861
 20
-1.9800669291338584
 30
0.0
 10
2.1804566929133857
 20
-1.9865236220472442
 30
0.0
 10
2.1804566929133857
 20
-1.9865236220472442
 30
0.0
 10
2.1804566929133857
 20
-1.9865236220472442
 30
0.0
 10
2.1804566929133857
 20
-1.9865236220472442
 30
0.0
 10
1.5312086614173228
 20
-2.3743070866141731
 30
0.0
 10
1.5312086614173228
 20
-2.3743070866141731
 30
0.0
 10
1.5312086614173228
 20
-2.3743070866141731
 30
0.0
 10
1.5312086614173228
 20
-2.3743070866141731
 30
0.0
 10
1.529708661417323
 20
-2.3678503937007873
 30
0.0
 10
1.529708661417323
 20
-2.3678503937007873
 30
0.0
 10
1.529708661417323
 20
-2.3678503937007873
 30
0.0
 10
1.529708661417323
 20
-2.3678503937007873
 30
0.0
 10
1.5279094488188978
 20
-2.3615275590551184
 30
0.0
 10
1.5279094488188978
 20
-2.3615275590551184
 30
0.0
 10
1.5279094488188978
 20
-2.3615275590551184
 30
0.0
 10
1.5279094488188978
 20
-2.3615275590551184
 30
0.0
 10
1.5258031496062994
 20
-2.3553307086614175
 30
0.0
 10
1.5258031496062994
 20
-2.3553307086614175
 30
0.0
 10
1.5258031496062994
 20
-2.3553307086614175
 30
0.0
 10
1.5258031496062994
 20
-2.3553307086614175
 30
0.0
 10
1.5234094488188976
 20
-2.3492795275590552
 30
0.0
 10
1.5234094488188976
 20
-2.3492795275590552
 30
0.0
 10
1.5234094488188976
 20
-2.3492795275590552
 30
0.0
 10
1.5234094488188976
 20
-2.3492795275590552
 30
0.0
 10
1.5207204724409449
 20
-2.3433700787401577
 30
0.0
 10
1.5207204724409449
 20
-2.3433700787401577
 30
0.0
 10
1.5207204724409449
 20
-2.3433700787401577
 30
0.0
 10
1.5207204724409449
 20
-2.3433700787401577
 30
0.0
 10
1.5177637795275591
 20
-2.3376220472440945
 30
0.0
 10
1.5177637795275591
 20
-2.3376220472440945
 30
0.0
 10
1.5177637795275591
 20
-2.3376220472440945
 30
0.0
 10
1.5177637795275591
 20
-2.3376220472440945
 30
0.0
 10
1.5145393700787402
 20
-2.3320354330708661
 30
0.0
 10
1.5145393700787402
 20
-2.3320354330708661
 30
0.0
  0
SPLINE
  5
38
100
AcDbEntity
  8
Layer 1
 62
     9
100
AcDbSpline
210
0.0
220
0.0
230
1.0
 70
     1
 71
     3
 72
    68
 73
    64
 74
     0
 42
0.0000000001
 43
0.0000000001
 40
0.0
 40
0.0
 40
0.0
 40
0.0
 40
0.0625
 40
0.0625
 40
0.0625
 40
0.0625
 40
0.125
 40
0.125
 40
0.125
 40
0.125
 40
0.1875
 40
0.1875
 40
0.1875
 40
0.1875
 40
0.25
 40
0.25
 40
0.25
 40
0.25
 40
0.3125
 40
0.3125
 40
0.3125
 40
0.3125
 40
0.375
 40
0.375
 40
0.375
 40
0.375
 40
0.4375
 40
0.4375
 40
0.4375
 40
0.4375
 40
0.5
 40
0.5
 40
0.5
 40
0.5
 40
0.5625
 40
0.5625
 40
0.5625
 40
0.5625
 40
0.625
 40
0.625
 40
0.625
 40
0.625
 40
0.6875
 40
0.6875
 40
0.6875
 40
0.6875
 40
0.75
 40
0.75
 40
0.75
 40
0.75
 40
0.8125
 40
0.8125
 40
0.8125
 40
0.8125
 40
0.875
 40
0.875
 40
0.875
 40
0.875
 40
0.9375
 40
0.9375
 40
0.9375
 40
0.9375
 40
1.0
 40
1.0
 40
1.0
 40
1.0
 10
1.5312086614173228
 20
-2.3743070866141731
 30
0.0
 10
1.5312086614173228
 20
-2.3743070866141731
 30
0.0
 10
2.1804566929133857
 20
-1.9865236220472442
 30
0.0
 10
2.1804566929133857
 20
-1.9865236220472442
 30
0.0
 10
2.1804566929133857
 20
-1.9865236220472442
 30
0.0
 10
2.1804566929133857
 20
-1.9865236220472442
 30
0.0
 10
2.1816338582677166
 20
-1.9930866141732284
 30
0.0
 10
2.1816338582677166
 20
-1.9930866141732284
 30
0.0
 10
2.1816338582677166
 20
-1.9930866141732284
 30
0.0
 10
2.1816338582677166
 20
-1.9930866141732284
 30
0.0
 10
2.1824881889763779
 20
-1.9997598425196852
 30
0.0
 10
2.1824881889763779
 20
-1.9997598425196852
 30
0.0
 10
2.1824881889763779
 20
-1.9997598425196852
 30
0.0
 10
2.1824881889763779
 20
-1.9997598425196852
 30
0.0
 10
2.1830039370078742
 20
-2.0065314960629923
 30
0.0
 10
2.1830039370078742
 20
-2.0065314960629923
 30
0.0
 10
2.1830039370078742
 20
-2.0065314960629923
 30
0.0
 10
2.1830039370078742
 20
-2.0065314960629923
 30
0.0
 10
2.1831811023622048
 20
-2.0133976377952756
 30
0.0
 10
2.1831811023622048
 20
-2.0133976377952756
 30
0.0
 10
2.1831811023622048
 20
-2.0133976377952756
 30
0.0
 10
2.1831811023622048
 20
-2.0133976377952756
 30
0.0
 10
2.1830039370078742
 20
-2.0202519685039371
 30
0.0
 10
2.1830039370078742
 20
-2.0202519685039371
 30
0.0
 10
2.1830039370078742
 20
-2.0202519685039371
 30
0.0
 10
2.1830039370078742
 20
-2.0202519685039371
 30
0.0
 10
2.1824881889763779
 20
-2.0270236220472442
 30
0.0
 10
2.1824881889763779
 20
-2.0270236220472442
 30
0.0
 10
2.1824881889763779
 20
-2.0270236220472442
 30
0.0
 10
2.1824881889763779
 20
-2.0270236220472442
 30
0.0
 10
2.1816338582677166
 20
-2.0336929133858268
 30
0.0
 10
2.1816338582677166
 20
-2.0336929133858268
 30
0.0
 10
2.1816338582677166
 20
-2.0336929133858268
 30
0.0
 10
2.1816338582677166
 20
-2.0336929133858268
 30
0.0
 10
1.5323858267716537
 20
-2.4214763779527559
 30
0.0
 10
1.5323858267716537
 20
-2.4214763779527559
 30
0.0
 10
1.5323858267716537
 20
-2.4214763779527559
 30
0.0
 10
1.5323858267716537
 20
-2.4214763779527559
 30
0.0
 10
1.5332401574803149
 20
-2.4148070866141733
 30
0.0
 10
1.5332401574803149
 20
-2.4148070866141733
 30
0.0
 10
1.5332401574803149
 20
-2.4148070866141733
 30
0.0
 10
1.5332401574803149
 20
-2.4148070866141733
 30
0.0
 10
1.5337559055118111
 20
-2.4080354330708662
 30
0.0
 10
1.5337559055118111
 20
-2.4080354330708662
 30
0.0
 10
1.5337559055118111
 20
-2.4080354330708662
 30
0.0
 10
1.5337559055118111
 20
-2.4080354330708662
 30
0.0
 10
1.5339330708661418
 20
-2.4011811023622047
 30
0.0
 10
1.5339330708661418
 20
-2.4011811023622047
 30
0.0
 10
1.5339330708661418
 20
-2.4011811023622047
 30
0.0
 10
1.5339330708661418
 20
-2.4011811023622047
 30
0.0
 10
1.5337559055118111
 20
-2.3943149606299214
 30
0.0
 10
1.5337559055118111
 20
-2.3943149606299214
 30
0.0
 10
1.5337559055118111
 20
-2.3943149606299214
 30
0.0
 10
1.5337559055118111
 20
-2.3943149606299214
 30
0.0
 10
1.5332401574803149
 20
-2.3875433070866143
 30
0.0
 10
1.5332401574803149
 20
-2.3875433070866143
 30
0.0
 10
1.5332401574803149
 20
-2.3875433070866143
 30
0.0
 10
1.5332401574803149
 20
-2.3875433070866143
 30
0.0
 10
1.5323858267716537
 20
-2.3808700787401578
 30
0.0
 10
1.5323858267716537
 20
-2.3808700787401578
 30
0.0
 10
1.5323858267716537
 20
-2.3808700787401578
 30
0.0
 10
1.5323858267716537
 20
-2.3808700787401578
 30
0.0
 10
1.5312086614173228
 20
-2.3743070866141731
 30
0.0
 10
1.5312086614173228
 20
-2.3743070866141731
 30
0.0
  0
SPLINE
  5
39
100
AcDbEntity
  8
Layer 1
 62
     9
100
AcDbSpline
210
0.0
220
0.0
230
1.0
 70
     1
 71
     3
 72
    68
 73
    64
 74
     0
 42
0.0000000001
 43
0.0000000001
 40
0.0
 40
0.0
 40
0.0
 40
0.0
 40
0.0625
 40
0.0625
 40
0.0625
 40
0.0625
 40
0.125
 40
0.125
 40
0.125
 40
0.125
 40
0.1875
 40
0.1875
 40
0.1875
 40
0.1875
 40
0.25
 40
0.25
 40
0.25
 40
0.25
 40
0.3125
 40
0.3125
 40
0.3125
 40
0.3125
 40
0.375
 40
0.375
 40
0.375
 40
0.375
 40
0.4375
 40
0.4375
 40
0.4375
 40
0.4375
 40
0.5
 40
0.5
 40
0.5
 40
0.5
 40
0.5625
 40
0.5625
 40
0.5625
 40
0.5625
 40
0.625
 40
0.625
 40
0.625
 40
0.625
 40
0.6875
 40
0.6875
 40
0.6875
 40
0.6875
 40
0.75
 40
0.75
 40
0.75
 40
0.75
 40
0.8125
 40
0.8125
 40
0.8125
 40
0.8125
 40
0.875
 40
0.875
 40
0.875
 40
0.875
 40
0.9375
 40
0.9375
 40
0.9375
 40
0.9375
 40
1.0
 40
1.0
 40
1.0
 40
1.0
 10
1.5323858267716537
 20
-2.4214763779527559
 30
0.0
 10
1.5323858267716537
 20
-2.4214763779527559
 30
0.0
 10
2.1816338582677166
 20
-2.0336929133858268
 30
0.0
 10
2.1816338582677166
 20
-2.0336929133858268
 30
0.0
 10
2.1816338582677166
 20
-2.0336929133858268
 30
0.0
 10
2.1816338582677166
 20
-2.0336929133858268
 30
0.0
 10
2.1804566929133857
 20
-2.040259842519685
 30
0.0
 10
2.1804566929133857
 20
-2.040259842519685
 30
0.0
 10
2.1804566929133857
 20
-2.040259842519685
 30
0.0
 10
2.1804566929133857
 20
-2.040259842519685
 30
0.0
 10
2.1789566929133861
 20
-2.0467086614173229
 30
0.0
 10
2.1789566929133861
 20
-2.0467086614173229
 30
0.0
 10
2.1789566929133861
 20
-2.0467086614173229
 30
0.0
 10
2.1789566929133861
 20
-2.0467086614173229
 30
0.0
 10
2.1771574803149609
 20
-2.0530354330708662
 30
0.0
 10
2.1771574803149609
 20
-2.0530354330708662
 30
0.0
 10
2.1771574803149609
 20
-2.0530354330708662
 30
0.0
 10
2.1771574803149609
 20
-2.0530354330708662
 30
0.0
 10
2.1750511811023623
 20
-2.0592322834645671
 30
0.0
 10
2.1750511811023623
 20
-2.0592322834645671
 30
0.0
 10
2.1750511811023623
 20
-2.0592322834645671
 30
0.0
 10
2.1750511811023623
 20
-2.0592322834645671
 30
0.0
 10
2.1726574803149608
 20
-2.0652913385826772
 30
0.0
 10
2.1726574803149608
 20
-2.0652913385826772
 30
0.0
 10
2.1726574803149608
 20
-2.0652913385826772
 30
0.0
 10
2.1726574803149608
 20
-2.0652913385826772
 30
0.0
 10
2.169968503937008
 20
-2.0711929133858269
 30
0.0
 10
2.169968503937008
 20
-2.0711929133858269
 30
0.0
 10
2.169968503937008
 20
-2.0711929133858269
 30
0.0
 10
2.169968503937008
 20
-2.0711929133858269
 30
0.0
 10
2.1670118110236221
 20
-2.0769409448818896
 30
0.0
 10
2.1670118110236221
 20
-2.0769409448818896
 30
0.0
 10
2.1670118110236221
 20
-2.0769409448818896
 30
0.0
 10
2.1670118110236221
 20
-2.0769409448818896
 30
0.0
 10
1.5177637795275591
 20
-2.4647244094488192
 30
0.0
 10
1.5177637795275591
 20
-2.4647244094488192
 30
0.0
 10
1.5177637795275591
 20
-2.4647244094488192
 30
0.0
 10
1.5177637795275591
 20
-2.4647244094488192
 30
0.0
 10
1.5207204724409449
 20
-2.458976377952756
 30
0.0
 10
1.5207204724409449
 20
-2.458976377952756
 30
0.0
 10
1.5207204724409449
 20
-2.458976377952756
 30
0.0
 10
1.5207204724409449
 20
-2.458976377952756
 30
0.0
 10
1.5234094488188976
 20
-2.4530748031496064
 30
0.0
 10
1.5234094488188976
 20
-2.4530748031496064
 30
0.0
 10
1.5234094488188976
 20
-2.4530748031496064
 30
0.0
 10
1.5234094488188976
 20
-2.4530748031496064
 30
0.0
 10
1.5258031496062994
 20
-2.4470157480314962
 30
0.0
 10
1.5258031496062994
 20
-2.4470157480314962
 30
0.0
 10
1.5258031496062994
 20
-2.4470157480314962
 30
0.0
 10
1.5258031496062994
 20
-2.4470157480314962
 30
0.0
 10
1.5279094488188978
 20
-2.4408188976377954
 30
0.0
 10
1.5279094488188978
 20
-2.4408188976377954
 30
0.0
 10
1.5279094488188978
 20
-2.4408188976377954
 30
0.0
 10
1.5279094488188978
 20
-2.4408188976377954
 30
0.0
 10
1.529708661417323
 20
-2.434492125984252
 30
0.0
 10
1.529708661417323
 20
-2.434492125984252
 30
0.0
 10
1.529708661417323
 20
-2.434492125984252
 30
0.0
 10
1.529708661417323
 20
-2.434492125984252
 30
0.0
 10
1.5312086614173228
 20
-2.4280433070866141
 30
0.0
 10
1.5312086614173228
 20
-2.4280433070866141
 30
0.0
 10
1.5312086614173228
 20
-2.4280433070866141
 30
0.0
 10
1.5312086614173228
 20
-2.4280433070866141
 30
0.0
 10
1.5323858267716537
 20
-2.4214763779527559
 30
0.0
 10
1.5323858267716537
 20
-2.4214763779527559
 30
0.0
  0
SPLINE
  5
3A
100
AcDbEntity
  8
Layer 1
 62
     9
100
AcDbSpline
210
0.0
220
0.0
230
1.0
 70
     1
 71
     3
 72
    68
 73
    64
 74
     0
 42
0.0000000001
 43
0.0000000001
 40
0.0
 40
0.0
 40
0.0
 40
0.0
 40
0.0625
 40
0.0625
 40
0.0625
 40
0.0625
 40
0.125
 40
0.125
 40
0.125
 40
0.125
 40
0.1875
 40
0.1875
 40
0.1875
 40
0.1875
 40
0.25
 40
0.25
 40
0.25
 40
0.25
 40
0.3125
 40
0.3125
 40
0.3125
 40
0.3125
 40
0.375
 40
0.375
 40
0.375
 40
0.375
 40
0.4375
 40
0.4375
 40
0.4375
 40
0.4375
 40
0.5
 40
0.5
 40
0.5
 40
0.5
 40
0.5625
 40
0.5625
 40
0.5625
 40
0.5625
 40
0.625
 40
0.625
 40
0.625
 40
0.625
 40
0.6875
 40
0.6875
 40
0.6875
 40
0.6875
 40
0.75
 40
0.75
 40
0.75
 40
0.75
 40
0.8125
 40
0.8125
 40
0.8125
 40
0.8125
 40
0.875
 40
0.875
 40
0.875
 40
0.875
 40
0.9375
 40
0.9375
 40
0.9375
 40
0.9375
 40
1.0
 40
1.0
 40
1.0
 40
1.0
 10
1.5177637795275591
 20
-2.4647244094488192
 30
0.0
 10
1.5177637795275591
 20
-2.4647244094488192
 30
0.0
 10
2.1670118110236221
 20
-2.0769409448818896
 30
0.0
 10
2.1670118110236221
 20
-2.0769409448818896
 30
0.0
 10
2.1670118110236221
 20
-2.0769409448818896
 30
0.0
 10
2.1670118110236221
 20
-2.0769409448818896
 30
0.0
 10
2.1637874015748033
 20
-2.0825236220472441
 30
0.0
 10
2.1637874015748033
 20
-2.0825236220472441
 30
0.0
 10
2.1637874015748033
 20
-2.0825236220472441
 30
0.0
 10
2.1637874015748033
 20
-2.0825236220472441
 30
0.0
 10
2.1603110236220475
 20
-2.0879370078740158
 30
0.0
 10
2.1603110236220475
 20
-2.0879370078740158
 30
0.0
 10
2.1603110236220475
 20
-2.0879370078740158
 30
0.0
 10
2.1603110236220475
 20
-2.0879370078740158
 30
0.0
 10
2.1565748031496064
 20
-2.0931614173228348
 30
0.0
 10
2.1565748031496064
 20
-2.0931614173228348
 30
0.0
 10
2.1565748031496064
 20
-2.0931614173228348
 30
0.0
 10
2.1565748031496064
 20
-2.0931614173228348
 30
0.0
 10
2.1526023622047243
 20
-2.0982007874015749
 30
0.0
 10
2.1526023622047243
 20
-2.0982007874015749
 30
0.0
 10
2.1526023622047243
 20
-2.0982007874015749
 30
0.0
 10
2.1526023622047243
 20
-2.0982007874015749
 30
0.0
 10
2.1483937007874014
 20
-2.1030393700787404
 30
0.0
 10
2.1483937007874014
 20
-2.1030393700787404
 30
0.0
 10
2.1483937007874014
 20
-2.1030393700787404
 30
0.0
 10
2.1483937007874014
 20
-2.1030393700787404
 30
0.0
 10
2.1439645669291338
 20
-2.1076771653543309
 30
0.0
 10
2.1439645669291338
 20
-2.1076771653543309
 30
0.0
 10
2.1439645669291338
 20
-2.1076771653543309
 30
0.0
 10
2.1439645669291338
 20
-2.1076771653543309
 30
0.0
 10
2.1393110236220472
 20
-2.1120866141732284
 30
0.0
 10
2.1393110236220472
 20
-2.1120866141732284
 30
0.0
 10
2.1393110236220472
 20
-2.1120866141732284
 30
0.0
 10
2.1393110236220472
 20
-2.1120866141732284
 30
0.0
 10
1.4900629921259843
 20
-2.4998700787401575
 30
0.0
 10
1.4900629921259843
 20
-2.4998700787401575
 30
0.0
 10
1.4900629921259843
 20
-2.4998700787401575
 30
0.0
 10
1.4900629921259843
 20
-2.4998700787401575
 30
0.0
 10
1.4947165354330709
 20
-2.4954606299212601
 30
0.0
 10
1.4947165354330709
 20
-2.4954606299212601
 30
0.0
 10
1.4947165354330709
 20
-2.4954606299212601
 30
0.0
 10
1.4947165354330709
 20
-2.4954606299212601
 30
0.0
 10
1.4991456692913387
 20
-2.4908228346456696
 30
0.0
 10
1.4991456692913387
 20
-2.4908228346456696
 30
0.0
 10
1.4991456692913387
 20
-2.4908228346456696
 30
0.0
 10
1.4991456692913387
 20
-2.4908228346456696
 30
0.0
 10
1.5033543307086614
 20
-2.485984251968504
 30
0.0
 10
1.5033543307086614
 20
-2.485984251968504
 30
0.0
 10
1.5033543307086614
 20
-2.485984251968504
 30
0.0
 10
1.5033543307086614
 20
-2.485984251968504
 30
0.0
 10
1.5073267716535435
 20
-2.4809448818897639
 30
0.0
 10
1.5073267716535435
 20
-2.4809448818897639
 30
0.0
 10
1.5073267716535435
 20
-2.4809448818897639
 30
0.0
 10
1.5073267716535435
 20
-2.4809448818897639
 30
0.0
 10
1.5110629921259844
 20
-2.475720472440945
 30
0.0
 10
1.5110629921259844
 20
-2.475720472440945
 30
0.0
 10
1.5110629921259844
 20
-2.475720472440945
 30
0.0
 10
1.5110629921259844
 20
-2.475720472440945
 30
0.0
 10
1.5145393700787402
 20
-2.4703070866141732
 30
0.0
 10
1.5145393700787402
 20
-2.4703070866141732
 30
0.0
 10
1.5145393700787402
 20
-2.4703070866141732
 30
0.0
 10
1.5145393700787402
 20
-2.4703070866141732
 30
0.0
 10
1.5177637795275591
 20
-2.4647244094488192
 30
0.0
 10
1.5177637795275591
 20
-2.4647244094488192
 30
0.0
  0
SPLINE
  5
3B
100
AcDbEntity
  8
Layer 1
 62
   253
100
AcDbSpline
210
0.0
220
0.0
230
1.0
 70
     1
 71
     3
 72
    28
 73
    24
 74
     0
 42
0.0000000001
 43
0.0000000001
 40
0.0
 40
0.0
 40
0.0
 40
0.0
 40
0.1666666666666667
 40
0.1666666666666667
 40
0.1666666666666667
 40
0.1666666666666667
 40
0.3333333333333333
 40
0.3333333333333333
 40
0.3333333333333333
 40
0.3333333333333333
 40
0.5
 40
0.5
 40
0.5
 40
0.5
 40
0.6666666666666666
 40
0.6666666666666666
 40
0.6666666666666666
 40
0.6666666666666666
 40
0.8333333333333333
 40
0.8333333333333333
 40
0.8333333333333333
 40
0.8333333333333333
 40
1.0
 40
1.0
 40
1.0
 40
1.0
 10
1.4900629921259843
 20
-2.4998700787401575
 30
0.0
 10
1.4900629921259843
 20
-2.4998700787401575
 30
0.0
 10
2.1393110236220472
 20
-2.1120866141732284
 30
0.0
 10
2.1393110236220472
 20
-2.1120866141732284
 30
0.0
 10
2.1393110236220472
 20
-2.1120866141732284
 30
0.0
 10
2.1393110236220472
 20
-2.1120866141732284
 30
0.0
 10
2.134452755905512
 20
-2.1162795275590551
 30
0.0
 10
2.134452755905512
 20
-2.1162795275590551
 30
0.0
 10
2.134452755905512
 20
-2.1162795275590551
 30
0.0
 10
2.134452755905512
 20
-2.1162795275590551
 30
0.0
 10
2.1293897637795278
 20
-2.120236220472441
 30
0.0
 10
2.1293897637795278
 20
-2.120236220472441
 30
0.0
 10
2.1293897637795278
 20
-2.120236220472441
 30
0.0
 10
2.1293897637795278
 20
-2.120236220472441
 30
0.0
 10
1.4801417322834647
 20
-2.5080196850393701
 30
0.0
 10
1.4801417322834647
 20
-2.5080196850393701
 30
0.0
 10
1.4801417322834647
 20
-2.5080196850393701
 30
0.0
 10
1.4801417322834647
 20
-2.5080196850393701
 30
0.0
 10
1.4852047244094488
 20
-2.5040629921259843
 30
0.0
 10
1.4852047244094488
 20
-2.5040629921259843
 30
0.0
 10
1.4852047244094488
 20
-2.5040629921259843
 30
0.0
 10
1.4852047244094488
 20
-2.5040629921259843
 30
0.0
 10
1.4900629921259843
 20
-2.4998700787401575
 30
0.0
 10
1.4900629921259843
 20
-2.4998700787401575
 30
0.0
  0
SPLINE
  5
3C
100
AcDbEntity
  8
Layer 1
370
     5
100
AcDbSpline
210
0.0
220
0.0
230
1.0
 70
     1
 71
     3
 72
   420
 73
   416
 74
     0
 42
0.0000000001
 43
0.0000000001
 40
0.0
 40
0.0
 40
0.0
 40
0.0
 40
0.0096153846153846
 40
0.0096153846153846
 40
0.0096153846153846
 40
0.0096153846153846
 40
0.0192307692307692
 40
0.0192307692307692
 40
0.0192307692307692
 40
0.0192307692307692
 40
0.0288461538461538
 40
0.0288461538461538
 40
0.0288461538461538
 40
0.0288461538461538
 40
0.0384615384615385
 40
0.0384615384615385
 40
0.0384615384615385
 40
0.0384615384615385
 40
0.0480769230769231
 40
0.0480769230769231
 40
0.0480769230769231
 40
0.0480769230769231
 40
0.0576923076923077
 40
0.0576923076923077
 40
0.0576923076923077
 40
0.0576923076923077
 40
0.0673076923076923
 40
0.0673076923076923
 40
0.0673076923076923
 40
0.0673076923076923
 40
0.0769230769230769
 40
0.0769230769230769
 40
0.0769230769230769
 40
0.0769230769230769
 40
0.0865384615384615
 40
0.0865384615384615
 40
0.0865384615384615
 40
0.0865384615384615
 40
0.0961538461538461
 40
0.0961538461538461
 40
0.0961538461538461
 40
0.0961538461538461
 40
0.1057692307692308
 40
0.1057692307692308
 40
0.1057692307692308
 40
0.1057692307692308
 40
0.1153846153846154
 40
0.1153846153846154
 40
0.1153846153846154
 40
0.1153846153846154
 40
0.125
 40
0.125
 40
0.125
 40
0.125
 40
0.1346153846153846
 40
0.1346153846153846
 40
0.1346153846153846
 40
0.1346153846153846
 40
0.1442307692307692
 40
0.1442307692307692
 40
0.1442307692307692
 40
0.1442307692307692
 40
0.1538461538461538
 40
0.1538461538461538
 40
0.1538461538461538
 40
0.1538461538461538
 40
0.1634615384615384
 40
0.1634615384615384
 40
0.1634615384615384
 40
0.1634615384615384
 40
0.173076923076923
 40
0.173076923076923
 40
0.173076923076923
 40
0.173076923076923
 40
0.1826923076923076
 40
0.1826923076923076
 40
0.1826923076923076
 40
0.1826923076923076
 40
0.1923076923076922
 40
0.1923076923076922
 40
0.1923076923076922
 40
0.1923076923076922
 40
0.2019230769230768
 40
0.2019230769230768
 40
0.2019230769230768
 40
0.2019230769230768
 40
0.2115384615384615
 40
0.2115384615384615
 40
0.2115384615384615
 40
0.2115384615384615
 40
0.2211538461538461
 40
0.2211538461538461
 40
0.2211538461538461
 40
0.2211538461538461
 40
0.2307692307692307
 40
0.2307692307692307
 40
0.2307692307692307
 40
0.2307692307692307
 40
0.2403846153846153
 40
0.2403846153846153
 40
0.2403846153846153
 40
0.2403846153846153
 40
0.2499999999999999
 40
0.2499999999999999
 40
0.2499999999999999
 40
0.2499999999999999
 40
0.2596153846153845
 40
0.2596153846153845
 40
0.2596153846153845
 40
0.2596153846153845
 40
0.2692307692307692
 40
0.2692307692307692
 40
0.2692307692307692
 40
0.2692307692307692
 40
0.2788461538461538
 40
0.2788461538461538
 40
0.2788461538461538
 40
0.2788461538461538
 40
0.2884615384615384
 40
0.2884615384615384
 40
0.2884615384615384
 40
0.2884615384615384
 40
0.2980769230769231
 40
0.2980769230769231
 40
0.2980769230769231
 40
0.2980769230769231
 40
0.3076923076923077
 40
0.3076923076923077
 40
0.3076923076923077
 40
0.3076923076923077
 40
0.3173076923076924
 40
0.3173076923076924
 40
0.3173076923076924
 40
0.3173076923076924
 40
0.326923076923077
 40
0.326923076923077
 40
0.326923076923077
 40
0.326923076923077
 40
0.3365384615384616
 40
0.3365384615384616
 40
0.3365384615384616
 40
0.3365384615384616
 40
0.3461538461538463
 40
0.3461538461538463
 40
0.3461538461538463
 40
0.3461538461538463
 40
0.3557692307692309
 40
0.3557692307692309
 40
0.3557692307692309
 40
0.3557692307692309
 40
0.3653846153846155
 40
0.3653846153846155
 40
0.3653846153846155
 40
0.3653846153846155
 40
0.3750000000000002
 40
0.3750000000000002
 40
0.3750000000000002
 40
0.3750000000000002
 40
0.3846153846153848
 40
0.3846153846153848
 40
0.3846153846153848
 40
0.3846153846153848
 40
0.3942307692307694
 40
0.3942307692307694
 40
0.3942307692307694
 40
0.3942307692307694
 40
0.4038461538461541
 40
0.4038461538461541
 40
0.4038461538461541
 40
0.4038461538461541
 40
0.4134615384615387
 40
0.4134615384615387
 40
0.4134615384615387
 40
0.4134615384615387
 40
0.4230769230769234
 40
0.4230769230769234
 40
0.4230769230769234
 40
0.4230769230769234
 40
0.432692307692308
 40
0.432692307692308
 40
0.432692307692308
 40
0.432692307692308
 40
0.4423076923076926
 40
0.4423076923076926
 40
0.4423076923076926
 40
0.4423076923076926
 40
0.4519230769230773
 40
0.4519230769230773
 40
0.4519230769230773
 40
0.4519230769230773
 40
0.4615384615384619
 40
0.4615384615384619
 40
0.4615384615384619
 40
0.4615384615384619
 40
0.4711538461538465
 40
0.4711538461538465
 40
0.4711538461538465
 40
0.4711538461538465
 40
0.4807692307692312
 40
0.4807692307692312
 40
0.4807692307692312
 40
0.4807692307692312
 40
0.4903846153846158
 40
0.4903846153846158
 40
0.4903846153846158
 40
0.4903846153846158
 40
0.5000000000000004
 40
0.5000000000000004
 40
0.5000000000000004
 40
0.5000000000000004
 40
0.509615384615385
 40
0.509615384615385
 40
0.509615384615385
 40
0.509615384615385
 40
0.5192307692307696
 40
0.5192307692307696
 40
0.5192307692307696
 40
0.5192307692307696
 40
0.5288461538461542
 40
0.5288461538461542
 40
0.5288461538461542
 40
0.5288461538461542
 40
0.5384615384615388
 40
0.5384615384615388
 40
0.5384615384615388
 40
0.5384615384615388
 40
0.5480769230769234
 40
0.5480769230769234
 40
0.5480769230769234
 40
0.5480769230769234
 40
0.5576923076923079
 40
0.5576923076923079
 40
0.5576923076923079
 40
0.5576923076923079
 40
0.5673076923076925
 40
0.5673076923076925
 40
0.5673076923076925
 40
0.5673076923076925
 40
0.5769230769230771
 40
0.5769230769230771
 40
0.5769230769230771
 40
0.5769230769230771
 40
0.5865384615384617
 40
0.5865384615384617
 40
0.5865384615384617
 40
0.5865384615384617
 40
0.5961538461538463
 40
0.5961538461538463
 40
0.5961538461538463
 40
0.5961538461538463
 40
0.6057692307692308
 40
0.6057692307692308
 40
0.6057692307692308
 40
0.6057692307692308
 40
0.6153846153846154
 40
0.6153846153846154
 40
0.6153846153846154
 40
0.6153846153846154
 40
0.625
 40
0.625
 40
0.625
 40
0.625
 40
0.6346153846153846
 40
0.6346153846153846
 40
0.6346153846153846
 40
0.6346153846153846
 40
0.6442307692307692
 40
0.6442307692307692
 40
0.6442307692307692
 40
0.6442307692307692
 40
0.6538461538461537
 40
0.6538461538461537
 40
0.6538461538461537
 40
0.6538461538461537
 40
0.6634615384615383
 40
0.6634615384615383
 40
0.6634615384615383
 40
0.6634615384615383
 40
0.6730769230769229
 40
0.6730769230769229
 40
0.6730769230769229
 40
0.6730769230769229
 40
0.6826923076923075
 40
0.6826923076923075
 40
0.6826923076923075
 40
0.6826923076923075
 40
0.6923076923076921
 40
0.6923076923076921
 40
0.6923076923076921
 40
0.6923076923076921
 40
0.7019230769230767
 40
0.7019230769230767
 40
0.7019230769230767
 40
0.7019230769230767
 40
0.7115384615384612
 40
0.7115384615384612
 40
0.7115384615384612
 40
0.7115384615384612
 40
0.7211538461538458
 40
0.7211538461538458
 40
0.7211538461538458
 40
0.7211538461538458
 40
0.7307692307692304
 40
0.7307692307692304
 40
0.7307692307692304
 40
0.7307692307692304
 40
0.740384615384615
 40
0.740384615384615
 40
0.740384615384615
 40
0.740384615384615
 40
0.7499999999999996
 40
0.7499999999999996
 40
0.7499999999999996
 40
0.7499999999999996
 40
0.7596153846153841
 40
0.7596153846153841
 40
0.7596153846153841
 40
0.7596153846153841
 40
0.7692307692307687
 40
0.7692307692307687
 40
0.7692307692307687
 40
0.7692307692307687
 40
0.7788461538461533
 40
0.7788461538461533
 40
0.7788461538461533
 40
0.7788461538461533
 40
0.7884615384615379
 40
0.7884615384615379
 40
0.7884615384615379
 40
0.7884615384615379
 40
0.7980769230769225
 40
0.7980769230769225
 40
0.7980769230769225
 40
0.7980769230769225
 40
0.807692307692307
 40
0.807692307692307
 40
0.807692307692307
 40
0.807692307692307
 40
0.8173076923076916
 40
0.8173076923076916
 40
0.8173076923076916
 40
0.8173076923076916
 40
0.8269230769230762
 40
0.8269230769230762
 40
0.8269230769230762
 40
0.8269230769230762
 40
0.8365384615384608
 40
0.8365384615384608
 40
0.8365384615384608
 40
0.8365384615384608
 40
0.8461538461538454
 40
0.8461538461538454
 40
0.8461538461538454
 40
0.8461538461538454
 40
0.85576923076923
 40
0.85576923076923
 40
0.85576923076923
 40
0.85576923076923
 40
0.8653846153846145
 40
0.8653846153846145
 40
0.8653846153846145
 40
0.8653846153846145
 40
0.8749999999999991
 40
0.8749999999999991
 40
0.8749999999999991
 40
0.8749999999999991
 40
0.8846153846153837
 40
0.8846153846153837
 40
0.8846153846153837
 40
0.8846153846153837
 40
0.8942307692307683
 40
0.8942307692307683
 40
0.8942307692307683
 40
0.8942307692307683
 40
0.9038461538461529
 40
0.9038461538461529
 40
0.9038461538461529
 40
0.9038461538461529
 40
0.9134615384615374
 40
0.9134615384615374
 40
0.9134615384615374
 40
0.9134615384615374
 40
0.923076923076922
 40
0.923076923076922
 40
0.923076923076922
 40
0.923076923076922
 40
0.9326923076923066
 40
0.9326923076923066
 40
0.9326923076923066
 40
0.9326923076923066
 40
0.9423076923076912
 40
0.9423076923076912
 40
0.9423076923076912
 40
0.9423076923076912
 40
0.9519230769230758
 40
0.9519230769230758
 40
0.9519230769230758
 40
0.9519230769230758
 40
0.9615384615384603
 40
0.9615384615384603
 40
0.9615384615384603
 40
0.9615384615384603
 40
0.9711538461538449
 40
0.9711538461538449
 40
0.9711538461538449
 40
0.9711538461538449
 40
0.9807692307692295
 40
0.9807692307692295
 40
0.9807692307692295
 40
0.9807692307692295
 40
0.9903846153846141
 40
0.9903846153846141
 40
0.9903846153846141
 40
0.9903846153846141
 40
1.0
 40
1.0
 40
1.0
 40
1.0
 10
1.4000551181102363
 20
-2.2678464566929133
 30
0.0
 10
1.4000551181102363
 20
-2.2678464566929133
 30
0.0
 10
2.0493031496062994
 20
-1.8800629921259844
 30
0.0
 10
2.0493031496062994
 20
-1.8800629921259844
 30
0.0
 10
2.0493031496062994
 20
-1.8800629921259844
 30
0.0
 10
2.0493031496062994
 20
-1.8800629921259844
 30
0.0
 10
2.0561850393700789
 20
-1.8802322834645671
 30
0.0
 10
2.0561850393700789
 20
-1.8802322834645671
 30
0.0
 10
2.0561850393700789
 20
-1.8802322834645671
 30
0.0
 10
2.0561850393700789
 20
-1.8802322834645671
 30
0.0
 10
2.062984251968504
 20
-1.880748031496063
 30
0.0
 10
2.062984251968504
 20
-1.880748031496063
 30
0.0
 10
2.062984251968504
 20
-1.880748031496063
 30
0.0
 10
2.062984251968504
 20
-1.880748031496063
 30
0.0
 10
2.0696811023622046
 20
-1.8815905511811024
 30
0.0
 10
2.0696811023622046
 20
-1.8815905511811024
 30
0.0
 10
2.0696811023622046
 20
-1.8815905511811024
 30
0.0
 10
2.0696811023622046
 20
-1.8815905511811024
 30
0.0
 10
2.0762755905511812
 20
-1.8827677165354331
 30
0.0
 10
2.0762755905511812
 20
-1.8827677165354331
 30
0.0
 10
2.0762755905511812
 20
-1.8827677165354331
 30
0.0
 10
2.0762755905511812
 20
-1.8827677165354331
 30
0.0
 10
2.0827480314960631
 20
-1.8842519685039372
 30
0.0
 10
2.0827480314960631
 20
-1.8842519685039372
 30
0.0
 10
2.0827480314960631
 20
-1.8842519685039372
 30
0.0
 10
2.0827480314960631
 20
-1.8842519685039372
 30
0.0
 10
2.0891023622047245
 20
-1.8860511811023624
 30
0.0
 10
2.0891023622047245
 20
-1.8860511811023624
 30
0.0
 10
2.0891023622047245
 20
-1.8860511811023624
 30
0.0
 10
2.0891023622047245
 20
-1.8860511811023624
 30
0.0
 10
2.0953228346456694
 20
-1.8881456692913388
 30
0.0
 10
2.0953228346456694
 20
-1.8881456692913388
 30
0.0
 10
2.0953228346456694
 20
-1.8881456692913388
 30
0.0
 10
2.0953228346456694
 20
-1.8881456692913388
 30
0.0
 10
2.1014055118110235
 20
-1.8905393700787403
 30
0.0
 10
2.1014055118110235
 20
-1.8905393700787403
 30
0.0
 10
2.1014055118110235
 20
-1.8905393700787403
 30
0.0
 10
2.1014055118110235
 20
-1.8905393700787403
 30
0.0
 10
2.1073307086614173
 20
-1.893204724409449
 30
0.0
 10
2.1073307086614173
 20
-1.893204724409449
 30
0.0
 10
2.1073307086614173
 20
-1.893204724409449
 30
0.0
 10
2.1073307086614173
 20
-1.893204724409449
 30
0.0
 10
2.1131023622047245
 20
-1.8961496062992127
 30
0.0
 10
2.1131023622047245
 20
-1.8961496062992127
 30
0.0
 10
2.1131023622047245
 20
-1.8961496062992127
 30
0.0
 10
2.1131023622047245
 20
-1.8961496062992127
 30
0.0
 10
2.1187086614173229
 20
-1.8993582677165355
 30
0.0
 10
2.1187086614173229
 20
-1.8993582677165355
 30
0.0
 10
2.1187086614173229
 20
-1.8993582677165355
 30
0.0
 10
2.1187086614173229
 20
-1.8993582677165355
 30
0.0
 10
2.1241456692913387
 20
-1.9028307086614173
 30
0.0
 10
2.1241456692913387
 20
-1.9028307086614173
 30
0.0
 10
2.1241456692913387
 20
-1.9028307086614173
 30
0.0
 10
2.1241456692913387
 20
-1.9028307086614173
 30
0.0
 10
2.1293897637795278
 20
-1.9065472440944882
 30
0.0
 10
2.1293897637795278
 20
-1.9065472440944882
 30
0.0
 10
2.1293897637795278
 20
-1.9065472440944882
 30
0.0
 10
2.1293897637795278
 20
-1.9065472440944882
 30
0.0
 10
2.134452755905512
 20
-1.9105078740157482
 30
0.0
 10
2.134452755905512
 20
-1.9105078740157482
 30
0.0
 10
2.134452755905512
 20
-1.9105078740157482
 30
0.0
 10
2.134452755905512
 20
-1.9105078740157482
 30
0.0
 10
2.1393110236220472
 20
-1.914696850393701
 30
0.0
 10
2.1393110236220472
 20
-1.914696850393701
 30
0.0
 10
2.1393110236220472
 20
-1.914696850393701
 30
0.0
 10
2.1393110236220472
 20
-1.914696850393701
 30
0.0
 10
2.1439645669291338
 20
-1.9191181102362205
 30
0.0
 10
2.1439645669291338
 20
-1.9191181102362205
 30
0.0
 10
2.1439645669291338
 20
-1.9191181102362205
 30
0.0
 10
2.1439645669291338
 20
-1.9191181102362205
 30
0.0
 10
2.1483937007874014
 20
-1.9237440944881889
 30
0.0
 10
2.1483937007874014
 20
-1.9237440944881889
 30
0.0
 10
2.1483937007874014
 20
-1.9237440944881889
 30
0.0
 10
2.1483937007874014
 20
-1.9237440944881889
 30
0.0
 10
2.1526023622047243
 20
-1.9285826771653545
 30
0.0
 10
2.1526023622047243
 20
-1.9285826771653545
 30
0.0
 10
2.1526023622047243
 20
-1.9285826771653545
 30
0.0
 10
2.1526023622047243
 20
-1.9285826771653545
 30
0.0
 10
2.1565748031496064
 20
-1.9336141732283465
 30
0.0
 10
2.1565748031496064
 20
-1.9336141732283465
 30
0.0
 10
2.1565748031496064
 20
-1.9336141732283465
 30
0.0
 10
2.1565748031496064
 20
-1.9336141732283465
 30
0.0
 10
2.1603110236220475
 20
-1.9388464566929136
 30
0.0
 10
2.1603110236220475
 20
-1.9388464566929136
 30
0.0
 10
2.1603110236220475
 20
-1.9388464566929136
 30
0.0
 10
2.1603110236220475
 20
-1.9388464566929136
 30
0.0
 10
2.1637874015748033
 20
-1.944251968503937
 30
0.0
 10
2.1637874015748033
 20
-1.944251968503937
 30
0.0
 10
2.1637874015748033
 20
-1.944251968503937
 30
0.0
 10
2.1637874015748033
 20
-1.944251968503937
 30
0.0
 10
2.1670118110236221
 20
-1.9498385826771654
 30
0.0
 10
2.1670118110236221
 20
-1.9498385826771654
 30
0.0
 10
2.1670118110236221
 20
-1.9498385826771654
 30
0.0
 10
2.1670118110236221
 20
-1.9498385826771654
 30
0.0
 10
2.169968503937008
 20
-1.9555866141732283
 30
0.0
 10
2.169968503937008
 20
-1.9555866141732283
 30
0.0
 10
2.169968503937008
 20
-1.9555866141732283
 30
0.0
 10
2.169968503937008
 20
-1.9555866141732283
 30
0.0
 10
2.1726574803149608
 20
-1.9614960629921261
 30
0.0
 10
2.1726574803149608
 20
-1.9614960629921261
 30
0.0
 10
2.1726574803149608
 20
-1.9614960629921261
 30
0.0
 10
2.1726574803149608
 20
-1.9614960629921261
 30
0.0
 10
2.1750511811023623
 20
-1.9675472440944883
 30
0.0
 10
2.1750511811023623
 20
-1.9675472440944883
 30
0.0
 10
2.1750511811023623
 20
-1.9675472440944883
 30
0.0
 10
2.1750511811023623
 20
-1.9675472440944883
 30
0.0
 10
2.1771574803149609
 20
-1.973744094488189
 30
0.0
 10
2.1771574803149609
 20
-1.973744094488189
 30
0.0
 10
2.1771574803149609
 20
-1.973744094488189
 30
0.0
 10
2.1771574803149609
 20
-1.973744094488189
 30
0.0
 10
2.1789566929133861
 20
-1.9800669291338584
 30
0.0
 10
2.1789566929133861
 20
-1.9800669291338584
 30
0.0
 10
2.1789566929133861
 20
-1.9800669291338584
 30
0.0
 10
2.1789566929133861
 20
-1.9800669291338584
 30
0.0
 10
2.1804566929133857
 20
-1.9865236220472442
 30
0.0
 10
2.1804566929133857
 20
-1.9865236220472442
 30
0.0
 10
2.1804566929133857
 20
-1.9865236220472442
 30
0.0
 10
2.1804566929133857
 20
-1.9865236220472442
 30
0.0
 10
2.1816338582677166
 20
-1.9930866141732284
 30
0.0
 10
2.1816338582677166
 20
-1.9930866141732284
 30
0.0
 10
2.1816338582677166
 20
-1.9930866141732284
 30
0.0
 10
2.1816338582677166
 20
-1.9930866141732284
 30
0.0
 10
2.1824881889763779
 20
-1.9997598425196852
 30
0.0
 10
2.1824881889763779
 20
-1.9997598425196852
 30
0.0
 10
2.1824881889763779
 20
-1.9997598425196852
 30
0.0
 10
2.1824881889763779
 20
-1.9997598425196852
 30
0.0
 10
2.1830039370078742
 20
-2.0065314960629923
 30
0.0
 10
2.1830039370078742
 20
-2.0065314960629923
 30
0.0
 10
2.1830039370078742
 20
-2.0065314960629923
 30
0.0
 10
2.1830039370078742
 20
-2.0065314960629923
 30
0.0
 10
2.1831811023622048
 20
-2.0133976377952756
 30
0.0
 10
2.1831811023622048
 20
-2.0133976377952756
 30
0.0
 10
2.1831811023622048
 20
-2.0133976377952756
 30
0.0
 10
2.1831811023622048
 20
-2.0133976377952756
 30
0.0
 10
2.1830039370078742
 20
-2.0202519685039371
 30
0.0
 10
2.1830039370078742
 20
-2.0202519685039371
 30
0.0
 10
2.1830039370078742
 20
-2.0202519685039371
 30
0.0
 10
2.1830039370078742
 20
-2.0202519685039371
 30
0.0
 10
2.1824881889763779
 20
-2.0270236220472442
 30
0.0
 10
2.1824881889763779
 20
-2.0270236220472442
 30
0.0
 10
2.1824881889763779
 20
-2.0270236220472442
 30
0.0
 10
2.1824881889763779
 20
-2.0270236220472442
 30
0.0
 10
2.1816338582677166
 20
-2.0336929133858268
 30
0.0
 10
2.1816338582677166
 20
-2.0336929133858268
 30
0.0
 10
2.1816338582677166
 20
-2.0336929133858268
 30
0.0
 10
2.1816338582677166
 20
-2.0336929133858268
 30
0.0
 10
2.1804566929133857
 20
-2.040259842519685
 30
0.0
 10
2.1804566929133857
 20
-2.040259842519685
 30
0.0
 10
2.1804566929133857
 20
-2.040259842519685
 30
0.0
 10
2.1804566929133857
 20
-2.040259842519685
 30
0.0
 10
2.1789566929133861
 20
-2.0467086614173229
 30
0.0
 10
2.1789566929133861
 20
-2.0467086614173229
 30
0.0
 10
2.1789566929133861
 20
-2.0467086614173229
 30
0.0
 10
2.1789566929133861
 20
-2.0467086614173229
 30
0.0
 10
2.1771574803149609
 20
-2.0530354330708662
 30
0.0
 10
2.1771574803149609
 20
-2.0530354330708662
 30
0.0
 10
2.1771574803149609
 20
-2.0530354330708662
 30
0.0
 10
2.1771574803149609
 20
-2.0530354330708662
 30
0.0
 10
2.1750511811023623
 20
-2.0592322834645671
 30
0.0
 10
2.1750511811023623
 20
-2.0592322834645671
 30
0.0
 10
2.1750511811023623
 20
-2.0592322834645671
 30
0.0
 10
2.1750511811023623
 20
-2.0592322834645671
 30
0.0
 10
2.1726574803149608
 20
-2.0652913385826772
 30
0.0
 10
2.1726574803149608
 20
-2.0652913385826772
 30
0.0
 10
2.1726574803149608
 20
-2.0652913385826772
 30
0.0
 10
2.1726574803149608
 20
-2.0652913385826772
 30
0.0
 10
2.169968503937008
 20
-2.0711929133858269
 30
0.0
 10
2.169968503937008
 20
-2.0711929133858269
 30
0.0
 10
2.169968503937008
 20
-2.0711929133858269
 30
0.0
 10
2.169968503937008
 20
-2.0711929133858269
 30
0.0
 10
2.1670118110236221
 20
-2.0769409448818896
 30
0.0
 10
2.1670118110236221
 20
-2.0769409448818896
 30
0.0
 10
2.1670118110236221
 20
-2.0769409448818896
 30
0.0
 10
2.1670118110236221
 20
-2.0769409448818896
 30
0.0
 10
2.1637874015748033
 20
-2.0825236220472441
 30
0.0
 10
2.1637874015748033
 20
-2.0825236220472441
 30
0.0
 10
2.1637874015748033
 20
-2.0825236220472441
 30
0.0
 10
2.1637874015748033
 20
-2.0825236220472441
 30
0.0
 10
2.1603110236220475
 20
-2.0879370078740158
 30
0.0
 10
2.1603110236220475
 20
-2.0879370078740158
 30
0.0
 10
2.1603110236220475
 20
-2.0879370078740158
 30
0.0
 10
2.1603110236220475
 20
-2.0879370078740158
 30
0.0
 10
2.1565748031496064
 20
-2.0931614173228348
 30
0.0
 10
2.1565748031496064
 20
-2.0931614173228348
 30
0.0
 10
2.1565748031496064
 20
-2.0931614173228348
 30
0.0
 10
2.1565748031496064
 20
-2.0931614173228348
 30
0.0
 10
2.1526023622047243
 20
-2.0982007874015749
 30
0.0
 10
2.1526023622047243
 20
-2.0982007874015749
 30
0.0
 10
2.1526023622047243
 20
-2.0982007874015749
 30
0.0
 10
2.1526023622047243
 20
-2.0982007874015749
 30
0.0
 10
2.1483937007874014
 20
-2.1030393700787404
 30
0.0
 10
2.1483937007874014
 20
-2.1030393700787404
 30
0.0
 10
2.1483937007874014
 20
-2.1030393700787404
 30
0.0
 10
2.1483937007874014
 20
-2.1030393700787404
 30
0.0
 10
2.1439645669291338
 20
-2.1076771653543309
 30
0.0
 10
2.1439645669291338
 20
-2.1076771653543309
 30
0.0
 10
2.1439645669291338
 20
-2.1076771653543309
 30
0.0
 10
2.1439645669291338
 20
-2.1076771653543309
 30
0.0
 10
2.1393110236220472
 20
-2.1120866141732284
 30
0.0
 10
2.1393110236220472
 20
-2.1120866141732284
 30
0.0
 10
2.1393110236220472
 20
-2.1120866141732284
 30
0.0
 10
2.1393110236220472
 20
-2.1120866141732284
 30
0.0
 10
2.134452755905512
 20
-2.1162795275590551
 30
0.0
 10
2.134452755905512
 20
-2.1162795275590551
 30
0.0
 10
2.134452755905512
 20
-2.1162795275590551
 30
0.0
 10
2.134452755905512
 20
-2.1162795275590551
 30
0.0
 10
2.1293897637795278
 20
-2.120236220472441
 30
0.0
 10
2.1293897637795278
 20
-2.120236220472441
 30
0.0
 10
2.1293897637795278
 20
-2.120236220472441
 30
0.0
 10
2.1293897637795278
 20
-2.120236220472441
 30
0.0
 10
1.4801417322834647
 20
-2.5080196850393701
 30
0.0
 10
1.4801417322834647
 20
-2.5080196850393701
 30
0.0
 10
1.4801417322834647
 20
-2.5080196850393701
 30
0.0
 10
1.4801417322834647
 20
-2.5080196850393701
 30
0.0
 10
1.4852047244094488
 20
-2.5040629921259843
 30
0.0
 10
1.4852047244094488
 20
-2.5040629921259843
 30
0.0
 10
1.4852047244094488
 20
-2.5040629921259843
 30
0.0
 10
1.4852047244094488
 20
-2.5040629921259843
 30
0.0
 10
1.4900629921259843
 20
-2.4998700787401575
 30
0.0
 10
1.4900629921259843
 20
-2.4998700787401575
 30
0.0
 10
1.4900629921259843
 20
-2.4998700787401575
 30
0.0
 10
1.4900629921259843
 20
-2.4998700787401575
 30
0.0
 10
1.4947165354330709
 20
-2.4954606299212601
 30
0.0
 10
1.4947165354330709
 20
-2.4954606299212601
 30
0.0
 10
1.4947165354330709
 20
-2.4954606299212601
 30
0.0
 10
1.4947165354330709
 20
-2.4954606299212601
 30
0.0
 10
1.4991456692913387
 20
-2.4908228346456696
 30
0.0
 10
1.4991456692913387
 20
-2.4908228346456696
 30
0.0
 10
1.4991456692913387
 20
-2.4908228346456696
 30
0.0
 10
1.4991456692913387
 20
-2.4908228346456696
 30
0.0
 10
1.5033543307086614
 20
-2.485984251968504
 30
0.0
 10
1.5033543307086614
 20
-2.485984251968504
 30
0.0
 10
1.5033543307086614
 20
-2.485984251968504
 30
0.0
 10
1.5033543307086614
 20
-2.485984251968504
 30
0.0
 10
1.5073267716535435
 20
-2.4809448818897639
 30
0.0
 10
1.5073267716535435
 20
-2.4809448818897639
 30
0.0
 10
1.5073267716535435
 20
-2.4809448818897639
 30
0.0
 10
1.5073267716535435
 20
-2.4809448818897639
 30
0.0
 10
1.5110629921259844
 20
-2.475720472440945
 30
0.0
 10
1.5110629921259844
 20
-2.475720472440945
 30
0.0
 10
1.5110629921259844
 20
-2.475720472440945
 30
0.0
 10
1.5110629921259844
 20
-2.475720472440945
 30
0.0
 10
1.5145393700787402
 20
-2.4703070866141732
 30
0.0
 10
1.5145393700787402
 20
-2.4703070866141732
 30
0.0
 10
1.5145393700787402
 20
-2.4703070866141732
 30
0.0
 10
1.5145393700787402
 20
-2.4703070866141732
 30
0.0
 10
1.5177637795275591
 20
-2.4647244094488192
 30
0.0
 10
1.5177637795275591
 20
-2.4647244094488192
 30
0.0
 10
1.5177637795275591
 20
-2.4647244094488192
 30
0.0
 10
1.5177637795275591
 20
-2.4647244094488192
 30
0.0
 10
1.5207204724409449
 20
-2.458976377952756
 30
0.0
 10
1.5207204724409449
 20
-2.458976377952756
 30
0.0
 10
1.5207204724409449
 20
-2.458976377952756
 30
0.0
 10
1.5207204724409449
 20
-2.458976377952756
 30
0.0
 10
1.5234094488188976
 20
-2.4530748031496064
 30
0.0
 10
1.5234094488188976
 20
-2.4530748031496064
 30
0.0
 10
1.5234094488188976
 20
-2.4530748031496064
 30
0.0
 10
1.5234094488188976
 20
-2.4530748031496064
 30
0.0
 10
1.5258031496062994
 20
-2.4470157480314962
 30
0.0
 10
1.5258031496062994
 20
-2.4470157480314962
 30
0.0
 10
1.5258031496062994
 20
-2.4470157480314962
 30
0.0
 10
1.5258031496062994
 20
-2.4470157480314962
 30
0.0
 10
1.5279094488188978
 20
-2.4408188976377954
 30
0.0
 10
1.5279094488188978
 20
-2.4408188976377954
 30
0.0
 10
1.5279094488188978
 20
-2.4408188976377954
 30
0.0
 10
1.5279094488188978
 20
-2.4408188976377954
 30
0.0
 10
1.529708661417323
 20
-2.434492125984252
 30
0.0
 10
1.529708661417323
 20
-2.434492125984252
 30
0.0
 10
1.529708661417323
 20
-2.434492125984252
 30
0.0
 10
1.529708661417323
 20
-2.434492125984252
 30
0.0
 10
1.5312086614173228
 20
-2.4280433070866141
 30
0.0
 10
1.5312086614173228
 20
-2.4280433070866141
 30
0.0
 10
1.5312086614173228
 20
-2.4280433070866141
 30
0.0
 10
1.5312086614173228
 20
-2.4280433070866141
 30
0.0
 10
1.5323858267716537
 20
-2.4214763779527559
 30
0.0
 10
1.5323858267716537
 20
-2.4214763779527559
 30
0.0
 10
1.5323858267716537
 20
-2.4214763779527559
 30
0.0
 10
1.5323858267716537
 20
-2.4214763779527559
 30
0.0
 10
1.5332401574803149
 20
-2.4148070866141733
 30
0.0
 10
1.5332401574803149
 20
-2.4148070866141733
 30
0.0
 10
1.5332401574803149
 20
-2.4148070866141733
 30
0.0
 10
1.5332401574803149
 20
-2.4148070866141733
 30
0.0
 10
1.5337559055118111
 20
-2.4080354330708662
 30
0.0
 10
1.5337559055118111
 20
-2.4080354330708662
 30
0.0
 10
1.5337559055118111
 20
-2.4080354330708662
 30
0.0
 10
1.5337559055118111
 20
-2.4080354330708662
 30
0.0
 10
1.5339330708661418
 20
-2.4011811023622047
 30
0.0
 10
1.5339330708661418
 20
-2.4011811023622047
 30
0.0
 10
1.5339330708661418
 20
-2.4011811023622047
 30
0.0
 10
1.5339330708661418
 20
-2.4011811023622047
 30
0.0
 10
1.5337559055118111
 20
-2.3943149606299214
 30
0.0
 10
1.5337559055118111
 20
-2.3943149606299214
 30
0.0
 10
1.5337559055118111
 20
-2.3943149606299214
 30
0.0
 10
1.5337559055118111
 20
-2.3943149606299214
 30
0.0
 10
1.5332401574803149
 20
-2.3875433070866143
 30
0.0
 10
1.5332401574803149
 20
-2.3875433070866143
 30
0.0
 10
1.5332401574803149
 20
-2.3875433070866143
 30
0.0
 10
1.5332401574803149
 20
-2.3875433070866143
 30
0.0
 10
1.5323858267716537
 20
-2.3808700787401578
 30
0.0
 10
1.5323858267716537
 20
-2.3808700787401578
 30
0.0
 10
1.5323858267716537
 20
-2.3808700787401578
 30
0.0
 10
1.5323858267716537
 20
-2.3808700787401578
 30
0.0
 10
1.5312086614173228
 20
-2.3743070866141731
 30
0.0
 10
1.5312086614173228
 20
-2.3743070866141731
 30
0.0
 10
1.5312086614173228
 20
-2.3743070866141731
 30
0.0
 10
1.5312086614173228
 20
-2.3743070866141731
 30
0.0
 10
1.529708661417323
 20
-2.3678503937007873
 30
0.0
 10
1.529708661417323
 20
-2.3678503937007873
 30
0.0
 10
1.529708661417323
 20
-2.3678503937007873
 30
0.0
 10
1.529708661417323
 20
-2.3678503937007873
 30
0.0
 10
1.5279094488188978
 20
-2.3615275590551184
 30
0.0
 10
1.5279094488188978
 20
-2.3615275590551184
 30
0.0
 10
1.5279094488188978
 20
-2.3615275590551184
 30
0.0
 10
1.5279094488188978
 20
-2.3615275590551184
 30
0.0
 10
1.5258031496062994
 20
-2.3553307086614175
 30
0.0
 10
1.5258031496062994
 20
-2.3553307086614175
 30
0.0
 10
1.5258031496062994
 20
-2.3553307086614175
 30
0.0
 10
1.5258031496062994
 20
-2.3553307086614175
 30
0.0
 10
1.5234094488188976
 20
-2.3492795275590552
 30
0.0
 10
1.5234094488188976
 20
-2.3492795275590552
 30
0.0
 10
1.5234094488188976
 20
-2.3492795275590552
 30
0.0
 10
1.5234094488188976
 20
-2.3492795275590552
 30
0.0
 10
1.5207204724409449
 20
-2.3433700787401577
 30
0.0
 10
1.5207204724409449
 20
-2.3433700787401577
 30
0.0
 10
1.5207204724409449
 20
-2.3433700787401577
 30
0.0
 10
1.5207204724409449
 20
-2.3433700787401577
 30
0.0
 10
1.5177637795275591
 20
-2.3376220472440945
 30
0.0
 10
1.5177637795275591
 20
-2.3376220472440945
 30
0.0
 10
1.5177637795275591
 20
-2.3376220472440945
 30
0.0
 10
1.5177637795275591
 20
-2.3376220472440945
 30
0.0
 10
1.5145393700787402
 20
-2.3320354330708661
 30
0.0
 10
1.5145393700787402
 20
-2.3320354330708661
 30
0.0
 10
1.5145393700787402
 20
-2.3320354330708661
 30
0.0
 10
1.5145393700787402
 20
-2.3320354330708661
 30
0.0
 10
1.5110629921259844
 20
-2.3266299212598427
 30
0.0
 10
1.5110629921259844
 20
-2.3266299212598427
 30
0.0
 10
1.5110629921259844
 20
-2.3266299212598427
 30
0.0
 10
1.5110629921259844
 20
-2.3266299212598427
 30
0.0
 10
1.5073267716535435
 20
-2.3213976377952759
 30
0.0
 10
1.5073267716535435
 20
-2.3213976377952759
 30
0.0
 10
1.5073267716535435
 20
-2.3213976377952759
 30
0.0
 10
1.5073267716535435
 20
-2.3213976377952759
 30
0.0
 10
1.5033543307086614
 20
-2.3163661417322836
 30
0.0
 10
1.5033543307086614
 20
-2.3163661417322836
 30
0.0
 10
1.5033543307086614
 20
-2.3163661417322836
 30
0.0
 10
1.5033543307086614
 20
-2.3163661417322836
 30
0.0
 10
1.4991456692913387
 20
-2.3115275590551181
 30
0.0
 10
1.4991456692913387
 20
-2.3115275590551181
 30
0.0
 10
1.4991456692913387
 20
-2.3115275590551181
 30
0.0
 10
1.4991456692913387
 20
-2.3115275590551181
 30
0.0
 10
1.4947165354330709
 20
-2.3069015748031498
 30
0.0
 10
1.4947165354330709
 20
-2.3069015748031498
 30
0.0
 10
1.4947165354330709
 20
-2.3069015748031498
 30
0.0
 10
1.4947165354330709
 20
-2.3069015748031498
 30
0.0
 10
1.4900629921259843
 20
-2.3024803149606301
 30
0.0
 10
1.4900629921259843
 20
-2.3024803149606301
 30
0.0
 10
1.4900629921259843
 20
-2.3024803149606301
 30
0.0
 10
1.4900629921259843
 20
-2.3024803149606301
 30
0.0
 10
1.4852047244094488
 20
-2.2982913385826773
 30
0.0
 10
1.4852047244094488
 20
-2.2982913385826773
 30
0.0
 10
1.4852047244094488
 20
-2.2982913385826773
 30
0.0
 10
1.4852047244094488
 20
-2.2982913385826773
 30
0.0
 10
1.4801417322834647
 20
-2.2943307086614175
 30
0.0
 10
1.4801417322834647
 20
-2.2943307086614175
 30
0.0
 10
1.4801417322834647
 20
-2.2943307086614175
 30
0.0
 10
1.4801417322834647
 20
-2.2943307086614175
 30
0.0
 10
1.4748976377952756
 20
-2.2906141732283465
 30
0.0
 10
1.4748976377952756
 20
-2.2906141732283465
 30
0.0
 10
1.4748976377952756
 20
-2.2906141732283465
 30
0.0
 10
1.4748976377952756
 20
-2.2906141732283465
 30
0.0
 10
1.4694606299212598
 20
-2.2871417322834646
 30
0.0
 10
1.4694606299212598
 20
-2.2871417322834646
 30
0.0
 10
1.4694606299212598
 20
-2.2871417322834646
 30
0.0
 10
1.4694606299212598
 20
-2.2871417322834646
 30
0.0
 10
1.4638543307086616
 20
-2.2839330708661416
 30
0.0
 10
1.4638543307086616
 20
-2.2839330708661416
 30
0.0
 10
1.4638543307086616
 20
-2.2839330708661416
 30
0.0
 10
1.4638543307086616
 20
-2.2839330708661416
 30
0.0
 10
1.4580826771653543
 20
-2.2809881889763779
 30
0.0
 10
1.4580826771653543
 20
-2.2809881889763779
 30
0.0
 10
1.4580826771653543
 20
-2.2809881889763779
 30
0.0
 10
1.4580826771653543
 20
-2.2809881889763779
 30
0.0
 10
1.4521574803149606
 20
-2.2783228346456692
 30
0.0
 10
1.4521574803149606
 20
-2.2783228346456692
 30
0.0
 10
1.4521574803149606
 20
-2.2783228346456692
 30
0.0
 10
1.4521574803149606
 20
-2.2783228346456692
 30
0.0
 10
1.4460748031496065
 20
-2.2759291338582677
 30
0.0
 10
1.4460748031496065
 20
-2.2759291338582677
 30
0.0
 10
1.4460748031496065
 20
-2.2759291338582677
 30
0.0
 10
1.4460748031496065
 20
-2.2759291338582677
 30
0.0
 10
1.4398543307086615
 20
-2.2738346456692913
 30
0.0
 10
1.4398543307086615
 20
-2.2738346456692913
 30
0.0
 10
1.4398543307086615
 20
-2.2738346456692913
 30
0.0
 10
1.4398543307086615
 20
-2.2738346456692913
 30
0.0
 10
1.4335
 20
-2.2720354330708661
 30
0.0
 10
1.4335
 20
-2.2720354330708661
 30
0.0
 10
1.4335
 20
-2.2720354330708661
 30
0.0
 10
1.4335
 20
-2.2720354330708661
 30
0.0
 10
1.4270275590551182
 20
-2.2705511811023622
 30
0.0
 10
1.4270275590551182
 20
-2.2705511811023622
 30
0.0
 10
1.4270275590551182
 20
-2.2705511811023622
 30
0.0
 10
1.4270275590551182
 20
-2.2705511811023622
 30
0.0
 10
1.4204330708661417
 20
-2.2693740157480318
 30
0.0
 10
1.4204330708661417
 20
-2.2693740157480318
 30
0.0
 10
1.4204330708661417
 20
-2.2693740157480318
 30
0.0
 10
1.4204330708661417
 20
-2.2693740157480318
 30
0.0
 10
1.4137362204724411
 20
-2.2685314960629923
 30
0.0
 10
1.4137362204724411
 20
-2.2685314960629923
 30
0.0
 10
1.4137362204724411
 20
-2.2685314960629923
 30
0.0
 10
1.4137362204724411
 20
-2.2685314960629923
 30
0.0
 10
1.4069370078740158
 20
-2.268015748031496
 30
0.0
 10
1.4069370078740158
 20
-2.268015748031496
 30
0.0
 10
1.4069370078740158
 20
-2.268015748031496
 30
0.0
 10
1.4069370078740158
 20
-2.268015748031496
 30
0.0
 10
1.4000551181102363
 20
-2.2678464566929133
 30
0.0
 10
1.4000551181102363
 20
-2.2678464566929133
 30
0.0
  0
SPLINE
  5
3D
100
AcDbEntity
  8
Layer 1
 62
     9
100
AcDbSpline
210
0.0
220
0.0
230
1.0
 70
     1
 71
     3
 72
    20
 73
    16
 74
     0
 42
0.0000000001
 43
0.0000000001
 40
0.0
 40
0.0
 40
0.0
 40
0.0
 40
0.25
 40
0.25
 40
0.25
 40
0.25
 40
0.5
 40
0.5
 40
0.5
 40
0.5
 40
0.75
 40
0.75
 40
0.75
 40
0.75
 40
1.0
 40
1.0
 40
1.0
 40
1.0
 10
1.8600866141732284
 20
-1.0506102362204726
 30
0.0
 10
1.8600866141732284
 20
-1.0506102362204726
 30
0.0
 10
2.5093346456692913
 20
-0.6628267716535433
 30
0.0
 10
2.5093346456692913
 20
-0.6628267716535433
 30
0.0
 10
2.5093346456692913
 20
-0.6628267716535433
 30
0.0
 10
2.5093346456692913
 20
-0.6628267716535433
 30
0.0
 10
2.2102559055118109
 20
-1.8284370078740158
 30
0.0
 10
2.2102559055118109
 20
-1.8284370078740158
 30
0.0
 10
2.2102559055118109
 20
-1.8284370078740158
 30
0.0
 10
2.2102559055118109
 20
-1.8284370078740158
 30
0.0
 10
1.561007874015748
 20
-2.2162204724409449
 30
0.0
 10
1.561007874015748
 20
-2.2162204724409449
 30
0.0
 10
1.561007874015748
 20
-2.2162204724409449
 30
0.0
 10
1.561007874015748
 20
-2.2162204724409449
 30
0.0
 10
1.8600866141732284
 20
-1.0506102362204726
 30
0.0
 10
1.8600866141732284
 20
-1.0506102362204726
 30
0.0
  0
SPLINE
  5
3E
100
AcDbEntity
  8
Layer 1
370
     5
100
AcDbSpline
210
0.0
220
0.0
230
1.0
 70
     1
 71
     3
 72
    20
 73
    16
 74
     0
 42
0.0000000001
 43
0.0000000001
 40
0.0
 40
0.0
 40
0.0
 40
0.0
 40
0.25
 40
0.25
 40
0.25
 40
0.25
 40
0.5
 40
0.5
 40
0.5
 40
0.5
 40
0.75
 40
0.75
 40
0.75
 40
0.75
 40
1.0
 40
1.0
 40
1.0
 40
1.0
 10
1.8600866141732284
 20
-1.0506102362204726
 30
0.0
 10
1.8600866141732284
 20
-1.0506102362204726
 30
0.0
 10
2.5093346456692913
 20
-0.6628267716535433
 30
0.0
 10
2.5093346456692913
 20
-0.6628267716535433
 30
0.0
 10
2.5093346456692913
 20
-0.6628267716535433
 30
0.0
 10
2.5093346456692913
 20
-0.6628267716535433
 30
0.0
 10
2.2102559055118109
 20
-1.8284370078740158
 30
0.0
 10
2.2102559055118109
 20
-1.8284370078740158
 30
0.0
 10
2.2102559055118109
 20
-1.8284370078740158
 30
0.0
 10
2.2102559055118109
 20
-1.8284370078740158
 30
0.0
 10
1.561007874015748
 20
-2.2162204724409449
 30
0.0
 10
1.561007874015748
 20
-2.2162204724409449
 30
0.0
 10
1.561007874015748
 20
-2.2162204724409449
 30
0.0
 10
1.561007874015748
 20
-2.2162204724409449
 30
0.0
 10
1.8600866141732284
 20
-1.0506102362204726
 30
0.0
 10
1.8600866141732284
 20
-1.0506102362204726
 30
0.0
  0
SPLINE
  5
3F
100
AcDbEntity
  8
Layer 1
 62
   118
100
AcDbSpline
210
0.0
220
0.0
230
1.0
 70
     1
 71
     3
 72
    68
 73
    64
 74
     0
 42
0.0000000001
 43
0.0000000001
 40
0.0
 40
0.0
 40
0.0
 40
0.0
 40
0.0625
 40
0.0625
 40
0.0625
 40
0.0625
 40
0.125
 40
0.125
 40
0.125
 40
0.125
 40
0.1875
 40
0.1875
 40
0.1875
 40
0.1875
 40
0.25
 40
0.25
 40
0.25
 40
0.25
 40
0.3125
 40
0.3125
 40
0.3125
 40
0.3125
 40
0.375
 40
0.375
 40
0.375
 40
0.375
 40
0.4375
 40
0.4375
 40
0.4375
 40
0.4375
 40
0.5
 40
0.5
 40
0.5
 40
0.5
 40
0.5625
 40
0.5625
 40
0.5625
 40
0.5625
 40
0.625
 40
0.625
 40
0.625
 40
0.625
 40
0.6875
 40
0.6875
 40
0.6875
 40
0.6875
 40
0.75
 40
0.75
 40
0.75
 40
0.75
 40
0.8125
 40
0.8125
 40
0.8125
 40
0.8125
 40
0.875
 40
0.875
 40
0.875
 40
0.875
 40
0.9375
 40
0.9375
 40
0.9375
 40
0.9375
 40
1.0
 40
1.0
 40
1.0
 40
1.0
 10
-1.6242834645669293
 20
-2.2871417322834646
 30
0.0
 10
-1.6242834645669293
 20
-2.2871417322834646
 30
0.0
 10
-0.9750354330708662
 20
-1.8993582677165355
 30
0.0
 10
-0.9750354330708662
 20
-1.8993582677165355
 30
0.0
 10
-0.9750354330708662
 20
-1.8993582677165355
 30
0.0
 10
-0.9750354330708662
 20
-1.8993582677165355
 30
0.0
 10
-0.9694291338582678
 20
-1.8961496062992127
 30
0.0
 10
-0.9694291338582678
 20
-1.8961496062992127
 30
0.0
 10
-0.9694291338582678
 20
-1.8961496062992127
 30
0.0
 10
-0.9694291338582678
 20
-1.8961496062992127
 30
0.0
 10
-0.9636574803149607
 20
-1.893204724409449
 30
0.0
 10
-0.9636574803149607
 20
-1.893204724409449
 30
0.0
 10
-0.9636574803149607
 20
-1.893204724409449
 30
0.0
 10
-0.9636574803149607
 20
-1.893204724409449
 30
0.0
 10
-0.957732283464567
 20
-1.8905393700787403
 30
0.0
 10
-0.957732283464567
 20
-1.8905393700787403
 30
0.0
 10
-0.957732283464567
 20
-1.8905393700787403
 30
0.0
 10
-0.957732283464567
 20
-1.8905393700787403
 30
0.0
 10
-0.9516496062992126
 20
-1.8881456692913388
 30
0.0
 10
-0.9516496062992126
 20
-1.8881456692913388
 30
0.0
 10
-0.9516496062992126
 20
-1.8881456692913388
 30
0.0
 10
-0.9516496062992126
 20
-1.8881456692913388
 30
0.0
 10
-0.9454291338582678
 20
-1.8860511811023624
 30
0.0
 10
-0.9454291338582678
 20
-1.8860511811023624
 30
0.0
 10
-0.9454291338582678
 20
-1.8860511811023624
 30
0.0
 10
-0.9454291338582678
 20
-1.8860511811023624
 30
0.0
 10
-0.9390748031496063
 20
-1.8842519685039372
 30
0.0
 10
-0.9390748031496063
 20
-1.8842519685039372
 30
0.0
 10
-0.9390748031496063
 20
-1.8842519685039372
 30
0.0
 10
-0.9390748031496063
 20
-1.8842519685039372
 30
0.0
 10
-0.9326023622047245
 20
-1.8827677165354331
 30
0.0
 10
-0.9326023622047245
 20
-1.8827677165354331
 30
0.0
 10
-0.9326023622047245
 20
-1.8827677165354331
 30
0.0
 10
-0.9326023622047245
 20
-1.8827677165354331
 30
0.0
 10
-1.5818503937007875
 20
-2.2705511811023622
 30
0.0
 10
-1.5818503937007875
 20
-2.2705511811023622
 30
0.0
 10
-1.5818503937007875
 20
-2.2705511811023622
 30
0.0
 10
-1.5818503937007875
 20
-2.2705511811023622
 30
0.0
 10
-1.5883228346456693
 20
-2.2720354330708661
 30
0.0
 10
-1.5883228346456693
 20
-2.2720354330708661
 30
0.0
 10
-1.5883228346456693
 20
-2.2720354330708661
 30
0.0
 10
-1.5883228346456693
 20
-2.2720354330708661
 30
0.0
 10
-1.5946771653543308
 20
-2.2738346456692913
 30
0.0
 10
-1.5946771653543308
 20
-2.2738346456692913
 30
0.0
 10
-1.5946771653543308
 20
-2.2738346456692913
 30
0.0
 10
-1.5946771653543308
 20
-2.2738346456692913
 30
0.0
 10
-1.6008976377952757
 20
-2.2759291338582677
 30
0.0
 10
-1.6008976377952757
 20
-2.2759291338582677
 30
0.0
 10
-1.6008976377952757
 20
-2.2759291338582677
 30
0.0
 10
-1.6008976377952757
 20
-2.2759291338582677
 30
0.0
 10
-1.6069803149606299
 20
-2.2783228346456692
 30
0.0
 10
-1.6069803149606299
 20
-2.2783228346456692
 30
0.0
 10
-1.6069803149606299
 20
-2.2783228346456692
 30
0.0
 10
-1.6069803149606299
 20
-2.2783228346456692
 30
0.0
 10
-1.6129055118110236
 20
-2.2809881889763779
 30
0.0
 10
-1.6129055118110236
 20
-2.2809881889763779
 30
0.0
 10
-1.6129055118110236
 20
-2.2809881889763779
 30
0.0
 10
-1.6129055118110236
 20
-2.2809881889763779
 30
0.0
 10
-1.6186771653543308
 20
-2.2839330708661416
 30
0.0
 10
-1.6186771653543308
 20
-2.2839330708661416
 30
0.0
 10
-1.6186771653543308
 20
-2.2839330708661416
 30
0.0
 10
-1.6186771653543308
 20
-2.2839330708661416
 30
0.0
 10
-1.6242834645669293
 20
-2.2871417322834646
 30
0.0
 10
-1.6242834645669293
 20
-2.2871417322834646
 30
0.0
  0
SPLINE
  5
40
100
AcDbEntity
  8
Layer 1
 62
   252
100
AcDbSpline
210
0.0
220
0.0
230
1.0
 70
     1
 71
     3
 72
    44
 73
    40
 74
     0
 42
0.0000000001
 43
0.0000000001
 40
0.0
 40
0.0
 40
0.0
 40
0.0
 40
0.1
 40
0.1
 40
0.1
 40
0.1
 40
0.2
 40
0.2
 40
0.2
 40
0.2
 40
0.3
 40
0.3
 40
0.3
 40
0.3
 40
0.4
 40
0.4
 40
0.4
 40
0.4
 40
0.5
 40
0.5
 40
0.5
 40
0.5
 40
0.6
 40
0.6
 40
0.6
 40
0.6
 40
0.7
 40
0.7
 40
0.7
 40
0.7
 40
0.7999999999999999
 40
0.7999999999999999
 40
0.7999999999999999
 40
0.7999999999999999
 40
0.8999999999999999
 40
0.8999999999999999
 40
0.8999999999999999
 40
0.8999999999999999
 40
1.0
 40
1.0
 40
1.0
 40
1.0
 10
-1.5818503937007875
 20
-2.2705511811023622
 30
0.0
 10
-1.5818503937007875
 20
-2.2705511811023622
 30
0.0
 10
-0.9326023622047245
 20
-1.8827677165354331
 30
0.0
 10
-0.9326023622047245
 20
-1.8827677165354331
 30
0.0
 10
-0.9326023622047245
 20
-1.8827677165354331
 30
0.0
 10
-0.9326023622047245
 20
-1.8827677165354331
 30
0.0
 10
-0.926007874015748
 20
-1.8815905511811024
 30
0.0
 10
-0.926007874015748
 20
-1.8815905511811024
 30
0.0
 10
-0.926007874015748
 20
-1.8815905511811024
 30
0.0
 10
-0.926007874015748
 20
-1.8815905511811024
 30
0.0
 10
-0.9193110236220473
 20
-1.880748031496063
 30
0.0
 10
-0.9193110236220473
 20
-1.880748031496063
 30
0.0
 10
-0.9193110236220473
 20
-1.880748031496063
 30
0.0
 10
-0.9193110236220473
 20
-1.880748031496063
 30
0.0
 10
-0.9125118110236221
 20
-1.8802322834645671
 30
0.0
 10
-0.9125118110236221
 20
-1.8802322834645671
 30
0.0
 10
-0.9125118110236221
 20
-1.8802322834645671
 30
0.0
 10
-0.9125118110236221
 20
-1.8802322834645671
 30
0.0
 10
-0.9056299212598425
 20
-1.8800629921259844
 30
0.0
 10
-0.9056299212598425
 20
-1.8800629921259844
 30
0.0
 10
-0.9056299212598425
 20
-1.8800629921259844
 30
0.0
 10
-0.9056299212598425
 20
-1.8800629921259844
 30
0.0
 10
-1.5548779527559056
 20
-2.2678464566929133
 30
0.0
 10
-1.5548779527559056
 20
-2.2678464566929133
 30
0.0
 10
-1.5548779527559056
 20
-2.2678464566929133
 30
0.0
 10
-1.5548779527559056
 20
-2.2678464566929133
 30
0.0
 10
-1.561759842519685
 20
-2.268015748031496
 30
0.0
 10
-1.561759842519685
 20
-2.268015748031496
 30
0.0
 10
-1.561759842519685
 20
-2.268015748031496
 30
0.0
 10
-1.561759842519685
 20
-2.268015748031496
 30
0.0
 10
-1.5685590551181103
 20
-2.2685314960629923
 30
0.0
 10
-1.5685590551181103
 20
-2.2685314960629923
 30
0.0
 10
-1.5685590551181103
 20
-2.2685314960629923
 30
0.0
 10
-1.5685590551181103
 20
-2.2685314960629923
 30
0.0
 10
-1.5752559055118112
 20
-2.2693740157480318
 30
0.0
 10
-1.5752559055118112
 20
-2.2693740157480318
 30
0.0
 10
-1.5752559055118112
 20
-2.2693740157480318
 30
0.0
 10
-1.5752559055118112
 20
-2.2693740157480318
 30
0.0
 10
-1.5818503937007875
 20
-2.2705511811023622
 30
0.0
 10
-1.5818503937007875
 20
-2.2705511811023622
 30
0.0
  0
SPLINE
  5
41
100
AcDbEntity
  8
Layer 1
370
     5
100
AcDbSpline
210
0.0
220
0.0
230
1.0
 70
     1
 71
     3
 72
   100
 73
    96
 74
     0
 42
0.0000000001
 43
0.0000000001
 40
0.0
 40
0.0
 40
0.0
 40
0.0
 40
0.0416666666666667
 40
0.0416666666666667
 40
0.0416666666666667
 40
0.0416666666666667
 40
0.0833333333333333
 40
0.0833333333333333
 40
0.0833333333333333
 40
0.0833333333333333
 40
0.125
 40
0.125
 40
0.125
 40
0.125
 40
0.1666666666666667
 40
0.1666666666666667
 40
0.1666666666666667
 40
0.1666666666666667
 40
0.2083333333333333
 40
0.2083333333333333
 40
0.2083333333333333
 40
0.2083333333333333
 40
0.25
 40
0.25
 40
0.25
 40
0.25
 40
0.2916666666666666
 40
0.2916666666666666
 40
0.2916666666666666
 40
0.2916666666666666
 40
0.3333333333333333
 40
0.3333333333333333
 40
0.3333333333333333
 40
0.3333333333333333
 40
0.375
 40
0.375
 40
0.375
 40
0.375
 40
0.4166666666666667
 40
0.4166666666666667
 40
0.4166666666666667
 40
0.4166666666666667
 40
0.4583333333333334
 40
0.4583333333333334
 40
0.4583333333333334
 40
0.4583333333333334
 40
0.5
 40
0.5
 40
0.5
 40
0.5
 40
0.5416666666666666
 40
0.5416666666666666
 40
0.5416666666666666
 40
0.5416666666666666
 40
0.5833333333333333
 40
0.5833333333333333
 40
0.5833333333333333
 40
0.5833333333333333
 40
0.6249999999999999
 40
0.6249999999999999
 40
0.6249999999999999
 40
0.6249999999999999
 40
0.6666666666666665
 40
0.6666666666666665
 40
0.6666666666666665
 40
0.6666666666666665
 40
0.7083333333333332
 40
0.7083333333333332
 40
0.7083333333333332
 40
0.7083333333333332
 40
0.7499999999999998
 40
0.7499999999999998
 40
0.7499999999999998
 40
0.7499999999999998
 40
0.7916666666666664
 40
0.7916666666666664
 40
0.7916666666666664
 40
0.7916666666666664
 40
0.833333333333333
 40
0.833333333333333
 40
0.833333333333333
 40
0.833333333333333
 40
0.8749999999999997
 40
0.8749999999999997
 40
0.8749999999999997
 40
0.8749999999999997
 40
0.9166666666666663
 40
0.9166666666666663
 40
0.9166666666666663
 40
0.9166666666666663
 40
0.9583333333333329
 40
0.9583333333333329
 40
0.9583333333333329
 40
0.9583333333333329
 40
1.0
 40
1.0
 40
1.0
 40
1.0
 10
-1.6242834645669293
 20
-2.2871417322834646
 30
0.0
 10
-1.6242834645669293
 20
-2.2871417322834646
 30
0.0
 10
-0.9750354330708662
 20
-1.8993582677165355
 30
0.0
 10
-0.9750354330708662
 20
-1.8993582677165355
 30
0.0
 10
-0.9750354330708662
 20
-1.8993582677165355
 30
0.0
 10
-0.9750354330708662
 20
-1.8993582677165355
 30
0.0
 10
-0.9694291338582678
 20
-1.8961496062992127
 30
0.0
 10
-0.9694291338582678
 20
-1.8961496062992127
 30
0.0
 10
-0.9694291338582678
 20
-1.8961496062992127
 30
0.0
 10
-0.9694291338582678
 20
-1.8961496062992127
 30
0.0
 10
-0.9636574803149607
 20
-1.893204724409449
 30
0.0
 10
-0.9636574803149607
 20
-1.893204724409449
 30
0.0
 10
-0.9636574803149607
 20
-1.893204724409449
 30
0.0
 10
-0.9636574803149607
 20
-1.893204724409449
 30
0.0
 10
-0.957732283464567
 20
-1.8905393700787403
 30
0.0
 10
-0.957732283464567
 20
-1.8905393700787403
 30
0.0
 10
-0.957732283464567
 20
-1.8905393700787403
 30
0.0
 10
-0.957732283464567
 20
-1.8905393700787403
 30
0.0
 10
-0.9516496062992126
 20
-1.8881456692913388
 30
0.0
 10
-0.9516496062992126
 20
-1.8881456692913388
 30
0.0
 10
-0.9516496062992126
 20
-1.8881456692913388
 30
0.0
 10
-0.9516496062992126
 20
-1.8881456692913388
 30
0.0
 10
-0.9454291338582678
 20
-1.8860511811023624
 30
0.0
 10
-0.9454291338582678
 20
-1.8860511811023624
 30
0.0
 10
-0.9454291338582678
 20
-1.8860511811023624
 30
0.0
 10
-0.9454291338582678
 20
-1.8860511811023624
 30
0.0
 10
-0.9390748031496063
 20
-1.8842519685039372
 30
0.0
 10
-0.9390748031496063
 20
-1.8842519685039372
 30
0.0
 10
-0.9390748031496063
 20
-1.8842519685039372
 30
0.0
 10
-0.9390748031496063
 20
-1.8842519685039372
 30
0.0
 10
-0.9326023622047245
 20
-1.8827677165354331
 30
0.0
 10
-0.9326023622047245
 20
-1.8827677165354331
 30
0.0
 10
-0.9326023622047245
 20
-1.8827677165354331
 30
0.0
 10
-0.9326023622047245
 20
-1.8827677165354331
 30
0.0
 10
-0.926007874015748
 20
-1.8815905511811024
 30
0.0
 10
-0.926007874015748
 20
-1.8815905511811024
 30
0.0
 10
-0.926007874015748
 20
-1.8815905511811024
 30
0.0
 10
-0.926007874015748
 20
-1.8815905511811024
 30
0.0
 10
-0.9193110236220473
 20
-1.880748031496063
 30
0.0
 10
-0.9193110236220473
 20
-1.880748031496063
 30
0.0
 10
-0.9193110236220473
 20
-1.880748031496063
 30
0.0
 10
-0.9193110236220473
 20
-1.880748031496063
 30
0.0
 10
-0.9125118110236221
 20
-1.8802322834645671
 30
0.0
 10
-0.9125118110236221
 20
-1.8802322834645671
 30
0.0
 10
-0.9125118110236221
 20
-1.8802322834645671
 30
0.0
 10
-0.9125118110236221
 20
-1.8802322834645671
 30
0.0
 10
-0.9056299212598425
 20
-1.8800629921259844
 30
0.0
 10
-0.9056299212598425
 20
-1.8800629921259844
 30
0.0
 10
-0.9056299212598425
 20
-1.8800629921259844
 30
0.0
 10
-0.9056299212598425
 20
-1.8800629921259844
 30
0.0
 10
-1.5548779527559056
 20
-2.2678464566929133
 30
0.0
 10
-1.5548779527559056
 20
-2.2678464566929133
 30
0.0
 10
-1.5548779527559056
 20
-2.2678464566929133
 30
0.0
 10
-1.5548779527559056
 20
-2.2678464566929133
 30
0.0
 10
-1.561759842519685
 20
-2.268015748031496
 30
0.0
 10
-1.561759842519685
 20
-2.268015748031496
 30
0.0
 10
-1.561759842519685
 20
-2.268015748031496
 30
0.0
 10
-1.561759842519685
 20
-2.268015748031496
 30
0.0
 10
-1.5685590551181103
 20
-2.2685314960629923
 30
0.0
 10
-1.5685590551181103
 20
-2.2685314960629923
 30
0.0
 10
-1.5685590551181103
 20
-2.2685314960629923
 30
0.0
 10
-1.5685590551181103
 20
-2.2685314960629923
 30
0.0
 10
-1.5752559055118112
 20
-2.2693740157480318
 30
0.0
 10
-1.5752559055118112
 20
-2.2693740157480318
 30
0.0
 10
-1.5752559055118112
 20
-2.2693740157480318
 30
0.0
 10
-1.5752559055118112
 20
-2.2693740157480318
 30
0.0
 10
-1.5818503937007875
 20
-2.2705511811023622
 30
0.0
 10
-1.5818503937007875
 20
-2.2705511811023622
 30
0.0
 10
-1.5818503937007875
 20
-2.2705511811023622
 30
0.0
 10
-1.5818503937007875
 20
-2.2705511811023622
 30
0.0
 10
-1.5883228346456693
 20
-2.2720354330708661
 30
0.0
 10
-1.5883228346456693
 20
-2.2720354330708661
 30
0.0
 10
-1.5883228346456693
 20
-2.2720354330708661
 30
0.0
 10
-1.5883228346456693
 20
-2.2720354330708661
 30
0.0
 10
-1.5946771653543308
 20
-2.2738346456692913
 30
0.0
 10
-1.5946771653543308
 20
-2.2738346456692913
 30
0.0
 10
-1.5946771653543308
 20
-2.2738346456692913
 30
0.0
 10
-1.5946771653543308
 20
-2.2738346456692913
 30
0.0
 10
-1.6008976377952757
 20
-2.2759291338582677
 30
0.0
 10
-1.6008976377952757
 20
-2.2759291338582677
 30
0.0
 10
-1.6008976377952757
 20
-2.2759291338582677
 30
0.0
 10
-1.6008976377952757
 20
-2.2759291338582677
 30
0.0
 10
-1.6069803149606299
 20
-2.2783228346456692
 30
0.0
 10
-1.6069803149606299
 20
-2.2783228346456692
 30
0.0
 10
-1.6069803149606299
 20
-2.2783228346456692
 30
0.0
 10
-1.6069803149606299
 20
-2.2783228346456692
 30
0.0
 10
-1.6129055118110236
 20
-2.2809881889763779
 30
0.0
 10
-1.6129055118110236
 20
-2.2809881889763779
 30
0.0
 10
-1.6129055118110236
 20
-2.2809881889763779
 30
0.0
 10
-1.6129055118110236
 20
-2.2809881889763779
 30
0.0
 10
-1.6186771653543308
 20
-2.2839330708661416
 30
0.0
 10
-1.6186771653543308
 20
-2.2839330708661416
 30
0.0
 10
-1.6186771653543308
 20
-2.2839330708661416
 30
0.0
 10
-1.6186771653543308
 20
-2.2839330708661416
 30
0.0
 10
-1.6242834645669293
 20
-2.2871417322834646
 30
0.0
 10
-1.6242834645669293
 20
-2.2871417322834646
 30
0.0
  0
SPLINE
  5
42
100
AcDbEntity
  8
Layer 1
 62
   119
100
AcDbSpline
210
0.0
220
0.0
230
1.0
 70
     1
 71
     3
 72
    20
 73
    16
 74
     0
 42
0.0000000001
 43
0.0000000001
 40
0.0
 40
0.0
 40
0.0
 40
0.0
 40
0.25
 40
0.25
 40
0.25
 40
0.25
 40
0.5
 40
0.5
 40
0.5
 40
0.5
 40
0.75
 40
0.75
 40
0.75
 40
0.75
 40
1.0
 40
1.0
 40
1.0
 40
1.0
 10
-2.0149094488188979
 20
-1.0506102362204726
 30
0.0
 10
-2.0149094488188979
 20
-1.0506102362204726
 30
0.0
 10
-1.3656614173228347
 20
-0.6628267716535433
 30
0.0
 10
-1.3656614173228347
 20
-0.6628267716535433
 30
0.0
 10
-1.3656614173228347
 20
-0.6628267716535433
 30
0.0
 10
-1.3656614173228347
 20
-0.6628267716535433
 30
0.0
 10
0.5718622047244095
 20
-0.021740157480315
 30
0.0
 10
0.5718622047244095
 20
-0.021740157480315
 30
0.0
 10
0.5718622047244095
 20
-0.021740157480315
 30
0.0
 10
0.5718622047244095
 20
-0.021740157480315
 30
0.0
 10
-0.0773858267716536
 20
-0.4095236220472441
 30
0.0
 10
-0.0773858267716536
 20
-0.4095236220472441
 30
0.0
 10
-0.0773858267716536
 20
-0.4095236220472441
 30
0.0
 10
-0.0773858267716536
 20
-0.4095236220472441
 30
0.0
 10
-2.0149094488188979
 20
-1.0506102362204726
 30
0.0
 10
-2.0149094488188979
 20
-1.0506102362204726
 30
0.0
  0
SPLINE
  5
43
100
AcDbEntity
  8
Layer 1
370
     5
100
AcDbSpline
210
0.0
220
0.0
230
1.0
 70
     1
 71
     3
 72
    20
 73
    16
 74
     0
 42
0.0000000001
 43
0.0000000001
 40
0.0
 40
0.0
 40
0.0
 40
0.0
 40
0.25
 40
0.25
 40
0.25
 40
0.25
 40
0.5
 40
0.5
 40
0.5
 40
0.5
 40
0.75
 40
0.75
 40
0.75
 40
0.75
 40
1.0
 40
1.0
 40
1.0
 40
1.0
 10
-2.0149094488188979
 20
-1.0506102362204726
 30
0.0
 10
-2.0149094488188979
 20
-1.0506102362204726
 30
0.0
 10
-1.3656614173228347
 20
-0.6628267716535433
 30
0.0
 10
-1.3656614173228347
 20
-0.6628267716535433
 30
0.0
 10
-1.3656614173228347
 20
-0.6628267716535433
 30
0.0
 10
-1.3656614173228347
 20
-0.6628267716535433
 30
0.0
 10
0.5718622047244095
 20
-0.021740157480315
 30
0.0
 10
0.5718622047244095
 20
-0.021740157480315
 30
0.0
 10
0.5718622047244095
 20
-0.021740157480315
 30
0.0
 10
0.5718622047244095
 20
-0.021740157480315
 30
0.0
 10
-0.0773858267716536
 20
-0.4095236220472441
 30
0.0
 10
-0.0773858267716536
 20
-0.4095236220472441
 30
0.0
 10
-0.0773858267716536
 20
-0.4095236220472441
 30
0.0
 10
-0.0773858267716536
 20
-0.4095236220472441
 30
0.0
 10
-2.0149094488188979
 20
-1.0506102362204726
 30
0.0
 10
-2.0149094488188979
 20
-1.0506102362204726
 30
0.0
  0
SPLINE
  5
44
100
AcDbEntity
  8
Layer 1
 62
   253
100
AcDbSpline
210
0.0
220
0.0
230
1.0
 70
     1
 71
     3
 72
    20
 73
    16
 74
     0
 42
0.0000000001
 43
0.0000000001
 40
0.0
 40
0.0
 40
0.0
 40
0.0
 40
0.25
 40
0.25
 40
0.25
 40
0.25
 40
0.5
 40
0.5
 40
0.5
 40
0.5
 40
0.75
 40
0.75
 40
0.75
 40
0.75
 40
1.0
 40
1.0
 40
1.0
 40
1.0
 10
-0.0773858267716536
 20
-0.4095236220472441
 30
0.0
 10
-0.0773858267716536
 20
-0.4095236220472441
 30
0.0
 10
0.5718622047244095
 20
-0.021740157480315
 30
0.0
 10
0.5718622047244095
 20
-0.021740157480315
 30
0.0
 10
0.5718622047244095
 20
-0.021740157480315
 30
0.0
 10
0.5718622047244095
 20
-0.021740157480315
 30
0.0
 10
2.5093346456692913
 20
-0.6628267716535433
 30
0.0
 10
2.5093346456692913
 20
-0.6628267716535433
 30
0.0
 10
2.5093346456692913
 20
-0.6628267716535433
 30
0.0
 10
2.5093346456692913
 20
-0.6628267716535433
 30
0.0
 10
1.8600866141732284
 20
-1.0506102362204726
 30
0.0
 10
1.8600866141732284
 20
-1.0506102362204726
 30
0.0
 10
1.8600866141732284
 20
-1.0506102362204726
 30
0.0
 10
1.8600866141732284
 20
-1.0506102362204726
 30
0.0
 10
-0.0773858267716536
 20
-0.4095236220472441
 30
0.0
 10
-0.0773858267716536
 20
-0.4095236220472441
 30
0.0
  0
SPLINE
  5
45
100
AcDbEntity
  8
Layer 1
370
     5
100
AcDbSpline
210
0.0
220
0.0
230
1.0
 70
     1
 71
     3
 72
    20
 73
    16
 74
     0
 42
0.0000000001
 43
0.0000000001
 40
0.0
 40
0.0
 40
0.0
 40
0.0
 40
0.25
 40
0.25
 40
0.25
 40
0.25
 40
0.5
 40
0.5
 40
0.5
 40
0.5
 40
0.75
 40
0.75
 40
0.75
 40
0.75
 40
1.0
 40
1.0
 40
1.0
 40
1.0
 10
-0.0773858267716536
 20
-0.4095236220472441
 30
0.0
 10
-0.0773858267716536
 20
-0.4095236220472441
 30
0.0
 10
0.5718622047244095
 20
-0.021740157480315
 30
0.0
 10
0.5718622047244095
 20
-0.021740157480315
 30
0.0
 10
0.5718622047244095
 20
-0.021740157480315
 30
0.0
 10
0.5718622047244095
 20
-0.021740157480315
 30
0.0
 10
2.5093346456692913
 20
-0.6628267716535433
 30
0.0
 10
2.5093346456692913
 20
-0.6628267716535433
 30
0.0
 10
2.5093346456692913
 20
-0.6628267716535433
 30
0.0
 10
2.5093346456692913
 20
-0.6628267716535433
 30
0.0
 10
1.8600866141732284
 20
-1.0506102362204726
 30
0.0
 10
1.8600866141732284
 20
-1.0506102362204726
 30
0.0
 10
1.8600866141732284
 20
-1.0506102362204726
 30
0.0
 10
1.8600866141732284
 20
-1.0506102362204726
 30
0.0
 10
-0.0773858267716536
 20
-0.4095236220472441
 30
0.0
 10
-0.0773858267716536
 20
-0.4095236220472441
 30
0.0
  0
SPLINE
  5
46
100
AcDbEntity
  8
Layer 1
 62
     9
100
AcDbSpline
210
0.0
220
0.0
230
1.0
 70
     1
 71
     3
 72
    20
 73
    16
 74
     0
 42
0.0000000001
 43
0.0000000001
 40
0.0
 40
0.0
 40
0.0
 40
0.0
 40
0.25
 40
0.25
 40
0.25
 40
0.25
 40
0.5
 40
0.5
 40
0.5
 40
0.5
 40
0.75
 40
0.75
 40
0.75
 40
0.75
 40
1.0
 40
1.0
 40
1.0
 40
1.0
 10
1.4000944881889765
 20
-2.2250433070866142
 30
0.0
 10
1.4000944881889765
 20
-2.2250433070866142
 30
0.0
 10
2.0493425196850397
 20
-1.8372598425196851
 30
0.0
 10
2.0493425196850397
 20
-1.8372598425196851
 30
0.0
 10
2.0493425196850397
 20
-1.8372598425196851
 30
0.0
 10
2.0493425196850397
 20
-1.8372598425196851
 30
0.0
 10
2.0493031496062994
 20
-1.8800629921259844
 30
0.0
 10
2.0493031496062994
 20
-1.8800629921259844
 30
0.0
 10
2.0493031496062994
 20
-1.8800629921259844
 30
0.0
 10
2.0493031496062994
 20
-1.8800629921259844
 30
0.0
 10
1.4000551181102363
 20
-2.2678464566929133
 30
0.0
 10
1.4000551181102363
 20
-2.2678464566929133
 30
0.0
 10
1.4000551181102363
 20
-2.2678464566929133
 30
0.0
 10
1.4000551181102363
 20
-2.2678464566929133
 30
0.0
 10
1.4000944881889765
 20
-2.2250433070866142
 30
0.0
 10
1.4000944881889765
 20
-2.2250433070866142
 30
0.0
  0
SPLINE
  5
47
100
AcDbEntity
  8
Layer 1
370
     5
100
AcDbSpline
210
0.0
220
0.0
230
1.0
 70
     1
 71
     3
 72
    20
 73
    16
 74
     0
 42
0.0000000001
 43
0.0000000001
 40
0.0
 40
0.0
 40
0.0
 40
0.0
 40
0.25
 40
0.25
 40
0.25
 40
0.25
 40
0.5
 40
0.5
 40
0.5
 40
0.5
 40
0.75
 40
0.75
 40
0.75
 40
0.75
 40
1.0
 40
1.0
 40
1.0
 40
1.0
 10
1.4000944881889765
 20
-2.2250433070866142
 30
0.0
 10
1.4000944881889765
 20
-2.2250433070866142
 30
0.0
 10
2.0493425196850397
 20
-1.8372598425196851
 30
0.0
 10
2.0493425196850397
 20
-1.8372598425196851
 30
0.0
 10
2.0493425196850397
 20
-1.8372598425196851
 30
0.0
 10
2.0493425196850397
 20
-1.8372598425196851
 30
0.0
 10
2.0493031496062994
 20
-1.8800629921259844
 30
0.0
 10
2.0493031496062994
 20
-1.8800629921259844
 30
0.0
 10
2.0493031496062994
 20
-1.8800629921259844
 30
0.0
 10
2.0493031496062994
 20
-1.8800629921259844
 30
0.0
 10
1.4000551181102363
 20
-2.2678464566929133
 30
0.0
 10
1.4000551181102363
 20
-2.2678464566929133
 30
0.0
 10
1.4000551181102363
 20
-2.2678464566929133
 30
0.0
 10
1.4000551181102363
 20
-2.2678464566929133
 30
0.0
 10
1.4000944881889765
 20
-2.2250433070866142
 30
0.0
 10
1.4000944881889765
 20
-2.2250433070866142
 30
0.0
  0
SPLINE
  5
48
100
AcDbEntity
  8
Layer 1
 62
   253
100
AcDbSpline
210
0.0
220
0.0
230
1.0
 70
     1
 71
     3
 72
    68
 73
    64
 74
     0
 42
0.0000000001
 43
0.0000000001
 40
0.0
 40
0.0
 40
0.0
 40
0.0
 40
0.0625
 40
0.0625
 40
0.0625
 40
0.0625
 40
0.125
 40
0.125
 40
0.125
 40
0.125
 40
0.1875
 40
0.1875
 40
0.1875
 40
0.1875
 40
0.25
 40
0.25
 40
0.25
 40
0.25
 40
0.3125
 40
0.3125
 40
0.3125
 40
0.3125
 40
0.375
 40
0.375
 40
0.375
 40
0.375
 40
0.4375
 40
0.4375
 40
0.4375
 40
0.4375
 40
0.5
 40
0.5
 40
0.5
 40
0.5
 40
0.5625
 40
0.5625
 40
0.5625
 40
0.5625
 40
0.625
 40
0.625
 40
0.625
 40
0.625
 40
0.6875
 40
0.6875
 40
0.6875
 40
0.6875
 40
0.75
 40
0.75
 40
0.75
 40
0.75
 40
0.8125
 40
0.8125
 40
0.8125
 40
0.8125
 40
0.875
 40
0.875
 40
0.875
 40
0.875
 40
0.9375
 40
0.9375
 40
0.9375
 40
0.9375
 40
1.0
 40
1.0
 40
1.0
 40
1.0
 10
1.4000551181102363
 20
-2.2678464566929133
 30
0.0
 10
1.4000551181102363
 20
-2.2678464566929133
 30
0.0
 10
2.0493031496062994
 20
-1.8800629921259844
 30
0.0
 10
2.0493031496062994
 20
-1.8800629921259844
 30
0.0
 10
2.0493031496062994
 20
-1.8800629921259844
 30
0.0
 10
2.0493031496062994
 20
-1.8800629921259844
 30
0.0
 10
2.0561850393700789
 20
-1.8802322834645671
 30
0.0
 10
2.0561850393700789
 20
-1.8802322834645671
 30
0.0
 10
2.0561850393700789
 20
-1.8802322834645671
 30
0.0
 10
2.0561850393700789
 20
-1.8802322834645671
 30
0.0
 10
2.062984251968504
 20
-1.880748031496063
 30
0.0
 10
2.062984251968504
 20
-1.880748031496063
 30
0.0
 10
2.062984251968504
 20
-1.880748031496063
 30
0.0
 10
2.062984251968504
 20
-1.880748031496063
 30
0.0
 10
2.0696811023622046
 20
-1.8815905511811024
 30
0.0
 10
2.0696811023622046
 20
-1.8815905511811024
 30
0.0
 10
2.0696811023622046
 20
-1.8815905511811024
 30
0.0
 10
2.0696811023622046
 20
-1.8815905511811024
 30
0.0
 10
2.0762755905511812
 20
-1.8827677165354331
 30
0.0
 10
2.0762755905511812
 20
-1.8827677165354331
 30
0.0
 10
2.0762755905511812
 20
-1.8827677165354331
 30
0.0
 10
2.0762755905511812
 20
-1.8827677165354331
 30
0.0
 10
2.0827480314960631
 20
-1.8842519685039372
 30
0.0
 10
2.0827480314960631
 20
-1.8842519685039372
 30
0.0
 10
2.0827480314960631
 20
-1.8842519685039372
 30
0.0
 10
2.0827480314960631
 20
-1.8842519685039372
 30
0.0
 10
2.0891023622047245
 20
-1.8860511811023624
 30
0.0
 10
2.0891023622047245
 20
-1.8860511811023624
 30
0.0
 10
2.0891023622047245
 20
-1.8860511811023624
 30
0.0
 10
2.0891023622047245
 20
-1.8860511811023624
 30
0.0
 10
2.0953228346456694
 20
-1.8881456692913388
 30
0.0
 10
2.0953228346456694
 20
-1.8881456692913388
 30
0.0
 10
2.0953228346456694
 20
-1.8881456692913388
 30
0.0
 10
2.0953228346456694
 20
-1.8881456692913388
 30
0.0
 10
1.4460748031496065
 20
-2.2759291338582677
 30
0.0
 10
1.4460748031496065
 20
-2.2759291338582677
 30
0.0
 10
1.4460748031496065
 20
-2.2759291338582677
 30
0.0
 10
1.4460748031496065
 20
-2.2759291338582677
 30
0.0
 10
1.4398543307086615
 20
-2.2738346456692913
 30
0.0
 10
1.4398543307086615
 20
-2.2738346456692913
 30
0.0
 10
1.4398543307086615
 20
-2.2738346456692913
 30
0.0
 10
1.4398543307086615
 20
-2.2738346456692913
 30
0.0
 10
1.4335
 20
-2.2720354330708661
 30
0.0
 10
1.4335
 20
-2.2720354330708661
 30
0.0
 10
1.4335
 20
-2.2720354330708661
 30
0.0
 10
1.4335
 20
-2.2720354330708661
 30
0.0
 10
1.4270275590551182
 20
-2.2705511811023622
 30
0.0
 10
1.4270275590551182
 20
-2.2705511811023622
 30
0.0
 10
1.4270275590551182
 20
-2.2705511811023622
 30
0.0
 10
1.4270275590551182
 20
-2.2705511811023622
 30
0.0
 10
1.4204330708661417
 20
-2.2693740157480318
 30
0.0
 10
1.4204330708661417
 20
-2.2693740157480318
 30
0.0
 10
1.4204330708661417
 20
-2.2693740157480318
 30
0.0
 10
1.4204330708661417
 20
-2.2693740157480318
 30
0.0
 10
1.4137362204724411
 20
-2.2685314960629923
 30
0.0
 10
1.4137362204724411
 20
-2.2685314960629923
 30
0.0
 10
1.4137362204724411
 20
-2.2685314960629923
 30
0.0
 10
1.4137362204724411
 20
-2.2685314960629923
 30
0.0
 10
1.4069370078740158
 20
-2.268015748031496
 30
0.0
 10
1.4069370078740158
 20
-2.268015748031496
 30
0.0
 10
1.4069370078740158
 20
-2.268015748031496
 30
0.0
 10
1.4069370078740158
 20
-2.268015748031496
 30
0.0
 10
1.4000551181102363
 20
-2.2678464566929133
 30
0.0
 10
1.4000551181102363
 20
-2.2678464566929133
 30
0.0
  0
SPLINE
  5
49
100
AcDbEntity
  8
Layer 1
 62
     9
100
AcDbSpline
210
0.0
220
0.0
230
1.0
 70
     1
 71
     3
 72
    68
 73
    64
 74
     0
 42
0.0000000001
 43
0.0000000001
 40
0.0
 40
0.0
 40
0.0
 40
0.0
 40
0.0625
 40
0.0625
 40
0.0625
 40
0.0625
 40
0.125
 40
0.125
 40
0.125
 40
0.125
 40
0.1875
 40
0.1875
 40
0.1875
 40
0.1875
 40
0.25
 40
0.25
 40
0.25
 40
0.25
 40
0.3125
 40
0.3125
 40
0.3125
 40
0.3125
 40
0.375
 40
0.375
 40
0.375
 40
0.375
 40
0.4375
 40
0.4375
 40
0.4375
 40
0.4375
 40
0.5
 40
0.5
 40
0.5
 40
0.5
 40
0.5625
 40
0.5625
 40
0.5625
 40
0.5625
 40
0.625
 40
0.625
 40
0.625
 40
0.625
 40
0.6875
 40
0.6875
 40
0.6875
 40
0.6875
 40
0.75
 40
0.75
 40
0.75
 40
0.75
 40
0.8125
 40
0.8125
 40
0.8125
 40
0.8125
 40
0.875
 40
0.875
 40
0.875
 40
0.875
 40
0.9375
 40
0.9375
 40
0.9375
 40
0.9375
 40
1.0
 40
1.0
 40
1.0
 40
1.0
 10
1.4460748031496065
 20
-2.2759291338582677
 30
0.0
 10
1.4460748031496065
 20
-2.2759291338582677
 30
0.0
 10
2.0953228346456694
 20
-1.8881456692913388
 30
0.0
 10
2.0953228346456694
 20
-1.8881456692913388
 30
0.0
 10
2.0953228346456694
 20
-1.8881456692913388
 30
0.0
 10
2.0953228346456694
 20
-1.8881456692913388
 30
0.0
 10
2.1014055118110235
 20
-1.8905393700787403
 30
0.0
 10
2.1014055118110235
 20
-1.8905393700787403
 30
0.0
 10
2.1014055118110235
 20
-1.8905393700787403
 30
0.0
 10
2.1014055118110235
 20
-1.8905393700787403
 30
0.0
 10
2.1073307086614173
 20
-1.893204724409449
 30
0.0
 10
2.1073307086614173
 20
-1.893204724409449
 30
0.0
 10
2.1073307086614173
 20
-1.893204724409449
 30
0.0
 10
2.1073307086614173
 20
-1.893204724409449
 30
0.0
 10
2.1131023622047245
 20
-1.8961496062992127
 30
0.0
 10
2.1131023622047245
 20
-1.8961496062992127
 30
0.0
 10
2.1131023622047245
 20
-1.8961496062992127
 30
0.0
 10
2.1131023622047245
 20
-1.8961496062992127
 30
0.0
 10
2.1187086614173229
 20
-1.8993582677165355
 30
0.0
 10
2.1187086614173229
 20
-1.8993582677165355
 30
0.0
 10
2.1187086614173229
 20
-1.8993582677165355
 30
0.0
 10
2.1187086614173229
 20
-1.8993582677165355
 30
0.0
 10
2.1241456692913387
 20
-1.9028307086614173
 30
0.0
 10
2.1241456692913387
 20
-1.9028307086614173
 30
0.0
 10
2.1241456692913387
 20
-1.9028307086614173
 30
0.0
 10
2.1241456692913387
 20
-1.9028307086614173
 30
0.0
 10
2.1293897637795278
 20
-1.9065472440944882
 30
0.0
 10
2.1293897637795278
 20
-1.9065472440944882
 30
0.0
 10
2.1293897637795278
 20
-1.9065472440944882
 30
0.0
 10
2.1293897637795278
 20
-1.9065472440944882
 30
0.0
 10
2.134452755905512
 20
-1.9105078740157482
 30
0.0
 10
2.134452755905512
 20
-1.9105078740157482
 30
0.0
 10
2.134452755905512
 20
-1.9105078740157482
 30
0.0
 10
2.134452755905512
 20
-1.9105078740157482
 30
0.0
 10
1.4852047244094488
 20
-2.2982913385826773
 30
0.0
 10
1.4852047244094488
 20
-2.2982913385826773
 30
0.0
 10
1.4852047244094488
 20
-2.2982913385826773
 30
0.0
 10
1.4852047244094488
 20
-2.2982913385826773
 30
0.0
 10
1.4801417322834647
 20
-2.2943307086614175
 30
0.0
 10
1.4801417322834647
 20
-2.2943307086614175
 30
0.0
 10
1.4801417322834647
 20
-2.2943307086614175
 30
0.0
 10
1.4801417322834647
 20
-2.2943307086614175
 30
0.0
 10
1.4748976377952756
 20
-2.2906141732283465
 30
0.0
 10
1.4748976377952756
 20
-2.2906141732283465
 30
0.0
 10
1.4748976377952756
 20
-2.2906141732283465
 30
0.0
 10
1.4748976377952756
 20
-2.2906141732283465
 30
0.0
 10
1.4694606299212598
 20
-2.2871417322834646
 30
0.0
 10
1.4694606299212598
 20
-2.2871417322834646
 30
0.0
 10
1.4694606299212598
 20
-2.2871417322834646
 30
0.0
 10
1.4694606299212598
 20
-2.2871417322834646
 30
0.0
 10
1.4638543307086616
 20
-2.2839330708661416
 30
0.0
 10
1.4638543307086616
 20
-2.2839330708661416
 30
0.0
 10
1.4638543307086616
 20
-2.2839330708661416
 30
0.0
 10
1.4638543307086616
 20
-2.2839330708661416
 30
0.0
 10
1.4580826771653543
 20
-2.2809881889763779
 30
0.0
 10
1.4580826771653543
 20
-2.2809881889763779
 30
0.0
 10
1.4580826771653543
 20
-2.2809881889763779
 30
0.0
 10
1.4580826771653543
 20
-2.2809881889763779
 30
0.0
 10
1.4521574803149606
 20
-2.2783228346456692
 30
0.0
 10
1.4521574803149606
 20
-2.2783228346456692
 30
0.0
 10
1.4521574803149606
 20
-2.2783228346456692
 30
0.0
 10
1.4521574803149606
 20
-2.2783228346456692
 30
0.0
 10
1.4460748031496065
 20
-2.2759291338582677
 30
0.0
 10
1.4460748031496065
 20
-2.2759291338582677
 30
0.0
  0
SPLINE
  5
4A
100
AcDbEntity
  8
Layer 1
 62
     9
100
AcDbSpline
210
0.0
220
0.0
230
1.0
 70
     1
 71
     3
 72
    68
 73
    64
 74
     0
 42
0.0000000001
 43
0.0000000001
 40
0.0
 40
0.0
 40
0.0
 40
0.0
 40
0.0625
 40
0.0625
 40
0.0625
 40
0.0625
 40
0.125
 40
0.125
 40
0.125
 40
0.125
 40
0.1875
 40
0.1875
 40
0.1875
 40
0.1875
 40
0.25
 40
0.25
 40
0.25
 40
0.25
 40
0.3125
 40
0.3125
 40
0.3125
 40
0.3125
 40
0.375
 40
0.375
 40
0.375
 40
0.375
 40
0.4375
 40
0.4375
 40
0.4375
 40
0.4375
 40
0.5
 40
0.5
 40
0.5
 40
0.5
 40
0.5625
 40
0.5625
 40
0.5625
 40
0.5625
 40
0.625
 40
0.625
 40
0.625
 40
0.625
 40
0.6875
 40
0.6875
 40
0.6875
 40
0.6875
 40
0.75
 40
0.75
 40
0.75
 40
0.75
 40
0.8125
 40
0.8125
 40
0.8125
 40
0.8125
 40
0.875
 40
0.875
 40
0.875
 40
0.875
 40
0.9375
 40
0.9375
 40
0.9375
 40
0.9375
 40
1.0
 40
1.0
 40
1.0
 40
1.0
 10
1.4852047244094488
 20
-2.2982913385826773
 30
0.0
 10
1.4852047244094488
 20
-2.2982913385826773
 30
0.0
 10
2.134452755905512
 20
-1.9105078740157482
 30
0.0
 10
2.134452755905512
 20
-1.9105078740157482
 30
0.0
 10
2.134452755905512
 20
-1.9105078740157482
 30
0.0
 10
2.134452755905512
 20
-1.9105078740157482
 30
0.0
 10
2.1393110236220472
 20
-1.914696850393701
 30
0.0
 10
2.1393110236220472
 20
-1.914696850393701
 30
0.0
 10
2.1393110236220472
 20
-1.914696850393701
 30
0.0
 10
2.1393110236220472
 20
-1.914696850393701
 30
0.0
 10
2.1439645669291338
 20
-1.9191181102362205
 30
0.0
 10
2.1439645669291338
 20
-1.9191181102362205
 30
0.0
 10
2.1439645669291338
 20
-1.9191181102362205
 30
0.0
 10
2.1439645669291338
 20
-1.9191181102362205
 30
0.0
 10
2.1483937007874014
 20
-1.9237440944881889
 30
0.0
 10
2.1483937007874014
 20
-1.9237440944881889
 30
0.0
 10
2.1483937007874014
 20
-1.9237440944881889
 30
0.0
 10
2.1483937007874014
 20
-1.9237440944881889
 30
0.0
 10
2.1526023622047243
 20
-1.9285826771653545
 30
0.0
 10
2.1526023622047243
 20
-1.9285826771653545
 30
0.0
 10
2.1526023622047243
 20
-1.9285826771653545
 30
0.0
 10
2.1526023622047243
 20
-1.9285826771653545
 30
0.0
 10
2.1565748031496064
 20
-1.9336141732283465
 30
0.0
 10
2.1565748031496064
 20
-1.9336141732283465
 30
0.0
 10
2.1565748031496064
 20
-1.9336141732283465
 30
0.0
 10
2.1565748031496064
 20
-1.9336141732283465
 30
0.0
 10
2.1603110236220475
 20
-1.9388464566929136
 30
0.0
 10
2.1603110236220475
 20
-1.9388464566929136
 30
0.0
 10
2.1603110236220475
 20
-1.9388464566929136
 30
0.0
 10
2.1603110236220475
 20
-1.9388464566929136
 30
0.0
 10
2.1637874015748033
 20
-1.944251968503937
 30
0.0
 10
2.1637874015748033
 20
-1.944251968503937
 30
0.0
 10
2.1637874015748033
 20
-1.944251968503937
 30
0.0
 10
2.1637874015748033
 20
-1.944251968503937
 30
0.0
 10
1.5145393700787402
 20
-2.3320354330708661
 30
0.0
 10
1.5145393700787402
 20
-2.3320354330708661
 30
0.0
 10
1.5145393700787402
 20
-2.3320354330708661
 30
0.0
 10
1.5145393700787402
 20
-2.3320354330708661
 30
0.0
 10
1.5110629921259844
 20
-2.3266299212598427
 30
0.0
 10
1.5110629921259844
 20
-2.3266299212598427
 30
0.0
 10
1.5110629921259844
 20
-2.3266299212598427
 30
0.0
 10
1.5110629921259844
 20
-2.3266299212598427
 30
0.0
 10
1.5073267716535435
 20
-2.3213976377952759
 30
0.0
 10
1.5073267716535435
 20
-2.3213976377952759
 30
0.0
 10
1.5073267716535435
 20
-2.3213976377952759
 30
0.0
 10
1.5073267716535435
 20
-2.3213976377952759
 30
0.0
 10
1.5033543307086614
 20
-2.3163661417322836
 30
0.0
 10
1.5033543307086614
 20
-2.3163661417322836
 30
0.0
 10
1.5033543307086614
 20
-2.3163661417322836
 30
0.0
 10
1.5033543307086614
 20
-2.3163661417322836
 30
0.0
 10
1.4991456692913387
 20
-2.3115275590551181
 30
0.0
 10
1.4991456692913387
 20
-2.3115275590551181
 30
0.0
 10
1.4991456692913387
 20
-2.3115275590551181
 30
0.0
 10
1.4991456692913387
 20
-2.3115275590551181
 30
0.0
 10
1.4947165354330709
 20
-2.3069015748031498
 30
0.0
 10
1.4947165354330709
 20
-2.3069015748031498
 30
0.0
 10
1.4947165354330709
 20
-2.3069015748031498
 30
0.0
 10
1.4947165354330709
 20
-2.3069015748031498
 30
0.0
 10
1.4900629921259843
 20
-2.3024803149606301
 30
0.0
 10
1.4900629921259843
 20
-2.3024803149606301
 30
0.0
 10
1.4900629921259843
 20
-2.3024803149606301
 30
0.0
 10
1.4900629921259843
 20
-2.3024803149606301
 30
0.0
 10
1.4852047244094488
 20
-2.2982913385826773
 30
0.0
 10
1.4852047244094488
 20
-2.2982913385826773
 30
0.0
  0
SPLINE
  5
4B
100
AcDbEntity
  8
Layer 1
 62
     9
100
AcDbSpline
210
0.0
220
0.0
230
1.0
 70
     1
 71
     3
 72
    68
 73
    64
 74
     0
 42
0.0000000001
 43
0.0000000001
 40
0.0
 40
0.0
 40
0.0
 40
0.0
 40
0.0625
 40
0.0625
 40
0.0625
 40
0.0625
 40
0.125
 40
0.125
 40
0.125
 40
0.125
 40
0.1875
 40
0.1875
 40
0.1875
 40
0.1875
 40
0.25
 40
0.25
 40
0.25
 40
0.25
 40
0.3125
 40
0.3125
 40
0.3125
 40
0.3125
 40
0.375
 40
0.375
 40
0.375
 40
0.375
 40
0.4375
 40
0.4375
 40
0.4375
 40
0.4375
 40
0.5
 40
0.5
 40
0.5
 40
0.5
 40
0.5625
 40
0.5625
 40
0.5625
 40
0.5625
 40
0.625
 40
0.625
 40
0.625
 40
0.625
 40
0.6875
 40
0.6875
 40
0.6875
 40
0.6875
 40
0.75
 40
0.75
 40
0.75
 40
0.75
 40
0.8125
 40
0.8125
 40
0.8125
 40
0.8125
 40
0.875
 40
0.875
 40
0.875
 40
0.875
 40
0.9375
 40
0.9375
 40
0.9375
 40
0.9375
 40
1.0
 40
1.0
 40
1.0
 40
1.0
 10
1.5145393700787402
 20
-2.3320354330708661
 30
0.0
 10
1.5145393700787402
 20
-2.3320354330708661
 30
0.0
 10
2.1637874015748033
 20
-1.944251968503937
 30
0.0
 10
2.1637874015748033
 20
-1.944251968503937
 30
0.0
 10
2.1637874015748033
 20
-1.944251968503937
 30
0.0
 10
2.1637874015748033
 20
-1.944251968503937
 30
0.0
 10
2.1670118110236221
 20
-1.9498385826771654
 30
0.0
 10
2.1670118110236221
 20
-1.9498385826771654
 30
0.0
 10
2.1670118110236221
 20
-1.9498385826771654
 30
0.0
 10
2.1670118110236221
 20
-1.9498385826771654
 30
0.0
 10
2.169968503937008
 20
-1.9555866141732283
 30
0.0
 10
2.169968503937008
 20
-1.9555866141732283
 30
0.0
 10
2.169968503937008
 20
-1.9555866141732283
 30
0.0
 10
2.169968503937008
 20
-1.9555866141732283
 30
0.0
 10
2.1726574803149608
 20
-1.9614960629921261
 30
0.0
 10
2.1726574803149608
 20
-1.9614960629921261
 30
0.0
 10
2.1726574803149608
 20
-1.9614960629921261
 30
0.0
 10
2.1726574803149608
 20
-1.9614960629921261
 30
0.0
 10
2.1750511811023623
 20
-1.9675472440944883
 30
0.0
 10
2.1750511811023623
 20
-1.9675472440944883
 30
0.0
 10
2.1750511811023623
 20
-1.9675472440944883
 30
0.0
 10
2.1750511811023623
 20
-1.9675472440944883
 30
0.0
 10
2.1771574803149609
 20
-1.973744094488189
 30
0.0
 10
2.1771574803149609
 20
-1.973744094488189
 30
0.0
 10
2.1771574803149609
 20
-1.973744094488189
 30
0.0
 10
2.1771574803149609
 20
-1.973744094488189
 30
0.0
 10
2.1789566929133861
 20
-1.9800669291338584
 30
0.0
 10
2.1789566929133861
 20
-1.9800669291338584
 30
0.0
 10
2.1789566929133861
 20
-1.9800669291338584
 30
0.0
 10
2.1789566929133861
 20
-1.9800669291338584
 30
0.0
 10
2.1804566929133857
 20
-1.9865236220472442
 30
0.0
 10
2.1804566929133857
 20
-1.9865236220472442
 30
0.0
 10
2.1804566929133857
 20
-1.9865236220472442
 30
0.0
 10
2.1804566929133857
 20
-1.9865236220472442
 30
0.0
 10
1.5312086614173228
 20
-2.3743070866141731
 30
0.0
 10
1.5312086614173228
 20
-2.3743070866141731
 30
0.0
 10
1.5312086614173228
 20
-2.3743070866141731
 30
0.0
 10
1.5312086614173228
 20
-2.3743070866141731
 30
0.0
 10
1.529708661417323
 20
-2.3678503937007873
 30
0.0
 10
1.529708661417323
 20
-2.3678503937007873
 30
0.0
 10
1.529708661417323
 20
-2.3678503937007873
 30
0.0
 10
1.529708661417323
 20
-2.3678503937007873
 30
0.0
 10
1.5279094488188978
 20
-2.3615275590551184
 30
0.0
 10
1.5279094488188978
 20
-2.3615275590551184
 30
0.0
 10
1.5279094488188978
 20
-2.3615275590551184
 30
0.0
 10
1.5279094488188978
 20
-2.3615275590551184
 30
0.0
 10
1.5258031496062994
 20
-2.3553307086614175
 30
0.0
 10
1.5258031496062994
 20
-2.3553307086614175
 30
0.0
 10
1.5258031496062994
 20
-2.3553307086614175
 30
0.0
 10
1.5258031496062994
 20
-2.3553307086614175
 30
0.0
 10
1.5234094488188976
 20
-2.3492795275590552
 30
0.0
 10
1.5234094488188976
 20
-2.3492795275590552
 30
0.0
 10
1.5234094488188976
 20
-2.3492795275590552
 30
0.0
 10
1.5234094488188976
 20
-2.3492795275590552
 30
0.0
 10
1.5207204724409449
 20
-2.3433700787401577
 30
0.0
 10
1.5207204724409449
 20
-2.3433700787401577
 30
0.0
 10
1.5207204724409449
 20
-2.3433700787401577
 30
0.0
 10
1.5207204724409449
 20
-2.3433700787401577
 30
0.0
 10
1.5177637795275591
 20
-2.3376220472440945
 30
0.0
 10
1.5177637795275591
 20
-2.3376220472440945
 30
0.0
 10
1.5177637795275591
 20
-2.3376220472440945
 30
0.0
 10
1.5177637795275591
 20
-2.3376220472440945
 30
0.0
 10
1.5145393700787402
 20
-2.3320354330708661
 30
0.0
 10
1.5145393700787402
 20
-2.3320354330708661
 30
0.0
  0
SPLINE
  5
4C
100
AcDbEntity
  8
Layer 1
 62
     9
100
AcDbSpline
210
0.0
220
0.0
230
1.0
 70
     1
 71
     3
 72
    68
 73
    64
 74
     0
 42
0.0000000001
 43
0.0000000001
 40
0.0
 40
0.0
 40
0.0
 40
0.0
 40
0.0625
 40
0.0625
 40
0.0625
 40
0.0625
 40
0.125
 40
0.125
 40
0.125
 40
0.125
 40
0.1875
 40
0.1875
 40
0.1875
 40
0.1875
 40
0.25
 40
0.25
 40
0.25
 40
0.25
 40
0.3125
 40
0.3125
 40
0.3125
 40
0.3125
 40
0.375
 40
0.375
 40
0.375
 40
0.375
 40
0.4375
 40
0.4375
 40
0.4375
 40
0.4375
 40
0.5
 40
0.5
 40
0.5
 40
0.5
 40
0.5625
 40
0.5625
 40
0.5625
 40
0.5625
 40
0.625
 40
0.625
 40
0.625
 40
0.625
 40
0.6875
 40
0.6875
 40
0.6875
 40
0.6875
 40
0.75
 40
0.75
 40
0.75
 40
0.75
 40
0.8125
 40
0.8125
 40
0.8125
 40
0.8125
 40
0.875
 40
0.875
 40
0.875
 40
0.875
 40
0.9375
 40
0.9375
 40
0.9375
 40
0.9375
 40
1.0
 40
1.0
 40
1.0
 40
1.0
 10
1.5312086614173228
 20
-2.3743070866141731
 30
0.0
 10
1.5312086614173228
 20
-2.3743070866141731
 30
0.0
 10
2.1804566929133857
 20
-1.9865236220472442
 30
0.0
 10
2.1804566929133857
 20
-1.9865236220472442
 30
0.0
 10
2.1804566929133857
 20
-1.9865236220472442
 30
0.0
 10
2.1804566929133857
 20
-1.9865236220472442
 30
0.0
 10
2.1816338582677166
 20
-1.9930866141732284
 30
0.0
 10
2.1816338582677166
 20
-1.9930866141732284
 30
0.0
 10
2.1816338582677166
 20
-1.9930866141732284
 30
0.0
 10
2.1816338582677166
 20
-1.9930866141732284
 30
0.0
 10
2.1824881889763779
 20
-1.9997598425196852
 30
0.0
 10
2.1824881889763779
 20
-1.9997598425196852
 30
0.0
 10
2.1824881889763779
 20
-1.9997598425196852
 30
0.0
 10
2.1824881889763779
 20
-1.9997598425196852
 30
0.0
 10
2.1830039370078742
 20
-2.0065314960629923
 30
0.0
 10
2.1830039370078742
 20
-2.0065314960629923
 30
0.0
 10
2.1830039370078742
 20
-2.0065314960629923
 30
0.0
 10
2.1830039370078742
 20
-2.0065314960629923
 30
0.0
 10
2.1831811023622048
 20
-2.0133976377952756
 30
0.0
 10
2.1831811023622048
 20
-2.0133976377952756
 30
0.0
 10
2.1831811023622048
 20
-2.0133976377952756
 30
0.0
 10
2.1831811023622048
 20
-2.0133976377952756
 30
0.0
 10
2.1830039370078742
 20
-2.0202519685039371
 30
0.0
 10
2.1830039370078742
 20
-2.0202519685039371
 30
0.0
 10
2.1830039370078742
 20
-2.0202519685039371
 30
0.0
 10
2.1830039370078742
 20
-2.0202519685039371
 30
0.0
 10
2.1824881889763779
 20
-2.0270236220472442
 30
0.0
 10
2.1824881889763779
 20
-2.0270236220472442
 30
0.0
 10
2.1824881889763779
 20
-2.0270236220472442
 30
0.0
 10
2.1824881889763779
 20
-2.0270236220472442
 30
0.0
 10
2.1816338582677166
 20
-2.0336929133858268
 30
0.0
 10
2.1816338582677166
 20
-2.0336929133858268
 30
0.0
 10
2.1816338582677166
 20
-2.0336929133858268
 30
0.0
 10
2.1816338582677166
 20
-2.0336929133858268
 30
0.0
 10
1.5323858267716537
 20
-2.4214763779527559
 30
0.0
 10
1.5323858267716537
 20
-2.4214763779527559
 30
0.0
 10
1.5323858267716537
 20
-2.4214763779527559
 30
0.0
 10
1.5323858267716537
 20
-2.4214763779527559
 30
0.0
 10
1.5332401574803149
 20
-2.4148070866141733
 30
0.0
 10
1.5332401574803149
 20
-2.4148070866141733
 30
0.0
 10
1.5332401574803149
 20
-2.4148070866141733
 30
0.0
 10
1.5332401574803149
 20
-2.4148070866141733
 30
0.0
 10
1.5337559055118111
 20
-2.4080354330708662
 30
0.0
 10
1.5337559055118111
 20
-2.4080354330708662
 30
0.0
 10
1.5337559055118111
 20
-2.4080354330708662
 30
0.0
 10
1.5337559055118111
 20
-2.4080354330708662
 30
0.0
 10
1.5339330708661418
 20
-2.4011811023622047
 30
0.0
 10
1.5339330708661418
 20
-2.4011811023622047
 30
0.0
 10
1.5339330708661418
 20
-2.4011811023622047
 30
0.0
 10
1.5339330708661418
 20
-2.4011811023622047
 30
0.0
 10
1.5337559055118111
 20
-2.3943149606299214
 30
0.0
 10
1.5337559055118111
 20
-2.3943149606299214
 30
0.0
 10
1.5337559055118111
 20
-2.3943149606299214
 30
0.0
 10
1.5337559055118111
 20
-2.3943149606299214
 30
0.0
 10
1.5332401574803149
 20
-2.3875433070866143
 30
0.0
 10
1.5332401574803149
 20
-2.3875433070866143
 30
0.0
 10
1.5332401574803149
 20
-2.3875433070866143
 30
0.0
 10
1.5332401574803149
 20
-2.3875433070866143
 30
0.0
 10
1.5323858267716537
 20
-2.3808700787401578
 30
0.0
 10
1.5323858267716537
 20
-2.3808700787401578
 30
0.0
 10
1.5323858267716537
 20
-2.3808700787401578
 30
0.0
 10
1.5323858267716537
 20
-2.3808700787401578
 30
0.0
 10
1.5312086614173228
 20
-2.3743070866141731
 30
0.0
 10
1.5312086614173228
 20
-2.3743070866141731
 30
0.0
  0
SPLINE
  5
4D
100
AcDbEntity
  8
Layer 1
 62
     9
100
AcDbSpline
210
0.0
220
0.0
230
1.0
 70
     1
 71
     3
 72
    68
 73
    64
 74
     0
 42
0.0000000001
 43
0.0000000001
 40
0.0
 40
0.0
 40
0.0
 40
0.0
 40
0.0625
 40
0.0625
 40
0.0625
 40
0.0625
 40
0.125
 40
0.125
 40
0.125
 40
0.125
 40
0.1875
 40
0.1875
 40
0.1875
 40
0.1875
 40
0.25
 40
0.25
 40
0.25
 40
0.25
 40
0.3125
 40
0.3125
 40
0.3125
 40
0.3125
 40
0.375
 40
0.375
 40
0.375
 40
0.375
 40
0.4375
 40
0.4375
 40
0.4375
 40
0.4375
 40
0.5
 40
0.5
 40
0.5
 40
0.5
 40
0.5625
 40
0.5625
 40
0.5625
 40
0.5625
 40
0.625
 40
0.625
 40
0.625
 40
0.625
 40
0.6875
 40
0.6875
 40
0.6875
 40
0.6875
 40
0.75
 40
0.75
 40
0.75
 40
0.75
 40
0.8125
 40
0.8125
 40
0.8125
 40
0.8125
 40
0.875
 40
0.875
 40
0.875
 40
0.875
 40
0.9375
 40
0.9375
 40
0.9375
 40
0.9375
 40
1.0
 40
1.0
 40
1.0
 40
1.0
 10
1.5323858267716537
 20
-2.4214763779527559
 30
0.0
 10
1.5323858267716537
 20
-2.4214763779527559
 30
0.0
 10
2.1816338582677166
 20
-2.0336929133858268
 30
0.0
 10
2.1816338582677166
 20
-2.0336929133858268
 30
0.0
 10
2.1816338582677166
 20
-2.0336929133858268
 30
0.0
 10
2.1816338582677166
 20
-2.0336929133858268
 30
0.0
 10
2.1804566929133857
 20
-2.040259842519685
 30
0.0
 10
2.1804566929133857
 20
-2.040259842519685
 30
0.0
 10
2.1804566929133857
 20
-2.040259842519685
 30
0.0
 10
2.1804566929133857
 20
-2.040259842519685
 30
0.0
 10
2.1789566929133861
 20
-2.0467086614173229
 30
0.0
 10
2.1789566929133861
 20
-2.0467086614173229
 30
0.0
 10
2.1789566929133861
 20
-2.0467086614173229
 30
0.0
 10
2.1789566929133861
 20
-2.0467086614173229
 30
0.0
 10
2.1771574803149609
 20
-2.0530354330708662
 30
0.0
 10
2.1771574803149609
 20
-2.0530354330708662
 30
0.0
 10
2.1771574803149609
 20
-2.0530354330708662
 30
0.0
 10
2.1771574803149609
 20
-2.0530354330708662
 30
0.0
 10
2.1750511811023623
 20
-2.0592322834645671
 30
0.0
 10
2.1750511811023623
 20
-2.0592322834645671
 30
0.0
 10
2.1750511811023623
 20
-2.0592322834645671
 30
0.0
 10
2.1750511811023623
 20
-2.0592322834645671
 30
0.0
 10
2.1726574803149608
 20
-2.0652913385826772
 30
0.0
 10
2.1726574803149608
 20
-2.0652913385826772
 30
0.0
 10
2.1726574803149608
 20
-2.0652913385826772
 30
0.0
 10
2.1726574803149608
 20
-2.0652913385826772
 30
0.0
 10
2.169968503937008
 20
-2.0711929133858269
 30
0.0
 10
2.169968503937008
 20
-2.0711929133858269
 30
0.0
 10
2.169968503937008
 20
-2.0711929133858269
 30
0.0
 10
2.169968503937008
 20
-2.0711929133858269
 30
0.0
 10
2.1670118110236221
 20
-2.0769409448818896
 30
0.0
 10
2.1670118110236221
 20
-2.0769409448818896
 30
0.0
 10
2.1670118110236221
 20
-2.0769409448818896
 30
0.0
 10
2.1670118110236221
 20
-2.0769409448818896
 30
0.0
 10
1.5177637795275591
 20
-2.4647244094488192
 30
0.0
 10
1.5177637795275591
 20
-2.4647244094488192
 30
0.0
 10
1.5177637795275591
 20
-2.4647244094488192
 30
0.0
 10
1.5177637795275591
 20
-2.4647244094488192
 30
0.0
 10
1.5207204724409449
 20
-2.458976377952756
 30
0.0
 10
1.5207204724409449
 20
-2.458976377952756
 30
0.0
 10
1.5207204724409449
 20
-2.458976377952756
 30
0.0
 10
1.5207204724409449
 20
-2.458976377952756
 30
0.0
 10
1.5234094488188976
 20
-2.4530748031496064
 30
0.0
 10
1.5234094488188976
 20
-2.4530748031496064
 30
0.0
 10
1.5234094488188976
 20
-2.4530748031496064
 30
0.0
 10
1.5234094488188976
 20
-2.4530748031496064
 30
0.0
 10
1.5258031496062994
 20
-2.4470157480314962
 30
0.0
 10
1.5258031496062994
 20
-2.4470157480314962
 30
0.0
 10
1.5258031496062994
 20
-2.4470157480314962
 30
0.0
 10
1.5258031496062994
 20
-2.4470157480314962
 30
0.0
 10
1.5279094488188978
 20
-2.4408188976377954
 30
0.0
 10
1.5279094488188978
 20
-2.4408188976377954
 30
0.0
 10
1.5279094488188978
 20
-2.4408188976377954
 30
0.0
 10
1.5279094488188978
 20
-2.4408188976377954
 30
0.0
 10
1.529708661417323
 20
-2.434492125984252
 30
0.0
 10
1.529708661417323
 20
-2.434492125984252
 30
0.0
 10
1.529708661417323
 20
-2.434492125984252
 30
0.0
 10
1.529708661417323
 20
-2.434492125984252
 30
0.0
 10
1.5312086614173228
 20
-2.4280433070866141
 30
0.0
 10
1.5312086614173228
 20
-2.4280433070866141
 30
0.0
 10
1.5312086614173228
 20
-2.4280433070866141
 30
0.0
 10
1.5312086614173228
 20
-2.4280433070866141
 30
0.0
 10
1.5323858267716537
 20
-2.4214763779527559
 30
0.0
 10
1.5323858267716537
 20
-2.4214763779527559
 30
0.0
  0
SPLINE
  5
4E
100
AcDbEntity
  8
Layer 1
 62
     9
100
AcDbSpline
210
0.0
220
0.0
230
1.0
 70
     1
 71
     3
 72
    68
 73
    64
 74
     0
 42
0.0000000001
 43
0.0000000001
 40
0.0
 40
0.0
 40
0.0
 40
0.0
 40
0.0625
 40
0.0625
 40
0.0625
 40
0.0625
 40
0.125
 40
0.125
 40
0.125
 40
0.125
 40
0.1875
 40
0.1875
 40
0.1875
 40
0.1875
 40
0.25
 40
0.25
 40
0.25
 40
0.25
 40
0.3125
 40
0.3125
 40
0.3125
 40
0.3125
 40
0.375
 40
0.375
 40
0.375
 40
0.375
 40
0.4375
 40
0.4375
 40
0.4375
 40
0.4375
 40
0.5
 40
0.5
 40
0.5
 40
0.5
 40
0.5625
 40
0.5625
 40
0.5625
 40
0.5625
 40
0.625
 40
0.625
 40
0.625
 40
0.625
 40
0.6875
 40
0.6875
 40
0.6875
 40
0.6875
 40
0.75
 40
0.75
 40
0.75
 40
0.75
 40
0.8125
 40
0.8125
 40
0.8125
 40
0.8125
 40
0.875
 40
0.875
 40
0.875
 40
0.875
 40
0.9375
 40
0.9375
 40
0.9375
 40
0.9375
 40
1.0
 40
1.0
 40
1.0
 40
1.0
 10
1.5177637795275591
 20
-2.4647244094488192
 30
0.0
 10
1.5177637795275591
 20
-2.4647244094488192
 30
0.0
 10
2.1670118110236221
 20
-2.0769409448818896
 30
0.0
 10
2.1670118110236221
 20
-2.0769409448818896
 30
0.0
 10
2.1670118110236221
 20
-2.0769409448818896
 30
0.0
 10
2.1670118110236221
 20
-2.0769409448818896
 30
0.0
 10
2.1637874015748033
 20
-2.0825236220472441
 30
0.0
 10
2.1637874015748033
 20
-2.0825236220472441
 30
0.0
 10
2.1637874015748033
 20
-2.0825236220472441
 30
0.0
 10
2.1637874015748033
 20
-2.0825236220472441
 30
0.0
 10
2.1603110236220475
 20
-2.0879370078740158
 30
0.0
 10
2.1603110236220475
 20
-2.0879370078740158
 30
0.0
 10
2.1603110236220475
 20
-2.0879370078740158
 30
0.0
 10
2.1603110236220475
 20
-2.0879370078740158
 30
0.0
 10
2.1565748031496064
 20
-2.0931614173228348
 30
0.0
 10
2.1565748031496064
 20
-2.0931614173228348
 30
0.0
 10
2.1565748031496064
 20
-2.0931614173228348
 30
0.0
 10
2.1565748031496064
 20
-2.0931614173228348
 30
0.0
 10
2.1526023622047243
 20
-2.0982007874015749
 30
0.0
 10
2.1526023622047243
 20
-2.0982007874015749
 30
0.0
 10
2.1526023622047243
 20
-2.0982007874015749
 30
0.0
 10
2.1526023622047243
 20
-2.0982007874015749
 30
0.0
 10
2.1483937007874014
 20
-2.1030393700787404
 30
0.0
 10
2.1483937007874014
 20
-2.1030393700787404
 30
0.0
 10
2.1483937007874014
 20
-2.1030393700787404
 30
0.0
 10
2.1483937007874014
 20
-2.1030393700787404
 30
0.0
 10
2.1439645669291338
 20
-2.1076771653543309
 30
0.0
 10
2.1439645669291338
 20
-2.1076771653543309
 30
0.0
 10
2.1439645669291338
 20
-2.1076771653543309
 30
0.0
 10
2.1439645669291338
 20
-2.1076771653543309
 30
0.0
 10
2.1393110236220472
 20
-2.1120866141732284
 30
0.0
 10
2.1393110236220472
 20
-2.1120866141732284
 30
0.0
 10
2.1393110236220472
 20
-2.1120866141732284
 30
0.0
 10
2.1393110236220472
 20
-2.1120866141732284
 30
0.0
 10
1.4900629921259843
 20
-2.4998700787401575
 30
0.0
 10
1.4900629921259843
 20
-2.4998700787401575
 30
0.0
 10
1.4900629921259843
 20
-2.4998700787401575
 30
0.0
 10
1.4900629921259843
 20
-2.4998700787401575
 30
0.0
 10
1.4947165354330709
 20
-2.4954606299212601
 30
0.0
 10
1.4947165354330709
 20
-2.4954606299212601
 30
0.0
 10
1.4947165354330709
 20
-2.4954606299212601
 30
0.0
 10
1.4947165354330709
 20
-2.4954606299212601
 30
0.0
 10
1.4991456692913387
 20
-2.4908228346456696
 30
0.0
 10
1.4991456692913387
 20
-2.4908228346456696
 30
0.0
 10
1.4991456692913387
 20
-2.4908228346456696
 30
0.0
 10
1.4991456692913387
 20
-2.4908228346456696
 30
0.0
 10
1.5033543307086614
 20
-2.485984251968504
 30
0.0
 10
1.5033543307086614
 20
-2.485984251968504
 30
0.0
 10
1.5033543307086614
 20
-2.485984251968504
 30
0.0
 10
1.5033543307086614
 20
-2.485984251968504
 30
0.0
 10
1.5073267716535435
 20
-2.4809448818897639
 30
0.0
 10
1.5073267716535435
 20
-2.4809448818897639
 30
0.0
 10
1.5073267716535435
 20
-2.4809448818897639
 30
0.0
 10
1.5073267716535435
 20
-2.4809448818897639
 30
0.0
 10
1.5110629921259844
 20
-2.475720472440945
 30
0.0
 10
1.5110629921259844
 20
-2.475720472440945
 30
0.0
 10
1.5110629921259844
 20
-2.475720472440945
 30
0.0
 10
1.5110629921259844
 20
-2.475720472440945
 30
0.0
 10
1.5145393700787402
 20
-2.4703070866141732
 30
0.0
 10
1.5145393700787402
 20
-2.4703070866141732
 30
0.0
 10
1.5145393700787402
 20
-2.4703070866141732
 30
0.0
 10
1.5145393700787402
 20
-2.4703070866141732
 30
0.0
 10
1.5177637795275591
 20
-2.4647244094488192
 30
0.0
 10
1.5177637795275591
 20
-2.4647244094488192
 30
0.0
  0
SPLINE
  5
4F
100
AcDbEntity
  8
Layer 1
 62
   253
100
AcDbSpline
210
0.0
220
0.0
230
1.0
 70
     1
 71
     3
 72
    28
 73
    24
 74
     0
 42
0.0000000001
 43
0.0000000001
 40
0.0
 40
0.0
 40
0.0
 40
0.0
 40
0.1666666666666667
 40
0.1666666666666667
 40
0.1666666666666667
 40
0.1666666666666667
 40
0.3333333333333333
 40
0.3333333333333333
 40
0.3333333333333333
 40
0.3333333333333333
 40
0.5
 40
0.5
 40
0.5
 40
0.5
 40
0.6666666666666666
 40
0.6666666666666666
 40
0.6666666666666666
 40
0.6666666666666666
 40
0.8333333333333333
 40
0.8333333333333333
 40
0.8333333333333333
 40
0.8333333333333333
 40
1.0
 40
1.0
 40
1.0
 40
1.0
 10
1.4900629921259843
 20
-2.4998700787401575
 30
0.0
 10
1.4900629921259843
 20
-2.4998700787401575
 30
0.0
 10
2.1393110236220472
 20
-2.1120866141732284
 30
0.0
 10
2.1393110236220472
 20
-2.1120866141732284
 30
0.0
 10
2.1393110236220472
 20
-2.1120866141732284
 30
0.0
 10
2.1393110236220472
 20
-2.1120866141732284
 30
0.0
 10
2.134452755905512
 20
-2.1162795275590551
 30
0.0
 10
2.134452755905512
 20
-2.1162795275590551
 30
0.0
 10
2.134452755905512
 20
-2.1162795275590551
 30
0.0
 10
2.134452755905512
 20
-2.1162795275590551
 30
0.0
 10
2.1293897637795278
 20
-2.120236220472441
 30
0.0
 10
2.1293897637795278
 20
-2.120236220472441
 30
0.0
 10
2.1293897637795278
 20
-2.120236220472441
 30
0.0
 10
2.1293897637795278
 20
-2.120236220472441
 30
0.0
 10
1.4801417322834647
 20
-2.5080196850393701
 30
0.0
 10
1.4801417322834647
 20
-2.5080196850393701
 30
0.0
 10
1.4801417322834647
 20
-2.5080196850393701
 30
0.0
 10
1.4801417322834647
 20
-2.5080196850393701
 30
0.0
 10
1.4852047244094488
 20
-2.5040629921259843
 30
0.0
 10
1.4852047244094488
 20
-2.5040629921259843
 30
0.0
 10
1.4852047244094488
 20
-2.5040629921259843
 30
0.0
 10
1.4852047244094488
 20
-2.5040629921259843
 30
0.0
 10
1.4900629921259843
 20
-2.4998700787401575
 30
0.0
 10
1.4900629921259843
 20
-2.4998700787401575
 30
0.0
  0
SPLINE
  5
50
100
AcDbEntity
  8
Layer 1
370
     5
100
AcDbSpline
210
0.0
220
0.0
230
1.0
 70
     1
 71
     3
 72
   420
 73
   416
 74
     0
 42
0.0000000001
 43
0.0000000001
 40
0.0
 40
0.0
 40
0.0
 40
0.0
 40
0.0096153846153846
 40
0.0096153846153846
 40
0.0096153846153846
 40
0.0096153846153846
 40
0.0192307692307692
 40
0.0192307692307692
 40
0.0192307692307692
 40
0.0192307692307692
 40
0.0288461538461538
 40
0.0288461538461538
 40
0.0288461538461538
 40
0.0288461538461538
 40
0.0384615384615385
 40
0.0384615384615385
 40
0.0384615384615385
 40
0.0384615384615385
 40
0.0480769230769231
 40
0.0480769230769231
 40
0.0480769230769231
 40
0.0480769230769231
 40
0.0576923076923077
 40
0.0576923076923077
 40
0.0576923076923077
 40
0.0576923076923077
 40
0.0673076923076923
 40
0.0673076923076923
 40
0.0673076923076923
 40
0.0673076923076923
 40
0.0769230769230769
 40
0.0769230769230769
 40
0.0769230769230769
 40
0.0769230769230769
 40
0.0865384615384615
 40
0.0865384615384615
 40
0.0865384615384615
 40
0.0865384615384615
 40
0.0961538461538461
 40
0.0961538461538461
 40
0.0961538461538461
 40
0.0961538461538461
 40
0.1057692307692308
 40
0.1057692307692308
 40
0.1057692307692308
 40
0.1057692307692308
 40
0.1153846153846154
 40
0.1153846153846154
 40
0.1153846153846154
 40
0.1153846153846154
 40
0.125
 40
0.125
 40
0.125
 40
0.125
 40
0.1346153846153846
 40
0.1346153846153846
 40
0.1346153846153846
 40
0.1346153846153846
 40
0.1442307692307692
 40
0.1442307692307692
 40
0.1442307692307692
 40
0.1442307692307692
 40
0.1538461538461538
 40
0.1538461538461538
 40
0.1538461538461538
 40
0.1538461538461538
 40
0.1634615384615384
 40
0.1634615384615384
 40
0.1634615384615384
 40
0.1634615384615384
 40
0.173076923076923
 40
0.173076923076923
 40
0.173076923076923
 40
0.173076923076923
 40
0.1826923076923076
 40
0.1826923076923076
 40
0.1826923076923076
 40
0.1826923076923076
 40
0.1923076923076922
 40
0.1923076923076922
 40
0.1923076923076922
 40
0.1923076923076922
 40
0.2019230769230768
 40
0.2019230769230768
 40
0.2019230769230768
 40
0.2019230769230768
 40
0.2115384615384615
 40
0.2115384615384615
 40
0.2115384615384615
 40
0.2115384615384615
 40
0.2211538461538461
 40
0.2211538461538461
 40
0.2211538461538461
 40
0.2211538461538461
 40
0.2307692307692307
 40
0.2307692307692307
 40
0.2307692307692307
 40
0.2307692307692307
 40
0.2403846153846153
 40
0.2403846153846153
 40
0.2403846153846153
 40
0.2403846153846153
 40
0.2499999999999999
 40
0.2499999999999999
 40
0.2499999999999999
 40
0.2499999999999999
 40
0.2596153846153845
 40
0.2596153846153845
 40
0.2596153846153845
 40
0.2596153846153845
 40
0.2692307692307692
 40
0.2692307692307692
 40
0.2692307692307692
 40
0.2692307692307692
 40
0.2788461538461538
 40
0.2788461538461538
 40
0.2788461538461538
 40
0.2788461538461538
 40
0.2884615384615384
 40
0.2884615384615384
 40
0.2884615384615384
 40
0.2884615384615384
 40
0.2980769230769231
 40
0.2980769230769231
 40
0.2980769230769231
 40
0.2980769230769231
 40
0.3076923076923077
 40
0.3076923076923077
 40
0.3076923076923077
 40
0.3076923076923077
 40
0.3173076923076924
 40
0.3173076923076924
 40
0.3173076923076924
 40
0.3173076923076924
 40
0.326923076923077
 40
0.326923076923077
 40
0.326923076923077
 40
0.326923076923077
 40
0.3365384615384616
 40
0.3365384615384616
 40
0.3365384615384616
 40
0.3365384615384616
 40
0.3461538461538463
 40
0.3461538461538463
 40
0.3461538461538463
 40
0.3461538461538463
 40
0.3557692307692309
 40
0.3557692307692309
 40
0.3557692307692309
 40
0.3557692307692309
 40
0.3653846153846155
 40
0.3653846153846155
 40
0.3653846153846155
 40
0.3653846153846155
 40
0.3750000000000002
 40
0.3750000000000002
 40
0.3750000000000002
 40
0.3750000000000002
 40
0.3846153846153848
 40
0.3846153846153848
 40
0.3846153846153848
 40
0.3846153846153848
 40
0.3942307692307694
 40
0.3942307692307694
 40
0.3942307692307694
 40
0.3942307692307694
 40
0.4038461538461541
 40
0.4038461538461541
 40
0.4038461538461541
 40
0.4038461538461541
 40
0.4134615384615387
 40
0.4134615384615387
 40
0.4134615384615387
 40
0.4134615384615387
 40
0.4230769230769234
 40
0.4230769230769234
 40
0.4230769230769234
 40
0.4230769230769234
 40
0.432692307692308
 40
0.432692307692308
 40
0.432692307692308
 40
0.432692307692308
 40
0.4423076923076926
 40
0.4423076923076926
 40
0.4423076923076926
 40
0.4423076923076926
 40
0.4519230769230773
 40
0.4519230769230773
 40
0.4519230769230773
 40
0.4519230769230773
 40
0.4615384615384619
 40
0.4615384615384619
 40
0.4615384615384619
 40
0.4615384615384619
 40
0.4711538461538465
 40
0.4711538461538465
 40
0.4711538461538465
 40
0.4711538461538465
 40
0.4807692307692312
 40
0.4807692307692312
 40
0.4807692307692312
 40
0.4807692307692312
 40
0.4903846153846158
 40
0.4903846153846158
 40
0.4903846153846158
 40
0.4903846153846158
 40
0.5000000000000004
 40
0.5000000000000004
 40
0.5000000000000004
 40
0.5000000000000004
 40
0.509615384615385
 40
0.509615384615385
 40
0.509615384615385
 40
0.509615384615385
 40
0.5192307692307696
 40
0.5192307692307696
 40
0.5192307692307696
 40
0.5192307692307696
 40
0.5288461538461542
 40
0.5288461538461542
 40
0.5288461538461542
 40
0.5288461538461542
 40
0.5384615384615388
 40
0.5384615384615388
 40
0.5384615384615388
 40
0.5384615384615388
 40
0.5480769230769234
 40
0.5480769230769234
 40
0.5480769230769234
 40
0.5480769230769234
 40
0.5576923076923079
 40
0.5576923076923079
 40
0.5576923076923079
 40
0.5576923076923079
 40
0.5673076923076925
 40
0.5673076923076925
 40
0.5673076923076925
 40
0.5673076923076925
 40
0.5769230769230771
 40
0.5769230769230771
 40
0.5769230769230771
 40
0.5769230769230771
 40
0.5865384615384617
 40
0.5865384615384617
 40
0.5865384615384617
 40
0.5865384615384617
 40
0.5961538461538463
 40
0.5961538461538463
 40
0.5961538461538463
 40
0.5961538461538463
 40
0.6057692307692308
 40
0.6057692307692308
 40
0.6057692307692308
 40
0.6057692307692308
 40
0.6153846153846154
 40
0.6153846153846154
 40
0.6153846153846154
 40
0.6153846153846154
 40
0.625
 40
0.625
 40
0.625
 40
0.625
 40
0.6346153846153846
 40
0.6346153846153846
 40
0.6346153846153846
 40
0.6346153846153846
 40
0.6442307692307692
 40
0.6442307692307692
 40
0.6442307692307692
 40
0.6442307692307692
 40
0.6538461538461537
 40
0.6538461538461537
 40
0.6538461538461537
 40
0.6538461538461537
 40
0.6634615384615383
 40
0.6634615384615383
 40
0.6634615384615383
 40
0.6634615384615383
 40
0.6730769230769229
 40
0.6730769230769229
 40
0.6730769230769229
 40
0.6730769230769229
 40
0.6826923076923075
 40
0.6826923076923075
 40
0.6826923076923075
 40
0.6826923076923075
 40
0.6923076923076921
 40
0.6923076923076921
 40
0.6923076923076921
 40
0.6923076923076921
 40
0.7019230769230767
 40
0.7019230769230767
 40
0.7019230769230767
 40
0.7019230769230767
 40
0.7115384615384612
 40
0.7115384615384612
 40
0.7115384615384612
 40
0.7115384615384612
 40
0.7211538461538458
 40
0.7211538461538458
 40
0.7211538461538458
 40
0.7211538461538458
 40
0.7307692307692304
 40
0.7307692307692304
 40
0.7307692307692304
 40
0.7307692307692304
 40
0.740384615384615
 40
0.740384615384615
 40
0.740384615384615
 40
0.740384615384615
 40
0.7499999999999996
 40
0.7499999999999996
 40
0.7499999999999996
 40
0.7499999999999996
 40
0.7596153846153841
 40
0.7596153846153841
 40
0.7596153846153841
 40
0.7596153846153841
 40
0.7692307692307687
 40
0.7692307692307687
 40
0.7692307692307687
 40
0.7692307692307687
 40
0.7788461538461533
 40
0.7788461538461533
 40
0.7788461538461533
 40
0.7788461538461533
 40
0.7884615384615379
 40
0.7884615384615379
 40
0.7884615384615379
 40
0.7884615384615379
 40
0.7980769230769225
 40
0.7980769230769225
 40
0.7980769230769225
 40
0.7980769230769225
 40
0.807692307692307
 40
0.807692307692307
 40
0.807692307692307
 40
0.807692307692307
 40
0.8173076923076916
 40
0.8173076923076916
 40
0.8173076923076916
 40
0.8173076923076916
 40
0.8269230769230762
 40
0.8269230769230762
 40
0.8269230769230762
 40
0.8269230769230762
 40
0.8365384615384608
 40
0.8365384615384608
 40
0.8365384615384608
 40
0.8365384615384608
 40
0.8461538461538454
 40
0.8461538461538454
 40
0.8461538461538454
 40
0.8461538461538454
 40
0.85576923076923
 40
0.85576923076923
 40
0.85576923076923
 40
0.85576923076923
 40
0.8653846153846145
 40
0.8653846153846145
 40
0.8653846153846145
 40
0.8653846153846145
 40
0.8749999999999991
 40
0.8749999999999991
 40
0.8749999999999991
 40
0.8749999999999991
 40
0.8846153846153837
 40
0.8846153846153837
 40
0.8846153846153837
 40
0.8846153846153837
 40
0.8942307692307683
 40
0.8942307692307683
 40
0.8942307692307683
 40
0.8942307692307683
 40
0.9038461538461529
 40
0.9038461538461529
 40
0.9038461538461529
 40
0.9038461538461529
 40
0.9134615384615374
 40
0.9134615384615374
 40
0.9134615384615374
 40
0.9134615384615374
 40
0.923076923076922
 40
0.923076923076922
 40
0.923076923076922
 40
0.923076923076922
 40
0.9326923076923066
 40
0.9326923076923066
 40
0.9326923076923066
 40
0.9326923076923066
 40
0.9423076923076912
 40
0.9423076923076912
 40
0.9423076923076912
 40
0.9423076923076912
 40
0.9519230769230758
 40
0.9519230769230758
 40
0.9519230769230758
 40
0.9519230769230758
 40
0.9615384615384603
 40
0.9615384615384603
 40
0.9615384615384603
 40
0.9615384615384603
 40
0.9711538461538449
 40
0.9711538461538449
 40
0.9711538461538449
 40
0.9711538461538449
 40
0.9807692307692295
 40
0.9807692307692295
 40
0.9807692307692295
 40
0.9807692307692295
 40
0.9903846153846141
 40
0.9903846153846141
 40
0.9903846153846141
 40
0.9903846153846141
 40
1.0
 40
1.0
 40
1.0
 40
1.0
 10
1.4000551181102363
 20
-2.2678464566929133
 30
0.0
 10
1.4000551181102363
 20
-2.2678464566929133
 30
0.0
 10
2.0493031496062994
 20
-1.8800629921259844
 30
0.0
 10
2.0493031496062994
 20
-1.8800629921259844
 30
0.0
 10
2.0493031496062994
 20
-1.8800629921259844
 30
0.0
 10
2.0493031496062994
 20
-1.8800629921259844
 30
0.0
 10
2.0561850393700789
 20
-1.8802322834645671
 30
0.0
 10
2.0561850393700789
 20
-1.8802322834645671
 30
0.0
 10
2.0561850393700789
 20
-1.8802322834645671
 30
0.0
 10
2.0561850393700789
 20
-1.8802322834645671
 30
0.0
 10
2.062984251968504
 20
-1.880748031496063
 30
0.0
 10
2.062984251968504
 20
-1.880748031496063
 30
0.0
 10
2.062984251968504
 20
-1.880748031496063
 30
0.0
 10
2.062984251968504
 20
-1.880748031496063
 30
0.0
 10
2.0696811023622046
 20
-1.8815905511811024
 30
0.0
 10
2.0696811023622046
 20
-1.8815905511811024
 30
0.0
 10
2.0696811023622046
 20
-1.8815905511811024
 30
0.0
 10
2.0696811023622046
 20
-1.8815905511811024
 30
0.0
 10
2.0762755905511812
 20
-1.8827677165354331
 30
0.0
 10
2.0762755905511812
 20
-1.8827677165354331
 30
0.0
 10
2.0762755905511812
 20
-1.8827677165354331
 30
0.0
 10
2.0762755905511812
 20
-1.8827677165354331
 30
0.0
 10
2.0827480314960631
 20
-1.8842519685039372
 30
0.0
 10
2.0827480314960631
 20
-1.8842519685039372
 30
0.0
 10
2.0827480314960631
 20
-1.8842519685039372
 30
0.0
 10
2.0827480314960631
 20
-1.8842519685039372
 30
0.0
 10
2.0891023622047245
 20
-1.8860511811023624
 30
0.0
 10
2.0891023622047245
 20
-1.8860511811023624
 30
0.0
 10
2.0891023622047245
 20
-1.8860511811023624
 30
0.0
 10
2.0891023622047245
 20
-1.8860511811023624
 30
0.0
 10
2.0953228346456694
 20
-1.8881456692913388
 30
0.0
 10
2.0953228346456694
 20
-1.8881456692913388
 30
0.0
 10
2.0953228346456694
 20
-1.8881456692913388
 30
0.0
 10
2.0953228346456694
 20
-1.8881456692913388
 30
0.0
 10
2.1014055118110235
 20
-1.8905393700787403
 30
0.0
 10
2.1014055118110235
 20
-1.8905393700787403
 30
0.0
 10
2.1014055118110235
 20
-1.8905393700787403
 30
0.0
 10
2.1014055118110235
 20
-1.8905393700787403
 30
0.0
 10
2.1073307086614173
 20
-1.893204724409449
 30
0.0
 10
2.1073307086614173
 20
-1.893204724409449
 30
0.0
 10
2.1073307086614173
 20
-1.893204724409449
 30
0.0
 10
2.1073307086614173
 20
-1.893204724409449
 30
0.0
 10
2.1131023622047245
 20
-1.8961496062992127
 30
0.0
 10
2.1131023622047245
 20
-1.8961496062992127
 30
0.0
 10
2.1131023622047245
 20
-1.8961496062992127
 30
0.0
 10
2.1131023622047245
 20
-1.8961496062992127
 30
0.0
 10
2.1187086614173229
 20
-1.8993582677165355
 30
0.0
 10
2.1187086614173229
 20
-1.8993582677165355
 30
0.0
 10
2.1187086614173229
 20
-1.8993582677165355
 30
0.0
 10
2.1187086614173229
 20
-1.8993582677165355
 30
0.0
 10
2.1241456692913387
 20
-1.9028307086614173
 30
0.0
 10
2.1241456692913387
 20
-1.9028307086614173
 30
0.0
 10
2.1241456692913387
 20
-1.9028307086614173
 30
0.0
 10
2.1241456692913387
 20
-1.9028307086614173
 30
0.0
 10
2.1293897637795278
 20
-1.9065472440944882
 30
0.0
 10
2.1293897637795278
 20
-1.9065472440944882
 30
0.0
 10
2.1293897637795278
 20
-1.9065472440944882
 30
0.0
 10
2.1293897637795278
 20
-1.9065472440944882
 30
0.0
 10
2.134452755905512
 20
-1.9105078740157482
 30
0.0
 10
2.134452755905512
 20
-1.9105078740157482
 30
0.0
 10
2.134452755905512
 20
-1.9105078740157482
 30
0.0
 10
2.134452755905512
 20
-1.9105078740157482
 30
0.0
 10
2.1393110236220472
 20
-1.914696850393701
 30
0.0
 10
2.1393110236220472
 20
-1.914696850393701
 30
0.0
 10
2.1393110236220472
 20
-1.914696850393701
 30
0.0
 10
2.1393110236220472
 20
-1.914696850393701
 30
0.0
 10
2.1439645669291338
 20
-1.9191181102362205
 30
0.0
 10
2.1439645669291338
 20
-1.9191181102362205
 30
0.0
 10
2.1439645669291338
 20
-1.9191181102362205
 30
0.0
 10
2.1439645669291338
 20
-1.9191181102362205
 30
0.0
 10
2.1483937007874014
 20
-1.9237440944881889
 30
0.0
 10
2.1483937007874014
 20
-1.9237440944881889
 30
0.0
 10
2.1483937007874014
 20
-1.9237440944881889
 30
0.0
 10
2.1483937007874014
 20
-1.9237440944881889
 30
0.0
 10
2.1526023622047243
 20
-1.9285826771653545
 30
0.0
 10
2.1526023622047243
 20
-1.9285826771653545
 30
0.0
 10
2.1526023622047243
 20
-1.9285826771653545
 30
0.0
 10
2.1526023622047243
 20
-1.9285826771653545
 30
0.0
 10
2.1565748031496064
 20
-1.9336141732283465
 30
0.0
 10
2.1565748031496064
 20
-1.9336141732283465
 30
0.0
 10
2.1565748031496064
 20
-1.9336141732283465
 30
0.0
 10
2.1565748031496064
 20
-1.9336141732283465
 30
0.0
 10
2.1603110236220475
 20
-1.9388464566929136
 30
0.0
 10
2.1603110236220475
 20
-1.9388464566929136
 30
0.0
 10
2.1603110236220475
 20
-1.9388464566929136
 30
0.0
 10
2.1603110236220475
 20
-1.9388464566929136
 30
0.0
 10
2.1637874015748033
 20
-1.944251968503937
 30
0.0
 10
2.1637874015748033
 20
-1.944251968503937
 30
0.0
 10
2.1637874015748033
 20
-1.944251968503937
 30
0.0
 10
2.1637874015748033
 20
-1.944251968503937
 30
0.0
 10
2.1670118110236221
 20
-1.9498385826771654
 30
0.0
 10
2.1670118110236221
 20
-1.9498385826771654
 30
0.0
 10
2.1670118110236221
 20
-1.9498385826771654
 30
0.0
 10
2.1670118110236221
 20
-1.9498385826771654
 30
0.0
 10
2.169968503937008
 20
-1.9555866141732283
 30
0.0
 10
2.169968503937008
 20
-1.9555866141732283
 30
0.0
 10
2.169968503937008
 20
-1.9555866141732283
 30
0.0
 10
2.169968503937008
 20
-1.9555866141732283
 30
0.0
 10
2.1726574803149608
 20
-1.9614960629921261
 30
0.0
 10
2.1726574803149608
 20
-1.9614960629921261
 30
0.0
 10
2.1726574803149608
 20
-1.9614960629921261
 30
0.0
 10
2.1726574803149608
 20
-1.9614960629921261
 30
0.0
 10
2.1750511811023623
 20
-1.9675472440944883
 30
0.0
 10
2.1750511811023623
 20
-1.9675472440944883
 30
0.0
 10
2.1750511811023623
 20
-1.9675472440944883
 30
0.0
 10
2.1750511811023623
 20
-1.9675472440944883
 30
0.0
 10
2.1771574803149609
 20
-1.973744094488189
 30
0.0
 10
2.1771574803149609
 20
-1.973744094488189
 30
0.0
 10
2.1771574803149609
 20
-1.973744094488189
 30
0.0
 10
2.1771574803149609
 20
-1.973744094488189
 30
0.0
 10
2.1789566929133861
 20
-1.9800669291338584
 30
0.0
 10
2.1789566929133861
 20
-1.9800669291338584
 30
0.0
 10
2.1789566929133861
 20
-1.9800669291338584
 30
0.0
 10
2.1789566929133861
 20
-1.9800669291338584
 30
0.0
 10
2.1804566929133857
 20
-1.9865236220472442
 30
0.0
 10
2.1804566929133857
 20
-1.9865236220472442
 30
0.0
 10
2.1804566929133857
 20
-1.9865236220472442
 30
0.0
 10
2.1804566929133857
 20
-1.9865236220472442
 30
0.0
 10
2.1816338582677166
 20
-1.9930866141732284
 30
0.0
 10
2.1816338582677166
 20
-1.9930866141732284
 30
0.0
 10
2.1816338582677166
 20
-1.9930866141732284
 30
0.0
 10
2.1816338582677166
 20
-1.9930866141732284
 30
0.0
 10
2.1824881889763779
 20
-1.9997598425196852
 30
0.0
 10
2.1824881889763779
 20
-1.9997598425196852
 30
0.0
 10
2.1824881889763779
 20
-1.9997598425196852
 30
0.0
 10
2.1824881889763779
 20
-1.9997598425196852
 30
0.0
 10
2.1830039370078742
 20
-2.0065314960629923
 30
0.0
 10
2.1830039370078742
 20
-2.0065314960629923
 30
0.0
 10
2.1830039370078742
 20
-2.0065314960629923
 30
0.0
 10
2.1830039370078742
 20
-2.0065314960629923
 30
0.0
 10
2.1831811023622048
 20
-2.0133976377952756
 30
0.0
 10
2.1831811023622048
 20
-2.0133976377952756
 30
0.0
 10
2.1831811023622048
 20
-2.0133976377952756
 30
0.0
 10
2.1831811023622048
 20
-2.0133976377952756
 30
0.0
 10
2.1830039370078742
 20
-2.0202519685039371
 30
0.0
 10
2.1830039370078742
 20
-2.0202519685039371
 30
0.0
 10
2.1830039370078742
 20
-2.0202519685039371
 30
0.0
 10
2.1830039370078742
 20
-2.0202519685039371
 30
0.0
 10
2.1824881889763779
 20
-2.0270236220472442
 30
0.0
 10
2.1824881889763779
 20
-2.0270236220472442
 30
0.0
 10
2.1824881889763779
 20
-2.0270236220472442
 30
0.0
 10
2.1824881889763779
 20
-2.0270236220472442
 30
0.0
 10
2.1816338582677166
 20
-2.0336929133858268
 30
0.0
 10
2.1816338582677166
 20
-2.0336929133858268
 30
0.0
 10
2.1816338582677166
 20
-2.0336929133858268
 30
0.0
 10
2.1816338582677166
 20
-2.0336929133858268
 30
0.0
 10
2.1804566929133857
 20
-2.040259842519685
 30
0.0
 10
2.1804566929133857
 20
-2.040259842519685
 30
0.0
 10
2.1804566929133857
 20
-2.040259842519685
 30
0.0
 10
2.1804566929133857
 20
-2.040259842519685
 30
0.0
 10
2.1789566929133861
 20
-2.0467086614173229
 30
0.0
 10
2.1789566929133861
 20
-2.0467086614173229
 30
0.0
 10
2.1789566929133861
 20
-2.0467086614173229
 30
0.0
 10
2.1789566929133861
 20
-2.0467086614173229
 30
0.0
 10
2.1771574803149609
 20
-2.0530354330708662
 30
0.0
 10
2.1771574803149609
 20
-2.0530354330708662
 30
0.0
 10
2.1771574803149609
 20
-2.0530354330708662
 30
0.0
 10
2.1771574803149609
 20
-2.0530354330708662
 30
0.0
 10
2.1750511811023623
 20
-2.0592322834645671
 30
0.0
 10
2.1750511811023623
 20
-2.0592322834645671
 30
0.0
 10
2.1750511811023623
 20
-2.0592322834645671
 30
0.0
 10
2.1750511811023623
 20
-2.0592322834645671
 30
0.0
 10
2.1726574803149608
 20
-2.0652913385826772
 30
0.0
 10
2.1726574803149608
 20
-2.0652913385826772
 30
0.0
 10
2.1726574803149608
 20
-2.0652913385826772
 30
0.0
 10
2.1726574803149608
 20
-2.0652913385826772
 30
0.0
 10
2.169968503937008
 20
-2.0711929133858269
 30
0.0
 10
2.169968503937008
 20
-2.0711929133858269
 30
0.0
 10
2.169968503937008
 20
-2.0711929133858269
 30
0.0
 10
2.169968503937008
 20
-2.0711929133858269
 30
0.0
 10
2.1670118110236221
 20
-2.0769409448818896
 30
0.0
 10
2.1670118110236221
 20
-2.0769409448818896
 30
0.0
 10
2.1670118110236221
 20
-2.0769409448818896
 30
0.0
 10
2.1670118110236221
 20
-2.0769409448818896
 30
0.0
 10
2.1637874015748033
 20
-2.0825236220472441
 30
0.0
 10
2.1637874015748033
 20
-2.0825236220472441
 30
0.0
 10
2.1637874015748033
 20
-2.0825236220472441
 30
0.0
 10
2.1637874015748033
 20
-2.0825236220472441
 30
0.0
 10
2.1603110236220475
 20
-2.0879370078740158
 30
0.0
 10
2.1603110236220475
 20
-2.0879370078740158
 30
0.0
 10
2.1603110236220475
 20
-2.0879370078740158
 30
0.0
 10
2.1603110236220475
 20
-2.0879370078740158
 30
0.0
 10
2.1565748031496064
 20
-2.0931614173228348
 30
0.0
 10
2.1565748031496064
 20
-2.0931614173228348
 30
0.0
 10
2.1565748031496064
 20
-2.0931614173228348
 30
0.0
 10
2.1565748031496064
 20
-2.0931614173228348
 30
0.0
 10
2.1526023622047243
 20
-2.0982007874015749
 30
0.0
 10
2.1526023622047243
 20
-2.0982007874015749
 30
0.0
 10
2.1526023622047243
 20
-2.0982007874015749
 30
0.0
 10
2.1526023622047243
 20
-2.0982007874015749
 30
0.0
 10
2.1483937007874014
 20
-2.1030393700787404
 30
0.0
 10
2.1483937007874014
 20
-2.1030393700787404
 30
0.0
 10
2.1483937007874014
 20
-2.1030393700787404
 30
0.0
 10
2.1483937007874014
 20
-2.1030393700787404
 30
0.0
 10
2.1439645669291338
 20
-2.1076771653543309
 30
0.0
 10
2.1439645669291338
 20
-2.1076771653543309
 30
0.0
 10
2.1439645669291338
 20
-2.1076771653543309
 30
0.0
 10
2.1439645669291338
 20
-2.1076771653543309
 30
0.0
 10
2.1393110236220472
 20
-2.1120866141732284
 30
0.0
 10
2.1393110236220472
 20
-2.1120866141732284
 30
0.0
 10
2.1393110236220472
 20
-2.1120866141732284
 30
0.0
 10
2.1393110236220472
 20
-2.1120866141732284
 30
0.0
 10
2.134452755905512
 20
-2.1162795275590551
 30
0.0
 10
2.134452755905512
 20
-2.1162795275590551
 30
0.0
 10
2.134452755905512
 20
-2.1162795275590551
 30
0.0
 10
2.134452755905512
 20
-2.1162795275590551
 30
0.0
 10
2.1293897637795278
 20
-2.120236220472441
 30
0.0
 10
2.1293897637795278
 20
-2.120236220472441
 30
0.0
 10
2.1293897637795278
 20
-2.120236220472441
 30
0.0
 10
2.1293897637795278
 20
-2.120236220472441
 30
0.0
 10
1.4801417322834647
 20
-2.5080196850393701
 30
0.0
 10
1.4801417322834647
 20
-2.5080196850393701
 30
0.0
 10
1.4801417322834647
 20
-2.5080196850393701
 30
0.0
 10
1.4801417322834647
 20
-2.5080196850393701
 30
0.0
 10
1.4852047244094488
 20
-2.5040629921259843
 30
0.0
 10
1.4852047244094488
 20
-2.5040629921259843
 30
0.0
 10
1.4852047244094488
 20
-2.5040629921259843
 30
0.0
 10
1.4852047244094488
 20
-2.5040629921259843
 30
0.0
 10
1.4900629921259843
 20
-2.4998700787401575
 30
0.0
 10
1.4900629921259843
 20
-2.4998700787401575
 30
0.0
 10
1.4900629921259843
 20
-2.4998700787401575
 30
0.0
 10
1.4900629921259843
 20
-2.4998700787401575
 30
0.0
 10
1.4947165354330709
 20
-2.4954606299212601
 30
0.0
 10
1.4947165354330709
 20
-2.4954606299212601
 30
0.0
 10
1.4947165354330709
 20
-2.4954606299212601
 30
0.0
 10
1.4947165354330709
 20
-2.4954606299212601
 30
0.0
 10
1.4991456692913387
 20
-2.4908228346456696
 30
0.0
 10
1.4991456692913387
 20
-2.4908228346456696
 30
0.0
 10
1.4991456692913387
 20
-2.4908228346456696
 30
0.0
 10
1.4991456692913387
 20
-2.4908228346456696
 30
0.0
 10
1.5033543307086614
 20
-2.485984251968504
 30
0.0
 10
1.5033543307086614
 20
-2.485984251968504
 30
0.0
 10
1.5033543307086614
 20
-2.485984251968504
 30
0.0
 10
1.5033543307086614
 20
-2.485984251968504
 30
0.0
 10
1.5073267716535435
 20
-2.4809448818897639
 30
0.0
 10
1.5073267716535435
 20
-2.4809448818897639
 30
0.0
 10
1.5073267716535435
 20
-2.4809448818897639
 30
0.0
 10
1.5073267716535435
 20
-2.4809448818897639
 30
0.0
 10
1.5110629921259844
 20
-2.475720472440945
 30
0.0
 10
1.5110629921259844
 20
-2.475720472440945
 30
0.0
 10
1.5110629921259844
 20
-2.475720472440945
 30
0.0
 10
1.5110629921259844
 20
-2.475720472440945
 30
0.0
 10
1.5145393700787402
 20
-2.4703070866141732
 30
0.0
 10
1.5145393700787402
 20
-2.4703070866141732
 30
0.0
 10
1.5145393700787402
 20
-2.4703070866141732
 30
0.0
 10
1.5145393700787402
 20
-2.4703070866141732
 30
0.0
 10
1.5177637795275591
 20
-2.4647244094488192
 30
0.0
 10
1.5177637795275591
 20
-2.4647244094488192
 30
0.0
 10
1.5177637795275591
 20
-2.4647244094488192
 30
0.0
 10
1.5177637795275591
 20
-2.4647244094488192
 30
0.0
 10
1.5207204724409449
 20
-2.458976377952756
 30
0.0
 10
1.5207204724409449
 20
-2.458976377952756
 30
0.0
 10
1.5207204724409449
 20
-2.458976377952756
 30
0.0
 10
1.5207204724409449
 20
-2.458976377952756
 30
0.0
 10
1.5234094488188976
 20
-2.4530748031496064
 30
0.0
 10
1.5234094488188976
 20
-2.4530748031496064
 30
0.0
 10
1.5234094488188976
 20
-2.4530748031496064
 30
0.0
 10
1.5234094488188976
 20
-2.4530748031496064
 30
0.0
 10
1.5258031496062994
 20
-2.4470157480314962
 30
0.0
 10
1.5258031496062994
 20
-2.4470157480314962
 30
0.0
 10
1.5258031496062994
 20
-2.4470157480314962
 30
0.0
 10
1.5258031496062994
 20
-2.4470157480314962
 30
0.0
 10
1.5279094488188978
 20
-2.4408188976377954
 30
0.0
 10
1.5279094488188978
 20
-2.4408188976377954
 30
0.0
 10
1.5279094488188978
 20
-2.4408188976377954
 30
0.0
 10
1.5279094488188978
 20
-2.4408188976377954
 30
0.0
 10
1.529708661417323
 20
-2.434492125984252
 30
0.0
 10
1.529708661417323
 20
-2.434492125984252
 30
0.0
 10
1.529708661417323
 20
-2.434492125984252
 30
0.0
 10
1.529708661417323
 20
-2.434492125984252
 30
0.0
 10
1.5312086614173228
 20
-2.4280433070866141
 30
0.0
 10
1.5312086614173228
 20
-2.4280433070866141
 30
0.0
 10
1.5312086614173228
 20
-2.4280433070866141
 30
0.0
 10
1.5312086614173228
 20
-2.4280433070866141
 30
0.0
 10
1.5323858267716537
 20
-2.4214763779527559
 30
0.0
 10
1.5323858267716537
 20
-2.4214763779527559
 30
0.0
 10
1.5323858267716537
 20
-2.4214763779527559
 30
0.0
 10
1.5323858267716537
 20
-2.4214763779527559
 30
0.0
 10
1.5332401574803149
 20
-2.4148070866141733
 30
0.0
 10
1.5332401574803149
 20
-2.4148070866141733
 30
0.0
 10
1.5332401574803149
 20
-2.4148070866141733
 30
0.0
 10
1.5332401574803149
 20
-2.4148070866141733
 30
0.0
 10
1.5337559055118111
 20
-2.4080354330708662
 30
0.0
 10
1.5337559055118111
 20
-2.4080354330708662
 30
0.0
 10
1.5337559055118111
 20
-2.4080354330708662
 30
0.0
 10
1.5337559055118111
 20
-2.4080354330708662
 30
0.0
 10
1.5339330708661418
 20
-2.4011811023622047
 30
0.0
 10
1.5339330708661418
 20
-2.4011811023622047
 30
0.0
 10
1.5339330708661418
 20
-2.4011811023622047
 30
0.0
 10
1.5339330708661418
 20
-2.4011811023622047
 30
0.0
 10
1.5337559055118111
 20
-2.3943149606299214
 30
0.0
 10
1.5337559055118111
 20
-2.3943149606299214
 30
0.0
 10
1.5337559055118111
 20
-2.3943149606299214
 30
0.0
 10
1.5337559055118111
 20
-2.3943149606299214
 30
0.0
 10
1.5332401574803149
 20
-2.3875433070866143
 30
0.0
 10
1.5332401574803149
 20
-2.3875433070866143
 30
0.0
 10
1.5332401574803149
 20
-2.3875433070866143
 30
0.0
 10
1.5332401574803149
 20
-2.3875433070866143
 30
0.0
 10
1.5323858267716537
 20
-2.3808700787401578
 30
0.0
 10
1.5323858267716537
 20
-2.3808700787401578
 30
0.0
 10
1.5323858267716537
 20
-2.3808700787401578
 30
0.0
 10
1.5323858267716537
 20
-2.3808700787401578
 30
0.0
 10
1.5312086614173228
 20
-2.3743070866141731
 30
0.0
 10
1.5312086614173228
 20
-2.3743070866141731
 30
0.0
 10
1.5312086614173228
 20
-2.3743070866141731
 30
0.0
 10
1.5312086614173228
 20
-2.3743070866141731
 30
0.0
 10
1.529708661417323
 20
-2.3678503937007873
 30
0.0
 10
1.529708661417323
 20
-2.3678503937007873
 30
0.0
 10
1.529708661417323
 20
-2.3678503937007873
 30
0.0
 10
1.529708661417323
 20
-2.3678503937007873
 30
0.0
 10
1.5279094488188978
 20
-2.3615275590551184
 30
0.0
 10
1.5279094488188978
 20
-2.3615275590551184
 30
0.0
 10
1.5279094488188978
 20
-2.3615275590551184
 30
0.0
 10
1.5279094488188978
 20
-2.3615275590551184
 30
0.0
 10
1.5258031496062994
 20
-2.3553307086614175
 30
0.0
 10
1.5258031496062994
 20
-2.3553307086614175
 30
0.0
 10
1.5258031496062994
 20
-2.3553307086614175
 30
0.0
 10
1.5258031496062994
 20
-2.3553307086614175
 30
0.0
 10
1.5234094488188976
 20
-2.3492795275590552
 30
0.0
 10
1.5234094488188976
 20
-2.3492795275590552
 30
0.0
 10
1.5234094488188976
 20
-2.3492795275590552
 30
0.0
 10
1.5234094488188976
 20
-2.3492795275590552
 30
0.0
 10
1.5207204724409449
 20
-2.3433700787401577
 30
0.0
 10
1.5207204724409449
 20
-2.3433700787401577
 30
0.0
 10
1.5207204724409449
 20
-2.3433700787401577
 30
0.0
 10
1.5207204724409449
 20
-2.3433700787401577
 30
0.0
 10
1.5177637795275591
 20
-2.3376220472440945
 30
0.0
 10
1.5177637795275591
 20
-2.3376220472440945
 30
0.0
 10
1.5177637795275591
 20
-2.3376220472440945
 30
0.0
 10
1.5177637795275591
 20
-2.3376220472440945
 30
0.0
 10
1.5145393700787402
 20
-2.3320354330708661
 30
0.0
 10
1.5145393700787402
 20
-2.3320354330708661
 30
0.0
 10
1.5145393700787402
 20
-2.3320354330708661
 30
0.0
 10
1.5145393700787402
 20
-2.3320354330708661
 30
0.0
 10
1.5110629921259844
 20
-2.3266299212598427
 30
0.0
 10
1.5110629921259844
 20
-2.3266299212598427
 30
0.0
 10
1.5110629921259844
 20
-2.3266299212598427
 30
0.0
 10
1.5110629921259844
 20
-2.3266299212598427
 30
0.0
 10
1.5073267716535435
 20
-2.3213976377952759
 30
0.0
 10
1.5073267716535435
 20
-2.3213976377952759
 30
0.0
 10
1.5073267716535435
 20
-2.3213976377952759
 30
0.0
 10
1.5073267716535435
 20
-2.3213976377952759
 30
0.0
 10
1.5033543307086614
 20
-2.3163661417322836
 30
0.0
 10
1.5033543307086614
 20
-2.3163661417322836
 30
0.0
 10
1.5033543307086614
 20
-2.3163661417322836
 30
0.0
 10
1.5033543307086614
 20
-2.3163661417322836
 30
0.0
 10
1.4991456692913387
 20
-2.3115275590551181
 30
0.0
 10
1.4991456692913387
 20
-2.3115275590551181
 30
0.0
 10
1.4991456692913387
 20
-2.3115275590551181
 30
0.0
 10
1.4991456692913387
 20
-2.3115275590551181
 30
0.0
 10
1.4947165354330709
 20
-2.3069015748031498
 30
0.0
 10
1.4947165354330709
 20
-2.3069015748031498
 30
0.0
 10
1.4947165354330709
 20
-2.3069015748031498
 30
0.0
 10
1.4947165354330709
 20
-2.3069015748031498
 30
0.0
 10
1.4900629921259843
 20
-2.3024803149606301
 30
0.0
 10
1.4900629921259843
 20
-2.3024803149606301
 30
0.0
 10
1.4900629921259843
 20
-2.3024803149606301
 30
0.0
 10
1.4900629921259843
 20
-2.3024803149606301
 30
0.0
 10
1.4852047244094488
 20
-2.2982913385826773
 30
0.0
 10
1.4852047244094488
 20
-2.2982913385826773
 30
0.0
 10
1.4852047244094488
 20
-2.2982913385826773
 30
0.0
 10
1.4852047244094488
 20
-2.2982913385826773
 30
0.0
 10
1.4801417322834647
 20
-2.2943307086614175
 30
0.0
 10
1.4801417322834647
 20
-2.2943307086614175
 30
0.0
 10
1.4801417322834647
 20
-2.2943307086614175
 30
0.0
 10
1.4801417322834647
 20
-2.2943307086614175
 30
0.0
 10
1.4748976377952756
 20
-2.2906141732283465
 30
0.0
 10
1.4748976377952756
 20
-2.2906141732283465
 30
0.0
 10
1.4748976377952756
 20
-2.2906141732283465
 30
0.0
 10
1.4748976377952756
 20
-2.2906141732283465
 30
0.0
 10
1.4694606299212598
 20
-2.2871417322834646
 30
0.0
 10
1.4694606299212598
 20
-2.2871417322834646
 30
0.0
 10
1.4694606299212598
 20
-2.2871417322834646
 30
0.0
 10
1.4694606299212598
 20
-2.2871417322834646
 30
0.0
 10
1.4638543307086616
 20
-2.2839330708661416
 30
0.0
 10
1.4638543307086616
 20
-2.2839330708661416
 30
0.0
 10
1.4638543307086616
 20
-2.2839330708661416
 30
0.0
 10
1.4638543307086616
 20
-2.2839330708661416
 30
0.0
 10
1.4580826771653543
 20
-2.2809881889763779
 30
0.0
 10
1.4580826771653543
 20
-2.2809881889763779
 30
0.0
 10
1.4580826771653543
 20
-2.2809881889763779
 30
0.0
 10
1.4580826771653543
 20
-2.2809881889763779
 30
0.0
 10
1.4521574803149606
 20
-2.2783228346456692
 30
0.0
 10
1.4521574803149606
 20
-2.2783228346456692
 30
0.0
 10
1.4521574803149606
 20
-2.2783228346456692
 30
0.0
 10
1.4521574803149606
 20
-2.2783228346456692
 30
0.0
 10
1.4460748031496065
 20
-2.2759291338582677
 30
0.0
 10
1.4460748031496065
 20
-2.2759291338582677
 30
0.0
 10
1.4460748031496065
 20
-2.2759291338582677
 30
0.0
 10
1.4460748031496065
 20
-2.2759291338582677
 30
0.0
 10
1.4398543307086615
 20
-2.2738346456692913
 30
0.0
 10
1.4398543307086615
 20
-2.2738346456692913
 30
0.0
 10
1.4398543307086615
 20
-2.2738346456692913
 30
0.0
 10
1.4398543307086615
 20
-2.2738346456692913
 30
0.0
 10
1.4335
 20
-2.2720354330708661
 30
0.0
 10
1.4335
 20
-2.2720354330708661
 30
0.0
 10
1.4335
 20
-2.2720354330708661
 30
0.0
 10
1.4335
 20
-2.2720354330708661
 30
0.0
 10
1.4270275590551182
 20
-2.2705511811023622
 30
0.0
 10
1.4270275590551182
 20
-2.2705511811023622
 30
0.0
 10
1.4270275590551182
 20
-2.2705511811023622
 30
0.0
 10
1.4270275590551182
 20
-2.2705511811023622
 30
0.0
 10
1.4204330708661417
 20
-2.2693740157480318
 30
0.0
 10
1.4204330708661417
 20
-2.2693740157480318
 30
0.0
 10
1.4204330708661417
 20
-2.2693740157480318
 30
0.0
 10
1.4204330708661417
 20
-2.2693740157480318
 30
0.0
 10
1.4137362204724411
 20
-2.2685314960629923
 30
0.0
 10
1.4137362204724411
 20
-2.2685314960629923
 30
0.0
 10
1.4137362204724411
 20
-2.2685314960629923
 30
0.0
 10
1.4137362204724411
 20
-2.2685314960629923
 30
0.0
 10
1.4069370078740158
 20
-2.268015748031496
 30
0.0
 10
1.4069370078740158
 20
-2.268015748031496
 30
0.0
 10
1.4069370078740158
 20
-2.268015748031496
 30
0.0
 10
1.4069370078740158
 20
-2.268015748031496
 30
0.0
 10
1.4000551181102363
 20
-2.2678464566929133
 30
0.0
 10
1.4000551181102363
 20
-2.2678464566929133
 30
0.0
  0
SPLINE
  5
51
100
AcDbEntity
  8
Layer 1
 62
     9
100
AcDbSpline
210
0.0
220
0.0
230
1.0
 70
     1
 71
     3
 72
    20
 73
    16
 74
     0
 42
0.0000000001
 43
0.0000000001
 40
0.0
 40
0.0
 40
0.0
 40
0.0
 40
0.25
 40
0.25
 40
0.25
 40
0.25
 40
0.5
 40
0.5
 40
0.5
 40
0.5
 40
0.75
 40
0.75
 40
0.75
 40
0.75
 40
1.0
 40
1.0
 40
1.0
 40
1.0
 10
1.8600866141732284
 20
-1.0506102362204726
 30
0.0
 10
1.8600866141732284
 20
-1.0506102362204726
 30
0.0
 10
2.5093346456692913
 20
-0.6628267716535433
 30
0.0
 10
2.5093346456692913
 20
-0.6628267716535433
 30
0.0
 10
2.5093346456692913
 20
-0.6628267716535433
 30
0.0
 10
2.5093346456692913
 20
-0.6628267716535433
 30
0.0
 10
2.2102559055118109
 20
-1.8284370078740158
 30
0.0
 10
2.2102559055118109
 20
-1.8284370078740158
 30
0.0
 10
2.2102559055118109
 20
-1.8284370078740158
 30
0.0
 10
2.2102559055118109
 20
-1.8284370078740158
 30
0.0
 10
1.561007874015748
 20
-2.2162204724409449
 30
0.0
 10
1.561007874015748
 20
-2.2162204724409449
 30
0.0
 10
1.561007874015748
 20
-2.2162204724409449
 30
0.0
 10
1.561007874015748
 20
-2.2162204724409449
 30
0.0
 10
1.8600866141732284
 20
-1.0506102362204726
 30
0.0
 10
1.8600866141732284
 20
-1.0506102362204726
 30
0.0
  0
SPLINE
  5
52
100
AcDbEntity
  8
Layer 1
370
     5
100
AcDbSpline
210
0.0
220
0.0
230
1.0
 70
     1
 71
     3
 72
    20
 73
    16
 74
     0
 42
0.0000000001
 43
0.0000000001
 40
0.0
 40
0.0
 40
0.0
 40
0.0
 40
0.25
 40
0.25
 40
0.25
 40
0.25
 40
0.5
 40
0.5
 40
0.5
 40
0.5
 40
0.75
 40
0.75
 40
0.75
 40
0.75
 40
1.0
 40
1.0
 40
1.0
 40
1.0
 10
1.8600866141732284
 20
-1.0506102362204726
 30
0.0
 10
1.8600866141732284
 20
-1.0506102362204726
 30
0.0
 10
2.5093346456692913
 20
-0.6628267716535433
 30
0.0
 10
2.5093346456692913
 20
-0.6628267716535433
 30
0.0
 10
2.5093346456692913
 20
-0.6628267716535433
 30
0.0
 10
2.5093346456692913
 20
-0.6628267716535433
 30
0.0
 10
2.2102559055118109
 20
-1.8284370078740158
 30
0.0
 10
2.2102559055118109
 20
-1.8284370078740158
 30
0.0
 10
2.2102559055118109
 20
-1.8284370078740158
 30
0.0
 10
2.2102559055118109
 20
-1.8284370078740158
 30
0.0
 10
1.561007874015748
 20
-2.2162204724409449
 30
0.0
 10
1.561007874015748
 20
-2.2162204724409449
 30
0.0
 10
1.561007874015748
 20
-2.2162204724409449
 30
0.0
 10
1.561007874015748
 20
-2.2162204724409449
 30
0.0
 10
1.8600866141732284
 20
-1.0506102362204726
 30
0.0
 10
1.8600866141732284
 20
-1.0506102362204726
 30
0.0
  0
SPLINE
  5
53
100
AcDbEntity
  8
Layer 1
370
     5
 62
     7
100
AcDbSpline
210
0.0
220
0.0
230
1.0
 70
     1
 71
     3
 72
    56
 73
    52
 74
     0
 42
0.0000000001
 43
0.0000000001
 40
0.0
 40
0.0
 40
0.0
 40
0.0
 40
0.0769230769230769
 40
0.0769230769230769
 40
0.0769230769230769
 40
0.0769230769230769
 40
0.1538461538461539
 40
0.1538461538461539
 40
0.1538461538461539
 40
0.1538461538461539
 40
0.2307692307692308
 40
0.2307692307692308
 40
0.2307692307692308
 40
0.2307692307692308
 40
0.3076923076923077
 40
0.3076923076923077
 40
0.3076923076923077
 40
0.3076923076923077
 40
0.3846153846153846
 40
0.3846153846153846
 40
0.3846153846153846
 40
0.3846153846153846
 40
0.4615384615384616
 40
0.4615384615384616
 40
0.4615384615384616
 40
0.4615384615384616
 40
0.5384615384615386
 40
0.5384615384615386
 40
0.5384615384615386
 40
0.5384615384615386
 40
0.6153846153846154
 40
0.6153846153846154
 40
0.6153846153846154
 40
0.6153846153846154
 40
0.6923076923076923
 40
0.6923076923076923
 40
0.6923076923076923
 40
0.6923076923076923
 40
0.7692307692307692
 40
0.7692307692307692
 40
0.7692307692307692
 40
0.7692307692307692
 40
0.846153846153846
 40
0.846153846153846
 40
0.846153846153846
 40
0.846153846153846
 40
0.9230769230769229
 40
0.9230769230769229
 40
0.9230769230769229
 40
0.9230769230769229
 40
1.0
 40
1.0
 40
1.0
 40
1.0
 10
1.4000551181102363
 20
-2.534523622047244
 30
0.0
 10
1.4000551181102363
 20
-2.534523622047244
 30
0.0
 10
-1.5548779527559056
 20
-2.534523622047244
 30
0.0
 10
-1.5548779527559056
 20
-2.534523622047244
 30
0.0
 10
-1.5548779527559056
 20
-2.534523622047244
 30
0.0
 10
-1.6288070866141733
 20
-2.534523622047244
 30
0.0
 10
-1.6887559055118111
 20
-2.4748149606299212
 30
0.0
 10
-1.6887559055118111
 20
-2.4011811023622047
 30
0.0
 10
-1.6887559055118111
 20
-2.4011811023622047
 30
0.0
 10
-1.6887559055118111
 20
-2.3275551181102365
 30
0.0
 10
-1.6288070866141733
 20
-2.2678464566929133
 30
0.0
 10
-1.5548779527559056
 20
-2.2678464566929133
 30
0.0
 10
-1.5548779527559056
 20
-2.2678464566929133
 30
0.0
 10
-1.5548779527559056
 20
-2.2678464566929133
 30
0.0
 10
-1.5549173228346458
 20
-2.2250433070866142
 30
0.0
 10
-1.5549173228346458
 20
-2.2250433070866142
 30
0.0
 10
-1.5549173228346458
 20
-2.2250433070866142
 30
0.0
 10
-1.5549173228346458
 20
-2.2250433070866142
 30
0.0
 10
-1.7158307086614173
 20
-2.2162204724409449
 30
0.0
 10
-1.7158307086614173
 20
-2.2162204724409449
 30
0.0
 10
-1.7158307086614173
 20
-2.2162204724409449
 30
0.0
 10
-1.7158307086614173
 20
-2.2162204724409449
 30
0.0
 10
-2.0149094488188979
 20
-1.0506102362204726
 30
0.0
 10
-2.0149094488188979
 20
-1.0506102362204726
 30
0.0
 10
-2.0149094488188979
 20
-1.0506102362204726
 30
0.0
 10
-2.0149094488188979
 20
-1.0506102362204726
 30
0.0
 10
-0.0773858267716536
 20
-0.4095236220472441
 30
0.0
 10
-0.0773858267716536
 20
-0.4095236220472441
 30
0.0
 10
-0.0773858267716536
 20
-0.4095236220472441
 30
0.0
 10
-0.0773858267716536
 20
-0.4095236220472441
 30
0.0
 10
1.8600866141732284
 20
-1.0506102362204726
 30
0.0
 10
1.8600866141732284
 20
-1.0506102362204726
 30
0.0
 10
1.8600866141732284
 20
-1.0506102362204726
 30
0.0
 10
1.8600866141732284
 20
-1.0506102362204726
 30
0.0
 10
1.561007874015748
 20
-2.2162204724409449
 30
0.0
 10
1.561007874015748
 20
-2.2162204724409449
 30
0.0
 10
1.561007874015748
 20
-2.2162204724409449
 30
0.0
 10
1.561007874015748
 20
-2.2162204724409449
 30
0.0
 10
1.4000944881889765
 20
-2.2250433070866142
 30
0.0
 10
1.4000944881889765
 20
-2.2250433070866142
 30
0.0
 10
1.4000944881889765
 20
-2.2250433070866142
 30
0.0
 10
1.4000944881889765
 20
-2.2250433070866142
 30
0.0
 10
1.4000551181102363
 20
-2.2678464566929133
 30
0.0
 10
1.4000551181102363
 20
-2.2678464566929133
 30
0.0
 10
1.4000551181102363
 20
-2.2678464566929133
 30
0.0
 10
1.473984251968504
 20
-2.2678464566929133
 30
0.0
 10
1.5339330708661418
 20
-2.3275551181102365
 30
0.0
 10
1.5339330708661418
 20
-2.4011811023622047
 30
0.0
 10
1.5339330708661418
 20
-2.4011811023622047
 30
0.0
 10
1.5339330708661418
 20
-2.4748149606299212
 30
0.0
 10
1.473984251968504
 20
-2.534523622047244
 30
0.0
 10
1.4000551181102363
 20
-2.534523622047244
 30
0.0
  0
TEXT
  5
54
100
AcDbEntity
  8
Layer 1
100
AcDbText
 10
-0.360165
 20
-2.775531
 30
0.0
 40
0.119999
  1
BA  1552
 51
-0.000002
  7
Bookman Old Style
100
AcDbText
  0
TEXT
  5
55
100
AcDbEntity
  8
Layer 1
100
AcDbText
 10
-0.625177
 20
-2.963031
 30
0.0
 40
0.119999
  1
2-1/8\u+201d x 3-7/8\u+201d
 51
-0.000002
  7
Bookman Old Style
100
AcDbText
  0
TEXT
  5
56
100
AcDbEntity
  8
Layer 1
100
AcDbText
 10
2.523677
 20
-0.423598
 30
0.0
 40
0.119999
  1
BA  1551
 51
-0.000002
  7
Bookman Old Style
100
AcDbText
  0
TEXT
  5
57
100
AcDbEntity
  8
Layer 1
100
AcDbText
 10
2.523677
 20
-0.611098
 30
0.0
 40
0.119999
  1
Top Knife
 51
-0.000002
  7
Bookman Old Style
100
AcDbText
  0
ENDSEC
  0
SECTION
  2
OBJECTS
  0
DICTIONARY
  5
19
100
AcDbDictionary
280
     0
281
     1
  3
ACAD_GROUP
350
1A
  3
ACAD_MLINESTYLE
350
1B
  3
ACAD_LAYOUT
350
1E
  3
ACAD_PLOTSETTINGS
350
22
  3
ACAD_PLOTSTYLENAME
350
1F
  3
ACAD_WIPEOUT_VARS
350
23
  0
DICTIONARY
  5
1A
102
{ACAD_REACTORS
330
19
102
}
100
AcDbDictionary
280
     0
281
     1
  0
DICTIONARY
  5
1B
102
{ACAD_REACTORS
330
19
102
}
100
AcDbDictionary
280
     0
281
     1
  3
Standard
350
1C
  0
MLINESTYLE
  5
1C
102
{ACAD_REACTORS
330
1B
102
}
100
AcDbMlineStyle
  2
Standard
 70
     0
  3

 62
     0
 51
90.0
 52
90.0
 71
     2
 49
0.5
 62
   256
  6
BYLAYER
 49
-0.5
 62
   256
  6
BYLAYER
  0
ACDBDICTIONARYWDFLT
  5
1F
102
{ACAD_REACTORS
330
19
102
}
100
AcDbDictionary
281
     1
  3
Normal
350
1D
100
AcDbDictionaryWithDefault
340
1D
  0
ACDBPLACEHOLDER
  5
1D
102
{ACAD_REACTORS
330
1F
102
}
  0
LAYOUT
  5
20
102
{ACAD_REACTORS
330
1E
102
}
100
AcDbPlotSettings
  1

  2

  4

  6

 40
0.0
 41
0.0
 42
0.0
 43
0.0
 44
0.0
 45
0.0
 46
0.0
 47
0.0
 48
0.0
 49
0.0
140
0.0
141
0.0
142
1.0
143
1.0
 70
  1024
 72
     0
 73
     0
 74
     0
  7

 75
     0
147
1.0
148
0.0
149
0.0
100
AcDbLayout
  1
Model
 70
     0
 71
     0
 10
0.0
 20
0.0
 11
0.0
 21
0.0
 12
0.0
 22
0.0
 32
0.0
 14
0.0
 24
0.0
 34
0.0
 15
0.0
 25
0.0
 35
0.0
146
0.0
 13
0.0
 23
0.0
 33
0.0
 16
0.0
 26
0.0
 36
0.0
 17
0.0
 27
0.0
 37
0.0
 76
     0
330
A
331
0
345
0
346
0
  0
LAYOUT
  5
21
102
{ACAD_REACTORS
330
1E
102
}
100
AcDbPlotSettings
  1

  2

  4

  6

 40
0.0
 41
0.0
 42
0.0
 43
0.0
 44
0.0
 45
0.0
 46
0.0
 47
0.0
 48
0.0
 49
0.0
140
0.0
141
0.0
142
1.0
143
1.0
 70
     0
 72
     0
 73
     0
 74
     0
  7

 75
     0
147
1.0
148
0.0
149
0.0
100
AcDbLayout
  1
Layout1
 70
     0
 71
     0
 10
0.0
 20
0.0
 11
0.0
 21
0.0
 12
0.0
 22
0.0
 32
0.0
 14
0.0
 24
0.0
 34
0.0
 15
0.0
 25
0.0
 35
0.0
146
0.0
 13
0.0
 23
0.0
 33
0.0
 16
0.0
 26
0.0
 36
0.0
 17
0.0
 27
0.0
 37
0.0
 76
     0
330
B
331
0
345
0
346
0
  0
DICTIONARY
  5
1E
102
{ACAD_REACTORS
330
19
102
}
100
AcDbDictionary
280
     0
281
     1
  3
Layout1
350
21
  3
Model
350
20
  0
DICTIONARY
  5
22
102
{ACAD_REACTORS
330
19
102
}
100
AcDbDictionary
280
     0
281
     1
  0
WIPEOUTVARIABLES
  5
23
100
AcDbWipeoutVariables
 70
     1
  0
ENDSEC
  0
EOF
