  0
SECTION
  2
HEADER
  9
$ACADVER
  1
AC1015
  9
$ACADMAINTVER
 70
     6
  9
$DWGCODEPAGE
  3
DOS850
  9
$INSBASE
 10
0.0
 20
0.0
 30
0.0
  9
$EXTMIN
 10
-0.699335
 20
0.355228
 30
1.000000E+20
  9
$EXTMAX
 10
1.087213
 20
4.394437
 30
-1.000000E+20
  9
$LIMMIN
 10
0.0
 20
0.0
  9
$LIMMAX
 10
0.0
 20
0.0
  9
$ORTHOMODE
 70
     0
  9
$REGENMODE
 70
     1
  9
$FILLMODE
 70
     1
  9
$QTEXTMODE
 70
     0
  9
$MIRRTEXT
 70
     1
  9
$LTSCALE
 40
1.0
  9
$ATTMODE
 70
     1
  9
$TEXTSIZE
 40
0.2
  9
$TRACEWID
 40
0.05
  9
$TEXTSTYLE
  7
Standard
  9
$CLAYER
  8
0
  9
$CELTYPE
  6
Continuous
  9
$CECOLOR
 62
   256
  9
$CELTSCALE
 40
1.0
  9
$DISPSILH
 70
     0
  9
$DIMSCALE
 40
1.0
  9
$DIMASZ
 40
0.18
  9
$DIMEXO
 40
0.0625
  9
$DIMDLI
 40
0.38
  9
$DIMRND
 40
0.0
  9
$DIMDLE
 40
0.0
  9
$DIMEXE
 40
0.18
  9
$DIMTP
 40
0.0
  9
$DIMTM
 40
0.0
  9
$DIMTXT
 40
0.18
  9
$DIMCEN
 40
0.09
  9
$DIMTSZ
 40
0.0
  9
$DIMTOL
 70
     0
  9
$DIMLIM
 70
     0
  9
$DIMTIH
 70
     1
  9
$DIMTOH
 70
     1
  9
$DIMSE1
 70
     0
  9
$DIMSE2
 70
     0
  9
$DIMTAD
 70
     0
  9
$DIMZIN
 70
     0
  9
$DIMBLK
  1

  9
$DIMASO
 70
     1
  9
$DIMSHO
 70
     1
  9
$DIMPOST
  1

  9
$DIMAPOST
  1

  9
$DIMALT
 70
     0
  9
$DIMALTD
 70
     2
  9
$DIMALTF
 40
25.4
  9
$DIMLFAC
 40
1.0
  9
$DIMTOFL
 70
     0
  9
$DIMTVP
 40
0.0
  9
$DIMTIX
 70
     0
  9
$DIMSOXD
 70
     0
  9
$DIMSAH
 70
     0
  9
$DIMBLK1
  1

  9
$DIMBLK2
  1

  9
$DIMSTYLE
  2
Standard
  9
$DIMCLRD
 70
     0
  9
$DIMCLRE
 70
     0
  9
$DIMCLRT
 70
     0
  9
$DIMTFAC
 40
1.0
  9
$DIMGAP
 40
0.09
  9
$DIMJUST
 70
     0
  9
$DIMSD1
 70
     0
  9
$DIMSD2
 70
     0
  9
$DIMTOLJ
 70
     1
  9
$DIMTZIN
 70
     0
  9
$DIMALTZ
 70
     0
  9
$DIMALTTZ
 70
     0
  9
$DIMUPT
 70
     0
  9
$DIMDEC
 70
     4
  9
$DIMTDEC
 70
     4
  9
$DIMALTU
 70
     2
  9
$DIMALTTD
 70
     2
  9
$DIMTXSTY
  7
Standard
  9
$DIMAUNIT
 70
     0
  9
$DIMADEC
 70
     0
  9
$DIMALTRND
 40
0.0
  9
$DIMAZIN
 70
     0
  9
$DIMDSEP
 70
     0
  9
$DIMATFIT
 70
     3
  9
$DIMFRAC
 70
     0
  9
$DIMLDRBLK
  1

  9
$DIMLUNIT
 70
     2
  9
$DIMLWD
 70
     0
  9
$DIMLWE
 70
     0
  9
$DIMTMOVE
 70
     0
  9
$LUNITS
 70
     2
  9
$LUPREC
 70
     4
  9
$SKETCHINC
 40
0.1
  9
$FILLETRAD
 40
0.0
  9
$AUNITS
 70
     0
  9
$AUPREC
 70
     0
  9
$MENU
  1
acad
  9
$ELEVATION
 40
0.0
  9
$PELEVATION
 40
0.0
  9
$THICKNESS
 40
0.0
  9
$LIMCHECK
 70
     0
  9
$CHAMFERA
 40
0.0
  9
$CHAMFERB
 40
0.0
  9
$CHAMFERC
 40
0.0
  9
$CHAMFERD
 40
0.0
  9
$SKPOLY
 70
     0
  9
$TDCREATE
 40
0.000000000
  9
$TDUCREATE
 40
0.000000000
  9
$TDUPDATE
 40
0.000000000
  9
$TDUUPDATE
 40
0.000000000
  9
$TDINDWG
 40
0.0000000000
  9
$TDUSRTIMER
 40
0.0000000000
  9
$USRTIMER
 70
     1
  9
$ANGBASE
 50
0.0
  9
$ANGDIR
 70
     0
  9
$PDMODE
 70
     0
  9
$PDSIZE
 40
0.0
  9
$PLINEWID
 40
0.0
  9
$SPLFRAME
 70
     0
  9
$SPLINETYPE
 70
     6
  9
$SPLINESEGS
 70
     8
  9
$HANDSEED
  5
7C
  9
$SURFTAB1
 70
     6
  9
$SURFTAB2
 70
     6
  9
$SURFTYPE
 70
     6
  9
$SURFU
 70
     6
  9
$SURFV
 70
     6
  9
$UCSBASE
  2

  9
$UCSNAME
  2

  9
$UCSORG
 10
0.0
 20
0.0
 30
0.0
  9
$UCSXDIR
 10
1.0
 20
0.0
 30
0.0
  9
$UCSYDIR
 10
0.0
 20
1.0
 30
0.0
  9
$UCSORTHOREF
  2

  9
$UCSORTHOVIEW
 70
     0
  9
$UCSORGTOP
 10
0.0
 20
0.0
 30
0.0
  9
$UCSORGBOTTOM
 10
0.0
 20
0.0
 30
0.0
  9
$UCSORGLEFT
 10
0.0
 20
0.0
 30
0.0
  9
$UCSORGRIGHT
 10
0.0
 20
0.0
 30
0.0
  9
$UCSORGFRONT
 10
0.0
 20
0.0
 30
0.0
  9
$UCSORGBACK
 10
0.0
 20
0.0
 30
0.0
  9
$PUCSBASE
  2

  9
$PUCSNAME
  2

  9
$PUCSORG
 10
0.0
 20
0.0
 30
0.0
  9
$PUCSXDIR
 10
1.0
 20
0.0
 30
0.0
  9
$PUCSYDIR
 10
0.0
 20
1.0
 30
0.0
  9
$PUCSORTHOREF
  2

  9
$PUCSORTHOVIEW
 70
     0
  9
$PUCSORGTOP
 10
0.0
 20
0.0
 30
0.0
  9
$PUCSORGBOTTOM
 10
0.0
 20
0.0
 30
0.0
  9
$PUCSORGLEFT
 10
0.0
 20
0.0
 30
0.0
  9
$PUCSORGRIGHT
 10
0.0
 20
0.0
 30
0.0
  9
$PUCSORGFRONT
 10
0.0
 20
0.0
 30
0.0
  9
$PUCSORGBACK
 10
0.0
 20
0.0
 30
0.0
  9
$USERI1
 70
     0
  9
$USERI2
 70
     0
  9
$USERI3
 70
     0
  9
$USERI4
 70
     0
  9
$USERI5
 70
     0
  9
$USERR1
 40
0.0
  9
$USERR2
 40
0.0
  9
$USERR3
 40
0.0
  9
$USERR4
 40
0.0
  9
$USERR5
 40
0.0
  9
$WORLDVIEW
 70
     1
  9
$SHADEDGE
 70
     3
  9
$SHADEDIF
 70
    70
  9
$TILEMODE
 70
     1
  9
$MAXACTVP
 70
    16
  9
$PINSBASE
 10
0.0
 20
0.0
 30
0.0
  9
$PLIMCHECK
 70
     0
  9
$PEXTMIN
 10
1.000000E+20
 20
1.000000E+20
 30
1.000000E+20
  9
$PEXTMAX
 10
-1.000000E+20
 20
-1.000000E+20
 30
-1.000000E+20
  9
$PLIMMIN
 10
0.0
 20
0.0
  9
$PLIMMAX
 10
12.0
 20
9.0
  9
$UNITMODE
 70
     0
  9
$VISRETAIN
 70
     0
  9
$PLINEGEN
 70
     1
  9
$PSLTSCALE
 70
     0
  9
$TREEDEPTH
 70
  3020
  9
$CMLSTYLE
  2
Standard
  9
$CMLJUST
 70
     0
  9
$CMLSCALE
 40
1.0
  9
$PROXYGRAPHICS
 70
     0
  9
$MEASUREMENT
 70
     0
  9
$CELWEIGHT
370
     0
  9
$ENDCAPS
280
     0
  9
$JOINSTYLE
280
     0
  9
$LWDISPLAY
290
     0
  9
$INSUNITS
 70
     1
  9
$HYPERLINKBASE
  1

  9
$XEDIT
290
     1
  9
$CEPSNTYPE
380
     0
  9
$PSTYLEMODE
290
     1
  9
$FINGERPRINTGUID
  2

  9
$VERSIONGUID
  2

  9
$EXTNAMES
290
     1
  9
$PSVPSCALE
 40
0.0
  0
ENDSEC
  0
SECTION
  2
CLASSES
  0
CLASS
  1
LWPOLYLINE
  2
AcDbPolyline
  3
AutoCAD 2000
 90
    32768
280
     0
281
     1
  0
CLASS
  1
IMAGE
  2
AcDbRasterImage
  3
ISM
 90
    32895
280
     0
281
     1
  0
CLASS
  1
OLE2FRAME
  2
AcDbOle2Frame
  3
AutoCAD 2000
 90
    32768
280
     0
281
     1
  0
CLASS
  1
HATCH
  2
AcDbHatch
  3
AutoCAD 2000
 90
    32768
280
     0
281
     1
  0
CLASS
  1
DICTIONARYVAR
  2
AcDbDictionaryVar
  3
AutoCAD 2000
 90
    32768
280
     0
281
     0
  0
CLASS
  1
RASTERVARIABLES
  2
AcDbRasterVariables
  3
ISM
 90
    32768
280
     0
281
     0
  0
CLASS
  1
IMAGEDEF
  2
AcDbRasterImageDef
  3
ISM
 90
    32768
280
     0
281
     0
  0
CLASS
  1
IMAGEDEF_REACTOR
  2
AcDbRasterImageDefReactor
  3
ISM
 90
    32769
280
     0
281
     0
  0
CLASS
  1
IDBUFFER
  2
AcDbIdBuffer
  3
AutoCAD 2000
 90
    32768
280
     0
281
     0
  0
CLASS
  1
SPATIAL_FILTER
  2
AcDbSpatialFilter
  3
AutoCAD 2000
 90
    32768
280
     0
281
     0
  0
CLASS
  1
XRECORD
  2
AcDbXrecord
  3
AutoCAD 2000
 90
    32768
280
     0
281
     0
  0
CLASS
  1
SORTENTSTABLE
  2
AcDbSortentsTable
  3
AutoCAD 2000
 90
    32768
280
     0
281
     0
  0
CLASS
  1
LAYER_INDEX
  2
AcDbLayerIndex
  3
AutoCAD 2000
 90
    32768
280
     0
281
     0
  0
CLASS
  1
SPATIAL_INDEX
  2
AcDbSpatialIndex
  3
AutoCAD 2000
 90
    32768
280
     0
281
     0
  0
CLASS
  1
OBJECT_PTR
  2
CAseDLPNTableRecord
  3
"ASE-LPNTableRecord"
 90
    32769
280
     0
281
     0
  0
CLASS
  1
LAYOUT
  2
AcDbLayout
  3
AutoCAD 2000
 90
        0
280
     0
281
     0
  0
CLASS
  1
PLOTSETTINGS
  2
AcDbPlotSettings
  3
AutoCAD 2000
 90
    32768
280
     0
281
     0
  0
CLASS
  1
ACDBDICTIONARYWDFLT
  2
AcDbDictionaryWithDefault
  3
AutoCAD 2000
 90
        0
280
     0
281
     0
  0
CLASS
  1
ACDBPLACEHOLDER
  2
AcDbPlaceHolder
  3
AutoCAD 2000
 90
        0
280
     0
281
     0
  0
CLASS
  1
VBA_PROJECT
  2
AcDbVbaProject
  3
acadvba
 90
    32768
280
     0
281
     0
  0
CLASS
  1
WIPEOUT
  2
AcDbWipeout
  3
WipeOut|AutoCAD Express Tool|expresstools@autodesk.com
 90
    32895
280
     0
281
     1
  0
CLASS
  1
WIPEOUTVARIABLES
  2
AcDbWipeoutVariables
  3
WipeOut|AutoCAD Express Tool|expresstools@autodesk.com
 90
        0
280
     0
281
     0
  0
CLASS
  1
RTEXT
  2
RText
  3
RText|AutoCAD Express Tool|expresstools@autodesk.com
 90
    32768
280
     0
281
     1
  0
CLASS
  1
ARCALIGNEDTEXT
  2
AcDbArcAlignedText
  3
ATEXT|AutoCAD Express Tool|expresstools@autodesk.com
 90
    32768
280
     0
281
     1
  0
ENDSEC
  0
SECTION
  2
TABLES
  0
TABLE
  2
VPORT
  5
7
100
AcDbSymbolTable
 70
     1
  0
VPORT
  5
15
100
AcDbSymbolTableRecord
100
AcDbViewportTableRecord
  2
*ACTIVE
 70
     0
 10
0.0
 20
0.0
 11
1.0
 21
1.0
 12
6.591288
 22
4.579184
 13
0.0
 23
0.0
 14
1.0
 24
1.0
 15
0.0
 25
0.0
 16
0.0
 26
0.0
 36
1.0
 17
0.0
 27
0.0
 37
0.0
 40
9.158369
 41
0.688564
 42
50.0
 43
0.0
 44
0.0
 50
0.0
 51
0.0
 71
     0
 72
   100
 73
     1
 74
     1
 75
     0
 76
     0
 77
     0
 78
     0
281
     0
 65
     0
110
0.0
120
0.0
130
0.0
111
1.0
121
0.0
131
0.0
112
0.0
122
1.0
132
0.0
345
0
346
0
 79
     0
146
0.0
  0
ENDTAB
  0
TABLE
  2
LTYPE
  5
4
100
AcDbSymbolTable
 70
     3
  0
LTYPE
  5
11
100
AcDbSymbolTableRecord
100
AcDbLinetypeTableRecord
  2
ByBlock
 70
    64
  3

 72
    65
 73
     0
 40
0.0
  0
LTYPE
  5
12
100
AcDbSymbolTableRecord
100
AcDbLinetypeTableRecord
  2
ByLayer
 70
    64
  3

 72
    65
 73
     0
 40
0.0
  0
LTYPE
  5
13
100
AcDbSymbolTableRecord
100
AcDbLinetypeTableRecord
  2
Continuous
 70
    64
  3
Solid line
 72
    65
 73
     0
 40
0.0
  0
ENDTAB
  0
TABLE
  2
LAYER
  5
2
100
AcDbSymbolTable
 70
     2
  0
LAYER
  5
14
100
AcDbSymbolTableRecord
100
AcDbLayerTableRecord
  2
0
 70
     0
 62
     7
  6
Continuous
290
     1
370
    -3
390
1D
  0
LAYER
  5
24
100
AcDbSymbolTableRecord
100
AcDbLayerTableRecord
  2
Layer 1
 70
     0
 62
     7
  6
Continuous
290
     1
370
    -3
390
1F
  0
ENDTAB
  0
TABLE
  2
STYLE
  5
3
100
AcDbSymbolTable
 70
     2
  0
STYLE
  5
17
100
AcDbSymbolTableRecord
100
AcDbTextStyleTableRecord
  2
Standard
 70
     0
 40
0.0
 41
1.0
 50
0.0
 71
     0
 42
0.0
  3
txt
  4

  0
STYLE
  5
26
100
AcDbSymbolTableRecord
100
AcDbTextStyleTableRecord
  2
Bookman Old Style
 70
     0
 40
1.0
 41
1.0
 50
0.0
 71
     0
 42
1.0
  3
Bookman Old Style
  4

  0
ENDTAB
  0
TABLE
  2
VIEW
  5
5
100
AcDbSymbolTable
 70
     0
  0
ENDTAB
  0
TABLE
  2
UCS
  5
6
100
AcDbSymbolTable
 70
     0
  0
ENDTAB
  0
TABLE
  2
APPID
  5
8
100
AcDbSymbolTable
 70
     1
  0
APPID
  5
16
100
AcDbSymbolTableRecord
100
AcDbRegAppTableRecord
  2
ACAD
 70
     0
  0
ENDTAB
  0
TABLE
  2
DIMSTYLE
  5
9
100
AcDbSymbolTable
 70
     1
100
AcDbDimStyleTable
 71
     0
  0
DIMSTYLE
105
18
100
AcDbSymbolTableRecord
100
AcDbDimStyleTableRecord
  2
Standard
 70
     0
  3

  4

 40
1.0
 41
0.18
 42
0.0625
 43
0.38
 44
0.18
 45
0.0
 46
0.0
 47
0.0
 48
0.0
 71
     0
 72
     0
 73
     1
 74
     1
 75
     0
 76
     0
 77
     0
 78
     0
 79
     0
140
0.18
141
0.09
142
0.0
143
25.4
144
1.0
145
0.0
146
1.0
147
0.09
148
0.0
170
     0
171
     2
172
     0
173
     0
174
     0
175
     0
176
     0
177
     0
178
     0
179
     0
271
     4
272
     4
273
     2
274
     2
275
     0
276
     0
277
     2
278
    46
279
     0
280
     0
281
     0
282
     0
283
     1
284
     0
285
     0
286
     0
288
     0
340
17
341
0
342
0
343
0
344
0
371
    -2
372
    -2
  0
ENDTAB
  0
TABLE
  2
BLOCK_RECORD
  5
1
100
AcDbSymbolTable
 70
     0
  0
BLOCK_RECORD
  5
A
100
AcDbSymbolTableRecord
100
AcDbBlockTableRecord
  2
*MODEL_SPACE
340
20
  0
BLOCK_RECORD
  5
B
100
AcDbSymbolTableRecord
100
AcDbBlockTableRecord
  2
*PAPER_SPACE
340
21
  0
ENDTAB
  0
ENDSEC
  0
SECTION
  2
BLOCKS
  0
BLOCK
  5
D
100
AcDbEntity
  8
0
100
AcDbBlockBegin
  2
*MODEL_SPACE
 70
     0
 10
0.0
 20
0.0
 30
0.0
  3
*MODEL_SPACE
  1

  0
ENDBLK
  5
E
100
AcDbEntity
  8
0
100
AcDbBlockEnd
  0
BLOCK
  5
F
100
AcDbEntity
 67
     1
  8
0
100
AcDbBlockBegin
  2
*PAPER_SPACE
 70
     0
 10
0.0
 20
0.0
 30
0.0
  3
*PAPER_SPACE
  1

  0
ENDBLK
  5
10
100
AcDbEntity
 67
     1
  8
0
100
AcDbBlockEnd
  0
ENDSEC
  0
SECTION
  2
ENTITIES
  0
SPLINE
  5
25
100
AcDbEntity
  8
Layer 1
370
     5
100
AcDbSpline
210
0.0
220
0.0
230
1.0
 70
     1
 71
     3
 72
    32
 73
    28
 74
     0
 42
0.0000000001
 43
0.0000000001
 40
0.0
 40
0.0
 40
0.0
 40
0.0
 40
0.1428571428571429
 40
0.1428571428571429
 40
0.1428571428571429
 40
0.1428571428571429
 40
0.2857142857142857
 40
0.2857142857142857
 40
0.2857142857142857
 40
0.2857142857142857
 40
0.4285714285714286
 40
0.4285714285714286
 40
0.4285714285714286
 40
0.4285714285714286
 40
0.5714285714285714
 40
0.5714285714285714
 40
0.5714285714285714
 40
0.5714285714285714
 40
0.7142857142857142
 40
0.7142857142857142
 40
0.7142857142857142
 40
0.7142857142857142
 40
0.857142857142857
 40
0.857142857142857
 40
0.857142857142857
 40
0.857142857142857
 40
1.0
 40
1.0
 40
1.0
 40
1.0
 10
-0.696992125984252
 20
3.7891102362204725
 30
0.0
 10
-0.4432047244094489
 20
3.7943031496062996
 30
0.0
 10
-0.4514606299212599
 20
3.9117716535433074
 30
0.0
 10
-0.4500944881889764
 20
3.9692047244094488
 30
0.0
 10
-0.4500944881889764
 20
3.9692047244094488
 30
0.0
 10
-0.159251968503937
 20
3.9755748031496063
 30
0.0
 10
-0.2290433070866142
 20
4.1022913385826776
 30
0.0
 10
0.0001811023622047
 20
4.1265708661417326
 30
0.0
 10
0.0001811023622047
 20
4.1265708661417326
 30
0.0
 10
0.1259133858267717
 20
4.1398897637795278
 30
0.0
 10
0.4515826771653543
 20
4.0902322834645668
 30
0.0
 10
0.4560078740157481
 20
4.3929409448818904
 30
0.0
 10
0.4560078740157481
 20
4.3929409448818904
 30
0.0
 10
0.4560078740157481
 20
4.3929409448818904
 30
0.0
 10
0.8021692913385827
 20
4.3929409448818904
 30
0.0
 10
0.8021692913385827
 20
4.3929409448818904
 30
0.0
 10
0.8021692913385827
 20
4.3929409448818904
 30
0.0
 10
0.8021692913385827
 20
4.3929409448818904
 30
0.0
 10
0.8021692913385827
 20
3.6429409448818899
 30
0.0
 10
0.8021692913385827
 20
3.6429409448818899
 30
0.0
 10
0.8021692913385827
 20
3.6429409448818899
 30
0.0
 10
0.8021692913385827
 20
3.6429409448818899
 30
0.0
 10
-0.6978307086614174
 20
3.6429409448818899
 30
0.0
 10
-0.6978307086614174
 20
3.6429409448818899
 30
0.0
 10
-0.6978307086614174
 20
3.6429409448818899
 30
0.0
 10
-0.6978307086614174
 20
3.6429409448818899
 30
0.0
 10
-0.696992125984252
 20
3.7891102362204725
 30
0.0
 10
-0.696992125984252
 20
3.7891102362204725
 30
0.0
  0
TEXT
  5
27
100
AcDbEntity
  8
Layer 1
100
AcDbText
 10
0.1565
 20
3.439492
 30
0.0
 40
0.119999
  1
BA  1550
 51
-0.000002
  7
Bookman Old Style
100
AcDbText
  0
TEXT
  5
28
100
AcDbEntity
  8
Layer 1
100
AcDbText
 10
-0.023512
 20
3.251992
 30
0.0
 40
0.119999
  1
3/4\u+201d x 1-1/2\u+201d
 51
-0.000002
  7
Bookman Old Style
100
AcDbText
  0
SPLINE
  5
29
100
AcDbEntity
  8
Layer 1
 62
   253
100
AcDbSpline
210
0.0
220
0.0
230
1.0
 70
     1
 71
     3
 72
    28
 73
    24
 74
     0
 42
0.0000000001
 43
0.0000000001
 40
0.0
 40
0.0
 40
0.0
 40
0.0
 40
0.1666666666666667
 40
0.1666666666666667
 40
0.1666666666666667
 40
0.1666666666666667
 40
0.3333333333333333
 40
0.3333333333333333
 40
0.3333333333333333
 40
0.3333333333333333
 40
0.5
 40
0.5
 40
0.5
 40
0.5
 40
0.6666666666666666
 40
0.6666666666666666
 40
0.6666666666666666
 40
0.6666666666666666
 40
0.8333333333333333
 40
0.8333333333333333
 40
0.8333333333333333
 40
0.8333333333333333
 40
1.0
 40
1.0
 40
1.0
 40
1.0
 10
0.9208503937007875
 20
0.9343385826771654
 30
0.0
 10
0.9208503937007875
 20
0.9343385826771654
 30
0.0
 10
0.9189803149606299
 20
1.6783661417322835
 30
0.0
 10
0.9189803149606299
 20
1.6783661417322835
 30
0.0
 10
0.9189803149606299
 20
1.6783661417322835
 30
0.0
 10
0.9189803149606299
 20
1.6783661417322835
 30
0.0
 10
0.8959409448818898
 20
1.6791692913385827
 30
0.0
 10
0.8959409448818898
 20
1.6791692913385827
 30
0.0
 10
0.8959409448818898
 20
1.6791692913385827
 30
0.0
 10
0.8959409448818898
 20
1.6791692913385827
 30
0.0
 10
0.8743976377952756
 20
1.6806062992125985
 30
0.0
 10
0.8743976377952756
 20
1.6806062992125985
 30
0.0
 10
0.8743976377952756
 20
1.6806062992125985
 30
0.0
 10
0.8743976377952756
 20
1.6806062992125985
 30
0.0
 10
0.8762677165354331
 20
0.9365787401574803
 30
0.0
 10
0.8762677165354331
 20
0.9365787401574803
 30
0.0
 10
0.8762677165354331
 20
0.9365787401574803
 30
0.0
 10
0.8762677165354331
 20
0.9365787401574803
 30
0.0
 10
0.8978110236220472
 20
0.9351417322834646
 30
0.0
 10
0.8978110236220472
 20
0.9351417322834646
 30
0.0
 10
0.8978110236220472
 20
0.9351417322834646
 30
0.0
 10
0.8978110236220472
 20
0.9351417322834646
 30
0.0
 10
0.9208503937007875
 20
0.9343385826771654
 30
0.0
 10
0.9208503937007875
 20
0.9343385826771654
 30
0.0
  0
SPLINE
  5
2A
100
AcDbEntity
  8
Layer 1
 62
   253
100
AcDbSpline
210
0.0
220
0.0
230
1.0
 70
     1
 71
     3
 72
    28
 73
    24
 74
     0
 42
0.0000000001
 43
0.0000000001
 40
0.0
 40
0.0
 40
0.0
 40
0.0
 40
0.1666666666666667
 40
0.1666666666666667
 40
0.1666666666666667
 40
0.1666666666666667
 40
0.3333333333333333
 40
0.3333333333333333
 40
0.3333333333333333
 40
0.3333333333333333
 40
0.5
 40
0.5
 40
0.5
 40
0.5
 40
0.6666666666666666
 40
0.6666666666666666
 40
0.6666666666666666
 40
0.6666666666666666
 40
0.8333333333333333
 40
0.8333333333333333
 40
0.8333333333333333
 40
0.8333333333333333
 40
1.0
 40
1.0
 40
1.0
 40
1.0
 10
0.8762677165354331
 20
0.9365787401574803
 30
0.0
 10
0.8762677165354331
 20
0.9365787401574803
 30
0.0
 10
0.8743976377952756
 20
1.6806062992125985
 30
0.0
 10
0.8743976377952756
 20
1.6806062992125985
 30
0.0
 10
0.8743976377952756
 20
1.6806062992125985
 30
0.0
 10
0.8743976377952756
 20
1.6806062992125985
 30
0.0
 10
0.8542795275590551
 20
1.6826338582677165
 30
0.0
 10
0.8542795275590551
 20
1.6826338582677165
 30
0.0
 10
0.8542795275590551
 20
1.6826338582677165
 30
0.0
 10
0.8542795275590551
 20
1.6826338582677165
 30
0.0
 10
0.8355590551181102
 20
1.685232283464567
 30
0.0
 10
0.8355590551181102
 20
1.685232283464567
 30
0.0
 10
0.8355590551181102
 20
1.685232283464567
 30
0.0
 10
0.8355590551181102
 20
1.685232283464567
 30
0.0
 10
0.8374291338582678
 20
0.9412047244094488
 30
0.0
 10
0.8374291338582678
 20
0.9412047244094488
 30
0.0
 10
0.8374291338582678
 20
0.9412047244094488
 30
0.0
 10
0.8374291338582678
 20
0.9412047244094488
 30
0.0
 10
0.8561496062992127
 20
0.9386062992125984
 30
0.0
 10
0.8561496062992127
 20
0.9386062992125984
 30
0.0
 10
0.8561496062992127
 20
0.9386062992125984
 30
0.0
 10
0.8561496062992127
 20
0.9386062992125984
 30
0.0
 10
0.8762677165354331
 20
0.9365787401574803
 30
0.0
 10
0.8762677165354331
 20
0.9365787401574803
 30
0.0
  0
SPLINE
  5
2B
100
AcDbEntity
  8
Layer 1
 62
   253
100
AcDbSpline
210
0.0
220
0.0
230
1.0
 70
     1
 71
     3
 72
    36
 73
    32
 74
     0
 42
0.0000000001
 43
0.0000000001
 40
0.0
 40
0.0
 40
0.0
 40
0.0
 40
0.125
 40
0.125
 40
0.125
 40
0.125
 40
0.25
 40
0.25
 40
0.25
 40
0.25
 40
0.375
 40
0.375
 40
0.375
 40
0.375
 40
0.5
 40
0.5
 40
0.5
 40
0.5
 40
0.625
 40
0.625
 40
0.625
 40
0.625
 40
0.75
 40
0.75
 40
0.75
 40
0.75
 40
0.875
 40
0.875
 40
0.875
 40
0.875
 40
1.0
 40
1.0
 40
1.0
 40
1.0
 10
0.8374291338582678
 20
0.9412047244094488
 30
0.0
 10
0.8374291338582678
 20
0.9412047244094488
 30
0.0
 10
0.8355590551181102
 20
1.685232283464567
 30
0.0
 10
0.8355590551181102
 20
1.685232283464567
 30
0.0
 10
0.8355590551181102
 20
1.685232283464567
 30
0.0
 10
0.8355590551181102
 20
1.685232283464567
 30
0.0
 10
0.8181653543307087
 20
1.6883543307086615
 30
0.0
 10
0.8181653543307087
 20
1.6883543307086615
 30
0.0
 10
0.8181653543307087
 20
1.6883543307086615
 30
0.0
 10
0.8181653543307087
 20
1.6883543307086615
 30
0.0
 10
0.8020629921259843
 20
1.691984251968504
 30
0.0
 10
0.8020629921259843
 20
1.691984251968504
 30
0.0
 10
0.8020629921259843
 20
1.691984251968504
 30
0.0
 10
0.8020629921259843
 20
1.691984251968504
 30
0.0
 10
0.7871968503937008
 20
1.6960787401574804
 30
0.0
 10
0.7871968503937008
 20
1.6960787401574804
 30
0.0
 10
0.7871968503937008
 20
1.6960787401574804
 30
0.0
 10
0.7871968503937008
 20
1.6960787401574804
 30
0.0
 10
0.7890669291338583
 20
0.9520511811023622
 30
0.0
 10
0.7890669291338583
 20
0.9520511811023622
 30
0.0
 10
0.7890669291338583
 20
0.9520511811023622
 30
0.0
 10
0.7890669291338583
 20
0.9520511811023622
 30
0.0
 10
0.8039330708661417
 20
0.9479566929133859
 30
0.0
 10
0.8039330708661417
 20
0.9479566929133859
 30
0.0
 10
0.8039330708661417
 20
0.9479566929133859
 30
0.0
 10
0.8039330708661417
 20
0.9479566929133859
 30
0.0
 10
0.8200354330708661
 20
0.9443267716535434
 30
0.0
 10
0.8200354330708661
 20
0.9443267716535434
 30
0.0
 10
0.8200354330708661
 20
0.9443267716535434
 30
0.0
 10
0.8200354330708661
 20
0.9443267716535434
 30
0.0
 10
0.8374291338582678
 20
0.9412047244094488
 30
0.0
 10
0.8374291338582678
 20
0.9412047244094488
 30
0.0
  0
SPLINE
  5
2C
100
AcDbEntity
  8
Layer 1
 62
   253
100
AcDbSpline
210
0.0
220
0.0
230
1.0
 70
     1
 71
     3
 72
    36
 73
    32
 74
     0
 42
0.0000000001
 43
0.0000000001
 40
0.0
 40
0.0
 40
0.0
 40
0.0
 40
0.125
 40
0.125
 40
0.125
 40
0.125
 40
0.25
 40
0.25
 40
0.25
 40
0.25
 40
0.375
 40
0.375
 40
0.375
 40
0.375
 40
0.5
 40
0.5
 40
0.5
 40
0.5
 40
0.625
 40
0.625
 40
0.625
 40
0.625
 40
0.75
 40
0.75
 40
0.75
 40
0.75
 40
0.875
 40
0.875
 40
0.875
 40
0.875
 40
1.0
 40
1.0
 40
1.0
 40
1.0
 10
0.7890669291338583
 20
0.9520511811023622
 30
0.0
 10
0.7890669291338583
 20
0.9520511811023622
 30
0.0
 10
0.7871968503937008
 20
1.6960787401574804
 30
0.0
 10
0.7871968503937008
 20
1.6960787401574804
 30
0.0
 10
0.7871968503937008
 20
1.6960787401574804
 30
0.0
 10
0.7871968503937008
 20
1.6960787401574804
 30
0.0
 10
0.7735236220472441
 20
1.7006141732283466
 30
0.0
 10
0.7735236220472441
 20
1.7006141732283466
 30
0.0
 10
0.7735236220472441
 20
1.7006141732283466
 30
0.0
 10
0.7735236220472441
 20
1.7006141732283466
 30
0.0
 10
0.760976377952756
 20
1.7055472440944883
 30
0.0
 10
0.760976377952756
 20
1.7055472440944883
 30
0.0
 10
0.760976377952756
 20
1.7055472440944883
 30
0.0
 10
0.760976377952756
 20
1.7055472440944883
 30
0.0
 10
0.7495236220472441
 20
1.7108582677165356
 30
0.0
 10
0.7495236220472441
 20
1.7108582677165356
 30
0.0
 10
0.7495236220472441
 20
1.7108582677165356
 30
0.0
 10
0.7495236220472441
 20
1.7108582677165356
 30
0.0
 10
0.7513937007874016
 20
0.9668307086614174
 30
0.0
 10
0.7513937007874016
 20
0.9668307086614174
 30
0.0
 10
0.7513937007874016
 20
0.9668307086614174
 30
0.0
 10
0.7513937007874016
 20
0.9668307086614174
 30
0.0
 10
0.7628464566929134
 20
0.9615196850393701
 30
0.0
 10
0.7628464566929134
 20
0.9615196850393701
 30
0.0
 10
0.7628464566929134
 20
0.9615196850393701
 30
0.0
 10
0.7628464566929134
 20
0.9615196850393701
 30
0.0
 10
0.7753937007874016
 20
0.9565866141732284
 30
0.0
 10
0.7753937007874016
 20
0.9565866141732284
 30
0.0
 10
0.7753937007874016
 20
0.9565866141732284
 30
0.0
 10
0.7753937007874016
 20
0.9565866141732284
 30
0.0
 10
0.7890669291338583
 20
0.9520511811023622
 30
0.0
 10
0.7890669291338583
 20
0.9520511811023622
 30
0.0
  0
SPLINE
  5
2D
100
AcDbEntity
  8
Layer 1
 62
     9
100
AcDbSpline
210
0.0
220
0.0
230
1.0
 70
     1
 71
     3
 72
    44
 73
    40
 74
     0
 42
0.0000000001
 43
0.0000000001
 40
0.0
 40
0.0
 40
0.0
 40
0.0
 40
0.1
 40
0.1
 40
0.1
 40
0.1
 40
0.2
 40
0.2
 40
0.2
 40
0.2
 40
0.3
 40
0.3
 40
0.3
 40
0.3
 40
0.4
 40
0.4
 40
0.4
 40
0.4
 40
0.5
 40
0.5
 40
0.5
 40
0.5
 40
0.6
 40
0.6
 40
0.6
 40
0.6
 40
0.7
 40
0.7
 40
0.7
 40
0.7
 40
0.7999999999999999
 40
0.7999999999999999
 40
0.7999999999999999
 40
0.7999999999999999
 40
0.8999999999999999
 40
0.8999999999999999
 40
0.8999999999999999
 40
0.8999999999999999
 40
1.0
 40
1.0
 40
1.0
 40
1.0
 10
0.7513937007874016
 20
0.9668307086614174
 30
0.0
 10
0.7513937007874016
 20
0.9668307086614174
 30
0.0
 10
0.7495236220472441
 20
1.7108582677165356
 30
0.0
 10
0.7495236220472441
 20
1.7108582677165356
 30
0.0
 10
0.7495236220472441
 20
1.7108582677165356
 30
0.0
 10
0.7495236220472441
 20
1.7108582677165356
 30
0.0
 10
0.7391062992125984
 20
1.7165118110236222
 30
0.0
 10
0.7391062992125984
 20
1.7165118110236222
 30
0.0
 10
0.7391062992125984
 20
1.7165118110236222
 30
0.0
 10
0.7391062992125984
 20
1.7165118110236222
 30
0.0
 10
0.7296850393700788
 20
1.72248031496063
 30
0.0
 10
0.7296850393700788
 20
1.72248031496063
 30
0.0
 10
0.7296850393700788
 20
1.72248031496063
 30
0.0
 10
0.7296850393700788
 20
1.72248031496063
 30
0.0
 10
0.7211929133858268
 20
1.7287204724409448
 30
0.0
 10
0.7211929133858268
 20
1.7287204724409448
 30
0.0
 10
0.7211929133858268
 20
1.7287204724409448
 30
0.0
 10
0.7211929133858268
 20
1.7287204724409448
 30
0.0
 10
0.7135984251968505
 20
1.7352125984251969
 30
0.0
 10
0.7135984251968505
 20
1.7352125984251969
 30
0.0
 10
0.7135984251968505
 20
1.7352125984251969
 30
0.0
 10
0.7135984251968505
 20
1.7352125984251969
 30
0.0
 10
0.7154685039370079
 20
0.9911850393700787
 30
0.0
 10
0.7154685039370079
 20
0.9911850393700787
 30
0.0
 10
0.7154685039370079
 20
0.9911850393700787
 30
0.0
 10
0.7154685039370079
 20
0.9911850393700787
 30
0.0
 10
0.7230629921259842
 20
0.9846929133858268
 30
0.0
 10
0.7230629921259842
 20
0.9846929133858268
 30
0.0
 10
0.7230629921259842
 20
0.9846929133858268
 30
0.0
 10
0.7230629921259842
 20
0.9846929133858268
 30
0.0
 10
0.7315551181102362
 20
0.9784527559055118
 30
0.0
 10
0.7315551181102362
 20
0.9784527559055118
 30
0.0
 10
0.7315551181102362
 20
0.9784527559055118
 30
0.0
 10
0.7315551181102362
 20
0.9784527559055118
 30
0.0
 10
0.740976377952756
 20
0.972484251968504
 30
0.0
 10
0.740976377952756
 20
0.972484251968504
 30
0.0
 10
0.740976377952756
 20
0.972484251968504
 30
0.0
 10
0.740976377952756
 20
0.972484251968504
 30
0.0
 10
0.7513937007874016
 20
0.9668307086614174
 30
0.0
 10
0.7513937007874016
 20
0.9668307086614174
 30
0.0
  0
SPLINE
  5
2E
100
AcDbEntity
  8
Layer 1
 62
     9
100
AcDbSpline
210
0.0
220
0.0
230
1.0
 70
     1
 71
     3
 72
    52
 73
    48
 74
     0
 42
0.0000000001
 43
0.0000000001
 40
0.0
 40
0.0
 40
0.0
 40
0.0
 40
0.0833333333333333
 40
0.0833333333333333
 40
0.0833333333333333
 40
0.0833333333333333
 40
0.1666666666666667
 40
0.1666666666666667
 40
0.1666666666666667
 40
0.1666666666666667
 40
0.25
 40
0.25
 40
0.25
 40
0.25
 40
0.3333333333333333
 40
0.3333333333333333
 40
0.3333333333333333
 40
0.3333333333333333
 40
0.4166666666666666
 40
0.4166666666666666
 40
0.4166666666666666
 40
0.4166666666666666
 40
0.4999999999999999
 40
0.4999999999999999
 40
0.4999999999999999
 40
0.4999999999999999
 40
0.5833333333333333
 40
0.5833333333333333
 40
0.5833333333333333
 40
0.5833333333333333
 40
0.6666666666666666
 40
0.6666666666666666
 40
0.6666666666666666
 40
0.6666666666666666
 40
0.75
 40
0.75
 40
0.75
 40
0.75
 40
0.8333333333333334
 40
0.8333333333333334
 40
0.8333333333333334
 40
0.8333333333333334
 40
0.9166666666666667
 40
0.9166666666666667
 40
0.9166666666666667
 40
0.9166666666666667
 40
1.0
 40
1.0
 40
1.0
 40
1.0
 10
0.7154685039370079
 20
0.9911850393700787
 30
0.0
 10
0.7154685039370079
 20
0.9911850393700787
 30
0.0
 10
0.7135984251968505
 20
1.7352125984251969
 30
0.0
 10
0.7135984251968505
 20
1.7352125984251969
 30
0.0
 10
0.7135984251968505
 20
1.7352125984251969
 30
0.0
 10
0.7135984251968505
 20
1.7352125984251969
 30
0.0
 10
0.7068385826771654
 20
1.7419212598425198
 30
0.0
 10
0.7068385826771654
 20
1.7419212598425198
 30
0.0
 10
0.7068385826771654
 20
1.7419212598425198
 30
0.0
 10
0.7068385826771654
 20
1.7419212598425198
 30
0.0
 10
0.7008700787401575
 20
1.7488188976377954
 30
0.0
 10
0.7008700787401575
 20
1.7488188976377954
 30
0.0
 10
0.7008700787401575
 20
1.7488188976377954
 30
0.0
 10
0.7008700787401575
 20
1.7488188976377954
 30
0.0
 10
0.6956338582677165
 20
1.7558622047244095
 30
0.0
 10
0.6956338582677165
 20
1.7558622047244095
 30
0.0
 10
0.6956338582677165
 20
1.7558622047244095
 30
0.0
 10
0.6956338582677165
 20
1.7558622047244095
 30
0.0
 10
0.6910905511811024
 20
1.7630275590551181
 30
0.0
 10
0.6910905511811024
 20
1.7630275590551181
 30
0.0
 10
0.6910905511811024
 20
1.7630275590551181
 30
0.0
 10
0.6910905511811024
 20
1.7630275590551181
 30
0.0
 10
0.6871850393700788
 20
1.7702795275590553
 30
0.0
 10
0.6871850393700788
 20
1.7702795275590553
 30
0.0
 10
0.6871850393700788
 20
1.7702795275590553
 30
0.0
 10
0.6871850393700788
 20
1.7702795275590553
 30
0.0
 10
0.6890551181102362
 20
1.0262519685039371
 30
0.0
 10
0.6890551181102362
 20
1.0262519685039371
 30
0.0
 10
0.6890551181102362
 20
1.0262519685039371
 30
0.0
 10
0.6890551181102362
 20
1.0262519685039371
 30
0.0
 10
0.6929606299212598
 20
1.0190000000000001
 30
0.0
 10
0.6929606299212598
 20
1.0190000000000001
 30
0.0
 10
0.6929606299212598
 20
1.0190000000000001
 30
0.0
 10
0.6929606299212598
 20
1.0190000000000001
 30
0.0
 10
0.6975039370078741
 20
1.0118346456692913
 30
0.0
 10
0.6975039370078741
 20
1.0118346456692913
 30
0.0
 10
0.6975039370078741
 20
1.0118346456692913
 30
0.0
 10
0.6975039370078741
 20
1.0118346456692913
 30
0.0
 10
0.702740157480315
 20
1.0047913385826772
 30
0.0
 10
0.702740157480315
 20
1.0047913385826772
 30
0.0
 10
0.702740157480315
 20
1.0047913385826772
 30
0.0
 10
0.702740157480315
 20
1.0047913385826772
 30
0.0
 10
0.7087086614173229
 20
0.9978937007874016
 30
0.0
 10
0.7087086614173229
 20
0.9978937007874016
 30
0.0
 10
0.7087086614173229
 20
0.9978937007874016
 30
0.0
 10
0.7087086614173229
 20
0.9978937007874016
 30
0.0
 10
0.7154685039370079
 20
0.9911850393700787
 30
0.0
 10
0.7154685039370079
 20
0.9911850393700787
 30
0.0
  0
SPLINE
  5
2F
100
AcDbEntity
  8
Layer 1
 62
     9
100
AcDbSpline
210
0.0
220
0.0
230
1.0
 70
     1
 71
     3
 72
    60
 73
    56
 74
     0
 42
0.0000000001
 43
0.0000000001
 40
0.0
 40
0.0
 40
0.0
 40
0.0
 40
0.0714285714285714
 40
0.0714285714285714
 40
0.0714285714285714
 40
0.0714285714285714
 40
0.1428571428571429
 40
0.1428571428571429
 40
0.1428571428571429
 40
0.1428571428571429
 40
0.2142857142857143
 40
0.2142857142857143
 40
0.2142857142857143
 40
0.2142857142857143
 40
0.2857142857142857
 40
0.2857142857142857
 40
0.2857142857142857
 40
0.2857142857142857
 40
0.3571428571428571
 40
0.3571428571428571
 40
0.3571428571428571
 40
0.3571428571428571
 40
0.4285714285714285
 40
0.4285714285714285
 40
0.4285714285714285
 40
0.4285714285714285
 40
0.4999999999999999
 40
0.4999999999999999
 40
0.4999999999999999
 40
0.4999999999999999
 40
0.5714285714285713
 40
0.5714285714285713
 40
0.5714285714285713
 40
0.5714285714285713
 40
0.6428571428571427
 40
0.6428571428571427
 40
0.6428571428571427
 40
0.6428571428571427
 40
0.7142857142857141
 40
0.7142857142857141
 40
0.7142857142857141
 40
0.7142857142857141
 40
0.7857142857142855
 40
0.7857142857142855
 40
0.7857142857142855
 40
0.7857142857142855
 40
0.8571428571428569
 40
0.8571428571428569
 40
0.8571428571428569
 40
0.8571428571428569
 40
0.9285714285714283
 40
0.9285714285714283
 40
0.9285714285714283
 40
0.9285714285714283
 40
1.0
 40
1.0
 40
1.0
 40
1.0
 10
0.6890551181102362
 20
1.0262519685039371
 30
0.0
 10
0.6890551181102362
 20
1.0262519685039371
 30
0.0
 10
0.6871850393700788
 20
1.7702795275590553
 30
0.0
 10
0.6871850393700788
 20
1.7702795275590553
 30
0.0
 10
0.6871850393700788
 20
1.7702795275590553
 30
0.0
 10
0.6871850393700788
 20
1.7702795275590553
 30
0.0
 10
0.6838779527559056
 20
1.7775984251968504
 30
0.0
 10
0.6838779527559056
 20
1.7775984251968504
 30
0.0
 10
0.6838779527559056
 20
1.7775984251968504
 30
0.0
 10
0.6838779527559056
 20
1.7775984251968504
 30
0.0
 10
0.6811023622047244
 20
1.7849370078740159
 30
0.0
 10
0.6811023622047244
 20
1.7849370078740159
 30
0.0
 10
0.6811023622047244
 20
1.7849370078740159
 30
0.0
 10
0.6811023622047244
 20
1.7849370078740159
 30
0.0
 10
0.6788228346456693
 20
1.7922755905511811
 30
0.0
 10
0.6788228346456693
 20
1.7922755905511811
 30
0.0
 10
0.6788228346456693
 20
1.7922755905511811
 30
0.0
 10
0.6788228346456693
 20
1.7922755905511811
 30
0.0
 10
0.676984251968504
 20
1.7995787401574803
 30
0.0
 10
0.676984251968504
 20
1.7995787401574803
 30
0.0
 10
0.676984251968504
 20
1.7995787401574803
 30
0.0
 10
0.676984251968504
 20
1.7995787401574803
 30
0.0
 10
0.6755433070866143
 20
1.8068149606299213
 30
0.0
 10
0.6755433070866143
 20
1.8068149606299213
 30
0.0
 10
0.6755433070866143
 20
1.8068149606299213
 30
0.0
 10
0.6755433070866143
 20
1.8068149606299213
 30
0.0
 10
0.6744330708661418
 20
1.8139448818897639
 30
0.0
 10
0.6744330708661418
 20
1.8139448818897639
 30
0.0
 10
0.6744330708661418
 20
1.8139448818897639
 30
0.0
 10
0.6744330708661418
 20
1.8139448818897639
 30
0.0
 10
0.6763031496062992
 20
1.0699173228346457
 30
0.0
 10
0.6763031496062992
 20
1.0699173228346457
 30
0.0
 10
0.6763031496062992
 20
1.0699173228346457
 30
0.0
 10
0.6763031496062992
 20
1.0699173228346457
 30
0.0
 10
0.6774133858267717
 20
1.0627874015748031
 30
0.0
 10
0.6774133858267717
 20
1.0627874015748031
 30
0.0
 10
0.6774133858267717
 20
1.0627874015748031
 30
0.0
 10
0.6774133858267717
 20
1.0627874015748031
 30
0.0
 10
0.6788543307086614
 20
1.0555511811023623
 30
0.0
 10
0.6788543307086614
 20
1.0555511811023623
 30
0.0
 10
0.6788543307086614
 20
1.0555511811023623
 30
0.0
 10
0.6788543307086614
 20
1.0555511811023623
 30
0.0
 10
0.6806929133858268
 20
1.0482480314960629
 30
0.0
 10
0.6806929133858268
 20
1.0482480314960629
 30
0.0
 10
0.6806929133858268
 20
1.0482480314960629
 30
0.0
 10
0.6806929133858268
 20
1.0482480314960629
 30
0.0
 10
0.682972440944882
 20
1.0409094488188977
 30
0.0
 10
0.682972440944882
 20
1.0409094488188977
 30
0.0
 10
0.682972440944882
 20
1.0409094488188977
 30
0.0
 10
0.682972440944882
 20
1.0409094488188977
 30
0.0
 10
0.685748031496063
 20
1.0335708661417322
 30
0.0
 10
0.685748031496063
 20
1.0335708661417322
 30
0.0
 10
0.685748031496063
 20
1.0335708661417322
 30
0.0
 10
0.685748031496063
 20
1.0335708661417322
 30
0.0
 10
0.6890551181102362
 20
1.0262519685039371
 30
0.0
 10
0.6890551181102362
 20
1.0262519685039371
 30
0.0
  0
SPLINE
  5
30
100
AcDbEntity
  8
Layer 1
 62
   253
100
AcDbSpline
210
0.0
220
0.0
230
1.0
 70
     1
 71
     3
 72
    44
 73
    40
 74
     0
 42
0.0000000001
 43
0.0000000001
 40
0.0
 40
0.0
 40
0.0
 40
0.0
 40
0.1
 40
0.1
 40
0.1
 40
0.1
 40
0.2
 40
0.2
 40
0.2
 40
0.2
 40
0.3
 40
0.3
 40
0.3
 40
0.3
 40
0.4
 40
0.4
 40
0.4
 40
0.4
 40
0.5
 40
0.5
 40
0.5
 40
0.5
 40
0.6
 40
0.6
 40
0.6
 40
0.6
 40
0.7
 40
0.7
 40
0.7
 40
0.7
 40
0.7999999999999999
 40
0.7999999999999999
 40
0.7999999999999999
 40
0.7999999999999999
 40
0.8999999999999999
 40
0.8999999999999999
 40
0.8999999999999999
 40
0.8999999999999999
 40
1.0
 40
1.0
 40
1.0
 40
1.0
 10
0.6763031496062992
 20
1.0699173228346457
 30
0.0
 10
0.6763031496062992
 20
1.0699173228346457
 30
0.0
 10
0.6744330708661418
 20
1.8139448818897639
 30
0.0
 10
0.6744330708661418
 20
1.8139448818897639
 30
0.0
 10
0.6744330708661418
 20
1.8139448818897639
 30
0.0
 10
0.6744330708661418
 20
1.8139448818897639
 30
0.0
 10
0.6736220472440945
 20
1.8209488188976379
 30
0.0
 10
0.6736220472440945
 20
1.8209488188976379
 30
0.0
 10
0.6736220472440945
 20
1.8209488188976379
 30
0.0
 10
0.6736220472440945
 20
1.8209488188976379
 30
0.0
 10
0.6730472440944882
 20
1.8277874015748032
 30
0.0
 10
0.6730472440944882
 20
1.8277874015748032
 30
0.0
 10
0.6730472440944882
 20
1.8277874015748032
 30
0.0
 10
0.6730472440944882
 20
1.8277874015748032
 30
0.0
 10
0.6726692913385827
 20
1.8344409448818899
 30
0.0
 10
0.6726692913385827
 20
1.8344409448818899
 30
0.0
 10
0.6726692913385827
 20
1.8344409448818899
 30
0.0
 10
0.6726692913385827
 20
1.8344409448818899
 30
0.0
 10
0.6724251968503937
 20
1.8408582677165355
 30
0.0
 10
0.6724251968503937
 20
1.8408582677165355
 30
0.0
 10
0.6724251968503937
 20
1.8408582677165355
 30
0.0
 10
0.6724251968503937
 20
1.8408582677165355
 30
0.0
 10
0.6742952755905513
 20
1.0968307086614173
 30
0.0
 10
0.6742952755905513
 20
1.0968307086614173
 30
0.0
 10
0.6742952755905513
 20
1.0968307086614173
 30
0.0
 10
0.6742952755905513
 20
1.0968307086614173
 30
0.0
 10
0.6745393700787402
 20
1.0904133858267717
 30
0.0
 10
0.6745393700787402
 20
1.0904133858267717
 30
0.0
 10
0.6745393700787402
 20
1.0904133858267717
 30
0.0
 10
0.6745393700787402
 20
1.0904133858267717
 30
0.0
 10
0.6749173228346457
 20
1.083759842519685
 30
0.0
 10
0.6749173228346457
 20
1.083759842519685
 30
0.0
 10
0.6749173228346457
 20
1.083759842519685
 30
0.0
 10
0.6749173228346457
 20
1.083759842519685
 30
0.0
 10
0.675492125984252
 20
1.0769212598425197
 30
0.0
 10
0.675492125984252
 20
1.0769212598425197
 30
0.0
 10
0.675492125984252
 20
1.0769212598425197
 30
0.0
 10
0.675492125984252
 20
1.0769212598425197
 30
0.0
 10
0.6763031496062992
 20
1.0699173228346457
 30
0.0
 10
0.6763031496062992
 20
1.0699173228346457
 30
0.0
  0
SPLINE
  5
31
100
AcDbEntity
  8
Layer 1
370
     5
100
AcDbSpline
210
0.0
220
0.0
230
1.0
 70
     1
 71
     3
 72
   244
 73
   240
 74
     0
 42
0.0000000001
 43
0.0000000001
 40
0.0
 40
0.0
 40
0.0
 40
0.0
 40
0.0166666666666667
 40
0.0166666666666667
 40
0.0166666666666667
 40
0.0166666666666667
 40
0.0333333333333333
 40
0.0333333333333333
 40
0.0333333333333333
 40
0.0333333333333333
 40
0.05
 40
0.05
 40
0.05
 40
0.05
 40
0.0666666666666667
 40
0.0666666666666667
 40
0.0666666666666667
 40
0.0666666666666667
 40
0.0833333333333333
 40
0.0833333333333333
 40
0.0833333333333333
 40
0.0833333333333333
 40
0.1
 40
0.1
 40
0.1
 40
0.1
 40
0.1166666666666667
 40
0.1166666666666667
 40
0.1166666666666667
 40
0.1166666666666667
 40
0.1333333333333333
 40
0.1333333333333333
 40
0.1333333333333333
 40
0.1333333333333333
 40
0.15
 40
0.15
 40
0.15
 40
0.15
 40
0.1666666666666667
 40
0.1666666666666667
 40
0.1666666666666667
 40
0.1666666666666667
 40
0.1833333333333333
 40
0.1833333333333333
 40
0.1833333333333333
 40
0.1833333333333333
 40
0.2
 40
0.2
 40
0.2
 40
0.2
 40
0.2166666666666667
 40
0.2166666666666667
 40
0.2166666666666667
 40
0.2166666666666667
 40
0.2333333333333333
 40
0.2333333333333333
 40
0.2333333333333333
 40
0.2333333333333333
 40
0.25
 40
0.25
 40
0.25
 40
0.25
 40
0.2666666666666667
 40
0.2666666666666667
 40
0.2666666666666667
 40
0.2666666666666667
 40
0.2833333333333333
 40
0.2833333333333333
 40
0.2833333333333333
 40
0.2833333333333333
 40
0.3
 40
0.3
 40
0.3
 40
0.3
 40
0.3166666666666667
 40
0.3166666666666667
 40
0.3166666666666667
 40
0.3166666666666667
 40
0.3333333333333333
 40
0.3333333333333333
 40
0.3333333333333333
 40
0.3333333333333333
 40
0.35
 40
0.35
 40
0.35
 40
0.35
 40
0.3666666666666666
 40
0.3666666666666666
 40
0.3666666666666666
 40
0.3666666666666666
 40
0.3833333333333333
 40
0.3833333333333333
 40
0.3833333333333333
 40
0.3833333333333333
 40
0.4
 40
0.4
 40
0.4
 40
0.4
 40
0.4166666666666666
 40
0.4166666666666666
 40
0.4166666666666666
 40
0.4166666666666666
 40
0.4333333333333333
 40
0.4333333333333333
 40
0.4333333333333333
 40
0.4333333333333333
 40
0.45
 40
0.45
 40
0.45
 40
0.45
 40
0.4666666666666666
 40
0.4666666666666666
 40
0.4666666666666666
 40
0.4666666666666666
 40
0.4833333333333333
 40
0.4833333333333333
 40
0.4833333333333333
 40
0.4833333333333333
 40
0.4999999999999999
 40
0.4999999999999999
 40
0.4999999999999999
 40
0.4999999999999999
 40
0.5166666666666666
 40
0.5166666666666666
 40
0.5166666666666666
 40
0.5166666666666666
 40
0.5333333333333333
 40
0.5333333333333333
 40
0.5333333333333333
 40
0.5333333333333333
 40
0.55
 40
0.55
 40
0.55
 40
0.55
 40
0.5666666666666668
 40
0.5666666666666668
 40
0.5666666666666668
 40
0.5666666666666668
 40
0.5833333333333335
 40
0.5833333333333335
 40
0.5833333333333335
 40
0.5833333333333335
 40
0.6000000000000002
 40
0.6000000000000002
 40
0.6000000000000002
 40
0.6000000000000002
 40
0.6166666666666669
 40
0.6166666666666669
 40
0.6166666666666669
 40
0.6166666666666669
 40
0.6333333333333336
 40
0.6333333333333336
 40
0.6333333333333336
 40
0.6333333333333336
 40
0.6500000000000004
 40
0.6500000000000004
 40
0.6500000000000004
 40
0.6500000000000004
 40
0.6666666666666671
 40
0.6666666666666671
 40
0.6666666666666671
 40
0.6666666666666671
 40
0.6833333333333338
 40
0.6833333333333338
 40
0.6833333333333338
 40
0.6833333333333338
 40
0.7000000000000005
 40
0.7000000000000005
 40
0.7000000000000005
 40
0.7000000000000005
 40
0.7166666666666672
 40
0.7166666666666672
 40
0.7166666666666672
 40
0.7166666666666672
 40
0.733333333333334
 40
0.733333333333334
 40
0.733333333333334
 40
0.733333333333334
 40
0.7500000000000007
 40
0.7500000000000007
 40
0.7500000000000007
 40
0.7500000000000007
 40
0.7666666666666674
 40
0.7666666666666674
 40
0.7666666666666674
 40
0.7666666666666674
 40
0.7833333333333341
 40
0.7833333333333341
 40
0.7833333333333341
 40
0.7833333333333341
 40
0.8000000000000008
 40
0.8000000000000008
 40
0.8000000000000008
 40
0.8000000000000008
 40
0.8166666666666675
 40
0.8166666666666675
 40
0.8166666666666675
 40
0.8166666666666675
 40
0.8333333333333343
 40
0.8333333333333343
 40
0.8333333333333343
 40
0.8333333333333343
 40
0.850000000000001
 40
0.850000000000001
 40
0.850000000000001
 40
0.850000000000001
 40
0.8666666666666677
 40
0.8666666666666677
 40
0.8666666666666677
 40
0.8666666666666677
 40
0.8833333333333344
 40
0.8833333333333344
 40
0.8833333333333344
 40
0.8833333333333344
 40
0.9000000000000011
 40
0.9000000000000011
 40
0.9000000000000011
 40
0.9000000000000011
 40
0.9166666666666679
 40
0.9166666666666679
 40
0.9166666666666679
 40
0.9166666666666679
 40
0.9333333333333346
 40
0.9333333333333346
 40
0.9333333333333346
 40
0.9333333333333346
 40
0.9500000000000013
 40
0.9500000000000013
 40
0.9500000000000013
 40
0.9500000000000013
 40
0.966666666666668
 40
0.966666666666668
 40
0.966666666666668
 40
0.966666666666668
 40
0.9833333333333347
 40
0.9833333333333347
 40
0.9833333333333347
 40
0.9833333333333347
 40
1.0
 40
1.0
 40
1.0
 40
1.0
 10
0.9208503937007875
 20
0.9343385826771654
 30
0.0
 10
0.9208503937007875
 20
0.9343385826771654
 30
0.0
 10
0.9189803149606299
 20
1.6783661417322835
 30
0.0
 10
0.9189803149606299
 20
1.6783661417322835
 30
0.0
 10
0.9189803149606299
 20
1.6783661417322835
 30
0.0
 10
0.9189803149606299
 20
1.6783661417322835
 30
0.0
 10
0.8959409448818898
 20
1.6791692913385827
 30
0.0
 10
0.8959409448818898
 20
1.6791692913385827
 30
0.0
 10
0.8959409448818898
 20
1.6791692913385827
 30
0.0
 10
0.8959409448818898
 20
1.6791692913385827
 30
0.0
 10
0.8743976377952756
 20
1.6806062992125985
 30
0.0
 10
0.8743976377952756
 20
1.6806062992125985
 30
0.0
 10
0.8743976377952756
 20
1.6806062992125985
 30
0.0
 10
0.8743976377952756
 20
1.6806062992125985
 30
0.0
 10
0.8542795275590551
 20
1.6826338582677165
 30
0.0
 10
0.8542795275590551
 20
1.6826338582677165
 30
0.0
 10
0.8542795275590551
 20
1.6826338582677165
 30
0.0
 10
0.8542795275590551
 20
1.6826338582677165
 30
0.0
 10
0.8355590551181102
 20
1.685232283464567
 30
0.0
 10
0.8355590551181102
 20
1.685232283464567
 30
0.0
 10
0.8355590551181102
 20
1.685232283464567
 30
0.0
 10
0.8355590551181102
 20
1.685232283464567
 30
0.0
 10
0.8181653543307087
 20
1.6883543307086615
 30
0.0
 10
0.8181653543307087
 20
1.6883543307086615
 30
0.0
 10
0.8181653543307087
 20
1.6883543307086615
 30
0.0
 10
0.8181653543307087
 20
1.6883543307086615
 30
0.0
 10
0.8020629921259843
 20
1.691984251968504
 30
0.0
 10
0.8020629921259843
 20
1.691984251968504
 30
0.0
 10
0.8020629921259843
 20
1.691984251968504
 30
0.0
 10
0.8020629921259843
 20
1.691984251968504
 30
0.0
 10
0.7871968503937008
 20
1.6960787401574804
 30
0.0
 10
0.7871968503937008
 20
1.6960787401574804
 30
0.0
 10
0.7871968503937008
 20
1.6960787401574804
 30
0.0
 10
0.7871968503937008
 20
1.6960787401574804
 30
0.0
 10
0.7735236220472441
 20
1.7006141732283466
 30
0.0
 10
0.7735236220472441
 20
1.7006141732283466
 30
0.0
 10
0.7735236220472441
 20
1.7006141732283466
 30
0.0
 10
0.7735236220472441
 20
1.7006141732283466
 30
0.0
 10
0.760976377952756
 20
1.7055472440944883
 30
0.0
 10
0.760976377952756
 20
1.7055472440944883
 30
0.0
 10
0.760976377952756
 20
1.7055472440944883
 30
0.0
 10
0.760976377952756
 20
1.7055472440944883
 30
0.0
 10
0.7495236220472441
 20
1.7108582677165356
 30
0.0
 10
0.7495236220472441
 20
1.7108582677165356
 30
0.0
 10
0.7495236220472441
 20
1.7108582677165356
 30
0.0
 10
0.7495236220472441
 20
1.7108582677165356
 30
0.0
 10
0.7391062992125984
 20
1.7165118110236222
 30
0.0
 10
0.7391062992125984
 20
1.7165118110236222
 30
0.0
 10
0.7391062992125984
 20
1.7165118110236222
 30
0.0
 10
0.7391062992125984
 20
1.7165118110236222
 30
0.0
 10
0.7296850393700788
 20
1.72248031496063
 30
0.0
 10
0.7296850393700788
 20
1.72248031496063
 30
0.0
 10
0.7296850393700788
 20
1.72248031496063
 30
0.0
 10
0.7296850393700788
 20
1.72248031496063
 30
0.0
 10
0.7211929133858268
 20
1.7287204724409448
 30
0.0
 10
0.7211929133858268
 20
1.7287204724409448
 30
0.0
 10
0.7211929133858268
 20
1.7287204724409448
 30
0.0
 10
0.7211929133858268
 20
1.7287204724409448
 30
0.0
 10
0.7135984251968505
 20
1.7352125984251969
 30
0.0
 10
0.7135984251968505
 20
1.7352125984251969
 30
0.0
 10
0.7135984251968505
 20
1.7352125984251969
 30
0.0
 10
0.7135984251968505
 20
1.7352125984251969
 30
0.0
 10
0.7068385826771654
 20
1.7419212598425198
 30
0.0
 10
0.7068385826771654
 20
1.7419212598425198
 30
0.0
 10
0.7068385826771654
 20
1.7419212598425198
 30
0.0
 10
0.7068385826771654
 20
1.7419212598425198
 30
0.0
 10
0.7008700787401575
 20
1.7488188976377954
 30
0.0
 10
0.7008700787401575
 20
1.7488188976377954
 30
0.0
 10
0.7008700787401575
 20
1.7488188976377954
 30
0.0
 10
0.7008700787401575
 20
1.7488188976377954
 30
0.0
 10
0.6956338582677165
 20
1.7558622047244095
 30
0.0
 10
0.6956338582677165
 20
1.7558622047244095
 30
0.0
 10
0.6956338582677165
 20
1.7558622047244095
 30
0.0
 10
0.6956338582677165
 20
1.7558622047244095
 30
0.0
 10
0.6910905511811024
 20
1.7630275590551181
 30
0.0
 10
0.6910905511811024
 20
1.7630275590551181
 30
0.0
 10
0.6910905511811024
 20
1.7630275590551181
 30
0.0
 10
0.6910905511811024
 20
1.7630275590551181
 30
0.0
 10
0.6871850393700788
 20
1.7702795275590553
 30
0.0
 10
0.6871850393700788
 20
1.7702795275590553
 30
0.0
 10
0.6871850393700788
 20
1.7702795275590553
 30
0.0
 10
0.6871850393700788
 20
1.7702795275590553
 30
0.0
 10
0.6838779527559056
 20
1.7775984251968504
 30
0.0
 10
0.6838779527559056
 20
1.7775984251968504
 30
0.0
 10
0.6838779527559056
 20
1.7775984251968504
 30
0.0
 10
0.6838779527559056
 20
1.7775984251968504
 30
0.0
 10
0.6811023622047244
 20
1.7849370078740159
 30
0.0
 10
0.6811023622047244
 20
1.7849370078740159
 30
0.0
 10
0.6811023622047244
 20
1.7849370078740159
 30
0.0
 10
0.6811023622047244
 20
1.7849370078740159
 30
0.0
 10
0.6788228346456693
 20
1.7922755905511811
 30
0.0
 10
0.6788228346456693
 20
1.7922755905511811
 30
0.0
 10
0.6788228346456693
 20
1.7922755905511811
 30
0.0
 10
0.6788228346456693
 20
1.7922755905511811
 30
0.0
 10
0.676984251968504
 20
1.7995787401574803
 30
0.0
 10
0.676984251968504
 20
1.7995787401574803
 30
0.0
 10
0.676984251968504
 20
1.7995787401574803
 30
0.0
 10
0.676984251968504
 20
1.7995787401574803
 30
0.0
 10
0.6755433070866143
 20
1.8068149606299213
 30
0.0
 10
0.6755433070866143
 20
1.8068149606299213
 30
0.0
 10
0.6755433070866143
 20
1.8068149606299213
 30
0.0
 10
0.6755433070866143
 20
1.8068149606299213
 30
0.0
 10
0.6744330708661418
 20
1.8139448818897639
 30
0.0
 10
0.6744330708661418
 20
1.8139448818897639
 30
0.0
 10
0.6744330708661418
 20
1.8139448818897639
 30
0.0
 10
0.6744330708661418
 20
1.8139448818897639
 30
0.0
 10
0.6736220472440945
 20
1.8209488188976379
 30
0.0
 10
0.6736220472440945
 20
1.8209488188976379
 30
0.0
 10
0.6736220472440945
 20
1.8209488188976379
 30
0.0
 10
0.6736220472440945
 20
1.8209488188976379
 30
0.0
 10
0.6730472440944882
 20
1.8277874015748032
 30
0.0
 10
0.6730472440944882
 20
1.8277874015748032
 30
0.0
 10
0.6730472440944882
 20
1.8277874015748032
 30
0.0
 10
0.6730472440944882
 20
1.8277874015748032
 30
0.0
 10
0.6726692913385827
 20
1.8344409448818899
 30
0.0
 10
0.6726692913385827
 20
1.8344409448818899
 30
0.0
 10
0.6726692913385827
 20
1.8344409448818899
 30
0.0
 10
0.6726692913385827
 20
1.8344409448818899
 30
0.0
 10
0.6724251968503937
 20
1.8408582677165355
 30
0.0
 10
0.6724251968503937
 20
1.8408582677165355
 30
0.0
 10
0.6724251968503937
 20
1.8408582677165355
 30
0.0
 10
0.6724251968503937
 20
1.8408582677165355
 30
0.0
 10
0.6742952755905513
 20
1.0968307086614173
 30
0.0
 10
0.6742952755905513
 20
1.0968307086614173
 30
0.0
 10
0.6742952755905513
 20
1.0968307086614173
 30
0.0
 10
0.6742952755905513
 20
1.0968307086614173
 30
0.0
 10
0.6745393700787402
 20
1.0904133858267717
 30
0.0
 10
0.6745393700787402
 20
1.0904133858267717
 30
0.0
 10
0.6745393700787402
 20
1.0904133858267717
 30
0.0
 10
0.6745393700787402
 20
1.0904133858267717
 30
0.0
 10
0.6749173228346457
 20
1.083759842519685
 30
0.0
 10
0.6749173228346457
 20
1.083759842519685
 30
0.0
 10
0.6749173228346457
 20
1.083759842519685
 30
0.0
 10
0.6749173228346457
 20
1.083759842519685
 30
0.0
 10
0.675492125984252
 20
1.0769212598425197
 30
0.0
 10
0.675492125984252
 20
1.0769212598425197
 30
0.0
 10
0.675492125984252
 20
1.0769212598425197
 30
0.0
 10
0.675492125984252
 20
1.0769212598425197
 30
0.0
 10
0.6763031496062992
 20
1.0699173228346457
 30
0.0
 10
0.6763031496062992
 20
1.0699173228346457
 30
0.0
 10
0.6763031496062992
 20
1.0699173228346457
 30
0.0
 10
0.6763031496062992
 20
1.0699173228346457
 30
0.0
 10
0.6774133858267717
 20
1.0627874015748031
 30
0.0
 10
0.6774133858267717
 20
1.0627874015748031
 30
0.0
 10
0.6774133858267717
 20
1.0627874015748031
 30
0.0
 10
0.6774133858267717
 20
1.0627874015748031
 30
0.0
 10
0.6788543307086614
 20
1.0555511811023623
 30
0.0
 10
0.6788543307086614
 20
1.0555511811023623
 30
0.0
 10
0.6788543307086614
 20
1.0555511811023623
 30
0.0
 10
0.6788543307086614
 20
1.0555511811023623
 30
0.0
 10
0.6806929133858268
 20
1.0482480314960629
 30
0.0
 10
0.6806929133858268
 20
1.0482480314960629
 30
0.0
 10
0.6806929133858268
 20
1.0482480314960629
 30
0.0
 10
0.6806929133858268
 20
1.0482480314960629
 30
0.0
 10
0.682972440944882
 20
1.0409094488188977
 30
0.0
 10
0.682972440944882
 20
1.0409094488188977
 30
0.0
 10
0.682972440944882
 20
1.0409094488188977
 30
0.0
 10
0.682972440944882
 20
1.0409094488188977
 30
0.0
 10
0.685748031496063
 20
1.0335708661417322
 30
0.0
 10
0.685748031496063
 20
1.0335708661417322
 30
0.0
 10
0.685748031496063
 20
1.0335708661417322
 30
0.0
 10
0.685748031496063
 20
1.0335708661417322
 30
0.0
 10
0.6890551181102362
 20
1.0262519685039371
 30
0.0
 10
0.6890551181102362
 20
1.0262519685039371
 30
0.0
 10
0.6890551181102362
 20
1.0262519685039371
 30
0.0
 10
0.6890551181102362
 20
1.0262519685039371
 30
0.0
 10
0.6929606299212598
 20
1.0190000000000001
 30
0.0
 10
0.6929606299212598
 20
1.0190000000000001
 30
0.0
 10
0.6929606299212598
 20
1.0190000000000001
 30
0.0
 10
0.6929606299212598
 20
1.0190000000000001
 30
0.0
 10
0.6975039370078741
 20
1.0118346456692913
 30
0.0
 10
0.6975039370078741
 20
1.0118346456692913
 30
0.0
 10
0.6975039370078741
 20
1.0118346456692913
 30
0.0
 10
0.6975039370078741
 20
1.0118346456692913
 30
0.0
 10
0.702740157480315
 20
1.0047913385826772
 30
0.0
 10
0.702740157480315
 20
1.0047913385826772
 30
0.0
 10
0.702740157480315
 20
1.0047913385826772
 30
0.0
 10
0.702740157480315
 20
1.0047913385826772
 30
0.0
 10
0.7087086614173229
 20
0.9978937007874016
 30
0.0
 10
0.7087086614173229
 20
0.9978937007874016
 30
0.0
 10
0.7087086614173229
 20
0.9978937007874016
 30
0.0
 10
0.7087086614173229
 20
0.9978937007874016
 30
0.0
 10
0.7154685039370079
 20
0.9911850393700787
 30
0.0
 10
0.7154685039370079
 20
0.9911850393700787
 30
0.0
 10
0.7154685039370079
 20
0.9911850393700787
 30
0.0
 10
0.7154685039370079
 20
0.9911850393700787
 30
0.0
 10
0.7230629921259842
 20
0.9846929133858268
 30
0.0
 10
0.7230629921259842
 20
0.9846929133858268
 30
0.0
 10
0.7230629921259842
 20
0.9846929133858268
 30
0.0
 10
0.7230629921259842
 20
0.9846929133858268
 30
0.0
 10
0.7315551181102362
 20
0.9784527559055118
 30
0.0
 10
0.7315551181102362
 20
0.9784527559055118
 30
0.0
 10
0.7315551181102362
 20
0.9784527559055118
 30
0.0
 10
0.7315551181102362
 20
0.9784527559055118
 30
0.0
 10
0.740976377952756
 20
0.972484251968504
 30
0.0
 10
0.740976377952756
 20
0.972484251968504
 30
0.0
 10
0.740976377952756
 20
0.972484251968504
 30
0.0
 10
0.740976377952756
 20
0.972484251968504
 30
0.0
 10
0.7513937007874016
 20
0.9668307086614174
 30
0.0
 10
0.7513937007874016
 20
0.9668307086614174
 30
0.0
 10
0.7513937007874016
 20
0.9668307086614174
 30
0.0
 10
0.7513937007874016
 20
0.9668307086614174
 30
0.0
 10
0.7628464566929134
 20
0.9615196850393701
 30
0.0
 10
0.7628464566929134
 20
0.9615196850393701
 30
0.0
 10
0.7628464566929134
 20
0.9615196850393701
 30
0.0
 10
0.7628464566929134
 20
0.9615196850393701
 30
0.0
 10
0.7753937007874016
 20
0.9565866141732284
 30
0.0
 10
0.7753937007874016
 20
0.9565866141732284
 30
0.0
 10
0.7753937007874016
 20
0.9565866141732284
 30
0.0
 10
0.7753937007874016
 20
0.9565866141732284
 30
0.0
 10
0.7890669291338583
 20
0.9520511811023622
 30
0.0
 10
0.7890669291338583
 20
0.9520511811023622
 30
0.0
 10
0.7890669291338583
 20
0.9520511811023622
 30
0.0
 10
0.7890669291338583
 20
0.9520511811023622
 30
0.0
 10
0.8039330708661417
 20
0.9479566929133859
 30
0.0
 10
0.8039330708661417
 20
0.9479566929133859
 30
0.0
 10
0.8039330708661417
 20
0.9479566929133859
 30
0.0
 10
0.8039330708661417
 20
0.9479566929133859
 30
0.0
 10
0.8200354330708661
 20
0.9443267716535434
 30
0.0
 10
0.8200354330708661
 20
0.9443267716535434
 30
0.0
 10
0.8200354330708661
 20
0.9443267716535434
 30
0.0
 10
0.8200354330708661
 20
0.9443267716535434
 30
0.0
 10
0.8374291338582678
 20
0.9412047244094488
 30
0.0
 10
0.8374291338582678
 20
0.9412047244094488
 30
0.0
 10
0.8374291338582678
 20
0.9412047244094488
 30
0.0
 10
0.8374291338582678
 20
0.9412047244094488
 30
0.0
 10
0.8561496062992127
 20
0.9386062992125984
 30
0.0
 10
0.8561496062992127
 20
0.9386062992125984
 30
0.0
 10
0.8561496062992127
 20
0.9386062992125984
 30
0.0
 10
0.8561496062992127
 20
0.9386062992125984
 30
0.0
 10
0.8762677165354331
 20
0.9365787401574803
 30
0.0
 10
0.8762677165354331
 20
0.9365787401574803
 30
0.0
 10
0.8762677165354331
 20
0.9365787401574803
 30
0.0
 10
0.8762677165354331
 20
0.9365787401574803
 30
0.0
 10
0.8978110236220472
 20
0.9351417322834646
 30
0.0
 10
0.8978110236220472
 20
0.9351417322834646
 30
0.0
 10
0.8978110236220472
 20
0.9351417322834646
 30
0.0
 10
0.8978110236220472
 20
0.9351417322834646
 30
0.0
 10
0.9208503937007875
 20
0.9343385826771654
 30
0.0
 10
0.9208503937007875
 20
0.9343385826771654
 30
0.0
  0
SPLINE
  5
32
100
AcDbEntity
  8
Layer 1
 62
   253
100
AcDbSpline
210
0.0
220
0.0
230
1.0
 70
     1
 71
     3
 72
    20
 73
    16
 74
     0
 42
0.0000000001
 43
0.0000000001
 40
0.0
 40
0.0
 40
0.0
 40
0.0
 40
0.25
 40
0.25
 40
0.25
 40
0.25
 40
0.5
 40
0.5
 40
0.5
 40
0.5
 40
0.75
 40
0.75
 40
0.75
 40
0.75
 40
1.0
 40
1.0
 40
1.0
 40
1.0
 10
0.6739527559055119
 20
1.1144330708661419
 30
0.0
 10
0.6739527559055119
 20
1.1144330708661419
 30
0.0
 10
0.6720826771653543
 20
1.8584606299212598
 30
0.0
 10
0.6720826771653543
 20
1.8584606299212598
 30
0.0
 10
0.6720826771653543
 20
1.8584606299212598
 30
0.0
 10
0.6720826771653543
 20
1.8584606299212598
 30
0.0
 10
0.6458464566929134
 20
1.8593976377952757
 30
0.0
 10
0.6458464566929134
 20
1.8593976377952757
 30
0.0
 10
0.6458464566929134
 20
1.8593976377952757
 30
0.0
 10
0.6458464566929134
 20
1.8593976377952757
 30
0.0
 10
0.6477165354330708
 20
1.1153700787401575
 30
0.0
 10
0.6477165354330708
 20
1.1153700787401575
 30
0.0
 10
0.6477165354330708
 20
1.1153700787401575
 30
0.0
 10
0.6477165354330708
 20
1.1153700787401575
 30
0.0
 10
0.6739527559055119
 20
1.1144330708661419
 30
0.0
 10
0.6739527559055119
 20
1.1144330708661419
 30
0.0
  0
SPLINE
  5
33
100
AcDbEntity
  8
Layer 1
 62
   253
100
AcDbSpline
210
0.0
220
0.0
230
1.0
 70
     1
 71
     3
 72
    28
 73
    24
 74
     0
 42
0.0000000001
 43
0.0000000001
 40
0.0
 40
0.0
 40
0.0
 40
0.0
 40
0.1666666666666667
 40
0.1666666666666667
 40
0.1666666666666667
 40
0.1666666666666667
 40
0.3333333333333333
 40
0.3333333333333333
 40
0.3333333333333333
 40
0.3333333333333333
 40
0.5
 40
0.5
 40
0.5
 40
0.5
 40
0.6666666666666666
 40
0.6666666666666666
 40
0.6666666666666666
 40
0.6666666666666666
 40
0.8333333333333333
 40
0.8333333333333333
 40
0.8333333333333333
 40
0.8333333333333333
 40
1.0
 40
1.0
 40
1.0
 40
1.0
 10
0.6477165354330708
 20
1.1153700787401575
 30
0.0
 10
0.6477165354330708
 20
1.1153700787401575
 30
0.0
 10
0.6458464566929134
 20
1.8593976377952757
 30
0.0
 10
0.6458464566929134
 20
1.8593976377952757
 30
0.0
 10
0.6458464566929134
 20
1.8593976377952757
 30
0.0
 10
0.6458464566929134
 20
1.8593976377952757
 30
0.0
 10
0.6216062992125985
 20
1.8610039370078741
 30
0.0
 10
0.6216062992125985
 20
1.8610039370078741
 30
0.0
 10
0.6216062992125985
 20
1.8610039370078741
 30
0.0
 10
0.6216062992125985
 20
1.8610039370078741
 30
0.0
 10
0.599240157480315
 20
1.8632322834645669
 30
0.0
 10
0.599240157480315
 20
1.8632322834645669
 30
0.0
 10
0.599240157480315
 20
1.8632322834645669
 30
0.0
 10
0.599240157480315
 20
1.8632322834645669
 30
0.0
 10
0.6011102362204724
 20
1.119204724409449
 30
0.0
 10
0.6011102362204724
 20
1.119204724409449
 30
0.0
 10
0.6011102362204724
 20
1.119204724409449
 30
0.0
 10
0.6011102362204724
 20
1.119204724409449
 30
0.0
 10
0.6234763779527559
 20
1.1169763779527559
 30
0.0
 10
0.6234763779527559
 20
1.1169763779527559
 30
0.0
 10
0.6234763779527559
 20
1.1169763779527559
 30
0.0
 10
0.6234763779527559
 20
1.1169763779527559
 30
0.0
 10
0.6477165354330708
 20
1.1153700787401575
 30
0.0
 10
0.6477165354330708
 20
1.1153700787401575
 30
0.0
  0
SPLINE
  5
34
100
AcDbEntity
  8
Layer 1
 62
   253
100
AcDbSpline
210
0.0
220
0.0
230
1.0
 70
     1
 71
     3
 72
    28
 73
    24
 74
     0
 42
0.0000000001
 43
0.0000000001
 40
0.0
 40
0.0
 40
0.0
 40
0.0
 40
0.1666666666666667
 40
0.1666666666666667
 40
0.1666666666666667
 40
0.1666666666666667
 40
0.3333333333333333
 40
0.3333333333333333
 40
0.3333333333333333
 40
0.3333333333333333
 40
0.5
 40
0.5
 40
0.5
 40
0.5
 40
0.6666666666666666
 40
0.6666666666666666
 40
0.6666666666666666
 40
0.6666666666666666
 40
0.8333333333333333
 40
0.8333333333333333
 40
0.8333333333333333
 40
0.8333333333333333
 40
1.0
 40
1.0
 40
1.0
 40
1.0
 10
0.6011102362204724
 20
1.119204724409449
 30
0.0
 10
0.6011102362204724
 20
1.119204724409449
 30
0.0
 10
0.599240157480315
 20
1.8632322834645669
 30
0.0
 10
0.599240157480315
 20
1.8632322834645669
 30
0.0
 10
0.599240157480315
 20
1.8632322834645669
 30
0.0
 10
0.599240157480315
 20
1.8632322834645669
 30
0.0
 10
0.5786259842519685
 20
1.8660511811023623
 30
0.0
 10
0.5786259842519685
 20
1.8660511811023623
 30
0.0
 10
0.5786259842519685
 20
1.8660511811023623
 30
0.0
 10
0.5786259842519685
 20
1.8660511811023623
 30
0.0
 10
0.5596377952755905
 20
1.8694015748031496
 30
0.0
 10
0.5596377952755905
 20
1.8694015748031496
 30
0.0
 10
0.5596377952755905
 20
1.8694015748031496
 30
0.0
 10
0.5596377952755905
 20
1.8694015748031496
 30
0.0
 10
0.5615078740157481
 20
1.1253740157480316
 30
0.0
 10
0.5615078740157481
 20
1.1253740157480316
 30
0.0
 10
0.5615078740157481
 20
1.1253740157480316
 30
0.0
 10
0.5615078740157481
 20
1.1253740157480316
 30
0.0
 10
0.580496062992126
 20
1.1220236220472442
 30
0.0
 10
0.580496062992126
 20
1.1220236220472442
 30
0.0
 10
0.580496062992126
 20
1.1220236220472442
 30
0.0
 10
0.580496062992126
 20
1.1220236220472442
 30
0.0
 10
0.6011102362204724
 20
1.119204724409449
 30
0.0
 10
0.6011102362204724
 20
1.119204724409449
 30
0.0
  0
SPLINE
  5
35
100
AcDbEntity
  8
Layer 1
 62
   253
100
AcDbSpline
210
0.0
220
0.0
230
1.0
 70
     1
 71
     3
 72
    28
 73
    24
 74
     0
 42
0.0000000001
 43
0.0000000001
 40
0.0
 40
0.0
 40
0.0
 40
0.0
 40
0.1666666666666667
 40
0.1666666666666667
 40
0.1666666666666667
 40
0.1666666666666667
 40
0.3333333333333333
 40
0.3333333333333333
 40
0.3333333333333333
 40
0.3333333333333333
 40
0.5
 40
0.5
 40
0.5
 40
0.5
 40
0.6666666666666666
 40
0.6666666666666666
 40
0.6666666666666666
 40
0.6666666666666666
 40
0.8333333333333333
 40
0.8333333333333333
 40
0.8333333333333333
 40
0.8333333333333333
 40
1.0
 40
1.0
 40
1.0
 40
1.0
 10
0.5615078740157481
 20
1.1253740157480316
 30
0.0
 10
0.5615078740157481
 20
1.1253740157480316
 30
0.0
 10
0.5596377952755905
 20
1.8694015748031496
 30
0.0
 10
0.5596377952755905
 20
1.8694015748031496
 30
0.0
 10
0.5596377952755905
 20
1.8694015748031496
 30
0.0
 10
0.5596377952755905
 20
1.8694015748031496
 30
0.0
 10
0.5421614173228346
 20
1.8732598425196851
 30
0.0
 10
0.5421614173228346
 20
1.8732598425196851
 30
0.0
 10
0.5421614173228346
 20
1.8732598425196851
 30
0.0
 10
0.5421614173228346
 20
1.8732598425196851
 30
0.0
 10
0.5260708661417323
 20
1.8775787401574804
 30
0.0
 10
0.5260708661417323
 20
1.8775787401574804
 30
0.0
 10
0.5260708661417323
 20
1.8775787401574804
 30
0.0
 10
0.5260708661417323
 20
1.8775787401574804
 30
0.0
 10
0.5279409448818898
 20
1.1335511811023622
 30
0.0
 10
0.5279409448818898
 20
1.1335511811023622
 30
0.0
 10
0.5279409448818898
 20
1.1335511811023622
 30
0.0
 10
0.5279409448818898
 20
1.1335511811023622
 30
0.0
 10
0.5440314960629922
 20
1.1292322834645669
 30
0.0
 10
0.5440314960629922
 20
1.1292322834645669
 30
0.0
 10
0.5440314960629922
 20
1.1292322834645669
 30
0.0
 10
0.5440314960629922
 20
1.1292322834645669
 30
0.0
 10
0.5615078740157481
 20
1.1253740157480316
 30
0.0
 10
0.5615078740157481
 20
1.1253740157480316
 30
0.0
  0
SPLINE
  5
36
100
AcDbEntity
  8
Layer 1
 62
   253
100
AcDbSpline
210
0.0
220
0.0
230
1.0
 70
     1
 71
     3
 72
    36
 73
    32
 74
     0
 42
0.0000000001
 43
0.0000000001
 40
0.0
 40
0.0
 40
0.0
 40
0.0
 40
0.125
 40
0.125
 40
0.125
 40
0.125
 40
0.25
 40
0.25
 40
0.25
 40
0.25
 40
0.375
 40
0.375
 40
0.375
 40
0.375
 40
0.5
 40
0.5
 40
0.5
 40
0.5
 40
0.625
 40
0.625
 40
0.625
 40
0.625
 40
0.75
 40
0.75
 40
0.75
 40
0.75
 40
0.875
 40
0.875
 40
0.875
 40
0.875
 40
1.0
 40
1.0
 40
1.0
 40
1.0
 10
0.5279409448818898
 20
1.1335511811023622
 30
0.0
 10
0.5279409448818898
 20
1.1335511811023622
 30
0.0
 10
0.5260708661417323
 20
1.8775787401574804
 30
0.0
 10
0.5260708661417323
 20
1.8775787401574804
 30
0.0
 10
0.5260708661417323
 20
1.8775787401574804
 30
0.0
 10
0.5260708661417323
 20
1.8775787401574804
 30
0.0
 10
0.511255905511811
 20
1.8823188976377954
 30
0.0
 10
0.511255905511811
 20
1.8823188976377954
 30
0.0
 10
0.511255905511811
 20
1.8823188976377954
 30
0.0
 10
0.511255905511811
 20
1.8823188976377954
 30
0.0
 10
0.4975787401574803
 20
1.8874291338582678
 30
0.0
 10
0.4975787401574803
 20
1.8874291338582678
 30
0.0
 10
0.4975787401574803
 20
1.8874291338582678
 30
0.0
 10
0.4975787401574803
 20
1.8874291338582678
 30
0.0
 10
0.4849330708661417
 20
1.8928818897637796
 30
0.0
 10
0.4849330708661417
 20
1.8928818897637796
 30
0.0
 10
0.4849330708661417
 20
1.8928818897637796
 30
0.0
 10
0.4849330708661417
 20
1.8928818897637796
 30
0.0
 10
0.4868031496062992
 20
1.1488543307086614
 30
0.0
 10
0.4868031496062992
 20
1.1488543307086614
 30
0.0
 10
0.4868031496062992
 20
1.1488543307086614
 30
0.0
 10
0.4868031496062992
 20
1.1488543307086614
 30
0.0
 10
0.4994488188976378
 20
1.1434015748031496
 30
0.0
 10
0.4994488188976378
 20
1.1434015748031496
 30
0.0
 10
0.4994488188976378
 20
1.1434015748031496
 30
0.0
 10
0.4994488188976378
 20
1.1434015748031496
 30
0.0
 10
0.5131259842519685
 20
1.1382913385826772
 30
0.0
 10
0.5131259842519685
 20
1.1382913385826772
 30
0.0
 10
0.5131259842519685
 20
1.1382913385826772
 30
0.0
 10
0.5131259842519685
 20
1.1382913385826772
 30
0.0
 10
0.5279409448818898
 20
1.1335511811023622
 30
0.0
 10
0.5279409448818898
 20
1.1335511811023622
 30
0.0
  0
SPLINE
  5
37
100
AcDbEntity
  8
Layer 1
 62
     9
100
AcDbSpline
210
0.0
220
0.0
230
1.0
 70
     1
 71
     3
 72
    44
 73
    40
 74
     0
 42
0.0000000001
 43
0.0000000001
 40
0.0
 40
0.0
 40
0.0
 40
0.0
 40
0.1
 40
0.1
 40
0.1
 40
0.1
 40
0.2
 40
0.2
 40
0.2
 40
0.2
 40
0.3
 40
0.3
 40
0.3
 40
0.3
 40
0.4
 40
0.4
 40
0.4
 40
0.4
 40
0.5
 40
0.5
 40
0.5
 40
0.5
 40
0.6
 40
0.6
 40
0.6
 40
0.6
 40
0.7
 40
0.7
 40
0.7
 40
0.7
 40
0.7999999999999999
 40
0.7999999999999999
 40
0.7999999999999999
 40
0.7999999999999999
 40
0.8999999999999999
 40
0.8999999999999999
 40
0.8999999999999999
 40
0.8999999999999999
 40
1.0
 40
1.0
 40
1.0
 40
1.0
 10
0.4868031496062992
 20
1.1488543307086614
 30
0.0
 10
0.4868031496062992
 20
1.1488543307086614
 30
0.0
 10
0.4849330708661417
 20
1.8928818897637796
 30
0.0
 10
0.4849330708661417
 20
1.8928818897637796
 30
0.0
 10
0.4849330708661417
 20
1.8928818897637796
 30
0.0
 10
0.4849330708661417
 20
1.8928818897637796
 30
0.0
 10
0.4731889763779528
 20
1.8986299212598425
 30
0.0
 10
0.4731889763779528
 20
1.8986299212598425
 30
0.0
 10
0.4731889763779528
 20
1.8986299212598425
 30
0.0
 10
0.4731889763779528
 20
1.8986299212598425
 30
0.0
 10
0.462232283464567
 20
1.9046417322834646
 30
0.0
 10
0.462232283464567
 20
1.9046417322834646
 30
0.0
 10
0.462232283464567
 20
1.9046417322834646
 30
0.0
 10
0.462232283464567
 20
1.9046417322834646
 30
0.0
 10
0.4519370078740158
 20
1.9108622047244095
 30
0.0
 10
0.4519370078740158
 20
1.9108622047244095
 30
0.0
 10
0.4519370078740158
 20
1.9108622047244095
 30
0.0
 10
0.4519370078740158
 20
1.9108622047244095
 30
0.0
 10
0.4421889763779528
 20
1.9172637795275591
 30
0.0
 10
0.4421889763779528
 20
1.9172637795275591
 30
0.0
 10
0.4421889763779528
 20
1.9172637795275591
 30
0.0
 10
0.4421889763779528
 20
1.9172637795275591
 30
0.0
 10
0.4440590551181103
 20
1.1732362204724409
 30
0.0
 10
0.4440590551181103
 20
1.1732362204724409
 30
0.0
 10
0.4440590551181103
 20
1.1732362204724409
 30
0.0
 10
0.4440590551181103
 20
1.1732362204724409
 30
0.0
 10
0.4538070866141732
 20
1.1668346456692913
 30
0.0
 10
0.4538070866141732
 20
1.1668346456692913
 30
0.0
 10
0.4538070866141732
 20
1.1668346456692913
 30
0.0
 10
0.4538070866141732
 20
1.1668346456692913
 30
0.0
 10
0.4641023622047245
 20
1.1606141732283466
 30
0.0
 10
0.4641023622047245
 20
1.1606141732283466
 30
0.0
 10
0.4641023622047245
 20
1.1606141732283466
 30
0.0
 10
0.4641023622047245
 20
1.1606141732283466
 30
0.0
 10
0.4750590551181103
 20
1.1546023622047246
 30
0.0
 10
0.4750590551181103
 20
1.1546023622047246
 30
0.0
 10
0.4750590551181103
 20
1.1546023622047246
 30
0.0
 10
0.4750590551181103
 20
1.1546023622047246
 30
0.0
 10
0.4868031496062992
 20
1.1488543307086614
 30
0.0
 10
0.4868031496062992
 20
1.1488543307086614
 30
0.0
  0
SPLINE
  5
38
100
AcDbEntity
  8
Layer 1
 62
     9
100
AcDbSpline
210
0.0
220
0.0
230
1.0
 70
     1
 71
     3
 72
    44
 73
    40
 74
     0
 42
0.0000000001
 43
0.0000000001
 40
0.0
 40
0.0
 40
0.0
 40
0.0
 40
0.1
 40
0.1
 40
0.1
 40
0.1
 40
0.2
 40
0.2
 40
0.2
 40
0.2
 40
0.3
 40
0.3
 40
0.3
 40
0.3
 40
0.4
 40
0.4
 40
0.4
 40
0.4
 40
0.5
 40
0.5
 40
0.5
 40
0.5
 40
0.6
 40
0.6
 40
0.6
 40
0.6
 40
0.7
 40
0.7
 40
0.7
 40
0.7
 40
0.7999999999999999
 40
0.7999999999999999
 40
0.7999999999999999
 40
0.7999999999999999
 40
0.8999999999999999
 40
0.8999999999999999
 40
0.8999999999999999
 40
0.8999999999999999
 40
1.0
 40
1.0
 40
1.0
 40
1.0
 10
0.4440590551181103
 20
1.1732362204724409
 30
0.0
 10
0.4440590551181103
 20
1.1732362204724409
 30
0.0
 10
0.4421889763779528
 20
1.9172637795275591
 30
0.0
 10
0.4421889763779528
 20
1.9172637795275591
 30
0.0
 10
0.4421889763779528
 20
1.9172637795275591
 30
0.0
 10
0.4421889763779528
 20
1.9172637795275591
 30
0.0
 10
0.4328582677165355
 20
1.9237952755905512
 30
0.0
 10
0.4328582677165355
 20
1.9237952755905512
 30
0.0
 10
0.4328582677165355
 20
1.9237952755905512
 30
0.0
 10
0.4328582677165355
 20
1.9237952755905512
 30
0.0
 10
0.4238346456692914
 20
1.9304251968503938
 30
0.0
 10
0.4238346456692914
 20
1.9304251968503938
 30
0.0
 10
0.4238346456692914
 20
1.9304251968503938
 30
0.0
 10
0.4238346456692914
 20
1.9304251968503938
 30
0.0
 10
0.414984251968504
 20
1.9370984251968504
 30
0.0
 10
0.414984251968504
 20
1.9370984251968504
 30
0.0
 10
0.414984251968504
 20
1.9370984251968504
 30
0.0
 10
0.414984251968504
 20
1.9370984251968504
 30
0.0
 10
0.4061968503937008
 20
1.9437874015748031
 30
0.0
 10
0.4061968503937008
 20
1.9437874015748031
 30
0.0
 10
0.4061968503937008
 20
1.9437874015748031
 30
0.0
 10
0.4061968503937008
 20
1.9437874015748031
 30
0.0
 10
0.4080669291338583
 20
1.1997598425196851
 30
0.0
 10
0.4080669291338583
 20
1.1997598425196851
 30
0.0
 10
0.4080669291338583
 20
1.1997598425196851
 30
0.0
 10
0.4080669291338583
 20
1.1997598425196851
 30
0.0
 10
0.4168543307086615
 20
1.1930708661417324
 30
0.0
 10
0.4168543307086615
 20
1.1930708661417324
 30
0.0
 10
0.4168543307086615
 20
1.1930708661417324
 30
0.0
 10
0.4168543307086615
 20
1.1930708661417324
 30
0.0
 10
0.4257047244094488
 20
1.1863976377952756
 30
0.0
 10
0.4257047244094488
 20
1.1863976377952756
 30
0.0
 10
0.4257047244094488
 20
1.1863976377952756
 30
0.0
 10
0.4257047244094488
 20
1.1863976377952756
 30
0.0
 10
0.434728346456693
 20
1.1797677165354332
 30
0.0
 10
0.434728346456693
 20
1.1797677165354332
 30
0.0
 10
0.434728346456693
 20
1.1797677165354332
 30
0.0
 10
0.434728346456693
 20
1.1797677165354332
 30
0.0
 10
0.4440590551181103
 20
1.1732362204724409
 30
0.0
 10
0.4440590551181103
 20
1.1732362204724409
 30
0.0
  0
SPLINE
  5
39
100
AcDbEntity
  8
Layer 1
 62
     9
100
AcDbSpline
210
0.0
220
0.0
230
1.0
 70
     1
 71
     3
 72
    44
 73
    40
 74
     0
 42
0.0000000001
 43
0.0000000001
 40
0.0
 40
0.0
 40
0.0
 40
0.0
 40
0.1
 40
0.1
 40
0.1
 40
0.1
 40
0.2
 40
0.2
 40
0.2
 40
0.2
 40
0.3
 40
0.3
 40
0.3
 40
0.3
 40
0.4
 40
0.4
 40
0.4
 40
0.4
 40
0.5
 40
0.5
 40
0.5
 40
0.5
 40
0.6
 40
0.6
 40
0.6
 40
0.6
 40
0.7
 40
0.7
 40
0.7
 40
0.7
 40
0.7999999999999999
 40
0.7999999999999999
 40
0.7999999999999999
 40
0.7999999999999999
 40
0.8999999999999999
 40
0.8999999999999999
 40
0.8999999999999999
 40
0.8999999999999999
 40
1.0
 40
1.0
 40
1.0
 40
1.0
 10
0.4080669291338583
 20
1.1997598425196851
 30
0.0
 10
0.4080669291338583
 20
1.1997598425196851
 30
0.0
 10
0.4061968503937008
 20
1.9437874015748031
 30
0.0
 10
0.4061968503937008
 20
1.9437874015748031
 30
0.0
 10
0.4061968503937008
 20
1.9437874015748031
 30
0.0
 10
0.4061968503937008
 20
1.9437874015748031
 30
0.0
 10
0.3973464566929134
 20
1.9504448818897639
 30
0.0
 10
0.3973464566929134
 20
1.9504448818897639
 30
0.0
 10
0.3973464566929134
 20
1.9504448818897639
 30
0.0
 10
0.3973464566929134
 20
1.9504448818897639
 30
0.0
 10
0.3883188976377953
 20
1.9570393700787403
 30
0.0
 10
0.3883188976377953
 20
1.9570393700787403
 30
0.0
 10
0.3883188976377953
 20
1.9570393700787403
 30
0.0
 10
0.3883188976377953
 20
1.9570393700787403
 30
0.0
 10
0.37898031496063
 20
1.9635157480314962
 30
0.0
 10
0.37898031496063
 20
1.9635157480314962
 30
0.0
 10
0.37898031496063
 20
1.9635157480314962
 30
0.0
 10
0.37898031496063
 20
1.9635157480314962
 30
0.0
 10
0.3692244094488189
 20
1.9698464566929135
 30
0.0
 10
0.3692244094488189
 20
1.9698464566929135
 30
0.0
 10
0.3692244094488189
 20
1.9698464566929135
 30
0.0
 10
0.3692244094488189
 20
1.9698464566929135
 30
0.0
 10
0.3710944881889764
 20
1.2258188976377953
 30
0.0
 10
0.3710944881889764
 20
1.2258188976377953
 30
0.0
 10
0.3710944881889764
 20
1.2258188976377953
 30
0.0
 10
0.3710944881889764
 20
1.2258188976377953
 30
0.0
 10
0.3808503937007874
 20
1.219488188976378
 30
0.0
 10
0.3808503937007874
 20
1.219488188976378
 30
0.0
 10
0.3808503937007874
 20
1.219488188976378
 30
0.0
 10
0.3808503937007874
 20
1.219488188976378
 30
0.0
 10
0.3901889763779528
 20
1.2130118110236221
 30
0.0
 10
0.3901889763779528
 20
1.2130118110236221
 30
0.0
 10
0.3901889763779528
 20
1.2130118110236221
 30
0.0
 10
0.3901889763779528
 20
1.2130118110236221
 30
0.0
 10
0.3992165354330709
 20
1.2064173228346458
 30
0.0
 10
0.3992165354330709
 20
1.2064173228346458
 30
0.0
 10
0.3992165354330709
 20
1.2064173228346458
 30
0.0
 10
0.3992165354330709
 20
1.2064173228346458
 30
0.0
 10
0.4080669291338583
 20
1.1997598425196851
 30
0.0
 10
0.4080669291338583
 20
1.1997598425196851
 30
0.0
  0
SPLINE
  5
3A
100
AcDbEntity
  8
Layer 1
 62
     9
100
AcDbSpline
210
0.0
220
0.0
230
1.0
 70
     1
 71
     3
 72
    36
 73
    32
 74
     0
 42
0.0000000001
 43
0.0000000001
 40
0.0
 40
0.0
 40
0.0
 40
0.0
 40
0.125
 40
0.125
 40
0.125
 40
0.125
 40
0.25
 40
0.25
 40
0.25
 40
0.25
 40
0.375
 40
0.375
 40
0.375
 40
0.375
 40
0.5
 40
0.5
 40
0.5
 40
0.5
 40
0.625
 40
0.625
 40
0.625
 40
0.625
 40
0.75
 40
0.75
 40
0.75
 40
0.75
 40
0.875
 40
0.875
 40
0.875
 40
0.875
 40
1.0
 40
1.0
 40
1.0
 40
1.0
 10
0.3710944881889764
 20
1.2258188976377953
 30
0.0
 10
0.3710944881889764
 20
1.2258188976377953
 30
0.0
 10
0.3692244094488189
 20
1.9698464566929135
 30
0.0
 10
0.3692244094488189
 20
1.9698464566929135
 30
0.0
 10
0.3692244094488189
 20
1.9698464566929135
 30
0.0
 10
0.3692244094488189
 20
1.9698464566929135
 30
0.0
 10
0.3589251968503937
 20
1.9759803149606301
 30
0.0
 10
0.3589251968503937
 20
1.9759803149606301
 30
0.0
 10
0.3589251968503937
 20
1.9759803149606301
 30
0.0
 10
0.3589251968503937
 20
1.9759803149606301
 30
0.0
 10
0.3479645669291339
 20
1.9818897637795276
 30
0.0
 10
0.3479645669291339
 20
1.9818897637795276
 30
0.0
 10
0.3479645669291339
 20
1.9818897637795276
 30
0.0
 10
0.3479645669291339
 20
1.9818897637795276
 30
0.0
 10
0.3362086614173229
 20
1.9875118110236221
 30
0.0
 10
0.3362086614173229
 20
1.9875118110236221
 30
0.0
 10
0.3362086614173229
 20
1.9875118110236221
 30
0.0
 10
0.3362086614173229
 20
1.9875118110236221
 30
0.0
 10
0.3380787401574804
 20
1.2434842519685039
 30
0.0
 10
0.3380787401574804
 20
1.2434842519685039
 30
0.0
 10
0.3380787401574804
 20
1.2434842519685039
 30
0.0
 10
0.3380787401574804
 20
1.2434842519685039
 30
0.0
 10
0.3498346456692913
 20
1.2378622047244094
 30
0.0
 10
0.3498346456692913
 20
1.2378622047244094
 30
0.0
 10
0.3498346456692913
 20
1.2378622047244094
 30
0.0
 10
0.3498346456692913
 20
1.2378622047244094
 30
0.0
 10
0.3607952755905512
 20
1.2319527559055119
 30
0.0
 10
0.3607952755905512
 20
1.2319527559055119
 30
0.0
 10
0.3607952755905512
 20
1.2319527559055119
 30
0.0
 10
0.3607952755905512
 20
1.2319527559055119
 30
0.0
 10
0.3710944881889764
 20
1.2258188976377953
 30
0.0
 10
0.3710944881889764
 20
1.2258188976377953
 30
0.0
  0
SPLINE
  5
3B
100
AcDbEntity
  8
Layer 1
 62
   253
100
AcDbSpline
210
0.0
220
0.0
230
1.0
 70
     1
 71
     3
 72
    36
 73
    32
 74
     0
 42
0.0000000001
 43
0.0000000001
 40
0.0
 40
0.0
 40
0.0
 40
0.0
 40
0.125
 40
0.125
 40
0.125
 40
0.125
 40
0.25
 40
0.25
 40
0.25
 40
0.25
 40
0.375
 40
0.375
 40
0.375
 40
0.375
 40
0.5
 40
0.5
 40
0.5
 40
0.5
 40
0.625
 40
0.625
 40
0.625
 40
0.625
 40
0.75
 40
0.75
 40
0.75
 40
0.75
 40
0.875
 40
0.875
 40
0.875
 40
0.875
 40
1.0
 40
1.0
 40
1.0
 40
1.0
 10
0.3380787401574804
 20
1.2434842519685039
 30
0.0
 10
0.3380787401574804
 20
1.2434842519685039
 30
0.0
 10
0.3362086614173229
 20
1.9875118110236221
 30
0.0
 10
0.3362086614173229
 20
1.9875118110236221
 30
0.0
 10
0.3362086614173229
 20
1.9875118110236221
 30
0.0
 10
0.3362086614173229
 20
1.9875118110236221
 30
0.0
 10
0.3235511811023622
 20
1.9928267716535433
 30
0.0
 10
0.3235511811023622
 20
1.9928267716535433
 30
0.0
 10
0.3235511811023622
 20
1.9928267716535433
 30
0.0
 10
0.3235511811023622
 20
1.9928267716535433
 30
0.0
 10
0.3098622047244095
 20
1.9977834645669292
 30
0.0
 10
0.3098622047244095
 20
1.9977834645669292
 30
0.0
 10
0.3098622047244095
 20
1.9977834645669292
 30
0.0
 10
0.3098622047244095
 20
1.9977834645669292
 30
0.0
 10
0.2950314960629921
 20
2.0023503937007874
 30
0.0
 10
0.2950314960629921
 20
2.0023503937007874
 30
0.0
 10
0.2950314960629921
 20
2.0023503937007874
 30
0.0
 10
0.2950314960629921
 20
2.0023503937007874
 30
0.0
 10
0.2969015748031496
 20
1.2583228346456694
 30
0.0
 10
0.2969015748031496
 20
1.2583228346456694
 30
0.0
 10
0.2969015748031496
 20
1.2583228346456694
 30
0.0
 10
0.2969015748031496
 20
1.2583228346456694
 30
0.0
 10
0.3117322834645669
 20
1.253755905511811
 30
0.0
 10
0.3117322834645669
 20
1.253755905511811
 30
0.0
 10
0.3117322834645669
 20
1.253755905511811
 30
0.0
 10
0.3117322834645669
 20
1.253755905511811
 30
0.0
 10
0.3254212598425197
 20
1.2487992125984253
 30
0.0
 10
0.3254212598425197
 20
1.2487992125984253
 30
0.0
 10
0.3254212598425197
 20
1.2487992125984253
 30
0.0
 10
0.3254212598425197
 20
1.2487992125984253
 30
0.0
 10
0.3380787401574804
 20
1.2434842519685039
 30
0.0
 10
0.3380787401574804
 20
1.2434842519685039
 30
0.0
  0
SPLINE
  5
3C
100
AcDbEntity
  8
Layer 1
 62
   253
100
AcDbSpline
210
0.0
220
0.0
230
1.0
 70
     1
 71
     3
 72
    28
 73
    24
 74
     0
 42
0.0000000001
 43
0.0000000001
 40
0.0
 40
0.0
 40
0.0
 40
0.0
 40
0.1666666666666667
 40
0.1666666666666667
 40
0.1666666666666667
 40
0.1666666666666667
 40
0.3333333333333333
 40
0.3333333333333333
 40
0.3333333333333333
 40
0.3333333333333333
 40
0.5
 40
0.5
 40
0.5
 40
0.5
 40
0.6666666666666666
 40
0.6666666666666666
 40
0.6666666666666666
 40
0.6666666666666666
 40
0.8333333333333333
 40
0.8333333333333333
 40
0.8333333333333333
 40
0.8333333333333333
 40
1.0
 40
1.0
 40
1.0
 40
1.0
 10
0.2969015748031496
 20
1.2583228346456694
 30
0.0
 10
0.2969015748031496
 20
1.2583228346456694
 30
0.0
 10
0.2950314960629921
 20
2.0023503937007874
 30
0.0
 10
0.2950314960629921
 20
2.0023503937007874
 30
0.0
 10
0.2950314960629921
 20
2.0023503937007874
 30
0.0
 10
0.2950314960629921
 20
2.0023503937007874
 30
0.0
 10
0.2789251968503937
 20
2.006472440944882
 30
0.0
 10
0.2789251968503937
 20
2.006472440944882
 30
0.0
 10
0.2789251968503937
 20
2.006472440944882
 30
0.0
 10
0.2789251968503937
 20
2.006472440944882
 30
0.0
 10
0.2614370078740158
 20
2.0101259842519688
 30
0.0
 10
0.2614370078740158
 20
2.0101259842519688
 30
0.0
 10
0.2614370078740158
 20
2.0101259842519688
 30
0.0
 10
0.2614370078740158
 20
2.0101259842519688
 30
0.0
 10
0.2633070866141732
 20
1.2660984251968503
 30
0.0
 10
0.2633070866141732
 20
1.2660984251968503
 30
0.0
 10
0.2633070866141732
 20
1.2660984251968503
 30
0.0
 10
0.2633070866141732
 20
1.2660984251968503
 30
0.0
 10
0.2807952755905512
 20
1.2624448818897638
 30
0.0
 10
0.2807952755905512
 20
1.2624448818897638
 30
0.0
 10
0.2807952755905512
 20
1.2624448818897638
 30
0.0
 10
0.2807952755905512
 20
1.2624448818897638
 30
0.0
 10
0.2969015748031496
 20
1.2583228346456694
 30
0.0
 10
0.2969015748031496
 20
1.2583228346456694
 30
0.0
  0
SPLINE
  5
3D
100
AcDbEntity
  8
Layer 1
 62
   253
100
AcDbSpline
210
0.0
220
0.0
230
1.0
 70
     1
 71
     3
 72
    28
 73
    24
 74
     0
 42
0.0000000001
 43
0.0000000001
 40
0.0
 40
0.0
 40
0.0
 40
0.0
 40
0.1666666666666667
 40
0.1666666666666667
 40
0.1666666666666667
 40
0.1666666666666667
 40
0.3333333333333333
 40
0.3333333333333333
 40
0.3333333333333333
 40
0.3333333333333333
 40
0.5
 40
0.5
 40
0.5
 40
0.5
 40
0.6666666666666666
 40
0.6666666666666666
 40
0.6666666666666666
 40
0.6666666666666666
 40
0.8333333333333333
 40
0.8333333333333333
 40
0.8333333333333333
 40
0.8333333333333333
 40
1.0
 40
1.0
 40
1.0
 40
1.0
 10
0.2633070866141732
 20
1.2660984251968503
 30
0.0
 10
0.2633070866141732
 20
1.2660984251968503
 30
0.0
 10
0.2614370078740158
 20
2.0101259842519688
 30
0.0
 10
0.2614370078740158
 20
2.0101259842519688
 30
0.0
 10
0.2614370078740158
 20
2.0101259842519688
 30
0.0
 10
0.2614370078740158
 20
2.0101259842519688
 30
0.0
 10
0.2424370078740158
 20
2.013251968503937
 30
0.0
 10
0.2424370078740158
 20
2.013251968503937
 30
0.0
 10
0.2424370078740158
 20
2.013251968503937
 30
0.0
 10
0.2424370078740158
 20
2.013251968503937
 30
0.0
 10
0.2218070866141732
 20
2.0158267716535434
 30
0.0
 10
0.2218070866141732
 20
2.0158267716535434
 30
0.0
 10
0.2218070866141732
 20
2.0158267716535434
 30
0.0
 10
0.2218070866141732
 20
2.0158267716535434
 30
0.0
 10
0.2236771653543307
 20
1.2717992125984252
 30
0.0
 10
0.2236771653543307
 20
1.2717992125984252
 30
0.0
 10
0.2236771653543307
 20
1.2717992125984252
 30
0.0
 10
0.2236771653543307
 20
1.2717992125984252
 30
0.0
 10
0.2443070866141733
 20
1.269224409448819
 30
0.0
 10
0.2443070866141733
 20
1.269224409448819
 30
0.0
 10
0.2443070866141733
 20
1.269224409448819
 30
0.0
 10
0.2443070866141733
 20
1.269224409448819
 30
0.0
 10
0.2633070866141732
 20
1.2660984251968503
 30
0.0
 10
0.2633070866141732
 20
1.2660984251968503
 30
0.0
  0
SPLINE
  5
3E
100
AcDbEntity
  8
Layer 1
 62
   253
100
AcDbSpline
210
0.0
220
0.0
230
1.0
 70
     1
 71
     3
 72
    36
 73
    32
 74
     0
 42
0.0000000001
 43
0.0000000001
 40
0.0
 40
0.0
 40
0.0
 40
0.0
 40
0.125
 40
0.125
 40
0.125
 40
0.125
 40
0.25
 40
0.25
 40
0.25
 40
0.25
 40
0.375
 40
0.375
 40
0.375
 40
0.375
 40
0.5
 40
0.5
 40
0.5
 40
0.5
 40
0.625
 40
0.625
 40
0.625
 40
0.625
 40
0.75
 40
0.75
 40
0.75
 40
0.75
 40
0.875
 40
0.875
 40
0.875
 40
0.875
 40
1.0
 40
1.0
 40
1.0
 40
1.0
 10
0.2236771653543307
 20
1.2717992125984252
 30
0.0
 10
0.2236771653543307
 20
1.2717992125984252
 30
0.0
 10
0.2218070866141732
 20
2.0158267716535434
 30
0.0
 10
0.2218070866141732
 20
2.0158267716535434
 30
0.0
 10
0.2218070866141732
 20
2.0158267716535434
 30
0.0
 10
0.2218070866141732
 20
2.0158267716535434
 30
0.0
 10
0.2094448818897638
 20
2.0168976377952759
 30
0.0
 10
0.2094448818897638
 20
2.0168976377952759
 30
0.0
 10
0.2094448818897638
 20
2.0168976377952759
 30
0.0
 10
0.2094448818897638
 20
2.0168976377952759
 30
0.0
 10
0.1960118110236221
 20
2.017681102362205
 30
0.0
 10
0.1960118110236221
 20
2.017681102362205
 30
0.0
 10
0.1960118110236221
 20
2.017681102362205
 30
0.0
 10
0.1960118110236221
 20
2.017681102362205
 30
0.0
 10
0.1815944881889764
 20
2.0182480314960629
 30
0.0
 10
0.1815944881889764
 20
2.0182480314960629
 30
0.0
 10
0.1815944881889764
 20
2.0182480314960629
 30
0.0
 10
0.1815944881889764
 20
2.0182480314960629
 30
0.0
 10
0.1834645669291339
 20
1.2742204724409449
 30
0.0
 10
0.1834645669291339
 20
1.2742204724409449
 30
0.0
 10
0.1834645669291339
 20
1.2742204724409449
 30
0.0
 10
0.1834645669291339
 20
1.2742204724409449
 30
0.0
 10
0.1978818897637795
 20
1.2736535433070866
 30
0.0
 10
0.1978818897637795
 20
1.2736535433070866
 30
0.0
 10
0.1978818897637795
 20
1.2736535433070866
 30
0.0
 10
0.1978818897637795
 20
1.2736535433070866
 30
0.0
 10
0.2113149606299213
 20
1.2728700787401575
 30
0.0
 10
0.2113149606299213
 20
1.2728700787401575
 30
0.0
 10
0.2113149606299213
 20
1.2728700787401575
 30
0.0
 10
0.2113149606299213
 20
1.2728700787401575
 30
0.0
 10
0.2236771653543307
 20
1.2717992125984252
 30
0.0
 10
0.2236771653543307
 20
1.2717992125984252
 30
0.0
  0
SPLINE
  5
3F
100
AcDbEntity
  8
Layer 1
 62
   253
100
AcDbSpline
210
0.0
220
0.0
230
1.0
 70
     1
 71
     3
 72
    36
 73
    32
 74
     0
 42
0.0000000001
 43
0.0000000001
 40
0.0
 40
0.0
 40
0.0
 40
0.0
 40
0.125
 40
0.125
 40
0.125
 40
0.125
 40
0.25
 40
0.25
 40
0.25
 40
0.25
 40
0.375
 40
0.375
 40
0.375
 40
0.375
 40
0.5
 40
0.5
 40
0.5
 40
0.5
 40
0.625
 40
0.625
 40
0.625
 40
0.625
 40
0.75
 40
0.75
 40
0.75
 40
0.75
 40
0.875
 40
0.875
 40
0.875
 40
0.875
 40
1.0
 40
1.0
 40
1.0
 40
1.0
 10
0.1834645669291339
 20
1.2742204724409449
 30
0.0
 10
0.1834645669291339
 20
1.2742204724409449
 30
0.0
 10
0.1815944881889764
 20
2.0182480314960629
 30
0.0
 10
0.1815944881889764
 20
2.0182480314960629
 30
0.0
 10
0.1815944881889764
 20
2.0182480314960629
 30
0.0
 10
0.1815944881889764
 20
2.0182480314960629
 30
0.0
 10
0.1662992125984252
 20
2.0186771653543309
 30
0.0
 10
0.1662992125984252
 20
2.0186771653543309
 30
0.0
 10
0.1662992125984252
 20
2.0186771653543309
 30
0.0
 10
0.1662992125984252
 20
2.0186771653543309
 30
0.0
 10
0.1502086614173228
 20
2.019031496062992
 30
0.0
 10
0.1502086614173228
 20
2.019031496062992
 30
0.0
 10
0.1502086614173228
 20
2.019031496062992
 30
0.0
 10
0.1502086614173228
 20
2.019031496062992
 30
0.0
 10
0.1334251968503937
 20
2.0194055118110237
 30
0.0
 10
0.1334251968503937
 20
2.0194055118110237
 30
0.0
 10
0.1334251968503937
 20
2.0194055118110237
 30
0.0
 10
0.1334251968503937
 20
2.0194055118110237
 30
0.0
 10
0.1352952755905512
 20
1.2753779527559055
 30
0.0
 10
0.1352952755905512
 20
1.2753779527559055
 30
0.0
 10
0.1352952755905512
 20
1.2753779527559055
 30
0.0
 10
0.1352952755905512
 20
1.2753779527559055
 30
0.0
 10
0.1520787401574803
 20
1.2750039370078741
 30
0.0
 10
0.1520787401574803
 20
1.2750039370078741
 30
0.0
 10
0.1520787401574803
 20
1.2750039370078741
 30
0.0
 10
0.1520787401574803
 20
1.2750039370078741
 30
0.0
 10
0.1681692913385827
 20
1.2746496062992128
 30
0.0
 10
0.1681692913385827
 20
1.2746496062992128
 30
0.0
 10
0.1681692913385827
 20
1.2746496062992128
 30
0.0
 10
0.1681692913385827
 20
1.2746496062992128
 30
0.0
 10
0.1834645669291339
 20
1.2742204724409449
 30
0.0
 10
0.1834645669291339
 20
1.2742204724409449
 30
0.0
  0
SPLINE
  5
40
100
AcDbEntity
  8
Layer 1
 62
   253
100
AcDbSpline
210
0.0
220
0.0
230
1.0
 70
     1
 71
     3
 72
    28
 73
    24
 74
     0
 42
0.0000000001
 43
0.0000000001
 40
0.0
 40
0.0
 40
0.0
 40
0.0
 40
0.1666666666666667
 40
0.1666666666666667
 40
0.1666666666666667
 40
0.1666666666666667
 40
0.3333333333333333
 40
0.3333333333333333
 40
0.3333333333333333
 40
0.3333333333333333
 40
0.5
 40
0.5
 40
0.5
 40
0.5
 40
0.6666666666666666
 40
0.6666666666666666
 40
0.6666666666666666
 40
0.6666666666666666
 40
0.8333333333333333
 40
0.8333333333333333
 40
0.8333333333333333
 40
0.8333333333333333
 40
1.0
 40
1.0
 40
1.0
 40
1.0
 10
0.1352952755905512
 20
1.2753779527559055
 30
0.0
 10
0.1352952755905512
 20
1.2753779527559055
 30
0.0
 10
0.1334251968503937
 20
2.0194055118110237
 30
0.0
 10
0.1334251968503937
 20
2.0194055118110237
 30
0.0
 10
0.1334251968503937
 20
2.0194055118110237
 30
0.0
 10
0.1334251968503937
 20
2.0194055118110237
 30
0.0
 10
0.1160433070866142
 20
2.0198661417322836
 30
0.0
 10
0.1160433070866142
 20
2.0198661417322836
 30
0.0
 10
0.1160433070866142
 20
2.0198661417322836
 30
0.0
 10
0.1160433070866142
 20
2.0198661417322836
 30
0.0
 10
0.0981614173228346
 20
2.0204921259842519
 30
0.0
 10
0.0981614173228346
 20
2.0204921259842519
 30
0.0
 10
0.0981614173228346
 20
2.0204921259842519
 30
0.0
 10
0.0981614173228346
 20
2.0204921259842519
 30
0.0
 10
0.1000314960629921
 20
1.2764645669291339
 30
0.0
 10
0.1000314960629921
 20
1.2764645669291339
 30
0.0
 10
0.1000314960629921
 20
1.2764645669291339
 30
0.0
 10
0.1000314960629921
 20
1.2764645669291339
 30
0.0
 10
0.1179133858267717
 20
1.2758385826771654
 30
0.0
 10
0.1179133858267717
 20
1.2758385826771654
 30
0.0
 10
0.1179133858267717
 20
1.2758385826771654
 30
0.0
 10
0.1179133858267717
 20
1.2758385826771654
 30
0.0
 10
0.1352952755905512
 20
1.2753779527559055
 30
0.0
 10
0.1352952755905512
 20
1.2753779527559055
 30
0.0
  0
SPLINE
  5
41
100
AcDbEntity
  8
Layer 1
 62
   253
100
AcDbSpline
210
0.0
220
0.0
230
1.0
 70
     1
 71
     3
 72
    28
 73
    24
 74
     0
 42
0.0000000001
 43
0.0000000001
 40
0.0
 40
0.0
 40
0.0
 40
0.0
 40
0.1666666666666667
 40
0.1666666666666667
 40
0.1666666666666667
 40
0.1666666666666667
 40
0.3333333333333333
 40
0.3333333333333333
 40
0.3333333333333333
 40
0.3333333333333333
 40
0.5
 40
0.5
 40
0.5
 40
0.5
 40
0.6666666666666666
 40
0.6666666666666666
 40
0.6666666666666666
 40
0.6666666666666666
 40
0.8333333333333333
 40
0.8333333333333333
 40
0.8333333333333333
 40
0.8333333333333333
 40
1.0
 40
1.0
 40
1.0
 40
1.0
 10
0.1000314960629921
 20
1.2764645669291339
 30
0.0
 10
0.1000314960629921
 20
1.2764645669291339
 30
0.0
 10
0.0981614173228346
 20
2.0204921259842519
 30
0.0
 10
0.0981614173228346
 20
2.0204921259842519
 30
0.0
 10
0.0981614173228346
 20
2.0204921259842519
 30
0.0
 10
0.0981614173228346
 20
2.0204921259842519
 30
0.0
 10
0.0798622047244095
 20
2.0213503937007875
 30
0.0
 10
0.0798622047244095
 20
2.0213503937007875
 30
0.0
 10
0.0798622047244095
 20
2.0213503937007875
 30
0.0
 10
0.0798622047244095
 20
2.0213503937007875
 30
0.0
 10
0.061259842519685
 20
2.0225275590551184
 30
0.0
 10
0.061259842519685
 20
2.0225275590551184
 30
0.0
 10
0.061259842519685
 20
2.0225275590551184
 30
0.0
 10
0.061259842519685
 20
2.0225275590551184
 30
0.0
 10
0.0631299212598425
 20
1.2785
 30
0.0
 10
0.0631299212598425
 20
1.2785
 30
0.0
 10
0.0631299212598425
 20
1.2785
 30
0.0
 10
0.0631299212598425
 20
1.2785
 30
0.0
 10
0.0817322834645669
 20
1.2773228346456693
 30
0.0
 10
0.0817322834645669
 20
1.2773228346456693
 30
0.0
 10
0.0817322834645669
 20
1.2773228346456693
 30
0.0
 10
0.0817322834645669
 20
1.2773228346456693
 30
0.0
 10
0.1000314960629921
 20
1.2764645669291339
 30
0.0
 10
0.1000314960629921
 20
1.2764645669291339
 30
0.0
  0
SPLINE
  5
42
100
AcDbEntity
  8
Layer 1
 62
   253
100
AcDbSpline
210
0.0
220
0.0
230
1.0
 70
     1
 71
     3
 72
    28
 73
    24
 74
     0
 42
0.0000000001
 43
0.0000000001
 40
0.0
 40
0.0
 40
0.0
 40
0.0
 40
0.1666666666666667
 40
0.1666666666666667
 40
0.1666666666666667
 40
0.1666666666666667
 40
0.3333333333333333
 40
0.3333333333333333
 40
0.3333333333333333
 40
0.3333333333333333
 40
0.5
 40
0.5
 40
0.5
 40
0.5
 40
0.6666666666666666
 40
0.6666666666666666
 40
0.6666666666666666
 40
0.6666666666666666
 40
0.8333333333333333
 40
0.8333333333333333
 40
0.8333333333333333
 40
0.8333333333333333
 40
1.0
 40
1.0
 40
1.0
 40
1.0
 10
0.0631299212598425
 20
1.2785
 30
0.0
 10
0.0631299212598425
 20
1.2785
 30
0.0
 10
0.061259842519685
 20
2.0225275590551184
 30
0.0
 10
0.061259842519685
 20
2.0225275590551184
 30
0.0
 10
0.061259842519685
 20
2.0225275590551184
 30
0.0
 10
0.061259842519685
 20
2.0225275590551184
 30
0.0
 10
0.0424330708661417
 20
2.0240944881889766
 30
0.0
 10
0.0424330708661417
 20
2.0240944881889766
 30
0.0
 10
0.0424330708661417
 20
2.0240944881889766
 30
0.0
 10
0.0424330708661417
 20
2.0240944881889766
 30
0.0
 10
0.023492125984252
 20
2.0261377952755906
 30
0.0
 10
0.023492125984252
 20
2.0261377952755906
 30
0.0
 10
0.023492125984252
 20
2.0261377952755906
 30
0.0
 10
0.023492125984252
 20
2.0261377952755906
 30
0.0
 10
0.0253622047244094
 20
1.2821102362204726
 30
0.0
 10
0.0253622047244094
 20
1.2821102362204726
 30
0.0
 10
0.0253622047244094
 20
1.2821102362204726
 30
0.0
 10
0.0253622047244094
 20
1.2821102362204726
 30
0.0
 10
0.0443031496062992
 20
1.2800669291338582
 30
0.0
 10
0.0443031496062992
 20
1.2800669291338582
 30
0.0
 10
0.0443031496062992
 20
1.2800669291338582
 30
0.0
 10
0.0443031496062992
 20
1.2800669291338582
 30
0.0
 10
0.0631299212598425
 20
1.2785
 30
0.0
 10
0.0631299212598425
 20
1.2785
 30
0.0
  0
SPLINE
  5
43
100
AcDbEntity
  8
Layer 1
 62
   253
100
AcDbSpline
210
0.0
220
0.0
230
1.0
 70
     1
 71
     3
 72
    28
 73
    24
 74
     0
 42
0.0000000001
 43
0.0000000001
 40
0.0
 40
0.0
 40
0.0
 40
0.0
 40
0.1666666666666667
 40
0.1666666666666667
 40
0.1666666666666667
 40
0.1666666666666667
 40
0.3333333333333333
 40
0.3333333333333333
 40
0.3333333333333333
 40
0.3333333333333333
 40
0.5
 40
0.5
 40
0.5
 40
0.5
 40
0.6666666666666666
 40
0.6666666666666666
 40
0.6666666666666666
 40
0.6666666666666666
 40
0.8333333333333333
 40
0.8333333333333333
 40
0.8333333333333333
 40
0.8333333333333333
 40
1.0
 40
1.0
 40
1.0
 40
1.0
 10
0.0253622047244094
 20
1.2821102362204726
 30
0.0
 10
0.0253622047244094
 20
1.2821102362204726
 30
0.0
 10
0.023492125984252
 20
2.0261377952755906
 30
0.0
 10
0.023492125984252
 20
2.0261377952755906
 30
0.0
 10
0.023492125984252
 20
2.0261377952755906
 30
0.0
 10
0.023492125984252
 20
2.0261377952755906
 30
0.0
 10
0.0045196850393701
 20
2.028716535433071
 30
0.0
 10
0.0045196850393701
 20
2.028716535433071
 30
0.0
 10
0.0045196850393701
 20
2.028716535433071
 30
0.0
 10
0.0045196850393701
 20
2.028716535433071
 30
0.0
 10
-0.0143779527559055
 20
2.0319173228346457
 30
0.0
 10
-0.0143779527559055
 20
2.0319173228346457
 30
0.0
 10
-0.0143779527559055
 20
2.0319173228346457
 30
0.0
 10
-0.0143779527559055
 20
2.0319173228346457
 30
0.0
 10
-0.012507874015748
 20
1.2878897637795277
 30
0.0
 10
-0.012507874015748
 20
1.2878897637795277
 30
0.0
 10
-0.012507874015748
 20
1.2878897637795277
 30
0.0
 10
-0.012507874015748
 20
1.2878897637795277
 30
0.0
 10
0.0063897637795276
 20
1.2846889763779528
 30
0.0
 10
0.0063897637795276
 20
1.2846889763779528
 30
0.0
 10
0.0063897637795276
 20
1.2846889763779528
 30
0.0
 10
0.0063897637795276
 20
1.2846889763779528
 30
0.0
 10
0.0253622047244094
 20
1.2821102362204726
 30
0.0
 10
0.0253622047244094
 20
1.2821102362204726
 30
0.0
  0
SPLINE
  5
44
100
AcDbEntity
  8
Layer 1
 62
   253
100
AcDbSpline
210
0.0
220
0.0
230
1.0
 70
     1
 71
     3
 72
    28
 73
    24
 74
     0
 42
0.0000000001
 43
0.0000000001
 40
0.0
 40
0.0
 40
0.0
 40
0.0
 40
0.1666666666666667
 40
0.1666666666666667
 40
0.1666666666666667
 40
0.1666666666666667
 40
0.3333333333333333
 40
0.3333333333333333
 40
0.3333333333333333
 40
0.3333333333333333
 40
0.5
 40
0.5
 40
0.5
 40
0.5
 40
0.6666666666666666
 40
0.6666666666666666
 40
0.6666666666666666
 40
0.6666666666666666
 40
0.8333333333333333
 40
0.8333333333333333
 40
0.8333333333333333
 40
0.8333333333333333
 40
1.0
 40
1.0
 40
1.0
 40
1.0
 10
-0.012507874015748
 20
1.2878897637795277
 30
0.0
 10
-0.012507874015748
 20
1.2878897637795277
 30
0.0
 10
-0.0143779527559055
 20
2.0319173228346457
 30
0.0
 10
-0.0143779527559055
 20
2.0319173228346457
 30
0.0
 10
-0.0143779527559055
 20
2.0319173228346457
 30
0.0
 10
-0.0143779527559055
 20
2.0319173228346457
 30
0.0
 10
-0.0331141732283465
 20
2.0358110236220472
 30
0.0
 10
-0.0331141732283465
 20
2.0358110236220472
 30
0.0
 10
-0.0331141732283465
 20
2.0358110236220472
 30
0.0
 10
-0.0331141732283465
 20
2.0358110236220472
 30
0.0
 10
-0.0515944881889764
 20
2.040488188976378
 30
0.0
 10
-0.0515944881889764
 20
2.040488188976378
 30
0.0
 10
-0.0515944881889764
 20
2.040488188976378
 30
0.0
 10
-0.0515944881889764
 20
2.040488188976378
 30
0.0
 10
-0.0497244094488189
 20
1.29646062992126
 30
0.0
 10
-0.0497244094488189
 20
1.29646062992126
 30
0.0
 10
-0.0497244094488189
 20
1.29646062992126
 30
0.0
 10
-0.0497244094488189
 20
1.29646062992126
 30
0.0
 10
-0.031244094488189
 20
1.2917834645669293
 30
0.0
 10
-0.031244094488189
 20
1.2917834645669293
 30
0.0
 10
-0.031244094488189
 20
1.2917834645669293
 30
0.0
 10
-0.031244094488189
 20
1.2917834645669293
 30
0.0
 10
-0.012507874015748
 20
1.2878897637795277
 30
0.0
 10
-0.012507874015748
 20
1.2878897637795277
 30
0.0
  0
SPLINE
  5
45
100
AcDbEntity
  8
Layer 1
 62
   253
100
AcDbSpline
210
0.0
220
0.0
230
1.0
 70
     1
 71
     3
 72
    28
 73
    24
 74
     0
 42
0.0000000001
 43
0.0000000001
 40
0.0
 40
0.0
 40
0.0
 40
0.0
 40
0.1666666666666667
 40
0.1666666666666667
 40
0.1666666666666667
 40
0.1666666666666667
 40
0.3333333333333333
 40
0.3333333333333333
 40
0.3333333333333333
 40
0.3333333333333333
 40
0.5
 40
0.5
 40
0.5
 40
0.5
 40
0.6666666666666666
 40
0.6666666666666666
 40
0.6666666666666666
 40
0.6666666666666666
 40
0.8333333333333333
 40
0.8333333333333333
 40
0.8333333333333333
 40
0.8333333333333333
 40
1.0
 40
1.0
 40
1.0
 40
1.0
 10
-0.0497244094488189
 20
1.29646062992126
 30
0.0
 10
-0.0497244094488189
 20
1.29646062992126
 30
0.0
 10
-0.0515944881889764
 20
2.040488188976378
 30
0.0
 10
-0.0515944881889764
 20
2.040488188976378
 30
0.0
 10
-0.0515944881889764
 20
2.040488188976378
 30
0.0
 10
-0.0515944881889764
 20
2.040488188976378
 30
0.0
 10
-0.0697086614173228
 20
2.0460000000000003
 30
0.0
 10
-0.0697086614173228
 20
2.0460000000000003
 30
0.0
 10
-0.0697086614173228
 20
2.0460000000000003
 30
0.0
 10
-0.0697086614173228
 20
2.0460000000000003
 30
0.0
 10
-0.0873858267716535
 20
2.0524409448818899
 30
0.0
 10
-0.0873858267716535
 20
2.0524409448818899
 30
0.0
 10
-0.0873858267716535
 20
2.0524409448818899
 30
0.0
 10
-0.0873858267716535
 20
2.0524409448818899
 30
0.0
 10
-0.0855157480314961
 20
1.3084133858267717
 30
0.0
 10
-0.0855157480314961
 20
1.3084133858267717
 30
0.0
 10
-0.0855157480314961
 20
1.3084133858267717
 30
0.0
 10
-0.0855157480314961
 20
1.3084133858267717
 30
0.0
 10
-0.0678385826771654
 20
1.3019724409448818
 30
0.0
 10
-0.0678385826771654
 20
1.3019724409448818
 30
0.0
 10
-0.0678385826771654
 20
1.3019724409448818
 30
0.0
 10
-0.0678385826771654
 20
1.3019724409448818
 30
0.0
 10
-0.0497244094488189
 20
1.29646062992126
 30
0.0
 10
-0.0497244094488189
 20
1.29646062992126
 30
0.0
  0
SPLINE
  5
46
100
AcDbEntity
  8
Layer 1
 62
     9
100
AcDbSpline
210
0.0
220
0.0
230
1.0
 70
     1
 71
     3
 72
    28
 73
    24
 74
     0
 42
0.0000000001
 43
0.0000000001
 40
0.0
 40
0.0
 40
0.0
 40
0.0
 40
0.1666666666666667
 40
0.1666666666666667
 40
0.1666666666666667
 40
0.1666666666666667
 40
0.3333333333333333
 40
0.3333333333333333
 40
0.3333333333333333
 40
0.3333333333333333
 40
0.5
 40
0.5
 40
0.5
 40
0.5
 40
0.6666666666666666
 40
0.6666666666666666
 40
0.6666666666666666
 40
0.6666666666666666
 40
0.8333333333333333
 40
0.8333333333333333
 40
0.8333333333333333
 40
0.8333333333333333
 40
1.0
 40
1.0
 40
1.0
 40
1.0
 10
-0.0855157480314961
 20
1.3084133858267717
 30
0.0
 10
-0.0855157480314961
 20
1.3084133858267717
 30
0.0
 10
-0.0873858267716535
 20
2.0524409448818899
 30
0.0
 10
-0.0873858267716535
 20
2.0524409448818899
 30
0.0
 10
-0.0873858267716535
 20
2.0524409448818899
 30
0.0
 10
-0.0873858267716535
 20
2.0524409448818899
 30
0.0
 10
-0.104507874015748
 20
2.0598779527559055
 30
0.0
 10
-0.104507874015748
 20
2.0598779527559055
 30
0.0
 10
-0.104507874015748
 20
2.0598779527559055
 30
0.0
 10
-0.104507874015748
 20
2.0598779527559055
 30
0.0
 10
-0.120996062992126
 20
2.0683937007874018
 30
0.0
 10
-0.120996062992126
 20
2.0683937007874018
 30
0.0
 10
-0.120996062992126
 20
2.0683937007874018
 30
0.0
 10
-0.120996062992126
 20
2.0683937007874018
 30
0.0
 10
-0.1191259842519685
 20
1.3243661417322836
 30
0.0
 10
-0.1191259842519685
 20
1.3243661417322836
 30
0.0
 10
-0.1191259842519685
 20
1.3243661417322836
 30
0.0
 10
-0.1191259842519685
 20
1.3243661417322836
 30
0.0
 10
-0.1026377952755906
 20
1.3158503937007875
 30
0.0
 10
-0.1026377952755906
 20
1.3158503937007875
 30
0.0
 10
-0.1026377952755906
 20
1.3158503937007875
 30
0.0
 10
-0.1026377952755906
 20
1.3158503937007875
 30
0.0
 10
-0.0855157480314961
 20
1.3084133858267717
 30
0.0
 10
-0.0855157480314961
 20
1.3084133858267717
 30
0.0
  0
SPLINE
  5
47
100
AcDbEntity
  8
Layer 1
 62
     9
100
AcDbSpline
210
0.0
220
0.0
230
1.0
 70
     1
 71
     3
 72
    28
 73
    24
 74
     0
 42
0.0000000001
 43
0.0000000001
 40
0.0
 40
0.0
 40
0.0
 40
0.0
 40
0.1666666666666667
 40
0.1666666666666667
 40
0.1666666666666667
 40
0.1666666666666667
 40
0.3333333333333333
 40
0.3333333333333333
 40
0.3333333333333333
 40
0.3333333333333333
 40
0.5
 40
0.5
 40
0.5
 40
0.5
 40
0.6666666666666666
 40
0.6666666666666666
 40
0.6666666666666666
 40
0.6666666666666666
 40
0.8333333333333333
 40
0.8333333333333333
 40
0.8333333333333333
 40
0.8333333333333333
 40
1.0
 40
1.0
 40
1.0
 40
1.0
 10
-0.1191259842519685
 20
1.3243661417322836
 30
0.0
 10
-0.1191259842519685
 20
1.3243661417322836
 30
0.0
 10
-0.120996062992126
 20
2.0683937007874018
 30
0.0
 10
-0.120996062992126
 20
2.0683937007874018
 30
0.0
 10
-0.120996062992126
 20
2.0683937007874018
 30
0.0
 10
-0.120996062992126
 20
2.0683937007874018
 30
0.0
 10
-0.1367362204724409
 20
2.0780551181102362
 30
0.0
 10
-0.1367362204724409
 20
2.0780551181102362
 30
0.0
 10
-0.1367362204724409
 20
2.0780551181102362
 30
0.0
 10
-0.1367362204724409
 20
2.0780551181102362
 30
0.0
 10
-0.1516535433070866
 20
2.0889527559055119
 30
0.0
 10
-0.1516535433070866
 20
2.0889527559055119
 30
0.0
 10
-0.1516535433070866
 20
2.0889527559055119
 30
0.0
 10
-0.1516535433070866
 20
2.0889527559055119
 30
0.0
 10
-0.1497834645669292
 20
1.3449251968503937
 30
0.0
 10
-0.1497834645669292
 20
1.3449251968503937
 30
0.0
 10
-0.1497834645669292
 20
1.3449251968503937
 30
0.0
 10
-0.1497834645669292
 20
1.3449251968503937
 30
0.0
 10
-0.1348661417322835
 20
1.3340275590551181
 30
0.0
 10
-0.1348661417322835
 20
1.3340275590551181
 30
0.0
 10
-0.1348661417322835
 20
1.3340275590551181
 30
0.0
 10
-0.1348661417322835
 20
1.3340275590551181
 30
0.0
 10
-0.1191259842519685
 20
1.3243661417322836
 30
0.0
 10
-0.1191259842519685
 20
1.3243661417322836
 30
0.0
  0
SPLINE
  5
48
100
AcDbEntity
  8
Layer 1
 62
     9
100
AcDbSpline
210
0.0
220
0.0
230
1.0
 70
     1
 71
     3
 72
    28
 73
    24
 74
     0
 42
0.0000000001
 43
0.0000000001
 40
0.0
 40
0.0
 40
0.0
 40
0.0
 40
0.1666666666666667
 40
0.1666666666666667
 40
0.1666666666666667
 40
0.1666666666666667
 40
0.3333333333333333
 40
0.3333333333333333
 40
0.3333333333333333
 40
0.3333333333333333
 40
0.5
 40
0.5
 40
0.5
 40
0.5
 40
0.6666666666666666
 40
0.6666666666666666
 40
0.6666666666666666
 40
0.6666666666666666
 40
0.8333333333333333
 40
0.8333333333333333
 40
0.8333333333333333
 40
0.8333333333333333
 40
1.0
 40
1.0
 40
1.0
 40
1.0
 10
-0.1497834645669292
 20
1.3449251968503937
 30
0.0
 10
-0.1497834645669292
 20
1.3449251968503937
 30
0.0
 10
-0.1516535433070866
 20
2.0889527559055119
 30
0.0
 10
-0.1516535433070866
 20
2.0889527559055119
 30
0.0
 10
-0.1516535433070866
 20
2.0889527559055119
 30
0.0
 10
-0.1516535433070866
 20
2.0889527559055119
 30
0.0
 10
-0.1656377952755906
 20
2.1011535433070865
 30
0.0
 10
-0.1656377952755906
 20
2.1011535433070865
 30
0.0
 10
-0.1656377952755906
 20
2.1011535433070865
 30
0.0
 10
-0.1656377952755906
 20
2.1011535433070865
 30
0.0
 10
-0.1786062992125984
 20
2.1147401574803149
 30
0.0
 10
-0.1786062992125984
 20
2.1147401574803149
 30
0.0
 10
-0.1786062992125984
 20
2.1147401574803149
 30
0.0
 10
-0.1786062992125984
 20
2.1147401574803149
 30
0.0
 10
-0.176736220472441
 20
1.3707125984251969
 30
0.0
 10
-0.176736220472441
 20
1.3707125984251969
 30
0.0
 10
-0.176736220472441
 20
1.3707125984251969
 30
0.0
 10
-0.176736220472441
 20
1.3707125984251969
 30
0.0
 10
-0.1637677165354331
 20
1.3571259842519685
 30
0.0
 10
-0.1637677165354331
 20
1.3571259842519685
 30
0.0
 10
-0.1637677165354331
 20
1.3571259842519685
 30
0.0
 10
-0.1637677165354331
 20
1.3571259842519685
 30
0.0
 10
-0.1497834645669292
 20
1.3449251968503937
 30
0.0
 10
-0.1497834645669292
 20
1.3449251968503937
 30
0.0
  0
SPLINE
  5
49
100
AcDbEntity
  8
Layer 1
 62
     9
100
AcDbSpline
210
0.0
220
0.0
230
1.0
 70
     1
 71
     3
 72
    28
 73
    24
 74
     0
 42
0.0000000001
 43
0.0000000001
 40
0.0
 40
0.0
 40
0.0
 40
0.0
 40
0.1666666666666667
 40
0.1666666666666667
 40
0.1666666666666667
 40
0.1666666666666667
 40
0.3333333333333333
 40
0.3333333333333333
 40
0.3333333333333333
 40
0.3333333333333333
 40
0.5
 40
0.5
 40
0.5
 40
0.5
 40
0.6666666666666666
 40
0.6666666666666666
 40
0.6666666666666666
 40
0.6666666666666666
 40
0.8333333333333333
 40
0.8333333333333333
 40
0.8333333333333333
 40
0.8333333333333333
 40
1.0
 40
1.0
 40
1.0
 40
1.0
 10
-0.176736220472441
 20
1.3707125984251969
 30
0.0
 10
-0.176736220472441
 20
1.3707125984251969
 30
0.0
 10
-0.1786062992125984
 20
2.1147401574803149
 30
0.0
 10
-0.1786062992125984
 20
2.1147401574803149
 30
0.0
 10
-0.1786062992125984
 20
2.1147401574803149
 30
0.0
 10
-0.1786062992125984
 20
2.1147401574803149
 30
0.0
 10
-0.1904448818897638
 20
2.1297716535433073
 30
0.0
 10
-0.1904448818897638
 20
2.1297716535433073
 30
0.0
 10
-0.1904448818897638
 20
2.1297716535433073
 30
0.0
 10
-0.1904448818897638
 20
2.1297716535433073
 30
0.0
 10
-0.2010787401574803
 20
2.1463425196850396
 30
0.0
 10
-0.2010787401574803
 20
2.1463425196850396
 30
0.0
 10
-0.2010787401574803
 20
2.1463425196850396
 30
0.0
 10
-0.2010787401574803
 20
2.1463425196850396
 30
0.0
 10
-0.1992086614173229
 20
1.4023149606299212
 30
0.0
 10
-0.1992086614173229
 20
1.4023149606299212
 30
0.0
 10
-0.1992086614173229
 20
1.4023149606299212
 30
0.0
 10
-0.1992086614173229
 20
1.4023149606299212
 30
0.0
 10
-0.1885748031496063
 20
1.3857440944881891
 30
0.0
 10
-0.1885748031496063
 20
1.3857440944881891
 30
0.0
 10
-0.1885748031496063
 20
1.3857440944881891
 30
0.0
 10
-0.1885748031496063
 20
1.3857440944881891
 30
0.0
 10
-0.176736220472441
 20
1.3707125984251969
 30
0.0
 10
-0.176736220472441
 20
1.3707125984251969
 30
0.0
  0
SPLINE
  5
4A
100
AcDbEntity
  8
Layer 1
 62
     9
100
AcDbSpline
210
0.0
220
0.0
230
1.0
 70
     1
 71
     3
 72
    28
 73
    24
 74
     0
 42
0.0000000001
 43
0.0000000001
 40
0.0
 40
0.0
 40
0.0
 40
0.0
 40
0.1666666666666667
 40
0.1666666666666667
 40
0.1666666666666667
 40
0.1666666666666667
 40
0.3333333333333333
 40
0.3333333333333333
 40
0.3333333333333333
 40
0.3333333333333333
 40
0.5
 40
0.5
 40
0.5
 40
0.5
 40
0.6666666666666666
 40
0.6666666666666666
 40
0.6666666666666666
 40
0.6666666666666666
 40
0.8333333333333333
 40
0.8333333333333333
 40
0.8333333333333333
 40
0.8333333333333333
 40
1.0
 40
1.0
 40
1.0
 40
1.0
 10
-0.1992086614173229
 20
1.4023149606299212
 30
0.0
 10
-0.1992086614173229
 20
1.4023149606299212
 30
0.0
 10
-0.2010787401574803
 20
2.1463425196850396
 30
0.0
 10
-0.2010787401574803
 20
2.1463425196850396
 30
0.0
 10
-0.2010787401574803
 20
2.1463425196850396
 30
0.0
 10
-0.2010787401574803
 20
2.1463425196850396
 30
0.0
 10
-0.2103976377952756
 20
2.16451968503937
 30
0.0
 10
-0.2103976377952756
 20
2.16451968503937
 30
0.0
 10
-0.2103976377952756
 20
2.16451968503937
 30
0.0
 10
-0.2103976377952756
 20
2.16451968503937
 30
0.0
 10
-0.2183149606299213
 20
2.1843818897637797
 30
0.0
 10
-0.2183149606299213
 20
2.1843818897637797
 30
0.0
 10
-0.2183149606299213
 20
2.1843818897637797
 30
0.0
 10
-0.2183149606299213
 20
2.1843818897637797
 30
0.0
 10
-0.2164448818897638
 20
1.4403543307086615
 30
0.0
 10
-0.2164448818897638
 20
1.4403543307086615
 30
0.0
 10
-0.2164448818897638
 20
1.4403543307086615
 30
0.0
 10
-0.2164448818897638
 20
1.4403543307086615
 30
0.0
 10
-0.2085275590551181
 20
1.420492125984252
 30
0.0
 10
-0.2085275590551181
 20
1.420492125984252
 30
0.0
 10
-0.2085275590551181
 20
1.420492125984252
 30
0.0
 10
-0.2085275590551181
 20
1.420492125984252
 30
0.0
 10
-0.1992086614173229
 20
1.4023149606299212
 30
0.0
 10
-0.1992086614173229
 20
1.4023149606299212
 30
0.0
  0
SPLINE
  5
4B
100
AcDbEntity
  8
Layer 1
 62
     9
100
AcDbSpline
210
0.0
220
0.0
230
1.0
 70
     1
 71
     3
 72
    28
 73
    24
 74
     0
 42
0.0000000001
 43
0.0000000001
 40
0.0
 40
0.0
 40
0.0
 40
0.0
 40
0.1666666666666667
 40
0.1666666666666667
 40
0.1666666666666667
 40
0.1666666666666667
 40
0.3333333333333333
 40
0.3333333333333333
 40
0.3333333333333333
 40
0.3333333333333333
 40
0.5
 40
0.5
 40
0.5
 40
0.5
 40
0.6666666666666666
 40
0.6666666666666666
 40
0.6666666666666666
 40
0.6666666666666666
 40
0.8333333333333333
 40
0.8333333333333333
 40
0.8333333333333333
 40
0.8333333333333333
 40
1.0
 40
1.0
 40
1.0
 40
1.0
 10
-0.2164448818897638
 20
1.4403543307086615
 30
0.0
 10
-0.2164448818897638
 20
1.4403543307086615
 30
0.0
 10
-0.2183149606299213
 20
2.1843818897637797
 30
0.0
 10
-0.2183149606299213
 20
2.1843818897637797
 30
0.0
 10
-0.2183149606299213
 20
2.1843818897637797
 30
0.0
 10
-0.2183149606299213
 20
2.1843818897637797
 30
0.0
 10
-0.2247283464566929
 20
2.206
 30
0.0
 10
-0.2247283464566929
 20
2.206
 30
0.0
 10
-0.2247283464566929
 20
2.206
 30
0.0
 10
-0.2247283464566929
 20
2.206
 30
0.0
 10
-0.2295472440944882
 20
2.22946062992126
 30
0.0
 10
-0.2295472440944882
 20
2.22946062992126
 30
0.0
 10
-0.2295472440944882
 20
2.22946062992126
 30
0.0
 10
-0.2295472440944882
 20
2.22946062992126
 30
0.0
 10
-0.2276771653543307
 20
1.4854330708661418
 30
0.0
 10
-0.2276771653543307
 20
1.4854330708661418
 30
0.0
 10
-0.2276771653543307
 20
1.4854330708661418
 30
0.0
 10
-0.2276771653543307
 20
1.4854330708661418
 30
0.0
 10
-0.2228582677165354
 20
1.461972440944882
 30
0.0
 10
-0.2228582677165354
 20
1.461972440944882
 30
0.0
 10
-0.2228582677165354
 20
1.461972440944882
 30
0.0
 10
-0.2228582677165354
 20
1.461972440944882
 30
0.0
 10
-0.2164448818897638
 20
1.4403543307086615
 30
0.0
 10
-0.2164448818897638
 20
1.4403543307086615
 30
0.0
  0
SPLINE
  5
4C
100
AcDbEntity
  8
Layer 1
 62
   253
100
AcDbSpline
210
0.0
220
0.0
230
1.0
 70
     1
 71
     3
 72
    20
 73
    16
 74
     0
 42
0.0000000001
 43
0.0000000001
 40
0.0
 40
0.0
 40
0.0
 40
0.0
 40
0.25
 40
0.25
 40
0.25
 40
0.25
 40
0.5
 40
0.5
 40
0.5
 40
0.5
 40
0.75
 40
0.75
 40
0.75
 40
0.75
 40
1.0
 40
1.0
 40
1.0
 40
1.0
 10
-0.2276771653543307
 20
1.4854330708661418
 30
0.0
 10
-0.2276771653543307
 20
1.4854330708661418
 30
0.0
 10
-0.2295472440944882
 20
2.22946062992126
 30
0.0
 10
-0.2295472440944882
 20
2.22946062992126
 30
0.0
 10
-0.2295472440944882
 20
2.22946062992126
 30
0.0
 10
-0.2295472440944882
 20
2.22946062992126
 30
0.0
 10
-0.2326732283464567
 20
2.2548307086614172
 30
0.0
 10
-0.2326732283464567
 20
2.2548307086614172
 30
0.0
 10
-0.2326732283464567
 20
2.2548307086614172
 30
0.0
 10
-0.2326732283464567
 20
2.2548307086614172
 30
0.0
 10
-0.2308031496062992
 20
1.5108031496062992
 30
0.0
 10
-0.2308031496062992
 20
1.5108031496062992
 30
0.0
 10
-0.2308031496062992
 20
1.5108031496062992
 30
0.0
 10
-0.2308031496062992
 20
1.5108031496062992
 30
0.0
 10
-0.2276771653543307
 20
1.4854330708661418
 30
0.0
 10
-0.2276771653543307
 20
1.4854330708661418
 30
0.0
  0
SPLINE
  5
4D
100
AcDbEntity
  8
Layer 1
 62
   253
100
AcDbSpline
210
0.0
220
0.0
230
1.0
 70
     1
 71
     3
 72
    20
 73
    16
 74
     0
 42
0.0000000001
 43
0.0000000001
 40
0.0
 40
0.0
 40
0.0
 40
0.0
 40
0.25
 40
0.25
 40
0.25
 40
0.25
 40
0.5
 40
0.5
 40
0.5
 40
0.5
 40
0.75
 40
0.75
 40
0.75
 40
0.75
 40
1.0
 40
1.0
 40
1.0
 40
1.0
 10
-0.2308031496062992
 20
1.5108031496062992
 30
0.0
 10
-0.2308031496062992
 20
1.5108031496062992
 30
0.0
 10
-0.2326732283464567
 20
2.2548307086614172
 30
0.0
 10
-0.2326732283464567
 20
2.2548307086614172
 30
0.0
 10
-0.2326732283464567
 20
2.2548307086614172
 30
0.0
 10
-0.2326732283464567
 20
2.2548307086614172
 30
0.0
 10
-0.2340196850393701
 20
2.2821968503937007
 30
0.0
 10
-0.2340196850393701
 20
2.2821968503937007
 30
0.0
 10
-0.2340196850393701
 20
2.2821968503937007
 30
0.0
 10
-0.2340196850393701
 20
2.2821968503937007
 30
0.0
 10
-0.2321496062992126
 20
1.5381692913385827
 30
0.0
 10
-0.2321496062992126
 20
1.5381692913385827
 30
0.0
 10
-0.2321496062992126
 20
1.5381692913385827
 30
0.0
 10
-0.2321496062992126
 20
1.5381692913385827
 30
0.0
 10
-0.2308031496062992
 20
1.5108031496062992
 30
0.0
 10
-0.2308031496062992
 20
1.5108031496062992
 30
0.0
  0
SPLINE
  5
4E
100
AcDbEntity
  8
Layer 1
370
     5
100
AcDbSpline
210
0.0
220
0.0
230
1.0
 70
     1
 71
     3
 72
   524
 73
   520
 74
     0
 42
0.0000000001
 43
0.0000000001
 40
0.0
 40
0.0
 40
0.0
 40
0.0
 40
0.0076923076923077
 40
0.0076923076923077
 40
0.0076923076923077
 40
0.0076923076923077
 40
0.0153846153846154
 40
0.0153846153846154
 40
0.0153846153846154
 40
0.0153846153846154
 40
0.0230769230769231
 40
0.0230769230769231
 40
0.0230769230769231
 40
0.0230769230769231
 40
0.0307692307692308
 40
0.0307692307692308
 40
0.0307692307692308
 40
0.0307692307692308
 40
0.0384615384615385
 40
0.0384615384615385
 40
0.0384615384615385
 40
0.0384615384615385
 40
0.0461538461538462
 40
0.0461538461538462
 40
0.0461538461538462
 40
0.0461538461538462
 40
0.0538461538461538
 40
0.0538461538461538
 40
0.0538461538461538
 40
0.0538461538461538
 40
0.0615384615384615
 40
0.0615384615384615
 40
0.0615384615384615
 40
0.0615384615384615
 40
0.0692307692307692
 40
0.0692307692307692
 40
0.0692307692307692
 40
0.0692307692307692
 40
0.0769230769230769
 40
0.0769230769230769
 40
0.0769230769230769
 40
0.0769230769230769
 40
0.0846153846153846
 40
0.0846153846153846
 40
0.0846153846153846
 40
0.0846153846153846
 40
0.0923076923076923
 40
0.0923076923076923
 40
0.0923076923076923
 40
0.0923076923076923
 40
0.1
 40
0.1
 40
0.1
 40
0.1
 40
0.1076923076923077
 40
0.1076923076923077
 40
0.1076923076923077
 40
0.1076923076923077
 40
0.1153846153846154
 40
0.1153846153846154
 40
0.1153846153846154
 40
0.1153846153846154
 40
0.1230769230769231
 40
0.1230769230769231
 40
0.1230769230769231
 40
0.1230769230769231
 40
0.1307692307692308
 40
0.1307692307692308
 40
0.1307692307692308
 40
0.1307692307692308
 40
0.1384615384615385
 40
0.1384615384615385
 40
0.1384615384615385
 40
0.1384615384615385
 40
0.1461538461538462
 40
0.1461538461538462
 40
0.1461538461538462
 40
0.1461538461538462
 40
0.1538461538461539
 40
0.1538461538461539
 40
0.1538461538461539
 40
0.1538461538461539
 40
0.1615384615384616
 40
0.1615384615384616
 40
0.1615384615384616
 40
0.1615384615384616
 40
0.1692307692307692
 40
0.1692307692307692
 40
0.1692307692307692
 40
0.1692307692307692
 40
0.1769230769230769
 40
0.1769230769230769
 40
0.1769230769230769
 40
0.1769230769230769
 40
0.1846153846153846
 40
0.1846153846153846
 40
0.1846153846153846
 40
0.1846153846153846
 40
0.1923076923076923
 40
0.1923076923076923
 40
0.1923076923076923
 40
0.1923076923076923
 40
0.2
 40
0.2
 40
0.2
 40
0.2
 40
0.2076923076923077
 40
0.2076923076923077
 40
0.2076923076923077
 40
0.2076923076923077
 40
0.2153846153846154
 40
0.2153846153846154
 40
0.2153846153846154
 40
0.2153846153846154
 40
0.2230769230769231
 40
0.2230769230769231
 40
0.2230769230769231
 40
0.2230769230769231
 40
0.2307692307692308
 40
0.2307692307692308
 40
0.2307692307692308
 40
0.2307692307692308
 40
0.2384615384615385
 40
0.2384615384615385
 40
0.2384615384615385
 40
0.2384615384615385
 40
0.2461538461538462
 40
0.2461538461538462
 40
0.2461538461538462
 40
0.2461538461538462
 40
0.2538461538461538
 40
0.2538461538461538
 40
0.2538461538461538
 40
0.2538461538461538
 40
0.2615384615384615
 40
0.2615384615384615
 40
0.2615384615384615
 40
0.2615384615384615
 40
0.2692307692307692
 40
0.2692307692307692
 40
0.2692307692307692
 40
0.2692307692307692
 40
0.2769230769230768
 40
0.2769230769230768
 40
0.2769230769230768
 40
0.2769230769230768
 40
0.2846153846153845
 40
0.2846153846153845
 40
0.2846153846153845
 40
0.2846153846153845
 40
0.2923076923076922
 40
0.2923076923076922
 40
0.2923076923076922
 40
0.2923076923076922
 40
0.2999999999999998
 40
0.2999999999999998
 40
0.2999999999999998
 40
0.2999999999999998
 40
0.3076923076923075
 40
0.3076923076923075
 40
0.3076923076923075
 40
0.3076923076923075
 40
0.3153846153846152
 40
0.3153846153846152
 40
0.3153846153846152
 40
0.3153846153846152
 40
0.3230769230769228
 40
0.3230769230769228
 40
0.3230769230769228
 40
0.3230769230769228
 40
0.3307692307692305
 40
0.3307692307692305
 40
0.3307692307692305
 40
0.3307692307692305
 40
0.3384615384615382
 40
0.3384615384615382
 40
0.3384615384615382
 40
0.3384615384615382
 40
0.3461538461538458
 40
0.3461538461538458
 40
0.3461538461538458
 40
0.3461538461538458
 40
0.3538461538461535
 40
0.3538461538461535
 40
0.3538461538461535
 40
0.3538461538461535
 40
0.3615384615384611
 40
0.3615384615384611
 40
0.3615384615384611
 40
0.3615384615384611
 40
0.3692307692307688
 40
0.3692307692307688
 40
0.3692307692307688
 40
0.3692307692307688
 40
0.3769230769230765
 40
0.3769230769230765
 40
0.3769230769230765
 40
0.3769230769230765
 40
0.3846153846153841
 40
0.3846153846153841
 40
0.3846153846153841
 40
0.3846153846153841
 40
0.3923076923076918
 40
0.3923076923076918
 40
0.3923076923076918
 40
0.3923076923076918
 40
0.3999999999999995
 40
0.3999999999999995
 40
0.3999999999999995
 40
0.3999999999999995
 40
0.4076923076923071
 40
0.4076923076923071
 40
0.4076923076923071
 40
0.4076923076923071
 40
0.4153846153846148
 40
0.4153846153846148
 40
0.4153846153846148
 40
0.4153846153846148
 40
0.4230769230769225
 40
0.4230769230769225
 40
0.4230769230769225
 40
0.4230769230769225
 40
0.4307692307692301
 40
0.4307692307692301
 40
0.4307692307692301
 40
0.4307692307692301
 40
0.4384615384615378
 40
0.4384615384615378
 40
0.4384615384615378
 40
0.4384615384615378
 40
0.4461538461538455
 40
0.4461538461538455
 40
0.4461538461538455
 40
0.4461538461538455
 40
0.4538461538461531
 40
0.4538461538461531
 40
0.4538461538461531
 40
0.4538461538461531
 40
0.4615384615384608
 40
0.4615384615384608
 40
0.4615384615384608
 40
0.4615384615384608
 40
0.4692307692307685
 40
0.4692307692307685
 40
0.4692307692307685
 40
0.4692307692307685
 40
0.4769230769230761
 40
0.4769230769230761
 40
0.4769230769230761
 40
0.4769230769230761
 40
0.4846153846153838
 40
0.4846153846153838
 40
0.4846153846153838
 40
0.4846153846153838
 40
0.4923076923076915
 40
0.4923076923076915
 40
0.4923076923076915
 40
0.4923076923076915
 40
0.4999999999999991
 40
0.4999999999999991
 40
0.4999999999999991
 40
0.4999999999999991
 40
0.5076923076923068
 40
0.5076923076923068
 40
0.5076923076923068
 40
0.5076923076923068
 40
0.5153846153846144
 40
0.5153846153846144
 40
0.5153846153846144
 40
0.5153846153846144
 40
0.5230769230769221
 40
0.5230769230769221
 40
0.5230769230769221
 40
0.5230769230769221
 40
0.5307692307692298
 40
0.5307692307692298
 40
0.5307692307692298
 40
0.5307692307692298
 40
0.5384615384615374
 40
0.5384615384615374
 40
0.5384615384615374
 40
0.5384615384615374
 40
0.5461538461538451
 40
0.5461538461538451
 40
0.5461538461538451
 40
0.5461538461538451
 40
0.5538461538461528
 40
0.5538461538461528
 40
0.5538461538461528
 40
0.5538461538461528
 40
0.5615384615384604
 40
0.5615384615384604
 40
0.5615384615384604
 40
0.5615384615384604
 40
0.5692307692307681
 40
0.5692307692307681
 40
0.5692307692307681
 40
0.5692307692307681
 40
0.5769230769230758
 40
0.5769230769230758
 40
0.5769230769230758
 40
0.5769230769230758
 40
0.5846153846153834
 40
0.5846153846153834
 40
0.5846153846153834
 40
0.5846153846153834
 40
0.5923076923076911
 40
0.5923076923076911
 40
0.5923076923076911
 40
0.5923076923076911
 40
0.5999999999999988
 40
0.5999999999999988
 40
0.5999999999999988
 40
0.5999999999999988
 40
0.6076923076923064
 40
0.6076923076923064
 40
0.6076923076923064
 40
0.6076923076923064
 40
0.6153846153846141
 40
0.6153846153846141
 40
0.6153846153846141
 40
0.6153846153846141
 40
0.6230769230769218
 40
0.6230769230769218
 40
0.6230769230769218
 40
0.6230769230769218
 40
0.6307692307692294
 40
0.6307692307692294
 40
0.6307692307692294
 40
0.6307692307692294
 40
0.6384615384615371
 40
0.6384615384615371
 40
0.6384615384615371
 40
0.6384615384615371
 40
0.6461538461538448
 40
0.6461538461538448
 40
0.6461538461538448
 40
0.6461538461538448
 40
0.6538461538461524
 40
0.6538461538461524
 40
0.6538461538461524
 40
0.6538461538461524
 40
0.6615384615384601
 40
0.6615384615384601
 40
0.6615384615384601
 40
0.6615384615384601
 40
0.6692307692307677
 40
0.6692307692307677
 40
0.6692307692307677
 40
0.6692307692307677
 40
0.6769230769230754
 40
0.6769230769230754
 40
0.6769230769230754
 40
0.6769230769230754
 40
0.6846153846153831
 40
0.6846153846153831
 40
0.6846153846153831
 40
0.6846153846153831
 40
0.6923076923076907
 40
0.6923076923076907
 40
0.6923076923076907
 40
0.6923076923076907
 40
0.6999999999999984
 40
0.6999999999999984
 40
0.6999999999999984
 40
0.6999999999999984
 40
0.7076923076923061
 40
0.7076923076923061
 40
0.7076923076923061
 40
0.7076923076923061
 40
0.7153846153846137
 40
0.7153846153846137
 40
0.7153846153846137
 40
0.7153846153846137
 40
0.7230769230769214
 40
0.7230769230769214
 40
0.7230769230769214
 40
0.7230769230769214
 40
0.7307692307692291
 40
0.7307692307692291
 40
0.7307692307692291
 40
0.7307692307692291
 40
0.7384615384615367
 40
0.7384615384615367
 40
0.7384615384615367
 40
0.7384615384615367
 40
0.7461538461538444
 40
0.7461538461538444
 40
0.7461538461538444
 40
0.7461538461538444
 40
0.7538461538461521
 40
0.7538461538461521
 40
0.7538461538461521
 40
0.7538461538461521
 40
0.7615384615384597
 40
0.7615384615384597
 40
0.7615384615384597
 40
0.7615384615384597
 40
0.7692307692307674
 40
0.7692307692307674
 40
0.7692307692307674
 40
0.7692307692307674
 40
0.7769230769230751
 40
0.7769230769230751
 40
0.7769230769230751
 40
0.7769230769230751
 40
0.7846153846153827
 40
0.7846153846153827
 40
0.7846153846153827
 40
0.7846153846153827
 40
0.7923076923076904
 40
0.7923076923076904
 40
0.7923076923076904
 40
0.7923076923076904
 40
0.7999999999999981
 40
0.7999999999999981
 40
0.7999999999999981
 40
0.7999999999999981
 40
0.8076923076923057
 40
0.8076923076923057
 40
0.8076923076923057
 40
0.8076923076923057
 40
0.8153846153846134
 40
0.8153846153846134
 40
0.8153846153846134
 40
0.8153846153846134
 40
0.823076923076921
 40
0.823076923076921
 40
0.823076923076921
 40
0.823076923076921
 40
0.8307692307692287
 40
0.8307692307692287
 40
0.8307692307692287
 40
0.8307692307692287
 40
0.8384615384615364
 40
0.8384615384615364
 40
0.8384615384615364
 40
0.8384615384615364
 40
0.846153846153844
 40
0.846153846153844
 40
0.846153846153844
 40
0.846153846153844
 40
0.8538461538461517
 40
0.8538461538461517
 40
0.8538461538461517
 40
0.8538461538461517
 40
0.8615384615384594
 40
0.8615384615384594
 40
0.8615384615384594
 40
0.8615384615384594
 40
0.869230769230767
 40
0.869230769230767
 40
0.869230769230767
 40
0.869230769230767
 40
0.8769230769230747
 40
0.8769230769230747
 40
0.8769230769230747
 40
0.8769230769230747
 40
0.8846153846153824
 40
0.8846153846153824
 40
0.8846153846153824
 40
0.8846153846153824
 40
0.89230769230769
 40
0.89230769230769
 40
0.89230769230769
 40
0.89230769230769
 40
0.8999999999999977
 40
0.8999999999999977
 40
0.8999999999999977
 40
0.8999999999999977
 40
0.9076923076923054
 40
0.9076923076923054
 40
0.9076923076923054
 40
0.9076923076923054
 40
0.915384615384613
 40
0.915384615384613
 40
0.915384615384613
 40
0.915384615384613
 40
0.9230769230769207
 40
0.9230769230769207
 40
0.9230769230769207
 40
0.9230769230769207
 40
0.9307692307692284
 40
0.9307692307692284
 40
0.9307692307692284
 40
0.9307692307692284
 40
0.938461538461536
 40
0.938461538461536
 40
0.938461538461536
 40
0.938461538461536
 40
0.9461538461538437
 40
0.9461538461538437
 40
0.9461538461538437
 40
0.9461538461538437
 40
0.9538461538461514
 40
0.9538461538461514
 40
0.9538461538461514
 40
0.9538461538461514
 40
0.961538461538459
 40
0.961538461538459
 40
0.961538461538459
 40
0.961538461538459
 40
0.9692307692307667
 40
0.9692307692307667
 40
0.9692307692307667
 40
0.9692307692307667
 40
0.9769230769230743
 40
0.9769230769230743
 40
0.9769230769230743
 40
0.9769230769230743
 40
0.984615384615382
 40
0.984615384615382
 40
0.984615384615382
 40
0.984615384615382
 40
0.9923076923076897
 40
0.9923076923076897
 40
0.9923076923076897
 40
0.9923076923076897
 40
1.0
 40
1.0
 40
1.0
 40
1.0
 10
0.6739527559055119
 20
1.1144330708661419
 30
0.0
 10
0.6739527559055119
 20
1.1144330708661419
 30
0.0
 10
0.6720826771653543
 20
1.8584606299212598
 30
0.0
 10
0.6720826771653543
 20
1.8584606299212598
 30
0.0
 10
0.6720826771653543
 20
1.8584606299212598
 30
0.0
 10
0.6720826771653543
 20
1.8584606299212598
 30
0.0
 10
0.6458464566929134
 20
1.8593976377952757
 30
0.0
 10
0.6458464566929134
 20
1.8593976377952757
 30
0.0
 10
0.6458464566929134
 20
1.8593976377952757
 30
0.0
 10
0.6458464566929134
 20
1.8593976377952757
 30
0.0
 10
0.6216062992125985
 20
1.8610039370078741
 30
0.0
 10
0.6216062992125985
 20
1.8610039370078741
 30
0.0
 10
0.6216062992125985
 20
1.8610039370078741
 30
0.0
 10
0.6216062992125985
 20
1.8610039370078741
 30
0.0
 10
0.599240157480315
 20
1.8632322834645669
 30
0.0
 10
0.599240157480315
 20
1.8632322834645669
 30
0.0
 10
0.599240157480315
 20
1.8632322834645669
 30
0.0
 10
0.599240157480315
 20
1.8632322834645669
 30
0.0
 10
0.5786259842519685
 20
1.8660511811023623
 30
0.0
 10
0.5786259842519685
 20
1.8660511811023623
 30
0.0
 10
0.5786259842519685
 20
1.8660511811023623
 30
0.0
 10
0.5786259842519685
 20
1.8660511811023623
 30
0.0
 10
0.5596377952755905
 20
1.8694015748031496
 30
0.0
 10
0.5596377952755905
 20
1.8694015748031496
 30
0.0
 10
0.5596377952755905
 20
1.8694015748031496
 30
0.0
 10
0.5596377952755905
 20
1.8694015748031496
 30
0.0
 10
0.5421614173228346
 20
1.8732598425196851
 30
0.0
 10
0.5421614173228346
 20
1.8732598425196851
 30
0.0
 10
0.5421614173228346
 20
1.8732598425196851
 30
0.0
 10
0.5421614173228346
 20
1.8732598425196851
 30
0.0
 10
0.5260708661417323
 20
1.8775787401574804
 30
0.0
 10
0.5260708661417323
 20
1.8775787401574804
 30
0.0
 10
0.5260708661417323
 20
1.8775787401574804
 30
0.0
 10
0.5260708661417323
 20
1.8775787401574804
 30
0.0
 10
0.511255905511811
 20
1.8823188976377954
 30
0.0
 10
0.511255905511811
 20
1.8823188976377954
 30
0.0
 10
0.511255905511811
 20
1.8823188976377954
 30
0.0
 10
0.511255905511811
 20
1.8823188976377954
 30
0.0
 10
0.4975787401574803
 20
1.8874291338582678
 30
0.0
 10
0.4975787401574803
 20
1.8874291338582678
 30
0.0
 10
0.4975787401574803
 20
1.8874291338582678
 30
0.0
 10
0.4975787401574803
 20
1.8874291338582678
 30
0.0
 10
0.4849330708661417
 20
1.8928818897637796
 30
0.0
 10
0.4849330708661417
 20
1.8928818897637796
 30
0.0
 10
0.4849330708661417
 20
1.8928818897637796
 30
0.0
 10
0.4849330708661417
 20
1.8928818897637796
 30
0.0
 10
0.4731889763779528
 20
1.8986299212598425
 30
0.0
 10
0.4731889763779528
 20
1.8986299212598425
 30
0.0
 10
0.4731889763779528
 20
1.8986299212598425
 30
0.0
 10
0.4731889763779528
 20
1.8986299212598425
 30
0.0
 10
0.462232283464567
 20
1.9046417322834646
 30
0.0
 10
0.462232283464567
 20
1.9046417322834646
 30
0.0
 10
0.462232283464567
 20
1.9046417322834646
 30
0.0
 10
0.462232283464567
 20
1.9046417322834646
 30
0.0
 10
0.4519370078740158
 20
1.9108622047244095
 30
0.0
 10
0.4519370078740158
 20
1.9108622047244095
 30
0.0
 10
0.4519370078740158
 20
1.9108622047244095
 30
0.0
 10
0.4519370078740158
 20
1.9108622047244095
 30
0.0
 10
0.4421889763779528
 20
1.9172637795275591
 30
0.0
 10
0.4421889763779528
 20
1.9172637795275591
 30
0.0
 10
0.4421889763779528
 20
1.9172637795275591
 30
0.0
 10
0.4421889763779528
 20
1.9172637795275591
 30
0.0
 10
0.4328582677165355
 20
1.9237952755905512
 30
0.0
 10
0.4328582677165355
 20
1.9237952755905512
 30
0.0
 10
0.4328582677165355
 20
1.9237952755905512
 30
0.0
 10
0.4328582677165355
 20
1.9237952755905512
 30
0.0
 10
0.4238346456692914
 20
1.9304251968503938
 30
0.0
 10
0.4238346456692914
 20
1.9304251968503938
 30
0.0
 10
0.4238346456692914
 20
1.9304251968503938
 30
0.0
 10
0.4238346456692914
 20
1.9304251968503938
 30
0.0
 10
0.414984251968504
 20
1.9370984251968504
 30
0.0
 10
0.414984251968504
 20
1.9370984251968504
 30
0.0
 10
0.414984251968504
 20
1.9370984251968504
 30
0.0
 10
0.414984251968504
 20
1.9370984251968504
 30
0.0
 10
0.4061968503937008
 20
1.9437874015748031
 30
0.0
 10
0.4061968503937008
 20
1.9437874015748031
 30
0.0
 10
0.4061968503937008
 20
1.9437874015748031
 30
0.0
 10
0.4061968503937008
 20
1.9437874015748031
 30
0.0
 10
0.3973464566929134
 20
1.9504448818897639
 30
0.0
 10
0.3973464566929134
 20
1.9504448818897639
 30
0.0
 10
0.3973464566929134
 20
1.9504448818897639
 30
0.0
 10
0.3973464566929134
 20
1.9504448818897639
 30
0.0
 10
0.3883188976377953
 20
1.9570393700787403
 30
0.0
 10
0.3883188976377953
 20
1.9570393700787403
 30
0.0
 10
0.3883188976377953
 20
1.9570393700787403
 30
0.0
 10
0.3883188976377953
 20
1.9570393700787403
 30
0.0
 10
0.37898031496063
 20
1.9635157480314962
 30
0.0
 10
0.37898031496063
 20
1.9635157480314962
 30
0.0
 10
0.37898031496063
 20
1.9635157480314962
 30
0.0
 10
0.37898031496063
 20
1.9635157480314962
 30
0.0
 10
0.3692244094488189
 20
1.9698464566929135
 30
0.0
 10
0.3692244094488189
 20
1.9698464566929135
 30
0.0
 10
0.3692244094488189
 20
1.9698464566929135
 30
0.0
 10
0.3692244094488189
 20
1.9698464566929135
 30
0.0
 10
0.3589251968503937
 20
1.9759803149606301
 30
0.0
 10
0.3589251968503937
 20
1.9759803149606301
 30
0.0
 10
0.3589251968503937
 20
1.9759803149606301
 30
0.0
 10
0.3589251968503937
 20
1.9759803149606301
 30
0.0
 10
0.3479645669291339
 20
1.9818897637795276
 30
0.0
 10
0.3479645669291339
 20
1.9818897637795276
 30
0.0
 10
0.3479645669291339
 20
1.9818897637795276
 30
0.0
 10
0.3479645669291339
 20
1.9818897637795276
 30
0.0
 10
0.3362086614173229
 20
1.9875118110236221
 30
0.0
 10
0.3362086614173229
 20
1.9875118110236221
 30
0.0
 10
0.3362086614173229
 20
1.9875118110236221
 30
0.0
 10
0.3362086614173229
 20
1.9875118110236221
 30
0.0
 10
0.3235511811023622
 20
1.9928267716535433
 30
0.0
 10
0.3235511811023622
 20
1.9928267716535433
 30
0.0
 10
0.3235511811023622
 20
1.9928267716535433
 30
0.0
 10
0.3235511811023622
 20
1.9928267716535433
 30
0.0
 10
0.3098622047244095
 20
1.9977834645669292
 30
0.0
 10
0.3098622047244095
 20
1.9977834645669292
 30
0.0
 10
0.3098622047244095
 20
1.9977834645669292
 30
0.0
 10
0.3098622047244095
 20
1.9977834645669292
 30
0.0
 10
0.2950314960629921
 20
2.0023503937007874
 30
0.0
 10
0.2950314960629921
 20
2.0023503937007874
 30
0.0
 10
0.2950314960629921
 20
2.0023503937007874
 30
0.0
 10
0.2950314960629921
 20
2.0023503937007874
 30
0.0
 10
0.2789251968503937
 20
2.006472440944882
 30
0.0
 10
0.2789251968503937
 20
2.006472440944882
 30
0.0
 10
0.2789251968503937
 20
2.006472440944882
 30
0.0
 10
0.2789251968503937
 20
2.006472440944882
 30
0.0
 10
0.2614370078740158
 20
2.0101259842519688
 30
0.0
 10
0.2614370078740158
 20
2.0101259842519688
 30
0.0
 10
0.2614370078740158
 20
2.0101259842519688
 30
0.0
 10
0.2614370078740158
 20
2.0101259842519688
 30
0.0
 10
0.2424370078740158
 20
2.013251968503937
 30
0.0
 10
0.2424370078740158
 20
2.013251968503937
 30
0.0
 10
0.2424370078740158
 20
2.013251968503937
 30
0.0
 10
0.2424370078740158
 20
2.013251968503937
 30
0.0
 10
0.2218070866141732
 20
2.0158267716535434
 30
0.0
 10
0.2218070866141732
 20
2.0158267716535434
 30
0.0
 10
0.2218070866141732
 20
2.0158267716535434
 30
0.0
 10
0.2218070866141732
 20
2.0158267716535434
 30
0.0
 10
0.2094448818897638
 20
2.0168976377952759
 30
0.0
 10
0.2094448818897638
 20
2.0168976377952759
 30
0.0
 10
0.2094448818897638
 20
2.0168976377952759
 30
0.0
 10
0.2094448818897638
 20
2.0168976377952759
 30
0.0
 10
0.1960118110236221
 20
2.017681102362205
 30
0.0
 10
0.1960118110236221
 20
2.017681102362205
 30
0.0
 10
0.1960118110236221
 20
2.017681102362205
 30
0.0
 10
0.1960118110236221
 20
2.017681102362205
 30
0.0
 10
0.1815944881889764
 20
2.0182480314960629
 30
0.0
 10
0.1815944881889764
 20
2.0182480314960629
 30
0.0
 10
0.1815944881889764
 20
2.0182480314960629
 30
0.0
 10
0.1815944881889764
 20
2.0182480314960629
 30
0.0
 10
0.1662992125984252
 20
2.0186771653543309
 30
0.0
 10
0.1662992125984252
 20
2.0186771653543309
 30
0.0
 10
0.1662992125984252
 20
2.0186771653543309
 30
0.0
 10
0.1662992125984252
 20
2.0186771653543309
 30
0.0
 10
0.1502086614173228
 20
2.019031496062992
 30
0.0
 10
0.1502086614173228
 20
2.019031496062992
 30
0.0
 10
0.1502086614173228
 20
2.019031496062992
 30
0.0
 10
0.1502086614173228
 20
2.019031496062992
 30
0.0
 10
0.1334251968503937
 20
2.0194055118110237
 30
0.0
 10
0.1334251968503937
 20
2.0194055118110237
 30
0.0
 10
0.1334251968503937
 20
2.0194055118110237
 30
0.0
 10
0.1334251968503937
 20
2.0194055118110237
 30
0.0
 10
0.1160433070866142
 20
2.0198661417322836
 30
0.0
 10
0.1160433070866142
 20
2.0198661417322836
 30
0.0
 10
0.1160433070866142
 20
2.0198661417322836
 30
0.0
 10
0.1160433070866142
 20
2.0198661417322836
 30
0.0
 10
0.0981614173228346
 20
2.0204921259842519
 30
0.0
 10
0.0981614173228346
 20
2.0204921259842519
 30
0.0
 10
0.0981614173228346
 20
2.0204921259842519
 30
0.0
 10
0.0981614173228346
 20
2.0204921259842519
 30
0.0
 10
0.0798622047244095
 20
2.0213503937007875
 30
0.0
 10
0.0798622047244095
 20
2.0213503937007875
 30
0.0
 10
0.0798622047244095
 20
2.0213503937007875
 30
0.0
 10
0.0798622047244095
 20
2.0213503937007875
 30
0.0
 10
0.061259842519685
 20
2.0225275590551184
 30
0.0
 10
0.061259842519685
 20
2.0225275590551184
 30
0.0
 10
0.061259842519685
 20
2.0225275590551184
 30
0.0
 10
0.061259842519685
 20
2.0225275590551184
 30
0.0
 10
0.0424330708661417
 20
2.0240944881889766
 30
0.0
 10
0.0424330708661417
 20
2.0240944881889766
 30
0.0
 10
0.0424330708661417
 20
2.0240944881889766
 30
0.0
 10
0.0424330708661417
 20
2.0240944881889766
 30
0.0
 10
0.023492125984252
 20
2.0261377952755906
 30
0.0
 10
0.023492125984252
 20
2.0261377952755906
 30
0.0
 10
0.023492125984252
 20
2.0261377952755906
 30
0.0
 10
0.023492125984252
 20
2.0261377952755906
 30
0.0
 10
0.0045196850393701
 20
2.028716535433071
 30
0.0
 10
0.0045196850393701
 20
2.028716535433071
 30
0.0
 10
0.0045196850393701
 20
2.028716535433071
 30
0.0
 10
0.0045196850393701
 20
2.028716535433071
 30
0.0
 10
-0.0143779527559055
 20
2.0319173228346457
 30
0.0
 10
-0.0143779527559055
 20
2.0319173228346457
 30
0.0
 10
-0.0143779527559055
 20
2.0319173228346457
 30
0.0
 10
-0.0143779527559055
 20
2.0319173228346457
 30
0.0
 10
-0.0331141732283465
 20
2.0358110236220472
 30
0.0
 10
-0.0331141732283465
 20
2.0358110236220472
 30
0.0
 10
-0.0331141732283465
 20
2.0358110236220472
 30
0.0
 10
-0.0331141732283465
 20
2.0358110236220472
 30
0.0
 10
-0.0515944881889764
 20
2.040488188976378
 30
0.0
 10
-0.0515944881889764
 20
2.040488188976378
 30
0.0
 10
-0.0515944881889764
 20
2.040488188976378
 30
0.0
 10
-0.0515944881889764
 20
2.040488188976378
 30
0.0
 10
-0.0697086614173228
 20
2.0460000000000003
 30
0.0
 10
-0.0697086614173228
 20
2.0460000000000003
 30
0.0
 10
-0.0697086614173228
 20
2.0460000000000003
 30
0.0
 10
-0.0697086614173228
 20
2.0460000000000003
 30
0.0
 10
-0.0873858267716535
 20
2.0524409448818899
 30
0.0
 10
-0.0873858267716535
 20
2.0524409448818899
 30
0.0
 10
-0.0873858267716535
 20
2.0524409448818899
 30
0.0
 10
-0.0873858267716535
 20
2.0524409448818899
 30
0.0
 10
-0.104507874015748
 20
2.0598779527559055
 30
0.0
 10
-0.104507874015748
 20
2.0598779527559055
 30
0.0
 10
-0.104507874015748
 20
2.0598779527559055
 30
0.0
 10
-0.104507874015748
 20
2.0598779527559055
 30
0.0
 10
-0.120996062992126
 20
2.0683937007874018
 30
0.0
 10
-0.120996062992126
 20
2.0683937007874018
 30
0.0
 10
-0.120996062992126
 20
2.0683937007874018
 30
0.0
 10
-0.120996062992126
 20
2.0683937007874018
 30
0.0
 10
-0.1367362204724409
 20
2.0780551181102362
 30
0.0
 10
-0.1367362204724409
 20
2.0780551181102362
 30
0.0
 10
-0.1367362204724409
 20
2.0780551181102362
 30
0.0
 10
-0.1367362204724409
 20
2.0780551181102362
 30
0.0
 10
-0.1516535433070866
 20
2.0889527559055119
 30
0.0
 10
-0.1516535433070866
 20
2.0889527559055119
 30
0.0
 10
-0.1516535433070866
 20
2.0889527559055119
 30
0.0
 10
-0.1516535433070866
 20
2.0889527559055119
 30
0.0
 10
-0.1656377952755906
 20
2.1011535433070865
 30
0.0
 10
-0.1656377952755906
 20
2.1011535433070865
 30
0.0
 10
-0.1656377952755906
 20
2.1011535433070865
 30
0.0
 10
-0.1656377952755906
 20
2.1011535433070865
 30
0.0
 10
-0.1786062992125984
 20
2.1147401574803149
 30
0.0
 10
-0.1786062992125984
 20
2.1147401574803149
 30
0.0
 10
-0.1786062992125984
 20
2.1147401574803149
 30
0.0
 10
-0.1786062992125984
 20
2.1147401574803149
 30
0.0
 10
-0.1904448818897638
 20
2.1297716535433073
 30
0.0
 10
-0.1904448818897638
 20
2.1297716535433073
 30
0.0
 10
-0.1904448818897638
 20
2.1297716535433073
 30
0.0
 10
-0.1904448818897638
 20
2.1297716535433073
 30
0.0
 10
-0.2010787401574803
 20
2.1463425196850396
 30
0.0
 10
-0.2010787401574803
 20
2.1463425196850396
 30
0.0
 10
-0.2010787401574803
 20
2.1463425196850396
 30
0.0
 10
-0.2010787401574803
 20
2.1463425196850396
 30
0.0
 10
-0.2103976377952756
 20
2.16451968503937
 30
0.0
 10
-0.2103976377952756
 20
2.16451968503937
 30
0.0
 10
-0.2103976377952756
 20
2.16451968503937
 30
0.0
 10
-0.2103976377952756
 20
2.16451968503937
 30
0.0
 10
-0.2183149606299213
 20
2.1843818897637797
 30
0.0
 10
-0.2183149606299213
 20
2.1843818897637797
 30
0.0
 10
-0.2183149606299213
 20
2.1843818897637797
 30
0.0
 10
-0.2183149606299213
 20
2.1843818897637797
 30
0.0
 10
-0.2247283464566929
 20
2.206
 30
0.0
 10
-0.2247283464566929
 20
2.206
 30
0.0
 10
-0.2247283464566929
 20
2.206
 30
0.0
 10
-0.2247283464566929
 20
2.206
 30
0.0
 10
-0.2295472440944882
 20
2.22946062992126
 30
0.0
 10
-0.2295472440944882
 20
2.22946062992126
 30
0.0
 10
-0.2295472440944882
 20
2.22946062992126
 30
0.0
 10
-0.2295472440944882
 20
2.22946062992126
 30
0.0
 10
-0.2326732283464567
 20
2.2548307086614172
 30
0.0
 10
-0.2326732283464567
 20
2.2548307086614172
 30
0.0
 10
-0.2326732283464567
 20
2.2548307086614172
 30
0.0
 10
-0.2326732283464567
 20
2.2548307086614172
 30
0.0
 10
-0.2340196850393701
 20
2.2821968503937007
 30
0.0
 10
-0.2340196850393701
 20
2.2821968503937007
 30
0.0
 10
-0.2340196850393701
 20
2.2821968503937007
 30
0.0
 10
-0.2340196850393701
 20
2.2821968503937007
 30
0.0
 10
-0.2321496062992126
 20
1.5381692913385827
 30
0.0
 10
-0.2321496062992126
 20
1.5381692913385827
 30
0.0
 10
-0.2321496062992126
 20
1.5381692913385827
 30
0.0
 10
-0.2321496062992126
 20
1.5381692913385827
 30
0.0
 10
-0.2308031496062992
 20
1.5108031496062992
 30
0.0
 10
-0.2308031496062992
 20
1.5108031496062992
 30
0.0
 10
-0.2308031496062992
 20
1.5108031496062992
 30
0.0
 10
-0.2308031496062992
 20
1.5108031496062992
 30
0.0
 10
-0.2276771653543307
 20
1.4854330708661418
 30
0.0
 10
-0.2276771653543307
 20
1.4854330708661418
 30
0.0
 10
-0.2276771653543307
 20
1.4854330708661418
 30
0.0
 10
-0.2276771653543307
 20
1.4854330708661418
 30
0.0
 10
-0.2228582677165354
 20
1.461972440944882
 30
0.0
 10
-0.2228582677165354
 20
1.461972440944882
 30
0.0
 10
-0.2228582677165354
 20
1.461972440944882
 30
0.0
 10
-0.2228582677165354
 20
1.461972440944882
 30
0.0
 10
-0.2164448818897638
 20
1.4403543307086615
 30
0.0
 10
-0.2164448818897638
 20
1.4403543307086615
 30
0.0
 10
-0.2164448818897638
 20
1.4403543307086615
 30
0.0
 10
-0.2164448818897638
 20
1.4403543307086615
 30
0.0
 10
-0.2085275590551181
 20
1.420492125984252
 30
0.0
 10
-0.2085275590551181
 20
1.420492125984252
 30
0.0
 10
-0.2085275590551181
 20
1.420492125984252
 30
0.0
 10
-0.2085275590551181
 20
1.420492125984252
 30
0.0
 10
-0.1992086614173229
 20
1.4023149606299212
 30
0.0
 10
-0.1992086614173229
 20
1.4023149606299212
 30
0.0
 10
-0.1992086614173229
 20
1.4023149606299212
 30
0.0
 10
-0.1992086614173229
 20
1.4023149606299212
 30
0.0
 10
-0.1885748031496063
 20
1.3857440944881891
 30
0.0
 10
-0.1885748031496063
 20
1.3857440944881891
 30
0.0
 10
-0.1885748031496063
 20
1.3857440944881891
 30
0.0
 10
-0.1885748031496063
 20
1.3857440944881891
 30
0.0
 10
-0.176736220472441
 20
1.3707125984251969
 30
0.0
 10
-0.176736220472441
 20
1.3707125984251969
 30
0.0
 10
-0.176736220472441
 20
1.3707125984251969
 30
0.0
 10
-0.176736220472441
 20
1.3707125984251969
 30
0.0
 10
-0.1637677165354331
 20
1.3571259842519685
 30
0.0
 10
-0.1637677165354331
 20
1.3571259842519685
 30
0.0
 10
-0.1637677165354331
 20
1.3571259842519685
 30
0.0
 10
-0.1637677165354331
 20
1.3571259842519685
 30
0.0
 10
-0.1497834645669292
 20
1.3449251968503937
 30
0.0
 10
-0.1497834645669292
 20
1.3449251968503937
 30
0.0
 10
-0.1497834645669292
 20
1.3449251968503937
 30
0.0
 10
-0.1497834645669292
 20
1.3449251968503937
 30
0.0
 10
-0.1348661417322835
 20
1.3340275590551181
 30
0.0
 10
-0.1348661417322835
 20
1.3340275590551181
 30
0.0
 10
-0.1348661417322835
 20
1.3340275590551181
 30
0.0
 10
-0.1348661417322835
 20
1.3340275590551181
 30
0.0
 10
-0.1191259842519685
 20
1.3243661417322836
 30
0.0
 10
-0.1191259842519685
 20
1.3243661417322836
 30
0.0
 10
-0.1191259842519685
 20
1.3243661417322836
 30
0.0
 10
-0.1191259842519685
 20
1.3243661417322836
 30
0.0
 10
-0.1026377952755906
 20
1.3158503937007875
 30
0.0
 10
-0.1026377952755906
 20
1.3158503937007875
 30
0.0
 10
-0.1026377952755906
 20
1.3158503937007875
 30
0.0
 10
-0.1026377952755906
 20
1.3158503937007875
 30
0.0
 10
-0.0855157480314961
 20
1.3084133858267717
 30
0.0
 10
-0.0855157480314961
 20
1.3084133858267717
 30
0.0
 10
-0.0855157480314961
 20
1.3084133858267717
 30
0.0
 10
-0.0855157480314961
 20
1.3084133858267717
 30
0.0
 10
-0.0678385826771654
 20
1.3019724409448818
 30
0.0
 10
-0.0678385826771654
 20
1.3019724409448818
 30
0.0
 10
-0.0678385826771654
 20
1.3019724409448818
 30
0.0
 10
-0.0678385826771654
 20
1.3019724409448818
 30
0.0
 10
-0.0497244094488189
 20
1.29646062992126
 30
0.0
 10
-0.0497244094488189
 20
1.29646062992126
 30
0.0
 10
-0.0497244094488189
 20
1.29646062992126
 30
0.0
 10
-0.0497244094488189
 20
1.29646062992126
 30
0.0
 10
-0.031244094488189
 20
1.2917834645669293
 30
0.0
 10
-0.031244094488189
 20
1.2917834645669293
 30
0.0
 10
-0.031244094488189
 20
1.2917834645669293
 30
0.0
 10
-0.031244094488189
 20
1.2917834645669293
 30
0.0
 10
-0.012507874015748
 20
1.2878897637795277
 30
0.0
 10
-0.012507874015748
 20
1.2878897637795277
 30
0.0
 10
-0.012507874015748
 20
1.2878897637795277
 30
0.0
 10
-0.012507874015748
 20
1.2878897637795277
 30
0.0
 10
0.0063897637795276
 20
1.2846889763779528
 30
0.0
 10
0.0063897637795276
 20
1.2846889763779528
 30
0.0
 10
0.0063897637795276
 20
1.2846889763779528
 30
0.0
 10
0.0063897637795276
 20
1.2846889763779528
 30
0.0
 10
0.0253622047244094
 20
1.2821102362204726
 30
0.0
 10
0.0253622047244094
 20
1.2821102362204726
 30
0.0
 10
0.0253622047244094
 20
1.2821102362204726
 30
0.0
 10
0.0253622047244094
 20
1.2821102362204726
 30
0.0
 10
0.0443031496062992
 20
1.2800669291338582
 30
0.0
 10
0.0443031496062992
 20
1.2800669291338582
 30
0.0
 10
0.0443031496062992
 20
1.2800669291338582
 30
0.0
 10
0.0443031496062992
 20
1.2800669291338582
 30
0.0
 10
0.0631299212598425
 20
1.2785
 30
0.0
 10
0.0631299212598425
 20
1.2785
 30
0.0
 10
0.0631299212598425
 20
1.2785
 30
0.0
 10
0.0631299212598425
 20
1.2785
 30
0.0
 10
0.0817322834645669
 20
1.2773228346456693
 30
0.0
 10
0.0817322834645669
 20
1.2773228346456693
 30
0.0
 10
0.0817322834645669
 20
1.2773228346456693
 30
0.0
 10
0.0817322834645669
 20
1.2773228346456693
 30
0.0
 10
0.1000314960629921
 20
1.2764645669291339
 30
0.0
 10
0.1000314960629921
 20
1.2764645669291339
 30
0.0
 10
0.1000314960629921
 20
1.2764645669291339
 30
0.0
 10
0.1000314960629921
 20
1.2764645669291339
 30
0.0
 10
0.1179133858267717
 20
1.2758385826771654
 30
0.0
 10
0.1179133858267717
 20
1.2758385826771654
 30
0.0
 10
0.1179133858267717
 20
1.2758385826771654
 30
0.0
 10
0.1179133858267717
 20
1.2758385826771654
 30
0.0
 10
0.1352952755905512
 20
1.2753779527559055
 30
0.0
 10
0.1352952755905512
 20
1.2753779527559055
 30
0.0
 10
0.1352952755905512
 20
1.2753779527559055
 30
0.0
 10
0.1352952755905512
 20
1.2753779527559055
 30
0.0
 10
0.1520787401574803
 20
1.2750039370078741
 30
0.0
 10
0.1520787401574803
 20
1.2750039370078741
 30
0.0
 10
0.1520787401574803
 20
1.2750039370078741
 30
0.0
 10
0.1520787401574803
 20
1.2750039370078741
 30
0.0
 10
0.1681692913385827
 20
1.2746496062992128
 30
0.0
 10
0.1681692913385827
 20
1.2746496062992128
 30
0.0
 10
0.1681692913385827
 20
1.2746496062992128
 30
0.0
 10
0.1681692913385827
 20
1.2746496062992128
 30
0.0
 10
0.1834645669291339
 20
1.2742204724409449
 30
0.0
 10
0.1834645669291339
 20
1.2742204724409449
 30
0.0
 10
0.1834645669291339
 20
1.2742204724409449
 30
0.0
 10
0.1834645669291339
 20
1.2742204724409449
 30
0.0
 10
0.1978818897637795
 20
1.2736535433070866
 30
0.0
 10
0.1978818897637795
 20
1.2736535433070866
 30
0.0
 10
0.1978818897637795
 20
1.2736535433070866
 30
0.0
 10
0.1978818897637795
 20
1.2736535433070866
 30
0.0
 10
0.2113149606299213
 20
1.2728700787401575
 30
0.0
 10
0.2113149606299213
 20
1.2728700787401575
 30
0.0
 10
0.2113149606299213
 20
1.2728700787401575
 30
0.0
 10
0.2113149606299213
 20
1.2728700787401575
 30
0.0
 10
0.2236771653543307
 20
1.2717992125984252
 30
0.0
 10
0.2236771653543307
 20
1.2717992125984252
 30
0.0
 10
0.2236771653543307
 20
1.2717992125984252
 30
0.0
 10
0.2236771653543307
 20
1.2717992125984252
 30
0.0
 10
0.2443070866141733
 20
1.269224409448819
 30
0.0
 10
0.2443070866141733
 20
1.269224409448819
 30
0.0
 10
0.2443070866141733
 20
1.269224409448819
 30
0.0
 10
0.2443070866141733
 20
1.269224409448819
 30
0.0
 10
0.2633070866141732
 20
1.2660984251968503
 30
0.0
 10
0.2633070866141732
 20
1.2660984251968503
 30
0.0
 10
0.2633070866141732
 20
1.2660984251968503
 30
0.0
 10
0.2633070866141732
 20
1.2660984251968503
 30
0.0
 10
0.2807952755905512
 20
1.2624448818897638
 30
0.0
 10
0.2807952755905512
 20
1.2624448818897638
 30
0.0
 10
0.2807952755905512
 20
1.2624448818897638
 30
0.0
 10
0.2807952755905512
 20
1.2624448818897638
 30
0.0
 10
0.2969015748031496
 20
1.2583228346456694
 30
0.0
 10
0.2969015748031496
 20
1.2583228346456694
 30
0.0
 10
0.2969015748031496
 20
1.2583228346456694
 30
0.0
 10
0.2969015748031496
 20
1.2583228346456694
 30
0.0
 10
0.3117322834645669
 20
1.253755905511811
 30
0.0
 10
0.3117322834645669
 20
1.253755905511811
 30
0.0
 10
0.3117322834645669
 20
1.253755905511811
 30
0.0
 10
0.3117322834645669
 20
1.253755905511811
 30
0.0
 10
0.3254212598425197
 20
1.2487992125984253
 30
0.0
 10
0.3254212598425197
 20
1.2487992125984253
 30
0.0
 10
0.3254212598425197
 20
1.2487992125984253
 30
0.0
 10
0.3254212598425197
 20
1.2487992125984253
 30
0.0
 10
0.3380787401574804
 20
1.2434842519685039
 30
0.0
 10
0.3380787401574804
 20
1.2434842519685039
 30
0.0
 10
0.3380787401574804
 20
1.2434842519685039
 30
0.0
 10
0.3380787401574804
 20
1.2434842519685039
 30
0.0
 10
0.3498346456692913
 20
1.2378622047244094
 30
0.0
 10
0.3498346456692913
 20
1.2378622047244094
 30
0.0
 10
0.3498346456692913
 20
1.2378622047244094
 30
0.0
 10
0.3498346456692913
 20
1.2378622047244094
 30
0.0
 10
0.3607952755905512
 20
1.2319527559055119
 30
0.0
 10
0.3607952755905512
 20
1.2319527559055119
 30
0.0
 10
0.3607952755905512
 20
1.2319527559055119
 30
0.0
 10
0.3607952755905512
 20
1.2319527559055119
 30
0.0
 10
0.3710944881889764
 20
1.2258188976377953
 30
0.0
 10
0.3710944881889764
 20
1.2258188976377953
 30
0.0
 10
0.3710944881889764
 20
1.2258188976377953
 30
0.0
 10
0.3710944881889764
 20
1.2258188976377953
 30
0.0
 10
0.3808503937007874
 20
1.219488188976378
 30
0.0
 10
0.3808503937007874
 20
1.219488188976378
 30
0.0
 10
0.3808503937007874
 20
1.219488188976378
 30
0.0
 10
0.3808503937007874
 20
1.219488188976378
 30
0.0
 10
0.3901889763779528
 20
1.2130118110236221
 30
0.0
 10
0.3901889763779528
 20
1.2130118110236221
 30
0.0
 10
0.3901889763779528
 20
1.2130118110236221
 30
0.0
 10
0.3901889763779528
 20
1.2130118110236221
 30
0.0
 10
0.3992165354330709
 20
1.2064173228346458
 30
0.0
 10
0.3992165354330709
 20
1.2064173228346458
 30
0.0
 10
0.3992165354330709
 20
1.2064173228346458
 30
0.0
 10
0.3992165354330709
 20
1.2064173228346458
 30
0.0
 10
0.4080669291338583
 20
1.1997598425196851
 30
0.0
 10
0.4080669291338583
 20
1.1997598425196851
 30
0.0
 10
0.4080669291338583
 20
1.1997598425196851
 30
0.0
 10
0.4080669291338583
 20
1.1997598425196851
 30
0.0
 10
0.4168543307086615
 20
1.1930708661417324
 30
0.0
 10
0.4168543307086615
 20
1.1930708661417324
 30
0.0
 10
0.4168543307086615
 20
1.1930708661417324
 30
0.0
 10
0.4168543307086615
 20
1.1930708661417324
 30
0.0
 10
0.4257047244094488
 20
1.1863976377952756
 30
0.0
 10
0.4257047244094488
 20
1.1863976377952756
 30
0.0
 10
0.4257047244094488
 20
1.1863976377952756
 30
0.0
 10
0.4257047244094488
 20
1.1863976377952756
 30
0.0
 10
0.434728346456693
 20
1.1797677165354332
 30
0.0
 10
0.434728346456693
 20
1.1797677165354332
 30
0.0
 10
0.434728346456693
 20
1.1797677165354332
 30
0.0
 10
0.434728346456693
 20
1.1797677165354332
 30
0.0
 10
0.4440590551181103
 20
1.1732362204724409
 30
0.0
 10
0.4440590551181103
 20
1.1732362204724409
 30
0.0
 10
0.4440590551181103
 20
1.1732362204724409
 30
0.0
 10
0.4440590551181103
 20
1.1732362204724409
 30
0.0
 10
0.4538070866141732
 20
1.1668346456692913
 30
0.0
 10
0.4538070866141732
 20
1.1668346456692913
 30
0.0
 10
0.4538070866141732
 20
1.1668346456692913
 30
0.0
 10
0.4538070866141732
 20
1.1668346456692913
 30
0.0
 10
0.4641023622047245
 20
1.1606141732283466
 30
0.0
 10
0.4641023622047245
 20
1.1606141732283466
 30
0.0
 10
0.4641023622047245
 20
1.1606141732283466
 30
0.0
 10
0.4641023622047245
 20
1.1606141732283466
 30
0.0
 10
0.4750590551181103
 20
1.1546023622047246
 30
0.0
 10
0.4750590551181103
 20
1.1546023622047246
 30
0.0
 10
0.4750590551181103
 20
1.1546023622047246
 30
0.0
 10
0.4750590551181103
 20
1.1546023622047246
 30
0.0
 10
0.4868031496062992
 20
1.1488543307086614
 30
0.0
 10
0.4868031496062992
 20
1.1488543307086614
 30
0.0
 10
0.4868031496062992
 20
1.1488543307086614
 30
0.0
 10
0.4868031496062992
 20
1.1488543307086614
 30
0.0
 10
0.4994488188976378
 20
1.1434015748031496
 30
0.0
 10
0.4994488188976378
 20
1.1434015748031496
 30
0.0
 10
0.4994488188976378
 20
1.1434015748031496
 30
0.0
 10
0.4994488188976378
 20
1.1434015748031496
 30
0.0
 10
0.5131259842519685
 20
1.1382913385826772
 30
0.0
 10
0.5131259842519685
 20
1.1382913385826772
 30
0.0
 10
0.5131259842519685
 20
1.1382913385826772
 30
0.0
 10
0.5131259842519685
 20
1.1382913385826772
 30
0.0
 10
0.5279409448818898
 20
1.1335511811023622
 30
0.0
 10
0.5279409448818898
 20
1.1335511811023622
 30
0.0
 10
0.5279409448818898
 20
1.1335511811023622
 30
0.0
 10
0.5279409448818898
 20
1.1335511811023622
 30
0.0
 10
0.5440314960629922
 20
1.1292322834645669
 30
0.0
 10
0.5440314960629922
 20
1.1292322834645669
 30
0.0
 10
0.5440314960629922
 20
1.1292322834645669
 30
0.0
 10
0.5440314960629922
 20
1.1292322834645669
 30
0.0
 10
0.5615078740157481
 20
1.1253740157480316
 30
0.0
 10
0.5615078740157481
 20
1.1253740157480316
 30
0.0
 10
0.5615078740157481
 20
1.1253740157480316
 30
0.0
 10
0.5615078740157481
 20
1.1253740157480316
 30
0.0
 10
0.580496062992126
 20
1.1220236220472442
 30
0.0
 10
0.580496062992126
 20
1.1220236220472442
 30
0.0
 10
0.580496062992126
 20
1.1220236220472442
 30
0.0
 10
0.580496062992126
 20
1.1220236220472442
 30
0.0
 10
0.6011102362204724
 20
1.119204724409449
 30
0.0
 10
0.6011102362204724
 20
1.119204724409449
 30
0.0
 10
0.6011102362204724
 20
1.119204724409449
 30
0.0
 10
0.6011102362204724
 20
1.119204724409449
 30
0.0
 10
0.6234763779527559
 20
1.1169763779527559
 30
0.0
 10
0.6234763779527559
 20
1.1169763779527559
 30
0.0
 10
0.6234763779527559
 20
1.1169763779527559
 30
0.0
 10
0.6234763779527559
 20
1.1169763779527559
 30
0.0
 10
0.6477165354330708
 20
1.1153700787401575
 30
0.0
 10
0.6477165354330708
 20
1.1153700787401575
 30
0.0
 10
0.6477165354330708
 20
1.1153700787401575
 30
0.0
 10
0.6477165354330708
 20
1.1153700787401575
 30
0.0
 10
0.6739527559055119
 20
1.1144330708661419
 30
0.0
 10
0.6739527559055119
 20
1.1144330708661419
 30
0.0
  0
SPLINE
  5
4F
100
AcDbEntity
  8
Layer 1
 62
   253
100
AcDbSpline
210
0.0
220
0.0
230
1.0
 70
     1
 71
     3
 72
    20
 73
    16
 74
     0
 42
0.0000000001
 43
0.0000000001
 40
0.0
 40
0.0
 40
0.0
 40
0.0
 40
0.25
 40
0.25
 40
0.25
 40
0.25
 40
0.5
 40
0.5
 40
0.5
 40
0.5
 40
0.75
 40
0.75
 40
0.75
 40
0.75
 40
1.0
 40
1.0
 40
1.0
 40
1.0
 10
-0.2321496062992126
 20
1.5381692913385827
 30
0.0
 10
-0.2321496062992126
 20
1.5381692913385827
 30
0.0
 10
-0.2340196850393701
 20
2.2821968503937007
 30
0.0
 10
-0.2340196850393701
 20
2.2821968503937007
 30
0.0
 10
-0.2340196850393701
 20
2.2821968503937007
 30
0.0
 10
-0.2340196850393701
 20
2.2821968503937007
 30
0.0
 10
-0.5801811023622048
 20
2.2821968503937007
 30
0.0
 10
-0.5801811023622048
 20
2.2821968503937007
 30
0.0
 10
-0.5801811023622048
 20
2.2821968503937007
 30
0.0
 10
-0.5801811023622048
 20
2.2821968503937007
 30
0.0
 10
-0.5783110236220472
 20
1.5381692913385827
 30
0.0
 10
-0.5783110236220472
 20
1.5381692913385827
 30
0.0
 10
-0.5783110236220472
 20
1.5381692913385827
 30
0.0
 10
-0.5783110236220472
 20
1.5381692913385827
 30
0.0
 10
-0.2321496062992126
 20
1.5381692913385827
 30
0.0
 10
-0.2321496062992126
 20
1.5381692913385827
 30
0.0
  0
SPLINE
  5
50
100
AcDbEntity
  8
Layer 1
370
     5
100
AcDbSpline
210
0.0
220
0.0
230
1.0
 70
     1
 71
     3
 72
    20
 73
    16
 74
     0
 42
0.0000000001
 43
0.0000000001
 40
0.0
 40
0.0
 40
0.0
 40
0.0
 40
0.25
 40
0.25
 40
0.25
 40
0.25
 40
0.5
 40
0.5
 40
0.5
 40
0.5
 40
0.75
 40
0.75
 40
0.75
 40
0.75
 40
1.0
 40
1.0
 40
1.0
 40
1.0
 10
-0.2321496062992126
 20
1.5381692913385827
 30
0.0
 10
-0.2321496062992126
 20
1.5381692913385827
 30
0.0
 10
-0.2340196850393701
 20
2.2821968503937007
 30
0.0
 10
-0.2340196850393701
 20
2.2821968503937007
 30
0.0
 10
-0.2340196850393701
 20
2.2821968503937007
 30
0.0
 10
-0.2340196850393701
 20
2.2821968503937007
 30
0.0
 10
-0.5801811023622048
 20
2.2821968503937007
 30
0.0
 10
-0.5801811023622048
 20
2.2821968503937007
 30
0.0
 10
-0.5801811023622048
 20
2.2821968503937007
 30
0.0
 10
-0.5801811023622048
 20
2.2821968503937007
 30
0.0
 10
-0.5783110236220472
 20
1.5381692913385827
 30
0.0
 10
-0.5783110236220472
 20
1.5381692913385827
 30
0.0
 10
-0.5783110236220472
 20
1.5381692913385827
 30
0.0
 10
-0.5783110236220472
 20
1.5381692913385827
 30
0.0
 10
-0.2321496062992126
 20
1.5381692913385827
 30
0.0
 10
-0.2321496062992126
 20
1.5381692913385827
 30
0.0
  0
SPLINE
  5
51
100
AcDbEntity
  8
Layer 1
 62
   253
100
AcDbSpline
210
0.0
220
0.0
230
1.0
 70
     1
 71
     3
 72
    28
 73
    24
 74
     0
 42
0.0000000001
 43
0.0000000001
 40
0.0
 40
0.0
 40
0.0
 40
0.0
 40
0.1666666666666667
 40
0.1666666666666667
 40
0.1666666666666667
 40
0.1666666666666667
 40
0.3333333333333333
 40
0.3333333333333333
 40
0.3333333333333333
 40
0.3333333333333333
 40
0.5
 40
0.5
 40
0.5
 40
0.5
 40
0.6666666666666666
 40
0.6666666666666666
 40
0.6666666666666666
 40
0.6666666666666666
 40
0.8333333333333333
 40
0.8333333333333333
 40
0.8333333333333333
 40
0.8333333333333333
 40
1.0
 40
1.0
 40
1.0
 40
1.0
 10
0.9208503937007875
 20
0.9343385826771654
 30
0.0
 10
0.9208503937007875
 20
0.9343385826771654
 30
0.0
 10
0.9189803149606299
 20
1.6783661417322835
 30
0.0
 10
0.9189803149606299
 20
1.6783661417322835
 30
0.0
 10
0.9189803149606299
 20
1.6783661417322835
 30
0.0
 10
0.9189803149606299
 20
1.6783661417322835
 30
0.0
 10
0.8959409448818898
 20
1.6791692913385827
 30
0.0
 10
0.8959409448818898
 20
1.6791692913385827
 30
0.0
 10
0.8959409448818898
 20
1.6791692913385827
 30
0.0
 10
0.8959409448818898
 20
1.6791692913385827
 30
0.0
 10
0.8743976377952756
 20
1.6806062992125985
 30
0.0
 10
0.8743976377952756
 20
1.6806062992125985
 30
0.0
 10
0.8743976377952756
 20
1.6806062992125985
 30
0.0
 10
0.8743976377952756
 20
1.6806062992125985
 30
0.0
 10
0.8762677165354331
 20
0.9365787401574803
 30
0.0
 10
0.8762677165354331
 20
0.9365787401574803
 30
0.0
 10
0.8762677165354331
 20
0.9365787401574803
 30
0.0
 10
0.8762677165354331
 20
0.9365787401574803
 30
0.0
 10
0.8978110236220472
 20
0.9351417322834646
 30
0.0
 10
0.8978110236220472
 20
0.9351417322834646
 30
0.0
 10
0.8978110236220472
 20
0.9351417322834646
 30
0.0
 10
0.8978110236220472
 20
0.9351417322834646
 30
0.0
 10
0.9208503937007875
 20
0.9343385826771654
 30
0.0
 10
0.9208503937007875
 20
0.9343385826771654
 30
0.0
  0
SPLINE
  5
52
100
AcDbEntity
  8
Layer 1
 62
   253
100
AcDbSpline
210
0.0
220
0.0
230
1.0
 70
     1
 71
     3
 72
    28
 73
    24
 74
     0
 42
0.0000000001
 43
0.0000000001
 40
0.0
 40
0.0
 40
0.0
 40
0.0
 40
0.1666666666666667
 40
0.1666666666666667
 40
0.1666666666666667
 40
0.1666666666666667
 40
0.3333333333333333
 40
0.3333333333333333
 40
0.3333333333333333
 40
0.3333333333333333
 40
0.5
 40
0.5
 40
0.5
 40
0.5
 40
0.6666666666666666
 40
0.6666666666666666
 40
0.6666666666666666
 40
0.6666666666666666
 40
0.8333333333333333
 40
0.8333333333333333
 40
0.8333333333333333
 40
0.8333333333333333
 40
1.0
 40
1.0
 40
1.0
 40
1.0
 10
0.8762677165354331
 20
0.9365787401574803
 30
0.0
 10
0.8762677165354331
 20
0.9365787401574803
 30
0.0
 10
0.8743976377952756
 20
1.6806062992125985
 30
0.0
 10
0.8743976377952756
 20
1.6806062992125985
 30
0.0
 10
0.8743976377952756
 20
1.6806062992125985
 30
0.0
 10
0.8743976377952756
 20
1.6806062992125985
 30
0.0
 10
0.8542795275590551
 20
1.6826338582677165
 30
0.0
 10
0.8542795275590551
 20
1.6826338582677165
 30
0.0
 10
0.8542795275590551
 20
1.6826338582677165
 30
0.0
 10
0.8542795275590551
 20
1.6826338582677165
 30
0.0
 10
0.8355590551181102
 20
1.685232283464567
 30
0.0
 10
0.8355590551181102
 20
1.685232283464567
 30
0.0
 10
0.8355590551181102
 20
1.685232283464567
 30
0.0
 10
0.8355590551181102
 20
1.685232283464567
 30
0.0
 10
0.8374291338582678
 20
0.9412047244094488
 30
0.0
 10
0.8374291338582678
 20
0.9412047244094488
 30
0.0
 10
0.8374291338582678
 20
0.9412047244094488
 30
0.0
 10
0.8374291338582678
 20
0.9412047244094488
 30
0.0
 10
0.8561496062992127
 20
0.9386062992125984
 30
0.0
 10
0.8561496062992127
 20
0.9386062992125984
 30
0.0
 10
0.8561496062992127
 20
0.9386062992125984
 30
0.0
 10
0.8561496062992127
 20
0.9386062992125984
 30
0.0
 10
0.8762677165354331
 20
0.9365787401574803
 30
0.0
 10
0.8762677165354331
 20
0.9365787401574803
 30
0.0
  0
SPLINE
  5
53
100
AcDbEntity
  8
Layer 1
 62
   253
100
AcDbSpline
210
0.0
220
0.0
230
1.0
 70
     1
 71
     3
 72
    36
 73
    32
 74
     0
 42
0.0000000001
 43
0.0000000001
 40
0.0
 40
0.0
 40
0.0
 40
0.0
 40
0.125
 40
0.125
 40
0.125
 40
0.125
 40
0.25
 40
0.25
 40
0.25
 40
0.25
 40
0.375
 40
0.375
 40
0.375
 40
0.375
 40
0.5
 40
0.5
 40
0.5
 40
0.5
 40
0.625
 40
0.625
 40
0.625
 40
0.625
 40
0.75
 40
0.75
 40
0.75
 40
0.75
 40
0.875
 40
0.875
 40
0.875
 40
0.875
 40
1.0
 40
1.0
 40
1.0
 40
1.0
 10
0.8374291338582678
 20
0.9412047244094488
 30
0.0
 10
0.8374291338582678
 20
0.9412047244094488
 30
0.0
 10
0.8355590551181102
 20
1.685232283464567
 30
0.0
 10
0.8355590551181102
 20
1.685232283464567
 30
0.0
 10
0.8355590551181102
 20
1.685232283464567
 30
0.0
 10
0.8355590551181102
 20
1.685232283464567
 30
0.0
 10
0.8181653543307087
 20
1.6883543307086615
 30
0.0
 10
0.8181653543307087
 20
1.6883543307086615
 30
0.0
 10
0.8181653543307087
 20
1.6883543307086615
 30
0.0
 10
0.8181653543307087
 20
1.6883543307086615
 30
0.0
 10
0.8020629921259843
 20
1.691984251968504
 30
0.0
 10
0.8020629921259843
 20
1.691984251968504
 30
0.0
 10
0.8020629921259843
 20
1.691984251968504
 30
0.0
 10
0.8020629921259843
 20
1.691984251968504
 30
0.0
 10
0.7871968503937008
 20
1.6960787401574804
 30
0.0
 10
0.7871968503937008
 20
1.6960787401574804
 30
0.0
 10
0.7871968503937008
 20
1.6960787401574804
 30
0.0
 10
0.7871968503937008
 20
1.6960787401574804
 30
0.0
 10
0.7890669291338583
 20
0.9520511811023622
 30
0.0
 10
0.7890669291338583
 20
0.9520511811023622
 30
0.0
 10
0.7890669291338583
 20
0.9520511811023622
 30
0.0
 10
0.7890669291338583
 20
0.9520511811023622
 30
0.0
 10
0.8039330708661417
 20
0.9479566929133859
 30
0.0
 10
0.8039330708661417
 20
0.9479566929133859
 30
0.0
 10
0.8039330708661417
 20
0.9479566929133859
 30
0.0
 10
0.8039330708661417
 20
0.9479566929133859
 30
0.0
 10
0.8200354330708661
 20
0.9443267716535434
 30
0.0
 10
0.8200354330708661
 20
0.9443267716535434
 30
0.0
 10
0.8200354330708661
 20
0.9443267716535434
 30
0.0
 10
0.8200354330708661
 20
0.9443267716535434
 30
0.0
 10
0.8374291338582678
 20
0.9412047244094488
 30
0.0
 10
0.8374291338582678
 20
0.9412047244094488
 30
0.0
  0
SPLINE
  5
54
100
AcDbEntity
  8
Layer 1
 62
   253
100
AcDbSpline
210
0.0
220
0.0
230
1.0
 70
     1
 71
     3
 72
    36
 73
    32
 74
     0
 42
0.0000000001
 43
0.0000000001
 40
0.0
 40
0.0
 40
0.0
 40
0.0
 40
0.125
 40
0.125
 40
0.125
 40
0.125
 40
0.25
 40
0.25
 40
0.25
 40
0.25
 40
0.375
 40
0.375
 40
0.375
 40
0.375
 40
0.5
 40
0.5
 40
0.5
 40
0.5
 40
0.625
 40
0.625
 40
0.625
 40
0.625
 40
0.75
 40
0.75
 40
0.75
 40
0.75
 40
0.875
 40
0.875
 40
0.875
 40
0.875
 40
1.0
 40
1.0
 40
1.0
 40
1.0
 10
0.7890669291338583
 20
0.9520511811023622
 30
0.0
 10
0.7890669291338583
 20
0.9520511811023622
 30
0.0
 10
0.7871968503937008
 20
1.6960787401574804
 30
0.0
 10
0.7871968503937008
 20
1.6960787401574804
 30
0.0
 10
0.7871968503937008
 20
1.6960787401574804
 30
0.0
 10
0.7871968503937008
 20
1.6960787401574804
 30
0.0
 10
0.7735236220472441
 20
1.7006141732283466
 30
0.0
 10
0.7735236220472441
 20
1.7006141732283466
 30
0.0
 10
0.7735236220472441
 20
1.7006141732283466
 30
0.0
 10
0.7735236220472441
 20
1.7006141732283466
 30
0.0
 10
0.760976377952756
 20
1.7055472440944883
 30
0.0
 10
0.760976377952756
 20
1.7055472440944883
 30
0.0
 10
0.760976377952756
 20
1.7055472440944883
 30
0.0
 10
0.760976377952756
 20
1.7055472440944883
 30
0.0
 10
0.7495236220472441
 20
1.7108582677165356
 30
0.0
 10
0.7495236220472441
 20
1.7108582677165356
 30
0.0
 10
0.7495236220472441
 20
1.7108582677165356
 30
0.0
 10
0.7495236220472441
 20
1.7108582677165356
 30
0.0
 10
0.7513937007874016
 20
0.9668307086614174
 30
0.0
 10
0.7513937007874016
 20
0.9668307086614174
 30
0.0
 10
0.7513937007874016
 20
0.9668307086614174
 30
0.0
 10
0.7513937007874016
 20
0.9668307086614174
 30
0.0
 10
0.7628464566929134
 20
0.9615196850393701
 30
0.0
 10
0.7628464566929134
 20
0.9615196850393701
 30
0.0
 10
0.7628464566929134
 20
0.9615196850393701
 30
0.0
 10
0.7628464566929134
 20
0.9615196850393701
 30
0.0
 10
0.7753937007874016
 20
0.9565866141732284
 30
0.0
 10
0.7753937007874016
 20
0.9565866141732284
 30
0.0
 10
0.7753937007874016
 20
0.9565866141732284
 30
0.0
 10
0.7753937007874016
 20
0.9565866141732284
 30
0.0
 10
0.7890669291338583
 20
0.9520511811023622
 30
0.0
 10
0.7890669291338583
 20
0.9520511811023622
 30
0.0
  0
SPLINE
  5
55
100
AcDbEntity
  8
Layer 1
 62
     9
100
AcDbSpline
210
0.0
220
0.0
230
1.0
 70
     1
 71
     3
 72
    44
 73
    40
 74
     0
 42
0.0000000001
 43
0.0000000001
 40
0.0
 40
0.0
 40
0.0
 40
0.0
 40
0.1
 40
0.1
 40
0.1
 40
0.1
 40
0.2
 40
0.2
 40
0.2
 40
0.2
 40
0.3
 40
0.3
 40
0.3
 40
0.3
 40
0.4
 40
0.4
 40
0.4
 40
0.4
 40
0.5
 40
0.5
 40
0.5
 40
0.5
 40
0.6
 40
0.6
 40
0.6
 40
0.6
 40
0.7
 40
0.7
 40
0.7
 40
0.7
 40
0.7999999999999999
 40
0.7999999999999999
 40
0.7999999999999999
 40
0.7999999999999999
 40
0.8999999999999999
 40
0.8999999999999999
 40
0.8999999999999999
 40
0.8999999999999999
 40
1.0
 40
1.0
 40
1.0
 40
1.0
 10
0.7513937007874016
 20
0.9668307086614174
 30
0.0
 10
0.7513937007874016
 20
0.9668307086614174
 30
0.0
 10
0.7495236220472441
 20
1.7108582677165356
 30
0.0
 10
0.7495236220472441
 20
1.7108582677165356
 30
0.0
 10
0.7495236220472441
 20
1.7108582677165356
 30
0.0
 10
0.7495236220472441
 20
1.7108582677165356
 30
0.0
 10
0.7391062992125984
 20
1.7165118110236222
 30
0.0
 10
0.7391062992125984
 20
1.7165118110236222
 30
0.0
 10
0.7391062992125984
 20
1.7165118110236222
 30
0.0
 10
0.7391062992125984
 20
1.7165118110236222
 30
0.0
 10
0.7296850393700788
 20
1.72248031496063
 30
0.0
 10
0.7296850393700788
 20
1.72248031496063
 30
0.0
 10
0.7296850393700788
 20
1.72248031496063
 30
0.0
 10
0.7296850393700788
 20
1.72248031496063
 30
0.0
 10
0.7211929133858268
 20
1.7287204724409448
 30
0.0
 10
0.7211929133858268
 20
1.7287204724409448
 30
0.0
 10
0.7211929133858268
 20
1.7287204724409448
 30
0.0
 10
0.7211929133858268
 20
1.7287204724409448
 30
0.0
 10
0.7135984251968505
 20
1.7352125984251969
 30
0.0
 10
0.7135984251968505
 20
1.7352125984251969
 30
0.0
 10
0.7135984251968505
 20
1.7352125984251969
 30
0.0
 10
0.7135984251968505
 20
1.7352125984251969
 30
0.0
 10
0.7154685039370079
 20
0.9911850393700787
 30
0.0
 10
0.7154685039370079
 20
0.9911850393700787
 30
0.0
 10
0.7154685039370079
 20
0.9911850393700787
 30
0.0
 10
0.7154685039370079
 20
0.9911850393700787
 30
0.0
 10
0.7230629921259842
 20
0.9846929133858268
 30
0.0
 10
0.7230629921259842
 20
0.9846929133858268
 30
0.0
 10
0.7230629921259842
 20
0.9846929133858268
 30
0.0
 10
0.7230629921259842
 20
0.9846929133858268
 30
0.0
 10
0.7315551181102362
 20
0.9784527559055118
 30
0.0
 10
0.7315551181102362
 20
0.9784527559055118
 30
0.0
 10
0.7315551181102362
 20
0.9784527559055118
 30
0.0
 10
0.7315551181102362
 20
0.9784527559055118
 30
0.0
 10
0.740976377952756
 20
0.972484251968504
 30
0.0
 10
0.740976377952756
 20
0.972484251968504
 30
0.0
 10
0.740976377952756
 20
0.972484251968504
 30
0.0
 10
0.740976377952756
 20
0.972484251968504
 30
0.0
 10
0.7513937007874016
 20
0.9668307086614174
 30
0.0
 10
0.7513937007874016
 20
0.9668307086614174
 30
0.0
  0
SPLINE
  5
56
100
AcDbEntity
  8
Layer 1
 62
     9
100
AcDbSpline
210
0.0
220
0.0
230
1.0
 70
     1
 71
     3
 72
    52
 73
    48
 74
     0
 42
0.0000000001
 43
0.0000000001
 40
0.0
 40
0.0
 40
0.0
 40
0.0
 40
0.0833333333333333
 40
0.0833333333333333
 40
0.0833333333333333
 40
0.0833333333333333
 40
0.1666666666666667
 40
0.1666666666666667
 40
0.1666666666666667
 40
0.1666666666666667
 40
0.25
 40
0.25
 40
0.25
 40
0.25
 40
0.3333333333333333
 40
0.3333333333333333
 40
0.3333333333333333
 40
0.3333333333333333
 40
0.4166666666666666
 40
0.4166666666666666
 40
0.4166666666666666
 40
0.4166666666666666
 40
0.4999999999999999
 40
0.4999999999999999
 40
0.4999999999999999
 40
0.4999999999999999
 40
0.5833333333333333
 40
0.5833333333333333
 40
0.5833333333333333
 40
0.5833333333333333
 40
0.6666666666666666
 40
0.6666666666666666
 40
0.6666666666666666
 40
0.6666666666666666
 40
0.75
 40
0.75
 40
0.75
 40
0.75
 40
0.8333333333333334
 40
0.8333333333333334
 40
0.8333333333333334
 40
0.8333333333333334
 40
0.9166666666666667
 40
0.9166666666666667
 40
0.9166666666666667
 40
0.9166666666666667
 40
1.0
 40
1.0
 40
1.0
 40
1.0
 10
0.7154685039370079
 20
0.9911850393700787
 30
0.0
 10
0.7154685039370079
 20
0.9911850393700787
 30
0.0
 10
0.7135984251968505
 20
1.7352125984251969
 30
0.0
 10
0.7135984251968505
 20
1.7352125984251969
 30
0.0
 10
0.7135984251968505
 20
1.7352125984251969
 30
0.0
 10
0.7135984251968505
 20
1.7352125984251969
 30
0.0
 10
0.7068385826771654
 20
1.7419212598425198
 30
0.0
 10
0.7068385826771654
 20
1.7419212598425198
 30
0.0
 10
0.7068385826771654
 20
1.7419212598425198
 30
0.0
 10
0.7068385826771654
 20
1.7419212598425198
 30
0.0
 10
0.7008700787401575
 20
1.7488188976377954
 30
0.0
 10
0.7008700787401575
 20
1.7488188976377954
 30
0.0
 10
0.7008700787401575
 20
1.7488188976377954
 30
0.0
 10
0.7008700787401575
 20
1.7488188976377954
 30
0.0
 10
0.6956338582677165
 20
1.7558622047244095
 30
0.0
 10
0.6956338582677165
 20
1.7558622047244095
 30
0.0
 10
0.6956338582677165
 20
1.7558622047244095
 30
0.0
 10
0.6956338582677165
 20
1.7558622047244095
 30
0.0
 10
0.6910905511811024
 20
1.7630275590551181
 30
0.0
 10
0.6910905511811024
 20
1.7630275590551181
 30
0.0
 10
0.6910905511811024
 20
1.7630275590551181
 30
0.0
 10
0.6910905511811024
 20
1.7630275590551181
 30
0.0
 10
0.6871850393700788
 20
1.7702795275590553
 30
0.0
 10
0.6871850393700788
 20
1.7702795275590553
 30
0.0
 10
0.6871850393700788
 20
1.7702795275590553
 30
0.0
 10
0.6871850393700788
 20
1.7702795275590553
 30
0.0
 10
0.6890551181102362
 20
1.0262519685039371
 30
0.0
 10
0.6890551181102362
 20
1.0262519685039371
 30
0.0
 10
0.6890551181102362
 20
1.0262519685039371
 30
0.0
 10
0.6890551181102362
 20
1.0262519685039371
 30
0.0
 10
0.6929606299212598
 20
1.0190000000000001
 30
0.0
 10
0.6929606299212598
 20
1.0190000000000001
 30
0.0
 10
0.6929606299212598
 20
1.0190000000000001
 30
0.0
 10
0.6929606299212598
 20
1.0190000000000001
 30
0.0
 10
0.6975039370078741
 20
1.0118346456692913
 30
0.0
 10
0.6975039370078741
 20
1.0118346456692913
 30
0.0
 10
0.6975039370078741
 20
1.0118346456692913
 30
0.0
 10
0.6975039370078741
 20
1.0118346456692913
 30
0.0
 10
0.702740157480315
 20
1.0047913385826772
 30
0.0
 10
0.702740157480315
 20
1.0047913385826772
 30
0.0
 10
0.702740157480315
 20
1.0047913385826772
 30
0.0
 10
0.702740157480315
 20
1.0047913385826772
 30
0.0
 10
0.7087086614173229
 20
0.9978937007874016
 30
0.0
 10
0.7087086614173229
 20
0.9978937007874016
 30
0.0
 10
0.7087086614173229
 20
0.9978937007874016
 30
0.0
 10
0.7087086614173229
 20
0.9978937007874016
 30
0.0
 10
0.7154685039370079
 20
0.9911850393700787
 30
0.0
 10
0.7154685039370079
 20
0.9911850393700787
 30
0.0
  0
SPLINE
  5
57
100
AcDbEntity
  8
Layer 1
 62
     9
100
AcDbSpline
210
0.0
220
0.0
230
1.0
 70
     1
 71
     3
 72
    60
 73
    56
 74
     0
 42
0.0000000001
 43
0.0000000001
 40
0.0
 40
0.0
 40
0.0
 40
0.0
 40
0.0714285714285714
 40
0.0714285714285714
 40
0.0714285714285714
 40
0.0714285714285714
 40
0.1428571428571429
 40
0.1428571428571429
 40
0.1428571428571429
 40
0.1428571428571429
 40
0.2142857142857143
 40
0.2142857142857143
 40
0.2142857142857143
 40
0.2142857142857143
 40
0.2857142857142857
 40
0.2857142857142857
 40
0.2857142857142857
 40
0.2857142857142857
 40
0.3571428571428571
 40
0.3571428571428571
 40
0.3571428571428571
 40
0.3571428571428571
 40
0.4285714285714285
 40
0.4285714285714285
 40
0.4285714285714285
 40
0.4285714285714285
 40
0.4999999999999999
 40
0.4999999999999999
 40
0.4999999999999999
 40
0.4999999999999999
 40
0.5714285714285713
 40
0.5714285714285713
 40
0.5714285714285713
 40
0.5714285714285713
 40
0.6428571428571427
 40
0.6428571428571427
 40
0.6428571428571427
 40
0.6428571428571427
 40
0.7142857142857141
 40
0.7142857142857141
 40
0.7142857142857141
 40
0.7142857142857141
 40
0.7857142857142855
 40
0.7857142857142855
 40
0.7857142857142855
 40
0.7857142857142855
 40
0.8571428571428569
 40
0.8571428571428569
 40
0.8571428571428569
 40
0.8571428571428569
 40
0.9285714285714283
 40
0.9285714285714283
 40
0.9285714285714283
 40
0.9285714285714283
 40
1.0
 40
1.0
 40
1.0
 40
1.0
 10
0.6890551181102362
 20
1.0262519685039371
 30
0.0
 10
0.6890551181102362
 20
1.0262519685039371
 30
0.0
 10
0.6871850393700788
 20
1.7702795275590553
 30
0.0
 10
0.6871850393700788
 20
1.7702795275590553
 30
0.0
 10
0.6871850393700788
 20
1.7702795275590553
 30
0.0
 10
0.6871850393700788
 20
1.7702795275590553
 30
0.0
 10
0.6838779527559056
 20
1.7775984251968504
 30
0.0
 10
0.6838779527559056
 20
1.7775984251968504
 30
0.0
 10
0.6838779527559056
 20
1.7775984251968504
 30
0.0
 10
0.6838779527559056
 20
1.7775984251968504
 30
0.0
 10
0.6811023622047244
 20
1.7849370078740159
 30
0.0
 10
0.6811023622047244
 20
1.7849370078740159
 30
0.0
 10
0.6811023622047244
 20
1.7849370078740159
 30
0.0
 10
0.6811023622047244
 20
1.7849370078740159
 30
0.0
 10
0.6788228346456693
 20
1.7922755905511811
 30
0.0
 10
0.6788228346456693
 20
1.7922755905511811
 30
0.0
 10
0.6788228346456693
 20
1.7922755905511811
 30
0.0
 10
0.6788228346456693
 20
1.7922755905511811
 30
0.0
 10
0.676984251968504
 20
1.7995787401574803
 30
0.0
 10
0.676984251968504
 20
1.7995787401574803
 30
0.0
 10
0.676984251968504
 20
1.7995787401574803
 30
0.0
 10
0.676984251968504
 20
1.7995787401574803
 30
0.0
 10
0.6755433070866143
 20
1.8068149606299213
 30
0.0
 10
0.6755433070866143
 20
1.8068149606299213
 30
0.0
 10
0.6755433070866143
 20
1.8068149606299213
 30
0.0
 10
0.6755433070866143
 20
1.8068149606299213
 30
0.0
 10
0.6744330708661418
 20
1.8139448818897639
 30
0.0
 10
0.6744330708661418
 20
1.8139448818897639
 30
0.0
 10
0.6744330708661418
 20
1.8139448818897639
 30
0.0
 10
0.6744330708661418
 20
1.8139448818897639
 30
0.0
 10
0.6763031496062992
 20
1.0699173228346457
 30
0.0
 10
0.6763031496062992
 20
1.0699173228346457
 30
0.0
 10
0.6763031496062992
 20
1.0699173228346457
 30
0.0
 10
0.6763031496062992
 20
1.0699173228346457
 30
0.0
 10
0.6774133858267717
 20
1.0627874015748031
 30
0.0
 10
0.6774133858267717
 20
1.0627874015748031
 30
0.0
 10
0.6774133858267717
 20
1.0627874015748031
 30
0.0
 10
0.6774133858267717
 20
1.0627874015748031
 30
0.0
 10
0.6788543307086614
 20
1.0555511811023623
 30
0.0
 10
0.6788543307086614
 20
1.0555511811023623
 30
0.0
 10
0.6788543307086614
 20
1.0555511811023623
 30
0.0
 10
0.6788543307086614
 20
1.0555511811023623
 30
0.0
 10
0.6806929133858268
 20
1.0482480314960629
 30
0.0
 10
0.6806929133858268
 20
1.0482480314960629
 30
0.0
 10
0.6806929133858268
 20
1.0482480314960629
 30
0.0
 10
0.6806929133858268
 20
1.0482480314960629
 30
0.0
 10
0.682972440944882
 20
1.0409094488188977
 30
0.0
 10
0.682972440944882
 20
1.0409094488188977
 30
0.0
 10
0.682972440944882
 20
1.0409094488188977
 30
0.0
 10
0.682972440944882
 20
1.0409094488188977
 30
0.0
 10
0.685748031496063
 20
1.0335708661417322
 30
0.0
 10
0.685748031496063
 20
1.0335708661417322
 30
0.0
 10
0.685748031496063
 20
1.0335708661417322
 30
0.0
 10
0.685748031496063
 20
1.0335708661417322
 30
0.0
 10
0.6890551181102362
 20
1.0262519685039371
 30
0.0
 10
0.6890551181102362
 20
1.0262519685039371
 30
0.0
  0
SPLINE
  5
58
100
AcDbEntity
  8
Layer 1
 62
   253
100
AcDbSpline
210
0.0
220
0.0
230
1.0
 70
     1
 71
     3
 72
    44
 73
    40
 74
     0
 42
0.0000000001
 43
0.0000000001
 40
0.0
 40
0.0
 40
0.0
 40
0.0
 40
0.1
 40
0.1
 40
0.1
 40
0.1
 40
0.2
 40
0.2
 40
0.2
 40
0.2
 40
0.3
 40
0.3
 40
0.3
 40
0.3
 40
0.4
 40
0.4
 40
0.4
 40
0.4
 40
0.5
 40
0.5
 40
0.5
 40
0.5
 40
0.6
 40
0.6
 40
0.6
 40
0.6
 40
0.7
 40
0.7
 40
0.7
 40
0.7
 40
0.7999999999999999
 40
0.7999999999999999
 40
0.7999999999999999
 40
0.7999999999999999
 40
0.8999999999999999
 40
0.8999999999999999
 40
0.8999999999999999
 40
0.8999999999999999
 40
1.0
 40
1.0
 40
1.0
 40
1.0
 10
0.6763031496062992
 20
1.0699173228346457
 30
0.0
 10
0.6763031496062992
 20
1.0699173228346457
 30
0.0
 10
0.6744330708661418
 20
1.8139448818897639
 30
0.0
 10
0.6744330708661418
 20
1.8139448818897639
 30
0.0
 10
0.6744330708661418
 20
1.8139448818897639
 30
0.0
 10
0.6744330708661418
 20
1.8139448818897639
 30
0.0
 10
0.6736220472440945
 20
1.8209488188976379
 30
0.0
 10
0.6736220472440945
 20
1.8209488188976379
 30
0.0
 10
0.6736220472440945
 20
1.8209488188976379
 30
0.0
 10
0.6736220472440945
 20
1.8209488188976379
 30
0.0
 10
0.6730472440944882
 20
1.8277874015748032
 30
0.0
 10
0.6730472440944882
 20
1.8277874015748032
 30
0.0
 10
0.6730472440944882
 20
1.8277874015748032
 30
0.0
 10
0.6730472440944882
 20
1.8277874015748032
 30
0.0
 10
0.6726692913385827
 20
1.8344409448818899
 30
0.0
 10
0.6726692913385827
 20
1.8344409448818899
 30
0.0
 10
0.6726692913385827
 20
1.8344409448818899
 30
0.0
 10
0.6726692913385827
 20
1.8344409448818899
 30
0.0
 10
0.6724251968503937
 20
1.8408582677165355
 30
0.0
 10
0.6724251968503937
 20
1.8408582677165355
 30
0.0
 10
0.6724251968503937
 20
1.8408582677165355
 30
0.0
 10
0.6724251968503937
 20
1.8408582677165355
 30
0.0
 10
0.6742952755905513
 20
1.0968307086614173
 30
0.0
 10
0.6742952755905513
 20
1.0968307086614173
 30
0.0
 10
0.6742952755905513
 20
1.0968307086614173
 30
0.0
 10
0.6742952755905513
 20
1.0968307086614173
 30
0.0
 10
0.6745393700787402
 20
1.0904133858267717
 30
0.0
 10
0.6745393700787402
 20
1.0904133858267717
 30
0.0
 10
0.6745393700787402
 20
1.0904133858267717
 30
0.0
 10
0.6745393700787402
 20
1.0904133858267717
 30
0.0
 10
0.6749173228346457
 20
1.083759842519685
 30
0.0
 10
0.6749173228346457
 20
1.083759842519685
 30
0.0
 10
0.6749173228346457
 20
1.083759842519685
 30
0.0
 10
0.6749173228346457
 20
1.083759842519685
 30
0.0
 10
0.675492125984252
 20
1.0769212598425197
 30
0.0
 10
0.675492125984252
 20
1.0769212598425197
 30
0.0
 10
0.675492125984252
 20
1.0769212598425197
 30
0.0
 10
0.675492125984252
 20
1.0769212598425197
 30
0.0
 10
0.6763031496062992
 20
1.0699173228346457
 30
0.0
 10
0.6763031496062992
 20
1.0699173228346457
 30
0.0
  0
SPLINE
  5
59
100
AcDbEntity
  8
Layer 1
370
     5
100
AcDbSpline
210
0.0
220
0.0
230
1.0
 70
     1
 71
     3
 72
   244
 73
   240
 74
     0
 42
0.0000000001
 43
0.0000000001
 40
0.0
 40
0.0
 40
0.0
 40
0.0
 40
0.0166666666666667
 40
0.0166666666666667
 40
0.0166666666666667
 40
0.0166666666666667
 40
0.0333333333333333
 40
0.0333333333333333
 40
0.0333333333333333
 40
0.0333333333333333
 40
0.05
 40
0.05
 40
0.05
 40
0.05
 40
0.0666666666666667
 40
0.0666666666666667
 40
0.0666666666666667
 40
0.0666666666666667
 40
0.0833333333333333
 40
0.0833333333333333
 40
0.0833333333333333
 40
0.0833333333333333
 40
0.1
 40
0.1
 40
0.1
 40
0.1
 40
0.1166666666666667
 40
0.1166666666666667
 40
0.1166666666666667
 40
0.1166666666666667
 40
0.1333333333333333
 40
0.1333333333333333
 40
0.1333333333333333
 40
0.1333333333333333
 40
0.15
 40
0.15
 40
0.15
 40
0.15
 40
0.1666666666666667
 40
0.1666666666666667
 40
0.1666666666666667
 40
0.1666666666666667
 40
0.1833333333333333
 40
0.1833333333333333
 40
0.1833333333333333
 40
0.1833333333333333
 40
0.2
 40
0.2
 40
0.2
 40
0.2
 40
0.2166666666666667
 40
0.2166666666666667
 40
0.2166666666666667
 40
0.2166666666666667
 40
0.2333333333333333
 40
0.2333333333333333
 40
0.2333333333333333
 40
0.2333333333333333
 40
0.25
 40
0.25
 40
0.25
 40
0.25
 40
0.2666666666666667
 40
0.2666666666666667
 40
0.2666666666666667
 40
0.2666666666666667
 40
0.2833333333333333
 40
0.2833333333333333
 40
0.2833333333333333
 40
0.2833333333333333
 40
0.3
 40
0.3
 40
0.3
 40
0.3
 40
0.3166666666666667
 40
0.3166666666666667
 40
0.3166666666666667
 40
0.3166666666666667
 40
0.3333333333333333
 40
0.3333333333333333
 40
0.3333333333333333
 40
0.3333333333333333
 40
0.35
 40
0.35
 40
0.35
 40
0.35
 40
0.3666666666666666
 40
0.3666666666666666
 40
0.3666666666666666
 40
0.3666666666666666
 40
0.3833333333333333
 40
0.3833333333333333
 40
0.3833333333333333
 40
0.3833333333333333
 40
0.4
 40
0.4
 40
0.4
 40
0.4
 40
0.4166666666666666
 40
0.4166666666666666
 40
0.4166666666666666
 40
0.4166666666666666
 40
0.4333333333333333
 40
0.4333333333333333
 40
0.4333333333333333
 40
0.4333333333333333
 40
0.45
 40
0.45
 40
0.45
 40
0.45
 40
0.4666666666666666
 40
0.4666666666666666
 40
0.4666666666666666
 40
0.4666666666666666
 40
0.4833333333333333
 40
0.4833333333333333
 40
0.4833333333333333
 40
0.4833333333333333
 40
0.4999999999999999
 40
0.4999999999999999
 40
0.4999999999999999
 40
0.4999999999999999
 40
0.5166666666666666
 40
0.5166666666666666
 40
0.5166666666666666
 40
0.5166666666666666
 40
0.5333333333333333
 40
0.5333333333333333
 40
0.5333333333333333
 40
0.5333333333333333
 40
0.55
 40
0.55
 40
0.55
 40
0.55
 40
0.5666666666666668
 40
0.5666666666666668
 40
0.5666666666666668
 40
0.5666666666666668
 40
0.5833333333333335
 40
0.5833333333333335
 40
0.5833333333333335
 40
0.5833333333333335
 40
0.6000000000000002
 40
0.6000000000000002
 40
0.6000000000000002
 40
0.6000000000000002
 40
0.6166666666666669
 40
0.6166666666666669
 40
0.6166666666666669
 40
0.6166666666666669
 40
0.6333333333333336
 40
0.6333333333333336
 40
0.6333333333333336
 40
0.6333333333333336
 40
0.6500000000000004
 40
0.6500000000000004
 40
0.6500000000000004
 40
0.6500000000000004
 40
0.6666666666666671
 40
0.6666666666666671
 40
0.6666666666666671
 40
0.6666666666666671
 40
0.6833333333333338
 40
0.6833333333333338
 40
0.6833333333333338
 40
0.6833333333333338
 40
0.7000000000000005
 40
0.7000000000000005
 40
0.7000000000000005
 40
0.7000000000000005
 40
0.7166666666666672
 40
0.7166666666666672
 40
0.7166666666666672
 40
0.7166666666666672
 40
0.733333333333334
 40
0.733333333333334
 40
0.733333333333334
 40
0.733333333333334
 40
0.7500000000000007
 40
0.7500000000000007
 40
0.7500000000000007
 40
0.7500000000000007
 40
0.7666666666666674
 40
0.7666666666666674
 40
0.7666666666666674
 40
0.7666666666666674
 40
0.7833333333333341
 40
0.7833333333333341
 40
0.7833333333333341
 40
0.7833333333333341
 40
0.8000000000000008
 40
0.8000000000000008
 40
0.8000000000000008
 40
0.8000000000000008
 40
0.8166666666666675
 40
0.8166666666666675
 40
0.8166666666666675
 40
0.8166666666666675
 40
0.8333333333333343
 40
0.8333333333333343
 40
0.8333333333333343
 40
0.8333333333333343
 40
0.850000000000001
 40
0.850000000000001
 40
0.850000000000001
 40
0.850000000000001
 40
0.8666666666666677
 40
0.8666666666666677
 40
0.8666666666666677
 40
0.8666666666666677
 40
0.8833333333333344
 40
0.8833333333333344
 40
0.8833333333333344
 40
0.8833333333333344
 40
0.9000000000000011
 40
0.9000000000000011
 40
0.9000000000000011
 40
0.9000000000000011
 40
0.9166666666666679
 40
0.9166666666666679
 40
0.9166666666666679
 40
0.9166666666666679
 40
0.9333333333333346
 40
0.9333333333333346
 40
0.9333333333333346
 40
0.9333333333333346
 40
0.9500000000000013
 40
0.9500000000000013
 40
0.9500000000000013
 40
0.9500000000000013
 40
0.966666666666668
 40
0.966666666666668
 40
0.966666666666668
 40
0.966666666666668
 40
0.9833333333333347
 40
0.9833333333333347
 40
0.9833333333333347
 40
0.9833333333333347
 40
1.0
 40
1.0
 40
1.0
 40
1.0
 10
0.9208503937007875
 20
0.9343385826771654
 30
0.0
 10
0.9208503937007875
 20
0.9343385826771654
 30
0.0
 10
0.9189803149606299
 20
1.6783661417322835
 30
0.0
 10
0.9189803149606299
 20
1.6783661417322835
 30
0.0
 10
0.9189803149606299
 20
1.6783661417322835
 30
0.0
 10
0.9189803149606299
 20
1.6783661417322835
 30
0.0
 10
0.8959409448818898
 20
1.6791692913385827
 30
0.0
 10
0.8959409448818898
 20
1.6791692913385827
 30
0.0
 10
0.8959409448818898
 20
1.6791692913385827
 30
0.0
 10
0.8959409448818898
 20
1.6791692913385827
 30
0.0
 10
0.8743976377952756
 20
1.6806062992125985
 30
0.0
 10
0.8743976377952756
 20
1.6806062992125985
 30
0.0
 10
0.8743976377952756
 20
1.6806062992125985
 30
0.0
 10
0.8743976377952756
 20
1.6806062992125985
 30
0.0
 10
0.8542795275590551
 20
1.6826338582677165
 30
0.0
 10
0.8542795275590551
 20
1.6826338582677165
 30
0.0
 10
0.8542795275590551
 20
1.6826338582677165
 30
0.0
 10
0.8542795275590551
 20
1.6826338582677165
 30
0.0
 10
0.8355590551181102
 20
1.685232283464567
 30
0.0
 10
0.8355590551181102
 20
1.685232283464567
 30
0.0
 10
0.8355590551181102
 20
1.685232283464567
 30
0.0
 10
0.8355590551181102
 20
1.685232283464567
 30
0.0
 10
0.8181653543307087
 20
1.6883543307086615
 30
0.0
 10
0.8181653543307087
 20
1.6883543307086615
 30
0.0
 10
0.8181653543307087
 20
1.6883543307086615
 30
0.0
 10
0.8181653543307087
 20
1.6883543307086615
 30
0.0
 10
0.8020629921259843
 20
1.691984251968504
 30
0.0
 10
0.8020629921259843
 20
1.691984251968504
 30
0.0
 10
0.8020629921259843
 20
1.691984251968504
 30
0.0
 10
0.8020629921259843
 20
1.691984251968504
 30
0.0
 10
0.7871968503937008
 20
1.6960787401574804
 30
0.0
 10
0.7871968503937008
 20
1.6960787401574804
 30
0.0
 10
0.7871968503937008
 20
1.6960787401574804
 30
0.0
 10
0.7871968503937008
 20
1.6960787401574804
 30
0.0
 10
0.7735236220472441
 20
1.7006141732283466
 30
0.0
 10
0.7735236220472441
 20
1.7006141732283466
 30
0.0
 10
0.7735236220472441
 20
1.7006141732283466
 30
0.0
 10
0.7735236220472441
 20
1.7006141732283466
 30
0.0
 10
0.760976377952756
 20
1.7055472440944883
 30
0.0
 10
0.760976377952756
 20
1.7055472440944883
 30
0.0
 10
0.760976377952756
 20
1.7055472440944883
 30
0.0
 10
0.760976377952756
 20
1.7055472440944883
 30
0.0
 10
0.7495236220472441
 20
1.7108582677165356
 30
0.0
 10
0.7495236220472441
 20
1.7108582677165356
 30
0.0
 10
0.7495236220472441
 20
1.7108582677165356
 30
0.0
 10
0.7495236220472441
 20
1.7108582677165356
 30
0.0
 10
0.7391062992125984
 20
1.7165118110236222
 30
0.0
 10
0.7391062992125984
 20
1.7165118110236222
 30
0.0
 10
0.7391062992125984
 20
1.7165118110236222
 30
0.0
 10
0.7391062992125984
 20
1.7165118110236222
 30
0.0
 10
0.7296850393700788
 20
1.72248031496063
 30
0.0
 10
0.7296850393700788
 20
1.72248031496063
 30
0.0
 10
0.7296850393700788
 20
1.72248031496063
 30
0.0
 10
0.7296850393700788
 20
1.72248031496063
 30
0.0
 10
0.7211929133858268
 20
1.7287204724409448
 30
0.0
 10
0.7211929133858268
 20
1.7287204724409448
 30
0.0
 10
0.7211929133858268
 20
1.7287204724409448
 30
0.0
 10
0.7211929133858268
 20
1.7287204724409448
 30
0.0
 10
0.7135984251968505
 20
1.7352125984251969
 30
0.0
 10
0.7135984251968505
 20
1.7352125984251969
 30
0.0
 10
0.7135984251968505
 20
1.7352125984251969
 30
0.0
 10
0.7135984251968505
 20
1.7352125984251969
 30
0.0
 10
0.7068385826771654
 20
1.7419212598425198
 30
0.0
 10
0.7068385826771654
 20
1.7419212598425198
 30
0.0
 10
0.7068385826771654
 20
1.7419212598425198
 30
0.0
 10
0.7068385826771654
 20
1.7419212598425198
 30
0.0
 10
0.7008700787401575
 20
1.7488188976377954
 30
0.0
 10
0.7008700787401575
 20
1.7488188976377954
 30
0.0
 10
0.7008700787401575
 20
1.7488188976377954
 30
0.0
 10
0.7008700787401575
 20
1.7488188976377954
 30
0.0
 10
0.6956338582677165
 20
1.7558622047244095
 30
0.0
 10
0.6956338582677165
 20
1.7558622047244095
 30
0.0
 10
0.6956338582677165
 20
1.7558622047244095
 30
0.0
 10
0.6956338582677165
 20
1.7558622047244095
 30
0.0
 10
0.6910905511811024
 20
1.7630275590551181
 30
0.0
 10
0.6910905511811024
 20
1.7630275590551181
 30
0.0
 10
0.6910905511811024
 20
1.7630275590551181
 30
0.0
 10
0.6910905511811024
 20
1.7630275590551181
 30
0.0
 10
0.6871850393700788
 20
1.7702795275590553
 30
0.0
 10
0.6871850393700788
 20
1.7702795275590553
 30
0.0
 10
0.6871850393700788
 20
1.7702795275590553
 30
0.0
 10
0.6871850393700788
 20
1.7702795275590553
 30
0.0
 10
0.6838779527559056
 20
1.7775984251968504
 30
0.0
 10
0.6838779527559056
 20
1.7775984251968504
 30
0.0
 10
0.6838779527559056
 20
1.7775984251968504
 30
0.0
 10
0.6838779527559056
 20
1.7775984251968504
 30
0.0
 10
0.6811023622047244
 20
1.7849370078740159
 30
0.0
 10
0.6811023622047244
 20
1.7849370078740159
 30
0.0
 10
0.6811023622047244
 20
1.7849370078740159
 30
0.0
 10
0.6811023622047244
 20
1.7849370078740159
 30
0.0
 10
0.6788228346456693
 20
1.7922755905511811
 30
0.0
 10
0.6788228346456693
 20
1.7922755905511811
 30
0.0
 10
0.6788228346456693
 20
1.7922755905511811
 30
0.0
 10
0.6788228346456693
 20
1.7922755905511811
 30
0.0
 10
0.676984251968504
 20
1.7995787401574803
 30
0.0
 10
0.676984251968504
 20
1.7995787401574803
 30
0.0
 10
0.676984251968504
 20
1.7995787401574803
 30
0.0
 10
0.676984251968504
 20
1.7995787401574803
 30
0.0
 10
0.6755433070866143
 20
1.8068149606299213
 30
0.0
 10
0.6755433070866143
 20
1.8068149606299213
 30
0.0
 10
0.6755433070866143
 20
1.8068149606299213
 30
0.0
 10
0.6755433070866143
 20
1.8068149606299213
 30
0.0
 10
0.6744330708661418
 20
1.8139448818897639
 30
0.0
 10
0.6744330708661418
 20
1.8139448818897639
 30
0.0
 10
0.6744330708661418
 20
1.8139448818897639
 30
0.0
 10
0.6744330708661418
 20
1.8139448818897639
 30
0.0
 10
0.6736220472440945
 20
1.8209488188976379
 30
0.0
 10
0.6736220472440945
 20
1.8209488188976379
 30
0.0
 10
0.6736220472440945
 20
1.8209488188976379
 30
0.0
 10
0.6736220472440945
 20
1.8209488188976379
 30
0.0
 10
0.6730472440944882
 20
1.8277874015748032
 30
0.0
 10
0.6730472440944882
 20
1.8277874015748032
 30
0.0
 10
0.6730472440944882
 20
1.8277874015748032
 30
0.0
 10
0.6730472440944882
 20
1.8277874015748032
 30
0.0
 10
0.6726692913385827
 20
1.8344409448818899
 30
0.0
 10
0.6726692913385827
 20
1.8344409448818899
 30
0.0
 10
0.6726692913385827
 20
1.8344409448818899
 30
0.0
 10
0.6726692913385827
 20
1.8344409448818899
 30
0.0
 10
0.6724251968503937
 20
1.8408582677165355
 30
0.0
 10
0.6724251968503937
 20
1.8408582677165355
 30
0.0
 10
0.6724251968503937
 20
1.8408582677165355
 30
0.0
 10
0.6724251968503937
 20
1.8408582677165355
 30
0.0
 10
0.6742952755905513
 20
1.0968307086614173
 30
0.0
 10
0.6742952755905513
 20
1.0968307086614173
 30
0.0
 10
0.6742952755905513
 20
1.0968307086614173
 30
0.0
 10
0.6742952755905513
 20
1.0968307086614173
 30
0.0
 10
0.6745393700787402
 20
1.0904133858267717
 30
0.0
 10
0.6745393700787402
 20
1.0904133858267717
 30
0.0
 10
0.6745393700787402
 20
1.0904133858267717
 30
0.0
 10
0.6745393700787402
 20
1.0904133858267717
 30
0.0
 10
0.6749173228346457
 20
1.083759842519685
 30
0.0
 10
0.6749173228346457
 20
1.083759842519685
 30
0.0
 10
0.6749173228346457
 20
1.083759842519685
 30
0.0
 10
0.6749173228346457
 20
1.083759842519685
 30
0.0
 10
0.675492125984252
 20
1.0769212598425197
 30
0.0
 10
0.675492125984252
 20
1.0769212598425197
 30
0.0
 10
0.675492125984252
 20
1.0769212598425197
 30
0.0
 10
0.675492125984252
 20
1.0769212598425197
 30
0.0
 10
0.6763031496062992
 20
1.0699173228346457
 30
0.0
 10
0.6763031496062992
 20
1.0699173228346457
 30
0.0
 10
0.6763031496062992
 20
1.0699173228346457
 30
0.0
 10
0.6763031496062992
 20
1.0699173228346457
 30
0.0
 10
0.6774133858267717
 20
1.0627874015748031
 30
0.0
 10
0.6774133858267717
 20
1.0627874015748031
 30
0.0
 10
0.6774133858267717
 20
1.0627874015748031
 30
0.0
 10
0.6774133858267717
 20
1.0627874015748031
 30
0.0
 10
0.6788543307086614
 20
1.0555511811023623
 30
0.0
 10
0.6788543307086614
 20
1.0555511811023623
 30
0.0
 10
0.6788543307086614
 20
1.0555511811023623
 30
0.0
 10
0.6788543307086614
 20
1.0555511811023623
 30
0.0
 10
0.6806929133858268
 20
1.0482480314960629
 30
0.0
 10
0.6806929133858268
 20
1.0482480314960629
 30
0.0
 10
0.6806929133858268
 20
1.0482480314960629
 30
0.0
 10
0.6806929133858268
 20
1.0482480314960629
 30
0.0
 10
0.682972440944882
 20
1.0409094488188977
 30
0.0
 10
0.682972440944882
 20
1.0409094488188977
 30
0.0
 10
0.682972440944882
 20
1.0409094488188977
 30
0.0
 10
0.682972440944882
 20
1.0409094488188977
 30
0.0
 10
0.685748031496063
 20
1.0335708661417322
 30
0.0
 10
0.685748031496063
 20
1.0335708661417322
 30
0.0
 10
0.685748031496063
 20
1.0335708661417322
 30
0.0
 10
0.685748031496063
 20
1.0335708661417322
 30
0.0
 10
0.6890551181102362
 20
1.0262519685039371
 30
0.0
 10
0.6890551181102362
 20
1.0262519685039371
 30
0.0
 10
0.6890551181102362
 20
1.0262519685039371
 30
0.0
 10
0.6890551181102362
 20
1.0262519685039371
 30
0.0
 10
0.6929606299212598
 20
1.0190000000000001
 30
0.0
 10
0.6929606299212598
 20
1.0190000000000001
 30
0.0
 10
0.6929606299212598
 20
1.0190000000000001
 30
0.0
 10
0.6929606299212598
 20
1.0190000000000001
 30
0.0
 10
0.6975039370078741
 20
1.0118346456692913
 30
0.0
 10
0.6975039370078741
 20
1.0118346456692913
 30
0.0
 10
0.6975039370078741
 20
1.0118346456692913
 30
0.0
 10
0.6975039370078741
 20
1.0118346456692913
 30
0.0
 10
0.702740157480315
 20
1.0047913385826772
 30
0.0
 10
0.702740157480315
 20
1.0047913385826772
 30
0.0
 10
0.702740157480315
 20
1.0047913385826772
 30
0.0
 10
0.702740157480315
 20
1.0047913385826772
 30
0.0
 10
0.7087086614173229
 20
0.9978937007874016
 30
0.0
 10
0.7087086614173229
 20
0.9978937007874016
 30
0.0
 10
0.7087086614173229
 20
0.9978937007874016
 30
0.0
 10
0.7087086614173229
 20
0.9978937007874016
 30
0.0
 10
0.7154685039370079
 20
0.9911850393700787
 30
0.0
 10
0.7154685039370079
 20
0.9911850393700787
 30
0.0
 10
0.7154685039370079
 20
0.9911850393700787
 30
0.0
 10
0.7154685039370079
 20
0.9911850393700787
 30
0.0
 10
0.7230629921259842
 20
0.9846929133858268
 30
0.0
 10
0.7230629921259842
 20
0.9846929133858268
 30
0.0
 10
0.7230629921259842
 20
0.9846929133858268
 30
0.0
 10
0.7230629921259842
 20
0.9846929133858268
 30
0.0
 10
0.7315551181102362
 20
0.9784527559055118
 30
0.0
 10
0.7315551181102362
 20
0.9784527559055118
 30
0.0
 10
0.7315551181102362
 20
0.9784527559055118
 30
0.0
 10
0.7315551181102362
 20
0.9784527559055118
 30
0.0
 10
0.740976377952756
 20
0.972484251968504
 30
0.0
 10
0.740976377952756
 20
0.972484251968504
 30
0.0
 10
0.740976377952756
 20
0.972484251968504
 30
0.0
 10
0.740976377952756
 20
0.972484251968504
 30
0.0
 10
0.7513937007874016
 20
0.9668307086614174
 30
0.0
 10
0.7513937007874016
 20
0.9668307086614174
 30
0.0
 10
0.7513937007874016
 20
0.9668307086614174
 30
0.0
 10
0.7513937007874016
 20
0.9668307086614174
 30
0.0
 10
0.7628464566929134
 20
0.9615196850393701
 30
0.0
 10
0.7628464566929134
 20
0.9615196850393701
 30
0.0
 10
0.7628464566929134
 20
0.9615196850393701
 30
0.0
 10
0.7628464566929134
 20
0.9615196850393701
 30
0.0
 10
0.7753937007874016
 20
0.9565866141732284
 30
0.0
 10
0.7753937007874016
 20
0.9565866141732284
 30
0.0
 10
0.7753937007874016
 20
0.9565866141732284
 30
0.0
 10
0.7753937007874016
 20
0.9565866141732284
 30
0.0
 10
0.7890669291338583
 20
0.9520511811023622
 30
0.0
 10
0.7890669291338583
 20
0.9520511811023622
 30
0.0
 10
0.7890669291338583
 20
0.9520511811023622
 30
0.0
 10
0.7890669291338583
 20
0.9520511811023622
 30
0.0
 10
0.8039330708661417
 20
0.9479566929133859
 30
0.0
 10
0.8039330708661417
 20
0.9479566929133859
 30
0.0
 10
0.8039330708661417
 20
0.9479566929133859
 30
0.0
 10
0.8039330708661417
 20
0.9479566929133859
 30
0.0
 10
0.8200354330708661
 20
0.9443267716535434
 30
0.0
 10
0.8200354330708661
 20
0.9443267716535434
 30
0.0
 10
0.8200354330708661
 20
0.9443267716535434
 30
0.0
 10
0.8200354330708661
 20
0.9443267716535434
 30
0.0
 10
0.8374291338582678
 20
0.9412047244094488
 30
0.0
 10
0.8374291338582678
 20
0.9412047244094488
 30
0.0
 10
0.8374291338582678
 20
0.9412047244094488
 30
0.0
 10
0.8374291338582678
 20
0.9412047244094488
 30
0.0
 10
0.8561496062992127
 20
0.9386062992125984
 30
0.0
 10
0.8561496062992127
 20
0.9386062992125984
 30
0.0
 10
0.8561496062992127
 20
0.9386062992125984
 30
0.0
 10
0.8561496062992127
 20
0.9386062992125984
 30
0.0
 10
0.8762677165354331
 20
0.9365787401574803
 30
0.0
 10
0.8762677165354331
 20
0.9365787401574803
 30
0.0
 10
0.8762677165354331
 20
0.9365787401574803
 30
0.0
 10
0.8762677165354331
 20
0.9365787401574803
 30
0.0
 10
0.8978110236220472
 20
0.9351417322834646
 30
0.0
 10
0.8978110236220472
 20
0.9351417322834646
 30
0.0
 10
0.8978110236220472
 20
0.9351417322834646
 30
0.0
 10
0.8978110236220472
 20
0.9351417322834646
 30
0.0
 10
0.9208503937007875
 20
0.9343385826771654
 30
0.0
 10
0.9208503937007875
 20
0.9343385826771654
 30
0.0
  0
SPLINE
  5
5A
100
AcDbEntity
  8
Layer 1
 62
   253
100
AcDbSpline
210
0.0
220
0.0
230
1.0
 70
     1
 71
     3
 72
    20
 73
    16
 74
     0
 42
0.0000000001
 43
0.0000000001
 40
0.0
 40
0.0
 40
0.0
 40
0.0
 40
0.25
 40
0.25
 40
0.25
 40
0.25
 40
0.5
 40
0.5
 40
0.5
 40
0.5
 40
0.75
 40
0.75
 40
0.75
 40
0.75
 40
1.0
 40
1.0
 40
1.0
 40
1.0
 10
0.6739527559055119
 20
1.1144330708661419
 30
0.0
 10
0.6739527559055119
 20
1.1144330708661419
 30
0.0
 10
0.6720826771653543
 20
1.8584606299212598
 30
0.0
 10
0.6720826771653543
 20
1.8584606299212598
 30
0.0
 10
0.6720826771653543
 20
1.8584606299212598
 30
0.0
 10
0.6720826771653543
 20
1.8584606299212598
 30
0.0
 10
0.6458464566929134
 20
1.8593976377952757
 30
0.0
 10
0.6458464566929134
 20
1.8593976377952757
 30
0.0
 10
0.6458464566929134
 20
1.8593976377952757
 30
0.0
 10
0.6458464566929134
 20
1.8593976377952757
 30
0.0
 10
0.6477165354330708
 20
1.1153700787401575
 30
0.0
 10
0.6477165354330708
 20
1.1153700787401575
 30
0.0
 10
0.6477165354330708
 20
1.1153700787401575
 30
0.0
 10
0.6477165354330708
 20
1.1153700787401575
 30
0.0
 10
0.6739527559055119
 20
1.1144330708661419
 30
0.0
 10
0.6739527559055119
 20
1.1144330708661419
 30
0.0
  0
SPLINE
  5
5B
100
AcDbEntity
  8
Layer 1
 62
   253
100
AcDbSpline
210
0.0
220
0.0
230
1.0
 70
     1
 71
     3
 72
    28
 73
    24
 74
     0
 42
0.0000000001
 43
0.0000000001
 40
0.0
 40
0.0
 40
0.0
 40
0.0
 40
0.1666666666666667
 40
0.1666666666666667
 40
0.1666666666666667
 40
0.1666666666666667
 40
0.3333333333333333
 40
0.3333333333333333
 40
0.3333333333333333
 40
0.3333333333333333
 40
0.5
 40
0.5
 40
0.5
 40
0.5
 40
0.6666666666666666
 40
0.6666666666666666
 40
0.6666666666666666
 40
0.6666666666666666
 40
0.8333333333333333
 40
0.8333333333333333
 40
0.8333333333333333
 40
0.8333333333333333
 40
1.0
 40
1.0
 40
1.0
 40
1.0
 10
0.6477165354330708
 20
1.1153700787401575
 30
0.0
 10
0.6477165354330708
 20
1.1153700787401575
 30
0.0
 10
0.6458464566929134
 20
1.8593976377952757
 30
0.0
 10
0.6458464566929134
 20
1.8593976377952757
 30
0.0
 10
0.6458464566929134
 20
1.8593976377952757
 30
0.0
 10
0.6458464566929134
 20
1.8593976377952757
 30
0.0
 10
0.6216062992125985
 20
1.8610039370078741
 30
0.0
 10
0.6216062992125985
 20
1.8610039370078741
 30
0.0
 10
0.6216062992125985
 20
1.8610039370078741
 30
0.0
 10
0.6216062992125985
 20
1.8610039370078741
 30
0.0
 10
0.599240157480315
 20
1.8632322834645669
 30
0.0
 10
0.599240157480315
 20
1.8632322834645669
 30
0.0
 10
0.599240157480315
 20
1.8632322834645669
 30
0.0
 10
0.599240157480315
 20
1.8632322834645669
 30
0.0
 10
0.6011102362204724
 20
1.119204724409449
 30
0.0
 10
0.6011102362204724
 20
1.119204724409449
 30
0.0
 10
0.6011102362204724
 20
1.119204724409449
 30
0.0
 10
0.6011102362204724
 20
1.119204724409449
 30
0.0
 10
0.6234763779527559
 20
1.1169763779527559
 30
0.0
 10
0.6234763779527559
 20
1.1169763779527559
 30
0.0
 10
0.6234763779527559
 20
1.1169763779527559
 30
0.0
 10
0.6234763779527559
 20
1.1169763779527559
 30
0.0
 10
0.6477165354330708
 20
1.1153700787401575
 30
0.0
 10
0.6477165354330708
 20
1.1153700787401575
 30
0.0
  0
SPLINE
  5
5C
100
AcDbEntity
  8
Layer 1
 62
   253
100
AcDbSpline
210
0.0
220
0.0
230
1.0
 70
     1
 71
     3
 72
    28
 73
    24
 74
     0
 42
0.0000000001
 43
0.0000000001
 40
0.0
 40
0.0
 40
0.0
 40
0.0
 40
0.1666666666666667
 40
0.1666666666666667
 40
0.1666666666666667
 40
0.1666666666666667
 40
0.3333333333333333
 40
0.3333333333333333
 40
0.3333333333333333
 40
0.3333333333333333
 40
0.5
 40
0.5
 40
0.5
 40
0.5
 40
0.6666666666666666
 40
0.6666666666666666
 40
0.6666666666666666
 40
0.6666666666666666
 40
0.8333333333333333
 40
0.8333333333333333
 40
0.8333333333333333
 40
0.8333333333333333
 40
1.0
 40
1.0
 40
1.0
 40
1.0
 10
0.6011102362204724
 20
1.119204724409449
 30
0.0
 10
0.6011102362204724
 20
1.119204724409449
 30
0.0
 10
0.599240157480315
 20
1.8632322834645669
 30
0.0
 10
0.599240157480315
 20
1.8632322834645669
 30
0.0
 10
0.599240157480315
 20
1.8632322834645669
 30
0.0
 10
0.599240157480315
 20
1.8632322834645669
 30
0.0
 10
0.5786259842519685
 20
1.8660511811023623
 30
0.0
 10
0.5786259842519685
 20
1.8660511811023623
 30
0.0
 10
0.5786259842519685
 20
1.8660511811023623
 30
0.0
 10
0.5786259842519685
 20
1.8660511811023623
 30
0.0
 10
0.5596377952755905
 20
1.8694015748031496
 30
0.0
 10
0.5596377952755905
 20
1.8694015748031496
 30
0.0
 10
0.5596377952755905
 20
1.8694015748031496
 30
0.0
 10
0.5596377952755905
 20
1.8694015748031496
 30
0.0
 10
0.5615078740157481
 20
1.1253740157480316
 30
0.0
 10
0.5615078740157481
 20
1.1253740157480316
 30
0.0
 10
0.5615078740157481
 20
1.1253740157480316
 30
0.0
 10
0.5615078740157481
 20
1.1253740157480316
 30
0.0
 10
0.580496062992126
 20
1.1220236220472442
 30
0.0
 10
0.580496062992126
 20
1.1220236220472442
 30
0.0
 10
0.580496062992126
 20
1.1220236220472442
 30
0.0
 10
0.580496062992126
 20
1.1220236220472442
 30
0.0
 10
0.6011102362204724
 20
1.119204724409449
 30
0.0
 10
0.6011102362204724
 20
1.119204724409449
 30
0.0
  0
SPLINE
  5
5D
100
AcDbEntity
  8
Layer 1
 62
   253
100
AcDbSpline
210
0.0
220
0.0
230
1.0
 70
     1
 71
     3
 72
    28
 73
    24
 74
     0
 42
0.0000000001
 43
0.0000000001
 40
0.0
 40
0.0
 40
0.0
 40
0.0
 40
0.1666666666666667
 40
0.1666666666666667
 40
0.1666666666666667
 40
0.1666666666666667
 40
0.3333333333333333
 40
0.3333333333333333
 40
0.3333333333333333
 40
0.3333333333333333
 40
0.5
 40
0.5
 40
0.5
 40
0.5
 40
0.6666666666666666
 40
0.6666666666666666
 40
0.6666666666666666
 40
0.6666666666666666
 40
0.8333333333333333
 40
0.8333333333333333
 40
0.8333333333333333
 40
0.8333333333333333
 40
1.0
 40
1.0
 40
1.0
 40
1.0
 10
0.5615078740157481
 20
1.1253740157480316
 30
0.0
 10
0.5615078740157481
 20
1.1253740157480316
 30
0.0
 10
0.5596377952755905
 20
1.8694015748031496
 30
0.0
 10
0.5596377952755905
 20
1.8694015748031496
 30
0.0
 10
0.5596377952755905
 20
1.8694015748031496
 30
0.0
 10
0.5596377952755905
 20
1.8694015748031496
 30
0.0
 10
0.5421614173228346
 20
1.8732598425196851
 30
0.0
 10
0.5421614173228346
 20
1.8732598425196851
 30
0.0
 10
0.5421614173228346
 20
1.8732598425196851
 30
0.0
 10
0.5421614173228346
 20
1.8732598425196851
 30
0.0
 10
0.5260708661417323
 20
1.8775787401574804
 30
0.0
 10
0.5260708661417323
 20
1.8775787401574804
 30
0.0
 10
0.5260708661417323
 20
1.8775787401574804
 30
0.0
 10
0.5260708661417323
 20
1.8775787401574804
 30
0.0
 10
0.5279409448818898
 20
1.1335511811023622
 30
0.0
 10
0.5279409448818898
 20
1.1335511811023622
 30
0.0
 10
0.5279409448818898
 20
1.1335511811023622
 30
0.0
 10
0.5279409448818898
 20
1.1335511811023622
 30
0.0
 10
0.5440314960629922
 20
1.1292322834645669
 30
0.0
 10
0.5440314960629922
 20
1.1292322834645669
 30
0.0
 10
0.5440314960629922
 20
1.1292322834645669
 30
0.0
 10
0.5440314960629922
 20
1.1292322834645669
 30
0.0
 10
0.5615078740157481
 20
1.1253740157480316
 30
0.0
 10
0.5615078740157481
 20
1.1253740157480316
 30
0.0
  0
SPLINE
  5
5E
100
AcDbEntity
  8
Layer 1
 62
   253
100
AcDbSpline
210
0.0
220
0.0
230
1.0
 70
     1
 71
     3
 72
    36
 73
    32
 74
     0
 42
0.0000000001
 43
0.0000000001
 40
0.0
 40
0.0
 40
0.0
 40
0.0
 40
0.125
 40
0.125
 40
0.125
 40
0.125
 40
0.25
 40
0.25
 40
0.25
 40
0.25
 40
0.375
 40
0.375
 40
0.375
 40
0.375
 40
0.5
 40
0.5
 40
0.5
 40
0.5
 40
0.625
 40
0.625
 40
0.625
 40
0.625
 40
0.75
 40
0.75
 40
0.75
 40
0.75
 40
0.875
 40
0.875
 40
0.875
 40
0.875
 40
1.0
 40
1.0
 40
1.0
 40
1.0
 10
0.5279409448818898
 20
1.1335511811023622
 30
0.0
 10
0.5279409448818898
 20
1.1335511811023622
 30
0.0
 10
0.5260708661417323
 20
1.8775787401574804
 30
0.0
 10
0.5260708661417323
 20
1.8775787401574804
 30
0.0
 10
0.5260708661417323
 20
1.8775787401574804
 30
0.0
 10
0.5260708661417323
 20
1.8775787401574804
 30
0.0
 10
0.511255905511811
 20
1.8823188976377954
 30
0.0
 10
0.511255905511811
 20
1.8823188976377954
 30
0.0
 10
0.511255905511811
 20
1.8823188976377954
 30
0.0
 10
0.511255905511811
 20
1.8823188976377954
 30
0.0
 10
0.4975787401574803
 20
1.8874291338582678
 30
0.0
 10
0.4975787401574803
 20
1.8874291338582678
 30
0.0
 10
0.4975787401574803
 20
1.8874291338582678
 30
0.0
 10
0.4975787401574803
 20
1.8874291338582678
 30
0.0
 10
0.4849330708661417
 20
1.8928818897637796
 30
0.0
 10
0.4849330708661417
 20
1.8928818897637796
 30
0.0
 10
0.4849330708661417
 20
1.8928818897637796
 30
0.0
 10
0.4849330708661417
 20
1.8928818897637796
 30
0.0
 10
0.4868031496062992
 20
1.1488543307086614
 30
0.0
 10
0.4868031496062992
 20
1.1488543307086614
 30
0.0
 10
0.4868031496062992
 20
1.1488543307086614
 30
0.0
 10
0.4868031496062992
 20
1.1488543307086614
 30
0.0
 10
0.4994488188976378
 20
1.1434015748031496
 30
0.0
 10
0.4994488188976378
 20
1.1434015748031496
 30
0.0
 10
0.4994488188976378
 20
1.1434015748031496
 30
0.0
 10
0.4994488188976378
 20
1.1434015748031496
 30
0.0
 10
0.5131259842519685
 20
1.1382913385826772
 30
0.0
 10
0.5131259842519685
 20
1.1382913385826772
 30
0.0
 10
0.5131259842519685
 20
1.1382913385826772
 30
0.0
 10
0.5131259842519685
 20
1.1382913385826772
 30
0.0
 10
0.5279409448818898
 20
1.1335511811023622
 30
0.0
 10
0.5279409448818898
 20
1.1335511811023622
 30
0.0
  0
SPLINE
  5
5F
100
AcDbEntity
  8
Layer 1
 62
     9
100
AcDbSpline
210
0.0
220
0.0
230
1.0
 70
     1
 71
     3
 72
    44
 73
    40
 74
     0
 42
0.0000000001
 43
0.0000000001
 40
0.0
 40
0.0
 40
0.0
 40
0.0
 40
0.1
 40
0.1
 40
0.1
 40
0.1
 40
0.2
 40
0.2
 40
0.2
 40
0.2
 40
0.3
 40
0.3
 40
0.3
 40
0.3
 40
0.4
 40
0.4
 40
0.4
 40
0.4
 40
0.5
 40
0.5
 40
0.5
 40
0.5
 40
0.6
 40
0.6
 40
0.6
 40
0.6
 40
0.7
 40
0.7
 40
0.7
 40
0.7
 40
0.7999999999999999
 40
0.7999999999999999
 40
0.7999999999999999
 40
0.7999999999999999
 40
0.8999999999999999
 40
0.8999999999999999
 40
0.8999999999999999
 40
0.8999999999999999
 40
1.0
 40
1.0
 40
1.0
 40
1.0
 10
0.4868031496062992
 20
1.1488543307086614
 30
0.0
 10
0.4868031496062992
 20
1.1488543307086614
 30
0.0
 10
0.4849330708661417
 20
1.8928818897637796
 30
0.0
 10
0.4849330708661417
 20
1.8928818897637796
 30
0.0
 10
0.4849330708661417
 20
1.8928818897637796
 30
0.0
 10
0.4849330708661417
 20
1.8928818897637796
 30
0.0
 10
0.4731889763779528
 20
1.8986299212598425
 30
0.0
 10
0.4731889763779528
 20
1.8986299212598425
 30
0.0
 10
0.4731889763779528
 20
1.8986299212598425
 30
0.0
 10
0.4731889763779528
 20
1.8986299212598425
 30
0.0
 10
0.462232283464567
 20
1.9046417322834646
 30
0.0
 10
0.462232283464567
 20
1.9046417322834646
 30
0.0
 10
0.462232283464567
 20
1.9046417322834646
 30
0.0
 10
0.462232283464567
 20
1.9046417322834646
 30
0.0
 10
0.4519370078740158
 20
1.9108622047244095
 30
0.0
 10
0.4519370078740158
 20
1.9108622047244095
 30
0.0
 10
0.4519370078740158
 20
1.9108622047244095
 30
0.0
 10
0.4519370078740158
 20
1.9108622047244095
 30
0.0
 10
0.4421889763779528
 20
1.9172637795275591
 30
0.0
 10
0.4421889763779528
 20
1.9172637795275591
 30
0.0
 10
0.4421889763779528
 20
1.9172637795275591
 30
0.0
 10
0.4421889763779528
 20
1.9172637795275591
 30
0.0
 10
0.4440590551181103
 20
1.1732362204724409
 30
0.0
 10
0.4440590551181103
 20
1.1732362204724409
 30
0.0
 10
0.4440590551181103
 20
1.1732362204724409
 30
0.0
 10
0.4440590551181103
 20
1.1732362204724409
 30
0.0
 10
0.4538070866141732
 20
1.1668346456692913
 30
0.0
 10
0.4538070866141732
 20
1.1668346456692913
 30
0.0
 10
0.4538070866141732
 20
1.1668346456692913
 30
0.0
 10
0.4538070866141732
 20
1.1668346456692913
 30
0.0
 10
0.4641023622047245
 20
1.1606141732283466
 30
0.0
 10
0.4641023622047245
 20
1.1606141732283466
 30
0.0
 10
0.4641023622047245
 20
1.1606141732283466
 30
0.0
 10
0.4641023622047245
 20
1.1606141732283466
 30
0.0
 10
0.4750590551181103
 20
1.1546023622047246
 30
0.0
 10
0.4750590551181103
 20
1.1546023622047246
 30
0.0
 10
0.4750590551181103
 20
1.1546023622047246
 30
0.0
 10
0.4750590551181103
 20
1.1546023622047246
 30
0.0
 10
0.4868031496062992
 20
1.1488543307086614
 30
0.0
 10
0.4868031496062992
 20
1.1488543307086614
 30
0.0
  0
SPLINE
  5
60
100
AcDbEntity
  8
Layer 1
 62
     9
100
AcDbSpline
210
0.0
220
0.0
230
1.0
 70
     1
 71
     3
 72
    44
 73
    40
 74
     0
 42
0.0000000001
 43
0.0000000001
 40
0.0
 40
0.0
 40
0.0
 40
0.0
 40
0.1
 40
0.1
 40
0.1
 40
0.1
 40
0.2
 40
0.2
 40
0.2
 40
0.2
 40
0.3
 40
0.3
 40
0.3
 40
0.3
 40
0.4
 40
0.4
 40
0.4
 40
0.4
 40
0.5
 40
0.5
 40
0.5
 40
0.5
 40
0.6
 40
0.6
 40
0.6
 40
0.6
 40
0.7
 40
0.7
 40
0.7
 40
0.7
 40
0.7999999999999999
 40
0.7999999999999999
 40
0.7999999999999999
 40
0.7999999999999999
 40
0.8999999999999999
 40
0.8999999999999999
 40
0.8999999999999999
 40
0.8999999999999999
 40
1.0
 40
1.0
 40
1.0
 40
1.0
 10
0.4440590551181103
 20
1.1732362204724409
 30
0.0
 10
0.4440590551181103
 20
1.1732362204724409
 30
0.0
 10
0.4421889763779528
 20
1.9172637795275591
 30
0.0
 10
0.4421889763779528
 20
1.9172637795275591
 30
0.0
 10
0.4421889763779528
 20
1.9172637795275591
 30
0.0
 10
0.4421889763779528
 20
1.9172637795275591
 30
0.0
 10
0.4328582677165355
 20
1.9237952755905512
 30
0.0
 10
0.4328582677165355
 20
1.9237952755905512
 30
0.0
 10
0.4328582677165355
 20
1.9237952755905512
 30
0.0
 10
0.4328582677165355
 20
1.9237952755905512
 30
0.0
 10
0.4238346456692914
 20
1.9304251968503938
 30
0.0
 10
0.4238346456692914
 20
1.9304251968503938
 30
0.0
 10
0.4238346456692914
 20
1.9304251968503938
 30
0.0
 10
0.4238346456692914
 20
1.9304251968503938
 30
0.0
 10
0.414984251968504
 20
1.9370984251968504
 30
0.0
 10
0.414984251968504
 20
1.9370984251968504
 30
0.0
 10
0.414984251968504
 20
1.9370984251968504
 30
0.0
 10
0.414984251968504
 20
1.9370984251968504
 30
0.0
 10
0.4061968503937008
 20
1.9437874015748031
 30
0.0
 10
0.4061968503937008
 20
1.9437874015748031
 30
0.0
 10
0.4061968503937008
 20
1.9437874015748031
 30
0.0
 10
0.4061968503937008
 20
1.9437874015748031
 30
0.0
 10
0.4080669291338583
 20
1.1997598425196851
 30
0.0
 10
0.4080669291338583
 20
1.1997598425196851
 30
0.0
 10
0.4080669291338583
 20
1.1997598425196851
 30
0.0
 10
0.4080669291338583
 20
1.1997598425196851
 30
0.0
 10
0.4168543307086615
 20
1.1930708661417324
 30
0.0
 10
0.4168543307086615
 20
1.1930708661417324
 30
0.0
 10
0.4168543307086615
 20
1.1930708661417324
 30
0.0
 10
0.4168543307086615
 20
1.1930708661417324
 30
0.0
 10
0.4257047244094488
 20
1.1863976377952756
 30
0.0
 10
0.4257047244094488
 20
1.1863976377952756
 30
0.0
 10
0.4257047244094488
 20
1.1863976377952756
 30
0.0
 10
0.4257047244094488
 20
1.1863976377952756
 30
0.0
 10
0.434728346456693
 20
1.1797677165354332
 30
0.0
 10
0.434728346456693
 20
1.1797677165354332
 30
0.0
 10
0.434728346456693
 20
1.1797677165354332
 30
0.0
 10
0.434728346456693
 20
1.1797677165354332
 30
0.0
 10
0.4440590551181103
 20
1.1732362204724409
 30
0.0
 10
0.4440590551181103
 20
1.1732362204724409
 30
0.0
  0
SPLINE
  5
61
100
AcDbEntity
  8
Layer 1
 62
     9
100
AcDbSpline
210
0.0
220
0.0
230
1.0
 70
     1
 71
     3
 72
    44
 73
    40
 74
     0
 42
0.0000000001
 43
0.0000000001
 40
0.0
 40
0.0
 40
0.0
 40
0.0
 40
0.1
 40
0.1
 40
0.1
 40
0.1
 40
0.2
 40
0.2
 40
0.2
 40
0.2
 40
0.3
 40
0.3
 40
0.3
 40
0.3
 40
0.4
 40
0.4
 40
0.4
 40
0.4
 40
0.5
 40
0.5
 40
0.5
 40
0.5
 40
0.6
 40
0.6
 40
0.6
 40
0.6
 40
0.7
 40
0.7
 40
0.7
 40
0.7
 40
0.7999999999999999
 40
0.7999999999999999
 40
0.7999999999999999
 40
0.7999999999999999
 40
0.8999999999999999
 40
0.8999999999999999
 40
0.8999999999999999
 40
0.8999999999999999
 40
1.0
 40
1.0
 40
1.0
 40
1.0
 10
0.4080669291338583
 20
1.1997598425196851
 30
0.0
 10
0.4080669291338583
 20
1.1997598425196851
 30
0.0
 10
0.4061968503937008
 20
1.9437874015748031
 30
0.0
 10
0.4061968503937008
 20
1.9437874015748031
 30
0.0
 10
0.4061968503937008
 20
1.9437874015748031
 30
0.0
 10
0.4061968503937008
 20
1.9437874015748031
 30
0.0
 10
0.3973464566929134
 20
1.9504448818897639
 30
0.0
 10
0.3973464566929134
 20
1.9504448818897639
 30
0.0
 10
0.3973464566929134
 20
1.9504448818897639
 30
0.0
 10
0.3973464566929134
 20
1.9504448818897639
 30
0.0
 10
0.3883188976377953
 20
1.9570393700787403
 30
0.0
 10
0.3883188976377953
 20
1.9570393700787403
 30
0.0
 10
0.3883188976377953
 20
1.9570393700787403
 30
0.0
 10
0.3883188976377953
 20
1.9570393700787403
 30
0.0
 10
0.37898031496063
 20
1.9635157480314962
 30
0.0
 10
0.37898031496063
 20
1.9635157480314962
 30
0.0
 10
0.37898031496063
 20
1.9635157480314962
 30
0.0
 10
0.37898031496063
 20
1.9635157480314962
 30
0.0
 10
0.3692244094488189
 20
1.9698464566929135
 30
0.0
 10
0.3692244094488189
 20
1.9698464566929135
 30
0.0
 10
0.3692244094488189
 20
1.9698464566929135
 30
0.0
 10
0.3692244094488189
 20
1.9698464566929135
 30
0.0
 10
0.3710944881889764
 20
1.2258188976377953
 30
0.0
 10
0.3710944881889764
 20
1.2258188976377953
 30
0.0
 10
0.3710944881889764
 20
1.2258188976377953
 30
0.0
 10
0.3710944881889764
 20
1.2258188976377953
 30
0.0
 10
0.3808503937007874
 20
1.219488188976378
 30
0.0
 10
0.3808503937007874
 20
1.219488188976378
 30
0.0
 10
0.3808503937007874
 20
1.219488188976378
 30
0.0
 10
0.3808503937007874
 20
1.219488188976378
 30
0.0
 10
0.3901889763779528
 20
1.2130118110236221
 30
0.0
 10
0.3901889763779528
 20
1.2130118110236221
 30
0.0
 10
0.3901889763779528
 20
1.2130118110236221
 30
0.0
 10
0.3901889763779528
 20
1.2130118110236221
 30
0.0
 10
0.3992165354330709
 20
1.2064173228346458
 30
0.0
 10
0.3992165354330709
 20
1.2064173228346458
 30
0.0
 10
0.3992165354330709
 20
1.2064173228346458
 30
0.0
 10
0.3992165354330709
 20
1.2064173228346458
 30
0.0
 10
0.4080669291338583
 20
1.1997598425196851
 30
0.0
 10
0.4080669291338583
 20
1.1997598425196851
 30
0.0
  0
SPLINE
  5
62
100
AcDbEntity
  8
Layer 1
 62
     9
100
AcDbSpline
210
0.0
220
0.0
230
1.0
 70
     1
 71
     3
 72
    36
 73
    32
 74
     0
 42
0.0000000001
 43
0.0000000001
 40
0.0
 40
0.0
 40
0.0
 40
0.0
 40
0.125
 40
0.125
 40
0.125
 40
0.125
 40
0.25
 40
0.25
 40
0.25
 40
0.25
 40
0.375
 40
0.375
 40
0.375
 40
0.375
 40
0.5
 40
0.5
 40
0.5
 40
0.5
 40
0.625
 40
0.625
 40
0.625
 40
0.625
 40
0.75
 40
0.75
 40
0.75
 40
0.75
 40
0.875
 40
0.875
 40
0.875
 40
0.875
 40
1.0
 40
1.0
 40
1.0
 40
1.0
 10
0.3710944881889764
 20
1.2258188976377953
 30
0.0
 10
0.3710944881889764
 20
1.2258188976377953
 30
0.0
 10
0.3692244094488189
 20
1.9698464566929135
 30
0.0
 10
0.3692244094488189
 20
1.9698464566929135
 30
0.0
 10
0.3692244094488189
 20
1.9698464566929135
 30
0.0
 10
0.3692244094488189
 20
1.9698464566929135
 30
0.0
 10
0.3589251968503937
 20
1.9759803149606301
 30
0.0
 10
0.3589251968503937
 20
1.9759803149606301
 30
0.0
 10
0.3589251968503937
 20
1.9759803149606301
 30
0.0
 10
0.3589251968503937
 20
1.9759803149606301
 30
0.0
 10
0.3479645669291339
 20
1.9818897637795276
 30
0.0
 10
0.3479645669291339
 20
1.9818897637795276
 30
0.0
 10
0.3479645669291339
 20
1.9818897637795276
 30
0.0
 10
0.3479645669291339
 20
1.9818897637795276
 30
0.0
 10
0.3362086614173229
 20
1.9875118110236221
 30
0.0
 10
0.3362086614173229
 20
1.9875118110236221
 30
0.0
 10
0.3362086614173229
 20
1.9875118110236221
 30
0.0
 10
0.3362086614173229
 20
1.9875118110236221
 30
0.0
 10
0.3380787401574804
 20
1.2434842519685039
 30
0.0
 10
0.3380787401574804
 20
1.2434842519685039
 30
0.0
 10
0.3380787401574804
 20
1.2434842519685039
 30
0.0
 10
0.3380787401574804
 20
1.2434842519685039
 30
0.0
 10
0.3498346456692913
 20
1.2378622047244094
 30
0.0
 10
0.3498346456692913
 20
1.2378622047244094
 30
0.0
 10
0.3498346456692913
 20
1.2378622047244094
 30
0.0
 10
0.3498346456692913
 20
1.2378622047244094
 30
0.0
 10
0.3607952755905512
 20
1.2319527559055119
 30
0.0
 10
0.3607952755905512
 20
1.2319527559055119
 30
0.0
 10
0.3607952755905512
 20
1.2319527559055119
 30
0.0
 10
0.3607952755905512
 20
1.2319527559055119
 30
0.0
 10
0.3710944881889764
 20
1.2258188976377953
 30
0.0
 10
0.3710944881889764
 20
1.2258188976377953
 30
0.0
  0
SPLINE
  5
63
100
AcDbEntity
  8
Layer 1
 62
   253
100
AcDbSpline
210
0.0
220
0.0
230
1.0
 70
     1
 71
     3
 72
    36
 73
    32
 74
     0
 42
0.0000000001
 43
0.0000000001
 40
0.0
 40
0.0
 40
0.0
 40
0.0
 40
0.125
 40
0.125
 40
0.125
 40
0.125
 40
0.25
 40
0.25
 40
0.25
 40
0.25
 40
0.375
 40
0.375
 40
0.375
 40
0.375
 40
0.5
 40
0.5
 40
0.5
 40
0.5
 40
0.625
 40
0.625
 40
0.625
 40
0.625
 40
0.75
 40
0.75
 40
0.75
 40
0.75
 40
0.875
 40
0.875
 40
0.875
 40
0.875
 40
1.0
 40
1.0
 40
1.0
 40
1.0
 10
0.3380787401574804
 20
1.2434842519685039
 30
0.0
 10
0.3380787401574804
 20
1.2434842519685039
 30
0.0
 10
0.3362086614173229
 20
1.9875118110236221
 30
0.0
 10
0.3362086614173229
 20
1.9875118110236221
 30
0.0
 10
0.3362086614173229
 20
1.9875118110236221
 30
0.0
 10
0.3362086614173229
 20
1.9875118110236221
 30
0.0
 10
0.3235511811023622
 20
1.9928267716535433
 30
0.0
 10
0.3235511811023622
 20
1.9928267716535433
 30
0.0
 10
0.3235511811023622
 20
1.9928267716535433
 30
0.0
 10
0.3235511811023622
 20
1.9928267716535433
 30
0.0
 10
0.3098622047244095
 20
1.9977834645669292
 30
0.0
 10
0.3098622047244095
 20
1.9977834645669292
 30
0.0
 10
0.3098622047244095
 20
1.9977834645669292
 30
0.0
 10
0.3098622047244095
 20
1.9977834645669292
 30
0.0
 10
0.2950314960629921
 20
2.0023503937007874
 30
0.0
 10
0.2950314960629921
 20
2.0023503937007874
 30
0.0
 10
0.2950314960629921
 20
2.0023503937007874
 30
0.0
 10
0.2950314960629921
 20
2.0023503937007874
 30
0.0
 10
0.2969015748031496
 20
1.2583228346456694
 30
0.0
 10
0.2969015748031496
 20
1.2583228346456694
 30
0.0
 10
0.2969015748031496
 20
1.2583228346456694
 30
0.0
 10
0.2969015748031496
 20
1.2583228346456694
 30
0.0
 10
0.3117322834645669
 20
1.253755905511811
 30
0.0
 10
0.3117322834645669
 20
1.253755905511811
 30
0.0
 10
0.3117322834645669
 20
1.253755905511811
 30
0.0
 10
0.3117322834645669
 20
1.253755905511811
 30
0.0
 10
0.3254212598425197
 20
1.2487992125984253
 30
0.0
 10
0.3254212598425197
 20
1.2487992125984253
 30
0.0
 10
0.3254212598425197
 20
1.2487992125984253
 30
0.0
 10
0.3254212598425197
 20
1.2487992125984253
 30
0.0
 10
0.3380787401574804
 20
1.2434842519685039
 30
0.0
 10
0.3380787401574804
 20
1.2434842519685039
 30
0.0
  0
SPLINE
  5
64
100
AcDbEntity
  8
Layer 1
 62
   253
100
AcDbSpline
210
0.0
220
0.0
230
1.0
 70
     1
 71
     3
 72
    28
 73
    24
 74
     0
 42
0.0000000001
 43
0.0000000001
 40
0.0
 40
0.0
 40
0.0
 40
0.0
 40
0.1666666666666667
 40
0.1666666666666667
 40
0.1666666666666667
 40
0.1666666666666667
 40
0.3333333333333333
 40
0.3333333333333333
 40
0.3333333333333333
 40
0.3333333333333333
 40
0.5
 40
0.5
 40
0.5
 40
0.5
 40
0.6666666666666666
 40
0.6666666666666666
 40
0.6666666666666666
 40
0.6666666666666666
 40
0.8333333333333333
 40
0.8333333333333333
 40
0.8333333333333333
 40
0.8333333333333333
 40
1.0
 40
1.0
 40
1.0
 40
1.0
 10
0.2969015748031496
 20
1.2583228346456694
 30
0.0
 10
0.2969015748031496
 20
1.2583228346456694
 30
0.0
 10
0.2950314960629921
 20
2.0023503937007874
 30
0.0
 10
0.2950314960629921
 20
2.0023503937007874
 30
0.0
 10
0.2950314960629921
 20
2.0023503937007874
 30
0.0
 10
0.2950314960629921
 20
2.0023503937007874
 30
0.0
 10
0.2789251968503937
 20
2.006472440944882
 30
0.0
 10
0.2789251968503937
 20
2.006472440944882
 30
0.0
 10
0.2789251968503937
 20
2.006472440944882
 30
0.0
 10
0.2789251968503937
 20
2.006472440944882
 30
0.0
 10
0.2614370078740158
 20
2.0101259842519688
 30
0.0
 10
0.2614370078740158
 20
2.0101259842519688
 30
0.0
 10
0.2614370078740158
 20
2.0101259842519688
 30
0.0
 10
0.2614370078740158
 20
2.0101259842519688
 30
0.0
 10
0.2633070866141732
 20
1.2660984251968503
 30
0.0
 10
0.2633070866141732
 20
1.2660984251968503
 30
0.0
 10
0.2633070866141732
 20
1.2660984251968503
 30
0.0
 10
0.2633070866141732
 20
1.2660984251968503
 30
0.0
 10
0.2807952755905512
 20
1.2624448818897638
 30
0.0
 10
0.2807952755905512
 20
1.2624448818897638
 30
0.0
 10
0.2807952755905512
 20
1.2624448818897638
 30
0.0
 10
0.2807952755905512
 20
1.2624448818897638
 30
0.0
 10
0.2969015748031496
 20
1.2583228346456694
 30
0.0
 10
0.2969015748031496
 20
1.2583228346456694
 30
0.0
  0
SPLINE
  5
65
100
AcDbEntity
  8
Layer 1
 62
   253
100
AcDbSpline
210
0.0
220
0.0
230
1.0
 70
     1
 71
     3
 72
    28
 73
    24
 74
     0
 42
0.0000000001
 43
0.0000000001
 40
0.0
 40
0.0
 40
0.0
 40
0.0
 40
0.1666666666666667
 40
0.1666666666666667
 40
0.1666666666666667
 40
0.1666666666666667
 40
0.3333333333333333
 40
0.3333333333333333
 40
0.3333333333333333
 40
0.3333333333333333
 40
0.5
 40
0.5
 40
0.5
 40
0.5
 40
0.6666666666666666
 40
0.6666666666666666
 40
0.6666666666666666
 40
0.6666666666666666
 40
0.8333333333333333
 40
0.8333333333333333
 40
0.8333333333333333
 40
0.8333333333333333
 40
1.0
 40
1.0
 40
1.0
 40
1.0
 10
0.2633070866141732
 20
1.2660984251968503
 30
0.0
 10
0.2633070866141732
 20
1.2660984251968503
 30
0.0
 10
0.2614370078740158
 20
2.0101259842519688
 30
0.0
 10
0.2614370078740158
 20
2.0101259842519688
 30
0.0
 10
0.2614370078740158
 20
2.0101259842519688
 30
0.0
 10
0.2614370078740158
 20
2.0101259842519688
 30
0.0
 10
0.2424370078740158
 20
2.013251968503937
 30
0.0
 10
0.2424370078740158
 20
2.013251968503937
 30
0.0
 10
0.2424370078740158
 20
2.013251968503937
 30
0.0
 10
0.2424370078740158
 20
2.013251968503937
 30
0.0
 10
0.2218070866141732
 20
2.0158267716535434
 30
0.0
 10
0.2218070866141732
 20
2.0158267716535434
 30
0.0
 10
0.2218070866141732
 20
2.0158267716535434
 30
0.0
 10
0.2218070866141732
 20
2.0158267716535434
 30
0.0
 10
0.2236771653543307
 20
1.2717992125984252
 30
0.0
 10
0.2236771653543307
 20
1.2717992125984252
 30
0.0
 10
0.2236771653543307
 20
1.2717992125984252
 30
0.0
 10
0.2236771653543307
 20
1.2717992125984252
 30
0.0
 10
0.2443070866141733
 20
1.269224409448819
 30
0.0
 10
0.2443070866141733
 20
1.269224409448819
 30
0.0
 10
0.2443070866141733
 20
1.269224409448819
 30
0.0
 10
0.2443070866141733
 20
1.269224409448819
 30
0.0
 10
0.2633070866141732
 20
1.2660984251968503
 30
0.0
 10
0.2633070866141732
 20
1.2660984251968503
 30
0.0
  0
SPLINE
  5
66
100
AcDbEntity
  8
Layer 1
 62
   253
100
AcDbSpline
210
0.0
220
0.0
230
1.0
 70
     1
 71
     3
 72
    36
 73
    32
 74
     0
 42
0.0000000001
 43
0.0000000001
 40
0.0
 40
0.0
 40
0.0
 40
0.0
 40
0.125
 40
0.125
 40
0.125
 40
0.125
 40
0.25
 40
0.25
 40
0.25
 40
0.25
 40
0.375
 40
0.375
 40
0.375
 40
0.375
 40
0.5
 40
0.5
 40
0.5
 40
0.5
 40
0.625
 40
0.625
 40
0.625
 40
0.625
 40
0.75
 40
0.75
 40
0.75
 40
0.75
 40
0.875
 40
0.875
 40
0.875
 40
0.875
 40
1.0
 40
1.0
 40
1.0
 40
1.0
 10
0.2236771653543307
 20
1.2717992125984252
 30
0.0
 10
0.2236771653543307
 20
1.2717992125984252
 30
0.0
 10
0.2218070866141732
 20
2.0158267716535434
 30
0.0
 10
0.2218070866141732
 20
2.0158267716535434
 30
0.0
 10
0.2218070866141732
 20
2.0158267716535434
 30
0.0
 10
0.2218070866141732
 20
2.0158267716535434
 30
0.0
 10
0.2094448818897638
 20
2.0168976377952759
 30
0.0
 10
0.2094448818897638
 20
2.0168976377952759
 30
0.0
 10
0.2094448818897638
 20
2.0168976377952759
 30
0.0
 10
0.2094448818897638
 20
2.0168976377952759
 30
0.0
 10
0.1960118110236221
 20
2.017681102362205
 30
0.0
 10
0.1960118110236221
 20
2.017681102362205
 30
0.0
 10
0.1960118110236221
 20
2.017681102362205
 30
0.0
 10
0.1960118110236221
 20
2.017681102362205
 30
0.0
 10
0.1815944881889764
 20
2.0182480314960629
 30
0.0
 10
0.1815944881889764
 20
2.0182480314960629
 30
0.0
 10
0.1815944881889764
 20
2.0182480314960629
 30
0.0
 10
0.1815944881889764
 20
2.0182480314960629
 30
0.0
 10
0.1834645669291339
 20
1.2742204724409449
 30
0.0
 10
0.1834645669291339
 20
1.2742204724409449
 30
0.0
 10
0.1834645669291339
 20
1.2742204724409449
 30
0.0
 10
0.1834645669291339
 20
1.2742204724409449
 30
0.0
 10
0.1978818897637795
 20
1.2736535433070866
 30
0.0
 10
0.1978818897637795
 20
1.2736535433070866
 30
0.0
 10
0.1978818897637795
 20
1.2736535433070866
 30
0.0
 10
0.1978818897637795
 20
1.2736535433070866
 30
0.0
 10
0.2113149606299213
 20
1.2728700787401575
 30
0.0
 10
0.2113149606299213
 20
1.2728700787401575
 30
0.0
 10
0.2113149606299213
 20
1.2728700787401575
 30
0.0
 10
0.2113149606299213
 20
1.2728700787401575
 30
0.0
 10
0.2236771653543307
 20
1.2717992125984252
 30
0.0
 10
0.2236771653543307
 20
1.2717992125984252
 30
0.0
  0
SPLINE
  5
67
100
AcDbEntity
  8
Layer 1
 62
   253
100
AcDbSpline
210
0.0
220
0.0
230
1.0
 70
     1
 71
     3
 72
    36
 73
    32
 74
     0
 42
0.0000000001
 43
0.0000000001
 40
0.0
 40
0.0
 40
0.0
 40
0.0
 40
0.125
 40
0.125
 40
0.125
 40
0.125
 40
0.25
 40
0.25
 40
0.25
 40
0.25
 40
0.375
 40
0.375
 40
0.375
 40
0.375
 40
0.5
 40
0.5
 40
0.5
 40
0.5
 40
0.625
 40
0.625
 40
0.625
 40
0.625
 40
0.75
 40
0.75
 40
0.75
 40
0.75
 40
0.875
 40
0.875
 40
0.875
 40
0.875
 40
1.0
 40
1.0
 40
1.0
 40
1.0
 10
0.1834645669291339
 20
1.2742204724409449
 30
0.0
 10
0.1834645669291339
 20
1.2742204724409449
 30
0.0
 10
0.1815944881889764
 20
2.0182480314960629
 30
0.0
 10
0.1815944881889764
 20
2.0182480314960629
 30
0.0
 10
0.1815944881889764
 20
2.0182480314960629
 30
0.0
 10
0.1815944881889764
 20
2.0182480314960629
 30
0.0
 10
0.1662992125984252
 20
2.0186771653543309
 30
0.0
 10
0.1662992125984252
 20
2.0186771653543309
 30
0.0
 10
0.1662992125984252
 20
2.0186771653543309
 30
0.0
 10
0.1662992125984252
 20
2.0186771653543309
 30
0.0
 10
0.1502086614173228
 20
2.019031496062992
 30
0.0
 10
0.1502086614173228
 20
2.019031496062992
 30
0.0
 10
0.1502086614173228
 20
2.019031496062992
 30
0.0
 10
0.1502086614173228
 20
2.019031496062992
 30
0.0
 10
0.1334251968503937
 20
2.0194055118110237
 30
0.0
 10
0.1334251968503937
 20
2.0194055118110237
 30
0.0
 10
0.1334251968503937
 20
2.0194055118110237
 30
0.0
 10
0.1334251968503937
 20
2.0194055118110237
 30
0.0
 10
0.1352952755905512
 20
1.2753779527559055
 30
0.0
 10
0.1352952755905512
 20
1.2753779527559055
 30
0.0
 10
0.1352952755905512
 20
1.2753779527559055
 30
0.0
 10
0.1352952755905512
 20
1.2753779527559055
 30
0.0
 10
0.1520787401574803
 20
1.2750039370078741
 30
0.0
 10
0.1520787401574803
 20
1.2750039370078741
 30
0.0
 10
0.1520787401574803
 20
1.2750039370078741
 30
0.0
 10
0.1520787401574803
 20
1.2750039370078741
 30
0.0
 10
0.1681692913385827
 20
1.2746496062992128
 30
0.0
 10
0.1681692913385827
 20
1.2746496062992128
 30
0.0
 10
0.1681692913385827
 20
1.2746496062992128
 30
0.0
 10
0.1681692913385827
 20
1.2746496062992128
 30
0.0
 10
0.1834645669291339
 20
1.2742204724409449
 30
0.0
 10
0.1834645669291339
 20
1.2742204724409449
 30
0.0
  0
SPLINE
  5
68
100
AcDbEntity
  8
Layer 1
 62
   253
100
AcDbSpline
210
0.0
220
0.0
230
1.0
 70
     1
 71
     3
 72
    28
 73
    24
 74
     0
 42
0.0000000001
 43
0.0000000001
 40
0.0
 40
0.0
 40
0.0
 40
0.0
 40
0.1666666666666667
 40
0.1666666666666667
 40
0.1666666666666667
 40
0.1666666666666667
 40
0.3333333333333333
 40
0.3333333333333333
 40
0.3333333333333333
 40
0.3333333333333333
 40
0.5
 40
0.5
 40
0.5
 40
0.5
 40
0.6666666666666666
 40
0.6666666666666666
 40
0.6666666666666666
 40
0.6666666666666666
 40
0.8333333333333333
 40
0.8333333333333333
 40
0.8333333333333333
 40
0.8333333333333333
 40
1.0
 40
1.0
 40
1.0
 40
1.0
 10
0.1352952755905512
 20
1.2753779527559055
 30
0.0
 10
0.1352952755905512
 20
1.2753779527559055
 30
0.0
 10
0.1334251968503937
 20
2.0194055118110237
 30
0.0
 10
0.1334251968503937
 20
2.0194055118110237
 30
0.0
 10
0.1334251968503937
 20
2.0194055118110237
 30
0.0
 10
0.1334251968503937
 20
2.0194055118110237
 30
0.0
 10
0.1160433070866142
 20
2.0198661417322836
 30
0.0
 10
0.1160433070866142
 20
2.0198661417322836
 30
0.0
 10
0.1160433070866142
 20
2.0198661417322836
 30
0.0
 10
0.1160433070866142
 20
2.0198661417322836
 30
0.0
 10
0.0981614173228346
 20
2.0204921259842519
 30
0.0
 10
0.0981614173228346
 20
2.0204921259842519
 30
0.0
 10
0.0981614173228346
 20
2.0204921259842519
 30
0.0
 10
0.0981614173228346
 20
2.0204921259842519
 30
0.0
 10
0.1000314960629921
 20
1.2764645669291339
 30
0.0
 10
0.1000314960629921
 20
1.2764645669291339
 30
0.0
 10
0.1000314960629921
 20
1.2764645669291339
 30
0.0
 10
0.1000314960629921
 20
1.2764645669291339
 30
0.0
 10
0.1179133858267717
 20
1.2758385826771654
 30
0.0
 10
0.1179133858267717
 20
1.2758385826771654
 30
0.0
 10
0.1179133858267717
 20
1.2758385826771654
 30
0.0
 10
0.1179133858267717
 20
1.2758385826771654
 30
0.0
 10
0.1352952755905512
 20
1.2753779527559055
 30
0.0
 10
0.1352952755905512
 20
1.2753779527559055
 30
0.0
  0
SPLINE
  5
69
100
AcDbEntity
  8
Layer 1
 62
   253
100
AcDbSpline
210
0.0
220
0.0
230
1.0
 70
     1
 71
     3
 72
    28
 73
    24
 74
     0
 42
0.0000000001
 43
0.0000000001
 40
0.0
 40
0.0
 40
0.0
 40
0.0
 40
0.1666666666666667
 40
0.1666666666666667
 40
0.1666666666666667
 40
0.1666666666666667
 40
0.3333333333333333
 40
0.3333333333333333
 40
0.3333333333333333
 40
0.3333333333333333
 40
0.5
 40
0.5
 40
0.5
 40
0.5
 40
0.6666666666666666
 40
0.6666666666666666
 40
0.6666666666666666
 40
0.6666666666666666
 40
0.8333333333333333
 40
0.8333333333333333
 40
0.8333333333333333
 40
0.8333333333333333
 40
1.0
 40
1.0
 40
1.0
 40
1.0
 10
0.1000314960629921
 20
1.2764645669291339
 30
0.0
 10
0.1000314960629921
 20
1.2764645669291339
 30
0.0
 10
0.0981614173228346
 20
2.0204921259842519
 30
0.0
 10
0.0981614173228346
 20
2.0204921259842519
 30
0.0
 10
0.0981614173228346
 20
2.0204921259842519
 30
0.0
 10
0.0981614173228346
 20
2.0204921259842519
 30
0.0
 10
0.0798622047244095
 20
2.0213503937007875
 30
0.0
 10
0.0798622047244095
 20
2.0213503937007875
 30
0.0
 10
0.0798622047244095
 20
2.0213503937007875
 30
0.0
 10
0.0798622047244095
 20
2.0213503937007875
 30
0.0
 10
0.061259842519685
 20
2.0225275590551184
 30
0.0
 10
0.061259842519685
 20
2.0225275590551184
 30
0.0
 10
0.061259842519685
 20
2.0225275590551184
 30
0.0
 10
0.061259842519685
 20
2.0225275590551184
 30
0.0
 10
0.0631299212598425
 20
1.2785
 30
0.0
 10
0.0631299212598425
 20
1.2785
 30
0.0
 10
0.0631299212598425
 20
1.2785
 30
0.0
 10
0.0631299212598425
 20
1.2785
 30
0.0
 10
0.0817322834645669
 20
1.2773228346456693
 30
0.0
 10
0.0817322834645669
 20
1.2773228346456693
 30
0.0
 10
0.0817322834645669
 20
1.2773228346456693
 30
0.0
 10
0.0817322834645669
 20
1.2773228346456693
 30
0.0
 10
0.1000314960629921
 20
1.2764645669291339
 30
0.0
 10
0.1000314960629921
 20
1.2764645669291339
 30
0.0
  0
SPLINE
  5
6A
100
AcDbEntity
  8
Layer 1
 62
   253
100
AcDbSpline
210
0.0
220
0.0
230
1.0
 70
     1
 71
     3
 72
    28
 73
    24
 74
     0
 42
0.0000000001
 43
0.0000000001
 40
0.0
 40
0.0
 40
0.0
 40
0.0
 40
0.1666666666666667
 40
0.1666666666666667
 40
0.1666666666666667
 40
0.1666666666666667
 40
0.3333333333333333
 40
0.3333333333333333
 40
0.3333333333333333
 40
0.3333333333333333
 40
0.5
 40
0.5
 40
0.5
 40
0.5
 40
0.6666666666666666
 40
0.6666666666666666
 40
0.6666666666666666
 40
0.6666666666666666
 40
0.8333333333333333
 40
0.8333333333333333
 40
0.8333333333333333
 40
0.8333333333333333
 40
1.0
 40
1.0
 40
1.0
 40
1.0
 10
0.0631299212598425
 20
1.2785
 30
0.0
 10
0.0631299212598425
 20
1.2785
 30
0.0
 10
0.061259842519685
 20
2.0225275590551184
 30
0.0
 10
0.061259842519685
 20
2.0225275590551184
 30
0.0
 10
0.061259842519685
 20
2.0225275590551184
 30
0.0
 10
0.061259842519685
 20
2.0225275590551184
 30
0.0
 10
0.0424330708661417
 20
2.0240944881889766
 30
0.0
 10
0.0424330708661417
 20
2.0240944881889766
 30
0.0
 10
0.0424330708661417
 20
2.0240944881889766
 30
0.0
 10
0.0424330708661417
 20
2.0240944881889766
 30
0.0
 10
0.023492125984252
 20
2.0261377952755906
 30
0.0
 10
0.023492125984252
 20
2.0261377952755906
 30
0.0
 10
0.023492125984252
 20
2.0261377952755906
 30
0.0
 10
0.023492125984252
 20
2.0261377952755906
 30
0.0
 10
0.0253622047244094
 20
1.2821102362204726
 30
0.0
 10
0.0253622047244094
 20
1.2821102362204726
 30
0.0
 10
0.0253622047244094
 20
1.2821102362204726
 30
0.0
 10
0.0253622047244094
 20
1.2821102362204726
 30
0.0
 10
0.0443031496062992
 20
1.2800669291338582
 30
0.0
 10
0.0443031496062992
 20
1.2800669291338582
 30
0.0
 10
0.0443031496062992
 20
1.2800669291338582
 30
0.0
 10
0.0443031496062992
 20
1.2800669291338582
 30
0.0
 10
0.0631299212598425
 20
1.2785
 30
0.0
 10
0.0631299212598425
 20
1.2785
 30
0.0
  0
SPLINE
  5
6B
100
AcDbEntity
  8
Layer 1
 62
   253
100
AcDbSpline
210
0.0
220
0.0
230
1.0
 70
     1
 71
     3
 72
    28
 73
    24
 74
     0
 42
0.0000000001
 43
0.0000000001
 40
0.0
 40
0.0
 40
0.0
 40
0.0
 40
0.1666666666666667
 40
0.1666666666666667
 40
0.1666666666666667
 40
0.1666666666666667
 40
0.3333333333333333
 40
0.3333333333333333
 40
0.3333333333333333
 40
0.3333333333333333
 40
0.5
 40
0.5
 40
0.5
 40
0.5
 40
0.6666666666666666
 40
0.6666666666666666
 40
0.6666666666666666
 40
0.6666666666666666
 40
0.8333333333333333
 40
0.8333333333333333
 40
0.8333333333333333
 40
0.8333333333333333
 40
1.0
 40
1.0
 40
1.0
 40
1.0
 10
0.0253622047244094
 20
1.2821102362204726
 30
0.0
 10
0.0253622047244094
 20
1.2821102362204726
 30
0.0
 10
0.023492125984252
 20
2.0261377952755906
 30
0.0
 10
0.023492125984252
 20
2.0261377952755906
 30
0.0
 10
0.023492125984252
 20
2.0261377952755906
 30
0.0
 10
0.023492125984252
 20
2.0261377952755906
 30
0.0
 10
0.0045196850393701
 20
2.028716535433071
 30
0.0
 10
0.0045196850393701
 20
2.028716535433071
 30
0.0
 10
0.0045196850393701
 20
2.028716535433071
 30
0.0
 10
0.0045196850393701
 20
2.028716535433071
 30
0.0
 10
-0.0143779527559055
 20
2.0319173228346457
 30
0.0
 10
-0.0143779527559055
 20
2.0319173228346457
 30
0.0
 10
-0.0143779527559055
 20
2.0319173228346457
 30
0.0
 10
-0.0143779527559055
 20
2.0319173228346457
 30
0.0
 10
-0.012507874015748
 20
1.2878897637795277
 30
0.0
 10
-0.012507874015748
 20
1.2878897637795277
 30
0.0
 10
-0.012507874015748
 20
1.2878897637795277
 30
0.0
 10
-0.012507874015748
 20
1.2878897637795277
 30
0.0
 10
0.0063897637795276
 20
1.2846889763779528
 30
0.0
 10
0.0063897637795276
 20
1.2846889763779528
 30
0.0
 10
0.0063897637795276
 20
1.2846889763779528
 30
0.0
 10
0.0063897637795276
 20
1.2846889763779528
 30
0.0
 10
0.0253622047244094
 20
1.2821102362204726
 30
0.0
 10
0.0253622047244094
 20
1.2821102362204726
 30
0.0
  0
SPLINE
  5
6C
100
AcDbEntity
  8
Layer 1
 62
   253
100
AcDbSpline
210
0.0
220
0.0
230
1.0
 70
     1
 71
     3
 72
    28
 73
    24
 74
     0
 42
0.0000000001
 43
0.0000000001
 40
0.0
 40
0.0
 40
0.0
 40
0.0
 40
0.1666666666666667
 40
0.1666666666666667
 40
0.1666666666666667
 40
0.1666666666666667
 40
0.3333333333333333
 40
0.3333333333333333
 40
0.3333333333333333
 40
0.3333333333333333
 40
0.5
 40
0.5
 40
0.5
 40
0.5
 40
0.6666666666666666
 40
0.6666666666666666
 40
0.6666666666666666
 40
0.6666666666666666
 40
0.8333333333333333
 40
0.8333333333333333
 40
0.8333333333333333
 40
0.8333333333333333
 40
1.0
 40
1.0
 40
1.0
 40
1.0
 10
-0.012507874015748
 20
1.2878897637795277
 30
0.0
 10
-0.012507874015748
 20
1.2878897637795277
 30
0.0
 10
-0.0143779527559055
 20
2.0319173228346457
 30
0.0
 10
-0.0143779527559055
 20
2.0319173228346457
 30
0.0
 10
-0.0143779527559055
 20
2.0319173228346457
 30
0.0
 10
-0.0143779527559055
 20
2.0319173228346457
 30
0.0
 10
-0.0331141732283465
 20
2.0358110236220472
 30
0.0
 10
-0.0331141732283465
 20
2.0358110236220472
 30
0.0
 10
-0.0331141732283465
 20
2.0358110236220472
 30
0.0
 10
-0.0331141732283465
 20
2.0358110236220472
 30
0.0
 10
-0.0515944881889764
 20
2.040488188976378
 30
0.0
 10
-0.0515944881889764
 20
2.040488188976378
 30
0.0
 10
-0.0515944881889764
 20
2.040488188976378
 30
0.0
 10
-0.0515944881889764
 20
2.040488188976378
 30
0.0
 10
-0.0497244094488189
 20
1.29646062992126
 30
0.0
 10
-0.0497244094488189
 20
1.29646062992126
 30
0.0
 10
-0.0497244094488189
 20
1.29646062992126
 30
0.0
 10
-0.0497244094488189
 20
1.29646062992126
 30
0.0
 10
-0.031244094488189
 20
1.2917834645669293
 30
0.0
 10
-0.031244094488189
 20
1.2917834645669293
 30
0.0
 10
-0.031244094488189
 20
1.2917834645669293
 30
0.0
 10
-0.031244094488189
 20
1.2917834645669293
 30
0.0
 10
-0.012507874015748
 20
1.2878897637795277
 30
0.0
 10
-0.012507874015748
 20
1.2878897637795277
 30
0.0
  0
SPLINE
  5
6D
100
AcDbEntity
  8
Layer 1
 62
   253
100
AcDbSpline
210
0.0
220
0.0
230
1.0
 70
     1
 71
     3
 72
    28
 73
    24
 74
     0
 42
0.0000000001
 43
0.0000000001
 40
0.0
 40
0.0
 40
0.0
 40
0.0
 40
0.1666666666666667
 40
0.1666666666666667
 40
0.1666666666666667
 40
0.1666666666666667
 40
0.3333333333333333
 40
0.3333333333333333
 40
0.3333333333333333
 40
0.3333333333333333
 40
0.5
 40
0.5
 40
0.5
 40
0.5
 40
0.6666666666666666
 40
0.6666666666666666
 40
0.6666666666666666
 40
0.6666666666666666
 40
0.8333333333333333
 40
0.8333333333333333
 40
0.8333333333333333
 40
0.8333333333333333
 40
1.0
 40
1.0
 40
1.0
 40
1.0
 10
-0.0497244094488189
 20
1.29646062992126
 30
0.0
 10
-0.0497244094488189
 20
1.29646062992126
 30
0.0
 10
-0.0515944881889764
 20
2.040488188976378
 30
0.0
 10
-0.0515944881889764
 20
2.040488188976378
 30
0.0
 10
-0.0515944881889764
 20
2.040488188976378
 30
0.0
 10
-0.0515944881889764
 20
2.040488188976378
 30
0.0
 10
-0.0697086614173228
 20
2.0460000000000003
 30
0.0
 10
-0.0697086614173228
 20
2.0460000000000003
 30
0.0
 10
-0.0697086614173228
 20
2.0460000000000003
 30
0.0
 10
-0.0697086614173228
 20
2.0460000000000003
 30
0.0
 10
-0.0873858267716535
 20
2.0524409448818899
 30
0.0
 10
-0.0873858267716535
 20
2.0524409448818899
 30
0.0
 10
-0.0873858267716535
 20
2.0524409448818899
 30
0.0
 10
-0.0873858267716535
 20
2.0524409448818899
 30
0.0
 10
-0.0855157480314961
 20
1.3084133858267717
 30
0.0
 10
-0.0855157480314961
 20
1.3084133858267717
 30
0.0
 10
-0.0855157480314961
 20
1.3084133858267717
 30
0.0
 10
-0.0855157480314961
 20
1.3084133858267717
 30
0.0
 10
-0.0678385826771654
 20
1.3019724409448818
 30
0.0
 10
-0.0678385826771654
 20
1.3019724409448818
 30
0.0
 10
-0.0678385826771654
 20
1.3019724409448818
 30
0.0
 10
-0.0678385826771654
 20
1.3019724409448818
 30
0.0
 10
-0.0497244094488189
 20
1.29646062992126
 30
0.0
 10
-0.0497244094488189
 20
1.29646062992126
 30
0.0
  0
SPLINE
  5
6E
100
AcDbEntity
  8
Layer 1
 62
     9
100
AcDbSpline
210
0.0
220
0.0
230
1.0
 70
     1
 71
     3
 72
    28
 73
    24
 74
     0
 42
0.0000000001
 43
0.0000000001
 40
0.0
 40
0.0
 40
0.0
 40
0.0
 40
0.1666666666666667
 40
0.1666666666666667
 40
0.1666666666666667
 40
0.1666666666666667
 40
0.3333333333333333
 40
0.3333333333333333
 40
0.3333333333333333
 40
0.3333333333333333
 40
0.5
 40
0.5
 40
0.5
 40
0.5
 40
0.6666666666666666
 40
0.6666666666666666
 40
0.6666666666666666
 40
0.6666666666666666
 40
0.8333333333333333
 40
0.8333333333333333
 40
0.8333333333333333
 40
0.8333333333333333
 40
1.0
 40
1.0
 40
1.0
 40
1.0
 10
-0.0855157480314961
 20
1.3084133858267717
 30
0.0
 10
-0.0855157480314961
 20
1.3084133858267717
 30
0.0
 10
-0.0873858267716535
 20
2.0524409448818899
 30
0.0
 10
-0.0873858267716535
 20
2.0524409448818899
 30
0.0
 10
-0.0873858267716535
 20
2.0524409448818899
 30
0.0
 10
-0.0873858267716535
 20
2.0524409448818899
 30
0.0
 10
-0.104507874015748
 20
2.0598779527559055
 30
0.0
 10
-0.104507874015748
 20
2.0598779527559055
 30
0.0
 10
-0.104507874015748
 20
2.0598779527559055
 30
0.0
 10
-0.104507874015748
 20
2.0598779527559055
 30
0.0
 10
-0.120996062992126
 20
2.0683937007874018
 30
0.0
 10
-0.120996062992126
 20
2.0683937007874018
 30
0.0
 10
-0.120996062992126
 20
2.0683937007874018
 30
0.0
 10
-0.120996062992126
 20
2.0683937007874018
 30
0.0
 10
-0.1191259842519685
 20
1.3243661417322836
 30
0.0
 10
-0.1191259842519685
 20
1.3243661417322836
 30
0.0
 10
-0.1191259842519685
 20
1.3243661417322836
 30
0.0
 10
-0.1191259842519685
 20
1.3243661417322836
 30
0.0
 10
-0.1026377952755906
 20
1.3158503937007875
 30
0.0
 10
-0.1026377952755906
 20
1.3158503937007875
 30
0.0
 10
-0.1026377952755906
 20
1.3158503937007875
 30
0.0
 10
-0.1026377952755906
 20
1.3158503937007875
 30
0.0
 10
-0.0855157480314961
 20
1.3084133858267717
 30
0.0
 10
-0.0855157480314961
 20
1.3084133858267717
 30
0.0
  0
SPLINE
  5
6F
100
AcDbEntity
  8
Layer 1
 62
     9
100
AcDbSpline
210
0.0
220
0.0
230
1.0
 70
     1
 71
     3
 72
    28
 73
    24
 74
     0
 42
0.0000000001
 43
0.0000000001
 40
0.0
 40
0.0
 40
0.0
 40
0.0
 40
0.1666666666666667
 40
0.1666666666666667
 40
0.1666666666666667
 40
0.1666666666666667
 40
0.3333333333333333
 40
0.3333333333333333
 40
0.3333333333333333
 40
0.3333333333333333
 40
0.5
 40
0.5
 40
0.5
 40
0.5
 40
0.6666666666666666
 40
0.6666666666666666
 40
0.6666666666666666
 40
0.6666666666666666
 40
0.8333333333333333
 40
0.8333333333333333
 40
0.8333333333333333
 40
0.8333333333333333
 40
1.0
 40
1.0
 40
1.0
 40
1.0
 10
-0.1191259842519685
 20
1.3243661417322836
 30
0.0
 10
-0.1191259842519685
 20
1.3243661417322836
 30
0.0
 10
-0.120996062992126
 20
2.0683937007874018
 30
0.0
 10
-0.120996062992126
 20
2.0683937007874018
 30
0.0
 10
-0.120996062992126
 20
2.0683937007874018
 30
0.0
 10
-0.120996062992126
 20
2.0683937007874018
 30
0.0
 10
-0.1367362204724409
 20
2.0780551181102362
 30
0.0
 10
-0.1367362204724409
 20
2.0780551181102362
 30
0.0
 10
-0.1367362204724409
 20
2.0780551181102362
 30
0.0
 10
-0.1367362204724409
 20
2.0780551181102362
 30
0.0
 10
-0.1516535433070866
 20
2.0889527559055119
 30
0.0
 10
-0.1516535433070866
 20
2.0889527559055119
 30
0.0
 10
-0.1516535433070866
 20
2.0889527559055119
 30
0.0
 10
-0.1516535433070866
 20
2.0889527559055119
 30
0.0
 10
-0.1497834645669292
 20
1.3449251968503937
 30
0.0
 10
-0.1497834645669292
 20
1.3449251968503937
 30
0.0
 10
-0.1497834645669292
 20
1.3449251968503937
 30
0.0
 10
-0.1497834645669292
 20
1.3449251968503937
 30
0.0
 10
-0.1348661417322835
 20
1.3340275590551181
 30
0.0
 10
-0.1348661417322835
 20
1.3340275590551181
 30
0.0
 10
-0.1348661417322835
 20
1.3340275590551181
 30
0.0
 10
-0.1348661417322835
 20
1.3340275590551181
 30
0.0
 10
-0.1191259842519685
 20
1.3243661417322836
 30
0.0
 10
-0.1191259842519685
 20
1.3243661417322836
 30
0.0
  0
SPLINE
  5
70
100
AcDbEntity
  8
Layer 1
 62
     9
100
AcDbSpline
210
0.0
220
0.0
230
1.0
 70
     1
 71
     3
 72
    28
 73
    24
 74
     0
 42
0.0000000001
 43
0.0000000001
 40
0.0
 40
0.0
 40
0.0
 40
0.0
 40
0.1666666666666667
 40
0.1666666666666667
 40
0.1666666666666667
 40
0.1666666666666667
 40
0.3333333333333333
 40
0.3333333333333333
 40
0.3333333333333333
 40
0.3333333333333333
 40
0.5
 40
0.5
 40
0.5
 40
0.5
 40
0.6666666666666666
 40
0.6666666666666666
 40
0.6666666666666666
 40
0.6666666666666666
 40
0.8333333333333333
 40
0.8333333333333333
 40
0.8333333333333333
 40
0.8333333333333333
 40
1.0
 40
1.0
 40
1.0
 40
1.0
 10
-0.1497834645669292
 20
1.3449251968503937
 30
0.0
 10
-0.1497834645669292
 20
1.3449251968503937
 30
0.0
 10
-0.1516535433070866
 20
2.0889527559055119
 30
0.0
 10
-0.1516535433070866
 20
2.0889527559055119
 30
0.0
 10
-0.1516535433070866
 20
2.0889527559055119
 30
0.0
 10
-0.1516535433070866
 20
2.0889527559055119
 30
0.0
 10
-0.1656377952755906
 20
2.1011535433070865
 30
0.0
 10
-0.1656377952755906
 20
2.1011535433070865
 30
0.0
 10
-0.1656377952755906
 20
2.1011535433070865
 30
0.0
 10
-0.1656377952755906
 20
2.1011535433070865
 30
0.0
 10
-0.1786062992125984
 20
2.1147401574803149
 30
0.0
 10
-0.1786062992125984
 20
2.1147401574803149
 30
0.0
 10
-0.1786062992125984
 20
2.1147401574803149
 30
0.0
 10
-0.1786062992125984
 20
2.1147401574803149
 30
0.0
 10
-0.176736220472441
 20
1.3707125984251969
 30
0.0
 10
-0.176736220472441
 20
1.3707125984251969
 30
0.0
 10
-0.176736220472441
 20
1.3707125984251969
 30
0.0
 10
-0.176736220472441
 20
1.3707125984251969
 30
0.0
 10
-0.1637677165354331
 20
1.3571259842519685
 30
0.0
 10
-0.1637677165354331
 20
1.3571259842519685
 30
0.0
 10
-0.1637677165354331
 20
1.3571259842519685
 30
0.0
 10
-0.1637677165354331
 20
1.3571259842519685
 30
0.0
 10
-0.1497834645669292
 20
1.3449251968503937
 30
0.0
 10
-0.1497834645669292
 20
1.3449251968503937
 30
0.0
  0
SPLINE
  5
71
100
AcDbEntity
  8
Layer 1
 62
     9
100
AcDbSpline
210
0.0
220
0.0
230
1.0
 70
     1
 71
     3
 72
    28
 73
    24
 74
     0
 42
0.0000000001
 43
0.0000000001
 40
0.0
 40
0.0
 40
0.0
 40
0.0
 40
0.1666666666666667
 40
0.1666666666666667
 40
0.1666666666666667
 40
0.1666666666666667
 40
0.3333333333333333
 40
0.3333333333333333
 40
0.3333333333333333
 40
0.3333333333333333
 40
0.5
 40
0.5
 40
0.5
 40
0.5
 40
0.6666666666666666
 40
0.6666666666666666
 40
0.6666666666666666
 40
0.6666666666666666
 40
0.8333333333333333
 40
0.8333333333333333
 40
0.8333333333333333
 40
0.8333333333333333
 40
1.0
 40
1.0
 40
1.0
 40
1.0
 10
-0.176736220472441
 20
1.3707125984251969
 30
0.0
 10
-0.176736220472441
 20
1.3707125984251969
 30
0.0
 10
-0.1786062992125984
 20
2.1147401574803149
 30
0.0
 10
-0.1786062992125984
 20
2.1147401574803149
 30
0.0
 10
-0.1786062992125984
 20
2.1147401574803149
 30
0.0
 10
-0.1786062992125984
 20
2.1147401574803149
 30
0.0
 10
-0.1904448818897638
 20
2.1297716535433073
 30
0.0
 10
-0.1904448818897638
 20
2.1297716535433073
 30
0.0
 10
-0.1904448818897638
 20
2.1297716535433073
 30
0.0
 10
-0.1904448818897638
 20
2.1297716535433073
 30
0.0
 10
-0.2010787401574803
 20
2.1463425196850396
 30
0.0
 10
-0.2010787401574803
 20
2.1463425196850396
 30
0.0
 10
-0.2010787401574803
 20
2.1463425196850396
 30
0.0
 10
-0.2010787401574803
 20
2.1463425196850396
 30
0.0
 10
-0.1992086614173229
 20
1.4023149606299212
 30
0.0
 10
-0.1992086614173229
 20
1.4023149606299212
 30
0.0
 10
-0.1992086614173229
 20
1.4023149606299212
 30
0.0
 10
-0.1992086614173229
 20
1.4023149606299212
 30
0.0
 10
-0.1885748031496063
 20
1.3857440944881891
 30
0.0
 10
-0.1885748031496063
 20
1.3857440944881891
 30
0.0
 10
-0.1885748031496063
 20
1.3857440944881891
 30
0.0
 10
-0.1885748031496063
 20
1.3857440944881891
 30
0.0
 10
-0.176736220472441
 20
1.3707125984251969
 30
0.0
 10
-0.176736220472441
 20
1.3707125984251969
 30
0.0
  0
SPLINE
  5
72
100
AcDbEntity
  8
Layer 1
 62
     9
100
AcDbSpline
210
0.0
220
0.0
230
1.0
 70
     1
 71
     3
 72
    28
 73
    24
 74
     0
 42
0.0000000001
 43
0.0000000001
 40
0.0
 40
0.0
 40
0.0
 40
0.0
 40
0.1666666666666667
 40
0.1666666666666667
 40
0.1666666666666667
 40
0.1666666666666667
 40
0.3333333333333333
 40
0.3333333333333333
 40
0.3333333333333333
 40
0.3333333333333333
 40
0.5
 40
0.5
 40
0.5
 40
0.5
 40
0.6666666666666666
 40
0.6666666666666666
 40
0.6666666666666666
 40
0.6666666666666666
 40
0.8333333333333333
 40
0.8333333333333333
 40
0.8333333333333333
 40
0.8333333333333333
 40
1.0
 40
1.0
 40
1.0
 40
1.0
 10
-0.1992086614173229
 20
1.4023149606299212
 30
0.0
 10
-0.1992086614173229
 20
1.4023149606299212
 30
0.0
 10
-0.2010787401574803
 20
2.1463425196850396
 30
0.0
 10
-0.2010787401574803
 20
2.1463425196850396
 30
0.0
 10
-0.2010787401574803
 20
2.1463425196850396
 30
0.0
 10
-0.2010787401574803
 20
2.1463425196850396
 30
0.0
 10
-0.2103976377952756
 20
2.16451968503937
 30
0.0
 10
-0.2103976377952756
 20
2.16451968503937
 30
0.0
 10
-0.2103976377952756
 20
2.16451968503937
 30
0.0
 10
-0.2103976377952756
 20
2.16451968503937
 30
0.0
 10
-0.2183149606299213
 20
2.1843818897637797
 30
0.0
 10
-0.2183149606299213
 20
2.1843818897637797
 30
0.0
 10
-0.2183149606299213
 20
2.1843818897637797
 30
0.0
 10
-0.2183149606299213
 20
2.1843818897637797
 30
0.0
 10
-0.2164448818897638
 20
1.4403543307086615
 30
0.0
 10
-0.2164448818897638
 20
1.4403543307086615
 30
0.0
 10
-0.2164448818897638
 20
1.4403543307086615
 30
0.0
 10
-0.2164448818897638
 20
1.4403543307086615
 30
0.0
 10
-0.2085275590551181
 20
1.420492125984252
 30
0.0
 10
-0.2085275590551181
 20
1.420492125984252
 30
0.0
 10
-0.2085275590551181
 20
1.420492125984252
 30
0.0
 10
-0.2085275590551181
 20
1.420492125984252
 30
0.0
 10
-0.1992086614173229
 20
1.4023149606299212
 30
0.0
 10
-0.1992086614173229
 20
1.4023149606299212
 30
0.0
  0
SPLINE
  5
73
100
AcDbEntity
  8
Layer 1
 62
     9
100
AcDbSpline
210
0.0
220
0.0
230
1.0
 70
     1
 71
     3
 72
    28
 73
    24
 74
     0
 42
0.0000000001
 43
0.0000000001
 40
0.0
 40
0.0
 40
0.0
 40
0.0
 40
0.1666666666666667
 40
0.1666666666666667
 40
0.1666666666666667
 40
0.1666666666666667
 40
0.3333333333333333
 40
0.3333333333333333
 40
0.3333333333333333
 40
0.3333333333333333
 40
0.5
 40
0.5
 40
0.5
 40
0.5
 40
0.6666666666666666
 40
0.6666666666666666
 40
0.6666666666666666
 40
0.6666666666666666
 40
0.8333333333333333
 40
0.8333333333333333
 40
0.8333333333333333
 40
0.8333333333333333
 40
1.0
 40
1.0
 40
1.0
 40
1.0
 10
-0.2164448818897638
 20
1.4403543307086615
 30
0.0
 10
-0.2164448818897638
 20
1.4403543307086615
 30
0.0
 10
-0.2183149606299213
 20
2.1843818897637797
 30
0.0
 10
-0.2183149606299213
 20
2.1843818897637797
 30
0.0
 10
-0.2183149606299213
 20
2.1843818897637797
 30
0.0
 10
-0.2183149606299213
 20
2.1843818897637797
 30
0.0
 10
-0.2247283464566929
 20
2.206
 30
0.0
 10
-0.2247283464566929
 20
2.206
 30
0.0
 10
-0.2247283464566929
 20
2.206
 30
0.0
 10
-0.2247283464566929
 20
2.206
 30
0.0
 10
-0.2295472440944882
 20
2.22946062992126
 30
0.0
 10
-0.2295472440944882
 20
2.22946062992126
 30
0.0
 10
-0.2295472440944882
 20
2.22946062992126
 30
0.0
 10
-0.2295472440944882
 20
2.22946062992126
 30
0.0
 10
-0.2276771653543307
 20
1.4854330708661418
 30
0.0
 10
-0.2276771653543307
 20
1.4854330708661418
 30
0.0
 10
-0.2276771653543307
 20
1.4854330708661418
 30
0.0
 10
-0.2276771653543307
 20
1.4854330708661418
 30
0.0
 10
-0.2228582677165354
 20
1.461972440944882
 30
0.0
 10
-0.2228582677165354
 20
1.461972440944882
 30
0.0
 10
-0.2228582677165354
 20
1.461972440944882
 30
0.0
 10
-0.2228582677165354
 20
1.461972440944882
 30
0.0
 10
-0.2164448818897638
 20
1.4403543307086615
 30
0.0
 10
-0.2164448818897638
 20
1.4403543307086615
 30
0.0
  0
SPLINE
  5
74
100
AcDbEntity
  8
Layer 1
 62
   253
100
AcDbSpline
210
0.0
220
0.0
230
1.0
 70
     1
 71
     3
 72
    20
 73
    16
 74
     0
 42
0.0000000001
 43
0.0000000001
 40
0.0
 40
0.0
 40
0.0
 40
0.0
 40
0.25
 40
0.25
 40
0.25
 40
0.25
 40
0.5
 40
0.5
 40
0.5
 40
0.5
 40
0.75
 40
0.75
 40
0.75
 40
0.75
 40
1.0
 40
1.0
 40
1.0
 40
1.0
 10
-0.2276771653543307
 20
1.4854330708661418
 30
0.0
 10
-0.2276771653543307
 20
1.4854330708661418
 30
0.0
 10
-0.2295472440944882
 20
2.22946062992126
 30
0.0
 10
-0.2295472440944882
 20
2.22946062992126
 30
0.0
 10
-0.2295472440944882
 20
2.22946062992126
 30
0.0
 10
-0.2295472440944882
 20
2.22946062992126
 30
0.0
 10
-0.2326732283464567
 20
2.2548307086614172
 30
0.0
 10
-0.2326732283464567
 20
2.2548307086614172
 30
0.0
 10
-0.2326732283464567
 20
2.2548307086614172
 30
0.0
 10
-0.2326732283464567
 20
2.2548307086614172
 30
0.0
 10
-0.2308031496062992
 20
1.5108031496062992
 30
0.0
 10
-0.2308031496062992
 20
1.5108031496062992
 30
0.0
 10
-0.2308031496062992
 20
1.5108031496062992
 30
0.0
 10
-0.2308031496062992
 20
1.5108031496062992
 30
0.0
 10
-0.2276771653543307
 20
1.4854330708661418
 30
0.0
 10
-0.2276771653543307
 20
1.4854330708661418
 30
0.0
  0
SPLINE
  5
75
100
AcDbEntity
  8
Layer 1
 62
   253
100
AcDbSpline
210
0.0
220
0.0
230
1.0
 70
     1
 71
     3
 72
    20
 73
    16
 74
     0
 42
0.0000000001
 43
0.0000000001
 40
0.0
 40
0.0
 40
0.0
 40
0.0
 40
0.25
 40
0.25
 40
0.25
 40
0.25
 40
0.5
 40
0.5
 40
0.5
 40
0.5
 40
0.75
 40
0.75
 40
0.75
 40
0.75
 40
1.0
 40
1.0
 40
1.0
 40
1.0
 10
-0.2308031496062992
 20
1.5108031496062992
 30
0.0
 10
-0.2308031496062992
 20
1.5108031496062992
 30
0.0
 10
-0.2326732283464567
 20
2.2548307086614172
 30
0.0
 10
-0.2326732283464567
 20
2.2548307086614172
 30
0.0
 10
-0.2326732283464567
 20
2.2548307086614172
 30
0.0
 10
-0.2326732283464567
 20
2.2548307086614172
 30
0.0
 10
-0.2340196850393701
 20
2.2821968503937007
 30
0.0
 10
-0.2340196850393701
 20
2.2821968503937007
 30
0.0
 10
-0.2340196850393701
 20
2.2821968503937007
 30
0.0
 10
-0.2340196850393701
 20
2.2821968503937007
 30
0.0
 10
-0.2321496062992126
 20
1.5381692913385827
 30
0.0
 10
-0.2321496062992126
 20
1.5381692913385827
 30
0.0
 10
-0.2321496062992126
 20
1.5381692913385827
 30
0.0
 10
-0.2321496062992126
 20
1.5381692913385827
 30
0.0
 10
-0.2308031496062992
 20
1.5108031496062992
 30
0.0
 10
-0.2308031496062992
 20
1.5108031496062992
 30
0.0
  0
SPLINE
  5
76
100
AcDbEntity
  8
Layer 1
370
     5
100
AcDbSpline
210
0.0
220
0.0
230
1.0
 70
     1
 71
     3
 72
   524
 73
   520
 74
     0
 42
0.0000000001
 43
0.0000000001
 40
0.0
 40
0.0
 40
0.0
 40
0.0
 40
0.0076923076923077
 40
0.0076923076923077
 40
0.0076923076923077
 40
0.0076923076923077
 40
0.0153846153846154
 40
0.0153846153846154
 40
0.0153846153846154
 40
0.0153846153846154
 40
0.0230769230769231
 40
0.0230769230769231
 40
0.0230769230769231
 40
0.0230769230769231
 40
0.0307692307692308
 40
0.0307692307692308
 40
0.0307692307692308
 40
0.0307692307692308
 40
0.0384615384615385
 40
0.0384615384615385
 40
0.0384615384615385
 40
0.0384615384615385
 40
0.0461538461538462
 40
0.0461538461538462
 40
0.0461538461538462
 40
0.0461538461538462
 40
0.0538461538461538
 40
0.0538461538461538
 40
0.0538461538461538
 40
0.0538461538461538
 40
0.0615384615384615
 40
0.0615384615384615
 40
0.0615384615384615
 40
0.0615384615384615
 40
0.0692307692307692
 40
0.0692307692307692
 40
0.0692307692307692
 40
0.0692307692307692
 40
0.0769230769230769
 40
0.0769230769230769
 40
0.0769230769230769
 40
0.0769230769230769
 40
0.0846153846153846
 40
0.0846153846153846
 40
0.0846153846153846
 40
0.0846153846153846
 40
0.0923076923076923
 40
0.0923076923076923
 40
0.0923076923076923
 40
0.0923076923076923
 40
0.1
 40
0.1
 40
0.1
 40
0.1
 40
0.1076923076923077
 40
0.1076923076923077
 40
0.1076923076923077
 40
0.1076923076923077
 40
0.1153846153846154
 40
0.1153846153846154
 40
0.1153846153846154
 40
0.1153846153846154
 40
0.1230769230769231
 40
0.1230769230769231
 40
0.1230769230769231
 40
0.1230769230769231
 40
0.1307692307692308
 40
0.1307692307692308
 40
0.1307692307692308
 40
0.1307692307692308
 40
0.1384615384615385
 40
0.1384615384615385
 40
0.1384615384615385
 40
0.1384615384615385
 40
0.1461538461538462
 40
0.1461538461538462
 40
0.1461538461538462
 40
0.1461538461538462
 40
0.1538461538461539
 40
0.1538461538461539
 40
0.1538461538461539
 40
0.1538461538461539
 40
0.1615384615384616
 40
0.1615384615384616
 40
0.1615384615384616
 40
0.1615384615384616
 40
0.1692307692307692
 40
0.1692307692307692
 40
0.1692307692307692
 40
0.1692307692307692
 40
0.1769230769230769
 40
0.1769230769230769
 40
0.1769230769230769
 40
0.1769230769230769
 40
0.1846153846153846
 40
0.1846153846153846
 40
0.1846153846153846
 40
0.1846153846153846
 40
0.1923076923076923
 40
0.1923076923076923
 40
0.1923076923076923
 40
0.1923076923076923
 40
0.2
 40
0.2
 40
0.2
 40
0.2
 40
0.2076923076923077
 40
0.2076923076923077
 40
0.2076923076923077
 40
0.2076923076923077
 40
0.2153846153846154
 40
0.2153846153846154
 40
0.2153846153846154
 40
0.2153846153846154
 40
0.2230769230769231
 40
0.2230769230769231
 40
0.2230769230769231
 40
0.2230769230769231
 40
0.2307692307692308
 40
0.2307692307692308
 40
0.2307692307692308
 40
0.2307692307692308
 40
0.2384615384615385
 40
0.2384615384615385
 40
0.2384615384615385
 40
0.2384615384615385
 40
0.2461538461538462
 40
0.2461538461538462
 40
0.2461538461538462
 40
0.2461538461538462
 40
0.2538461538461538
 40
0.2538461538461538
 40
0.2538461538461538
 40
0.2538461538461538
 40
0.2615384615384615
 40
0.2615384615384615
 40
0.2615384615384615
 40
0.2615384615384615
 40
0.2692307692307692
 40
0.2692307692307692
 40
0.2692307692307692
 40
0.2692307692307692
 40
0.2769230769230768
 40
0.2769230769230768
 40
0.2769230769230768
 40
0.2769230769230768
 40
0.2846153846153845
 40
0.2846153846153845
 40
0.2846153846153845
 40
0.2846153846153845
 40
0.2923076923076922
 40
0.2923076923076922
 40
0.2923076923076922
 40
0.2923076923076922
 40
0.2999999999999998
 40
0.2999999999999998
 40
0.2999999999999998
 40
0.2999999999999998
 40
0.3076923076923075
 40
0.3076923076923075
 40
0.3076923076923075
 40
0.3076923076923075
 40
0.3153846153846152
 40
0.3153846153846152
 40
0.3153846153846152
 40
0.3153846153846152
 40
0.3230769230769228
 40
0.3230769230769228
 40
0.3230769230769228
 40
0.3230769230769228
 40
0.3307692307692305
 40
0.3307692307692305
 40
0.3307692307692305
 40
0.3307692307692305
 40
0.3384615384615382
 40
0.3384615384615382
 40
0.3384615384615382
 40
0.3384615384615382
 40
0.3461538461538458
 40
0.3461538461538458
 40
0.3461538461538458
 40
0.3461538461538458
 40
0.3538461538461535
 40
0.3538461538461535
 40
0.3538461538461535
 40
0.3538461538461535
 40
0.3615384615384611
 40
0.3615384615384611
 40
0.3615384615384611
 40
0.3615384615384611
 40
0.3692307692307688
 40
0.3692307692307688
 40
0.3692307692307688
 40
0.3692307692307688
 40
0.3769230769230765
 40
0.3769230769230765
 40
0.3769230769230765
 40
0.3769230769230765
 40
0.3846153846153841
 40
0.3846153846153841
 40
0.3846153846153841
 40
0.3846153846153841
 40
0.3923076923076918
 40
0.3923076923076918
 40
0.3923076923076918
 40
0.3923076923076918
 40
0.3999999999999995
 40
0.3999999999999995
 40
0.3999999999999995
 40
0.3999999999999995
 40
0.4076923076923071
 40
0.4076923076923071
 40
0.4076923076923071
 40
0.4076923076923071
 40
0.4153846153846148
 40
0.4153846153846148
 40
0.4153846153846148
 40
0.4153846153846148
 40
0.4230769230769225
 40
0.4230769230769225
 40
0.4230769230769225
 40
0.4230769230769225
 40
0.4307692307692301
 40
0.4307692307692301
 40
0.4307692307692301
 40
0.4307692307692301
 40
0.4384615384615378
 40
0.4384615384615378
 40
0.4384615384615378
 40
0.4384615384615378
 40
0.4461538461538455
 40
0.4461538461538455
 40
0.4461538461538455
 40
0.4461538461538455
 40
0.4538461538461531
 40
0.4538461538461531
 40
0.4538461538461531
 40
0.4538461538461531
 40
0.4615384615384608
 40
0.4615384615384608
 40
0.4615384615384608
 40
0.4615384615384608
 40
0.4692307692307685
 40
0.4692307692307685
 40
0.4692307692307685
 40
0.4692307692307685
 40
0.4769230769230761
 40
0.4769230769230761
 40
0.4769230769230761
 40
0.4769230769230761
 40
0.4846153846153838
 40
0.4846153846153838
 40
0.4846153846153838
 40
0.4846153846153838
 40
0.4923076923076915
 40
0.4923076923076915
 40
0.4923076923076915
 40
0.4923076923076915
 40
0.4999999999999991
 40
0.4999999999999991
 40
0.4999999999999991
 40
0.4999999999999991
 40
0.5076923076923068
 40
0.5076923076923068
 40
0.5076923076923068
 40
0.5076923076923068
 40
0.5153846153846144
 40
0.5153846153846144
 40
0.5153846153846144
 40
0.5153846153846144
 40
0.5230769230769221
 40
0.5230769230769221
 40
0.5230769230769221
 40
0.5230769230769221
 40
0.5307692307692298
 40
0.5307692307692298
 40
0.5307692307692298
 40
0.5307692307692298
 40
0.5384615384615374
 40
0.5384615384615374
 40
0.5384615384615374
 40
0.5384615384615374
 40
0.5461538461538451
 40
0.5461538461538451
 40
0.5461538461538451
 40
0.5461538461538451
 40
0.5538461538461528
 40
0.5538461538461528
 40
0.5538461538461528
 40
0.5538461538461528
 40
0.5615384615384604
 40
0.5615384615384604
 40
0.5615384615384604
 40
0.5615384615384604
 40
0.5692307692307681
 40
0.5692307692307681
 40
0.5692307692307681
 40
0.5692307692307681
 40
0.5769230769230758
 40
0.5769230769230758
 40
0.5769230769230758
 40
0.5769230769230758
 40
0.5846153846153834
 40
0.5846153846153834
 40
0.5846153846153834
 40
0.5846153846153834
 40
0.5923076923076911
 40
0.5923076923076911
 40
0.5923076923076911
 40
0.5923076923076911
 40
0.5999999999999988
 40
0.5999999999999988
 40
0.5999999999999988
 40
0.5999999999999988
 40
0.6076923076923064
 40
0.6076923076923064
 40
0.6076923076923064
 40
0.6076923076923064
 40
0.6153846153846141
 40
0.6153846153846141
 40
0.6153846153846141
 40
0.6153846153846141
 40
0.6230769230769218
 40
0.6230769230769218
 40
0.6230769230769218
 40
0.6230769230769218
 40
0.6307692307692294
 40
0.6307692307692294
 40
0.6307692307692294
 40
0.6307692307692294
 40
0.6384615384615371
 40
0.6384615384615371
 40
0.6384615384615371
 40
0.6384615384615371
 40
0.6461538461538448
 40
0.6461538461538448
 40
0.6461538461538448
 40
0.6461538461538448
 40
0.6538461538461524
 40
0.6538461538461524
 40
0.6538461538461524
 40
0.6538461538461524
 40
0.6615384615384601
 40
0.6615384615384601
 40
0.6615384615384601
 40
0.6615384615384601
 40
0.6692307692307677
 40
0.6692307692307677
 40
0.6692307692307677
 40
0.6692307692307677
 40
0.6769230769230754
 40
0.6769230769230754
 40
0.6769230769230754
 40
0.6769230769230754
 40
0.6846153846153831
 40
0.6846153846153831
 40
0.6846153846153831
 40
0.6846153846153831
 40
0.6923076923076907
 40
0.6923076923076907
 40
0.6923076923076907
 40
0.6923076923076907
 40
0.6999999999999984
 40
0.6999999999999984
 40
0.6999999999999984
 40
0.6999999999999984
 40
0.7076923076923061
 40
0.7076923076923061
 40
0.7076923076923061
 40
0.7076923076923061
 40
0.7153846153846137
 40
0.7153846153846137
 40
0.7153846153846137
 40
0.7153846153846137
 40
0.7230769230769214
 40
0.7230769230769214
 40
0.7230769230769214
 40
0.7230769230769214
 40
0.7307692307692291
 40
0.7307692307692291
 40
0.7307692307692291
 40
0.7307692307692291
 40
0.7384615384615367
 40
0.7384615384615367
 40
0.7384615384615367
 40
0.7384615384615367
 40
0.7461538461538444
 40
0.7461538461538444
 40
0.7461538461538444
 40
0.7461538461538444
 40
0.7538461538461521
 40
0.7538461538461521
 40
0.7538461538461521
 40
0.7538461538461521
 40
0.7615384615384597
 40
0.7615384615384597
 40
0.7615384615384597
 40
0.7615384615384597
 40
0.7692307692307674
 40
0.7692307692307674
 40
0.7692307692307674
 40
0.7692307692307674
 40
0.7769230769230751
 40
0.7769230769230751
 40
0.7769230769230751
 40
0.7769230769230751
 40
0.7846153846153827
 40
0.7846153846153827
 40
0.7846153846153827
 40
0.7846153846153827
 40
0.7923076923076904
 40
0.7923076923076904
 40
0.7923076923076904
 40
0.7923076923076904
 40
0.7999999999999981
 40
0.7999999999999981
 40
0.7999999999999981
 40
0.7999999999999981
 40
0.8076923076923057
 40
0.8076923076923057
 40
0.8076923076923057
 40
0.8076923076923057
 40
0.8153846153846134
 40
0.8153846153846134
 40
0.8153846153846134
 40
0.8153846153846134
 40
0.823076923076921
 40
0.823076923076921
 40
0.823076923076921
 40
0.823076923076921
 40
0.8307692307692287
 40
0.8307692307692287
 40
0.8307692307692287
 40
0.8307692307692287
 40
0.8384615384615364
 40
0.8384615384615364
 40
0.8384615384615364
 40
0.8384615384615364
 40
0.846153846153844
 40
0.846153846153844
 40
0.846153846153844
 40
0.846153846153844
 40
0.8538461538461517
 40
0.8538461538461517
 40
0.8538461538461517
 40
0.8538461538461517
 40
0.8615384615384594
 40
0.8615384615384594
 40
0.8615384615384594
 40
0.8615384615384594
 40
0.869230769230767
 40
0.869230769230767
 40
0.869230769230767
 40
0.869230769230767
 40
0.8769230769230747
 40
0.8769230769230747
 40
0.8769230769230747
 40
0.8769230769230747
 40
0.8846153846153824
 40
0.8846153846153824
 40
0.8846153846153824
 40
0.8846153846153824
 40
0.89230769230769
 40
0.89230769230769
 40
0.89230769230769
 40
0.89230769230769
 40
0.8999999999999977
 40
0.8999999999999977
 40
0.8999999999999977
 40
0.8999999999999977
 40
0.9076923076923054
 40
0.9076923076923054
 40
0.9076923076923054
 40
0.9076923076923054
 40
0.915384615384613
 40
0.915384615384613
 40
0.915384615384613
 40
0.915384615384613
 40
0.9230769230769207
 40
0.9230769230769207
 40
0.9230769230769207
 40
0.9230769230769207
 40
0.9307692307692284
 40
0.9307692307692284
 40
0.9307692307692284
 40
0.9307692307692284
 40
0.938461538461536
 40
0.938461538461536
 40
0.938461538461536
 40
0.938461538461536
 40
0.9461538461538437
 40
0.9461538461538437
 40
0.9461538461538437
 40
0.9461538461538437
 40
0.9538461538461514
 40
0.9538461538461514
 40
0.9538461538461514
 40
0.9538461538461514
 40
0.961538461538459
 40
0.961538461538459
 40
0.961538461538459
 40
0.961538461538459
 40
0.9692307692307667
 40
0.9692307692307667
 40
0.9692307692307667
 40
0.9692307692307667
 40
0.9769230769230743
 40
0.9769230769230743
 40
0.9769230769230743
 40
0.9769230769230743
 40
0.984615384615382
 40
0.984615384615382
 40
0.984615384615382
 40
0.984615384615382
 40
0.9923076923076897
 40
0.9923076923076897
 40
0.9923076923076897
 40
0.9923076923076897
 40
1.0
 40
1.0
 40
1.0
 40
1.0
 10
0.6739527559055119
 20
1.1144330708661419
 30
0.0
 10
0.6739527559055119
 20
1.1144330708661419
 30
0.0
 10
0.6720826771653543
 20
1.8584606299212598
 30
0.0
 10
0.6720826771653543
 20
1.8584606299212598
 30
0.0
 10
0.6720826771653543
 20
1.8584606299212598
 30
0.0
 10
0.6720826771653543
 20
1.8584606299212598
 30
0.0
 10
0.6458464566929134
 20
1.8593976377952757
 30
0.0
 10
0.6458464566929134
 20
1.8593976377952757
 30
0.0
 10
0.6458464566929134
 20
1.8593976377952757
 30
0.0
 10
0.6458464566929134
 20
1.8593976377952757
 30
0.0
 10
0.6216062992125985
 20
1.8610039370078741
 30
0.0
 10
0.6216062992125985
 20
1.8610039370078741
 30
0.0
 10
0.6216062992125985
 20
1.8610039370078741
 30
0.0
 10
0.6216062992125985
 20
1.8610039370078741
 30
0.0
 10
0.599240157480315
 20
1.8632322834645669
 30
0.0
 10
0.599240157480315
 20
1.8632322834645669
 30
0.0
 10
0.599240157480315
 20
1.8632322834645669
 30
0.0
 10
0.599240157480315
 20
1.8632322834645669
 30
0.0
 10
0.5786259842519685
 20
1.8660511811023623
 30
0.0
 10
0.5786259842519685
 20
1.8660511811023623
 30
0.0
 10
0.5786259842519685
 20
1.8660511811023623
 30
0.0
 10
0.5786259842519685
 20
1.8660511811023623
 30
0.0
 10
0.5596377952755905
 20
1.8694015748031496
 30
0.0
 10
0.5596377952755905
 20
1.8694015748031496
 30
0.0
 10
0.5596377952755905
 20
1.8694015748031496
 30
0.0
 10
0.5596377952755905
 20
1.8694015748031496
 30
0.0
 10
0.5421614173228346
 20
1.8732598425196851
 30
0.0
 10
0.5421614173228346
 20
1.8732598425196851
 30
0.0
 10
0.5421614173228346
 20
1.8732598425196851
 30
0.0
 10
0.5421614173228346
 20
1.8732598425196851
 30
0.0
 10
0.5260708661417323
 20
1.8775787401574804
 30
0.0
 10
0.5260708661417323
 20
1.8775787401574804
 30
0.0
 10
0.5260708661417323
 20
1.8775787401574804
 30
0.0
 10
0.5260708661417323
 20
1.8775787401574804
 30
0.0
 10
0.511255905511811
 20
1.8823188976377954
 30
0.0
 10
0.511255905511811
 20
1.8823188976377954
 30
0.0
 10
0.511255905511811
 20
1.8823188976377954
 30
0.0
 10
0.511255905511811
 20
1.8823188976377954
 30
0.0
 10
0.4975787401574803
 20
1.8874291338582678
 30
0.0
 10
0.4975787401574803
 20
1.8874291338582678
 30
0.0
 10
0.4975787401574803
 20
1.8874291338582678
 30
0.0
 10
0.4975787401574803
 20
1.8874291338582678
 30
0.0
 10
0.4849330708661417
 20
1.8928818897637796
 30
0.0
 10
0.4849330708661417
 20
1.8928818897637796
 30
0.0
 10
0.4849330708661417
 20
1.8928818897637796
 30
0.0
 10
0.4849330708661417
 20
1.8928818897637796
 30
0.0
 10
0.4731889763779528
 20
1.8986299212598425
 30
0.0
 10
0.4731889763779528
 20
1.8986299212598425
 30
0.0
 10
0.4731889763779528
 20
1.8986299212598425
 30
0.0
 10
0.4731889763779528
 20
1.8986299212598425
 30
0.0
 10
0.462232283464567
 20
1.9046417322834646
 30
0.0
 10
0.462232283464567
 20
1.9046417322834646
 30
0.0
 10
0.462232283464567
 20
1.9046417322834646
 30
0.0
 10
0.462232283464567
 20
1.9046417322834646
 30
0.0
 10
0.4519370078740158
 20
1.9108622047244095
 30
0.0
 10
0.4519370078740158
 20
1.9108622047244095
 30
0.0
 10
0.4519370078740158
 20
1.9108622047244095
 30
0.0
 10
0.4519370078740158
 20
1.9108622047244095
 30
0.0
 10
0.4421889763779528
 20
1.9172637795275591
 30
0.0
 10
0.4421889763779528
 20
1.9172637795275591
 30
0.0
 10
0.4421889763779528
 20
1.9172637795275591
 30
0.0
 10
0.4421889763779528
 20
1.9172637795275591
 30
0.0
 10
0.4328582677165355
 20
1.9237952755905512
 30
0.0
 10
0.4328582677165355
 20
1.9237952755905512
 30
0.0
 10
0.4328582677165355
 20
1.9237952755905512
 30
0.0
 10
0.4328582677165355
 20
1.9237952755905512
 30
0.0
 10
0.4238346456692914
 20
1.9304251968503938
 30
0.0
 10
0.4238346456692914
 20
1.9304251968503938
 30
0.0
 10
0.4238346456692914
 20
1.9304251968503938
 30
0.0
 10
0.4238346456692914
 20
1.9304251968503938
 30
0.0
 10
0.414984251968504
 20
1.9370984251968504
 30
0.0
 10
0.414984251968504
 20
1.9370984251968504
 30
0.0
 10
0.414984251968504
 20
1.9370984251968504
 30
0.0
 10
0.414984251968504
 20
1.9370984251968504
 30
0.0
 10
0.4061968503937008
 20
1.9437874015748031
 30
0.0
 10
0.4061968503937008
 20
1.9437874015748031
 30
0.0
 10
0.4061968503937008
 20
1.9437874015748031
 30
0.0
 10
0.4061968503937008
 20
1.9437874015748031
 30
0.0
 10
0.3973464566929134
 20
1.9504448818897639
 30
0.0
 10
0.3973464566929134
 20
1.9504448818897639
 30
0.0
 10
0.3973464566929134
 20
1.9504448818897639
 30
0.0
 10
0.3973464566929134
 20
1.9504448818897639
 30
0.0
 10
0.3883188976377953
 20
1.9570393700787403
 30
0.0
 10
0.3883188976377953
 20
1.9570393700787403
 30
0.0
 10
0.3883188976377953
 20
1.9570393700787403
 30
0.0
 10
0.3883188976377953
 20
1.9570393700787403
 30
0.0
 10
0.37898031496063
 20
1.9635157480314962
 30
0.0
 10
0.37898031496063
 20
1.9635157480314962
 30
0.0
 10
0.37898031496063
 20
1.9635157480314962
 30
0.0
 10
0.37898031496063
 20
1.9635157480314962
 30
0.0
 10
0.3692244094488189
 20
1.9698464566929135
 30
0.0
 10
0.3692244094488189
 20
1.9698464566929135
 30
0.0
 10
0.3692244094488189
 20
1.9698464566929135
 30
0.0
 10
0.3692244094488189
 20
1.9698464566929135
 30
0.0
 10
0.3589251968503937
 20
1.9759803149606301
 30
0.0
 10
0.3589251968503937
 20
1.9759803149606301
 30
0.0
 10
0.3589251968503937
 20
1.9759803149606301
 30
0.0
 10
0.3589251968503937
 20
1.9759803149606301
 30
0.0
 10
0.3479645669291339
 20
1.9818897637795276
 30
0.0
 10
0.3479645669291339
 20
1.9818897637795276
 30
0.0
 10
0.3479645669291339
 20
1.9818897637795276
 30
0.0
 10
0.3479645669291339
 20
1.9818897637795276
 30
0.0
 10
0.3362086614173229
 20
1.9875118110236221
 30
0.0
 10
0.3362086614173229
 20
1.9875118110236221
 30
0.0
 10
0.3362086614173229
 20
1.9875118110236221
 30
0.0
 10
0.3362086614173229
 20
1.9875118110236221
 30
0.0
 10
0.3235511811023622
 20
1.9928267716535433
 30
0.0
 10
0.3235511811023622
 20
1.9928267716535433
 30
0.0
 10
0.3235511811023622
 20
1.9928267716535433
 30
0.0
 10
0.3235511811023622
 20
1.9928267716535433
 30
0.0
 10
0.3098622047244095
 20
1.9977834645669292
 30
0.0
 10
0.3098622047244095
 20
1.9977834645669292
 30
0.0
 10
0.3098622047244095
 20
1.9977834645669292
 30
0.0
 10
0.3098622047244095
 20
1.9977834645669292
 30
0.0
 10
0.2950314960629921
 20
2.0023503937007874
 30
0.0
 10
0.2950314960629921
 20
2.0023503937007874
 30
0.0
 10
0.2950314960629921
 20
2.0023503937007874
 30
0.0
 10
0.2950314960629921
 20
2.0023503937007874
 30
0.0
 10
0.2789251968503937
 20
2.006472440944882
 30
0.0
 10
0.2789251968503937
 20
2.006472440944882
 30
0.0
 10
0.2789251968503937
 20
2.006472440944882
 30
0.0
 10
0.2789251968503937
 20
2.006472440944882
 30
0.0
 10
0.2614370078740158
 20
2.0101259842519688
 30
0.0
 10
0.2614370078740158
 20
2.0101259842519688
 30
0.0
 10
0.2614370078740158
 20
2.0101259842519688
 30
0.0
 10
0.2614370078740158
 20
2.0101259842519688
 30
0.0
 10
0.2424370078740158
 20
2.013251968503937
 30
0.0
 10
0.2424370078740158
 20
2.013251968503937
 30
0.0
 10
0.2424370078740158
 20
2.013251968503937
 30
0.0
 10
0.2424370078740158
 20
2.013251968503937
 30
0.0
 10
0.2218070866141732
 20
2.0158267716535434
 30
0.0
 10
0.2218070866141732
 20
2.0158267716535434
 30
0.0
 10
0.2218070866141732
 20
2.0158267716535434
 30
0.0
 10
0.2218070866141732
 20
2.0158267716535434
 30
0.0
 10
0.2094448818897638
 20
2.0168976377952759
 30
0.0
 10
0.2094448818897638
 20
2.0168976377952759
 30
0.0
 10
0.2094448818897638
 20
2.0168976377952759
 30
0.0
 10
0.2094448818897638
 20
2.0168976377952759
 30
0.0
 10
0.1960118110236221
 20
2.017681102362205
 30
0.0
 10
0.1960118110236221
 20
2.017681102362205
 30
0.0
 10
0.1960118110236221
 20
2.017681102362205
 30
0.0
 10
0.1960118110236221
 20
2.017681102362205
 30
0.0
 10
0.1815944881889764
 20
2.0182480314960629
 30
0.0
 10
0.1815944881889764
 20
2.0182480314960629
 30
0.0
 10
0.1815944881889764
 20
2.0182480314960629
 30
0.0
 10
0.1815944881889764
 20
2.0182480314960629
 30
0.0
 10
0.1662992125984252
 20
2.0186771653543309
 30
0.0
 10
0.1662992125984252
 20
2.0186771653543309
 30
0.0
 10
0.1662992125984252
 20
2.0186771653543309
 30
0.0
 10
0.1662992125984252
 20
2.0186771653543309
 30
0.0
 10
0.1502086614173228
 20
2.019031496062992
 30
0.0
 10
0.1502086614173228
 20
2.019031496062992
 30
0.0
 10
0.1502086614173228
 20
2.019031496062992
 30
0.0
 10
0.1502086614173228
 20
2.019031496062992
 30
0.0
 10
0.1334251968503937
 20
2.0194055118110237
 30
0.0
 10
0.1334251968503937
 20
2.0194055118110237
 30
0.0
 10
0.1334251968503937
 20
2.0194055118110237
 30
0.0
 10
0.1334251968503937
 20
2.0194055118110237
 30
0.0
 10
0.1160433070866142
 20
2.0198661417322836
 30
0.0
 10
0.1160433070866142
 20
2.0198661417322836
 30
0.0
 10
0.1160433070866142
 20
2.0198661417322836
 30
0.0
 10
0.1160433070866142
 20
2.0198661417322836
 30
0.0
 10
0.0981614173228346
 20
2.0204921259842519
 30
0.0
 10
0.0981614173228346
 20
2.0204921259842519
 30
0.0
 10
0.0981614173228346
 20
2.0204921259842519
 30
0.0
 10
0.0981614173228346
 20
2.0204921259842519
 30
0.0
 10
0.0798622047244095
 20
2.0213503937007875
 30
0.0
 10
0.0798622047244095
 20
2.0213503937007875
 30
0.0
 10
0.0798622047244095
 20
2.0213503937007875
 30
0.0
 10
0.0798622047244095
 20
2.0213503937007875
 30
0.0
 10
0.061259842519685
 20
2.0225275590551184
 30
0.0
 10
0.061259842519685
 20
2.0225275590551184
 30
0.0
 10
0.061259842519685
 20
2.0225275590551184
 30
0.0
 10
0.061259842519685
 20
2.0225275590551184
 30
0.0
 10
0.0424330708661417
 20
2.0240944881889766
 30
0.0
 10
0.0424330708661417
 20
2.0240944881889766
 30
0.0
 10
0.0424330708661417
 20
2.0240944881889766
 30
0.0
 10
0.0424330708661417
 20
2.0240944881889766
 30
0.0
 10
0.023492125984252
 20
2.0261377952755906
 30
0.0
 10
0.023492125984252
 20
2.0261377952755906
 30
0.0
 10
0.023492125984252
 20
2.0261377952755906
 30
0.0
 10
0.023492125984252
 20
2.0261377952755906
 30
0.0
 10
0.0045196850393701
 20
2.028716535433071
 30
0.0
 10
0.0045196850393701
 20
2.028716535433071
 30
0.0
 10
0.0045196850393701
 20
2.028716535433071
 30
0.0
 10
0.0045196850393701
 20
2.028716535433071
 30
0.0
 10
-0.0143779527559055
 20
2.0319173228346457
 30
0.0
 10
-0.0143779527559055
 20
2.0319173228346457
 30
0.0
 10
-0.0143779527559055
 20
2.0319173228346457
 30
0.0
 10
-0.0143779527559055
 20
2.0319173228346457
 30
0.0
 10
-0.0331141732283465
 20
2.0358110236220472
 30
0.0
 10
-0.0331141732283465
 20
2.0358110236220472
 30
0.0
 10
-0.0331141732283465
 20
2.0358110236220472
 30
0.0
 10
-0.0331141732283465
 20
2.0358110236220472
 30
0.0
 10
-0.0515944881889764
 20
2.040488188976378
 30
0.0
 10
-0.0515944881889764
 20
2.040488188976378
 30
0.0
 10
-0.0515944881889764
 20
2.040488188976378
 30
0.0
 10
-0.0515944881889764
 20
2.040488188976378
 30
0.0
 10
-0.0697086614173228
 20
2.0460000000000003
 30
0.0
 10
-0.0697086614173228
 20
2.0460000000000003
 30
0.0
 10
-0.0697086614173228
 20
2.0460000000000003
 30
0.0
 10
-0.0697086614173228
 20
2.0460000000000003
 30
0.0
 10
-0.0873858267716535
 20
2.0524409448818899
 30
0.0
 10
-0.0873858267716535
 20
2.0524409448818899
 30
0.0
 10
-0.0873858267716535
 20
2.0524409448818899
 30
0.0
 10
-0.0873858267716535
 20
2.0524409448818899
 30
0.0
 10
-0.104507874015748
 20
2.0598779527559055
 30
0.0
 10
-0.104507874015748
 20
2.0598779527559055
 30
0.0
 10
-0.104507874015748
 20
2.0598779527559055
 30
0.0
 10
-0.104507874015748
 20
2.0598779527559055
 30
0.0
 10
-0.120996062992126
 20
2.0683937007874018
 30
0.0
 10
-0.120996062992126
 20
2.0683937007874018
 30
0.0
 10
-0.120996062992126
 20
2.0683937007874018
 30
0.0
 10
-0.120996062992126
 20
2.0683937007874018
 30
0.0
 10
-0.1367362204724409
 20
2.0780551181102362
 30
0.0
 10
-0.1367362204724409
 20
2.0780551181102362
 30
0.0
 10
-0.1367362204724409
 20
2.0780551181102362
 30
0.0
 10
-0.1367362204724409
 20
2.0780551181102362
 30
0.0
 10
-0.1516535433070866
 20
2.0889527559055119
 30
0.0
 10
-0.1516535433070866
 20
2.0889527559055119
 30
0.0
 10
-0.1516535433070866
 20
2.0889527559055119
 30
0.0
 10
-0.1516535433070866
 20
2.0889527559055119
 30
0.0
 10
-0.1656377952755906
 20
2.1011535433070865
 30
0.0
 10
-0.1656377952755906
 20
2.1011535433070865
 30
0.0
 10
-0.1656377952755906
 20
2.1011535433070865
 30
0.0
 10
-0.1656377952755906
 20
2.1011535433070865
 30
0.0
 10
-0.1786062992125984
 20
2.1147401574803149
 30
0.0
 10
-0.1786062992125984
 20
2.1147401574803149
 30
0.0
 10
-0.1786062992125984
 20
2.1147401574803149
 30
0.0
 10
-0.1786062992125984
 20
2.1147401574803149
 30
0.0
 10
-0.1904448818897638
 20
2.1297716535433073
 30
0.0
 10
-0.1904448818897638
 20
2.1297716535433073
 30
0.0
 10
-0.1904448818897638
 20
2.1297716535433073
 30
0.0
 10
-0.1904448818897638
 20
2.1297716535433073
 30
0.0
 10
-0.2010787401574803
 20
2.1463425196850396
 30
0.0
 10
-0.2010787401574803
 20
2.1463425196850396
 30
0.0
 10
-0.2010787401574803
 20
2.1463425196850396
 30
0.0
 10
-0.2010787401574803
 20
2.1463425196850396
 30
0.0
 10
-0.2103976377952756
 20
2.16451968503937
 30
0.0
 10
-0.2103976377952756
 20
2.16451968503937
 30
0.0
 10
-0.2103976377952756
 20
2.16451968503937
 30
0.0
 10
-0.2103976377952756
 20
2.16451968503937
 30
0.0
 10
-0.2183149606299213
 20
2.1843818897637797
 30
0.0
 10
-0.2183149606299213
 20
2.1843818897637797
 30
0.0
 10
-0.2183149606299213
 20
2.1843818897637797
 30
0.0
 10
-0.2183149606299213
 20
2.1843818897637797
 30
0.0
 10
-0.2247283464566929
 20
2.206
 30
0.0
 10
-0.2247283464566929
 20
2.206
 30
0.0
 10
-0.2247283464566929
 20
2.206
 30
0.0
 10
-0.2247283464566929
 20
2.206
 30
0.0
 10
-0.2295472440944882
 20
2.22946062992126
 30
0.0
 10
-0.2295472440944882
 20
2.22946062992126
 30
0.0
 10
-0.2295472440944882
 20
2.22946062992126
 30
0.0
 10
-0.2295472440944882
 20
2.22946062992126
 30
0.0
 10
-0.2326732283464567
 20
2.2548307086614172
 30
0.0
 10
-0.2326732283464567
 20
2.2548307086614172
 30
0.0
 10
-0.2326732283464567
 20
2.2548307086614172
 30
0.0
 10
-0.2326732283464567
 20
2.2548307086614172
 30
0.0
 10
-0.2340196850393701
 20
2.2821968503937007
 30
0.0
 10
-0.2340196850393701
 20
2.2821968503937007
 30
0.0
 10
-0.2340196850393701
 20
2.2821968503937007
 30
0.0
 10
-0.2340196850393701
 20
2.2821968503937007
 30
0.0
 10
-0.2321496062992126
 20
1.5381692913385827
 30
0.0
 10
-0.2321496062992126
 20
1.5381692913385827
 30
0.0
 10
-0.2321496062992126
 20
1.5381692913385827
 30
0.0
 10
-0.2321496062992126
 20
1.5381692913385827
 30
0.0
 10
-0.2308031496062992
 20
1.5108031496062992
 30
0.0
 10
-0.2308031496062992
 20
1.5108031496062992
 30
0.0
 10
-0.2308031496062992
 20
1.5108031496062992
 30
0.0
 10
-0.2308031496062992
 20
1.5108031496062992
 30
0.0
 10
-0.2276771653543307
 20
1.4854330708661418
 30
0.0
 10
-0.2276771653543307
 20
1.4854330708661418
 30
0.0
 10
-0.2276771653543307
 20
1.4854330708661418
 30
0.0
 10
-0.2276771653543307
 20
1.4854330708661418
 30
0.0
 10
-0.2228582677165354
 20
1.461972440944882
 30
0.0
 10
-0.2228582677165354
 20
1.461972440944882
 30
0.0
 10
-0.2228582677165354
 20
1.461972440944882
 30
0.0
 10
-0.2228582677165354
 20
1.461972440944882
 30
0.0
 10
-0.2164448818897638
 20
1.4403543307086615
 30
0.0
 10
-0.2164448818897638
 20
1.4403543307086615
 30
0.0
 10
-0.2164448818897638
 20
1.4403543307086615
 30
0.0
 10
-0.2164448818897638
 20
1.4403543307086615
 30
0.0
 10
-0.2085275590551181
 20
1.420492125984252
 30
0.0
 10
-0.2085275590551181
 20
1.420492125984252
 30
0.0
 10
-0.2085275590551181
 20
1.420492125984252
 30
0.0
 10
-0.2085275590551181
 20
1.420492125984252
 30
0.0
 10
-0.1992086614173229
 20
1.4023149606299212
 30
0.0
 10
-0.1992086614173229
 20
1.4023149606299212
 30
0.0
 10
-0.1992086614173229
 20
1.4023149606299212
 30
0.0
 10
-0.1992086614173229
 20
1.4023149606299212
 30
0.0
 10
-0.1885748031496063
 20
1.3857440944881891
 30
0.0
 10
-0.1885748031496063
 20
1.3857440944881891
 30
0.0
 10
-0.1885748031496063
 20
1.3857440944881891
 30
0.0
 10
-0.1885748031496063
 20
1.3857440944881891
 30
0.0
 10
-0.176736220472441
 20
1.3707125984251969
 30
0.0
 10
-0.176736220472441
 20
1.3707125984251969
 30
0.0
 10
-0.176736220472441
 20
1.3707125984251969
 30
0.0
 10
-0.176736220472441
 20
1.3707125984251969
 30
0.0
 10
-0.1637677165354331
 20
1.3571259842519685
 30
0.0
 10
-0.1637677165354331
 20
1.3571259842519685
 30
0.0
 10
-0.1637677165354331
 20
1.3571259842519685
 30
0.0
 10
-0.1637677165354331
 20
1.3571259842519685
 30
0.0
 10
-0.1497834645669292
 20
1.3449251968503937
 30
0.0
 10
-0.1497834645669292
 20
1.3449251968503937
 30
0.0
 10
-0.1497834645669292
 20
1.3449251968503937
 30
0.0
 10
-0.1497834645669292
 20
1.3449251968503937
 30
0.0
 10
-0.1348661417322835
 20
1.3340275590551181
 30
0.0
 10
-0.1348661417322835
 20
1.3340275590551181
 30
0.0
 10
-0.1348661417322835
 20
1.3340275590551181
 30
0.0
 10
-0.1348661417322835
 20
1.3340275590551181
 30
0.0
 10
-0.1191259842519685
 20
1.3243661417322836
 30
0.0
 10
-0.1191259842519685
 20
1.3243661417322836
 30
0.0
 10
-0.1191259842519685
 20
1.3243661417322836
 30
0.0
 10
-0.1191259842519685
 20
1.3243661417322836
 30
0.0
 10
-0.1026377952755906
 20
1.3158503937007875
 30
0.0
 10
-0.1026377952755906
 20
1.3158503937007875
 30
0.0
 10
-0.1026377952755906
 20
1.3158503937007875
 30
0.0
 10
-0.1026377952755906
 20
1.3158503937007875
 30
0.0
 10
-0.0855157480314961
 20
1.3084133858267717
 30
0.0
 10
-0.0855157480314961
 20
1.3084133858267717
 30
0.0
 10
-0.0855157480314961
 20
1.3084133858267717
 30
0.0
 10
-0.0855157480314961
 20
1.3084133858267717
 30
0.0
 10
-0.0678385826771654
 20
1.3019724409448818
 30
0.0
 10
-0.0678385826771654
 20
1.3019724409448818
 30
0.0
 10
-0.0678385826771654
 20
1.3019724409448818
 30
0.0
 10
-0.0678385826771654
 20
1.3019724409448818
 30
0.0
 10
-0.0497244094488189
 20
1.29646062992126
 30
0.0
 10
-0.0497244094488189
 20
1.29646062992126
 30
0.0
 10
-0.0497244094488189
 20
1.29646062992126
 30
0.0
 10
-0.0497244094488189
 20
1.29646062992126
 30
0.0
 10
-0.031244094488189
 20
1.2917834645669293
 30
0.0
 10
-0.031244094488189
 20
1.2917834645669293
 30
0.0
 10
-0.031244094488189
 20
1.2917834645669293
 30
0.0
 10
-0.031244094488189
 20
1.2917834645669293
 30
0.0
 10
-0.012507874015748
 20
1.2878897637795277
 30
0.0
 10
-0.012507874015748
 20
1.2878897637795277
 30
0.0
 10
-0.012507874015748
 20
1.2878897637795277
 30
0.0
 10
-0.012507874015748
 20
1.2878897637795277
 30
0.0
 10
0.0063897637795276
 20
1.2846889763779528
 30
0.0
 10
0.0063897637795276
 20
1.2846889763779528
 30
0.0
 10
0.0063897637795276
 20
1.2846889763779528
 30
0.0
 10
0.0063897637795276
 20
1.2846889763779528
 30
0.0
 10
0.0253622047244094
 20
1.2821102362204726
 30
0.0
 10
0.0253622047244094
 20
1.2821102362204726
 30
0.0
 10
0.0253622047244094
 20
1.2821102362204726
 30
0.0
 10
0.0253622047244094
 20
1.2821102362204726
 30
0.0
 10
0.0443031496062992
 20
1.2800669291338582
 30
0.0
 10
0.0443031496062992
 20
1.2800669291338582
 30
0.0
 10
0.0443031496062992
 20
1.2800669291338582
 30
0.0
 10
0.0443031496062992
 20
1.2800669291338582
 30
0.0
 10
0.0631299212598425
 20
1.2785
 30
0.0
 10
0.0631299212598425
 20
1.2785
 30
0.0
 10
0.0631299212598425
 20
1.2785
 30
0.0
 10
0.0631299212598425
 20
1.2785
 30
0.0
 10
0.0817322834645669
 20
1.2773228346456693
 30
0.0
 10
0.0817322834645669
 20
1.2773228346456693
 30
0.0
 10
0.0817322834645669
 20
1.2773228346456693
 30
0.0
 10
0.0817322834645669
 20
1.2773228346456693
 30
0.0
 10
0.1000314960629921
 20
1.2764645669291339
 30
0.0
 10
0.1000314960629921
 20
1.2764645669291339
 30
0.0
 10
0.1000314960629921
 20
1.2764645669291339
 30
0.0
 10
0.1000314960629921
 20
1.2764645669291339
 30
0.0
 10
0.1179133858267717
 20
1.2758385826771654
 30
0.0
 10
0.1179133858267717
 20
1.2758385826771654
 30
0.0
 10
0.1179133858267717
 20
1.2758385826771654
 30
0.0
 10
0.1179133858267717
 20
1.2758385826771654
 30
0.0
 10
0.1352952755905512
 20
1.2753779527559055
 30
0.0
 10
0.1352952755905512
 20
1.2753779527559055
 30
0.0
 10
0.1352952755905512
 20
1.2753779527559055
 30
0.0
 10
0.1352952755905512
 20
1.2753779527559055
 30
0.0
 10
0.1520787401574803
 20
1.2750039370078741
 30
0.0
 10
0.1520787401574803
 20
1.2750039370078741
 30
0.0
 10
0.1520787401574803
 20
1.2750039370078741
 30
0.0
 10
0.1520787401574803
 20
1.2750039370078741
 30
0.0
 10
0.1681692913385827
 20
1.2746496062992128
 30
0.0
 10
0.1681692913385827
 20
1.2746496062992128
 30
0.0
 10
0.1681692913385827
 20
1.2746496062992128
 30
0.0
 10
0.1681692913385827
 20
1.2746496062992128
 30
0.0
 10
0.1834645669291339
 20
1.2742204724409449
 30
0.0
 10
0.1834645669291339
 20
1.2742204724409449
 30
0.0
 10
0.1834645669291339
 20
1.2742204724409449
 30
0.0
 10
0.1834645669291339
 20
1.2742204724409449
 30
0.0
 10
0.1978818897637795
 20
1.2736535433070866
 30
0.0
 10
0.1978818897637795
 20
1.2736535433070866
 30
0.0
 10
0.1978818897637795
 20
1.2736535433070866
 30
0.0
 10
0.1978818897637795
 20
1.2736535433070866
 30
0.0
 10
0.2113149606299213
 20
1.2728700787401575
 30
0.0
 10
0.2113149606299213
 20
1.2728700787401575
 30
0.0
 10
0.2113149606299213
 20
1.2728700787401575
 30
0.0
 10
0.2113149606299213
 20
1.2728700787401575
 30
0.0
 10
0.2236771653543307
 20
1.2717992125984252
 30
0.0
 10
0.2236771653543307
 20
1.2717992125984252
 30
0.0
 10
0.2236771653543307
 20
1.2717992125984252
 30
0.0
 10
0.2236771653543307
 20
1.2717992125984252
 30
0.0
 10
0.2443070866141733
 20
1.269224409448819
 30
0.0
 10
0.2443070866141733
 20
1.269224409448819
 30
0.0
 10
0.2443070866141733
 20
1.269224409448819
 30
0.0
 10
0.2443070866141733
 20
1.269224409448819
 30
0.0
 10
0.2633070866141732
 20
1.2660984251968503
 30
0.0
 10
0.2633070866141732
 20
1.2660984251968503
 30
0.0
 10
0.2633070866141732
 20
1.2660984251968503
 30
0.0
 10
0.2633070866141732
 20
1.2660984251968503
 30
0.0
 10
0.2807952755905512
 20
1.2624448818897638
 30
0.0
 10
0.2807952755905512
 20
1.2624448818897638
 30
0.0
 10
0.2807952755905512
 20
1.2624448818897638
 30
0.0
 10
0.2807952755905512
 20
1.2624448818897638
 30
0.0
 10
0.2969015748031496
 20
1.2583228346456694
 30
0.0
 10
0.2969015748031496
 20
1.2583228346456694
 30
0.0
 10
0.2969015748031496
 20
1.2583228346456694
 30
0.0
 10
0.2969015748031496
 20
1.2583228346456694
 30
0.0
 10
0.3117322834645669
 20
1.253755905511811
 30
0.0
 10
0.3117322834645669
 20
1.253755905511811
 30
0.0
 10
0.3117322834645669
 20
1.253755905511811
 30
0.0
 10
0.3117322834645669
 20
1.253755905511811
 30
0.0
 10
0.3254212598425197
 20
1.2487992125984253
 30
0.0
 10
0.3254212598425197
 20
1.2487992125984253
 30
0.0
 10
0.3254212598425197
 20
1.2487992125984253
 30
0.0
 10
0.3254212598425197
 20
1.2487992125984253
 30
0.0
 10
0.3380787401574804
 20
1.2434842519685039
 30
0.0
 10
0.3380787401574804
 20
1.2434842519685039
 30
0.0
 10
0.3380787401574804
 20
1.2434842519685039
 30
0.0
 10
0.3380787401574804
 20
1.2434842519685039
 30
0.0
 10
0.3498346456692913
 20
1.2378622047244094
 30
0.0
 10
0.3498346456692913
 20
1.2378622047244094
 30
0.0
 10
0.3498346456692913
 20
1.2378622047244094
 30
0.0
 10
0.3498346456692913
 20
1.2378622047244094
 30
0.0
 10
0.3607952755905512
 20
1.2319527559055119
 30
0.0
 10
0.3607952755905512
 20
1.2319527559055119
 30
0.0
 10
0.3607952755905512
 20
1.2319527559055119
 30
0.0
 10
0.3607952755905512
 20
1.2319527559055119
 30
0.0
 10
0.3710944881889764
 20
1.2258188976377953
 30
0.0
 10
0.3710944881889764
 20
1.2258188976377953
 30
0.0
 10
0.3710944881889764
 20
1.2258188976377953
 30
0.0
 10
0.3710944881889764
 20
1.2258188976377953
 30
0.0
 10
0.3808503937007874
 20
1.219488188976378
 30
0.0
 10
0.3808503937007874
 20
1.219488188976378
 30
0.0
 10
0.3808503937007874
 20
1.219488188976378
 30
0.0
 10
0.3808503937007874
 20
1.219488188976378
 30
0.0
 10
0.3901889763779528
 20
1.2130118110236221
 30
0.0
 10
0.3901889763779528
 20
1.2130118110236221
 30
0.0
 10
0.3901889763779528
 20
1.2130118110236221
 30
0.0
 10
0.3901889763779528
 20
1.2130118110236221
 30
0.0
 10
0.3992165354330709
 20
1.2064173228346458
 30
0.0
 10
0.3992165354330709
 20
1.2064173228346458
 30
0.0
 10
0.3992165354330709
 20
1.2064173228346458
 30
0.0
 10
0.3992165354330709
 20
1.2064173228346458
 30
0.0
 10
0.4080669291338583
 20
1.1997598425196851
 30
0.0
 10
0.4080669291338583
 20
1.1997598425196851
 30
0.0
 10
0.4080669291338583
 20
1.1997598425196851
 30
0.0
 10
0.4080669291338583
 20
1.1997598425196851
 30
0.0
 10
0.4168543307086615
 20
1.1930708661417324
 30
0.0
 10
0.4168543307086615
 20
1.1930708661417324
 30
0.0
 10
0.4168543307086615
 20
1.1930708661417324
 30
0.0
 10
0.4168543307086615
 20
1.1930708661417324
 30
0.0
 10
0.4257047244094488
 20
1.1863976377952756
 30
0.0
 10
0.4257047244094488
 20
1.1863976377952756
 30
0.0
 10
0.4257047244094488
 20
1.1863976377952756
 30
0.0
 10
0.4257047244094488
 20
1.1863976377952756
 30
0.0
 10
0.434728346456693
 20
1.1797677165354332
 30
0.0
 10
0.434728346456693
 20
1.1797677165354332
 30
0.0
 10
0.434728346456693
 20
1.1797677165354332
 30
0.0
 10
0.434728346456693
 20
1.1797677165354332
 30
0.0
 10
0.4440590551181103
 20
1.1732362204724409
 30
0.0
 10
0.4440590551181103
 20
1.1732362204724409
 30
0.0
 10
0.4440590551181103
 20
1.1732362204724409
 30
0.0
 10
0.4440590551181103
 20
1.1732362204724409
 30
0.0
 10
0.4538070866141732
 20
1.1668346456692913
 30
0.0
 10
0.4538070866141732
 20
1.1668346456692913
 30
0.0
 10
0.4538070866141732
 20
1.1668346456692913
 30
0.0
 10
0.4538070866141732
 20
1.1668346456692913
 30
0.0
 10
0.4641023622047245
 20
1.1606141732283466
 30
0.0
 10
0.4641023622047245
 20
1.1606141732283466
 30
0.0
 10
0.4641023622047245
 20
1.1606141732283466
 30
0.0
 10
0.4641023622047245
 20
1.1606141732283466
 30
0.0
 10
0.4750590551181103
 20
1.1546023622047246
 30
0.0
 10
0.4750590551181103
 20
1.1546023622047246
 30
0.0
 10
0.4750590551181103
 20
1.1546023622047246
 30
0.0
 10
0.4750590551181103
 20
1.1546023622047246
 30
0.0
 10
0.4868031496062992
 20
1.1488543307086614
 30
0.0
 10
0.4868031496062992
 20
1.1488543307086614
 30
0.0
 10
0.4868031496062992
 20
1.1488543307086614
 30
0.0
 10
0.4868031496062992
 20
1.1488543307086614
 30
0.0
 10
0.4994488188976378
 20
1.1434015748031496
 30
0.0
 10
0.4994488188976378
 20
1.1434015748031496
 30
0.0
 10
0.4994488188976378
 20
1.1434015748031496
 30
0.0
 10
0.4994488188976378
 20
1.1434015748031496
 30
0.0
 10
0.5131259842519685
 20
1.1382913385826772
 30
0.0
 10
0.5131259842519685
 20
1.1382913385826772
 30
0.0
 10
0.5131259842519685
 20
1.1382913385826772
 30
0.0
 10
0.5131259842519685
 20
1.1382913385826772
 30
0.0
 10
0.5279409448818898
 20
1.1335511811023622
 30
0.0
 10
0.5279409448818898
 20
1.1335511811023622
 30
0.0
 10
0.5279409448818898
 20
1.1335511811023622
 30
0.0
 10
0.5279409448818898
 20
1.1335511811023622
 30
0.0
 10
0.5440314960629922
 20
1.1292322834645669
 30
0.0
 10
0.5440314960629922
 20
1.1292322834645669
 30
0.0
 10
0.5440314960629922
 20
1.1292322834645669
 30
0.0
 10
0.5440314960629922
 20
1.1292322834645669
 30
0.0
 10
0.5615078740157481
 20
1.1253740157480316
 30
0.0
 10
0.5615078740157481
 20
1.1253740157480316
 30
0.0
 10
0.5615078740157481
 20
1.1253740157480316
 30
0.0
 10
0.5615078740157481
 20
1.1253740157480316
 30
0.0
 10
0.580496062992126
 20
1.1220236220472442
 30
0.0
 10
0.580496062992126
 20
1.1220236220472442
 30
0.0
 10
0.580496062992126
 20
1.1220236220472442
 30
0.0
 10
0.580496062992126
 20
1.1220236220472442
 30
0.0
 10
0.6011102362204724
 20
1.119204724409449
 30
0.0
 10
0.6011102362204724
 20
1.119204724409449
 30
0.0
 10
0.6011102362204724
 20
1.119204724409449
 30
0.0
 10
0.6011102362204724
 20
1.119204724409449
 30
0.0
 10
0.6234763779527559
 20
1.1169763779527559
 30
0.0
 10
0.6234763779527559
 20
1.1169763779527559
 30
0.0
 10
0.6234763779527559
 20
1.1169763779527559
 30
0.0
 10
0.6234763779527559
 20
1.1169763779527559
 30
0.0
 10
0.6477165354330708
 20
1.1153700787401575
 30
0.0
 10
0.6477165354330708
 20
1.1153700787401575
 30
0.0
 10
0.6477165354330708
 20
1.1153700787401575
 30
0.0
 10
0.6477165354330708
 20
1.1153700787401575
 30
0.0
 10
0.6739527559055119
 20
1.1144330708661419
 30
0.0
 10
0.6739527559055119
 20
1.1144330708661419
 30
0.0
  0
SPLINE
  5
77
100
AcDbEntity
  8
Layer 1
 62
   253
100
AcDbSpline
210
0.0
220
0.0
230
1.0
 70
     1
 71
     3
 72
    20
 73
    16
 74
     0
 42
0.0000000001
 43
0.0000000001
 40
0.0
 40
0.0
 40
0.0
 40
0.0
 40
0.25
 40
0.25
 40
0.25
 40
0.25
 40
0.5
 40
0.5
 40
0.5
 40
0.5
 40
0.75
 40
0.75
 40
0.75
 40
0.75
 40
1.0
 40
1.0
 40
1.0
 40
1.0
 10
-0.2321496062992126
 20
1.5381692913385827
 30
0.0
 10
-0.2321496062992126
 20
1.5381692913385827
 30
0.0
 10
-0.2340196850393701
 20
2.2821968503937007
 30
0.0
 10
-0.2340196850393701
 20
2.2821968503937007
 30
0.0
 10
-0.2340196850393701
 20
2.2821968503937007
 30
0.0
 10
-0.2340196850393701
 20
2.2821968503937007
 30
0.0
 10
-0.5801811023622048
 20
2.2821968503937007
 30
0.0
 10
-0.5801811023622048
 20
2.2821968503937007
 30
0.0
 10
-0.5801811023622048
 20
2.2821968503937007
 30
0.0
 10
-0.5801811023622048
 20
2.2821968503937007
 30
0.0
 10
-0.5783110236220472
 20
1.5381692913385827
 30
0.0
 10
-0.5783110236220472
 20
1.5381692913385827
 30
0.0
 10
-0.5783110236220472
 20
1.5381692913385827
 30
0.0
 10
-0.5783110236220472
 20
1.5381692913385827
 30
0.0
 10
-0.2321496062992126
 20
1.5381692913385827
 30
0.0
 10
-0.2321496062992126
 20
1.5381692913385827
 30
0.0
  0
SPLINE
  5
78
100
AcDbEntity
  8
Layer 1
370
     5
100
AcDbSpline
210
0.0
220
0.0
230
1.0
 70
     1
 71
     3
 72
    20
 73
    16
 74
     0
 42
0.0000000001
 43
0.0000000001
 40
0.0
 40
0.0
 40
0.0
 40
0.0
 40
0.25
 40
0.25
 40
0.25
 40
0.25
 40
0.5
 40
0.5
 40
0.5
 40
0.5
 40
0.75
 40
0.75
 40
0.75
 40
0.75
 40
1.0
 40
1.0
 40
1.0
 40
1.0
 10
-0.2321496062992126
 20
1.5381692913385827
 30
0.0
 10
-0.2321496062992126
 20
1.5381692913385827
 30
0.0
 10
-0.2340196850393701
 20
2.2821968503937007
 30
0.0
 10
-0.2340196850393701
 20
2.2821968503937007
 30
0.0
 10
-0.2340196850393701
 20
2.2821968503937007
 30
0.0
 10
-0.2340196850393701
 20
2.2821968503937007
 30
0.0
 10
-0.5801811023622048
 20
2.2821968503937007
 30
0.0
 10
-0.5801811023622048
 20
2.2821968503937007
 30
0.0
 10
-0.5801811023622048
 20
2.2821968503937007
 30
0.0
 10
-0.5801811023622048
 20
2.2821968503937007
 30
0.0
 10
-0.5783110236220472
 20
1.5381692913385827
 30
0.0
 10
-0.5783110236220472
 20
1.5381692913385827
 30
0.0
 10
-0.5783110236220472
 20
1.5381692913385827
 30
0.0
 10
-0.5783110236220472
 20
1.5381692913385827
 30
0.0
 10
-0.2321496062992126
 20
1.5381692913385827
 30
0.0
 10
-0.2321496062992126
 20
1.5381692913385827
 30
0.0
  0
SPLINE
  5
79
100
AcDbEntity
  8
Layer 1
370
     5
 62
     7
100
AcDbSpline
210
0.0
220
0.0
230
1.0
 70
     1
 71
     3
 72
    32
 73
    28
 74
     0
 42
0.0000000001
 43
0.0000000001
 40
0.0
 40
0.0
 40
0.0
 40
0.0
 40
0.1428571428571429
 40
0.1428571428571429
 40
0.1428571428571429
 40
0.1428571428571429
 40
0.2857142857142857
 40
0.2857142857142857
 40
0.2857142857142857
 40
0.2857142857142857
 40
0.4285714285714286
 40
0.4285714285714286
 40
0.4285714285714286
 40
0.4285714285714286
 40
0.5714285714285714
 40
0.5714285714285714
 40
0.5714285714285714
 40
0.5714285714285714
 40
0.7142857142857142
 40
0.7142857142857142
 40
0.7142857142857142
 40
0.7142857142857142
 40
0.857142857142857
 40
0.857142857142857
 40
0.857142857142857
 40
0.857142857142857
 40
1.0
 40
1.0
 40
1.0
 40
1.0
 10
0.9208503937007875
 20
0.9343385826771654
 30
0.0
 10
0.6670629921259843
 20
0.9395314960629921
 30
0.0
 10
0.6753188976377953
 20
1.0569999999999999
 30
0.0
 10
0.6739527559055119
 20
1.1144330708661419
 30
0.0
 10
0.6739527559055119
 20
1.1144330708661419
 30
0.0
 10
0.3831102362204725
 20
1.1208031496062993
 30
0.0
 10
0.4529015748031496
 20
1.2475196850393702
 30
0.0
 10
0.2236771653543307
 20
1.2717992125984252
 30
0.0
 10
0.2236771653543307
 20
1.2717992125984252
 30
0.0
 10
0.0979448818897638
 20
1.2851181102362206
 30
0.0
 10
-0.2277244094488189
 20
1.2354606299212598
 30
0.0
 10
-0.2321496062992126
 20
1.5381692913385827
 30
0.0
 10
-0.2321496062992126
 20
1.5381692913385827
 30
0.0
 10
-0.2321496062992126
 20
1.5381692913385827
 30
0.0
 10
-0.5783110236220472
 20
1.5381692913385827
 30
0.0
 10
-0.5783110236220472
 20
1.5381692913385827
 30
0.0
 10
-0.5783110236220472
 20
1.5381692913385827
 30
0.0
 10
-0.5783110236220472
 20
1.5381692913385827
 30
0.0
 10
-0.5783110236220472
 20
0.7881692913385827
 30
0.0
 10
-0.5783110236220472
 20
0.7881692913385827
 30
0.0
 10
-0.5783110236220472
 20
0.7881692913385827
 30
0.0
 10
-0.5783110236220472
 20
0.7881692913385827
 30
0.0
 10
0.9216889763779528
 20
0.7881692913385827
 30
0.0
 10
0.9216889763779528
 20
0.7881692913385827
 30
0.0
 10
0.9216889763779528
 20
0.7881692913385827
 30
0.0
 10
0.9216889763779528
 20
0.7881692913385827
 30
0.0
 10
0.9208503937007875
 20
0.9343385826771654
 30
0.0
 10
0.9208503937007875
 20
0.9343385826771654
 30
0.0
  0
TEXT
  5
7A
100
AcDbEntity
  8
Layer 1
100
AcDbText
 10
-0.204598
 20
0.579035
 30
0.0
 40
0.119999
  1
BA  1550
 51
-0.000002
  7
Bookman Old Style
100
AcDbText
  0
TEXT
  5
7B
100
AcDbEntity
  8
Layer 1
100
AcDbText
 10
-0.38461
 20
0.391535
 30
0.0
 40
0.119999
  1
3/4\u+201d x 1-1/2\u+201d
 51
-0.000002
  7
Bookman Old Style
100
AcDbText
  0
ENDSEC
  0
SECTION
  2
OBJECTS
  0
DICTIONARY
  5
19
100
AcDbDictionary
280
     0
281
     1
  3
ACAD_GROUP
350
1A
  3
ACAD_MLINESTYLE
350
1B
  3
ACAD_LAYOUT
350
1E
  3
ACAD_PLOTSETTINGS
350
22
  3
ACAD_PLOTSTYLENAME
350
1F
  3
ACAD_WIPEOUT_VARS
350
23
  0
DICTIONARY
  5
1A
102
{ACAD_REACTORS
330
19
102
}
100
AcDbDictionary
280
     0
281
     1
  0
DICTIONARY
  5
1B
102
{ACAD_REACTORS
330
19
102
}
100
AcDbDictionary
280
     0
281
     1
  3
Standard
350
1C
  0
MLINESTYLE
  5
1C
102
{ACAD_REACTORS
330
1B
102
}
100
AcDbMlineStyle
  2
Standard
 70
     0
  3

 62
     0
 51
90.0
 52
90.0
 71
     2
 49
0.5
 62
   256
  6
BYLAYER
 49
-0.5
 62
   256
  6
BYLAYER
  0
ACDBDICTIONARYWDFLT
  5
1F
102
{ACAD_REACTORS
330
19
102
}
100
AcDbDictionary
281
     1
  3
Normal
350
1D
100
AcDbDictionaryWithDefault
340
1D
  0
ACDBPLACEHOLDER
  5
1D
102
{ACAD_REACTORS
330
1F
102
}
  0
LAYOUT
  5
20
102
{ACAD_REACTORS
330
1E
102
}
100
AcDbPlotSettings
  1

  2

  4

  6

 40
0.0
 41
0.0
 42
0.0
 43
0.0
 44
0.0
 45
0.0
 46
0.0
 47
0.0
 48
0.0
 49
0.0
140
0.0
141
0.0
142
1.0
143
1.0
 70
  1024
 72
     0
 73
     0
 74
     0
  7

 75
     0
147
1.0
148
0.0
149
0.0
100
AcDbLayout
  1
Model
 70
     0
 71
     0
 10
0.0
 20
0.0
 11
0.0
 21
0.0
 12
0.0
 22
0.0
 32
0.0
 14
0.0
 24
0.0
 34
0.0
 15
0.0
 25
0.0
 35
0.0
146
0.0
 13
0.0
 23
0.0
 33
0.0
 16
0.0
 26
0.0
 36
0.0
 17
0.0
 27
0.0
 37
0.0
 76
     0
330
A
331
0
345
0
346
0
  0
LAYOUT
  5
21
102
{ACAD_REACTORS
330
1E
102
}
100
AcDbPlotSettings
  1

  2

  4

  6

 40
0.0
 41
0.0
 42
0.0
 43
0.0
 44
0.0
 45
0.0
 46
0.0
 47
0.0
 48
0.0
 49
0.0
140
0.0
141
0.0
142
1.0
143
1.0
 70
     0
 72
     0
 73
     0
 74
     0
  7

 75
     0
147
1.0
148
0.0
149
0.0
100
AcDbLayout
  1
Layout1
 70
     0
 71
     0
 10
0.0
 20
0.0
 11
0.0
 21
0.0
 12
0.0
 22
0.0
 32
0.0
 14
0.0
 24
0.0
 34
0.0
 15
0.0
 25
0.0
 35
0.0
146
0.0
 13
0.0
 23
0.0
 33
0.0
 16
0.0
 26
0.0
 36
0.0
 17
0.0
 27
0.0
 37
0.0
 76
     0
330
B
331
0
345
0
346
0
  0
DICTIONARY
  5
1E
102
{ACAD_REACTORS
330
19
102
}
100
AcDbDictionary
280
     0
281
     1
  3
Layout1
350
21
  3
Model
350
20
  0
DICTIONARY
  5
22
102
{ACAD_REACTORS
330
19
102
}
100
AcDbDictionary
280
     0
281
     1
  0
WIPEOUTVARIABLES
  5
23
100
AcDbWipeoutVariables
 70
     1
  0
ENDSEC
  0
EOF
