  0
SECTION
  2
HEADER
  9
$ACADVER
  1
AC1015
  9
$ACADMAINTVER
 70
     6
  9
$DWGCODEPAGE
  3
DOS850
  9
$INSBASE
 10
0.0
 20
0.0
 30
0.0
  9
$EXTMIN
 10
-1.187421
 20
-1.170102
 30
1.000000E+20
  9
$EXTMAX
 10
1.960323
 20
3.664941
 30
-1.000000E+20
  9
$LIMMIN
 10
0.0
 20
0.0
  9
$LIMMAX
 10
0.0
 20
0.0
  9
$ORTHOMODE
 70
     0
  9
$REGENMODE
 70
     1
  9
$FILLMODE
 70
     1
  9
$QTEXTMODE
 70
     0
  9
$MIRRTEXT
 70
     1
  9
$LTSCALE
 40
1.0
  9
$ATTMODE
 70
     1
  9
$TEXTSIZE
 40
0.2
  9
$TRACEWID
 40
0.05
  9
$TEXTSTYLE
  7
Standard
  9
$CLAYER
  8
0
  9
$CELTYPE
  6
Continuous
  9
$CECOLOR
 62
   256
  9
$CELTSCALE
 40
1.0
  9
$DISPSILH
 70
     0
  9
$DIMSCALE
 40
1.0
  9
$DIMASZ
 40
0.18
  9
$DIMEXO
 40
0.0625
  9
$DIMDLI
 40
0.38
  9
$DIMRND
 40
0.0
  9
$DIMDLE
 40
0.0
  9
$DIMEXE
 40
0.18
  9
$DIMTP
 40
0.0
  9
$DIMTM
 40
0.0
  9
$DIMTXT
 40
0.18
  9
$DIMCEN
 40
0.09
  9
$DIMTSZ
 40
0.0
  9
$DIMTOL
 70
     0
  9
$DIMLIM
 70
     0
  9
$DIMTIH
 70
     1
  9
$DIMTOH
 70
     1
  9
$DIMSE1
 70
     0
  9
$DIMSE2
 70
     0
  9
$DIMTAD
 70
     0
  9
$DIMZIN
 70
     0
  9
$DIMBLK
  1

  9
$DIMASO
 70
     1
  9
$DIMSHO
 70
     1
  9
$DIMPOST
  1

  9
$DIMAPOST
  1

  9
$DIMALT
 70
     0
  9
$DIMALTD
 70
     2
  9
$DIMALTF
 40
25.4
  9
$DIMLFAC
 40
1.0
  9
$DIMTOFL
 70
     0
  9
$DIMTVP
 40
0.0
  9
$DIMTIX
 70
     0
  9
$DIMSOXD
 70
     0
  9
$DIMSAH
 70
     0
  9
$DIMBLK1
  1

  9
$DIMBLK2
  1

  9
$DIMSTYLE
  2
Standard
  9
$DIMCLRD
 70
     0
  9
$DIMCLRE
 70
     0
  9
$DIMCLRT
 70
     0
  9
$DIMTFAC
 40
1.0
  9
$DIMGAP
 40
0.09
  9
$DIMJUST
 70
     0
  9
$DIMSD1
 70
     0
  9
$DIMSD2
 70
     0
  9
$DIMTOLJ
 70
     1
  9
$DIMTZIN
 70
     0
  9
$DIMALTZ
 70
     0
  9
$DIMALTTZ
 70
     0
  9
$DIMUPT
 70
     0
  9
$DIMDEC
 70
     4
  9
$DIMTDEC
 70
     4
  9
$DIMALTU
 70
     2
  9
$DIMALTTD
 70
     2
  9
$DIMTXSTY
  7
Standard
  9
$DIMAUNIT
 70
     0
  9
$DIMADEC
 70
     0
  9
$DIMALTRND
 40
0.0
  9
$DIMAZIN
 70
     0
  9
$DIMDSEP
 70
     0
  9
$DIMATFIT
 70
     3
  9
$DIMFRAC
 70
     0
  9
$DIMLDRBLK
  1

  9
$DIMLUNIT
 70
     2
  9
$DIMLWD
 70
     0
  9
$DIMLWE
 70
     0
  9
$DIMTMOVE
 70
     0
  9
$LUNITS
 70
     2
  9
$LUPREC
 70
     4
  9
$SKETCHINC
 40
0.1
  9
$FILLETRAD
 40
0.0
  9
$AUNITS
 70
     0
  9
$AUPREC
 70
     0
  9
$MENU
  1
acad
  9
$ELEVATION
 40
0.0
  9
$PELEVATION
 40
0.0
  9
$THICKNESS
 40
0.0
  9
$LIMCHECK
 70
     0
  9
$CHAMFERA
 40
0.0
  9
$CHAMFERB
 40
0.0
  9
$CHAMFERC
 40
0.0
  9
$CHAMFERD
 40
0.0
  9
$SKPOLY
 70
     0
  9
$TDCREATE
 40
0.000000000
  9
$TDUCREATE
 40
0.000000000
  9
$TDUPDATE
 40
0.000000000
  9
$TDUUPDATE
 40
0.000000000
  9
$TDINDWG
 40
0.0000000000
  9
$TDUSRTIMER
 40
0.0000000000
  9
$USRTIMER
 70
     1
  9
$ANGBASE
 50
0.0
  9
$ANGDIR
 70
     0
  9
$PDMODE
 70
     0
  9
$PDSIZE
 40
0.0
  9
$PLINEWID
 40
0.0
  9
$SPLFRAME
 70
     0
  9
$SPLINETYPE
 70
     6
  9
$SPLINESEGS
 70
     8
  9
$HANDSEED
  5
DA
  9
$SURFTAB1
 70
     6
  9
$SURFTAB2
 70
     6
  9
$SURFTYPE
 70
     6
  9
$SURFU
 70
     6
  9
$SURFV
 70
     6
  9
$UCSBASE
  2

  9
$UCSNAME
  2

  9
$UCSORG
 10
0.0
 20
0.0
 30
0.0
  9
$UCSXDIR
 10
1.0
 20
0.0
 30
0.0
  9
$UCSYDIR
 10
0.0
 20
1.0
 30
0.0
  9
$UCSORTHOREF
  2

  9
$UCSORTHOVIEW
 70
     0
  9
$UCSORGTOP
 10
0.0
 20
0.0
 30
0.0
  9
$UCSORGBOTTOM
 10
0.0
 20
0.0
 30
0.0
  9
$UCSORGLEFT
 10
0.0
 20
0.0
 30
0.0
  9
$UCSORGRIGHT
 10
0.0
 20
0.0
 30
0.0
  9
$UCSORGFRONT
 10
0.0
 20
0.0
 30
0.0
  9
$UCSORGBACK
 10
0.0
 20
0.0
 30
0.0
  9
$PUCSBASE
  2

  9
$PUCSNAME
  2

  9
$PUCSORG
 10
0.0
 20
0.0
 30
0.0
  9
$PUCSXDIR
 10
1.0
 20
0.0
 30
0.0
  9
$PUCSYDIR
 10
0.0
 20
1.0
 30
0.0
  9
$PUCSORTHOREF
  2

  9
$PUCSORTHOVIEW
 70
     0
  9
$PUCSORGTOP
 10
0.0
 20
0.0
 30
0.0
  9
$PUCSORGBOTTOM
 10
0.0
 20
0.0
 30
0.0
  9
$PUCSORGLEFT
 10
0.0
 20
0.0
 30
0.0
  9
$PUCSORGRIGHT
 10
0.0
 20
0.0
 30
0.0
  9
$PUCSORGFRONT
 10
0.0
 20
0.0
 30
0.0
  9
$PUCSORGBACK
 10
0.0
 20
0.0
 30
0.0
  9
$USERI1
 70
     0
  9
$USERI2
 70
     0
  9
$USERI3
 70
     0
  9
$USERI4
 70
     0
  9
$USERI5
 70
     0
  9
$USERR1
 40
0.0
  9
$USERR2
 40
0.0
  9
$USERR3
 40
0.0
  9
$USERR4
 40
0.0
  9
$USERR5
 40
0.0
  9
$WORLDVIEW
 70
     1
  9
$SHADEDGE
 70
     3
  9
$SHADEDIF
 70
    70
  9
$TILEMODE
 70
     1
  9
$MAXACTVP
 70
    16
  9
$PINSBASE
 10
0.0
 20
0.0
 30
0.0
  9
$PLIMCHECK
 70
     0
  9
$PEXTMIN
 10
1.000000E+20
 20
1.000000E+20
 30
1.000000E+20
  9
$PEXTMAX
 10
-1.000000E+20
 20
-1.000000E+20
 30
-1.000000E+20
  9
$PLIMMIN
 10
0.0
 20
0.0
  9
$PLIMMAX
 10
12.0
 20
9.0
  9
$UNITMODE
 70
     0
  9
$VISRETAIN
 70
     0
  9
$PLINEGEN
 70
     1
  9
$PSLTSCALE
 70
     0
  9
$TREEDEPTH
 70
  3020
  9
$CMLSTYLE
  2
Standard
  9
$CMLJUST
 70
     0
  9
$CMLSCALE
 40
1.0
  9
$PROXYGRAPHICS
 70
     0
  9
$MEASUREMENT
 70
     0
  9
$CELWEIGHT
370
     0
  9
$ENDCAPS
280
     0
  9
$JOINSTYLE
280
     0
  9
$LWDISPLAY
290
     0
  9
$INSUNITS
 70
     1
  9
$HYPERLINKBASE
  1

  9
$XEDIT
290
     1
  9
$CEPSNTYPE
380
     0
  9
$PSTYLEMODE
290
     1
  9
$FINGERPRINTGUID
  2

  9
$VERSIONGUID
  2

  9
$EXTNAMES
290
     1
  9
$PSVPSCALE
 40
0.0
  0
ENDSEC
  0
SECTION
  2
CLASSES
  0
CLASS
  1
LWPOLYLINE
  2
AcDbPolyline
  3
AutoCAD 2000
 90
    32768
280
     0
281
     1
  0
CLASS
  1
IMAGE
  2
AcDbRasterImage
  3
ISM
 90
    32895
280
     0
281
     1
  0
CLASS
  1
OLE2FRAME
  2
AcDbOle2Frame
  3
AutoCAD 2000
 90
    32768
280
     0
281
     1
  0
CLASS
  1
HATCH
  2
AcDbHatch
  3
AutoCAD 2000
 90
    32768
280
     0
281
     1
  0
CLASS
  1
DICTIONARYVAR
  2
AcDbDictionaryVar
  3
AutoCAD 2000
 90
    32768
280
     0
281
     0
  0
CLASS
  1
RASTERVARIABLES
  2
AcDbRasterVariables
  3
ISM
 90
    32768
280
     0
281
     0
  0
CLASS
  1
IMAGEDEF
  2
AcDbRasterImageDef
  3
ISM
 90
    32768
280
     0
281
     0
  0
CLASS
  1
IMAGEDEF_REACTOR
  2
AcDbRasterImageDefReactor
  3
ISM
 90
    32769
280
     0
281
     0
  0
CLASS
  1
IDBUFFER
  2
AcDbIdBuffer
  3
AutoCAD 2000
 90
    32768
280
     0
281
     0
  0
CLASS
  1
SPATIAL_FILTER
  2
AcDbSpatialFilter
  3
AutoCAD 2000
 90
    32768
280
     0
281
     0
  0
CLASS
  1
XRECORD
  2
AcDbXrecord
  3
AutoCAD 2000
 90
    32768
280
     0
281
     0
  0
CLASS
  1
SORTENTSTABLE
  2
AcDbSortentsTable
  3
AutoCAD 2000
 90
    32768
280
     0
281
     0
  0
CLASS
  1
LAYER_INDEX
  2
AcDbLayerIndex
  3
AutoCAD 2000
 90
    32768
280
     0
281
     0
  0
CLASS
  1
SPATIAL_INDEX
  2
AcDbSpatialIndex
  3
AutoCAD 2000
 90
    32768
280
     0
281
     0
  0
CLASS
  1
OBJECT_PTR
  2
CAseDLPNTableRecord
  3
"ASE-LPNTableRecord"
 90
    32769
280
     0
281
     0
  0
CLASS
  1
LAYOUT
  2
AcDbLayout
  3
AutoCAD 2000
 90
        0
280
     0
281
     0
  0
CLASS
  1
PLOTSETTINGS
  2
AcDbPlotSettings
  3
AutoCAD 2000
 90
    32768
280
     0
281
     0
  0
CLASS
  1
ACDBDICTIONARYWDFLT
  2
AcDbDictionaryWithDefault
  3
AutoCAD 2000
 90
        0
280
     0
281
     0
  0
CLASS
  1
ACDBPLACEHOLDER
  2
AcDbPlaceHolder
  3
AutoCAD 2000
 90
        0
280
     0
281
     0
  0
CLASS
  1
VBA_PROJECT
  2
AcDbVbaProject
  3
acadvba
 90
    32768
280
     0
281
     0
  0
CLASS
  1
WIPEOUT
  2
AcDbWipeout
  3
WipeOut|AutoCAD Express Tool|expresstools@autodesk.com
 90
    32895
280
     0
281
     1
  0
CLASS
  1
WIPEOUTVARIABLES
  2
AcDbWipeoutVariables
  3
WipeOut|AutoCAD Express Tool|expresstools@autodesk.com
 90
        0
280
     0
281
     0
  0
CLASS
  1
RTEXT
  2
RText
  3
RText|AutoCAD Express Tool|expresstools@autodesk.com
 90
    32768
280
     0
281
     1
  0
CLASS
  1
ARCALIGNEDTEXT
  2
AcDbArcAlignedText
  3
ATEXT|AutoCAD Express Tool|expresstools@autodesk.com
 90
    32768
280
     0
281
     1
  0
ENDSEC
  0
SECTION
  2
TABLES
  0
TABLE
  2
VPORT
  5
7
100
AcDbSymbolTable
 70
     1
  0
VPORT
  5
15
100
AcDbSymbolTableRecord
100
AcDbViewportTableRecord
  2
*ACTIVE
 70
     0
 10
0.0
 20
0.0
 11
1.0
 21
1.0
 12
6.591288
 22
4.579184
 13
0.0
 23
0.0
 14
1.0
 24
1.0
 15
0.0
 25
0.0
 16
0.0
 26
0.0
 36
1.0
 17
0.0
 27
0.0
 37
0.0
 40
9.158369
 41
0.688564
 42
50.0
 43
0.0
 44
0.0
 50
0.0
 51
0.0
 71
     0
 72
   100
 73
     1
 74
     1
 75
     0
 76
     0
 77
     0
 78
     0
281
     0
 65
     0
110
0.0
120
0.0
130
0.0
111
1.0
121
0.0
131
0.0
112
0.0
122
1.0
132
0.0
345
0
346
0
 79
     0
146
0.0
  0
ENDTAB
  0
TABLE
  2
LTYPE
  5
4
100
AcDbSymbolTable
 70
     3
  0
LTYPE
  5
11
100
AcDbSymbolTableRecord
100
AcDbLinetypeTableRecord
  2
ByBlock
 70
    64
  3

 72
    65
 73
     0
 40
0.0
  0
LTYPE
  5
12
100
AcDbSymbolTableRecord
100
AcDbLinetypeTableRecord
  2
ByLayer
 70
    64
  3

 72
    65
 73
     0
 40
0.0
  0
LTYPE
  5
13
100
AcDbSymbolTableRecord
100
AcDbLinetypeTableRecord
  2
Continuous
 70
    64
  3
Solid line
 72
    65
 73
     0
 40
0.0
  0
ENDTAB
  0
TABLE
  2
LAYER
  5
2
100
AcDbSymbolTable
 70
     2
  0
LAYER
  5
14
100
AcDbSymbolTableRecord
100
AcDbLayerTableRecord
  2
0
 70
     0
 62
     7
  6
Continuous
290
     1
370
    -3
390
1D
  0
LAYER
  5
24
100
AcDbSymbolTableRecord
100
AcDbLayerTableRecord
  2
Layer 1
 70
     0
 62
     7
  6
Continuous
290
     1
370
    -3
390
1F
  0
ENDTAB
  0
TABLE
  2
STYLE
  5
3
100
AcDbSymbolTable
 70
     2
  0
STYLE
  5
17
100
AcDbSymbolTableRecord
100
AcDbTextStyleTableRecord
  2
Standard
 70
     0
 40
0.0
 41
1.0
 50
0.0
 71
     0
 42
0.0
  3
txt
  4

  0
STYLE
  5
26
100
AcDbSymbolTableRecord
100
AcDbTextStyleTableRecord
  2
Bookman Old Style
 70
     0
 40
1.0
 41
1.0
 50
0.0
 71
     0
 42
1.0
  3
Bookman Old Style
  4

  0
ENDTAB
  0
TABLE
  2
VIEW
  5
5
100
AcDbSymbolTable
 70
     0
  0
ENDTAB
  0
TABLE
  2
UCS
  5
6
100
AcDbSymbolTable
 70
     0
  0
ENDTAB
  0
TABLE
  2
APPID
  5
8
100
AcDbSymbolTable
 70
     1
  0
APPID
  5
16
100
AcDbSymbolTableRecord
100
AcDbRegAppTableRecord
  2
ACAD
 70
     0
  0
ENDTAB
  0
TABLE
  2
DIMSTYLE
  5
9
100
AcDbSymbolTable
 70
     1
100
AcDbDimStyleTable
 71
     0
  0
DIMSTYLE
105
18
100
AcDbSymbolTableRecord
100
AcDbDimStyleTableRecord
  2
Standard
 70
     0
  3

  4

 40
1.0
 41
0.18
 42
0.0625
 43
0.38
 44
0.18
 45
0.0
 46
0.0
 47
0.0
 48
0.0
 71
     0
 72
     0
 73
     1
 74
     1
 75
     0
 76
     0
 77
     0
 78
     0
 79
     0
140
0.18
141
0.09
142
0.0
143
25.4
144
1.0
145
0.0
146
1.0
147
0.09
148
0.0
170
     0
171
     2
172
     0
173
     0
174
     0
175
     0
176
     0
177
     0
178
     0
179
     0
271
     4
272
     4
273
     2
274
     2
275
     0
276
     0
277
     2
278
    46
279
     0
280
     0
281
     0
282
     0
283
     1
284
     0
285
     0
286
     0
288
     0
340
17
341
0
342
0
343
0
344
0
371
    -2
372
    -2
  0
ENDTAB
  0
TABLE
  2
BLOCK_RECORD
  5
1
100
AcDbSymbolTable
 70
     0
  0
BLOCK_RECORD
  5
A
100
AcDbSymbolTableRecord
100
AcDbBlockTableRecord
  2
*MODEL_SPACE
340
20
  0
BLOCK_RECORD
  5
B
100
AcDbSymbolTableRecord
100
AcDbBlockTableRecord
  2
*PAPER_SPACE
340
21
  0
ENDTAB
  0
ENDSEC
  0
SECTION
  2
BLOCKS
  0
BLOCK
  5
D
100
AcDbEntity
  8
0
100
AcDbBlockBegin
  2
*MODEL_SPACE
 70
     0
 10
0.0
 20
0.0
 30
0.0
  3
*MODEL_SPACE
  1

  0
ENDBLK
  5
E
100
AcDbEntity
  8
0
100
AcDbBlockEnd
  0
BLOCK
  5
F
100
AcDbEntity
 67
     1
  8
0
100
AcDbBlockBegin
  2
*PAPER_SPACE
 70
     0
 10
0.0
 20
0.0
 30
0.0
  3
*PAPER_SPACE
  1

  0
ENDBLK
  5
10
100
AcDbEntity
 67
     1
  8
0
100
AcDbBlockEnd
  0
ENDSEC
  0
SECTION
  2
ENTITIES
  0
SPLINE
  5
25
100
AcDbEntity
  8
Layer 1
370
     5
100
AcDbSpline
210
0.0
220
0.0
230
1.0
 70
     1
 71
     3
 72
    40
 73
    36
 74
     0
 42
0.0000000001
 43
0.0000000001
 40
0.0
 40
0.0
 40
0.0
 40
0.0
 40
0.1111111111111111
 40
0.1111111111111111
 40
0.1111111111111111
 40
0.1111111111111111
 40
0.2222222222222222
 40
0.2222222222222222
 40
0.2222222222222222
 40
0.2222222222222222
 40
0.3333333333333333
 40
0.3333333333333333
 40
0.3333333333333333
 40
0.3333333333333333
 40
0.4444444444444444
 40
0.4444444444444444
 40
0.4444444444444444
 40
0.4444444444444444
 40
0.5555555555555556
 40
0.5555555555555556
 40
0.5555555555555556
 40
0.5555555555555556
 40
0.6666666666666667
 40
0.6666666666666667
 40
0.6666666666666667
 40
0.6666666666666667
 40
0.7777777777777779
 40
0.7777777777777779
 40
0.7777777777777779
 40
0.7777777777777779
 40
0.8888888888888891
 40
0.8888888888888891
 40
0.8888888888888891
 40
0.8888888888888891
 40
1.0
 40
1.0
 40
1.0
 40
1.0
 10
-1.1854566929133858
 20
3.2672716535433071
 30
0.0
 10
-1.1854566929133858
 20
3.2672716535433071
 30
0.0
 10
-0.9015196850393701
 20
3.5965275590551182
 30
0.0
 10
-0.9015196850393701
 20
3.5965275590551182
 30
0.0
 10
-0.9015196850393701
 20
3.5965275590551182
 30
0.0
 10
-0.5760590551181103
 20
3.4175078740157483
 30
0.0
 10
-0.3037165354330709
 20
3.4254409448818901
 30
0.0
 10
-0.0201023622047244
 20
3.6114881889763781
 30
0.0
 10
-0.0201023622047244
 20
3.6114881889763781
 30
0.0
 10
-0.0201023622047244
 20
3.6114881889763781
 30
0.0
 10
0.0711062992125984
 20
3.4982480314960633
 30
0.0
 10
0.0711062992125984
 20
3.4982480314960633
 30
0.0
 10
0.0711062992125984
 20
3.4982480314960633
 30
0.0
 10
0.2567834645669291
 20
3.6334685039370078
 30
0.0
 10
0.4465708661417323
 20
3.5751496062992127
 30
0.0
 10
0.5153425196850394
 20
3.5032401574803149
 30
0.0
 10
0.5153425196850394
 20
3.5032401574803149
 30
0.0
 10
0.5153425196850394
 20
3.5032401574803149
 30
0.0
 10
0.7308937007874016
 20
3.6629291338582677
 30
0.0
 10
0.7308937007874016
 20
3.6629291338582677
 30
0.0
 10
0.7308937007874016
 20
3.6629291338582677
 30
0.0
 10
0.7308937007874016
 20
3.6629291338582677
 30
0.0
 10
0.8581338582677166
 20
3.5203818897637795
 30
0.0
 10
0.8581338582677166
 20
3.5203818897637795
 30
0.0
 10
0.8581338582677166
 20
3.5203818897637795
 30
0.0
 10
1.4071338582677166
 20
3.7205511811023624
 30
0.0
 10
1.8714251968503939
 20
3.3248818897637795
 30
0.0
 10
1.8638070866141734
 20
2.807531496062992
 30
0.0
 10
1.8638070866141734
 20
2.807531496062992
 30
0.0
 10
1.8638070866141734
 20
2.807531496062992
 30
0.0
 10
-0.7971574803149607
 20
2.807531496062992
 30
0.0
 10
-0.7971574803149607
 20
2.807531496062992
 30
0.0
 10
-0.7971574803149607
 20
2.807531496062992
 30
0.0
 10
-0.7971574803149607
 20
2.807531496062992
 30
0.0
 10
-1.1854566929133858
 20
3.2672716535433071
 30
0.0
 10
-1.1854566929133858
 20
3.2672716535433071
 30
0.0
  0
TEXT
  5
27
100
AcDbEntity
  8
Layer 1
100
AcDbText
 10
0.154016
 20
2.508965
 30
0.0
 40
0.119999
  1
BA  1545
 51
-0.000002
  7
Bookman Old Style
100
AcDbText
  0
TEXT
  5
28
100
AcDbEntity
  8
Layer 1
100
AcDbText
 10
-0.077677
 20
2.321465
 30
0.0
 40
0.119999
  1
7/8\u+201d x 3-1/16\u+201d
 51
-0.000002
  7
Bookman Old Style
100
AcDbText
  0
SPLINE
  5
29
100
AcDbEntity
  8
Layer 1
 62
   253
100
AcDbSpline
210
0.0
220
0.0
230
1.0
 70
     1
 71
     3
 72
    20
 73
    16
 74
     0
 42
0.0000000001
 43
0.0000000001
 40
0.0
 40
0.0
 40
0.0
 40
0.0
 40
0.25
 40
0.25
 40
0.25
 40
0.25
 40
0.5
 40
0.5
 40
0.5
 40
0.5
 40
0.75
 40
0.75
 40
0.75
 40
0.75
 40
1.0
 40
1.0
 40
1.0
 40
1.0
 10
-0.9324330708661418
 20
-0.7155866141732283
 30
0.0
 10
-0.9324330708661418
 20
-0.7155866141732283
 30
0.0
 10
-0.2876811023622047
 20
-1.0962047244094488
 30
0.0
 10
-0.2876811023622047
 20
-1.0962047244094488
 30
0.0
 10
-0.2876811023622047
 20
-1.0962047244094488
 30
0.0
 10
-0.2876811023622047
 20
-1.0962047244094488
 30
0.0
 10
0.1410196850393701
 20
-1.1686259842519686
 30
0.0
 10
0.1410196850393701
 20
-1.1686259842519686
 30
0.0
 10
0.1410196850393701
 20
-1.1686259842519686
 30
0.0
 10
0.1410196850393701
 20
-1.1686259842519686
 30
0.0
 10
-0.503732283464567
 20
-0.788007874015748
 30
0.0
 10
-0.503732283464567
 20
-0.788007874015748
 30
0.0
 10
-0.503732283464567
 20
-0.788007874015748
 30
0.0
 10
-0.503732283464567
 20
-0.788007874015748
 30
0.0
 10
-0.9324330708661418
 20
-0.7155866141732283
 30
0.0
 10
-0.9324330708661418
 20
-0.7155866141732283
 30
0.0
  0
SPLINE
  5
2A
100
AcDbEntity
  8
Layer 1
370
     5
100
AcDbSpline
210
0.0
220
0.0
230
1.0
 70
     1
 71
     3
 72
    20
 73
    16
 74
     0
 42
0.0000000001
 43
0.0000000001
 40
0.0
 40
0.0
 40
0.0
 40
0.0
 40
0.25
 40
0.25
 40
0.25
 40
0.25
 40
0.5
 40
0.5
 40
0.5
 40
0.5
 40
0.75
 40
0.75
 40
0.75
 40
0.75
 40
1.0
 40
1.0
 40
1.0
 40
1.0
 10
-0.9324330708661418
 20
-0.7155866141732283
 30
0.0
 10
-0.9324330708661418
 20
-0.7155866141732283
 30
0.0
 10
-0.2876811023622047
 20
-1.0962047244094488
 30
0.0
 10
-0.2876811023622047
 20
-1.0962047244094488
 30
0.0
 10
-0.2876811023622047
 20
-1.0962047244094488
 30
0.0
 10
-0.2876811023622047
 20
-1.0962047244094488
 30
0.0
 10
0.1410196850393701
 20
-1.1686259842519686
 30
0.0
 10
0.1410196850393701
 20
-1.1686259842519686
 30
0.0
 10
0.1410196850393701
 20
-1.1686259842519686
 30
0.0
 10
0.1410196850393701
 20
-1.1686259842519686
 30
0.0
 10
-0.503732283464567
 20
-0.788007874015748
 30
0.0
 10
-0.503732283464567
 20
-0.788007874015748
 30
0.0
 10
-0.503732283464567
 20
-0.788007874015748
 30
0.0
 10
-0.503732283464567
 20
-0.788007874015748
 30
0.0
 10
-0.9324330708661418
 20
-0.7155866141732283
 30
0.0
 10
-0.9324330708661418
 20
-0.7155866141732283
 30
0.0
  0
SPLINE
  5
2B
100
AcDbEntity
  8
Layer 1
 62
     9
100
AcDbSpline
210
0.0
220
0.0
230
1.0
 70
     1
 71
     3
 72
    20
 73
    16
 74
     0
 42
0.0000000001
 43
0.0000000001
 40
0.0
 40
0.0
 40
0.0
 40
0.0
 40
0.25
 40
0.25
 40
0.25
 40
0.25
 40
0.5
 40
0.5
 40
0.5
 40
0.5
 40
0.75
 40
0.75
 40
0.75
 40
0.75
 40
1.0
 40
1.0
 40
1.0
 40
1.0
 10
-0.503732283464567
 20
-0.788007874015748
 30
0.0
 10
-0.503732283464567
 20
-0.788007874015748
 30
0.0
 10
0.1410196850393701
 20
-1.1686259842519686
 30
0.0
 10
0.1410196850393701
 20
-1.1686259842519686
 30
0.0
 10
0.1410196850393701
 20
-1.1686259842519686
 30
0.0
 10
0.1410196850393701
 20
-1.1686259842519686
 30
0.0
 10
0.1540472440944882
 20
-1.136748031496063
 30
0.0
 10
0.1540472440944882
 20
-1.136748031496063
 30
0.0
 10
0.1540472440944882
 20
-1.136748031496063
 30
0.0
 10
0.1540472440944882
 20
-1.136748031496063
 30
0.0
 10
-0.4907047244094488
 20
-0.7561299212598426
 30
0.0
 10
-0.4907047244094488
 20
-0.7561299212598426
 30
0.0
 10
-0.4907047244094488
 20
-0.7561299212598426
 30
0.0
 10
-0.4907047244094488
 20
-0.7561299212598426
 30
0.0
 10
-0.503732283464567
 20
-0.788007874015748
 30
0.0
 10
-0.503732283464567
 20
-0.788007874015748
 30
0.0
  0
SPLINE
  5
2C
100
AcDbEntity
  8
Layer 1
 62
     9
100
AcDbSpline
210
0.0
220
0.0
230
1.0
 70
     1
 71
     3
 72
    20
 73
    16
 74
     0
 42
0.0000000001
 43
0.0000000001
 40
0.0
 40
0.0
 40
0.0
 40
0.0
 40
0.25
 40
0.25
 40
0.25
 40
0.25
 40
0.5
 40
0.5
 40
0.5
 40
0.5
 40
0.75
 40
0.75
 40
0.75
 40
0.75
 40
1.0
 40
1.0
 40
1.0
 40
1.0
 10
-0.4907047244094488
 20
-0.7561299212598426
 30
0.0
 10
-0.4907047244094488
 20
-0.7561299212598426
 30
0.0
 10
0.1540472440944882
 20
-1.136748031496063
 30
0.0
 10
0.1540472440944882
 20
-1.136748031496063
 30
0.0
 10
0.1540472440944882
 20
-1.136748031496063
 30
0.0
 10
0.1540472440944882
 20
-1.136748031496063
 30
0.0
 10
0.1675354330708662
 20
-1.1059133858267718
 30
0.0
 10
0.1675354330708662
 20
-1.1059133858267718
 30
0.0
 10
0.1675354330708662
 20
-1.1059133858267718
 30
0.0
 10
0.1675354330708662
 20
-1.1059133858267718
 30
0.0
 10
-0.4772165354330709
 20
-0.7252952755905512
 30
0.0
 10
-0.4772165354330709
 20
-0.7252952755905512
 30
0.0
 10
-0.4772165354330709
 20
-0.7252952755905512
 30
0.0
 10
-0.4772165354330709
 20
-0.7252952755905512
 30
0.0
 10
-0.4907047244094488
 20
-0.7561299212598426
 30
0.0
 10
-0.4907047244094488
 20
-0.7561299212598426
 30
0.0
  0
SPLINE
  5
2D
100
AcDbEntity
  8
Layer 1
 62
     9
100
AcDbSpline
210
0.0
220
0.0
230
1.0
 70
     1
 71
     3
 72
    20
 73
    16
 74
     0
 42
0.0000000001
 43
0.0000000001
 40
0.0
 40
0.0
 40
0.0
 40
0.0
 40
0.25
 40
0.25
 40
0.25
 40
0.25
 40
0.5
 40
0.5
 40
0.5
 40
0.5
 40
0.75
 40
0.75
 40
0.75
 40
0.75
 40
1.0
 40
1.0
 40
1.0
 40
1.0
 10
-0.4772165354330709
 20
-0.7252952755905512
 30
0.0
 10
-0.4772165354330709
 20
-0.7252952755905512
 30
0.0
 10
0.1675354330708662
 20
-1.1059133858267718
 30
0.0
 10
0.1675354330708662
 20
-1.1059133858267718
 30
0.0
 10
0.1675354330708662
 20
-1.1059133858267718
 30
0.0
 10
0.1675354330708662
 20
-1.1059133858267718
 30
0.0
 10
0.1815
 20
-1.0760984251968504
 30
0.0
 10
0.1815
 20
-1.0760984251968504
 30
0.0
 10
0.1815
 20
-1.0760984251968504
 30
0.0
 10
0.1815
 20
-1.0760984251968504
 30
0.0
 10
-0.463251968503937
 20
-0.6954803149606299
 30
0.0
 10
-0.463251968503937
 20
-0.6954803149606299
 30
0.0
 10
-0.463251968503937
 20
-0.6954803149606299
 30
0.0
 10
-0.463251968503937
 20
-0.6954803149606299
 30
0.0
 10
-0.4772165354330709
 20
-0.7252952755905512
 30
0.0
 10
-0.4772165354330709
 20
-0.7252952755905512
 30
0.0
  0
SPLINE
  5
2E
100
AcDbEntity
  8
Layer 1
 62
     9
100
AcDbSpline
210
0.0
220
0.0
230
1.0
 70
     1
 71
     3
 72
    20
 73
    16
 74
     0
 42
0.0000000001
 43
0.0000000001
 40
0.0
 40
0.0
 40
0.0
 40
0.0
 40
0.25
 40
0.25
 40
0.25
 40
0.25
 40
0.5
 40
0.5
 40
0.5
 40
0.5
 40
0.75
 40
0.75
 40
0.75
 40
0.75
 40
1.0
 40
1.0
 40
1.0
 40
1.0
 10
-0.463251968503937
 20
-0.6954803149606299
 30
0.0
 10
-0.463251968503937
 20
-0.6954803149606299
 30
0.0
 10
0.1815
 20
-1.0760984251968504
 30
0.0
 10
0.1815
 20
-1.0760984251968504
 30
0.0
 10
0.1815
 20
-1.0760984251968504
 30
0.0
 10
0.1815
 20
-1.0760984251968504
 30
0.0
 10
0.1959448818897638
 20
-1.0473070866141734
 30
0.0
 10
0.1959448818897638
 20
-1.0473070866141734
 30
0.0
 10
0.1959448818897638
 20
-1.0473070866141734
 30
0.0
 10
0.1959448818897638
 20
-1.0473070866141734
 30
0.0
 10
-0.4488070866141732
 20
-0.6666889763779528
 30
0.0
 10
-0.4488070866141732
 20
-0.6666889763779528
 30
0.0
 10
-0.4488070866141732
 20
-0.6666889763779528
 30
0.0
 10
-0.4488070866141732
 20
-0.6666889763779528
 30
0.0
 10
-0.463251968503937
 20
-0.6954803149606299
 30
0.0
 10
-0.463251968503937
 20
-0.6954803149606299
 30
0.0
  0
SPLINE
  5
2F
100
AcDbEntity
  8
Layer 1
 62
     9
100
AcDbSpline
210
0.0
220
0.0
230
1.0
 70
     1
 71
     3
 72
    20
 73
    16
 74
     0
 42
0.0000000001
 43
0.0000000001
 40
0.0
 40
0.0
 40
0.0
 40
0.0
 40
0.25
 40
0.25
 40
0.25
 40
0.25
 40
0.5
 40
0.5
 40
0.5
 40
0.5
 40
0.75
 40
0.75
 40
0.75
 40
0.75
 40
1.0
 40
1.0
 40
1.0
 40
1.0
 10
-0.4488070866141732
 20
-0.6666889763779528
 30
0.0
 10
-0.4488070866141732
 20
-0.6666889763779528
 30
0.0
 10
0.1959448818897638
 20
-1.0473070866141734
 30
0.0
 10
0.1959448818897638
 20
-1.0473070866141734
 30
0.0
 10
0.1959448818897638
 20
-1.0473070866141734
 30
0.0
 10
0.1959448818897638
 20
-1.0473070866141734
 30
0.0
 10
0.2108858267716536
 20
-1.0195118110236221
 30
0.0
 10
0.2108858267716536
 20
-1.0195118110236221
 30
0.0
 10
0.2108858267716536
 20
-1.0195118110236221
 30
0.0
 10
0.2108858267716536
 20
-1.0195118110236221
 30
0.0
 10
-0.4338661417322835
 20
-0.6388937007874016
 30
0.0
 10
-0.4338661417322835
 20
-0.6388937007874016
 30
0.0
 10
-0.4338661417322835
 20
-0.6388937007874016
 30
0.0
 10
-0.4338661417322835
 20
-0.6388937007874016
 30
0.0
 10
-0.4488070866141732
 20
-0.6666889763779528
 30
0.0
 10
-0.4488070866141732
 20
-0.6666889763779528
 30
0.0
  0
SPLINE
  5
30
100
AcDbEntity
  8
Layer 1
 62
     9
100
AcDbSpline
210
0.0
220
0.0
230
1.0
 70
     1
 71
     3
 72
    20
 73
    16
 74
     0
 42
0.0000000001
 43
0.0000000001
 40
0.0
 40
0.0
 40
0.0
 40
0.0
 40
0.25
 40
0.25
 40
0.25
 40
0.25
 40
0.5
 40
0.5
 40
0.5
 40
0.5
 40
0.75
 40
0.75
 40
0.75
 40
0.75
 40
1.0
 40
1.0
 40
1.0
 40
1.0
 10
-0.4338661417322835
 20
-0.6388937007874016
 30
0.0
 10
-0.4338661417322835
 20
-0.6388937007874016
 30
0.0
 10
0.2108858267716536
 20
-1.0195118110236221
 30
0.0
 10
0.2108858267716536
 20
-1.0195118110236221
 30
0.0
 10
0.2108858267716536
 20
-1.0195118110236221
 30
0.0
 10
0.2108858267716536
 20
-1.0195118110236221
 30
0.0
 10
0.2263228346456693
 20
-0.9927244094488189
 30
0.0
 10
0.2263228346456693
 20
-0.9927244094488189
 30
0.0
 10
0.2263228346456693
 20
-0.9927244094488189
 30
0.0
 10
0.2263228346456693
 20
-0.9927244094488189
 30
0.0
 10
-0.4184291338582677
 20
-0.6121062992125984
 30
0.0
 10
-0.4184291338582677
 20
-0.6121062992125984
 30
0.0
 10
-0.4184291338582677
 20
-0.6121062992125984
 30
0.0
 10
-0.4184291338582677
 20
-0.6121062992125984
 30
0.0
 10
-0.4338661417322835
 20
-0.6388937007874016
 30
0.0
 10
-0.4338661417322835
 20
-0.6388937007874016
 30
0.0
  0
SPLINE
  5
31
100
AcDbEntity
  8
Layer 1
 62
     9
100
AcDbSpline
210
0.0
220
0.0
230
1.0
 70
     1
 71
     3
 72
    20
 73
    16
 74
     0
 42
0.0000000001
 43
0.0000000001
 40
0.0
 40
0.0
 40
0.0
 40
0.0
 40
0.25
 40
0.25
 40
0.25
 40
0.25
 40
0.5
 40
0.5
 40
0.5
 40
0.5
 40
0.75
 40
0.75
 40
0.75
 40
0.75
 40
1.0
 40
1.0
 40
1.0
 40
1.0
 10
-0.4184291338582677
 20
-0.6121062992125984
 30
0.0
 10
-0.4184291338582677
 20
-0.6121062992125984
 30
0.0
 10
0.2263228346456693
 20
-0.9927244094488189
 30
0.0
 10
0.2263228346456693
 20
-0.9927244094488189
 30
0.0
 10
0.2263228346456693
 20
-0.9927244094488189
 30
0.0
 10
0.2263228346456693
 20
-0.9927244094488189
 30
0.0
 10
0.2422677165354331
 20
-0.9669212598425198
 30
0.0
 10
0.2422677165354331
 20
-0.9669212598425198
 30
0.0
 10
0.2422677165354331
 20
-0.9669212598425198
 30
0.0
 10
0.2422677165354331
 20
-0.9669212598425198
 30
0.0
 10
-0.402484251968504
 20
-0.5863031496062993
 30
0.0
 10
-0.402484251968504
 20
-0.5863031496062993
 30
0.0
 10
-0.402484251968504
 20
-0.5863031496062993
 30
0.0
 10
-0.402484251968504
 20
-0.5863031496062993
 30
0.0
 10
-0.4184291338582677
 20
-0.6121062992125984
 30
0.0
 10
-0.4184291338582677
 20
-0.6121062992125984
 30
0.0
  0
SPLINE
  5
32
100
AcDbEntity
  8
Layer 1
 62
     9
100
AcDbSpline
210
0.0
220
0.0
230
1.0
 70
     1
 71
     3
 72
    20
 73
    16
 74
     0
 42
0.0000000001
 43
0.0000000001
 40
0.0
 40
0.0
 40
0.0
 40
0.0
 40
0.25
 40
0.25
 40
0.25
 40
0.25
 40
0.5
 40
0.5
 40
0.5
 40
0.5
 40
0.75
 40
0.75
 40
0.75
 40
0.75
 40
1.0
 40
1.0
 40
1.0
 40
1.0
 10
-0.402484251968504
 20
-0.5863031496062993
 30
0.0
 10
-0.402484251968504
 20
-0.5863031496062993
 30
0.0
 10
0.2422677165354331
 20
-0.9669212598425198
 30
0.0
 10
0.2422677165354331
 20
-0.9669212598425198
 30
0.0
 10
0.2422677165354331
 20
-0.9669212598425198
 30
0.0
 10
0.2422677165354331
 20
-0.9669212598425198
 30
0.0
 10
0.2587244094488189
 20
-0.9421062992125985
 30
0.0
 10
0.2587244094488189
 20
-0.9421062992125985
 30
0.0
 10
0.2587244094488189
 20
-0.9421062992125985
 30
0.0
 10
0.2587244094488189
 20
-0.9421062992125985
 30
0.0
 10
-0.3860275590551182
 20
-0.561488188976378
 30
0.0
 10
-0.3860275590551182
 20
-0.561488188976378
 30
0.0
 10
-0.3860275590551182
 20
-0.561488188976378
 30
0.0
 10
-0.3860275590551182
 20
-0.561488188976378
 30
0.0
 10
-0.402484251968504
 20
-0.5863031496062993
 30
0.0
 10
-0.402484251968504
 20
-0.5863031496062993
 30
0.0
  0
SPLINE
  5
33
100
AcDbEntity
  8
Layer 1
 62
     9
100
AcDbSpline
210
0.0
220
0.0
230
1.0
 70
     1
 71
     3
 72
    20
 73
    16
 74
     0
 42
0.0000000001
 43
0.0000000001
 40
0.0
 40
0.0
 40
0.0
 40
0.0
 40
0.25
 40
0.25
 40
0.25
 40
0.25
 40
0.5
 40
0.5
 40
0.5
 40
0.5
 40
0.75
 40
0.75
 40
0.75
 40
0.75
 40
1.0
 40
1.0
 40
1.0
 40
1.0
 10
-0.3860275590551182
 20
-0.561488188976378
 30
0.0
 10
-0.3860275590551182
 20
-0.561488188976378
 30
0.0
 10
0.2587244094488189
 20
-0.9421062992125985
 30
0.0
 10
0.2587244094488189
 20
-0.9421062992125985
 30
0.0
 10
0.2587244094488189
 20
-0.9421062992125985
 30
0.0
 10
0.2587244094488189
 20
-0.9421062992125985
 30
0.0
 10
0.2757125984251969
 20
-0.9182519685039371
 30
0.0
 10
0.2757125984251969
 20
-0.9182519685039371
 30
0.0
 10
0.2757125984251969
 20
-0.9182519685039371
 30
0.0
 10
0.2757125984251969
 20
-0.9182519685039371
 30
0.0
 10
-0.3690393700787402
 20
-0.5376338582677166
 30
0.0
 10
-0.3690393700787402
 20
-0.5376338582677166
 30
0.0
 10
-0.3690393700787402
 20
-0.5376338582677166
 30
0.0
 10
-0.3690393700787402
 20
-0.5376338582677166
 30
0.0
 10
-0.3860275590551182
 20
-0.561488188976378
 30
0.0
 10
-0.3860275590551182
 20
-0.561488188976378
 30
0.0
  0
SPLINE
  5
34
100
AcDbEntity
  8
Layer 1
 62
     9
100
AcDbSpline
210
0.0
220
0.0
230
1.0
 70
     1
 71
     3
 72
    20
 73
    16
 74
     0
 42
0.0000000001
 43
0.0000000001
 40
0.0
 40
0.0
 40
0.0
 40
0.0
 40
0.25
 40
0.25
 40
0.25
 40
0.25
 40
0.5
 40
0.5
 40
0.5
 40
0.5
 40
0.75
 40
0.75
 40
0.75
 40
0.75
 40
1.0
 40
1.0
 40
1.0
 40
1.0
 10
-0.3690393700787402
 20
-0.5376338582677166
 30
0.0
 10
-0.3690393700787402
 20
-0.5376338582677166
 30
0.0
 10
0.2757125984251969
 20
-0.9182519685039371
 30
0.0
 10
0.2757125984251969
 20
-0.9182519685039371
 30
0.0
 10
0.2757125984251969
 20
-0.9182519685039371
 30
0.0
 10
0.2757125984251969
 20
-0.9182519685039371
 30
0.0
 10
0.2932283464566929
 20
-0.8953700787401575
 30
0.0
 10
0.2932283464566929
 20
-0.8953700787401575
 30
0.0
 10
0.2932283464566929
 20
-0.8953700787401575
 30
0.0
 10
0.2932283464566929
 20
-0.8953700787401575
 30
0.0
 10
-0.3515236220472441
 20
-0.514751968503937
 30
0.0
 10
-0.3515236220472441
 20
-0.514751968503937
 30
0.0
 10
-0.3515236220472441
 20
-0.514751968503937
 30
0.0
 10
-0.3515236220472441
 20
-0.514751968503937
 30
0.0
 10
-0.3690393700787402
 20
-0.5376338582677166
 30
0.0
 10
-0.3690393700787402
 20
-0.5376338582677166
 30
0.0
  0
SPLINE
  5
35
100
AcDbEntity
  8
Layer 1
 62
     9
100
AcDbSpline
210
0.0
220
0.0
230
1.0
 70
     1
 71
     3
 72
    20
 73
    16
 74
     0
 42
0.0000000001
 43
0.0000000001
 40
0.0
 40
0.0
 40
0.0
 40
0.0
 40
0.25
 40
0.25
 40
0.25
 40
0.25
 40
0.5
 40
0.5
 40
0.5
 40
0.5
 40
0.75
 40
0.75
 40
0.75
 40
0.75
 40
1.0
 40
1.0
 40
1.0
 40
1.0
 10
-0.3515236220472441
 20
-0.514751968503937
 30
0.0
 10
-0.3515236220472441
 20
-0.514751968503937
 30
0.0
 10
0.2932283464566929
 20
-0.8953700787401575
 30
0.0
 10
0.2932283464566929
 20
-0.8953700787401575
 30
0.0
 10
0.2932283464566929
 20
-0.8953700787401575
 30
0.0
 10
0.2932283464566929
 20
-0.8953700787401575
 30
0.0
 10
0.3112834645669291
 20
-0.8734370078740158
 30
0.0
 10
0.3112834645669291
 20
-0.8734370078740158
 30
0.0
 10
0.3112834645669291
 20
-0.8734370078740158
 30
0.0
 10
0.3112834645669291
 20
-0.8734370078740158
 30
0.0
 10
-0.3334685039370079
 20
-0.4928188976377953
 30
0.0
 10
-0.3334685039370079
 20
-0.4928188976377953
 30
0.0
 10
-0.3334685039370079
 20
-0.4928188976377953
 30
0.0
 10
-0.3334685039370079
 20
-0.4928188976377953
 30
0.0
 10
-0.3515236220472441
 20
-0.514751968503937
 30
0.0
 10
-0.3515236220472441
 20
-0.514751968503937
 30
0.0
  0
SPLINE
  5
36
100
AcDbEntity
  8
Layer 1
 62
     9
100
AcDbSpline
210
0.0
220
0.0
230
1.0
 70
     1
 71
     3
 72
    20
 73
    16
 74
     0
 42
0.0000000001
 43
0.0000000001
 40
0.0
 40
0.0
 40
0.0
 40
0.0
 40
0.25
 40
0.25
 40
0.25
 40
0.25
 40
0.5
 40
0.5
 40
0.5
 40
0.5
 40
0.75
 40
0.75
 40
0.75
 40
0.75
 40
1.0
 40
1.0
 40
1.0
 40
1.0
 10
-0.3334685039370079
 20
-0.4928188976377953
 30
0.0
 10
-0.3334685039370079
 20
-0.4928188976377953
 30
0.0
 10
0.3112834645669291
 20
-0.8734370078740158
 30
0.0
 10
0.3112834645669291
 20
-0.8734370078740158
 30
0.0
 10
0.3112834645669291
 20
-0.8734370078740158
 30
0.0
 10
0.3112834645669291
 20
-0.8734370078740158
 30
0.0
 10
0.3298818897637795
 20
-0.8524566929133859
 30
0.0
 10
0.3298818897637795
 20
-0.8524566929133859
 30
0.0
 10
0.3298818897637795
 20
-0.8524566929133859
 30
0.0
 10
0.3298818897637795
 20
-0.8524566929133859
 30
0.0
 10
-0.3148700787401575
 20
-0.4718385826771654
 30
0.0
 10
-0.3148700787401575
 20
-0.4718385826771654
 30
0.0
 10
-0.3148700787401575
 20
-0.4718385826771654
 30
0.0
 10
-0.3148700787401575
 20
-0.4718385826771654
 30
0.0
 10
-0.3334685039370079
 20
-0.4928188976377953
 30
0.0
 10
-0.3334685039370079
 20
-0.4928188976377953
 30
0.0
  0
SPLINE
  5
37
100
AcDbEntity
  8
Layer 1
 62
     9
100
AcDbSpline
210
0.0
220
0.0
230
1.0
 70
     1
 71
     3
 72
    20
 73
    16
 74
     0
 42
0.0000000001
 43
0.0000000001
 40
0.0
 40
0.0
 40
0.0
 40
0.0
 40
0.25
 40
0.25
 40
0.25
 40
0.25
 40
0.5
 40
0.5
 40
0.5
 40
0.5
 40
0.75
 40
0.75
 40
0.75
 40
0.75
 40
1.0
 40
1.0
 40
1.0
 40
1.0
 10
-0.3148700787401575
 20
-0.4718385826771654
 30
0.0
 10
-0.3148700787401575
 20
-0.4718385826771654
 30
0.0
 10
0.3298818897637795
 20
-0.8524566929133859
 30
0.0
 10
0.3298818897637795
 20
-0.8524566929133859
 30
0.0
 10
0.3298818897637795
 20
-0.8524566929133859
 30
0.0
 10
0.3298818897637795
 20
-0.8524566929133859
 30
0.0
 10
0.3490433070866142
 20
-0.8324055118110236
 30
0.0
 10
0.3490433070866142
 20
-0.8324055118110236
 30
0.0
 10
0.3490433070866142
 20
-0.8324055118110236
 30
0.0
 10
0.3490433070866142
 20
-0.8324055118110236
 30
0.0
 10
-0.2957086614173228
 20
-0.4517874015748032
 30
0.0
 10
-0.2957086614173228
 20
-0.4517874015748032
 30
0.0
 10
-0.2957086614173228
 20
-0.4517874015748032
 30
0.0
 10
-0.2957086614173228
 20
-0.4517874015748032
 30
0.0
 10
-0.3148700787401575
 20
-0.4718385826771654
 30
0.0
 10
-0.3148700787401575
 20
-0.4718385826771654
 30
0.0
  0
SPLINE
  5
38
100
AcDbEntity
  8
Layer 1
 62
     9
100
AcDbSpline
210
0.0
220
0.0
230
1.0
 70
     1
 71
     3
 72
    20
 73
    16
 74
     0
 42
0.0000000001
 43
0.0000000001
 40
0.0
 40
0.0
 40
0.0
 40
0.0
 40
0.25
 40
0.25
 40
0.25
 40
0.25
 40
0.5
 40
0.5
 40
0.5
 40
0.5
 40
0.75
 40
0.75
 40
0.75
 40
0.75
 40
1.0
 40
1.0
 40
1.0
 40
1.0
 10
-0.2957086614173228
 20
-0.4517874015748032
 30
0.0
 10
-0.2957086614173228
 20
-0.4517874015748032
 30
0.0
 10
0.3490433070866142
 20
-0.8324055118110236
 30
0.0
 10
0.3490433070866142
 20
-0.8324055118110236
 30
0.0
 10
0.3490433070866142
 20
-0.8324055118110236
 30
0.0
 10
0.3490433070866142
 20
-0.8324055118110236
 30
0.0
 10
0.3687637795275591
 20
-0.8132874015748032
 30
0.0
 10
0.3687637795275591
 20
-0.8132874015748032
 30
0.0
 10
0.3687637795275591
 20
-0.8132874015748032
 30
0.0
 10
0.3687637795275591
 20
-0.8132874015748032
 30
0.0
 10
-0.275988188976378
 20
-0.4326692913385827
 30
0.0
 10
-0.275988188976378
 20
-0.4326692913385827
 30
0.0
 10
-0.275988188976378
 20
-0.4326692913385827
 30
0.0
 10
-0.275988188976378
 20
-0.4326692913385827
 30
0.0
 10
-0.2957086614173228
 20
-0.4517874015748032
 30
0.0
 10
-0.2957086614173228
 20
-0.4517874015748032
 30
0.0
  0
SPLINE
  5
39
100
AcDbEntity
  8
Layer 1
 62
     9
100
AcDbSpline
210
0.0
220
0.0
230
1.0
 70
     1
 71
     3
 72
    20
 73
    16
 74
     0
 42
0.0000000001
 43
0.0000000001
 40
0.0
 40
0.0
 40
0.0
 40
0.0
 40
0.25
 40
0.25
 40
0.25
 40
0.25
 40
0.5
 40
0.5
 40
0.5
 40
0.5
 40
0.75
 40
0.75
 40
0.75
 40
0.75
 40
1.0
 40
1.0
 40
1.0
 40
1.0
 10
-0.275988188976378
 20
-0.4326692913385827
 30
0.0
 10
-0.275988188976378
 20
-0.4326692913385827
 30
0.0
 10
0.3687637795275591
 20
-0.8132874015748032
 30
0.0
 10
0.3687637795275591
 20
-0.8132874015748032
 30
0.0
 10
0.3687637795275591
 20
-0.8132874015748032
 30
0.0
 10
0.3687637795275591
 20
-0.8132874015748032
 30
0.0
 10
0.3890590551181102
 20
-0.7950866141732284
 30
0.0
 10
0.3890590551181102
 20
-0.7950866141732284
 30
0.0
 10
0.3890590551181102
 20
-0.7950866141732284
 30
0.0
 10
0.3890590551181102
 20
-0.7950866141732284
 30
0.0
 10
-0.2556929133858268
 20
-0.4144685039370079
 30
0.0
 10
-0.2556929133858268
 20
-0.4144685039370079
 30
0.0
 10
-0.2556929133858268
 20
-0.4144685039370079
 30
0.0
 10
-0.2556929133858268
 20
-0.4144685039370079
 30
0.0
 10
-0.275988188976378
 20
-0.4326692913385827
 30
0.0
 10
-0.275988188976378
 20
-0.4326692913385827
 30
0.0
  0
SPLINE
  5
3A
100
AcDbEntity
  8
Layer 1
 62
     9
100
AcDbSpline
210
0.0
220
0.0
230
1.0
 70
     1
 71
     3
 72
    20
 73
    16
 74
     0
 42
0.0000000001
 43
0.0000000001
 40
0.0
 40
0.0
 40
0.0
 40
0.0
 40
0.25
 40
0.25
 40
0.25
 40
0.25
 40
0.5
 40
0.5
 40
0.5
 40
0.5
 40
0.75
 40
0.75
 40
0.75
 40
0.75
 40
1.0
 40
1.0
 40
1.0
 40
1.0
 10
-0.2556929133858268
 20
-0.4144685039370079
 30
0.0
 10
-0.2556929133858268
 20
-0.4144685039370079
 30
0.0
 10
0.3890590551181102
 20
-0.7950866141732284
 30
0.0
 10
0.3890590551181102
 20
-0.7950866141732284
 30
0.0
 10
0.3890590551181102
 20
-0.7950866141732284
 30
0.0
 10
0.3890590551181102
 20
-0.7950866141732284
 30
0.0
 10
0.4099291338582677
 20
-0.7778031496062993
 30
0.0
 10
0.4099291338582677
 20
-0.7778031496062993
 30
0.0
 10
0.4099291338582677
 20
-0.7778031496062993
 30
0.0
 10
0.4099291338582677
 20
-0.7778031496062993
 30
0.0
 10
-0.2348228346456693
 20
-0.3971850393700788
 30
0.0
 10
-0.2348228346456693
 20
-0.3971850393700788
 30
0.0
 10
-0.2348228346456693
 20
-0.3971850393700788
 30
0.0
 10
-0.2348228346456693
 20
-0.3971850393700788
 30
0.0
 10
-0.2556929133858268
 20
-0.4144685039370079
 30
0.0
 10
-0.2556929133858268
 20
-0.4144685039370079
 30
0.0
  0
SPLINE
  5
3B
100
AcDbEntity
  8
Layer 1
 62
     9
100
AcDbSpline
210
0.0
220
0.0
230
1.0
 70
     1
 71
     3
 72
    20
 73
    16
 74
     0
 42
0.0000000001
 43
0.0000000001
 40
0.0
 40
0.0
 40
0.0
 40
0.0
 40
0.25
 40
0.25
 40
0.25
 40
0.25
 40
0.5
 40
0.5
 40
0.5
 40
0.5
 40
0.75
 40
0.75
 40
0.75
 40
0.75
 40
1.0
 40
1.0
 40
1.0
 40
1.0
 10
-0.2348228346456693
 20
-0.3971850393700788
 30
0.0
 10
-0.2348228346456693
 20
-0.3971850393700788
 30
0.0
 10
0.4099291338582677
 20
-0.7778031496062993
 30
0.0
 10
0.4099291338582677
 20
-0.7778031496062993
 30
0.0
 10
0.4099291338582677
 20
-0.7778031496062993
 30
0.0
 10
0.4099291338582677
 20
-0.7778031496062993
 30
0.0
 10
0.4313976377952756
 20
-0.7614094488188977
 30
0.0
 10
0.4313976377952756
 20
-0.7614094488188977
 30
0.0
 10
0.4313976377952756
 20
-0.7614094488188977
 30
0.0
 10
0.4313976377952756
 20
-0.7614094488188977
 30
0.0
 10
-0.2133543307086614
 20
-0.3807913385826772
 30
0.0
 10
-0.2133543307086614
 20
-0.3807913385826772
 30
0.0
 10
-0.2133543307086614
 20
-0.3807913385826772
 30
0.0
 10
-0.2133543307086614
 20
-0.3807913385826772
 30
0.0
 10
-0.2348228346456693
 20
-0.3971850393700788
 30
0.0
 10
-0.2348228346456693
 20
-0.3971850393700788
 30
0.0
  0
SPLINE
  5
3C
100
AcDbEntity
  8
Layer 1
 62
     9
100
AcDbSpline
210
0.0
220
0.0
230
1.0
 70
     1
 71
     3
 72
    20
 73
    16
 74
     0
 42
0.0000000001
 43
0.0000000001
 40
0.0
 40
0.0
 40
0.0
 40
0.0
 40
0.25
 40
0.25
 40
0.25
 40
0.25
 40
0.5
 40
0.5
 40
0.5
 40
0.5
 40
0.75
 40
0.75
 40
0.75
 40
0.75
 40
1.0
 40
1.0
 40
1.0
 40
1.0
 10
-0.2133543307086614
 20
-0.3807913385826772
 30
0.0
 10
-0.2133543307086614
 20
-0.3807913385826772
 30
0.0
 10
0.4313976377952756
 20
-0.7614094488188977
 30
0.0
 10
0.4313976377952756
 20
-0.7614094488188977
 30
0.0
 10
0.4313976377952756
 20
-0.7614094488188977
 30
0.0
 10
0.4313976377952756
 20
-0.7614094488188977
 30
0.0
 10
0.4534527559055118
 20
-0.7459133858267717
 30
0.0
 10
0.4534527559055118
 20
-0.7459133858267717
 30
0.0
 10
0.4534527559055118
 20
-0.7459133858267717
 30
0.0
 10
0.4534527559055118
 20
-0.7459133858267717
 30
0.0
 10
-0.1912992125984252
 20
-0.3652952755905512
 30
0.0
 10
-0.1912992125984252
 20
-0.3652952755905512
 30
0.0
 10
-0.1912992125984252
 20
-0.3652952755905512
 30
0.0
 10
-0.1912992125984252
 20
-0.3652952755905512
 30
0.0
 10
-0.2133543307086614
 20
-0.3807913385826772
 30
0.0
 10
-0.2133543307086614
 20
-0.3807913385826772
 30
0.0
  0
SPLINE
  5
3D
100
AcDbEntity
  8
Layer 1
 62
     9
100
AcDbSpline
210
0.0
220
0.0
230
1.0
 70
     1
 71
     3
 72
    20
 73
    16
 74
     0
 42
0.0000000001
 43
0.0000000001
 40
0.0
 40
0.0
 40
0.0
 40
0.0
 40
0.25
 40
0.25
 40
0.25
 40
0.25
 40
0.5
 40
0.5
 40
0.5
 40
0.5
 40
0.75
 40
0.75
 40
0.75
 40
0.75
 40
1.0
 40
1.0
 40
1.0
 40
1.0
 10
-0.1912992125984252
 20
-0.3652952755905512
 30
0.0
 10
-0.1912992125984252
 20
-0.3652952755905512
 30
0.0
 10
0.4534527559055118
 20
-0.7459133858267717
 30
0.0
 10
0.4534527559055118
 20
-0.7459133858267717
 30
0.0
 10
0.4534527559055118
 20
-0.7459133858267717
 30
0.0
 10
0.4534527559055118
 20
-0.7459133858267717
 30
0.0
 10
0.4761181102362205
 20
-0.7313031496062993
 30
0.0
 10
0.4761181102362205
 20
-0.7313031496062993
 30
0.0
 10
0.4761181102362205
 20
-0.7313031496062993
 30
0.0
 10
0.4761181102362205
 20
-0.7313031496062993
 30
0.0
 10
-0.1686338582677165
 20
-0.3506850393700788
 30
0.0
 10
-0.1686338582677165
 20
-0.3506850393700788
 30
0.0
 10
-0.1686338582677165
 20
-0.3506850393700788
 30
0.0
 10
-0.1686338582677165
 20
-0.3506850393700788
 30
0.0
 10
-0.1912992125984252
 20
-0.3652952755905512
 30
0.0
 10
-0.1912992125984252
 20
-0.3652952755905512
 30
0.0
  0
SPLINE
  5
3E
100
AcDbEntity
  8
Layer 1
 62
     9
100
AcDbSpline
210
0.0
220
0.0
230
1.0
 70
     1
 71
     3
 72
    20
 73
    16
 74
     0
 42
0.0000000001
 43
0.0000000001
 40
0.0
 40
0.0
 40
0.0
 40
0.0
 40
0.25
 40
0.25
 40
0.25
 40
0.25
 40
0.5
 40
0.5
 40
0.5
 40
0.5
 40
0.75
 40
0.75
 40
0.75
 40
0.75
 40
1.0
 40
1.0
 40
1.0
 40
1.0
 10
-0.1686338582677165
 20
-0.3506850393700788
 30
0.0
 10
-0.1686338582677165
 20
-0.3506850393700788
 30
0.0
 10
0.4761181102362205
 20
-0.7313031496062993
 30
0.0
 10
0.4761181102362205
 20
-0.7313031496062993
 30
0.0
 10
0.4761181102362205
 20
-0.7313031496062993
 30
0.0
 10
0.4761181102362205
 20
-0.7313031496062993
 30
0.0
 10
0.4993858267716536
 20
-0.7175708661417323
 30
0.0
 10
0.4993858267716536
 20
-0.7175708661417323
 30
0.0
 10
0.4993858267716536
 20
-0.7175708661417323
 30
0.0
 10
0.4993858267716536
 20
-0.7175708661417323
 30
0.0
 10
-0.1453661417322835
 20
-0.3369527559055118
 30
0.0
 10
-0.1453661417322835
 20
-0.3369527559055118
 30
0.0
 10
-0.1453661417322835
 20
-0.3369527559055118
 30
0.0
 10
-0.1453661417322835
 20
-0.3369527559055118
 30
0.0
 10
-0.1686338582677165
 20
-0.3506850393700788
 30
0.0
 10
-0.1686338582677165
 20
-0.3506850393700788
 30
0.0
  0
SPLINE
  5
3F
100
AcDbEntity
  8
Layer 1
 62
     9
100
AcDbSpline
210
0.0
220
0.0
230
1.0
 70
     1
 71
     3
 72
    20
 73
    16
 74
     0
 42
0.0000000001
 43
0.0000000001
 40
0.0
 40
0.0
 40
0.0
 40
0.0
 40
0.25
 40
0.25
 40
0.25
 40
0.25
 40
0.5
 40
0.5
 40
0.5
 40
0.5
 40
0.75
 40
0.75
 40
0.75
 40
0.75
 40
1.0
 40
1.0
 40
1.0
 40
1.0
 10
-0.1453661417322835
 20
-0.3369527559055118
 30
0.0
 10
-0.1453661417322835
 20
-0.3369527559055118
 30
0.0
 10
0.4993858267716536
 20
-0.7175708661417323
 30
0.0
 10
0.4993858267716536
 20
-0.7175708661417323
 30
0.0
 10
0.4993858267716536
 20
-0.7175708661417323
 30
0.0
 10
0.4993858267716536
 20
-0.7175708661417323
 30
0.0
 10
0.5232795275590552
 20
-0.7047007874015748
 30
0.0
 10
0.5232795275590552
 20
-0.7047007874015748
 30
0.0
 10
0.5232795275590552
 20
-0.7047007874015748
 30
0.0
 10
0.5232795275590552
 20
-0.7047007874015748
 30
0.0
 10
-0.1214724409448819
 20
-0.3240826771653543
 30
0.0
 10
-0.1214724409448819
 20
-0.3240826771653543
 30
0.0
 10
-0.1214724409448819
 20
-0.3240826771653543
 30
0.0
 10
-0.1214724409448819
 20
-0.3240826771653543
 30
0.0
 10
-0.1453661417322835
 20
-0.3369527559055118
 30
0.0
 10
-0.1453661417322835
 20
-0.3369527559055118
 30
0.0
  0
SPLINE
  5
40
100
AcDbEntity
  8
Layer 1
 62
     9
100
AcDbSpline
210
0.0
220
0.0
230
1.0
 70
     1
 71
     3
 72
    20
 73
    16
 74
     0
 42
0.0000000001
 43
0.0000000001
 40
0.0
 40
0.0
 40
0.0
 40
0.0
 40
0.25
 40
0.25
 40
0.25
 40
0.25
 40
0.5
 40
0.5
 40
0.5
 40
0.5
 40
0.75
 40
0.75
 40
0.75
 40
0.75
 40
1.0
 40
1.0
 40
1.0
 40
1.0
 10
-0.1214724409448819
 20
-0.3240826771653543
 30
0.0
 10
-0.1214724409448819
 20
-0.3240826771653543
 30
0.0
 10
0.5232795275590552
 20
-0.7047007874015748
 30
0.0
 10
0.5232795275590552
 20
-0.7047007874015748
 30
0.0
 10
0.5232795275590552
 20
-0.7047007874015748
 30
0.0
 10
0.5232795275590552
 20
-0.7047007874015748
 30
0.0
 10
0.5477992125984252
 20
-0.6926889763779528
 30
0.0
 10
0.5477992125984252
 20
-0.6926889763779528
 30
0.0
 10
0.5477992125984252
 20
-0.6926889763779528
 30
0.0
 10
0.5477992125984252
 20
-0.6926889763779528
 30
0.0
 10
-0.0969527559055118
 20
-0.3120708661417323
 30
0.0
 10
-0.0969527559055118
 20
-0.3120708661417323
 30
0.0
 10
-0.0969527559055118
 20
-0.3120708661417323
 30
0.0
 10
-0.0969527559055118
 20
-0.3120708661417323
 30
0.0
 10
-0.1214724409448819
 20
-0.3240826771653543
 30
0.0
 10
-0.1214724409448819
 20
-0.3240826771653543
 30
0.0
  0
SPLINE
  5
41
100
AcDbEntity
  8
Layer 1
 62
     9
100
AcDbSpline
210
0.0
220
0.0
230
1.0
 70
     1
 71
     3
 72
    20
 73
    16
 74
     0
 42
0.0000000001
 43
0.0000000001
 40
0.0
 40
0.0
 40
0.0
 40
0.0
 40
0.25
 40
0.25
 40
0.25
 40
0.25
 40
0.5
 40
0.5
 40
0.5
 40
0.5
 40
0.75
 40
0.75
 40
0.75
 40
0.75
 40
1.0
 40
1.0
 40
1.0
 40
1.0
 10
-0.0969527559055118
 20
-0.3120708661417323
 30
0.0
 10
-0.0969527559055118
 20
-0.3120708661417323
 30
0.0
 10
0.5477992125984252
 20
-0.6926889763779528
 30
0.0
 10
0.5477992125984252
 20
-0.6926889763779528
 30
0.0
 10
0.5477992125984252
 20
-0.6926889763779528
 30
0.0
 10
0.5477992125984252
 20
-0.6926889763779528
 30
0.0
 10
0.5729566929133858
 20
-0.6815275590551181
 30
0.0
 10
0.5729566929133858
 20
-0.6815275590551181
 30
0.0
 10
0.5729566929133858
 20
-0.6815275590551181
 30
0.0
 10
0.5729566929133858
 20
-0.6815275590551181
 30
0.0
 10
-0.0717952755905512
 20
-0.3009094488188976
 30
0.0
 10
-0.0717952755905512
 20
-0.3009094488188976
 30
0.0
 10
-0.0717952755905512
 20
-0.3009094488188976
 30
0.0
 10
-0.0717952755905512
 20
-0.3009094488188976
 30
0.0
 10
-0.0969527559055118
 20
-0.3120708661417323
 30
0.0
 10
-0.0969527559055118
 20
-0.3120708661417323
 30
0.0
  0
SPLINE
  5
42
100
AcDbEntity
  8
Layer 1
 62
     9
100
AcDbSpline
210
0.0
220
0.0
230
1.0
 70
     1
 71
     3
 72
    20
 73
    16
 74
     0
 42
0.0000000001
 43
0.0000000001
 40
0.0
 40
0.0
 40
0.0
 40
0.0
 40
0.25
 40
0.25
 40
0.25
 40
0.25
 40
0.5
 40
0.5
 40
0.5
 40
0.5
 40
0.75
 40
0.75
 40
0.75
 40
0.75
 40
1.0
 40
1.0
 40
1.0
 40
1.0
 10
-0.0717952755905512
 20
-0.3009094488188976
 30
0.0
 10
-0.0717952755905512
 20
-0.3009094488188976
 30
0.0
 10
0.5729566929133858
 20
-0.6815275590551181
 30
0.0
 10
0.5729566929133858
 20
-0.6815275590551181
 30
0.0
 10
0.5729566929133858
 20
-0.6815275590551181
 30
0.0
 10
0.5729566929133858
 20
-0.6815275590551181
 30
0.0
 10
0.598755905511811
 20
-0.6712125984251969
 30
0.0
 10
0.598755905511811
 20
-0.6712125984251969
 30
0.0
 10
0.598755905511811
 20
-0.6712125984251969
 30
0.0
 10
0.598755905511811
 20
-0.6712125984251969
 30
0.0
 10
-0.045996062992126
 20
-0.2905944881889764
 30
0.0
 10
-0.045996062992126
 20
-0.2905944881889764
 30
0.0
 10
-0.045996062992126
 20
-0.2905944881889764
 30
0.0
 10
-0.045996062992126
 20
-0.2905944881889764
 30
0.0
 10
-0.0717952755905512
 20
-0.3009094488188976
 30
0.0
 10
-0.0717952755905512
 20
-0.3009094488188976
 30
0.0
  0
SPLINE
  5
43
100
AcDbEntity
  8
Layer 1
 62
     9
100
AcDbSpline
210
0.0
220
0.0
230
1.0
 70
     1
 71
     3
 72
    20
 73
    16
 74
     0
 42
0.0000000001
 43
0.0000000001
 40
0.0
 40
0.0
 40
0.0
 40
0.0
 40
0.25
 40
0.25
 40
0.25
 40
0.25
 40
0.5
 40
0.5
 40
0.5
 40
0.5
 40
0.75
 40
0.75
 40
0.75
 40
0.75
 40
1.0
 40
1.0
 40
1.0
 40
1.0
 10
-0.045996062992126
 20
-0.2905944881889764
 30
0.0
 10
-0.045996062992126
 20
-0.2905944881889764
 30
0.0
 10
0.598755905511811
 20
-0.6712125984251969
 30
0.0
 10
0.598755905511811
 20
-0.6712125984251969
 30
0.0
 10
0.598755905511811
 20
-0.6712125984251969
 30
0.0
 10
0.598755905511811
 20
-0.6712125984251969
 30
0.0
 10
0.6252125984251968
 20
-0.6617165354330709
 30
0.0
 10
0.6252125984251968
 20
-0.6617165354330709
 30
0.0
 10
0.6252125984251968
 20
-0.6617165354330709
 30
0.0
 10
0.6252125984251968
 20
-0.6617165354330709
 30
0.0
 10
-0.0195393700787402
 20
-0.2810984251968504
 30
0.0
 10
-0.0195393700787402
 20
-0.2810984251968504
 30
0.0
 10
-0.0195393700787402
 20
-0.2810984251968504
 30
0.0
 10
-0.0195393700787402
 20
-0.2810984251968504
 30
0.0
 10
-0.045996062992126
 20
-0.2905944881889764
 30
0.0
 10
-0.045996062992126
 20
-0.2905944881889764
 30
0.0
  0
SPLINE
  5
44
100
AcDbEntity
  8
Layer 1
 62
     9
100
AcDbSpline
210
0.0
220
0.0
230
1.0
 70
     1
 71
     3
 72
    20
 73
    16
 74
     0
 42
0.0000000001
 43
0.0000000001
 40
0.0
 40
0.0
 40
0.0
 40
0.0
 40
0.25
 40
0.25
 40
0.25
 40
0.25
 40
0.5
 40
0.5
 40
0.5
 40
0.5
 40
0.75
 40
0.75
 40
0.75
 40
0.75
 40
1.0
 40
1.0
 40
1.0
 40
1.0
 10
-0.0195393700787402
 20
-0.2810984251968504
 30
0.0
 10
-0.0195393700787402
 20
-0.2810984251968504
 30
0.0
 10
0.6252125984251968
 20
-0.6617165354330709
 30
0.0
 10
0.6252125984251968
 20
-0.6617165354330709
 30
0.0
 10
0.6252125984251968
 20
-0.6617165354330709
 30
0.0
 10
0.6252125984251968
 20
-0.6617165354330709
 30
0.0
 10
0.6523228346456693
 20
-0.6530511811023623
 30
0.0
 10
0.6523228346456693
 20
-0.6530511811023623
 30
0.0
 10
0.6523228346456693
 20
-0.6530511811023623
 30
0.0
 10
0.6523228346456693
 20
-0.6530511811023623
 30
0.0
 10
0.0075708661417323
 20
-0.2724330708661418
 30
0.0
 10
0.0075708661417323
 20
-0.2724330708661418
 30
0.0
 10
0.0075708661417323
 20
-0.2724330708661418
 30
0.0
 10
0.0075708661417323
 20
-0.2724330708661418
 30
0.0
 10
-0.0195393700787402
 20
-0.2810984251968504
 30
0.0
 10
-0.0195393700787402
 20
-0.2810984251968504
 30
0.0
  0
SPLINE
  5
45
100
AcDbEntity
  8
Layer 1
 62
     9
100
AcDbSpline
210
0.0
220
0.0
230
1.0
 70
     1
 71
     3
 72
    20
 73
    16
 74
     0
 42
0.0000000001
 43
0.0000000001
 40
0.0
 40
0.0
 40
0.0
 40
0.0
 40
0.25
 40
0.25
 40
0.25
 40
0.25
 40
0.5
 40
0.5
 40
0.5
 40
0.5
 40
0.75
 40
0.75
 40
0.75
 40
0.75
 40
1.0
 40
1.0
 40
1.0
 40
1.0
 10
0.0075708661417323
 20
-0.2724330708661418
 30
0.0
 10
0.0075708661417323
 20
-0.2724330708661418
 30
0.0
 10
0.6523228346456693
 20
-0.6530511811023623
 30
0.0
 10
0.6523228346456693
 20
-0.6530511811023623
 30
0.0
 10
0.6523228346456693
 20
-0.6530511811023623
 30
0.0
 10
0.6523228346456693
 20
-0.6530511811023623
 30
0.0
 10
0.6800984251968504
 20
-0.6451968503937008
 30
0.0
 10
0.6800984251968504
 20
-0.6451968503937008
 30
0.0
 10
0.6800984251968504
 20
-0.6451968503937008
 30
0.0
 10
0.6800984251968504
 20
-0.6451968503937008
 30
0.0
 10
0.0353464566929134
 20
-0.2645787401574803
 30
0.0
 10
0.0353464566929134
 20
-0.2645787401574803
 30
0.0
 10
0.0353464566929134
 20
-0.2645787401574803
 30
0.0
 10
0.0353464566929134
 20
-0.2645787401574803
 30
0.0
 10
0.0075708661417323
 20
-0.2724330708661418
 30
0.0
 10
0.0075708661417323
 20
-0.2724330708661418
 30
0.0
  0
SPLINE
  5
46
100
AcDbEntity
  8
Layer 1
 62
     9
100
AcDbSpline
210
0.0
220
0.0
230
1.0
 70
     1
 71
     3
 72
    20
 73
    16
 74
     0
 42
0.0000000001
 43
0.0000000001
 40
0.0
 40
0.0
 40
0.0
 40
0.0
 40
0.25
 40
0.25
 40
0.25
 40
0.25
 40
0.5
 40
0.5
 40
0.5
 40
0.5
 40
0.75
 40
0.75
 40
0.75
 40
0.75
 40
1.0
 40
1.0
 40
1.0
 40
1.0
 10
0.0353464566929134
 20
-0.2645787401574803
 30
0.0
 10
0.0353464566929134
 20
-0.2645787401574803
 30
0.0
 10
0.6800984251968504
 20
-0.6451968503937008
 30
0.0
 10
0.6800984251968504
 20
-0.6451968503937008
 30
0.0
 10
0.6800984251968504
 20
-0.6451968503937008
 30
0.0
 10
0.6800984251968504
 20
-0.6451968503937008
 30
0.0
 10
0.7085629921259843
 20
-0.6381574803149607
 30
0.0
 10
0.7085629921259843
 20
-0.6381574803149607
 30
0.0
 10
0.7085629921259843
 20
-0.6381574803149607
 30
0.0
 10
0.7085629921259843
 20
-0.6381574803149607
 30
0.0
 10
0.0638110236220472
 20
-0.2575393700787402
 30
0.0
 10
0.0638110236220472
 20
-0.2575393700787402
 30
0.0
 10
0.0638110236220472
 20
-0.2575393700787402
 30
0.0
 10
0.0638110236220472
 20
-0.2575393700787402
 30
0.0
 10
0.0353464566929134
 20
-0.2645787401574803
 30
0.0
 10
0.0353464566929134
 20
-0.2645787401574803
 30
0.0
  0
SPLINE
  5
47
100
AcDbEntity
  8
Layer 1
 62
     9
100
AcDbSpline
210
0.0
220
0.0
230
1.0
 70
     1
 71
     3
 72
    20
 73
    16
 74
     0
 42
0.0000000001
 43
0.0000000001
 40
0.0
 40
0.0
 40
0.0
 40
0.0
 40
0.25
 40
0.25
 40
0.25
 40
0.25
 40
0.5
 40
0.5
 40
0.5
 40
0.5
 40
0.75
 40
0.75
 40
0.75
 40
0.75
 40
1.0
 40
1.0
 40
1.0
 40
1.0
 10
0.0638110236220472
 20
-0.2575393700787402
 30
0.0
 10
0.0638110236220472
 20
-0.2575393700787402
 30
0.0
 10
0.7085629921259843
 20
-0.6381574803149607
 30
0.0
 10
0.7085629921259843
 20
-0.6381574803149607
 30
0.0
 10
0.7085629921259843
 20
-0.6381574803149607
 30
0.0
 10
0.7085629921259843
 20
-0.6381574803149607
 30
0.0
 10
0.7377047244094489
 20
-0.6319015748031497
 30
0.0
 10
0.7377047244094489
 20
-0.6319015748031497
 30
0.0
 10
0.7377047244094489
 20
-0.6319015748031497
 30
0.0
 10
0.7377047244094489
 20
-0.6319015748031497
 30
0.0
 10
0.0929527559055118
 20
-0.2512834645669291
 30
0.0
 10
0.0929527559055118
 20
-0.2512834645669291
 30
0.0
 10
0.0929527559055118
 20
-0.2512834645669291
 30
0.0
 10
0.0929527559055118
 20
-0.2512834645669291
 30
0.0
 10
0.0638110236220472
 20
-0.2575393700787402
 30
0.0
 10
0.0638110236220472
 20
-0.2575393700787402
 30
0.0
  0
SPLINE
  5
48
100
AcDbEntity
  8
Layer 1
 62
     9
100
AcDbSpline
210
0.0
220
0.0
230
1.0
 70
     1
 71
     3
 72
    20
 73
    16
 74
     0
 42
0.0000000001
 43
0.0000000001
 40
0.0
 40
0.0
 40
0.0
 40
0.0
 40
0.25
 40
0.25
 40
0.25
 40
0.25
 40
0.5
 40
0.5
 40
0.5
 40
0.5
 40
0.75
 40
0.75
 40
0.75
 40
0.75
 40
1.0
 40
1.0
 40
1.0
 40
1.0
 10
0.0929527559055118
 20
-0.2512834645669291
 30
0.0
 10
0.0929527559055118
 20
-0.2512834645669291
 30
0.0
 10
0.7377047244094489
 20
-0.6319015748031497
 30
0.0
 10
0.7377047244094489
 20
-0.6319015748031497
 30
0.0
 10
0.7377047244094489
 20
-0.6319015748031497
 30
0.0
 10
0.7377047244094489
 20
-0.6319015748031497
 30
0.0
 10
0.7675433070866142
 20
-0.6264409448818898
 30
0.0
 10
0.7675433070866142
 20
-0.6264409448818898
 30
0.0
 10
0.7675433070866142
 20
-0.6264409448818898
 30
0.0
 10
0.7675433070866142
 20
-0.6264409448818898
 30
0.0
 10
0.1227913385826772
 20
-0.2458228346456693
 30
0.0
 10
0.1227913385826772
 20
-0.2458228346456693
 30
0.0
 10
0.1227913385826772
 20
-0.2458228346456693
 30
0.0
 10
0.1227913385826772
 20
-0.2458228346456693
 30
0.0
 10
0.0929527559055118
 20
-0.2512834645669291
 30
0.0
 10
0.0929527559055118
 20
-0.2512834645669291
 30
0.0
  0
SPLINE
  5
49
100
AcDbEntity
  8
Layer 1
 62
     9
100
AcDbSpline
210
0.0
220
0.0
230
1.0
 70
     1
 71
     3
 72
    20
 73
    16
 74
     0
 42
0.0000000001
 43
0.0000000001
 40
0.0
 40
0.0
 40
0.0
 40
0.0
 40
0.25
 40
0.25
 40
0.25
 40
0.25
 40
0.5
 40
0.5
 40
0.5
 40
0.5
 40
0.75
 40
0.75
 40
0.75
 40
0.75
 40
1.0
 40
1.0
 40
1.0
 40
1.0
 10
0.1227913385826772
 20
-0.2458228346456693
 30
0.0
 10
0.1227913385826772
 20
-0.2458228346456693
 30
0.0
 10
0.7675433070866142
 20
-0.6264409448818898
 30
0.0
 10
0.7675433070866142
 20
-0.6264409448818898
 30
0.0
 10
0.7675433070866142
 20
-0.6264409448818898
 30
0.0
 10
0.7675433070866142
 20
-0.6264409448818898
 30
0.0
 10
0.7980787401574804
 20
-0.6217598425196851
 30
0.0
 10
0.7980787401574804
 20
-0.6217598425196851
 30
0.0
 10
0.7980787401574804
 20
-0.6217598425196851
 30
0.0
 10
0.7980787401574804
 20
-0.6217598425196851
 30
0.0
 10
0.1533267716535433
 20
-0.2411417322834646
 30
0.0
 10
0.1533267716535433
 20
-0.2411417322834646
 30
0.0
 10
0.1533267716535433
 20
-0.2411417322834646
 30
0.0
 10
0.1533267716535433
 20
-0.2411417322834646
 30
0.0
 10
0.1227913385826772
 20
-0.2458228346456693
 30
0.0
 10
0.1227913385826772
 20
-0.2458228346456693
 30
0.0
  0
SPLINE
  5
4A
100
AcDbEntity
  8
Layer 1
 62
     9
100
AcDbSpline
210
0.0
220
0.0
230
1.0
 70
     1
 71
     3
 72
    20
 73
    16
 74
     0
 42
0.0000000001
 43
0.0000000001
 40
0.0
 40
0.0
 40
0.0
 40
0.0
 40
0.25
 40
0.25
 40
0.25
 40
0.25
 40
0.5
 40
0.5
 40
0.5
 40
0.5
 40
0.75
 40
0.75
 40
0.75
 40
0.75
 40
1.0
 40
1.0
 40
1.0
 40
1.0
 10
0.1533267716535433
 20
-0.2411417322834646
 30
0.0
 10
0.1533267716535433
 20
-0.2411417322834646
 30
0.0
 10
0.7980787401574804
 20
-0.6217598425196851
 30
0.0
 10
0.7980787401574804
 20
-0.6217598425196851
 30
0.0
 10
0.7980787401574804
 20
-0.6217598425196851
 30
0.0
 10
0.7980787401574804
 20
-0.6217598425196851
 30
0.0
 10
0.8293307086614173
 20
-0.6178543307086615
 30
0.0
 10
0.8293307086614173
 20
-0.6178543307086615
 30
0.0
 10
0.8293307086614173
 20
-0.6178543307086615
 30
0.0
 10
0.8293307086614173
 20
-0.6178543307086615
 30
0.0
 10
0.1845787401574803
 20
-0.237236220472441
 30
0.0
 10
0.1845787401574803
 20
-0.237236220472441
 30
0.0
 10
0.1845787401574803
 20
-0.237236220472441
 30
0.0
 10
0.1845787401574803
 20
-0.237236220472441
 30
0.0
 10
0.1533267716535433
 20
-0.2411417322834646
 30
0.0
 10
0.1533267716535433
 20
-0.2411417322834646
 30
0.0
  0
SPLINE
  5
4B
100
AcDbEntity
  8
Layer 1
370
     5
100
AcDbSpline
210
0.0
220
0.0
230
1.0
 70
     1
 71
     3
 72
   268
 73
   264
 74
     0
 42
0.0000000001
 43
0.0000000001
 40
0.0
 40
0.0
 40
0.0
 40
0.0
 40
0.0151515151515152
 40
0.0151515151515152
 40
0.0151515151515152
 40
0.0151515151515152
 40
0.0303030303030303
 40
0.0303030303030303
 40
0.0303030303030303
 40
0.0303030303030303
 40
0.0454545454545455
 40
0.0454545454545455
 40
0.0454545454545455
 40
0.0454545454545455
 40
0.0606060606060606
 40
0.0606060606060606
 40
0.0606060606060606
 40
0.0606060606060606
 40
0.0757575757575758
 40
0.0757575757575758
 40
0.0757575757575758
 40
0.0757575757575758
 40
0.0909090909090909
 40
0.0909090909090909
 40
0.0909090909090909
 40
0.0909090909090909
 40
0.1060606060606061
 40
0.1060606060606061
 40
0.1060606060606061
 40
0.1060606060606061
 40
0.1212121212121212
 40
0.1212121212121212
 40
0.1212121212121212
 40
0.1212121212121212
 40
0.1363636363636364
 40
0.1363636363636364
 40
0.1363636363636364
 40
0.1363636363636364
 40
0.1515151515151515
 40
0.1515151515151515
 40
0.1515151515151515
 40
0.1515151515151515
 40
0.1666666666666666
 40
0.1666666666666666
 40
0.1666666666666666
 40
0.1666666666666666
 40
0.1818181818181818
 40
0.1818181818181818
 40
0.1818181818181818
 40
0.1818181818181818
 40
0.1969696969696969
 40
0.1969696969696969
 40
0.1969696969696969
 40
0.1969696969696969
 40
0.212121212121212
 40
0.212121212121212
 40
0.212121212121212
 40
0.212121212121212
 40
0.2272727272727272
 40
0.2272727272727272
 40
0.2272727272727272
 40
0.2272727272727272
 40
0.2424242424242423
 40
0.2424242424242423
 40
0.2424242424242423
 40
0.2424242424242423
 40
0.2575757575757575
 40
0.2575757575757575
 40
0.2575757575757575
 40
0.2575757575757575
 40
0.2727272727272726
 40
0.2727272727272726
 40
0.2727272727272726
 40
0.2727272727272726
 40
0.2878787878787877
 40
0.2878787878787877
 40
0.2878787878787877
 40
0.2878787878787877
 40
0.3030303030303029
 40
0.3030303030303029
 40
0.3030303030303029
 40
0.3030303030303029
 40
0.318181818181818
 40
0.318181818181818
 40
0.318181818181818
 40
0.318181818181818
 40
0.3333333333333332
 40
0.3333333333333332
 40
0.3333333333333332
 40
0.3333333333333332
 40
0.3484848484848483
 40
0.3484848484848483
 40
0.3484848484848483
 40
0.3484848484848483
 40
0.3636363636363634
 40
0.3636363636363634
 40
0.3636363636363634
 40
0.3636363636363634
 40
0.3787878787878786
 40
0.3787878787878786
 40
0.3787878787878786
 40
0.3787878787878786
 40
0.3939393939393937
 40
0.3939393939393937
 40
0.3939393939393937
 40
0.3939393939393937
 40
0.4090909090909088
 40
0.4090909090909088
 40
0.4090909090909088
 40
0.4090909090909088
 40
0.424242424242424
 40
0.424242424242424
 40
0.424242424242424
 40
0.424242424242424
 40
0.4393939393939391
 40
0.4393939393939391
 40
0.4393939393939391
 40
0.4393939393939391
 40
0.4545454545454543
 40
0.4545454545454543
 40
0.4545454545454543
 40
0.4545454545454543
 40
0.4696969696969694
 40
0.4696969696969694
 40
0.4696969696969694
 40
0.4696969696969694
 40
0.4848484848484845
 40
0.4848484848484845
 40
0.4848484848484845
 40
0.4848484848484845
 40
0.4999999999999997
 40
0.4999999999999997
 40
0.4999999999999997
 40
0.4999999999999997
 40
0.5151515151515148
 40
0.5151515151515148
 40
0.5151515151515148
 40
0.5151515151515148
 40
0.5303030303030299
 40
0.5303030303030299
 40
0.5303030303030299
 40
0.5303030303030299
 40
0.5454545454545451
 40
0.5454545454545451
 40
0.5454545454545451
 40
0.5454545454545451
 40
0.5606060606060602
 40
0.5606060606060602
 40
0.5606060606060602
 40
0.5606060606060602
 40
0.5757575757575754
 40
0.5757575757575754
 40
0.5757575757575754
 40
0.5757575757575754
 40
0.5909090909090905
 40
0.5909090909090905
 40
0.5909090909090905
 40
0.5909090909090905
 40
0.6060606060606056
 40
0.6060606060606056
 40
0.6060606060606056
 40
0.6060606060606056
 40
0.6212121212121208
 40
0.6212121212121208
 40
0.6212121212121208
 40
0.6212121212121208
 40
0.6363636363636359
 40
0.6363636363636359
 40
0.6363636363636359
 40
0.6363636363636359
 40
0.6515151515151511
 40
0.6515151515151511
 40
0.6515151515151511
 40
0.6515151515151511
 40
0.6666666666666662
 40
0.6666666666666662
 40
0.6666666666666662
 40
0.6666666666666662
 40
0.6818181818181813
 40
0.6818181818181813
 40
0.6818181818181813
 40
0.6818181818181813
 40
0.6969696969696965
 40
0.6969696969696965
 40
0.6969696969696965
 40
0.6969696969696965
 40
0.7121212121212116
 40
0.7121212121212116
 40
0.7121212121212116
 40
0.7121212121212116
 40
0.7272727272727267
 40
0.7272727272727267
 40
0.7272727272727267
 40
0.7272727272727267
 40
0.7424242424242419
 40
0.7424242424242419
 40
0.7424242424242419
 40
0.7424242424242419
 40
0.757575757575757
 40
0.757575757575757
 40
0.757575757575757
 40
0.757575757575757
 40
0.7727272727272722
 40
0.7727272727272722
 40
0.7727272727272722
 40
0.7727272727272722
 40
0.7878787878787873
 40
0.7878787878787873
 40
0.7878787878787873
 40
0.7878787878787873
 40
0.8030303030303024
 40
0.8030303030303024
 40
0.8030303030303024
 40
0.8030303030303024
 40
0.8181818181818176
 40
0.8181818181818176
 40
0.8181818181818176
 40
0.8181818181818176
 40
0.8333333333333327
 40
0.8333333333333327
 40
0.8333333333333327
 40
0.8333333333333327
 40
0.8484848484848478
 40
0.8484848484848478
 40
0.8484848484848478
 40
0.8484848484848478
 40
0.863636363636363
 40
0.863636363636363
 40
0.863636363636363
 40
0.863636363636363
 40
0.8787878787878781
 40
0.8787878787878781
 40
0.8787878787878781
 40
0.8787878787878781
 40
0.8939393939393933
 40
0.8939393939393933
 40
0.8939393939393933
 40
0.8939393939393933
 40
0.9090909090909084
 40
0.9090909090909084
 40
0.9090909090909084
 40
0.9090909090909084
 40
0.9242424242424235
 40
0.9242424242424235
 40
0.9242424242424235
 40
0.9242424242424235
 40
0.9393939393939387
 40
0.9393939393939387
 40
0.9393939393939387
 40
0.9393939393939387
 40
0.9545454545454538
 40
0.9545454545454538
 40
0.9545454545454538
 40
0.9545454545454538
 40
0.969696969696969
 40
0.969696969696969
 40
0.969696969696969
 40
0.969696969696969
 40
0.9848484848484841
 40
0.9848484848484841
 40
0.9848484848484841
 40
0.9848484848484841
 40
1.0
 40
1.0
 40
1.0
 40
1.0
 10
-0.503732283464567
 20
-0.788007874015748
 30
0.0
 10
-0.503732283464567
 20
-0.788007874015748
 30
0.0
 10
0.1410196850393701
 20
-1.1686259842519686
 30
0.0
 10
0.1410196850393701
 20
-1.1686259842519686
 30
0.0
 10
0.1410196850393701
 20
-1.1686259842519686
 30
0.0
 10
0.1410196850393701
 20
-1.1686259842519686
 30
0.0
 10
0.1540472440944882
 20
-1.136748031496063
 30
0.0
 10
0.1540472440944882
 20
-1.136748031496063
 30
0.0
 10
0.1540472440944882
 20
-1.136748031496063
 30
0.0
 10
0.1540472440944882
 20
-1.136748031496063
 30
0.0
 10
0.1675354330708662
 20
-1.1059133858267718
 30
0.0
 10
0.1675354330708662
 20
-1.1059133858267718
 30
0.0
 10
0.1675354330708662
 20
-1.1059133858267718
 30
0.0
 10
0.1675354330708662
 20
-1.1059133858267718
 30
0.0
 10
0.1815
 20
-1.0760984251968504
 30
0.0
 10
0.1815
 20
-1.0760984251968504
 30
0.0
 10
0.1815
 20
-1.0760984251968504
 30
0.0
 10
0.1815
 20
-1.0760984251968504
 30
0.0
 10
0.1959448818897638
 20
-1.0473070866141734
 30
0.0
 10
0.1959448818897638
 20
-1.0473070866141734
 30
0.0
 10
0.1959448818897638
 20
-1.0473070866141734
 30
0.0
 10
0.1959448818897638
 20
-1.0473070866141734
 30
0.0
 10
0.2108858267716536
 20
-1.0195118110236221
 30
0.0
 10
0.2108858267716536
 20
-1.0195118110236221
 30
0.0
 10
0.2108858267716536
 20
-1.0195118110236221
 30
0.0
 10
0.2108858267716536
 20
-1.0195118110236221
 30
0.0
 10
0.2263228346456693
 20
-0.9927244094488189
 30
0.0
 10
0.2263228346456693
 20
-0.9927244094488189
 30
0.0
 10
0.2263228346456693
 20
-0.9927244094488189
 30
0.0
 10
0.2263228346456693
 20
-0.9927244094488189
 30
0.0
 10
0.2422677165354331
 20
-0.9669212598425198
 30
0.0
 10
0.2422677165354331
 20
-0.9669212598425198
 30
0.0
 10
0.2422677165354331
 20
-0.9669212598425198
 30
0.0
 10
0.2422677165354331
 20
-0.9669212598425198
 30
0.0
 10
0.2587244094488189
 20
-0.9421062992125985
 30
0.0
 10
0.2587244094488189
 20
-0.9421062992125985
 30
0.0
 10
0.2587244094488189
 20
-0.9421062992125985
 30
0.0
 10
0.2587244094488189
 20
-0.9421062992125985
 30
0.0
 10
0.2757125984251969
 20
-0.9182519685039371
 30
0.0
 10
0.2757125984251969
 20
-0.9182519685039371
 30
0.0
 10
0.2757125984251969
 20
-0.9182519685039371
 30
0.0
 10
0.2757125984251969
 20
-0.9182519685039371
 30
0.0
 10
0.2932283464566929
 20
-0.8953700787401575
 30
0.0
 10
0.2932283464566929
 20
-0.8953700787401575
 30
0.0
 10
0.2932283464566929
 20
-0.8953700787401575
 30
0.0
 10
0.2932283464566929
 20
-0.8953700787401575
 30
0.0
 10
0.3112834645669291
 20
-0.8734370078740158
 30
0.0
 10
0.3112834645669291
 20
-0.8734370078740158
 30
0.0
 10
0.3112834645669291
 20
-0.8734370078740158
 30
0.0
 10
0.3112834645669291
 20
-0.8734370078740158
 30
0.0
 10
0.3298818897637795
 20
-0.8524566929133859
 30
0.0
 10
0.3298818897637795
 20
-0.8524566929133859
 30
0.0
 10
0.3298818897637795
 20
-0.8524566929133859
 30
0.0
 10
0.3298818897637795
 20
-0.8524566929133859
 30
0.0
 10
0.3490433070866142
 20
-0.8324055118110236
 30
0.0
 10
0.3490433070866142
 20
-0.8324055118110236
 30
0.0
 10
0.3490433070866142
 20
-0.8324055118110236
 30
0.0
 10
0.3490433070866142
 20
-0.8324055118110236
 30
0.0
 10
0.3687637795275591
 20
-0.8132874015748032
 30
0.0
 10
0.3687637795275591
 20
-0.8132874015748032
 30
0.0
 10
0.3687637795275591
 20
-0.8132874015748032
 30
0.0
 10
0.3687637795275591
 20
-0.8132874015748032
 30
0.0
 10
0.3890590551181102
 20
-0.7950866141732284
 30
0.0
 10
0.3890590551181102
 20
-0.7950866141732284
 30
0.0
 10
0.3890590551181102
 20
-0.7950866141732284
 30
0.0
 10
0.3890590551181102
 20
-0.7950866141732284
 30
0.0
 10
0.4099291338582677
 20
-0.7778031496062993
 30
0.0
 10
0.4099291338582677
 20
-0.7778031496062993
 30
0.0
 10
0.4099291338582677
 20
-0.7778031496062993
 30
0.0
 10
0.4099291338582677
 20
-0.7778031496062993
 30
0.0
 10
0.4313976377952756
 20
-0.7614094488188977
 30
0.0
 10
0.4313976377952756
 20
-0.7614094488188977
 30
0.0
 10
0.4313976377952756
 20
-0.7614094488188977
 30
0.0
 10
0.4313976377952756
 20
-0.7614094488188977
 30
0.0
 10
0.4534527559055118
 20
-0.7459133858267717
 30
0.0
 10
0.4534527559055118
 20
-0.7459133858267717
 30
0.0
 10
0.4534527559055118
 20
-0.7459133858267717
 30
0.0
 10
0.4534527559055118
 20
-0.7459133858267717
 30
0.0
 10
0.4761181102362205
 20
-0.7313031496062993
 30
0.0
 10
0.4761181102362205
 20
-0.7313031496062993
 30
0.0
 10
0.4761181102362205
 20
-0.7313031496062993
 30
0.0
 10
0.4761181102362205
 20
-0.7313031496062993
 30
0.0
 10
0.4993858267716536
 20
-0.7175708661417323
 30
0.0
 10
0.4993858267716536
 20
-0.7175708661417323
 30
0.0
 10
0.4993858267716536
 20
-0.7175708661417323
 30
0.0
 10
0.4993858267716536
 20
-0.7175708661417323
 30
0.0
 10
0.5232795275590552
 20
-0.7047007874015748
 30
0.0
 10
0.5232795275590552
 20
-0.7047007874015748
 30
0.0
 10
0.5232795275590552
 20
-0.7047007874015748
 30
0.0
 10
0.5232795275590552
 20
-0.7047007874015748
 30
0.0
 10
0.5477992125984252
 20
-0.6926889763779528
 30
0.0
 10
0.5477992125984252
 20
-0.6926889763779528
 30
0.0
 10
0.5477992125984252
 20
-0.6926889763779528
 30
0.0
 10
0.5477992125984252
 20
-0.6926889763779528
 30
0.0
 10
0.5729566929133858
 20
-0.6815275590551181
 30
0.0
 10
0.5729566929133858
 20
-0.6815275590551181
 30
0.0
 10
0.5729566929133858
 20
-0.6815275590551181
 30
0.0
 10
0.5729566929133858
 20
-0.6815275590551181
 30
0.0
 10
0.598755905511811
 20
-0.6712125984251969
 30
0.0
 10
0.598755905511811
 20
-0.6712125984251969
 30
0.0
 10
0.598755905511811
 20
-0.6712125984251969
 30
0.0
 10
0.598755905511811
 20
-0.6712125984251969
 30
0.0
 10
0.6252125984251968
 20
-0.6617165354330709
 30
0.0
 10
0.6252125984251968
 20
-0.6617165354330709
 30
0.0
 10
0.6252125984251968
 20
-0.6617165354330709
 30
0.0
 10
0.6252125984251968
 20
-0.6617165354330709
 30
0.0
 10
0.6523228346456693
 20
-0.6530511811023623
 30
0.0
 10
0.6523228346456693
 20
-0.6530511811023623
 30
0.0
 10
0.6523228346456693
 20
-0.6530511811023623
 30
0.0
 10
0.6523228346456693
 20
-0.6530511811023623
 30
0.0
 10
0.6800984251968504
 20
-0.6451968503937008
 30
0.0
 10
0.6800984251968504
 20
-0.6451968503937008
 30
0.0
 10
0.6800984251968504
 20
-0.6451968503937008
 30
0.0
 10
0.6800984251968504
 20
-0.6451968503937008
 30
0.0
 10
0.7085629921259843
 20
-0.6381574803149607
 30
0.0
 10
0.7085629921259843
 20
-0.6381574803149607
 30
0.0
 10
0.7085629921259843
 20
-0.6381574803149607
 30
0.0
 10
0.7085629921259843
 20
-0.6381574803149607
 30
0.0
 10
0.7377047244094489
 20
-0.6319015748031497
 30
0.0
 10
0.7377047244094489
 20
-0.6319015748031497
 30
0.0
 10
0.7377047244094489
 20
-0.6319015748031497
 30
0.0
 10
0.7377047244094489
 20
-0.6319015748031497
 30
0.0
 10
0.7675433070866142
 20
-0.6264409448818898
 30
0.0
 10
0.7675433070866142
 20
-0.6264409448818898
 30
0.0
 10
0.7675433070866142
 20
-0.6264409448818898
 30
0.0
 10
0.7675433070866142
 20
-0.6264409448818898
 30
0.0
 10
0.7980787401574804
 20
-0.6217598425196851
 30
0.0
 10
0.7980787401574804
 20
-0.6217598425196851
 30
0.0
 10
0.7980787401574804
 20
-0.6217598425196851
 30
0.0
 10
0.7980787401574804
 20
-0.6217598425196851
 30
0.0
 10
0.8293307086614173
 20
-0.6178543307086615
 30
0.0
 10
0.8293307086614173
 20
-0.6178543307086615
 30
0.0
 10
0.8293307086614173
 20
-0.6178543307086615
 30
0.0
 10
0.8293307086614173
 20
-0.6178543307086615
 30
0.0
 10
0.1845787401574803
 20
-0.237236220472441
 30
0.0
 10
0.1845787401574803
 20
-0.237236220472441
 30
0.0
 10
0.1845787401574803
 20
-0.237236220472441
 30
0.0
 10
0.1845787401574803
 20
-0.237236220472441
 30
0.0
 10
0.1533267716535433
 20
-0.2411417322834646
 30
0.0
 10
0.1533267716535433
 20
-0.2411417322834646
 30
0.0
 10
0.1533267716535433
 20
-0.2411417322834646
 30
0.0
 10
0.1533267716535433
 20
-0.2411417322834646
 30
0.0
 10
0.1227913385826772
 20
-0.2458228346456693
 30
0.0
 10
0.1227913385826772
 20
-0.2458228346456693
 30
0.0
 10
0.1227913385826772
 20
-0.2458228346456693
 30
0.0
 10
0.1227913385826772
 20
-0.2458228346456693
 30
0.0
 10
0.0929527559055118
 20
-0.2512834645669291
 30
0.0
 10
0.0929527559055118
 20
-0.2512834645669291
 30
0.0
 10
0.0929527559055118
 20
-0.2512834645669291
 30
0.0
 10
0.0929527559055118
 20
-0.2512834645669291
 30
0.0
 10
0.0638110236220472
 20
-0.2575393700787402
 30
0.0
 10
0.0638110236220472
 20
-0.2575393700787402
 30
0.0
 10
0.0638110236220472
 20
-0.2575393700787402
 30
0.0
 10
0.0638110236220472
 20
-0.2575393700787402
 30
0.0
 10
0.0353464566929134
 20
-0.2645787401574803
 30
0.0
 10
0.0353464566929134
 20
-0.2645787401574803
 30
0.0
 10
0.0353464566929134
 20
-0.2645787401574803
 30
0.0
 10
0.0353464566929134
 20
-0.2645787401574803
 30
0.0
 10
0.0075708661417323
 20
-0.2724330708661418
 30
0.0
 10
0.0075708661417323
 20
-0.2724330708661418
 30
0.0
 10
0.0075708661417323
 20
-0.2724330708661418
 30
0.0
 10
0.0075708661417323
 20
-0.2724330708661418
 30
0.0
 10
-0.0195393700787402
 20
-0.2810984251968504
 30
0.0
 10
-0.0195393700787402
 20
-0.2810984251968504
 30
0.0
 10
-0.0195393700787402
 20
-0.2810984251968504
 30
0.0
 10
-0.0195393700787402
 20
-0.2810984251968504
 30
0.0
 10
-0.045996062992126
 20
-0.2905944881889764
 30
0.0
 10
-0.045996062992126
 20
-0.2905944881889764
 30
0.0
 10
-0.045996062992126
 20
-0.2905944881889764
 30
0.0
 10
-0.045996062992126
 20
-0.2905944881889764
 30
0.0
 10
-0.0717952755905512
 20
-0.3009094488188976
 30
0.0
 10
-0.0717952755905512
 20
-0.3009094488188976
 30
0.0
 10
-0.0717952755905512
 20
-0.3009094488188976
 30
0.0
 10
-0.0717952755905512
 20
-0.3009094488188976
 30
0.0
 10
-0.0969527559055118
 20
-0.3120708661417323
 30
0.0
 10
-0.0969527559055118
 20
-0.3120708661417323
 30
0.0
 10
-0.0969527559055118
 20
-0.3120708661417323
 30
0.0
 10
-0.0969527559055118
 20
-0.3120708661417323
 30
0.0
 10
-0.1214724409448819
 20
-0.3240826771653543
 30
0.0
 10
-0.1214724409448819
 20
-0.3240826771653543
 30
0.0
 10
-0.1214724409448819
 20
-0.3240826771653543
 30
0.0
 10
-0.1214724409448819
 20
-0.3240826771653543
 30
0.0
 10
-0.1453661417322835
 20
-0.3369527559055118
 30
0.0
 10
-0.1453661417322835
 20
-0.3369527559055118
 30
0.0
 10
-0.1453661417322835
 20
-0.3369527559055118
 30
0.0
 10
-0.1453661417322835
 20
-0.3369527559055118
 30
0.0
 10
-0.1686338582677165
 20
-0.3506850393700788
 30
0.0
 10
-0.1686338582677165
 20
-0.3506850393700788
 30
0.0
 10
-0.1686338582677165
 20
-0.3506850393700788
 30
0.0
 10
-0.1686338582677165
 20
-0.3506850393700788
 30
0.0
 10
-0.1912992125984252
 20
-0.3652952755905512
 30
0.0
 10
-0.1912992125984252
 20
-0.3652952755905512
 30
0.0
 10
-0.1912992125984252
 20
-0.3652952755905512
 30
0.0
 10
-0.1912992125984252
 20
-0.3652952755905512
 30
0.0
 10
-0.2133543307086614
 20
-0.3807913385826772
 30
0.0
 10
-0.2133543307086614
 20
-0.3807913385826772
 30
0.0
 10
-0.2133543307086614
 20
-0.3807913385826772
 30
0.0
 10
-0.2133543307086614
 20
-0.3807913385826772
 30
0.0
 10
-0.2348228346456693
 20
-0.3971850393700788
 30
0.0
 10
-0.2348228346456693
 20
-0.3971850393700788
 30
0.0
 10
-0.2348228346456693
 20
-0.3971850393700788
 30
0.0
 10
-0.2348228346456693
 20
-0.3971850393700788
 30
0.0
 10
-0.2556929133858268
 20
-0.4144685039370079
 30
0.0
 10
-0.2556929133858268
 20
-0.4144685039370079
 30
0.0
 10
-0.2556929133858268
 20
-0.4144685039370079
 30
0.0
 10
-0.2556929133858268
 20
-0.4144685039370079
 30
0.0
 10
-0.275988188976378
 20
-0.4326692913385827
 30
0.0
 10
-0.275988188976378
 20
-0.4326692913385827
 30
0.0
 10
-0.275988188976378
 20
-0.4326692913385827
 30
0.0
 10
-0.275988188976378
 20
-0.4326692913385827
 30
0.0
 10
-0.2957086614173228
 20
-0.4517874015748032
 30
0.0
 10
-0.2957086614173228
 20
-0.4517874015748032
 30
0.0
 10
-0.2957086614173228
 20
-0.4517874015748032
 30
0.0
 10
-0.2957086614173228
 20
-0.4517874015748032
 30
0.0
 10
-0.3148700787401575
 20
-0.4718385826771654
 30
0.0
 10
-0.3148700787401575
 20
-0.4718385826771654
 30
0.0
 10
-0.3148700787401575
 20
-0.4718385826771654
 30
0.0
 10
-0.3148700787401575
 20
-0.4718385826771654
 30
0.0
 10
-0.3334685039370079
 20
-0.4928188976377953
 30
0.0
 10
-0.3334685039370079
 20
-0.4928188976377953
 30
0.0
 10
-0.3334685039370079
 20
-0.4928188976377953
 30
0.0
 10
-0.3334685039370079
 20
-0.4928188976377953
 30
0.0
 10
-0.3515236220472441
 20
-0.514751968503937
 30
0.0
 10
-0.3515236220472441
 20
-0.514751968503937
 30
0.0
 10
-0.3515236220472441
 20
-0.514751968503937
 30
0.0
 10
-0.3515236220472441
 20
-0.514751968503937
 30
0.0
 10
-0.3690393700787402
 20
-0.5376338582677166
 30
0.0
 10
-0.3690393700787402
 20
-0.5376338582677166
 30
0.0
 10
-0.3690393700787402
 20
-0.5376338582677166
 30
0.0
 10
-0.3690393700787402
 20
-0.5376338582677166
 30
0.0
 10
-0.3860275590551182
 20
-0.561488188976378
 30
0.0
 10
-0.3860275590551182
 20
-0.561488188976378
 30
0.0
 10
-0.3860275590551182
 20
-0.561488188976378
 30
0.0
 10
-0.3860275590551182
 20
-0.561488188976378
 30
0.0
 10
-0.402484251968504
 20
-0.5863031496062993
 30
0.0
 10
-0.402484251968504
 20
-0.5863031496062993
 30
0.0
 10
-0.402484251968504
 20
-0.5863031496062993
 30
0.0
 10
-0.402484251968504
 20
-0.5863031496062993
 30
0.0
 10
-0.4184291338582677
 20
-0.6121062992125984
 30
0.0
 10
-0.4184291338582677
 20
-0.6121062992125984
 30
0.0
 10
-0.4184291338582677
 20
-0.6121062992125984
 30
0.0
 10
-0.4184291338582677
 20
-0.6121062992125984
 30
0.0
 10
-0.4338661417322835
 20
-0.6388937007874016
 30
0.0
 10
-0.4338661417322835
 20
-0.6388937007874016
 30
0.0
 10
-0.4338661417322835
 20
-0.6388937007874016
 30
0.0
 10
-0.4338661417322835
 20
-0.6388937007874016
 30
0.0
 10
-0.4488070866141732
 20
-0.6666889763779528
 30
0.0
 10
-0.4488070866141732
 20
-0.6666889763779528
 30
0.0
 10
-0.4488070866141732
 20
-0.6666889763779528
 30
0.0
 10
-0.4488070866141732
 20
-0.6666889763779528
 30
0.0
 10
-0.463251968503937
 20
-0.6954803149606299
 30
0.0
 10
-0.463251968503937
 20
-0.6954803149606299
 30
0.0
 10
-0.463251968503937
 20
-0.6954803149606299
 30
0.0
 10
-0.463251968503937
 20
-0.6954803149606299
 30
0.0
 10
-0.4772165354330709
 20
-0.7252952755905512
 30
0.0
 10
-0.4772165354330709
 20
-0.7252952755905512
 30
0.0
 10
-0.4772165354330709
 20
-0.7252952755905512
 30
0.0
 10
-0.4772165354330709
 20
-0.7252952755905512
 30
0.0
 10
-0.4907047244094488
 20
-0.7561299212598426
 30
0.0
 10
-0.4907047244094488
 20
-0.7561299212598426
 30
0.0
 10
-0.4907047244094488
 20
-0.7561299212598426
 30
0.0
 10
-0.4907047244094488
 20
-0.7561299212598426
 30
0.0
 10
-0.503732283464567
 20
-0.788007874015748
 30
0.0
 10
-0.503732283464567
 20
-0.788007874015748
 30
0.0
  0
SPLINE
  5
4C
100
AcDbEntity
  8
Layer 1
 62
     9
100
AcDbSpline
210
0.0
220
0.0
230
1.0
 70
     1
 71
     3
 72
    20
 73
    16
 74
     0
 42
0.0000000001
 43
0.0000000001
 40
0.0
 40
0.0
 40
0.0
 40
0.0
 40
0.25
 40
0.25
 40
0.25
 40
0.25
 40
0.5
 40
0.5
 40
0.5
 40
0.5
 40
0.75
 40
0.75
 40
0.75
 40
0.75
 40
1.0
 40
1.0
 40
1.0
 40
1.0
 10
0.1845787401574803
 20
-0.237236220472441
 30
0.0
 10
0.1845787401574803
 20
-0.237236220472441
 30
0.0
 10
0.8293307086614173
 20
-0.6178543307086615
 30
0.0
 10
0.8293307086614173
 20
-0.6178543307086615
 30
0.0
 10
0.8293307086614173
 20
-0.6178543307086615
 30
0.0
 10
0.8293307086614173
 20
-0.6178543307086615
 30
0.0
 10
0.8273307086614173
 20
-0.4724645669291339
 30
0.0
 10
0.8273307086614173
 20
-0.4724645669291339
 30
0.0
 10
0.8273307086614173
 20
-0.4724645669291339
 30
0.0
 10
0.8273307086614173
 20
-0.4724645669291339
 30
0.0
 10
0.1825787401574803
 20
-0.0918464566929134
 30
0.0
 10
0.1825787401574803
 20
-0.0918464566929134
 30
0.0
 10
0.1825787401574803
 20
-0.0918464566929134
 30
0.0
 10
0.1825787401574803
 20
-0.0918464566929134
 30
0.0
 10
0.1845787401574803
 20
-0.237236220472441
 30
0.0
 10
0.1845787401574803
 20
-0.237236220472441
 30
0.0
  0
SPLINE
  5
4D
100
AcDbEntity
  8
Layer 1
370
     5
100
AcDbSpline
210
0.0
220
0.0
230
1.0
 70
     1
 71
     3
 72
    20
 73
    16
 74
     0
 42
0.0000000001
 43
0.0000000001
 40
0.0
 40
0.0
 40
0.0
 40
0.0
 40
0.25
 40
0.25
 40
0.25
 40
0.25
 40
0.5
 40
0.5
 40
0.5
 40
0.5
 40
0.75
 40
0.75
 40
0.75
 40
0.75
 40
1.0
 40
1.0
 40
1.0
 40
1.0
 10
0.1845787401574803
 20
-0.237236220472441
 30
0.0
 10
0.1845787401574803
 20
-0.237236220472441
 30
0.0
 10
0.8293307086614173
 20
-0.6178543307086615
 30
0.0
 10
0.8293307086614173
 20
-0.6178543307086615
 30
0.0
 10
0.8293307086614173
 20
-0.6178543307086615
 30
0.0
 10
0.8293307086614173
 20
-0.6178543307086615
 30
0.0
 10
0.8273307086614173
 20
-0.4724645669291339
 30
0.0
 10
0.8273307086614173
 20
-0.4724645669291339
 30
0.0
 10
0.8273307086614173
 20
-0.4724645669291339
 30
0.0
 10
0.8273307086614173
 20
-0.4724645669291339
 30
0.0
 10
0.1825787401574803
 20
-0.0918464566929134
 30
0.0
 10
0.1825787401574803
 20
-0.0918464566929134
 30
0.0
 10
0.1825787401574803
 20
-0.0918464566929134
 30
0.0
 10
0.1825787401574803
 20
-0.0918464566929134
 30
0.0
 10
0.1845787401574803
 20
-0.237236220472441
 30
0.0
 10
0.1845787401574803
 20
-0.237236220472441
 30
0.0
  0
SPLINE
  5
4E
100
AcDbEntity
  8
Layer 1
 62
     9
100
AcDbSpline
210
0.0
220
0.0
230
1.0
 70
     1
 71
     3
 72
    28
 73
    24
 74
     0
 42
0.0000000001
 43
0.0000000001
 40
0.0
 40
0.0
 40
0.0
 40
0.0
 40
0.1666666666666667
 40
0.1666666666666667
 40
0.1666666666666667
 40
0.1666666666666667
 40
0.3333333333333333
 40
0.3333333333333333
 40
0.3333333333333333
 40
0.3333333333333333
 40
0.5
 40
0.5
 40
0.5
 40
0.5
 40
0.6666666666666666
 40
0.6666666666666666
 40
0.6666666666666666
 40
0.6666666666666666
 40
0.8333333333333333
 40
0.8333333333333333
 40
0.8333333333333333
 40
0.8333333333333333
 40
1.0
 40
1.0
 40
1.0
 40
1.0
 10
0.1825787401574803
 20
-0.0918464566929134
 30
0.0
 10
0.1825787401574803
 20
-0.0918464566929134
 30
0.0
 10
0.8273307086614173
 20
-0.4724645669291339
 30
0.0
 10
0.8273307086614173
 20
-0.4724645669291339
 30
0.0
 10
0.8273307086614173
 20
-0.4724645669291339
 30
0.0
 10
0.8273307086614173
 20
-0.4724645669291339
 30
0.0
 10
0.8484645669291339
 20
-0.4706771653543307
 30
0.0
 10
0.8484645669291339
 20
-0.4706771653543307
 30
0.0
 10
0.8484645669291339
 20
-0.4706771653543307
 30
0.0
 10
0.8484645669291339
 20
-0.4706771653543307
 30
0.0
 10
0.8689015748031497
 20
-0.4680511811023622
 30
0.0
 10
0.8689015748031497
 20
-0.4680511811023622
 30
0.0
 10
0.8689015748031497
 20
-0.4680511811023622
 30
0.0
 10
0.8689015748031497
 20
-0.4680511811023622
 30
0.0
 10
0.2241496062992126
 20
-0.0874330708661417
 30
0.0
 10
0.2241496062992126
 20
-0.0874330708661417
 30
0.0
 10
0.2241496062992126
 20
-0.0874330708661417
 30
0.0
 10
0.2241496062992126
 20
-0.0874330708661417
 30
0.0
 10
0.2037125984251968
 20
-0.0900590551181102
 30
0.0
 10
0.2037125984251968
 20
-0.0900590551181102
 30
0.0
 10
0.2037125984251968
 20
-0.0900590551181102
 30
0.0
 10
0.2037125984251968
 20
-0.0900590551181102
 30
0.0
 10
0.1825787401574803
 20
-0.0918464566929134
 30
0.0
 10
0.1825787401574803
 20
-0.0918464566929134
 30
0.0
  0
SPLINE
  5
4F
100
AcDbEntity
  8
Layer 1
 62
     9
100
AcDbSpline
210
0.0
220
0.0
230
1.0
 70
     1
 71
     3
 72
    28
 73
    24
 74
     0
 42
0.0000000001
 43
0.0000000001
 40
0.0
 40
0.0
 40
0.0
 40
0.0
 40
0.1666666666666667
 40
0.1666666666666667
 40
0.1666666666666667
 40
0.1666666666666667
 40
0.3333333333333333
 40
0.3333333333333333
 40
0.3333333333333333
 40
0.3333333333333333
 40
0.5
 40
0.5
 40
0.5
 40
0.5
 40
0.6666666666666666
 40
0.6666666666666666
 40
0.6666666666666666
 40
0.6666666666666666
 40
0.8333333333333333
 40
0.8333333333333333
 40
0.8333333333333333
 40
0.8333333333333333
 40
1.0
 40
1.0
 40
1.0
 40
1.0
 10
0.2241496062992126
 20
-0.0874330708661417
 30
0.0
 10
0.2241496062992126
 20
-0.0874330708661417
 30
0.0
 10
0.8689015748031497
 20
-0.4680511811023622
 30
0.0
 10
0.8689015748031497
 20
-0.4680511811023622
 30
0.0
 10
0.8689015748031497
 20
-0.4680511811023622
 30
0.0
 10
0.8689015748031497
 20
-0.4680511811023622
 30
0.0
 10
0.8886417322834646
 20
-0.4646102362204725
 30
0.0
 10
0.8886417322834646
 20
-0.4646102362204725
 30
0.0
 10
0.8886417322834646
 20
-0.4646102362204725
 30
0.0
 10
0.8886417322834646
 20
-0.4646102362204725
 30
0.0
 10
0.9076889763779528
 20
-0.4604055118110236
 30
0.0
 10
0.9076889763779528
 20
-0.4604055118110236
 30
0.0
 10
0.9076889763779528
 20
-0.4604055118110236
 30
0.0
 10
0.9076889763779528
 20
-0.4604055118110236
 30
0.0
 10
0.2629370078740158
 20
-0.0797874015748032
 30
0.0
 10
0.2629370078740158
 20
-0.0797874015748032
 30
0.0
 10
0.2629370078740158
 20
-0.0797874015748032
 30
0.0
 10
0.2629370078740158
 20
-0.0797874015748032
 30
0.0
 10
0.2438897637795276
 20
-0.083992125984252
 30
0.0
 10
0.2438897637795276
 20
-0.083992125984252
 30
0.0
 10
0.2438897637795276
 20
-0.083992125984252
 30
0.0
 10
0.2438897637795276
 20
-0.083992125984252
 30
0.0
 10
0.2241496062992126
 20
-0.0874330708661417
 30
0.0
 10
0.2241496062992126
 20
-0.0874330708661417
 30
0.0
  0
SPLINE
  5
50
100
AcDbEntity
  8
Layer 1
 62
     9
100
AcDbSpline
210
0.0
220
0.0
230
1.0
 70
     1
 71
     3
 72
    28
 73
    24
 74
     0
 42
0.0000000001
 43
0.0000000001
 40
0.0
 40
0.0
 40
0.0
 40
0.0
 40
0.1666666666666667
 40
0.1666666666666667
 40
0.1666666666666667
 40
0.1666666666666667
 40
0.3333333333333333
 40
0.3333333333333333
 40
0.3333333333333333
 40
0.3333333333333333
 40
0.5
 40
0.5
 40
0.5
 40
0.5
 40
0.6666666666666666
 40
0.6666666666666666
 40
0.6666666666666666
 40
0.6666666666666666
 40
0.8333333333333333
 40
0.8333333333333333
 40
0.8333333333333333
 40
0.8333333333333333
 40
1.0
 40
1.0
 40
1.0
 40
1.0
 10
0.2629370078740158
 20
-0.0797874015748032
 30
0.0
 10
0.2629370078740158
 20
-0.0797874015748032
 30
0.0
 10
0.9076889763779528
 20
-0.4604055118110236
 30
0.0
 10
0.9076889763779528
 20
-0.4604055118110236
 30
0.0
 10
0.9076889763779528
 20
-0.4604055118110236
 30
0.0
 10
0.9076889763779528
 20
-0.4604055118110236
 30
0.0
 10
0.9260354330708662
 20
-0.4554645669291339
 30
0.0
 10
0.9260354330708662
 20
-0.4554645669291339
 30
0.0
 10
0.9260354330708662
 20
-0.4554645669291339
 30
0.0
 10
0.9260354330708662
 20
-0.4554645669291339
 30
0.0
 10
0.9437047244094489
 20
-0.4498464566929134
 30
0.0
 10
0.9437047244094489
 20
-0.4498464566929134
 30
0.0
 10
0.9437047244094489
 20
-0.4498464566929134
 30
0.0
 10
0.9437047244094489
 20
-0.4498464566929134
 30
0.0
 10
0.2989527559055119
 20
-0.0692283464566929
 30
0.0
 10
0.2989527559055119
 20
-0.0692283464566929
 30
0.0
 10
0.2989527559055119
 20
-0.0692283464566929
 30
0.0
 10
0.2989527559055119
 20
-0.0692283464566929
 30
0.0
 10
0.2812834645669292
 20
-0.0748464566929134
 30
0.0
 10
0.2812834645669292
 20
-0.0748464566929134
 30
0.0
 10
0.2812834645669292
 20
-0.0748464566929134
 30
0.0
 10
0.2812834645669292
 20
-0.0748464566929134
 30
0.0
 10
0.2629370078740158
 20
-0.0797874015748032
 30
0.0
 10
0.2629370078740158
 20
-0.0797874015748032
 30
0.0
  0
SPLINE
  5
51
100
AcDbEntity
  8
Layer 1
 62
     9
100
AcDbSpline
210
0.0
220
0.0
230
1.0
 70
     1
 71
     3
 72
    28
 73
    24
 74
     0
 42
0.0000000001
 43
0.0000000001
 40
0.0
 40
0.0
 40
0.0
 40
0.0
 40
0.1666666666666667
 40
0.1666666666666667
 40
0.1666666666666667
 40
0.1666666666666667
 40
0.3333333333333333
 40
0.3333333333333333
 40
0.3333333333333333
 40
0.3333333333333333
 40
0.5
 40
0.5
 40
0.5
 40
0.5
 40
0.6666666666666666
 40
0.6666666666666666
 40
0.6666666666666666
 40
0.6666666666666666
 40
0.8333333333333333
 40
0.8333333333333333
 40
0.8333333333333333
 40
0.8333333333333333
 40
1.0
 40
1.0
 40
1.0
 40
1.0
 10
0.2989527559055119
 20
-0.0692283464566929
 30
0.0
 10
0.2989527559055119
 20
-0.0692283464566929
 30
0.0
 10
0.9437047244094489
 20
-0.4498464566929134
 30
0.0
 10
0.9437047244094489
 20
-0.4498464566929134
 30
0.0
 10
0.9437047244094489
 20
-0.4498464566929134
 30
0.0
 10
0.9437047244094489
 20
-0.4498464566929134
 30
0.0
 10
0.9606889763779528
 20
-0.4435748031496063
 30
0.0
 10
0.9606889763779528
 20
-0.4435748031496063
 30
0.0
 10
0.9606889763779528
 20
-0.4435748031496063
 30
0.0
 10
0.9606889763779528
 20
-0.4435748031496063
 30
0.0
 10
0.976992125984252
 20
-0.4366968503937008
 30
0.0
 10
0.976992125984252
 20
-0.4366968503937008
 30
0.0
 10
0.976992125984252
 20
-0.4366968503937008
 30
0.0
 10
0.976992125984252
 20
-0.4366968503937008
 30
0.0
 10
0.332240157480315
 20
-0.0560787401574803
 30
0.0
 10
0.332240157480315
 20
-0.0560787401574803
 30
0.0
 10
0.332240157480315
 20
-0.0560787401574803
 30
0.0
 10
0.332240157480315
 20
-0.0560787401574803
 30
0.0
 10
0.3159370078740157
 20
-0.0629566929133858
 30
0.0
 10
0.3159370078740157
 20
-0.0629566929133858
 30
0.0
 10
0.3159370078740157
 20
-0.0629566929133858
 30
0.0
 10
0.3159370078740157
 20
-0.0629566929133858
 30
0.0
 10
0.2989527559055119
 20
-0.0692283464566929
 30
0.0
 10
0.2989527559055119
 20
-0.0692283464566929
 30
0.0
  0
SPLINE
  5
52
100
AcDbEntity
  8
Layer 1
 62
     9
100
AcDbSpline
210
0.0
220
0.0
230
1.0
 70
     1
 71
     3
 72
    28
 73
    24
 74
     0
 42
0.0000000001
 43
0.0000000001
 40
0.0
 40
0.0
 40
0.0
 40
0.0
 40
0.1666666666666667
 40
0.1666666666666667
 40
0.1666666666666667
 40
0.1666666666666667
 40
0.3333333333333333
 40
0.3333333333333333
 40
0.3333333333333333
 40
0.3333333333333333
 40
0.5
 40
0.5
 40
0.5
 40
0.5
 40
0.6666666666666666
 40
0.6666666666666666
 40
0.6666666666666666
 40
0.6666666666666666
 40
0.8333333333333333
 40
0.8333333333333333
 40
0.8333333333333333
 40
0.8333333333333333
 40
1.0
 40
1.0
 40
1.0
 40
1.0
 10
0.332240157480315
 20
-0.0560787401574803
 30
0.0
 10
0.332240157480315
 20
-0.0560787401574803
 30
0.0
 10
0.976992125984252
 20
-0.4366968503937008
 30
0.0
 10
0.976992125984252
 20
-0.4366968503937008
 30
0.0
 10
0.976992125984252
 20
-0.4366968503937008
 30
0.0
 10
0.976992125984252
 20
-0.4366968503937008
 30
0.0
 10
0.9926102362204725
 20
-0.429240157480315
 30
0.0
 10
0.9926102362204725
 20
-0.429240157480315
 30
0.0
 10
0.9926102362204725
 20
-0.429240157480315
 30
0.0
 10
0.9926102362204725
 20
-0.429240157480315
 30
0.0
 10
1.0075590551181102
 20
-0.4212637795275591
 30
0.0
 10
1.0075590551181102
 20
-0.4212637795275591
 30
0.0
 10
1.0075590551181102
 20
-0.4212637795275591
 30
0.0
 10
1.0075590551181102
 20
-0.4212637795275591
 30
0.0
 10
0.3628070866141733
 20
-0.0406456692913386
 30
0.0
 10
0.3628070866141733
 20
-0.0406456692913386
 30
0.0
 10
0.3628070866141733
 20
-0.0406456692913386
 30
0.0
 10
0.3628070866141733
 20
-0.0406456692913386
 30
0.0
 10
0.3478582677165354
 20
-0.0486220472440945
 30
0.0
 10
0.3478582677165354
 20
-0.0486220472440945
 30
0.0
 10
0.3478582677165354
 20
-0.0486220472440945
 30
0.0
 10
0.3478582677165354
 20
-0.0486220472440945
 30
0.0
 10
0.332240157480315
 20
-0.0560787401574803
 30
0.0
 10
0.332240157480315
 20
-0.0560787401574803
 30
0.0
  0
SPLINE
  5
53
100
AcDbEntity
  8
Layer 1
 62
     9
100
AcDbSpline
210
0.0
220
0.0
230
1.0
 70
     1
 71
     3
 72
    36
 73
    32
 74
     0
 42
0.0000000001
 43
0.0000000001
 40
0.0
 40
0.0
 40
0.0
 40
0.0
 40
0.125
 40
0.125
 40
0.125
 40
0.125
 40
0.25
 40
0.25
 40
0.25
 40
0.25
 40
0.375
 40
0.375
 40
0.375
 40
0.375
 40
0.5
 40
0.5
 40
0.5
 40
0.5
 40
0.625
 40
0.625
 40
0.625
 40
0.625
 40
0.75
 40
0.75
 40
0.75
 40
0.75
 40
0.875
 40
0.875
 40
0.875
 40
0.875
 40
1.0
 40
1.0
 40
1.0
 40
1.0
 10
0.3628070866141733
 20
-0.0406456692913386
 30
0.0
 10
0.3628070866141733
 20
-0.0406456692913386
 30
0.0
 10
1.0075590551181102
 20
-0.4212637795275591
 30
0.0
 10
1.0075590551181102
 20
-0.4212637795275591
 30
0.0
 10
1.0075590551181102
 20
-0.4212637795275591
 30
0.0
 10
1.0075590551181102
 20
-0.4212637795275591
 30
0.0
 10
1.0218307086614173
 20
-0.4127952755905512
 30
0.0
 10
1.0218307086614173
 20
-0.4127952755905512
 30
0.0
 10
1.0218307086614173
 20
-0.4127952755905512
 30
0.0
 10
1.0218307086614173
 20
-0.4127952755905512
 30
0.0
 10
1.0354448818897639
 20
-0.4038858267716536
 30
0.0
 10
1.0354448818897639
 20
-0.4038858267716536
 30
0.0
 10
1.0354448818897639
 20
-0.4038858267716536
 30
0.0
 10
1.0354448818897639
 20
-0.4038858267716536
 30
0.0
 10
1.0483897637795276
 20
-0.3945551181102363
 30
0.0
 10
1.0483897637795276
 20
-0.3945551181102363
 30
0.0
 10
1.0483897637795276
 20
-0.3945551181102363
 30
0.0
 10
1.0483897637795276
 20
-0.3945551181102363
 30
0.0
 10
0.4036377952755906
 20
-0.0139370078740157
 30
0.0
 10
0.4036377952755906
 20
-0.0139370078740157
 30
0.0
 10
0.4036377952755906
 20
-0.0139370078740157
 30
0.0
 10
0.4036377952755906
 20
-0.0139370078740157
 30
0.0
 10
0.3906929133858268
 20
-0.0232677165354331
 30
0.0
 10
0.3906929133858268
 20
-0.0232677165354331
 30
0.0
 10
0.3906929133858268
 20
-0.0232677165354331
 30
0.0
 10
0.3906929133858268
 20
-0.0232677165354331
 30
0.0
 10
0.3770787401574803
 20
-0.0321771653543307
 30
0.0
 10
0.3770787401574803
 20
-0.0321771653543307
 30
0.0
 10
0.3770787401574803
 20
-0.0321771653543307
 30
0.0
 10
0.3770787401574803
 20
-0.0321771653543307
 30
0.0
 10
0.3628070866141733
 20
-0.0406456692913386
 30
0.0
 10
0.3628070866141733
 20
-0.0406456692913386
 30
0.0
  0
SPLINE
  5
54
100
AcDbEntity
  8
Layer 1
 62
     9
100
AcDbSpline
210
0.0
220
0.0
230
1.0
 70
     1
 71
     3
 72
    36
 73
    32
 74
     0
 42
0.0000000001
 43
0.0000000001
 40
0.0
 40
0.0
 40
0.0
 40
0.0
 40
0.125
 40
0.125
 40
0.125
 40
0.125
 40
0.25
 40
0.25
 40
0.25
 40
0.25
 40
0.375
 40
0.375
 40
0.375
 40
0.375
 40
0.5
 40
0.5
 40
0.5
 40
0.5
 40
0.625
 40
0.625
 40
0.625
 40
0.625
 40
0.75
 40
0.75
 40
0.75
 40
0.75
 40
0.875
 40
0.875
 40
0.875
 40
0.875
 40
1.0
 40
1.0
 40
1.0
 40
1.0
 10
0.4036377952755906
 20
-0.0139370078740157
 30
0.0
 10
0.4036377952755906
 20
-0.0139370078740157
 30
0.0
 10
1.0483897637795276
 20
-0.3945551181102363
 30
0.0
 10
1.0483897637795276
 20
-0.3945551181102363
 30
0.0
 10
1.0483897637795276
 20
-0.3945551181102363
 30
0.0
 10
1.0483897637795276
 20
-0.3945551181102363
 30
0.0
 10
1.0606732283464568
 20
-0.3848661417322835
 30
0.0
 10
1.0606732283464568
 20
-0.3848661417322835
 30
0.0
 10
1.0606732283464568
 20
-0.3848661417322835
 30
0.0
 10
1.0606732283464568
 20
-0.3848661417322835
 30
0.0
 10
1.0723031496062994
 20
-0.3748503937007874
 30
0.0
 10
1.0723031496062994
 20
-0.3748503937007874
 30
0.0
 10
1.0723031496062994
 20
-0.3748503937007874
 30
0.0
 10
1.0723031496062994
 20
-0.3748503937007874
 30
0.0
 10
1.0832795275590552
 20
-0.3645393700787402
 30
0.0
 10
1.0832795275590552
 20
-0.3645393700787402
 30
0.0
 10
1.0832795275590552
 20
-0.3645393700787402
 30
0.0
 10
1.0832795275590552
 20
-0.3645393700787402
 30
0.0
 10
0.4385275590551181
 20
0.0160787401574803
 30
0.0
 10
0.4385275590551181
 20
0.0160787401574803
 30
0.0
 10
0.4385275590551181
 20
0.0160787401574803
 30
0.0
 10
0.4385275590551181
 20
0.0160787401574803
 30
0.0
 10
0.4275511811023622
 20
0.0057677165354331
 30
0.0
 10
0.4275511811023622
 20
0.0057677165354331
 30
0.0
 10
0.4275511811023622
 20
0.0057677165354331
 30
0.0
 10
0.4275511811023622
 20
0.0057677165354331
 30
0.0
 10
0.4159212598425197
 20
-0.004248031496063
 30
0.0
 10
0.4159212598425197
 20
-0.004248031496063
 30
0.0
 10
0.4159212598425197
 20
-0.004248031496063
 30
0.0
 10
0.4159212598425197
 20
-0.004248031496063
 30
0.0
 10
0.4036377952755906
 20
-0.0139370078740157
 30
0.0
 10
0.4036377952755906
 20
-0.0139370078740157
 30
0.0
  0
SPLINE
  5
55
100
AcDbEntity
  8
Layer 1
 62
     9
100
AcDbSpline
210
0.0
220
0.0
230
1.0
 70
     1
 71
     3
 72
    36
 73
    32
 74
     0
 42
0.0000000001
 43
0.0000000001
 40
0.0
 40
0.0
 40
0.0
 40
0.0
 40
0.125
 40
0.125
 40
0.125
 40
0.125
 40
0.25
 40
0.25
 40
0.25
 40
0.25
 40
0.375
 40
0.375
 40
0.375
 40
0.375
 40
0.5
 40
0.5
 40
0.5
 40
0.5
 40
0.625
 40
0.625
 40
0.625
 40
0.625
 40
0.75
 40
0.75
 40
0.75
 40
0.75
 40
0.875
 40
0.875
 40
0.875
 40
0.875
 40
1.0
 40
1.0
 40
1.0
 40
1.0
 10
0.4385275590551181
 20
0.0160787401574803
 30
0.0
 10
0.4385275590551181
 20
0.0160787401574803
 30
0.0
 10
1.0832795275590552
 20
-0.3645393700787402
 30
0.0
 10
1.0832795275590552
 20
-0.3645393700787402
 30
0.0
 10
1.0832795275590552
 20
-0.3645393700787402
 30
0.0
 10
1.0832795275590552
 20
-0.3645393700787402
 30
0.0
 10
1.0935944881889763
 20
-0.353984251968504
 30
0.0
 10
1.0935944881889763
 20
-0.353984251968504
 30
0.0
 10
1.0935944881889763
 20
-0.353984251968504
 30
0.0
 10
1.0935944881889763
 20
-0.353984251968504
 30
0.0
 10
1.1032677165354332
 20
-0.3432165354330709
 30
0.0
 10
1.1032677165354332
 20
-0.3432165354330709
 30
0.0
 10
1.1032677165354332
 20
-0.3432165354330709
 30
0.0
 10
1.1032677165354332
 20
-0.3432165354330709
 30
0.0
 10
1.1122952755905513
 20
-0.3322795275590552
 30
0.0
 10
1.1122952755905513
 20
-0.3322795275590552
 30
0.0
 10
1.1122952755905513
 20
-0.3322795275590552
 30
0.0
 10
1.1122952755905513
 20
-0.3322795275590552
 30
0.0
 10
0.4675433070866142
 20
0.0483385826771654
 30
0.0
 10
0.4675433070866142
 20
0.0483385826771654
 30
0.0
 10
0.4675433070866142
 20
0.0483385826771654
 30
0.0
 10
0.4675433070866142
 20
0.0483385826771654
 30
0.0
 10
0.4585157480314961
 20
0.0374015748031496
 30
0.0
 10
0.4585157480314961
 20
0.0374015748031496
 30
0.0
 10
0.4585157480314961
 20
0.0374015748031496
 30
0.0
 10
0.4585157480314961
 20
0.0374015748031496
 30
0.0
 10
0.4488425196850394
 20
0.0266338582677165
 30
0.0
 10
0.4488425196850394
 20
0.0266338582677165
 30
0.0
 10
0.4488425196850394
 20
0.0266338582677165
 30
0.0
 10
0.4488425196850394
 20
0.0266338582677165
 30
0.0
 10
0.4385275590551181
 20
0.0160787401574803
 30
0.0
 10
0.4385275590551181
 20
0.0160787401574803
 30
0.0
  0
SPLINE
  5
56
100
AcDbEntity
  8
Layer 1
 62
     9
100
AcDbSpline
210
0.0
220
0.0
230
1.0
 70
     1
 71
     3
 72
    36
 73
    32
 74
     0
 42
0.0000000001
 43
0.0000000001
 40
0.0
 40
0.0
 40
0.0
 40
0.0
 40
0.125
 40
0.125
 40
0.125
 40
0.125
 40
0.25
 40
0.25
 40
0.25
 40
0.25
 40
0.375
 40
0.375
 40
0.375
 40
0.375
 40
0.5
 40
0.5
 40
0.5
 40
0.5
 40
0.625
 40
0.625
 40
0.625
 40
0.625
 40
0.75
 40
0.75
 40
0.75
 40
0.75
 40
0.875
 40
0.875
 40
0.875
 40
0.875
 40
1.0
 40
1.0
 40
1.0
 40
1.0
 10
0.4675433070866142
 20
0.0483385826771654
 30
0.0
 10
0.4675433070866142
 20
0.0483385826771654
 30
0.0
 10
1.1122952755905513
 20
-0.3322795275590552
 30
0.0
 10
1.1122952755905513
 20
-0.3322795275590552
 30
0.0
 10
1.1122952755905513
 20
-0.3322795275590552
 30
0.0
 10
1.1122952755905513
 20
-0.3322795275590552
 30
0.0
 10
1.1206889763779528
 20
-0.3212086614173229
 30
0.0
 10
1.1206889763779528
 20
-0.3212086614173229
 30
0.0
 10
1.1206889763779528
 20
-0.3212086614173229
 30
0.0
 10
1.1206889763779528
 20
-0.3212086614173229
 30
0.0
 10
1.1284370078740158
 20
-0.3100551181102362
 30
0.0
 10
1.1284370078740158
 20
-0.3100551181102362
 30
0.0
 10
1.1284370078740158
 20
-0.3100551181102362
 30
0.0
 10
1.1284370078740158
 20
-0.3100551181102362
 30
0.0
 10
1.1355551181102364
 20
-0.2988503937007874
 30
0.0
 10
1.1355551181102364
 20
-0.2988503937007874
 30
0.0
 10
1.1355551181102364
 20
-0.2988503937007874
 30
0.0
 10
1.1355551181102364
 20
-0.2988503937007874
 30
0.0
 10
0.4908031496062992
 20
0.0817677165354331
 30
0.0
 10
0.4908031496062992
 20
0.0817677165354331
 30
0.0
 10
0.4908031496062992
 20
0.0817677165354331
 30
0.0
 10
0.4908031496062992
 20
0.0817677165354331
 30
0.0
 10
0.4836850393700788
 20
0.0705629921259843
 30
0.0
 10
0.4836850393700788
 20
0.0705629921259843
 30
0.0
 10
0.4836850393700788
 20
0.0705629921259843
 30
0.0
 10
0.4836850393700788
 20
0.0705629921259843
 30
0.0
 10
0.4759370078740158
 20
0.0594094488188976
 30
0.0
 10
0.4759370078740158
 20
0.0594094488188976
 30
0.0
 10
0.4759370078740158
 20
0.0594094488188976
 30
0.0
 10
0.4759370078740158
 20
0.0594094488188976
 30
0.0
 10
0.4675433070866142
 20
0.0483385826771654
 30
0.0
 10
0.4675433070866142
 20
0.0483385826771654
 30
0.0
  0
SPLINE
  5
57
100
AcDbEntity
  8
Layer 1
 62
     9
100
AcDbSpline
210
0.0
220
0.0
230
1.0
 70
     1
 71
     3
 72
    44
 73
    40
 74
     0
 42
0.0000000001
 43
0.0000000001
 40
0.0
 40
0.0
 40
0.0
 40
0.0
 40
0.1
 40
0.1
 40
0.1
 40
0.1
 40
0.2
 40
0.2
 40
0.2
 40
0.2
 40
0.3
 40
0.3
 40
0.3
 40
0.3
 40
0.4
 40
0.4
 40
0.4
 40
0.4
 40
0.5
 40
0.5
 40
0.5
 40
0.5
 40
0.6
 40
0.6
 40
0.6
 40
0.6
 40
0.7
 40
0.7
 40
0.7
 40
0.7
 40
0.7999999999999999
 40
0.7999999999999999
 40
0.7999999999999999
 40
0.7999999999999999
 40
0.8999999999999999
 40
0.8999999999999999
 40
0.8999999999999999
 40
0.8999999999999999
 40
1.0
 40
1.0
 40
1.0
 40
1.0
 10
0.4908031496062992
 20
0.0817677165354331
 30
0.0
 10
0.4908031496062992
 20
0.0817677165354331
 30
0.0
 10
1.1355551181102364
 20
-0.2988503937007874
 30
0.0
 10
1.1355551181102364
 20
-0.2988503937007874
 30
0.0
 10
1.1355551181102364
 20
-0.2988503937007874
 30
0.0
 10
1.1355551181102364
 20
-0.2988503937007874
 30
0.0
 10
1.1420393700787401
 20
-0.2876417322834646
 30
0.0
 10
1.1420393700787401
 20
-0.2876417322834646
 30
0.0
 10
1.1420393700787401
 20
-0.2876417322834646
 30
0.0
 10
1.1420393700787401
 20
-0.2876417322834646
 30
0.0
 10
1.1479055118110237
 20
-0.2764527559055118
 30
0.0
 10
1.1479055118110237
 20
-0.2764527559055118
 30
0.0
 10
1.1479055118110237
 20
-0.2764527559055118
 30
0.0
 10
1.1479055118110237
 20
-0.2764527559055118
 30
0.0
 10
1.1531377952755906
 20
-0.2653464566929134
 30
0.0
 10
1.1531377952755906
 20
-0.2653464566929134
 30
0.0
 10
1.1531377952755906
 20
-0.2653464566929134
 30
0.0
 10
1.1531377952755906
 20
-0.2653464566929134
 30
0.0
 10
1.157755905511811
 20
-0.2543464566929134
 30
0.0
 10
1.157755905511811
 20
-0.2543464566929134
 30
0.0
 10
1.157755905511811
 20
-0.2543464566929134
 30
0.0
 10
1.157755905511811
 20
-0.2543464566929134
 30
0.0
 10
0.5130039370078741
 20
0.1262716535433071
 30
0.0
 10
0.5130039370078741
 20
0.1262716535433071
 30
0.0
 10
0.5130039370078741
 20
0.1262716535433071
 30
0.0
 10
0.5130039370078741
 20
0.1262716535433071
 30
0.0
 10
0.5083858267716536
 20
0.1152716535433071
 30
0.0
 10
0.5083858267716536
 20
0.1152716535433071
 30
0.0
 10
0.5083858267716536
 20
0.1152716535433071
 30
0.0
 10
0.5083858267716536
 20
0.1152716535433071
 30
0.0
 10
0.5031535433070866
 20
0.1041653543307087
 30
0.0
 10
0.5031535433070866
 20
0.1041653543307087
 30
0.0
 10
0.5031535433070866
 20
0.1041653543307087
 30
0.0
 10
0.5031535433070866
 20
0.1041653543307087
 30
0.0
 10
0.4972874015748032
 20
0.0929763779527559
 30
0.0
 10
0.4972874015748032
 20
0.0929763779527559
 30
0.0
 10
0.4972874015748032
 20
0.0929763779527559
 30
0.0
 10
0.4972874015748032
 20
0.0929763779527559
 30
0.0
 10
0.4908031496062992
 20
0.0817677165354331
 30
0.0
 10
0.4908031496062992
 20
0.0817677165354331
 30
0.0
  0
SPLINE
  5
58
100
AcDbEntity
  8
Layer 1
 62
     9
100
AcDbSpline
210
0.0
220
0.0
230
1.0
 70
     1
 71
     3
 72
    44
 73
    40
 74
     0
 42
0.0000000001
 43
0.0000000001
 40
0.0
 40
0.0
 40
0.0
 40
0.0
 40
0.1
 40
0.1
 40
0.1
 40
0.1
 40
0.2
 40
0.2
 40
0.2
 40
0.2
 40
0.3
 40
0.3
 40
0.3
 40
0.3
 40
0.4
 40
0.4
 40
0.4
 40
0.4
 40
0.5
 40
0.5
 40
0.5
 40
0.5
 40
0.6
 40
0.6
 40
0.6
 40
0.6
 40
0.7
 40
0.7
 40
0.7
 40
0.7
 40
0.7999999999999999
 40
0.7999999999999999
 40
0.7999999999999999
 40
0.7999999999999999
 40
0.8999999999999999
 40
0.8999999999999999
 40
0.8999999999999999
 40
0.8999999999999999
 40
1.0
 40
1.0
 40
1.0
 40
1.0
 10
0.5130039370078741
 20
0.1262716535433071
 30
0.0
 10
0.5130039370078741
 20
0.1262716535433071
 30
0.0
 10
1.157755905511811
 20
-0.2543464566929134
 30
0.0
 10
1.157755905511811
 20
-0.2543464566929134
 30
0.0
 10
1.157755905511811
 20
-0.2543464566929134
 30
0.0
 10
1.157755905511811
 20
-0.2543464566929134
 30
0.0
 10
1.161751968503937
 20
-0.2435
 30
0.0
 10
1.161751968503937
 20
-0.2435
 30
0.0
 10
1.161751968503937
 20
-0.2435
 30
0.0
 10
1.161751968503937
 20
-0.2435
 30
0.0
 10
1.1651417322834645
 20
-0.2328385826771654
 30
0.0
 10
1.1651417322834645
 20
-0.2328385826771654
 30
0.0
 10
1.1651417322834645
 20
-0.2328385826771654
 30
0.0
 10
1.1651417322834645
 20
-0.2328385826771654
 30
0.0
 10
1.1679133858267716
 20
-0.2224173228346457
 30
0.0
 10
1.1679133858267716
 20
-0.2224173228346457
 30
0.0
 10
1.1679133858267716
 20
-0.2224173228346457
 30
0.0
 10
1.1679133858267716
 20
-0.2224173228346457
 30
0.0
 10
1.1700826771653543
 20
-0.212255905511811
 30
0.0
 10
1.1700826771653543
 20
-0.212255905511811
 30
0.0
 10
1.1700826771653543
 20
-0.212255905511811
 30
0.0
 10
1.1700826771653543
 20
-0.212255905511811
 30
0.0
 10
0.5253307086614173
 20
0.1683622047244095
 30
0.0
 10
0.5253307086614173
 20
0.1683622047244095
 30
0.0
 10
0.5253307086614173
 20
0.1683622047244095
 30
0.0
 10
0.5253307086614173
 20
0.1683622047244095
 30
0.0
 10
0.5231614173228347
 20
0.1582007874015748
 30
0.0
 10
0.5231614173228347
 20
0.1582007874015748
 30
0.0
 10
0.5231614173228347
 20
0.1582007874015748
 30
0.0
 10
0.5231614173228347
 20
0.1582007874015748
 30
0.0
 10
0.5203897637795276
 20
0.1477795275590551
 30
0.0
 10
0.5203897637795276
 20
0.1477795275590551
 30
0.0
 10
0.5203897637795276
 20
0.1477795275590551
 30
0.0
 10
0.5203897637795276
 20
0.1477795275590551
 30
0.0
 10
0.517
 20
0.1371181102362205
 30
0.0
 10
0.517
 20
0.1371181102362205
 30
0.0
 10
0.517
 20
0.1371181102362205
 30
0.0
 10
0.517
 20
0.1371181102362205
 30
0.0
 10
0.5130039370078741
 20
0.1262716535433071
 30
0.0
 10
0.5130039370078741
 20
0.1262716535433071
 30
0.0
  0
SPLINE
  5
59
100
AcDbEntity
  8
Layer 1
 62
     9
100
AcDbSpline
210
0.0
220
0.0
230
1.0
 70
     1
 71
     3
 72
    28
 73
    24
 74
     0
 42
0.0000000001
 43
0.0000000001
 40
0.0
 40
0.0
 40
0.0
 40
0.0
 40
0.1666666666666667
 40
0.1666666666666667
 40
0.1666666666666667
 40
0.1666666666666667
 40
0.3333333333333333
 40
0.3333333333333333
 40
0.3333333333333333
 40
0.3333333333333333
 40
0.5
 40
0.5
 40
0.5
 40
0.5
 40
0.6666666666666666
 40
0.6666666666666666
 40
0.6666666666666666
 40
0.6666666666666666
 40
0.8333333333333333
 40
0.8333333333333333
 40
0.8333333333333333
 40
0.8333333333333333
 40
1.0
 40
1.0
 40
1.0
 40
1.0
 10
0.5253307086614173
 20
0.1683622047244095
 30
0.0
 10
0.5253307086614173
 20
0.1683622047244095
 30
0.0
 10
1.1700826771653543
 20
-0.212255905511811
 30
0.0
 10
1.1700826771653543
 20
-0.212255905511811
 30
0.0
 10
1.1700826771653543
 20
-0.212255905511811
 30
0.0
 10
1.1700826771653543
 20
-0.212255905511811
 30
0.0
 10
1.1716456692913386
 20
-0.2024133858267717
 30
0.0
 10
1.1716456692913386
 20
-0.2024133858267717
 30
0.0
 10
1.1716456692913386
 20
-0.2024133858267717
 30
0.0
 10
1.1716456692913386
 20
-0.2024133858267717
 30
0.0
 10
1.1726141732283466
 20
-0.1929133858267717
 30
0.0
 10
1.1726141732283466
 20
-0.1929133858267717
 30
0.0
 10
1.1726141732283466
 20
-0.1929133858267717
 30
0.0
 10
1.1726141732283466
 20
-0.1929133858267717
 30
0.0
 10
0.5278622047244095
 20
0.1877047244094488
 30
0.0
 10
0.5278622047244095
 20
0.1877047244094488
 30
0.0
 10
0.5278622047244095
 20
0.1877047244094488
 30
0.0
 10
0.5278622047244095
 20
0.1877047244094488
 30
0.0
 10
0.5268937007874016
 20
0.1782047244094488
 30
0.0
 10
0.5268937007874016
 20
0.1782047244094488
 30
0.0
 10
0.5268937007874016
 20
0.1782047244094488
 30
0.0
 10
0.5268937007874016
 20
0.1782047244094488
 30
0.0
 10
0.5253307086614173
 20
0.1683622047244095
 30
0.0
 10
0.5253307086614173
 20
0.1683622047244095
 30
0.0
  0
SPLINE
  5
5A
100
AcDbEntity
  8
Layer 1
370
     5
100
AcDbSpline
210
0.0
220
0.0
230
1.0
 70
     1
 71
     3
 72
   268
 73
   264
 74
     0
 42
0.0000000001
 43
0.0000000001
 40
0.0
 40
0.0
 40
0.0
 40
0.0
 40
0.0151515151515152
 40
0.0151515151515152
 40
0.0151515151515152
 40
0.0151515151515152
 40
0.0303030303030303
 40
0.0303030303030303
 40
0.0303030303030303
 40
0.0303030303030303
 40
0.0454545454545455
 40
0.0454545454545455
 40
0.0454545454545455
 40
0.0454545454545455
 40
0.0606060606060606
 40
0.0606060606060606
 40
0.0606060606060606
 40
0.0606060606060606
 40
0.0757575757575758
 40
0.0757575757575758
 40
0.0757575757575758
 40
0.0757575757575758
 40
0.0909090909090909
 40
0.0909090909090909
 40
0.0909090909090909
 40
0.0909090909090909
 40
0.1060606060606061
 40
0.1060606060606061
 40
0.1060606060606061
 40
0.1060606060606061
 40
0.1212121212121212
 40
0.1212121212121212
 40
0.1212121212121212
 40
0.1212121212121212
 40
0.1363636363636364
 40
0.1363636363636364
 40
0.1363636363636364
 40
0.1363636363636364
 40
0.1515151515151515
 40
0.1515151515151515
 40
0.1515151515151515
 40
0.1515151515151515
 40
0.1666666666666666
 40
0.1666666666666666
 40
0.1666666666666666
 40
0.1666666666666666
 40
0.1818181818181818
 40
0.1818181818181818
 40
0.1818181818181818
 40
0.1818181818181818
 40
0.1969696969696969
 40
0.1969696969696969
 40
0.1969696969696969
 40
0.1969696969696969
 40
0.212121212121212
 40
0.212121212121212
 40
0.212121212121212
 40
0.212121212121212
 40
0.2272727272727272
 40
0.2272727272727272
 40
0.2272727272727272
 40
0.2272727272727272
 40
0.2424242424242423
 40
0.2424242424242423
 40
0.2424242424242423
 40
0.2424242424242423
 40
0.2575757575757575
 40
0.2575757575757575
 40
0.2575757575757575
 40
0.2575757575757575
 40
0.2727272727272726
 40
0.2727272727272726
 40
0.2727272727272726
 40
0.2727272727272726
 40
0.2878787878787877
 40
0.2878787878787877
 40
0.2878787878787877
 40
0.2878787878787877
 40
0.3030303030303029
 40
0.3030303030303029
 40
0.3030303030303029
 40
0.3030303030303029
 40
0.318181818181818
 40
0.318181818181818
 40
0.318181818181818
 40
0.318181818181818
 40
0.3333333333333332
 40
0.3333333333333332
 40
0.3333333333333332
 40
0.3333333333333332
 40
0.3484848484848483
 40
0.3484848484848483
 40
0.3484848484848483
 40
0.3484848484848483
 40
0.3636363636363634
 40
0.3636363636363634
 40
0.3636363636363634
 40
0.3636363636363634
 40
0.3787878787878786
 40
0.3787878787878786
 40
0.3787878787878786
 40
0.3787878787878786
 40
0.3939393939393937
 40
0.3939393939393937
 40
0.3939393939393937
 40
0.3939393939393937
 40
0.4090909090909088
 40
0.4090909090909088
 40
0.4090909090909088
 40
0.4090909090909088
 40
0.424242424242424
 40
0.424242424242424
 40
0.424242424242424
 40
0.424242424242424
 40
0.4393939393939391
 40
0.4393939393939391
 40
0.4393939393939391
 40
0.4393939393939391
 40
0.4545454545454543
 40
0.4545454545454543
 40
0.4545454545454543
 40
0.4545454545454543
 40
0.4696969696969694
 40
0.4696969696969694
 40
0.4696969696969694
 40
0.4696969696969694
 40
0.4848484848484845
 40
0.4848484848484845
 40
0.4848484848484845
 40
0.4848484848484845
 40
0.4999999999999997
 40
0.4999999999999997
 40
0.4999999999999997
 40
0.4999999999999997
 40
0.5151515151515148
 40
0.5151515151515148
 40
0.5151515151515148
 40
0.5151515151515148
 40
0.5303030303030299
 40
0.5303030303030299
 40
0.5303030303030299
 40
0.5303030303030299
 40
0.5454545454545451
 40
0.5454545454545451
 40
0.5454545454545451
 40
0.5454545454545451
 40
0.5606060606060602
 40
0.5606060606060602
 40
0.5606060606060602
 40
0.5606060606060602
 40
0.5757575757575754
 40
0.5757575757575754
 40
0.5757575757575754
 40
0.5757575757575754
 40
0.5909090909090905
 40
0.5909090909090905
 40
0.5909090909090905
 40
0.5909090909090905
 40
0.6060606060606056
 40
0.6060606060606056
 40
0.6060606060606056
 40
0.6060606060606056
 40
0.6212121212121208
 40
0.6212121212121208
 40
0.6212121212121208
 40
0.6212121212121208
 40
0.6363636363636359
 40
0.6363636363636359
 40
0.6363636363636359
 40
0.6363636363636359
 40
0.6515151515151511
 40
0.6515151515151511
 40
0.6515151515151511
 40
0.6515151515151511
 40
0.6666666666666662
 40
0.6666666666666662
 40
0.6666666666666662
 40
0.6666666666666662
 40
0.6818181818181813
 40
0.6818181818181813
 40
0.6818181818181813
 40
0.6818181818181813
 40
0.6969696969696965
 40
0.6969696969696965
 40
0.6969696969696965
 40
0.6969696969696965
 40
0.7121212121212116
 40
0.7121212121212116
 40
0.7121212121212116
 40
0.7121212121212116
 40
0.7272727272727267
 40
0.7272727272727267
 40
0.7272727272727267
 40
0.7272727272727267
 40
0.7424242424242419
 40
0.7424242424242419
 40
0.7424242424242419
 40
0.7424242424242419
 40
0.757575757575757
 40
0.757575757575757
 40
0.757575757575757
 40
0.757575757575757
 40
0.7727272727272722
 40
0.7727272727272722
 40
0.7727272727272722
 40
0.7727272727272722
 40
0.7878787878787873
 40
0.7878787878787873
 40
0.7878787878787873
 40
0.7878787878787873
 40
0.8030303030303024
 40
0.8030303030303024
 40
0.8030303030303024
 40
0.8030303030303024
 40
0.8181818181818176
 40
0.8181818181818176
 40
0.8181818181818176
 40
0.8181818181818176
 40
0.8333333333333327
 40
0.8333333333333327
 40
0.8333333333333327
 40
0.8333333333333327
 40
0.8484848484848478
 40
0.8484848484848478
 40
0.8484848484848478
 40
0.8484848484848478
 40
0.863636363636363
 40
0.863636363636363
 40
0.863636363636363
 40
0.863636363636363
 40
0.8787878787878781
 40
0.8787878787878781
 40
0.8787878787878781
 40
0.8787878787878781
 40
0.8939393939393933
 40
0.8939393939393933
 40
0.8939393939393933
 40
0.8939393939393933
 40
0.9090909090909084
 40
0.9090909090909084
 40
0.9090909090909084
 40
0.9090909090909084
 40
0.9242424242424235
 40
0.9242424242424235
 40
0.9242424242424235
 40
0.9242424242424235
 40
0.9393939393939387
 40
0.9393939393939387
 40
0.9393939393939387
 40
0.9393939393939387
 40
0.9545454545454538
 40
0.9545454545454538
 40
0.9545454545454538
 40
0.9545454545454538
 40
0.969696969696969
 40
0.969696969696969
 40
0.969696969696969
 40
0.969696969696969
 40
0.9848484848484841
 40
0.9848484848484841
 40
0.9848484848484841
 40
0.9848484848484841
 40
1.0
 40
1.0
 40
1.0
 40
1.0
 10
0.1825787401574803
 20
-0.0918464566929134
 30
0.0
 10
0.1825787401574803
 20
-0.0918464566929134
 30
0.0
 10
0.8273307086614173
 20
-0.4724645669291339
 30
0.0
 10
0.8273307086614173
 20
-0.4724645669291339
 30
0.0
 10
0.8273307086614173
 20
-0.4724645669291339
 30
0.0
 10
0.8273307086614173
 20
-0.4724645669291339
 30
0.0
 10
0.8484645669291339
 20
-0.4706771653543307
 30
0.0
 10
0.8484645669291339
 20
-0.4706771653543307
 30
0.0
 10
0.8484645669291339
 20
-0.4706771653543307
 30
0.0
 10
0.8484645669291339
 20
-0.4706771653543307
 30
0.0
 10
0.8689015748031497
 20
-0.4680511811023622
 30
0.0
 10
0.8689015748031497
 20
-0.4680511811023622
 30
0.0
 10
0.8689015748031497
 20
-0.4680511811023622
 30
0.0
 10
0.8689015748031497
 20
-0.4680511811023622
 30
0.0
 10
0.8886417322834646
 20
-0.4646102362204725
 30
0.0
 10
0.8886417322834646
 20
-0.4646102362204725
 30
0.0
 10
0.8886417322834646
 20
-0.4646102362204725
 30
0.0
 10
0.8886417322834646
 20
-0.4646102362204725
 30
0.0
 10
0.9076889763779528
 20
-0.4604055118110236
 30
0.0
 10
0.9076889763779528
 20
-0.4604055118110236
 30
0.0
 10
0.9076889763779528
 20
-0.4604055118110236
 30
0.0
 10
0.9076889763779528
 20
-0.4604055118110236
 30
0.0
 10
0.9260354330708662
 20
-0.4554645669291339
 30
0.0
 10
0.9260354330708662
 20
-0.4554645669291339
 30
0.0
 10
0.9260354330708662
 20
-0.4554645669291339
 30
0.0
 10
0.9260354330708662
 20
-0.4554645669291339
 30
0.0
 10
0.9437047244094489
 20
-0.4498464566929134
 30
0.0
 10
0.9437047244094489
 20
-0.4498464566929134
 30
0.0
 10
0.9437047244094489
 20
-0.4498464566929134
 30
0.0
 10
0.9437047244094489
 20
-0.4498464566929134
 30
0.0
 10
0.9606889763779528
 20
-0.4435748031496063
 30
0.0
 10
0.9606889763779528
 20
-0.4435748031496063
 30
0.0
 10
0.9606889763779528
 20
-0.4435748031496063
 30
0.0
 10
0.9606889763779528
 20
-0.4435748031496063
 30
0.0
 10
0.976992125984252
 20
-0.4366968503937008
 30
0.0
 10
0.976992125984252
 20
-0.4366968503937008
 30
0.0
 10
0.976992125984252
 20
-0.4366968503937008
 30
0.0
 10
0.976992125984252
 20
-0.4366968503937008
 30
0.0
 10
0.9926102362204725
 20
-0.429240157480315
 30
0.0
 10
0.9926102362204725
 20
-0.429240157480315
 30
0.0
 10
0.9926102362204725
 20
-0.429240157480315
 30
0.0
 10
0.9926102362204725
 20
-0.429240157480315
 30
0.0
 10
1.0075590551181102
 20
-0.4212637795275591
 30
0.0
 10
1.0075590551181102
 20
-0.4212637795275591
 30
0.0
 10
1.0075590551181102
 20
-0.4212637795275591
 30
0.0
 10
1.0075590551181102
 20
-0.4212637795275591
 30
0.0
 10
1.0218307086614173
 20
-0.4127952755905512
 30
0.0
 10
1.0218307086614173
 20
-0.4127952755905512
 30
0.0
 10
1.0218307086614173
 20
-0.4127952755905512
 30
0.0
 10
1.0218307086614173
 20
-0.4127952755905512
 30
0.0
 10
1.0354448818897639
 20
-0.4038858267716536
 30
0.0
 10
1.0354448818897639
 20
-0.4038858267716536
 30
0.0
 10
1.0354448818897639
 20
-0.4038858267716536
 30
0.0
 10
1.0354448818897639
 20
-0.4038858267716536
 30
0.0
 10
1.0483897637795276
 20
-0.3945551181102363
 30
0.0
 10
1.0483897637795276
 20
-0.3945551181102363
 30
0.0
 10
1.0483897637795276
 20
-0.3945551181102363
 30
0.0
 10
1.0483897637795276
 20
-0.3945551181102363
 30
0.0
 10
1.0606732283464568
 20
-0.3848661417322835
 30
0.0
 10
1.0606732283464568
 20
-0.3848661417322835
 30
0.0
 10
1.0606732283464568
 20
-0.3848661417322835
 30
0.0
 10
1.0606732283464568
 20
-0.3848661417322835
 30
0.0
 10
1.0723031496062994
 20
-0.3748503937007874
 30
0.0
 10
1.0723031496062994
 20
-0.3748503937007874
 30
0.0
 10
1.0723031496062994
 20
-0.3748503937007874
 30
0.0
 10
1.0723031496062994
 20
-0.3748503937007874
 30
0.0
 10
1.0832795275590552
 20
-0.3645393700787402
 30
0.0
 10
1.0832795275590552
 20
-0.3645393700787402
 30
0.0
 10
1.0832795275590552
 20
-0.3645393700787402
 30
0.0
 10
1.0832795275590552
 20
-0.3645393700787402
 30
0.0
 10
1.0935944881889763
 20
-0.353984251968504
 30
0.0
 10
1.0935944881889763
 20
-0.353984251968504
 30
0.0
 10
1.0935944881889763
 20
-0.353984251968504
 30
0.0
 10
1.0935944881889763
 20
-0.353984251968504
 30
0.0
 10
1.1032677165354332
 20
-0.3432165354330709
 30
0.0
 10
1.1032677165354332
 20
-0.3432165354330709
 30
0.0
 10
1.1032677165354332
 20
-0.3432165354330709
 30
0.0
 10
1.1032677165354332
 20
-0.3432165354330709
 30
0.0
 10
1.1122952755905513
 20
-0.3322795275590552
 30
0.0
 10
1.1122952755905513
 20
-0.3322795275590552
 30
0.0
 10
1.1122952755905513
 20
-0.3322795275590552
 30
0.0
 10
1.1122952755905513
 20
-0.3322795275590552
 30
0.0
 10
1.1206889763779528
 20
-0.3212086614173229
 30
0.0
 10
1.1206889763779528
 20
-0.3212086614173229
 30
0.0
 10
1.1206889763779528
 20
-0.3212086614173229
 30
0.0
 10
1.1206889763779528
 20
-0.3212086614173229
 30
0.0
 10
1.1284370078740158
 20
-0.3100551181102362
 30
0.0
 10
1.1284370078740158
 20
-0.3100551181102362
 30
0.0
 10
1.1284370078740158
 20
-0.3100551181102362
 30
0.0
 10
1.1284370078740158
 20
-0.3100551181102362
 30
0.0
 10
1.1355551181102364
 20
-0.2988503937007874
 30
0.0
 10
1.1355551181102364
 20
-0.2988503937007874
 30
0.0
 10
1.1355551181102364
 20
-0.2988503937007874
 30
0.0
 10
1.1355551181102364
 20
-0.2988503937007874
 30
0.0
 10
1.1420393700787401
 20
-0.2876417322834646
 30
0.0
 10
1.1420393700787401
 20
-0.2876417322834646
 30
0.0
 10
1.1420393700787401
 20
-0.2876417322834646
 30
0.0
 10
1.1420393700787401
 20
-0.2876417322834646
 30
0.0
 10
1.1479055118110237
 20
-0.2764527559055118
 30
0.0
 10
1.1479055118110237
 20
-0.2764527559055118
 30
0.0
 10
1.1479055118110237
 20
-0.2764527559055118
 30
0.0
 10
1.1479055118110237
 20
-0.2764527559055118
 30
0.0
 10
1.1531377952755906
 20
-0.2653464566929134
 30
0.0
 10
1.1531377952755906
 20
-0.2653464566929134
 30
0.0
 10
1.1531377952755906
 20
-0.2653464566929134
 30
0.0
 10
1.1531377952755906
 20
-0.2653464566929134
 30
0.0
 10
1.157755905511811
 20
-0.2543464566929134
 30
0.0
 10
1.157755905511811
 20
-0.2543464566929134
 30
0.0
 10
1.157755905511811
 20
-0.2543464566929134
 30
0.0
 10
1.157755905511811
 20
-0.2543464566929134
 30
0.0
 10
1.161751968503937
 20
-0.2435
 30
0.0
 10
1.161751968503937
 20
-0.2435
 30
0.0
 10
1.161751968503937
 20
-0.2435
 30
0.0
 10
1.161751968503937
 20
-0.2435
 30
0.0
 10
1.1651417322834645
 20
-0.2328385826771654
 30
0.0
 10
1.1651417322834645
 20
-0.2328385826771654
 30
0.0
 10
1.1651417322834645
 20
-0.2328385826771654
 30
0.0
 10
1.1651417322834645
 20
-0.2328385826771654
 30
0.0
 10
1.1679133858267716
 20
-0.2224173228346457
 30
0.0
 10
1.1679133858267716
 20
-0.2224173228346457
 30
0.0
 10
1.1679133858267716
 20
-0.2224173228346457
 30
0.0
 10
1.1679133858267716
 20
-0.2224173228346457
 30
0.0
 10
1.1700826771653543
 20
-0.212255905511811
 30
0.0
 10
1.1700826771653543
 20
-0.212255905511811
 30
0.0
 10
1.1700826771653543
 20
-0.212255905511811
 30
0.0
 10
1.1700826771653543
 20
-0.212255905511811
 30
0.0
 10
1.1716456692913386
 20
-0.2024133858267717
 30
0.0
 10
1.1716456692913386
 20
-0.2024133858267717
 30
0.0
 10
1.1716456692913386
 20
-0.2024133858267717
 30
0.0
 10
1.1716456692913386
 20
-0.2024133858267717
 30
0.0
 10
1.1726141732283466
 20
-0.1929133858267717
 30
0.0
 10
1.1726141732283466
 20
-0.1929133858267717
 30
0.0
 10
1.1726141732283466
 20
-0.1929133858267717
 30
0.0
 10
1.1726141732283466
 20
-0.1929133858267717
 30
0.0
 10
0.5278622047244095
 20
0.1877047244094488
 30
0.0
 10
0.5278622047244095
 20
0.1877047244094488
 30
0.0
 10
0.5278622047244095
 20
0.1877047244094488
 30
0.0
 10
0.5278622047244095
 20
0.1877047244094488
 30
0.0
 10
0.5268937007874016
 20
0.1782047244094488
 30
0.0
 10
0.5268937007874016
 20
0.1782047244094488
 30
0.0
 10
0.5268937007874016
 20
0.1782047244094488
 30
0.0
 10
0.5268937007874016
 20
0.1782047244094488
 30
0.0
 10
0.5253307086614173
 20
0.1683622047244095
 30
0.0
 10
0.5253307086614173
 20
0.1683622047244095
 30
0.0
 10
0.5253307086614173
 20
0.1683622047244095
 30
0.0
 10
0.5253307086614173
 20
0.1683622047244095
 30
0.0
 10
0.5231614173228347
 20
0.1582007874015748
 30
0.0
 10
0.5231614173228347
 20
0.1582007874015748
 30
0.0
 10
0.5231614173228347
 20
0.1582007874015748
 30
0.0
 10
0.5231614173228347
 20
0.1582007874015748
 30
0.0
 10
0.5203897637795276
 20
0.1477795275590551
 30
0.0
 10
0.5203897637795276
 20
0.1477795275590551
 30
0.0
 10
0.5203897637795276
 20
0.1477795275590551
 30
0.0
 10
0.5203897637795276
 20
0.1477795275590551
 30
0.0
 10
0.517
 20
0.1371181102362205
 30
0.0
 10
0.517
 20
0.1371181102362205
 30
0.0
 10
0.517
 20
0.1371181102362205
 30
0.0
 10
0.517
 20
0.1371181102362205
 30
0.0
 10
0.5130039370078741
 20
0.1262716535433071
 30
0.0
 10
0.5130039370078741
 20
0.1262716535433071
 30
0.0
 10
0.5130039370078741
 20
0.1262716535433071
 30
0.0
 10
0.5130039370078741
 20
0.1262716535433071
 30
0.0
 10
0.5083858267716536
 20
0.1152716535433071
 30
0.0
 10
0.5083858267716536
 20
0.1152716535433071
 30
0.0
 10
0.5083858267716536
 20
0.1152716535433071
 30
0.0
 10
0.5083858267716536
 20
0.1152716535433071
 30
0.0
 10
0.5031535433070866
 20
0.1041653543307087
 30
0.0
 10
0.5031535433070866
 20
0.1041653543307087
 30
0.0
 10
0.5031535433070866
 20
0.1041653543307087
 30
0.0
 10
0.5031535433070866
 20
0.1041653543307087
 30
0.0
 10
0.4972874015748032
 20
0.0929763779527559
 30
0.0
 10
0.4972874015748032
 20
0.0929763779527559
 30
0.0
 10
0.4972874015748032
 20
0.0929763779527559
 30
0.0
 10
0.4972874015748032
 20
0.0929763779527559
 30
0.0
 10
0.4908031496062992
 20
0.0817677165354331
 30
0.0
 10
0.4908031496062992
 20
0.0817677165354331
 30
0.0
 10
0.4908031496062992
 20
0.0817677165354331
 30
0.0
 10
0.4908031496062992
 20
0.0817677165354331
 30
0.0
 10
0.4836850393700788
 20
0.0705629921259843
 30
0.0
 10
0.4836850393700788
 20
0.0705629921259843
 30
0.0
 10
0.4836850393700788
 20
0.0705629921259843
 30
0.0
 10
0.4836850393700788
 20
0.0705629921259843
 30
0.0
 10
0.4759370078740158
 20
0.0594094488188976
 30
0.0
 10
0.4759370078740158
 20
0.0594094488188976
 30
0.0
 10
0.4759370078740158
 20
0.0594094488188976
 30
0.0
 10
0.4759370078740158
 20
0.0594094488188976
 30
0.0
 10
0.4675433070866142
 20
0.0483385826771654
 30
0.0
 10
0.4675433070866142
 20
0.0483385826771654
 30
0.0
 10
0.4675433070866142
 20
0.0483385826771654
 30
0.0
 10
0.4675433070866142
 20
0.0483385826771654
 30
0.0
 10
0.4585157480314961
 20
0.0374015748031496
 30
0.0
 10
0.4585157480314961
 20
0.0374015748031496
 30
0.0
 10
0.4585157480314961
 20
0.0374015748031496
 30
0.0
 10
0.4585157480314961
 20
0.0374015748031496
 30
0.0
 10
0.4488425196850394
 20
0.0266338582677165
 30
0.0
 10
0.4488425196850394
 20
0.0266338582677165
 30
0.0
 10
0.4488425196850394
 20
0.0266338582677165
 30
0.0
 10
0.4488425196850394
 20
0.0266338582677165
 30
0.0
 10
0.4385275590551181
 20
0.0160787401574803
 30
0.0
 10
0.4385275590551181
 20
0.0160787401574803
 30
0.0
 10
0.4385275590551181
 20
0.0160787401574803
 30
0.0
 10
0.4385275590551181
 20
0.0160787401574803
 30
0.0
 10
0.4275511811023622
 20
0.0057677165354331
 30
0.0
 10
0.4275511811023622
 20
0.0057677165354331
 30
0.0
 10
0.4275511811023622
 20
0.0057677165354331
 30
0.0
 10
0.4275511811023622
 20
0.0057677165354331
 30
0.0
 10
0.4159212598425197
 20
-0.004248031496063
 30
0.0
 10
0.4159212598425197
 20
-0.004248031496063
 30
0.0
 10
0.4159212598425197
 20
-0.004248031496063
 30
0.0
 10
0.4159212598425197
 20
-0.004248031496063
 30
0.0
 10
0.4036377952755906
 20
-0.0139370078740157
 30
0.0
 10
0.4036377952755906
 20
-0.0139370078740157
 30
0.0
 10
0.4036377952755906
 20
-0.0139370078740157
 30
0.0
 10
0.4036377952755906
 20
-0.0139370078740157
 30
0.0
 10
0.3906929133858268
 20
-0.0232677165354331
 30
0.0
 10
0.3906929133858268
 20
-0.0232677165354331
 30
0.0
 10
0.3906929133858268
 20
-0.0232677165354331
 30
0.0
 10
0.3906929133858268
 20
-0.0232677165354331
 30
0.0
 10
0.3770787401574803
 20
-0.0321771653543307
 30
0.0
 10
0.3770787401574803
 20
-0.0321771653543307
 30
0.0
 10
0.3770787401574803
 20
-0.0321771653543307
 30
0.0
 10
0.3770787401574803
 20
-0.0321771653543307
 30
0.0
 10
0.3628070866141733
 20
-0.0406456692913386
 30
0.0
 10
0.3628070866141733
 20
-0.0406456692913386
 30
0.0
 10
0.3628070866141733
 20
-0.0406456692913386
 30
0.0
 10
0.3628070866141733
 20
-0.0406456692913386
 30
0.0
 10
0.3478582677165354
 20
-0.0486220472440945
 30
0.0
 10
0.3478582677165354
 20
-0.0486220472440945
 30
0.0
 10
0.3478582677165354
 20
-0.0486220472440945
 30
0.0
 10
0.3478582677165354
 20
-0.0486220472440945
 30
0.0
 10
0.332240157480315
 20
-0.0560787401574803
 30
0.0
 10
0.332240157480315
 20
-0.0560787401574803
 30
0.0
 10
0.332240157480315
 20
-0.0560787401574803
 30
0.0
 10
0.332240157480315
 20
-0.0560787401574803
 30
0.0
 10
0.3159370078740157
 20
-0.0629566929133858
 30
0.0
 10
0.3159370078740157
 20
-0.0629566929133858
 30
0.0
 10
0.3159370078740157
 20
-0.0629566929133858
 30
0.0
 10
0.3159370078740157
 20
-0.0629566929133858
 30
0.0
 10
0.2989527559055119
 20
-0.0692283464566929
 30
0.0
 10
0.2989527559055119
 20
-0.0692283464566929
 30
0.0
 10
0.2989527559055119
 20
-0.0692283464566929
 30
0.0
 10
0.2989527559055119
 20
-0.0692283464566929
 30
0.0
 10
0.2812834645669292
 20
-0.0748464566929134
 30
0.0
 10
0.2812834645669292
 20
-0.0748464566929134
 30
0.0
 10
0.2812834645669292
 20
-0.0748464566929134
 30
0.0
 10
0.2812834645669292
 20
-0.0748464566929134
 30
0.0
 10
0.2629370078740158
 20
-0.0797874015748032
 30
0.0
 10
0.2629370078740158
 20
-0.0797874015748032
 30
0.0
 10
0.2629370078740158
 20
-0.0797874015748032
 30
0.0
 10
0.2629370078740158
 20
-0.0797874015748032
 30
0.0
 10
0.2438897637795276
 20
-0.083992125984252
 30
0.0
 10
0.2438897637795276
 20
-0.083992125984252
 30
0.0
 10
0.2438897637795276
 20
-0.083992125984252
 30
0.0
 10
0.2438897637795276
 20
-0.083992125984252
 30
0.0
 10
0.2241496062992126
 20
-0.0874330708661417
 30
0.0
 10
0.2241496062992126
 20
-0.0874330708661417
 30
0.0
 10
0.2241496062992126
 20
-0.0874330708661417
 30
0.0
 10
0.2241496062992126
 20
-0.0874330708661417
 30
0.0
 10
0.2037125984251968
 20
-0.0900590551181102
 30
0.0
 10
0.2037125984251968
 20
-0.0900590551181102
 30
0.0
 10
0.2037125984251968
 20
-0.0900590551181102
 30
0.0
 10
0.2037125984251968
 20
-0.0900590551181102
 30
0.0
 10
0.1825787401574803
 20
-0.0918464566929134
 30
0.0
 10
0.1825787401574803
 20
-0.0918464566929134
 30
0.0
  0
SPLINE
  5
5B
100
AcDbEntity
  8
Layer 1
 62
     9
100
AcDbSpline
210
0.0
220
0.0
230
1.0
 70
     1
 71
     3
 72
    20
 73
    16
 74
     0
 42
0.0000000001
 43
0.0000000001
 40
0.0
 40
0.0
 40
0.0
 40
0.0
 40
0.25
 40
0.25
 40
0.25
 40
0.25
 40
0.5
 40
0.5
 40
0.5
 40
0.5
 40
0.75
 40
0.75
 40
0.75
 40
0.75
 40
1.0
 40
1.0
 40
1.0
 40
1.0
 10
0.5278622047244095
 20
0.1877047244094488
 30
0.0
 10
0.5278622047244095
 20
0.1877047244094488
 30
0.0
 10
1.1726141732283466
 20
-0.1929133858267717
 30
0.0
 10
1.1726141732283466
 20
-0.1929133858267717
 30
0.0
 10
1.1726141732283466
 20
-0.1929133858267717
 30
0.0
 10
1.1726141732283466
 20
-0.1929133858267717
 30
0.0
 10
1.44048031496063
 20
-0.1783779527559055
 30
0.0
 10
1.44048031496063
 20
-0.1783779527559055
 30
0.0
 10
1.44048031496063
 20
-0.1783779527559055
 30
0.0
 10
1.44048031496063
 20
-0.1783779527559055
 30
0.0
 10
0.795728346456693
 20
0.202240157480315
 30
0.0
 10
0.795728346456693
 20
0.202240157480315
 30
0.0
 10
0.795728346456693
 20
0.202240157480315
 30
0.0
 10
0.795728346456693
 20
0.202240157480315
 30
0.0
 10
0.5278622047244095
 20
0.1877047244094488
 30
0.0
 10
0.5278622047244095
 20
0.1877047244094488
 30
0.0
  0
SPLINE
  5
5C
100
AcDbEntity
  8
Layer 1
370
     5
100
AcDbSpline
210
0.0
220
0.0
230
1.0
 70
     1
 71
     3
 72
    20
 73
    16
 74
     0
 42
0.0000000001
 43
0.0000000001
 40
0.0
 40
0.0
 40
0.0
 40
0.0
 40
0.25
 40
0.25
 40
0.25
 40
0.25
 40
0.5
 40
0.5
 40
0.5
 40
0.5
 40
0.75
 40
0.75
 40
0.75
 40
0.75
 40
1.0
 40
1.0
 40
1.0
 40
1.0
 10
0.5278622047244095
 20
0.1877047244094488
 30
0.0
 10
0.5278622047244095
 20
0.1877047244094488
 30
0.0
 10
1.1726141732283466
 20
-0.1929133858267717
 30
0.0
 10
1.1726141732283466
 20
-0.1929133858267717
 30
0.0
 10
1.1726141732283466
 20
-0.1929133858267717
 30
0.0
 10
1.1726141732283466
 20
-0.1929133858267717
 30
0.0
 10
1.44048031496063
 20
-0.1783779527559055
 30
0.0
 10
1.44048031496063
 20
-0.1783779527559055
 30
0.0
 10
1.44048031496063
 20
-0.1783779527559055
 30
0.0
 10
1.44048031496063
 20
-0.1783779527559055
 30
0.0
 10
0.795728346456693
 20
0.202240157480315
 30
0.0
 10
0.795728346456693
 20
0.202240157480315
 30
0.0
 10
0.795728346456693
 20
0.202240157480315
 30
0.0
 10
0.795728346456693
 20
0.202240157480315
 30
0.0
 10
0.5278622047244095
 20
0.1877047244094488
 30
0.0
 10
0.5278622047244095
 20
0.1877047244094488
 30
0.0
  0
SPLINE
  5
5D
100
AcDbEntity
  8
Layer 1
 62
     9
100
AcDbSpline
210
0.0
220
0.0
230
1.0
 70
     1
 71
     3
 72
    20
 73
    16
 74
     0
 42
0.0000000001
 43
0.0000000001
 40
0.0
 40
0.0
 40
0.0
 40
0.0
 40
0.25
 40
0.25
 40
0.25
 40
0.25
 40
0.5
 40
0.5
 40
0.5
 40
0.5
 40
0.75
 40
0.75
 40
0.75
 40
0.75
 40
1.0
 40
1.0
 40
1.0
 40
1.0
 10
0.795728346456693
 20
0.202240157480315
 30
0.0
 10
0.795728346456693
 20
0.202240157480315
 30
0.0
 10
1.44048031496063
 20
-0.1783779527559055
 30
0.0
 10
1.44048031496063
 20
-0.1783779527559055
 30
0.0
 10
1.44048031496063
 20
-0.1783779527559055
 30
0.0
 10
1.44048031496063
 20
-0.1783779527559055
 30
0.0
 10
1.4475314960629921
 20
0.0125669291338583
 30
0.0
 10
1.4475314960629921
 20
0.0125669291338583
 30
0.0
 10
1.4475314960629921
 20
0.0125669291338583
 30
0.0
 10
1.4475314960629921
 20
0.0125669291338583
 30
0.0
 10
0.8027795275590551
 20
0.3931850393700788
 30
0.0
 10
0.8027795275590551
 20
0.3931850393700788
 30
0.0
 10
0.8027795275590551
 20
0.3931850393700788
 30
0.0
 10
0.8027795275590551
 20
0.3931850393700788
 30
0.0
 10
0.795728346456693
 20
0.202240157480315
 30
0.0
 10
0.795728346456693
 20
0.202240157480315
 30
0.0
  0
SPLINE
  5
5E
100
AcDbEntity
  8
Layer 1
370
     5
100
AcDbSpline
210
0.0
220
0.0
230
1.0
 70
     1
 71
     3
 72
    20
 73
    16
 74
     0
 42
0.0000000001
 43
0.0000000001
 40
0.0
 40
0.0
 40
0.0
 40
0.0
 40
0.25
 40
0.25
 40
0.25
 40
0.25
 40
0.5
 40
0.5
 40
0.5
 40
0.5
 40
0.75
 40
0.75
 40
0.75
 40
0.75
 40
1.0
 40
1.0
 40
1.0
 40
1.0
 10
0.795728346456693
 20
0.202240157480315
 30
0.0
 10
0.795728346456693
 20
0.202240157480315
 30
0.0
 10
1.44048031496063
 20
-0.1783779527559055
 30
0.0
 10
1.44048031496063
 20
-0.1783779527559055
 30
0.0
 10
1.44048031496063
 20
-0.1783779527559055
 30
0.0
 10
1.44048031496063
 20
-0.1783779527559055
 30
0.0
 10
1.4475314960629921
 20
0.0125669291338583
 30
0.0
 10
1.4475314960629921
 20
0.0125669291338583
 30
0.0
 10
1.4475314960629921
 20
0.0125669291338583
 30
0.0
 10
1.4475314960629921
 20
0.0125669291338583
 30
0.0
 10
0.8027795275590551
 20
0.3931850393700788
 30
0.0
 10
0.8027795275590551
 20
0.3931850393700788
 30
0.0
 10
0.8027795275590551
 20
0.3931850393700788
 30
0.0
 10
0.8027795275590551
 20
0.3931850393700788
 30
0.0
 10
0.795728346456693
 20
0.202240157480315
 30
0.0
 10
0.795728346456693
 20
0.202240157480315
 30
0.0
  0
SPLINE
  5
5F
100
AcDbEntity
  8
Layer 1
 62
     9
100
AcDbSpline
210
0.0
220
0.0
230
1.0
 70
     1
 71
     3
 72
    20
 73
    16
 74
     0
 42
0.0000000001
 43
0.0000000001
 40
0.0
 40
0.0
 40
0.0
 40
0.0
 40
0.25
 40
0.25
 40
0.25
 40
0.25
 40
0.5
 40
0.5
 40
0.5
 40
0.5
 40
0.75
 40
0.75
 40
0.75
 40
0.75
 40
1.0
 40
1.0
 40
1.0
 40
1.0
 10
0.8027795275590551
 20
0.3931850393700788
 30
0.0
 10
0.8027795275590551
 20
0.3931850393700788
 30
0.0
 10
1.4475314960629921
 20
0.0125669291338583
 30
0.0
 10
1.4475314960629921
 20
0.0125669291338583
 30
0.0
 10
1.4475314960629921
 20
0.0125669291338583
 30
0.0
 10
1.4475314960629921
 20
0.0125669291338583
 30
0.0
 10
1.4978267716535434
 20
0.0321102362204724
 30
0.0
 10
1.4978267716535434
 20
0.0321102362204724
 30
0.0
 10
1.4978267716535434
 20
0.0321102362204724
 30
0.0
 10
1.4978267716535434
 20
0.0321102362204724
 30
0.0
 10
0.8530748031496064
 20
0.4127283464566929
 30
0.0
 10
0.8530748031496064
 20
0.4127283464566929
 30
0.0
 10
0.8530748031496064
 20
0.4127283464566929
 30
0.0
 10
0.8530748031496064
 20
0.4127283464566929
 30
0.0
 10
0.8027795275590551
 20
0.3931850393700788
 30
0.0
 10
0.8027795275590551
 20
0.3931850393700788
 30
0.0
  0
SPLINE
  5
60
100
AcDbEntity
  8
Layer 1
 62
     9
100
AcDbSpline
210
0.0
220
0.0
230
1.0
 70
     1
 71
     3
 72
    20
 73
    16
 74
     0
 42
0.0000000001
 43
0.0000000001
 40
0.0
 40
0.0
 40
0.0
 40
0.0
 40
0.25
 40
0.25
 40
0.25
 40
0.25
 40
0.5
 40
0.5
 40
0.5
 40
0.5
 40
0.75
 40
0.75
 40
0.75
 40
0.75
 40
1.0
 40
1.0
 40
1.0
 40
1.0
 10
0.8530748031496064
 20
0.4127283464566929
 30
0.0
 10
0.8530748031496064
 20
0.4127283464566929
 30
0.0
 10
1.4978267716535434
 20
0.0321102362204724
 30
0.0
 10
1.4978267716535434
 20
0.0321102362204724
 30
0.0
 10
1.4978267716535434
 20
0.0321102362204724
 30
0.0
 10
1.4978267716535434
 20
0.0321102362204724
 30
0.0
 10
1.5455236220472441
 20
0.0539212598425197
 30
0.0
 10
1.5455236220472441
 20
0.0539212598425197
 30
0.0
 10
1.5455236220472441
 20
0.0539212598425197
 30
0.0
 10
1.5455236220472441
 20
0.0539212598425197
 30
0.0
 10
0.9007716535433071
 20
0.4345393700787402
 30
0.0
 10
0.9007716535433071
 20
0.4345393700787402
 30
0.0
 10
0.9007716535433071
 20
0.4345393700787402
 30
0.0
 10
0.9007716535433071
 20
0.4345393700787402
 30
0.0
 10
0.8530748031496064
 20
0.4127283464566929
 30
0.0
 10
0.8530748031496064
 20
0.4127283464566929
 30
0.0
  0
SPLINE
  5
61
100
AcDbEntity
  8
Layer 1
 62
     9
100
AcDbSpline
210
0.0
220
0.0
230
1.0
 70
     1
 71
     3
 72
    20
 73
    16
 74
     0
 42
0.0000000001
 43
0.0000000001
 40
0.0
 40
0.0
 40
0.0
 40
0.0
 40
0.25
 40
0.25
 40
0.25
 40
0.25
 40
0.5
 40
0.5
 40
0.5
 40
0.5
 40
0.75
 40
0.75
 40
0.75
 40
0.75
 40
1.0
 40
1.0
 40
1.0
 40
1.0
 10
0.9007716535433071
 20
0.4345393700787402
 30
0.0
 10
0.9007716535433071
 20
0.4345393700787402
 30
0.0
 10
1.5455236220472441
 20
0.0539212598425197
 30
0.0
 10
1.5455236220472441
 20
0.0539212598425197
 30
0.0
 10
1.5455236220472441
 20
0.0539212598425197
 30
0.0
 10
1.5455236220472441
 20
0.0539212598425197
 30
0.0
 10
1.5906062992125984
 20
0.0778779527559055
 30
0.0
 10
1.5906062992125984
 20
0.0778779527559055
 30
0.0
 10
1.5906062992125984
 20
0.0778779527559055
 30
0.0
 10
1.5906062992125984
 20
0.0778779527559055
 30
0.0
 10
0.9458543307086614
 20
0.458496062992126
 30
0.0
 10
0.9458543307086614
 20
0.458496062992126
 30
0.0
 10
0.9458543307086614
 20
0.458496062992126
 30
0.0
 10
0.9458543307086614
 20
0.458496062992126
 30
0.0
 10
0.9007716535433071
 20
0.4345393700787402
 30
0.0
 10
0.9007716535433071
 20
0.4345393700787402
 30
0.0
  0
SPLINE
  5
62
100
AcDbEntity
  8
Layer 1
 62
     9
100
AcDbSpline
210
0.0
220
0.0
230
1.0
 70
     1
 71
     3
 72
    20
 73
    16
 74
     0
 42
0.0000000001
 43
0.0000000001
 40
0.0
 40
0.0
 40
0.0
 40
0.0
 40
0.25
 40
0.25
 40
0.25
 40
0.25
 40
0.5
 40
0.5
 40
0.5
 40
0.5
 40
0.75
 40
0.75
 40
0.75
 40
0.75
 40
1.0
 40
1.0
 40
1.0
 40
1.0
 10
0.9458543307086614
 20
0.458496062992126
 30
0.0
 10
0.9458543307086614
 20
0.458496062992126
 30
0.0
 10
1.5906062992125984
 20
0.0778779527559055
 30
0.0
 10
1.5906062992125984
 20
0.0778779527559055
 30
0.0
 10
1.5906062992125984
 20
0.0778779527559055
 30
0.0
 10
1.5906062992125984
 20
0.0778779527559055
 30
0.0
 10
1.6330866141732283
 20
0.1038740157480315
 30
0.0
 10
1.6330866141732283
 20
0.1038740157480315
 30
0.0
 10
1.6330866141732283
 20
0.1038740157480315
 30
0.0
 10
1.6330866141732283
 20
0.1038740157480315
 30
0.0
 10
0.9883346456692914
 20
0.484492125984252
 30
0.0
 10
0.9883346456692914
 20
0.484492125984252
 30
0.0
 10
0.9883346456692914
 20
0.484492125984252
 30
0.0
 10
0.9883346456692914
 20
0.484492125984252
 30
0.0
 10
0.9458543307086614
 20
0.458496062992126
 30
0.0
 10
0.9458543307086614
 20
0.458496062992126
 30
0.0
  0
SPLINE
  5
63
100
AcDbEntity
  8
Layer 1
 62
     9
100
AcDbSpline
210
0.0
220
0.0
230
1.0
 70
     1
 71
     3
 72
    20
 73
    16
 74
     0
 42
0.0000000001
 43
0.0000000001
 40
0.0
 40
0.0
 40
0.0
 40
0.0
 40
0.25
 40
0.25
 40
0.25
 40
0.25
 40
0.5
 40
0.5
 40
0.5
 40
0.5
 40
0.75
 40
0.75
 40
0.75
 40
0.75
 40
1.0
 40
1.0
 40
1.0
 40
1.0
 10
0.9883346456692914
 20
0.484492125984252
 30
0.0
 10
0.9883346456692914
 20
0.484492125984252
 30
0.0
 10
1.6330866141732283
 20
0.1038740157480315
 30
0.0
 10
1.6330866141732283
 20
0.1038740157480315
 30
0.0
 10
1.6330866141732283
 20
0.1038740157480315
 30
0.0
 10
1.6330866141732283
 20
0.1038740157480315
 30
0.0
 10
1.672952755905512
 20
0.1317834645669291
 30
0.0
 10
1.672952755905512
 20
0.1317834645669291
 30
0.0
 10
1.672952755905512
 20
0.1317834645669291
 30
0.0
 10
1.672952755905512
 20
0.1317834645669291
 30
0.0
 10
1.0282007874015748
 20
0.5124015748031496
 30
0.0
 10
1.0282007874015748
 20
0.5124015748031496
 30
0.0
 10
1.0282007874015748
 20
0.5124015748031496
 30
0.0
 10
1.0282007874015748
 20
0.5124015748031496
 30
0.0
 10
0.9883346456692914
 20
0.484492125984252
 30
0.0
 10
0.9883346456692914
 20
0.484492125984252
 30
0.0
  0
SPLINE
  5
64
100
AcDbEntity
  8
Layer 1
 62
     9
100
AcDbSpline
210
0.0
220
0.0
230
1.0
 70
     1
 71
     3
 72
    20
 73
    16
 74
     0
 42
0.0000000001
 43
0.0000000001
 40
0.0
 40
0.0
 40
0.0
 40
0.0
 40
0.25
 40
0.25
 40
0.25
 40
0.25
 40
0.5
 40
0.5
 40
0.5
 40
0.5
 40
0.75
 40
0.75
 40
0.75
 40
0.75
 40
1.0
 40
1.0
 40
1.0
 40
1.0
 10
1.0282007874015748
 20
0.5124015748031496
 30
0.0
 10
1.0282007874015748
 20
0.5124015748031496
 30
0.0
 10
1.672952755905512
 20
0.1317834645669291
 30
0.0
 10
1.672952755905512
 20
0.1317834645669291
 30
0.0
 10
1.672952755905512
 20
0.1317834645669291
 30
0.0
 10
1.672952755905512
 20
0.1317834645669291
 30
0.0
 10
1.710224409448819
 20
0.1615157480314961
 30
0.0
 10
1.710224409448819
 20
0.1615157480314961
 30
0.0
 10
1.710224409448819
 20
0.1615157480314961
 30
0.0
 10
1.710224409448819
 20
0.1615157480314961
 30
0.0
 10
1.0654724409448819
 20
0.5421338582677165
 30
0.0
 10
1.0654724409448819
 20
0.5421338582677165
 30
0.0
 10
1.0654724409448819
 20
0.5421338582677165
 30
0.0
 10
1.0654724409448819
 20
0.5421338582677165
 30
0.0
 10
1.0282007874015748
 20
0.5124015748031496
 30
0.0
 10
1.0282007874015748
 20
0.5124015748031496
 30
0.0
  0
SPLINE
  5
65
100
AcDbEntity
  8
Layer 1
 62
     9
100
AcDbSpline
210
0.0
220
0.0
230
1.0
 70
     1
 71
     3
 72
    20
 73
    16
 74
     0
 42
0.0000000001
 43
0.0000000001
 40
0.0
 40
0.0
 40
0.0
 40
0.0
 40
0.25
 40
0.25
 40
0.25
 40
0.25
 40
0.5
 40
0.5
 40
0.5
 40
0.5
 40
0.75
 40
0.75
 40
0.75
 40
0.75
 40
1.0
 40
1.0
 40
1.0
 40
1.0
 10
1.0654724409448819
 20
0.5421338582677165
 30
0.0
 10
1.0654724409448819
 20
0.5421338582677165
 30
0.0
 10
1.710224409448819
 20
0.1615157480314961
 30
0.0
 10
1.710224409448819
 20
0.1615157480314961
 30
0.0
 10
1.710224409448819
 20
0.1615157480314961
 30
0.0
 10
1.710224409448819
 20
0.1615157480314961
 30
0.0
 10
1.7448858267716536
 20
0.1929409448818898
 30
0.0
 10
1.7448858267716536
 20
0.1929409448818898
 30
0.0
 10
1.7448858267716536
 20
0.1929409448818898
 30
0.0
 10
1.7448858267716536
 20
0.1929409448818898
 30
0.0
 10
1.1001338582677165
 20
0.5735590551181102
 30
0.0
 10
1.1001338582677165
 20
0.5735590551181102
 30
0.0
 10
1.1001338582677165
 20
0.5735590551181102
 30
0.0
 10
1.1001338582677165
 20
0.5735590551181102
 30
0.0
 10
1.0654724409448819
 20
0.5421338582677165
 30
0.0
 10
1.0654724409448819
 20
0.5421338582677165
 30
0.0
  0
SPLINE
  5
66
100
AcDbEntity
  8
Layer 1
 62
     9
100
AcDbSpline
210
0.0
220
0.0
230
1.0
 70
     1
 71
     3
 72
    20
 73
    16
 74
     0
 42
0.0000000001
 43
0.0000000001
 40
0.0
 40
0.0
 40
0.0
 40
0.0
 40
0.25
 40
0.25
 40
0.25
 40
0.25
 40
0.5
 40
0.5
 40
0.5
 40
0.5
 40
0.75
 40
0.75
 40
0.75
 40
0.75
 40
1.0
 40
1.0
 40
1.0
 40
1.0
 10
1.1001338582677165
 20
0.5735590551181102
 30
0.0
 10
1.1001338582677165
 20
0.5735590551181102
 30
0.0
 10
1.7448858267716536
 20
0.1929409448818898
 30
0.0
 10
1.7448858267716536
 20
0.1929409448818898
 30
0.0
 10
1.7448858267716536
 20
0.1929409448818898
 30
0.0
 10
1.7448858267716536
 20
0.1929409448818898
 30
0.0
 10
1.7769488188976379
 20
0.2259606299212598
 30
0.0
 10
1.7769488188976379
 20
0.2259606299212598
 30
0.0
 10
1.7769488188976379
 20
0.2259606299212598
 30
0.0
 10
1.7769488188976379
 20
0.2259606299212598
 30
0.0
 10
1.1321968503937008
 20
0.6065787401574804
 30
0.0
 10
1.1321968503937008
 20
0.6065787401574804
 30
0.0
 10
1.1321968503937008
 20
0.6065787401574804
 30
0.0
 10
1.1321968503937008
 20
0.6065787401574804
 30
0.0
 10
1.1001338582677165
 20
0.5735590551181102
 30
0.0
 10
1.1001338582677165
 20
0.5735590551181102
 30
0.0
  0
SPLINE
  5
67
100
AcDbEntity
  8
Layer 1
 62
     9
100
AcDbSpline
210
0.0
220
0.0
230
1.0
 70
     1
 71
     3
 72
    20
 73
    16
 74
     0
 42
0.0000000001
 43
0.0000000001
 40
0.0
 40
0.0
 40
0.0
 40
0.0
 40
0.25
 40
0.25
 40
0.25
 40
0.25
 40
0.5
 40
0.5
 40
0.5
 40
0.5
 40
0.75
 40
0.75
 40
0.75
 40
0.75
 40
1.0
 40
1.0
 40
1.0
 40
1.0
 10
1.1321968503937008
 20
0.6065787401574804
 30
0.0
 10
1.1321968503937008
 20
0.6065787401574804
 30
0.0
 10
1.7769488188976379
 20
0.2259606299212598
 30
0.0
 10
1.7769488188976379
 20
0.2259606299212598
 30
0.0
 10
1.7769488188976379
 20
0.2259606299212598
 30
0.0
 10
1.7769488188976379
 20
0.2259606299212598
 30
0.0
 10
1.8063976377952757
 20
0.2604448818897638
 30
0.0
 10
1.8063976377952757
 20
0.2604448818897638
 30
0.0
 10
1.8063976377952757
 20
0.2604448818897638
 30
0.0
 10
1.8063976377952757
 20
0.2604448818897638
 30
0.0
 10
1.1616456692913386
 20
0.6410629921259843
 30
0.0
 10
1.1616456692913386
 20
0.6410629921259843
 30
0.0
 10
1.1616456692913386
 20
0.6410629921259843
 30
0.0
 10
1.1616456692913386
 20
0.6410629921259843
 30
0.0
 10
1.1321968503937008
 20
0.6065787401574804
 30
0.0
 10
1.1321968503937008
 20
0.6065787401574804
 30
0.0
  0
SPLINE
  5
68
100
AcDbEntity
  8
Layer 1
 62
     9
100
AcDbSpline
210
0.0
220
0.0
230
1.0
 70
     1
 71
     3
 72
    20
 73
    16
 74
     0
 42
0.0000000001
 43
0.0000000001
 40
0.0
 40
0.0
 40
0.0
 40
0.0
 40
0.25
 40
0.25
 40
0.25
 40
0.25
 40
0.5
 40
0.5
 40
0.5
 40
0.5
 40
0.75
 40
0.75
 40
0.75
 40
0.75
 40
1.0
 40
1.0
 40
1.0
 40
1.0
 10
1.1616456692913386
 20
0.6410629921259843
 30
0.0
 10
1.1616456692913386
 20
0.6410629921259843
 30
0.0
 10
1.8063976377952757
 20
0.2604448818897638
 30
0.0
 10
1.8063976377952757
 20
0.2604448818897638
 30
0.0
 10
1.8063976377952757
 20
0.2604448818897638
 30
0.0
 10
1.8063976377952757
 20
0.2604448818897638
 30
0.0
 10
1.833251968503937
 20
0.2962992125984252
 30
0.0
 10
1.833251968503937
 20
0.2962992125984252
 30
0.0
 10
1.833251968503937
 20
0.2962992125984252
 30
0.0
 10
1.833251968503937
 20
0.2962992125984252
 30
0.0
 10
1.1885000000000001
 20
0.6769173228346457
 30
0.0
 10
1.1885000000000001
 20
0.6769173228346457
 30
0.0
 10
1.1885000000000001
 20
0.6769173228346457
 30
0.0
 10
1.1885000000000001
 20
0.6769173228346457
 30
0.0
 10
1.1616456692913386
 20
0.6410629921259843
 30
0.0
 10
1.1616456692913386
 20
0.6410629921259843
 30
0.0
  0
SPLINE
  5
69
100
AcDbEntity
  8
Layer 1
 62
     9
100
AcDbSpline
210
0.0
220
0.0
230
1.0
 70
     1
 71
     3
 72
    20
 73
    16
 74
     0
 42
0.0000000001
 43
0.0000000001
 40
0.0
 40
0.0
 40
0.0
 40
0.0
 40
0.25
 40
0.25
 40
0.25
 40
0.25
 40
0.5
 40
0.5
 40
0.5
 40
0.5
 40
0.75
 40
0.75
 40
0.75
 40
0.75
 40
1.0
 40
1.0
 40
1.0
 40
1.0
 10
1.1885000000000001
 20
0.6769173228346457
 30
0.0
 10
1.1885000000000001
 20
0.6769173228346457
 30
0.0
 10
1.833251968503937
 20
0.2962992125984252
 30
0.0
 10
1.833251968503937
 20
0.2962992125984252
 30
0.0
 10
1.833251968503937
 20
0.2962992125984252
 30
0.0
 10
1.833251968503937
 20
0.2962992125984252
 30
0.0
 10
1.8575000000000002
 20
0.3334015748031496
 30
0.0
 10
1.8575000000000002
 20
0.3334015748031496
 30
0.0
 10
1.8575000000000002
 20
0.3334015748031496
 30
0.0
 10
1.8575000000000002
 20
0.3334015748031496
 30
0.0
 10
1.212748031496063
 20
0.7140196850393701
 30
0.0
 10
1.212748031496063
 20
0.7140196850393701
 30
0.0
 10
1.212748031496063
 20
0.7140196850393701
 30
0.0
 10
1.212748031496063
 20
0.7140196850393701
 30
0.0
 10
1.1885000000000001
 20
0.6769173228346457
 30
0.0
 10
1.1885000000000001
 20
0.6769173228346457
 30
0.0
  0
SPLINE
  5
6A
100
AcDbEntity
  8
Layer 1
 62
     9
100
AcDbSpline
210
0.0
220
0.0
230
1.0
 70
     1
 71
     3
 72
    20
 73
    16
 74
     0
 42
0.0000000001
 43
0.0000000001
 40
0.0
 40
0.0
 40
0.0
 40
0.0
 40
0.25
 40
0.25
 40
0.25
 40
0.25
 40
0.5
 40
0.5
 40
0.5
 40
0.5
 40
0.75
 40
0.75
 40
0.75
 40
0.75
 40
1.0
 40
1.0
 40
1.0
 40
1.0
 10
1.212748031496063
 20
0.7140196850393701
 30
0.0
 10
1.212748031496063
 20
0.7140196850393701
 30
0.0
 10
1.8575000000000002
 20
0.3334015748031496
 30
0.0
 10
1.8575000000000002
 20
0.3334015748031496
 30
0.0
 10
1.8575000000000002
 20
0.3334015748031496
 30
0.0
 10
1.8575000000000002
 20
0.3334015748031496
 30
0.0
 10
1.8791574803149607
 20
0.3716456692913386
 30
0.0
 10
1.8791574803149607
 20
0.3716456692913386
 30
0.0
 10
1.8791574803149607
 20
0.3716456692913386
 30
0.0
 10
1.8791574803149607
 20
0.3716456692913386
 30
0.0
 10
1.2344055118110238
 20
0.7522637795275591
 30
0.0
 10
1.2344055118110238
 20
0.7522637795275591
 30
0.0
 10
1.2344055118110238
 20
0.7522637795275591
 30
0.0
 10
1.2344055118110238
 20
0.7522637795275591
 30
0.0
 10
1.212748031496063
 20
0.7140196850393701
 30
0.0
 10
1.212748031496063
 20
0.7140196850393701
 30
0.0
  0
SPLINE
  5
6B
100
AcDbEntity
  8
Layer 1
 62
     9
100
AcDbSpline
210
0.0
220
0.0
230
1.0
 70
     1
 71
     3
 72
    20
 73
    16
 74
     0
 42
0.0000000001
 43
0.0000000001
 40
0.0
 40
0.0
 40
0.0
 40
0.0
 40
0.25
 40
0.25
 40
0.25
 40
0.25
 40
0.5
 40
0.5
 40
0.5
 40
0.5
 40
0.75
 40
0.75
 40
0.75
 40
0.75
 40
1.0
 40
1.0
 40
1.0
 40
1.0
 10
1.2344055118110238
 20
0.7522637795275591
 30
0.0
 10
1.2344055118110238
 20
0.7522637795275591
 30
0.0
 10
1.8791574803149607
 20
0.3716456692913386
 30
0.0
 10
1.8791574803149607
 20
0.3716456692913386
 30
0.0
 10
1.8791574803149607
 20
0.3716456692913386
 30
0.0
 10
1.8791574803149607
 20
0.3716456692913386
 30
0.0
 10
1.8982047244094489
 20
0.4109133858267717
 30
0.0
 10
1.8982047244094489
 20
0.4109133858267717
 30
0.0
 10
1.8982047244094489
 20
0.4109133858267717
 30
0.0
 10
1.8982047244094489
 20
0.4109133858267717
 30
0.0
 10
1.2534527559055118
 20
0.7915314960629921
 30
0.0
 10
1.2534527559055118
 20
0.7915314960629921
 30
0.0
 10
1.2534527559055118
 20
0.7915314960629921
 30
0.0
 10
1.2534527559055118
 20
0.7915314960629921
 30
0.0
 10
1.2344055118110238
 20
0.7522637795275591
 30
0.0
 10
1.2344055118110238
 20
0.7522637795275591
 30
0.0
  0
SPLINE
  5
6C
100
AcDbEntity
  8
Layer 1
 62
     9
100
AcDbSpline
210
0.0
220
0.0
230
1.0
 70
     1
 71
     3
 72
    20
 73
    16
 74
     0
 42
0.0000000001
 43
0.0000000001
 40
0.0
 40
0.0
 40
0.0
 40
0.0
 40
0.25
 40
0.25
 40
0.25
 40
0.25
 40
0.5
 40
0.5
 40
0.5
 40
0.5
 40
0.75
 40
0.75
 40
0.75
 40
0.75
 40
1.0
 40
1.0
 40
1.0
 40
1.0
 10
1.2534527559055118
 20
0.7915314960629921
 30
0.0
 10
1.2534527559055118
 20
0.7915314960629921
 30
0.0
 10
1.8982047244094489
 20
0.4109133858267717
 30
0.0
 10
1.8982047244094489
 20
0.4109133858267717
 30
0.0
 10
1.8982047244094489
 20
0.4109133858267717
 30
0.0
 10
1.8982047244094489
 20
0.4109133858267717
 30
0.0
 10
1.9146574803149607
 20
0.4511023622047244
 30
0.0
 10
1.9146574803149607
 20
0.4511023622047244
 30
0.0
 10
1.9146574803149607
 20
0.4511023622047244
 30
0.0
 10
1.9146574803149607
 20
0.4511023622047244
 30
0.0
 10
1.2699055118110236
 20
0.8317204724409449
 30
0.0
 10
1.2699055118110236
 20
0.8317204724409449
 30
0.0
 10
1.2699055118110236
 20
0.8317204724409449
 30
0.0
 10
1.2699055118110236
 20
0.8317204724409449
 30
0.0
 10
1.2534527559055118
 20
0.7915314960629921
 30
0.0
 10
1.2534527559055118
 20
0.7915314960629921
 30
0.0
  0
SPLINE
  5
6D
100
AcDbEntity
  8
Layer 1
 62
     9
100
AcDbSpline
210
0.0
220
0.0
230
1.0
 70
     1
 71
     3
 72
    20
 73
    16
 74
     0
 42
0.0000000001
 43
0.0000000001
 40
0.0
 40
0.0
 40
0.0
 40
0.0
 40
0.25
 40
0.25
 40
0.25
 40
0.25
 40
0.5
 40
0.5
 40
0.5
 40
0.5
 40
0.75
 40
0.75
 40
0.75
 40
0.75
 40
1.0
 40
1.0
 40
1.0
 40
1.0
 10
1.2699055118110236
 20
0.8317204724409449
 30
0.0
 10
1.2699055118110236
 20
0.8317204724409449
 30
0.0
 10
1.9146574803149607
 20
0.4511023622047244
 30
0.0
 10
1.9146574803149607
 20
0.4511023622047244
 30
0.0
 10
1.9146574803149607
 20
0.4511023622047244
 30
0.0
 10
1.9146574803149607
 20
0.4511023622047244
 30
0.0
 10
1.9285118110236221
 20
0.4920905511811024
 30
0.0
 10
1.9285118110236221
 20
0.4920905511811024
 30
0.0
 10
1.9285118110236221
 20
0.4920905511811024
 30
0.0
 10
1.9285118110236221
 20
0.4920905511811024
 30
0.0
 10
1.283759842519685
 20
0.8727086614173228
 30
0.0
 10
1.283759842519685
 20
0.8727086614173228
 30
0.0
 10
1.283759842519685
 20
0.8727086614173228
 30
0.0
 10
1.283759842519685
 20
0.8727086614173228
 30
0.0
 10
1.2699055118110236
 20
0.8317204724409449
 30
0.0
 10
1.2699055118110236
 20
0.8317204724409449
 30
0.0
  0
SPLINE
  5
6E
100
AcDbEntity
  8
Layer 1
 62
     9
100
AcDbSpline
210
0.0
220
0.0
230
1.0
 70
     1
 71
     3
 72
    20
 73
    16
 74
     0
 42
0.0000000001
 43
0.0000000001
 40
0.0
 40
0.0
 40
0.0
 40
0.0
 40
0.25
 40
0.25
 40
0.25
 40
0.25
 40
0.5
 40
0.5
 40
0.5
 40
0.5
 40
0.75
 40
0.75
 40
0.75
 40
0.75
 40
1.0
 40
1.0
 40
1.0
 40
1.0
 10
1.283759842519685
 20
0.8727086614173228
 30
0.0
 10
1.283759842519685
 20
0.8727086614173228
 30
0.0
 10
1.9285118110236221
 20
0.4920905511811024
 30
0.0
 10
1.9285118110236221
 20
0.4920905511811024
 30
0.0
 10
1.9285118110236221
 20
0.4920905511811024
 30
0.0
 10
1.9285118110236221
 20
0.4920905511811024
 30
0.0
 10
1.9397677165354332
 20
0.5337716535433071
 30
0.0
 10
1.9397677165354332
 20
0.5337716535433071
 30
0.0
 10
1.9397677165354332
 20
0.5337716535433071
 30
0.0
 10
1.9397677165354332
 20
0.5337716535433071
 30
0.0
 10
1.2950157480314961
 20
0.9143897637795276
 30
0.0
 10
1.2950157480314961
 20
0.9143897637795276
 30
0.0
 10
1.2950157480314961
 20
0.9143897637795276
 30
0.0
 10
1.2950157480314961
 20
0.9143897637795276
 30
0.0
 10
1.283759842519685
 20
0.8727086614173228
 30
0.0
 10
1.283759842519685
 20
0.8727086614173228
 30
0.0
  0
SPLINE
  5
6F
100
AcDbEntity
  8
Layer 1
 62
     9
100
AcDbSpline
210
0.0
220
0.0
230
1.0
 70
     1
 71
     3
 72
    20
 73
    16
 74
     0
 42
0.0000000001
 43
0.0000000001
 40
0.0
 40
0.0
 40
0.0
 40
0.0
 40
0.25
 40
0.25
 40
0.25
 40
0.25
 40
0.5
 40
0.5
 40
0.5
 40
0.5
 40
0.75
 40
0.75
 40
0.75
 40
0.75
 40
1.0
 40
1.0
 40
1.0
 40
1.0
 10
1.2950157480314961
 20
0.9143897637795276
 30
0.0
 10
1.2950157480314961
 20
0.9143897637795276
 30
0.0
 10
1.9397677165354332
 20
0.5337716535433071
 30
0.0
 10
1.9397677165354332
 20
0.5337716535433071
 30
0.0
 10
1.9397677165354332
 20
0.5337716535433071
 30
0.0
 10
1.9397677165354332
 20
0.5337716535433071
 30
0.0
 10
1.9484251968503938
 20
0.5760196850393701
 30
0.0
 10
1.9484251968503938
 20
0.5760196850393701
 30
0.0
 10
1.9484251968503938
 20
0.5760196850393701
 30
0.0
 10
1.9484251968503938
 20
0.5760196850393701
 30
0.0
 10
1.3036732283464567
 20
0.9566377952755906
 30
0.0
 10
1.3036732283464567
 20
0.9566377952755906
 30
0.0
 10
1.3036732283464567
 20
0.9566377952755906
 30
0.0
 10
1.3036732283464567
 20
0.9566377952755906
 30
0.0
 10
1.2950157480314961
 20
0.9143897637795276
 30
0.0
 10
1.2950157480314961
 20
0.9143897637795276
 30
0.0
  0
SPLINE
  5
70
100
AcDbEntity
  8
Layer 1
 62
     9
100
AcDbSpline
210
0.0
220
0.0
230
1.0
 70
     1
 71
     3
 72
    20
 73
    16
 74
     0
 42
0.0000000001
 43
0.0000000001
 40
0.0
 40
0.0
 40
0.0
 40
0.0
 40
0.25
 40
0.25
 40
0.25
 40
0.25
 40
0.5
 40
0.5
 40
0.5
 40
0.5
 40
0.75
 40
0.75
 40
0.75
 40
0.75
 40
1.0
 40
1.0
 40
1.0
 40
1.0
 10
1.3036732283464567
 20
0.9566377952755906
 30
0.0
 10
1.3036732283464567
 20
0.9566377952755906
 30
0.0
 10
1.9484251968503938
 20
0.5760196850393701
 30
0.0
 10
1.9484251968503938
 20
0.5760196850393701
 30
0.0
 10
1.9484251968503938
 20
0.5760196850393701
 30
0.0
 10
1.9484251968503938
 20
0.5760196850393701
 30
0.0
 10
1.9544842519685039
 20
0.618744094488189
 30
0.0
 10
1.9544842519685039
 20
0.618744094488189
 30
0.0
 10
1.9544842519685039
 20
0.618744094488189
 30
0.0
 10
1.9544842519685039
 20
0.618744094488189
 30
0.0
 10
1.309732283464567
 20
0.9993622047244095
 30
0.0
 10
1.309732283464567
 20
0.9993622047244095
 30
0.0
 10
1.309732283464567
 20
0.9993622047244095
 30
0.0
 10
1.309732283464567
 20
0.9993622047244095
 30
0.0
 10
1.3036732283464567
 20
0.9566377952755906
 30
0.0
 10
1.3036732283464567
 20
0.9566377952755906
 30
0.0
  0
SPLINE
  5
71
100
AcDbEntity
  8
Layer 1
 62
     9
100
AcDbSpline
210
0.0
220
0.0
230
1.0
 70
     1
 71
     3
 72
    20
 73
    16
 74
     0
 42
0.0000000001
 43
0.0000000001
 40
0.0
 40
0.0
 40
0.0
 40
0.0
 40
0.25
 40
0.25
 40
0.25
 40
0.25
 40
0.5
 40
0.5
 40
0.5
 40
0.5
 40
0.75
 40
0.75
 40
0.75
 40
0.75
 40
1.0
 40
1.0
 40
1.0
 40
1.0
 10
1.309732283464567
 20
0.9993622047244095
 30
0.0
 10
1.309732283464567
 20
0.9993622047244095
 30
0.0
 10
1.9544842519685039
 20
0.618744094488189
 30
0.0
 10
1.9544842519685039
 20
0.618744094488189
 30
0.0
 10
1.9544842519685039
 20
0.618744094488189
 30
0.0
 10
1.9544842519685039
 20
0.618744094488189
 30
0.0
 10
1.9579527559055119
 20
0.6618228346456693
 30
0.0
 10
1.9579527559055119
 20
0.6618228346456693
 30
0.0
 10
1.9579527559055119
 20
0.6618228346456693
 30
0.0
 10
1.9579527559055119
 20
0.6618228346456693
 30
0.0
 10
1.3132007874015748
 20
1.0424409448818899
 30
0.0
 10
1.3132007874015748
 20
1.0424409448818899
 30
0.0
 10
1.3132007874015748
 20
1.0424409448818899
 30
0.0
 10
1.3132007874015748
 20
1.0424409448818899
 30
0.0
 10
1.309732283464567
 20
0.9993622047244095
 30
0.0
 10
1.309732283464567
 20
0.9993622047244095
 30
0.0
  0
SPLINE
  5
72
100
AcDbEntity
  8
Layer 1
 62
     9
100
AcDbSpline
210
0.0
220
0.0
230
1.0
 70
     1
 71
     3
 72
    20
 73
    16
 74
     0
 42
0.0000000001
 43
0.0000000001
 40
0.0
 40
0.0
 40
0.0
 40
0.0
 40
0.25
 40
0.25
 40
0.25
 40
0.25
 40
0.5
 40
0.5
 40
0.5
 40
0.5
 40
0.75
 40
0.75
 40
0.75
 40
0.75
 40
1.0
 40
1.0
 40
1.0
 40
1.0
 10
1.3132007874015748
 20
1.0424409448818899
 30
0.0
 10
1.3132007874015748
 20
1.0424409448818899
 30
0.0
 10
1.9579527559055119
 20
0.6618228346456693
 30
0.0
 10
1.9579527559055119
 20
0.6618228346456693
 30
0.0
 10
1.9579527559055119
 20
0.6618228346456693
 30
0.0
 10
1.9579527559055119
 20
0.6618228346456693
 30
0.0
 10
1.9588267716535435
 20
0.7051456692913386
 30
0.0
 10
1.9588267716535435
 20
0.7051456692913386
 30
0.0
 10
1.9588267716535435
 20
0.7051456692913386
 30
0.0
 10
1.9588267716535435
 20
0.7051456692913386
 30
0.0
 10
1.3140748031496063
 20
1.0857637795275592
 30
0.0
 10
1.3140748031496063
 20
1.0857637795275592
 30
0.0
 10
1.3140748031496063
 20
1.0857637795275592
 30
0.0
 10
1.3140748031496063
 20
1.0857637795275592
 30
0.0
 10
1.3132007874015748
 20
1.0424409448818899
 30
0.0
 10
1.3132007874015748
 20
1.0424409448818899
 30
0.0
  0
SPLINE
  5
73
100
AcDbEntity
  8
Layer 1
 62
     9
100
AcDbSpline
210
0.0
220
0.0
230
1.0
 70
     1
 71
     3
 72
    20
 73
    16
 74
     0
 42
0.0000000001
 43
0.0000000001
 40
0.0
 40
0.0
 40
0.0
 40
0.0
 40
0.25
 40
0.25
 40
0.25
 40
0.25
 40
0.5
 40
0.5
 40
0.5
 40
0.5
 40
0.75
 40
0.75
 40
0.75
 40
0.75
 40
1.0
 40
1.0
 40
1.0
 40
1.0
 10
1.3140748031496063
 20
1.0857637795275592
 30
0.0
 10
1.3140748031496063
 20
1.0857637795275592
 30
0.0
 10
1.9588267716535435
 20
0.7051456692913386
 30
0.0
 10
1.9588267716535435
 20
0.7051456692913386
 30
0.0
 10
1.9588267716535435
 20
0.7051456692913386
 30
0.0
 10
1.9588267716535435
 20
0.7051456692913386
 30
0.0
 10
1.9571023622047246
 20
0.7485905511811024
 30
0.0
 10
1.9571023622047246
 20
0.7485905511811024
 30
0.0
 10
1.9571023622047246
 20
0.7485905511811024
 30
0.0
 10
1.9571023622047246
 20
0.7485905511811024
 30
0.0
 10
1.3123503937007874
 20
1.1292086614173229
 30
0.0
 10
1.3123503937007874
 20
1.1292086614173229
 30
0.0
 10
1.3123503937007874
 20
1.1292086614173229
 30
0.0
 10
1.3123503937007874
 20
1.1292086614173229
 30
0.0
 10
1.3140748031496063
 20
1.0857637795275592
 30
0.0
 10
1.3140748031496063
 20
1.0857637795275592
 30
0.0
  0
SPLINE
  5
74
100
AcDbEntity
  8
Layer 1
 62
     9
100
AcDbSpline
210
0.0
220
0.0
230
1.0
 70
     1
 71
     3
 72
    20
 73
    16
 74
     0
 42
0.0000000001
 43
0.0000000001
 40
0.0
 40
0.0
 40
0.0
 40
0.0
 40
0.25
 40
0.25
 40
0.25
 40
0.25
 40
0.5
 40
0.5
 40
0.5
 40
0.5
 40
0.75
 40
0.75
 40
0.75
 40
0.75
 40
1.0
 40
1.0
 40
1.0
 40
1.0
 10
1.3123503937007874
 20
1.1292086614173229
 30
0.0
 10
1.3123503937007874
 20
1.1292086614173229
 30
0.0
 10
1.9571023622047246
 20
0.7485905511811024
 30
0.0
 10
1.9571023622047246
 20
0.7485905511811024
 30
0.0
 10
1.9571023622047246
 20
0.7485905511811024
 30
0.0
 10
1.9571023622047246
 20
0.7485905511811024
 30
0.0
 10
1.9527913385826772
 20
0.7920629921259843
 30
0.0
 10
1.9527913385826772
 20
0.7920629921259843
 30
0.0
 10
1.9527913385826772
 20
0.7920629921259843
 30
0.0
 10
1.9527913385826772
 20
0.7920629921259843
 30
0.0
 10
1.3080393700787403
 20
1.1726811023622048
 30
0.0
 10
1.3080393700787403
 20
1.1726811023622048
 30
0.0
 10
1.3080393700787403
 20
1.1726811023622048
 30
0.0
 10
1.3080393700787403
 20
1.1726811023622048
 30
0.0
 10
1.3123503937007874
 20
1.1292086614173229
 30
0.0
 10
1.3123503937007874
 20
1.1292086614173229
 30
0.0
  0
SPLINE
  5
75
100
AcDbEntity
  8
Layer 1
 62
     9
100
AcDbSpline
210
0.0
220
0.0
230
1.0
 70
     1
 71
     3
 72
    20
 73
    16
 74
     0
 42
0.0000000001
 43
0.0000000001
 40
0.0
 40
0.0
 40
0.0
 40
0.0
 40
0.25
 40
0.25
 40
0.25
 40
0.25
 40
0.5
 40
0.5
 40
0.5
 40
0.5
 40
0.75
 40
0.75
 40
0.75
 40
0.75
 40
1.0
 40
1.0
 40
1.0
 40
1.0
 10
1.3080393700787403
 20
1.1726811023622048
 30
0.0
 10
1.3080393700787403
 20
1.1726811023622048
 30
0.0
 10
1.9527913385826772
 20
0.7920629921259843
 30
0.0
 10
1.9527913385826772
 20
0.7920629921259843
 30
0.0
 10
1.9527913385826772
 20
0.7920629921259843
 30
0.0
 10
1.9527913385826772
 20
0.7920629921259843
 30
0.0
 10
1.9458858267716537
 20
0.8354370078740158
 30
0.0
 10
1.9458858267716537
 20
0.8354370078740158
 30
0.0
 10
1.9458858267716537
 20
0.8354370078740158
 30
0.0
 10
1.9458858267716537
 20
0.8354370078740158
 30
0.0
 10
1.3011338582677165
 20
1.2160551181102364
 30
0.0
 10
1.3011338582677165
 20
1.2160551181102364
 30
0.0
 10
1.3011338582677165
 20
1.2160551181102364
 30
0.0
 10
1.3011338582677165
 20
1.2160551181102364
 30
0.0
 10
1.3080393700787403
 20
1.1726811023622048
 30
0.0
 10
1.3080393700787403
 20
1.1726811023622048
 30
0.0
  0
SPLINE
  5
76
100
AcDbEntity
  8
Layer 1
 62
     9
100
AcDbSpline
210
0.0
220
0.0
230
1.0
 70
     1
 71
     3
 72
    20
 73
    16
 74
     0
 42
0.0000000001
 43
0.0000000001
 40
0.0
 40
0.0
 40
0.0
 40
0.0
 40
0.25
 40
0.25
 40
0.25
 40
0.25
 40
0.5
 40
0.5
 40
0.5
 40
0.5
 40
0.75
 40
0.75
 40
0.75
 40
0.75
 40
1.0
 40
1.0
 40
1.0
 40
1.0
 10
1.3011338582677165
 20
1.2160551181102364
 30
0.0
 10
1.3011338582677165
 20
1.2160551181102364
 30
0.0
 10
1.9458858267716537
 20
0.8354370078740158
 30
0.0
 10
1.9458858267716537
 20
0.8354370078740158
 30
0.0
 10
1.9458858267716537
 20
0.8354370078740158
 30
0.0
 10
1.9458858267716537
 20
0.8354370078740158
 30
0.0
 10
1.9363937007874017
 20
0.8786062992125985
 30
0.0
 10
1.9363937007874017
 20
0.8786062992125985
 30
0.0
 10
1.9363937007874017
 20
0.8786062992125985
 30
0.0
 10
1.9363937007874017
 20
0.8786062992125985
 30
0.0
 10
1.2916417322834646
 20
1.259224409448819
 30
0.0
 10
1.2916417322834646
 20
1.259224409448819
 30
0.0
 10
1.2916417322834646
 20
1.259224409448819
 30
0.0
 10
1.2916417322834646
 20
1.259224409448819
 30
0.0
 10
1.3011338582677165
 20
1.2160551181102364
 30
0.0
 10
1.3011338582677165
 20
1.2160551181102364
 30
0.0
  0
SPLINE
  5
77
100
AcDbEntity
  8
Layer 1
 62
     9
100
AcDbSpline
210
0.0
220
0.0
230
1.0
 70
     1
 71
     3
 72
    20
 73
    16
 74
     0
 42
0.0000000001
 43
0.0000000001
 40
0.0
 40
0.0
 40
0.0
 40
0.0
 40
0.25
 40
0.25
 40
0.25
 40
0.25
 40
0.5
 40
0.5
 40
0.5
 40
0.5
 40
0.75
 40
0.75
 40
0.75
 40
0.75
 40
1.0
 40
1.0
 40
1.0
 40
1.0
 10
1.2916417322834646
 20
1.259224409448819
 30
0.0
 10
1.2916417322834646
 20
1.259224409448819
 30
0.0
 10
1.9363937007874017
 20
0.8786062992125985
 30
0.0
 10
1.9363937007874017
 20
0.8786062992125985
 30
0.0
 10
1.9363937007874017
 20
0.8786062992125985
 30
0.0
 10
1.9363937007874017
 20
0.8786062992125985
 30
0.0
 10
1.9243031496062992
 20
0.9214527559055119
 30
0.0
 10
1.9243031496062992
 20
0.9214527559055119
 30
0.0
 10
1.9243031496062992
 20
0.9214527559055119
 30
0.0
 10
1.9243031496062992
 20
0.9214527559055119
 30
0.0
 10
1.2795511811023623
 20
1.3020708661417324
 30
0.0
 10
1.2795511811023623
 20
1.3020708661417324
 30
0.0
 10
1.2795511811023623
 20
1.3020708661417324
 30
0.0
 10
1.2795511811023623
 20
1.3020708661417324
 30
0.0
 10
1.2916417322834646
 20
1.259224409448819
 30
0.0
 10
1.2916417322834646
 20
1.259224409448819
 30
0.0
  0
SPLINE
  5
78
100
AcDbEntity
  8
Layer 1
 62
     9
100
AcDbSpline
210
0.0
220
0.0
230
1.0
 70
     1
 71
     3
 72
    20
 73
    16
 74
     0
 42
0.0000000001
 43
0.0000000001
 40
0.0
 40
0.0
 40
0.0
 40
0.0
 40
0.25
 40
0.25
 40
0.25
 40
0.25
 40
0.5
 40
0.5
 40
0.5
 40
0.5
 40
0.75
 40
0.75
 40
0.75
 40
0.75
 40
1.0
 40
1.0
 40
1.0
 40
1.0
 10
1.2795511811023623
 20
1.3020708661417324
 30
0.0
 10
1.2795511811023623
 20
1.3020708661417324
 30
0.0
 10
1.9243031496062992
 20
0.9214527559055119
 30
0.0
 10
1.9243031496062992
 20
0.9214527559055119
 30
0.0
 10
1.9243031496062992
 20
0.9214527559055119
 30
0.0
 10
1.9243031496062992
 20
0.9214527559055119
 30
0.0
 10
1.9096259842519685
 20
0.9638740157480316
 30
0.0
 10
1.9096259842519685
 20
0.9638740157480316
 30
0.0
 10
1.9096259842519685
 20
0.9638740157480316
 30
0.0
 10
1.9096259842519685
 20
0.9638740157480316
 30
0.0
 10
1.2648740157480316
 20
1.3444921259842519
 30
0.0
 10
1.2648740157480316
 20
1.3444921259842519
 30
0.0
 10
1.2648740157480316
 20
1.3444921259842519
 30
0.0
 10
1.2648740157480316
 20
1.3444921259842519
 30
0.0
 10
1.2795511811023623
 20
1.3020708661417324
 30
0.0
 10
1.2795511811023623
 20
1.3020708661417324
 30
0.0
  0
SPLINE
  5
79
100
AcDbEntity
  8
Layer 1
 62
     9
100
AcDbSpline
210
0.0
220
0.0
230
1.0
 70
     1
 71
     3
 72
    20
 73
    16
 74
     0
 42
0.0000000001
 43
0.0000000001
 40
0.0
 40
0.0
 40
0.0
 40
0.0
 40
0.25
 40
0.25
 40
0.25
 40
0.25
 40
0.5
 40
0.5
 40
0.5
 40
0.5
 40
0.75
 40
0.75
 40
0.75
 40
0.75
 40
1.0
 40
1.0
 40
1.0
 40
1.0
 10
1.2648740157480316
 20
1.3444921259842519
 30
0.0
 10
1.2648740157480316
 20
1.3444921259842519
 30
0.0
 10
1.9096259842519685
 20
0.9638740157480316
 30
0.0
 10
1.9096259842519685
 20
0.9638740157480316
 30
0.0
 10
1.9096259842519685
 20
0.9638740157480316
 30
0.0
 10
1.9096259842519685
 20
0.9638740157480316
 30
0.0
 10
1.8923582677165356
 20
1.005748031496063
 30
0.0
 10
1.8923582677165356
 20
1.005748031496063
 30
0.0
 10
1.8923582677165356
 20
1.005748031496063
 30
0.0
 10
1.8923582677165356
 20
1.005748031496063
 30
0.0
 10
1.2476062992125985
 20
1.3863661417322835
 30
0.0
 10
1.2476062992125985
 20
1.3863661417322835
 30
0.0
 10
1.2476062992125985
 20
1.3863661417322835
 30
0.0
 10
1.2476062992125985
 20
1.3863661417322835
 30
0.0
 10
1.2648740157480316
 20
1.3444921259842519
 30
0.0
 10
1.2648740157480316
 20
1.3444921259842519
 30
0.0
  0
SPLINE
  5
7A
100
AcDbEntity
  8
Layer 1
 62
     9
100
AcDbSpline
210
0.0
220
0.0
230
1.0
 70
     1
 71
     3
 72
    20
 73
    16
 74
     0
 42
0.0000000001
 43
0.0000000001
 40
0.0
 40
0.0
 40
0.0
 40
0.0
 40
0.25
 40
0.25
 40
0.25
 40
0.25
 40
0.5
 40
0.5
 40
0.5
 40
0.5
 40
0.75
 40
0.75
 40
0.75
 40
0.75
 40
1.0
 40
1.0
 40
1.0
 40
1.0
 10
1.2476062992125985
 20
1.3863661417322835
 30
0.0
 10
1.2476062992125985
 20
1.3863661417322835
 30
0.0
 10
1.8923582677165356
 20
1.005748031496063
 30
0.0
 10
1.8923582677165356
 20
1.005748031496063
 30
0.0
 10
1.8923582677165356
 20
1.005748031496063
 30
0.0
 10
1.8923582677165356
 20
1.005748031496063
 30
0.0
 10
1.8725078740157481
 20
1.046972440944882
 30
0.0
 10
1.8725078740157481
 20
1.046972440944882
 30
0.0
 10
1.8725078740157481
 20
1.046972440944882
 30
0.0
 10
1.8725078740157481
 20
1.046972440944882
 30
0.0
 10
1.227755905511811
 20
1.4275905511811025
 30
0.0
 10
1.227755905511811
 20
1.4275905511811025
 30
0.0
 10
1.227755905511811
 20
1.4275905511811025
 30
0.0
 10
1.227755905511811
 20
1.4275905511811025
 30
0.0
 10
1.2476062992125985
 20
1.3863661417322835
 30
0.0
 10
1.2476062992125985
 20
1.3863661417322835
 30
0.0
  0
SPLINE
  5
7B
100
AcDbEntity
  8
Layer 1
 62
     9
100
AcDbSpline
210
0.0
220
0.0
230
1.0
 70
     1
 71
     3
 72
    20
 73
    16
 74
     0
 42
0.0000000001
 43
0.0000000001
 40
0.0
 40
0.0
 40
0.0
 40
0.0
 40
0.25
 40
0.25
 40
0.25
 40
0.25
 40
0.5
 40
0.5
 40
0.5
 40
0.5
 40
0.75
 40
0.75
 40
0.75
 40
0.75
 40
1.0
 40
1.0
 40
1.0
 40
1.0
 10
1.227755905511811
 20
1.4275905511811025
 30
0.0
 10
1.227755905511811
 20
1.4275905511811025
 30
0.0
 10
1.8725078740157481
 20
1.046972440944882
 30
0.0
 10
1.8725078740157481
 20
1.046972440944882
 30
0.0
 10
1.8725078740157481
 20
1.046972440944882
 30
0.0
 10
1.8725078740157481
 20
1.046972440944882
 30
0.0
 10
1.8500629921259844
 20
1.0874251968503938
 30
0.0
 10
1.8500629921259844
 20
1.0874251968503938
 30
0.0
 10
1.8500629921259844
 20
1.0874251968503938
 30
0.0
 10
1.8500629921259844
 20
1.0874251968503938
 30
0.0
 10
1.2053110236220472
 20
1.4680433070866141
 30
0.0
 10
1.2053110236220472
 20
1.4680433070866141
 30
0.0
 10
1.2053110236220472
 20
1.4680433070866141
 30
0.0
 10
1.2053110236220472
 20
1.4680433070866141
 30
0.0
 10
1.227755905511811
 20
1.4275905511811025
 30
0.0
 10
1.227755905511811
 20
1.4275905511811025
 30
0.0
  0
SPLINE
  5
7C
100
AcDbEntity
  8
Layer 1
 62
     9
100
AcDbSpline
210
0.0
220
0.0
230
1.0
 70
     1
 71
     3
 72
    20
 73
    16
 74
     0
 42
0.0000000001
 43
0.0000000001
 40
0.0
 40
0.0
 40
0.0
 40
0.0
 40
0.25
 40
0.25
 40
0.25
 40
0.25
 40
0.5
 40
0.5
 40
0.5
 40
0.5
 40
0.75
 40
0.75
 40
0.75
 40
0.75
 40
1.0
 40
1.0
 40
1.0
 40
1.0
 10
1.2053110236220472
 20
1.4680433070866141
 30
0.0
 10
1.2053110236220472
 20
1.4680433070866141
 30
0.0
 10
1.8500629921259844
 20
1.0874251968503938
 30
0.0
 10
1.8500629921259844
 20
1.0874251968503938
 30
0.0
 10
1.8500629921259844
 20
1.0874251968503938
 30
0.0
 10
1.8500629921259844
 20
1.0874251968503938
 30
0.0
 10
1.8250393700787402
 20
1.1270078740157481
 30
0.0
 10
1.8250393700787402
 20
1.1270078740157481
 30
0.0
 10
1.8250393700787402
 20
1.1270078740157481
 30
0.0
 10
1.8250393700787402
 20
1.1270078740157481
 30
0.0
 10
1.1802874015748033
 20
1.5076259842519686
 30
0.0
 10
1.1802874015748033
 20
1.5076259842519686
 30
0.0
 10
1.1802874015748033
 20
1.5076259842519686
 30
0.0
 10
1.1802874015748033
 20
1.5076259842519686
 30
0.0
 10
1.2053110236220472
 20
1.4680433070866141
 30
0.0
 10
1.2053110236220472
 20
1.4680433070866141
 30
0.0
  0
SPLINE
  5
7D
100
AcDbEntity
  8
Layer 1
 62
     9
100
AcDbSpline
210
0.0
220
0.0
230
1.0
 70
     1
 71
     3
 72
    20
 73
    16
 74
     0
 42
0.0000000001
 43
0.0000000001
 40
0.0
 40
0.0
 40
0.0
 40
0.0
 40
0.25
 40
0.25
 40
0.25
 40
0.25
 40
0.5
 40
0.5
 40
0.5
 40
0.5
 40
0.75
 40
0.75
 40
0.75
 40
0.75
 40
1.0
 40
1.0
 40
1.0
 40
1.0
 10
1.1802874015748033
 20
1.5076259842519686
 30
0.0
 10
1.1802874015748033
 20
1.5076259842519686
 30
0.0
 10
1.8250393700787402
 20
1.1270078740157481
 30
0.0
 10
1.8250393700787402
 20
1.1270078740157481
 30
0.0
 10
1.8250393700787402
 20
1.1270078740157481
 30
0.0
 10
1.8250393700787402
 20
1.1270078740157481
 30
0.0
 10
1.7974212598425197
 20
1.1655944881889764
 30
0.0
 10
1.7974212598425197
 20
1.1655944881889764
 30
0.0
 10
1.7974212598425197
 20
1.1655944881889764
 30
0.0
 10
1.7974212598425197
 20
1.1655944881889764
 30
0.0
 10
1.1526692913385828
 20
1.5462125984251969
 30
0.0
 10
1.1526692913385828
 20
1.5462125984251969
 30
0.0
 10
1.1526692913385828
 20
1.5462125984251969
 30
0.0
 10
1.1526692913385828
 20
1.5462125984251969
 30
0.0
 10
1.1802874015748033
 20
1.5076259842519686
 30
0.0
 10
1.1802874015748033
 20
1.5076259842519686
 30
0.0
  0
SPLINE
  5
7E
100
AcDbEntity
  8
Layer 1
 62
   253
100
AcDbSpline
210
0.0
220
0.0
230
1.0
 70
     1
 71
     3
 72
    20
 73
    16
 74
     0
 42
0.0000000001
 43
0.0000000001
 40
0.0
 40
0.0
 40
0.0
 40
0.0
 40
0.25
 40
0.25
 40
0.25
 40
0.25
 40
0.5
 40
0.5
 40
0.5
 40
0.5
 40
0.75
 40
0.75
 40
0.75
 40
0.75
 40
1.0
 40
1.0
 40
1.0
 40
1.0
 10
1.1526692913385828
 20
1.5462125984251969
 30
0.0
 10
1.1526692913385828
 20
1.5462125984251969
 30
0.0
 10
1.7974212598425197
 20
1.1655944881889764
 30
0.0
 10
1.7974212598425197
 20
1.1655944881889764
 30
0.0
 10
1.7974212598425197
 20
1.1655944881889764
 30
0.0
 10
1.7974212598425197
 20
1.1655944881889764
 30
0.0
 10
1.7672283464566929
 20
1.2030826771653544
 30
0.0
 10
1.7672283464566929
 20
1.2030826771653544
 30
0.0
 10
1.7672283464566929
 20
1.2030826771653544
 30
0.0
 10
1.7672283464566929
 20
1.2030826771653544
 30
0.0
 10
1.122476377952756
 20
1.5837007874015749
 30
0.0
 10
1.122476377952756
 20
1.5837007874015749
 30
0.0
 10
1.122476377952756
 20
1.5837007874015749
 30
0.0
 10
1.122476377952756
 20
1.5837007874015749
 30
0.0
 10
1.1526692913385828
 20
1.5462125984251969
 30
0.0
 10
1.1526692913385828
 20
1.5462125984251969
 30
0.0
  0
SPLINE
  5
7F
100
AcDbEntity
  8
Layer 1
370
     5
100
AcDbSpline
210
0.0
220
0.0
230
1.0
 70
     1
 71
     3
 72
   268
 73
   264
 74
     0
 42
0.0000000001
 43
0.0000000001
 40
0.0
 40
0.0
 40
0.0
 40
0.0
 40
0.0151515151515152
 40
0.0151515151515152
 40
0.0151515151515152
 40
0.0151515151515152
 40
0.0303030303030303
 40
0.0303030303030303
 40
0.0303030303030303
 40
0.0303030303030303
 40
0.0454545454545455
 40
0.0454545454545455
 40
0.0454545454545455
 40
0.0454545454545455
 40
0.0606060606060606
 40
0.0606060606060606
 40
0.0606060606060606
 40
0.0606060606060606
 40
0.0757575757575758
 40
0.0757575757575758
 40
0.0757575757575758
 40
0.0757575757575758
 40
0.0909090909090909
 40
0.0909090909090909
 40
0.0909090909090909
 40
0.0909090909090909
 40
0.1060606060606061
 40
0.1060606060606061
 40
0.1060606060606061
 40
0.1060606060606061
 40
0.1212121212121212
 40
0.1212121212121212
 40
0.1212121212121212
 40
0.1212121212121212
 40
0.1363636363636364
 40
0.1363636363636364
 40
0.1363636363636364
 40
0.1363636363636364
 40
0.1515151515151515
 40
0.1515151515151515
 40
0.1515151515151515
 40
0.1515151515151515
 40
0.1666666666666666
 40
0.1666666666666666
 40
0.1666666666666666
 40
0.1666666666666666
 40
0.1818181818181818
 40
0.1818181818181818
 40
0.1818181818181818
 40
0.1818181818181818
 40
0.1969696969696969
 40
0.1969696969696969
 40
0.1969696969696969
 40
0.1969696969696969
 40
0.212121212121212
 40
0.212121212121212
 40
0.212121212121212
 40
0.212121212121212
 40
0.2272727272727272
 40
0.2272727272727272
 40
0.2272727272727272
 40
0.2272727272727272
 40
0.2424242424242423
 40
0.2424242424242423
 40
0.2424242424242423
 40
0.2424242424242423
 40
0.2575757575757575
 40
0.2575757575757575
 40
0.2575757575757575
 40
0.2575757575757575
 40
0.2727272727272726
 40
0.2727272727272726
 40
0.2727272727272726
 40
0.2727272727272726
 40
0.2878787878787877
 40
0.2878787878787877
 40
0.2878787878787877
 40
0.2878787878787877
 40
0.3030303030303029
 40
0.3030303030303029
 40
0.3030303030303029
 40
0.3030303030303029
 40
0.318181818181818
 40
0.318181818181818
 40
0.318181818181818
 40
0.318181818181818
 40
0.3333333333333332
 40
0.3333333333333332
 40
0.3333333333333332
 40
0.3333333333333332
 40
0.3484848484848483
 40
0.3484848484848483
 40
0.3484848484848483
 40
0.3484848484848483
 40
0.3636363636363634
 40
0.3636363636363634
 40
0.3636363636363634
 40
0.3636363636363634
 40
0.3787878787878786
 40
0.3787878787878786
 40
0.3787878787878786
 40
0.3787878787878786
 40
0.3939393939393937
 40
0.3939393939393937
 40
0.3939393939393937
 40
0.3939393939393937
 40
0.4090909090909088
 40
0.4090909090909088
 40
0.4090909090909088
 40
0.4090909090909088
 40
0.424242424242424
 40
0.424242424242424
 40
0.424242424242424
 40
0.424242424242424
 40
0.4393939393939391
 40
0.4393939393939391
 40
0.4393939393939391
 40
0.4393939393939391
 40
0.4545454545454543
 40
0.4545454545454543
 40
0.4545454545454543
 40
0.4545454545454543
 40
0.4696969696969694
 40
0.4696969696969694
 40
0.4696969696969694
 40
0.4696969696969694
 40
0.4848484848484845
 40
0.4848484848484845
 40
0.4848484848484845
 40
0.4848484848484845
 40
0.4999999999999997
 40
0.4999999999999997
 40
0.4999999999999997
 40
0.4999999999999997
 40
0.5151515151515148
 40
0.5151515151515148
 40
0.5151515151515148
 40
0.5151515151515148
 40
0.5303030303030299
 40
0.5303030303030299
 40
0.5303030303030299
 40
0.5303030303030299
 40
0.5454545454545451
 40
0.5454545454545451
 40
0.5454545454545451
 40
0.5454545454545451
 40
0.5606060606060602
 40
0.5606060606060602
 40
0.5606060606060602
 40
0.5606060606060602
 40
0.5757575757575754
 40
0.5757575757575754
 40
0.5757575757575754
 40
0.5757575757575754
 40
0.5909090909090905
 40
0.5909090909090905
 40
0.5909090909090905
 40
0.5909090909090905
 40
0.6060606060606056
 40
0.6060606060606056
 40
0.6060606060606056
 40
0.6060606060606056
 40
0.6212121212121208
 40
0.6212121212121208
 40
0.6212121212121208
 40
0.6212121212121208
 40
0.6363636363636359
 40
0.6363636363636359
 40
0.6363636363636359
 40
0.6363636363636359
 40
0.6515151515151511
 40
0.6515151515151511
 40
0.6515151515151511
 40
0.6515151515151511
 40
0.6666666666666662
 40
0.6666666666666662
 40
0.6666666666666662
 40
0.6666666666666662
 40
0.6818181818181813
 40
0.6818181818181813
 40
0.6818181818181813
 40
0.6818181818181813
 40
0.6969696969696965
 40
0.6969696969696965
 40
0.6969696969696965
 40
0.6969696969696965
 40
0.7121212121212116
 40
0.7121212121212116
 40
0.7121212121212116
 40
0.7121212121212116
 40
0.7272727272727267
 40
0.7272727272727267
 40
0.7272727272727267
 40
0.7272727272727267
 40
0.7424242424242419
 40
0.7424242424242419
 40
0.7424242424242419
 40
0.7424242424242419
 40
0.757575757575757
 40
0.757575757575757
 40
0.757575757575757
 40
0.757575757575757
 40
0.7727272727272722
 40
0.7727272727272722
 40
0.7727272727272722
 40
0.7727272727272722
 40
0.7878787878787873
 40
0.7878787878787873
 40
0.7878787878787873
 40
0.7878787878787873
 40
0.8030303030303024
 40
0.8030303030303024
 40
0.8030303030303024
 40
0.8030303030303024
 40
0.8181818181818176
 40
0.8181818181818176
 40
0.8181818181818176
 40
0.8181818181818176
 40
0.8333333333333327
 40
0.8333333333333327
 40
0.8333333333333327
 40
0.8333333333333327
 40
0.8484848484848478
 40
0.8484848484848478
 40
0.8484848484848478
 40
0.8484848484848478
 40
0.863636363636363
 40
0.863636363636363
 40
0.863636363636363
 40
0.863636363636363
 40
0.8787878787878781
 40
0.8787878787878781
 40
0.8787878787878781
 40
0.8787878787878781
 40
0.8939393939393933
 40
0.8939393939393933
 40
0.8939393939393933
 40
0.8939393939393933
 40
0.9090909090909084
 40
0.9090909090909084
 40
0.9090909090909084
 40
0.9090909090909084
 40
0.9242424242424235
 40
0.9242424242424235
 40
0.9242424242424235
 40
0.9242424242424235
 40
0.9393939393939387
 40
0.9393939393939387
 40
0.9393939393939387
 40
0.9393939393939387
 40
0.9545454545454538
 40
0.9545454545454538
 40
0.9545454545454538
 40
0.9545454545454538
 40
0.969696969696969
 40
0.969696969696969
 40
0.969696969696969
 40
0.969696969696969
 40
0.9848484848484841
 40
0.9848484848484841
 40
0.9848484848484841
 40
0.9848484848484841
 40
1.0
 40
1.0
 40
1.0
 40
1.0
 10
0.8027795275590551
 20
0.3931850393700788
 30
0.0
 10
0.8027795275590551
 20
0.3931850393700788
 30
0.0
 10
1.4475314960629921
 20
0.0125669291338583
 30
0.0
 10
1.4475314960629921
 20
0.0125669291338583
 30
0.0
 10
1.4475314960629921
 20
0.0125669291338583
 30
0.0
 10
1.4475314960629921
 20
0.0125669291338583
 30
0.0
 10
1.4978267716535434
 20
0.0321102362204724
 30
0.0
 10
1.4978267716535434
 20
0.0321102362204724
 30
0.0
 10
1.4978267716535434
 20
0.0321102362204724
 30
0.0
 10
1.4978267716535434
 20
0.0321102362204724
 30
0.0
 10
1.5455236220472441
 20
0.0539212598425197
 30
0.0
 10
1.5455236220472441
 20
0.0539212598425197
 30
0.0
 10
1.5455236220472441
 20
0.0539212598425197
 30
0.0
 10
1.5455236220472441
 20
0.0539212598425197
 30
0.0
 10
1.5906062992125984
 20
0.0778779527559055
 30
0.0
 10
1.5906062992125984
 20
0.0778779527559055
 30
0.0
 10
1.5906062992125984
 20
0.0778779527559055
 30
0.0
 10
1.5906062992125984
 20
0.0778779527559055
 30
0.0
 10
1.6330866141732283
 20
0.1038740157480315
 30
0.0
 10
1.6330866141732283
 20
0.1038740157480315
 30
0.0
 10
1.6330866141732283
 20
0.1038740157480315
 30
0.0
 10
1.6330866141732283
 20
0.1038740157480315
 30
0.0
 10
1.672952755905512
 20
0.1317834645669291
 30
0.0
 10
1.672952755905512
 20
0.1317834645669291
 30
0.0
 10
1.672952755905512
 20
0.1317834645669291
 30
0.0
 10
1.672952755905512
 20
0.1317834645669291
 30
0.0
 10
1.710224409448819
 20
0.1615157480314961
 30
0.0
 10
1.710224409448819
 20
0.1615157480314961
 30
0.0
 10
1.710224409448819
 20
0.1615157480314961
 30
0.0
 10
1.710224409448819
 20
0.1615157480314961
 30
0.0
 10
1.7448858267716536
 20
0.1929409448818898
 30
0.0
 10
1.7448858267716536
 20
0.1929409448818898
 30
0.0
 10
1.7448858267716536
 20
0.1929409448818898
 30
0.0
 10
1.7448858267716536
 20
0.1929409448818898
 30
0.0
 10
1.7769488188976379
 20
0.2259606299212598
 30
0.0
 10
1.7769488188976379
 20
0.2259606299212598
 30
0.0
 10
1.7769488188976379
 20
0.2259606299212598
 30
0.0
 10
1.7769488188976379
 20
0.2259606299212598
 30
0.0
 10
1.8063976377952757
 20
0.2604448818897638
 30
0.0
 10
1.8063976377952757
 20
0.2604448818897638
 30
0.0
 10
1.8063976377952757
 20
0.2604448818897638
 30
0.0
 10
1.8063976377952757
 20
0.2604448818897638
 30
0.0
 10
1.833251968503937
 20
0.2962992125984252
 30
0.0
 10
1.833251968503937
 20
0.2962992125984252
 30
0.0
 10
1.833251968503937
 20
0.2962992125984252
 30
0.0
 10
1.833251968503937
 20
0.2962992125984252
 30
0.0
 10
1.8575000000000002
 20
0.3334015748031496
 30
0.0
 10
1.8575000000000002
 20
0.3334015748031496
 30
0.0
 10
1.8575000000000002
 20
0.3334015748031496
 30
0.0
 10
1.8575000000000002
 20
0.3334015748031496
 30
0.0
 10
1.8791574803149607
 20
0.3716456692913386
 30
0.0
 10
1.8791574803149607
 20
0.3716456692913386
 30
0.0
 10
1.8791574803149607
 20
0.3716456692913386
 30
0.0
 10
1.8791574803149607
 20
0.3716456692913386
 30
0.0
 10
1.8982047244094489
 20
0.4109133858267717
 30
0.0
 10
1.8982047244094489
 20
0.4109133858267717
 30
0.0
 10
1.8982047244094489
 20
0.4109133858267717
 30
0.0
 10
1.8982047244094489
 20
0.4109133858267717
 30
0.0
 10
1.9146574803149607
 20
0.4511023622047244
 30
0.0
 10
1.9146574803149607
 20
0.4511023622047244
 30
0.0
 10
1.9146574803149607
 20
0.4511023622047244
 30
0.0
 10
1.9146574803149607
 20
0.4511023622047244
 30
0.0
 10
1.9285118110236221
 20
0.4920905511811024
 30
0.0
 10
1.9285118110236221
 20
0.4920905511811024
 30
0.0
 10
1.9285118110236221
 20
0.4920905511811024
 30
0.0
 10
1.9285118110236221
 20
0.4920905511811024
 30
0.0
 10
1.9397677165354332
 20
0.5337716535433071
 30
0.0
 10
1.9397677165354332
 20
0.5337716535433071
 30
0.0
 10
1.9397677165354332
 20
0.5337716535433071
 30
0.0
 10
1.9397677165354332
 20
0.5337716535433071
 30
0.0
 10
1.9484251968503938
 20
0.5760196850393701
 30
0.0
 10
1.9484251968503938
 20
0.5760196850393701
 30
0.0
 10
1.9484251968503938
 20
0.5760196850393701
 30
0.0
 10
1.9484251968503938
 20
0.5760196850393701
 30
0.0
 10
1.9544842519685039
 20
0.618744094488189
 30
0.0
 10
1.9544842519685039
 20
0.618744094488189
 30
0.0
 10
1.9544842519685039
 20
0.618744094488189
 30
0.0
 10
1.9544842519685039
 20
0.618744094488189
 30
0.0
 10
1.9579527559055119
 20
0.6618228346456693
 30
0.0
 10
1.9579527559055119
 20
0.6618228346456693
 30
0.0
 10
1.9579527559055119
 20
0.6618228346456693
 30
0.0
 10
1.9579527559055119
 20
0.6618228346456693
 30
0.0
 10
1.9588267716535435
 20
0.7051456692913386
 30
0.0
 10
1.9588267716535435
 20
0.7051456692913386
 30
0.0
 10
1.9588267716535435
 20
0.7051456692913386
 30
0.0
 10
1.9588267716535435
 20
0.7051456692913386
 30
0.0
 10
1.9571023622047246
 20
0.7485905511811024
 30
0.0
 10
1.9571023622047246
 20
0.7485905511811024
 30
0.0
 10
1.9571023622047246
 20
0.7485905511811024
 30
0.0
 10
1.9571023622047246
 20
0.7485905511811024
 30
0.0
 10
1.9527913385826772
 20
0.7920629921259843
 30
0.0
 10
1.9527913385826772
 20
0.7920629921259843
 30
0.0
 10
1.9527913385826772
 20
0.7920629921259843
 30
0.0
 10
1.9527913385826772
 20
0.7920629921259843
 30
0.0
 10
1.9458858267716537
 20
0.8354370078740158
 30
0.0
 10
1.9458858267716537
 20
0.8354370078740158
 30
0.0
 10
1.9458858267716537
 20
0.8354370078740158
 30
0.0
 10
1.9458858267716537
 20
0.8354370078740158
 30
0.0
 10
1.9363937007874017
 20
0.8786062992125985
 30
0.0
 10
1.9363937007874017
 20
0.8786062992125985
 30
0.0
 10
1.9363937007874017
 20
0.8786062992125985
 30
0.0
 10
1.9363937007874017
 20
0.8786062992125985
 30
0.0
 10
1.9243031496062992
 20
0.9214527559055119
 30
0.0
 10
1.9243031496062992
 20
0.9214527559055119
 30
0.0
 10
1.9243031496062992
 20
0.9214527559055119
 30
0.0
 10
1.9243031496062992
 20
0.9214527559055119
 30
0.0
 10
1.9096259842519685
 20
0.9638740157480316
 30
0.0
 10
1.9096259842519685
 20
0.9638740157480316
 30
0.0
 10
1.9096259842519685
 20
0.9638740157480316
 30
0.0
 10
1.9096259842519685
 20
0.9638740157480316
 30
0.0
 10
1.8923582677165356
 20
1.005748031496063
 30
0.0
 10
1.8923582677165356
 20
1.005748031496063
 30
0.0
 10
1.8923582677165356
 20
1.005748031496063
 30
0.0
 10
1.8923582677165356
 20
1.005748031496063
 30
0.0
 10
1.8725078740157481
 20
1.046972440944882
 30
0.0
 10
1.8725078740157481
 20
1.046972440944882
 30
0.0
 10
1.8725078740157481
 20
1.046972440944882
 30
0.0
 10
1.8725078740157481
 20
1.046972440944882
 30
0.0
 10
1.8500629921259844
 20
1.0874251968503938
 30
0.0
 10
1.8500629921259844
 20
1.0874251968503938
 30
0.0
 10
1.8500629921259844
 20
1.0874251968503938
 30
0.0
 10
1.8500629921259844
 20
1.0874251968503938
 30
0.0
 10
1.8250393700787402
 20
1.1270078740157481
 30
0.0
 10
1.8250393700787402
 20
1.1270078740157481
 30
0.0
 10
1.8250393700787402
 20
1.1270078740157481
 30
0.0
 10
1.8250393700787402
 20
1.1270078740157481
 30
0.0
 10
1.7974212598425197
 20
1.1655944881889764
 30
0.0
 10
1.7974212598425197
 20
1.1655944881889764
 30
0.0
 10
1.7974212598425197
 20
1.1655944881889764
 30
0.0
 10
1.7974212598425197
 20
1.1655944881889764
 30
0.0
 10
1.7672283464566929
 20
1.2030826771653544
 30
0.0
 10
1.7672283464566929
 20
1.2030826771653544
 30
0.0
 10
1.7672283464566929
 20
1.2030826771653544
 30
0.0
 10
1.7672283464566929
 20
1.2030826771653544
 30
0.0
 10
1.122476377952756
 20
1.5837007874015749
 30
0.0
 10
1.122476377952756
 20
1.5837007874015749
 30
0.0
 10
1.122476377952756
 20
1.5837007874015749
 30
0.0
 10
1.122476377952756
 20
1.5837007874015749
 30
0.0
 10
1.1526692913385828
 20
1.5462125984251969
 30
0.0
 10
1.1526692913385828
 20
1.5462125984251969
 30
0.0
 10
1.1526692913385828
 20
1.5462125984251969
 30
0.0
 10
1.1526692913385828
 20
1.5462125984251969
 30
0.0
 10
1.1802874015748033
 20
1.5076259842519686
 30
0.0
 10
1.1802874015748033
 20
1.5076259842519686
 30
0.0
 10
1.1802874015748033
 20
1.5076259842519686
 30
0.0
 10
1.1802874015748033
 20
1.5076259842519686
 30
0.0
 10
1.2053110236220472
 20
1.4680433070866141
 30
0.0
 10
1.2053110236220472
 20
1.4680433070866141
 30
0.0
 10
1.2053110236220472
 20
1.4680433070866141
 30
0.0
 10
1.2053110236220472
 20
1.4680433070866141
 30
0.0
 10
1.227755905511811
 20
1.4275905511811025
 30
0.0
 10
1.227755905511811
 20
1.4275905511811025
 30
0.0
 10
1.227755905511811
 20
1.4275905511811025
 30
0.0
 10
1.227755905511811
 20
1.4275905511811025
 30
0.0
 10
1.2476062992125985
 20
1.3863661417322835
 30
0.0
 10
1.2476062992125985
 20
1.3863661417322835
 30
0.0
 10
1.2476062992125985
 20
1.3863661417322835
 30
0.0
 10
1.2476062992125985
 20
1.3863661417322835
 30
0.0
 10
1.2648740157480316
 20
1.3444921259842519
 30
0.0
 10
1.2648740157480316
 20
1.3444921259842519
 30
0.0
 10
1.2648740157480316
 20
1.3444921259842519
 30
0.0
 10
1.2648740157480316
 20
1.3444921259842519
 30
0.0
 10
1.2795511811023623
 20
1.3020708661417324
 30
0.0
 10
1.2795511811023623
 20
1.3020708661417324
 30
0.0
 10
1.2795511811023623
 20
1.3020708661417324
 30
0.0
 10
1.2795511811023623
 20
1.3020708661417324
 30
0.0
 10
1.2916417322834646
 20
1.259224409448819
 30
0.0
 10
1.2916417322834646
 20
1.259224409448819
 30
0.0
 10
1.2916417322834646
 20
1.259224409448819
 30
0.0
 10
1.2916417322834646
 20
1.259224409448819
 30
0.0
 10
1.3011338582677165
 20
1.2160551181102364
 30
0.0
 10
1.3011338582677165
 20
1.2160551181102364
 30
0.0
 10
1.3011338582677165
 20
1.2160551181102364
 30
0.0
 10
1.3011338582677165
 20
1.2160551181102364
 30
0.0
 10
1.3080393700787403
 20
1.1726811023622048
 30
0.0
 10
1.3080393700787403
 20
1.1726811023622048
 30
0.0
 10
1.3080393700787403
 20
1.1726811023622048
 30
0.0
 10
1.3080393700787403
 20
1.1726811023622048
 30
0.0
 10
1.3123503937007874
 20
1.1292086614173229
 30
0.0
 10
1.3123503937007874
 20
1.1292086614173229
 30
0.0
 10
1.3123503937007874
 20
1.1292086614173229
 30
0.0
 10
1.3123503937007874
 20
1.1292086614173229
 30
0.0
 10
1.3140748031496063
 20
1.0857637795275592
 30
0.0
 10
1.3140748031496063
 20
1.0857637795275592
 30
0.0
 10
1.3140748031496063
 20
1.0857637795275592
 30
0.0
 10
1.3140748031496063
 20
1.0857637795275592
 30
0.0
 10
1.3132007874015748
 20
1.0424409448818899
 30
0.0
 10
1.3132007874015748
 20
1.0424409448818899
 30
0.0
 10
1.3132007874015748
 20
1.0424409448818899
 30
0.0
 10
1.3132007874015748
 20
1.0424409448818899
 30
0.0
 10
1.309732283464567
 20
0.9993622047244095
 30
0.0
 10
1.309732283464567
 20
0.9993622047244095
 30
0.0
 10
1.309732283464567
 20
0.9993622047244095
 30
0.0
 10
1.309732283464567
 20
0.9993622047244095
 30
0.0
 10
1.3036732283464567
 20
0.9566377952755906
 30
0.0
 10
1.3036732283464567
 20
0.9566377952755906
 30
0.0
 10
1.3036732283464567
 20
0.9566377952755906
 30
0.0
 10
1.3036732283464567
 20
0.9566377952755906
 30
0.0
 10
1.2950157480314961
 20
0.9143897637795276
 30
0.0
 10
1.2950157480314961
 20
0.9143897637795276
 30
0.0
 10
1.2950157480314961
 20
0.9143897637795276
 30
0.0
 10
1.2950157480314961
 20
0.9143897637795276
 30
0.0
 10
1.283759842519685
 20
0.8727086614173228
 30
0.0
 10
1.283759842519685
 20
0.8727086614173228
 30
0.0
 10
1.283759842519685
 20
0.8727086614173228
 30
0.0
 10
1.283759842519685
 20
0.8727086614173228
 30
0.0
 10
1.2699055118110236
 20
0.8317204724409449
 30
0.0
 10
1.2699055118110236
 20
0.8317204724409449
 30
0.0
 10
1.2699055118110236
 20
0.8317204724409449
 30
0.0
 10
1.2699055118110236
 20
0.8317204724409449
 30
0.0
 10
1.2534527559055118
 20
0.7915314960629921
 30
0.0
 10
1.2534527559055118
 20
0.7915314960629921
 30
0.0
 10
1.2534527559055118
 20
0.7915314960629921
 30
0.0
 10
1.2534527559055118
 20
0.7915314960629921
 30
0.0
 10
1.2344055118110238
 20
0.7522637795275591
 30
0.0
 10
1.2344055118110238
 20
0.7522637795275591
 30
0.0
 10
1.2344055118110238
 20
0.7522637795275591
 30
0.0
 10
1.2344055118110238
 20
0.7522637795275591
 30
0.0
 10
1.212748031496063
 20
0.7140196850393701
 30
0.0
 10
1.212748031496063
 20
0.7140196850393701
 30
0.0
 10
1.212748031496063
 20
0.7140196850393701
 30
0.0
 10
1.212748031496063
 20
0.7140196850393701
 30
0.0
 10
1.1885000000000001
 20
0.6769173228346457
 30
0.0
 10
1.1885000000000001
 20
0.6769173228346457
 30
0.0
 10
1.1885000000000001
 20
0.6769173228346457
 30
0.0
 10
1.1885000000000001
 20
0.6769173228346457
 30
0.0
 10
1.1616456692913386
 20
0.6410629921259843
 30
0.0
 10
1.1616456692913386
 20
0.6410629921259843
 30
0.0
 10
1.1616456692913386
 20
0.6410629921259843
 30
0.0
 10
1.1616456692913386
 20
0.6410629921259843
 30
0.0
 10
1.1321968503937008
 20
0.6065787401574804
 30
0.0
 10
1.1321968503937008
 20
0.6065787401574804
 30
0.0
 10
1.1321968503937008
 20
0.6065787401574804
 30
0.0
 10
1.1321968503937008
 20
0.6065787401574804
 30
0.0
 10
1.1001338582677165
 20
0.5735590551181102
 30
0.0
 10
1.1001338582677165
 20
0.5735590551181102
 30
0.0
 10
1.1001338582677165
 20
0.5735590551181102
 30
0.0
 10
1.1001338582677165
 20
0.5735590551181102
 30
0.0
 10
1.0654724409448819
 20
0.5421338582677165
 30
0.0
 10
1.0654724409448819
 20
0.5421338582677165
 30
0.0
 10
1.0654724409448819
 20
0.5421338582677165
 30
0.0
 10
1.0654724409448819
 20
0.5421338582677165
 30
0.0
 10
1.0282007874015748
 20
0.5124015748031496
 30
0.0
 10
1.0282007874015748
 20
0.5124015748031496
 30
0.0
 10
1.0282007874015748
 20
0.5124015748031496
 30
0.0
 10
1.0282007874015748
 20
0.5124015748031496
 30
0.0
 10
0.9883346456692914
 20
0.484492125984252
 30
0.0
 10
0.9883346456692914
 20
0.484492125984252
 30
0.0
 10
0.9883346456692914
 20
0.484492125984252
 30
0.0
 10
0.9883346456692914
 20
0.484492125984252
 30
0.0
 10
0.9458543307086614
 20
0.458496062992126
 30
0.0
 10
0.9458543307086614
 20
0.458496062992126
 30
0.0
 10
0.9458543307086614
 20
0.458496062992126
 30
0.0
 10
0.9458543307086614
 20
0.458496062992126
 30
0.0
 10
0.9007716535433071
 20
0.4345393700787402
 30
0.0
 10
0.9007716535433071
 20
0.4345393700787402
 30
0.0
 10
0.9007716535433071
 20
0.4345393700787402
 30
0.0
 10
0.9007716535433071
 20
0.4345393700787402
 30
0.0
 10
0.8530748031496064
 20
0.4127283464566929
 30
0.0
 10
0.8530748031496064
 20
0.4127283464566929
 30
0.0
 10
0.8530748031496064
 20
0.4127283464566929
 30
0.0
 10
0.8530748031496064
 20
0.4127283464566929
 30
0.0
 10
0.8027795275590551
 20
0.3931850393700788
 30
0.0
 10
0.8027795275590551
 20
0.3931850393700788
 30
0.0
  0
SPLINE
  5
80
100
AcDbEntity
  8
Layer 1
 62
   253
100
AcDbSpline
210
0.0
220
0.0
230
1.0
 70
     1
 71
     3
 72
    20
 73
    16
 74
     0
 42
0.0000000001
 43
0.0000000001
 40
0.0
 40
0.0
 40
0.0
 40
0.0
 40
0.25
 40
0.25
 40
0.25
 40
0.25
 40
0.5
 40
0.5
 40
0.5
 40
0.5
 40
0.75
 40
0.75
 40
0.75
 40
0.75
 40
1.0
 40
1.0
 40
1.0
 40
1.0
 10
-0.9324330708661418
 20
-0.7155866141732283
 30
0.0
 10
-0.9324330708661418
 20
-0.7155866141732283
 30
0.0
 10
-0.2876811023622047
 20
-1.0962047244094488
 30
0.0
 10
-0.2876811023622047
 20
-1.0962047244094488
 30
0.0
 10
-0.2876811023622047
 20
-1.0962047244094488
 30
0.0
 10
-0.2876811023622047
 20
-1.0962047244094488
 30
0.0
 10
0.1410196850393701
 20
-1.1686259842519686
 30
0.0
 10
0.1410196850393701
 20
-1.1686259842519686
 30
0.0
 10
0.1410196850393701
 20
-1.1686259842519686
 30
0.0
 10
0.1410196850393701
 20
-1.1686259842519686
 30
0.0
 10
-0.503732283464567
 20
-0.788007874015748
 30
0.0
 10
-0.503732283464567
 20
-0.788007874015748
 30
0.0
 10
-0.503732283464567
 20
-0.788007874015748
 30
0.0
 10
-0.503732283464567
 20
-0.788007874015748
 30
0.0
 10
-0.9324330708661418
 20
-0.7155866141732283
 30
0.0
 10
-0.9324330708661418
 20
-0.7155866141732283
 30
0.0
  0
SPLINE
  5
81
100
AcDbEntity
  8
Layer 1
370
     5
100
AcDbSpline
210
0.0
220
0.0
230
1.0
 70
     1
 71
     3
 72
    20
 73
    16
 74
     0
 42
0.0000000001
 43
0.0000000001
 40
0.0
 40
0.0
 40
0.0
 40
0.0
 40
0.25
 40
0.25
 40
0.25
 40
0.25
 40
0.5
 40
0.5
 40
0.5
 40
0.5
 40
0.75
 40
0.75
 40
0.75
 40
0.75
 40
1.0
 40
1.0
 40
1.0
 40
1.0
 10
-0.9324330708661418
 20
-0.7155866141732283
 30
0.0
 10
-0.9324330708661418
 20
-0.7155866141732283
 30
0.0
 10
-0.2876811023622047
 20
-1.0962047244094488
 30
0.0
 10
-0.2876811023622047
 20
-1.0962047244094488
 30
0.0
 10
-0.2876811023622047
 20
-1.0962047244094488
 30
0.0
 10
-0.2876811023622047
 20
-1.0962047244094488
 30
0.0
 10
0.1410196850393701
 20
-1.1686259842519686
 30
0.0
 10
0.1410196850393701
 20
-1.1686259842519686
 30
0.0
 10
0.1410196850393701
 20
-1.1686259842519686
 30
0.0
 10
0.1410196850393701
 20
-1.1686259842519686
 30
0.0
 10
-0.503732283464567
 20
-0.788007874015748
 30
0.0
 10
-0.503732283464567
 20
-0.788007874015748
 30
0.0
 10
-0.503732283464567
 20
-0.788007874015748
 30
0.0
 10
-0.503732283464567
 20
-0.788007874015748
 30
0.0
 10
-0.9324330708661418
 20
-0.7155866141732283
 30
0.0
 10
-0.9324330708661418
 20
-0.7155866141732283
 30
0.0
  0
SPLINE
  5
82
100
AcDbEntity
  8
Layer 1
 62
     9
100
AcDbSpline
210
0.0
220
0.0
230
1.0
 70
     1
 71
     3
 72
    20
 73
    16
 74
     0
 42
0.0000000001
 43
0.0000000001
 40
0.0
 40
0.0
 40
0.0
 40
0.0
 40
0.25
 40
0.25
 40
0.25
 40
0.25
 40
0.5
 40
0.5
 40
0.5
 40
0.5
 40
0.75
 40
0.75
 40
0.75
 40
0.75
 40
1.0
 40
1.0
 40
1.0
 40
1.0
 10
-0.503732283464567
 20
-0.788007874015748
 30
0.0
 10
-0.503732283464567
 20
-0.788007874015748
 30
0.0
 10
0.1410196850393701
 20
-1.1686259842519686
 30
0.0
 10
0.1410196850393701
 20
-1.1686259842519686
 30
0.0
 10
0.1410196850393701
 20
-1.1686259842519686
 30
0.0
 10
0.1410196850393701
 20
-1.1686259842519686
 30
0.0
 10
0.1540472440944882
 20
-1.136748031496063
 30
0.0
 10
0.1540472440944882
 20
-1.136748031496063
 30
0.0
 10
0.1540472440944882
 20
-1.136748031496063
 30
0.0
 10
0.1540472440944882
 20
-1.136748031496063
 30
0.0
 10
-0.4907047244094488
 20
-0.7561299212598426
 30
0.0
 10
-0.4907047244094488
 20
-0.7561299212598426
 30
0.0
 10
-0.4907047244094488
 20
-0.7561299212598426
 30
0.0
 10
-0.4907047244094488
 20
-0.7561299212598426
 30
0.0
 10
-0.503732283464567
 20
-0.788007874015748
 30
0.0
 10
-0.503732283464567
 20
-0.788007874015748
 30
0.0
  0
SPLINE
  5
83
100
AcDbEntity
  8
Layer 1
 62
     9
100
AcDbSpline
210
0.0
220
0.0
230
1.0
 70
     1
 71
     3
 72
    20
 73
    16
 74
     0
 42
0.0000000001
 43
0.0000000001
 40
0.0
 40
0.0
 40
0.0
 40
0.0
 40
0.25
 40
0.25
 40
0.25
 40
0.25
 40
0.5
 40
0.5
 40
0.5
 40
0.5
 40
0.75
 40
0.75
 40
0.75
 40
0.75
 40
1.0
 40
1.0
 40
1.0
 40
1.0
 10
-0.4907047244094488
 20
-0.7561299212598426
 30
0.0
 10
-0.4907047244094488
 20
-0.7561299212598426
 30
0.0
 10
0.1540472440944882
 20
-1.136748031496063
 30
0.0
 10
0.1540472440944882
 20
-1.136748031496063
 30
0.0
 10
0.1540472440944882
 20
-1.136748031496063
 30
0.0
 10
0.1540472440944882
 20
-1.136748031496063
 30
0.0
 10
0.1675354330708662
 20
-1.1059133858267718
 30
0.0
 10
0.1675354330708662
 20
-1.1059133858267718
 30
0.0
 10
0.1675354330708662
 20
-1.1059133858267718
 30
0.0
 10
0.1675354330708662
 20
-1.1059133858267718
 30
0.0
 10
-0.4772165354330709
 20
-0.7252952755905512
 30
0.0
 10
-0.4772165354330709
 20
-0.7252952755905512
 30
0.0
 10
-0.4772165354330709
 20
-0.7252952755905512
 30
0.0
 10
-0.4772165354330709
 20
-0.7252952755905512
 30
0.0
 10
-0.4907047244094488
 20
-0.7561299212598426
 30
0.0
 10
-0.4907047244094488
 20
-0.7561299212598426
 30
0.0
  0
SPLINE
  5
84
100
AcDbEntity
  8
Layer 1
 62
     9
100
AcDbSpline
210
0.0
220
0.0
230
1.0
 70
     1
 71
     3
 72
    20
 73
    16
 74
     0
 42
0.0000000001
 43
0.0000000001
 40
0.0
 40
0.0
 40
0.0
 40
0.0
 40
0.25
 40
0.25
 40
0.25
 40
0.25
 40
0.5
 40
0.5
 40
0.5
 40
0.5
 40
0.75
 40
0.75
 40
0.75
 40
0.75
 40
1.0
 40
1.0
 40
1.0
 40
1.0
 10
-0.4772165354330709
 20
-0.7252952755905512
 30
0.0
 10
-0.4772165354330709
 20
-0.7252952755905512
 30
0.0
 10
0.1675354330708662
 20
-1.1059133858267718
 30
0.0
 10
0.1675354330708662
 20
-1.1059133858267718
 30
0.0
 10
0.1675354330708662
 20
-1.1059133858267718
 30
0.0
 10
0.1675354330708662
 20
-1.1059133858267718
 30
0.0
 10
0.1815
 20
-1.0760984251968504
 30
0.0
 10
0.1815
 20
-1.0760984251968504
 30
0.0
 10
0.1815
 20
-1.0760984251968504
 30
0.0
 10
0.1815
 20
-1.0760984251968504
 30
0.0
 10
-0.463251968503937
 20
-0.6954803149606299
 30
0.0
 10
-0.463251968503937
 20
-0.6954803149606299
 30
0.0
 10
-0.463251968503937
 20
-0.6954803149606299
 30
0.0
 10
-0.463251968503937
 20
-0.6954803149606299
 30
0.0
 10
-0.4772165354330709
 20
-0.7252952755905512
 30
0.0
 10
-0.4772165354330709
 20
-0.7252952755905512
 30
0.0
  0
SPLINE
  5
85
100
AcDbEntity
  8
Layer 1
 62
     9
100
AcDbSpline
210
0.0
220
0.0
230
1.0
 70
     1
 71
     3
 72
    20
 73
    16
 74
     0
 42
0.0000000001
 43
0.0000000001
 40
0.0
 40
0.0
 40
0.0
 40
0.0
 40
0.25
 40
0.25
 40
0.25
 40
0.25
 40
0.5
 40
0.5
 40
0.5
 40
0.5
 40
0.75
 40
0.75
 40
0.75
 40
0.75
 40
1.0
 40
1.0
 40
1.0
 40
1.0
 10
-0.463251968503937
 20
-0.6954803149606299
 30
0.0
 10
-0.463251968503937
 20
-0.6954803149606299
 30
0.0
 10
0.1815
 20
-1.0760984251968504
 30
0.0
 10
0.1815
 20
-1.0760984251968504
 30
0.0
 10
0.1815
 20
-1.0760984251968504
 30
0.0
 10
0.1815
 20
-1.0760984251968504
 30
0.0
 10
0.1959448818897638
 20
-1.0473070866141734
 30
0.0
 10
0.1959448818897638
 20
-1.0473070866141734
 30
0.0
 10
0.1959448818897638
 20
-1.0473070866141734
 30
0.0
 10
0.1959448818897638
 20
-1.0473070866141734
 30
0.0
 10
-0.4488070866141732
 20
-0.6666889763779528
 30
0.0
 10
-0.4488070866141732
 20
-0.6666889763779528
 30
0.0
 10
-0.4488070866141732
 20
-0.6666889763779528
 30
0.0
 10
-0.4488070866141732
 20
-0.6666889763779528
 30
0.0
 10
-0.463251968503937
 20
-0.6954803149606299
 30
0.0
 10
-0.463251968503937
 20
-0.6954803149606299
 30
0.0
  0
SPLINE
  5
86
100
AcDbEntity
  8
Layer 1
 62
     9
100
AcDbSpline
210
0.0
220
0.0
230
1.0
 70
     1
 71
     3
 72
    20
 73
    16
 74
     0
 42
0.0000000001
 43
0.0000000001
 40
0.0
 40
0.0
 40
0.0
 40
0.0
 40
0.25
 40
0.25
 40
0.25
 40
0.25
 40
0.5
 40
0.5
 40
0.5
 40
0.5
 40
0.75
 40
0.75
 40
0.75
 40
0.75
 40
1.0
 40
1.0
 40
1.0
 40
1.0
 10
-0.4488070866141732
 20
-0.6666889763779528
 30
0.0
 10
-0.4488070866141732
 20
-0.6666889763779528
 30
0.0
 10
0.1959448818897638
 20
-1.0473070866141734
 30
0.0
 10
0.1959448818897638
 20
-1.0473070866141734
 30
0.0
 10
0.1959448818897638
 20
-1.0473070866141734
 30
0.0
 10
0.1959448818897638
 20
-1.0473070866141734
 30
0.0
 10
0.2108858267716536
 20
-1.0195118110236221
 30
0.0
 10
0.2108858267716536
 20
-1.0195118110236221
 30
0.0
 10
0.2108858267716536
 20
-1.0195118110236221
 30
0.0
 10
0.2108858267716536
 20
-1.0195118110236221
 30
0.0
 10
-0.4338661417322835
 20
-0.6388937007874016
 30
0.0
 10
-0.4338661417322835
 20
-0.6388937007874016
 30
0.0
 10
-0.4338661417322835
 20
-0.6388937007874016
 30
0.0
 10
-0.4338661417322835
 20
-0.6388937007874016
 30
0.0
 10
-0.4488070866141732
 20
-0.6666889763779528
 30
0.0
 10
-0.4488070866141732
 20
-0.6666889763779528
 30
0.0
  0
SPLINE
  5
87
100
AcDbEntity
  8
Layer 1
 62
     9
100
AcDbSpline
210
0.0
220
0.0
230
1.0
 70
     1
 71
     3
 72
    20
 73
    16
 74
     0
 42
0.0000000001
 43
0.0000000001
 40
0.0
 40
0.0
 40
0.0
 40
0.0
 40
0.25
 40
0.25
 40
0.25
 40
0.25
 40
0.5
 40
0.5
 40
0.5
 40
0.5
 40
0.75
 40
0.75
 40
0.75
 40
0.75
 40
1.0
 40
1.0
 40
1.0
 40
1.0
 10
-0.4338661417322835
 20
-0.6388937007874016
 30
0.0
 10
-0.4338661417322835
 20
-0.6388937007874016
 30
0.0
 10
0.2108858267716536
 20
-1.0195118110236221
 30
0.0
 10
0.2108858267716536
 20
-1.0195118110236221
 30
0.0
 10
0.2108858267716536
 20
-1.0195118110236221
 30
0.0
 10
0.2108858267716536
 20
-1.0195118110236221
 30
0.0
 10
0.2263228346456693
 20
-0.9927244094488189
 30
0.0
 10
0.2263228346456693
 20
-0.9927244094488189
 30
0.0
 10
0.2263228346456693
 20
-0.9927244094488189
 30
0.0
 10
0.2263228346456693
 20
-0.9927244094488189
 30
0.0
 10
-0.4184291338582677
 20
-0.6121062992125984
 30
0.0
 10
-0.4184291338582677
 20
-0.6121062992125984
 30
0.0
 10
-0.4184291338582677
 20
-0.6121062992125984
 30
0.0
 10
-0.4184291338582677
 20
-0.6121062992125984
 30
0.0
 10
-0.4338661417322835
 20
-0.6388937007874016
 30
0.0
 10
-0.4338661417322835
 20
-0.6388937007874016
 30
0.0
  0
SPLINE
  5
88
100
AcDbEntity
  8
Layer 1
 62
     9
100
AcDbSpline
210
0.0
220
0.0
230
1.0
 70
     1
 71
     3
 72
    20
 73
    16
 74
     0
 42
0.0000000001
 43
0.0000000001
 40
0.0
 40
0.0
 40
0.0
 40
0.0
 40
0.25
 40
0.25
 40
0.25
 40
0.25
 40
0.5
 40
0.5
 40
0.5
 40
0.5
 40
0.75
 40
0.75
 40
0.75
 40
0.75
 40
1.0
 40
1.0
 40
1.0
 40
1.0
 10
-0.4184291338582677
 20
-0.6121062992125984
 30
0.0
 10
-0.4184291338582677
 20
-0.6121062992125984
 30
0.0
 10
0.2263228346456693
 20
-0.9927244094488189
 30
0.0
 10
0.2263228346456693
 20
-0.9927244094488189
 30
0.0
 10
0.2263228346456693
 20
-0.9927244094488189
 30
0.0
 10
0.2263228346456693
 20
-0.9927244094488189
 30
0.0
 10
0.2422677165354331
 20
-0.9669212598425198
 30
0.0
 10
0.2422677165354331
 20
-0.9669212598425198
 30
0.0
 10
0.2422677165354331
 20
-0.9669212598425198
 30
0.0
 10
0.2422677165354331
 20
-0.9669212598425198
 30
0.0
 10
-0.402484251968504
 20
-0.5863031496062993
 30
0.0
 10
-0.402484251968504
 20
-0.5863031496062993
 30
0.0
 10
-0.402484251968504
 20
-0.5863031496062993
 30
0.0
 10
-0.402484251968504
 20
-0.5863031496062993
 30
0.0
 10
-0.4184291338582677
 20
-0.6121062992125984
 30
0.0
 10
-0.4184291338582677
 20
-0.6121062992125984
 30
0.0
  0
SPLINE
  5
89
100
AcDbEntity
  8
Layer 1
 62
     9
100
AcDbSpline
210
0.0
220
0.0
230
1.0
 70
     1
 71
     3
 72
    20
 73
    16
 74
     0
 42
0.0000000001
 43
0.0000000001
 40
0.0
 40
0.0
 40
0.0
 40
0.0
 40
0.25
 40
0.25
 40
0.25
 40
0.25
 40
0.5
 40
0.5
 40
0.5
 40
0.5
 40
0.75
 40
0.75
 40
0.75
 40
0.75
 40
1.0
 40
1.0
 40
1.0
 40
1.0
 10
-0.402484251968504
 20
-0.5863031496062993
 30
0.0
 10
-0.402484251968504
 20
-0.5863031496062993
 30
0.0
 10
0.2422677165354331
 20
-0.9669212598425198
 30
0.0
 10
0.2422677165354331
 20
-0.9669212598425198
 30
0.0
 10
0.2422677165354331
 20
-0.9669212598425198
 30
0.0
 10
0.2422677165354331
 20
-0.9669212598425198
 30
0.0
 10
0.2587244094488189
 20
-0.9421062992125985
 30
0.0
 10
0.2587244094488189
 20
-0.9421062992125985
 30
0.0
 10
0.2587244094488189
 20
-0.9421062992125985
 30
0.0
 10
0.2587244094488189
 20
-0.9421062992125985
 30
0.0
 10
-0.3860275590551182
 20
-0.561488188976378
 30
0.0
 10
-0.3860275590551182
 20
-0.561488188976378
 30
0.0
 10
-0.3860275590551182
 20
-0.561488188976378
 30
0.0
 10
-0.3860275590551182
 20
-0.561488188976378
 30
0.0
 10
-0.402484251968504
 20
-0.5863031496062993
 30
0.0
 10
-0.402484251968504
 20
-0.5863031496062993
 30
0.0
  0
SPLINE
  5
8A
100
AcDbEntity
  8
Layer 1
 62
     9
100
AcDbSpline
210
0.0
220
0.0
230
1.0
 70
     1
 71
     3
 72
    20
 73
    16
 74
     0
 42
0.0000000001
 43
0.0000000001
 40
0.0
 40
0.0
 40
0.0
 40
0.0
 40
0.25
 40
0.25
 40
0.25
 40
0.25
 40
0.5
 40
0.5
 40
0.5
 40
0.5
 40
0.75
 40
0.75
 40
0.75
 40
0.75
 40
1.0
 40
1.0
 40
1.0
 40
1.0
 10
-0.3860275590551182
 20
-0.561488188976378
 30
0.0
 10
-0.3860275590551182
 20
-0.561488188976378
 30
0.0
 10
0.2587244094488189
 20
-0.9421062992125985
 30
0.0
 10
0.2587244094488189
 20
-0.9421062992125985
 30
0.0
 10
0.2587244094488189
 20
-0.9421062992125985
 30
0.0
 10
0.2587244094488189
 20
-0.9421062992125985
 30
0.0
 10
0.2757125984251969
 20
-0.9182519685039371
 30
0.0
 10
0.2757125984251969
 20
-0.9182519685039371
 30
0.0
 10
0.2757125984251969
 20
-0.9182519685039371
 30
0.0
 10
0.2757125984251969
 20
-0.9182519685039371
 30
0.0
 10
-0.3690393700787402
 20
-0.5376338582677166
 30
0.0
 10
-0.3690393700787402
 20
-0.5376338582677166
 30
0.0
 10
-0.3690393700787402
 20
-0.5376338582677166
 30
0.0
 10
-0.3690393700787402
 20
-0.5376338582677166
 30
0.0
 10
-0.3860275590551182
 20
-0.561488188976378
 30
0.0
 10
-0.3860275590551182
 20
-0.561488188976378
 30
0.0
  0
SPLINE
  5
8B
100
AcDbEntity
  8
Layer 1
 62
     9
100
AcDbSpline
210
0.0
220
0.0
230
1.0
 70
     1
 71
     3
 72
    20
 73
    16
 74
     0
 42
0.0000000001
 43
0.0000000001
 40
0.0
 40
0.0
 40
0.0
 40
0.0
 40
0.25
 40
0.25
 40
0.25
 40
0.25
 40
0.5
 40
0.5
 40
0.5
 40
0.5
 40
0.75
 40
0.75
 40
0.75
 40
0.75
 40
1.0
 40
1.0
 40
1.0
 40
1.0
 10
-0.3690393700787402
 20
-0.5376338582677166
 30
0.0
 10
-0.3690393700787402
 20
-0.5376338582677166
 30
0.0
 10
0.2757125984251969
 20
-0.9182519685039371
 30
0.0
 10
0.2757125984251969
 20
-0.9182519685039371
 30
0.0
 10
0.2757125984251969
 20
-0.9182519685039371
 30
0.0
 10
0.2757125984251969
 20
-0.9182519685039371
 30
0.0
 10
0.2932283464566929
 20
-0.8953700787401575
 30
0.0
 10
0.2932283464566929
 20
-0.8953700787401575
 30
0.0
 10
0.2932283464566929
 20
-0.8953700787401575
 30
0.0
 10
0.2932283464566929
 20
-0.8953700787401575
 30
0.0
 10
-0.3515236220472441
 20
-0.514751968503937
 30
0.0
 10
-0.3515236220472441
 20
-0.514751968503937
 30
0.0
 10
-0.3515236220472441
 20
-0.514751968503937
 30
0.0
 10
-0.3515236220472441
 20
-0.514751968503937
 30
0.0
 10
-0.3690393700787402
 20
-0.5376338582677166
 30
0.0
 10
-0.3690393700787402
 20
-0.5376338582677166
 30
0.0
  0
SPLINE
  5
8C
100
AcDbEntity
  8
Layer 1
 62
     9
100
AcDbSpline
210
0.0
220
0.0
230
1.0
 70
     1
 71
     3
 72
    20
 73
    16
 74
     0
 42
0.0000000001
 43
0.0000000001
 40
0.0
 40
0.0
 40
0.0
 40
0.0
 40
0.25
 40
0.25
 40
0.25
 40
0.25
 40
0.5
 40
0.5
 40
0.5
 40
0.5
 40
0.75
 40
0.75
 40
0.75
 40
0.75
 40
1.0
 40
1.0
 40
1.0
 40
1.0
 10
-0.3515236220472441
 20
-0.514751968503937
 30
0.0
 10
-0.3515236220472441
 20
-0.514751968503937
 30
0.0
 10
0.2932283464566929
 20
-0.8953700787401575
 30
0.0
 10
0.2932283464566929
 20
-0.8953700787401575
 30
0.0
 10
0.2932283464566929
 20
-0.8953700787401575
 30
0.0
 10
0.2932283464566929
 20
-0.8953700787401575
 30
0.0
 10
0.3112834645669291
 20
-0.8734370078740158
 30
0.0
 10
0.3112834645669291
 20
-0.8734370078740158
 30
0.0
 10
0.3112834645669291
 20
-0.8734370078740158
 30
0.0
 10
0.3112834645669291
 20
-0.8734370078740158
 30
0.0
 10
-0.3334685039370079
 20
-0.4928188976377953
 30
0.0
 10
-0.3334685039370079
 20
-0.4928188976377953
 30
0.0
 10
-0.3334685039370079
 20
-0.4928188976377953
 30
0.0
 10
-0.3334685039370079
 20
-0.4928188976377953
 30
0.0
 10
-0.3515236220472441
 20
-0.514751968503937
 30
0.0
 10
-0.3515236220472441
 20
-0.514751968503937
 30
0.0
  0
SPLINE
  5
8D
100
AcDbEntity
  8
Layer 1
 62
     9
100
AcDbSpline
210
0.0
220
0.0
230
1.0
 70
     1
 71
     3
 72
    20
 73
    16
 74
     0
 42
0.0000000001
 43
0.0000000001
 40
0.0
 40
0.0
 40
0.0
 40
0.0
 40
0.25
 40
0.25
 40
0.25
 40
0.25
 40
0.5
 40
0.5
 40
0.5
 40
0.5
 40
0.75
 40
0.75
 40
0.75
 40
0.75
 40
1.0
 40
1.0
 40
1.0
 40
1.0
 10
-0.3334685039370079
 20
-0.4928188976377953
 30
0.0
 10
-0.3334685039370079
 20
-0.4928188976377953
 30
0.0
 10
0.3112834645669291
 20
-0.8734370078740158
 30
0.0
 10
0.3112834645669291
 20
-0.8734370078740158
 30
0.0
 10
0.3112834645669291
 20
-0.8734370078740158
 30
0.0
 10
0.3112834645669291
 20
-0.8734370078740158
 30
0.0
 10
0.3298818897637795
 20
-0.8524566929133859
 30
0.0
 10
0.3298818897637795
 20
-0.8524566929133859
 30
0.0
 10
0.3298818897637795
 20
-0.8524566929133859
 30
0.0
 10
0.3298818897637795
 20
-0.8524566929133859
 30
0.0
 10
-0.3148700787401575
 20
-0.4718385826771654
 30
0.0
 10
-0.3148700787401575
 20
-0.4718385826771654
 30
0.0
 10
-0.3148700787401575
 20
-0.4718385826771654
 30
0.0
 10
-0.3148700787401575
 20
-0.4718385826771654
 30
0.0
 10
-0.3334685039370079
 20
-0.4928188976377953
 30
0.0
 10
-0.3334685039370079
 20
-0.4928188976377953
 30
0.0
  0
SPLINE
  5
8E
100
AcDbEntity
  8
Layer 1
 62
     9
100
AcDbSpline
210
0.0
220
0.0
230
1.0
 70
     1
 71
     3
 72
    20
 73
    16
 74
     0
 42
0.0000000001
 43
0.0000000001
 40
0.0
 40
0.0
 40
0.0
 40
0.0
 40
0.25
 40
0.25
 40
0.25
 40
0.25
 40
0.5
 40
0.5
 40
0.5
 40
0.5
 40
0.75
 40
0.75
 40
0.75
 40
0.75
 40
1.0
 40
1.0
 40
1.0
 40
1.0
 10
-0.3148700787401575
 20
-0.4718385826771654
 30
0.0
 10
-0.3148700787401575
 20
-0.4718385826771654
 30
0.0
 10
0.3298818897637795
 20
-0.8524566929133859
 30
0.0
 10
0.3298818897637795
 20
-0.8524566929133859
 30
0.0
 10
0.3298818897637795
 20
-0.8524566929133859
 30
0.0
 10
0.3298818897637795
 20
-0.8524566929133859
 30
0.0
 10
0.3490433070866142
 20
-0.8324055118110236
 30
0.0
 10
0.3490433070866142
 20
-0.8324055118110236
 30
0.0
 10
0.3490433070866142
 20
-0.8324055118110236
 30
0.0
 10
0.3490433070866142
 20
-0.8324055118110236
 30
0.0
 10
-0.2957086614173228
 20
-0.4517874015748032
 30
0.0
 10
-0.2957086614173228
 20
-0.4517874015748032
 30
0.0
 10
-0.2957086614173228
 20
-0.4517874015748032
 30
0.0
 10
-0.2957086614173228
 20
-0.4517874015748032
 30
0.0
 10
-0.3148700787401575
 20
-0.4718385826771654
 30
0.0
 10
-0.3148700787401575
 20
-0.4718385826771654
 30
0.0
  0
SPLINE
  5
8F
100
AcDbEntity
  8
Layer 1
 62
     9
100
AcDbSpline
210
0.0
220
0.0
230
1.0
 70
     1
 71
     3
 72
    20
 73
    16
 74
     0
 42
0.0000000001
 43
0.0000000001
 40
0.0
 40
0.0
 40
0.0
 40
0.0
 40
0.25
 40
0.25
 40
0.25
 40
0.25
 40
0.5
 40
0.5
 40
0.5
 40
0.5
 40
0.75
 40
0.75
 40
0.75
 40
0.75
 40
1.0
 40
1.0
 40
1.0
 40
1.0
 10
-0.2957086614173228
 20
-0.4517874015748032
 30
0.0
 10
-0.2957086614173228
 20
-0.4517874015748032
 30
0.0
 10
0.3490433070866142
 20
-0.8324055118110236
 30
0.0
 10
0.3490433070866142
 20
-0.8324055118110236
 30
0.0
 10
0.3490433070866142
 20
-0.8324055118110236
 30
0.0
 10
0.3490433070866142
 20
-0.8324055118110236
 30
0.0
 10
0.3687637795275591
 20
-0.8132874015748032
 30
0.0
 10
0.3687637795275591
 20
-0.8132874015748032
 30
0.0
 10
0.3687637795275591
 20
-0.8132874015748032
 30
0.0
 10
0.3687637795275591
 20
-0.8132874015748032
 30
0.0
 10
-0.275988188976378
 20
-0.4326692913385827
 30
0.0
 10
-0.275988188976378
 20
-0.4326692913385827
 30
0.0
 10
-0.275988188976378
 20
-0.4326692913385827
 30
0.0
 10
-0.275988188976378
 20
-0.4326692913385827
 30
0.0
 10
-0.2957086614173228
 20
-0.4517874015748032
 30
0.0
 10
-0.2957086614173228
 20
-0.4517874015748032
 30
0.0
  0
SPLINE
  5
90
100
AcDbEntity
  8
Layer 1
 62
     9
100
AcDbSpline
210
0.0
220
0.0
230
1.0
 70
     1
 71
     3
 72
    20
 73
    16
 74
     0
 42
0.0000000001
 43
0.0000000001
 40
0.0
 40
0.0
 40
0.0
 40
0.0
 40
0.25
 40
0.25
 40
0.25
 40
0.25
 40
0.5
 40
0.5
 40
0.5
 40
0.5
 40
0.75
 40
0.75
 40
0.75
 40
0.75
 40
1.0
 40
1.0
 40
1.0
 40
1.0
 10
-0.275988188976378
 20
-0.4326692913385827
 30
0.0
 10
-0.275988188976378
 20
-0.4326692913385827
 30
0.0
 10
0.3687637795275591
 20
-0.8132874015748032
 30
0.0
 10
0.3687637795275591
 20
-0.8132874015748032
 30
0.0
 10
0.3687637795275591
 20
-0.8132874015748032
 30
0.0
 10
0.3687637795275591
 20
-0.8132874015748032
 30
0.0
 10
0.3890590551181102
 20
-0.7950866141732284
 30
0.0
 10
0.3890590551181102
 20
-0.7950866141732284
 30
0.0
 10
0.3890590551181102
 20
-0.7950866141732284
 30
0.0
 10
0.3890590551181102
 20
-0.7950866141732284
 30
0.0
 10
-0.2556929133858268
 20
-0.4144685039370079
 30
0.0
 10
-0.2556929133858268
 20
-0.4144685039370079
 30
0.0
 10
-0.2556929133858268
 20
-0.4144685039370079
 30
0.0
 10
-0.2556929133858268
 20
-0.4144685039370079
 30
0.0
 10
-0.275988188976378
 20
-0.4326692913385827
 30
0.0
 10
-0.275988188976378
 20
-0.4326692913385827
 30
0.0
  0
SPLINE
  5
91
100
AcDbEntity
  8
Layer 1
 62
     9
100
AcDbSpline
210
0.0
220
0.0
230
1.0
 70
     1
 71
     3
 72
    20
 73
    16
 74
     0
 42
0.0000000001
 43
0.0000000001
 40
0.0
 40
0.0
 40
0.0
 40
0.0
 40
0.25
 40
0.25
 40
0.25
 40
0.25
 40
0.5
 40
0.5
 40
0.5
 40
0.5
 40
0.75
 40
0.75
 40
0.75
 40
0.75
 40
1.0
 40
1.0
 40
1.0
 40
1.0
 10
-0.2556929133858268
 20
-0.4144685039370079
 30
0.0
 10
-0.2556929133858268
 20
-0.4144685039370079
 30
0.0
 10
0.3890590551181102
 20
-0.7950866141732284
 30
0.0
 10
0.3890590551181102
 20
-0.7950866141732284
 30
0.0
 10
0.3890590551181102
 20
-0.7950866141732284
 30
0.0
 10
0.3890590551181102
 20
-0.7950866141732284
 30
0.0
 10
0.4099291338582677
 20
-0.7778031496062993
 30
0.0
 10
0.4099291338582677
 20
-0.7778031496062993
 30
0.0
 10
0.4099291338582677
 20
-0.7778031496062993
 30
0.0
 10
0.4099291338582677
 20
-0.7778031496062993
 30
0.0
 10
-0.2348228346456693
 20
-0.3971850393700788
 30
0.0
 10
-0.2348228346456693
 20
-0.3971850393700788
 30
0.0
 10
-0.2348228346456693
 20
-0.3971850393700788
 30
0.0
 10
-0.2348228346456693
 20
-0.3971850393700788
 30
0.0
 10
-0.2556929133858268
 20
-0.4144685039370079
 30
0.0
 10
-0.2556929133858268
 20
-0.4144685039370079
 30
0.0
  0
SPLINE
  5
92
100
AcDbEntity
  8
Layer 1
 62
     9
100
AcDbSpline
210
0.0
220
0.0
230
1.0
 70
     1
 71
     3
 72
    20
 73
    16
 74
     0
 42
0.0000000001
 43
0.0000000001
 40
0.0
 40
0.0
 40
0.0
 40
0.0
 40
0.25
 40
0.25
 40
0.25
 40
0.25
 40
0.5
 40
0.5
 40
0.5
 40
0.5
 40
0.75
 40
0.75
 40
0.75
 40
0.75
 40
1.0
 40
1.0
 40
1.0
 40
1.0
 10
-0.2348228346456693
 20
-0.3971850393700788
 30
0.0
 10
-0.2348228346456693
 20
-0.3971850393700788
 30
0.0
 10
0.4099291338582677
 20
-0.7778031496062993
 30
0.0
 10
0.4099291338582677
 20
-0.7778031496062993
 30
0.0
 10
0.4099291338582677
 20
-0.7778031496062993
 30
0.0
 10
0.4099291338582677
 20
-0.7778031496062993
 30
0.0
 10
0.4313976377952756
 20
-0.7614094488188977
 30
0.0
 10
0.4313976377952756
 20
-0.7614094488188977
 30
0.0
 10
0.4313976377952756
 20
-0.7614094488188977
 30
0.0
 10
0.4313976377952756
 20
-0.7614094488188977
 30
0.0
 10
-0.2133543307086614
 20
-0.3807913385826772
 30
0.0
 10
-0.2133543307086614
 20
-0.3807913385826772
 30
0.0
 10
-0.2133543307086614
 20
-0.3807913385826772
 30
0.0
 10
-0.2133543307086614
 20
-0.3807913385826772
 30
0.0
 10
-0.2348228346456693
 20
-0.3971850393700788
 30
0.0
 10
-0.2348228346456693
 20
-0.3971850393700788
 30
0.0
  0
SPLINE
  5
93
100
AcDbEntity
  8
Layer 1
 62
     9
100
AcDbSpline
210
0.0
220
0.0
230
1.0
 70
     1
 71
     3
 72
    20
 73
    16
 74
     0
 42
0.0000000001
 43
0.0000000001
 40
0.0
 40
0.0
 40
0.0
 40
0.0
 40
0.25
 40
0.25
 40
0.25
 40
0.25
 40
0.5
 40
0.5
 40
0.5
 40
0.5
 40
0.75
 40
0.75
 40
0.75
 40
0.75
 40
1.0
 40
1.0
 40
1.0
 40
1.0
 10
-0.2133543307086614
 20
-0.3807913385826772
 30
0.0
 10
-0.2133543307086614
 20
-0.3807913385826772
 30
0.0
 10
0.4313976377952756
 20
-0.7614094488188977
 30
0.0
 10
0.4313976377952756
 20
-0.7614094488188977
 30
0.0
 10
0.4313976377952756
 20
-0.7614094488188977
 30
0.0
 10
0.4313976377952756
 20
-0.7614094488188977
 30
0.0
 10
0.4534527559055118
 20
-0.7459133858267717
 30
0.0
 10
0.4534527559055118
 20
-0.7459133858267717
 30
0.0
 10
0.4534527559055118
 20
-0.7459133858267717
 30
0.0
 10
0.4534527559055118
 20
-0.7459133858267717
 30
0.0
 10
-0.1912992125984252
 20
-0.3652952755905512
 30
0.0
 10
-0.1912992125984252
 20
-0.3652952755905512
 30
0.0
 10
-0.1912992125984252
 20
-0.3652952755905512
 30
0.0
 10
-0.1912992125984252
 20
-0.3652952755905512
 30
0.0
 10
-0.2133543307086614
 20
-0.3807913385826772
 30
0.0
 10
-0.2133543307086614
 20
-0.3807913385826772
 30
0.0
  0
SPLINE
  5
94
100
AcDbEntity
  8
Layer 1
 62
     9
100
AcDbSpline
210
0.0
220
0.0
230
1.0
 70
     1
 71
     3
 72
    20
 73
    16
 74
     0
 42
0.0000000001
 43
0.0000000001
 40
0.0
 40
0.0
 40
0.0
 40
0.0
 40
0.25
 40
0.25
 40
0.25
 40
0.25
 40
0.5
 40
0.5
 40
0.5
 40
0.5
 40
0.75
 40
0.75
 40
0.75
 40
0.75
 40
1.0
 40
1.0
 40
1.0
 40
1.0
 10
-0.1912992125984252
 20
-0.3652952755905512
 30
0.0
 10
-0.1912992125984252
 20
-0.3652952755905512
 30
0.0
 10
0.4534527559055118
 20
-0.7459133858267717
 30
0.0
 10
0.4534527559055118
 20
-0.7459133858267717
 30
0.0
 10
0.4534527559055118
 20
-0.7459133858267717
 30
0.0
 10
0.4534527559055118
 20
-0.7459133858267717
 30
0.0
 10
0.4761181102362205
 20
-0.7313031496062993
 30
0.0
 10
0.4761181102362205
 20
-0.7313031496062993
 30
0.0
 10
0.4761181102362205
 20
-0.7313031496062993
 30
0.0
 10
0.4761181102362205
 20
-0.7313031496062993
 30
0.0
 10
-0.1686338582677165
 20
-0.3506850393700788
 30
0.0
 10
-0.1686338582677165
 20
-0.3506850393700788
 30
0.0
 10
-0.1686338582677165
 20
-0.3506850393700788
 30
0.0
 10
-0.1686338582677165
 20
-0.3506850393700788
 30
0.0
 10
-0.1912992125984252
 20
-0.3652952755905512
 30
0.0
 10
-0.1912992125984252
 20
-0.3652952755905512
 30
0.0
  0
SPLINE
  5
95
100
AcDbEntity
  8
Layer 1
 62
     9
100
AcDbSpline
210
0.0
220
0.0
230
1.0
 70
     1
 71
     3
 72
    20
 73
    16
 74
     0
 42
0.0000000001
 43
0.0000000001
 40
0.0
 40
0.0
 40
0.0
 40
0.0
 40
0.25
 40
0.25
 40
0.25
 40
0.25
 40
0.5
 40
0.5
 40
0.5
 40
0.5
 40
0.75
 40
0.75
 40
0.75
 40
0.75
 40
1.0
 40
1.0
 40
1.0
 40
1.0
 10
-0.1686338582677165
 20
-0.3506850393700788
 30
0.0
 10
-0.1686338582677165
 20
-0.3506850393700788
 30
0.0
 10
0.4761181102362205
 20
-0.7313031496062993
 30
0.0
 10
0.4761181102362205
 20
-0.7313031496062993
 30
0.0
 10
0.4761181102362205
 20
-0.7313031496062993
 30
0.0
 10
0.4761181102362205
 20
-0.7313031496062993
 30
0.0
 10
0.4993858267716536
 20
-0.7175708661417323
 30
0.0
 10
0.4993858267716536
 20
-0.7175708661417323
 30
0.0
 10
0.4993858267716536
 20
-0.7175708661417323
 30
0.0
 10
0.4993858267716536
 20
-0.7175708661417323
 30
0.0
 10
-0.1453661417322835
 20
-0.3369527559055118
 30
0.0
 10
-0.1453661417322835
 20
-0.3369527559055118
 30
0.0
 10
-0.1453661417322835
 20
-0.3369527559055118
 30
0.0
 10
-0.1453661417322835
 20
-0.3369527559055118
 30
0.0
 10
-0.1686338582677165
 20
-0.3506850393700788
 30
0.0
 10
-0.1686338582677165
 20
-0.3506850393700788
 30
0.0
  0
SPLINE
  5
96
100
AcDbEntity
  8
Layer 1
 62
     9
100
AcDbSpline
210
0.0
220
0.0
230
1.0
 70
     1
 71
     3
 72
    20
 73
    16
 74
     0
 42
0.0000000001
 43
0.0000000001
 40
0.0
 40
0.0
 40
0.0
 40
0.0
 40
0.25
 40
0.25
 40
0.25
 40
0.25
 40
0.5
 40
0.5
 40
0.5
 40
0.5
 40
0.75
 40
0.75
 40
0.75
 40
0.75
 40
1.0
 40
1.0
 40
1.0
 40
1.0
 10
-0.1453661417322835
 20
-0.3369527559055118
 30
0.0
 10
-0.1453661417322835
 20
-0.3369527559055118
 30
0.0
 10
0.4993858267716536
 20
-0.7175708661417323
 30
0.0
 10
0.4993858267716536
 20
-0.7175708661417323
 30
0.0
 10
0.4993858267716536
 20
-0.7175708661417323
 30
0.0
 10
0.4993858267716536
 20
-0.7175708661417323
 30
0.0
 10
0.5232795275590552
 20
-0.7047007874015748
 30
0.0
 10
0.5232795275590552
 20
-0.7047007874015748
 30
0.0
 10
0.5232795275590552
 20
-0.7047007874015748
 30
0.0
 10
0.5232795275590552
 20
-0.7047007874015748
 30
0.0
 10
-0.1214724409448819
 20
-0.3240826771653543
 30
0.0
 10
-0.1214724409448819
 20
-0.3240826771653543
 30
0.0
 10
-0.1214724409448819
 20
-0.3240826771653543
 30
0.0
 10
-0.1214724409448819
 20
-0.3240826771653543
 30
0.0
 10
-0.1453661417322835
 20
-0.3369527559055118
 30
0.0
 10
-0.1453661417322835
 20
-0.3369527559055118
 30
0.0
  0
SPLINE
  5
97
100
AcDbEntity
  8
Layer 1
 62
     9
100
AcDbSpline
210
0.0
220
0.0
230
1.0
 70
     1
 71
     3
 72
    20
 73
    16
 74
     0
 42
0.0000000001
 43
0.0000000001
 40
0.0
 40
0.0
 40
0.0
 40
0.0
 40
0.25
 40
0.25
 40
0.25
 40
0.25
 40
0.5
 40
0.5
 40
0.5
 40
0.5
 40
0.75
 40
0.75
 40
0.75
 40
0.75
 40
1.0
 40
1.0
 40
1.0
 40
1.0
 10
-0.1214724409448819
 20
-0.3240826771653543
 30
0.0
 10
-0.1214724409448819
 20
-0.3240826771653543
 30
0.0
 10
0.5232795275590552
 20
-0.7047007874015748
 30
0.0
 10
0.5232795275590552
 20
-0.7047007874015748
 30
0.0
 10
0.5232795275590552
 20
-0.7047007874015748
 30
0.0
 10
0.5232795275590552
 20
-0.7047007874015748
 30
0.0
 10
0.5477992125984252
 20
-0.6926889763779528
 30
0.0
 10
0.5477992125984252
 20
-0.6926889763779528
 30
0.0
 10
0.5477992125984252
 20
-0.6926889763779528
 30
0.0
 10
0.5477992125984252
 20
-0.6926889763779528
 30
0.0
 10
-0.0969527559055118
 20
-0.3120708661417323
 30
0.0
 10
-0.0969527559055118
 20
-0.3120708661417323
 30
0.0
 10
-0.0969527559055118
 20
-0.3120708661417323
 30
0.0
 10
-0.0969527559055118
 20
-0.3120708661417323
 30
0.0
 10
-0.1214724409448819
 20
-0.3240826771653543
 30
0.0
 10
-0.1214724409448819
 20
-0.3240826771653543
 30
0.0
  0
SPLINE
  5
98
100
AcDbEntity
  8
Layer 1
 62
     9
100
AcDbSpline
210
0.0
220
0.0
230
1.0
 70
     1
 71
     3
 72
    20
 73
    16
 74
     0
 42
0.0000000001
 43
0.0000000001
 40
0.0
 40
0.0
 40
0.0
 40
0.0
 40
0.25
 40
0.25
 40
0.25
 40
0.25
 40
0.5
 40
0.5
 40
0.5
 40
0.5
 40
0.75
 40
0.75
 40
0.75
 40
0.75
 40
1.0
 40
1.0
 40
1.0
 40
1.0
 10
-0.0969527559055118
 20
-0.3120708661417323
 30
0.0
 10
-0.0969527559055118
 20
-0.3120708661417323
 30
0.0
 10
0.5477992125984252
 20
-0.6926889763779528
 30
0.0
 10
0.5477992125984252
 20
-0.6926889763779528
 30
0.0
 10
0.5477992125984252
 20
-0.6926889763779528
 30
0.0
 10
0.5477992125984252
 20
-0.6926889763779528
 30
0.0
 10
0.5729566929133858
 20
-0.6815275590551181
 30
0.0
 10
0.5729566929133858
 20
-0.6815275590551181
 30
0.0
 10
0.5729566929133858
 20
-0.6815275590551181
 30
0.0
 10
0.5729566929133858
 20
-0.6815275590551181
 30
0.0
 10
-0.0717952755905512
 20
-0.3009094488188976
 30
0.0
 10
-0.0717952755905512
 20
-0.3009094488188976
 30
0.0
 10
-0.0717952755905512
 20
-0.3009094488188976
 30
0.0
 10
-0.0717952755905512
 20
-0.3009094488188976
 30
0.0
 10
-0.0969527559055118
 20
-0.3120708661417323
 30
0.0
 10
-0.0969527559055118
 20
-0.3120708661417323
 30
0.0
  0
SPLINE
  5
99
100
AcDbEntity
  8
Layer 1
 62
     9
100
AcDbSpline
210
0.0
220
0.0
230
1.0
 70
     1
 71
     3
 72
    20
 73
    16
 74
     0
 42
0.0000000001
 43
0.0000000001
 40
0.0
 40
0.0
 40
0.0
 40
0.0
 40
0.25
 40
0.25
 40
0.25
 40
0.25
 40
0.5
 40
0.5
 40
0.5
 40
0.5
 40
0.75
 40
0.75
 40
0.75
 40
0.75
 40
1.0
 40
1.0
 40
1.0
 40
1.0
 10
-0.0717952755905512
 20
-0.3009094488188976
 30
0.0
 10
-0.0717952755905512
 20
-0.3009094488188976
 30
0.0
 10
0.5729566929133858
 20
-0.6815275590551181
 30
0.0
 10
0.5729566929133858
 20
-0.6815275590551181
 30
0.0
 10
0.5729566929133858
 20
-0.6815275590551181
 30
0.0
 10
0.5729566929133858
 20
-0.6815275590551181
 30
0.0
 10
0.598755905511811
 20
-0.6712125984251969
 30
0.0
 10
0.598755905511811
 20
-0.6712125984251969
 30
0.0
 10
0.598755905511811
 20
-0.6712125984251969
 30
0.0
 10
0.598755905511811
 20
-0.6712125984251969
 30
0.0
 10
-0.045996062992126
 20
-0.2905944881889764
 30
0.0
 10
-0.045996062992126
 20
-0.2905944881889764
 30
0.0
 10
-0.045996062992126
 20
-0.2905944881889764
 30
0.0
 10
-0.045996062992126
 20
-0.2905944881889764
 30
0.0
 10
-0.0717952755905512
 20
-0.3009094488188976
 30
0.0
 10
-0.0717952755905512
 20
-0.3009094488188976
 30
0.0
  0
SPLINE
  5
9A
100
AcDbEntity
  8
Layer 1
 62
     9
100
AcDbSpline
210
0.0
220
0.0
230
1.0
 70
     1
 71
     3
 72
    20
 73
    16
 74
     0
 42
0.0000000001
 43
0.0000000001
 40
0.0
 40
0.0
 40
0.0
 40
0.0
 40
0.25
 40
0.25
 40
0.25
 40
0.25
 40
0.5
 40
0.5
 40
0.5
 40
0.5
 40
0.75
 40
0.75
 40
0.75
 40
0.75
 40
1.0
 40
1.0
 40
1.0
 40
1.0
 10
-0.045996062992126
 20
-0.2905944881889764
 30
0.0
 10
-0.045996062992126
 20
-0.2905944881889764
 30
0.0
 10
0.598755905511811
 20
-0.6712125984251969
 30
0.0
 10
0.598755905511811
 20
-0.6712125984251969
 30
0.0
 10
0.598755905511811
 20
-0.6712125984251969
 30
0.0
 10
0.598755905511811
 20
-0.6712125984251969
 30
0.0
 10
0.6252125984251968
 20
-0.6617165354330709
 30
0.0
 10
0.6252125984251968
 20
-0.6617165354330709
 30
0.0
 10
0.6252125984251968
 20
-0.6617165354330709
 30
0.0
 10
0.6252125984251968
 20
-0.6617165354330709
 30
0.0
 10
-0.0195393700787402
 20
-0.2810984251968504
 30
0.0
 10
-0.0195393700787402
 20
-0.2810984251968504
 30
0.0
 10
-0.0195393700787402
 20
-0.2810984251968504
 30
0.0
 10
-0.0195393700787402
 20
-0.2810984251968504
 30
0.0
 10
-0.045996062992126
 20
-0.2905944881889764
 30
0.0
 10
-0.045996062992126
 20
-0.2905944881889764
 30
0.0
  0
SPLINE
  5
9B
100
AcDbEntity
  8
Layer 1
 62
     9
100
AcDbSpline
210
0.0
220
0.0
230
1.0
 70
     1
 71
     3
 72
    20
 73
    16
 74
     0
 42
0.0000000001
 43
0.0000000001
 40
0.0
 40
0.0
 40
0.0
 40
0.0
 40
0.25
 40
0.25
 40
0.25
 40
0.25
 40
0.5
 40
0.5
 40
0.5
 40
0.5
 40
0.75
 40
0.75
 40
0.75
 40
0.75
 40
1.0
 40
1.0
 40
1.0
 40
1.0
 10
-0.0195393700787402
 20
-0.2810984251968504
 30
0.0
 10
-0.0195393700787402
 20
-0.2810984251968504
 30
0.0
 10
0.6252125984251968
 20
-0.6617165354330709
 30
0.0
 10
0.6252125984251968
 20
-0.6617165354330709
 30
0.0
 10
0.6252125984251968
 20
-0.6617165354330709
 30
0.0
 10
0.6252125984251968
 20
-0.6617165354330709
 30
0.0
 10
0.6523228346456693
 20
-0.6530511811023623
 30
0.0
 10
0.6523228346456693
 20
-0.6530511811023623
 30
0.0
 10
0.6523228346456693
 20
-0.6530511811023623
 30
0.0
 10
0.6523228346456693
 20
-0.6530511811023623
 30
0.0
 10
0.0075708661417323
 20
-0.2724330708661418
 30
0.0
 10
0.0075708661417323
 20
-0.2724330708661418
 30
0.0
 10
0.0075708661417323
 20
-0.2724330708661418
 30
0.0
 10
0.0075708661417323
 20
-0.2724330708661418
 30
0.0
 10
-0.0195393700787402
 20
-0.2810984251968504
 30
0.0
 10
-0.0195393700787402
 20
-0.2810984251968504
 30
0.0
  0
SPLINE
  5
9C
100
AcDbEntity
  8
Layer 1
 62
     9
100
AcDbSpline
210
0.0
220
0.0
230
1.0
 70
     1
 71
     3
 72
    20
 73
    16
 74
     0
 42
0.0000000001
 43
0.0000000001
 40
0.0
 40
0.0
 40
0.0
 40
0.0
 40
0.25
 40
0.25
 40
0.25
 40
0.25
 40
0.5
 40
0.5
 40
0.5
 40
0.5
 40
0.75
 40
0.75
 40
0.75
 40
0.75
 40
1.0
 40
1.0
 40
1.0
 40
1.0
 10
0.0075708661417323
 20
-0.2724330708661418
 30
0.0
 10
0.0075708661417323
 20
-0.2724330708661418
 30
0.0
 10
0.6523228346456693
 20
-0.6530511811023623
 30
0.0
 10
0.6523228346456693
 20
-0.6530511811023623
 30
0.0
 10
0.6523228346456693
 20
-0.6530511811023623
 30
0.0
 10
0.6523228346456693
 20
-0.6530511811023623
 30
0.0
 10
0.6800984251968504
 20
-0.6451968503937008
 30
0.0
 10
0.6800984251968504
 20
-0.6451968503937008
 30
0.0
 10
0.6800984251968504
 20
-0.6451968503937008
 30
0.0
 10
0.6800984251968504
 20
-0.6451968503937008
 30
0.0
 10
0.0353464566929134
 20
-0.2645787401574803
 30
0.0
 10
0.0353464566929134
 20
-0.2645787401574803
 30
0.0
 10
0.0353464566929134
 20
-0.2645787401574803
 30
0.0
 10
0.0353464566929134
 20
-0.2645787401574803
 30
0.0
 10
0.0075708661417323
 20
-0.2724330708661418
 30
0.0
 10
0.0075708661417323
 20
-0.2724330708661418
 30
0.0
  0
SPLINE
  5
9D
100
AcDbEntity
  8
Layer 1
 62
     9
100
AcDbSpline
210
0.0
220
0.0
230
1.0
 70
     1
 71
     3
 72
    20
 73
    16
 74
     0
 42
0.0000000001
 43
0.0000000001
 40
0.0
 40
0.0
 40
0.0
 40
0.0
 40
0.25
 40
0.25
 40
0.25
 40
0.25
 40
0.5
 40
0.5
 40
0.5
 40
0.5
 40
0.75
 40
0.75
 40
0.75
 40
0.75
 40
1.0
 40
1.0
 40
1.0
 40
1.0
 10
0.0353464566929134
 20
-0.2645787401574803
 30
0.0
 10
0.0353464566929134
 20
-0.2645787401574803
 30
0.0
 10
0.6800984251968504
 20
-0.6451968503937008
 30
0.0
 10
0.6800984251968504
 20
-0.6451968503937008
 30
0.0
 10
0.6800984251968504
 20
-0.6451968503937008
 30
0.0
 10
0.6800984251968504
 20
-0.6451968503937008
 30
0.0
 10
0.7085629921259843
 20
-0.6381574803149607
 30
0.0
 10
0.7085629921259843
 20
-0.6381574803149607
 30
0.0
 10
0.7085629921259843
 20
-0.6381574803149607
 30
0.0
 10
0.7085629921259843
 20
-0.6381574803149607
 30
0.0
 10
0.0638110236220472
 20
-0.2575393700787402
 30
0.0
 10
0.0638110236220472
 20
-0.2575393700787402
 30
0.0
 10
0.0638110236220472
 20
-0.2575393700787402
 30
0.0
 10
0.0638110236220472
 20
-0.2575393700787402
 30
0.0
 10
0.0353464566929134
 20
-0.2645787401574803
 30
0.0
 10
0.0353464566929134
 20
-0.2645787401574803
 30
0.0
  0
SPLINE
  5
9E
100
AcDbEntity
  8
Layer 1
 62
     9
100
AcDbSpline
210
0.0
220
0.0
230
1.0
 70
     1
 71
     3
 72
    20
 73
    16
 74
     0
 42
0.0000000001
 43
0.0000000001
 40
0.0
 40
0.0
 40
0.0
 40
0.0
 40
0.25
 40
0.25
 40
0.25
 40
0.25
 40
0.5
 40
0.5
 40
0.5
 40
0.5
 40
0.75
 40
0.75
 40
0.75
 40
0.75
 40
1.0
 40
1.0
 40
1.0
 40
1.0
 10
0.0638110236220472
 20
-0.2575393700787402
 30
0.0
 10
0.0638110236220472
 20
-0.2575393700787402
 30
0.0
 10
0.7085629921259843
 20
-0.6381574803149607
 30
0.0
 10
0.7085629921259843
 20
-0.6381574803149607
 30
0.0
 10
0.7085629921259843
 20
-0.6381574803149607
 30
0.0
 10
0.7085629921259843
 20
-0.6381574803149607
 30
0.0
 10
0.7377047244094489
 20
-0.6319015748031497
 30
0.0
 10
0.7377047244094489
 20
-0.6319015748031497
 30
0.0
 10
0.7377047244094489
 20
-0.6319015748031497
 30
0.0
 10
0.7377047244094489
 20
-0.6319015748031497
 30
0.0
 10
0.0929527559055118
 20
-0.2512834645669291
 30
0.0
 10
0.0929527559055118
 20
-0.2512834645669291
 30
0.0
 10
0.0929527559055118
 20
-0.2512834645669291
 30
0.0
 10
0.0929527559055118
 20
-0.2512834645669291
 30
0.0
 10
0.0638110236220472
 20
-0.2575393700787402
 30
0.0
 10
0.0638110236220472
 20
-0.2575393700787402
 30
0.0
  0
SPLINE
  5
9F
100
AcDbEntity
  8
Layer 1
 62
     9
100
AcDbSpline
210
0.0
220
0.0
230
1.0
 70
     1
 71
     3
 72
    20
 73
    16
 74
     0
 42
0.0000000001
 43
0.0000000001
 40
0.0
 40
0.0
 40
0.0
 40
0.0
 40
0.25
 40
0.25
 40
0.25
 40
0.25
 40
0.5
 40
0.5
 40
0.5
 40
0.5
 40
0.75
 40
0.75
 40
0.75
 40
0.75
 40
1.0
 40
1.0
 40
1.0
 40
1.0
 10
0.0929527559055118
 20
-0.2512834645669291
 30
0.0
 10
0.0929527559055118
 20
-0.2512834645669291
 30
0.0
 10
0.7377047244094489
 20
-0.6319015748031497
 30
0.0
 10
0.7377047244094489
 20
-0.6319015748031497
 30
0.0
 10
0.7377047244094489
 20
-0.6319015748031497
 30
0.0
 10
0.7377047244094489
 20
-0.6319015748031497
 30
0.0
 10
0.7675433070866142
 20
-0.6264409448818898
 30
0.0
 10
0.7675433070866142
 20
-0.6264409448818898
 30
0.0
 10
0.7675433070866142
 20
-0.6264409448818898
 30
0.0
 10
0.7675433070866142
 20
-0.6264409448818898
 30
0.0
 10
0.1227913385826772
 20
-0.2458228346456693
 30
0.0
 10
0.1227913385826772
 20
-0.2458228346456693
 30
0.0
 10
0.1227913385826772
 20
-0.2458228346456693
 30
0.0
 10
0.1227913385826772
 20
-0.2458228346456693
 30
0.0
 10
0.0929527559055118
 20
-0.2512834645669291
 30
0.0
 10
0.0929527559055118
 20
-0.2512834645669291
 30
0.0
  0
SPLINE
  5
A0
100
AcDbEntity
  8
Layer 1
 62
     9
100
AcDbSpline
210
0.0
220
0.0
230
1.0
 70
     1
 71
     3
 72
    20
 73
    16
 74
     0
 42
0.0000000001
 43
0.0000000001
 40
0.0
 40
0.0
 40
0.0
 40
0.0
 40
0.25
 40
0.25
 40
0.25
 40
0.25
 40
0.5
 40
0.5
 40
0.5
 40
0.5
 40
0.75
 40
0.75
 40
0.75
 40
0.75
 40
1.0
 40
1.0
 40
1.0
 40
1.0
 10
0.1227913385826772
 20
-0.2458228346456693
 30
0.0
 10
0.1227913385826772
 20
-0.2458228346456693
 30
0.0
 10
0.7675433070866142
 20
-0.6264409448818898
 30
0.0
 10
0.7675433070866142
 20
-0.6264409448818898
 30
0.0
 10
0.7675433070866142
 20
-0.6264409448818898
 30
0.0
 10
0.7675433070866142
 20
-0.6264409448818898
 30
0.0
 10
0.7980787401574804
 20
-0.6217598425196851
 30
0.0
 10
0.7980787401574804
 20
-0.6217598425196851
 30
0.0
 10
0.7980787401574804
 20
-0.6217598425196851
 30
0.0
 10
0.7980787401574804
 20
-0.6217598425196851
 30
0.0
 10
0.1533267716535433
 20
-0.2411417322834646
 30
0.0
 10
0.1533267716535433
 20
-0.2411417322834646
 30
0.0
 10
0.1533267716535433
 20
-0.2411417322834646
 30
0.0
 10
0.1533267716535433
 20
-0.2411417322834646
 30
0.0
 10
0.1227913385826772
 20
-0.2458228346456693
 30
0.0
 10
0.1227913385826772
 20
-0.2458228346456693
 30
0.0
  0
SPLINE
  5
A1
100
AcDbEntity
  8
Layer 1
 62
     9
100
AcDbSpline
210
0.0
220
0.0
230
1.0
 70
     1
 71
     3
 72
    20
 73
    16
 74
     0
 42
0.0000000001
 43
0.0000000001
 40
0.0
 40
0.0
 40
0.0
 40
0.0
 40
0.25
 40
0.25
 40
0.25
 40
0.25
 40
0.5
 40
0.5
 40
0.5
 40
0.5
 40
0.75
 40
0.75
 40
0.75
 40
0.75
 40
1.0
 40
1.0
 40
1.0
 40
1.0
 10
0.1533267716535433
 20
-0.2411417322834646
 30
0.0
 10
0.1533267716535433
 20
-0.2411417322834646
 30
0.0
 10
0.7980787401574804
 20
-0.6217598425196851
 30
0.0
 10
0.7980787401574804
 20
-0.6217598425196851
 30
0.0
 10
0.7980787401574804
 20
-0.6217598425196851
 30
0.0
 10
0.7980787401574804
 20
-0.6217598425196851
 30
0.0
 10
0.8293307086614173
 20
-0.6178543307086615
 30
0.0
 10
0.8293307086614173
 20
-0.6178543307086615
 30
0.0
 10
0.8293307086614173
 20
-0.6178543307086615
 30
0.0
 10
0.8293307086614173
 20
-0.6178543307086615
 30
0.0
 10
0.1845787401574803
 20
-0.237236220472441
 30
0.0
 10
0.1845787401574803
 20
-0.237236220472441
 30
0.0
 10
0.1845787401574803
 20
-0.237236220472441
 30
0.0
 10
0.1845787401574803
 20
-0.237236220472441
 30
0.0
 10
0.1533267716535433
 20
-0.2411417322834646
 30
0.0
 10
0.1533267716535433
 20
-0.2411417322834646
 30
0.0
  0
SPLINE
  5
A2
100
AcDbEntity
  8
Layer 1
370
     5
100
AcDbSpline
210
0.0
220
0.0
230
1.0
 70
     1
 71
     3
 72
   268
 73
   264
 74
     0
 42
0.0000000001
 43
0.0000000001
 40
0.0
 40
0.0
 40
0.0
 40
0.0
 40
0.0151515151515152
 40
0.0151515151515152
 40
0.0151515151515152
 40
0.0151515151515152
 40
0.0303030303030303
 40
0.0303030303030303
 40
0.0303030303030303
 40
0.0303030303030303
 40
0.0454545454545455
 40
0.0454545454545455
 40
0.0454545454545455
 40
0.0454545454545455
 40
0.0606060606060606
 40
0.0606060606060606
 40
0.0606060606060606
 40
0.0606060606060606
 40
0.0757575757575758
 40
0.0757575757575758
 40
0.0757575757575758
 40
0.0757575757575758
 40
0.0909090909090909
 40
0.0909090909090909
 40
0.0909090909090909
 40
0.0909090909090909
 40
0.1060606060606061
 40
0.1060606060606061
 40
0.1060606060606061
 40
0.1060606060606061
 40
0.1212121212121212
 40
0.1212121212121212
 40
0.1212121212121212
 40
0.1212121212121212
 40
0.1363636363636364
 40
0.1363636363636364
 40
0.1363636363636364
 40
0.1363636363636364
 40
0.1515151515151515
 40
0.1515151515151515
 40
0.1515151515151515
 40
0.1515151515151515
 40
0.1666666666666666
 40
0.1666666666666666
 40
0.1666666666666666
 40
0.1666666666666666
 40
0.1818181818181818
 40
0.1818181818181818
 40
0.1818181818181818
 40
0.1818181818181818
 40
0.1969696969696969
 40
0.1969696969696969
 40
0.1969696969696969
 40
0.1969696969696969
 40
0.212121212121212
 40
0.212121212121212
 40
0.212121212121212
 40
0.212121212121212
 40
0.2272727272727272
 40
0.2272727272727272
 40
0.2272727272727272
 40
0.2272727272727272
 40
0.2424242424242423
 40
0.2424242424242423
 40
0.2424242424242423
 40
0.2424242424242423
 40
0.2575757575757575
 40
0.2575757575757575
 40
0.2575757575757575
 40
0.2575757575757575
 40
0.2727272727272726
 40
0.2727272727272726
 40
0.2727272727272726
 40
0.2727272727272726
 40
0.2878787878787877
 40
0.2878787878787877
 40
0.2878787878787877
 40
0.2878787878787877
 40
0.3030303030303029
 40
0.3030303030303029
 40
0.3030303030303029
 40
0.3030303030303029
 40
0.318181818181818
 40
0.318181818181818
 40
0.318181818181818
 40
0.318181818181818
 40
0.3333333333333332
 40
0.3333333333333332
 40
0.3333333333333332
 40
0.3333333333333332
 40
0.3484848484848483
 40
0.3484848484848483
 40
0.3484848484848483
 40
0.3484848484848483
 40
0.3636363636363634
 40
0.3636363636363634
 40
0.3636363636363634
 40
0.3636363636363634
 40
0.3787878787878786
 40
0.3787878787878786
 40
0.3787878787878786
 40
0.3787878787878786
 40
0.3939393939393937
 40
0.3939393939393937
 40
0.3939393939393937
 40
0.3939393939393937
 40
0.4090909090909088
 40
0.4090909090909088
 40
0.4090909090909088
 40
0.4090909090909088
 40
0.424242424242424
 40
0.424242424242424
 40
0.424242424242424
 40
0.424242424242424
 40
0.4393939393939391
 40
0.4393939393939391
 40
0.4393939393939391
 40
0.4393939393939391
 40
0.4545454545454543
 40
0.4545454545454543
 40
0.4545454545454543
 40
0.4545454545454543
 40
0.4696969696969694
 40
0.4696969696969694
 40
0.4696969696969694
 40
0.4696969696969694
 40
0.4848484848484845
 40
0.4848484848484845
 40
0.4848484848484845
 40
0.4848484848484845
 40
0.4999999999999997
 40
0.4999999999999997
 40
0.4999999999999997
 40
0.4999999999999997
 40
0.5151515151515148
 40
0.5151515151515148
 40
0.5151515151515148
 40
0.5151515151515148
 40
0.5303030303030299
 40
0.5303030303030299
 40
0.5303030303030299
 40
0.5303030303030299
 40
0.5454545454545451
 40
0.5454545454545451
 40
0.5454545454545451
 40
0.5454545454545451
 40
0.5606060606060602
 40
0.5606060606060602
 40
0.5606060606060602
 40
0.5606060606060602
 40
0.5757575757575754
 40
0.5757575757575754
 40
0.5757575757575754
 40
0.5757575757575754
 40
0.5909090909090905
 40
0.5909090909090905
 40
0.5909090909090905
 40
0.5909090909090905
 40
0.6060606060606056
 40
0.6060606060606056
 40
0.6060606060606056
 40
0.6060606060606056
 40
0.6212121212121208
 40
0.6212121212121208
 40
0.6212121212121208
 40
0.6212121212121208
 40
0.6363636363636359
 40
0.6363636363636359
 40
0.6363636363636359
 40
0.6363636363636359
 40
0.6515151515151511
 40
0.6515151515151511
 40
0.6515151515151511
 40
0.6515151515151511
 40
0.6666666666666662
 40
0.6666666666666662
 40
0.6666666666666662
 40
0.6666666666666662
 40
0.6818181818181813
 40
0.6818181818181813
 40
0.6818181818181813
 40
0.6818181818181813
 40
0.6969696969696965
 40
0.6969696969696965
 40
0.6969696969696965
 40
0.6969696969696965
 40
0.7121212121212116
 40
0.7121212121212116
 40
0.7121212121212116
 40
0.7121212121212116
 40
0.7272727272727267
 40
0.7272727272727267
 40
0.7272727272727267
 40
0.7272727272727267
 40
0.7424242424242419
 40
0.7424242424242419
 40
0.7424242424242419
 40
0.7424242424242419
 40
0.757575757575757
 40
0.757575757575757
 40
0.757575757575757
 40
0.757575757575757
 40
0.7727272727272722
 40
0.7727272727272722
 40
0.7727272727272722
 40
0.7727272727272722
 40
0.7878787878787873
 40
0.7878787878787873
 40
0.7878787878787873
 40
0.7878787878787873
 40
0.8030303030303024
 40
0.8030303030303024
 40
0.8030303030303024
 40
0.8030303030303024
 40
0.8181818181818176
 40
0.8181818181818176
 40
0.8181818181818176
 40
0.8181818181818176
 40
0.8333333333333327
 40
0.8333333333333327
 40
0.8333333333333327
 40
0.8333333333333327
 40
0.8484848484848478
 40
0.8484848484848478
 40
0.8484848484848478
 40
0.8484848484848478
 40
0.863636363636363
 40
0.863636363636363
 40
0.863636363636363
 40
0.863636363636363
 40
0.8787878787878781
 40
0.8787878787878781
 40
0.8787878787878781
 40
0.8787878787878781
 40
0.8939393939393933
 40
0.8939393939393933
 40
0.8939393939393933
 40
0.8939393939393933
 40
0.9090909090909084
 40
0.9090909090909084
 40
0.9090909090909084
 40
0.9090909090909084
 40
0.9242424242424235
 40
0.9242424242424235
 40
0.9242424242424235
 40
0.9242424242424235
 40
0.9393939393939387
 40
0.9393939393939387
 40
0.9393939393939387
 40
0.9393939393939387
 40
0.9545454545454538
 40
0.9545454545454538
 40
0.9545454545454538
 40
0.9545454545454538
 40
0.969696969696969
 40
0.969696969696969
 40
0.969696969696969
 40
0.969696969696969
 40
0.9848484848484841
 40
0.9848484848484841
 40
0.9848484848484841
 40
0.9848484848484841
 40
1.0
 40
1.0
 40
1.0
 40
1.0
 10
-0.503732283464567
 20
-0.788007874015748
 30
0.0
 10
-0.503732283464567
 20
-0.788007874015748
 30
0.0
 10
0.1410196850393701
 20
-1.1686259842519686
 30
0.0
 10
0.1410196850393701
 20
-1.1686259842519686
 30
0.0
 10
0.1410196850393701
 20
-1.1686259842519686
 30
0.0
 10
0.1410196850393701
 20
-1.1686259842519686
 30
0.0
 10
0.1540472440944882
 20
-1.136748031496063
 30
0.0
 10
0.1540472440944882
 20
-1.136748031496063
 30
0.0
 10
0.1540472440944882
 20
-1.136748031496063
 30
0.0
 10
0.1540472440944882
 20
-1.136748031496063
 30
0.0
 10
0.1675354330708662
 20
-1.1059133858267718
 30
0.0
 10
0.1675354330708662
 20
-1.1059133858267718
 30
0.0
 10
0.1675354330708662
 20
-1.1059133858267718
 30
0.0
 10
0.1675354330708662
 20
-1.1059133858267718
 30
0.0
 10
0.1815
 20
-1.0760984251968504
 30
0.0
 10
0.1815
 20
-1.0760984251968504
 30
0.0
 10
0.1815
 20
-1.0760984251968504
 30
0.0
 10
0.1815
 20
-1.0760984251968504
 30
0.0
 10
0.1959448818897638
 20
-1.0473070866141734
 30
0.0
 10
0.1959448818897638
 20
-1.0473070866141734
 30
0.0
 10
0.1959448818897638
 20
-1.0473070866141734
 30
0.0
 10
0.1959448818897638
 20
-1.0473070866141734
 30
0.0
 10
0.2108858267716536
 20
-1.0195118110236221
 30
0.0
 10
0.2108858267716536
 20
-1.0195118110236221
 30
0.0
 10
0.2108858267716536
 20
-1.0195118110236221
 30
0.0
 10
0.2108858267716536
 20
-1.0195118110236221
 30
0.0
 10
0.2263228346456693
 20
-0.9927244094488189
 30
0.0
 10
0.2263228346456693
 20
-0.9927244094488189
 30
0.0
 10
0.2263228346456693
 20
-0.9927244094488189
 30
0.0
 10
0.2263228346456693
 20
-0.9927244094488189
 30
0.0
 10
0.2422677165354331
 20
-0.9669212598425198
 30
0.0
 10
0.2422677165354331
 20
-0.9669212598425198
 30
0.0
 10
0.2422677165354331
 20
-0.9669212598425198
 30
0.0
 10
0.2422677165354331
 20
-0.9669212598425198
 30
0.0
 10
0.2587244094488189
 20
-0.9421062992125985
 30
0.0
 10
0.2587244094488189
 20
-0.9421062992125985
 30
0.0
 10
0.2587244094488189
 20
-0.9421062992125985
 30
0.0
 10
0.2587244094488189
 20
-0.9421062992125985
 30
0.0
 10
0.2757125984251969
 20
-0.9182519685039371
 30
0.0
 10
0.2757125984251969
 20
-0.9182519685039371
 30
0.0
 10
0.2757125984251969
 20
-0.9182519685039371
 30
0.0
 10
0.2757125984251969
 20
-0.9182519685039371
 30
0.0
 10
0.2932283464566929
 20
-0.8953700787401575
 30
0.0
 10
0.2932283464566929
 20
-0.8953700787401575
 30
0.0
 10
0.2932283464566929
 20
-0.8953700787401575
 30
0.0
 10
0.2932283464566929
 20
-0.8953700787401575
 30
0.0
 10
0.3112834645669291
 20
-0.8734370078740158
 30
0.0
 10
0.3112834645669291
 20
-0.8734370078740158
 30
0.0
 10
0.3112834645669291
 20
-0.8734370078740158
 30
0.0
 10
0.3112834645669291
 20
-0.8734370078740158
 30
0.0
 10
0.3298818897637795
 20
-0.8524566929133859
 30
0.0
 10
0.3298818897637795
 20
-0.8524566929133859
 30
0.0
 10
0.3298818897637795
 20
-0.8524566929133859
 30
0.0
 10
0.3298818897637795
 20
-0.8524566929133859
 30
0.0
 10
0.3490433070866142
 20
-0.8324055118110236
 30
0.0
 10
0.3490433070866142
 20
-0.8324055118110236
 30
0.0
 10
0.3490433070866142
 20
-0.8324055118110236
 30
0.0
 10
0.3490433070866142
 20
-0.8324055118110236
 30
0.0
 10
0.3687637795275591
 20
-0.8132874015748032
 30
0.0
 10
0.3687637795275591
 20
-0.8132874015748032
 30
0.0
 10
0.3687637795275591
 20
-0.8132874015748032
 30
0.0
 10
0.3687637795275591
 20
-0.8132874015748032
 30
0.0
 10
0.3890590551181102
 20
-0.7950866141732284
 30
0.0
 10
0.3890590551181102
 20
-0.7950866141732284
 30
0.0
 10
0.3890590551181102
 20
-0.7950866141732284
 30
0.0
 10
0.3890590551181102
 20
-0.7950866141732284
 30
0.0
 10
0.4099291338582677
 20
-0.7778031496062993
 30
0.0
 10
0.4099291338582677
 20
-0.7778031496062993
 30
0.0
 10
0.4099291338582677
 20
-0.7778031496062993
 30
0.0
 10
0.4099291338582677
 20
-0.7778031496062993
 30
0.0
 10
0.4313976377952756
 20
-0.7614094488188977
 30
0.0
 10
0.4313976377952756
 20
-0.7614094488188977
 30
0.0
 10
0.4313976377952756
 20
-0.7614094488188977
 30
0.0
 10
0.4313976377952756
 20
-0.7614094488188977
 30
0.0
 10
0.4534527559055118
 20
-0.7459133858267717
 30
0.0
 10
0.4534527559055118
 20
-0.7459133858267717
 30
0.0
 10
0.4534527559055118
 20
-0.7459133858267717
 30
0.0
 10
0.4534527559055118
 20
-0.7459133858267717
 30
0.0
 10
0.4761181102362205
 20
-0.7313031496062993
 30
0.0
 10
0.4761181102362205
 20
-0.7313031496062993
 30
0.0
 10
0.4761181102362205
 20
-0.7313031496062993
 30
0.0
 10
0.4761181102362205
 20
-0.7313031496062993
 30
0.0
 10
0.4993858267716536
 20
-0.7175708661417323
 30
0.0
 10
0.4993858267716536
 20
-0.7175708661417323
 30
0.0
 10
0.4993858267716536
 20
-0.7175708661417323
 30
0.0
 10
0.4993858267716536
 20
-0.7175708661417323
 30
0.0
 10
0.5232795275590552
 20
-0.7047007874015748
 30
0.0
 10
0.5232795275590552
 20
-0.7047007874015748
 30
0.0
 10
0.5232795275590552
 20
-0.7047007874015748
 30
0.0
 10
0.5232795275590552
 20
-0.7047007874015748
 30
0.0
 10
0.5477992125984252
 20
-0.6926889763779528
 30
0.0
 10
0.5477992125984252
 20
-0.6926889763779528
 30
0.0
 10
0.5477992125984252
 20
-0.6926889763779528
 30
0.0
 10
0.5477992125984252
 20
-0.6926889763779528
 30
0.0
 10
0.5729566929133858
 20
-0.6815275590551181
 30
0.0
 10
0.5729566929133858
 20
-0.6815275590551181
 30
0.0
 10
0.5729566929133858
 20
-0.6815275590551181
 30
0.0
 10
0.5729566929133858
 20
-0.6815275590551181
 30
0.0
 10
0.598755905511811
 20
-0.6712125984251969
 30
0.0
 10
0.598755905511811
 20
-0.6712125984251969
 30
0.0
 10
0.598755905511811
 20
-0.6712125984251969
 30
0.0
 10
0.598755905511811
 20
-0.6712125984251969
 30
0.0
 10
0.6252125984251968
 20
-0.6617165354330709
 30
0.0
 10
0.6252125984251968
 20
-0.6617165354330709
 30
0.0
 10
0.6252125984251968
 20
-0.6617165354330709
 30
0.0
 10
0.6252125984251968
 20
-0.6617165354330709
 30
0.0
 10
0.6523228346456693
 20
-0.6530511811023623
 30
0.0
 10
0.6523228346456693
 20
-0.6530511811023623
 30
0.0
 10
0.6523228346456693
 20
-0.6530511811023623
 30
0.0
 10
0.6523228346456693
 20
-0.6530511811023623
 30
0.0
 10
0.6800984251968504
 20
-0.6451968503937008
 30
0.0
 10
0.6800984251968504
 20
-0.6451968503937008
 30
0.0
 10
0.6800984251968504
 20
-0.6451968503937008
 30
0.0
 10
0.6800984251968504
 20
-0.6451968503937008
 30
0.0
 10
0.7085629921259843
 20
-0.6381574803149607
 30
0.0
 10
0.7085629921259843
 20
-0.6381574803149607
 30
0.0
 10
0.7085629921259843
 20
-0.6381574803149607
 30
0.0
 10
0.7085629921259843
 20
-0.6381574803149607
 30
0.0
 10
0.7377047244094489
 20
-0.6319015748031497
 30
0.0
 10
0.7377047244094489
 20
-0.6319015748031497
 30
0.0
 10
0.7377047244094489
 20
-0.6319015748031497
 30
0.0
 10
0.7377047244094489
 20
-0.6319015748031497
 30
0.0
 10
0.7675433070866142
 20
-0.6264409448818898
 30
0.0
 10
0.7675433070866142
 20
-0.6264409448818898
 30
0.0
 10
0.7675433070866142
 20
-0.6264409448818898
 30
0.0
 10
0.7675433070866142
 20
-0.6264409448818898
 30
0.0
 10
0.7980787401574804
 20
-0.6217598425196851
 30
0.0
 10
0.7980787401574804
 20
-0.6217598425196851
 30
0.0
 10
0.7980787401574804
 20
-0.6217598425196851
 30
0.0
 10
0.7980787401574804
 20
-0.6217598425196851
 30
0.0
 10
0.8293307086614173
 20
-0.6178543307086615
 30
0.0
 10
0.8293307086614173
 20
-0.6178543307086615
 30
0.0
 10
0.8293307086614173
 20
-0.6178543307086615
 30
0.0
 10
0.8293307086614173
 20
-0.6178543307086615
 30
0.0
 10
0.1845787401574803
 20
-0.237236220472441
 30
0.0
 10
0.1845787401574803
 20
-0.237236220472441
 30
0.0
 10
0.1845787401574803
 20
-0.237236220472441
 30
0.0
 10
0.1845787401574803
 20
-0.237236220472441
 30
0.0
 10
0.1533267716535433
 20
-0.2411417322834646
 30
0.0
 10
0.1533267716535433
 20
-0.2411417322834646
 30
0.0
 10
0.1533267716535433
 20
-0.2411417322834646
 30
0.0
 10
0.1533267716535433
 20
-0.2411417322834646
 30
0.0
 10
0.1227913385826772
 20
-0.2458228346456693
 30
0.0
 10
0.1227913385826772
 20
-0.2458228346456693
 30
0.0
 10
0.1227913385826772
 20
-0.2458228346456693
 30
0.0
 10
0.1227913385826772
 20
-0.2458228346456693
 30
0.0
 10
0.0929527559055118
 20
-0.2512834645669291
 30
0.0
 10
0.0929527559055118
 20
-0.2512834645669291
 30
0.0
 10
0.0929527559055118
 20
-0.2512834645669291
 30
0.0
 10
0.0929527559055118
 20
-0.2512834645669291
 30
0.0
 10
0.0638110236220472
 20
-0.2575393700787402
 30
0.0
 10
0.0638110236220472
 20
-0.2575393700787402
 30
0.0
 10
0.0638110236220472
 20
-0.2575393700787402
 30
0.0
 10
0.0638110236220472
 20
-0.2575393700787402
 30
0.0
 10
0.0353464566929134
 20
-0.2645787401574803
 30
0.0
 10
0.0353464566929134
 20
-0.2645787401574803
 30
0.0
 10
0.0353464566929134
 20
-0.2645787401574803
 30
0.0
 10
0.0353464566929134
 20
-0.2645787401574803
 30
0.0
 10
0.0075708661417323
 20
-0.2724330708661418
 30
0.0
 10
0.0075708661417323
 20
-0.2724330708661418
 30
0.0
 10
0.0075708661417323
 20
-0.2724330708661418
 30
0.0
 10
0.0075708661417323
 20
-0.2724330708661418
 30
0.0
 10
-0.0195393700787402
 20
-0.2810984251968504
 30
0.0
 10
-0.0195393700787402
 20
-0.2810984251968504
 30
0.0
 10
-0.0195393700787402
 20
-0.2810984251968504
 30
0.0
 10
-0.0195393700787402
 20
-0.2810984251968504
 30
0.0
 10
-0.045996062992126
 20
-0.2905944881889764
 30
0.0
 10
-0.045996062992126
 20
-0.2905944881889764
 30
0.0
 10
-0.045996062992126
 20
-0.2905944881889764
 30
0.0
 10
-0.045996062992126
 20
-0.2905944881889764
 30
0.0
 10
-0.0717952755905512
 20
-0.3009094488188976
 30
0.0
 10
-0.0717952755905512
 20
-0.3009094488188976
 30
0.0
 10
-0.0717952755905512
 20
-0.3009094488188976
 30
0.0
 10
-0.0717952755905512
 20
-0.3009094488188976
 30
0.0
 10
-0.0969527559055118
 20
-0.3120708661417323
 30
0.0
 10
-0.0969527559055118
 20
-0.3120708661417323
 30
0.0
 10
-0.0969527559055118
 20
-0.3120708661417323
 30
0.0
 10
-0.0969527559055118
 20
-0.3120708661417323
 30
0.0
 10
-0.1214724409448819
 20
-0.3240826771653543
 30
0.0
 10
-0.1214724409448819
 20
-0.3240826771653543
 30
0.0
 10
-0.1214724409448819
 20
-0.3240826771653543
 30
0.0
 10
-0.1214724409448819
 20
-0.3240826771653543
 30
0.0
 10
-0.1453661417322835
 20
-0.3369527559055118
 30
0.0
 10
-0.1453661417322835
 20
-0.3369527559055118
 30
0.0
 10
-0.1453661417322835
 20
-0.3369527559055118
 30
0.0
 10
-0.1453661417322835
 20
-0.3369527559055118
 30
0.0
 10
-0.1686338582677165
 20
-0.3506850393700788
 30
0.0
 10
-0.1686338582677165
 20
-0.3506850393700788
 30
0.0
 10
-0.1686338582677165
 20
-0.3506850393700788
 30
0.0
 10
-0.1686338582677165
 20
-0.3506850393700788
 30
0.0
 10
-0.1912992125984252
 20
-0.3652952755905512
 30
0.0
 10
-0.1912992125984252
 20
-0.3652952755905512
 30
0.0
 10
-0.1912992125984252
 20
-0.3652952755905512
 30
0.0
 10
-0.1912992125984252
 20
-0.3652952755905512
 30
0.0
 10
-0.2133543307086614
 20
-0.3807913385826772
 30
0.0
 10
-0.2133543307086614
 20
-0.3807913385826772
 30
0.0
 10
-0.2133543307086614
 20
-0.3807913385826772
 30
0.0
 10
-0.2133543307086614
 20
-0.3807913385826772
 30
0.0
 10
-0.2348228346456693
 20
-0.3971850393700788
 30
0.0
 10
-0.2348228346456693
 20
-0.3971850393700788
 30
0.0
 10
-0.2348228346456693
 20
-0.3971850393700788
 30
0.0
 10
-0.2348228346456693
 20
-0.3971850393700788
 30
0.0
 10
-0.2556929133858268
 20
-0.4144685039370079
 30
0.0
 10
-0.2556929133858268
 20
-0.4144685039370079
 30
0.0
 10
-0.2556929133858268
 20
-0.4144685039370079
 30
0.0
 10
-0.2556929133858268
 20
-0.4144685039370079
 30
0.0
 10
-0.275988188976378
 20
-0.4326692913385827
 30
0.0
 10
-0.275988188976378
 20
-0.4326692913385827
 30
0.0
 10
-0.275988188976378
 20
-0.4326692913385827
 30
0.0
 10
-0.275988188976378
 20
-0.4326692913385827
 30
0.0
 10
-0.2957086614173228
 20
-0.4517874015748032
 30
0.0
 10
-0.2957086614173228
 20
-0.4517874015748032
 30
0.0
 10
-0.2957086614173228
 20
-0.4517874015748032
 30
0.0
 10
-0.2957086614173228
 20
-0.4517874015748032
 30
0.0
 10
-0.3148700787401575
 20
-0.4718385826771654
 30
0.0
 10
-0.3148700787401575
 20
-0.4718385826771654
 30
0.0
 10
-0.3148700787401575
 20
-0.4718385826771654
 30
0.0
 10
-0.3148700787401575
 20
-0.4718385826771654
 30
0.0
 10
-0.3334685039370079
 20
-0.4928188976377953
 30
0.0
 10
-0.3334685039370079
 20
-0.4928188976377953
 30
0.0
 10
-0.3334685039370079
 20
-0.4928188976377953
 30
0.0
 10
-0.3334685039370079
 20
-0.4928188976377953
 30
0.0
 10
-0.3515236220472441
 20
-0.514751968503937
 30
0.0
 10
-0.3515236220472441
 20
-0.514751968503937
 30
0.0
 10
-0.3515236220472441
 20
-0.514751968503937
 30
0.0
 10
-0.3515236220472441
 20
-0.514751968503937
 30
0.0
 10
-0.3690393700787402
 20
-0.5376338582677166
 30
0.0
 10
-0.3690393700787402
 20
-0.5376338582677166
 30
0.0
 10
-0.3690393700787402
 20
-0.5376338582677166
 30
0.0
 10
-0.3690393700787402
 20
-0.5376338582677166
 30
0.0
 10
-0.3860275590551182
 20
-0.561488188976378
 30
0.0
 10
-0.3860275590551182
 20
-0.561488188976378
 30
0.0
 10
-0.3860275590551182
 20
-0.561488188976378
 30
0.0
 10
-0.3860275590551182
 20
-0.561488188976378
 30
0.0
 10
-0.402484251968504
 20
-0.5863031496062993
 30
0.0
 10
-0.402484251968504
 20
-0.5863031496062993
 30
0.0
 10
-0.402484251968504
 20
-0.5863031496062993
 30
0.0
 10
-0.402484251968504
 20
-0.5863031496062993
 30
0.0
 10
-0.4184291338582677
 20
-0.6121062992125984
 30
0.0
 10
-0.4184291338582677
 20
-0.6121062992125984
 30
0.0
 10
-0.4184291338582677
 20
-0.6121062992125984
 30
0.0
 10
-0.4184291338582677
 20
-0.6121062992125984
 30
0.0
 10
-0.4338661417322835
 20
-0.6388937007874016
 30
0.0
 10
-0.4338661417322835
 20
-0.6388937007874016
 30
0.0
 10
-0.4338661417322835
 20
-0.6388937007874016
 30
0.0
 10
-0.4338661417322835
 20
-0.6388937007874016
 30
0.0
 10
-0.4488070866141732
 20
-0.6666889763779528
 30
0.0
 10
-0.4488070866141732
 20
-0.6666889763779528
 30
0.0
 10
-0.4488070866141732
 20
-0.6666889763779528
 30
0.0
 10
-0.4488070866141732
 20
-0.6666889763779528
 30
0.0
 10
-0.463251968503937
 20
-0.6954803149606299
 30
0.0
 10
-0.463251968503937
 20
-0.6954803149606299
 30
0.0
 10
-0.463251968503937
 20
-0.6954803149606299
 30
0.0
 10
-0.463251968503937
 20
-0.6954803149606299
 30
0.0
 10
-0.4772165354330709
 20
-0.7252952755905512
 30
0.0
 10
-0.4772165354330709
 20
-0.7252952755905512
 30
0.0
 10
-0.4772165354330709
 20
-0.7252952755905512
 30
0.0
 10
-0.4772165354330709
 20
-0.7252952755905512
 30
0.0
 10
-0.4907047244094488
 20
-0.7561299212598426
 30
0.0
 10
-0.4907047244094488
 20
-0.7561299212598426
 30
0.0
 10
-0.4907047244094488
 20
-0.7561299212598426
 30
0.0
 10
-0.4907047244094488
 20
-0.7561299212598426
 30
0.0
 10
-0.503732283464567
 20
-0.788007874015748
 30
0.0
 10
-0.503732283464567
 20
-0.788007874015748
 30
0.0
  0
SPLINE
  5
A3
100
AcDbEntity
  8
Layer 1
 62
     9
100
AcDbSpline
210
0.0
220
0.0
230
1.0
 70
     1
 71
     3
 72
    20
 73
    16
 74
     0
 42
0.0000000001
 43
0.0000000001
 40
0.0
 40
0.0
 40
0.0
 40
0.0
 40
0.25
 40
0.25
 40
0.25
 40
0.25
 40
0.5
 40
0.5
 40
0.5
 40
0.5
 40
0.75
 40
0.75
 40
0.75
 40
0.75
 40
1.0
 40
1.0
 40
1.0
 40
1.0
 10
0.1845787401574803
 20
-0.237236220472441
 30
0.0
 10
0.1845787401574803
 20
-0.237236220472441
 30
0.0
 10
0.8293307086614173
 20
-0.6178543307086615
 30
0.0
 10
0.8293307086614173
 20
-0.6178543307086615
 30
0.0
 10
0.8293307086614173
 20
-0.6178543307086615
 30
0.0
 10
0.8293307086614173
 20
-0.6178543307086615
 30
0.0
 10
0.8273307086614173
 20
-0.4724645669291339
 30
0.0
 10
0.8273307086614173
 20
-0.4724645669291339
 30
0.0
 10
0.8273307086614173
 20
-0.4724645669291339
 30
0.0
 10
0.8273307086614173
 20
-0.4724645669291339
 30
0.0
 10
0.1825787401574803
 20
-0.0918464566929134
 30
0.0
 10
0.1825787401574803
 20
-0.0918464566929134
 30
0.0
 10
0.1825787401574803
 20
-0.0918464566929134
 30
0.0
 10
0.1825787401574803
 20
-0.0918464566929134
 30
0.0
 10
0.1845787401574803
 20
-0.237236220472441
 30
0.0
 10
0.1845787401574803
 20
-0.237236220472441
 30
0.0
  0
SPLINE
  5
A4
100
AcDbEntity
  8
Layer 1
370
     5
100
AcDbSpline
210
0.0
220
0.0
230
1.0
 70
     1
 71
     3
 72
    20
 73
    16
 74
     0
 42
0.0000000001
 43
0.0000000001
 40
0.0
 40
0.0
 40
0.0
 40
0.0
 40
0.25
 40
0.25
 40
0.25
 40
0.25
 40
0.5
 40
0.5
 40
0.5
 40
0.5
 40
0.75
 40
0.75
 40
0.75
 40
0.75
 40
1.0
 40
1.0
 40
1.0
 40
1.0
 10
0.1845787401574803
 20
-0.237236220472441
 30
0.0
 10
0.1845787401574803
 20
-0.237236220472441
 30
0.0
 10
0.8293307086614173
 20
-0.6178543307086615
 30
0.0
 10
0.8293307086614173
 20
-0.6178543307086615
 30
0.0
 10
0.8293307086614173
 20
-0.6178543307086615
 30
0.0
 10
0.8293307086614173
 20
-0.6178543307086615
 30
0.0
 10
0.8273307086614173
 20
-0.4724645669291339
 30
0.0
 10
0.8273307086614173
 20
-0.4724645669291339
 30
0.0
 10
0.8273307086614173
 20
-0.4724645669291339
 30
0.0
 10
0.8273307086614173
 20
-0.4724645669291339
 30
0.0
 10
0.1825787401574803
 20
-0.0918464566929134
 30
0.0
 10
0.1825787401574803
 20
-0.0918464566929134
 30
0.0
 10
0.1825787401574803
 20
-0.0918464566929134
 30
0.0
 10
0.1825787401574803
 20
-0.0918464566929134
 30
0.0
 10
0.1845787401574803
 20
-0.237236220472441
 30
0.0
 10
0.1845787401574803
 20
-0.237236220472441
 30
0.0
  0
SPLINE
  5
A5
100
AcDbEntity
  8
Layer 1
 62
     9
100
AcDbSpline
210
0.0
220
0.0
230
1.0
 70
     1
 71
     3
 72
    28
 73
    24
 74
     0
 42
0.0000000001
 43
0.0000000001
 40
0.0
 40
0.0
 40
0.0
 40
0.0
 40
0.1666666666666667
 40
0.1666666666666667
 40
0.1666666666666667
 40
0.1666666666666667
 40
0.3333333333333333
 40
0.3333333333333333
 40
0.3333333333333333
 40
0.3333333333333333
 40
0.5
 40
0.5
 40
0.5
 40
0.5
 40
0.6666666666666666
 40
0.6666666666666666
 40
0.6666666666666666
 40
0.6666666666666666
 40
0.8333333333333333
 40
0.8333333333333333
 40
0.8333333333333333
 40
0.8333333333333333
 40
1.0
 40
1.0
 40
1.0
 40
1.0
 10
0.1825787401574803
 20
-0.0918464566929134
 30
0.0
 10
0.1825787401574803
 20
-0.0918464566929134
 30
0.0
 10
0.8273307086614173
 20
-0.4724645669291339
 30
0.0
 10
0.8273307086614173
 20
-0.4724645669291339
 30
0.0
 10
0.8273307086614173
 20
-0.4724645669291339
 30
0.0
 10
0.8273307086614173
 20
-0.4724645669291339
 30
0.0
 10
0.8484645669291339
 20
-0.4706771653543307
 30
0.0
 10
0.8484645669291339
 20
-0.4706771653543307
 30
0.0
 10
0.8484645669291339
 20
-0.4706771653543307
 30
0.0
 10
0.8484645669291339
 20
-0.4706771653543307
 30
0.0
 10
0.8689015748031497
 20
-0.4680511811023622
 30
0.0
 10
0.8689015748031497
 20
-0.4680511811023622
 30
0.0
 10
0.8689015748031497
 20
-0.4680511811023622
 30
0.0
 10
0.8689015748031497
 20
-0.4680511811023622
 30
0.0
 10
0.2241496062992126
 20
-0.0874330708661417
 30
0.0
 10
0.2241496062992126
 20
-0.0874330708661417
 30
0.0
 10
0.2241496062992126
 20
-0.0874330708661417
 30
0.0
 10
0.2241496062992126
 20
-0.0874330708661417
 30
0.0
 10
0.2037125984251968
 20
-0.0900590551181102
 30
0.0
 10
0.2037125984251968
 20
-0.0900590551181102
 30
0.0
 10
0.2037125984251968
 20
-0.0900590551181102
 30
0.0
 10
0.2037125984251968
 20
-0.0900590551181102
 30
0.0
 10
0.1825787401574803
 20
-0.0918464566929134
 30
0.0
 10
0.1825787401574803
 20
-0.0918464566929134
 30
0.0
  0
SPLINE
  5
A6
100
AcDbEntity
  8
Layer 1
 62
     9
100
AcDbSpline
210
0.0
220
0.0
230
1.0
 70
     1
 71
     3
 72
    28
 73
    24
 74
     0
 42
0.0000000001
 43
0.0000000001
 40
0.0
 40
0.0
 40
0.0
 40
0.0
 40
0.1666666666666667
 40
0.1666666666666667
 40
0.1666666666666667
 40
0.1666666666666667
 40
0.3333333333333333
 40
0.3333333333333333
 40
0.3333333333333333
 40
0.3333333333333333
 40
0.5
 40
0.5
 40
0.5
 40
0.5
 40
0.6666666666666666
 40
0.6666666666666666
 40
0.6666666666666666
 40
0.6666666666666666
 40
0.8333333333333333
 40
0.8333333333333333
 40
0.8333333333333333
 40
0.8333333333333333
 40
1.0
 40
1.0
 40
1.0
 40
1.0
 10
0.2241496062992126
 20
-0.0874330708661417
 30
0.0
 10
0.2241496062992126
 20
-0.0874330708661417
 30
0.0
 10
0.8689015748031497
 20
-0.4680511811023622
 30
0.0
 10
0.8689015748031497
 20
-0.4680511811023622
 30
0.0
 10
0.8689015748031497
 20
-0.4680511811023622
 30
0.0
 10
0.8689015748031497
 20
-0.4680511811023622
 30
0.0
 10
0.8886417322834646
 20
-0.4646102362204725
 30
0.0
 10
0.8886417322834646
 20
-0.4646102362204725
 30
0.0
 10
0.8886417322834646
 20
-0.4646102362204725
 30
0.0
 10
0.8886417322834646
 20
-0.4646102362204725
 30
0.0
 10
0.9076889763779528
 20
-0.4604055118110236
 30
0.0
 10
0.9076889763779528
 20
-0.4604055118110236
 30
0.0
 10
0.9076889763779528
 20
-0.4604055118110236
 30
0.0
 10
0.9076889763779528
 20
-0.4604055118110236
 30
0.0
 10
0.2629370078740158
 20
-0.0797874015748032
 30
0.0
 10
0.2629370078740158
 20
-0.0797874015748032
 30
0.0
 10
0.2629370078740158
 20
-0.0797874015748032
 30
0.0
 10
0.2629370078740158
 20
-0.0797874015748032
 30
0.0
 10
0.2438897637795276
 20
-0.083992125984252
 30
0.0
 10
0.2438897637795276
 20
-0.083992125984252
 30
0.0
 10
0.2438897637795276
 20
-0.083992125984252
 30
0.0
 10
0.2438897637795276
 20
-0.083992125984252
 30
0.0
 10
0.2241496062992126
 20
-0.0874330708661417
 30
0.0
 10
0.2241496062992126
 20
-0.0874330708661417
 30
0.0
  0
SPLINE
  5
A7
100
AcDbEntity
  8
Layer 1
 62
     9
100
AcDbSpline
210
0.0
220
0.0
230
1.0
 70
     1
 71
     3
 72
    28
 73
    24
 74
     0
 42
0.0000000001
 43
0.0000000001
 40
0.0
 40
0.0
 40
0.0
 40
0.0
 40
0.1666666666666667
 40
0.1666666666666667
 40
0.1666666666666667
 40
0.1666666666666667
 40
0.3333333333333333
 40
0.3333333333333333
 40
0.3333333333333333
 40
0.3333333333333333
 40
0.5
 40
0.5
 40
0.5
 40
0.5
 40
0.6666666666666666
 40
0.6666666666666666
 40
0.6666666666666666
 40
0.6666666666666666
 40
0.8333333333333333
 40
0.8333333333333333
 40
0.8333333333333333
 40
0.8333333333333333
 40
1.0
 40
1.0
 40
1.0
 40
1.0
 10
0.2629370078740158
 20
-0.0797874015748032
 30
0.0
 10
0.2629370078740158
 20
-0.0797874015748032
 30
0.0
 10
0.9076889763779528
 20
-0.4604055118110236
 30
0.0
 10
0.9076889763779528
 20
-0.4604055118110236
 30
0.0
 10
0.9076889763779528
 20
-0.4604055118110236
 30
0.0
 10
0.9076889763779528
 20
-0.4604055118110236
 30
0.0
 10
0.9260354330708662
 20
-0.4554645669291339
 30
0.0
 10
0.9260354330708662
 20
-0.4554645669291339
 30
0.0
 10
0.9260354330708662
 20
-0.4554645669291339
 30
0.0
 10
0.9260354330708662
 20
-0.4554645669291339
 30
0.0
 10
0.9437047244094489
 20
-0.4498464566929134
 30
0.0
 10
0.9437047244094489
 20
-0.4498464566929134
 30
0.0
 10
0.9437047244094489
 20
-0.4498464566929134
 30
0.0
 10
0.9437047244094489
 20
-0.4498464566929134
 30
0.0
 10
0.2989527559055119
 20
-0.0692283464566929
 30
0.0
 10
0.2989527559055119
 20
-0.0692283464566929
 30
0.0
 10
0.2989527559055119
 20
-0.0692283464566929
 30
0.0
 10
0.2989527559055119
 20
-0.0692283464566929
 30
0.0
 10
0.2812834645669292
 20
-0.0748464566929134
 30
0.0
 10
0.2812834645669292
 20
-0.0748464566929134
 30
0.0
 10
0.2812834645669292
 20
-0.0748464566929134
 30
0.0
 10
0.2812834645669292
 20
-0.0748464566929134
 30
0.0
 10
0.2629370078740158
 20
-0.0797874015748032
 30
0.0
 10
0.2629370078740158
 20
-0.0797874015748032
 30
0.0
  0
SPLINE
  5
A8
100
AcDbEntity
  8
Layer 1
 62
     9
100
AcDbSpline
210
0.0
220
0.0
230
1.0
 70
     1
 71
     3
 72
    28
 73
    24
 74
     0
 42
0.0000000001
 43
0.0000000001
 40
0.0
 40
0.0
 40
0.0
 40
0.0
 40
0.1666666666666667
 40
0.1666666666666667
 40
0.1666666666666667
 40
0.1666666666666667
 40
0.3333333333333333
 40
0.3333333333333333
 40
0.3333333333333333
 40
0.3333333333333333
 40
0.5
 40
0.5
 40
0.5
 40
0.5
 40
0.6666666666666666
 40
0.6666666666666666
 40
0.6666666666666666
 40
0.6666666666666666
 40
0.8333333333333333
 40
0.8333333333333333
 40
0.8333333333333333
 40
0.8333333333333333
 40
1.0
 40
1.0
 40
1.0
 40
1.0
 10
0.2989527559055119
 20
-0.0692283464566929
 30
0.0
 10
0.2989527559055119
 20
-0.0692283464566929
 30
0.0
 10
0.9437047244094489
 20
-0.4498464566929134
 30
0.0
 10
0.9437047244094489
 20
-0.4498464566929134
 30
0.0
 10
0.9437047244094489
 20
-0.4498464566929134
 30
0.0
 10
0.9437047244094489
 20
-0.4498464566929134
 30
0.0
 10
0.9606889763779528
 20
-0.4435748031496063
 30
0.0
 10
0.9606889763779528
 20
-0.4435748031496063
 30
0.0
 10
0.9606889763779528
 20
-0.4435748031496063
 30
0.0
 10
0.9606889763779528
 20
-0.4435748031496063
 30
0.0
 10
0.976992125984252
 20
-0.4366968503937008
 30
0.0
 10
0.976992125984252
 20
-0.4366968503937008
 30
0.0
 10
0.976992125984252
 20
-0.4366968503937008
 30
0.0
 10
0.976992125984252
 20
-0.4366968503937008
 30
0.0
 10
0.332240157480315
 20
-0.0560787401574803
 30
0.0
 10
0.332240157480315
 20
-0.0560787401574803
 30
0.0
 10
0.332240157480315
 20
-0.0560787401574803
 30
0.0
 10
0.332240157480315
 20
-0.0560787401574803
 30
0.0
 10
0.3159370078740157
 20
-0.0629566929133858
 30
0.0
 10
0.3159370078740157
 20
-0.0629566929133858
 30
0.0
 10
0.3159370078740157
 20
-0.0629566929133858
 30
0.0
 10
0.3159370078740157
 20
-0.0629566929133858
 30
0.0
 10
0.2989527559055119
 20
-0.0692283464566929
 30
0.0
 10
0.2989527559055119
 20
-0.0692283464566929
 30
0.0
  0
SPLINE
  5
A9
100
AcDbEntity
  8
Layer 1
 62
     9
100
AcDbSpline
210
0.0
220
0.0
230
1.0
 70
     1
 71
     3
 72
    28
 73
    24
 74
     0
 42
0.0000000001
 43
0.0000000001
 40
0.0
 40
0.0
 40
0.0
 40
0.0
 40
0.1666666666666667
 40
0.1666666666666667
 40
0.1666666666666667
 40
0.1666666666666667
 40
0.3333333333333333
 40
0.3333333333333333
 40
0.3333333333333333
 40
0.3333333333333333
 40
0.5
 40
0.5
 40
0.5
 40
0.5
 40
0.6666666666666666
 40
0.6666666666666666
 40
0.6666666666666666
 40
0.6666666666666666
 40
0.8333333333333333
 40
0.8333333333333333
 40
0.8333333333333333
 40
0.8333333333333333
 40
1.0
 40
1.0
 40
1.0
 40
1.0
 10
0.332240157480315
 20
-0.0560787401574803
 30
0.0
 10
0.332240157480315
 20
-0.0560787401574803
 30
0.0
 10
0.976992125984252
 20
-0.4366968503937008
 30
0.0
 10
0.976992125984252
 20
-0.4366968503937008
 30
0.0
 10
0.976992125984252
 20
-0.4366968503937008
 30
0.0
 10
0.976992125984252
 20
-0.4366968503937008
 30
0.0
 10
0.9926102362204725
 20
-0.429240157480315
 30
0.0
 10
0.9926102362204725
 20
-0.429240157480315
 30
0.0
 10
0.9926102362204725
 20
-0.429240157480315
 30
0.0
 10
0.9926102362204725
 20
-0.429240157480315
 30
0.0
 10
1.0075590551181102
 20
-0.4212637795275591
 30
0.0
 10
1.0075590551181102
 20
-0.4212637795275591
 30
0.0
 10
1.0075590551181102
 20
-0.4212637795275591
 30
0.0
 10
1.0075590551181102
 20
-0.4212637795275591
 30
0.0
 10
0.3628070866141733
 20
-0.0406456692913386
 30
0.0
 10
0.3628070866141733
 20
-0.0406456692913386
 30
0.0
 10
0.3628070866141733
 20
-0.0406456692913386
 30
0.0
 10
0.3628070866141733
 20
-0.0406456692913386
 30
0.0
 10
0.3478582677165354
 20
-0.0486220472440945
 30
0.0
 10
0.3478582677165354
 20
-0.0486220472440945
 30
0.0
 10
0.3478582677165354
 20
-0.0486220472440945
 30
0.0
 10
0.3478582677165354
 20
-0.0486220472440945
 30
0.0
 10
0.332240157480315
 20
-0.0560787401574803
 30
0.0
 10
0.332240157480315
 20
-0.0560787401574803
 30
0.0
  0
SPLINE
  5
AA
100
AcDbEntity
  8
Layer 1
 62
     9
100
AcDbSpline
210
0.0
220
0.0
230
1.0
 70
     1
 71
     3
 72
    36
 73
    32
 74
     0
 42
0.0000000001
 43
0.0000000001
 40
0.0
 40
0.0
 40
0.0
 40
0.0
 40
0.125
 40
0.125
 40
0.125
 40
0.125
 40
0.25
 40
0.25
 40
0.25
 40
0.25
 40
0.375
 40
0.375
 40
0.375
 40
0.375
 40
0.5
 40
0.5
 40
0.5
 40
0.5
 40
0.625
 40
0.625
 40
0.625
 40
0.625
 40
0.75
 40
0.75
 40
0.75
 40
0.75
 40
0.875
 40
0.875
 40
0.875
 40
0.875
 40
1.0
 40
1.0
 40
1.0
 40
1.0
 10
0.3628070866141733
 20
-0.0406456692913386
 30
0.0
 10
0.3628070866141733
 20
-0.0406456692913386
 30
0.0
 10
1.0075590551181102
 20
-0.4212637795275591
 30
0.0
 10
1.0075590551181102
 20
-0.4212637795275591
 30
0.0
 10
1.0075590551181102
 20
-0.4212637795275591
 30
0.0
 10
1.0075590551181102
 20
-0.4212637795275591
 30
0.0
 10
1.0218307086614173
 20
-0.4127952755905512
 30
0.0
 10
1.0218307086614173
 20
-0.4127952755905512
 30
0.0
 10
1.0218307086614173
 20
-0.4127952755905512
 30
0.0
 10
1.0218307086614173
 20
-0.4127952755905512
 30
0.0
 10
1.0354448818897639
 20
-0.4038858267716536
 30
0.0
 10
1.0354448818897639
 20
-0.4038858267716536
 30
0.0
 10
1.0354448818897639
 20
-0.4038858267716536
 30
0.0
 10
1.0354448818897639
 20
-0.4038858267716536
 30
0.0
 10
1.0483897637795276
 20
-0.3945551181102363
 30
0.0
 10
1.0483897637795276
 20
-0.3945551181102363
 30
0.0
 10
1.0483897637795276
 20
-0.3945551181102363
 30
0.0
 10
1.0483897637795276
 20
-0.3945551181102363
 30
0.0
 10
0.4036377952755906
 20
-0.0139370078740157
 30
0.0
 10
0.4036377952755906
 20
-0.0139370078740157
 30
0.0
 10
0.4036377952755906
 20
-0.0139370078740157
 30
0.0
 10
0.4036377952755906
 20
-0.0139370078740157
 30
0.0
 10
0.3906929133858268
 20
-0.0232677165354331
 30
0.0
 10
0.3906929133858268
 20
-0.0232677165354331
 30
0.0
 10
0.3906929133858268
 20
-0.0232677165354331
 30
0.0
 10
0.3906929133858268
 20
-0.0232677165354331
 30
0.0
 10
0.3770787401574803
 20
-0.0321771653543307
 30
0.0
 10
0.3770787401574803
 20
-0.0321771653543307
 30
0.0
 10
0.3770787401574803
 20
-0.0321771653543307
 30
0.0
 10
0.3770787401574803
 20
-0.0321771653543307
 30
0.0
 10
0.3628070866141733
 20
-0.0406456692913386
 30
0.0
 10
0.3628070866141733
 20
-0.0406456692913386
 30
0.0
  0
SPLINE
  5
AB
100
AcDbEntity
  8
Layer 1
 62
     9
100
AcDbSpline
210
0.0
220
0.0
230
1.0
 70
     1
 71
     3
 72
    36
 73
    32
 74
     0
 42
0.0000000001
 43
0.0000000001
 40
0.0
 40
0.0
 40
0.0
 40
0.0
 40
0.125
 40
0.125
 40
0.125
 40
0.125
 40
0.25
 40
0.25
 40
0.25
 40
0.25
 40
0.375
 40
0.375
 40
0.375
 40
0.375
 40
0.5
 40
0.5
 40
0.5
 40
0.5
 40
0.625
 40
0.625
 40
0.625
 40
0.625
 40
0.75
 40
0.75
 40
0.75
 40
0.75
 40
0.875
 40
0.875
 40
0.875
 40
0.875
 40
1.0
 40
1.0
 40
1.0
 40
1.0
 10
0.4036377952755906
 20
-0.0139370078740157
 30
0.0
 10
0.4036377952755906
 20
-0.0139370078740157
 30
0.0
 10
1.0483897637795276
 20
-0.3945551181102363
 30
0.0
 10
1.0483897637795276
 20
-0.3945551181102363
 30
0.0
 10
1.0483897637795276
 20
-0.3945551181102363
 30
0.0
 10
1.0483897637795276
 20
-0.3945551181102363
 30
0.0
 10
1.0606732283464568
 20
-0.3848661417322835
 30
0.0
 10
1.0606732283464568
 20
-0.3848661417322835
 30
0.0
 10
1.0606732283464568
 20
-0.3848661417322835
 30
0.0
 10
1.0606732283464568
 20
-0.3848661417322835
 30
0.0
 10
1.0723031496062994
 20
-0.3748503937007874
 30
0.0
 10
1.0723031496062994
 20
-0.3748503937007874
 30
0.0
 10
1.0723031496062994
 20
-0.3748503937007874
 30
0.0
 10
1.0723031496062994
 20
-0.3748503937007874
 30
0.0
 10
1.0832795275590552
 20
-0.3645393700787402
 30
0.0
 10
1.0832795275590552
 20
-0.3645393700787402
 30
0.0
 10
1.0832795275590552
 20
-0.3645393700787402
 30
0.0
 10
1.0832795275590552
 20
-0.3645393700787402
 30
0.0
 10
0.4385275590551181
 20
0.0160787401574803
 30
0.0
 10
0.4385275590551181
 20
0.0160787401574803
 30
0.0
 10
0.4385275590551181
 20
0.0160787401574803
 30
0.0
 10
0.4385275590551181
 20
0.0160787401574803
 30
0.0
 10
0.4275511811023622
 20
0.0057677165354331
 30
0.0
 10
0.4275511811023622
 20
0.0057677165354331
 30
0.0
 10
0.4275511811023622
 20
0.0057677165354331
 30
0.0
 10
0.4275511811023622
 20
0.0057677165354331
 30
0.0
 10
0.4159212598425197
 20
-0.004248031496063
 30
0.0
 10
0.4159212598425197
 20
-0.004248031496063
 30
0.0
 10
0.4159212598425197
 20
-0.004248031496063
 30
0.0
 10
0.4159212598425197
 20
-0.004248031496063
 30
0.0
 10
0.4036377952755906
 20
-0.0139370078740157
 30
0.0
 10
0.4036377952755906
 20
-0.0139370078740157
 30
0.0
  0
SPLINE
  5
AC
100
AcDbEntity
  8
Layer 1
 62
     9
100
AcDbSpline
210
0.0
220
0.0
230
1.0
 70
     1
 71
     3
 72
    36
 73
    32
 74
     0
 42
0.0000000001
 43
0.0000000001
 40
0.0
 40
0.0
 40
0.0
 40
0.0
 40
0.125
 40
0.125
 40
0.125
 40
0.125
 40
0.25
 40
0.25
 40
0.25
 40
0.25
 40
0.375
 40
0.375
 40
0.375
 40
0.375
 40
0.5
 40
0.5
 40
0.5
 40
0.5
 40
0.625
 40
0.625
 40
0.625
 40
0.625
 40
0.75
 40
0.75
 40
0.75
 40
0.75
 40
0.875
 40
0.875
 40
0.875
 40
0.875
 40
1.0
 40
1.0
 40
1.0
 40
1.0
 10
0.4385275590551181
 20
0.0160787401574803
 30
0.0
 10
0.4385275590551181
 20
0.0160787401574803
 30
0.0
 10
1.0832795275590552
 20
-0.3645393700787402
 30
0.0
 10
1.0832795275590552
 20
-0.3645393700787402
 30
0.0
 10
1.0832795275590552
 20
-0.3645393700787402
 30
0.0
 10
1.0832795275590552
 20
-0.3645393700787402
 30
0.0
 10
1.0935944881889763
 20
-0.353984251968504
 30
0.0
 10
1.0935944881889763
 20
-0.353984251968504
 30
0.0
 10
1.0935944881889763
 20
-0.353984251968504
 30
0.0
 10
1.0935944881889763
 20
-0.353984251968504
 30
0.0
 10
1.1032677165354332
 20
-0.3432165354330709
 30
0.0
 10
1.1032677165354332
 20
-0.3432165354330709
 30
0.0
 10
1.1032677165354332
 20
-0.3432165354330709
 30
0.0
 10
1.1032677165354332
 20
-0.3432165354330709
 30
0.0
 10
1.1122952755905513
 20
-0.3322795275590552
 30
0.0
 10
1.1122952755905513
 20
-0.3322795275590552
 30
0.0
 10
1.1122952755905513
 20
-0.3322795275590552
 30
0.0
 10
1.1122952755905513
 20
-0.3322795275590552
 30
0.0
 10
0.4675433070866142
 20
0.0483385826771654
 30
0.0
 10
0.4675433070866142
 20
0.0483385826771654
 30
0.0
 10
0.4675433070866142
 20
0.0483385826771654
 30
0.0
 10
0.4675433070866142
 20
0.0483385826771654
 30
0.0
 10
0.4585157480314961
 20
0.0374015748031496
 30
0.0
 10
0.4585157480314961
 20
0.0374015748031496
 30
0.0
 10
0.4585157480314961
 20
0.0374015748031496
 30
0.0
 10
0.4585157480314961
 20
0.0374015748031496
 30
0.0
 10
0.4488425196850394
 20
0.0266338582677165
 30
0.0
 10
0.4488425196850394
 20
0.0266338582677165
 30
0.0
 10
0.4488425196850394
 20
0.0266338582677165
 30
0.0
 10
0.4488425196850394
 20
0.0266338582677165
 30
0.0
 10
0.4385275590551181
 20
0.0160787401574803
 30
0.0
 10
0.4385275590551181
 20
0.0160787401574803
 30
0.0
  0
SPLINE
  5
AD
100
AcDbEntity
  8
Layer 1
 62
     9
100
AcDbSpline
210
0.0
220
0.0
230
1.0
 70
     1
 71
     3
 72
    36
 73
    32
 74
     0
 42
0.0000000001
 43
0.0000000001
 40
0.0
 40
0.0
 40
0.0
 40
0.0
 40
0.125
 40
0.125
 40
0.125
 40
0.125
 40
0.25
 40
0.25
 40
0.25
 40
0.25
 40
0.375
 40
0.375
 40
0.375
 40
0.375
 40
0.5
 40
0.5
 40
0.5
 40
0.5
 40
0.625
 40
0.625
 40
0.625
 40
0.625
 40
0.75
 40
0.75
 40
0.75
 40
0.75
 40
0.875
 40
0.875
 40
0.875
 40
0.875
 40
1.0
 40
1.0
 40
1.0
 40
1.0
 10
0.4675433070866142
 20
0.0483385826771654
 30
0.0
 10
0.4675433070866142
 20
0.0483385826771654
 30
0.0
 10
1.1122952755905513
 20
-0.3322795275590552
 30
0.0
 10
1.1122952755905513
 20
-0.3322795275590552
 30
0.0
 10
1.1122952755905513
 20
-0.3322795275590552
 30
0.0
 10
1.1122952755905513
 20
-0.3322795275590552
 30
0.0
 10
1.1206889763779528
 20
-0.3212086614173229
 30
0.0
 10
1.1206889763779528
 20
-0.3212086614173229
 30
0.0
 10
1.1206889763779528
 20
-0.3212086614173229
 30
0.0
 10
1.1206889763779528
 20
-0.3212086614173229
 30
0.0
 10
1.1284370078740158
 20
-0.3100551181102362
 30
0.0
 10
1.1284370078740158
 20
-0.3100551181102362
 30
0.0
 10
1.1284370078740158
 20
-0.3100551181102362
 30
0.0
 10
1.1284370078740158
 20
-0.3100551181102362
 30
0.0
 10
1.1355551181102364
 20
-0.2988503937007874
 30
0.0
 10
1.1355551181102364
 20
-0.2988503937007874
 30
0.0
 10
1.1355551181102364
 20
-0.2988503937007874
 30
0.0
 10
1.1355551181102364
 20
-0.2988503937007874
 30
0.0
 10
0.4908031496062992
 20
0.0817677165354331
 30
0.0
 10
0.4908031496062992
 20
0.0817677165354331
 30
0.0
 10
0.4908031496062992
 20
0.0817677165354331
 30
0.0
 10
0.4908031496062992
 20
0.0817677165354331
 30
0.0
 10
0.4836850393700788
 20
0.0705629921259843
 30
0.0
 10
0.4836850393700788
 20
0.0705629921259843
 30
0.0
 10
0.4836850393700788
 20
0.0705629921259843
 30
0.0
 10
0.4836850393700788
 20
0.0705629921259843
 30
0.0
 10
0.4759370078740158
 20
0.0594094488188976
 30
0.0
 10
0.4759370078740158
 20
0.0594094488188976
 30
0.0
 10
0.4759370078740158
 20
0.0594094488188976
 30
0.0
 10
0.4759370078740158
 20
0.0594094488188976
 30
0.0
 10
0.4675433070866142
 20
0.0483385826771654
 30
0.0
 10
0.4675433070866142
 20
0.0483385826771654
 30
0.0
  0
SPLINE
  5
AE
100
AcDbEntity
  8
Layer 1
 62
     9
100
AcDbSpline
210
0.0
220
0.0
230
1.0
 70
     1
 71
     3
 72
    44
 73
    40
 74
     0
 42
0.0000000001
 43
0.0000000001
 40
0.0
 40
0.0
 40
0.0
 40
0.0
 40
0.1
 40
0.1
 40
0.1
 40
0.1
 40
0.2
 40
0.2
 40
0.2
 40
0.2
 40
0.3
 40
0.3
 40
0.3
 40
0.3
 40
0.4
 40
0.4
 40
0.4
 40
0.4
 40
0.5
 40
0.5
 40
0.5
 40
0.5
 40
0.6
 40
0.6
 40
0.6
 40
0.6
 40
0.7
 40
0.7
 40
0.7
 40
0.7
 40
0.7999999999999999
 40
0.7999999999999999
 40
0.7999999999999999
 40
0.7999999999999999
 40
0.8999999999999999
 40
0.8999999999999999
 40
0.8999999999999999
 40
0.8999999999999999
 40
1.0
 40
1.0
 40
1.0
 40
1.0
 10
0.4908031496062992
 20
0.0817677165354331
 30
0.0
 10
0.4908031496062992
 20
0.0817677165354331
 30
0.0
 10
1.1355551181102364
 20
-0.2988503937007874
 30
0.0
 10
1.1355551181102364
 20
-0.2988503937007874
 30
0.0
 10
1.1355551181102364
 20
-0.2988503937007874
 30
0.0
 10
1.1355551181102364
 20
-0.2988503937007874
 30
0.0
 10
1.1420393700787401
 20
-0.2876417322834646
 30
0.0
 10
1.1420393700787401
 20
-0.2876417322834646
 30
0.0
 10
1.1420393700787401
 20
-0.2876417322834646
 30
0.0
 10
1.1420393700787401
 20
-0.2876417322834646
 30
0.0
 10
1.1479055118110237
 20
-0.2764527559055118
 30
0.0
 10
1.1479055118110237
 20
-0.2764527559055118
 30
0.0
 10
1.1479055118110237
 20
-0.2764527559055118
 30
0.0
 10
1.1479055118110237
 20
-0.2764527559055118
 30
0.0
 10
1.1531377952755906
 20
-0.2653464566929134
 30
0.0
 10
1.1531377952755906
 20
-0.2653464566929134
 30
0.0
 10
1.1531377952755906
 20
-0.2653464566929134
 30
0.0
 10
1.1531377952755906
 20
-0.2653464566929134
 30
0.0
 10
1.157755905511811
 20
-0.2543464566929134
 30
0.0
 10
1.157755905511811
 20
-0.2543464566929134
 30
0.0
 10
1.157755905511811
 20
-0.2543464566929134
 30
0.0
 10
1.157755905511811
 20
-0.2543464566929134
 30
0.0
 10
0.5130039370078741
 20
0.1262716535433071
 30
0.0
 10
0.5130039370078741
 20
0.1262716535433071
 30
0.0
 10
0.5130039370078741
 20
0.1262716535433071
 30
0.0
 10
0.5130039370078741
 20
0.1262716535433071
 30
0.0
 10
0.5083858267716536
 20
0.1152716535433071
 30
0.0
 10
0.5083858267716536
 20
0.1152716535433071
 30
0.0
 10
0.5083858267716536
 20
0.1152716535433071
 30
0.0
 10
0.5083858267716536
 20
0.1152716535433071
 30
0.0
 10
0.5031535433070866
 20
0.1041653543307087
 30
0.0
 10
0.5031535433070866
 20
0.1041653543307087
 30
0.0
 10
0.5031535433070866
 20
0.1041653543307087
 30
0.0
 10
0.5031535433070866
 20
0.1041653543307087
 30
0.0
 10
0.4972874015748032
 20
0.0929763779527559
 30
0.0
 10
0.4972874015748032
 20
0.0929763779527559
 30
0.0
 10
0.4972874015748032
 20
0.0929763779527559
 30
0.0
 10
0.4972874015748032
 20
0.0929763779527559
 30
0.0
 10
0.4908031496062992
 20
0.0817677165354331
 30
0.0
 10
0.4908031496062992
 20
0.0817677165354331
 30
0.0
  0
SPLINE
  5
AF
100
AcDbEntity
  8
Layer 1
 62
     9
100
AcDbSpline
210
0.0
220
0.0
230
1.0
 70
     1
 71
     3
 72
    44
 73
    40
 74
     0
 42
0.0000000001
 43
0.0000000001
 40
0.0
 40
0.0
 40
0.0
 40
0.0
 40
0.1
 40
0.1
 40
0.1
 40
0.1
 40
0.2
 40
0.2
 40
0.2
 40
0.2
 40
0.3
 40
0.3
 40
0.3
 40
0.3
 40
0.4
 40
0.4
 40
0.4
 40
0.4
 40
0.5
 40
0.5
 40
0.5
 40
0.5
 40
0.6
 40
0.6
 40
0.6
 40
0.6
 40
0.7
 40
0.7
 40
0.7
 40
0.7
 40
0.7999999999999999
 40
0.7999999999999999
 40
0.7999999999999999
 40
0.7999999999999999
 40
0.8999999999999999
 40
0.8999999999999999
 40
0.8999999999999999
 40
0.8999999999999999
 40
1.0
 40
1.0
 40
1.0
 40
1.0
 10
0.5130039370078741
 20
0.1262716535433071
 30
0.0
 10
0.5130039370078741
 20
0.1262716535433071
 30
0.0
 10
1.157755905511811
 20
-0.2543464566929134
 30
0.0
 10
1.157755905511811
 20
-0.2543464566929134
 30
0.0
 10
1.157755905511811
 20
-0.2543464566929134
 30
0.0
 10
1.157755905511811
 20
-0.2543464566929134
 30
0.0
 10
1.161751968503937
 20
-0.2435
 30
0.0
 10
1.161751968503937
 20
-0.2435
 30
0.0
 10
1.161751968503937
 20
-0.2435
 30
0.0
 10
1.161751968503937
 20
-0.2435
 30
0.0
 10
1.1651417322834645
 20
-0.2328385826771654
 30
0.0
 10
1.1651417322834645
 20
-0.2328385826771654
 30
0.0
 10
1.1651417322834645
 20
-0.2328385826771654
 30
0.0
 10
1.1651417322834645
 20
-0.2328385826771654
 30
0.0
 10
1.1679133858267716
 20
-0.2224173228346457
 30
0.0
 10
1.1679133858267716
 20
-0.2224173228346457
 30
0.0
 10
1.1679133858267716
 20
-0.2224173228346457
 30
0.0
 10
1.1679133858267716
 20
-0.2224173228346457
 30
0.0
 10
1.1700826771653543
 20
-0.212255905511811
 30
0.0
 10
1.1700826771653543
 20
-0.212255905511811
 30
0.0
 10
1.1700826771653543
 20
-0.212255905511811
 30
0.0
 10
1.1700826771653543
 20
-0.212255905511811
 30
0.0
 10
0.5253307086614173
 20
0.1683622047244095
 30
0.0
 10
0.5253307086614173
 20
0.1683622047244095
 30
0.0
 10
0.5253307086614173
 20
0.1683622047244095
 30
0.0
 10
0.5253307086614173
 20
0.1683622047244095
 30
0.0
 10
0.5231614173228347
 20
0.1582007874015748
 30
0.0
 10
0.5231614173228347
 20
0.1582007874015748
 30
0.0
 10
0.5231614173228347
 20
0.1582007874015748
 30
0.0
 10
0.5231614173228347
 20
0.1582007874015748
 30
0.0
 10
0.5203897637795276
 20
0.1477795275590551
 30
0.0
 10
0.5203897637795276
 20
0.1477795275590551
 30
0.0
 10
0.5203897637795276
 20
0.1477795275590551
 30
0.0
 10
0.5203897637795276
 20
0.1477795275590551
 30
0.0
 10
0.517
 20
0.1371181102362205
 30
0.0
 10
0.517
 20
0.1371181102362205
 30
0.0
 10
0.517
 20
0.1371181102362205
 30
0.0
 10
0.517
 20
0.1371181102362205
 30
0.0
 10
0.5130039370078741
 20
0.1262716535433071
 30
0.0
 10
0.5130039370078741
 20
0.1262716535433071
 30
0.0
  0
SPLINE
  5
B0
100
AcDbEntity
  8
Layer 1
 62
     9
100
AcDbSpline
210
0.0
220
0.0
230
1.0
 70
     1
 71
     3
 72
    28
 73
    24
 74
     0
 42
0.0000000001
 43
0.0000000001
 40
0.0
 40
0.0
 40
0.0
 40
0.0
 40
0.1666666666666667
 40
0.1666666666666667
 40
0.1666666666666667
 40
0.1666666666666667
 40
0.3333333333333333
 40
0.3333333333333333
 40
0.3333333333333333
 40
0.3333333333333333
 40
0.5
 40
0.5
 40
0.5
 40
0.5
 40
0.6666666666666666
 40
0.6666666666666666
 40
0.6666666666666666
 40
0.6666666666666666
 40
0.8333333333333333
 40
0.8333333333333333
 40
0.8333333333333333
 40
0.8333333333333333
 40
1.0
 40
1.0
 40
1.0
 40
1.0
 10
0.5253307086614173
 20
0.1683622047244095
 30
0.0
 10
0.5253307086614173
 20
0.1683622047244095
 30
0.0
 10
1.1700826771653543
 20
-0.212255905511811
 30
0.0
 10
1.1700826771653543
 20
-0.212255905511811
 30
0.0
 10
1.1700826771653543
 20
-0.212255905511811
 30
0.0
 10
1.1700826771653543
 20
-0.212255905511811
 30
0.0
 10
1.1716456692913386
 20
-0.2024133858267717
 30
0.0
 10
1.1716456692913386
 20
-0.2024133858267717
 30
0.0
 10
1.1716456692913386
 20
-0.2024133858267717
 30
0.0
 10
1.1716456692913386
 20
-0.2024133858267717
 30
0.0
 10
1.1726141732283466
 20
-0.1929133858267717
 30
0.0
 10
1.1726141732283466
 20
-0.1929133858267717
 30
0.0
 10
1.1726141732283466
 20
-0.1929133858267717
 30
0.0
 10
1.1726141732283466
 20
-0.1929133858267717
 30
0.0
 10
0.5278622047244095
 20
0.1877047244094488
 30
0.0
 10
0.5278622047244095
 20
0.1877047244094488
 30
0.0
 10
0.5278622047244095
 20
0.1877047244094488
 30
0.0
 10
0.5278622047244095
 20
0.1877047244094488
 30
0.0
 10
0.5268937007874016
 20
0.1782047244094488
 30
0.0
 10
0.5268937007874016
 20
0.1782047244094488
 30
0.0
 10
0.5268937007874016
 20
0.1782047244094488
 30
0.0
 10
0.5268937007874016
 20
0.1782047244094488
 30
0.0
 10
0.5253307086614173
 20
0.1683622047244095
 30
0.0
 10
0.5253307086614173
 20
0.1683622047244095
 30
0.0
  0
SPLINE
  5
B1
100
AcDbEntity
  8
Layer 1
370
     5
100
AcDbSpline
210
0.0
220
0.0
230
1.0
 70
     1
 71
     3
 72
   268
 73
   264
 74
     0
 42
0.0000000001
 43
0.0000000001
 40
0.0
 40
0.0
 40
0.0
 40
0.0
 40
0.0151515151515152
 40
0.0151515151515152
 40
0.0151515151515152
 40
0.0151515151515152
 40
0.0303030303030303
 40
0.0303030303030303
 40
0.0303030303030303
 40
0.0303030303030303
 40
0.0454545454545455
 40
0.0454545454545455
 40
0.0454545454545455
 40
0.0454545454545455
 40
0.0606060606060606
 40
0.0606060606060606
 40
0.0606060606060606
 40
0.0606060606060606
 40
0.0757575757575758
 40
0.0757575757575758
 40
0.0757575757575758
 40
0.0757575757575758
 40
0.0909090909090909
 40
0.0909090909090909
 40
0.0909090909090909
 40
0.0909090909090909
 40
0.1060606060606061
 40
0.1060606060606061
 40
0.1060606060606061
 40
0.1060606060606061
 40
0.1212121212121212
 40
0.1212121212121212
 40
0.1212121212121212
 40
0.1212121212121212
 40
0.1363636363636364
 40
0.1363636363636364
 40
0.1363636363636364
 40
0.1363636363636364
 40
0.1515151515151515
 40
0.1515151515151515
 40
0.1515151515151515
 40
0.1515151515151515
 40
0.1666666666666666
 40
0.1666666666666666
 40
0.1666666666666666
 40
0.1666666666666666
 40
0.1818181818181818
 40
0.1818181818181818
 40
0.1818181818181818
 40
0.1818181818181818
 40
0.1969696969696969
 40
0.1969696969696969
 40
0.1969696969696969
 40
0.1969696969696969
 40
0.212121212121212
 40
0.212121212121212
 40
0.212121212121212
 40
0.212121212121212
 40
0.2272727272727272
 40
0.2272727272727272
 40
0.2272727272727272
 40
0.2272727272727272
 40
0.2424242424242423
 40
0.2424242424242423
 40
0.2424242424242423
 40
0.2424242424242423
 40
0.2575757575757575
 40
0.2575757575757575
 40
0.2575757575757575
 40
0.2575757575757575
 40
0.2727272727272726
 40
0.2727272727272726
 40
0.2727272727272726
 40
0.2727272727272726
 40
0.2878787878787877
 40
0.2878787878787877
 40
0.2878787878787877
 40
0.2878787878787877
 40
0.3030303030303029
 40
0.3030303030303029
 40
0.3030303030303029
 40
0.3030303030303029
 40
0.318181818181818
 40
0.318181818181818
 40
0.318181818181818
 40
0.318181818181818
 40
0.3333333333333332
 40
0.3333333333333332
 40
0.3333333333333332
 40
0.3333333333333332
 40
0.3484848484848483
 40
0.3484848484848483
 40
0.3484848484848483
 40
0.3484848484848483
 40
0.3636363636363634
 40
0.3636363636363634
 40
0.3636363636363634
 40
0.3636363636363634
 40
0.3787878787878786
 40
0.3787878787878786
 40
0.3787878787878786
 40
0.3787878787878786
 40
0.3939393939393937
 40
0.3939393939393937
 40
0.3939393939393937
 40
0.3939393939393937
 40
0.4090909090909088
 40
0.4090909090909088
 40
0.4090909090909088
 40
0.4090909090909088
 40
0.424242424242424
 40
0.424242424242424
 40
0.424242424242424
 40
0.424242424242424
 40
0.4393939393939391
 40
0.4393939393939391
 40
0.4393939393939391
 40
0.4393939393939391
 40
0.4545454545454543
 40
0.4545454545454543
 40
0.4545454545454543
 40
0.4545454545454543
 40
0.4696969696969694
 40
0.4696969696969694
 40
0.4696969696969694
 40
0.4696969696969694
 40
0.4848484848484845
 40
0.4848484848484845
 40
0.4848484848484845
 40
0.4848484848484845
 40
0.4999999999999997
 40
0.4999999999999997
 40
0.4999999999999997
 40
0.4999999999999997
 40
0.5151515151515148
 40
0.5151515151515148
 40
0.5151515151515148
 40
0.5151515151515148
 40
0.5303030303030299
 40
0.5303030303030299
 40
0.5303030303030299
 40
0.5303030303030299
 40
0.5454545454545451
 40
0.5454545454545451
 40
0.5454545454545451
 40
0.5454545454545451
 40
0.5606060606060602
 40
0.5606060606060602
 40
0.5606060606060602
 40
0.5606060606060602
 40
0.5757575757575754
 40
0.5757575757575754
 40
0.5757575757575754
 40
0.5757575757575754
 40
0.5909090909090905
 40
0.5909090909090905
 40
0.5909090909090905
 40
0.5909090909090905
 40
0.6060606060606056
 40
0.6060606060606056
 40
0.6060606060606056
 40
0.6060606060606056
 40
0.6212121212121208
 40
0.6212121212121208
 40
0.6212121212121208
 40
0.6212121212121208
 40
0.6363636363636359
 40
0.6363636363636359
 40
0.6363636363636359
 40
0.6363636363636359
 40
0.6515151515151511
 40
0.6515151515151511
 40
0.6515151515151511
 40
0.6515151515151511
 40
0.6666666666666662
 40
0.6666666666666662
 40
0.6666666666666662
 40
0.6666666666666662
 40
0.6818181818181813
 40
0.6818181818181813
 40
0.6818181818181813
 40
0.6818181818181813
 40
0.6969696969696965
 40
0.6969696969696965
 40
0.6969696969696965
 40
0.6969696969696965
 40
0.7121212121212116
 40
0.7121212121212116
 40
0.7121212121212116
 40
0.7121212121212116
 40
0.7272727272727267
 40
0.7272727272727267
 40
0.7272727272727267
 40
0.7272727272727267
 40
0.7424242424242419
 40
0.7424242424242419
 40
0.7424242424242419
 40
0.7424242424242419
 40
0.757575757575757
 40
0.757575757575757
 40
0.757575757575757
 40
0.757575757575757
 40
0.7727272727272722
 40
0.7727272727272722
 40
0.7727272727272722
 40
0.7727272727272722
 40
0.7878787878787873
 40
0.7878787878787873
 40
0.7878787878787873
 40
0.7878787878787873
 40
0.8030303030303024
 40
0.8030303030303024
 40
0.8030303030303024
 40
0.8030303030303024
 40
0.8181818181818176
 40
0.8181818181818176
 40
0.8181818181818176
 40
0.8181818181818176
 40
0.8333333333333327
 40
0.8333333333333327
 40
0.8333333333333327
 40
0.8333333333333327
 40
0.8484848484848478
 40
0.8484848484848478
 40
0.8484848484848478
 40
0.8484848484848478
 40
0.863636363636363
 40
0.863636363636363
 40
0.863636363636363
 40
0.863636363636363
 40
0.8787878787878781
 40
0.8787878787878781
 40
0.8787878787878781
 40
0.8787878787878781
 40
0.8939393939393933
 40
0.8939393939393933
 40
0.8939393939393933
 40
0.8939393939393933
 40
0.9090909090909084
 40
0.9090909090909084
 40
0.9090909090909084
 40
0.9090909090909084
 40
0.9242424242424235
 40
0.9242424242424235
 40
0.9242424242424235
 40
0.9242424242424235
 40
0.9393939393939387
 40
0.9393939393939387
 40
0.9393939393939387
 40
0.9393939393939387
 40
0.9545454545454538
 40
0.9545454545454538
 40
0.9545454545454538
 40
0.9545454545454538
 40
0.969696969696969
 40
0.969696969696969
 40
0.969696969696969
 40
0.969696969696969
 40
0.9848484848484841
 40
0.9848484848484841
 40
0.9848484848484841
 40
0.9848484848484841
 40
1.0
 40
1.0
 40
1.0
 40
1.0
 10
0.1825787401574803
 20
-0.0918464566929134
 30
0.0
 10
0.1825787401574803
 20
-0.0918464566929134
 30
0.0
 10
0.8273307086614173
 20
-0.4724645669291339
 30
0.0
 10
0.8273307086614173
 20
-0.4724645669291339
 30
0.0
 10
0.8273307086614173
 20
-0.4724645669291339
 30
0.0
 10
0.8273307086614173
 20
-0.4724645669291339
 30
0.0
 10
0.8484645669291339
 20
-0.4706771653543307
 30
0.0
 10
0.8484645669291339
 20
-0.4706771653543307
 30
0.0
 10
0.8484645669291339
 20
-0.4706771653543307
 30
0.0
 10
0.8484645669291339
 20
-0.4706771653543307
 30
0.0
 10
0.8689015748031497
 20
-0.4680511811023622
 30
0.0
 10
0.8689015748031497
 20
-0.4680511811023622
 30
0.0
 10
0.8689015748031497
 20
-0.4680511811023622
 30
0.0
 10
0.8689015748031497
 20
-0.4680511811023622
 30
0.0
 10
0.8886417322834646
 20
-0.4646102362204725
 30
0.0
 10
0.8886417322834646
 20
-0.4646102362204725
 30
0.0
 10
0.8886417322834646
 20
-0.4646102362204725
 30
0.0
 10
0.8886417322834646
 20
-0.4646102362204725
 30
0.0
 10
0.9076889763779528
 20
-0.4604055118110236
 30
0.0
 10
0.9076889763779528
 20
-0.4604055118110236
 30
0.0
 10
0.9076889763779528
 20
-0.4604055118110236
 30
0.0
 10
0.9076889763779528
 20
-0.4604055118110236
 30
0.0
 10
0.9260354330708662
 20
-0.4554645669291339
 30
0.0
 10
0.9260354330708662
 20
-0.4554645669291339
 30
0.0
 10
0.9260354330708662
 20
-0.4554645669291339
 30
0.0
 10
0.9260354330708662
 20
-0.4554645669291339
 30
0.0
 10
0.9437047244094489
 20
-0.4498464566929134
 30
0.0
 10
0.9437047244094489
 20
-0.4498464566929134
 30
0.0
 10
0.9437047244094489
 20
-0.4498464566929134
 30
0.0
 10
0.9437047244094489
 20
-0.4498464566929134
 30
0.0
 10
0.9606889763779528
 20
-0.4435748031496063
 30
0.0
 10
0.9606889763779528
 20
-0.4435748031496063
 30
0.0
 10
0.9606889763779528
 20
-0.4435748031496063
 30
0.0
 10
0.9606889763779528
 20
-0.4435748031496063
 30
0.0
 10
0.976992125984252
 20
-0.4366968503937008
 30
0.0
 10
0.976992125984252
 20
-0.4366968503937008
 30
0.0
 10
0.976992125984252
 20
-0.4366968503937008
 30
0.0
 10
0.976992125984252
 20
-0.4366968503937008
 30
0.0
 10
0.9926102362204725
 20
-0.429240157480315
 30
0.0
 10
0.9926102362204725
 20
-0.429240157480315
 30
0.0
 10
0.9926102362204725
 20
-0.429240157480315
 30
0.0
 10
0.9926102362204725
 20
-0.429240157480315
 30
0.0
 10
1.0075590551181102
 20
-0.4212637795275591
 30
0.0
 10
1.0075590551181102
 20
-0.4212637795275591
 30
0.0
 10
1.0075590551181102
 20
-0.4212637795275591
 30
0.0
 10
1.0075590551181102
 20
-0.4212637795275591
 30
0.0
 10
1.0218307086614173
 20
-0.4127952755905512
 30
0.0
 10
1.0218307086614173
 20
-0.4127952755905512
 30
0.0
 10
1.0218307086614173
 20
-0.4127952755905512
 30
0.0
 10
1.0218307086614173
 20
-0.4127952755905512
 30
0.0
 10
1.0354448818897639
 20
-0.4038858267716536
 30
0.0
 10
1.0354448818897639
 20
-0.4038858267716536
 30
0.0
 10
1.0354448818897639
 20
-0.4038858267716536
 30
0.0
 10
1.0354448818897639
 20
-0.4038858267716536
 30
0.0
 10
1.0483897637795276
 20
-0.3945551181102363
 30
0.0
 10
1.0483897637795276
 20
-0.3945551181102363
 30
0.0
 10
1.0483897637795276
 20
-0.3945551181102363
 30
0.0
 10
1.0483897637795276
 20
-0.3945551181102363
 30
0.0
 10
1.0606732283464568
 20
-0.3848661417322835
 30
0.0
 10
1.0606732283464568
 20
-0.3848661417322835
 30
0.0
 10
1.0606732283464568
 20
-0.3848661417322835
 30
0.0
 10
1.0606732283464568
 20
-0.3848661417322835
 30
0.0
 10
1.0723031496062994
 20
-0.3748503937007874
 30
0.0
 10
1.0723031496062994
 20
-0.3748503937007874
 30
0.0
 10
1.0723031496062994
 20
-0.3748503937007874
 30
0.0
 10
1.0723031496062994
 20
-0.3748503937007874
 30
0.0
 10
1.0832795275590552
 20
-0.3645393700787402
 30
0.0
 10
1.0832795275590552
 20
-0.3645393700787402
 30
0.0
 10
1.0832795275590552
 20
-0.3645393700787402
 30
0.0
 10
1.0832795275590552
 20
-0.3645393700787402
 30
0.0
 10
1.0935944881889763
 20
-0.353984251968504
 30
0.0
 10
1.0935944881889763
 20
-0.353984251968504
 30
0.0
 10
1.0935944881889763
 20
-0.353984251968504
 30
0.0
 10
1.0935944881889763
 20
-0.353984251968504
 30
0.0
 10
1.1032677165354332
 20
-0.3432165354330709
 30
0.0
 10
1.1032677165354332
 20
-0.3432165354330709
 30
0.0
 10
1.1032677165354332
 20
-0.3432165354330709
 30
0.0
 10
1.1032677165354332
 20
-0.3432165354330709
 30
0.0
 10
1.1122952755905513
 20
-0.3322795275590552
 30
0.0
 10
1.1122952755905513
 20
-0.3322795275590552
 30
0.0
 10
1.1122952755905513
 20
-0.3322795275590552
 30
0.0
 10
1.1122952755905513
 20
-0.3322795275590552
 30
0.0
 10
1.1206889763779528
 20
-0.3212086614173229
 30
0.0
 10
1.1206889763779528
 20
-0.3212086614173229
 30
0.0
 10
1.1206889763779528
 20
-0.3212086614173229
 30
0.0
 10
1.1206889763779528
 20
-0.3212086614173229
 30
0.0
 10
1.1284370078740158
 20
-0.3100551181102362
 30
0.0
 10
1.1284370078740158
 20
-0.3100551181102362
 30
0.0
 10
1.1284370078740158
 20
-0.3100551181102362
 30
0.0
 10
1.1284370078740158
 20
-0.3100551181102362
 30
0.0
 10
1.1355551181102364
 20
-0.2988503937007874
 30
0.0
 10
1.1355551181102364
 20
-0.2988503937007874
 30
0.0
 10
1.1355551181102364
 20
-0.2988503937007874
 30
0.0
 10
1.1355551181102364
 20
-0.2988503937007874
 30
0.0
 10
1.1420393700787401
 20
-0.2876417322834646
 30
0.0
 10
1.1420393700787401
 20
-0.2876417322834646
 30
0.0
 10
1.1420393700787401
 20
-0.2876417322834646
 30
0.0
 10
1.1420393700787401
 20
-0.2876417322834646
 30
0.0
 10
1.1479055118110237
 20
-0.2764527559055118
 30
0.0
 10
1.1479055118110237
 20
-0.2764527559055118
 30
0.0
 10
1.1479055118110237
 20
-0.2764527559055118
 30
0.0
 10
1.1479055118110237
 20
-0.2764527559055118
 30
0.0
 10
1.1531377952755906
 20
-0.2653464566929134
 30
0.0
 10
1.1531377952755906
 20
-0.2653464566929134
 30
0.0
 10
1.1531377952755906
 20
-0.2653464566929134
 30
0.0
 10
1.1531377952755906
 20
-0.2653464566929134
 30
0.0
 10
1.157755905511811
 20
-0.2543464566929134
 30
0.0
 10
1.157755905511811
 20
-0.2543464566929134
 30
0.0
 10
1.157755905511811
 20
-0.2543464566929134
 30
0.0
 10
1.157755905511811
 20
-0.2543464566929134
 30
0.0
 10
1.161751968503937
 20
-0.2435
 30
0.0
 10
1.161751968503937
 20
-0.2435
 30
0.0
 10
1.161751968503937
 20
-0.2435
 30
0.0
 10
1.161751968503937
 20
-0.2435
 30
0.0
 10
1.1651417322834645
 20
-0.2328385826771654
 30
0.0
 10
1.1651417322834645
 20
-0.2328385826771654
 30
0.0
 10
1.1651417322834645
 20
-0.2328385826771654
 30
0.0
 10
1.1651417322834645
 20
-0.2328385826771654
 30
0.0
 10
1.1679133858267716
 20
-0.2224173228346457
 30
0.0
 10
1.1679133858267716
 20
-0.2224173228346457
 30
0.0
 10
1.1679133858267716
 20
-0.2224173228346457
 30
0.0
 10
1.1679133858267716
 20
-0.2224173228346457
 30
0.0
 10
1.1700826771653543
 20
-0.212255905511811
 30
0.0
 10
1.1700826771653543
 20
-0.212255905511811
 30
0.0
 10
1.1700826771653543
 20
-0.212255905511811
 30
0.0
 10
1.1700826771653543
 20
-0.212255905511811
 30
0.0
 10
1.1716456692913386
 20
-0.2024133858267717
 30
0.0
 10
1.1716456692913386
 20
-0.2024133858267717
 30
0.0
 10
1.1716456692913386
 20
-0.2024133858267717
 30
0.0
 10
1.1716456692913386
 20
-0.2024133858267717
 30
0.0
 10
1.1726141732283466
 20
-0.1929133858267717
 30
0.0
 10
1.1726141732283466
 20
-0.1929133858267717
 30
0.0
 10
1.1726141732283466
 20
-0.1929133858267717
 30
0.0
 10
1.1726141732283466
 20
-0.1929133858267717
 30
0.0
 10
0.5278622047244095
 20
0.1877047244094488
 30
0.0
 10
0.5278622047244095
 20
0.1877047244094488
 30
0.0
 10
0.5278622047244095
 20
0.1877047244094488
 30
0.0
 10
0.5278622047244095
 20
0.1877047244094488
 30
0.0
 10
0.5268937007874016
 20
0.1782047244094488
 30
0.0
 10
0.5268937007874016
 20
0.1782047244094488
 30
0.0
 10
0.5268937007874016
 20
0.1782047244094488
 30
0.0
 10
0.5268937007874016
 20
0.1782047244094488
 30
0.0
 10
0.5253307086614173
 20
0.1683622047244095
 30
0.0
 10
0.5253307086614173
 20
0.1683622047244095
 30
0.0
 10
0.5253307086614173
 20
0.1683622047244095
 30
0.0
 10
0.5253307086614173
 20
0.1683622047244095
 30
0.0
 10
0.5231614173228347
 20
0.1582007874015748
 30
0.0
 10
0.5231614173228347
 20
0.1582007874015748
 30
0.0
 10
0.5231614173228347
 20
0.1582007874015748
 30
0.0
 10
0.5231614173228347
 20
0.1582007874015748
 30
0.0
 10
0.5203897637795276
 20
0.1477795275590551
 30
0.0
 10
0.5203897637795276
 20
0.1477795275590551
 30
0.0
 10
0.5203897637795276
 20
0.1477795275590551
 30
0.0
 10
0.5203897637795276
 20
0.1477795275590551
 30
0.0
 10
0.517
 20
0.1371181102362205
 30
0.0
 10
0.517
 20
0.1371181102362205
 30
0.0
 10
0.517
 20
0.1371181102362205
 30
0.0
 10
0.517
 20
0.1371181102362205
 30
0.0
 10
0.5130039370078741
 20
0.1262716535433071
 30
0.0
 10
0.5130039370078741
 20
0.1262716535433071
 30
0.0
 10
0.5130039370078741
 20
0.1262716535433071
 30
0.0
 10
0.5130039370078741
 20
0.1262716535433071
 30
0.0
 10
0.5083858267716536
 20
0.1152716535433071
 30
0.0
 10
0.5083858267716536
 20
0.1152716535433071
 30
0.0
 10
0.5083858267716536
 20
0.1152716535433071
 30
0.0
 10
0.5083858267716536
 20
0.1152716535433071
 30
0.0
 10
0.5031535433070866
 20
0.1041653543307087
 30
0.0
 10
0.5031535433070866
 20
0.1041653543307087
 30
0.0
 10
0.5031535433070866
 20
0.1041653543307087
 30
0.0
 10
0.5031535433070866
 20
0.1041653543307087
 30
0.0
 10
0.4972874015748032
 20
0.0929763779527559
 30
0.0
 10
0.4972874015748032
 20
0.0929763779527559
 30
0.0
 10
0.4972874015748032
 20
0.0929763779527559
 30
0.0
 10
0.4972874015748032
 20
0.0929763779527559
 30
0.0
 10
0.4908031496062992
 20
0.0817677165354331
 30
0.0
 10
0.4908031496062992
 20
0.0817677165354331
 30
0.0
 10
0.4908031496062992
 20
0.0817677165354331
 30
0.0
 10
0.4908031496062992
 20
0.0817677165354331
 30
0.0
 10
0.4836850393700788
 20
0.0705629921259843
 30
0.0
 10
0.4836850393700788
 20
0.0705629921259843
 30
0.0
 10
0.4836850393700788
 20
0.0705629921259843
 30
0.0
 10
0.4836850393700788
 20
0.0705629921259843
 30
0.0
 10
0.4759370078740158
 20
0.0594094488188976
 30
0.0
 10
0.4759370078740158
 20
0.0594094488188976
 30
0.0
 10
0.4759370078740158
 20
0.0594094488188976
 30
0.0
 10
0.4759370078740158
 20
0.0594094488188976
 30
0.0
 10
0.4675433070866142
 20
0.0483385826771654
 30
0.0
 10
0.4675433070866142
 20
0.0483385826771654
 30
0.0
 10
0.4675433070866142
 20
0.0483385826771654
 30
0.0
 10
0.4675433070866142
 20
0.0483385826771654
 30
0.0
 10
0.4585157480314961
 20
0.0374015748031496
 30
0.0
 10
0.4585157480314961
 20
0.0374015748031496
 30
0.0
 10
0.4585157480314961
 20
0.0374015748031496
 30
0.0
 10
0.4585157480314961
 20
0.0374015748031496
 30
0.0
 10
0.4488425196850394
 20
0.0266338582677165
 30
0.0
 10
0.4488425196850394
 20
0.0266338582677165
 30
0.0
 10
0.4488425196850394
 20
0.0266338582677165
 30
0.0
 10
0.4488425196850394
 20
0.0266338582677165
 30
0.0
 10
0.4385275590551181
 20
0.0160787401574803
 30
0.0
 10
0.4385275590551181
 20
0.0160787401574803
 30
0.0
 10
0.4385275590551181
 20
0.0160787401574803
 30
0.0
 10
0.4385275590551181
 20
0.0160787401574803
 30
0.0
 10
0.4275511811023622
 20
0.0057677165354331
 30
0.0
 10
0.4275511811023622
 20
0.0057677165354331
 30
0.0
 10
0.4275511811023622
 20
0.0057677165354331
 30
0.0
 10
0.4275511811023622
 20
0.0057677165354331
 30
0.0
 10
0.4159212598425197
 20
-0.004248031496063
 30
0.0
 10
0.4159212598425197
 20
-0.004248031496063
 30
0.0
 10
0.4159212598425197
 20
-0.004248031496063
 30
0.0
 10
0.4159212598425197
 20
-0.004248031496063
 30
0.0
 10
0.4036377952755906
 20
-0.0139370078740157
 30
0.0
 10
0.4036377952755906
 20
-0.0139370078740157
 30
0.0
 10
0.4036377952755906
 20
-0.0139370078740157
 30
0.0
 10
0.4036377952755906
 20
-0.0139370078740157
 30
0.0
 10
0.3906929133858268
 20
-0.0232677165354331
 30
0.0
 10
0.3906929133858268
 20
-0.0232677165354331
 30
0.0
 10
0.3906929133858268
 20
-0.0232677165354331
 30
0.0
 10
0.3906929133858268
 20
-0.0232677165354331
 30
0.0
 10
0.3770787401574803
 20
-0.0321771653543307
 30
0.0
 10
0.3770787401574803
 20
-0.0321771653543307
 30
0.0
 10
0.3770787401574803
 20
-0.0321771653543307
 30
0.0
 10
0.3770787401574803
 20
-0.0321771653543307
 30
0.0
 10
0.3628070866141733
 20
-0.0406456692913386
 30
0.0
 10
0.3628070866141733
 20
-0.0406456692913386
 30
0.0
 10
0.3628070866141733
 20
-0.0406456692913386
 30
0.0
 10
0.3628070866141733
 20
-0.0406456692913386
 30
0.0
 10
0.3478582677165354
 20
-0.0486220472440945
 30
0.0
 10
0.3478582677165354
 20
-0.0486220472440945
 30
0.0
 10
0.3478582677165354
 20
-0.0486220472440945
 30
0.0
 10
0.3478582677165354
 20
-0.0486220472440945
 30
0.0
 10
0.332240157480315
 20
-0.0560787401574803
 30
0.0
 10
0.332240157480315
 20
-0.0560787401574803
 30
0.0
 10
0.332240157480315
 20
-0.0560787401574803
 30
0.0
 10
0.332240157480315
 20
-0.0560787401574803
 30
0.0
 10
0.3159370078740157
 20
-0.0629566929133858
 30
0.0
 10
0.3159370078740157
 20
-0.0629566929133858
 30
0.0
 10
0.3159370078740157
 20
-0.0629566929133858
 30
0.0
 10
0.3159370078740157
 20
-0.0629566929133858
 30
0.0
 10
0.2989527559055119
 20
-0.0692283464566929
 30
0.0
 10
0.2989527559055119
 20
-0.0692283464566929
 30
0.0
 10
0.2989527559055119
 20
-0.0692283464566929
 30
0.0
 10
0.2989527559055119
 20
-0.0692283464566929
 30
0.0
 10
0.2812834645669292
 20
-0.0748464566929134
 30
0.0
 10
0.2812834645669292
 20
-0.0748464566929134
 30
0.0
 10
0.2812834645669292
 20
-0.0748464566929134
 30
0.0
 10
0.2812834645669292
 20
-0.0748464566929134
 30
0.0
 10
0.2629370078740158
 20
-0.0797874015748032
 30
0.0
 10
0.2629370078740158
 20
-0.0797874015748032
 30
0.0
 10
0.2629370078740158
 20
-0.0797874015748032
 30
0.0
 10
0.2629370078740158
 20
-0.0797874015748032
 30
0.0
 10
0.2438897637795276
 20
-0.083992125984252
 30
0.0
 10
0.2438897637795276
 20
-0.083992125984252
 30
0.0
 10
0.2438897637795276
 20
-0.083992125984252
 30
0.0
 10
0.2438897637795276
 20
-0.083992125984252
 30
0.0
 10
0.2241496062992126
 20
-0.0874330708661417
 30
0.0
 10
0.2241496062992126
 20
-0.0874330708661417
 30
0.0
 10
0.2241496062992126
 20
-0.0874330708661417
 30
0.0
 10
0.2241496062992126
 20
-0.0874330708661417
 30
0.0
 10
0.2037125984251968
 20
-0.0900590551181102
 30
0.0
 10
0.2037125984251968
 20
-0.0900590551181102
 30
0.0
 10
0.2037125984251968
 20
-0.0900590551181102
 30
0.0
 10
0.2037125984251968
 20
-0.0900590551181102
 30
0.0
 10
0.1825787401574803
 20
-0.0918464566929134
 30
0.0
 10
0.1825787401574803
 20
-0.0918464566929134
 30
0.0
  0
SPLINE
  5
B2
100
AcDbEntity
  8
Layer 1
 62
     9
100
AcDbSpline
210
0.0
220
0.0
230
1.0
 70
     1
 71
     3
 72
    20
 73
    16
 74
     0
 42
0.0000000001
 43
0.0000000001
 40
0.0
 40
0.0
 40
0.0
 40
0.0
 40
0.25
 40
0.25
 40
0.25
 40
0.25
 40
0.5
 40
0.5
 40
0.5
 40
0.5
 40
0.75
 40
0.75
 40
0.75
 40
0.75
 40
1.0
 40
1.0
 40
1.0
 40
1.0
 10
0.5278622047244095
 20
0.1877047244094488
 30
0.0
 10
0.5278622047244095
 20
0.1877047244094488
 30
0.0
 10
1.1726141732283466
 20
-0.1929133858267717
 30
0.0
 10
1.1726141732283466
 20
-0.1929133858267717
 30
0.0
 10
1.1726141732283466
 20
-0.1929133858267717
 30
0.0
 10
1.1726141732283466
 20
-0.1929133858267717
 30
0.0
 10
1.44048031496063
 20
-0.1783779527559055
 30
0.0
 10
1.44048031496063
 20
-0.1783779527559055
 30
0.0
 10
1.44048031496063
 20
-0.1783779527559055
 30
0.0
 10
1.44048031496063
 20
-0.1783779527559055
 30
0.0
 10
0.795728346456693
 20
0.202240157480315
 30
0.0
 10
0.795728346456693
 20
0.202240157480315
 30
0.0
 10
0.795728346456693
 20
0.202240157480315
 30
0.0
 10
0.795728346456693
 20
0.202240157480315
 30
0.0
 10
0.5278622047244095
 20
0.1877047244094488
 30
0.0
 10
0.5278622047244095
 20
0.1877047244094488
 30
0.0
  0
SPLINE
  5
B3
100
AcDbEntity
  8
Layer 1
370
     5
100
AcDbSpline
210
0.0
220
0.0
230
1.0
 70
     1
 71
     3
 72
    20
 73
    16
 74
     0
 42
0.0000000001
 43
0.0000000001
 40
0.0
 40
0.0
 40
0.0
 40
0.0
 40
0.25
 40
0.25
 40
0.25
 40
0.25
 40
0.5
 40
0.5
 40
0.5
 40
0.5
 40
0.75
 40
0.75
 40
0.75
 40
0.75
 40
1.0
 40
1.0
 40
1.0
 40
1.0
 10
0.5278622047244095
 20
0.1877047244094488
 30
0.0
 10
0.5278622047244095
 20
0.1877047244094488
 30
0.0
 10
1.1726141732283466
 20
-0.1929133858267717
 30
0.0
 10
1.1726141732283466
 20
-0.1929133858267717
 30
0.0
 10
1.1726141732283466
 20
-0.1929133858267717
 30
0.0
 10
1.1726141732283466
 20
-0.1929133858267717
 30
0.0
 10
1.44048031496063
 20
-0.1783779527559055
 30
0.0
 10
1.44048031496063
 20
-0.1783779527559055
 30
0.0
 10
1.44048031496063
 20
-0.1783779527559055
 30
0.0
 10
1.44048031496063
 20
-0.1783779527559055
 30
0.0
 10
0.795728346456693
 20
0.202240157480315
 30
0.0
 10
0.795728346456693
 20
0.202240157480315
 30
0.0
 10
0.795728346456693
 20
0.202240157480315
 30
0.0
 10
0.795728346456693
 20
0.202240157480315
 30
0.0
 10
0.5278622047244095
 20
0.1877047244094488
 30
0.0
 10
0.5278622047244095
 20
0.1877047244094488
 30
0.0
  0
SPLINE
  5
B4
100
AcDbEntity
  8
Layer 1
 62
     9
100
AcDbSpline
210
0.0
220
0.0
230
1.0
 70
     1
 71
     3
 72
    20
 73
    16
 74
     0
 42
0.0000000001
 43
0.0000000001
 40
0.0
 40
0.0
 40
0.0
 40
0.0
 40
0.25
 40
0.25
 40
0.25
 40
0.25
 40
0.5
 40
0.5
 40
0.5
 40
0.5
 40
0.75
 40
0.75
 40
0.75
 40
0.75
 40
1.0
 40
1.0
 40
1.0
 40
1.0
 10
0.795728346456693
 20
0.202240157480315
 30
0.0
 10
0.795728346456693
 20
0.202240157480315
 30
0.0
 10
1.44048031496063
 20
-0.1783779527559055
 30
0.0
 10
1.44048031496063
 20
-0.1783779527559055
 30
0.0
 10
1.44048031496063
 20
-0.1783779527559055
 30
0.0
 10
1.44048031496063
 20
-0.1783779527559055
 30
0.0
 10
1.4475314960629921
 20
0.0125669291338583
 30
0.0
 10
1.4475314960629921
 20
0.0125669291338583
 30
0.0
 10
1.4475314960629921
 20
0.0125669291338583
 30
0.0
 10
1.4475314960629921
 20
0.0125669291338583
 30
0.0
 10
0.8027795275590551
 20
0.3931850393700788
 30
0.0
 10
0.8027795275590551
 20
0.3931850393700788
 30
0.0
 10
0.8027795275590551
 20
0.3931850393700788
 30
0.0
 10
0.8027795275590551
 20
0.3931850393700788
 30
0.0
 10
0.795728346456693
 20
0.202240157480315
 30
0.0
 10
0.795728346456693
 20
0.202240157480315
 30
0.0
  0
SPLINE
  5
B5
100
AcDbEntity
  8
Layer 1
370
     5
100
AcDbSpline
210
0.0
220
0.0
230
1.0
 70
     1
 71
     3
 72
    20
 73
    16
 74
     0
 42
0.0000000001
 43
0.0000000001
 40
0.0
 40
0.0
 40
0.0
 40
0.0
 40
0.25
 40
0.25
 40
0.25
 40
0.25
 40
0.5
 40
0.5
 40
0.5
 40
0.5
 40
0.75
 40
0.75
 40
0.75
 40
0.75
 40
1.0
 40
1.0
 40
1.0
 40
1.0
 10
0.795728346456693
 20
0.202240157480315
 30
0.0
 10
0.795728346456693
 20
0.202240157480315
 30
0.0
 10
1.44048031496063
 20
-0.1783779527559055
 30
0.0
 10
1.44048031496063
 20
-0.1783779527559055
 30
0.0
 10
1.44048031496063
 20
-0.1783779527559055
 30
0.0
 10
1.44048031496063
 20
-0.1783779527559055
 30
0.0
 10
1.4475314960629921
 20
0.0125669291338583
 30
0.0
 10
1.4475314960629921
 20
0.0125669291338583
 30
0.0
 10
1.4475314960629921
 20
0.0125669291338583
 30
0.0
 10
1.4475314960629921
 20
0.0125669291338583
 30
0.0
 10
0.8027795275590551
 20
0.3931850393700788
 30
0.0
 10
0.8027795275590551
 20
0.3931850393700788
 30
0.0
 10
0.8027795275590551
 20
0.3931850393700788
 30
0.0
 10
0.8027795275590551
 20
0.3931850393700788
 30
0.0
 10
0.795728346456693
 20
0.202240157480315
 30
0.0
 10
0.795728346456693
 20
0.202240157480315
 30
0.0
  0
SPLINE
  5
B6
100
AcDbEntity
  8
Layer 1
 62
     9
100
AcDbSpline
210
0.0
220
0.0
230
1.0
 70
     1
 71
     3
 72
    20
 73
    16
 74
     0
 42
0.0000000001
 43
0.0000000001
 40
0.0
 40
0.0
 40
0.0
 40
0.0
 40
0.25
 40
0.25
 40
0.25
 40
0.25
 40
0.5
 40
0.5
 40
0.5
 40
0.5
 40
0.75
 40
0.75
 40
0.75
 40
0.75
 40
1.0
 40
1.0
 40
1.0
 40
1.0
 10
0.8027795275590551
 20
0.3931850393700788
 30
0.0
 10
0.8027795275590551
 20
0.3931850393700788
 30
0.0
 10
1.4475314960629921
 20
0.0125669291338583
 30
0.0
 10
1.4475314960629921
 20
0.0125669291338583
 30
0.0
 10
1.4475314960629921
 20
0.0125669291338583
 30
0.0
 10
1.4475314960629921
 20
0.0125669291338583
 30
0.0
 10
1.4978267716535434
 20
0.0321102362204724
 30
0.0
 10
1.4978267716535434
 20
0.0321102362204724
 30
0.0
 10
1.4978267716535434
 20
0.0321102362204724
 30
0.0
 10
1.4978267716535434
 20
0.0321102362204724
 30
0.0
 10
0.8530748031496064
 20
0.4127283464566929
 30
0.0
 10
0.8530748031496064
 20
0.4127283464566929
 30
0.0
 10
0.8530748031496064
 20
0.4127283464566929
 30
0.0
 10
0.8530748031496064
 20
0.4127283464566929
 30
0.0
 10
0.8027795275590551
 20
0.3931850393700788
 30
0.0
 10
0.8027795275590551
 20
0.3931850393700788
 30
0.0
  0
SPLINE
  5
B7
100
AcDbEntity
  8
Layer 1
 62
     9
100
AcDbSpline
210
0.0
220
0.0
230
1.0
 70
     1
 71
     3
 72
    20
 73
    16
 74
     0
 42
0.0000000001
 43
0.0000000001
 40
0.0
 40
0.0
 40
0.0
 40
0.0
 40
0.25
 40
0.25
 40
0.25
 40
0.25
 40
0.5
 40
0.5
 40
0.5
 40
0.5
 40
0.75
 40
0.75
 40
0.75
 40
0.75
 40
1.0
 40
1.0
 40
1.0
 40
1.0
 10
0.8530748031496064
 20
0.4127283464566929
 30
0.0
 10
0.8530748031496064
 20
0.4127283464566929
 30
0.0
 10
1.4978267716535434
 20
0.0321102362204724
 30
0.0
 10
1.4978267716535434
 20
0.0321102362204724
 30
0.0
 10
1.4978267716535434
 20
0.0321102362204724
 30
0.0
 10
1.4978267716535434
 20
0.0321102362204724
 30
0.0
 10
1.5455236220472441
 20
0.0539212598425197
 30
0.0
 10
1.5455236220472441
 20
0.0539212598425197
 30
0.0
 10
1.5455236220472441
 20
0.0539212598425197
 30
0.0
 10
1.5455236220472441
 20
0.0539212598425197
 30
0.0
 10
0.9007716535433071
 20
0.4345393700787402
 30
0.0
 10
0.9007716535433071
 20
0.4345393700787402
 30
0.0
 10
0.9007716535433071
 20
0.4345393700787402
 30
0.0
 10
0.9007716535433071
 20
0.4345393700787402
 30
0.0
 10
0.8530748031496064
 20
0.4127283464566929
 30
0.0
 10
0.8530748031496064
 20
0.4127283464566929
 30
0.0
  0
SPLINE
  5
B8
100
AcDbEntity
  8
Layer 1
 62
     9
100
AcDbSpline
210
0.0
220
0.0
230
1.0
 70
     1
 71
     3
 72
    20
 73
    16
 74
     0
 42
0.0000000001
 43
0.0000000001
 40
0.0
 40
0.0
 40
0.0
 40
0.0
 40
0.25
 40
0.25
 40
0.25
 40
0.25
 40
0.5
 40
0.5
 40
0.5
 40
0.5
 40
0.75
 40
0.75
 40
0.75
 40
0.75
 40
1.0
 40
1.0
 40
1.0
 40
1.0
 10
0.9007716535433071
 20
0.4345393700787402
 30
0.0
 10
0.9007716535433071
 20
0.4345393700787402
 30
0.0
 10
1.5455236220472441
 20
0.0539212598425197
 30
0.0
 10
1.5455236220472441
 20
0.0539212598425197
 30
0.0
 10
1.5455236220472441
 20
0.0539212598425197
 30
0.0
 10
1.5455236220472441
 20
0.0539212598425197
 30
0.0
 10
1.5906062992125984
 20
0.0778779527559055
 30
0.0
 10
1.5906062992125984
 20
0.0778779527559055
 30
0.0
 10
1.5906062992125984
 20
0.0778779527559055
 30
0.0
 10
1.5906062992125984
 20
0.0778779527559055
 30
0.0
 10
0.9458543307086614
 20
0.458496062992126
 30
0.0
 10
0.9458543307086614
 20
0.458496062992126
 30
0.0
 10
0.9458543307086614
 20
0.458496062992126
 30
0.0
 10
0.9458543307086614
 20
0.458496062992126
 30
0.0
 10
0.9007716535433071
 20
0.4345393700787402
 30
0.0
 10
0.9007716535433071
 20
0.4345393700787402
 30
0.0
  0
SPLINE
  5
B9
100
AcDbEntity
  8
Layer 1
 62
     9
100
AcDbSpline
210
0.0
220
0.0
230
1.0
 70
     1
 71
     3
 72
    20
 73
    16
 74
     0
 42
0.0000000001
 43
0.0000000001
 40
0.0
 40
0.0
 40
0.0
 40
0.0
 40
0.25
 40
0.25
 40
0.25
 40
0.25
 40
0.5
 40
0.5
 40
0.5
 40
0.5
 40
0.75
 40
0.75
 40
0.75
 40
0.75
 40
1.0
 40
1.0
 40
1.0
 40
1.0
 10
0.9458543307086614
 20
0.458496062992126
 30
0.0
 10
0.9458543307086614
 20
0.458496062992126
 30
0.0
 10
1.5906062992125984
 20
0.0778779527559055
 30
0.0
 10
1.5906062992125984
 20
0.0778779527559055
 30
0.0
 10
1.5906062992125984
 20
0.0778779527559055
 30
0.0
 10
1.5906062992125984
 20
0.0778779527559055
 30
0.0
 10
1.6330866141732283
 20
0.1038740157480315
 30
0.0
 10
1.6330866141732283
 20
0.1038740157480315
 30
0.0
 10
1.6330866141732283
 20
0.1038740157480315
 30
0.0
 10
1.6330866141732283
 20
0.1038740157480315
 30
0.0
 10
0.9883346456692914
 20
0.484492125984252
 30
0.0
 10
0.9883346456692914
 20
0.484492125984252
 30
0.0
 10
0.9883346456692914
 20
0.484492125984252
 30
0.0
 10
0.9883346456692914
 20
0.484492125984252
 30
0.0
 10
0.9458543307086614
 20
0.458496062992126
 30
0.0
 10
0.9458543307086614
 20
0.458496062992126
 30
0.0
  0
SPLINE
  5
BA
100
AcDbEntity
  8
Layer 1
 62
     9
100
AcDbSpline
210
0.0
220
0.0
230
1.0
 70
     1
 71
     3
 72
    20
 73
    16
 74
     0
 42
0.0000000001
 43
0.0000000001
 40
0.0
 40
0.0
 40
0.0
 40
0.0
 40
0.25
 40
0.25
 40
0.25
 40
0.25
 40
0.5
 40
0.5
 40
0.5
 40
0.5
 40
0.75
 40
0.75
 40
0.75
 40
0.75
 40
1.0
 40
1.0
 40
1.0
 40
1.0
 10
0.9883346456692914
 20
0.484492125984252
 30
0.0
 10
0.9883346456692914
 20
0.484492125984252
 30
0.0
 10
1.6330866141732283
 20
0.1038740157480315
 30
0.0
 10
1.6330866141732283
 20
0.1038740157480315
 30
0.0
 10
1.6330866141732283
 20
0.1038740157480315
 30
0.0
 10
1.6330866141732283
 20
0.1038740157480315
 30
0.0
 10
1.672952755905512
 20
0.1317834645669291
 30
0.0
 10
1.672952755905512
 20
0.1317834645669291
 30
0.0
 10
1.672952755905512
 20
0.1317834645669291
 30
0.0
 10
1.672952755905512
 20
0.1317834645669291
 30
0.0
 10
1.0282007874015748
 20
0.5124015748031496
 30
0.0
 10
1.0282007874015748
 20
0.5124015748031496
 30
0.0
 10
1.0282007874015748
 20
0.5124015748031496
 30
0.0
 10
1.0282007874015748
 20
0.5124015748031496
 30
0.0
 10
0.9883346456692914
 20
0.484492125984252
 30
0.0
 10
0.9883346456692914
 20
0.484492125984252
 30
0.0
  0
SPLINE
  5
BB
100
AcDbEntity
  8
Layer 1
 62
     9
100
AcDbSpline
210
0.0
220
0.0
230
1.0
 70
     1
 71
     3
 72
    20
 73
    16
 74
     0
 42
0.0000000001
 43
0.0000000001
 40
0.0
 40
0.0
 40
0.0
 40
0.0
 40
0.25
 40
0.25
 40
0.25
 40
0.25
 40
0.5
 40
0.5
 40
0.5
 40
0.5
 40
0.75
 40
0.75
 40
0.75
 40
0.75
 40
1.0
 40
1.0
 40
1.0
 40
1.0
 10
1.0282007874015748
 20
0.5124015748031496
 30
0.0
 10
1.0282007874015748
 20
0.5124015748031496
 30
0.0
 10
1.672952755905512
 20
0.1317834645669291
 30
0.0
 10
1.672952755905512
 20
0.1317834645669291
 30
0.0
 10
1.672952755905512
 20
0.1317834645669291
 30
0.0
 10
1.672952755905512
 20
0.1317834645669291
 30
0.0
 10
1.710224409448819
 20
0.1615157480314961
 30
0.0
 10
1.710224409448819
 20
0.1615157480314961
 30
0.0
 10
1.710224409448819
 20
0.1615157480314961
 30
0.0
 10
1.710224409448819
 20
0.1615157480314961
 30
0.0
 10
1.0654724409448819
 20
0.5421338582677165
 30
0.0
 10
1.0654724409448819
 20
0.5421338582677165
 30
0.0
 10
1.0654724409448819
 20
0.5421338582677165
 30
0.0
 10
1.0654724409448819
 20
0.5421338582677165
 30
0.0
 10
1.0282007874015748
 20
0.5124015748031496
 30
0.0
 10
1.0282007874015748
 20
0.5124015748031496
 30
0.0
  0
SPLINE
  5
BC
100
AcDbEntity
  8
Layer 1
 62
     9
100
AcDbSpline
210
0.0
220
0.0
230
1.0
 70
     1
 71
     3
 72
    20
 73
    16
 74
     0
 42
0.0000000001
 43
0.0000000001
 40
0.0
 40
0.0
 40
0.0
 40
0.0
 40
0.25
 40
0.25
 40
0.25
 40
0.25
 40
0.5
 40
0.5
 40
0.5
 40
0.5
 40
0.75
 40
0.75
 40
0.75
 40
0.75
 40
1.0
 40
1.0
 40
1.0
 40
1.0
 10
1.0654724409448819
 20
0.5421338582677165
 30
0.0
 10
1.0654724409448819
 20
0.5421338582677165
 30
0.0
 10
1.710224409448819
 20
0.1615157480314961
 30
0.0
 10
1.710224409448819
 20
0.1615157480314961
 30
0.0
 10
1.710224409448819
 20
0.1615157480314961
 30
0.0
 10
1.710224409448819
 20
0.1615157480314961
 30
0.0
 10
1.7448858267716536
 20
0.1929409448818898
 30
0.0
 10
1.7448858267716536
 20
0.1929409448818898
 30
0.0
 10
1.7448858267716536
 20
0.1929409448818898
 30
0.0
 10
1.7448858267716536
 20
0.1929409448818898
 30
0.0
 10
1.1001338582677165
 20
0.5735590551181102
 30
0.0
 10
1.1001338582677165
 20
0.5735590551181102
 30
0.0
 10
1.1001338582677165
 20
0.5735590551181102
 30
0.0
 10
1.1001338582677165
 20
0.5735590551181102
 30
0.0
 10
1.0654724409448819
 20
0.5421338582677165
 30
0.0
 10
1.0654724409448819
 20
0.5421338582677165
 30
0.0
  0
SPLINE
  5
BD
100
AcDbEntity
  8
Layer 1
 62
     9
100
AcDbSpline
210
0.0
220
0.0
230
1.0
 70
     1
 71
     3
 72
    20
 73
    16
 74
     0
 42
0.0000000001
 43
0.0000000001
 40
0.0
 40
0.0
 40
0.0
 40
0.0
 40
0.25
 40
0.25
 40
0.25
 40
0.25
 40
0.5
 40
0.5
 40
0.5
 40
0.5
 40
0.75
 40
0.75
 40
0.75
 40
0.75
 40
1.0
 40
1.0
 40
1.0
 40
1.0
 10
1.1001338582677165
 20
0.5735590551181102
 30
0.0
 10
1.1001338582677165
 20
0.5735590551181102
 30
0.0
 10
1.7448858267716536
 20
0.1929409448818898
 30
0.0
 10
1.7448858267716536
 20
0.1929409448818898
 30
0.0
 10
1.7448858267716536
 20
0.1929409448818898
 30
0.0
 10
1.7448858267716536
 20
0.1929409448818898
 30
0.0
 10
1.7769488188976379
 20
0.2259606299212598
 30
0.0
 10
1.7769488188976379
 20
0.2259606299212598
 30
0.0
 10
1.7769488188976379
 20
0.2259606299212598
 30
0.0
 10
1.7769488188976379
 20
0.2259606299212598
 30
0.0
 10
1.1321968503937008
 20
0.6065787401574804
 30
0.0
 10
1.1321968503937008
 20
0.6065787401574804
 30
0.0
 10
1.1321968503937008
 20
0.6065787401574804
 30
0.0
 10
1.1321968503937008
 20
0.6065787401574804
 30
0.0
 10
1.1001338582677165
 20
0.5735590551181102
 30
0.0
 10
1.1001338582677165
 20
0.5735590551181102
 30
0.0
  0
SPLINE
  5
BE
100
AcDbEntity
  8
Layer 1
 62
     9
100
AcDbSpline
210
0.0
220
0.0
230
1.0
 70
     1
 71
     3
 72
    20
 73
    16
 74
     0
 42
0.0000000001
 43
0.0000000001
 40
0.0
 40
0.0
 40
0.0
 40
0.0
 40
0.25
 40
0.25
 40
0.25
 40
0.25
 40
0.5
 40
0.5
 40
0.5
 40
0.5
 40
0.75
 40
0.75
 40
0.75
 40
0.75
 40
1.0
 40
1.0
 40
1.0
 40
1.0
 10
1.1321968503937008
 20
0.6065787401574804
 30
0.0
 10
1.1321968503937008
 20
0.6065787401574804
 30
0.0
 10
1.7769488188976379
 20
0.2259606299212598
 30
0.0
 10
1.7769488188976379
 20
0.2259606299212598
 30
0.0
 10
1.7769488188976379
 20
0.2259606299212598
 30
0.0
 10
1.7769488188976379
 20
0.2259606299212598
 30
0.0
 10
1.8063976377952757
 20
0.2604448818897638
 30
0.0
 10
1.8063976377952757
 20
0.2604448818897638
 30
0.0
 10
1.8063976377952757
 20
0.2604448818897638
 30
0.0
 10
1.8063976377952757
 20
0.2604448818897638
 30
0.0
 10
1.1616456692913386
 20
0.6410629921259843
 30
0.0
 10
1.1616456692913386
 20
0.6410629921259843
 30
0.0
 10
1.1616456692913386
 20
0.6410629921259843
 30
0.0
 10
1.1616456692913386
 20
0.6410629921259843
 30
0.0
 10
1.1321968503937008
 20
0.6065787401574804
 30
0.0
 10
1.1321968503937008
 20
0.6065787401574804
 30
0.0
  0
SPLINE
  5
BF
100
AcDbEntity
  8
Layer 1
 62
     9
100
AcDbSpline
210
0.0
220
0.0
230
1.0
 70
     1
 71
     3
 72
    20
 73
    16
 74
     0
 42
0.0000000001
 43
0.0000000001
 40
0.0
 40
0.0
 40
0.0
 40
0.0
 40
0.25
 40
0.25
 40
0.25
 40
0.25
 40
0.5
 40
0.5
 40
0.5
 40
0.5
 40
0.75
 40
0.75
 40
0.75
 40
0.75
 40
1.0
 40
1.0
 40
1.0
 40
1.0
 10
1.1616456692913386
 20
0.6410629921259843
 30
0.0
 10
1.1616456692913386
 20
0.6410629921259843
 30
0.0
 10
1.8063976377952757
 20
0.2604448818897638
 30
0.0
 10
1.8063976377952757
 20
0.2604448818897638
 30
0.0
 10
1.8063976377952757
 20
0.2604448818897638
 30
0.0
 10
1.8063976377952757
 20
0.2604448818897638
 30
0.0
 10
1.833251968503937
 20
0.2962992125984252
 30
0.0
 10
1.833251968503937
 20
0.2962992125984252
 30
0.0
 10
1.833251968503937
 20
0.2962992125984252
 30
0.0
 10
1.833251968503937
 20
0.2962992125984252
 30
0.0
 10
1.1885000000000001
 20
0.6769173228346457
 30
0.0
 10
1.1885000000000001
 20
0.6769173228346457
 30
0.0
 10
1.1885000000000001
 20
0.6769173228346457
 30
0.0
 10
1.1885000000000001
 20
0.6769173228346457
 30
0.0
 10
1.1616456692913386
 20
0.6410629921259843
 30
0.0
 10
1.1616456692913386
 20
0.6410629921259843
 30
0.0
  0
SPLINE
  5
C0
100
AcDbEntity
  8
Layer 1
 62
     9
100
AcDbSpline
210
0.0
220
0.0
230
1.0
 70
     1
 71
     3
 72
    20
 73
    16
 74
     0
 42
0.0000000001
 43
0.0000000001
 40
0.0
 40
0.0
 40
0.0
 40
0.0
 40
0.25
 40
0.25
 40
0.25
 40
0.25
 40
0.5
 40
0.5
 40
0.5
 40
0.5
 40
0.75
 40
0.75
 40
0.75
 40
0.75
 40
1.0
 40
1.0
 40
1.0
 40
1.0
 10
1.1885000000000001
 20
0.6769173228346457
 30
0.0
 10
1.1885000000000001
 20
0.6769173228346457
 30
0.0
 10
1.833251968503937
 20
0.2962992125984252
 30
0.0
 10
1.833251968503937
 20
0.2962992125984252
 30
0.0
 10
1.833251968503937
 20
0.2962992125984252
 30
0.0
 10
1.833251968503937
 20
0.2962992125984252
 30
0.0
 10
1.8575000000000002
 20
0.3334015748031496
 30
0.0
 10
1.8575000000000002
 20
0.3334015748031496
 30
0.0
 10
1.8575000000000002
 20
0.3334015748031496
 30
0.0
 10
1.8575000000000002
 20
0.3334015748031496
 30
0.0
 10
1.212748031496063
 20
0.7140196850393701
 30
0.0
 10
1.212748031496063
 20
0.7140196850393701
 30
0.0
 10
1.212748031496063
 20
0.7140196850393701
 30
0.0
 10
1.212748031496063
 20
0.7140196850393701
 30
0.0
 10
1.1885000000000001
 20
0.6769173228346457
 30
0.0
 10
1.1885000000000001
 20
0.6769173228346457
 30
0.0
  0
SPLINE
  5
C1
100
AcDbEntity
  8
Layer 1
 62
     9
100
AcDbSpline
210
0.0
220
0.0
230
1.0
 70
     1
 71
     3
 72
    20
 73
    16
 74
     0
 42
0.0000000001
 43
0.0000000001
 40
0.0
 40
0.0
 40
0.0
 40
0.0
 40
0.25
 40
0.25
 40
0.25
 40
0.25
 40
0.5
 40
0.5
 40
0.5
 40
0.5
 40
0.75
 40
0.75
 40
0.75
 40
0.75
 40
1.0
 40
1.0
 40
1.0
 40
1.0
 10
1.212748031496063
 20
0.7140196850393701
 30
0.0
 10
1.212748031496063
 20
0.7140196850393701
 30
0.0
 10
1.8575000000000002
 20
0.3334015748031496
 30
0.0
 10
1.8575000000000002
 20
0.3334015748031496
 30
0.0
 10
1.8575000000000002
 20
0.3334015748031496
 30
0.0
 10
1.8575000000000002
 20
0.3334015748031496
 30
0.0
 10
1.8791574803149607
 20
0.3716456692913386
 30
0.0
 10
1.8791574803149607
 20
0.3716456692913386
 30
0.0
 10
1.8791574803149607
 20
0.3716456692913386
 30
0.0
 10
1.8791574803149607
 20
0.3716456692913386
 30
0.0
 10
1.2344055118110238
 20
0.7522637795275591
 30
0.0
 10
1.2344055118110238
 20
0.7522637795275591
 30
0.0
 10
1.2344055118110238
 20
0.7522637795275591
 30
0.0
 10
1.2344055118110238
 20
0.7522637795275591
 30
0.0
 10
1.212748031496063
 20
0.7140196850393701
 30
0.0
 10
1.212748031496063
 20
0.7140196850393701
 30
0.0
  0
SPLINE
  5
C2
100
AcDbEntity
  8
Layer 1
 62
     9
100
AcDbSpline
210
0.0
220
0.0
230
1.0
 70
     1
 71
     3
 72
    20
 73
    16
 74
     0
 42
0.0000000001
 43
0.0000000001
 40
0.0
 40
0.0
 40
0.0
 40
0.0
 40
0.25
 40
0.25
 40
0.25
 40
0.25
 40
0.5
 40
0.5
 40
0.5
 40
0.5
 40
0.75
 40
0.75
 40
0.75
 40
0.75
 40
1.0
 40
1.0
 40
1.0
 40
1.0
 10
1.2344055118110238
 20
0.7522637795275591
 30
0.0
 10
1.2344055118110238
 20
0.7522637795275591
 30
0.0
 10
1.8791574803149607
 20
0.3716456692913386
 30
0.0
 10
1.8791574803149607
 20
0.3716456692913386
 30
0.0
 10
1.8791574803149607
 20
0.3716456692913386
 30
0.0
 10
1.8791574803149607
 20
0.3716456692913386
 30
0.0
 10
1.8982047244094489
 20
0.4109133858267717
 30
0.0
 10
1.8982047244094489
 20
0.4109133858267717
 30
0.0
 10
1.8982047244094489
 20
0.4109133858267717
 30
0.0
 10
1.8982047244094489
 20
0.4109133858267717
 30
0.0
 10
1.2534527559055118
 20
0.7915314960629921
 30
0.0
 10
1.2534527559055118
 20
0.7915314960629921
 30
0.0
 10
1.2534527559055118
 20
0.7915314960629921
 30
0.0
 10
1.2534527559055118
 20
0.7915314960629921
 30
0.0
 10
1.2344055118110238
 20
0.7522637795275591
 30
0.0
 10
1.2344055118110238
 20
0.7522637795275591
 30
0.0
  0
SPLINE
  5
C3
100
AcDbEntity
  8
Layer 1
 62
     9
100
AcDbSpline
210
0.0
220
0.0
230
1.0
 70
     1
 71
     3
 72
    20
 73
    16
 74
     0
 42
0.0000000001
 43
0.0000000001
 40
0.0
 40
0.0
 40
0.0
 40
0.0
 40
0.25
 40
0.25
 40
0.25
 40
0.25
 40
0.5
 40
0.5
 40
0.5
 40
0.5
 40
0.75
 40
0.75
 40
0.75
 40
0.75
 40
1.0
 40
1.0
 40
1.0
 40
1.0
 10
1.2534527559055118
 20
0.7915314960629921
 30
0.0
 10
1.2534527559055118
 20
0.7915314960629921
 30
0.0
 10
1.8982047244094489
 20
0.4109133858267717
 30
0.0
 10
1.8982047244094489
 20
0.4109133858267717
 30
0.0
 10
1.8982047244094489
 20
0.4109133858267717
 30
0.0
 10
1.8982047244094489
 20
0.4109133858267717
 30
0.0
 10
1.9146574803149607
 20
0.4511023622047244
 30
0.0
 10
1.9146574803149607
 20
0.4511023622047244
 30
0.0
 10
1.9146574803149607
 20
0.4511023622047244
 30
0.0
 10
1.9146574803149607
 20
0.4511023622047244
 30
0.0
 10
1.2699055118110236
 20
0.8317204724409449
 30
0.0
 10
1.2699055118110236
 20
0.8317204724409449
 30
0.0
 10
1.2699055118110236
 20
0.8317204724409449
 30
0.0
 10
1.2699055118110236
 20
0.8317204724409449
 30
0.0
 10
1.2534527559055118
 20
0.7915314960629921
 30
0.0
 10
1.2534527559055118
 20
0.7915314960629921
 30
0.0
  0
SPLINE
  5
C4
100
AcDbEntity
  8
Layer 1
 62
     9
100
AcDbSpline
210
0.0
220
0.0
230
1.0
 70
     1
 71
     3
 72
    20
 73
    16
 74
     0
 42
0.0000000001
 43
0.0000000001
 40
0.0
 40
0.0
 40
0.0
 40
0.0
 40
0.25
 40
0.25
 40
0.25
 40
0.25
 40
0.5
 40
0.5
 40
0.5
 40
0.5
 40
0.75
 40
0.75
 40
0.75
 40
0.75
 40
1.0
 40
1.0
 40
1.0
 40
1.0
 10
1.2699055118110236
 20
0.8317204724409449
 30
0.0
 10
1.2699055118110236
 20
0.8317204724409449
 30
0.0
 10
1.9146574803149607
 20
0.4511023622047244
 30
0.0
 10
1.9146574803149607
 20
0.4511023622047244
 30
0.0
 10
1.9146574803149607
 20
0.4511023622047244
 30
0.0
 10
1.9146574803149607
 20
0.4511023622047244
 30
0.0
 10
1.9285118110236221
 20
0.4920905511811024
 30
0.0
 10
1.9285118110236221
 20
0.4920905511811024
 30
0.0
 10
1.9285118110236221
 20
0.4920905511811024
 30
0.0
 10
1.9285118110236221
 20
0.4920905511811024
 30
0.0
 10
1.283759842519685
 20
0.8727086614173228
 30
0.0
 10
1.283759842519685
 20
0.8727086614173228
 30
0.0
 10
1.283759842519685
 20
0.8727086614173228
 30
0.0
 10
1.283759842519685
 20
0.8727086614173228
 30
0.0
 10
1.2699055118110236
 20
0.8317204724409449
 30
0.0
 10
1.2699055118110236
 20
0.8317204724409449
 30
0.0
  0
SPLINE
  5
C5
100
AcDbEntity
  8
Layer 1
 62
     9
100
AcDbSpline
210
0.0
220
0.0
230
1.0
 70
     1
 71
     3
 72
    20
 73
    16
 74
     0
 42
0.0000000001
 43
0.0000000001
 40
0.0
 40
0.0
 40
0.0
 40
0.0
 40
0.25
 40
0.25
 40
0.25
 40
0.25
 40
0.5
 40
0.5
 40
0.5
 40
0.5
 40
0.75
 40
0.75
 40
0.75
 40
0.75
 40
1.0
 40
1.0
 40
1.0
 40
1.0
 10
1.283759842519685
 20
0.8727086614173228
 30
0.0
 10
1.283759842519685
 20
0.8727086614173228
 30
0.0
 10
1.9285118110236221
 20
0.4920905511811024
 30
0.0
 10
1.9285118110236221
 20
0.4920905511811024
 30
0.0
 10
1.9285118110236221
 20
0.4920905511811024
 30
0.0
 10
1.9285118110236221
 20
0.4920905511811024
 30
0.0
 10
1.9397677165354332
 20
0.5337716535433071
 30
0.0
 10
1.9397677165354332
 20
0.5337716535433071
 30
0.0
 10
1.9397677165354332
 20
0.5337716535433071
 30
0.0
 10
1.9397677165354332
 20
0.5337716535433071
 30
0.0
 10
1.2950157480314961
 20
0.9143897637795276
 30
0.0
 10
1.2950157480314961
 20
0.9143897637795276
 30
0.0
 10
1.2950157480314961
 20
0.9143897637795276
 30
0.0
 10
1.2950157480314961
 20
0.9143897637795276
 30
0.0
 10
1.283759842519685
 20
0.8727086614173228
 30
0.0
 10
1.283759842519685
 20
0.8727086614173228
 30
0.0
  0
SPLINE
  5
C6
100
AcDbEntity
  8
Layer 1
 62
     9
100
AcDbSpline
210
0.0
220
0.0
230
1.0
 70
     1
 71
     3
 72
    20
 73
    16
 74
     0
 42
0.0000000001
 43
0.0000000001
 40
0.0
 40
0.0
 40
0.0
 40
0.0
 40
0.25
 40
0.25
 40
0.25
 40
0.25
 40
0.5
 40
0.5
 40
0.5
 40
0.5
 40
0.75
 40
0.75
 40
0.75
 40
0.75
 40
1.0
 40
1.0
 40
1.0
 40
1.0
 10
1.2950157480314961
 20
0.9143897637795276
 30
0.0
 10
1.2950157480314961
 20
0.9143897637795276
 30
0.0
 10
1.9397677165354332
 20
0.5337716535433071
 30
0.0
 10
1.9397677165354332
 20
0.5337716535433071
 30
0.0
 10
1.9397677165354332
 20
0.5337716535433071
 30
0.0
 10
1.9397677165354332
 20
0.5337716535433071
 30
0.0
 10
1.9484251968503938
 20
0.5760196850393701
 30
0.0
 10
1.9484251968503938
 20
0.5760196850393701
 30
0.0
 10
1.9484251968503938
 20
0.5760196850393701
 30
0.0
 10
1.9484251968503938
 20
0.5760196850393701
 30
0.0
 10
1.3036732283464567
 20
0.9566377952755906
 30
0.0
 10
1.3036732283464567
 20
0.9566377952755906
 30
0.0
 10
1.3036732283464567
 20
0.9566377952755906
 30
0.0
 10
1.3036732283464567
 20
0.9566377952755906
 30
0.0
 10
1.2950157480314961
 20
0.9143897637795276
 30
0.0
 10
1.2950157480314961
 20
0.9143897637795276
 30
0.0
  0
SPLINE
  5
C7
100
AcDbEntity
  8
Layer 1
 62
     9
100
AcDbSpline
210
0.0
220
0.0
230
1.0
 70
     1
 71
     3
 72
    20
 73
    16
 74
     0
 42
0.0000000001
 43
0.0000000001
 40
0.0
 40
0.0
 40
0.0
 40
0.0
 40
0.25
 40
0.25
 40
0.25
 40
0.25
 40
0.5
 40
0.5
 40
0.5
 40
0.5
 40
0.75
 40
0.75
 40
0.75
 40
0.75
 40
1.0
 40
1.0
 40
1.0
 40
1.0
 10
1.3036732283464567
 20
0.9566377952755906
 30
0.0
 10
1.3036732283464567
 20
0.9566377952755906
 30
0.0
 10
1.9484251968503938
 20
0.5760196850393701
 30
0.0
 10
1.9484251968503938
 20
0.5760196850393701
 30
0.0
 10
1.9484251968503938
 20
0.5760196850393701
 30
0.0
 10
1.9484251968503938
 20
0.5760196850393701
 30
0.0
 10
1.9544842519685039
 20
0.618744094488189
 30
0.0
 10
1.9544842519685039
 20
0.618744094488189
 30
0.0
 10
1.9544842519685039
 20
0.618744094488189
 30
0.0
 10
1.9544842519685039
 20
0.618744094488189
 30
0.0
 10
1.309732283464567
 20
0.9993622047244095
 30
0.0
 10
1.309732283464567
 20
0.9993622047244095
 30
0.0
 10
1.309732283464567
 20
0.9993622047244095
 30
0.0
 10
1.309732283464567
 20
0.9993622047244095
 30
0.0
 10
1.3036732283464567
 20
0.9566377952755906
 30
0.0
 10
1.3036732283464567
 20
0.9566377952755906
 30
0.0
  0
SPLINE
  5
C8
100
AcDbEntity
  8
Layer 1
 62
     9
100
AcDbSpline
210
0.0
220
0.0
230
1.0
 70
     1
 71
     3
 72
    20
 73
    16
 74
     0
 42
0.0000000001
 43
0.0000000001
 40
0.0
 40
0.0
 40
0.0
 40
0.0
 40
0.25
 40
0.25
 40
0.25
 40
0.25
 40
0.5
 40
0.5
 40
0.5
 40
0.5
 40
0.75
 40
0.75
 40
0.75
 40
0.75
 40
1.0
 40
1.0
 40
1.0
 40
1.0
 10
1.309732283464567
 20
0.9993622047244095
 30
0.0
 10
1.309732283464567
 20
0.9993622047244095
 30
0.0
 10
1.9544842519685039
 20
0.618744094488189
 30
0.0
 10
1.9544842519685039
 20
0.618744094488189
 30
0.0
 10
1.9544842519685039
 20
0.618744094488189
 30
0.0
 10
1.9544842519685039
 20
0.618744094488189
 30
0.0
 10
1.9579527559055119
 20
0.6618228346456693
 30
0.0
 10
1.9579527559055119
 20
0.6618228346456693
 30
0.0
 10
1.9579527559055119
 20
0.6618228346456693
 30
0.0
 10
1.9579527559055119
 20
0.6618228346456693
 30
0.0
 10
1.3132007874015748
 20
1.0424409448818899
 30
0.0
 10
1.3132007874015748
 20
1.0424409448818899
 30
0.0
 10
1.3132007874015748
 20
1.0424409448818899
 30
0.0
 10
1.3132007874015748
 20
1.0424409448818899
 30
0.0
 10
1.309732283464567
 20
0.9993622047244095
 30
0.0
 10
1.309732283464567
 20
0.9993622047244095
 30
0.0
  0
SPLINE
  5
C9
100
AcDbEntity
  8
Layer 1
 62
     9
100
AcDbSpline
210
0.0
220
0.0
230
1.0
 70
     1
 71
     3
 72
    20
 73
    16
 74
     0
 42
0.0000000001
 43
0.0000000001
 40
0.0
 40
0.0
 40
0.0
 40
0.0
 40
0.25
 40
0.25
 40
0.25
 40
0.25
 40
0.5
 40
0.5
 40
0.5
 40
0.5
 40
0.75
 40
0.75
 40
0.75
 40
0.75
 40
1.0
 40
1.0
 40
1.0
 40
1.0
 10
1.3132007874015748
 20
1.0424409448818899
 30
0.0
 10
1.3132007874015748
 20
1.0424409448818899
 30
0.0
 10
1.9579527559055119
 20
0.6618228346456693
 30
0.0
 10
1.9579527559055119
 20
0.6618228346456693
 30
0.0
 10
1.9579527559055119
 20
0.6618228346456693
 30
0.0
 10
1.9579527559055119
 20
0.6618228346456693
 30
0.0
 10
1.9588267716535435
 20
0.7051456692913386
 30
0.0
 10
1.9588267716535435
 20
0.7051456692913386
 30
0.0
 10
1.9588267716535435
 20
0.7051456692913386
 30
0.0
 10
1.9588267716535435
 20
0.7051456692913386
 30
0.0
 10
1.3140748031496063
 20
1.0857637795275592
 30
0.0
 10
1.3140748031496063
 20
1.0857637795275592
 30
0.0
 10
1.3140748031496063
 20
1.0857637795275592
 30
0.0
 10
1.3140748031496063
 20
1.0857637795275592
 30
0.0
 10
1.3132007874015748
 20
1.0424409448818899
 30
0.0
 10
1.3132007874015748
 20
1.0424409448818899
 30
0.0
  0
SPLINE
  5
CA
100
AcDbEntity
  8
Layer 1
 62
     9
100
AcDbSpline
210
0.0
220
0.0
230
1.0
 70
     1
 71
     3
 72
    20
 73
    16
 74
     0
 42
0.0000000001
 43
0.0000000001
 40
0.0
 40
0.0
 40
0.0
 40
0.0
 40
0.25
 40
0.25
 40
0.25
 40
0.25
 40
0.5
 40
0.5
 40
0.5
 40
0.5
 40
0.75
 40
0.75
 40
0.75
 40
0.75
 40
1.0
 40
1.0
 40
1.0
 40
1.0
 10
1.3140748031496063
 20
1.0857637795275592
 30
0.0
 10
1.3140748031496063
 20
1.0857637795275592
 30
0.0
 10
1.9588267716535435
 20
0.7051456692913386
 30
0.0
 10
1.9588267716535435
 20
0.7051456692913386
 30
0.0
 10
1.9588267716535435
 20
0.7051456692913386
 30
0.0
 10
1.9588267716535435
 20
0.7051456692913386
 30
0.0
 10
1.9571023622047246
 20
0.7485905511811024
 30
0.0
 10
1.9571023622047246
 20
0.7485905511811024
 30
0.0
 10
1.9571023622047246
 20
0.7485905511811024
 30
0.0
 10
1.9571023622047246
 20
0.7485905511811024
 30
0.0
 10
1.3123503937007874
 20
1.1292086614173229
 30
0.0
 10
1.3123503937007874
 20
1.1292086614173229
 30
0.0
 10
1.3123503937007874
 20
1.1292086614173229
 30
0.0
 10
1.3123503937007874
 20
1.1292086614173229
 30
0.0
 10
1.3140748031496063
 20
1.0857637795275592
 30
0.0
 10
1.3140748031496063
 20
1.0857637795275592
 30
0.0
  0
SPLINE
  5
CB
100
AcDbEntity
  8
Layer 1
 62
     9
100
AcDbSpline
210
0.0
220
0.0
230
1.0
 70
     1
 71
     3
 72
    20
 73
    16
 74
     0
 42
0.0000000001
 43
0.0000000001
 40
0.0
 40
0.0
 40
0.0
 40
0.0
 40
0.25
 40
0.25
 40
0.25
 40
0.25
 40
0.5
 40
0.5
 40
0.5
 40
0.5
 40
0.75
 40
0.75
 40
0.75
 40
0.75
 40
1.0
 40
1.0
 40
1.0
 40
1.0
 10
1.3123503937007874
 20
1.1292086614173229
 30
0.0
 10
1.3123503937007874
 20
1.1292086614173229
 30
0.0
 10
1.9571023622047246
 20
0.7485905511811024
 30
0.0
 10
1.9571023622047246
 20
0.7485905511811024
 30
0.0
 10
1.9571023622047246
 20
0.7485905511811024
 30
0.0
 10
1.9571023622047246
 20
0.7485905511811024
 30
0.0
 10
1.9527913385826772
 20
0.7920629921259843
 30
0.0
 10
1.9527913385826772
 20
0.7920629921259843
 30
0.0
 10
1.9527913385826772
 20
0.7920629921259843
 30
0.0
 10
1.9527913385826772
 20
0.7920629921259843
 30
0.0
 10
1.3080393700787403
 20
1.1726811023622048
 30
0.0
 10
1.3080393700787403
 20
1.1726811023622048
 30
0.0
 10
1.3080393700787403
 20
1.1726811023622048
 30
0.0
 10
1.3080393700787403
 20
1.1726811023622048
 30
0.0
 10
1.3123503937007874
 20
1.1292086614173229
 30
0.0
 10
1.3123503937007874
 20
1.1292086614173229
 30
0.0
  0
SPLINE
  5
CC
100
AcDbEntity
  8
Layer 1
 62
     9
100
AcDbSpline
210
0.0
220
0.0
230
1.0
 70
     1
 71
     3
 72
    20
 73
    16
 74
     0
 42
0.0000000001
 43
0.0000000001
 40
0.0
 40
0.0
 40
0.0
 40
0.0
 40
0.25
 40
0.25
 40
0.25
 40
0.25
 40
0.5
 40
0.5
 40
0.5
 40
0.5
 40
0.75
 40
0.75
 40
0.75
 40
0.75
 40
1.0
 40
1.0
 40
1.0
 40
1.0
 10
1.3080393700787403
 20
1.1726811023622048
 30
0.0
 10
1.3080393700787403
 20
1.1726811023622048
 30
0.0
 10
1.9527913385826772
 20
0.7920629921259843
 30
0.0
 10
1.9527913385826772
 20
0.7920629921259843
 30
0.0
 10
1.9527913385826772
 20
0.7920629921259843
 30
0.0
 10
1.9527913385826772
 20
0.7920629921259843
 30
0.0
 10
1.9458858267716537
 20
0.8354370078740158
 30
0.0
 10
1.9458858267716537
 20
0.8354370078740158
 30
0.0
 10
1.9458858267716537
 20
0.8354370078740158
 30
0.0
 10
1.9458858267716537
 20
0.8354370078740158
 30
0.0
 10
1.3011338582677165
 20
1.2160551181102364
 30
0.0
 10
1.3011338582677165
 20
1.2160551181102364
 30
0.0
 10
1.3011338582677165
 20
1.2160551181102364
 30
0.0
 10
1.3011338582677165
 20
1.2160551181102364
 30
0.0
 10
1.3080393700787403
 20
1.1726811023622048
 30
0.0
 10
1.3080393700787403
 20
1.1726811023622048
 30
0.0
  0
SPLINE
  5
CD
100
AcDbEntity
  8
Layer 1
 62
     9
100
AcDbSpline
210
0.0
220
0.0
230
1.0
 70
     1
 71
     3
 72
    20
 73
    16
 74
     0
 42
0.0000000001
 43
0.0000000001
 40
0.0
 40
0.0
 40
0.0
 40
0.0
 40
0.25
 40
0.25
 40
0.25
 40
0.25
 40
0.5
 40
0.5
 40
0.5
 40
0.5
 40
0.75
 40
0.75
 40
0.75
 40
0.75
 40
1.0
 40
1.0
 40
1.0
 40
1.0
 10
1.3011338582677165
 20
1.2160551181102364
 30
0.0
 10
1.3011338582677165
 20
1.2160551181102364
 30
0.0
 10
1.9458858267716537
 20
0.8354370078740158
 30
0.0
 10
1.9458858267716537
 20
0.8354370078740158
 30
0.0
 10
1.9458858267716537
 20
0.8354370078740158
 30
0.0
 10
1.9458858267716537
 20
0.8354370078740158
 30
0.0
 10
1.9363937007874017
 20
0.8786062992125985
 30
0.0
 10
1.9363937007874017
 20
0.8786062992125985
 30
0.0
 10
1.9363937007874017
 20
0.8786062992125985
 30
0.0
 10
1.9363937007874017
 20
0.8786062992125985
 30
0.0
 10
1.2916417322834646
 20
1.259224409448819
 30
0.0
 10
1.2916417322834646
 20
1.259224409448819
 30
0.0
 10
1.2916417322834646
 20
1.259224409448819
 30
0.0
 10
1.2916417322834646
 20
1.259224409448819
 30
0.0
 10
1.3011338582677165
 20
1.2160551181102364
 30
0.0
 10
1.3011338582677165
 20
1.2160551181102364
 30
0.0
  0
SPLINE
  5
CE
100
AcDbEntity
  8
Layer 1
 62
     9
100
AcDbSpline
210
0.0
220
0.0
230
1.0
 70
     1
 71
     3
 72
    20
 73
    16
 74
     0
 42
0.0000000001
 43
0.0000000001
 40
0.0
 40
0.0
 40
0.0
 40
0.0
 40
0.25
 40
0.25
 40
0.25
 40
0.25
 40
0.5
 40
0.5
 40
0.5
 40
0.5
 40
0.75
 40
0.75
 40
0.75
 40
0.75
 40
1.0
 40
1.0
 40
1.0
 40
1.0
 10
1.2916417322834646
 20
1.259224409448819
 30
0.0
 10
1.2916417322834646
 20
1.259224409448819
 30
0.0
 10
1.9363937007874017
 20
0.8786062992125985
 30
0.0
 10
1.9363937007874017
 20
0.8786062992125985
 30
0.0
 10
1.9363937007874017
 20
0.8786062992125985
 30
0.0
 10
1.9363937007874017
 20
0.8786062992125985
 30
0.0
 10
1.9243031496062992
 20
0.9214527559055119
 30
0.0
 10
1.9243031496062992
 20
0.9214527559055119
 30
0.0
 10
1.9243031496062992
 20
0.9214527559055119
 30
0.0
 10
1.9243031496062992
 20
0.9214527559055119
 30
0.0
 10
1.2795511811023623
 20
1.3020708661417324
 30
0.0
 10
1.2795511811023623
 20
1.3020708661417324
 30
0.0
 10
1.2795511811023623
 20
1.3020708661417324
 30
0.0
 10
1.2795511811023623
 20
1.3020708661417324
 30
0.0
 10
1.2916417322834646
 20
1.259224409448819
 30
0.0
 10
1.2916417322834646
 20
1.259224409448819
 30
0.0
  0
SPLINE
  5
CF
100
AcDbEntity
  8
Layer 1
 62
     9
100
AcDbSpline
210
0.0
220
0.0
230
1.0
 70
     1
 71
     3
 72
    20
 73
    16
 74
     0
 42
0.0000000001
 43
0.0000000001
 40
0.0
 40
0.0
 40
0.0
 40
0.0
 40
0.25
 40
0.25
 40
0.25
 40
0.25
 40
0.5
 40
0.5
 40
0.5
 40
0.5
 40
0.75
 40
0.75
 40
0.75
 40
0.75
 40
1.0
 40
1.0
 40
1.0
 40
1.0
 10
1.2795511811023623
 20
1.3020708661417324
 30
0.0
 10
1.2795511811023623
 20
1.3020708661417324
 30
0.0
 10
1.9243031496062992
 20
0.9214527559055119
 30
0.0
 10
1.9243031496062992
 20
0.9214527559055119
 30
0.0
 10
1.9243031496062992
 20
0.9214527559055119
 30
0.0
 10
1.9243031496062992
 20
0.9214527559055119
 30
0.0
 10
1.9096259842519685
 20
0.9638740157480316
 30
0.0
 10
1.9096259842519685
 20
0.9638740157480316
 30
0.0
 10
1.9096259842519685
 20
0.9638740157480316
 30
0.0
 10
1.9096259842519685
 20
0.9638740157480316
 30
0.0
 10
1.2648740157480316
 20
1.3444921259842519
 30
0.0
 10
1.2648740157480316
 20
1.3444921259842519
 30
0.0
 10
1.2648740157480316
 20
1.3444921259842519
 30
0.0
 10
1.2648740157480316
 20
1.3444921259842519
 30
0.0
 10
1.2795511811023623
 20
1.3020708661417324
 30
0.0
 10
1.2795511811023623
 20
1.3020708661417324
 30
0.0
  0
SPLINE
  5
D0
100
AcDbEntity
  8
Layer 1
 62
     9
100
AcDbSpline
210
0.0
220
0.0
230
1.0
 70
     1
 71
     3
 72
    20
 73
    16
 74
     0
 42
0.0000000001
 43
0.0000000001
 40
0.0
 40
0.0
 40
0.0
 40
0.0
 40
0.25
 40
0.25
 40
0.25
 40
0.25
 40
0.5
 40
0.5
 40
0.5
 40
0.5
 40
0.75
 40
0.75
 40
0.75
 40
0.75
 40
1.0
 40
1.0
 40
1.0
 40
1.0
 10
1.2648740157480316
 20
1.3444921259842519
 30
0.0
 10
1.2648740157480316
 20
1.3444921259842519
 30
0.0
 10
1.9096259842519685
 20
0.9638740157480316
 30
0.0
 10
1.9096259842519685
 20
0.9638740157480316
 30
0.0
 10
1.9096259842519685
 20
0.9638740157480316
 30
0.0
 10
1.9096259842519685
 20
0.9638740157480316
 30
0.0
 10
1.8923582677165356
 20
1.005748031496063
 30
0.0
 10
1.8923582677165356
 20
1.005748031496063
 30
0.0
 10
1.8923582677165356
 20
1.005748031496063
 30
0.0
 10
1.8923582677165356
 20
1.005748031496063
 30
0.0
 10
1.2476062992125985
 20
1.3863661417322835
 30
0.0
 10
1.2476062992125985
 20
1.3863661417322835
 30
0.0
 10
1.2476062992125985
 20
1.3863661417322835
 30
0.0
 10
1.2476062992125985
 20
1.3863661417322835
 30
0.0
 10
1.2648740157480316
 20
1.3444921259842519
 30
0.0
 10
1.2648740157480316
 20
1.3444921259842519
 30
0.0
  0
SPLINE
  5
D1
100
AcDbEntity
  8
Layer 1
 62
     9
100
AcDbSpline
210
0.0
220
0.0
230
1.0
 70
     1
 71
     3
 72
    20
 73
    16
 74
     0
 42
0.0000000001
 43
0.0000000001
 40
0.0
 40
0.0
 40
0.0
 40
0.0
 40
0.25
 40
0.25
 40
0.25
 40
0.25
 40
0.5
 40
0.5
 40
0.5
 40
0.5
 40
0.75
 40
0.75
 40
0.75
 40
0.75
 40
1.0
 40
1.0
 40
1.0
 40
1.0
 10
1.2476062992125985
 20
1.3863661417322835
 30
0.0
 10
1.2476062992125985
 20
1.3863661417322835
 30
0.0
 10
1.8923582677165356
 20
1.005748031496063
 30
0.0
 10
1.8923582677165356
 20
1.005748031496063
 30
0.0
 10
1.8923582677165356
 20
1.005748031496063
 30
0.0
 10
1.8923582677165356
 20
1.005748031496063
 30
0.0
 10
1.8725078740157481
 20
1.046972440944882
 30
0.0
 10
1.8725078740157481
 20
1.046972440944882
 30
0.0
 10
1.8725078740157481
 20
1.046972440944882
 30
0.0
 10
1.8725078740157481
 20
1.046972440944882
 30
0.0
 10
1.227755905511811
 20
1.4275905511811025
 30
0.0
 10
1.227755905511811
 20
1.4275905511811025
 30
0.0
 10
1.227755905511811
 20
1.4275905511811025
 30
0.0
 10
1.227755905511811
 20
1.4275905511811025
 30
0.0
 10
1.2476062992125985
 20
1.3863661417322835
 30
0.0
 10
1.2476062992125985
 20
1.3863661417322835
 30
0.0
  0
SPLINE
  5
D2
100
AcDbEntity
  8
Layer 1
 62
     9
100
AcDbSpline
210
0.0
220
0.0
230
1.0
 70
     1
 71
     3
 72
    20
 73
    16
 74
     0
 42
0.0000000001
 43
0.0000000001
 40
0.0
 40
0.0
 40
0.0
 40
0.0
 40
0.25
 40
0.25
 40
0.25
 40
0.25
 40
0.5
 40
0.5
 40
0.5
 40
0.5
 40
0.75
 40
0.75
 40
0.75
 40
0.75
 40
1.0
 40
1.0
 40
1.0
 40
1.0
 10
1.227755905511811
 20
1.4275905511811025
 30
0.0
 10
1.227755905511811
 20
1.4275905511811025
 30
0.0
 10
1.8725078740157481
 20
1.046972440944882
 30
0.0
 10
1.8725078740157481
 20
1.046972440944882
 30
0.0
 10
1.8725078740157481
 20
1.046972440944882
 30
0.0
 10
1.8725078740157481
 20
1.046972440944882
 30
0.0
 10
1.8500629921259844
 20
1.0874251968503938
 30
0.0
 10
1.8500629921259844
 20
1.0874251968503938
 30
0.0
 10
1.8500629921259844
 20
1.0874251968503938
 30
0.0
 10
1.8500629921259844
 20
1.0874251968503938
 30
0.0
 10
1.2053110236220472
 20
1.4680433070866141
 30
0.0
 10
1.2053110236220472
 20
1.4680433070866141
 30
0.0
 10
1.2053110236220472
 20
1.4680433070866141
 30
0.0
 10
1.2053110236220472
 20
1.4680433070866141
 30
0.0
 10
1.227755905511811
 20
1.4275905511811025
 30
0.0
 10
1.227755905511811
 20
1.4275905511811025
 30
0.0
  0
SPLINE
  5
D3
100
AcDbEntity
  8
Layer 1
 62
     9
100
AcDbSpline
210
0.0
220
0.0
230
1.0
 70
     1
 71
     3
 72
    20
 73
    16
 74
     0
 42
0.0000000001
 43
0.0000000001
 40
0.0
 40
0.0
 40
0.0
 40
0.0
 40
0.25
 40
0.25
 40
0.25
 40
0.25
 40
0.5
 40
0.5
 40
0.5
 40
0.5
 40
0.75
 40
0.75
 40
0.75
 40
0.75
 40
1.0
 40
1.0
 40
1.0
 40
1.0
 10
1.2053110236220472
 20
1.4680433070866141
 30
0.0
 10
1.2053110236220472
 20
1.4680433070866141
 30
0.0
 10
1.8500629921259844
 20
1.0874251968503938
 30
0.0
 10
1.8500629921259844
 20
1.0874251968503938
 30
0.0
 10
1.8500629921259844
 20
1.0874251968503938
 30
0.0
 10
1.8500629921259844
 20
1.0874251968503938
 30
0.0
 10
1.8250393700787402
 20
1.1270078740157481
 30
0.0
 10
1.8250393700787402
 20
1.1270078740157481
 30
0.0
 10
1.8250393700787402
 20
1.1270078740157481
 30
0.0
 10
1.8250393700787402
 20
1.1270078740157481
 30
0.0
 10
1.1802874015748033
 20
1.5076259842519686
 30
0.0
 10
1.1802874015748033
 20
1.5076259842519686
 30
0.0
 10
1.1802874015748033
 20
1.5076259842519686
 30
0.0
 10
1.1802874015748033
 20
1.5076259842519686
 30
0.0
 10
1.2053110236220472
 20
1.4680433070866141
 30
0.0
 10
1.2053110236220472
 20
1.4680433070866141
 30
0.0
  0
SPLINE
  5
D4
100
AcDbEntity
  8
Layer 1
 62
     9
100
AcDbSpline
210
0.0
220
0.0
230
1.0
 70
     1
 71
     3
 72
    20
 73
    16
 74
     0
 42
0.0000000001
 43
0.0000000001
 40
0.0
 40
0.0
 40
0.0
 40
0.0
 40
0.25
 40
0.25
 40
0.25
 40
0.25
 40
0.5
 40
0.5
 40
0.5
 40
0.5
 40
0.75
 40
0.75
 40
0.75
 40
0.75
 40
1.0
 40
1.0
 40
1.0
 40
1.0
 10
1.1802874015748033
 20
1.5076259842519686
 30
0.0
 10
1.1802874015748033
 20
1.5076259842519686
 30
0.0
 10
1.8250393700787402
 20
1.1270078740157481
 30
0.0
 10
1.8250393700787402
 20
1.1270078740157481
 30
0.0
 10
1.8250393700787402
 20
1.1270078740157481
 30
0.0
 10
1.8250393700787402
 20
1.1270078740157481
 30
0.0
 10
1.7974212598425197
 20
1.1655944881889764
 30
0.0
 10
1.7974212598425197
 20
1.1655944881889764
 30
0.0
 10
1.7974212598425197
 20
1.1655944881889764
 30
0.0
 10
1.7974212598425197
 20
1.1655944881889764
 30
0.0
 10
1.1526692913385828
 20
1.5462125984251969
 30
0.0
 10
1.1526692913385828
 20
1.5462125984251969
 30
0.0
 10
1.1526692913385828
 20
1.5462125984251969
 30
0.0
 10
1.1526692913385828
 20
1.5462125984251969
 30
0.0
 10
1.1802874015748033
 20
1.5076259842519686
 30
0.0
 10
1.1802874015748033
 20
1.5076259842519686
 30
0.0
  0
SPLINE
  5
D5
100
AcDbEntity
  8
Layer 1
 62
   253
100
AcDbSpline
210
0.0
220
0.0
230
1.0
 70
     1
 71
     3
 72
    20
 73
    16
 74
     0
 42
0.0000000001
 43
0.0000000001
 40
0.0
 40
0.0
 40
0.0
 40
0.0
 40
0.25
 40
0.25
 40
0.25
 40
0.25
 40
0.5
 40
0.5
 40
0.5
 40
0.5
 40
0.75
 40
0.75
 40
0.75
 40
0.75
 40
1.0
 40
1.0
 40
1.0
 40
1.0
 10
1.1526692913385828
 20
1.5462125984251969
 30
0.0
 10
1.1526692913385828
 20
1.5462125984251969
 30
0.0
 10
1.7974212598425197
 20
1.1655944881889764
 30
0.0
 10
1.7974212598425197
 20
1.1655944881889764
 30
0.0
 10
1.7974212598425197
 20
1.1655944881889764
 30
0.0
 10
1.7974212598425197
 20
1.1655944881889764
 30
0.0
 10
1.7672283464566929
 20
1.2030826771653544
 30
0.0
 10
1.7672283464566929
 20
1.2030826771653544
 30
0.0
 10
1.7672283464566929
 20
1.2030826771653544
 30
0.0
 10
1.7672283464566929
 20
1.2030826771653544
 30
0.0
 10
1.122476377952756
 20
1.5837007874015749
 30
0.0
 10
1.122476377952756
 20
1.5837007874015749
 30
0.0
 10
1.122476377952756
 20
1.5837007874015749
 30
0.0
 10
1.122476377952756
 20
1.5837007874015749
 30
0.0
 10
1.1526692913385828
 20
1.5462125984251969
 30
0.0
 10
1.1526692913385828
 20
1.5462125984251969
 30
0.0
  0
SPLINE
  5
D6
100
AcDbEntity
  8
Layer 1
370
     5
100
AcDbSpline
210
0.0
220
0.0
230
1.0
 70
     1
 71
     3
 72
   268
 73
   264
 74
     0
 42
0.0000000001
 43
0.0000000001
 40
0.0
 40
0.0
 40
0.0
 40
0.0
 40
0.0151515151515152
 40
0.0151515151515152
 40
0.0151515151515152
 40
0.0151515151515152
 40
0.0303030303030303
 40
0.0303030303030303
 40
0.0303030303030303
 40
0.0303030303030303
 40
0.0454545454545455
 40
0.0454545454545455
 40
0.0454545454545455
 40
0.0454545454545455
 40
0.0606060606060606
 40
0.0606060606060606
 40
0.0606060606060606
 40
0.0606060606060606
 40
0.0757575757575758
 40
0.0757575757575758
 40
0.0757575757575758
 40
0.0757575757575758
 40
0.0909090909090909
 40
0.0909090909090909
 40
0.0909090909090909
 40
0.0909090909090909
 40
0.1060606060606061
 40
0.1060606060606061
 40
0.1060606060606061
 40
0.1060606060606061
 40
0.1212121212121212
 40
0.1212121212121212
 40
0.1212121212121212
 40
0.1212121212121212
 40
0.1363636363636364
 40
0.1363636363636364
 40
0.1363636363636364
 40
0.1363636363636364
 40
0.1515151515151515
 40
0.1515151515151515
 40
0.1515151515151515
 40
0.1515151515151515
 40
0.1666666666666666
 40
0.1666666666666666
 40
0.1666666666666666
 40
0.1666666666666666
 40
0.1818181818181818
 40
0.1818181818181818
 40
0.1818181818181818
 40
0.1818181818181818
 40
0.1969696969696969
 40
0.1969696969696969
 40
0.1969696969696969
 40
0.1969696969696969
 40
0.212121212121212
 40
0.212121212121212
 40
0.212121212121212
 40
0.212121212121212
 40
0.2272727272727272
 40
0.2272727272727272
 40
0.2272727272727272
 40
0.2272727272727272
 40
0.2424242424242423
 40
0.2424242424242423
 40
0.2424242424242423
 40
0.2424242424242423
 40
0.2575757575757575
 40
0.2575757575757575
 40
0.2575757575757575
 40
0.2575757575757575
 40
0.2727272727272726
 40
0.2727272727272726
 40
0.2727272727272726
 40
0.2727272727272726
 40
0.2878787878787877
 40
0.2878787878787877
 40
0.2878787878787877
 40
0.2878787878787877
 40
0.3030303030303029
 40
0.3030303030303029
 40
0.3030303030303029
 40
0.3030303030303029
 40
0.318181818181818
 40
0.318181818181818
 40
0.318181818181818
 40
0.318181818181818
 40
0.3333333333333332
 40
0.3333333333333332
 40
0.3333333333333332
 40
0.3333333333333332
 40
0.3484848484848483
 40
0.3484848484848483
 40
0.3484848484848483
 40
0.3484848484848483
 40
0.3636363636363634
 40
0.3636363636363634
 40
0.3636363636363634
 40
0.3636363636363634
 40
0.3787878787878786
 40
0.3787878787878786
 40
0.3787878787878786
 40
0.3787878787878786
 40
0.3939393939393937
 40
0.3939393939393937
 40
0.3939393939393937
 40
0.3939393939393937
 40
0.4090909090909088
 40
0.4090909090909088
 40
0.4090909090909088
 40
0.4090909090909088
 40
0.424242424242424
 40
0.424242424242424
 40
0.424242424242424
 40
0.424242424242424
 40
0.4393939393939391
 40
0.4393939393939391
 40
0.4393939393939391
 40
0.4393939393939391
 40
0.4545454545454543
 40
0.4545454545454543
 40
0.4545454545454543
 40
0.4545454545454543
 40
0.4696969696969694
 40
0.4696969696969694
 40
0.4696969696969694
 40
0.4696969696969694
 40
0.4848484848484845
 40
0.4848484848484845
 40
0.4848484848484845
 40
0.4848484848484845
 40
0.4999999999999997
 40
0.4999999999999997
 40
0.4999999999999997
 40
0.4999999999999997
 40
0.5151515151515148
 40
0.5151515151515148
 40
0.5151515151515148
 40
0.5151515151515148
 40
0.5303030303030299
 40
0.5303030303030299
 40
0.5303030303030299
 40
0.5303030303030299
 40
0.5454545454545451
 40
0.5454545454545451
 40
0.5454545454545451
 40
0.5454545454545451
 40
0.5606060606060602
 40
0.5606060606060602
 40
0.5606060606060602
 40
0.5606060606060602
 40
0.5757575757575754
 40
0.5757575757575754
 40
0.5757575757575754
 40
0.5757575757575754
 40
0.5909090909090905
 40
0.5909090909090905
 40
0.5909090909090905
 40
0.5909090909090905
 40
0.6060606060606056
 40
0.6060606060606056
 40
0.6060606060606056
 40
0.6060606060606056
 40
0.6212121212121208
 40
0.6212121212121208
 40
0.6212121212121208
 40
0.6212121212121208
 40
0.6363636363636359
 40
0.6363636363636359
 40
0.6363636363636359
 40
0.6363636363636359
 40
0.6515151515151511
 40
0.6515151515151511
 40
0.6515151515151511
 40
0.6515151515151511
 40
0.6666666666666662
 40
0.6666666666666662
 40
0.6666666666666662
 40
0.6666666666666662
 40
0.6818181818181813
 40
0.6818181818181813
 40
0.6818181818181813
 40
0.6818181818181813
 40
0.6969696969696965
 40
0.6969696969696965
 40
0.6969696969696965
 40
0.6969696969696965
 40
0.7121212121212116
 40
0.7121212121212116
 40
0.7121212121212116
 40
0.7121212121212116
 40
0.7272727272727267
 40
0.7272727272727267
 40
0.7272727272727267
 40
0.7272727272727267
 40
0.7424242424242419
 40
0.7424242424242419
 40
0.7424242424242419
 40
0.7424242424242419
 40
0.757575757575757
 40
0.757575757575757
 40
0.757575757575757
 40
0.757575757575757
 40
0.7727272727272722
 40
0.7727272727272722
 40
0.7727272727272722
 40
0.7727272727272722
 40
0.7878787878787873
 40
0.7878787878787873
 40
0.7878787878787873
 40
0.7878787878787873
 40
0.8030303030303024
 40
0.8030303030303024
 40
0.8030303030303024
 40
0.8030303030303024
 40
0.8181818181818176
 40
0.8181818181818176
 40
0.8181818181818176
 40
0.8181818181818176
 40
0.8333333333333327
 40
0.8333333333333327
 40
0.8333333333333327
 40
0.8333333333333327
 40
0.8484848484848478
 40
0.8484848484848478
 40
0.8484848484848478
 40
0.8484848484848478
 40
0.863636363636363
 40
0.863636363636363
 40
0.863636363636363
 40
0.863636363636363
 40
0.8787878787878781
 40
0.8787878787878781
 40
0.8787878787878781
 40
0.8787878787878781
 40
0.8939393939393933
 40
0.8939393939393933
 40
0.8939393939393933
 40
0.8939393939393933
 40
0.9090909090909084
 40
0.9090909090909084
 40
0.9090909090909084
 40
0.9090909090909084
 40
0.9242424242424235
 40
0.9242424242424235
 40
0.9242424242424235
 40
0.9242424242424235
 40
0.9393939393939387
 40
0.9393939393939387
 40
0.9393939393939387
 40
0.9393939393939387
 40
0.9545454545454538
 40
0.9545454545454538
 40
0.9545454545454538
 40
0.9545454545454538
 40
0.969696969696969
 40
0.969696969696969
 40
0.969696969696969
 40
0.969696969696969
 40
0.9848484848484841
 40
0.9848484848484841
 40
0.9848484848484841
 40
0.9848484848484841
 40
1.0
 40
1.0
 40
1.0
 40
1.0
 10
0.8027795275590551
 20
0.3931850393700788
 30
0.0
 10
0.8027795275590551
 20
0.3931850393700788
 30
0.0
 10
1.4475314960629921
 20
0.0125669291338583
 30
0.0
 10
1.4475314960629921
 20
0.0125669291338583
 30
0.0
 10
1.4475314960629921
 20
0.0125669291338583
 30
0.0
 10
1.4475314960629921
 20
0.0125669291338583
 30
0.0
 10
1.4978267716535434
 20
0.0321102362204724
 30
0.0
 10
1.4978267716535434
 20
0.0321102362204724
 30
0.0
 10
1.4978267716535434
 20
0.0321102362204724
 30
0.0
 10
1.4978267716535434
 20
0.0321102362204724
 30
0.0
 10
1.5455236220472441
 20
0.0539212598425197
 30
0.0
 10
1.5455236220472441
 20
0.0539212598425197
 30
0.0
 10
1.5455236220472441
 20
0.0539212598425197
 30
0.0
 10
1.5455236220472441
 20
0.0539212598425197
 30
0.0
 10
1.5906062992125984
 20
0.0778779527559055
 30
0.0
 10
1.5906062992125984
 20
0.0778779527559055
 30
0.0
 10
1.5906062992125984
 20
0.0778779527559055
 30
0.0
 10
1.5906062992125984
 20
0.0778779527559055
 30
0.0
 10
1.6330866141732283
 20
0.1038740157480315
 30
0.0
 10
1.6330866141732283
 20
0.1038740157480315
 30
0.0
 10
1.6330866141732283
 20
0.1038740157480315
 30
0.0
 10
1.6330866141732283
 20
0.1038740157480315
 30
0.0
 10
1.672952755905512
 20
0.1317834645669291
 30
0.0
 10
1.672952755905512
 20
0.1317834645669291
 30
0.0
 10
1.672952755905512
 20
0.1317834645669291
 30
0.0
 10
1.672952755905512
 20
0.1317834645669291
 30
0.0
 10
1.710224409448819
 20
0.1615157480314961
 30
0.0
 10
1.710224409448819
 20
0.1615157480314961
 30
0.0
 10
1.710224409448819
 20
0.1615157480314961
 30
0.0
 10
1.710224409448819
 20
0.1615157480314961
 30
0.0
 10
1.7448858267716536
 20
0.1929409448818898
 30
0.0
 10
1.7448858267716536
 20
0.1929409448818898
 30
0.0
 10
1.7448858267716536
 20
0.1929409448818898
 30
0.0
 10
1.7448858267716536
 20
0.1929409448818898
 30
0.0
 10
1.7769488188976379
 20
0.2259606299212598
 30
0.0
 10
1.7769488188976379
 20
0.2259606299212598
 30
0.0
 10
1.7769488188976379
 20
0.2259606299212598
 30
0.0
 10
1.7769488188976379
 20
0.2259606299212598
 30
0.0
 10
1.8063976377952757
 20
0.2604448818897638
 30
0.0
 10
1.8063976377952757
 20
0.2604448818897638
 30
0.0
 10
1.8063976377952757
 20
0.2604448818897638
 30
0.0
 10
1.8063976377952757
 20
0.2604448818897638
 30
0.0
 10
1.833251968503937
 20
0.2962992125984252
 30
0.0
 10
1.833251968503937
 20
0.2962992125984252
 30
0.0
 10
1.833251968503937
 20
0.2962992125984252
 30
0.0
 10
1.833251968503937
 20
0.2962992125984252
 30
0.0
 10
1.8575000000000002
 20
0.3334015748031496
 30
0.0
 10
1.8575000000000002
 20
0.3334015748031496
 30
0.0
 10
1.8575000000000002
 20
0.3334015748031496
 30
0.0
 10
1.8575000000000002
 20
0.3334015748031496
 30
0.0
 10
1.8791574803149607
 20
0.3716456692913386
 30
0.0
 10
1.8791574803149607
 20
0.3716456692913386
 30
0.0
 10
1.8791574803149607
 20
0.3716456692913386
 30
0.0
 10
1.8791574803149607
 20
0.3716456692913386
 30
0.0
 10
1.8982047244094489
 20
0.4109133858267717
 30
0.0
 10
1.8982047244094489
 20
0.4109133858267717
 30
0.0
 10
1.8982047244094489
 20
0.4109133858267717
 30
0.0
 10
1.8982047244094489
 20
0.4109133858267717
 30
0.0
 10
1.9146574803149607
 20
0.4511023622047244
 30
0.0
 10
1.9146574803149607
 20
0.4511023622047244
 30
0.0
 10
1.9146574803149607
 20
0.4511023622047244
 30
0.0
 10
1.9146574803149607
 20
0.4511023622047244
 30
0.0
 10
1.9285118110236221
 20
0.4920905511811024
 30
0.0
 10
1.9285118110236221
 20
0.4920905511811024
 30
0.0
 10
1.9285118110236221
 20
0.4920905511811024
 30
0.0
 10
1.9285118110236221
 20
0.4920905511811024
 30
0.0
 10
1.9397677165354332
 20
0.5337716535433071
 30
0.0
 10
1.9397677165354332
 20
0.5337716535433071
 30
0.0
 10
1.9397677165354332
 20
0.5337716535433071
 30
0.0
 10
1.9397677165354332
 20
0.5337716535433071
 30
0.0
 10
1.9484251968503938
 20
0.5760196850393701
 30
0.0
 10
1.9484251968503938
 20
0.5760196850393701
 30
0.0
 10
1.9484251968503938
 20
0.5760196850393701
 30
0.0
 10
1.9484251968503938
 20
0.5760196850393701
 30
0.0
 10
1.9544842519685039
 20
0.618744094488189
 30
0.0
 10
1.9544842519685039
 20
0.618744094488189
 30
0.0
 10
1.9544842519685039
 20
0.618744094488189
 30
0.0
 10
1.9544842519685039
 20
0.618744094488189
 30
0.0
 10
1.9579527559055119
 20
0.6618228346456693
 30
0.0
 10
1.9579527559055119
 20
0.6618228346456693
 30
0.0
 10
1.9579527559055119
 20
0.6618228346456693
 30
0.0
 10
1.9579527559055119
 20
0.6618228346456693
 30
0.0
 10
1.9588267716535435
 20
0.7051456692913386
 30
0.0
 10
1.9588267716535435
 20
0.7051456692913386
 30
0.0
 10
1.9588267716535435
 20
0.7051456692913386
 30
0.0
 10
1.9588267716535435
 20
0.7051456692913386
 30
0.0
 10
1.9571023622047246
 20
0.7485905511811024
 30
0.0
 10
1.9571023622047246
 20
0.7485905511811024
 30
0.0
 10
1.9571023622047246
 20
0.7485905511811024
 30
0.0
 10
1.9571023622047246
 20
0.7485905511811024
 30
0.0
 10
1.9527913385826772
 20
0.7920629921259843
 30
0.0
 10
1.9527913385826772
 20
0.7920629921259843
 30
0.0
 10
1.9527913385826772
 20
0.7920629921259843
 30
0.0
 10
1.9527913385826772
 20
0.7920629921259843
 30
0.0
 10
1.9458858267716537
 20
0.8354370078740158
 30
0.0
 10
1.9458858267716537
 20
0.8354370078740158
 30
0.0
 10
1.9458858267716537
 20
0.8354370078740158
 30
0.0
 10
1.9458858267716537
 20
0.8354370078740158
 30
0.0
 10
1.9363937007874017
 20
0.8786062992125985
 30
0.0
 10
1.9363937007874017
 20
0.8786062992125985
 30
0.0
 10
1.9363937007874017
 20
0.8786062992125985
 30
0.0
 10
1.9363937007874017
 20
0.8786062992125985
 30
0.0
 10
1.9243031496062992
 20
0.9214527559055119
 30
0.0
 10
1.9243031496062992
 20
0.9214527559055119
 30
0.0
 10
1.9243031496062992
 20
0.9214527559055119
 30
0.0
 10
1.9243031496062992
 20
0.9214527559055119
 30
0.0
 10
1.9096259842519685
 20
0.9638740157480316
 30
0.0
 10
1.9096259842519685
 20
0.9638740157480316
 30
0.0
 10
1.9096259842519685
 20
0.9638740157480316
 30
0.0
 10
1.9096259842519685
 20
0.9638740157480316
 30
0.0
 10
1.8923582677165356
 20
1.005748031496063
 30
0.0
 10
1.8923582677165356
 20
1.005748031496063
 30
0.0
 10
1.8923582677165356
 20
1.005748031496063
 30
0.0
 10
1.8923582677165356
 20
1.005748031496063
 30
0.0
 10
1.8725078740157481
 20
1.046972440944882
 30
0.0
 10
1.8725078740157481
 20
1.046972440944882
 30
0.0
 10
1.8725078740157481
 20
1.046972440944882
 30
0.0
 10
1.8725078740157481
 20
1.046972440944882
 30
0.0
 10
1.8500629921259844
 20
1.0874251968503938
 30
0.0
 10
1.8500629921259844
 20
1.0874251968503938
 30
0.0
 10
1.8500629921259844
 20
1.0874251968503938
 30
0.0
 10
1.8500629921259844
 20
1.0874251968503938
 30
0.0
 10
1.8250393700787402
 20
1.1270078740157481
 30
0.0
 10
1.8250393700787402
 20
1.1270078740157481
 30
0.0
 10
1.8250393700787402
 20
1.1270078740157481
 30
0.0
 10
1.8250393700787402
 20
1.1270078740157481
 30
0.0
 10
1.7974212598425197
 20
1.1655944881889764
 30
0.0
 10
1.7974212598425197
 20
1.1655944881889764
 30
0.0
 10
1.7974212598425197
 20
1.1655944881889764
 30
0.0
 10
1.7974212598425197
 20
1.1655944881889764
 30
0.0
 10
1.7672283464566929
 20
1.2030826771653544
 30
0.0
 10
1.7672283464566929
 20
1.2030826771653544
 30
0.0
 10
1.7672283464566929
 20
1.2030826771653544
 30
0.0
 10
1.7672283464566929
 20
1.2030826771653544
 30
0.0
 10
1.122476377952756
 20
1.5837007874015749
 30
0.0
 10
1.122476377952756
 20
1.5837007874015749
 30
0.0
 10
1.122476377952756
 20
1.5837007874015749
 30
0.0
 10
1.122476377952756
 20
1.5837007874015749
 30
0.0
 10
1.1526692913385828
 20
1.5462125984251969
 30
0.0
 10
1.1526692913385828
 20
1.5462125984251969
 30
0.0
 10
1.1526692913385828
 20
1.5462125984251969
 30
0.0
 10
1.1526692913385828
 20
1.5462125984251969
 30
0.0
 10
1.1802874015748033
 20
1.5076259842519686
 30
0.0
 10
1.1802874015748033
 20
1.5076259842519686
 30
0.0
 10
1.1802874015748033
 20
1.5076259842519686
 30
0.0
 10
1.1802874015748033
 20
1.5076259842519686
 30
0.0
 10
1.2053110236220472
 20
1.4680433070866141
 30
0.0
 10
1.2053110236220472
 20
1.4680433070866141
 30
0.0
 10
1.2053110236220472
 20
1.4680433070866141
 30
0.0
 10
1.2053110236220472
 20
1.4680433070866141
 30
0.0
 10
1.227755905511811
 20
1.4275905511811025
 30
0.0
 10
1.227755905511811
 20
1.4275905511811025
 30
0.0
 10
1.227755905511811
 20
1.4275905511811025
 30
0.0
 10
1.227755905511811
 20
1.4275905511811025
 30
0.0
 10
1.2476062992125985
 20
1.3863661417322835
 30
0.0
 10
1.2476062992125985
 20
1.3863661417322835
 30
0.0
 10
1.2476062992125985
 20
1.3863661417322835
 30
0.0
 10
1.2476062992125985
 20
1.3863661417322835
 30
0.0
 10
1.2648740157480316
 20
1.3444921259842519
 30
0.0
 10
1.2648740157480316
 20
1.3444921259842519
 30
0.0
 10
1.2648740157480316
 20
1.3444921259842519
 30
0.0
 10
1.2648740157480316
 20
1.3444921259842519
 30
0.0
 10
1.2795511811023623
 20
1.3020708661417324
 30
0.0
 10
1.2795511811023623
 20
1.3020708661417324
 30
0.0
 10
1.2795511811023623
 20
1.3020708661417324
 30
0.0
 10
1.2795511811023623
 20
1.3020708661417324
 30
0.0
 10
1.2916417322834646
 20
1.259224409448819
 30
0.0
 10
1.2916417322834646
 20
1.259224409448819
 30
0.0
 10
1.2916417322834646
 20
1.259224409448819
 30
0.0
 10
1.2916417322834646
 20
1.259224409448819
 30
0.0
 10
1.3011338582677165
 20
1.2160551181102364
 30
0.0
 10
1.3011338582677165
 20
1.2160551181102364
 30
0.0
 10
1.3011338582677165
 20
1.2160551181102364
 30
0.0
 10
1.3011338582677165
 20
1.2160551181102364
 30
0.0
 10
1.3080393700787403
 20
1.1726811023622048
 30
0.0
 10
1.3080393700787403
 20
1.1726811023622048
 30
0.0
 10
1.3080393700787403
 20
1.1726811023622048
 30
0.0
 10
1.3080393700787403
 20
1.1726811023622048
 30
0.0
 10
1.3123503937007874
 20
1.1292086614173229
 30
0.0
 10
1.3123503937007874
 20
1.1292086614173229
 30
0.0
 10
1.3123503937007874
 20
1.1292086614173229
 30
0.0
 10
1.3123503937007874
 20
1.1292086614173229
 30
0.0
 10
1.3140748031496063
 20
1.0857637795275592
 30
0.0
 10
1.3140748031496063
 20
1.0857637795275592
 30
0.0
 10
1.3140748031496063
 20
1.0857637795275592
 30
0.0
 10
1.3140748031496063
 20
1.0857637795275592
 30
0.0
 10
1.3132007874015748
 20
1.0424409448818899
 30
0.0
 10
1.3132007874015748
 20
1.0424409448818899
 30
0.0
 10
1.3132007874015748
 20
1.0424409448818899
 30
0.0
 10
1.3132007874015748
 20
1.0424409448818899
 30
0.0
 10
1.309732283464567
 20
0.9993622047244095
 30
0.0
 10
1.309732283464567
 20
0.9993622047244095
 30
0.0
 10
1.309732283464567
 20
0.9993622047244095
 30
0.0
 10
1.309732283464567
 20
0.9993622047244095
 30
0.0
 10
1.3036732283464567
 20
0.9566377952755906
 30
0.0
 10
1.3036732283464567
 20
0.9566377952755906
 30
0.0
 10
1.3036732283464567
 20
0.9566377952755906
 30
0.0
 10
1.3036732283464567
 20
0.9566377952755906
 30
0.0
 10
1.2950157480314961
 20
0.9143897637795276
 30
0.0
 10
1.2950157480314961
 20
0.9143897637795276
 30
0.0
 10
1.2950157480314961
 20
0.9143897637795276
 30
0.0
 10
1.2950157480314961
 20
0.9143897637795276
 30
0.0
 10
1.283759842519685
 20
0.8727086614173228
 30
0.0
 10
1.283759842519685
 20
0.8727086614173228
 30
0.0
 10
1.283759842519685
 20
0.8727086614173228
 30
0.0
 10
1.283759842519685
 20
0.8727086614173228
 30
0.0
 10
1.2699055118110236
 20
0.8317204724409449
 30
0.0
 10
1.2699055118110236
 20
0.8317204724409449
 30
0.0
 10
1.2699055118110236
 20
0.8317204724409449
 30
0.0
 10
1.2699055118110236
 20
0.8317204724409449
 30
0.0
 10
1.2534527559055118
 20
0.7915314960629921
 30
0.0
 10
1.2534527559055118
 20
0.7915314960629921
 30
0.0
 10
1.2534527559055118
 20
0.7915314960629921
 30
0.0
 10
1.2534527559055118
 20
0.7915314960629921
 30
0.0
 10
1.2344055118110238
 20
0.7522637795275591
 30
0.0
 10
1.2344055118110238
 20
0.7522637795275591
 30
0.0
 10
1.2344055118110238
 20
0.7522637795275591
 30
0.0
 10
1.2344055118110238
 20
0.7522637795275591
 30
0.0
 10
1.212748031496063
 20
0.7140196850393701
 30
0.0
 10
1.212748031496063
 20
0.7140196850393701
 30
0.0
 10
1.212748031496063
 20
0.7140196850393701
 30
0.0
 10
1.212748031496063
 20
0.7140196850393701
 30
0.0
 10
1.1885000000000001
 20
0.6769173228346457
 30
0.0
 10
1.1885000000000001
 20
0.6769173228346457
 30
0.0
 10
1.1885000000000001
 20
0.6769173228346457
 30
0.0
 10
1.1885000000000001
 20
0.6769173228346457
 30
0.0
 10
1.1616456692913386
 20
0.6410629921259843
 30
0.0
 10
1.1616456692913386
 20
0.6410629921259843
 30
0.0
 10
1.1616456692913386
 20
0.6410629921259843
 30
0.0
 10
1.1616456692913386
 20
0.6410629921259843
 30
0.0
 10
1.1321968503937008
 20
0.6065787401574804
 30
0.0
 10
1.1321968503937008
 20
0.6065787401574804
 30
0.0
 10
1.1321968503937008
 20
0.6065787401574804
 30
0.0
 10
1.1321968503937008
 20
0.6065787401574804
 30
0.0
 10
1.1001338582677165
 20
0.5735590551181102
 30
0.0
 10
1.1001338582677165
 20
0.5735590551181102
 30
0.0
 10
1.1001338582677165
 20
0.5735590551181102
 30
0.0
 10
1.1001338582677165
 20
0.5735590551181102
 30
0.0
 10
1.0654724409448819
 20
0.5421338582677165
 30
0.0
 10
1.0654724409448819
 20
0.5421338582677165
 30
0.0
 10
1.0654724409448819
 20
0.5421338582677165
 30
0.0
 10
1.0654724409448819
 20
0.5421338582677165
 30
0.0
 10
1.0282007874015748
 20
0.5124015748031496
 30
0.0
 10
1.0282007874015748
 20
0.5124015748031496
 30
0.0
 10
1.0282007874015748
 20
0.5124015748031496
 30
0.0
 10
1.0282007874015748
 20
0.5124015748031496
 30
0.0
 10
0.9883346456692914
 20
0.484492125984252
 30
0.0
 10
0.9883346456692914
 20
0.484492125984252
 30
0.0
 10
0.9883346456692914
 20
0.484492125984252
 30
0.0
 10
0.9883346456692914
 20
0.484492125984252
 30
0.0
 10
0.9458543307086614
 20
0.458496062992126
 30
0.0
 10
0.9458543307086614
 20
0.458496062992126
 30
0.0
 10
0.9458543307086614
 20
0.458496062992126
 30
0.0
 10
0.9458543307086614
 20
0.458496062992126
 30
0.0
 10
0.9007716535433071
 20
0.4345393700787402
 30
0.0
 10
0.9007716535433071
 20
0.4345393700787402
 30
0.0
 10
0.9007716535433071
 20
0.4345393700787402
 30
0.0
 10
0.9007716535433071
 20
0.4345393700787402
 30
0.0
 10
0.8530748031496064
 20
0.4127283464566929
 30
0.0
 10
0.8530748031496064
 20
0.4127283464566929
 30
0.0
 10
0.8530748031496064
 20
0.4127283464566929
 30
0.0
 10
0.8530748031496064
 20
0.4127283464566929
 30
0.0
 10
0.8027795275590551
 20
0.3931850393700788
 30
0.0
 10
0.8027795275590551
 20
0.3931850393700788
 30
0.0
  0
SPLINE
  5
D7
100
AcDbEntity
  8
Layer 1
370
     5
 62
     7
100
AcDbSpline
210
0.0
220
0.0
230
1.0
 70
     1
 71
     3
 72
    40
 73
    36
 74
     0
 42
0.0000000001
 43
0.0000000001
 40
0.0
 40
0.0
 40
0.0
 40
0.0
 40
0.1111111111111111
 40
0.1111111111111111
 40
0.1111111111111111
 40
0.1111111111111111
 40
0.2222222222222222
 40
0.2222222222222222
 40
0.2222222222222222
 40
0.2222222222222222
 40
0.3333333333333333
 40
0.3333333333333333
 40
0.3333333333333333
 40
0.3333333333333333
 40
0.4444444444444444
 40
0.4444444444444444
 40
0.4444444444444444
 40
0.4444444444444444
 40
0.5555555555555556
 40
0.5555555555555556
 40
0.5555555555555556
 40
0.5555555555555556
 40
0.6666666666666667
 40
0.6666666666666667
 40
0.6666666666666667
 40
0.6666666666666667
 40
0.7777777777777779
 40
0.7777777777777779
 40
0.7777777777777779
 40
0.7777777777777779
 40
0.8888888888888891
 40
0.8888888888888891
 40
0.8888888888888891
 40
0.8888888888888891
 40
1.0
 40
1.0
 40
1.0
 40
1.0
 10
-0.9324330708661418
 20
-0.7155866141732283
 30
0.0
 10
-0.9324330708661418
 20
-0.7155866141732283
 30
0.0
 10
-0.503732283464567
 20
-0.788007874015748
 30
0.0
 10
-0.503732283464567
 20
-0.788007874015748
 30
0.0
 10
-0.503732283464567
 20
-0.788007874015748
 30
0.0
 10
-0.3673031496062992
 20
-0.4425236220472441
 30
0.0
 10
-0.1525157480314961
 20
-0.2748937007874016
 30
0.0
 10
0.1845787401574803
 20
-0.237236220472441
 30
0.0
 10
0.1845787401574803
 20
-0.237236220472441
 30
0.0
 10
0.1845787401574803
 20
-0.237236220472441
 30
0.0
 10
0.1825787401574803
 20
-0.0918464566929134
 30
0.0
 10
0.1825787401574803
 20
-0.0918464566929134
 30
0.0
 10
0.1825787401574803
 20
-0.0918464566929134
 30
0.0
 10
0.4118267716535433
 20
-0.0775275590551181
 30
0.0
 10
0.5207755905511812
 20
0.0884566929133858
 30
0.0
 10
0.5278622047244095
 20
0.1877047244094488
 30
0.0
 10
0.5278622047244095
 20
0.1877047244094488
 30
0.0
 10
0.5278622047244095
 20
0.1877047244094488
 30
0.0
 10
0.795728346456693
 20
0.202240157480315
 30
0.0
 10
0.795728346456693
 20
0.202240157480315
 30
0.0
 10
0.795728346456693
 20
0.202240157480315
 30
0.0
 10
0.795728346456693
 20
0.202240157480315
 30
0.0
 10
0.8027795275590551
 20
0.3931850393700788
 30
0.0
 10
0.8027795275590551
 20
0.3931850393700788
 30
0.0
 10
0.8027795275590551
 20
0.3931850393700788
 30
0.0
 10
1.353251968503937
 20
0.589263779527559
 30
0.0
 10
1.4583818897637797
 20
1.1901535433070867
 30
0.0
 10
1.122476377952756
 20
1.5837007874015749
 30
0.0
 10
1.122476377952756
 20
1.5837007874015749
 30
0.0
 10
1.122476377952756
 20
1.5837007874015749
 30
0.0
 10
-0.9266968503937009
 20
-0.1138346456692913
 30
0.0
 10
-0.9266968503937009
 20
-0.1138346456692913
 30
0.0
 10
-0.9266968503937009
 20
-0.1138346456692913
 30
0.0
 10
-0.9266968503937009
 20
-0.1138346456692913
 30
0.0
 10
-0.9324330708661418
 20
-0.7155866141732283
 30
0.0
 10
-0.9324330708661418
 20
-0.7155866141732283
 30
0.0
  0
TEXT
  5
D8
100
AcDbEntity
  8
Layer 1
100
AcDbText
 10
0.606539
 20
-0.944819
 30
0.0
 40
0.119999
  1
BA  1545
 51
-0.000002
  7
Bookman Old Style
100
AcDbText
  0
TEXT
  5
D9
100
AcDbEntity
  8
Layer 1
100
AcDbText
 10
0.374846
 20
-1.132319
 30
0.0
 40
0.119999
  1
7/8\u+201d x 3-1/16\u+201d
 51
-0.000002
  7
Bookman Old Style
100
AcDbText
  0
ENDSEC
  0
SECTION
  2
OBJECTS
  0
DICTIONARY
  5
19
100
AcDbDictionary
280
     0
281
     1
  3
ACAD_GROUP
350
1A
  3
ACAD_MLINESTYLE
350
1B
  3
ACAD_LAYOUT
350
1E
  3
ACAD_PLOTSETTINGS
350
22
  3
ACAD_PLOTSTYLENAME
350
1F
  3
ACAD_WIPEOUT_VARS
350
23
  0
DICTIONARY
  5
1A
102
{ACAD_REACTORS
330
19
102
}
100
AcDbDictionary
280
     0
281
     1
  0
DICTIONARY
  5
1B
102
{ACAD_REACTORS
330
19
102
}
100
AcDbDictionary
280
     0
281
     1
  3
Standard
350
1C
  0
MLINESTYLE
  5
1C
102
{ACAD_REACTORS
330
1B
102
}
100
AcDbMlineStyle
  2
Standard
 70
     0
  3

 62
     0
 51
90.0
 52
90.0
 71
     2
 49
0.5
 62
   256
  6
BYLAYER
 49
-0.5
 62
   256
  6
BYLAYER
  0
ACDBDICTIONARYWDFLT
  5
1F
102
{ACAD_REACTORS
330
19
102
}
100
AcDbDictionary
281
     1
  3
Normal
350
1D
100
AcDbDictionaryWithDefault
340
1D
  0
ACDBPLACEHOLDER
  5
1D
102
{ACAD_REACTORS
330
1F
102
}
  0
LAYOUT
  5
20
102
{ACAD_REACTORS
330
1E
102
}
100
AcDbPlotSettings
  1

  2

  4

  6

 40
0.0
 41
0.0
 42
0.0
 43
0.0
 44
0.0
 45
0.0
 46
0.0
 47
0.0
 48
0.0
 49
0.0
140
0.0
141
0.0
142
1.0
143
1.0
 70
  1024
 72
     0
 73
     0
 74
     0
  7

 75
     0
147
1.0
148
0.0
149
0.0
100
AcDbLayout
  1
Model
 70
     0
 71
     0
 10
0.0
 20
0.0
 11
0.0
 21
0.0
 12
0.0
 22
0.0
 32
0.0
 14
0.0
 24
0.0
 34
0.0
 15
0.0
 25
0.0
 35
0.0
146
0.0
 13
0.0
 23
0.0
 33
0.0
 16
0.0
 26
0.0
 36
0.0
 17
0.0
 27
0.0
 37
0.0
 76
     0
330
A
331
0
345
0
346
0
  0
LAYOUT
  5
21
102
{ACAD_REACTORS
330
1E
102
}
100
AcDbPlotSettings
  1

  2

  4

  6

 40
0.0
 41
0.0
 42
0.0
 43
0.0
 44
0.0
 45
0.0
 46
0.0
 47
0.0
 48
0.0
 49
0.0
140
0.0
141
0.0
142
1.0
143
1.0
 70
     0
 72
     0
 73
     0
 74
     0
  7

 75
     0
147
1.0
148
0.0
149
0.0
100
AcDbLayout
  1
Layout1
 70
     0
 71
     0
 10
0.0
 20
0.0
 11
0.0
 21
0.0
 12
0.0
 22
0.0
 32
0.0
 14
0.0
 24
0.0
 34
0.0
 15
0.0
 25
0.0
 35
0.0
146
0.0
 13
0.0
 23
0.0
 33
0.0
 16
0.0
 26
0.0
 36
0.0
 17
0.0
 27
0.0
 37
0.0
 76
     0
330
B
331
0
345
0
346
0
  0
DICTIONARY
  5
1E
102
{ACAD_REACTORS
330
19
102
}
100
AcDbDictionary
280
     0
281
     1
  3
Layout1
350
21
  3
Model
350
20
  0
DICTIONARY
  5
22
102
{ACAD_REACTORS
330
19
102
}
100
AcDbDictionary
280
     0
281
     1
  0
WIPEOUTVARIABLES
  5
23
100
AcDbWipeoutVariables
 70
     1
  0
ENDSEC
  0
EOF
