  0
SECTION
  2
HEADER
  9
$ACADVER
  1
AC1015
  9
$ACADMAINTVER
 70
     6
  9
$DWGCODEPAGE
  3
DOS850
  9
$INSBASE
 10
0.0
 20
0.0
 30
0.0
  9
$EXTMIN
 10
-0.817409
 20
-0.918102
 30
1.000000E+20
  9
$EXTMAX
 10
1.183748
 20
4.532339
 30
-1.000000E+20
  9
$LIMMIN
 10
0.0
 20
0.0
  9
$LIMMAX
 10
0.0
 20
0.0
  9
$ORTHOMODE
 70
     0
  9
$REGENMODE
 70
     1
  9
$FILLMODE
 70
     1
  9
$QTEXTMODE
 70
     0
  9
$MIRRTEXT
 70
     1
  9
$LTSCALE
 40
1.0
  9
$ATTMODE
 70
     1
  9
$TEXTSIZE
 40
0.2
  9
$TRACEWID
 40
0.05
  9
$TEXTSTYLE
  7
Standard
  9
$CLAYER
  8
0
  9
$CELTYPE
  6
Continuous
  9
$CECOLOR
 62
   256
  9
$CELTSCALE
 40
1.0
  9
$DISPSILH
 70
     0
  9
$DIMSCALE
 40
1.0
  9
$DIMASZ
 40
0.18
  9
$DIMEXO
 40
0.0625
  9
$DIMDLI
 40
0.38
  9
$DIMRND
 40
0.0
  9
$DIMDLE
 40
0.0
  9
$DIMEXE
 40
0.18
  9
$DIMTP
 40
0.0
  9
$DIMTM
 40
0.0
  9
$DIMTXT
 40
0.18
  9
$DIMCEN
 40
0.09
  9
$DIMTSZ
 40
0.0
  9
$DIMTOL
 70
     0
  9
$DIMLIM
 70
     0
  9
$DIMTIH
 70
     1
  9
$DIMTOH
 70
     1
  9
$DIMSE1
 70
     0
  9
$DIMSE2
 70
     0
  9
$DIMTAD
 70
     0
  9
$DIMZIN
 70
     0
  9
$DIMBLK
  1

  9
$DIMASO
 70
     1
  9
$DIMSHO
 70
     1
  9
$DIMPOST
  1

  9
$DIMAPOST
  1

  9
$DIMALT
 70
     0
  9
$DIMALTD
 70
     2
  9
$DIMALTF
 40
25.4
  9
$DIMLFAC
 40
1.0
  9
$DIMTOFL
 70
     0
  9
$DIMTVP
 40
0.0
  9
$DIMTIX
 70
     0
  9
$DIMSOXD
 70
     0
  9
$DIMSAH
 70
     0
  9
$DIMBLK1
  1

  9
$DIMBLK2
  1

  9
$DIMSTYLE
  2
Standard
  9
$DIMCLRD
 70
     0
  9
$DIMCLRE
 70
     0
  9
$DIMCLRT
 70
     0
  9
$DIMTFAC
 40
1.0
  9
$DIMGAP
 40
0.09
  9
$DIMJUST
 70
     0
  9
$DIMSD1
 70
     0
  9
$DIMSD2
 70
     0
  9
$DIMTOLJ
 70
     1
  9
$DIMTZIN
 70
     0
  9
$DIMALTZ
 70
     0
  9
$DIMALTTZ
 70
     0
  9
$DIMUPT
 70
     0
  9
$DIMDEC
 70
     4
  9
$DIMTDEC
 70
     4
  9
$DIMALTU
 70
     2
  9
$DIMALTTD
 70
     2
  9
$DIMTXSTY
  7
Standard
  9
$DIMAUNIT
 70
     0
  9
$DIMADEC
 70
     0
  9
$DIMALTRND
 40
0.0
  9
$DIMAZIN
 70
     0
  9
$DIMDSEP
 70
     0
  9
$DIMATFIT
 70
     3
  9
$DIMFRAC
 70
     0
  9
$DIMLDRBLK
  1

  9
$DIMLUNIT
 70
     2
  9
$DIMLWD
 70
     0
  9
$DIMLWE
 70
     0
  9
$DIMTMOVE
 70
     0
  9
$LUNITS
 70
     2
  9
$LUPREC
 70
     4
  9
$SKETCHINC
 40
0.1
  9
$FILLETRAD
 40
0.0
  9
$AUNITS
 70
     0
  9
$AUPREC
 70
     0
  9
$MENU
  1
acad
  9
$ELEVATION
 40
0.0
  9
$PELEVATION
 40
0.0
  9
$THICKNESS
 40
0.0
  9
$LIMCHECK
 70
     0
  9
$CHAMFERA
 40
0.0
  9
$CHAMFERB
 40
0.0
  9
$CHAMFERC
 40
0.0
  9
$CHAMFERD
 40
0.0
  9
$SKPOLY
 70
     0
  9
$TDCREATE
 40
0.000000000
  9
$TDUCREATE
 40
0.000000000
  9
$TDUPDATE
 40
0.000000000
  9
$TDUUPDATE
 40
0.000000000
  9
$TDINDWG
 40
0.0000000000
  9
$TDUSRTIMER
 40
0.0000000000
  9
$USRTIMER
 70
     1
  9
$ANGBASE
 50
0.0
  9
$ANGDIR
 70
     0
  9
$PDMODE
 70
     0
  9
$PDSIZE
 40
0.0
  9
$PLINEWID
 40
0.0
  9
$SPLFRAME
 70
     0
  9
$SPLINETYPE
 70
     6
  9
$SPLINESEGS
 70
     8
  9
$HANDSEED
  5
CA
  9
$SURFTAB1
 70
     6
  9
$SURFTAB2
 70
     6
  9
$SURFTYPE
 70
     6
  9
$SURFU
 70
     6
  9
$SURFV
 70
     6
  9
$UCSBASE
  2

  9
$UCSNAME
  2

  9
$UCSORG
 10
0.0
 20
0.0
 30
0.0
  9
$UCSXDIR
 10
1.0
 20
0.0
 30
0.0
  9
$UCSYDIR
 10
0.0
 20
1.0
 30
0.0
  9
$UCSORTHOREF
  2

  9
$UCSORTHOVIEW
 70
     0
  9
$UCSORGTOP
 10
0.0
 20
0.0
 30
0.0
  9
$UCSORGBOTTOM
 10
0.0
 20
0.0
 30
0.0
  9
$UCSORGLEFT
 10
0.0
 20
0.0
 30
0.0
  9
$UCSORGRIGHT
 10
0.0
 20
0.0
 30
0.0
  9
$UCSORGFRONT
 10
0.0
 20
0.0
 30
0.0
  9
$UCSORGBACK
 10
0.0
 20
0.0
 30
0.0
  9
$PUCSBASE
  2

  9
$PUCSNAME
  2

  9
$PUCSORG
 10
0.0
 20
0.0
 30
0.0
  9
$PUCSXDIR
 10
1.0
 20
0.0
 30
0.0
  9
$PUCSYDIR
 10
0.0
 20
1.0
 30
0.0
  9
$PUCSORTHOREF
  2

  9
$PUCSORTHOVIEW
 70
     0
  9
$PUCSORGTOP
 10
0.0
 20
0.0
 30
0.0
  9
$PUCSORGBOTTOM
 10
0.0
 20
0.0
 30
0.0
  9
$PUCSORGLEFT
 10
0.0
 20
0.0
 30
0.0
  9
$PUCSORGRIGHT
 10
0.0
 20
0.0
 30
0.0
  9
$PUCSORGFRONT
 10
0.0
 20
0.0
 30
0.0
  9
$PUCSORGBACK
 10
0.0
 20
0.0
 30
0.0
  9
$USERI1
 70
     0
  9
$USERI2
 70
     0
  9
$USERI3
 70
     0
  9
$USERI4
 70
     0
  9
$USERI5
 70
     0
  9
$USERR1
 40
0.0
  9
$USERR2
 40
0.0
  9
$USERR3
 40
0.0
  9
$USERR4
 40
0.0
  9
$USERR5
 40
0.0
  9
$WORLDVIEW
 70
     1
  9
$SHADEDGE
 70
     3
  9
$SHADEDIF
 70
    70
  9
$TILEMODE
 70
     1
  9
$MAXACTVP
 70
    16
  9
$PINSBASE
 10
0.0
 20
0.0
 30
0.0
  9
$PLIMCHECK
 70
     0
  9
$PEXTMIN
 10
1.000000E+20
 20
1.000000E+20
 30
1.000000E+20
  9
$PEXTMAX
 10
-1.000000E+20
 20
-1.000000E+20
 30
-1.000000E+20
  9
$PLIMMIN
 10
0.0
 20
0.0
  9
$PLIMMAX
 10
12.0
 20
9.0
  9
$UNITMODE
 70
     0
  9
$VISRETAIN
 70
     0
  9
$PLINEGEN
 70
     1
  9
$PSLTSCALE
 70
     0
  9
$TREEDEPTH
 70
  3020
  9
$CMLSTYLE
  2
Standard
  9
$CMLJUST
 70
     0
  9
$CMLSCALE
 40
1.0
  9
$PROXYGRAPHICS
 70
     0
  9
$MEASUREMENT
 70
     0
  9
$CELWEIGHT
370
     0
  9
$ENDCAPS
280
     0
  9
$JOINSTYLE
280
     0
  9
$LWDISPLAY
290
     0
  9
$INSUNITS
 70
     1
  9
$HYPERLINKBASE
  1

  9
$XEDIT
290
     1
  9
$CEPSNTYPE
380
     0
  9
$PSTYLEMODE
290
     1
  9
$FINGERPRINTGUID
  2

  9
$VERSIONGUID
  2

  9
$EXTNAMES
290
     1
  9
$PSVPSCALE
 40
0.0
  0
ENDSEC
  0
SECTION
  2
CLASSES
  0
CLASS
  1
LWPOLYLINE
  2
AcDbPolyline
  3
AutoCAD 2000
 90
    32768
280
     0
281
     1
  0
CLASS
  1
IMAGE
  2
AcDbRasterImage
  3
ISM
 90
    32895
280
     0
281
     1
  0
CLASS
  1
OLE2FRAME
  2
AcDbOle2Frame
  3
AutoCAD 2000
 90
    32768
280
     0
281
     1
  0
CLASS
  1
HATCH
  2
AcDbHatch
  3
AutoCAD 2000
 90
    32768
280
     0
281
     1
  0
CLASS
  1
DICTIONARYVAR
  2
AcDbDictionaryVar
  3
AutoCAD 2000
 90
    32768
280
     0
281
     0
  0
CLASS
  1
RASTERVARIABLES
  2
AcDbRasterVariables
  3
ISM
 90
    32768
280
     0
281
     0
  0
CLASS
  1
IMAGEDEF
  2
AcDbRasterImageDef
  3
ISM
 90
    32768
280
     0
281
     0
  0
CLASS
  1
IMAGEDEF_REACTOR
  2
AcDbRasterImageDefReactor
  3
ISM
 90
    32769
280
     0
281
     0
  0
CLASS
  1
IDBUFFER
  2
AcDbIdBuffer
  3
AutoCAD 2000
 90
    32768
280
     0
281
     0
  0
CLASS
  1
SPATIAL_FILTER
  2
AcDbSpatialFilter
  3
AutoCAD 2000
 90
    32768
280
     0
281
     0
  0
CLASS
  1
XRECORD
  2
AcDbXrecord
  3
AutoCAD 2000
 90
    32768
280
     0
281
     0
  0
CLASS
  1
SORTENTSTABLE
  2
AcDbSortentsTable
  3
AutoCAD 2000
 90
    32768
280
     0
281
     0
  0
CLASS
  1
LAYER_INDEX
  2
AcDbLayerIndex
  3
AutoCAD 2000
 90
    32768
280
     0
281
     0
  0
CLASS
  1
SPATIAL_INDEX
  2
AcDbSpatialIndex
  3
AutoCAD 2000
 90
    32768
280
     0
281
     0
  0
CLASS
  1
OBJECT_PTR
  2
CAseDLPNTableRecord
  3
"ASE-LPNTableRecord"
 90
    32769
280
     0
281
     0
  0
CLASS
  1
LAYOUT
  2
AcDbLayout
  3
AutoCAD 2000
 90
        0
280
     0
281
     0
  0
CLASS
  1
PLOTSETTINGS
  2
AcDbPlotSettings
  3
AutoCAD 2000
 90
    32768
280
     0
281
     0
  0
CLASS
  1
ACDBDICTIONARYWDFLT
  2
AcDbDictionaryWithDefault
  3
AutoCAD 2000
 90
        0
280
     0
281
     0
  0
CLASS
  1
ACDBPLACEHOLDER
  2
AcDbPlaceHolder
  3
AutoCAD 2000
 90
        0
280
     0
281
     0
  0
CLASS
  1
VBA_PROJECT
  2
AcDbVbaProject
  3
acadvba
 90
    32768
280
     0
281
     0
  0
CLASS
  1
WIPEOUT
  2
AcDbWipeout
  3
WipeOut|AutoCAD Express Tool|expresstools@autodesk.com
 90
    32895
280
     0
281
     1
  0
CLASS
  1
WIPEOUTVARIABLES
  2
AcDbWipeoutVariables
  3
WipeOut|AutoCAD Express Tool|expresstools@autodesk.com
 90
        0
280
     0
281
     0
  0
CLASS
  1
RTEXT
  2
RText
  3
RText|AutoCAD Express Tool|expresstools@autodesk.com
 90
    32768
280
     0
281
     1
  0
CLASS
  1
ARCALIGNEDTEXT
  2
AcDbArcAlignedText
  3
ATEXT|AutoCAD Express Tool|expresstools@autodesk.com
 90
    32768
280
     0
281
     1
  0
ENDSEC
  0
SECTION
  2
TABLES
  0
TABLE
  2
VPORT
  5
7
100
AcDbSymbolTable
 70
     1
  0
VPORT
  5
15
100
AcDbSymbolTableRecord
100
AcDbViewportTableRecord
  2
*ACTIVE
 70
     0
 10
0.0
 20
0.0
 11
1.0
 21
1.0
 12
6.591288
 22
4.579184
 13
0.0
 23
0.0
 14
1.0
 24
1.0
 15
0.0
 25
0.0
 16
0.0
 26
0.0
 36
1.0
 17
0.0
 27
0.0
 37
0.0
 40
9.158369
 41
0.688564
 42
50.0
 43
0.0
 44
0.0
 50
0.0
 51
0.0
 71
     0
 72
   100
 73
     1
 74
     1
 75
     0
 76
     0
 77
     0
 78
     0
281
     0
 65
     0
110
0.0
120
0.0
130
0.0
111
1.0
121
0.0
131
0.0
112
0.0
122
1.0
132
0.0
345
0
346
0
 79
     0
146
0.0
  0
ENDTAB
  0
TABLE
  2
LTYPE
  5
4
100
AcDbSymbolTable
 70
     3
  0
LTYPE
  5
11
100
AcDbSymbolTableRecord
100
AcDbLinetypeTableRecord
  2
ByBlock
 70
    64
  3

 72
    65
 73
     0
 40
0.0
  0
LTYPE
  5
12
100
AcDbSymbolTableRecord
100
AcDbLinetypeTableRecord
  2
ByLayer
 70
    64
  3

 72
    65
 73
     0
 40
0.0
  0
LTYPE
  5
13
100
AcDbSymbolTableRecord
100
AcDbLinetypeTableRecord
  2
Continuous
 70
    64
  3
Solid line
 72
    65
 73
     0
 40
0.0
  0
ENDTAB
  0
TABLE
  2
LAYER
  5
2
100
AcDbSymbolTable
 70
     2
  0
LAYER
  5
14
100
AcDbSymbolTableRecord
100
AcDbLayerTableRecord
  2
0
 70
     0
 62
     7
  6
Continuous
290
     1
370
    -3
390
1D
  0
LAYER
  5
24
100
AcDbSymbolTableRecord
100
AcDbLayerTableRecord
  2
Layer 1
 70
     0
 62
     7
  6
Continuous
290
     1
370
    -3
390
1F
  0
ENDTAB
  0
TABLE
  2
STYLE
  5
3
100
AcDbSymbolTable
 70
     2
  0
STYLE
  5
17
100
AcDbSymbolTableRecord
100
AcDbTextStyleTableRecord
  2
Standard
 70
     0
 40
0.0
 41
1.0
 50
0.0
 71
     0
 42
0.0
  3
txt
  4

  0
STYLE
  5
26
100
AcDbSymbolTableRecord
100
AcDbTextStyleTableRecord
  2
Bookman Old Style
 70
     0
 40
1.0
 41
1.0
 50
0.0
 71
     0
 42
1.0
  3
Bookman Old Style
  4

  0
ENDTAB
  0
TABLE
  2
VIEW
  5
5
100
AcDbSymbolTable
 70
     0
  0
ENDTAB
  0
TABLE
  2
UCS
  5
6
100
AcDbSymbolTable
 70
     0
  0
ENDTAB
  0
TABLE
  2
APPID
  5
8
100
AcDbSymbolTable
 70
     1
  0
APPID
  5
16
100
AcDbSymbolTableRecord
100
AcDbRegAppTableRecord
  2
ACAD
 70
     0
  0
ENDTAB
  0
TABLE
  2
DIMSTYLE
  5
9
100
AcDbSymbolTable
 70
     1
100
AcDbDimStyleTable
 71
     0
  0
DIMSTYLE
105
18
100
AcDbSymbolTableRecord
100
AcDbDimStyleTableRecord
  2
Standard
 70
     0
  3

  4

 40
1.0
 41
0.18
 42
0.0625
 43
0.38
 44
0.18
 45
0.0
 46
0.0
 47
0.0
 48
0.0
 71
     0
 72
     0
 73
     1
 74
     1
 75
     0
 76
     0
 77
     0
 78
     0
 79
     0
140
0.18
141
0.09
142
0.0
143
25.4
144
1.0
145
0.0
146
1.0
147
0.09
148
0.0
170
     0
171
     2
172
     0
173
     0
174
     0
175
     0
176
     0
177
     0
178
     0
179
     0
271
     4
272
     4
273
     2
274
     2
275
     0
276
     0
277
     2
278
    46
279
     0
280
     0
281
     0
282
     0
283
     1
284
     0
285
     0
286
     0
288
     0
340
17
341
0
342
0
343
0
344
0
371
    -2
372
    -2
  0
ENDTAB
  0
TABLE
  2
BLOCK_RECORD
  5
1
100
AcDbSymbolTable
 70
     0
  0
BLOCK_RECORD
  5
A
100
AcDbSymbolTableRecord
100
AcDbBlockTableRecord
  2
*MODEL_SPACE
340
20
  0
BLOCK_RECORD
  5
B
100
AcDbSymbolTableRecord
100
AcDbBlockTableRecord
  2
*PAPER_SPACE
340
21
  0
ENDTAB
  0
ENDSEC
  0
SECTION
  2
BLOCKS
  0
BLOCK
  5
D
100
AcDbEntity
  8
0
100
AcDbBlockBegin
  2
*MODEL_SPACE
 70
     0
 10
0.0
 20
0.0
 30
0.0
  3
*MODEL_SPACE
  1

  0
ENDBLK
  5
E
100
AcDbEntity
  8
0
100
AcDbBlockEnd
  0
BLOCK
  5
F
100
AcDbEntity
 67
     1
  8
0
100
AcDbBlockBegin
  2
*PAPER_SPACE
 70
     0
 10
0.0
 20
0.0
 30
0.0
  3
*PAPER_SPACE
  1

  0
ENDBLK
  5
10
100
AcDbEntity
 67
     1
  8
0
100
AcDbBlockEnd
  0
ENDSEC
  0
SECTION
  2
ENTITIES
  0
SPLINE
  5
25
100
AcDbEntity
  8
Layer 1
370
     5
100
AcDbSpline
210
0.0
220
0.0
230
1.0
 70
     1
 71
     3
 72
    32
 73
    28
 74
     0
 42
0.0000000001
 43
0.0000000001
 40
0.0
 40
0.0
 40
0.0
 40
0.0
 40
0.1428571428571429
 40
0.1428571428571429
 40
0.1428571428571429
 40
0.1428571428571429
 40
0.2857142857142857
 40
0.2857142857142857
 40
0.2857142857142857
 40
0.2857142857142857
 40
0.4285714285714286
 40
0.4285714285714286
 40
0.4285714285714286
 40
0.4285714285714286
 40
0.5714285714285714
 40
0.5714285714285714
 40
0.5714285714285714
 40
0.5714285714285714
 40
0.7142857142857142
 40
0.7142857142857142
 40
0.7142857142857142
 40
0.7142857142857142
 40
0.857142857142857
 40
0.857142857142857
 40
0.857142857142857
 40
0.857142857142857
 40
1.0
 40
1.0
 40
1.0
 40
1.0
 10
-0.7375787401574804
 20
4.5308385826771653
 30
0.0
 10
-0.7375787401574804
 20
4.5308385826771653
 30
0.0
 10
-0.652988188976378
 20
4.5308385826771653
 30
0.0
 10
-0.652988188976378
 20
4.5308385826771653
 30
0.0
 10
-0.652988188976378
 20
4.5308385826771653
 30
0.0
 10
-0.3717716535433071
 20
4.5098858267716535
 30
0.0
 10
-0.2894055118110236
 20
4.4007755905511816
 30
0.0
 10
-0.4130433070866142
 20
4.1052440944881887
 30
0.0
 10
-0.4130433070866142
 20
4.1052440944881887
 30
0.0
 10
-0.5483070866141733
 20
3.781925196850394
 30
0.0
 10
-0.0098307086614173
 20
3.8372677165354334
 30
0.0
 10
0.2495
 20
3.8379566929133859
 30
0.0
 10
0.2495
 20
3.8379566929133859
 30
0.0
 10
0.5648858267716536
 20
3.8387952755905514
 30
0.0
 10
0.7823188976377953
 20
3.1830000000000003
 30
0.0
 10
0.3072322834645669
 20
2.9252047244094488
 30
0.0
 10
0.3072322834645669
 20
2.9252047244094488
 30
0.0
 10
0.3072322834645669
 20
2.9252047244094488
 30
0.0
 10
0.3072322834645669
 20
2.7621417322834647
 30
0.0
 10
0.3072322834645669
 20
2.7621417322834647
 30
0.0
 10
0.3072322834645669
 20
2.7621417322834647
 30
0.0
 10
0.3072322834645669
 20
2.7621417322834647
 30
0.0
 10
-0.7375787401574804
 20
2.7621417322834647
 30
0.0
 10
-0.7375787401574804
 20
2.7621417322834647
 30
0.0
 10
-0.7375787401574804
 20
2.7621417322834647
 30
0.0
 10
-0.7375787401574804
 20
2.7621417322834647
 30
0.0
 10
-0.7375787401574804
 20
4.5308385826771653
 30
0.0
 10
-0.7375787401574804
 20
4.5308385826771653
 30
0.0
  0
TEXT
  5
27
100
AcDbEntity
  8
Layer 1
100
AcDbText
 10
-0.500717
 20
2.273831
 30
0.0
 40
0.119999
  1
BA  1544
 51
-0.000002
  7
Bookman Old Style
100
AcDbText
  0
TEXT
  5
28
100
AcDbEntity
  8
Layer 1
100
AcDbText
 10
-0.817409
 20
2.086331
 30
0.0
 40
0.119999
  1
1-5/16\u+201d x 1-3/4\u+201d
 51
-0.000002
  7
Bookman Old Style
100
AcDbText
  0
SPLINE
  5
29
100
AcDbEntity
  8
Layer 1
 62
   253
100
AcDbSpline
210
0.0
220
0.0
230
1.0
 70
     1
 71
     3
 72
    20
 73
    16
 74
     0
 42
0.0000000001
 43
0.0000000001
 40
0.0
 40
0.0
 40
0.0
 40
0.0
 40
0.25
 40
0.25
 40
0.25
 40
0.25
 40
0.5
 40
0.5
 40
0.5
 40
0.5
 40
0.75
 40
0.75
 40
0.75
 40
0.75
 40
1.0
 40
1.0
 40
1.0
 40
1.0
 10
-0.7857834645669292
 20
1.2893582677165354
 30
0.0
 10
-0.7857834645669292
 20
1.2893582677165354
 30
0.0
 10
-0.1385472440944882
 20
1.6671377952755906
 30
0.0
 10
-0.1385472440944882
 20
1.6671377952755906
 30
0.0
 10
-0.1385472440944882
 20
1.6671377952755906
 30
0.0
 10
-0.1385472440944882
 20
1.6671377952755906
 30
0.0
 10
-0.0539566929133858
 20
1.6671377952755906
 30
0.0
 10
-0.0539566929133858
 20
1.6671377952755906
 30
0.0
 10
-0.0539566929133858
 20
1.6671377952755906
 30
0.0
 10
-0.0539566929133858
 20
1.6671377952755906
 30
0.0
 10
-0.7011929133858268
 20
1.2893582677165354
 30
0.0
 10
-0.7011929133858268
 20
1.2893582677165354
 30
0.0
 10
-0.7011929133858268
 20
1.2893582677165354
 30
0.0
 10
-0.7011929133858268
 20
1.2893582677165354
 30
0.0
 10
-0.7857834645669292
 20
1.2893582677165354
 30
0.0
 10
-0.7857834645669292
 20
1.2893582677165354
 30
0.0
  0
SPLINE
  5
2A
100
AcDbEntity
  8
Layer 1
370
     5
100
AcDbSpline
210
0.0
220
0.0
230
1.0
 70
     1
 71
     3
 72
    20
 73
    16
 74
     0
 42
0.0000000001
 43
0.0000000001
 40
0.0
 40
0.0
 40
0.0
 40
0.0
 40
0.25
 40
0.25
 40
0.25
 40
0.25
 40
0.5
 40
0.5
 40
0.5
 40
0.5
 40
0.75
 40
0.75
 40
0.75
 40
0.75
 40
1.0
 40
1.0
 40
1.0
 40
1.0
 10
-0.7857834645669292
 20
1.2893582677165354
 30
0.0
 10
-0.7857834645669292
 20
1.2893582677165354
 30
0.0
 10
-0.1385472440944882
 20
1.6671377952755906
 30
0.0
 10
-0.1385472440944882
 20
1.6671377952755906
 30
0.0
 10
-0.1385472440944882
 20
1.6671377952755906
 30
0.0
 10
-0.1385472440944882
 20
1.6671377952755906
 30
0.0
 10
-0.0539566929133858
 20
1.6671377952755906
 30
0.0
 10
-0.0539566929133858
 20
1.6671377952755906
 30
0.0
 10
-0.0539566929133858
 20
1.6671377952755906
 30
0.0
 10
-0.0539566929133858
 20
1.6671377952755906
 30
0.0
 10
-0.7011929133858268
 20
1.2893582677165354
 30
0.0
 10
-0.7011929133858268
 20
1.2893582677165354
 30
0.0
 10
-0.7011929133858268
 20
1.2893582677165354
 30
0.0
 10
-0.7011929133858268
 20
1.2893582677165354
 30
0.0
 10
-0.7857834645669292
 20
1.2893582677165354
 30
0.0
 10
-0.7857834645669292
 20
1.2893582677165354
 30
0.0
  0
SPLINE
  5
2B
100
AcDbEntity
  8
Layer 1
 62
   253
100
AcDbSpline
210
0.0
220
0.0
230
1.0
 70
     1
 71
     3
 72
    20
 73
    16
 74
     0
 42
0.0000000001
 43
0.0000000001
 40
0.0
 40
0.0
 40
0.0
 40
0.0
 40
0.25
 40
0.25
 40
0.25
 40
0.25
 40
0.5
 40
0.5
 40
0.5
 40
0.5
 40
0.75
 40
0.75
 40
0.75
 40
0.75
 40
1.0
 40
1.0
 40
1.0
 40
1.0
 10
-0.7011929133858268
 20
1.2893582677165354
 30
0.0
 10
-0.7011929133858268
 20
1.2893582677165354
 30
0.0
 10
-0.0539566929133858
 20
1.6671377952755906
 30
0.0
 10
-0.0539566929133858
 20
1.6671377952755906
 30
0.0
 10
-0.0539566929133858
 20
1.6671377952755906
 30
0.0
 10
-0.0539566929133858
 20
1.6671377952755906
 30
0.0
 10
-0.0281692913385827
 20
1.6649055118110236
 30
0.0
 10
-0.0281692913385827
 20
1.6649055118110236
 30
0.0
 10
-0.0281692913385827
 20
1.6649055118110236
 30
0.0
 10
-0.0281692913385827
 20
1.6649055118110236
 30
0.0
 10
-0.6754055118110236
 20
1.2871259842519684
 30
0.0
 10
-0.6754055118110236
 20
1.2871259842519684
 30
0.0
 10
-0.6754055118110236
 20
1.2871259842519684
 30
0.0
 10
-0.6754055118110236
 20
1.2871259842519684
 30
0.0
 10
-0.7011929133858268
 20
1.2893582677165354
 30
0.0
 10
-0.7011929133858268
 20
1.2893582677165354
 30
0.0
  0
SPLINE
  5
2C
100
AcDbEntity
  8
Layer 1
 62
   253
100
AcDbSpline
210
0.0
220
0.0
230
1.0
 70
     1
 71
     3
 72
    28
 73
    24
 74
     0
 42
0.0000000001
 43
0.0000000001
 40
0.0
 40
0.0
 40
0.0
 40
0.0
 40
0.1666666666666667
 40
0.1666666666666667
 40
0.1666666666666667
 40
0.1666666666666667
 40
0.3333333333333333
 40
0.3333333333333333
 40
0.3333333333333333
 40
0.3333333333333333
 40
0.5
 40
0.5
 40
0.5
 40
0.5
 40
0.6666666666666666
 40
0.6666666666666666
 40
0.6666666666666666
 40
0.6666666666666666
 40
0.8333333333333333
 40
0.8333333333333333
 40
0.8333333333333333
 40
0.8333333333333333
 40
1.0
 40
1.0
 40
1.0
 40
1.0
 10
-0.6754055118110236
 20
1.2871259842519684
 30
0.0
 10
-0.6754055118110236
 20
1.2871259842519684
 30
0.0
 10
-0.0281692913385827
 20
1.6649055118110236
 30
0.0
 10
-0.0281692913385827
 20
1.6649055118110236
 30
0.0
 10
-0.0281692913385827
 20
1.6649055118110236
 30
0.0
 10
-0.0281692913385827
 20
1.6649055118110236
 30
0.0
 10
-0.0035551181102362
 20
1.6621456692913386
 30
0.0
 10
-0.0035551181102362
 20
1.6621456692913386
 30
0.0
 10
-0.0035551181102362
 20
1.6621456692913386
 30
0.0
 10
-0.0035551181102362
 20
1.6621456692913386
 30
0.0
 10
0.0198937007874016
 20
1.6588307086614174
 30
0.0
 10
0.0198937007874016
 20
1.6588307086614174
 30
0.0
 10
0.0198937007874016
 20
1.6588307086614174
 30
0.0
 10
0.0198937007874016
 20
1.6588307086614174
 30
0.0
 10
-0.6273425196850394
 20
1.2810511811023622
 30
0.0
 10
-0.6273425196850394
 20
1.2810511811023622
 30
0.0
 10
-0.6273425196850394
 20
1.2810511811023622
 30
0.0
 10
-0.6273425196850394
 20
1.2810511811023622
 30
0.0
 10
-0.6507913385826772
 20
1.2843661417322836
 30
0.0
 10
-0.6507913385826772
 20
1.2843661417322836
 30
0.0
 10
-0.6507913385826772
 20
1.2843661417322836
 30
0.0
 10
-0.6507913385826772
 20
1.2843661417322836
 30
0.0
 10
-0.6754055118110236
 20
1.2871259842519684
 30
0.0
 10
-0.6754055118110236
 20
1.2871259842519684
 30
0.0
  0
SPLINE
  5
2D
100
AcDbEntity
  8
Layer 1
 62
   253
100
AcDbSpline
210
0.0
220
0.0
230
1.0
 70
     1
 71
     3
 72
    28
 73
    24
 74
     0
 42
0.0000000001
 43
0.0000000001
 40
0.0
 40
0.0
 40
0.0
 40
0.0
 40
0.1666666666666667
 40
0.1666666666666667
 40
0.1666666666666667
 40
0.1666666666666667
 40
0.3333333333333333
 40
0.3333333333333333
 40
0.3333333333333333
 40
0.3333333333333333
 40
0.5
 40
0.5
 40
0.5
 40
0.5
 40
0.6666666666666666
 40
0.6666666666666666
 40
0.6666666666666666
 40
0.6666666666666666
 40
0.8333333333333333
 40
0.8333333333333333
 40
0.8333333333333333
 40
0.8333333333333333
 40
1.0
 40
1.0
 40
1.0
 40
1.0
 10
-0.6273425196850394
 20
1.2810511811023622
 30
0.0
 10
-0.6273425196850394
 20
1.2810511811023622
 30
0.0
 10
0.0198937007874016
 20
1.6588307086614174
 30
0.0
 10
0.0198937007874016
 20
1.6588307086614174
 30
0.0
 10
0.0198937007874016
 20
1.6588307086614174
 30
0.0
 10
0.0198937007874016
 20
1.6588307086614174
 30
0.0
 10
0.0421692913385827
 20
1.6549527559055119
 30
0.0
 10
0.0421692913385827
 20
1.6549527559055119
 30
0.0
 10
0.0421692913385827
 20
1.6549527559055119
 30
0.0
 10
0.0421692913385827
 20
1.6549527559055119
 30
0.0
 10
0.0632834645669291
 20
1.650476377952756
 30
0.0
 10
0.0632834645669291
 20
1.650476377952756
 30
0.0
 10
0.0632834645669291
 20
1.650476377952756
 30
0.0
 10
0.0632834645669291
 20
1.650476377952756
 30
0.0
 10
-0.5839527559055119
 20
1.2726968503937008
 30
0.0
 10
-0.5839527559055119
 20
1.2726968503937008
 30
0.0
 10
-0.5839527559055119
 20
1.2726968503937008
 30
0.0
 10
-0.5839527559055119
 20
1.2726968503937008
 30
0.0
 10
-0.6050669291338583
 20
1.2771732283464567
 30
0.0
 10
-0.6050669291338583
 20
1.2771732283464567
 30
0.0
 10
-0.6050669291338583
 20
1.2771732283464567
 30
0.0
 10
-0.6050669291338583
 20
1.2771732283464567
 30
0.0
 10
-0.6273425196850394
 20
1.2810511811023622
 30
0.0
 10
-0.6273425196850394
 20
1.2810511811023622
 30
0.0
  0
SPLINE
  5
2E
100
AcDbEntity
  8
Layer 1
 62
   253
100
AcDbSpline
210
0.0
220
0.0
230
1.0
 70
     1
 71
     3
 72
    28
 73
    24
 74
     0
 42
0.0000000001
 43
0.0000000001
 40
0.0
 40
0.0
 40
0.0
 40
0.0
 40
0.1666666666666667
 40
0.1666666666666667
 40
0.1666666666666667
 40
0.1666666666666667
 40
0.3333333333333333
 40
0.3333333333333333
 40
0.3333333333333333
 40
0.3333333333333333
 40
0.5
 40
0.5
 40
0.5
 40
0.5
 40
0.6666666666666666
 40
0.6666666666666666
 40
0.6666666666666666
 40
0.6666666666666666
 40
0.8333333333333333
 40
0.8333333333333333
 40
0.8333333333333333
 40
0.8333333333333333
 40
1.0
 40
1.0
 40
1.0
 40
1.0
 10
-0.5839527559055119
 20
1.2726968503937008
 30
0.0
 10
-0.5839527559055119
 20
1.2726968503937008
 30
0.0
 10
0.0632834645669291
 20
1.650476377952756
 30
0.0
 10
0.0632834645669291
 20
1.650476377952756
 30
0.0
 10
0.0632834645669291
 20
1.650476377952756
 30
0.0
 10
0.0632834645669291
 20
1.650476377952756
 30
0.0
 10
0.0832165354330709
 20
1.6454015748031496
 30
0.0
 10
0.0832165354330709
 20
1.6454015748031496
 30
0.0
 10
0.0832165354330709
 20
1.6454015748031496
 30
0.0
 10
0.0832165354330709
 20
1.6454015748031496
 30
0.0
 10
0.1019803149606299
 20
1.6396968503937008
 30
0.0
 10
0.1019803149606299
 20
1.6396968503937008
 30
0.0
 10
0.1019803149606299
 20
1.6396968503937008
 30
0.0
 10
0.1019803149606299
 20
1.6396968503937008
 30
0.0
 10
-0.545255905511811
 20
1.2619173228346456
 30
0.0
 10
-0.545255905511811
 20
1.2619173228346456
 30
0.0
 10
-0.545255905511811
 20
1.2619173228346456
 30
0.0
 10
-0.545255905511811
 20
1.2619173228346456
 30
0.0
 10
-0.5640196850393701
 20
1.2676220472440944
 30
0.0
 10
-0.5640196850393701
 20
1.2676220472440944
 30
0.0
 10
-0.5640196850393701
 20
1.2676220472440944
 30
0.0
 10
-0.5640196850393701
 20
1.2676220472440944
 30
0.0
 10
-0.5839527559055119
 20
1.2726968503937008
 30
0.0
 10
-0.5839527559055119
 20
1.2726968503937008
 30
0.0
  0
SPLINE
  5
2F
100
AcDbEntity
  8
Layer 1
 62
   253
100
AcDbSpline
210
0.0
220
0.0
230
1.0
 70
     1
 71
     3
 72
    28
 73
    24
 74
     0
 42
0.0000000001
 43
0.0000000001
 40
0.0
 40
0.0
 40
0.0
 40
0.0
 40
0.1666666666666667
 40
0.1666666666666667
 40
0.1666666666666667
 40
0.1666666666666667
 40
0.3333333333333333
 40
0.3333333333333333
 40
0.3333333333333333
 40
0.3333333333333333
 40
0.5
 40
0.5
 40
0.5
 40
0.5
 40
0.6666666666666666
 40
0.6666666666666666
 40
0.6666666666666666
 40
0.6666666666666666
 40
0.8333333333333333
 40
0.8333333333333333
 40
0.8333333333333333
 40
0.8333333333333333
 40
1.0
 40
1.0
 40
1.0
 40
1.0
 10
-0.545255905511811
 20
1.2619173228346456
 30
0.0
 10
-0.545255905511811
 20
1.2619173228346456
 30
0.0
 10
0.1019803149606299
 20
1.6396968503937008
 30
0.0
 10
0.1019803149606299
 20
1.6396968503937008
 30
0.0
 10
0.1019803149606299
 20
1.6396968503937008
 30
0.0
 10
0.1019803149606299
 20
1.6396968503937008
 30
0.0
 10
0.1195669291338583
 20
1.6333543307086615
 30
0.0
 10
0.1195669291338583
 20
1.6333543307086615
 30
0.0
 10
0.1195669291338583
 20
1.6333543307086615
 30
0.0
 10
0.1195669291338583
 20
1.6333543307086615
 30
0.0
 10
0.1359842519685039
 20
1.6263464566929136
 30
0.0
 10
0.1359842519685039
 20
1.6263464566929136
 30
0.0
 10
0.1359842519685039
 20
1.6263464566929136
 30
0.0
 10
0.1359842519685039
 20
1.6263464566929136
 30
0.0
 10
-0.5112519685039371
 20
1.2485669291338584
 30
0.0
 10
-0.5112519685039371
 20
1.2485669291338584
 30
0.0
 10
-0.5112519685039371
 20
1.2485669291338584
 30
0.0
 10
-0.5112519685039371
 20
1.2485669291338584
 30
0.0
 10
-0.5276692913385827
 20
1.2555748031496063
 30
0.0
 10
-0.5276692913385827
 20
1.2555748031496063
 30
0.0
 10
-0.5276692913385827
 20
1.2555748031496063
 30
0.0
 10
-0.5276692913385827
 20
1.2555748031496063
 30
0.0
 10
-0.545255905511811
 20
1.2619173228346456
 30
0.0
 10
-0.545255905511811
 20
1.2619173228346456
 30
0.0
  0
SPLINE
  5
30
100
AcDbEntity
  8
Layer 1
 62
     9
100
AcDbSpline
210
0.0
220
0.0
230
1.0
 70
     1
 71
     3
 72
    36
 73
    32
 74
     0
 42
0.0000000001
 43
0.0000000001
 40
0.0
 40
0.0
 40
0.0
 40
0.0
 40
0.125
 40
0.125
 40
0.125
 40
0.125
 40
0.25
 40
0.25
 40
0.25
 40
0.25
 40
0.375
 40
0.375
 40
0.375
 40
0.375
 40
0.5
 40
0.5
 40
0.5
 40
0.5
 40
0.625
 40
0.625
 40
0.625
 40
0.625
 40
0.75
 40
0.75
 40
0.75
 40
0.75
 40
0.875
 40
0.875
 40
0.875
 40
0.875
 40
1.0
 40
1.0
 40
1.0
 40
1.0
 10
-0.5112519685039371
 20
1.2485669291338584
 30
0.0
 10
-0.5112519685039371
 20
1.2485669291338584
 30
0.0
 10
0.1359842519685039
 20
1.6263464566929136
 30
0.0
 10
0.1359842519685039
 20
1.6263464566929136
 30
0.0
 10
0.1359842519685039
 20
1.6263464566929136
 30
0.0
 10
0.1359842519685039
 20
1.6263464566929136
 30
0.0
 10
0.1512204724409449
 20
1.6186614173228346
 30
0.0
 10
0.1512204724409449
 20
1.6186614173228346
 30
0.0
 10
0.1512204724409449
 20
1.6186614173228346
 30
0.0
 10
0.1512204724409449
 20
1.6186614173228346
 30
0.0
 10
0.1652795275590551
 20
1.6102755905511812
 30
0.0
 10
0.1652795275590551
 20
1.6102755905511812
 30
0.0
 10
0.1652795275590551
 20
1.6102755905511812
 30
0.0
 10
0.1652795275590551
 20
1.6102755905511812
 30
0.0
 10
0.1781535433070866
 20
1.6011889763779528
 30
0.0
 10
0.1781535433070866
 20
1.6011889763779528
 30
0.0
 10
0.1781535433070866
 20
1.6011889763779528
 30
0.0
 10
0.1781535433070866
 20
1.6011889763779528
 30
0.0
 10
-0.4690826771653543
 20
1.2234094488188978
 30
0.0
 10
-0.4690826771653543
 20
1.2234094488188978
 30
0.0
 10
-0.4690826771653543
 20
1.2234094488188978
 30
0.0
 10
-0.4690826771653543
 20
1.2234094488188978
 30
0.0
 10
-0.4819566929133858
 20
1.232496062992126
 30
0.0
 10
-0.4819566929133858
 20
1.232496062992126
 30
0.0
 10
-0.4819566929133858
 20
1.232496062992126
 30
0.0
 10
-0.4819566929133858
 20
1.232496062992126
 30
0.0
 10
-0.4960157480314961
 20
1.2408818897637797
 30
0.0
 10
-0.4960157480314961
 20
1.2408818897637797
 30
0.0
 10
-0.4960157480314961
 20
1.2408818897637797
 30
0.0
 10
-0.4960157480314961
 20
1.2408818897637797
 30
0.0
 10
-0.5112519685039371
 20
1.2485669291338584
 30
0.0
 10
-0.5112519685039371
 20
1.2485669291338584
 30
0.0
  0
SPLINE
  5
31
100
AcDbEntity
  8
Layer 1
 62
     9
100
AcDbSpline
210
0.0
220
0.0
230
1.0
 70
     1
 71
     3
 72
    36
 73
    32
 74
     0
 42
0.0000000001
 43
0.0000000001
 40
0.0
 40
0.0
 40
0.0
 40
0.0
 40
0.125
 40
0.125
 40
0.125
 40
0.125
 40
0.25
 40
0.25
 40
0.25
 40
0.25
 40
0.375
 40
0.375
 40
0.375
 40
0.375
 40
0.5
 40
0.5
 40
0.5
 40
0.5
 40
0.625
 40
0.625
 40
0.625
 40
0.625
 40
0.75
 40
0.75
 40
0.75
 40
0.75
 40
0.875
 40
0.875
 40
0.875
 40
0.875
 40
1.0
 40
1.0
 40
1.0
 40
1.0
 10
-0.4690826771653543
 20
1.2234094488188978
 30
0.0
 10
-0.4690826771653543
 20
1.2234094488188978
 30
0.0
 10
0.1781535433070866
 20
1.6011889763779528
 30
0.0
 10
0.1781535433070866
 20
1.6011889763779528
 30
0.0
 10
0.1781535433070866
 20
1.6011889763779528
 30
0.0
 10
0.1781535433070866
 20
1.6011889763779528
 30
0.0
 10
0.1898543307086614
 20
1.5913582677165354
 30
0.0
 10
0.1898543307086614
 20
1.5913582677165354
 30
0.0
 10
0.1898543307086614
 20
1.5913582677165354
 30
0.0
 10
0.1898543307086614
 20
1.5913582677165354
 30
0.0
 10
0.2003661417322835
 20
1.5807795275590553
 30
0.0
 10
0.2003661417322835
 20
1.5807795275590553
 30
0.0
 10
0.2003661417322835
 20
1.5807795275590553
 30
0.0
 10
0.2003661417322835
 20
1.5807795275590553
 30
0.0
 10
0.2096968503937008
 20
1.5694330708661417
 30
0.0
 10
0.2096968503937008
 20
1.5694330708661417
 30
0.0
 10
0.2096968503937008
 20
1.5694330708661417
 30
0.0
 10
0.2096968503937008
 20
1.5694330708661417
 30
0.0
 10
-0.4375393700787402
 20
1.1916535433070867
 30
0.0
 10
-0.4375393700787402
 20
1.1916535433070867
 30
0.0
 10
-0.4375393700787402
 20
1.1916535433070867
 30
0.0
 10
-0.4375393700787402
 20
1.1916535433070867
 30
0.0
 10
-0.4468700787401575
 20
1.2030000000000001
 30
0.0
 10
-0.4468700787401575
 20
1.2030000000000001
 30
0.0
 10
-0.4468700787401575
 20
1.2030000000000001
 30
0.0
 10
-0.4468700787401575
 20
1.2030000000000001
 30
0.0
 10
-0.4573818897637795
 20
1.2135787401574805
 30
0.0
 10
-0.4573818897637795
 20
1.2135787401574805
 30
0.0
 10
-0.4573818897637795
 20
1.2135787401574805
 30
0.0
 10
-0.4573818897637795
 20
1.2135787401574805
 30
0.0
 10
-0.4690826771653543
 20
1.2234094488188978
 30
0.0
 10
-0.4690826771653543
 20
1.2234094488188978
 30
0.0
  0
SPLINE
  5
32
100
AcDbEntity
  8
Layer 1
 62
     9
100
AcDbSpline
210
0.0
220
0.0
230
1.0
 70
     1
 71
     3
 72
    36
 73
    32
 74
     0
 42
0.0000000001
 43
0.0000000001
 40
0.0
 40
0.0
 40
0.0
 40
0.0
 40
0.125
 40
0.125
 40
0.125
 40
0.125
 40
0.25
 40
0.25
 40
0.25
 40
0.25
 40
0.375
 40
0.375
 40
0.375
 40
0.375
 40
0.5
 40
0.5
 40
0.5
 40
0.5
 40
0.625
 40
0.625
 40
0.625
 40
0.625
 40
0.75
 40
0.75
 40
0.75
 40
0.75
 40
0.875
 40
0.875
 40
0.875
 40
0.875
 40
1.0
 40
1.0
 40
1.0
 40
1.0
 10
-0.4375393700787402
 20
1.1916535433070867
 30
0.0
 10
-0.4375393700787402
 20
1.1916535433070867
 30
0.0
 10
0.2096968503937008
 20
1.5694330708661417
 30
0.0
 10
0.2096968503937008
 20
1.5694330708661417
 30
0.0
 10
0.2096968503937008
 20
1.5694330708661417
 30
0.0
 10
0.2096968503937008
 20
1.5694330708661417
 30
0.0
 10
0.2178385826771654
 20
1.5573070866141734
 30
0.0
 10
0.2178385826771654
 20
1.5573070866141734
 30
0.0
 10
0.2178385826771654
 20
1.5573070866141734
 30
0.0
 10
0.2178385826771654
 20
1.5573070866141734
 30
0.0
 10
0.2248070866141732
 20
1.5443622047244094
 30
0.0
 10
0.2248070866141732
 20
1.5443622047244094
 30
0.0
 10
0.2248070866141732
 20
1.5443622047244094
 30
0.0
 10
0.2248070866141732
 20
1.5443622047244094
 30
0.0
 10
0.2305787401574803
 20
1.5306023622047245
 30
0.0
 10
0.2305787401574803
 20
1.5306023622047245
 30
0.0
 10
0.2305787401574803
 20
1.5306023622047245
 30
0.0
 10
0.2305787401574803
 20
1.5306023622047245
 30
0.0
 10
-0.4166574803149606
 20
1.1528228346456693
 30
0.0
 10
-0.4166574803149606
 20
1.1528228346456693
 30
0.0
 10
-0.4166574803149606
 20
1.1528228346456693
 30
0.0
 10
-0.4166574803149606
 20
1.1528228346456693
 30
0.0
 10
-0.4224291338582678
 20
1.1665826771653545
 30
0.0
 10
-0.4224291338582678
 20
1.1665826771653545
 30
0.0
 10
-0.4224291338582678
 20
1.1665826771653545
 30
0.0
 10
-0.4224291338582678
 20
1.1665826771653545
 30
0.0
 10
-0.4293976377952756
 20
1.1795275590551182
 30
0.0
 10
-0.4293976377952756
 20
1.1795275590551182
 30
0.0
 10
-0.4293976377952756
 20
1.1795275590551182
 30
0.0
 10
-0.4293976377952756
 20
1.1795275590551182
 30
0.0
 10
-0.4375393700787402
 20
1.1916535433070867
 30
0.0
 10
-0.4375393700787402
 20
1.1916535433070867
 30
0.0
  0
SPLINE
  5
33
100
AcDbEntity
  8
Layer 1
 62
     9
100
AcDbSpline
210
0.0
220
0.0
230
1.0
 70
     1
 71
     3
 72
    36
 73
    32
 74
     0
 42
0.0000000001
 43
0.0000000001
 40
0.0
 40
0.0
 40
0.0
 40
0.0
 40
0.125
 40
0.125
 40
0.125
 40
0.125
 40
0.25
 40
0.25
 40
0.25
 40
0.25
 40
0.375
 40
0.375
 40
0.375
 40
0.375
 40
0.5
 40
0.5
 40
0.5
 40
0.5
 40
0.625
 40
0.625
 40
0.625
 40
0.625
 40
0.75
 40
0.75
 40
0.75
 40
0.75
 40
0.875
 40
0.875
 40
0.875
 40
0.875
 40
1.0
 40
1.0
 40
1.0
 40
1.0
 10
-0.4166574803149606
 20
1.1528228346456693
 30
0.0
 10
-0.4166574803149606
 20
1.1528228346456693
 30
0.0
 10
0.2305787401574803
 20
1.5306023622047245
 30
0.0
 10
0.2305787401574803
 20
1.5306023622047245
 30
0.0
 10
0.2305787401574803
 20
1.5306023622047245
 30
0.0
 10
0.2305787401574803
 20
1.5306023622047245
 30
0.0
 10
0.2351653543307087
 20
1.516
 30
0.0
 10
0.2351653543307087
 20
1.516
 30
0.0
 10
0.2351653543307087
 20
1.516
 30
0.0
 10
0.2351653543307087
 20
1.516
 30
0.0
 10
0.2385551181102362
 20
1.5005472440944883
 30
0.0
 10
0.2385551181102362
 20
1.5005472440944883
 30
0.0
 10
0.2385551181102362
 20
1.5005472440944883
 30
0.0
 10
0.2385551181102362
 20
1.5005472440944883
 30
0.0
 10
0.2407637795275591
 20
1.4842086614173229
 30
0.0
 10
0.2407637795275591
 20
1.4842086614173229
 30
0.0
 10
0.2407637795275591
 20
1.4842086614173229
 30
0.0
 10
0.2407637795275591
 20
1.4842086614173229
 30
0.0
 10
-0.4064724409448819
 20
1.1064291338582677
 30
0.0
 10
-0.4064724409448819
 20
1.1064291338582677
 30
0.0
 10
-0.4064724409448819
 20
1.1064291338582677
 30
0.0
 10
-0.4064724409448819
 20
1.1064291338582677
 30
0.0
 10
-0.4086811023622047
 20
1.1227677165354331
 30
0.0
 10
-0.4086811023622047
 20
1.1227677165354331
 30
0.0
 10
-0.4086811023622047
 20
1.1227677165354331
 30
0.0
 10
-0.4086811023622047
 20
1.1227677165354331
 30
0.0
 10
-0.4120708661417323
 20
1.1382204724409448
 30
0.0
 10
-0.4120708661417323
 20
1.1382204724409448
 30
0.0
 10
-0.4120708661417323
 20
1.1382204724409448
 30
0.0
 10
-0.4120708661417323
 20
1.1382204724409448
 30
0.0
 10
-0.4166574803149606
 20
1.1528228346456693
 30
0.0
 10
-0.4166574803149606
 20
1.1528228346456693
 30
0.0
  0
SPLINE
  5
34
100
AcDbEntity
  8
Layer 1
 62
     9
100
AcDbSpline
210
0.0
220
0.0
230
1.0
 70
     1
 71
     3
 72
    28
 73
    24
 74
     0
 42
0.0000000001
 43
0.0000000001
 40
0.0
 40
0.0
 40
0.0
 40
0.0
 40
0.1666666666666667
 40
0.1666666666666667
 40
0.1666666666666667
 40
0.1666666666666667
 40
0.3333333333333333
 40
0.3333333333333333
 40
0.3333333333333333
 40
0.3333333333333333
 40
0.5
 40
0.5
 40
0.5
 40
0.5
 40
0.6666666666666666
 40
0.6666666666666666
 40
0.6666666666666666
 40
0.6666666666666666
 40
0.8333333333333333
 40
0.8333333333333333
 40
0.8333333333333333
 40
0.8333333333333333
 40
1.0
 40
1.0
 40
1.0
 40
1.0
 10
-0.4064724409448819
 20
1.1064291338582677
 30
0.0
 10
-0.4064724409448819
 20
1.1064291338582677
 30
0.0
 10
0.2407637795275591
 20
1.4842086614173229
 30
0.0
 10
0.2407637795275591
 20
1.4842086614173229
 30
0.0
 10
0.2407637795275591
 20
1.4842086614173229
 30
0.0
 10
0.2407637795275591
 20
1.4842086614173229
 30
0.0
 10
0.2417716535433071
 20
1.46698031496063
 30
0.0
 10
0.2417716535433071
 20
1.46698031496063
 30
0.0
 10
0.2417716535433071
 20
1.46698031496063
 30
0.0
 10
0.2417716535433071
 20
1.46698031496063
 30
0.0
 10
0.2415905511811024
 20
1.4488346456692913
 30
0.0
 10
0.2415905511811024
 20
1.4488346456692913
 30
0.0
 10
0.2415905511811024
 20
1.4488346456692913
 30
0.0
 10
0.2415905511811024
 20
1.4488346456692913
 30
0.0
 10
-0.4056456692913386
 20
1.0710551181102363
 30
0.0
 10
-0.4056456692913386
 20
1.0710551181102363
 30
0.0
 10
-0.4056456692913386
 20
1.0710551181102363
 30
0.0
 10
-0.4056456692913386
 20
1.0710551181102363
 30
0.0
 10
-0.4054645669291339
 20
1.0892007874015748
 30
0.0
 10
-0.4054645669291339
 20
1.0892007874015748
 30
0.0
 10
-0.4054645669291339
 20
1.0892007874015748
 30
0.0
 10
-0.4054645669291339
 20
1.0892007874015748
 30
0.0
 10
-0.4064724409448819
 20
1.1064291338582677
 30
0.0
 10
-0.4064724409448819
 20
1.1064291338582677
 30
0.0
  0
SPLINE
  5
35
100
AcDbEntity
  8
Layer 1
 62
     9
100
AcDbSpline
210
0.0
220
0.0
230
1.0
 70
     1
 71
     3
 72
    28
 73
    24
 74
     0
 42
0.0000000001
 43
0.0000000001
 40
0.0
 40
0.0
 40
0.0
 40
0.0
 40
0.1666666666666667
 40
0.1666666666666667
 40
0.1666666666666667
 40
0.1666666666666667
 40
0.3333333333333333
 40
0.3333333333333333
 40
0.3333333333333333
 40
0.3333333333333333
 40
0.5
 40
0.5
 40
0.5
 40
0.5
 40
0.6666666666666666
 40
0.6666666666666666
 40
0.6666666666666666
 40
0.6666666666666666
 40
0.8333333333333333
 40
0.8333333333333333
 40
0.8333333333333333
 40
0.8333333333333333
 40
1.0
 40
1.0
 40
1.0
 40
1.0
 10
-0.4056456692913386
 20
1.0710551181102363
 30
0.0
 10
-0.4056456692913386
 20
1.0710551181102363
 30
0.0
 10
0.2415905511811024
 20
1.4488346456692913
 30
0.0
 10
0.2415905511811024
 20
1.4488346456692913
 30
0.0
 10
0.2415905511811024
 20
1.4488346456692913
 30
0.0
 10
0.2415905511811024
 20
1.4488346456692913
 30
0.0
 10
0.2402047244094488
 20
1.4297677165354332
 30
0.0
 10
0.2402047244094488
 20
1.4297677165354332
 30
0.0
 10
0.2402047244094488
 20
1.4297677165354332
 30
0.0
 10
0.2402047244094488
 20
1.4297677165354332
 30
0.0
 10
0.2376377952755906
 20
1.4097440944881889
 30
0.0
 10
0.2376377952755906
 20
1.4097440944881889
 30
0.0
 10
0.2376377952755906
 20
1.4097440944881889
 30
0.0
 10
0.2376377952755906
 20
1.4097440944881889
 30
0.0
 10
-0.4095984251968504
 20
1.031964566929134
 30
0.0
 10
-0.4095984251968504
 20
1.031964566929134
 30
0.0
 10
-0.4095984251968504
 20
1.031964566929134
 30
0.0
 10
-0.4095984251968504
 20
1.031964566929134
 30
0.0
 10
-0.4070314960629922
 20
1.051988188976378
 30
0.0
 10
-0.4070314960629922
 20
1.051988188976378
 30
0.0
 10
-0.4070314960629922
 20
1.051988188976378
 30
0.0
 10
-0.4070314960629922
 20
1.051988188976378
 30
0.0
 10
-0.4056456692913386
 20
1.0710551181102363
 30
0.0
 10
-0.4056456692913386
 20
1.0710551181102363
 30
0.0
  0
SPLINE
  5
36
100
AcDbEntity
  8
Layer 1
 62
     9
100
AcDbSpline
210
0.0
220
0.0
230
1.0
 70
     1
 71
     3
 72
    28
 73
    24
 74
     0
 42
0.0000000001
 43
0.0000000001
 40
0.0
 40
0.0
 40
0.0
 40
0.0
 40
0.1666666666666667
 40
0.1666666666666667
 40
0.1666666666666667
 40
0.1666666666666667
 40
0.3333333333333333
 40
0.3333333333333333
 40
0.3333333333333333
 40
0.3333333333333333
 40
0.5
 40
0.5
 40
0.5
 40
0.5
 40
0.6666666666666666
 40
0.6666666666666666
 40
0.6666666666666666
 40
0.6666666666666666
 40
0.8333333333333333
 40
0.8333333333333333
 40
0.8333333333333333
 40
0.8333333333333333
 40
1.0
 40
1.0
 40
1.0
 40
1.0
 10
-0.4095984251968504
 20
1.031964566929134
 30
0.0
 10
-0.4095984251968504
 20
1.031964566929134
 30
0.0
 10
0.2376377952755906
 20
1.4097440944881889
 30
0.0
 10
0.2376377952755906
 20
1.4097440944881889
 30
0.0
 10
0.2376377952755906
 20
1.4097440944881889
 30
0.0
 10
0.2376377952755906
 20
1.4097440944881889
 30
0.0
 10
0.2338622047244095
 20
1.3887559055118111
 30
0.0
 10
0.2338622047244095
 20
1.3887559055118111
 30
0.0
 10
0.2338622047244095
 20
1.3887559055118111
 30
0.0
 10
0.2338622047244095
 20
1.3887559055118111
 30
0.0
 10
0.2288897637795276
 20
1.3667834645669292
 30
0.0
 10
0.2288897637795276
 20
1.3667834645669292
 30
0.0
 10
0.2288897637795276
 20
1.3667834645669292
 30
0.0
 10
0.2288897637795276
 20
1.3667834645669292
 30
0.0
 10
-0.4183464566929134
 20
0.989003937007874
 30
0.0
 10
-0.4183464566929134
 20
0.989003937007874
 30
0.0
 10
-0.4183464566929134
 20
0.989003937007874
 30
0.0
 10
-0.4183464566929134
 20
0.989003937007874
 30
0.0
 10
-0.4133740157480315
 20
1.0109763779527559
 30
0.0
 10
-0.4133740157480315
 20
1.0109763779527559
 30
0.0
 10
-0.4133740157480315
 20
1.0109763779527559
 30
0.0
 10
-0.4133740157480315
 20
1.0109763779527559
 30
0.0
 10
-0.4095984251968504
 20
1.031964566929134
 30
0.0
 10
-0.4095984251968504
 20
1.031964566929134
 30
0.0
  0
SPLINE
  5
37
100
AcDbEntity
  8
Layer 1
 62
     9
100
AcDbSpline
210
0.0
220
0.0
230
1.0
 70
     1
 71
     3
 72
    28
 73
    24
 74
     0
 42
0.0000000001
 43
0.0000000001
 40
0.0
 40
0.0
 40
0.0
 40
0.0
 40
0.1666666666666667
 40
0.1666666666666667
 40
0.1666666666666667
 40
0.1666666666666667
 40
0.3333333333333333
 40
0.3333333333333333
 40
0.3333333333333333
 40
0.3333333333333333
 40
0.5
 40
0.5
 40
0.5
 40
0.5
 40
0.6666666666666666
 40
0.6666666666666666
 40
0.6666666666666666
 40
0.6666666666666666
 40
0.8333333333333333
 40
0.8333333333333333
 40
0.8333333333333333
 40
0.8333333333333333
 40
1.0
 40
1.0
 40
1.0
 40
1.0
 10
-0.4183464566929134
 20
0.989003937007874
 30
0.0
 10
-0.4183464566929134
 20
0.989003937007874
 30
0.0
 10
0.2288897637795276
 20
1.3667834645669292
 30
0.0
 10
0.2288897637795276
 20
1.3667834645669292
 30
0.0
 10
0.2288897637795276
 20
1.3667834645669292
 30
0.0
 10
0.2288897637795276
 20
1.3667834645669292
 30
0.0
 10
0.2227125984251969
 20
1.3438149606299212
 30
0.0
 10
0.2227125984251969
 20
1.3438149606299212
 30
0.0
 10
0.2227125984251969
 20
1.3438149606299212
 30
0.0
 10
0.2227125984251969
 20
1.3438149606299212
 30
0.0
 10
0.2153425196850394
 20
1.3198188976377954
 30
0.0
 10
0.2153425196850394
 20
1.3198188976377954
 30
0.0
 10
0.2153425196850394
 20
1.3198188976377954
 30
0.0
 10
0.2153425196850394
 20
1.3198188976377954
 30
0.0
 10
-0.4318937007874016
 20
0.9420393700787402
 30
0.0
 10
-0.4318937007874016
 20
0.9420393700787402
 30
0.0
 10
-0.4318937007874016
 20
0.9420393700787402
 30
0.0
 10
-0.4318937007874016
 20
0.9420393700787402
 30
0.0
 10
-0.4245236220472441
 20
0.9660354330708662
 30
0.0
 10
-0.4245236220472441
 20
0.9660354330708662
 30
0.0
 10
-0.4245236220472441
 20
0.9660354330708662
 30
0.0
 10
-0.4245236220472441
 20
0.9660354330708662
 30
0.0
 10
-0.4183464566929134
 20
0.989003937007874
 30
0.0
 10
-0.4183464566929134
 20
0.989003937007874
 30
0.0
  0
SPLINE
  5
38
100
AcDbEntity
  8
Layer 1
 62
     9
100
AcDbSpline
210
0.0
220
0.0
230
1.0
 70
     1
 71
     3
 72
    20
 73
    16
 74
     0
 42
0.0000000001
 43
0.0000000001
 40
0.0
 40
0.0
 40
0.0
 40
0.0
 40
0.25
 40
0.25
 40
0.25
 40
0.25
 40
0.5
 40
0.5
 40
0.5
 40
0.5
 40
0.75
 40
0.75
 40
0.75
 40
0.75
 40
1.0
 40
1.0
 40
1.0
 40
1.0
 10
-0.4318937007874016
 20
0.9420393700787402
 30
0.0
 10
-0.4318937007874016
 20
0.9420393700787402
 30
0.0
 10
0.2153425196850394
 20
1.3198188976377954
 30
0.0
 10
0.2153425196850394
 20
1.3198188976377954
 30
0.0
 10
0.2153425196850394
 20
1.3198188976377954
 30
0.0
 10
0.2153425196850394
 20
1.3198188976377954
 30
0.0
 10
0.2067637795275591
 20
1.2947874015748031
 30
0.0
 10
0.2067637795275591
 20
1.2947874015748031
 30
0.0
 10
0.2067637795275591
 20
1.2947874015748031
 30
0.0
 10
0.2067637795275591
 20
1.2947874015748031
 30
0.0
 10
-0.4404724409448819
 20
0.917007874015748
 30
0.0
 10
-0.4404724409448819
 20
0.917007874015748
 30
0.0
 10
-0.4404724409448819
 20
0.917007874015748
 30
0.0
 10
-0.4404724409448819
 20
0.917007874015748
 30
0.0
 10
-0.4318937007874016
 20
0.9420393700787402
 30
0.0
 10
-0.4318937007874016
 20
0.9420393700787402
 30
0.0
  0
SPLINE
  5
39
100
AcDbEntity
  8
Layer 1
 62
     9
100
AcDbSpline
210
0.0
220
0.0
230
1.0
 70
     1
 71
     3
 72
    20
 73
    16
 74
     0
 42
0.0000000001
 43
0.0000000001
 40
0.0
 40
0.0
 40
0.0
 40
0.0
 40
0.25
 40
0.25
 40
0.25
 40
0.25
 40
0.5
 40
0.5
 40
0.5
 40
0.5
 40
0.75
 40
0.75
 40
0.75
 40
0.75
 40
1.0
 40
1.0
 40
1.0
 40
1.0
 10
-0.4404724409448819
 20
0.917007874015748
 30
0.0
 10
-0.4404724409448819
 20
0.917007874015748
 30
0.0
 10
0.2067637795275591
 20
1.2947874015748031
 30
0.0
 10
0.2067637795275591
 20
1.2947874015748031
 30
0.0
 10
0.2067637795275591
 20
1.2947874015748031
 30
0.0
 10
0.2067637795275591
 20
1.2947874015748031
 30
0.0
 10
0.1969842519685039
 20
1.2687007874015748
 30
0.0
 10
0.1969842519685039
 20
1.2687007874015748
 30
0.0
 10
0.1969842519685039
 20
1.2687007874015748
 30
0.0
 10
0.1969842519685039
 20
1.2687007874015748
 30
0.0
 10
-0.450251968503937
 20
0.8909212598425197
 30
0.0
 10
-0.450251968503937
 20
0.8909212598425197
 30
0.0
 10
-0.450251968503937
 20
0.8909212598425197
 30
0.0
 10
-0.450251968503937
 20
0.8909212598425197
 30
0.0
 10
-0.4404724409448819
 20
0.917007874015748
 30
0.0
 10
-0.4404724409448819
 20
0.917007874015748
 30
0.0
  0
SPLINE
  5
3A
100
AcDbEntity
  8
Layer 1
 62
     9
100
AcDbSpline
210
0.0
220
0.0
230
1.0
 70
     1
 71
     3
 72
    20
 73
    16
 74
     0
 42
0.0000000001
 43
0.0000000001
 40
0.0
 40
0.0
 40
0.0
 40
0.0
 40
0.25
 40
0.25
 40
0.25
 40
0.25
 40
0.5
 40
0.5
 40
0.5
 40
0.5
 40
0.75
 40
0.75
 40
0.75
 40
0.75
 40
1.0
 40
1.0
 40
1.0
 40
1.0
 10
-0.450251968503937
 20
0.8909212598425197
 30
0.0
 10
-0.450251968503937
 20
0.8909212598425197
 30
0.0
 10
0.1969842519685039
 20
1.2687007874015748
 30
0.0
 10
0.1969842519685039
 20
1.2687007874015748
 30
0.0
 10
0.1969842519685039
 20
1.2687007874015748
 30
0.0
 10
0.1969842519685039
 20
1.2687007874015748
 30
0.0
 10
0.185988188976378
 20
1.2415433070866142
 30
0.0
 10
0.185988188976378
 20
1.2415433070866142
 30
0.0
 10
0.185988188976378
 20
1.2415433070866142
 30
0.0
 10
0.185988188976378
 20
1.2415433070866142
 30
0.0
 10
-0.461248031496063
 20
0.8637637795275591
 30
0.0
 10
-0.461248031496063
 20
0.8637637795275591
 30
0.0
 10
-0.461248031496063
 20
0.8637637795275591
 30
0.0
 10
-0.461248031496063
 20
0.8637637795275591
 30
0.0
 10
-0.450251968503937
 20
0.8909212598425197
 30
0.0
 10
-0.450251968503937
 20
0.8909212598425197
 30
0.0
  0
SPLINE
  5
3B
100
AcDbEntity
  8
Layer 1
 62
     9
100
AcDbSpline
210
0.0
220
0.0
230
1.0
 70
     1
 71
     3
 72
    20
 73
    16
 74
     0
 42
0.0000000001
 43
0.0000000001
 40
0.0
 40
0.0
 40
0.0
 40
0.0
 40
0.25
 40
0.25
 40
0.25
 40
0.25
 40
0.5
 40
0.5
 40
0.5
 40
0.5
 40
0.75
 40
0.75
 40
0.75
 40
0.75
 40
1.0
 40
1.0
 40
1.0
 40
1.0
 10
-0.461248031496063
 20
0.8637637795275591
 30
0.0
 10
-0.461248031496063
 20
0.8637637795275591
 30
0.0
 10
0.185988188976378
 20
1.2415433070866142
 30
0.0
 10
0.185988188976378
 20
1.2415433070866142
 30
0.0
 10
0.185988188976378
 20
1.2415433070866142
 30
0.0
 10
0.185988188976378
 20
1.2415433070866142
 30
0.0
 10
0.175259842519685
 20
1.2123228346456694
 30
0.0
 10
0.175259842519685
 20
1.2123228346456694
 30
0.0
 10
0.175259842519685
 20
1.2123228346456694
 30
0.0
 10
0.175259842519685
 20
1.2123228346456694
 30
0.0
 10
-0.4719763779527559
 20
0.8345433070866142
 30
0.0
 10
-0.4719763779527559
 20
0.8345433070866142
 30
0.0
 10
-0.4719763779527559
 20
0.8345433070866142
 30
0.0
 10
-0.4719763779527559
 20
0.8345433070866142
 30
0.0
 10
-0.461248031496063
 20
0.8637637795275591
 30
0.0
 10
-0.461248031496063
 20
0.8637637795275591
 30
0.0
  0
SPLINE
  5
3C
100
AcDbEntity
  8
Layer 1
 62
     9
100
AcDbSpline
210
0.0
220
0.0
230
1.0
 70
     1
 71
     3
 72
    20
 73
    16
 74
     0
 42
0.0000000001
 43
0.0000000001
 40
0.0
 40
0.0
 40
0.0
 40
0.0
 40
0.25
 40
0.25
 40
0.25
 40
0.25
 40
0.5
 40
0.5
 40
0.5
 40
0.5
 40
0.75
 40
0.75
 40
0.75
 40
0.75
 40
1.0
 40
1.0
 40
1.0
 40
1.0
 10
-0.4719763779527559
 20
0.8345433070866142
 30
0.0
 10
-0.4719763779527559
 20
0.8345433070866142
 30
0.0
 10
0.175259842519685
 20
1.2123228346456694
 30
0.0
 10
0.175259842519685
 20
1.2123228346456694
 30
0.0
 10
0.175259842519685
 20
1.2123228346456694
 30
0.0
 10
0.175259842519685
 20
1.2123228346456694
 30
0.0
 10
0.1682952755905512
 20
1.185244094488189
 30
0.0
 10
0.1682952755905512
 20
1.185244094488189
 30
0.0
 10
0.1682952755905512
 20
1.185244094488189
 30
0.0
 10
0.1682952755905512
 20
1.185244094488189
 30
0.0
 10
-0.4789409448818898
 20
0.8074645669291339
 30
0.0
 10
-0.4789409448818898
 20
0.8074645669291339
 30
0.0
 10
-0.4789409448818898
 20
0.8074645669291339
 30
0.0
 10
-0.4789409448818898
 20
0.8074645669291339
 30
0.0
 10
-0.4719763779527559
 20
0.8345433070866142
 30
0.0
 10
-0.4719763779527559
 20
0.8345433070866142
 30
0.0
  0
SPLINE
  5
3D
100
AcDbEntity
  8
Layer 1
 62
     9
100
AcDbSpline
210
0.0
220
0.0
230
1.0
 70
     1
 71
     3
 72
    28
 73
    24
 74
     0
 42
0.0000000001
 43
0.0000000001
 40
0.0
 40
0.0
 40
0.0
 40
0.0
 40
0.1666666666666667
 40
0.1666666666666667
 40
0.1666666666666667
 40
0.1666666666666667
 40
0.3333333333333333
 40
0.3333333333333333
 40
0.3333333333333333
 40
0.3333333333333333
 40
0.5
 40
0.5
 40
0.5
 40
0.5
 40
0.6666666666666666
 40
0.6666666666666666
 40
0.6666666666666666
 40
0.6666666666666666
 40
0.8333333333333333
 40
0.8333333333333333
 40
0.8333333333333333
 40
0.8333333333333333
 40
1.0
 40
1.0
 40
1.0
 40
1.0
 10
-0.4789409448818898
 20
0.8074645669291339
 30
0.0
 10
-0.4789409448818898
 20
0.8074645669291339
 30
0.0
 10
0.1682952755905512
 20
1.185244094488189
 30
0.0
 10
0.1682952755905512
 20
1.185244094488189
 30
0.0
 10
0.1682952755905512
 20
1.185244094488189
 30
0.0
 10
0.1682952755905512
 20
1.185244094488189
 30
0.0
 10
0.1649370078740158
 20
1.1602283464566929
 30
0.0
 10
0.1649370078740158
 20
1.1602283464566929
 30
0.0
 10
0.1649370078740158
 20
1.1602283464566929
 30
0.0
 10
0.1649370078740158
 20
1.1602283464566929
 30
0.0
 10
0.164992125984252
 20
1.1371968503937009
 30
0.0
 10
0.164992125984252
 20
1.1371968503937009
 30
0.0
 10
0.164992125984252
 20
1.1371968503937009
 30
0.0
 10
0.164992125984252
 20
1.1371968503937009
 30
0.0
 10
-0.482244094488189
 20
0.7594173228346457
 30
0.0
 10
-0.482244094488189
 20
0.7594173228346457
 30
0.0
 10
-0.482244094488189
 20
0.7594173228346457
 30
0.0
 10
-0.482244094488189
 20
0.7594173228346457
 30
0.0
 10
-0.4822992125984252
 20
0.7824488188976378
 30
0.0
 10
-0.4822992125984252
 20
0.7824488188976378
 30
0.0
 10
-0.4822992125984252
 20
0.7824488188976378
 30
0.0
 10
-0.4822992125984252
 20
0.7824488188976378
 30
0.0
 10
-0.4789409448818898
 20
0.8074645669291339
 30
0.0
 10
-0.4789409448818898
 20
0.8074645669291339
 30
0.0
  0
SPLINE
  5
3E
100
AcDbEntity
  8
Layer 1
 62
     9
100
AcDbSpline
210
0.0
220
0.0
230
1.0
 70
     1
 71
     3
 72
    28
 73
    24
 74
     0
 42
0.0000000001
 43
0.0000000001
 40
0.0
 40
0.0
 40
0.0
 40
0.0
 40
0.1666666666666667
 40
0.1666666666666667
 40
0.1666666666666667
 40
0.1666666666666667
 40
0.3333333333333333
 40
0.3333333333333333
 40
0.3333333333333333
 40
0.3333333333333333
 40
0.5
 40
0.5
 40
0.5
 40
0.5
 40
0.6666666666666666
 40
0.6666666666666666
 40
0.6666666666666666
 40
0.6666666666666666
 40
0.8333333333333333
 40
0.8333333333333333
 40
0.8333333333333333
 40
0.8333333333333333
 40
1.0
 40
1.0
 40
1.0
 40
1.0
 10
-0.482244094488189
 20
0.7594173228346457
 30
0.0
 10
-0.482244094488189
 20
0.7594173228346457
 30
0.0
 10
0.164992125984252
 20
1.1371968503937009
 30
0.0
 10
0.164992125984252
 20
1.1371968503937009
 30
0.0
 10
0.164992125984252
 20
1.1371968503937009
 30
0.0
 10
0.164992125984252
 20
1.1371968503937009
 30
0.0
 10
0.1683031496062992
 20
1.1160590551181102
 30
0.0
 10
0.1683031496062992
 20
1.1160590551181102
 30
0.0
 10
0.1683031496062992
 20
1.1160590551181102
 30
0.0
 10
0.1683031496062992
 20
1.1160590551181102
 30
0.0
 10
0.1746889763779528
 20
1.0967480314960629
 30
0.0
 10
0.1746889763779528
 20
1.0967480314960629
 30
0.0
 10
0.1746889763779528
 20
1.0967480314960629
 30
0.0
 10
0.1746889763779528
 20
1.0967480314960629
 30
0.0
 10
-0.4725472440944882
 20
0.718968503937008
 30
0.0
 10
-0.4725472440944882
 20
0.718968503937008
 30
0.0
 10
-0.4725472440944882
 20
0.718968503937008
 30
0.0
 10
-0.4725472440944882
 20
0.718968503937008
 30
0.0
 10
-0.4789330708661417
 20
0.7382795275590551
 30
0.0
 10
-0.4789330708661417
 20
0.7382795275590551
 30
0.0
 10
-0.4789330708661417
 20
0.7382795275590551
 30
0.0
 10
-0.4789330708661417
 20
0.7382795275590551
 30
0.0
 10
-0.482244094488189
 20
0.7594173228346457
 30
0.0
 10
-0.482244094488189
 20
0.7594173228346457
 30
0.0
  0
SPLINE
  5
3F
100
AcDbEntity
  8
Layer 1
 62
     9
100
AcDbSpline
210
0.0
220
0.0
230
1.0
 70
     1
 71
     3
 72
    28
 73
    24
 74
     0
 42
0.0000000001
 43
0.0000000001
 40
0.0
 40
0.0
 40
0.0
 40
0.0
 40
0.1666666666666667
 40
0.1666666666666667
 40
0.1666666666666667
 40
0.1666666666666667
 40
0.3333333333333333
 40
0.3333333333333333
 40
0.3333333333333333
 40
0.3333333333333333
 40
0.5
 40
0.5
 40
0.5
 40
0.5
 40
0.6666666666666666
 40
0.6666666666666666
 40
0.6666666666666666
 40
0.6666666666666666
 40
0.8333333333333333
 40
0.8333333333333333
 40
0.8333333333333333
 40
0.8333333333333333
 40
1.0
 40
1.0
 40
1.0
 40
1.0
 10
-0.4725472440944882
 20
0.718968503937008
 30
0.0
 10
-0.4725472440944882
 20
0.718968503937008
 30
0.0
 10
0.1746889763779528
 20
1.0967480314960629
 30
0.0
 10
0.1746889763779528
 20
1.0967480314960629
 30
0.0
 10
0.1746889763779528
 20
1.0967480314960629
 30
0.0
 10
0.1746889763779528
 20
1.0967480314960629
 30
0.0
 10
0.1839763779527559
 20
1.0791771653543307
 30
0.0
 10
0.1839763779527559
 20
1.0791771653543307
 30
0.0
 10
0.1839763779527559
 20
1.0791771653543307
 30
0.0
 10
0.1839763779527559
 20
1.0791771653543307
 30
0.0
 10
0.1959842519685039
 20
1.063275590551181
 30
0.0
 10
0.1959842519685039
 20
1.063275590551181
 30
0.0
 10
0.1959842519685039
 20
1.063275590551181
 30
0.0
 10
0.1959842519685039
 20
1.063275590551181
 30
0.0
 10
-0.451251968503937
 20
0.6854960629921261
 30
0.0
 10
-0.451251968503937
 20
0.6854960629921261
 30
0.0
 10
-0.451251968503937
 20
0.6854960629921261
 30
0.0
 10
-0.451251968503937
 20
0.6854960629921261
 30
0.0
 10
-0.4632598425196851
 20
0.7013976377952756
 30
0.0
 10
-0.4632598425196851
 20
0.7013976377952756
 30
0.0
 10
-0.4632598425196851
 20
0.7013976377952756
 30
0.0
 10
-0.4632598425196851
 20
0.7013976377952756
 30
0.0
 10
-0.4725472440944882
 20
0.718968503937008
 30
0.0
 10
-0.4725472440944882
 20
0.718968503937008
 30
0.0
  0
SPLINE
  5
40
100
AcDbEntity
  8
Layer 1
 62
     9
100
AcDbSpline
210
0.0
220
0.0
230
1.0
 70
     1
 71
     3
 72
    28
 73
    24
 74
     0
 42
0.0000000001
 43
0.0000000001
 40
0.0
 40
0.0
 40
0.0
 40
0.0
 40
0.1666666666666667
 40
0.1666666666666667
 40
0.1666666666666667
 40
0.1666666666666667
 40
0.3333333333333333
 40
0.3333333333333333
 40
0.3333333333333333
 40
0.3333333333333333
 40
0.5
 40
0.5
 40
0.5
 40
0.5
 40
0.6666666666666666
 40
0.6666666666666666
 40
0.6666666666666666
 40
0.6666666666666666
 40
0.8333333333333333
 40
0.8333333333333333
 40
0.8333333333333333
 40
0.8333333333333333
 40
1.0
 40
1.0
 40
1.0
 40
1.0
 10
-0.451251968503937
 20
0.6854960629921261
 30
0.0
 10
-0.451251968503937
 20
0.6854960629921261
 30
0.0
 10
0.1959842519685039
 20
1.063275590551181
 30
0.0
 10
0.1959842519685039
 20
1.063275590551181
 30
0.0
 10
0.1959842519685039
 20
1.063275590551181
 30
0.0
 10
0.1959842519685039
 20
1.063275590551181
 30
0.0
 10
0.2105511811023622
 20
1.0489488188976379
 30
0.0
 10
0.2105511811023622
 20
1.0489488188976379
 30
0.0
 10
0.2105511811023622
 20
1.0489488188976379
 30
0.0
 10
0.2105511811023622
 20
1.0489488188976379
 30
0.0
 10
0.227492125984252
 20
1.0361338582677166
 30
0.0
 10
0.227492125984252
 20
1.0361338582677166
 30
0.0
 10
0.227492125984252
 20
1.0361338582677166
 30
0.0
 10
0.227492125984252
 20
1.0361338582677166
 30
0.0
 10
-0.419744094488189
 20
0.6583543307086615
 30
0.0
 10
-0.419744094488189
 20
0.6583543307086615
 30
0.0
 10
-0.419744094488189
 20
0.6583543307086615
 30
0.0
 10
-0.419744094488189
 20
0.6583543307086615
 30
0.0
 10
-0.4366850393700787
 20
0.6711692913385827
 30
0.0
 10
-0.4366850393700787
 20
0.6711692913385827
 30
0.0
 10
-0.4366850393700787
 20
0.6711692913385827
 30
0.0
 10
-0.4366850393700787
 20
0.6711692913385827
 30
0.0
 10
-0.451251968503937
 20
0.6854960629921261
 30
0.0
 10
-0.451251968503937
 20
0.6854960629921261
 30
0.0
  0
SPLINE
  5
41
100
AcDbEntity
  8
Layer 1
 62
   253
100
AcDbSpline
210
0.0
220
0.0
230
1.0
 70
     1
 71
     3
 72
    28
 73
    24
 74
     0
 42
0.0000000001
 43
0.0000000001
 40
0.0
 40
0.0
 40
0.0
 40
0.0
 40
0.1666666666666667
 40
0.1666666666666667
 40
0.1666666666666667
 40
0.1666666666666667
 40
0.3333333333333333
 40
0.3333333333333333
 40
0.3333333333333333
 40
0.3333333333333333
 40
0.5
 40
0.5
 40
0.5
 40
0.5
 40
0.6666666666666666
 40
0.6666666666666666
 40
0.6666666666666666
 40
0.6666666666666666
 40
0.8333333333333333
 40
0.8333333333333333
 40
0.8333333333333333
 40
0.8333333333333333
 40
1.0
 40
1.0
 40
1.0
 40
1.0
 10
-0.419744094488189
 20
0.6583543307086615
 30
0.0
 10
-0.419744094488189
 20
0.6583543307086615
 30
0.0
 10
0.227492125984252
 20
1.0361338582677166
 30
0.0
 10
0.227492125984252
 20
1.0361338582677166
 30
0.0
 10
0.227492125984252
 20
1.0361338582677166
 30
0.0
 10
0.227492125984252
 20
1.0361338582677166
 30
0.0
 10
0.2466377952755906
 20
1.024740157480315
 30
0.0
 10
0.2466377952755906
 20
1.024740157480315
 30
0.0
 10
0.2466377952755906
 20
1.024740157480315
 30
0.0
 10
0.2466377952755906
 20
1.024740157480315
 30
0.0
 10
0.2678070866141732
 20
1.0147007874015748
 30
0.0
 10
0.2678070866141732
 20
1.0147007874015748
 30
0.0
 10
0.2678070866141732
 20
1.0147007874015748
 30
0.0
 10
0.2678070866141732
 20
1.0147007874015748
 30
0.0
 10
-0.3794291338582677
 20
0.6369212598425197
 30
0.0
 10
-0.3794291338582677
 20
0.6369212598425197
 30
0.0
 10
-0.3794291338582677
 20
0.6369212598425197
 30
0.0
 10
-0.3794291338582677
 20
0.6369212598425197
 30
0.0
 10
-0.4005984251968504
 20
0.6469606299212599
 30
0.0
 10
-0.4005984251968504
 20
0.6469606299212599
 30
0.0
 10
-0.4005984251968504
 20
0.6469606299212599
 30
0.0
 10
-0.4005984251968504
 20
0.6469606299212599
 30
0.0
 10
-0.419744094488189
 20
0.6583543307086615
 30
0.0
 10
-0.419744094488189
 20
0.6583543307086615
 30
0.0
  0
SPLINE
  5
42
100
AcDbEntity
  8
Layer 1
 62
   253
100
AcDbSpline
210
0.0
220
0.0
230
1.0
 70
     1
 71
     3
 72
    20
 73
    16
 74
     0
 42
0.0000000001
 43
0.0000000001
 40
0.0
 40
0.0
 40
0.0
 40
0.0
 40
0.25
 40
0.25
 40
0.25
 40
0.25
 40
0.5
 40
0.5
 40
0.5
 40
0.5
 40
0.75
 40
0.75
 40
0.75
 40
0.75
 40
1.0
 40
1.0
 40
1.0
 40
1.0
 10
-0.3794291338582677
 20
0.6369212598425197
 30
0.0
 10
-0.3794291338582677
 20
0.6369212598425197
 30
0.0
 10
0.2678070866141732
 20
1.0147007874015748
 30
0.0
 10
0.2678070866141732
 20
1.0147007874015748
 30
0.0
 10
0.2678070866141732
 20
1.0147007874015748
 30
0.0
 10
0.2678070866141732
 20
1.0147007874015748
 30
0.0
 10
0.2908346456692914
 20
1.0059173228346456
 30
0.0
 10
0.2908346456692914
 20
1.0059173228346456
 30
0.0
 10
0.2908346456692914
 20
1.0059173228346456
 30
0.0
 10
0.2908346456692914
 20
1.0059173228346456
 30
0.0
 10
-0.3564015748031496
 20
0.6281377952755906
 30
0.0
 10
-0.3564015748031496
 20
0.6281377952755906
 30
0.0
 10
-0.3564015748031496
 20
0.6281377952755906
 30
0.0
 10
-0.3564015748031496
 20
0.6281377952755906
 30
0.0
 10
-0.3794291338582677
 20
0.6369212598425197
 30
0.0
 10
-0.3794291338582677
 20
0.6369212598425197
 30
0.0
  0
SPLINE
  5
43
100
AcDbEntity
  8
Layer 1
 62
   253
100
AcDbSpline
210
0.0
220
0.0
230
1.0
 70
     1
 71
     3
 72
    20
 73
    16
 74
     0
 42
0.0000000001
 43
0.0000000001
 40
0.0
 40
0.0
 40
0.0
 40
0.0
 40
0.25
 40
0.25
 40
0.25
 40
0.25
 40
0.5
 40
0.5
 40
0.5
 40
0.5
 40
0.75
 40
0.75
 40
0.75
 40
0.75
 40
1.0
 40
1.0
 40
1.0
 40
1.0
 10
-0.3564015748031496
 20
0.6281377952755906
 30
0.0
 10
-0.3564015748031496
 20
0.6281377952755906
 30
0.0
 10
0.2908346456692914
 20
1.0059173228346456
 30
0.0
 10
0.2908346456692914
 20
1.0059173228346456
 30
0.0
 10
0.2908346456692914
 20
1.0059173228346456
 30
0.0
 10
0.2908346456692914
 20
1.0059173228346456
 30
0.0
 10
0.3155393700787402
 20
0.9983267716535433
 30
0.0
 10
0.3155393700787402
 20
0.9983267716535433
 30
0.0
 10
0.3155393700787402
 20
0.9983267716535433
 30
0.0
 10
0.3155393700787402
 20
0.9983267716535433
 30
0.0
 10
-0.3316968503937008
 20
0.6205472440944883
 30
0.0
 10
-0.3316968503937008
 20
0.6205472440944883
 30
0.0
 10
-0.3316968503937008
 20
0.6205472440944883
 30
0.0
 10
-0.3316968503937008
 20
0.6205472440944883
 30
0.0
 10
-0.3564015748031496
 20
0.6281377952755906
 30
0.0
 10
-0.3564015748031496
 20
0.6281377952755906
 30
0.0
  0
SPLINE
  5
44
100
AcDbEntity
  8
Layer 1
 62
   253
100
AcDbSpline
210
0.0
220
0.0
230
1.0
 70
     1
 71
     3
 72
    20
 73
    16
 74
     0
 42
0.0000000001
 43
0.0000000001
 40
0.0
 40
0.0
 40
0.0
 40
0.0
 40
0.25
 40
0.25
 40
0.25
 40
0.25
 40
0.5
 40
0.5
 40
0.5
 40
0.5
 40
0.75
 40
0.75
 40
0.75
 40
0.75
 40
1.0
 40
1.0
 40
1.0
 40
1.0
 10
-0.3316968503937008
 20
0.6205472440944883
 30
0.0
 10
-0.3316968503937008
 20
0.6205472440944883
 30
0.0
 10
0.3155393700787402
 20
0.9983267716535433
 30
0.0
 10
0.3155393700787402
 20
0.9983267716535433
 30
0.0
 10
0.3155393700787402
 20
0.9983267716535433
 30
0.0
 10
0.3155393700787402
 20
0.9983267716535433
 30
0.0
 10
0.341751968503937
 20
0.9918425196850395
 30
0.0
 10
0.341751968503937
 20
0.9918425196850395
 30
0.0
 10
0.341751968503937
 20
0.9918425196850395
 30
0.0
 10
0.341751968503937
 20
0.9918425196850395
 30
0.0
 10
-0.3054842519685039
 20
0.6140629921259843
 30
0.0
 10
-0.3054842519685039
 20
0.6140629921259843
 30
0.0
 10
-0.3054842519685039
 20
0.6140629921259843
 30
0.0
 10
-0.3054842519685039
 20
0.6140629921259843
 30
0.0
 10
-0.3316968503937008
 20
0.6205472440944883
 30
0.0
 10
-0.3316968503937008
 20
0.6205472440944883
 30
0.0
  0
SPLINE
  5
45
100
AcDbEntity
  8
Layer 1
 62
   253
100
AcDbSpline
210
0.0
220
0.0
230
1.0
 70
     1
 71
     3
 72
    20
 73
    16
 74
     0
 42
0.0000000001
 43
0.0000000001
 40
0.0
 40
0.0
 40
0.0
 40
0.0
 40
0.25
 40
0.25
 40
0.25
 40
0.25
 40
0.5
 40
0.5
 40
0.5
 40
0.5
 40
0.75
 40
0.75
 40
0.75
 40
0.75
 40
1.0
 40
1.0
 40
1.0
 40
1.0
 10
-0.3054842519685039
 20
0.6140629921259843
 30
0.0
 10
-0.3054842519685039
 20
0.6140629921259843
 30
0.0
 10
0.341751968503937
 20
0.9918425196850395
 30
0.0
 10
0.341751968503937
 20
0.9918425196850395
 30
0.0
 10
0.341751968503937
 20
0.9918425196850395
 30
0.0
 10
0.341751968503937
 20
0.9918425196850395
 30
0.0
 10
0.3692913385826772
 20
0.9863937007874016
 30
0.0
 10
0.3692913385826772
 20
0.9863937007874016
 30
0.0
 10
0.3692913385826772
 20
0.9863937007874016
 30
0.0
 10
0.3692913385826772
 20
0.9863937007874016
 30
0.0
 10
-0.2779448818897638
 20
0.6086141732283464
 30
0.0
 10
-0.2779448818897638
 20
0.6086141732283464
 30
0.0
 10
-0.2779448818897638
 20
0.6086141732283464
 30
0.0
 10
-0.2779448818897638
 20
0.6086141732283464
 30
0.0
 10
-0.3054842519685039
 20
0.6140629921259843
 30
0.0
 10
-0.3054842519685039
 20
0.6140629921259843
 30
0.0
  0
SPLINE
  5
46
100
AcDbEntity
  8
Layer 1
 62
   253
100
AcDbSpline
210
0.0
220
0.0
230
1.0
 70
     1
 71
     3
 72
    20
 73
    16
 74
     0
 42
0.0000000001
 43
0.0000000001
 40
0.0
 40
0.0
 40
0.0
 40
0.0
 40
0.25
 40
0.25
 40
0.25
 40
0.25
 40
0.5
 40
0.5
 40
0.5
 40
0.5
 40
0.75
 40
0.75
 40
0.75
 40
0.75
 40
1.0
 40
1.0
 40
1.0
 40
1.0
 10
-0.2779448818897638
 20
0.6086141732283464
 30
0.0
 10
-0.2779448818897638
 20
0.6086141732283464
 30
0.0
 10
0.3692913385826772
 20
0.9863937007874016
 30
0.0
 10
0.3692913385826772
 20
0.9863937007874016
 30
0.0
 10
0.3692913385826772
 20
0.9863937007874016
 30
0.0
 10
0.3692913385826772
 20
0.9863937007874016
 30
0.0
 10
0.397992125984252
 20
0.9818818897637796
 30
0.0
 10
0.397992125984252
 20
0.9818818897637796
 30
0.0
 10
0.397992125984252
 20
0.9818818897637796
 30
0.0
 10
0.397992125984252
 20
0.9818818897637796
 30
0.0
 10
-0.249244094488189
 20
0.6041023622047245
 30
0.0
 10
-0.249244094488189
 20
0.6041023622047245
 30
0.0
 10
-0.249244094488189
 20
0.6041023622047245
 30
0.0
 10
-0.249244094488189
 20
0.6041023622047245
 30
0.0
 10
-0.2779448818897638
 20
0.6086141732283464
 30
0.0
 10
-0.2779448818897638
 20
0.6086141732283464
 30
0.0
  0
SPLINE
  5
47
100
AcDbEntity
  8
Layer 1
 62
   253
100
AcDbSpline
210
0.0
220
0.0
230
1.0
 70
     1
 71
     3
 72
    20
 73
    16
 74
     0
 42
0.0000000001
 43
0.0000000001
 40
0.0
 40
0.0
 40
0.0
 40
0.0
 40
0.25
 40
0.25
 40
0.25
 40
0.25
 40
0.5
 40
0.5
 40
0.5
 40
0.5
 40
0.75
 40
0.75
 40
0.75
 40
0.75
 40
1.0
 40
1.0
 40
1.0
 40
1.0
 10
-0.249244094488189
 20
0.6041023622047245
 30
0.0
 10
-0.249244094488189
 20
0.6041023622047245
 30
0.0
 10
0.397992125984252
 20
0.9818818897637796
 30
0.0
 10
0.397992125984252
 20
0.9818818897637796
 30
0.0
 10
0.397992125984252
 20
0.9818818897637796
 30
0.0
 10
0.397992125984252
 20
0.9818818897637796
 30
0.0
 10
0.4276692913385827
 20
0.9782440944881891
 30
0.0
 10
0.4276692913385827
 20
0.9782440944881891
 30
0.0
 10
0.4276692913385827
 20
0.9782440944881891
 30
0.0
 10
0.4276692913385827
 20
0.9782440944881891
 30
0.0
 10
-0.2195669291338583
 20
0.6004645669291339
 30
0.0
 10
-0.2195669291338583
 20
0.6004645669291339
 30
0.0
 10
-0.2195669291338583
 20
0.6004645669291339
 30
0.0
 10
-0.2195669291338583
 20
0.6004645669291339
 30
0.0
 10
-0.249244094488189
 20
0.6041023622047245
 30
0.0
 10
-0.249244094488189
 20
0.6041023622047245
 30
0.0
  0
SPLINE
  5
48
100
AcDbEntity
  8
Layer 1
 62
   253
100
AcDbSpline
210
0.0
220
0.0
230
1.0
 70
     1
 71
     3
 72
    20
 73
    16
 74
     0
 42
0.0000000001
 43
0.0000000001
 40
0.0
 40
0.0
 40
0.0
 40
0.0
 40
0.25
 40
0.25
 40
0.25
 40
0.25
 40
0.5
 40
0.5
 40
0.5
 40
0.5
 40
0.75
 40
0.75
 40
0.75
 40
0.75
 40
1.0
 40
1.0
 40
1.0
 40
1.0
 10
-0.2195669291338583
 20
0.6004645669291339
 30
0.0
 10
-0.2195669291338583
 20
0.6004645669291339
 30
0.0
 10
0.4276692913385827
 20
0.9782440944881891
 30
0.0
 10
0.4276692913385827
 20
0.9782440944881891
 30
0.0
 10
0.4276692913385827
 20
0.9782440944881891
 30
0.0
 10
0.4276692913385827
 20
0.9782440944881891
 30
0.0
 10
0.4581614173228347
 20
0.9753976377952757
 30
0.0
 10
0.4581614173228347
 20
0.9753976377952757
 30
0.0
 10
0.4581614173228347
 20
0.9753976377952757
 30
0.0
 10
0.4581614173228347
 20
0.9753976377952757
 30
0.0
 10
-0.1890748031496063
 20
0.5976181102362205
 30
0.0
 10
-0.1890748031496063
 20
0.5976181102362205
 30
0.0
 10
-0.1890748031496063
 20
0.5976181102362205
 30
0.0
 10
-0.1890748031496063
 20
0.5976181102362205
 30
0.0
 10
-0.2195669291338583
 20
0.6004645669291339
 30
0.0
 10
-0.2195669291338583
 20
0.6004645669291339
 30
0.0
  0
SPLINE
  5
49
100
AcDbEntity
  8
Layer 1
 62
   253
100
AcDbSpline
210
0.0
220
0.0
230
1.0
 70
     1
 71
     3
 72
    20
 73
    16
 74
     0
 42
0.0000000001
 43
0.0000000001
 40
0.0
 40
0.0
 40
0.0
 40
0.0
 40
0.25
 40
0.25
 40
0.25
 40
0.25
 40
0.5
 40
0.5
 40
0.5
 40
0.5
 40
0.75
 40
0.75
 40
0.75
 40
0.75
 40
1.0
 40
1.0
 40
1.0
 40
1.0
 10
-0.1890748031496063
 20
0.5976181102362205
 30
0.0
 10
-0.1890748031496063
 20
0.5976181102362205
 30
0.0
 10
0.4581614173228347
 20
0.9753976377952757
 30
0.0
 10
0.4581614173228347
 20
0.9753976377952757
 30
0.0
 10
0.4581614173228347
 20
0.9753976377952757
 30
0.0
 10
0.4581614173228347
 20
0.9753976377952757
 30
0.0
 10
0.4892755905511811
 20
0.9732637795275591
 30
0.0
 10
0.4892755905511811
 20
0.9732637795275591
 30
0.0
 10
0.4892755905511811
 20
0.9732637795275591
 30
0.0
 10
0.4892755905511811
 20
0.9732637795275591
 30
0.0
 10
-0.1579606299212598
 20
0.595484251968504
 30
0.0
 10
-0.1579606299212598
 20
0.595484251968504
 30
0.0
 10
-0.1579606299212598
 20
0.595484251968504
 30
0.0
 10
-0.1579606299212598
 20
0.595484251968504
 30
0.0
 10
-0.1890748031496063
 20
0.5976181102362205
 30
0.0
 10
-0.1890748031496063
 20
0.5976181102362205
 30
0.0
  0
SPLINE
  5
4A
100
AcDbEntity
  8
Layer 1
 62
   253
100
AcDbSpline
210
0.0
220
0.0
230
1.0
 70
     1
 71
     3
 72
    20
 73
    16
 74
     0
 42
0.0000000001
 43
0.0000000001
 40
0.0
 40
0.0
 40
0.0
 40
0.0
 40
0.25
 40
0.25
 40
0.25
 40
0.25
 40
0.5
 40
0.5
 40
0.5
 40
0.5
 40
0.75
 40
0.75
 40
0.75
 40
0.75
 40
1.0
 40
1.0
 40
1.0
 40
1.0
 10
-0.1579606299212598
 20
0.595484251968504
 30
0.0
 10
-0.1579606299212598
 20
0.595484251968504
 30
0.0
 10
0.4892755905511811
 20
0.9732637795275591
 30
0.0
 10
0.4892755905511811
 20
0.9732637795275591
 30
0.0
 10
0.4892755905511811
 20
0.9732637795275591
 30
0.0
 10
0.4892755905511811
 20
0.9732637795275591
 30
0.0
 10
0.5208543307086614
 20
0.971755905511811
 30
0.0
 10
0.5208543307086614
 20
0.971755905511811
 30
0.0
 10
0.5208543307086614
 20
0.971755905511811
 30
0.0
 10
0.5208543307086614
 20
0.971755905511811
 30
0.0
 10
-0.1263818897637795
 20
0.5939763779527559
 30
0.0
 10
-0.1263818897637795
 20
0.5939763779527559
 30
0.0
 10
-0.1263818897637795
 20
0.5939763779527559
 30
0.0
 10
-0.1263818897637795
 20
0.5939763779527559
 30
0.0
 10
-0.1579606299212598
 20
0.595484251968504
 30
0.0
 10
-0.1579606299212598
 20
0.595484251968504
 30
0.0
  0
SPLINE
  5
4B
100
AcDbEntity
  8
Layer 1
 62
   253
100
AcDbSpline
210
0.0
220
0.0
230
1.0
 70
     1
 71
     3
 72
    20
 73
    16
 74
     0
 42
0.0000000001
 43
0.0000000001
 40
0.0
 40
0.0
 40
0.0
 40
0.0
 40
0.25
 40
0.25
 40
0.25
 40
0.25
 40
0.5
 40
0.5
 40
0.5
 40
0.5
 40
0.75
 40
0.75
 40
0.75
 40
0.75
 40
1.0
 40
1.0
 40
1.0
 40
1.0
 10
-0.1263818897637795
 20
0.5939763779527559
 30
0.0
 10
-0.1263818897637795
 20
0.5939763779527559
 30
0.0
 10
0.5208543307086614
 20
0.971755905511811
 30
0.0
 10
0.5208543307086614
 20
0.971755905511811
 30
0.0
 10
0.5208543307086614
 20
0.971755905511811
 30
0.0
 10
0.5208543307086614
 20
0.971755905511811
 30
0.0
 10
0.5527125984251968
 20
0.9708110236220473
 30
0.0
 10
0.5527125984251968
 20
0.9708110236220473
 30
0.0
 10
0.5527125984251968
 20
0.9708110236220473
 30
0.0
 10
0.5527125984251968
 20
0.9708110236220473
 30
0.0
 10
-0.0945236220472441
 20
0.5930314960629921
 30
0.0
 10
-0.0945236220472441
 20
0.5930314960629921
 30
0.0
 10
-0.0945236220472441
 20
0.5930314960629921
 30
0.0
 10
-0.0945236220472441
 20
0.5930314960629921
 30
0.0
 10
-0.1263818897637795
 20
0.5939763779527559
 30
0.0
 10
-0.1263818897637795
 20
0.5939763779527559
 30
0.0
  0
SPLINE
  5
4C
100
AcDbEntity
  8
Layer 1
 62
   253
100
AcDbSpline
210
0.0
220
0.0
230
1.0
 70
     1
 71
     3
 72
    20
 73
    16
 74
     0
 42
0.0000000001
 43
0.0000000001
 40
0.0
 40
0.0
 40
0.0
 40
0.0
 40
0.25
 40
0.25
 40
0.25
 40
0.25
 40
0.5
 40
0.5
 40
0.5
 40
0.5
 40
0.75
 40
0.75
 40
0.75
 40
0.75
 40
1.0
 40
1.0
 40
1.0
 40
1.0
 10
-0.0945236220472441
 20
0.5930314960629921
 30
0.0
 10
-0.0945236220472441
 20
0.5930314960629921
 30
0.0
 10
0.5527125984251968
 20
0.9708110236220473
 30
0.0
 10
0.5527125984251968
 20
0.9708110236220473
 30
0.0
 10
0.5527125984251968
 20
0.9708110236220473
 30
0.0
 10
0.5527125984251968
 20
0.9708110236220473
 30
0.0
 10
0.5846850393700788
 20
0.9703346456692914
 30
0.0
 10
0.5846850393700788
 20
0.9703346456692914
 30
0.0
 10
0.5846850393700788
 20
0.9703346456692914
 30
0.0
 10
0.5846850393700788
 20
0.9703346456692914
 30
0.0
 10
-0.0625511811023622
 20
0.5925551181102362
 30
0.0
 10
-0.0625511811023622
 20
0.5925551181102362
 30
0.0
 10
-0.0625511811023622
 20
0.5925551181102362
 30
0.0
 10
-0.0625511811023622
 20
0.5925551181102362
 30
0.0
 10
-0.0945236220472441
 20
0.5930314960629921
 30
0.0
 10
-0.0945236220472441
 20
0.5930314960629921
 30
0.0
  0
SPLINE
  5
4D
100
AcDbEntity
  8
Layer 1
 62
   253
100
AcDbSpline
210
0.0
220
0.0
230
1.0
 70
     1
 71
     3
 72
    20
 73
    16
 74
     0
 42
0.0000000001
 43
0.0000000001
 40
0.0
 40
0.0
 40
0.0
 40
0.0
 40
0.25
 40
0.25
 40
0.25
 40
0.25
 40
0.5
 40
0.5
 40
0.5
 40
0.5
 40
0.75
 40
0.75
 40
0.75
 40
0.75
 40
1.0
 40
1.0
 40
1.0
 40
1.0
 10
-0.0625511811023622
 20
0.5925551181102362
 30
0.0
 10
-0.0625511811023622
 20
0.5925551181102362
 30
0.0
 10
0.5846850393700788
 20
0.9703346456692914
 30
0.0
 10
0.5846850393700788
 20
0.9703346456692914
 30
0.0
 10
0.5846850393700788
 20
0.9703346456692914
 30
0.0
 10
0.5846850393700788
 20
0.9703346456692914
 30
0.0
 10
0.6165826771653543
 20
0.9702559055118111
 30
0.0
 10
0.6165826771653543
 20
0.9702559055118111
 30
0.0
 10
0.6165826771653543
 20
0.9702559055118111
 30
0.0
 10
0.6165826771653543
 20
0.9702559055118111
 30
0.0
 10
-0.0306535433070866
 20
0.5924763779527559
 30
0.0
 10
-0.0306535433070866
 20
0.5924763779527559
 30
0.0
 10
-0.0306535433070866
 20
0.5924763779527559
 30
0.0
 10
-0.0306535433070866
 20
0.5924763779527559
 30
0.0
 10
-0.0625511811023622
 20
0.5925551181102362
 30
0.0
 10
-0.0625511811023622
 20
0.5925551181102362
 30
0.0
  0
SPLINE
  5
4E
100
AcDbEntity
  8
Layer 1
 62
   253
100
AcDbSpline
210
0.0
220
0.0
230
1.0
 70
     1
 71
     3
 72
    20
 73
    16
 74
     0
 42
0.0000000001
 43
0.0000000001
 40
0.0
 40
0.0
 40
0.0
 40
0.0
 40
0.25
 40
0.25
 40
0.25
 40
0.25
 40
0.5
 40
0.5
 40
0.5
 40
0.5
 40
0.75
 40
0.75
 40
0.75
 40
0.75
 40
1.0
 40
1.0
 40
1.0
 40
1.0
 10
-0.0306535433070866
 20
0.5924763779527559
 30
0.0
 10
-0.0306535433070866
 20
0.5924763779527559
 30
0.0
 10
0.6165826771653543
 20
0.9702559055118111
 30
0.0
 10
0.6165826771653543
 20
0.9702559055118111
 30
0.0
 10
0.6165826771653543
 20
0.9702559055118111
 30
0.0
 10
0.6165826771653543
 20
0.9702559055118111
 30
0.0
 10
0.648244094488189
 20
0.970484251968504
 30
0.0
 10
0.648244094488189
 20
0.970484251968504
 30
0.0
 10
0.648244094488189
 20
0.970484251968504
 30
0.0
 10
0.648244094488189
 20
0.970484251968504
 30
0.0
 10
0.001007874015748
 20
0.5927047244094489
 30
0.0
 10
0.001007874015748
 20
0.5927047244094489
 30
0.0
 10
0.001007874015748
 20
0.5927047244094489
 30
0.0
 10
0.001007874015748
 20
0.5927047244094489
 30
0.0
 10
-0.0306535433070866
 20
0.5924763779527559
 30
0.0
 10
-0.0306535433070866
 20
0.5924763779527559
 30
0.0
  0
SPLINE
  5
4F
100
AcDbEntity
  8
Layer 1
 62
   253
100
AcDbSpline
210
0.0
220
0.0
230
1.0
 70
     1
 71
     3
 72
    20
 73
    16
 74
     0
 42
0.0000000001
 43
0.0000000001
 40
0.0
 40
0.0
 40
0.0
 40
0.0
 40
0.25
 40
0.25
 40
0.25
 40
0.25
 40
0.5
 40
0.5
 40
0.5
 40
0.5
 40
0.75
 40
0.75
 40
0.75
 40
0.75
 40
1.0
 40
1.0
 40
1.0
 40
1.0
 10
0.001007874015748
 20
0.5927047244094489
 30
0.0
 10
0.001007874015748
 20
0.5927047244094489
 30
0.0
 10
0.648244094488189
 20
0.970484251968504
 30
0.0
 10
0.648244094488189
 20
0.970484251968504
 30
0.0
 10
0.648244094488189
 20
0.970484251968504
 30
0.0
 10
0.648244094488189
 20
0.970484251968504
 30
0.0
 10
0.679492125984252
 20
0.9709527559055119
 30
0.0
 10
0.679492125984252
 20
0.9709527559055119
 30
0.0
 10
0.679492125984252
 20
0.9709527559055119
 30
0.0
 10
0.679492125984252
 20
0.9709527559055119
 30
0.0
 10
0.032255905511811
 20
0.5931732283464567
 30
0.0
 10
0.032255905511811
 20
0.5931732283464567
 30
0.0
 10
0.032255905511811
 20
0.5931732283464567
 30
0.0
 10
0.032255905511811
 20
0.5931732283464567
 30
0.0
 10
0.001007874015748
 20
0.5927047244094489
 30
0.0
 10
0.001007874015748
 20
0.5927047244094489
 30
0.0
  0
SPLINE
  5
50
100
AcDbEntity
  8
Layer 1
 62
   253
100
AcDbSpline
210
0.0
220
0.0
230
1.0
 70
     1
 71
     3
 72
    20
 73
    16
 74
     0
 42
0.0000000001
 43
0.0000000001
 40
0.0
 40
0.0
 40
0.0
 40
0.0
 40
0.25
 40
0.25
 40
0.25
 40
0.25
 40
0.5
 40
0.5
 40
0.5
 40
0.5
 40
0.75
 40
0.75
 40
0.75
 40
0.75
 40
1.0
 40
1.0
 40
1.0
 40
1.0
 10
0.032255905511811
 20
0.5931732283464567
 30
0.0
 10
0.032255905511811
 20
0.5931732283464567
 30
0.0
 10
0.679492125984252
 20
0.9709527559055119
 30
0.0
 10
0.679492125984252
 20
0.9709527559055119
 30
0.0
 10
0.679492125984252
 20
0.9709527559055119
 30
0.0
 10
0.679492125984252
 20
0.9709527559055119
 30
0.0
 10
0.7101496062992126
 20
0.9715748031496063
 30
0.0
 10
0.7101496062992126
 20
0.9715748031496063
 30
0.0
 10
0.7101496062992126
 20
0.9715748031496063
 30
0.0
 10
0.7101496062992126
 20
0.9715748031496063
 30
0.0
 10
0.0629133858267717
 20
0.5937952755905512
 30
0.0
 10
0.0629133858267717
 20
0.5937952755905512
 30
0.0
 10
0.0629133858267717
 20
0.5937952755905512
 30
0.0
 10
0.0629133858267717
 20
0.5937952755905512
 30
0.0
 10
0.032255905511811
 20
0.5931732283464567
 30
0.0
 10
0.032255905511811
 20
0.5931732283464567
 30
0.0
  0
SPLINE
  5
51
100
AcDbEntity
  8
Layer 1
 62
   253
100
AcDbSpline
210
0.0
220
0.0
230
1.0
 70
     1
 71
     3
 72
    20
 73
    16
 74
     0
 42
0.0000000001
 43
0.0000000001
 40
0.0
 40
0.0
 40
0.0
 40
0.0
 40
0.25
 40
0.25
 40
0.25
 40
0.25
 40
0.5
 40
0.5
 40
0.5
 40
0.5
 40
0.75
 40
0.75
 40
0.75
 40
0.75
 40
1.0
 40
1.0
 40
1.0
 40
1.0
 10
0.0629133858267717
 20
0.5937952755905512
 30
0.0
 10
0.0629133858267717
 20
0.5937952755905512
 30
0.0
 10
0.7101496062992126
 20
0.9715748031496063
 30
0.0
 10
0.7101496062992126
 20
0.9715748031496063
 30
0.0
 10
0.7101496062992126
 20
0.9715748031496063
 30
0.0
 10
0.7101496062992126
 20
0.9715748031496063
 30
0.0
 10
0.7400551181102363
 20
0.9722795275590551
 30
0.0
 10
0.7400551181102363
 20
0.9722795275590551
 30
0.0
 10
0.7400551181102363
 20
0.9722795275590551
 30
0.0
 10
0.7400551181102363
 20
0.9722795275590551
 30
0.0
 10
0.0928188976377953
 20
0.5945
 30
0.0
 10
0.0928188976377953
 20
0.5945
 30
0.0
 10
0.0928188976377953
 20
0.5945
 30
0.0
 10
0.0928188976377953
 20
0.5945
 30
0.0
 10
0.0629133858267717
 20
0.5937952755905512
 30
0.0
 10
0.0629133858267717
 20
0.5937952755905512
 30
0.0
  0
SPLINE
  5
52
100
AcDbEntity
  8
Layer 1
 62
   253
100
AcDbSpline
210
0.0
220
0.0
230
1.0
 70
     1
 71
     3
 72
    20
 73
    16
 74
     0
 42
0.0000000001
 43
0.0000000001
 40
0.0
 40
0.0
 40
0.0
 40
0.0
 40
0.25
 40
0.25
 40
0.25
 40
0.25
 40
0.5
 40
0.5
 40
0.5
 40
0.5
 40
0.75
 40
0.75
 40
0.75
 40
0.75
 40
1.0
 40
1.0
 40
1.0
 40
1.0
 10
0.0928188976377953
 20
0.5945
 30
0.0
 10
0.0928188976377953
 20
0.5945
 30
0.0
 10
0.7400551181102363
 20
0.9722795275590551
 30
0.0
 10
0.7400551181102363
 20
0.9722795275590551
 30
0.0
 10
0.7400551181102363
 20
0.9722795275590551
 30
0.0
 10
0.7400551181102363
 20
0.9722795275590551
 30
0.0
 10
0.769011811023622
 20
0.9729724409448819
 30
0.0
 10
0.769011811023622
 20
0.9729724409448819
 30
0.0
 10
0.769011811023622
 20
0.9729724409448819
 30
0.0
 10
0.769011811023622
 20
0.9729724409448819
 30
0.0
 10
0.1217755905511811
 20
0.5951929133858268
 30
0.0
 10
0.1217755905511811
 20
0.5951929133858268
 30
0.0
 10
0.1217755905511811
 20
0.5951929133858268
 30
0.0
 10
0.1217755905511811
 20
0.5951929133858268
 30
0.0
 10
0.0928188976377953
 20
0.5945
 30
0.0
 10
0.0928188976377953
 20
0.5945
 30
0.0
  0
SPLINE
  5
53
100
AcDbEntity
  8
Layer 1
 62
   253
100
AcDbSpline
210
0.0
220
0.0
230
1.0
 70
     1
 71
     3
 72
    20
 73
    16
 74
     0
 42
0.0000000001
 43
0.0000000001
 40
0.0
 40
0.0
 40
0.0
 40
0.0
 40
0.25
 40
0.25
 40
0.25
 40
0.25
 40
0.5
 40
0.5
 40
0.5
 40
0.5
 40
0.75
 40
0.75
 40
0.75
 40
0.75
 40
1.0
 40
1.0
 40
1.0
 40
1.0
 10
0.1217755905511811
 20
0.5951929133858268
 30
0.0
 10
0.1217755905511811
 20
0.5951929133858268
 30
0.0
 10
0.769011811023622
 20
0.9729724409448819
 30
0.0
 10
0.769011811023622
 20
0.9729724409448819
 30
0.0
 10
0.769011811023622
 20
0.9729724409448819
 30
0.0
 10
0.769011811023622
 20
0.9729724409448819
 30
0.0
 10
0.7968661417322835
 20
0.9735866141732283
 30
0.0
 10
0.7968661417322835
 20
0.9735866141732283
 30
0.0
 10
0.7968661417322835
 20
0.9735866141732283
 30
0.0
 10
0.7968661417322835
 20
0.9735866141732283
 30
0.0
 10
0.1496299212598425
 20
0.5958070866141733
 30
0.0
 10
0.1496299212598425
 20
0.5958070866141733
 30
0.0
 10
0.1496299212598425
 20
0.5958070866141733
 30
0.0
 10
0.1496299212598425
 20
0.5958070866141733
 30
0.0
 10
0.1217755905511811
 20
0.5951929133858268
 30
0.0
 10
0.1217755905511811
 20
0.5951929133858268
 30
0.0
  0
SPLINE
  5
54
100
AcDbEntity
  8
Layer 1
 62
   253
100
AcDbSpline
210
0.0
220
0.0
230
1.0
 70
     1
 71
     3
 72
    20
 73
    16
 74
     0
 42
0.0000000001
 43
0.0000000001
 40
0.0
 40
0.0
 40
0.0
 40
0.0
 40
0.25
 40
0.25
 40
0.25
 40
0.25
 40
0.5
 40
0.5
 40
0.5
 40
0.5
 40
0.75
 40
0.75
 40
0.75
 40
0.75
 40
1.0
 40
1.0
 40
1.0
 40
1.0
 10
0.1496299212598425
 20
0.5958070866141733
 30
0.0
 10
0.1496299212598425
 20
0.5958070866141733
 30
0.0
 10
0.7968661417322835
 20
0.9735866141732283
 30
0.0
 10
0.7968661417322835
 20
0.9735866141732283
 30
0.0
 10
0.7968661417322835
 20
0.9735866141732283
 30
0.0
 10
0.7968661417322835
 20
0.9735866141732283
 30
0.0
 10
0.8234251968503937
 20
0.9740393700787402
 30
0.0
 10
0.8234251968503937
 20
0.9740393700787402
 30
0.0
 10
0.8234251968503937
 20
0.9740393700787402
 30
0.0
 10
0.8234251968503937
 20
0.9740393700787402
 30
0.0
 10
0.1761889763779528
 20
0.5962598425196851
 30
0.0
 10
0.1761889763779528
 20
0.5962598425196851
 30
0.0
 10
0.1761889763779528
 20
0.5962598425196851
 30
0.0
 10
0.1761889763779528
 20
0.5962598425196851
 30
0.0
 10
0.1496299212598425
 20
0.5958070866141733
 30
0.0
 10
0.1496299212598425
 20
0.5958070866141733
 30
0.0
  0
SPLINE
  5
55
100
AcDbEntity
  8
Layer 1
 62
   253
100
AcDbSpline
210
0.0
220
0.0
230
1.0
 70
     1
 71
     3
 72
    20
 73
    16
 74
     0
 42
0.0000000001
 43
0.0000000001
 40
0.0
 40
0.0
 40
0.0
 40
0.0
 40
0.25
 40
0.25
 40
0.25
 40
0.25
 40
0.5
 40
0.5
 40
0.5
 40
0.5
 40
0.75
 40
0.75
 40
0.75
 40
0.75
 40
1.0
 40
1.0
 40
1.0
 40
1.0
 10
0.1761889763779528
 20
0.5962598425196851
 30
0.0
 10
0.1761889763779528
 20
0.5962598425196851
 30
0.0
 10
0.8234251968503937
 20
0.9740393700787402
 30
0.0
 10
0.8234251968503937
 20
0.9740393700787402
 30
0.0
 10
0.8234251968503937
 20
0.9740393700787402
 30
0.0
 10
0.8234251968503937
 20
0.9740393700787402
 30
0.0
 10
0.8485314960629922
 20
0.9742559055118111
 30
0.0
 10
0.8485314960629922
 20
0.9742559055118111
 30
0.0
 10
0.8485314960629922
 20
0.9742559055118111
 30
0.0
 10
0.8485314960629922
 20
0.9742559055118111
 30
0.0
 10
0.2012952755905512
 20
0.5964763779527559
 30
0.0
 10
0.2012952755905512
 20
0.5964763779527559
 30
0.0
 10
0.2012952755905512
 20
0.5964763779527559
 30
0.0
 10
0.2012952755905512
 20
0.5964763779527559
 30
0.0
 10
0.1761889763779528
 20
0.5962598425196851
 30
0.0
 10
0.1761889763779528
 20
0.5962598425196851
 30
0.0
  0
SPLINE
  5
56
100
AcDbEntity
  8
Layer 1
 62
   253
100
AcDbSpline
210
0.0
220
0.0
230
1.0
 70
     1
 71
     3
 72
    20
 73
    16
 74
     0
 42
0.0000000001
 43
0.0000000001
 40
0.0
 40
0.0
 40
0.0
 40
0.0
 40
0.25
 40
0.25
 40
0.25
 40
0.25
 40
0.5
 40
0.5
 40
0.5
 40
0.5
 40
0.75
 40
0.75
 40
0.75
 40
0.75
 40
1.0
 40
1.0
 40
1.0
 40
1.0
 10
0.2012952755905512
 20
0.5964763779527559
 30
0.0
 10
0.2012952755905512
 20
0.5964763779527559
 30
0.0
 10
0.8485314960629922
 20
0.9742559055118111
 30
0.0
 10
0.8485314960629922
 20
0.9742559055118111
 30
0.0
 10
0.8485314960629922
 20
0.9742559055118111
 30
0.0
 10
0.8485314960629922
 20
0.9742559055118111
 30
0.0
 10
0.8777874015748032
 20
0.9724370078740158
 30
0.0
 10
0.8777874015748032
 20
0.9724370078740158
 30
0.0
 10
0.8777874015748032
 20
0.9724370078740158
 30
0.0
 10
0.8777874015748032
 20
0.9724370078740158
 30
0.0
 10
0.2305511811023622
 20
0.5946574803149607
 30
0.0
 10
0.2305511811023622
 20
0.5946574803149607
 30
0.0
 10
0.2305511811023622
 20
0.5946574803149607
 30
0.0
 10
0.2305511811023622
 20
0.5946574803149607
 30
0.0
 10
0.2012952755905512
 20
0.5964763779527559
 30
0.0
 10
0.2012952755905512
 20
0.5964763779527559
 30
0.0
  0
SPLINE
  5
57
100
AcDbEntity
  8
Layer 1
 62
   253
100
AcDbSpline
210
0.0
220
0.0
230
1.0
 70
     1
 71
     3
 72
    20
 73
    16
 74
     0
 42
0.0000000001
 43
0.0000000001
 40
0.0
 40
0.0
 40
0.0
 40
0.0
 40
0.25
 40
0.25
 40
0.25
 40
0.25
 40
0.5
 40
0.5
 40
0.5
 40
0.5
 40
0.75
 40
0.75
 40
0.75
 40
0.75
 40
1.0
 40
1.0
 40
1.0
 40
1.0
 10
0.2305511811023622
 20
0.5946574803149607
 30
0.0
 10
0.2305511811023622
 20
0.5946574803149607
 30
0.0
 10
0.8777874015748032
 20
0.9724370078740158
 30
0.0
 10
0.8777874015748032
 20
0.9724370078740158
 30
0.0
 10
0.8777874015748032
 20
0.9724370078740158
 30
0.0
 10
0.8777874015748032
 20
0.9724370078740158
 30
0.0
 10
0.9063661417322835
 20
0.966968503937008
 30
0.0
 10
0.9063661417322835
 20
0.966968503937008
 30
0.0
 10
0.9063661417322835
 20
0.966968503937008
 30
0.0
 10
0.9063661417322835
 20
0.966968503937008
 30
0.0
 10
0.2591299212598425
 20
0.5891889763779528
 30
0.0
 10
0.2591299212598425
 20
0.5891889763779528
 30
0.0
 10
0.2591299212598425
 20
0.5891889763779528
 30
0.0
 10
0.2591299212598425
 20
0.5891889763779528
 30
0.0
 10
0.2305511811023622
 20
0.5946574803149607
 30
0.0
 10
0.2305511811023622
 20
0.5946574803149607
 30
0.0
  0
SPLINE
  5
58
100
AcDbEntity
  8
Layer 1
 62
   253
100
AcDbSpline
210
0.0
220
0.0
230
1.0
 70
     1
 71
     3
 72
    20
 73
    16
 74
     0
 42
0.0000000001
 43
0.0000000001
 40
0.0
 40
0.0
 40
0.0
 40
0.0
 40
0.25
 40
0.25
 40
0.25
 40
0.25
 40
0.5
 40
0.5
 40
0.5
 40
0.5
 40
0.75
 40
0.75
 40
0.75
 40
0.75
 40
1.0
 40
1.0
 40
1.0
 40
1.0
 10
0.2591299212598425
 20
0.5891889763779528
 30
0.0
 10
0.2591299212598425
 20
0.5891889763779528
 30
0.0
 10
0.9063661417322835
 20
0.966968503937008
 30
0.0
 10
0.9063661417322835
 20
0.966968503937008
 30
0.0
 10
0.9063661417322835
 20
0.966968503937008
 30
0.0
 10
0.9063661417322835
 20
0.966968503937008
 30
0.0
 10
0.9341535433070867
 20
0.9580393700787402
 30
0.0
 10
0.9341535433070867
 20
0.9580393700787402
 30
0.0
 10
0.9341535433070867
 20
0.9580393700787402
 30
0.0
 10
0.9341535433070867
 20
0.9580393700787402
 30
0.0
 10
0.2869173228346457
 20
0.5802598425196851
 30
0.0
 10
0.2869173228346457
 20
0.5802598425196851
 30
0.0
 10
0.2869173228346457
 20
0.5802598425196851
 30
0.0
 10
0.2869173228346457
 20
0.5802598425196851
 30
0.0
 10
0.2591299212598425
 20
0.5891889763779528
 30
0.0
 10
0.2591299212598425
 20
0.5891889763779528
 30
0.0
  0
SPLINE
  5
59
100
AcDbEntity
  8
Layer 1
 62
   253
100
AcDbSpline
210
0.0
220
0.0
230
1.0
 70
     1
 71
     3
 72
    20
 73
    16
 74
     0
 42
0.0000000001
 43
0.0000000001
 40
0.0
 40
0.0
 40
0.0
 40
0.0
 40
0.25
 40
0.25
 40
0.25
 40
0.25
 40
0.5
 40
0.5
 40
0.5
 40
0.5
 40
0.75
 40
0.75
 40
0.75
 40
0.75
 40
1.0
 40
1.0
 40
1.0
 40
1.0
 10
0.2869173228346457
 20
0.5802598425196851
 30
0.0
 10
0.2869173228346457
 20
0.5802598425196851
 30
0.0
 10
0.9341535433070867
 20
0.9580393700787402
 30
0.0
 10
0.9341535433070867
 20
0.9580393700787402
 30
0.0
 10
0.9341535433070867
 20
0.9580393700787402
 30
0.0
 10
0.9341535433070867
 20
0.9580393700787402
 30
0.0
 10
0.9610472440944883
 20
0.9458464566929135
 30
0.0
 10
0.9610472440944883
 20
0.9458464566929135
 30
0.0
 10
0.9610472440944883
 20
0.9458464566929135
 30
0.0
 10
0.9610472440944883
 20
0.9458464566929135
 30
0.0
 10
0.3138110236220473
 20
0.5680669291338583
 30
0.0
 10
0.3138110236220473
 20
0.5680669291338583
 30
0.0
 10
0.3138110236220473
 20
0.5680669291338583
 30
0.0
 10
0.3138110236220473
 20
0.5680669291338583
 30
0.0
 10
0.2869173228346457
 20
0.5802598425196851
 30
0.0
 10
0.2869173228346457
 20
0.5802598425196851
 30
0.0
  0
SPLINE
  5
5A
100
AcDbEntity
  8
Layer 1
 62
     9
100
AcDbSpline
210
0.0
220
0.0
230
1.0
 70
     1
 71
     3
 72
    20
 73
    16
 74
     0
 42
0.0000000001
 43
0.0000000001
 40
0.0
 40
0.0
 40
0.0
 40
0.0
 40
0.25
 40
0.25
 40
0.25
 40
0.25
 40
0.5
 40
0.5
 40
0.5
 40
0.5
 40
0.75
 40
0.75
 40
0.75
 40
0.75
 40
1.0
 40
1.0
 40
1.0
 40
1.0
 10
0.3138110236220473
 20
0.5680669291338583
 30
0.0
 10
0.3138110236220473
 20
0.5680669291338583
 30
0.0
 10
0.9610472440944883
 20
0.9458464566929135
 30
0.0
 10
0.9610472440944883
 20
0.9458464566929135
 30
0.0
 10
0.9610472440944883
 20
0.9458464566929135
 30
0.0
 10
0.9610472440944883
 20
0.9458464566929135
 30
0.0
 10
0.9869212598425198
 20
0.9305708661417323
 30
0.0
 10
0.9869212598425198
 20
0.9305708661417323
 30
0.0
 10
0.9869212598425198
 20
0.9305708661417323
 30
0.0
 10
0.9869212598425198
 20
0.9305708661417323
 30
0.0
 10
0.3396850393700788
 20
0.5527913385826772
 30
0.0
 10
0.3396850393700788
 20
0.5527913385826772
 30
0.0
 10
0.3396850393700788
 20
0.5527913385826772
 30
0.0
 10
0.3396850393700788
 20
0.5527913385826772
 30
0.0
 10
0.3138110236220473
 20
0.5680669291338583
 30
0.0
 10
0.3138110236220473
 20
0.5680669291338583
 30
0.0
  0
SPLINE
  5
5B
100
AcDbEntity
  8
Layer 1
 62
     9
100
AcDbSpline
210
0.0
220
0.0
230
1.0
 70
     1
 71
     3
 72
    20
 73
    16
 74
     0
 42
0.0000000001
 43
0.0000000001
 40
0.0
 40
0.0
 40
0.0
 40
0.0
 40
0.25
 40
0.25
 40
0.25
 40
0.25
 40
0.5
 40
0.5
 40
0.5
 40
0.5
 40
0.75
 40
0.75
 40
0.75
 40
0.75
 40
1.0
 40
1.0
 40
1.0
 40
1.0
 10
0.3396850393700788
 20
0.5527913385826772
 30
0.0
 10
0.3396850393700788
 20
0.5527913385826772
 30
0.0
 10
0.9869212598425198
 20
0.9305708661417323
 30
0.0
 10
0.9869212598425198
 20
0.9305708661417323
 30
0.0
 10
0.9869212598425198
 20
0.9305708661417323
 30
0.0
 10
0.9869212598425198
 20
0.9305708661417323
 30
0.0
 10
1.0116811023622048
 20
0.9124173228346457
 30
0.0
 10
1.0116811023622048
 20
0.9124173228346457
 30
0.0
 10
1.0116811023622048
 20
0.9124173228346457
 30
0.0
 10
1.0116811023622048
 20
0.9124173228346457
 30
0.0
 10
0.3644448818897638
 20
0.5346377952755905
 30
0.0
 10
0.3644448818897638
 20
0.5346377952755905
 30
0.0
 10
0.3644448818897638
 20
0.5346377952755905
 30
0.0
 10
0.3644448818897638
 20
0.5346377952755905
 30
0.0
 10
0.3396850393700788
 20
0.5527913385826772
 30
0.0
 10
0.3396850393700788
 20
0.5527913385826772
 30
0.0
  0
SPLINE
  5
5C
100
AcDbEntity
  8
Layer 1
 62
     9
100
AcDbSpline
210
0.0
220
0.0
230
1.0
 70
     1
 71
     3
 72
    20
 73
    16
 74
     0
 42
0.0000000001
 43
0.0000000001
 40
0.0
 40
0.0
 40
0.0
 40
0.0
 40
0.25
 40
0.25
 40
0.25
 40
0.25
 40
0.5
 40
0.5
 40
0.5
 40
0.5
 40
0.75
 40
0.75
 40
0.75
 40
0.75
 40
1.0
 40
1.0
 40
1.0
 40
1.0
 10
0.3644448818897638
 20
0.5346377952755905
 30
0.0
 10
0.3644448818897638
 20
0.5346377952755905
 30
0.0
 10
1.0116811023622048
 20
0.9124173228346457
 30
0.0
 10
1.0116811023622048
 20
0.9124173228346457
 30
0.0
 10
1.0116811023622048
 20
0.9124173228346457
 30
0.0
 10
1.0116811023622048
 20
0.9124173228346457
 30
0.0
 10
1.035212598425197
 20
0.8915748031496064
 30
0.0
 10
1.035212598425197
 20
0.8915748031496064
 30
0.0
 10
1.035212598425197
 20
0.8915748031496064
 30
0.0
 10
1.035212598425197
 20
0.8915748031496064
 30
0.0
 10
0.3879763779527559
 20
0.5137952755905512
 30
0.0
 10
0.3879763779527559
 20
0.5137952755905512
 30
0.0
 10
0.3879763779527559
 20
0.5137952755905512
 30
0.0
 10
0.3879763779527559
 20
0.5137952755905512
 30
0.0
 10
0.3644448818897638
 20
0.5346377952755905
 30
0.0
 10
0.3644448818897638
 20
0.5346377952755905
 30
0.0
  0
SPLINE
  5
5D
100
AcDbEntity
  8
Layer 1
 62
     9
100
AcDbSpline
210
0.0
220
0.0
230
1.0
 70
     1
 71
     3
 72
    20
 73
    16
 74
     0
 42
0.0000000001
 43
0.0000000001
 40
0.0
 40
0.0
 40
0.0
 40
0.0
 40
0.25
 40
0.25
 40
0.25
 40
0.25
 40
0.5
 40
0.5
 40
0.5
 40
0.5
 40
0.75
 40
0.75
 40
0.75
 40
0.75
 40
1.0
 40
1.0
 40
1.0
 40
1.0
 10
0.3879763779527559
 20
0.5137952755905512
 30
0.0
 10
0.3879763779527559
 20
0.5137952755905512
 30
0.0
 10
1.035212598425197
 20
0.8915748031496064
 30
0.0
 10
1.035212598425197
 20
0.8915748031496064
 30
0.0
 10
1.035212598425197
 20
0.8915748031496064
 30
0.0
 10
1.035212598425197
 20
0.8915748031496064
 30
0.0
 10
1.0574133858267718
 20
0.868240157480315
 30
0.0
 10
1.0574133858267718
 20
0.868240157480315
 30
0.0
 10
1.0574133858267718
 20
0.868240157480315
 30
0.0
 10
1.0574133858267718
 20
0.868240157480315
 30
0.0
 10
0.4101771653543307
 20
0.4904606299212599
 30
0.0
 10
0.4101771653543307
 20
0.4904606299212599
 30
0.0
 10
0.4101771653543307
 20
0.4904606299212599
 30
0.0
 10
0.4101771653543307
 20
0.4904606299212599
 30
0.0
 10
0.3879763779527559
 20
0.5137952755905512
 30
0.0
 10
0.3879763779527559
 20
0.5137952755905512
 30
0.0
  0
SPLINE
  5
5E
100
AcDbEntity
  8
Layer 1
 62
     9
100
AcDbSpline
210
0.0
220
0.0
230
1.0
 70
     1
 71
     3
 72
    20
 73
    16
 74
     0
 42
0.0000000001
 43
0.0000000001
 40
0.0
 40
0.0
 40
0.0
 40
0.0
 40
0.25
 40
0.25
 40
0.25
 40
0.25
 40
0.5
 40
0.5
 40
0.5
 40
0.5
 40
0.75
 40
0.75
 40
0.75
 40
0.75
 40
1.0
 40
1.0
 40
1.0
 40
1.0
 10
0.4101771653543307
 20
0.4904606299212599
 30
0.0
 10
0.4101771653543307
 20
0.4904606299212599
 30
0.0
 10
1.0574133858267718
 20
0.868240157480315
 30
0.0
 10
1.0574133858267718
 20
0.868240157480315
 30
0.0
 10
1.0574133858267718
 20
0.868240157480315
 30
0.0
 10
1.0574133858267718
 20
0.868240157480315
 30
0.0
 10
1.0781574803149607
 20
0.8425944881889764
 30
0.0
 10
1.0781574803149607
 20
0.8425944881889764
 30
0.0
 10
1.0781574803149607
 20
0.8425944881889764
 30
0.0
 10
1.0781574803149607
 20
0.8425944881889764
 30
0.0
 10
0.4309212598425197
 20
0.4648149606299213
 30
0.0
 10
0.4309212598425197
 20
0.4648149606299213
 30
0.0
 10
0.4309212598425197
 20
0.4648149606299213
 30
0.0
 10
0.4309212598425197
 20
0.4648149606299213
 30
0.0
 10
0.4101771653543307
 20
0.4904606299212599
 30
0.0
 10
0.4101771653543307
 20
0.4904606299212599
 30
0.0
  0
SPLINE
  5
5F
100
AcDbEntity
  8
Layer 1
 62
     9
100
AcDbSpline
210
0.0
220
0.0
230
1.0
 70
     1
 71
     3
 72
    20
 73
    16
 74
     0
 42
0.0000000001
 43
0.0000000001
 40
0.0
 40
0.0
 40
0.0
 40
0.0
 40
0.25
 40
0.25
 40
0.25
 40
0.25
 40
0.5
 40
0.5
 40
0.5
 40
0.5
 40
0.75
 40
0.75
 40
0.75
 40
0.75
 40
1.0
 40
1.0
 40
1.0
 40
1.0
 10
0.4309212598425197
 20
0.4648149606299213
 30
0.0
 10
0.4309212598425197
 20
0.4648149606299213
 30
0.0
 10
1.0781574803149607
 20
0.8425944881889764
 30
0.0
 10
1.0781574803149607
 20
0.8425944881889764
 30
0.0
 10
1.0781574803149607
 20
0.8425944881889764
 30
0.0
 10
1.0781574803149607
 20
0.8425944881889764
 30
0.0
 10
1.0973582677165354
 20
0.8148464566929135
 30
0.0
 10
1.0973582677165354
 20
0.8148464566929135
 30
0.0
 10
1.0973582677165354
 20
0.8148464566929135
 30
0.0
 10
1.0973582677165354
 20
0.8148464566929135
 30
0.0
 10
0.4501220472440945
 20
0.4370669291338583
 30
0.0
 10
0.4501220472440945
 20
0.4370669291338583
 30
0.0
 10
0.4501220472440945
 20
0.4370669291338583
 30
0.0
 10
0.4501220472440945
 20
0.4370669291338583
 30
0.0
 10
0.4309212598425197
 20
0.4648149606299213
 30
0.0
 10
0.4309212598425197
 20
0.4648149606299213
 30
0.0
  0
SPLINE
  5
60
100
AcDbEntity
  8
Layer 1
 62
     9
100
AcDbSpline
210
0.0
220
0.0
230
1.0
 70
     1
 71
     3
 72
    20
 73
    16
 74
     0
 42
0.0000000001
 43
0.0000000001
 40
0.0
 40
0.0
 40
0.0
 40
0.0
 40
0.25
 40
0.25
 40
0.25
 40
0.25
 40
0.5
 40
0.5
 40
0.5
 40
0.5
 40
0.75
 40
0.75
 40
0.75
 40
0.75
 40
1.0
 40
1.0
 40
1.0
 40
1.0
 10
0.4501220472440945
 20
0.4370669291338583
 30
0.0
 10
0.4501220472440945
 20
0.4370669291338583
 30
0.0
 10
1.0973582677165354
 20
0.8148464566929135
 30
0.0
 10
1.0973582677165354
 20
0.8148464566929135
 30
0.0
 10
1.0973582677165354
 20
0.8148464566929135
 30
0.0
 10
1.0973582677165354
 20
0.8148464566929135
 30
0.0
 10
1.1148897637795276
 20
0.7851771653543307
 30
0.0
 10
1.1148897637795276
 20
0.7851771653543307
 30
0.0
 10
1.1148897637795276
 20
0.7851771653543307
 30
0.0
 10
1.1148897637795276
 20
0.7851771653543307
 30
0.0
 10
0.4676535433070866
 20
0.4073976377952756
 30
0.0
 10
0.4676535433070866
 20
0.4073976377952756
 30
0.0
 10
0.4676535433070866
 20
0.4073976377952756
 30
0.0
 10
0.4676535433070866
 20
0.4073976377952756
 30
0.0
 10
0.4501220472440945
 20
0.4370669291338583
 30
0.0
 10
0.4501220472440945
 20
0.4370669291338583
 30
0.0
  0
SPLINE
  5
61
100
AcDbEntity
  8
Layer 1
 62
     9
100
AcDbSpline
210
0.0
220
0.0
230
1.0
 70
     1
 71
     3
 72
    20
 73
    16
 74
     0
 42
0.0000000001
 43
0.0000000001
 40
0.0
 40
0.0
 40
0.0
 40
0.0
 40
0.25
 40
0.25
 40
0.25
 40
0.25
 40
0.5
 40
0.5
 40
0.5
 40
0.5
 40
0.75
 40
0.75
 40
0.75
 40
0.75
 40
1.0
 40
1.0
 40
1.0
 40
1.0
 10
0.4676535433070866
 20
0.4073976377952756
 30
0.0
 10
0.4676535433070866
 20
0.4073976377952756
 30
0.0
 10
1.1148897637795276
 20
0.7851771653543307
 30
0.0
 10
1.1148897637795276
 20
0.7851771653543307
 30
0.0
 10
1.1148897637795276
 20
0.7851771653543307
 30
0.0
 10
1.1148897637795276
 20
0.7851771653543307
 30
0.0
 10
1.1306574803149607
 20
0.7537913385826772
 30
0.0
 10
1.1306574803149607
 20
0.7537913385826772
 30
0.0
 10
1.1306574803149607
 20
0.7537913385826772
 30
0.0
 10
1.1306574803149607
 20
0.7537913385826772
 30
0.0
 10
0.4834212598425197
 20
0.3760118110236221
 30
0.0
 10
0.4834212598425197
 20
0.3760118110236221
 30
0.0
 10
0.4834212598425197
 20
0.3760118110236221
 30
0.0
 10
0.4834212598425197
 20
0.3760118110236221
 30
0.0
 10
0.4676535433070866
 20
0.4073976377952756
 30
0.0
 10
0.4676535433070866
 20
0.4073976377952756
 30
0.0
  0
SPLINE
  5
62
100
AcDbEntity
  8
Layer 1
 62
     9
100
AcDbSpline
210
0.0
220
0.0
230
1.0
 70
     1
 71
     3
 72
    20
 73
    16
 74
     0
 42
0.0000000001
 43
0.0000000001
 40
0.0
 40
0.0
 40
0.0
 40
0.0
 40
0.25
 40
0.25
 40
0.25
 40
0.25
 40
0.5
 40
0.5
 40
0.5
 40
0.5
 40
0.75
 40
0.75
 40
0.75
 40
0.75
 40
1.0
 40
1.0
 40
1.0
 40
1.0
 10
0.4834212598425197
 20
0.3760118110236221
 30
0.0
 10
0.4834212598425197
 20
0.3760118110236221
 30
0.0
 10
1.1306574803149607
 20
0.7537913385826772
 30
0.0
 10
1.1306574803149607
 20
0.7537913385826772
 30
0.0
 10
1.1306574803149607
 20
0.7537913385826772
 30
0.0
 10
1.1306574803149607
 20
0.7537913385826772
 30
0.0
 10
1.1445354330708661
 20
0.7208700787401575
 30
0.0
 10
1.1445354330708661
 20
0.7208700787401575
 30
0.0
 10
1.1445354330708661
 20
0.7208700787401575
 30
0.0
 10
1.1445354330708661
 20
0.7208700787401575
 30
0.0
 10
0.4972992125984252
 20
0.3430905511811024
 30
0.0
 10
0.4972992125984252
 20
0.3430905511811024
 30
0.0
 10
0.4972992125984252
 20
0.3430905511811024
 30
0.0
 10
0.4972992125984252
 20
0.3430905511811024
 30
0.0
 10
0.4834212598425197
 20
0.3760118110236221
 30
0.0
 10
0.4834212598425197
 20
0.3760118110236221
 30
0.0
  0
SPLINE
  5
63
100
AcDbEntity
  8
Layer 1
 62
     9
100
AcDbSpline
210
0.0
220
0.0
230
1.0
 70
     1
 71
     3
 72
    20
 73
    16
 74
     0
 42
0.0000000001
 43
0.0000000001
 40
0.0
 40
0.0
 40
0.0
 40
0.0
 40
0.25
 40
0.25
 40
0.25
 40
0.25
 40
0.5
 40
0.5
 40
0.5
 40
0.5
 40
0.75
 40
0.75
 40
0.75
 40
0.75
 40
1.0
 40
1.0
 40
1.0
 40
1.0
 10
0.4972992125984252
 20
0.3430905511811024
 30
0.0
 10
0.4972992125984252
 20
0.3430905511811024
 30
0.0
 10
1.1445354330708661
 20
0.7208700787401575
 30
0.0
 10
1.1445354330708661
 20
0.7208700787401575
 30
0.0
 10
1.1445354330708661
 20
0.7208700787401575
 30
0.0
 10
1.1445354330708661
 20
0.7208700787401575
 30
0.0
 10
1.1564330708661417
 20
0.6866141732283465
 30
0.0
 10
1.1564330708661417
 20
0.6866141732283465
 30
0.0
 10
1.1564330708661417
 20
0.6866141732283465
 30
0.0
 10
1.1564330708661417
 20
0.6866141732283465
 30
0.0
 10
0.5091968503937008
 20
0.3088346456692914
 30
0.0
 10
0.5091968503937008
 20
0.3088346456692914
 30
0.0
 10
0.5091968503937008
 20
0.3088346456692914
 30
0.0
 10
0.5091968503937008
 20
0.3088346456692914
 30
0.0
 10
0.4972992125984252
 20
0.3430905511811024
 30
0.0
 10
0.4972992125984252
 20
0.3430905511811024
 30
0.0
  0
SPLINE
  5
64
100
AcDbEntity
  8
Layer 1
 62
     9
100
AcDbSpline
210
0.0
220
0.0
230
1.0
 70
     1
 71
     3
 72
    20
 73
    16
 74
     0
 42
0.0000000001
 43
0.0000000001
 40
0.0
 40
0.0
 40
0.0
 40
0.0
 40
0.25
 40
0.25
 40
0.25
 40
0.25
 40
0.5
 40
0.5
 40
0.5
 40
0.5
 40
0.75
 40
0.75
 40
0.75
 40
0.75
 40
1.0
 40
1.0
 40
1.0
 40
1.0
 10
0.5091968503937008
 20
0.3088346456692914
 30
0.0
 10
0.5091968503937008
 20
0.3088346456692914
 30
0.0
 10
1.1564330708661417
 20
0.6866141732283465
 30
0.0
 10
1.1564330708661417
 20
0.6866141732283465
 30
0.0
 10
1.1564330708661417
 20
0.6866141732283465
 30
0.0
 10
1.1564330708661417
 20
0.6866141732283465
 30
0.0
 10
1.1662283464566929
 20
0.6512125984251969
 30
0.0
 10
1.1662283464566929
 20
0.6512125984251969
 30
0.0
 10
1.1662283464566929
 20
0.6512125984251969
 30
0.0
 10
1.1662283464566929
 20
0.6512125984251969
 30
0.0
 10
0.518992125984252
 20
0.2734330708661418
 30
0.0
 10
0.518992125984252
 20
0.2734330708661418
 30
0.0
 10
0.518992125984252
 20
0.2734330708661418
 30
0.0
 10
0.518992125984252
 20
0.2734330708661418
 30
0.0
 10
0.5091968503937008
 20
0.3088346456692914
 30
0.0
 10
0.5091968503937008
 20
0.3088346456692914
 30
0.0
  0
SPLINE
  5
65
100
AcDbEntity
  8
Layer 1
 62
     9
100
AcDbSpline
210
0.0
220
0.0
230
1.0
 70
     1
 71
     3
 72
    20
 73
    16
 74
     0
 42
0.0000000001
 43
0.0000000001
 40
0.0
 40
0.0
 40
0.0
 40
0.0
 40
0.25
 40
0.25
 40
0.25
 40
0.25
 40
0.5
 40
0.5
 40
0.5
 40
0.5
 40
0.75
 40
0.75
 40
0.75
 40
0.75
 40
1.0
 40
1.0
 40
1.0
 40
1.0
 10
0.518992125984252
 20
0.2734330708661418
 30
0.0
 10
0.518992125984252
 20
0.2734330708661418
 30
0.0
 10
1.1662283464566929
 20
0.6512125984251969
 30
0.0
 10
1.1662283464566929
 20
0.6512125984251969
 30
0.0
 10
1.1662283464566929
 20
0.6512125984251969
 30
0.0
 10
1.1662283464566929
 20
0.6512125984251969
 30
0.0
 10
1.1738228346456694
 20
0.6148661417322835
 30
0.0
 10
1.1738228346456694
 20
0.6148661417322835
 30
0.0
 10
1.1738228346456694
 20
0.6148661417322835
 30
0.0
 10
1.1738228346456694
 20
0.6148661417322835
 30
0.0
 10
0.5265866141732284
 20
0.2370866141732284
 30
0.0
 10
0.5265866141732284
 20
0.2370866141732284
 30
0.0
 10
0.5265866141732284
 20
0.2370866141732284
 30
0.0
 10
0.5265866141732284
 20
0.2370866141732284
 30
0.0
 10
0.518992125984252
 20
0.2734330708661418
 30
0.0
 10
0.518992125984252
 20
0.2734330708661418
 30
0.0
  0
SPLINE
  5
66
100
AcDbEntity
  8
Layer 1
 62
     9
100
AcDbSpline
210
0.0
220
0.0
230
1.0
 70
     1
 71
     3
 72
    20
 73
    16
 74
     0
 42
0.0000000001
 43
0.0000000001
 40
0.0
 40
0.0
 40
0.0
 40
0.0
 40
0.25
 40
0.25
 40
0.25
 40
0.25
 40
0.5
 40
0.5
 40
0.5
 40
0.5
 40
0.75
 40
0.75
 40
0.75
 40
0.75
 40
1.0
 40
1.0
 40
1.0
 40
1.0
 10
0.5265866141732284
 20
0.2370866141732284
 30
0.0
 10
0.5265866141732284
 20
0.2370866141732284
 30
0.0
 10
1.1738228346456694
 20
0.6148661417322835
 30
0.0
 10
1.1738228346456694
 20
0.6148661417322835
 30
0.0
 10
1.1738228346456694
 20
0.6148661417322835
 30
0.0
 10
1.1738228346456694
 20
0.6148661417322835
 30
0.0
 10
1.1790905511811025
 20
0.5777519685039371
 30
0.0
 10
1.1790905511811025
 20
0.5777519685039371
 30
0.0
 10
1.1790905511811025
 20
0.5777519685039371
 30
0.0
 10
1.1790905511811025
 20
0.5777519685039371
 30
0.0
 10
0.5318543307086614
 20
0.1999724409448819
 30
0.0
 10
0.5318543307086614
 20
0.1999724409448819
 30
0.0
 10
0.5318543307086614
 20
0.1999724409448819
 30
0.0
 10
0.5318543307086614
 20
0.1999724409448819
 30
0.0
 10
0.5265866141732284
 20
0.2370866141732284
 30
0.0
 10
0.5265866141732284
 20
0.2370866141732284
 30
0.0
  0
SPLINE
  5
67
100
AcDbEntity
  8
Layer 1
 62
     9
100
AcDbSpline
210
0.0
220
0.0
230
1.0
 70
     1
 71
     3
 72
    20
 73
    16
 74
     0
 42
0.0000000001
 43
0.0000000001
 40
0.0
 40
0.0
 40
0.0
 40
0.0
 40
0.25
 40
0.25
 40
0.25
 40
0.25
 40
0.5
 40
0.5
 40
0.5
 40
0.5
 40
0.75
 40
0.75
 40
0.75
 40
0.75
 40
1.0
 40
1.0
 40
1.0
 40
1.0
 10
0.5318543307086614
 20
0.1999724409448819
 30
0.0
 10
0.5318543307086614
 20
0.1999724409448819
 30
0.0
 10
1.1790905511811025
 20
0.5777519685039371
 30
0.0
 10
1.1790905511811025
 20
0.5777519685039371
 30
0.0
 10
1.1790905511811025
 20
0.5777519685039371
 30
0.0
 10
1.1790905511811025
 20
0.5777519685039371
 30
0.0
 10
1.1819409448818898
 20
0.5400748031496063
 30
0.0
 10
1.1819409448818898
 20
0.5400748031496063
 30
0.0
 10
1.1819409448818898
 20
0.5400748031496063
 30
0.0
 10
1.1819409448818898
 20
0.5400748031496063
 30
0.0
 10
0.5347047244094488
 20
0.1622952755905512
 30
0.0
 10
0.5347047244094488
 20
0.1622952755905512
 30
0.0
 10
0.5347047244094488
 20
0.1622952755905512
 30
0.0
 10
0.5347047244094488
 20
0.1622952755905512
 30
0.0
 10
0.5318543307086614
 20
0.1999724409448819
 30
0.0
 10
0.5318543307086614
 20
0.1999724409448819
 30
0.0
  0
SPLINE
  5
68
100
AcDbEntity
  8
Layer 1
 62
     9
100
AcDbSpline
210
0.0
220
0.0
230
1.0
 70
     1
 71
     3
 72
    20
 73
    16
 74
     0
 42
0.0000000001
 43
0.0000000001
 40
0.0
 40
0.0
 40
0.0
 40
0.0
 40
0.25
 40
0.25
 40
0.25
 40
0.25
 40
0.5
 40
0.5
 40
0.5
 40
0.5
 40
0.75
 40
0.75
 40
0.75
 40
0.75
 40
1.0
 40
1.0
 40
1.0
 40
1.0
 10
0.5347047244094488
 20
0.1622952755905512
 30
0.0
 10
0.5347047244094488
 20
0.1622952755905512
 30
0.0
 10
1.1819409448818898
 20
0.5400748031496063
 30
0.0
 10
1.1819409448818898
 20
0.5400748031496063
 30
0.0
 10
1.1819409448818898
 20
0.5400748031496063
 30
0.0
 10
1.1819409448818898
 20
0.5400748031496063
 30
0.0
 10
1.182251968503937
 20
0.5020275590551181
 30
0.0
 10
1.182251968503937
 20
0.5020275590551181
 30
0.0
 10
1.182251968503937
 20
0.5020275590551181
 30
0.0
 10
1.182251968503937
 20
0.5020275590551181
 30
0.0
 10
0.5350157480314961
 20
0.124248031496063
 30
0.0
 10
0.5350157480314961
 20
0.124248031496063
 30
0.0
 10
0.5350157480314961
 20
0.124248031496063
 30
0.0
 10
0.5350157480314961
 20
0.124248031496063
 30
0.0
 10
0.5347047244094488
 20
0.1622952755905512
 30
0.0
 10
0.5347047244094488
 20
0.1622952755905512
 30
0.0
  0
SPLINE
  5
69
100
AcDbEntity
  8
Layer 1
 62
     9
100
AcDbSpline
210
0.0
220
0.0
230
1.0
 70
     1
 71
     3
 72
    20
 73
    16
 74
     0
 42
0.0000000001
 43
0.0000000001
 40
0.0
 40
0.0
 40
0.0
 40
0.0
 40
0.25
 40
0.25
 40
0.25
 40
0.25
 40
0.5
 40
0.5
 40
0.5
 40
0.5
 40
0.75
 40
0.75
 40
0.75
 40
0.75
 40
1.0
 40
1.0
 40
1.0
 40
1.0
 10
0.5350157480314961
 20
0.124248031496063
 30
0.0
 10
0.5350157480314961
 20
0.124248031496063
 30
0.0
 10
1.182251968503937
 20
0.5020275590551181
 30
0.0
 10
1.182251968503937
 20
0.5020275590551181
 30
0.0
 10
1.182251968503937
 20
0.5020275590551181
 30
0.0
 10
1.182251968503937
 20
0.5020275590551181
 30
0.0
 10
1.1799291338582678
 20
0.4638110236220472
 30
0.0
 10
1.1799291338582678
 20
0.4638110236220472
 30
0.0
 10
1.1799291338582678
 20
0.4638110236220472
 30
0.0
 10
1.1799291338582678
 20
0.4638110236220472
 30
0.0
 10
0.5326929133858268
 20
0.0860314960629921
 30
0.0
 10
0.5326929133858268
 20
0.0860314960629921
 30
0.0
 10
0.5326929133858268
 20
0.0860314960629921
 30
0.0
 10
0.5326929133858268
 20
0.0860314960629921
 30
0.0
 10
0.5350157480314961
 20
0.124248031496063
 30
0.0
 10
0.5350157480314961
 20
0.124248031496063
 30
0.0
  0
SPLINE
  5
6A
100
AcDbEntity
  8
Layer 1
 62
     9
100
AcDbSpline
210
0.0
220
0.0
230
1.0
 70
     1
 71
     3
 72
    20
 73
    16
 74
     0
 42
0.0000000001
 43
0.0000000001
 40
0.0
 40
0.0
 40
0.0
 40
0.0
 40
0.25
 40
0.25
 40
0.25
 40
0.25
 40
0.5
 40
0.5
 40
0.5
 40
0.5
 40
0.75
 40
0.75
 40
0.75
 40
0.75
 40
1.0
 40
1.0
 40
1.0
 40
1.0
 10
0.5326929133858268
 20
0.0860314960629921
 30
0.0
 10
0.5326929133858268
 20
0.0860314960629921
 30
0.0
 10
1.1799291338582678
 20
0.4638110236220472
 30
0.0
 10
1.1799291338582678
 20
0.4638110236220472
 30
0.0
 10
1.1799291338582678
 20
0.4638110236220472
 30
0.0
 10
1.1799291338582678
 20
0.4638110236220472
 30
0.0
 10
1.1748464566929133
 20
0.4255984251968504
 30
0.0
 10
1.1748464566929133
 20
0.4255984251968504
 30
0.0
 10
1.1748464566929133
 20
0.4255984251968504
 30
0.0
 10
1.1748464566929133
 20
0.4255984251968504
 30
0.0
 10
0.5276102362204724
 20
0.0478188976377953
 30
0.0
 10
0.5276102362204724
 20
0.0478188976377953
 30
0.0
 10
0.5276102362204724
 20
0.0478188976377953
 30
0.0
 10
0.5276102362204724
 20
0.0478188976377953
 30
0.0
 10
0.5326929133858268
 20
0.0860314960629921
 30
0.0
 10
0.5326929133858268
 20
0.0860314960629921
 30
0.0
  0
SPLINE
  5
6B
100
AcDbEntity
  8
Layer 1
 62
     9
100
AcDbSpline
210
0.0
220
0.0
230
1.0
 70
     1
 71
     3
 72
    20
 73
    16
 74
     0
 42
0.0000000001
 43
0.0000000001
 40
0.0
 40
0.0
 40
0.0
 40
0.0
 40
0.25
 40
0.25
 40
0.25
 40
0.25
 40
0.5
 40
0.5
 40
0.5
 40
0.5
 40
0.75
 40
0.75
 40
0.75
 40
0.75
 40
1.0
 40
1.0
 40
1.0
 40
1.0
 10
0.5276102362204724
 20
0.0478188976377953
 30
0.0
 10
0.5276102362204724
 20
0.0478188976377953
 30
0.0
 10
1.1748464566929133
 20
0.4255984251968504
 30
0.0
 10
1.1748464566929133
 20
0.4255984251968504
 30
0.0
 10
1.1748464566929133
 20
0.4255984251968504
 30
0.0
 10
1.1748464566929133
 20
0.4255984251968504
 30
0.0
 10
1.1669094488188976
 20
0.3876023622047244
 30
0.0
 10
1.1669094488188976
 20
0.3876023622047244
 30
0.0
 10
1.1669094488188976
 20
0.3876023622047244
 30
0.0
 10
1.1669094488188976
 20
0.3876023622047244
 30
0.0
 10
0.5196732283464567
 20
0.0098228346456693
 30
0.0
 10
0.5196732283464567
 20
0.0098228346456693
 30
0.0
 10
0.5196732283464567
 20
0.0098228346456693
 30
0.0
 10
0.5196732283464567
 20
0.0098228346456693
 30
0.0
 10
0.5276102362204724
 20
0.0478188976377953
 30
0.0
 10
0.5276102362204724
 20
0.0478188976377953
 30
0.0
  0
SPLINE
  5
6C
100
AcDbEntity
  8
Layer 1
 62
     9
100
AcDbSpline
210
0.0
220
0.0
230
1.0
 70
     1
 71
     3
 72
    20
 73
    16
 74
     0
 42
0.0000000001
 43
0.0000000001
 40
0.0
 40
0.0
 40
0.0
 40
0.0
 40
0.25
 40
0.25
 40
0.25
 40
0.25
 40
0.5
 40
0.5
 40
0.5
 40
0.5
 40
0.75
 40
0.75
 40
0.75
 40
0.75
 40
1.0
 40
1.0
 40
1.0
 40
1.0
 10
0.5196732283464567
 20
0.0098228346456693
 30
0.0
 10
0.5196732283464567
 20
0.0098228346456693
 30
0.0
 10
1.1669094488188976
 20
0.3876023622047244
 30
0.0
 10
1.1669094488188976
 20
0.3876023622047244
 30
0.0
 10
1.1669094488188976
 20
0.3876023622047244
 30
0.0
 10
1.1669094488188976
 20
0.3876023622047244
 30
0.0
 10
1.1560000000000001
 20
0.3500078740157481
 30
0.0
 10
1.1560000000000001
 20
0.3500078740157481
 30
0.0
 10
1.1560000000000001
 20
0.3500078740157481
 30
0.0
 10
1.1560000000000001
 20
0.3500078740157481
 30
0.0
 10
0.508763779527559
 20
-0.0277716535433071
 30
0.0
 10
0.508763779527559
 20
-0.0277716535433071
 30
0.0
 10
0.508763779527559
 20
-0.0277716535433071
 30
0.0
 10
0.508763779527559
 20
-0.0277716535433071
 30
0.0
 10
0.5196732283464567
 20
0.0098228346456693
 30
0.0
 10
0.5196732283464567
 20
0.0098228346456693
 30
0.0
  0
SPLINE
  5
6D
100
AcDbEntity
  8
Layer 1
 62
     9
100
AcDbSpline
210
0.0
220
0.0
230
1.0
 70
     1
 71
     3
 72
    20
 73
    16
 74
     0
 42
0.0000000001
 43
0.0000000001
 40
0.0
 40
0.0
 40
0.0
 40
0.0
 40
0.25
 40
0.25
 40
0.25
 40
0.25
 40
0.5
 40
0.5
 40
0.5
 40
0.5
 40
0.75
 40
0.75
 40
0.75
 40
0.75
 40
1.0
 40
1.0
 40
1.0
 40
1.0
 10
0.508763779527559
 20
-0.0277716535433071
 30
0.0
 10
0.508763779527559
 20
-0.0277716535433071
 30
0.0
 10
1.1560000000000001
 20
0.3500078740157481
 30
0.0
 10
1.1560000000000001
 20
0.3500078740157481
 30
0.0
 10
1.1560000000000001
 20
0.3500078740157481
 30
0.0
 10
1.1560000000000001
 20
0.3500078740157481
 30
0.0
 10
1.14201968503937
 20
0.313
 30
0.0
 10
1.14201968503937
 20
0.313
 30
0.0
 10
1.14201968503937
 20
0.313
 30
0.0
 10
1.14201968503937
 20
0.313
 30
0.0
 10
0.4947834645669292
 20
-0.0647795275590551
 30
0.0
 10
0.4947834645669292
 20
-0.0647795275590551
 30
0.0
 10
0.4947834645669292
 20
-0.0647795275590551
 30
0.0
 10
0.4947834645669292
 20
-0.0647795275590551
 30
0.0
 10
0.508763779527559
 20
-0.0277716535433071
 30
0.0
 10
0.508763779527559
 20
-0.0277716535433071
 30
0.0
  0
SPLINE
  5
6E
100
AcDbEntity
  8
Layer 1
 62
     9
100
AcDbSpline
210
0.0
220
0.0
230
1.0
 70
     1
 71
     3
 72
    20
 73
    16
 74
     0
 42
0.0000000001
 43
0.0000000001
 40
0.0
 40
0.0
 40
0.0
 40
0.0
 40
0.25
 40
0.25
 40
0.25
 40
0.25
 40
0.5
 40
0.5
 40
0.5
 40
0.5
 40
0.75
 40
0.75
 40
0.75
 40
0.75
 40
1.0
 40
1.0
 40
1.0
 40
1.0
 10
0.4947834645669292
 20
-0.0647795275590551
 30
0.0
 10
0.4947834645669292
 20
-0.0647795275590551
 30
0.0
 10
1.14201968503937
 20
0.313
 30
0.0
 10
1.14201968503937
 20
0.313
 30
0.0
 10
1.14201968503937
 20
0.313
 30
0.0
 10
1.14201968503937
 20
0.313
 30
0.0
 10
1.1248425196850393
 20
0.2767874015748031
 30
0.0
 10
1.1248425196850393
 20
0.2767874015748031
 30
0.0
 10
1.1248425196850393
 20
0.2767874015748031
 30
0.0
 10
1.1248425196850393
 20
0.2767874015748031
 30
0.0
 10
0.4776062992125985
 20
-0.100992125984252
 30
0.0
 10
0.4776062992125985
 20
-0.100992125984252
 30
0.0
 10
0.4776062992125985
 20
-0.100992125984252
 30
0.0
 10
0.4776062992125985
 20
-0.100992125984252
 30
0.0
 10
0.4947834645669292
 20
-0.0647795275590551
 30
0.0
 10
0.4947834645669292
 20
-0.0647795275590551
 30
0.0
  0
SPLINE
  5
6F
100
AcDbEntity
  8
Layer 1
 62
     9
100
AcDbSpline
210
0.0
220
0.0
230
1.0
 70
     1
 71
     3
 72
    20
 73
    16
 74
     0
 42
0.0000000001
 43
0.0000000001
 40
0.0
 40
0.0
 40
0.0
 40
0.0
 40
0.25
 40
0.25
 40
0.25
 40
0.25
 40
0.5
 40
0.5
 40
0.5
 40
0.5
 40
0.75
 40
0.75
 40
0.75
 40
0.75
 40
1.0
 40
1.0
 40
1.0
 40
1.0
 10
0.4776062992125985
 20
-0.100992125984252
 30
0.0
 10
0.4776062992125985
 20
-0.100992125984252
 30
0.0
 10
1.1248425196850393
 20
0.2767874015748031
 30
0.0
 10
1.1248425196850393
 20
0.2767874015748031
 30
0.0
 10
1.1248425196850393
 20
0.2767874015748031
 30
0.0
 10
1.1248425196850393
 20
0.2767874015748031
 30
0.0
 10
1.1043740157480315
 20
0.2415472440944882
 30
0.0
 10
1.1043740157480315
 20
0.2415472440944882
 30
0.0
 10
1.1043740157480315
 20
0.2415472440944882
 30
0.0
 10
1.1043740157480315
 20
0.2415472440944882
 30
0.0
 10
0.4571377952755906
 20
-0.1362322834645669
 30
0.0
 10
0.4571377952755906
 20
-0.1362322834645669
 30
0.0
 10
0.4571377952755906
 20
-0.1362322834645669
 30
0.0
 10
0.4571377952755906
 20
-0.1362322834645669
 30
0.0
 10
0.4776062992125985
 20
-0.100992125984252
 30
0.0
 10
0.4776062992125985
 20
-0.100992125984252
 30
0.0
  0
SPLINE
  5
70
100
AcDbEntity
  8
Layer 1
 62
     9
100
AcDbSpline
210
0.0
220
0.0
230
1.0
 70
     1
 71
     3
 72
    20
 73
    16
 74
     0
 42
0.0000000001
 43
0.0000000001
 40
0.0
 40
0.0
 40
0.0
 40
0.0
 40
0.25
 40
0.25
 40
0.25
 40
0.25
 40
0.5
 40
0.5
 40
0.5
 40
0.5
 40
0.75
 40
0.75
 40
0.75
 40
0.75
 40
1.0
 40
1.0
 40
1.0
 40
1.0
 10
0.4571377952755906
 20
-0.1362322834645669
 30
0.0
 10
0.4571377952755906
 20
-0.1362322834645669
 30
0.0
 10
1.1043740157480315
 20
0.2415472440944882
 30
0.0
 10
1.1043740157480315
 20
0.2415472440944882
 30
0.0
 10
1.1043740157480315
 20
0.2415472440944882
 30
0.0
 10
1.1043740157480315
 20
0.2415472440944882
 30
0.0
 10
1.0805
 20
0.207484251968504
 30
0.0
 10
1.0805
 20
0.207484251968504
 30
0.0
 10
1.0805
 20
0.207484251968504
 30
0.0
 10
1.0805
 20
0.207484251968504
 30
0.0
 10
0.4332637795275591
 20
-0.1702952755905512
 30
0.0
 10
0.4332637795275591
 20
-0.1702952755905512
 30
0.0
 10
0.4332637795275591
 20
-0.1702952755905512
 30
0.0
 10
0.4332637795275591
 20
-0.1702952755905512
 30
0.0
 10
0.4571377952755906
 20
-0.1362322834645669
 30
0.0
 10
0.4571377952755906
 20
-0.1362322834645669
 30
0.0
  0
SPLINE
  5
71
100
AcDbEntity
  8
Layer 1
 62
     9
100
AcDbSpline
210
0.0
220
0.0
230
1.0
 70
     1
 71
     3
 72
    20
 73
    16
 74
     0
 42
0.0000000001
 43
0.0000000001
 40
0.0
 40
0.0
 40
0.0
 40
0.0
 40
0.25
 40
0.25
 40
0.25
 40
0.25
 40
0.5
 40
0.5
 40
0.5
 40
0.5
 40
0.75
 40
0.75
 40
0.75
 40
0.75
 40
1.0
 40
1.0
 40
1.0
 40
1.0
 10
0.4332637795275591
 20
-0.1702952755905512
 30
0.0
 10
0.4332637795275591
 20
-0.1702952755905512
 30
0.0
 10
1.0805
 20
0.207484251968504
 30
0.0
 10
1.0805
 20
0.207484251968504
 30
0.0
 10
1.0805
 20
0.207484251968504
 30
0.0
 10
1.0805
 20
0.207484251968504
 30
0.0
 10
1.0531181102362206
 20
0.1747795275590551
 30
0.0
 10
1.0531181102362206
 20
0.1747795275590551
 30
0.0
 10
1.0531181102362206
 20
0.1747795275590551
 30
0.0
 10
1.0531181102362206
 20
0.1747795275590551
 30
0.0
 10
0.4058818897637795
 20
-0.203
 30
0.0
 10
0.4058818897637795
 20
-0.203
 30
0.0
 10
0.4058818897637795
 20
-0.203
 30
0.0
 10
0.4058818897637795
 20
-0.203
 30
0.0
 10
0.4332637795275591
 20
-0.1702952755905512
 30
0.0
 10
0.4332637795275591
 20
-0.1702952755905512
 30
0.0
  0
SPLINE
  5
72
100
AcDbEntity
  8
Layer 1
 62
     9
100
AcDbSpline
210
0.0
220
0.0
230
1.0
 70
     1
 71
     3
 72
    20
 73
    16
 74
     0
 42
0.0000000001
 43
0.0000000001
 40
0.0
 40
0.0
 40
0.0
 40
0.0
 40
0.25
 40
0.25
 40
0.25
 40
0.25
 40
0.5
 40
0.5
 40
0.5
 40
0.5
 40
0.75
 40
0.75
 40
0.75
 40
0.75
 40
1.0
 40
1.0
 40
1.0
 40
1.0
 10
0.4058818897637795
 20
-0.203
 30
0.0
 10
0.4058818897637795
 20
-0.203
 30
0.0
 10
1.0531181102362206
 20
0.1747795275590551
 30
0.0
 10
1.0531181102362206
 20
0.1747795275590551
 30
0.0
 10
1.0531181102362206
 20
0.1747795275590551
 30
0.0
 10
1.0531181102362206
 20
0.1747795275590551
 30
0.0
 10
1.0221062992125984
 20
0.1436417322834646
 30
0.0
 10
1.0221062992125984
 20
0.1436417322834646
 30
0.0
 10
1.0221062992125984
 20
0.1436417322834646
 30
0.0
 10
1.0221062992125984
 20
0.1436417322834646
 30
0.0
 10
0.3748700787401575
 20
-0.2341377952755906
 30
0.0
 10
0.3748700787401575
 20
-0.2341377952755906
 30
0.0
 10
0.3748700787401575
 20
-0.2341377952755906
 30
0.0
 10
0.3748700787401575
 20
-0.2341377952755906
 30
0.0
 10
0.4058818897637795
 20
-0.203
 30
0.0
 10
0.4058818897637795
 20
-0.203
 30
0.0
  0
SPLINE
  5
73
100
AcDbEntity
  8
Layer 1
 62
     9
100
AcDbSpline
210
0.0
220
0.0
230
1.0
 70
     1
 71
     3
 72
    20
 73
    16
 74
     0
 42
0.0000000001
 43
0.0000000001
 40
0.0
 40
0.0
 40
0.0
 40
0.0
 40
0.25
 40
0.25
 40
0.25
 40
0.25
 40
0.5
 40
0.5
 40
0.5
 40
0.5
 40
0.75
 40
0.75
 40
0.75
 40
0.75
 40
1.0
 40
1.0
 40
1.0
 40
1.0
 10
0.3748700787401575
 20
-0.2341377952755906
 30
0.0
 10
0.3748700787401575
 20
-0.2341377952755906
 30
0.0
 10
1.0221062992125984
 20
0.1436417322834646
 30
0.0
 10
1.0221062992125984
 20
0.1436417322834646
 30
0.0
 10
1.0221062992125984
 20
0.1436417322834646
 30
0.0
 10
1.0221062992125984
 20
0.1436417322834646
 30
0.0
 10
0.9873661417322835
 20
0.114251968503937
 30
0.0
 10
0.9873661417322835
 20
0.114251968503937
 30
0.0
 10
0.9873661417322835
 20
0.114251968503937
 30
0.0
 10
0.9873661417322835
 20
0.114251968503937
 30
0.0
 10
0.3401299212598425
 20
-0.2635275590551181
 30
0.0
 10
0.3401299212598425
 20
-0.2635275590551181
 30
0.0
 10
0.3401299212598425
 20
-0.2635275590551181
 30
0.0
 10
0.3401299212598425
 20
-0.2635275590551181
 30
0.0
 10
0.3748700787401575
 20
-0.2341377952755906
 30
0.0
 10
0.3748700787401575
 20
-0.2341377952755906
 30
0.0
  0
SPLINE
  5
74
100
AcDbEntity
  8
Layer 1
 62
   253
100
AcDbSpline
210
0.0
220
0.0
230
1.0
 70
     1
 71
     3
 72
    20
 73
    16
 74
     0
 42
0.0000000001
 43
0.0000000001
 40
0.0
 40
0.0
 40
0.0
 40
0.0
 40
0.25
 40
0.25
 40
0.25
 40
0.25
 40
0.5
 40
0.5
 40
0.5
 40
0.5
 40
0.75
 40
0.75
 40
0.75
 40
0.75
 40
1.0
 40
1.0
 40
1.0
 40
1.0
 10
0.3401299212598425
 20
-0.2635275590551181
 30
0.0
 10
0.3401299212598425
 20
-0.2635275590551181
 30
0.0
 10
0.9873661417322835
 20
0.114251968503937
 30
0.0
 10
0.9873661417322835
 20
0.114251968503937
 30
0.0
 10
0.9873661417322835
 20
0.114251968503937
 30
0.0
 10
0.9873661417322835
 20
0.114251968503937
 30
0.0
 10
0.9487874015748032
 20
0.0868110236220472
 30
0.0
 10
0.9487874015748032
 20
0.0868110236220472
 30
0.0
 10
0.9487874015748032
 20
0.0868110236220472
 30
0.0
 10
0.9487874015748032
 20
0.0868110236220472
 30
0.0
 10
0.3015511811023622
 20
-0.2909685039370079
 30
0.0
 10
0.3015511811023622
 20
-0.2909685039370079
 30
0.0
 10
0.3015511811023622
 20
-0.2909685039370079
 30
0.0
 10
0.3015511811023622
 20
-0.2909685039370079
 30
0.0
 10
0.3401299212598425
 20
-0.2635275590551181
 30
0.0
 10
0.3401299212598425
 20
-0.2635275590551181
 30
0.0
  0
SPLINE
  5
75
100
AcDbEntity
  8
Layer 1
370
     5
100
AcDbSpline
210
0.0
220
0.0
230
1.0
 70
     1
 71
     3
 72
   772
 73
   768
 74
     0
 42
0.0000000001
 43
0.0000000001
 40
0.0
 40
0.0
 40
0.0
 40
0.0
 40
0.0052083333333333
 40
0.0052083333333333
 40
0.0052083333333333
 40
0.0052083333333333
 40
0.0104166666666667
 40
0.0104166666666667
 40
0.0104166666666667
 40
0.0104166666666667
 40
0.015625
 40
0.015625
 40
0.015625
 40
0.015625
 40
0.0208333333333333
 40
0.0208333333333333
 40
0.0208333333333333
 40
0.0208333333333333
 40
0.0260416666666667
 40
0.0260416666666667
 40
0.0260416666666667
 40
0.0260416666666667
 40
0.03125
 40
0.03125
 40
0.03125
 40
0.03125
 40
0.0364583333333333
 40
0.0364583333333333
 40
0.0364583333333333
 40
0.0364583333333333
 40
0.0416666666666667
 40
0.0416666666666667
 40
0.0416666666666667
 40
0.0416666666666667
 40
0.046875
 40
0.046875
 40
0.046875
 40
0.046875
 40
0.0520833333333333
 40
0.0520833333333333
 40
0.0520833333333333
 40
0.0520833333333333
 40
0.0572916666666667
 40
0.0572916666666667
 40
0.0572916666666667
 40
0.0572916666666667
 40
0.0625
 40
0.0625
 40
0.0625
 40
0.0625
 40
0.0677083333333333
 40
0.0677083333333333
 40
0.0677083333333333
 40
0.0677083333333333
 40
0.0729166666666667
 40
0.0729166666666667
 40
0.0729166666666667
 40
0.0729166666666667
 40
0.078125
 40
0.078125
 40
0.078125
 40
0.078125
 40
0.0833333333333333
 40
0.0833333333333333
 40
0.0833333333333333
 40
0.0833333333333333
 40
0.0885416666666666
 40
0.0885416666666666
 40
0.0885416666666666
 40
0.0885416666666666
 40
0.09375
 40
0.09375
 40
0.09375
 40
0.09375
 40
0.0989583333333333
 40
0.0989583333333333
 40
0.0989583333333333
 40
0.0989583333333333
 40
0.1041666666666666
 40
0.1041666666666666
 40
0.1041666666666666
 40
0.1041666666666666
 40
0.109375
 40
0.109375
 40
0.109375
 40
0.109375
 40
0.1145833333333333
 40
0.1145833333333333
 40
0.1145833333333333
 40
0.1145833333333333
 40
0.1197916666666666
 40
0.1197916666666666
 40
0.1197916666666666
 40
0.1197916666666666
 40
0.1249999999999999
 40
0.1249999999999999
 40
0.1249999999999999
 40
0.1249999999999999
 40
0.1302083333333333
 40
0.1302083333333333
 40
0.1302083333333333
 40
0.1302083333333333
 40
0.1354166666666666
 40
0.1354166666666666
 40
0.1354166666666666
 40
0.1354166666666666
 40
0.140625
 40
0.140625
 40
0.140625
 40
0.140625
 40
0.1458333333333333
 40
0.1458333333333333
 40
0.1458333333333333
 40
0.1458333333333333
 40
0.1510416666666667
 40
0.1510416666666667
 40
0.1510416666666667
 40
0.1510416666666667
 40
0.15625
 40
0.15625
 40
0.15625
 40
0.15625
 40
0.1614583333333333
 40
0.1614583333333333
 40
0.1614583333333333
 40
0.1614583333333333
 40
0.1666666666666667
 40
0.1666666666666667
 40
0.1666666666666667
 40
0.1666666666666667
 40
0.171875
 40
0.171875
 40
0.171875
 40
0.171875
 40
0.1770833333333334
 40
0.1770833333333334
 40
0.1770833333333334
 40
0.1770833333333334
 40
0.1822916666666667
 40
0.1822916666666667
 40
0.1822916666666667
 40
0.1822916666666667
 40
0.1875000000000001
 40
0.1875000000000001
 40
0.1875000000000001
 40
0.1875000000000001
 40
0.1927083333333334
 40
0.1927083333333334
 40
0.1927083333333334
 40
0.1927083333333334
 40
0.1979166666666667
 40
0.1979166666666667
 40
0.1979166666666667
 40
0.1979166666666667
 40
0.2031250000000001
 40
0.2031250000000001
 40
0.2031250000000001
 40
0.2031250000000001
 40
0.2083333333333334
 40
0.2083333333333334
 40
0.2083333333333334
 40
0.2083333333333334
 40
0.2135416666666668
 40
0.2135416666666668
 40
0.2135416666666668
 40
0.2135416666666668
 40
0.2187500000000001
 40
0.2187500000000001
 40
0.2187500000000001
 40
0.2187500000000001
 40
0.2239583333333335
 40
0.2239583333333335
 40
0.2239583333333335
 40
0.2239583333333335
 40
0.2291666666666668
 40
0.2291666666666668
 40
0.2291666666666668
 40
0.2291666666666668
 40
0.2343750000000001
 40
0.2343750000000001
 40
0.2343750000000001
 40
0.2343750000000001
 40
0.2395833333333335
 40
0.2395833333333335
 40
0.2395833333333335
 40
0.2395833333333335
 40
0.2447916666666668
 40
0.2447916666666668
 40
0.2447916666666668
 40
0.2447916666666668
 40
0.2500000000000002
 40
0.2500000000000002
 40
0.2500000000000002
 40
0.2500000000000002
 40
0.2552083333333335
 40
0.2552083333333335
 40
0.2552083333333335
 40
0.2552083333333335
 40
0.2604166666666668
 40
0.2604166666666668
 40
0.2604166666666668
 40
0.2604166666666668
 40
0.2656250000000001
 40
0.2656250000000001
 40
0.2656250000000001
 40
0.2656250000000001
 40
0.2708333333333334
 40
0.2708333333333334
 40
0.2708333333333334
 40
0.2708333333333334
 40
0.2760416666666667
 40
0.2760416666666667
 40
0.2760416666666667
 40
0.2760416666666667
 40
0.2812500000000001
 40
0.2812500000000001
 40
0.2812500000000001
 40
0.2812500000000001
 40
0.2864583333333334
 40
0.2864583333333334
 40
0.2864583333333334
 40
0.2864583333333334
 40
0.2916666666666667
 40
0.2916666666666667
 40
0.2916666666666667
 40
0.2916666666666667
 40
0.296875
 40
0.296875
 40
0.296875
 40
0.296875
 40
0.3020833333333333
 40
0.3020833333333333
 40
0.3020833333333333
 40
0.3020833333333333
 40
0.3072916666666666
 40
0.3072916666666666
 40
0.3072916666666666
 40
0.3072916666666666
 40
0.3124999999999999
 40
0.3124999999999999
 40
0.3124999999999999
 40
0.3124999999999999
 40
0.3177083333333333
 40
0.3177083333333333
 40
0.3177083333333333
 40
0.3177083333333333
 40
0.3229166666666666
 40
0.3229166666666666
 40
0.3229166666666666
 40
0.3229166666666666
 40
0.3281249999999999
 40
0.3281249999999999
 40
0.3281249999999999
 40
0.3281249999999999
 40
0.3333333333333332
 40
0.3333333333333332
 40
0.3333333333333332
 40
0.3333333333333332
 40
0.3385416666666665
 40
0.3385416666666665
 40
0.3385416666666665
 40
0.3385416666666665
 40
0.3437499999999998
 40
0.3437499999999998
 40
0.3437499999999998
 40
0.3437499999999998
 40
0.3489583333333332
 40
0.3489583333333332
 40
0.3489583333333332
 40
0.3489583333333332
 40
0.3541666666666665
 40
0.3541666666666665
 40
0.3541666666666665
 40
0.3541666666666665
 40
0.3593749999999998
 40
0.3593749999999998
 40
0.3593749999999998
 40
0.3593749999999998
 40
0.3645833333333331
 40
0.3645833333333331
 40
0.3645833333333331
 40
0.3645833333333331
 40
0.3697916666666664
 40
0.3697916666666664
 40
0.3697916666666664
 40
0.3697916666666664
 40
0.3749999999999997
 40
0.3749999999999997
 40
0.3749999999999997
 40
0.3749999999999997
 40
0.380208333333333
 40
0.380208333333333
 40
0.380208333333333
 40
0.380208333333333
 40
0.3854166666666664
 40
0.3854166666666664
 40
0.3854166666666664
 40
0.3854166666666664
 40
0.3906249999999997
 40
0.3906249999999997
 40
0.3906249999999997
 40
0.3906249999999997
 40
0.395833333333333
 40
0.395833333333333
 40
0.395833333333333
 40
0.395833333333333
 40
0.4010416666666663
 40
0.4010416666666663
 40
0.4010416666666663
 40
0.4010416666666663
 40
0.4062499999999996
 40
0.4062499999999996
 40
0.4062499999999996
 40
0.4062499999999996
 40
0.4114583333333329
 40
0.4114583333333329
 40
0.4114583333333329
 40
0.4114583333333329
 40
0.4166666666666662
 40
0.4166666666666662
 40
0.4166666666666662
 40
0.4166666666666662
 40
0.4218749999999996
 40
0.4218749999999996
 40
0.4218749999999996
 40
0.4218749999999996
 40
0.4270833333333329
 40
0.4270833333333329
 40
0.4270833333333329
 40
0.4270833333333329
 40
0.4322916666666662
 40
0.4322916666666662
 40
0.4322916666666662
 40
0.4322916666666662
 40
0.4374999999999995
 40
0.4374999999999995
 40
0.4374999999999995
 40
0.4374999999999995
 40
0.4427083333333328
 40
0.4427083333333328
 40
0.4427083333333328
 40
0.4427083333333328
 40
0.4479166666666661
 40
0.4479166666666661
 40
0.4479166666666661
 40
0.4479166666666661
 40
0.4531249999999994
 40
0.4531249999999994
 40
0.4531249999999994
 40
0.4531249999999994
 40
0.4583333333333328
 40
0.4583333333333328
 40
0.4583333333333328
 40
0.4583333333333328
 40
0.4635416666666661
 40
0.4635416666666661
 40
0.4635416666666661
 40
0.4635416666666661
 40
0.4687499999999994
 40
0.4687499999999994
 40
0.4687499999999994
 40
0.4687499999999994
 40
0.4739583333333327
 40
0.4739583333333327
 40
0.4739583333333327
 40
0.4739583333333327
 40
0.479166666666666
 40
0.479166666666666
 40
0.479166666666666
 40
0.479166666666666
 40
0.4843749999999993
 40
0.4843749999999993
 40
0.4843749999999993
 40
0.4843749999999993
 40
0.4895833333333327
 40
0.4895833333333327
 40
0.4895833333333327
 40
0.4895833333333327
 40
0.494791666666666
 40
0.494791666666666
 40
0.494791666666666
 40
0.494791666666666
 40
0.4999999999999993
 40
0.4999999999999993
 40
0.4999999999999993
 40
0.4999999999999993
 40
0.5052083333333326
 40
0.5052083333333326
 40
0.5052083333333326
 40
0.5052083333333326
 40
0.510416666666666
 40
0.510416666666666
 40
0.510416666666666
 40
0.510416666666666
 40
0.5156249999999993
 40
0.5156249999999993
 40
0.5156249999999993
 40
0.5156249999999993
 40
0.5208333333333327
 40
0.5208333333333327
 40
0.5208333333333327
 40
0.5208333333333327
 40
0.5260416666666661
 40
0.5260416666666661
 40
0.5260416666666661
 40
0.5260416666666661
 40
0.5312499999999994
 40
0.5312499999999994
 40
0.5312499999999994
 40
0.5312499999999994
 40
0.5364583333333328
 40
0.5364583333333328
 40
0.5364583333333328
 40
0.5364583333333328
 40
0.5416666666666662
 40
0.5416666666666662
 40
0.5416666666666662
 40
0.5416666666666662
 40
0.5468749999999996
 40
0.5468749999999996
 40
0.5468749999999996
 40
0.5468749999999996
 40
0.5520833333333329
 40
0.5520833333333329
 40
0.5520833333333329
 40
0.5520833333333329
 40
0.5572916666666663
 40
0.5572916666666663
 40
0.5572916666666663
 40
0.5572916666666663
 40
0.5624999999999997
 40
0.5624999999999997
 40
0.5624999999999997
 40
0.5624999999999997
 40
0.567708333333333
 40
0.567708333333333
 40
0.567708333333333
 40
0.567708333333333
 40
0.5729166666666664
 40
0.5729166666666664
 40
0.5729166666666664
 40
0.5729166666666664
 40
0.5781249999999998
 40
0.5781249999999998
 40
0.5781249999999998
 40
0.5781249999999998
 40
0.5833333333333332
 40
0.5833333333333332
 40
0.5833333333333332
 40
0.5833333333333332
 40
0.5885416666666665
 40
0.5885416666666665
 40
0.5885416666666665
 40
0.5885416666666665
 40
0.5937499999999999
 40
0.5937499999999999
 40
0.5937499999999999
 40
0.5937499999999999
 40
0.5989583333333333
 40
0.5989583333333333
 40
0.5989583333333333
 40
0.5989583333333333
 40
0.6041666666666666
 40
0.6041666666666666
 40
0.6041666666666666
 40
0.6041666666666666
 40
0.609375
 40
0.609375
 40
0.609375
 40
0.609375
 40
0.6145833333333334
 40
0.6145833333333334
 40
0.6145833333333334
 40
0.6145833333333334
 40
0.6197916666666667
 40
0.6197916666666667
 40
0.6197916666666667
 40
0.6197916666666667
 40
0.6250000000000001
 40
0.6250000000000001
 40
0.6250000000000001
 40
0.6250000000000001
 40
0.6302083333333335
 40
0.6302083333333335
 40
0.6302083333333335
 40
0.6302083333333335
 40
0.6354166666666669
 40
0.6354166666666669
 40
0.6354166666666669
 40
0.6354166666666669
 40
0.6406250000000002
 40
0.6406250000000002
 40
0.6406250000000002
 40
0.6406250000000002
 40
0.6458333333333336
 40
0.6458333333333336
 40
0.6458333333333336
 40
0.6458333333333336
 40
0.651041666666667
 40
0.651041666666667
 40
0.651041666666667
 40
0.651041666666667
 40
0.6562500000000003
 40
0.6562500000000003
 40
0.6562500000000003
 40
0.6562500000000003
 40
0.6614583333333337
 40
0.6614583333333337
 40
0.6614583333333337
 40
0.6614583333333337
 40
0.6666666666666671
 40
0.6666666666666671
 40
0.6666666666666671
 40
0.6666666666666671
 40
0.6718750000000004
 40
0.6718750000000004
 40
0.6718750000000004
 40
0.6718750000000004
 40
0.6770833333333338
 40
0.6770833333333338
 40
0.6770833333333338
 40
0.6770833333333338
 40
0.6822916666666672
 40
0.6822916666666672
 40
0.6822916666666672
 40
0.6822916666666672
 40
0.6875000000000006
 40
0.6875000000000006
 40
0.6875000000000006
 40
0.6875000000000006
 40
0.6927083333333339
 40
0.6927083333333339
 40
0.6927083333333339
 40
0.6927083333333339
 40
0.6979166666666673
 40
0.6979166666666673
 40
0.6979166666666673
 40
0.6979166666666673
 40
0.7031250000000007
 40
0.7031250000000007
 40
0.7031250000000007
 40
0.7031250000000007
 40
0.708333333333334
 40
0.708333333333334
 40
0.708333333333334
 40
0.708333333333334
 40
0.7135416666666674
 40
0.7135416666666674
 40
0.7135416666666674
 40
0.7135416666666674
 40
0.7187500000000008
 40
0.7187500000000008
 40
0.7187500000000008
 40
0.7187500000000008
 40
0.7239583333333342
 40
0.7239583333333342
 40
0.7239583333333342
 40
0.7239583333333342
 40
0.7291666666666675
 40
0.7291666666666675
 40
0.7291666666666675
 40
0.7291666666666675
 40
0.7343750000000009
 40
0.7343750000000009
 40
0.7343750000000009
 40
0.7343750000000009
 40
0.7395833333333343
 40
0.7395833333333343
 40
0.7395833333333343
 40
0.7395833333333343
 40
0.7447916666666676
 40
0.7447916666666676
 40
0.7447916666666676
 40
0.7447916666666676
 40
0.750000000000001
 40
0.750000000000001
 40
0.750000000000001
 40
0.750000000000001
 40
0.7552083333333344
 40
0.7552083333333344
 40
0.7552083333333344
 40
0.7552083333333344
 40
0.7604166666666677
 40
0.7604166666666677
 40
0.7604166666666677
 40
0.7604166666666677
 40
0.7656250000000011
 40
0.7656250000000011
 40
0.7656250000000011
 40
0.7656250000000011
 40
0.7708333333333345
 40
0.7708333333333345
 40
0.7708333333333345
 40
0.7708333333333345
 40
0.7760416666666679
 40
0.7760416666666679
 40
0.7760416666666679
 40
0.7760416666666679
 40
0.7812500000000012
 40
0.7812500000000012
 40
0.7812500000000012
 40
0.7812500000000012
 40
0.7864583333333346
 40
0.7864583333333346
 40
0.7864583333333346
 40
0.7864583333333346
 40
0.791666666666668
 40
0.791666666666668
 40
0.791666666666668
 40
0.791666666666668
 40
0.7968750000000013
 40
0.7968750000000013
 40
0.7968750000000013
 40
0.7968750000000013
 40
0.8020833333333347
 40
0.8020833333333347
 40
0.8020833333333347
 40
0.8020833333333347
 40
0.8072916666666681
 40
0.8072916666666681
 40
0.8072916666666681
 40
0.8072916666666681
 40
0.8125000000000014
 40
0.8125000000000014
 40
0.8125000000000014
 40
0.8125000000000014
 40
0.8177083333333348
 40
0.8177083333333348
 40
0.8177083333333348
 40
0.8177083333333348
 40
0.8229166666666682
 40
0.8229166666666682
 40
0.8229166666666682
 40
0.8229166666666682
 40
0.8281250000000016
 40
0.8281250000000016
 40
0.8281250000000016
 40
0.8281250000000016
 40
0.8333333333333349
 40
0.8333333333333349
 40
0.8333333333333349
 40
0.8333333333333349
 40
0.8385416666666683
 40
0.8385416666666683
 40
0.8385416666666683
 40
0.8385416666666683
 40
0.8437500000000017
 40
0.8437500000000017
 40
0.8437500000000017
 40
0.8437500000000017
 40
0.848958333333335
 40
0.848958333333335
 40
0.848958333333335
 40
0.848958333333335
 40
0.8541666666666684
 40
0.8541666666666684
 40
0.8541666666666684
 40
0.8541666666666684
 40
0.8593750000000018
 40
0.8593750000000018
 40
0.8593750000000018
 40
0.8593750000000018
 40
0.8645833333333352
 40
0.8645833333333352
 40
0.8645833333333352
 40
0.8645833333333352
 40
0.8697916666666685
 40
0.8697916666666685
 40
0.8697916666666685
 40
0.8697916666666685
 40
0.8750000000000019
 40
0.8750000000000019
 40
0.8750000000000019
 40
0.8750000000000019
 40
0.8802083333333353
 40
0.8802083333333353
 40
0.8802083333333353
 40
0.8802083333333353
 40
0.8854166666666686
 40
0.8854166666666686
 40
0.8854166666666686
 40
0.8854166666666686
 40
0.890625000000002
 40
0.890625000000002
 40
0.890625000000002
 40
0.890625000000002
 40
0.8958333333333354
 40
0.8958333333333354
 40
0.8958333333333354
 40
0.8958333333333354
 40
0.9010416666666687
 40
0.9010416666666687
 40
0.9010416666666687
 40
0.9010416666666687
 40
0.9062500000000021
 40
0.9062500000000021
 40
0.9062500000000021
 40
0.9062500000000021
 40
0.9114583333333355
 40
0.9114583333333355
 40
0.9114583333333355
 40
0.9114583333333355
 40
0.9166666666666689
 40
0.9166666666666689
 40
0.9166666666666689
 40
0.9166666666666689
 40
0.9218750000000022
 40
0.9218750000000022
 40
0.9218750000000022
 40
0.9218750000000022
 40
0.9270833333333356
 40
0.9270833333333356
 40
0.9270833333333356
 40
0.9270833333333356
 40
0.932291666666669
 40
0.932291666666669
 40
0.932291666666669
 40
0.932291666666669
 40
0.9375000000000023
 40
0.9375000000000023
 40
0.9375000000000023
 40
0.9375000000000023
 40
0.9427083333333357
 40
0.9427083333333357
 40
0.9427083333333357
 40
0.9427083333333357
 40
0.9479166666666691
 40
0.9479166666666691
 40
0.9479166666666691
 40
0.9479166666666691
 40
0.9531250000000024
 40
0.9531250000000024
 40
0.9531250000000024
 40
0.9531250000000024
 40
0.9583333333333358
 40
0.9583333333333358
 40
0.9583333333333358
 40
0.9583333333333358
 40
0.9635416666666692
 40
0.9635416666666692
 40
0.9635416666666692
 40
0.9635416666666692
 40
0.9687500000000026
 40
0.9687500000000026
 40
0.9687500000000026
 40
0.9687500000000026
 40
0.9739583333333359
 40
0.9739583333333359
 40
0.9739583333333359
 40
0.9739583333333359
 40
0.9791666666666693
 40
0.9791666666666693
 40
0.9791666666666693
 40
0.9791666666666693
 40
0.9843750000000027
 40
0.9843750000000027
 40
0.9843750000000027
 40
0.9843750000000027
 40
0.989583333333336
 40
0.989583333333336
 40
0.989583333333336
 40
0.989583333333336
 40
0.9947916666666694
 40
0.9947916666666694
 40
0.9947916666666694
 40
0.9947916666666694
 40
1.0
 40
1.0
 40
1.0
 40
1.0
 10
-0.7011929133858268
 20
1.2893582677165354
 30
0.0
 10
-0.7011929133858268
 20
1.2893582677165354
 30
0.0
 10
-0.0539566929133858
 20
1.6671377952755906
 30
0.0
 10
-0.0539566929133858
 20
1.6671377952755906
 30
0.0
 10
-0.0539566929133858
 20
1.6671377952755906
 30
0.0
 10
-0.0539566929133858
 20
1.6671377952755906
 30
0.0
 10
-0.0281692913385827
 20
1.6649055118110236
 30
0.0
 10
-0.0281692913385827
 20
1.6649055118110236
 30
0.0
 10
-0.0281692913385827
 20
1.6649055118110236
 30
0.0
 10
-0.0281692913385827
 20
1.6649055118110236
 30
0.0
 10
-0.0035551181102362
 20
1.6621456692913386
 30
0.0
 10
-0.0035551181102362
 20
1.6621456692913386
 30
0.0
 10
-0.0035551181102362
 20
1.6621456692913386
 30
0.0
 10
-0.0035551181102362
 20
1.6621456692913386
 30
0.0
 10
0.0198937007874016
 20
1.6588307086614174
 30
0.0
 10
0.0198937007874016
 20
1.6588307086614174
 30
0.0
 10
0.0198937007874016
 20
1.6588307086614174
 30
0.0
 10
0.0198937007874016
 20
1.6588307086614174
 30
0.0
 10
0.0421692913385827
 20
1.6549527559055119
 30
0.0
 10
0.0421692913385827
 20
1.6549527559055119
 30
0.0
 10
0.0421692913385827
 20
1.6549527559055119
 30
0.0
 10
0.0421692913385827
 20
1.6549527559055119
 30
0.0
 10
0.0632834645669291
 20
1.650476377952756
 30
0.0
 10
0.0632834645669291
 20
1.650476377952756
 30
0.0
 10
0.0632834645669291
 20
1.650476377952756
 30
0.0
 10
0.0632834645669291
 20
1.650476377952756
 30
0.0
 10
0.0832165354330709
 20
1.6454015748031496
 30
0.0
 10
0.0832165354330709
 20
1.6454015748031496
 30
0.0
 10
0.0832165354330709
 20
1.6454015748031496
 30
0.0
 10
0.0832165354330709
 20
1.6454015748031496
 30
0.0
 10
0.1019803149606299
 20
1.6396968503937008
 30
0.0
 10
0.1019803149606299
 20
1.6396968503937008
 30
0.0
 10
0.1019803149606299
 20
1.6396968503937008
 30
0.0
 10
0.1019803149606299
 20
1.6396968503937008
 30
0.0
 10
0.1195669291338583
 20
1.6333543307086615
 30
0.0
 10
0.1195669291338583
 20
1.6333543307086615
 30
0.0
 10
0.1195669291338583
 20
1.6333543307086615
 30
0.0
 10
0.1195669291338583
 20
1.6333543307086615
 30
0.0
 10
0.1359842519685039
 20
1.6263464566929136
 30
0.0
 10
0.1359842519685039
 20
1.6263464566929136
 30
0.0
 10
0.1359842519685039
 20
1.6263464566929136
 30
0.0
 10
0.1359842519685039
 20
1.6263464566929136
 30
0.0
 10
0.1512204724409449
 20
1.6186614173228346
 30
0.0
 10
0.1512204724409449
 20
1.6186614173228346
 30
0.0
 10
0.1512204724409449
 20
1.6186614173228346
 30
0.0
 10
0.1512204724409449
 20
1.6186614173228346
 30
0.0
 10
0.1652795275590551
 20
1.6102755905511812
 30
0.0
 10
0.1652795275590551
 20
1.6102755905511812
 30
0.0
 10
0.1652795275590551
 20
1.6102755905511812
 30
0.0
 10
0.1652795275590551
 20
1.6102755905511812
 30
0.0
 10
0.1781535433070866
 20
1.6011889763779528
 30
0.0
 10
0.1781535433070866
 20
1.6011889763779528
 30
0.0
 10
0.1781535433070866
 20
1.6011889763779528
 30
0.0
 10
0.1781535433070866
 20
1.6011889763779528
 30
0.0
 10
0.1898543307086614
 20
1.5913582677165354
 30
0.0
 10
0.1898543307086614
 20
1.5913582677165354
 30
0.0
 10
0.1898543307086614
 20
1.5913582677165354
 30
0.0
 10
0.1898543307086614
 20
1.5913582677165354
 30
0.0
 10
0.2003661417322835
 20
1.5807795275590553
 30
0.0
 10
0.2003661417322835
 20
1.5807795275590553
 30
0.0
 10
0.2003661417322835
 20
1.5807795275590553
 30
0.0
 10
0.2003661417322835
 20
1.5807795275590553
 30
0.0
 10
0.2096968503937008
 20
1.5694330708661417
 30
0.0
 10
0.2096968503937008
 20
1.5694330708661417
 30
0.0
 10
0.2096968503937008
 20
1.5694330708661417
 30
0.0
 10
0.2096968503937008
 20
1.5694330708661417
 30
0.0
 10
0.2178385826771654
 20
1.5573070866141734
 30
0.0
 10
0.2178385826771654
 20
1.5573070866141734
 30
0.0
 10
0.2178385826771654
 20
1.5573070866141734
 30
0.0
 10
0.2178385826771654
 20
1.5573070866141734
 30
0.0
 10
0.2248070866141732
 20
1.5443622047244094
 30
0.0
 10
0.2248070866141732
 20
1.5443622047244094
 30
0.0
 10
0.2248070866141732
 20
1.5443622047244094
 30
0.0
 10
0.2248070866141732
 20
1.5443622047244094
 30
0.0
 10
0.2305787401574803
 20
1.5306023622047245
 30
0.0
 10
0.2305787401574803
 20
1.5306023622047245
 30
0.0
 10
0.2305787401574803
 20
1.5306023622047245
 30
0.0
 10
0.2305787401574803
 20
1.5306023622047245
 30
0.0
 10
0.2351653543307087
 20
1.516
 30
0.0
 10
0.2351653543307087
 20
1.516
 30
0.0
 10
0.2351653543307087
 20
1.516
 30
0.0
 10
0.2351653543307087
 20
1.516
 30
0.0
 10
0.2385551181102362
 20
1.5005472440944883
 30
0.0
 10
0.2385551181102362
 20
1.5005472440944883
 30
0.0
 10
0.2385551181102362
 20
1.5005472440944883
 30
0.0
 10
0.2385551181102362
 20
1.5005472440944883
 30
0.0
 10
0.2407637795275591
 20
1.4842086614173229
 30
0.0
 10
0.2407637795275591
 20
1.4842086614173229
 30
0.0
 10
0.2407637795275591
 20
1.4842086614173229
 30
0.0
 10
0.2407637795275591
 20
1.4842086614173229
 30
0.0
 10
0.2417716535433071
 20
1.46698031496063
 30
0.0
 10
0.2417716535433071
 20
1.46698031496063
 30
0.0
 10
0.2417716535433071
 20
1.46698031496063
 30
0.0
 10
0.2417716535433071
 20
1.46698031496063
 30
0.0
 10
0.2415905511811024
 20
1.4488346456692913
 30
0.0
 10
0.2415905511811024
 20
1.4488346456692913
 30
0.0
 10
0.2415905511811024
 20
1.4488346456692913
 30
0.0
 10
0.2415905511811024
 20
1.4488346456692913
 30
0.0
 10
0.2402047244094488
 20
1.4297677165354332
 30
0.0
 10
0.2402047244094488
 20
1.4297677165354332
 30
0.0
 10
0.2402047244094488
 20
1.4297677165354332
 30
0.0
 10
0.2402047244094488
 20
1.4297677165354332
 30
0.0
 10
0.2376377952755906
 20
1.4097440944881889
 30
0.0
 10
0.2376377952755906
 20
1.4097440944881889
 30
0.0
 10
0.2376377952755906
 20
1.4097440944881889
 30
0.0
 10
0.2376377952755906
 20
1.4097440944881889
 30
0.0
 10
0.2338622047244095
 20
1.3887559055118111
 30
0.0
 10
0.2338622047244095
 20
1.3887559055118111
 30
0.0
 10
0.2338622047244095
 20
1.3887559055118111
 30
0.0
 10
0.2338622047244095
 20
1.3887559055118111
 30
0.0
 10
0.2288897637795276
 20
1.3667834645669292
 30
0.0
 10
0.2288897637795276
 20
1.3667834645669292
 30
0.0
 10
0.2288897637795276
 20
1.3667834645669292
 30
0.0
 10
0.2288897637795276
 20
1.3667834645669292
 30
0.0
 10
0.2227125984251969
 20
1.3438149606299212
 30
0.0
 10
0.2227125984251969
 20
1.3438149606299212
 30
0.0
 10
0.2227125984251969
 20
1.3438149606299212
 30
0.0
 10
0.2227125984251969
 20
1.3438149606299212
 30
0.0
 10
0.2153425196850394
 20
1.3198188976377954
 30
0.0
 10
0.2153425196850394
 20
1.3198188976377954
 30
0.0
 10
0.2153425196850394
 20
1.3198188976377954
 30
0.0
 10
0.2153425196850394
 20
1.3198188976377954
 30
0.0
 10
0.2067637795275591
 20
1.2947874015748031
 30
0.0
 10
0.2067637795275591
 20
1.2947874015748031
 30
0.0
 10
0.2067637795275591
 20
1.2947874015748031
 30
0.0
 10
0.2067637795275591
 20
1.2947874015748031
 30
0.0
 10
0.1969842519685039
 20
1.2687007874015748
 30
0.0
 10
0.1969842519685039
 20
1.2687007874015748
 30
0.0
 10
0.1969842519685039
 20
1.2687007874015748
 30
0.0
 10
0.1969842519685039
 20
1.2687007874015748
 30
0.0
 10
0.185988188976378
 20
1.2415433070866142
 30
0.0
 10
0.185988188976378
 20
1.2415433070866142
 30
0.0
 10
0.185988188976378
 20
1.2415433070866142
 30
0.0
 10
0.185988188976378
 20
1.2415433070866142
 30
0.0
 10
0.175259842519685
 20
1.2123228346456694
 30
0.0
 10
0.175259842519685
 20
1.2123228346456694
 30
0.0
 10
0.175259842519685
 20
1.2123228346456694
 30
0.0
 10
0.175259842519685
 20
1.2123228346456694
 30
0.0
 10
0.1682952755905512
 20
1.185244094488189
 30
0.0
 10
0.1682952755905512
 20
1.185244094488189
 30
0.0
 10
0.1682952755905512
 20
1.185244094488189
 30
0.0
 10
0.1682952755905512
 20
1.185244094488189
 30
0.0
 10
0.1649370078740158
 20
1.1602283464566929
 30
0.0
 10
0.1649370078740158
 20
1.1602283464566929
 30
0.0
 10
0.1649370078740158
 20
1.1602283464566929
 30
0.0
 10
0.1649370078740158
 20
1.1602283464566929
 30
0.0
 10
0.164992125984252
 20
1.1371968503937009
 30
0.0
 10
0.164992125984252
 20
1.1371968503937009
 30
0.0
 10
0.164992125984252
 20
1.1371968503937009
 30
0.0
 10
0.164992125984252
 20
1.1371968503937009
 30
0.0
 10
0.1683031496062992
 20
1.1160590551181102
 30
0.0
 10
0.1683031496062992
 20
1.1160590551181102
 30
0.0
 10
0.1683031496062992
 20
1.1160590551181102
 30
0.0
 10
0.1683031496062992
 20
1.1160590551181102
 30
0.0
 10
0.1746889763779528
 20
1.0967480314960629
 30
0.0
 10
0.1746889763779528
 20
1.0967480314960629
 30
0.0
 10
0.1746889763779528
 20
1.0967480314960629
 30
0.0
 10
0.1746889763779528
 20
1.0967480314960629
 30
0.0
 10
0.1839763779527559
 20
1.0791771653543307
 30
0.0
 10
0.1839763779527559
 20
1.0791771653543307
 30
0.0
 10
0.1839763779527559
 20
1.0791771653543307
 30
0.0
 10
0.1839763779527559
 20
1.0791771653543307
 30
0.0
 10
0.1959842519685039
 20
1.063275590551181
 30
0.0
 10
0.1959842519685039
 20
1.063275590551181
 30
0.0
 10
0.1959842519685039
 20
1.063275590551181
 30
0.0
 10
0.1959842519685039
 20
1.063275590551181
 30
0.0
 10
0.2105511811023622
 20
1.0489488188976379
 30
0.0
 10
0.2105511811023622
 20
1.0489488188976379
 30
0.0
 10
0.2105511811023622
 20
1.0489488188976379
 30
0.0
 10
0.2105511811023622
 20
1.0489488188976379
 30
0.0
 10
0.227492125984252
 20
1.0361338582677166
 30
0.0
 10
0.227492125984252
 20
1.0361338582677166
 30
0.0
 10
0.227492125984252
 20
1.0361338582677166
 30
0.0
 10
0.227492125984252
 20
1.0361338582677166
 30
0.0
 10
0.2466377952755906
 20
1.024740157480315
 30
0.0
 10
0.2466377952755906
 20
1.024740157480315
 30
0.0
 10
0.2466377952755906
 20
1.024740157480315
 30
0.0
 10
0.2466377952755906
 20
1.024740157480315
 30
0.0
 10
0.2678070866141732
 20
1.0147007874015748
 30
0.0
 10
0.2678070866141732
 20
1.0147007874015748
 30
0.0
 10
0.2678070866141732
 20
1.0147007874015748
 30
0.0
 10
0.2678070866141732
 20
1.0147007874015748
 30
0.0
 10
0.2908346456692914
 20
1.0059173228346456
 30
0.0
 10
0.2908346456692914
 20
1.0059173228346456
 30
0.0
 10
0.2908346456692914
 20
1.0059173228346456
 30
0.0
 10
0.2908346456692914
 20
1.0059173228346456
 30
0.0
 10
0.3155393700787402
 20
0.9983267716535433
 30
0.0
 10
0.3155393700787402
 20
0.9983267716535433
 30
0.0
 10
0.3155393700787402
 20
0.9983267716535433
 30
0.0
 10
0.3155393700787402
 20
0.9983267716535433
 30
0.0
 10
0.341751968503937
 20
0.9918425196850395
 30
0.0
 10
0.341751968503937
 20
0.9918425196850395
 30
0.0
 10
0.341751968503937
 20
0.9918425196850395
 30
0.0
 10
0.341751968503937
 20
0.9918425196850395
 30
0.0
 10
0.3692913385826772
 20
0.9863937007874016
 30
0.0
 10
0.3692913385826772
 20
0.9863937007874016
 30
0.0
 10
0.3692913385826772
 20
0.9863937007874016
 30
0.0
 10
0.3692913385826772
 20
0.9863937007874016
 30
0.0
 10
0.397992125984252
 20
0.9818818897637796
 30
0.0
 10
0.397992125984252
 20
0.9818818897637796
 30
0.0
 10
0.397992125984252
 20
0.9818818897637796
 30
0.0
 10
0.397992125984252
 20
0.9818818897637796
 30
0.0
 10
0.4276692913385827
 20
0.9782440944881891
 30
0.0
 10
0.4276692913385827
 20
0.9782440944881891
 30
0.0
 10
0.4276692913385827
 20
0.9782440944881891
 30
0.0
 10
0.4276692913385827
 20
0.9782440944881891
 30
0.0
 10
0.4581614173228347
 20
0.9753976377952757
 30
0.0
 10
0.4581614173228347
 20
0.9753976377952757
 30
0.0
 10
0.4581614173228347
 20
0.9753976377952757
 30
0.0
 10
0.4581614173228347
 20
0.9753976377952757
 30
0.0
 10
0.4892755905511811
 20
0.9732637795275591
 30
0.0
 10
0.4892755905511811
 20
0.9732637795275591
 30
0.0
 10
0.4892755905511811
 20
0.9732637795275591
 30
0.0
 10
0.4892755905511811
 20
0.9732637795275591
 30
0.0
 10
0.5208543307086614
 20
0.971755905511811
 30
0.0
 10
0.5208543307086614
 20
0.971755905511811
 30
0.0
 10
0.5208543307086614
 20
0.971755905511811
 30
0.0
 10
0.5208543307086614
 20
0.971755905511811
 30
0.0
 10
0.5527125984251968
 20
0.9708110236220473
 30
0.0
 10
0.5527125984251968
 20
0.9708110236220473
 30
0.0
 10
0.5527125984251968
 20
0.9708110236220473
 30
0.0
 10
0.5527125984251968
 20
0.9708110236220473
 30
0.0
 10
0.5846850393700788
 20
0.9703346456692914
 30
0.0
 10
0.5846850393700788
 20
0.9703346456692914
 30
0.0
 10
0.5846850393700788
 20
0.9703346456692914
 30
0.0
 10
0.5846850393700788
 20
0.9703346456692914
 30
0.0
 10
0.6165826771653543
 20
0.9702559055118111
 30
0.0
 10
0.6165826771653543
 20
0.9702559055118111
 30
0.0
 10
0.6165826771653543
 20
0.9702559055118111
 30
0.0
 10
0.6165826771653543
 20
0.9702559055118111
 30
0.0
 10
0.648244094488189
 20
0.970484251968504
 30
0.0
 10
0.648244094488189
 20
0.970484251968504
 30
0.0
 10
0.648244094488189
 20
0.970484251968504
 30
0.0
 10
0.648244094488189
 20
0.970484251968504
 30
0.0
 10
0.679492125984252
 20
0.9709527559055119
 30
0.0
 10
0.679492125984252
 20
0.9709527559055119
 30
0.0
 10
0.679492125984252
 20
0.9709527559055119
 30
0.0
 10
0.679492125984252
 20
0.9709527559055119
 30
0.0
 10
0.7101496062992126
 20
0.9715748031496063
 30
0.0
 10
0.7101496062992126
 20
0.9715748031496063
 30
0.0
 10
0.7101496062992126
 20
0.9715748031496063
 30
0.0
 10
0.7101496062992126
 20
0.9715748031496063
 30
0.0
 10
0.7400551181102363
 20
0.9722795275590551
 30
0.0
 10
0.7400551181102363
 20
0.9722795275590551
 30
0.0
 10
0.7400551181102363
 20
0.9722795275590551
 30
0.0
 10
0.7400551181102363
 20
0.9722795275590551
 30
0.0
 10
0.769011811023622
 20
0.9729724409448819
 30
0.0
 10
0.769011811023622
 20
0.9729724409448819
 30
0.0
 10
0.769011811023622
 20
0.9729724409448819
 30
0.0
 10
0.769011811023622
 20
0.9729724409448819
 30
0.0
 10
0.7968661417322835
 20
0.9735866141732283
 30
0.0
 10
0.7968661417322835
 20
0.9735866141732283
 30
0.0
 10
0.7968661417322835
 20
0.9735866141732283
 30
0.0
 10
0.7968661417322835
 20
0.9735866141732283
 30
0.0
 10
0.8234251968503937
 20
0.9740393700787402
 30
0.0
 10
0.8234251968503937
 20
0.9740393700787402
 30
0.0
 10
0.8234251968503937
 20
0.9740393700787402
 30
0.0
 10
0.8234251968503937
 20
0.9740393700787402
 30
0.0
 10
0.8485314960629922
 20
0.9742559055118111
 30
0.0
 10
0.8485314960629922
 20
0.9742559055118111
 30
0.0
 10
0.8485314960629922
 20
0.9742559055118111
 30
0.0
 10
0.8485314960629922
 20
0.9742559055118111
 30
0.0
 10
0.8777874015748032
 20
0.9724370078740158
 30
0.0
 10
0.8777874015748032
 20
0.9724370078740158
 30
0.0
 10
0.8777874015748032
 20
0.9724370078740158
 30
0.0
 10
0.8777874015748032
 20
0.9724370078740158
 30
0.0
 10
0.9063661417322835
 20
0.966968503937008
 30
0.0
 10
0.9063661417322835
 20
0.966968503937008
 30
0.0
 10
0.9063661417322835
 20
0.966968503937008
 30
0.0
 10
0.9063661417322835
 20
0.966968503937008
 30
0.0
 10
0.9341535433070867
 20
0.9580393700787402
 30
0.0
 10
0.9341535433070867
 20
0.9580393700787402
 30
0.0
 10
0.9341535433070867
 20
0.9580393700787402
 30
0.0
 10
0.9341535433070867
 20
0.9580393700787402
 30
0.0
 10
0.9610472440944883
 20
0.9458464566929135
 30
0.0
 10
0.9610472440944883
 20
0.9458464566929135
 30
0.0
 10
0.9610472440944883
 20
0.9458464566929135
 30
0.0
 10
0.9610472440944883
 20
0.9458464566929135
 30
0.0
 10
0.9869212598425198
 20
0.9305708661417323
 30
0.0
 10
0.9869212598425198
 20
0.9305708661417323
 30
0.0
 10
0.9869212598425198
 20
0.9305708661417323
 30
0.0
 10
0.9869212598425198
 20
0.9305708661417323
 30
0.0
 10
1.0116811023622048
 20
0.9124173228346457
 30
0.0
 10
1.0116811023622048
 20
0.9124173228346457
 30
0.0
 10
1.0116811023622048
 20
0.9124173228346457
 30
0.0
 10
1.0116811023622048
 20
0.9124173228346457
 30
0.0
 10
1.035212598425197
 20
0.8915748031496064
 30
0.0
 10
1.035212598425197
 20
0.8915748031496064
 30
0.0
 10
1.035212598425197
 20
0.8915748031496064
 30
0.0
 10
1.035212598425197
 20
0.8915748031496064
 30
0.0
 10
1.0574133858267718
 20
0.868240157480315
 30
0.0
 10
1.0574133858267718
 20
0.868240157480315
 30
0.0
 10
1.0574133858267718
 20
0.868240157480315
 30
0.0
 10
1.0574133858267718
 20
0.868240157480315
 30
0.0
 10
1.0781574803149607
 20
0.8425944881889764
 30
0.0
 10
1.0781574803149607
 20
0.8425944881889764
 30
0.0
 10
1.0781574803149607
 20
0.8425944881889764
 30
0.0
 10
1.0781574803149607
 20
0.8425944881889764
 30
0.0
 10
1.0973582677165354
 20
0.8148464566929135
 30
0.0
 10
1.0973582677165354
 20
0.8148464566929135
 30
0.0
 10
1.0973582677165354
 20
0.8148464566929135
 30
0.0
 10
1.0973582677165354
 20
0.8148464566929135
 30
0.0
 10
1.1148897637795276
 20
0.7851771653543307
 30
0.0
 10
1.1148897637795276
 20
0.7851771653543307
 30
0.0
 10
1.1148897637795276
 20
0.7851771653543307
 30
0.0
 10
1.1148897637795276
 20
0.7851771653543307
 30
0.0
 10
1.1306574803149607
 20
0.7537913385826772
 30
0.0
 10
1.1306574803149607
 20
0.7537913385826772
 30
0.0
 10
1.1306574803149607
 20
0.7537913385826772
 30
0.0
 10
1.1306574803149607
 20
0.7537913385826772
 30
0.0
 10
1.1445354330708661
 20
0.7208700787401575
 30
0.0
 10
1.1445354330708661
 20
0.7208700787401575
 30
0.0
 10
1.1445354330708661
 20
0.7208700787401575
 30
0.0
 10
1.1445354330708661
 20
0.7208700787401575
 30
0.0
 10
1.1564330708661417
 20
0.6866141732283465
 30
0.0
 10
1.1564330708661417
 20
0.6866141732283465
 30
0.0
 10
1.1564330708661417
 20
0.6866141732283465
 30
0.0
 10
1.1564330708661417
 20
0.6866141732283465
 30
0.0
 10
1.1662283464566929
 20
0.6512125984251969
 30
0.0
 10
1.1662283464566929
 20
0.6512125984251969
 30
0.0
 10
1.1662283464566929
 20
0.6512125984251969
 30
0.0
 10
1.1662283464566929
 20
0.6512125984251969
 30
0.0
 10
1.1738228346456694
 20
0.6148661417322835
 30
0.0
 10
1.1738228346456694
 20
0.6148661417322835
 30
0.0
 10
1.1738228346456694
 20
0.6148661417322835
 30
0.0
 10
1.1738228346456694
 20
0.6148661417322835
 30
0.0
 10
1.1790905511811025
 20
0.5777519685039371
 30
0.0
 10
1.1790905511811025
 20
0.5777519685039371
 30
0.0
 10
1.1790905511811025
 20
0.5777519685039371
 30
0.0
 10
1.1790905511811025
 20
0.5777519685039371
 30
0.0
 10
1.1819409448818898
 20
0.5400748031496063
 30
0.0
 10
1.1819409448818898
 20
0.5400748031496063
 30
0.0
 10
1.1819409448818898
 20
0.5400748031496063
 30
0.0
 10
1.1819409448818898
 20
0.5400748031496063
 30
0.0
 10
1.182251968503937
 20
0.5020275590551181
 30
0.0
 10
1.182251968503937
 20
0.5020275590551181
 30
0.0
 10
1.182251968503937
 20
0.5020275590551181
 30
0.0
 10
1.182251968503937
 20
0.5020275590551181
 30
0.0
 10
1.1799291338582678
 20
0.4638110236220472
 30
0.0
 10
1.1799291338582678
 20
0.4638110236220472
 30
0.0
 10
1.1799291338582678
 20
0.4638110236220472
 30
0.0
 10
1.1799291338582678
 20
0.4638110236220472
 30
0.0
 10
1.1748464566929133
 20
0.4255984251968504
 30
0.0
 10
1.1748464566929133
 20
0.4255984251968504
 30
0.0
 10
1.1748464566929133
 20
0.4255984251968504
 30
0.0
 10
1.1748464566929133
 20
0.4255984251968504
 30
0.0
 10
1.1669094488188976
 20
0.3876023622047244
 30
0.0
 10
1.1669094488188976
 20
0.3876023622047244
 30
0.0
 10
1.1669094488188976
 20
0.3876023622047244
 30
0.0
 10
1.1669094488188976
 20
0.3876023622047244
 30
0.0
 10
1.1560000000000001
 20
0.3500078740157481
 30
0.0
 10
1.1560000000000001
 20
0.3500078740157481
 30
0.0
 10
1.1560000000000001
 20
0.3500078740157481
 30
0.0
 10
1.1560000000000001
 20
0.3500078740157481
 30
0.0
 10
1.14201968503937
 20
0.313
 30
0.0
 10
1.14201968503937
 20
0.313
 30
0.0
 10
1.14201968503937
 20
0.313
 30
0.0
 10
1.14201968503937
 20
0.313
 30
0.0
 10
1.1248425196850393
 20
0.2767874015748031
 30
0.0
 10
1.1248425196850393
 20
0.2767874015748031
 30
0.0
 10
1.1248425196850393
 20
0.2767874015748031
 30
0.0
 10
1.1248425196850393
 20
0.2767874015748031
 30
0.0
 10
1.1043740157480315
 20
0.2415472440944882
 30
0.0
 10
1.1043740157480315
 20
0.2415472440944882
 30
0.0
 10
1.1043740157480315
 20
0.2415472440944882
 30
0.0
 10
1.1043740157480315
 20
0.2415472440944882
 30
0.0
 10
1.0805
 20
0.207484251968504
 30
0.0
 10
1.0805
 20
0.207484251968504
 30
0.0
 10
1.0805
 20
0.207484251968504
 30
0.0
 10
1.0805
 20
0.207484251968504
 30
0.0
 10
1.0531181102362206
 20
0.1747795275590551
 30
0.0
 10
1.0531181102362206
 20
0.1747795275590551
 30
0.0
 10
1.0531181102362206
 20
0.1747795275590551
 30
0.0
 10
1.0531181102362206
 20
0.1747795275590551
 30
0.0
 10
1.0221062992125984
 20
0.1436417322834646
 30
0.0
 10
1.0221062992125984
 20
0.1436417322834646
 30
0.0
 10
1.0221062992125984
 20
0.1436417322834646
 30
0.0
 10
1.0221062992125984
 20
0.1436417322834646
 30
0.0
 10
0.9873661417322835
 20
0.114251968503937
 30
0.0
 10
0.9873661417322835
 20
0.114251968503937
 30
0.0
 10
0.9873661417322835
 20
0.114251968503937
 30
0.0
 10
0.9873661417322835
 20
0.114251968503937
 30
0.0
 10
0.9487874015748032
 20
0.0868110236220472
 30
0.0
 10
0.9487874015748032
 20
0.0868110236220472
 30
0.0
 10
0.9487874015748032
 20
0.0868110236220472
 30
0.0
 10
0.9487874015748032
 20
0.0868110236220472
 30
0.0
 10
0.3015511811023622
 20
-0.2909685039370079
 30
0.0
 10
0.3015511811023622
 20
-0.2909685039370079
 30
0.0
 10
0.3015511811023622
 20
-0.2909685039370079
 30
0.0
 10
0.3015511811023622
 20
-0.2909685039370079
 30
0.0
 10
0.3401299212598425
 20
-0.2635275590551181
 30
0.0
 10
0.3401299212598425
 20
-0.2635275590551181
 30
0.0
 10
0.3401299212598425
 20
-0.2635275590551181
 30
0.0
 10
0.3401299212598425
 20
-0.2635275590551181
 30
0.0
 10
0.3748700787401575
 20
-0.2341377952755906
 30
0.0
 10
0.3748700787401575
 20
-0.2341377952755906
 30
0.0
 10
0.3748700787401575
 20
-0.2341377952755906
 30
0.0
 10
0.3748700787401575
 20
-0.2341377952755906
 30
0.0
 10
0.4058818897637795
 20
-0.203
 30
0.0
 10
0.4058818897637795
 20
-0.203
 30
0.0
 10
0.4058818897637795
 20
-0.203
 30
0.0
 10
0.4058818897637795
 20
-0.203
 30
0.0
 10
0.4332637795275591
 20
-0.1702952755905512
 30
0.0
 10
0.4332637795275591
 20
-0.1702952755905512
 30
0.0
 10
0.4332637795275591
 20
-0.1702952755905512
 30
0.0
 10
0.4332637795275591
 20
-0.1702952755905512
 30
0.0
 10
0.4571377952755906
 20
-0.1362322834645669
 30
0.0
 10
0.4571377952755906
 20
-0.1362322834645669
 30
0.0
 10
0.4571377952755906
 20
-0.1362322834645669
 30
0.0
 10
0.4571377952755906
 20
-0.1362322834645669
 30
0.0
 10
0.4776062992125985
 20
-0.100992125984252
 30
0.0
 10
0.4776062992125985
 20
-0.100992125984252
 30
0.0
 10
0.4776062992125985
 20
-0.100992125984252
 30
0.0
 10
0.4776062992125985
 20
-0.100992125984252
 30
0.0
 10
0.4947834645669292
 20
-0.0647795275590551
 30
0.0
 10
0.4947834645669292
 20
-0.0647795275590551
 30
0.0
 10
0.4947834645669292
 20
-0.0647795275590551
 30
0.0
 10
0.4947834645669292
 20
-0.0647795275590551
 30
0.0
 10
0.508763779527559
 20
-0.0277716535433071
 30
0.0
 10
0.508763779527559
 20
-0.0277716535433071
 30
0.0
 10
0.508763779527559
 20
-0.0277716535433071
 30
0.0
 10
0.508763779527559
 20
-0.0277716535433071
 30
0.0
 10
0.5196732283464567
 20
0.0098228346456693
 30
0.0
 10
0.5196732283464567
 20
0.0098228346456693
 30
0.0
 10
0.5196732283464567
 20
0.0098228346456693
 30
0.0
 10
0.5196732283464567
 20
0.0098228346456693
 30
0.0
 10
0.5276102362204724
 20
0.0478188976377953
 30
0.0
 10
0.5276102362204724
 20
0.0478188976377953
 30
0.0
 10
0.5276102362204724
 20
0.0478188976377953
 30
0.0
 10
0.5276102362204724
 20
0.0478188976377953
 30
0.0
 10
0.5326929133858268
 20
0.0860314960629921
 30
0.0
 10
0.5326929133858268
 20
0.0860314960629921
 30
0.0
 10
0.5326929133858268
 20
0.0860314960629921
 30
0.0
 10
0.5326929133858268
 20
0.0860314960629921
 30
0.0
 10
0.5350157480314961
 20
0.124248031496063
 30
0.0
 10
0.5350157480314961
 20
0.124248031496063
 30
0.0
 10
0.5350157480314961
 20
0.124248031496063
 30
0.0
 10
0.5350157480314961
 20
0.124248031496063
 30
0.0
 10
0.5347047244094488
 20
0.1622952755905512
 30
0.0
 10
0.5347047244094488
 20
0.1622952755905512
 30
0.0
 10
0.5347047244094488
 20
0.1622952755905512
 30
0.0
 10
0.5347047244094488
 20
0.1622952755905512
 30
0.0
 10
0.5318543307086614
 20
0.1999724409448819
 30
0.0
 10
0.5318543307086614
 20
0.1999724409448819
 30
0.0
 10
0.5318543307086614
 20
0.1999724409448819
 30
0.0
 10
0.5318543307086614
 20
0.1999724409448819
 30
0.0
 10
0.5265866141732284
 20
0.2370866141732284
 30
0.0
 10
0.5265866141732284
 20
0.2370866141732284
 30
0.0
 10
0.5265866141732284
 20
0.2370866141732284
 30
0.0
 10
0.5265866141732284
 20
0.2370866141732284
 30
0.0
 10
0.518992125984252
 20
0.2734330708661418
 30
0.0
 10
0.518992125984252
 20
0.2734330708661418
 30
0.0
 10
0.518992125984252
 20
0.2734330708661418
 30
0.0
 10
0.518992125984252
 20
0.2734330708661418
 30
0.0
 10
0.5091968503937008
 20
0.3088346456692914
 30
0.0
 10
0.5091968503937008
 20
0.3088346456692914
 30
0.0
 10
0.5091968503937008
 20
0.3088346456692914
 30
0.0
 10
0.5091968503937008
 20
0.3088346456692914
 30
0.0
 10
0.4972992125984252
 20
0.3430905511811024
 30
0.0
 10
0.4972992125984252
 20
0.3430905511811024
 30
0.0
 10
0.4972992125984252
 20
0.3430905511811024
 30
0.0
 10
0.4972992125984252
 20
0.3430905511811024
 30
0.0
 10
0.4834212598425197
 20
0.3760118110236221
 30
0.0
 10
0.4834212598425197
 20
0.3760118110236221
 30
0.0
 10
0.4834212598425197
 20
0.3760118110236221
 30
0.0
 10
0.4834212598425197
 20
0.3760118110236221
 30
0.0
 10
0.4676535433070866
 20
0.4073976377952756
 30
0.0
 10
0.4676535433070866
 20
0.4073976377952756
 30
0.0
 10
0.4676535433070866
 20
0.4073976377952756
 30
0.0
 10
0.4676535433070866
 20
0.4073976377952756
 30
0.0
 10
0.4501220472440945
 20
0.4370669291338583
 30
0.0
 10
0.4501220472440945
 20
0.4370669291338583
 30
0.0
 10
0.4501220472440945
 20
0.4370669291338583
 30
0.0
 10
0.4501220472440945
 20
0.4370669291338583
 30
0.0
 10
0.4309212598425197
 20
0.4648149606299213
 30
0.0
 10
0.4309212598425197
 20
0.4648149606299213
 30
0.0
 10
0.4309212598425197
 20
0.4648149606299213
 30
0.0
 10
0.4309212598425197
 20
0.4648149606299213
 30
0.0
 10
0.4101771653543307
 20
0.4904606299212599
 30
0.0
 10
0.4101771653543307
 20
0.4904606299212599
 30
0.0
 10
0.4101771653543307
 20
0.4904606299212599
 30
0.0
 10
0.4101771653543307
 20
0.4904606299212599
 30
0.0
 10
0.3879763779527559
 20
0.5137952755905512
 30
0.0
 10
0.3879763779527559
 20
0.5137952755905512
 30
0.0
 10
0.3879763779527559
 20
0.5137952755905512
 30
0.0
 10
0.3879763779527559
 20
0.5137952755905512
 30
0.0
 10
0.3644448818897638
 20
0.5346377952755905
 30
0.0
 10
0.3644448818897638
 20
0.5346377952755905
 30
0.0
 10
0.3644448818897638
 20
0.5346377952755905
 30
0.0
 10
0.3644448818897638
 20
0.5346377952755905
 30
0.0
 10
0.3396850393700788
 20
0.5527913385826772
 30
0.0
 10
0.3396850393700788
 20
0.5527913385826772
 30
0.0
 10
0.3396850393700788
 20
0.5527913385826772
 30
0.0
 10
0.3396850393700788
 20
0.5527913385826772
 30
0.0
 10
0.3138110236220473
 20
0.5680669291338583
 30
0.0
 10
0.3138110236220473
 20
0.5680669291338583
 30
0.0
 10
0.3138110236220473
 20
0.5680669291338583
 30
0.0
 10
0.3138110236220473
 20
0.5680669291338583
 30
0.0
 10
0.2869173228346457
 20
0.5802598425196851
 30
0.0
 10
0.2869173228346457
 20
0.5802598425196851
 30
0.0
 10
0.2869173228346457
 20
0.5802598425196851
 30
0.0
 10
0.2869173228346457
 20
0.5802598425196851
 30
0.0
 10
0.2591299212598425
 20
0.5891889763779528
 30
0.0
 10
0.2591299212598425
 20
0.5891889763779528
 30
0.0
 10
0.2591299212598425
 20
0.5891889763779528
 30
0.0
 10
0.2591299212598425
 20
0.5891889763779528
 30
0.0
 10
0.2305511811023622
 20
0.5946574803149607
 30
0.0
 10
0.2305511811023622
 20
0.5946574803149607
 30
0.0
 10
0.2305511811023622
 20
0.5946574803149607
 30
0.0
 10
0.2305511811023622
 20
0.5946574803149607
 30
0.0
 10
0.2012952755905512
 20
0.5964763779527559
 30
0.0
 10
0.2012952755905512
 20
0.5964763779527559
 30
0.0
 10
0.2012952755905512
 20
0.5964763779527559
 30
0.0
 10
0.2012952755905512
 20
0.5964763779527559
 30
0.0
 10
0.1761889763779528
 20
0.5962598425196851
 30
0.0
 10
0.1761889763779528
 20
0.5962598425196851
 30
0.0
 10
0.1761889763779528
 20
0.5962598425196851
 30
0.0
 10
0.1761889763779528
 20
0.5962598425196851
 30
0.0
 10
0.1496299212598425
 20
0.5958070866141733
 30
0.0
 10
0.1496299212598425
 20
0.5958070866141733
 30
0.0
 10
0.1496299212598425
 20
0.5958070866141733
 30
0.0
 10
0.1496299212598425
 20
0.5958070866141733
 30
0.0
 10
0.1217755905511811
 20
0.5951929133858268
 30
0.0
 10
0.1217755905511811
 20
0.5951929133858268
 30
0.0
 10
0.1217755905511811
 20
0.5951929133858268
 30
0.0
 10
0.1217755905511811
 20
0.5951929133858268
 30
0.0
 10
0.0928188976377953
 20
0.5945
 30
0.0
 10
0.0928188976377953
 20
0.5945
 30
0.0
 10
0.0928188976377953
 20
0.5945
 30
0.0
 10
0.0928188976377953
 20
0.5945
 30
0.0
 10
0.0629133858267717
 20
0.5937952755905512
 30
0.0
 10
0.0629133858267717
 20
0.5937952755905512
 30
0.0
 10
0.0629133858267717
 20
0.5937952755905512
 30
0.0
 10
0.0629133858267717
 20
0.5937952755905512
 30
0.0
 10
0.032255905511811
 20
0.5931732283464567
 30
0.0
 10
0.032255905511811
 20
0.5931732283464567
 30
0.0
 10
0.032255905511811
 20
0.5931732283464567
 30
0.0
 10
0.032255905511811
 20
0.5931732283464567
 30
0.0
 10
0.001007874015748
 20
0.5927047244094489
 30
0.0
 10
0.001007874015748
 20
0.5927047244094489
 30
0.0
 10
0.001007874015748
 20
0.5927047244094489
 30
0.0
 10
0.001007874015748
 20
0.5927047244094489
 30
0.0
 10
-0.0306535433070866
 20
0.5924763779527559
 30
0.0
 10
-0.0306535433070866
 20
0.5924763779527559
 30
0.0
 10
-0.0306535433070866
 20
0.5924763779527559
 30
0.0
 10
-0.0306535433070866
 20
0.5924763779527559
 30
0.0
 10
-0.0625511811023622
 20
0.5925551181102362
 30
0.0
 10
-0.0625511811023622
 20
0.5925551181102362
 30
0.0
 10
-0.0625511811023622
 20
0.5925551181102362
 30
0.0
 10
-0.0625511811023622
 20
0.5925551181102362
 30
0.0
 10
-0.0945236220472441
 20
0.5930314960629921
 30
0.0
 10
-0.0945236220472441
 20
0.5930314960629921
 30
0.0
 10
-0.0945236220472441
 20
0.5930314960629921
 30
0.0
 10
-0.0945236220472441
 20
0.5930314960629921
 30
0.0
 10
-0.1263818897637795
 20
0.5939763779527559
 30
0.0
 10
-0.1263818897637795
 20
0.5939763779527559
 30
0.0
 10
-0.1263818897637795
 20
0.5939763779527559
 30
0.0
 10
-0.1263818897637795
 20
0.5939763779527559
 30
0.0
 10
-0.1579606299212598
 20
0.595484251968504
 30
0.0
 10
-0.1579606299212598
 20
0.595484251968504
 30
0.0
 10
-0.1579606299212598
 20
0.595484251968504
 30
0.0
 10
-0.1579606299212598
 20
0.595484251968504
 30
0.0
 10
-0.1890748031496063
 20
0.5976181102362205
 30
0.0
 10
-0.1890748031496063
 20
0.5976181102362205
 30
0.0
 10
-0.1890748031496063
 20
0.5976181102362205
 30
0.0
 10
-0.1890748031496063
 20
0.5976181102362205
 30
0.0
 10
-0.2195669291338583
 20
0.6004645669291339
 30
0.0
 10
-0.2195669291338583
 20
0.6004645669291339
 30
0.0
 10
-0.2195669291338583
 20
0.6004645669291339
 30
0.0
 10
-0.2195669291338583
 20
0.6004645669291339
 30
0.0
 10
-0.249244094488189
 20
0.6041023622047245
 30
0.0
 10
-0.249244094488189
 20
0.6041023622047245
 30
0.0
 10
-0.249244094488189
 20
0.6041023622047245
 30
0.0
 10
-0.249244094488189
 20
0.6041023622047245
 30
0.0
 10
-0.2779448818897638
 20
0.6086141732283464
 30
0.0
 10
-0.2779448818897638
 20
0.6086141732283464
 30
0.0
 10
-0.2779448818897638
 20
0.6086141732283464
 30
0.0
 10
-0.2779448818897638
 20
0.6086141732283464
 30
0.0
 10
-0.3054842519685039
 20
0.6140629921259843
 30
0.0
 10
-0.3054842519685039
 20
0.6140629921259843
 30
0.0
 10
-0.3054842519685039
 20
0.6140629921259843
 30
0.0
 10
-0.3054842519685039
 20
0.6140629921259843
 30
0.0
 10
-0.3316968503937008
 20
0.6205472440944883
 30
0.0
 10
-0.3316968503937008
 20
0.6205472440944883
 30
0.0
 10
-0.3316968503937008
 20
0.6205472440944883
 30
0.0
 10
-0.3316968503937008
 20
0.6205472440944883
 30
0.0
 10
-0.3564015748031496
 20
0.6281377952755906
 30
0.0
 10
-0.3564015748031496
 20
0.6281377952755906
 30
0.0
 10
-0.3564015748031496
 20
0.6281377952755906
 30
0.0
 10
-0.3564015748031496
 20
0.6281377952755906
 30
0.0
 10
-0.3794291338582677
 20
0.6369212598425197
 30
0.0
 10
-0.3794291338582677
 20
0.6369212598425197
 30
0.0
 10
-0.3794291338582677
 20
0.6369212598425197
 30
0.0
 10
-0.3794291338582677
 20
0.6369212598425197
 30
0.0
 10
-0.4005984251968504
 20
0.6469606299212599
 30
0.0
 10
-0.4005984251968504
 20
0.6469606299212599
 30
0.0
 10
-0.4005984251968504
 20
0.6469606299212599
 30
0.0
 10
-0.4005984251968504
 20
0.6469606299212599
 30
0.0
 10
-0.419744094488189
 20
0.6583543307086615
 30
0.0
 10
-0.419744094488189
 20
0.6583543307086615
 30
0.0
 10
-0.419744094488189
 20
0.6583543307086615
 30
0.0
 10
-0.419744094488189
 20
0.6583543307086615
 30
0.0
 10
-0.4366850393700787
 20
0.6711692913385827
 30
0.0
 10
-0.4366850393700787
 20
0.6711692913385827
 30
0.0
 10
-0.4366850393700787
 20
0.6711692913385827
 30
0.0
 10
-0.4366850393700787
 20
0.6711692913385827
 30
0.0
 10
-0.451251968503937
 20
0.6854960629921261
 30
0.0
 10
-0.451251968503937
 20
0.6854960629921261
 30
0.0
 10
-0.451251968503937
 20
0.6854960629921261
 30
0.0
 10
-0.451251968503937
 20
0.6854960629921261
 30
0.0
 10
-0.4632598425196851
 20
0.7013976377952756
 30
0.0
 10
-0.4632598425196851
 20
0.7013976377952756
 30
0.0
 10
-0.4632598425196851
 20
0.7013976377952756
 30
0.0
 10
-0.4632598425196851
 20
0.7013976377952756
 30
0.0
 10
-0.4725472440944882
 20
0.718968503937008
 30
0.0
 10
-0.4725472440944882
 20
0.718968503937008
 30
0.0
 10
-0.4725472440944882
 20
0.718968503937008
 30
0.0
 10
-0.4725472440944882
 20
0.718968503937008
 30
0.0
 10
-0.4789330708661417
 20
0.7382795275590551
 30
0.0
 10
-0.4789330708661417
 20
0.7382795275590551
 30
0.0
 10
-0.4789330708661417
 20
0.7382795275590551
 30
0.0
 10
-0.4789330708661417
 20
0.7382795275590551
 30
0.0
 10
-0.482244094488189
 20
0.7594173228346457
 30
0.0
 10
-0.482244094488189
 20
0.7594173228346457
 30
0.0
 10
-0.482244094488189
 20
0.7594173228346457
 30
0.0
 10
-0.482244094488189
 20
0.7594173228346457
 30
0.0
 10
-0.4822992125984252
 20
0.7824488188976378
 30
0.0
 10
-0.4822992125984252
 20
0.7824488188976378
 30
0.0
 10
-0.4822992125984252
 20
0.7824488188976378
 30
0.0
 10
-0.4822992125984252
 20
0.7824488188976378
 30
0.0
 10
-0.4789409448818898
 20
0.8074645669291339
 30
0.0
 10
-0.4789409448818898
 20
0.8074645669291339
 30
0.0
 10
-0.4789409448818898
 20
0.8074645669291339
 30
0.0
 10
-0.4789409448818898
 20
0.8074645669291339
 30
0.0
 10
-0.4719763779527559
 20
0.8345433070866142
 30
0.0
 10
-0.4719763779527559
 20
0.8345433070866142
 30
0.0
 10
-0.4719763779527559
 20
0.8345433070866142
 30
0.0
 10
-0.4719763779527559
 20
0.8345433070866142
 30
0.0
 10
-0.461248031496063
 20
0.8637637795275591
 30
0.0
 10
-0.461248031496063
 20
0.8637637795275591
 30
0.0
 10
-0.461248031496063
 20
0.8637637795275591
 30
0.0
 10
-0.461248031496063
 20
0.8637637795275591
 30
0.0
 10
-0.450251968503937
 20
0.8909212598425197
 30
0.0
 10
-0.450251968503937
 20
0.8909212598425197
 30
0.0
 10
-0.450251968503937
 20
0.8909212598425197
 30
0.0
 10
-0.450251968503937
 20
0.8909212598425197
 30
0.0
 10
-0.4404724409448819
 20
0.917007874015748
 30
0.0
 10
-0.4404724409448819
 20
0.917007874015748
 30
0.0
 10
-0.4404724409448819
 20
0.917007874015748
 30
0.0
 10
-0.4404724409448819
 20
0.917007874015748
 30
0.0
 10
-0.4318937007874016
 20
0.9420393700787402
 30
0.0
 10
-0.4318937007874016
 20
0.9420393700787402
 30
0.0
 10
-0.4318937007874016
 20
0.9420393700787402
 30
0.0
 10
-0.4318937007874016
 20
0.9420393700787402
 30
0.0
 10
-0.4245236220472441
 20
0.9660354330708662
 30
0.0
 10
-0.4245236220472441
 20
0.9660354330708662
 30
0.0
 10
-0.4245236220472441
 20
0.9660354330708662
 30
0.0
 10
-0.4245236220472441
 20
0.9660354330708662
 30
0.0
 10
-0.4183464566929134
 20
0.989003937007874
 30
0.0
 10
-0.4183464566929134
 20
0.989003937007874
 30
0.0
 10
-0.4183464566929134
 20
0.989003937007874
 30
0.0
 10
-0.4183464566929134
 20
0.989003937007874
 30
0.0
 10
-0.4133740157480315
 20
1.0109763779527559
 30
0.0
 10
-0.4133740157480315
 20
1.0109763779527559
 30
0.0
 10
-0.4133740157480315
 20
1.0109763779527559
 30
0.0
 10
-0.4133740157480315
 20
1.0109763779527559
 30
0.0
 10
-0.4095984251968504
 20
1.031964566929134
 30
0.0
 10
-0.4095984251968504
 20
1.031964566929134
 30
0.0
 10
-0.4095984251968504
 20
1.031964566929134
 30
0.0
 10
-0.4095984251968504
 20
1.031964566929134
 30
0.0
 10
-0.4070314960629922
 20
1.051988188976378
 30
0.0
 10
-0.4070314960629922
 20
1.051988188976378
 30
0.0
 10
-0.4070314960629922
 20
1.051988188976378
 30
0.0
 10
-0.4070314960629922
 20
1.051988188976378
 30
0.0
 10
-0.4056456692913386
 20
1.0710551181102363
 30
0.0
 10
-0.4056456692913386
 20
1.0710551181102363
 30
0.0
 10
-0.4056456692913386
 20
1.0710551181102363
 30
0.0
 10
-0.4056456692913386
 20
1.0710551181102363
 30
0.0
 10
-0.4054645669291339
 20
1.0892007874015748
 30
0.0
 10
-0.4054645669291339
 20
1.0892007874015748
 30
0.0
 10
-0.4054645669291339
 20
1.0892007874015748
 30
0.0
 10
-0.4054645669291339
 20
1.0892007874015748
 30
0.0
 10
-0.4064724409448819
 20
1.1064291338582677
 30
0.0
 10
-0.4064724409448819
 20
1.1064291338582677
 30
0.0
 10
-0.4064724409448819
 20
1.1064291338582677
 30
0.0
 10
-0.4064724409448819
 20
1.1064291338582677
 30
0.0
 10
-0.4086811023622047
 20
1.1227677165354331
 30
0.0
 10
-0.4086811023622047
 20
1.1227677165354331
 30
0.0
 10
-0.4086811023622047
 20
1.1227677165354331
 30
0.0
 10
-0.4086811023622047
 20
1.1227677165354331
 30
0.0
 10
-0.4120708661417323
 20
1.1382204724409448
 30
0.0
 10
-0.4120708661417323
 20
1.1382204724409448
 30
0.0
 10
-0.4120708661417323
 20
1.1382204724409448
 30
0.0
 10
-0.4120708661417323
 20
1.1382204724409448
 30
0.0
 10
-0.4166574803149606
 20
1.1528228346456693
 30
0.0
 10
-0.4166574803149606
 20
1.1528228346456693
 30
0.0
 10
-0.4166574803149606
 20
1.1528228346456693
 30
0.0
 10
-0.4166574803149606
 20
1.1528228346456693
 30
0.0
 10
-0.4224291338582678
 20
1.1665826771653545
 30
0.0
 10
-0.4224291338582678
 20
1.1665826771653545
 30
0.0
 10
-0.4224291338582678
 20
1.1665826771653545
 30
0.0
 10
-0.4224291338582678
 20
1.1665826771653545
 30
0.0
 10
-0.4293976377952756
 20
1.1795275590551182
 30
0.0
 10
-0.4293976377952756
 20
1.1795275590551182
 30
0.0
 10
-0.4293976377952756
 20
1.1795275590551182
 30
0.0
 10
-0.4293976377952756
 20
1.1795275590551182
 30
0.0
 10
-0.4375393700787402
 20
1.1916535433070867
 30
0.0
 10
-0.4375393700787402
 20
1.1916535433070867
 30
0.0
 10
-0.4375393700787402
 20
1.1916535433070867
 30
0.0
 10
-0.4375393700787402
 20
1.1916535433070867
 30
0.0
 10
-0.4468700787401575
 20
1.2030000000000001
 30
0.0
 10
-0.4468700787401575
 20
1.2030000000000001
 30
0.0
 10
-0.4468700787401575
 20
1.2030000000000001
 30
0.0
 10
-0.4468700787401575
 20
1.2030000000000001
 30
0.0
 10
-0.4573818897637795
 20
1.2135787401574805
 30
0.0
 10
-0.4573818897637795
 20
1.2135787401574805
 30
0.0
 10
-0.4573818897637795
 20
1.2135787401574805
 30
0.0
 10
-0.4573818897637795
 20
1.2135787401574805
 30
0.0
 10
-0.4690826771653543
 20
1.2234094488188978
 30
0.0
 10
-0.4690826771653543
 20
1.2234094488188978
 30
0.0
 10
-0.4690826771653543
 20
1.2234094488188978
 30
0.0
 10
-0.4690826771653543
 20
1.2234094488188978
 30
0.0
 10
-0.4819566929133858
 20
1.232496062992126
 30
0.0
 10
-0.4819566929133858
 20
1.232496062992126
 30
0.0
 10
-0.4819566929133858
 20
1.232496062992126
 30
0.0
 10
-0.4819566929133858
 20
1.232496062992126
 30
0.0
 10
-0.4960157480314961
 20
1.2408818897637797
 30
0.0
 10
-0.4960157480314961
 20
1.2408818897637797
 30
0.0
 10
-0.4960157480314961
 20
1.2408818897637797
 30
0.0
 10
-0.4960157480314961
 20
1.2408818897637797
 30
0.0
 10
-0.5112519685039371
 20
1.2485669291338584
 30
0.0
 10
-0.5112519685039371
 20
1.2485669291338584
 30
0.0
 10
-0.5112519685039371
 20
1.2485669291338584
 30
0.0
 10
-0.5112519685039371
 20
1.2485669291338584
 30
0.0
 10
-0.5276692913385827
 20
1.2555748031496063
 30
0.0
 10
-0.5276692913385827
 20
1.2555748031496063
 30
0.0
 10
-0.5276692913385827
 20
1.2555748031496063
 30
0.0
 10
-0.5276692913385827
 20
1.2555748031496063
 30
0.0
 10
-0.545255905511811
 20
1.2619173228346456
 30
0.0
 10
-0.545255905511811
 20
1.2619173228346456
 30
0.0
 10
-0.545255905511811
 20
1.2619173228346456
 30
0.0
 10
-0.545255905511811
 20
1.2619173228346456
 30
0.0
 10
-0.5640196850393701
 20
1.2676220472440944
 30
0.0
 10
-0.5640196850393701
 20
1.2676220472440944
 30
0.0
 10
-0.5640196850393701
 20
1.2676220472440944
 30
0.0
 10
-0.5640196850393701
 20
1.2676220472440944
 30
0.0
 10
-0.5839527559055119
 20
1.2726968503937008
 30
0.0
 10
-0.5839527559055119
 20
1.2726968503937008
 30
0.0
 10
-0.5839527559055119
 20
1.2726968503937008
 30
0.0
 10
-0.5839527559055119
 20
1.2726968503937008
 30
0.0
 10
-0.6050669291338583
 20
1.2771732283464567
 30
0.0
 10
-0.6050669291338583
 20
1.2771732283464567
 30
0.0
 10
-0.6050669291338583
 20
1.2771732283464567
 30
0.0
 10
-0.6050669291338583
 20
1.2771732283464567
 30
0.0
 10
-0.6273425196850394
 20
1.2810511811023622
 30
0.0
 10
-0.6273425196850394
 20
1.2810511811023622
 30
0.0
 10
-0.6273425196850394
 20
1.2810511811023622
 30
0.0
 10
-0.6273425196850394
 20
1.2810511811023622
 30
0.0
 10
-0.6507913385826772
 20
1.2843661417322836
 30
0.0
 10
-0.6507913385826772
 20
1.2843661417322836
 30
0.0
 10
-0.6507913385826772
 20
1.2843661417322836
 30
0.0
 10
-0.6507913385826772
 20
1.2843661417322836
 30
0.0
 10
-0.6754055118110236
 20
1.2871259842519684
 30
0.0
 10
-0.6754055118110236
 20
1.2871259842519684
 30
0.0
 10
-0.6754055118110236
 20
1.2871259842519684
 30
0.0
 10
-0.6754055118110236
 20
1.2871259842519684
 30
0.0
 10
-0.7011929133858268
 20
1.2893582677165354
 30
0.0
 10
-0.7011929133858268
 20
1.2893582677165354
 30
0.0
  0
SPLINE
  5
76
100
AcDbEntity
  8
Layer 1
 62
     9
100
AcDbSpline
210
0.0
220
0.0
230
1.0
 70
     1
 71
     3
 72
    20
 73
    16
 74
     0
 42
0.0000000001
 43
0.0000000001
 40
0.0
 40
0.0
 40
0.0
 40
0.0
 40
0.25
 40
0.25
 40
0.25
 40
0.25
 40
0.5
 40
0.5
 40
0.5
 40
0.5
 40
0.75
 40
0.75
 40
0.75
 40
0.75
 40
1.0
 40
1.0
 40
1.0
 40
1.0
 10
0.2590275590551181
 20
-0.3162755905511811
 30
0.0
 10
0.2590275590551181
 20
-0.3162755905511811
 30
0.0
 10
0.9062637795275591
 20
0.061503937007874
 30
0.0
 10
0.9062637795275591
 20
0.061503937007874
 30
0.0
 10
0.9062637795275591
 20
0.061503937007874
 30
0.0
 10
0.9062637795275591
 20
0.061503937007874
 30
0.0
 10
0.9062637795275591
 20
-0.1015590551181102
 30
0.0
 10
0.9062637795275591
 20
-0.1015590551181102
 30
0.0
 10
0.9062637795275591
 20
-0.1015590551181102
 30
0.0
 10
0.9062637795275591
 20
-0.1015590551181102
 30
0.0
 10
0.2590275590551181
 20
-0.4793385826771654
 30
0.0
 10
0.2590275590551181
 20
-0.4793385826771654
 30
0.0
 10
0.2590275590551181
 20
-0.4793385826771654
 30
0.0
 10
0.2590275590551181
 20
-0.4793385826771654
 30
0.0
 10
0.2590275590551181
 20
-0.3162755905511811
 30
0.0
 10
0.2590275590551181
 20
-0.3162755905511811
 30
0.0
  0
SPLINE
  5
77
100
AcDbEntity
  8
Layer 1
370
     5
100
AcDbSpline
210
0.0
220
0.0
230
1.0
 70
     1
 71
     3
 72
    20
 73
    16
 74
     0
 42
0.0000000001
 43
0.0000000001
 40
0.0
 40
0.0
 40
0.0
 40
0.0
 40
0.25
 40
0.25
 40
0.25
 40
0.25
 40
0.5
 40
0.5
 40
0.5
 40
0.5
 40
0.75
 40
0.75
 40
0.75
 40
0.75
 40
1.0
 40
1.0
 40
1.0
 40
1.0
 10
0.2590275590551181
 20
-0.3162755905511811
 30
0.0
 10
0.2590275590551181
 20
-0.3162755905511811
 30
0.0
 10
0.9062637795275591
 20
0.061503937007874
 30
0.0
 10
0.9062637795275591
 20
0.061503937007874
 30
0.0
 10
0.9062637795275591
 20
0.061503937007874
 30
0.0
 10
0.9062637795275591
 20
0.061503937007874
 30
0.0
 10
0.9062637795275591
 20
-0.1015590551181102
 30
0.0
 10
0.9062637795275591
 20
-0.1015590551181102
 30
0.0
 10
0.9062637795275591
 20
-0.1015590551181102
 30
0.0
 10
0.9062637795275591
 20
-0.1015590551181102
 30
0.0
 10
0.2590275590551181
 20
-0.4793385826771654
 30
0.0
 10
0.2590275590551181
 20
-0.4793385826771654
 30
0.0
 10
0.2590275590551181
 20
-0.4793385826771654
 30
0.0
 10
0.2590275590551181
 20
-0.4793385826771654
 30
0.0
 10
0.2590275590551181
 20
-0.3162755905511811
 30
0.0
 10
0.2590275590551181
 20
-0.3162755905511811
 30
0.0
  0
SPLINE
  5
78
100
AcDbEntity
  8
Layer 1
 62
   253
100
AcDbSpline
210
0.0
220
0.0
230
1.0
 70
     1
 71
     3
 72
    20
 73
    16
 74
     0
 42
0.0000000001
 43
0.0000000001
 40
0.0
 40
0.0
 40
0.0
 40
0.0
 40
0.25
 40
0.25
 40
0.25
 40
0.25
 40
0.5
 40
0.5
 40
0.5
 40
0.5
 40
0.75
 40
0.75
 40
0.75
 40
0.75
 40
1.0
 40
1.0
 40
1.0
 40
1.0
 10
-0.7857834645669292
 20
1.2893582677165354
 30
0.0
 10
-0.7857834645669292
 20
1.2893582677165354
 30
0.0
 10
-0.1385472440944882
 20
1.6671377952755906
 30
0.0
 10
-0.1385472440944882
 20
1.6671377952755906
 30
0.0
 10
-0.1385472440944882
 20
1.6671377952755906
 30
0.0
 10
-0.1385472440944882
 20
1.6671377952755906
 30
0.0
 10
-0.0539566929133858
 20
1.6671377952755906
 30
0.0
 10
-0.0539566929133858
 20
1.6671377952755906
 30
0.0
 10
-0.0539566929133858
 20
1.6671377952755906
 30
0.0
 10
-0.0539566929133858
 20
1.6671377952755906
 30
0.0
 10
-0.7011929133858268
 20
1.2893582677165354
 30
0.0
 10
-0.7011929133858268
 20
1.2893582677165354
 30
0.0
 10
-0.7011929133858268
 20
1.2893582677165354
 30
0.0
 10
-0.7011929133858268
 20
1.2893582677165354
 30
0.0
 10
-0.7857834645669292
 20
1.2893582677165354
 30
0.0
 10
-0.7857834645669292
 20
1.2893582677165354
 30
0.0
  0
SPLINE
  5
79
100
AcDbEntity
  8
Layer 1
370
     5
100
AcDbSpline
210
0.0
220
0.0
230
1.0
 70
     1
 71
     3
 72
    20
 73
    16
 74
     0
 42
0.0000000001
 43
0.0000000001
 40
0.0
 40
0.0
 40
0.0
 40
0.0
 40
0.25
 40
0.25
 40
0.25
 40
0.25
 40
0.5
 40
0.5
 40
0.5
 40
0.5
 40
0.75
 40
0.75
 40
0.75
 40
0.75
 40
1.0
 40
1.0
 40
1.0
 40
1.0
 10
-0.7857834645669292
 20
1.2893582677165354
 30
0.0
 10
-0.7857834645669292
 20
1.2893582677165354
 30
0.0
 10
-0.1385472440944882
 20
1.6671377952755906
 30
0.0
 10
-0.1385472440944882
 20
1.6671377952755906
 30
0.0
 10
-0.1385472440944882
 20
1.6671377952755906
 30
0.0
 10
-0.1385472440944882
 20
1.6671377952755906
 30
0.0
 10
-0.0539566929133858
 20
1.6671377952755906
 30
0.0
 10
-0.0539566929133858
 20
1.6671377952755906
 30
0.0
 10
-0.0539566929133858
 20
1.6671377952755906
 30
0.0
 10
-0.0539566929133858
 20
1.6671377952755906
 30
0.0
 10
-0.7011929133858268
 20
1.2893582677165354
 30
0.0
 10
-0.7011929133858268
 20
1.2893582677165354
 30
0.0
 10
-0.7011929133858268
 20
1.2893582677165354
 30
0.0
 10
-0.7011929133858268
 20
1.2893582677165354
 30
0.0
 10
-0.7857834645669292
 20
1.2893582677165354
 30
0.0
 10
-0.7857834645669292
 20
1.2893582677165354
 30
0.0
  0
SPLINE
  5
7A
100
AcDbEntity
  8
Layer 1
 62
   253
100
AcDbSpline
210
0.0
220
0.0
230
1.0
 70
     1
 71
     3
 72
    20
 73
    16
 74
     0
 42
0.0000000001
 43
0.0000000001
 40
0.0
 40
0.0
 40
0.0
 40
0.0
 40
0.25
 40
0.25
 40
0.25
 40
0.25
 40
0.5
 40
0.5
 40
0.5
 40
0.5
 40
0.75
 40
0.75
 40
0.75
 40
0.75
 40
1.0
 40
1.0
 40
1.0
 40
1.0
 10
-0.7011929133858268
 20
1.2893582677165354
 30
0.0
 10
-0.7011929133858268
 20
1.2893582677165354
 30
0.0
 10
-0.0539566929133858
 20
1.6671377952755906
 30
0.0
 10
-0.0539566929133858
 20
1.6671377952755906
 30
0.0
 10
-0.0539566929133858
 20
1.6671377952755906
 30
0.0
 10
-0.0539566929133858
 20
1.6671377952755906
 30
0.0
 10
-0.0281692913385827
 20
1.6649055118110236
 30
0.0
 10
-0.0281692913385827
 20
1.6649055118110236
 30
0.0
 10
-0.0281692913385827
 20
1.6649055118110236
 30
0.0
 10
-0.0281692913385827
 20
1.6649055118110236
 30
0.0
 10
-0.6754055118110236
 20
1.2871259842519684
 30
0.0
 10
-0.6754055118110236
 20
1.2871259842519684
 30
0.0
 10
-0.6754055118110236
 20
1.2871259842519684
 30
0.0
 10
-0.6754055118110236
 20
1.2871259842519684
 30
0.0
 10
-0.7011929133858268
 20
1.2893582677165354
 30
0.0
 10
-0.7011929133858268
 20
1.2893582677165354
 30
0.0
  0
SPLINE
  5
7B
100
AcDbEntity
  8
Layer 1
 62
   253
100
AcDbSpline
210
0.0
220
0.0
230
1.0
 70
     1
 71
     3
 72
    28
 73
    24
 74
     0
 42
0.0000000001
 43
0.0000000001
 40
0.0
 40
0.0
 40
0.0
 40
0.0
 40
0.1666666666666667
 40
0.1666666666666667
 40
0.1666666666666667
 40
0.1666666666666667
 40
0.3333333333333333
 40
0.3333333333333333
 40
0.3333333333333333
 40
0.3333333333333333
 40
0.5
 40
0.5
 40
0.5
 40
0.5
 40
0.6666666666666666
 40
0.6666666666666666
 40
0.6666666666666666
 40
0.6666666666666666
 40
0.8333333333333333
 40
0.8333333333333333
 40
0.8333333333333333
 40
0.8333333333333333
 40
1.0
 40
1.0
 40
1.0
 40
1.0
 10
-0.6754055118110236
 20
1.2871259842519684
 30
0.0
 10
-0.6754055118110236
 20
1.2871259842519684
 30
0.0
 10
-0.0281692913385827
 20
1.6649055118110236
 30
0.0
 10
-0.0281692913385827
 20
1.6649055118110236
 30
0.0
 10
-0.0281692913385827
 20
1.6649055118110236
 30
0.0
 10
-0.0281692913385827
 20
1.6649055118110236
 30
0.0
 10
-0.0035551181102362
 20
1.6621456692913386
 30
0.0
 10
-0.0035551181102362
 20
1.6621456692913386
 30
0.0
 10
-0.0035551181102362
 20
1.6621456692913386
 30
0.0
 10
-0.0035551181102362
 20
1.6621456692913386
 30
0.0
 10
0.0198937007874016
 20
1.6588307086614174
 30
0.0
 10
0.0198937007874016
 20
1.6588307086614174
 30
0.0
 10
0.0198937007874016
 20
1.6588307086614174
 30
0.0
 10
0.0198937007874016
 20
1.6588307086614174
 30
0.0
 10
-0.6273425196850394
 20
1.2810511811023622
 30
0.0
 10
-0.6273425196850394
 20
1.2810511811023622
 30
0.0
 10
-0.6273425196850394
 20
1.2810511811023622
 30
0.0
 10
-0.6273425196850394
 20
1.2810511811023622
 30
0.0
 10
-0.6507913385826772
 20
1.2843661417322836
 30
0.0
 10
-0.6507913385826772
 20
1.2843661417322836
 30
0.0
 10
-0.6507913385826772
 20
1.2843661417322836
 30
0.0
 10
-0.6507913385826772
 20
1.2843661417322836
 30
0.0
 10
-0.6754055118110236
 20
1.2871259842519684
 30
0.0
 10
-0.6754055118110236
 20
1.2871259842519684
 30
0.0
  0
SPLINE
  5
7C
100
AcDbEntity
  8
Layer 1
 62
   253
100
AcDbSpline
210
0.0
220
0.0
230
1.0
 70
     1
 71
     3
 72
    28
 73
    24
 74
     0
 42
0.0000000001
 43
0.0000000001
 40
0.0
 40
0.0
 40
0.0
 40
0.0
 40
0.1666666666666667
 40
0.1666666666666667
 40
0.1666666666666667
 40
0.1666666666666667
 40
0.3333333333333333
 40
0.3333333333333333
 40
0.3333333333333333
 40
0.3333333333333333
 40
0.5
 40
0.5
 40
0.5
 40
0.5
 40
0.6666666666666666
 40
0.6666666666666666
 40
0.6666666666666666
 40
0.6666666666666666
 40
0.8333333333333333
 40
0.8333333333333333
 40
0.8333333333333333
 40
0.8333333333333333
 40
1.0
 40
1.0
 40
1.0
 40
1.0
 10
-0.6273425196850394
 20
1.2810511811023622
 30
0.0
 10
-0.6273425196850394
 20
1.2810511811023622
 30
0.0
 10
0.0198937007874016
 20
1.6588307086614174
 30
0.0
 10
0.0198937007874016
 20
1.6588307086614174
 30
0.0
 10
0.0198937007874016
 20
1.6588307086614174
 30
0.0
 10
0.0198937007874016
 20
1.6588307086614174
 30
0.0
 10
0.0421692913385827
 20
1.6549527559055119
 30
0.0
 10
0.0421692913385827
 20
1.6549527559055119
 30
0.0
 10
0.0421692913385827
 20
1.6549527559055119
 30
0.0
 10
0.0421692913385827
 20
1.6549527559055119
 30
0.0
 10
0.0632834645669291
 20
1.650476377952756
 30
0.0
 10
0.0632834645669291
 20
1.650476377952756
 30
0.0
 10
0.0632834645669291
 20
1.650476377952756
 30
0.0
 10
0.0632834645669291
 20
1.650476377952756
 30
0.0
 10
-0.5839527559055119
 20
1.2726968503937008
 30
0.0
 10
-0.5839527559055119
 20
1.2726968503937008
 30
0.0
 10
-0.5839527559055119
 20
1.2726968503937008
 30
0.0
 10
-0.5839527559055119
 20
1.2726968503937008
 30
0.0
 10
-0.6050669291338583
 20
1.2771732283464567
 30
0.0
 10
-0.6050669291338583
 20
1.2771732283464567
 30
0.0
 10
-0.6050669291338583
 20
1.2771732283464567
 30
0.0
 10
-0.6050669291338583
 20
1.2771732283464567
 30
0.0
 10
-0.6273425196850394
 20
1.2810511811023622
 30
0.0
 10
-0.6273425196850394
 20
1.2810511811023622
 30
0.0
  0
SPLINE
  5
7D
100
AcDbEntity
  8
Layer 1
 62
   253
100
AcDbSpline
210
0.0
220
0.0
230
1.0
 70
     1
 71
     3
 72
    28
 73
    24
 74
     0
 42
0.0000000001
 43
0.0000000001
 40
0.0
 40
0.0
 40
0.0
 40
0.0
 40
0.1666666666666667
 40
0.1666666666666667
 40
0.1666666666666667
 40
0.1666666666666667
 40
0.3333333333333333
 40
0.3333333333333333
 40
0.3333333333333333
 40
0.3333333333333333
 40
0.5
 40
0.5
 40
0.5
 40
0.5
 40
0.6666666666666666
 40
0.6666666666666666
 40
0.6666666666666666
 40
0.6666666666666666
 40
0.8333333333333333
 40
0.8333333333333333
 40
0.8333333333333333
 40
0.8333333333333333
 40
1.0
 40
1.0
 40
1.0
 40
1.0
 10
-0.5839527559055119
 20
1.2726968503937008
 30
0.0
 10
-0.5839527559055119
 20
1.2726968503937008
 30
0.0
 10
0.0632834645669291
 20
1.650476377952756
 30
0.0
 10
0.0632834645669291
 20
1.650476377952756
 30
0.0
 10
0.0632834645669291
 20
1.650476377952756
 30
0.0
 10
0.0632834645669291
 20
1.650476377952756
 30
0.0
 10
0.0832165354330709
 20
1.6454015748031496
 30
0.0
 10
0.0832165354330709
 20
1.6454015748031496
 30
0.0
 10
0.0832165354330709
 20
1.6454015748031496
 30
0.0
 10
0.0832165354330709
 20
1.6454015748031496
 30
0.0
 10
0.1019803149606299
 20
1.6396968503937008
 30
0.0
 10
0.1019803149606299
 20
1.6396968503937008
 30
0.0
 10
0.1019803149606299
 20
1.6396968503937008
 30
0.0
 10
0.1019803149606299
 20
1.6396968503937008
 30
0.0
 10
-0.545255905511811
 20
1.2619173228346456
 30
0.0
 10
-0.545255905511811
 20
1.2619173228346456
 30
0.0
 10
-0.545255905511811
 20
1.2619173228346456
 30
0.0
 10
-0.545255905511811
 20
1.2619173228346456
 30
0.0
 10
-0.5640196850393701
 20
1.2676220472440944
 30
0.0
 10
-0.5640196850393701
 20
1.2676220472440944
 30
0.0
 10
-0.5640196850393701
 20
1.2676220472440944
 30
0.0
 10
-0.5640196850393701
 20
1.2676220472440944
 30
0.0
 10
-0.5839527559055119
 20
1.2726968503937008
 30
0.0
 10
-0.5839527559055119
 20
1.2726968503937008
 30
0.0
  0
SPLINE
  5
7E
100
AcDbEntity
  8
Layer 1
 62
   253
100
AcDbSpline
210
0.0
220
0.0
230
1.0
 70
     1
 71
     3
 72
    28
 73
    24
 74
     0
 42
0.0000000001
 43
0.0000000001
 40
0.0
 40
0.0
 40
0.0
 40
0.0
 40
0.1666666666666667
 40
0.1666666666666667
 40
0.1666666666666667
 40
0.1666666666666667
 40
0.3333333333333333
 40
0.3333333333333333
 40
0.3333333333333333
 40
0.3333333333333333
 40
0.5
 40
0.5
 40
0.5
 40
0.5
 40
0.6666666666666666
 40
0.6666666666666666
 40
0.6666666666666666
 40
0.6666666666666666
 40
0.8333333333333333
 40
0.8333333333333333
 40
0.8333333333333333
 40
0.8333333333333333
 40
1.0
 40
1.0
 40
1.0
 40
1.0
 10
-0.545255905511811
 20
1.2619173228346456
 30
0.0
 10
-0.545255905511811
 20
1.2619173228346456
 30
0.0
 10
0.1019803149606299
 20
1.6396968503937008
 30
0.0
 10
0.1019803149606299
 20
1.6396968503937008
 30
0.0
 10
0.1019803149606299
 20
1.6396968503937008
 30
0.0
 10
0.1019803149606299
 20
1.6396968503937008
 30
0.0
 10
0.1195669291338583
 20
1.6333543307086615
 30
0.0
 10
0.1195669291338583
 20
1.6333543307086615
 30
0.0
 10
0.1195669291338583
 20
1.6333543307086615
 30
0.0
 10
0.1195669291338583
 20
1.6333543307086615
 30
0.0
 10
0.1359842519685039
 20
1.6263464566929136
 30
0.0
 10
0.1359842519685039
 20
1.6263464566929136
 30
0.0
 10
0.1359842519685039
 20
1.6263464566929136
 30
0.0
 10
0.1359842519685039
 20
1.6263464566929136
 30
0.0
 10
-0.5112519685039371
 20
1.2485669291338584
 30
0.0
 10
-0.5112519685039371
 20
1.2485669291338584
 30
0.0
 10
-0.5112519685039371
 20
1.2485669291338584
 30
0.0
 10
-0.5112519685039371
 20
1.2485669291338584
 30
0.0
 10
-0.5276692913385827
 20
1.2555748031496063
 30
0.0
 10
-0.5276692913385827
 20
1.2555748031496063
 30
0.0
 10
-0.5276692913385827
 20
1.2555748031496063
 30
0.0
 10
-0.5276692913385827
 20
1.2555748031496063
 30
0.0
 10
-0.545255905511811
 20
1.2619173228346456
 30
0.0
 10
-0.545255905511811
 20
1.2619173228346456
 30
0.0
  0
SPLINE
  5
7F
100
AcDbEntity
  8
Layer 1
 62
     9
100
AcDbSpline
210
0.0
220
0.0
230
1.0
 70
     1
 71
     3
 72
    36
 73
    32
 74
     0
 42
0.0000000001
 43
0.0000000001
 40
0.0
 40
0.0
 40
0.0
 40
0.0
 40
0.125
 40
0.125
 40
0.125
 40
0.125
 40
0.25
 40
0.25
 40
0.25
 40
0.25
 40
0.375
 40
0.375
 40
0.375
 40
0.375
 40
0.5
 40
0.5
 40
0.5
 40
0.5
 40
0.625
 40
0.625
 40
0.625
 40
0.625
 40
0.75
 40
0.75
 40
0.75
 40
0.75
 40
0.875
 40
0.875
 40
0.875
 40
0.875
 40
1.0
 40
1.0
 40
1.0
 40
1.0
 10
-0.5112519685039371
 20
1.2485669291338584
 30
0.0
 10
-0.5112519685039371
 20
1.2485669291338584
 30
0.0
 10
0.1359842519685039
 20
1.6263464566929136
 30
0.0
 10
0.1359842519685039
 20
1.6263464566929136
 30
0.0
 10
0.1359842519685039
 20
1.6263464566929136
 30
0.0
 10
0.1359842519685039
 20
1.6263464566929136
 30
0.0
 10
0.1512204724409449
 20
1.6186614173228346
 30
0.0
 10
0.1512204724409449
 20
1.6186614173228346
 30
0.0
 10
0.1512204724409449
 20
1.6186614173228346
 30
0.0
 10
0.1512204724409449
 20
1.6186614173228346
 30
0.0
 10
0.1652795275590551
 20
1.6102755905511812
 30
0.0
 10
0.1652795275590551
 20
1.6102755905511812
 30
0.0
 10
0.1652795275590551
 20
1.6102755905511812
 30
0.0
 10
0.1652795275590551
 20
1.6102755905511812
 30
0.0
 10
0.1781535433070866
 20
1.6011889763779528
 30
0.0
 10
0.1781535433070866
 20
1.6011889763779528
 30
0.0
 10
0.1781535433070866
 20
1.6011889763779528
 30
0.0
 10
0.1781535433070866
 20
1.6011889763779528
 30
0.0
 10
-0.4690826771653543
 20
1.2234094488188978
 30
0.0
 10
-0.4690826771653543
 20
1.2234094488188978
 30
0.0
 10
-0.4690826771653543
 20
1.2234094488188978
 30
0.0
 10
-0.4690826771653543
 20
1.2234094488188978
 30
0.0
 10
-0.4819566929133858
 20
1.232496062992126
 30
0.0
 10
-0.4819566929133858
 20
1.232496062992126
 30
0.0
 10
-0.4819566929133858
 20
1.232496062992126
 30
0.0
 10
-0.4819566929133858
 20
1.232496062992126
 30
0.0
 10
-0.4960157480314961
 20
1.2408818897637797
 30
0.0
 10
-0.4960157480314961
 20
1.2408818897637797
 30
0.0
 10
-0.4960157480314961
 20
1.2408818897637797
 30
0.0
 10
-0.4960157480314961
 20
1.2408818897637797
 30
0.0
 10
-0.5112519685039371
 20
1.2485669291338584
 30
0.0
 10
-0.5112519685039371
 20
1.2485669291338584
 30
0.0
  0
SPLINE
  5
80
100
AcDbEntity
  8
Layer 1
 62
     9
100
AcDbSpline
210
0.0
220
0.0
230
1.0
 70
     1
 71
     3
 72
    36
 73
    32
 74
     0
 42
0.0000000001
 43
0.0000000001
 40
0.0
 40
0.0
 40
0.0
 40
0.0
 40
0.125
 40
0.125
 40
0.125
 40
0.125
 40
0.25
 40
0.25
 40
0.25
 40
0.25
 40
0.375
 40
0.375
 40
0.375
 40
0.375
 40
0.5
 40
0.5
 40
0.5
 40
0.5
 40
0.625
 40
0.625
 40
0.625
 40
0.625
 40
0.75
 40
0.75
 40
0.75
 40
0.75
 40
0.875
 40
0.875
 40
0.875
 40
0.875
 40
1.0
 40
1.0
 40
1.0
 40
1.0
 10
-0.4690826771653543
 20
1.2234094488188978
 30
0.0
 10
-0.4690826771653543
 20
1.2234094488188978
 30
0.0
 10
0.1781535433070866
 20
1.6011889763779528
 30
0.0
 10
0.1781535433070866
 20
1.6011889763779528
 30
0.0
 10
0.1781535433070866
 20
1.6011889763779528
 30
0.0
 10
0.1781535433070866
 20
1.6011889763779528
 30
0.0
 10
0.1898543307086614
 20
1.5913582677165354
 30
0.0
 10
0.1898543307086614
 20
1.5913582677165354
 30
0.0
 10
0.1898543307086614
 20
1.5913582677165354
 30
0.0
 10
0.1898543307086614
 20
1.5913582677165354
 30
0.0
 10
0.2003661417322835
 20
1.5807795275590553
 30
0.0
 10
0.2003661417322835
 20
1.5807795275590553
 30
0.0
 10
0.2003661417322835
 20
1.5807795275590553
 30
0.0
 10
0.2003661417322835
 20
1.5807795275590553
 30
0.0
 10
0.2096968503937008
 20
1.5694330708661417
 30
0.0
 10
0.2096968503937008
 20
1.5694330708661417
 30
0.0
 10
0.2096968503937008
 20
1.5694330708661417
 30
0.0
 10
0.2096968503937008
 20
1.5694330708661417
 30
0.0
 10
-0.4375393700787402
 20
1.1916535433070867
 30
0.0
 10
-0.4375393700787402
 20
1.1916535433070867
 30
0.0
 10
-0.4375393700787402
 20
1.1916535433070867
 30
0.0
 10
-0.4375393700787402
 20
1.1916535433070867
 30
0.0
 10
-0.4468700787401575
 20
1.2030000000000001
 30
0.0
 10
-0.4468700787401575
 20
1.2030000000000001
 30
0.0
 10
-0.4468700787401575
 20
1.2030000000000001
 30
0.0
 10
-0.4468700787401575
 20
1.2030000000000001
 30
0.0
 10
-0.4573818897637795
 20
1.2135787401574805
 30
0.0
 10
-0.4573818897637795
 20
1.2135787401574805
 30
0.0
 10
-0.4573818897637795
 20
1.2135787401574805
 30
0.0
 10
-0.4573818897637795
 20
1.2135787401574805
 30
0.0
 10
-0.4690826771653543
 20
1.2234094488188978
 30
0.0
 10
-0.4690826771653543
 20
1.2234094488188978
 30
0.0
  0
SPLINE
  5
81
100
AcDbEntity
  8
Layer 1
 62
     9
100
AcDbSpline
210
0.0
220
0.0
230
1.0
 70
     1
 71
     3
 72
    36
 73
    32
 74
     0
 42
0.0000000001
 43
0.0000000001
 40
0.0
 40
0.0
 40
0.0
 40
0.0
 40
0.125
 40
0.125
 40
0.125
 40
0.125
 40
0.25
 40
0.25
 40
0.25
 40
0.25
 40
0.375
 40
0.375
 40
0.375
 40
0.375
 40
0.5
 40
0.5
 40
0.5
 40
0.5
 40
0.625
 40
0.625
 40
0.625
 40
0.625
 40
0.75
 40
0.75
 40
0.75
 40
0.75
 40
0.875
 40
0.875
 40
0.875
 40
0.875
 40
1.0
 40
1.0
 40
1.0
 40
1.0
 10
-0.4375393700787402
 20
1.1916535433070867
 30
0.0
 10
-0.4375393700787402
 20
1.1916535433070867
 30
0.0
 10
0.2096968503937008
 20
1.5694330708661417
 30
0.0
 10
0.2096968503937008
 20
1.5694330708661417
 30
0.0
 10
0.2096968503937008
 20
1.5694330708661417
 30
0.0
 10
0.2096968503937008
 20
1.5694330708661417
 30
0.0
 10
0.2178385826771654
 20
1.5573070866141734
 30
0.0
 10
0.2178385826771654
 20
1.5573070866141734
 30
0.0
 10
0.2178385826771654
 20
1.5573070866141734
 30
0.0
 10
0.2178385826771654
 20
1.5573070866141734
 30
0.0
 10
0.2248070866141732
 20
1.5443622047244094
 30
0.0
 10
0.2248070866141732
 20
1.5443622047244094
 30
0.0
 10
0.2248070866141732
 20
1.5443622047244094
 30
0.0
 10
0.2248070866141732
 20
1.5443622047244094
 30
0.0
 10
0.2305787401574803
 20
1.5306023622047245
 30
0.0
 10
0.2305787401574803
 20
1.5306023622047245
 30
0.0
 10
0.2305787401574803
 20
1.5306023622047245
 30
0.0
 10
0.2305787401574803
 20
1.5306023622047245
 30
0.0
 10
-0.4166574803149606
 20
1.1528228346456693
 30
0.0
 10
-0.4166574803149606
 20
1.1528228346456693
 30
0.0
 10
-0.4166574803149606
 20
1.1528228346456693
 30
0.0
 10
-0.4166574803149606
 20
1.1528228346456693
 30
0.0
 10
-0.4224291338582678
 20
1.1665826771653545
 30
0.0
 10
-0.4224291338582678
 20
1.1665826771653545
 30
0.0
 10
-0.4224291338582678
 20
1.1665826771653545
 30
0.0
 10
-0.4224291338582678
 20
1.1665826771653545
 30
0.0
 10
-0.4293976377952756
 20
1.1795275590551182
 30
0.0
 10
-0.4293976377952756
 20
1.1795275590551182
 30
0.0
 10
-0.4293976377952756
 20
1.1795275590551182
 30
0.0
 10
-0.4293976377952756
 20
1.1795275590551182
 30
0.0
 10
-0.4375393700787402
 20
1.1916535433070867
 30
0.0
 10
-0.4375393700787402
 20
1.1916535433070867
 30
0.0
  0
SPLINE
  5
82
100
AcDbEntity
  8
Layer 1
 62
     9
100
AcDbSpline
210
0.0
220
0.0
230
1.0
 70
     1
 71
     3
 72
    36
 73
    32
 74
     0
 42
0.0000000001
 43
0.0000000001
 40
0.0
 40
0.0
 40
0.0
 40
0.0
 40
0.125
 40
0.125
 40
0.125
 40
0.125
 40
0.25
 40
0.25
 40
0.25
 40
0.25
 40
0.375
 40
0.375
 40
0.375
 40
0.375
 40
0.5
 40
0.5
 40
0.5
 40
0.5
 40
0.625
 40
0.625
 40
0.625
 40
0.625
 40
0.75
 40
0.75
 40
0.75
 40
0.75
 40
0.875
 40
0.875
 40
0.875
 40
0.875
 40
1.0
 40
1.0
 40
1.0
 40
1.0
 10
-0.4166574803149606
 20
1.1528228346456693
 30
0.0
 10
-0.4166574803149606
 20
1.1528228346456693
 30
0.0
 10
0.2305787401574803
 20
1.5306023622047245
 30
0.0
 10
0.2305787401574803
 20
1.5306023622047245
 30
0.0
 10
0.2305787401574803
 20
1.5306023622047245
 30
0.0
 10
0.2305787401574803
 20
1.5306023622047245
 30
0.0
 10
0.2351653543307087
 20
1.516
 30
0.0
 10
0.2351653543307087
 20
1.516
 30
0.0
 10
0.2351653543307087
 20
1.516
 30
0.0
 10
0.2351653543307087
 20
1.516
 30
0.0
 10
0.2385551181102362
 20
1.5005472440944883
 30
0.0
 10
0.2385551181102362
 20
1.5005472440944883
 30
0.0
 10
0.2385551181102362
 20
1.5005472440944883
 30
0.0
 10
0.2385551181102362
 20
1.5005472440944883
 30
0.0
 10
0.2407637795275591
 20
1.4842086614173229
 30
0.0
 10
0.2407637795275591
 20
1.4842086614173229
 30
0.0
 10
0.2407637795275591
 20
1.4842086614173229
 30
0.0
 10
0.2407637795275591
 20
1.4842086614173229
 30
0.0
 10
-0.4064724409448819
 20
1.1064291338582677
 30
0.0
 10
-0.4064724409448819
 20
1.1064291338582677
 30
0.0
 10
-0.4064724409448819
 20
1.1064291338582677
 30
0.0
 10
-0.4064724409448819
 20
1.1064291338582677
 30
0.0
 10
-0.4086811023622047
 20
1.1227677165354331
 30
0.0
 10
-0.4086811023622047
 20
1.1227677165354331
 30
0.0
 10
-0.4086811023622047
 20
1.1227677165354331
 30
0.0
 10
-0.4086811023622047
 20
1.1227677165354331
 30
0.0
 10
-0.4120708661417323
 20
1.1382204724409448
 30
0.0
 10
-0.4120708661417323
 20
1.1382204724409448
 30
0.0
 10
-0.4120708661417323
 20
1.1382204724409448
 30
0.0
 10
-0.4120708661417323
 20
1.1382204724409448
 30
0.0
 10
-0.4166574803149606
 20
1.1528228346456693
 30
0.0
 10
-0.4166574803149606
 20
1.1528228346456693
 30
0.0
  0
SPLINE
  5
83
100
AcDbEntity
  8
Layer 1
 62
     9
100
AcDbSpline
210
0.0
220
0.0
230
1.0
 70
     1
 71
     3
 72
    28
 73
    24
 74
     0
 42
0.0000000001
 43
0.0000000001
 40
0.0
 40
0.0
 40
0.0
 40
0.0
 40
0.1666666666666667
 40
0.1666666666666667
 40
0.1666666666666667
 40
0.1666666666666667
 40
0.3333333333333333
 40
0.3333333333333333
 40
0.3333333333333333
 40
0.3333333333333333
 40
0.5
 40
0.5
 40
0.5
 40
0.5
 40
0.6666666666666666
 40
0.6666666666666666
 40
0.6666666666666666
 40
0.6666666666666666
 40
0.8333333333333333
 40
0.8333333333333333
 40
0.8333333333333333
 40
0.8333333333333333
 40
1.0
 40
1.0
 40
1.0
 40
1.0
 10
-0.4064724409448819
 20
1.1064291338582677
 30
0.0
 10
-0.4064724409448819
 20
1.1064291338582677
 30
0.0
 10
0.2407637795275591
 20
1.4842086614173229
 30
0.0
 10
0.2407637795275591
 20
1.4842086614173229
 30
0.0
 10
0.2407637795275591
 20
1.4842086614173229
 30
0.0
 10
0.2407637795275591
 20
1.4842086614173229
 30
0.0
 10
0.2417716535433071
 20
1.46698031496063
 30
0.0
 10
0.2417716535433071
 20
1.46698031496063
 30
0.0
 10
0.2417716535433071
 20
1.46698031496063
 30
0.0
 10
0.2417716535433071
 20
1.46698031496063
 30
0.0
 10
0.2415905511811024
 20
1.4488346456692913
 30
0.0
 10
0.2415905511811024
 20
1.4488346456692913
 30
0.0
 10
0.2415905511811024
 20
1.4488346456692913
 30
0.0
 10
0.2415905511811024
 20
1.4488346456692913
 30
0.0
 10
-0.4056456692913386
 20
1.0710551181102363
 30
0.0
 10
-0.4056456692913386
 20
1.0710551181102363
 30
0.0
 10
-0.4056456692913386
 20
1.0710551181102363
 30
0.0
 10
-0.4056456692913386
 20
1.0710551181102363
 30
0.0
 10
-0.4054645669291339
 20
1.0892007874015748
 30
0.0
 10
-0.4054645669291339
 20
1.0892007874015748
 30
0.0
 10
-0.4054645669291339
 20
1.0892007874015748
 30
0.0
 10
-0.4054645669291339
 20
1.0892007874015748
 30
0.0
 10
-0.4064724409448819
 20
1.1064291338582677
 30
0.0
 10
-0.4064724409448819
 20
1.1064291338582677
 30
0.0
  0
SPLINE
  5
84
100
AcDbEntity
  8
Layer 1
 62
     9
100
AcDbSpline
210
0.0
220
0.0
230
1.0
 70
     1
 71
     3
 72
    28
 73
    24
 74
     0
 42
0.0000000001
 43
0.0000000001
 40
0.0
 40
0.0
 40
0.0
 40
0.0
 40
0.1666666666666667
 40
0.1666666666666667
 40
0.1666666666666667
 40
0.1666666666666667
 40
0.3333333333333333
 40
0.3333333333333333
 40
0.3333333333333333
 40
0.3333333333333333
 40
0.5
 40
0.5
 40
0.5
 40
0.5
 40
0.6666666666666666
 40
0.6666666666666666
 40
0.6666666666666666
 40
0.6666666666666666
 40
0.8333333333333333
 40
0.8333333333333333
 40
0.8333333333333333
 40
0.8333333333333333
 40
1.0
 40
1.0
 40
1.0
 40
1.0
 10
-0.4056456692913386
 20
1.0710551181102363
 30
0.0
 10
-0.4056456692913386
 20
1.0710551181102363
 30
0.0
 10
0.2415905511811024
 20
1.4488346456692913
 30
0.0
 10
0.2415905511811024
 20
1.4488346456692913
 30
0.0
 10
0.2415905511811024
 20
1.4488346456692913
 30
0.0
 10
0.2415905511811024
 20
1.4488346456692913
 30
0.0
 10
0.2402047244094488
 20
1.4297677165354332
 30
0.0
 10
0.2402047244094488
 20
1.4297677165354332
 30
0.0
 10
0.2402047244094488
 20
1.4297677165354332
 30
0.0
 10
0.2402047244094488
 20
1.4297677165354332
 30
0.0
 10
0.2376377952755906
 20
1.4097440944881889
 30
0.0
 10
0.2376377952755906
 20
1.4097440944881889
 30
0.0
 10
0.2376377952755906
 20
1.4097440944881889
 30
0.0
 10
0.2376377952755906
 20
1.4097440944881889
 30
0.0
 10
-0.4095984251968504
 20
1.031964566929134
 30
0.0
 10
-0.4095984251968504
 20
1.031964566929134
 30
0.0
 10
-0.4095984251968504
 20
1.031964566929134
 30
0.0
 10
-0.4095984251968504
 20
1.031964566929134
 30
0.0
 10
-0.4070314960629922
 20
1.051988188976378
 30
0.0
 10
-0.4070314960629922
 20
1.051988188976378
 30
0.0
 10
-0.4070314960629922
 20
1.051988188976378
 30
0.0
 10
-0.4070314960629922
 20
1.051988188976378
 30
0.0
 10
-0.4056456692913386
 20
1.0710551181102363
 30
0.0
 10
-0.4056456692913386
 20
1.0710551181102363
 30
0.0
  0
SPLINE
  5
85
100
AcDbEntity
  8
Layer 1
 62
     9
100
AcDbSpline
210
0.0
220
0.0
230
1.0
 70
     1
 71
     3
 72
    28
 73
    24
 74
     0
 42
0.0000000001
 43
0.0000000001
 40
0.0
 40
0.0
 40
0.0
 40
0.0
 40
0.1666666666666667
 40
0.1666666666666667
 40
0.1666666666666667
 40
0.1666666666666667
 40
0.3333333333333333
 40
0.3333333333333333
 40
0.3333333333333333
 40
0.3333333333333333
 40
0.5
 40
0.5
 40
0.5
 40
0.5
 40
0.6666666666666666
 40
0.6666666666666666
 40
0.6666666666666666
 40
0.6666666666666666
 40
0.8333333333333333
 40
0.8333333333333333
 40
0.8333333333333333
 40
0.8333333333333333
 40
1.0
 40
1.0
 40
1.0
 40
1.0
 10
-0.4095984251968504
 20
1.031964566929134
 30
0.0
 10
-0.4095984251968504
 20
1.031964566929134
 30
0.0
 10
0.2376377952755906
 20
1.4097440944881889
 30
0.0
 10
0.2376377952755906
 20
1.4097440944881889
 30
0.0
 10
0.2376377952755906
 20
1.4097440944881889
 30
0.0
 10
0.2376377952755906
 20
1.4097440944881889
 30
0.0
 10
0.2338622047244095
 20
1.3887559055118111
 30
0.0
 10
0.2338622047244095
 20
1.3887559055118111
 30
0.0
 10
0.2338622047244095
 20
1.3887559055118111
 30
0.0
 10
0.2338622047244095
 20
1.3887559055118111
 30
0.0
 10
0.2288897637795276
 20
1.3667834645669292
 30
0.0
 10
0.2288897637795276
 20
1.3667834645669292
 30
0.0
 10
0.2288897637795276
 20
1.3667834645669292
 30
0.0
 10
0.2288897637795276
 20
1.3667834645669292
 30
0.0
 10
-0.4183464566929134
 20
0.989003937007874
 30
0.0
 10
-0.4183464566929134
 20
0.989003937007874
 30
0.0
 10
-0.4183464566929134
 20
0.989003937007874
 30
0.0
 10
-0.4183464566929134
 20
0.989003937007874
 30
0.0
 10
-0.4133740157480315
 20
1.0109763779527559
 30
0.0
 10
-0.4133740157480315
 20
1.0109763779527559
 30
0.0
 10
-0.4133740157480315
 20
1.0109763779527559
 30
0.0
 10
-0.4133740157480315
 20
1.0109763779527559
 30
0.0
 10
-0.4095984251968504
 20
1.031964566929134
 30
0.0
 10
-0.4095984251968504
 20
1.031964566929134
 30
0.0
  0
SPLINE
  5
86
100
AcDbEntity
  8
Layer 1
 62
     9
100
AcDbSpline
210
0.0
220
0.0
230
1.0
 70
     1
 71
     3
 72
    28
 73
    24
 74
     0
 42
0.0000000001
 43
0.0000000001
 40
0.0
 40
0.0
 40
0.0
 40
0.0
 40
0.1666666666666667
 40
0.1666666666666667
 40
0.1666666666666667
 40
0.1666666666666667
 40
0.3333333333333333
 40
0.3333333333333333
 40
0.3333333333333333
 40
0.3333333333333333
 40
0.5
 40
0.5
 40
0.5
 40
0.5
 40
0.6666666666666666
 40
0.6666666666666666
 40
0.6666666666666666
 40
0.6666666666666666
 40
0.8333333333333333
 40
0.8333333333333333
 40
0.8333333333333333
 40
0.8333333333333333
 40
1.0
 40
1.0
 40
1.0
 40
1.0
 10
-0.4183464566929134
 20
0.989003937007874
 30
0.0
 10
-0.4183464566929134
 20
0.989003937007874
 30
0.0
 10
0.2288897637795276
 20
1.3667834645669292
 30
0.0
 10
0.2288897637795276
 20
1.3667834645669292
 30
0.0
 10
0.2288897637795276
 20
1.3667834645669292
 30
0.0
 10
0.2288897637795276
 20
1.3667834645669292
 30
0.0
 10
0.2227125984251969
 20
1.3438149606299212
 30
0.0
 10
0.2227125984251969
 20
1.3438149606299212
 30
0.0
 10
0.2227125984251969
 20
1.3438149606299212
 30
0.0
 10
0.2227125984251969
 20
1.3438149606299212
 30
0.0
 10
0.2153425196850394
 20
1.3198188976377954
 30
0.0
 10
0.2153425196850394
 20
1.3198188976377954
 30
0.0
 10
0.2153425196850394
 20
1.3198188976377954
 30
0.0
 10
0.2153425196850394
 20
1.3198188976377954
 30
0.0
 10
-0.4318937007874016
 20
0.9420393700787402
 30
0.0
 10
-0.4318937007874016
 20
0.9420393700787402
 30
0.0
 10
-0.4318937007874016
 20
0.9420393700787402
 30
0.0
 10
-0.4318937007874016
 20
0.9420393700787402
 30
0.0
 10
-0.4245236220472441
 20
0.9660354330708662
 30
0.0
 10
-0.4245236220472441
 20
0.9660354330708662
 30
0.0
 10
-0.4245236220472441
 20
0.9660354330708662
 30
0.0
 10
-0.4245236220472441
 20
0.9660354330708662
 30
0.0
 10
-0.4183464566929134
 20
0.989003937007874
 30
0.0
 10
-0.4183464566929134
 20
0.989003937007874
 30
0.0
  0
SPLINE
  5
87
100
AcDbEntity
  8
Layer 1
 62
     9
100
AcDbSpline
210
0.0
220
0.0
230
1.0
 70
     1
 71
     3
 72
    20
 73
    16
 74
     0
 42
0.0000000001
 43
0.0000000001
 40
0.0
 40
0.0
 40
0.0
 40
0.0
 40
0.25
 40
0.25
 40
0.25
 40
0.25
 40
0.5
 40
0.5
 40
0.5
 40
0.5
 40
0.75
 40
0.75
 40
0.75
 40
0.75
 40
1.0
 40
1.0
 40
1.0
 40
1.0
 10
-0.4318937007874016
 20
0.9420393700787402
 30
0.0
 10
-0.4318937007874016
 20
0.9420393700787402
 30
0.0
 10
0.2153425196850394
 20
1.3198188976377954
 30
0.0
 10
0.2153425196850394
 20
1.3198188976377954
 30
0.0
 10
0.2153425196850394
 20
1.3198188976377954
 30
0.0
 10
0.2153425196850394
 20
1.3198188976377954
 30
0.0
 10
0.2067637795275591
 20
1.2947874015748031
 30
0.0
 10
0.2067637795275591
 20
1.2947874015748031
 30
0.0
 10
0.2067637795275591
 20
1.2947874015748031
 30
0.0
 10
0.2067637795275591
 20
1.2947874015748031
 30
0.0
 10
-0.4404724409448819
 20
0.917007874015748
 30
0.0
 10
-0.4404724409448819
 20
0.917007874015748
 30
0.0
 10
-0.4404724409448819
 20
0.917007874015748
 30
0.0
 10
-0.4404724409448819
 20
0.917007874015748
 30
0.0
 10
-0.4318937007874016
 20
0.9420393700787402
 30
0.0
 10
-0.4318937007874016
 20
0.9420393700787402
 30
0.0
  0
SPLINE
  5
88
100
AcDbEntity
  8
Layer 1
 62
     9
100
AcDbSpline
210
0.0
220
0.0
230
1.0
 70
     1
 71
     3
 72
    20
 73
    16
 74
     0
 42
0.0000000001
 43
0.0000000001
 40
0.0
 40
0.0
 40
0.0
 40
0.0
 40
0.25
 40
0.25
 40
0.25
 40
0.25
 40
0.5
 40
0.5
 40
0.5
 40
0.5
 40
0.75
 40
0.75
 40
0.75
 40
0.75
 40
1.0
 40
1.0
 40
1.0
 40
1.0
 10
-0.4404724409448819
 20
0.917007874015748
 30
0.0
 10
-0.4404724409448819
 20
0.917007874015748
 30
0.0
 10
0.2067637795275591
 20
1.2947874015748031
 30
0.0
 10
0.2067637795275591
 20
1.2947874015748031
 30
0.0
 10
0.2067637795275591
 20
1.2947874015748031
 30
0.0
 10
0.2067637795275591
 20
1.2947874015748031
 30
0.0
 10
0.1969842519685039
 20
1.2687007874015748
 30
0.0
 10
0.1969842519685039
 20
1.2687007874015748
 30
0.0
 10
0.1969842519685039
 20
1.2687007874015748
 30
0.0
 10
0.1969842519685039
 20
1.2687007874015748
 30
0.0
 10
-0.450251968503937
 20
0.8909212598425197
 30
0.0
 10
-0.450251968503937
 20
0.8909212598425197
 30
0.0
 10
-0.450251968503937
 20
0.8909212598425197
 30
0.0
 10
-0.450251968503937
 20
0.8909212598425197
 30
0.0
 10
-0.4404724409448819
 20
0.917007874015748
 30
0.0
 10
-0.4404724409448819
 20
0.917007874015748
 30
0.0
  0
SPLINE
  5
89
100
AcDbEntity
  8
Layer 1
 62
     9
100
AcDbSpline
210
0.0
220
0.0
230
1.0
 70
     1
 71
     3
 72
    20
 73
    16
 74
     0
 42
0.0000000001
 43
0.0000000001
 40
0.0
 40
0.0
 40
0.0
 40
0.0
 40
0.25
 40
0.25
 40
0.25
 40
0.25
 40
0.5
 40
0.5
 40
0.5
 40
0.5
 40
0.75
 40
0.75
 40
0.75
 40
0.75
 40
1.0
 40
1.0
 40
1.0
 40
1.0
 10
-0.450251968503937
 20
0.8909212598425197
 30
0.0
 10
-0.450251968503937
 20
0.8909212598425197
 30
0.0
 10
0.1969842519685039
 20
1.2687007874015748
 30
0.0
 10
0.1969842519685039
 20
1.2687007874015748
 30
0.0
 10
0.1969842519685039
 20
1.2687007874015748
 30
0.0
 10
0.1969842519685039
 20
1.2687007874015748
 30
0.0
 10
0.185988188976378
 20
1.2415433070866142
 30
0.0
 10
0.185988188976378
 20
1.2415433070866142
 30
0.0
 10
0.185988188976378
 20
1.2415433070866142
 30
0.0
 10
0.185988188976378
 20
1.2415433070866142
 30
0.0
 10
-0.461248031496063
 20
0.8637637795275591
 30
0.0
 10
-0.461248031496063
 20
0.8637637795275591
 30
0.0
 10
-0.461248031496063
 20
0.8637637795275591
 30
0.0
 10
-0.461248031496063
 20
0.8637637795275591
 30
0.0
 10
-0.450251968503937
 20
0.8909212598425197
 30
0.0
 10
-0.450251968503937
 20
0.8909212598425197
 30
0.0
  0
SPLINE
  5
8A
100
AcDbEntity
  8
Layer 1
 62
     9
100
AcDbSpline
210
0.0
220
0.0
230
1.0
 70
     1
 71
     3
 72
    20
 73
    16
 74
     0
 42
0.0000000001
 43
0.0000000001
 40
0.0
 40
0.0
 40
0.0
 40
0.0
 40
0.25
 40
0.25
 40
0.25
 40
0.25
 40
0.5
 40
0.5
 40
0.5
 40
0.5
 40
0.75
 40
0.75
 40
0.75
 40
0.75
 40
1.0
 40
1.0
 40
1.0
 40
1.0
 10
-0.461248031496063
 20
0.8637637795275591
 30
0.0
 10
-0.461248031496063
 20
0.8637637795275591
 30
0.0
 10
0.185988188976378
 20
1.2415433070866142
 30
0.0
 10
0.185988188976378
 20
1.2415433070866142
 30
0.0
 10
0.185988188976378
 20
1.2415433070866142
 30
0.0
 10
0.185988188976378
 20
1.2415433070866142
 30
0.0
 10
0.175259842519685
 20
1.2123228346456694
 30
0.0
 10
0.175259842519685
 20
1.2123228346456694
 30
0.0
 10
0.175259842519685
 20
1.2123228346456694
 30
0.0
 10
0.175259842519685
 20
1.2123228346456694
 30
0.0
 10
-0.4719763779527559
 20
0.8345433070866142
 30
0.0
 10
-0.4719763779527559
 20
0.8345433070866142
 30
0.0
 10
-0.4719763779527559
 20
0.8345433070866142
 30
0.0
 10
-0.4719763779527559
 20
0.8345433070866142
 30
0.0
 10
-0.461248031496063
 20
0.8637637795275591
 30
0.0
 10
-0.461248031496063
 20
0.8637637795275591
 30
0.0
  0
SPLINE
  5
8B
100
AcDbEntity
  8
Layer 1
 62
     9
100
AcDbSpline
210
0.0
220
0.0
230
1.0
 70
     1
 71
     3
 72
    20
 73
    16
 74
     0
 42
0.0000000001
 43
0.0000000001
 40
0.0
 40
0.0
 40
0.0
 40
0.0
 40
0.25
 40
0.25
 40
0.25
 40
0.25
 40
0.5
 40
0.5
 40
0.5
 40
0.5
 40
0.75
 40
0.75
 40
0.75
 40
0.75
 40
1.0
 40
1.0
 40
1.0
 40
1.0
 10
-0.4719763779527559
 20
0.8345433070866142
 30
0.0
 10
-0.4719763779527559
 20
0.8345433070866142
 30
0.0
 10
0.175259842519685
 20
1.2123228346456694
 30
0.0
 10
0.175259842519685
 20
1.2123228346456694
 30
0.0
 10
0.175259842519685
 20
1.2123228346456694
 30
0.0
 10
0.175259842519685
 20
1.2123228346456694
 30
0.0
 10
0.1682952755905512
 20
1.185244094488189
 30
0.0
 10
0.1682952755905512
 20
1.185244094488189
 30
0.0
 10
0.1682952755905512
 20
1.185244094488189
 30
0.0
 10
0.1682952755905512
 20
1.185244094488189
 30
0.0
 10
-0.4789409448818898
 20
0.8074645669291339
 30
0.0
 10
-0.4789409448818898
 20
0.8074645669291339
 30
0.0
 10
-0.4789409448818898
 20
0.8074645669291339
 30
0.0
 10
-0.4789409448818898
 20
0.8074645669291339
 30
0.0
 10
-0.4719763779527559
 20
0.8345433070866142
 30
0.0
 10
-0.4719763779527559
 20
0.8345433070866142
 30
0.0
  0
SPLINE
  5
8C
100
AcDbEntity
  8
Layer 1
 62
     9
100
AcDbSpline
210
0.0
220
0.0
230
1.0
 70
     1
 71
     3
 72
    28
 73
    24
 74
     0
 42
0.0000000001
 43
0.0000000001
 40
0.0
 40
0.0
 40
0.0
 40
0.0
 40
0.1666666666666667
 40
0.1666666666666667
 40
0.1666666666666667
 40
0.1666666666666667
 40
0.3333333333333333
 40
0.3333333333333333
 40
0.3333333333333333
 40
0.3333333333333333
 40
0.5
 40
0.5
 40
0.5
 40
0.5
 40
0.6666666666666666
 40
0.6666666666666666
 40
0.6666666666666666
 40
0.6666666666666666
 40
0.8333333333333333
 40
0.8333333333333333
 40
0.8333333333333333
 40
0.8333333333333333
 40
1.0
 40
1.0
 40
1.0
 40
1.0
 10
-0.4789409448818898
 20
0.8074645669291339
 30
0.0
 10
-0.4789409448818898
 20
0.8074645669291339
 30
0.0
 10
0.1682952755905512
 20
1.185244094488189
 30
0.0
 10
0.1682952755905512
 20
1.185244094488189
 30
0.0
 10
0.1682952755905512
 20
1.185244094488189
 30
0.0
 10
0.1682952755905512
 20
1.185244094488189
 30
0.0
 10
0.1649370078740158
 20
1.1602283464566929
 30
0.0
 10
0.1649370078740158
 20
1.1602283464566929
 30
0.0
 10
0.1649370078740158
 20
1.1602283464566929
 30
0.0
 10
0.1649370078740158
 20
1.1602283464566929
 30
0.0
 10
0.164992125984252
 20
1.1371968503937009
 30
0.0
 10
0.164992125984252
 20
1.1371968503937009
 30
0.0
 10
0.164992125984252
 20
1.1371968503937009
 30
0.0
 10
0.164992125984252
 20
1.1371968503937009
 30
0.0
 10
-0.482244094488189
 20
0.7594173228346457
 30
0.0
 10
-0.482244094488189
 20
0.7594173228346457
 30
0.0
 10
-0.482244094488189
 20
0.7594173228346457
 30
0.0
 10
-0.482244094488189
 20
0.7594173228346457
 30
0.0
 10
-0.4822992125984252
 20
0.7824488188976378
 30
0.0
 10
-0.4822992125984252
 20
0.7824488188976378
 30
0.0
 10
-0.4822992125984252
 20
0.7824488188976378
 30
0.0
 10
-0.4822992125984252
 20
0.7824488188976378
 30
0.0
 10
-0.4789409448818898
 20
0.8074645669291339
 30
0.0
 10
-0.4789409448818898
 20
0.8074645669291339
 30
0.0
  0
SPLINE
  5
8D
100
AcDbEntity
  8
Layer 1
 62
     9
100
AcDbSpline
210
0.0
220
0.0
230
1.0
 70
     1
 71
     3
 72
    28
 73
    24
 74
     0
 42
0.0000000001
 43
0.0000000001
 40
0.0
 40
0.0
 40
0.0
 40
0.0
 40
0.1666666666666667
 40
0.1666666666666667
 40
0.1666666666666667
 40
0.1666666666666667
 40
0.3333333333333333
 40
0.3333333333333333
 40
0.3333333333333333
 40
0.3333333333333333
 40
0.5
 40
0.5
 40
0.5
 40
0.5
 40
0.6666666666666666
 40
0.6666666666666666
 40
0.6666666666666666
 40
0.6666666666666666
 40
0.8333333333333333
 40
0.8333333333333333
 40
0.8333333333333333
 40
0.8333333333333333
 40
1.0
 40
1.0
 40
1.0
 40
1.0
 10
-0.482244094488189
 20
0.7594173228346457
 30
0.0
 10
-0.482244094488189
 20
0.7594173228346457
 30
0.0
 10
0.164992125984252
 20
1.1371968503937009
 30
0.0
 10
0.164992125984252
 20
1.1371968503937009
 30
0.0
 10
0.164992125984252
 20
1.1371968503937009
 30
0.0
 10
0.164992125984252
 20
1.1371968503937009
 30
0.0
 10
0.1683031496062992
 20
1.1160590551181102
 30
0.0
 10
0.1683031496062992
 20
1.1160590551181102
 30
0.0
 10
0.1683031496062992
 20
1.1160590551181102
 30
0.0
 10
0.1683031496062992
 20
1.1160590551181102
 30
0.0
 10
0.1746889763779528
 20
1.0967480314960629
 30
0.0
 10
0.1746889763779528
 20
1.0967480314960629
 30
0.0
 10
0.1746889763779528
 20
1.0967480314960629
 30
0.0
 10
0.1746889763779528
 20
1.0967480314960629
 30
0.0
 10
-0.4725472440944882
 20
0.718968503937008
 30
0.0
 10
-0.4725472440944882
 20
0.718968503937008
 30
0.0
 10
-0.4725472440944882
 20
0.718968503937008
 30
0.0
 10
-0.4725472440944882
 20
0.718968503937008
 30
0.0
 10
-0.4789330708661417
 20
0.7382795275590551
 30
0.0
 10
-0.4789330708661417
 20
0.7382795275590551
 30
0.0
 10
-0.4789330708661417
 20
0.7382795275590551
 30
0.0
 10
-0.4789330708661417
 20
0.7382795275590551
 30
0.0
 10
-0.482244094488189
 20
0.7594173228346457
 30
0.0
 10
-0.482244094488189
 20
0.7594173228346457
 30
0.0
  0
SPLINE
  5
8E
100
AcDbEntity
  8
Layer 1
 62
     9
100
AcDbSpline
210
0.0
220
0.0
230
1.0
 70
     1
 71
     3
 72
    28
 73
    24
 74
     0
 42
0.0000000001
 43
0.0000000001
 40
0.0
 40
0.0
 40
0.0
 40
0.0
 40
0.1666666666666667
 40
0.1666666666666667
 40
0.1666666666666667
 40
0.1666666666666667
 40
0.3333333333333333
 40
0.3333333333333333
 40
0.3333333333333333
 40
0.3333333333333333
 40
0.5
 40
0.5
 40
0.5
 40
0.5
 40
0.6666666666666666
 40
0.6666666666666666
 40
0.6666666666666666
 40
0.6666666666666666
 40
0.8333333333333333
 40
0.8333333333333333
 40
0.8333333333333333
 40
0.8333333333333333
 40
1.0
 40
1.0
 40
1.0
 40
1.0
 10
-0.4725472440944882
 20
0.718968503937008
 30
0.0
 10
-0.4725472440944882
 20
0.718968503937008
 30
0.0
 10
0.1746889763779528
 20
1.0967480314960629
 30
0.0
 10
0.1746889763779528
 20
1.0967480314960629
 30
0.0
 10
0.1746889763779528
 20
1.0967480314960629
 30
0.0
 10
0.1746889763779528
 20
1.0967480314960629
 30
0.0
 10
0.1839763779527559
 20
1.0791771653543307
 30
0.0
 10
0.1839763779527559
 20
1.0791771653543307
 30
0.0
 10
0.1839763779527559
 20
1.0791771653543307
 30
0.0
 10
0.1839763779527559
 20
1.0791771653543307
 30
0.0
 10
0.1959842519685039
 20
1.063275590551181
 30
0.0
 10
0.1959842519685039
 20
1.063275590551181
 30
0.0
 10
0.1959842519685039
 20
1.063275590551181
 30
0.0
 10
0.1959842519685039
 20
1.063275590551181
 30
0.0
 10
-0.451251968503937
 20
0.6854960629921261
 30
0.0
 10
-0.451251968503937
 20
0.6854960629921261
 30
0.0
 10
-0.451251968503937
 20
0.6854960629921261
 30
0.0
 10
-0.451251968503937
 20
0.6854960629921261
 30
0.0
 10
-0.4632598425196851
 20
0.7013976377952756
 30
0.0
 10
-0.4632598425196851
 20
0.7013976377952756
 30
0.0
 10
-0.4632598425196851
 20
0.7013976377952756
 30
0.0
 10
-0.4632598425196851
 20
0.7013976377952756
 30
0.0
 10
-0.4725472440944882
 20
0.718968503937008
 30
0.0
 10
-0.4725472440944882
 20
0.718968503937008
 30
0.0
  0
SPLINE
  5
8F
100
AcDbEntity
  8
Layer 1
 62
     9
100
AcDbSpline
210
0.0
220
0.0
230
1.0
 70
     1
 71
     3
 72
    28
 73
    24
 74
     0
 42
0.0000000001
 43
0.0000000001
 40
0.0
 40
0.0
 40
0.0
 40
0.0
 40
0.1666666666666667
 40
0.1666666666666667
 40
0.1666666666666667
 40
0.1666666666666667
 40
0.3333333333333333
 40
0.3333333333333333
 40
0.3333333333333333
 40
0.3333333333333333
 40
0.5
 40
0.5
 40
0.5
 40
0.5
 40
0.6666666666666666
 40
0.6666666666666666
 40
0.6666666666666666
 40
0.6666666666666666
 40
0.8333333333333333
 40
0.8333333333333333
 40
0.8333333333333333
 40
0.8333333333333333
 40
1.0
 40
1.0
 40
1.0
 40
1.0
 10
-0.451251968503937
 20
0.6854960629921261
 30
0.0
 10
-0.451251968503937
 20
0.6854960629921261
 30
0.0
 10
0.1959842519685039
 20
1.063275590551181
 30
0.0
 10
0.1959842519685039
 20
1.063275590551181
 30
0.0
 10
0.1959842519685039
 20
1.063275590551181
 30
0.0
 10
0.1959842519685039
 20
1.063275590551181
 30
0.0
 10
0.2105511811023622
 20
1.0489488188976379
 30
0.0
 10
0.2105511811023622
 20
1.0489488188976379
 30
0.0
 10
0.2105511811023622
 20
1.0489488188976379
 30
0.0
 10
0.2105511811023622
 20
1.0489488188976379
 30
0.0
 10
0.227492125984252
 20
1.0361338582677166
 30
0.0
 10
0.227492125984252
 20
1.0361338582677166
 30
0.0
 10
0.227492125984252
 20
1.0361338582677166
 30
0.0
 10
0.227492125984252
 20
1.0361338582677166
 30
0.0
 10
-0.419744094488189
 20
0.6583543307086615
 30
0.0
 10
-0.419744094488189
 20
0.6583543307086615
 30
0.0
 10
-0.419744094488189
 20
0.6583543307086615
 30
0.0
 10
-0.419744094488189
 20
0.6583543307086615
 30
0.0
 10
-0.4366850393700787
 20
0.6711692913385827
 30
0.0
 10
-0.4366850393700787
 20
0.6711692913385827
 30
0.0
 10
-0.4366850393700787
 20
0.6711692913385827
 30
0.0
 10
-0.4366850393700787
 20
0.6711692913385827
 30
0.0
 10
-0.451251968503937
 20
0.6854960629921261
 30
0.0
 10
-0.451251968503937
 20
0.6854960629921261
 30
0.0
  0
SPLINE
  5
90
100
AcDbEntity
  8
Layer 1
 62
   253
100
AcDbSpline
210
0.0
220
0.0
230
1.0
 70
     1
 71
     3
 72
    28
 73
    24
 74
     0
 42
0.0000000001
 43
0.0000000001
 40
0.0
 40
0.0
 40
0.0
 40
0.0
 40
0.1666666666666667
 40
0.1666666666666667
 40
0.1666666666666667
 40
0.1666666666666667
 40
0.3333333333333333
 40
0.3333333333333333
 40
0.3333333333333333
 40
0.3333333333333333
 40
0.5
 40
0.5
 40
0.5
 40
0.5
 40
0.6666666666666666
 40
0.6666666666666666
 40
0.6666666666666666
 40
0.6666666666666666
 40
0.8333333333333333
 40
0.8333333333333333
 40
0.8333333333333333
 40
0.8333333333333333
 40
1.0
 40
1.0
 40
1.0
 40
1.0
 10
-0.419744094488189
 20
0.6583543307086615
 30
0.0
 10
-0.419744094488189
 20
0.6583543307086615
 30
0.0
 10
0.227492125984252
 20
1.0361338582677166
 30
0.0
 10
0.227492125984252
 20
1.0361338582677166
 30
0.0
 10
0.227492125984252
 20
1.0361338582677166
 30
0.0
 10
0.227492125984252
 20
1.0361338582677166
 30
0.0
 10
0.2466377952755906
 20
1.024740157480315
 30
0.0
 10
0.2466377952755906
 20
1.024740157480315
 30
0.0
 10
0.2466377952755906
 20
1.024740157480315
 30
0.0
 10
0.2466377952755906
 20
1.024740157480315
 30
0.0
 10
0.2678070866141732
 20
1.0147007874015748
 30
0.0
 10
0.2678070866141732
 20
1.0147007874015748
 30
0.0
 10
0.2678070866141732
 20
1.0147007874015748
 30
0.0
 10
0.2678070866141732
 20
1.0147007874015748
 30
0.0
 10
-0.3794291338582677
 20
0.6369212598425197
 30
0.0
 10
-0.3794291338582677
 20
0.6369212598425197
 30
0.0
 10
-0.3794291338582677
 20
0.6369212598425197
 30
0.0
 10
-0.3794291338582677
 20
0.6369212598425197
 30
0.0
 10
-0.4005984251968504
 20
0.6469606299212599
 30
0.0
 10
-0.4005984251968504
 20
0.6469606299212599
 30
0.0
 10
-0.4005984251968504
 20
0.6469606299212599
 30
0.0
 10
-0.4005984251968504
 20
0.6469606299212599
 30
0.0
 10
-0.419744094488189
 20
0.6583543307086615
 30
0.0
 10
-0.419744094488189
 20
0.6583543307086615
 30
0.0
  0
SPLINE
  5
91
100
AcDbEntity
  8
Layer 1
 62
   253
100
AcDbSpline
210
0.0
220
0.0
230
1.0
 70
     1
 71
     3
 72
    20
 73
    16
 74
     0
 42
0.0000000001
 43
0.0000000001
 40
0.0
 40
0.0
 40
0.0
 40
0.0
 40
0.25
 40
0.25
 40
0.25
 40
0.25
 40
0.5
 40
0.5
 40
0.5
 40
0.5
 40
0.75
 40
0.75
 40
0.75
 40
0.75
 40
1.0
 40
1.0
 40
1.0
 40
1.0
 10
-0.3794291338582677
 20
0.6369212598425197
 30
0.0
 10
-0.3794291338582677
 20
0.6369212598425197
 30
0.0
 10
0.2678070866141732
 20
1.0147007874015748
 30
0.0
 10
0.2678070866141732
 20
1.0147007874015748
 30
0.0
 10
0.2678070866141732
 20
1.0147007874015748
 30
0.0
 10
0.2678070866141732
 20
1.0147007874015748
 30
0.0
 10
0.2908346456692914
 20
1.0059173228346456
 30
0.0
 10
0.2908346456692914
 20
1.0059173228346456
 30
0.0
 10
0.2908346456692914
 20
1.0059173228346456
 30
0.0
 10
0.2908346456692914
 20
1.0059173228346456
 30
0.0
 10
-0.3564015748031496
 20
0.6281377952755906
 30
0.0
 10
-0.3564015748031496
 20
0.6281377952755906
 30
0.0
 10
-0.3564015748031496
 20
0.6281377952755906
 30
0.0
 10
-0.3564015748031496
 20
0.6281377952755906
 30
0.0
 10
-0.3794291338582677
 20
0.6369212598425197
 30
0.0
 10
-0.3794291338582677
 20
0.6369212598425197
 30
0.0
  0
SPLINE
  5
92
100
AcDbEntity
  8
Layer 1
 62
   253
100
AcDbSpline
210
0.0
220
0.0
230
1.0
 70
     1
 71
     3
 72
    20
 73
    16
 74
     0
 42
0.0000000001
 43
0.0000000001
 40
0.0
 40
0.0
 40
0.0
 40
0.0
 40
0.25
 40
0.25
 40
0.25
 40
0.25
 40
0.5
 40
0.5
 40
0.5
 40
0.5
 40
0.75
 40
0.75
 40
0.75
 40
0.75
 40
1.0
 40
1.0
 40
1.0
 40
1.0
 10
-0.3564015748031496
 20
0.6281377952755906
 30
0.0
 10
-0.3564015748031496
 20
0.6281377952755906
 30
0.0
 10
0.2908346456692914
 20
1.0059173228346456
 30
0.0
 10
0.2908346456692914
 20
1.0059173228346456
 30
0.0
 10
0.2908346456692914
 20
1.0059173228346456
 30
0.0
 10
0.2908346456692914
 20
1.0059173228346456
 30
0.0
 10
0.3155393700787402
 20
0.9983267716535433
 30
0.0
 10
0.3155393700787402
 20
0.9983267716535433
 30
0.0
 10
0.3155393700787402
 20
0.9983267716535433
 30
0.0
 10
0.3155393700787402
 20
0.9983267716535433
 30
0.0
 10
-0.3316968503937008
 20
0.6205472440944883
 30
0.0
 10
-0.3316968503937008
 20
0.6205472440944883
 30
0.0
 10
-0.3316968503937008
 20
0.6205472440944883
 30
0.0
 10
-0.3316968503937008
 20
0.6205472440944883
 30
0.0
 10
-0.3564015748031496
 20
0.6281377952755906
 30
0.0
 10
-0.3564015748031496
 20
0.6281377952755906
 30
0.0
  0
SPLINE
  5
93
100
AcDbEntity
  8
Layer 1
 62
   253
100
AcDbSpline
210
0.0
220
0.0
230
1.0
 70
     1
 71
     3
 72
    20
 73
    16
 74
     0
 42
0.0000000001
 43
0.0000000001
 40
0.0
 40
0.0
 40
0.0
 40
0.0
 40
0.25
 40
0.25
 40
0.25
 40
0.25
 40
0.5
 40
0.5
 40
0.5
 40
0.5
 40
0.75
 40
0.75
 40
0.75
 40
0.75
 40
1.0
 40
1.0
 40
1.0
 40
1.0
 10
-0.3316968503937008
 20
0.6205472440944883
 30
0.0
 10
-0.3316968503937008
 20
0.6205472440944883
 30
0.0
 10
0.3155393700787402
 20
0.9983267716535433
 30
0.0
 10
0.3155393700787402
 20
0.9983267716535433
 30
0.0
 10
0.3155393700787402
 20
0.9983267716535433
 30
0.0
 10
0.3155393700787402
 20
0.9983267716535433
 30
0.0
 10
0.341751968503937
 20
0.9918425196850395
 30
0.0
 10
0.341751968503937
 20
0.9918425196850395
 30
0.0
 10
0.341751968503937
 20
0.9918425196850395
 30
0.0
 10
0.341751968503937
 20
0.9918425196850395
 30
0.0
 10
-0.3054842519685039
 20
0.6140629921259843
 30
0.0
 10
-0.3054842519685039
 20
0.6140629921259843
 30
0.0
 10
-0.3054842519685039
 20
0.6140629921259843
 30
0.0
 10
-0.3054842519685039
 20
0.6140629921259843
 30
0.0
 10
-0.3316968503937008
 20
0.6205472440944883
 30
0.0
 10
-0.3316968503937008
 20
0.6205472440944883
 30
0.0
  0
SPLINE
  5
94
100
AcDbEntity
  8
Layer 1
 62
   253
100
AcDbSpline
210
0.0
220
0.0
230
1.0
 70
     1
 71
     3
 72
    20
 73
    16
 74
     0
 42
0.0000000001
 43
0.0000000001
 40
0.0
 40
0.0
 40
0.0
 40
0.0
 40
0.25
 40
0.25
 40
0.25
 40
0.25
 40
0.5
 40
0.5
 40
0.5
 40
0.5
 40
0.75
 40
0.75
 40
0.75
 40
0.75
 40
1.0
 40
1.0
 40
1.0
 40
1.0
 10
-0.3054842519685039
 20
0.6140629921259843
 30
0.0
 10
-0.3054842519685039
 20
0.6140629921259843
 30
0.0
 10
0.341751968503937
 20
0.9918425196850395
 30
0.0
 10
0.341751968503937
 20
0.9918425196850395
 30
0.0
 10
0.341751968503937
 20
0.9918425196850395
 30
0.0
 10
0.341751968503937
 20
0.9918425196850395
 30
0.0
 10
0.3692913385826772
 20
0.9863937007874016
 30
0.0
 10
0.3692913385826772
 20
0.9863937007874016
 30
0.0
 10
0.3692913385826772
 20
0.9863937007874016
 30
0.0
 10
0.3692913385826772
 20
0.9863937007874016
 30
0.0
 10
-0.2779448818897638
 20
0.6086141732283464
 30
0.0
 10
-0.2779448818897638
 20
0.6086141732283464
 30
0.0
 10
-0.2779448818897638
 20
0.6086141732283464
 30
0.0
 10
-0.2779448818897638
 20
0.6086141732283464
 30
0.0
 10
-0.3054842519685039
 20
0.6140629921259843
 30
0.0
 10
-0.3054842519685039
 20
0.6140629921259843
 30
0.0
  0
SPLINE
  5
95
100
AcDbEntity
  8
Layer 1
 62
   253
100
AcDbSpline
210
0.0
220
0.0
230
1.0
 70
     1
 71
     3
 72
    20
 73
    16
 74
     0
 42
0.0000000001
 43
0.0000000001
 40
0.0
 40
0.0
 40
0.0
 40
0.0
 40
0.25
 40
0.25
 40
0.25
 40
0.25
 40
0.5
 40
0.5
 40
0.5
 40
0.5
 40
0.75
 40
0.75
 40
0.75
 40
0.75
 40
1.0
 40
1.0
 40
1.0
 40
1.0
 10
-0.2779448818897638
 20
0.6086141732283464
 30
0.0
 10
-0.2779448818897638
 20
0.6086141732283464
 30
0.0
 10
0.3692913385826772
 20
0.9863937007874016
 30
0.0
 10
0.3692913385826772
 20
0.9863937007874016
 30
0.0
 10
0.3692913385826772
 20
0.9863937007874016
 30
0.0
 10
0.3692913385826772
 20
0.9863937007874016
 30
0.0
 10
0.397992125984252
 20
0.9818818897637796
 30
0.0
 10
0.397992125984252
 20
0.9818818897637796
 30
0.0
 10
0.397992125984252
 20
0.9818818897637796
 30
0.0
 10
0.397992125984252
 20
0.9818818897637796
 30
0.0
 10
-0.249244094488189
 20
0.6041023622047245
 30
0.0
 10
-0.249244094488189
 20
0.6041023622047245
 30
0.0
 10
-0.249244094488189
 20
0.6041023622047245
 30
0.0
 10
-0.249244094488189
 20
0.6041023622047245
 30
0.0
 10
-0.2779448818897638
 20
0.6086141732283464
 30
0.0
 10
-0.2779448818897638
 20
0.6086141732283464
 30
0.0
  0
SPLINE
  5
96
100
AcDbEntity
  8
Layer 1
 62
   253
100
AcDbSpline
210
0.0
220
0.0
230
1.0
 70
     1
 71
     3
 72
    20
 73
    16
 74
     0
 42
0.0000000001
 43
0.0000000001
 40
0.0
 40
0.0
 40
0.0
 40
0.0
 40
0.25
 40
0.25
 40
0.25
 40
0.25
 40
0.5
 40
0.5
 40
0.5
 40
0.5
 40
0.75
 40
0.75
 40
0.75
 40
0.75
 40
1.0
 40
1.0
 40
1.0
 40
1.0
 10
-0.249244094488189
 20
0.6041023622047245
 30
0.0
 10
-0.249244094488189
 20
0.6041023622047245
 30
0.0
 10
0.397992125984252
 20
0.9818818897637796
 30
0.0
 10
0.397992125984252
 20
0.9818818897637796
 30
0.0
 10
0.397992125984252
 20
0.9818818897637796
 30
0.0
 10
0.397992125984252
 20
0.9818818897637796
 30
0.0
 10
0.4276692913385827
 20
0.9782440944881891
 30
0.0
 10
0.4276692913385827
 20
0.9782440944881891
 30
0.0
 10
0.4276692913385827
 20
0.9782440944881891
 30
0.0
 10
0.4276692913385827
 20
0.9782440944881891
 30
0.0
 10
-0.2195669291338583
 20
0.6004645669291339
 30
0.0
 10
-0.2195669291338583
 20
0.6004645669291339
 30
0.0
 10
-0.2195669291338583
 20
0.6004645669291339
 30
0.0
 10
-0.2195669291338583
 20
0.6004645669291339
 30
0.0
 10
-0.249244094488189
 20
0.6041023622047245
 30
0.0
 10
-0.249244094488189
 20
0.6041023622047245
 30
0.0
  0
SPLINE
  5
97
100
AcDbEntity
  8
Layer 1
 62
   253
100
AcDbSpline
210
0.0
220
0.0
230
1.0
 70
     1
 71
     3
 72
    20
 73
    16
 74
     0
 42
0.0000000001
 43
0.0000000001
 40
0.0
 40
0.0
 40
0.0
 40
0.0
 40
0.25
 40
0.25
 40
0.25
 40
0.25
 40
0.5
 40
0.5
 40
0.5
 40
0.5
 40
0.75
 40
0.75
 40
0.75
 40
0.75
 40
1.0
 40
1.0
 40
1.0
 40
1.0
 10
-0.2195669291338583
 20
0.6004645669291339
 30
0.0
 10
-0.2195669291338583
 20
0.6004645669291339
 30
0.0
 10
0.4276692913385827
 20
0.9782440944881891
 30
0.0
 10
0.4276692913385827
 20
0.9782440944881891
 30
0.0
 10
0.4276692913385827
 20
0.9782440944881891
 30
0.0
 10
0.4276692913385827
 20
0.9782440944881891
 30
0.0
 10
0.4581614173228347
 20
0.9753976377952757
 30
0.0
 10
0.4581614173228347
 20
0.9753976377952757
 30
0.0
 10
0.4581614173228347
 20
0.9753976377952757
 30
0.0
 10
0.4581614173228347
 20
0.9753976377952757
 30
0.0
 10
-0.1890748031496063
 20
0.5976181102362205
 30
0.0
 10
-0.1890748031496063
 20
0.5976181102362205
 30
0.0
 10
-0.1890748031496063
 20
0.5976181102362205
 30
0.0
 10
-0.1890748031496063
 20
0.5976181102362205
 30
0.0
 10
-0.2195669291338583
 20
0.6004645669291339
 30
0.0
 10
-0.2195669291338583
 20
0.6004645669291339
 30
0.0
  0
SPLINE
  5
98
100
AcDbEntity
  8
Layer 1
 62
   253
100
AcDbSpline
210
0.0
220
0.0
230
1.0
 70
     1
 71
     3
 72
    20
 73
    16
 74
     0
 42
0.0000000001
 43
0.0000000001
 40
0.0
 40
0.0
 40
0.0
 40
0.0
 40
0.25
 40
0.25
 40
0.25
 40
0.25
 40
0.5
 40
0.5
 40
0.5
 40
0.5
 40
0.75
 40
0.75
 40
0.75
 40
0.75
 40
1.0
 40
1.0
 40
1.0
 40
1.0
 10
-0.1890748031496063
 20
0.5976181102362205
 30
0.0
 10
-0.1890748031496063
 20
0.5976181102362205
 30
0.0
 10
0.4581614173228347
 20
0.9753976377952757
 30
0.0
 10
0.4581614173228347
 20
0.9753976377952757
 30
0.0
 10
0.4581614173228347
 20
0.9753976377952757
 30
0.0
 10
0.4581614173228347
 20
0.9753976377952757
 30
0.0
 10
0.4892755905511811
 20
0.9732637795275591
 30
0.0
 10
0.4892755905511811
 20
0.9732637795275591
 30
0.0
 10
0.4892755905511811
 20
0.9732637795275591
 30
0.0
 10
0.4892755905511811
 20
0.9732637795275591
 30
0.0
 10
-0.1579606299212598
 20
0.595484251968504
 30
0.0
 10
-0.1579606299212598
 20
0.595484251968504
 30
0.0
 10
-0.1579606299212598
 20
0.595484251968504
 30
0.0
 10
-0.1579606299212598
 20
0.595484251968504
 30
0.0
 10
-0.1890748031496063
 20
0.5976181102362205
 30
0.0
 10
-0.1890748031496063
 20
0.5976181102362205
 30
0.0
  0
SPLINE
  5
99
100
AcDbEntity
  8
Layer 1
 62
   253
100
AcDbSpline
210
0.0
220
0.0
230
1.0
 70
     1
 71
     3
 72
    20
 73
    16
 74
     0
 42
0.0000000001
 43
0.0000000001
 40
0.0
 40
0.0
 40
0.0
 40
0.0
 40
0.25
 40
0.25
 40
0.25
 40
0.25
 40
0.5
 40
0.5
 40
0.5
 40
0.5
 40
0.75
 40
0.75
 40
0.75
 40
0.75
 40
1.0
 40
1.0
 40
1.0
 40
1.0
 10
-0.1579606299212598
 20
0.595484251968504
 30
0.0
 10
-0.1579606299212598
 20
0.595484251968504
 30
0.0
 10
0.4892755905511811
 20
0.9732637795275591
 30
0.0
 10
0.4892755905511811
 20
0.9732637795275591
 30
0.0
 10
0.4892755905511811
 20
0.9732637795275591
 30
0.0
 10
0.4892755905511811
 20
0.9732637795275591
 30
0.0
 10
0.5208543307086614
 20
0.971755905511811
 30
0.0
 10
0.5208543307086614
 20
0.971755905511811
 30
0.0
 10
0.5208543307086614
 20
0.971755905511811
 30
0.0
 10
0.5208543307086614
 20
0.971755905511811
 30
0.0
 10
-0.1263818897637795
 20
0.5939763779527559
 30
0.0
 10
-0.1263818897637795
 20
0.5939763779527559
 30
0.0
 10
-0.1263818897637795
 20
0.5939763779527559
 30
0.0
 10
-0.1263818897637795
 20
0.5939763779527559
 30
0.0
 10
-0.1579606299212598
 20
0.595484251968504
 30
0.0
 10
-0.1579606299212598
 20
0.595484251968504
 30
0.0
  0
SPLINE
  5
9A
100
AcDbEntity
  8
Layer 1
 62
   253
100
AcDbSpline
210
0.0
220
0.0
230
1.0
 70
     1
 71
     3
 72
    20
 73
    16
 74
     0
 42
0.0000000001
 43
0.0000000001
 40
0.0
 40
0.0
 40
0.0
 40
0.0
 40
0.25
 40
0.25
 40
0.25
 40
0.25
 40
0.5
 40
0.5
 40
0.5
 40
0.5
 40
0.75
 40
0.75
 40
0.75
 40
0.75
 40
1.0
 40
1.0
 40
1.0
 40
1.0
 10
-0.1263818897637795
 20
0.5939763779527559
 30
0.0
 10
-0.1263818897637795
 20
0.5939763779527559
 30
0.0
 10
0.5208543307086614
 20
0.971755905511811
 30
0.0
 10
0.5208543307086614
 20
0.971755905511811
 30
0.0
 10
0.5208543307086614
 20
0.971755905511811
 30
0.0
 10
0.5208543307086614
 20
0.971755905511811
 30
0.0
 10
0.5527125984251968
 20
0.9708110236220473
 30
0.0
 10
0.5527125984251968
 20
0.9708110236220473
 30
0.0
 10
0.5527125984251968
 20
0.9708110236220473
 30
0.0
 10
0.5527125984251968
 20
0.9708110236220473
 30
0.0
 10
-0.0945236220472441
 20
0.5930314960629921
 30
0.0
 10
-0.0945236220472441
 20
0.5930314960629921
 30
0.0
 10
-0.0945236220472441
 20
0.5930314960629921
 30
0.0
 10
-0.0945236220472441
 20
0.5930314960629921
 30
0.0
 10
-0.1263818897637795
 20
0.5939763779527559
 30
0.0
 10
-0.1263818897637795
 20
0.5939763779527559
 30
0.0
  0
SPLINE
  5
9B
100
AcDbEntity
  8
Layer 1
 62
   253
100
AcDbSpline
210
0.0
220
0.0
230
1.0
 70
     1
 71
     3
 72
    20
 73
    16
 74
     0
 42
0.0000000001
 43
0.0000000001
 40
0.0
 40
0.0
 40
0.0
 40
0.0
 40
0.25
 40
0.25
 40
0.25
 40
0.25
 40
0.5
 40
0.5
 40
0.5
 40
0.5
 40
0.75
 40
0.75
 40
0.75
 40
0.75
 40
1.0
 40
1.0
 40
1.0
 40
1.0
 10
-0.0945236220472441
 20
0.5930314960629921
 30
0.0
 10
-0.0945236220472441
 20
0.5930314960629921
 30
0.0
 10
0.5527125984251968
 20
0.9708110236220473
 30
0.0
 10
0.5527125984251968
 20
0.9708110236220473
 30
0.0
 10
0.5527125984251968
 20
0.9708110236220473
 30
0.0
 10
0.5527125984251968
 20
0.9708110236220473
 30
0.0
 10
0.5846850393700788
 20
0.9703346456692914
 30
0.0
 10
0.5846850393700788
 20
0.9703346456692914
 30
0.0
 10
0.5846850393700788
 20
0.9703346456692914
 30
0.0
 10
0.5846850393700788
 20
0.9703346456692914
 30
0.0
 10
-0.0625511811023622
 20
0.5925551181102362
 30
0.0
 10
-0.0625511811023622
 20
0.5925551181102362
 30
0.0
 10
-0.0625511811023622
 20
0.5925551181102362
 30
0.0
 10
-0.0625511811023622
 20
0.5925551181102362
 30
0.0
 10
-0.0945236220472441
 20
0.5930314960629921
 30
0.0
 10
-0.0945236220472441
 20
0.5930314960629921
 30
0.0
  0
SPLINE
  5
9C
100
AcDbEntity
  8
Layer 1
 62
   253
100
AcDbSpline
210
0.0
220
0.0
230
1.0
 70
     1
 71
     3
 72
    20
 73
    16
 74
     0
 42
0.0000000001
 43
0.0000000001
 40
0.0
 40
0.0
 40
0.0
 40
0.0
 40
0.25
 40
0.25
 40
0.25
 40
0.25
 40
0.5
 40
0.5
 40
0.5
 40
0.5
 40
0.75
 40
0.75
 40
0.75
 40
0.75
 40
1.0
 40
1.0
 40
1.0
 40
1.0
 10
-0.0625511811023622
 20
0.5925551181102362
 30
0.0
 10
-0.0625511811023622
 20
0.5925551181102362
 30
0.0
 10
0.5846850393700788
 20
0.9703346456692914
 30
0.0
 10
0.5846850393700788
 20
0.9703346456692914
 30
0.0
 10
0.5846850393700788
 20
0.9703346456692914
 30
0.0
 10
0.5846850393700788
 20
0.9703346456692914
 30
0.0
 10
0.6165826771653543
 20
0.9702559055118111
 30
0.0
 10
0.6165826771653543
 20
0.9702559055118111
 30
0.0
 10
0.6165826771653543
 20
0.9702559055118111
 30
0.0
 10
0.6165826771653543
 20
0.9702559055118111
 30
0.0
 10
-0.0306535433070866
 20
0.5924763779527559
 30
0.0
 10
-0.0306535433070866
 20
0.5924763779527559
 30
0.0
 10
-0.0306535433070866
 20
0.5924763779527559
 30
0.0
 10
-0.0306535433070866
 20
0.5924763779527559
 30
0.0
 10
-0.0625511811023622
 20
0.5925551181102362
 30
0.0
 10
-0.0625511811023622
 20
0.5925551181102362
 30
0.0
  0
SPLINE
  5
9D
100
AcDbEntity
  8
Layer 1
 62
   253
100
AcDbSpline
210
0.0
220
0.0
230
1.0
 70
     1
 71
     3
 72
    20
 73
    16
 74
     0
 42
0.0000000001
 43
0.0000000001
 40
0.0
 40
0.0
 40
0.0
 40
0.0
 40
0.25
 40
0.25
 40
0.25
 40
0.25
 40
0.5
 40
0.5
 40
0.5
 40
0.5
 40
0.75
 40
0.75
 40
0.75
 40
0.75
 40
1.0
 40
1.0
 40
1.0
 40
1.0
 10
-0.0306535433070866
 20
0.5924763779527559
 30
0.0
 10
-0.0306535433070866
 20
0.5924763779527559
 30
0.0
 10
0.6165826771653543
 20
0.9702559055118111
 30
0.0
 10
0.6165826771653543
 20
0.9702559055118111
 30
0.0
 10
0.6165826771653543
 20
0.9702559055118111
 30
0.0
 10
0.6165826771653543
 20
0.9702559055118111
 30
0.0
 10
0.648244094488189
 20
0.970484251968504
 30
0.0
 10
0.648244094488189
 20
0.970484251968504
 30
0.0
 10
0.648244094488189
 20
0.970484251968504
 30
0.0
 10
0.648244094488189
 20
0.970484251968504
 30
0.0
 10
0.001007874015748
 20
0.5927047244094489
 30
0.0
 10
0.001007874015748
 20
0.5927047244094489
 30
0.0
 10
0.001007874015748
 20
0.5927047244094489
 30
0.0
 10
0.001007874015748
 20
0.5927047244094489
 30
0.0
 10
-0.0306535433070866
 20
0.5924763779527559
 30
0.0
 10
-0.0306535433070866
 20
0.5924763779527559
 30
0.0
  0
SPLINE
  5
9E
100
AcDbEntity
  8
Layer 1
 62
   253
100
AcDbSpline
210
0.0
220
0.0
230
1.0
 70
     1
 71
     3
 72
    20
 73
    16
 74
     0
 42
0.0000000001
 43
0.0000000001
 40
0.0
 40
0.0
 40
0.0
 40
0.0
 40
0.25
 40
0.25
 40
0.25
 40
0.25
 40
0.5
 40
0.5
 40
0.5
 40
0.5
 40
0.75
 40
0.75
 40
0.75
 40
0.75
 40
1.0
 40
1.0
 40
1.0
 40
1.0
 10
0.001007874015748
 20
0.5927047244094489
 30
0.0
 10
0.001007874015748
 20
0.5927047244094489
 30
0.0
 10
0.648244094488189
 20
0.970484251968504
 30
0.0
 10
0.648244094488189
 20
0.970484251968504
 30
0.0
 10
0.648244094488189
 20
0.970484251968504
 30
0.0
 10
0.648244094488189
 20
0.970484251968504
 30
0.0
 10
0.679492125984252
 20
0.9709527559055119
 30
0.0
 10
0.679492125984252
 20
0.9709527559055119
 30
0.0
 10
0.679492125984252
 20
0.9709527559055119
 30
0.0
 10
0.679492125984252
 20
0.9709527559055119
 30
0.0
 10
0.032255905511811
 20
0.5931732283464567
 30
0.0
 10
0.032255905511811
 20
0.5931732283464567
 30
0.0
 10
0.032255905511811
 20
0.5931732283464567
 30
0.0
 10
0.032255905511811
 20
0.5931732283464567
 30
0.0
 10
0.001007874015748
 20
0.5927047244094489
 30
0.0
 10
0.001007874015748
 20
0.5927047244094489
 30
0.0
  0
SPLINE
  5
9F
100
AcDbEntity
  8
Layer 1
 62
   253
100
AcDbSpline
210
0.0
220
0.0
230
1.0
 70
     1
 71
     3
 72
    20
 73
    16
 74
     0
 42
0.0000000001
 43
0.0000000001
 40
0.0
 40
0.0
 40
0.0
 40
0.0
 40
0.25
 40
0.25
 40
0.25
 40
0.25
 40
0.5
 40
0.5
 40
0.5
 40
0.5
 40
0.75
 40
0.75
 40
0.75
 40
0.75
 40
1.0
 40
1.0
 40
1.0
 40
1.0
 10
0.032255905511811
 20
0.5931732283464567
 30
0.0
 10
0.032255905511811
 20
0.5931732283464567
 30
0.0
 10
0.679492125984252
 20
0.9709527559055119
 30
0.0
 10
0.679492125984252
 20
0.9709527559055119
 30
0.0
 10
0.679492125984252
 20
0.9709527559055119
 30
0.0
 10
0.679492125984252
 20
0.9709527559055119
 30
0.0
 10
0.7101496062992126
 20
0.9715748031496063
 30
0.0
 10
0.7101496062992126
 20
0.9715748031496063
 30
0.0
 10
0.7101496062992126
 20
0.9715748031496063
 30
0.0
 10
0.7101496062992126
 20
0.9715748031496063
 30
0.0
 10
0.0629133858267717
 20
0.5937952755905512
 30
0.0
 10
0.0629133858267717
 20
0.5937952755905512
 30
0.0
 10
0.0629133858267717
 20
0.5937952755905512
 30
0.0
 10
0.0629133858267717
 20
0.5937952755905512
 30
0.0
 10
0.032255905511811
 20
0.5931732283464567
 30
0.0
 10
0.032255905511811
 20
0.5931732283464567
 30
0.0
  0
SPLINE
  5
A0
100
AcDbEntity
  8
Layer 1
 62
   253
100
AcDbSpline
210
0.0
220
0.0
230
1.0
 70
     1
 71
     3
 72
    20
 73
    16
 74
     0
 42
0.0000000001
 43
0.0000000001
 40
0.0
 40
0.0
 40
0.0
 40
0.0
 40
0.25
 40
0.25
 40
0.25
 40
0.25
 40
0.5
 40
0.5
 40
0.5
 40
0.5
 40
0.75
 40
0.75
 40
0.75
 40
0.75
 40
1.0
 40
1.0
 40
1.0
 40
1.0
 10
0.0629133858267717
 20
0.5937952755905512
 30
0.0
 10
0.0629133858267717
 20
0.5937952755905512
 30
0.0
 10
0.7101496062992126
 20
0.9715748031496063
 30
0.0
 10
0.7101496062992126
 20
0.9715748031496063
 30
0.0
 10
0.7101496062992126
 20
0.9715748031496063
 30
0.0
 10
0.7101496062992126
 20
0.9715748031496063
 30
0.0
 10
0.7400551181102363
 20
0.9722795275590551
 30
0.0
 10
0.7400551181102363
 20
0.9722795275590551
 30
0.0
 10
0.7400551181102363
 20
0.9722795275590551
 30
0.0
 10
0.7400551181102363
 20
0.9722795275590551
 30
0.0
 10
0.0928188976377953
 20
0.5945
 30
0.0
 10
0.0928188976377953
 20
0.5945
 30
0.0
 10
0.0928188976377953
 20
0.5945
 30
0.0
 10
0.0928188976377953
 20
0.5945
 30
0.0
 10
0.0629133858267717
 20
0.5937952755905512
 30
0.0
 10
0.0629133858267717
 20
0.5937952755905512
 30
0.0
  0
SPLINE
  5
A1
100
AcDbEntity
  8
Layer 1
 62
   253
100
AcDbSpline
210
0.0
220
0.0
230
1.0
 70
     1
 71
     3
 72
    20
 73
    16
 74
     0
 42
0.0000000001
 43
0.0000000001
 40
0.0
 40
0.0
 40
0.0
 40
0.0
 40
0.25
 40
0.25
 40
0.25
 40
0.25
 40
0.5
 40
0.5
 40
0.5
 40
0.5
 40
0.75
 40
0.75
 40
0.75
 40
0.75
 40
1.0
 40
1.0
 40
1.0
 40
1.0
 10
0.0928188976377953
 20
0.5945
 30
0.0
 10
0.0928188976377953
 20
0.5945
 30
0.0
 10
0.7400551181102363
 20
0.9722795275590551
 30
0.0
 10
0.7400551181102363
 20
0.9722795275590551
 30
0.0
 10
0.7400551181102363
 20
0.9722795275590551
 30
0.0
 10
0.7400551181102363
 20
0.9722795275590551
 30
0.0
 10
0.769011811023622
 20
0.9729724409448819
 30
0.0
 10
0.769011811023622
 20
0.9729724409448819
 30
0.0
 10
0.769011811023622
 20
0.9729724409448819
 30
0.0
 10
0.769011811023622
 20
0.9729724409448819
 30
0.0
 10
0.1217755905511811
 20
0.5951929133858268
 30
0.0
 10
0.1217755905511811
 20
0.5951929133858268
 30
0.0
 10
0.1217755905511811
 20
0.5951929133858268
 30
0.0
 10
0.1217755905511811
 20
0.5951929133858268
 30
0.0
 10
0.0928188976377953
 20
0.5945
 30
0.0
 10
0.0928188976377953
 20
0.5945
 30
0.0
  0
SPLINE
  5
A2
100
AcDbEntity
  8
Layer 1
 62
   253
100
AcDbSpline
210
0.0
220
0.0
230
1.0
 70
     1
 71
     3
 72
    20
 73
    16
 74
     0
 42
0.0000000001
 43
0.0000000001
 40
0.0
 40
0.0
 40
0.0
 40
0.0
 40
0.25
 40
0.25
 40
0.25
 40
0.25
 40
0.5
 40
0.5
 40
0.5
 40
0.5
 40
0.75
 40
0.75
 40
0.75
 40
0.75
 40
1.0
 40
1.0
 40
1.0
 40
1.0
 10
0.1217755905511811
 20
0.5951929133858268
 30
0.0
 10
0.1217755905511811
 20
0.5951929133858268
 30
0.0
 10
0.769011811023622
 20
0.9729724409448819
 30
0.0
 10
0.769011811023622
 20
0.9729724409448819
 30
0.0
 10
0.769011811023622
 20
0.9729724409448819
 30
0.0
 10
0.769011811023622
 20
0.9729724409448819
 30
0.0
 10
0.7968661417322835
 20
0.9735866141732283
 30
0.0
 10
0.7968661417322835
 20
0.9735866141732283
 30
0.0
 10
0.7968661417322835
 20
0.9735866141732283
 30
0.0
 10
0.7968661417322835
 20
0.9735866141732283
 30
0.0
 10
0.1496299212598425
 20
0.5958070866141733
 30
0.0
 10
0.1496299212598425
 20
0.5958070866141733
 30
0.0
 10
0.1496299212598425
 20
0.5958070866141733
 30
0.0
 10
0.1496299212598425
 20
0.5958070866141733
 30
0.0
 10
0.1217755905511811
 20
0.5951929133858268
 30
0.0
 10
0.1217755905511811
 20
0.5951929133858268
 30
0.0
  0
SPLINE
  5
A3
100
AcDbEntity
  8
Layer 1
 62
   253
100
AcDbSpline
210
0.0
220
0.0
230
1.0
 70
     1
 71
     3
 72
    20
 73
    16
 74
     0
 42
0.0000000001
 43
0.0000000001
 40
0.0
 40
0.0
 40
0.0
 40
0.0
 40
0.25
 40
0.25
 40
0.25
 40
0.25
 40
0.5
 40
0.5
 40
0.5
 40
0.5
 40
0.75
 40
0.75
 40
0.75
 40
0.75
 40
1.0
 40
1.0
 40
1.0
 40
1.0
 10
0.1496299212598425
 20
0.5958070866141733
 30
0.0
 10
0.1496299212598425
 20
0.5958070866141733
 30
0.0
 10
0.7968661417322835
 20
0.9735866141732283
 30
0.0
 10
0.7968661417322835
 20
0.9735866141732283
 30
0.0
 10
0.7968661417322835
 20
0.9735866141732283
 30
0.0
 10
0.7968661417322835
 20
0.9735866141732283
 30
0.0
 10
0.8234251968503937
 20
0.9740393700787402
 30
0.0
 10
0.8234251968503937
 20
0.9740393700787402
 30
0.0
 10
0.8234251968503937
 20
0.9740393700787402
 30
0.0
 10
0.8234251968503937
 20
0.9740393700787402
 30
0.0
 10
0.1761889763779528
 20
0.5962598425196851
 30
0.0
 10
0.1761889763779528
 20
0.5962598425196851
 30
0.0
 10
0.1761889763779528
 20
0.5962598425196851
 30
0.0
 10
0.1761889763779528
 20
0.5962598425196851
 30
0.0
 10
0.1496299212598425
 20
0.5958070866141733
 30
0.0
 10
0.1496299212598425
 20
0.5958070866141733
 30
0.0
  0
SPLINE
  5
A4
100
AcDbEntity
  8
Layer 1
 62
   253
100
AcDbSpline
210
0.0
220
0.0
230
1.0
 70
     1
 71
     3
 72
    20
 73
    16
 74
     0
 42
0.0000000001
 43
0.0000000001
 40
0.0
 40
0.0
 40
0.0
 40
0.0
 40
0.25
 40
0.25
 40
0.25
 40
0.25
 40
0.5
 40
0.5
 40
0.5
 40
0.5
 40
0.75
 40
0.75
 40
0.75
 40
0.75
 40
1.0
 40
1.0
 40
1.0
 40
1.0
 10
0.1761889763779528
 20
0.5962598425196851
 30
0.0
 10
0.1761889763779528
 20
0.5962598425196851
 30
0.0
 10
0.8234251968503937
 20
0.9740393700787402
 30
0.0
 10
0.8234251968503937
 20
0.9740393700787402
 30
0.0
 10
0.8234251968503937
 20
0.9740393700787402
 30
0.0
 10
0.8234251968503937
 20
0.9740393700787402
 30
0.0
 10
0.8485314960629922
 20
0.9742559055118111
 30
0.0
 10
0.8485314960629922
 20
0.9742559055118111
 30
0.0
 10
0.8485314960629922
 20
0.9742559055118111
 30
0.0
 10
0.8485314960629922
 20
0.9742559055118111
 30
0.0
 10
0.2012952755905512
 20
0.5964763779527559
 30
0.0
 10
0.2012952755905512
 20
0.5964763779527559
 30
0.0
 10
0.2012952755905512
 20
0.5964763779527559
 30
0.0
 10
0.2012952755905512
 20
0.5964763779527559
 30
0.0
 10
0.1761889763779528
 20
0.5962598425196851
 30
0.0
 10
0.1761889763779528
 20
0.5962598425196851
 30
0.0
  0
SPLINE
  5
A5
100
AcDbEntity
  8
Layer 1
 62
   253
100
AcDbSpline
210
0.0
220
0.0
230
1.0
 70
     1
 71
     3
 72
    20
 73
    16
 74
     0
 42
0.0000000001
 43
0.0000000001
 40
0.0
 40
0.0
 40
0.0
 40
0.0
 40
0.25
 40
0.25
 40
0.25
 40
0.25
 40
0.5
 40
0.5
 40
0.5
 40
0.5
 40
0.75
 40
0.75
 40
0.75
 40
0.75
 40
1.0
 40
1.0
 40
1.0
 40
1.0
 10
0.2012952755905512
 20
0.5964763779527559
 30
0.0
 10
0.2012952755905512
 20
0.5964763779527559
 30
0.0
 10
0.8485314960629922
 20
0.9742559055118111
 30
0.0
 10
0.8485314960629922
 20
0.9742559055118111
 30
0.0
 10
0.8485314960629922
 20
0.9742559055118111
 30
0.0
 10
0.8485314960629922
 20
0.9742559055118111
 30
0.0
 10
0.8777874015748032
 20
0.9724370078740158
 30
0.0
 10
0.8777874015748032
 20
0.9724370078740158
 30
0.0
 10
0.8777874015748032
 20
0.9724370078740158
 30
0.0
 10
0.8777874015748032
 20
0.9724370078740158
 30
0.0
 10
0.2305511811023622
 20
0.5946574803149607
 30
0.0
 10
0.2305511811023622
 20
0.5946574803149607
 30
0.0
 10
0.2305511811023622
 20
0.5946574803149607
 30
0.0
 10
0.2305511811023622
 20
0.5946574803149607
 30
0.0
 10
0.2012952755905512
 20
0.5964763779527559
 30
0.0
 10
0.2012952755905512
 20
0.5964763779527559
 30
0.0
  0
SPLINE
  5
A6
100
AcDbEntity
  8
Layer 1
 62
   253
100
AcDbSpline
210
0.0
220
0.0
230
1.0
 70
     1
 71
     3
 72
    20
 73
    16
 74
     0
 42
0.0000000001
 43
0.0000000001
 40
0.0
 40
0.0
 40
0.0
 40
0.0
 40
0.25
 40
0.25
 40
0.25
 40
0.25
 40
0.5
 40
0.5
 40
0.5
 40
0.5
 40
0.75
 40
0.75
 40
0.75
 40
0.75
 40
1.0
 40
1.0
 40
1.0
 40
1.0
 10
0.2305511811023622
 20
0.5946574803149607
 30
0.0
 10
0.2305511811023622
 20
0.5946574803149607
 30
0.0
 10
0.8777874015748032
 20
0.9724370078740158
 30
0.0
 10
0.8777874015748032
 20
0.9724370078740158
 30
0.0
 10
0.8777874015748032
 20
0.9724370078740158
 30
0.0
 10
0.8777874015748032
 20
0.9724370078740158
 30
0.0
 10
0.9063661417322835
 20
0.966968503937008
 30
0.0
 10
0.9063661417322835
 20
0.966968503937008
 30
0.0
 10
0.9063661417322835
 20
0.966968503937008
 30
0.0
 10
0.9063661417322835
 20
0.966968503937008
 30
0.0
 10
0.2591299212598425
 20
0.5891889763779528
 30
0.0
 10
0.2591299212598425
 20
0.5891889763779528
 30
0.0
 10
0.2591299212598425
 20
0.5891889763779528
 30
0.0
 10
0.2591299212598425
 20
0.5891889763779528
 30
0.0
 10
0.2305511811023622
 20
0.5946574803149607
 30
0.0
 10
0.2305511811023622
 20
0.5946574803149607
 30
0.0
  0
SPLINE
  5
A7
100
AcDbEntity
  8
Layer 1
 62
   253
100
AcDbSpline
210
0.0
220
0.0
230
1.0
 70
     1
 71
     3
 72
    20
 73
    16
 74
     0
 42
0.0000000001
 43
0.0000000001
 40
0.0
 40
0.0
 40
0.0
 40
0.0
 40
0.25
 40
0.25
 40
0.25
 40
0.25
 40
0.5
 40
0.5
 40
0.5
 40
0.5
 40
0.75
 40
0.75
 40
0.75
 40
0.75
 40
1.0
 40
1.0
 40
1.0
 40
1.0
 10
0.2591299212598425
 20
0.5891889763779528
 30
0.0
 10
0.2591299212598425
 20
0.5891889763779528
 30
0.0
 10
0.9063661417322835
 20
0.966968503937008
 30
0.0
 10
0.9063661417322835
 20
0.966968503937008
 30
0.0
 10
0.9063661417322835
 20
0.966968503937008
 30
0.0
 10
0.9063661417322835
 20
0.966968503937008
 30
0.0
 10
0.9341535433070867
 20
0.9580393700787402
 30
0.0
 10
0.9341535433070867
 20
0.9580393700787402
 30
0.0
 10
0.9341535433070867
 20
0.9580393700787402
 30
0.0
 10
0.9341535433070867
 20
0.9580393700787402
 30
0.0
 10
0.2869173228346457
 20
0.5802598425196851
 30
0.0
 10
0.2869173228346457
 20
0.5802598425196851
 30
0.0
 10
0.2869173228346457
 20
0.5802598425196851
 30
0.0
 10
0.2869173228346457
 20
0.5802598425196851
 30
0.0
 10
0.2591299212598425
 20
0.5891889763779528
 30
0.0
 10
0.2591299212598425
 20
0.5891889763779528
 30
0.0
  0
SPLINE
  5
A8
100
AcDbEntity
  8
Layer 1
 62
   253
100
AcDbSpline
210
0.0
220
0.0
230
1.0
 70
     1
 71
     3
 72
    20
 73
    16
 74
     0
 42
0.0000000001
 43
0.0000000001
 40
0.0
 40
0.0
 40
0.0
 40
0.0
 40
0.25
 40
0.25
 40
0.25
 40
0.25
 40
0.5
 40
0.5
 40
0.5
 40
0.5
 40
0.75
 40
0.75
 40
0.75
 40
0.75
 40
1.0
 40
1.0
 40
1.0
 40
1.0
 10
0.2869173228346457
 20
0.5802598425196851
 30
0.0
 10
0.2869173228346457
 20
0.5802598425196851
 30
0.0
 10
0.9341535433070867
 20
0.9580393700787402
 30
0.0
 10
0.9341535433070867
 20
0.9580393700787402
 30
0.0
 10
0.9341535433070867
 20
0.9580393700787402
 30
0.0
 10
0.9341535433070867
 20
0.9580393700787402
 30
0.0
 10
0.9610472440944883
 20
0.9458464566929135
 30
0.0
 10
0.9610472440944883
 20
0.9458464566929135
 30
0.0
 10
0.9610472440944883
 20
0.9458464566929135
 30
0.0
 10
0.9610472440944883
 20
0.9458464566929135
 30
0.0
 10
0.3138110236220473
 20
0.5680669291338583
 30
0.0
 10
0.3138110236220473
 20
0.5680669291338583
 30
0.0
 10
0.3138110236220473
 20
0.5680669291338583
 30
0.0
 10
0.3138110236220473
 20
0.5680669291338583
 30
0.0
 10
0.2869173228346457
 20
0.5802598425196851
 30
0.0
 10
0.2869173228346457
 20
0.5802598425196851
 30
0.0
  0
SPLINE
  5
A9
100
AcDbEntity
  8
Layer 1
 62
     9
100
AcDbSpline
210
0.0
220
0.0
230
1.0
 70
     1
 71
     3
 72
    20
 73
    16
 74
     0
 42
0.0000000001
 43
0.0000000001
 40
0.0
 40
0.0
 40
0.0
 40
0.0
 40
0.25
 40
0.25
 40
0.25
 40
0.25
 40
0.5
 40
0.5
 40
0.5
 40
0.5
 40
0.75
 40
0.75
 40
0.75
 40
0.75
 40
1.0
 40
1.0
 40
1.0
 40
1.0
 10
0.3138110236220473
 20
0.5680669291338583
 30
0.0
 10
0.3138110236220473
 20
0.5680669291338583
 30
0.0
 10
0.9610472440944883
 20
0.9458464566929135
 30
0.0
 10
0.9610472440944883
 20
0.9458464566929135
 30
0.0
 10
0.9610472440944883
 20
0.9458464566929135
 30
0.0
 10
0.9610472440944883
 20
0.9458464566929135
 30
0.0
 10
0.9869212598425198
 20
0.9305708661417323
 30
0.0
 10
0.9869212598425198
 20
0.9305708661417323
 30
0.0
 10
0.9869212598425198
 20
0.9305708661417323
 30
0.0
 10
0.9869212598425198
 20
0.9305708661417323
 30
0.0
 10
0.3396850393700788
 20
0.5527913385826772
 30
0.0
 10
0.3396850393700788
 20
0.5527913385826772
 30
0.0
 10
0.3396850393700788
 20
0.5527913385826772
 30
0.0
 10
0.3396850393700788
 20
0.5527913385826772
 30
0.0
 10
0.3138110236220473
 20
0.5680669291338583
 30
0.0
 10
0.3138110236220473
 20
0.5680669291338583
 30
0.0
  0
SPLINE
  5
AA
100
AcDbEntity
  8
Layer 1
 62
     9
100
AcDbSpline
210
0.0
220
0.0
230
1.0
 70
     1
 71
     3
 72
    20
 73
    16
 74
     0
 42
0.0000000001
 43
0.0000000001
 40
0.0
 40
0.0
 40
0.0
 40
0.0
 40
0.25
 40
0.25
 40
0.25
 40
0.25
 40
0.5
 40
0.5
 40
0.5
 40
0.5
 40
0.75
 40
0.75
 40
0.75
 40
0.75
 40
1.0
 40
1.0
 40
1.0
 40
1.0
 10
0.3396850393700788
 20
0.5527913385826772
 30
0.0
 10
0.3396850393700788
 20
0.5527913385826772
 30
0.0
 10
0.9869212598425198
 20
0.9305708661417323
 30
0.0
 10
0.9869212598425198
 20
0.9305708661417323
 30
0.0
 10
0.9869212598425198
 20
0.9305708661417323
 30
0.0
 10
0.9869212598425198
 20
0.9305708661417323
 30
0.0
 10
1.0116811023622048
 20
0.9124173228346457
 30
0.0
 10
1.0116811023622048
 20
0.9124173228346457
 30
0.0
 10
1.0116811023622048
 20
0.9124173228346457
 30
0.0
 10
1.0116811023622048
 20
0.9124173228346457
 30
0.0
 10
0.3644448818897638
 20
0.5346377952755905
 30
0.0
 10
0.3644448818897638
 20
0.5346377952755905
 30
0.0
 10
0.3644448818897638
 20
0.5346377952755905
 30
0.0
 10
0.3644448818897638
 20
0.5346377952755905
 30
0.0
 10
0.3396850393700788
 20
0.5527913385826772
 30
0.0
 10
0.3396850393700788
 20
0.5527913385826772
 30
0.0
  0
SPLINE
  5
AB
100
AcDbEntity
  8
Layer 1
 62
     9
100
AcDbSpline
210
0.0
220
0.0
230
1.0
 70
     1
 71
     3
 72
    20
 73
    16
 74
     0
 42
0.0000000001
 43
0.0000000001
 40
0.0
 40
0.0
 40
0.0
 40
0.0
 40
0.25
 40
0.25
 40
0.25
 40
0.25
 40
0.5
 40
0.5
 40
0.5
 40
0.5
 40
0.75
 40
0.75
 40
0.75
 40
0.75
 40
1.0
 40
1.0
 40
1.0
 40
1.0
 10
0.3644448818897638
 20
0.5346377952755905
 30
0.0
 10
0.3644448818897638
 20
0.5346377952755905
 30
0.0
 10
1.0116811023622048
 20
0.9124173228346457
 30
0.0
 10
1.0116811023622048
 20
0.9124173228346457
 30
0.0
 10
1.0116811023622048
 20
0.9124173228346457
 30
0.0
 10
1.0116811023622048
 20
0.9124173228346457
 30
0.0
 10
1.035212598425197
 20
0.8915748031496064
 30
0.0
 10
1.035212598425197
 20
0.8915748031496064
 30
0.0
 10
1.035212598425197
 20
0.8915748031496064
 30
0.0
 10
1.035212598425197
 20
0.8915748031496064
 30
0.0
 10
0.3879763779527559
 20
0.5137952755905512
 30
0.0
 10
0.3879763779527559
 20
0.5137952755905512
 30
0.0
 10
0.3879763779527559
 20
0.5137952755905512
 30
0.0
 10
0.3879763779527559
 20
0.5137952755905512
 30
0.0
 10
0.3644448818897638
 20
0.5346377952755905
 30
0.0
 10
0.3644448818897638
 20
0.5346377952755905
 30
0.0
  0
SPLINE
  5
AC
100
AcDbEntity
  8
Layer 1
 62
     9
100
AcDbSpline
210
0.0
220
0.0
230
1.0
 70
     1
 71
     3
 72
    20
 73
    16
 74
     0
 42
0.0000000001
 43
0.0000000001
 40
0.0
 40
0.0
 40
0.0
 40
0.0
 40
0.25
 40
0.25
 40
0.25
 40
0.25
 40
0.5
 40
0.5
 40
0.5
 40
0.5
 40
0.75
 40
0.75
 40
0.75
 40
0.75
 40
1.0
 40
1.0
 40
1.0
 40
1.0
 10
0.3879763779527559
 20
0.5137952755905512
 30
0.0
 10
0.3879763779527559
 20
0.5137952755905512
 30
0.0
 10
1.035212598425197
 20
0.8915748031496064
 30
0.0
 10
1.035212598425197
 20
0.8915748031496064
 30
0.0
 10
1.035212598425197
 20
0.8915748031496064
 30
0.0
 10
1.035212598425197
 20
0.8915748031496064
 30
0.0
 10
1.0574133858267718
 20
0.868240157480315
 30
0.0
 10
1.0574133858267718
 20
0.868240157480315
 30
0.0
 10
1.0574133858267718
 20
0.868240157480315
 30
0.0
 10
1.0574133858267718
 20
0.868240157480315
 30
0.0
 10
0.4101771653543307
 20
0.4904606299212599
 30
0.0
 10
0.4101771653543307
 20
0.4904606299212599
 30
0.0
 10
0.4101771653543307
 20
0.4904606299212599
 30
0.0
 10
0.4101771653543307
 20
0.4904606299212599
 30
0.0
 10
0.3879763779527559
 20
0.5137952755905512
 30
0.0
 10
0.3879763779527559
 20
0.5137952755905512
 30
0.0
  0
SPLINE
  5
AD
100
AcDbEntity
  8
Layer 1
 62
     9
100
AcDbSpline
210
0.0
220
0.0
230
1.0
 70
     1
 71
     3
 72
    20
 73
    16
 74
     0
 42
0.0000000001
 43
0.0000000001
 40
0.0
 40
0.0
 40
0.0
 40
0.0
 40
0.25
 40
0.25
 40
0.25
 40
0.25
 40
0.5
 40
0.5
 40
0.5
 40
0.5
 40
0.75
 40
0.75
 40
0.75
 40
0.75
 40
1.0
 40
1.0
 40
1.0
 40
1.0
 10
0.4101771653543307
 20
0.4904606299212599
 30
0.0
 10
0.4101771653543307
 20
0.4904606299212599
 30
0.0
 10
1.0574133858267718
 20
0.868240157480315
 30
0.0
 10
1.0574133858267718
 20
0.868240157480315
 30
0.0
 10
1.0574133858267718
 20
0.868240157480315
 30
0.0
 10
1.0574133858267718
 20
0.868240157480315
 30
0.0
 10
1.0781574803149607
 20
0.8425944881889764
 30
0.0
 10
1.0781574803149607
 20
0.8425944881889764
 30
0.0
 10
1.0781574803149607
 20
0.8425944881889764
 30
0.0
 10
1.0781574803149607
 20
0.8425944881889764
 30
0.0
 10
0.4309212598425197
 20
0.4648149606299213
 30
0.0
 10
0.4309212598425197
 20
0.4648149606299213
 30
0.0
 10
0.4309212598425197
 20
0.4648149606299213
 30
0.0
 10
0.4309212598425197
 20
0.4648149606299213
 30
0.0
 10
0.4101771653543307
 20
0.4904606299212599
 30
0.0
 10
0.4101771653543307
 20
0.4904606299212599
 30
0.0
  0
SPLINE
  5
AE
100
AcDbEntity
  8
Layer 1
 62
     9
100
AcDbSpline
210
0.0
220
0.0
230
1.0
 70
     1
 71
     3
 72
    20
 73
    16
 74
     0
 42
0.0000000001
 43
0.0000000001
 40
0.0
 40
0.0
 40
0.0
 40
0.0
 40
0.25
 40
0.25
 40
0.25
 40
0.25
 40
0.5
 40
0.5
 40
0.5
 40
0.5
 40
0.75
 40
0.75
 40
0.75
 40
0.75
 40
1.0
 40
1.0
 40
1.0
 40
1.0
 10
0.4309212598425197
 20
0.4648149606299213
 30
0.0
 10
0.4309212598425197
 20
0.4648149606299213
 30
0.0
 10
1.0781574803149607
 20
0.8425944881889764
 30
0.0
 10
1.0781574803149607
 20
0.8425944881889764
 30
0.0
 10
1.0781574803149607
 20
0.8425944881889764
 30
0.0
 10
1.0781574803149607
 20
0.8425944881889764
 30
0.0
 10
1.0973582677165354
 20
0.8148464566929135
 30
0.0
 10
1.0973582677165354
 20
0.8148464566929135
 30
0.0
 10
1.0973582677165354
 20
0.8148464566929135
 30
0.0
 10
1.0973582677165354
 20
0.8148464566929135
 30
0.0
 10
0.4501220472440945
 20
0.4370669291338583
 30
0.0
 10
0.4501220472440945
 20
0.4370669291338583
 30
0.0
 10
0.4501220472440945
 20
0.4370669291338583
 30
0.0
 10
0.4501220472440945
 20
0.4370669291338583
 30
0.0
 10
0.4309212598425197
 20
0.4648149606299213
 30
0.0
 10
0.4309212598425197
 20
0.4648149606299213
 30
0.0
  0
SPLINE
  5
AF
100
AcDbEntity
  8
Layer 1
 62
     9
100
AcDbSpline
210
0.0
220
0.0
230
1.0
 70
     1
 71
     3
 72
    20
 73
    16
 74
     0
 42
0.0000000001
 43
0.0000000001
 40
0.0
 40
0.0
 40
0.0
 40
0.0
 40
0.25
 40
0.25
 40
0.25
 40
0.25
 40
0.5
 40
0.5
 40
0.5
 40
0.5
 40
0.75
 40
0.75
 40
0.75
 40
0.75
 40
1.0
 40
1.0
 40
1.0
 40
1.0
 10
0.4501220472440945
 20
0.4370669291338583
 30
0.0
 10
0.4501220472440945
 20
0.4370669291338583
 30
0.0
 10
1.0973582677165354
 20
0.8148464566929135
 30
0.0
 10
1.0973582677165354
 20
0.8148464566929135
 30
0.0
 10
1.0973582677165354
 20
0.8148464566929135
 30
0.0
 10
1.0973582677165354
 20
0.8148464566929135
 30
0.0
 10
1.1148897637795276
 20
0.7851771653543307
 30
0.0
 10
1.1148897637795276
 20
0.7851771653543307
 30
0.0
 10
1.1148897637795276
 20
0.7851771653543307
 30
0.0
 10
1.1148897637795276
 20
0.7851771653543307
 30
0.0
 10
0.4676535433070866
 20
0.4073976377952756
 30
0.0
 10
0.4676535433070866
 20
0.4073976377952756
 30
0.0
 10
0.4676535433070866
 20
0.4073976377952756
 30
0.0
 10
0.4676535433070866
 20
0.4073976377952756
 30
0.0
 10
0.4501220472440945
 20
0.4370669291338583
 30
0.0
 10
0.4501220472440945
 20
0.4370669291338583
 30
0.0
  0
SPLINE
  5
B0
100
AcDbEntity
  8
Layer 1
 62
     9
100
AcDbSpline
210
0.0
220
0.0
230
1.0
 70
     1
 71
     3
 72
    20
 73
    16
 74
     0
 42
0.0000000001
 43
0.0000000001
 40
0.0
 40
0.0
 40
0.0
 40
0.0
 40
0.25
 40
0.25
 40
0.25
 40
0.25
 40
0.5
 40
0.5
 40
0.5
 40
0.5
 40
0.75
 40
0.75
 40
0.75
 40
0.75
 40
1.0
 40
1.0
 40
1.0
 40
1.0
 10
0.4676535433070866
 20
0.4073976377952756
 30
0.0
 10
0.4676535433070866
 20
0.4073976377952756
 30
0.0
 10
1.1148897637795276
 20
0.7851771653543307
 30
0.0
 10
1.1148897637795276
 20
0.7851771653543307
 30
0.0
 10
1.1148897637795276
 20
0.7851771653543307
 30
0.0
 10
1.1148897637795276
 20
0.7851771653543307
 30
0.0
 10
1.1306574803149607
 20
0.7537913385826772
 30
0.0
 10
1.1306574803149607
 20
0.7537913385826772
 30
0.0
 10
1.1306574803149607
 20
0.7537913385826772
 30
0.0
 10
1.1306574803149607
 20
0.7537913385826772
 30
0.0
 10
0.4834212598425197
 20
0.3760118110236221
 30
0.0
 10
0.4834212598425197
 20
0.3760118110236221
 30
0.0
 10
0.4834212598425197
 20
0.3760118110236221
 30
0.0
 10
0.4834212598425197
 20
0.3760118110236221
 30
0.0
 10
0.4676535433070866
 20
0.4073976377952756
 30
0.0
 10
0.4676535433070866
 20
0.4073976377952756
 30
0.0
  0
SPLINE
  5
B1
100
AcDbEntity
  8
Layer 1
 62
     9
100
AcDbSpline
210
0.0
220
0.0
230
1.0
 70
     1
 71
     3
 72
    20
 73
    16
 74
     0
 42
0.0000000001
 43
0.0000000001
 40
0.0
 40
0.0
 40
0.0
 40
0.0
 40
0.25
 40
0.25
 40
0.25
 40
0.25
 40
0.5
 40
0.5
 40
0.5
 40
0.5
 40
0.75
 40
0.75
 40
0.75
 40
0.75
 40
1.0
 40
1.0
 40
1.0
 40
1.0
 10
0.4834212598425197
 20
0.3760118110236221
 30
0.0
 10
0.4834212598425197
 20
0.3760118110236221
 30
0.0
 10
1.1306574803149607
 20
0.7537913385826772
 30
0.0
 10
1.1306574803149607
 20
0.7537913385826772
 30
0.0
 10
1.1306574803149607
 20
0.7537913385826772
 30
0.0
 10
1.1306574803149607
 20
0.7537913385826772
 30
0.0
 10
1.1445354330708661
 20
0.7208700787401575
 30
0.0
 10
1.1445354330708661
 20
0.7208700787401575
 30
0.0
 10
1.1445354330708661
 20
0.7208700787401575
 30
0.0
 10
1.1445354330708661
 20
0.7208700787401575
 30
0.0
 10
0.4972992125984252
 20
0.3430905511811024
 30
0.0
 10
0.4972992125984252
 20
0.3430905511811024
 30
0.0
 10
0.4972992125984252
 20
0.3430905511811024
 30
0.0
 10
0.4972992125984252
 20
0.3430905511811024
 30
0.0
 10
0.4834212598425197
 20
0.3760118110236221
 30
0.0
 10
0.4834212598425197
 20
0.3760118110236221
 30
0.0
  0
SPLINE
  5
B2
100
AcDbEntity
  8
Layer 1
 62
     9
100
AcDbSpline
210
0.0
220
0.0
230
1.0
 70
     1
 71
     3
 72
    20
 73
    16
 74
     0
 42
0.0000000001
 43
0.0000000001
 40
0.0
 40
0.0
 40
0.0
 40
0.0
 40
0.25
 40
0.25
 40
0.25
 40
0.25
 40
0.5
 40
0.5
 40
0.5
 40
0.5
 40
0.75
 40
0.75
 40
0.75
 40
0.75
 40
1.0
 40
1.0
 40
1.0
 40
1.0
 10
0.4972992125984252
 20
0.3430905511811024
 30
0.0
 10
0.4972992125984252
 20
0.3430905511811024
 30
0.0
 10
1.1445354330708661
 20
0.7208700787401575
 30
0.0
 10
1.1445354330708661
 20
0.7208700787401575
 30
0.0
 10
1.1445354330708661
 20
0.7208700787401575
 30
0.0
 10
1.1445354330708661
 20
0.7208700787401575
 30
0.0
 10
1.1564330708661417
 20
0.6866141732283465
 30
0.0
 10
1.1564330708661417
 20
0.6866141732283465
 30
0.0
 10
1.1564330708661417
 20
0.6866141732283465
 30
0.0
 10
1.1564330708661417
 20
0.6866141732283465
 30
0.0
 10
0.5091968503937008
 20
0.3088346456692914
 30
0.0
 10
0.5091968503937008
 20
0.3088346456692914
 30
0.0
 10
0.5091968503937008
 20
0.3088346456692914
 30
0.0
 10
0.5091968503937008
 20
0.3088346456692914
 30
0.0
 10
0.4972992125984252
 20
0.3430905511811024
 30
0.0
 10
0.4972992125984252
 20
0.3430905511811024
 30
0.0
  0
SPLINE
  5
B3
100
AcDbEntity
  8
Layer 1
 62
     9
100
AcDbSpline
210
0.0
220
0.0
230
1.0
 70
     1
 71
     3
 72
    20
 73
    16
 74
     0
 42
0.0000000001
 43
0.0000000001
 40
0.0
 40
0.0
 40
0.0
 40
0.0
 40
0.25
 40
0.25
 40
0.25
 40
0.25
 40
0.5
 40
0.5
 40
0.5
 40
0.5
 40
0.75
 40
0.75
 40
0.75
 40
0.75
 40
1.0
 40
1.0
 40
1.0
 40
1.0
 10
0.5091968503937008
 20
0.3088346456692914
 30
0.0
 10
0.5091968503937008
 20
0.3088346456692914
 30
0.0
 10
1.1564330708661417
 20
0.6866141732283465
 30
0.0
 10
1.1564330708661417
 20
0.6866141732283465
 30
0.0
 10
1.1564330708661417
 20
0.6866141732283465
 30
0.0
 10
1.1564330708661417
 20
0.6866141732283465
 30
0.0
 10
1.1662283464566929
 20
0.6512125984251969
 30
0.0
 10
1.1662283464566929
 20
0.6512125984251969
 30
0.0
 10
1.1662283464566929
 20
0.6512125984251969
 30
0.0
 10
1.1662283464566929
 20
0.6512125984251969
 30
0.0
 10
0.518992125984252
 20
0.2734330708661418
 30
0.0
 10
0.518992125984252
 20
0.2734330708661418
 30
0.0
 10
0.518992125984252
 20
0.2734330708661418
 30
0.0
 10
0.518992125984252
 20
0.2734330708661418
 30
0.0
 10
0.5091968503937008
 20
0.3088346456692914
 30
0.0
 10
0.5091968503937008
 20
0.3088346456692914
 30
0.0
  0
SPLINE
  5
B4
100
AcDbEntity
  8
Layer 1
 62
     9
100
AcDbSpline
210
0.0
220
0.0
230
1.0
 70
     1
 71
     3
 72
    20
 73
    16
 74
     0
 42
0.0000000001
 43
0.0000000001
 40
0.0
 40
0.0
 40
0.0
 40
0.0
 40
0.25
 40
0.25
 40
0.25
 40
0.25
 40
0.5
 40
0.5
 40
0.5
 40
0.5
 40
0.75
 40
0.75
 40
0.75
 40
0.75
 40
1.0
 40
1.0
 40
1.0
 40
1.0
 10
0.518992125984252
 20
0.2734330708661418
 30
0.0
 10
0.518992125984252
 20
0.2734330708661418
 30
0.0
 10
1.1662283464566929
 20
0.6512125984251969
 30
0.0
 10
1.1662283464566929
 20
0.6512125984251969
 30
0.0
 10
1.1662283464566929
 20
0.6512125984251969
 30
0.0
 10
1.1662283464566929
 20
0.6512125984251969
 30
0.0
 10
1.1738228346456694
 20
0.6148661417322835
 30
0.0
 10
1.1738228346456694
 20
0.6148661417322835
 30
0.0
 10
1.1738228346456694
 20
0.6148661417322835
 30
0.0
 10
1.1738228346456694
 20
0.6148661417322835
 30
0.0
 10
0.5265866141732284
 20
0.2370866141732284
 30
0.0
 10
0.5265866141732284
 20
0.2370866141732284
 30
0.0
 10
0.5265866141732284
 20
0.2370866141732284
 30
0.0
 10
0.5265866141732284
 20
0.2370866141732284
 30
0.0
 10
0.518992125984252
 20
0.2734330708661418
 30
0.0
 10
0.518992125984252
 20
0.2734330708661418
 30
0.0
  0
SPLINE
  5
B5
100
AcDbEntity
  8
Layer 1
 62
     9
100
AcDbSpline
210
0.0
220
0.0
230
1.0
 70
     1
 71
     3
 72
    20
 73
    16
 74
     0
 42
0.0000000001
 43
0.0000000001
 40
0.0
 40
0.0
 40
0.0
 40
0.0
 40
0.25
 40
0.25
 40
0.25
 40
0.25
 40
0.5
 40
0.5
 40
0.5
 40
0.5
 40
0.75
 40
0.75
 40
0.75
 40
0.75
 40
1.0
 40
1.0
 40
1.0
 40
1.0
 10
0.5265866141732284
 20
0.2370866141732284
 30
0.0
 10
0.5265866141732284
 20
0.2370866141732284
 30
0.0
 10
1.1738228346456694
 20
0.6148661417322835
 30
0.0
 10
1.1738228346456694
 20
0.6148661417322835
 30
0.0
 10
1.1738228346456694
 20
0.6148661417322835
 30
0.0
 10
1.1738228346456694
 20
0.6148661417322835
 30
0.0
 10
1.1790905511811025
 20
0.5777519685039371
 30
0.0
 10
1.1790905511811025
 20
0.5777519685039371
 30
0.0
 10
1.1790905511811025
 20
0.5777519685039371
 30
0.0
 10
1.1790905511811025
 20
0.5777519685039371
 30
0.0
 10
0.5318543307086614
 20
0.1999724409448819
 30
0.0
 10
0.5318543307086614
 20
0.1999724409448819
 30
0.0
 10
0.5318543307086614
 20
0.1999724409448819
 30
0.0
 10
0.5318543307086614
 20
0.1999724409448819
 30
0.0
 10
0.5265866141732284
 20
0.2370866141732284
 30
0.0
 10
0.5265866141732284
 20
0.2370866141732284
 30
0.0
  0
SPLINE
  5
B6
100
AcDbEntity
  8
Layer 1
 62
     9
100
AcDbSpline
210
0.0
220
0.0
230
1.0
 70
     1
 71
     3
 72
    20
 73
    16
 74
     0
 42
0.0000000001
 43
0.0000000001
 40
0.0
 40
0.0
 40
0.0
 40
0.0
 40
0.25
 40
0.25
 40
0.25
 40
0.25
 40
0.5
 40
0.5
 40
0.5
 40
0.5
 40
0.75
 40
0.75
 40
0.75
 40
0.75
 40
1.0
 40
1.0
 40
1.0
 40
1.0
 10
0.5318543307086614
 20
0.1999724409448819
 30
0.0
 10
0.5318543307086614
 20
0.1999724409448819
 30
0.0
 10
1.1790905511811025
 20
0.5777519685039371
 30
0.0
 10
1.1790905511811025
 20
0.5777519685039371
 30
0.0
 10
1.1790905511811025
 20
0.5777519685039371
 30
0.0
 10
1.1790905511811025
 20
0.5777519685039371
 30
0.0
 10
1.1819409448818898
 20
0.5400748031496063
 30
0.0
 10
1.1819409448818898
 20
0.5400748031496063
 30
0.0
 10
1.1819409448818898
 20
0.5400748031496063
 30
0.0
 10
1.1819409448818898
 20
0.5400748031496063
 30
0.0
 10
0.5347047244094488
 20
0.1622952755905512
 30
0.0
 10
0.5347047244094488
 20
0.1622952755905512
 30
0.0
 10
0.5347047244094488
 20
0.1622952755905512
 30
0.0
 10
0.5347047244094488
 20
0.1622952755905512
 30
0.0
 10
0.5318543307086614
 20
0.1999724409448819
 30
0.0
 10
0.5318543307086614
 20
0.1999724409448819
 30
0.0
  0
SPLINE
  5
B7
100
AcDbEntity
  8
Layer 1
 62
     9
100
AcDbSpline
210
0.0
220
0.0
230
1.0
 70
     1
 71
     3
 72
    20
 73
    16
 74
     0
 42
0.0000000001
 43
0.0000000001
 40
0.0
 40
0.0
 40
0.0
 40
0.0
 40
0.25
 40
0.25
 40
0.25
 40
0.25
 40
0.5
 40
0.5
 40
0.5
 40
0.5
 40
0.75
 40
0.75
 40
0.75
 40
0.75
 40
1.0
 40
1.0
 40
1.0
 40
1.0
 10
0.5347047244094488
 20
0.1622952755905512
 30
0.0
 10
0.5347047244094488
 20
0.1622952755905512
 30
0.0
 10
1.1819409448818898
 20
0.5400748031496063
 30
0.0
 10
1.1819409448818898
 20
0.5400748031496063
 30
0.0
 10
1.1819409448818898
 20
0.5400748031496063
 30
0.0
 10
1.1819409448818898
 20
0.5400748031496063
 30
0.0
 10
1.182251968503937
 20
0.5020275590551181
 30
0.0
 10
1.182251968503937
 20
0.5020275590551181
 30
0.0
 10
1.182251968503937
 20
0.5020275590551181
 30
0.0
 10
1.182251968503937
 20
0.5020275590551181
 30
0.0
 10
0.5350157480314961
 20
0.124248031496063
 30
0.0
 10
0.5350157480314961
 20
0.124248031496063
 30
0.0
 10
0.5350157480314961
 20
0.124248031496063
 30
0.0
 10
0.5350157480314961
 20
0.124248031496063
 30
0.0
 10
0.5347047244094488
 20
0.1622952755905512
 30
0.0
 10
0.5347047244094488
 20
0.1622952755905512
 30
0.0
  0
SPLINE
  5
B8
100
AcDbEntity
  8
Layer 1
 62
     9
100
AcDbSpline
210
0.0
220
0.0
230
1.0
 70
     1
 71
     3
 72
    20
 73
    16
 74
     0
 42
0.0000000001
 43
0.0000000001
 40
0.0
 40
0.0
 40
0.0
 40
0.0
 40
0.25
 40
0.25
 40
0.25
 40
0.25
 40
0.5
 40
0.5
 40
0.5
 40
0.5
 40
0.75
 40
0.75
 40
0.75
 40
0.75
 40
1.0
 40
1.0
 40
1.0
 40
1.0
 10
0.5350157480314961
 20
0.124248031496063
 30
0.0
 10
0.5350157480314961
 20
0.124248031496063
 30
0.0
 10
1.182251968503937
 20
0.5020275590551181
 30
0.0
 10
1.182251968503937
 20
0.5020275590551181
 30
0.0
 10
1.182251968503937
 20
0.5020275590551181
 30
0.0
 10
1.182251968503937
 20
0.5020275590551181
 30
0.0
 10
1.1799291338582678
 20
0.4638110236220472
 30
0.0
 10
1.1799291338582678
 20
0.4638110236220472
 30
0.0
 10
1.1799291338582678
 20
0.4638110236220472
 30
0.0
 10
1.1799291338582678
 20
0.4638110236220472
 30
0.0
 10
0.5326929133858268
 20
0.0860314960629921
 30
0.0
 10
0.5326929133858268
 20
0.0860314960629921
 30
0.0
 10
0.5326929133858268
 20
0.0860314960629921
 30
0.0
 10
0.5326929133858268
 20
0.0860314960629921
 30
0.0
 10
0.5350157480314961
 20
0.124248031496063
 30
0.0
 10
0.5350157480314961
 20
0.124248031496063
 30
0.0
  0
SPLINE
  5
B9
100
AcDbEntity
  8
Layer 1
 62
     9
100
AcDbSpline
210
0.0
220
0.0
230
1.0
 70
     1
 71
     3
 72
    20
 73
    16
 74
     0
 42
0.0000000001
 43
0.0000000001
 40
0.0
 40
0.0
 40
0.0
 40
0.0
 40
0.25
 40
0.25
 40
0.25
 40
0.25
 40
0.5
 40
0.5
 40
0.5
 40
0.5
 40
0.75
 40
0.75
 40
0.75
 40
0.75
 40
1.0
 40
1.0
 40
1.0
 40
1.0
 10
0.5326929133858268
 20
0.0860314960629921
 30
0.0
 10
0.5326929133858268
 20
0.0860314960629921
 30
0.0
 10
1.1799291338582678
 20
0.4638110236220472
 30
0.0
 10
1.1799291338582678
 20
0.4638110236220472
 30
0.0
 10
1.1799291338582678
 20
0.4638110236220472
 30
0.0
 10
1.1799291338582678
 20
0.4638110236220472
 30
0.0
 10
1.1748464566929133
 20
0.4255984251968504
 30
0.0
 10
1.1748464566929133
 20
0.4255984251968504
 30
0.0
 10
1.1748464566929133
 20
0.4255984251968504
 30
0.0
 10
1.1748464566929133
 20
0.4255984251968504
 30
0.0
 10
0.5276102362204724
 20
0.0478188976377953
 30
0.0
 10
0.5276102362204724
 20
0.0478188976377953
 30
0.0
 10
0.5276102362204724
 20
0.0478188976377953
 30
0.0
 10
0.5276102362204724
 20
0.0478188976377953
 30
0.0
 10
0.5326929133858268
 20
0.0860314960629921
 30
0.0
 10
0.5326929133858268
 20
0.0860314960629921
 30
0.0
  0
SPLINE
  5
BA
100
AcDbEntity
  8
Layer 1
 62
     9
100
AcDbSpline
210
0.0
220
0.0
230
1.0
 70
     1
 71
     3
 72
    20
 73
    16
 74
     0
 42
0.0000000001
 43
0.0000000001
 40
0.0
 40
0.0
 40
0.0
 40
0.0
 40
0.25
 40
0.25
 40
0.25
 40
0.25
 40
0.5
 40
0.5
 40
0.5
 40
0.5
 40
0.75
 40
0.75
 40
0.75
 40
0.75
 40
1.0
 40
1.0
 40
1.0
 40
1.0
 10
0.5276102362204724
 20
0.0478188976377953
 30
0.0
 10
0.5276102362204724
 20
0.0478188976377953
 30
0.0
 10
1.1748464566929133
 20
0.4255984251968504
 30
0.0
 10
1.1748464566929133
 20
0.4255984251968504
 30
0.0
 10
1.1748464566929133
 20
0.4255984251968504
 30
0.0
 10
1.1748464566929133
 20
0.4255984251968504
 30
0.0
 10
1.1669094488188976
 20
0.3876023622047244
 30
0.0
 10
1.1669094488188976
 20
0.3876023622047244
 30
0.0
 10
1.1669094488188976
 20
0.3876023622047244
 30
0.0
 10
1.1669094488188976
 20
0.3876023622047244
 30
0.0
 10
0.5196732283464567
 20
0.0098228346456693
 30
0.0
 10
0.5196732283464567
 20
0.0098228346456693
 30
0.0
 10
0.5196732283464567
 20
0.0098228346456693
 30
0.0
 10
0.5196732283464567
 20
0.0098228346456693
 30
0.0
 10
0.5276102362204724
 20
0.0478188976377953
 30
0.0
 10
0.5276102362204724
 20
0.0478188976377953
 30
0.0
  0
SPLINE
  5
BB
100
AcDbEntity
  8
Layer 1
 62
     9
100
AcDbSpline
210
0.0
220
0.0
230
1.0
 70
     1
 71
     3
 72
    20
 73
    16
 74
     0
 42
0.0000000001
 43
0.0000000001
 40
0.0
 40
0.0
 40
0.0
 40
0.0
 40
0.25
 40
0.25
 40
0.25
 40
0.25
 40
0.5
 40
0.5
 40
0.5
 40
0.5
 40
0.75
 40
0.75
 40
0.75
 40
0.75
 40
1.0
 40
1.0
 40
1.0
 40
1.0
 10
0.5196732283464567
 20
0.0098228346456693
 30
0.0
 10
0.5196732283464567
 20
0.0098228346456693
 30
0.0
 10
1.1669094488188976
 20
0.3876023622047244
 30
0.0
 10
1.1669094488188976
 20
0.3876023622047244
 30
0.0
 10
1.1669094488188976
 20
0.3876023622047244
 30
0.0
 10
1.1669094488188976
 20
0.3876023622047244
 30
0.0
 10
1.1560000000000001
 20
0.3500078740157481
 30
0.0
 10
1.1560000000000001
 20
0.3500078740157481
 30
0.0
 10
1.1560000000000001
 20
0.3500078740157481
 30
0.0
 10
1.1560000000000001
 20
0.3500078740157481
 30
0.0
 10
0.508763779527559
 20
-0.0277716535433071
 30
0.0
 10
0.508763779527559
 20
-0.0277716535433071
 30
0.0
 10
0.508763779527559
 20
-0.0277716535433071
 30
0.0
 10
0.508763779527559
 20
-0.0277716535433071
 30
0.0
 10
0.5196732283464567
 20
0.0098228346456693
 30
0.0
 10
0.5196732283464567
 20
0.0098228346456693
 30
0.0
  0
SPLINE
  5
BC
100
AcDbEntity
  8
Layer 1
 62
     9
100
AcDbSpline
210
0.0
220
0.0
230
1.0
 70
     1
 71
     3
 72
    20
 73
    16
 74
     0
 42
0.0000000001
 43
0.0000000001
 40
0.0
 40
0.0
 40
0.0
 40
0.0
 40
0.25
 40
0.25
 40
0.25
 40
0.25
 40
0.5
 40
0.5
 40
0.5
 40
0.5
 40
0.75
 40
0.75
 40
0.75
 40
0.75
 40
1.0
 40
1.0
 40
1.0
 40
1.0
 10
0.508763779527559
 20
-0.0277716535433071
 30
0.0
 10
0.508763779527559
 20
-0.0277716535433071
 30
0.0
 10
1.1560000000000001
 20
0.3500078740157481
 30
0.0
 10
1.1560000000000001
 20
0.3500078740157481
 30
0.0
 10
1.1560000000000001
 20
0.3500078740157481
 30
0.0
 10
1.1560000000000001
 20
0.3500078740157481
 30
0.0
 10
1.14201968503937
 20
0.313
 30
0.0
 10
1.14201968503937
 20
0.313
 30
0.0
 10
1.14201968503937
 20
0.313
 30
0.0
 10
1.14201968503937
 20
0.313
 30
0.0
 10
0.4947834645669292
 20
-0.0647795275590551
 30
0.0
 10
0.4947834645669292
 20
-0.0647795275590551
 30
0.0
 10
0.4947834645669292
 20
-0.0647795275590551
 30
0.0
 10
0.4947834645669292
 20
-0.0647795275590551
 30
0.0
 10
0.508763779527559
 20
-0.0277716535433071
 30
0.0
 10
0.508763779527559
 20
-0.0277716535433071
 30
0.0
  0
SPLINE
  5
BD
100
AcDbEntity
  8
Layer 1
 62
     9
100
AcDbSpline
210
0.0
220
0.0
230
1.0
 70
     1
 71
     3
 72
    20
 73
    16
 74
     0
 42
0.0000000001
 43
0.0000000001
 40
0.0
 40
0.0
 40
0.0
 40
0.0
 40
0.25
 40
0.25
 40
0.25
 40
0.25
 40
0.5
 40
0.5
 40
0.5
 40
0.5
 40
0.75
 40
0.75
 40
0.75
 40
0.75
 40
1.0
 40
1.0
 40
1.0
 40
1.0
 10
0.4947834645669292
 20
-0.0647795275590551
 30
0.0
 10
0.4947834645669292
 20
-0.0647795275590551
 30
0.0
 10
1.14201968503937
 20
0.313
 30
0.0
 10
1.14201968503937
 20
0.313
 30
0.0
 10
1.14201968503937
 20
0.313
 30
0.0
 10
1.14201968503937
 20
0.313
 30
0.0
 10
1.1248425196850393
 20
0.2767874015748031
 30
0.0
 10
1.1248425196850393
 20
0.2767874015748031
 30
0.0
 10
1.1248425196850393
 20
0.2767874015748031
 30
0.0
 10
1.1248425196850393
 20
0.2767874015748031
 30
0.0
 10
0.4776062992125985
 20
-0.100992125984252
 30
0.0
 10
0.4776062992125985
 20
-0.100992125984252
 30
0.0
 10
0.4776062992125985
 20
-0.100992125984252
 30
0.0
 10
0.4776062992125985
 20
-0.100992125984252
 30
0.0
 10
0.4947834645669292
 20
-0.0647795275590551
 30
0.0
 10
0.4947834645669292
 20
-0.0647795275590551
 30
0.0
  0
SPLINE
  5
BE
100
AcDbEntity
  8
Layer 1
 62
     9
100
AcDbSpline
210
0.0
220
0.0
230
1.0
 70
     1
 71
     3
 72
    20
 73
    16
 74
     0
 42
0.0000000001
 43
0.0000000001
 40
0.0
 40
0.0
 40
0.0
 40
0.0
 40
0.25
 40
0.25
 40
0.25
 40
0.25
 40
0.5
 40
0.5
 40
0.5
 40
0.5
 40
0.75
 40
0.75
 40
0.75
 40
0.75
 40
1.0
 40
1.0
 40
1.0
 40
1.0
 10
0.4776062992125985
 20
-0.100992125984252
 30
0.0
 10
0.4776062992125985
 20
-0.100992125984252
 30
0.0
 10
1.1248425196850393
 20
0.2767874015748031
 30
0.0
 10
1.1248425196850393
 20
0.2767874015748031
 30
0.0
 10
1.1248425196850393
 20
0.2767874015748031
 30
0.0
 10
1.1248425196850393
 20
0.2767874015748031
 30
0.0
 10
1.1043740157480315
 20
0.2415472440944882
 30
0.0
 10
1.1043740157480315
 20
0.2415472440944882
 30
0.0
 10
1.1043740157480315
 20
0.2415472440944882
 30
0.0
 10
1.1043740157480315
 20
0.2415472440944882
 30
0.0
 10
0.4571377952755906
 20
-0.1362322834645669
 30
0.0
 10
0.4571377952755906
 20
-0.1362322834645669
 30
0.0
 10
0.4571377952755906
 20
-0.1362322834645669
 30
0.0
 10
0.4571377952755906
 20
-0.1362322834645669
 30
0.0
 10
0.4776062992125985
 20
-0.100992125984252
 30
0.0
 10
0.4776062992125985
 20
-0.100992125984252
 30
0.0
  0
SPLINE
  5
BF
100
AcDbEntity
  8
Layer 1
 62
     9
100
AcDbSpline
210
0.0
220
0.0
230
1.0
 70
     1
 71
     3
 72
    20
 73
    16
 74
     0
 42
0.0000000001
 43
0.0000000001
 40
0.0
 40
0.0
 40
0.0
 40
0.0
 40
0.25
 40
0.25
 40
0.25
 40
0.25
 40
0.5
 40
0.5
 40
0.5
 40
0.5
 40
0.75
 40
0.75
 40
0.75
 40
0.75
 40
1.0
 40
1.0
 40
1.0
 40
1.0
 10
0.4571377952755906
 20
-0.1362322834645669
 30
0.0
 10
0.4571377952755906
 20
-0.1362322834645669
 30
0.0
 10
1.1043740157480315
 20
0.2415472440944882
 30
0.0
 10
1.1043740157480315
 20
0.2415472440944882
 30
0.0
 10
1.1043740157480315
 20
0.2415472440944882
 30
0.0
 10
1.1043740157480315
 20
0.2415472440944882
 30
0.0
 10
1.0805
 20
0.207484251968504
 30
0.0
 10
1.0805
 20
0.207484251968504
 30
0.0
 10
1.0805
 20
0.207484251968504
 30
0.0
 10
1.0805
 20
0.207484251968504
 30
0.0
 10
0.4332637795275591
 20
-0.1702952755905512
 30
0.0
 10
0.4332637795275591
 20
-0.1702952755905512
 30
0.0
 10
0.4332637795275591
 20
-0.1702952755905512
 30
0.0
 10
0.4332637795275591
 20
-0.1702952755905512
 30
0.0
 10
0.4571377952755906
 20
-0.1362322834645669
 30
0.0
 10
0.4571377952755906
 20
-0.1362322834645669
 30
0.0
  0
SPLINE
  5
C0
100
AcDbEntity
  8
Layer 1
 62
     9
100
AcDbSpline
210
0.0
220
0.0
230
1.0
 70
     1
 71
     3
 72
    20
 73
    16
 74
     0
 42
0.0000000001
 43
0.0000000001
 40
0.0
 40
0.0
 40
0.0
 40
0.0
 40
0.25
 40
0.25
 40
0.25
 40
0.25
 40
0.5
 40
0.5
 40
0.5
 40
0.5
 40
0.75
 40
0.75
 40
0.75
 40
0.75
 40
1.0
 40
1.0
 40
1.0
 40
1.0
 10
0.4332637795275591
 20
-0.1702952755905512
 30
0.0
 10
0.4332637795275591
 20
-0.1702952755905512
 30
0.0
 10
1.0805
 20
0.207484251968504
 30
0.0
 10
1.0805
 20
0.207484251968504
 30
0.0
 10
1.0805
 20
0.207484251968504
 30
0.0
 10
1.0805
 20
0.207484251968504
 30
0.0
 10
1.0531181102362206
 20
0.1747795275590551
 30
0.0
 10
1.0531181102362206
 20
0.1747795275590551
 30
0.0
 10
1.0531181102362206
 20
0.1747795275590551
 30
0.0
 10
1.0531181102362206
 20
0.1747795275590551
 30
0.0
 10
0.4058818897637795
 20
-0.203
 30
0.0
 10
0.4058818897637795
 20
-0.203
 30
0.0
 10
0.4058818897637795
 20
-0.203
 30
0.0
 10
0.4058818897637795
 20
-0.203
 30
0.0
 10
0.4332637795275591
 20
-0.1702952755905512
 30
0.0
 10
0.4332637795275591
 20
-0.1702952755905512
 30
0.0
  0
SPLINE
  5
C1
100
AcDbEntity
  8
Layer 1
 62
     9
100
AcDbSpline
210
0.0
220
0.0
230
1.0
 70
     1
 71
     3
 72
    20
 73
    16
 74
     0
 42
0.0000000001
 43
0.0000000001
 40
0.0
 40
0.0
 40
0.0
 40
0.0
 40
0.25
 40
0.25
 40
0.25
 40
0.25
 40
0.5
 40
0.5
 40
0.5
 40
0.5
 40
0.75
 40
0.75
 40
0.75
 40
0.75
 40
1.0
 40
1.0
 40
1.0
 40
1.0
 10
0.4058818897637795
 20
-0.203
 30
0.0
 10
0.4058818897637795
 20
-0.203
 30
0.0
 10
1.0531181102362206
 20
0.1747795275590551
 30
0.0
 10
1.0531181102362206
 20
0.1747795275590551
 30
0.0
 10
1.0531181102362206
 20
0.1747795275590551
 30
0.0
 10
1.0531181102362206
 20
0.1747795275590551
 30
0.0
 10
1.0221062992125984
 20
0.1436417322834646
 30
0.0
 10
1.0221062992125984
 20
0.1436417322834646
 30
0.0
 10
1.0221062992125984
 20
0.1436417322834646
 30
0.0
 10
1.0221062992125984
 20
0.1436417322834646
 30
0.0
 10
0.3748700787401575
 20
-0.2341377952755906
 30
0.0
 10
0.3748700787401575
 20
-0.2341377952755906
 30
0.0
 10
0.3748700787401575
 20
-0.2341377952755906
 30
0.0
 10
0.3748700787401575
 20
-0.2341377952755906
 30
0.0
 10
0.4058818897637795
 20
-0.203
 30
0.0
 10
0.4058818897637795
 20
-0.203
 30
0.0
  0
SPLINE
  5
C2
100
AcDbEntity
  8
Layer 1
 62
     9
100
AcDbSpline
210
0.0
220
0.0
230
1.0
 70
     1
 71
     3
 72
    20
 73
    16
 74
     0
 42
0.0000000001
 43
0.0000000001
 40
0.0
 40
0.0
 40
0.0
 40
0.0
 40
0.25
 40
0.25
 40
0.25
 40
0.25
 40
0.5
 40
0.5
 40
0.5
 40
0.5
 40
0.75
 40
0.75
 40
0.75
 40
0.75
 40
1.0
 40
1.0
 40
1.0
 40
1.0
 10
0.3748700787401575
 20
-0.2341377952755906
 30
0.0
 10
0.3748700787401575
 20
-0.2341377952755906
 30
0.0
 10
1.0221062992125984
 20
0.1436417322834646
 30
0.0
 10
1.0221062992125984
 20
0.1436417322834646
 30
0.0
 10
1.0221062992125984
 20
0.1436417322834646
 30
0.0
 10
1.0221062992125984
 20
0.1436417322834646
 30
0.0
 10
0.9873661417322835
 20
0.114251968503937
 30
0.0
 10
0.9873661417322835
 20
0.114251968503937
 30
0.0
 10
0.9873661417322835
 20
0.114251968503937
 30
0.0
 10
0.9873661417322835
 20
0.114251968503937
 30
0.0
 10
0.3401299212598425
 20
-0.2635275590551181
 30
0.0
 10
0.3401299212598425
 20
-0.2635275590551181
 30
0.0
 10
0.3401299212598425
 20
-0.2635275590551181
 30
0.0
 10
0.3401299212598425
 20
-0.2635275590551181
 30
0.0
 10
0.3748700787401575
 20
-0.2341377952755906
 30
0.0
 10
0.3748700787401575
 20
-0.2341377952755906
 30
0.0
  0
SPLINE
  5
C3
100
AcDbEntity
  8
Layer 1
 62
   253
100
AcDbSpline
210
0.0
220
0.0
230
1.0
 70
     1
 71
     3
 72
    20
 73
    16
 74
     0
 42
0.0000000001
 43
0.0000000001
 40
0.0
 40
0.0
 40
0.0
 40
0.0
 40
0.25
 40
0.25
 40
0.25
 40
0.25
 40
0.5
 40
0.5
 40
0.5
 40
0.5
 40
0.75
 40
0.75
 40
0.75
 40
0.75
 40
1.0
 40
1.0
 40
1.0
 40
1.0
 10
0.3401299212598425
 20
-0.2635275590551181
 30
0.0
 10
0.3401299212598425
 20
-0.2635275590551181
 30
0.0
 10
0.9873661417322835
 20
0.114251968503937
 30
0.0
 10
0.9873661417322835
 20
0.114251968503937
 30
0.0
 10
0.9873661417322835
 20
0.114251968503937
 30
0.0
 10
0.9873661417322835
 20
0.114251968503937
 30
0.0
 10
0.9487874015748032
 20
0.0868110236220472
 30
0.0
 10
0.9487874015748032
 20
0.0868110236220472
 30
0.0
 10
0.9487874015748032
 20
0.0868110236220472
 30
0.0
 10
0.9487874015748032
 20
0.0868110236220472
 30
0.0
 10
0.3015511811023622
 20
-0.2909685039370079
 30
0.0
 10
0.3015511811023622
 20
-0.2909685039370079
 30
0.0
 10
0.3015511811023622
 20
-0.2909685039370079
 30
0.0
 10
0.3015511811023622
 20
-0.2909685039370079
 30
0.0
 10
0.3401299212598425
 20
-0.2635275590551181
 30
0.0
 10
0.3401299212598425
 20
-0.2635275590551181
 30
0.0
  0
SPLINE
  5
C4
100
AcDbEntity
  8
Layer 1
370
     5
100
AcDbSpline
210
0.0
220
0.0
230
1.0
 70
     1
 71
     3
 72
   772
 73
   768
 74
     0
 42
0.0000000001
 43
0.0000000001
 40
0.0
 40
0.0
 40
0.0
 40
0.0
 40
0.0052083333333333
 40
0.0052083333333333
 40
0.0052083333333333
 40
0.0052083333333333
 40
0.0104166666666667
 40
0.0104166666666667
 40
0.0104166666666667
 40
0.0104166666666667
 40
0.015625
 40
0.015625
 40
0.015625
 40
0.015625
 40
0.0208333333333333
 40
0.0208333333333333
 40
0.0208333333333333
 40
0.0208333333333333
 40
0.0260416666666667
 40
0.0260416666666667
 40
0.0260416666666667
 40
0.0260416666666667
 40
0.03125
 40
0.03125
 40
0.03125
 40
0.03125
 40
0.0364583333333333
 40
0.0364583333333333
 40
0.0364583333333333
 40
0.0364583333333333
 40
0.0416666666666667
 40
0.0416666666666667
 40
0.0416666666666667
 40
0.0416666666666667
 40
0.046875
 40
0.046875
 40
0.046875
 40
0.046875
 40
0.0520833333333333
 40
0.0520833333333333
 40
0.0520833333333333
 40
0.0520833333333333
 40
0.0572916666666667
 40
0.0572916666666667
 40
0.0572916666666667
 40
0.0572916666666667
 40
0.0625
 40
0.0625
 40
0.0625
 40
0.0625
 40
0.0677083333333333
 40
0.0677083333333333
 40
0.0677083333333333
 40
0.0677083333333333
 40
0.0729166666666667
 40
0.0729166666666667
 40
0.0729166666666667
 40
0.0729166666666667
 40
0.078125
 40
0.078125
 40
0.078125
 40
0.078125
 40
0.0833333333333333
 40
0.0833333333333333
 40
0.0833333333333333
 40
0.0833333333333333
 40
0.0885416666666666
 40
0.0885416666666666
 40
0.0885416666666666
 40
0.0885416666666666
 40
0.09375
 40
0.09375
 40
0.09375
 40
0.09375
 40
0.0989583333333333
 40
0.0989583333333333
 40
0.0989583333333333
 40
0.0989583333333333
 40
0.1041666666666666
 40
0.1041666666666666
 40
0.1041666666666666
 40
0.1041666666666666
 40
0.109375
 40
0.109375
 40
0.109375
 40
0.109375
 40
0.1145833333333333
 40
0.1145833333333333
 40
0.1145833333333333
 40
0.1145833333333333
 40
0.1197916666666666
 40
0.1197916666666666
 40
0.1197916666666666
 40
0.1197916666666666
 40
0.1249999999999999
 40
0.1249999999999999
 40
0.1249999999999999
 40
0.1249999999999999
 40
0.1302083333333333
 40
0.1302083333333333
 40
0.1302083333333333
 40
0.1302083333333333
 40
0.1354166666666666
 40
0.1354166666666666
 40
0.1354166666666666
 40
0.1354166666666666
 40
0.140625
 40
0.140625
 40
0.140625
 40
0.140625
 40
0.1458333333333333
 40
0.1458333333333333
 40
0.1458333333333333
 40
0.1458333333333333
 40
0.1510416666666667
 40
0.1510416666666667
 40
0.1510416666666667
 40
0.1510416666666667
 40
0.15625
 40
0.15625
 40
0.15625
 40
0.15625
 40
0.1614583333333333
 40
0.1614583333333333
 40
0.1614583333333333
 40
0.1614583333333333
 40
0.1666666666666667
 40
0.1666666666666667
 40
0.1666666666666667
 40
0.1666666666666667
 40
0.171875
 40
0.171875
 40
0.171875
 40
0.171875
 40
0.1770833333333334
 40
0.1770833333333334
 40
0.1770833333333334
 40
0.1770833333333334
 40
0.1822916666666667
 40
0.1822916666666667
 40
0.1822916666666667
 40
0.1822916666666667
 40
0.1875000000000001
 40
0.1875000000000001
 40
0.1875000000000001
 40
0.1875000000000001
 40
0.1927083333333334
 40
0.1927083333333334
 40
0.1927083333333334
 40
0.1927083333333334
 40
0.1979166666666667
 40
0.1979166666666667
 40
0.1979166666666667
 40
0.1979166666666667
 40
0.2031250000000001
 40
0.2031250000000001
 40
0.2031250000000001
 40
0.2031250000000001
 40
0.2083333333333334
 40
0.2083333333333334
 40
0.2083333333333334
 40
0.2083333333333334
 40
0.2135416666666668
 40
0.2135416666666668
 40
0.2135416666666668
 40
0.2135416666666668
 40
0.2187500000000001
 40
0.2187500000000001
 40
0.2187500000000001
 40
0.2187500000000001
 40
0.2239583333333335
 40
0.2239583333333335
 40
0.2239583333333335
 40
0.2239583333333335
 40
0.2291666666666668
 40
0.2291666666666668
 40
0.2291666666666668
 40
0.2291666666666668
 40
0.2343750000000001
 40
0.2343750000000001
 40
0.2343750000000001
 40
0.2343750000000001
 40
0.2395833333333335
 40
0.2395833333333335
 40
0.2395833333333335
 40
0.2395833333333335
 40
0.2447916666666668
 40
0.2447916666666668
 40
0.2447916666666668
 40
0.2447916666666668
 40
0.2500000000000002
 40
0.2500000000000002
 40
0.2500000000000002
 40
0.2500000000000002
 40
0.2552083333333335
 40
0.2552083333333335
 40
0.2552083333333335
 40
0.2552083333333335
 40
0.2604166666666668
 40
0.2604166666666668
 40
0.2604166666666668
 40
0.2604166666666668
 40
0.2656250000000001
 40
0.2656250000000001
 40
0.2656250000000001
 40
0.2656250000000001
 40
0.2708333333333334
 40
0.2708333333333334
 40
0.2708333333333334
 40
0.2708333333333334
 40
0.2760416666666667
 40
0.2760416666666667
 40
0.2760416666666667
 40
0.2760416666666667
 40
0.2812500000000001
 40
0.2812500000000001
 40
0.2812500000000001
 40
0.2812500000000001
 40
0.2864583333333334
 40
0.2864583333333334
 40
0.2864583333333334
 40
0.2864583333333334
 40
0.2916666666666667
 40
0.2916666666666667
 40
0.2916666666666667
 40
0.2916666666666667
 40
0.296875
 40
0.296875
 40
0.296875
 40
0.296875
 40
0.3020833333333333
 40
0.3020833333333333
 40
0.3020833333333333
 40
0.3020833333333333
 40
0.3072916666666666
 40
0.3072916666666666
 40
0.3072916666666666
 40
0.3072916666666666
 40
0.3124999999999999
 40
0.3124999999999999
 40
0.3124999999999999
 40
0.3124999999999999
 40
0.3177083333333333
 40
0.3177083333333333
 40
0.3177083333333333
 40
0.3177083333333333
 40
0.3229166666666666
 40
0.3229166666666666
 40
0.3229166666666666
 40
0.3229166666666666
 40
0.3281249999999999
 40
0.3281249999999999
 40
0.3281249999999999
 40
0.3281249999999999
 40
0.3333333333333332
 40
0.3333333333333332
 40
0.3333333333333332
 40
0.3333333333333332
 40
0.3385416666666665
 40
0.3385416666666665
 40
0.3385416666666665
 40
0.3385416666666665
 40
0.3437499999999998
 40
0.3437499999999998
 40
0.3437499999999998
 40
0.3437499999999998
 40
0.3489583333333332
 40
0.3489583333333332
 40
0.3489583333333332
 40
0.3489583333333332
 40
0.3541666666666665
 40
0.3541666666666665
 40
0.3541666666666665
 40
0.3541666666666665
 40
0.3593749999999998
 40
0.3593749999999998
 40
0.3593749999999998
 40
0.3593749999999998
 40
0.3645833333333331
 40
0.3645833333333331
 40
0.3645833333333331
 40
0.3645833333333331
 40
0.3697916666666664
 40
0.3697916666666664
 40
0.3697916666666664
 40
0.3697916666666664
 40
0.3749999999999997
 40
0.3749999999999997
 40
0.3749999999999997
 40
0.3749999999999997
 40
0.380208333333333
 40
0.380208333333333
 40
0.380208333333333
 40
0.380208333333333
 40
0.3854166666666664
 40
0.3854166666666664
 40
0.3854166666666664
 40
0.3854166666666664
 40
0.3906249999999997
 40
0.3906249999999997
 40
0.3906249999999997
 40
0.3906249999999997
 40
0.395833333333333
 40
0.395833333333333
 40
0.395833333333333
 40
0.395833333333333
 40
0.4010416666666663
 40
0.4010416666666663
 40
0.4010416666666663
 40
0.4010416666666663
 40
0.4062499999999996
 40
0.4062499999999996
 40
0.4062499999999996
 40
0.4062499999999996
 40
0.4114583333333329
 40
0.4114583333333329
 40
0.4114583333333329
 40
0.4114583333333329
 40
0.4166666666666662
 40
0.4166666666666662
 40
0.4166666666666662
 40
0.4166666666666662
 40
0.4218749999999996
 40
0.4218749999999996
 40
0.4218749999999996
 40
0.4218749999999996
 40
0.4270833333333329
 40
0.4270833333333329
 40
0.4270833333333329
 40
0.4270833333333329
 40
0.4322916666666662
 40
0.4322916666666662
 40
0.4322916666666662
 40
0.4322916666666662
 40
0.4374999999999995
 40
0.4374999999999995
 40
0.4374999999999995
 40
0.4374999999999995
 40
0.4427083333333328
 40
0.4427083333333328
 40
0.4427083333333328
 40
0.4427083333333328
 40
0.4479166666666661
 40
0.4479166666666661
 40
0.4479166666666661
 40
0.4479166666666661
 40
0.4531249999999994
 40
0.4531249999999994
 40
0.4531249999999994
 40
0.4531249999999994
 40
0.4583333333333328
 40
0.4583333333333328
 40
0.4583333333333328
 40
0.4583333333333328
 40
0.4635416666666661
 40
0.4635416666666661
 40
0.4635416666666661
 40
0.4635416666666661
 40
0.4687499999999994
 40
0.4687499999999994
 40
0.4687499999999994
 40
0.4687499999999994
 40
0.4739583333333327
 40
0.4739583333333327
 40
0.4739583333333327
 40
0.4739583333333327
 40
0.479166666666666
 40
0.479166666666666
 40
0.479166666666666
 40
0.479166666666666
 40
0.4843749999999993
 40
0.4843749999999993
 40
0.4843749999999993
 40
0.4843749999999993
 40
0.4895833333333327
 40
0.4895833333333327
 40
0.4895833333333327
 40
0.4895833333333327
 40
0.494791666666666
 40
0.494791666666666
 40
0.494791666666666
 40
0.494791666666666
 40
0.4999999999999993
 40
0.4999999999999993
 40
0.4999999999999993
 40
0.4999999999999993
 40
0.5052083333333326
 40
0.5052083333333326
 40
0.5052083333333326
 40
0.5052083333333326
 40
0.510416666666666
 40
0.510416666666666
 40
0.510416666666666
 40
0.510416666666666
 40
0.5156249999999993
 40
0.5156249999999993
 40
0.5156249999999993
 40
0.5156249999999993
 40
0.5208333333333327
 40
0.5208333333333327
 40
0.5208333333333327
 40
0.5208333333333327
 40
0.5260416666666661
 40
0.5260416666666661
 40
0.5260416666666661
 40
0.5260416666666661
 40
0.5312499999999994
 40
0.5312499999999994
 40
0.5312499999999994
 40
0.5312499999999994
 40
0.5364583333333328
 40
0.5364583333333328
 40
0.5364583333333328
 40
0.5364583333333328
 40
0.5416666666666662
 40
0.5416666666666662
 40
0.5416666666666662
 40
0.5416666666666662
 40
0.5468749999999996
 40
0.5468749999999996
 40
0.5468749999999996
 40
0.5468749999999996
 40
0.5520833333333329
 40
0.5520833333333329
 40
0.5520833333333329
 40
0.5520833333333329
 40
0.5572916666666663
 40
0.5572916666666663
 40
0.5572916666666663
 40
0.5572916666666663
 40
0.5624999999999997
 40
0.5624999999999997
 40
0.5624999999999997
 40
0.5624999999999997
 40
0.567708333333333
 40
0.567708333333333
 40
0.567708333333333
 40
0.567708333333333
 40
0.5729166666666664
 40
0.5729166666666664
 40
0.5729166666666664
 40
0.5729166666666664
 40
0.5781249999999998
 40
0.5781249999999998
 40
0.5781249999999998
 40
0.5781249999999998
 40
0.5833333333333332
 40
0.5833333333333332
 40
0.5833333333333332
 40
0.5833333333333332
 40
0.5885416666666665
 40
0.5885416666666665
 40
0.5885416666666665
 40
0.5885416666666665
 40
0.5937499999999999
 40
0.5937499999999999
 40
0.5937499999999999
 40
0.5937499999999999
 40
0.5989583333333333
 40
0.5989583333333333
 40
0.5989583333333333
 40
0.5989583333333333
 40
0.6041666666666666
 40
0.6041666666666666
 40
0.6041666666666666
 40
0.6041666666666666
 40
0.609375
 40
0.609375
 40
0.609375
 40
0.609375
 40
0.6145833333333334
 40
0.6145833333333334
 40
0.6145833333333334
 40
0.6145833333333334
 40
0.6197916666666667
 40
0.6197916666666667
 40
0.6197916666666667
 40
0.6197916666666667
 40
0.6250000000000001
 40
0.6250000000000001
 40
0.6250000000000001
 40
0.6250000000000001
 40
0.6302083333333335
 40
0.6302083333333335
 40
0.6302083333333335
 40
0.6302083333333335
 40
0.6354166666666669
 40
0.6354166666666669
 40
0.6354166666666669
 40
0.6354166666666669
 40
0.6406250000000002
 40
0.6406250000000002
 40
0.6406250000000002
 40
0.6406250000000002
 40
0.6458333333333336
 40
0.6458333333333336
 40
0.6458333333333336
 40
0.6458333333333336
 40
0.651041666666667
 40
0.651041666666667
 40
0.651041666666667
 40
0.651041666666667
 40
0.6562500000000003
 40
0.6562500000000003
 40
0.6562500000000003
 40
0.6562500000000003
 40
0.6614583333333337
 40
0.6614583333333337
 40
0.6614583333333337
 40
0.6614583333333337
 40
0.6666666666666671
 40
0.6666666666666671
 40
0.6666666666666671
 40
0.6666666666666671
 40
0.6718750000000004
 40
0.6718750000000004
 40
0.6718750000000004
 40
0.6718750000000004
 40
0.6770833333333338
 40
0.6770833333333338
 40
0.6770833333333338
 40
0.6770833333333338
 40
0.6822916666666672
 40
0.6822916666666672
 40
0.6822916666666672
 40
0.6822916666666672
 40
0.6875000000000006
 40
0.6875000000000006
 40
0.6875000000000006
 40
0.6875000000000006
 40
0.6927083333333339
 40
0.6927083333333339
 40
0.6927083333333339
 40
0.6927083333333339
 40
0.6979166666666673
 40
0.6979166666666673
 40
0.6979166666666673
 40
0.6979166666666673
 40
0.7031250000000007
 40
0.7031250000000007
 40
0.7031250000000007
 40
0.7031250000000007
 40
0.708333333333334
 40
0.708333333333334
 40
0.708333333333334
 40
0.708333333333334
 40
0.7135416666666674
 40
0.7135416666666674
 40
0.7135416666666674
 40
0.7135416666666674
 40
0.7187500000000008
 40
0.7187500000000008
 40
0.7187500000000008
 40
0.7187500000000008
 40
0.7239583333333342
 40
0.7239583333333342
 40
0.7239583333333342
 40
0.7239583333333342
 40
0.7291666666666675
 40
0.7291666666666675
 40
0.7291666666666675
 40
0.7291666666666675
 40
0.7343750000000009
 40
0.7343750000000009
 40
0.7343750000000009
 40
0.7343750000000009
 40
0.7395833333333343
 40
0.7395833333333343
 40
0.7395833333333343
 40
0.7395833333333343
 40
0.7447916666666676
 40
0.7447916666666676
 40
0.7447916666666676
 40
0.7447916666666676
 40
0.750000000000001
 40
0.750000000000001
 40
0.750000000000001
 40
0.750000000000001
 40
0.7552083333333344
 40
0.7552083333333344
 40
0.7552083333333344
 40
0.7552083333333344
 40
0.7604166666666677
 40
0.7604166666666677
 40
0.7604166666666677
 40
0.7604166666666677
 40
0.7656250000000011
 40
0.7656250000000011
 40
0.7656250000000011
 40
0.7656250000000011
 40
0.7708333333333345
 40
0.7708333333333345
 40
0.7708333333333345
 40
0.7708333333333345
 40
0.7760416666666679
 40
0.7760416666666679
 40
0.7760416666666679
 40
0.7760416666666679
 40
0.7812500000000012
 40
0.7812500000000012
 40
0.7812500000000012
 40
0.7812500000000012
 40
0.7864583333333346
 40
0.7864583333333346
 40
0.7864583333333346
 40
0.7864583333333346
 40
0.791666666666668
 40
0.791666666666668
 40
0.791666666666668
 40
0.791666666666668
 40
0.7968750000000013
 40
0.7968750000000013
 40
0.7968750000000013
 40
0.7968750000000013
 40
0.8020833333333347
 40
0.8020833333333347
 40
0.8020833333333347
 40
0.8020833333333347
 40
0.8072916666666681
 40
0.8072916666666681
 40
0.8072916666666681
 40
0.8072916666666681
 40
0.8125000000000014
 40
0.8125000000000014
 40
0.8125000000000014
 40
0.8125000000000014
 40
0.8177083333333348
 40
0.8177083333333348
 40
0.8177083333333348
 40
0.8177083333333348
 40
0.8229166666666682
 40
0.8229166666666682
 40
0.8229166666666682
 40
0.8229166666666682
 40
0.8281250000000016
 40
0.8281250000000016
 40
0.8281250000000016
 40
0.8281250000000016
 40
0.8333333333333349
 40
0.8333333333333349
 40
0.8333333333333349
 40
0.8333333333333349
 40
0.8385416666666683
 40
0.8385416666666683
 40
0.8385416666666683
 40
0.8385416666666683
 40
0.8437500000000017
 40
0.8437500000000017
 40
0.8437500000000017
 40
0.8437500000000017
 40
0.848958333333335
 40
0.848958333333335
 40
0.848958333333335
 40
0.848958333333335
 40
0.8541666666666684
 40
0.8541666666666684
 40
0.8541666666666684
 40
0.8541666666666684
 40
0.8593750000000018
 40
0.8593750000000018
 40
0.8593750000000018
 40
0.8593750000000018
 40
0.8645833333333352
 40
0.8645833333333352
 40
0.8645833333333352
 40
0.8645833333333352
 40
0.8697916666666685
 40
0.8697916666666685
 40
0.8697916666666685
 40
0.8697916666666685
 40
0.8750000000000019
 40
0.8750000000000019
 40
0.8750000000000019
 40
0.8750000000000019
 40
0.8802083333333353
 40
0.8802083333333353
 40
0.8802083333333353
 40
0.8802083333333353
 40
0.8854166666666686
 40
0.8854166666666686
 40
0.8854166666666686
 40
0.8854166666666686
 40
0.890625000000002
 40
0.890625000000002
 40
0.890625000000002
 40
0.890625000000002
 40
0.8958333333333354
 40
0.8958333333333354
 40
0.8958333333333354
 40
0.8958333333333354
 40
0.9010416666666687
 40
0.9010416666666687
 40
0.9010416666666687
 40
0.9010416666666687
 40
0.9062500000000021
 40
0.9062500000000021
 40
0.9062500000000021
 40
0.9062500000000021
 40
0.9114583333333355
 40
0.9114583333333355
 40
0.9114583333333355
 40
0.9114583333333355
 40
0.9166666666666689
 40
0.9166666666666689
 40
0.9166666666666689
 40
0.9166666666666689
 40
0.9218750000000022
 40
0.9218750000000022
 40
0.9218750000000022
 40
0.9218750000000022
 40
0.9270833333333356
 40
0.9270833333333356
 40
0.9270833333333356
 40
0.9270833333333356
 40
0.932291666666669
 40
0.932291666666669
 40
0.932291666666669
 40
0.932291666666669
 40
0.9375000000000023
 40
0.9375000000000023
 40
0.9375000000000023
 40
0.9375000000000023
 40
0.9427083333333357
 40
0.9427083333333357
 40
0.9427083333333357
 40
0.9427083333333357
 40
0.9479166666666691
 40
0.9479166666666691
 40
0.9479166666666691
 40
0.9479166666666691
 40
0.9531250000000024
 40
0.9531250000000024
 40
0.9531250000000024
 40
0.9531250000000024
 40
0.9583333333333358
 40
0.9583333333333358
 40
0.9583333333333358
 40
0.9583333333333358
 40
0.9635416666666692
 40
0.9635416666666692
 40
0.9635416666666692
 40
0.9635416666666692
 40
0.9687500000000026
 40
0.9687500000000026
 40
0.9687500000000026
 40
0.9687500000000026
 40
0.9739583333333359
 40
0.9739583333333359
 40
0.9739583333333359
 40
0.9739583333333359
 40
0.9791666666666693
 40
0.9791666666666693
 40
0.9791666666666693
 40
0.9791666666666693
 40
0.9843750000000027
 40
0.9843750000000027
 40
0.9843750000000027
 40
0.9843750000000027
 40
0.989583333333336
 40
0.989583333333336
 40
0.989583333333336
 40
0.989583333333336
 40
0.9947916666666694
 40
0.9947916666666694
 40
0.9947916666666694
 40
0.9947916666666694
 40
1.0
 40
1.0
 40
1.0
 40
1.0
 10
-0.7011929133858268
 20
1.2893582677165354
 30
0.0
 10
-0.7011929133858268
 20
1.2893582677165354
 30
0.0
 10
-0.0539566929133858
 20
1.6671377952755906
 30
0.0
 10
-0.0539566929133858
 20
1.6671377952755906
 30
0.0
 10
-0.0539566929133858
 20
1.6671377952755906
 30
0.0
 10
-0.0539566929133858
 20
1.6671377952755906
 30
0.0
 10
-0.0281692913385827
 20
1.6649055118110236
 30
0.0
 10
-0.0281692913385827
 20
1.6649055118110236
 30
0.0
 10
-0.0281692913385827
 20
1.6649055118110236
 30
0.0
 10
-0.0281692913385827
 20
1.6649055118110236
 30
0.0
 10
-0.0035551181102362
 20
1.6621456692913386
 30
0.0
 10
-0.0035551181102362
 20
1.6621456692913386
 30
0.0
 10
-0.0035551181102362
 20
1.6621456692913386
 30
0.0
 10
-0.0035551181102362
 20
1.6621456692913386
 30
0.0
 10
0.0198937007874016
 20
1.6588307086614174
 30
0.0
 10
0.0198937007874016
 20
1.6588307086614174
 30
0.0
 10
0.0198937007874016
 20
1.6588307086614174
 30
0.0
 10
0.0198937007874016
 20
1.6588307086614174
 30
0.0
 10
0.0421692913385827
 20
1.6549527559055119
 30
0.0
 10
0.0421692913385827
 20
1.6549527559055119
 30
0.0
 10
0.0421692913385827
 20
1.6549527559055119
 30
0.0
 10
0.0421692913385827
 20
1.6549527559055119
 30
0.0
 10
0.0632834645669291
 20
1.650476377952756
 30
0.0
 10
0.0632834645669291
 20
1.650476377952756
 30
0.0
 10
0.0632834645669291
 20
1.650476377952756
 30
0.0
 10
0.0632834645669291
 20
1.650476377952756
 30
0.0
 10
0.0832165354330709
 20
1.6454015748031496
 30
0.0
 10
0.0832165354330709
 20
1.6454015748031496
 30
0.0
 10
0.0832165354330709
 20
1.6454015748031496
 30
0.0
 10
0.0832165354330709
 20
1.6454015748031496
 30
0.0
 10
0.1019803149606299
 20
1.6396968503937008
 30
0.0
 10
0.1019803149606299
 20
1.6396968503937008
 30
0.0
 10
0.1019803149606299
 20
1.6396968503937008
 30
0.0
 10
0.1019803149606299
 20
1.6396968503937008
 30
0.0
 10
0.1195669291338583
 20
1.6333543307086615
 30
0.0
 10
0.1195669291338583
 20
1.6333543307086615
 30
0.0
 10
0.1195669291338583
 20
1.6333543307086615
 30
0.0
 10
0.1195669291338583
 20
1.6333543307086615
 30
0.0
 10
0.1359842519685039
 20
1.6263464566929136
 30
0.0
 10
0.1359842519685039
 20
1.6263464566929136
 30
0.0
 10
0.1359842519685039
 20
1.6263464566929136
 30
0.0
 10
0.1359842519685039
 20
1.6263464566929136
 30
0.0
 10
0.1512204724409449
 20
1.6186614173228346
 30
0.0
 10
0.1512204724409449
 20
1.6186614173228346
 30
0.0
 10
0.1512204724409449
 20
1.6186614173228346
 30
0.0
 10
0.1512204724409449
 20
1.6186614173228346
 30
0.0
 10
0.1652795275590551
 20
1.6102755905511812
 30
0.0
 10
0.1652795275590551
 20
1.6102755905511812
 30
0.0
 10
0.1652795275590551
 20
1.6102755905511812
 30
0.0
 10
0.1652795275590551
 20
1.6102755905511812
 30
0.0
 10
0.1781535433070866
 20
1.6011889763779528
 30
0.0
 10
0.1781535433070866
 20
1.6011889763779528
 30
0.0
 10
0.1781535433070866
 20
1.6011889763779528
 30
0.0
 10
0.1781535433070866
 20
1.6011889763779528
 30
0.0
 10
0.1898543307086614
 20
1.5913582677165354
 30
0.0
 10
0.1898543307086614
 20
1.5913582677165354
 30
0.0
 10
0.1898543307086614
 20
1.5913582677165354
 30
0.0
 10
0.1898543307086614
 20
1.5913582677165354
 30
0.0
 10
0.2003661417322835
 20
1.5807795275590553
 30
0.0
 10
0.2003661417322835
 20
1.5807795275590553
 30
0.0
 10
0.2003661417322835
 20
1.5807795275590553
 30
0.0
 10
0.2003661417322835
 20
1.5807795275590553
 30
0.0
 10
0.2096968503937008
 20
1.5694330708661417
 30
0.0
 10
0.2096968503937008
 20
1.5694330708661417
 30
0.0
 10
0.2096968503937008
 20
1.5694330708661417
 30
0.0
 10
0.2096968503937008
 20
1.5694330708661417
 30
0.0
 10
0.2178385826771654
 20
1.5573070866141734
 30
0.0
 10
0.2178385826771654
 20
1.5573070866141734
 30
0.0
 10
0.2178385826771654
 20
1.5573070866141734
 30
0.0
 10
0.2178385826771654
 20
1.5573070866141734
 30
0.0
 10
0.2248070866141732
 20
1.5443622047244094
 30
0.0
 10
0.2248070866141732
 20
1.5443622047244094
 30
0.0
 10
0.2248070866141732
 20
1.5443622047244094
 30
0.0
 10
0.2248070866141732
 20
1.5443622047244094
 30
0.0
 10
0.2305787401574803
 20
1.5306023622047245
 30
0.0
 10
0.2305787401574803
 20
1.5306023622047245
 30
0.0
 10
0.2305787401574803
 20
1.5306023622047245
 30
0.0
 10
0.2305787401574803
 20
1.5306023622047245
 30
0.0
 10
0.2351653543307087
 20
1.516
 30
0.0
 10
0.2351653543307087
 20
1.516
 30
0.0
 10
0.2351653543307087
 20
1.516
 30
0.0
 10
0.2351653543307087
 20
1.516
 30
0.0
 10
0.2385551181102362
 20
1.5005472440944883
 30
0.0
 10
0.2385551181102362
 20
1.5005472440944883
 30
0.0
 10
0.2385551181102362
 20
1.5005472440944883
 30
0.0
 10
0.2385551181102362
 20
1.5005472440944883
 30
0.0
 10
0.2407637795275591
 20
1.4842086614173229
 30
0.0
 10
0.2407637795275591
 20
1.4842086614173229
 30
0.0
 10
0.2407637795275591
 20
1.4842086614173229
 30
0.0
 10
0.2407637795275591
 20
1.4842086614173229
 30
0.0
 10
0.2417716535433071
 20
1.46698031496063
 30
0.0
 10
0.2417716535433071
 20
1.46698031496063
 30
0.0
 10
0.2417716535433071
 20
1.46698031496063
 30
0.0
 10
0.2417716535433071
 20
1.46698031496063
 30
0.0
 10
0.2415905511811024
 20
1.4488346456692913
 30
0.0
 10
0.2415905511811024
 20
1.4488346456692913
 30
0.0
 10
0.2415905511811024
 20
1.4488346456692913
 30
0.0
 10
0.2415905511811024
 20
1.4488346456692913
 30
0.0
 10
0.2402047244094488
 20
1.4297677165354332
 30
0.0
 10
0.2402047244094488
 20
1.4297677165354332
 30
0.0
 10
0.2402047244094488
 20
1.4297677165354332
 30
0.0
 10
0.2402047244094488
 20
1.4297677165354332
 30
0.0
 10
0.2376377952755906
 20
1.4097440944881889
 30
0.0
 10
0.2376377952755906
 20
1.4097440944881889
 30
0.0
 10
0.2376377952755906
 20
1.4097440944881889
 30
0.0
 10
0.2376377952755906
 20
1.4097440944881889
 30
0.0
 10
0.2338622047244095
 20
1.3887559055118111
 30
0.0
 10
0.2338622047244095
 20
1.3887559055118111
 30
0.0
 10
0.2338622047244095
 20
1.3887559055118111
 30
0.0
 10
0.2338622047244095
 20
1.3887559055118111
 30
0.0
 10
0.2288897637795276
 20
1.3667834645669292
 30
0.0
 10
0.2288897637795276
 20
1.3667834645669292
 30
0.0
 10
0.2288897637795276
 20
1.3667834645669292
 30
0.0
 10
0.2288897637795276
 20
1.3667834645669292
 30
0.0
 10
0.2227125984251969
 20
1.3438149606299212
 30
0.0
 10
0.2227125984251969
 20
1.3438149606299212
 30
0.0
 10
0.2227125984251969
 20
1.3438149606299212
 30
0.0
 10
0.2227125984251969
 20
1.3438149606299212
 30
0.0
 10
0.2153425196850394
 20
1.3198188976377954
 30
0.0
 10
0.2153425196850394
 20
1.3198188976377954
 30
0.0
 10
0.2153425196850394
 20
1.3198188976377954
 30
0.0
 10
0.2153425196850394
 20
1.3198188976377954
 30
0.0
 10
0.2067637795275591
 20
1.2947874015748031
 30
0.0
 10
0.2067637795275591
 20
1.2947874015748031
 30
0.0
 10
0.2067637795275591
 20
1.2947874015748031
 30
0.0
 10
0.2067637795275591
 20
1.2947874015748031
 30
0.0
 10
0.1969842519685039
 20
1.2687007874015748
 30
0.0
 10
0.1969842519685039
 20
1.2687007874015748
 30
0.0
 10
0.1969842519685039
 20
1.2687007874015748
 30
0.0
 10
0.1969842519685039
 20
1.2687007874015748
 30
0.0
 10
0.185988188976378
 20
1.2415433070866142
 30
0.0
 10
0.185988188976378
 20
1.2415433070866142
 30
0.0
 10
0.185988188976378
 20
1.2415433070866142
 30
0.0
 10
0.185988188976378
 20
1.2415433070866142
 30
0.0
 10
0.175259842519685
 20
1.2123228346456694
 30
0.0
 10
0.175259842519685
 20
1.2123228346456694
 30
0.0
 10
0.175259842519685
 20
1.2123228346456694
 30
0.0
 10
0.175259842519685
 20
1.2123228346456694
 30
0.0
 10
0.1682952755905512
 20
1.185244094488189
 30
0.0
 10
0.1682952755905512
 20
1.185244094488189
 30
0.0
 10
0.1682952755905512
 20
1.185244094488189
 30
0.0
 10
0.1682952755905512
 20
1.185244094488189
 30
0.0
 10
0.1649370078740158
 20
1.1602283464566929
 30
0.0
 10
0.1649370078740158
 20
1.1602283464566929
 30
0.0
 10
0.1649370078740158
 20
1.1602283464566929
 30
0.0
 10
0.1649370078740158
 20
1.1602283464566929
 30
0.0
 10
0.164992125984252
 20
1.1371968503937009
 30
0.0
 10
0.164992125984252
 20
1.1371968503937009
 30
0.0
 10
0.164992125984252
 20
1.1371968503937009
 30
0.0
 10
0.164992125984252
 20
1.1371968503937009
 30
0.0
 10
0.1683031496062992
 20
1.1160590551181102
 30
0.0
 10
0.1683031496062992
 20
1.1160590551181102
 30
0.0
 10
0.1683031496062992
 20
1.1160590551181102
 30
0.0
 10
0.1683031496062992
 20
1.1160590551181102
 30
0.0
 10
0.1746889763779528
 20
1.0967480314960629
 30
0.0
 10
0.1746889763779528
 20
1.0967480314960629
 30
0.0
 10
0.1746889763779528
 20
1.0967480314960629
 30
0.0
 10
0.1746889763779528
 20
1.0967480314960629
 30
0.0
 10
0.1839763779527559
 20
1.0791771653543307
 30
0.0
 10
0.1839763779527559
 20
1.0791771653543307
 30
0.0
 10
0.1839763779527559
 20
1.0791771653543307
 30
0.0
 10
0.1839763779527559
 20
1.0791771653543307
 30
0.0
 10
0.1959842519685039
 20
1.063275590551181
 30
0.0
 10
0.1959842519685039
 20
1.063275590551181
 30
0.0
 10
0.1959842519685039
 20
1.063275590551181
 30
0.0
 10
0.1959842519685039
 20
1.063275590551181
 30
0.0
 10
0.2105511811023622
 20
1.0489488188976379
 30
0.0
 10
0.2105511811023622
 20
1.0489488188976379
 30
0.0
 10
0.2105511811023622
 20
1.0489488188976379
 30
0.0
 10
0.2105511811023622
 20
1.0489488188976379
 30
0.0
 10
0.227492125984252
 20
1.0361338582677166
 30
0.0
 10
0.227492125984252
 20
1.0361338582677166
 30
0.0
 10
0.227492125984252
 20
1.0361338582677166
 30
0.0
 10
0.227492125984252
 20
1.0361338582677166
 30
0.0
 10
0.2466377952755906
 20
1.024740157480315
 30
0.0
 10
0.2466377952755906
 20
1.024740157480315
 30
0.0
 10
0.2466377952755906
 20
1.024740157480315
 30
0.0
 10
0.2466377952755906
 20
1.024740157480315
 30
0.0
 10
0.2678070866141732
 20
1.0147007874015748
 30
0.0
 10
0.2678070866141732
 20
1.0147007874015748
 30
0.0
 10
0.2678070866141732
 20
1.0147007874015748
 30
0.0
 10
0.2678070866141732
 20
1.0147007874015748
 30
0.0
 10
0.2908346456692914
 20
1.0059173228346456
 30
0.0
 10
0.2908346456692914
 20
1.0059173228346456
 30
0.0
 10
0.2908346456692914
 20
1.0059173228346456
 30
0.0
 10
0.2908346456692914
 20
1.0059173228346456
 30
0.0
 10
0.3155393700787402
 20
0.9983267716535433
 30
0.0
 10
0.3155393700787402
 20
0.9983267716535433
 30
0.0
 10
0.3155393700787402
 20
0.9983267716535433
 30
0.0
 10
0.3155393700787402
 20
0.9983267716535433
 30
0.0
 10
0.341751968503937
 20
0.9918425196850395
 30
0.0
 10
0.341751968503937
 20
0.9918425196850395
 30
0.0
 10
0.341751968503937
 20
0.9918425196850395
 30
0.0
 10
0.341751968503937
 20
0.9918425196850395
 30
0.0
 10
0.3692913385826772
 20
0.9863937007874016
 30
0.0
 10
0.3692913385826772
 20
0.9863937007874016
 30
0.0
 10
0.3692913385826772
 20
0.9863937007874016
 30
0.0
 10
0.3692913385826772
 20
0.9863937007874016
 30
0.0
 10
0.397992125984252
 20
0.9818818897637796
 30
0.0
 10
0.397992125984252
 20
0.9818818897637796
 30
0.0
 10
0.397992125984252
 20
0.9818818897637796
 30
0.0
 10
0.397992125984252
 20
0.9818818897637796
 30
0.0
 10
0.4276692913385827
 20
0.9782440944881891
 30
0.0
 10
0.4276692913385827
 20
0.9782440944881891
 30
0.0
 10
0.4276692913385827
 20
0.9782440944881891
 30
0.0
 10
0.4276692913385827
 20
0.9782440944881891
 30
0.0
 10
0.4581614173228347
 20
0.9753976377952757
 30
0.0
 10
0.4581614173228347
 20
0.9753976377952757
 30
0.0
 10
0.4581614173228347
 20
0.9753976377952757
 30
0.0
 10
0.4581614173228347
 20
0.9753976377952757
 30
0.0
 10
0.4892755905511811
 20
0.9732637795275591
 30
0.0
 10
0.4892755905511811
 20
0.9732637795275591
 30
0.0
 10
0.4892755905511811
 20
0.9732637795275591
 30
0.0
 10
0.4892755905511811
 20
0.9732637795275591
 30
0.0
 10
0.5208543307086614
 20
0.971755905511811
 30
0.0
 10
0.5208543307086614
 20
0.971755905511811
 30
0.0
 10
0.5208543307086614
 20
0.971755905511811
 30
0.0
 10
0.5208543307086614
 20
0.971755905511811
 30
0.0
 10
0.5527125984251968
 20
0.9708110236220473
 30
0.0
 10
0.5527125984251968
 20
0.9708110236220473
 30
0.0
 10
0.5527125984251968
 20
0.9708110236220473
 30
0.0
 10
0.5527125984251968
 20
0.9708110236220473
 30
0.0
 10
0.5846850393700788
 20
0.9703346456692914
 30
0.0
 10
0.5846850393700788
 20
0.9703346456692914
 30
0.0
 10
0.5846850393700788
 20
0.9703346456692914
 30
0.0
 10
0.5846850393700788
 20
0.9703346456692914
 30
0.0
 10
0.6165826771653543
 20
0.9702559055118111
 30
0.0
 10
0.6165826771653543
 20
0.9702559055118111
 30
0.0
 10
0.6165826771653543
 20
0.9702559055118111
 30
0.0
 10
0.6165826771653543
 20
0.9702559055118111
 30
0.0
 10
0.648244094488189
 20
0.970484251968504
 30
0.0
 10
0.648244094488189
 20
0.970484251968504
 30
0.0
 10
0.648244094488189
 20
0.970484251968504
 30
0.0
 10
0.648244094488189
 20
0.970484251968504
 30
0.0
 10
0.679492125984252
 20
0.9709527559055119
 30
0.0
 10
0.679492125984252
 20
0.9709527559055119
 30
0.0
 10
0.679492125984252
 20
0.9709527559055119
 30
0.0
 10
0.679492125984252
 20
0.9709527559055119
 30
0.0
 10
0.7101496062992126
 20
0.9715748031496063
 30
0.0
 10
0.7101496062992126
 20
0.9715748031496063
 30
0.0
 10
0.7101496062992126
 20
0.9715748031496063
 30
0.0
 10
0.7101496062992126
 20
0.9715748031496063
 30
0.0
 10
0.7400551181102363
 20
0.9722795275590551
 30
0.0
 10
0.7400551181102363
 20
0.9722795275590551
 30
0.0
 10
0.7400551181102363
 20
0.9722795275590551
 30
0.0
 10
0.7400551181102363
 20
0.9722795275590551
 30
0.0
 10
0.769011811023622
 20
0.9729724409448819
 30
0.0
 10
0.769011811023622
 20
0.9729724409448819
 30
0.0
 10
0.769011811023622
 20
0.9729724409448819
 30
0.0
 10
0.769011811023622
 20
0.9729724409448819
 30
0.0
 10
0.7968661417322835
 20
0.9735866141732283
 30
0.0
 10
0.7968661417322835
 20
0.9735866141732283
 30
0.0
 10
0.7968661417322835
 20
0.9735866141732283
 30
0.0
 10
0.7968661417322835
 20
0.9735866141732283
 30
0.0
 10
0.8234251968503937
 20
0.9740393700787402
 30
0.0
 10
0.8234251968503937
 20
0.9740393700787402
 30
0.0
 10
0.8234251968503937
 20
0.9740393700787402
 30
0.0
 10
0.8234251968503937
 20
0.9740393700787402
 30
0.0
 10
0.8485314960629922
 20
0.9742559055118111
 30
0.0
 10
0.8485314960629922
 20
0.9742559055118111
 30
0.0
 10
0.8485314960629922
 20
0.9742559055118111
 30
0.0
 10
0.8485314960629922
 20
0.9742559055118111
 30
0.0
 10
0.8777874015748032
 20
0.9724370078740158
 30
0.0
 10
0.8777874015748032
 20
0.9724370078740158
 30
0.0
 10
0.8777874015748032
 20
0.9724370078740158
 30
0.0
 10
0.8777874015748032
 20
0.9724370078740158
 30
0.0
 10
0.9063661417322835
 20
0.966968503937008
 30
0.0
 10
0.9063661417322835
 20
0.966968503937008
 30
0.0
 10
0.9063661417322835
 20
0.966968503937008
 30
0.0
 10
0.9063661417322835
 20
0.966968503937008
 30
0.0
 10
0.9341535433070867
 20
0.9580393700787402
 30
0.0
 10
0.9341535433070867
 20
0.9580393700787402
 30
0.0
 10
0.9341535433070867
 20
0.9580393700787402
 30
0.0
 10
0.9341535433070867
 20
0.9580393700787402
 30
0.0
 10
0.9610472440944883
 20
0.9458464566929135
 30
0.0
 10
0.9610472440944883
 20
0.9458464566929135
 30
0.0
 10
0.9610472440944883
 20
0.9458464566929135
 30
0.0
 10
0.9610472440944883
 20
0.9458464566929135
 30
0.0
 10
0.9869212598425198
 20
0.9305708661417323
 30
0.0
 10
0.9869212598425198
 20
0.9305708661417323
 30
0.0
 10
0.9869212598425198
 20
0.9305708661417323
 30
0.0
 10
0.9869212598425198
 20
0.9305708661417323
 30
0.0
 10
1.0116811023622048
 20
0.9124173228346457
 30
0.0
 10
1.0116811023622048
 20
0.9124173228346457
 30
0.0
 10
1.0116811023622048
 20
0.9124173228346457
 30
0.0
 10
1.0116811023622048
 20
0.9124173228346457
 30
0.0
 10
1.035212598425197
 20
0.8915748031496064
 30
0.0
 10
1.035212598425197
 20
0.8915748031496064
 30
0.0
 10
1.035212598425197
 20
0.8915748031496064
 30
0.0
 10
1.035212598425197
 20
0.8915748031496064
 30
0.0
 10
1.0574133858267718
 20
0.868240157480315
 30
0.0
 10
1.0574133858267718
 20
0.868240157480315
 30
0.0
 10
1.0574133858267718
 20
0.868240157480315
 30
0.0
 10
1.0574133858267718
 20
0.868240157480315
 30
0.0
 10
1.0781574803149607
 20
0.8425944881889764
 30
0.0
 10
1.0781574803149607
 20
0.8425944881889764
 30
0.0
 10
1.0781574803149607
 20
0.8425944881889764
 30
0.0
 10
1.0781574803149607
 20
0.8425944881889764
 30
0.0
 10
1.0973582677165354
 20
0.8148464566929135
 30
0.0
 10
1.0973582677165354
 20
0.8148464566929135
 30
0.0
 10
1.0973582677165354
 20
0.8148464566929135
 30
0.0
 10
1.0973582677165354
 20
0.8148464566929135
 30
0.0
 10
1.1148897637795276
 20
0.7851771653543307
 30
0.0
 10
1.1148897637795276
 20
0.7851771653543307
 30
0.0
 10
1.1148897637795276
 20
0.7851771653543307
 30
0.0
 10
1.1148897637795276
 20
0.7851771653543307
 30
0.0
 10
1.1306574803149607
 20
0.7537913385826772
 30
0.0
 10
1.1306574803149607
 20
0.7537913385826772
 30
0.0
 10
1.1306574803149607
 20
0.7537913385826772
 30
0.0
 10
1.1306574803149607
 20
0.7537913385826772
 30
0.0
 10
1.1445354330708661
 20
0.7208700787401575
 30
0.0
 10
1.1445354330708661
 20
0.7208700787401575
 30
0.0
 10
1.1445354330708661
 20
0.7208700787401575
 30
0.0
 10
1.1445354330708661
 20
0.7208700787401575
 30
0.0
 10
1.1564330708661417
 20
0.6866141732283465
 30
0.0
 10
1.1564330708661417
 20
0.6866141732283465
 30
0.0
 10
1.1564330708661417
 20
0.6866141732283465
 30
0.0
 10
1.1564330708661417
 20
0.6866141732283465
 30
0.0
 10
1.1662283464566929
 20
0.6512125984251969
 30
0.0
 10
1.1662283464566929
 20
0.6512125984251969
 30
0.0
 10
1.1662283464566929
 20
0.6512125984251969
 30
0.0
 10
1.1662283464566929
 20
0.6512125984251969
 30
0.0
 10
1.1738228346456694
 20
0.6148661417322835
 30
0.0
 10
1.1738228346456694
 20
0.6148661417322835
 30
0.0
 10
1.1738228346456694
 20
0.6148661417322835
 30
0.0
 10
1.1738228346456694
 20
0.6148661417322835
 30
0.0
 10
1.1790905511811025
 20
0.5777519685039371
 30
0.0
 10
1.1790905511811025
 20
0.5777519685039371
 30
0.0
 10
1.1790905511811025
 20
0.5777519685039371
 30
0.0
 10
1.1790905511811025
 20
0.5777519685039371
 30
0.0
 10
1.1819409448818898
 20
0.5400748031496063
 30
0.0
 10
1.1819409448818898
 20
0.5400748031496063
 30
0.0
 10
1.1819409448818898
 20
0.5400748031496063
 30
0.0
 10
1.1819409448818898
 20
0.5400748031496063
 30
0.0
 10
1.182251968503937
 20
0.5020275590551181
 30
0.0
 10
1.182251968503937
 20
0.5020275590551181
 30
0.0
 10
1.182251968503937
 20
0.5020275590551181
 30
0.0
 10
1.182251968503937
 20
0.5020275590551181
 30
0.0
 10
1.1799291338582678
 20
0.4638110236220472
 30
0.0
 10
1.1799291338582678
 20
0.4638110236220472
 30
0.0
 10
1.1799291338582678
 20
0.4638110236220472
 30
0.0
 10
1.1799291338582678
 20
0.4638110236220472
 30
0.0
 10
1.1748464566929133
 20
0.4255984251968504
 30
0.0
 10
1.1748464566929133
 20
0.4255984251968504
 30
0.0
 10
1.1748464566929133
 20
0.4255984251968504
 30
0.0
 10
1.1748464566929133
 20
0.4255984251968504
 30
0.0
 10
1.1669094488188976
 20
0.3876023622047244
 30
0.0
 10
1.1669094488188976
 20
0.3876023622047244
 30
0.0
 10
1.1669094488188976
 20
0.3876023622047244
 30
0.0
 10
1.1669094488188976
 20
0.3876023622047244
 30
0.0
 10
1.1560000000000001
 20
0.3500078740157481
 30
0.0
 10
1.1560000000000001
 20
0.3500078740157481
 30
0.0
 10
1.1560000000000001
 20
0.3500078740157481
 30
0.0
 10
1.1560000000000001
 20
0.3500078740157481
 30
0.0
 10
1.14201968503937
 20
0.313
 30
0.0
 10
1.14201968503937
 20
0.313
 30
0.0
 10
1.14201968503937
 20
0.313
 30
0.0
 10
1.14201968503937
 20
0.313
 30
0.0
 10
1.1248425196850393
 20
0.2767874015748031
 30
0.0
 10
1.1248425196850393
 20
0.2767874015748031
 30
0.0
 10
1.1248425196850393
 20
0.2767874015748031
 30
0.0
 10
1.1248425196850393
 20
0.2767874015748031
 30
0.0
 10
1.1043740157480315
 20
0.2415472440944882
 30
0.0
 10
1.1043740157480315
 20
0.2415472440944882
 30
0.0
 10
1.1043740157480315
 20
0.2415472440944882
 30
0.0
 10
1.1043740157480315
 20
0.2415472440944882
 30
0.0
 10
1.0805
 20
0.207484251968504
 30
0.0
 10
1.0805
 20
0.207484251968504
 30
0.0
 10
1.0805
 20
0.207484251968504
 30
0.0
 10
1.0805
 20
0.207484251968504
 30
0.0
 10
1.0531181102362206
 20
0.1747795275590551
 30
0.0
 10
1.0531181102362206
 20
0.1747795275590551
 30
0.0
 10
1.0531181102362206
 20
0.1747795275590551
 30
0.0
 10
1.0531181102362206
 20
0.1747795275590551
 30
0.0
 10
1.0221062992125984
 20
0.1436417322834646
 30
0.0
 10
1.0221062992125984
 20
0.1436417322834646
 30
0.0
 10
1.0221062992125984
 20
0.1436417322834646
 30
0.0
 10
1.0221062992125984
 20
0.1436417322834646
 30
0.0
 10
0.9873661417322835
 20
0.114251968503937
 30
0.0
 10
0.9873661417322835
 20
0.114251968503937
 30
0.0
 10
0.9873661417322835
 20
0.114251968503937
 30
0.0
 10
0.9873661417322835
 20
0.114251968503937
 30
0.0
 10
0.9487874015748032
 20
0.0868110236220472
 30
0.0
 10
0.9487874015748032
 20
0.0868110236220472
 30
0.0
 10
0.9487874015748032
 20
0.0868110236220472
 30
0.0
 10
0.9487874015748032
 20
0.0868110236220472
 30
0.0
 10
0.3015511811023622
 20
-0.2909685039370079
 30
0.0
 10
0.3015511811023622
 20
-0.2909685039370079
 30
0.0
 10
0.3015511811023622
 20
-0.2909685039370079
 30
0.0
 10
0.3015511811023622
 20
-0.2909685039370079
 30
0.0
 10
0.3401299212598425
 20
-0.2635275590551181
 30
0.0
 10
0.3401299212598425
 20
-0.2635275590551181
 30
0.0
 10
0.3401299212598425
 20
-0.2635275590551181
 30
0.0
 10
0.3401299212598425
 20
-0.2635275590551181
 30
0.0
 10
0.3748700787401575
 20
-0.2341377952755906
 30
0.0
 10
0.3748700787401575
 20
-0.2341377952755906
 30
0.0
 10
0.3748700787401575
 20
-0.2341377952755906
 30
0.0
 10
0.3748700787401575
 20
-0.2341377952755906
 30
0.0
 10
0.4058818897637795
 20
-0.203
 30
0.0
 10
0.4058818897637795
 20
-0.203
 30
0.0
 10
0.4058818897637795
 20
-0.203
 30
0.0
 10
0.4058818897637795
 20
-0.203
 30
0.0
 10
0.4332637795275591
 20
-0.1702952755905512
 30
0.0
 10
0.4332637795275591
 20
-0.1702952755905512
 30
0.0
 10
0.4332637795275591
 20
-0.1702952755905512
 30
0.0
 10
0.4332637795275591
 20
-0.1702952755905512
 30
0.0
 10
0.4571377952755906
 20
-0.1362322834645669
 30
0.0
 10
0.4571377952755906
 20
-0.1362322834645669
 30
0.0
 10
0.4571377952755906
 20
-0.1362322834645669
 30
0.0
 10
0.4571377952755906
 20
-0.1362322834645669
 30
0.0
 10
0.4776062992125985
 20
-0.100992125984252
 30
0.0
 10
0.4776062992125985
 20
-0.100992125984252
 30
0.0
 10
0.4776062992125985
 20
-0.100992125984252
 30
0.0
 10
0.4776062992125985
 20
-0.100992125984252
 30
0.0
 10
0.4947834645669292
 20
-0.0647795275590551
 30
0.0
 10
0.4947834645669292
 20
-0.0647795275590551
 30
0.0
 10
0.4947834645669292
 20
-0.0647795275590551
 30
0.0
 10
0.4947834645669292
 20
-0.0647795275590551
 30
0.0
 10
0.508763779527559
 20
-0.0277716535433071
 30
0.0
 10
0.508763779527559
 20
-0.0277716535433071
 30
0.0
 10
0.508763779527559
 20
-0.0277716535433071
 30
0.0
 10
0.508763779527559
 20
-0.0277716535433071
 30
0.0
 10
0.5196732283464567
 20
0.0098228346456693
 30
0.0
 10
0.5196732283464567
 20
0.0098228346456693
 30
0.0
 10
0.5196732283464567
 20
0.0098228346456693
 30
0.0
 10
0.5196732283464567
 20
0.0098228346456693
 30
0.0
 10
0.5276102362204724
 20
0.0478188976377953
 30
0.0
 10
0.5276102362204724
 20
0.0478188976377953
 30
0.0
 10
0.5276102362204724
 20
0.0478188976377953
 30
0.0
 10
0.5276102362204724
 20
0.0478188976377953
 30
0.0
 10
0.5326929133858268
 20
0.0860314960629921
 30
0.0
 10
0.5326929133858268
 20
0.0860314960629921
 30
0.0
 10
0.5326929133858268
 20
0.0860314960629921
 30
0.0
 10
0.5326929133858268
 20
0.0860314960629921
 30
0.0
 10
0.5350157480314961
 20
0.124248031496063
 30
0.0
 10
0.5350157480314961
 20
0.124248031496063
 30
0.0
 10
0.5350157480314961
 20
0.124248031496063
 30
0.0
 10
0.5350157480314961
 20
0.124248031496063
 30
0.0
 10
0.5347047244094488
 20
0.1622952755905512
 30
0.0
 10
0.5347047244094488
 20
0.1622952755905512
 30
0.0
 10
0.5347047244094488
 20
0.1622952755905512
 30
0.0
 10
0.5347047244094488
 20
0.1622952755905512
 30
0.0
 10
0.5318543307086614
 20
0.1999724409448819
 30
0.0
 10
0.5318543307086614
 20
0.1999724409448819
 30
0.0
 10
0.5318543307086614
 20
0.1999724409448819
 30
0.0
 10
0.5318543307086614
 20
0.1999724409448819
 30
0.0
 10
0.5265866141732284
 20
0.2370866141732284
 30
0.0
 10
0.5265866141732284
 20
0.2370866141732284
 30
0.0
 10
0.5265866141732284
 20
0.2370866141732284
 30
0.0
 10
0.5265866141732284
 20
0.2370866141732284
 30
0.0
 10
0.518992125984252
 20
0.2734330708661418
 30
0.0
 10
0.518992125984252
 20
0.2734330708661418
 30
0.0
 10
0.518992125984252
 20
0.2734330708661418
 30
0.0
 10
0.518992125984252
 20
0.2734330708661418
 30
0.0
 10
0.5091968503937008
 20
0.3088346456692914
 30
0.0
 10
0.5091968503937008
 20
0.3088346456692914
 30
0.0
 10
0.5091968503937008
 20
0.3088346456692914
 30
0.0
 10
0.5091968503937008
 20
0.3088346456692914
 30
0.0
 10
0.4972992125984252
 20
0.3430905511811024
 30
0.0
 10
0.4972992125984252
 20
0.3430905511811024
 30
0.0
 10
0.4972992125984252
 20
0.3430905511811024
 30
0.0
 10
0.4972992125984252
 20
0.3430905511811024
 30
0.0
 10
0.4834212598425197
 20
0.3760118110236221
 30
0.0
 10
0.4834212598425197
 20
0.3760118110236221
 30
0.0
 10
0.4834212598425197
 20
0.3760118110236221
 30
0.0
 10
0.4834212598425197
 20
0.3760118110236221
 30
0.0
 10
0.4676535433070866
 20
0.4073976377952756
 30
0.0
 10
0.4676535433070866
 20
0.4073976377952756
 30
0.0
 10
0.4676535433070866
 20
0.4073976377952756
 30
0.0
 10
0.4676535433070866
 20
0.4073976377952756
 30
0.0
 10
0.4501220472440945
 20
0.4370669291338583
 30
0.0
 10
0.4501220472440945
 20
0.4370669291338583
 30
0.0
 10
0.4501220472440945
 20
0.4370669291338583
 30
0.0
 10
0.4501220472440945
 20
0.4370669291338583
 30
0.0
 10
0.4309212598425197
 20
0.4648149606299213
 30
0.0
 10
0.4309212598425197
 20
0.4648149606299213
 30
0.0
 10
0.4309212598425197
 20
0.4648149606299213
 30
0.0
 10
0.4309212598425197
 20
0.4648149606299213
 30
0.0
 10
0.4101771653543307
 20
0.4904606299212599
 30
0.0
 10
0.4101771653543307
 20
0.4904606299212599
 30
0.0
 10
0.4101771653543307
 20
0.4904606299212599
 30
0.0
 10
0.4101771653543307
 20
0.4904606299212599
 30
0.0
 10
0.3879763779527559
 20
0.5137952755905512
 30
0.0
 10
0.3879763779527559
 20
0.5137952755905512
 30
0.0
 10
0.3879763779527559
 20
0.5137952755905512
 30
0.0
 10
0.3879763779527559
 20
0.5137952755905512
 30
0.0
 10
0.3644448818897638
 20
0.5346377952755905
 30
0.0
 10
0.3644448818897638
 20
0.5346377952755905
 30
0.0
 10
0.3644448818897638
 20
0.5346377952755905
 30
0.0
 10
0.3644448818897638
 20
0.5346377952755905
 30
0.0
 10
0.3396850393700788
 20
0.5527913385826772
 30
0.0
 10
0.3396850393700788
 20
0.5527913385826772
 30
0.0
 10
0.3396850393700788
 20
0.5527913385826772
 30
0.0
 10
0.3396850393700788
 20
0.5527913385826772
 30
0.0
 10
0.3138110236220473
 20
0.5680669291338583
 30
0.0
 10
0.3138110236220473
 20
0.5680669291338583
 30
0.0
 10
0.3138110236220473
 20
0.5680669291338583
 30
0.0
 10
0.3138110236220473
 20
0.5680669291338583
 30
0.0
 10
0.2869173228346457
 20
0.5802598425196851
 30
0.0
 10
0.2869173228346457
 20
0.5802598425196851
 30
0.0
 10
0.2869173228346457
 20
0.5802598425196851
 30
0.0
 10
0.2869173228346457
 20
0.5802598425196851
 30
0.0
 10
0.2591299212598425
 20
0.5891889763779528
 30
0.0
 10
0.2591299212598425
 20
0.5891889763779528
 30
0.0
 10
0.2591299212598425
 20
0.5891889763779528
 30
0.0
 10
0.2591299212598425
 20
0.5891889763779528
 30
0.0
 10
0.2305511811023622
 20
0.5946574803149607
 30
0.0
 10
0.2305511811023622
 20
0.5946574803149607
 30
0.0
 10
0.2305511811023622
 20
0.5946574803149607
 30
0.0
 10
0.2305511811023622
 20
0.5946574803149607
 30
0.0
 10
0.2012952755905512
 20
0.5964763779527559
 30
0.0
 10
0.2012952755905512
 20
0.5964763779527559
 30
0.0
 10
0.2012952755905512
 20
0.5964763779527559
 30
0.0
 10
0.2012952755905512
 20
0.5964763779527559
 30
0.0
 10
0.1761889763779528
 20
0.5962598425196851
 30
0.0
 10
0.1761889763779528
 20
0.5962598425196851
 30
0.0
 10
0.1761889763779528
 20
0.5962598425196851
 30
0.0
 10
0.1761889763779528
 20
0.5962598425196851
 30
0.0
 10
0.1496299212598425
 20
0.5958070866141733
 30
0.0
 10
0.1496299212598425
 20
0.5958070866141733
 30
0.0
 10
0.1496299212598425
 20
0.5958070866141733
 30
0.0
 10
0.1496299212598425
 20
0.5958070866141733
 30
0.0
 10
0.1217755905511811
 20
0.5951929133858268
 30
0.0
 10
0.1217755905511811
 20
0.5951929133858268
 30
0.0
 10
0.1217755905511811
 20
0.5951929133858268
 30
0.0
 10
0.1217755905511811
 20
0.5951929133858268
 30
0.0
 10
0.0928188976377953
 20
0.5945
 30
0.0
 10
0.0928188976377953
 20
0.5945
 30
0.0
 10
0.0928188976377953
 20
0.5945
 30
0.0
 10
0.0928188976377953
 20
0.5945
 30
0.0
 10
0.0629133858267717
 20
0.5937952755905512
 30
0.0
 10
0.0629133858267717
 20
0.5937952755905512
 30
0.0
 10
0.0629133858267717
 20
0.5937952755905512
 30
0.0
 10
0.0629133858267717
 20
0.5937952755905512
 30
0.0
 10
0.032255905511811
 20
0.5931732283464567
 30
0.0
 10
0.032255905511811
 20
0.5931732283464567
 30
0.0
 10
0.032255905511811
 20
0.5931732283464567
 30
0.0
 10
0.032255905511811
 20
0.5931732283464567
 30
0.0
 10
0.001007874015748
 20
0.5927047244094489
 30
0.0
 10
0.001007874015748
 20
0.5927047244094489
 30
0.0
 10
0.001007874015748
 20
0.5927047244094489
 30
0.0
 10
0.001007874015748
 20
0.5927047244094489
 30
0.0
 10
-0.0306535433070866
 20
0.5924763779527559
 30
0.0
 10
-0.0306535433070866
 20
0.5924763779527559
 30
0.0
 10
-0.0306535433070866
 20
0.5924763779527559
 30
0.0
 10
-0.0306535433070866
 20
0.5924763779527559
 30
0.0
 10
-0.0625511811023622
 20
0.5925551181102362
 30
0.0
 10
-0.0625511811023622
 20
0.5925551181102362
 30
0.0
 10
-0.0625511811023622
 20
0.5925551181102362
 30
0.0
 10
-0.0625511811023622
 20
0.5925551181102362
 30
0.0
 10
-0.0945236220472441
 20
0.5930314960629921
 30
0.0
 10
-0.0945236220472441
 20
0.5930314960629921
 30
0.0
 10
-0.0945236220472441
 20
0.5930314960629921
 30
0.0
 10
-0.0945236220472441
 20
0.5930314960629921
 30
0.0
 10
-0.1263818897637795
 20
0.5939763779527559
 30
0.0
 10
-0.1263818897637795
 20
0.5939763779527559
 30
0.0
 10
-0.1263818897637795
 20
0.5939763779527559
 30
0.0
 10
-0.1263818897637795
 20
0.5939763779527559
 30
0.0
 10
-0.1579606299212598
 20
0.595484251968504
 30
0.0
 10
-0.1579606299212598
 20
0.595484251968504
 30
0.0
 10
-0.1579606299212598
 20
0.595484251968504
 30
0.0
 10
-0.1579606299212598
 20
0.595484251968504
 30
0.0
 10
-0.1890748031496063
 20
0.5976181102362205
 30
0.0
 10
-0.1890748031496063
 20
0.5976181102362205
 30
0.0
 10
-0.1890748031496063
 20
0.5976181102362205
 30
0.0
 10
-0.1890748031496063
 20
0.5976181102362205
 30
0.0
 10
-0.2195669291338583
 20
0.6004645669291339
 30
0.0
 10
-0.2195669291338583
 20
0.6004645669291339
 30
0.0
 10
-0.2195669291338583
 20
0.6004645669291339
 30
0.0
 10
-0.2195669291338583
 20
0.6004645669291339
 30
0.0
 10
-0.249244094488189
 20
0.6041023622047245
 30
0.0
 10
-0.249244094488189
 20
0.6041023622047245
 30
0.0
 10
-0.249244094488189
 20
0.6041023622047245
 30
0.0
 10
-0.249244094488189
 20
0.6041023622047245
 30
0.0
 10
-0.2779448818897638
 20
0.6086141732283464
 30
0.0
 10
-0.2779448818897638
 20
0.6086141732283464
 30
0.0
 10
-0.2779448818897638
 20
0.6086141732283464
 30
0.0
 10
-0.2779448818897638
 20
0.6086141732283464
 30
0.0
 10
-0.3054842519685039
 20
0.6140629921259843
 30
0.0
 10
-0.3054842519685039
 20
0.6140629921259843
 30
0.0
 10
-0.3054842519685039
 20
0.6140629921259843
 30
0.0
 10
-0.3054842519685039
 20
0.6140629921259843
 30
0.0
 10
-0.3316968503937008
 20
0.6205472440944883
 30
0.0
 10
-0.3316968503937008
 20
0.6205472440944883
 30
0.0
 10
-0.3316968503937008
 20
0.6205472440944883
 30
0.0
 10
-0.3316968503937008
 20
0.6205472440944883
 30
0.0
 10
-0.3564015748031496
 20
0.6281377952755906
 30
0.0
 10
-0.3564015748031496
 20
0.6281377952755906
 30
0.0
 10
-0.3564015748031496
 20
0.6281377952755906
 30
0.0
 10
-0.3564015748031496
 20
0.6281377952755906
 30
0.0
 10
-0.3794291338582677
 20
0.6369212598425197
 30
0.0
 10
-0.3794291338582677
 20
0.6369212598425197
 30
0.0
 10
-0.3794291338582677
 20
0.6369212598425197
 30
0.0
 10
-0.3794291338582677
 20
0.6369212598425197
 30
0.0
 10
-0.4005984251968504
 20
0.6469606299212599
 30
0.0
 10
-0.4005984251968504
 20
0.6469606299212599
 30
0.0
 10
-0.4005984251968504
 20
0.6469606299212599
 30
0.0
 10
-0.4005984251968504
 20
0.6469606299212599
 30
0.0
 10
-0.419744094488189
 20
0.6583543307086615
 30
0.0
 10
-0.419744094488189
 20
0.6583543307086615
 30
0.0
 10
-0.419744094488189
 20
0.6583543307086615
 30
0.0
 10
-0.419744094488189
 20
0.6583543307086615
 30
0.0
 10
-0.4366850393700787
 20
0.6711692913385827
 30
0.0
 10
-0.4366850393700787
 20
0.6711692913385827
 30
0.0
 10
-0.4366850393700787
 20
0.6711692913385827
 30
0.0
 10
-0.4366850393700787
 20
0.6711692913385827
 30
0.0
 10
-0.451251968503937
 20
0.6854960629921261
 30
0.0
 10
-0.451251968503937
 20
0.6854960629921261
 30
0.0
 10
-0.451251968503937
 20
0.6854960629921261
 30
0.0
 10
-0.451251968503937
 20
0.6854960629921261
 30
0.0
 10
-0.4632598425196851
 20
0.7013976377952756
 30
0.0
 10
-0.4632598425196851
 20
0.7013976377952756
 30
0.0
 10
-0.4632598425196851
 20
0.7013976377952756
 30
0.0
 10
-0.4632598425196851
 20
0.7013976377952756
 30
0.0
 10
-0.4725472440944882
 20
0.718968503937008
 30
0.0
 10
-0.4725472440944882
 20
0.718968503937008
 30
0.0
 10
-0.4725472440944882
 20
0.718968503937008
 30
0.0
 10
-0.4725472440944882
 20
0.718968503937008
 30
0.0
 10
-0.4789330708661417
 20
0.7382795275590551
 30
0.0
 10
-0.4789330708661417
 20
0.7382795275590551
 30
0.0
 10
-0.4789330708661417
 20
0.7382795275590551
 30
0.0
 10
-0.4789330708661417
 20
0.7382795275590551
 30
0.0
 10
-0.482244094488189
 20
0.7594173228346457
 30
0.0
 10
-0.482244094488189
 20
0.7594173228346457
 30
0.0
 10
-0.482244094488189
 20
0.7594173228346457
 30
0.0
 10
-0.482244094488189
 20
0.7594173228346457
 30
0.0
 10
-0.4822992125984252
 20
0.7824488188976378
 30
0.0
 10
-0.4822992125984252
 20
0.7824488188976378
 30
0.0
 10
-0.4822992125984252
 20
0.7824488188976378
 30
0.0
 10
-0.4822992125984252
 20
0.7824488188976378
 30
0.0
 10
-0.4789409448818898
 20
0.8074645669291339
 30
0.0
 10
-0.4789409448818898
 20
0.8074645669291339
 30
0.0
 10
-0.4789409448818898
 20
0.8074645669291339
 30
0.0
 10
-0.4789409448818898
 20
0.8074645669291339
 30
0.0
 10
-0.4719763779527559
 20
0.8345433070866142
 30
0.0
 10
-0.4719763779527559
 20
0.8345433070866142
 30
0.0
 10
-0.4719763779527559
 20
0.8345433070866142
 30
0.0
 10
-0.4719763779527559
 20
0.8345433070866142
 30
0.0
 10
-0.461248031496063
 20
0.8637637795275591
 30
0.0
 10
-0.461248031496063
 20
0.8637637795275591
 30
0.0
 10
-0.461248031496063
 20
0.8637637795275591
 30
0.0
 10
-0.461248031496063
 20
0.8637637795275591
 30
0.0
 10
-0.450251968503937
 20
0.8909212598425197
 30
0.0
 10
-0.450251968503937
 20
0.8909212598425197
 30
0.0
 10
-0.450251968503937
 20
0.8909212598425197
 30
0.0
 10
-0.450251968503937
 20
0.8909212598425197
 30
0.0
 10
-0.4404724409448819
 20
0.917007874015748
 30
0.0
 10
-0.4404724409448819
 20
0.917007874015748
 30
0.0
 10
-0.4404724409448819
 20
0.917007874015748
 30
0.0
 10
-0.4404724409448819
 20
0.917007874015748
 30
0.0
 10
-0.4318937007874016
 20
0.9420393700787402
 30
0.0
 10
-0.4318937007874016
 20
0.9420393700787402
 30
0.0
 10
-0.4318937007874016
 20
0.9420393700787402
 30
0.0
 10
-0.4318937007874016
 20
0.9420393700787402
 30
0.0
 10
-0.4245236220472441
 20
0.9660354330708662
 30
0.0
 10
-0.4245236220472441
 20
0.9660354330708662
 30
0.0
 10
-0.4245236220472441
 20
0.9660354330708662
 30
0.0
 10
-0.4245236220472441
 20
0.9660354330708662
 30
0.0
 10
-0.4183464566929134
 20
0.989003937007874
 30
0.0
 10
-0.4183464566929134
 20
0.989003937007874
 30
0.0
 10
-0.4183464566929134
 20
0.989003937007874
 30
0.0
 10
-0.4183464566929134
 20
0.989003937007874
 30
0.0
 10
-0.4133740157480315
 20
1.0109763779527559
 30
0.0
 10
-0.4133740157480315
 20
1.0109763779527559
 30
0.0
 10
-0.4133740157480315
 20
1.0109763779527559
 30
0.0
 10
-0.4133740157480315
 20
1.0109763779527559
 30
0.0
 10
-0.4095984251968504
 20
1.031964566929134
 30
0.0
 10
-0.4095984251968504
 20
1.031964566929134
 30
0.0
 10
-0.4095984251968504
 20
1.031964566929134
 30
0.0
 10
-0.4095984251968504
 20
1.031964566929134
 30
0.0
 10
-0.4070314960629922
 20
1.051988188976378
 30
0.0
 10
-0.4070314960629922
 20
1.051988188976378
 30
0.0
 10
-0.4070314960629922
 20
1.051988188976378
 30
0.0
 10
-0.4070314960629922
 20
1.051988188976378
 30
0.0
 10
-0.4056456692913386
 20
1.0710551181102363
 30
0.0
 10
-0.4056456692913386
 20
1.0710551181102363
 30
0.0
 10
-0.4056456692913386
 20
1.0710551181102363
 30
0.0
 10
-0.4056456692913386
 20
1.0710551181102363
 30
0.0
 10
-0.4054645669291339
 20
1.0892007874015748
 30
0.0
 10
-0.4054645669291339
 20
1.0892007874015748
 30
0.0
 10
-0.4054645669291339
 20
1.0892007874015748
 30
0.0
 10
-0.4054645669291339
 20
1.0892007874015748
 30
0.0
 10
-0.4064724409448819
 20
1.1064291338582677
 30
0.0
 10
-0.4064724409448819
 20
1.1064291338582677
 30
0.0
 10
-0.4064724409448819
 20
1.1064291338582677
 30
0.0
 10
-0.4064724409448819
 20
1.1064291338582677
 30
0.0
 10
-0.4086811023622047
 20
1.1227677165354331
 30
0.0
 10
-0.4086811023622047
 20
1.1227677165354331
 30
0.0
 10
-0.4086811023622047
 20
1.1227677165354331
 30
0.0
 10
-0.4086811023622047
 20
1.1227677165354331
 30
0.0
 10
-0.4120708661417323
 20
1.1382204724409448
 30
0.0
 10
-0.4120708661417323
 20
1.1382204724409448
 30
0.0
 10
-0.4120708661417323
 20
1.1382204724409448
 30
0.0
 10
-0.4120708661417323
 20
1.1382204724409448
 30
0.0
 10
-0.4166574803149606
 20
1.1528228346456693
 30
0.0
 10
-0.4166574803149606
 20
1.1528228346456693
 30
0.0
 10
-0.4166574803149606
 20
1.1528228346456693
 30
0.0
 10
-0.4166574803149606
 20
1.1528228346456693
 30
0.0
 10
-0.4224291338582678
 20
1.1665826771653545
 30
0.0
 10
-0.4224291338582678
 20
1.1665826771653545
 30
0.0
 10
-0.4224291338582678
 20
1.1665826771653545
 30
0.0
 10
-0.4224291338582678
 20
1.1665826771653545
 30
0.0
 10
-0.4293976377952756
 20
1.1795275590551182
 30
0.0
 10
-0.4293976377952756
 20
1.1795275590551182
 30
0.0
 10
-0.4293976377952756
 20
1.1795275590551182
 30
0.0
 10
-0.4293976377952756
 20
1.1795275590551182
 30
0.0
 10
-0.4375393700787402
 20
1.1916535433070867
 30
0.0
 10
-0.4375393700787402
 20
1.1916535433070867
 30
0.0
 10
-0.4375393700787402
 20
1.1916535433070867
 30
0.0
 10
-0.4375393700787402
 20
1.1916535433070867
 30
0.0
 10
-0.4468700787401575
 20
1.2030000000000001
 30
0.0
 10
-0.4468700787401575
 20
1.2030000000000001
 30
0.0
 10
-0.4468700787401575
 20
1.2030000000000001
 30
0.0
 10
-0.4468700787401575
 20
1.2030000000000001
 30
0.0
 10
-0.4573818897637795
 20
1.2135787401574805
 30
0.0
 10
-0.4573818897637795
 20
1.2135787401574805
 30
0.0
 10
-0.4573818897637795
 20
1.2135787401574805
 30
0.0
 10
-0.4573818897637795
 20
1.2135787401574805
 30
0.0
 10
-0.4690826771653543
 20
1.2234094488188978
 30
0.0
 10
-0.4690826771653543
 20
1.2234094488188978
 30
0.0
 10
-0.4690826771653543
 20
1.2234094488188978
 30
0.0
 10
-0.4690826771653543
 20
1.2234094488188978
 30
0.0
 10
-0.4819566929133858
 20
1.232496062992126
 30
0.0
 10
-0.4819566929133858
 20
1.232496062992126
 30
0.0
 10
-0.4819566929133858
 20
1.232496062992126
 30
0.0
 10
-0.4819566929133858
 20
1.232496062992126
 30
0.0
 10
-0.4960157480314961
 20
1.2408818897637797
 30
0.0
 10
-0.4960157480314961
 20
1.2408818897637797
 30
0.0
 10
-0.4960157480314961
 20
1.2408818897637797
 30
0.0
 10
-0.4960157480314961
 20
1.2408818897637797
 30
0.0
 10
-0.5112519685039371
 20
1.2485669291338584
 30
0.0
 10
-0.5112519685039371
 20
1.2485669291338584
 30
0.0
 10
-0.5112519685039371
 20
1.2485669291338584
 30
0.0
 10
-0.5112519685039371
 20
1.2485669291338584
 30
0.0
 10
-0.5276692913385827
 20
1.2555748031496063
 30
0.0
 10
-0.5276692913385827
 20
1.2555748031496063
 30
0.0
 10
-0.5276692913385827
 20
1.2555748031496063
 30
0.0
 10
-0.5276692913385827
 20
1.2555748031496063
 30
0.0
 10
-0.545255905511811
 20
1.2619173228346456
 30
0.0
 10
-0.545255905511811
 20
1.2619173228346456
 30
0.0
 10
-0.545255905511811
 20
1.2619173228346456
 30
0.0
 10
-0.545255905511811
 20
1.2619173228346456
 30
0.0
 10
-0.5640196850393701
 20
1.2676220472440944
 30
0.0
 10
-0.5640196850393701
 20
1.2676220472440944
 30
0.0
 10
-0.5640196850393701
 20
1.2676220472440944
 30
0.0
 10
-0.5640196850393701
 20
1.2676220472440944
 30
0.0
 10
-0.5839527559055119
 20
1.2726968503937008
 30
0.0
 10
-0.5839527559055119
 20
1.2726968503937008
 30
0.0
 10
-0.5839527559055119
 20
1.2726968503937008
 30
0.0
 10
-0.5839527559055119
 20
1.2726968503937008
 30
0.0
 10
-0.6050669291338583
 20
1.2771732283464567
 30
0.0
 10
-0.6050669291338583
 20
1.2771732283464567
 30
0.0
 10
-0.6050669291338583
 20
1.2771732283464567
 30
0.0
 10
-0.6050669291338583
 20
1.2771732283464567
 30
0.0
 10
-0.6273425196850394
 20
1.2810511811023622
 30
0.0
 10
-0.6273425196850394
 20
1.2810511811023622
 30
0.0
 10
-0.6273425196850394
 20
1.2810511811023622
 30
0.0
 10
-0.6273425196850394
 20
1.2810511811023622
 30
0.0
 10
-0.6507913385826772
 20
1.2843661417322836
 30
0.0
 10
-0.6507913385826772
 20
1.2843661417322836
 30
0.0
 10
-0.6507913385826772
 20
1.2843661417322836
 30
0.0
 10
-0.6507913385826772
 20
1.2843661417322836
 30
0.0
 10
-0.6754055118110236
 20
1.2871259842519684
 30
0.0
 10
-0.6754055118110236
 20
1.2871259842519684
 30
0.0
 10
-0.6754055118110236
 20
1.2871259842519684
 30
0.0
 10
-0.6754055118110236
 20
1.2871259842519684
 30
0.0
 10
-0.7011929133858268
 20
1.2893582677165354
 30
0.0
 10
-0.7011929133858268
 20
1.2893582677165354
 30
0.0
  0
SPLINE
  5
C5
100
AcDbEntity
  8
Layer 1
 62
     9
100
AcDbSpline
210
0.0
220
0.0
230
1.0
 70
     1
 71
     3
 72
    20
 73
    16
 74
     0
 42
0.0000000001
 43
0.0000000001
 40
0.0
 40
0.0
 40
0.0
 40
0.0
 40
0.25
 40
0.25
 40
0.25
 40
0.25
 40
0.5
 40
0.5
 40
0.5
 40
0.5
 40
0.75
 40
0.75
 40
0.75
 40
0.75
 40
1.0
 40
1.0
 40
1.0
 40
1.0
 10
0.2590275590551181
 20
-0.3162755905511811
 30
0.0
 10
0.2590275590551181
 20
-0.3162755905511811
 30
0.0
 10
0.9062637795275591
 20
0.061503937007874
 30
0.0
 10
0.9062637795275591
 20
0.061503937007874
 30
0.0
 10
0.9062637795275591
 20
0.061503937007874
 30
0.0
 10
0.9062637795275591
 20
0.061503937007874
 30
0.0
 10
0.9062637795275591
 20
-0.1015590551181102
 30
0.0
 10
0.9062637795275591
 20
-0.1015590551181102
 30
0.0
 10
0.9062637795275591
 20
-0.1015590551181102
 30
0.0
 10
0.9062637795275591
 20
-0.1015590551181102
 30
0.0
 10
0.2590275590551181
 20
-0.4793385826771654
 30
0.0
 10
0.2590275590551181
 20
-0.4793385826771654
 30
0.0
 10
0.2590275590551181
 20
-0.4793385826771654
 30
0.0
 10
0.2590275590551181
 20
-0.4793385826771654
 30
0.0
 10
0.2590275590551181
 20
-0.3162755905511811
 30
0.0
 10
0.2590275590551181
 20
-0.3162755905511811
 30
0.0
  0
SPLINE
  5
C6
100
AcDbEntity
  8
Layer 1
370
     5
100
AcDbSpline
210
0.0
220
0.0
230
1.0
 70
     1
 71
     3
 72
    20
 73
    16
 74
     0
 42
0.0000000001
 43
0.0000000001
 40
0.0
 40
0.0
 40
0.0
 40
0.0
 40
0.25
 40
0.25
 40
0.25
 40
0.25
 40
0.5
 40
0.5
 40
0.5
 40
0.5
 40
0.75
 40
0.75
 40
0.75
 40
0.75
 40
1.0
 40
1.0
 40
1.0
 40
1.0
 10
0.2590275590551181
 20
-0.3162755905511811
 30
0.0
 10
0.2590275590551181
 20
-0.3162755905511811
 30
0.0
 10
0.9062637795275591
 20
0.061503937007874
 30
0.0
 10
0.9062637795275591
 20
0.061503937007874
 30
0.0
 10
0.9062637795275591
 20
0.061503937007874
 30
0.0
 10
0.9062637795275591
 20
0.061503937007874
 30
0.0
 10
0.9062637795275591
 20
-0.1015590551181102
 30
0.0
 10
0.9062637795275591
 20
-0.1015590551181102
 30
0.0
 10
0.9062637795275591
 20
-0.1015590551181102
 30
0.0
 10
0.9062637795275591
 20
-0.1015590551181102
 30
0.0
 10
0.2590275590551181
 20
-0.4793385826771654
 30
0.0
 10
0.2590275590551181
 20
-0.4793385826771654
 30
0.0
 10
0.2590275590551181
 20
-0.4793385826771654
 30
0.0
 10
0.2590275590551181
 20
-0.4793385826771654
 30
0.0
 10
0.2590275590551181
 20
-0.3162755905511811
 30
0.0
 10
0.2590275590551181
 20
-0.3162755905511811
 30
0.0
  0
SPLINE
  5
C7
100
AcDbEntity
  8
Layer 1
370
     5
 62
     7
100
AcDbSpline
210
0.0
220
0.0
230
1.0
 70
     1
 71
     3
 72
    32
 73
    28
 74
     0
 42
0.0000000001
 43
0.0000000001
 40
0.0
 40
0.0
 40
0.0
 40
0.0
 40
0.1428571428571429
 40
0.1428571428571429
 40
0.1428571428571429
 40
0.1428571428571429
 40
0.2857142857142857
 40
0.2857142857142857
 40
0.2857142857142857
 40
0.2857142857142857
 40
0.4285714285714286
 40
0.4285714285714286
 40
0.4285714285714286
 40
0.4285714285714286
 40
0.5714285714285714
 40
0.5714285714285714
 40
0.5714285714285714
 40
0.5714285714285714
 40
0.7142857142857142
 40
0.7142857142857142
 40
0.7142857142857142
 40
0.7142857142857142
 40
0.857142857142857
 40
0.857142857142857
 40
0.857142857142857
 40
0.857142857142857
 40
1.0
 40
1.0
 40
1.0
 40
1.0
 10
-0.7857834645669292
 20
1.2893582677165354
 30
0.0
 10
-0.7857834645669292
 20
1.2893582677165354
 30
0.0
 10
-0.7011929133858268
 20
1.2893582677165354
 30
0.0
 10
-0.7011929133858268
 20
1.2893582677165354
 30
0.0
 10
-0.7011929133858268
 20
1.2893582677165354
 30
0.0
 10
-0.4199763779527559
 20
1.2684055118110236
 30
0.0
 10
-0.3376102362204724
 20
1.1592952755905512
 30
0.0
 10
-0.461248031496063
 20
0.8637637795275591
 30
0.0
 10
-0.461248031496063
 20
0.8637637795275591
 30
0.0
 10
-0.5965118110236221
 20
0.5404448818897638
 30
0.0
 10
-0.0580354330708661
 20
0.5957874015748031
 30
0.0
 10
0.2012952755905512
 20
0.5964763779527559
 30
0.0
 10
0.2012952755905512
 20
0.5964763779527559
 30
0.0
 10
0.5166811023622048
 20
0.5973149606299213
 30
0.0
 10
0.7341141732283465
 20
-0.0584803149606299
 30
0.0
 10
0.2590275590551181
 20
-0.3162755905511811
 30
0.0
 10
0.2590275590551181
 20
-0.3162755905511811
 30
0.0
 10
0.2590275590551181
 20
-0.3162755905511811
 30
0.0
 10
0.2590275590551181
 20
-0.4793385826771654
 30
0.0
 10
0.2590275590551181
 20
-0.4793385826771654
 30
0.0
 10
0.2590275590551181
 20
-0.4793385826771654
 30
0.0
 10
0.2590275590551181
 20
-0.4793385826771654
 30
0.0
 10
-0.7857834645669292
 20
-0.4793385826771654
 30
0.0
 10
-0.7857834645669292
 20
-0.4793385826771654
 30
0.0
 10
-0.7857834645669292
 20
-0.4793385826771654
 30
0.0
 10
-0.7857834645669292
 20
-0.4793385826771654
 30
0.0
 10
-0.7857834645669292
 20
1.2893582677165354
 30
0.0
 10
-0.7857834645669292
 20
1.2893582677165354
 30
0.0
  0
TEXT
  5
C8
100
AcDbEntity
  8
Layer 1
100
AcDbText
 10
-0.177118
 20
-0.694295
 30
0.0
 40
0.119999
  1
BA  1544
 51
-0.000002
  7
Bookman Old Style
100
AcDbText
  0
TEXT
  5
C9
100
AcDbEntity
  8
Layer 1
100
AcDbText
 10
-0.493811
 20
-0.881795
 30
0.0
 40
0.119999
  1
1-5/16\u+201d x 1-3/4\u+201d
 51
-0.000002
  7
Bookman Old Style
100
AcDbText
  0
ENDSEC
  0
SECTION
  2
OBJECTS
  0
DICTIONARY
  5
19
100
AcDbDictionary
280
     0
281
     1
  3
ACAD_GROUP
350
1A
  3
ACAD_MLINESTYLE
350
1B
  3
ACAD_LAYOUT
350
1E
  3
ACAD_PLOTSETTINGS
350
22
  3
ACAD_PLOTSTYLENAME
350
1F
  3
ACAD_WIPEOUT_VARS
350
23
  0
DICTIONARY
  5
1A
102
{ACAD_REACTORS
330
19
102
}
100
AcDbDictionary
280
     0
281
     1
  0
DICTIONARY
  5
1B
102
{ACAD_REACTORS
330
19
102
}
100
AcDbDictionary
280
     0
281
     1
  3
Standard
350
1C
  0
MLINESTYLE
  5
1C
102
{ACAD_REACTORS
330
1B
102
}
100
AcDbMlineStyle
  2
Standard
 70
     0
  3

 62
     0
 51
90.0
 52
90.0
 71
     2
 49
0.5
 62
   256
  6
BYLAYER
 49
-0.5
 62
   256
  6
BYLAYER
  0
ACDBDICTIONARYWDFLT
  5
1F
102
{ACAD_REACTORS
330
19
102
}
100
AcDbDictionary
281
     1
  3
Normal
350
1D
100
AcDbDictionaryWithDefault
340
1D
  0
ACDBPLACEHOLDER
  5
1D
102
{ACAD_REACTORS
330
1F
102
}
  0
LAYOUT
  5
20
102
{ACAD_REACTORS
330
1E
102
}
100
AcDbPlotSettings
  1

  2

  4

  6

 40
0.0
 41
0.0
 42
0.0
 43
0.0
 44
0.0
 45
0.0
 46
0.0
 47
0.0
 48
0.0
 49
0.0
140
0.0
141
0.0
142
1.0
143
1.0
 70
  1024
 72
     0
 73
     0
 74
     0
  7

 75
     0
147
1.0
148
0.0
149
0.0
100
AcDbLayout
  1
Model
 70
     0
 71
     0
 10
0.0
 20
0.0
 11
0.0
 21
0.0
 12
0.0
 22
0.0
 32
0.0
 14
0.0
 24
0.0
 34
0.0
 15
0.0
 25
0.0
 35
0.0
146
0.0
 13
0.0
 23
0.0
 33
0.0
 16
0.0
 26
0.0
 36
0.0
 17
0.0
 27
0.0
 37
0.0
 76
     0
330
A
331
0
345
0
346
0
  0
LAYOUT
  5
21
102
{ACAD_REACTORS
330
1E
102
}
100
AcDbPlotSettings
  1

  2

  4

  6

 40
0.0
 41
0.0
 42
0.0
 43
0.0
 44
0.0
 45
0.0
 46
0.0
 47
0.0
 48
0.0
 49
0.0
140
0.0
141
0.0
142
1.0
143
1.0
 70
     0
 72
     0
 73
     0
 74
     0
  7

 75
     0
147
1.0
148
0.0
149
0.0
100
AcDbLayout
  1
Layout1
 70
     0
 71
     0
 10
0.0
 20
0.0
 11
0.0
 21
0.0
 12
0.0
 22
0.0
 32
0.0
 14
0.0
 24
0.0
 34
0.0
 15
0.0
 25
0.0
 35
0.0
146
0.0
 13
0.0
 23
0.0
 33
0.0
 16
0.0
 26
0.0
 36
0.0
 17
0.0
 27
0.0
 37
0.0
 76
     0
330
B
331
0
345
0
346
0
  0
DICTIONARY
  5
1E
102
{ACAD_REACTORS
330
19
102
}
100
AcDbDictionary
280
     0
281
     1
  3
Layout1
350
21
  3
Model
350
20
  0
DICTIONARY
  5
22
102
{ACAD_REACTORS
330
19
102
}
100
AcDbDictionary
280
     0
281
     1
  0
WIPEOUTVARIABLES
  5
23
100
AcDbWipeoutVariables
 70
     1
  0
ENDSEC
  0
EOF
