  0
SECTION
  2
HEADER
  9
$ACADVER
  1
AC1015
  9
$ACADMAINTVER
 70
     6
  9
$DWGCODEPAGE
  3
DOS850
  9
$INSBASE
 10
0.0
 20
0.0
 30
0.0
  9
$EXTMIN
 10
-2.224689
 20
-2.930732
 30
1.000000E+20
  9
$EXTMAX
 10
2.165386
 20
3.422469
 30
-1.000000E+20
  9
$LIMMIN
 10
0.0
 20
0.0
  9
$LIMMAX
 10
0.0
 20
0.0
  9
$ORTHOMODE
 70
     0
  9
$REGENMODE
 70
     1
  9
$FILLMODE
 70
     1
  9
$QTEXTMODE
 70
     0
  9
$MIRRTEXT
 70
     1
  9
$LTSCALE
 40
1.0
  9
$ATTMODE
 70
     1
  9
$TEXTSIZE
 40
0.2
  9
$TRACEWID
 40
0.05
  9
$TEXTSTYLE
  7
Standard
  9
$CLAYER
  8
0
  9
$CELTYPE
  6
Continuous
  9
$CECOLOR
 62
   256
  9
$CELTSCALE
 40
1.0
  9
$DISPSILH
 70
     0
  9
$DIMSCALE
 40
1.0
  9
$DIMASZ
 40
0.18
  9
$DIMEXO
 40
0.0625
  9
$DIMDLI
 40
0.38
  9
$DIMRND
 40
0.0
  9
$DIMDLE
 40
0.0
  9
$DIMEXE
 40
0.18
  9
$DIMTP
 40
0.0
  9
$DIMTM
 40
0.0
  9
$DIMTXT
 40
0.18
  9
$DIMCEN
 40
0.09
  9
$DIMTSZ
 40
0.0
  9
$DIMTOL
 70
     0
  9
$DIMLIM
 70
     0
  9
$DIMTIH
 70
     1
  9
$DIMTOH
 70
     1
  9
$DIMSE1
 70
     0
  9
$DIMSE2
 70
     0
  9
$DIMTAD
 70
     0
  9
$DIMZIN
 70
     0
  9
$DIMBLK
  1

  9
$DIMASO
 70
     1
  9
$DIMSHO
 70
     1
  9
$DIMPOST
  1

  9
$DIMAPOST
  1

  9
$DIMALT
 70
     0
  9
$DIMALTD
 70
     2
  9
$DIMALTF
 40
25.4
  9
$DIMLFAC
 40
1.0
  9
$DIMTOFL
 70
     0
  9
$DIMTVP
 40
0.0
  9
$DIMTIX
 70
     0
  9
$DIMSOXD
 70
     0
  9
$DIMSAH
 70
     0
  9
$DIMBLK1
  1

  9
$DIMBLK2
  1

  9
$DIMSTYLE
  2
Standard
  9
$DIMCLRD
 70
     0
  9
$DIMCLRE
 70
     0
  9
$DIMCLRT
 70
     0
  9
$DIMTFAC
 40
1.0
  9
$DIMGAP
 40
0.09
  9
$DIMJUST
 70
     0
  9
$DIMSD1
 70
     0
  9
$DIMSD2
 70
     0
  9
$DIMTOLJ
 70
     1
  9
$DIMTZIN
 70
     0
  9
$DIMALTZ
 70
     0
  9
$DIMALTTZ
 70
     0
  9
$DIMUPT
 70
     0
  9
$DIMDEC
 70
     4
  9
$DIMTDEC
 70
     4
  9
$DIMALTU
 70
     2
  9
$DIMALTTD
 70
     2
  9
$DIMTXSTY
  7
Standard
  9
$DIMAUNIT
 70
     0
  9
$DIMADEC
 70
     0
  9
$DIMALTRND
 40
0.0
  9
$DIMAZIN
 70
     0
  9
$DIMDSEP
 70
     0
  9
$DIMATFIT
 70
     3
  9
$DIMFRAC
 70
     0
  9
$DIMLDRBLK
  1

  9
$DIMLUNIT
 70
     2
  9
$DIMLWD
 70
     0
  9
$DIMLWE
 70
     0
  9
$DIMTMOVE
 70
     0
  9
$LUNITS
 70
     2
  9
$LUPREC
 70
     4
  9
$SKETCHINC
 40
0.1
  9
$FILLETRAD
 40
0.0
  9
$AUNITS
 70
     0
  9
$AUPREC
 70
     0
  9
$MENU
  1
acad
  9
$ELEVATION
 40
0.0
  9
$PELEVATION
 40
0.0
  9
$THICKNESS
 40
0.0
  9
$LIMCHECK
 70
     0
  9
$CHAMFERA
 40
0.0
  9
$CHAMFERB
 40
0.0
  9
$CHAMFERC
 40
0.0
  9
$CHAMFERD
 40
0.0
  9
$SKPOLY
 70
     0
  9
$TDCREATE
 40
0.000000000
  9
$TDUCREATE
 40
0.000000000
  9
$TDUPDATE
 40
0.000000000
  9
$TDUUPDATE
 40
0.000000000
  9
$TDINDWG
 40
0.0000000000
  9
$TDUSRTIMER
 40
0.0000000000
  9
$USRTIMER
 70
     1
  9
$ANGBASE
 50
0.0
  9
$ANGDIR
 70
     0
  9
$PDMODE
 70
     0
  9
$PDSIZE
 40
0.0
  9
$PLINEWID
 40
0.0
  9
$SPLFRAME
 70
     0
  9
$SPLINETYPE
 70
     6
  9
$SPLINESEGS
 70
     8
  9
$HANDSEED
  5
57
  9
$SURFTAB1
 70
     6
  9
$SURFTAB2
 70
     6
  9
$SURFTYPE
 70
     6
  9
$SURFU
 70
     6
  9
$SURFV
 70
     6
  9
$UCSBASE
  2

  9
$UCSNAME
  2

  9
$UCSORG
 10
0.0
 20
0.0
 30
0.0
  9
$UCSXDIR
 10
1.0
 20
0.0
 30
0.0
  9
$UCSYDIR
 10
0.0
 20
1.0
 30
0.0
  9
$UCSORTHOREF
  2

  9
$UCSORTHOVIEW
 70
     0
  9
$UCSORGTOP
 10
0.0
 20
0.0
 30
0.0
  9
$UCSORGBOTTOM
 10
0.0
 20
0.0
 30
0.0
  9
$UCSORGLEFT
 10
0.0
 20
0.0
 30
0.0
  9
$UCSORGRIGHT
 10
0.0
 20
0.0
 30
0.0
  9
$UCSORGFRONT
 10
0.0
 20
0.0
 30
0.0
  9
$UCSORGBACK
 10
0.0
 20
0.0
 30
0.0
  9
$PUCSBASE
  2

  9
$PUCSNAME
  2

  9
$PUCSORG
 10
0.0
 20
0.0
 30
0.0
  9
$PUCSXDIR
 10
1.0
 20
0.0
 30
0.0
  9
$PUCSYDIR
 10
0.0
 20
1.0
 30
0.0
  9
$PUCSORTHOREF
  2

  9
$PUCSORTHOVIEW
 70
     0
  9
$PUCSORGTOP
 10
0.0
 20
0.0
 30
0.0
  9
$PUCSORGBOTTOM
 10
0.0
 20
0.0
 30
0.0
  9
$PUCSORGLEFT
 10
0.0
 20
0.0
 30
0.0
  9
$PUCSORGRIGHT
 10
0.0
 20
0.0
 30
0.0
  9
$PUCSORGFRONT
 10
0.0
 20
0.0
 30
0.0
  9
$PUCSORGBACK
 10
0.0
 20
0.0
 30
0.0
  9
$USERI1
 70
     0
  9
$USERI2
 70
     0
  9
$USERI3
 70
     0
  9
$USERI4
 70
     0
  9
$USERI5
 70
     0
  9
$USERR1
 40
0.0
  9
$USERR2
 40
0.0
  9
$USERR3
 40
0.0
  9
$USERR4
 40
0.0
  9
$USERR5
 40
0.0
  9
$WORLDVIEW
 70
     1
  9
$SHADEDGE
 70
     3
  9
$SHADEDIF
 70
    70
  9
$TILEMODE
 70
     1
  9
$MAXACTVP
 70
    16
  9
$PINSBASE
 10
0.0
 20
0.0
 30
0.0
  9
$PLIMCHECK
 70
     0
  9
$PEXTMIN
 10
1.000000E+20
 20
1.000000E+20
 30
1.000000E+20
  9
$PEXTMAX
 10
-1.000000E+20
 20
-1.000000E+20
 30
-1.000000E+20
  9
$PLIMMIN
 10
0.0
 20
0.0
  9
$PLIMMAX
 10
12.0
 20
9.0
  9
$UNITMODE
 70
     0
  9
$VISRETAIN
 70
     0
  9
$PLINEGEN
 70
     1
  9
$PSLTSCALE
 70
     0
  9
$TREEDEPTH
 70
  3020
  9
$CMLSTYLE
  2
Standard
  9
$CMLJUST
 70
     0
  9
$CMLSCALE
 40
1.0
  9
$PROXYGRAPHICS
 70
     0
  9
$MEASUREMENT
 70
     0
  9
$CELWEIGHT
370
     0
  9
$ENDCAPS
280
     0
  9
$JOINSTYLE
280
     0
  9
$LWDISPLAY
290
     0
  9
$INSUNITS
 70
     1
  9
$HYPERLINKBASE
  1

  9
$XEDIT
290
     1
  9
$CEPSNTYPE
380
     0
  9
$PSTYLEMODE
290
     1
  9
$FINGERPRINTGUID
  2

  9
$VERSIONGUID
  2

  9
$EXTNAMES
290
     1
  9
$PSVPSCALE
 40
0.0
  0
ENDSEC
  0
SECTION
  2
CLASSES
  0
CLASS
  1
LWPOLYLINE
  2
AcDbPolyline
  3
AutoCAD 2000
 90
    32768
280
     0
281
     1
  0
CLASS
  1
IMAGE
  2
AcDbRasterImage
  3
ISM
 90
    32895
280
     0
281
     1
  0
CLASS
  1
OLE2FRAME
  2
AcDbOle2Frame
  3
AutoCAD 2000
 90
    32768
280
     0
281
     1
  0
CLASS
  1
HATCH
  2
AcDbHatch
  3
AutoCAD 2000
 90
    32768
280
     0
281
     1
  0
CLASS
  1
DICTIONARYVAR
  2
AcDbDictionaryVar
  3
AutoCAD 2000
 90
    32768
280
     0
281
     0
  0
CLASS
  1
RASTERVARIABLES
  2
AcDbRasterVariables
  3
ISM
 90
    32768
280
     0
281
     0
  0
CLASS
  1
IMAGEDEF
  2
AcDbRasterImageDef
  3
ISM
 90
    32768
280
     0
281
     0
  0
CLASS
  1
IMAGEDEF_REACTOR
  2
AcDbRasterImageDefReactor
  3
ISM
 90
    32769
280
     0
281
     0
  0
CLASS
  1
IDBUFFER
  2
AcDbIdBuffer
  3
AutoCAD 2000
 90
    32768
280
     0
281
     0
  0
CLASS
  1
SPATIAL_FILTER
  2
AcDbSpatialFilter
  3
AutoCAD 2000
 90
    32768
280
     0
281
     0
  0
CLASS
  1
XRECORD
  2
AcDbXrecord
  3
AutoCAD 2000
 90
    32768
280
     0
281
     0
  0
CLASS
  1
SORTENTSTABLE
  2
AcDbSortentsTable
  3
AutoCAD 2000
 90
    32768
280
     0
281
     0
  0
CLASS
  1
LAYER_INDEX
  2
AcDbLayerIndex
  3
AutoCAD 2000
 90
    32768
280
     0
281
     0
  0
CLASS
  1
SPATIAL_INDEX
  2
AcDbSpatialIndex
  3
AutoCAD 2000
 90
    32768
280
     0
281
     0
  0
CLASS
  1
OBJECT_PTR
  2
CAseDLPNTableRecord
  3
"ASE-LPNTableRecord"
 90
    32769
280
     0
281
     0
  0
CLASS
  1
LAYOUT
  2
AcDbLayout
  3
AutoCAD 2000
 90
        0
280
     0
281
     0
  0
CLASS
  1
PLOTSETTINGS
  2
AcDbPlotSettings
  3
AutoCAD 2000
 90
    32768
280
     0
281
     0
  0
CLASS
  1
ACDBDICTIONARYWDFLT
  2
AcDbDictionaryWithDefault
  3
AutoCAD 2000
 90
        0
280
     0
281
     0
  0
CLASS
  1
ACDBPLACEHOLDER
  2
AcDbPlaceHolder
  3
AutoCAD 2000
 90
        0
280
     0
281
     0
  0
CLASS
  1
VBA_PROJECT
  2
AcDbVbaProject
  3
acadvba
 90
    32768
280
     0
281
     0
  0
CLASS
  1
WIPEOUT
  2
AcDbWipeout
  3
WipeOut|AutoCAD Express Tool|expresstools@autodesk.com
 90
    32895
280
     0
281
     1
  0
CLASS
  1
WIPEOUTVARIABLES
  2
AcDbWipeoutVariables
  3
WipeOut|AutoCAD Express Tool|expresstools@autodesk.com
 90
        0
280
     0
281
     0
  0
CLASS
  1
RTEXT
  2
RText
  3
RText|AutoCAD Express Tool|expresstools@autodesk.com
 90
    32768
280
     0
281
     1
  0
CLASS
  1
ARCALIGNEDTEXT
  2
AcDbArcAlignedText
  3
ATEXT|AutoCAD Express Tool|expresstools@autodesk.com
 90
    32768
280
     0
281
     1
  0
ENDSEC
  0
SECTION
  2
TABLES
  0
TABLE
  2
VPORT
  5
7
100
AcDbSymbolTable
 70
     1
  0
VPORT
  5
15
100
AcDbSymbolTableRecord
100
AcDbViewportTableRecord
  2
*ACTIVE
 70
     0
 10
0.0
 20
0.0
 11
1.0
 21
1.0
 12
6.591288
 22
4.579184
 13
0.0
 23
0.0
 14
1.0
 24
1.0
 15
0.0
 25
0.0
 16
0.0
 26
0.0
 36
1.0
 17
0.0
 27
0.0
 37
0.0
 40
9.158369
 41
0.688564
 42
50.0
 43
0.0
 44
0.0
 50
0.0
 51
0.0
 71
     0
 72
   100
 73
     1
 74
     1
 75
     0
 76
     0
 77
     0
 78
     0
281
     0
 65
     0
110
0.0
120
0.0
130
0.0
111
1.0
121
0.0
131
0.0
112
0.0
122
1.0
132
0.0
345
0
346
0
 79
     0
146
0.0
  0
ENDTAB
  0
TABLE
  2
LTYPE
  5
4
100
AcDbSymbolTable
 70
     3
  0
LTYPE
  5
11
100
AcDbSymbolTableRecord
100
AcDbLinetypeTableRecord
  2
ByBlock
 70
    64
  3

 72
    65
 73
     0
 40
0.0
  0
LTYPE
  5
12
100
AcDbSymbolTableRecord
100
AcDbLinetypeTableRecord
  2
ByLayer
 70
    64
  3

 72
    65
 73
     0
 40
0.0
  0
LTYPE
  5
13
100
AcDbSymbolTableRecord
100
AcDbLinetypeTableRecord
  2
Continuous
 70
    64
  3
Solid line
 72
    65
 73
     0
 40
0.0
  0
ENDTAB
  0
TABLE
  2
LAYER
  5
2
100
AcDbSymbolTable
 70
     3
  0
LAYER
  5
14
100
AcDbSymbolTableRecord
100
AcDbLayerTableRecord
  2
0
 70
     0
 62
     7
  6
Continuous
290
     1
370
    -3
390
1D
  0
LAYER
  5
24
100
AcDbSymbolTableRecord
100
AcDbLayerTableRecord
  2
Layer 1
 70
     0
 62
     7
  6
Continuous
290
     1
370
    -3
390
1F
  0
LAYER
  5
29
100
AcDbSymbolTableRecord
100
AcDbLayerTableRecord
  2
P1-Layer 1
 70
     0
 62
     7
  6
Continuous
290
     1
370
    -3
390
1F
  0
ENDTAB
  0
TABLE
  2
STYLE
  5
3
100
AcDbSymbolTable
 70
     2
  0
STYLE
  5
17
100
AcDbSymbolTableRecord
100
AcDbTextStyleTableRecord
  2
Standard
 70
     0
 40
0.0
 41
1.0
 50
0.0
 71
     0
 42
0.0
  3
txt
  4

  0
STYLE
  5
26
100
AcDbSymbolTableRecord
100
AcDbTextStyleTableRecord
  2
Bookman Old Style
 70
     0
 40
1.0
 41
1.0
 50
0.0
 71
     0
 42
1.0
  3
Bookman Old Style
  4

  0
ENDTAB
  0
TABLE
  2
VIEW
  5
5
100
AcDbSymbolTable
 70
     0
  0
ENDTAB
  0
TABLE
  2
UCS
  5
6
100
AcDbSymbolTable
 70
     0
  0
ENDTAB
  0
TABLE
  2
APPID
  5
8
100
AcDbSymbolTable
 70
     1
  0
APPID
  5
16
100
AcDbSymbolTableRecord
100
AcDbRegAppTableRecord
  2
ACAD
 70
     0
  0
ENDTAB
  0
TABLE
  2
DIMSTYLE
  5
9
100
AcDbSymbolTable
 70
     1
100
AcDbDimStyleTable
 71
     0
  0
DIMSTYLE
105
18
100
AcDbSymbolTableRecord
100
AcDbDimStyleTableRecord
  2
Standard
 70
     0
  3

  4

 40
1.0
 41
0.18
 42
0.0625
 43
0.38
 44
0.18
 45
0.0
 46
0.0
 47
0.0
 48
0.0
 71
     0
 72
     0
 73
     1
 74
     1
 75
     0
 76
     0
 77
     0
 78
     0
 79
     0
140
0.18
141
0.09
142
0.0
143
25.4
144
1.0
145
0.0
146
1.0
147
0.09
148
0.0
170
     0
171
     2
172
     0
173
     0
174
     0
175
     0
176
     0
177
     0
178
     0
179
     0
271
     4
272
     4
273
     2
274
     2
275
     0
276
     0
277
     2
278
    46
279
     0
280
     0
281
     0
282
     0
283
     1
284
     0
285
     0
286
     0
288
     0
340
17
341
0
342
0
343
0
344
0
371
    -2
372
    -2
  0
ENDTAB
  0
TABLE
  2
BLOCK_RECORD
  5
1
100
AcDbSymbolTable
 70
     0
  0
BLOCK_RECORD
  5
A
100
AcDbSymbolTableRecord
100
AcDbBlockTableRecord
  2
*MODEL_SPACE
340
20
  0
BLOCK_RECORD
  5
B
100
AcDbSymbolTableRecord
100
AcDbBlockTableRecord
  2
*PAPER_SPACE
340
21
  0
ENDTAB
  0
ENDSEC
  0
SECTION
  2
BLOCKS
  0
BLOCK
  5
D
100
AcDbEntity
  8
0
100
AcDbBlockBegin
  2
*MODEL_SPACE
 70
     0
 10
0.0
 20
0.0
 30
0.0
  3
*MODEL_SPACE
  1

  0
ENDBLK
  5
E
100
AcDbEntity
  8
0
100
AcDbBlockEnd
  0
BLOCK
  5
F
100
AcDbEntity
 67
     1
  8
0
100
AcDbBlockBegin
  2
*PAPER_SPACE
 70
     0
 10
0.0
 20
0.0
 30
0.0
  3
*PAPER_SPACE
  1

  0
ENDBLK
  5
10
100
AcDbEntity
 67
     1
  8
0
100
AcDbBlockEnd
  0
ENDSEC
  0
SECTION
  2
ENTITIES
  0
SPLINE
  5
25
100
AcDbEntity
  8
Layer 1
370
     5
100
AcDbSpline
210
0.0
220
0.0
230
1.0
 70
     1
 71
     3
 72
    72
 73
    68
 74
     0
 42
0.0000000001
 43
0.0000000001
 40
0.0
 40
0.0
 40
0.0
 40
0.0
 40
0.0588235294117647
 40
0.0588235294117647
 40
0.0588235294117647
 40
0.0588235294117647
 40
0.1176470588235294
 40
0.1176470588235294
 40
0.1176470588235294
 40
0.1176470588235294
 40
0.1764705882352941
 40
0.1764705882352941
 40
0.1764705882352941
 40
0.1764705882352941
 40
0.2352941176470588
 40
0.2352941176470588
 40
0.2352941176470588
 40
0.2352941176470588
 40
0.2941176470588235
 40
0.2941176470588235
 40
0.2941176470588235
 40
0.2941176470588235
 40
0.3529411764705883
 40
0.3529411764705883
 40
0.3529411764705883
 40
0.3529411764705883
 40
0.411764705882353
 40
0.411764705882353
 40
0.411764705882353
 40
0.411764705882353
 40
0.4705882352941177
 40
0.4705882352941177
 40
0.4705882352941177
 40
0.4705882352941177
 40
0.5294117647058824
 40
0.5294117647058824
 40
0.5294117647058824
 40
0.5294117647058824
 40
0.5882352941176471
 40
0.5882352941176471
 40
0.5882352941176471
 40
0.5882352941176471
 40
0.6470588235294118
 40
0.6470588235294118
 40
0.6470588235294118
 40
0.6470588235294118
 40
0.7058823529411765
 40
0.7058823529411765
 40
0.7058823529411765
 40
0.7058823529411765
 40
0.7647058823529412
 40
0.7647058823529412
 40
0.7647058823529412
 40
0.7647058823529412
 40
0.823529411764706
 40
0.823529411764706
 40
0.823529411764706
 40
0.823529411764706
 40
0.8823529411764707
 40
0.8823529411764707
 40
0.8823529411764707
 40
0.8823529411764707
 40
0.9411764705882354
 40
0.9411764705882354
 40
0.9411764705882354
 40
0.9411764705882354
 40
1.0
 40
1.0
 40
1.0
 40
1.0
 10
-0.4746456692913386
 20
1.1709685039370079
 30
0.0
 10
-0.4746456692913386
 20
1.1709685039370079
 30
0.0
 10
-1.2235984251968504
 20
1.1709685039370079
 30
0.0
 10
-1.2235984251968504
 20
1.1709685039370079
 30
0.0
 10
-1.2235984251968504
 20
1.1709685039370079
 30
0.0
 10
-1.2235984251968504
 20
1.1709685039370079
 30
0.0
 10
-1.2235984251968504
 20
1.7959685039370079
 30
0.0
 10
-1.2235984251968504
 20
1.7959685039370079
 30
0.0
 10
-1.2235984251968504
 20
1.7959685039370079
 30
0.0
 10
-1.2235984251968504
 20
1.7959685039370079
 30
0.0
 10
-1.8489094488188977
 20
1.7959685039370079
 30
0.0
 10
-1.8489094488188977
 20
1.7959685039370079
 30
0.0
 10
-1.8489094488188977
 20
1.7959685039370079
 30
0.0
 10
-1.8489094488188977
 20
1.7959685039370079
 30
0.0
 10
-1.8489094488188977
 20
3.170200787401575
 30
0.0
 10
-1.8489094488188977
 20
3.170200787401575
 30
0.0
 10
-1.8489094488188977
 20
3.170200787401575
 30
0.0
 10
-1.8489094488188977
 20
3.170200787401575
 30
0.0
 10
-1.6002283464566929
 20
3.170200787401575
 30
0.0
 10
-1.6002283464566929
 20
3.170200787401575
 30
0.0
 10
-1.6002283464566929
 20
3.170200787401575
 30
0.0
 10
-1.6002283464566929
 20
3.170200787401575
 30
0.0
 10
-1.6002283464566929
 20
3.4209685039370079
 30
0.0
 10
-1.6002283464566929
 20
3.4209685039370079
 30
0.0
 10
-1.6002283464566929
 20
3.4209685039370079
 30
0.0
 10
-1.6002283464566929
 20
3.4209685039370079
 30
0.0
 10
-0.0994645669291339
 20
3.4209685039370079
 30
0.0
 10
-0.0994645669291339
 20
3.4209685039370079
 30
0.0
 10
-0.0994645669291339
 20
3.4209685039370079
 30
0.0
 10
-0.0994645669291339
 20
3.4209685039370079
 30
0.0
 10
1.802751968503937
 20
3.1871614173228346
 30
0.0
 10
1.802751968503937
 20
3.1871614173228346
 30
0.0
 10
1.802751968503937
 20
3.1871614173228346
 30
0.0
 10
1.8589763779527559
 20
3.1749212598425198
 30
0.0
 10
1.9010905511811025
 20
3.1248740157480315
 30
0.0
 10
1.9010905511811025
 20
3.0650196850393701
 30
0.0
 10
1.9010905511811025
 20
3.0650196850393701
 30
0.0
 10
1.9010905511811025
 20
3.0650196850393701
 30
0.0
 10
1.9006653543307088
 20
1.2334685039370079
 30
0.0
 10
1.9006653543307088
 20
1.2334685039370079
 30
0.0
 10
1.9006653543307088
 20
1.2334685039370079
 30
0.0
 10
1.9006653543307088
 20
1.1989566929133859
 30
0.0
 10
1.8726614173228346
 20
1.1709685039370079
 30
0.0
 10
1.8381338582677167
 20
1.1709685039370079
 30
0.0
 10
1.8381338582677167
 20
1.1709685039370079
 30
0.0
 10
1.8381338582677167
 20
1.1709685039370079
 30
0.0
 10
1.6272007874015748
 20
1.1709685039370079
 30
0.0
 10
1.6272007874015748
 20
1.1709685039370079
 30
0.0
 10
1.6272007874015748
 20
1.1709685039370079
 30
0.0
 10
1.6272007874015748
 20
1.1709685039370079
 30
0.0
 10
1.5593031496062992
 20
1.1709685039370079
 30
0.0
 10
1.5593031496062992
 20
1.1709685039370079
 30
0.0
 10
1.5593031496062992
 20
1.1709685039370079
 30
0.0
 10
1.5593031496062992
 20
1.2571102362204725
 30
0.0
 10
1.4894094488188976
 20
1.3269685039370078
 30
0.0
 10
1.4032244094488189
 20
1.3269685039370078
 30
0.0
 10
1.4032244094488189
 20
1.3269685039370078
 30
0.0
 10
1.3170393700787402
 20
1.3269685039370078
 30
0.0
 10
1.2471496062992127
 20
1.2571102362204725
 30
0.0
 10
1.2471496062992127
 20
1.1709685039370079
 30
0.0
 10
1.2471496062992127
 20
1.1709685039370079
 30
0.0
 10
1.2471496062992127
 20
1.1709685039370079
 30
0.0
 10
0.625236220472441
 20
1.1709685039370079
 30
0.0
 10
0.625236220472441
 20
1.1709685039370079
 30
0.0
 10
0.625236220472441
 20
1.1709685039370079
 30
0.0
 10
0.625236220472441
 20
1.1709685039370079
 30
0.0
 10
-0.4746456692913386
 20
1.1709685039370079
 30
0.0
 10
-0.4746456692913386
 20
1.1709685039370079
 30
0.0
  0
TEXT
  5
27
100
AcDbEntity
  8
Layer 1
100
AcDbText
 10
-0.480799
 20
0.826445
 30
0.0
 40
0.119999
  1
BA  1543
 51
-0.000002
  7
Bookman Old Style
100
AcDbText
  0
TEXT
  5
28
100
AcDbEntity
  8
Layer 1
100
AcDbText
 10
-0.745811
 20
0.638945
 30
0.0
 40
0.119999
  1
2-1/4\u+201d x 3-3/4\u+201d
 51
-0.000002
  7
Bookman Old Style
100
AcDbText
  0
SPLINE
  5
2A
100
AcDbEntity
  8
P1-Layer 1
 62
   253
100
AcDbSpline
210
0.0
220
0.0
230
1.0
 70
     1
 71
     3
 72
    20
 73
    16
 74
     0
 42
0.0000000001
 43
0.0000000001
 40
0.0
 40
0.0
 40
0.0
 40
0.0
 40
0.25
 40
0.25
 40
0.25
 40
0.25
 40
0.5
 40
0.5
 40
0.5
 40
0.5
 40
0.75
 40
0.75
 40
0.75
 40
0.75
 40
1.0
 40
1.0
 40
1.0
 40
1.0
 10
-2.2231889763779527
 20
-0.4533818897637795
 30
0.0
 10
-2.2231889763779527
 20
-0.4533818897637795
 30
0.0
 10
-1.5861102362204724
 20
-0.0772086614173228
 30
0.0
 10
-1.5861102362204724
 20
-0.0772086614173228
 30
0.0
 10
-1.5861102362204724
 20
-0.0772086614173228
 30
0.0
 10
-1.5861102362204724
 20
-0.0772086614173228
 30
0.0
 10
-1.3374291338582678
 20
-0.0772086614173228
 30
0.0
 10
-1.3374291338582678
 20
-0.0772086614173228
 30
0.0
 10
-1.3374291338582678
 20
-0.0772086614173228
 30
0.0
 10
-1.3374291338582678
 20
-0.0772086614173228
 30
0.0
 10
-1.974507874015748
 20
-0.4533818897637795
 30
0.0
 10
-1.974507874015748
 20
-0.4533818897637795
 30
0.0
 10
-1.974507874015748
 20
-0.4533818897637795
 30
0.0
 10
-1.974507874015748
 20
-0.4533818897637795
 30
0.0
 10
-2.2231889763779527
 20
-0.4533818897637795
 30
0.0
 10
-2.2231889763779527
 20
-0.4533818897637795
 30
0.0
  0
SPLINE
  5
2B
100
AcDbEntity
  8
P1-Layer 1
370
     5
100
AcDbSpline
210
0.0
220
0.0
230
1.0
 70
     1
 71
     3
 72
    20
 73
    16
 74
     0
 42
0.0000000001
 43
0.0000000001
 40
0.0
 40
0.0
 40
0.0
 40
0.0
 40
0.25
 40
0.25
 40
0.25
 40
0.25
 40
0.5
 40
0.5
 40
0.5
 40
0.5
 40
0.75
 40
0.75
 40
0.75
 40
0.75
 40
1.0
 40
1.0
 40
1.0
 40
1.0
 10
-2.2231889763779527
 20
-0.4533818897637795
 30
0.0
 10
-2.2231889763779527
 20
-0.4533818897637795
 30
0.0
 10
-1.5861102362204724
 20
-0.0772086614173228
 30
0.0
 10
-1.5861102362204724
 20
-0.0772086614173228
 30
0.0
 10
-1.5861102362204724
 20
-0.0772086614173228
 30
0.0
 10
-1.5861102362204724
 20
-0.0772086614173228
 30
0.0
 10
-1.3374291338582678
 20
-0.0772086614173228
 30
0.0
 10
-1.3374291338582678
 20
-0.0772086614173228
 30
0.0
 10
-1.3374291338582678
 20
-0.0772086614173228
 30
0.0
 10
-1.3374291338582678
 20
-0.0772086614173228
 30
0.0
 10
-1.974507874015748
 20
-0.4533818897637795
 30
0.0
 10
-1.974507874015748
 20
-0.4533818897637795
 30
0.0
 10
-1.974507874015748
 20
-0.4533818897637795
 30
0.0
 10
-1.974507874015748
 20
-0.4533818897637795
 30
0.0
 10
-2.2231889763779527
 20
-0.4533818897637795
 30
0.0
 10
-2.2231889763779527
 20
-0.4533818897637795
 30
0.0
  0
SPLINE
  5
2C
100
AcDbEntity
  8
P1-Layer 1
 62
   253
100
AcDbSpline
210
0.0
220
0.0
230
1.0
 70
     1
 71
     3
 72
    20
 73
    16
 74
     0
 42
0.0000000001
 43
0.0000000001
 40
0.0
 40
0.0
 40
0.0
 40
0.0
 40
0.25
 40
0.25
 40
0.25
 40
0.25
 40
0.5
 40
0.5
 40
0.5
 40
0.5
 40
0.75
 40
0.75
 40
0.75
 40
0.75
 40
1.0
 40
1.0
 40
1.0
 40
1.0
 10
-1.974507874015748
 20
-0.2026141732283465
 30
0.0
 10
-1.974507874015748
 20
-0.2026141732283465
 30
0.0
 10
-1.3374291338582678
 20
0.1735590551181102
 30
0.0
 10
-1.3374291338582678
 20
0.1735590551181102
 30
0.0
 10
-1.3374291338582678
 20
0.1735590551181102
 30
0.0
 10
-1.3374291338582678
 20
0.1735590551181102
 30
0.0
 10
0.1633346456692914
 20
0.1735590551181102
 30
0.0
 10
0.1633346456692914
 20
0.1735590551181102
 30
0.0
 10
0.1633346456692914
 20
0.1735590551181102
 30
0.0
 10
0.1633346456692914
 20
0.1735590551181102
 30
0.0
 10
-0.473744094488189
 20
-0.2026141732283465
 30
0.0
 10
-0.473744094488189
 20
-0.2026141732283465
 30
0.0
 10
-0.473744094488189
 20
-0.2026141732283465
 30
0.0
 10
-0.473744094488189
 20
-0.2026141732283465
 30
0.0
 10
-1.974507874015748
 20
-0.2026141732283465
 30
0.0
 10
-1.974507874015748
 20
-0.2026141732283465
 30
0.0
  0
SPLINE
  5
2D
100
AcDbEntity
  8
P1-Layer 1
370
     5
100
AcDbSpline
210
0.0
220
0.0
230
1.0
 70
     1
 71
     3
 72
    20
 73
    16
 74
     0
 42
0.0000000001
 43
0.0000000001
 40
0.0
 40
0.0
 40
0.0
 40
0.0
 40
0.25
 40
0.25
 40
0.25
 40
0.25
 40
0.5
 40
0.5
 40
0.5
 40
0.5
 40
0.75
 40
0.75
 40
0.75
 40
0.75
 40
1.0
 40
1.0
 40
1.0
 40
1.0
 10
-1.974507874015748
 20
-0.2026141732283465
 30
0.0
 10
-1.974507874015748
 20
-0.2026141732283465
 30
0.0
 10
-1.3374291338582678
 20
0.1735590551181102
 30
0.0
 10
-1.3374291338582678
 20
0.1735590551181102
 30
0.0
 10
-1.3374291338582678
 20
0.1735590551181102
 30
0.0
 10
-1.3374291338582678
 20
0.1735590551181102
 30
0.0
 10
0.1633346456692914
 20
0.1735590551181102
 30
0.0
 10
0.1633346456692914
 20
0.1735590551181102
 30
0.0
 10
0.1633346456692914
 20
0.1735590551181102
 30
0.0
 10
0.1633346456692914
 20
0.1735590551181102
 30
0.0
 10
-0.473744094488189
 20
-0.2026141732283465
 30
0.0
 10
-0.473744094488189
 20
-0.2026141732283465
 30
0.0
 10
-0.473744094488189
 20
-0.2026141732283465
 30
0.0
 10
-0.473744094488189
 20
-0.2026141732283465
 30
0.0
 10
-1.974507874015748
 20
-0.2026141732283465
 30
0.0
 10
-1.974507874015748
 20
-0.2026141732283465
 30
0.0
  0
SPLINE
  5
2E
100
AcDbEntity
  8
P1-Layer 1
 62
   253
100
AcDbSpline
210
0.0
220
0.0
230
1.0
 70
     1
 71
     3
 72
    20
 73
    16
 74
     0
 42
0.0000000001
 43
0.0000000001
 40
0.0
 40
0.0
 40
0.0
 40
0.0
 40
0.25
 40
0.25
 40
0.25
 40
0.25
 40
0.5
 40
0.5
 40
0.5
 40
0.5
 40
0.75
 40
0.75
 40
0.75
 40
0.75
 40
1.0
 40
1.0
 40
1.0
 40
1.0
 10
-0.473744094488189
 20
-0.2026141732283465
 30
0.0
 10
-0.473744094488189
 20
-0.2026141732283465
 30
0.0
 10
0.1633346456692914
 20
0.1735590551181102
 30
0.0
 10
0.1633346456692914
 20
0.1735590551181102
 30
0.0
 10
0.1633346456692914
 20
0.1735590551181102
 30
0.0
 10
0.1633346456692914
 20
0.1735590551181102
 30
0.0
 10
2.0655511811023621
 20
-0.060248031496063
 30
0.0
 10
2.0655511811023621
 20
-0.060248031496063
 30
0.0
 10
2.0655511811023621
 20
-0.060248031496063
 30
0.0
 10
2.0655511811023621
 20
-0.060248031496063
 30
0.0
 10
1.4284724409448819
 20
-0.4364212598425197
 30
0.0
 10
1.4284724409448819
 20
-0.4364212598425197
 30
0.0
 10
1.4284724409448819
 20
-0.4364212598425197
 30
0.0
 10
1.4284724409448819
 20
-0.4364212598425197
 30
0.0
 10
-0.473744094488189
 20
-0.2026141732283465
 30
0.0
 10
-0.473744094488189
 20
-0.2026141732283465
 30
0.0
  0
SPLINE
  5
2F
100
AcDbEntity
  8
P1-Layer 1
370
     5
100
AcDbSpline
210
0.0
220
0.0
230
1.0
 70
     1
 71
     3
 72
    20
 73
    16
 74
     0
 42
0.0000000001
 43
0.0000000001
 40
0.0
 40
0.0
 40
0.0
 40
0.0
 40
0.25
 40
0.25
 40
0.25
 40
0.25
 40
0.5
 40
0.5
 40
0.5
 40
0.5
 40
0.75
 40
0.75
 40
0.75
 40
0.75
 40
1.0
 40
1.0
 40
1.0
 40
1.0
 10
-0.473744094488189
 20
-0.2026141732283465
 30
0.0
 10
-0.473744094488189
 20
-0.2026141732283465
 30
0.0
 10
0.1633346456692914
 20
0.1735590551181102
 30
0.0
 10
0.1633346456692914
 20
0.1735590551181102
 30
0.0
 10
0.1633346456692914
 20
0.1735590551181102
 30
0.0
 10
0.1633346456692914
 20
0.1735590551181102
 30
0.0
 10
2.0655511811023621
 20
-0.060248031496063
 30
0.0
 10
2.0655511811023621
 20
-0.060248031496063
 30
0.0
 10
2.0655511811023621
 20
-0.060248031496063
 30
0.0
 10
2.0655511811023621
 20
-0.060248031496063
 30
0.0
 10
1.4284724409448819
 20
-0.4364212598425197
 30
0.0
 10
1.4284724409448819
 20
-0.4364212598425197
 30
0.0
 10
1.4284724409448819
 20
-0.4364212598425197
 30
0.0
 10
1.4284724409448819
 20
-0.4364212598425197
 30
0.0
 10
-0.473744094488189
 20
-0.2026141732283465
 30
0.0
 10
-0.473744094488189
 20
-0.2026141732283465
 30
0.0
  0
SPLINE
  5
30
100
AcDbEntity
  8
P1-Layer 1
 62
   253
100
AcDbSpline
210
0.0
220
0.0
230
1.0
 70
     1
 71
     3
 72
    44
 73
    40
 74
     0
 42
0.0000000001
 43
0.0000000001
 40
0.0
 40
0.0
 40
0.0
 40
0.0
 40
0.1
 40
0.1
 40
0.1
 40
0.1
 40
0.2
 40
0.2
 40
0.2
 40
0.2
 40
0.3
 40
0.3
 40
0.3
 40
0.3
 40
0.4
 40
0.4
 40
0.4
 40
0.4
 40
0.5
 40
0.5
 40
0.5
 40
0.5
 40
0.6
 40
0.6
 40
0.6
 40
0.6
 40
0.7
 40
0.7
 40
0.7
 40
0.7
 40
0.7999999999999999
 40
0.7999999999999999
 40
0.7999999999999999
 40
0.7999999999999999
 40
0.8999999999999999
 40
0.8999999999999999
 40
0.8999999999999999
 40
0.8999999999999999
 40
1.0
 40
1.0
 40
1.0
 40
1.0
 10
1.4284724409448819
 20
-0.4364212598425197
 30
0.0
 10
1.4284724409448819
 20
-0.4364212598425197
 30
0.0
 10
2.0655511811023621
 20
-0.060248031496063
 30
0.0
 10
2.0655511811023621
 20
-0.060248031496063
 30
0.0
 10
2.0655511811023621
 20
-0.060248031496063
 30
0.0
 10
2.0655511811023621
 20
-0.060248031496063
 30
0.0
 10
2.0759173228346457
 20
-0.0629724409448819
 30
0.0
 10
2.0759173228346457
 20
-0.0629724409448819
 30
0.0
 10
2.0759173228346457
 20
-0.0629724409448819
 30
0.0
 10
2.0759173228346457
 20
-0.0629724409448819
 30
0.0
 10
2.0859173228346459
 20
-0.0665511811023622
 30
0.0
 10
2.0859173228346459
 20
-0.0665511811023622
 30
0.0
 10
2.0859173228346459
 20
-0.0665511811023622
 30
0.0
 10
2.0859173228346459
 20
-0.0665511811023622
 30
0.0
 10
2.095496062992126
 20
-0.0709291338582677
 30
0.0
 10
2.095496062992126
 20
-0.0709291338582677
 30
0.0
 10
2.095496062992126
 20
-0.0709291338582677
 30
0.0
 10
2.095496062992126
 20
-0.0709291338582677
 30
0.0
 10
2.1046299212598427
 20
-0.0760748031496063
 30
0.0
 10
2.1046299212598427
 20
-0.0760748031496063
 30
0.0
 10
2.1046299212598427
 20
-0.0760748031496063
 30
0.0
 10
2.1046299212598427
 20
-0.0760748031496063
 30
0.0
 10
1.4675511811023623
 20
-0.452248031496063
 30
0.0
 10
1.4675511811023623
 20
-0.452248031496063
 30
0.0
 10
1.4675511811023623
 20
-0.452248031496063
 30
0.0
 10
1.4675511811023623
 20
-0.452248031496063
 30
0.0
 10
1.4584173228346458
 20
-0.4471023622047244
 30
0.0
 10
1.4584173228346458
 20
-0.4471023622047244
 30
0.0
 10
1.4584173228346458
 20
-0.4471023622047244
 30
0.0
 10
1.4584173228346458
 20
-0.4471023622047244
 30
0.0
 10
1.4488385826771655
 20
-0.4427244094488189
 30
0.0
 10
1.4488385826771655
 20
-0.4427244094488189
 30
0.0
 10
1.4488385826771655
 20
-0.4427244094488189
 30
0.0
 10
1.4488385826771655
 20
-0.4427244094488189
 30
0.0
 10
1.4388385826771655
 20
-0.4391456692913386
 30
0.0
 10
1.4388385826771655
 20
-0.4391456692913386
 30
0.0
 10
1.4388385826771655
 20
-0.4391456692913386
 30
0.0
 10
1.4388385826771655
 20
-0.4391456692913386
 30
0.0
 10
1.4284724409448819
 20
-0.4364212598425197
 30
0.0
 10
1.4284724409448819
 20
-0.4364212598425197
 30
0.0
  0
SPLINE
  5
31
100
AcDbEntity
  8
P1-Layer 1
 62
     9
100
AcDbSpline
210
0.0
220
0.0
230
1.0
 70
     1
 71
     3
 72
    44
 73
    40
 74
     0
 42
0.0000000001
 43
0.0000000001
 40
0.0
 40
0.0
 40
0.0
 40
0.0
 40
0.1
 40
0.1
 40
0.1
 40
0.1
 40
0.2
 40
0.2
 40
0.2
 40
0.2
 40
0.3
 40
0.3
 40
0.3
 40
0.3
 40
0.4
 40
0.4
 40
0.4
 40
0.4
 40
0.5
 40
0.5
 40
0.5
 40
0.5
 40
0.6
 40
0.6
 40
0.6
 40
0.6
 40
0.7
 40
0.7
 40
0.7
 40
0.7
 40
0.7999999999999999
 40
0.7999999999999999
 40
0.7999999999999999
 40
0.7999999999999999
 40
0.8999999999999999
 40
0.8999999999999999
 40
0.8999999999999999
 40
0.8999999999999999
 40
1.0
 40
1.0
 40
1.0
 40
1.0
 10
1.4675511811023623
 20
-0.452248031496063
 30
0.0
 10
1.4675511811023623
 20
-0.452248031496063
 30
0.0
 10
2.1046299212598427
 20
-0.0760748031496063
 30
0.0
 10
2.1046299212598427
 20
-0.0760748031496063
 30
0.0
 10
2.1046299212598427
 20
-0.0760748031496063
 30
0.0
 10
2.1046299212598427
 20
-0.0760748031496063
 30
0.0
 10
2.1132637795275593
 20
-0.0819370078740158
 30
0.0
 10
2.1132637795275593
 20
-0.0819370078740158
 30
0.0
 10
2.1132637795275593
 20
-0.0819370078740158
 30
0.0
 10
2.1132637795275593
 20
-0.0819370078740158
 30
0.0
 10
2.1213661417322833
 20
-0.0884842519685039
 30
0.0
 10
2.1213661417322833
 20
-0.0884842519685039
 30
0.0
 10
2.1213661417322833
 20
-0.0884842519685039
 30
0.0
 10
2.1213661417322833
 20
-0.0884842519685039
 30
0.0
 10
2.1288858267716537
 20
-0.0956692913385827
 30
0.0
 10
2.1288858267716537
 20
-0.0956692913385827
 30
0.0
 10
2.1288858267716537
 20
-0.0956692913385827
 30
0.0
 10
2.1288858267716537
 20
-0.0956692913385827
 30
0.0
 10
2.1357992125984251
 20
-0.1034606299212598
 30
0.0
 10
2.1357992125984251
 20
-0.1034606299212598
 30
0.0
 10
2.1357992125984251
 20
-0.1034606299212598
 30
0.0
 10
2.1357992125984251
 20
-0.1034606299212598
 30
0.0
 10
1.4987204724409449
 20
-0.4796338582677165
 30
0.0
 10
1.4987204724409449
 20
-0.4796338582677165
 30
0.0
 10
1.4987204724409449
 20
-0.4796338582677165
 30
0.0
 10
1.4987204724409449
 20
-0.4796338582677165
 30
0.0
 10
1.4918070866141733
 20
-0.4718425196850394
 30
0.0
 10
1.4918070866141733
 20
-0.4718425196850394
 30
0.0
 10
1.4918070866141733
 20
-0.4718425196850394
 30
0.0
 10
1.4918070866141733
 20
-0.4718425196850394
 30
0.0
 10
1.4842874015748031
 20
-0.4646574803149606
 30
0.0
 10
1.4842874015748031
 20
-0.4646574803149606
 30
0.0
 10
1.4842874015748031
 20
-0.4646574803149606
 30
0.0
 10
1.4842874015748031
 20
-0.4646574803149606
 30
0.0
 10
1.4761850393700788
 20
-0.4581102362204725
 30
0.0
 10
1.4761850393700788
 20
-0.4581102362204725
 30
0.0
 10
1.4761850393700788
 20
-0.4581102362204725
 30
0.0
 10
1.4761850393700788
 20
-0.4581102362204725
 30
0.0
 10
1.4675511811023623
 20
-0.452248031496063
 30
0.0
 10
1.4675511811023623
 20
-0.452248031496063
 30
0.0
  0
SPLINE
  5
32
100
AcDbEntity
  8
P1-Layer 1
 62
     9
100
AcDbSpline
210
0.0
220
0.0
230
1.0
 70
     1
 71
     3
 72
    44
 73
    40
 74
     0
 42
0.0000000001
 43
0.0000000001
 40
0.0
 40
0.0
 40
0.0
 40
0.0
 40
0.1
 40
0.1
 40
0.1
 40
0.1
 40
0.2
 40
0.2
 40
0.2
 40
0.2
 40
0.3
 40
0.3
 40
0.3
 40
0.3
 40
0.4
 40
0.4
 40
0.4
 40
0.4
 40
0.5
 40
0.5
 40
0.5
 40
0.5
 40
0.6
 40
0.6
 40
0.6
 40
0.6
 40
0.7
 40
0.7
 40
0.7
 40
0.7
 40
0.7999999999999999
 40
0.7999999999999999
 40
0.7999999999999999
 40
0.7999999999999999
 40
0.8999999999999999
 40
0.8999999999999999
 40
0.8999999999999999
 40
0.8999999999999999
 40
1.0
 40
1.0
 40
1.0
 40
1.0
 10
1.4987204724409449
 20
-0.4796338582677165
 30
0.0
 10
1.4987204724409449
 20
-0.4796338582677165
 30
0.0
 10
2.1357992125984251
 20
-0.1034606299212598
 30
0.0
 10
2.1357992125984251
 20
-0.1034606299212598
 30
0.0
 10
2.1357992125984251
 20
-0.1034606299212598
 30
0.0
 10
2.1357992125984251
 20
-0.1034606299212598
 30
0.0
 10
2.1420433070866141
 20
-0.1117952755905512
 30
0.0
 10
2.1420433070866141
 20
-0.1117952755905512
 30
0.0
 10
2.1420433070866141
 20
-0.1117952755905512
 30
0.0
 10
2.1420433070866141
 20
-0.1117952755905512
 30
0.0
 10
2.1475905511811026
 20
-0.1206574803149606
 30
0.0
 10
2.1475905511811026
 20
-0.1206574803149606
 30
0.0
 10
2.1475905511811026
 20
-0.1206574803149606
 30
0.0
 10
2.1475905511811026
 20
-0.1206574803149606
 30
0.0
 10
2.1523937007874014
 20
-0.129992125984252
 30
0.0
 10
2.1523937007874014
 20
-0.129992125984252
 30
0.0
 10
2.1523937007874014
 20
-0.129992125984252
 30
0.0
 10
2.1523937007874014
 20
-0.129992125984252
 30
0.0
 10
2.1564251968503938
 20
-0.1397677165354331
 30
0.0
 10
2.1564251968503938
 20
-0.1397677165354331
 30
0.0
 10
2.1564251968503938
 20
-0.1397677165354331
 30
0.0
 10
2.1564251968503938
 20
-0.1397677165354331
 30
0.0
 10
1.5193464566929133
 20
-0.5159409448818898
 30
0.0
 10
1.5193464566929133
 20
-0.5159409448818898
 30
0.0
 10
1.5193464566929133
 20
-0.5159409448818898
 30
0.0
 10
1.5193464566929133
 20
-0.5159409448818898
 30
0.0
 10
1.5153149606299212
 20
-0.5061653543307086
 30
0.0
 10
1.5153149606299212
 20
-0.5061653543307086
 30
0.0
 10
1.5153149606299212
 20
-0.5061653543307086
 30
0.0
 10
1.5153149606299212
 20
-0.5061653543307086
 30
0.0
 10
1.5105118110236222
 20
-0.4968307086614173
 30
0.0
 10
1.5105118110236222
 20
-0.4968307086614173
 30
0.0
 10
1.5105118110236222
 20
-0.4968307086614173
 30
0.0
 10
1.5105118110236222
 20
-0.4968307086614173
 30
0.0
 10
1.5049645669291338
 20
-0.4879685039370079
 30
0.0
 10
1.5049645669291338
 20
-0.4879685039370079
 30
0.0
 10
1.5049645669291338
 20
-0.4879685039370079
 30
0.0
 10
1.5049645669291338
 20
-0.4879685039370079
 30
0.0
 10
1.4987204724409449
 20
-0.4796338582677165
 30
0.0
 10
1.4987204724409449
 20
-0.4796338582677165
 30
0.0
  0
SPLINE
  5
33
100
AcDbEntity
  8
P1-Layer 1
 62
     9
100
AcDbSpline
210
0.0
220
0.0
230
1.0
 70
     1
 71
     3
 72
    44
 73
    40
 74
     0
 42
0.0000000001
 43
0.0000000001
 40
0.0
 40
0.0
 40
0.0
 40
0.0
 40
0.1
 40
0.1
 40
0.1
 40
0.1
 40
0.2
 40
0.2
 40
0.2
 40
0.2
 40
0.3
 40
0.3
 40
0.3
 40
0.3
 40
0.4
 40
0.4
 40
0.4
 40
0.4
 40
0.5
 40
0.5
 40
0.5
 40
0.5
 40
0.6
 40
0.6
 40
0.6
 40
0.6
 40
0.7
 40
0.7
 40
0.7
 40
0.7
 40
0.7999999999999999
 40
0.7999999999999999
 40
0.7999999999999999
 40
0.7999999999999999
 40
0.8999999999999999
 40
0.8999999999999999
 40
0.8999999999999999
 40
0.8999999999999999
 40
1.0
 40
1.0
 40
1.0
 40
1.0
 10
1.5193464566929133
 20
-0.5159409448818898
 30
0.0
 10
1.5193464566929133
 20
-0.5159409448818898
 30
0.0
 10
2.1564251968503938
 20
-0.1397677165354331
 30
0.0
 10
2.1564251968503938
 20
-0.1397677165354331
 30
0.0
 10
2.1564251968503938
 20
-0.1397677165354331
 30
0.0
 10
2.1564251968503938
 20
-0.1397677165354331
 30
0.0
 10
2.1596259842519685
 20
-0.1499291338582677
 30
0.0
 10
2.1596259842519685
 20
-0.1499291338582677
 30
0.0
 10
2.1596259842519685
 20
-0.1499291338582677
 30
0.0
 10
2.1596259842519685
 20
-0.1499291338582677
 30
0.0
 10
2.1619645669291341
 20
-0.1604527559055118
 30
0.0
 10
2.1619645669291341
 20
-0.1604527559055118
 30
0.0
 10
2.1619645669291341
 20
-0.1604527559055118
 30
0.0
 10
2.1619645669291341
 20
-0.1604527559055118
 30
0.0
 10
2.1633976377952755
 20
-0.1712834645669291
 30
0.0
 10
2.1633976377952755
 20
-0.1712834645669291
 30
0.0
 10
2.1633976377952755
 20
-0.1712834645669291
 30
0.0
 10
2.1633976377952755
 20
-0.1712834645669291
 30
0.0
 10
2.1638897637795278
 20
-0.1823897637795276
 30
0.0
 10
2.1638897637795278
 20
-0.1823897637795276
 30
0.0
 10
2.1638897637795278
 20
-0.1823897637795276
 30
0.0
 10
2.1638897637795278
 20
-0.1823897637795276
 30
0.0
 10
1.5268110236220473
 20
-0.5585629921259843
 30
0.0
 10
1.5268110236220473
 20
-0.5585629921259843
 30
0.0
 10
1.5268110236220473
 20
-0.5585629921259843
 30
0.0
 10
1.5268110236220473
 20
-0.5585629921259843
 30
0.0
 10
1.5263188976377953
 20
-0.5474566929133858
 30
0.0
 10
1.5263188976377953
 20
-0.5474566929133858
 30
0.0
 10
1.5263188976377953
 20
-0.5474566929133858
 30
0.0
 10
1.5263188976377953
 20
-0.5474566929133858
 30
0.0
 10
1.5248858267716536
 20
-0.5366259842519685
 30
0.0
 10
1.5248858267716536
 20
-0.5366259842519685
 30
0.0
 10
1.5248858267716536
 20
-0.5366259842519685
 30
0.0
 10
1.5248858267716536
 20
-0.5366259842519685
 30
0.0
 10
1.5225472440944883
 20
-0.5261023622047244
 30
0.0
 10
1.5225472440944883
 20
-0.5261023622047244
 30
0.0
 10
1.5225472440944883
 20
-0.5261023622047244
 30
0.0
 10
1.5225472440944883
 20
-0.5261023622047244
 30
0.0
 10
1.5193464566929133
 20
-0.5159409448818898
 30
0.0
 10
1.5193464566929133
 20
-0.5159409448818898
 30
0.0
  0
SPLINE
  5
34
100
AcDbEntity
  8
P1-Layer 1
370
     5
100
AcDbSpline
210
0.0
220
0.0
230
1.0
 70
     1
 71
     3
 72
   140
 73
   136
 74
     0
 42
0.0000000001
 43
0.0000000001
 40
0.0
 40
0.0
 40
0.0
 40
0.0
 40
0.0294117647058824
 40
0.0294117647058824
 40
0.0294117647058824
 40
0.0294117647058824
 40
0.0588235294117647
 40
0.0588235294117647
 40
0.0588235294117647
 40
0.0588235294117647
 40
0.0882352941176471
 40
0.0882352941176471
 40
0.0882352941176471
 40
0.0882352941176471
 40
0.1176470588235294
 40
0.1176470588235294
 40
0.1176470588235294
 40
0.1176470588235294
 40
0.1470588235294118
 40
0.1470588235294118
 40
0.1470588235294118
 40
0.1470588235294118
 40
0.1764705882352941
 40
0.1764705882352941
 40
0.1764705882352941
 40
0.1764705882352941
 40
0.2058823529411765
 40
0.2058823529411765
 40
0.2058823529411765
 40
0.2058823529411765
 40
0.2352941176470589
 40
0.2352941176470589
 40
0.2352941176470589
 40
0.2352941176470589
 40
0.2647058823529412
 40
0.2647058823529412
 40
0.2647058823529412
 40
0.2647058823529412
 40
0.2941176470588235
 40
0.2941176470588235
 40
0.2941176470588235
 40
0.2941176470588235
 40
0.3235294117647059
 40
0.3235294117647059
 40
0.3235294117647059
 40
0.3235294117647059
 40
0.3529411764705883
 40
0.3529411764705883
 40
0.3529411764705883
 40
0.3529411764705883
 40
0.3823529411764706
 40
0.3823529411764706
 40
0.3823529411764706
 40
0.3823529411764706
 40
0.411764705882353
 40
0.411764705882353
 40
0.411764705882353
 40
0.411764705882353
 40
0.4411764705882353
 40
0.4411764705882353
 40
0.4411764705882353
 40
0.4411764705882353
 40
0.4705882352941177
 40
0.4705882352941177
 40
0.4705882352941177
 40
0.4705882352941177
 40
0.5
 40
0.5
 40
0.5
 40
0.5
 40
0.5294117647058824
 40
0.5294117647058824
 40
0.5294117647058824
 40
0.5294117647058824
 40
0.5588235294117647
 40
0.5588235294117647
 40
0.5588235294117647
 40
0.5588235294117647
 40
0.5882352941176471
 40
0.5882352941176471
 40
0.5882352941176471
 40
0.5882352941176471
 40
0.6176470588235294
 40
0.6176470588235294
 40
0.6176470588235294
 40
0.6176470588235294
 40
0.6470588235294118
 40
0.6470588235294118
 40
0.6470588235294118
 40
0.6470588235294118
 40
0.6764705882352942
 40
0.6764705882352942
 40
0.6764705882352942
 40
0.6764705882352942
 40
0.7058823529411765
 40
0.7058823529411765
 40
0.7058823529411765
 40
0.7058823529411765
 40
0.7352941176470589
 40
0.7352941176470589
 40
0.7352941176470589
 40
0.7352941176470589
 40
0.7647058823529412
 40
0.7647058823529412
 40
0.7647058823529412
 40
0.7647058823529412
 40
0.7941176470588236
 40
0.7941176470588236
 40
0.7941176470588236
 40
0.7941176470588236
 40
0.823529411764706
 40
0.823529411764706
 40
0.823529411764706
 40
0.823529411764706
 40
0.8529411764705883
 40
0.8529411764705883
 40
0.8529411764705883
 40
0.8529411764705883
 40
0.8823529411764707
 40
0.8823529411764707
 40
0.8823529411764707
 40
0.8823529411764707
 40
0.911764705882353
 40
0.911764705882353
 40
0.911764705882353
 40
0.911764705882353
 40
0.9411764705882354
 40
0.9411764705882354
 40
0.9411764705882354
 40
0.9411764705882354
 40
0.9705882352941178
 40
0.9705882352941178
 40
0.9705882352941178
 40
0.9705882352941178
 40
1.0
 40
1.0
 40
1.0
 40
1.0
 10
1.4284724409448819
 20
-0.4364212598425197
 30
0.0
 10
1.4284724409448819
 20
-0.4364212598425197
 30
0.0
 10
2.0655511811023621
 20
-0.060248031496063
 30
0.0
 10
2.0655511811023621
 20
-0.060248031496063
 30
0.0
 10
2.0655511811023621
 20
-0.060248031496063
 30
0.0
 10
2.0655511811023621
 20
-0.060248031496063
 30
0.0
 10
2.0759173228346457
 20
-0.0629724409448819
 30
0.0
 10
2.0759173228346457
 20
-0.0629724409448819
 30
0.0
 10
2.0759173228346457
 20
-0.0629724409448819
 30
0.0
 10
2.0759173228346457
 20
-0.0629724409448819
 30
0.0
 10
2.0859173228346459
 20
-0.0665511811023622
 30
0.0
 10
2.0859173228346459
 20
-0.0665511811023622
 30
0.0
 10
2.0859173228346459
 20
-0.0665511811023622
 30
0.0
 10
2.0859173228346459
 20
-0.0665511811023622
 30
0.0
 10
2.095496062992126
 20
-0.0709291338582677
 30
0.0
 10
2.095496062992126
 20
-0.0709291338582677
 30
0.0
 10
2.095496062992126
 20
-0.0709291338582677
 30
0.0
 10
2.095496062992126
 20
-0.0709291338582677
 30
0.0
 10
2.1046299212598427
 20
-0.0760748031496063
 30
0.0
 10
2.1046299212598427
 20
-0.0760748031496063
 30
0.0
 10
2.1046299212598427
 20
-0.0760748031496063
 30
0.0
 10
2.1046299212598427
 20
-0.0760748031496063
 30
0.0
 10
2.1132637795275593
 20
-0.0819370078740158
 30
0.0
 10
2.1132637795275593
 20
-0.0819370078740158
 30
0.0
 10
2.1132637795275593
 20
-0.0819370078740158
 30
0.0
 10
2.1132637795275593
 20
-0.0819370078740158
 30
0.0
 10
2.1213661417322833
 20
-0.0884842519685039
 30
0.0
 10
2.1213661417322833
 20
-0.0884842519685039
 30
0.0
 10
2.1213661417322833
 20
-0.0884842519685039
 30
0.0
 10
2.1213661417322833
 20
-0.0884842519685039
 30
0.0
 10
2.1288858267716537
 20
-0.0956692913385827
 30
0.0
 10
2.1288858267716537
 20
-0.0956692913385827
 30
0.0
 10
2.1288858267716537
 20
-0.0956692913385827
 30
0.0
 10
2.1288858267716537
 20
-0.0956692913385827
 30
0.0
 10
2.1357992125984251
 20
-0.1034606299212598
 30
0.0
 10
2.1357992125984251
 20
-0.1034606299212598
 30
0.0
 10
2.1357992125984251
 20
-0.1034606299212598
 30
0.0
 10
2.1357992125984251
 20
-0.1034606299212598
 30
0.0
 10
2.1420433070866141
 20
-0.1117952755905512
 30
0.0
 10
2.1420433070866141
 20
-0.1117952755905512
 30
0.0
 10
2.1420433070866141
 20
-0.1117952755905512
 30
0.0
 10
2.1420433070866141
 20
-0.1117952755905512
 30
0.0
 10
2.1475905511811026
 20
-0.1206574803149606
 30
0.0
 10
2.1475905511811026
 20
-0.1206574803149606
 30
0.0
 10
2.1475905511811026
 20
-0.1206574803149606
 30
0.0
 10
2.1475905511811026
 20
-0.1206574803149606
 30
0.0
 10
2.1523937007874014
 20
-0.129992125984252
 30
0.0
 10
2.1523937007874014
 20
-0.129992125984252
 30
0.0
 10
2.1523937007874014
 20
-0.129992125984252
 30
0.0
 10
2.1523937007874014
 20
-0.129992125984252
 30
0.0
 10
2.1564251968503938
 20
-0.1397677165354331
 30
0.0
 10
2.1564251968503938
 20
-0.1397677165354331
 30
0.0
 10
2.1564251968503938
 20
-0.1397677165354331
 30
0.0
 10
2.1564251968503938
 20
-0.1397677165354331
 30
0.0
 10
2.1596259842519685
 20
-0.1499291338582677
 30
0.0
 10
2.1596259842519685
 20
-0.1499291338582677
 30
0.0
 10
2.1596259842519685
 20
-0.1499291338582677
 30
0.0
 10
2.1596259842519685
 20
-0.1499291338582677
 30
0.0
 10
2.1619645669291341
 20
-0.1604527559055118
 30
0.0
 10
2.1619645669291341
 20
-0.1604527559055118
 30
0.0
 10
2.1619645669291341
 20
-0.1604527559055118
 30
0.0
 10
2.1619645669291341
 20
-0.1604527559055118
 30
0.0
 10
2.1633976377952755
 20
-0.1712834645669291
 30
0.0
 10
2.1633976377952755
 20
-0.1712834645669291
 30
0.0
 10
2.1633976377952755
 20
-0.1712834645669291
 30
0.0
 10
2.1633976377952755
 20
-0.1712834645669291
 30
0.0
 10
2.1638897637795278
 20
-0.1823897637795276
 30
0.0
 10
2.1638897637795278
 20
-0.1823897637795276
 30
0.0
 10
2.1638897637795278
 20
-0.1823897637795276
 30
0.0
 10
2.1638897637795278
 20
-0.1823897637795276
 30
0.0
 10
1.5268110236220473
 20
-0.5585629921259843
 30
0.0
 10
1.5268110236220473
 20
-0.5585629921259843
 30
0.0
 10
1.5268110236220473
 20
-0.5585629921259843
 30
0.0
 10
1.5268110236220473
 20
-0.5585629921259843
 30
0.0
 10
1.5263188976377953
 20
-0.5474566929133858
 30
0.0
 10
1.5263188976377953
 20
-0.5474566929133858
 30
0.0
 10
1.5263188976377953
 20
-0.5474566929133858
 30
0.0
 10
1.5263188976377953
 20
-0.5474566929133858
 30
0.0
 10
1.5248858267716536
 20
-0.5366259842519685
 30
0.0
 10
1.5248858267716536
 20
-0.5366259842519685
 30
0.0
 10
1.5248858267716536
 20
-0.5366259842519685
 30
0.0
 10
1.5248858267716536
 20
-0.5366259842519685
 30
0.0
 10
1.5225472440944883
 20
-0.5261023622047244
 30
0.0
 10
1.5225472440944883
 20
-0.5261023622047244
 30
0.0
 10
1.5225472440944883
 20
-0.5261023622047244
 30
0.0
 10
1.5225472440944883
 20
-0.5261023622047244
 30
0.0
 10
1.5193464566929133
 20
-0.5159409448818898
 30
0.0
 10
1.5193464566929133
 20
-0.5159409448818898
 30
0.0
 10
1.5193464566929133
 20
-0.5159409448818898
 30
0.0
 10
1.5193464566929133
 20
-0.5159409448818898
 30
0.0
 10
1.5153149606299212
 20
-0.5061653543307086
 30
0.0
 10
1.5153149606299212
 20
-0.5061653543307086
 30
0.0
 10
1.5153149606299212
 20
-0.5061653543307086
 30
0.0
 10
1.5153149606299212
 20
-0.5061653543307086
 30
0.0
 10
1.5105118110236222
 20
-0.4968307086614173
 30
0.0
 10
1.5105118110236222
 20
-0.4968307086614173
 30
0.0
 10
1.5105118110236222
 20
-0.4968307086614173
 30
0.0
 10
1.5105118110236222
 20
-0.4968307086614173
 30
0.0
 10
1.5049645669291338
 20
-0.4879685039370079
 30
0.0
 10
1.5049645669291338
 20
-0.4879685039370079
 30
0.0
 10
1.5049645669291338
 20
-0.4879685039370079
 30
0.0
 10
1.5049645669291338
 20
-0.4879685039370079
 30
0.0
 10
1.4987204724409449
 20
-0.4796338582677165
 30
0.0
 10
1.4987204724409449
 20
-0.4796338582677165
 30
0.0
 10
1.4987204724409449
 20
-0.4796338582677165
 30
0.0
 10
1.4987204724409449
 20
-0.4796338582677165
 30
0.0
 10
1.4918070866141733
 20
-0.4718425196850394
 30
0.0
 10
1.4918070866141733
 20
-0.4718425196850394
 30
0.0
 10
1.4918070866141733
 20
-0.4718425196850394
 30
0.0
 10
1.4918070866141733
 20
-0.4718425196850394
 30
0.0
 10
1.4842874015748031
 20
-0.4646574803149606
 30
0.0
 10
1.4842874015748031
 20
-0.4646574803149606
 30
0.0
 10
1.4842874015748031
 20
-0.4646574803149606
 30
0.0
 10
1.4842874015748031
 20
-0.4646574803149606
 30
0.0
 10
1.4761850393700788
 20
-0.4581102362204725
 30
0.0
 10
1.4761850393700788
 20
-0.4581102362204725
 30
0.0
 10
1.4761850393700788
 20
-0.4581102362204725
 30
0.0
 10
1.4761850393700788
 20
-0.4581102362204725
 30
0.0
 10
1.4675511811023623
 20
-0.452248031496063
 30
0.0
 10
1.4675511811023623
 20
-0.452248031496063
 30
0.0
 10
1.4675511811023623
 20
-0.452248031496063
 30
0.0
 10
1.4675511811023623
 20
-0.452248031496063
 30
0.0
 10
1.4584173228346458
 20
-0.4471023622047244
 30
0.0
 10
1.4584173228346458
 20
-0.4471023622047244
 30
0.0
 10
1.4584173228346458
 20
-0.4471023622047244
 30
0.0
 10
1.4584173228346458
 20
-0.4471023622047244
 30
0.0
 10
1.4488385826771655
 20
-0.4427244094488189
 30
0.0
 10
1.4488385826771655
 20
-0.4427244094488189
 30
0.0
 10
1.4488385826771655
 20
-0.4427244094488189
 30
0.0
 10
1.4488385826771655
 20
-0.4427244094488189
 30
0.0
 10
1.4388385826771655
 20
-0.4391456692913386
 30
0.0
 10
1.4388385826771655
 20
-0.4391456692913386
 30
0.0
 10
1.4388385826771655
 20
-0.4391456692913386
 30
0.0
 10
1.4388385826771655
 20
-0.4391456692913386
 30
0.0
 10
1.4284724409448819
 20
-0.4364212598425197
 30
0.0
 10
1.4284724409448819
 20
-0.4364212598425197
 30
0.0
  0
SPLINE
  5
35
100
AcDbEntity
  8
P1-Layer 1
 62
     9
100
AcDbSpline
210
0.0
220
0.0
230
1.0
 70
     1
 71
     3
 72
    60
 73
    56
 74
     0
 42
0.0000000001
 43
0.0000000001
 40
0.0
 40
0.0
 40
0.0
 40
0.0
 40
0.0714285714285714
 40
0.0714285714285714
 40
0.0714285714285714
 40
0.0714285714285714
 40
0.1428571428571429
 40
0.1428571428571429
 40
0.1428571428571429
 40
0.1428571428571429
 40
0.2142857142857143
 40
0.2142857142857143
 40
0.2142857142857143
 40
0.2142857142857143
 40
0.2857142857142857
 40
0.2857142857142857
 40
0.2857142857142857
 40
0.2857142857142857
 40
0.3571428571428571
 40
0.3571428571428571
 40
0.3571428571428571
 40
0.3571428571428571
 40
0.4285714285714285
 40
0.4285714285714285
 40
0.4285714285714285
 40
0.4285714285714285
 40
0.4999999999999999
 40
0.4999999999999999
 40
0.4999999999999999
 40
0.4999999999999999
 40
0.5714285714285713
 40
0.5714285714285713
 40
0.5714285714285713
 40
0.5714285714285713
 40
0.6428571428571427
 40
0.6428571428571427
 40
0.6428571428571427
 40
0.6428571428571427
 40
0.7142857142857141
 40
0.7142857142857141
 40
0.7142857142857141
 40
0.7142857142857141
 40
0.7857142857142855
 40
0.7857142857142855
 40
0.7857142857142855
 40
0.7857142857142855
 40
0.8571428571428569
 40
0.8571428571428569
 40
0.8571428571428569
 40
0.8571428571428569
 40
0.9285714285714283
 40
0.9285714285714283
 40
0.9285714285714283
 40
0.9285714285714283
 40
1.0
 40
1.0
 40
1.0
 40
1.0
 10
0.9416811023622048
 20
-2.3232559055118109
 30
0.0
 10
0.9416811023622048
 20
-2.3232559055118109
 30
0.0
 10
1.5787598425196852
 20
-1.9470826771653544
 30
0.0
 10
1.5787598425196852
 20
-1.9470826771653544
 30
0.0
 10
1.5787598425196852
 20
-1.9470826771653544
 30
0.0
 10
1.5787598425196852
 20
-1.9470826771653544
 30
0.0
 10
1.5726377952755906
 20
-1.9514291338582679
 30
0.0
 10
1.5726377952755906
 20
-1.9514291338582679
 30
0.0
 10
1.5726377952755906
 20
-1.9514291338582679
 30
0.0
 10
1.5726377952755906
 20
-1.9514291338582679
 30
0.0
 10
1.566744094488189
 20
-1.9560629921259842
 30
0.0
 10
1.566744094488189
 20
-1.9560629921259842
 30
0.0
 10
1.566744094488189
 20
-1.9560629921259842
 30
0.0
 10
1.566744094488189
 20
-1.9560629921259842
 30
0.0
 10
1.5610787401574804
 20
-1.960964566929134
 30
0.0
 10
1.5610787401574804
 20
-1.960964566929134
 30
0.0
 10
1.5610787401574804
 20
-1.960964566929134
 30
0.0
 10
1.5610787401574804
 20
-1.960964566929134
 30
0.0
 10
1.5556653543307086
 20
-1.9661377952755905
 30
0.0
 10
1.5556653543307086
 20
-1.9661377952755905
 30
0.0
 10
1.5556653543307086
 20
-1.9661377952755905
 30
0.0
 10
1.5556653543307086
 20
-1.9661377952755905
 30
0.0
 10
1.5504921259842521
 20
-1.9715511811023623
 30
0.0
 10
1.5504921259842521
 20
-1.9715511811023623
 30
0.0
 10
1.5504921259842521
 20
-1.9715511811023623
 30
0.0
 10
1.5504921259842521
 20
-1.9715511811023623
 30
0.0
 10
1.5455866141732284
 20
-1.977208661417323
 30
0.0
 10
1.5455866141732284
 20
-1.977208661417323
 30
0.0
 10
1.5455866141732284
 20
-1.977208661417323
 30
0.0
 10
1.5455866141732284
 20
-1.977208661417323
 30
0.0
 10
0.9085078740157481
 20
-2.3533818897637797
 30
0.0
 10
0.9085078740157481
 20
-2.3533818897637797
 30
0.0
 10
0.9085078740157481
 20
-2.3533818897637797
 30
0.0
 10
0.9085078740157481
 20
-2.3533818897637797
 30
0.0
 10
0.9134133858267717
 20
-2.3477244094488188
 30
0.0
 10
0.9134133858267717
 20
-2.3477244094488188
 30
0.0
 10
0.9134133858267717
 20
-2.3477244094488188
 30
0.0
 10
0.9134133858267717
 20
-2.3477244094488188
 30
0.0
 10
0.9185866141732284
 20
-2.3423110236220475
 30
0.0
 10
0.9185866141732284
 20
-2.3423110236220475
 30
0.0
 10
0.9185866141732284
 20
-2.3423110236220475
 30
0.0
 10
0.9185866141732284
 20
-2.3423110236220475
 30
0.0
 10
0.924
 20
-2.3371377952755905
 30
0.0
 10
0.924
 20
-2.3371377952755905
 30
0.0
 10
0.924
 20
-2.3371377952755905
 30
0.0
 10
0.924
 20
-2.3371377952755905
 30
0.0
 10
0.9296653543307087
 20
-2.3322362204724412
 30
0.0
 10
0.9296653543307087
 20
-2.3322362204724412
 30
0.0
 10
0.9296653543307087
 20
-2.3322362204724412
 30
0.0
 10
0.9296653543307087
 20
-2.3322362204724412
 30
0.0
 10
0.9355590551181102
 20
-2.3276023622047246
 30
0.0
 10
0.9355590551181102
 20
-2.3276023622047246
 30
0.0
 10
0.9355590551181102
 20
-2.3276023622047246
 30
0.0
 10
0.9355590551181102
 20
-2.3276023622047246
 30
0.0
 10
0.9416811023622048
 20
-2.3232559055118109
 30
0.0
 10
0.9416811023622048
 20
-2.3232559055118109
 30
0.0
  0
SPLINE
  5
36
100
AcDbEntity
  8
P1-Layer 1
 62
     9
100
AcDbSpline
210
0.0
220
0.0
230
1.0
 70
     1
 71
     3
 72
    60
 73
    56
 74
     0
 42
0.0000000001
 43
0.0000000001
 40
0.0
 40
0.0
 40
0.0
 40
0.0
 40
0.0714285714285714
 40
0.0714285714285714
 40
0.0714285714285714
 40
0.0714285714285714
 40
0.1428571428571429
 40
0.1428571428571429
 40
0.1428571428571429
 40
0.1428571428571429
 40
0.2142857142857143
 40
0.2142857142857143
 40
0.2142857142857143
 40
0.2142857142857143
 40
0.2857142857142857
 40
0.2857142857142857
 40
0.2857142857142857
 40
0.2857142857142857
 40
0.3571428571428571
 40
0.3571428571428571
 40
0.3571428571428571
 40
0.3571428571428571
 40
0.4285714285714285
 40
0.4285714285714285
 40
0.4285714285714285
 40
0.4285714285714285
 40
0.4999999999999999
 40
0.4999999999999999
 40
0.4999999999999999
 40
0.4999999999999999
 40
0.5714285714285713
 40
0.5714285714285713
 40
0.5714285714285713
 40
0.5714285714285713
 40
0.6428571428571427
 40
0.6428571428571427
 40
0.6428571428571427
 40
0.6428571428571427
 40
0.7142857142857141
 40
0.7142857142857141
 40
0.7142857142857141
 40
0.7142857142857141
 40
0.7857142857142855
 40
0.7857142857142855
 40
0.7857142857142855
 40
0.7857142857142855
 40
0.8571428571428569
 40
0.8571428571428569
 40
0.8571428571428569
 40
0.8571428571428569
 40
0.9285714285714283
 40
0.9285714285714283
 40
0.9285714285714283
 40
0.9285714285714283
 40
1.0
 40
1.0
 40
1.0
 40
1.0
 10
0.9085078740157481
 20
-2.3533818897637797
 30
0.0
 10
0.9085078740157481
 20
-2.3533818897637797
 30
0.0
 10
1.5455866141732284
 20
-1.977208661417323
 30
0.0
 10
1.5455866141732284
 20
-1.977208661417323
 30
0.0
 10
1.5455866141732284
 20
-1.977208661417323
 30
0.0
 10
1.5455866141732284
 20
-1.977208661417323
 30
0.0
 10
1.5409488188976379
 20
-1.9831023622047246
 30
0.0
 10
1.5409488188976379
 20
-1.9831023622047246
 30
0.0
 10
1.5409488188976379
 20
-1.9831023622047246
 30
0.0
 10
1.5409488188976379
 20
-1.9831023622047246
 30
0.0
 10
1.5366023622047245
 20
-1.989220472440945
 30
0.0
 10
1.5366023622047245
 20
-1.989220472440945
 30
0.0
 10
1.5366023622047245
 20
-1.989220472440945
 30
0.0
 10
1.5366023622047245
 20
-1.989220472440945
 30
0.0
 10
1.5325354330708663
 20
-1.9955472440944884
 30
0.0
 10
1.5325354330708663
 20
-1.9955472440944884
 30
0.0
 10
1.5325354330708663
 20
-1.9955472440944884
 30
0.0
 10
1.5325354330708663
 20
-1.9955472440944884
 30
0.0
 10
1.5287795275590552
 20
-2.0020826771653546
 30
0.0
 10
1.5287795275590552
 20
-2.0020826771653546
 30
0.0
 10
1.5287795275590552
 20
-2.0020826771653546
 30
0.0
 10
1.5287795275590552
 20
-2.0020826771653546
 30
0.0
 10
1.5253307086614174
 20
-2.0088070866141732
 30
0.0
 10
1.5253307086614174
 20
-2.0088070866141732
 30
0.0
 10
1.5253307086614174
 20
-2.0088070866141732
 30
0.0
 10
1.5253307086614174
 20
-2.0088070866141732
 30
0.0
 10
1.5222125984251969
 20
-2.015720472440945
 30
0.0
 10
1.5222125984251969
 20
-2.015720472440945
 30
0.0
 10
1.5222125984251969
 20
-2.015720472440945
 30
0.0
 10
1.5222125984251969
 20
-2.015720472440945
 30
0.0
 10
0.8851338582677166
 20
-2.3918937007874015
 30
0.0
 10
0.8851338582677166
 20
-2.3918937007874015
 30
0.0
 10
0.8851338582677166
 20
-2.3918937007874015
 30
0.0
 10
0.8851338582677166
 20
-2.3918937007874015
 30
0.0
 10
0.8882519685039371
 20
-2.3849803149606301
 30
0.0
 10
0.8882519685039371
 20
-2.3849803149606301
 30
0.0
 10
0.8882519685039371
 20
-2.3849803149606301
 30
0.0
 10
0.8882519685039371
 20
-2.3849803149606301
 30
0.0
 10
0.8917007874015749
 20
-2.3782559055118111
 30
0.0
 10
0.8917007874015749
 20
-2.3782559055118111
 30
0.0
 10
0.8917007874015749
 20
-2.3782559055118111
 30
0.0
 10
0.8917007874015749
 20
-2.3782559055118111
 30
0.0
 10
0.8954566929133858
 20
-2.3717204724409449
 30
0.0
 10
0.8954566929133858
 20
-2.3717204724409449
 30
0.0
 10
0.8954566929133858
 20
-2.3717204724409449
 30
0.0
 10
0.8954566929133858
 20
-2.3717204724409449
 30
0.0
 10
0.8995236220472441
 20
-2.3653937007874015
 30
0.0
 10
0.8995236220472441
 20
-2.3653937007874015
 30
0.0
 10
0.8995236220472441
 20
-2.3653937007874015
 30
0.0
 10
0.8995236220472441
 20
-2.3653937007874015
 30
0.0
 10
0.9038700787401576
 20
-2.3592755905511811
 30
0.0
 10
0.9038700787401576
 20
-2.3592755905511811
 30
0.0
 10
0.9038700787401576
 20
-2.3592755905511811
 30
0.0
 10
0.9038700787401576
 20
-2.3592755905511811
 30
0.0
 10
0.9085078740157481
 20
-2.3533818897637797
 30
0.0
 10
0.9085078740157481
 20
-2.3533818897637797
 30
0.0
  0
SPLINE
  5
37
100
AcDbEntity
  8
P1-Layer 1
 62
     9
100
AcDbSpline
210
0.0
220
0.0
230
1.0
 70
     1
 71
     3
 72
    60
 73
    56
 74
     0
 42
0.0000000001
 43
0.0000000001
 40
0.0
 40
0.0
 40
0.0
 40
0.0
 40
0.0714285714285714
 40
0.0714285714285714
 40
0.0714285714285714
 40
0.0714285714285714
 40
0.1428571428571429
 40
0.1428571428571429
 40
0.1428571428571429
 40
0.1428571428571429
 40
0.2142857142857143
 40
0.2142857142857143
 40
0.2142857142857143
 40
0.2142857142857143
 40
0.2857142857142857
 40
0.2857142857142857
 40
0.2857142857142857
 40
0.2857142857142857
 40
0.3571428571428571
 40
0.3571428571428571
 40
0.3571428571428571
 40
0.3571428571428571
 40
0.4285714285714285
 40
0.4285714285714285
 40
0.4285714285714285
 40
0.4285714285714285
 40
0.4999999999999999
 40
0.4999999999999999
 40
0.4999999999999999
 40
0.4999999999999999
 40
0.5714285714285713
 40
0.5714285714285713
 40
0.5714285714285713
 40
0.5714285714285713
 40
0.6428571428571427
 40
0.6428571428571427
 40
0.6428571428571427
 40
0.6428571428571427
 40
0.7142857142857141
 40
0.7142857142857141
 40
0.7142857142857141
 40
0.7142857142857141
 40
0.7857142857142855
 40
0.7857142857142855
 40
0.7857142857142855
 40
0.7857142857142855
 40
0.8571428571428569
 40
0.8571428571428569
 40
0.8571428571428569
 40
0.8571428571428569
 40
0.9285714285714283
 40
0.9285714285714283
 40
0.9285714285714283
 40
0.9285714285714283
 40
1.0
 40
1.0
 40
1.0
 40
1.0
 10
0.8851338582677166
 20
-2.3918937007874015
 30
0.0
 10
0.8851338582677166
 20
-2.3918937007874015
 30
0.0
 10
1.5222125984251969
 20
-2.015720472440945
 30
0.0
 10
1.5222125984251969
 20
-2.015720472440945
 30
0.0
 10
1.5222125984251969
 20
-2.015720472440945
 30
0.0
 10
1.5222125984251969
 20
-2.015720472440945
 30
0.0
 10
1.5194133858267718
 20
-2.0227992125984251
 30
0.0
 10
1.5194133858267718
 20
-2.0227992125984251
 30
0.0
 10
1.5194133858267718
 20
-2.0227992125984251
 30
0.0
 10
1.5194133858267718
 20
-2.0227992125984251
 30
0.0
 10
1.5169606299212599
 20
-2.0300472440944883
 30
0.0
 10
1.5169606299212599
 20
-2.0300472440944883
 30
0.0
 10
1.5169606299212599
 20
-2.0300472440944883
 30
0.0
 10
1.5169606299212599
 20
-2.0300472440944883
 30
0.0
 10
1.5148582677165354
 20
-2.0374488188976381
 30
0.0
 10
1.5148582677165354
 20
-2.0374488188976381
 30
0.0
 10
1.5148582677165354
 20
-2.0374488188976381
 30
0.0
 10
1.5148582677165354
 20
-2.0374488188976381
 30
0.0
 10
1.5131181102362206
 20
-2.0449999999999999
 30
0.0
 10
1.5131181102362206
 20
-2.0449999999999999
 30
0.0
 10
1.5131181102362206
 20
-2.0449999999999999
 30
0.0
 10
1.5131181102362206
 20
-2.0449999999999999
 30
0.0
 10
1.5117401574803151
 20
-2.0526811023622047
 30
0.0
 10
1.5117401574803151
 20
-2.0526811023622047
 30
0.0
 10
1.5117401574803151
 20
-2.0526811023622047
 30
0.0
 10
1.5117401574803151
 20
-2.0526811023622047
 30
0.0
 10
1.510751968503937
 20
-2.060488188976378
 30
0.0
 10
1.510751968503937
 20
-2.060488188976378
 30
0.0
 10
1.510751968503937
 20
-2.060488188976378
 30
0.0
 10
1.510751968503937
 20
-2.060488188976378
 30
0.0
 10
0.8736732283464568
 20
-2.4366614173228349
 30
0.0
 10
0.8736732283464568
 20
-2.4366614173228349
 30
0.0
 10
0.8736732283464568
 20
-2.4366614173228349
 30
0.0
 10
0.8736732283464568
 20
-2.4366614173228349
 30
0.0
 10
0.8746614173228346
 20
-2.4288543307086616
 30
0.0
 10
0.8746614173228346
 20
-2.4288543307086616
 30
0.0
 10
0.8746614173228346
 20
-2.4288543307086616
 30
0.0
 10
0.8746614173228346
 20
-2.4288543307086616
 30
0.0
 10
0.8760393700787402
 20
-2.4211732283464569
 30
0.0
 10
0.8760393700787402
 20
-2.4211732283464569
 30
0.0
 10
0.8760393700787402
 20
-2.4211732283464569
 30
0.0
 10
0.8760393700787402
 20
-2.4211732283464569
 30
0.0
 10
0.8777795275590552
 20
-2.4136220472440946
 30
0.0
 10
0.8777795275590552
 20
-2.4136220472440946
 30
0.0
 10
0.8777795275590552
 20
-2.4136220472440946
 30
0.0
 10
0.8777795275590552
 20
-2.4136220472440946
 30
0.0
 10
0.8798818897637796
 20
-2.4062204724409448
 30
0.0
 10
0.8798818897637796
 20
-2.4062204724409448
 30
0.0
 10
0.8798818897637796
 20
-2.4062204724409448
 30
0.0
 10
0.8798818897637796
 20
-2.4062204724409448
 30
0.0
 10
0.8823346456692913
 20
-2.398972440944882
 30
0.0
 10
0.8823346456692913
 20
-2.398972440944882
 30
0.0
 10
0.8823346456692913
 20
-2.398972440944882
 30
0.0
 10
0.8823346456692913
 20
-2.398972440944882
 30
0.0
 10
0.8851338582677166
 20
-2.3918937007874015
 30
0.0
 10
0.8851338582677166
 20
-2.3918937007874015
 30
0.0
  0
SPLINE
  5
38
100
AcDbEntity
  8
P1-Layer 1
 62
     9
100
AcDbSpline
210
0.0
220
0.0
230
1.0
 70
     1
 71
     3
 72
    28
 73
    24
 74
     0
 42
0.0000000001
 43
0.0000000001
 40
0.0
 40
0.0
 40
0.0
 40
0.0
 40
0.1666666666666667
 40
0.1666666666666667
 40
0.1666666666666667
 40
0.1666666666666667
 40
0.3333333333333333
 40
0.3333333333333333
 40
0.3333333333333333
 40
0.3333333333333333
 40
0.5
 40
0.5
 40
0.5
 40
0.5
 40
0.6666666666666666
 40
0.6666666666666666
 40
0.6666666666666666
 40
0.6666666666666666
 40
0.8333333333333333
 40
0.8333333333333333
 40
0.8333333333333333
 40
0.8333333333333333
 40
1.0
 40
1.0
 40
1.0
 40
1.0
 10
0.8736732283464568
 20
-2.4366614173228349
 30
0.0
 10
0.8736732283464568
 20
-2.4366614173228349
 30
0.0
 10
1.510751968503937
 20
-2.060488188976378
 30
0.0
 10
1.510751968503937
 20
-2.060488188976378
 30
0.0
 10
1.510751968503937
 20
-2.060488188976378
 30
0.0
 10
1.510751968503937
 20
-2.060488188976378
 30
0.0
 10
1.5101496062992126
 20
-2.0684094488188975
 30
0.0
 10
1.5101496062992126
 20
-2.0684094488188975
 30
0.0
 10
1.5101496062992126
 20
-2.0684094488188975
 30
0.0
 10
1.5101496062992126
 20
-2.0684094488188975
 30
0.0
 10
1.5099488188976378
 20
-2.0764409448818899
 30
0.0
 10
1.5099488188976378
 20
-2.0764409448818899
 30
0.0
 10
1.5099488188976378
 20
-2.0764409448818899
 30
0.0
 10
1.5099488188976378
 20
-2.0764409448818899
 30
0.0
 10
0.8728700787401575
 20
-2.4526141732283464
 30
0.0
 10
0.8728700787401575
 20
-2.4526141732283464
 30
0.0
 10
0.8728700787401575
 20
-2.4526141732283464
 30
0.0
 10
0.8728700787401575
 20
-2.4526141732283464
 30
0.0
 10
0.8730708661417324
 20
-2.4445826771653545
 30
0.0
 10
0.8730708661417324
 20
-2.4445826771653545
 30
0.0
 10
0.8730708661417324
 20
-2.4445826771653545
 30
0.0
 10
0.8730708661417324
 20
-2.4445826771653545
 30
0.0
 10
0.8736732283464568
 20
-2.4366614173228349
 30
0.0
 10
0.8736732283464568
 20
-2.4366614173228349
 30
0.0
  0
SPLINE
  5
39
100
AcDbEntity
  8
P1-Layer 1
370
     5
100
AcDbSpline
210
0.0
220
0.0
230
1.0
 70
     1
 71
     3
 72
   172
 73
   168
 74
     0
 42
0.0000000001
 43
0.0000000001
 40
0.0
 40
0.0
 40
0.0
 40
0.0
 40
0.0238095238095238
 40
0.0238095238095238
 40
0.0238095238095238
 40
0.0238095238095238
 40
0.0476190476190476
 40
0.0476190476190476
 40
0.0476190476190476
 40
0.0476190476190476
 40
0.0714285714285714
 40
0.0714285714285714
 40
0.0714285714285714
 40
0.0714285714285714
 40
0.0952380952380952
 40
0.0952380952380952
 40
0.0952380952380952
 40
0.0952380952380952
 40
0.119047619047619
 40
0.119047619047619
 40
0.119047619047619
 40
0.119047619047619
 40
0.1428571428571429
 40
0.1428571428571429
 40
0.1428571428571429
 40
0.1428571428571429
 40
0.1666666666666667
 40
0.1666666666666667
 40
0.1666666666666667
 40
0.1666666666666667
 40
0.1904761904761905
 40
0.1904761904761905
 40
0.1904761904761905
 40
0.1904761904761905
 40
0.2142857142857143
 40
0.2142857142857143
 40
0.2142857142857143
 40
0.2142857142857143
 40
0.2380952380952381
 40
0.2380952380952381
 40
0.2380952380952381
 40
0.2380952380952381
 40
0.2619047619047619
 40
0.2619047619047619
 40
0.2619047619047619
 40
0.2619047619047619
 40
0.2857142857142857
 40
0.2857142857142857
 40
0.2857142857142857
 40
0.2857142857142857
 40
0.3095238095238095
 40
0.3095238095238095
 40
0.3095238095238095
 40
0.3095238095238095
 40
0.3333333333333334
 40
0.3333333333333334
 40
0.3333333333333334
 40
0.3333333333333334
 40
0.3571428571428572
 40
0.3571428571428572
 40
0.3571428571428572
 40
0.3571428571428572
 40
0.380952380952381
 40
0.380952380952381
 40
0.380952380952381
 40
0.380952380952381
 40
0.4047619047619049
 40
0.4047619047619049
 40
0.4047619047619049
 40
0.4047619047619049
 40
0.4285714285714287
 40
0.4285714285714287
 40
0.4285714285714287
 40
0.4285714285714287
 40
0.4523809523809526
 40
0.4523809523809526
 40
0.4523809523809526
 40
0.4523809523809526
 40
0.4761904761904764
 40
0.4761904761904764
 40
0.4761904761904764
 40
0.4761904761904764
 40
0.5000000000000002
 40
0.5000000000000002
 40
0.5000000000000002
 40
0.5000000000000002
 40
0.5238095238095241
 40
0.5238095238095241
 40
0.5238095238095241
 40
0.5238095238095241
 40
0.5476190476190479
 40
0.5476190476190479
 40
0.5476190476190479
 40
0.5476190476190479
 40
0.5714285714285717
 40
0.5714285714285717
 40
0.5714285714285717
 40
0.5714285714285717
 40
0.5952380952380956
 40
0.5952380952380956
 40
0.5952380952380956
 40
0.5952380952380956
 40
0.6190476190476194
 40
0.6190476190476194
 40
0.6190476190476194
 40
0.6190476190476194
 40
0.6428571428571432
 40
0.6428571428571432
 40
0.6428571428571432
 40
0.6428571428571432
 40
0.6666666666666671
 40
0.6666666666666671
 40
0.6666666666666671
 40
0.6666666666666671
 40
0.6904761904761909
 40
0.6904761904761909
 40
0.6904761904761909
 40
0.6904761904761909
 40
0.7142857142857148
 40
0.7142857142857148
 40
0.7142857142857148
 40
0.7142857142857148
 40
0.7380952380952386
 40
0.7380952380952386
 40
0.7380952380952386
 40
0.7380952380952386
 40
0.7619047619047624
 40
0.7619047619047624
 40
0.7619047619047624
 40
0.7619047619047624
 40
0.7857142857142863
 40
0.7857142857142863
 40
0.7857142857142863
 40
0.7857142857142863
 40
0.8095238095238101
 40
0.8095238095238101
 40
0.8095238095238101
 40
0.8095238095238101
 40
0.8333333333333339
 40
0.8333333333333339
 40
0.8333333333333339
 40
0.8333333333333339
 40
0.8571428571428578
 40
0.8571428571428578
 40
0.8571428571428578
 40
0.8571428571428578
 40
0.8809523809523816
 40
0.8809523809523816
 40
0.8809523809523816
 40
0.8809523809523816
 40
0.9047619047619054
 40
0.9047619047619054
 40
0.9047619047619054
 40
0.9047619047619054
 40
0.9285714285714293
 40
0.9285714285714293
 40
0.9285714285714293
 40
0.9285714285714293
 40
0.9523809523809531
 40
0.9523809523809531
 40
0.9523809523809531
 40
0.9523809523809531
 40
0.9761904761904769
 40
0.9761904761904769
 40
0.9761904761904769
 40
0.9761904761904769
 40
1.0
 40
1.0
 40
1.0
 40
1.0
 10
0.9416811023622048
 20
-2.3232559055118109
 30
0.0
 10
0.9416811023622048
 20
-2.3232559055118109
 30
0.0
 10
1.5787598425196852
 20
-1.9470826771653544
 30
0.0
 10
1.5787598425196852
 20
-1.9470826771653544
 30
0.0
 10
1.5787598425196852
 20
-1.9470826771653544
 30
0.0
 10
1.5787598425196852
 20
-1.9470826771653544
 30
0.0
 10
1.5726377952755906
 20
-1.9514291338582679
 30
0.0
 10
1.5726377952755906
 20
-1.9514291338582679
 30
0.0
 10
1.5726377952755906
 20
-1.9514291338582679
 30
0.0
 10
1.5726377952755906
 20
-1.9514291338582679
 30
0.0
 10
1.566744094488189
 20
-1.9560629921259842
 30
0.0
 10
1.566744094488189
 20
-1.9560629921259842
 30
0.0
 10
1.566744094488189
 20
-1.9560629921259842
 30
0.0
 10
1.566744094488189
 20
-1.9560629921259842
 30
0.0
 10
1.5610787401574804
 20
-1.960964566929134
 30
0.0
 10
1.5610787401574804
 20
-1.960964566929134
 30
0.0
 10
1.5610787401574804
 20
-1.960964566929134
 30
0.0
 10
1.5610787401574804
 20
-1.960964566929134
 30
0.0
 10
1.5556653543307086
 20
-1.9661377952755905
 30
0.0
 10
1.5556653543307086
 20
-1.9661377952755905
 30
0.0
 10
1.5556653543307086
 20
-1.9661377952755905
 30
0.0
 10
1.5556653543307086
 20
-1.9661377952755905
 30
0.0
 10
1.5504921259842521
 20
-1.9715511811023623
 30
0.0
 10
1.5504921259842521
 20
-1.9715511811023623
 30
0.0
 10
1.5504921259842521
 20
-1.9715511811023623
 30
0.0
 10
1.5504921259842521
 20
-1.9715511811023623
 30
0.0
 10
1.5455866141732284
 20
-1.977208661417323
 30
0.0
 10
1.5455866141732284
 20
-1.977208661417323
 30
0.0
 10
1.5455866141732284
 20
-1.977208661417323
 30
0.0
 10
1.5455866141732284
 20
-1.977208661417323
 30
0.0
 10
1.5409488188976379
 20
-1.9831023622047246
 30
0.0
 10
1.5409488188976379
 20
-1.9831023622047246
 30
0.0
 10
1.5409488188976379
 20
-1.9831023622047246
 30
0.0
 10
1.5409488188976379
 20
-1.9831023622047246
 30
0.0
 10
1.5366023622047245
 20
-1.989220472440945
 30
0.0
 10
1.5366023622047245
 20
-1.989220472440945
 30
0.0
 10
1.5366023622047245
 20
-1.989220472440945
 30
0.0
 10
1.5366023622047245
 20
-1.989220472440945
 30
0.0
 10
1.5325354330708663
 20
-1.9955472440944884
 30
0.0
 10
1.5325354330708663
 20
-1.9955472440944884
 30
0.0
 10
1.5325354330708663
 20
-1.9955472440944884
 30
0.0
 10
1.5325354330708663
 20
-1.9955472440944884
 30
0.0
 10
1.5287795275590552
 20
-2.0020826771653546
 30
0.0
 10
1.5287795275590552
 20
-2.0020826771653546
 30
0.0
 10
1.5287795275590552
 20
-2.0020826771653546
 30
0.0
 10
1.5287795275590552
 20
-2.0020826771653546
 30
0.0
 10
1.5253307086614174
 20
-2.0088070866141732
 30
0.0
 10
1.5253307086614174
 20
-2.0088070866141732
 30
0.0
 10
1.5253307086614174
 20
-2.0088070866141732
 30
0.0
 10
1.5253307086614174
 20
-2.0088070866141732
 30
0.0
 10
1.5222125984251969
 20
-2.015720472440945
 30
0.0
 10
1.5222125984251969
 20
-2.015720472440945
 30
0.0
 10
1.5222125984251969
 20
-2.015720472440945
 30
0.0
 10
1.5222125984251969
 20
-2.015720472440945
 30
0.0
 10
1.5194133858267718
 20
-2.0227992125984251
 30
0.0
 10
1.5194133858267718
 20
-2.0227992125984251
 30
0.0
 10
1.5194133858267718
 20
-2.0227992125984251
 30
0.0
 10
1.5194133858267718
 20
-2.0227992125984251
 30
0.0
 10
1.5169606299212599
 20
-2.0300472440944883
 30
0.0
 10
1.5169606299212599
 20
-2.0300472440944883
 30
0.0
 10
1.5169606299212599
 20
-2.0300472440944883
 30
0.0
 10
1.5169606299212599
 20
-2.0300472440944883
 30
0.0
 10
1.5148582677165354
 20
-2.0374488188976381
 30
0.0
 10
1.5148582677165354
 20
-2.0374488188976381
 30
0.0
 10
1.5148582677165354
 20
-2.0374488188976381
 30
0.0
 10
1.5148582677165354
 20
-2.0374488188976381
 30
0.0
 10
1.5131181102362206
 20
-2.0449999999999999
 30
0.0
 10
1.5131181102362206
 20
-2.0449999999999999
 30
0.0
 10
1.5131181102362206
 20
-2.0449999999999999
 30
0.0
 10
1.5131181102362206
 20
-2.0449999999999999
 30
0.0
 10
1.5117401574803151
 20
-2.0526811023622047
 30
0.0
 10
1.5117401574803151
 20
-2.0526811023622047
 30
0.0
 10
1.5117401574803151
 20
-2.0526811023622047
 30
0.0
 10
1.5117401574803151
 20
-2.0526811023622047
 30
0.0
 10
1.510751968503937
 20
-2.060488188976378
 30
0.0
 10
1.510751968503937
 20
-2.060488188976378
 30
0.0
 10
1.510751968503937
 20
-2.060488188976378
 30
0.0
 10
1.510751968503937
 20
-2.060488188976378
 30
0.0
 10
1.5101496062992126
 20
-2.0684094488188975
 30
0.0
 10
1.5101496062992126
 20
-2.0684094488188975
 30
0.0
 10
1.5101496062992126
 20
-2.0684094488188975
 30
0.0
 10
1.5101496062992126
 20
-2.0684094488188975
 30
0.0
 10
1.5099488188976378
 20
-2.0764409448818899
 30
0.0
 10
1.5099488188976378
 20
-2.0764409448818899
 30
0.0
 10
1.5099488188976378
 20
-2.0764409448818899
 30
0.0
 10
1.5099488188976378
 20
-2.0764409448818899
 30
0.0
 10
0.8728700787401575
 20
-2.4526141732283464
 30
0.0
 10
0.8728700787401575
 20
-2.4526141732283464
 30
0.0
 10
0.8728700787401575
 20
-2.4526141732283464
 30
0.0
 10
0.8728700787401575
 20
-2.4526141732283464
 30
0.0
 10
0.8730708661417324
 20
-2.4445826771653545
 30
0.0
 10
0.8730708661417324
 20
-2.4445826771653545
 30
0.0
 10
0.8730708661417324
 20
-2.4445826771653545
 30
0.0
 10
0.8730708661417324
 20
-2.4445826771653545
 30
0.0
 10
0.8736732283464568
 20
-2.4366614173228349
 30
0.0
 10
0.8736732283464568
 20
-2.4366614173228349
 30
0.0
 10
0.8736732283464568
 20
-2.4366614173228349
 30
0.0
 10
0.8736732283464568
 20
-2.4366614173228349
 30
0.0
 10
0.8746614173228346
 20
-2.4288543307086616
 30
0.0
 10
0.8746614173228346
 20
-2.4288543307086616
 30
0.0
 10
0.8746614173228346
 20
-2.4288543307086616
 30
0.0
 10
0.8746614173228346
 20
-2.4288543307086616
 30
0.0
 10
0.8760393700787402
 20
-2.4211732283464569
 30
0.0
 10
0.8760393700787402
 20
-2.4211732283464569
 30
0.0
 10
0.8760393700787402
 20
-2.4211732283464569
 30
0.0
 10
0.8760393700787402
 20
-2.4211732283464569
 30
0.0
 10
0.8777795275590552
 20
-2.4136220472440946
 30
0.0
 10
0.8777795275590552
 20
-2.4136220472440946
 30
0.0
 10
0.8777795275590552
 20
-2.4136220472440946
 30
0.0
 10
0.8777795275590552
 20
-2.4136220472440946
 30
0.0
 10
0.8798818897637796
 20
-2.4062204724409448
 30
0.0
 10
0.8798818897637796
 20
-2.4062204724409448
 30
0.0
 10
0.8798818897637796
 20
-2.4062204724409448
 30
0.0
 10
0.8798818897637796
 20
-2.4062204724409448
 30
0.0
 10
0.8823346456692913
 20
-2.398972440944882
 30
0.0
 10
0.8823346456692913
 20
-2.398972440944882
 30
0.0
 10
0.8823346456692913
 20
-2.398972440944882
 30
0.0
 10
0.8823346456692913
 20
-2.398972440944882
 30
0.0
 10
0.8851338582677166
 20
-2.3918937007874015
 30
0.0
 10
0.8851338582677166
 20
-2.3918937007874015
 30
0.0
 10
0.8851338582677166
 20
-2.3918937007874015
 30
0.0
 10
0.8851338582677166
 20
-2.3918937007874015
 30
0.0
 10
0.8882519685039371
 20
-2.3849803149606301
 30
0.0
 10
0.8882519685039371
 20
-2.3849803149606301
 30
0.0
 10
0.8882519685039371
 20
-2.3849803149606301
 30
0.0
 10
0.8882519685039371
 20
-2.3849803149606301
 30
0.0
 10
0.8917007874015749
 20
-2.3782559055118111
 30
0.0
 10
0.8917007874015749
 20
-2.3782559055118111
 30
0.0
 10
0.8917007874015749
 20
-2.3782559055118111
 30
0.0
 10
0.8917007874015749
 20
-2.3782559055118111
 30
0.0
 10
0.8954566929133858
 20
-2.3717204724409449
 30
0.0
 10
0.8954566929133858
 20
-2.3717204724409449
 30
0.0
 10
0.8954566929133858
 20
-2.3717204724409449
 30
0.0
 10
0.8954566929133858
 20
-2.3717204724409449
 30
0.0
 10
0.8995236220472441
 20
-2.3653937007874015
 30
0.0
 10
0.8995236220472441
 20
-2.3653937007874015
 30
0.0
 10
0.8995236220472441
 20
-2.3653937007874015
 30
0.0
 10
0.8995236220472441
 20
-2.3653937007874015
 30
0.0
 10
0.9038700787401576
 20
-2.3592755905511811
 30
0.0
 10
0.9038700787401576
 20
-2.3592755905511811
 30
0.0
 10
0.9038700787401576
 20
-2.3592755905511811
 30
0.0
 10
0.9038700787401576
 20
-2.3592755905511811
 30
0.0
 10
0.9085078740157481
 20
-2.3533818897637797
 30
0.0
 10
0.9085078740157481
 20
-2.3533818897637797
 30
0.0
 10
0.9085078740157481
 20
-2.3533818897637797
 30
0.0
 10
0.9085078740157481
 20
-2.3533818897637797
 30
0.0
 10
0.9134133858267717
 20
-2.3477244094488188
 30
0.0
 10
0.9134133858267717
 20
-2.3477244094488188
 30
0.0
 10
0.9134133858267717
 20
-2.3477244094488188
 30
0.0
 10
0.9134133858267717
 20
-2.3477244094488188
 30
0.0
 10
0.9185866141732284
 20
-2.3423110236220475
 30
0.0
 10
0.9185866141732284
 20
-2.3423110236220475
 30
0.0
 10
0.9185866141732284
 20
-2.3423110236220475
 30
0.0
 10
0.9185866141732284
 20
-2.3423110236220475
 30
0.0
 10
0.924
 20
-2.3371377952755905
 30
0.0
 10
0.924
 20
-2.3371377952755905
 30
0.0
 10
0.924
 20
-2.3371377952755905
 30
0.0
 10
0.924
 20
-2.3371377952755905
 30
0.0
 10
0.9296653543307087
 20
-2.3322362204724412
 30
0.0
 10
0.9296653543307087
 20
-2.3322362204724412
 30
0.0
 10
0.9296653543307087
 20
-2.3322362204724412
 30
0.0
 10
0.9296653543307087
 20
-2.3322362204724412
 30
0.0
 10
0.9355590551181102
 20
-2.3276023622047246
 30
0.0
 10
0.9355590551181102
 20
-2.3276023622047246
 30
0.0
 10
0.9355590551181102
 20
-2.3276023622047246
 30
0.0
 10
0.9355590551181102
 20
-2.3276023622047246
 30
0.0
 10
0.9416811023622048
 20
-2.3232559055118109
 30
0.0
 10
0.9416811023622048
 20
-2.3232559055118109
 30
0.0
  0
SPLINE
  5
3A
100
AcDbEntity
  8
P1-Layer 1
 62
     9
100
AcDbSpline
210
0.0
220
0.0
230
1.0
 70
     1
 71
     3
 72
    76
 73
    72
 74
     0
 42
0.0000000001
 43
0.0000000001
 40
0.0
 40
0.0
 40
0.0
 40
0.0
 40
0.0555555555555556
 40
0.0555555555555556
 40
0.0555555555555556
 40
0.0555555555555556
 40
0.1111111111111111
 40
0.1111111111111111
 40
0.1111111111111111
 40
0.1111111111111111
 40
0.1666666666666667
 40
0.1666666666666667
 40
0.1666666666666667
 40
0.1666666666666667
 40
0.2222222222222222
 40
0.2222222222222222
 40
0.2222222222222222
 40
0.2222222222222222
 40
0.2777777777777778
 40
0.2777777777777778
 40
0.2777777777777778
 40
0.2777777777777778
 40
0.3333333333333334
 40
0.3333333333333334
 40
0.3333333333333334
 40
0.3333333333333334
 40
0.388888888888889
 40
0.388888888888889
 40
0.388888888888889
 40
0.388888888888889
 40
0.4444444444444445
 40
0.4444444444444445
 40
0.4444444444444445
 40
0.4444444444444445
 40
0.5000000000000001
 40
0.5000000000000001
 40
0.5000000000000001
 40
0.5000000000000001
 40
0.5555555555555557
 40
0.5555555555555557
 40
0.5555555555555557
 40
0.5555555555555557
 40
0.6111111111111113
 40
0.6111111111111113
 40
0.6111111111111113
 40
0.6111111111111113
 40
0.6666666666666669
 40
0.6666666666666669
 40
0.6666666666666669
 40
0.6666666666666669
 40
0.7222222222222224
 40
0.7222222222222224
 40
0.7222222222222224
 40
0.7222222222222224
 40
0.777777777777778
 40
0.777777777777778
 40
0.777777777777778
 40
0.777777777777778
 40
0.8333333333333336
 40
0.8333333333333336
 40
0.8333333333333336
 40
0.8333333333333336
 40
0.8888888888888892
 40
0.8888888888888892
 40
0.8888888888888892
 40
0.8888888888888892
 40
0.9444444444444448
 40
0.9444444444444448
 40
0.9444444444444448
 40
0.9444444444444448
 40
1.0
 40
1.0
 40
1.0
 40
1.0
 10
1.5263858267716537
 20
-2.3901141732283464
 30
0.0
 10
1.5263858267716537
 20
-2.3901141732283464
 30
0.0
 10
2.1634645669291341
 20
-2.0139409448818899
 30
0.0
 10
2.1634645669291341
 20
-2.0139409448818899
 30
0.0
 10
2.1634645669291341
 20
-2.0139409448818899
 30
0.0
 10
2.1634645669291341
 20
-2.0139409448818899
 30
0.0
 10
2.1631377952755906
 20
-2.0203228346456692
 30
0.0
 10
2.1631377952755906
 20
-2.0203228346456692
 30
0.0
 10
2.1631377952755906
 20
-2.0203228346456692
 30
0.0
 10
2.1631377952755906
 20
-2.0203228346456692
 30
0.0
 10
2.1621889763779527
 20
-2.0265314960629923
 30
0.0
 10
2.1621889763779527
 20
-2.0265314960629923
 30
0.0
 10
2.1621889763779527
 20
-2.0265314960629923
 30
0.0
 10
2.1621889763779527
 20
-2.0265314960629923
 30
0.0
 10
2.1606456692913385
 20
-2.0325157480314959
 30
0.0
 10
2.1606456692913385
 20
-2.0325157480314959
 30
0.0
 10
2.1606456692913385
 20
-2.0325157480314959
 30
0.0
 10
2.1606456692913385
 20
-2.0325157480314959
 30
0.0
 10
2.1585433070866142
 20
-2.0382637795275591
 30
0.0
 10
2.1585433070866142
 20
-2.0382637795275591
 30
0.0
 10
2.1585433070866142
 20
-2.0382637795275591
 30
0.0
 10
2.1585433070866142
 20
-2.0382637795275591
 30
0.0
 10
2.1559055118110235
 20
-2.043720472440945
 30
0.0
 10
2.1559055118110235
 20
-2.043720472440945
 30
0.0
 10
2.1559055118110235
 20
-2.043720472440945
 30
0.0
 10
2.1559055118110235
 20
-2.043720472440945
 30
0.0
 10
2.1527755905511814
 20
-2.0488740157480314
 30
0.0
 10
2.1527755905511814
 20
-2.0488740157480314
 30
0.0
 10
2.1527755905511814
 20
-2.0488740157480314
 30
0.0
 10
2.1527755905511814
 20
-2.0488740157480314
 30
0.0
 10
2.1491732283464566
 20
-2.053685039370079
 30
0.0
 10
2.1491732283464566
 20
-2.053685039370079
 30
0.0
 10
2.1491732283464566
 20
-2.053685039370079
 30
0.0
 10
2.1491732283464566
 20
-2.053685039370079
 30
0.0
 10
2.1451417322834647
 20
-2.0581299212598427
 30
0.0
 10
2.1451417322834647
 20
-2.0581299212598427
 30
0.0
 10
2.1451417322834647
 20
-2.0581299212598427
 30
0.0
 10
2.1451417322834647
 20
-2.0581299212598427
 30
0.0
 10
1.5080629921259843
 20
-2.4343031496062992
 30
0.0
 10
1.5080629921259843
 20
-2.4343031496062992
 30
0.0
 10
1.5080629921259843
 20
-2.4343031496062992
 30
0.0
 10
1.5080629921259843
 20
-2.4343031496062992
 30
0.0
 10
1.5120944881889764
 20
-2.4298582677165355
 30
0.0
 10
1.5120944881889764
 20
-2.4298582677165355
 30
0.0
 10
1.5120944881889764
 20
-2.4298582677165355
 30
0.0
 10
1.5120944881889764
 20
-2.4298582677165355
 30
0.0
 10
1.5156968503937009
 20
-2.4250472440944884
 30
0.0
 10
1.5156968503937009
 20
-2.4250472440944884
 30
0.0
 10
1.5156968503937009
 20
-2.4250472440944884
 30
0.0
 10
1.5156968503937009
 20
-2.4250472440944884
 30
0.0
 10
1.5188267716535433
 20
-2.4198937007874015
 30
0.0
 10
1.5188267716535433
 20
-2.4198937007874015
 30
0.0
 10
1.5188267716535433
 20
-2.4198937007874015
 30
0.0
 10
1.5188267716535433
 20
-2.4198937007874015
 30
0.0
 10
1.521464566929134
 20
-2.4144370078740161
 30
0.0
 10
1.521464566929134
 20
-2.4144370078740161
 30
0.0
 10
1.521464566929134
 20
-2.4144370078740161
 30
0.0
 10
1.521464566929134
 20
-2.4144370078740161
 30
0.0
 10
1.5235669291338583
 20
-2.4086889763779529
 30
0.0
 10
1.5235669291338583
 20
-2.4086889763779529
 30
0.0
 10
1.5235669291338583
 20
-2.4086889763779529
 30
0.0
 10
1.5235669291338583
 20
-2.4086889763779529
 30
0.0
 10
1.5251102362204725
 20
-2.4027047244094488
 30
0.0
 10
1.5251102362204725
 20
-2.4027047244094488
 30
0.0
 10
1.5251102362204725
 20
-2.4027047244094488
 30
0.0
 10
1.5251102362204725
 20
-2.4027047244094488
 30
0.0
 10
1.5260590551181104
 20
-2.3964960629921261
 30
0.0
 10
1.5260590551181104
 20
-2.3964960629921261
 30
0.0
 10
1.5260590551181104
 20
-2.3964960629921261
 30
0.0
 10
1.5260590551181104
 20
-2.3964960629921261
 30
0.0
 10
1.5263858267716537
 20
-2.3901141732283464
 30
0.0
 10
1.5263858267716537
 20
-2.3901141732283464
 30
0.0
  0
SPLINE
  5
3B
100
AcDbEntity
  8
P1-Layer 1
 62
   253
100
AcDbSpline
210
0.0
220
0.0
230
1.0
 70
     1
 71
     3
 72
    28
 73
    24
 74
     0
 42
0.0000000001
 43
0.0000000001
 40
0.0
 40
0.0
 40
0.0
 40
0.0
 40
0.1666666666666667
 40
0.1666666666666667
 40
0.1666666666666667
 40
0.1666666666666667
 40
0.3333333333333333
 40
0.3333333333333333
 40
0.3333333333333333
 40
0.3333333333333333
 40
0.5
 40
0.5
 40
0.5
 40
0.5
 40
0.6666666666666666
 40
0.6666666666666666
 40
0.6666666666666666
 40
0.6666666666666666
 40
0.8333333333333333
 40
0.8333333333333333
 40
0.8333333333333333
 40
0.8333333333333333
 40
1.0
 40
1.0
 40
1.0
 40
1.0
 10
1.5080629921259843
 20
-2.4343031496062992
 30
0.0
 10
1.5080629921259843
 20
-2.4343031496062992
 30
0.0
 10
2.1451417322834647
 20
-2.0581299212598427
 30
0.0
 10
2.1451417322834647
 20
-2.0581299212598427
 30
0.0
 10
2.1451417322834647
 20
-2.0581299212598427
 30
0.0
 10
2.1451417322834647
 20
-2.0581299212598427
 30
0.0
 10
2.1406968503937009
 20
-2.0621574803149607
 30
0.0
 10
2.1406968503937009
 20
-2.0621574803149607
 30
0.0
 10
2.1406968503937009
 20
-2.0621574803149607
 30
0.0
 10
2.1406968503937009
 20
-2.0621574803149607
 30
0.0
 10
2.1358858267716538
 20
-2.0657559055118111
 30
0.0
 10
2.1358858267716538
 20
-2.0657559055118111
 30
0.0
 10
2.1358858267716538
 20
-2.0657559055118111
 30
0.0
 10
2.1358858267716538
 20
-2.0657559055118111
 30
0.0
 10
1.4988070866141734
 20
-2.4419291338582676
 30
0.0
 10
1.4988070866141734
 20
-2.4419291338582676
 30
0.0
 10
1.4988070866141734
 20
-2.4419291338582676
 30
0.0
 10
1.4988070866141734
 20
-2.4419291338582676
 30
0.0
 10
1.5036181102362205
 20
-2.4383307086614172
 30
0.0
 10
1.5036181102362205
 20
-2.4383307086614172
 30
0.0
 10
1.5036181102362205
 20
-2.4383307086614172
 30
0.0
 10
1.5036181102362205
 20
-2.4383307086614172
 30
0.0
 10
1.5080629921259843
 20
-2.4343031496062992
 30
0.0
 10
1.5080629921259843
 20
-2.4343031496062992
 30
0.0
  0
SPLINE
  5
3C
100
AcDbEntity
  8
P1-Layer 1
370
     5
100
AcDbSpline
210
0.0
220
0.0
230
1.0
 70
     1
 71
     3
 72
    92
 73
    88
 74
     0
 42
0.0000000001
 43
0.0000000001
 40
0.0
 40
0.0
 40
0.0
 40
0.0
 40
0.0454545454545455
 40
0.0454545454545455
 40
0.0454545454545455
 40
0.0454545454545455
 40
0.0909090909090909
 40
0.0909090909090909
 40
0.0909090909090909
 40
0.0909090909090909
 40
0.1363636363636364
 40
0.1363636363636364
 40
0.1363636363636364
 40
0.1363636363636364
 40
0.1818181818181818
 40
0.1818181818181818
 40
0.1818181818181818
 40
0.1818181818181818
 40
0.2272727272727273
 40
0.2272727272727273
 40
0.2272727272727273
 40
0.2272727272727273
 40
0.2727272727272728
 40
0.2727272727272728
 40
0.2727272727272728
 40
0.2727272727272728
 40
0.3181818181818182
 40
0.3181818181818182
 40
0.3181818181818182
 40
0.3181818181818182
 40
0.3636363636363637
 40
0.3636363636363637
 40
0.3636363636363637
 40
0.3636363636363637
 40
0.4090909090909092
 40
0.4090909090909092
 40
0.4090909090909092
 40
0.4090909090909092
 40
0.4545454545454546
 40
0.4545454545454546
 40
0.4545454545454546
 40
0.4545454545454546
 40
0.5000000000000001
 40
0.5000000000000001
 40
0.5000000000000001
 40
0.5000000000000001
 40
0.5454545454545455
 40
0.5454545454545455
 40
0.5454545454545455
 40
0.5454545454545455
 40
0.5909090909090909
 40
0.5909090909090909
 40
0.5909090909090909
 40
0.5909090909090909
 40
0.6363636363636364
 40
0.6363636363636364
 40
0.6363636363636364
 40
0.6363636363636364
 40
0.6818181818181818
 40
0.6818181818181818
 40
0.6818181818181818
 40
0.6818181818181818
 40
0.7272727272727272
 40
0.7272727272727272
 40
0.7272727272727272
 40
0.7272727272727272
 40
0.7727272727272726
 40
0.7727272727272726
 40
0.7727272727272726
 40
0.7727272727272726
 40
0.818181818181818
 40
0.818181818181818
 40
0.818181818181818
 40
0.818181818181818
 40
0.8636363636363634
 40
0.8636363636363634
 40
0.8636363636363634
 40
0.8636363636363634
 40
0.9090909090909088
 40
0.9090909090909088
 40
0.9090909090909088
 40
0.9090909090909088
 40
0.9545454545454543
 40
0.9545454545454543
 40
0.9545454545454543
 40
0.9545454545454543
 40
1.0
 40
1.0
 40
1.0
 40
1.0
 10
1.5263858267716537
 20
-2.3901141732283464
 30
0.0
 10
1.5263858267716537
 20
-2.3901141732283464
 30
0.0
 10
2.1634645669291341
 20
-2.0139409448818899
 30
0.0
 10
2.1634645669291341
 20
-2.0139409448818899
 30
0.0
 10
2.1634645669291341
 20
-2.0139409448818899
 30
0.0
 10
2.1634645669291341
 20
-2.0139409448818899
 30
0.0
 10
2.1631377952755906
 20
-2.0203228346456692
 30
0.0
 10
2.1631377952755906
 20
-2.0203228346456692
 30
0.0
 10
2.1631377952755906
 20
-2.0203228346456692
 30
0.0
 10
2.1631377952755906
 20
-2.0203228346456692
 30
0.0
 10
2.1621889763779527
 20
-2.0265314960629923
 30
0.0
 10
2.1621889763779527
 20
-2.0265314960629923
 30
0.0
 10
2.1621889763779527
 20
-2.0265314960629923
 30
0.0
 10
2.1621889763779527
 20
-2.0265314960629923
 30
0.0
 10
2.1606456692913385
 20
-2.0325157480314959
 30
0.0
 10
2.1606456692913385
 20
-2.0325157480314959
 30
0.0
 10
2.1606456692913385
 20
-2.0325157480314959
 30
0.0
 10
2.1606456692913385
 20
-2.0325157480314959
 30
0.0
 10
2.1585433070866142
 20
-2.0382637795275591
 30
0.0
 10
2.1585433070866142
 20
-2.0382637795275591
 30
0.0
 10
2.1585433070866142
 20
-2.0382637795275591
 30
0.0
 10
2.1585433070866142
 20
-2.0382637795275591
 30
0.0
 10
2.1559055118110235
 20
-2.043720472440945
 30
0.0
 10
2.1559055118110235
 20
-2.043720472440945
 30
0.0
 10
2.1559055118110235
 20
-2.043720472440945
 30
0.0
 10
2.1559055118110235
 20
-2.043720472440945
 30
0.0
 10
2.1527755905511814
 20
-2.0488740157480314
 30
0.0
 10
2.1527755905511814
 20
-2.0488740157480314
 30
0.0
 10
2.1527755905511814
 20
-2.0488740157480314
 30
0.0
 10
2.1527755905511814
 20
-2.0488740157480314
 30
0.0
 10
2.1491732283464566
 20
-2.053685039370079
 30
0.0
 10
2.1491732283464566
 20
-2.053685039370079
 30
0.0
 10
2.1491732283464566
 20
-2.053685039370079
 30
0.0
 10
2.1491732283464566
 20
-2.053685039370079
 30
0.0
 10
2.1451417322834647
 20
-2.0581299212598427
 30
0.0
 10
2.1451417322834647
 20
-2.0581299212598427
 30
0.0
 10
2.1451417322834647
 20
-2.0581299212598427
 30
0.0
 10
2.1451417322834647
 20
-2.0581299212598427
 30
0.0
 10
2.1406968503937009
 20
-2.0621574803149607
 30
0.0
 10
2.1406968503937009
 20
-2.0621574803149607
 30
0.0
 10
2.1406968503937009
 20
-2.0621574803149607
 30
0.0
 10
2.1406968503937009
 20
-2.0621574803149607
 30
0.0
 10
2.1358858267716538
 20
-2.0657559055118111
 30
0.0
 10
2.1358858267716538
 20
-2.0657559055118111
 30
0.0
 10
2.1358858267716538
 20
-2.0657559055118111
 30
0.0
 10
2.1358858267716538
 20
-2.0657559055118111
 30
0.0
 10
1.4988070866141734
 20
-2.4419291338582676
 30
0.0
 10
1.4988070866141734
 20
-2.4419291338582676
 30
0.0
 10
1.4988070866141734
 20
-2.4419291338582676
 30
0.0
 10
1.4988070866141734
 20
-2.4419291338582676
 30
0.0
 10
1.5036181102362205
 20
-2.4383307086614172
 30
0.0
 10
1.5036181102362205
 20
-2.4383307086614172
 30
0.0
 10
1.5036181102362205
 20
-2.4383307086614172
 30
0.0
 10
1.5036181102362205
 20
-2.4383307086614172
 30
0.0
 10
1.5080629921259843
 20
-2.4343031496062992
 30
0.0
 10
1.5080629921259843
 20
-2.4343031496062992
 30
0.0
 10
1.5080629921259843
 20
-2.4343031496062992
 30
0.0
 10
1.5080629921259843
 20
-2.4343031496062992
 30
0.0
 10
1.5120944881889764
 20
-2.4298582677165355
 30
0.0
 10
1.5120944881889764
 20
-2.4298582677165355
 30
0.0
 10
1.5120944881889764
 20
-2.4298582677165355
 30
0.0
 10
1.5120944881889764
 20
-2.4298582677165355
 30
0.0
 10
1.5156968503937009
 20
-2.4250472440944884
 30
0.0
 10
1.5156968503937009
 20
-2.4250472440944884
 30
0.0
 10
1.5156968503937009
 20
-2.4250472440944884
 30
0.0
 10
1.5156968503937009
 20
-2.4250472440944884
 30
0.0
 10
1.5188267716535433
 20
-2.4198937007874015
 30
0.0
 10
1.5188267716535433
 20
-2.4198937007874015
 30
0.0
 10
1.5188267716535433
 20
-2.4198937007874015
 30
0.0
 10
1.5188267716535433
 20
-2.4198937007874015
 30
0.0
 10
1.521464566929134
 20
-2.4144370078740161
 30
0.0
 10
1.521464566929134
 20
-2.4144370078740161
 30
0.0
 10
1.521464566929134
 20
-2.4144370078740161
 30
0.0
 10
1.521464566929134
 20
-2.4144370078740161
 30
0.0
 10
1.5235669291338583
 20
-2.4086889763779529
 30
0.0
 10
1.5235669291338583
 20
-2.4086889763779529
 30
0.0
 10
1.5235669291338583
 20
-2.4086889763779529
 30
0.0
 10
1.5235669291338583
 20
-2.4086889763779529
 30
0.0
 10
1.5251102362204725
 20
-2.4027047244094488
 30
0.0
 10
1.5251102362204725
 20
-2.4027047244094488
 30
0.0
 10
1.5251102362204725
 20
-2.4027047244094488
 30
0.0
 10
1.5251102362204725
 20
-2.4027047244094488
 30
0.0
 10
1.5260590551181104
 20
-2.3964960629921261
 30
0.0
 10
1.5260590551181104
 20
-2.3964960629921261
 30
0.0
 10
1.5260590551181104
 20
-2.3964960629921261
 30
0.0
 10
1.5260590551181104
 20
-2.3964960629921261
 30
0.0
 10
1.5263858267716537
 20
-2.3901141732283464
 30
0.0
 10
1.5263858267716537
 20
-2.3901141732283464
 30
0.0
  0
SPLINE
  5
3D
100
AcDbEntity
  8
P1-Layer 1
 62
     9
100
AcDbSpline
210
0.0
220
0.0
230
1.0
 70
     1
 71
     3
 72
    20
 73
    16
 74
     0
 42
0.0000000001
 43
0.0000000001
 40
0.0
 40
0.0
 40
0.0
 40
0.0
 40
0.25
 40
0.25
 40
0.25
 40
0.25
 40
0.5
 40
0.5
 40
0.5
 40
0.5
 40
0.75
 40
0.75
 40
0.75
 40
0.75
 40
1.0
 40
1.0
 40
1.0
 40
1.0
 10
1.5268110236220473
 20
-0.5585629921259843
 30
0.0
 10
1.5268110236220473
 20
-0.5585629921259843
 30
0.0
 10
2.1638897637795278
 20
-0.1823897637795276
 30
0.0
 10
2.1638897637795278
 20
-0.1823897637795276
 30
0.0
 10
2.1638897637795278
 20
-0.1823897637795276
 30
0.0
 10
2.1638897637795278
 20
-0.1823897637795276
 30
0.0
 10
2.1634645669291341
 20
-2.0139409448818899
 30
0.0
 10
2.1634645669291341
 20
-2.0139409448818899
 30
0.0
 10
2.1634645669291341
 20
-2.0139409448818899
 30
0.0
 10
2.1634645669291341
 20
-2.0139409448818899
 30
0.0
 10
1.5263858267716537
 20
-2.3901141732283464
 30
0.0
 10
1.5263858267716537
 20
-2.3901141732283464
 30
0.0
 10
1.5263858267716537
 20
-2.3901141732283464
 30
0.0
 10
1.5263858267716537
 20
-2.3901141732283464
 30
0.0
 10
1.5268110236220473
 20
-0.5585629921259843
 30
0.0
 10
1.5268110236220473
 20
-0.5585629921259843
 30
0.0
  0
SPLINE
  5
3E
100
AcDbEntity
  8
P1-Layer 1
370
     5
100
AcDbSpline
210
0.0
220
0.0
230
1.0
 70
     1
 71
     3
 72
    20
 73
    16
 74
     0
 42
0.0000000001
 43
0.0000000001
 40
0.0
 40
0.0
 40
0.0
 40
0.0
 40
0.25
 40
0.25
 40
0.25
 40
0.25
 40
0.5
 40
0.5
 40
0.5
 40
0.5
 40
0.75
 40
0.75
 40
0.75
 40
0.75
 40
1.0
 40
1.0
 40
1.0
 40
1.0
 10
1.5268110236220473
 20
-0.5585629921259843
 30
0.0
 10
1.5268110236220473
 20
-0.5585629921259843
 30
0.0
 10
2.1638897637795278
 20
-0.1823897637795276
 30
0.0
 10
2.1638897637795278
 20
-0.1823897637795276
 30
0.0
 10
2.1638897637795278
 20
-0.1823897637795276
 30
0.0
 10
2.1638897637795278
 20
-0.1823897637795276
 30
0.0
 10
2.1634645669291341
 20
-2.0139409448818899
 30
0.0
 10
2.1634645669291341
 20
-2.0139409448818899
 30
0.0
 10
2.1634645669291341
 20
-2.0139409448818899
 30
0.0
 10
2.1634645669291341
 20
-2.0139409448818899
 30
0.0
 10
1.5263858267716537
 20
-2.3901141732283464
 30
0.0
 10
1.5263858267716537
 20
-2.3901141732283464
 30
0.0
 10
1.5263858267716537
 20
-2.3901141732283464
 30
0.0
 10
1.5263858267716537
 20
-2.3901141732283464
 30
0.0
 10
1.5268110236220473
 20
-0.5585629921259843
 30
0.0
 10
1.5268110236220473
 20
-0.5585629921259843
 30
0.0
  0
SPLINE
  5
3F
100
AcDbEntity
  8
P1-Layer 1
 62
   253
100
AcDbSpline
210
0.0
220
0.0
230
1.0
 70
     1
 71
     3
 72
    20
 73
    16
 74
     0
 42
0.0000000001
 43
0.0000000001
 40
0.0
 40
0.0
 40
0.0
 40
0.0
 40
0.25
 40
0.25
 40
0.25
 40
0.25
 40
0.5
 40
0.5
 40
0.5
 40
0.5
 40
0.75
 40
0.75
 40
0.75
 40
0.75
 40
1.0
 40
1.0
 40
1.0
 40
1.0
 10
-2.2231889763779527
 20
-0.4533818897637795
 30
0.0
 10
-2.2231889763779527
 20
-0.4533818897637795
 30
0.0
 10
-1.5861102362204724
 20
-0.0772086614173228
 30
0.0
 10
-1.5861102362204724
 20
-0.0772086614173228
 30
0.0
 10
-1.5861102362204724
 20
-0.0772086614173228
 30
0.0
 10
-1.5861102362204724
 20
-0.0772086614173228
 30
0.0
 10
-1.3374291338582678
 20
-0.0772086614173228
 30
0.0
 10
-1.3374291338582678
 20
-0.0772086614173228
 30
0.0
 10
-1.3374291338582678
 20
-0.0772086614173228
 30
0.0
 10
-1.3374291338582678
 20
-0.0772086614173228
 30
0.0
 10
-1.974507874015748
 20
-0.4533818897637795
 30
0.0
 10
-1.974507874015748
 20
-0.4533818897637795
 30
0.0
 10
-1.974507874015748
 20
-0.4533818897637795
 30
0.0
 10
-1.974507874015748
 20
-0.4533818897637795
 30
0.0
 10
-2.2231889763779527
 20
-0.4533818897637795
 30
0.0
 10
-2.2231889763779527
 20
-0.4533818897637795
 30
0.0
  0
SPLINE
  5
40
100
AcDbEntity
  8
P1-Layer 1
370
     5
100
AcDbSpline
210
0.0
220
0.0
230
1.0
 70
     1
 71
     3
 72
    20
 73
    16
 74
     0
 42
0.0000000001
 43
0.0000000001
 40
0.0
 40
0.0
 40
0.0
 40
0.0
 40
0.25
 40
0.25
 40
0.25
 40
0.25
 40
0.5
 40
0.5
 40
0.5
 40
0.5
 40
0.75
 40
0.75
 40
0.75
 40
0.75
 40
1.0
 40
1.0
 40
1.0
 40
1.0
 10
-2.2231889763779527
 20
-0.4533818897637795
 30
0.0
 10
-2.2231889763779527
 20
-0.4533818897637795
 30
0.0
 10
-1.5861102362204724
 20
-0.0772086614173228
 30
0.0
 10
-1.5861102362204724
 20
-0.0772086614173228
 30
0.0
 10
-1.5861102362204724
 20
-0.0772086614173228
 30
0.0
 10
-1.5861102362204724
 20
-0.0772086614173228
 30
0.0
 10
-1.3374291338582678
 20
-0.0772086614173228
 30
0.0
 10
-1.3374291338582678
 20
-0.0772086614173228
 30
0.0
 10
-1.3374291338582678
 20
-0.0772086614173228
 30
0.0
 10
-1.3374291338582678
 20
-0.0772086614173228
 30
0.0
 10
-1.974507874015748
 20
-0.4533818897637795
 30
0.0
 10
-1.974507874015748
 20
-0.4533818897637795
 30
0.0
 10
-1.974507874015748
 20
-0.4533818897637795
 30
0.0
 10
-1.974507874015748
 20
-0.4533818897637795
 30
0.0
 10
-2.2231889763779527
 20
-0.4533818897637795
 30
0.0
 10
-2.2231889763779527
 20
-0.4533818897637795
 30
0.0
  0
SPLINE
  5
41
100
AcDbEntity
  8
P1-Layer 1
 62
   253
100
AcDbSpline
210
0.0
220
0.0
230
1.0
 70
     1
 71
     3
 72
    20
 73
    16
 74
     0
 42
0.0000000001
 43
0.0000000001
 40
0.0
 40
0.0
 40
0.0
 40
0.0
 40
0.25
 40
0.25
 40
0.25
 40
0.25
 40
0.5
 40
0.5
 40
0.5
 40
0.5
 40
0.75
 40
0.75
 40
0.75
 40
0.75
 40
1.0
 40
1.0
 40
1.0
 40
1.0
 10
-1.974507874015748
 20
-0.2026141732283465
 30
0.0
 10
-1.974507874015748
 20
-0.2026141732283465
 30
0.0
 10
-1.3374291338582678
 20
0.1735590551181102
 30
0.0
 10
-1.3374291338582678
 20
0.1735590551181102
 30
0.0
 10
-1.3374291338582678
 20
0.1735590551181102
 30
0.0
 10
-1.3374291338582678
 20
0.1735590551181102
 30
0.0
 10
0.1633346456692914
 20
0.1735590551181102
 30
0.0
 10
0.1633346456692914
 20
0.1735590551181102
 30
0.0
 10
0.1633346456692914
 20
0.1735590551181102
 30
0.0
 10
0.1633346456692914
 20
0.1735590551181102
 30
0.0
 10
-0.473744094488189
 20
-0.2026141732283465
 30
0.0
 10
-0.473744094488189
 20
-0.2026141732283465
 30
0.0
 10
-0.473744094488189
 20
-0.2026141732283465
 30
0.0
 10
-0.473744094488189
 20
-0.2026141732283465
 30
0.0
 10
-1.974507874015748
 20
-0.2026141732283465
 30
0.0
 10
-1.974507874015748
 20
-0.2026141732283465
 30
0.0
  0
SPLINE
  5
42
100
AcDbEntity
  8
P1-Layer 1
370
     5
100
AcDbSpline
210
0.0
220
0.0
230
1.0
 70
     1
 71
     3
 72
    20
 73
    16
 74
     0
 42
0.0000000001
 43
0.0000000001
 40
0.0
 40
0.0
 40
0.0
 40
0.0
 40
0.25
 40
0.25
 40
0.25
 40
0.25
 40
0.5
 40
0.5
 40
0.5
 40
0.5
 40
0.75
 40
0.75
 40
0.75
 40
0.75
 40
1.0
 40
1.0
 40
1.0
 40
1.0
 10
-1.974507874015748
 20
-0.2026141732283465
 30
0.0
 10
-1.974507874015748
 20
-0.2026141732283465
 30
0.0
 10
-1.3374291338582678
 20
0.1735590551181102
 30
0.0
 10
-1.3374291338582678
 20
0.1735590551181102
 30
0.0
 10
-1.3374291338582678
 20
0.1735590551181102
 30
0.0
 10
-1.3374291338582678
 20
0.1735590551181102
 30
0.0
 10
0.1633346456692914
 20
0.1735590551181102
 30
0.0
 10
0.1633346456692914
 20
0.1735590551181102
 30
0.0
 10
0.1633346456692914
 20
0.1735590551181102
 30
0.0
 10
0.1633346456692914
 20
0.1735590551181102
 30
0.0
 10
-0.473744094488189
 20
-0.2026141732283465
 30
0.0
 10
-0.473744094488189
 20
-0.2026141732283465
 30
0.0
 10
-0.473744094488189
 20
-0.2026141732283465
 30
0.0
 10
-0.473744094488189
 20
-0.2026141732283465
 30
0.0
 10
-1.974507874015748
 20
-0.2026141732283465
 30
0.0
 10
-1.974507874015748
 20
-0.2026141732283465
 30
0.0
  0
SPLINE
  5
43
100
AcDbEntity
  8
P1-Layer 1
 62
   253
100
AcDbSpline
210
0.0
220
0.0
230
1.0
 70
     1
 71
     3
 72
    20
 73
    16
 74
     0
 42
0.0000000001
 43
0.0000000001
 40
0.0
 40
0.0
 40
0.0
 40
0.0
 40
0.25
 40
0.25
 40
0.25
 40
0.25
 40
0.5
 40
0.5
 40
0.5
 40
0.5
 40
0.75
 40
0.75
 40
0.75
 40
0.75
 40
1.0
 40
1.0
 40
1.0
 40
1.0
 10
-0.473744094488189
 20
-0.2026141732283465
 30
0.0
 10
-0.473744094488189
 20
-0.2026141732283465
 30
0.0
 10
0.1633346456692914
 20
0.1735590551181102
 30
0.0
 10
0.1633346456692914
 20
0.1735590551181102
 30
0.0
 10
0.1633346456692914
 20
0.1735590551181102
 30
0.0
 10
0.1633346456692914
 20
0.1735590551181102
 30
0.0
 10
2.0655511811023621
 20
-0.060248031496063
 30
0.0
 10
2.0655511811023621
 20
-0.060248031496063
 30
0.0
 10
2.0655511811023621
 20
-0.060248031496063
 30
0.0
 10
2.0655511811023621
 20
-0.060248031496063
 30
0.0
 10
1.4284724409448819
 20
-0.4364212598425197
 30
0.0
 10
1.4284724409448819
 20
-0.4364212598425197
 30
0.0
 10
1.4284724409448819
 20
-0.4364212598425197
 30
0.0
 10
1.4284724409448819
 20
-0.4364212598425197
 30
0.0
 10
-0.473744094488189
 20
-0.2026141732283465
 30
0.0
 10
-0.473744094488189
 20
-0.2026141732283465
 30
0.0
  0
SPLINE
  5
44
100
AcDbEntity
  8
P1-Layer 1
370
     5
100
AcDbSpline
210
0.0
220
0.0
230
1.0
 70
     1
 71
     3
 72
    20
 73
    16
 74
     0
 42
0.0000000001
 43
0.0000000001
 40
0.0
 40
0.0
 40
0.0
 40
0.0
 40
0.25
 40
0.25
 40
0.25
 40
0.25
 40
0.5
 40
0.5
 40
0.5
 40
0.5
 40
0.75
 40
0.75
 40
0.75
 40
0.75
 40
1.0
 40
1.0
 40
1.0
 40
1.0
 10
-0.473744094488189
 20
-0.2026141732283465
 30
0.0
 10
-0.473744094488189
 20
-0.2026141732283465
 30
0.0
 10
0.1633346456692914
 20
0.1735590551181102
 30
0.0
 10
0.1633346456692914
 20
0.1735590551181102
 30
0.0
 10
0.1633346456692914
 20
0.1735590551181102
 30
0.0
 10
0.1633346456692914
 20
0.1735590551181102
 30
0.0
 10
2.0655511811023621
 20
-0.060248031496063
 30
0.0
 10
2.0655511811023621
 20
-0.060248031496063
 30
0.0
 10
2.0655511811023621
 20
-0.060248031496063
 30
0.0
 10
2.0655511811023621
 20
-0.060248031496063
 30
0.0
 10
1.4284724409448819
 20
-0.4364212598425197
 30
0.0
 10
1.4284724409448819
 20
-0.4364212598425197
 30
0.0
 10
1.4284724409448819
 20
-0.4364212598425197
 30
0.0
 10
1.4284724409448819
 20
-0.4364212598425197
 30
0.0
 10
-0.473744094488189
 20
-0.2026141732283465
 30
0.0
 10
-0.473744094488189
 20
-0.2026141732283465
 30
0.0
  0
SPLINE
  5
45
100
AcDbEntity
  8
P1-Layer 1
 62
   253
100
AcDbSpline
210
0.0
220
0.0
230
1.0
 70
     1
 71
     3
 72
    44
 73
    40
 74
     0
 42
0.0000000001
 43
0.0000000001
 40
0.0
 40
0.0
 40
0.0
 40
0.0
 40
0.1
 40
0.1
 40
0.1
 40
0.1
 40
0.2
 40
0.2
 40
0.2
 40
0.2
 40
0.3
 40
0.3
 40
0.3
 40
0.3
 40
0.4
 40
0.4
 40
0.4
 40
0.4
 40
0.5
 40
0.5
 40
0.5
 40
0.5
 40
0.6
 40
0.6
 40
0.6
 40
0.6
 40
0.7
 40
0.7
 40
0.7
 40
0.7
 40
0.7999999999999999
 40
0.7999999999999999
 40
0.7999999999999999
 40
0.7999999999999999
 40
0.8999999999999999
 40
0.8999999999999999
 40
0.8999999999999999
 40
0.8999999999999999
 40
1.0
 40
1.0
 40
1.0
 40
1.0
 10
1.4284724409448819
 20
-0.4364212598425197
 30
0.0
 10
1.4284724409448819
 20
-0.4364212598425197
 30
0.0
 10
2.0655511811023621
 20
-0.060248031496063
 30
0.0
 10
2.0655511811023621
 20
-0.060248031496063
 30
0.0
 10
2.0655511811023621
 20
-0.060248031496063
 30
0.0
 10
2.0655511811023621
 20
-0.060248031496063
 30
0.0
 10
2.0759173228346457
 20
-0.0629724409448819
 30
0.0
 10
2.0759173228346457
 20
-0.0629724409448819
 30
0.0
 10
2.0759173228346457
 20
-0.0629724409448819
 30
0.0
 10
2.0759173228346457
 20
-0.0629724409448819
 30
0.0
 10
2.0859173228346459
 20
-0.0665511811023622
 30
0.0
 10
2.0859173228346459
 20
-0.0665511811023622
 30
0.0
 10
2.0859173228346459
 20
-0.0665511811023622
 30
0.0
 10
2.0859173228346459
 20
-0.0665511811023622
 30
0.0
 10
2.095496062992126
 20
-0.0709291338582677
 30
0.0
 10
2.095496062992126
 20
-0.0709291338582677
 30
0.0
 10
2.095496062992126
 20
-0.0709291338582677
 30
0.0
 10
2.095496062992126
 20
-0.0709291338582677
 30
0.0
 10
2.1046299212598427
 20
-0.0760748031496063
 30
0.0
 10
2.1046299212598427
 20
-0.0760748031496063
 30
0.0
 10
2.1046299212598427
 20
-0.0760748031496063
 30
0.0
 10
2.1046299212598427
 20
-0.0760748031496063
 30
0.0
 10
1.4675511811023623
 20
-0.452248031496063
 30
0.0
 10
1.4675511811023623
 20
-0.452248031496063
 30
0.0
 10
1.4675511811023623
 20
-0.452248031496063
 30
0.0
 10
1.4675511811023623
 20
-0.452248031496063
 30
0.0
 10
1.4584173228346458
 20
-0.4471023622047244
 30
0.0
 10
1.4584173228346458
 20
-0.4471023622047244
 30
0.0
 10
1.4584173228346458
 20
-0.4471023622047244
 30
0.0
 10
1.4584173228346458
 20
-0.4471023622047244
 30
0.0
 10
1.4488385826771655
 20
-0.4427244094488189
 30
0.0
 10
1.4488385826771655
 20
-0.4427244094488189
 30
0.0
 10
1.4488385826771655
 20
-0.4427244094488189
 30
0.0
 10
1.4488385826771655
 20
-0.4427244094488189
 30
0.0
 10
1.4388385826771655
 20
-0.4391456692913386
 30
0.0
 10
1.4388385826771655
 20
-0.4391456692913386
 30
0.0
 10
1.4388385826771655
 20
-0.4391456692913386
 30
0.0
 10
1.4388385826771655
 20
-0.4391456692913386
 30
0.0
 10
1.4284724409448819
 20
-0.4364212598425197
 30
0.0
 10
1.4284724409448819
 20
-0.4364212598425197
 30
0.0
  0
SPLINE
  5
46
100
AcDbEntity
  8
P1-Layer 1
 62
     9
100
AcDbSpline
210
0.0
220
0.0
230
1.0
 70
     1
 71
     3
 72
    44
 73
    40
 74
     0
 42
0.0000000001
 43
0.0000000001
 40
0.0
 40
0.0
 40
0.0
 40
0.0
 40
0.1
 40
0.1
 40
0.1
 40
0.1
 40
0.2
 40
0.2
 40
0.2
 40
0.2
 40
0.3
 40
0.3
 40
0.3
 40
0.3
 40
0.4
 40
0.4
 40
0.4
 40
0.4
 40
0.5
 40
0.5
 40
0.5
 40
0.5
 40
0.6
 40
0.6
 40
0.6
 40
0.6
 40
0.7
 40
0.7
 40
0.7
 40
0.7
 40
0.7999999999999999
 40
0.7999999999999999
 40
0.7999999999999999
 40
0.7999999999999999
 40
0.8999999999999999
 40
0.8999999999999999
 40
0.8999999999999999
 40
0.8999999999999999
 40
1.0
 40
1.0
 40
1.0
 40
1.0
 10
1.4675511811023623
 20
-0.452248031496063
 30
0.0
 10
1.4675511811023623
 20
-0.452248031496063
 30
0.0
 10
2.1046299212598427
 20
-0.0760748031496063
 30
0.0
 10
2.1046299212598427
 20
-0.0760748031496063
 30
0.0
 10
2.1046299212598427
 20
-0.0760748031496063
 30
0.0
 10
2.1046299212598427
 20
-0.0760748031496063
 30
0.0
 10
2.1132637795275593
 20
-0.0819370078740158
 30
0.0
 10
2.1132637795275593
 20
-0.0819370078740158
 30
0.0
 10
2.1132637795275593
 20
-0.0819370078740158
 30
0.0
 10
2.1132637795275593
 20
-0.0819370078740158
 30
0.0
 10
2.1213661417322833
 20
-0.0884842519685039
 30
0.0
 10
2.1213661417322833
 20
-0.0884842519685039
 30
0.0
 10
2.1213661417322833
 20
-0.0884842519685039
 30
0.0
 10
2.1213661417322833
 20
-0.0884842519685039
 30
0.0
 10
2.1288858267716537
 20
-0.0956692913385827
 30
0.0
 10
2.1288858267716537
 20
-0.0956692913385827
 30
0.0
 10
2.1288858267716537
 20
-0.0956692913385827
 30
0.0
 10
2.1288858267716537
 20
-0.0956692913385827
 30
0.0
 10
2.1357992125984251
 20
-0.1034606299212598
 30
0.0
 10
2.1357992125984251
 20
-0.1034606299212598
 30
0.0
 10
2.1357992125984251
 20
-0.1034606299212598
 30
0.0
 10
2.1357992125984251
 20
-0.1034606299212598
 30
0.0
 10
1.4987204724409449
 20
-0.4796338582677165
 30
0.0
 10
1.4987204724409449
 20
-0.4796338582677165
 30
0.0
 10
1.4987204724409449
 20
-0.4796338582677165
 30
0.0
 10
1.4987204724409449
 20
-0.4796338582677165
 30
0.0
 10
1.4918070866141733
 20
-0.4718425196850394
 30
0.0
 10
1.4918070866141733
 20
-0.4718425196850394
 30
0.0
 10
1.4918070866141733
 20
-0.4718425196850394
 30
0.0
 10
1.4918070866141733
 20
-0.4718425196850394
 30
0.0
 10
1.4842874015748031
 20
-0.4646574803149606
 30
0.0
 10
1.4842874015748031
 20
-0.4646574803149606
 30
0.0
 10
1.4842874015748031
 20
-0.4646574803149606
 30
0.0
 10
1.4842874015748031
 20
-0.4646574803149606
 30
0.0
 10
1.4761850393700788
 20
-0.4581102362204725
 30
0.0
 10
1.4761850393700788
 20
-0.4581102362204725
 30
0.0
 10
1.4761850393700788
 20
-0.4581102362204725
 30
0.0
 10
1.4761850393700788
 20
-0.4581102362204725
 30
0.0
 10
1.4675511811023623
 20
-0.452248031496063
 30
0.0
 10
1.4675511811023623
 20
-0.452248031496063
 30
0.0
  0
SPLINE
  5
47
100
AcDbEntity
  8
P1-Layer 1
 62
     9
100
AcDbSpline
210
0.0
220
0.0
230
1.0
 70
     1
 71
     3
 72
    44
 73
    40
 74
     0
 42
0.0000000001
 43
0.0000000001
 40
0.0
 40
0.0
 40
0.0
 40
0.0
 40
0.1
 40
0.1
 40
0.1
 40
0.1
 40
0.2
 40
0.2
 40
0.2
 40
0.2
 40
0.3
 40
0.3
 40
0.3
 40
0.3
 40
0.4
 40
0.4
 40
0.4
 40
0.4
 40
0.5
 40
0.5
 40
0.5
 40
0.5
 40
0.6
 40
0.6
 40
0.6
 40
0.6
 40
0.7
 40
0.7
 40
0.7
 40
0.7
 40
0.7999999999999999
 40
0.7999999999999999
 40
0.7999999999999999
 40
0.7999999999999999
 40
0.8999999999999999
 40
0.8999999999999999
 40
0.8999999999999999
 40
0.8999999999999999
 40
1.0
 40
1.0
 40
1.0
 40
1.0
 10
1.4987204724409449
 20
-0.4796338582677165
 30
0.0
 10
1.4987204724409449
 20
-0.4796338582677165
 30
0.0
 10
2.1357992125984251
 20
-0.1034606299212598
 30
0.0
 10
2.1357992125984251
 20
-0.1034606299212598
 30
0.0
 10
2.1357992125984251
 20
-0.1034606299212598
 30
0.0
 10
2.1357992125984251
 20
-0.1034606299212598
 30
0.0
 10
2.1420433070866141
 20
-0.1117952755905512
 30
0.0
 10
2.1420433070866141
 20
-0.1117952755905512
 30
0.0
 10
2.1420433070866141
 20
-0.1117952755905512
 30
0.0
 10
2.1420433070866141
 20
-0.1117952755905512
 30
0.0
 10
2.1475905511811026
 20
-0.1206574803149606
 30
0.0
 10
2.1475905511811026
 20
-0.1206574803149606
 30
0.0
 10
2.1475905511811026
 20
-0.1206574803149606
 30
0.0
 10
2.1475905511811026
 20
-0.1206574803149606
 30
0.0
 10
2.1523937007874014
 20
-0.129992125984252
 30
0.0
 10
2.1523937007874014
 20
-0.129992125984252
 30
0.0
 10
2.1523937007874014
 20
-0.129992125984252
 30
0.0
 10
2.1523937007874014
 20
-0.129992125984252
 30
0.0
 10
2.1564251968503938
 20
-0.1397677165354331
 30
0.0
 10
2.1564251968503938
 20
-0.1397677165354331
 30
0.0
 10
2.1564251968503938
 20
-0.1397677165354331
 30
0.0
 10
2.1564251968503938
 20
-0.1397677165354331
 30
0.0
 10
1.5193464566929133
 20
-0.5159409448818898
 30
0.0
 10
1.5193464566929133
 20
-0.5159409448818898
 30
0.0
 10
1.5193464566929133
 20
-0.5159409448818898
 30
0.0
 10
1.5193464566929133
 20
-0.5159409448818898
 30
0.0
 10
1.5153149606299212
 20
-0.5061653543307086
 30
0.0
 10
1.5153149606299212
 20
-0.5061653543307086
 30
0.0
 10
1.5153149606299212
 20
-0.5061653543307086
 30
0.0
 10
1.5153149606299212
 20
-0.5061653543307086
 30
0.0
 10
1.5105118110236222
 20
-0.4968307086614173
 30
0.0
 10
1.5105118110236222
 20
-0.4968307086614173
 30
0.0
 10
1.5105118110236222
 20
-0.4968307086614173
 30
0.0
 10
1.5105118110236222
 20
-0.4968307086614173
 30
0.0
 10
1.5049645669291338
 20
-0.4879685039370079
 30
0.0
 10
1.5049645669291338
 20
-0.4879685039370079
 30
0.0
 10
1.5049645669291338
 20
-0.4879685039370079
 30
0.0
 10
1.5049645669291338
 20
-0.4879685039370079
 30
0.0
 10
1.4987204724409449
 20
-0.4796338582677165
 30
0.0
 10
1.4987204724409449
 20
-0.4796338582677165
 30
0.0
  0
SPLINE
  5
48
100
AcDbEntity
  8
P1-Layer 1
 62
     9
100
AcDbSpline
210
0.0
220
0.0
230
1.0
 70
     1
 71
     3
 72
    44
 73
    40
 74
     0
 42
0.0000000001
 43
0.0000000001
 40
0.0
 40
0.0
 40
0.0
 40
0.0
 40
0.1
 40
0.1
 40
0.1
 40
0.1
 40
0.2
 40
0.2
 40
0.2
 40
0.2
 40
0.3
 40
0.3
 40
0.3
 40
0.3
 40
0.4
 40
0.4
 40
0.4
 40
0.4
 40
0.5
 40
0.5
 40
0.5
 40
0.5
 40
0.6
 40
0.6
 40
0.6
 40
0.6
 40
0.7
 40
0.7
 40
0.7
 40
0.7
 40
0.7999999999999999
 40
0.7999999999999999
 40
0.7999999999999999
 40
0.7999999999999999
 40
0.8999999999999999
 40
0.8999999999999999
 40
0.8999999999999999
 40
0.8999999999999999
 40
1.0
 40
1.0
 40
1.0
 40
1.0
 10
1.5193464566929133
 20
-0.5159409448818898
 30
0.0
 10
1.5193464566929133
 20
-0.5159409448818898
 30
0.0
 10
2.1564251968503938
 20
-0.1397677165354331
 30
0.0
 10
2.1564251968503938
 20
-0.1397677165354331
 30
0.0
 10
2.1564251968503938
 20
-0.1397677165354331
 30
0.0
 10
2.1564251968503938
 20
-0.1397677165354331
 30
0.0
 10
2.1596259842519685
 20
-0.1499291338582677
 30
0.0
 10
2.1596259842519685
 20
-0.1499291338582677
 30
0.0
 10
2.1596259842519685
 20
-0.1499291338582677
 30
0.0
 10
2.1596259842519685
 20
-0.1499291338582677
 30
0.0
 10
2.1619645669291341
 20
-0.1604527559055118
 30
0.0
 10
2.1619645669291341
 20
-0.1604527559055118
 30
0.0
 10
2.1619645669291341
 20
-0.1604527559055118
 30
0.0
 10
2.1619645669291341
 20
-0.1604527559055118
 30
0.0
 10
2.1633976377952755
 20
-0.1712834645669291
 30
0.0
 10
2.1633976377952755
 20
-0.1712834645669291
 30
0.0
 10
2.1633976377952755
 20
-0.1712834645669291
 30
0.0
 10
2.1633976377952755
 20
-0.1712834645669291
 30
0.0
 10
2.1638897637795278
 20
-0.1823897637795276
 30
0.0
 10
2.1638897637795278
 20
-0.1823897637795276
 30
0.0
 10
2.1638897637795278
 20
-0.1823897637795276
 30
0.0
 10
2.1638897637795278
 20
-0.1823897637795276
 30
0.0
 10
1.5268110236220473
 20
-0.5585629921259843
 30
0.0
 10
1.5268110236220473
 20
-0.5585629921259843
 30
0.0
 10
1.5268110236220473
 20
-0.5585629921259843
 30
0.0
 10
1.5268110236220473
 20
-0.5585629921259843
 30
0.0
 10
1.5263188976377953
 20
-0.5474566929133858
 30
0.0
 10
1.5263188976377953
 20
-0.5474566929133858
 30
0.0
 10
1.5263188976377953
 20
-0.5474566929133858
 30
0.0
 10
1.5263188976377953
 20
-0.5474566929133858
 30
0.0
 10
1.5248858267716536
 20
-0.5366259842519685
 30
0.0
 10
1.5248858267716536
 20
-0.5366259842519685
 30
0.0
 10
1.5248858267716536
 20
-0.5366259842519685
 30
0.0
 10
1.5248858267716536
 20
-0.5366259842519685
 30
0.0
 10
1.5225472440944883
 20
-0.5261023622047244
 30
0.0
 10
1.5225472440944883
 20
-0.5261023622047244
 30
0.0
 10
1.5225472440944883
 20
-0.5261023622047244
 30
0.0
 10
1.5225472440944883
 20
-0.5261023622047244
 30
0.0
 10
1.5193464566929133
 20
-0.5159409448818898
 30
0.0
 10
1.5193464566929133
 20
-0.5159409448818898
 30
0.0
  0
SPLINE
  5
49
100
AcDbEntity
  8
P1-Layer 1
370
     5
100
AcDbSpline
210
0.0
220
0.0
230
1.0
 70
     1
 71
     3
 72
   140
 73
   136
 74
     0
 42
0.0000000001
 43
0.0000000001
 40
0.0
 40
0.0
 40
0.0
 40
0.0
 40
0.0294117647058824
 40
0.0294117647058824
 40
0.0294117647058824
 40
0.0294117647058824
 40
0.0588235294117647
 40
0.0588235294117647
 40
0.0588235294117647
 40
0.0588235294117647
 40
0.0882352941176471
 40
0.0882352941176471
 40
0.0882352941176471
 40
0.0882352941176471
 40
0.1176470588235294
 40
0.1176470588235294
 40
0.1176470588235294
 40
0.1176470588235294
 40
0.1470588235294118
 40
0.1470588235294118
 40
0.1470588235294118
 40
0.1470588235294118
 40
0.1764705882352941
 40
0.1764705882352941
 40
0.1764705882352941
 40
0.1764705882352941
 40
0.2058823529411765
 40
0.2058823529411765
 40
0.2058823529411765
 40
0.2058823529411765
 40
0.2352941176470589
 40
0.2352941176470589
 40
0.2352941176470589
 40
0.2352941176470589
 40
0.2647058823529412
 40
0.2647058823529412
 40
0.2647058823529412
 40
0.2647058823529412
 40
0.2941176470588235
 40
0.2941176470588235
 40
0.2941176470588235
 40
0.2941176470588235
 40
0.3235294117647059
 40
0.3235294117647059
 40
0.3235294117647059
 40
0.3235294117647059
 40
0.3529411764705883
 40
0.3529411764705883
 40
0.3529411764705883
 40
0.3529411764705883
 40
0.3823529411764706
 40
0.3823529411764706
 40
0.3823529411764706
 40
0.3823529411764706
 40
0.411764705882353
 40
0.411764705882353
 40
0.411764705882353
 40
0.411764705882353
 40
0.4411764705882353
 40
0.4411764705882353
 40
0.4411764705882353
 40
0.4411764705882353
 40
0.4705882352941177
 40
0.4705882352941177
 40
0.4705882352941177
 40
0.4705882352941177
 40
0.5
 40
0.5
 40
0.5
 40
0.5
 40
0.5294117647058824
 40
0.5294117647058824
 40
0.5294117647058824
 40
0.5294117647058824
 40
0.5588235294117647
 40
0.5588235294117647
 40
0.5588235294117647
 40
0.5588235294117647
 40
0.5882352941176471
 40
0.5882352941176471
 40
0.5882352941176471
 40
0.5882352941176471
 40
0.6176470588235294
 40
0.6176470588235294
 40
0.6176470588235294
 40
0.6176470588235294
 40
0.6470588235294118
 40
0.6470588235294118
 40
0.6470588235294118
 40
0.6470588235294118
 40
0.6764705882352942
 40
0.6764705882352942
 40
0.6764705882352942
 40
0.6764705882352942
 40
0.7058823529411765
 40
0.7058823529411765
 40
0.7058823529411765
 40
0.7058823529411765
 40
0.7352941176470589
 40
0.7352941176470589
 40
0.7352941176470589
 40
0.7352941176470589
 40
0.7647058823529412
 40
0.7647058823529412
 40
0.7647058823529412
 40
0.7647058823529412
 40
0.7941176470588236
 40
0.7941176470588236
 40
0.7941176470588236
 40
0.7941176470588236
 40
0.823529411764706
 40
0.823529411764706
 40
0.823529411764706
 40
0.823529411764706
 40
0.8529411764705883
 40
0.8529411764705883
 40
0.8529411764705883
 40
0.8529411764705883
 40
0.8823529411764707
 40
0.8823529411764707
 40
0.8823529411764707
 40
0.8823529411764707
 40
0.911764705882353
 40
0.911764705882353
 40
0.911764705882353
 40
0.911764705882353
 40
0.9411764705882354
 40
0.9411764705882354
 40
0.9411764705882354
 40
0.9411764705882354
 40
0.9705882352941178
 40
0.9705882352941178
 40
0.9705882352941178
 40
0.9705882352941178
 40
1.0
 40
1.0
 40
1.0
 40
1.0
 10
1.4284724409448819
 20
-0.4364212598425197
 30
0.0
 10
1.4284724409448819
 20
-0.4364212598425197
 30
0.0
 10
2.0655511811023621
 20
-0.060248031496063
 30
0.0
 10
2.0655511811023621
 20
-0.060248031496063
 30
0.0
 10
2.0655511811023621
 20
-0.060248031496063
 30
0.0
 10
2.0655511811023621
 20
-0.060248031496063
 30
0.0
 10
2.0759173228346457
 20
-0.0629724409448819
 30
0.0
 10
2.0759173228346457
 20
-0.0629724409448819
 30
0.0
 10
2.0759173228346457
 20
-0.0629724409448819
 30
0.0
 10
2.0759173228346457
 20
-0.0629724409448819
 30
0.0
 10
2.0859173228346459
 20
-0.0665511811023622
 30
0.0
 10
2.0859173228346459
 20
-0.0665511811023622
 30
0.0
 10
2.0859173228346459
 20
-0.0665511811023622
 30
0.0
 10
2.0859173228346459
 20
-0.0665511811023622
 30
0.0
 10
2.095496062992126
 20
-0.0709291338582677
 30
0.0
 10
2.095496062992126
 20
-0.0709291338582677
 30
0.0
 10
2.095496062992126
 20
-0.0709291338582677
 30
0.0
 10
2.095496062992126
 20
-0.0709291338582677
 30
0.0
 10
2.1046299212598427
 20
-0.0760748031496063
 30
0.0
 10
2.1046299212598427
 20
-0.0760748031496063
 30
0.0
 10
2.1046299212598427
 20
-0.0760748031496063
 30
0.0
 10
2.1046299212598427
 20
-0.0760748031496063
 30
0.0
 10
2.1132637795275593
 20
-0.0819370078740158
 30
0.0
 10
2.1132637795275593
 20
-0.0819370078740158
 30
0.0
 10
2.1132637795275593
 20
-0.0819370078740158
 30
0.0
 10
2.1132637795275593
 20
-0.0819370078740158
 30
0.0
 10
2.1213661417322833
 20
-0.0884842519685039
 30
0.0
 10
2.1213661417322833
 20
-0.0884842519685039
 30
0.0
 10
2.1213661417322833
 20
-0.0884842519685039
 30
0.0
 10
2.1213661417322833
 20
-0.0884842519685039
 30
0.0
 10
2.1288858267716537
 20
-0.0956692913385827
 30
0.0
 10
2.1288858267716537
 20
-0.0956692913385827
 30
0.0
 10
2.1288858267716537
 20
-0.0956692913385827
 30
0.0
 10
2.1288858267716537
 20
-0.0956692913385827
 30
0.0
 10
2.1357992125984251
 20
-0.1034606299212598
 30
0.0
 10
2.1357992125984251
 20
-0.1034606299212598
 30
0.0
 10
2.1357992125984251
 20
-0.1034606299212598
 30
0.0
 10
2.1357992125984251
 20
-0.1034606299212598
 30
0.0
 10
2.1420433070866141
 20
-0.1117952755905512
 30
0.0
 10
2.1420433070866141
 20
-0.1117952755905512
 30
0.0
 10
2.1420433070866141
 20
-0.1117952755905512
 30
0.0
 10
2.1420433070866141
 20
-0.1117952755905512
 30
0.0
 10
2.1475905511811026
 20
-0.1206574803149606
 30
0.0
 10
2.1475905511811026
 20
-0.1206574803149606
 30
0.0
 10
2.1475905511811026
 20
-0.1206574803149606
 30
0.0
 10
2.1475905511811026
 20
-0.1206574803149606
 30
0.0
 10
2.1523937007874014
 20
-0.129992125984252
 30
0.0
 10
2.1523937007874014
 20
-0.129992125984252
 30
0.0
 10
2.1523937007874014
 20
-0.129992125984252
 30
0.0
 10
2.1523937007874014
 20
-0.129992125984252
 30
0.0
 10
2.1564251968503938
 20
-0.1397677165354331
 30
0.0
 10
2.1564251968503938
 20
-0.1397677165354331
 30
0.0
 10
2.1564251968503938
 20
-0.1397677165354331
 30
0.0
 10
2.1564251968503938
 20
-0.1397677165354331
 30
0.0
 10
2.1596259842519685
 20
-0.1499291338582677
 30
0.0
 10
2.1596259842519685
 20
-0.1499291338582677
 30
0.0
 10
2.1596259842519685
 20
-0.1499291338582677
 30
0.0
 10
2.1596259842519685
 20
-0.1499291338582677
 30
0.0
 10
2.1619645669291341
 20
-0.1604527559055118
 30
0.0
 10
2.1619645669291341
 20
-0.1604527559055118
 30
0.0
 10
2.1619645669291341
 20
-0.1604527559055118
 30
0.0
 10
2.1619645669291341
 20
-0.1604527559055118
 30
0.0
 10
2.1633976377952755
 20
-0.1712834645669291
 30
0.0
 10
2.1633976377952755
 20
-0.1712834645669291
 30
0.0
 10
2.1633976377952755
 20
-0.1712834645669291
 30
0.0
 10
2.1633976377952755
 20
-0.1712834645669291
 30
0.0
 10
2.1638897637795278
 20
-0.1823897637795276
 30
0.0
 10
2.1638897637795278
 20
-0.1823897637795276
 30
0.0
 10
2.1638897637795278
 20
-0.1823897637795276
 30
0.0
 10
2.1638897637795278
 20
-0.1823897637795276
 30
0.0
 10
1.5268110236220473
 20
-0.5585629921259843
 30
0.0
 10
1.5268110236220473
 20
-0.5585629921259843
 30
0.0
 10
1.5268110236220473
 20
-0.5585629921259843
 30
0.0
 10
1.5268110236220473
 20
-0.5585629921259843
 30
0.0
 10
1.5263188976377953
 20
-0.5474566929133858
 30
0.0
 10
1.5263188976377953
 20
-0.5474566929133858
 30
0.0
 10
1.5263188976377953
 20
-0.5474566929133858
 30
0.0
 10
1.5263188976377953
 20
-0.5474566929133858
 30
0.0
 10
1.5248858267716536
 20
-0.5366259842519685
 30
0.0
 10
1.5248858267716536
 20
-0.5366259842519685
 30
0.0
 10
1.5248858267716536
 20
-0.5366259842519685
 30
0.0
 10
1.5248858267716536
 20
-0.5366259842519685
 30
0.0
 10
1.5225472440944883
 20
-0.5261023622047244
 30
0.0
 10
1.5225472440944883
 20
-0.5261023622047244
 30
0.0
 10
1.5225472440944883
 20
-0.5261023622047244
 30
0.0
 10
1.5225472440944883
 20
-0.5261023622047244
 30
0.0
 10
1.5193464566929133
 20
-0.5159409448818898
 30
0.0
 10
1.5193464566929133
 20
-0.5159409448818898
 30
0.0
 10
1.5193464566929133
 20
-0.5159409448818898
 30
0.0
 10
1.5193464566929133
 20
-0.5159409448818898
 30
0.0
 10
1.5153149606299212
 20
-0.5061653543307086
 30
0.0
 10
1.5153149606299212
 20
-0.5061653543307086
 30
0.0
 10
1.5153149606299212
 20
-0.5061653543307086
 30
0.0
 10
1.5153149606299212
 20
-0.5061653543307086
 30
0.0
 10
1.5105118110236222
 20
-0.4968307086614173
 30
0.0
 10
1.5105118110236222
 20
-0.4968307086614173
 30
0.0
 10
1.5105118110236222
 20
-0.4968307086614173
 30
0.0
 10
1.5105118110236222
 20
-0.4968307086614173
 30
0.0
 10
1.5049645669291338
 20
-0.4879685039370079
 30
0.0
 10
1.5049645669291338
 20
-0.4879685039370079
 30
0.0
 10
1.5049645669291338
 20
-0.4879685039370079
 30
0.0
 10
1.5049645669291338
 20
-0.4879685039370079
 30
0.0
 10
1.4987204724409449
 20
-0.4796338582677165
 30
0.0
 10
1.4987204724409449
 20
-0.4796338582677165
 30
0.0
 10
1.4987204724409449
 20
-0.4796338582677165
 30
0.0
 10
1.4987204724409449
 20
-0.4796338582677165
 30
0.0
 10
1.4918070866141733
 20
-0.4718425196850394
 30
0.0
 10
1.4918070866141733
 20
-0.4718425196850394
 30
0.0
 10
1.4918070866141733
 20
-0.4718425196850394
 30
0.0
 10
1.4918070866141733
 20
-0.4718425196850394
 30
0.0
 10
1.4842874015748031
 20
-0.4646574803149606
 30
0.0
 10
1.4842874015748031
 20
-0.4646574803149606
 30
0.0
 10
1.4842874015748031
 20
-0.4646574803149606
 30
0.0
 10
1.4842874015748031
 20
-0.4646574803149606
 30
0.0
 10
1.4761850393700788
 20
-0.4581102362204725
 30
0.0
 10
1.4761850393700788
 20
-0.4581102362204725
 30
0.0
 10
1.4761850393700788
 20
-0.4581102362204725
 30
0.0
 10
1.4761850393700788
 20
-0.4581102362204725
 30
0.0
 10
1.4675511811023623
 20
-0.452248031496063
 30
0.0
 10
1.4675511811023623
 20
-0.452248031496063
 30
0.0
 10
1.4675511811023623
 20
-0.452248031496063
 30
0.0
 10
1.4675511811023623
 20
-0.452248031496063
 30
0.0
 10
1.4584173228346458
 20
-0.4471023622047244
 30
0.0
 10
1.4584173228346458
 20
-0.4471023622047244
 30
0.0
 10
1.4584173228346458
 20
-0.4471023622047244
 30
0.0
 10
1.4584173228346458
 20
-0.4471023622047244
 30
0.0
 10
1.4488385826771655
 20
-0.4427244094488189
 30
0.0
 10
1.4488385826771655
 20
-0.4427244094488189
 30
0.0
 10
1.4488385826771655
 20
-0.4427244094488189
 30
0.0
 10
1.4488385826771655
 20
-0.4427244094488189
 30
0.0
 10
1.4388385826771655
 20
-0.4391456692913386
 30
0.0
 10
1.4388385826771655
 20
-0.4391456692913386
 30
0.0
 10
1.4388385826771655
 20
-0.4391456692913386
 30
0.0
 10
1.4388385826771655
 20
-0.4391456692913386
 30
0.0
 10
1.4284724409448819
 20
-0.4364212598425197
 30
0.0
 10
1.4284724409448819
 20
-0.4364212598425197
 30
0.0
  0
SPLINE
  5
4A
100
AcDbEntity
  8
P1-Layer 1
 62
     9
100
AcDbSpline
210
0.0
220
0.0
230
1.0
 70
     1
 71
     3
 72
    60
 73
    56
 74
     0
 42
0.0000000001
 43
0.0000000001
 40
0.0
 40
0.0
 40
0.0
 40
0.0
 40
0.0714285714285714
 40
0.0714285714285714
 40
0.0714285714285714
 40
0.0714285714285714
 40
0.1428571428571429
 40
0.1428571428571429
 40
0.1428571428571429
 40
0.1428571428571429
 40
0.2142857142857143
 40
0.2142857142857143
 40
0.2142857142857143
 40
0.2142857142857143
 40
0.2857142857142857
 40
0.2857142857142857
 40
0.2857142857142857
 40
0.2857142857142857
 40
0.3571428571428571
 40
0.3571428571428571
 40
0.3571428571428571
 40
0.3571428571428571
 40
0.4285714285714285
 40
0.4285714285714285
 40
0.4285714285714285
 40
0.4285714285714285
 40
0.4999999999999999
 40
0.4999999999999999
 40
0.4999999999999999
 40
0.4999999999999999
 40
0.5714285714285713
 40
0.5714285714285713
 40
0.5714285714285713
 40
0.5714285714285713
 40
0.6428571428571427
 40
0.6428571428571427
 40
0.6428571428571427
 40
0.6428571428571427
 40
0.7142857142857141
 40
0.7142857142857141
 40
0.7142857142857141
 40
0.7142857142857141
 40
0.7857142857142855
 40
0.7857142857142855
 40
0.7857142857142855
 40
0.7857142857142855
 40
0.8571428571428569
 40
0.8571428571428569
 40
0.8571428571428569
 40
0.8571428571428569
 40
0.9285714285714283
 40
0.9285714285714283
 40
0.9285714285714283
 40
0.9285714285714283
 40
1.0
 40
1.0
 40
1.0
 40
1.0
 10
0.9416811023622048
 20
-2.3232559055118109
 30
0.0
 10
0.9416811023622048
 20
-2.3232559055118109
 30
0.0
 10
1.5787598425196852
 20
-1.9470826771653544
 30
0.0
 10
1.5787598425196852
 20
-1.9470826771653544
 30
0.0
 10
1.5787598425196852
 20
-1.9470826771653544
 30
0.0
 10
1.5787598425196852
 20
-1.9470826771653544
 30
0.0
 10
1.5726377952755906
 20
-1.9514291338582679
 30
0.0
 10
1.5726377952755906
 20
-1.9514291338582679
 30
0.0
 10
1.5726377952755906
 20
-1.9514291338582679
 30
0.0
 10
1.5726377952755906
 20
-1.9514291338582679
 30
0.0
 10
1.566744094488189
 20
-1.9560629921259842
 30
0.0
 10
1.566744094488189
 20
-1.9560629921259842
 30
0.0
 10
1.566744094488189
 20
-1.9560629921259842
 30
0.0
 10
1.566744094488189
 20
-1.9560629921259842
 30
0.0
 10
1.5610787401574804
 20
-1.960964566929134
 30
0.0
 10
1.5610787401574804
 20
-1.960964566929134
 30
0.0
 10
1.5610787401574804
 20
-1.960964566929134
 30
0.0
 10
1.5610787401574804
 20
-1.960964566929134
 30
0.0
 10
1.5556653543307086
 20
-1.9661377952755905
 30
0.0
 10
1.5556653543307086
 20
-1.9661377952755905
 30
0.0
 10
1.5556653543307086
 20
-1.9661377952755905
 30
0.0
 10
1.5556653543307086
 20
-1.9661377952755905
 30
0.0
 10
1.5504921259842521
 20
-1.9715511811023623
 30
0.0
 10
1.5504921259842521
 20
-1.9715511811023623
 30
0.0
 10
1.5504921259842521
 20
-1.9715511811023623
 30
0.0
 10
1.5504921259842521
 20
-1.9715511811023623
 30
0.0
 10
1.5455866141732284
 20
-1.977208661417323
 30
0.0
 10
1.5455866141732284
 20
-1.977208661417323
 30
0.0
 10
1.5455866141732284
 20
-1.977208661417323
 30
0.0
 10
1.5455866141732284
 20
-1.977208661417323
 30
0.0
 10
0.9085078740157481
 20
-2.3533818897637797
 30
0.0
 10
0.9085078740157481
 20
-2.3533818897637797
 30
0.0
 10
0.9085078740157481
 20
-2.3533818897637797
 30
0.0
 10
0.9085078740157481
 20
-2.3533818897637797
 30
0.0
 10
0.9134133858267717
 20
-2.3477244094488188
 30
0.0
 10
0.9134133858267717
 20
-2.3477244094488188
 30
0.0
 10
0.9134133858267717
 20
-2.3477244094488188
 30
0.0
 10
0.9134133858267717
 20
-2.3477244094488188
 30
0.0
 10
0.9185866141732284
 20
-2.3423110236220475
 30
0.0
 10
0.9185866141732284
 20
-2.3423110236220475
 30
0.0
 10
0.9185866141732284
 20
-2.3423110236220475
 30
0.0
 10
0.9185866141732284
 20
-2.3423110236220475
 30
0.0
 10
0.924
 20
-2.3371377952755905
 30
0.0
 10
0.924
 20
-2.3371377952755905
 30
0.0
 10
0.924
 20
-2.3371377952755905
 30
0.0
 10
0.924
 20
-2.3371377952755905
 30
0.0
 10
0.9296653543307087
 20
-2.3322362204724412
 30
0.0
 10
0.9296653543307087
 20
-2.3322362204724412
 30
0.0
 10
0.9296653543307087
 20
-2.3322362204724412
 30
0.0
 10
0.9296653543307087
 20
-2.3322362204724412
 30
0.0
 10
0.9355590551181102
 20
-2.3276023622047246
 30
0.0
 10
0.9355590551181102
 20
-2.3276023622047246
 30
0.0
 10
0.9355590551181102
 20
-2.3276023622047246
 30
0.0
 10
0.9355590551181102
 20
-2.3276023622047246
 30
0.0
 10
0.9416811023622048
 20
-2.3232559055118109
 30
0.0
 10
0.9416811023622048
 20
-2.3232559055118109
 30
0.0
  0
SPLINE
  5
4B
100
AcDbEntity
  8
P1-Layer 1
 62
     9
100
AcDbSpline
210
0.0
220
0.0
230
1.0
 70
     1
 71
     3
 72
    60
 73
    56
 74
     0
 42
0.0000000001
 43
0.0000000001
 40
0.0
 40
0.0
 40
0.0
 40
0.0
 40
0.0714285714285714
 40
0.0714285714285714
 40
0.0714285714285714
 40
0.0714285714285714
 40
0.1428571428571429
 40
0.1428571428571429
 40
0.1428571428571429
 40
0.1428571428571429
 40
0.2142857142857143
 40
0.2142857142857143
 40
0.2142857142857143
 40
0.2142857142857143
 40
0.2857142857142857
 40
0.2857142857142857
 40
0.2857142857142857
 40
0.2857142857142857
 40
0.3571428571428571
 40
0.3571428571428571
 40
0.3571428571428571
 40
0.3571428571428571
 40
0.4285714285714285
 40
0.4285714285714285
 40
0.4285714285714285
 40
0.4285714285714285
 40
0.4999999999999999
 40
0.4999999999999999
 40
0.4999999999999999
 40
0.4999999999999999
 40
0.5714285714285713
 40
0.5714285714285713
 40
0.5714285714285713
 40
0.5714285714285713
 40
0.6428571428571427
 40
0.6428571428571427
 40
0.6428571428571427
 40
0.6428571428571427
 40
0.7142857142857141
 40
0.7142857142857141
 40
0.7142857142857141
 40
0.7142857142857141
 40
0.7857142857142855
 40
0.7857142857142855
 40
0.7857142857142855
 40
0.7857142857142855
 40
0.8571428571428569
 40
0.8571428571428569
 40
0.8571428571428569
 40
0.8571428571428569
 40
0.9285714285714283
 40
0.9285714285714283
 40
0.9285714285714283
 40
0.9285714285714283
 40
1.0
 40
1.0
 40
1.0
 40
1.0
 10
0.9085078740157481
 20
-2.3533818897637797
 30
0.0
 10
0.9085078740157481
 20
-2.3533818897637797
 30
0.0
 10
1.5455866141732284
 20
-1.977208661417323
 30
0.0
 10
1.5455866141732284
 20
-1.977208661417323
 30
0.0
 10
1.5455866141732284
 20
-1.977208661417323
 30
0.0
 10
1.5455866141732284
 20
-1.977208661417323
 30
0.0
 10
1.5409488188976379
 20
-1.9831023622047246
 30
0.0
 10
1.5409488188976379
 20
-1.9831023622047246
 30
0.0
 10
1.5409488188976379
 20
-1.9831023622047246
 30
0.0
 10
1.5409488188976379
 20
-1.9831023622047246
 30
0.0
 10
1.5366023622047245
 20
-1.989220472440945
 30
0.0
 10
1.5366023622047245
 20
-1.989220472440945
 30
0.0
 10
1.5366023622047245
 20
-1.989220472440945
 30
0.0
 10
1.5366023622047245
 20
-1.989220472440945
 30
0.0
 10
1.5325354330708663
 20
-1.9955472440944884
 30
0.0
 10
1.5325354330708663
 20
-1.9955472440944884
 30
0.0
 10
1.5325354330708663
 20
-1.9955472440944884
 30
0.0
 10
1.5325354330708663
 20
-1.9955472440944884
 30
0.0
 10
1.5287795275590552
 20
-2.0020826771653546
 30
0.0
 10
1.5287795275590552
 20
-2.0020826771653546
 30
0.0
 10
1.5287795275590552
 20
-2.0020826771653546
 30
0.0
 10
1.5287795275590552
 20
-2.0020826771653546
 30
0.0
 10
1.5253307086614174
 20
-2.0088070866141732
 30
0.0
 10
1.5253307086614174
 20
-2.0088070866141732
 30
0.0
 10
1.5253307086614174
 20
-2.0088070866141732
 30
0.0
 10
1.5253307086614174
 20
-2.0088070866141732
 30
0.0
 10
1.5222125984251969
 20
-2.015720472440945
 30
0.0
 10
1.5222125984251969
 20
-2.015720472440945
 30
0.0
 10
1.5222125984251969
 20
-2.015720472440945
 30
0.0
 10
1.5222125984251969
 20
-2.015720472440945
 30
0.0
 10
0.8851338582677166
 20
-2.3918937007874015
 30
0.0
 10
0.8851338582677166
 20
-2.3918937007874015
 30
0.0
 10
0.8851338582677166
 20
-2.3918937007874015
 30
0.0
 10
0.8851338582677166
 20
-2.3918937007874015
 30
0.0
 10
0.8882519685039371
 20
-2.3849803149606301
 30
0.0
 10
0.8882519685039371
 20
-2.3849803149606301
 30
0.0
 10
0.8882519685039371
 20
-2.3849803149606301
 30
0.0
 10
0.8882519685039371
 20
-2.3849803149606301
 30
0.0
 10
0.8917007874015749
 20
-2.3782559055118111
 30
0.0
 10
0.8917007874015749
 20
-2.3782559055118111
 30
0.0
 10
0.8917007874015749
 20
-2.3782559055118111
 30
0.0
 10
0.8917007874015749
 20
-2.3782559055118111
 30
0.0
 10
0.8954566929133858
 20
-2.3717204724409449
 30
0.0
 10
0.8954566929133858
 20
-2.3717204724409449
 30
0.0
 10
0.8954566929133858
 20
-2.3717204724409449
 30
0.0
 10
0.8954566929133858
 20
-2.3717204724409449
 30
0.0
 10
0.8995236220472441
 20
-2.3653937007874015
 30
0.0
 10
0.8995236220472441
 20
-2.3653937007874015
 30
0.0
 10
0.8995236220472441
 20
-2.3653937007874015
 30
0.0
 10
0.8995236220472441
 20
-2.3653937007874015
 30
0.0
 10
0.9038700787401576
 20
-2.3592755905511811
 30
0.0
 10
0.9038700787401576
 20
-2.3592755905511811
 30
0.0
 10
0.9038700787401576
 20
-2.3592755905511811
 30
0.0
 10
0.9038700787401576
 20
-2.3592755905511811
 30
0.0
 10
0.9085078740157481
 20
-2.3533818897637797
 30
0.0
 10
0.9085078740157481
 20
-2.3533818897637797
 30
0.0
  0
SPLINE
  5
4C
100
AcDbEntity
  8
P1-Layer 1
 62
     9
100
AcDbSpline
210
0.0
220
0.0
230
1.0
 70
     1
 71
     3
 72
    60
 73
    56
 74
     0
 42
0.0000000001
 43
0.0000000001
 40
0.0
 40
0.0
 40
0.0
 40
0.0
 40
0.0714285714285714
 40
0.0714285714285714
 40
0.0714285714285714
 40
0.0714285714285714
 40
0.1428571428571429
 40
0.1428571428571429
 40
0.1428571428571429
 40
0.1428571428571429
 40
0.2142857142857143
 40
0.2142857142857143
 40
0.2142857142857143
 40
0.2142857142857143
 40
0.2857142857142857
 40
0.2857142857142857
 40
0.2857142857142857
 40
0.2857142857142857
 40
0.3571428571428571
 40
0.3571428571428571
 40
0.3571428571428571
 40
0.3571428571428571
 40
0.4285714285714285
 40
0.4285714285714285
 40
0.4285714285714285
 40
0.4285714285714285
 40
0.4999999999999999
 40
0.4999999999999999
 40
0.4999999999999999
 40
0.4999999999999999
 40
0.5714285714285713
 40
0.5714285714285713
 40
0.5714285714285713
 40
0.5714285714285713
 40
0.6428571428571427
 40
0.6428571428571427
 40
0.6428571428571427
 40
0.6428571428571427
 40
0.7142857142857141
 40
0.7142857142857141
 40
0.7142857142857141
 40
0.7142857142857141
 40
0.7857142857142855
 40
0.7857142857142855
 40
0.7857142857142855
 40
0.7857142857142855
 40
0.8571428571428569
 40
0.8571428571428569
 40
0.8571428571428569
 40
0.8571428571428569
 40
0.9285714285714283
 40
0.9285714285714283
 40
0.9285714285714283
 40
0.9285714285714283
 40
1.0
 40
1.0
 40
1.0
 40
1.0
 10
0.8851338582677166
 20
-2.3918937007874015
 30
0.0
 10
0.8851338582677166
 20
-2.3918937007874015
 30
0.0
 10
1.5222125984251969
 20
-2.015720472440945
 30
0.0
 10
1.5222125984251969
 20
-2.015720472440945
 30
0.0
 10
1.5222125984251969
 20
-2.015720472440945
 30
0.0
 10
1.5222125984251969
 20
-2.015720472440945
 30
0.0
 10
1.5194133858267718
 20
-2.0227992125984251
 30
0.0
 10
1.5194133858267718
 20
-2.0227992125984251
 30
0.0
 10
1.5194133858267718
 20
-2.0227992125984251
 30
0.0
 10
1.5194133858267718
 20
-2.0227992125984251
 30
0.0
 10
1.5169606299212599
 20
-2.0300472440944883
 30
0.0
 10
1.5169606299212599
 20
-2.0300472440944883
 30
0.0
 10
1.5169606299212599
 20
-2.0300472440944883
 30
0.0
 10
1.5169606299212599
 20
-2.0300472440944883
 30
0.0
 10
1.5148582677165354
 20
-2.0374488188976381
 30
0.0
 10
1.5148582677165354
 20
-2.0374488188976381
 30
0.0
 10
1.5148582677165354
 20
-2.0374488188976381
 30
0.0
 10
1.5148582677165354
 20
-2.0374488188976381
 30
0.0
 10
1.5131181102362206
 20
-2.0449999999999999
 30
0.0
 10
1.5131181102362206
 20
-2.0449999999999999
 30
0.0
 10
1.5131181102362206
 20
-2.0449999999999999
 30
0.0
 10
1.5131181102362206
 20
-2.0449999999999999
 30
0.0
 10
1.5117401574803151
 20
-2.0526811023622047
 30
0.0
 10
1.5117401574803151
 20
-2.0526811023622047
 30
0.0
 10
1.5117401574803151
 20
-2.0526811023622047
 30
0.0
 10
1.5117401574803151
 20
-2.0526811023622047
 30
0.0
 10
1.510751968503937
 20
-2.060488188976378
 30
0.0
 10
1.510751968503937
 20
-2.060488188976378
 30
0.0
 10
1.510751968503937
 20
-2.060488188976378
 30
0.0
 10
1.510751968503937
 20
-2.060488188976378
 30
0.0
 10
0.8736732283464568
 20
-2.4366614173228349
 30
0.0
 10
0.8736732283464568
 20
-2.4366614173228349
 30
0.0
 10
0.8736732283464568
 20
-2.4366614173228349
 30
0.0
 10
0.8736732283464568
 20
-2.4366614173228349
 30
0.0
 10
0.8746614173228346
 20
-2.4288543307086616
 30
0.0
 10
0.8746614173228346
 20
-2.4288543307086616
 30
0.0
 10
0.8746614173228346
 20
-2.4288543307086616
 30
0.0
 10
0.8746614173228346
 20
-2.4288543307086616
 30
0.0
 10
0.8760393700787402
 20
-2.4211732283464569
 30
0.0
 10
0.8760393700787402
 20
-2.4211732283464569
 30
0.0
 10
0.8760393700787402
 20
-2.4211732283464569
 30
0.0
 10
0.8760393700787402
 20
-2.4211732283464569
 30
0.0
 10
0.8777795275590552
 20
-2.4136220472440946
 30
0.0
 10
0.8777795275590552
 20
-2.4136220472440946
 30
0.0
 10
0.8777795275590552
 20
-2.4136220472440946
 30
0.0
 10
0.8777795275590552
 20
-2.4136220472440946
 30
0.0
 10
0.8798818897637796
 20
-2.4062204724409448
 30
0.0
 10
0.8798818897637796
 20
-2.4062204724409448
 30
0.0
 10
0.8798818897637796
 20
-2.4062204724409448
 30
0.0
 10
0.8798818897637796
 20
-2.4062204724409448
 30
0.0
 10
0.8823346456692913
 20
-2.398972440944882
 30
0.0
 10
0.8823346456692913
 20
-2.398972440944882
 30
0.0
 10
0.8823346456692913
 20
-2.398972440944882
 30
0.0
 10
0.8823346456692913
 20
-2.398972440944882
 30
0.0
 10
0.8851338582677166
 20
-2.3918937007874015
 30
0.0
 10
0.8851338582677166
 20
-2.3918937007874015
 30
0.0
  0
SPLINE
  5
4D
100
AcDbEntity
  8
P1-Layer 1
 62
     9
100
AcDbSpline
210
0.0
220
0.0
230
1.0
 70
     1
 71
     3
 72
    28
 73
    24
 74
     0
 42
0.0000000001
 43
0.0000000001
 40
0.0
 40
0.0
 40
0.0
 40
0.0
 40
0.1666666666666667
 40
0.1666666666666667
 40
0.1666666666666667
 40
0.1666666666666667
 40
0.3333333333333333
 40
0.3333333333333333
 40
0.3333333333333333
 40
0.3333333333333333
 40
0.5
 40
0.5
 40
0.5
 40
0.5
 40
0.6666666666666666
 40
0.6666666666666666
 40
0.6666666666666666
 40
0.6666666666666666
 40
0.8333333333333333
 40
0.8333333333333333
 40
0.8333333333333333
 40
0.8333333333333333
 40
1.0
 40
1.0
 40
1.0
 40
1.0
 10
0.8736732283464568
 20
-2.4366614173228349
 30
0.0
 10
0.8736732283464568
 20
-2.4366614173228349
 30
0.0
 10
1.510751968503937
 20
-2.060488188976378
 30
0.0
 10
1.510751968503937
 20
-2.060488188976378
 30
0.0
 10
1.510751968503937
 20
-2.060488188976378
 30
0.0
 10
1.510751968503937
 20
-2.060488188976378
 30
0.0
 10
1.5101496062992126
 20
-2.0684094488188975
 30
0.0
 10
1.5101496062992126
 20
-2.0684094488188975
 30
0.0
 10
1.5101496062992126
 20
-2.0684094488188975
 30
0.0
 10
1.5101496062992126
 20
-2.0684094488188975
 30
0.0
 10
1.5099488188976378
 20
-2.0764409448818899
 30
0.0
 10
1.5099488188976378
 20
-2.0764409448818899
 30
0.0
 10
1.5099488188976378
 20
-2.0764409448818899
 30
0.0
 10
1.5099488188976378
 20
-2.0764409448818899
 30
0.0
 10
0.8728700787401575
 20
-2.4526141732283464
 30
0.0
 10
0.8728700787401575
 20
-2.4526141732283464
 30
0.0
 10
0.8728700787401575
 20
-2.4526141732283464
 30
0.0
 10
0.8728700787401575
 20
-2.4526141732283464
 30
0.0
 10
0.8730708661417324
 20
-2.4445826771653545
 30
0.0
 10
0.8730708661417324
 20
-2.4445826771653545
 30
0.0
 10
0.8730708661417324
 20
-2.4445826771653545
 30
0.0
 10
0.8730708661417324
 20
-2.4445826771653545
 30
0.0
 10
0.8736732283464568
 20
-2.4366614173228349
 30
0.0
 10
0.8736732283464568
 20
-2.4366614173228349
 30
0.0
  0
SPLINE
  5
4E
100
AcDbEntity
  8
P1-Layer 1
370
     5
100
AcDbSpline
210
0.0
220
0.0
230
1.0
 70
     1
 71
     3
 72
   172
 73
   168
 74
     0
 42
0.0000000001
 43
0.0000000001
 40
0.0
 40
0.0
 40
0.0
 40
0.0
 40
0.0238095238095238
 40
0.0238095238095238
 40
0.0238095238095238
 40
0.0238095238095238
 40
0.0476190476190476
 40
0.0476190476190476
 40
0.0476190476190476
 40
0.0476190476190476
 40
0.0714285714285714
 40
0.0714285714285714
 40
0.0714285714285714
 40
0.0714285714285714
 40
0.0952380952380952
 40
0.0952380952380952
 40
0.0952380952380952
 40
0.0952380952380952
 40
0.119047619047619
 40
0.119047619047619
 40
0.119047619047619
 40
0.119047619047619
 40
0.1428571428571429
 40
0.1428571428571429
 40
0.1428571428571429
 40
0.1428571428571429
 40
0.1666666666666667
 40
0.1666666666666667
 40
0.1666666666666667
 40
0.1666666666666667
 40
0.1904761904761905
 40
0.1904761904761905
 40
0.1904761904761905
 40
0.1904761904761905
 40
0.2142857142857143
 40
0.2142857142857143
 40
0.2142857142857143
 40
0.2142857142857143
 40
0.2380952380952381
 40
0.2380952380952381
 40
0.2380952380952381
 40
0.2380952380952381
 40
0.2619047619047619
 40
0.2619047619047619
 40
0.2619047619047619
 40
0.2619047619047619
 40
0.2857142857142857
 40
0.2857142857142857
 40
0.2857142857142857
 40
0.2857142857142857
 40
0.3095238095238095
 40
0.3095238095238095
 40
0.3095238095238095
 40
0.3095238095238095
 40
0.3333333333333334
 40
0.3333333333333334
 40
0.3333333333333334
 40
0.3333333333333334
 40
0.3571428571428572
 40
0.3571428571428572
 40
0.3571428571428572
 40
0.3571428571428572
 40
0.380952380952381
 40
0.380952380952381
 40
0.380952380952381
 40
0.380952380952381
 40
0.4047619047619049
 40
0.4047619047619049
 40
0.4047619047619049
 40
0.4047619047619049
 40
0.4285714285714287
 40
0.4285714285714287
 40
0.4285714285714287
 40
0.4285714285714287
 40
0.4523809523809526
 40
0.4523809523809526
 40
0.4523809523809526
 40
0.4523809523809526
 40
0.4761904761904764
 40
0.4761904761904764
 40
0.4761904761904764
 40
0.4761904761904764
 40
0.5000000000000002
 40
0.5000000000000002
 40
0.5000000000000002
 40
0.5000000000000002
 40
0.5238095238095241
 40
0.5238095238095241
 40
0.5238095238095241
 40
0.5238095238095241
 40
0.5476190476190479
 40
0.5476190476190479
 40
0.5476190476190479
 40
0.5476190476190479
 40
0.5714285714285717
 40
0.5714285714285717
 40
0.5714285714285717
 40
0.5714285714285717
 40
0.5952380952380956
 40
0.5952380952380956
 40
0.5952380952380956
 40
0.5952380952380956
 40
0.6190476190476194
 40
0.6190476190476194
 40
0.6190476190476194
 40
0.6190476190476194
 40
0.6428571428571432
 40
0.6428571428571432
 40
0.6428571428571432
 40
0.6428571428571432
 40
0.6666666666666671
 40
0.6666666666666671
 40
0.6666666666666671
 40
0.6666666666666671
 40
0.6904761904761909
 40
0.6904761904761909
 40
0.6904761904761909
 40
0.6904761904761909
 40
0.7142857142857148
 40
0.7142857142857148
 40
0.7142857142857148
 40
0.7142857142857148
 40
0.7380952380952386
 40
0.7380952380952386
 40
0.7380952380952386
 40
0.7380952380952386
 40
0.7619047619047624
 40
0.7619047619047624
 40
0.7619047619047624
 40
0.7619047619047624
 40
0.7857142857142863
 40
0.7857142857142863
 40
0.7857142857142863
 40
0.7857142857142863
 40
0.8095238095238101
 40
0.8095238095238101
 40
0.8095238095238101
 40
0.8095238095238101
 40
0.8333333333333339
 40
0.8333333333333339
 40
0.8333333333333339
 40
0.8333333333333339
 40
0.8571428571428578
 40
0.8571428571428578
 40
0.8571428571428578
 40
0.8571428571428578
 40
0.8809523809523816
 40
0.8809523809523816
 40
0.8809523809523816
 40
0.8809523809523816
 40
0.9047619047619054
 40
0.9047619047619054
 40
0.9047619047619054
 40
0.9047619047619054
 40
0.9285714285714293
 40
0.9285714285714293
 40
0.9285714285714293
 40
0.9285714285714293
 40
0.9523809523809531
 40
0.9523809523809531
 40
0.9523809523809531
 40
0.9523809523809531
 40
0.9761904761904769
 40
0.9761904761904769
 40
0.9761904761904769
 40
0.9761904761904769
 40
1.0
 40
1.0
 40
1.0
 40
1.0
 10
0.9416811023622048
 20
-2.3232559055118109
 30
0.0
 10
0.9416811023622048
 20
-2.3232559055118109
 30
0.0
 10
1.5787598425196852
 20
-1.9470826771653544
 30
0.0
 10
1.5787598425196852
 20
-1.9470826771653544
 30
0.0
 10
1.5787598425196852
 20
-1.9470826771653544
 30
0.0
 10
1.5787598425196852
 20
-1.9470826771653544
 30
0.0
 10
1.5726377952755906
 20
-1.9514291338582679
 30
0.0
 10
1.5726377952755906
 20
-1.9514291338582679
 30
0.0
 10
1.5726377952755906
 20
-1.9514291338582679
 30
0.0
 10
1.5726377952755906
 20
-1.9514291338582679
 30
0.0
 10
1.566744094488189
 20
-1.9560629921259842
 30
0.0
 10
1.566744094488189
 20
-1.9560629921259842
 30
0.0
 10
1.566744094488189
 20
-1.9560629921259842
 30
0.0
 10
1.566744094488189
 20
-1.9560629921259842
 30
0.0
 10
1.5610787401574804
 20
-1.960964566929134
 30
0.0
 10
1.5610787401574804
 20
-1.960964566929134
 30
0.0
 10
1.5610787401574804
 20
-1.960964566929134
 30
0.0
 10
1.5610787401574804
 20
-1.960964566929134
 30
0.0
 10
1.5556653543307086
 20
-1.9661377952755905
 30
0.0
 10
1.5556653543307086
 20
-1.9661377952755905
 30
0.0
 10
1.5556653543307086
 20
-1.9661377952755905
 30
0.0
 10
1.5556653543307086
 20
-1.9661377952755905
 30
0.0
 10
1.5504921259842521
 20
-1.9715511811023623
 30
0.0
 10
1.5504921259842521
 20
-1.9715511811023623
 30
0.0
 10
1.5504921259842521
 20
-1.9715511811023623
 30
0.0
 10
1.5504921259842521
 20
-1.9715511811023623
 30
0.0
 10
1.5455866141732284
 20
-1.977208661417323
 30
0.0
 10
1.5455866141732284
 20
-1.977208661417323
 30
0.0
 10
1.5455866141732284
 20
-1.977208661417323
 30
0.0
 10
1.5455866141732284
 20
-1.977208661417323
 30
0.0
 10
1.5409488188976379
 20
-1.9831023622047246
 30
0.0
 10
1.5409488188976379
 20
-1.9831023622047246
 30
0.0
 10
1.5409488188976379
 20
-1.9831023622047246
 30
0.0
 10
1.5409488188976379
 20
-1.9831023622047246
 30
0.0
 10
1.5366023622047245
 20
-1.989220472440945
 30
0.0
 10
1.5366023622047245
 20
-1.989220472440945
 30
0.0
 10
1.5366023622047245
 20
-1.989220472440945
 30
0.0
 10
1.5366023622047245
 20
-1.989220472440945
 30
0.0
 10
1.5325354330708663
 20
-1.9955472440944884
 30
0.0
 10
1.5325354330708663
 20
-1.9955472440944884
 30
0.0
 10
1.5325354330708663
 20
-1.9955472440944884
 30
0.0
 10
1.5325354330708663
 20
-1.9955472440944884
 30
0.0
 10
1.5287795275590552
 20
-2.0020826771653546
 30
0.0
 10
1.5287795275590552
 20
-2.0020826771653546
 30
0.0
 10
1.5287795275590552
 20
-2.0020826771653546
 30
0.0
 10
1.5287795275590552
 20
-2.0020826771653546
 30
0.0
 10
1.5253307086614174
 20
-2.0088070866141732
 30
0.0
 10
1.5253307086614174
 20
-2.0088070866141732
 30
0.0
 10
1.5253307086614174
 20
-2.0088070866141732
 30
0.0
 10
1.5253307086614174
 20
-2.0088070866141732
 30
0.0
 10
1.5222125984251969
 20
-2.015720472440945
 30
0.0
 10
1.5222125984251969
 20
-2.015720472440945
 30
0.0
 10
1.5222125984251969
 20
-2.015720472440945
 30
0.0
 10
1.5222125984251969
 20
-2.015720472440945
 30
0.0
 10
1.5194133858267718
 20
-2.0227992125984251
 30
0.0
 10
1.5194133858267718
 20
-2.0227992125984251
 30
0.0
 10
1.5194133858267718
 20
-2.0227992125984251
 30
0.0
 10
1.5194133858267718
 20
-2.0227992125984251
 30
0.0
 10
1.5169606299212599
 20
-2.0300472440944883
 30
0.0
 10
1.5169606299212599
 20
-2.0300472440944883
 30
0.0
 10
1.5169606299212599
 20
-2.0300472440944883
 30
0.0
 10
1.5169606299212599
 20
-2.0300472440944883
 30
0.0
 10
1.5148582677165354
 20
-2.0374488188976381
 30
0.0
 10
1.5148582677165354
 20
-2.0374488188976381
 30
0.0
 10
1.5148582677165354
 20
-2.0374488188976381
 30
0.0
 10
1.5148582677165354
 20
-2.0374488188976381
 30
0.0
 10
1.5131181102362206
 20
-2.0449999999999999
 30
0.0
 10
1.5131181102362206
 20
-2.0449999999999999
 30
0.0
 10
1.5131181102362206
 20
-2.0449999999999999
 30
0.0
 10
1.5131181102362206
 20
-2.0449999999999999
 30
0.0
 10
1.5117401574803151
 20
-2.0526811023622047
 30
0.0
 10
1.5117401574803151
 20
-2.0526811023622047
 30
0.0
 10
1.5117401574803151
 20
-2.0526811023622047
 30
0.0
 10
1.5117401574803151
 20
-2.0526811023622047
 30
0.0
 10
1.510751968503937
 20
-2.060488188976378
 30
0.0
 10
1.510751968503937
 20
-2.060488188976378
 30
0.0
 10
1.510751968503937
 20
-2.060488188976378
 30
0.0
 10
1.510751968503937
 20
-2.060488188976378
 30
0.0
 10
1.5101496062992126
 20
-2.0684094488188975
 30
0.0
 10
1.5101496062992126
 20
-2.0684094488188975
 30
0.0
 10
1.5101496062992126
 20
-2.0684094488188975
 30
0.0
 10
1.5101496062992126
 20
-2.0684094488188975
 30
0.0
 10
1.5099488188976378
 20
-2.0764409448818899
 30
0.0
 10
1.5099488188976378
 20
-2.0764409448818899
 30
0.0
 10
1.5099488188976378
 20
-2.0764409448818899
 30
0.0
 10
1.5099488188976378
 20
-2.0764409448818899
 30
0.0
 10
0.8728700787401575
 20
-2.4526141732283464
 30
0.0
 10
0.8728700787401575
 20
-2.4526141732283464
 30
0.0
 10
0.8728700787401575
 20
-2.4526141732283464
 30
0.0
 10
0.8728700787401575
 20
-2.4526141732283464
 30
0.0
 10
0.8730708661417324
 20
-2.4445826771653545
 30
0.0
 10
0.8730708661417324
 20
-2.4445826771653545
 30
0.0
 10
0.8730708661417324
 20
-2.4445826771653545
 30
0.0
 10
0.8730708661417324
 20
-2.4445826771653545
 30
0.0
 10
0.8736732283464568
 20
-2.4366614173228349
 30
0.0
 10
0.8736732283464568
 20
-2.4366614173228349
 30
0.0
 10
0.8736732283464568
 20
-2.4366614173228349
 30
0.0
 10
0.8736732283464568
 20
-2.4366614173228349
 30
0.0
 10
0.8746614173228346
 20
-2.4288543307086616
 30
0.0
 10
0.8746614173228346
 20
-2.4288543307086616
 30
0.0
 10
0.8746614173228346
 20
-2.4288543307086616
 30
0.0
 10
0.8746614173228346
 20
-2.4288543307086616
 30
0.0
 10
0.8760393700787402
 20
-2.4211732283464569
 30
0.0
 10
0.8760393700787402
 20
-2.4211732283464569
 30
0.0
 10
0.8760393700787402
 20
-2.4211732283464569
 30
0.0
 10
0.8760393700787402
 20
-2.4211732283464569
 30
0.0
 10
0.8777795275590552
 20
-2.4136220472440946
 30
0.0
 10
0.8777795275590552
 20
-2.4136220472440946
 30
0.0
 10
0.8777795275590552
 20
-2.4136220472440946
 30
0.0
 10
0.8777795275590552
 20
-2.4136220472440946
 30
0.0
 10
0.8798818897637796
 20
-2.4062204724409448
 30
0.0
 10
0.8798818897637796
 20
-2.4062204724409448
 30
0.0
 10
0.8798818897637796
 20
-2.4062204724409448
 30
0.0
 10
0.8798818897637796
 20
-2.4062204724409448
 30
0.0
 10
0.8823346456692913
 20
-2.398972440944882
 30
0.0
 10
0.8823346456692913
 20
-2.398972440944882
 30
0.0
 10
0.8823346456692913
 20
-2.398972440944882
 30
0.0
 10
0.8823346456692913
 20
-2.398972440944882
 30
0.0
 10
0.8851338582677166
 20
-2.3918937007874015
 30
0.0
 10
0.8851338582677166
 20
-2.3918937007874015
 30
0.0
 10
0.8851338582677166
 20
-2.3918937007874015
 30
0.0
 10
0.8851338582677166
 20
-2.3918937007874015
 30
0.0
 10
0.8882519685039371
 20
-2.3849803149606301
 30
0.0
 10
0.8882519685039371
 20
-2.3849803149606301
 30
0.0
 10
0.8882519685039371
 20
-2.3849803149606301
 30
0.0
 10
0.8882519685039371
 20
-2.3849803149606301
 30
0.0
 10
0.8917007874015749
 20
-2.3782559055118111
 30
0.0
 10
0.8917007874015749
 20
-2.3782559055118111
 30
0.0
 10
0.8917007874015749
 20
-2.3782559055118111
 30
0.0
 10
0.8917007874015749
 20
-2.3782559055118111
 30
0.0
 10
0.8954566929133858
 20
-2.3717204724409449
 30
0.0
 10
0.8954566929133858
 20
-2.3717204724409449
 30
0.0
 10
0.8954566929133858
 20
-2.3717204724409449
 30
0.0
 10
0.8954566929133858
 20
-2.3717204724409449
 30
0.0
 10
0.8995236220472441
 20
-2.3653937007874015
 30
0.0
 10
0.8995236220472441
 20
-2.3653937007874015
 30
0.0
 10
0.8995236220472441
 20
-2.3653937007874015
 30
0.0
 10
0.8995236220472441
 20
-2.3653937007874015
 30
0.0
 10
0.9038700787401576
 20
-2.3592755905511811
 30
0.0
 10
0.9038700787401576
 20
-2.3592755905511811
 30
0.0
 10
0.9038700787401576
 20
-2.3592755905511811
 30
0.0
 10
0.9038700787401576
 20
-2.3592755905511811
 30
0.0
 10
0.9085078740157481
 20
-2.3533818897637797
 30
0.0
 10
0.9085078740157481
 20
-2.3533818897637797
 30
0.0
 10
0.9085078740157481
 20
-2.3533818897637797
 30
0.0
 10
0.9085078740157481
 20
-2.3533818897637797
 30
0.0
 10
0.9134133858267717
 20
-2.3477244094488188
 30
0.0
 10
0.9134133858267717
 20
-2.3477244094488188
 30
0.0
 10
0.9134133858267717
 20
-2.3477244094488188
 30
0.0
 10
0.9134133858267717
 20
-2.3477244094488188
 30
0.0
 10
0.9185866141732284
 20
-2.3423110236220475
 30
0.0
 10
0.9185866141732284
 20
-2.3423110236220475
 30
0.0
 10
0.9185866141732284
 20
-2.3423110236220475
 30
0.0
 10
0.9185866141732284
 20
-2.3423110236220475
 30
0.0
 10
0.924
 20
-2.3371377952755905
 30
0.0
 10
0.924
 20
-2.3371377952755905
 30
0.0
 10
0.924
 20
-2.3371377952755905
 30
0.0
 10
0.924
 20
-2.3371377952755905
 30
0.0
 10
0.9296653543307087
 20
-2.3322362204724412
 30
0.0
 10
0.9296653543307087
 20
-2.3322362204724412
 30
0.0
 10
0.9296653543307087
 20
-2.3322362204724412
 30
0.0
 10
0.9296653543307087
 20
-2.3322362204724412
 30
0.0
 10
0.9355590551181102
 20
-2.3276023622047246
 30
0.0
 10
0.9355590551181102
 20
-2.3276023622047246
 30
0.0
 10
0.9355590551181102
 20
-2.3276023622047246
 30
0.0
 10
0.9355590551181102
 20
-2.3276023622047246
 30
0.0
 10
0.9416811023622048
 20
-2.3232559055118109
 30
0.0
 10
0.9416811023622048
 20
-2.3232559055118109
 30
0.0
  0
SPLINE
  5
4F
100
AcDbEntity
  8
P1-Layer 1
 62
     9
100
AcDbSpline
210
0.0
220
0.0
230
1.0
 70
     1
 71
     3
 72
    76
 73
    72
 74
     0
 42
0.0000000001
 43
0.0000000001
 40
0.0
 40
0.0
 40
0.0
 40
0.0
 40
0.0555555555555556
 40
0.0555555555555556
 40
0.0555555555555556
 40
0.0555555555555556
 40
0.1111111111111111
 40
0.1111111111111111
 40
0.1111111111111111
 40
0.1111111111111111
 40
0.1666666666666667
 40
0.1666666666666667
 40
0.1666666666666667
 40
0.1666666666666667
 40
0.2222222222222222
 40
0.2222222222222222
 40
0.2222222222222222
 40
0.2222222222222222
 40
0.2777777777777778
 40
0.2777777777777778
 40
0.2777777777777778
 40
0.2777777777777778
 40
0.3333333333333334
 40
0.3333333333333334
 40
0.3333333333333334
 40
0.3333333333333334
 40
0.388888888888889
 40
0.388888888888889
 40
0.388888888888889
 40
0.388888888888889
 40
0.4444444444444445
 40
0.4444444444444445
 40
0.4444444444444445
 40
0.4444444444444445
 40
0.5000000000000001
 40
0.5000000000000001
 40
0.5000000000000001
 40
0.5000000000000001
 40
0.5555555555555557
 40
0.5555555555555557
 40
0.5555555555555557
 40
0.5555555555555557
 40
0.6111111111111113
 40
0.6111111111111113
 40
0.6111111111111113
 40
0.6111111111111113
 40
0.6666666666666669
 40
0.6666666666666669
 40
0.6666666666666669
 40
0.6666666666666669
 40
0.7222222222222224
 40
0.7222222222222224
 40
0.7222222222222224
 40
0.7222222222222224
 40
0.777777777777778
 40
0.777777777777778
 40
0.777777777777778
 40
0.777777777777778
 40
0.8333333333333336
 40
0.8333333333333336
 40
0.8333333333333336
 40
0.8333333333333336
 40
0.8888888888888892
 40
0.8888888888888892
 40
0.8888888888888892
 40
0.8888888888888892
 40
0.9444444444444448
 40
0.9444444444444448
 40
0.9444444444444448
 40
0.9444444444444448
 40
1.0
 40
1.0
 40
1.0
 40
1.0
 10
1.5263858267716537
 20
-2.3901141732283464
 30
0.0
 10
1.5263858267716537
 20
-2.3901141732283464
 30
0.0
 10
2.1634645669291341
 20
-2.0139409448818899
 30
0.0
 10
2.1634645669291341
 20
-2.0139409448818899
 30
0.0
 10
2.1634645669291341
 20
-2.0139409448818899
 30
0.0
 10
2.1634645669291341
 20
-2.0139409448818899
 30
0.0
 10
2.1631377952755906
 20
-2.0203228346456692
 30
0.0
 10
2.1631377952755906
 20
-2.0203228346456692
 30
0.0
 10
2.1631377952755906
 20
-2.0203228346456692
 30
0.0
 10
2.1631377952755906
 20
-2.0203228346456692
 30
0.0
 10
2.1621889763779527
 20
-2.0265314960629923
 30
0.0
 10
2.1621889763779527
 20
-2.0265314960629923
 30
0.0
 10
2.1621889763779527
 20
-2.0265314960629923
 30
0.0
 10
2.1621889763779527
 20
-2.0265314960629923
 30
0.0
 10
2.1606456692913385
 20
-2.0325157480314959
 30
0.0
 10
2.1606456692913385
 20
-2.0325157480314959
 30
0.0
 10
2.1606456692913385
 20
-2.0325157480314959
 30
0.0
 10
2.1606456692913385
 20
-2.0325157480314959
 30
0.0
 10
2.1585433070866142
 20
-2.0382637795275591
 30
0.0
 10
2.1585433070866142
 20
-2.0382637795275591
 30
0.0
 10
2.1585433070866142
 20
-2.0382637795275591
 30
0.0
 10
2.1585433070866142
 20
-2.0382637795275591
 30
0.0
 10
2.1559055118110235
 20
-2.043720472440945
 30
0.0
 10
2.1559055118110235
 20
-2.043720472440945
 30
0.0
 10
2.1559055118110235
 20
-2.043720472440945
 30
0.0
 10
2.1559055118110235
 20
-2.043720472440945
 30
0.0
 10
2.1527755905511814
 20
-2.0488740157480314
 30
0.0
 10
2.1527755905511814
 20
-2.0488740157480314
 30
0.0
 10
2.1527755905511814
 20
-2.0488740157480314
 30
0.0
 10
2.1527755905511814
 20
-2.0488740157480314
 30
0.0
 10
2.1491732283464566
 20
-2.053685039370079
 30
0.0
 10
2.1491732283464566
 20
-2.053685039370079
 30
0.0
 10
2.1491732283464566
 20
-2.053685039370079
 30
0.0
 10
2.1491732283464566
 20
-2.053685039370079
 30
0.0
 10
2.1451417322834647
 20
-2.0581299212598427
 30
0.0
 10
2.1451417322834647
 20
-2.0581299212598427
 30
0.0
 10
2.1451417322834647
 20
-2.0581299212598427
 30
0.0
 10
2.1451417322834647
 20
-2.0581299212598427
 30
0.0
 10
1.5080629921259843
 20
-2.4343031496062992
 30
0.0
 10
1.5080629921259843
 20
-2.4343031496062992
 30
0.0
 10
1.5080629921259843
 20
-2.4343031496062992
 30
0.0
 10
1.5080629921259843
 20
-2.4343031496062992
 30
0.0
 10
1.5120944881889764
 20
-2.4298582677165355
 30
0.0
 10
1.5120944881889764
 20
-2.4298582677165355
 30
0.0
 10
1.5120944881889764
 20
-2.4298582677165355
 30
0.0
 10
1.5120944881889764
 20
-2.4298582677165355
 30
0.0
 10
1.5156968503937009
 20
-2.4250472440944884
 30
0.0
 10
1.5156968503937009
 20
-2.4250472440944884
 30
0.0
 10
1.5156968503937009
 20
-2.4250472440944884
 30
0.0
 10
1.5156968503937009
 20
-2.4250472440944884
 30
0.0
 10
1.5188267716535433
 20
-2.4198937007874015
 30
0.0
 10
1.5188267716535433
 20
-2.4198937007874015
 30
0.0
 10
1.5188267716535433
 20
-2.4198937007874015
 30
0.0
 10
1.5188267716535433
 20
-2.4198937007874015
 30
0.0
 10
1.521464566929134
 20
-2.4144370078740161
 30
0.0
 10
1.521464566929134
 20
-2.4144370078740161
 30
0.0
 10
1.521464566929134
 20
-2.4144370078740161
 30
0.0
 10
1.521464566929134
 20
-2.4144370078740161
 30
0.0
 10
1.5235669291338583
 20
-2.4086889763779529
 30
0.0
 10
1.5235669291338583
 20
-2.4086889763779529
 30
0.0
 10
1.5235669291338583
 20
-2.4086889763779529
 30
0.0
 10
1.5235669291338583
 20
-2.4086889763779529
 30
0.0
 10
1.5251102362204725
 20
-2.4027047244094488
 30
0.0
 10
1.5251102362204725
 20
-2.4027047244094488
 30
0.0
 10
1.5251102362204725
 20
-2.4027047244094488
 30
0.0
 10
1.5251102362204725
 20
-2.4027047244094488
 30
0.0
 10
1.5260590551181104
 20
-2.3964960629921261
 30
0.0
 10
1.5260590551181104
 20
-2.3964960629921261
 30
0.0
 10
1.5260590551181104
 20
-2.3964960629921261
 30
0.0
 10
1.5260590551181104
 20
-2.3964960629921261
 30
0.0
 10
1.5263858267716537
 20
-2.3901141732283464
 30
0.0
 10
1.5263858267716537
 20
-2.3901141732283464
 30
0.0
  0
SPLINE
  5
50
100
AcDbEntity
  8
P1-Layer 1
 62
   253
100
AcDbSpline
210
0.0
220
0.0
230
1.0
 70
     1
 71
     3
 72
    28
 73
    24
 74
     0
 42
0.0000000001
 43
0.0000000001
 40
0.0
 40
0.0
 40
0.0
 40
0.0
 40
0.1666666666666667
 40
0.1666666666666667
 40
0.1666666666666667
 40
0.1666666666666667
 40
0.3333333333333333
 40
0.3333333333333333
 40
0.3333333333333333
 40
0.3333333333333333
 40
0.5
 40
0.5
 40
0.5
 40
0.5
 40
0.6666666666666666
 40
0.6666666666666666
 40
0.6666666666666666
 40
0.6666666666666666
 40
0.8333333333333333
 40
0.8333333333333333
 40
0.8333333333333333
 40
0.8333333333333333
 40
1.0
 40
1.0
 40
1.0
 40
1.0
 10
1.5080629921259843
 20
-2.4343031496062992
 30
0.0
 10
1.5080629921259843
 20
-2.4343031496062992
 30
0.0
 10
2.1451417322834647
 20
-2.0581299212598427
 30
0.0
 10
2.1451417322834647
 20
-2.0581299212598427
 30
0.0
 10
2.1451417322834647
 20
-2.0581299212598427
 30
0.0
 10
2.1451417322834647
 20
-2.0581299212598427
 30
0.0
 10
2.1406968503937009
 20
-2.0621574803149607
 30
0.0
 10
2.1406968503937009
 20
-2.0621574803149607
 30
0.0
 10
2.1406968503937009
 20
-2.0621574803149607
 30
0.0
 10
2.1406968503937009
 20
-2.0621574803149607
 30
0.0
 10
2.1358858267716538
 20
-2.0657559055118111
 30
0.0
 10
2.1358858267716538
 20
-2.0657559055118111
 30
0.0
 10
2.1358858267716538
 20
-2.0657559055118111
 30
0.0
 10
2.1358858267716538
 20
-2.0657559055118111
 30
0.0
 10
1.4988070866141734
 20
-2.4419291338582676
 30
0.0
 10
1.4988070866141734
 20
-2.4419291338582676
 30
0.0
 10
1.4988070866141734
 20
-2.4419291338582676
 30
0.0
 10
1.4988070866141734
 20
-2.4419291338582676
 30
0.0
 10
1.5036181102362205
 20
-2.4383307086614172
 30
0.0
 10
1.5036181102362205
 20
-2.4383307086614172
 30
0.0
 10
1.5036181102362205
 20
-2.4383307086614172
 30
0.0
 10
1.5036181102362205
 20
-2.4383307086614172
 30
0.0
 10
1.5080629921259843
 20
-2.4343031496062992
 30
0.0
 10
1.5080629921259843
 20
-2.4343031496062992
 30
0.0
  0
SPLINE
  5
51
100
AcDbEntity
  8
P1-Layer 1
370
     5
100
AcDbSpline
210
0.0
220
0.0
230
1.0
 70
     1
 71
     3
 72
    92
 73
    88
 74
     0
 42
0.0000000001
 43
0.0000000001
 40
0.0
 40
0.0
 40
0.0
 40
0.0
 40
0.0454545454545455
 40
0.0454545454545455
 40
0.0454545454545455
 40
0.0454545454545455
 40
0.0909090909090909
 40
0.0909090909090909
 40
0.0909090909090909
 40
0.0909090909090909
 40
0.1363636363636364
 40
0.1363636363636364
 40
0.1363636363636364
 40
0.1363636363636364
 40
0.1818181818181818
 40
0.1818181818181818
 40
0.1818181818181818
 40
0.1818181818181818
 40
0.2272727272727273
 40
0.2272727272727273
 40
0.2272727272727273
 40
0.2272727272727273
 40
0.2727272727272728
 40
0.2727272727272728
 40
0.2727272727272728
 40
0.2727272727272728
 40
0.3181818181818182
 40
0.3181818181818182
 40
0.3181818181818182
 40
0.3181818181818182
 40
0.3636363636363637
 40
0.3636363636363637
 40
0.3636363636363637
 40
0.3636363636363637
 40
0.4090909090909092
 40
0.4090909090909092
 40
0.4090909090909092
 40
0.4090909090909092
 40
0.4545454545454546
 40
0.4545454545454546
 40
0.4545454545454546
 40
0.4545454545454546
 40
0.5000000000000001
 40
0.5000000000000001
 40
0.5000000000000001
 40
0.5000000000000001
 40
0.5454545454545455
 40
0.5454545454545455
 40
0.5454545454545455
 40
0.5454545454545455
 40
0.5909090909090909
 40
0.5909090909090909
 40
0.5909090909090909
 40
0.5909090909090909
 40
0.6363636363636364
 40
0.6363636363636364
 40
0.6363636363636364
 40
0.6363636363636364
 40
0.6818181818181818
 40
0.6818181818181818
 40
0.6818181818181818
 40
0.6818181818181818
 40
0.7272727272727272
 40
0.7272727272727272
 40
0.7272727272727272
 40
0.7272727272727272
 40
0.7727272727272726
 40
0.7727272727272726
 40
0.7727272727272726
 40
0.7727272727272726
 40
0.818181818181818
 40
0.818181818181818
 40
0.818181818181818
 40
0.818181818181818
 40
0.8636363636363634
 40
0.8636363636363634
 40
0.8636363636363634
 40
0.8636363636363634
 40
0.9090909090909088
 40
0.9090909090909088
 40
0.9090909090909088
 40
0.9090909090909088
 40
0.9545454545454543
 40
0.9545454545454543
 40
0.9545454545454543
 40
0.9545454545454543
 40
1.0
 40
1.0
 40
1.0
 40
1.0
 10
1.5263858267716537
 20
-2.3901141732283464
 30
0.0
 10
1.5263858267716537
 20
-2.3901141732283464
 30
0.0
 10
2.1634645669291341
 20
-2.0139409448818899
 30
0.0
 10
2.1634645669291341
 20
-2.0139409448818899
 30
0.0
 10
2.1634645669291341
 20
-2.0139409448818899
 30
0.0
 10
2.1634645669291341
 20
-2.0139409448818899
 30
0.0
 10
2.1631377952755906
 20
-2.0203228346456692
 30
0.0
 10
2.1631377952755906
 20
-2.0203228346456692
 30
0.0
 10
2.1631377952755906
 20
-2.0203228346456692
 30
0.0
 10
2.1631377952755906
 20
-2.0203228346456692
 30
0.0
 10
2.1621889763779527
 20
-2.0265314960629923
 30
0.0
 10
2.1621889763779527
 20
-2.0265314960629923
 30
0.0
 10
2.1621889763779527
 20
-2.0265314960629923
 30
0.0
 10
2.1621889763779527
 20
-2.0265314960629923
 30
0.0
 10
2.1606456692913385
 20
-2.0325157480314959
 30
0.0
 10
2.1606456692913385
 20
-2.0325157480314959
 30
0.0
 10
2.1606456692913385
 20
-2.0325157480314959
 30
0.0
 10
2.1606456692913385
 20
-2.0325157480314959
 30
0.0
 10
2.1585433070866142
 20
-2.0382637795275591
 30
0.0
 10
2.1585433070866142
 20
-2.0382637795275591
 30
0.0
 10
2.1585433070866142
 20
-2.0382637795275591
 30
0.0
 10
2.1585433070866142
 20
-2.0382637795275591
 30
0.0
 10
2.1559055118110235
 20
-2.043720472440945
 30
0.0
 10
2.1559055118110235
 20
-2.043720472440945
 30
0.0
 10
2.1559055118110235
 20
-2.043720472440945
 30
0.0
 10
2.1559055118110235
 20
-2.043720472440945
 30
0.0
 10
2.1527755905511814
 20
-2.0488740157480314
 30
0.0
 10
2.1527755905511814
 20
-2.0488740157480314
 30
0.0
 10
2.1527755905511814
 20
-2.0488740157480314
 30
0.0
 10
2.1527755905511814
 20
-2.0488740157480314
 30
0.0
 10
2.1491732283464566
 20
-2.053685039370079
 30
0.0
 10
2.1491732283464566
 20
-2.053685039370079
 30
0.0
 10
2.1491732283464566
 20
-2.053685039370079
 30
0.0
 10
2.1491732283464566
 20
-2.053685039370079
 30
0.0
 10
2.1451417322834647
 20
-2.0581299212598427
 30
0.0
 10
2.1451417322834647
 20
-2.0581299212598427
 30
0.0
 10
2.1451417322834647
 20
-2.0581299212598427
 30
0.0
 10
2.1451417322834647
 20
-2.0581299212598427
 30
0.0
 10
2.1406968503937009
 20
-2.0621574803149607
 30
0.0
 10
2.1406968503937009
 20
-2.0621574803149607
 30
0.0
 10
2.1406968503937009
 20
-2.0621574803149607
 30
0.0
 10
2.1406968503937009
 20
-2.0621574803149607
 30
0.0
 10
2.1358858267716538
 20
-2.0657559055118111
 30
0.0
 10
2.1358858267716538
 20
-2.0657559055118111
 30
0.0
 10
2.1358858267716538
 20
-2.0657559055118111
 30
0.0
 10
2.1358858267716538
 20
-2.0657559055118111
 30
0.0
 10
1.4988070866141734
 20
-2.4419291338582676
 30
0.0
 10
1.4988070866141734
 20
-2.4419291338582676
 30
0.0
 10
1.4988070866141734
 20
-2.4419291338582676
 30
0.0
 10
1.4988070866141734
 20
-2.4419291338582676
 30
0.0
 10
1.5036181102362205
 20
-2.4383307086614172
 30
0.0
 10
1.5036181102362205
 20
-2.4383307086614172
 30
0.0
 10
1.5036181102362205
 20
-2.4383307086614172
 30
0.0
 10
1.5036181102362205
 20
-2.4383307086614172
 30
0.0
 10
1.5080629921259843
 20
-2.4343031496062992
 30
0.0
 10
1.5080629921259843
 20
-2.4343031496062992
 30
0.0
 10
1.5080629921259843
 20
-2.4343031496062992
 30
0.0
 10
1.5080629921259843
 20
-2.4343031496062992
 30
0.0
 10
1.5120944881889764
 20
-2.4298582677165355
 30
0.0
 10
1.5120944881889764
 20
-2.4298582677165355
 30
0.0
 10
1.5120944881889764
 20
-2.4298582677165355
 30
0.0
 10
1.5120944881889764
 20
-2.4298582677165355
 30
0.0
 10
1.5156968503937009
 20
-2.4250472440944884
 30
0.0
 10
1.5156968503937009
 20
-2.4250472440944884
 30
0.0
 10
1.5156968503937009
 20
-2.4250472440944884
 30
0.0
 10
1.5156968503937009
 20
-2.4250472440944884
 30
0.0
 10
1.5188267716535433
 20
-2.4198937007874015
 30
0.0
 10
1.5188267716535433
 20
-2.4198937007874015
 30
0.0
 10
1.5188267716535433
 20
-2.4198937007874015
 30
0.0
 10
1.5188267716535433
 20
-2.4198937007874015
 30
0.0
 10
1.521464566929134
 20
-2.4144370078740161
 30
0.0
 10
1.521464566929134
 20
-2.4144370078740161
 30
0.0
 10
1.521464566929134
 20
-2.4144370078740161
 30
0.0
 10
1.521464566929134
 20
-2.4144370078740161
 30
0.0
 10
1.5235669291338583
 20
-2.4086889763779529
 30
0.0
 10
1.5235669291338583
 20
-2.4086889763779529
 30
0.0
 10
1.5235669291338583
 20
-2.4086889763779529
 30
0.0
 10
1.5235669291338583
 20
-2.4086889763779529
 30
0.0
 10
1.5251102362204725
 20
-2.4027047244094488
 30
0.0
 10
1.5251102362204725
 20
-2.4027047244094488
 30
0.0
 10
1.5251102362204725
 20
-2.4027047244094488
 30
0.0
 10
1.5251102362204725
 20
-2.4027047244094488
 30
0.0
 10
1.5260590551181104
 20
-2.3964960629921261
 30
0.0
 10
1.5260590551181104
 20
-2.3964960629921261
 30
0.0
 10
1.5260590551181104
 20
-2.3964960629921261
 30
0.0
 10
1.5260590551181104
 20
-2.3964960629921261
 30
0.0
 10
1.5263858267716537
 20
-2.3901141732283464
 30
0.0
 10
1.5263858267716537
 20
-2.3901141732283464
 30
0.0
  0
SPLINE
  5
52
100
AcDbEntity
  8
P1-Layer 1
 62
     9
100
AcDbSpline
210
0.0
220
0.0
230
1.0
 70
     1
 71
     3
 72
    20
 73
    16
 74
     0
 42
0.0000000001
 43
0.0000000001
 40
0.0
 40
0.0
 40
0.0
 40
0.0
 40
0.25
 40
0.25
 40
0.25
 40
0.25
 40
0.5
 40
0.5
 40
0.5
 40
0.5
 40
0.75
 40
0.75
 40
0.75
 40
0.75
 40
1.0
 40
1.0
 40
1.0
 40
1.0
 10
1.5268110236220473
 20
-0.5585629921259843
 30
0.0
 10
1.5268110236220473
 20
-0.5585629921259843
 30
0.0
 10
2.1638897637795278
 20
-0.1823897637795276
 30
0.0
 10
2.1638897637795278
 20
-0.1823897637795276
 30
0.0
 10
2.1638897637795278
 20
-0.1823897637795276
 30
0.0
 10
2.1638897637795278
 20
-0.1823897637795276
 30
0.0
 10
2.1634645669291341
 20
-2.0139409448818899
 30
0.0
 10
2.1634645669291341
 20
-2.0139409448818899
 30
0.0
 10
2.1634645669291341
 20
-2.0139409448818899
 30
0.0
 10
2.1634645669291341
 20
-2.0139409448818899
 30
0.0
 10
1.5263858267716537
 20
-2.3901141732283464
 30
0.0
 10
1.5263858267716537
 20
-2.3901141732283464
 30
0.0
 10
1.5263858267716537
 20
-2.3901141732283464
 30
0.0
 10
1.5263858267716537
 20
-2.3901141732283464
 30
0.0
 10
1.5268110236220473
 20
-0.5585629921259843
 30
0.0
 10
1.5268110236220473
 20
-0.5585629921259843
 30
0.0
  0
SPLINE
  5
53
100
AcDbEntity
  8
P1-Layer 1
370
     5
100
AcDbSpline
210
0.0
220
0.0
230
1.0
 70
     1
 71
     3
 72
    20
 73
    16
 74
     0
 42
0.0000000001
 43
0.0000000001
 40
0.0
 40
0.0
 40
0.0
 40
0.0
 40
0.25
 40
0.25
 40
0.25
 40
0.25
 40
0.5
 40
0.5
 40
0.5
 40
0.5
 40
0.75
 40
0.75
 40
0.75
 40
0.75
 40
1.0
 40
1.0
 40
1.0
 40
1.0
 10
1.5268110236220473
 20
-0.5585629921259843
 30
0.0
 10
1.5268110236220473
 20
-0.5585629921259843
 30
0.0
 10
2.1638897637795278
 20
-0.1823897637795276
 30
0.0
 10
2.1638897637795278
 20
-0.1823897637795276
 30
0.0
 10
2.1638897637795278
 20
-0.1823897637795276
 30
0.0
 10
2.1638897637795278
 20
-0.1823897637795276
 30
0.0
 10
2.1634645669291341
 20
-2.0139409448818899
 30
0.0
 10
2.1634645669291341
 20
-2.0139409448818899
 30
0.0
 10
2.1634645669291341
 20
-2.0139409448818899
 30
0.0
 10
2.1634645669291341
 20
-2.0139409448818899
 30
0.0
 10
1.5263858267716537
 20
-2.3901141732283464
 30
0.0
 10
1.5263858267716537
 20
-2.3901141732283464
 30
0.0
 10
1.5263858267716537
 20
-2.3901141732283464
 30
0.0
 10
1.5263858267716537
 20
-2.3901141732283464
 30
0.0
 10
1.5268110236220473
 20
-0.5585629921259843
 30
0.0
 10
1.5268110236220473
 20
-0.5585629921259843
 30
0.0
  0
SPLINE
  5
54
100
AcDbEntity
  8
P1-Layer 1
370
     5
 62
     7
100
AcDbSpline
210
0.0
220
0.0
230
1.0
 70
     1
 71
     3
 72
    72
 73
    68
 74
     0
 42
0.0000000001
 43
0.0000000001
 40
0.0
 40
0.0
 40
0.0
 40
0.0
 40
0.0588235294117647
 40
0.0588235294117647
 40
0.0588235294117647
 40
0.0588235294117647
 40
0.1176470588235294
 40
0.1176470588235294
 40
0.1176470588235294
 40
0.1176470588235294
 40
0.1764705882352941
 40
0.1764705882352941
 40
0.1764705882352941
 40
0.1764705882352941
 40
0.2352941176470588
 40
0.2352941176470588
 40
0.2352941176470588
 40
0.2352941176470588
 40
0.2941176470588235
 40
0.2941176470588235
 40
0.2941176470588235
 40
0.2941176470588235
 40
0.3529411764705883
 40
0.3529411764705883
 40
0.3529411764705883
 40
0.3529411764705883
 40
0.411764705882353
 40
0.411764705882353
 40
0.411764705882353
 40
0.411764705882353
 40
0.4705882352941177
 40
0.4705882352941177
 40
0.4705882352941177
 40
0.4705882352941177
 40
0.5294117647058824
 40
0.5294117647058824
 40
0.5294117647058824
 40
0.5294117647058824
 40
0.5882352941176471
 40
0.5882352941176471
 40
0.5882352941176471
 40
0.5882352941176471
 40
0.6470588235294118
 40
0.6470588235294118
 40
0.6470588235294118
 40
0.6470588235294118
 40
0.7058823529411765
 40
0.7058823529411765
 40
0.7058823529411765
 40
0.7058823529411765
 40
0.7647058823529412
 40
0.7647058823529412
 40
0.7647058823529412
 40
0.7647058823529412
 40
0.823529411764706
 40
0.823529411764706
 40
0.823529411764706
 40
0.823529411764706
 40
0.8823529411764707
 40
0.8823529411764707
 40
0.8823529411764707
 40
0.8823529411764707
 40
0.9411764705882354
 40
0.9411764705882354
 40
0.9411764705882354
 40
0.9411764705882354
 40
1.0
 40
1.0
 40
1.0
 40
1.0
 10
-0.8489251968503937
 20
-2.4526141732283464
 30
0.0
 10
-0.8489251968503937
 20
-2.4526141732283464
 30
0.0
 10
-1.5978779527559055
 20
-2.4526141732283464
 30
0.0
 10
-1.5978779527559055
 20
-2.4526141732283464
 30
0.0
 10
-1.5978779527559055
 20
-2.4526141732283464
 30
0.0
 10
-1.5978779527559055
 20
-2.4526141732283464
 30
0.0
 10
-1.5978779527559055
 20
-1.8276141732283466
 30
0.0
 10
-1.5978779527559055
 20
-1.8276141732283466
 30
0.0
 10
-1.5978779527559055
 20
-1.8276141732283466
 30
0.0
 10
-1.5978779527559055
 20
-1.8276141732283466
 30
0.0
 10
-2.2231889763779527
 20
-1.8276141732283466
 30
0.0
 10
-2.2231889763779527
 20
-1.8276141732283466
 30
0.0
 10
-2.2231889763779527
 20
-1.8276141732283466
 30
0.0
 10
-2.2231889763779527
 20
-1.8276141732283466
 30
0.0
 10
-2.2231889763779527
 20
-0.4533818897637795
 30
0.0
 10
-2.2231889763779527
 20
-0.4533818897637795
 30
0.0
 10
-2.2231889763779527
 20
-0.4533818897637795
 30
0.0
 10
-2.2231889763779527
 20
-0.4533818897637795
 30
0.0
 10
-1.974507874015748
 20
-0.4533818897637795
 30
0.0
 10
-1.974507874015748
 20
-0.4533818897637795
 30
0.0
 10
-1.974507874015748
 20
-0.4533818897637795
 30
0.0
 10
-1.974507874015748
 20
-0.4533818897637795
 30
0.0
 10
-1.974507874015748
 20
-0.2026141732283465
 30
0.0
 10
-1.974507874015748
 20
-0.2026141732283465
 30
0.0
 10
-1.974507874015748
 20
-0.2026141732283465
 30
0.0
 10
-1.974507874015748
 20
-0.2026141732283465
 30
0.0
 10
-0.473744094488189
 20
-0.2026141732283465
 30
0.0
 10
-0.473744094488189
 20
-0.2026141732283465
 30
0.0
 10
-0.473744094488189
 20
-0.2026141732283465
 30
0.0
 10
-0.473744094488189
 20
-0.2026141732283465
 30
0.0
 10
1.4284724409448819
 20
-0.4364212598425197
 30
0.0
 10
1.4284724409448819
 20
-0.4364212598425197
 30
0.0
 10
1.4284724409448819
 20
-0.4364212598425197
 30
0.0
 10
1.4846968503937008
 20
-0.4486614173228347
 30
0.0
 10
1.5268110236220473
 20
-0.4987086614173228
 30
0.0
 10
1.5268110236220473
 20
-0.5585629921259843
 30
0.0
 10
1.5268110236220473
 20
-0.5585629921259843
 30
0.0
 10
1.5268110236220473
 20
-0.5585629921259843
 30
0.0
 10
1.5263858267716537
 20
-2.3901141732283464
 30
0.0
 10
1.5263858267716537
 20
-2.3901141732283464
 30
0.0
 10
1.5263858267716537
 20
-2.3901141732283464
 30
0.0
 10
1.5263858267716537
 20
-2.4246259842519686
 30
0.0
 10
1.4983818897637795
 20
-2.4526141732283464
 30
0.0
 10
1.4638543307086616
 20
-2.4526141732283464
 30
0.0
 10
1.4638543307086616
 20
-2.4526141732283464
 30
0.0
 10
1.4638543307086616
 20
-2.4526141732283464
 30
0.0
 10
1.2529212598425197
 20
-2.4526141732283464
 30
0.0
 10
1.2529212598425197
 20
-2.4526141732283464
 30
0.0
 10
1.2529212598425197
 20
-2.4526141732283464
 30
0.0
 10
1.2529212598425197
 20
-2.4526141732283464
 30
0.0
 10
1.1850236220472441
 20
-2.4526141732283464
 30
0.0
 10
1.1850236220472441
 20
-2.4526141732283464
 30
0.0
 10
1.1850236220472441
 20
-2.4526141732283464
 30
0.0
 10
1.1850236220472441
 20
-2.3664724409448818
 30
0.0
 10
1.1151299212598427
 20
-2.2966141732283467
 30
0.0
 10
1.0289448818897637
 20
-2.2966141732283467
 30
0.0
 10
1.0289448818897637
 20
-2.2966141732283467
 30
0.0
 10
0.942759842519685
 20
-2.2966141732283467
 30
0.0
 10
0.8728700787401575
 20
-2.3664724409448818
 30
0.0
 10
0.8728700787401575
 20
-2.4526141732283464
 30
0.0
 10
0.8728700787401575
 20
-2.4526141732283464
 30
0.0
 10
0.8728700787401575
 20
-2.4526141732283464
 30
0.0
 10
0.2509566929133859
 20
-2.4526141732283464
 30
0.0
 10
0.2509566929133859
 20
-2.4526141732283464
 30
0.0
 10
0.2509566929133859
 20
-2.4526141732283464
 30
0.0
 10
0.2509566929133859
 20
-2.4526141732283464
 30
0.0
 10
-0.8489251968503937
 20
-2.4526141732283464
 30
0.0
 10
-0.8489251968503937
 20
-2.4526141732283464
 30
0.0
  0
TEXT
  5
55
100
AcDbEntity
  8
P1-Layer 1
100
AcDbText
 10
-0.405
 20
-2.706925
 30
0.0
 40
0.119999
  1
BA  1543
 51
-0.000002
  7
Bookman Old Style
100
AcDbText
  0
TEXT
  5
56
100
AcDbEntity
  8
P1-Layer 1
100
AcDbText
 10
-0.670012
 20
-2.894425
 30
0.0
 40
0.119999
  1
2-1/4\u+201d x 3-3/4\u+201d
 51
-0.000002
  7
Bookman Old Style
100
AcDbText
  0
ENDSEC
  0
SECTION
  2
OBJECTS
  0
DICTIONARY
  5
19
100
AcDbDictionary
280
     0
281
     1
  3
ACAD_GROUP
350
1A
  3
ACAD_MLINESTYLE
350
1B
  3
ACAD_LAYOUT
350
1E
  3
ACAD_PLOTSETTINGS
350
22
  3
ACAD_PLOTSTYLENAME
350
1F
  3
ACAD_WIPEOUT_VARS
350
23
  0
DICTIONARY
  5
1A
102
{ACAD_REACTORS
330
19
102
}
100
AcDbDictionary
280
     0
281
     1
  0
DICTIONARY
  5
1B
102
{ACAD_REACTORS
330
19
102
}
100
AcDbDictionary
280
     0
281
     1
  3
Standard
350
1C
  0
MLINESTYLE
  5
1C
102
{ACAD_REACTORS
330
1B
102
}
100
AcDbMlineStyle
  2
Standard
 70
     0
  3

 62
     0
 51
90.0
 52
90.0
 71
     2
 49
0.5
 62
   256
  6
BYLAYER
 49
-0.5
 62
   256
  6
BYLAYER
  0
ACDBDICTIONARYWDFLT
  5
1F
102
{ACAD_REACTORS
330
19
102
}
100
AcDbDictionary
281
     1
  3
Normal
350
1D
100
AcDbDictionaryWithDefault
340
1D
  0
ACDBPLACEHOLDER
  5
1D
102
{ACAD_REACTORS
330
1F
102
}
  0
LAYOUT
  5
20
102
{ACAD_REACTORS
330
1E
102
}
100
AcDbPlotSettings
  1

  2

  4

  6

 40
0.0
 41
0.0
 42
0.0
 43
0.0
 44
0.0
 45
0.0
 46
0.0
 47
0.0
 48
0.0
 49
0.0
140
0.0
141
0.0
142
1.0
143
1.0
 70
  1024
 72
     0
 73
     0
 74
     0
  7

 75
     0
147
1.0
148
0.0
149
0.0
100
AcDbLayout
  1
Model
 70
     0
 71
     0
 10
0.0
 20
0.0
 11
0.0
 21
0.0
 12
0.0
 22
0.0
 32
0.0
 14
0.0
 24
0.0
 34
0.0
 15
0.0
 25
0.0
 35
0.0
146
0.0
 13
0.0
 23
0.0
 33
0.0
 16
0.0
 26
0.0
 36
0.0
 17
0.0
 27
0.0
 37
0.0
 76
     0
330
A
331
0
345
0
346
0
  0
LAYOUT
  5
21
102
{ACAD_REACTORS
330
1E
102
}
100
AcDbPlotSettings
  1

  2

  4

  6

 40
0.0
 41
0.0
 42
0.0
 43
0.0
 44
0.0
 45
0.0
 46
0.0
 47
0.0
 48
0.0
 49
0.0
140
0.0
141
0.0
142
1.0
143
1.0
 70
     0
 72
     0
 73
     0
 74
     0
  7

 75
     0
147
1.0
148
0.0
149
0.0
100
AcDbLayout
  1
Layout1
 70
     0
 71
     0
 10
0.0
 20
0.0
 11
0.0
 21
0.0
 12
0.0
 22
0.0
 32
0.0
 14
0.0
 24
0.0
 34
0.0
 15
0.0
 25
0.0
 35
0.0
146
0.0
 13
0.0
 23
0.0
 33
0.0
 16
0.0
 26
0.0
 36
0.0
 17
0.0
 27
0.0
 37
0.0
 76
     0
330
B
331
0
345
0
346
0
  0
DICTIONARY
  5
1E
102
{ACAD_REACTORS
330
19
102
}
100
AcDbDictionary
280
     0
281
     1
  3
Layout1
350
21
  3
Model
350
20
  0
DICTIONARY
  5
22
102
{ACAD_REACTORS
330
19
102
}
100
AcDbDictionary
280
     0
281
     1
  0
WIPEOUTVARIABLES
  5
23
100
AcDbWipeoutVariables
 70
     1
  0
ENDSEC
  0
EOF
