  0
SECTION
  2
HEADER
  9
$ACADVER
  1
AC1015
  9
$ACADMAINTVER
 70
     6
  9
$DWGCODEPAGE
  3
DOS850
  9
$INSBASE
 10
0.0
 20
0.0
 30
0.0
  9
$EXTMIN
 10
-1.87202
 20
-0.249421
 30
1.000000E+20
  9
$EXTMAX
 10
2.564705
 20
3.796744
 30
-1.000000E+20
  9
$LIMMIN
 10
0.0
 20
0.0
  9
$LIMMAX
 10
0.0
 20
0.0
  9
$ORTHOMODE
 70
     0
  9
$REGENMODE
 70
     1
  9
$FILLMODE
 70
     1
  9
$QTEXTMODE
 70
     0
  9
$MIRRTEXT
 70
     1
  9
$LTSCALE
 40
1.0
  9
$ATTMODE
 70
     1
  9
$TEXTSIZE
 40
0.2
  9
$TRACEWID
 40
0.05
  9
$TEXTSTYLE
  7
Standard
  9
$CLAYER
  8
0
  9
$CELTYPE
  6
Continuous
  9
$CECOLOR
 62
   256
  9
$CELTSCALE
 40
1.0
  9
$DISPSILH
 70
     0
  9
$DIMSCALE
 40
1.0
  9
$DIMASZ
 40
0.18
  9
$DIMEXO
 40
0.0625
  9
$DIMDLI
 40
0.38
  9
$DIMRND
 40
0.0
  9
$DIMDLE
 40
0.0
  9
$DIMEXE
 40
0.18
  9
$DIMTP
 40
0.0
  9
$DIMTM
 40
0.0
  9
$DIMTXT
 40
0.18
  9
$DIMCEN
 40
0.09
  9
$DIMTSZ
 40
0.0
  9
$DIMTOL
 70
     0
  9
$DIMLIM
 70
     0
  9
$DIMTIH
 70
     1
  9
$DIMTOH
 70
     1
  9
$DIMSE1
 70
     0
  9
$DIMSE2
 70
     0
  9
$DIMTAD
 70
     0
  9
$DIMZIN
 70
     0
  9
$DIMBLK
  1

  9
$DIMASO
 70
     1
  9
$DIMSHO
 70
     1
  9
$DIMPOST
  1

  9
$DIMAPOST
  1

  9
$DIMALT
 70
     0
  9
$DIMALTD
 70
     2
  9
$DIMALTF
 40
25.4
  9
$DIMLFAC
 40
1.0
  9
$DIMTOFL
 70
     0
  9
$DIMTVP
 40
0.0
  9
$DIMTIX
 70
     0
  9
$DIMSOXD
 70
     0
  9
$DIMSAH
 70
     0
  9
$DIMBLK1
  1

  9
$DIMBLK2
  1

  9
$DIMSTYLE
  2
Standard
  9
$DIMCLRD
 70
     0
  9
$DIMCLRE
 70
     0
  9
$DIMCLRT
 70
     0
  9
$DIMTFAC
 40
1.0
  9
$DIMGAP
 40
0.09
  9
$DIMJUST
 70
     0
  9
$DIMSD1
 70
     0
  9
$DIMSD2
 70
     0
  9
$DIMTOLJ
 70
     1
  9
$DIMTZIN
 70
     0
  9
$DIMALTZ
 70
     0
  9
$DIMALTTZ
 70
     0
  9
$DIMUPT
 70
     0
  9
$DIMDEC
 70
     4
  9
$DIMTDEC
 70
     4
  9
$DIMALTU
 70
     2
  9
$DIMALTTD
 70
     2
  9
$DIMTXSTY
  7
Standard
  9
$DIMAUNIT
 70
     0
  9
$DIMADEC
 70
     0
  9
$DIMALTRND
 40
0.0
  9
$DIMAZIN
 70
     0
  9
$DIMDSEP
 70
     0
  9
$DIMATFIT
 70
     3
  9
$DIMFRAC
 70
     0
  9
$DIMLDRBLK
  1

  9
$DIMLUNIT
 70
     2
  9
$DIMLWD
 70
     0
  9
$DIMLWE
 70
     0
  9
$DIMTMOVE
 70
     0
  9
$LUNITS
 70
     2
  9
$LUPREC
 70
     4
  9
$SKETCHINC
 40
0.1
  9
$FILLETRAD
 40
0.0
  9
$AUNITS
 70
     0
  9
$AUPREC
 70
     0
  9
$MENU
  1
acad
  9
$ELEVATION
 40
0.0
  9
$PELEVATION
 40
0.0
  9
$THICKNESS
 40
0.0
  9
$LIMCHECK
 70
     0
  9
$CHAMFERA
 40
0.0
  9
$CHAMFERB
 40
0.0
  9
$CHAMFERC
 40
0.0
  9
$CHAMFERD
 40
0.0
  9
$SKPOLY
 70
     0
  9
$TDCREATE
 40
0.000000000
  9
$TDUCREATE
 40
0.000000000
  9
$TDUPDATE
 40
0.000000000
  9
$TDUUPDATE
 40
0.000000000
  9
$TDINDWG
 40
0.0000000000
  9
$TDUSRTIMER
 40
0.0000000000
  9
$USRTIMER
 70
     1
  9
$ANGBASE
 50
0.0
  9
$ANGDIR
 70
     0
  9
$PDMODE
 70
     0
  9
$PDSIZE
 40
0.0
  9
$PLINEWID
 40
0.0
  9
$SPLFRAME
 70
     0
  9
$SPLINETYPE
 70
     6
  9
$SPLINESEGS
 70
     8
  9
$HANDSEED
  5
7F
  9
$SURFTAB1
 70
     6
  9
$SURFTAB2
 70
     6
  9
$SURFTYPE
 70
     6
  9
$SURFU
 70
     6
  9
$SURFV
 70
     6
  9
$UCSBASE
  2

  9
$UCSNAME
  2

  9
$UCSORG
 10
0.0
 20
0.0
 30
0.0
  9
$UCSXDIR
 10
1.0
 20
0.0
 30
0.0
  9
$UCSYDIR
 10
0.0
 20
1.0
 30
0.0
  9
$UCSORTHOREF
  2

  9
$UCSORTHOVIEW
 70
     0
  9
$UCSORGTOP
 10
0.0
 20
0.0
 30
0.0
  9
$UCSORGBOTTOM
 10
0.0
 20
0.0
 30
0.0
  9
$UCSORGLEFT
 10
0.0
 20
0.0
 30
0.0
  9
$UCSORGRIGHT
 10
0.0
 20
0.0
 30
0.0
  9
$UCSORGFRONT
 10
0.0
 20
0.0
 30
0.0
  9
$UCSORGBACK
 10
0.0
 20
0.0
 30
0.0
  9
$PUCSBASE
  2

  9
$PUCSNAME
  2

  9
$PUCSORG
 10
0.0
 20
0.0
 30
0.0
  9
$PUCSXDIR
 10
1.0
 20
0.0
 30
0.0
  9
$PUCSYDIR
 10
0.0
 20
1.0
 30
0.0
  9
$PUCSORTHOREF
  2

  9
$PUCSORTHOVIEW
 70
     0
  9
$PUCSORGTOP
 10
0.0
 20
0.0
 30
0.0
  9
$PUCSORGBOTTOM
 10
0.0
 20
0.0
 30
0.0
  9
$PUCSORGLEFT
 10
0.0
 20
0.0
 30
0.0
  9
$PUCSORGRIGHT
 10
0.0
 20
0.0
 30
0.0
  9
$PUCSORGFRONT
 10
0.0
 20
0.0
 30
0.0
  9
$PUCSORGBACK
 10
0.0
 20
0.0
 30
0.0
  9
$USERI1
 70
     0
  9
$USERI2
 70
     0
  9
$USERI3
 70
     0
  9
$USERI4
 70
     0
  9
$USERI5
 70
     0
  9
$USERR1
 40
0.0
  9
$USERR2
 40
0.0
  9
$USERR3
 40
0.0
  9
$USERR4
 40
0.0
  9
$USERR5
 40
0.0
  9
$WORLDVIEW
 70
     1
  9
$SHADEDGE
 70
     3
  9
$SHADEDIF
 70
    70
  9
$TILEMODE
 70
     1
  9
$MAXACTVP
 70
    16
  9
$PINSBASE
 10
0.0
 20
0.0
 30
0.0
  9
$PLIMCHECK
 70
     0
  9
$PEXTMIN
 10
1.000000E+20
 20
1.000000E+20
 30
1.000000E+20
  9
$PEXTMAX
 10
-1.000000E+20
 20
-1.000000E+20
 30
-1.000000E+20
  9
$PLIMMIN
 10
0.0
 20
0.0
  9
$PLIMMAX
 10
12.0
 20
9.0
  9
$UNITMODE
 70
     0
  9
$VISRETAIN
 70
     0
  9
$PLINEGEN
 70
     1
  9
$PSLTSCALE
 70
     0
  9
$TREEDEPTH
 70
  3020
  9
$CMLSTYLE
  2
Standard
  9
$CMLJUST
 70
     0
  9
$CMLSCALE
 40
1.0
  9
$PROXYGRAPHICS
 70
     0
  9
$MEASUREMENT
 70
     0
  9
$CELWEIGHT
370
     0
  9
$ENDCAPS
280
     0
  9
$JOINSTYLE
280
     0
  9
$LWDISPLAY
290
     0
  9
$INSUNITS
 70
     1
  9
$HYPERLINKBASE
  1

  9
$XEDIT
290
     1
  9
$CEPSNTYPE
380
     0
  9
$PSTYLEMODE
290
     1
  9
$FINGERPRINTGUID
  2

  9
$VERSIONGUID
  2

  9
$EXTNAMES
290
     1
  9
$PSVPSCALE
 40
0.0
  0
ENDSEC
  0
SECTION
  2
CLASSES
  0
CLASS
  1
LWPOLYLINE
  2
AcDbPolyline
  3
AutoCAD 2000
 90
    32768
280
     0
281
     1
  0
CLASS
  1
IMAGE
  2
AcDbRasterImage
  3
ISM
 90
    32895
280
     0
281
     1
  0
CLASS
  1
OLE2FRAME
  2
AcDbOle2Frame
  3
AutoCAD 2000
 90
    32768
280
     0
281
     1
  0
CLASS
  1
HATCH
  2
AcDbHatch
  3
AutoCAD 2000
 90
    32768
280
     0
281
     1
  0
CLASS
  1
DICTIONARYVAR
  2
AcDbDictionaryVar
  3
AutoCAD 2000
 90
    32768
280
     0
281
     0
  0
CLASS
  1
RASTERVARIABLES
  2
AcDbRasterVariables
  3
ISM
 90
    32768
280
     0
281
     0
  0
CLASS
  1
IMAGEDEF
  2
AcDbRasterImageDef
  3
ISM
 90
    32768
280
     0
281
     0
  0
CLASS
  1
IMAGEDEF_REACTOR
  2
AcDbRasterImageDefReactor
  3
ISM
 90
    32769
280
     0
281
     0
  0
CLASS
  1
IDBUFFER
  2
AcDbIdBuffer
  3
AutoCAD 2000
 90
    32768
280
     0
281
     0
  0
CLASS
  1
SPATIAL_FILTER
  2
AcDbSpatialFilter
  3
AutoCAD 2000
 90
    32768
280
     0
281
     0
  0
CLASS
  1
XRECORD
  2
AcDbXrecord
  3
AutoCAD 2000
 90
    32768
280
     0
281
     0
  0
CLASS
  1
SORTENTSTABLE
  2
AcDbSortentsTable
  3
AutoCAD 2000
 90
    32768
280
     0
281
     0
  0
CLASS
  1
LAYER_INDEX
  2
AcDbLayerIndex
  3
AutoCAD 2000
 90
    32768
280
     0
281
     0
  0
CLASS
  1
SPATIAL_INDEX
  2
AcDbSpatialIndex
  3
AutoCAD 2000
 90
    32768
280
     0
281
     0
  0
CLASS
  1
OBJECT_PTR
  2
CAseDLPNTableRecord
  3
"ASE-LPNTableRecord"
 90
    32769
280
     0
281
     0
  0
CLASS
  1
LAYOUT
  2
AcDbLayout
  3
AutoCAD 2000
 90
        0
280
     0
281
     0
  0
CLASS
  1
PLOTSETTINGS
  2
AcDbPlotSettings
  3
AutoCAD 2000
 90
    32768
280
     0
281
     0
  0
CLASS
  1
ACDBDICTIONARYWDFLT
  2
AcDbDictionaryWithDefault
  3
AutoCAD 2000
 90
        0
280
     0
281
     0
  0
CLASS
  1
ACDBPLACEHOLDER
  2
AcDbPlaceHolder
  3
AutoCAD 2000
 90
        0
280
     0
281
     0
  0
CLASS
  1
VBA_PROJECT
  2
AcDbVbaProject
  3
acadvba
 90
    32768
280
     0
281
     0
  0
CLASS
  1
WIPEOUT
  2
AcDbWipeout
  3
WipeOut|AutoCAD Express Tool|expresstools@autodesk.com
 90
    32895
280
     0
281
     1
  0
CLASS
  1
WIPEOUTVARIABLES
  2
AcDbWipeoutVariables
  3
WipeOut|AutoCAD Express Tool|expresstools@autodesk.com
 90
        0
280
     0
281
     0
  0
CLASS
  1
RTEXT
  2
RText
  3
RText|AutoCAD Express Tool|expresstools@autodesk.com
 90
    32768
280
     0
281
     1
  0
CLASS
  1
ARCALIGNEDTEXT
  2
AcDbArcAlignedText
  3
ATEXT|AutoCAD Express Tool|expresstools@autodesk.com
 90
    32768
280
     0
281
     1
  0
ENDSEC
  0
SECTION
  2
TABLES
  0
TABLE
  2
VPORT
  5
7
100
AcDbSymbolTable
 70
     1
  0
VPORT
  5
15
100
AcDbSymbolTableRecord
100
AcDbViewportTableRecord
  2
*ACTIVE
 70
     0
 10
0.0
 20
0.0
 11
1.0
 21
1.0
 12
6.591288
 22
4.579184
 13
0.0
 23
0.0
 14
1.0
 24
1.0
 15
0.0
 25
0.0
 16
0.0
 26
0.0
 36
1.0
 17
0.0
 27
0.0
 37
0.0
 40
9.158369
 41
0.688564
 42
50.0
 43
0.0
 44
0.0
 50
0.0
 51
0.0
 71
     0
 72
   100
 73
     1
 74
     1
 75
     0
 76
     0
 77
     0
 78
     0
281
     0
 65
     0
110
0.0
120
0.0
130
0.0
111
1.0
121
0.0
131
0.0
112
0.0
122
1.0
132
0.0
345
0
346
0
 79
     0
146
0.0
  0
ENDTAB
  0
TABLE
  2
LTYPE
  5
4
100
AcDbSymbolTable
 70
     3
  0
LTYPE
  5
11
100
AcDbSymbolTableRecord
100
AcDbLinetypeTableRecord
  2
ByBlock
 70
    64
  3

 72
    65
 73
     0
 40
0.0
  0
LTYPE
  5
12
100
AcDbSymbolTableRecord
100
AcDbLinetypeTableRecord
  2
ByLayer
 70
    64
  3

 72
    65
 73
     0
 40
0.0
  0
LTYPE
  5
13
100
AcDbSymbolTableRecord
100
AcDbLinetypeTableRecord
  2
Continuous
 70
    64
  3
Solid line
 72
    65
 73
     0
 40
0.0
  0
ENDTAB
  0
TABLE
  2
LAYER
  5
2
100
AcDbSymbolTable
 70
     2
  0
LAYER
  5
14
100
AcDbSymbolTableRecord
100
AcDbLayerTableRecord
  2
0
 70
     0
 62
     7
  6
Continuous
290
     1
370
    -3
390
1D
  0
LAYER
  5
24
100
AcDbSymbolTableRecord
100
AcDbLayerTableRecord
  2
P1-Layer 1
 70
     0
 62
     7
  6
Continuous
290
     1
370
    -3
390
1F
  0
ENDTAB
  0
TABLE
  2
STYLE
  5
3
100
AcDbSymbolTable
 70
     2
  0
STYLE
  5
17
100
AcDbSymbolTableRecord
100
AcDbTextStyleTableRecord
  2
Standard
 70
     0
 40
0.0
 41
1.0
 50
0.0
 71
     0
 42
0.0
  3
txt
  4

  0
STYLE
  5
27
100
AcDbSymbolTableRecord
100
AcDbTextStyleTableRecord
  2
Bookman Old Style
 70
     0
 40
1.0
 41
1.0
 50
0.0
 71
     0
 42
1.0
  3
Bookman Old Style
  4

  0
ENDTAB
  0
TABLE
  2
VIEW
  5
5
100
AcDbSymbolTable
 70
     0
  0
ENDTAB
  0
TABLE
  2
UCS
  5
6
100
AcDbSymbolTable
 70
     0
  0
ENDTAB
  0
TABLE
  2
APPID
  5
8
100
AcDbSymbolTable
 70
     1
  0
APPID
  5
16
100
AcDbSymbolTableRecord
100
AcDbRegAppTableRecord
  2
ACAD
 70
     0
  0
ENDTAB
  0
TABLE
  2
DIMSTYLE
  5
9
100
AcDbSymbolTable
 70
     1
100
AcDbDimStyleTable
 71
     0
  0
DIMSTYLE
105
18
100
AcDbSymbolTableRecord
100
AcDbDimStyleTableRecord
  2
Standard
 70
     0
  3

  4

 40
1.0
 41
0.18
 42
0.0625
 43
0.38
 44
0.18
 45
0.0
 46
0.0
 47
0.0
 48
0.0
 71
     0
 72
     0
 73
     1
 74
     1
 75
     0
 76
     0
 77
     0
 78
     0
 79
     0
140
0.18
141
0.09
142
0.0
143
25.4
144
1.0
145
0.0
146
1.0
147
0.09
148
0.0
170
     0
171
     2
172
     0
173
     0
174
     0
175
     0
176
     0
177
     0
178
     0
179
     0
271
     4
272
     4
273
     2
274
     2
275
     0
276
     0
277
     2
278
    46
279
     0
280
     0
281
     0
282
     0
283
     1
284
     0
285
     0
286
     0
288
     0
340
17
341
0
342
0
343
0
344
0
371
    -2
372
    -2
  0
ENDTAB
  0
TABLE
  2
BLOCK_RECORD
  5
1
100
AcDbSymbolTable
 70
     0
  0
BLOCK_RECORD
  5
A
100
AcDbSymbolTableRecord
100
AcDbBlockTableRecord
  2
*MODEL_SPACE
340
20
  0
BLOCK_RECORD
  5
B
100
AcDbSymbolTableRecord
100
AcDbBlockTableRecord
  2
*PAPER_SPACE
340
21
  0
ENDTAB
  0
ENDSEC
  0
SECTION
  2
BLOCKS
  0
BLOCK
  5
D
100
AcDbEntity
  8
0
100
AcDbBlockBegin
  2
*MODEL_SPACE
 70
     0
 10
0.0
 20
0.0
 30
0.0
  3
*MODEL_SPACE
  1

  0
ENDBLK
  5
E
100
AcDbEntity
  8
0
100
AcDbBlockEnd
  0
BLOCK
  5
F
100
AcDbEntity
 67
     1
  8
0
100
AcDbBlockBegin
  2
*PAPER_SPACE
 70
     0
 10
0.0
 20
0.0
 30
0.0
  3
*PAPER_SPACE
  1

  0
ENDBLK
  5
10
100
AcDbEntity
 67
     1
  8
0
100
AcDbBlockEnd
  0
ENDSEC
  0
SECTION
  2
ENTITIES
  0
SPLINE
  5
25
100
AcDbEntity
  8
P1-Layer 1
370
     5
100
AcDbSpline
210
0.0
220
0.0
230
1.0
 70
     0
 71
     3
 72
    24
 73
    20
 74
     0
 42
0.0000000001
 43
0.0000000001
 40
0.0
 40
0.0
 40
0.0
 40
0.0
 40
0.2
 40
0.2
 40
0.2
 40
0.2
 40
0.4
 40
0.4
 40
0.4
 40
0.4
 40
0.6000000000000001
 40
0.6000000000000001
 40
0.6000000000000001
 40
0.6000000000000001
 40
0.8
 40
0.8
 40
0.8
 40
0.8
 40
1.0
 40
1.0
 40
1.0
 40
1.0
 10
-0.1345354330708662
 20
2.7952440944881891
 30
0.0
 10
-0.1345354330708662
 20
3.2038070866141735
 30
0.0
 10
-0.4470314960629921
 20
3.5452440944881891
 30
0.0
 10
-0.8845314960629922
 20
3.5452440944881891
 30
0.0
 10
-0.8845314960629922
 20
3.5452440944881891
 30
0.0
 10
-0.8845314960629922
 20
3.5452440944881891
 30
0.0
 10
-0.8845314960629922
 20
3.7952440944881891
 30
0.0
 10
-0.8845314960629922
 20
3.7952440944881891
 30
0.0
 10
-0.8845314960629922
 20
3.7952440944881891
 30
0.0
 10
-0.8845314960629922
 20
3.7952440944881891
 30
0.0
 10
-1.2595314960629922
 20
3.7952440944881891
 30
0.0
 10
-1.2595314960629922
 20
3.7952440944881891
 30
0.0
 10
-1.2595314960629922
 20
3.7952440944881891
 30
0.0
 10
-1.2595314960629922
 20
3.7952440944881891
 30
0.0
 10
-1.2595314960629922
 20
2.7952440944881891
 30
0.0
 10
-1.2595314960629922
 20
2.7952440944881891
 30
0.0
 10
-1.2595314960629922
 20
2.7952440944881891
 30
0.0
 10
-1.2595314960629922
 20
2.7952440944881891
 30
0.0
 10
-0.1345354330708662
 20
2.7952440944881891
 30
0.0
 10
-0.1345354330708662
 20
2.7952440944881891
 30
0.0
  0
SPLINE
  5
26
100
AcDbEntity
  8
P1-Layer 1
370
     5
100
AcDbSpline
210
0.0
220
0.0
230
1.0
 70
     1
 71
     3
 72
    24
 73
    20
 74
     0
 42
0.0000000001
 43
0.0000000001
 40
0.0
 40
0.0
 40
0.0
 40
0.0
 40
0.2
 40
0.2
 40
0.2
 40
0.2
 40
0.4
 40
0.4
 40
0.4
 40
0.4
 40
0.6000000000000001
 40
0.6000000000000001
 40
0.6000000000000001
 40
0.6000000000000001
 40
0.8
 40
0.8
 40
0.8
 40
0.8
 40
1.0
 40
1.0
 40
1.0
 40
1.0
 10
1.8654645669291339
 20
3.7952440944881891
 30
0.0
 10
1.8654645669291339
 20
3.7952440944881891
 30
0.0
 10
-0.0095314960629921
 20
3.7952440944881891
 30
0.0
 10
-0.0095314960629921
 20
3.7952440944881891
 30
0.0
 10
-0.0095314960629921
 20
3.7952440944881891
 30
0.0
 10
-0.0095314960629921
 20
3.7952440944881891
 30
0.0
 10
-0.0095314960629921
 20
3.5452440944881891
 30
0.0
 10
-0.0095314960629921
 20
3.5452440944881891
 30
0.0
 10
-0.0095314960629921
 20
3.5452440944881891
 30
0.0
 10
0.4279685039370079
 20
3.5452440944881891
 30
0.0
 10
0.7404645669291339
 20
3.2038070866141735
 30
0.0
 10
0.7404645669291339
 20
2.7952440944881891
 30
0.0
 10
0.7404645669291339
 20
2.7952440944881891
 30
0.0
 10
0.7404645669291339
 20
2.7952440944881891
 30
0.0
 10
1.8654645669291339
 20
2.7952440944881891
 30
0.0
 10
1.8654645669291339
 20
2.7952440944881891
 30
0.0
 10
1.8654645669291339
 20
2.7952440944881891
 30
0.0
 10
1.8654645669291339
 20
2.7952440944881891
 30
0.0
 10
1.8654645669291339
 20
3.7952440944881891
 30
0.0
 10
1.8654645669291339
 20
3.7952440944881891
 30
0.0
  0
TEXT
  5
28
100
AcDbEntity
  8
P1-Layer 1
100
AcDbText
 10
-0.406791
 20
2.515224
 30
0.0
 40
0.119999
  1
BA  1542A & B
 51
-0.000002
  7
Bookman Old Style
100
AcDbText
  0
TEXT
  5
29
100
AcDbEntity
  8
P1-Layer 1
100
AcDbText
 10
0.124835
 20
2.327724
 30
0.0
 40
0.119999
  1
1\u+201d
 51
-0.000002
  7
Bookman Old Style
100
AcDbText
  0
SPLINE
  5
2A
100
AcDbEntity
  8
P1-Layer 1
 62
     9
100
AcDbSpline
210
0.0
220
0.0
230
1.0
 70
     1
 71
     3
 72
    20
 73
    16
 74
     0
 42
0.0000000001
 43
0.0000000001
 40
0.0
 40
0.0
 40
0.0
 40
0.0
 40
0.25
 40
0.25
 40
0.25
 40
0.25
 40
0.5
 40
0.5
 40
0.5
 40
0.5
 40
0.75
 40
0.75
 40
0.75
 40
0.75
 40
1.0
 40
1.0
 40
1.0
 40
1.0
 10
-0.7455236220472441
 20
0.1752834645669291
 30
0.0
 10
-0.7455236220472441
 20
0.1752834645669291
 30
0.0
 10
-0.1061692913385827
 20
0.5616377952755906
 30
0.0
 10
-0.1061692913385827
 20
0.5616377952755906
 30
0.0
 10
-0.1061692913385827
 20
0.5616377952755906
 30
0.0
 10
-0.1061692913385827
 20
0.5616377952755906
 30
0.0
 10
-0.1070748031496063
 20
0.5997283464566929
 30
0.0
 10
-0.1070748031496063
 20
0.5997283464566929
 30
0.0
 10
-0.1070748031496063
 20
0.5997283464566929
 30
0.0
 10
-0.1070748031496063
 20
0.5997283464566929
 30
0.0
 10
-0.7464291338582677
 20
0.2133740157480315
 30
0.0
 10
-0.7464291338582677
 20
0.2133740157480315
 30
0.0
 10
-0.7464291338582677
 20
0.2133740157480315
 30
0.0
 10
-0.7464291338582677
 20
0.2133740157480315
 30
0.0
 10
-0.7455236220472441
 20
0.1752834645669291
 30
0.0
 10
-0.7455236220472441
 20
0.1752834645669291
 30
0.0
  0
SPLINE
  5
2B
100
AcDbEntity
  8
P1-Layer 1
 62
     9
100
AcDbSpline
210
0.0
220
0.0
230
1.0
 70
     1
 71
     3
 72
    20
 73
    16
 74
     0
 42
0.0000000001
 43
0.0000000001
 40
0.0
 40
0.0
 40
0.0
 40
0.0
 40
0.25
 40
0.25
 40
0.25
 40
0.25
 40
0.5
 40
0.5
 40
0.5
 40
0.5
 40
0.75
 40
0.75
 40
0.75
 40
0.75
 40
1.0
 40
1.0
 40
1.0
 40
1.0
 10
-0.7464291338582677
 20
0.2133740157480315
 30
0.0
 10
-0.7464291338582677
 20
0.2133740157480315
 30
0.0
 10
-0.1070748031496063
 20
0.5997283464566929
 30
0.0
 10
-0.1070748031496063
 20
0.5997283464566929
 30
0.0
 10
-0.1070748031496063
 20
0.5997283464566929
 30
0.0
 10
-0.1070748031496063
 20
0.5997283464566929
 30
0.0
 10
-0.1097834645669291
 20
0.6373818897637795
 30
0.0
 10
-0.1097834645669291
 20
0.6373818897637795
 30
0.0
 10
-0.1097834645669291
 20
0.6373818897637795
 30
0.0
 10
-0.1097834645669291
 20
0.6373818897637795
 30
0.0
 10
-0.7491377952755906
 20
0.2510275590551181
 30
0.0
 10
-0.7491377952755906
 20
0.2510275590551181
 30
0.0
 10
-0.7491377952755906
 20
0.2510275590551181
 30
0.0
 10
-0.7491377952755906
 20
0.2510275590551181
 30
0.0
 10
-0.7464291338582677
 20
0.2133740157480315
 30
0.0
 10
-0.7464291338582677
 20
0.2133740157480315
 30
0.0
  0
SPLINE
  5
2C
100
AcDbEntity
  8
P1-Layer 1
 62
     9
100
AcDbSpline
210
0.0
220
0.0
230
1.0
 70
     1
 71
     3
 72
    20
 73
    16
 74
     0
 42
0.0000000001
 43
0.0000000001
 40
0.0
 40
0.0
 40
0.0
 40
0.0
 40
0.25
 40
0.25
 40
0.25
 40
0.25
 40
0.5
 40
0.5
 40
0.5
 40
0.5
 40
0.75
 40
0.75
 40
0.75
 40
0.75
 40
1.0
 40
1.0
 40
1.0
 40
1.0
 10
-0.7491377952755906
 20
0.2510275590551181
 30
0.0
 10
-0.7491377952755906
 20
0.2510275590551181
 30
0.0
 10
-0.1097834645669291
 20
0.6373818897637795
 30
0.0
 10
-0.1097834645669291
 20
0.6373818897637795
 30
0.0
 10
-0.1097834645669291
 20
0.6373818897637795
 30
0.0
 10
-0.1097834645669291
 20
0.6373818897637795
 30
0.0
 10
-0.114248031496063
 20
0.6745433070866143
 30
0.0
 10
-0.114248031496063
 20
0.6745433070866143
 30
0.0
 10
-0.114248031496063
 20
0.6745433070866143
 30
0.0
 10
-0.114248031496063
 20
0.6745433070866143
 30
0.0
 10
-0.7536023622047244
 20
0.2881889763779528
 30
0.0
 10
-0.7536023622047244
 20
0.2881889763779528
 30
0.0
 10
-0.7536023622047244
 20
0.2881889763779528
 30
0.0
 10
-0.7536023622047244
 20
0.2881889763779528
 30
0.0
 10
-0.7491377952755906
 20
0.2510275590551181
 30
0.0
 10
-0.7491377952755906
 20
0.2510275590551181
 30
0.0
  0
SPLINE
  5
2D
100
AcDbEntity
  8
P1-Layer 1
 62
     9
100
AcDbSpline
210
0.0
220
0.0
230
1.0
 70
     1
 71
     3
 72
    20
 73
    16
 74
     0
 42
0.0000000001
 43
0.0000000001
 40
0.0
 40
0.0
 40
0.0
 40
0.0
 40
0.25
 40
0.25
 40
0.25
 40
0.25
 40
0.5
 40
0.5
 40
0.5
 40
0.5
 40
0.75
 40
0.75
 40
0.75
 40
0.75
 40
1.0
 40
1.0
 40
1.0
 40
1.0
 10
-0.7536023622047244
 20
0.2881889763779528
 30
0.0
 10
-0.7536023622047244
 20
0.2881889763779528
 30
0.0
 10
-0.114248031496063
 20
0.6745433070866143
 30
0.0
 10
-0.114248031496063
 20
0.6745433070866143
 30
0.0
 10
-0.114248031496063
 20
0.6745433070866143
 30
0.0
 10
-0.114248031496063
 20
0.6745433070866143
 30
0.0
 10
-0.1204488188976378
 20
0.7111614173228347
 30
0.0
 10
-0.1204488188976378
 20
0.7111614173228347
 30
0.0
 10
-0.1204488188976378
 20
0.7111614173228347
 30
0.0
 10
-0.1204488188976378
 20
0.7111614173228347
 30
0.0
 10
-0.7598031496062992
 20
0.3248070866141732
 30
0.0
 10
-0.7598031496062992
 20
0.3248070866141732
 30
0.0
 10
-0.7598031496062992
 20
0.3248070866141732
 30
0.0
 10
-0.7598031496062992
 20
0.3248070866141732
 30
0.0
 10
-0.7536023622047244
 20
0.2881889763779528
 30
0.0
 10
-0.7536023622047244
 20
0.2881889763779528
 30
0.0
  0
SPLINE
  5
2E
100
AcDbEntity
  8
P1-Layer 1
 62
     9
100
AcDbSpline
210
0.0
220
0.0
230
1.0
 70
     1
 71
     3
 72
    20
 73
    16
 74
     0
 42
0.0000000001
 43
0.0000000001
 40
0.0
 40
0.0
 40
0.0
 40
0.0
 40
0.25
 40
0.25
 40
0.25
 40
0.25
 40
0.5
 40
0.5
 40
0.5
 40
0.5
 40
0.75
 40
0.75
 40
0.75
 40
0.75
 40
1.0
 40
1.0
 40
1.0
 40
1.0
 10
-0.7598031496062992
 20
0.3248070866141732
 30
0.0
 10
-0.7598031496062992
 20
0.3248070866141732
 30
0.0
 10
-0.1204488188976378
 20
0.7111614173228347
 30
0.0
 10
-0.1204488188976378
 20
0.7111614173228347
 30
0.0
 10
-0.1204488188976378
 20
0.7111614173228347
 30
0.0
 10
-0.1204488188976378
 20
0.7111614173228347
 30
0.0
 10
-0.1283307086614173
 20
0.7471771653543308
 30
0.0
 10
-0.1283307086614173
 20
0.7471771653543308
 30
0.0
 10
-0.1283307086614173
 20
0.7471771653543308
 30
0.0
 10
-0.1283307086614173
 20
0.7471771653543308
 30
0.0
 10
-0.7676850393700788
 20
0.3608228346456693
 30
0.0
 10
-0.7676850393700788
 20
0.3608228346456693
 30
0.0
 10
-0.7676850393700788
 20
0.3608228346456693
 30
0.0
 10
-0.7676850393700788
 20
0.3608228346456693
 30
0.0
 10
-0.7598031496062992
 20
0.3248070866141732
 30
0.0
 10
-0.7598031496062992
 20
0.3248070866141732
 30
0.0
  0
SPLINE
  5
2F
100
AcDbEntity
  8
P1-Layer 1
 62
     9
100
AcDbSpline
210
0.0
220
0.0
230
1.0
 70
     1
 71
     3
 72
    20
 73
    16
 74
     0
 42
0.0000000001
 43
0.0000000001
 40
0.0
 40
0.0
 40
0.0
 40
0.0
 40
0.25
 40
0.25
 40
0.25
 40
0.25
 40
0.5
 40
0.5
 40
0.5
 40
0.5
 40
0.75
 40
0.75
 40
0.75
 40
0.75
 40
1.0
 40
1.0
 40
1.0
 40
1.0
 10
-0.7676850393700788
 20
0.3608228346456693
 30
0.0
 10
-0.7676850393700788
 20
0.3608228346456693
 30
0.0
 10
-0.1283307086614173
 20
0.7471771653543308
 30
0.0
 10
-0.1283307086614173
 20
0.7471771653543308
 30
0.0
 10
-0.1283307086614173
 20
0.7471771653543308
 30
0.0
 10
-0.1283307086614173
 20
0.7471771653543308
 30
0.0
 10
-0.1378818897637795
 20
0.7825590551181103
 30
0.0
 10
-0.1378818897637795
 20
0.7825590551181103
 30
0.0
 10
-0.1378818897637795
 20
0.7825590551181103
 30
0.0
 10
-0.1378818897637795
 20
0.7825590551181103
 30
0.0
 10
-0.777236220472441
 20
0.3962047244094488
 30
0.0
 10
-0.777236220472441
 20
0.3962047244094488
 30
0.0
 10
-0.777236220472441
 20
0.3962047244094488
 30
0.0
 10
-0.777236220472441
 20
0.3962047244094488
 30
0.0
 10
-0.7676850393700788
 20
0.3608228346456693
 30
0.0
 10
-0.7676850393700788
 20
0.3608228346456693
 30
0.0
  0
SPLINE
  5
30
100
AcDbEntity
  8
P1-Layer 1
 62
     9
100
AcDbSpline
210
0.0
220
0.0
230
1.0
 70
     1
 71
     3
 72
    20
 73
    16
 74
     0
 42
0.0000000001
 43
0.0000000001
 40
0.0
 40
0.0
 40
0.0
 40
0.0
 40
0.25
 40
0.25
 40
0.25
 40
0.25
 40
0.5
 40
0.5
 40
0.5
 40
0.5
 40
0.75
 40
0.75
 40
0.75
 40
0.75
 40
1.0
 40
1.0
 40
1.0
 40
1.0
 10
-0.777236220472441
 20
0.3962047244094488
 30
0.0
 10
-0.777236220472441
 20
0.3962047244094488
 30
0.0
 10
-0.1378818897637795
 20
0.7825590551181103
 30
0.0
 10
-0.1378818897637795
 20
0.7825590551181103
 30
0.0
 10
-0.1378818897637795
 20
0.7825590551181103
 30
0.0
 10
-0.1378818897637795
 20
0.7825590551181103
 30
0.0
 10
-0.1490551181102362
 20
0.817240157480315
 30
0.0
 10
-0.1490551181102362
 20
0.817240157480315
 30
0.0
 10
-0.1490551181102362
 20
0.817240157480315
 30
0.0
 10
-0.1490551181102362
 20
0.817240157480315
 30
0.0
 10
-0.7884094488188976
 20
0.4308858267716536
 30
0.0
 10
-0.7884094488188976
 20
0.4308858267716536
 30
0.0
 10
-0.7884094488188976
 20
0.4308858267716536
 30
0.0
 10
-0.7884094488188976
 20
0.4308858267716536
 30
0.0
 10
-0.777236220472441
 20
0.3962047244094488
 30
0.0
 10
-0.777236220472441
 20
0.3962047244094488
 30
0.0
  0
SPLINE
  5
31
100
AcDbEntity
  8
P1-Layer 1
 62
     9
100
AcDbSpline
210
0.0
220
0.0
230
1.0
 70
     1
 71
     3
 72
    20
 73
    16
 74
     0
 42
0.0000000001
 43
0.0000000001
 40
0.0
 40
0.0
 40
0.0
 40
0.0
 40
0.25
 40
0.25
 40
0.25
 40
0.25
 40
0.5
 40
0.5
 40
0.5
 40
0.5
 40
0.75
 40
0.75
 40
0.75
 40
0.75
 40
1.0
 40
1.0
 40
1.0
 40
1.0
 10
-0.7884094488188976
 20
0.4308858267716536
 30
0.0
 10
-0.7884094488188976
 20
0.4308858267716536
 30
0.0
 10
-0.1490551181102362
 20
0.817240157480315
 30
0.0
 10
-0.1490551181102362
 20
0.817240157480315
 30
0.0
 10
-0.1490551181102362
 20
0.817240157480315
 30
0.0
 10
-0.1490551181102362
 20
0.817240157480315
 30
0.0
 10
-0.1618267716535433
 20
0.8511811023622048
 30
0.0
 10
-0.1618267716535433
 20
0.8511811023622048
 30
0.0
 10
-0.1618267716535433
 20
0.8511811023622048
 30
0.0
 10
-0.1618267716535433
 20
0.8511811023622048
 30
0.0
 10
-0.8011811023622047
 20
0.4648267716535433
 30
0.0
 10
-0.8011811023622047
 20
0.4648267716535433
 30
0.0
 10
-0.8011811023622047
 20
0.4648267716535433
 30
0.0
 10
-0.8011811023622047
 20
0.4648267716535433
 30
0.0
 10
-0.7884094488188976
 20
0.4308858267716536
 30
0.0
 10
-0.7884094488188976
 20
0.4308858267716536
 30
0.0
  0
SPLINE
  5
32
100
AcDbEntity
  8
P1-Layer 1
 62
     9
100
AcDbSpline
210
0.0
220
0.0
230
1.0
 70
     1
 71
     3
 72
    20
 73
    16
 74
     0
 42
0.0000000001
 43
0.0000000001
 40
0.0
 40
0.0
 40
0.0
 40
0.0
 40
0.25
 40
0.25
 40
0.25
 40
0.25
 40
0.5
 40
0.5
 40
0.5
 40
0.5
 40
0.75
 40
0.75
 40
0.75
 40
0.75
 40
1.0
 40
1.0
 40
1.0
 40
1.0
 10
-0.8011811023622047
 20
0.4648267716535433
 30
0.0
 10
-0.8011811023622047
 20
0.4648267716535433
 30
0.0
 10
-0.1618267716535433
 20
0.8511811023622048
 30
0.0
 10
-0.1618267716535433
 20
0.8511811023622048
 30
0.0
 10
-0.1618267716535433
 20
0.8511811023622048
 30
0.0
 10
-0.1618267716535433
 20
0.8511811023622048
 30
0.0
 10
-0.1761456692913386
 20
0.8843228346456693
 30
0.0
 10
-0.1761456692913386
 20
0.8843228346456693
 30
0.0
 10
-0.1761456692913386
 20
0.8843228346456693
 30
0.0
 10
-0.1761456692913386
 20
0.8843228346456693
 30
0.0
 10
-0.8155
 20
0.4979685039370079
 30
0.0
 10
-0.8155
 20
0.4979685039370079
 30
0.0
 10
-0.8155
 20
0.4979685039370079
 30
0.0
 10
-0.8155
 20
0.4979685039370079
 30
0.0
 10
-0.8011811023622047
 20
0.4648267716535433
 30
0.0
 10
-0.8011811023622047
 20
0.4648267716535433
 30
0.0
  0
SPLINE
  5
33
100
AcDbEntity
  8
P1-Layer 1
 62
     9
100
AcDbSpline
210
0.0
220
0.0
230
1.0
 70
     1
 71
     3
 72
    20
 73
    16
 74
     0
 42
0.0000000001
 43
0.0000000001
 40
0.0
 40
0.0
 40
0.0
 40
0.0
 40
0.25
 40
0.25
 40
0.25
 40
0.25
 40
0.5
 40
0.5
 40
0.5
 40
0.5
 40
0.75
 40
0.75
 40
0.75
 40
0.75
 40
1.0
 40
1.0
 40
1.0
 40
1.0
 10
-0.8155
 20
0.4979685039370079
 30
0.0
 10
-0.8155
 20
0.4979685039370079
 30
0.0
 10
-0.1761456692913386
 20
0.8843228346456693
 30
0.0
 10
-0.1761456692913386
 20
0.8843228346456693
 30
0.0
 10
-0.1761456692913386
 20
0.8843228346456693
 30
0.0
 10
-0.1761456692913386
 20
0.8843228346456693
 30
0.0
 10
-0.191992125984252
 20
0.9166181102362205
 30
0.0
 10
-0.191992125984252
 20
0.9166181102362205
 30
0.0
 10
-0.191992125984252
 20
0.9166181102362205
 30
0.0
 10
-0.191992125984252
 20
0.9166181102362205
 30
0.0
 10
-0.8313464566929134
 20
0.5302637795275591
 30
0.0
 10
-0.8313464566929134
 20
0.5302637795275591
 30
0.0
 10
-0.8313464566929134
 20
0.5302637795275591
 30
0.0
 10
-0.8313464566929134
 20
0.5302637795275591
 30
0.0
 10
-0.8155
 20
0.4979685039370079
 30
0.0
 10
-0.8155
 20
0.4979685039370079
 30
0.0
  0
SPLINE
  5
34
100
AcDbEntity
  8
P1-Layer 1
 62
     9
100
AcDbSpline
210
0.0
220
0.0
230
1.0
 70
     1
 71
     3
 72
    20
 73
    16
 74
     0
 42
0.0000000001
 43
0.0000000001
 40
0.0
 40
0.0
 40
0.0
 40
0.0
 40
0.25
 40
0.25
 40
0.25
 40
0.25
 40
0.5
 40
0.5
 40
0.5
 40
0.5
 40
0.75
 40
0.75
 40
0.75
 40
0.75
 40
1.0
 40
1.0
 40
1.0
 40
1.0
 10
-0.8313464566929134
 20
0.5302637795275591
 30
0.0
 10
-0.8313464566929134
 20
0.5302637795275591
 30
0.0
 10
-0.191992125984252
 20
0.9166181102362205
 30
0.0
 10
-0.191992125984252
 20
0.9166181102362205
 30
0.0
 10
-0.191992125984252
 20
0.9166181102362205
 30
0.0
 10
-0.191992125984252
 20
0.9166181102362205
 30
0.0
 10
-0.2093228346456693
 20
0.9480157480314961
 30
0.0
 10
-0.2093228346456693
 20
0.9480157480314961
 30
0.0
 10
-0.2093228346456693
 20
0.9480157480314961
 30
0.0
 10
-0.2093228346456693
 20
0.9480157480314961
 30
0.0
 10
-0.8486771653543307
 20
0.5616614173228347
 30
0.0
 10
-0.8486771653543307
 20
0.5616614173228347
 30
0.0
 10
-0.8486771653543307
 20
0.5616614173228347
 30
0.0
 10
-0.8486771653543307
 20
0.5616614173228347
 30
0.0
 10
-0.8313464566929134
 20
0.5302637795275591
 30
0.0
 10
-0.8313464566929134
 20
0.5302637795275591
 30
0.0
  0
SPLINE
  5
35
100
AcDbEntity
  8
P1-Layer 1
 62
     9
100
AcDbSpline
210
0.0
220
0.0
230
1.0
 70
     1
 71
     3
 72
    20
 73
    16
 74
     0
 42
0.0000000001
 43
0.0000000001
 40
0.0
 40
0.0
 40
0.0
 40
0.0
 40
0.25
 40
0.25
 40
0.25
 40
0.25
 40
0.5
 40
0.5
 40
0.5
 40
0.5
 40
0.75
 40
0.75
 40
0.75
 40
0.75
 40
1.0
 40
1.0
 40
1.0
 40
1.0
 10
-0.8486771653543307
 20
0.5616614173228347
 30
0.0
 10
-0.8486771653543307
 20
0.5616614173228347
 30
0.0
 10
-0.2093228346456693
 20
0.9480157480314961
 30
0.0
 10
-0.2093228346456693
 20
0.9480157480314961
 30
0.0
 10
-0.2093228346456693
 20
0.9480157480314961
 30
0.0
 10
-0.2093228346456693
 20
0.9480157480314961
 30
0.0
 10
-0.2281102362204724
 20
0.9784803149606299
 30
0.0
 10
-0.2281102362204724
 20
0.9784803149606299
 30
0.0
 10
-0.2281102362204724
 20
0.9784803149606299
 30
0.0
 10
-0.2281102362204724
 20
0.9784803149606299
 30
0.0
 10
-0.8674645669291339
 20
0.5921259842519685
 30
0.0
 10
-0.8674645669291339
 20
0.5921259842519685
 30
0.0
 10
-0.8674645669291339
 20
0.5921259842519685
 30
0.0
 10
-0.8674645669291339
 20
0.5921259842519685
 30
0.0
 10
-0.8486771653543307
 20
0.5616614173228347
 30
0.0
 10
-0.8486771653543307
 20
0.5616614173228347
 30
0.0
  0
SPLINE
  5
36
100
AcDbEntity
  8
P1-Layer 1
 62
     9
100
AcDbSpline
210
0.0
220
0.0
230
1.0
 70
     1
 71
     3
 72
    20
 73
    16
 74
     0
 42
0.0000000001
 43
0.0000000001
 40
0.0
 40
0.0
 40
0.0
 40
0.0
 40
0.25
 40
0.25
 40
0.25
 40
0.25
 40
0.5
 40
0.5
 40
0.5
 40
0.5
 40
0.75
 40
0.75
 40
0.75
 40
0.75
 40
1.0
 40
1.0
 40
1.0
 40
1.0
 10
-0.8674645669291339
 20
0.5921259842519685
 30
0.0
 10
-0.8674645669291339
 20
0.5921259842519685
 30
0.0
 10
-0.2281102362204724
 20
0.9784803149606299
 30
0.0
 10
-0.2281102362204724
 20
0.9784803149606299
 30
0.0
 10
-0.2281102362204724
 20
0.9784803149606299
 30
0.0
 10
-0.2281102362204724
 20
0.9784803149606299
 30
0.0
 10
-0.2483110236220473
 20
1.0079370078740157
 30
0.0
 10
-0.2483110236220473
 20
1.0079370078740157
 30
0.0
 10
-0.2483110236220473
 20
1.0079370078740157
 30
0.0
 10
-0.2483110236220473
 20
1.0079370078740157
 30
0.0
 10
-0.8876653543307087
 20
0.6215826771653543
 30
0.0
 10
-0.8876653543307087
 20
0.6215826771653543
 30
0.0
 10
-0.8876653543307087
 20
0.6215826771653543
 30
0.0
 10
-0.8876653543307087
 20
0.6215826771653543
 30
0.0
 10
-0.8674645669291339
 20
0.5921259842519685
 30
0.0
 10
-0.8674645669291339
 20
0.5921259842519685
 30
0.0
  0
SPLINE
  5
37
100
AcDbEntity
  8
P1-Layer 1
 62
     9
100
AcDbSpline
210
0.0
220
0.0
230
1.0
 70
     1
 71
     3
 72
    20
 73
    16
 74
     0
 42
0.0000000001
 43
0.0000000001
 40
0.0
 40
0.0
 40
0.0
 40
0.0
 40
0.25
 40
0.25
 40
0.25
 40
0.25
 40
0.5
 40
0.5
 40
0.5
 40
0.5
 40
0.75
 40
0.75
 40
0.75
 40
0.75
 40
1.0
 40
1.0
 40
1.0
 40
1.0
 10
-0.8876653543307087
 20
0.6215826771653543
 30
0.0
 10
-0.8876653543307087
 20
0.6215826771653543
 30
0.0
 10
-0.2483110236220473
 20
1.0079370078740157
 30
0.0
 10
-0.2483110236220473
 20
1.0079370078740157
 30
0.0
 10
-0.2483110236220473
 20
1.0079370078740157
 30
0.0
 10
-0.2483110236220473
 20
1.0079370078740157
 30
0.0
 10
-0.2699015748031496
 20
1.0363543307086616
 30
0.0
 10
-0.2699015748031496
 20
1.0363543307086616
 30
0.0
 10
-0.2699015748031496
 20
1.0363543307086616
 30
0.0
 10
-0.2699015748031496
 20
1.0363543307086616
 30
0.0
 10
-0.909255905511811
 20
0.65
 30
0.0
 10
-0.909255905511811
 20
0.65
 30
0.0
 10
-0.909255905511811
 20
0.65
 30
0.0
 10
-0.909255905511811
 20
0.65
 30
0.0
 10
-0.8876653543307087
 20
0.6215826771653543
 30
0.0
 10
-0.8876653543307087
 20
0.6215826771653543
 30
0.0
  0
SPLINE
  5
38
100
AcDbEntity
  8
P1-Layer 1
 62
     9
100
AcDbSpline
210
0.0
220
0.0
230
1.0
 70
     1
 71
     3
 72
    20
 73
    16
 74
     0
 42
0.0000000001
 43
0.0000000001
 40
0.0
 40
0.0
 40
0.0
 40
0.0
 40
0.25
 40
0.25
 40
0.25
 40
0.25
 40
0.5
 40
0.5
 40
0.5
 40
0.5
 40
0.75
 40
0.75
 40
0.75
 40
0.75
 40
1.0
 40
1.0
 40
1.0
 40
1.0
 10
-0.909255905511811
 20
0.65
 30
0.0
 10
-0.909255905511811
 20
0.65
 30
0.0
 10
-0.2699015748031496
 20
1.0363543307086616
 30
0.0
 10
-0.2699015748031496
 20
1.0363543307086616
 30
0.0
 10
-0.2699015748031496
 20
1.0363543307086616
 30
0.0
 10
-0.2699015748031496
 20
1.0363543307086616
 30
0.0
 10
-0.2928425196850394
 20
1.0636692913385828
 30
0.0
 10
-0.2928425196850394
 20
1.0636692913385828
 30
0.0
 10
-0.2928425196850394
 20
1.0636692913385828
 30
0.0
 10
-0.2928425196850394
 20
1.0636692913385828
 30
0.0
 10
-0.9321968503937008
 20
0.6773149606299213
 30
0.0
 10
-0.9321968503937008
 20
0.6773149606299213
 30
0.0
 10
-0.9321968503937008
 20
0.6773149606299213
 30
0.0
 10
-0.9321968503937008
 20
0.6773149606299213
 30
0.0
 10
-0.909255905511811
 20
0.65
 30
0.0
 10
-0.909255905511811
 20
0.65
 30
0.0
  0
SPLINE
  5
39
100
AcDbEntity
  8
P1-Layer 1
 62
     9
100
AcDbSpline
210
0.0
220
0.0
230
1.0
 70
     1
 71
     3
 72
    20
 73
    16
 74
     0
 42
0.0000000001
 43
0.0000000001
 40
0.0
 40
0.0
 40
0.0
 40
0.0
 40
0.25
 40
0.25
 40
0.25
 40
0.25
 40
0.5
 40
0.5
 40
0.5
 40
0.5
 40
0.75
 40
0.75
 40
0.75
 40
0.75
 40
1.0
 40
1.0
 40
1.0
 40
1.0
 10
-0.9321968503937008
 20
0.6773149606299213
 30
0.0
 10
-0.9321968503937008
 20
0.6773149606299213
 30
0.0
 10
-0.2928425196850394
 20
1.0636692913385828
 30
0.0
 10
-0.2928425196850394
 20
1.0636692913385828
 30
0.0
 10
-0.2928425196850394
 20
1.0636692913385828
 30
0.0
 10
-0.2928425196850394
 20
1.0636692913385828
 30
0.0
 10
-0.3171023622047244
 20
1.0898464566929134
 30
0.0
 10
-0.3171023622047244
 20
1.0898464566929134
 30
0.0
 10
-0.3171023622047244
 20
1.0898464566929134
 30
0.0
 10
-0.3171023622047244
 20
1.0898464566929134
 30
0.0
 10
-0.9564566929133859
 20
0.703492125984252
 30
0.0
 10
-0.9564566929133859
 20
0.703492125984252
 30
0.0
 10
-0.9564566929133859
 20
0.703492125984252
 30
0.0
 10
-0.9564566929133859
 20
0.703492125984252
 30
0.0
 10
-0.9321968503937008
 20
0.6773149606299213
 30
0.0
 10
-0.9321968503937008
 20
0.6773149606299213
 30
0.0
  0
SPLINE
  5
3A
100
AcDbEntity
  8
P1-Layer 1
 62
     9
100
AcDbSpline
210
0.0
220
0.0
230
1.0
 70
     1
 71
     3
 72
    20
 73
    16
 74
     0
 42
0.0000000001
 43
0.0000000001
 40
0.0
 40
0.0
 40
0.0
 40
0.0
 40
0.25
 40
0.25
 40
0.25
 40
0.25
 40
0.5
 40
0.5
 40
0.5
 40
0.5
 40
0.75
 40
0.75
 40
0.75
 40
0.75
 40
1.0
 40
1.0
 40
1.0
 40
1.0
 10
-0.9564566929133859
 20
0.703492125984252
 30
0.0
 10
-0.9564566929133859
 20
0.703492125984252
 30
0.0
 10
-0.3171023622047244
 20
1.0898464566929134
 30
0.0
 10
-0.3171023622047244
 20
1.0898464566929134
 30
0.0
 10
-0.3171023622047244
 20
1.0898464566929134
 30
0.0
 10
-0.3171023622047244
 20
1.0898464566929134
 30
0.0
 10
-0.3426338582677165
 20
1.1148149606299214
 30
0.0
 10
-0.3426338582677165
 20
1.1148149606299214
 30
0.0
 10
-0.3426338582677165
 20
1.1148149606299214
 30
0.0
 10
-0.3426338582677165
 20
1.1148149606299214
 30
0.0
 10
-0.981988188976378
 20
0.7284606299212598
 30
0.0
 10
-0.981988188976378
 20
0.7284606299212598
 30
0.0
 10
-0.981988188976378
 20
0.7284606299212598
 30
0.0
 10
-0.981988188976378
 20
0.7284606299212598
 30
0.0
 10
-0.9564566929133859
 20
0.703492125984252
 30
0.0
 10
-0.9564566929133859
 20
0.703492125984252
 30
0.0
  0
SPLINE
  5
3B
100
AcDbEntity
  8
P1-Layer 1
 62
     9
100
AcDbSpline
210
0.0
220
0.0
230
1.0
 70
     1
 71
     3
 72
    20
 73
    16
 74
     0
 42
0.0000000001
 43
0.0000000001
 40
0.0
 40
0.0
 40
0.0
 40
0.0
 40
0.25
 40
0.25
 40
0.25
 40
0.25
 40
0.5
 40
0.5
 40
0.5
 40
0.5
 40
0.75
 40
0.75
 40
0.75
 40
0.75
 40
1.0
 40
1.0
 40
1.0
 40
1.0
 10
-0.981988188976378
 20
0.7284606299212598
 30
0.0
 10
-0.981988188976378
 20
0.7284606299212598
 30
0.0
 10
-0.3426338582677165
 20
1.1148149606299214
 30
0.0
 10
-0.3426338582677165
 20
1.1148149606299214
 30
0.0
 10
-0.3426338582677165
 20
1.1148149606299214
 30
0.0
 10
-0.3426338582677165
 20
1.1148149606299214
 30
0.0
 10
-0.3694173228346457
 20
1.1385433070866142
 30
0.0
 10
-0.3694173228346457
 20
1.1385433070866142
 30
0.0
 10
-0.3694173228346457
 20
1.1385433070866142
 30
0.0
 10
-0.3694173228346457
 20
1.1385433070866142
 30
0.0
 10
-1.0087716535433071
 20
0.7521889763779528
 30
0.0
 10
-1.0087716535433071
 20
0.7521889763779528
 30
0.0
 10
-1.0087716535433071
 20
0.7521889763779528
 30
0.0
 10
-1.0087716535433071
 20
0.7521889763779528
 30
0.0
 10
-0.981988188976378
 20
0.7284606299212598
 30
0.0
 10
-0.981988188976378
 20
0.7284606299212598
 30
0.0
  0
SPLINE
  5
3C
100
AcDbEntity
  8
P1-Layer 1
 62
     9
100
AcDbSpline
210
0.0
220
0.0
230
1.0
 70
     1
 71
     3
 72
    20
 73
    16
 74
     0
 42
0.0000000001
 43
0.0000000001
 40
0.0
 40
0.0
 40
0.0
 40
0.0
 40
0.25
 40
0.25
 40
0.25
 40
0.25
 40
0.5
 40
0.5
 40
0.5
 40
0.5
 40
0.75
 40
0.75
 40
0.75
 40
0.75
 40
1.0
 40
1.0
 40
1.0
 40
1.0
 10
-1.0087716535433071
 20
0.7521889763779528
 30
0.0
 10
-1.0087716535433071
 20
0.7521889763779528
 30
0.0
 10
-0.3694173228346457
 20
1.1385433070866142
 30
0.0
 10
-0.3694173228346457
 20
1.1385433070866142
 30
0.0
 10
-0.3694173228346457
 20
1.1385433070866142
 30
0.0
 10
-0.3694173228346457
 20
1.1385433070866142
 30
0.0
 10
-0.3974133858267717
 20
1.1609685039370079
 30
0.0
 10
-0.3974133858267717
 20
1.1609685039370079
 30
0.0
 10
-0.3974133858267717
 20
1.1609685039370079
 30
0.0
 10
-0.3974133858267717
 20
1.1609685039370079
 30
0.0
 10
-1.0367677165354332
 20
0.7746141732283465
 30
0.0
 10
-1.0367677165354332
 20
0.7746141732283465
 30
0.0
 10
-1.0367677165354332
 20
0.7746141732283465
 30
0.0
 10
-1.0367677165354332
 20
0.7746141732283465
 30
0.0
 10
-1.0087716535433071
 20
0.7521889763779528
 30
0.0
 10
-1.0087716535433071
 20
0.7521889763779528
 30
0.0
  0
SPLINE
  5
3D
100
AcDbEntity
  8
P1-Layer 1
 62
     9
100
AcDbSpline
210
0.0
220
0.0
230
1.0
 70
     1
 71
     3
 72
    20
 73
    16
 74
     0
 42
0.0000000001
 43
0.0000000001
 40
0.0
 40
0.0
 40
0.0
 40
0.0
 40
0.25
 40
0.25
 40
0.25
 40
0.25
 40
0.5
 40
0.5
 40
0.5
 40
0.5
 40
0.75
 40
0.75
 40
0.75
 40
0.75
 40
1.0
 40
1.0
 40
1.0
 40
1.0
 10
-1.0367677165354332
 20
0.7746141732283465
 30
0.0
 10
-1.0367677165354332
 20
0.7746141732283465
 30
0.0
 10
-0.3974133858267717
 20
1.1609685039370079
 30
0.0
 10
-0.3974133858267717
 20
1.1609685039370079
 30
0.0
 10
-0.3974133858267717
 20
1.1609685039370079
 30
0.0
 10
-0.3974133858267717
 20
1.1609685039370079
 30
0.0
 10
-0.4265944881889764
 20
1.1820551181102363
 30
0.0
 10
-0.4265944881889764
 20
1.1820551181102363
 30
0.0
 10
-0.4265944881889764
 20
1.1820551181102363
 30
0.0
 10
-0.4265944881889764
 20
1.1820551181102363
 30
0.0
 10
-1.0659488188976378
 20
0.7957007874015748
 30
0.0
 10
-1.0659488188976378
 20
0.7957007874015748
 30
0.0
 10
-1.0659488188976378
 20
0.7957007874015748
 30
0.0
 10
-1.0659488188976378
 20
0.7957007874015748
 30
0.0
 10
-1.0367677165354332
 20
0.7746141732283465
 30
0.0
 10
-1.0367677165354332
 20
0.7746141732283465
 30
0.0
  0
SPLINE
  5
3E
100
AcDbEntity
  8
P1-Layer 1
 62
     9
100
AcDbSpline
210
0.0
220
0.0
230
1.0
 70
     1
 71
     3
 72
    20
 73
    16
 74
     0
 42
0.0000000001
 43
0.0000000001
 40
0.0
 40
0.0
 40
0.0
 40
0.0
 40
0.25
 40
0.25
 40
0.25
 40
0.25
 40
0.5
 40
0.5
 40
0.5
 40
0.5
 40
0.75
 40
0.75
 40
0.75
 40
0.75
 40
1.0
 40
1.0
 40
1.0
 40
1.0
 10
-1.0659488188976378
 20
0.7957007874015748
 30
0.0
 10
-1.0659488188976378
 20
0.7957007874015748
 30
0.0
 10
-0.4265944881889764
 20
1.1820551181102363
 30
0.0
 10
-0.4265944881889764
 20
1.1820551181102363
 30
0.0
 10
-0.4265944881889764
 20
1.1820551181102363
 30
0.0
 10
-0.4265944881889764
 20
1.1820551181102363
 30
0.0
 10
-0.4569094488188977
 20
1.2017362204724409
 30
0.0
 10
-0.4569094488188977
 20
1.2017362204724409
 30
0.0
 10
-0.4569094488188977
 20
1.2017362204724409
 30
0.0
 10
-0.4569094488188977
 20
1.2017362204724409
 30
0.0
 10
-1.0962637795275592
 20
0.8153818897637796
 30
0.0
 10
-1.0962637795275592
 20
0.8153818897637796
 30
0.0
 10
-1.0962637795275592
 20
0.8153818897637796
 30
0.0
 10
-1.0962637795275592
 20
0.8153818897637796
 30
0.0
 10
-1.0659488188976378
 20
0.7957007874015748
 30
0.0
 10
-1.0659488188976378
 20
0.7957007874015748
 30
0.0
  0
SPLINE
  5
3F
100
AcDbEntity
  8
P1-Layer 1
 62
     9
100
AcDbSpline
210
0.0
220
0.0
230
1.0
 70
     1
 71
     3
 72
    20
 73
    16
 74
     0
 42
0.0000000001
 43
0.0000000001
 40
0.0
 40
0.0
 40
0.0
 40
0.0
 40
0.25
 40
0.25
 40
0.25
 40
0.25
 40
0.5
 40
0.5
 40
0.5
 40
0.5
 40
0.75
 40
0.75
 40
0.75
 40
0.75
 40
1.0
 40
1.0
 40
1.0
 40
1.0
 10
-1.0962637795275592
 20
0.8153818897637796
 30
0.0
 10
-1.0962637795275592
 20
0.8153818897637796
 30
0.0
 10
-0.4569094488188977
 20
1.2017362204724409
 30
0.0
 10
-0.4569094488188977
 20
1.2017362204724409
 30
0.0
 10
-0.4569094488188977
 20
1.2017362204724409
 30
0.0
 10
-0.4569094488188977
 20
1.2017362204724409
 30
0.0
 10
-0.4883425196850394
 20
1.219972440944882
 30
0.0
 10
-0.4883425196850394
 20
1.219972440944882
 30
0.0
 10
-0.4883425196850394
 20
1.219972440944882
 30
0.0
 10
-0.4883425196850394
 20
1.219972440944882
 30
0.0
 10
-1.1276968503937008
 20
0.8336181102362205
 30
0.0
 10
-1.1276968503937008
 20
0.8336181102362205
 30
0.0
 10
-1.1276968503937008
 20
0.8336181102362205
 30
0.0
 10
-1.1276968503937008
 20
0.8336181102362205
 30
0.0
 10
-1.0962637795275592
 20
0.8153818897637796
 30
0.0
 10
-1.0962637795275592
 20
0.8153818897637796
 30
0.0
  0
SPLINE
  5
40
100
AcDbEntity
  8
P1-Layer 1
 62
     9
100
AcDbSpline
210
0.0
220
0.0
230
1.0
 70
     1
 71
     3
 72
    20
 73
    16
 74
     0
 42
0.0000000001
 43
0.0000000001
 40
0.0
 40
0.0
 40
0.0
 40
0.0
 40
0.25
 40
0.25
 40
0.25
 40
0.25
 40
0.5
 40
0.5
 40
0.5
 40
0.5
 40
0.75
 40
0.75
 40
0.75
 40
0.75
 40
1.0
 40
1.0
 40
1.0
 40
1.0
 10
-1.1276968503937008
 20
0.8336181102362205
 30
0.0
 10
-1.1276968503937008
 20
0.8336181102362205
 30
0.0
 10
-0.4883425196850394
 20
1.219972440944882
 30
0.0
 10
-0.4883425196850394
 20
1.219972440944882
 30
0.0
 10
-0.4883425196850394
 20
1.219972440944882
 30
0.0
 10
-0.4883425196850394
 20
1.219972440944882
 30
0.0
 10
-0.5208503937007875
 20
1.2367086614173228
 30
0.0
 10
-0.5208503937007875
 20
1.2367086614173228
 30
0.0
 10
-0.5208503937007875
 20
1.2367086614173228
 30
0.0
 10
-0.5208503937007875
 20
1.2367086614173228
 30
0.0
 10
-1.1602047244094489
 20
0.8503543307086614
 30
0.0
 10
-1.1602047244094489
 20
0.8503543307086614
 30
0.0
 10
-1.1602047244094489
 20
0.8503543307086614
 30
0.0
 10
-1.1602047244094489
 20
0.8503543307086614
 30
0.0
 10
-1.1276968503937008
 20
0.8336181102362205
 30
0.0
 10
-1.1276968503937008
 20
0.8336181102362205
 30
0.0
  0
SPLINE
  5
41
100
AcDbEntity
  8
P1-Layer 1
 62
   253
100
AcDbSpline
210
0.0
220
0.0
230
1.0
 70
     1
 71
     3
 72
    20
 73
    16
 74
     0
 42
0.0000000001
 43
0.0000000001
 40
0.0
 40
0.0
 40
0.0
 40
0.0
 40
0.25
 40
0.25
 40
0.25
 40
0.25
 40
0.5
 40
0.5
 40
0.5
 40
0.5
 40
0.75
 40
0.75
 40
0.75
 40
0.75
 40
1.0
 40
1.0
 40
1.0
 40
1.0
 10
-1.1602047244094489
 20
0.8503543307086614
 30
0.0
 10
-1.1602047244094489
 20
0.8503543307086614
 30
0.0
 10
-0.5208503937007875
 20
1.2367086614173228
 30
0.0
 10
-0.5208503937007875
 20
1.2367086614173228
 30
0.0
 10
-0.5208503937007875
 20
1.2367086614173228
 30
0.0
 10
-0.5208503937007875
 20
1.2367086614173228
 30
0.0
 10
-0.5544015748031497
 20
1.2519015748031497
 30
0.0
 10
-0.5544015748031497
 20
1.2519015748031497
 30
0.0
 10
-0.5544015748031497
 20
1.2519015748031497
 30
0.0
 10
-0.5544015748031497
 20
1.2519015748031497
 30
0.0
 10
-1.193755905511811
 20
0.8655472440944882
 30
0.0
 10
-1.193755905511811
 20
0.8655472440944882
 30
0.0
 10
-1.193755905511811
 20
0.8655472440944882
 30
0.0
 10
-1.193755905511811
 20
0.8655472440944882
 30
0.0
 10
-1.1602047244094489
 20
0.8503543307086614
 30
0.0
 10
-1.1602047244094489
 20
0.8503543307086614
 30
0.0
  0
SPLINE
  5
42
100
AcDbEntity
  8
P1-Layer 1
 62
   253
100
AcDbSpline
210
0.0
220
0.0
230
1.0
 70
     1
 71
     3
 72
    20
 73
    16
 74
     0
 42
0.0000000001
 43
0.0000000001
 40
0.0
 40
0.0
 40
0.0
 40
0.0
 40
0.25
 40
0.25
 40
0.25
 40
0.25
 40
0.5
 40
0.5
 40
0.5
 40
0.5
 40
0.75
 40
0.75
 40
0.75
 40
0.75
 40
1.0
 40
1.0
 40
1.0
 40
1.0
 10
-1.193755905511811
 20
0.8655472440944882
 30
0.0
 10
-1.193755905511811
 20
0.8655472440944882
 30
0.0
 10
-0.5544015748031497
 20
1.2519015748031497
 30
0.0
 10
-0.5544015748031497
 20
1.2519015748031497
 30
0.0
 10
-0.5544015748031497
 20
1.2519015748031497
 30
0.0
 10
-0.5544015748031497
 20
1.2519015748031497
 30
0.0
 10
-0.5889527559055119
 20
1.265488188976378
 30
0.0
 10
-0.5889527559055119
 20
1.265488188976378
 30
0.0
 10
-0.5889527559055119
 20
1.265488188976378
 30
0.0
 10
-0.5889527559055119
 20
1.265488188976378
 30
0.0
 10
-1.2283070866141732
 20
0.8791338582677166
 30
0.0
 10
-1.2283070866141732
 20
0.8791338582677166
 30
0.0
 10
-1.2283070866141732
 20
0.8791338582677166
 30
0.0
 10
-1.2283070866141732
 20
0.8791338582677166
 30
0.0
 10
-1.193755905511811
 20
0.8655472440944882
 30
0.0
 10
-1.193755905511811
 20
0.8655472440944882
 30
0.0
  0
SPLINE
  5
43
100
AcDbEntity
  8
P1-Layer 1
 62
   253
100
AcDbSpline
210
0.0
220
0.0
230
1.0
 70
     1
 71
     3
 72
    20
 73
    16
 74
     0
 42
0.0000000001
 43
0.0000000001
 40
0.0
 40
0.0
 40
0.0
 40
0.0
 40
0.25
 40
0.25
 40
0.25
 40
0.25
 40
0.5
 40
0.5
 40
0.5
 40
0.5
 40
0.75
 40
0.75
 40
0.75
 40
0.75
 40
1.0
 40
1.0
 40
1.0
 40
1.0
 10
-1.2283070866141732
 20
0.8791338582677166
 30
0.0
 10
-1.2283070866141732
 20
0.8791338582677166
 30
0.0
 10
-0.5889527559055119
 20
1.265488188976378
 30
0.0
 10
-0.5889527559055119
 20
1.265488188976378
 30
0.0
 10
-0.5889527559055119
 20
1.265488188976378
 30
0.0
 10
-0.5889527559055119
 20
1.265488188976378
 30
0.0
 10
-0.62448031496063
 20
1.2774291338582677
 30
0.0
 10
-0.62448031496063
 20
1.2774291338582677
 30
0.0
 10
-0.62448031496063
 20
1.2774291338582677
 30
0.0
 10
-0.62448031496063
 20
1.2774291338582677
 30
0.0
 10
-1.2638346456692915
 20
0.8910748031496063
 30
0.0
 10
-1.2638346456692915
 20
0.8910748031496063
 30
0.0
 10
-1.2638346456692915
 20
0.8910748031496063
 30
0.0
 10
-1.2638346456692915
 20
0.8910748031496063
 30
0.0
 10
-1.2283070866141732
 20
0.8791338582677166
 30
0.0
 10
-1.2283070866141732
 20
0.8791338582677166
 30
0.0
  0
SPLINE
  5
44
100
AcDbEntity
  8
P1-Layer 1
 62
   253
100
AcDbSpline
210
0.0
220
0.0
230
1.0
 70
     1
 71
     3
 72
    20
 73
    16
 74
     0
 42
0.0000000001
 43
0.0000000001
 40
0.0
 40
0.0
 40
0.0
 40
0.0
 40
0.25
 40
0.25
 40
0.25
 40
0.25
 40
0.5
 40
0.5
 40
0.5
 40
0.5
 40
0.75
 40
0.75
 40
0.75
 40
0.75
 40
1.0
 40
1.0
 40
1.0
 40
1.0
 10
-1.2638346456692915
 20
0.8910748031496063
 30
0.0
 10
-1.2638346456692915
 20
0.8910748031496063
 30
0.0
 10
-0.62448031496063
 20
1.2774291338582677
 30
0.0
 10
-0.62448031496063
 20
1.2774291338582677
 30
0.0
 10
-0.62448031496063
 20
1.2774291338582677
 30
0.0
 10
-0.62448031496063
 20
1.2774291338582677
 30
0.0
 10
-0.6609448818897639
 20
1.2876692913385828
 30
0.0
 10
-0.6609448818897639
 20
1.2876692913385828
 30
0.0
 10
-0.6609448818897639
 20
1.2876692913385828
 30
0.0
 10
-0.6609448818897639
 20
1.2876692913385828
 30
0.0
 10
-1.3002992125984252
 20
0.9013149606299213
 30
0.0
 10
-1.3002992125984252
 20
0.9013149606299213
 30
0.0
 10
-1.3002992125984252
 20
0.9013149606299213
 30
0.0
 10
-1.3002992125984252
 20
0.9013149606299213
 30
0.0
 10
-1.2638346456692915
 20
0.8910748031496063
 30
0.0
 10
-1.2638346456692915
 20
0.8910748031496063
 30
0.0
  0
SPLINE
  5
45
100
AcDbEntity
  8
P1-Layer 1
 62
   253
100
AcDbSpline
210
0.0
220
0.0
230
1.0
 70
     1
 71
     3
 72
    20
 73
    16
 74
     0
 42
0.0000000001
 43
0.0000000001
 40
0.0
 40
0.0
 40
0.0
 40
0.0
 40
0.25
 40
0.25
 40
0.25
 40
0.25
 40
0.5
 40
0.5
 40
0.5
 40
0.5
 40
0.75
 40
0.75
 40
0.75
 40
0.75
 40
1.0
 40
1.0
 40
1.0
 40
1.0
 10
-1.3002992125984252
 20
0.9013149606299213
 30
0.0
 10
-1.3002992125984252
 20
0.9013149606299213
 30
0.0
 10
-0.6609448818897639
 20
1.2876692913385828
 30
0.0
 10
-0.6609448818897639
 20
1.2876692913385828
 30
0.0
 10
-0.6609448818897639
 20
1.2876692913385828
 30
0.0
 10
-0.6609448818897639
 20
1.2876692913385828
 30
0.0
 10
-0.6983228346456694
 20
1.2961653543307088
 30
0.0
 10
-0.6983228346456694
 20
1.2961653543307088
 30
0.0
 10
-0.6983228346456694
 20
1.2961653543307088
 30
0.0
 10
-0.6983228346456694
 20
1.2961653543307088
 30
0.0
 10
-1.3376771653543307
 20
0.9098110236220472
 30
0.0
 10
-1.3376771653543307
 20
0.9098110236220472
 30
0.0
 10
-1.3376771653543307
 20
0.9098110236220472
 30
0.0
 10
-1.3376771653543307
 20
0.9098110236220472
 30
0.0
 10
-1.3002992125984252
 20
0.9013149606299213
 30
0.0
 10
-1.3002992125984252
 20
0.9013149606299213
 30
0.0
  0
SPLINE
  5
46
100
AcDbEntity
  8
P1-Layer 1
 62
   253
100
AcDbSpline
210
0.0
220
0.0
230
1.0
 70
     1
 71
     3
 72
    20
 73
    16
 74
     0
 42
0.0000000001
 43
0.0000000001
 40
0.0
 40
0.0
 40
0.0
 40
0.0
 40
0.25
 40
0.25
 40
0.25
 40
0.25
 40
0.5
 40
0.5
 40
0.5
 40
0.5
 40
0.75
 40
0.75
 40
0.75
 40
0.75
 40
1.0
 40
1.0
 40
1.0
 40
1.0
 10
-1.3376771653543307
 20
0.9098110236220472
 30
0.0
 10
-1.3376771653543307
 20
0.9098110236220472
 30
0.0
 10
-0.6983228346456694
 20
1.2961653543307088
 30
0.0
 10
-0.6983228346456694
 20
1.2961653543307088
 30
0.0
 10
-0.6983228346456694
 20
1.2961653543307088
 30
0.0
 10
-0.6983228346456694
 20
1.2961653543307088
 30
0.0
 10
-0.7365590551181103
 20
1.3028543307086615
 30
0.0
 10
-0.7365590551181103
 20
1.3028543307086615
 30
0.0
 10
-0.7365590551181103
 20
1.3028543307086615
 30
0.0
 10
-0.7365590551181103
 20
1.3028543307086615
 30
0.0
 10
-1.3759133858267718
 20
0.9165
 30
0.0
 10
-1.3759133858267718
 20
0.9165
 30
0.0
 10
-1.3759133858267718
 20
0.9165
 30
0.0
 10
-1.3759133858267718
 20
0.9165
 30
0.0
 10
-1.3376771653543307
 20
0.9098110236220472
 30
0.0
 10
-1.3376771653543307
 20
0.9098110236220472
 30
0.0
  0
SPLINE
  5
47
100
AcDbEntity
  8
P1-Layer 1
 62
   253
100
AcDbSpline
210
0.0
220
0.0
230
1.0
 70
     1
 71
     3
 72
    20
 73
    16
 74
     0
 42
0.0000000001
 43
0.0000000001
 40
0.0
 40
0.0
 40
0.0
 40
0.0
 40
0.25
 40
0.25
 40
0.25
 40
0.25
 40
0.5
 40
0.5
 40
0.5
 40
0.5
 40
0.75
 40
0.75
 40
0.75
 40
0.75
 40
1.0
 40
1.0
 40
1.0
 40
1.0
 10
-1.3759133858267718
 20
0.9165
 30
0.0
 10
-1.3759133858267718
 20
0.9165
 30
0.0
 10
-0.7365590551181103
 20
1.3028543307086615
 30
0.0
 10
-0.7365590551181103
 20
1.3028543307086615
 30
0.0
 10
-0.7365590551181103
 20
1.3028543307086615
 30
0.0
 10
-0.7365590551181103
 20
1.3028543307086615
 30
0.0
 10
-0.7756377952755906
 20
1.3077007874015749
 30
0.0
 10
-0.7756377952755906
 20
1.3077007874015749
 30
0.0
 10
-0.7756377952755906
 20
1.3077007874015749
 30
0.0
 10
-0.7756377952755906
 20
1.3077007874015749
 30
0.0
 10
-1.4149921259842519
 20
0.9213464566929134
 30
0.0
 10
-1.4149921259842519
 20
0.9213464566929134
 30
0.0
 10
-1.4149921259842519
 20
0.9213464566929134
 30
0.0
 10
-1.4149921259842519
 20
0.9213464566929134
 30
0.0
 10
-1.3759133858267718
 20
0.9165
 30
0.0
 10
-1.3759133858267718
 20
0.9165
 30
0.0
  0
SPLINE
  5
48
100
AcDbEntity
  8
P1-Layer 1
 62
   253
100
AcDbSpline
210
0.0
220
0.0
230
1.0
 70
     1
 71
     3
 72
    20
 73
    16
 74
     0
 42
0.0000000001
 43
0.0000000001
 40
0.0
 40
0.0
 40
0.0
 40
0.0
 40
0.25
 40
0.25
 40
0.25
 40
0.25
 40
0.5
 40
0.5
 40
0.5
 40
0.5
 40
0.75
 40
0.75
 40
0.75
 40
0.75
 40
1.0
 40
1.0
 40
1.0
 40
1.0
 10
-1.4149921259842519
 20
0.9213464566929134
 30
0.0
 10
-1.4149921259842519
 20
0.9213464566929134
 30
0.0
 10
-0.7756377952755906
 20
1.3077007874015749
 30
0.0
 10
-0.7756377952755906
 20
1.3077007874015749
 30
0.0
 10
-0.7756377952755906
 20
1.3077007874015749
 30
0.0
 10
-0.7756377952755906
 20
1.3077007874015749
 30
0.0
 10
-0.8155157480314961
 20
1.3106417322834647
 30
0.0
 10
-0.8155157480314961
 20
1.3106417322834647
 30
0.0
 10
-0.8155157480314961
 20
1.3106417322834647
 30
0.0
 10
-0.8155157480314961
 20
1.3106417322834647
 30
0.0
 10
-1.4548700787401576
 20
0.9242874015748032
 30
0.0
 10
-1.4548700787401576
 20
0.9242874015748032
 30
0.0
 10
-1.4548700787401576
 20
0.9242874015748032
 30
0.0
 10
-1.4548700787401576
 20
0.9242874015748032
 30
0.0
 10
-1.4149921259842519
 20
0.9213464566929134
 30
0.0
 10
-1.4149921259842519
 20
0.9213464566929134
 30
0.0
  0
SPLINE
  5
49
100
AcDbEntity
  8
P1-Layer 1
 62
   253
100
AcDbSpline
210
0.0
220
0.0
230
1.0
 70
     1
 71
     3
 72
    20
 73
    16
 74
     0
 42
0.0000000001
 43
0.0000000001
 40
0.0
 40
0.0
 40
0.0
 40
0.0
 40
0.25
 40
0.25
 40
0.25
 40
0.25
 40
0.5
 40
0.5
 40
0.5
 40
0.5
 40
0.75
 40
0.75
 40
0.75
 40
0.75
 40
1.0
 40
1.0
 40
1.0
 40
1.0
 10
-1.4548700787401576
 20
0.9242874015748032
 30
0.0
 10
-1.4548700787401576
 20
0.9242874015748032
 30
0.0
 10
-0.8155157480314961
 20
1.3106417322834647
 30
0.0
 10
-0.8155157480314961
 20
1.3106417322834647
 30
0.0
 10
-0.8155157480314961
 20
1.3106417322834647
 30
0.0
 10
-0.8155157480314961
 20
1.3106417322834647
 30
0.0
 10
-0.8561653543307087
 20
1.3116377952755907
 30
0.0
 10
-0.8561653543307087
 20
1.3116377952755907
 30
0.0
 10
-0.8561653543307087
 20
1.3116377952755907
 30
0.0
 10
-0.8561653543307087
 20
1.3116377952755907
 30
0.0
 10
-1.4955196850393702
 20
0.9252834645669291
 30
0.0
 10
-1.4955196850393702
 20
0.9252834645669291
 30
0.0
 10
-1.4955196850393702
 20
0.9252834645669291
 30
0.0
 10
-1.4955196850393702
 20
0.9252834645669291
 30
0.0
 10
-1.4548700787401576
 20
0.9242874015748032
 30
0.0
 10
-1.4548700787401576
 20
0.9242874015748032
 30
0.0
  0
SPLINE
  5
4A
100
AcDbEntity
  8
P1-Layer 1
 62
     9
100
AcDbSpline
210
0.0
220
0.0
230
1.0
 70
     1
 71
     3
 72
    20
 73
    16
 74
     0
 42
0.0000000001
 43
0.0000000001
 40
0.0
 40
0.0
 40
0.0
 40
0.0
 40
0.25
 40
0.25
 40
0.25
 40
0.25
 40
0.5
 40
0.5
 40
0.5
 40
0.5
 40
0.75
 40
0.75
 40
0.75
 40
0.75
 40
1.0
 40
1.0
 40
1.0
 40
1.0
 10
-1.4955196850393702
 20
0.9252834645669291
 30
0.0
 10
-1.4955196850393702
 20
0.9252834645669291
 30
0.0
 10
-0.8561653543307087
 20
1.3116377952755907
 30
0.0
 10
-0.8561653543307087
 20
1.3116377952755907
 30
0.0
 10
-0.8561653543307087
 20
1.3116377952755907
 30
0.0
 10
-0.8561653543307087
 20
1.3116377952755907
 30
0.0
 10
-0.8561653543307087
 20
1.5616377952755907
 30
0.0
 10
-0.8561653543307087
 20
1.5616377952755907
 30
0.0
 10
-0.8561653543307087
 20
1.5616377952755907
 30
0.0
 10
-0.8561653543307087
 20
1.5616377952755907
 30
0.0
 10
-1.4955196850393702
 20
1.1752834645669292
 30
0.0
 10
-1.4955196850393702
 20
1.1752834645669292
 30
0.0
 10
-1.4955196850393702
 20
1.1752834645669292
 30
0.0
 10
-1.4955196850393702
 20
1.1752834645669292
 30
0.0
 10
-1.4955196850393702
 20
0.9252834645669291
 30
0.0
 10
-1.4955196850393702
 20
0.9252834645669291
 30
0.0
  0
SPLINE
  5
4B
100
AcDbEntity
  8
P1-Layer 1
370
     5
100
AcDbSpline
210
0.0
220
0.0
230
1.0
 70
     1
 71
     3
 72
   276
 73
   272
 74
     0
 42
0.0000000001
 43
0.0000000001
 40
0.0
 40
0.0
 40
0.0
 40
0.0
 40
0.0147058823529412
 40
0.0147058823529412
 40
0.0147058823529412
 40
0.0147058823529412
 40
0.0294117647058824
 40
0.0294117647058824
 40
0.0294117647058824
 40
0.0294117647058824
 40
0.0441176470588235
 40
0.0441176470588235
 40
0.0441176470588235
 40
0.0441176470588235
 40
0.0588235294117647
 40
0.0588235294117647
 40
0.0588235294117647
 40
0.0588235294117647
 40
0.0735294117647059
 40
0.0735294117647059
 40
0.0735294117647059
 40
0.0735294117647059
 40
0.0882352941176471
 40
0.0882352941176471
 40
0.0882352941176471
 40
0.0882352941176471
 40
0.1029411764705882
 40
0.1029411764705882
 40
0.1029411764705882
 40
0.1029411764705882
 40
0.1176470588235294
 40
0.1176470588235294
 40
0.1176470588235294
 40
0.1176470588235294
 40
0.1323529411764706
 40
0.1323529411764706
 40
0.1323529411764706
 40
0.1323529411764706
 40
0.1470588235294118
 40
0.1470588235294118
 40
0.1470588235294118
 40
0.1470588235294118
 40
0.161764705882353
 40
0.161764705882353
 40
0.161764705882353
 40
0.161764705882353
 40
0.1764705882352941
 40
0.1764705882352941
 40
0.1764705882352941
 40
0.1764705882352941
 40
0.1911764705882353
 40
0.1911764705882353
 40
0.1911764705882353
 40
0.1911764705882353
 40
0.2058823529411765
 40
0.2058823529411765
 40
0.2058823529411765
 40
0.2058823529411765
 40
0.2205882352941177
 40
0.2205882352941177
 40
0.2205882352941177
 40
0.2205882352941177
 40
0.2352941176470589
 40
0.2352941176470589
 40
0.2352941176470589
 40
0.2352941176470589
 40
0.25
 40
0.25
 40
0.25
 40
0.25
 40
0.2647058823529412
 40
0.2647058823529412
 40
0.2647058823529412
 40
0.2647058823529412
 40
0.2794117647058824
 40
0.2794117647058824
 40
0.2794117647058824
 40
0.2794117647058824
 40
0.2941176470588235
 40
0.2941176470588235
 40
0.2941176470588235
 40
0.2941176470588235
 40
0.3088235294117647
 40
0.3088235294117647
 40
0.3088235294117647
 40
0.3088235294117647
 40
0.3235294117647059
 40
0.3235294117647059
 40
0.3235294117647059
 40
0.3235294117647059
 40
0.3382352941176471
 40
0.3382352941176471
 40
0.3382352941176471
 40
0.3382352941176471
 40
0.3529411764705883
 40
0.3529411764705883
 40
0.3529411764705883
 40
0.3529411764705883
 40
0.3676470588235294
 40
0.3676470588235294
 40
0.3676470588235294
 40
0.3676470588235294
 40
0.3823529411764706
 40
0.3823529411764706
 40
0.3823529411764706
 40
0.3823529411764706
 40
0.3970588235294118
 40
0.3970588235294118
 40
0.3970588235294118
 40
0.3970588235294118
 40
0.411764705882353
 40
0.411764705882353
 40
0.411764705882353
 40
0.411764705882353
 40
0.4264705882352942
 40
0.4264705882352942
 40
0.4264705882352942
 40
0.4264705882352942
 40
0.4411764705882353
 40
0.4411764705882353
 40
0.4411764705882353
 40
0.4411764705882353
 40
0.4558823529411765
 40
0.4558823529411765
 40
0.4558823529411765
 40
0.4558823529411765
 40
0.4705882352941177
 40
0.4705882352941177
 40
0.4705882352941177
 40
0.4705882352941177
 40
0.4852941176470589
 40
0.4852941176470589
 40
0.4852941176470589
 40
0.4852941176470589
 40
0.5
 40
0.5
 40
0.5
 40
0.5
 40
0.5147058823529411
 40
0.5147058823529411
 40
0.5147058823529411
 40
0.5147058823529411
 40
0.5294117647058823
 40
0.5294117647058823
 40
0.5294117647058823
 40
0.5294117647058823
 40
0.5441176470588234
 40
0.5441176470588234
 40
0.5441176470588234
 40
0.5441176470588234
 40
0.5588235294117645
 40
0.5588235294117645
 40
0.5588235294117645
 40
0.5588235294117645
 40
0.5735294117647056
 40
0.5735294117647056
 40
0.5735294117647056
 40
0.5735294117647056
 40
0.5882352941176468
 40
0.5882352941176468
 40
0.5882352941176468
 40
0.5882352941176468
 40
0.6029411764705879
 40
0.6029411764705879
 40
0.6029411764705879
 40
0.6029411764705879
 40
0.617647058823529
 40
0.617647058823529
 40
0.617647058823529
 40
0.617647058823529
 40
0.6323529411764701
 40
0.6323529411764701
 40
0.6323529411764701
 40
0.6323529411764701
 40
0.6470588235294112
 40
0.6470588235294112
 40
0.6470588235294112
 40
0.6470588235294112
 40
0.6617647058823524
 40
0.6617647058823524
 40
0.6617647058823524
 40
0.6617647058823524
 40
0.6764705882352935
 40
0.6764705882352935
 40
0.6764705882352935
 40
0.6764705882352935
 40
0.6911764705882346
 40
0.6911764705882346
 40
0.6911764705882346
 40
0.6911764705882346
 40
0.7058823529411757
 40
0.7058823529411757
 40
0.7058823529411757
 40
0.7058823529411757
 40
0.7205882352941169
 40
0.7205882352941169
 40
0.7205882352941169
 40
0.7205882352941169
 40
0.735294117647058
 40
0.735294117647058
 40
0.735294117647058
 40
0.735294117647058
 40
0.7499999999999991
 40
0.7499999999999991
 40
0.7499999999999991
 40
0.7499999999999991
 40
0.7647058823529402
 40
0.7647058823529402
 40
0.7647058823529402
 40
0.7647058823529402
 40
0.7794117647058814
 40
0.7794117647058814
 40
0.7794117647058814
 40
0.7794117647058814
 40
0.7941176470588225
 40
0.7941176470588225
 40
0.7941176470588225
 40
0.7941176470588225
 40
0.8088235294117636
 40
0.8088235294117636
 40
0.8088235294117636
 40
0.8088235294117636
 40
0.8235294117647047
 40
0.8235294117647047
 40
0.8235294117647047
 40
0.8235294117647047
 40
0.8382352941176459
 40
0.8382352941176459
 40
0.8382352941176459
 40
0.8382352941176459
 40
0.852941176470587
 40
0.852941176470587
 40
0.852941176470587
 40
0.852941176470587
 40
0.8676470588235281
 40
0.8676470588235281
 40
0.8676470588235281
 40
0.8676470588235281
 40
0.8823529411764692
 40
0.8823529411764692
 40
0.8823529411764692
 40
0.8823529411764692
 40
0.8970588235294104
 40
0.8970588235294104
 40
0.8970588235294104
 40
0.8970588235294104
 40
0.9117647058823515
 40
0.9117647058823515
 40
0.9117647058823515
 40
0.9117647058823515
 40
0.9264705882352926
 40
0.9264705882352926
 40
0.9264705882352926
 40
0.9264705882352926
 40
0.9411764705882337
 40
0.9411764705882337
 40
0.9411764705882337
 40
0.9411764705882337
 40
0.9558823529411749
 40
0.9558823529411749
 40
0.9558823529411749
 40
0.9558823529411749
 40
0.970588235294116
 40
0.970588235294116
 40
0.970588235294116
 40
0.970588235294116
 40
0.9852941176470571
 40
0.9852941176470571
 40
0.9852941176470571
 40
0.9852941176470571
 40
1.0
 40
1.0
 40
1.0
 40
1.0
 10
-0.7455236220472441
 20
0.1752834645669291
 30
0.0
 10
-0.7455236220472441
 20
0.1752834645669291
 30
0.0
 10
-0.1061692913385827
 20
0.5616377952755906
 30
0.0
 10
-0.1061692913385827
 20
0.5616377952755906
 30
0.0
 10
-0.1061692913385827
 20
0.5616377952755906
 30
0.0
 10
-0.1061692913385827
 20
0.5616377952755906
 30
0.0
 10
-0.1070748031496063
 20
0.5997283464566929
 30
0.0
 10
-0.1070748031496063
 20
0.5997283464566929
 30
0.0
 10
-0.1070748031496063
 20
0.5997283464566929
 30
0.0
 10
-0.1070748031496063
 20
0.5997283464566929
 30
0.0
 10
-0.1097834645669291
 20
0.6373818897637795
 30
0.0
 10
-0.1097834645669291
 20
0.6373818897637795
 30
0.0
 10
-0.1097834645669291
 20
0.6373818897637795
 30
0.0
 10
-0.1097834645669291
 20
0.6373818897637795
 30
0.0
 10
-0.114248031496063
 20
0.6745433070866143
 30
0.0
 10
-0.114248031496063
 20
0.6745433070866143
 30
0.0
 10
-0.114248031496063
 20
0.6745433070866143
 30
0.0
 10
-0.114248031496063
 20
0.6745433070866143
 30
0.0
 10
-0.1204488188976378
 20
0.7111614173228347
 30
0.0
 10
-0.1204488188976378
 20
0.7111614173228347
 30
0.0
 10
-0.1204488188976378
 20
0.7111614173228347
 30
0.0
 10
-0.1204488188976378
 20
0.7111614173228347
 30
0.0
 10
-0.1283307086614173
 20
0.7471771653543308
 30
0.0
 10
-0.1283307086614173
 20
0.7471771653543308
 30
0.0
 10
-0.1283307086614173
 20
0.7471771653543308
 30
0.0
 10
-0.1283307086614173
 20
0.7471771653543308
 30
0.0
 10
-0.1378818897637795
 20
0.7825590551181103
 30
0.0
 10
-0.1378818897637795
 20
0.7825590551181103
 30
0.0
 10
-0.1378818897637795
 20
0.7825590551181103
 30
0.0
 10
-0.1378818897637795
 20
0.7825590551181103
 30
0.0
 10
-0.1490551181102362
 20
0.817240157480315
 30
0.0
 10
-0.1490551181102362
 20
0.817240157480315
 30
0.0
 10
-0.1490551181102362
 20
0.817240157480315
 30
0.0
 10
-0.1490551181102362
 20
0.817240157480315
 30
0.0
 10
-0.1618267716535433
 20
0.8511811023622048
 30
0.0
 10
-0.1618267716535433
 20
0.8511811023622048
 30
0.0
 10
-0.1618267716535433
 20
0.8511811023622048
 30
0.0
 10
-0.1618267716535433
 20
0.8511811023622048
 30
0.0
 10
-0.1761456692913386
 20
0.8843228346456693
 30
0.0
 10
-0.1761456692913386
 20
0.8843228346456693
 30
0.0
 10
-0.1761456692913386
 20
0.8843228346456693
 30
0.0
 10
-0.1761456692913386
 20
0.8843228346456693
 30
0.0
 10
-0.191992125984252
 20
0.9166181102362205
 30
0.0
 10
-0.191992125984252
 20
0.9166181102362205
 30
0.0
 10
-0.191992125984252
 20
0.9166181102362205
 30
0.0
 10
-0.191992125984252
 20
0.9166181102362205
 30
0.0
 10
-0.2093228346456693
 20
0.9480157480314961
 30
0.0
 10
-0.2093228346456693
 20
0.9480157480314961
 30
0.0
 10
-0.2093228346456693
 20
0.9480157480314961
 30
0.0
 10
-0.2093228346456693
 20
0.9480157480314961
 30
0.0
 10
-0.2281102362204724
 20
0.9784803149606299
 30
0.0
 10
-0.2281102362204724
 20
0.9784803149606299
 30
0.0
 10
-0.2281102362204724
 20
0.9784803149606299
 30
0.0
 10
-0.2281102362204724
 20
0.9784803149606299
 30
0.0
 10
-0.2483110236220473
 20
1.0079370078740157
 30
0.0
 10
-0.2483110236220473
 20
1.0079370078740157
 30
0.0
 10
-0.2483110236220473
 20
1.0079370078740157
 30
0.0
 10
-0.2483110236220473
 20
1.0079370078740157
 30
0.0
 10
-0.2699015748031496
 20
1.0363543307086616
 30
0.0
 10
-0.2699015748031496
 20
1.0363543307086616
 30
0.0
 10
-0.2699015748031496
 20
1.0363543307086616
 30
0.0
 10
-0.2699015748031496
 20
1.0363543307086616
 30
0.0
 10
-0.2928425196850394
 20
1.0636692913385828
 30
0.0
 10
-0.2928425196850394
 20
1.0636692913385828
 30
0.0
 10
-0.2928425196850394
 20
1.0636692913385828
 30
0.0
 10
-0.2928425196850394
 20
1.0636692913385828
 30
0.0
 10
-0.3171023622047244
 20
1.0898464566929134
 30
0.0
 10
-0.3171023622047244
 20
1.0898464566929134
 30
0.0
 10
-0.3171023622047244
 20
1.0898464566929134
 30
0.0
 10
-0.3171023622047244
 20
1.0898464566929134
 30
0.0
 10
-0.3426338582677165
 20
1.1148149606299214
 30
0.0
 10
-0.3426338582677165
 20
1.1148149606299214
 30
0.0
 10
-0.3426338582677165
 20
1.1148149606299214
 30
0.0
 10
-0.3426338582677165
 20
1.1148149606299214
 30
0.0
 10
-0.3694173228346457
 20
1.1385433070866142
 30
0.0
 10
-0.3694173228346457
 20
1.1385433070866142
 30
0.0
 10
-0.3694173228346457
 20
1.1385433070866142
 30
0.0
 10
-0.3694173228346457
 20
1.1385433070866142
 30
0.0
 10
-0.3974133858267717
 20
1.1609685039370079
 30
0.0
 10
-0.3974133858267717
 20
1.1609685039370079
 30
0.0
 10
-0.3974133858267717
 20
1.1609685039370079
 30
0.0
 10
-0.3974133858267717
 20
1.1609685039370079
 30
0.0
 10
-0.4265944881889764
 20
1.1820551181102363
 30
0.0
 10
-0.4265944881889764
 20
1.1820551181102363
 30
0.0
 10
-0.4265944881889764
 20
1.1820551181102363
 30
0.0
 10
-0.4265944881889764
 20
1.1820551181102363
 30
0.0
 10
-0.4569094488188977
 20
1.2017362204724409
 30
0.0
 10
-0.4569094488188977
 20
1.2017362204724409
 30
0.0
 10
-0.4569094488188977
 20
1.2017362204724409
 30
0.0
 10
-0.4569094488188977
 20
1.2017362204724409
 30
0.0
 10
-0.4883425196850394
 20
1.219972440944882
 30
0.0
 10
-0.4883425196850394
 20
1.219972440944882
 30
0.0
 10
-0.4883425196850394
 20
1.219972440944882
 30
0.0
 10
-0.4883425196850394
 20
1.219972440944882
 30
0.0
 10
-0.5208503937007875
 20
1.2367086614173228
 30
0.0
 10
-0.5208503937007875
 20
1.2367086614173228
 30
0.0
 10
-0.5208503937007875
 20
1.2367086614173228
 30
0.0
 10
-0.5208503937007875
 20
1.2367086614173228
 30
0.0
 10
-0.5544015748031497
 20
1.2519015748031497
 30
0.0
 10
-0.5544015748031497
 20
1.2519015748031497
 30
0.0
 10
-0.5544015748031497
 20
1.2519015748031497
 30
0.0
 10
-0.5544015748031497
 20
1.2519015748031497
 30
0.0
 10
-0.5889527559055119
 20
1.265488188976378
 30
0.0
 10
-0.5889527559055119
 20
1.265488188976378
 30
0.0
 10
-0.5889527559055119
 20
1.265488188976378
 30
0.0
 10
-0.5889527559055119
 20
1.265488188976378
 30
0.0
 10
-0.62448031496063
 20
1.2774291338582677
 30
0.0
 10
-0.62448031496063
 20
1.2774291338582677
 30
0.0
 10
-0.62448031496063
 20
1.2774291338582677
 30
0.0
 10
-0.62448031496063
 20
1.2774291338582677
 30
0.0
 10
-0.6609448818897639
 20
1.2876692913385828
 30
0.0
 10
-0.6609448818897639
 20
1.2876692913385828
 30
0.0
 10
-0.6609448818897639
 20
1.2876692913385828
 30
0.0
 10
-0.6609448818897639
 20
1.2876692913385828
 30
0.0
 10
-0.6983228346456694
 20
1.2961653543307088
 30
0.0
 10
-0.6983228346456694
 20
1.2961653543307088
 30
0.0
 10
-0.6983228346456694
 20
1.2961653543307088
 30
0.0
 10
-0.6983228346456694
 20
1.2961653543307088
 30
0.0
 10
-0.7365590551181103
 20
1.3028543307086615
 30
0.0
 10
-0.7365590551181103
 20
1.3028543307086615
 30
0.0
 10
-0.7365590551181103
 20
1.3028543307086615
 30
0.0
 10
-0.7365590551181103
 20
1.3028543307086615
 30
0.0
 10
-0.7756377952755906
 20
1.3077007874015749
 30
0.0
 10
-0.7756377952755906
 20
1.3077007874015749
 30
0.0
 10
-0.7756377952755906
 20
1.3077007874015749
 30
0.0
 10
-0.7756377952755906
 20
1.3077007874015749
 30
0.0
 10
-0.8155157480314961
 20
1.3106417322834647
 30
0.0
 10
-0.8155157480314961
 20
1.3106417322834647
 30
0.0
 10
-0.8155157480314961
 20
1.3106417322834647
 30
0.0
 10
-0.8155157480314961
 20
1.3106417322834647
 30
0.0
 10
-0.8561653543307087
 20
1.3116377952755907
 30
0.0
 10
-0.8561653543307087
 20
1.3116377952755907
 30
0.0
 10
-0.8561653543307087
 20
1.3116377952755907
 30
0.0
 10
-0.8561653543307087
 20
1.3116377952755907
 30
0.0
 10
-0.8561653543307087
 20
1.5616377952755907
 30
0.0
 10
-0.8561653543307087
 20
1.5616377952755907
 30
0.0
 10
-0.8561653543307087
 20
1.5616377952755907
 30
0.0
 10
-0.8561653543307087
 20
1.5616377952755907
 30
0.0
 10
-1.4955196850393702
 20
1.1752834645669292
 30
0.0
 10
-1.4955196850393702
 20
1.1752834645669292
 30
0.0
 10
-1.4955196850393702
 20
1.1752834645669292
 30
0.0
 10
-1.4955196850393702
 20
1.1752834645669292
 30
0.0
 10
-1.4955196850393702
 20
0.9252834645669291
 30
0.0
 10
-1.4955196850393702
 20
0.9252834645669291
 30
0.0
 10
-1.4955196850393702
 20
0.9252834645669291
 30
0.0
 10
-1.4955196850393702
 20
0.9252834645669291
 30
0.0
 10
-1.4548700787401576
 20
0.9242874015748032
 30
0.0
 10
-1.4548700787401576
 20
0.9242874015748032
 30
0.0
 10
-1.4548700787401576
 20
0.9242874015748032
 30
0.0
 10
-1.4548700787401576
 20
0.9242874015748032
 30
0.0
 10
-1.4149921259842519
 20
0.9213464566929134
 30
0.0
 10
-1.4149921259842519
 20
0.9213464566929134
 30
0.0
 10
-1.4149921259842519
 20
0.9213464566929134
 30
0.0
 10
-1.4149921259842519
 20
0.9213464566929134
 30
0.0
 10
-1.3759133858267718
 20
0.9165
 30
0.0
 10
-1.3759133858267718
 20
0.9165
 30
0.0
 10
-1.3759133858267718
 20
0.9165
 30
0.0
 10
-1.3759133858267718
 20
0.9165
 30
0.0
 10
-1.3376771653543307
 20
0.9098110236220472
 30
0.0
 10
-1.3376771653543307
 20
0.9098110236220472
 30
0.0
 10
-1.3376771653543307
 20
0.9098110236220472
 30
0.0
 10
-1.3376771653543307
 20
0.9098110236220472
 30
0.0
 10
-1.3002992125984252
 20
0.9013149606299213
 30
0.0
 10
-1.3002992125984252
 20
0.9013149606299213
 30
0.0
 10
-1.3002992125984252
 20
0.9013149606299213
 30
0.0
 10
-1.3002992125984252
 20
0.9013149606299213
 30
0.0
 10
-1.2638346456692915
 20
0.8910748031496063
 30
0.0
 10
-1.2638346456692915
 20
0.8910748031496063
 30
0.0
 10
-1.2638346456692915
 20
0.8910748031496063
 30
0.0
 10
-1.2638346456692915
 20
0.8910748031496063
 30
0.0
 10
-1.2283070866141732
 20
0.8791338582677166
 30
0.0
 10
-1.2283070866141732
 20
0.8791338582677166
 30
0.0
 10
-1.2283070866141732
 20
0.8791338582677166
 30
0.0
 10
-1.2283070866141732
 20
0.8791338582677166
 30
0.0
 10
-1.193755905511811
 20
0.8655472440944882
 30
0.0
 10
-1.193755905511811
 20
0.8655472440944882
 30
0.0
 10
-1.193755905511811
 20
0.8655472440944882
 30
0.0
 10
-1.193755905511811
 20
0.8655472440944882
 30
0.0
 10
-1.1602047244094489
 20
0.8503543307086614
 30
0.0
 10
-1.1602047244094489
 20
0.8503543307086614
 30
0.0
 10
-1.1602047244094489
 20
0.8503543307086614
 30
0.0
 10
-1.1602047244094489
 20
0.8503543307086614
 30
0.0
 10
-1.1276968503937008
 20
0.8336181102362205
 30
0.0
 10
-1.1276968503937008
 20
0.8336181102362205
 30
0.0
 10
-1.1276968503937008
 20
0.8336181102362205
 30
0.0
 10
-1.1276968503937008
 20
0.8336181102362205
 30
0.0
 10
-1.0962637795275592
 20
0.8153818897637796
 30
0.0
 10
-1.0962637795275592
 20
0.8153818897637796
 30
0.0
 10
-1.0962637795275592
 20
0.8153818897637796
 30
0.0
 10
-1.0962637795275592
 20
0.8153818897637796
 30
0.0
 10
-1.0659488188976378
 20
0.7957007874015748
 30
0.0
 10
-1.0659488188976378
 20
0.7957007874015748
 30
0.0
 10
-1.0659488188976378
 20
0.7957007874015748
 30
0.0
 10
-1.0659488188976378
 20
0.7957007874015748
 30
0.0
 10
-1.0367677165354332
 20
0.7746141732283465
 30
0.0
 10
-1.0367677165354332
 20
0.7746141732283465
 30
0.0
 10
-1.0367677165354332
 20
0.7746141732283465
 30
0.0
 10
-1.0367677165354332
 20
0.7746141732283465
 30
0.0
 10
-1.0087716535433071
 20
0.7521889763779528
 30
0.0
 10
-1.0087716535433071
 20
0.7521889763779528
 30
0.0
 10
-1.0087716535433071
 20
0.7521889763779528
 30
0.0
 10
-1.0087716535433071
 20
0.7521889763779528
 30
0.0
 10
-0.981988188976378
 20
0.7284606299212598
 30
0.0
 10
-0.981988188976378
 20
0.7284606299212598
 30
0.0
 10
-0.981988188976378
 20
0.7284606299212598
 30
0.0
 10
-0.981988188976378
 20
0.7284606299212598
 30
0.0
 10
-0.9564566929133859
 20
0.703492125984252
 30
0.0
 10
-0.9564566929133859
 20
0.703492125984252
 30
0.0
 10
-0.9564566929133859
 20
0.703492125984252
 30
0.0
 10
-0.9564566929133859
 20
0.703492125984252
 30
0.0
 10
-0.9321968503937008
 20
0.6773149606299213
 30
0.0
 10
-0.9321968503937008
 20
0.6773149606299213
 30
0.0
 10
-0.9321968503937008
 20
0.6773149606299213
 30
0.0
 10
-0.9321968503937008
 20
0.6773149606299213
 30
0.0
 10
-0.909255905511811
 20
0.65
 30
0.0
 10
-0.909255905511811
 20
0.65
 30
0.0
 10
-0.909255905511811
 20
0.65
 30
0.0
 10
-0.909255905511811
 20
0.65
 30
0.0
 10
-0.8876653543307087
 20
0.6215826771653543
 30
0.0
 10
-0.8876653543307087
 20
0.6215826771653543
 30
0.0
 10
-0.8876653543307087
 20
0.6215826771653543
 30
0.0
 10
-0.8876653543307087
 20
0.6215826771653543
 30
0.0
 10
-0.8674645669291339
 20
0.5921259842519685
 30
0.0
 10
-0.8674645669291339
 20
0.5921259842519685
 30
0.0
 10
-0.8674645669291339
 20
0.5921259842519685
 30
0.0
 10
-0.8674645669291339
 20
0.5921259842519685
 30
0.0
 10
-0.8486771653543307
 20
0.5616614173228347
 30
0.0
 10
-0.8486771653543307
 20
0.5616614173228347
 30
0.0
 10
-0.8486771653543307
 20
0.5616614173228347
 30
0.0
 10
-0.8486771653543307
 20
0.5616614173228347
 30
0.0
 10
-0.8313464566929134
 20
0.5302637795275591
 30
0.0
 10
-0.8313464566929134
 20
0.5302637795275591
 30
0.0
 10
-0.8313464566929134
 20
0.5302637795275591
 30
0.0
 10
-0.8313464566929134
 20
0.5302637795275591
 30
0.0
 10
-0.8155
 20
0.4979685039370079
 30
0.0
 10
-0.8155
 20
0.4979685039370079
 30
0.0
 10
-0.8155
 20
0.4979685039370079
 30
0.0
 10
-0.8155
 20
0.4979685039370079
 30
0.0
 10
-0.8011811023622047
 20
0.4648267716535433
 30
0.0
 10
-0.8011811023622047
 20
0.4648267716535433
 30
0.0
 10
-0.8011811023622047
 20
0.4648267716535433
 30
0.0
 10
-0.8011811023622047
 20
0.4648267716535433
 30
0.0
 10
-0.7884094488188976
 20
0.4308858267716536
 30
0.0
 10
-0.7884094488188976
 20
0.4308858267716536
 30
0.0
 10
-0.7884094488188976
 20
0.4308858267716536
 30
0.0
 10
-0.7884094488188976
 20
0.4308858267716536
 30
0.0
 10
-0.777236220472441
 20
0.3962047244094488
 30
0.0
 10
-0.777236220472441
 20
0.3962047244094488
 30
0.0
 10
-0.777236220472441
 20
0.3962047244094488
 30
0.0
 10
-0.777236220472441
 20
0.3962047244094488
 30
0.0
 10
-0.7676850393700788
 20
0.3608228346456693
 30
0.0
 10
-0.7676850393700788
 20
0.3608228346456693
 30
0.0
 10
-0.7676850393700788
 20
0.3608228346456693
 30
0.0
 10
-0.7676850393700788
 20
0.3608228346456693
 30
0.0
 10
-0.7598031496062992
 20
0.3248070866141732
 30
0.0
 10
-0.7598031496062992
 20
0.3248070866141732
 30
0.0
 10
-0.7598031496062992
 20
0.3248070866141732
 30
0.0
 10
-0.7598031496062992
 20
0.3248070866141732
 30
0.0
 10
-0.7536023622047244
 20
0.2881889763779528
 30
0.0
 10
-0.7536023622047244
 20
0.2881889763779528
 30
0.0
 10
-0.7536023622047244
 20
0.2881889763779528
 30
0.0
 10
-0.7536023622047244
 20
0.2881889763779528
 30
0.0
 10
-0.7491377952755906
 20
0.2510275590551181
 30
0.0
 10
-0.7491377952755906
 20
0.2510275590551181
 30
0.0
 10
-0.7491377952755906
 20
0.2510275590551181
 30
0.0
 10
-0.7491377952755906
 20
0.2510275590551181
 30
0.0
 10
-0.7464291338582677
 20
0.2133740157480315
 30
0.0
 10
-0.7464291338582677
 20
0.2133740157480315
 30
0.0
 10
-0.7464291338582677
 20
0.2133740157480315
 30
0.0
 10
-0.7464291338582677
 20
0.2133740157480315
 30
0.0
 10
-0.7455236220472441
 20
0.1752834645669291
 30
0.0
 10
-0.7455236220472441
 20
0.1752834645669291
 30
0.0
  0
SPLINE
  5
4C
100
AcDbEntity
  8
P1-Layer 1
 62
   253
100
AcDbSpline
210
0.0
220
0.0
230
1.0
 70
     1
 71
     3
 72
    20
 73
    16
 74
     0
 42
0.0000000001
 43
0.0000000001
 40
0.0
 40
0.0
 40
0.0
 40
0.0
 40
0.25
 40
0.25
 40
0.25
 40
0.25
 40
0.5
 40
0.5
 40
0.5
 40
0.5
 40
0.75
 40
0.75
 40
0.75
 40
0.75
 40
1.0
 40
1.0
 40
1.0
 40
1.0
 10
-1.4955196850393702
 20
1.1752834645669292
 30
0.0
 10
-1.4955196850393702
 20
1.1752834645669292
 30
0.0
 10
-0.8561653543307087
 20
1.5616377952755907
 30
0.0
 10
-0.8561653543307087
 20
1.5616377952755907
 30
0.0
 10
-0.8561653543307087
 20
1.5616377952755907
 30
0.0
 10
-0.8561653543307087
 20
1.5616377952755907
 30
0.0
 10
-1.2311653543307086
 20
1.5616377952755907
 30
0.0
 10
-1.2311653543307086
 20
1.5616377952755907
 30
0.0
 10
-1.2311653543307086
 20
1.5616377952755907
 30
0.0
 10
-1.2311653543307086
 20
1.5616377952755907
 30
0.0
 10
-1.8705196850393702
 20
1.1752834645669292
 30
0.0
 10
-1.8705196850393702
 20
1.1752834645669292
 30
0.0
 10
-1.8705196850393702
 20
1.1752834645669292
 30
0.0
 10
-1.8705196850393702
 20
1.1752834645669292
 30
0.0
 10
-1.4955196850393702
 20
1.1752834645669292
 30
0.0
 10
-1.4955196850393702
 20
1.1752834645669292
 30
0.0
  0
SPLINE
  5
4D
100
AcDbEntity
  8
P1-Layer 1
370
     5
100
AcDbSpline
210
0.0
220
0.0
230
1.0
 70
     1
 71
     3
 72
    20
 73
    16
 74
     0
 42
0.0000000001
 43
0.0000000001
 40
0.0
 40
0.0
 40
0.0
 40
0.0
 40
0.25
 40
0.25
 40
0.25
 40
0.25
 40
0.5
 40
0.5
 40
0.5
 40
0.5
 40
0.75
 40
0.75
 40
0.75
 40
0.75
 40
1.0
 40
1.0
 40
1.0
 40
1.0
 10
-1.4955196850393702
 20
1.1752834645669292
 30
0.0
 10
-1.4955196850393702
 20
1.1752834645669292
 30
0.0
 10
-0.8561653543307087
 20
1.5616377952755907
 30
0.0
 10
-0.8561653543307087
 20
1.5616377952755907
 30
0.0
 10
-0.8561653543307087
 20
1.5616377952755907
 30
0.0
 10
-0.8561653543307087
 20
1.5616377952755907
 30
0.0
 10
-1.2311653543307086
 20
1.5616377952755907
 30
0.0
 10
-1.2311653543307086
 20
1.5616377952755907
 30
0.0
 10
-1.2311653543307086
 20
1.5616377952755907
 30
0.0
 10
-1.2311653543307086
 20
1.5616377952755907
 30
0.0
 10
-1.8705196850393702
 20
1.1752834645669292
 30
0.0
 10
-1.8705196850393702
 20
1.1752834645669292
 30
0.0
 10
-1.8705196850393702
 20
1.1752834645669292
 30
0.0
 10
-1.8705196850393702
 20
1.1752834645669292
 30
0.0
 10
-1.4955196850393702
 20
1.1752834645669292
 30
0.0
 10
-1.4955196850393702
 20
1.1752834645669292
 30
0.0
  0
SPLINE
  5
4E
100
AcDbEntity
  8
P1-Layer 1
 62
     9
100
AcDbSpline
210
0.0
220
0.0
230
1.0
 70
     1
 71
     3
 72
    20
 73
    16
 74
     0
 42
0.0000000001
 43
0.0000000001
 40
0.0
 40
0.0
 40
0.0
 40
0.0
 40
0.25
 40
0.25
 40
0.25
 40
0.25
 40
0.5
 40
0.5
 40
0.5
 40
0.5
 40
0.75
 40
0.75
 40
0.75
 40
0.75
 40
1.0
 40
1.0
 40
1.0
 40
1.0
 10
-0.7455236220472441
 20
0.1752834645669291
 30
0.0
 10
-0.7455236220472441
 20
0.1752834645669291
 30
0.0
 10
-0.1061692913385827
 20
0.5616377952755906
 30
0.0
 10
-0.1061692913385827
 20
0.5616377952755906
 30
0.0
 10
-0.1061692913385827
 20
0.5616377952755906
 30
0.0
 10
-0.1061692913385827
 20
0.5616377952755906
 30
0.0
 10
-0.1070748031496063
 20
0.5997283464566929
 30
0.0
 10
-0.1070748031496063
 20
0.5997283464566929
 30
0.0
 10
-0.1070748031496063
 20
0.5997283464566929
 30
0.0
 10
-0.1070748031496063
 20
0.5997283464566929
 30
0.0
 10
-0.7464291338582677
 20
0.2133740157480315
 30
0.0
 10
-0.7464291338582677
 20
0.2133740157480315
 30
0.0
 10
-0.7464291338582677
 20
0.2133740157480315
 30
0.0
 10
-0.7464291338582677
 20
0.2133740157480315
 30
0.0
 10
-0.7455236220472441
 20
0.1752834645669291
 30
0.0
 10
-0.7455236220472441
 20
0.1752834645669291
 30
0.0
  0
SPLINE
  5
4F
100
AcDbEntity
  8
P1-Layer 1
 62
     9
100
AcDbSpline
210
0.0
220
0.0
230
1.0
 70
     1
 71
     3
 72
    20
 73
    16
 74
     0
 42
0.0000000001
 43
0.0000000001
 40
0.0
 40
0.0
 40
0.0
 40
0.0
 40
0.25
 40
0.25
 40
0.25
 40
0.25
 40
0.5
 40
0.5
 40
0.5
 40
0.5
 40
0.75
 40
0.75
 40
0.75
 40
0.75
 40
1.0
 40
1.0
 40
1.0
 40
1.0
 10
-0.7464291338582677
 20
0.2133740157480315
 30
0.0
 10
-0.7464291338582677
 20
0.2133740157480315
 30
0.0
 10
-0.1070748031496063
 20
0.5997283464566929
 30
0.0
 10
-0.1070748031496063
 20
0.5997283464566929
 30
0.0
 10
-0.1070748031496063
 20
0.5997283464566929
 30
0.0
 10
-0.1070748031496063
 20
0.5997283464566929
 30
0.0
 10
-0.1097834645669291
 20
0.6373818897637795
 30
0.0
 10
-0.1097834645669291
 20
0.6373818897637795
 30
0.0
 10
-0.1097834645669291
 20
0.6373818897637795
 30
0.0
 10
-0.1097834645669291
 20
0.6373818897637795
 30
0.0
 10
-0.7491377952755906
 20
0.2510275590551181
 30
0.0
 10
-0.7491377952755906
 20
0.2510275590551181
 30
0.0
 10
-0.7491377952755906
 20
0.2510275590551181
 30
0.0
 10
-0.7491377952755906
 20
0.2510275590551181
 30
0.0
 10
-0.7464291338582677
 20
0.2133740157480315
 30
0.0
 10
-0.7464291338582677
 20
0.2133740157480315
 30
0.0
  0
SPLINE
  5
50
100
AcDbEntity
  8
P1-Layer 1
 62
     9
100
AcDbSpline
210
0.0
220
0.0
230
1.0
 70
     1
 71
     3
 72
    20
 73
    16
 74
     0
 42
0.0000000001
 43
0.0000000001
 40
0.0
 40
0.0
 40
0.0
 40
0.0
 40
0.25
 40
0.25
 40
0.25
 40
0.25
 40
0.5
 40
0.5
 40
0.5
 40
0.5
 40
0.75
 40
0.75
 40
0.75
 40
0.75
 40
1.0
 40
1.0
 40
1.0
 40
1.0
 10
-0.7491377952755906
 20
0.2510275590551181
 30
0.0
 10
-0.7491377952755906
 20
0.2510275590551181
 30
0.0
 10
-0.1097834645669291
 20
0.6373818897637795
 30
0.0
 10
-0.1097834645669291
 20
0.6373818897637795
 30
0.0
 10
-0.1097834645669291
 20
0.6373818897637795
 30
0.0
 10
-0.1097834645669291
 20
0.6373818897637795
 30
0.0
 10
-0.114248031496063
 20
0.6745433070866143
 30
0.0
 10
-0.114248031496063
 20
0.6745433070866143
 30
0.0
 10
-0.114248031496063
 20
0.6745433070866143
 30
0.0
 10
-0.114248031496063
 20
0.6745433070866143
 30
0.0
 10
-0.7536023622047244
 20
0.2881889763779528
 30
0.0
 10
-0.7536023622047244
 20
0.2881889763779528
 30
0.0
 10
-0.7536023622047244
 20
0.2881889763779528
 30
0.0
 10
-0.7536023622047244
 20
0.2881889763779528
 30
0.0
 10
-0.7491377952755906
 20
0.2510275590551181
 30
0.0
 10
-0.7491377952755906
 20
0.2510275590551181
 30
0.0
  0
SPLINE
  5
51
100
AcDbEntity
  8
P1-Layer 1
 62
     9
100
AcDbSpline
210
0.0
220
0.0
230
1.0
 70
     1
 71
     3
 72
    20
 73
    16
 74
     0
 42
0.0000000001
 43
0.0000000001
 40
0.0
 40
0.0
 40
0.0
 40
0.0
 40
0.25
 40
0.25
 40
0.25
 40
0.25
 40
0.5
 40
0.5
 40
0.5
 40
0.5
 40
0.75
 40
0.75
 40
0.75
 40
0.75
 40
1.0
 40
1.0
 40
1.0
 40
1.0
 10
-0.7536023622047244
 20
0.2881889763779528
 30
0.0
 10
-0.7536023622047244
 20
0.2881889763779528
 30
0.0
 10
-0.114248031496063
 20
0.6745433070866143
 30
0.0
 10
-0.114248031496063
 20
0.6745433070866143
 30
0.0
 10
-0.114248031496063
 20
0.6745433070866143
 30
0.0
 10
-0.114248031496063
 20
0.6745433070866143
 30
0.0
 10
-0.1204488188976378
 20
0.7111614173228347
 30
0.0
 10
-0.1204488188976378
 20
0.7111614173228347
 30
0.0
 10
-0.1204488188976378
 20
0.7111614173228347
 30
0.0
 10
-0.1204488188976378
 20
0.7111614173228347
 30
0.0
 10
-0.7598031496062992
 20
0.3248070866141732
 30
0.0
 10
-0.7598031496062992
 20
0.3248070866141732
 30
0.0
 10
-0.7598031496062992
 20
0.3248070866141732
 30
0.0
 10
-0.7598031496062992
 20
0.3248070866141732
 30
0.0
 10
-0.7536023622047244
 20
0.2881889763779528
 30
0.0
 10
-0.7536023622047244
 20
0.2881889763779528
 30
0.0
  0
SPLINE
  5
52
100
AcDbEntity
  8
P1-Layer 1
 62
     9
100
AcDbSpline
210
0.0
220
0.0
230
1.0
 70
     1
 71
     3
 72
    20
 73
    16
 74
     0
 42
0.0000000001
 43
0.0000000001
 40
0.0
 40
0.0
 40
0.0
 40
0.0
 40
0.25
 40
0.25
 40
0.25
 40
0.25
 40
0.5
 40
0.5
 40
0.5
 40
0.5
 40
0.75
 40
0.75
 40
0.75
 40
0.75
 40
1.0
 40
1.0
 40
1.0
 40
1.0
 10
-0.7598031496062992
 20
0.3248070866141732
 30
0.0
 10
-0.7598031496062992
 20
0.3248070866141732
 30
0.0
 10
-0.1204488188976378
 20
0.7111614173228347
 30
0.0
 10
-0.1204488188976378
 20
0.7111614173228347
 30
0.0
 10
-0.1204488188976378
 20
0.7111614173228347
 30
0.0
 10
-0.1204488188976378
 20
0.7111614173228347
 30
0.0
 10
-0.1283307086614173
 20
0.7471771653543308
 30
0.0
 10
-0.1283307086614173
 20
0.7471771653543308
 30
0.0
 10
-0.1283307086614173
 20
0.7471771653543308
 30
0.0
 10
-0.1283307086614173
 20
0.7471771653543308
 30
0.0
 10
-0.7676850393700788
 20
0.3608228346456693
 30
0.0
 10
-0.7676850393700788
 20
0.3608228346456693
 30
0.0
 10
-0.7676850393700788
 20
0.3608228346456693
 30
0.0
 10
-0.7676850393700788
 20
0.3608228346456693
 30
0.0
 10
-0.7598031496062992
 20
0.3248070866141732
 30
0.0
 10
-0.7598031496062992
 20
0.3248070866141732
 30
0.0
  0
SPLINE
  5
53
100
AcDbEntity
  8
P1-Layer 1
 62
     9
100
AcDbSpline
210
0.0
220
0.0
230
1.0
 70
     1
 71
     3
 72
    20
 73
    16
 74
     0
 42
0.0000000001
 43
0.0000000001
 40
0.0
 40
0.0
 40
0.0
 40
0.0
 40
0.25
 40
0.25
 40
0.25
 40
0.25
 40
0.5
 40
0.5
 40
0.5
 40
0.5
 40
0.75
 40
0.75
 40
0.75
 40
0.75
 40
1.0
 40
1.0
 40
1.0
 40
1.0
 10
-0.7676850393700788
 20
0.3608228346456693
 30
0.0
 10
-0.7676850393700788
 20
0.3608228346456693
 30
0.0
 10
-0.1283307086614173
 20
0.7471771653543308
 30
0.0
 10
-0.1283307086614173
 20
0.7471771653543308
 30
0.0
 10
-0.1283307086614173
 20
0.7471771653543308
 30
0.0
 10
-0.1283307086614173
 20
0.7471771653543308
 30
0.0
 10
-0.1378818897637795
 20
0.7825590551181103
 30
0.0
 10
-0.1378818897637795
 20
0.7825590551181103
 30
0.0
 10
-0.1378818897637795
 20
0.7825590551181103
 30
0.0
 10
-0.1378818897637795
 20
0.7825590551181103
 30
0.0
 10
-0.777236220472441
 20
0.3962047244094488
 30
0.0
 10
-0.777236220472441
 20
0.3962047244094488
 30
0.0
 10
-0.777236220472441
 20
0.3962047244094488
 30
0.0
 10
-0.777236220472441
 20
0.3962047244094488
 30
0.0
 10
-0.7676850393700788
 20
0.3608228346456693
 30
0.0
 10
-0.7676850393700788
 20
0.3608228346456693
 30
0.0
  0
SPLINE
  5
54
100
AcDbEntity
  8
P1-Layer 1
 62
     9
100
AcDbSpline
210
0.0
220
0.0
230
1.0
 70
     1
 71
     3
 72
    20
 73
    16
 74
     0
 42
0.0000000001
 43
0.0000000001
 40
0.0
 40
0.0
 40
0.0
 40
0.0
 40
0.25
 40
0.25
 40
0.25
 40
0.25
 40
0.5
 40
0.5
 40
0.5
 40
0.5
 40
0.75
 40
0.75
 40
0.75
 40
0.75
 40
1.0
 40
1.0
 40
1.0
 40
1.0
 10
-0.777236220472441
 20
0.3962047244094488
 30
0.0
 10
-0.777236220472441
 20
0.3962047244094488
 30
0.0
 10
-0.1378818897637795
 20
0.7825590551181103
 30
0.0
 10
-0.1378818897637795
 20
0.7825590551181103
 30
0.0
 10
-0.1378818897637795
 20
0.7825590551181103
 30
0.0
 10
-0.1378818897637795
 20
0.7825590551181103
 30
0.0
 10
-0.1490551181102362
 20
0.817240157480315
 30
0.0
 10
-0.1490551181102362
 20
0.817240157480315
 30
0.0
 10
-0.1490551181102362
 20
0.817240157480315
 30
0.0
 10
-0.1490551181102362
 20
0.817240157480315
 30
0.0
 10
-0.7884094488188976
 20
0.4308858267716536
 30
0.0
 10
-0.7884094488188976
 20
0.4308858267716536
 30
0.0
 10
-0.7884094488188976
 20
0.4308858267716536
 30
0.0
 10
-0.7884094488188976
 20
0.4308858267716536
 30
0.0
 10
-0.777236220472441
 20
0.3962047244094488
 30
0.0
 10
-0.777236220472441
 20
0.3962047244094488
 30
0.0
  0
SPLINE
  5
55
100
AcDbEntity
  8
P1-Layer 1
 62
     9
100
AcDbSpline
210
0.0
220
0.0
230
1.0
 70
     1
 71
     3
 72
    20
 73
    16
 74
     0
 42
0.0000000001
 43
0.0000000001
 40
0.0
 40
0.0
 40
0.0
 40
0.0
 40
0.25
 40
0.25
 40
0.25
 40
0.25
 40
0.5
 40
0.5
 40
0.5
 40
0.5
 40
0.75
 40
0.75
 40
0.75
 40
0.75
 40
1.0
 40
1.0
 40
1.0
 40
1.0
 10
-0.7884094488188976
 20
0.4308858267716536
 30
0.0
 10
-0.7884094488188976
 20
0.4308858267716536
 30
0.0
 10
-0.1490551181102362
 20
0.817240157480315
 30
0.0
 10
-0.1490551181102362
 20
0.817240157480315
 30
0.0
 10
-0.1490551181102362
 20
0.817240157480315
 30
0.0
 10
-0.1490551181102362
 20
0.817240157480315
 30
0.0
 10
-0.1618267716535433
 20
0.8511811023622048
 30
0.0
 10
-0.1618267716535433
 20
0.8511811023622048
 30
0.0
 10
-0.1618267716535433
 20
0.8511811023622048
 30
0.0
 10
-0.1618267716535433
 20
0.8511811023622048
 30
0.0
 10
-0.8011811023622047
 20
0.4648267716535433
 30
0.0
 10
-0.8011811023622047
 20
0.4648267716535433
 30
0.0
 10
-0.8011811023622047
 20
0.4648267716535433
 30
0.0
 10
-0.8011811023622047
 20
0.4648267716535433
 30
0.0
 10
-0.7884094488188976
 20
0.4308858267716536
 30
0.0
 10
-0.7884094488188976
 20
0.4308858267716536
 30
0.0
  0
SPLINE
  5
56
100
AcDbEntity
  8
P1-Layer 1
 62
     9
100
AcDbSpline
210
0.0
220
0.0
230
1.0
 70
     1
 71
     3
 72
    20
 73
    16
 74
     0
 42
0.0000000001
 43
0.0000000001
 40
0.0
 40
0.0
 40
0.0
 40
0.0
 40
0.25
 40
0.25
 40
0.25
 40
0.25
 40
0.5
 40
0.5
 40
0.5
 40
0.5
 40
0.75
 40
0.75
 40
0.75
 40
0.75
 40
1.0
 40
1.0
 40
1.0
 40
1.0
 10
-0.8011811023622047
 20
0.4648267716535433
 30
0.0
 10
-0.8011811023622047
 20
0.4648267716535433
 30
0.0
 10
-0.1618267716535433
 20
0.8511811023622048
 30
0.0
 10
-0.1618267716535433
 20
0.8511811023622048
 30
0.0
 10
-0.1618267716535433
 20
0.8511811023622048
 30
0.0
 10
-0.1618267716535433
 20
0.8511811023622048
 30
0.0
 10
-0.1761456692913386
 20
0.8843228346456693
 30
0.0
 10
-0.1761456692913386
 20
0.8843228346456693
 30
0.0
 10
-0.1761456692913386
 20
0.8843228346456693
 30
0.0
 10
-0.1761456692913386
 20
0.8843228346456693
 30
0.0
 10
-0.8155
 20
0.4979685039370079
 30
0.0
 10
-0.8155
 20
0.4979685039370079
 30
0.0
 10
-0.8155
 20
0.4979685039370079
 30
0.0
 10
-0.8155
 20
0.4979685039370079
 30
0.0
 10
-0.8011811023622047
 20
0.4648267716535433
 30
0.0
 10
-0.8011811023622047
 20
0.4648267716535433
 30
0.0
  0
SPLINE
  5
57
100
AcDbEntity
  8
P1-Layer 1
 62
     9
100
AcDbSpline
210
0.0
220
0.0
230
1.0
 70
     1
 71
     3
 72
    20
 73
    16
 74
     0
 42
0.0000000001
 43
0.0000000001
 40
0.0
 40
0.0
 40
0.0
 40
0.0
 40
0.25
 40
0.25
 40
0.25
 40
0.25
 40
0.5
 40
0.5
 40
0.5
 40
0.5
 40
0.75
 40
0.75
 40
0.75
 40
0.75
 40
1.0
 40
1.0
 40
1.0
 40
1.0
 10
-0.8155
 20
0.4979685039370079
 30
0.0
 10
-0.8155
 20
0.4979685039370079
 30
0.0
 10
-0.1761456692913386
 20
0.8843228346456693
 30
0.0
 10
-0.1761456692913386
 20
0.8843228346456693
 30
0.0
 10
-0.1761456692913386
 20
0.8843228346456693
 30
0.0
 10
-0.1761456692913386
 20
0.8843228346456693
 30
0.0
 10
-0.191992125984252
 20
0.9166181102362205
 30
0.0
 10
-0.191992125984252
 20
0.9166181102362205
 30
0.0
 10
-0.191992125984252
 20
0.9166181102362205
 30
0.0
 10
-0.191992125984252
 20
0.9166181102362205
 30
0.0
 10
-0.8313464566929134
 20
0.5302637795275591
 30
0.0
 10
-0.8313464566929134
 20
0.5302637795275591
 30
0.0
 10
-0.8313464566929134
 20
0.5302637795275591
 30
0.0
 10
-0.8313464566929134
 20
0.5302637795275591
 30
0.0
 10
-0.8155
 20
0.4979685039370079
 30
0.0
 10
-0.8155
 20
0.4979685039370079
 30
0.0
  0
SPLINE
  5
58
100
AcDbEntity
  8
P1-Layer 1
 62
     9
100
AcDbSpline
210
0.0
220
0.0
230
1.0
 70
     1
 71
     3
 72
    20
 73
    16
 74
     0
 42
0.0000000001
 43
0.0000000001
 40
0.0
 40
0.0
 40
0.0
 40
0.0
 40
0.25
 40
0.25
 40
0.25
 40
0.25
 40
0.5
 40
0.5
 40
0.5
 40
0.5
 40
0.75
 40
0.75
 40
0.75
 40
0.75
 40
1.0
 40
1.0
 40
1.0
 40
1.0
 10
-0.8313464566929134
 20
0.5302637795275591
 30
0.0
 10
-0.8313464566929134
 20
0.5302637795275591
 30
0.0
 10
-0.191992125984252
 20
0.9166181102362205
 30
0.0
 10
-0.191992125984252
 20
0.9166181102362205
 30
0.0
 10
-0.191992125984252
 20
0.9166181102362205
 30
0.0
 10
-0.191992125984252
 20
0.9166181102362205
 30
0.0
 10
-0.2093228346456693
 20
0.9480157480314961
 30
0.0
 10
-0.2093228346456693
 20
0.9480157480314961
 30
0.0
 10
-0.2093228346456693
 20
0.9480157480314961
 30
0.0
 10
-0.2093228346456693
 20
0.9480157480314961
 30
0.0
 10
-0.8486771653543307
 20
0.5616614173228347
 30
0.0
 10
-0.8486771653543307
 20
0.5616614173228347
 30
0.0
 10
-0.8486771653543307
 20
0.5616614173228347
 30
0.0
 10
-0.8486771653543307
 20
0.5616614173228347
 30
0.0
 10
-0.8313464566929134
 20
0.5302637795275591
 30
0.0
 10
-0.8313464566929134
 20
0.5302637795275591
 30
0.0
  0
SPLINE
  5
59
100
AcDbEntity
  8
P1-Layer 1
 62
     9
100
AcDbSpline
210
0.0
220
0.0
230
1.0
 70
     1
 71
     3
 72
    20
 73
    16
 74
     0
 42
0.0000000001
 43
0.0000000001
 40
0.0
 40
0.0
 40
0.0
 40
0.0
 40
0.25
 40
0.25
 40
0.25
 40
0.25
 40
0.5
 40
0.5
 40
0.5
 40
0.5
 40
0.75
 40
0.75
 40
0.75
 40
0.75
 40
1.0
 40
1.0
 40
1.0
 40
1.0
 10
-0.8486771653543307
 20
0.5616614173228347
 30
0.0
 10
-0.8486771653543307
 20
0.5616614173228347
 30
0.0
 10
-0.2093228346456693
 20
0.9480157480314961
 30
0.0
 10
-0.2093228346456693
 20
0.9480157480314961
 30
0.0
 10
-0.2093228346456693
 20
0.9480157480314961
 30
0.0
 10
-0.2093228346456693
 20
0.9480157480314961
 30
0.0
 10
-0.2281102362204724
 20
0.9784803149606299
 30
0.0
 10
-0.2281102362204724
 20
0.9784803149606299
 30
0.0
 10
-0.2281102362204724
 20
0.9784803149606299
 30
0.0
 10
-0.2281102362204724
 20
0.9784803149606299
 30
0.0
 10
-0.8674645669291339
 20
0.5921259842519685
 30
0.0
 10
-0.8674645669291339
 20
0.5921259842519685
 30
0.0
 10
-0.8674645669291339
 20
0.5921259842519685
 30
0.0
 10
-0.8674645669291339
 20
0.5921259842519685
 30
0.0
 10
-0.8486771653543307
 20
0.5616614173228347
 30
0.0
 10
-0.8486771653543307
 20
0.5616614173228347
 30
0.0
  0
SPLINE
  5
5A
100
AcDbEntity
  8
P1-Layer 1
 62
     9
100
AcDbSpline
210
0.0
220
0.0
230
1.0
 70
     1
 71
     3
 72
    20
 73
    16
 74
     0
 42
0.0000000001
 43
0.0000000001
 40
0.0
 40
0.0
 40
0.0
 40
0.0
 40
0.25
 40
0.25
 40
0.25
 40
0.25
 40
0.5
 40
0.5
 40
0.5
 40
0.5
 40
0.75
 40
0.75
 40
0.75
 40
0.75
 40
1.0
 40
1.0
 40
1.0
 40
1.0
 10
-0.8674645669291339
 20
0.5921259842519685
 30
0.0
 10
-0.8674645669291339
 20
0.5921259842519685
 30
0.0
 10
-0.2281102362204724
 20
0.9784803149606299
 30
0.0
 10
-0.2281102362204724
 20
0.9784803149606299
 30
0.0
 10
-0.2281102362204724
 20
0.9784803149606299
 30
0.0
 10
-0.2281102362204724
 20
0.9784803149606299
 30
0.0
 10
-0.2483110236220473
 20
1.0079370078740157
 30
0.0
 10
-0.2483110236220473
 20
1.0079370078740157
 30
0.0
 10
-0.2483110236220473
 20
1.0079370078740157
 30
0.0
 10
-0.2483110236220473
 20
1.0079370078740157
 30
0.0
 10
-0.8876653543307087
 20
0.6215826771653543
 30
0.0
 10
-0.8876653543307087
 20
0.6215826771653543
 30
0.0
 10
-0.8876653543307087
 20
0.6215826771653543
 30
0.0
 10
-0.8876653543307087
 20
0.6215826771653543
 30
0.0
 10
-0.8674645669291339
 20
0.5921259842519685
 30
0.0
 10
-0.8674645669291339
 20
0.5921259842519685
 30
0.0
  0
SPLINE
  5
5B
100
AcDbEntity
  8
P1-Layer 1
 62
     9
100
AcDbSpline
210
0.0
220
0.0
230
1.0
 70
     1
 71
     3
 72
    20
 73
    16
 74
     0
 42
0.0000000001
 43
0.0000000001
 40
0.0
 40
0.0
 40
0.0
 40
0.0
 40
0.25
 40
0.25
 40
0.25
 40
0.25
 40
0.5
 40
0.5
 40
0.5
 40
0.5
 40
0.75
 40
0.75
 40
0.75
 40
0.75
 40
1.0
 40
1.0
 40
1.0
 40
1.0
 10
-0.8876653543307087
 20
0.6215826771653543
 30
0.0
 10
-0.8876653543307087
 20
0.6215826771653543
 30
0.0
 10
-0.2483110236220473
 20
1.0079370078740157
 30
0.0
 10
-0.2483110236220473
 20
1.0079370078740157
 30
0.0
 10
-0.2483110236220473
 20
1.0079370078740157
 30
0.0
 10
-0.2483110236220473
 20
1.0079370078740157
 30
0.0
 10
-0.2699015748031496
 20
1.0363543307086616
 30
0.0
 10
-0.2699015748031496
 20
1.0363543307086616
 30
0.0
 10
-0.2699015748031496
 20
1.0363543307086616
 30
0.0
 10
-0.2699015748031496
 20
1.0363543307086616
 30
0.0
 10
-0.909255905511811
 20
0.65
 30
0.0
 10
-0.909255905511811
 20
0.65
 30
0.0
 10
-0.909255905511811
 20
0.65
 30
0.0
 10
-0.909255905511811
 20
0.65
 30
0.0
 10
-0.8876653543307087
 20
0.6215826771653543
 30
0.0
 10
-0.8876653543307087
 20
0.6215826771653543
 30
0.0
  0
SPLINE
  5
5C
100
AcDbEntity
  8
P1-Layer 1
 62
     9
100
AcDbSpline
210
0.0
220
0.0
230
1.0
 70
     1
 71
     3
 72
    20
 73
    16
 74
     0
 42
0.0000000001
 43
0.0000000001
 40
0.0
 40
0.0
 40
0.0
 40
0.0
 40
0.25
 40
0.25
 40
0.25
 40
0.25
 40
0.5
 40
0.5
 40
0.5
 40
0.5
 40
0.75
 40
0.75
 40
0.75
 40
0.75
 40
1.0
 40
1.0
 40
1.0
 40
1.0
 10
-0.909255905511811
 20
0.65
 30
0.0
 10
-0.909255905511811
 20
0.65
 30
0.0
 10
-0.2699015748031496
 20
1.0363543307086616
 30
0.0
 10
-0.2699015748031496
 20
1.0363543307086616
 30
0.0
 10
-0.2699015748031496
 20
1.0363543307086616
 30
0.0
 10
-0.2699015748031496
 20
1.0363543307086616
 30
0.0
 10
-0.2928425196850394
 20
1.0636692913385828
 30
0.0
 10
-0.2928425196850394
 20
1.0636692913385828
 30
0.0
 10
-0.2928425196850394
 20
1.0636692913385828
 30
0.0
 10
-0.2928425196850394
 20
1.0636692913385828
 30
0.0
 10
-0.9321968503937008
 20
0.6773149606299213
 30
0.0
 10
-0.9321968503937008
 20
0.6773149606299213
 30
0.0
 10
-0.9321968503937008
 20
0.6773149606299213
 30
0.0
 10
-0.9321968503937008
 20
0.6773149606299213
 30
0.0
 10
-0.909255905511811
 20
0.65
 30
0.0
 10
-0.909255905511811
 20
0.65
 30
0.0
  0
SPLINE
  5
5D
100
AcDbEntity
  8
P1-Layer 1
 62
     9
100
AcDbSpline
210
0.0
220
0.0
230
1.0
 70
     1
 71
     3
 72
    20
 73
    16
 74
     0
 42
0.0000000001
 43
0.0000000001
 40
0.0
 40
0.0
 40
0.0
 40
0.0
 40
0.25
 40
0.25
 40
0.25
 40
0.25
 40
0.5
 40
0.5
 40
0.5
 40
0.5
 40
0.75
 40
0.75
 40
0.75
 40
0.75
 40
1.0
 40
1.0
 40
1.0
 40
1.0
 10
-0.9321968503937008
 20
0.6773149606299213
 30
0.0
 10
-0.9321968503937008
 20
0.6773149606299213
 30
0.0
 10
-0.2928425196850394
 20
1.0636692913385828
 30
0.0
 10
-0.2928425196850394
 20
1.0636692913385828
 30
0.0
 10
-0.2928425196850394
 20
1.0636692913385828
 30
0.0
 10
-0.2928425196850394
 20
1.0636692913385828
 30
0.0
 10
-0.3171023622047244
 20
1.0898464566929134
 30
0.0
 10
-0.3171023622047244
 20
1.0898464566929134
 30
0.0
 10
-0.3171023622047244
 20
1.0898464566929134
 30
0.0
 10
-0.3171023622047244
 20
1.0898464566929134
 30
0.0
 10
-0.9564566929133859
 20
0.703492125984252
 30
0.0
 10
-0.9564566929133859
 20
0.703492125984252
 30
0.0
 10
-0.9564566929133859
 20
0.703492125984252
 30
0.0
 10
-0.9564566929133859
 20
0.703492125984252
 30
0.0
 10
-0.9321968503937008
 20
0.6773149606299213
 30
0.0
 10
-0.9321968503937008
 20
0.6773149606299213
 30
0.0
  0
SPLINE
  5
5E
100
AcDbEntity
  8
P1-Layer 1
 62
     9
100
AcDbSpline
210
0.0
220
0.0
230
1.0
 70
     1
 71
     3
 72
    20
 73
    16
 74
     0
 42
0.0000000001
 43
0.0000000001
 40
0.0
 40
0.0
 40
0.0
 40
0.0
 40
0.25
 40
0.25
 40
0.25
 40
0.25
 40
0.5
 40
0.5
 40
0.5
 40
0.5
 40
0.75
 40
0.75
 40
0.75
 40
0.75
 40
1.0
 40
1.0
 40
1.0
 40
1.0
 10
-0.9564566929133859
 20
0.703492125984252
 30
0.0
 10
-0.9564566929133859
 20
0.703492125984252
 30
0.0
 10
-0.3171023622047244
 20
1.0898464566929134
 30
0.0
 10
-0.3171023622047244
 20
1.0898464566929134
 30
0.0
 10
-0.3171023622047244
 20
1.0898464566929134
 30
0.0
 10
-0.3171023622047244
 20
1.0898464566929134
 30
0.0
 10
-0.3426338582677165
 20
1.1148149606299214
 30
0.0
 10
-0.3426338582677165
 20
1.1148149606299214
 30
0.0
 10
-0.3426338582677165
 20
1.1148149606299214
 30
0.0
 10
-0.3426338582677165
 20
1.1148149606299214
 30
0.0
 10
-0.981988188976378
 20
0.7284606299212598
 30
0.0
 10
-0.981988188976378
 20
0.7284606299212598
 30
0.0
 10
-0.981988188976378
 20
0.7284606299212598
 30
0.0
 10
-0.981988188976378
 20
0.7284606299212598
 30
0.0
 10
-0.9564566929133859
 20
0.703492125984252
 30
0.0
 10
-0.9564566929133859
 20
0.703492125984252
 30
0.0
  0
SPLINE
  5
5F
100
AcDbEntity
  8
P1-Layer 1
 62
     9
100
AcDbSpline
210
0.0
220
0.0
230
1.0
 70
     1
 71
     3
 72
    20
 73
    16
 74
     0
 42
0.0000000001
 43
0.0000000001
 40
0.0
 40
0.0
 40
0.0
 40
0.0
 40
0.25
 40
0.25
 40
0.25
 40
0.25
 40
0.5
 40
0.5
 40
0.5
 40
0.5
 40
0.75
 40
0.75
 40
0.75
 40
0.75
 40
1.0
 40
1.0
 40
1.0
 40
1.0
 10
-0.981988188976378
 20
0.7284606299212598
 30
0.0
 10
-0.981988188976378
 20
0.7284606299212598
 30
0.0
 10
-0.3426338582677165
 20
1.1148149606299214
 30
0.0
 10
-0.3426338582677165
 20
1.1148149606299214
 30
0.0
 10
-0.3426338582677165
 20
1.1148149606299214
 30
0.0
 10
-0.3426338582677165
 20
1.1148149606299214
 30
0.0
 10
-0.3694173228346457
 20
1.1385433070866142
 30
0.0
 10
-0.3694173228346457
 20
1.1385433070866142
 30
0.0
 10
-0.3694173228346457
 20
1.1385433070866142
 30
0.0
 10
-0.3694173228346457
 20
1.1385433070866142
 30
0.0
 10
-1.0087716535433071
 20
0.7521889763779528
 30
0.0
 10
-1.0087716535433071
 20
0.7521889763779528
 30
0.0
 10
-1.0087716535433071
 20
0.7521889763779528
 30
0.0
 10
-1.0087716535433071
 20
0.7521889763779528
 30
0.0
 10
-0.981988188976378
 20
0.7284606299212598
 30
0.0
 10
-0.981988188976378
 20
0.7284606299212598
 30
0.0
  0
SPLINE
  5
60
100
AcDbEntity
  8
P1-Layer 1
 62
     9
100
AcDbSpline
210
0.0
220
0.0
230
1.0
 70
     1
 71
     3
 72
    20
 73
    16
 74
     0
 42
0.0000000001
 43
0.0000000001
 40
0.0
 40
0.0
 40
0.0
 40
0.0
 40
0.25
 40
0.25
 40
0.25
 40
0.25
 40
0.5
 40
0.5
 40
0.5
 40
0.5
 40
0.75
 40
0.75
 40
0.75
 40
0.75
 40
1.0
 40
1.0
 40
1.0
 40
1.0
 10
-1.0087716535433071
 20
0.7521889763779528
 30
0.0
 10
-1.0087716535433071
 20
0.7521889763779528
 30
0.0
 10
-0.3694173228346457
 20
1.1385433070866142
 30
0.0
 10
-0.3694173228346457
 20
1.1385433070866142
 30
0.0
 10
-0.3694173228346457
 20
1.1385433070866142
 30
0.0
 10
-0.3694173228346457
 20
1.1385433070866142
 30
0.0
 10
-0.3974133858267717
 20
1.1609685039370079
 30
0.0
 10
-0.3974133858267717
 20
1.1609685039370079
 30
0.0
 10
-0.3974133858267717
 20
1.1609685039370079
 30
0.0
 10
-0.3974133858267717
 20
1.1609685039370079
 30
0.0
 10
-1.0367677165354332
 20
0.7746141732283465
 30
0.0
 10
-1.0367677165354332
 20
0.7746141732283465
 30
0.0
 10
-1.0367677165354332
 20
0.7746141732283465
 30
0.0
 10
-1.0367677165354332
 20
0.7746141732283465
 30
0.0
 10
-1.0087716535433071
 20
0.7521889763779528
 30
0.0
 10
-1.0087716535433071
 20
0.7521889763779528
 30
0.0
  0
SPLINE
  5
61
100
AcDbEntity
  8
P1-Layer 1
 62
     9
100
AcDbSpline
210
0.0
220
0.0
230
1.0
 70
     1
 71
     3
 72
    20
 73
    16
 74
     0
 42
0.0000000001
 43
0.0000000001
 40
0.0
 40
0.0
 40
0.0
 40
0.0
 40
0.25
 40
0.25
 40
0.25
 40
0.25
 40
0.5
 40
0.5
 40
0.5
 40
0.5
 40
0.75
 40
0.75
 40
0.75
 40
0.75
 40
1.0
 40
1.0
 40
1.0
 40
1.0
 10
-1.0367677165354332
 20
0.7746141732283465
 30
0.0
 10
-1.0367677165354332
 20
0.7746141732283465
 30
0.0
 10
-0.3974133858267717
 20
1.1609685039370079
 30
0.0
 10
-0.3974133858267717
 20
1.1609685039370079
 30
0.0
 10
-0.3974133858267717
 20
1.1609685039370079
 30
0.0
 10
-0.3974133858267717
 20
1.1609685039370079
 30
0.0
 10
-0.4265944881889764
 20
1.1820551181102363
 30
0.0
 10
-0.4265944881889764
 20
1.1820551181102363
 30
0.0
 10
-0.4265944881889764
 20
1.1820551181102363
 30
0.0
 10
-0.4265944881889764
 20
1.1820551181102363
 30
0.0
 10
-1.0659488188976378
 20
0.7957007874015748
 30
0.0
 10
-1.0659488188976378
 20
0.7957007874015748
 30
0.0
 10
-1.0659488188976378
 20
0.7957007874015748
 30
0.0
 10
-1.0659488188976378
 20
0.7957007874015748
 30
0.0
 10
-1.0367677165354332
 20
0.7746141732283465
 30
0.0
 10
-1.0367677165354332
 20
0.7746141732283465
 30
0.0
  0
SPLINE
  5
62
100
AcDbEntity
  8
P1-Layer 1
 62
     9
100
AcDbSpline
210
0.0
220
0.0
230
1.0
 70
     1
 71
     3
 72
    20
 73
    16
 74
     0
 42
0.0000000001
 43
0.0000000001
 40
0.0
 40
0.0
 40
0.0
 40
0.0
 40
0.25
 40
0.25
 40
0.25
 40
0.25
 40
0.5
 40
0.5
 40
0.5
 40
0.5
 40
0.75
 40
0.75
 40
0.75
 40
0.75
 40
1.0
 40
1.0
 40
1.0
 40
1.0
 10
-1.0659488188976378
 20
0.7957007874015748
 30
0.0
 10
-1.0659488188976378
 20
0.7957007874015748
 30
0.0
 10
-0.4265944881889764
 20
1.1820551181102363
 30
0.0
 10
-0.4265944881889764
 20
1.1820551181102363
 30
0.0
 10
-0.4265944881889764
 20
1.1820551181102363
 30
0.0
 10
-0.4265944881889764
 20
1.1820551181102363
 30
0.0
 10
-0.4569094488188977
 20
1.2017362204724409
 30
0.0
 10
-0.4569094488188977
 20
1.2017362204724409
 30
0.0
 10
-0.4569094488188977
 20
1.2017362204724409
 30
0.0
 10
-0.4569094488188977
 20
1.2017362204724409
 30
0.0
 10
-1.0962637795275592
 20
0.8153818897637796
 30
0.0
 10
-1.0962637795275592
 20
0.8153818897637796
 30
0.0
 10
-1.0962637795275592
 20
0.8153818897637796
 30
0.0
 10
-1.0962637795275592
 20
0.8153818897637796
 30
0.0
 10
-1.0659488188976378
 20
0.7957007874015748
 30
0.0
 10
-1.0659488188976378
 20
0.7957007874015748
 30
0.0
  0
SPLINE
  5
63
100
AcDbEntity
  8
P1-Layer 1
 62
     9
100
AcDbSpline
210
0.0
220
0.0
230
1.0
 70
     1
 71
     3
 72
    20
 73
    16
 74
     0
 42
0.0000000001
 43
0.0000000001
 40
0.0
 40
0.0
 40
0.0
 40
0.0
 40
0.25
 40
0.25
 40
0.25
 40
0.25
 40
0.5
 40
0.5
 40
0.5
 40
0.5
 40
0.75
 40
0.75
 40
0.75
 40
0.75
 40
1.0
 40
1.0
 40
1.0
 40
1.0
 10
-1.0962637795275592
 20
0.8153818897637796
 30
0.0
 10
-1.0962637795275592
 20
0.8153818897637796
 30
0.0
 10
-0.4569094488188977
 20
1.2017362204724409
 30
0.0
 10
-0.4569094488188977
 20
1.2017362204724409
 30
0.0
 10
-0.4569094488188977
 20
1.2017362204724409
 30
0.0
 10
-0.4569094488188977
 20
1.2017362204724409
 30
0.0
 10
-0.4883425196850394
 20
1.219972440944882
 30
0.0
 10
-0.4883425196850394
 20
1.219972440944882
 30
0.0
 10
-0.4883425196850394
 20
1.219972440944882
 30
0.0
 10
-0.4883425196850394
 20
1.219972440944882
 30
0.0
 10
-1.1276968503937008
 20
0.8336181102362205
 30
0.0
 10
-1.1276968503937008
 20
0.8336181102362205
 30
0.0
 10
-1.1276968503937008
 20
0.8336181102362205
 30
0.0
 10
-1.1276968503937008
 20
0.8336181102362205
 30
0.0
 10
-1.0962637795275592
 20
0.8153818897637796
 30
0.0
 10
-1.0962637795275592
 20
0.8153818897637796
 30
0.0
  0
SPLINE
  5
64
100
AcDbEntity
  8
P1-Layer 1
 62
     9
100
AcDbSpline
210
0.0
220
0.0
230
1.0
 70
     1
 71
     3
 72
    20
 73
    16
 74
     0
 42
0.0000000001
 43
0.0000000001
 40
0.0
 40
0.0
 40
0.0
 40
0.0
 40
0.25
 40
0.25
 40
0.25
 40
0.25
 40
0.5
 40
0.5
 40
0.5
 40
0.5
 40
0.75
 40
0.75
 40
0.75
 40
0.75
 40
1.0
 40
1.0
 40
1.0
 40
1.0
 10
-1.1276968503937008
 20
0.8336181102362205
 30
0.0
 10
-1.1276968503937008
 20
0.8336181102362205
 30
0.0
 10
-0.4883425196850394
 20
1.219972440944882
 30
0.0
 10
-0.4883425196850394
 20
1.219972440944882
 30
0.0
 10
-0.4883425196850394
 20
1.219972440944882
 30
0.0
 10
-0.4883425196850394
 20
1.219972440944882
 30
0.0
 10
-0.5208503937007875
 20
1.2367086614173228
 30
0.0
 10
-0.5208503937007875
 20
1.2367086614173228
 30
0.0
 10
-0.5208503937007875
 20
1.2367086614173228
 30
0.0
 10
-0.5208503937007875
 20
1.2367086614173228
 30
0.0
 10
-1.1602047244094489
 20
0.8503543307086614
 30
0.0
 10
-1.1602047244094489
 20
0.8503543307086614
 30
0.0
 10
-1.1602047244094489
 20
0.8503543307086614
 30
0.0
 10
-1.1602047244094489
 20
0.8503543307086614
 30
0.0
 10
-1.1276968503937008
 20
0.8336181102362205
 30
0.0
 10
-1.1276968503937008
 20
0.8336181102362205
 30
0.0
  0
SPLINE
  5
65
100
AcDbEntity
  8
P1-Layer 1
 62
   253
100
AcDbSpline
210
0.0
220
0.0
230
1.0
 70
     1
 71
     3
 72
    20
 73
    16
 74
     0
 42
0.0000000001
 43
0.0000000001
 40
0.0
 40
0.0
 40
0.0
 40
0.0
 40
0.25
 40
0.25
 40
0.25
 40
0.25
 40
0.5
 40
0.5
 40
0.5
 40
0.5
 40
0.75
 40
0.75
 40
0.75
 40
0.75
 40
1.0
 40
1.0
 40
1.0
 40
1.0
 10
-1.1602047244094489
 20
0.8503543307086614
 30
0.0
 10
-1.1602047244094489
 20
0.8503543307086614
 30
0.0
 10
-0.5208503937007875
 20
1.2367086614173228
 30
0.0
 10
-0.5208503937007875
 20
1.2367086614173228
 30
0.0
 10
-0.5208503937007875
 20
1.2367086614173228
 30
0.0
 10
-0.5208503937007875
 20
1.2367086614173228
 30
0.0
 10
-0.5544015748031497
 20
1.2519015748031497
 30
0.0
 10
-0.5544015748031497
 20
1.2519015748031497
 30
0.0
 10
-0.5544015748031497
 20
1.2519015748031497
 30
0.0
 10
-0.5544015748031497
 20
1.2519015748031497
 30
0.0
 10
-1.193755905511811
 20
0.8655472440944882
 30
0.0
 10
-1.193755905511811
 20
0.8655472440944882
 30
0.0
 10
-1.193755905511811
 20
0.8655472440944882
 30
0.0
 10
-1.193755905511811
 20
0.8655472440944882
 30
0.0
 10
-1.1602047244094489
 20
0.8503543307086614
 30
0.0
 10
-1.1602047244094489
 20
0.8503543307086614
 30
0.0
  0
SPLINE
  5
66
100
AcDbEntity
  8
P1-Layer 1
 62
   253
100
AcDbSpline
210
0.0
220
0.0
230
1.0
 70
     1
 71
     3
 72
    20
 73
    16
 74
     0
 42
0.0000000001
 43
0.0000000001
 40
0.0
 40
0.0
 40
0.0
 40
0.0
 40
0.25
 40
0.25
 40
0.25
 40
0.25
 40
0.5
 40
0.5
 40
0.5
 40
0.5
 40
0.75
 40
0.75
 40
0.75
 40
0.75
 40
1.0
 40
1.0
 40
1.0
 40
1.0
 10
-1.193755905511811
 20
0.8655472440944882
 30
0.0
 10
-1.193755905511811
 20
0.8655472440944882
 30
0.0
 10
-0.5544015748031497
 20
1.2519015748031497
 30
0.0
 10
-0.5544015748031497
 20
1.2519015748031497
 30
0.0
 10
-0.5544015748031497
 20
1.2519015748031497
 30
0.0
 10
-0.5544015748031497
 20
1.2519015748031497
 30
0.0
 10
-0.5889527559055119
 20
1.265488188976378
 30
0.0
 10
-0.5889527559055119
 20
1.265488188976378
 30
0.0
 10
-0.5889527559055119
 20
1.265488188976378
 30
0.0
 10
-0.5889527559055119
 20
1.265488188976378
 30
0.0
 10
-1.2283070866141732
 20
0.8791338582677166
 30
0.0
 10
-1.2283070866141732
 20
0.8791338582677166
 30
0.0
 10
-1.2283070866141732
 20
0.8791338582677166
 30
0.0
 10
-1.2283070866141732
 20
0.8791338582677166
 30
0.0
 10
-1.193755905511811
 20
0.8655472440944882
 30
0.0
 10
-1.193755905511811
 20
0.8655472440944882
 30
0.0
  0
SPLINE
  5
67
100
AcDbEntity
  8
P1-Layer 1
 62
   253
100
AcDbSpline
210
0.0
220
0.0
230
1.0
 70
     1
 71
     3
 72
    20
 73
    16
 74
     0
 42
0.0000000001
 43
0.0000000001
 40
0.0
 40
0.0
 40
0.0
 40
0.0
 40
0.25
 40
0.25
 40
0.25
 40
0.25
 40
0.5
 40
0.5
 40
0.5
 40
0.5
 40
0.75
 40
0.75
 40
0.75
 40
0.75
 40
1.0
 40
1.0
 40
1.0
 40
1.0
 10
-1.2283070866141732
 20
0.8791338582677166
 30
0.0
 10
-1.2283070866141732
 20
0.8791338582677166
 30
0.0
 10
-0.5889527559055119
 20
1.265488188976378
 30
0.0
 10
-0.5889527559055119
 20
1.265488188976378
 30
0.0
 10
-0.5889527559055119
 20
1.265488188976378
 30
0.0
 10
-0.5889527559055119
 20
1.265488188976378
 30
0.0
 10
-0.62448031496063
 20
1.2774291338582677
 30
0.0
 10
-0.62448031496063
 20
1.2774291338582677
 30
0.0
 10
-0.62448031496063
 20
1.2774291338582677
 30
0.0
 10
-0.62448031496063
 20
1.2774291338582677
 30
0.0
 10
-1.2638346456692915
 20
0.8910748031496063
 30
0.0
 10
-1.2638346456692915
 20
0.8910748031496063
 30
0.0
 10
-1.2638346456692915
 20
0.8910748031496063
 30
0.0
 10
-1.2638346456692915
 20
0.8910748031496063
 30
0.0
 10
-1.2283070866141732
 20
0.8791338582677166
 30
0.0
 10
-1.2283070866141732
 20
0.8791338582677166
 30
0.0
  0
SPLINE
  5
68
100
AcDbEntity
  8
P1-Layer 1
 62
   253
100
AcDbSpline
210
0.0
220
0.0
230
1.0
 70
     1
 71
     3
 72
    20
 73
    16
 74
     0
 42
0.0000000001
 43
0.0000000001
 40
0.0
 40
0.0
 40
0.0
 40
0.0
 40
0.25
 40
0.25
 40
0.25
 40
0.25
 40
0.5
 40
0.5
 40
0.5
 40
0.5
 40
0.75
 40
0.75
 40
0.75
 40
0.75
 40
1.0
 40
1.0
 40
1.0
 40
1.0
 10
-1.2638346456692915
 20
0.8910748031496063
 30
0.0
 10
-1.2638346456692915
 20
0.8910748031496063
 30
0.0
 10
-0.62448031496063
 20
1.2774291338582677
 30
0.0
 10
-0.62448031496063
 20
1.2774291338582677
 30
0.0
 10
-0.62448031496063
 20
1.2774291338582677
 30
0.0
 10
-0.62448031496063
 20
1.2774291338582677
 30
0.0
 10
-0.6609448818897639
 20
1.2876692913385828
 30
0.0
 10
-0.6609448818897639
 20
1.2876692913385828
 30
0.0
 10
-0.6609448818897639
 20
1.2876692913385828
 30
0.0
 10
-0.6609448818897639
 20
1.2876692913385828
 30
0.0
 10
-1.3002992125984252
 20
0.9013149606299213
 30
0.0
 10
-1.3002992125984252
 20
0.9013149606299213
 30
0.0
 10
-1.3002992125984252
 20
0.9013149606299213
 30
0.0
 10
-1.3002992125984252
 20
0.9013149606299213
 30
0.0
 10
-1.2638346456692915
 20
0.8910748031496063
 30
0.0
 10
-1.2638346456692915
 20
0.8910748031496063
 30
0.0
  0
SPLINE
  5
69
100
AcDbEntity
  8
P1-Layer 1
 62
   253
100
AcDbSpline
210
0.0
220
0.0
230
1.0
 70
     1
 71
     3
 72
    20
 73
    16
 74
     0
 42
0.0000000001
 43
0.0000000001
 40
0.0
 40
0.0
 40
0.0
 40
0.0
 40
0.25
 40
0.25
 40
0.25
 40
0.25
 40
0.5
 40
0.5
 40
0.5
 40
0.5
 40
0.75
 40
0.75
 40
0.75
 40
0.75
 40
1.0
 40
1.0
 40
1.0
 40
1.0
 10
-1.3002992125984252
 20
0.9013149606299213
 30
0.0
 10
-1.3002992125984252
 20
0.9013149606299213
 30
0.0
 10
-0.6609448818897639
 20
1.2876692913385828
 30
0.0
 10
-0.6609448818897639
 20
1.2876692913385828
 30
0.0
 10
-0.6609448818897639
 20
1.2876692913385828
 30
0.0
 10
-0.6609448818897639
 20
1.2876692913385828
 30
0.0
 10
-0.6983228346456694
 20
1.2961653543307088
 30
0.0
 10
-0.6983228346456694
 20
1.2961653543307088
 30
0.0
 10
-0.6983228346456694
 20
1.2961653543307088
 30
0.0
 10
-0.6983228346456694
 20
1.2961653543307088
 30
0.0
 10
-1.3376771653543307
 20
0.9098110236220472
 30
0.0
 10
-1.3376771653543307
 20
0.9098110236220472
 30
0.0
 10
-1.3376771653543307
 20
0.9098110236220472
 30
0.0
 10
-1.3376771653543307
 20
0.9098110236220472
 30
0.0
 10
-1.3002992125984252
 20
0.9013149606299213
 30
0.0
 10
-1.3002992125984252
 20
0.9013149606299213
 30
0.0
  0
SPLINE
  5
6A
100
AcDbEntity
  8
P1-Layer 1
 62
   253
100
AcDbSpline
210
0.0
220
0.0
230
1.0
 70
     1
 71
     3
 72
    20
 73
    16
 74
     0
 42
0.0000000001
 43
0.0000000001
 40
0.0
 40
0.0
 40
0.0
 40
0.0
 40
0.25
 40
0.25
 40
0.25
 40
0.25
 40
0.5
 40
0.5
 40
0.5
 40
0.5
 40
0.75
 40
0.75
 40
0.75
 40
0.75
 40
1.0
 40
1.0
 40
1.0
 40
1.0
 10
-1.3376771653543307
 20
0.9098110236220472
 30
0.0
 10
-1.3376771653543307
 20
0.9098110236220472
 30
0.0
 10
-0.6983228346456694
 20
1.2961653543307088
 30
0.0
 10
-0.6983228346456694
 20
1.2961653543307088
 30
0.0
 10
-0.6983228346456694
 20
1.2961653543307088
 30
0.0
 10
-0.6983228346456694
 20
1.2961653543307088
 30
0.0
 10
-0.7365590551181103
 20
1.3028543307086615
 30
0.0
 10
-0.7365590551181103
 20
1.3028543307086615
 30
0.0
 10
-0.7365590551181103
 20
1.3028543307086615
 30
0.0
 10
-0.7365590551181103
 20
1.3028543307086615
 30
0.0
 10
-1.3759133858267718
 20
0.9165
 30
0.0
 10
-1.3759133858267718
 20
0.9165
 30
0.0
 10
-1.3759133858267718
 20
0.9165
 30
0.0
 10
-1.3759133858267718
 20
0.9165
 30
0.0
 10
-1.3376771653543307
 20
0.9098110236220472
 30
0.0
 10
-1.3376771653543307
 20
0.9098110236220472
 30
0.0
  0
SPLINE
  5
6B
100
AcDbEntity
  8
P1-Layer 1
 62
   253
100
AcDbSpline
210
0.0
220
0.0
230
1.0
 70
     1
 71
     3
 72
    20
 73
    16
 74
     0
 42
0.0000000001
 43
0.0000000001
 40
0.0
 40
0.0
 40
0.0
 40
0.0
 40
0.25
 40
0.25
 40
0.25
 40
0.25
 40
0.5
 40
0.5
 40
0.5
 40
0.5
 40
0.75
 40
0.75
 40
0.75
 40
0.75
 40
1.0
 40
1.0
 40
1.0
 40
1.0
 10
-1.3759133858267718
 20
0.9165
 30
0.0
 10
-1.3759133858267718
 20
0.9165
 30
0.0
 10
-0.7365590551181103
 20
1.3028543307086615
 30
0.0
 10
-0.7365590551181103
 20
1.3028543307086615
 30
0.0
 10
-0.7365590551181103
 20
1.3028543307086615
 30
0.0
 10
-0.7365590551181103
 20
1.3028543307086615
 30
0.0
 10
-0.7756377952755906
 20
1.3077007874015749
 30
0.0
 10
-0.7756377952755906
 20
1.3077007874015749
 30
0.0
 10
-0.7756377952755906
 20
1.3077007874015749
 30
0.0
 10
-0.7756377952755906
 20
1.3077007874015749
 30
0.0
 10
-1.4149921259842519
 20
0.9213464566929134
 30
0.0
 10
-1.4149921259842519
 20
0.9213464566929134
 30
0.0
 10
-1.4149921259842519
 20
0.9213464566929134
 30
0.0
 10
-1.4149921259842519
 20
0.9213464566929134
 30
0.0
 10
-1.3759133858267718
 20
0.9165
 30
0.0
 10
-1.3759133858267718
 20
0.9165
 30
0.0
  0
SPLINE
  5
6C
100
AcDbEntity
  8
P1-Layer 1
 62
   253
100
AcDbSpline
210
0.0
220
0.0
230
1.0
 70
     1
 71
     3
 72
    20
 73
    16
 74
     0
 42
0.0000000001
 43
0.0000000001
 40
0.0
 40
0.0
 40
0.0
 40
0.0
 40
0.25
 40
0.25
 40
0.25
 40
0.25
 40
0.5
 40
0.5
 40
0.5
 40
0.5
 40
0.75
 40
0.75
 40
0.75
 40
0.75
 40
1.0
 40
1.0
 40
1.0
 40
1.0
 10
-1.4149921259842519
 20
0.9213464566929134
 30
0.0
 10
-1.4149921259842519
 20
0.9213464566929134
 30
0.0
 10
-0.7756377952755906
 20
1.3077007874015749
 30
0.0
 10
-0.7756377952755906
 20
1.3077007874015749
 30
0.0
 10
-0.7756377952755906
 20
1.3077007874015749
 30
0.0
 10
-0.7756377952755906
 20
1.3077007874015749
 30
0.0
 10
-0.8155157480314961
 20
1.3106417322834647
 30
0.0
 10
-0.8155157480314961
 20
1.3106417322834647
 30
0.0
 10
-0.8155157480314961
 20
1.3106417322834647
 30
0.0
 10
-0.8155157480314961
 20
1.3106417322834647
 30
0.0
 10
-1.4548700787401576
 20
0.9242874015748032
 30
0.0
 10
-1.4548700787401576
 20
0.9242874015748032
 30
0.0
 10
-1.4548700787401576
 20
0.9242874015748032
 30
0.0
 10
-1.4548700787401576
 20
0.9242874015748032
 30
0.0
 10
-1.4149921259842519
 20
0.9213464566929134
 30
0.0
 10
-1.4149921259842519
 20
0.9213464566929134
 30
0.0
  0
SPLINE
  5
6D
100
AcDbEntity
  8
P1-Layer 1
 62
   253
100
AcDbSpline
210
0.0
220
0.0
230
1.0
 70
     1
 71
     3
 72
    20
 73
    16
 74
     0
 42
0.0000000001
 43
0.0000000001
 40
0.0
 40
0.0
 40
0.0
 40
0.0
 40
0.25
 40
0.25
 40
0.25
 40
0.25
 40
0.5
 40
0.5
 40
0.5
 40
0.5
 40
0.75
 40
0.75
 40
0.75
 40
0.75
 40
1.0
 40
1.0
 40
1.0
 40
1.0
 10
-1.4548700787401576
 20
0.9242874015748032
 30
0.0
 10
-1.4548700787401576
 20
0.9242874015748032
 30
0.0
 10
-0.8155157480314961
 20
1.3106417322834647
 30
0.0
 10
-0.8155157480314961
 20
1.3106417322834647
 30
0.0
 10
-0.8155157480314961
 20
1.3106417322834647
 30
0.0
 10
-0.8155157480314961
 20
1.3106417322834647
 30
0.0
 10
-0.8561653543307087
 20
1.3116377952755907
 30
0.0
 10
-0.8561653543307087
 20
1.3116377952755907
 30
0.0
 10
-0.8561653543307087
 20
1.3116377952755907
 30
0.0
 10
-0.8561653543307087
 20
1.3116377952755907
 30
0.0
 10
-1.4955196850393702
 20
0.9252834645669291
 30
0.0
 10
-1.4955196850393702
 20
0.9252834645669291
 30
0.0
 10
-1.4955196850393702
 20
0.9252834645669291
 30
0.0
 10
-1.4955196850393702
 20
0.9252834645669291
 30
0.0
 10
-1.4548700787401576
 20
0.9242874015748032
 30
0.0
 10
-1.4548700787401576
 20
0.9242874015748032
 30
0.0
  0
SPLINE
  5
6E
100
AcDbEntity
  8
P1-Layer 1
 62
     9
100
AcDbSpline
210
0.0
220
0.0
230
1.0
 70
     1
 71
     3
 72
    20
 73
    16
 74
     0
 42
0.0000000001
 43
0.0000000001
 40
0.0
 40
0.0
 40
0.0
 40
0.0
 40
0.25
 40
0.25
 40
0.25
 40
0.25
 40
0.5
 40
0.5
 40
0.5
 40
0.5
 40
0.75
 40
0.75
 40
0.75
 40
0.75
 40
1.0
 40
1.0
 40
1.0
 40
1.0
 10
-1.4955196850393702
 20
0.9252834645669291
 30
0.0
 10
-1.4955196850393702
 20
0.9252834645669291
 30
0.0
 10
-0.8561653543307087
 20
1.3116377952755907
 30
0.0
 10
-0.8561653543307087
 20
1.3116377952755907
 30
0.0
 10
-0.8561653543307087
 20
1.3116377952755907
 30
0.0
 10
-0.8561653543307087
 20
1.3116377952755907
 30
0.0
 10
-0.8561653543307087
 20
1.5616377952755907
 30
0.0
 10
-0.8561653543307087
 20
1.5616377952755907
 30
0.0
 10
-0.8561653543307087
 20
1.5616377952755907
 30
0.0
 10
-0.8561653543307087
 20
1.5616377952755907
 30
0.0
 10
-1.4955196850393702
 20
1.1752834645669292
 30
0.0
 10
-1.4955196850393702
 20
1.1752834645669292
 30
0.0
 10
-1.4955196850393702
 20
1.1752834645669292
 30
0.0
 10
-1.4955196850393702
 20
1.1752834645669292
 30
0.0
 10
-1.4955196850393702
 20
0.9252834645669291
 30
0.0
 10
-1.4955196850393702
 20
0.9252834645669291
 30
0.0
  0
SPLINE
  5
6F
100
AcDbEntity
  8
P1-Layer 1
370
     5
100
AcDbSpline
210
0.0
220
0.0
230
1.0
 70
     1
 71
     3
 72
   276
 73
   272
 74
     0
 42
0.0000000001
 43
0.0000000001
 40
0.0
 40
0.0
 40
0.0
 40
0.0
 40
0.0147058823529412
 40
0.0147058823529412
 40
0.0147058823529412
 40
0.0147058823529412
 40
0.0294117647058824
 40
0.0294117647058824
 40
0.0294117647058824
 40
0.0294117647058824
 40
0.0441176470588235
 40
0.0441176470588235
 40
0.0441176470588235
 40
0.0441176470588235
 40
0.0588235294117647
 40
0.0588235294117647
 40
0.0588235294117647
 40
0.0588235294117647
 40
0.0735294117647059
 40
0.0735294117647059
 40
0.0735294117647059
 40
0.0735294117647059
 40
0.0882352941176471
 40
0.0882352941176471
 40
0.0882352941176471
 40
0.0882352941176471
 40
0.1029411764705882
 40
0.1029411764705882
 40
0.1029411764705882
 40
0.1029411764705882
 40
0.1176470588235294
 40
0.1176470588235294
 40
0.1176470588235294
 40
0.1176470588235294
 40
0.1323529411764706
 40
0.1323529411764706
 40
0.1323529411764706
 40
0.1323529411764706
 40
0.1470588235294118
 40
0.1470588235294118
 40
0.1470588235294118
 40
0.1470588235294118
 40
0.161764705882353
 40
0.161764705882353
 40
0.161764705882353
 40
0.161764705882353
 40
0.1764705882352941
 40
0.1764705882352941
 40
0.1764705882352941
 40
0.1764705882352941
 40
0.1911764705882353
 40
0.1911764705882353
 40
0.1911764705882353
 40
0.1911764705882353
 40
0.2058823529411765
 40
0.2058823529411765
 40
0.2058823529411765
 40
0.2058823529411765
 40
0.2205882352941177
 40
0.2205882352941177
 40
0.2205882352941177
 40
0.2205882352941177
 40
0.2352941176470589
 40
0.2352941176470589
 40
0.2352941176470589
 40
0.2352941176470589
 40
0.25
 40
0.25
 40
0.25
 40
0.25
 40
0.2647058823529412
 40
0.2647058823529412
 40
0.2647058823529412
 40
0.2647058823529412
 40
0.2794117647058824
 40
0.2794117647058824
 40
0.2794117647058824
 40
0.2794117647058824
 40
0.2941176470588235
 40
0.2941176470588235
 40
0.2941176470588235
 40
0.2941176470588235
 40
0.3088235294117647
 40
0.3088235294117647
 40
0.3088235294117647
 40
0.3088235294117647
 40
0.3235294117647059
 40
0.3235294117647059
 40
0.3235294117647059
 40
0.3235294117647059
 40
0.3382352941176471
 40
0.3382352941176471
 40
0.3382352941176471
 40
0.3382352941176471
 40
0.3529411764705883
 40
0.3529411764705883
 40
0.3529411764705883
 40
0.3529411764705883
 40
0.3676470588235294
 40
0.3676470588235294
 40
0.3676470588235294
 40
0.3676470588235294
 40
0.3823529411764706
 40
0.3823529411764706
 40
0.3823529411764706
 40
0.3823529411764706
 40
0.3970588235294118
 40
0.3970588235294118
 40
0.3970588235294118
 40
0.3970588235294118
 40
0.411764705882353
 40
0.411764705882353
 40
0.411764705882353
 40
0.411764705882353
 40
0.4264705882352942
 40
0.4264705882352942
 40
0.4264705882352942
 40
0.4264705882352942
 40
0.4411764705882353
 40
0.4411764705882353
 40
0.4411764705882353
 40
0.4411764705882353
 40
0.4558823529411765
 40
0.4558823529411765
 40
0.4558823529411765
 40
0.4558823529411765
 40
0.4705882352941177
 40
0.4705882352941177
 40
0.4705882352941177
 40
0.4705882352941177
 40
0.4852941176470589
 40
0.4852941176470589
 40
0.4852941176470589
 40
0.4852941176470589
 40
0.5
 40
0.5
 40
0.5
 40
0.5
 40
0.5147058823529411
 40
0.5147058823529411
 40
0.5147058823529411
 40
0.5147058823529411
 40
0.5294117647058823
 40
0.5294117647058823
 40
0.5294117647058823
 40
0.5294117647058823
 40
0.5441176470588234
 40
0.5441176470588234
 40
0.5441176470588234
 40
0.5441176470588234
 40
0.5588235294117645
 40
0.5588235294117645
 40
0.5588235294117645
 40
0.5588235294117645
 40
0.5735294117647056
 40
0.5735294117647056
 40
0.5735294117647056
 40
0.5735294117647056
 40
0.5882352941176468
 40
0.5882352941176468
 40
0.5882352941176468
 40
0.5882352941176468
 40
0.6029411764705879
 40
0.6029411764705879
 40
0.6029411764705879
 40
0.6029411764705879
 40
0.617647058823529
 40
0.617647058823529
 40
0.617647058823529
 40
0.617647058823529
 40
0.6323529411764701
 40
0.6323529411764701
 40
0.6323529411764701
 40
0.6323529411764701
 40
0.6470588235294112
 40
0.6470588235294112
 40
0.6470588235294112
 40
0.6470588235294112
 40
0.6617647058823524
 40
0.6617647058823524
 40
0.6617647058823524
 40
0.6617647058823524
 40
0.6764705882352935
 40
0.6764705882352935
 40
0.6764705882352935
 40
0.6764705882352935
 40
0.6911764705882346
 40
0.6911764705882346
 40
0.6911764705882346
 40
0.6911764705882346
 40
0.7058823529411757
 40
0.7058823529411757
 40
0.7058823529411757
 40
0.7058823529411757
 40
0.7205882352941169
 40
0.7205882352941169
 40
0.7205882352941169
 40
0.7205882352941169
 40
0.735294117647058
 40
0.735294117647058
 40
0.735294117647058
 40
0.735294117647058
 40
0.7499999999999991
 40
0.7499999999999991
 40
0.7499999999999991
 40
0.7499999999999991
 40
0.7647058823529402
 40
0.7647058823529402
 40
0.7647058823529402
 40
0.7647058823529402
 40
0.7794117647058814
 40
0.7794117647058814
 40
0.7794117647058814
 40
0.7794117647058814
 40
0.7941176470588225
 40
0.7941176470588225
 40
0.7941176470588225
 40
0.7941176470588225
 40
0.8088235294117636
 40
0.8088235294117636
 40
0.8088235294117636
 40
0.8088235294117636
 40
0.8235294117647047
 40
0.8235294117647047
 40
0.8235294117647047
 40
0.8235294117647047
 40
0.8382352941176459
 40
0.8382352941176459
 40
0.8382352941176459
 40
0.8382352941176459
 40
0.852941176470587
 40
0.852941176470587
 40
0.852941176470587
 40
0.852941176470587
 40
0.8676470588235281
 40
0.8676470588235281
 40
0.8676470588235281
 40
0.8676470588235281
 40
0.8823529411764692
 40
0.8823529411764692
 40
0.8823529411764692
 40
0.8823529411764692
 40
0.8970588235294104
 40
0.8970588235294104
 40
0.8970588235294104
 40
0.8970588235294104
 40
0.9117647058823515
 40
0.9117647058823515
 40
0.9117647058823515
 40
0.9117647058823515
 40
0.9264705882352926
 40
0.9264705882352926
 40
0.9264705882352926
 40
0.9264705882352926
 40
0.9411764705882337
 40
0.9411764705882337
 40
0.9411764705882337
 40
0.9411764705882337
 40
0.9558823529411749
 40
0.9558823529411749
 40
0.9558823529411749
 40
0.9558823529411749
 40
0.970588235294116
 40
0.970588235294116
 40
0.970588235294116
 40
0.970588235294116
 40
0.9852941176470571
 40
0.9852941176470571
 40
0.9852941176470571
 40
0.9852941176470571
 40
1.0
 40
1.0
 40
1.0
 40
1.0
 10
-0.7455236220472441
 20
0.1752834645669291
 30
0.0
 10
-0.7455236220472441
 20
0.1752834645669291
 30
0.0
 10
-0.1061692913385827
 20
0.5616377952755906
 30
0.0
 10
-0.1061692913385827
 20
0.5616377952755906
 30
0.0
 10
-0.1061692913385827
 20
0.5616377952755906
 30
0.0
 10
-0.1061692913385827
 20
0.5616377952755906
 30
0.0
 10
-0.1070748031496063
 20
0.5997283464566929
 30
0.0
 10
-0.1070748031496063
 20
0.5997283464566929
 30
0.0
 10
-0.1070748031496063
 20
0.5997283464566929
 30
0.0
 10
-0.1070748031496063
 20
0.5997283464566929
 30
0.0
 10
-0.1097834645669291
 20
0.6373818897637795
 30
0.0
 10
-0.1097834645669291
 20
0.6373818897637795
 30
0.0
 10
-0.1097834645669291
 20
0.6373818897637795
 30
0.0
 10
-0.1097834645669291
 20
0.6373818897637795
 30
0.0
 10
-0.114248031496063
 20
0.6745433070866143
 30
0.0
 10
-0.114248031496063
 20
0.6745433070866143
 30
0.0
 10
-0.114248031496063
 20
0.6745433070866143
 30
0.0
 10
-0.114248031496063
 20
0.6745433070866143
 30
0.0
 10
-0.1204488188976378
 20
0.7111614173228347
 30
0.0
 10
-0.1204488188976378
 20
0.7111614173228347
 30
0.0
 10
-0.1204488188976378
 20
0.7111614173228347
 30
0.0
 10
-0.1204488188976378
 20
0.7111614173228347
 30
0.0
 10
-0.1283307086614173
 20
0.7471771653543308
 30
0.0
 10
-0.1283307086614173
 20
0.7471771653543308
 30
0.0
 10
-0.1283307086614173
 20
0.7471771653543308
 30
0.0
 10
-0.1283307086614173
 20
0.7471771653543308
 30
0.0
 10
-0.1378818897637795
 20
0.7825590551181103
 30
0.0
 10
-0.1378818897637795
 20
0.7825590551181103
 30
0.0
 10
-0.1378818897637795
 20
0.7825590551181103
 30
0.0
 10
-0.1378818897637795
 20
0.7825590551181103
 30
0.0
 10
-0.1490551181102362
 20
0.817240157480315
 30
0.0
 10
-0.1490551181102362
 20
0.817240157480315
 30
0.0
 10
-0.1490551181102362
 20
0.817240157480315
 30
0.0
 10
-0.1490551181102362
 20
0.817240157480315
 30
0.0
 10
-0.1618267716535433
 20
0.8511811023622048
 30
0.0
 10
-0.1618267716535433
 20
0.8511811023622048
 30
0.0
 10
-0.1618267716535433
 20
0.8511811023622048
 30
0.0
 10
-0.1618267716535433
 20
0.8511811023622048
 30
0.0
 10
-0.1761456692913386
 20
0.8843228346456693
 30
0.0
 10
-0.1761456692913386
 20
0.8843228346456693
 30
0.0
 10
-0.1761456692913386
 20
0.8843228346456693
 30
0.0
 10
-0.1761456692913386
 20
0.8843228346456693
 30
0.0
 10
-0.191992125984252
 20
0.9166181102362205
 30
0.0
 10
-0.191992125984252
 20
0.9166181102362205
 30
0.0
 10
-0.191992125984252
 20
0.9166181102362205
 30
0.0
 10
-0.191992125984252
 20
0.9166181102362205
 30
0.0
 10
-0.2093228346456693
 20
0.9480157480314961
 30
0.0
 10
-0.2093228346456693
 20
0.9480157480314961
 30
0.0
 10
-0.2093228346456693
 20
0.9480157480314961
 30
0.0
 10
-0.2093228346456693
 20
0.9480157480314961
 30
0.0
 10
-0.2281102362204724
 20
0.9784803149606299
 30
0.0
 10
-0.2281102362204724
 20
0.9784803149606299
 30
0.0
 10
-0.2281102362204724
 20
0.9784803149606299
 30
0.0
 10
-0.2281102362204724
 20
0.9784803149606299
 30
0.0
 10
-0.2483110236220473
 20
1.0079370078740157
 30
0.0
 10
-0.2483110236220473
 20
1.0079370078740157
 30
0.0
 10
-0.2483110236220473
 20
1.0079370078740157
 30
0.0
 10
-0.2483110236220473
 20
1.0079370078740157
 30
0.0
 10
-0.2699015748031496
 20
1.0363543307086616
 30
0.0
 10
-0.2699015748031496
 20
1.0363543307086616
 30
0.0
 10
-0.2699015748031496
 20
1.0363543307086616
 30
0.0
 10
-0.2699015748031496
 20
1.0363543307086616
 30
0.0
 10
-0.2928425196850394
 20
1.0636692913385828
 30
0.0
 10
-0.2928425196850394
 20
1.0636692913385828
 30
0.0
 10
-0.2928425196850394
 20
1.0636692913385828
 30
0.0
 10
-0.2928425196850394
 20
1.0636692913385828
 30
0.0
 10
-0.3171023622047244
 20
1.0898464566929134
 30
0.0
 10
-0.3171023622047244
 20
1.0898464566929134
 30
0.0
 10
-0.3171023622047244
 20
1.0898464566929134
 30
0.0
 10
-0.3171023622047244
 20
1.0898464566929134
 30
0.0
 10
-0.3426338582677165
 20
1.1148149606299214
 30
0.0
 10
-0.3426338582677165
 20
1.1148149606299214
 30
0.0
 10
-0.3426338582677165
 20
1.1148149606299214
 30
0.0
 10
-0.3426338582677165
 20
1.1148149606299214
 30
0.0
 10
-0.3694173228346457
 20
1.1385433070866142
 30
0.0
 10
-0.3694173228346457
 20
1.1385433070866142
 30
0.0
 10
-0.3694173228346457
 20
1.1385433070866142
 30
0.0
 10
-0.3694173228346457
 20
1.1385433070866142
 30
0.0
 10
-0.3974133858267717
 20
1.1609685039370079
 30
0.0
 10
-0.3974133858267717
 20
1.1609685039370079
 30
0.0
 10
-0.3974133858267717
 20
1.1609685039370079
 30
0.0
 10
-0.3974133858267717
 20
1.1609685039370079
 30
0.0
 10
-0.4265944881889764
 20
1.1820551181102363
 30
0.0
 10
-0.4265944881889764
 20
1.1820551181102363
 30
0.0
 10
-0.4265944881889764
 20
1.1820551181102363
 30
0.0
 10
-0.4265944881889764
 20
1.1820551181102363
 30
0.0
 10
-0.4569094488188977
 20
1.2017362204724409
 30
0.0
 10
-0.4569094488188977
 20
1.2017362204724409
 30
0.0
 10
-0.4569094488188977
 20
1.2017362204724409
 30
0.0
 10
-0.4569094488188977
 20
1.2017362204724409
 30
0.0
 10
-0.4883425196850394
 20
1.219972440944882
 30
0.0
 10
-0.4883425196850394
 20
1.219972440944882
 30
0.0
 10
-0.4883425196850394
 20
1.219972440944882
 30
0.0
 10
-0.4883425196850394
 20
1.219972440944882
 30
0.0
 10
-0.5208503937007875
 20
1.2367086614173228
 30
0.0
 10
-0.5208503937007875
 20
1.2367086614173228
 30
0.0
 10
-0.5208503937007875
 20
1.2367086614173228
 30
0.0
 10
-0.5208503937007875
 20
1.2367086614173228
 30
0.0
 10
-0.5544015748031497
 20
1.2519015748031497
 30
0.0
 10
-0.5544015748031497
 20
1.2519015748031497
 30
0.0
 10
-0.5544015748031497
 20
1.2519015748031497
 30
0.0
 10
-0.5544015748031497
 20
1.2519015748031497
 30
0.0
 10
-0.5889527559055119
 20
1.265488188976378
 30
0.0
 10
-0.5889527559055119
 20
1.265488188976378
 30
0.0
 10
-0.5889527559055119
 20
1.265488188976378
 30
0.0
 10
-0.5889527559055119
 20
1.265488188976378
 30
0.0
 10
-0.62448031496063
 20
1.2774291338582677
 30
0.0
 10
-0.62448031496063
 20
1.2774291338582677
 30
0.0
 10
-0.62448031496063
 20
1.2774291338582677
 30
0.0
 10
-0.62448031496063
 20
1.2774291338582677
 30
0.0
 10
-0.6609448818897639
 20
1.2876692913385828
 30
0.0
 10
-0.6609448818897639
 20
1.2876692913385828
 30
0.0
 10
-0.6609448818897639
 20
1.2876692913385828
 30
0.0
 10
-0.6609448818897639
 20
1.2876692913385828
 30
0.0
 10
-0.6983228346456694
 20
1.2961653543307088
 30
0.0
 10
-0.6983228346456694
 20
1.2961653543307088
 30
0.0
 10
-0.6983228346456694
 20
1.2961653543307088
 30
0.0
 10
-0.6983228346456694
 20
1.2961653543307088
 30
0.0
 10
-0.7365590551181103
 20
1.3028543307086615
 30
0.0
 10
-0.7365590551181103
 20
1.3028543307086615
 30
0.0
 10
-0.7365590551181103
 20
1.3028543307086615
 30
0.0
 10
-0.7365590551181103
 20
1.3028543307086615
 30
0.0
 10
-0.7756377952755906
 20
1.3077007874015749
 30
0.0
 10
-0.7756377952755906
 20
1.3077007874015749
 30
0.0
 10
-0.7756377952755906
 20
1.3077007874015749
 30
0.0
 10
-0.7756377952755906
 20
1.3077007874015749
 30
0.0
 10
-0.8155157480314961
 20
1.3106417322834647
 30
0.0
 10
-0.8155157480314961
 20
1.3106417322834647
 30
0.0
 10
-0.8155157480314961
 20
1.3106417322834647
 30
0.0
 10
-0.8155157480314961
 20
1.3106417322834647
 30
0.0
 10
-0.8561653543307087
 20
1.3116377952755907
 30
0.0
 10
-0.8561653543307087
 20
1.3116377952755907
 30
0.0
 10
-0.8561653543307087
 20
1.3116377952755907
 30
0.0
 10
-0.8561653543307087
 20
1.3116377952755907
 30
0.0
 10
-0.8561653543307087
 20
1.5616377952755907
 30
0.0
 10
-0.8561653543307087
 20
1.5616377952755907
 30
0.0
 10
-0.8561653543307087
 20
1.5616377952755907
 30
0.0
 10
-0.8561653543307087
 20
1.5616377952755907
 30
0.0
 10
-1.4955196850393702
 20
1.1752834645669292
 30
0.0
 10
-1.4955196850393702
 20
1.1752834645669292
 30
0.0
 10
-1.4955196850393702
 20
1.1752834645669292
 30
0.0
 10
-1.4955196850393702
 20
1.1752834645669292
 30
0.0
 10
-1.4955196850393702
 20
0.9252834645669291
 30
0.0
 10
-1.4955196850393702
 20
0.9252834645669291
 30
0.0
 10
-1.4955196850393702
 20
0.9252834645669291
 30
0.0
 10
-1.4955196850393702
 20
0.9252834645669291
 30
0.0
 10
-1.4548700787401576
 20
0.9242874015748032
 30
0.0
 10
-1.4548700787401576
 20
0.9242874015748032
 30
0.0
 10
-1.4548700787401576
 20
0.9242874015748032
 30
0.0
 10
-1.4548700787401576
 20
0.9242874015748032
 30
0.0
 10
-1.4149921259842519
 20
0.9213464566929134
 30
0.0
 10
-1.4149921259842519
 20
0.9213464566929134
 30
0.0
 10
-1.4149921259842519
 20
0.9213464566929134
 30
0.0
 10
-1.4149921259842519
 20
0.9213464566929134
 30
0.0
 10
-1.3759133858267718
 20
0.9165
 30
0.0
 10
-1.3759133858267718
 20
0.9165
 30
0.0
 10
-1.3759133858267718
 20
0.9165
 30
0.0
 10
-1.3759133858267718
 20
0.9165
 30
0.0
 10
-1.3376771653543307
 20
0.9098110236220472
 30
0.0
 10
-1.3376771653543307
 20
0.9098110236220472
 30
0.0
 10
-1.3376771653543307
 20
0.9098110236220472
 30
0.0
 10
-1.3376771653543307
 20
0.9098110236220472
 30
0.0
 10
-1.3002992125984252
 20
0.9013149606299213
 30
0.0
 10
-1.3002992125984252
 20
0.9013149606299213
 30
0.0
 10
-1.3002992125984252
 20
0.9013149606299213
 30
0.0
 10
-1.3002992125984252
 20
0.9013149606299213
 30
0.0
 10
-1.2638346456692915
 20
0.8910748031496063
 30
0.0
 10
-1.2638346456692915
 20
0.8910748031496063
 30
0.0
 10
-1.2638346456692915
 20
0.8910748031496063
 30
0.0
 10
-1.2638346456692915
 20
0.8910748031496063
 30
0.0
 10
-1.2283070866141732
 20
0.8791338582677166
 30
0.0
 10
-1.2283070866141732
 20
0.8791338582677166
 30
0.0
 10
-1.2283070866141732
 20
0.8791338582677166
 30
0.0
 10
-1.2283070866141732
 20
0.8791338582677166
 30
0.0
 10
-1.193755905511811
 20
0.8655472440944882
 30
0.0
 10
-1.193755905511811
 20
0.8655472440944882
 30
0.0
 10
-1.193755905511811
 20
0.8655472440944882
 30
0.0
 10
-1.193755905511811
 20
0.8655472440944882
 30
0.0
 10
-1.1602047244094489
 20
0.8503543307086614
 30
0.0
 10
-1.1602047244094489
 20
0.8503543307086614
 30
0.0
 10
-1.1602047244094489
 20
0.8503543307086614
 30
0.0
 10
-1.1602047244094489
 20
0.8503543307086614
 30
0.0
 10
-1.1276968503937008
 20
0.8336181102362205
 30
0.0
 10
-1.1276968503937008
 20
0.8336181102362205
 30
0.0
 10
-1.1276968503937008
 20
0.8336181102362205
 30
0.0
 10
-1.1276968503937008
 20
0.8336181102362205
 30
0.0
 10
-1.0962637795275592
 20
0.8153818897637796
 30
0.0
 10
-1.0962637795275592
 20
0.8153818897637796
 30
0.0
 10
-1.0962637795275592
 20
0.8153818897637796
 30
0.0
 10
-1.0962637795275592
 20
0.8153818897637796
 30
0.0
 10
-1.0659488188976378
 20
0.7957007874015748
 30
0.0
 10
-1.0659488188976378
 20
0.7957007874015748
 30
0.0
 10
-1.0659488188976378
 20
0.7957007874015748
 30
0.0
 10
-1.0659488188976378
 20
0.7957007874015748
 30
0.0
 10
-1.0367677165354332
 20
0.7746141732283465
 30
0.0
 10
-1.0367677165354332
 20
0.7746141732283465
 30
0.0
 10
-1.0367677165354332
 20
0.7746141732283465
 30
0.0
 10
-1.0367677165354332
 20
0.7746141732283465
 30
0.0
 10
-1.0087716535433071
 20
0.7521889763779528
 30
0.0
 10
-1.0087716535433071
 20
0.7521889763779528
 30
0.0
 10
-1.0087716535433071
 20
0.7521889763779528
 30
0.0
 10
-1.0087716535433071
 20
0.7521889763779528
 30
0.0
 10
-0.981988188976378
 20
0.7284606299212598
 30
0.0
 10
-0.981988188976378
 20
0.7284606299212598
 30
0.0
 10
-0.981988188976378
 20
0.7284606299212598
 30
0.0
 10
-0.981988188976378
 20
0.7284606299212598
 30
0.0
 10
-0.9564566929133859
 20
0.703492125984252
 30
0.0
 10
-0.9564566929133859
 20
0.703492125984252
 30
0.0
 10
-0.9564566929133859
 20
0.703492125984252
 30
0.0
 10
-0.9564566929133859
 20
0.703492125984252
 30
0.0
 10
-0.9321968503937008
 20
0.6773149606299213
 30
0.0
 10
-0.9321968503937008
 20
0.6773149606299213
 30
0.0
 10
-0.9321968503937008
 20
0.6773149606299213
 30
0.0
 10
-0.9321968503937008
 20
0.6773149606299213
 30
0.0
 10
-0.909255905511811
 20
0.65
 30
0.0
 10
-0.909255905511811
 20
0.65
 30
0.0
 10
-0.909255905511811
 20
0.65
 30
0.0
 10
-0.909255905511811
 20
0.65
 30
0.0
 10
-0.8876653543307087
 20
0.6215826771653543
 30
0.0
 10
-0.8876653543307087
 20
0.6215826771653543
 30
0.0
 10
-0.8876653543307087
 20
0.6215826771653543
 30
0.0
 10
-0.8876653543307087
 20
0.6215826771653543
 30
0.0
 10
-0.8674645669291339
 20
0.5921259842519685
 30
0.0
 10
-0.8674645669291339
 20
0.5921259842519685
 30
0.0
 10
-0.8674645669291339
 20
0.5921259842519685
 30
0.0
 10
-0.8674645669291339
 20
0.5921259842519685
 30
0.0
 10
-0.8486771653543307
 20
0.5616614173228347
 30
0.0
 10
-0.8486771653543307
 20
0.5616614173228347
 30
0.0
 10
-0.8486771653543307
 20
0.5616614173228347
 30
0.0
 10
-0.8486771653543307
 20
0.5616614173228347
 30
0.0
 10
-0.8313464566929134
 20
0.5302637795275591
 30
0.0
 10
-0.8313464566929134
 20
0.5302637795275591
 30
0.0
 10
-0.8313464566929134
 20
0.5302637795275591
 30
0.0
 10
-0.8313464566929134
 20
0.5302637795275591
 30
0.0
 10
-0.8155
 20
0.4979685039370079
 30
0.0
 10
-0.8155
 20
0.4979685039370079
 30
0.0
 10
-0.8155
 20
0.4979685039370079
 30
0.0
 10
-0.8155
 20
0.4979685039370079
 30
0.0
 10
-0.8011811023622047
 20
0.4648267716535433
 30
0.0
 10
-0.8011811023622047
 20
0.4648267716535433
 30
0.0
 10
-0.8011811023622047
 20
0.4648267716535433
 30
0.0
 10
-0.8011811023622047
 20
0.4648267716535433
 30
0.0
 10
-0.7884094488188976
 20
0.4308858267716536
 30
0.0
 10
-0.7884094488188976
 20
0.4308858267716536
 30
0.0
 10
-0.7884094488188976
 20
0.4308858267716536
 30
0.0
 10
-0.7884094488188976
 20
0.4308858267716536
 30
0.0
 10
-0.777236220472441
 20
0.3962047244094488
 30
0.0
 10
-0.777236220472441
 20
0.3962047244094488
 30
0.0
 10
-0.777236220472441
 20
0.3962047244094488
 30
0.0
 10
-0.777236220472441
 20
0.3962047244094488
 30
0.0
 10
-0.7676850393700788
 20
0.3608228346456693
 30
0.0
 10
-0.7676850393700788
 20
0.3608228346456693
 30
0.0
 10
-0.7676850393700788
 20
0.3608228346456693
 30
0.0
 10
-0.7676850393700788
 20
0.3608228346456693
 30
0.0
 10
-0.7598031496062992
 20
0.3248070866141732
 30
0.0
 10
-0.7598031496062992
 20
0.3248070866141732
 30
0.0
 10
-0.7598031496062992
 20
0.3248070866141732
 30
0.0
 10
-0.7598031496062992
 20
0.3248070866141732
 30
0.0
 10
-0.7536023622047244
 20
0.2881889763779528
 30
0.0
 10
-0.7536023622047244
 20
0.2881889763779528
 30
0.0
 10
-0.7536023622047244
 20
0.2881889763779528
 30
0.0
 10
-0.7536023622047244
 20
0.2881889763779528
 30
0.0
 10
-0.7491377952755906
 20
0.2510275590551181
 30
0.0
 10
-0.7491377952755906
 20
0.2510275590551181
 30
0.0
 10
-0.7491377952755906
 20
0.2510275590551181
 30
0.0
 10
-0.7491377952755906
 20
0.2510275590551181
 30
0.0
 10
-0.7464291338582677
 20
0.2133740157480315
 30
0.0
 10
-0.7464291338582677
 20
0.2133740157480315
 30
0.0
 10
-0.7464291338582677
 20
0.2133740157480315
 30
0.0
 10
-0.7464291338582677
 20
0.2133740157480315
 30
0.0
 10
-0.7455236220472441
 20
0.1752834645669291
 30
0.0
 10
-0.7455236220472441
 20
0.1752834645669291
 30
0.0
  0
SPLINE
  5
70
100
AcDbEntity
  8
P1-Layer 1
 62
   253
100
AcDbSpline
210
0.0
220
0.0
230
1.0
 70
     1
 71
     3
 72
    20
 73
    16
 74
     0
 42
0.0000000001
 43
0.0000000001
 40
0.0
 40
0.0
 40
0.0
 40
0.0
 40
0.25
 40
0.25
 40
0.25
 40
0.25
 40
0.5
 40
0.5
 40
0.5
 40
0.5
 40
0.75
 40
0.75
 40
0.75
 40
0.75
 40
1.0
 40
1.0
 40
1.0
 40
1.0
 10
-1.4955196850393702
 20
1.1752834645669292
 30
0.0
 10
-1.4955196850393702
 20
1.1752834645669292
 30
0.0
 10
-0.8561653543307087
 20
1.5616377952755907
 30
0.0
 10
-0.8561653543307087
 20
1.5616377952755907
 30
0.0
 10
-0.8561653543307087
 20
1.5616377952755907
 30
0.0
 10
-0.8561653543307087
 20
1.5616377952755907
 30
0.0
 10
-1.2311653543307086
 20
1.5616377952755907
 30
0.0
 10
-1.2311653543307086
 20
1.5616377952755907
 30
0.0
 10
-1.2311653543307086
 20
1.5616377952755907
 30
0.0
 10
-1.2311653543307086
 20
1.5616377952755907
 30
0.0
 10
-1.8705196850393702
 20
1.1752834645669292
 30
0.0
 10
-1.8705196850393702
 20
1.1752834645669292
 30
0.0
 10
-1.8705196850393702
 20
1.1752834645669292
 30
0.0
 10
-1.8705196850393702
 20
1.1752834645669292
 30
0.0
 10
-1.4955196850393702
 20
1.1752834645669292
 30
0.0
 10
-1.4955196850393702
 20
1.1752834645669292
 30
0.0
  0
SPLINE
  5
71
100
AcDbEntity
  8
P1-Layer 1
370
     5
100
AcDbSpline
210
0.0
220
0.0
230
1.0
 70
     1
 71
     3
 72
    20
 73
    16
 74
     0
 42
0.0000000001
 43
0.0000000001
 40
0.0
 40
0.0
 40
0.0
 40
0.0
 40
0.25
 40
0.25
 40
0.25
 40
0.25
 40
0.5
 40
0.5
 40
0.5
 40
0.5
 40
0.75
 40
0.75
 40
0.75
 40
0.75
 40
1.0
 40
1.0
 40
1.0
 40
1.0
 10
-1.4955196850393702
 20
1.1752834645669292
 30
0.0
 10
-1.4955196850393702
 20
1.1752834645669292
 30
0.0
 10
-0.8561653543307087
 20
1.5616377952755907
 30
0.0
 10
-0.8561653543307087
 20
1.5616377952755907
 30
0.0
 10
-0.8561653543307087
 20
1.5616377952755907
 30
0.0
 10
-0.8561653543307087
 20
1.5616377952755907
 30
0.0
 10
-1.2311653543307086
 20
1.5616377952755907
 30
0.0
 10
-1.2311653543307086
 20
1.5616377952755907
 30
0.0
 10
-1.2311653543307086
 20
1.5616377952755907
 30
0.0
 10
-1.2311653543307086
 20
1.5616377952755907
 30
0.0
 10
-1.8705196850393702
 20
1.1752834645669292
 30
0.0
 10
-1.8705196850393702
 20
1.1752834645669292
 30
0.0
 10
-1.8705196850393702
 20
1.1752834645669292
 30
0.0
 10
-1.8705196850393702
 20
1.1752834645669292
 30
0.0
 10
-1.4955196850393702
 20
1.1752834645669292
 30
0.0
 10
-1.4955196850393702
 20
1.1752834645669292
 30
0.0
  0
SPLINE
  5
72
100
AcDbEntity
  8
P1-Layer 1
370
     5
 62
     7
100
AcDbSpline
210
0.0
220
0.0
230
1.0
 70
     1
 71
     3
 72
    24
 73
    20
 74
     0
 42
0.0000000001
 43
0.0000000001
 40
0.0
 40
0.0
 40
0.0
 40
0.0
 40
0.2
 40
0.2
 40
0.2
 40
0.2
 40
0.4
 40
0.4
 40
0.4
 40
0.4
 40
0.6000000000000001
 40
0.6000000000000001
 40
0.6000000000000001
 40
0.6000000000000001
 40
0.8
 40
0.8
 40
0.8
 40
0.8
 40
1.0
 40
1.0
 40
1.0
 40
1.0
 10
-0.7455236220472441
 20
0.1752834645669291
 30
0.0
 10
-0.7455236220472441
 20
0.5838464566929135
 30
0.0
 10
-1.0580196850393702
 20
0.9252834645669291
 30
0.0
 10
-1.4955196850393702
 20
0.9252834645669291
 30
0.0
 10
-1.4955196850393702
 20
0.9252834645669291
 30
0.0
 10
-1.4955196850393702
 20
0.9252834645669291
 30
0.0
 10
-1.4955196850393702
 20
1.1752834645669292
 30
0.0
 10
-1.4955196850393702
 20
1.1752834645669292
 30
0.0
 10
-1.4955196850393702
 20
1.1752834645669292
 30
0.0
 10
-1.4955196850393702
 20
1.1752834645669292
 30
0.0
 10
-1.8705196850393702
 20
1.1752834645669292
 30
0.0
 10
-1.8705196850393702
 20
1.1752834645669292
 30
0.0
 10
-1.8705196850393702
 20
1.1752834645669292
 30
0.0
 10
-1.8705196850393702
 20
1.1752834645669292
 30
0.0
 10
-1.8705196850393702
 20
0.1752834645669291
 30
0.0
 10
-1.8705196850393702
 20
0.1752834645669291
 30
0.0
 10
-1.8705196850393702
 20
0.1752834645669291
 30
0.0
 10
-1.8705196850393702
 20
0.1752834645669291
 30
0.0
 10
-0.7455236220472441
 20
0.1752834645669291
 30
0.0
 10
-0.7455236220472441
 20
0.1752834645669291
 30
0.0
  0
SPLINE
  5
73
100
AcDbEntity
  8
P1-Layer 1
 62
   253
100
AcDbSpline
210
0.0
220
0.0
230
1.0
 70
     1
 71
     3
 72
    20
 73
    16
 74
     0
 42
0.0000000001
 43
0.0000000001
 40
0.0
 40
0.0
 40
0.0
 40
0.0
 40
0.25
 40
0.25
 40
0.25
 40
0.25
 40
0.5
 40
0.5
 40
0.5
 40
0.5
 40
0.75
 40
0.75
 40
0.75
 40
0.75
 40
1.0
 40
1.0
 40
1.0
 40
1.0
 10
1.9168897637795277
 20
1.1752834645669292
 30
0.0
 10
1.9168897637795277
 20
1.1752834645669292
 30
0.0
 10
2.5632047244094491
 20
1.5534370078740158
 30
0.0
 10
2.5632047244094491
 20
1.5534370078740158
 30
0.0
 10
2.5632047244094491
 20
1.5534370078740158
 30
0.0
 10
2.5632047244094491
 20
1.5534370078740158
 30
0.0
 10
0.6882086614173228
 20
1.5534370078740158
 30
0.0
 10
0.6882086614173228
 20
1.5534370078740158
 30
0.0
 10
0.6882086614173228
 20
1.5534370078740158
 30
0.0
 10
0.6882086614173228
 20
1.5534370078740158
 30
0.0
 10
0.0418937007874016
 20
1.1752834645669292
 30
0.0
 10
0.0418937007874016
 20
1.1752834645669292
 30
0.0
 10
0.0418937007874016
 20
1.1752834645669292
 30
0.0
 10
0.0418937007874016
 20
1.1752834645669292
 30
0.0
 10
1.9168897637795277
 20
1.1752834645669292
 30
0.0
 10
1.9168897637795277
 20
1.1752834645669292
 30
0.0
  0
SPLINE
  5
74
100
AcDbEntity
  8
P1-Layer 1
370
     5
100
AcDbSpline
210
0.0
220
0.0
230
1.0
 70
     1
 71
     3
 72
    20
 73
    16
 74
     0
 42
0.0000000001
 43
0.0000000001
 40
0.0
 40
0.0
 40
0.0
 40
0.0
 40
0.25
 40
0.25
 40
0.25
 40
0.25
 40
0.5
 40
0.5
 40
0.5
 40
0.5
 40
0.75
 40
0.75
 40
0.75
 40
0.75
 40
1.0
 40
1.0
 40
1.0
 40
1.0
 10
1.9168897637795277
 20
1.1752834645669292
 30
0.0
 10
1.9168897637795277
 20
1.1752834645669292
 30
0.0
 10
2.5632047244094491
 20
1.5534370078740158
 30
0.0
 10
2.5632047244094491
 20
1.5534370078740158
 30
0.0
 10
2.5632047244094491
 20
1.5534370078740158
 30
0.0
 10
2.5632047244094491
 20
1.5534370078740158
 30
0.0
 10
0.6882086614173228
 20
1.5534370078740158
 30
0.0
 10
0.6882086614173228
 20
1.5534370078740158
 30
0.0
 10
0.6882086614173228
 20
1.5534370078740158
 30
0.0
 10
0.6882086614173228
 20
1.5534370078740158
 30
0.0
 10
0.0418937007874016
 20
1.1752834645669292
 30
0.0
 10
0.0418937007874016
 20
1.1752834645669292
 30
0.0
 10
0.0418937007874016
 20
1.1752834645669292
 30
0.0
 10
0.0418937007874016
 20
1.1752834645669292
 30
0.0
 10
1.9168897637795277
 20
1.1752834645669292
 30
0.0
 10
1.9168897637795277
 20
1.1752834645669292
 30
0.0
  0
SPLINE
  5
75
100
AcDbEntity
  8
P1-Layer 1
 62
     9
100
AcDbSpline
210
0.0
220
0.0
230
1.0
 70
     1
 71
     3
 72
    20
 73
    16
 74
     0
 42
0.0000000001
 43
0.0000000001
 40
0.0
 40
0.0
 40
0.0
 40
0.0
 40
0.25
 40
0.25
 40
0.25
 40
0.25
 40
0.5
 40
0.5
 40
0.5
 40
0.5
 40
0.75
 40
0.75
 40
0.75
 40
0.75
 40
1.0
 40
1.0
 40
1.0
 40
1.0
 10
1.9168897637795277
 20
0.1752834645669291
 30
0.0
 10
1.9168897637795277
 20
0.1752834645669291
 30
0.0
 10
2.5632047244094491
 20
0.5534370078740157
 30
0.0
 10
2.5632047244094491
 20
0.5534370078740157
 30
0.0
 10
2.5632047244094491
 20
0.5534370078740157
 30
0.0
 10
2.5632047244094491
 20
0.5534370078740157
 30
0.0
 10
2.5632047244094491
 20
1.5534370078740158
 30
0.0
 10
2.5632047244094491
 20
1.5534370078740158
 30
0.0
 10
2.5632047244094491
 20
1.5534370078740158
 30
0.0
 10
2.5632047244094491
 20
1.5534370078740158
 30
0.0
 10
1.9168897637795277
 20
1.1752834645669292
 30
0.0
 10
1.9168897637795277
 20
1.1752834645669292
 30
0.0
 10
1.9168897637795277
 20
1.1752834645669292
 30
0.0
 10
1.9168897637795277
 20
1.1752834645669292
 30
0.0
 10
1.9168897637795277
 20
0.1752834645669291
 30
0.0
 10
1.9168897637795277
 20
0.1752834645669291
 30
0.0
  0
SPLINE
  5
76
100
AcDbEntity
  8
P1-Layer 1
370
     5
100
AcDbSpline
210
0.0
220
0.0
230
1.0
 70
     1
 71
     3
 72
    20
 73
    16
 74
     0
 42
0.0000000001
 43
0.0000000001
 40
0.0
 40
0.0
 40
0.0
 40
0.0
 40
0.25
 40
0.25
 40
0.25
 40
0.25
 40
0.5
 40
0.5
 40
0.5
 40
0.5
 40
0.75
 40
0.75
 40
0.75
 40
0.75
 40
1.0
 40
1.0
 40
1.0
 40
1.0
 10
1.9168897637795277
 20
0.1752834645669291
 30
0.0
 10
1.9168897637795277
 20
0.1752834645669291
 30
0.0
 10
2.5632047244094491
 20
0.5534370078740157
 30
0.0
 10
2.5632047244094491
 20
0.5534370078740157
 30
0.0
 10
2.5632047244094491
 20
0.5534370078740157
 30
0.0
 10
2.5632047244094491
 20
0.5534370078740157
 30
0.0
 10
2.5632047244094491
 20
1.5534370078740158
 30
0.0
 10
2.5632047244094491
 20
1.5534370078740158
 30
0.0
 10
2.5632047244094491
 20
1.5534370078740158
 30
0.0
 10
2.5632047244094491
 20
1.5534370078740158
 30
0.0
 10
1.9168897637795277
 20
1.1752834645669292
 30
0.0
 10
1.9168897637795277
 20
1.1752834645669292
 30
0.0
 10
1.9168897637795277
 20
1.1752834645669292
 30
0.0
 10
1.9168897637795277
 20
1.1752834645669292
 30
0.0
 10
1.9168897637795277
 20
0.1752834645669291
 30
0.0
 10
1.9168897637795277
 20
0.1752834645669291
 30
0.0
  0
SPLINE
  5
77
100
AcDbEntity
  8
P1-Layer 1
 62
   253
100
AcDbSpline
210
0.0
220
0.0
230
1.0
 70
     1
 71
     3
 72
    20
 73
    16
 74
     0
 42
0.0000000001
 43
0.0000000001
 40
0.0
 40
0.0
 40
0.0
 40
0.0
 40
0.25
 40
0.25
 40
0.25
 40
0.25
 40
0.5
 40
0.5
 40
0.5
 40
0.5
 40
0.75
 40
0.75
 40
0.75
 40
0.75
 40
1.0
 40
1.0
 40
1.0
 40
1.0
 10
1.9168897637795277
 20
1.1752834645669292
 30
0.0
 10
1.9168897637795277
 20
1.1752834645669292
 30
0.0
 10
2.5632047244094491
 20
1.5534370078740158
 30
0.0
 10
2.5632047244094491
 20
1.5534370078740158
 30
0.0
 10
2.5632047244094491
 20
1.5534370078740158
 30
0.0
 10
2.5632047244094491
 20
1.5534370078740158
 30
0.0
 10
0.6882086614173228
 20
1.5534370078740158
 30
0.0
 10
0.6882086614173228
 20
1.5534370078740158
 30
0.0
 10
0.6882086614173228
 20
1.5534370078740158
 30
0.0
 10
0.6882086614173228
 20
1.5534370078740158
 30
0.0
 10
0.0418937007874016
 20
1.1752834645669292
 30
0.0
 10
0.0418937007874016
 20
1.1752834645669292
 30
0.0
 10
0.0418937007874016
 20
1.1752834645669292
 30
0.0
 10
0.0418937007874016
 20
1.1752834645669292
 30
0.0
 10
1.9168897637795277
 20
1.1752834645669292
 30
0.0
 10
1.9168897637795277
 20
1.1752834645669292
 30
0.0
  0
SPLINE
  5
78
100
AcDbEntity
  8
P1-Layer 1
370
     5
100
AcDbSpline
210
0.0
220
0.0
230
1.0
 70
     1
 71
     3
 72
    20
 73
    16
 74
     0
 42
0.0000000001
 43
0.0000000001
 40
0.0
 40
0.0
 40
0.0
 40
0.0
 40
0.25
 40
0.25
 40
0.25
 40
0.25
 40
0.5
 40
0.5
 40
0.5
 40
0.5
 40
0.75
 40
0.75
 40
0.75
 40
0.75
 40
1.0
 40
1.0
 40
1.0
 40
1.0
 10
1.9168897637795277
 20
1.1752834645669292
 30
0.0
 10
1.9168897637795277
 20
1.1752834645669292
 30
0.0
 10
2.5632047244094491
 20
1.5534370078740158
 30
0.0
 10
2.5632047244094491
 20
1.5534370078740158
 30
0.0
 10
2.5632047244094491
 20
1.5534370078740158
 30
0.0
 10
2.5632047244094491
 20
1.5534370078740158
 30
0.0
 10
0.6882086614173228
 20
1.5534370078740158
 30
0.0
 10
0.6882086614173228
 20
1.5534370078740158
 30
0.0
 10
0.6882086614173228
 20
1.5534370078740158
 30
0.0
 10
0.6882086614173228
 20
1.5534370078740158
 30
0.0
 10
0.0418937007874016
 20
1.1752834645669292
 30
0.0
 10
0.0418937007874016
 20
1.1752834645669292
 30
0.0
 10
0.0418937007874016
 20
1.1752834645669292
 30
0.0
 10
0.0418937007874016
 20
1.1752834645669292
 30
0.0
 10
1.9168897637795277
 20
1.1752834645669292
 30
0.0
 10
1.9168897637795277
 20
1.1752834645669292
 30
0.0
  0
SPLINE
  5
79
100
AcDbEntity
  8
P1-Layer 1
 62
     9
100
AcDbSpline
210
0.0
220
0.0
230
1.0
 70
     1
 71
     3
 72
    20
 73
    16
 74
     0
 42
0.0000000001
 43
0.0000000001
 40
0.0
 40
0.0
 40
0.0
 40
0.0
 40
0.25
 40
0.25
 40
0.25
 40
0.25
 40
0.5
 40
0.5
 40
0.5
 40
0.5
 40
0.75
 40
0.75
 40
0.75
 40
0.75
 40
1.0
 40
1.0
 40
1.0
 40
1.0
 10
1.9168897637795277
 20
0.1752834645669291
 30
0.0
 10
1.9168897637795277
 20
0.1752834645669291
 30
0.0
 10
2.5632047244094491
 20
0.5534370078740157
 30
0.0
 10
2.5632047244094491
 20
0.5534370078740157
 30
0.0
 10
2.5632047244094491
 20
0.5534370078740157
 30
0.0
 10
2.5632047244094491
 20
0.5534370078740157
 30
0.0
 10
2.5632047244094491
 20
1.5534370078740158
 30
0.0
 10
2.5632047244094491
 20
1.5534370078740158
 30
0.0
 10
2.5632047244094491
 20
1.5534370078740158
 30
0.0
 10
2.5632047244094491
 20
1.5534370078740158
 30
0.0
 10
1.9168897637795277
 20
1.1752834645669292
 30
0.0
 10
1.9168897637795277
 20
1.1752834645669292
 30
0.0
 10
1.9168897637795277
 20
1.1752834645669292
 30
0.0
 10
1.9168897637795277
 20
1.1752834645669292
 30
0.0
 10
1.9168897637795277
 20
0.1752834645669291
 30
0.0
 10
1.9168897637795277
 20
0.1752834645669291
 30
0.0
  0
SPLINE
  5
7A
100
AcDbEntity
  8
P1-Layer 1
370
     5
100
AcDbSpline
210
0.0
220
0.0
230
1.0
 70
     1
 71
     3
 72
    20
 73
    16
 74
     0
 42
0.0000000001
 43
0.0000000001
 40
0.0
 40
0.0
 40
0.0
 40
0.0
 40
0.25
 40
0.25
 40
0.25
 40
0.25
 40
0.5
 40
0.5
 40
0.5
 40
0.5
 40
0.75
 40
0.75
 40
0.75
 40
0.75
 40
1.0
 40
1.0
 40
1.0
 40
1.0
 10
1.9168897637795277
 20
0.1752834645669291
 30
0.0
 10
1.9168897637795277
 20
0.1752834645669291
 30
0.0
 10
2.5632047244094491
 20
0.5534370078740157
 30
0.0
 10
2.5632047244094491
 20
0.5534370078740157
 30
0.0
 10
2.5632047244094491
 20
0.5534370078740157
 30
0.0
 10
2.5632047244094491
 20
0.5534370078740157
 30
0.0
 10
2.5632047244094491
 20
1.5534370078740158
 30
0.0
 10
2.5632047244094491
 20
1.5534370078740158
 30
0.0
 10
2.5632047244094491
 20
1.5534370078740158
 30
0.0
 10
2.5632047244094491
 20
1.5534370078740158
 30
0.0
 10
1.9168897637795277
 20
1.1752834645669292
 30
0.0
 10
1.9168897637795277
 20
1.1752834645669292
 30
0.0
 10
1.9168897637795277
 20
1.1752834645669292
 30
0.0
 10
1.9168897637795277
 20
1.1752834645669292
 30
0.0
 10
1.9168897637795277
 20
0.1752834645669291
 30
0.0
 10
1.9168897637795277
 20
0.1752834645669291
 30
0.0
  0
SPLINE
  5
7B
100
AcDbEntity
  8
P1-Layer 1
370
     5
 62
     7
100
AcDbSpline
210
0.0
220
0.0
230
1.0
 70
     1
 71
     3
 72
    24
 73
    20
 74
     0
 42
0.0000000001
 43
0.0000000001
 40
0.0
 40
0.0
 40
0.0
 40
0.0
 40
0.2
 40
0.2
 40
0.2
 40
0.2
 40
0.4
 40
0.4
 40
0.4
 40
0.4
 40
0.6000000000000001
 40
0.6000000000000001
 40
0.6000000000000001
 40
0.6000000000000001
 40
0.8
 40
0.8
 40
0.8
 40
0.8
 40
1.0
 40
1.0
 40
1.0
 40
1.0
 10
1.9168897637795277
 20
1.1752834645669292
 30
0.0
 10
1.9168897637795277
 20
1.1752834645669292
 30
0.0
 10
0.0418937007874016
 20
1.1752834645669292
 30
0.0
 10
0.0418937007874016
 20
1.1752834645669292
 30
0.0
 10
0.0418937007874016
 20
1.1752834645669292
 30
0.0
 10
0.0418937007874016
 20
1.1752834645669292
 30
0.0
 10
0.0418937007874016
 20
0.9252834645669291
 30
0.0
 10
0.0418937007874016
 20
0.9252834645669291
 30
0.0
 10
0.0418937007874016
 20
0.9252834645669291
 30
0.0
 10
0.4793937007874016
 20
0.9252834645669291
 30
0.0
 10
0.7918897637795276
 20
0.5838464566929135
 30
0.0
 10
0.7918897637795276
 20
0.1752834645669291
 30
0.0
 10
0.7918897637795276
 20
0.1752834645669291
 30
0.0
 10
0.7918897637795276
 20
0.1752834645669291
 30
0.0
 10
1.9168897637795277
 20
0.1752834645669291
 30
0.0
 10
1.9168897637795277
 20
0.1752834645669291
 30
0.0
 10
1.9168897637795277
 20
0.1752834645669291
 30
0.0
 10
1.9168897637795277
 20
0.1752834645669291
 30
0.0
 10
1.9168897637795277
 20
1.1752834645669292
 30
0.0
 10
1.9168897637795277
 20
1.1752834645669292
 30
0.0
  0
TEXT
  5
7C
100
AcDbEntity
  8
P1-Layer 1
100
AcDbText
 10
-0.266543
 20
-0.061921
 30
0.0
 40
0.119999
  1
BA  1542A & B
 51
-0.000002
  7
Bookman Old Style
100
AcDbText
  0
TEXT
  5
7D
100
AcDbEntity
  8
P1-Layer 1
100
AcDbText
 10
0.265083
 20
-0.249421
 30
0.0
 40
0.119999
  1
1\u+201d
 51
-0.000002
  7
Bookman Old Style
100
AcDbText
  0
TEXT
  5
7E
100
AcDbEntity
  8
P1-Layer 1
100
AcDbText
 10
-0.342303
 20
2.115665
 30
0.0
 40
0.119999
  1
Stick & Cope
 51
-0.000002
  7
Bookman Old Style
100
AcDbText
  0
ENDSEC
  0
SECTION
  2
OBJECTS
  0
DICTIONARY
  5
19
100
AcDbDictionary
280
     0
281
     1
  3
ACAD_GROUP
350
1A
  3
ACAD_MLINESTYLE
350
1B
  3
ACAD_LAYOUT
350
1E
  3
ACAD_PLOTSETTINGS
350
22
  3
ACAD_PLOTSTYLENAME
350
1F
  3
ACAD_WIPEOUT_VARS
350
23
  0
DICTIONARY
  5
1A
102
{ACAD_REACTORS
330
19
102
}
100
AcDbDictionary
280
     0
281
     1
  0
DICTIONARY
  5
1B
102
{ACAD_REACTORS
330
19
102
}
100
AcDbDictionary
280
     0
281
     1
  3
Standard
350
1C
  0
MLINESTYLE
  5
1C
102
{ACAD_REACTORS
330
1B
102
}
100
AcDbMlineStyle
  2
Standard
 70
     0
  3

 62
     0
 51
90.0
 52
90.0
 71
     2
 49
0.5
 62
   256
  6
BYLAYER
 49
-0.5
 62
   256
  6
BYLAYER
  0
ACDBDICTIONARYWDFLT
  5
1F
102
{ACAD_REACTORS
330
19
102
}
100
AcDbDictionary
281
     1
  3
Normal
350
1D
100
AcDbDictionaryWithDefault
340
1D
  0
ACDBPLACEHOLDER
  5
1D
102
{ACAD_REACTORS
330
1F
102
}
  0
LAYOUT
  5
20
102
{ACAD_REACTORS
330
1E
102
}
100
AcDbPlotSettings
  1

  2

  4

  6

 40
0.0
 41
0.0
 42
0.0
 43
0.0
 44
0.0
 45
0.0
 46
0.0
 47
0.0
 48
0.0
 49
0.0
140
0.0
141
0.0
142
1.0
143
1.0
 70
  1024
 72
     0
 73
     0
 74
     0
  7

 75
     0
147
1.0
148
0.0
149
0.0
100
AcDbLayout
  1
Model
 70
     0
 71
     0
 10
0.0
 20
0.0
 11
0.0
 21
0.0
 12
0.0
 22
0.0
 32
0.0
 14
0.0
 24
0.0
 34
0.0
 15
0.0
 25
0.0
 35
0.0
146
0.0
 13
0.0
 23
0.0
 33
0.0
 16
0.0
 26
0.0
 36
0.0
 17
0.0
 27
0.0
 37
0.0
 76
     0
330
A
331
0
345
0
346
0
  0
LAYOUT
  5
21
102
{ACAD_REACTORS
330
1E
102
}
100
AcDbPlotSettings
  1

  2

  4

  6

 40
0.0
 41
0.0
 42
0.0
 43
0.0
 44
0.0
 45
0.0
 46
0.0
 47
0.0
 48
0.0
 49
0.0
140
0.0
141
0.0
142
1.0
143
1.0
 70
     0
 72
     0
 73
     0
 74
     0
  7

 75
     0
147
1.0
148
0.0
149
0.0
100
AcDbLayout
  1
Layout1
 70
     0
 71
     0
 10
0.0
 20
0.0
 11
0.0
 21
0.0
 12
0.0
 22
0.0
 32
0.0
 14
0.0
 24
0.0
 34
0.0
 15
0.0
 25
0.0
 35
0.0
146
0.0
 13
0.0
 23
0.0
 33
0.0
 16
0.0
 26
0.0
 36
0.0
 17
0.0
 27
0.0
 37
0.0
 76
     0
330
B
331
0
345
0
346
0
  0
DICTIONARY
  5
1E
102
{ACAD_REACTORS
330
19
102
}
100
AcDbDictionary
280
     0
281
     1
  3
Layout1
350
21
  3
Model
350
20
  0
DICTIONARY
  5
22
102
{ACAD_REACTORS
330
19
102
}
100
AcDbDictionary
280
     0
281
     1
  0
WIPEOUTVARIABLES
  5
23
100
AcDbWipeoutVariables
 70
     1
  0
ENDSEC
  0
EOF
