  0
SECTION
  2
HEADER
  9
$ACADVER
  1
AC1015
  9
$ACADMAINTVER
 70
     6
  9
$DWGCODEPAGE
  3
DOS850
  9
$INSBASE
 10
0.0
 20
0.0
 30
0.0
  9
$EXTMIN
 10
-3.856063
 20
-2.605362
 30
1.000000E+20
  9
$EXTMAX
 10
3.768583
 20
3.135445
 30
-1.000000E+20
  9
$LIMMIN
 10
0.0
 20
0.0
  9
$LIMMAX
 10
0.0
 20
0.0
  9
$ORTHOMODE
 70
     0
  9
$REGENMODE
 70
     1
  9
$FILLMODE
 70
     1
  9
$QTEXTMODE
 70
     0
  9
$MIRRTEXT
 70
     1
  9
$LTSCALE
 40
1.0
  9
$ATTMODE
 70
     1
  9
$TEXTSIZE
 40
0.2
  9
$TRACEWID
 40
0.05
  9
$TEXTSTYLE
  7
Standard
  9
$CLAYER
  8
0
  9
$CELTYPE
  6
Continuous
  9
$CECOLOR
 62
   256
  9
$CELTSCALE
 40
1.0
  9
$DISPSILH
 70
     0
  9
$DIMSCALE
 40
1.0
  9
$DIMASZ
 40
0.18
  9
$DIMEXO
 40
0.0625
  9
$DIMDLI
 40
0.38
  9
$DIMRND
 40
0.0
  9
$DIMDLE
 40
0.0
  9
$DIMEXE
 40
0.18
  9
$DIMTP
 40
0.0
  9
$DIMTM
 40
0.0
  9
$DIMTXT
 40
0.18
  9
$DIMCEN
 40
0.09
  9
$DIMTSZ
 40
0.0
  9
$DIMTOL
 70
     0
  9
$DIMLIM
 70
     0
  9
$DIMTIH
 70
     1
  9
$DIMTOH
 70
     1
  9
$DIMSE1
 70
     0
  9
$DIMSE2
 70
     0
  9
$DIMTAD
 70
     0
  9
$DIMZIN
 70
     0
  9
$DIMBLK
  1

  9
$DIMASO
 70
     1
  9
$DIMSHO
 70
     1
  9
$DIMPOST
  1

  9
$DIMAPOST
  1

  9
$DIMALT
 70
     0
  9
$DIMALTD
 70
     2
  9
$DIMALTF
 40
25.4
  9
$DIMLFAC
 40
1.0
  9
$DIMTOFL
 70
     0
  9
$DIMTVP
 40
0.0
  9
$DIMTIX
 70
     0
  9
$DIMSOXD
 70
     0
  9
$DIMSAH
 70
     0
  9
$DIMBLK1
  1

  9
$DIMBLK2
  1

  9
$DIMSTYLE
  2
Standard
  9
$DIMCLRD
 70
     0
  9
$DIMCLRE
 70
     0
  9
$DIMCLRT
 70
     0
  9
$DIMTFAC
 40
1.0
  9
$DIMGAP
 40
0.09
  9
$DIMJUST
 70
     0
  9
$DIMSD1
 70
     0
  9
$DIMSD2
 70
     0
  9
$DIMTOLJ
 70
     1
  9
$DIMTZIN
 70
     0
  9
$DIMALTZ
 70
     0
  9
$DIMALTTZ
 70
     0
  9
$DIMUPT
 70
     0
  9
$DIMDEC
 70
     4
  9
$DIMTDEC
 70
     4
  9
$DIMALTU
 70
     2
  9
$DIMALTTD
 70
     2
  9
$DIMTXSTY
  7
Standard
  9
$DIMAUNIT
 70
     0
  9
$DIMADEC
 70
     0
  9
$DIMALTRND
 40
0.0
  9
$DIMAZIN
 70
     0
  9
$DIMDSEP
 70
     0
  9
$DIMATFIT
 70
     3
  9
$DIMFRAC
 70
     0
  9
$DIMLDRBLK
  1

  9
$DIMLUNIT
 70
     2
  9
$DIMLWD
 70
     0
  9
$DIMLWE
 70
     0
  9
$DIMTMOVE
 70
     0
  9
$LUNITS
 70
     2
  9
$LUPREC
 70
     4
  9
$SKETCHINC
 40
0.1
  9
$FILLETRAD
 40
0.0
  9
$AUNITS
 70
     0
  9
$AUPREC
 70
     0
  9
$MENU
  1
acad
  9
$ELEVATION
 40
0.0
  9
$PELEVATION
 40
0.0
  9
$THICKNESS
 40
0.0
  9
$LIMCHECK
 70
     0
  9
$CHAMFERA
 40
0.0
  9
$CHAMFERB
 40
0.0
  9
$CHAMFERC
 40
0.0
  9
$CHAMFERD
 40
0.0
  9
$SKPOLY
 70
     0
  9
$TDCREATE
 40
0.000000000
  9
$TDUCREATE
 40
0.000000000
  9
$TDUPDATE
 40
0.000000000
  9
$TDUUPDATE
 40
0.000000000
  9
$TDINDWG
 40
0.0000000000
  9
$TDUSRTIMER
 40
0.0000000000
  9
$USRTIMER
 70
     1
  9
$ANGBASE
 50
0.0
  9
$ANGDIR
 70
     0
  9
$PDMODE
 70
     0
  9
$PDSIZE
 40
0.0
  9
$PLINEWID
 40
0.0
  9
$SPLFRAME
 70
     0
  9
$SPLINETYPE
 70
     6
  9
$SPLINESEGS
 70
     8
  9
$HANDSEED
  5
6B
  9
$SURFTAB1
 70
     6
  9
$SURFTAB2
 70
     6
  9
$SURFTYPE
 70
     6
  9
$SURFU
 70
     6
  9
$SURFV
 70
     6
  9
$UCSBASE
  2

  9
$UCSNAME
  2

  9
$UCSORG
 10
0.0
 20
0.0
 30
0.0
  9
$UCSXDIR
 10
1.0
 20
0.0
 30
0.0
  9
$UCSYDIR
 10
0.0
 20
1.0
 30
0.0
  9
$UCSORTHOREF
  2

  9
$UCSORTHOVIEW
 70
     0
  9
$UCSORGTOP
 10
0.0
 20
0.0
 30
0.0
  9
$UCSORGBOTTOM
 10
0.0
 20
0.0
 30
0.0
  9
$UCSORGLEFT
 10
0.0
 20
0.0
 30
0.0
  9
$UCSORGRIGHT
 10
0.0
 20
0.0
 30
0.0
  9
$UCSORGFRONT
 10
0.0
 20
0.0
 30
0.0
  9
$UCSORGBACK
 10
0.0
 20
0.0
 30
0.0
  9
$PUCSBASE
  2

  9
$PUCSNAME
  2

  9
$PUCSORG
 10
0.0
 20
0.0
 30
0.0
  9
$PUCSXDIR
 10
1.0
 20
0.0
 30
0.0
  9
$PUCSYDIR
 10
0.0
 20
1.0
 30
0.0
  9
$PUCSORTHOREF
  2

  9
$PUCSORTHOVIEW
 70
     0
  9
$PUCSORGTOP
 10
0.0
 20
0.0
 30
0.0
  9
$PUCSORGBOTTOM
 10
0.0
 20
0.0
 30
0.0
  9
$PUCSORGLEFT
 10
0.0
 20
0.0
 30
0.0
  9
$PUCSORGRIGHT
 10
0.0
 20
0.0
 30
0.0
  9
$PUCSORGFRONT
 10
0.0
 20
0.0
 30
0.0
  9
$PUCSORGBACK
 10
0.0
 20
0.0
 30
0.0
  9
$USERI1
 70
     0
  9
$USERI2
 70
     0
  9
$USERI3
 70
     0
  9
$USERI4
 70
     0
  9
$USERI5
 70
     0
  9
$USERR1
 40
0.0
  9
$USERR2
 40
0.0
  9
$USERR3
 40
0.0
  9
$USERR4
 40
0.0
  9
$USERR5
 40
0.0
  9
$WORLDVIEW
 70
     1
  9
$SHADEDGE
 70
     3
  9
$SHADEDIF
 70
    70
  9
$TILEMODE
 70
     1
  9
$MAXACTVP
 70
    16
  9
$PINSBASE
 10
0.0
 20
0.0
 30
0.0
  9
$PLIMCHECK
 70
     0
  9
$PEXTMIN
 10
1.000000E+20
 20
1.000000E+20
 30
1.000000E+20
  9
$PEXTMAX
 10
-1.000000E+20
 20
-1.000000E+20
 30
-1.000000E+20
  9
$PLIMMIN
 10
0.0
 20
0.0
  9
$PLIMMAX
 10
12.0
 20
9.0
  9
$UNITMODE
 70
     0
  9
$VISRETAIN
 70
     0
  9
$PLINEGEN
 70
     1
  9
$PSLTSCALE
 70
     0
  9
$TREEDEPTH
 70
  3020
  9
$CMLSTYLE
  2
Standard
  9
$CMLJUST
 70
     0
  9
$CMLSCALE
 40
1.0
  9
$PROXYGRAPHICS
 70
     0
  9
$MEASUREMENT
 70
     0
  9
$CELWEIGHT
370
     0
  9
$ENDCAPS
280
     0
  9
$JOINSTYLE
280
     0
  9
$LWDISPLAY
290
     0
  9
$INSUNITS
 70
     1
  9
$HYPERLINKBASE
  1

  9
$XEDIT
290
     1
  9
$CEPSNTYPE
380
     0
  9
$PSTYLEMODE
290
     1
  9
$FINGERPRINTGUID
  2

  9
$VERSIONGUID
  2

  9
$EXTNAMES
290
     1
  9
$PSVPSCALE
 40
0.0
  0
ENDSEC
  0
SECTION
  2
CLASSES
  0
CLASS
  1
LWPOLYLINE
  2
AcDbPolyline
  3
AutoCAD 2000
 90
    32768
280
     0
281
     1
  0
CLASS
  1
IMAGE
  2
AcDbRasterImage
  3
ISM
 90
    32895
280
     0
281
     1
  0
CLASS
  1
OLE2FRAME
  2
AcDbOle2Frame
  3
AutoCAD 2000
 90
    32768
280
     0
281
     1
  0
CLASS
  1
HATCH
  2
AcDbHatch
  3
AutoCAD 2000
 90
    32768
280
     0
281
     1
  0
CLASS
  1
DICTIONARYVAR
  2
AcDbDictionaryVar
  3
AutoCAD 2000
 90
    32768
280
     0
281
     0
  0
CLASS
  1
RASTERVARIABLES
  2
AcDbRasterVariables
  3
ISM
 90
    32768
280
     0
281
     0
  0
CLASS
  1
IMAGEDEF
  2
AcDbRasterImageDef
  3
ISM
 90
    32768
280
     0
281
     0
  0
CLASS
  1
IMAGEDEF_REACTOR
  2
AcDbRasterImageDefReactor
  3
ISM
 90
    32769
280
     0
281
     0
  0
CLASS
  1
IDBUFFER
  2
AcDbIdBuffer
  3
AutoCAD 2000
 90
    32768
280
     0
281
     0
  0
CLASS
  1
SPATIAL_FILTER
  2
AcDbSpatialFilter
  3
AutoCAD 2000
 90
    32768
280
     0
281
     0
  0
CLASS
  1
XRECORD
  2
AcDbXrecord
  3
AutoCAD 2000
 90
    32768
280
     0
281
     0
  0
CLASS
  1
SORTENTSTABLE
  2
AcDbSortentsTable
  3
AutoCAD 2000
 90
    32768
280
     0
281
     0
  0
CLASS
  1
LAYER_INDEX
  2
AcDbLayerIndex
  3
AutoCAD 2000
 90
    32768
280
     0
281
     0
  0
CLASS
  1
SPATIAL_INDEX
  2
AcDbSpatialIndex
  3
AutoCAD 2000
 90
    32768
280
     0
281
     0
  0
CLASS
  1
OBJECT_PTR
  2
CAseDLPNTableRecord
  3
"ASE-LPNTableRecord"
 90
    32769
280
     0
281
     0
  0
CLASS
  1
LAYOUT
  2
AcDbLayout
  3
AutoCAD 2000
 90
        0
280
     0
281
     0
  0
CLASS
  1
PLOTSETTINGS
  2
AcDbPlotSettings
  3
AutoCAD 2000
 90
    32768
280
     0
281
     0
  0
CLASS
  1
ACDBDICTIONARYWDFLT
  2
AcDbDictionaryWithDefault
  3
AutoCAD 2000
 90
        0
280
     0
281
     0
  0
CLASS
  1
ACDBPLACEHOLDER
  2
AcDbPlaceHolder
  3
AutoCAD 2000
 90
        0
280
     0
281
     0
  0
CLASS
  1
VBA_PROJECT
  2
AcDbVbaProject
  3
acadvba
 90
    32768
280
     0
281
     0
  0
CLASS
  1
WIPEOUT
  2
AcDbWipeout
  3
WipeOut|AutoCAD Express Tool|expresstools@autodesk.com
 90
    32895
280
     0
281
     1
  0
CLASS
  1
WIPEOUTVARIABLES
  2
AcDbWipeoutVariables
  3
WipeOut|AutoCAD Express Tool|expresstools@autodesk.com
 90
        0
280
     0
281
     0
  0
CLASS
  1
RTEXT
  2
RText
  3
RText|AutoCAD Express Tool|expresstools@autodesk.com
 90
    32768
280
     0
281
     1
  0
CLASS
  1
ARCALIGNEDTEXT
  2
AcDbArcAlignedText
  3
ATEXT|AutoCAD Express Tool|expresstools@autodesk.com
 90
    32768
280
     0
281
     1
  0
ENDSEC
  0
SECTION
  2
TABLES
  0
TABLE
  2
VPORT
  5
7
100
AcDbSymbolTable
 70
     1
  0
VPORT
  5
15
100
AcDbSymbolTableRecord
100
AcDbViewportTableRecord
  2
*ACTIVE
 70
     0
 10
0.0
 20
0.0
 11
1.0
 21
1.0
 12
6.591288
 22
4.579184
 13
0.0
 23
0.0
 14
1.0
 24
1.0
 15
0.0
 25
0.0
 16
0.0
 26
0.0
 36
1.0
 17
0.0
 27
0.0
 37
0.0
 40
9.158369
 41
0.688564
 42
50.0
 43
0.0
 44
0.0
 50
0.0
 51
0.0
 71
     0
 72
   100
 73
     1
 74
     1
 75
     0
 76
     0
 77
     0
 78
     0
281
     0
 65
     0
110
0.0
120
0.0
130
0.0
111
1.0
121
0.0
131
0.0
112
0.0
122
1.0
132
0.0
345
0
346
0
 79
     0
146
0.0
  0
ENDTAB
  0
TABLE
  2
LTYPE
  5
4
100
AcDbSymbolTable
 70
     3
  0
LTYPE
  5
11
100
AcDbSymbolTableRecord
100
AcDbLinetypeTableRecord
  2
ByBlock
 70
    64
  3

 72
    65
 73
     0
 40
0.0
  0
LTYPE
  5
12
100
AcDbSymbolTableRecord
100
AcDbLinetypeTableRecord
  2
ByLayer
 70
    64
  3

 72
    65
 73
     0
 40
0.0
  0
LTYPE
  5
13
100
AcDbSymbolTableRecord
100
AcDbLinetypeTableRecord
  2
Continuous
 70
    64
  3
Solid line
 72
    65
 73
     0
 40
0.0
  0
ENDTAB
  0
TABLE
  2
LAYER
  5
2
100
AcDbSymbolTable
 70
     3
  0
LAYER
  5
14
100
AcDbSymbolTableRecord
100
AcDbLayerTableRecord
  2
0
 70
     0
 62
     7
  6
Continuous
290
     1
370
    -3
390
1D
  0
LAYER
  5
24
100
AcDbSymbolTableRecord
100
AcDbLayerTableRecord
  2
Layer 1
 70
     0
 62
     7
  6
Continuous
290
     1
370
    -3
390
1F
  0
LAYER
  5
29
100
AcDbSymbolTableRecord
100
AcDbLayerTableRecord
  2
P1-Layer 1
 70
     0
 62
     7
  6
Continuous
290
     1
370
    -3
390
1F
  0
ENDTAB
  0
TABLE
  2
STYLE
  5
3
100
AcDbSymbolTable
 70
     2
  0
STYLE
  5
17
100
AcDbSymbolTableRecord
100
AcDbTextStyleTableRecord
  2
Standard
 70
     0
 40
0.0
 41
1.0
 50
0.0
 71
     0
 42
0.0
  3
txt
  4

  0
STYLE
  5
26
100
AcDbSymbolTableRecord
100
AcDbTextStyleTableRecord
  2
Bookman Old Style
 70
     0
 40
1.0
 41
1.0
 50
0.0
 71
     0
 42
1.0
  3
Bookman Old Style
  4

  0
ENDTAB
  0
TABLE
  2
VIEW
  5
5
100
AcDbSymbolTable
 70
     0
  0
ENDTAB
  0
TABLE
  2
UCS
  5
6
100
AcDbSymbolTable
 70
     0
  0
ENDTAB
  0
TABLE
  2
APPID
  5
8
100
AcDbSymbolTable
 70
     1
  0
APPID
  5
16
100
AcDbSymbolTableRecord
100
AcDbRegAppTableRecord
  2
ACAD
 70
     0
  0
ENDTAB
  0
TABLE
  2
DIMSTYLE
  5
9
100
AcDbSymbolTable
 70
     1
100
AcDbDimStyleTable
 71
     0
  0
DIMSTYLE
105
18
100
AcDbSymbolTableRecord
100
AcDbDimStyleTableRecord
  2
Standard
 70
     0
  3

  4

 40
1.0
 41
0.18
 42
0.0625
 43
0.38
 44
0.18
 45
0.0
 46
0.0
 47
0.0
 48
0.0
 71
     0
 72
     0
 73
     1
 74
     1
 75
     0
 76
     0
 77
     0
 78
     0
 79
     0
140
0.18
141
0.09
142
0.0
143
25.4
144
1.0
145
0.0
146
1.0
147
0.09
148
0.0
170
     0
171
     2
172
     0
173
     0
174
     0
175
     0
176
     0
177
     0
178
     0
179
     0
271
     4
272
     4
273
     2
274
     2
275
     0
276
     0
277
     2
278
    46
279
     0
280
     0
281
     0
282
     0
283
     1
284
     0
285
     0
286
     0
288
     0
340
17
341
0
342
0
343
0
344
0
371
    -2
372
    -2
  0
ENDTAB
  0
TABLE
  2
BLOCK_RECORD
  5
1
100
AcDbSymbolTable
 70
     0
  0
BLOCK_RECORD
  5
A
100
AcDbSymbolTableRecord
100
AcDbBlockTableRecord
  2
*MODEL_SPACE
340
20
  0
BLOCK_RECORD
  5
B
100
AcDbSymbolTableRecord
100
AcDbBlockTableRecord
  2
*PAPER_SPACE
340
21
  0
ENDTAB
  0
ENDSEC
  0
SECTION
  2
BLOCKS
  0
BLOCK
  5
D
100
AcDbEntity
  8
0
100
AcDbBlockBegin
  2
*MODEL_SPACE
 70
     0
 10
0.0
 20
0.0
 30
0.0
  3
*MODEL_SPACE
  1

  0
ENDBLK
  5
E
100
AcDbEntity
  8
0
100
AcDbBlockEnd
  0
BLOCK
  5
F
100
AcDbEntity
 67
     1
  8
0
100
AcDbBlockBegin
  2
*PAPER_SPACE
 70
     0
 10
0.0
 20
0.0
 30
0.0
  3
*PAPER_SPACE
  1

  0
ENDBLK
  5
10
100
AcDbEntity
 67
     1
  8
0
100
AcDbBlockEnd
  0
ENDSEC
  0
SECTION
  2
ENTITIES
  0
SPLINE
  5
25
100
AcDbEntity
  8
Layer 1
370
    40
100
AcDbSpline
210
0.0
220
0.0
230
1.0
 70
     1
 71
     3
 72
    28
 73
    24
 74
     0
 42
0.0000000001
 43
0.0000000001
 40
0.0
 40
0.0
 40
0.0
 40
0.0
 40
0.1666666666666667
 40
0.1666666666666667
 40
0.1666666666666667
 40
0.1666666666666667
 40
0.3333333333333333
 40
0.3333333333333333
 40
0.3333333333333333
 40
0.3333333333333333
 40
0.5
 40
0.5
 40
0.5
 40
0.5
 40
0.6666666666666666
 40
0.6666666666666666
 40
0.6666666666666666
 40
0.6666666666666666
 40
0.8333333333333333
 40
0.8333333333333333
 40
0.8333333333333333
 40
0.8333333333333333
 40
1.0
 40
1.0
 40
1.0
 40
1.0
 10
1.7427283464566929
 20
1.2535000000000001
 30
0.0
 10
1.5608070866141732
 20
2.5132913385826772
 30
0.0
 10
-0.1275708661417323
 20
2.0789015748031496
 30
0.0
 10
-1.5369881889763779
 20
1.2535000000000001
 30
0.0
 10
-1.5369881889763779
 20
1.2535000000000001
 30
0.0
 10
-1.5369881889763779
 20
1.2535000000000001
 30
0.0
 10
-3.5827519685039371
 20
1.2535000000000001
 30
0.0
 10
-3.5827519685039371
 20
1.2535000000000001
 30
0.0
 10
-3.5827519685039371
 20
1.2535000000000001
 30
0.0
 10
-3.5827519685039371
 20
1.2535000000000001
 30
0.0
 10
-3.5827519685039371
 20
3.1285000000000003
 30
0.0
 10
-3.5827519685039371
 20
3.1285000000000003
 30
0.0
 10
-3.5827519685039371
 20
3.1285000000000003
 30
0.0
 10
-3.5827519685039371
 20
3.1285000000000003
 30
0.0
 10
3.417244094488189
 20
3.1285000000000003
 30
0.0
 10
3.417244094488189
 20
3.1285000000000003
 30
0.0
 10
3.417244094488189
 20
3.1285000000000003
 30
0.0
 10
3.417244094488189
 20
3.1285000000000003
 30
0.0
 10
3.417244094488189
 20
1.2535000000000001
 30
0.0
 10
3.417244094488189
 20
1.2535000000000001
 30
0.0
 10
3.417244094488189
 20
1.2535000000000001
 30
0.0
 10
3.417244094488189
 20
1.2535000000000001
 30
0.0
 10
1.7427283464566929
 20
1.2535000000000001
 30
0.0
 10
1.7427283464566929
 20
1.2535000000000001
 30
0.0
  0
TEXT
  5
27
100
AcDbEntity
  8
Layer 1
100
AcDbText
 10
0.120374
 20
1.201138
 30
0.0
 40
0.119999
  1
BA  1541
 51
-0.000002
  7
Bookman Old Style
100
AcDbText
  0
TEXT
  5
28
100
AcDbEntity
  8
Layer 1
100
AcDbText
 10
0.042055
 20
1.013638
 30
0.0
 40
0.119999
  1
1-7/8\u+201d x 7\u+201d
 51
-0.000002
  7
Bookman Old Style
100
AcDbText
  0
SPLINE
  5
2A
100
AcDbEntity
  8
P1-Layer 1
 62
   109
100
AcDbSpline
210
0.0
220
0.0
230
1.0
 70
     1
 71
     3
 72
    20
 73
    16
 74
     0
 42
0.0000000001
 43
0.0000000001
 40
0.0
 40
0.0
 40
0.0
 40
0.0
 40
0.25
 40
0.25
 40
0.25
 40
0.25
 40
0.5
 40
0.5
 40
0.5
 40
0.5
 40
0.75
 40
0.75
 40
0.75
 40
0.75
 40
1.0
 40
1.0
 40
1.0
 40
1.0
 10
1.0799094488188976
 20
-1.1363582677165356
 30
0.0
 10
1.0799094488188976
 20
-1.1363582677165356
 30
0.0
 10
1.7015590551181103
 20
-1.5319015748031497
 30
0.0
 10
1.7015590551181103
 20
-1.5319015748031497
 30
0.0
 10
1.7015590551181103
 20
-1.5319015748031497
 30
0.0
 10
1.7015590551181103
 20
-1.5319015748031497
 30
0.0
 10
1.6212952755905512
 20
-1.4895393700787403
 30
0.0
 10
1.6212952755905512
 20
-1.4895393700787403
 30
0.0
 10
1.6212952755905512
 20
-1.4895393700787403
 30
0.0
 10
1.6212952755905512
 20
-1.4895393700787403
 30
0.0
 10
0.9996456692913386
 20
-1.0939960629921259
 30
0.0
 10
0.9996456692913386
 20
-1.0939960629921259
 30
0.0
 10
0.9996456692913386
 20
-1.0939960629921259
 30
0.0
 10
0.9996456692913386
 20
-1.0939960629921259
 30
0.0
 10
1.0799094488188976
 20
-1.1363582677165356
 30
0.0
 10
1.0799094488188976
 20
-1.1363582677165356
 30
0.0
  0
SPLINE
  5
2B
100
AcDbEntity
  8
P1-Layer 1
 62
     8
100
AcDbSpline
210
0.0
220
0.0
230
1.0
 70
     1
 71
     3
 72
    20
 73
    16
 74
     0
 42
0.0000000001
 43
0.0000000001
 40
0.0
 40
0.0
 40
0.0
 40
0.0
 40
0.25
 40
0.25
 40
0.25
 40
0.25
 40
0.5
 40
0.5
 40
0.5
 40
0.5
 40
0.75
 40
0.75
 40
0.75
 40
0.75
 40
1.0
 40
1.0
 40
1.0
 40
1.0
 10
0.9996456692913386
 20
-1.0939960629921259
 30
0.0
 10
0.9996456692913386
 20
-1.0939960629921259
 30
0.0
 10
1.6212952755905512
 20
-1.4895393700787403
 30
0.0
 10
1.6212952755905512
 20
-1.4895393700787403
 30
0.0
 10
1.6212952755905512
 20
-1.4895393700787403
 30
0.0
 10
1.6212952755905512
 20
-1.4895393700787403
 30
0.0
 10
1.5351496062992127
 20
-1.454964566929134
 30
0.0
 10
1.5351496062992127
 20
-1.454964566929134
 30
0.0
 10
1.5351496062992127
 20
-1.454964566929134
 30
0.0
 10
1.5351496062992127
 20
-1.454964566929134
 30
0.0
 10
0.9135000000000001
 20
-1.0594212598425197
 30
0.0
 10
0.9135000000000001
 20
-1.0594212598425197
 30
0.0
 10
0.9135000000000001
 20
-1.0594212598425197
 30
0.0
 10
0.9135000000000001
 20
-1.0594212598425197
 30
0.0
 10
0.9996456692913386
 20
-1.0939960629921259
 30
0.0
 10
0.9996456692913386
 20
-1.0939960629921259
 30
0.0
  0
SPLINE
  5
2C
100
AcDbEntity
  8
P1-Layer 1
 62
   253
100
AcDbSpline
210
0.0
220
0.0
230
1.0
 70
     1
 71
     3
 72
    20
 73
    16
 74
     0
 42
0.0000000001
 43
0.0000000001
 40
0.0
 40
0.0
 40
0.0
 40
0.0
 40
0.25
 40
0.25
 40
0.25
 40
0.25
 40
0.5
 40
0.5
 40
0.5
 40
0.5
 40
0.75
 40
0.75
 40
0.75
 40
0.75
 40
1.0
 40
1.0
 40
1.0
 40
1.0
 10
0.9135000000000001
 20
-1.0594212598425197
 30
0.0
 10
0.9135000000000001
 20
-1.0594212598425197
 30
0.0
 10
1.5351496062992127
 20
-1.454964566929134
 30
0.0
 10
1.5351496062992127
 20
-1.454964566929134
 30
0.0
 10
1.5351496062992127
 20
-1.454964566929134
 30
0.0
 10
1.5351496062992127
 20
-1.454964566929134
 30
0.0
 10
1.4434448818897638
 20
-1.4279251968503937
 30
0.0
 10
1.4434448818897638
 20
-1.4279251968503937
 30
0.0
 10
1.4434448818897638
 20
-1.4279251968503937
 30
0.0
 10
1.4434448818897638
 20
-1.4279251968503937
 30
0.0
 10
0.8217952755905512
 20
-1.0323818897637795
 30
0.0
 10
0.8217952755905512
 20
-1.0323818897637795
 30
0.0
 10
0.8217952755905512
 20
-1.0323818897637795
 30
0.0
 10
0.8217952755905512
 20
-1.0323818897637795
 30
0.0
 10
0.9135000000000001
 20
-1.0594212598425197
 30
0.0
 10
0.9135000000000001
 20
-1.0594212598425197
 30
0.0
  0
SPLINE
  5
2D
100
AcDbEntity
  8
P1-Layer 1
 62
   253
100
AcDbSpline
210
0.0
220
0.0
230
1.0
 70
     1
 71
     3
 72
    20
 73
    16
 74
     0
 42
0.0000000001
 43
0.0000000001
 40
0.0
 40
0.0
 40
0.0
 40
0.0
 40
0.25
 40
0.25
 40
0.25
 40
0.25
 40
0.5
 40
0.5
 40
0.5
 40
0.5
 40
0.75
 40
0.75
 40
0.75
 40
0.75
 40
1.0
 40
1.0
 40
1.0
 40
1.0
 10
0.8217952755905512
 20
-1.0323818897637795
 30
0.0
 10
0.8217952755905512
 20
-1.0323818897637795
 30
0.0
 10
1.4434448818897638
 20
-1.4279251968503937
 30
0.0
 10
1.4434448818897638
 20
-1.4279251968503937
 30
0.0
 10
1.4434448818897638
 20
-1.4279251968503937
 30
0.0
 10
1.4434448818897638
 20
-1.4279251968503937
 30
0.0
 10
1.3465157480314962
 20
-1.4081929133858269
 30
0.0
 10
1.3465157480314962
 20
-1.4081929133858269
 30
0.0
 10
1.3465157480314962
 20
-1.4081929133858269
 30
0.0
 10
1.3465157480314962
 20
-1.4081929133858269
 30
0.0
 10
0.7248661417322835
 20
-1.0126496062992127
 30
0.0
 10
0.7248661417322835
 20
-1.0126496062992127
 30
0.0
 10
0.7248661417322835
 20
-1.0126496062992127
 30
0.0
 10
0.7248661417322835
 20
-1.0126496062992127
 30
0.0
 10
0.8217952755905512
 20
-1.0323818897637795
 30
0.0
 10
0.8217952755905512
 20
-1.0323818897637795
 30
0.0
  0
SPLINE
  5
2E
100
AcDbEntity
  8
P1-Layer 1
 62
   253
100
AcDbSpline
210
0.0
220
0.0
230
1.0
 70
     1
 71
     3
 72
    20
 73
    16
 74
     0
 42
0.0000000001
 43
0.0000000001
 40
0.0
 40
0.0
 40
0.0
 40
0.0
 40
0.25
 40
0.25
 40
0.25
 40
0.25
 40
0.5
 40
0.5
 40
0.5
 40
0.5
 40
0.75
 40
0.75
 40
0.75
 40
0.75
 40
1.0
 40
1.0
 40
1.0
 40
1.0
 10
0.7248661417322835
 20
-1.0126496062992127
 30
0.0
 10
0.7248661417322835
 20
-1.0126496062992127
 30
0.0
 10
1.3465157480314962
 20
-1.4081929133858269
 30
0.0
 10
1.3465157480314962
 20
-1.4081929133858269
 30
0.0
 10
1.3465157480314962
 20
-1.4081929133858269
 30
0.0
 10
1.3465157480314962
 20
-1.4081929133858269
 30
0.0
 10
1.2446771653543307
 20
-1.3955157480314961
 30
0.0
 10
1.2446771653543307
 20
-1.3955157480314961
 30
0.0
 10
1.2446771653543307
 20
-1.3955157480314961
 30
0.0
 10
1.2446771653543307
 20
-1.3955157480314961
 30
0.0
 10
0.6230275590551181
 20
-0.9999724409448819
 30
0.0
 10
0.6230275590551181
 20
-0.9999724409448819
 30
0.0
 10
0.6230275590551181
 20
-0.9999724409448819
 30
0.0
 10
0.6230275590551181
 20
-0.9999724409448819
 30
0.0
 10
0.7248661417322835
 20
-1.0126496062992127
 30
0.0
 10
0.7248661417322835
 20
-1.0126496062992127
 30
0.0
  0
SPLINE
  5
2F
100
AcDbEntity
  8
P1-Layer 1
 62
   253
100
AcDbSpline
210
0.0
220
0.0
230
1.0
 70
     1
 71
     3
 72
    20
 73
    16
 74
     0
 42
0.0000000001
 43
0.0000000001
 40
0.0
 40
0.0
 40
0.0
 40
0.0
 40
0.25
 40
0.25
 40
0.25
 40
0.25
 40
0.5
 40
0.5
 40
0.5
 40
0.5
 40
0.75
 40
0.75
 40
0.75
 40
0.75
 40
1.0
 40
1.0
 40
1.0
 40
1.0
 10
0.6230275590551181
 20
-0.9999724409448819
 30
0.0
 10
0.6230275590551181
 20
-0.9999724409448819
 30
0.0
 10
1.2446771653543307
 20
-1.3955157480314961
 30
0.0
 10
1.2446771653543307
 20
-1.3955157480314961
 30
0.0
 10
1.2446771653543307
 20
-1.3955157480314961
 30
0.0
 10
1.2446771653543307
 20
-1.3955157480314961
 30
0.0
 10
1.1382677165354331
 20
-1.3896732283464568
 30
0.0
 10
1.1382677165354331
 20
-1.3896732283464568
 30
0.0
 10
1.1382677165354331
 20
-1.3896732283464568
 30
0.0
 10
1.1382677165354331
 20
-1.3896732283464568
 30
0.0
 10
0.5166181102362205
 20
-0.9941299212598426
 30
0.0
 10
0.5166181102362205
 20
-0.9941299212598426
 30
0.0
 10
0.5166181102362205
 20
-0.9941299212598426
 30
0.0
 10
0.5166181102362205
 20
-0.9941299212598426
 30
0.0
 10
0.6230275590551181
 20
-0.9999724409448819
 30
0.0
 10
0.6230275590551181
 20
-0.9999724409448819
 30
0.0
  0
SPLINE
  5
30
100
AcDbEntity
  8
P1-Layer 1
 62
     9
100
AcDbSpline
210
0.0
220
0.0
230
1.0
 70
     1
 71
     3
 72
    20
 73
    16
 74
     0
 42
0.0000000001
 43
0.0000000001
 40
0.0
 40
0.0
 40
0.0
 40
0.0
 40
0.25
 40
0.25
 40
0.25
 40
0.25
 40
0.5
 40
0.5
 40
0.5
 40
0.5
 40
0.75
 40
0.75
 40
0.75
 40
0.75
 40
1.0
 40
1.0
 40
1.0
 40
1.0
 10
0.5166181102362205
 20
-0.9941299212598426
 30
0.0
 10
0.5166181102362205
 20
-0.9941299212598426
 30
0.0
 10
1.1382677165354331
 20
-1.3896732283464568
 30
0.0
 10
1.1382677165354331
 20
-1.3896732283464568
 30
0.0
 10
1.1382677165354331
 20
-1.3896732283464568
 30
0.0
 10
1.1382677165354331
 20
-1.3896732283464568
 30
0.0
 10
1.0276023622047243
 20
-1.3904133858267718
 30
0.0
 10
1.0276023622047243
 20
-1.3904133858267718
 30
0.0
 10
1.0276023622047243
 20
-1.3904133858267718
 30
0.0
 10
1.0276023622047243
 20
-1.3904133858267718
 30
0.0
 10
0.4059527559055118
 20
-0.9948700787401575
 30
0.0
 10
0.4059527559055118
 20
-0.9948700787401575
 30
0.0
 10
0.4059527559055118
 20
-0.9948700787401575
 30
0.0
 10
0.4059527559055118
 20
-0.9948700787401575
 30
0.0
 10
0.5166181102362205
 20
-0.9941299212598426
 30
0.0
 10
0.5166181102362205
 20
-0.9941299212598426
 30
0.0
  0
SPLINE
  5
31
100
AcDbEntity
  8
P1-Layer 1
 62
     9
100
AcDbSpline
210
0.0
220
0.0
230
1.0
 70
     1
 71
     3
 72
    20
 73
    16
 74
     0
 42
0.0000000001
 43
0.0000000001
 40
0.0
 40
0.0
 40
0.0
 40
0.0
 40
0.25
 40
0.25
 40
0.25
 40
0.25
 40
0.5
 40
0.5
 40
0.5
 40
0.5
 40
0.75
 40
0.75
 40
0.75
 40
0.75
 40
1.0
 40
1.0
 40
1.0
 40
1.0
 10
0.4059527559055118
 20
-0.9948700787401575
 30
0.0
 10
0.4059527559055118
 20
-0.9948700787401575
 30
0.0
 10
1.0276023622047243
 20
-1.3904133858267718
 30
0.0
 10
1.0276023622047243
 20
-1.3904133858267718
 30
0.0
 10
1.0276023622047243
 20
-1.3904133858267718
 30
0.0
 10
1.0276023622047243
 20
-1.3904133858267718
 30
0.0
 10
0.9130196850393701
 20
-1.3975039370078741
 30
0.0
 10
0.9130196850393701
 20
-1.3975039370078741
 30
0.0
 10
0.9130196850393701
 20
-1.3975039370078741
 30
0.0
 10
0.9130196850393701
 20
-1.3975039370078741
 30
0.0
 10
0.2913700787401575
 20
-1.0019606299212598
 30
0.0
 10
0.2913700787401575
 20
-1.0019606299212598
 30
0.0
 10
0.2913700787401575
 20
-1.0019606299212598
 30
0.0
 10
0.2913700787401575
 20
-1.0019606299212598
 30
0.0
 10
0.4059527559055118
 20
-0.9948700787401575
 30
0.0
 10
0.4059527559055118
 20
-0.9948700787401575
 30
0.0
  0
SPLINE
  5
32
100
AcDbEntity
  8
P1-Layer 1
 62
     9
100
AcDbSpline
210
0.0
220
0.0
230
1.0
 70
     1
 71
     3
 72
    20
 73
    16
 74
     0
 42
0.0000000001
 43
0.0000000001
 40
0.0
 40
0.0
 40
0.0
 40
0.0
 40
0.25
 40
0.25
 40
0.25
 40
0.25
 40
0.5
 40
0.5
 40
0.5
 40
0.5
 40
0.75
 40
0.75
 40
0.75
 40
0.75
 40
1.0
 40
1.0
 40
1.0
 40
1.0
 10
0.2913700787401575
 20
-1.0019606299212598
 30
0.0
 10
0.2913700787401575
 20
-1.0019606299212598
 30
0.0
 10
0.9130196850393701
 20
-1.3975039370078741
 30
0.0
 10
0.9130196850393701
 20
-1.3975039370078741
 30
0.0
 10
0.9130196850393701
 20
-1.3975039370078741
 30
0.0
 10
0.9130196850393701
 20
-1.3975039370078741
 30
0.0
 10
0.7948346456692914
 20
-1.4106968503937007
 30
0.0
 10
0.7948346456692914
 20
-1.4106968503937007
 30
0.0
 10
0.7948346456692914
 20
-1.4106968503937007
 30
0.0
 10
0.7948346456692914
 20
-1.4106968503937007
 30
0.0
 10
0.1731850393700788
 20
-1.0151535433070866
 30
0.0
 10
0.1731850393700788
 20
-1.0151535433070866
 30
0.0
 10
0.1731850393700788
 20
-1.0151535433070866
 30
0.0
 10
0.1731850393700788
 20
-1.0151535433070866
 30
0.0
 10
0.2913700787401575
 20
-1.0019606299212598
 30
0.0
 10
0.2913700787401575
 20
-1.0019606299212598
 30
0.0
  0
SPLINE
  5
33
100
AcDbEntity
  8
P1-Layer 1
 62
     9
100
AcDbSpline
210
0.0
220
0.0
230
1.0
 70
     1
 71
     3
 72
    20
 73
    16
 74
     0
 42
0.0000000001
 43
0.0000000001
 40
0.0
 40
0.0
 40
0.0
 40
0.0
 40
0.25
 40
0.25
 40
0.25
 40
0.25
 40
0.5
 40
0.5
 40
0.5
 40
0.5
 40
0.75
 40
0.75
 40
0.75
 40
0.75
 40
1.0
 40
1.0
 40
1.0
 40
1.0
 10
0.1731850393700788
 20
-1.0151535433070866
 30
0.0
 10
0.1731850393700788
 20
-1.0151535433070866
 30
0.0
 10
0.7948346456692914
 20
-1.4106968503937007
 30
0.0
 10
0.7948346456692914
 20
-1.4106968503937007
 30
0.0
 10
0.7948346456692914
 20
-1.4106968503937007
 30
0.0
 10
0.7948346456692914
 20
-1.4106968503937007
 30
0.0
 10
0.6733858267716536
 20
-1.4297598425196851
 30
0.0
 10
0.6733858267716536
 20
-1.4297598425196851
 30
0.0
 10
0.6733858267716536
 20
-1.4297598425196851
 30
0.0
 10
0.6733858267716536
 20
-1.4297598425196851
 30
0.0
 10
0.0517362204724409
 20
-1.034216535433071
 30
0.0
 10
0.0517362204724409
 20
-1.034216535433071
 30
0.0
 10
0.0517362204724409
 20
-1.034216535433071
 30
0.0
 10
0.0517362204724409
 20
-1.034216535433071
 30
0.0
 10
0.1731850393700788
 20
-1.0151535433070866
 30
0.0
 10
0.1731850393700788
 20
-1.0151535433070866
 30
0.0
  0
SPLINE
  5
34
100
AcDbEntity
  8
P1-Layer 1
 62
     9
100
AcDbSpline
210
0.0
220
0.0
230
1.0
 70
     1
 71
     3
 72
    20
 73
    16
 74
     0
 42
0.0000000001
 43
0.0000000001
 40
0.0
 40
0.0
 40
0.0
 40
0.0
 40
0.25
 40
0.25
 40
0.25
 40
0.25
 40
0.5
 40
0.5
 40
0.5
 40
0.5
 40
0.75
 40
0.75
 40
0.75
 40
0.75
 40
1.0
 40
1.0
 40
1.0
 40
1.0
 10
0.0517362204724409
 20
-1.034216535433071
 30
0.0
 10
0.0517362204724409
 20
-1.034216535433071
 30
0.0
 10
0.6733858267716536
 20
-1.4297598425196851
 30
0.0
 10
0.6733858267716536
 20
-1.4297598425196851
 30
0.0
 10
0.6733858267716536
 20
-1.4297598425196851
 30
0.0
 10
0.6733858267716536
 20
-1.4297598425196851
 30
0.0
 10
0.548996062992126
 20
-1.454456692913386
 30
0.0
 10
0.548996062992126
 20
-1.454456692913386
 30
0.0
 10
0.548996062992126
 20
-1.454456692913386
 30
0.0
 10
0.548996062992126
 20
-1.454456692913386
 30
0.0
 10
-0.0726535433070866
 20
-1.0589133858267716
 30
0.0
 10
-0.0726535433070866
 20
-1.0589133858267716
 30
0.0
 10
-0.0726535433070866
 20
-1.0589133858267716
 30
0.0
 10
-0.0726535433070866
 20
-1.0589133858267716
 30
0.0
 10
0.0517362204724409
 20
-1.034216535433071
 30
0.0
 10
0.0517362204724409
 20
-1.034216535433071
 30
0.0
  0
SPLINE
  5
35
100
AcDbEntity
  8
P1-Layer 1
 62
     9
100
AcDbSpline
210
0.0
220
0.0
230
1.0
 70
     1
 71
     3
 72
    20
 73
    16
 74
     0
 42
0.0000000001
 43
0.0000000001
 40
0.0
 40
0.0
 40
0.0
 40
0.0
 40
0.25
 40
0.25
 40
0.25
 40
0.25
 40
0.5
 40
0.5
 40
0.5
 40
0.5
 40
0.75
 40
0.75
 40
0.75
 40
0.75
 40
1.0
 40
1.0
 40
1.0
 40
1.0
 10
-0.0726535433070866
 20
-1.0589133858267716
 30
0.0
 10
-0.0726535433070866
 20
-1.0589133858267716
 30
0.0
 10
0.548996062992126
 20
-1.454456692913386
 30
0.0
 10
0.548996062992126
 20
-1.454456692913386
 30
0.0
 10
0.548996062992126
 20
-1.454456692913386
 30
0.0
 10
0.548996062992126
 20
-1.454456692913386
 30
0.0
 10
0.4219803149606299
 20
-1.4845511811023622
 30
0.0
 10
0.4219803149606299
 20
-1.4845511811023622
 30
0.0
 10
0.4219803149606299
 20
-1.4845511811023622
 30
0.0
 10
0.4219803149606299
 20
-1.4845511811023622
 30
0.0
 10
-0.1996692913385827
 20
-1.0890078740157481
 30
0.0
 10
-0.1996692913385827
 20
-1.0890078740157481
 30
0.0
 10
-0.1996692913385827
 20
-1.0890078740157481
 30
0.0
 10
-0.1996692913385827
 20
-1.0890078740157481
 30
0.0
 10
-0.0726535433070866
 20
-1.0589133858267716
 30
0.0
 10
-0.0726535433070866
 20
-1.0589133858267716
 30
0.0
  0
SPLINE
  5
36
100
AcDbEntity
  8
P1-Layer 1
 62
     9
100
AcDbSpline
210
0.0
220
0.0
230
1.0
 70
     1
 71
     3
 72
    20
 73
    16
 74
     0
 42
0.0000000001
 43
0.0000000001
 40
0.0
 40
0.0
 40
0.0
 40
0.0
 40
0.25
 40
0.25
 40
0.25
 40
0.25
 40
0.5
 40
0.5
 40
0.5
 40
0.5
 40
0.75
 40
0.75
 40
0.75
 40
0.75
 40
1.0
 40
1.0
 40
1.0
 40
1.0
 10
-0.1996692913385827
 20
-1.0890078740157481
 30
0.0
 10
-0.1996692913385827
 20
-1.0890078740157481
 30
0.0
 10
0.4219803149606299
 20
-1.4845511811023622
 30
0.0
 10
0.4219803149606299
 20
-1.4845511811023622
 30
0.0
 10
0.4219803149606299
 20
-1.4845511811023622
 30
0.0
 10
0.4219803149606299
 20
-1.4845511811023622
 30
0.0
 10
0.2926850393700787
 20
-1.5197913385826771
 30
0.0
 10
0.2926850393700787
 20
-1.5197913385826771
 30
0.0
 10
0.2926850393700787
 20
-1.5197913385826771
 30
0.0
 10
0.2926850393700787
 20
-1.5197913385826771
 30
0.0
 10
-0.3289645669291339
 20
-1.124248031496063
 30
0.0
 10
-0.3289645669291339
 20
-1.124248031496063
 30
0.0
 10
-0.3289645669291339
 20
-1.124248031496063
 30
0.0
 10
-0.3289645669291339
 20
-1.124248031496063
 30
0.0
 10
-0.1996692913385827
 20
-1.0890078740157481
 30
0.0
 10
-0.1996692913385827
 20
-1.0890078740157481
 30
0.0
  0
SPLINE
  5
37
100
AcDbEntity
  8
P1-Layer 1
 62
     9
100
AcDbSpline
210
0.0
220
0.0
230
1.0
 70
     1
 71
     3
 72
    20
 73
    16
 74
     0
 42
0.0000000001
 43
0.0000000001
 40
0.0
 40
0.0
 40
0.0
 40
0.0
 40
0.25
 40
0.25
 40
0.25
 40
0.25
 40
0.5
 40
0.5
 40
0.5
 40
0.5
 40
0.75
 40
0.75
 40
0.75
 40
0.75
 40
1.0
 40
1.0
 40
1.0
 40
1.0
 10
-0.3289645669291339
 20
-1.124248031496063
 30
0.0
 10
-0.3289645669291339
 20
-1.124248031496063
 30
0.0
 10
0.2926850393700787
 20
-1.5197913385826771
 30
0.0
 10
0.2926850393700787
 20
-1.5197913385826771
 30
0.0
 10
0.2926850393700787
 20
-1.5197913385826771
 30
0.0
 10
0.2926850393700787
 20
-1.5197913385826771
 30
0.0
 10
0.1614251968503937
 20
-1.559952755905512
 30
0.0
 10
0.1614251968503937
 20
-1.559952755905512
 30
0.0
 10
0.1614251968503937
 20
-1.559952755905512
 30
0.0
 10
0.1614251968503937
 20
-1.559952755905512
 30
0.0
 10
-0.4602244094488189
 20
-1.1644094488188976
 30
0.0
 10
-0.4602244094488189
 20
-1.1644094488188976
 30
0.0
 10
-0.4602244094488189
 20
-1.1644094488188976
 30
0.0
 10
-0.4602244094488189
 20
-1.1644094488188976
 30
0.0
 10
-0.3289645669291339
 20
-1.124248031496063
 30
0.0
 10
-0.3289645669291339
 20
-1.124248031496063
 30
0.0
  0
SPLINE
  5
38
100
AcDbEntity
  8
P1-Layer 1
 62
     9
100
AcDbSpline
210
0.0
220
0.0
230
1.0
 70
     1
 71
     3
 72
    20
 73
    16
 74
     0
 42
0.0000000001
 43
0.0000000001
 40
0.0
 40
0.0
 40
0.0
 40
0.0
 40
0.25
 40
0.25
 40
0.25
 40
0.25
 40
0.5
 40
0.5
 40
0.5
 40
0.5
 40
0.75
 40
0.75
 40
0.75
 40
0.75
 40
1.0
 40
1.0
 40
1.0
 40
1.0
 10
-0.4602244094488189
 20
-1.1644094488188976
 30
0.0
 10
-0.4602244094488189
 20
-1.1644094488188976
 30
0.0
 10
0.1614251968503937
 20
-1.559952755905512
 30
0.0
 10
0.1614251968503937
 20
-1.559952755905512
 30
0.0
 10
0.1614251968503937
 20
-1.559952755905512
 30
0.0
 10
0.1614251968503937
 20
-1.559952755905512
 30
0.0
 10
0.0285314960629921
 20
-1.6047913385826773
 30
0.0
 10
0.0285314960629921
 20
-1.6047913385826773
 30
0.0
 10
0.0285314960629921
 20
-1.6047913385826773
 30
0.0
 10
0.0285314960629921
 20
-1.6047913385826773
 30
0.0
 10
-0.5931181102362205
 20
-1.209248031496063
 30
0.0
 10
-0.5931181102362205
 20
-1.209248031496063
 30
0.0
 10
-0.5931181102362205
 20
-1.209248031496063
 30
0.0
 10
-0.5931181102362205
 20
-1.209248031496063
 30
0.0
 10
-0.4602244094488189
 20
-1.1644094488188976
 30
0.0
 10
-0.4602244094488189
 20
-1.1644094488188976
 30
0.0
  0
SPLINE
  5
39
100
AcDbEntity
  8
P1-Layer 1
 62
     9
100
AcDbSpline
210
0.0
220
0.0
230
1.0
 70
     1
 71
     3
 72
    20
 73
    16
 74
     0
 42
0.0000000001
 43
0.0000000001
 40
0.0
 40
0.0
 40
0.0
 40
0.0
 40
0.25
 40
0.25
 40
0.25
 40
0.25
 40
0.5
 40
0.5
 40
0.5
 40
0.5
 40
0.75
 40
0.75
 40
0.75
 40
0.75
 40
1.0
 40
1.0
 40
1.0
 40
1.0
 10
-0.5931181102362205
 20
-1.209248031496063
 30
0.0
 10
-0.5931181102362205
 20
-1.209248031496063
 30
0.0
 10
0.0285314960629921
 20
-1.6047913385826773
 30
0.0
 10
0.0285314960629921
 20
-1.6047913385826773
 30
0.0
 10
0.0285314960629921
 20
-1.6047913385826773
 30
0.0
 10
0.0285314960629921
 20
-1.6047913385826773
 30
0.0
 10
-0.1056771653543307
 20
-1.6540748031496064
 30
0.0
 10
-0.1056771653543307
 20
-1.6540748031496064
 30
0.0
 10
-0.1056771653543307
 20
-1.6540748031496064
 30
0.0
 10
-0.1056771653543307
 20
-1.6540748031496064
 30
0.0
 10
-0.7273267716535433
 20
-1.2585314960629921
 30
0.0
 10
-0.7273267716535433
 20
-1.2585314960629921
 30
0.0
 10
-0.7273267716535433
 20
-1.2585314960629921
 30
0.0
 10
-0.7273267716535433
 20
-1.2585314960629921
 30
0.0
 10
-0.5931181102362205
 20
-1.209248031496063
 30
0.0
 10
-0.5931181102362205
 20
-1.209248031496063
 30
0.0
  0
SPLINE
  5
3A
100
AcDbEntity
  8
P1-Layer 1
 62
     9
100
AcDbSpline
210
0.0
220
0.0
230
1.0
 70
     1
 71
     3
 72
    20
 73
    16
 74
     0
 42
0.0000000001
 43
0.0000000001
 40
0.0
 40
0.0
 40
0.0
 40
0.0
 40
0.25
 40
0.25
 40
0.25
 40
0.25
 40
0.5
 40
0.5
 40
0.5
 40
0.5
 40
0.75
 40
0.75
 40
0.75
 40
0.75
 40
1.0
 40
1.0
 40
1.0
 40
1.0
 10
-0.7273267716535433
 20
-1.2585314960629921
 30
0.0
 10
-0.7273267716535433
 20
-1.2585314960629921
 30
0.0
 10
-0.1056771653543307
 20
-1.6540748031496064
 30
0.0
 10
-0.1056771653543307
 20
-1.6540748031496064
 30
0.0
 10
-0.1056771653543307
 20
-1.6540748031496064
 30
0.0
 10
-0.1056771653543307
 20
-1.6540748031496064
 30
0.0
 10
-0.2408543307086614
 20
-1.7075472440944883
 30
0.0
 10
-0.2408543307086614
 20
-1.7075472440944883
 30
0.0
 10
-0.2408543307086614
 20
-1.7075472440944883
 30
0.0
 10
-0.2408543307086614
 20
-1.7075472440944883
 30
0.0
 10
-0.8625039370078741
 20
-1.312003937007874
 30
0.0
 10
-0.8625039370078741
 20
-1.312003937007874
 30
0.0
 10
-0.8625039370078741
 20
-1.312003937007874
 30
0.0
 10
-0.8625039370078741
 20
-1.312003937007874
 30
0.0
 10
-0.7273267716535433
 20
-1.2585314960629921
 30
0.0
 10
-0.7273267716535433
 20
-1.2585314960629921
 30
0.0
  0
SPLINE
  5
3B
100
AcDbEntity
  8
P1-Layer 1
 62
     9
100
AcDbSpline
210
0.0
220
0.0
230
1.0
 70
     1
 71
     3
 72
    20
 73
    16
 74
     0
 42
0.0000000001
 43
0.0000000001
 40
0.0
 40
0.0
 40
0.0
 40
0.0
 40
0.25
 40
0.25
 40
0.25
 40
0.25
 40
0.5
 40
0.5
 40
0.5
 40
0.5
 40
0.75
 40
0.75
 40
0.75
 40
0.75
 40
1.0
 40
1.0
 40
1.0
 40
1.0
 10
-0.8625039370078741
 20
-1.312003937007874
 30
0.0
 10
-0.8625039370078741
 20
-1.312003937007874
 30
0.0
 10
-0.2408543307086614
 20
-1.7075472440944883
 30
0.0
 10
-0.2408543307086614
 20
-1.7075472440944883
 30
0.0
 10
-0.2408543307086614
 20
-1.7075472440944883
 30
0.0
 10
-0.2408543307086614
 20
-1.7075472440944883
 30
0.0
 10
-0.3766929133858268
 20
-1.7649881889763781
 30
0.0
 10
-0.3766929133858268
 20
-1.7649881889763781
 30
0.0
 10
-0.3766929133858268
 20
-1.7649881889763781
 30
0.0
 10
-0.3766929133858268
 20
-1.7649881889763781
 30
0.0
 10
-0.9983425196850394
 20
-1.3694448818897638
 30
0.0
 10
-0.9983425196850394
 20
-1.3694448818897638
 30
0.0
 10
-0.9983425196850394
 20
-1.3694448818897638
 30
0.0
 10
-0.9983425196850394
 20
-1.3694448818897638
 30
0.0
 10
-0.8625039370078741
 20
-1.312003937007874
 30
0.0
 10
-0.8625039370078741
 20
-1.312003937007874
 30
0.0
  0
SPLINE
  5
3C
100
AcDbEntity
  8
P1-Layer 1
 62
     9
100
AcDbSpline
210
0.0
220
0.0
230
1.0
 70
     1
 71
     3
 72
    20
 73
    16
 74
     0
 42
0.0000000001
 43
0.0000000001
 40
0.0
 40
0.0
 40
0.0
 40
0.0
 40
0.25
 40
0.25
 40
0.25
 40
0.25
 40
0.5
 40
0.5
 40
0.5
 40
0.5
 40
0.75
 40
0.75
 40
0.75
 40
0.75
 40
1.0
 40
1.0
 40
1.0
 40
1.0
 10
-0.9983425196850394
 20
-1.3694448818897638
 30
0.0
 10
-0.9983425196850394
 20
-1.3694448818897638
 30
0.0
 10
-0.3766929133858268
 20
-1.7649881889763781
 30
0.0
 10
-0.3766929133858268
 20
-1.7649881889763781
 30
0.0
 10
-0.3766929133858268
 20
-1.7649881889763781
 30
0.0
 10
-0.3766929133858268
 20
-1.7649881889763781
 30
0.0
 10
-0.5128543307086615
 20
-1.8261456692913387
 30
0.0
 10
-0.5128543307086615
 20
-1.8261456692913387
 30
0.0
 10
-0.5128543307086615
 20
-1.8261456692913387
 30
0.0
 10
-0.5128543307086615
 20
-1.8261456692913387
 30
0.0
 10
-1.134503937007874
 20
-1.4306023622047244
 30
0.0
 10
-1.134503937007874
 20
-1.4306023622047244
 30
0.0
 10
-1.134503937007874
 20
-1.4306023622047244
 30
0.0
 10
-1.134503937007874
 20
-1.4306023622047244
 30
0.0
 10
-0.9983425196850394
 20
-1.3694448818897638
 30
0.0
 10
-0.9983425196850394
 20
-1.3694448818897638
 30
0.0
  0
SPLINE
  5
3D
100
AcDbEntity
  8
P1-Layer 1
 62
     9
100
AcDbSpline
210
0.0
220
0.0
230
1.0
 70
     1
 71
     3
 72
    20
 73
    16
 74
     0
 42
0.0000000001
 43
0.0000000001
 40
0.0
 40
0.0
 40
0.0
 40
0.0
 40
0.25
 40
0.25
 40
0.25
 40
0.25
 40
0.5
 40
0.5
 40
0.5
 40
0.5
 40
0.75
 40
0.75
 40
0.75
 40
0.75
 40
1.0
 40
1.0
 40
1.0
 40
1.0
 10
-1.134503937007874
 20
-1.4306023622047244
 30
0.0
 10
-1.134503937007874
 20
-1.4306023622047244
 30
0.0
 10
-0.5128543307086615
 20
-1.8261456692913387
 30
0.0
 10
-0.5128543307086615
 20
-1.8261456692913387
 30
0.0
 10
-0.5128543307086615
 20
-1.8261456692913387
 30
0.0
 10
-0.5128543307086615
 20
-1.8261456692913387
 30
0.0
 10
-0.6490236220472441
 20
-1.8907952755905513
 30
0.0
 10
-0.6490236220472441
 20
-1.8907952755905513
 30
0.0
 10
-0.6490236220472441
 20
-1.8907952755905513
 30
0.0
 10
-0.6490236220472441
 20
-1.8907952755905513
 30
0.0
 10
-1.2706732283464568
 20
-1.4952519685039372
 30
0.0
 10
-1.2706732283464568
 20
-1.4952519685039372
 30
0.0
 10
-1.2706732283464568
 20
-1.4952519685039372
 30
0.0
 10
-1.2706732283464568
 20
-1.4952519685039372
 30
0.0
 10
-1.134503937007874
 20
-1.4306023622047244
 30
0.0
 10
-1.134503937007874
 20
-1.4306023622047244
 30
0.0
  0
SPLINE
  5
3E
100
AcDbEntity
  8
P1-Layer 1
 62
     9
100
AcDbSpline
210
0.0
220
0.0
230
1.0
 70
     1
 71
     3
 72
    20
 73
    16
 74
     0
 42
0.0000000001
 43
0.0000000001
 40
0.0
 40
0.0
 40
0.0
 40
0.0
 40
0.25
 40
0.25
 40
0.25
 40
0.25
 40
0.5
 40
0.5
 40
0.5
 40
0.5
 40
0.75
 40
0.75
 40
0.75
 40
0.75
 40
1.0
 40
1.0
 40
1.0
 40
1.0
 10
-1.2706732283464568
 20
-1.4952519685039372
 30
0.0
 10
-1.2706732283464568
 20
-1.4952519685039372
 30
0.0
 10
-0.6490236220472441
 20
-1.8907952755905513
 30
0.0
 10
-0.6490236220472441
 20
-1.8907952755905513
 30
0.0
 10
-0.6490236220472441
 20
-1.8907952755905513
 30
0.0
 10
-0.6490236220472441
 20
-1.8907952755905513
 30
0.0
 10
-0.7848582677165354
 20
-1.9586850393700788
 30
0.0
 10
-0.7848582677165354
 20
-1.9586850393700788
 30
0.0
 10
-0.7848582677165354
 20
-1.9586850393700788
 30
0.0
 10
-0.7848582677165354
 20
-1.9586850393700788
 30
0.0
 10
-1.4065078740157482
 20
-1.5631417322834646
 30
0.0
 10
-1.4065078740157482
 20
-1.5631417322834646
 30
0.0
 10
-1.4065078740157482
 20
-1.5631417322834646
 30
0.0
 10
-1.4065078740157482
 20
-1.5631417322834646
 30
0.0
 10
-1.2706732283464568
 20
-1.4952519685039372
 30
0.0
 10
-1.2706732283464568
 20
-1.4952519685039372
 30
0.0
  0
SPLINE
  5
3F
100
AcDbEntity
  8
P1-Layer 1
 62
     9
100
AcDbSpline
210
0.0
220
0.0
230
1.0
 70
     1
 71
     3
 72
    20
 73
    16
 74
     0
 42
0.0000000001
 43
0.0000000001
 40
0.0
 40
0.0
 40
0.0
 40
0.0
 40
0.25
 40
0.25
 40
0.25
 40
0.25
 40
0.5
 40
0.5
 40
0.5
 40
0.5
 40
0.75
 40
0.75
 40
0.75
 40
0.75
 40
1.0
 40
1.0
 40
1.0
 40
1.0
 10
-1.4065078740157482
 20
-1.5631417322834646
 30
0.0
 10
-1.4065078740157482
 20
-1.5631417322834646
 30
0.0
 10
-0.7848582677165354
 20
-1.9586850393700788
 30
0.0
 10
-0.7848582677165354
 20
-1.9586850393700788
 30
0.0
 10
-0.7848582677165354
 20
-1.9586850393700788
 30
0.0
 10
-0.7848582677165354
 20
-1.9586850393700788
 30
0.0
 10
-0.9200433070866142
 20
-2.0295826771653545
 30
0.0
 10
-0.9200433070866142
 20
-2.0295826771653545
 30
0.0
 10
-0.9200433070866142
 20
-2.0295826771653545
 30
0.0
 10
-0.9200433070866142
 20
-2.0295826771653545
 30
0.0
 10
-1.5416929133858268
 20
-1.6340393700787401
 30
0.0
 10
-1.5416929133858268
 20
-1.6340393700787401
 30
0.0
 10
-1.5416929133858268
 20
-1.6340393700787401
 30
0.0
 10
-1.5416929133858268
 20
-1.6340393700787401
 30
0.0
 10
-1.4065078740157482
 20
-1.5631417322834646
 30
0.0
 10
-1.4065078740157482
 20
-1.5631417322834646
 30
0.0
  0
SPLINE
  5
40
100
AcDbEntity
  8
P1-Layer 1
 62
     9
100
AcDbSpline
210
0.0
220
0.0
230
1.0
 70
     1
 71
     3
 72
    20
 73
    16
 74
     0
 42
0.0000000001
 43
0.0000000001
 40
0.0
 40
0.0
 40
0.0
 40
0.0
 40
0.25
 40
0.25
 40
0.25
 40
0.25
 40
0.5
 40
0.5
 40
0.5
 40
0.5
 40
0.75
 40
0.75
 40
0.75
 40
0.75
 40
1.0
 40
1.0
 40
1.0
 40
1.0
 10
-1.5416929133858268
 20
-1.6340393700787401
 30
0.0
 10
-1.5416929133858268
 20
-1.6340393700787401
 30
0.0
 10
-0.9200433070866142
 20
-2.0295826771653545
 30
0.0
 10
-0.9200433070866142
 20
-2.0295826771653545
 30
0.0
 10
-0.9200433070866142
 20
-2.0295826771653545
 30
0.0
 10
-0.9200433070866142
 20
-2.0295826771653545
 30
0.0
 10
-1.0542480314960629
 20
-2.1032519685039373
 30
0.0
 10
-1.0542480314960629
 20
-2.1032519685039373
 30
0.0
 10
-1.0542480314960629
 20
-2.1032519685039373
 30
0.0
 10
-1.0542480314960629
 20
-2.1032519685039373
 30
0.0
 10
-1.6758976377952757
 20
-1.7077086614173229
 30
0.0
 10
-1.6758976377952757
 20
-1.7077086614173229
 30
0.0
 10
-1.6758976377952757
 20
-1.7077086614173229
 30
0.0
 10
-1.6758976377952757
 20
-1.7077086614173229
 30
0.0
 10
-1.5416929133858268
 20
-1.6340393700787401
 30
0.0
 10
-1.5416929133858268
 20
-1.6340393700787401
 30
0.0
  0
SPLINE
  5
41
100
AcDbEntity
  8
P1-Layer 1
 62
     9
100
AcDbSpline
210
0.0
220
0.0
230
1.0
 70
     1
 71
     3
 72
    20
 73
    16
 74
     0
 42
0.0000000001
 43
0.0000000001
 40
0.0
 40
0.0
 40
0.0
 40
0.0
 40
0.25
 40
0.25
 40
0.25
 40
0.25
 40
0.5
 40
0.5
 40
0.5
 40
0.5
 40
0.75
 40
0.75
 40
0.75
 40
0.75
 40
1.0
 40
1.0
 40
1.0
 40
1.0
 10
-1.6758976377952757
 20
-1.7077086614173229
 30
0.0
 10
-1.6758976377952757
 20
-1.7077086614173229
 30
0.0
 10
-1.0542480314960629
 20
-2.1032519685039373
 30
0.0
 10
-1.0542480314960629
 20
-2.1032519685039373
 30
0.0
 10
-1.0542480314960629
 20
-2.1032519685039373
 30
0.0
 10
-1.0542480314960629
 20
-2.1032519685039373
 30
0.0
 10
-1.1871496062992126
 20
-2.1794527559055119
 30
0.0
 10
-1.1871496062992126
 20
-2.1794527559055119
 30
0.0
 10
-1.1871496062992126
 20
-2.1794527559055119
 30
0.0
 10
-1.1871496062992126
 20
-2.1794527559055119
 30
0.0
 10
-1.8087992125984254
 20
-1.7839094488188978
 30
0.0
 10
-1.8087992125984254
 20
-1.7839094488188978
 30
0.0
 10
-1.8087992125984254
 20
-1.7839094488188978
 30
0.0
 10
-1.8087992125984254
 20
-1.7839094488188978
 30
0.0
 10
-1.6758976377952757
 20
-1.7077086614173229
 30
0.0
 10
-1.6758976377952757
 20
-1.7077086614173229
 30
0.0
  0
SPLINE
  5
42
100
AcDbEntity
  8
P1-Layer 1
370
     5
100
AcDbSpline
210
0.0
220
0.0
230
1.0
 70
     1
 71
     3
 72
   204
 73
   200
 74
     0
 42
0.0000000001
 43
0.0000000001
 40
0.0
 40
0.0
 40
0.0
 40
0.0
 40
0.02
 40
0.02
 40
0.02
 40
0.02
 40
0.04
 40
0.04
 40
0.04
 40
0.04
 40
0.06
 40
0.06
 40
0.06
 40
0.06
 40
0.08
 40
0.08
 40
0.08
 40
0.08
 40
0.1
 40
0.1
 40
0.1
 40
0.1
 40
0.12
 40
0.12
 40
0.12
 40
0.12
 40
0.14
 40
0.14
 40
0.14
 40
0.14
 40
0.16
 40
0.16
 40
0.16
 40
0.16
 40
0.18
 40
0.18
 40
0.18
 40
0.18
 40
0.2
 40
0.2
 40
0.2
 40
0.2
 40
0.22
 40
0.22
 40
0.22
 40
0.22
 40
0.24
 40
0.24
 40
0.24
 40
0.24
 40
0.26
 40
0.26
 40
0.26
 40
0.26
 40
0.28
 40
0.28
 40
0.28
 40
0.28
 40
0.3
 40
0.3
 40
0.3
 40
0.3
 40
0.32
 40
0.32
 40
0.32
 40
0.32
 40
0.34
 40
0.34
 40
0.34
 40
0.34
 40
0.36
 40
0.36
 40
0.36
 40
0.36
 40
0.3800000000000001
 40
0.3800000000000001
 40
0.3800000000000001
 40
0.3800000000000001
 40
0.4000000000000001
 40
0.4000000000000001
 40
0.4000000000000001
 40
0.4000000000000001
 40
0.4200000000000001
 40
0.4200000000000001
 40
0.4200000000000001
 40
0.4200000000000001
 40
0.4400000000000001
 40
0.4400000000000001
 40
0.4400000000000001
 40
0.4400000000000001
 40
0.4600000000000001
 40
0.4600000000000001
 40
0.4600000000000001
 40
0.4600000000000001
 40
0.4800000000000002
 40
0.4800000000000002
 40
0.4800000000000002
 40
0.4800000000000002
 40
0.5000000000000001
 40
0.5000000000000001
 40
0.5000000000000001
 40
0.5000000000000001
 40
0.5200000000000001
 40
0.5200000000000001
 40
0.5200000000000001
 40
0.5200000000000001
 40
0.5400000000000002
 40
0.5400000000000002
 40
0.5400000000000002
 40
0.5400000000000002
 40
0.5600000000000002
 40
0.5600000000000002
 40
0.5600000000000002
 40
0.5600000000000002
 40
0.5800000000000002
 40
0.5800000000000002
 40
0.5800000000000002
 40
0.5800000000000002
 40
0.6000000000000002
 40
0.6000000000000002
 40
0.6000000000000002
 40
0.6000000000000002
 40
0.6200000000000002
 40
0.6200000000000002
 40
0.6200000000000002
 40
0.6200000000000002
 40
0.6400000000000002
 40
0.6400000000000002
 40
0.6400000000000002
 40
0.6400000000000002
 40
0.6600000000000003
 40
0.6600000000000003
 40
0.6600000000000003
 40
0.6600000000000003
 40
0.6800000000000003
 40
0.6800000000000003
 40
0.6800000000000003
 40
0.6800000000000003
 40
0.7000000000000003
 40
0.7000000000000003
 40
0.7000000000000003
 40
0.7000000000000003
 40
0.7200000000000003
 40
0.7200000000000003
 40
0.7200000000000003
 40
0.7200000000000003
 40
0.7400000000000003
 40
0.7400000000000003
 40
0.7400000000000003
 40
0.7400000000000003
 40
0.7600000000000003
 40
0.7600000000000003
 40
0.7600000000000003
 40
0.7600000000000003
 40
0.7800000000000004
 40
0.7800000000000004
 40
0.7800000000000004
 40
0.7800000000000004
 40
0.8000000000000004
 40
0.8000000000000004
 40
0.8000000000000004
 40
0.8000000000000004
 40
0.8200000000000004
 40
0.8200000000000004
 40
0.8200000000000004
 40
0.8200000000000004
 40
0.8400000000000004
 40
0.8400000000000004
 40
0.8400000000000004
 40
0.8400000000000004
 40
0.8600000000000004
 40
0.8600000000000004
 40
0.8600000000000004
 40
0.8600000000000004
 40
0.8800000000000005
 40
0.8800000000000005
 40
0.8800000000000005
 40
0.8800000000000005
 40
0.9000000000000005
 40
0.9000000000000005
 40
0.9000000000000005
 40
0.9000000000000005
 40
0.9200000000000005
 40
0.9200000000000005
 40
0.9200000000000005
 40
0.9200000000000005
 40
0.9400000000000005
 40
0.9400000000000005
 40
0.9400000000000005
 40
0.9400000000000005
 40
0.9600000000000005
 40
0.9600000000000005
 40
0.9600000000000005
 40
0.9600000000000005
 40
0.9800000000000005
 40
0.9800000000000005
 40
0.9800000000000005
 40
0.9800000000000005
 40
1.0
 40
1.0
 40
1.0
 40
1.0
 10
1.0799094488188976
 20
-1.1363582677165356
 30
0.0
 10
1.0799094488188976
 20
-1.1363582677165356
 30
0.0
 10
1.7015590551181103
 20
-1.5319015748031497
 30
0.0
 10
1.7015590551181103
 20
-1.5319015748031497
 30
0.0
 10
1.7015590551181103
 20
-1.5319015748031497
 30
0.0
 10
1.7015590551181103
 20
-1.5319015748031497
 30
0.0
 10
1.6212952755905512
 20
-1.4895393700787403
 30
0.0
 10
1.6212952755905512
 20
-1.4895393700787403
 30
0.0
 10
1.6212952755905512
 20
-1.4895393700787403
 30
0.0
 10
1.6212952755905512
 20
-1.4895393700787403
 30
0.0
 10
1.5351496062992127
 20
-1.454964566929134
 30
0.0
 10
1.5351496062992127
 20
-1.454964566929134
 30
0.0
 10
1.5351496062992127
 20
-1.454964566929134
 30
0.0
 10
1.5351496062992127
 20
-1.454964566929134
 30
0.0
 10
1.4434448818897638
 20
-1.4279251968503937
 30
0.0
 10
1.4434448818897638
 20
-1.4279251968503937
 30
0.0
 10
1.4434448818897638
 20
-1.4279251968503937
 30
0.0
 10
1.4434448818897638
 20
-1.4279251968503937
 30
0.0
 10
1.3465157480314962
 20
-1.4081929133858269
 30
0.0
 10
1.3465157480314962
 20
-1.4081929133858269
 30
0.0
 10
1.3465157480314962
 20
-1.4081929133858269
 30
0.0
 10
1.3465157480314962
 20
-1.4081929133858269
 30
0.0
 10
1.2446771653543307
 20
-1.3955157480314961
 30
0.0
 10
1.2446771653543307
 20
-1.3955157480314961
 30
0.0
 10
1.2446771653543307
 20
-1.3955157480314961
 30
0.0
 10
1.2446771653543307
 20
-1.3955157480314961
 30
0.0
 10
1.1382677165354331
 20
-1.3896732283464568
 30
0.0
 10
1.1382677165354331
 20
-1.3896732283464568
 30
0.0
 10
1.1382677165354331
 20
-1.3896732283464568
 30
0.0
 10
1.1382677165354331
 20
-1.3896732283464568
 30
0.0
 10
1.0276023622047243
 20
-1.3904133858267718
 30
0.0
 10
1.0276023622047243
 20
-1.3904133858267718
 30
0.0
 10
1.0276023622047243
 20
-1.3904133858267718
 30
0.0
 10
1.0276023622047243
 20
-1.3904133858267718
 30
0.0
 10
0.9130196850393701
 20
-1.3975039370078741
 30
0.0
 10
0.9130196850393701
 20
-1.3975039370078741
 30
0.0
 10
0.9130196850393701
 20
-1.3975039370078741
 30
0.0
 10
0.9130196850393701
 20
-1.3975039370078741
 30
0.0
 10
0.7948346456692914
 20
-1.4106968503937007
 30
0.0
 10
0.7948346456692914
 20
-1.4106968503937007
 30
0.0
 10
0.7948346456692914
 20
-1.4106968503937007
 30
0.0
 10
0.7948346456692914
 20
-1.4106968503937007
 30
0.0
 10
0.6733858267716536
 20
-1.4297598425196851
 30
0.0
 10
0.6733858267716536
 20
-1.4297598425196851
 30
0.0
 10
0.6733858267716536
 20
-1.4297598425196851
 30
0.0
 10
0.6733858267716536
 20
-1.4297598425196851
 30
0.0
 10
0.548996062992126
 20
-1.454456692913386
 30
0.0
 10
0.548996062992126
 20
-1.454456692913386
 30
0.0
 10
0.548996062992126
 20
-1.454456692913386
 30
0.0
 10
0.548996062992126
 20
-1.454456692913386
 30
0.0
 10
0.4219803149606299
 20
-1.4845511811023622
 30
0.0
 10
0.4219803149606299
 20
-1.4845511811023622
 30
0.0
 10
0.4219803149606299
 20
-1.4845511811023622
 30
0.0
 10
0.4219803149606299
 20
-1.4845511811023622
 30
0.0
 10
0.2926850393700787
 20
-1.5197913385826771
 30
0.0
 10
0.2926850393700787
 20
-1.5197913385826771
 30
0.0
 10
0.2926850393700787
 20
-1.5197913385826771
 30
0.0
 10
0.2926850393700787
 20
-1.5197913385826771
 30
0.0
 10
0.1614251968503937
 20
-1.559952755905512
 30
0.0
 10
0.1614251968503937
 20
-1.559952755905512
 30
0.0
 10
0.1614251968503937
 20
-1.559952755905512
 30
0.0
 10
0.1614251968503937
 20
-1.559952755905512
 30
0.0
 10
0.0285314960629921
 20
-1.6047913385826773
 30
0.0
 10
0.0285314960629921
 20
-1.6047913385826773
 30
0.0
 10
0.0285314960629921
 20
-1.6047913385826773
 30
0.0
 10
0.0285314960629921
 20
-1.6047913385826773
 30
0.0
 10
-0.1056771653543307
 20
-1.6540748031496064
 30
0.0
 10
-0.1056771653543307
 20
-1.6540748031496064
 30
0.0
 10
-0.1056771653543307
 20
-1.6540748031496064
 30
0.0
 10
-0.1056771653543307
 20
-1.6540748031496064
 30
0.0
 10
-0.2408543307086614
 20
-1.7075472440944883
 30
0.0
 10
-0.2408543307086614
 20
-1.7075472440944883
 30
0.0
 10
-0.2408543307086614
 20
-1.7075472440944883
 30
0.0
 10
-0.2408543307086614
 20
-1.7075472440944883
 30
0.0
 10
-0.3766929133858268
 20
-1.7649881889763781
 30
0.0
 10
-0.3766929133858268
 20
-1.7649881889763781
 30
0.0
 10
-0.3766929133858268
 20
-1.7649881889763781
 30
0.0
 10
-0.3766929133858268
 20
-1.7649881889763781
 30
0.0
 10
-0.5128543307086615
 20
-1.8261456692913387
 30
0.0
 10
-0.5128543307086615
 20
-1.8261456692913387
 30
0.0
 10
-0.5128543307086615
 20
-1.8261456692913387
 30
0.0
 10
-0.5128543307086615
 20
-1.8261456692913387
 30
0.0
 10
-0.6490236220472441
 20
-1.8907952755905513
 30
0.0
 10
-0.6490236220472441
 20
-1.8907952755905513
 30
0.0
 10
-0.6490236220472441
 20
-1.8907952755905513
 30
0.0
 10
-0.6490236220472441
 20
-1.8907952755905513
 30
0.0
 10
-0.7848582677165354
 20
-1.9586850393700788
 30
0.0
 10
-0.7848582677165354
 20
-1.9586850393700788
 30
0.0
 10
-0.7848582677165354
 20
-1.9586850393700788
 30
0.0
 10
-0.7848582677165354
 20
-1.9586850393700788
 30
0.0
 10
-0.9200433070866142
 20
-2.0295826771653545
 30
0.0
 10
-0.9200433070866142
 20
-2.0295826771653545
 30
0.0
 10
-0.9200433070866142
 20
-2.0295826771653545
 30
0.0
 10
-0.9200433070866142
 20
-2.0295826771653545
 30
0.0
 10
-1.0542480314960629
 20
-2.1032519685039373
 30
0.0
 10
-1.0542480314960629
 20
-2.1032519685039373
 30
0.0
 10
-1.0542480314960629
 20
-2.1032519685039373
 30
0.0
 10
-1.0542480314960629
 20
-2.1032519685039373
 30
0.0
 10
-1.1871496062992126
 20
-2.1794527559055119
 30
0.0
 10
-1.1871496062992126
 20
-2.1794527559055119
 30
0.0
 10
-1.1871496062992126
 20
-2.1794527559055119
 30
0.0
 10
-1.1871496062992126
 20
-2.1794527559055119
 30
0.0
 10
-1.8087992125984254
 20
-1.7839094488188978
 30
0.0
 10
-1.8087992125984254
 20
-1.7839094488188978
 30
0.0
 10
-1.8087992125984254
 20
-1.7839094488188978
 30
0.0
 10
-1.8087992125984254
 20
-1.7839094488188978
 30
0.0
 10
-1.6758976377952757
 20
-1.7077086614173229
 30
0.0
 10
-1.6758976377952757
 20
-1.7077086614173229
 30
0.0
 10
-1.6758976377952757
 20
-1.7077086614173229
 30
0.0
 10
-1.6758976377952757
 20
-1.7077086614173229
 30
0.0
 10
-1.5416929133858268
 20
-1.6340393700787401
 30
0.0
 10
-1.5416929133858268
 20
-1.6340393700787401
 30
0.0
 10
-1.5416929133858268
 20
-1.6340393700787401
 30
0.0
 10
-1.5416929133858268
 20
-1.6340393700787401
 30
0.0
 10
-1.4065078740157482
 20
-1.5631417322834646
 30
0.0
 10
-1.4065078740157482
 20
-1.5631417322834646
 30
0.0
 10
-1.4065078740157482
 20
-1.5631417322834646
 30
0.0
 10
-1.4065078740157482
 20
-1.5631417322834646
 30
0.0
 10
-1.2706732283464568
 20
-1.4952519685039372
 30
0.0
 10
-1.2706732283464568
 20
-1.4952519685039372
 30
0.0
 10
-1.2706732283464568
 20
-1.4952519685039372
 30
0.0
 10
-1.2706732283464568
 20
-1.4952519685039372
 30
0.0
 10
-1.134503937007874
 20
-1.4306023622047244
 30
0.0
 10
-1.134503937007874
 20
-1.4306023622047244
 30
0.0
 10
-1.134503937007874
 20
-1.4306023622047244
 30
0.0
 10
-1.134503937007874
 20
-1.4306023622047244
 30
0.0
 10
-0.9983425196850394
 20
-1.3694448818897638
 30
0.0
 10
-0.9983425196850394
 20
-1.3694448818897638
 30
0.0
 10
-0.9983425196850394
 20
-1.3694448818897638
 30
0.0
 10
-0.9983425196850394
 20
-1.3694448818897638
 30
0.0
 10
-0.8625039370078741
 20
-1.312003937007874
 30
0.0
 10
-0.8625039370078741
 20
-1.312003937007874
 30
0.0
 10
-0.8625039370078741
 20
-1.312003937007874
 30
0.0
 10
-0.8625039370078741
 20
-1.312003937007874
 30
0.0
 10
-0.7273267716535433
 20
-1.2585314960629921
 30
0.0
 10
-0.7273267716535433
 20
-1.2585314960629921
 30
0.0
 10
-0.7273267716535433
 20
-1.2585314960629921
 30
0.0
 10
-0.7273267716535433
 20
-1.2585314960629921
 30
0.0
 10
-0.5931181102362205
 20
-1.209248031496063
 30
0.0
 10
-0.5931181102362205
 20
-1.209248031496063
 30
0.0
 10
-0.5931181102362205
 20
-1.209248031496063
 30
0.0
 10
-0.5931181102362205
 20
-1.209248031496063
 30
0.0
 10
-0.4602244094488189
 20
-1.1644094488188976
 30
0.0
 10
-0.4602244094488189
 20
-1.1644094488188976
 30
0.0
 10
-0.4602244094488189
 20
-1.1644094488188976
 30
0.0
 10
-0.4602244094488189
 20
-1.1644094488188976
 30
0.0
 10
-0.3289645669291339
 20
-1.124248031496063
 30
0.0
 10
-0.3289645669291339
 20
-1.124248031496063
 30
0.0
 10
-0.3289645669291339
 20
-1.124248031496063
 30
0.0
 10
-0.3289645669291339
 20
-1.124248031496063
 30
0.0
 10
-0.1996692913385827
 20
-1.0890078740157481
 30
0.0
 10
-0.1996692913385827
 20
-1.0890078740157481
 30
0.0
 10
-0.1996692913385827
 20
-1.0890078740157481
 30
0.0
 10
-0.1996692913385827
 20
-1.0890078740157481
 30
0.0
 10
-0.0726535433070866
 20
-1.0589133858267716
 30
0.0
 10
-0.0726535433070866
 20
-1.0589133858267716
 30
0.0
 10
-0.0726535433070866
 20
-1.0589133858267716
 30
0.0
 10
-0.0726535433070866
 20
-1.0589133858267716
 30
0.0
 10
0.0517362204724409
 20
-1.034216535433071
 30
0.0
 10
0.0517362204724409
 20
-1.034216535433071
 30
0.0
 10
0.0517362204724409
 20
-1.034216535433071
 30
0.0
 10
0.0517362204724409
 20
-1.034216535433071
 30
0.0
 10
0.1731850393700788
 20
-1.0151535433070866
 30
0.0
 10
0.1731850393700788
 20
-1.0151535433070866
 30
0.0
 10
0.1731850393700788
 20
-1.0151535433070866
 30
0.0
 10
0.1731850393700788
 20
-1.0151535433070866
 30
0.0
 10
0.2913700787401575
 20
-1.0019606299212598
 30
0.0
 10
0.2913700787401575
 20
-1.0019606299212598
 30
0.0
 10
0.2913700787401575
 20
-1.0019606299212598
 30
0.0
 10
0.2913700787401575
 20
-1.0019606299212598
 30
0.0
 10
0.4059527559055118
 20
-0.9948700787401575
 30
0.0
 10
0.4059527559055118
 20
-0.9948700787401575
 30
0.0
 10
0.4059527559055118
 20
-0.9948700787401575
 30
0.0
 10
0.4059527559055118
 20
-0.9948700787401575
 30
0.0
 10
0.5166181102362205
 20
-0.9941299212598426
 30
0.0
 10
0.5166181102362205
 20
-0.9941299212598426
 30
0.0
 10
0.5166181102362205
 20
-0.9941299212598426
 30
0.0
 10
0.5166181102362205
 20
-0.9941299212598426
 30
0.0
 10
0.6230275590551181
 20
-0.9999724409448819
 30
0.0
 10
0.6230275590551181
 20
-0.9999724409448819
 30
0.0
 10
0.6230275590551181
 20
-0.9999724409448819
 30
0.0
 10
0.6230275590551181
 20
-0.9999724409448819
 30
0.0
 10
0.7248661417322835
 20
-1.0126496062992127
 30
0.0
 10
0.7248661417322835
 20
-1.0126496062992127
 30
0.0
 10
0.7248661417322835
 20
-1.0126496062992127
 30
0.0
 10
0.7248661417322835
 20
-1.0126496062992127
 30
0.0
 10
0.8217952755905512
 20
-1.0323818897637795
 30
0.0
 10
0.8217952755905512
 20
-1.0323818897637795
 30
0.0
 10
0.8217952755905512
 20
-1.0323818897637795
 30
0.0
 10
0.8217952755905512
 20
-1.0323818897637795
 30
0.0
 10
0.9135000000000001
 20
-1.0594212598425197
 30
0.0
 10
0.9135000000000001
 20
-1.0594212598425197
 30
0.0
 10
0.9135000000000001
 20
-1.0594212598425197
 30
0.0
 10
0.9135000000000001
 20
-1.0594212598425197
 30
0.0
 10
0.9996456692913386
 20
-1.0939960629921259
 30
0.0
 10
0.9996456692913386
 20
-1.0939960629921259
 30
0.0
 10
0.9996456692913386
 20
-1.0939960629921259
 30
0.0
 10
0.9996456692913386
 20
-1.0939960629921259
 30
0.0
 10
1.0799094488188976
 20
-1.1363582677165356
 30
0.0
 10
1.0799094488188976
 20
-1.1363582677165356
 30
0.0
  0
SPLINE
  5
43
100
AcDbEntity
  8
P1-Layer 1
 62
     9
100
AcDbSpline
210
0.0
220
0.0
230
1.0
 70
     1
 71
     3
 72
    20
 73
    16
 74
     0
 42
0.0000000001
 43
0.0000000001
 40
0.0
 40
0.0
 40
0.0
 40
0.0
 40
0.25
 40
0.25
 40
0.25
 40
0.25
 40
0.5
 40
0.5
 40
0.5
 40
0.5
 40
0.75
 40
0.75
 40
0.75
 40
0.75
 40
1.0
 40
1.0
 40
1.0
 40
1.0
 10
-1.8087992125984254
 20
-1.7839094488188978
 30
0.0
 10
-1.8087992125984254
 20
-1.7839094488188978
 30
0.0
 10
-1.1871496062992126
 20
-2.1794527559055119
 30
0.0
 10
-1.1871496062992126
 20
-2.1794527559055119
 30
0.0
 10
-1.1871496062992126
 20
-2.1794527559055119
 30
0.0
 10
-1.1871496062992126
 20
-2.1794527559055119
 30
0.0
 10
-3.2329133858267718
 20
-2.1794527559055119
 30
0.0
 10
-3.2329133858267718
 20
-2.1794527559055119
 30
0.0
 10
-3.2329133858267718
 20
-2.1794527559055119
 30
0.0
 10
-3.2329133858267718
 20
-2.1794527559055119
 30
0.0
 10
-3.8545629921259845
 20
-1.7839094488188978
 30
0.0
 10
-3.8545629921259845
 20
-1.7839094488188978
 30
0.0
 10
-3.8545629921259845
 20
-1.7839094488188978
 30
0.0
 10
-3.8545629921259845
 20
-1.7839094488188978
 30
0.0
 10
-1.8087992125984254
 20
-1.7839094488188978
 30
0.0
 10
-1.8087992125984254
 20
-1.7839094488188978
 30
0.0
  0
SPLINE
  5
44
100
AcDbEntity
  8
P1-Layer 1
370
     5
100
AcDbSpline
210
0.0
220
0.0
230
1.0
 70
     1
 71
     3
 72
    20
 73
    16
 74
     0
 42
0.0000000001
 43
0.0000000001
 40
0.0
 40
0.0
 40
0.0
 40
0.0
 40
0.25
 40
0.25
 40
0.25
 40
0.25
 40
0.5
 40
0.5
 40
0.5
 40
0.5
 40
0.75
 40
0.75
 40
0.75
 40
0.75
 40
1.0
 40
1.0
 40
1.0
 40
1.0
 10
-1.8087992125984254
 20
-1.7839094488188978
 30
0.0
 10
-1.8087992125984254
 20
-1.7839094488188978
 30
0.0
 10
-1.1871496062992126
 20
-2.1794527559055119
 30
0.0
 10
-1.1871496062992126
 20
-2.1794527559055119
 30
0.0
 10
-1.1871496062992126
 20
-2.1794527559055119
 30
0.0
 10
-1.1871496062992126
 20
-2.1794527559055119
 30
0.0
 10
-3.2329133858267718
 20
-2.1794527559055119
 30
0.0
 10
-3.2329133858267718
 20
-2.1794527559055119
 30
0.0
 10
-3.2329133858267718
 20
-2.1794527559055119
 30
0.0
 10
-3.2329133858267718
 20
-2.1794527559055119
 30
0.0
 10
-3.8545629921259845
 20
-1.7839094488188978
 30
0.0
 10
-3.8545629921259845
 20
-1.7839094488188978
 30
0.0
 10
-3.8545629921259845
 20
-1.7839094488188978
 30
0.0
 10
-3.8545629921259845
 20
-1.7839094488188978
 30
0.0
 10
-1.8087992125984254
 20
-1.7839094488188978
 30
0.0
 10
-1.8087992125984254
 20
-1.7839094488188978
 30
0.0
  0
SPLINE
  5
45
100
AcDbEntity
  8
P1-Layer 1
 62
     9
100
AcDbSpline
210
0.0
220
0.0
230
1.0
 70
     1
 71
     3
 72
    20
 73
    16
 74
     0
 42
0.0000000001
 43
0.0000000001
 40
0.0
 40
0.0
 40
0.0
 40
0.0
 40
0.25
 40
0.25
 40
0.25
 40
0.25
 40
0.5
 40
0.5
 40
0.5
 40
0.5
 40
0.75
 40
0.75
 40
0.75
 40
0.75
 40
1.0
 40
1.0
 40
1.0
 40
1.0
 10
3.145433070866142
 20
0.0910905511811024
 30
0.0
 10
3.145433070866142
 20
0.0910905511811024
 30
0.0
 10
3.7670826771653543
 20
-0.3044527559055118
 30
0.0
 10
3.7670826771653543
 20
-0.3044527559055118
 30
0.0
 10
3.7670826771653543
 20
-0.3044527559055118
 30
0.0
 10
3.7670826771653543
 20
-0.3044527559055118
 30
0.0
 10
3.7670826771653543
 20
-2.1794527559055119
 30
0.0
 10
3.7670826771653543
 20
-2.1794527559055119
 30
0.0
 10
3.7670826771653543
 20
-2.1794527559055119
 30
0.0
 10
3.7670826771653543
 20
-2.1794527559055119
 30
0.0
 10
3.145433070866142
 20
-1.7839094488188978
 30
0.0
 10
3.145433070866142
 20
-1.7839094488188978
 30
0.0
 10
3.145433070866142
 20
-1.7839094488188978
 30
0.0
 10
3.145433070866142
 20
-1.7839094488188978
 30
0.0
 10
3.145433070866142
 20
0.0910905511811024
 30
0.0
 10
3.145433070866142
 20
0.0910905511811024
 30
0.0
  0
SPLINE
  5
46
100
AcDbEntity
  8
P1-Layer 1
370
     5
100
AcDbSpline
210
0.0
220
0.0
230
1.0
 70
     1
 71
     3
 72
    20
 73
    16
 74
     0
 42
0.0000000001
 43
0.0000000001
 40
0.0
 40
0.0
 40
0.0
 40
0.0
 40
0.25
 40
0.25
 40
0.25
 40
0.25
 40
0.5
 40
0.5
 40
0.5
 40
0.5
 40
0.75
 40
0.75
 40
0.75
 40
0.75
 40
1.0
 40
1.0
 40
1.0
 40
1.0
 10
3.145433070866142
 20
0.0910905511811024
 30
0.0
 10
3.145433070866142
 20
0.0910905511811024
 30
0.0
 10
3.7670826771653543
 20
-0.3044527559055118
 30
0.0
 10
3.7670826771653543
 20
-0.3044527559055118
 30
0.0
 10
3.7670826771653543
 20
-0.3044527559055118
 30
0.0
 10
3.7670826771653543
 20
-0.3044527559055118
 30
0.0
 10
3.7670826771653543
 20
-2.1794527559055119
 30
0.0
 10
3.7670826771653543
 20
-2.1794527559055119
 30
0.0
 10
3.7670826771653543
 20
-2.1794527559055119
 30
0.0
 10
3.7670826771653543
 20
-2.1794527559055119
 30
0.0
 10
3.145433070866142
 20
-1.7839094488188978
 30
0.0
 10
3.145433070866142
 20
-1.7839094488188978
 30
0.0
 10
3.145433070866142
 20
-1.7839094488188978
 30
0.0
 10
3.145433070866142
 20
-1.7839094488188978
 30
0.0
 10
3.145433070866142
 20
0.0910905511811024
 30
0.0
 10
3.145433070866142
 20
0.0910905511811024
 30
0.0
  0
SPLINE
  5
47
100
AcDbEntity
  8
P1-Layer 1
 62
     9
100
AcDbSpline
210
0.0
220
0.0
230
1.0
 70
     1
 71
     3
 72
    20
 73
    16
 74
     0
 42
0.0000000001
 43
0.0000000001
 40
0.0
 40
0.0
 40
0.0
 40
0.0
 40
0.25
 40
0.25
 40
0.25
 40
0.25
 40
0.5
 40
0.5
 40
0.5
 40
0.5
 40
0.75
 40
0.75
 40
0.75
 40
0.75
 40
1.0
 40
1.0
 40
1.0
 40
1.0
 10
3.145433070866142
 20
-1.7839094488188978
 30
0.0
 10
3.145433070866142
 20
-1.7839094488188978
 30
0.0
 10
3.7670826771653543
 20
-2.1794527559055119
 30
0.0
 10
3.7670826771653543
 20
-2.1794527559055119
 30
0.0
 10
3.7670826771653543
 20
-2.1794527559055119
 30
0.0
 10
3.7670826771653543
 20
-2.1794527559055119
 30
0.0
 10
2.0925669291338584
 20
-2.1794527559055119
 30
0.0
 10
2.0925669291338584
 20
-2.1794527559055119
 30
0.0
 10
2.0925669291338584
 20
-2.1794527559055119
 30
0.0
 10
2.0925669291338584
 20
-2.1794527559055119
 30
0.0
 10
1.4709173228346457
 20
-1.7839094488188978
 30
0.0
 10
1.4709173228346457
 20
-1.7839094488188978
 30
0.0
 10
1.4709173228346457
 20
-1.7839094488188978
 30
0.0
 10
1.4709173228346457
 20
-1.7839094488188978
 30
0.0
 10
3.145433070866142
 20
-1.7839094488188978
 30
0.0
 10
3.145433070866142
 20
-1.7839094488188978
 30
0.0
  0
SPLINE
  5
48
100
AcDbEntity
  8
P1-Layer 1
370
     5
100
AcDbSpline
210
0.0
220
0.0
230
1.0
 70
     1
 71
     3
 72
    20
 73
    16
 74
     0
 42
0.0000000001
 43
0.0000000001
 40
0.0
 40
0.0
 40
0.0
 40
0.0
 40
0.25
 40
0.25
 40
0.25
 40
0.25
 40
0.5
 40
0.5
 40
0.5
 40
0.5
 40
0.75
 40
0.75
 40
0.75
 40
0.75
 40
1.0
 40
1.0
 40
1.0
 40
1.0
 10
3.145433070866142
 20
-1.7839094488188978
 30
0.0
 10
3.145433070866142
 20
-1.7839094488188978
 30
0.0
 10
3.7670826771653543
 20
-2.1794527559055119
 30
0.0
 10
3.7670826771653543
 20
-2.1794527559055119
 30
0.0
 10
3.7670826771653543
 20
-2.1794527559055119
 30
0.0
 10
3.7670826771653543
 20
-2.1794527559055119
 30
0.0
 10
2.0925669291338584
 20
-2.1794527559055119
 30
0.0
 10
2.0925669291338584
 20
-2.1794527559055119
 30
0.0
 10
2.0925669291338584
 20
-2.1794527559055119
 30
0.0
 10
2.0925669291338584
 20
-2.1794527559055119
 30
0.0
 10
1.4709173228346457
 20
-1.7839094488188978
 30
0.0
 10
1.4709173228346457
 20
-1.7839094488188978
 30
0.0
 10
1.4709173228346457
 20
-1.7839094488188978
 30
0.0
 10
1.4709173228346457
 20
-1.7839094488188978
 30
0.0
 10
3.145433070866142
 20
-1.7839094488188978
 30
0.0
 10
3.145433070866142
 20
-1.7839094488188978
 30
0.0
  0
SPLINE
  5
49
100
AcDbEntity
  8
P1-Layer 1
 62
   109
100
AcDbSpline
210
0.0
220
0.0
230
1.0
 70
     1
 71
     3
 72
    20
 73
    16
 74
     0
 42
0.0000000001
 43
0.0000000001
 40
0.0
 40
0.0
 40
0.0
 40
0.0
 40
0.25
 40
0.25
 40
0.25
 40
0.25
 40
0.5
 40
0.5
 40
0.5
 40
0.5
 40
0.75
 40
0.75
 40
0.75
 40
0.75
 40
1.0
 40
1.0
 40
1.0
 40
1.0
 10
1.0799094488188976
 20
-1.1363582677165356
 30
0.0
 10
1.0799094488188976
 20
-1.1363582677165356
 30
0.0
 10
1.7015590551181103
 20
-1.5319015748031497
 30
0.0
 10
1.7015590551181103
 20
-1.5319015748031497
 30
0.0
 10
1.7015590551181103
 20
-1.5319015748031497
 30
0.0
 10
1.7015590551181103
 20
-1.5319015748031497
 30
0.0
 10
1.6212952755905512
 20
-1.4895393700787403
 30
0.0
 10
1.6212952755905512
 20
-1.4895393700787403
 30
0.0
 10
1.6212952755905512
 20
-1.4895393700787403
 30
0.0
 10
1.6212952755905512
 20
-1.4895393700787403
 30
0.0
 10
0.9996456692913386
 20
-1.0939960629921259
 30
0.0
 10
0.9996456692913386
 20
-1.0939960629921259
 30
0.0
 10
0.9996456692913386
 20
-1.0939960629921259
 30
0.0
 10
0.9996456692913386
 20
-1.0939960629921259
 30
0.0
 10
1.0799094488188976
 20
-1.1363582677165356
 30
0.0
 10
1.0799094488188976
 20
-1.1363582677165356
 30
0.0
  0
SPLINE
  5
4A
100
AcDbEntity
  8
P1-Layer 1
 62
     8
100
AcDbSpline
210
0.0
220
0.0
230
1.0
 70
     1
 71
     3
 72
    20
 73
    16
 74
     0
 42
0.0000000001
 43
0.0000000001
 40
0.0
 40
0.0
 40
0.0
 40
0.0
 40
0.25
 40
0.25
 40
0.25
 40
0.25
 40
0.5
 40
0.5
 40
0.5
 40
0.5
 40
0.75
 40
0.75
 40
0.75
 40
0.75
 40
1.0
 40
1.0
 40
1.0
 40
1.0
 10
0.9996456692913386
 20
-1.0939960629921259
 30
0.0
 10
0.9996456692913386
 20
-1.0939960629921259
 30
0.0
 10
1.6212952755905512
 20
-1.4895393700787403
 30
0.0
 10
1.6212952755905512
 20
-1.4895393700787403
 30
0.0
 10
1.6212952755905512
 20
-1.4895393700787403
 30
0.0
 10
1.6212952755905512
 20
-1.4895393700787403
 30
0.0
 10
1.5351496062992127
 20
-1.454964566929134
 30
0.0
 10
1.5351496062992127
 20
-1.454964566929134
 30
0.0
 10
1.5351496062992127
 20
-1.454964566929134
 30
0.0
 10
1.5351496062992127
 20
-1.454964566929134
 30
0.0
 10
0.9135000000000001
 20
-1.0594212598425197
 30
0.0
 10
0.9135000000000001
 20
-1.0594212598425197
 30
0.0
 10
0.9135000000000001
 20
-1.0594212598425197
 30
0.0
 10
0.9135000000000001
 20
-1.0594212598425197
 30
0.0
 10
0.9996456692913386
 20
-1.0939960629921259
 30
0.0
 10
0.9996456692913386
 20
-1.0939960629921259
 30
0.0
  0
SPLINE
  5
4B
100
AcDbEntity
  8
P1-Layer 1
 62
   253
100
AcDbSpline
210
0.0
220
0.0
230
1.0
 70
     1
 71
     3
 72
    20
 73
    16
 74
     0
 42
0.0000000001
 43
0.0000000001
 40
0.0
 40
0.0
 40
0.0
 40
0.0
 40
0.25
 40
0.25
 40
0.25
 40
0.25
 40
0.5
 40
0.5
 40
0.5
 40
0.5
 40
0.75
 40
0.75
 40
0.75
 40
0.75
 40
1.0
 40
1.0
 40
1.0
 40
1.0
 10
0.9135000000000001
 20
-1.0594212598425197
 30
0.0
 10
0.9135000000000001
 20
-1.0594212598425197
 30
0.0
 10
1.5351496062992127
 20
-1.454964566929134
 30
0.0
 10
1.5351496062992127
 20
-1.454964566929134
 30
0.0
 10
1.5351496062992127
 20
-1.454964566929134
 30
0.0
 10
1.5351496062992127
 20
-1.454964566929134
 30
0.0
 10
1.4434448818897638
 20
-1.4279251968503937
 30
0.0
 10
1.4434448818897638
 20
-1.4279251968503937
 30
0.0
 10
1.4434448818897638
 20
-1.4279251968503937
 30
0.0
 10
1.4434448818897638
 20
-1.4279251968503937
 30
0.0
 10
0.8217952755905512
 20
-1.0323818897637795
 30
0.0
 10
0.8217952755905512
 20
-1.0323818897637795
 30
0.0
 10
0.8217952755905512
 20
-1.0323818897637795
 30
0.0
 10
0.8217952755905512
 20
-1.0323818897637795
 30
0.0
 10
0.9135000000000001
 20
-1.0594212598425197
 30
0.0
 10
0.9135000000000001
 20
-1.0594212598425197
 30
0.0
  0
SPLINE
  5
4C
100
AcDbEntity
  8
P1-Layer 1
 62
   253
100
AcDbSpline
210
0.0
220
0.0
230
1.0
 70
     1
 71
     3
 72
    20
 73
    16
 74
     0
 42
0.0000000001
 43
0.0000000001
 40
0.0
 40
0.0
 40
0.0
 40
0.0
 40
0.25
 40
0.25
 40
0.25
 40
0.25
 40
0.5
 40
0.5
 40
0.5
 40
0.5
 40
0.75
 40
0.75
 40
0.75
 40
0.75
 40
1.0
 40
1.0
 40
1.0
 40
1.0
 10
0.8217952755905512
 20
-1.0323818897637795
 30
0.0
 10
0.8217952755905512
 20
-1.0323818897637795
 30
0.0
 10
1.4434448818897638
 20
-1.4279251968503937
 30
0.0
 10
1.4434448818897638
 20
-1.4279251968503937
 30
0.0
 10
1.4434448818897638
 20
-1.4279251968503937
 30
0.0
 10
1.4434448818897638
 20
-1.4279251968503937
 30
0.0
 10
1.3465157480314962
 20
-1.4081929133858269
 30
0.0
 10
1.3465157480314962
 20
-1.4081929133858269
 30
0.0
 10
1.3465157480314962
 20
-1.4081929133858269
 30
0.0
 10
1.3465157480314962
 20
-1.4081929133858269
 30
0.0
 10
0.7248661417322835
 20
-1.0126496062992127
 30
0.0
 10
0.7248661417322835
 20
-1.0126496062992127
 30
0.0
 10
0.7248661417322835
 20
-1.0126496062992127
 30
0.0
 10
0.7248661417322835
 20
-1.0126496062992127
 30
0.0
 10
0.8217952755905512
 20
-1.0323818897637795
 30
0.0
 10
0.8217952755905512
 20
-1.0323818897637795
 30
0.0
  0
SPLINE
  5
4D
100
AcDbEntity
  8
P1-Layer 1
 62
   253
100
AcDbSpline
210
0.0
220
0.0
230
1.0
 70
     1
 71
     3
 72
    20
 73
    16
 74
     0
 42
0.0000000001
 43
0.0000000001
 40
0.0
 40
0.0
 40
0.0
 40
0.0
 40
0.25
 40
0.25
 40
0.25
 40
0.25
 40
0.5
 40
0.5
 40
0.5
 40
0.5
 40
0.75
 40
0.75
 40
0.75
 40
0.75
 40
1.0
 40
1.0
 40
1.0
 40
1.0
 10
0.7248661417322835
 20
-1.0126496062992127
 30
0.0
 10
0.7248661417322835
 20
-1.0126496062992127
 30
0.0
 10
1.3465157480314962
 20
-1.4081929133858269
 30
0.0
 10
1.3465157480314962
 20
-1.4081929133858269
 30
0.0
 10
1.3465157480314962
 20
-1.4081929133858269
 30
0.0
 10
1.3465157480314962
 20
-1.4081929133858269
 30
0.0
 10
1.2446771653543307
 20
-1.3955157480314961
 30
0.0
 10
1.2446771653543307
 20
-1.3955157480314961
 30
0.0
 10
1.2446771653543307
 20
-1.3955157480314961
 30
0.0
 10
1.2446771653543307
 20
-1.3955157480314961
 30
0.0
 10
0.6230275590551181
 20
-0.9999724409448819
 30
0.0
 10
0.6230275590551181
 20
-0.9999724409448819
 30
0.0
 10
0.6230275590551181
 20
-0.9999724409448819
 30
0.0
 10
0.6230275590551181
 20
-0.9999724409448819
 30
0.0
 10
0.7248661417322835
 20
-1.0126496062992127
 30
0.0
 10
0.7248661417322835
 20
-1.0126496062992127
 30
0.0
  0
SPLINE
  5
4E
100
AcDbEntity
  8
P1-Layer 1
 62
   253
100
AcDbSpline
210
0.0
220
0.0
230
1.0
 70
     1
 71
     3
 72
    20
 73
    16
 74
     0
 42
0.0000000001
 43
0.0000000001
 40
0.0
 40
0.0
 40
0.0
 40
0.0
 40
0.25
 40
0.25
 40
0.25
 40
0.25
 40
0.5
 40
0.5
 40
0.5
 40
0.5
 40
0.75
 40
0.75
 40
0.75
 40
0.75
 40
1.0
 40
1.0
 40
1.0
 40
1.0
 10
0.6230275590551181
 20
-0.9999724409448819
 30
0.0
 10
0.6230275590551181
 20
-0.9999724409448819
 30
0.0
 10
1.2446771653543307
 20
-1.3955157480314961
 30
0.0
 10
1.2446771653543307
 20
-1.3955157480314961
 30
0.0
 10
1.2446771653543307
 20
-1.3955157480314961
 30
0.0
 10
1.2446771653543307
 20
-1.3955157480314961
 30
0.0
 10
1.1382677165354331
 20
-1.3896732283464568
 30
0.0
 10
1.1382677165354331
 20
-1.3896732283464568
 30
0.0
 10
1.1382677165354331
 20
-1.3896732283464568
 30
0.0
 10
1.1382677165354331
 20
-1.3896732283464568
 30
0.0
 10
0.5166181102362205
 20
-0.9941299212598426
 30
0.0
 10
0.5166181102362205
 20
-0.9941299212598426
 30
0.0
 10
0.5166181102362205
 20
-0.9941299212598426
 30
0.0
 10
0.5166181102362205
 20
-0.9941299212598426
 30
0.0
 10
0.6230275590551181
 20
-0.9999724409448819
 30
0.0
 10
0.6230275590551181
 20
-0.9999724409448819
 30
0.0
  0
SPLINE
  5
4F
100
AcDbEntity
  8
P1-Layer 1
 62
     9
100
AcDbSpline
210
0.0
220
0.0
230
1.0
 70
     1
 71
     3
 72
    20
 73
    16
 74
     0
 42
0.0000000001
 43
0.0000000001
 40
0.0
 40
0.0
 40
0.0
 40
0.0
 40
0.25
 40
0.25
 40
0.25
 40
0.25
 40
0.5
 40
0.5
 40
0.5
 40
0.5
 40
0.75
 40
0.75
 40
0.75
 40
0.75
 40
1.0
 40
1.0
 40
1.0
 40
1.0
 10
0.5166181102362205
 20
-0.9941299212598426
 30
0.0
 10
0.5166181102362205
 20
-0.9941299212598426
 30
0.0
 10
1.1382677165354331
 20
-1.3896732283464568
 30
0.0
 10
1.1382677165354331
 20
-1.3896732283464568
 30
0.0
 10
1.1382677165354331
 20
-1.3896732283464568
 30
0.0
 10
1.1382677165354331
 20
-1.3896732283464568
 30
0.0
 10
1.0276023622047243
 20
-1.3904133858267718
 30
0.0
 10
1.0276023622047243
 20
-1.3904133858267718
 30
0.0
 10
1.0276023622047243
 20
-1.3904133858267718
 30
0.0
 10
1.0276023622047243
 20
-1.3904133858267718
 30
0.0
 10
0.4059527559055118
 20
-0.9948700787401575
 30
0.0
 10
0.4059527559055118
 20
-0.9948700787401575
 30
0.0
 10
0.4059527559055118
 20
-0.9948700787401575
 30
0.0
 10
0.4059527559055118
 20
-0.9948700787401575
 30
0.0
 10
0.5166181102362205
 20
-0.9941299212598426
 30
0.0
 10
0.5166181102362205
 20
-0.9941299212598426
 30
0.0
  0
SPLINE
  5
50
100
AcDbEntity
  8
P1-Layer 1
 62
     9
100
AcDbSpline
210
0.0
220
0.0
230
1.0
 70
     1
 71
     3
 72
    20
 73
    16
 74
     0
 42
0.0000000001
 43
0.0000000001
 40
0.0
 40
0.0
 40
0.0
 40
0.0
 40
0.25
 40
0.25
 40
0.25
 40
0.25
 40
0.5
 40
0.5
 40
0.5
 40
0.5
 40
0.75
 40
0.75
 40
0.75
 40
0.75
 40
1.0
 40
1.0
 40
1.0
 40
1.0
 10
0.4059527559055118
 20
-0.9948700787401575
 30
0.0
 10
0.4059527559055118
 20
-0.9948700787401575
 30
0.0
 10
1.0276023622047243
 20
-1.3904133858267718
 30
0.0
 10
1.0276023622047243
 20
-1.3904133858267718
 30
0.0
 10
1.0276023622047243
 20
-1.3904133858267718
 30
0.0
 10
1.0276023622047243
 20
-1.3904133858267718
 30
0.0
 10
0.9130196850393701
 20
-1.3975039370078741
 30
0.0
 10
0.9130196850393701
 20
-1.3975039370078741
 30
0.0
 10
0.9130196850393701
 20
-1.3975039370078741
 30
0.0
 10
0.9130196850393701
 20
-1.3975039370078741
 30
0.0
 10
0.2913700787401575
 20
-1.0019606299212598
 30
0.0
 10
0.2913700787401575
 20
-1.0019606299212598
 30
0.0
 10
0.2913700787401575
 20
-1.0019606299212598
 30
0.0
 10
0.2913700787401575
 20
-1.0019606299212598
 30
0.0
 10
0.4059527559055118
 20
-0.9948700787401575
 30
0.0
 10
0.4059527559055118
 20
-0.9948700787401575
 30
0.0
  0
SPLINE
  5
51
100
AcDbEntity
  8
P1-Layer 1
 62
     9
100
AcDbSpline
210
0.0
220
0.0
230
1.0
 70
     1
 71
     3
 72
    20
 73
    16
 74
     0
 42
0.0000000001
 43
0.0000000001
 40
0.0
 40
0.0
 40
0.0
 40
0.0
 40
0.25
 40
0.25
 40
0.25
 40
0.25
 40
0.5
 40
0.5
 40
0.5
 40
0.5
 40
0.75
 40
0.75
 40
0.75
 40
0.75
 40
1.0
 40
1.0
 40
1.0
 40
1.0
 10
0.2913700787401575
 20
-1.0019606299212598
 30
0.0
 10
0.2913700787401575
 20
-1.0019606299212598
 30
0.0
 10
0.9130196850393701
 20
-1.3975039370078741
 30
0.0
 10
0.9130196850393701
 20
-1.3975039370078741
 30
0.0
 10
0.9130196850393701
 20
-1.3975039370078741
 30
0.0
 10
0.9130196850393701
 20
-1.3975039370078741
 30
0.0
 10
0.7948346456692914
 20
-1.4106968503937007
 30
0.0
 10
0.7948346456692914
 20
-1.4106968503937007
 30
0.0
 10
0.7948346456692914
 20
-1.4106968503937007
 30
0.0
 10
0.7948346456692914
 20
-1.4106968503937007
 30
0.0
 10
0.1731850393700788
 20
-1.0151535433070866
 30
0.0
 10
0.1731850393700788
 20
-1.0151535433070866
 30
0.0
 10
0.1731850393700788
 20
-1.0151535433070866
 30
0.0
 10
0.1731850393700788
 20
-1.0151535433070866
 30
0.0
 10
0.2913700787401575
 20
-1.0019606299212598
 30
0.0
 10
0.2913700787401575
 20
-1.0019606299212598
 30
0.0
  0
SPLINE
  5
52
100
AcDbEntity
  8
P1-Layer 1
 62
     9
100
AcDbSpline
210
0.0
220
0.0
230
1.0
 70
     1
 71
     3
 72
    20
 73
    16
 74
     0
 42
0.0000000001
 43
0.0000000001
 40
0.0
 40
0.0
 40
0.0
 40
0.0
 40
0.25
 40
0.25
 40
0.25
 40
0.25
 40
0.5
 40
0.5
 40
0.5
 40
0.5
 40
0.75
 40
0.75
 40
0.75
 40
0.75
 40
1.0
 40
1.0
 40
1.0
 40
1.0
 10
0.1731850393700788
 20
-1.0151535433070866
 30
0.0
 10
0.1731850393700788
 20
-1.0151535433070866
 30
0.0
 10
0.7948346456692914
 20
-1.4106968503937007
 30
0.0
 10
0.7948346456692914
 20
-1.4106968503937007
 30
0.0
 10
0.7948346456692914
 20
-1.4106968503937007
 30
0.0
 10
0.7948346456692914
 20
-1.4106968503937007
 30
0.0
 10
0.6733858267716536
 20
-1.4297598425196851
 30
0.0
 10
0.6733858267716536
 20
-1.4297598425196851
 30
0.0
 10
0.6733858267716536
 20
-1.4297598425196851
 30
0.0
 10
0.6733858267716536
 20
-1.4297598425196851
 30
0.0
 10
0.0517362204724409
 20
-1.034216535433071
 30
0.0
 10
0.0517362204724409
 20
-1.034216535433071
 30
0.0
 10
0.0517362204724409
 20
-1.034216535433071
 30
0.0
 10
0.0517362204724409
 20
-1.034216535433071
 30
0.0
 10
0.1731850393700788
 20
-1.0151535433070866
 30
0.0
 10
0.1731850393700788
 20
-1.0151535433070866
 30
0.0
  0
SPLINE
  5
53
100
AcDbEntity
  8
P1-Layer 1
 62
     9
100
AcDbSpline
210
0.0
220
0.0
230
1.0
 70
     1
 71
     3
 72
    20
 73
    16
 74
     0
 42
0.0000000001
 43
0.0000000001
 40
0.0
 40
0.0
 40
0.0
 40
0.0
 40
0.25
 40
0.25
 40
0.25
 40
0.25
 40
0.5
 40
0.5
 40
0.5
 40
0.5
 40
0.75
 40
0.75
 40
0.75
 40
0.75
 40
1.0
 40
1.0
 40
1.0
 40
1.0
 10
0.0517362204724409
 20
-1.034216535433071
 30
0.0
 10
0.0517362204724409
 20
-1.034216535433071
 30
0.0
 10
0.6733858267716536
 20
-1.4297598425196851
 30
0.0
 10
0.6733858267716536
 20
-1.4297598425196851
 30
0.0
 10
0.6733858267716536
 20
-1.4297598425196851
 30
0.0
 10
0.6733858267716536
 20
-1.4297598425196851
 30
0.0
 10
0.548996062992126
 20
-1.454456692913386
 30
0.0
 10
0.548996062992126
 20
-1.454456692913386
 30
0.0
 10
0.548996062992126
 20
-1.454456692913386
 30
0.0
 10
0.548996062992126
 20
-1.454456692913386
 30
0.0
 10
-0.0726535433070866
 20
-1.0589133858267716
 30
0.0
 10
-0.0726535433070866
 20
-1.0589133858267716
 30
0.0
 10
-0.0726535433070866
 20
-1.0589133858267716
 30
0.0
 10
-0.0726535433070866
 20
-1.0589133858267716
 30
0.0
 10
0.0517362204724409
 20
-1.034216535433071
 30
0.0
 10
0.0517362204724409
 20
-1.034216535433071
 30
0.0
  0
SPLINE
  5
54
100
AcDbEntity
  8
P1-Layer 1
 62
     9
100
AcDbSpline
210
0.0
220
0.0
230
1.0
 70
     1
 71
     3
 72
    20
 73
    16
 74
     0
 42
0.0000000001
 43
0.0000000001
 40
0.0
 40
0.0
 40
0.0
 40
0.0
 40
0.25
 40
0.25
 40
0.25
 40
0.25
 40
0.5
 40
0.5
 40
0.5
 40
0.5
 40
0.75
 40
0.75
 40
0.75
 40
0.75
 40
1.0
 40
1.0
 40
1.0
 40
1.0
 10
-0.0726535433070866
 20
-1.0589133858267716
 30
0.0
 10
-0.0726535433070866
 20
-1.0589133858267716
 30
0.0
 10
0.548996062992126
 20
-1.454456692913386
 30
0.0
 10
0.548996062992126
 20
-1.454456692913386
 30
0.0
 10
0.548996062992126
 20
-1.454456692913386
 30
0.0
 10
0.548996062992126
 20
-1.454456692913386
 30
0.0
 10
0.4219803149606299
 20
-1.4845511811023622
 30
0.0
 10
0.4219803149606299
 20
-1.4845511811023622
 30
0.0
 10
0.4219803149606299
 20
-1.4845511811023622
 30
0.0
 10
0.4219803149606299
 20
-1.4845511811023622
 30
0.0
 10
-0.1996692913385827
 20
-1.0890078740157481
 30
0.0
 10
-0.1996692913385827
 20
-1.0890078740157481
 30
0.0
 10
-0.1996692913385827
 20
-1.0890078740157481
 30
0.0
 10
-0.1996692913385827
 20
-1.0890078740157481
 30
0.0
 10
-0.0726535433070866
 20
-1.0589133858267716
 30
0.0
 10
-0.0726535433070866
 20
-1.0589133858267716
 30
0.0
  0
SPLINE
  5
55
100
AcDbEntity
  8
P1-Layer 1
 62
     9
100
AcDbSpline
210
0.0
220
0.0
230
1.0
 70
     1
 71
     3
 72
    20
 73
    16
 74
     0
 42
0.0000000001
 43
0.0000000001
 40
0.0
 40
0.0
 40
0.0
 40
0.0
 40
0.25
 40
0.25
 40
0.25
 40
0.25
 40
0.5
 40
0.5
 40
0.5
 40
0.5
 40
0.75
 40
0.75
 40
0.75
 40
0.75
 40
1.0
 40
1.0
 40
1.0
 40
1.0
 10
-0.1996692913385827
 20
-1.0890078740157481
 30
0.0
 10
-0.1996692913385827
 20
-1.0890078740157481
 30
0.0
 10
0.4219803149606299
 20
-1.4845511811023622
 30
0.0
 10
0.4219803149606299
 20
-1.4845511811023622
 30
0.0
 10
0.4219803149606299
 20
-1.4845511811023622
 30
0.0
 10
0.4219803149606299
 20
-1.4845511811023622
 30
0.0
 10
0.2926850393700787
 20
-1.5197913385826771
 30
0.0
 10
0.2926850393700787
 20
-1.5197913385826771
 30
0.0
 10
0.2926850393700787
 20
-1.5197913385826771
 30
0.0
 10
0.2926850393700787
 20
-1.5197913385826771
 30
0.0
 10
-0.3289645669291339
 20
-1.124248031496063
 30
0.0
 10
-0.3289645669291339
 20
-1.124248031496063
 30
0.0
 10
-0.3289645669291339
 20
-1.124248031496063
 30
0.0
 10
-0.3289645669291339
 20
-1.124248031496063
 30
0.0
 10
-0.1996692913385827
 20
-1.0890078740157481
 30
0.0
 10
-0.1996692913385827
 20
-1.0890078740157481
 30
0.0
  0
SPLINE
  5
56
100
AcDbEntity
  8
P1-Layer 1
 62
     9
100
AcDbSpline
210
0.0
220
0.0
230
1.0
 70
     1
 71
     3
 72
    20
 73
    16
 74
     0
 42
0.0000000001
 43
0.0000000001
 40
0.0
 40
0.0
 40
0.0
 40
0.0
 40
0.25
 40
0.25
 40
0.25
 40
0.25
 40
0.5
 40
0.5
 40
0.5
 40
0.5
 40
0.75
 40
0.75
 40
0.75
 40
0.75
 40
1.0
 40
1.0
 40
1.0
 40
1.0
 10
-0.3289645669291339
 20
-1.124248031496063
 30
0.0
 10
-0.3289645669291339
 20
-1.124248031496063
 30
0.0
 10
0.2926850393700787
 20
-1.5197913385826771
 30
0.0
 10
0.2926850393700787
 20
-1.5197913385826771
 30
0.0
 10
0.2926850393700787
 20
-1.5197913385826771
 30
0.0
 10
0.2926850393700787
 20
-1.5197913385826771
 30
0.0
 10
0.1614251968503937
 20
-1.559952755905512
 30
0.0
 10
0.1614251968503937
 20
-1.559952755905512
 30
0.0
 10
0.1614251968503937
 20
-1.559952755905512
 30
0.0
 10
0.1614251968503937
 20
-1.559952755905512
 30
0.0
 10
-0.4602244094488189
 20
-1.1644094488188976
 30
0.0
 10
-0.4602244094488189
 20
-1.1644094488188976
 30
0.0
 10
-0.4602244094488189
 20
-1.1644094488188976
 30
0.0
 10
-0.4602244094488189
 20
-1.1644094488188976
 30
0.0
 10
-0.3289645669291339
 20
-1.124248031496063
 30
0.0
 10
-0.3289645669291339
 20
-1.124248031496063
 30
0.0
  0
SPLINE
  5
57
100
AcDbEntity
  8
P1-Layer 1
 62
     9
100
AcDbSpline
210
0.0
220
0.0
230
1.0
 70
     1
 71
     3
 72
    20
 73
    16
 74
     0
 42
0.0000000001
 43
0.0000000001
 40
0.0
 40
0.0
 40
0.0
 40
0.0
 40
0.25
 40
0.25
 40
0.25
 40
0.25
 40
0.5
 40
0.5
 40
0.5
 40
0.5
 40
0.75
 40
0.75
 40
0.75
 40
0.75
 40
1.0
 40
1.0
 40
1.0
 40
1.0
 10
-0.4602244094488189
 20
-1.1644094488188976
 30
0.0
 10
-0.4602244094488189
 20
-1.1644094488188976
 30
0.0
 10
0.1614251968503937
 20
-1.559952755905512
 30
0.0
 10
0.1614251968503937
 20
-1.559952755905512
 30
0.0
 10
0.1614251968503937
 20
-1.559952755905512
 30
0.0
 10
0.1614251968503937
 20
-1.559952755905512
 30
0.0
 10
0.0285314960629921
 20
-1.6047913385826773
 30
0.0
 10
0.0285314960629921
 20
-1.6047913385826773
 30
0.0
 10
0.0285314960629921
 20
-1.6047913385826773
 30
0.0
 10
0.0285314960629921
 20
-1.6047913385826773
 30
0.0
 10
-0.5931181102362205
 20
-1.209248031496063
 30
0.0
 10
-0.5931181102362205
 20
-1.209248031496063
 30
0.0
 10
-0.5931181102362205
 20
-1.209248031496063
 30
0.0
 10
-0.5931181102362205
 20
-1.209248031496063
 30
0.0
 10
-0.4602244094488189
 20
-1.1644094488188976
 30
0.0
 10
-0.4602244094488189
 20
-1.1644094488188976
 30
0.0
  0
SPLINE
  5
58
100
AcDbEntity
  8
P1-Layer 1
 62
     9
100
AcDbSpline
210
0.0
220
0.0
230
1.0
 70
     1
 71
     3
 72
    20
 73
    16
 74
     0
 42
0.0000000001
 43
0.0000000001
 40
0.0
 40
0.0
 40
0.0
 40
0.0
 40
0.25
 40
0.25
 40
0.25
 40
0.25
 40
0.5
 40
0.5
 40
0.5
 40
0.5
 40
0.75
 40
0.75
 40
0.75
 40
0.75
 40
1.0
 40
1.0
 40
1.0
 40
1.0
 10
-0.5931181102362205
 20
-1.209248031496063
 30
0.0
 10
-0.5931181102362205
 20
-1.209248031496063
 30
0.0
 10
0.0285314960629921
 20
-1.6047913385826773
 30
0.0
 10
0.0285314960629921
 20
-1.6047913385826773
 30
0.0
 10
0.0285314960629921
 20
-1.6047913385826773
 30
0.0
 10
0.0285314960629921
 20
-1.6047913385826773
 30
0.0
 10
-0.1056771653543307
 20
-1.6540748031496064
 30
0.0
 10
-0.1056771653543307
 20
-1.6540748031496064
 30
0.0
 10
-0.1056771653543307
 20
-1.6540748031496064
 30
0.0
 10
-0.1056771653543307
 20
-1.6540748031496064
 30
0.0
 10
-0.7273267716535433
 20
-1.2585314960629921
 30
0.0
 10
-0.7273267716535433
 20
-1.2585314960629921
 30
0.0
 10
-0.7273267716535433
 20
-1.2585314960629921
 30
0.0
 10
-0.7273267716535433
 20
-1.2585314960629921
 30
0.0
 10
-0.5931181102362205
 20
-1.209248031496063
 30
0.0
 10
-0.5931181102362205
 20
-1.209248031496063
 30
0.0
  0
SPLINE
  5
59
100
AcDbEntity
  8
P1-Layer 1
 62
     9
100
AcDbSpline
210
0.0
220
0.0
230
1.0
 70
     1
 71
     3
 72
    20
 73
    16
 74
     0
 42
0.0000000001
 43
0.0000000001
 40
0.0
 40
0.0
 40
0.0
 40
0.0
 40
0.25
 40
0.25
 40
0.25
 40
0.25
 40
0.5
 40
0.5
 40
0.5
 40
0.5
 40
0.75
 40
0.75
 40
0.75
 40
0.75
 40
1.0
 40
1.0
 40
1.0
 40
1.0
 10
-0.7273267716535433
 20
-1.2585314960629921
 30
0.0
 10
-0.7273267716535433
 20
-1.2585314960629921
 30
0.0
 10
-0.1056771653543307
 20
-1.6540748031496064
 30
0.0
 10
-0.1056771653543307
 20
-1.6540748031496064
 30
0.0
 10
-0.1056771653543307
 20
-1.6540748031496064
 30
0.0
 10
-0.1056771653543307
 20
-1.6540748031496064
 30
0.0
 10
-0.2408543307086614
 20
-1.7075472440944883
 30
0.0
 10
-0.2408543307086614
 20
-1.7075472440944883
 30
0.0
 10
-0.2408543307086614
 20
-1.7075472440944883
 30
0.0
 10
-0.2408543307086614
 20
-1.7075472440944883
 30
0.0
 10
-0.8625039370078741
 20
-1.312003937007874
 30
0.0
 10
-0.8625039370078741
 20
-1.312003937007874
 30
0.0
 10
-0.8625039370078741
 20
-1.312003937007874
 30
0.0
 10
-0.8625039370078741
 20
-1.312003937007874
 30
0.0
 10
-0.7273267716535433
 20
-1.2585314960629921
 30
0.0
 10
-0.7273267716535433
 20
-1.2585314960629921
 30
0.0
  0
SPLINE
  5
5A
100
AcDbEntity
  8
P1-Layer 1
 62
     9
100
AcDbSpline
210
0.0
220
0.0
230
1.0
 70
     1
 71
     3
 72
    20
 73
    16
 74
     0
 42
0.0000000001
 43
0.0000000001
 40
0.0
 40
0.0
 40
0.0
 40
0.0
 40
0.25
 40
0.25
 40
0.25
 40
0.25
 40
0.5
 40
0.5
 40
0.5
 40
0.5
 40
0.75
 40
0.75
 40
0.75
 40
0.75
 40
1.0
 40
1.0
 40
1.0
 40
1.0
 10
-0.8625039370078741
 20
-1.312003937007874
 30
0.0
 10
-0.8625039370078741
 20
-1.312003937007874
 30
0.0
 10
-0.2408543307086614
 20
-1.7075472440944883
 30
0.0
 10
-0.2408543307086614
 20
-1.7075472440944883
 30
0.0
 10
-0.2408543307086614
 20
-1.7075472440944883
 30
0.0
 10
-0.2408543307086614
 20
-1.7075472440944883
 30
0.0
 10
-0.3766929133858268
 20
-1.7649881889763781
 30
0.0
 10
-0.3766929133858268
 20
-1.7649881889763781
 30
0.0
 10
-0.3766929133858268
 20
-1.7649881889763781
 30
0.0
 10
-0.3766929133858268
 20
-1.7649881889763781
 30
0.0
 10
-0.9983425196850394
 20
-1.3694448818897638
 30
0.0
 10
-0.9983425196850394
 20
-1.3694448818897638
 30
0.0
 10
-0.9983425196850394
 20
-1.3694448818897638
 30
0.0
 10
-0.9983425196850394
 20
-1.3694448818897638
 30
0.0
 10
-0.8625039370078741
 20
-1.312003937007874
 30
0.0
 10
-0.8625039370078741
 20
-1.312003937007874
 30
0.0
  0
SPLINE
  5
5B
100
AcDbEntity
  8
P1-Layer 1
 62
     9
100
AcDbSpline
210
0.0
220
0.0
230
1.0
 70
     1
 71
     3
 72
    20
 73
    16
 74
     0
 42
0.0000000001
 43
0.0000000001
 40
0.0
 40
0.0
 40
0.0
 40
0.0
 40
0.25
 40
0.25
 40
0.25
 40
0.25
 40
0.5
 40
0.5
 40
0.5
 40
0.5
 40
0.75
 40
0.75
 40
0.75
 40
0.75
 40
1.0
 40
1.0
 40
1.0
 40
1.0
 10
-0.9983425196850394
 20
-1.3694448818897638
 30
0.0
 10
-0.9983425196850394
 20
-1.3694448818897638
 30
0.0
 10
-0.3766929133858268
 20
-1.7649881889763781
 30
0.0
 10
-0.3766929133858268
 20
-1.7649881889763781
 30
0.0
 10
-0.3766929133858268
 20
-1.7649881889763781
 30
0.0
 10
-0.3766929133858268
 20
-1.7649881889763781
 30
0.0
 10
-0.5128543307086615
 20
-1.8261456692913387
 30
0.0
 10
-0.5128543307086615
 20
-1.8261456692913387
 30
0.0
 10
-0.5128543307086615
 20
-1.8261456692913387
 30
0.0
 10
-0.5128543307086615
 20
-1.8261456692913387
 30
0.0
 10
-1.134503937007874
 20
-1.4306023622047244
 30
0.0
 10
-1.134503937007874
 20
-1.4306023622047244
 30
0.0
 10
-1.134503937007874
 20
-1.4306023622047244
 30
0.0
 10
-1.134503937007874
 20
-1.4306023622047244
 30
0.0
 10
-0.9983425196850394
 20
-1.3694448818897638
 30
0.0
 10
-0.9983425196850394
 20
-1.3694448818897638
 30
0.0
  0
SPLINE
  5
5C
100
AcDbEntity
  8
P1-Layer 1
 62
     9
100
AcDbSpline
210
0.0
220
0.0
230
1.0
 70
     1
 71
     3
 72
    20
 73
    16
 74
     0
 42
0.0000000001
 43
0.0000000001
 40
0.0
 40
0.0
 40
0.0
 40
0.0
 40
0.25
 40
0.25
 40
0.25
 40
0.25
 40
0.5
 40
0.5
 40
0.5
 40
0.5
 40
0.75
 40
0.75
 40
0.75
 40
0.75
 40
1.0
 40
1.0
 40
1.0
 40
1.0
 10
-1.134503937007874
 20
-1.4306023622047244
 30
0.0
 10
-1.134503937007874
 20
-1.4306023622047244
 30
0.0
 10
-0.5128543307086615
 20
-1.8261456692913387
 30
0.0
 10
-0.5128543307086615
 20
-1.8261456692913387
 30
0.0
 10
-0.5128543307086615
 20
-1.8261456692913387
 30
0.0
 10
-0.5128543307086615
 20
-1.8261456692913387
 30
0.0
 10
-0.6490236220472441
 20
-1.8907952755905513
 30
0.0
 10
-0.6490236220472441
 20
-1.8907952755905513
 30
0.0
 10
-0.6490236220472441
 20
-1.8907952755905513
 30
0.0
 10
-0.6490236220472441
 20
-1.8907952755905513
 30
0.0
 10
-1.2706732283464568
 20
-1.4952519685039372
 30
0.0
 10
-1.2706732283464568
 20
-1.4952519685039372
 30
0.0
 10
-1.2706732283464568
 20
-1.4952519685039372
 30
0.0
 10
-1.2706732283464568
 20
-1.4952519685039372
 30
0.0
 10
-1.134503937007874
 20
-1.4306023622047244
 30
0.0
 10
-1.134503937007874
 20
-1.4306023622047244
 30
0.0
  0
SPLINE
  5
5D
100
AcDbEntity
  8
P1-Layer 1
 62
     9
100
AcDbSpline
210
0.0
220
0.0
230
1.0
 70
     1
 71
     3
 72
    20
 73
    16
 74
     0
 42
0.0000000001
 43
0.0000000001
 40
0.0
 40
0.0
 40
0.0
 40
0.0
 40
0.25
 40
0.25
 40
0.25
 40
0.25
 40
0.5
 40
0.5
 40
0.5
 40
0.5
 40
0.75
 40
0.75
 40
0.75
 40
0.75
 40
1.0
 40
1.0
 40
1.0
 40
1.0
 10
-1.2706732283464568
 20
-1.4952519685039372
 30
0.0
 10
-1.2706732283464568
 20
-1.4952519685039372
 30
0.0
 10
-0.6490236220472441
 20
-1.8907952755905513
 30
0.0
 10
-0.6490236220472441
 20
-1.8907952755905513
 30
0.0
 10
-0.6490236220472441
 20
-1.8907952755905513
 30
0.0
 10
-0.6490236220472441
 20
-1.8907952755905513
 30
0.0
 10
-0.7848582677165354
 20
-1.9586850393700788
 30
0.0
 10
-0.7848582677165354
 20
-1.9586850393700788
 30
0.0
 10
-0.7848582677165354
 20
-1.9586850393700788
 30
0.0
 10
-0.7848582677165354
 20
-1.9586850393700788
 30
0.0
 10
-1.4065078740157482
 20
-1.5631417322834646
 30
0.0
 10
-1.4065078740157482
 20
-1.5631417322834646
 30
0.0
 10
-1.4065078740157482
 20
-1.5631417322834646
 30
0.0
 10
-1.4065078740157482
 20
-1.5631417322834646
 30
0.0
 10
-1.2706732283464568
 20
-1.4952519685039372
 30
0.0
 10
-1.2706732283464568
 20
-1.4952519685039372
 30
0.0
  0
SPLINE
  5
5E
100
AcDbEntity
  8
P1-Layer 1
 62
     9
100
AcDbSpline
210
0.0
220
0.0
230
1.0
 70
     1
 71
     3
 72
    20
 73
    16
 74
     0
 42
0.0000000001
 43
0.0000000001
 40
0.0
 40
0.0
 40
0.0
 40
0.0
 40
0.25
 40
0.25
 40
0.25
 40
0.25
 40
0.5
 40
0.5
 40
0.5
 40
0.5
 40
0.75
 40
0.75
 40
0.75
 40
0.75
 40
1.0
 40
1.0
 40
1.0
 40
1.0
 10
-1.4065078740157482
 20
-1.5631417322834646
 30
0.0
 10
-1.4065078740157482
 20
-1.5631417322834646
 30
0.0
 10
-0.7848582677165354
 20
-1.9586850393700788
 30
0.0
 10
-0.7848582677165354
 20
-1.9586850393700788
 30
0.0
 10
-0.7848582677165354
 20
-1.9586850393700788
 30
0.0
 10
-0.7848582677165354
 20
-1.9586850393700788
 30
0.0
 10
-0.9200433070866142
 20
-2.0295826771653545
 30
0.0
 10
-0.9200433070866142
 20
-2.0295826771653545
 30
0.0
 10
-0.9200433070866142
 20
-2.0295826771653545
 30
0.0
 10
-0.9200433070866142
 20
-2.0295826771653545
 30
0.0
 10
-1.5416929133858268
 20
-1.6340393700787401
 30
0.0
 10
-1.5416929133858268
 20
-1.6340393700787401
 30
0.0
 10
-1.5416929133858268
 20
-1.6340393700787401
 30
0.0
 10
-1.5416929133858268
 20
-1.6340393700787401
 30
0.0
 10
-1.4065078740157482
 20
-1.5631417322834646
 30
0.0
 10
-1.4065078740157482
 20
-1.5631417322834646
 30
0.0
  0
SPLINE
  5
5F
100
AcDbEntity
  8
P1-Layer 1
 62
     9
100
AcDbSpline
210
0.0
220
0.0
230
1.0
 70
     1
 71
     3
 72
    20
 73
    16
 74
     0
 42
0.0000000001
 43
0.0000000001
 40
0.0
 40
0.0
 40
0.0
 40
0.0
 40
0.25
 40
0.25
 40
0.25
 40
0.25
 40
0.5
 40
0.5
 40
0.5
 40
0.5
 40
0.75
 40
0.75
 40
0.75
 40
0.75
 40
1.0
 40
1.0
 40
1.0
 40
1.0
 10
-1.5416929133858268
 20
-1.6340393700787401
 30
0.0
 10
-1.5416929133858268
 20
-1.6340393700787401
 30
0.0
 10
-0.9200433070866142
 20
-2.0295826771653545
 30
0.0
 10
-0.9200433070866142
 20
-2.0295826771653545
 30
0.0
 10
-0.9200433070866142
 20
-2.0295826771653545
 30
0.0
 10
-0.9200433070866142
 20
-2.0295826771653545
 30
0.0
 10
-1.0542480314960629
 20
-2.1032519685039373
 30
0.0
 10
-1.0542480314960629
 20
-2.1032519685039373
 30
0.0
 10
-1.0542480314960629
 20
-2.1032519685039373
 30
0.0
 10
-1.0542480314960629
 20
-2.1032519685039373
 30
0.0
 10
-1.6758976377952757
 20
-1.7077086614173229
 30
0.0
 10
-1.6758976377952757
 20
-1.7077086614173229
 30
0.0
 10
-1.6758976377952757
 20
-1.7077086614173229
 30
0.0
 10
-1.6758976377952757
 20
-1.7077086614173229
 30
0.0
 10
-1.5416929133858268
 20
-1.6340393700787401
 30
0.0
 10
-1.5416929133858268
 20
-1.6340393700787401
 30
0.0
  0
SPLINE
  5
60
100
AcDbEntity
  8
P1-Layer 1
 62
     9
100
AcDbSpline
210
0.0
220
0.0
230
1.0
 70
     1
 71
     3
 72
    20
 73
    16
 74
     0
 42
0.0000000001
 43
0.0000000001
 40
0.0
 40
0.0
 40
0.0
 40
0.0
 40
0.25
 40
0.25
 40
0.25
 40
0.25
 40
0.5
 40
0.5
 40
0.5
 40
0.5
 40
0.75
 40
0.75
 40
0.75
 40
0.75
 40
1.0
 40
1.0
 40
1.0
 40
1.0
 10
-1.6758976377952757
 20
-1.7077086614173229
 30
0.0
 10
-1.6758976377952757
 20
-1.7077086614173229
 30
0.0
 10
-1.0542480314960629
 20
-2.1032519685039373
 30
0.0
 10
-1.0542480314960629
 20
-2.1032519685039373
 30
0.0
 10
-1.0542480314960629
 20
-2.1032519685039373
 30
0.0
 10
-1.0542480314960629
 20
-2.1032519685039373
 30
0.0
 10
-1.1871496062992126
 20
-2.1794527559055119
 30
0.0
 10
-1.1871496062992126
 20
-2.1794527559055119
 30
0.0
 10
-1.1871496062992126
 20
-2.1794527559055119
 30
0.0
 10
-1.1871496062992126
 20
-2.1794527559055119
 30
0.0
 10
-1.8087992125984254
 20
-1.7839094488188978
 30
0.0
 10
-1.8087992125984254
 20
-1.7839094488188978
 30
0.0
 10
-1.8087992125984254
 20
-1.7839094488188978
 30
0.0
 10
-1.8087992125984254
 20
-1.7839094488188978
 30
0.0
 10
-1.6758976377952757
 20
-1.7077086614173229
 30
0.0
 10
-1.6758976377952757
 20
-1.7077086614173229
 30
0.0
  0
SPLINE
  5
61
100
AcDbEntity
  8
P1-Layer 1
370
     5
100
AcDbSpline
210
0.0
220
0.0
230
1.0
 70
     1
 71
     3
 72
   204
 73
   200
 74
     0
 42
0.0000000001
 43
0.0000000001
 40
0.0
 40
0.0
 40
0.0
 40
0.0
 40
0.02
 40
0.02
 40
0.02
 40
0.02
 40
0.04
 40
0.04
 40
0.04
 40
0.04
 40
0.06
 40
0.06
 40
0.06
 40
0.06
 40
0.08
 40
0.08
 40
0.08
 40
0.08
 40
0.1
 40
0.1
 40
0.1
 40
0.1
 40
0.12
 40
0.12
 40
0.12
 40
0.12
 40
0.14
 40
0.14
 40
0.14
 40
0.14
 40
0.16
 40
0.16
 40
0.16
 40
0.16
 40
0.18
 40
0.18
 40
0.18
 40
0.18
 40
0.2
 40
0.2
 40
0.2
 40
0.2
 40
0.22
 40
0.22
 40
0.22
 40
0.22
 40
0.24
 40
0.24
 40
0.24
 40
0.24
 40
0.26
 40
0.26
 40
0.26
 40
0.26
 40
0.28
 40
0.28
 40
0.28
 40
0.28
 40
0.3
 40
0.3
 40
0.3
 40
0.3
 40
0.32
 40
0.32
 40
0.32
 40
0.32
 40
0.34
 40
0.34
 40
0.34
 40
0.34
 40
0.36
 40
0.36
 40
0.36
 40
0.36
 40
0.3800000000000001
 40
0.3800000000000001
 40
0.3800000000000001
 40
0.3800000000000001
 40
0.4000000000000001
 40
0.4000000000000001
 40
0.4000000000000001
 40
0.4000000000000001
 40
0.4200000000000001
 40
0.4200000000000001
 40
0.4200000000000001
 40
0.4200000000000001
 40
0.4400000000000001
 40
0.4400000000000001
 40
0.4400000000000001
 40
0.4400000000000001
 40
0.4600000000000001
 40
0.4600000000000001
 40
0.4600000000000001
 40
0.4600000000000001
 40
0.4800000000000002
 40
0.4800000000000002
 40
0.4800000000000002
 40
0.4800000000000002
 40
0.5000000000000001
 40
0.5000000000000001
 40
0.5000000000000001
 40
0.5000000000000001
 40
0.5200000000000001
 40
0.5200000000000001
 40
0.5200000000000001
 40
0.5200000000000001
 40
0.5400000000000002
 40
0.5400000000000002
 40
0.5400000000000002
 40
0.5400000000000002
 40
0.5600000000000002
 40
0.5600000000000002
 40
0.5600000000000002
 40
0.5600000000000002
 40
0.5800000000000002
 40
0.5800000000000002
 40
0.5800000000000002
 40
0.5800000000000002
 40
0.6000000000000002
 40
0.6000000000000002
 40
0.6000000000000002
 40
0.6000000000000002
 40
0.6200000000000002
 40
0.6200000000000002
 40
0.6200000000000002
 40
0.6200000000000002
 40
0.6400000000000002
 40
0.6400000000000002
 40
0.6400000000000002
 40
0.6400000000000002
 40
0.6600000000000003
 40
0.6600000000000003
 40
0.6600000000000003
 40
0.6600000000000003
 40
0.6800000000000003
 40
0.6800000000000003
 40
0.6800000000000003
 40
0.6800000000000003
 40
0.7000000000000003
 40
0.7000000000000003
 40
0.7000000000000003
 40
0.7000000000000003
 40
0.7200000000000003
 40
0.7200000000000003
 40
0.7200000000000003
 40
0.7200000000000003
 40
0.7400000000000003
 40
0.7400000000000003
 40
0.7400000000000003
 40
0.7400000000000003
 40
0.7600000000000003
 40
0.7600000000000003
 40
0.7600000000000003
 40
0.7600000000000003
 40
0.7800000000000004
 40
0.7800000000000004
 40
0.7800000000000004
 40
0.7800000000000004
 40
0.8000000000000004
 40
0.8000000000000004
 40
0.8000000000000004
 40
0.8000000000000004
 40
0.8200000000000004
 40
0.8200000000000004
 40
0.8200000000000004
 40
0.8200000000000004
 40
0.8400000000000004
 40
0.8400000000000004
 40
0.8400000000000004
 40
0.8400000000000004
 40
0.8600000000000004
 40
0.8600000000000004
 40
0.8600000000000004
 40
0.8600000000000004
 40
0.8800000000000005
 40
0.8800000000000005
 40
0.8800000000000005
 40
0.8800000000000005
 40
0.9000000000000005
 40
0.9000000000000005
 40
0.9000000000000005
 40
0.9000000000000005
 40
0.9200000000000005
 40
0.9200000000000005
 40
0.9200000000000005
 40
0.9200000000000005
 40
0.9400000000000005
 40
0.9400000000000005
 40
0.9400000000000005
 40
0.9400000000000005
 40
0.9600000000000005
 40
0.9600000000000005
 40
0.9600000000000005
 40
0.9600000000000005
 40
0.9800000000000005
 40
0.9800000000000005
 40
0.9800000000000005
 40
0.9800000000000005
 40
1.0
 40
1.0
 40
1.0
 40
1.0
 10
1.0799094488188976
 20
-1.1363582677165356
 30
0.0
 10
1.0799094488188976
 20
-1.1363582677165356
 30
0.0
 10
1.7015590551181103
 20
-1.5319015748031497
 30
0.0
 10
1.7015590551181103
 20
-1.5319015748031497
 30
0.0
 10
1.7015590551181103
 20
-1.5319015748031497
 30
0.0
 10
1.7015590551181103
 20
-1.5319015748031497
 30
0.0
 10
1.6212952755905512
 20
-1.4895393700787403
 30
0.0
 10
1.6212952755905512
 20
-1.4895393700787403
 30
0.0
 10
1.6212952755905512
 20
-1.4895393700787403
 30
0.0
 10
1.6212952755905512
 20
-1.4895393700787403
 30
0.0
 10
1.5351496062992127
 20
-1.454964566929134
 30
0.0
 10
1.5351496062992127
 20
-1.454964566929134
 30
0.0
 10
1.5351496062992127
 20
-1.454964566929134
 30
0.0
 10
1.5351496062992127
 20
-1.454964566929134
 30
0.0
 10
1.4434448818897638
 20
-1.4279251968503937
 30
0.0
 10
1.4434448818897638
 20
-1.4279251968503937
 30
0.0
 10
1.4434448818897638
 20
-1.4279251968503937
 30
0.0
 10
1.4434448818897638
 20
-1.4279251968503937
 30
0.0
 10
1.3465157480314962
 20
-1.4081929133858269
 30
0.0
 10
1.3465157480314962
 20
-1.4081929133858269
 30
0.0
 10
1.3465157480314962
 20
-1.4081929133858269
 30
0.0
 10
1.3465157480314962
 20
-1.4081929133858269
 30
0.0
 10
1.2446771653543307
 20
-1.3955157480314961
 30
0.0
 10
1.2446771653543307
 20
-1.3955157480314961
 30
0.0
 10
1.2446771653543307
 20
-1.3955157480314961
 30
0.0
 10
1.2446771653543307
 20
-1.3955157480314961
 30
0.0
 10
1.1382677165354331
 20
-1.3896732283464568
 30
0.0
 10
1.1382677165354331
 20
-1.3896732283464568
 30
0.0
 10
1.1382677165354331
 20
-1.3896732283464568
 30
0.0
 10
1.1382677165354331
 20
-1.3896732283464568
 30
0.0
 10
1.0276023622047243
 20
-1.3904133858267718
 30
0.0
 10
1.0276023622047243
 20
-1.3904133858267718
 30
0.0
 10
1.0276023622047243
 20
-1.3904133858267718
 30
0.0
 10
1.0276023622047243
 20
-1.3904133858267718
 30
0.0
 10
0.9130196850393701
 20
-1.3975039370078741
 30
0.0
 10
0.9130196850393701
 20
-1.3975039370078741
 30
0.0
 10
0.9130196850393701
 20
-1.3975039370078741
 30
0.0
 10
0.9130196850393701
 20
-1.3975039370078741
 30
0.0
 10
0.7948346456692914
 20
-1.4106968503937007
 30
0.0
 10
0.7948346456692914
 20
-1.4106968503937007
 30
0.0
 10
0.7948346456692914
 20
-1.4106968503937007
 30
0.0
 10
0.7948346456692914
 20
-1.4106968503937007
 30
0.0
 10
0.6733858267716536
 20
-1.4297598425196851
 30
0.0
 10
0.6733858267716536
 20
-1.4297598425196851
 30
0.0
 10
0.6733858267716536
 20
-1.4297598425196851
 30
0.0
 10
0.6733858267716536
 20
-1.4297598425196851
 30
0.0
 10
0.548996062992126
 20
-1.454456692913386
 30
0.0
 10
0.548996062992126
 20
-1.454456692913386
 30
0.0
 10
0.548996062992126
 20
-1.454456692913386
 30
0.0
 10
0.548996062992126
 20
-1.454456692913386
 30
0.0
 10
0.4219803149606299
 20
-1.4845511811023622
 30
0.0
 10
0.4219803149606299
 20
-1.4845511811023622
 30
0.0
 10
0.4219803149606299
 20
-1.4845511811023622
 30
0.0
 10
0.4219803149606299
 20
-1.4845511811023622
 30
0.0
 10
0.2926850393700787
 20
-1.5197913385826771
 30
0.0
 10
0.2926850393700787
 20
-1.5197913385826771
 30
0.0
 10
0.2926850393700787
 20
-1.5197913385826771
 30
0.0
 10
0.2926850393700787
 20
-1.5197913385826771
 30
0.0
 10
0.1614251968503937
 20
-1.559952755905512
 30
0.0
 10
0.1614251968503937
 20
-1.559952755905512
 30
0.0
 10
0.1614251968503937
 20
-1.559952755905512
 30
0.0
 10
0.1614251968503937
 20
-1.559952755905512
 30
0.0
 10
0.0285314960629921
 20
-1.6047913385826773
 30
0.0
 10
0.0285314960629921
 20
-1.6047913385826773
 30
0.0
 10
0.0285314960629921
 20
-1.6047913385826773
 30
0.0
 10
0.0285314960629921
 20
-1.6047913385826773
 30
0.0
 10
-0.1056771653543307
 20
-1.6540748031496064
 30
0.0
 10
-0.1056771653543307
 20
-1.6540748031496064
 30
0.0
 10
-0.1056771653543307
 20
-1.6540748031496064
 30
0.0
 10
-0.1056771653543307
 20
-1.6540748031496064
 30
0.0
 10
-0.2408543307086614
 20
-1.7075472440944883
 30
0.0
 10
-0.2408543307086614
 20
-1.7075472440944883
 30
0.0
 10
-0.2408543307086614
 20
-1.7075472440944883
 30
0.0
 10
-0.2408543307086614
 20
-1.7075472440944883
 30
0.0
 10
-0.3766929133858268
 20
-1.7649881889763781
 30
0.0
 10
-0.3766929133858268
 20
-1.7649881889763781
 30
0.0
 10
-0.3766929133858268
 20
-1.7649881889763781
 30
0.0
 10
-0.3766929133858268
 20
-1.7649881889763781
 30
0.0
 10
-0.5128543307086615
 20
-1.8261456692913387
 30
0.0
 10
-0.5128543307086615
 20
-1.8261456692913387
 30
0.0
 10
-0.5128543307086615
 20
-1.8261456692913387
 30
0.0
 10
-0.5128543307086615
 20
-1.8261456692913387
 30
0.0
 10
-0.6490236220472441
 20
-1.8907952755905513
 30
0.0
 10
-0.6490236220472441
 20
-1.8907952755905513
 30
0.0
 10
-0.6490236220472441
 20
-1.8907952755905513
 30
0.0
 10
-0.6490236220472441
 20
-1.8907952755905513
 30
0.0
 10
-0.7848582677165354
 20
-1.9586850393700788
 30
0.0
 10
-0.7848582677165354
 20
-1.9586850393700788
 30
0.0
 10
-0.7848582677165354
 20
-1.9586850393700788
 30
0.0
 10
-0.7848582677165354
 20
-1.9586850393700788
 30
0.0
 10
-0.9200433070866142
 20
-2.0295826771653545
 30
0.0
 10
-0.9200433070866142
 20
-2.0295826771653545
 30
0.0
 10
-0.9200433070866142
 20
-2.0295826771653545
 30
0.0
 10
-0.9200433070866142
 20
-2.0295826771653545
 30
0.0
 10
-1.0542480314960629
 20
-2.1032519685039373
 30
0.0
 10
-1.0542480314960629
 20
-2.1032519685039373
 30
0.0
 10
-1.0542480314960629
 20
-2.1032519685039373
 30
0.0
 10
-1.0542480314960629
 20
-2.1032519685039373
 30
0.0
 10
-1.1871496062992126
 20
-2.1794527559055119
 30
0.0
 10
-1.1871496062992126
 20
-2.1794527559055119
 30
0.0
 10
-1.1871496062992126
 20
-2.1794527559055119
 30
0.0
 10
-1.1871496062992126
 20
-2.1794527559055119
 30
0.0
 10
-1.8087992125984254
 20
-1.7839094488188978
 30
0.0
 10
-1.8087992125984254
 20
-1.7839094488188978
 30
0.0
 10
-1.8087992125984254
 20
-1.7839094488188978
 30
0.0
 10
-1.8087992125984254
 20
-1.7839094488188978
 30
0.0
 10
-1.6758976377952757
 20
-1.7077086614173229
 30
0.0
 10
-1.6758976377952757
 20
-1.7077086614173229
 30
0.0
 10
-1.6758976377952757
 20
-1.7077086614173229
 30
0.0
 10
-1.6758976377952757
 20
-1.7077086614173229
 30
0.0
 10
-1.5416929133858268
 20
-1.6340393700787401
 30
0.0
 10
-1.5416929133858268
 20
-1.6340393700787401
 30
0.0
 10
-1.5416929133858268
 20
-1.6340393700787401
 30
0.0
 10
-1.5416929133858268
 20
-1.6340393700787401
 30
0.0
 10
-1.4065078740157482
 20
-1.5631417322834646
 30
0.0
 10
-1.4065078740157482
 20
-1.5631417322834646
 30
0.0
 10
-1.4065078740157482
 20
-1.5631417322834646
 30
0.0
 10
-1.4065078740157482
 20
-1.5631417322834646
 30
0.0
 10
-1.2706732283464568
 20
-1.4952519685039372
 30
0.0
 10
-1.2706732283464568
 20
-1.4952519685039372
 30
0.0
 10
-1.2706732283464568
 20
-1.4952519685039372
 30
0.0
 10
-1.2706732283464568
 20
-1.4952519685039372
 30
0.0
 10
-1.134503937007874
 20
-1.4306023622047244
 30
0.0
 10
-1.134503937007874
 20
-1.4306023622047244
 30
0.0
 10
-1.134503937007874
 20
-1.4306023622047244
 30
0.0
 10
-1.134503937007874
 20
-1.4306023622047244
 30
0.0
 10
-0.9983425196850394
 20
-1.3694448818897638
 30
0.0
 10
-0.9983425196850394
 20
-1.3694448818897638
 30
0.0
 10
-0.9983425196850394
 20
-1.3694448818897638
 30
0.0
 10
-0.9983425196850394
 20
-1.3694448818897638
 30
0.0
 10
-0.8625039370078741
 20
-1.312003937007874
 30
0.0
 10
-0.8625039370078741
 20
-1.312003937007874
 30
0.0
 10
-0.8625039370078741
 20
-1.312003937007874
 30
0.0
 10
-0.8625039370078741
 20
-1.312003937007874
 30
0.0
 10
-0.7273267716535433
 20
-1.2585314960629921
 30
0.0
 10
-0.7273267716535433
 20
-1.2585314960629921
 30
0.0
 10
-0.7273267716535433
 20
-1.2585314960629921
 30
0.0
 10
-0.7273267716535433
 20
-1.2585314960629921
 30
0.0
 10
-0.5931181102362205
 20
-1.209248031496063
 30
0.0
 10
-0.5931181102362205
 20
-1.209248031496063
 30
0.0
 10
-0.5931181102362205
 20
-1.209248031496063
 30
0.0
 10
-0.5931181102362205
 20
-1.209248031496063
 30
0.0
 10
-0.4602244094488189
 20
-1.1644094488188976
 30
0.0
 10
-0.4602244094488189
 20
-1.1644094488188976
 30
0.0
 10
-0.4602244094488189
 20
-1.1644094488188976
 30
0.0
 10
-0.4602244094488189
 20
-1.1644094488188976
 30
0.0
 10
-0.3289645669291339
 20
-1.124248031496063
 30
0.0
 10
-0.3289645669291339
 20
-1.124248031496063
 30
0.0
 10
-0.3289645669291339
 20
-1.124248031496063
 30
0.0
 10
-0.3289645669291339
 20
-1.124248031496063
 30
0.0
 10
-0.1996692913385827
 20
-1.0890078740157481
 30
0.0
 10
-0.1996692913385827
 20
-1.0890078740157481
 30
0.0
 10
-0.1996692913385827
 20
-1.0890078740157481
 30
0.0
 10
-0.1996692913385827
 20
-1.0890078740157481
 30
0.0
 10
-0.0726535433070866
 20
-1.0589133858267716
 30
0.0
 10
-0.0726535433070866
 20
-1.0589133858267716
 30
0.0
 10
-0.0726535433070866
 20
-1.0589133858267716
 30
0.0
 10
-0.0726535433070866
 20
-1.0589133858267716
 30
0.0
 10
0.0517362204724409
 20
-1.034216535433071
 30
0.0
 10
0.0517362204724409
 20
-1.034216535433071
 30
0.0
 10
0.0517362204724409
 20
-1.034216535433071
 30
0.0
 10
0.0517362204724409
 20
-1.034216535433071
 30
0.0
 10
0.1731850393700788
 20
-1.0151535433070866
 30
0.0
 10
0.1731850393700788
 20
-1.0151535433070866
 30
0.0
 10
0.1731850393700788
 20
-1.0151535433070866
 30
0.0
 10
0.1731850393700788
 20
-1.0151535433070866
 30
0.0
 10
0.2913700787401575
 20
-1.0019606299212598
 30
0.0
 10
0.2913700787401575
 20
-1.0019606299212598
 30
0.0
 10
0.2913700787401575
 20
-1.0019606299212598
 30
0.0
 10
0.2913700787401575
 20
-1.0019606299212598
 30
0.0
 10
0.4059527559055118
 20
-0.9948700787401575
 30
0.0
 10
0.4059527559055118
 20
-0.9948700787401575
 30
0.0
 10
0.4059527559055118
 20
-0.9948700787401575
 30
0.0
 10
0.4059527559055118
 20
-0.9948700787401575
 30
0.0
 10
0.5166181102362205
 20
-0.9941299212598426
 30
0.0
 10
0.5166181102362205
 20
-0.9941299212598426
 30
0.0
 10
0.5166181102362205
 20
-0.9941299212598426
 30
0.0
 10
0.5166181102362205
 20
-0.9941299212598426
 30
0.0
 10
0.6230275590551181
 20
-0.9999724409448819
 30
0.0
 10
0.6230275590551181
 20
-0.9999724409448819
 30
0.0
 10
0.6230275590551181
 20
-0.9999724409448819
 30
0.0
 10
0.6230275590551181
 20
-0.9999724409448819
 30
0.0
 10
0.7248661417322835
 20
-1.0126496062992127
 30
0.0
 10
0.7248661417322835
 20
-1.0126496062992127
 30
0.0
 10
0.7248661417322835
 20
-1.0126496062992127
 30
0.0
 10
0.7248661417322835
 20
-1.0126496062992127
 30
0.0
 10
0.8217952755905512
 20
-1.0323818897637795
 30
0.0
 10
0.8217952755905512
 20
-1.0323818897637795
 30
0.0
 10
0.8217952755905512
 20
-1.0323818897637795
 30
0.0
 10
0.8217952755905512
 20
-1.0323818897637795
 30
0.0
 10
0.9135000000000001
 20
-1.0594212598425197
 30
0.0
 10
0.9135000000000001
 20
-1.0594212598425197
 30
0.0
 10
0.9135000000000001
 20
-1.0594212598425197
 30
0.0
 10
0.9135000000000001
 20
-1.0594212598425197
 30
0.0
 10
0.9996456692913386
 20
-1.0939960629921259
 30
0.0
 10
0.9996456692913386
 20
-1.0939960629921259
 30
0.0
 10
0.9996456692913386
 20
-1.0939960629921259
 30
0.0
 10
0.9996456692913386
 20
-1.0939960629921259
 30
0.0
 10
1.0799094488188976
 20
-1.1363582677165356
 30
0.0
 10
1.0799094488188976
 20
-1.1363582677165356
 30
0.0
  0
SPLINE
  5
62
100
AcDbEntity
  8
P1-Layer 1
 62
     9
100
AcDbSpline
210
0.0
220
0.0
230
1.0
 70
     1
 71
     3
 72
    20
 73
    16
 74
     0
 42
0.0000000001
 43
0.0000000001
 40
0.0
 40
0.0
 40
0.0
 40
0.0
 40
0.25
 40
0.25
 40
0.25
 40
0.25
 40
0.5
 40
0.5
 40
0.5
 40
0.5
 40
0.75
 40
0.75
 40
0.75
 40
0.75
 40
1.0
 40
1.0
 40
1.0
 40
1.0
 10
-1.8087992125984254
 20
-1.7839094488188978
 30
0.0
 10
-1.8087992125984254
 20
-1.7839094488188978
 30
0.0
 10
-1.1871496062992126
 20
-2.1794527559055119
 30
0.0
 10
-1.1871496062992126
 20
-2.1794527559055119
 30
0.0
 10
-1.1871496062992126
 20
-2.1794527559055119
 30
0.0
 10
-1.1871496062992126
 20
-2.1794527559055119
 30
0.0
 10
-3.2329133858267718
 20
-2.1794527559055119
 30
0.0
 10
-3.2329133858267718
 20
-2.1794527559055119
 30
0.0
 10
-3.2329133858267718
 20
-2.1794527559055119
 30
0.0
 10
-3.2329133858267718
 20
-2.1794527559055119
 30
0.0
 10
-3.8545629921259845
 20
-1.7839094488188978
 30
0.0
 10
-3.8545629921259845
 20
-1.7839094488188978
 30
0.0
 10
-3.8545629921259845
 20
-1.7839094488188978
 30
0.0
 10
-3.8545629921259845
 20
-1.7839094488188978
 30
0.0
 10
-1.8087992125984254
 20
-1.7839094488188978
 30
0.0
 10
-1.8087992125984254
 20
-1.7839094488188978
 30
0.0
  0
SPLINE
  5
63
100
AcDbEntity
  8
P1-Layer 1
370
     5
100
AcDbSpline
210
0.0
220
0.0
230
1.0
 70
     1
 71
     3
 72
    20
 73
    16
 74
     0
 42
0.0000000001
 43
0.0000000001
 40
0.0
 40
0.0
 40
0.0
 40
0.0
 40
0.25
 40
0.25
 40
0.25
 40
0.25
 40
0.5
 40
0.5
 40
0.5
 40
0.5
 40
0.75
 40
0.75
 40
0.75
 40
0.75
 40
1.0
 40
1.0
 40
1.0
 40
1.0
 10
-1.8087992125984254
 20
-1.7839094488188978
 30
0.0
 10
-1.8087992125984254
 20
-1.7839094488188978
 30
0.0
 10
-1.1871496062992126
 20
-2.1794527559055119
 30
0.0
 10
-1.1871496062992126
 20
-2.1794527559055119
 30
0.0
 10
-1.1871496062992126
 20
-2.1794527559055119
 30
0.0
 10
-1.1871496062992126
 20
-2.1794527559055119
 30
0.0
 10
-3.2329133858267718
 20
-2.1794527559055119
 30
0.0
 10
-3.2329133858267718
 20
-2.1794527559055119
 30
0.0
 10
-3.2329133858267718
 20
-2.1794527559055119
 30
0.0
 10
-3.2329133858267718
 20
-2.1794527559055119
 30
0.0
 10
-3.8545629921259845
 20
-1.7839094488188978
 30
0.0
 10
-3.8545629921259845
 20
-1.7839094488188978
 30
0.0
 10
-3.8545629921259845
 20
-1.7839094488188978
 30
0.0
 10
-3.8545629921259845
 20
-1.7839094488188978
 30
0.0
 10
-1.8087992125984254
 20
-1.7839094488188978
 30
0.0
 10
-1.8087992125984254
 20
-1.7839094488188978
 30
0.0
  0
SPLINE
  5
64
100
AcDbEntity
  8
P1-Layer 1
 62
     9
100
AcDbSpline
210
0.0
220
0.0
230
1.0
 70
     1
 71
     3
 72
    20
 73
    16
 74
     0
 42
0.0000000001
 43
0.0000000001
 40
0.0
 40
0.0
 40
0.0
 40
0.0
 40
0.25
 40
0.25
 40
0.25
 40
0.25
 40
0.5
 40
0.5
 40
0.5
 40
0.5
 40
0.75
 40
0.75
 40
0.75
 40
0.75
 40
1.0
 40
1.0
 40
1.0
 40
1.0
 10
3.145433070866142
 20
0.0910905511811024
 30
0.0
 10
3.145433070866142
 20
0.0910905511811024
 30
0.0
 10
3.7670826771653543
 20
-0.3044527559055118
 30
0.0
 10
3.7670826771653543
 20
-0.3044527559055118
 30
0.0
 10
3.7670826771653543
 20
-0.3044527559055118
 30
0.0
 10
3.7670826771653543
 20
-0.3044527559055118
 30
0.0
 10
3.7670826771653543
 20
-2.1794527559055119
 30
0.0
 10
3.7670826771653543
 20
-2.1794527559055119
 30
0.0
 10
3.7670826771653543
 20
-2.1794527559055119
 30
0.0
 10
3.7670826771653543
 20
-2.1794527559055119
 30
0.0
 10
3.145433070866142
 20
-1.7839094488188978
 30
0.0
 10
3.145433070866142
 20
-1.7839094488188978
 30
0.0
 10
3.145433070866142
 20
-1.7839094488188978
 30
0.0
 10
3.145433070866142
 20
-1.7839094488188978
 30
0.0
 10
3.145433070866142
 20
0.0910905511811024
 30
0.0
 10
3.145433070866142
 20
0.0910905511811024
 30
0.0
  0
SPLINE
  5
65
100
AcDbEntity
  8
P1-Layer 1
370
     5
100
AcDbSpline
210
0.0
220
0.0
230
1.0
 70
     1
 71
     3
 72
    20
 73
    16
 74
     0
 42
0.0000000001
 43
0.0000000001
 40
0.0
 40
0.0
 40
0.0
 40
0.0
 40
0.25
 40
0.25
 40
0.25
 40
0.25
 40
0.5
 40
0.5
 40
0.5
 40
0.5
 40
0.75
 40
0.75
 40
0.75
 40
0.75
 40
1.0
 40
1.0
 40
1.0
 40
1.0
 10
3.145433070866142
 20
0.0910905511811024
 30
0.0
 10
3.145433070866142
 20
0.0910905511811024
 30
0.0
 10
3.7670826771653543
 20
-0.3044527559055118
 30
0.0
 10
3.7670826771653543
 20
-0.3044527559055118
 30
0.0
 10
3.7670826771653543
 20
-0.3044527559055118
 30
0.0
 10
3.7670826771653543
 20
-0.3044527559055118
 30
0.0
 10
3.7670826771653543
 20
-2.1794527559055119
 30
0.0
 10
3.7670826771653543
 20
-2.1794527559055119
 30
0.0
 10
3.7670826771653543
 20
-2.1794527559055119
 30
0.0
 10
3.7670826771653543
 20
-2.1794527559055119
 30
0.0
 10
3.145433070866142
 20
-1.7839094488188978
 30
0.0
 10
3.145433070866142
 20
-1.7839094488188978
 30
0.0
 10
3.145433070866142
 20
-1.7839094488188978
 30
0.0
 10
3.145433070866142
 20
-1.7839094488188978
 30
0.0
 10
3.145433070866142
 20
0.0910905511811024
 30
0.0
 10
3.145433070866142
 20
0.0910905511811024
 30
0.0
  0
SPLINE
  5
66
100
AcDbEntity
  8
P1-Layer 1
 62
     9
100
AcDbSpline
210
0.0
220
0.0
230
1.0
 70
     1
 71
     3
 72
    20
 73
    16
 74
     0
 42
0.0000000001
 43
0.0000000001
 40
0.0
 40
0.0
 40
0.0
 40
0.0
 40
0.25
 40
0.25
 40
0.25
 40
0.25
 40
0.5
 40
0.5
 40
0.5
 40
0.5
 40
0.75
 40
0.75
 40
0.75
 40
0.75
 40
1.0
 40
1.0
 40
1.0
 40
1.0
 10
3.145433070866142
 20
-1.7839094488188978
 30
0.0
 10
3.145433070866142
 20
-1.7839094488188978
 30
0.0
 10
3.7670826771653543
 20
-2.1794527559055119
 30
0.0
 10
3.7670826771653543
 20
-2.1794527559055119
 30
0.0
 10
3.7670826771653543
 20
-2.1794527559055119
 30
0.0
 10
3.7670826771653543
 20
-2.1794527559055119
 30
0.0
 10
2.0925669291338584
 20
-2.1794527559055119
 30
0.0
 10
2.0925669291338584
 20
-2.1794527559055119
 30
0.0
 10
2.0925669291338584
 20
-2.1794527559055119
 30
0.0
 10
2.0925669291338584
 20
-2.1794527559055119
 30
0.0
 10
1.4709173228346457
 20
-1.7839094488188978
 30
0.0
 10
1.4709173228346457
 20
-1.7839094488188978
 30
0.0
 10
1.4709173228346457
 20
-1.7839094488188978
 30
0.0
 10
1.4709173228346457
 20
-1.7839094488188978
 30
0.0
 10
3.145433070866142
 20
-1.7839094488188978
 30
0.0
 10
3.145433070866142
 20
-1.7839094488188978
 30
0.0
  0
SPLINE
  5
67
100
AcDbEntity
  8
P1-Layer 1
370
     5
100
AcDbSpline
210
0.0
220
0.0
230
1.0
 70
     1
 71
     3
 72
    20
 73
    16
 74
     0
 42
0.0000000001
 43
0.0000000001
 40
0.0
 40
0.0
 40
0.0
 40
0.0
 40
0.25
 40
0.25
 40
0.25
 40
0.25
 40
0.5
 40
0.5
 40
0.5
 40
0.5
 40
0.75
 40
0.75
 40
0.75
 40
0.75
 40
1.0
 40
1.0
 40
1.0
 40
1.0
 10
3.145433070866142
 20
-1.7839094488188978
 30
0.0
 10
3.145433070866142
 20
-1.7839094488188978
 30
0.0
 10
3.7670826771653543
 20
-2.1794527559055119
 30
0.0
 10
3.7670826771653543
 20
-2.1794527559055119
 30
0.0
 10
3.7670826771653543
 20
-2.1794527559055119
 30
0.0
 10
3.7670826771653543
 20
-2.1794527559055119
 30
0.0
 10
2.0925669291338584
 20
-2.1794527559055119
 30
0.0
 10
2.0925669291338584
 20
-2.1794527559055119
 30
0.0
 10
2.0925669291338584
 20
-2.1794527559055119
 30
0.0
 10
2.0925669291338584
 20
-2.1794527559055119
 30
0.0
 10
1.4709173228346457
 20
-1.7839094488188978
 30
0.0
 10
1.4709173228346457
 20
-1.7839094488188978
 30
0.0
 10
1.4709173228346457
 20
-1.7839094488188978
 30
0.0
 10
1.4709173228346457
 20
-1.7839094488188978
 30
0.0
 10
3.145433070866142
 20
-1.7839094488188978
 30
0.0
 10
3.145433070866142
 20
-1.7839094488188978
 30
0.0
  0
SPLINE
  5
68
100
AcDbEntity
  8
P1-Layer 1
370
     5
 62
     7
100
AcDbSpline
210
0.0
220
0.0
230
1.0
 70
     1
 71
     3
 72
    28
 73
    24
 74
     0
 42
0.0000000001
 43
0.0000000001
 40
0.0
 40
0.0
 40
0.0
 40
0.0
 40
0.1666666666666667
 40
0.1666666666666667
 40
0.1666666666666667
 40
0.1666666666666667
 40
0.3333333333333333
 40
0.3333333333333333
 40
0.3333333333333333
 40
0.3333333333333333
 40
0.5
 40
0.5
 40
0.5
 40
0.5
 40
0.6666666666666666
 40
0.6666666666666666
 40
0.6666666666666666
 40
0.6666666666666666
 40
0.8333333333333333
 40
0.8333333333333333
 40
0.8333333333333333
 40
0.8333333333333333
 40
1.0
 40
1.0
 40
1.0
 40
1.0
 10
1.4709173228346457
 20
-1.7839094488188978
 30
0.0
 10
1.288996062992126
 20
-0.5241181102362205
 30
0.0
 10
-0.3993818897637795
 20
-0.9585078740157481
 30
0.0
 10
-1.8087992125984254
 20
-1.7839094488188978
 30
0.0
 10
-1.8087992125984254
 20
-1.7839094488188978
 30
0.0
 10
-1.8087992125984254
 20
-1.7839094488188978
 30
0.0
 10
-3.8545629921259845
 20
-1.7839094488188978
 30
0.0
 10
-3.8545629921259845
 20
-1.7839094488188978
 30
0.0
 10
-3.8545629921259845
 20
-1.7839094488188978
 30
0.0
 10
-3.8545629921259845
 20
-1.7839094488188978
 30
0.0
 10
-3.8545629921259845
 20
0.0910905511811024
 30
0.0
 10
-3.8545629921259845
 20
0.0910905511811024
 30
0.0
 10
-3.8545629921259845
 20
0.0910905511811024
 30
0.0
 10
-3.8545629921259845
 20
0.0910905511811024
 30
0.0
 10
3.145433070866142
 20
0.0910905511811024
 30
0.0
 10
3.145433070866142
 20
0.0910905511811024
 30
0.0
 10
3.145433070866142
 20
0.0910905511811024
 30
0.0
 10
3.145433070866142
 20
0.0910905511811024
 30
0.0
 10
3.145433070866142
 20
-1.7839094488188978
 30
0.0
 10
3.145433070866142
 20
-1.7839094488188978
 30
0.0
 10
3.145433070866142
 20
-1.7839094488188978
 30
0.0
 10
3.145433070866142
 20
-1.7839094488188978
 30
0.0
 10
1.4709173228346457
 20
-1.7839094488188978
 30
0.0
 10
1.4709173228346457
 20
-1.7839094488188978
 30
0.0
  0
TEXT
  5
69
100
AcDbEntity
  8
P1-Layer 1
100
AcDbText
 10
-0.419091
 20
-2.381555
 30
0.0
 40
0.119999
  1
BA  1541
 51
-0.000002
  7
Bookman Old Style
100
AcDbText
  0
TEXT
  5
6A
100
AcDbEntity
  8
P1-Layer 1
100
AcDbText
 10
-0.497409
 20
-2.569055
 30
0.0
 40
0.119999
  1
1-7/8\u+201d x 7\u+201d
 51
-0.000002
  7
Bookman Old Style
100
AcDbText
  0
ENDSEC
  0
SECTION
  2
OBJECTS
  0
DICTIONARY
  5
19
100
AcDbDictionary
280
     0
281
     1
  3
ACAD_GROUP
350
1A
  3
ACAD_MLINESTYLE
350
1B
  3
ACAD_LAYOUT
350
1E
  3
ACAD_PLOTSETTINGS
350
22
  3
ACAD_PLOTSTYLENAME
350
1F
  3
ACAD_WIPEOUT_VARS
350
23
  0
DICTIONARY
  5
1A
102
{ACAD_REACTORS
330
19
102
}
100
AcDbDictionary
280
     0
281
     1
  0
DICTIONARY
  5
1B
102
{ACAD_REACTORS
330
19
102
}
100
AcDbDictionary
280
     0
281
     1
  3
Standard
350
1C
  0
MLINESTYLE
  5
1C
102
{ACAD_REACTORS
330
1B
102
}
100
AcDbMlineStyle
  2
Standard
 70
     0
  3

 62
     0
 51
90.0
 52
90.0
 71
     2
 49
0.5
 62
   256
  6
BYLAYER
 49
-0.5
 62
   256
  6
BYLAYER
  0
ACDBDICTIONARYWDFLT
  5
1F
102
{ACAD_REACTORS
330
19
102
}
100
AcDbDictionary
281
     1
  3
Normal
350
1D
100
AcDbDictionaryWithDefault
340
1D
  0
ACDBPLACEHOLDER
  5
1D
102
{ACAD_REACTORS
330
1F
102
}
  0
LAYOUT
  5
20
102
{ACAD_REACTORS
330
1E
102
}
100
AcDbPlotSettings
  1

  2

  4

  6

 40
0.0
 41
0.0
 42
0.0
 43
0.0
 44
0.0
 45
0.0
 46
0.0
 47
0.0
 48
0.0
 49
0.0
140
0.0
141
0.0
142
1.0
143
1.0
 70
  1024
 72
     0
 73
     0
 74
     0
  7

 75
     0
147
1.0
148
0.0
149
0.0
100
AcDbLayout
  1
Model
 70
     0
 71
     0
 10
0.0
 20
0.0
 11
0.0
 21
0.0
 12
0.0
 22
0.0
 32
0.0
 14
0.0
 24
0.0
 34
0.0
 15
0.0
 25
0.0
 35
0.0
146
0.0
 13
0.0
 23
0.0
 33
0.0
 16
0.0
 26
0.0
 36
0.0
 17
0.0
 27
0.0
 37
0.0
 76
     0
330
A
331
0
345
0
346
0
  0
LAYOUT
  5
21
102
{ACAD_REACTORS
330
1E
102
}
100
AcDbPlotSettings
  1

  2

  4

  6

 40
0.0
 41
0.0
 42
0.0
 43
0.0
 44
0.0
 45
0.0
 46
0.0
 47
0.0
 48
0.0
 49
0.0
140
0.0
141
0.0
142
1.0
143
1.0
 70
     0
 72
     0
 73
     0
 74
     0
  7

 75
     0
147
1.0
148
0.0
149
0.0
100
AcDbLayout
  1
Layout1
 70
     0
 71
     0
 10
0.0
 20
0.0
 11
0.0
 21
0.0
 12
0.0
 22
0.0
 32
0.0
 14
0.0
 24
0.0
 34
0.0
 15
0.0
 25
0.0
 35
0.0
146
0.0
 13
0.0
 23
0.0
 33
0.0
 16
0.0
 26
0.0
 36
0.0
 17
0.0
 27
0.0
 37
0.0
 76
     0
330
B
331
0
345
0
346
0
  0
DICTIONARY
  5
1E
102
{ACAD_REACTORS
330
19
102
}
100
AcDbDictionary
280
     0
281
     1
  3
Layout1
350
21
  3
Model
350
20
  0
DICTIONARY
  5
22
102
{ACAD_REACTORS
330
19
102
}
100
AcDbDictionary
280
     0
281
     1
  0
WIPEOUTVARIABLES
  5
23
100
AcDbWipeoutVariables
 70
     1
  0
ENDSEC
  0
EOF
