  0
SECTION
  2
HEADER
  9
$ACADVER
  1
AC1015
  9
$ACADMAINTVER
 70
     6
  9
$DWGCODEPAGE
  3
DOS850
  9
$INSBASE
 10
0.0
 20
0.0
 30
0.0
  9
$EXTMIN
 10
-1.920433
 20
-0.263035
 30
1.000000E+20
  9
$EXTMAX
 10
1.639819
 20
4.263839
 30
-1.000000E+20
  9
$LIMMIN
 10
0.0
 20
0.0
  9
$LIMMAX
 10
0.0
 20
0.0
  9
$ORTHOMODE
 70
     0
  9
$REGENMODE
 70
     1
  9
$FILLMODE
 70
     1
  9
$QTEXTMODE
 70
     0
  9
$MIRRTEXT
 70
     1
  9
$LTSCALE
 40
1.0
  9
$ATTMODE
 70
     1
  9
$TEXTSIZE
 40
0.2
  9
$TRACEWID
 40
0.05
  9
$TEXTSTYLE
  7
Standard
  9
$CLAYER
  8
0
  9
$CELTYPE
  6
Continuous
  9
$CECOLOR
 62
   256
  9
$CELTSCALE
 40
1.0
  9
$DISPSILH
 70
     0
  9
$DIMSCALE
 40
1.0
  9
$DIMASZ
 40
0.18
  9
$DIMEXO
 40
0.0625
  9
$DIMDLI
 40
0.38
  9
$DIMRND
 40
0.0
  9
$DIMDLE
 40
0.0
  9
$DIMEXE
 40
0.18
  9
$DIMTP
 40
0.0
  9
$DIMTM
 40
0.0
  9
$DIMTXT
 40
0.18
  9
$DIMCEN
 40
0.09
  9
$DIMTSZ
 40
0.0
  9
$DIMTOL
 70
     0
  9
$DIMLIM
 70
     0
  9
$DIMTIH
 70
     1
  9
$DIMTOH
 70
     1
  9
$DIMSE1
 70
     0
  9
$DIMSE2
 70
     0
  9
$DIMTAD
 70
     0
  9
$DIMZIN
 70
     0
  9
$DIMBLK
  1

  9
$DIMASO
 70
     1
  9
$DIMSHO
 70
     1
  9
$DIMPOST
  1

  9
$DIMAPOST
  1

  9
$DIMALT
 70
     0
  9
$DIMALTD
 70
     2
  9
$DIMALTF
 40
25.4
  9
$DIMLFAC
 40
1.0
  9
$DIMTOFL
 70
     0
  9
$DIMTVP
 40
0.0
  9
$DIMTIX
 70
     0
  9
$DIMSOXD
 70
     0
  9
$DIMSAH
 70
     0
  9
$DIMBLK1
  1

  9
$DIMBLK2
  1

  9
$DIMSTYLE
  2
Standard
  9
$DIMCLRD
 70
     0
  9
$DIMCLRE
 70
     0
  9
$DIMCLRT
 70
     0
  9
$DIMTFAC
 40
1.0
  9
$DIMGAP
 40
0.09
  9
$DIMJUST
 70
     0
  9
$DIMSD1
 70
     0
  9
$DIMSD2
 70
     0
  9
$DIMTOLJ
 70
     1
  9
$DIMTZIN
 70
     0
  9
$DIMALTZ
 70
     0
  9
$DIMALTTZ
 70
     0
  9
$DIMUPT
 70
     0
  9
$DIMDEC
 70
     4
  9
$DIMTDEC
 70
     4
  9
$DIMALTU
 70
     2
  9
$DIMALTTD
 70
     2
  9
$DIMTXSTY
  7
Standard
  9
$DIMAUNIT
 70
     0
  9
$DIMADEC
 70
     0
  9
$DIMALTRND
 40
0.0
  9
$DIMAZIN
 70
     0
  9
$DIMDSEP
 70
     0
  9
$DIMATFIT
 70
     3
  9
$DIMFRAC
 70
     0
  9
$DIMLDRBLK
  1

  9
$DIMLUNIT
 70
     2
  9
$DIMLWD
 70
     0
  9
$DIMLWE
 70
     0
  9
$DIMTMOVE
 70
     0
  9
$LUNITS
 70
     2
  9
$LUPREC
 70
     4
  9
$SKETCHINC
 40
0.1
  9
$FILLETRAD
 40
0.0
  9
$AUNITS
 70
     0
  9
$AUPREC
 70
     0
  9
$MENU
  1
acad
  9
$ELEVATION
 40
0.0
  9
$PELEVATION
 40
0.0
  9
$THICKNESS
 40
0.0
  9
$LIMCHECK
 70
     0
  9
$CHAMFERA
 40
0.0
  9
$CHAMFERB
 40
0.0
  9
$CHAMFERC
 40
0.0
  9
$CHAMFERD
 40
0.0
  9
$SKPOLY
 70
     0
  9
$TDCREATE
 40
0.000000000
  9
$TDUCREATE
 40
0.000000000
  9
$TDUPDATE
 40
0.000000000
  9
$TDUUPDATE
 40
0.000000000
  9
$TDINDWG
 40
0.0000000000
  9
$TDUSRTIMER
 40
0.0000000000
  9
$USRTIMER
 70
     1
  9
$ANGBASE
 50
0.0
  9
$ANGDIR
 70
     0
  9
$PDMODE
 70
     0
  9
$PDSIZE
 40
0.0
  9
$PLINEWID
 40
0.0
  9
$SPLFRAME
 70
     0
  9
$SPLINETYPE
 70
     6
  9
$SPLINESEGS
 70
     8
  9
$HANDSEED
  5
BA
  9
$SURFTAB1
 70
     6
  9
$SURFTAB2
 70
     6
  9
$SURFTYPE
 70
     6
  9
$SURFU
 70
     6
  9
$SURFV
 70
     6
  9
$UCSBASE
  2

  9
$UCSNAME
  2

  9
$UCSORG
 10
0.0
 20
0.0
 30
0.0
  9
$UCSXDIR
 10
1.0
 20
0.0
 30
0.0
  9
$UCSYDIR
 10
0.0
 20
1.0
 30
0.0
  9
$UCSORTHOREF
  2

  9
$UCSORTHOVIEW
 70
     0
  9
$UCSORGTOP
 10
0.0
 20
0.0
 30
0.0
  9
$UCSORGBOTTOM
 10
0.0
 20
0.0
 30
0.0
  9
$UCSORGLEFT
 10
0.0
 20
0.0
 30
0.0
  9
$UCSORGRIGHT
 10
0.0
 20
0.0
 30
0.0
  9
$UCSORGFRONT
 10
0.0
 20
0.0
 30
0.0
  9
$UCSORGBACK
 10
0.0
 20
0.0
 30
0.0
  9
$PUCSBASE
  2

  9
$PUCSNAME
  2

  9
$PUCSORG
 10
0.0
 20
0.0
 30
0.0
  9
$PUCSXDIR
 10
1.0
 20
0.0
 30
0.0
  9
$PUCSYDIR
 10
0.0
 20
1.0
 30
0.0
  9
$PUCSORTHOREF
  2

  9
$PUCSORTHOVIEW
 70
     0
  9
$PUCSORGTOP
 10
0.0
 20
0.0
 30
0.0
  9
$PUCSORGBOTTOM
 10
0.0
 20
0.0
 30
0.0
  9
$PUCSORGLEFT
 10
0.0
 20
0.0
 30
0.0
  9
$PUCSORGRIGHT
 10
0.0
 20
0.0
 30
0.0
  9
$PUCSORGFRONT
 10
0.0
 20
0.0
 30
0.0
  9
$PUCSORGBACK
 10
0.0
 20
0.0
 30
0.0
  9
$USERI1
 70
     0
  9
$USERI2
 70
     0
  9
$USERI3
 70
     0
  9
$USERI4
 70
     0
  9
$USERI5
 70
     0
  9
$USERR1
 40
0.0
  9
$USERR2
 40
0.0
  9
$USERR3
 40
0.0
  9
$USERR4
 40
0.0
  9
$USERR5
 40
0.0
  9
$WORLDVIEW
 70
     1
  9
$SHADEDGE
 70
     3
  9
$SHADEDIF
 70
    70
  9
$TILEMODE
 70
     1
  9
$MAXACTVP
 70
    16
  9
$PINSBASE
 10
0.0
 20
0.0
 30
0.0
  9
$PLIMCHECK
 70
     0
  9
$PEXTMIN
 10
1.000000E+20
 20
1.000000E+20
 30
1.000000E+20
  9
$PEXTMAX
 10
-1.000000E+20
 20
-1.000000E+20
 30
-1.000000E+20
  9
$PLIMMIN
 10
0.0
 20
0.0
  9
$PLIMMAX
 10
12.0
 20
9.0
  9
$UNITMODE
 70
     0
  9
$VISRETAIN
 70
     0
  9
$PLINEGEN
 70
     1
  9
$PSLTSCALE
 70
     0
  9
$TREEDEPTH
 70
  3020
  9
$CMLSTYLE
  2
Standard
  9
$CMLJUST
 70
     0
  9
$CMLSCALE
 40
1.0
  9
$PROXYGRAPHICS
 70
     0
  9
$MEASUREMENT
 70
     0
  9
$CELWEIGHT
370
     0
  9
$ENDCAPS
280
     0
  9
$JOINSTYLE
280
     0
  9
$LWDISPLAY
290
     0
  9
$INSUNITS
 70
     1
  9
$HYPERLINKBASE
  1

  9
$XEDIT
290
     1
  9
$CEPSNTYPE
380
     0
  9
$PSTYLEMODE
290
     1
  9
$FINGERPRINTGUID
  2

  9
$VERSIONGUID
  2

  9
$EXTNAMES
290
     1
  9
$PSVPSCALE
 40
0.0
  0
ENDSEC
  0
SECTION
  2
CLASSES
  0
CLASS
  1
LWPOLYLINE
  2
AcDbPolyline
  3
AutoCAD 2000
 90
    32768
280
     0
281
     1
  0
CLASS
  1
IMAGE
  2
AcDbRasterImage
  3
ISM
 90
    32895
280
     0
281
     1
  0
CLASS
  1
OLE2FRAME
  2
AcDbOle2Frame
  3
AutoCAD 2000
 90
    32768
280
     0
281
     1
  0
CLASS
  1
HATCH
  2
AcDbHatch
  3
AutoCAD 2000
 90
    32768
280
     0
281
     1
  0
CLASS
  1
DICTIONARYVAR
  2
AcDbDictionaryVar
  3
AutoCAD 2000
 90
    32768
280
     0
281
     0
  0
CLASS
  1
RASTERVARIABLES
  2
AcDbRasterVariables
  3
ISM
 90
    32768
280
     0
281
     0
  0
CLASS
  1
IMAGEDEF
  2
AcDbRasterImageDef
  3
ISM
 90
    32768
280
     0
281
     0
  0
CLASS
  1
IMAGEDEF_REACTOR
  2
AcDbRasterImageDefReactor
  3
ISM
 90
    32769
280
     0
281
     0
  0
CLASS
  1
IDBUFFER
  2
AcDbIdBuffer
  3
AutoCAD 2000
 90
    32768
280
     0
281
     0
  0
CLASS
  1
SPATIAL_FILTER
  2
AcDbSpatialFilter
  3
AutoCAD 2000
 90
    32768
280
     0
281
     0
  0
CLASS
  1
XRECORD
  2
AcDbXrecord
  3
AutoCAD 2000
 90
    32768
280
     0
281
     0
  0
CLASS
  1
SORTENTSTABLE
  2
AcDbSortentsTable
  3
AutoCAD 2000
 90
    32768
280
     0
281
     0
  0
CLASS
  1
LAYER_INDEX
  2
AcDbLayerIndex
  3
AutoCAD 2000
 90
    32768
280
     0
281
     0
  0
CLASS
  1
SPATIAL_INDEX
  2
AcDbSpatialIndex
  3
AutoCAD 2000
 90
    32768
280
     0
281
     0
  0
CLASS
  1
OBJECT_PTR
  2
CAseDLPNTableRecord
  3
"ASE-LPNTableRecord"
 90
    32769
280
     0
281
     0
  0
CLASS
  1
LAYOUT
  2
AcDbLayout
  3
AutoCAD 2000
 90
        0
280
     0
281
     0
  0
CLASS
  1
PLOTSETTINGS
  2
AcDbPlotSettings
  3
AutoCAD 2000
 90
    32768
280
     0
281
     0
  0
CLASS
  1
ACDBDICTIONARYWDFLT
  2
AcDbDictionaryWithDefault
  3
AutoCAD 2000
 90
        0
280
     0
281
     0
  0
CLASS
  1
ACDBPLACEHOLDER
  2
AcDbPlaceHolder
  3
AutoCAD 2000
 90
        0
280
     0
281
     0
  0
CLASS
  1
VBA_PROJECT
  2
AcDbVbaProject
  3
acadvba
 90
    32768
280
     0
281
     0
  0
CLASS
  1
WIPEOUT
  2
AcDbWipeout
  3
WipeOut|AutoCAD Express Tool|expresstools@autodesk.com
 90
    32895
280
     0
281
     1
  0
CLASS
  1
WIPEOUTVARIABLES
  2
AcDbWipeoutVariables
  3
WipeOut|AutoCAD Express Tool|expresstools@autodesk.com
 90
        0
280
     0
281
     0
  0
CLASS
  1
RTEXT
  2
RText
  3
RText|AutoCAD Express Tool|expresstools@autodesk.com
 90
    32768
280
     0
281
     1
  0
CLASS
  1
ARCALIGNEDTEXT
  2
AcDbArcAlignedText
  3
ATEXT|AutoCAD Express Tool|expresstools@autodesk.com
 90
    32768
280
     0
281
     1
  0
ENDSEC
  0
SECTION
  2
TABLES
  0
TABLE
  2
VPORT
  5
7
100
AcDbSymbolTable
 70
     1
  0
VPORT
  5
15
100
AcDbSymbolTableRecord
100
AcDbViewportTableRecord
  2
*ACTIVE
 70
     0
 10
0.0
 20
0.0
 11
1.0
 21
1.0
 12
6.591288
 22
4.579184
 13
0.0
 23
0.0
 14
1.0
 24
1.0
 15
0.0
 25
0.0
 16
0.0
 26
0.0
 36
1.0
 17
0.0
 27
0.0
 37
0.0
 40
9.158369
 41
0.688564
 42
50.0
 43
0.0
 44
0.0
 50
0.0
 51
0.0
 71
     0
 72
   100
 73
     1
 74
     1
 75
     0
 76
     0
 77
     0
 78
     0
281
     0
 65
     0
110
0.0
120
0.0
130
0.0
111
1.0
121
0.0
131
0.0
112
0.0
122
1.0
132
0.0
345
0
346
0
 79
     0
146
0.0
  0
ENDTAB
  0
TABLE
  2
LTYPE
  5
4
100
AcDbSymbolTable
 70
     3
  0
LTYPE
  5
11
100
AcDbSymbolTableRecord
100
AcDbLinetypeTableRecord
  2
ByBlock
 70
    64
  3

 72
    65
 73
     0
 40
0.0
  0
LTYPE
  5
12
100
AcDbSymbolTableRecord
100
AcDbLinetypeTableRecord
  2
ByLayer
 70
    64
  3

 72
    65
 73
     0
 40
0.0
  0
LTYPE
  5
13
100
AcDbSymbolTableRecord
100
AcDbLinetypeTableRecord
  2
Continuous
 70
    64
  3
Solid line
 72
    65
 73
     0
 40
0.0
  0
ENDTAB
  0
TABLE
  2
LAYER
  5
2
100
AcDbSymbolTable
 70
     2
  0
LAYER
  5
14
100
AcDbSymbolTableRecord
100
AcDbLayerTableRecord
  2
0
 70
     0
 62
     7
  6
Continuous
290
     1
370
    -3
390
1D
  0
LAYER
  5
24
100
AcDbSymbolTableRecord
100
AcDbLayerTableRecord
  2
Layer 1
 70
     0
 62
     7
  6
Continuous
290
     1
370
    -3
390
1F
  0
ENDTAB
  0
TABLE
  2
STYLE
  5
3
100
AcDbSymbolTable
 70
     2
  0
STYLE
  5
17
100
AcDbSymbolTableRecord
100
AcDbTextStyleTableRecord
  2
Standard
 70
     0
 40
0.0
 41
1.0
 50
0.0
 71
     0
 42
0.0
  3
txt
  4

  0
STYLE
  5
26
100
AcDbSymbolTableRecord
100
AcDbTextStyleTableRecord
  2
Bookman Old Style
 70
     0
 40
1.0
 41
1.0
 50
0.0
 71
     0
 42
1.0
  3
Bookman Old Style
  4

  0
ENDTAB
  0
TABLE
  2
VIEW
  5
5
100
AcDbSymbolTable
 70
     0
  0
ENDTAB
  0
TABLE
  2
UCS
  5
6
100
AcDbSymbolTable
 70
     0
  0
ENDTAB
  0
TABLE
  2
APPID
  5
8
100
AcDbSymbolTable
 70
     1
  0
APPID
  5
16
100
AcDbSymbolTableRecord
100
AcDbRegAppTableRecord
  2
ACAD
 70
     0
  0
ENDTAB
  0
TABLE
  2
DIMSTYLE
  5
9
100
AcDbSymbolTable
 70
     1
100
AcDbDimStyleTable
 71
     0
  0
DIMSTYLE
105
18
100
AcDbSymbolTableRecord
100
AcDbDimStyleTableRecord
  2
Standard
 70
     0
  3

  4

 40
1.0
 41
0.18
 42
0.0625
 43
0.38
 44
0.18
 45
0.0
 46
0.0
 47
0.0
 48
0.0
 71
     0
 72
     0
 73
     1
 74
     1
 75
     0
 76
     0
 77
     0
 78
     0
 79
     0
140
0.18
141
0.09
142
0.0
143
25.4
144
1.0
145
0.0
146
1.0
147
0.09
148
0.0
170
     0
171
     2
172
     0
173
     0
174
     0
175
     0
176
     0
177
     0
178
     0
179
     0
271
     4
272
     4
273
     2
274
     2
275
     0
276
     0
277
     2
278
    46
279
     0
280
     0
281
     0
282
     0
283
     1
284
     0
285
     0
286
     0
288
     0
340
17
341
0
342
0
343
0
344
0
371
    -2
372
    -2
  0
ENDTAB
  0
TABLE
  2
BLOCK_RECORD
  5
1
100
AcDbSymbolTable
 70
     0
  0
BLOCK_RECORD
  5
A
100
AcDbSymbolTableRecord
100
AcDbBlockTableRecord
  2
*MODEL_SPACE
340
20
  0
BLOCK_RECORD
  5
B
100
AcDbSymbolTableRecord
100
AcDbBlockTableRecord
  2
*PAPER_SPACE
340
21
  0
ENDTAB
  0
ENDSEC
  0
SECTION
  2
BLOCKS
  0
BLOCK
  5
D
100
AcDbEntity
  8
0
100
AcDbBlockBegin
  2
*MODEL_SPACE
 70
     0
 10
0.0
 20
0.0
 30
0.0
  3
*MODEL_SPACE
  1

  0
ENDBLK
  5
E
100
AcDbEntity
  8
0
100
AcDbBlockEnd
  0
BLOCK
  5
F
100
AcDbEntity
 67
     1
  8
0
100
AcDbBlockBegin
  2
*PAPER_SPACE
 70
     0
 10
0.0
 20
0.0
 30
0.0
  3
*PAPER_SPACE
  1

  0
ENDBLK
  5
10
100
AcDbEntity
 67
     1
  8
0
100
AcDbBlockEnd
  0
ENDSEC
  0
SECTION
  2
ENTITIES
  0
SPLINE
  5
25
100
AcDbEntity
  8
Layer 1
370
     5
100
AcDbSpline
210
0.0
220
0.0
230
1.0
 70
     1
 71
     3
 72
    36
 73
    32
 74
     0
 42
0.0000000001
 43
0.0000000001
 40
0.0
 40
0.0
 40
0.0
 40
0.0
 40
0.125
 40
0.125
 40
0.125
 40
0.125
 40
0.25
 40
0.25
 40
0.25
 40
0.25
 40
0.375
 40
0.375
 40
0.375
 40
0.375
 40
0.5
 40
0.5
 40
0.5
 40
0.5
 40
0.625
 40
0.625
 40
0.625
 40
0.625
 40
0.75
 40
0.75
 40
0.75
 40
0.75
 40
0.875
 40
0.875
 40
0.875
 40
0.875
 40
1.0
 40
1.0
 40
1.0
 40
1.0
 10
1.5810669291338584
 20
3.4647244094488192
 30
0.0
 10
1.5878818897637796
 20
3.9775866141732283
 30
0.0
 10
0.9751811023622048
 20
3.9073779527559056
 30
0.0
 10
0.6340787401574803
 20
3.7794645669291338
 30
0.0
 10
0.6340787401574803
 20
3.7794645669291338
 30
0.0
 10
0.2929763779527559
 20
3.6515511811023624
 30
0.0
 10
-0.0368188976377953
 20
3.59598031496063
 30
0.0
 10
-0.3335196850393701
 20
3.8873385826771654
 30
0.0
 10
-0.3335196850393701
 20
3.8873385826771654
 30
0.0
 10
-0.3335196850393701
 20
3.8873385826771654
 30
0.0
 10
-0.8960196850393701
 20
3.8873385826771654
 30
0.0
 10
-0.8960196850393701
 20
3.8873385826771654
 30
0.0
 10
-0.8960196850393701
 20
3.8873385826771654
 30
0.0
 10
-0.8960196850393701
 20
3.8873385826771654
 30
0.0
 10
-0.9189330708661417
 20
4.2623385826771658
 30
0.0
 10
-0.9189330708661417
 20
4.2623385826771658
 30
0.0
 10
-0.9189330708661417
 20
4.2623385826771658
 30
0.0
 10
-0.9189330708661417
 20
4.2623385826771658
 30
0.0
 10
-1.9189330708661418
 20
4.2623385826771658
 30
0.0
 10
-1.9189330708661418
 20
4.2623385826771658
 30
0.0
 10
-1.9189330708661418
 20
4.2623385826771658
 30
0.0
 10
-1.9189330708661418
 20
4.2623385826771658
 30
0.0
 10
-1.9189330708661418
 20
3.0123346456692914
 30
0.0
 10
-1.9189330708661418
 20
3.0123346456692914
 30
0.0
 10
-1.9189330708661418
 20
3.0123346456692914
 30
0.0
 10
-1.9189330708661418
 20
3.0123346456692914
 30
0.0
 10
1.5810669291338584
 20
3.0123346456692914
 30
0.0
 10
1.5810669291338584
 20
3.0123346456692914
 30
0.0
 10
1.5810669291338584
 20
3.0123346456692914
 30
0.0
 10
1.5810669291338584
 20
3.0123346456692914
 30
0.0
 10
1.5810669291338584
 20
3.4647244094488192
 30
0.0
 10
1.5810669291338584
 20
3.4647244094488192
 30
0.0
  0
TEXT
  5
27
100
AcDbEntity
  8
Layer 1
100
AcDbText
 10
-0.535169
 20
2.71439
 30
0.0
 40
0.119999
  1
BA  1538
 51
-0.000002
  7
Bookman Old Style
100
AcDbText
  0
TEXT
  5
28
100
AcDbEntity
  8
Layer 1
100
AcDbText
 10
-0.800181
 20
2.52689
 30
0.0
 40
0.119999
  1
1-1/4\u+201d x 3-1/2\u+201d
 51
-0.000002
  7
Bookman Old Style
100
AcDbText
  0
SPLINE
  5
29
100
AcDbEntity
  8
Layer 1
 62
   253
100
AcDbSpline
210
0.0
220
0.0
230
1.0
 70
     1
 71
     3
 72
    20
 73
    16
 74
     0
 42
0.0000000001
 43
0.0000000001
 40
0.0
 40
0.0
 40
0.0
 40
0.0
 40
0.25
 40
0.25
 40
0.25
 40
0.25
 40
0.5
 40
0.5
 40
0.5
 40
0.5
 40
0.75
 40
0.75
 40
0.75
 40
0.75
 40
1.0
 40
1.0
 40
1.0
 40
1.0
 10
1.6371653543307088
 20
0.6808110236220473
 30
0.0
 10
1.6371653543307088
 20
0.6808110236220473
 30
0.0
 10
1.6295708661417323
 20
1.4328740157480315
 30
0.0
 10
1.6295708661417323
 20
1.4328740157480315
 30
0.0
 10
1.6295708661417323
 20
1.4328740157480315
 30
0.0
 10
1.6295708661417323
 20
1.4328740157480315
 30
0.0
 10
1.6249527559055119
 20
1.4759448818897638
 30
0.0
 10
1.6249527559055119
 20
1.4759448818897638
 30
0.0
 10
1.6249527559055119
 20
1.4759448818897638
 30
0.0
 10
1.6249527559055119
 20
1.4759448818897638
 30
0.0
 10
1.6325472440944881
 20
0.7238818897637795
 30
0.0
 10
1.6325472440944881
 20
0.7238818897637795
 30
0.0
 10
1.6325472440944881
 20
0.7238818897637795
 30
0.0
 10
1.6325472440944881
 20
0.7238818897637795
 30
0.0
 10
1.6371653543307088
 20
0.6808110236220473
 30
0.0
 10
1.6371653543307088
 20
0.6808110236220473
 30
0.0
  0
SPLINE
  5
2A
100
AcDbEntity
  8
Layer 1
 62
     9
100
AcDbSpline
210
0.0
220
0.0
230
1.0
 70
     1
 71
     3
 72
    20
 73
    16
 74
     0
 42
0.0000000001
 43
0.0000000001
 40
0.0
 40
0.0
 40
0.0
 40
0.0
 40
0.25
 40
0.25
 40
0.25
 40
0.25
 40
0.5
 40
0.5
 40
0.5
 40
0.5
 40
0.75
 40
0.75
 40
0.75
 40
0.75
 40
1.0
 40
1.0
 40
1.0
 40
1.0
 10
1.6325472440944881
 20
0.7238818897637795
 30
0.0
 10
1.6325472440944881
 20
0.7238818897637795
 30
0.0
 10
1.6249527559055119
 20
1.4759448818897638
 30
0.0
 10
1.6249527559055119
 20
1.4759448818897638
 30
0.0
 10
1.6249527559055119
 20
1.4759448818897638
 30
0.0
 10
1.6249527559055119
 20
1.4759448818897638
 30
0.0
 10
1.6170314960629921
 20
1.5157834645669293
 30
0.0
 10
1.6170314960629921
 20
1.5157834645669293
 30
0.0
 10
1.6170314960629921
 20
1.5157834645669293
 30
0.0
 10
1.6170314960629921
 20
1.5157834645669293
 30
0.0
 10
1.6246259842519686
 20
0.7637204724409449
 30
0.0
 10
1.6246259842519686
 20
0.7637204724409449
 30
0.0
 10
1.6246259842519686
 20
0.7637204724409449
 30
0.0
 10
1.6246259842519686
 20
0.7637204724409449
 30
0.0
 10
1.6325472440944881
 20
0.7238818897637795
 30
0.0
 10
1.6325472440944881
 20
0.7238818897637795
 30
0.0
  0
SPLINE
  5
2B
100
AcDbEntity
  8
Layer 1
 62
     9
100
AcDbSpline
210
0.0
220
0.0
230
1.0
 70
     1
 71
     3
 72
    20
 73
    16
 74
     0
 42
0.0000000001
 43
0.0000000001
 40
0.0
 40
0.0
 40
0.0
 40
0.0
 40
0.25
 40
0.25
 40
0.25
 40
0.25
 40
0.5
 40
0.5
 40
0.5
 40
0.5
 40
0.75
 40
0.75
 40
0.75
 40
0.75
 40
1.0
 40
1.0
 40
1.0
 40
1.0
 10
1.6246259842519686
 20
0.7637204724409449
 30
0.0
 10
1.6246259842519686
 20
0.7637204724409449
 30
0.0
 10
1.6170314960629921
 20
1.5157834645669293
 30
0.0
 10
1.6170314960629921
 20
1.5157834645669293
 30
0.0
 10
1.6170314960629921
 20
1.5157834645669293
 30
0.0
 10
1.6170314960629921
 20
1.5157834645669293
 30
0.0
 10
1.6059763779527561
 20
1.5525039370078741
 30
0.0
 10
1.6059763779527561
 20
1.5525039370078741
 30
0.0
 10
1.6059763779527561
 20
1.5525039370078741
 30
0.0
 10
1.6059763779527561
 20
1.5525039370078741
 30
0.0
 10
1.6135708661417323
 20
0.8004409448818898
 30
0.0
 10
1.6135708661417323
 20
0.8004409448818898
 30
0.0
 10
1.6135708661417323
 20
0.8004409448818898
 30
0.0
 10
1.6135708661417323
 20
0.8004409448818898
 30
0.0
 10
1.6246259842519686
 20
0.7637204724409449
 30
0.0
 10
1.6246259842519686
 20
0.7637204724409449
 30
0.0
  0
SPLINE
  5
2C
100
AcDbEntity
  8
Layer 1
 62
     9
100
AcDbSpline
210
0.0
220
0.0
230
1.0
 70
     1
 71
     3
 72
    20
 73
    16
 74
     0
 42
0.0000000001
 43
0.0000000001
 40
0.0
 40
0.0
 40
0.0
 40
0.0
 40
0.25
 40
0.25
 40
0.25
 40
0.25
 40
0.5
 40
0.5
 40
0.5
 40
0.5
 40
0.75
 40
0.75
 40
0.75
 40
0.75
 40
1.0
 40
1.0
 40
1.0
 40
1.0
 10
1.6135708661417323
 20
0.8004409448818898
 30
0.0
 10
1.6135708661417323
 20
0.8004409448818898
 30
0.0
 10
1.6059763779527561
 20
1.5525039370078741
 30
0.0
 10
1.6059763779527561
 20
1.5525039370078741
 30
0.0
 10
1.6059763779527561
 20
1.5525039370078741
 30
0.0
 10
1.6059763779527561
 20
1.5525039370078741
 30
0.0
 10
1.5919330708661419
 20
1.5861850393700787
 30
0.0
 10
1.5919330708661419
 20
1.5861850393700787
 30
0.0
 10
1.5919330708661419
 20
1.5861850393700787
 30
0.0
 10
1.5919330708661419
 20
1.5861850393700787
 30
0.0
 10
1.5995275590551181
 20
0.8341220472440946
 30
0.0
 10
1.5995275590551181
 20
0.8341220472440946
 30
0.0
 10
1.5995275590551181
 20
0.8341220472440946
 30
0.0
 10
1.5995275590551181
 20
0.8341220472440946
 30
0.0
 10
1.6135708661417323
 20
0.8004409448818898
 30
0.0
 10
1.6135708661417323
 20
0.8004409448818898
 30
0.0
  0
SPLINE
  5
2D
100
AcDbEntity
  8
Layer 1
 62
     9
100
AcDbSpline
210
0.0
220
0.0
230
1.0
 70
     1
 71
     3
 72
    20
 73
    16
 74
     0
 42
0.0000000001
 43
0.0000000001
 40
0.0
 40
0.0
 40
0.0
 40
0.0
 40
0.25
 40
0.25
 40
0.25
 40
0.25
 40
0.5
 40
0.5
 40
0.5
 40
0.5
 40
0.75
 40
0.75
 40
0.75
 40
0.75
 40
1.0
 40
1.0
 40
1.0
 40
1.0
 10
1.5995275590551181
 20
0.8341220472440946
 30
0.0
 10
1.5995275590551181
 20
0.8341220472440946
 30
0.0
 10
1.5919330708661419
 20
1.5861850393700787
 30
0.0
 10
1.5919330708661419
 20
1.5861850393700787
 30
0.0
 10
1.5919330708661419
 20
1.5861850393700787
 30
0.0
 10
1.5919330708661419
 20
1.5861850393700787
 30
0.0
 10
1.5750826771653543
 20
1.6169370078740157
 30
0.0
 10
1.5750826771653543
 20
1.6169370078740157
 30
0.0
 10
1.5750826771653543
 20
1.6169370078740157
 30
0.0
 10
1.5750826771653543
 20
1.6169370078740157
 30
0.0
 10
1.5826771653543308
 20
0.8648740157480316
 30
0.0
 10
1.5826771653543308
 20
0.8648740157480316
 30
0.0
 10
1.5826771653543308
 20
0.8648740157480316
 30
0.0
 10
1.5826771653543308
 20
0.8648740157480316
 30
0.0
 10
1.5995275590551181
 20
0.8341220472440946
 30
0.0
 10
1.5995275590551181
 20
0.8341220472440946
 30
0.0
  0
SPLINE
  5
2E
100
AcDbEntity
  8
Layer 1
 62
     9
100
AcDbSpline
210
0.0
220
0.0
230
1.0
 70
     1
 71
     3
 72
    20
 73
    16
 74
     0
 42
0.0000000001
 43
0.0000000001
 40
0.0
 40
0.0
 40
0.0
 40
0.0
 40
0.25
 40
0.25
 40
0.25
 40
0.25
 40
0.5
 40
0.5
 40
0.5
 40
0.5
 40
0.75
 40
0.75
 40
0.75
 40
0.75
 40
1.0
 40
1.0
 40
1.0
 40
1.0
 10
1.5826771653543308
 20
0.8648740157480316
 30
0.0
 10
1.5826771653543308
 20
0.8648740157480316
 30
0.0
 10
1.5750826771653543
 20
1.6169370078740157
 30
0.0
 10
1.5750826771653543
 20
1.6169370078740157
 30
0.0
 10
1.5750826771653543
 20
1.6169370078740157
 30
0.0
 10
1.5750826771653543
 20
1.6169370078740157
 30
0.0
 10
1.5555787401574803
 20
1.6448425196850394
 30
0.0
 10
1.5555787401574803
 20
1.6448425196850394
 30
0.0
 10
1.5555787401574803
 20
1.6448425196850394
 30
0.0
 10
1.5555787401574803
 20
1.6448425196850394
 30
0.0
 10
1.5631732283464568
 20
0.8927795275590551
 30
0.0
 10
1.5631732283464568
 20
0.8927795275590551
 30
0.0
 10
1.5631732283464568
 20
0.8927795275590551
 30
0.0
 10
1.5631732283464568
 20
0.8927795275590551
 30
0.0
 10
1.5826771653543308
 20
0.8648740157480316
 30
0.0
 10
1.5826771653543308
 20
0.8648740157480316
 30
0.0
  0
SPLINE
  5
2F
100
AcDbEntity
  8
Layer 1
 62
     9
100
AcDbSpline
210
0.0
220
0.0
230
1.0
 70
     1
 71
     3
 72
    20
 73
    16
 74
     0
 42
0.0000000001
 43
0.0000000001
 40
0.0
 40
0.0
 40
0.0
 40
0.0
 40
0.25
 40
0.25
 40
0.25
 40
0.25
 40
0.5
 40
0.5
 40
0.5
 40
0.5
 40
0.75
 40
0.75
 40
0.75
 40
0.75
 40
1.0
 40
1.0
 40
1.0
 40
1.0
 10
1.5631732283464568
 20
0.8927795275590551
 30
0.0
 10
1.5631732283464568
 20
0.8927795275590551
 30
0.0
 10
1.5555787401574803
 20
1.6448425196850394
 30
0.0
 10
1.5555787401574803
 20
1.6448425196850394
 30
0.0
 10
1.5555787401574803
 20
1.6448425196850394
 30
0.0
 10
1.5555787401574803
 20
1.6448425196850394
 30
0.0
 10
1.5335944881889765
 20
1.6700157480314961
 30
0.0
 10
1.5335944881889765
 20
1.6700157480314961
 30
0.0
 10
1.5335944881889765
 20
1.6700157480314961
 30
0.0
 10
1.5335944881889765
 20
1.6700157480314961
 30
0.0
 10
1.5411889763779527
 20
0.9179527559055118
 30
0.0
 10
1.5411889763779527
 20
0.9179527559055118
 30
0.0
 10
1.5411889763779527
 20
0.9179527559055118
 30
0.0
 10
1.5411889763779527
 20
0.9179527559055118
 30
0.0
 10
1.5631732283464568
 20
0.8927795275590551
 30
0.0
 10
1.5631732283464568
 20
0.8927795275590551
 30
0.0
  0
SPLINE
  5
30
100
AcDbEntity
  8
Layer 1
 62
     9
100
AcDbSpline
210
0.0
220
0.0
230
1.0
 70
     1
 71
     3
 72
    20
 73
    16
 74
     0
 42
0.0000000001
 43
0.0000000001
 40
0.0
 40
0.0
 40
0.0
 40
0.0
 40
0.25
 40
0.25
 40
0.25
 40
0.25
 40
0.5
 40
0.5
 40
0.5
 40
0.5
 40
0.75
 40
0.75
 40
0.75
 40
0.75
 40
1.0
 40
1.0
 40
1.0
 40
1.0
 10
1.5411889763779527
 20
0.9179527559055118
 30
0.0
 10
1.5411889763779527
 20
0.9179527559055118
 30
0.0
 10
1.5335944881889765
 20
1.6700157480314961
 30
0.0
 10
1.5335944881889765
 20
1.6700157480314961
 30
0.0
 10
1.5335944881889765
 20
1.6700157480314961
 30
0.0
 10
1.5335944881889765
 20
1.6700157480314961
 30
0.0
 10
1.5092755905511812
 20
1.6925314960629922
 30
0.0
 10
1.5092755905511812
 20
1.6925314960629922
 30
0.0
 10
1.5092755905511812
 20
1.6925314960629922
 30
0.0
 10
1.5092755905511812
 20
1.6925314960629922
 30
0.0
 10
1.5168700787401574
 20
0.9404685039370079
 30
0.0
 10
1.5168700787401574
 20
0.9404685039370079
 30
0.0
 10
1.5168700787401574
 20
0.9404685039370079
 30
0.0
 10
1.5168700787401574
 20
0.9404685039370079
 30
0.0
 10
1.5411889763779527
 20
0.9179527559055118
 30
0.0
 10
1.5411889763779527
 20
0.9179527559055118
 30
0.0
  0
SPLINE
  5
31
100
AcDbEntity
  8
Layer 1
 62
     9
100
AcDbSpline
210
0.0
220
0.0
230
1.0
 70
     1
 71
     3
 72
    20
 73
    16
 74
     0
 42
0.0000000001
 43
0.0000000001
 40
0.0
 40
0.0
 40
0.0
 40
0.0
 40
0.25
 40
0.25
 40
0.25
 40
0.25
 40
0.5
 40
0.5
 40
0.5
 40
0.5
 40
0.75
 40
0.75
 40
0.75
 40
0.75
 40
1.0
 40
1.0
 40
1.0
 40
1.0
 10
1.5168700787401574
 20
0.9404685039370079
 30
0.0
 10
1.5168700787401574
 20
0.9404685039370079
 30
0.0
 10
1.5092755905511812
 20
1.6925314960629922
 30
0.0
 10
1.5092755905511812
 20
1.6925314960629922
 30
0.0
 10
1.5092755905511812
 20
1.6925314960629922
 30
0.0
 10
1.5092755905511812
 20
1.6925314960629922
 30
0.0
 10
1.4827992125984253
 20
1.7125039370078741
 30
0.0
 10
1.4827992125984253
 20
1.7125039370078741
 30
0.0
 10
1.4827992125984253
 20
1.7125039370078741
 30
0.0
 10
1.4827992125984253
 20
1.7125039370078741
 30
0.0
 10
1.4903937007874015
 20
0.9604409448818898
 30
0.0
 10
1.4903937007874015
 20
0.9604409448818898
 30
0.0
 10
1.4903937007874015
 20
0.9604409448818898
 30
0.0
 10
1.4903937007874015
 20
0.9604409448818898
 30
0.0
 10
1.5168700787401574
 20
0.9404685039370079
 30
0.0
 10
1.5168700787401574
 20
0.9404685039370079
 30
0.0
  0
SPLINE
  5
32
100
AcDbEntity
  8
Layer 1
 62
     9
100
AcDbSpline
210
0.0
220
0.0
230
1.0
 70
     1
 71
     3
 72
    20
 73
    16
 74
     0
 42
0.0000000001
 43
0.0000000001
 40
0.0
 40
0.0
 40
0.0
 40
0.0
 40
0.25
 40
0.25
 40
0.25
 40
0.25
 40
0.5
 40
0.5
 40
0.5
 40
0.5
 40
0.75
 40
0.75
 40
0.75
 40
0.75
 40
1.0
 40
1.0
 40
1.0
 40
1.0
 10
1.4903937007874015
 20
0.9604409448818898
 30
0.0
 10
1.4903937007874015
 20
0.9604409448818898
 30
0.0
 10
1.4827992125984253
 20
1.7125039370078741
 30
0.0
 10
1.4827992125984253
 20
1.7125039370078741
 30
0.0
 10
1.4827992125984253
 20
1.7125039370078741
 30
0.0
 10
1.4827992125984253
 20
1.7125039370078741
 30
0.0
 10
1.4543228346456694
 20
1.7300196850393701
 30
0.0
 10
1.4543228346456694
 20
1.7300196850393701
 30
0.0
 10
1.4543228346456694
 20
1.7300196850393701
 30
0.0
 10
1.4543228346456694
 20
1.7300196850393701
 30
0.0
 10
1.4619173228346458
 20
0.9779566929133858
 30
0.0
 10
1.4619173228346458
 20
0.9779566929133858
 30
0.0
 10
1.4619173228346458
 20
0.9779566929133858
 30
0.0
 10
1.4619173228346458
 20
0.9779566929133858
 30
0.0
 10
1.4903937007874015
 20
0.9604409448818898
 30
0.0
 10
1.4903937007874015
 20
0.9604409448818898
 30
0.0
  0
SPLINE
  5
33
100
AcDbEntity
  8
Layer 1
 62
   253
100
AcDbSpline
210
0.0
220
0.0
230
1.0
 70
     1
 71
     3
 72
    20
 73
    16
 74
     0
 42
0.0000000001
 43
0.0000000001
 40
0.0
 40
0.0
 40
0.0
 40
0.0
 40
0.25
 40
0.25
 40
0.25
 40
0.25
 40
0.5
 40
0.5
 40
0.5
 40
0.5
 40
0.75
 40
0.75
 40
0.75
 40
0.75
 40
1.0
 40
1.0
 40
1.0
 40
1.0
 10
1.4619173228346458
 20
0.9779566929133858
 30
0.0
 10
1.4619173228346458
 20
0.9779566929133858
 30
0.0
 10
1.4543228346456694
 20
1.7300196850393701
 30
0.0
 10
1.4543228346456694
 20
1.7300196850393701
 30
0.0
 10
1.4543228346456694
 20
1.7300196850393701
 30
0.0
 10
1.4543228346456694
 20
1.7300196850393701
 30
0.0
 10
1.42401968503937
 20
1.7451771653543309
 30
0.0
 10
1.42401968503937
 20
1.7451771653543309
 30
0.0
 10
1.42401968503937
 20
1.7451771653543309
 30
0.0
 10
1.42401968503937
 20
1.7451771653543309
 30
0.0
 10
1.4316141732283465
 20
0.9931141732283465
 30
0.0
 10
1.4316141732283465
 20
0.9931141732283465
 30
0.0
 10
1.4316141732283465
 20
0.9931141732283465
 30
0.0
 10
1.4316141732283465
 20
0.9931141732283465
 30
0.0
 10
1.4619173228346458
 20
0.9779566929133858
 30
0.0
 10
1.4619173228346458
 20
0.9779566929133858
 30
0.0
  0
SPLINE
  5
34
100
AcDbEntity
  8
Layer 1
 62
   253
100
AcDbSpline
210
0.0
220
0.0
230
1.0
 70
     1
 71
     3
 72
    20
 73
    16
 74
     0
 42
0.0000000001
 43
0.0000000001
 40
0.0
 40
0.0
 40
0.0
 40
0.0
 40
0.25
 40
0.25
 40
0.25
 40
0.25
 40
0.5
 40
0.5
 40
0.5
 40
0.5
 40
0.75
 40
0.75
 40
0.75
 40
0.75
 40
1.0
 40
1.0
 40
1.0
 40
1.0
 10
1.4316141732283465
 20
0.9931141732283465
 30
0.0
 10
1.4316141732283465
 20
0.9931141732283465
 30
0.0
 10
1.42401968503937
 20
1.7451771653543309
 30
0.0
 10
1.42401968503937
 20
1.7451771653543309
 30
0.0
 10
1.42401968503937
 20
1.7451771653543309
 30
0.0
 10
1.42401968503937
 20
1.7451771653543309
 30
0.0
 10
1.3920354330708662
 20
1.7580669291338584
 30
0.0
 10
1.3920354330708662
 20
1.7580669291338584
 30
0.0
 10
1.3920354330708662
 20
1.7580669291338584
 30
0.0
 10
1.3920354330708662
 20
1.7580669291338584
 30
0.0
 10
1.3996299212598426
 20
1.0060039370078742
 30
0.0
 10
1.3996299212598426
 20
1.0060039370078742
 30
0.0
 10
1.3996299212598426
 20
1.0060039370078742
 30
0.0
 10
1.3996299212598426
 20
1.0060039370078742
 30
0.0
 10
1.4316141732283465
 20
0.9931141732283465
 30
0.0
 10
1.4316141732283465
 20
0.9931141732283465
 30
0.0
  0
SPLINE
  5
35
100
AcDbEntity
  8
Layer 1
 62
   253
100
AcDbSpline
210
0.0
220
0.0
230
1.0
 70
     1
 71
     3
 72
    20
 73
    16
 74
     0
 42
0.0000000001
 43
0.0000000001
 40
0.0
 40
0.0
 40
0.0
 40
0.0
 40
0.25
 40
0.25
 40
0.25
 40
0.25
 40
0.5
 40
0.5
 40
0.5
 40
0.5
 40
0.75
 40
0.75
 40
0.75
 40
0.75
 40
1.0
 40
1.0
 40
1.0
 40
1.0
 10
1.3996299212598426
 20
1.0060039370078742
 30
0.0
 10
1.3996299212598426
 20
1.0060039370078742
 30
0.0
 10
1.3920354330708662
 20
1.7580669291338584
 30
0.0
 10
1.3920354330708662
 20
1.7580669291338584
 30
0.0
 10
1.3920354330708662
 20
1.7580669291338584
 30
0.0
 10
1.3920354330708662
 20
1.7580669291338584
 30
0.0
 10
1.3585472440944883
 20
1.7687992125984253
 30
0.0
 10
1.3585472440944883
 20
1.7687992125984253
 30
0.0
 10
1.3585472440944883
 20
1.7687992125984253
 30
0.0
 10
1.3585472440944883
 20
1.7687992125984253
 30
0.0
 10
1.3661417322834646
 20
1.0167362204724411
 30
0.0
 10
1.3661417322834646
 20
1.0167362204724411
 30
0.0
 10
1.3661417322834646
 20
1.0167362204724411
 30
0.0
 10
1.3661417322834646
 20
1.0167362204724411
 30
0.0
 10
1.3996299212598426
 20
1.0060039370078742
 30
0.0
 10
1.3996299212598426
 20
1.0060039370078742
 30
0.0
  0
SPLINE
  5
36
100
AcDbEntity
  8
Layer 1
 62
   253
100
AcDbSpline
210
0.0
220
0.0
230
1.0
 70
     1
 71
     3
 72
    20
 73
    16
 74
     0
 42
0.0000000001
 43
0.0000000001
 40
0.0
 40
0.0
 40
0.0
 40
0.0
 40
0.25
 40
0.25
 40
0.25
 40
0.25
 40
0.5
 40
0.5
 40
0.5
 40
0.5
 40
0.75
 40
0.75
 40
0.75
 40
0.75
 40
1.0
 40
1.0
 40
1.0
 40
1.0
 10
1.3661417322834646
 20
1.0167362204724411
 30
0.0
 10
1.3661417322834646
 20
1.0167362204724411
 30
0.0
 10
1.3585472440944883
 20
1.7687992125984253
 30
0.0
 10
1.3585472440944883
 20
1.7687992125984253
 30
0.0
 10
1.3585472440944883
 20
1.7687992125984253
 30
0.0
 10
1.3585472440944883
 20
1.7687992125984253
 30
0.0
 10
1.3237086614173228
 20
1.7774566929133859
 30
0.0
 10
1.3237086614173228
 20
1.7774566929133859
 30
0.0
 10
1.3237086614173228
 20
1.7774566929133859
 30
0.0
 10
1.3237086614173228
 20
1.7774566929133859
 30
0.0
 10
1.3313031496062993
 20
1.0253937007874017
 30
0.0
 10
1.3313031496062993
 20
1.0253937007874017
 30
0.0
 10
1.3313031496062993
 20
1.0253937007874017
 30
0.0
 10
1.3313031496062993
 20
1.0253937007874017
 30
0.0
 10
1.3661417322834646
 20
1.0167362204724411
 30
0.0
 10
1.3661417322834646
 20
1.0167362204724411
 30
0.0
  0
SPLINE
  5
37
100
AcDbEntity
  8
Layer 1
 62
   253
100
AcDbSpline
210
0.0
220
0.0
230
1.0
 70
     1
 71
     3
 72
    20
 73
    16
 74
     0
 42
0.0000000001
 43
0.0000000001
 40
0.0
 40
0.0
 40
0.0
 40
0.0
 40
0.25
 40
0.25
 40
0.25
 40
0.25
 40
0.5
 40
0.5
 40
0.5
 40
0.5
 40
0.75
 40
0.75
 40
0.75
 40
0.75
 40
1.0
 40
1.0
 40
1.0
 40
1.0
 10
1.3313031496062993
 20
1.0253937007874017
 30
0.0
 10
1.3313031496062993
 20
1.0253937007874017
 30
0.0
 10
1.3237086614173228
 20
1.7774566929133859
 30
0.0
 10
1.3237086614173228
 20
1.7774566929133859
 30
0.0
 10
1.3237086614173228
 20
1.7774566929133859
 30
0.0
 10
1.3237086614173228
 20
1.7774566929133859
 30
0.0
 10
1.2876968503937007
 20
1.7841496062992126
 30
0.0
 10
1.2876968503937007
 20
1.7841496062992126
 30
0.0
 10
1.2876968503937007
 20
1.7841496062992126
 30
0.0
 10
1.2876968503937007
 20
1.7841496062992126
 30
0.0
 10
1.2952913385826772
 20
1.0320866141732283
 30
0.0
 10
1.2952913385826772
 20
1.0320866141732283
 30
0.0
 10
1.2952913385826772
 20
1.0320866141732283
 30
0.0
 10
1.2952913385826772
 20
1.0320866141732283
 30
0.0
 10
1.3313031496062993
 20
1.0253937007874017
 30
0.0
 10
1.3313031496062993
 20
1.0253937007874017
 30
0.0
  0
SPLINE
  5
38
100
AcDbEntity
  8
Layer 1
 62
   253
100
AcDbSpline
210
0.0
220
0.0
230
1.0
 70
     1
 71
     3
 72
    20
 73
    16
 74
     0
 42
0.0000000001
 43
0.0000000001
 40
0.0
 40
0.0
 40
0.0
 40
0.0
 40
0.25
 40
0.25
 40
0.25
 40
0.25
 40
0.5
 40
0.5
 40
0.5
 40
0.5
 40
0.75
 40
0.75
 40
0.75
 40
0.75
 40
1.0
 40
1.0
 40
1.0
 40
1.0
 10
1.2952913385826772
 20
1.0320866141732283
 30
0.0
 10
1.2952913385826772
 20
1.0320866141732283
 30
0.0
 10
1.2876968503937007
 20
1.7841496062992126
 30
0.0
 10
1.2876968503937007
 20
1.7841496062992126
 30
0.0
 10
1.2876968503937007
 20
1.7841496062992126
 30
0.0
 10
1.2876968503937007
 20
1.7841496062992126
 30
0.0
 10
1.2506535433070867
 20
1.7889527559055118
 30
0.0
 10
1.2506535433070867
 20
1.7889527559055118
 30
0.0
 10
1.2506535433070867
 20
1.7889527559055118
 30
0.0
 10
1.2506535433070867
 20
1.7889527559055118
 30
0.0
 10
1.2582480314960631
 20
1.0368897637795276
 30
0.0
 10
1.2582480314960631
 20
1.0368897637795276
 30
0.0
 10
1.2582480314960631
 20
1.0368897637795276
 30
0.0
 10
1.2582480314960631
 20
1.0368897637795276
 30
0.0
 10
1.2952913385826772
 20
1.0320866141732283
 30
0.0
 10
1.2952913385826772
 20
1.0320866141732283
 30
0.0
  0
SPLINE
  5
39
100
AcDbEntity
  8
Layer 1
 62
   253
100
AcDbSpline
210
0.0
220
0.0
230
1.0
 70
     1
 71
     3
 72
    20
 73
    16
 74
     0
 42
0.0000000001
 43
0.0000000001
 40
0.0
 40
0.0
 40
0.0
 40
0.0
 40
0.25
 40
0.25
 40
0.25
 40
0.25
 40
0.5
 40
0.5
 40
0.5
 40
0.5
 40
0.75
 40
0.75
 40
0.75
 40
0.75
 40
1.0
 40
1.0
 40
1.0
 40
1.0
 10
1.2582480314960631
 20
1.0368897637795276
 30
0.0
 10
1.2582480314960631
 20
1.0368897637795276
 30
0.0
 10
1.2506535433070867
 20
1.7889527559055118
 30
0.0
 10
1.2506535433070867
 20
1.7889527559055118
 30
0.0
 10
1.2506535433070867
 20
1.7889527559055118
 30
0.0
 10
1.2506535433070867
 20
1.7889527559055118
 30
0.0
 10
1.212759842519685
 20
1.7919803149606299
 30
0.0
 10
1.212759842519685
 20
1.7919803149606299
 30
0.0
 10
1.212759842519685
 20
1.7919803149606299
 30
0.0
 10
1.212759842519685
 20
1.7919803149606299
 30
0.0
 10
1.2203543307086615
 20
1.0399173228346457
 30
0.0
 10
1.2203543307086615
 20
1.0399173228346457
 30
0.0
 10
1.2203543307086615
 20
1.0399173228346457
 30
0.0
 10
1.2203543307086615
 20
1.0399173228346457
 30
0.0
 10
1.2582480314960631
 20
1.0368897637795276
 30
0.0
 10
1.2582480314960631
 20
1.0368897637795276
 30
0.0
  0
SPLINE
  5
3A
100
AcDbEntity
  8
Layer 1
 62
   253
100
AcDbSpline
210
0.0
220
0.0
230
1.0
 70
     1
 71
     3
 72
    20
 73
    16
 74
     0
 42
0.0000000001
 43
0.0000000001
 40
0.0
 40
0.0
 40
0.0
 40
0.0
 40
0.25
 40
0.25
 40
0.25
 40
0.25
 40
0.5
 40
0.5
 40
0.5
 40
0.5
 40
0.75
 40
0.75
 40
0.75
 40
0.75
 40
1.0
 40
1.0
 40
1.0
 40
1.0
 10
1.2203543307086615
 20
1.0399173228346457
 30
0.0
 10
1.2203543307086615
 20
1.0399173228346457
 30
0.0
 10
1.212759842519685
 20
1.7919803149606299
 30
0.0
 10
1.212759842519685
 20
1.7919803149606299
 30
0.0
 10
1.212759842519685
 20
1.7919803149606299
 30
0.0
 10
1.212759842519685
 20
1.7919803149606299
 30
0.0
 10
1.1741692913385828
 20
1.7933228346456693
 30
0.0
 10
1.1741692913385828
 20
1.7933228346456693
 30
0.0
 10
1.1741692913385828
 20
1.7933228346456693
 30
0.0
 10
1.1741692913385828
 20
1.7933228346456693
 30
0.0
 10
1.1817637795275591
 20
1.0412598425196851
 30
0.0
 10
1.1817637795275591
 20
1.0412598425196851
 30
0.0
 10
1.1817637795275591
 20
1.0412598425196851
 30
0.0
 10
1.1817637795275591
 20
1.0412598425196851
 30
0.0
 10
1.2203543307086615
 20
1.0399173228346457
 30
0.0
 10
1.2203543307086615
 20
1.0399173228346457
 30
0.0
  0
SPLINE
  5
3B
100
AcDbEntity
  8
Layer 1
 62
   253
100
AcDbSpline
210
0.0
220
0.0
230
1.0
 70
     1
 71
     3
 72
    20
 73
    16
 74
     0
 42
0.0000000001
 43
0.0000000001
 40
0.0
 40
0.0
 40
0.0
 40
0.0
 40
0.25
 40
0.25
 40
0.25
 40
0.25
 40
0.5
 40
0.5
 40
0.5
 40
0.5
 40
0.75
 40
0.75
 40
0.75
 40
0.75
 40
1.0
 40
1.0
 40
1.0
 40
1.0
 10
1.1817637795275591
 20
1.0412598425196851
 30
0.0
 10
1.1817637795275591
 20
1.0412598425196851
 30
0.0
 10
1.1741692913385828
 20
1.7933228346456693
 30
0.0
 10
1.1741692913385828
 20
1.7933228346456693
 30
0.0
 10
1.1741692913385828
 20
1.7933228346456693
 30
0.0
 10
1.1741692913385828
 20
1.7933228346456693
 30
0.0
 10
1.1350590551181103
 20
1.7930787401574804
 30
0.0
 10
1.1350590551181103
 20
1.7930787401574804
 30
0.0
 10
1.1350590551181103
 20
1.7930787401574804
 30
0.0
 10
1.1350590551181103
 20
1.7930787401574804
 30
0.0
 10
1.1426535433070866
 20
1.0410157480314961
 30
0.0
 10
1.1426535433070866
 20
1.0410157480314961
 30
0.0
 10
1.1426535433070866
 20
1.0410157480314961
 30
0.0
 10
1.1426535433070866
 20
1.0410157480314961
 30
0.0
 10
1.1817637795275591
 20
1.0412598425196851
 30
0.0
 10
1.1817637795275591
 20
1.0412598425196851
 30
0.0
  0
SPLINE
  5
3C
100
AcDbEntity
  8
Layer 1
 62
   253
100
AcDbSpline
210
0.0
220
0.0
230
1.0
 70
     1
 71
     3
 72
    20
 73
    16
 74
     0
 42
0.0000000001
 43
0.0000000001
 40
0.0
 40
0.0
 40
0.0
 40
0.0
 40
0.25
 40
0.25
 40
0.25
 40
0.25
 40
0.5
 40
0.5
 40
0.5
 40
0.5
 40
0.75
 40
0.75
 40
0.75
 40
0.75
 40
1.0
 40
1.0
 40
1.0
 40
1.0
 10
1.1426535433070866
 20
1.0410157480314961
 30
0.0
 10
1.1426535433070866
 20
1.0410157480314961
 30
0.0
 10
1.1350590551181103
 20
1.7930787401574804
 30
0.0
 10
1.1350590551181103
 20
1.7930787401574804
 30
0.0
 10
1.1350590551181103
 20
1.7930787401574804
 30
0.0
 10
1.1350590551181103
 20
1.7930787401574804
 30
0.0
 10
1.0955708661417323
 20
1.7913346456692913
 30
0.0
 10
1.0955708661417323
 20
1.7913346456692913
 30
0.0
 10
1.0955708661417323
 20
1.7913346456692913
 30
0.0
 10
1.0955708661417323
 20
1.7913346456692913
 30
0.0
 10
1.1031653543307087
 20
1.0392716535433071
 30
0.0
 10
1.1031653543307087
 20
1.0392716535433071
 30
0.0
 10
1.1031653543307087
 20
1.0392716535433071
 30
0.0
 10
1.1031653543307087
 20
1.0392716535433071
 30
0.0
 10
1.1426535433070866
 20
1.0410157480314961
 30
0.0
 10
1.1426535433070866
 20
1.0410157480314961
 30
0.0
  0
SPLINE
  5
3D
100
AcDbEntity
  8
Layer 1
 62
   253
100
AcDbSpline
210
0.0
220
0.0
230
1.0
 70
     1
 71
     3
 72
    20
 73
    16
 74
     0
 42
0.0000000001
 43
0.0000000001
 40
0.0
 40
0.0
 40
0.0
 40
0.0
 40
0.25
 40
0.25
 40
0.25
 40
0.25
 40
0.5
 40
0.5
 40
0.5
 40
0.5
 40
0.75
 40
0.75
 40
0.75
 40
0.75
 40
1.0
 40
1.0
 40
1.0
 40
1.0
 10
1.1031653543307087
 20
1.0392716535433071
 30
0.0
 10
1.1031653543307087
 20
1.0392716535433071
 30
0.0
 10
1.0955708661417323
 20
1.7913346456692913
 30
0.0
 10
1.0955708661417323
 20
1.7913346456692913
 30
0.0
 10
1.0955708661417323
 20
1.7913346456692913
 30
0.0
 10
1.0955708661417323
 20
1.7913346456692913
 30
0.0
 10
1.0558858267716535
 20
1.7882047244094488
 30
0.0
 10
1.0558858267716535
 20
1.7882047244094488
 30
0.0
 10
1.0558858267716535
 20
1.7882047244094488
 30
0.0
 10
1.0558858267716535
 20
1.7882047244094488
 30
0.0
 10
1.06348031496063
 20
1.0361417322834645
 30
0.0
 10
1.06348031496063
 20
1.0361417322834645
 30
0.0
 10
1.06348031496063
 20
1.0361417322834645
 30
0.0
 10
1.06348031496063
 20
1.0361417322834645
 30
0.0
 10
1.1031653543307087
 20
1.0392716535433071
 30
0.0
 10
1.1031653543307087
 20
1.0392716535433071
 30
0.0
  0
SPLINE
  5
3E
100
AcDbEntity
  8
Layer 1
 62
   253
100
AcDbSpline
210
0.0
220
0.0
230
1.0
 70
     1
 71
     3
 72
    20
 73
    16
 74
     0
 42
0.0000000001
 43
0.0000000001
 40
0.0
 40
0.0
 40
0.0
 40
0.0
 40
0.25
 40
0.25
 40
0.25
 40
0.25
 40
0.5
 40
0.5
 40
0.5
 40
0.5
 40
0.75
 40
0.75
 40
0.75
 40
0.75
 40
1.0
 40
1.0
 40
1.0
 40
1.0
 10
1.06348031496063
 20
1.0361417322834645
 30
0.0
 10
1.06348031496063
 20
1.0361417322834645
 30
0.0
 10
1.0558858267716535
 20
1.7882047244094488
 30
0.0
 10
1.0558858267716535
 20
1.7882047244094488
 30
0.0
 10
1.0558858267716535
 20
1.7882047244094488
 30
0.0
 10
1.0558858267716535
 20
1.7882047244094488
 30
0.0
 10
1.0161574803149607
 20
1.7837677165354331
 30
0.0
 10
1.0161574803149607
 20
1.7837677165354331
 30
0.0
 10
1.0161574803149607
 20
1.7837677165354331
 30
0.0
 10
1.0161574803149607
 20
1.7837677165354331
 30
0.0
 10
1.0237519685039371
 20
1.0317047244094488
 30
0.0
 10
1.0237519685039371
 20
1.0317047244094488
 30
0.0
 10
1.0237519685039371
 20
1.0317047244094488
 30
0.0
 10
1.0237519685039371
 20
1.0317047244094488
 30
0.0
 10
1.06348031496063
 20
1.0361417322834645
 30
0.0
 10
1.06348031496063
 20
1.0361417322834645
 30
0.0
  0
SPLINE
  5
3F
100
AcDbEntity
  8
Layer 1
 62
   253
100
AcDbSpline
210
0.0
220
0.0
230
1.0
 70
     1
 71
     3
 72
    20
 73
    16
 74
     0
 42
0.0000000001
 43
0.0000000001
 40
0.0
 40
0.0
 40
0.0
 40
0.0
 40
0.25
 40
0.25
 40
0.25
 40
0.25
 40
0.5
 40
0.5
 40
0.5
 40
0.5
 40
0.75
 40
0.75
 40
0.75
 40
0.75
 40
1.0
 40
1.0
 40
1.0
 40
1.0
 10
1.0237519685039371
 20
1.0317047244094488
 30
0.0
 10
1.0237519685039371
 20
1.0317047244094488
 30
0.0
 10
1.0161574803149607
 20
1.7837677165354331
 30
0.0
 10
1.0161574803149607
 20
1.7837677165354331
 30
0.0
 10
1.0161574803149607
 20
1.7837677165354331
 30
0.0
 10
1.0161574803149607
 20
1.7837677165354331
 30
0.0
 10
0.9765590551181103
 20
1.7781338582677166
 30
0.0
 10
0.9765590551181103
 20
1.7781338582677166
 30
0.0
 10
0.9765590551181103
 20
1.7781338582677166
 30
0.0
 10
0.9765590551181103
 20
1.7781338582677166
 30
0.0
 10
0.9841535433070866
 20
1.0260708661417324
 30
0.0
 10
0.9841535433070866
 20
1.0260708661417324
 30
0.0
 10
0.9841535433070866
 20
1.0260708661417324
 30
0.0
 10
0.9841535433070866
 20
1.0260708661417324
 30
0.0
 10
1.0237519685039371
 20
1.0317047244094488
 30
0.0
 10
1.0237519685039371
 20
1.0317047244094488
 30
0.0
  0
SPLINE
  5
40
100
AcDbEntity
  8
Layer 1
 62
   253
100
AcDbSpline
210
0.0
220
0.0
230
1.0
 70
     1
 71
     3
 72
    20
 73
    16
 74
     0
 42
0.0000000001
 43
0.0000000001
 40
0.0
 40
0.0
 40
0.0
 40
0.0
 40
0.25
 40
0.25
 40
0.25
 40
0.25
 40
0.5
 40
0.5
 40
0.5
 40
0.5
 40
0.75
 40
0.75
 40
0.75
 40
0.75
 40
1.0
 40
1.0
 40
1.0
 40
1.0
 10
0.9841535433070866
 20
1.0260708661417324
 30
0.0
 10
0.9841535433070866
 20
1.0260708661417324
 30
0.0
 10
0.9765590551181103
 20
1.7781338582677166
 30
0.0
 10
0.9765590551181103
 20
1.7781338582677166
 30
0.0
 10
0.9765590551181103
 20
1.7781338582677166
 30
0.0
 10
0.9765590551181103
 20
1.7781338582677166
 30
0.0
 10
0.9372362204724409
 20
1.7713818897637796
 30
0.0
 10
0.9372362204724409
 20
1.7713818897637796
 30
0.0
 10
0.9372362204724409
 20
1.7713818897637796
 30
0.0
 10
0.9372362204724409
 20
1.7713818897637796
 30
0.0
 10
0.9448307086614174
 20
1.0193188976377954
 30
0.0
 10
0.9448307086614174
 20
1.0193188976377954
 30
0.0
 10
0.9448307086614174
 20
1.0193188976377954
 30
0.0
 10
0.9448307086614174
 20
1.0193188976377954
 30
0.0
 10
0.9841535433070866
 20
1.0260708661417324
 30
0.0
 10
0.9841535433070866
 20
1.0260708661417324
 30
0.0
  0
SPLINE
  5
41
100
AcDbEntity
  8
Layer 1
 62
   253
100
AcDbSpline
210
0.0
220
0.0
230
1.0
 70
     1
 71
     3
 72
    20
 73
    16
 74
     0
 42
0.0000000001
 43
0.0000000001
 40
0.0
 40
0.0
 40
0.0
 40
0.0
 40
0.25
 40
0.25
 40
0.25
 40
0.25
 40
0.5
 40
0.5
 40
0.5
 40
0.5
 40
0.75
 40
0.75
 40
0.75
 40
0.75
 40
1.0
 40
1.0
 40
1.0
 40
1.0
 10
0.9448307086614174
 20
1.0193188976377954
 30
0.0
 10
0.9448307086614174
 20
1.0193188976377954
 30
0.0
 10
0.9372362204724409
 20
1.7713818897637796
 30
0.0
 10
0.9372362204724409
 20
1.7713818897637796
 30
0.0
 10
0.9372362204724409
 20
1.7713818897637796
 30
0.0
 10
0.9372362204724409
 20
1.7713818897637796
 30
0.0
 10
0.8983700787401575
 20
1.7636259842519686
 30
0.0
 10
0.8983700787401575
 20
1.7636259842519686
 30
0.0
 10
0.8983700787401575
 20
1.7636259842519686
 30
0.0
 10
0.8983700787401575
 20
1.7636259842519686
 30
0.0
 10
0.9059645669291339
 20
1.0115629921259843
 30
0.0
 10
0.9059645669291339
 20
1.0115629921259843
 30
0.0
 10
0.9059645669291339
 20
1.0115629921259843
 30
0.0
 10
0.9059645669291339
 20
1.0115629921259843
 30
0.0
 10
0.9448307086614174
 20
1.0193188976377954
 30
0.0
 10
0.9448307086614174
 20
1.0193188976377954
 30
0.0
  0
SPLINE
  5
42
100
AcDbEntity
  8
Layer 1
 62
   253
100
AcDbSpline
210
0.0
220
0.0
230
1.0
 70
     1
 71
     3
 72
    20
 73
    16
 74
     0
 42
0.0000000001
 43
0.0000000001
 40
0.0
 40
0.0
 40
0.0
 40
0.0
 40
0.25
 40
0.25
 40
0.25
 40
0.25
 40
0.5
 40
0.5
 40
0.5
 40
0.5
 40
0.75
 40
0.75
 40
0.75
 40
0.75
 40
1.0
 40
1.0
 40
1.0
 40
1.0
 10
0.9059645669291339
 20
1.0115629921259843
 30
0.0
 10
0.9059645669291339
 20
1.0115629921259843
 30
0.0
 10
0.8983700787401575
 20
1.7636259842519686
 30
0.0
 10
0.8983700787401575
 20
1.7636259842519686
 30
0.0
 10
0.8983700787401575
 20
1.7636259842519686
 30
0.0
 10
0.8983700787401575
 20
1.7636259842519686
 30
0.0
 10
0.8601102362204725
 20
1.7549527559055118
 30
0.0
 10
0.8601102362204725
 20
1.7549527559055118
 30
0.0
 10
0.8601102362204725
 20
1.7549527559055118
 30
0.0
 10
0.8601102362204725
 20
1.7549527559055118
 30
0.0
 10
0.8677047244094489
 20
1.0028897637795275
 30
0.0
 10
0.8677047244094489
 20
1.0028897637795275
 30
0.0
 10
0.8677047244094489
 20
1.0028897637795275
 30
0.0
 10
0.8677047244094489
 20
1.0028897637795275
 30
0.0
 10
0.9059645669291339
 20
1.0115629921259843
 30
0.0
 10
0.9059645669291339
 20
1.0115629921259843
 30
0.0
  0
SPLINE
  5
43
100
AcDbEntity
  8
Layer 1
 62
   253
100
AcDbSpline
210
0.0
220
0.0
230
1.0
 70
     1
 71
     3
 72
    20
 73
    16
 74
     0
 42
0.0000000001
 43
0.0000000001
 40
0.0
 40
0.0
 40
0.0
 40
0.0
 40
0.25
 40
0.25
 40
0.25
 40
0.25
 40
0.5
 40
0.5
 40
0.5
 40
0.5
 40
0.75
 40
0.75
 40
0.75
 40
0.75
 40
1.0
 40
1.0
 40
1.0
 40
1.0
 10
0.8677047244094489
 20
1.0028897637795275
 30
0.0
 10
0.8677047244094489
 20
1.0028897637795275
 30
0.0
 10
0.8601102362204725
 20
1.7549527559055118
 30
0.0
 10
0.8601102362204725
 20
1.7549527559055118
 30
0.0
 10
0.8601102362204725
 20
1.7549527559055118
 30
0.0
 10
0.8601102362204725
 20
1.7549527559055118
 30
0.0
 10
0.8226338582677165
 20
1.745464566929134
 30
0.0
 10
0.8226338582677165
 20
1.745464566929134
 30
0.0
 10
0.8226338582677165
 20
1.745464566929134
 30
0.0
 10
0.8226338582677165
 20
1.745464566929134
 30
0.0
 10
0.830228346456693
 20
0.9934015748031496
 30
0.0
 10
0.830228346456693
 20
0.9934015748031496
 30
0.0
 10
0.830228346456693
 20
0.9934015748031496
 30
0.0
 10
0.830228346456693
 20
0.9934015748031496
 30
0.0
 10
0.8677047244094489
 20
1.0028897637795275
 30
0.0
 10
0.8677047244094489
 20
1.0028897637795275
 30
0.0
  0
SPLINE
  5
44
100
AcDbEntity
  8
Layer 1
 62
   253
100
AcDbSpline
210
0.0
220
0.0
230
1.0
 70
     1
 71
     3
 72
    20
 73
    16
 74
     0
 42
0.0000000001
 43
0.0000000001
 40
0.0
 40
0.0
 40
0.0
 40
0.0
 40
0.25
 40
0.25
 40
0.25
 40
0.25
 40
0.5
 40
0.5
 40
0.5
 40
0.5
 40
0.75
 40
0.75
 40
0.75
 40
0.75
 40
1.0
 40
1.0
 40
1.0
 40
1.0
 10
0.830228346456693
 20
0.9934015748031496
 30
0.0
 10
0.830228346456693
 20
0.9934015748031496
 30
0.0
 10
0.8226338582677165
 20
1.745464566929134
 30
0.0
 10
0.8226338582677165
 20
1.745464566929134
 30
0.0
 10
0.8226338582677165
 20
1.745464566929134
 30
0.0
 10
0.8226338582677165
 20
1.745464566929134
 30
0.0
 10
0.7860866141732283
 20
1.735248031496063
 30
0.0
 10
0.7860866141732283
 20
1.735248031496063
 30
0.0
 10
0.7860866141732283
 20
1.735248031496063
 30
0.0
 10
0.7860866141732283
 20
1.735248031496063
 30
0.0
 10
0.7936811023622048
 20
0.9831850393700787
 30
0.0
 10
0.7936811023622048
 20
0.9831850393700787
 30
0.0
 10
0.7936811023622048
 20
0.9831850393700787
 30
0.0
 10
0.7936811023622048
 20
0.9831850393700787
 30
0.0
 10
0.830228346456693
 20
0.9934015748031496
 30
0.0
 10
0.830228346456693
 20
0.9934015748031496
 30
0.0
  0
SPLINE
  5
45
100
AcDbEntity
  8
Layer 1
 62
   253
100
AcDbSpline
210
0.0
220
0.0
230
1.0
 70
     1
 71
     3
 72
    20
 73
    16
 74
     0
 42
0.0000000001
 43
0.0000000001
 40
0.0
 40
0.0
 40
0.0
 40
0.0
 40
0.25
 40
0.25
 40
0.25
 40
0.25
 40
0.5
 40
0.5
 40
0.5
 40
0.5
 40
0.75
 40
0.75
 40
0.75
 40
0.75
 40
1.0
 40
1.0
 40
1.0
 40
1.0
 10
0.7936811023622048
 20
0.9831850393700787
 30
0.0
 10
0.7936811023622048
 20
0.9831850393700787
 30
0.0
 10
0.7860866141732283
 20
1.735248031496063
 30
0.0
 10
0.7860866141732283
 20
1.735248031496063
 30
0.0
 10
0.7860866141732283
 20
1.735248031496063
 30
0.0
 10
0.7860866141732283
 20
1.735248031496063
 30
0.0
 10
0.7506535433070867
 20
1.7244055118110238
 30
0.0
 10
0.7506535433070867
 20
1.7244055118110238
 30
0.0
 10
0.7506535433070867
 20
1.7244055118110238
 30
0.0
 10
0.7506535433070867
 20
1.7244055118110238
 30
0.0
 10
0.758248031496063
 20
0.9723425196850394
 30
0.0
 10
0.758248031496063
 20
0.9723425196850394
 30
0.0
 10
0.758248031496063
 20
0.9723425196850394
 30
0.0
 10
0.758248031496063
 20
0.9723425196850394
 30
0.0
 10
0.7936811023622048
 20
0.9831850393700787
 30
0.0
 10
0.7936811023622048
 20
0.9831850393700787
 30
0.0
  0
SPLINE
  5
46
100
AcDbEntity
  8
Layer 1
 62
   253
100
AcDbSpline
210
0.0
220
0.0
230
1.0
 70
     1
 71
     3
 72
    20
 73
    16
 74
     0
 42
0.0000000001
 43
0.0000000001
 40
0.0
 40
0.0
 40
0.0
 40
0.0
 40
0.25
 40
0.25
 40
0.25
 40
0.25
 40
0.5
 40
0.5
 40
0.5
 40
0.5
 40
0.75
 40
0.75
 40
0.75
 40
0.75
 40
1.0
 40
1.0
 40
1.0
 40
1.0
 10
0.758248031496063
 20
0.9723425196850394
 30
0.0
 10
0.758248031496063
 20
0.9723425196850394
 30
0.0
 10
0.7506535433070867
 20
1.7244055118110238
 30
0.0
 10
0.7506535433070867
 20
1.7244055118110238
 30
0.0
 10
0.7506535433070867
 20
1.7244055118110238
 30
0.0
 10
0.7506535433070867
 20
1.7244055118110238
 30
0.0
 10
0.7164803149606299
 20
1.7130314960629922
 30
0.0
 10
0.7164803149606299
 20
1.7130314960629922
 30
0.0
 10
0.7164803149606299
 20
1.7130314960629922
 30
0.0
 10
0.7164803149606299
 20
1.7130314960629922
 30
0.0
 10
0.7240748031496064
 20
0.960968503937008
 30
0.0
 10
0.7240748031496064
 20
0.960968503937008
 30
0.0
 10
0.7240748031496064
 20
0.960968503937008
 30
0.0
 10
0.7240748031496064
 20
0.960968503937008
 30
0.0
 10
0.758248031496063
 20
0.9723425196850394
 30
0.0
 10
0.758248031496063
 20
0.9723425196850394
 30
0.0
  0
SPLINE
  5
47
100
AcDbEntity
  8
Layer 1
 62
   253
100
AcDbSpline
210
0.0
220
0.0
230
1.0
 70
     1
 71
     3
 72
    20
 73
    16
 74
     0
 42
0.0000000001
 43
0.0000000001
 40
0.0
 40
0.0
 40
0.0
 40
0.0
 40
0.25
 40
0.25
 40
0.25
 40
0.25
 40
0.5
 40
0.5
 40
0.5
 40
0.5
 40
0.75
 40
0.75
 40
0.75
 40
0.75
 40
1.0
 40
1.0
 40
1.0
 40
1.0
 10
0.7240748031496064
 20
0.960968503937008
 30
0.0
 10
0.7240748031496064
 20
0.960968503937008
 30
0.0
 10
0.7164803149606299
 20
1.7130314960629922
 30
0.0
 10
0.7164803149606299
 20
1.7130314960629922
 30
0.0
 10
0.7164803149606299
 20
1.7130314960629922
 30
0.0
 10
0.7164803149606299
 20
1.7130314960629922
 30
0.0
 10
0.683736220472441
 20
1.701232283464567
 30
0.0
 10
0.683736220472441
 20
1.701232283464567
 30
0.0
 10
0.683736220472441
 20
1.701232283464567
 30
0.0
 10
0.683736220472441
 20
1.701232283464567
 30
0.0
 10
0.6913307086614173
 20
0.9491692913385827
 30
0.0
 10
0.6913307086614173
 20
0.9491692913385827
 30
0.0
 10
0.6913307086614173
 20
0.9491692913385827
 30
0.0
 10
0.6913307086614173
 20
0.9491692913385827
 30
0.0
 10
0.7240748031496064
 20
0.960968503937008
 30
0.0
 10
0.7240748031496064
 20
0.960968503937008
 30
0.0
  0
SPLINE
  5
48
100
AcDbEntity
  8
Layer 1
370
     5
100
AcDbSpline
210
0.0
220
0.0
230
1.0
 70
     1
 71
     3
 72
   260
 73
   256
 74
     0
 42
0.0000000001
 43
0.0000000001
 40
0.0
 40
0.0
 40
0.0
 40
0.0
 40
0.015625
 40
0.015625
 40
0.015625
 40
0.015625
 40
0.03125
 40
0.03125
 40
0.03125
 40
0.03125
 40
0.046875
 40
0.046875
 40
0.046875
 40
0.046875
 40
0.0625
 40
0.0625
 40
0.0625
 40
0.0625
 40
0.078125
 40
0.078125
 40
0.078125
 40
0.078125
 40
0.09375
 40
0.09375
 40
0.09375
 40
0.09375
 40
0.109375
 40
0.109375
 40
0.109375
 40
0.109375
 40
0.125
 40
0.125
 40
0.125
 40
0.125
 40
0.140625
 40
0.140625
 40
0.140625
 40
0.140625
 40
0.15625
 40
0.15625
 40
0.15625
 40
0.15625
 40
0.171875
 40
0.171875
 40
0.171875
 40
0.171875
 40
0.1875
 40
0.1875
 40
0.1875
 40
0.1875
 40
0.203125
 40
0.203125
 40
0.203125
 40
0.203125
 40
0.21875
 40
0.21875
 40
0.21875
 40
0.21875
 40
0.234375
 40
0.234375
 40
0.234375
 40
0.234375
 40
0.25
 40
0.25
 40
0.25
 40
0.25
 40
0.265625
 40
0.265625
 40
0.265625
 40
0.265625
 40
0.28125
 40
0.28125
 40
0.28125
 40
0.28125
 40
0.296875
 40
0.296875
 40
0.296875
 40
0.296875
 40
0.3125
 40
0.3125
 40
0.3125
 40
0.3125
 40
0.328125
 40
0.328125
 40
0.328125
 40
0.328125
 40
0.34375
 40
0.34375
 40
0.34375
 40
0.34375
 40
0.359375
 40
0.359375
 40
0.359375
 40
0.359375
 40
0.375
 40
0.375
 40
0.375
 40
0.375
 40
0.390625
 40
0.390625
 40
0.390625
 40
0.390625
 40
0.40625
 40
0.40625
 40
0.40625
 40
0.40625
 40
0.421875
 40
0.421875
 40
0.421875
 40
0.421875
 40
0.4375
 40
0.4375
 40
0.4375
 40
0.4375
 40
0.453125
 40
0.453125
 40
0.453125
 40
0.453125
 40
0.46875
 40
0.46875
 40
0.46875
 40
0.46875
 40
0.484375
 40
0.484375
 40
0.484375
 40
0.484375
 40
0.5
 40
0.5
 40
0.5
 40
0.5
 40
0.515625
 40
0.515625
 40
0.515625
 40
0.515625
 40
0.53125
 40
0.53125
 40
0.53125
 40
0.53125
 40
0.546875
 40
0.546875
 40
0.546875
 40
0.546875
 40
0.5625
 40
0.5625
 40
0.5625
 40
0.5625
 40
0.578125
 40
0.578125
 40
0.578125
 40
0.578125
 40
0.59375
 40
0.59375
 40
0.59375
 40
0.59375
 40
0.609375
 40
0.609375
 40
0.609375
 40
0.609375
 40
0.625
 40
0.625
 40
0.625
 40
0.625
 40
0.640625
 40
0.640625
 40
0.640625
 40
0.640625
 40
0.65625
 40
0.65625
 40
0.65625
 40
0.65625
 40
0.671875
 40
0.671875
 40
0.671875
 40
0.671875
 40
0.6875
 40
0.6875
 40
0.6875
 40
0.6875
 40
0.703125
 40
0.703125
 40
0.703125
 40
0.703125
 40
0.71875
 40
0.71875
 40
0.71875
 40
0.71875
 40
0.734375
 40
0.734375
 40
0.734375
 40
0.734375
 40
0.75
 40
0.75
 40
0.75
 40
0.75
 40
0.765625
 40
0.765625
 40
0.765625
 40
0.765625
 40
0.78125
 40
0.78125
 40
0.78125
 40
0.78125
 40
0.796875
 40
0.796875
 40
0.796875
 40
0.796875
 40
0.8125
 40
0.8125
 40
0.8125
 40
0.8125
 40
0.828125
 40
0.828125
 40
0.828125
 40
0.828125
 40
0.84375
 40
0.84375
 40
0.84375
 40
0.84375
 40
0.859375
 40
0.859375
 40
0.859375
 40
0.859375
 40
0.875
 40
0.875
 40
0.875
 40
0.875
 40
0.890625
 40
0.890625
 40
0.890625
 40
0.890625
 40
0.90625
 40
0.90625
 40
0.90625
 40
0.90625
 40
0.921875
 40
0.921875
 40
0.921875
 40
0.921875
 40
0.9375
 40
0.9375
 40
0.9375
 40
0.9375
 40
0.953125
 40
0.953125
 40
0.953125
 40
0.953125
 40
0.96875
 40
0.96875
 40
0.96875
 40
0.96875
 40
0.984375
 40
0.984375
 40
0.984375
 40
0.984375
 40
1.0
 40
1.0
 40
1.0
 40
1.0
 10
1.6371653543307088
 20
0.6808110236220473
 30
0.0
 10
1.6371653543307088
 20
0.6808110236220473
 30
0.0
 10
1.6295708661417323
 20
1.4328740157480315
 30
0.0
 10
1.6295708661417323
 20
1.4328740157480315
 30
0.0
 10
1.6295708661417323
 20
1.4328740157480315
 30
0.0
 10
1.6295708661417323
 20
1.4328740157480315
 30
0.0
 10
1.6249527559055119
 20
1.4759448818897638
 30
0.0
 10
1.6249527559055119
 20
1.4759448818897638
 30
0.0
 10
1.6249527559055119
 20
1.4759448818897638
 30
0.0
 10
1.6249527559055119
 20
1.4759448818897638
 30
0.0
 10
1.6170314960629921
 20
1.5157834645669293
 30
0.0
 10
1.6170314960629921
 20
1.5157834645669293
 30
0.0
 10
1.6170314960629921
 20
1.5157834645669293
 30
0.0
 10
1.6170314960629921
 20
1.5157834645669293
 30
0.0
 10
1.6059763779527561
 20
1.5525039370078741
 30
0.0
 10
1.6059763779527561
 20
1.5525039370078741
 30
0.0
 10
1.6059763779527561
 20
1.5525039370078741
 30
0.0
 10
1.6059763779527561
 20
1.5525039370078741
 30
0.0
 10
1.5919330708661419
 20
1.5861850393700787
 30
0.0
 10
1.5919330708661419
 20
1.5861850393700787
 30
0.0
 10
1.5919330708661419
 20
1.5861850393700787
 30
0.0
 10
1.5919330708661419
 20
1.5861850393700787
 30
0.0
 10
1.5750826771653543
 20
1.6169370078740157
 30
0.0
 10
1.5750826771653543
 20
1.6169370078740157
 30
0.0
 10
1.5750826771653543
 20
1.6169370078740157
 30
0.0
 10
1.5750826771653543
 20
1.6169370078740157
 30
0.0
 10
1.5555787401574803
 20
1.6448425196850394
 30
0.0
 10
1.5555787401574803
 20
1.6448425196850394
 30
0.0
 10
1.5555787401574803
 20
1.6448425196850394
 30
0.0
 10
1.5555787401574803
 20
1.6448425196850394
 30
0.0
 10
1.5335944881889765
 20
1.6700157480314961
 30
0.0
 10
1.5335944881889765
 20
1.6700157480314961
 30
0.0
 10
1.5335944881889765
 20
1.6700157480314961
 30
0.0
 10
1.5335944881889765
 20
1.6700157480314961
 30
0.0
 10
1.5092755905511812
 20
1.6925314960629922
 30
0.0
 10
1.5092755905511812
 20
1.6925314960629922
 30
0.0
 10
1.5092755905511812
 20
1.6925314960629922
 30
0.0
 10
1.5092755905511812
 20
1.6925314960629922
 30
0.0
 10
1.4827992125984253
 20
1.7125039370078741
 30
0.0
 10
1.4827992125984253
 20
1.7125039370078741
 30
0.0
 10
1.4827992125984253
 20
1.7125039370078741
 30
0.0
 10
1.4827992125984253
 20
1.7125039370078741
 30
0.0
 10
1.4543228346456694
 20
1.7300196850393701
 30
0.0
 10
1.4543228346456694
 20
1.7300196850393701
 30
0.0
 10
1.4543228346456694
 20
1.7300196850393701
 30
0.0
 10
1.4543228346456694
 20
1.7300196850393701
 30
0.0
 10
1.42401968503937
 20
1.7451771653543309
 30
0.0
 10
1.42401968503937
 20
1.7451771653543309
 30
0.0
 10
1.42401968503937
 20
1.7451771653543309
 30
0.0
 10
1.42401968503937
 20
1.7451771653543309
 30
0.0
 10
1.3920354330708662
 20
1.7580669291338584
 30
0.0
 10
1.3920354330708662
 20
1.7580669291338584
 30
0.0
 10
1.3920354330708662
 20
1.7580669291338584
 30
0.0
 10
1.3920354330708662
 20
1.7580669291338584
 30
0.0
 10
1.3585472440944883
 20
1.7687992125984253
 30
0.0
 10
1.3585472440944883
 20
1.7687992125984253
 30
0.0
 10
1.3585472440944883
 20
1.7687992125984253
 30
0.0
 10
1.3585472440944883
 20
1.7687992125984253
 30
0.0
 10
1.3237086614173228
 20
1.7774566929133859
 30
0.0
 10
1.3237086614173228
 20
1.7774566929133859
 30
0.0
 10
1.3237086614173228
 20
1.7774566929133859
 30
0.0
 10
1.3237086614173228
 20
1.7774566929133859
 30
0.0
 10
1.2876968503937007
 20
1.7841496062992126
 30
0.0
 10
1.2876968503937007
 20
1.7841496062992126
 30
0.0
 10
1.2876968503937007
 20
1.7841496062992126
 30
0.0
 10
1.2876968503937007
 20
1.7841496062992126
 30
0.0
 10
1.2506535433070867
 20
1.7889527559055118
 30
0.0
 10
1.2506535433070867
 20
1.7889527559055118
 30
0.0
 10
1.2506535433070867
 20
1.7889527559055118
 30
0.0
 10
1.2506535433070867
 20
1.7889527559055118
 30
0.0
 10
1.212759842519685
 20
1.7919803149606299
 30
0.0
 10
1.212759842519685
 20
1.7919803149606299
 30
0.0
 10
1.212759842519685
 20
1.7919803149606299
 30
0.0
 10
1.212759842519685
 20
1.7919803149606299
 30
0.0
 10
1.1741692913385828
 20
1.7933228346456693
 30
0.0
 10
1.1741692913385828
 20
1.7933228346456693
 30
0.0
 10
1.1741692913385828
 20
1.7933228346456693
 30
0.0
 10
1.1741692913385828
 20
1.7933228346456693
 30
0.0
 10
1.1350590551181103
 20
1.7930787401574804
 30
0.0
 10
1.1350590551181103
 20
1.7930787401574804
 30
0.0
 10
1.1350590551181103
 20
1.7930787401574804
 30
0.0
 10
1.1350590551181103
 20
1.7930787401574804
 30
0.0
 10
1.0955708661417323
 20
1.7913346456692913
 30
0.0
 10
1.0955708661417323
 20
1.7913346456692913
 30
0.0
 10
1.0955708661417323
 20
1.7913346456692913
 30
0.0
 10
1.0955708661417323
 20
1.7913346456692913
 30
0.0
 10
1.0558858267716535
 20
1.7882047244094488
 30
0.0
 10
1.0558858267716535
 20
1.7882047244094488
 30
0.0
 10
1.0558858267716535
 20
1.7882047244094488
 30
0.0
 10
1.0558858267716535
 20
1.7882047244094488
 30
0.0
 10
1.0161574803149607
 20
1.7837677165354331
 30
0.0
 10
1.0161574803149607
 20
1.7837677165354331
 30
0.0
 10
1.0161574803149607
 20
1.7837677165354331
 30
0.0
 10
1.0161574803149607
 20
1.7837677165354331
 30
0.0
 10
0.9765590551181103
 20
1.7781338582677166
 30
0.0
 10
0.9765590551181103
 20
1.7781338582677166
 30
0.0
 10
0.9765590551181103
 20
1.7781338582677166
 30
0.0
 10
0.9765590551181103
 20
1.7781338582677166
 30
0.0
 10
0.9372362204724409
 20
1.7713818897637796
 30
0.0
 10
0.9372362204724409
 20
1.7713818897637796
 30
0.0
 10
0.9372362204724409
 20
1.7713818897637796
 30
0.0
 10
0.9372362204724409
 20
1.7713818897637796
 30
0.0
 10
0.8983700787401575
 20
1.7636259842519686
 30
0.0
 10
0.8983700787401575
 20
1.7636259842519686
 30
0.0
 10
0.8983700787401575
 20
1.7636259842519686
 30
0.0
 10
0.8983700787401575
 20
1.7636259842519686
 30
0.0
 10
0.8601102362204725
 20
1.7549527559055118
 30
0.0
 10
0.8601102362204725
 20
1.7549527559055118
 30
0.0
 10
0.8601102362204725
 20
1.7549527559055118
 30
0.0
 10
0.8601102362204725
 20
1.7549527559055118
 30
0.0
 10
0.8226338582677165
 20
1.745464566929134
 30
0.0
 10
0.8226338582677165
 20
1.745464566929134
 30
0.0
 10
0.8226338582677165
 20
1.745464566929134
 30
0.0
 10
0.8226338582677165
 20
1.745464566929134
 30
0.0
 10
0.7860866141732283
 20
1.735248031496063
 30
0.0
 10
0.7860866141732283
 20
1.735248031496063
 30
0.0
 10
0.7860866141732283
 20
1.735248031496063
 30
0.0
 10
0.7860866141732283
 20
1.735248031496063
 30
0.0
 10
0.7506535433070867
 20
1.7244055118110238
 30
0.0
 10
0.7506535433070867
 20
1.7244055118110238
 30
0.0
 10
0.7506535433070867
 20
1.7244055118110238
 30
0.0
 10
0.7506535433070867
 20
1.7244055118110238
 30
0.0
 10
0.7164803149606299
 20
1.7130314960629922
 30
0.0
 10
0.7164803149606299
 20
1.7130314960629922
 30
0.0
 10
0.7164803149606299
 20
1.7130314960629922
 30
0.0
 10
0.7164803149606299
 20
1.7130314960629922
 30
0.0
 10
0.683736220472441
 20
1.701232283464567
 30
0.0
 10
0.683736220472441
 20
1.701232283464567
 30
0.0
 10
0.683736220472441
 20
1.701232283464567
 30
0.0
 10
0.683736220472441
 20
1.701232283464567
 30
0.0
 10
0.6913307086614173
 20
0.9491692913385827
 30
0.0
 10
0.6913307086614173
 20
0.9491692913385827
 30
0.0
 10
0.6913307086614173
 20
0.9491692913385827
 30
0.0
 10
0.6913307086614173
 20
0.9491692913385827
 30
0.0
 10
0.7240748031496064
 20
0.960968503937008
 30
0.0
 10
0.7240748031496064
 20
0.960968503937008
 30
0.0
 10
0.7240748031496064
 20
0.960968503937008
 30
0.0
 10
0.7240748031496064
 20
0.960968503937008
 30
0.0
 10
0.758248031496063
 20
0.9723425196850394
 30
0.0
 10
0.758248031496063
 20
0.9723425196850394
 30
0.0
 10
0.758248031496063
 20
0.9723425196850394
 30
0.0
 10
0.758248031496063
 20
0.9723425196850394
 30
0.0
 10
0.7936811023622048
 20
0.9831850393700787
 30
0.0
 10
0.7936811023622048
 20
0.9831850393700787
 30
0.0
 10
0.7936811023622048
 20
0.9831850393700787
 30
0.0
 10
0.7936811023622048
 20
0.9831850393700787
 30
0.0
 10
0.830228346456693
 20
0.9934015748031496
 30
0.0
 10
0.830228346456693
 20
0.9934015748031496
 30
0.0
 10
0.830228346456693
 20
0.9934015748031496
 30
0.0
 10
0.830228346456693
 20
0.9934015748031496
 30
0.0
 10
0.8677047244094489
 20
1.0028897637795275
 30
0.0
 10
0.8677047244094489
 20
1.0028897637795275
 30
0.0
 10
0.8677047244094489
 20
1.0028897637795275
 30
0.0
 10
0.8677047244094489
 20
1.0028897637795275
 30
0.0
 10
0.9059645669291339
 20
1.0115629921259843
 30
0.0
 10
0.9059645669291339
 20
1.0115629921259843
 30
0.0
 10
0.9059645669291339
 20
1.0115629921259843
 30
0.0
 10
0.9059645669291339
 20
1.0115629921259843
 30
0.0
 10
0.9448307086614174
 20
1.0193188976377954
 30
0.0
 10
0.9448307086614174
 20
1.0193188976377954
 30
0.0
 10
0.9448307086614174
 20
1.0193188976377954
 30
0.0
 10
0.9448307086614174
 20
1.0193188976377954
 30
0.0
 10
0.9841535433070866
 20
1.0260708661417324
 30
0.0
 10
0.9841535433070866
 20
1.0260708661417324
 30
0.0
 10
0.9841535433070866
 20
1.0260708661417324
 30
0.0
 10
0.9841535433070866
 20
1.0260708661417324
 30
0.0
 10
1.0237519685039371
 20
1.0317047244094488
 30
0.0
 10
1.0237519685039371
 20
1.0317047244094488
 30
0.0
 10
1.0237519685039371
 20
1.0317047244094488
 30
0.0
 10
1.0237519685039371
 20
1.0317047244094488
 30
0.0
 10
1.06348031496063
 20
1.0361417322834645
 30
0.0
 10
1.06348031496063
 20
1.0361417322834645
 30
0.0
 10
1.06348031496063
 20
1.0361417322834645
 30
0.0
 10
1.06348031496063
 20
1.0361417322834645
 30
0.0
 10
1.1031653543307087
 20
1.0392716535433071
 30
0.0
 10
1.1031653543307087
 20
1.0392716535433071
 30
0.0
 10
1.1031653543307087
 20
1.0392716535433071
 30
0.0
 10
1.1031653543307087
 20
1.0392716535433071
 30
0.0
 10
1.1426535433070866
 20
1.0410157480314961
 30
0.0
 10
1.1426535433070866
 20
1.0410157480314961
 30
0.0
 10
1.1426535433070866
 20
1.0410157480314961
 30
0.0
 10
1.1426535433070866
 20
1.0410157480314961
 30
0.0
 10
1.1817637795275591
 20
1.0412598425196851
 30
0.0
 10
1.1817637795275591
 20
1.0412598425196851
 30
0.0
 10
1.1817637795275591
 20
1.0412598425196851
 30
0.0
 10
1.1817637795275591
 20
1.0412598425196851
 30
0.0
 10
1.2203543307086615
 20
1.0399173228346457
 30
0.0
 10
1.2203543307086615
 20
1.0399173228346457
 30
0.0
 10
1.2203543307086615
 20
1.0399173228346457
 30
0.0
 10
1.2203543307086615
 20
1.0399173228346457
 30
0.0
 10
1.2582480314960631
 20
1.0368897637795276
 30
0.0
 10
1.2582480314960631
 20
1.0368897637795276
 30
0.0
 10
1.2582480314960631
 20
1.0368897637795276
 30
0.0
 10
1.2582480314960631
 20
1.0368897637795276
 30
0.0
 10
1.2952913385826772
 20
1.0320866141732283
 30
0.0
 10
1.2952913385826772
 20
1.0320866141732283
 30
0.0
 10
1.2952913385826772
 20
1.0320866141732283
 30
0.0
 10
1.2952913385826772
 20
1.0320866141732283
 30
0.0
 10
1.3313031496062993
 20
1.0253937007874017
 30
0.0
 10
1.3313031496062993
 20
1.0253937007874017
 30
0.0
 10
1.3313031496062993
 20
1.0253937007874017
 30
0.0
 10
1.3313031496062993
 20
1.0253937007874017
 30
0.0
 10
1.3661417322834646
 20
1.0167362204724411
 30
0.0
 10
1.3661417322834646
 20
1.0167362204724411
 30
0.0
 10
1.3661417322834646
 20
1.0167362204724411
 30
0.0
 10
1.3661417322834646
 20
1.0167362204724411
 30
0.0
 10
1.3996299212598426
 20
1.0060039370078742
 30
0.0
 10
1.3996299212598426
 20
1.0060039370078742
 30
0.0
 10
1.3996299212598426
 20
1.0060039370078742
 30
0.0
 10
1.3996299212598426
 20
1.0060039370078742
 30
0.0
 10
1.4316141732283465
 20
0.9931141732283465
 30
0.0
 10
1.4316141732283465
 20
0.9931141732283465
 30
0.0
 10
1.4316141732283465
 20
0.9931141732283465
 30
0.0
 10
1.4316141732283465
 20
0.9931141732283465
 30
0.0
 10
1.4619173228346458
 20
0.9779566929133858
 30
0.0
 10
1.4619173228346458
 20
0.9779566929133858
 30
0.0
 10
1.4619173228346458
 20
0.9779566929133858
 30
0.0
 10
1.4619173228346458
 20
0.9779566929133858
 30
0.0
 10
1.4903937007874015
 20
0.9604409448818898
 30
0.0
 10
1.4903937007874015
 20
0.9604409448818898
 30
0.0
 10
1.4903937007874015
 20
0.9604409448818898
 30
0.0
 10
1.4903937007874015
 20
0.9604409448818898
 30
0.0
 10
1.5168700787401574
 20
0.9404685039370079
 30
0.0
 10
1.5168700787401574
 20
0.9404685039370079
 30
0.0
 10
1.5168700787401574
 20
0.9404685039370079
 30
0.0
 10
1.5168700787401574
 20
0.9404685039370079
 30
0.0
 10
1.5411889763779527
 20
0.9179527559055118
 30
0.0
 10
1.5411889763779527
 20
0.9179527559055118
 30
0.0
 10
1.5411889763779527
 20
0.9179527559055118
 30
0.0
 10
1.5411889763779527
 20
0.9179527559055118
 30
0.0
 10
1.5631732283464568
 20
0.8927795275590551
 30
0.0
 10
1.5631732283464568
 20
0.8927795275590551
 30
0.0
 10
1.5631732283464568
 20
0.8927795275590551
 30
0.0
 10
1.5631732283464568
 20
0.8927795275590551
 30
0.0
 10
1.5826771653543308
 20
0.8648740157480316
 30
0.0
 10
1.5826771653543308
 20
0.8648740157480316
 30
0.0
 10
1.5826771653543308
 20
0.8648740157480316
 30
0.0
 10
1.5826771653543308
 20
0.8648740157480316
 30
0.0
 10
1.5995275590551181
 20
0.8341220472440946
 30
0.0
 10
1.5995275590551181
 20
0.8341220472440946
 30
0.0
 10
1.5995275590551181
 20
0.8341220472440946
 30
0.0
 10
1.5995275590551181
 20
0.8341220472440946
 30
0.0
 10
1.6135708661417323
 20
0.8004409448818898
 30
0.0
 10
1.6135708661417323
 20
0.8004409448818898
 30
0.0
 10
1.6135708661417323
 20
0.8004409448818898
 30
0.0
 10
1.6135708661417323
 20
0.8004409448818898
 30
0.0
 10
1.6246259842519686
 20
0.7637204724409449
 30
0.0
 10
1.6246259842519686
 20
0.7637204724409449
 30
0.0
 10
1.6246259842519686
 20
0.7637204724409449
 30
0.0
 10
1.6246259842519686
 20
0.7637204724409449
 30
0.0
 10
1.6325472440944881
 20
0.7238818897637795
 30
0.0
 10
1.6325472440944881
 20
0.7238818897637795
 30
0.0
 10
1.6325472440944881
 20
0.7238818897637795
 30
0.0
 10
1.6325472440944881
 20
0.7238818897637795
 30
0.0
 10
1.6371653543307088
 20
0.6808110236220473
 30
0.0
 10
1.6371653543307088
 20
0.6808110236220473
 30
0.0
  0
SPLINE
  5
49
100
AcDbEntity
  8
Layer 1
 62
   253
100
AcDbSpline
210
0.0
220
0.0
230
1.0
 70
     1
 71
     3
 72
    20
 73
    16
 74
     0
 42
0.0000000001
 43
0.0000000001
 40
0.0
 40
0.0
 40
0.0
 40
0.0
 40
0.25
 40
0.25
 40
0.25
 40
0.25
 40
0.5
 40
0.5
 40
0.5
 40
0.5
 40
0.75
 40
0.75
 40
0.75
 40
0.75
 40
1.0
 40
1.0
 40
1.0
 40
1.0
 10
0.6913307086614173
 20
0.9491692913385827
 30
0.0
 10
0.6913307086614173
 20
0.9491692913385827
 30
0.0
 10
0.683736220472441
 20
1.701232283464567
 30
0.0
 10
0.683736220472441
 20
1.701232283464567
 30
0.0
 10
0.683736220472441
 20
1.701232283464567
 30
0.0
 10
0.683736220472441
 20
1.701232283464567
 30
0.0
 10
0.6517874015748032
 20
1.6894527559055119
 30
0.0
 10
0.6517874015748032
 20
1.6894527559055119
 30
0.0
 10
0.6517874015748032
 20
1.6894527559055119
 30
0.0
 10
0.6517874015748032
 20
1.6894527559055119
 30
0.0
 10
0.6593818897637795
 20
0.9373897637795275
 30
0.0
 10
0.6593818897637795
 20
0.9373897637795275
 30
0.0
 10
0.6593818897637795
 20
0.9373897637795275
 30
0.0
 10
0.6593818897637795
 20
0.9373897637795275
 30
0.0
 10
0.6913307086614173
 20
0.9491692913385827
 30
0.0
 10
0.6913307086614173
 20
0.9491692913385827
 30
0.0
  0
SPLINE
  5
4A
100
AcDbEntity
  8
Layer 1
 62
   253
100
AcDbSpline
210
0.0
220
0.0
230
1.0
 70
     1
 71
     3
 72
    20
 73
    16
 74
     0
 42
0.0000000001
 43
0.0000000001
 40
0.0
 40
0.0
 40
0.0
 40
0.0
 40
0.25
 40
0.25
 40
0.25
 40
0.25
 40
0.5
 40
0.5
 40
0.5
 40
0.5
 40
0.75
 40
0.75
 40
0.75
 40
0.75
 40
1.0
 40
1.0
 40
1.0
 40
1.0
 10
0.6593818897637795
 20
0.9373897637795275
 30
0.0
 10
0.6593818897637795
 20
0.9373897637795275
 30
0.0
 10
0.6517874015748032
 20
1.6894527559055119
 30
0.0
 10
0.6517874015748032
 20
1.6894527559055119
 30
0.0
 10
0.6517874015748032
 20
1.6894527559055119
 30
0.0
 10
0.6517874015748032
 20
1.6894527559055119
 30
0.0
 10
0.6199133858267717
 20
1.6781574803149606
 30
0.0
 10
0.6199133858267717
 20
1.6781574803149606
 30
0.0
 10
0.6199133858267717
 20
1.6781574803149606
 30
0.0
 10
0.6199133858267717
 20
1.6781574803149606
 30
0.0
 10
0.627507874015748
 20
0.9260944881889764
 30
0.0
 10
0.627507874015748
 20
0.9260944881889764
 30
0.0
 10
0.627507874015748
 20
0.9260944881889764
 30
0.0
 10
0.627507874015748
 20
0.9260944881889764
 30
0.0
 10
0.6593818897637795
 20
0.9373897637795275
 30
0.0
 10
0.6593818897637795
 20
0.9373897637795275
 30
0.0
  0
SPLINE
  5
4B
100
AcDbEntity
  8
Layer 1
 62
   253
100
AcDbSpline
210
0.0
220
0.0
230
1.0
 70
     1
 71
     3
 72
    20
 73
    16
 74
     0
 42
0.0000000001
 43
0.0000000001
 40
0.0
 40
0.0
 40
0.0
 40
0.0
 40
0.25
 40
0.25
 40
0.25
 40
0.25
 40
0.5
 40
0.5
 40
0.5
 40
0.5
 40
0.75
 40
0.75
 40
0.75
 40
0.75
 40
1.0
 40
1.0
 40
1.0
 40
1.0
 10
0.627507874015748
 20
0.9260944881889764
 30
0.0
 10
0.627507874015748
 20
0.9260944881889764
 30
0.0
 10
0.6199133858267717
 20
1.6781574803149606
 30
0.0
 10
0.6199133858267717
 20
1.6781574803149606
 30
0.0
 10
0.6199133858267717
 20
1.6781574803149606
 30
0.0
 10
0.6199133858267717
 20
1.6781574803149606
 30
0.0
 10
0.5881102362204724
 20
1.6673818897637795
 30
0.0
 10
0.5881102362204724
 20
1.6673818897637795
 30
0.0
 10
0.5881102362204724
 20
1.6673818897637795
 30
0.0
 10
0.5881102362204724
 20
1.6673818897637795
 30
0.0
 10
0.5957047244094489
 20
0.9153188976377953
 30
0.0
 10
0.5957047244094489
 20
0.9153188976377953
 30
0.0
 10
0.5957047244094489
 20
0.9153188976377953
 30
0.0
 10
0.5957047244094489
 20
0.9153188976377953
 30
0.0
 10
0.627507874015748
 20
0.9260944881889764
 30
0.0
 10
0.627507874015748
 20
0.9260944881889764
 30
0.0
  0
SPLINE
  5
4C
100
AcDbEntity
  8
Layer 1
 62
   253
100
AcDbSpline
210
0.0
220
0.0
230
1.0
 70
     1
 71
     3
 72
    20
 73
    16
 74
     0
 42
0.0000000001
 43
0.0000000001
 40
0.0
 40
0.0
 40
0.0
 40
0.0
 40
0.25
 40
0.25
 40
0.25
 40
0.25
 40
0.5
 40
0.5
 40
0.5
 40
0.5
 40
0.75
 40
0.75
 40
0.75
 40
0.75
 40
1.0
 40
1.0
 40
1.0
 40
1.0
 10
0.5957047244094489
 20
0.9153188976377953
 30
0.0
 10
0.5957047244094489
 20
0.9153188976377953
 30
0.0
 10
0.5881102362204724
 20
1.6673818897637795
 30
0.0
 10
0.5881102362204724
 20
1.6673818897637795
 30
0.0
 10
0.5881102362204724
 20
1.6673818897637795
 30
0.0
 10
0.5881102362204724
 20
1.6673818897637795
 30
0.0
 10
0.5563897637795275
 20
1.6571889763779528
 30
0.0
 10
0.5563897637795275
 20
1.6571889763779528
 30
0.0
 10
0.5563897637795275
 20
1.6571889763779528
 30
0.0
 10
0.5563897637795275
 20
1.6571889763779528
 30
0.0
 10
0.563984251968504
 20
0.9051259842519686
 30
0.0
 10
0.563984251968504
 20
0.9051259842519686
 30
0.0
 10
0.563984251968504
 20
0.9051259842519686
 30
0.0
 10
0.563984251968504
 20
0.9051259842519686
 30
0.0
 10
0.5957047244094489
 20
0.9153188976377953
 30
0.0
 10
0.5957047244094489
 20
0.9153188976377953
 30
0.0
  0
SPLINE
  5
4D
100
AcDbEntity
  8
Layer 1
 62
   253
100
AcDbSpline
210
0.0
220
0.0
230
1.0
 70
     1
 71
     3
 72
    20
 73
    16
 74
     0
 42
0.0000000001
 43
0.0000000001
 40
0.0
 40
0.0
 40
0.0
 40
0.0
 40
0.25
 40
0.25
 40
0.25
 40
0.25
 40
0.5
 40
0.5
 40
0.5
 40
0.5
 40
0.75
 40
0.75
 40
0.75
 40
0.75
 40
1.0
 40
1.0
 40
1.0
 40
1.0
 10
0.563984251968504
 20
0.9051259842519686
 30
0.0
 10
0.563984251968504
 20
0.9051259842519686
 30
0.0
 10
0.5563897637795275
 20
1.6571889763779528
 30
0.0
 10
0.5563897637795275
 20
1.6571889763779528
 30
0.0
 10
0.5563897637795275
 20
1.6571889763779528
 30
0.0
 10
0.5563897637795275
 20
1.6571889763779528
 30
0.0
 10
0.524744094488189
 20
1.6476102362204725
 30
0.0
 10
0.524744094488189
 20
1.6476102362204725
 30
0.0
 10
0.524744094488189
 20
1.6476102362204725
 30
0.0
 10
0.524744094488189
 20
1.6476102362204725
 30
0.0
 10
0.5323385826771654
 20
0.8955472440944883
 30
0.0
 10
0.5323385826771654
 20
0.8955472440944883
 30
0.0
 10
0.5323385826771654
 20
0.8955472440944883
 30
0.0
 10
0.5323385826771654
 20
0.8955472440944883
 30
0.0
 10
0.563984251968504
 20
0.9051259842519686
 30
0.0
 10
0.563984251968504
 20
0.9051259842519686
 30
0.0
  0
SPLINE
  5
4E
100
AcDbEntity
  8
Layer 1
 62
   253
100
AcDbSpline
210
0.0
220
0.0
230
1.0
 70
     1
 71
     3
 72
    20
 73
    16
 74
     0
 42
0.0000000001
 43
0.0000000001
 40
0.0
 40
0.0
 40
0.0
 40
0.0
 40
0.25
 40
0.25
 40
0.25
 40
0.25
 40
0.5
 40
0.5
 40
0.5
 40
0.5
 40
0.75
 40
0.75
 40
0.75
 40
0.75
 40
1.0
 40
1.0
 40
1.0
 40
1.0
 10
0.5323385826771654
 20
0.8955472440944883
 30
0.0
 10
0.5323385826771654
 20
0.8955472440944883
 30
0.0
 10
0.524744094488189
 20
1.6476102362204725
 30
0.0
 10
0.524744094488189
 20
1.6476102362204725
 30
0.0
 10
0.524744094488189
 20
1.6476102362204725
 30
0.0
 10
0.524744094488189
 20
1.6476102362204725
 30
0.0
 10
0.4931929133858268
 20
1.6387125984251969
 30
0.0
 10
0.4931929133858268
 20
1.6387125984251969
 30
0.0
 10
0.4931929133858268
 20
1.6387125984251969
 30
0.0
 10
0.4931929133858268
 20
1.6387125984251969
 30
0.0
 10
0.5007874015748032
 20
0.8866496062992126
 30
0.0
 10
0.5007874015748032
 20
0.8866496062992126
 30
0.0
 10
0.5007874015748032
 20
0.8866496062992126
 30
0.0
 10
0.5007874015748032
 20
0.8866496062992126
 30
0.0
 10
0.5323385826771654
 20
0.8955472440944883
 30
0.0
 10
0.5323385826771654
 20
0.8955472440944883
 30
0.0
  0
SPLINE
  5
4F
100
AcDbEntity
  8
Layer 1
 62
   253
100
AcDbSpline
210
0.0
220
0.0
230
1.0
 70
     1
 71
     3
 72
    20
 73
    16
 74
     0
 42
0.0000000001
 43
0.0000000001
 40
0.0
 40
0.0
 40
0.0
 40
0.0
 40
0.25
 40
0.25
 40
0.25
 40
0.25
 40
0.5
 40
0.5
 40
0.5
 40
0.5
 40
0.75
 40
0.75
 40
0.75
 40
0.75
 40
1.0
 40
1.0
 40
1.0
 40
1.0
 10
0.5007874015748032
 20
0.8866496062992126
 30
0.0
 10
0.5007874015748032
 20
0.8866496062992126
 30
0.0
 10
0.4931929133858268
 20
1.6387125984251969
 30
0.0
 10
0.4931929133858268
 20
1.6387125984251969
 30
0.0
 10
0.4931929133858268
 20
1.6387125984251969
 30
0.0
 10
0.4931929133858268
 20
1.6387125984251969
 30
0.0
 10
0.4617283464566929
 20
1.6305393700787403
 30
0.0
 10
0.4617283464566929
 20
1.6305393700787403
 30
0.0
 10
0.4617283464566929
 20
1.6305393700787403
 30
0.0
 10
0.4617283464566929
 20
1.6305393700787403
 30
0.0
 10
0.4693228346456693
 20
0.8784763779527559
 30
0.0
 10
0.4693228346456693
 20
0.8784763779527559
 30
0.0
 10
0.4693228346456693
 20
0.8784763779527559
 30
0.0
 10
0.4693228346456693
 20
0.8784763779527559
 30
0.0
 10
0.5007874015748032
 20
0.8866496062992126
 30
0.0
 10
0.5007874015748032
 20
0.8866496062992126
 30
0.0
  0
SPLINE
  5
50
100
AcDbEntity
  8
Layer 1
 62
   253
100
AcDbSpline
210
0.0
220
0.0
230
1.0
 70
     1
 71
     3
 72
    20
 73
    16
 74
     0
 42
0.0000000001
 43
0.0000000001
 40
0.0
 40
0.0
 40
0.0
 40
0.0
 40
0.25
 40
0.25
 40
0.25
 40
0.25
 40
0.5
 40
0.5
 40
0.5
 40
0.5
 40
0.75
 40
0.75
 40
0.75
 40
0.75
 40
1.0
 40
1.0
 40
1.0
 40
1.0
 10
0.4693228346456693
 20
0.8784763779527559
 30
0.0
 10
0.4693228346456693
 20
0.8784763779527559
 30
0.0
 10
0.4617283464566929
 20
1.6305393700787403
 30
0.0
 10
0.4617283464566929
 20
1.6305393700787403
 30
0.0
 10
0.4617283464566929
 20
1.6305393700787403
 30
0.0
 10
0.4617283464566929
 20
1.6305393700787403
 30
0.0
 10
0.4303661417322835
 20
1.6231496062992126
 30
0.0
 10
0.4303661417322835
 20
1.6231496062992126
 30
0.0
 10
0.4303661417322835
 20
1.6231496062992126
 30
0.0
 10
0.4303661417322835
 20
1.6231496062992126
 30
0.0
 10
0.4379606299212598
 20
0.8710866141732284
 30
0.0
 10
0.4379606299212598
 20
0.8710866141732284
 30
0.0
 10
0.4379606299212598
 20
0.8710866141732284
 30
0.0
 10
0.4379606299212598
 20
0.8710866141732284
 30
0.0
 10
0.4693228346456693
 20
0.8784763779527559
 30
0.0
 10
0.4693228346456693
 20
0.8784763779527559
 30
0.0
  0
SPLINE
  5
51
100
AcDbEntity
  8
Layer 1
 62
   253
100
AcDbSpline
210
0.0
220
0.0
230
1.0
 70
     1
 71
     3
 72
    20
 73
    16
 74
     0
 42
0.0000000001
 43
0.0000000001
 40
0.0
 40
0.0
 40
0.0
 40
0.0
 40
0.25
 40
0.25
 40
0.25
 40
0.25
 40
0.5
 40
0.5
 40
0.5
 40
0.5
 40
0.75
 40
0.75
 40
0.75
 40
0.75
 40
1.0
 40
1.0
 40
1.0
 40
1.0
 10
0.4379606299212598
 20
0.8710866141732284
 30
0.0
 10
0.4379606299212598
 20
0.8710866141732284
 30
0.0
 10
0.4303661417322835
 20
1.6231496062992126
 30
0.0
 10
0.4303661417322835
 20
1.6231496062992126
 30
0.0
 10
0.4303661417322835
 20
1.6231496062992126
 30
0.0
 10
0.4303661417322835
 20
1.6231496062992126
 30
0.0
 10
0.3990905511811024
 20
1.6165748031496063
 30
0.0
 10
0.3990905511811024
 20
1.6165748031496063
 30
0.0
 10
0.3990905511811024
 20
1.6165748031496063
 30
0.0
 10
0.3990905511811024
 20
1.6165748031496063
 30
0.0
 10
0.4066850393700788
 20
0.8645118110236221
 30
0.0
 10
0.4066850393700788
 20
0.8645118110236221
 30
0.0
 10
0.4066850393700788
 20
0.8645118110236221
 30
0.0
 10
0.4066850393700788
 20
0.8645118110236221
 30
0.0
 10
0.4379606299212598
 20
0.8710866141732284
 30
0.0
 10
0.4379606299212598
 20
0.8710866141732284
 30
0.0
  0
SPLINE
  5
52
100
AcDbEntity
  8
Layer 1
 62
   253
100
AcDbSpline
210
0.0
220
0.0
230
1.0
 70
     1
 71
     3
 72
    20
 73
    16
 74
     0
 42
0.0000000001
 43
0.0000000001
 40
0.0
 40
0.0
 40
0.0
 40
0.0
 40
0.25
 40
0.25
 40
0.25
 40
0.25
 40
0.5
 40
0.5
 40
0.5
 40
0.5
 40
0.75
 40
0.75
 40
0.75
 40
0.75
 40
1.0
 40
1.0
 40
1.0
 40
1.0
 10
0.4066850393700788
 20
0.8645118110236221
 30
0.0
 10
0.4066850393700788
 20
0.8645118110236221
 30
0.0
 10
0.3990905511811024
 20
1.6165748031496063
 30
0.0
 10
0.3990905511811024
 20
1.6165748031496063
 30
0.0
 10
0.3990905511811024
 20
1.6165748031496063
 30
0.0
 10
0.3990905511811024
 20
1.6165748031496063
 30
0.0
 10
0.3679251968503937
 20
1.6108779527559056
 30
0.0
 10
0.3679251968503937
 20
1.6108779527559056
 30
0.0
 10
0.3679251968503937
 20
1.6108779527559056
 30
0.0
 10
0.3679251968503937
 20
1.6108779527559056
 30
0.0
 10
0.3755196850393701
 20
0.8588149606299212
 30
0.0
 10
0.3755196850393701
 20
0.8588149606299212
 30
0.0
 10
0.3755196850393701
 20
0.8588149606299212
 30
0.0
 10
0.3755196850393701
 20
0.8588149606299212
 30
0.0
 10
0.4066850393700788
 20
0.8645118110236221
 30
0.0
 10
0.4066850393700788
 20
0.8645118110236221
 30
0.0
  0
SPLINE
  5
53
100
AcDbEntity
  8
Layer 1
 62
   253
100
AcDbSpline
210
0.0
220
0.0
230
1.0
 70
     1
 71
     3
 72
    20
 73
    16
 74
     0
 42
0.0000000001
 43
0.0000000001
 40
0.0
 40
0.0
 40
0.0
 40
0.0
 40
0.25
 40
0.25
 40
0.25
 40
0.25
 40
0.5
 40
0.5
 40
0.5
 40
0.5
 40
0.75
 40
0.75
 40
0.75
 40
0.75
 40
1.0
 40
1.0
 40
1.0
 40
1.0
 10
0.3755196850393701
 20
0.8588149606299212
 30
0.0
 10
0.3755196850393701
 20
0.8588149606299212
 30
0.0
 10
0.3679251968503937
 20
1.6108779527559056
 30
0.0
 10
0.3679251968503937
 20
1.6108779527559056
 30
0.0
 10
0.3679251968503937
 20
1.6108779527559056
 30
0.0
 10
0.3679251968503937
 20
1.6108779527559056
 30
0.0
 10
0.3368582677165354
 20
1.6061102362204724
 30
0.0
 10
0.3368582677165354
 20
1.6061102362204724
 30
0.0
 10
0.3368582677165354
 20
1.6061102362204724
 30
0.0
 10
0.3368582677165354
 20
1.6061102362204724
 30
0.0
 10
0.3444527559055118
 20
0.8540472440944882
 30
0.0
 10
0.3444527559055118
 20
0.8540472440944882
 30
0.0
 10
0.3444527559055118
 20
0.8540472440944882
 30
0.0
 10
0.3444527559055118
 20
0.8540472440944882
 30
0.0
 10
0.3755196850393701
 20
0.8588149606299212
 30
0.0
 10
0.3755196850393701
 20
0.8588149606299212
 30
0.0
  0
SPLINE
  5
54
100
AcDbEntity
  8
Layer 1
 62
   253
100
AcDbSpline
210
0.0
220
0.0
230
1.0
 70
     1
 71
     3
 72
    20
 73
    16
 74
     0
 42
0.0000000001
 43
0.0000000001
 40
0.0
 40
0.0
 40
0.0
 40
0.0
 40
0.25
 40
0.25
 40
0.25
 40
0.25
 40
0.5
 40
0.5
 40
0.5
 40
0.5
 40
0.75
 40
0.75
 40
0.75
 40
0.75
 40
1.0
 40
1.0
 40
1.0
 40
1.0
 10
0.3444527559055118
 20
0.8540472440944882
 30
0.0
 10
0.3444527559055118
 20
0.8540472440944882
 30
0.0
 10
0.3368582677165354
 20
1.6061102362204724
 30
0.0
 10
0.3368582677165354
 20
1.6061102362204724
 30
0.0
 10
0.3368582677165354
 20
1.6061102362204724
 30
0.0
 10
0.3368582677165354
 20
1.6061102362204724
 30
0.0
 10
0.3059133858267717
 20
1.6023228346456693
 30
0.0
 10
0.3059133858267717
 20
1.6023228346456693
 30
0.0
 10
0.3059133858267717
 20
1.6023228346456693
 30
0.0
 10
0.3059133858267717
 20
1.6023228346456693
 30
0.0
 10
0.313507874015748
 20
0.8502598425196851
 30
0.0
 10
0.313507874015748
 20
0.8502598425196851
 30
0.0
 10
0.313507874015748
 20
0.8502598425196851
 30
0.0
 10
0.313507874015748
 20
0.8502598425196851
 30
0.0
 10
0.3444527559055118
 20
0.8540472440944882
 30
0.0
 10
0.3444527559055118
 20
0.8540472440944882
 30
0.0
  0
SPLINE
  5
55
100
AcDbEntity
  8
Layer 1
 62
   253
100
AcDbSpline
210
0.0
220
0.0
230
1.0
 70
     1
 71
     3
 72
    20
 73
    16
 74
     0
 42
0.0000000001
 43
0.0000000001
 40
0.0
 40
0.0
 40
0.0
 40
0.0
 40
0.25
 40
0.25
 40
0.25
 40
0.25
 40
0.5
 40
0.5
 40
0.5
 40
0.5
 40
0.75
 40
0.75
 40
0.75
 40
0.75
 40
1.0
 40
1.0
 40
1.0
 40
1.0
 10
0.313507874015748
 20
0.8502598425196851
 30
0.0
 10
0.313507874015748
 20
0.8502598425196851
 30
0.0
 10
0.3059133858267717
 20
1.6023228346456693
 30
0.0
 10
0.3059133858267717
 20
1.6023228346456693
 30
0.0
 10
0.3059133858267717
 20
1.6023228346456693
 30
0.0
 10
0.3059133858267717
 20
1.6023228346456693
 30
0.0
 10
0.2750748031496063
 20
1.5995551181102363
 30
0.0
 10
0.2750748031496063
 20
1.5995551181102363
 30
0.0
 10
0.2750748031496063
 20
1.5995551181102363
 30
0.0
 10
0.2750748031496063
 20
1.5995551181102363
 30
0.0
 10
0.2826692913385827
 20
0.8474921259842521
 30
0.0
 10
0.2826692913385827
 20
0.8474921259842521
 30
0.0
 10
0.2826692913385827
 20
0.8474921259842521
 30
0.0
 10
0.2826692913385827
 20
0.8474921259842521
 30
0.0
 10
0.313507874015748
 20
0.8502598425196851
 30
0.0
 10
0.313507874015748
 20
0.8502598425196851
 30
0.0
  0
SPLINE
  5
56
100
AcDbEntity
  8
Layer 1
 62
   253
100
AcDbSpline
210
0.0
220
0.0
230
1.0
 70
     1
 71
     3
 72
    20
 73
    16
 74
     0
 42
0.0000000001
 43
0.0000000001
 40
0.0
 40
0.0
 40
0.0
 40
0.0
 40
0.25
 40
0.25
 40
0.25
 40
0.25
 40
0.5
 40
0.5
 40
0.5
 40
0.5
 40
0.75
 40
0.75
 40
0.75
 40
0.75
 40
1.0
 40
1.0
 40
1.0
 40
1.0
 10
0.2826692913385827
 20
0.8474921259842521
 30
0.0
 10
0.2826692913385827
 20
0.8474921259842521
 30
0.0
 10
0.2750748031496063
 20
1.5995551181102363
 30
0.0
 10
0.2750748031496063
 20
1.5995551181102363
 30
0.0
 10
0.2750748031496063
 20
1.5995551181102363
 30
0.0
 10
0.2750748031496063
 20
1.5995551181102363
 30
0.0
 10
0.2443543307086614
 20
1.5978700787401576
 30
0.0
 10
0.2443543307086614
 20
1.5978700787401576
 30
0.0
 10
0.2443543307086614
 20
1.5978700787401576
 30
0.0
 10
0.2443543307086614
 20
1.5978700787401576
 30
0.0
 10
0.2519488188976378
 20
0.8458070866141733
 30
0.0
 10
0.2519488188976378
 20
0.8458070866141733
 30
0.0
 10
0.2519488188976378
 20
0.8458070866141733
 30
0.0
 10
0.2519488188976378
 20
0.8458070866141733
 30
0.0
 10
0.2826692913385827
 20
0.8474921259842521
 30
0.0
 10
0.2826692913385827
 20
0.8474921259842521
 30
0.0
  0
SPLINE
  5
57
100
AcDbEntity
  8
Layer 1
 62
   253
100
AcDbSpline
210
0.0
220
0.0
230
1.0
 70
     1
 71
     3
 72
    20
 73
    16
 74
     0
 42
0.0000000001
 43
0.0000000001
 40
0.0
 40
0.0
 40
0.0
 40
0.0
 40
0.25
 40
0.25
 40
0.25
 40
0.25
 40
0.5
 40
0.5
 40
0.5
 40
0.5
 40
0.75
 40
0.75
 40
0.75
 40
0.75
 40
1.0
 40
1.0
 40
1.0
 40
1.0
 10
0.2519488188976378
 20
0.8458070866141733
 30
0.0
 10
0.2519488188976378
 20
0.8458070866141733
 30
0.0
 10
0.2443543307086614
 20
1.5978700787401576
 30
0.0
 10
0.2443543307086614
 20
1.5978700787401576
 30
0.0
 10
0.2443543307086614
 20
1.5978700787401576
 30
0.0
 10
0.2443543307086614
 20
1.5978700787401576
 30
0.0
 10
0.213755905511811
 20
1.5973110236220474
 30
0.0
 10
0.213755905511811
 20
1.5973110236220474
 30
0.0
 10
0.213755905511811
 20
1.5973110236220474
 30
0.0
 10
0.213755905511811
 20
1.5973110236220474
 30
0.0
 10
0.2213503937007874
 20
0.845248031496063
 30
0.0
 10
0.2213503937007874
 20
0.845248031496063
 30
0.0
 10
0.2213503937007874
 20
0.845248031496063
 30
0.0
 10
0.2213503937007874
 20
0.845248031496063
 30
0.0
 10
0.2519488188976378
 20
0.8458070866141733
 30
0.0
 10
0.2519488188976378
 20
0.8458070866141733
 30
0.0
  0
SPLINE
  5
58
100
AcDbEntity
  8
Layer 1
 62
   253
100
AcDbSpline
210
0.0
220
0.0
230
1.0
 70
     1
 71
     3
 72
    20
 73
    16
 74
     0
 42
0.0000000001
 43
0.0000000001
 40
0.0
 40
0.0
 40
0.0
 40
0.0
 40
0.25
 40
0.25
 40
0.25
 40
0.25
 40
0.5
 40
0.5
 40
0.5
 40
0.5
 40
0.75
 40
0.75
 40
0.75
 40
0.75
 40
1.0
 40
1.0
 40
1.0
 40
1.0
 10
0.2213503937007874
 20
0.845248031496063
 30
0.0
 10
0.2213503937007874
 20
0.845248031496063
 30
0.0
 10
0.213755905511811
 20
1.5973110236220474
 30
0.0
 10
0.213755905511811
 20
1.5973110236220474
 30
0.0
 10
0.213755905511811
 20
1.5973110236220474
 30
0.0
 10
0.213755905511811
 20
1.5973110236220474
 30
0.0
 10
0.1832874015748032
 20
1.5979370078740158
 30
0.0
 10
0.1832874015748032
 20
1.5979370078740158
 30
0.0
 10
0.1832874015748032
 20
1.5979370078740158
 30
0.0
 10
0.1832874015748032
 20
1.5979370078740158
 30
0.0
 10
0.1908818897637795
 20
0.8458740157480316
 30
0.0
 10
0.1908818897637795
 20
0.8458740157480316
 30
0.0
 10
0.1908818897637795
 20
0.8458740157480316
 30
0.0
 10
0.1908818897637795
 20
0.8458740157480316
 30
0.0
 10
0.2213503937007874
 20
0.845248031496063
 30
0.0
 10
0.2213503937007874
 20
0.845248031496063
 30
0.0
  0
SPLINE
  5
59
100
AcDbEntity
  8
Layer 1
 62
   253
100
AcDbSpline
210
0.0
220
0.0
230
1.0
 70
     1
 71
     3
 72
    20
 73
    16
 74
     0
 42
0.0000000001
 43
0.0000000001
 40
0.0
 40
0.0
 40
0.0
 40
0.0
 40
0.25
 40
0.25
 40
0.25
 40
0.25
 40
0.5
 40
0.5
 40
0.5
 40
0.5
 40
0.75
 40
0.75
 40
0.75
 40
0.75
 40
1.0
 40
1.0
 40
1.0
 40
1.0
 10
0.1908818897637795
 20
0.8458740157480316
 30
0.0
 10
0.1908818897637795
 20
0.8458740157480316
 30
0.0
 10
0.1832874015748032
 20
1.5979370078740158
 30
0.0
 10
0.1832874015748032
 20
1.5979370078740158
 30
0.0
 10
0.1832874015748032
 20
1.5979370078740158
 30
0.0
 10
0.1832874015748032
 20
1.5979370078740158
 30
0.0
 10
0.1529409448818898
 20
1.5997795275590552
 30
0.0
 10
0.1529409448818898
 20
1.5997795275590552
 30
0.0
 10
0.1529409448818898
 20
1.5997795275590552
 30
0.0
 10
0.1529409448818898
 20
1.5997795275590552
 30
0.0
 10
0.1605354330708662
 20
0.8477165354330709
 30
0.0
 10
0.1605354330708662
 20
0.8477165354330709
 30
0.0
 10
0.1605354330708662
 20
0.8477165354330709
 30
0.0
 10
0.1605354330708662
 20
0.8477165354330709
 30
0.0
 10
0.1908818897637795
 20
0.8458740157480316
 30
0.0
 10
0.1908818897637795
 20
0.8458740157480316
 30
0.0
  0
SPLINE
  5
5A
100
AcDbEntity
  8
Layer 1
 62
   253
100
AcDbSpline
210
0.0
220
0.0
230
1.0
 70
     1
 71
     3
 72
    20
 73
    16
 74
     0
 42
0.0000000001
 43
0.0000000001
 40
0.0
 40
0.0
 40
0.0
 40
0.0
 40
0.25
 40
0.25
 40
0.25
 40
0.25
 40
0.5
 40
0.5
 40
0.5
 40
0.5
 40
0.75
 40
0.75
 40
0.75
 40
0.75
 40
1.0
 40
1.0
 40
1.0
 40
1.0
 10
0.1605354330708662
 20
0.8477165354330709
 30
0.0
 10
0.1605354330708662
 20
0.8477165354330709
 30
0.0
 10
0.1529409448818898
 20
1.5997795275590552
 30
0.0
 10
0.1529409448818898
 20
1.5997795275590552
 30
0.0
 10
0.1529409448818898
 20
1.5997795275590552
 30
0.0
 10
0.1529409448818898
 20
1.5997795275590552
 30
0.0
 10
0.122736220472441
 20
1.6029055118110236
 30
0.0
 10
0.122736220472441
 20
1.6029055118110236
 30
0.0
 10
0.122736220472441
 20
1.6029055118110236
 30
0.0
 10
0.122736220472441
 20
1.6029055118110236
 30
0.0
 10
0.1303307086614173
 20
0.8508425196850394
 30
0.0
 10
0.1303307086614173
 20
0.8508425196850394
 30
0.0
 10
0.1303307086614173
 20
0.8508425196850394
 30
0.0
 10
0.1303307086614173
 20
0.8508425196850394
 30
0.0
 10
0.1605354330708662
 20
0.8477165354330709
 30
0.0
 10
0.1605354330708662
 20
0.8477165354330709
 30
0.0
  0
SPLINE
  5
5B
100
AcDbEntity
  8
Layer 1
 62
   253
100
AcDbSpline
210
0.0
220
0.0
230
1.0
 70
     1
 71
     3
 72
    20
 73
    16
 74
     0
 42
0.0000000001
 43
0.0000000001
 40
0.0
 40
0.0
 40
0.0
 40
0.0
 40
0.25
 40
0.25
 40
0.25
 40
0.25
 40
0.5
 40
0.5
 40
0.5
 40
0.5
 40
0.75
 40
0.75
 40
0.75
 40
0.75
 40
1.0
 40
1.0
 40
1.0
 40
1.0
 10
0.1303307086614173
 20
0.8508425196850394
 30
0.0
 10
0.1303307086614173
 20
0.8508425196850394
 30
0.0
 10
0.122736220472441
 20
1.6029055118110236
 30
0.0
 10
0.122736220472441
 20
1.6029055118110236
 30
0.0
 10
0.122736220472441
 20
1.6029055118110236
 30
0.0
 10
0.122736220472441
 20
1.6029055118110236
 30
0.0
 10
0.0926653543307087
 20
1.6073622047244096
 30
0.0
 10
0.0926653543307087
 20
1.6073622047244096
 30
0.0
 10
0.0926653543307087
 20
1.6073622047244096
 30
0.0
 10
0.0926653543307087
 20
1.6073622047244096
 30
0.0
 10
0.1002598425196851
 20
0.8552992125984252
 30
0.0
 10
0.1002598425196851
 20
0.8552992125984252
 30
0.0
 10
0.1002598425196851
 20
0.8552992125984252
 30
0.0
 10
0.1002598425196851
 20
0.8552992125984252
 30
0.0
 10
0.1303307086614173
 20
0.8508425196850394
 30
0.0
 10
0.1303307086614173
 20
0.8508425196850394
 30
0.0
  0
SPLINE
  5
5C
100
AcDbEntity
  8
Layer 1
 62
   253
100
AcDbSpline
210
0.0
220
0.0
230
1.0
 70
     1
 71
     3
 72
    20
 73
    16
 74
     0
 42
0.0000000001
 43
0.0000000001
 40
0.0
 40
0.0
 40
0.0
 40
0.0
 40
0.25
 40
0.25
 40
0.25
 40
0.25
 40
0.5
 40
0.5
 40
0.5
 40
0.5
 40
0.75
 40
0.75
 40
0.75
 40
0.75
 40
1.0
 40
1.0
 40
1.0
 40
1.0
 10
0.1002598425196851
 20
0.8552992125984252
 30
0.0
 10
0.1002598425196851
 20
0.8552992125984252
 30
0.0
 10
0.0926653543307087
 20
1.6073622047244096
 30
0.0
 10
0.0926653543307087
 20
1.6073622047244096
 30
0.0
 10
0.0926653543307087
 20
1.6073622047244096
 30
0.0
 10
0.0926653543307087
 20
1.6073622047244096
 30
0.0
 10
0.062740157480315
 20
1.6132007874015748
 30
0.0
 10
0.062740157480315
 20
1.6132007874015748
 30
0.0
 10
0.062740157480315
 20
1.6132007874015748
 30
0.0
 10
0.062740157480315
 20
1.6132007874015748
 30
0.0
 10
0.0703346456692913
 20
0.8611377952755905
 30
0.0
 10
0.0703346456692913
 20
0.8611377952755905
 30
0.0
 10
0.0703346456692913
 20
0.8611377952755905
 30
0.0
 10
0.0703346456692913
 20
0.8611377952755905
 30
0.0
 10
0.1002598425196851
 20
0.8552992125984252
 30
0.0
 10
0.1002598425196851
 20
0.8552992125984252
 30
0.0
  0
SPLINE
  5
5D
100
AcDbEntity
  8
Layer 1
 62
   253
100
AcDbSpline
210
0.0
220
0.0
230
1.0
 70
     1
 71
     3
 72
    20
 73
    16
 74
     0
 42
0.0000000001
 43
0.0000000001
 40
0.0
 40
0.0
 40
0.0
 40
0.0
 40
0.25
 40
0.25
 40
0.25
 40
0.25
 40
0.5
 40
0.5
 40
0.5
 40
0.5
 40
0.75
 40
0.75
 40
0.75
 40
0.75
 40
1.0
 40
1.0
 40
1.0
 40
1.0
 10
0.0703346456692913
 20
0.8611377952755905
 30
0.0
 10
0.0703346456692913
 20
0.8611377952755905
 30
0.0
 10
0.062740157480315
 20
1.6132007874015748
 30
0.0
 10
0.062740157480315
 20
1.6132007874015748
 30
0.0
 10
0.062740157480315
 20
1.6132007874015748
 30
0.0
 10
0.062740157480315
 20
1.6132007874015748
 30
0.0
 10
0.0329645669291339
 20
1.6204606299212598
 30
0.0
 10
0.0329645669291339
 20
1.6204606299212598
 30
0.0
 10
0.0329645669291339
 20
1.6204606299212598
 30
0.0
 10
0.0329645669291339
 20
1.6204606299212598
 30
0.0
 10
0.0405590551181102
 20
0.8683976377952757
 30
0.0
 10
0.0405590551181102
 20
0.8683976377952757
 30
0.0
 10
0.0405590551181102
 20
0.8683976377952757
 30
0.0
 10
0.0405590551181102
 20
0.8683976377952757
 30
0.0
 10
0.0703346456692913
 20
0.8611377952755905
 30
0.0
 10
0.0703346456692913
 20
0.8611377952755905
 30
0.0
  0
SPLINE
  5
5E
100
AcDbEntity
  8
Layer 1
 62
   253
100
AcDbSpline
210
0.0
220
0.0
230
1.0
 70
     1
 71
     3
 72
    20
 73
    16
 74
     0
 42
0.0000000001
 43
0.0000000001
 40
0.0
 40
0.0
 40
0.0
 40
0.0
 40
0.25
 40
0.25
 40
0.25
 40
0.25
 40
0.5
 40
0.5
 40
0.5
 40
0.5
 40
0.75
 40
0.75
 40
0.75
 40
0.75
 40
1.0
 40
1.0
 40
1.0
 40
1.0
 10
0.0405590551181102
 20
0.8683976377952757
 30
0.0
 10
0.0405590551181102
 20
0.8683976377952757
 30
0.0
 10
0.0329645669291339
 20
1.6204606299212598
 30
0.0
 10
0.0329645669291339
 20
1.6204606299212598
 30
0.0
 10
0.0329645669291339
 20
1.6204606299212598
 30
0.0
 10
0.0329645669291339
 20
1.6204606299212598
 30
0.0
 10
0.0033346456692913
 20
1.6292086614173229
 30
0.0
 10
0.0033346456692913
 20
1.6292086614173229
 30
0.0
 10
0.0033346456692913
 20
1.6292086614173229
 30
0.0
 10
0.0033346456692913
 20
1.6292086614173229
 30
0.0
 10
0.0109291338582677
 20
0.8771456692913386
 30
0.0
 10
0.0109291338582677
 20
0.8771456692913386
 30
0.0
 10
0.0109291338582677
 20
0.8771456692913386
 30
0.0
 10
0.0109291338582677
 20
0.8771456692913386
 30
0.0
 10
0.0405590551181102
 20
0.8683976377952757
 30
0.0
 10
0.0405590551181102
 20
0.8683976377952757
 30
0.0
  0
SPLINE
  5
5F
100
AcDbEntity
  8
Layer 1
 62
   253
100
AcDbSpline
210
0.0
220
0.0
230
1.0
 70
     1
 71
     3
 72
    20
 73
    16
 74
     0
 42
0.0000000001
 43
0.0000000001
 40
0.0
 40
0.0
 40
0.0
 40
0.0
 40
0.25
 40
0.25
 40
0.25
 40
0.25
 40
0.5
 40
0.5
 40
0.5
 40
0.5
 40
0.75
 40
0.75
 40
0.75
 40
0.75
 40
1.0
 40
1.0
 40
1.0
 40
1.0
 10
0.0109291338582677
 20
0.8771456692913386
 30
0.0
 10
0.0109291338582677
 20
0.8771456692913386
 30
0.0
 10
0.0033346456692913
 20
1.6292086614173229
 30
0.0
 10
0.0033346456692913
 20
1.6292086614173229
 30
0.0
 10
0.0033346456692913
 20
1.6292086614173229
 30
0.0
 10
0.0033346456692913
 20
1.6292086614173229
 30
0.0
 10
-0.0261417322834646
 20
1.6394803149606301
 30
0.0
 10
-0.0261417322834646
 20
1.6394803149606301
 30
0.0
 10
-0.0261417322834646
 20
1.6394803149606301
 30
0.0
 10
-0.0261417322834646
 20
1.6394803149606301
 30
0.0
 10
-0.0185472440944882
 20
0.8874173228346457
 30
0.0
 10
-0.0185472440944882
 20
0.8874173228346457
 30
0.0
 10
-0.0185472440944882
 20
0.8874173228346457
 30
0.0
 10
-0.0185472440944882
 20
0.8874173228346457
 30
0.0
 10
0.0109291338582677
 20
0.8771456692913386
 30
0.0
 10
0.0109291338582677
 20
0.8771456692913386
 30
0.0
  0
SPLINE
  5
60
100
AcDbEntity
  8
Layer 1
 62
   253
100
AcDbSpline
210
0.0
220
0.0
230
1.0
 70
     1
 71
     3
 72
    20
 73
    16
 74
     0
 42
0.0000000001
 43
0.0000000001
 40
0.0
 40
0.0
 40
0.0
 40
0.0
 40
0.25
 40
0.25
 40
0.25
 40
0.25
 40
0.5
 40
0.5
 40
0.5
 40
0.5
 40
0.75
 40
0.75
 40
0.75
 40
0.75
 40
1.0
 40
1.0
 40
1.0
 40
1.0
 10
-0.0185472440944882
 20
0.8874173228346457
 30
0.0
 10
-0.0185472440944882
 20
0.8874173228346457
 30
0.0
 10
-0.0261417322834646
 20
1.6394803149606301
 30
0.0
 10
-0.0261417322834646
 20
1.6394803149606301
 30
0.0
 10
-0.0261417322834646
 20
1.6394803149606301
 30
0.0
 10
-0.0261417322834646
 20
1.6394803149606301
 30
0.0
 10
-0.0554685039370079
 20
1.6513385826771654
 30
0.0
 10
-0.0554685039370079
 20
1.6513385826771654
 30
0.0
 10
-0.0554685039370079
 20
1.6513385826771654
 30
0.0
 10
-0.0554685039370079
 20
1.6513385826771654
 30
0.0
 10
-0.0478740157480315
 20
0.8992755905511811
 30
0.0
 10
-0.0478740157480315
 20
0.8992755905511811
 30
0.0
 10
-0.0478740157480315
 20
0.8992755905511811
 30
0.0
 10
-0.0478740157480315
 20
0.8992755905511811
 30
0.0
 10
-0.0185472440944882
 20
0.8874173228346457
 30
0.0
 10
-0.0185472440944882
 20
0.8874173228346457
 30
0.0
  0
SPLINE
  5
61
100
AcDbEntity
  8
Layer 1
 62
   253
100
AcDbSpline
210
0.0
220
0.0
230
1.0
 70
     1
 71
     3
 72
    20
 73
    16
 74
     0
 42
0.0000000001
 43
0.0000000001
 40
0.0
 40
0.0
 40
0.0
 40
0.0
 40
0.25
 40
0.25
 40
0.25
 40
0.25
 40
0.5
 40
0.5
 40
0.5
 40
0.5
 40
0.75
 40
0.75
 40
0.75
 40
0.75
 40
1.0
 40
1.0
 40
1.0
 40
1.0
 10
-0.0478740157480315
 20
0.8992755905511811
 30
0.0
 10
-0.0478740157480315
 20
0.8992755905511811
 30
0.0
 10
-0.0554685039370079
 20
1.6513385826771654
 30
0.0
 10
-0.0554685039370079
 20
1.6513385826771654
 30
0.0
 10
-0.0554685039370079
 20
1.6513385826771654
 30
0.0
 10
-0.0554685039370079
 20
1.6513385826771654
 30
0.0
 10
-0.0846181102362205
 20
1.6648228346456693
 30
0.0
 10
-0.0846181102362205
 20
1.6648228346456693
 30
0.0
 10
-0.0846181102362205
 20
1.6648228346456693
 30
0.0
 10
-0.0846181102362205
 20
1.6648228346456693
 30
0.0
 10
-0.0770236220472441
 20
0.9127598425196851
 30
0.0
 10
-0.0770236220472441
 20
0.9127598425196851
 30
0.0
 10
-0.0770236220472441
 20
0.9127598425196851
 30
0.0
 10
-0.0770236220472441
 20
0.9127598425196851
 30
0.0
 10
-0.0478740157480315
 20
0.8992755905511811
 30
0.0
 10
-0.0478740157480315
 20
0.8992755905511811
 30
0.0
  0
SPLINE
  5
62
100
AcDbEntity
  8
Layer 1
 62
   253
100
AcDbSpline
210
0.0
220
0.0
230
1.0
 70
     1
 71
     3
 72
    20
 73
    16
 74
     0
 42
0.0000000001
 43
0.0000000001
 40
0.0
 40
0.0
 40
0.0
 40
0.0
 40
0.25
 40
0.25
 40
0.25
 40
0.25
 40
0.5
 40
0.5
 40
0.5
 40
0.5
 40
0.75
 40
0.75
 40
0.75
 40
0.75
 40
1.0
 40
1.0
 40
1.0
 40
1.0
 10
-0.0770236220472441
 20
0.9127598425196851
 30
0.0
 10
-0.0770236220472441
 20
0.9127598425196851
 30
0.0
 10
-0.0846181102362205
 20
1.6648228346456693
 30
0.0
 10
-0.0846181102362205
 20
1.6648228346456693
 30
0.0
 10
-0.0846181102362205
 20
1.6648228346456693
 30
0.0
 10
-0.0846181102362205
 20
1.6648228346456693
 30
0.0
 10
-0.1136141732283465
 20
1.6799881889763779
 30
0.0
 10
-0.1136141732283465
 20
1.6799881889763779
 30
0.0
 10
-0.1136141732283465
 20
1.6799881889763779
 30
0.0
 10
-0.1136141732283465
 20
1.6799881889763779
 30
0.0
 10
-0.1060196850393701
 20
0.9279251968503938
 30
0.0
 10
-0.1060196850393701
 20
0.9279251968503938
 30
0.0
 10
-0.1060196850393701
 20
0.9279251968503938
 30
0.0
 10
-0.1060196850393701
 20
0.9279251968503938
 30
0.0
 10
-0.0770236220472441
 20
0.9127598425196851
 30
0.0
 10
-0.0770236220472441
 20
0.9127598425196851
 30
0.0
  0
SPLINE
  5
63
100
AcDbEntity
  8
Layer 1
 62
   253
100
AcDbSpline
210
0.0
220
0.0
230
1.0
 70
     1
 71
     3
 72
    20
 73
    16
 74
     0
 42
0.0000000001
 43
0.0000000001
 40
0.0
 40
0.0
 40
0.0
 40
0.0
 40
0.25
 40
0.25
 40
0.25
 40
0.25
 40
0.5
 40
0.5
 40
0.5
 40
0.5
 40
0.75
 40
0.75
 40
0.75
 40
0.75
 40
1.0
 40
1.0
 40
1.0
 40
1.0
 10
-0.1060196850393701
 20
0.9279251968503938
 30
0.0
 10
-0.1060196850393701
 20
0.9279251968503938
 30
0.0
 10
-0.1136141732283465
 20
1.6799881889763779
 30
0.0
 10
-0.1136141732283465
 20
1.6799881889763779
 30
0.0
 10
-0.1136141732283465
 20
1.6799881889763779
 30
0.0
 10
-0.1136141732283465
 20
1.6799881889763779
 30
0.0
 10
-0.1424330708661417
 20
1.6968818897637796
 30
0.0
 10
-0.1424330708661417
 20
1.6968818897637796
 30
0.0
 10
-0.1424330708661417
 20
1.6968818897637796
 30
0.0
 10
-0.1424330708661417
 20
1.6968818897637796
 30
0.0
 10
-0.1348385826771654
 20
0.9448188976377954
 30
0.0
 10
-0.1348385826771654
 20
0.9448188976377954
 30
0.0
 10
-0.1348385826771654
 20
0.9448188976377954
 30
0.0
 10
-0.1348385826771654
 20
0.9448188976377954
 30
0.0
 10
-0.1060196850393701
 20
0.9279251968503938
 30
0.0
 10
-0.1060196850393701
 20
0.9279251968503938
 30
0.0
  0
SPLINE
  5
64
100
AcDbEntity
  8
Layer 1
 62
     9
100
AcDbSpline
210
0.0
220
0.0
230
1.0
 70
     1
 71
     3
 72
    20
 73
    16
 74
     0
 42
0.0000000001
 43
0.0000000001
 40
0.0
 40
0.0
 40
0.0
 40
0.0
 40
0.25
 40
0.25
 40
0.25
 40
0.25
 40
0.5
 40
0.5
 40
0.5
 40
0.5
 40
0.75
 40
0.75
 40
0.75
 40
0.75
 40
1.0
 40
1.0
 40
1.0
 40
1.0
 10
-0.1348385826771654
 20
0.9448188976377954
 30
0.0
 10
-0.1348385826771654
 20
0.9448188976377954
 30
0.0
 10
-0.1424330708661417
 20
1.6968818897637796
 30
0.0
 10
-0.1424330708661417
 20
1.6968818897637796
 30
0.0
 10
-0.1424330708661417
 20
1.6968818897637796
 30
0.0
 10
-0.1424330708661417
 20
1.6968818897637796
 30
0.0
 10
-0.1710866141732284
 20
1.7155669291338584
 30
0.0
 10
-0.1710866141732284
 20
1.7155669291338584
 30
0.0
 10
-0.1710866141732284
 20
1.7155669291338584
 30
0.0
 10
-0.1710866141732284
 20
1.7155669291338584
 30
0.0
 10
-0.163492125984252
 20
0.9635039370078741
 30
0.0
 10
-0.163492125984252
 20
0.9635039370078741
 30
0.0
 10
-0.163492125984252
 20
0.9635039370078741
 30
0.0
 10
-0.163492125984252
 20
0.9635039370078741
 30
0.0
 10
-0.1348385826771654
 20
0.9448188976377954
 30
0.0
 10
-0.1348385826771654
 20
0.9448188976377954
 30
0.0
  0
SPLINE
  5
65
100
AcDbEntity
  8
Layer 1
 62
     9
100
AcDbSpline
210
0.0
220
0.0
230
1.0
 70
     1
 71
     3
 72
    20
 73
    16
 74
     0
 42
0.0000000001
 43
0.0000000001
 40
0.0
 40
0.0
 40
0.0
 40
0.0
 40
0.25
 40
0.25
 40
0.25
 40
0.25
 40
0.5
 40
0.5
 40
0.5
 40
0.5
 40
0.75
 40
0.75
 40
0.75
 40
0.75
 40
1.0
 40
1.0
 40
1.0
 40
1.0
 10
-0.163492125984252
 20
0.9635039370078741
 30
0.0
 10
-0.163492125984252
 20
0.9635039370078741
 30
0.0
 10
-0.1710866141732284
 20
1.7155669291338584
 30
0.0
 10
-0.1710866141732284
 20
1.7155669291338584
 30
0.0
 10
-0.1710866141732284
 20
1.7155669291338584
 30
0.0
 10
-0.1710866141732284
 20
1.7155669291338584
 30
0.0
 10
-0.1995551181102362
 20
1.7360748031496063
 30
0.0
 10
-0.1995551181102362
 20
1.7360748031496063
 30
0.0
 10
-0.1995551181102362
 20
1.7360748031496063
 30
0.0
 10
-0.1995551181102362
 20
1.7360748031496063
 30
0.0
 10
-0.1919606299212598
 20
0.9840118110236221
 30
0.0
 10
-0.1919606299212598
 20
0.9840118110236221
 30
0.0
 10
-0.1919606299212598
 20
0.9840118110236221
 30
0.0
 10
-0.1919606299212598
 20
0.9840118110236221
 30
0.0
 10
-0.163492125984252
 20
0.9635039370078741
 30
0.0
 10
-0.163492125984252
 20
0.9635039370078741
 30
0.0
  0
SPLINE
  5
66
100
AcDbEntity
  8
Layer 1
 62
     9
100
AcDbSpline
210
0.0
220
0.0
230
1.0
 70
     1
 71
     3
 72
    20
 73
    16
 74
     0
 42
0.0000000001
 43
0.0000000001
 40
0.0
 40
0.0
 40
0.0
 40
0.0
 40
0.25
 40
0.25
 40
0.25
 40
0.25
 40
0.5
 40
0.5
 40
0.5
 40
0.5
 40
0.75
 40
0.75
 40
0.75
 40
0.75
 40
1.0
 40
1.0
 40
1.0
 40
1.0
 10
-0.1919606299212598
 20
0.9840118110236221
 30
0.0
 10
-0.1919606299212598
 20
0.9840118110236221
 30
0.0
 10
-0.1995551181102362
 20
1.7360748031496063
 30
0.0
 10
-0.1995551181102362
 20
1.7360748031496063
 30
0.0
 10
-0.1995551181102362
 20
1.7360748031496063
 30
0.0
 10
-0.1995551181102362
 20
1.7360748031496063
 30
0.0
 10
-0.2278425196850394
 20
1.758472440944882
 30
0.0
 10
-0.2278425196850394
 20
1.758472440944882
 30
0.0
 10
-0.2278425196850394
 20
1.758472440944882
 30
0.0
 10
-0.2278425196850394
 20
1.758472440944882
 30
0.0
 10
-0.220248031496063
 20
1.0064094488188977
 30
0.0
 10
-0.220248031496063
 20
1.0064094488188977
 30
0.0
 10
-0.220248031496063
 20
1.0064094488188977
 30
0.0
 10
-0.220248031496063
 20
1.0064094488188977
 30
0.0
 10
-0.1919606299212598
 20
0.9840118110236221
 30
0.0
 10
-0.1919606299212598
 20
0.9840118110236221
 30
0.0
  0
SPLINE
  5
67
100
AcDbEntity
  8
Layer 1
 62
     9
100
AcDbSpline
210
0.0
220
0.0
230
1.0
 70
     1
 71
     3
 72
    20
 73
    16
 74
     0
 42
0.0000000001
 43
0.0000000001
 40
0.0
 40
0.0
 40
0.0
 40
0.0
 40
0.25
 40
0.25
 40
0.25
 40
0.25
 40
0.5
 40
0.5
 40
0.5
 40
0.5
 40
0.75
 40
0.75
 40
0.75
 40
0.75
 40
1.0
 40
1.0
 40
1.0
 40
1.0
 10
-0.220248031496063
 20
1.0064094488188977
 30
0.0
 10
-0.220248031496063
 20
1.0064094488188977
 30
0.0
 10
-0.2278425196850394
 20
1.758472440944882
 30
0.0
 10
-0.2278425196850394
 20
1.758472440944882
 30
0.0
 10
-0.2278425196850394
 20
1.758472440944882
 30
0.0
 10
-0.2278425196850394
 20
1.758472440944882
 30
0.0
 10
-0.2559409448818898
 20
1.7827952755905512
 30
0.0
 10
-0.2559409448818898
 20
1.7827952755905512
 30
0.0
 10
-0.2559409448818898
 20
1.7827952755905512
 30
0.0
 10
-0.2559409448818898
 20
1.7827952755905512
 30
0.0
 10
-0.2483464566929134
 20
1.0307322834645669
 30
0.0
 10
-0.2483464566929134
 20
1.0307322834645669
 30
0.0
 10
-0.2483464566929134
 20
1.0307322834645669
 30
0.0
 10
-0.2483464566929134
 20
1.0307322834645669
 30
0.0
 10
-0.220248031496063
 20
1.0064094488188977
 30
0.0
 10
-0.220248031496063
 20
1.0064094488188977
 30
0.0
  0
SPLINE
  5
68
100
AcDbEntity
  8
Layer 1
 62
     9
100
AcDbSpline
210
0.0
220
0.0
230
1.0
 70
     1
 71
     3
 72
    20
 73
    16
 74
     0
 42
0.0000000001
 43
0.0000000001
 40
0.0
 40
0.0
 40
0.0
 40
0.0
 40
0.25
 40
0.25
 40
0.25
 40
0.25
 40
0.5
 40
0.5
 40
0.5
 40
0.5
 40
0.75
 40
0.75
 40
0.75
 40
0.75
 40
1.0
 40
1.0
 40
1.0
 40
1.0
 10
-0.2483464566929134
 20
1.0307322834645669
 30
0.0
 10
-0.2483464566929134
 20
1.0307322834645669
 30
0.0
 10
-0.2559409448818898
 20
1.7827952755905512
 30
0.0
 10
-0.2559409448818898
 20
1.7827952755905512
 30
0.0
 10
-0.2559409448818898
 20
1.7827952755905512
 30
0.0
 10
-0.2559409448818898
 20
1.7827952755905512
 30
0.0
 10
-0.2838622047244095
 20
1.8091062992125986
 30
0.0
 10
-0.2838622047244095
 20
1.8091062992125986
 30
0.0
 10
-0.2838622047244095
 20
1.8091062992125986
 30
0.0
 10
-0.2838622047244095
 20
1.8091062992125986
 30
0.0
 10
-0.2762677165354331
 20
1.0570433070866143
 30
0.0
 10
-0.2762677165354331
 20
1.0570433070866143
 30
0.0
 10
-0.2762677165354331
 20
1.0570433070866143
 30
0.0
 10
-0.2762677165354331
 20
1.0570433070866143
 30
0.0
 10
-0.2483464566929134
 20
1.0307322834645669
 30
0.0
 10
-0.2483464566929134
 20
1.0307322834645669
 30
0.0
  0
SPLINE
  5
69
100
AcDbEntity
  8
Layer 1
370
     5
100
AcDbSpline
210
0.0
220
0.0
230
1.0
 70
     1
 71
     3
 72
   268
 73
   264
 74
     0
 42
0.0000000001
 43
0.0000000001
 40
0.0
 40
0.0
 40
0.0
 40
0.0
 40
0.0151515151515152
 40
0.0151515151515152
 40
0.0151515151515152
 40
0.0151515151515152
 40
0.0303030303030303
 40
0.0303030303030303
 40
0.0303030303030303
 40
0.0303030303030303
 40
0.0454545454545455
 40
0.0454545454545455
 40
0.0454545454545455
 40
0.0454545454545455
 40
0.0606060606060606
 40
0.0606060606060606
 40
0.0606060606060606
 40
0.0606060606060606
 40
0.0757575757575758
 40
0.0757575757575758
 40
0.0757575757575758
 40
0.0757575757575758
 40
0.0909090909090909
 40
0.0909090909090909
 40
0.0909090909090909
 40
0.0909090909090909
 40
0.1060606060606061
 40
0.1060606060606061
 40
0.1060606060606061
 40
0.1060606060606061
 40
0.1212121212121212
 40
0.1212121212121212
 40
0.1212121212121212
 40
0.1212121212121212
 40
0.1363636363636364
 40
0.1363636363636364
 40
0.1363636363636364
 40
0.1363636363636364
 40
0.1515151515151515
 40
0.1515151515151515
 40
0.1515151515151515
 40
0.1515151515151515
 40
0.1666666666666666
 40
0.1666666666666666
 40
0.1666666666666666
 40
0.1666666666666666
 40
0.1818181818181818
 40
0.1818181818181818
 40
0.1818181818181818
 40
0.1818181818181818
 40
0.1969696969696969
 40
0.1969696969696969
 40
0.1969696969696969
 40
0.1969696969696969
 40
0.212121212121212
 40
0.212121212121212
 40
0.212121212121212
 40
0.212121212121212
 40
0.2272727272727272
 40
0.2272727272727272
 40
0.2272727272727272
 40
0.2272727272727272
 40
0.2424242424242423
 40
0.2424242424242423
 40
0.2424242424242423
 40
0.2424242424242423
 40
0.2575757575757575
 40
0.2575757575757575
 40
0.2575757575757575
 40
0.2575757575757575
 40
0.2727272727272726
 40
0.2727272727272726
 40
0.2727272727272726
 40
0.2727272727272726
 40
0.2878787878787877
 40
0.2878787878787877
 40
0.2878787878787877
 40
0.2878787878787877
 40
0.3030303030303029
 40
0.3030303030303029
 40
0.3030303030303029
 40
0.3030303030303029
 40
0.318181818181818
 40
0.318181818181818
 40
0.318181818181818
 40
0.318181818181818
 40
0.3333333333333332
 40
0.3333333333333332
 40
0.3333333333333332
 40
0.3333333333333332
 40
0.3484848484848483
 40
0.3484848484848483
 40
0.3484848484848483
 40
0.3484848484848483
 40
0.3636363636363634
 40
0.3636363636363634
 40
0.3636363636363634
 40
0.3636363636363634
 40
0.3787878787878786
 40
0.3787878787878786
 40
0.3787878787878786
 40
0.3787878787878786
 40
0.3939393939393937
 40
0.3939393939393937
 40
0.3939393939393937
 40
0.3939393939393937
 40
0.4090909090909088
 40
0.4090909090909088
 40
0.4090909090909088
 40
0.4090909090909088
 40
0.424242424242424
 40
0.424242424242424
 40
0.424242424242424
 40
0.424242424242424
 40
0.4393939393939391
 40
0.4393939393939391
 40
0.4393939393939391
 40
0.4393939393939391
 40
0.4545454545454543
 40
0.4545454545454543
 40
0.4545454545454543
 40
0.4545454545454543
 40
0.4696969696969694
 40
0.4696969696969694
 40
0.4696969696969694
 40
0.4696969696969694
 40
0.4848484848484845
 40
0.4848484848484845
 40
0.4848484848484845
 40
0.4848484848484845
 40
0.4999999999999997
 40
0.4999999999999997
 40
0.4999999999999997
 40
0.4999999999999997
 40
0.5151515151515148
 40
0.5151515151515148
 40
0.5151515151515148
 40
0.5151515151515148
 40
0.5303030303030299
 40
0.5303030303030299
 40
0.5303030303030299
 40
0.5303030303030299
 40
0.5454545454545451
 40
0.5454545454545451
 40
0.5454545454545451
 40
0.5454545454545451
 40
0.5606060606060602
 40
0.5606060606060602
 40
0.5606060606060602
 40
0.5606060606060602
 40
0.5757575757575754
 40
0.5757575757575754
 40
0.5757575757575754
 40
0.5757575757575754
 40
0.5909090909090905
 40
0.5909090909090905
 40
0.5909090909090905
 40
0.5909090909090905
 40
0.6060606060606056
 40
0.6060606060606056
 40
0.6060606060606056
 40
0.6060606060606056
 40
0.6212121212121208
 40
0.6212121212121208
 40
0.6212121212121208
 40
0.6212121212121208
 40
0.6363636363636359
 40
0.6363636363636359
 40
0.6363636363636359
 40
0.6363636363636359
 40
0.6515151515151511
 40
0.6515151515151511
 40
0.6515151515151511
 40
0.6515151515151511
 40
0.6666666666666662
 40
0.6666666666666662
 40
0.6666666666666662
 40
0.6666666666666662
 40
0.6818181818181813
 40
0.6818181818181813
 40
0.6818181818181813
 40
0.6818181818181813
 40
0.6969696969696965
 40
0.6969696969696965
 40
0.6969696969696965
 40
0.6969696969696965
 40
0.7121212121212116
 40
0.7121212121212116
 40
0.7121212121212116
 40
0.7121212121212116
 40
0.7272727272727267
 40
0.7272727272727267
 40
0.7272727272727267
 40
0.7272727272727267
 40
0.7424242424242419
 40
0.7424242424242419
 40
0.7424242424242419
 40
0.7424242424242419
 40
0.757575757575757
 40
0.757575757575757
 40
0.757575757575757
 40
0.757575757575757
 40
0.7727272727272722
 40
0.7727272727272722
 40
0.7727272727272722
 40
0.7727272727272722
 40
0.7878787878787873
 40
0.7878787878787873
 40
0.7878787878787873
 40
0.7878787878787873
 40
0.8030303030303024
 40
0.8030303030303024
 40
0.8030303030303024
 40
0.8030303030303024
 40
0.8181818181818176
 40
0.8181818181818176
 40
0.8181818181818176
 40
0.8181818181818176
 40
0.8333333333333327
 40
0.8333333333333327
 40
0.8333333333333327
 40
0.8333333333333327
 40
0.8484848484848478
 40
0.8484848484848478
 40
0.8484848484848478
 40
0.8484848484848478
 40
0.863636363636363
 40
0.863636363636363
 40
0.863636363636363
 40
0.863636363636363
 40
0.8787878787878781
 40
0.8787878787878781
 40
0.8787878787878781
 40
0.8787878787878781
 40
0.8939393939393933
 40
0.8939393939393933
 40
0.8939393939393933
 40
0.8939393939393933
 40
0.9090909090909084
 40
0.9090909090909084
 40
0.9090909090909084
 40
0.9090909090909084
 40
0.9242424242424235
 40
0.9242424242424235
 40
0.9242424242424235
 40
0.9242424242424235
 40
0.9393939393939387
 40
0.9393939393939387
 40
0.9393939393939387
 40
0.9393939393939387
 40
0.9545454545454538
 40
0.9545454545454538
 40
0.9545454545454538
 40
0.9545454545454538
 40
0.969696969696969
 40
0.969696969696969
 40
0.969696969696969
 40
0.969696969696969
 40
0.9848484848484841
 40
0.9848484848484841
 40
0.9848484848484841
 40
0.9848484848484841
 40
1.0
 40
1.0
 40
1.0
 40
1.0
 10
0.6913307086614173
 20
0.9491692913385827
 30
0.0
 10
0.6913307086614173
 20
0.9491692913385827
 30
0.0
 10
0.683736220472441
 20
1.701232283464567
 30
0.0
 10
0.683736220472441
 20
1.701232283464567
 30
0.0
 10
0.683736220472441
 20
1.701232283464567
 30
0.0
 10
0.683736220472441
 20
1.701232283464567
 30
0.0
 10
0.6517874015748032
 20
1.6894527559055119
 30
0.0
 10
0.6517874015748032
 20
1.6894527559055119
 30
0.0
 10
0.6517874015748032
 20
1.6894527559055119
 30
0.0
 10
0.6517874015748032
 20
1.6894527559055119
 30
0.0
 10
0.6199133858267717
 20
1.6781574803149606
 30
0.0
 10
0.6199133858267717
 20
1.6781574803149606
 30
0.0
 10
0.6199133858267717
 20
1.6781574803149606
 30
0.0
 10
0.6199133858267717
 20
1.6781574803149606
 30
0.0
 10
0.5881102362204724
 20
1.6673818897637795
 30
0.0
 10
0.5881102362204724
 20
1.6673818897637795
 30
0.0
 10
0.5881102362204724
 20
1.6673818897637795
 30
0.0
 10
0.5881102362204724
 20
1.6673818897637795
 30
0.0
 10
0.5563897637795275
 20
1.6571889763779528
 30
0.0
 10
0.5563897637795275
 20
1.6571889763779528
 30
0.0
 10
0.5563897637795275
 20
1.6571889763779528
 30
0.0
 10
0.5563897637795275
 20
1.6571889763779528
 30
0.0
 10
0.524744094488189
 20
1.6476102362204725
 30
0.0
 10
0.524744094488189
 20
1.6476102362204725
 30
0.0
 10
0.524744094488189
 20
1.6476102362204725
 30
0.0
 10
0.524744094488189
 20
1.6476102362204725
 30
0.0
 10
0.4931929133858268
 20
1.6387125984251969
 30
0.0
 10
0.4931929133858268
 20
1.6387125984251969
 30
0.0
 10
0.4931929133858268
 20
1.6387125984251969
 30
0.0
 10
0.4931929133858268
 20
1.6387125984251969
 30
0.0
 10
0.4617283464566929
 20
1.6305393700787403
 30
0.0
 10
0.4617283464566929
 20
1.6305393700787403
 30
0.0
 10
0.4617283464566929
 20
1.6305393700787403
 30
0.0
 10
0.4617283464566929
 20
1.6305393700787403
 30
0.0
 10
0.4303661417322835
 20
1.6231496062992126
 30
0.0
 10
0.4303661417322835
 20
1.6231496062992126
 30
0.0
 10
0.4303661417322835
 20
1.6231496062992126
 30
0.0
 10
0.4303661417322835
 20
1.6231496062992126
 30
0.0
 10
0.3990905511811024
 20
1.6165748031496063
 30
0.0
 10
0.3990905511811024
 20
1.6165748031496063
 30
0.0
 10
0.3990905511811024
 20
1.6165748031496063
 30
0.0
 10
0.3990905511811024
 20
1.6165748031496063
 30
0.0
 10
0.3679251968503937
 20
1.6108779527559056
 30
0.0
 10
0.3679251968503937
 20
1.6108779527559056
 30
0.0
 10
0.3679251968503937
 20
1.6108779527559056
 30
0.0
 10
0.3679251968503937
 20
1.6108779527559056
 30
0.0
 10
0.3368582677165354
 20
1.6061102362204724
 30
0.0
 10
0.3368582677165354
 20
1.6061102362204724
 30
0.0
 10
0.3368582677165354
 20
1.6061102362204724
 30
0.0
 10
0.3368582677165354
 20
1.6061102362204724
 30
0.0
 10
0.3059133858267717
 20
1.6023228346456693
 30
0.0
 10
0.3059133858267717
 20
1.6023228346456693
 30
0.0
 10
0.3059133858267717
 20
1.6023228346456693
 30
0.0
 10
0.3059133858267717
 20
1.6023228346456693
 30
0.0
 10
0.2750748031496063
 20
1.5995551181102363
 30
0.0
 10
0.2750748031496063
 20
1.5995551181102363
 30
0.0
 10
0.2750748031496063
 20
1.5995551181102363
 30
0.0
 10
0.2750748031496063
 20
1.5995551181102363
 30
0.0
 10
0.2443543307086614
 20
1.5978700787401576
 30
0.0
 10
0.2443543307086614
 20
1.5978700787401576
 30
0.0
 10
0.2443543307086614
 20
1.5978700787401576
 30
0.0
 10
0.2443543307086614
 20
1.5978700787401576
 30
0.0
 10
0.213755905511811
 20
1.5973110236220474
 30
0.0
 10
0.213755905511811
 20
1.5973110236220474
 30
0.0
 10
0.213755905511811
 20
1.5973110236220474
 30
0.0
 10
0.213755905511811
 20
1.5973110236220474
 30
0.0
 10
0.1832874015748032
 20
1.5979370078740158
 30
0.0
 10
0.1832874015748032
 20
1.5979370078740158
 30
0.0
 10
0.1832874015748032
 20
1.5979370078740158
 30
0.0
 10
0.1832874015748032
 20
1.5979370078740158
 30
0.0
 10
0.1529409448818898
 20
1.5997795275590552
 30
0.0
 10
0.1529409448818898
 20
1.5997795275590552
 30
0.0
 10
0.1529409448818898
 20
1.5997795275590552
 30
0.0
 10
0.1529409448818898
 20
1.5997795275590552
 30
0.0
 10
0.122736220472441
 20
1.6029055118110236
 30
0.0
 10
0.122736220472441
 20
1.6029055118110236
 30
0.0
 10
0.122736220472441
 20
1.6029055118110236
 30
0.0
 10
0.122736220472441
 20
1.6029055118110236
 30
0.0
 10
0.0926653543307087
 20
1.6073622047244096
 30
0.0
 10
0.0926653543307087
 20
1.6073622047244096
 30
0.0
 10
0.0926653543307087
 20
1.6073622047244096
 30
0.0
 10
0.0926653543307087
 20
1.6073622047244096
 30
0.0
 10
0.062740157480315
 20
1.6132007874015748
 30
0.0
 10
0.062740157480315
 20
1.6132007874015748
 30
0.0
 10
0.062740157480315
 20
1.6132007874015748
 30
0.0
 10
0.062740157480315
 20
1.6132007874015748
 30
0.0
 10
0.0329645669291339
 20
1.6204606299212598
 30
0.0
 10
0.0329645669291339
 20
1.6204606299212598
 30
0.0
 10
0.0329645669291339
 20
1.6204606299212598
 30
0.0
 10
0.0329645669291339
 20
1.6204606299212598
 30
0.0
 10
0.0033346456692913
 20
1.6292086614173229
 30
0.0
 10
0.0033346456692913
 20
1.6292086614173229
 30
0.0
 10
0.0033346456692913
 20
1.6292086614173229
 30
0.0
 10
0.0033346456692913
 20
1.6292086614173229
 30
0.0
 10
-0.0261417322834646
 20
1.6394803149606301
 30
0.0
 10
-0.0261417322834646
 20
1.6394803149606301
 30
0.0
 10
-0.0261417322834646
 20
1.6394803149606301
 30
0.0
 10
-0.0261417322834646
 20
1.6394803149606301
 30
0.0
 10
-0.0554685039370079
 20
1.6513385826771654
 30
0.0
 10
-0.0554685039370079
 20
1.6513385826771654
 30
0.0
 10
-0.0554685039370079
 20
1.6513385826771654
 30
0.0
 10
-0.0554685039370079
 20
1.6513385826771654
 30
0.0
 10
-0.0846181102362205
 20
1.6648228346456693
 30
0.0
 10
-0.0846181102362205
 20
1.6648228346456693
 30
0.0
 10
-0.0846181102362205
 20
1.6648228346456693
 30
0.0
 10
-0.0846181102362205
 20
1.6648228346456693
 30
0.0
 10
-0.1136141732283465
 20
1.6799881889763779
 30
0.0
 10
-0.1136141732283465
 20
1.6799881889763779
 30
0.0
 10
-0.1136141732283465
 20
1.6799881889763779
 30
0.0
 10
-0.1136141732283465
 20
1.6799881889763779
 30
0.0
 10
-0.1424330708661417
 20
1.6968818897637796
 30
0.0
 10
-0.1424330708661417
 20
1.6968818897637796
 30
0.0
 10
-0.1424330708661417
 20
1.6968818897637796
 30
0.0
 10
-0.1424330708661417
 20
1.6968818897637796
 30
0.0
 10
-0.1710866141732284
 20
1.7155669291338584
 30
0.0
 10
-0.1710866141732284
 20
1.7155669291338584
 30
0.0
 10
-0.1710866141732284
 20
1.7155669291338584
 30
0.0
 10
-0.1710866141732284
 20
1.7155669291338584
 30
0.0
 10
-0.1995551181102362
 20
1.7360748031496063
 30
0.0
 10
-0.1995551181102362
 20
1.7360748031496063
 30
0.0
 10
-0.1995551181102362
 20
1.7360748031496063
 30
0.0
 10
-0.1995551181102362
 20
1.7360748031496063
 30
0.0
 10
-0.2278425196850394
 20
1.758472440944882
 30
0.0
 10
-0.2278425196850394
 20
1.758472440944882
 30
0.0
 10
-0.2278425196850394
 20
1.758472440944882
 30
0.0
 10
-0.2278425196850394
 20
1.758472440944882
 30
0.0
 10
-0.2559409448818898
 20
1.7827952755905512
 30
0.0
 10
-0.2559409448818898
 20
1.7827952755905512
 30
0.0
 10
-0.2559409448818898
 20
1.7827952755905512
 30
0.0
 10
-0.2559409448818898
 20
1.7827952755905512
 30
0.0
 10
-0.2838622047244095
 20
1.8091062992125986
 30
0.0
 10
-0.2838622047244095
 20
1.8091062992125986
 30
0.0
 10
-0.2838622047244095
 20
1.8091062992125986
 30
0.0
 10
-0.2838622047244095
 20
1.8091062992125986
 30
0.0
 10
-0.2762677165354331
 20
1.0570433070866143
 30
0.0
 10
-0.2762677165354331
 20
1.0570433070866143
 30
0.0
 10
-0.2762677165354331
 20
1.0570433070866143
 30
0.0
 10
-0.2762677165354331
 20
1.0570433070866143
 30
0.0
 10
-0.2483464566929134
 20
1.0307322834645669
 30
0.0
 10
-0.2483464566929134
 20
1.0307322834645669
 30
0.0
 10
-0.2483464566929134
 20
1.0307322834645669
 30
0.0
 10
-0.2483464566929134
 20
1.0307322834645669
 30
0.0
 10
-0.220248031496063
 20
1.0064094488188977
 30
0.0
 10
-0.220248031496063
 20
1.0064094488188977
 30
0.0
 10
-0.220248031496063
 20
1.0064094488188977
 30
0.0
 10
-0.220248031496063
 20
1.0064094488188977
 30
0.0
 10
-0.1919606299212598
 20
0.9840118110236221
 30
0.0
 10
-0.1919606299212598
 20
0.9840118110236221
 30
0.0
 10
-0.1919606299212598
 20
0.9840118110236221
 30
0.0
 10
-0.1919606299212598
 20
0.9840118110236221
 30
0.0
 10
-0.163492125984252
 20
0.9635039370078741
 30
0.0
 10
-0.163492125984252
 20
0.9635039370078741
 30
0.0
 10
-0.163492125984252
 20
0.9635039370078741
 30
0.0
 10
-0.163492125984252
 20
0.9635039370078741
 30
0.0
 10
-0.1348385826771654
 20
0.9448188976377954
 30
0.0
 10
-0.1348385826771654
 20
0.9448188976377954
 30
0.0
 10
-0.1348385826771654
 20
0.9448188976377954
 30
0.0
 10
-0.1348385826771654
 20
0.9448188976377954
 30
0.0
 10
-0.1060196850393701
 20
0.9279251968503938
 30
0.0
 10
-0.1060196850393701
 20
0.9279251968503938
 30
0.0
 10
-0.1060196850393701
 20
0.9279251968503938
 30
0.0
 10
-0.1060196850393701
 20
0.9279251968503938
 30
0.0
 10
-0.0770236220472441
 20
0.9127598425196851
 30
0.0
 10
-0.0770236220472441
 20
0.9127598425196851
 30
0.0
 10
-0.0770236220472441
 20
0.9127598425196851
 30
0.0
 10
-0.0770236220472441
 20
0.9127598425196851
 30
0.0
 10
-0.0478740157480315
 20
0.8992755905511811
 30
0.0
 10
-0.0478740157480315
 20
0.8992755905511811
 30
0.0
 10
-0.0478740157480315
 20
0.8992755905511811
 30
0.0
 10
-0.0478740157480315
 20
0.8992755905511811
 30
0.0
 10
-0.0185472440944882
 20
0.8874173228346457
 30
0.0
 10
-0.0185472440944882
 20
0.8874173228346457
 30
0.0
 10
-0.0185472440944882
 20
0.8874173228346457
 30
0.0
 10
-0.0185472440944882
 20
0.8874173228346457
 30
0.0
 10
0.0109291338582677
 20
0.8771456692913386
 30
0.0
 10
0.0109291338582677
 20
0.8771456692913386
 30
0.0
 10
0.0109291338582677
 20
0.8771456692913386
 30
0.0
 10
0.0109291338582677
 20
0.8771456692913386
 30
0.0
 10
0.0405590551181102
 20
0.8683976377952757
 30
0.0
 10
0.0405590551181102
 20
0.8683976377952757
 30
0.0
 10
0.0405590551181102
 20
0.8683976377952757
 30
0.0
 10
0.0405590551181102
 20
0.8683976377952757
 30
0.0
 10
0.0703346456692913
 20
0.8611377952755905
 30
0.0
 10
0.0703346456692913
 20
0.8611377952755905
 30
0.0
 10
0.0703346456692913
 20
0.8611377952755905
 30
0.0
 10
0.0703346456692913
 20
0.8611377952755905
 30
0.0
 10
0.1002598425196851
 20
0.8552992125984252
 30
0.0
 10
0.1002598425196851
 20
0.8552992125984252
 30
0.0
 10
0.1002598425196851
 20
0.8552992125984252
 30
0.0
 10
0.1002598425196851
 20
0.8552992125984252
 30
0.0
 10
0.1303307086614173
 20
0.8508425196850394
 30
0.0
 10
0.1303307086614173
 20
0.8508425196850394
 30
0.0
 10
0.1303307086614173
 20
0.8508425196850394
 30
0.0
 10
0.1303307086614173
 20
0.8508425196850394
 30
0.0
 10
0.1605354330708662
 20
0.8477165354330709
 30
0.0
 10
0.1605354330708662
 20
0.8477165354330709
 30
0.0
 10
0.1605354330708662
 20
0.8477165354330709
 30
0.0
 10
0.1605354330708662
 20
0.8477165354330709
 30
0.0
 10
0.1908818897637795
 20
0.8458740157480316
 30
0.0
 10
0.1908818897637795
 20
0.8458740157480316
 30
0.0
 10
0.1908818897637795
 20
0.8458740157480316
 30
0.0
 10
0.1908818897637795
 20
0.8458740157480316
 30
0.0
 10
0.2213503937007874
 20
0.845248031496063
 30
0.0
 10
0.2213503937007874
 20
0.845248031496063
 30
0.0
 10
0.2213503937007874
 20
0.845248031496063
 30
0.0
 10
0.2213503937007874
 20
0.845248031496063
 30
0.0
 10
0.2519488188976378
 20
0.8458070866141733
 30
0.0
 10
0.2519488188976378
 20
0.8458070866141733
 30
0.0
 10
0.2519488188976378
 20
0.8458070866141733
 30
0.0
 10
0.2519488188976378
 20
0.8458070866141733
 30
0.0
 10
0.2826692913385827
 20
0.8474921259842521
 30
0.0
 10
0.2826692913385827
 20
0.8474921259842521
 30
0.0
 10
0.2826692913385827
 20
0.8474921259842521
 30
0.0
 10
0.2826692913385827
 20
0.8474921259842521
 30
0.0
 10
0.313507874015748
 20
0.8502598425196851
 30
0.0
 10
0.313507874015748
 20
0.8502598425196851
 30
0.0
 10
0.313507874015748
 20
0.8502598425196851
 30
0.0
 10
0.313507874015748
 20
0.8502598425196851
 30
0.0
 10
0.3444527559055118
 20
0.8540472440944882
 30
0.0
 10
0.3444527559055118
 20
0.8540472440944882
 30
0.0
 10
0.3444527559055118
 20
0.8540472440944882
 30
0.0
 10
0.3444527559055118
 20
0.8540472440944882
 30
0.0
 10
0.3755196850393701
 20
0.8588149606299212
 30
0.0
 10
0.3755196850393701
 20
0.8588149606299212
 30
0.0
 10
0.3755196850393701
 20
0.8588149606299212
 30
0.0
 10
0.3755196850393701
 20
0.8588149606299212
 30
0.0
 10
0.4066850393700788
 20
0.8645118110236221
 30
0.0
 10
0.4066850393700788
 20
0.8645118110236221
 30
0.0
 10
0.4066850393700788
 20
0.8645118110236221
 30
0.0
 10
0.4066850393700788
 20
0.8645118110236221
 30
0.0
 10
0.4379606299212598
 20
0.8710866141732284
 30
0.0
 10
0.4379606299212598
 20
0.8710866141732284
 30
0.0
 10
0.4379606299212598
 20
0.8710866141732284
 30
0.0
 10
0.4379606299212598
 20
0.8710866141732284
 30
0.0
 10
0.4693228346456693
 20
0.8784763779527559
 30
0.0
 10
0.4693228346456693
 20
0.8784763779527559
 30
0.0
 10
0.4693228346456693
 20
0.8784763779527559
 30
0.0
 10
0.4693228346456693
 20
0.8784763779527559
 30
0.0
 10
0.5007874015748032
 20
0.8866496062992126
 30
0.0
 10
0.5007874015748032
 20
0.8866496062992126
 30
0.0
 10
0.5007874015748032
 20
0.8866496062992126
 30
0.0
 10
0.5007874015748032
 20
0.8866496062992126
 30
0.0
 10
0.5323385826771654
 20
0.8955472440944883
 30
0.0
 10
0.5323385826771654
 20
0.8955472440944883
 30
0.0
 10
0.5323385826771654
 20
0.8955472440944883
 30
0.0
 10
0.5323385826771654
 20
0.8955472440944883
 30
0.0
 10
0.563984251968504
 20
0.9051259842519686
 30
0.0
 10
0.563984251968504
 20
0.9051259842519686
 30
0.0
 10
0.563984251968504
 20
0.9051259842519686
 30
0.0
 10
0.563984251968504
 20
0.9051259842519686
 30
0.0
 10
0.5957047244094489
 20
0.9153188976377953
 30
0.0
 10
0.5957047244094489
 20
0.9153188976377953
 30
0.0
 10
0.5957047244094489
 20
0.9153188976377953
 30
0.0
 10
0.5957047244094489
 20
0.9153188976377953
 30
0.0
 10
0.627507874015748
 20
0.9260944881889764
 30
0.0
 10
0.627507874015748
 20
0.9260944881889764
 30
0.0
 10
0.627507874015748
 20
0.9260944881889764
 30
0.0
 10
0.627507874015748
 20
0.9260944881889764
 30
0.0
 10
0.6593818897637795
 20
0.9373897637795275
 30
0.0
 10
0.6593818897637795
 20
0.9373897637795275
 30
0.0
 10
0.6593818897637795
 20
0.9373897637795275
 30
0.0
 10
0.6593818897637795
 20
0.9373897637795275
 30
0.0
 10
0.6913307086614173
 20
0.9491692913385827
 30
0.0
 10
0.6913307086614173
 20
0.9491692913385827
 30
0.0
  0
SPLINE
  5
6A
100
AcDbEntity
  8
Layer 1
 62
   253
100
AcDbSpline
210
0.0
220
0.0
230
1.0
 70
     1
 71
     3
 72
    20
 73
    16
 74
     0
 42
0.0000000001
 43
0.0000000001
 40
0.0
 40
0.0
 40
0.0
 40
0.0
 40
0.25
 40
0.25
 40
0.25
 40
0.25
 40
0.5
 40
0.5
 40
0.5
 40
0.5
 40
0.75
 40
0.75
 40
0.75
 40
0.75
 40
1.0
 40
1.0
 40
1.0
 40
1.0
 10
-0.2762677165354331
 20
1.0570433070866143
 30
0.0
 10
-0.2762677165354331
 20
1.0570433070866143
 30
0.0
 10
-0.2838622047244095
 20
1.8091062992125986
 30
0.0
 10
-0.2838622047244095
 20
1.8091062992125986
 30
0.0
 10
-0.2838622047244095
 20
1.8091062992125986
 30
0.0
 10
-0.2838622047244095
 20
1.8091062992125986
 30
0.0
 10
-0.8463622047244095
 20
1.8091062992125986
 30
0.0
 10
-0.8463622047244095
 20
1.8091062992125986
 30
0.0
 10
-0.8463622047244095
 20
1.8091062992125986
 30
0.0
 10
-0.8463622047244095
 20
1.8091062992125986
 30
0.0
 10
-0.8387677165354331
 20
1.0570433070866143
 30
0.0
 10
-0.8387677165354331
 20
1.0570433070866143
 30
0.0
 10
-0.8387677165354331
 20
1.0570433070866143
 30
0.0
 10
-0.8387677165354331
 20
1.0570433070866143
 30
0.0
 10
-0.2762677165354331
 20
1.0570433070866143
 30
0.0
 10
-0.2762677165354331
 20
1.0570433070866143
 30
0.0
  0
SPLINE
  5
6B
100
AcDbEntity
  8
Layer 1
370
     5
100
AcDbSpline
210
0.0
220
0.0
230
1.0
 70
     1
 71
     3
 72
    20
 73
    16
 74
     0
 42
0.0000000001
 43
0.0000000001
 40
0.0
 40
0.0
 40
0.0
 40
0.0
 40
0.25
 40
0.25
 40
0.25
 40
0.25
 40
0.5
 40
0.5
 40
0.5
 40
0.5
 40
0.75
 40
0.75
 40
0.75
 40
0.75
 40
1.0
 40
1.0
 40
1.0
 40
1.0
 10
-0.2762677165354331
 20
1.0570433070866143
 30
0.0
 10
-0.2762677165354331
 20
1.0570433070866143
 30
0.0
 10
-0.2838622047244095
 20
1.8091062992125986
 30
0.0
 10
-0.2838622047244095
 20
1.8091062992125986
 30
0.0
 10
-0.2838622047244095
 20
1.8091062992125986
 30
0.0
 10
-0.2838622047244095
 20
1.8091062992125986
 30
0.0
 10
-0.8463622047244095
 20
1.8091062992125986
 30
0.0
 10
-0.8463622047244095
 20
1.8091062992125986
 30
0.0
 10
-0.8463622047244095
 20
1.8091062992125986
 30
0.0
 10
-0.8463622047244095
 20
1.8091062992125986
 30
0.0
 10
-0.8387677165354331
 20
1.0570433070866143
 30
0.0
 10
-0.8387677165354331
 20
1.0570433070866143
 30
0.0
 10
-0.8387677165354331
 20
1.0570433070866143
 30
0.0
 10
-0.8387677165354331
 20
1.0570433070866143
 30
0.0
 10
-0.2762677165354331
 20
1.0570433070866143
 30
0.0
 10
-0.2762677165354331
 20
1.0570433070866143
 30
0.0
  0
SPLINE
  5
6C
100
AcDbEntity
  8
Layer 1
 62
   253
100
AcDbSpline
210
0.0
220
0.0
230
1.0
 70
     1
 71
     3
 72
    20
 73
    16
 74
     0
 42
0.0000000001
 43
0.0000000001
 40
0.0
 40
0.0
 40
0.0
 40
0.0
 40
0.25
 40
0.25
 40
0.25
 40
0.25
 40
0.5
 40
0.5
 40
0.5
 40
0.5
 40
0.75
 40
0.75
 40
0.75
 40
0.75
 40
1.0
 40
1.0
 40
1.0
 40
1.0
 10
-0.8387677165354331
 20
1.0570433070866143
 30
0.0
 10
-0.8387677165354331
 20
1.0570433070866143
 30
0.0
 10
-0.8463622047244095
 20
1.8091062992125986
 30
0.0
 10
-0.8463622047244095
 20
1.8091062992125986
 30
0.0
 10
-0.8463622047244095
 20
1.8091062992125986
 30
0.0
 10
-0.8463622047244095
 20
1.8091062992125986
 30
0.0
 10
-0.8692755905511811
 20
2.1841062992125986
 30
0.0
 10
-0.8692755905511811
 20
2.1841062992125986
 30
0.0
 10
-0.8692755905511811
 20
2.1841062992125986
 30
0.0
 10
-0.8692755905511811
 20
2.1841062992125986
 30
0.0
 10
-0.8616811023622047
 20
1.4320433070866143
 30
0.0
 10
-0.8616811023622047
 20
1.4320433070866143
 30
0.0
 10
-0.8616811023622047
 20
1.4320433070866143
 30
0.0
 10
-0.8616811023622047
 20
1.4320433070866143
 30
0.0
 10
-0.8387677165354331
 20
1.0570433070866143
 30
0.0
 10
-0.8387677165354331
 20
1.0570433070866143
 30
0.0
  0
SPLINE
  5
6D
100
AcDbEntity
  8
Layer 1
370
     5
100
AcDbSpline
210
0.0
220
0.0
230
1.0
 70
     1
 71
     3
 72
    20
 73
    16
 74
     0
 42
0.0000000001
 43
0.0000000001
 40
0.0
 40
0.0
 40
0.0
 40
0.0
 40
0.25
 40
0.25
 40
0.25
 40
0.25
 40
0.5
 40
0.5
 40
0.5
 40
0.5
 40
0.75
 40
0.75
 40
0.75
 40
0.75
 40
1.0
 40
1.0
 40
1.0
 40
1.0
 10
-0.8387677165354331
 20
1.0570433070866143
 30
0.0
 10
-0.8387677165354331
 20
1.0570433070866143
 30
0.0
 10
-0.8463622047244095
 20
1.8091062992125986
 30
0.0
 10
-0.8463622047244095
 20
1.8091062992125986
 30
0.0
 10
-0.8463622047244095
 20
1.8091062992125986
 30
0.0
 10
-0.8463622047244095
 20
1.8091062992125986
 30
0.0
 10
-0.8692755905511811
 20
2.1841062992125986
 30
0.0
 10
-0.8692755905511811
 20
2.1841062992125986
 30
0.0
 10
-0.8692755905511811
 20
2.1841062992125986
 30
0.0
 10
-0.8692755905511811
 20
2.1841062992125986
 30
0.0
 10
-0.8616811023622047
 20
1.4320433070866143
 30
0.0
 10
-0.8616811023622047
 20
1.4320433070866143
 30
0.0
 10
-0.8616811023622047
 20
1.4320433070866143
 30
0.0
 10
-0.8616811023622047
 20
1.4320433070866143
 30
0.0
 10
-0.8387677165354331
 20
1.0570433070866143
 30
0.0
 10
-0.8387677165354331
 20
1.0570433070866143
 30
0.0
  0
SPLINE
  5
6E
100
AcDbEntity
  8
Layer 1
 62
   253
100
AcDbSpline
210
0.0
220
0.0
230
1.0
 70
     1
 71
     3
 72
    20
 73
    16
 74
     0
 42
0.0000000001
 43
0.0000000001
 40
0.0
 40
0.0
 40
0.0
 40
0.0
 40
0.25
 40
0.25
 40
0.25
 40
0.25
 40
0.5
 40
0.5
 40
0.5
 40
0.5
 40
0.75
 40
0.75
 40
0.75
 40
0.75
 40
1.0
 40
1.0
 40
1.0
 40
1.0
 10
-0.8616811023622047
 20
1.4320433070866143
 30
0.0
 10
-0.8616811023622047
 20
1.4320433070866143
 30
0.0
 10
-0.8692755905511811
 20
2.1841062992125986
 30
0.0
 10
-0.8692755905511811
 20
2.1841062992125986
 30
0.0
 10
-0.8692755905511811
 20
2.1841062992125986
 30
0.0
 10
-0.8692755905511811
 20
2.1841062992125986
 30
0.0
 10
-1.8692755905511811
 20
2.1841062992125986
 30
0.0
 10
-1.8692755905511811
 20
2.1841062992125986
 30
0.0
 10
-1.8692755905511811
 20
2.1841062992125986
 30
0.0
 10
-1.8692755905511811
 20
2.1841062992125986
 30
0.0
 10
-1.8616811023622049
 20
1.4320433070866143
 30
0.0
 10
-1.8616811023622049
 20
1.4320433070866143
 30
0.0
 10
-1.8616811023622049
 20
1.4320433070866143
 30
0.0
 10
-1.8616811023622049
 20
1.4320433070866143
 30
0.0
 10
-0.8616811023622047
 20
1.4320433070866143
 30
0.0
 10
-0.8616811023622047
 20
1.4320433070866143
 30
0.0
  0
SPLINE
  5
6F
100
AcDbEntity
  8
Layer 1
370
     5
100
AcDbSpline
210
0.0
220
0.0
230
1.0
 70
     1
 71
     3
 72
    20
 73
    16
 74
     0
 42
0.0000000001
 43
0.0000000001
 40
0.0
 40
0.0
 40
0.0
 40
0.0
 40
0.25
 40
0.25
 40
0.25
 40
0.25
 40
0.5
 40
0.5
 40
0.5
 40
0.5
 40
0.75
 40
0.75
 40
0.75
 40
0.75
 40
1.0
 40
1.0
 40
1.0
 40
1.0
 10
-0.8616811023622047
 20
1.4320433070866143
 30
0.0
 10
-0.8616811023622047
 20
1.4320433070866143
 30
0.0
 10
-0.8692755905511811
 20
2.1841062992125986
 30
0.0
 10
-0.8692755905511811
 20
2.1841062992125986
 30
0.0
 10
-0.8692755905511811
 20
2.1841062992125986
 30
0.0
 10
-0.8692755905511811
 20
2.1841062992125986
 30
0.0
 10
-1.8692755905511811
 20
2.1841062992125986
 30
0.0
 10
-1.8692755905511811
 20
2.1841062992125986
 30
0.0
 10
-1.8692755905511811
 20
2.1841062992125986
 30
0.0
 10
-1.8692755905511811
 20
2.1841062992125986
 30
0.0
 10
-1.8616811023622049
 20
1.4320433070866143
 30
0.0
 10
-1.8616811023622049
 20
1.4320433070866143
 30
0.0
 10
-1.8616811023622049
 20
1.4320433070866143
 30
0.0
 10
-1.8616811023622049
 20
1.4320433070866143
 30
0.0
 10
-0.8616811023622047
 20
1.4320433070866143
 30
0.0
 10
-0.8616811023622047
 20
1.4320433070866143
 30
0.0
  0
SPLINE
  5
70
100
AcDbEntity
  8
Layer 1
 62
   253
100
AcDbSpline
210
0.0
220
0.0
230
1.0
 70
     1
 71
     3
 72
    20
 73
    16
 74
     0
 42
0.0000000001
 43
0.0000000001
 40
0.0
 40
0.0
 40
0.0
 40
0.0
 40
0.25
 40
0.25
 40
0.25
 40
0.25
 40
0.5
 40
0.5
 40
0.5
 40
0.5
 40
0.75
 40
0.75
 40
0.75
 40
0.75
 40
1.0
 40
1.0
 40
1.0
 40
1.0
 10
1.6371653543307088
 20
0.6808110236220473
 30
0.0
 10
1.6371653543307088
 20
0.6808110236220473
 30
0.0
 10
1.6295708661417323
 20
1.4328740157480315
 30
0.0
 10
1.6295708661417323
 20
1.4328740157480315
 30
0.0
 10
1.6295708661417323
 20
1.4328740157480315
 30
0.0
 10
1.6295708661417323
 20
1.4328740157480315
 30
0.0
 10
1.6249527559055119
 20
1.4759448818897638
 30
0.0
 10
1.6249527559055119
 20
1.4759448818897638
 30
0.0
 10
1.6249527559055119
 20
1.4759448818897638
 30
0.0
 10
1.6249527559055119
 20
1.4759448818897638
 30
0.0
 10
1.6325472440944881
 20
0.7238818897637795
 30
0.0
 10
1.6325472440944881
 20
0.7238818897637795
 30
0.0
 10
1.6325472440944881
 20
0.7238818897637795
 30
0.0
 10
1.6325472440944881
 20
0.7238818897637795
 30
0.0
 10
1.6371653543307088
 20
0.6808110236220473
 30
0.0
 10
1.6371653543307088
 20
0.6808110236220473
 30
0.0
  0
SPLINE
  5
71
100
AcDbEntity
  8
Layer 1
 62
     9
100
AcDbSpline
210
0.0
220
0.0
230
1.0
 70
     1
 71
     3
 72
    20
 73
    16
 74
     0
 42
0.0000000001
 43
0.0000000001
 40
0.0
 40
0.0
 40
0.0
 40
0.0
 40
0.25
 40
0.25
 40
0.25
 40
0.25
 40
0.5
 40
0.5
 40
0.5
 40
0.5
 40
0.75
 40
0.75
 40
0.75
 40
0.75
 40
1.0
 40
1.0
 40
1.0
 40
1.0
 10
1.6325472440944881
 20
0.7238818897637795
 30
0.0
 10
1.6325472440944881
 20
0.7238818897637795
 30
0.0
 10
1.6249527559055119
 20
1.4759448818897638
 30
0.0
 10
1.6249527559055119
 20
1.4759448818897638
 30
0.0
 10
1.6249527559055119
 20
1.4759448818897638
 30
0.0
 10
1.6249527559055119
 20
1.4759448818897638
 30
0.0
 10
1.6170314960629921
 20
1.5157834645669293
 30
0.0
 10
1.6170314960629921
 20
1.5157834645669293
 30
0.0
 10
1.6170314960629921
 20
1.5157834645669293
 30
0.0
 10
1.6170314960629921
 20
1.5157834645669293
 30
0.0
 10
1.6246259842519686
 20
0.7637204724409449
 30
0.0
 10
1.6246259842519686
 20
0.7637204724409449
 30
0.0
 10
1.6246259842519686
 20
0.7637204724409449
 30
0.0
 10
1.6246259842519686
 20
0.7637204724409449
 30
0.0
 10
1.6325472440944881
 20
0.7238818897637795
 30
0.0
 10
1.6325472440944881
 20
0.7238818897637795
 30
0.0
  0
SPLINE
  5
72
100
AcDbEntity
  8
Layer 1
 62
     9
100
AcDbSpline
210
0.0
220
0.0
230
1.0
 70
     1
 71
     3
 72
    20
 73
    16
 74
     0
 42
0.0000000001
 43
0.0000000001
 40
0.0
 40
0.0
 40
0.0
 40
0.0
 40
0.25
 40
0.25
 40
0.25
 40
0.25
 40
0.5
 40
0.5
 40
0.5
 40
0.5
 40
0.75
 40
0.75
 40
0.75
 40
0.75
 40
1.0
 40
1.0
 40
1.0
 40
1.0
 10
1.6246259842519686
 20
0.7637204724409449
 30
0.0
 10
1.6246259842519686
 20
0.7637204724409449
 30
0.0
 10
1.6170314960629921
 20
1.5157834645669293
 30
0.0
 10
1.6170314960629921
 20
1.5157834645669293
 30
0.0
 10
1.6170314960629921
 20
1.5157834645669293
 30
0.0
 10
1.6170314960629921
 20
1.5157834645669293
 30
0.0
 10
1.6059763779527561
 20
1.5525039370078741
 30
0.0
 10
1.6059763779527561
 20
1.5525039370078741
 30
0.0
 10
1.6059763779527561
 20
1.5525039370078741
 30
0.0
 10
1.6059763779527561
 20
1.5525039370078741
 30
0.0
 10
1.6135708661417323
 20
0.8004409448818898
 30
0.0
 10
1.6135708661417323
 20
0.8004409448818898
 30
0.0
 10
1.6135708661417323
 20
0.8004409448818898
 30
0.0
 10
1.6135708661417323
 20
0.8004409448818898
 30
0.0
 10
1.6246259842519686
 20
0.7637204724409449
 30
0.0
 10
1.6246259842519686
 20
0.7637204724409449
 30
0.0
  0
SPLINE
  5
73
100
AcDbEntity
  8
Layer 1
 62
     9
100
AcDbSpline
210
0.0
220
0.0
230
1.0
 70
     1
 71
     3
 72
    20
 73
    16
 74
     0
 42
0.0000000001
 43
0.0000000001
 40
0.0
 40
0.0
 40
0.0
 40
0.0
 40
0.25
 40
0.25
 40
0.25
 40
0.25
 40
0.5
 40
0.5
 40
0.5
 40
0.5
 40
0.75
 40
0.75
 40
0.75
 40
0.75
 40
1.0
 40
1.0
 40
1.0
 40
1.0
 10
1.6135708661417323
 20
0.8004409448818898
 30
0.0
 10
1.6135708661417323
 20
0.8004409448818898
 30
0.0
 10
1.6059763779527561
 20
1.5525039370078741
 30
0.0
 10
1.6059763779527561
 20
1.5525039370078741
 30
0.0
 10
1.6059763779527561
 20
1.5525039370078741
 30
0.0
 10
1.6059763779527561
 20
1.5525039370078741
 30
0.0
 10
1.5919330708661419
 20
1.5861850393700787
 30
0.0
 10
1.5919330708661419
 20
1.5861850393700787
 30
0.0
 10
1.5919330708661419
 20
1.5861850393700787
 30
0.0
 10
1.5919330708661419
 20
1.5861850393700787
 30
0.0
 10
1.5995275590551181
 20
0.8341220472440946
 30
0.0
 10
1.5995275590551181
 20
0.8341220472440946
 30
0.0
 10
1.5995275590551181
 20
0.8341220472440946
 30
0.0
 10
1.5995275590551181
 20
0.8341220472440946
 30
0.0
 10
1.6135708661417323
 20
0.8004409448818898
 30
0.0
 10
1.6135708661417323
 20
0.8004409448818898
 30
0.0
  0
SPLINE
  5
74
100
AcDbEntity
  8
Layer 1
 62
     9
100
AcDbSpline
210
0.0
220
0.0
230
1.0
 70
     1
 71
     3
 72
    20
 73
    16
 74
     0
 42
0.0000000001
 43
0.0000000001
 40
0.0
 40
0.0
 40
0.0
 40
0.0
 40
0.25
 40
0.25
 40
0.25
 40
0.25
 40
0.5
 40
0.5
 40
0.5
 40
0.5
 40
0.75
 40
0.75
 40
0.75
 40
0.75
 40
1.0
 40
1.0
 40
1.0
 40
1.0
 10
1.5995275590551181
 20
0.8341220472440946
 30
0.0
 10
1.5995275590551181
 20
0.8341220472440946
 30
0.0
 10
1.5919330708661419
 20
1.5861850393700787
 30
0.0
 10
1.5919330708661419
 20
1.5861850393700787
 30
0.0
 10
1.5919330708661419
 20
1.5861850393700787
 30
0.0
 10
1.5919330708661419
 20
1.5861850393700787
 30
0.0
 10
1.5750826771653543
 20
1.6169370078740157
 30
0.0
 10
1.5750826771653543
 20
1.6169370078740157
 30
0.0
 10
1.5750826771653543
 20
1.6169370078740157
 30
0.0
 10
1.5750826771653543
 20
1.6169370078740157
 30
0.0
 10
1.5826771653543308
 20
0.8648740157480316
 30
0.0
 10
1.5826771653543308
 20
0.8648740157480316
 30
0.0
 10
1.5826771653543308
 20
0.8648740157480316
 30
0.0
 10
1.5826771653543308
 20
0.8648740157480316
 30
0.0
 10
1.5995275590551181
 20
0.8341220472440946
 30
0.0
 10
1.5995275590551181
 20
0.8341220472440946
 30
0.0
  0
SPLINE
  5
75
100
AcDbEntity
  8
Layer 1
 62
     9
100
AcDbSpline
210
0.0
220
0.0
230
1.0
 70
     1
 71
     3
 72
    20
 73
    16
 74
     0
 42
0.0000000001
 43
0.0000000001
 40
0.0
 40
0.0
 40
0.0
 40
0.0
 40
0.25
 40
0.25
 40
0.25
 40
0.25
 40
0.5
 40
0.5
 40
0.5
 40
0.5
 40
0.75
 40
0.75
 40
0.75
 40
0.75
 40
1.0
 40
1.0
 40
1.0
 40
1.0
 10
1.5826771653543308
 20
0.8648740157480316
 30
0.0
 10
1.5826771653543308
 20
0.8648740157480316
 30
0.0
 10
1.5750826771653543
 20
1.6169370078740157
 30
0.0
 10
1.5750826771653543
 20
1.6169370078740157
 30
0.0
 10
1.5750826771653543
 20
1.6169370078740157
 30
0.0
 10
1.5750826771653543
 20
1.6169370078740157
 30
0.0
 10
1.5555787401574803
 20
1.6448425196850394
 30
0.0
 10
1.5555787401574803
 20
1.6448425196850394
 30
0.0
 10
1.5555787401574803
 20
1.6448425196850394
 30
0.0
 10
1.5555787401574803
 20
1.6448425196850394
 30
0.0
 10
1.5631732283464568
 20
0.8927795275590551
 30
0.0
 10
1.5631732283464568
 20
0.8927795275590551
 30
0.0
 10
1.5631732283464568
 20
0.8927795275590551
 30
0.0
 10
1.5631732283464568
 20
0.8927795275590551
 30
0.0
 10
1.5826771653543308
 20
0.8648740157480316
 30
0.0
 10
1.5826771653543308
 20
0.8648740157480316
 30
0.0
  0
SPLINE
  5
76
100
AcDbEntity
  8
Layer 1
 62
     9
100
AcDbSpline
210
0.0
220
0.0
230
1.0
 70
     1
 71
     3
 72
    20
 73
    16
 74
     0
 42
0.0000000001
 43
0.0000000001
 40
0.0
 40
0.0
 40
0.0
 40
0.0
 40
0.25
 40
0.25
 40
0.25
 40
0.25
 40
0.5
 40
0.5
 40
0.5
 40
0.5
 40
0.75
 40
0.75
 40
0.75
 40
0.75
 40
1.0
 40
1.0
 40
1.0
 40
1.0
 10
1.5631732283464568
 20
0.8927795275590551
 30
0.0
 10
1.5631732283464568
 20
0.8927795275590551
 30
0.0
 10
1.5555787401574803
 20
1.6448425196850394
 30
0.0
 10
1.5555787401574803
 20
1.6448425196850394
 30
0.0
 10
1.5555787401574803
 20
1.6448425196850394
 30
0.0
 10
1.5555787401574803
 20
1.6448425196850394
 30
0.0
 10
1.5335944881889765
 20
1.6700157480314961
 30
0.0
 10
1.5335944881889765
 20
1.6700157480314961
 30
0.0
 10
1.5335944881889765
 20
1.6700157480314961
 30
0.0
 10
1.5335944881889765
 20
1.6700157480314961
 30
0.0
 10
1.5411889763779527
 20
0.9179527559055118
 30
0.0
 10
1.5411889763779527
 20
0.9179527559055118
 30
0.0
 10
1.5411889763779527
 20
0.9179527559055118
 30
0.0
 10
1.5411889763779527
 20
0.9179527559055118
 30
0.0
 10
1.5631732283464568
 20
0.8927795275590551
 30
0.0
 10
1.5631732283464568
 20
0.8927795275590551
 30
0.0
  0
SPLINE
  5
77
100
AcDbEntity
  8
Layer 1
 62
     9
100
AcDbSpline
210
0.0
220
0.0
230
1.0
 70
     1
 71
     3
 72
    20
 73
    16
 74
     0
 42
0.0000000001
 43
0.0000000001
 40
0.0
 40
0.0
 40
0.0
 40
0.0
 40
0.25
 40
0.25
 40
0.25
 40
0.25
 40
0.5
 40
0.5
 40
0.5
 40
0.5
 40
0.75
 40
0.75
 40
0.75
 40
0.75
 40
1.0
 40
1.0
 40
1.0
 40
1.0
 10
1.5411889763779527
 20
0.9179527559055118
 30
0.0
 10
1.5411889763779527
 20
0.9179527559055118
 30
0.0
 10
1.5335944881889765
 20
1.6700157480314961
 30
0.0
 10
1.5335944881889765
 20
1.6700157480314961
 30
0.0
 10
1.5335944881889765
 20
1.6700157480314961
 30
0.0
 10
1.5335944881889765
 20
1.6700157480314961
 30
0.0
 10
1.5092755905511812
 20
1.6925314960629922
 30
0.0
 10
1.5092755905511812
 20
1.6925314960629922
 30
0.0
 10
1.5092755905511812
 20
1.6925314960629922
 30
0.0
 10
1.5092755905511812
 20
1.6925314960629922
 30
0.0
 10
1.5168700787401574
 20
0.9404685039370079
 30
0.0
 10
1.5168700787401574
 20
0.9404685039370079
 30
0.0
 10
1.5168700787401574
 20
0.9404685039370079
 30
0.0
 10
1.5168700787401574
 20
0.9404685039370079
 30
0.0
 10
1.5411889763779527
 20
0.9179527559055118
 30
0.0
 10
1.5411889763779527
 20
0.9179527559055118
 30
0.0
  0
SPLINE
  5
78
100
AcDbEntity
  8
Layer 1
 62
     9
100
AcDbSpline
210
0.0
220
0.0
230
1.0
 70
     1
 71
     3
 72
    20
 73
    16
 74
     0
 42
0.0000000001
 43
0.0000000001
 40
0.0
 40
0.0
 40
0.0
 40
0.0
 40
0.25
 40
0.25
 40
0.25
 40
0.25
 40
0.5
 40
0.5
 40
0.5
 40
0.5
 40
0.75
 40
0.75
 40
0.75
 40
0.75
 40
1.0
 40
1.0
 40
1.0
 40
1.0
 10
1.5168700787401574
 20
0.9404685039370079
 30
0.0
 10
1.5168700787401574
 20
0.9404685039370079
 30
0.0
 10
1.5092755905511812
 20
1.6925314960629922
 30
0.0
 10
1.5092755905511812
 20
1.6925314960629922
 30
0.0
 10
1.5092755905511812
 20
1.6925314960629922
 30
0.0
 10
1.5092755905511812
 20
1.6925314960629922
 30
0.0
 10
1.4827992125984253
 20
1.7125039370078741
 30
0.0
 10
1.4827992125984253
 20
1.7125039370078741
 30
0.0
 10
1.4827992125984253
 20
1.7125039370078741
 30
0.0
 10
1.4827992125984253
 20
1.7125039370078741
 30
0.0
 10
1.4903937007874015
 20
0.9604409448818898
 30
0.0
 10
1.4903937007874015
 20
0.9604409448818898
 30
0.0
 10
1.4903937007874015
 20
0.9604409448818898
 30
0.0
 10
1.4903937007874015
 20
0.9604409448818898
 30
0.0
 10
1.5168700787401574
 20
0.9404685039370079
 30
0.0
 10
1.5168700787401574
 20
0.9404685039370079
 30
0.0
  0
SPLINE
  5
79
100
AcDbEntity
  8
Layer 1
 62
     9
100
AcDbSpline
210
0.0
220
0.0
230
1.0
 70
     1
 71
     3
 72
    20
 73
    16
 74
     0
 42
0.0000000001
 43
0.0000000001
 40
0.0
 40
0.0
 40
0.0
 40
0.0
 40
0.25
 40
0.25
 40
0.25
 40
0.25
 40
0.5
 40
0.5
 40
0.5
 40
0.5
 40
0.75
 40
0.75
 40
0.75
 40
0.75
 40
1.0
 40
1.0
 40
1.0
 40
1.0
 10
1.4903937007874015
 20
0.9604409448818898
 30
0.0
 10
1.4903937007874015
 20
0.9604409448818898
 30
0.0
 10
1.4827992125984253
 20
1.7125039370078741
 30
0.0
 10
1.4827992125984253
 20
1.7125039370078741
 30
0.0
 10
1.4827992125984253
 20
1.7125039370078741
 30
0.0
 10
1.4827992125984253
 20
1.7125039370078741
 30
0.0
 10
1.4543228346456694
 20
1.7300196850393701
 30
0.0
 10
1.4543228346456694
 20
1.7300196850393701
 30
0.0
 10
1.4543228346456694
 20
1.7300196850393701
 30
0.0
 10
1.4543228346456694
 20
1.7300196850393701
 30
0.0
 10
1.4619173228346458
 20
0.9779566929133858
 30
0.0
 10
1.4619173228346458
 20
0.9779566929133858
 30
0.0
 10
1.4619173228346458
 20
0.9779566929133858
 30
0.0
 10
1.4619173228346458
 20
0.9779566929133858
 30
0.0
 10
1.4903937007874015
 20
0.9604409448818898
 30
0.0
 10
1.4903937007874015
 20
0.9604409448818898
 30
0.0
  0
SPLINE
  5
7A
100
AcDbEntity
  8
Layer 1
 62
   253
100
AcDbSpline
210
0.0
220
0.0
230
1.0
 70
     1
 71
     3
 72
    20
 73
    16
 74
     0
 42
0.0000000001
 43
0.0000000001
 40
0.0
 40
0.0
 40
0.0
 40
0.0
 40
0.25
 40
0.25
 40
0.25
 40
0.25
 40
0.5
 40
0.5
 40
0.5
 40
0.5
 40
0.75
 40
0.75
 40
0.75
 40
0.75
 40
1.0
 40
1.0
 40
1.0
 40
1.0
 10
1.4619173228346458
 20
0.9779566929133858
 30
0.0
 10
1.4619173228346458
 20
0.9779566929133858
 30
0.0
 10
1.4543228346456694
 20
1.7300196850393701
 30
0.0
 10
1.4543228346456694
 20
1.7300196850393701
 30
0.0
 10
1.4543228346456694
 20
1.7300196850393701
 30
0.0
 10
1.4543228346456694
 20
1.7300196850393701
 30
0.0
 10
1.42401968503937
 20
1.7451771653543309
 30
0.0
 10
1.42401968503937
 20
1.7451771653543309
 30
0.0
 10
1.42401968503937
 20
1.7451771653543309
 30
0.0
 10
1.42401968503937
 20
1.7451771653543309
 30
0.0
 10
1.4316141732283465
 20
0.9931141732283465
 30
0.0
 10
1.4316141732283465
 20
0.9931141732283465
 30
0.0
 10
1.4316141732283465
 20
0.9931141732283465
 30
0.0
 10
1.4316141732283465
 20
0.9931141732283465
 30
0.0
 10
1.4619173228346458
 20
0.9779566929133858
 30
0.0
 10
1.4619173228346458
 20
0.9779566929133858
 30
0.0
  0
SPLINE
  5
7B
100
AcDbEntity
  8
Layer 1
 62
   253
100
AcDbSpline
210
0.0
220
0.0
230
1.0
 70
     1
 71
     3
 72
    20
 73
    16
 74
     0
 42
0.0000000001
 43
0.0000000001
 40
0.0
 40
0.0
 40
0.0
 40
0.0
 40
0.25
 40
0.25
 40
0.25
 40
0.25
 40
0.5
 40
0.5
 40
0.5
 40
0.5
 40
0.75
 40
0.75
 40
0.75
 40
0.75
 40
1.0
 40
1.0
 40
1.0
 40
1.0
 10
1.4316141732283465
 20
0.9931141732283465
 30
0.0
 10
1.4316141732283465
 20
0.9931141732283465
 30
0.0
 10
1.42401968503937
 20
1.7451771653543309
 30
0.0
 10
1.42401968503937
 20
1.7451771653543309
 30
0.0
 10
1.42401968503937
 20
1.7451771653543309
 30
0.0
 10
1.42401968503937
 20
1.7451771653543309
 30
0.0
 10
1.3920354330708662
 20
1.7580669291338584
 30
0.0
 10
1.3920354330708662
 20
1.7580669291338584
 30
0.0
 10
1.3920354330708662
 20
1.7580669291338584
 30
0.0
 10
1.3920354330708662
 20
1.7580669291338584
 30
0.0
 10
1.3996299212598426
 20
1.0060039370078742
 30
0.0
 10
1.3996299212598426
 20
1.0060039370078742
 30
0.0
 10
1.3996299212598426
 20
1.0060039370078742
 30
0.0
 10
1.3996299212598426
 20
1.0060039370078742
 30
0.0
 10
1.4316141732283465
 20
0.9931141732283465
 30
0.0
 10
1.4316141732283465
 20
0.9931141732283465
 30
0.0
  0
SPLINE
  5
7C
100
AcDbEntity
  8
Layer 1
 62
   253
100
AcDbSpline
210
0.0
220
0.0
230
1.0
 70
     1
 71
     3
 72
    20
 73
    16
 74
     0
 42
0.0000000001
 43
0.0000000001
 40
0.0
 40
0.0
 40
0.0
 40
0.0
 40
0.25
 40
0.25
 40
0.25
 40
0.25
 40
0.5
 40
0.5
 40
0.5
 40
0.5
 40
0.75
 40
0.75
 40
0.75
 40
0.75
 40
1.0
 40
1.0
 40
1.0
 40
1.0
 10
1.3996299212598426
 20
1.0060039370078742
 30
0.0
 10
1.3996299212598426
 20
1.0060039370078742
 30
0.0
 10
1.3920354330708662
 20
1.7580669291338584
 30
0.0
 10
1.3920354330708662
 20
1.7580669291338584
 30
0.0
 10
1.3920354330708662
 20
1.7580669291338584
 30
0.0
 10
1.3920354330708662
 20
1.7580669291338584
 30
0.0
 10
1.3585472440944883
 20
1.7687992125984253
 30
0.0
 10
1.3585472440944883
 20
1.7687992125984253
 30
0.0
 10
1.3585472440944883
 20
1.7687992125984253
 30
0.0
 10
1.3585472440944883
 20
1.7687992125984253
 30
0.0
 10
1.3661417322834646
 20
1.0167362204724411
 30
0.0
 10
1.3661417322834646
 20
1.0167362204724411
 30
0.0
 10
1.3661417322834646
 20
1.0167362204724411
 30
0.0
 10
1.3661417322834646
 20
1.0167362204724411
 30
0.0
 10
1.3996299212598426
 20
1.0060039370078742
 30
0.0
 10
1.3996299212598426
 20
1.0060039370078742
 30
0.0
  0
SPLINE
  5
7D
100
AcDbEntity
  8
Layer 1
 62
   253
100
AcDbSpline
210
0.0
220
0.0
230
1.0
 70
     1
 71
     3
 72
    20
 73
    16
 74
     0
 42
0.0000000001
 43
0.0000000001
 40
0.0
 40
0.0
 40
0.0
 40
0.0
 40
0.25
 40
0.25
 40
0.25
 40
0.25
 40
0.5
 40
0.5
 40
0.5
 40
0.5
 40
0.75
 40
0.75
 40
0.75
 40
0.75
 40
1.0
 40
1.0
 40
1.0
 40
1.0
 10
1.3661417322834646
 20
1.0167362204724411
 30
0.0
 10
1.3661417322834646
 20
1.0167362204724411
 30
0.0
 10
1.3585472440944883
 20
1.7687992125984253
 30
0.0
 10
1.3585472440944883
 20
1.7687992125984253
 30
0.0
 10
1.3585472440944883
 20
1.7687992125984253
 30
0.0
 10
1.3585472440944883
 20
1.7687992125984253
 30
0.0
 10
1.3237086614173228
 20
1.7774566929133859
 30
0.0
 10
1.3237086614173228
 20
1.7774566929133859
 30
0.0
 10
1.3237086614173228
 20
1.7774566929133859
 30
0.0
 10
1.3237086614173228
 20
1.7774566929133859
 30
0.0
 10
1.3313031496062993
 20
1.0253937007874017
 30
0.0
 10
1.3313031496062993
 20
1.0253937007874017
 30
0.0
 10
1.3313031496062993
 20
1.0253937007874017
 30
0.0
 10
1.3313031496062993
 20
1.0253937007874017
 30
0.0
 10
1.3661417322834646
 20
1.0167362204724411
 30
0.0
 10
1.3661417322834646
 20
1.0167362204724411
 30
0.0
  0
SPLINE
  5
7E
100
AcDbEntity
  8
Layer 1
 62
   253
100
AcDbSpline
210
0.0
220
0.0
230
1.0
 70
     1
 71
     3
 72
    20
 73
    16
 74
     0
 42
0.0000000001
 43
0.0000000001
 40
0.0
 40
0.0
 40
0.0
 40
0.0
 40
0.25
 40
0.25
 40
0.25
 40
0.25
 40
0.5
 40
0.5
 40
0.5
 40
0.5
 40
0.75
 40
0.75
 40
0.75
 40
0.75
 40
1.0
 40
1.0
 40
1.0
 40
1.0
 10
1.3313031496062993
 20
1.0253937007874017
 30
0.0
 10
1.3313031496062993
 20
1.0253937007874017
 30
0.0
 10
1.3237086614173228
 20
1.7774566929133859
 30
0.0
 10
1.3237086614173228
 20
1.7774566929133859
 30
0.0
 10
1.3237086614173228
 20
1.7774566929133859
 30
0.0
 10
1.3237086614173228
 20
1.7774566929133859
 30
0.0
 10
1.2876968503937007
 20
1.7841496062992126
 30
0.0
 10
1.2876968503937007
 20
1.7841496062992126
 30
0.0
 10
1.2876968503937007
 20
1.7841496062992126
 30
0.0
 10
1.2876968503937007
 20
1.7841496062992126
 30
0.0
 10
1.2952913385826772
 20
1.0320866141732283
 30
0.0
 10
1.2952913385826772
 20
1.0320866141732283
 30
0.0
 10
1.2952913385826772
 20
1.0320866141732283
 30
0.0
 10
1.2952913385826772
 20
1.0320866141732283
 30
0.0
 10
1.3313031496062993
 20
1.0253937007874017
 30
0.0
 10
1.3313031496062993
 20
1.0253937007874017
 30
0.0
  0
SPLINE
  5
7F
100
AcDbEntity
  8
Layer 1
 62
   253
100
AcDbSpline
210
0.0
220
0.0
230
1.0
 70
     1
 71
     3
 72
    20
 73
    16
 74
     0
 42
0.0000000001
 43
0.0000000001
 40
0.0
 40
0.0
 40
0.0
 40
0.0
 40
0.25
 40
0.25
 40
0.25
 40
0.25
 40
0.5
 40
0.5
 40
0.5
 40
0.5
 40
0.75
 40
0.75
 40
0.75
 40
0.75
 40
1.0
 40
1.0
 40
1.0
 40
1.0
 10
1.2952913385826772
 20
1.0320866141732283
 30
0.0
 10
1.2952913385826772
 20
1.0320866141732283
 30
0.0
 10
1.2876968503937007
 20
1.7841496062992126
 30
0.0
 10
1.2876968503937007
 20
1.7841496062992126
 30
0.0
 10
1.2876968503937007
 20
1.7841496062992126
 30
0.0
 10
1.2876968503937007
 20
1.7841496062992126
 30
0.0
 10
1.2506535433070867
 20
1.7889527559055118
 30
0.0
 10
1.2506535433070867
 20
1.7889527559055118
 30
0.0
 10
1.2506535433070867
 20
1.7889527559055118
 30
0.0
 10
1.2506535433070867
 20
1.7889527559055118
 30
0.0
 10
1.2582480314960631
 20
1.0368897637795276
 30
0.0
 10
1.2582480314960631
 20
1.0368897637795276
 30
0.0
 10
1.2582480314960631
 20
1.0368897637795276
 30
0.0
 10
1.2582480314960631
 20
1.0368897637795276
 30
0.0
 10
1.2952913385826772
 20
1.0320866141732283
 30
0.0
 10
1.2952913385826772
 20
1.0320866141732283
 30
0.0
  0
SPLINE
  5
80
100
AcDbEntity
  8
Layer 1
 62
   253
100
AcDbSpline
210
0.0
220
0.0
230
1.0
 70
     1
 71
     3
 72
    20
 73
    16
 74
     0
 42
0.0000000001
 43
0.0000000001
 40
0.0
 40
0.0
 40
0.0
 40
0.0
 40
0.25
 40
0.25
 40
0.25
 40
0.25
 40
0.5
 40
0.5
 40
0.5
 40
0.5
 40
0.75
 40
0.75
 40
0.75
 40
0.75
 40
1.0
 40
1.0
 40
1.0
 40
1.0
 10
1.2582480314960631
 20
1.0368897637795276
 30
0.0
 10
1.2582480314960631
 20
1.0368897637795276
 30
0.0
 10
1.2506535433070867
 20
1.7889527559055118
 30
0.0
 10
1.2506535433070867
 20
1.7889527559055118
 30
0.0
 10
1.2506535433070867
 20
1.7889527559055118
 30
0.0
 10
1.2506535433070867
 20
1.7889527559055118
 30
0.0
 10
1.212759842519685
 20
1.7919803149606299
 30
0.0
 10
1.212759842519685
 20
1.7919803149606299
 30
0.0
 10
1.212759842519685
 20
1.7919803149606299
 30
0.0
 10
1.212759842519685
 20
1.7919803149606299
 30
0.0
 10
1.2203543307086615
 20
1.0399173228346457
 30
0.0
 10
1.2203543307086615
 20
1.0399173228346457
 30
0.0
 10
1.2203543307086615
 20
1.0399173228346457
 30
0.0
 10
1.2203543307086615
 20
1.0399173228346457
 30
0.0
 10
1.2582480314960631
 20
1.0368897637795276
 30
0.0
 10
1.2582480314960631
 20
1.0368897637795276
 30
0.0
  0
SPLINE
  5
81
100
AcDbEntity
  8
Layer 1
 62
   253
100
AcDbSpline
210
0.0
220
0.0
230
1.0
 70
     1
 71
     3
 72
    20
 73
    16
 74
     0
 42
0.0000000001
 43
0.0000000001
 40
0.0
 40
0.0
 40
0.0
 40
0.0
 40
0.25
 40
0.25
 40
0.25
 40
0.25
 40
0.5
 40
0.5
 40
0.5
 40
0.5
 40
0.75
 40
0.75
 40
0.75
 40
0.75
 40
1.0
 40
1.0
 40
1.0
 40
1.0
 10
1.2203543307086615
 20
1.0399173228346457
 30
0.0
 10
1.2203543307086615
 20
1.0399173228346457
 30
0.0
 10
1.212759842519685
 20
1.7919803149606299
 30
0.0
 10
1.212759842519685
 20
1.7919803149606299
 30
0.0
 10
1.212759842519685
 20
1.7919803149606299
 30
0.0
 10
1.212759842519685
 20
1.7919803149606299
 30
0.0
 10
1.1741692913385828
 20
1.7933228346456693
 30
0.0
 10
1.1741692913385828
 20
1.7933228346456693
 30
0.0
 10
1.1741692913385828
 20
1.7933228346456693
 30
0.0
 10
1.1741692913385828
 20
1.7933228346456693
 30
0.0
 10
1.1817637795275591
 20
1.0412598425196851
 30
0.0
 10
1.1817637795275591
 20
1.0412598425196851
 30
0.0
 10
1.1817637795275591
 20
1.0412598425196851
 30
0.0
 10
1.1817637795275591
 20
1.0412598425196851
 30
0.0
 10
1.2203543307086615
 20
1.0399173228346457
 30
0.0
 10
1.2203543307086615
 20
1.0399173228346457
 30
0.0
  0
SPLINE
  5
82
100
AcDbEntity
  8
Layer 1
 62
   253
100
AcDbSpline
210
0.0
220
0.0
230
1.0
 70
     1
 71
     3
 72
    20
 73
    16
 74
     0
 42
0.0000000001
 43
0.0000000001
 40
0.0
 40
0.0
 40
0.0
 40
0.0
 40
0.25
 40
0.25
 40
0.25
 40
0.25
 40
0.5
 40
0.5
 40
0.5
 40
0.5
 40
0.75
 40
0.75
 40
0.75
 40
0.75
 40
1.0
 40
1.0
 40
1.0
 40
1.0
 10
1.1817637795275591
 20
1.0412598425196851
 30
0.0
 10
1.1817637795275591
 20
1.0412598425196851
 30
0.0
 10
1.1741692913385828
 20
1.7933228346456693
 30
0.0
 10
1.1741692913385828
 20
1.7933228346456693
 30
0.0
 10
1.1741692913385828
 20
1.7933228346456693
 30
0.0
 10
1.1741692913385828
 20
1.7933228346456693
 30
0.0
 10
1.1350590551181103
 20
1.7930787401574804
 30
0.0
 10
1.1350590551181103
 20
1.7930787401574804
 30
0.0
 10
1.1350590551181103
 20
1.7930787401574804
 30
0.0
 10
1.1350590551181103
 20
1.7930787401574804
 30
0.0
 10
1.1426535433070866
 20
1.0410157480314961
 30
0.0
 10
1.1426535433070866
 20
1.0410157480314961
 30
0.0
 10
1.1426535433070866
 20
1.0410157480314961
 30
0.0
 10
1.1426535433070866
 20
1.0410157480314961
 30
0.0
 10
1.1817637795275591
 20
1.0412598425196851
 30
0.0
 10
1.1817637795275591
 20
1.0412598425196851
 30
0.0
  0
SPLINE
  5
83
100
AcDbEntity
  8
Layer 1
 62
   253
100
AcDbSpline
210
0.0
220
0.0
230
1.0
 70
     1
 71
     3
 72
    20
 73
    16
 74
     0
 42
0.0000000001
 43
0.0000000001
 40
0.0
 40
0.0
 40
0.0
 40
0.0
 40
0.25
 40
0.25
 40
0.25
 40
0.25
 40
0.5
 40
0.5
 40
0.5
 40
0.5
 40
0.75
 40
0.75
 40
0.75
 40
0.75
 40
1.0
 40
1.0
 40
1.0
 40
1.0
 10
1.1426535433070866
 20
1.0410157480314961
 30
0.0
 10
1.1426535433070866
 20
1.0410157480314961
 30
0.0
 10
1.1350590551181103
 20
1.7930787401574804
 30
0.0
 10
1.1350590551181103
 20
1.7930787401574804
 30
0.0
 10
1.1350590551181103
 20
1.7930787401574804
 30
0.0
 10
1.1350590551181103
 20
1.7930787401574804
 30
0.0
 10
1.0955708661417323
 20
1.7913346456692913
 30
0.0
 10
1.0955708661417323
 20
1.7913346456692913
 30
0.0
 10
1.0955708661417323
 20
1.7913346456692913
 30
0.0
 10
1.0955708661417323
 20
1.7913346456692913
 30
0.0
 10
1.1031653543307087
 20
1.0392716535433071
 30
0.0
 10
1.1031653543307087
 20
1.0392716535433071
 30
0.0
 10
1.1031653543307087
 20
1.0392716535433071
 30
0.0
 10
1.1031653543307087
 20
1.0392716535433071
 30
0.0
 10
1.1426535433070866
 20
1.0410157480314961
 30
0.0
 10
1.1426535433070866
 20
1.0410157480314961
 30
0.0
  0
SPLINE
  5
84
100
AcDbEntity
  8
Layer 1
 62
   253
100
AcDbSpline
210
0.0
220
0.0
230
1.0
 70
     1
 71
     3
 72
    20
 73
    16
 74
     0
 42
0.0000000001
 43
0.0000000001
 40
0.0
 40
0.0
 40
0.0
 40
0.0
 40
0.25
 40
0.25
 40
0.25
 40
0.25
 40
0.5
 40
0.5
 40
0.5
 40
0.5
 40
0.75
 40
0.75
 40
0.75
 40
0.75
 40
1.0
 40
1.0
 40
1.0
 40
1.0
 10
1.1031653543307087
 20
1.0392716535433071
 30
0.0
 10
1.1031653543307087
 20
1.0392716535433071
 30
0.0
 10
1.0955708661417323
 20
1.7913346456692913
 30
0.0
 10
1.0955708661417323
 20
1.7913346456692913
 30
0.0
 10
1.0955708661417323
 20
1.7913346456692913
 30
0.0
 10
1.0955708661417323
 20
1.7913346456692913
 30
0.0
 10
1.0558858267716535
 20
1.7882047244094488
 30
0.0
 10
1.0558858267716535
 20
1.7882047244094488
 30
0.0
 10
1.0558858267716535
 20
1.7882047244094488
 30
0.0
 10
1.0558858267716535
 20
1.7882047244094488
 30
0.0
 10
1.06348031496063
 20
1.0361417322834645
 30
0.0
 10
1.06348031496063
 20
1.0361417322834645
 30
0.0
 10
1.06348031496063
 20
1.0361417322834645
 30
0.0
 10
1.06348031496063
 20
1.0361417322834645
 30
0.0
 10
1.1031653543307087
 20
1.0392716535433071
 30
0.0
 10
1.1031653543307087
 20
1.0392716535433071
 30
0.0
  0
SPLINE
  5
85
100
AcDbEntity
  8
Layer 1
 62
   253
100
AcDbSpline
210
0.0
220
0.0
230
1.0
 70
     1
 71
     3
 72
    20
 73
    16
 74
     0
 42
0.0000000001
 43
0.0000000001
 40
0.0
 40
0.0
 40
0.0
 40
0.0
 40
0.25
 40
0.25
 40
0.25
 40
0.25
 40
0.5
 40
0.5
 40
0.5
 40
0.5
 40
0.75
 40
0.75
 40
0.75
 40
0.75
 40
1.0
 40
1.0
 40
1.0
 40
1.0
 10
1.06348031496063
 20
1.0361417322834645
 30
0.0
 10
1.06348031496063
 20
1.0361417322834645
 30
0.0
 10
1.0558858267716535
 20
1.7882047244094488
 30
0.0
 10
1.0558858267716535
 20
1.7882047244094488
 30
0.0
 10
1.0558858267716535
 20
1.7882047244094488
 30
0.0
 10
1.0558858267716535
 20
1.7882047244094488
 30
0.0
 10
1.0161574803149607
 20
1.7837677165354331
 30
0.0
 10
1.0161574803149607
 20
1.7837677165354331
 30
0.0
 10
1.0161574803149607
 20
1.7837677165354331
 30
0.0
 10
1.0161574803149607
 20
1.7837677165354331
 30
0.0
 10
1.0237519685039371
 20
1.0317047244094488
 30
0.0
 10
1.0237519685039371
 20
1.0317047244094488
 30
0.0
 10
1.0237519685039371
 20
1.0317047244094488
 30
0.0
 10
1.0237519685039371
 20
1.0317047244094488
 30
0.0
 10
1.06348031496063
 20
1.0361417322834645
 30
0.0
 10
1.06348031496063
 20
1.0361417322834645
 30
0.0
  0
SPLINE
  5
86
100
AcDbEntity
  8
Layer 1
 62
   253
100
AcDbSpline
210
0.0
220
0.0
230
1.0
 70
     1
 71
     3
 72
    20
 73
    16
 74
     0
 42
0.0000000001
 43
0.0000000001
 40
0.0
 40
0.0
 40
0.0
 40
0.0
 40
0.25
 40
0.25
 40
0.25
 40
0.25
 40
0.5
 40
0.5
 40
0.5
 40
0.5
 40
0.75
 40
0.75
 40
0.75
 40
0.75
 40
1.0
 40
1.0
 40
1.0
 40
1.0
 10
1.0237519685039371
 20
1.0317047244094488
 30
0.0
 10
1.0237519685039371
 20
1.0317047244094488
 30
0.0
 10
1.0161574803149607
 20
1.7837677165354331
 30
0.0
 10
1.0161574803149607
 20
1.7837677165354331
 30
0.0
 10
1.0161574803149607
 20
1.7837677165354331
 30
0.0
 10
1.0161574803149607
 20
1.7837677165354331
 30
0.0
 10
0.9765590551181103
 20
1.7781338582677166
 30
0.0
 10
0.9765590551181103
 20
1.7781338582677166
 30
0.0
 10
0.9765590551181103
 20
1.7781338582677166
 30
0.0
 10
0.9765590551181103
 20
1.7781338582677166
 30
0.0
 10
0.9841535433070866
 20
1.0260708661417324
 30
0.0
 10
0.9841535433070866
 20
1.0260708661417324
 30
0.0
 10
0.9841535433070866
 20
1.0260708661417324
 30
0.0
 10
0.9841535433070866
 20
1.0260708661417324
 30
0.0
 10
1.0237519685039371
 20
1.0317047244094488
 30
0.0
 10
1.0237519685039371
 20
1.0317047244094488
 30
0.0
  0
SPLINE
  5
87
100
AcDbEntity
  8
Layer 1
 62
   253
100
AcDbSpline
210
0.0
220
0.0
230
1.0
 70
     1
 71
     3
 72
    20
 73
    16
 74
     0
 42
0.0000000001
 43
0.0000000001
 40
0.0
 40
0.0
 40
0.0
 40
0.0
 40
0.25
 40
0.25
 40
0.25
 40
0.25
 40
0.5
 40
0.5
 40
0.5
 40
0.5
 40
0.75
 40
0.75
 40
0.75
 40
0.75
 40
1.0
 40
1.0
 40
1.0
 40
1.0
 10
0.9841535433070866
 20
1.0260708661417324
 30
0.0
 10
0.9841535433070866
 20
1.0260708661417324
 30
0.0
 10
0.9765590551181103
 20
1.7781338582677166
 30
0.0
 10
0.9765590551181103
 20
1.7781338582677166
 30
0.0
 10
0.9765590551181103
 20
1.7781338582677166
 30
0.0
 10
0.9765590551181103
 20
1.7781338582677166
 30
0.0
 10
0.9372362204724409
 20
1.7713818897637796
 30
0.0
 10
0.9372362204724409
 20
1.7713818897637796
 30
0.0
 10
0.9372362204724409
 20
1.7713818897637796
 30
0.0
 10
0.9372362204724409
 20
1.7713818897637796
 30
0.0
 10
0.9448307086614174
 20
1.0193188976377954
 30
0.0
 10
0.9448307086614174
 20
1.0193188976377954
 30
0.0
 10
0.9448307086614174
 20
1.0193188976377954
 30
0.0
 10
0.9448307086614174
 20
1.0193188976377954
 30
0.0
 10
0.9841535433070866
 20
1.0260708661417324
 30
0.0
 10
0.9841535433070866
 20
1.0260708661417324
 30
0.0
  0
SPLINE
  5
88
100
AcDbEntity
  8
Layer 1
 62
   253
100
AcDbSpline
210
0.0
220
0.0
230
1.0
 70
     1
 71
     3
 72
    20
 73
    16
 74
     0
 42
0.0000000001
 43
0.0000000001
 40
0.0
 40
0.0
 40
0.0
 40
0.0
 40
0.25
 40
0.25
 40
0.25
 40
0.25
 40
0.5
 40
0.5
 40
0.5
 40
0.5
 40
0.75
 40
0.75
 40
0.75
 40
0.75
 40
1.0
 40
1.0
 40
1.0
 40
1.0
 10
0.9448307086614174
 20
1.0193188976377954
 30
0.0
 10
0.9448307086614174
 20
1.0193188976377954
 30
0.0
 10
0.9372362204724409
 20
1.7713818897637796
 30
0.0
 10
0.9372362204724409
 20
1.7713818897637796
 30
0.0
 10
0.9372362204724409
 20
1.7713818897637796
 30
0.0
 10
0.9372362204724409
 20
1.7713818897637796
 30
0.0
 10
0.8983700787401575
 20
1.7636259842519686
 30
0.0
 10
0.8983700787401575
 20
1.7636259842519686
 30
0.0
 10
0.8983700787401575
 20
1.7636259842519686
 30
0.0
 10
0.8983700787401575
 20
1.7636259842519686
 30
0.0
 10
0.9059645669291339
 20
1.0115629921259843
 30
0.0
 10
0.9059645669291339
 20
1.0115629921259843
 30
0.0
 10
0.9059645669291339
 20
1.0115629921259843
 30
0.0
 10
0.9059645669291339
 20
1.0115629921259843
 30
0.0
 10
0.9448307086614174
 20
1.0193188976377954
 30
0.0
 10
0.9448307086614174
 20
1.0193188976377954
 30
0.0
  0
SPLINE
  5
89
100
AcDbEntity
  8
Layer 1
 62
   253
100
AcDbSpline
210
0.0
220
0.0
230
1.0
 70
     1
 71
     3
 72
    20
 73
    16
 74
     0
 42
0.0000000001
 43
0.0000000001
 40
0.0
 40
0.0
 40
0.0
 40
0.0
 40
0.25
 40
0.25
 40
0.25
 40
0.25
 40
0.5
 40
0.5
 40
0.5
 40
0.5
 40
0.75
 40
0.75
 40
0.75
 40
0.75
 40
1.0
 40
1.0
 40
1.0
 40
1.0
 10
0.9059645669291339
 20
1.0115629921259843
 30
0.0
 10
0.9059645669291339
 20
1.0115629921259843
 30
0.0
 10
0.8983700787401575
 20
1.7636259842519686
 30
0.0
 10
0.8983700787401575
 20
1.7636259842519686
 30
0.0
 10
0.8983700787401575
 20
1.7636259842519686
 30
0.0
 10
0.8983700787401575
 20
1.7636259842519686
 30
0.0
 10
0.8601102362204725
 20
1.7549527559055118
 30
0.0
 10
0.8601102362204725
 20
1.7549527559055118
 30
0.0
 10
0.8601102362204725
 20
1.7549527559055118
 30
0.0
 10
0.8601102362204725
 20
1.7549527559055118
 30
0.0
 10
0.8677047244094489
 20
1.0028897637795275
 30
0.0
 10
0.8677047244094489
 20
1.0028897637795275
 30
0.0
 10
0.8677047244094489
 20
1.0028897637795275
 30
0.0
 10
0.8677047244094489
 20
1.0028897637795275
 30
0.0
 10
0.9059645669291339
 20
1.0115629921259843
 30
0.0
 10
0.9059645669291339
 20
1.0115629921259843
 30
0.0
  0
SPLINE
  5
8A
100
AcDbEntity
  8
Layer 1
 62
   253
100
AcDbSpline
210
0.0
220
0.0
230
1.0
 70
     1
 71
     3
 72
    20
 73
    16
 74
     0
 42
0.0000000001
 43
0.0000000001
 40
0.0
 40
0.0
 40
0.0
 40
0.0
 40
0.25
 40
0.25
 40
0.25
 40
0.25
 40
0.5
 40
0.5
 40
0.5
 40
0.5
 40
0.75
 40
0.75
 40
0.75
 40
0.75
 40
1.0
 40
1.0
 40
1.0
 40
1.0
 10
0.8677047244094489
 20
1.0028897637795275
 30
0.0
 10
0.8677047244094489
 20
1.0028897637795275
 30
0.0
 10
0.8601102362204725
 20
1.7549527559055118
 30
0.0
 10
0.8601102362204725
 20
1.7549527559055118
 30
0.0
 10
0.8601102362204725
 20
1.7549527559055118
 30
0.0
 10
0.8601102362204725
 20
1.7549527559055118
 30
0.0
 10
0.8226338582677165
 20
1.745464566929134
 30
0.0
 10
0.8226338582677165
 20
1.745464566929134
 30
0.0
 10
0.8226338582677165
 20
1.745464566929134
 30
0.0
 10
0.8226338582677165
 20
1.745464566929134
 30
0.0
 10
0.830228346456693
 20
0.9934015748031496
 30
0.0
 10
0.830228346456693
 20
0.9934015748031496
 30
0.0
 10
0.830228346456693
 20
0.9934015748031496
 30
0.0
 10
0.830228346456693
 20
0.9934015748031496
 30
0.0
 10
0.8677047244094489
 20
1.0028897637795275
 30
0.0
 10
0.8677047244094489
 20
1.0028897637795275
 30
0.0
  0
SPLINE
  5
8B
100
AcDbEntity
  8
Layer 1
 62
   253
100
AcDbSpline
210
0.0
220
0.0
230
1.0
 70
     1
 71
     3
 72
    20
 73
    16
 74
     0
 42
0.0000000001
 43
0.0000000001
 40
0.0
 40
0.0
 40
0.0
 40
0.0
 40
0.25
 40
0.25
 40
0.25
 40
0.25
 40
0.5
 40
0.5
 40
0.5
 40
0.5
 40
0.75
 40
0.75
 40
0.75
 40
0.75
 40
1.0
 40
1.0
 40
1.0
 40
1.0
 10
0.830228346456693
 20
0.9934015748031496
 30
0.0
 10
0.830228346456693
 20
0.9934015748031496
 30
0.0
 10
0.8226338582677165
 20
1.745464566929134
 30
0.0
 10
0.8226338582677165
 20
1.745464566929134
 30
0.0
 10
0.8226338582677165
 20
1.745464566929134
 30
0.0
 10
0.8226338582677165
 20
1.745464566929134
 30
0.0
 10
0.7860866141732283
 20
1.735248031496063
 30
0.0
 10
0.7860866141732283
 20
1.735248031496063
 30
0.0
 10
0.7860866141732283
 20
1.735248031496063
 30
0.0
 10
0.7860866141732283
 20
1.735248031496063
 30
0.0
 10
0.7936811023622048
 20
0.9831850393700787
 30
0.0
 10
0.7936811023622048
 20
0.9831850393700787
 30
0.0
 10
0.7936811023622048
 20
0.9831850393700787
 30
0.0
 10
0.7936811023622048
 20
0.9831850393700787
 30
0.0
 10
0.830228346456693
 20
0.9934015748031496
 30
0.0
 10
0.830228346456693
 20
0.9934015748031496
 30
0.0
  0
SPLINE
  5
8C
100
AcDbEntity
  8
Layer 1
 62
   253
100
AcDbSpline
210
0.0
220
0.0
230
1.0
 70
     1
 71
     3
 72
    20
 73
    16
 74
     0
 42
0.0000000001
 43
0.0000000001
 40
0.0
 40
0.0
 40
0.0
 40
0.0
 40
0.25
 40
0.25
 40
0.25
 40
0.25
 40
0.5
 40
0.5
 40
0.5
 40
0.5
 40
0.75
 40
0.75
 40
0.75
 40
0.75
 40
1.0
 40
1.0
 40
1.0
 40
1.0
 10
0.7936811023622048
 20
0.9831850393700787
 30
0.0
 10
0.7936811023622048
 20
0.9831850393700787
 30
0.0
 10
0.7860866141732283
 20
1.735248031496063
 30
0.0
 10
0.7860866141732283
 20
1.735248031496063
 30
0.0
 10
0.7860866141732283
 20
1.735248031496063
 30
0.0
 10
0.7860866141732283
 20
1.735248031496063
 30
0.0
 10
0.7506535433070867
 20
1.7244055118110238
 30
0.0
 10
0.7506535433070867
 20
1.7244055118110238
 30
0.0
 10
0.7506535433070867
 20
1.7244055118110238
 30
0.0
 10
0.7506535433070867
 20
1.7244055118110238
 30
0.0
 10
0.758248031496063
 20
0.9723425196850394
 30
0.0
 10
0.758248031496063
 20
0.9723425196850394
 30
0.0
 10
0.758248031496063
 20
0.9723425196850394
 30
0.0
 10
0.758248031496063
 20
0.9723425196850394
 30
0.0
 10
0.7936811023622048
 20
0.9831850393700787
 30
0.0
 10
0.7936811023622048
 20
0.9831850393700787
 30
0.0
  0
SPLINE
  5
8D
100
AcDbEntity
  8
Layer 1
 62
   253
100
AcDbSpline
210
0.0
220
0.0
230
1.0
 70
     1
 71
     3
 72
    20
 73
    16
 74
     0
 42
0.0000000001
 43
0.0000000001
 40
0.0
 40
0.0
 40
0.0
 40
0.0
 40
0.25
 40
0.25
 40
0.25
 40
0.25
 40
0.5
 40
0.5
 40
0.5
 40
0.5
 40
0.75
 40
0.75
 40
0.75
 40
0.75
 40
1.0
 40
1.0
 40
1.0
 40
1.0
 10
0.758248031496063
 20
0.9723425196850394
 30
0.0
 10
0.758248031496063
 20
0.9723425196850394
 30
0.0
 10
0.7506535433070867
 20
1.7244055118110238
 30
0.0
 10
0.7506535433070867
 20
1.7244055118110238
 30
0.0
 10
0.7506535433070867
 20
1.7244055118110238
 30
0.0
 10
0.7506535433070867
 20
1.7244055118110238
 30
0.0
 10
0.7164803149606299
 20
1.7130314960629922
 30
0.0
 10
0.7164803149606299
 20
1.7130314960629922
 30
0.0
 10
0.7164803149606299
 20
1.7130314960629922
 30
0.0
 10
0.7164803149606299
 20
1.7130314960629922
 30
0.0
 10
0.7240748031496064
 20
0.960968503937008
 30
0.0
 10
0.7240748031496064
 20
0.960968503937008
 30
0.0
 10
0.7240748031496064
 20
0.960968503937008
 30
0.0
 10
0.7240748031496064
 20
0.960968503937008
 30
0.0
 10
0.758248031496063
 20
0.9723425196850394
 30
0.0
 10
0.758248031496063
 20
0.9723425196850394
 30
0.0
  0
SPLINE
  5
8E
100
AcDbEntity
  8
Layer 1
 62
   253
100
AcDbSpline
210
0.0
220
0.0
230
1.0
 70
     1
 71
     3
 72
    20
 73
    16
 74
     0
 42
0.0000000001
 43
0.0000000001
 40
0.0
 40
0.0
 40
0.0
 40
0.0
 40
0.25
 40
0.25
 40
0.25
 40
0.25
 40
0.5
 40
0.5
 40
0.5
 40
0.5
 40
0.75
 40
0.75
 40
0.75
 40
0.75
 40
1.0
 40
1.0
 40
1.0
 40
1.0
 10
0.7240748031496064
 20
0.960968503937008
 30
0.0
 10
0.7240748031496064
 20
0.960968503937008
 30
0.0
 10
0.7164803149606299
 20
1.7130314960629922
 30
0.0
 10
0.7164803149606299
 20
1.7130314960629922
 30
0.0
 10
0.7164803149606299
 20
1.7130314960629922
 30
0.0
 10
0.7164803149606299
 20
1.7130314960629922
 30
0.0
 10
0.683736220472441
 20
1.701232283464567
 30
0.0
 10
0.683736220472441
 20
1.701232283464567
 30
0.0
 10
0.683736220472441
 20
1.701232283464567
 30
0.0
 10
0.683736220472441
 20
1.701232283464567
 30
0.0
 10
0.6913307086614173
 20
0.9491692913385827
 30
0.0
 10
0.6913307086614173
 20
0.9491692913385827
 30
0.0
 10
0.6913307086614173
 20
0.9491692913385827
 30
0.0
 10
0.6913307086614173
 20
0.9491692913385827
 30
0.0
 10
0.7240748031496064
 20
0.960968503937008
 30
0.0
 10
0.7240748031496064
 20
0.960968503937008
 30
0.0
  0
SPLINE
  5
8F
100
AcDbEntity
  8
Layer 1
370
     5
100
AcDbSpline
210
0.0
220
0.0
230
1.0
 70
     1
 71
     3
 72
   260
 73
   256
 74
     0
 42
0.0000000001
 43
0.0000000001
 40
0.0
 40
0.0
 40
0.0
 40
0.0
 40
0.015625
 40
0.015625
 40
0.015625
 40
0.015625
 40
0.03125
 40
0.03125
 40
0.03125
 40
0.03125
 40
0.046875
 40
0.046875
 40
0.046875
 40
0.046875
 40
0.0625
 40
0.0625
 40
0.0625
 40
0.0625
 40
0.078125
 40
0.078125
 40
0.078125
 40
0.078125
 40
0.09375
 40
0.09375
 40
0.09375
 40
0.09375
 40
0.109375
 40
0.109375
 40
0.109375
 40
0.109375
 40
0.125
 40
0.125
 40
0.125
 40
0.125
 40
0.140625
 40
0.140625
 40
0.140625
 40
0.140625
 40
0.15625
 40
0.15625
 40
0.15625
 40
0.15625
 40
0.171875
 40
0.171875
 40
0.171875
 40
0.171875
 40
0.1875
 40
0.1875
 40
0.1875
 40
0.1875
 40
0.203125
 40
0.203125
 40
0.203125
 40
0.203125
 40
0.21875
 40
0.21875
 40
0.21875
 40
0.21875
 40
0.234375
 40
0.234375
 40
0.234375
 40
0.234375
 40
0.25
 40
0.25
 40
0.25
 40
0.25
 40
0.265625
 40
0.265625
 40
0.265625
 40
0.265625
 40
0.28125
 40
0.28125
 40
0.28125
 40
0.28125
 40
0.296875
 40
0.296875
 40
0.296875
 40
0.296875
 40
0.3125
 40
0.3125
 40
0.3125
 40
0.3125
 40
0.328125
 40
0.328125
 40
0.328125
 40
0.328125
 40
0.34375
 40
0.34375
 40
0.34375
 40
0.34375
 40
0.359375
 40
0.359375
 40
0.359375
 40
0.359375
 40
0.375
 40
0.375
 40
0.375
 40
0.375
 40
0.390625
 40
0.390625
 40
0.390625
 40
0.390625
 40
0.40625
 40
0.40625
 40
0.40625
 40
0.40625
 40
0.421875
 40
0.421875
 40
0.421875
 40
0.421875
 40
0.4375
 40
0.4375
 40
0.4375
 40
0.4375
 40
0.453125
 40
0.453125
 40
0.453125
 40
0.453125
 40
0.46875
 40
0.46875
 40
0.46875
 40
0.46875
 40
0.484375
 40
0.484375
 40
0.484375
 40
0.484375
 40
0.5
 40
0.5
 40
0.5
 40
0.5
 40
0.515625
 40
0.515625
 40
0.515625
 40
0.515625
 40
0.53125
 40
0.53125
 40
0.53125
 40
0.53125
 40
0.546875
 40
0.546875
 40
0.546875
 40
0.546875
 40
0.5625
 40
0.5625
 40
0.5625
 40
0.5625
 40
0.578125
 40
0.578125
 40
0.578125
 40
0.578125
 40
0.59375
 40
0.59375
 40
0.59375
 40
0.59375
 40
0.609375
 40
0.609375
 40
0.609375
 40
0.609375
 40
0.625
 40
0.625
 40
0.625
 40
0.625
 40
0.640625
 40
0.640625
 40
0.640625
 40
0.640625
 40
0.65625
 40
0.65625
 40
0.65625
 40
0.65625
 40
0.671875
 40
0.671875
 40
0.671875
 40
0.671875
 40
0.6875
 40
0.6875
 40
0.6875
 40
0.6875
 40
0.703125
 40
0.703125
 40
0.703125
 40
0.703125
 40
0.71875
 40
0.71875
 40
0.71875
 40
0.71875
 40
0.734375
 40
0.734375
 40
0.734375
 40
0.734375
 40
0.75
 40
0.75
 40
0.75
 40
0.75
 40
0.765625
 40
0.765625
 40
0.765625
 40
0.765625
 40
0.78125
 40
0.78125
 40
0.78125
 40
0.78125
 40
0.796875
 40
0.796875
 40
0.796875
 40
0.796875
 40
0.8125
 40
0.8125
 40
0.8125
 40
0.8125
 40
0.828125
 40
0.828125
 40
0.828125
 40
0.828125
 40
0.84375
 40
0.84375
 40
0.84375
 40
0.84375
 40
0.859375
 40
0.859375
 40
0.859375
 40
0.859375
 40
0.875
 40
0.875
 40
0.875
 40
0.875
 40
0.890625
 40
0.890625
 40
0.890625
 40
0.890625
 40
0.90625
 40
0.90625
 40
0.90625
 40
0.90625
 40
0.921875
 40
0.921875
 40
0.921875
 40
0.921875
 40
0.9375
 40
0.9375
 40
0.9375
 40
0.9375
 40
0.953125
 40
0.953125
 40
0.953125
 40
0.953125
 40
0.96875
 40
0.96875
 40
0.96875
 40
0.96875
 40
0.984375
 40
0.984375
 40
0.984375
 40
0.984375
 40
1.0
 40
1.0
 40
1.0
 40
1.0
 10
1.6371653543307088
 20
0.6808110236220473
 30
0.0
 10
1.6371653543307088
 20
0.6808110236220473
 30
0.0
 10
1.6295708661417323
 20
1.4328740157480315
 30
0.0
 10
1.6295708661417323
 20
1.4328740157480315
 30
0.0
 10
1.6295708661417323
 20
1.4328740157480315
 30
0.0
 10
1.6295708661417323
 20
1.4328740157480315
 30
0.0
 10
1.6249527559055119
 20
1.4759448818897638
 30
0.0
 10
1.6249527559055119
 20
1.4759448818897638
 30
0.0
 10
1.6249527559055119
 20
1.4759448818897638
 30
0.0
 10
1.6249527559055119
 20
1.4759448818897638
 30
0.0
 10
1.6170314960629921
 20
1.5157834645669293
 30
0.0
 10
1.6170314960629921
 20
1.5157834645669293
 30
0.0
 10
1.6170314960629921
 20
1.5157834645669293
 30
0.0
 10
1.6170314960629921
 20
1.5157834645669293
 30
0.0
 10
1.6059763779527561
 20
1.5525039370078741
 30
0.0
 10
1.6059763779527561
 20
1.5525039370078741
 30
0.0
 10
1.6059763779527561
 20
1.5525039370078741
 30
0.0
 10
1.6059763779527561
 20
1.5525039370078741
 30
0.0
 10
1.5919330708661419
 20
1.5861850393700787
 30
0.0
 10
1.5919330708661419
 20
1.5861850393700787
 30
0.0
 10
1.5919330708661419
 20
1.5861850393700787
 30
0.0
 10
1.5919330708661419
 20
1.5861850393700787
 30
0.0
 10
1.5750826771653543
 20
1.6169370078740157
 30
0.0
 10
1.5750826771653543
 20
1.6169370078740157
 30
0.0
 10
1.5750826771653543
 20
1.6169370078740157
 30
0.0
 10
1.5750826771653543
 20
1.6169370078740157
 30
0.0
 10
1.5555787401574803
 20
1.6448425196850394
 30
0.0
 10
1.5555787401574803
 20
1.6448425196850394
 30
0.0
 10
1.5555787401574803
 20
1.6448425196850394
 30
0.0
 10
1.5555787401574803
 20
1.6448425196850394
 30
0.0
 10
1.5335944881889765
 20
1.6700157480314961
 30
0.0
 10
1.5335944881889765
 20
1.6700157480314961
 30
0.0
 10
1.5335944881889765
 20
1.6700157480314961
 30
0.0
 10
1.5335944881889765
 20
1.6700157480314961
 30
0.0
 10
1.5092755905511812
 20
1.6925314960629922
 30
0.0
 10
1.5092755905511812
 20
1.6925314960629922
 30
0.0
 10
1.5092755905511812
 20
1.6925314960629922
 30
0.0
 10
1.5092755905511812
 20
1.6925314960629922
 30
0.0
 10
1.4827992125984253
 20
1.7125039370078741
 30
0.0
 10
1.4827992125984253
 20
1.7125039370078741
 30
0.0
 10
1.4827992125984253
 20
1.7125039370078741
 30
0.0
 10
1.4827992125984253
 20
1.7125039370078741
 30
0.0
 10
1.4543228346456694
 20
1.7300196850393701
 30
0.0
 10
1.4543228346456694
 20
1.7300196850393701
 30
0.0
 10
1.4543228346456694
 20
1.7300196850393701
 30
0.0
 10
1.4543228346456694
 20
1.7300196850393701
 30
0.0
 10
1.42401968503937
 20
1.7451771653543309
 30
0.0
 10
1.42401968503937
 20
1.7451771653543309
 30
0.0
 10
1.42401968503937
 20
1.7451771653543309
 30
0.0
 10
1.42401968503937
 20
1.7451771653543309
 30
0.0
 10
1.3920354330708662
 20
1.7580669291338584
 30
0.0
 10
1.3920354330708662
 20
1.7580669291338584
 30
0.0
 10
1.3920354330708662
 20
1.7580669291338584
 30
0.0
 10
1.3920354330708662
 20
1.7580669291338584
 30
0.0
 10
1.3585472440944883
 20
1.7687992125984253
 30
0.0
 10
1.3585472440944883
 20
1.7687992125984253
 30
0.0
 10
1.3585472440944883
 20
1.7687992125984253
 30
0.0
 10
1.3585472440944883
 20
1.7687992125984253
 30
0.0
 10
1.3237086614173228
 20
1.7774566929133859
 30
0.0
 10
1.3237086614173228
 20
1.7774566929133859
 30
0.0
 10
1.3237086614173228
 20
1.7774566929133859
 30
0.0
 10
1.3237086614173228
 20
1.7774566929133859
 30
0.0
 10
1.2876968503937007
 20
1.7841496062992126
 30
0.0
 10
1.2876968503937007
 20
1.7841496062992126
 30
0.0
 10
1.2876968503937007
 20
1.7841496062992126
 30
0.0
 10
1.2876968503937007
 20
1.7841496062992126
 30
0.0
 10
1.2506535433070867
 20
1.7889527559055118
 30
0.0
 10
1.2506535433070867
 20
1.7889527559055118
 30
0.0
 10
1.2506535433070867
 20
1.7889527559055118
 30
0.0
 10
1.2506535433070867
 20
1.7889527559055118
 30
0.0
 10
1.212759842519685
 20
1.7919803149606299
 30
0.0
 10
1.212759842519685
 20
1.7919803149606299
 30
0.0
 10
1.212759842519685
 20
1.7919803149606299
 30
0.0
 10
1.212759842519685
 20
1.7919803149606299
 30
0.0
 10
1.1741692913385828
 20
1.7933228346456693
 30
0.0
 10
1.1741692913385828
 20
1.7933228346456693
 30
0.0
 10
1.1741692913385828
 20
1.7933228346456693
 30
0.0
 10
1.1741692913385828
 20
1.7933228346456693
 30
0.0
 10
1.1350590551181103
 20
1.7930787401574804
 30
0.0
 10
1.1350590551181103
 20
1.7930787401574804
 30
0.0
 10
1.1350590551181103
 20
1.7930787401574804
 30
0.0
 10
1.1350590551181103
 20
1.7930787401574804
 30
0.0
 10
1.0955708661417323
 20
1.7913346456692913
 30
0.0
 10
1.0955708661417323
 20
1.7913346456692913
 30
0.0
 10
1.0955708661417323
 20
1.7913346456692913
 30
0.0
 10
1.0955708661417323
 20
1.7913346456692913
 30
0.0
 10
1.0558858267716535
 20
1.7882047244094488
 30
0.0
 10
1.0558858267716535
 20
1.7882047244094488
 30
0.0
 10
1.0558858267716535
 20
1.7882047244094488
 30
0.0
 10
1.0558858267716535
 20
1.7882047244094488
 30
0.0
 10
1.0161574803149607
 20
1.7837677165354331
 30
0.0
 10
1.0161574803149607
 20
1.7837677165354331
 30
0.0
 10
1.0161574803149607
 20
1.7837677165354331
 30
0.0
 10
1.0161574803149607
 20
1.7837677165354331
 30
0.0
 10
0.9765590551181103
 20
1.7781338582677166
 30
0.0
 10
0.9765590551181103
 20
1.7781338582677166
 30
0.0
 10
0.9765590551181103
 20
1.7781338582677166
 30
0.0
 10
0.9765590551181103
 20
1.7781338582677166
 30
0.0
 10
0.9372362204724409
 20
1.7713818897637796
 30
0.0
 10
0.9372362204724409
 20
1.7713818897637796
 30
0.0
 10
0.9372362204724409
 20
1.7713818897637796
 30
0.0
 10
0.9372362204724409
 20
1.7713818897637796
 30
0.0
 10
0.8983700787401575
 20
1.7636259842519686
 30
0.0
 10
0.8983700787401575
 20
1.7636259842519686
 30
0.0
 10
0.8983700787401575
 20
1.7636259842519686
 30
0.0
 10
0.8983700787401575
 20
1.7636259842519686
 30
0.0
 10
0.8601102362204725
 20
1.7549527559055118
 30
0.0
 10
0.8601102362204725
 20
1.7549527559055118
 30
0.0
 10
0.8601102362204725
 20
1.7549527559055118
 30
0.0
 10
0.8601102362204725
 20
1.7549527559055118
 30
0.0
 10
0.8226338582677165
 20
1.745464566929134
 30
0.0
 10
0.8226338582677165
 20
1.745464566929134
 30
0.0
 10
0.8226338582677165
 20
1.745464566929134
 30
0.0
 10
0.8226338582677165
 20
1.745464566929134
 30
0.0
 10
0.7860866141732283
 20
1.735248031496063
 30
0.0
 10
0.7860866141732283
 20
1.735248031496063
 30
0.0
 10
0.7860866141732283
 20
1.735248031496063
 30
0.0
 10
0.7860866141732283
 20
1.735248031496063
 30
0.0
 10
0.7506535433070867
 20
1.7244055118110238
 30
0.0
 10
0.7506535433070867
 20
1.7244055118110238
 30
0.0
 10
0.7506535433070867
 20
1.7244055118110238
 30
0.0
 10
0.7506535433070867
 20
1.7244055118110238
 30
0.0
 10
0.7164803149606299
 20
1.7130314960629922
 30
0.0
 10
0.7164803149606299
 20
1.7130314960629922
 30
0.0
 10
0.7164803149606299
 20
1.7130314960629922
 30
0.0
 10
0.7164803149606299
 20
1.7130314960629922
 30
0.0
 10
0.683736220472441
 20
1.701232283464567
 30
0.0
 10
0.683736220472441
 20
1.701232283464567
 30
0.0
 10
0.683736220472441
 20
1.701232283464567
 30
0.0
 10
0.683736220472441
 20
1.701232283464567
 30
0.0
 10
0.6913307086614173
 20
0.9491692913385827
 30
0.0
 10
0.6913307086614173
 20
0.9491692913385827
 30
0.0
 10
0.6913307086614173
 20
0.9491692913385827
 30
0.0
 10
0.6913307086614173
 20
0.9491692913385827
 30
0.0
 10
0.7240748031496064
 20
0.960968503937008
 30
0.0
 10
0.7240748031496064
 20
0.960968503937008
 30
0.0
 10
0.7240748031496064
 20
0.960968503937008
 30
0.0
 10
0.7240748031496064
 20
0.960968503937008
 30
0.0
 10
0.758248031496063
 20
0.9723425196850394
 30
0.0
 10
0.758248031496063
 20
0.9723425196850394
 30
0.0
 10
0.758248031496063
 20
0.9723425196850394
 30
0.0
 10
0.758248031496063
 20
0.9723425196850394
 30
0.0
 10
0.7936811023622048
 20
0.9831850393700787
 30
0.0
 10
0.7936811023622048
 20
0.9831850393700787
 30
0.0
 10
0.7936811023622048
 20
0.9831850393700787
 30
0.0
 10
0.7936811023622048
 20
0.9831850393700787
 30
0.0
 10
0.830228346456693
 20
0.9934015748031496
 30
0.0
 10
0.830228346456693
 20
0.9934015748031496
 30
0.0
 10
0.830228346456693
 20
0.9934015748031496
 30
0.0
 10
0.830228346456693
 20
0.9934015748031496
 30
0.0
 10
0.8677047244094489
 20
1.0028897637795275
 30
0.0
 10
0.8677047244094489
 20
1.0028897637795275
 30
0.0
 10
0.8677047244094489
 20
1.0028897637795275
 30
0.0
 10
0.8677047244094489
 20
1.0028897637795275
 30
0.0
 10
0.9059645669291339
 20
1.0115629921259843
 30
0.0
 10
0.9059645669291339
 20
1.0115629921259843
 30
0.0
 10
0.9059645669291339
 20
1.0115629921259843
 30
0.0
 10
0.9059645669291339
 20
1.0115629921259843
 30
0.0
 10
0.9448307086614174
 20
1.0193188976377954
 30
0.0
 10
0.9448307086614174
 20
1.0193188976377954
 30
0.0
 10
0.9448307086614174
 20
1.0193188976377954
 30
0.0
 10
0.9448307086614174
 20
1.0193188976377954
 30
0.0
 10
0.9841535433070866
 20
1.0260708661417324
 30
0.0
 10
0.9841535433070866
 20
1.0260708661417324
 30
0.0
 10
0.9841535433070866
 20
1.0260708661417324
 30
0.0
 10
0.9841535433070866
 20
1.0260708661417324
 30
0.0
 10
1.0237519685039371
 20
1.0317047244094488
 30
0.0
 10
1.0237519685039371
 20
1.0317047244094488
 30
0.0
 10
1.0237519685039371
 20
1.0317047244094488
 30
0.0
 10
1.0237519685039371
 20
1.0317047244094488
 30
0.0
 10
1.06348031496063
 20
1.0361417322834645
 30
0.0
 10
1.06348031496063
 20
1.0361417322834645
 30
0.0
 10
1.06348031496063
 20
1.0361417322834645
 30
0.0
 10
1.06348031496063
 20
1.0361417322834645
 30
0.0
 10
1.1031653543307087
 20
1.0392716535433071
 30
0.0
 10
1.1031653543307087
 20
1.0392716535433071
 30
0.0
 10
1.1031653543307087
 20
1.0392716535433071
 30
0.0
 10
1.1031653543307087
 20
1.0392716535433071
 30
0.0
 10
1.1426535433070866
 20
1.0410157480314961
 30
0.0
 10
1.1426535433070866
 20
1.0410157480314961
 30
0.0
 10
1.1426535433070866
 20
1.0410157480314961
 30
0.0
 10
1.1426535433070866
 20
1.0410157480314961
 30
0.0
 10
1.1817637795275591
 20
1.0412598425196851
 30
0.0
 10
1.1817637795275591
 20
1.0412598425196851
 30
0.0
 10
1.1817637795275591
 20
1.0412598425196851
 30
0.0
 10
1.1817637795275591
 20
1.0412598425196851
 30
0.0
 10
1.2203543307086615
 20
1.0399173228346457
 30
0.0
 10
1.2203543307086615
 20
1.0399173228346457
 30
0.0
 10
1.2203543307086615
 20
1.0399173228346457
 30
0.0
 10
1.2203543307086615
 20
1.0399173228346457
 30
0.0
 10
1.2582480314960631
 20
1.0368897637795276
 30
0.0
 10
1.2582480314960631
 20
1.0368897637795276
 30
0.0
 10
1.2582480314960631
 20
1.0368897637795276
 30
0.0
 10
1.2582480314960631
 20
1.0368897637795276
 30
0.0
 10
1.2952913385826772
 20
1.0320866141732283
 30
0.0
 10
1.2952913385826772
 20
1.0320866141732283
 30
0.0
 10
1.2952913385826772
 20
1.0320866141732283
 30
0.0
 10
1.2952913385826772
 20
1.0320866141732283
 30
0.0
 10
1.3313031496062993
 20
1.0253937007874017
 30
0.0
 10
1.3313031496062993
 20
1.0253937007874017
 30
0.0
 10
1.3313031496062993
 20
1.0253937007874017
 30
0.0
 10
1.3313031496062993
 20
1.0253937007874017
 30
0.0
 10
1.3661417322834646
 20
1.0167362204724411
 30
0.0
 10
1.3661417322834646
 20
1.0167362204724411
 30
0.0
 10
1.3661417322834646
 20
1.0167362204724411
 30
0.0
 10
1.3661417322834646
 20
1.0167362204724411
 30
0.0
 10
1.3996299212598426
 20
1.0060039370078742
 30
0.0
 10
1.3996299212598426
 20
1.0060039370078742
 30
0.0
 10
1.3996299212598426
 20
1.0060039370078742
 30
0.0
 10
1.3996299212598426
 20
1.0060039370078742
 30
0.0
 10
1.4316141732283465
 20
0.9931141732283465
 30
0.0
 10
1.4316141732283465
 20
0.9931141732283465
 30
0.0
 10
1.4316141732283465
 20
0.9931141732283465
 30
0.0
 10
1.4316141732283465
 20
0.9931141732283465
 30
0.0
 10
1.4619173228346458
 20
0.9779566929133858
 30
0.0
 10
1.4619173228346458
 20
0.9779566929133858
 30
0.0
 10
1.4619173228346458
 20
0.9779566929133858
 30
0.0
 10
1.4619173228346458
 20
0.9779566929133858
 30
0.0
 10
1.4903937007874015
 20
0.9604409448818898
 30
0.0
 10
1.4903937007874015
 20
0.9604409448818898
 30
0.0
 10
1.4903937007874015
 20
0.9604409448818898
 30
0.0
 10
1.4903937007874015
 20
0.9604409448818898
 30
0.0
 10
1.5168700787401574
 20
0.9404685039370079
 30
0.0
 10
1.5168700787401574
 20
0.9404685039370079
 30
0.0
 10
1.5168700787401574
 20
0.9404685039370079
 30
0.0
 10
1.5168700787401574
 20
0.9404685039370079
 30
0.0
 10
1.5411889763779527
 20
0.9179527559055118
 30
0.0
 10
1.5411889763779527
 20
0.9179527559055118
 30
0.0
 10
1.5411889763779527
 20
0.9179527559055118
 30
0.0
 10
1.5411889763779527
 20
0.9179527559055118
 30
0.0
 10
1.5631732283464568
 20
0.8927795275590551
 30
0.0
 10
1.5631732283464568
 20
0.8927795275590551
 30
0.0
 10
1.5631732283464568
 20
0.8927795275590551
 30
0.0
 10
1.5631732283464568
 20
0.8927795275590551
 30
0.0
 10
1.5826771653543308
 20
0.8648740157480316
 30
0.0
 10
1.5826771653543308
 20
0.8648740157480316
 30
0.0
 10
1.5826771653543308
 20
0.8648740157480316
 30
0.0
 10
1.5826771653543308
 20
0.8648740157480316
 30
0.0
 10
1.5995275590551181
 20
0.8341220472440946
 30
0.0
 10
1.5995275590551181
 20
0.8341220472440946
 30
0.0
 10
1.5995275590551181
 20
0.8341220472440946
 30
0.0
 10
1.5995275590551181
 20
0.8341220472440946
 30
0.0
 10
1.6135708661417323
 20
0.8004409448818898
 30
0.0
 10
1.6135708661417323
 20
0.8004409448818898
 30
0.0
 10
1.6135708661417323
 20
0.8004409448818898
 30
0.0
 10
1.6135708661417323
 20
0.8004409448818898
 30
0.0
 10
1.6246259842519686
 20
0.7637204724409449
 30
0.0
 10
1.6246259842519686
 20
0.7637204724409449
 30
0.0
 10
1.6246259842519686
 20
0.7637204724409449
 30
0.0
 10
1.6246259842519686
 20
0.7637204724409449
 30
0.0
 10
1.6325472440944881
 20
0.7238818897637795
 30
0.0
 10
1.6325472440944881
 20
0.7238818897637795
 30
0.0
 10
1.6325472440944881
 20
0.7238818897637795
 30
0.0
 10
1.6325472440944881
 20
0.7238818897637795
 30
0.0
 10
1.6371653543307088
 20
0.6808110236220473
 30
0.0
 10
1.6371653543307088
 20
0.6808110236220473
 30
0.0
  0
SPLINE
  5
90
100
AcDbEntity
  8
Layer 1
 62
   253
100
AcDbSpline
210
0.0
220
0.0
230
1.0
 70
     1
 71
     3
 72
    20
 73
    16
 74
     0
 42
0.0000000001
 43
0.0000000001
 40
0.0
 40
0.0
 40
0.0
 40
0.0
 40
0.25
 40
0.25
 40
0.25
 40
0.25
 40
0.5
 40
0.5
 40
0.5
 40
0.5
 40
0.75
 40
0.75
 40
0.75
 40
0.75
 40
1.0
 40
1.0
 40
1.0
 40
1.0
 10
0.6913307086614173
 20
0.9491692913385827
 30
0.0
 10
0.6913307086614173
 20
0.9491692913385827
 30
0.0
 10
0.683736220472441
 20
1.701232283464567
 30
0.0
 10
0.683736220472441
 20
1.701232283464567
 30
0.0
 10
0.683736220472441
 20
1.701232283464567
 30
0.0
 10
0.683736220472441
 20
1.701232283464567
 30
0.0
 10
0.6517874015748032
 20
1.6894527559055119
 30
0.0
 10
0.6517874015748032
 20
1.6894527559055119
 30
0.0
 10
0.6517874015748032
 20
1.6894527559055119
 30
0.0
 10
0.6517874015748032
 20
1.6894527559055119
 30
0.0
 10
0.6593818897637795
 20
0.9373897637795275
 30
0.0
 10
0.6593818897637795
 20
0.9373897637795275
 30
0.0
 10
0.6593818897637795
 20
0.9373897637795275
 30
0.0
 10
0.6593818897637795
 20
0.9373897637795275
 30
0.0
 10
0.6913307086614173
 20
0.9491692913385827
 30
0.0
 10
0.6913307086614173
 20
0.9491692913385827
 30
0.0
  0
SPLINE
  5
91
100
AcDbEntity
  8
Layer 1
 62
   253
100
AcDbSpline
210
0.0
220
0.0
230
1.0
 70
     1
 71
     3
 72
    20
 73
    16
 74
     0
 42
0.0000000001
 43
0.0000000001
 40
0.0
 40
0.0
 40
0.0
 40
0.0
 40
0.25
 40
0.25
 40
0.25
 40
0.25
 40
0.5
 40
0.5
 40
0.5
 40
0.5
 40
0.75
 40
0.75
 40
0.75
 40
0.75
 40
1.0
 40
1.0
 40
1.0
 40
1.0
 10
0.6593818897637795
 20
0.9373897637795275
 30
0.0
 10
0.6593818897637795
 20
0.9373897637795275
 30
0.0
 10
0.6517874015748032
 20
1.6894527559055119
 30
0.0
 10
0.6517874015748032
 20
1.6894527559055119
 30
0.0
 10
0.6517874015748032
 20
1.6894527559055119
 30
0.0
 10
0.6517874015748032
 20
1.6894527559055119
 30
0.0
 10
0.6199133858267717
 20
1.6781574803149606
 30
0.0
 10
0.6199133858267717
 20
1.6781574803149606
 30
0.0
 10
0.6199133858267717
 20
1.6781574803149606
 30
0.0
 10
0.6199133858267717
 20
1.6781574803149606
 30
0.0
 10
0.627507874015748
 20
0.9260944881889764
 30
0.0
 10
0.627507874015748
 20
0.9260944881889764
 30
0.0
 10
0.627507874015748
 20
0.9260944881889764
 30
0.0
 10
0.627507874015748
 20
0.9260944881889764
 30
0.0
 10
0.6593818897637795
 20
0.9373897637795275
 30
0.0
 10
0.6593818897637795
 20
0.9373897637795275
 30
0.0
  0
SPLINE
  5
92
100
AcDbEntity
  8
Layer 1
 62
   253
100
AcDbSpline
210
0.0
220
0.0
230
1.0
 70
     1
 71
     3
 72
    20
 73
    16
 74
     0
 42
0.0000000001
 43
0.0000000001
 40
0.0
 40
0.0
 40
0.0
 40
0.0
 40
0.25
 40
0.25
 40
0.25
 40
0.25
 40
0.5
 40
0.5
 40
0.5
 40
0.5
 40
0.75
 40
0.75
 40
0.75
 40
0.75
 40
1.0
 40
1.0
 40
1.0
 40
1.0
 10
0.627507874015748
 20
0.9260944881889764
 30
0.0
 10
0.627507874015748
 20
0.9260944881889764
 30
0.0
 10
0.6199133858267717
 20
1.6781574803149606
 30
0.0
 10
0.6199133858267717
 20
1.6781574803149606
 30
0.0
 10
0.6199133858267717
 20
1.6781574803149606
 30
0.0
 10
0.6199133858267717
 20
1.6781574803149606
 30
0.0
 10
0.5881102362204724
 20
1.6673818897637795
 30
0.0
 10
0.5881102362204724
 20
1.6673818897637795
 30
0.0
 10
0.5881102362204724
 20
1.6673818897637795
 30
0.0
 10
0.5881102362204724
 20
1.6673818897637795
 30
0.0
 10
0.5957047244094489
 20
0.9153188976377953
 30
0.0
 10
0.5957047244094489
 20
0.9153188976377953
 30
0.0
 10
0.5957047244094489
 20
0.9153188976377953
 30
0.0
 10
0.5957047244094489
 20
0.9153188976377953
 30
0.0
 10
0.627507874015748
 20
0.9260944881889764
 30
0.0
 10
0.627507874015748
 20
0.9260944881889764
 30
0.0
  0
SPLINE
  5
93
100
AcDbEntity
  8
Layer 1
 62
   253
100
AcDbSpline
210
0.0
220
0.0
230
1.0
 70
     1
 71
     3
 72
    20
 73
    16
 74
     0
 42
0.0000000001
 43
0.0000000001
 40
0.0
 40
0.0
 40
0.0
 40
0.0
 40
0.25
 40
0.25
 40
0.25
 40
0.25
 40
0.5
 40
0.5
 40
0.5
 40
0.5
 40
0.75
 40
0.75
 40
0.75
 40
0.75
 40
1.0
 40
1.0
 40
1.0
 40
1.0
 10
0.5957047244094489
 20
0.9153188976377953
 30
0.0
 10
0.5957047244094489
 20
0.9153188976377953
 30
0.0
 10
0.5881102362204724
 20
1.6673818897637795
 30
0.0
 10
0.5881102362204724
 20
1.6673818897637795
 30
0.0
 10
0.5881102362204724
 20
1.6673818897637795
 30
0.0
 10
0.5881102362204724
 20
1.6673818897637795
 30
0.0
 10
0.5563897637795275
 20
1.6571889763779528
 30
0.0
 10
0.5563897637795275
 20
1.6571889763779528
 30
0.0
 10
0.5563897637795275
 20
1.6571889763779528
 30
0.0
 10
0.5563897637795275
 20
1.6571889763779528
 30
0.0
 10
0.563984251968504
 20
0.9051259842519686
 30
0.0
 10
0.563984251968504
 20
0.9051259842519686
 30
0.0
 10
0.563984251968504
 20
0.9051259842519686
 30
0.0
 10
0.563984251968504
 20
0.9051259842519686
 30
0.0
 10
0.5957047244094489
 20
0.9153188976377953
 30
0.0
 10
0.5957047244094489
 20
0.9153188976377953
 30
0.0
  0
SPLINE
  5
94
100
AcDbEntity
  8
Layer 1
 62
   253
100
AcDbSpline
210
0.0
220
0.0
230
1.0
 70
     1
 71
     3
 72
    20
 73
    16
 74
     0
 42
0.0000000001
 43
0.0000000001
 40
0.0
 40
0.0
 40
0.0
 40
0.0
 40
0.25
 40
0.25
 40
0.25
 40
0.25
 40
0.5
 40
0.5
 40
0.5
 40
0.5
 40
0.75
 40
0.75
 40
0.75
 40
0.75
 40
1.0
 40
1.0
 40
1.0
 40
1.0
 10
0.563984251968504
 20
0.9051259842519686
 30
0.0
 10
0.563984251968504
 20
0.9051259842519686
 30
0.0
 10
0.5563897637795275
 20
1.6571889763779528
 30
0.0
 10
0.5563897637795275
 20
1.6571889763779528
 30
0.0
 10
0.5563897637795275
 20
1.6571889763779528
 30
0.0
 10
0.5563897637795275
 20
1.6571889763779528
 30
0.0
 10
0.524744094488189
 20
1.6476102362204725
 30
0.0
 10
0.524744094488189
 20
1.6476102362204725
 30
0.0
 10
0.524744094488189
 20
1.6476102362204725
 30
0.0
 10
0.524744094488189
 20
1.6476102362204725
 30
0.0
 10
0.5323385826771654
 20
0.8955472440944883
 30
0.0
 10
0.5323385826771654
 20
0.8955472440944883
 30
0.0
 10
0.5323385826771654
 20
0.8955472440944883
 30
0.0
 10
0.5323385826771654
 20
0.8955472440944883
 30
0.0
 10
0.563984251968504
 20
0.9051259842519686
 30
0.0
 10
0.563984251968504
 20
0.9051259842519686
 30
0.0
  0
SPLINE
  5
95
100
AcDbEntity
  8
Layer 1
 62
   253
100
AcDbSpline
210
0.0
220
0.0
230
1.0
 70
     1
 71
     3
 72
    20
 73
    16
 74
     0
 42
0.0000000001
 43
0.0000000001
 40
0.0
 40
0.0
 40
0.0
 40
0.0
 40
0.25
 40
0.25
 40
0.25
 40
0.25
 40
0.5
 40
0.5
 40
0.5
 40
0.5
 40
0.75
 40
0.75
 40
0.75
 40
0.75
 40
1.0
 40
1.0
 40
1.0
 40
1.0
 10
0.5323385826771654
 20
0.8955472440944883
 30
0.0
 10
0.5323385826771654
 20
0.8955472440944883
 30
0.0
 10
0.524744094488189
 20
1.6476102362204725
 30
0.0
 10
0.524744094488189
 20
1.6476102362204725
 30
0.0
 10
0.524744094488189
 20
1.6476102362204725
 30
0.0
 10
0.524744094488189
 20
1.6476102362204725
 30
0.0
 10
0.4931929133858268
 20
1.6387125984251969
 30
0.0
 10
0.4931929133858268
 20
1.6387125984251969
 30
0.0
 10
0.4931929133858268
 20
1.6387125984251969
 30
0.0
 10
0.4931929133858268
 20
1.6387125984251969
 30
0.0
 10
0.5007874015748032
 20
0.8866496062992126
 30
0.0
 10
0.5007874015748032
 20
0.8866496062992126
 30
0.0
 10
0.5007874015748032
 20
0.8866496062992126
 30
0.0
 10
0.5007874015748032
 20
0.8866496062992126
 30
0.0
 10
0.5323385826771654
 20
0.8955472440944883
 30
0.0
 10
0.5323385826771654
 20
0.8955472440944883
 30
0.0
  0
SPLINE
  5
96
100
AcDbEntity
  8
Layer 1
 62
   253
100
AcDbSpline
210
0.0
220
0.0
230
1.0
 70
     1
 71
     3
 72
    20
 73
    16
 74
     0
 42
0.0000000001
 43
0.0000000001
 40
0.0
 40
0.0
 40
0.0
 40
0.0
 40
0.25
 40
0.25
 40
0.25
 40
0.25
 40
0.5
 40
0.5
 40
0.5
 40
0.5
 40
0.75
 40
0.75
 40
0.75
 40
0.75
 40
1.0
 40
1.0
 40
1.0
 40
1.0
 10
0.5007874015748032
 20
0.8866496062992126
 30
0.0
 10
0.5007874015748032
 20
0.8866496062992126
 30
0.0
 10
0.4931929133858268
 20
1.6387125984251969
 30
0.0
 10
0.4931929133858268
 20
1.6387125984251969
 30
0.0
 10
0.4931929133858268
 20
1.6387125984251969
 30
0.0
 10
0.4931929133858268
 20
1.6387125984251969
 30
0.0
 10
0.4617283464566929
 20
1.6305393700787403
 30
0.0
 10
0.4617283464566929
 20
1.6305393700787403
 30
0.0
 10
0.4617283464566929
 20
1.6305393700787403
 30
0.0
 10
0.4617283464566929
 20
1.6305393700787403
 30
0.0
 10
0.4693228346456693
 20
0.8784763779527559
 30
0.0
 10
0.4693228346456693
 20
0.8784763779527559
 30
0.0
 10
0.4693228346456693
 20
0.8784763779527559
 30
0.0
 10
0.4693228346456693
 20
0.8784763779527559
 30
0.0
 10
0.5007874015748032
 20
0.8866496062992126
 30
0.0
 10
0.5007874015748032
 20
0.8866496062992126
 30
0.0
  0
SPLINE
  5
97
100
AcDbEntity
  8
Layer 1
 62
   253
100
AcDbSpline
210
0.0
220
0.0
230
1.0
 70
     1
 71
     3
 72
    20
 73
    16
 74
     0
 42
0.0000000001
 43
0.0000000001
 40
0.0
 40
0.0
 40
0.0
 40
0.0
 40
0.25
 40
0.25
 40
0.25
 40
0.25
 40
0.5
 40
0.5
 40
0.5
 40
0.5
 40
0.75
 40
0.75
 40
0.75
 40
0.75
 40
1.0
 40
1.0
 40
1.0
 40
1.0
 10
0.4693228346456693
 20
0.8784763779527559
 30
0.0
 10
0.4693228346456693
 20
0.8784763779527559
 30
0.0
 10
0.4617283464566929
 20
1.6305393700787403
 30
0.0
 10
0.4617283464566929
 20
1.6305393700787403
 30
0.0
 10
0.4617283464566929
 20
1.6305393700787403
 30
0.0
 10
0.4617283464566929
 20
1.6305393700787403
 30
0.0
 10
0.4303661417322835
 20
1.6231496062992126
 30
0.0
 10
0.4303661417322835
 20
1.6231496062992126
 30
0.0
 10
0.4303661417322835
 20
1.6231496062992126
 30
0.0
 10
0.4303661417322835
 20
1.6231496062992126
 30
0.0
 10
0.4379606299212598
 20
0.8710866141732284
 30
0.0
 10
0.4379606299212598
 20
0.8710866141732284
 30
0.0
 10
0.4379606299212598
 20
0.8710866141732284
 30
0.0
 10
0.4379606299212598
 20
0.8710866141732284
 30
0.0
 10
0.4693228346456693
 20
0.8784763779527559
 30
0.0
 10
0.4693228346456693
 20
0.8784763779527559
 30
0.0
  0
SPLINE
  5
98
100
AcDbEntity
  8
Layer 1
 62
   253
100
AcDbSpline
210
0.0
220
0.0
230
1.0
 70
     1
 71
     3
 72
    20
 73
    16
 74
     0
 42
0.0000000001
 43
0.0000000001
 40
0.0
 40
0.0
 40
0.0
 40
0.0
 40
0.25
 40
0.25
 40
0.25
 40
0.25
 40
0.5
 40
0.5
 40
0.5
 40
0.5
 40
0.75
 40
0.75
 40
0.75
 40
0.75
 40
1.0
 40
1.0
 40
1.0
 40
1.0
 10
0.4379606299212598
 20
0.8710866141732284
 30
0.0
 10
0.4379606299212598
 20
0.8710866141732284
 30
0.0
 10
0.4303661417322835
 20
1.6231496062992126
 30
0.0
 10
0.4303661417322835
 20
1.6231496062992126
 30
0.0
 10
0.4303661417322835
 20
1.6231496062992126
 30
0.0
 10
0.4303661417322835
 20
1.6231496062992126
 30
0.0
 10
0.3990905511811024
 20
1.6165748031496063
 30
0.0
 10
0.3990905511811024
 20
1.6165748031496063
 30
0.0
 10
0.3990905511811024
 20
1.6165748031496063
 30
0.0
 10
0.3990905511811024
 20
1.6165748031496063
 30
0.0
 10
0.4066850393700788
 20
0.8645118110236221
 30
0.0
 10
0.4066850393700788
 20
0.8645118110236221
 30
0.0
 10
0.4066850393700788
 20
0.8645118110236221
 30
0.0
 10
0.4066850393700788
 20
0.8645118110236221
 30
0.0
 10
0.4379606299212598
 20
0.8710866141732284
 30
0.0
 10
0.4379606299212598
 20
0.8710866141732284
 30
0.0
  0
SPLINE
  5
99
100
AcDbEntity
  8
Layer 1
 62
   253
100
AcDbSpline
210
0.0
220
0.0
230
1.0
 70
     1
 71
     3
 72
    20
 73
    16
 74
     0
 42
0.0000000001
 43
0.0000000001
 40
0.0
 40
0.0
 40
0.0
 40
0.0
 40
0.25
 40
0.25
 40
0.25
 40
0.25
 40
0.5
 40
0.5
 40
0.5
 40
0.5
 40
0.75
 40
0.75
 40
0.75
 40
0.75
 40
1.0
 40
1.0
 40
1.0
 40
1.0
 10
0.4066850393700788
 20
0.8645118110236221
 30
0.0
 10
0.4066850393700788
 20
0.8645118110236221
 30
0.0
 10
0.3990905511811024
 20
1.6165748031496063
 30
0.0
 10
0.3990905511811024
 20
1.6165748031496063
 30
0.0
 10
0.3990905511811024
 20
1.6165748031496063
 30
0.0
 10
0.3990905511811024
 20
1.6165748031496063
 30
0.0
 10
0.3679251968503937
 20
1.6108779527559056
 30
0.0
 10
0.3679251968503937
 20
1.6108779527559056
 30
0.0
 10
0.3679251968503937
 20
1.6108779527559056
 30
0.0
 10
0.3679251968503937
 20
1.6108779527559056
 30
0.0
 10
0.3755196850393701
 20
0.8588149606299212
 30
0.0
 10
0.3755196850393701
 20
0.8588149606299212
 30
0.0
 10
0.3755196850393701
 20
0.8588149606299212
 30
0.0
 10
0.3755196850393701
 20
0.8588149606299212
 30
0.0
 10
0.4066850393700788
 20
0.8645118110236221
 30
0.0
 10
0.4066850393700788
 20
0.8645118110236221
 30
0.0
  0
SPLINE
  5
9A
100
AcDbEntity
  8
Layer 1
 62
   253
100
AcDbSpline
210
0.0
220
0.0
230
1.0
 70
     1
 71
     3
 72
    20
 73
    16
 74
     0
 42
0.0000000001
 43
0.0000000001
 40
0.0
 40
0.0
 40
0.0
 40
0.0
 40
0.25
 40
0.25
 40
0.25
 40
0.25
 40
0.5
 40
0.5
 40
0.5
 40
0.5
 40
0.75
 40
0.75
 40
0.75
 40
0.75
 40
1.0
 40
1.0
 40
1.0
 40
1.0
 10
0.3755196850393701
 20
0.8588149606299212
 30
0.0
 10
0.3755196850393701
 20
0.8588149606299212
 30
0.0
 10
0.3679251968503937
 20
1.6108779527559056
 30
0.0
 10
0.3679251968503937
 20
1.6108779527559056
 30
0.0
 10
0.3679251968503937
 20
1.6108779527559056
 30
0.0
 10
0.3679251968503937
 20
1.6108779527559056
 30
0.0
 10
0.3368582677165354
 20
1.6061102362204724
 30
0.0
 10
0.3368582677165354
 20
1.6061102362204724
 30
0.0
 10
0.3368582677165354
 20
1.6061102362204724
 30
0.0
 10
0.3368582677165354
 20
1.6061102362204724
 30
0.0
 10
0.3444527559055118
 20
0.8540472440944882
 30
0.0
 10
0.3444527559055118
 20
0.8540472440944882
 30
0.0
 10
0.3444527559055118
 20
0.8540472440944882
 30
0.0
 10
0.3444527559055118
 20
0.8540472440944882
 30
0.0
 10
0.3755196850393701
 20
0.8588149606299212
 30
0.0
 10
0.3755196850393701
 20
0.8588149606299212
 30
0.0
  0
SPLINE
  5
9B
100
AcDbEntity
  8
Layer 1
 62
   253
100
AcDbSpline
210
0.0
220
0.0
230
1.0
 70
     1
 71
     3
 72
    20
 73
    16
 74
     0
 42
0.0000000001
 43
0.0000000001
 40
0.0
 40
0.0
 40
0.0
 40
0.0
 40
0.25
 40
0.25
 40
0.25
 40
0.25
 40
0.5
 40
0.5
 40
0.5
 40
0.5
 40
0.75
 40
0.75
 40
0.75
 40
0.75
 40
1.0
 40
1.0
 40
1.0
 40
1.0
 10
0.3444527559055118
 20
0.8540472440944882
 30
0.0
 10
0.3444527559055118
 20
0.8540472440944882
 30
0.0
 10
0.3368582677165354
 20
1.6061102362204724
 30
0.0
 10
0.3368582677165354
 20
1.6061102362204724
 30
0.0
 10
0.3368582677165354
 20
1.6061102362204724
 30
0.0
 10
0.3368582677165354
 20
1.6061102362204724
 30
0.0
 10
0.3059133858267717
 20
1.6023228346456693
 30
0.0
 10
0.3059133858267717
 20
1.6023228346456693
 30
0.0
 10
0.3059133858267717
 20
1.6023228346456693
 30
0.0
 10
0.3059133858267717
 20
1.6023228346456693
 30
0.0
 10
0.313507874015748
 20
0.8502598425196851
 30
0.0
 10
0.313507874015748
 20
0.8502598425196851
 30
0.0
 10
0.313507874015748
 20
0.8502598425196851
 30
0.0
 10
0.313507874015748
 20
0.8502598425196851
 30
0.0
 10
0.3444527559055118
 20
0.8540472440944882
 30
0.0
 10
0.3444527559055118
 20
0.8540472440944882
 30
0.0
  0
SPLINE
  5
9C
100
AcDbEntity
  8
Layer 1
 62
   253
100
AcDbSpline
210
0.0
220
0.0
230
1.0
 70
     1
 71
     3
 72
    20
 73
    16
 74
     0
 42
0.0000000001
 43
0.0000000001
 40
0.0
 40
0.0
 40
0.0
 40
0.0
 40
0.25
 40
0.25
 40
0.25
 40
0.25
 40
0.5
 40
0.5
 40
0.5
 40
0.5
 40
0.75
 40
0.75
 40
0.75
 40
0.75
 40
1.0
 40
1.0
 40
1.0
 40
1.0
 10
0.313507874015748
 20
0.8502598425196851
 30
0.0
 10
0.313507874015748
 20
0.8502598425196851
 30
0.0
 10
0.3059133858267717
 20
1.6023228346456693
 30
0.0
 10
0.3059133858267717
 20
1.6023228346456693
 30
0.0
 10
0.3059133858267717
 20
1.6023228346456693
 30
0.0
 10
0.3059133858267717
 20
1.6023228346456693
 30
0.0
 10
0.2750748031496063
 20
1.5995551181102363
 30
0.0
 10
0.2750748031496063
 20
1.5995551181102363
 30
0.0
 10
0.2750748031496063
 20
1.5995551181102363
 30
0.0
 10
0.2750748031496063
 20
1.5995551181102363
 30
0.0
 10
0.2826692913385827
 20
0.8474921259842521
 30
0.0
 10
0.2826692913385827
 20
0.8474921259842521
 30
0.0
 10
0.2826692913385827
 20
0.8474921259842521
 30
0.0
 10
0.2826692913385827
 20
0.8474921259842521
 30
0.0
 10
0.313507874015748
 20
0.8502598425196851
 30
0.0
 10
0.313507874015748
 20
0.8502598425196851
 30
0.0
  0
SPLINE
  5
9D
100
AcDbEntity
  8
Layer 1
 62
   253
100
AcDbSpline
210
0.0
220
0.0
230
1.0
 70
     1
 71
     3
 72
    20
 73
    16
 74
     0
 42
0.0000000001
 43
0.0000000001
 40
0.0
 40
0.0
 40
0.0
 40
0.0
 40
0.25
 40
0.25
 40
0.25
 40
0.25
 40
0.5
 40
0.5
 40
0.5
 40
0.5
 40
0.75
 40
0.75
 40
0.75
 40
0.75
 40
1.0
 40
1.0
 40
1.0
 40
1.0
 10
0.2826692913385827
 20
0.8474921259842521
 30
0.0
 10
0.2826692913385827
 20
0.8474921259842521
 30
0.0
 10
0.2750748031496063
 20
1.5995551181102363
 30
0.0
 10
0.2750748031496063
 20
1.5995551181102363
 30
0.0
 10
0.2750748031496063
 20
1.5995551181102363
 30
0.0
 10
0.2750748031496063
 20
1.5995551181102363
 30
0.0
 10
0.2443543307086614
 20
1.5978700787401576
 30
0.0
 10
0.2443543307086614
 20
1.5978700787401576
 30
0.0
 10
0.2443543307086614
 20
1.5978700787401576
 30
0.0
 10
0.2443543307086614
 20
1.5978700787401576
 30
0.0
 10
0.2519488188976378
 20
0.8458070866141733
 30
0.0
 10
0.2519488188976378
 20
0.8458070866141733
 30
0.0
 10
0.2519488188976378
 20
0.8458070866141733
 30
0.0
 10
0.2519488188976378
 20
0.8458070866141733
 30
0.0
 10
0.2826692913385827
 20
0.8474921259842521
 30
0.0
 10
0.2826692913385827
 20
0.8474921259842521
 30
0.0
  0
SPLINE
  5
9E
100
AcDbEntity
  8
Layer 1
 62
   253
100
AcDbSpline
210
0.0
220
0.0
230
1.0
 70
     1
 71
     3
 72
    20
 73
    16
 74
     0
 42
0.0000000001
 43
0.0000000001
 40
0.0
 40
0.0
 40
0.0
 40
0.0
 40
0.25
 40
0.25
 40
0.25
 40
0.25
 40
0.5
 40
0.5
 40
0.5
 40
0.5
 40
0.75
 40
0.75
 40
0.75
 40
0.75
 40
1.0
 40
1.0
 40
1.0
 40
1.0
 10
0.2519488188976378
 20
0.8458070866141733
 30
0.0
 10
0.2519488188976378
 20
0.8458070866141733
 30
0.0
 10
0.2443543307086614
 20
1.5978700787401576
 30
0.0
 10
0.2443543307086614
 20
1.5978700787401576
 30
0.0
 10
0.2443543307086614
 20
1.5978700787401576
 30
0.0
 10
0.2443543307086614
 20
1.5978700787401576
 30
0.0
 10
0.213755905511811
 20
1.5973110236220474
 30
0.0
 10
0.213755905511811
 20
1.5973110236220474
 30
0.0
 10
0.213755905511811
 20
1.5973110236220474
 30
0.0
 10
0.213755905511811
 20
1.5973110236220474
 30
0.0
 10
0.2213503937007874
 20
0.845248031496063
 30
0.0
 10
0.2213503937007874
 20
0.845248031496063
 30
0.0
 10
0.2213503937007874
 20
0.845248031496063
 30
0.0
 10
0.2213503937007874
 20
0.845248031496063
 30
0.0
 10
0.2519488188976378
 20
0.8458070866141733
 30
0.0
 10
0.2519488188976378
 20
0.8458070866141733
 30
0.0
  0
SPLINE
  5
9F
100
AcDbEntity
  8
Layer 1
 62
   253
100
AcDbSpline
210
0.0
220
0.0
230
1.0
 70
     1
 71
     3
 72
    20
 73
    16
 74
     0
 42
0.0000000001
 43
0.0000000001
 40
0.0
 40
0.0
 40
0.0
 40
0.0
 40
0.25
 40
0.25
 40
0.25
 40
0.25
 40
0.5
 40
0.5
 40
0.5
 40
0.5
 40
0.75
 40
0.75
 40
0.75
 40
0.75
 40
1.0
 40
1.0
 40
1.0
 40
1.0
 10
0.2213503937007874
 20
0.845248031496063
 30
0.0
 10
0.2213503937007874
 20
0.845248031496063
 30
0.0
 10
0.213755905511811
 20
1.5973110236220474
 30
0.0
 10
0.213755905511811
 20
1.5973110236220474
 30
0.0
 10
0.213755905511811
 20
1.5973110236220474
 30
0.0
 10
0.213755905511811
 20
1.5973110236220474
 30
0.0
 10
0.1832874015748032
 20
1.5979370078740158
 30
0.0
 10
0.1832874015748032
 20
1.5979370078740158
 30
0.0
 10
0.1832874015748032
 20
1.5979370078740158
 30
0.0
 10
0.1832874015748032
 20
1.5979370078740158
 30
0.0
 10
0.1908818897637795
 20
0.8458740157480316
 30
0.0
 10
0.1908818897637795
 20
0.8458740157480316
 30
0.0
 10
0.1908818897637795
 20
0.8458740157480316
 30
0.0
 10
0.1908818897637795
 20
0.8458740157480316
 30
0.0
 10
0.2213503937007874
 20
0.845248031496063
 30
0.0
 10
0.2213503937007874
 20
0.845248031496063
 30
0.0
  0
SPLINE
  5
A0
100
AcDbEntity
  8
Layer 1
 62
   253
100
AcDbSpline
210
0.0
220
0.0
230
1.0
 70
     1
 71
     3
 72
    20
 73
    16
 74
     0
 42
0.0000000001
 43
0.0000000001
 40
0.0
 40
0.0
 40
0.0
 40
0.0
 40
0.25
 40
0.25
 40
0.25
 40
0.25
 40
0.5
 40
0.5
 40
0.5
 40
0.5
 40
0.75
 40
0.75
 40
0.75
 40
0.75
 40
1.0
 40
1.0
 40
1.0
 40
1.0
 10
0.1908818897637795
 20
0.8458740157480316
 30
0.0
 10
0.1908818897637795
 20
0.8458740157480316
 30
0.0
 10
0.1832874015748032
 20
1.5979370078740158
 30
0.0
 10
0.1832874015748032
 20
1.5979370078740158
 30
0.0
 10
0.1832874015748032
 20
1.5979370078740158
 30
0.0
 10
0.1832874015748032
 20
1.5979370078740158
 30
0.0
 10
0.1529409448818898
 20
1.5997795275590552
 30
0.0
 10
0.1529409448818898
 20
1.5997795275590552
 30
0.0
 10
0.1529409448818898
 20
1.5997795275590552
 30
0.0
 10
0.1529409448818898
 20
1.5997795275590552
 30
0.0
 10
0.1605354330708662
 20
0.8477165354330709
 30
0.0
 10
0.1605354330708662
 20
0.8477165354330709
 30
0.0
 10
0.1605354330708662
 20
0.8477165354330709
 30
0.0
 10
0.1605354330708662
 20
0.8477165354330709
 30
0.0
 10
0.1908818897637795
 20
0.8458740157480316
 30
0.0
 10
0.1908818897637795
 20
0.8458740157480316
 30
0.0
  0
SPLINE
  5
A1
100
AcDbEntity
  8
Layer 1
 62
   253
100
AcDbSpline
210
0.0
220
0.0
230
1.0
 70
     1
 71
     3
 72
    20
 73
    16
 74
     0
 42
0.0000000001
 43
0.0000000001
 40
0.0
 40
0.0
 40
0.0
 40
0.0
 40
0.25
 40
0.25
 40
0.25
 40
0.25
 40
0.5
 40
0.5
 40
0.5
 40
0.5
 40
0.75
 40
0.75
 40
0.75
 40
0.75
 40
1.0
 40
1.0
 40
1.0
 40
1.0
 10
0.1605354330708662
 20
0.8477165354330709
 30
0.0
 10
0.1605354330708662
 20
0.8477165354330709
 30
0.0
 10
0.1529409448818898
 20
1.5997795275590552
 30
0.0
 10
0.1529409448818898
 20
1.5997795275590552
 30
0.0
 10
0.1529409448818898
 20
1.5997795275590552
 30
0.0
 10
0.1529409448818898
 20
1.5997795275590552
 30
0.0
 10
0.122736220472441
 20
1.6029055118110236
 30
0.0
 10
0.122736220472441
 20
1.6029055118110236
 30
0.0
 10
0.122736220472441
 20
1.6029055118110236
 30
0.0
 10
0.122736220472441
 20
1.6029055118110236
 30
0.0
 10
0.1303307086614173
 20
0.8508425196850394
 30
0.0
 10
0.1303307086614173
 20
0.8508425196850394
 30
0.0
 10
0.1303307086614173
 20
0.8508425196850394
 30
0.0
 10
0.1303307086614173
 20
0.8508425196850394
 30
0.0
 10
0.1605354330708662
 20
0.8477165354330709
 30
0.0
 10
0.1605354330708662
 20
0.8477165354330709
 30
0.0
  0
SPLINE
  5
A2
100
AcDbEntity
  8
Layer 1
 62
   253
100
AcDbSpline
210
0.0
220
0.0
230
1.0
 70
     1
 71
     3
 72
    20
 73
    16
 74
     0
 42
0.0000000001
 43
0.0000000001
 40
0.0
 40
0.0
 40
0.0
 40
0.0
 40
0.25
 40
0.25
 40
0.25
 40
0.25
 40
0.5
 40
0.5
 40
0.5
 40
0.5
 40
0.75
 40
0.75
 40
0.75
 40
0.75
 40
1.0
 40
1.0
 40
1.0
 40
1.0
 10
0.1303307086614173
 20
0.8508425196850394
 30
0.0
 10
0.1303307086614173
 20
0.8508425196850394
 30
0.0
 10
0.122736220472441
 20
1.6029055118110236
 30
0.0
 10
0.122736220472441
 20
1.6029055118110236
 30
0.0
 10
0.122736220472441
 20
1.6029055118110236
 30
0.0
 10
0.122736220472441
 20
1.6029055118110236
 30
0.0
 10
0.0926653543307087
 20
1.6073622047244096
 30
0.0
 10
0.0926653543307087
 20
1.6073622047244096
 30
0.0
 10
0.0926653543307087
 20
1.6073622047244096
 30
0.0
 10
0.0926653543307087
 20
1.6073622047244096
 30
0.0
 10
0.1002598425196851
 20
0.8552992125984252
 30
0.0
 10
0.1002598425196851
 20
0.8552992125984252
 30
0.0
 10
0.1002598425196851
 20
0.8552992125984252
 30
0.0
 10
0.1002598425196851
 20
0.8552992125984252
 30
0.0
 10
0.1303307086614173
 20
0.8508425196850394
 30
0.0
 10
0.1303307086614173
 20
0.8508425196850394
 30
0.0
  0
SPLINE
  5
A3
100
AcDbEntity
  8
Layer 1
 62
   253
100
AcDbSpline
210
0.0
220
0.0
230
1.0
 70
     1
 71
     3
 72
    20
 73
    16
 74
     0
 42
0.0000000001
 43
0.0000000001
 40
0.0
 40
0.0
 40
0.0
 40
0.0
 40
0.25
 40
0.25
 40
0.25
 40
0.25
 40
0.5
 40
0.5
 40
0.5
 40
0.5
 40
0.75
 40
0.75
 40
0.75
 40
0.75
 40
1.0
 40
1.0
 40
1.0
 40
1.0
 10
0.1002598425196851
 20
0.8552992125984252
 30
0.0
 10
0.1002598425196851
 20
0.8552992125984252
 30
0.0
 10
0.0926653543307087
 20
1.6073622047244096
 30
0.0
 10
0.0926653543307087
 20
1.6073622047244096
 30
0.0
 10
0.0926653543307087
 20
1.6073622047244096
 30
0.0
 10
0.0926653543307087
 20
1.6073622047244096
 30
0.0
 10
0.062740157480315
 20
1.6132007874015748
 30
0.0
 10
0.062740157480315
 20
1.6132007874015748
 30
0.0
 10
0.062740157480315
 20
1.6132007874015748
 30
0.0
 10
0.062740157480315
 20
1.6132007874015748
 30
0.0
 10
0.0703346456692913
 20
0.8611377952755905
 30
0.0
 10
0.0703346456692913
 20
0.8611377952755905
 30
0.0
 10
0.0703346456692913
 20
0.8611377952755905
 30
0.0
 10
0.0703346456692913
 20
0.8611377952755905
 30
0.0
 10
0.1002598425196851
 20
0.8552992125984252
 30
0.0
 10
0.1002598425196851
 20
0.8552992125984252
 30
0.0
  0
SPLINE
  5
A4
100
AcDbEntity
  8
Layer 1
 62
   253
100
AcDbSpline
210
0.0
220
0.0
230
1.0
 70
     1
 71
     3
 72
    20
 73
    16
 74
     0
 42
0.0000000001
 43
0.0000000001
 40
0.0
 40
0.0
 40
0.0
 40
0.0
 40
0.25
 40
0.25
 40
0.25
 40
0.25
 40
0.5
 40
0.5
 40
0.5
 40
0.5
 40
0.75
 40
0.75
 40
0.75
 40
0.75
 40
1.0
 40
1.0
 40
1.0
 40
1.0
 10
0.0703346456692913
 20
0.8611377952755905
 30
0.0
 10
0.0703346456692913
 20
0.8611377952755905
 30
0.0
 10
0.062740157480315
 20
1.6132007874015748
 30
0.0
 10
0.062740157480315
 20
1.6132007874015748
 30
0.0
 10
0.062740157480315
 20
1.6132007874015748
 30
0.0
 10
0.062740157480315
 20
1.6132007874015748
 30
0.0
 10
0.0329645669291339
 20
1.6204606299212598
 30
0.0
 10
0.0329645669291339
 20
1.6204606299212598
 30
0.0
 10
0.0329645669291339
 20
1.6204606299212598
 30
0.0
 10
0.0329645669291339
 20
1.6204606299212598
 30
0.0
 10
0.0405590551181102
 20
0.8683976377952757
 30
0.0
 10
0.0405590551181102
 20
0.8683976377952757
 30
0.0
 10
0.0405590551181102
 20
0.8683976377952757
 30
0.0
 10
0.0405590551181102
 20
0.8683976377952757
 30
0.0
 10
0.0703346456692913
 20
0.8611377952755905
 30
0.0
 10
0.0703346456692913
 20
0.8611377952755905
 30
0.0
  0
SPLINE
  5
A5
100
AcDbEntity
  8
Layer 1
 62
   253
100
AcDbSpline
210
0.0
220
0.0
230
1.0
 70
     1
 71
     3
 72
    20
 73
    16
 74
     0
 42
0.0000000001
 43
0.0000000001
 40
0.0
 40
0.0
 40
0.0
 40
0.0
 40
0.25
 40
0.25
 40
0.25
 40
0.25
 40
0.5
 40
0.5
 40
0.5
 40
0.5
 40
0.75
 40
0.75
 40
0.75
 40
0.75
 40
1.0
 40
1.0
 40
1.0
 40
1.0
 10
0.0405590551181102
 20
0.8683976377952757
 30
0.0
 10
0.0405590551181102
 20
0.8683976377952757
 30
0.0
 10
0.0329645669291339
 20
1.6204606299212598
 30
0.0
 10
0.0329645669291339
 20
1.6204606299212598
 30
0.0
 10
0.0329645669291339
 20
1.6204606299212598
 30
0.0
 10
0.0329645669291339
 20
1.6204606299212598
 30
0.0
 10
0.0033346456692913
 20
1.6292086614173229
 30
0.0
 10
0.0033346456692913
 20
1.6292086614173229
 30
0.0
 10
0.0033346456692913
 20
1.6292086614173229
 30
0.0
 10
0.0033346456692913
 20
1.6292086614173229
 30
0.0
 10
0.0109291338582677
 20
0.8771456692913386
 30
0.0
 10
0.0109291338582677
 20
0.8771456692913386
 30
0.0
 10
0.0109291338582677
 20
0.8771456692913386
 30
0.0
 10
0.0109291338582677
 20
0.8771456692913386
 30
0.0
 10
0.0405590551181102
 20
0.8683976377952757
 30
0.0
 10
0.0405590551181102
 20
0.8683976377952757
 30
0.0
  0
SPLINE
  5
A6
100
AcDbEntity
  8
Layer 1
 62
   253
100
AcDbSpline
210
0.0
220
0.0
230
1.0
 70
     1
 71
     3
 72
    20
 73
    16
 74
     0
 42
0.0000000001
 43
0.0000000001
 40
0.0
 40
0.0
 40
0.0
 40
0.0
 40
0.25
 40
0.25
 40
0.25
 40
0.25
 40
0.5
 40
0.5
 40
0.5
 40
0.5
 40
0.75
 40
0.75
 40
0.75
 40
0.75
 40
1.0
 40
1.0
 40
1.0
 40
1.0
 10
0.0109291338582677
 20
0.8771456692913386
 30
0.0
 10
0.0109291338582677
 20
0.8771456692913386
 30
0.0
 10
0.0033346456692913
 20
1.6292086614173229
 30
0.0
 10
0.0033346456692913
 20
1.6292086614173229
 30
0.0
 10
0.0033346456692913
 20
1.6292086614173229
 30
0.0
 10
0.0033346456692913
 20
1.6292086614173229
 30
0.0
 10
-0.0261417322834646
 20
1.6394803149606301
 30
0.0
 10
-0.0261417322834646
 20
1.6394803149606301
 30
0.0
 10
-0.0261417322834646
 20
1.6394803149606301
 30
0.0
 10
-0.0261417322834646
 20
1.6394803149606301
 30
0.0
 10
-0.0185472440944882
 20
0.8874173228346457
 30
0.0
 10
-0.0185472440944882
 20
0.8874173228346457
 30
0.0
 10
-0.0185472440944882
 20
0.8874173228346457
 30
0.0
 10
-0.0185472440944882
 20
0.8874173228346457
 30
0.0
 10
0.0109291338582677
 20
0.8771456692913386
 30
0.0
 10
0.0109291338582677
 20
0.8771456692913386
 30
0.0
  0
SPLINE
  5
A7
100
AcDbEntity
  8
Layer 1
 62
   253
100
AcDbSpline
210
0.0
220
0.0
230
1.0
 70
     1
 71
     3
 72
    20
 73
    16
 74
     0
 42
0.0000000001
 43
0.0000000001
 40
0.0
 40
0.0
 40
0.0
 40
0.0
 40
0.25
 40
0.25
 40
0.25
 40
0.25
 40
0.5
 40
0.5
 40
0.5
 40
0.5
 40
0.75
 40
0.75
 40
0.75
 40
0.75
 40
1.0
 40
1.0
 40
1.0
 40
1.0
 10
-0.0185472440944882
 20
0.8874173228346457
 30
0.0
 10
-0.0185472440944882
 20
0.8874173228346457
 30
0.0
 10
-0.0261417322834646
 20
1.6394803149606301
 30
0.0
 10
-0.0261417322834646
 20
1.6394803149606301
 30
0.0
 10
-0.0261417322834646
 20
1.6394803149606301
 30
0.0
 10
-0.0261417322834646
 20
1.6394803149606301
 30
0.0
 10
-0.0554685039370079
 20
1.6513385826771654
 30
0.0
 10
-0.0554685039370079
 20
1.6513385826771654
 30
0.0
 10
-0.0554685039370079
 20
1.6513385826771654
 30
0.0
 10
-0.0554685039370079
 20
1.6513385826771654
 30
0.0
 10
-0.0478740157480315
 20
0.8992755905511811
 30
0.0
 10
-0.0478740157480315
 20
0.8992755905511811
 30
0.0
 10
-0.0478740157480315
 20
0.8992755905511811
 30
0.0
 10
-0.0478740157480315
 20
0.8992755905511811
 30
0.0
 10
-0.0185472440944882
 20
0.8874173228346457
 30
0.0
 10
-0.0185472440944882
 20
0.8874173228346457
 30
0.0
  0
SPLINE
  5
A8
100
AcDbEntity
  8
Layer 1
 62
   253
100
AcDbSpline
210
0.0
220
0.0
230
1.0
 70
     1
 71
     3
 72
    20
 73
    16
 74
     0
 42
0.0000000001
 43
0.0000000001
 40
0.0
 40
0.0
 40
0.0
 40
0.0
 40
0.25
 40
0.25
 40
0.25
 40
0.25
 40
0.5
 40
0.5
 40
0.5
 40
0.5
 40
0.75
 40
0.75
 40
0.75
 40
0.75
 40
1.0
 40
1.0
 40
1.0
 40
1.0
 10
-0.0478740157480315
 20
0.8992755905511811
 30
0.0
 10
-0.0478740157480315
 20
0.8992755905511811
 30
0.0
 10
-0.0554685039370079
 20
1.6513385826771654
 30
0.0
 10
-0.0554685039370079
 20
1.6513385826771654
 30
0.0
 10
-0.0554685039370079
 20
1.6513385826771654
 30
0.0
 10
-0.0554685039370079
 20
1.6513385826771654
 30
0.0
 10
-0.0846181102362205
 20
1.6648228346456693
 30
0.0
 10
-0.0846181102362205
 20
1.6648228346456693
 30
0.0
 10
-0.0846181102362205
 20
1.6648228346456693
 30
0.0
 10
-0.0846181102362205
 20
1.6648228346456693
 30
0.0
 10
-0.0770236220472441
 20
0.9127598425196851
 30
0.0
 10
-0.0770236220472441
 20
0.9127598425196851
 30
0.0
 10
-0.0770236220472441
 20
0.9127598425196851
 30
0.0
 10
-0.0770236220472441
 20
0.9127598425196851
 30
0.0
 10
-0.0478740157480315
 20
0.8992755905511811
 30
0.0
 10
-0.0478740157480315
 20
0.8992755905511811
 30
0.0
  0
SPLINE
  5
A9
100
AcDbEntity
  8
Layer 1
 62
   253
100
AcDbSpline
210
0.0
220
0.0
230
1.0
 70
     1
 71
     3
 72
    20
 73
    16
 74
     0
 42
0.0000000001
 43
0.0000000001
 40
0.0
 40
0.0
 40
0.0
 40
0.0
 40
0.25
 40
0.25
 40
0.25
 40
0.25
 40
0.5
 40
0.5
 40
0.5
 40
0.5
 40
0.75
 40
0.75
 40
0.75
 40
0.75
 40
1.0
 40
1.0
 40
1.0
 40
1.0
 10
-0.0770236220472441
 20
0.9127598425196851
 30
0.0
 10
-0.0770236220472441
 20
0.9127598425196851
 30
0.0
 10
-0.0846181102362205
 20
1.6648228346456693
 30
0.0
 10
-0.0846181102362205
 20
1.6648228346456693
 30
0.0
 10
-0.0846181102362205
 20
1.6648228346456693
 30
0.0
 10
-0.0846181102362205
 20
1.6648228346456693
 30
0.0
 10
-0.1136141732283465
 20
1.6799881889763779
 30
0.0
 10
-0.1136141732283465
 20
1.6799881889763779
 30
0.0
 10
-0.1136141732283465
 20
1.6799881889763779
 30
0.0
 10
-0.1136141732283465
 20
1.6799881889763779
 30
0.0
 10
-0.1060196850393701
 20
0.9279251968503938
 30
0.0
 10
-0.1060196850393701
 20
0.9279251968503938
 30
0.0
 10
-0.1060196850393701
 20
0.9279251968503938
 30
0.0
 10
-0.1060196850393701
 20
0.9279251968503938
 30
0.0
 10
-0.0770236220472441
 20
0.9127598425196851
 30
0.0
 10
-0.0770236220472441
 20
0.9127598425196851
 30
0.0
  0
SPLINE
  5
AA
100
AcDbEntity
  8
Layer 1
 62
   253
100
AcDbSpline
210
0.0
220
0.0
230
1.0
 70
     1
 71
     3
 72
    20
 73
    16
 74
     0
 42
0.0000000001
 43
0.0000000001
 40
0.0
 40
0.0
 40
0.0
 40
0.0
 40
0.25
 40
0.25
 40
0.25
 40
0.25
 40
0.5
 40
0.5
 40
0.5
 40
0.5
 40
0.75
 40
0.75
 40
0.75
 40
0.75
 40
1.0
 40
1.0
 40
1.0
 40
1.0
 10
-0.1060196850393701
 20
0.9279251968503938
 30
0.0
 10
-0.1060196850393701
 20
0.9279251968503938
 30
0.0
 10
-0.1136141732283465
 20
1.6799881889763779
 30
0.0
 10
-0.1136141732283465
 20
1.6799881889763779
 30
0.0
 10
-0.1136141732283465
 20
1.6799881889763779
 30
0.0
 10
-0.1136141732283465
 20
1.6799881889763779
 30
0.0
 10
-0.1424330708661417
 20
1.6968818897637796
 30
0.0
 10
-0.1424330708661417
 20
1.6968818897637796
 30
0.0
 10
-0.1424330708661417
 20
1.6968818897637796
 30
0.0
 10
-0.1424330708661417
 20
1.6968818897637796
 30
0.0
 10
-0.1348385826771654
 20
0.9448188976377954
 30
0.0
 10
-0.1348385826771654
 20
0.9448188976377954
 30
0.0
 10
-0.1348385826771654
 20
0.9448188976377954
 30
0.0
 10
-0.1348385826771654
 20
0.9448188976377954
 30
0.0
 10
-0.1060196850393701
 20
0.9279251968503938
 30
0.0
 10
-0.1060196850393701
 20
0.9279251968503938
 30
0.0
  0
SPLINE
  5
AB
100
AcDbEntity
  8
Layer 1
 62
     9
100
AcDbSpline
210
0.0
220
0.0
230
1.0
 70
     1
 71
     3
 72
    20
 73
    16
 74
     0
 42
0.0000000001
 43
0.0000000001
 40
0.0
 40
0.0
 40
0.0
 40
0.0
 40
0.25
 40
0.25
 40
0.25
 40
0.25
 40
0.5
 40
0.5
 40
0.5
 40
0.5
 40
0.75
 40
0.75
 40
0.75
 40
0.75
 40
1.0
 40
1.0
 40
1.0
 40
1.0
 10
-0.1348385826771654
 20
0.9448188976377954
 30
0.0
 10
-0.1348385826771654
 20
0.9448188976377954
 30
0.0
 10
-0.1424330708661417
 20
1.6968818897637796
 30
0.0
 10
-0.1424330708661417
 20
1.6968818897637796
 30
0.0
 10
-0.1424330708661417
 20
1.6968818897637796
 30
0.0
 10
-0.1424330708661417
 20
1.6968818897637796
 30
0.0
 10
-0.1710866141732284
 20
1.7155669291338584
 30
0.0
 10
-0.1710866141732284
 20
1.7155669291338584
 30
0.0
 10
-0.1710866141732284
 20
1.7155669291338584
 30
0.0
 10
-0.1710866141732284
 20
1.7155669291338584
 30
0.0
 10
-0.163492125984252
 20
0.9635039370078741
 30
0.0
 10
-0.163492125984252
 20
0.9635039370078741
 30
0.0
 10
-0.163492125984252
 20
0.9635039370078741
 30
0.0
 10
-0.163492125984252
 20
0.9635039370078741
 30
0.0
 10
-0.1348385826771654
 20
0.9448188976377954
 30
0.0
 10
-0.1348385826771654
 20
0.9448188976377954
 30
0.0
  0
SPLINE
  5
AC
100
AcDbEntity
  8
Layer 1
 62
     9
100
AcDbSpline
210
0.0
220
0.0
230
1.0
 70
     1
 71
     3
 72
    20
 73
    16
 74
     0
 42
0.0000000001
 43
0.0000000001
 40
0.0
 40
0.0
 40
0.0
 40
0.0
 40
0.25
 40
0.25
 40
0.25
 40
0.25
 40
0.5
 40
0.5
 40
0.5
 40
0.5
 40
0.75
 40
0.75
 40
0.75
 40
0.75
 40
1.0
 40
1.0
 40
1.0
 40
1.0
 10
-0.163492125984252
 20
0.9635039370078741
 30
0.0
 10
-0.163492125984252
 20
0.9635039370078741
 30
0.0
 10
-0.1710866141732284
 20
1.7155669291338584
 30
0.0
 10
-0.1710866141732284
 20
1.7155669291338584
 30
0.0
 10
-0.1710866141732284
 20
1.7155669291338584
 30
0.0
 10
-0.1710866141732284
 20
1.7155669291338584
 30
0.0
 10
-0.1995551181102362
 20
1.7360748031496063
 30
0.0
 10
-0.1995551181102362
 20
1.7360748031496063
 30
0.0
 10
-0.1995551181102362
 20
1.7360748031496063
 30
0.0
 10
-0.1995551181102362
 20
1.7360748031496063
 30
0.0
 10
-0.1919606299212598
 20
0.9840118110236221
 30
0.0
 10
-0.1919606299212598
 20
0.9840118110236221
 30
0.0
 10
-0.1919606299212598
 20
0.9840118110236221
 30
0.0
 10
-0.1919606299212598
 20
0.9840118110236221
 30
0.0
 10
-0.163492125984252
 20
0.9635039370078741
 30
0.0
 10
-0.163492125984252
 20
0.9635039370078741
 30
0.0
  0
SPLINE
  5
AD
100
AcDbEntity
  8
Layer 1
 62
     9
100
AcDbSpline
210
0.0
220
0.0
230
1.0
 70
     1
 71
     3
 72
    20
 73
    16
 74
     0
 42
0.0000000001
 43
0.0000000001
 40
0.0
 40
0.0
 40
0.0
 40
0.0
 40
0.25
 40
0.25
 40
0.25
 40
0.25
 40
0.5
 40
0.5
 40
0.5
 40
0.5
 40
0.75
 40
0.75
 40
0.75
 40
0.75
 40
1.0
 40
1.0
 40
1.0
 40
1.0
 10
-0.1919606299212598
 20
0.9840118110236221
 30
0.0
 10
-0.1919606299212598
 20
0.9840118110236221
 30
0.0
 10
-0.1995551181102362
 20
1.7360748031496063
 30
0.0
 10
-0.1995551181102362
 20
1.7360748031496063
 30
0.0
 10
-0.1995551181102362
 20
1.7360748031496063
 30
0.0
 10
-0.1995551181102362
 20
1.7360748031496063
 30
0.0
 10
-0.2278425196850394
 20
1.758472440944882
 30
0.0
 10
-0.2278425196850394
 20
1.758472440944882
 30
0.0
 10
-0.2278425196850394
 20
1.758472440944882
 30
0.0
 10
-0.2278425196850394
 20
1.758472440944882
 30
0.0
 10
-0.220248031496063
 20
1.0064094488188977
 30
0.0
 10
-0.220248031496063
 20
1.0064094488188977
 30
0.0
 10
-0.220248031496063
 20
1.0064094488188977
 30
0.0
 10
-0.220248031496063
 20
1.0064094488188977
 30
0.0
 10
-0.1919606299212598
 20
0.9840118110236221
 30
0.0
 10
-0.1919606299212598
 20
0.9840118110236221
 30
0.0
  0
SPLINE
  5
AE
100
AcDbEntity
  8
Layer 1
 62
     9
100
AcDbSpline
210
0.0
220
0.0
230
1.0
 70
     1
 71
     3
 72
    20
 73
    16
 74
     0
 42
0.0000000001
 43
0.0000000001
 40
0.0
 40
0.0
 40
0.0
 40
0.0
 40
0.25
 40
0.25
 40
0.25
 40
0.25
 40
0.5
 40
0.5
 40
0.5
 40
0.5
 40
0.75
 40
0.75
 40
0.75
 40
0.75
 40
1.0
 40
1.0
 40
1.0
 40
1.0
 10
-0.220248031496063
 20
1.0064094488188977
 30
0.0
 10
-0.220248031496063
 20
1.0064094488188977
 30
0.0
 10
-0.2278425196850394
 20
1.758472440944882
 30
0.0
 10
-0.2278425196850394
 20
1.758472440944882
 30
0.0
 10
-0.2278425196850394
 20
1.758472440944882
 30
0.0
 10
-0.2278425196850394
 20
1.758472440944882
 30
0.0
 10
-0.2559409448818898
 20
1.7827952755905512
 30
0.0
 10
-0.2559409448818898
 20
1.7827952755905512
 30
0.0
 10
-0.2559409448818898
 20
1.7827952755905512
 30
0.0
 10
-0.2559409448818898
 20
1.7827952755905512
 30
0.0
 10
-0.2483464566929134
 20
1.0307322834645669
 30
0.0
 10
-0.2483464566929134
 20
1.0307322834645669
 30
0.0
 10
-0.2483464566929134
 20
1.0307322834645669
 30
0.0
 10
-0.2483464566929134
 20
1.0307322834645669
 30
0.0
 10
-0.220248031496063
 20
1.0064094488188977
 30
0.0
 10
-0.220248031496063
 20
1.0064094488188977
 30
0.0
  0
SPLINE
  5
AF
100
AcDbEntity
  8
Layer 1
 62
     9
100
AcDbSpline
210
0.0
220
0.0
230
1.0
 70
     1
 71
     3
 72
    20
 73
    16
 74
     0
 42
0.0000000001
 43
0.0000000001
 40
0.0
 40
0.0
 40
0.0
 40
0.0
 40
0.25
 40
0.25
 40
0.25
 40
0.25
 40
0.5
 40
0.5
 40
0.5
 40
0.5
 40
0.75
 40
0.75
 40
0.75
 40
0.75
 40
1.0
 40
1.0
 40
1.0
 40
1.0
 10
-0.2483464566929134
 20
1.0307322834645669
 30
0.0
 10
-0.2483464566929134
 20
1.0307322834645669
 30
0.0
 10
-0.2559409448818898
 20
1.7827952755905512
 30
0.0
 10
-0.2559409448818898
 20
1.7827952755905512
 30
0.0
 10
-0.2559409448818898
 20
1.7827952755905512
 30
0.0
 10
-0.2559409448818898
 20
1.7827952755905512
 30
0.0
 10
-0.2838622047244095
 20
1.8091062992125986
 30
0.0
 10
-0.2838622047244095
 20
1.8091062992125986
 30
0.0
 10
-0.2838622047244095
 20
1.8091062992125986
 30
0.0
 10
-0.2838622047244095
 20
1.8091062992125986
 30
0.0
 10
-0.2762677165354331
 20
1.0570433070866143
 30
0.0
 10
-0.2762677165354331
 20
1.0570433070866143
 30
0.0
 10
-0.2762677165354331
 20
1.0570433070866143
 30
0.0
 10
-0.2762677165354331
 20
1.0570433070866143
 30
0.0
 10
-0.2483464566929134
 20
1.0307322834645669
 30
0.0
 10
-0.2483464566929134
 20
1.0307322834645669
 30
0.0
  0
SPLINE
  5
B0
100
AcDbEntity
  8
Layer 1
370
     5
100
AcDbSpline
210
0.0
220
0.0
230
1.0
 70
     1
 71
     3
 72
   268
 73
   264
 74
     0
 42
0.0000000001
 43
0.0000000001
 40
0.0
 40
0.0
 40
0.0
 40
0.0
 40
0.0151515151515152
 40
0.0151515151515152
 40
0.0151515151515152
 40
0.0151515151515152
 40
0.0303030303030303
 40
0.0303030303030303
 40
0.0303030303030303
 40
0.0303030303030303
 40
0.0454545454545455
 40
0.0454545454545455
 40
0.0454545454545455
 40
0.0454545454545455
 40
0.0606060606060606
 40
0.0606060606060606
 40
0.0606060606060606
 40
0.0606060606060606
 40
0.0757575757575758
 40
0.0757575757575758
 40
0.0757575757575758
 40
0.0757575757575758
 40
0.0909090909090909
 40
0.0909090909090909
 40
0.0909090909090909
 40
0.0909090909090909
 40
0.1060606060606061
 40
0.1060606060606061
 40
0.1060606060606061
 40
0.1060606060606061
 40
0.1212121212121212
 40
0.1212121212121212
 40
0.1212121212121212
 40
0.1212121212121212
 40
0.1363636363636364
 40
0.1363636363636364
 40
0.1363636363636364
 40
0.1363636363636364
 40
0.1515151515151515
 40
0.1515151515151515
 40
0.1515151515151515
 40
0.1515151515151515
 40
0.1666666666666666
 40
0.1666666666666666
 40
0.1666666666666666
 40
0.1666666666666666
 40
0.1818181818181818
 40
0.1818181818181818
 40
0.1818181818181818
 40
0.1818181818181818
 40
0.1969696969696969
 40
0.1969696969696969
 40
0.1969696969696969
 40
0.1969696969696969
 40
0.212121212121212
 40
0.212121212121212
 40
0.212121212121212
 40
0.212121212121212
 40
0.2272727272727272
 40
0.2272727272727272
 40
0.2272727272727272
 40
0.2272727272727272
 40
0.2424242424242423
 40
0.2424242424242423
 40
0.2424242424242423
 40
0.2424242424242423
 40
0.2575757575757575
 40
0.2575757575757575
 40
0.2575757575757575
 40
0.2575757575757575
 40
0.2727272727272726
 40
0.2727272727272726
 40
0.2727272727272726
 40
0.2727272727272726
 40
0.2878787878787877
 40
0.2878787878787877
 40
0.2878787878787877
 40
0.2878787878787877
 40
0.3030303030303029
 40
0.3030303030303029
 40
0.3030303030303029
 40
0.3030303030303029
 40
0.318181818181818
 40
0.318181818181818
 40
0.318181818181818
 40
0.318181818181818
 40
0.3333333333333332
 40
0.3333333333333332
 40
0.3333333333333332
 40
0.3333333333333332
 40
0.3484848484848483
 40
0.3484848484848483
 40
0.3484848484848483
 40
0.3484848484848483
 40
0.3636363636363634
 40
0.3636363636363634
 40
0.3636363636363634
 40
0.3636363636363634
 40
0.3787878787878786
 40
0.3787878787878786
 40
0.3787878787878786
 40
0.3787878787878786
 40
0.3939393939393937
 40
0.3939393939393937
 40
0.3939393939393937
 40
0.3939393939393937
 40
0.4090909090909088
 40
0.4090909090909088
 40
0.4090909090909088
 40
0.4090909090909088
 40
0.424242424242424
 40
0.424242424242424
 40
0.424242424242424
 40
0.424242424242424
 40
0.4393939393939391
 40
0.4393939393939391
 40
0.4393939393939391
 40
0.4393939393939391
 40
0.4545454545454543
 40
0.4545454545454543
 40
0.4545454545454543
 40
0.4545454545454543
 40
0.4696969696969694
 40
0.4696969696969694
 40
0.4696969696969694
 40
0.4696969696969694
 40
0.4848484848484845
 40
0.4848484848484845
 40
0.4848484848484845
 40
0.4848484848484845
 40
0.4999999999999997
 40
0.4999999999999997
 40
0.4999999999999997
 40
0.4999999999999997
 40
0.5151515151515148
 40
0.5151515151515148
 40
0.5151515151515148
 40
0.5151515151515148
 40
0.5303030303030299
 40
0.5303030303030299
 40
0.5303030303030299
 40
0.5303030303030299
 40
0.5454545454545451
 40
0.5454545454545451
 40
0.5454545454545451
 40
0.5454545454545451
 40
0.5606060606060602
 40
0.5606060606060602
 40
0.5606060606060602
 40
0.5606060606060602
 40
0.5757575757575754
 40
0.5757575757575754
 40
0.5757575757575754
 40
0.5757575757575754
 40
0.5909090909090905
 40
0.5909090909090905
 40
0.5909090909090905
 40
0.5909090909090905
 40
0.6060606060606056
 40
0.6060606060606056
 40
0.6060606060606056
 40
0.6060606060606056
 40
0.6212121212121208
 40
0.6212121212121208
 40
0.6212121212121208
 40
0.6212121212121208
 40
0.6363636363636359
 40
0.6363636363636359
 40
0.6363636363636359
 40
0.6363636363636359
 40
0.6515151515151511
 40
0.6515151515151511
 40
0.6515151515151511
 40
0.6515151515151511
 40
0.6666666666666662
 40
0.6666666666666662
 40
0.6666666666666662
 40
0.6666666666666662
 40
0.6818181818181813
 40
0.6818181818181813
 40
0.6818181818181813
 40
0.6818181818181813
 40
0.6969696969696965
 40
0.6969696969696965
 40
0.6969696969696965
 40
0.6969696969696965
 40
0.7121212121212116
 40
0.7121212121212116
 40
0.7121212121212116
 40
0.7121212121212116
 40
0.7272727272727267
 40
0.7272727272727267
 40
0.7272727272727267
 40
0.7272727272727267
 40
0.7424242424242419
 40
0.7424242424242419
 40
0.7424242424242419
 40
0.7424242424242419
 40
0.757575757575757
 40
0.757575757575757
 40
0.757575757575757
 40
0.757575757575757
 40
0.7727272727272722
 40
0.7727272727272722
 40
0.7727272727272722
 40
0.7727272727272722
 40
0.7878787878787873
 40
0.7878787878787873
 40
0.7878787878787873
 40
0.7878787878787873
 40
0.8030303030303024
 40
0.8030303030303024
 40
0.8030303030303024
 40
0.8030303030303024
 40
0.8181818181818176
 40
0.8181818181818176
 40
0.8181818181818176
 40
0.8181818181818176
 40
0.8333333333333327
 40
0.8333333333333327
 40
0.8333333333333327
 40
0.8333333333333327
 40
0.8484848484848478
 40
0.8484848484848478
 40
0.8484848484848478
 40
0.8484848484848478
 40
0.863636363636363
 40
0.863636363636363
 40
0.863636363636363
 40
0.863636363636363
 40
0.8787878787878781
 40
0.8787878787878781
 40
0.8787878787878781
 40
0.8787878787878781
 40
0.8939393939393933
 40
0.8939393939393933
 40
0.8939393939393933
 40
0.8939393939393933
 40
0.9090909090909084
 40
0.9090909090909084
 40
0.9090909090909084
 40
0.9090909090909084
 40
0.9242424242424235
 40
0.9242424242424235
 40
0.9242424242424235
 40
0.9242424242424235
 40
0.9393939393939387
 40
0.9393939393939387
 40
0.9393939393939387
 40
0.9393939393939387
 40
0.9545454545454538
 40
0.9545454545454538
 40
0.9545454545454538
 40
0.9545454545454538
 40
0.969696969696969
 40
0.969696969696969
 40
0.969696969696969
 40
0.969696969696969
 40
0.9848484848484841
 40
0.9848484848484841
 40
0.9848484848484841
 40
0.9848484848484841
 40
1.0
 40
1.0
 40
1.0
 40
1.0
 10
0.6913307086614173
 20
0.9491692913385827
 30
0.0
 10
0.6913307086614173
 20
0.9491692913385827
 30
0.0
 10
0.683736220472441
 20
1.701232283464567
 30
0.0
 10
0.683736220472441
 20
1.701232283464567
 30
0.0
 10
0.683736220472441
 20
1.701232283464567
 30
0.0
 10
0.683736220472441
 20
1.701232283464567
 30
0.0
 10
0.6517874015748032
 20
1.6894527559055119
 30
0.0
 10
0.6517874015748032
 20
1.6894527559055119
 30
0.0
 10
0.6517874015748032
 20
1.6894527559055119
 30
0.0
 10
0.6517874015748032
 20
1.6894527559055119
 30
0.0
 10
0.6199133858267717
 20
1.6781574803149606
 30
0.0
 10
0.6199133858267717
 20
1.6781574803149606
 30
0.0
 10
0.6199133858267717
 20
1.6781574803149606
 30
0.0
 10
0.6199133858267717
 20
1.6781574803149606
 30
0.0
 10
0.5881102362204724
 20
1.6673818897637795
 30
0.0
 10
0.5881102362204724
 20
1.6673818897637795
 30
0.0
 10
0.5881102362204724
 20
1.6673818897637795
 30
0.0
 10
0.5881102362204724
 20
1.6673818897637795
 30
0.0
 10
0.5563897637795275
 20
1.6571889763779528
 30
0.0
 10
0.5563897637795275
 20
1.6571889763779528
 30
0.0
 10
0.5563897637795275
 20
1.6571889763779528
 30
0.0
 10
0.5563897637795275
 20
1.6571889763779528
 30
0.0
 10
0.524744094488189
 20
1.6476102362204725
 30
0.0
 10
0.524744094488189
 20
1.6476102362204725
 30
0.0
 10
0.524744094488189
 20
1.6476102362204725
 30
0.0
 10
0.524744094488189
 20
1.6476102362204725
 30
0.0
 10
0.4931929133858268
 20
1.6387125984251969
 30
0.0
 10
0.4931929133858268
 20
1.6387125984251969
 30
0.0
 10
0.4931929133858268
 20
1.6387125984251969
 30
0.0
 10
0.4931929133858268
 20
1.6387125984251969
 30
0.0
 10
0.4617283464566929
 20
1.6305393700787403
 30
0.0
 10
0.4617283464566929
 20
1.6305393700787403
 30
0.0
 10
0.4617283464566929
 20
1.6305393700787403
 30
0.0
 10
0.4617283464566929
 20
1.6305393700787403
 30
0.0
 10
0.4303661417322835
 20
1.6231496062992126
 30
0.0
 10
0.4303661417322835
 20
1.6231496062992126
 30
0.0
 10
0.4303661417322835
 20
1.6231496062992126
 30
0.0
 10
0.4303661417322835
 20
1.6231496062992126
 30
0.0
 10
0.3990905511811024
 20
1.6165748031496063
 30
0.0
 10
0.3990905511811024
 20
1.6165748031496063
 30
0.0
 10
0.3990905511811024
 20
1.6165748031496063
 30
0.0
 10
0.3990905511811024
 20
1.6165748031496063
 30
0.0
 10
0.3679251968503937
 20
1.6108779527559056
 30
0.0
 10
0.3679251968503937
 20
1.6108779527559056
 30
0.0
 10
0.3679251968503937
 20
1.6108779527559056
 30
0.0
 10
0.3679251968503937
 20
1.6108779527559056
 30
0.0
 10
0.3368582677165354
 20
1.6061102362204724
 30
0.0
 10
0.3368582677165354
 20
1.6061102362204724
 30
0.0
 10
0.3368582677165354
 20
1.6061102362204724
 30
0.0
 10
0.3368582677165354
 20
1.6061102362204724
 30
0.0
 10
0.3059133858267717
 20
1.6023228346456693
 30
0.0
 10
0.3059133858267717
 20
1.6023228346456693
 30
0.0
 10
0.3059133858267717
 20
1.6023228346456693
 30
0.0
 10
0.3059133858267717
 20
1.6023228346456693
 30
0.0
 10
0.2750748031496063
 20
1.5995551181102363
 30
0.0
 10
0.2750748031496063
 20
1.5995551181102363
 30
0.0
 10
0.2750748031496063
 20
1.5995551181102363
 30
0.0
 10
0.2750748031496063
 20
1.5995551181102363
 30
0.0
 10
0.2443543307086614
 20
1.5978700787401576
 30
0.0
 10
0.2443543307086614
 20
1.5978700787401576
 30
0.0
 10
0.2443543307086614
 20
1.5978700787401576
 30
0.0
 10
0.2443543307086614
 20
1.5978700787401576
 30
0.0
 10
0.213755905511811
 20
1.5973110236220474
 30
0.0
 10
0.213755905511811
 20
1.5973110236220474
 30
0.0
 10
0.213755905511811
 20
1.5973110236220474
 30
0.0
 10
0.213755905511811
 20
1.5973110236220474
 30
0.0
 10
0.1832874015748032
 20
1.5979370078740158
 30
0.0
 10
0.1832874015748032
 20
1.5979370078740158
 30
0.0
 10
0.1832874015748032
 20
1.5979370078740158
 30
0.0
 10
0.1832874015748032
 20
1.5979370078740158
 30
0.0
 10
0.1529409448818898
 20
1.5997795275590552
 30
0.0
 10
0.1529409448818898
 20
1.5997795275590552
 30
0.0
 10
0.1529409448818898
 20
1.5997795275590552
 30
0.0
 10
0.1529409448818898
 20
1.5997795275590552
 30
0.0
 10
0.122736220472441
 20
1.6029055118110236
 30
0.0
 10
0.122736220472441
 20
1.6029055118110236
 30
0.0
 10
0.122736220472441
 20
1.6029055118110236
 30
0.0
 10
0.122736220472441
 20
1.6029055118110236
 30
0.0
 10
0.0926653543307087
 20
1.6073622047244096
 30
0.0
 10
0.0926653543307087
 20
1.6073622047244096
 30
0.0
 10
0.0926653543307087
 20
1.6073622047244096
 30
0.0
 10
0.0926653543307087
 20
1.6073622047244096
 30
0.0
 10
0.062740157480315
 20
1.6132007874015748
 30
0.0
 10
0.062740157480315
 20
1.6132007874015748
 30
0.0
 10
0.062740157480315
 20
1.6132007874015748
 30
0.0
 10
0.062740157480315
 20
1.6132007874015748
 30
0.0
 10
0.0329645669291339
 20
1.6204606299212598
 30
0.0
 10
0.0329645669291339
 20
1.6204606299212598
 30
0.0
 10
0.0329645669291339
 20
1.6204606299212598
 30
0.0
 10
0.0329645669291339
 20
1.6204606299212598
 30
0.0
 10
0.0033346456692913
 20
1.6292086614173229
 30
0.0
 10
0.0033346456692913
 20
1.6292086614173229
 30
0.0
 10
0.0033346456692913
 20
1.6292086614173229
 30
0.0
 10
0.0033346456692913
 20
1.6292086614173229
 30
0.0
 10
-0.0261417322834646
 20
1.6394803149606301
 30
0.0
 10
-0.0261417322834646
 20
1.6394803149606301
 30
0.0
 10
-0.0261417322834646
 20
1.6394803149606301
 30
0.0
 10
-0.0261417322834646
 20
1.6394803149606301
 30
0.0
 10
-0.0554685039370079
 20
1.6513385826771654
 30
0.0
 10
-0.0554685039370079
 20
1.6513385826771654
 30
0.0
 10
-0.0554685039370079
 20
1.6513385826771654
 30
0.0
 10
-0.0554685039370079
 20
1.6513385826771654
 30
0.0
 10
-0.0846181102362205
 20
1.6648228346456693
 30
0.0
 10
-0.0846181102362205
 20
1.6648228346456693
 30
0.0
 10
-0.0846181102362205
 20
1.6648228346456693
 30
0.0
 10
-0.0846181102362205
 20
1.6648228346456693
 30
0.0
 10
-0.1136141732283465
 20
1.6799881889763779
 30
0.0
 10
-0.1136141732283465
 20
1.6799881889763779
 30
0.0
 10
-0.1136141732283465
 20
1.6799881889763779
 30
0.0
 10
-0.1136141732283465
 20
1.6799881889763779
 30
0.0
 10
-0.1424330708661417
 20
1.6968818897637796
 30
0.0
 10
-0.1424330708661417
 20
1.6968818897637796
 30
0.0
 10
-0.1424330708661417
 20
1.6968818897637796
 30
0.0
 10
-0.1424330708661417
 20
1.6968818897637796
 30
0.0
 10
-0.1710866141732284
 20
1.7155669291338584
 30
0.0
 10
-0.1710866141732284
 20
1.7155669291338584
 30
0.0
 10
-0.1710866141732284
 20
1.7155669291338584
 30
0.0
 10
-0.1710866141732284
 20
1.7155669291338584
 30
0.0
 10
-0.1995551181102362
 20
1.7360748031496063
 30
0.0
 10
-0.1995551181102362
 20
1.7360748031496063
 30
0.0
 10
-0.1995551181102362
 20
1.7360748031496063
 30
0.0
 10
-0.1995551181102362
 20
1.7360748031496063
 30
0.0
 10
-0.2278425196850394
 20
1.758472440944882
 30
0.0
 10
-0.2278425196850394
 20
1.758472440944882
 30
0.0
 10
-0.2278425196850394
 20
1.758472440944882
 30
0.0
 10
-0.2278425196850394
 20
1.758472440944882
 30
0.0
 10
-0.2559409448818898
 20
1.7827952755905512
 30
0.0
 10
-0.2559409448818898
 20
1.7827952755905512
 30
0.0
 10
-0.2559409448818898
 20
1.7827952755905512
 30
0.0
 10
-0.2559409448818898
 20
1.7827952755905512
 30
0.0
 10
-0.2838622047244095
 20
1.8091062992125986
 30
0.0
 10
-0.2838622047244095
 20
1.8091062992125986
 30
0.0
 10
-0.2838622047244095
 20
1.8091062992125986
 30
0.0
 10
-0.2838622047244095
 20
1.8091062992125986
 30
0.0
 10
-0.2762677165354331
 20
1.0570433070866143
 30
0.0
 10
-0.2762677165354331
 20
1.0570433070866143
 30
0.0
 10
-0.2762677165354331
 20
1.0570433070866143
 30
0.0
 10
-0.2762677165354331
 20
1.0570433070866143
 30
0.0
 10
-0.2483464566929134
 20
1.0307322834645669
 30
0.0
 10
-0.2483464566929134
 20
1.0307322834645669
 30
0.0
 10
-0.2483464566929134
 20
1.0307322834645669
 30
0.0
 10
-0.2483464566929134
 20
1.0307322834645669
 30
0.0
 10
-0.220248031496063
 20
1.0064094488188977
 30
0.0
 10
-0.220248031496063
 20
1.0064094488188977
 30
0.0
 10
-0.220248031496063
 20
1.0064094488188977
 30
0.0
 10
-0.220248031496063
 20
1.0064094488188977
 30
0.0
 10
-0.1919606299212598
 20
0.9840118110236221
 30
0.0
 10
-0.1919606299212598
 20
0.9840118110236221
 30
0.0
 10
-0.1919606299212598
 20
0.9840118110236221
 30
0.0
 10
-0.1919606299212598
 20
0.9840118110236221
 30
0.0
 10
-0.163492125984252
 20
0.9635039370078741
 30
0.0
 10
-0.163492125984252
 20
0.9635039370078741
 30
0.0
 10
-0.163492125984252
 20
0.9635039370078741
 30
0.0
 10
-0.163492125984252
 20
0.9635039370078741
 30
0.0
 10
-0.1348385826771654
 20
0.9448188976377954
 30
0.0
 10
-0.1348385826771654
 20
0.9448188976377954
 30
0.0
 10
-0.1348385826771654
 20
0.9448188976377954
 30
0.0
 10
-0.1348385826771654
 20
0.9448188976377954
 30
0.0
 10
-0.1060196850393701
 20
0.9279251968503938
 30
0.0
 10
-0.1060196850393701
 20
0.9279251968503938
 30
0.0
 10
-0.1060196850393701
 20
0.9279251968503938
 30
0.0
 10
-0.1060196850393701
 20
0.9279251968503938
 30
0.0
 10
-0.0770236220472441
 20
0.9127598425196851
 30
0.0
 10
-0.0770236220472441
 20
0.9127598425196851
 30
0.0
 10
-0.0770236220472441
 20
0.9127598425196851
 30
0.0
 10
-0.0770236220472441
 20
0.9127598425196851
 30
0.0
 10
-0.0478740157480315
 20
0.8992755905511811
 30
0.0
 10
-0.0478740157480315
 20
0.8992755905511811
 30
0.0
 10
-0.0478740157480315
 20
0.8992755905511811
 30
0.0
 10
-0.0478740157480315
 20
0.8992755905511811
 30
0.0
 10
-0.0185472440944882
 20
0.8874173228346457
 30
0.0
 10
-0.0185472440944882
 20
0.8874173228346457
 30
0.0
 10
-0.0185472440944882
 20
0.8874173228346457
 30
0.0
 10
-0.0185472440944882
 20
0.8874173228346457
 30
0.0
 10
0.0109291338582677
 20
0.8771456692913386
 30
0.0
 10
0.0109291338582677
 20
0.8771456692913386
 30
0.0
 10
0.0109291338582677
 20
0.8771456692913386
 30
0.0
 10
0.0109291338582677
 20
0.8771456692913386
 30
0.0
 10
0.0405590551181102
 20
0.8683976377952757
 30
0.0
 10
0.0405590551181102
 20
0.8683976377952757
 30
0.0
 10
0.0405590551181102
 20
0.8683976377952757
 30
0.0
 10
0.0405590551181102
 20
0.8683976377952757
 30
0.0
 10
0.0703346456692913
 20
0.8611377952755905
 30
0.0
 10
0.0703346456692913
 20
0.8611377952755905
 30
0.0
 10
0.0703346456692913
 20
0.8611377952755905
 30
0.0
 10
0.0703346456692913
 20
0.8611377952755905
 30
0.0
 10
0.1002598425196851
 20
0.8552992125984252
 30
0.0
 10
0.1002598425196851
 20
0.8552992125984252
 30
0.0
 10
0.1002598425196851
 20
0.8552992125984252
 30
0.0
 10
0.1002598425196851
 20
0.8552992125984252
 30
0.0
 10
0.1303307086614173
 20
0.8508425196850394
 30
0.0
 10
0.1303307086614173
 20
0.8508425196850394
 30
0.0
 10
0.1303307086614173
 20
0.8508425196850394
 30
0.0
 10
0.1303307086614173
 20
0.8508425196850394
 30
0.0
 10
0.1605354330708662
 20
0.8477165354330709
 30
0.0
 10
0.1605354330708662
 20
0.8477165354330709
 30
0.0
 10
0.1605354330708662
 20
0.8477165354330709
 30
0.0
 10
0.1605354330708662
 20
0.8477165354330709
 30
0.0
 10
0.1908818897637795
 20
0.8458740157480316
 30
0.0
 10
0.1908818897637795
 20
0.8458740157480316
 30
0.0
 10
0.1908818897637795
 20
0.8458740157480316
 30
0.0
 10
0.1908818897637795
 20
0.8458740157480316
 30
0.0
 10
0.2213503937007874
 20
0.845248031496063
 30
0.0
 10
0.2213503937007874
 20
0.845248031496063
 30
0.0
 10
0.2213503937007874
 20
0.845248031496063
 30
0.0
 10
0.2213503937007874
 20
0.845248031496063
 30
0.0
 10
0.2519488188976378
 20
0.8458070866141733
 30
0.0
 10
0.2519488188976378
 20
0.8458070866141733
 30
0.0
 10
0.2519488188976378
 20
0.8458070866141733
 30
0.0
 10
0.2519488188976378
 20
0.8458070866141733
 30
0.0
 10
0.2826692913385827
 20
0.8474921259842521
 30
0.0
 10
0.2826692913385827
 20
0.8474921259842521
 30
0.0
 10
0.2826692913385827
 20
0.8474921259842521
 30
0.0
 10
0.2826692913385827
 20
0.8474921259842521
 30
0.0
 10
0.313507874015748
 20
0.8502598425196851
 30
0.0
 10
0.313507874015748
 20
0.8502598425196851
 30
0.0
 10
0.313507874015748
 20
0.8502598425196851
 30
0.0
 10
0.313507874015748
 20
0.8502598425196851
 30
0.0
 10
0.3444527559055118
 20
0.8540472440944882
 30
0.0
 10
0.3444527559055118
 20
0.8540472440944882
 30
0.0
 10
0.3444527559055118
 20
0.8540472440944882
 30
0.0
 10
0.3444527559055118
 20
0.8540472440944882
 30
0.0
 10
0.3755196850393701
 20
0.8588149606299212
 30
0.0
 10
0.3755196850393701
 20
0.8588149606299212
 30
0.0
 10
0.3755196850393701
 20
0.8588149606299212
 30
0.0
 10
0.3755196850393701
 20
0.8588149606299212
 30
0.0
 10
0.4066850393700788
 20
0.8645118110236221
 30
0.0
 10
0.4066850393700788
 20
0.8645118110236221
 30
0.0
 10
0.4066850393700788
 20
0.8645118110236221
 30
0.0
 10
0.4066850393700788
 20
0.8645118110236221
 30
0.0
 10
0.4379606299212598
 20
0.8710866141732284
 30
0.0
 10
0.4379606299212598
 20
0.8710866141732284
 30
0.0
 10
0.4379606299212598
 20
0.8710866141732284
 30
0.0
 10
0.4379606299212598
 20
0.8710866141732284
 30
0.0
 10
0.4693228346456693
 20
0.8784763779527559
 30
0.0
 10
0.4693228346456693
 20
0.8784763779527559
 30
0.0
 10
0.4693228346456693
 20
0.8784763779527559
 30
0.0
 10
0.4693228346456693
 20
0.8784763779527559
 30
0.0
 10
0.5007874015748032
 20
0.8866496062992126
 30
0.0
 10
0.5007874015748032
 20
0.8866496062992126
 30
0.0
 10
0.5007874015748032
 20
0.8866496062992126
 30
0.0
 10
0.5007874015748032
 20
0.8866496062992126
 30
0.0
 10
0.5323385826771654
 20
0.8955472440944883
 30
0.0
 10
0.5323385826771654
 20
0.8955472440944883
 30
0.0
 10
0.5323385826771654
 20
0.8955472440944883
 30
0.0
 10
0.5323385826771654
 20
0.8955472440944883
 30
0.0
 10
0.563984251968504
 20
0.9051259842519686
 30
0.0
 10
0.563984251968504
 20
0.9051259842519686
 30
0.0
 10
0.563984251968504
 20
0.9051259842519686
 30
0.0
 10
0.563984251968504
 20
0.9051259842519686
 30
0.0
 10
0.5957047244094489
 20
0.9153188976377953
 30
0.0
 10
0.5957047244094489
 20
0.9153188976377953
 30
0.0
 10
0.5957047244094489
 20
0.9153188976377953
 30
0.0
 10
0.5957047244094489
 20
0.9153188976377953
 30
0.0
 10
0.627507874015748
 20
0.9260944881889764
 30
0.0
 10
0.627507874015748
 20
0.9260944881889764
 30
0.0
 10
0.627507874015748
 20
0.9260944881889764
 30
0.0
 10
0.627507874015748
 20
0.9260944881889764
 30
0.0
 10
0.6593818897637795
 20
0.9373897637795275
 30
0.0
 10
0.6593818897637795
 20
0.9373897637795275
 30
0.0
 10
0.6593818897637795
 20
0.9373897637795275
 30
0.0
 10
0.6593818897637795
 20
0.9373897637795275
 30
0.0
 10
0.6913307086614173
 20
0.9491692913385827
 30
0.0
 10
0.6913307086614173
 20
0.9491692913385827
 30
0.0
  0
SPLINE
  5
B1
100
AcDbEntity
  8
Layer 1
 62
   253
100
AcDbSpline
210
0.0
220
0.0
230
1.0
 70
     1
 71
     3
 72
    20
 73
    16
 74
     0
 42
0.0000000001
 43
0.0000000001
 40
0.0
 40
0.0
 40
0.0
 40
0.0
 40
0.25
 40
0.25
 40
0.25
 40
0.25
 40
0.5
 40
0.5
 40
0.5
 40
0.5
 40
0.75
 40
0.75
 40
0.75
 40
0.75
 40
1.0
 40
1.0
 40
1.0
 40
1.0
 10
-0.2762677165354331
 20
1.0570433070866143
 30
0.0
 10
-0.2762677165354331
 20
1.0570433070866143
 30
0.0
 10
-0.2838622047244095
 20
1.8091062992125986
 30
0.0
 10
-0.2838622047244095
 20
1.8091062992125986
 30
0.0
 10
-0.2838622047244095
 20
1.8091062992125986
 30
0.0
 10
-0.2838622047244095
 20
1.8091062992125986
 30
0.0
 10
-0.8463622047244095
 20
1.8091062992125986
 30
0.0
 10
-0.8463622047244095
 20
1.8091062992125986
 30
0.0
 10
-0.8463622047244095
 20
1.8091062992125986
 30
0.0
 10
-0.8463622047244095
 20
1.8091062992125986
 30
0.0
 10
-0.8387677165354331
 20
1.0570433070866143
 30
0.0
 10
-0.8387677165354331
 20
1.0570433070866143
 30
0.0
 10
-0.8387677165354331
 20
1.0570433070866143
 30
0.0
 10
-0.8387677165354331
 20
1.0570433070866143
 30
0.0
 10
-0.2762677165354331
 20
1.0570433070866143
 30
0.0
 10
-0.2762677165354331
 20
1.0570433070866143
 30
0.0
  0
SPLINE
  5
B2
100
AcDbEntity
  8
Layer 1
370
     5
100
AcDbSpline
210
0.0
220
0.0
230
1.0
 70
     1
 71
     3
 72
    20
 73
    16
 74
     0
 42
0.0000000001
 43
0.0000000001
 40
0.0
 40
0.0
 40
0.0
 40
0.0
 40
0.25
 40
0.25
 40
0.25
 40
0.25
 40
0.5
 40
0.5
 40
0.5
 40
0.5
 40
0.75
 40
0.75
 40
0.75
 40
0.75
 40
1.0
 40
1.0
 40
1.0
 40
1.0
 10
-0.2762677165354331
 20
1.0570433070866143
 30
0.0
 10
-0.2762677165354331
 20
1.0570433070866143
 30
0.0
 10
-0.2838622047244095
 20
1.8091062992125986
 30
0.0
 10
-0.2838622047244095
 20
1.8091062992125986
 30
0.0
 10
-0.2838622047244095
 20
1.8091062992125986
 30
0.0
 10
-0.2838622047244095
 20
1.8091062992125986
 30
0.0
 10
-0.8463622047244095
 20
1.8091062992125986
 30
0.0
 10
-0.8463622047244095
 20
1.8091062992125986
 30
0.0
 10
-0.8463622047244095
 20
1.8091062992125986
 30
0.0
 10
-0.8463622047244095
 20
1.8091062992125986
 30
0.0
 10
-0.8387677165354331
 20
1.0570433070866143
 30
0.0
 10
-0.8387677165354331
 20
1.0570433070866143
 30
0.0
 10
-0.8387677165354331
 20
1.0570433070866143
 30
0.0
 10
-0.8387677165354331
 20
1.0570433070866143
 30
0.0
 10
-0.2762677165354331
 20
1.0570433070866143
 30
0.0
 10
-0.2762677165354331
 20
1.0570433070866143
 30
0.0
  0
SPLINE
  5
B3
100
AcDbEntity
  8
Layer 1
 62
   253
100
AcDbSpline
210
0.0
220
0.0
230
1.0
 70
     1
 71
     3
 72
    20
 73
    16
 74
     0
 42
0.0000000001
 43
0.0000000001
 40
0.0
 40
0.0
 40
0.0
 40
0.0
 40
0.25
 40
0.25
 40
0.25
 40
0.25
 40
0.5
 40
0.5
 40
0.5
 40
0.5
 40
0.75
 40
0.75
 40
0.75
 40
0.75
 40
1.0
 40
1.0
 40
1.0
 40
1.0
 10
-0.8387677165354331
 20
1.0570433070866143
 30
0.0
 10
-0.8387677165354331
 20
1.0570433070866143
 30
0.0
 10
-0.8463622047244095
 20
1.8091062992125986
 30
0.0
 10
-0.8463622047244095
 20
1.8091062992125986
 30
0.0
 10
-0.8463622047244095
 20
1.8091062992125986
 30
0.0
 10
-0.8463622047244095
 20
1.8091062992125986
 30
0.0
 10
-0.8692755905511811
 20
2.1841062992125986
 30
0.0
 10
-0.8692755905511811
 20
2.1841062992125986
 30
0.0
 10
-0.8692755905511811
 20
2.1841062992125986
 30
0.0
 10
-0.8692755905511811
 20
2.1841062992125986
 30
0.0
 10
-0.8616811023622047
 20
1.4320433070866143
 30
0.0
 10
-0.8616811023622047
 20
1.4320433070866143
 30
0.0
 10
-0.8616811023622047
 20
1.4320433070866143
 30
0.0
 10
-0.8616811023622047
 20
1.4320433070866143
 30
0.0
 10
-0.8387677165354331
 20
1.0570433070866143
 30
0.0
 10
-0.8387677165354331
 20
1.0570433070866143
 30
0.0
  0
SPLINE
  5
B4
100
AcDbEntity
  8
Layer 1
370
     5
100
AcDbSpline
210
0.0
220
0.0
230
1.0
 70
     1
 71
     3
 72
    20
 73
    16
 74
     0
 42
0.0000000001
 43
0.0000000001
 40
0.0
 40
0.0
 40
0.0
 40
0.0
 40
0.25
 40
0.25
 40
0.25
 40
0.25
 40
0.5
 40
0.5
 40
0.5
 40
0.5
 40
0.75
 40
0.75
 40
0.75
 40
0.75
 40
1.0
 40
1.0
 40
1.0
 40
1.0
 10
-0.8387677165354331
 20
1.0570433070866143
 30
0.0
 10
-0.8387677165354331
 20
1.0570433070866143
 30
0.0
 10
-0.8463622047244095
 20
1.8091062992125986
 30
0.0
 10
-0.8463622047244095
 20
1.8091062992125986
 30
0.0
 10
-0.8463622047244095
 20
1.8091062992125986
 30
0.0
 10
-0.8463622047244095
 20
1.8091062992125986
 30
0.0
 10
-0.8692755905511811
 20
2.1841062992125986
 30
0.0
 10
-0.8692755905511811
 20
2.1841062992125986
 30
0.0
 10
-0.8692755905511811
 20
2.1841062992125986
 30
0.0
 10
-0.8692755905511811
 20
2.1841062992125986
 30
0.0
 10
-0.8616811023622047
 20
1.4320433070866143
 30
0.0
 10
-0.8616811023622047
 20
1.4320433070866143
 30
0.0
 10
-0.8616811023622047
 20
1.4320433070866143
 30
0.0
 10
-0.8616811023622047
 20
1.4320433070866143
 30
0.0
 10
-0.8387677165354331
 20
1.0570433070866143
 30
0.0
 10
-0.8387677165354331
 20
1.0570433070866143
 30
0.0
  0
SPLINE
  5
B5
100
AcDbEntity
  8
Layer 1
 62
   253
100
AcDbSpline
210
0.0
220
0.0
230
1.0
 70
     1
 71
     3
 72
    20
 73
    16
 74
     0
 42
0.0000000001
 43
0.0000000001
 40
0.0
 40
0.0
 40
0.0
 40
0.0
 40
0.25
 40
0.25
 40
0.25
 40
0.25
 40
0.5
 40
0.5
 40
0.5
 40
0.5
 40
0.75
 40
0.75
 40
0.75
 40
0.75
 40
1.0
 40
1.0
 40
1.0
 40
1.0
 10
-0.8616811023622047
 20
1.4320433070866143
 30
0.0
 10
-0.8616811023622047
 20
1.4320433070866143
 30
0.0
 10
-0.8692755905511811
 20
2.1841062992125986
 30
0.0
 10
-0.8692755905511811
 20
2.1841062992125986
 30
0.0
 10
-0.8692755905511811
 20
2.1841062992125986
 30
0.0
 10
-0.8692755905511811
 20
2.1841062992125986
 30
0.0
 10
-1.8692755905511811
 20
2.1841062992125986
 30
0.0
 10
-1.8692755905511811
 20
2.1841062992125986
 30
0.0
 10
-1.8692755905511811
 20
2.1841062992125986
 30
0.0
 10
-1.8692755905511811
 20
2.1841062992125986
 30
0.0
 10
-1.8616811023622049
 20
1.4320433070866143
 30
0.0
 10
-1.8616811023622049
 20
1.4320433070866143
 30
0.0
 10
-1.8616811023622049
 20
1.4320433070866143
 30
0.0
 10
-1.8616811023622049
 20
1.4320433070866143
 30
0.0
 10
-0.8616811023622047
 20
1.4320433070866143
 30
0.0
 10
-0.8616811023622047
 20
1.4320433070866143
 30
0.0
  0
SPLINE
  5
B6
100
AcDbEntity
  8
Layer 1
370
     5
100
AcDbSpline
210
0.0
220
0.0
230
1.0
 70
     1
 71
     3
 72
    20
 73
    16
 74
     0
 42
0.0000000001
 43
0.0000000001
 40
0.0
 40
0.0
 40
0.0
 40
0.0
 40
0.25
 40
0.25
 40
0.25
 40
0.25
 40
0.5
 40
0.5
 40
0.5
 40
0.5
 40
0.75
 40
0.75
 40
0.75
 40
0.75
 40
1.0
 40
1.0
 40
1.0
 40
1.0
 10
-0.8616811023622047
 20
1.4320433070866143
 30
0.0
 10
-0.8616811023622047
 20
1.4320433070866143
 30
0.0
 10
-0.8692755905511811
 20
2.1841062992125986
 30
0.0
 10
-0.8692755905511811
 20
2.1841062992125986
 30
0.0
 10
-0.8692755905511811
 20
2.1841062992125986
 30
0.0
 10
-0.8692755905511811
 20
2.1841062992125986
 30
0.0
 10
-1.8692755905511811
 20
2.1841062992125986
 30
0.0
 10
-1.8692755905511811
 20
2.1841062992125986
 30
0.0
 10
-1.8692755905511811
 20
2.1841062992125986
 30
0.0
 10
-1.8692755905511811
 20
2.1841062992125986
 30
0.0
 10
-1.8616811023622049
 20
1.4320433070866143
 30
0.0
 10
-1.8616811023622049
 20
1.4320433070866143
 30
0.0
 10
-1.8616811023622049
 20
1.4320433070866143
 30
0.0
 10
-1.8616811023622049
 20
1.4320433070866143
 30
0.0
 10
-0.8616811023622047
 20
1.4320433070866143
 30
0.0
 10
-0.8616811023622047
 20
1.4320433070866143
 30
0.0
  0
SPLINE
  5
B7
100
AcDbEntity
  8
Layer 1
370
     5
 62
     7
100
AcDbSpline
210
0.0
220
0.0
230
1.0
 70
     1
 71
     3
 72
    36
 73
    32
 74
     0
 42
0.0000000001
 43
0.0000000001
 40
0.0
 40
0.0
 40
0.0
 40
0.0
 40
0.125
 40
0.125
 40
0.125
 40
0.125
 40
0.25
 40
0.25
 40
0.25
 40
0.25
 40
0.375
 40
0.375
 40
0.375
 40
0.375
 40
0.5
 40
0.5
 40
0.5
 40
0.5
 40
0.625
 40
0.625
 40
0.625
 40
0.625
 40
0.75
 40
0.75
 40
0.75
 40
0.75
 40
0.875
 40
0.875
 40
0.875
 40
0.875
 40
1.0
 40
1.0
 40
1.0
 40
1.0
 10
1.6383188976377954
 20
0.6344291338582677
 30
0.0
 10
1.6451338582677166
 20
1.1472913385826773
 30
0.0
 10
1.0324330708661418
 20
1.0770826771653543
 30
0.0
 10
0.6913307086614173
 20
0.9491692913385827
 30
0.0
 10
0.6913307086614173
 20
0.9491692913385827
 30
0.0
 10
0.3502283464566929
 20
0.8212559055118111
 30
0.0
 10
0.0204330708661417
 20
0.7656850393700788
 30
0.0
 10
-0.2762677165354331
 20
1.0570433070866143
 30
0.0
 10
-0.2762677165354331
 20
1.0570433070866143
 30
0.0
 10
-0.2762677165354331
 20
1.0570433070866143
 30
0.0
 10
-0.8387677165354331
 20
1.0570433070866143
 30
0.0
 10
-0.8387677165354331
 20
1.0570433070866143
 30
0.0
 10
-0.8387677165354331
 20
1.0570433070866143
 30
0.0
 10
-0.8387677165354331
 20
1.0570433070866143
 30
0.0
 10
-0.8616811023622047
 20
1.4320433070866143
 30
0.0
 10
-0.8616811023622047
 20
1.4320433070866143
 30
0.0
 10
-0.8616811023622047
 20
1.4320433070866143
 30
0.0
 10
-0.8616811023622047
 20
1.4320433070866143
 30
0.0
 10
-1.8616811023622049
 20
1.4320433070866143
 30
0.0
 10
-1.8616811023622049
 20
1.4320433070866143
 30
0.0
 10
-1.8616811023622049
 20
1.4320433070866143
 30
0.0
 10
-1.8616811023622049
 20
1.4320433070866143
 30
0.0
 10
-1.8616811023622049
 20
0.1820393700787402
 30
0.0
 10
-1.8616811023622049
 20
0.1820393700787402
 30
0.0
 10
-1.8616811023622049
 20
0.1820393700787402
 30
0.0
 10
-1.8616811023622049
 20
0.1820393700787402
 30
0.0
 10
1.6383188976377954
 20
0.1820393700787402
 30
0.0
 10
1.6383188976377954
 20
0.1820393700787402
 30
0.0
 10
1.6383188976377954
 20
0.1820393700787402
 30
0.0
 10
1.6383188976377954
 20
0.1820393700787402
 30
0.0
 10
1.6383188976377954
 20
0.6344291338582677
 30
0.0
 10
1.6383188976377954
 20
0.6344291338582677
 30
0.0
  0
TEXT
  5
B8
100
AcDbEntity
  8
Layer 1
100
AcDbText
 10
-0.490827
 20
-0.039228
 30
0.0
 40
0.119999
  1
BA  1538
 51
-0.000002
  7
Bookman Old Style
100
AcDbText
  0
TEXT
  5
B9
100
AcDbEntity
  8
Layer 1
100
AcDbText
 10
-0.755839
 20
-0.226728
 30
0.0
 40
0.119999
  1
1-1/4\u+201d x 3-1/2\u+201d
 51
-0.000002
  7
Bookman Old Style
100
AcDbText
  0
ENDSEC
  0
SECTION
  2
OBJECTS
  0
DICTIONARY
  5
19
100
AcDbDictionary
280
     0
281
     1
  3
ACAD_GROUP
350
1A
  3
ACAD_MLINESTYLE
350
1B
  3
ACAD_LAYOUT
350
1E
  3
ACAD_PLOTSETTINGS
350
22
  3
ACAD_PLOTSTYLENAME
350
1F
  3
ACAD_WIPEOUT_VARS
350
23
  0
DICTIONARY
  5
1A
102
{ACAD_REACTORS
330
19
102
}
100
AcDbDictionary
280
     0
281
     1
  0
DICTIONARY
  5
1B
102
{ACAD_REACTORS
330
19
102
}
100
AcDbDictionary
280
     0
281
     1
  3
Standard
350
1C
  0
MLINESTYLE
  5
1C
102
{ACAD_REACTORS
330
1B
102
}
100
AcDbMlineStyle
  2
Standard
 70
     0
  3

 62
     0
 51
90.0
 52
90.0
 71
     2
 49
0.5
 62
   256
  6
BYLAYER
 49
-0.5
 62
   256
  6
BYLAYER
  0
ACDBDICTIONARYWDFLT
  5
1F
102
{ACAD_REACTORS
330
19
102
}
100
AcDbDictionary
281
     1
  3
Normal
350
1D
100
AcDbDictionaryWithDefault
340
1D
  0
ACDBPLACEHOLDER
  5
1D
102
{ACAD_REACTORS
330
1F
102
}
  0
LAYOUT
  5
20
102
{ACAD_REACTORS
330
1E
102
}
100
AcDbPlotSettings
  1

  2

  4

  6

 40
0.0
 41
0.0
 42
0.0
 43
0.0
 44
0.0
 45
0.0
 46
0.0
 47
0.0
 48
0.0
 49
0.0
140
0.0
141
0.0
142
1.0
143
1.0
 70
  1024
 72
     0
 73
     0
 74
     0
  7

 75
     0
147
1.0
148
0.0
149
0.0
100
AcDbLayout
  1
Model
 70
     0
 71
     0
 10
0.0
 20
0.0
 11
0.0
 21
0.0
 12
0.0
 22
0.0
 32
0.0
 14
0.0
 24
0.0
 34
0.0
 15
0.0
 25
0.0
 35
0.0
146
0.0
 13
0.0
 23
0.0
 33
0.0
 16
0.0
 26
0.0
 36
0.0
 17
0.0
 27
0.0
 37
0.0
 76
     0
330
A
331
0
345
0
346
0
  0
LAYOUT
  5
21
102
{ACAD_REACTORS
330
1E
102
}
100
AcDbPlotSettings
  1

  2

  4

  6

 40
0.0
 41
0.0
 42
0.0
 43
0.0
 44
0.0
 45
0.0
 46
0.0
 47
0.0
 48
0.0
 49
0.0
140
0.0
141
0.0
142
1.0
143
1.0
 70
     0
 72
     0
 73
     0
 74
     0
  7

 75
     0
147
1.0
148
0.0
149
0.0
100
AcDbLayout
  1
Layout1
 70
     0
 71
     0
 10
0.0
 20
0.0
 11
0.0
 21
0.0
 12
0.0
 22
0.0
 32
0.0
 14
0.0
 24
0.0
 34
0.0
 15
0.0
 25
0.0
 35
0.0
146
0.0
 13
0.0
 23
0.0
 33
0.0
 16
0.0
 26
0.0
 36
0.0
 17
0.0
 27
0.0
 37
0.0
 76
     0
330
B
331
0
345
0
346
0
  0
DICTIONARY
  5
1E
102
{ACAD_REACTORS
330
19
102
}
100
AcDbDictionary
280
     0
281
     1
  3
Layout1
350
21
  3
Model
350
20
  0
DICTIONARY
  5
22
102
{ACAD_REACTORS
330
19
102
}
100
AcDbDictionary
280
     0
281
     1
  0
WIPEOUTVARIABLES
  5
23
100
AcDbWipeoutVariables
 70
     1
  0
ENDSEC
  0
EOF
