  0
SECTION
  2
HEADER
  9
$ACADVER
  1
AC1015
  9
$ACADMAINTVER
 70
     6
  9
$DWGCODEPAGE
  3
DOS850
  9
$INSBASE
 10
0.0
 20
0.0
 30
0.0
  9
$EXTMIN
 10
-12.647756
 20
-5.331283
 30
1.000000E+20
  9
$EXTMAX
 10
14.720354
 20
17.587232
 30
-1.000000E+20
  9
$LIMMIN
 10
0.0
 20
0.0
  9
$LIMMAX
 10
0.0
 20
0.0
  9
$ORTHOMODE
 70
     0
  9
$REGENMODE
 70
     1
  9
$FILLMODE
 70
     1
  9
$QTEXTMODE
 70
     0
  9
$MIRRTEXT
 70
     1
  9
$LTSCALE
 40
1.0
  9
$ATTMODE
 70
     1
  9
$TEXTSIZE
 40
0.2
  9
$TRACEWID
 40
0.05
  9
$TEXTSTYLE
  7
Standard
  9
$CLAYER
  8
0
  9
$CELTYPE
  6
Continuous
  9
$CECOLOR
 62
   256
  9
$CELTSCALE
 40
1.0
  9
$DISPSILH
 70
     0
  9
$DIMSCALE
 40
1.0
  9
$DIMASZ
 40
0.18
  9
$DIMEXO
 40
0.0625
  9
$DIMDLI
 40
0.38
  9
$DIMRND
 40
0.0
  9
$DIMDLE
 40
0.0
  9
$DIMEXE
 40
0.18
  9
$DIMTP
 40
0.0
  9
$DIMTM
 40
0.0
  9
$DIMTXT
 40
0.18
  9
$DIMCEN
 40
0.09
  9
$DIMTSZ
 40
0.0
  9
$DIMTOL
 70
     0
  9
$DIMLIM
 70
     0
  9
$DIMTIH
 70
     1
  9
$DIMTOH
 70
     1
  9
$DIMSE1
 70
     0
  9
$DIMSE2
 70
     0
  9
$DIMTAD
 70
     0
  9
$DIMZIN
 70
     0
  9
$DIMBLK
  1

  9
$DIMASO
 70
     1
  9
$DIMSHO
 70
     1
  9
$DIMPOST
  1

  9
$DIMAPOST
  1

  9
$DIMALT
 70
     0
  9
$DIMALTD
 70
     2
  9
$DIMALTF
 40
25.4
  9
$DIMLFAC
 40
1.0
  9
$DIMTOFL
 70
     0
  9
$DIMTVP
 40
0.0
  9
$DIMTIX
 70
     0
  9
$DIMSOXD
 70
     0
  9
$DIMSAH
 70
     0
  9
$DIMBLK1
  1

  9
$DIMBLK2
  1

  9
$DIMSTYLE
  2
Standard
  9
$DIMCLRD
 70
     0
  9
$DIMCLRE
 70
     0
  9
$DIMCLRT
 70
     0
  9
$DIMTFAC
 40
1.0
  9
$DIMGAP
 40
0.09
  9
$DIMJUST
 70
     0
  9
$DIMSD1
 70
     0
  9
$DIMSD2
 70
     0
  9
$DIMTOLJ
 70
     1
  9
$DIMTZIN
 70
     0
  9
$DIMALTZ
 70
     0
  9
$DIMALTTZ
 70
     0
  9
$DIMUPT
 70
     0
  9
$DIMDEC
 70
     4
  9
$DIMTDEC
 70
     4
  9
$DIMALTU
 70
     2
  9
$DIMALTTD
 70
     2
  9
$DIMTXSTY
  7
Standard
  9
$DIMAUNIT
 70
     0
  9
$DIMADEC
 70
     0
  9
$DIMALTRND
 40
0.0
  9
$DIMAZIN
 70
     0
  9
$DIMDSEP
 70
     0
  9
$DIMATFIT
 70
     3
  9
$DIMFRAC
 70
     0
  9
$DIMLDRBLK
  1

  9
$DIMLUNIT
 70
     2
  9
$DIMLWD
 70
     0
  9
$DIMLWE
 70
     0
  9
$DIMTMOVE
 70
     0
  9
$LUNITS
 70
     2
  9
$LUPREC
 70
     4
  9
$SKETCHINC
 40
0.1
  9
$FILLETRAD
 40
0.0
  9
$AUNITS
 70
     0
  9
$AUPREC
 70
     0
  9
$MENU
  1
acad
  9
$ELEVATION
 40
0.0
  9
$PELEVATION
 40
0.0
  9
$THICKNESS
 40
0.0
  9
$LIMCHECK
 70
     0
  9
$CHAMFERA
 40
0.0
  9
$CHAMFERB
 40
0.0
  9
$CHAMFERC
 40
0.0
  9
$CHAMFERD
 40
0.0
  9
$SKPOLY
 70
     0
  9
$TDCREATE
 40
0.000000000
  9
$TDUCREATE
 40
0.000000000
  9
$TDUPDATE
 40
0.000000000
  9
$TDUUPDATE
 40
0.000000000
  9
$TDINDWG
 40
0.0000000000
  9
$TDUSRTIMER
 40
0.0000000000
  9
$USRTIMER
 70
     1
  9
$ANGBASE
 50
0.0
  9
$ANGDIR
 70
     0
  9
$PDMODE
 70
     0
  9
$PDSIZE
 40
0.0
  9
$PLINEWID
 40
0.0
  9
$SPLFRAME
 70
     0
  9
$SPLINETYPE
 70
     6
  9
$SPLINESEGS
 70
     8
  9
$HANDSEED
  5
93
  9
$SURFTAB1
 70
     6
  9
$SURFTAB2
 70
     6
  9
$SURFTYPE
 70
     6
  9
$SURFU
 70
     6
  9
$SURFV
 70
     6
  9
$UCSBASE
  2

  9
$UCSNAME
  2

  9
$UCSORG
 10
0.0
 20
0.0
 30
0.0
  9
$UCSXDIR
 10
1.0
 20
0.0
 30
0.0
  9
$UCSYDIR
 10
0.0
 20
1.0
 30
0.0
  9
$UCSORTHOREF
  2

  9
$UCSORTHOVIEW
 70
     0
  9
$UCSORGTOP
 10
0.0
 20
0.0
 30
0.0
  9
$UCSORGBOTTOM
 10
0.0
 20
0.0
 30
0.0
  9
$UCSORGLEFT
 10
0.0
 20
0.0
 30
0.0
  9
$UCSORGRIGHT
 10
0.0
 20
0.0
 30
0.0
  9
$UCSORGFRONT
 10
0.0
 20
0.0
 30
0.0
  9
$UCSORGBACK
 10
0.0
 20
0.0
 30
0.0
  9
$PUCSBASE
  2

  9
$PUCSNAME
  2

  9
$PUCSORG
 10
0.0
 20
0.0
 30
0.0
  9
$PUCSXDIR
 10
1.0
 20
0.0
 30
0.0
  9
$PUCSYDIR
 10
0.0
 20
1.0
 30
0.0
  9
$PUCSORTHOREF
  2

  9
$PUCSORTHOVIEW
 70
     0
  9
$PUCSORGTOP
 10
0.0
 20
0.0
 30
0.0
  9
$PUCSORGBOTTOM
 10
0.0
 20
0.0
 30
0.0
  9
$PUCSORGLEFT
 10
0.0
 20
0.0
 30
0.0
  9
$PUCSORGRIGHT
 10
0.0
 20
0.0
 30
0.0
  9
$PUCSORGFRONT
 10
0.0
 20
0.0
 30
0.0
  9
$PUCSORGBACK
 10
0.0
 20
0.0
 30
0.0
  9
$USERI1
 70
     0
  9
$USERI2
 70
     0
  9
$USERI3
 70
     0
  9
$USERI4
 70
     0
  9
$USERI5
 70
     0
  9
$USERR1
 40
0.0
  9
$USERR2
 40
0.0
  9
$USERR3
 40
0.0
  9
$USERR4
 40
0.0
  9
$USERR5
 40
0.0
  9
$WORLDVIEW
 70
     1
  9
$SHADEDGE
 70
     3
  9
$SHADEDIF
 70
    70
  9
$TILEMODE
 70
     1
  9
$MAXACTVP
 70
    16
  9
$PINSBASE
 10
0.0
 20
0.0
 30
0.0
  9
$PLIMCHECK
 70
     0
  9
$PEXTMIN
 10
1.000000E+20
 20
1.000000E+20
 30
1.000000E+20
  9
$PEXTMAX
 10
-1.000000E+20
 20
-1.000000E+20
 30
-1.000000E+20
  9
$PLIMMIN
 10
0.0
 20
0.0
  9
$PLIMMAX
 10
12.0
 20
9.0
  9
$UNITMODE
 70
     0
  9
$VISRETAIN
 70
     0
  9
$PLINEGEN
 70
     1
  9
$PSLTSCALE
 70
     0
  9
$TREEDEPTH
 70
  3020
  9
$CMLSTYLE
  2
Standard
  9
$CMLJUST
 70
     0
  9
$CMLSCALE
 40
1.0
  9
$PROXYGRAPHICS
 70
     0
  9
$MEASUREMENT
 70
     0
  9
$CELWEIGHT
370
     0
  9
$ENDCAPS
280
     0
  9
$JOINSTYLE
280
     0
  9
$LWDISPLAY
290
     0
  9
$INSUNITS
 70
     1
  9
$HYPERLINKBASE
  1

  9
$XEDIT
290
     1
  9
$CEPSNTYPE
380
     0
  9
$PSTYLEMODE
290
     1
  9
$FINGERPRINTGUID
  2

  9
$VERSIONGUID
  2

  9
$EXTNAMES
290
     1
  9
$PSVPSCALE
 40
0.0
  0
ENDSEC
  0
SECTION
  2
CLASSES
  0
CLASS
  1
LWPOLYLINE
  2
AcDbPolyline
  3
AutoCAD 2000
 90
    32768
280
     0
281
     1
  0
CLASS
  1
IMAGE
  2
AcDbRasterImage
  3
ISM
 90
    32895
280
     0
281
     1
  0
CLASS
  1
OLE2FRAME
  2
AcDbOle2Frame
  3
AutoCAD 2000
 90
    32768
280
     0
281
     1
  0
CLASS
  1
HATCH
  2
AcDbHatch
  3
AutoCAD 2000
 90
    32768
280
     0
281
     1
  0
CLASS
  1
DICTIONARYVAR
  2
AcDbDictionaryVar
  3
AutoCAD 2000
 90
    32768
280
     0
281
     0
  0
CLASS
  1
RASTERVARIABLES
  2
AcDbRasterVariables
  3
ISM
 90
    32768
280
     0
281
     0
  0
CLASS
  1
IMAGEDEF
  2
AcDbRasterImageDef
  3
ISM
 90
    32768
280
     0
281
     0
  0
CLASS
  1
IMAGEDEF_REACTOR
  2
AcDbRasterImageDefReactor
  3
ISM
 90
    32769
280
     0
281
     0
  0
CLASS
  1
IDBUFFER
  2
AcDbIdBuffer
  3
AutoCAD 2000
 90
    32768
280
     0
281
     0
  0
CLASS
  1
SPATIAL_FILTER
  2
AcDbSpatialFilter
  3
AutoCAD 2000
 90
    32768
280
     0
281
     0
  0
CLASS
  1
XRECORD
  2
AcDbXrecord
  3
AutoCAD 2000
 90
    32768
280
     0
281
     0
  0
CLASS
  1
SORTENTSTABLE
  2
AcDbSortentsTable
  3
AutoCAD 2000
 90
    32768
280
     0
281
     0
  0
CLASS
  1
LAYER_INDEX
  2
AcDbLayerIndex
  3
AutoCAD 2000
 90
    32768
280
     0
281
     0
  0
CLASS
  1
SPATIAL_INDEX
  2
AcDbSpatialIndex
  3
AutoCAD 2000
 90
    32768
280
     0
281
     0
  0
CLASS
  1
OBJECT_PTR
  2
CAseDLPNTableRecord
  3
"ASE-LPNTableRecord"
 90
    32769
280
     0
281
     0
  0
CLASS
  1
LAYOUT
  2
AcDbLayout
  3
AutoCAD 2000
 90
        0
280
     0
281
     0
  0
CLASS
  1
PLOTSETTINGS
  2
AcDbPlotSettings
  3
AutoCAD 2000
 90
    32768
280
     0
281
     0
  0
CLASS
  1
ACDBDICTIONARYWDFLT
  2
AcDbDictionaryWithDefault
  3
AutoCAD 2000
 90
        0
280
     0
281
     0
  0
CLASS
  1
ACDBPLACEHOLDER
  2
AcDbPlaceHolder
  3
AutoCAD 2000
 90
        0
280
     0
281
     0
  0
CLASS
  1
VBA_PROJECT
  2
AcDbVbaProject
  3
acadvba
 90
    32768
280
     0
281
     0
  0
CLASS
  1
WIPEOUT
  2
AcDbWipeout
  3
WipeOut|AutoCAD Express Tool|expresstools@autodesk.com
 90
    32895
280
     0
281
     1
  0
CLASS
  1
WIPEOUTVARIABLES
  2
AcDbWipeoutVariables
  3
WipeOut|AutoCAD Express Tool|expresstools@autodesk.com
 90
        0
280
     0
281
     0
  0
CLASS
  1
RTEXT
  2
RText
  3
RText|AutoCAD Express Tool|expresstools@autodesk.com
 90
    32768
280
     0
281
     1
  0
CLASS
  1
ARCALIGNEDTEXT
  2
AcDbArcAlignedText
  3
ATEXT|AutoCAD Express Tool|expresstools@autodesk.com
 90
    32768
280
     0
281
     1
  0
ENDSEC
  0
SECTION
  2
TABLES
  0
TABLE
  2
VPORT
  5
7
100
AcDbSymbolTable
 70
     1
  0
VPORT
  5
15
100
AcDbSymbolTableRecord
100
AcDbViewportTableRecord
  2
*ACTIVE
 70
     0
 10
0.0
 20
0.0
 11
1.0
 21
1.0
 12
6.591288
 22
4.579184
 13
0.0
 23
0.0
 14
1.0
 24
1.0
 15
0.0
 25
0.0
 16
0.0
 26
0.0
 36
1.0
 17
0.0
 27
0.0
 37
0.0
 40
9.158369
 41
0.688564
 42
50.0
 43
0.0
 44
0.0
 50
0.0
 51
0.0
 71
     0
 72
   100
 73
     1
 74
     1
 75
     0
 76
     0
 77
     0
 78
     0
281
     0
 65
     0
110
0.0
120
0.0
130
0.0
111
1.0
121
0.0
131
0.0
112
0.0
122
1.0
132
0.0
345
0
346
0
 79
     0
146
0.0
  0
ENDTAB
  0
TABLE
  2
LTYPE
  5
4
100
AcDbSymbolTable
 70
     3
  0
LTYPE
  5
11
100
AcDbSymbolTableRecord
100
AcDbLinetypeTableRecord
  2
ByBlock
 70
    64
  3

 72
    65
 73
     0
 40
0.0
  0
LTYPE
  5
12
100
AcDbSymbolTableRecord
100
AcDbLinetypeTableRecord
  2
ByLayer
 70
    64
  3

 72
    65
 73
     0
 40
0.0
  0
LTYPE
  5
13
100
AcDbSymbolTableRecord
100
AcDbLinetypeTableRecord
  2
Continuous
 70
    64
  3
Solid line
 72
    65
 73
     0
 40
0.0
  0
ENDTAB
  0
TABLE
  2
LAYER
  5
2
100
AcDbSymbolTable
 70
     2
  0
LAYER
  5
14
100
AcDbSymbolTableRecord
100
AcDbLayerTableRecord
  2
0
 70
     0
 62
     7
  6
Continuous
290
     1
370
    -3
390
1D
  0
LAYER
  5
24
100
AcDbSymbolTableRecord
100
AcDbLayerTableRecord
  2
Layer 1
 70
     0
 62
     7
  6
Continuous
290
     1
370
    -3
390
1F
  0
ENDTAB
  0
TABLE
  2
STYLE
  5
3
100
AcDbSymbolTable
 70
     2
  0
STYLE
  5
17
100
AcDbSymbolTableRecord
100
AcDbTextStyleTableRecord
  2
Standard
 70
     0
 40
0.0
 41
1.0
 50
0.0
 71
     0
 42
0.0
  3
txt
  4

  0
STYLE
  5
2A
100
AcDbSymbolTableRecord
100
AcDbTextStyleTableRecord
  2
Bookman Old Style
 70
     0
 40
1.0
 41
1.0
 50
0.0
 71
     0
 42
1.0
  3
Bookman Old Style
  4

  0
ENDTAB
  0
TABLE
  2
VIEW
  5
5
100
AcDbSymbolTable
 70
     0
  0
ENDTAB
  0
TABLE
  2
UCS
  5
6
100
AcDbSymbolTable
 70
     0
  0
ENDTAB
  0
TABLE
  2
APPID
  5
8
100
AcDbSymbolTable
 70
     1
  0
APPID
  5
16
100
AcDbSymbolTableRecord
100
AcDbRegAppTableRecord
  2
ACAD
 70
     0
  0
ENDTAB
  0
TABLE
  2
DIMSTYLE
  5
9
100
AcDbSymbolTable
 70
     1
100
AcDbDimStyleTable
 71
     0
  0
DIMSTYLE
105
18
100
AcDbSymbolTableRecord
100
AcDbDimStyleTableRecord
  2
Standard
 70
     0
  3

  4

 40
1.0
 41
0.18
 42
0.0625
 43
0.38
 44
0.18
 45
0.0
 46
0.0
 47
0.0
 48
0.0
 71
     0
 72
     0
 73
     1
 74
     1
 75
     0
 76
     0
 77
     0
 78
     0
 79
     0
140
0.18
141
0.09
142
0.0
143
25.4
144
1.0
145
0.0
146
1.0
147
0.09
148
0.0
170
     0
171
     2
172
     0
173
     0
174
     0
175
     0
176
     0
177
     0
178
     0
179
     0
271
     4
272
     4
273
     2
274
     2
275
     0
276
     0
277
     2
278
    46
279
     0
280
     0
281
     0
282
     0
283
     1
284
     0
285
     0
286
     0
288
     0
340
17
341
0
342
0
343
0
344
0
371
    -2
372
    -2
  0
ENDTAB
  0
TABLE
  2
BLOCK_RECORD
  5
1
100
AcDbSymbolTable
 70
     0
  0
BLOCK_RECORD
  5
A
100
AcDbSymbolTableRecord
100
AcDbBlockTableRecord
  2
*MODEL_SPACE
340
20
  0
BLOCK_RECORD
  5
B
100
AcDbSymbolTableRecord
100
AcDbBlockTableRecord
  2
*PAPER_SPACE
340
21
  0
ENDTAB
  0
ENDSEC
  0
SECTION
  2
BLOCKS
  0
BLOCK
  5
D
100
AcDbEntity
  8
0
100
AcDbBlockBegin
  2
*MODEL_SPACE
 70
     0
 10
0.0
 20
0.0
 30
0.0
  3
*MODEL_SPACE
  1

  0
ENDBLK
  5
E
100
AcDbEntity
  8
0
100
AcDbBlockEnd
  0
BLOCK
  5
F
100
AcDbEntity
 67
     1
  8
0
100
AcDbBlockBegin
  2
*PAPER_SPACE
 70
     0
 10
0.0
 20
0.0
 30
0.0
  3
*PAPER_SPACE
  1

  0
ENDBLK
  5
10
100
AcDbEntity
 67
     1
  8
0
100
AcDbBlockEnd
  0
ENDSEC
  0
SECTION
  2
ENTITIES
  0
SPLINE
  5
25
100
AcDbEntity
  8
Layer 1
370
     5
100
AcDbSpline
210
0.0
220
0.0
230
1.0
 70
     1
 71
     3
 72
    84
 73
    80
 74
     0
 42
0.0000000001
 43
0.0000000001
 40
0.0
 40
0.0
 40
0.0
 40
0.0
 40
0.05
 40
0.05
 40
0.05
 40
0.05
 40
0.1
 40
0.1
 40
0.1
 40
0.1
 40
0.15
 40
0.15
 40
0.15
 40
0.15
 40
0.2
 40
0.2
 40
0.2
 40
0.2
 40
0.25
 40
0.25
 40
0.25
 40
0.25
 40
0.3
 40
0.3
 40
0.3
 40
0.3
 40
0.35
 40
0.35
 40
0.35
 40
0.35
 40
0.4
 40
0.4
 40
0.4
 40
0.4
 40
0.45
 40
0.45
 40
0.45
 40
0.45
 40
0.4999999999999999
 40
0.4999999999999999
 40
0.4999999999999999
 40
0.4999999999999999
 40
0.5499999999999999
 40
0.5499999999999999
 40
0.5499999999999999
 40
0.5499999999999999
 40
0.6
 40
0.6
 40
0.6
 40
0.6
 40
0.65
 40
0.65
 40
0.65
 40
0.65
 40
0.7000000000000001
 40
0.7000000000000001
 40
0.7000000000000001
 40
0.7000000000000001
 40
0.7500000000000001
 40
0.7500000000000001
 40
0.7500000000000001
 40
0.7500000000000001
 40
0.8000000000000002
 40
0.8000000000000002
 40
0.8000000000000002
 40
0.8000000000000002
 40
0.8500000000000002
 40
0.8500000000000002
 40
0.8500000000000002
 40
0.8500000000000002
 40
0.9000000000000002
 40
0.9000000000000002
 40
0.9000000000000002
 40
0.9000000000000002
 40
0.9500000000000003
 40
0.9500000000000003
 40
0.9500000000000003
 40
0.9500000000000003
 40
1.0
 40
1.0
 40
1.0
 40
1.0
 10
-2.0886614173228346
 20
2.2957125984251969
 30
0.0
 10
-2.0845669291338584
 20
1.9555551181102362
 30
0.0
 10
-2.0538110236220475
 20
1.64848031496063
 30
0.0
 10
-2.0005433070866143
 20
1.3728740157480315
 30
0.0
 10
-2.0005433070866143
 20
1.3728740157480315
 30
0.0
 10
-1.9472755905511812
 20
1.0972677165354332
 30
0.0
 10
-1.871496062992126
 20
0.8531220472440946
 30
0.0
 10
-1.7773582677165356
 20
0.6388346456692914
 30
0.0
 10
-1.7773582677165356
 20
0.6388346456692914
 30
0.0
 10
-0.978744094488189
 20
-1.1790944881889764
 30
0.0
 10
1.1413307086614173
 20
-0.8491811023622048
 30
0.0
 10
2.0503622047244097
 20
0.6389330708661417
 30
0.0
 10
2.0503622047244097
 20
0.6389330708661417
 30
0.0
 10
2.2298031496062993
 20
0.9326850393700787
 30
0.0
 10
2.3620590551181104
 20
1.2715669291338583
 30
0.0
 10
2.4276377952755905
 20
1.6479645669291338
 30
0.0
 10
2.4276377952755905
 20
1.6479645669291338
 30
0.0
 10
2.4276377952755905
 20
1.6479645669291338
 30
0.0
 10
3.4002755905511814
 20
1.7061220472440946
 30
0.0
 10
3.4002755905511814
 20
1.7061220472440946
 30
0.0
 10
3.4002755905511814
 20
1.7061220472440946
 30
0.0
 10
3.4989330708661419
 20
1.7102677165354332
 30
0.0
 10
3.524716535433071
 20
1.6607637795275592
 30
0.0
 10
3.5240078740157483
 20
1.5926968503937009
 30
0.0
 10
3.5240078740157483
 20
1.5926968503937009
 30
0.0
 10
3.5240078740157483
 20
1.5926968503937009
 30
0.0
 10
3.5240078740157483
 20
1.1163070866141733
 30
0.0
 10
3.5240078740157483
 20
1.1163070866141733
 30
0.0
 10
3.5240078740157483
 20
1.1163070866141733
 30
0.0
 10
3.5240078740157483
 20
1.1163070866141733
 30
0.0
 10
3.5240078740157483
 20
0.6389724409448819
 30
0.0
 10
3.5240078740157483
 20
0.6389724409448819
 30
0.0
 10
3.5240078740157483
 20
0.6389724409448819
 30
0.0
 10
2.9136299212598424
 20
0.3898385826771654
 30
0.0
 10
2.8015157480314961
 20
0.2403543307086614
 30
0.0
 10
2.5523858267716535
 20
-0.6689803149606299
 30
0.0
 10
2.5523858267716535
 20
-0.6689803149606299
 30
0.0
 10
2.3032559055118109
 20
-1.5783149606299214
 30
0.0
 10
1.9046377952755906
 20
-2.0018464566929133
 30
0.0
 10
0.8956456692913386
 20
-2.1264133858267718
 30
0.0
 10
0.8956456692913386
 20
-2.1264133858267718
 30
0.0
 10
0.8956456692913386
 20
-2.1264133858267718
 30
0.0
 10
-1.0600551181102362
 20
-2.1264133858267718
 30
0.0
 10
-1.0600551181102362
 20
-2.1264133858267718
 30
0.0
 10
-1.0600551181102362
 20
-2.1264133858267718
 30
0.0
 10
-1.0600551181102362
 20
-2.1264133858267718
 30
0.0
 10
-2.9161023622047244
 20
-0.5070433070866142
 30
0.0
 10
-2.9161023622047244
 20
-0.5070433070866142
 30
0.0
 10
-2.9161023622047244
 20
-0.5070433070866142
 30
0.0
 10
-2.9161023622047244
 20
-0.5070433070866142
 30
0.0
 10
-2.9161023622047244
 20
0.0659251968503937
 30
0.0
 10
-2.9161023622047244
 20
0.0659251968503937
 30
0.0
 10
-2.9161023622047244
 20
0.0659251968503937
 30
0.0
 10
-2.9161023622047244
 20
0.0659251968503937
 30
0.0
 10
-2.9161023622047244
 20
0.6388897637795276
 30
0.0
 10
-2.9161023622047244
 20
0.6388897637795276
 30
0.0
 10
-2.9161023622047244
 20
0.6388897637795276
 30
0.0
 10
-2.9161023622047244
 20
0.6388897637795276
 30
0.0
 10
-2.9161023622047244
 20
2.2957125984251969
 30
0.0
 10
-2.9161023622047244
 20
2.2957125984251969
 30
0.0
 10
-2.9161023622047244
 20
2.2957125984251969
 30
0.0
 10
-2.9161023622047244
 20
2.2957125984251969
 30
0.0
 10
-2.6273188976377955
 20
2.2957125984251969
 30
0.0
 10
-2.6273188976377955
 20
2.2957125984251969
 30
0.0
 10
-2.6273188976377955
 20
2.2957125984251969
 30
0.0
 10
-2.6273188976377955
 20
2.2957125984251969
 30
0.0
 10
-2.6273188976377955
 20
2.5457125984251969
 30
0.0
 10
-2.6273188976377955
 20
2.5457125984251969
 30
0.0
 10
-2.6273188976377955
 20
2.5457125984251969
 30
0.0
 10
-2.6273188976377955
 20
2.5457125984251969
 30
0.0
 10
-2.3773188976377955
 20
2.5457125984251969
 30
0.0
 10
-2.3773188976377955
 20
2.5457125984251969
 30
0.0
 10
-2.3773188976377955
 20
2.5457125984251969
 30
0.0
 10
-2.3773188976377955
 20
2.5457125984251969
 30
0.0
 10
-2.3773188976377955
 20
2.2957125984251969
 30
0.0
 10
-2.3773188976377955
 20
2.2957125984251969
 30
0.0
 10
-2.3773188976377955
 20
2.2957125984251969
 30
0.0
 10
-2.3773188976377955
 20
2.2957125984251969
 30
0.0
 10
-2.0886614173228346
 20
2.2957125984251969
 30
0.0
 10
-2.0886614173228346
 20
2.2957125984251969
 30
0.0
  0
SPLINE
  5
26
100
AcDbEntity
  8
Layer 1
370
    40
100
AcDbSpline
210
0.0
220
0.0
230
1.0
 70
     1
 71
     3
 72
    44
 73
    40
 74
     0
 42
0.0000000001
 43
0.0000000001
 40
0.0
 40
0.0
 40
0.0
 40
0.0
 40
0.1
 40
0.1
 40
0.1
 40
0.1
 40
0.2
 40
0.2
 40
0.2
 40
0.2
 40
0.3
 40
0.3
 40
0.3
 40
0.3
 40
0.4
 40
0.4
 40
0.4
 40
0.4
 40
0.5
 40
0.5
 40
0.5
 40
0.5
 40
0.6
 40
0.6
 40
0.6
 40
0.6
 40
0.7
 40
0.7
 40
0.7
 40
0.7
 40
0.7999999999999999
 40
0.7999999999999999
 40
0.7999999999999999
 40
0.7999999999999999
 40
0.8999999999999999
 40
0.8999999999999999
 40
0.8999999999999999
 40
0.8999999999999999
 40
1.0
 40
1.0
 40
1.0
 40
1.0
 10
0.7368385826771654
 20
13.31712598425197
 30
0.0
 10
0.7368385826771654
 20
13.31712598425197
 30
0.0
 10
0.7368385826771654
 20
13.042555118110236
 30
0.0
 10
0.7368385826771654
 20
13.042555118110236
 30
0.0
 10
0.7368385826771654
 20
13.042555118110236
 30
0.0
 10
0.7368385826771654
 20
13.042555118110236
 30
0.0
 10
0.3509448818897638
 20
13.042555118110236
 30
0.0
 10
0.3509448818897638
 20
13.042555118110236
 30
0.0
 10
0.3509448818897638
 20
13.042555118110236
 30
0.0
 10
0.5303858267716536
 20
12.748807086614173
 30
0.0
 10
0.6626417322834646
 20
12.40992125984252
 30
0.0
 10
0.7282204724409449
 20
12.033523622047245
 30
0.0
 10
0.7282204724409449
 20
12.033523622047245
 30
0.0
 10
0.7282204724409449
 20
12.033523622047245
 30
0.0
 10
1.7008582677165356
 20
11.975366141732284
 30
0.0
 10
1.7008582677165356
 20
11.975366141732284
 30
0.0
 10
1.7008582677165356
 20
11.975366141732284
 30
0.0
 10
1.7995157480314961
 20
11.971220472440946
 30
0.0
 10
1.8252992125984253
 20
12.020724409448819
 30
0.0
 10
1.8245905511811025
 20
12.088791338582677
 30
0.0
 10
1.8245905511811025
 20
12.088791338582677
 30
0.0
 10
1.8245905511811025
 20
12.088791338582677
 30
0.0
 10
1.8245905511811025
 20
12.565181102362205
 30
0.0
 10
1.8245905511811025
 20
12.565181102362205
 30
0.0
 10
1.8245905511811025
 20
12.565181102362205
 30
0.0
 10
1.8245905511811025
 20
12.565181102362205
 30
0.0
 10
1.8245905511811025
 20
13.042515748031496
 30
0.0
 10
1.8245905511811025
 20
13.042515748031496
 30
0.0
 10
1.8245905511811025
 20
13.042515748031496
 30
0.0
 10
1.8245905511811025
 20
13.042515748031496
 30
0.0
 10
0.9868385826771654
 20
13.042555118110236
 30
0.0
 10
0.9868385826771654
 20
13.042555118110236
 30
0.0
 10
0.9868385826771654
 20
13.042555118110236
 30
0.0
 10
0.9868385826771654
 20
13.042555118110236
 30
0.0
 10
0.9868385826771654
 20
13.31712598425197
 30
0.0
 10
0.9868385826771654
 20
13.31712598425197
 30
0.0
 10
0.9868385826771654
 20
13.31712598425197
 30
0.0
 10
0.9868385826771654
 20
13.31712598425197
 30
0.0
 10
0.7368385826771654
 20
13.31712598425197
 30
0.0
 10
0.7368385826771654
 20
13.31712598425197
 30
0.0
  0
SPLINE
  5
27
100
AcDbEntity
  8
Layer 1
370
    40
100
AcDbSpline
210
0.0
220
0.0
230
1.0
 70
     1
 71
     3
 72
    56
 73
    52
 74
     0
 42
0.0000000001
 43
0.0000000001
 40
0.0
 40
0.0
 40
0.0
 40
0.0
 40
0.0769230769230769
 40
0.0769230769230769
 40
0.0769230769230769
 40
0.0769230769230769
 40
0.1538461538461539
 40
0.1538461538461539
 40
0.1538461538461539
 40
0.1538461538461539
 40
0.2307692307692308
 40
0.2307692307692308
 40
0.2307692307692308
 40
0.2307692307692308
 40
0.3076923076923077
 40
0.3076923076923077
 40
0.3076923076923077
 40
0.3076923076923077
 40
0.3846153846153846
 40
0.3846153846153846
 40
0.3846153846153846
 40
0.3846153846153846
 40
0.4615384615384616
 40
0.4615384615384616
 40
0.4615384615384616
 40
0.4615384615384616
 40
0.5384615384615386
 40
0.5384615384615386
 40
0.5384615384615386
 40
0.5384615384615386
 40
0.6153846153846154
 40
0.6153846153846154
 40
0.6153846153846154
 40
0.6153846153846154
 40
0.6923076923076923
 40
0.6923076923076923
 40
0.6923076923076923
 40
0.6923076923076923
 40
0.7692307692307692
 40
0.7692307692307692
 40
0.7692307692307692
 40
0.7692307692307692
 40
0.846153846153846
 40
0.846153846153846
 40
0.846153846153846
 40
0.846153846153846
 40
0.9230769230769229
 40
0.9230769230769229
 40
0.9230769230769229
 40
0.9230769230769229
 40
1.0
 40
1.0
 40
1.0
 40
1.0
 10
-4.2292401574803149
 20
13.32790157480315
 30
0.0
 10
-4.2292401574803149
 20
13.32790157480315
 30
0.0
 10
-4.2292401574803149
 20
13.042555118110236
 30
0.0
 10
-4.2292401574803149
 20
13.042555118110236
 30
0.0
 10
-4.2292401574803149
 20
13.042555118110236
 30
0.0
 10
-4.2292401574803149
 20
13.042555118110236
 30
0.0
 10
-4.6140078740157486
 20
13.0425
 30
0.0
 10
-4.6140078740157486
 20
13.0425
 30
0.0
 10
-4.6140078740157486
 20
13.0425
 30
0.0
 10
-4.6140078740157486
 20
13.0425
 30
0.0
 10
-4.6140078740157486
 20
11.38567716535433
 30
0.0
 10
-4.6140078740157486
 20
11.38567716535433
 30
0.0
 10
-4.6140078740157486
 20
11.38567716535433
 30
0.0
 10
-4.6140078740157486
 20
11.38567716535433
 30
0.0
 10
-4.3252244094488193
 20
11.38567716535433
 30
0.0
 10
-4.3252244094488193
 20
11.38567716535433
 30
0.0
 10
-4.3252244094488193
 20
11.38567716535433
 30
0.0
 10
-4.3252244094488193
 20
11.38567716535433
 30
0.0
 10
-4.3252244094488193
 20
11.13567716535433
 30
0.0
 10
-4.3252244094488193
 20
11.13567716535433
 30
0.0
 10
-4.3252244094488193
 20
11.13567716535433
 30
0.0
 10
-4.3252244094488193
 20
11.13567716535433
 30
0.0
 10
-4.0752244094488193
 20
11.13567716535433
 30
0.0
 10
-4.0752244094488193
 20
11.13567716535433
 30
0.0
 10
-4.0752244094488193
 20
11.13567716535433
 30
0.0
 10
-4.0752244094488193
 20
11.13567716535433
 30
0.0
 10
-4.0752244094488193
 20
11.38567716535433
 30
0.0
 10
-4.0752244094488193
 20
11.38567716535433
 30
0.0
 10
-4.0752244094488193
 20
11.38567716535433
 30
0.0
 10
-4.0752244094488193
 20
11.38567716535433
 30
0.0
 10
-3.7865669291338584
 20
11.38567716535433
 30
0.0
 10
-3.7865669291338584
 20
11.38567716535433
 30
0.0
 10
-3.7865669291338584
 20
11.38567716535433
 30
0.0
 10
-3.7824724409448822
 20
11.725834645669291
 30
0.0
 10
-3.7517165354330708
 20
12.032909448818899
 30
0.0
 10
-3.6984488188976381
 20
12.308515748031496
 30
0.0
 10
-3.6984488188976381
 20
12.308515748031496
 30
0.0
 10
-3.6451811023622049
 20
12.584122047244096
 30
0.0
 10
-3.5694015748031496
 20
12.828267716535434
 30
0.0
 10
-3.4752637795275594
 20
13.042555118110236
 30
0.0
 10
-3.4752637795275594
 20
13.042555118110236
 30
0.0
 10
-3.4752637795275594
 20
13.042555118110236
 30
0.0
 10
-3.9792401574803149
 20
13.042555118110236
 30
0.0
 10
-3.9792401574803149
 20
13.042555118110236
 30
0.0
 10
-3.9792401574803149
 20
13.042555118110236
 30
0.0
 10
-3.9792401574803149
 20
13.042555118110236
 30
0.0
 10
-3.9792401574803149
 20
13.32790157480315
 30
0.0
 10
-3.9792401574803149
 20
13.32790157480315
 30
0.0
 10
-3.9792401574803149
 20
13.32790157480315
 30
0.0
 10
-3.9792401574803149
 20
13.32790157480315
 30
0.0
 10
-4.2292401574803149
 20
13.32790157480315
 30
0.0
 10
-4.2292401574803149
 20
13.32790157480315
 30
0.0
  0
SPLINE
  5
28
100
AcDbEntity
  8
Layer 1
370
    40
100
AcDbSpline
210
0.0
220
0.0
230
1.0
 70
     0
 71
     3
 72
    28
 73
    24
 74
     0
 42
0.0000000001
 43
0.0000000001
 40
0.0
 40
0.0
 40
0.0
 40
0.0
 40
0.1666666666666667
 40
0.1666666666666667
 40
0.1666666666666667
 40
0.1666666666666667
 40
0.3333333333333333
 40
0.3333333333333333
 40
0.3333333333333333
 40
0.3333333333333333
 40
0.5
 40
0.5
 40
0.5
 40
0.5
 40
0.6666666666666666
 40
0.6666666666666666
 40
0.6666666666666666
 40
0.6666666666666666
 40
0.8333333333333333
 40
0.8333333333333333
 40
0.8333333333333333
 40
0.8333333333333333
 40
1.0
 40
1.0
 40
1.0
 40
1.0
 10
-3.4752637795275594
 20
13.042692913385828
 30
0.0
 10
-2.6766535433070868
 20
14.860622047244094
 30
0.0
 10
-0.5565748031496063
 20
14.530708661417323
 30
0.0
 10
0.3524566929133858
 20
13.042594488188977
 30
0.0
 10
0.3524566929133858
 20
13.042594488188977
 30
0.0
 10
0.3524566929133858
 20
13.042594488188977
 30
0.0
 10
0.7275393700787401
 20
13.042555118110236
 30
0.0
 10
0.7275393700787401
 20
13.042555118110236
 30
0.0
 10
0.7275393700787401
 20
13.042555118110236
 30
0.0
 10
0.7275393700787401
 20
13.042555118110236
 30
0.0
 10
0.7275393700787401
 20
13.342555118110237
 30
0.0
 10
0.7275393700787401
 20
13.342555118110237
 30
0.0
 10
0.7275393700787401
 20
13.342555118110237
 30
0.0
 10
0.7275393700787401
 20
13.342555118110237
 30
0.0
 10
0.9975393700787402
 20
13.342555118110237
 30
0.0
 10
0.9975393700787402
 20
13.342555118110237
 30
0.0
 10
0.9975393700787402
 20
13.342555118110237
 30
0.0
 10
0.9975393700787402
 20
13.342555118110237
 30
0.0
 10
0.9975393700787402
 20
13.042555118110236
 30
0.0
 10
0.9975393700787402
 20
13.042555118110236
 30
0.0
 10
0.9975393700787402
 20
13.042555118110236
 30
0.0
 10
0.9975393700787402
 20
13.042555118110236
 30
0.0
 10
1.8261023622047245
 20
13.042555118110236
 30
0.0
 10
1.8261023622047245
 20
13.042555118110236
 30
0.0
  0
SPLINE
  5
29
100
AcDbEntity
  8
Layer 1
370
    40
100
AcDbSpline
210
0.0
220
0.0
230
1.0
 70
     0
 71
     3
 72
    48
 73
    44
 74
     0
 42
0.0000000001
 43
0.0000000001
 40
0.0
 40
0.0
 40
0.0
 40
0.0
 40
0.0909090909090909
 40
0.0909090909090909
 40
0.0909090909090909
 40
0.0909090909090909
 40
0.1818181818181818
 40
0.1818181818181818
 40
0.1818181818181818
 40
0.1818181818181818
 40
0.2727272727272727
 40
0.2727272727272727
 40
0.2727272727272727
 40
0.2727272727272727
 40
0.3636363636363637
 40
0.3636363636363637
 40
0.3636363636363637
 40
0.3636363636363637
 40
0.4545454545454546
 40
0.4545454545454546
 40
0.4545454545454546
 40
0.4545454545454546
 40
0.5454545454545455
 40
0.5454545454545455
 40
0.5454545454545455
 40
0.5454545454545455
 40
0.6363636363636365
 40
0.6363636363636365
 40
0.6363636363636365
 40
0.6363636363636365
 40
0.7272727272727274
 40
0.7272727272727274
 40
0.7272727272727274
 40
0.7272727272727274
 40
0.8181818181818183
 40
0.8181818181818183
 40
0.8181818181818183
 40
0.8181818181818183
 40
0.9090909090909093
 40
0.9090909090909093
 40
0.9090909090909093
 40
0.9090909090909093
 40
1.0
 40
1.0
 40
1.0
 40
1.0
 10
1.8261023622047245
 20
13.042555118110236
 30
0.0
 10
1.2157244094488189
 20
13.291688976377953
 30
0.0
 10
1.1036102362204725
 20
13.441173228346457
 30
0.0
 10
0.8544803149606299
 20
14.350507874015749
 30
0.0
 10
0.8544803149606299
 20
14.350507874015749
 30
0.0
 10
0.6053503937007875
 20
15.259842519685041
 30
0.0
 10
0.2067322834645669
 20
15.683374015748033
 30
0.0
 10
-0.8022598425196851
 20
15.80794094488189
 30
0.0
 10
-0.8022598425196851
 20
15.80794094488189
 30
0.0
 10
-0.8022598425196851
 20
15.80794094488189
 30
0.0
 10
-2.7579606299212598
 20
15.80794094488189
 30
0.0
 10
-2.7579606299212598
 20
15.80794094488189
 30
0.0
 10
-2.7579606299212598
 20
15.80794094488189
 30
0.0
 10
-2.7579606299212598
 20
15.80794094488189
 30
0.0
 10
-4.6140078740157486
 20
14.188570866141733
 30
0.0
 10
-4.6140078740157486
 20
14.188570866141733
 30
0.0
 10
-4.6140078740157486
 20
14.188570866141733
 30
0.0
 10
-4.6140078740157486
 20
14.188570866141733
 30
0.0
 10
-4.6140078740157486
 20
13.615602362204726
 30
0.0
 10
-4.6140078740157486
 20
13.615602362204726
 30
0.0
 10
-4.6140078740157486
 20
13.615602362204726
 30
0.0
 10
-4.6140078740157486
 20
13.615602362204726
 30
0.0
 10
-4.6140078740157486
 20
13.04263779527559
 30
0.0
 10
-4.6140078740157486
 20
13.04263779527559
 30
0.0
 10
-4.6140078740157486
 20
13.04263779527559
 30
0.0
 10
-4.6140078740157486
 20
13.04263779527559
 30
0.0
 10
-4.2389881889763785
 20
13.042555118110236
 30
0.0
 10
-4.2389881889763785
 20
13.042555118110236
 30
0.0
 10
-4.2389881889763785
 20
13.042555118110236
 30
0.0
 10
-4.2389881889763785
 20
13.042555118110236
 30
0.0
 10
-4.2389881889763785
 20
13.342555118110237
 30
0.0
 10
-4.2389881889763785
 20
13.342555118110237
 30
0.0
 10
-4.2389881889763785
 20
13.342555118110237
 30
0.0
 10
-4.2389881889763785
 20
13.342555118110237
 30
0.0
 10
-3.9689881889763781
 20
13.342555118110237
 30
0.0
 10
-3.9689881889763781
 20
13.342555118110237
 30
0.0
 10
-3.9689881889763781
 20
13.342555118110237
 30
0.0
 10
-3.9689881889763781
 20
13.342555118110237
 30
0.0
 10
-3.9689881889763781
 20
13.042555118110236
 30
0.0
 10
-3.9689881889763781
 20
13.042555118110236
 30
0.0
 10
-3.9689881889763781
 20
13.042555118110236
 30
0.0
 10
-3.9689881889763781
 20
13.042555118110236
 30
0.0
 10
-3.4752637795275594
 20
13.042692913385828
 30
0.0
 10
-3.4752637795275594
 20
13.042692913385828
 30
0.0
  0
TEXT
  5
2B
100
AcDbEntity
  8
Layer 1
100
AcDbText
 10
1.657598
 20
14.106437
 30
0.0
 40
0.119999
  1
BA  1537D
 51
-0.000002
  7
Bookman Old Style
100
AcDbText
  0
SPLINE
  5
2C
100
AcDbEntity
  8
Layer 1
370
    40
100
AcDbSpline
210
0.0
220
0.0
230
1.0
 70
     0
 71
     3
 72
    44
 73
    40
 74
     0
 42
0.0000000001
 43
0.0000000001
 40
0.0
 40
0.0
 40
0.0
 40
0.0
 40
0.1
 40
0.1
 40
0.1
 40
0.1
 40
0.2
 40
0.2
 40
0.2
 40
0.2
 40
0.3
 40
0.3
 40
0.3
 40
0.3
 40
0.4
 40
0.4
 40
0.4
 40
0.4
 40
0.5
 40
0.5
 40
0.5
 40
0.5
 40
0.6
 40
0.6
 40
0.6
 40
0.6
 40
0.7
 40
0.7
 40
0.7
 40
0.7
 40
0.7999999999999999
 40
0.7999999999999999
 40
0.7999999999999999
 40
0.7999999999999999
 40
0.8999999999999999
 40
0.8999999999999999
 40
0.8999999999999999
 40
0.8999999999999999
 40
1.0
 40
1.0
 40
1.0
 40
1.0
 10
2.02501968503937
 20
11.811625984251968
 30
0.0
 10
2.02501968503937
 20
11.811625984251968
 30
0.0
 10
2.0732440944881891
 20
11.811622047244095
 30
0.0
 10
2.0732440944881891
 20
11.811622047244095
 30
0.0
 10
2.0732440944881891
 20
11.811622047244095
 30
0.0
 10
2.0732440944881891
 20
11.811622047244095
 30
0.0
 10
3.739248031496063
 20
12.941547244094489
 30
0.0
 10
3.739248031496063
 20
12.941547244094489
 30
0.0
 10
3.739248031496063
 20
12.941547244094489
 30
0.0
 10
3.739248031496063
 20
12.941547244094489
 30
0.0
 10
0.5949251968503937
 20
17.577633858267717
 30
0.0
 10
0.5949251968503937
 20
17.577633858267717
 30
0.0
 10
0.5949251968503937
 20
17.577633858267717
 30
0.0
 10
0.5949251968503937
 20
17.577633858267717
 30
0.0
 10
-0.6033425196850394
 20
16.765279527559056
 30
0.0
 10
-0.6033425196850394
 20
16.765279527559056
 30
0.0
 10
-0.6033425196850394
 20
16.765279527559056
 30
0.0
 10
-0.6033425196850394
 20
16.765279527559056
 30
0.0
 10
-0.6033425196850394
 20
16.077779527559056
 30
0.0
 10
-0.6033425196850394
 20
16.077779527559056
 30
0.0
 10
-0.6033425196850394
 20
16.077779527559056
 30
0.0
 10
0.4056496062992126
 20
15.953212598425198
 30
0.0
 10
0.8042677165354331
 20
15.529681102362206
 30
0.0
 10
1.0533976377952756
 20
14.620346456692914
 30
0.0
 10
1.0533976377952756
 20
14.620346456692914
 30
0.0
 10
1.3025275590551182
 20
13.711011811023623
 30
0.0
 10
1.4146417322834646
 20
13.561527559055119
 30
0.0
 10
2.02501968503937
 20
13.312393700787402
 30
0.0
 10
2.02501968503937
 20
13.312393700787402
 30
0.0
 10
2.02501968503937
 20
13.312393700787402
 30
0.0
 10
2.02501968503937
 20
12.83505905511811
 30
0.0
 10
2.02501968503937
 20
12.83505905511811
 30
0.0
 10
2.02501968503937
 20
12.83505905511811
 30
0.0
 10
2.02501968503937
 20
12.83505905511811
 30
0.0
 10
2.02501968503937
 20
12.358669291338582
 30
0.0
 10
2.02501968503937
 20
12.358669291338582
 30
0.0
 10
2.02501968503937
 20
12.358669291338582
 30
0.0
 10
2.02501968503937
 20
12.358669291338582
 30
0.0
 10
2.02501968503937
 20
11.811625984251968
 30
0.0
 10
2.02501968503937
 20
11.811625984251968
 30
0.0
  0
TEXT
  5
2D
100
AcDbEntity
  8
Layer 1
100
AcDbText
 10
2.930736
 20
12.164075
 30
0.0
 40
0.119999
  1
Tilting Shaper Head
 51
-0.000002
  7
Bookman Old Style
100
AcDbText
  0
TEXT
  5
2E
100
AcDbEntity
  8
Layer 1
100
AcDbText
 10
3.504031
 20
11.976575
 30
0.0
 40
0.119999
  1
Fence
 51
-0.000002
  7
Bookman Old Style
100
AcDbText
  0
SPLINE
  5
2F
100
AcDbEntity
  8
Layer 1
370
     5
100
AcDbSpline
210
0.0
220
0.0
230
1.0
 70
     1
 71
     3
 72
    44
 73
    40
 74
     0
 42
0.0000000001
 43
0.0000000001
 40
0.0
 40
0.0
 40
0.0
 40
0.0
 40
0.1
 40
0.1
 40
0.1
 40
0.1
 40
0.2
 40
0.2
 40
0.2
 40
0.2
 40
0.3
 40
0.3
 40
0.3
 40
0.3
 40
0.4
 40
0.4
 40
0.4
 40
0.4
 40
0.5
 40
0.5
 40
0.5
 40
0.5
 40
0.6
 40
0.6
 40
0.6
 40
0.6
 40
0.7
 40
0.7
 40
0.7
 40
0.7
 40
0.7999999999999999
 40
0.7999999999999999
 40
0.7999999999999999
 40
0.7999999999999999
 40
0.8999999999999999
 40
0.8999999999999999
 40
0.8999999999999999
 40
0.8999999999999999
 40
1.0
 40
1.0
 40
1.0
 40
1.0
 10
11.73044094488189
 20
1.8156732283464567
 30
0.0
 10
11.73044094488189
 20
1.8156732283464567
 30
0.0
 10
12.005011811023623
 20
1.8156732283464567
 30
0.0
 10
12.005011811023623
 20
1.8156732283464567
 30
0.0
 10
12.005011811023623
 20
1.8156732283464567
 30
0.0
 10
12.005011811023623
 20
1.8156732283464567
 30
0.0
 10
12.005011811023623
 20
2.2015669291338584
 30
0.0
 10
12.005011811023623
 20
2.2015669291338584
 30
0.0
 10
12.005011811023623
 20
2.2015669291338584
 30
0.0
 10
12.298759842519685
 20
2.0221259842519688
 30
0.0
 10
12.63764566929134
 20
1.8898700787401574
 30
0.0
 10
13.014043307086615
 20
1.8242913385826773
 30
0.0
 10
13.014043307086615
 20
1.8242913385826773
 30
0.0
 10
13.014043307086615
 20
1.8242913385826773
 30
0.0
 10
13.072200787401576
 20
0.8516535433070867
 30
0.0
 10
13.072200787401576
 20
0.8516535433070867
 30
0.0
 10
13.072200787401576
 20
0.8516535433070867
 30
0.0
 10
13.076346456692914
 20
0.752996062992126
 30
0.0
 10
13.02684251968504
 20
0.7272125984251969
 30
0.0
 10
12.958775590551182
 20
0.7279212598425198
 30
0.0
 10
12.958775590551182
 20
0.7279212598425198
 30
0.0
 10
12.958775590551182
 20
0.7279212598425198
 30
0.0
 10
12.482385826771655
 20
0.7279212598425198
 30
0.0
 10
12.482385826771655
 20
0.7279212598425198
 30
0.0
 10
12.482385826771655
 20
0.7279212598425198
 30
0.0
 10
12.482385826771655
 20
0.7279212598425198
 30
0.0
 10
12.005051181102363
 20
0.7279212598425198
 30
0.0
 10
12.005051181102363
 20
0.7279212598425198
 30
0.0
 10
12.005051181102363
 20
0.7279212598425198
 30
0.0
 10
12.005051181102363
 20
0.7279212598425198
 30
0.0
 10
12.005011811023623
 20
1.5656732283464567
 30
0.0
 10
12.005011811023623
 20
1.5656732283464567
 30
0.0
 10
12.005011811023623
 20
1.5656732283464567
 30
0.0
 10
12.005011811023623
 20
1.5656732283464567
 30
0.0
 10
11.73044094488189
 20
1.5656732283464567
 30
0.0
 10
11.73044094488189
 20
1.5656732283464567
 30
0.0
 10
11.73044094488189
 20
1.5656732283464567
 30
0.0
 10
11.73044094488189
 20
1.5656732283464567
 30
0.0
 10
11.73044094488189
 20
1.8156732283464567
 30
0.0
 10
11.73044094488189
 20
1.8156732283464567
 30
0.0
  0
SPLINE
  5
30
100
AcDbEntity
  8
Layer 1
370
     5
100
AcDbSpline
210
0.0
220
0.0
230
1.0
 70
     1
 71
     3
 72
    28
 73
    24
 74
     0
 42
0.0000000001
 43
0.0000000001
 40
0.0
 40
0.0
 40
0.0
 40
0.0
 40
0.1666666666666667
 40
0.1666666666666667
 40
0.1666666666666667
 40
0.1666666666666667
 40
0.3333333333333333
 40
0.3333333333333333
 40
0.3333333333333333
 40
0.3333333333333333
 40
0.5
 40
0.5
 40
0.5
 40
0.5
 40
0.6666666666666666
 40
0.6666666666666666
 40
0.6666666666666666
 40
0.6666666666666666
 40
0.8333333333333333
 40
0.8333333333333333
 40
0.8333333333333333
 40
0.8333333333333333
 40
1.0
 40
1.0
 40
1.0
 40
1.0
 10
13.413118110236221
 20
0.5073543307086614
 30
0.0
 10
13.413118110236221
 20
0.5073543307086614
 30
0.0
 10
13.330145669291339
 20
1.8949842519685041
 30
0.0
 10
13.330145669291339
 20
1.8949842519685041
 30
0.0
 10
13.330145669291339
 20
1.8949842519685041
 30
0.0
 10
12.953748031496064
 20
1.9605629921259844
 30
0.0
 10
12.61486220472441
 20
2.0928188976377955
 30
0.0
 10
12.321114173228347
 20
2.2722598425196852
 30
0.0
 10
12.321114173228347
 20
2.2722598425196852
 30
0.0
 10
12.321114173228347
 20
2.2722598425196852
 30
0.0
 10
12.321114173228347
 20
2.7097598425196852
 30
0.0
 10
12.321114173228347
 20
2.7097598425196852
 30
0.0
 10
12.321114173228347
 20
2.7097598425196852
 30
0.0
 10
12.321114173228347
 20
2.7097598425196852
 30
0.0
 10
13.946114173228347
 20
2.7097598425196852
 30
0.0
 10
13.946114173228347
 20
2.7097598425196852
 30
0.0
 10
13.946114173228347
 20
2.7097598425196852
 30
0.0
 10
13.946114173228347
 20
2.7097598425196852
 30
0.0
 10
13.946114173228347
 20
0.5073543307086614
 30
0.0
 10
13.946114173228347
 20
0.5073543307086614
 30
0.0
 10
13.946114173228347
 20
0.5073543307086614
 30
0.0
 10
13.946114173228347
 20
0.5073543307086614
 30
0.0
 10
13.413118110236221
 20
0.5073543307086614
 30
0.0
 10
13.413118110236221
 20
0.5073543307086614
 30
0.0
  0
SPLINE
  5
31
100
AcDbEntity
  8
Layer 1
370
     5
100
AcDbSpline
210
0.0
220
0.0
230
1.0
 70
     1
 71
     3
 72
    56
 73
    52
 74
     0
 42
0.0000000001
 43
0.0000000001
 40
0.0
 40
0.0
 40
0.0
 40
0.0
 40
0.0769230769230769
 40
0.0769230769230769
 40
0.0769230769230769
 40
0.0769230769230769
 40
0.1538461538461539
 40
0.1538461538461539
 40
0.1538461538461539
 40
0.1538461538461539
 40
0.2307692307692308
 40
0.2307692307692308
 40
0.2307692307692308
 40
0.2307692307692308
 40
0.3076923076923077
 40
0.3076923076923077
 40
0.3076923076923077
 40
0.3076923076923077
 40
0.3846153846153846
 40
0.3846153846153846
 40
0.3846153846153846
 40
0.3846153846153846
 40
0.4615384615384616
 40
0.4615384615384616
 40
0.4615384615384616
 40
0.4615384615384616
 40
0.5384615384615386
 40
0.5384615384615386
 40
0.5384615384615386
 40
0.5384615384615386
 40
0.6153846153846154
 40
0.6153846153846154
 40
0.6153846153846154
 40
0.6153846153846154
 40
0.6923076923076923
 40
0.6923076923076923
 40
0.6923076923076923
 40
0.6923076923076923
 40
0.7692307692307692
 40
0.7692307692307692
 40
0.7692307692307692
 40
0.7692307692307692
 40
0.846153846153846
 40
0.846153846153846
 40
0.846153846153846
 40
0.846153846153846
 40
0.9230769230769229
 40
0.9230769230769229
 40
0.9230769230769229
 40
0.9230769230769229
 40
1.0
 40
1.0
 40
1.0
 40
1.0
 10
9.8608425196850398
 20
1.1121456692913387
 30
0.0
 10
9.8608425196850398
 20
1.1121456692913387
 30
0.0
 10
9.5754960629921264
 20
1.1121456692913387
 30
0.0
 10
9.5754960629921264
 20
1.1121456692913387
 30
0.0
 10
9.5754960629921264
 20
1.1121456692913387
 30
0.0
 10
9.5754960629921264
 20
1.1121456692913387
 30
0.0
 10
9.5754409448818905
 20
0.7273779527559056
 30
0.0
 10
9.5754409448818905
 20
0.7273779527559056
 30
0.0
 10
9.5754409448818905
 20
0.7273779527559056
 30
0.0
 10
9.5754409448818905
 20
0.7273779527559056
 30
0.0
 10
7.9186181102362205
 20
0.7273779527559056
 30
0.0
 10
7.9186181102362205
 20
0.7273779527559056
 30
0.0
 10
7.9186181102362205
 20
0.7273779527559056
 30
0.0
 10
7.9186181102362205
 20
0.7273779527559056
 30
0.0
 10
7.9186181102362205
 20
1.0161614173228346
 30
0.0
 10
7.9186181102362205
 20
1.0161614173228346
 30
0.0
 10
7.9186181102362205
 20
1.0161614173228346
 30
0.0
 10
7.9186181102362205
 20
1.0161614173228346
 30
0.0
 10
7.6686181102362205
 20
1.0161614173228346
 30
0.0
 10
7.6686181102362205
 20
1.0161614173228346
 30
0.0
 10
7.6686181102362205
 20
1.0161614173228346
 30
0.0
 10
7.6686181102362205
 20
1.0161614173228346
 30
0.0
 10
7.6686181102362205
 20
1.2661614173228346
 30
0.0
 10
7.6686181102362205
 20
1.2661614173228346
 30
0.0
 10
7.6686181102362205
 20
1.2661614173228346
 30
0.0
 10
7.6686181102362205
 20
1.2661614173228346
 30
0.0
 10
7.9186181102362205
 20
1.2661614173228346
 30
0.0
 10
7.9186181102362205
 20
1.2661614173228346
 30
0.0
 10
7.9186181102362205
 20
1.2661614173228346
 30
0.0
 10
7.9186181102362205
 20
1.2661614173228346
 30
0.0
 10
7.9186181102362205
 20
1.5548188976377952
 30
0.0
 10
7.9186181102362205
 20
1.5548188976377952
 30
0.0
 10
7.9186181102362205
 20
1.5548188976377952
 30
0.0
 10
8.2587755905511813
 20
1.5589133858267716
 30
0.0
 10
8.5658503937007886
 20
1.5896692913385828
 30
0.0
 10
8.8414566929133862
 20
1.6429370078740158
 30
0.0
 10
8.8414566929133862
 20
1.6429370078740158
 30
0.0
 10
9.1170629921259838
 20
1.6962047244094489
 30
0.0
 10
9.361208661417324
 20
1.7719842519685041
 30
0.0
 10
9.5754960629921264
 20
1.8661220472440945
 30
0.0
 10
9.5754960629921264
 20
1.8661220472440945
 30
0.0
 10
9.5754960629921264
 20
1.8661220472440945
 30
0.0
 10
9.5754960629921264
 20
1.3621456692913387
 30
0.0
 10
9.5754960629921264
 20
1.3621456692913387
 30
0.0
 10
9.5754960629921264
 20
1.3621456692913387
 30
0.0
 10
9.5754960629921264
 20
1.3621456692913387
 30
0.0
 10
9.8608425196850398
 20
1.3621456692913387
 30
0.0
 10
9.8608425196850398
 20
1.3621456692913387
 30
0.0
 10
9.8608425196850398
 20
1.3621456692913387
 30
0.0
 10
9.8608425196850398
 20
1.3621456692913387
 30
0.0
 10
9.8608425196850398
 20
1.1121456692913387
 30
0.0
 10
9.8608425196850398
 20
1.1121456692913387
 30
0.0
  0
SPLINE
  5
32
100
AcDbEntity
  8
Layer 1
370
     5
100
AcDbSpline
210
0.0
220
0.0
230
1.0
 70
     1
 71
     3
 72
    32
 73
    28
 74
     0
 42
0.0000000001
 43
0.0000000001
 40
0.0
 40
0.0
 40
0.0
 40
0.0
 40
0.1428571428571429
 40
0.1428571428571429
 40
0.1428571428571429
 40
0.1428571428571429
 40
0.2857142857142857
 40
0.2857142857142857
 40
0.2857142857142857
 40
0.2857142857142857
 40
0.4285714285714286
 40
0.4285714285714286
 40
0.4285714285714286
 40
0.4285714285714286
 40
0.5714285714285714
 40
0.5714285714285714
 40
0.5714285714285714
 40
0.5714285714285714
 40
0.7142857142857142
 40
0.7142857142857142
 40
0.7142857142857142
 40
0.7142857142857142
 40
0.857142857142857
 40
0.857142857142857
 40
0.857142857142857
 40
0.857142857142857
 40
1.0
 40
1.0
 40
1.0
 40
1.0
 10
7.4675433070866148
 20
2.5596299212598428
 30
0.0
 10
7.4675433070866148
 20
2.5596299212598428
 30
0.0
 10
7.4675433070866148
 20
1.6588700787401576
 30
0.0
 10
7.4675433070866148
 20
1.6588700787401576
 30
0.0
 10
7.4675433070866148
 20
1.6588700787401576
 30
0.0
 10
7.4675433070866148
 20
1.6588700787401576
 30
0.0
 10
7.8425433070866148
 20
1.6588700787401576
 30
0.0
 10
7.8425433070866148
 20
1.6588700787401576
 30
0.0
 10
7.8425433070866148
 20
1.6588700787401576
 30
0.0
 10
8.1827007874015756
 20
1.662964566929134
 30
0.0
 10
8.4897755905511811
 20
1.6937204724409449
 30
0.0
 10
8.7653818897637805
 20
1.7469881889763781
 30
0.0
 10
8.7653818897637805
 20
1.7469881889763781
 30
0.0
 10
9.0409881889763781
 20
1.800255905511811
 30
0.0
 10
9.2851338582677165
 20
1.8760354330708662
 30
0.0
 10
9.4994212598425207
 20
1.9701732283464568
 30
0.0
 10
9.4994212598425207
 20
1.9701732283464568
 30
0.0
 10
9.4994212598425207
 20
1.9701732283464568
 30
0.0
 10
10.061921259842521
 20
1.9701732283464568
 30
0.0
 10
10.061921259842521
 20
1.9701732283464568
 30
0.0
 10
10.061921259842521
 20
1.9701732283464568
 30
0.0
 10
10.061921259842521
 20
1.9701732283464568
 30
0.0
 10
10.061921259842521
 20
2.5596299212598428
 30
0.0
 10
10.061921259842521
 20
2.5596299212598428
 30
0.0
 10
10.061921259842521
 20
2.5596299212598428
 30
0.0
 10
10.061921259842521
 20
2.5596299212598428
 30
0.0
 10
7.4675433070866148
 20
2.5596299212598428
 30
0.0
 10
7.4675433070866148
 20
2.5596299212598428
 30
0.0
  0
SPLINE
  5
33
100
AcDbEntity
  8
Layer 1
370
     5
100
AcDbSpline
210
0.0
220
0.0
230
1.0
 70
     0
 71
     3
 72
    36
 73
    32
 74
     0
 42
0.0000000001
 43
0.0000000001
 40
0.0
 40
0.0
 40
0.0
 40
0.0
 40
0.125
 40
0.125
 40
0.125
 40
0.125
 40
0.25
 40
0.25
 40
0.25
 40
0.25
 40
0.375
 40
0.375
 40
0.375
 40
0.375
 40
0.5
 40
0.5
 40
0.5
 40
0.5
 40
0.625
 40
0.625
 40
0.625
 40
0.625
 40
0.75
 40
0.75
 40
0.75
 40
0.75
 40
0.875
 40
0.875
 40
0.875
 40
0.875
 40
1.0
 40
1.0
 40
1.0
 40
1.0
 10
8.8782519685039372
 20
-2.1172322834645669
 30
0.0
 10
9.6768622047244097
 20
-3.9351614173228349
 30
0.0
 10
11.796940944881889
 20
-3.6052480314960631
 30
0.0
 10
12.705972440944882
 20
-2.1171338582677168
 30
0.0
 10
12.705972440944882
 20
-2.1171338582677168
 30
0.0
 10
12.705972440944882
 20
-2.1171338582677168
 30
0.0
 10
13.081055118110237
 20
-2.1170944881889766
 30
0.0
 10
13.081055118110237
 20
-2.1170944881889766
 30
0.0
 10
13.081055118110237
 20
-2.1170944881889766
 30
0.0
 10
13.081055118110237
 20
-2.1170944881889766
 30
0.0
 10
13.081055118110237
 20
-2.4170944881889764
 30
0.0
 10
13.081055118110237
 20
-2.4170944881889764
 30
0.0
 10
13.081055118110237
 20
-2.4170944881889764
 30
0.0
 10
13.081055118110237
 20
-2.4170944881889764
 30
0.0
 10
13.351055118110237
 20
-2.4170944881889764
 30
0.0
 10
13.351055118110237
 20
-2.4170944881889764
 30
0.0
 10
13.351055118110237
 20
-2.4170944881889764
 30
0.0
 10
13.351055118110237
 20
-2.4170944881889764
 30
0.0
 10
13.351055118110237
 20
-2.1170944881889766
 30
0.0
 10
13.351055118110237
 20
-2.1170944881889766
 30
0.0
 10
13.351055118110237
 20
-2.1170944881889766
 30
0.0
 10
13.351055118110237
 20
-2.1170944881889766
 30
0.0
 10
14.179618110236222
 20
-2.1170944881889766
 30
0.0
 10
14.179618110236222
 20
-2.1170944881889766
 30
0.0
 10
14.179618110236222
 20
-2.1170944881889766
 30
0.0
 10
14.179618110236222
 20
-2.1170944881889766
 30
0.0
 10
14.179618110236222
 20
-4.8824803149606302
 30
0.0
 10
14.179618110236222
 20
-4.8824803149606302
 30
0.0
 10
14.179618110236222
 20
-4.8824803149606302
 30
0.0
 10
14.179618110236222
 20
-4.8824803149606302
 30
0.0
 10
7.7395118110236227
 20
-4.8824803149606302
 30
0.0
 10
7.7395118110236227
 20
-4.8824803149606302
 30
0.0
  0
SPLINE
  5
34
100
AcDbEntity
  8
Layer 1
370
     5
100
AcDbSpline
210
0.0
220
0.0
230
1.0
 70
     0
 71
     3
 72
    36
 73
    32
 74
     0
 42
0.0000000001
 43
0.0000000001
 40
0.0
 40
0.0
 40
0.0
 40
0.0
 40
0.125
 40
0.125
 40
0.125
 40
0.125
 40
0.25
 40
0.25
 40
0.25
 40
0.25
 40
0.375
 40
0.375
 40
0.375
 40
0.375
 40
0.5
 40
0.5
 40
0.5
 40
0.5
 40
0.625
 40
0.625
 40
0.625
 40
0.625
 40
0.75
 40
0.75
 40
0.75
 40
0.75
 40
0.875
 40
0.875
 40
0.875
 40
0.875
 40
1.0
 40
1.0
 40
1.0
 40
1.0
 10
8.8782519685039372
 20
-2.1172322834645669
 30
0.0
 10
8.8782519685039372
 20
-2.1172322834645669
 30
0.0
 10
8.3845275590551189
 20
-2.1170944881889766
 30
0.0
 10
8.3845275590551189
 20
-2.1170944881889766
 30
0.0
 10
8.3845275590551189
 20
-2.1170944881889766
 30
0.0
 10
8.3845275590551189
 20
-2.1170944881889766
 30
0.0
 10
8.3845275590551189
 20
-2.4170944881889764
 30
0.0
 10
8.3845275590551189
 20
-2.4170944881889764
 30
0.0
 10
8.3845275590551189
 20
-2.4170944881889764
 30
0.0
 10
8.3845275590551189
 20
-2.4170944881889764
 30
0.0
 10
8.1145275590551176
 20
-2.4170944881889764
 30
0.0
 10
8.1145275590551176
 20
-2.4170944881889764
 30
0.0
 10
8.1145275590551176
 20
-2.4170944881889764
 30
0.0
 10
8.1145275590551176
 20
-2.4170944881889764
 30
0.0
 10
8.1145275590551176
 20
-2.1170944881889766
 30
0.0
 10
8.1145275590551176
 20
-2.1170944881889766
 30
0.0
 10
8.1145275590551176
 20
-2.1170944881889766
 30
0.0
 10
8.1145275590551176
 20
-2.1170944881889766
 30
0.0
 10
7.7395078740157484
 20
-2.117177165354331
 30
0.0
 10
7.7395078740157484
 20
-2.117177165354331
 30
0.0
 10
7.7395078740157484
 20
-2.117177165354331
 30
0.0
 10
7.7395078740157484
 20
-2.117177165354331
 30
0.0
 10
7.7395078740157484
 20
-2.6901417322834646
 30
0.0
 10
7.7395078740157484
 20
-2.6901417322834646
 30
0.0
 10
7.7395078740157484
 20
-2.6901417322834646
 30
0.0
 10
7.7395078740157484
 20
-2.6901417322834646
 30
0.0
 10
7.7395078740157484
 20
-3.2631102362204727
 30
0.0
 10
7.7395078740157484
 20
-3.2631102362204727
 30
0.0
 10
7.7395078740157484
 20
-3.2631102362204727
 30
0.0
 10
7.7395078740157484
 20
-3.2631102362204727
 30
0.0
 10
7.7395078740157484
 20
-4.8824842519685046
 30
0.0
 10
7.7395078740157484
 20
-4.8824842519685046
 30
0.0
  0
SPLINE
  5
35
100
AcDbEntity
  8
Layer 1
370
     5
100
AcDbSpline
210
0.0
220
0.0
230
1.0
 70
     1
 71
     3
 72
    68
 73
    64
 74
     0
 42
0.0000000001
 43
0.0000000001
 40
0.0
 40
0.0
 40
0.0
 40
0.0
 40
0.0625
 40
0.0625
 40
0.0625
 40
0.0625
 40
0.125
 40
0.125
 40
0.125
 40
0.125
 40
0.1875
 40
0.1875
 40
0.1875
 40
0.1875
 40
0.25
 40
0.25
 40
0.25
 40
0.25
 40
0.3125
 40
0.3125
 40
0.3125
 40
0.3125
 40
0.375
 40
0.375
 40
0.375
 40
0.375
 40
0.4375
 40
0.4375
 40
0.4375
 40
0.4375
 40
0.5
 40
0.5
 40
0.5
 40
0.5
 40
0.5625
 40
0.5625
 40
0.5625
 40
0.5625
 40
0.625
 40
0.625
 40
0.625
 40
0.625
 40
0.6875
 40
0.6875
 40
0.6875
 40
0.6875
 40
0.75
 40
0.75
 40
0.75
 40
0.75
 40
0.8125
 40
0.8125
 40
0.8125
 40
0.8125
 40
0.875
 40
0.875
 40
0.875
 40
0.875
 40
0.9375
 40
0.9375
 40
0.9375
 40
0.9375
 40
1.0
 40
1.0
 40
1.0
 40
1.0
 10
7.0390748031496067
 20
-0.7649566929133859
 30
0.0
 10
7.0390748031496067
 20
-0.7649566929133859
 30
0.0
 10
7.0390748031496067
 20
-1.577456692913386
 30
0.0
 10
7.0390748031496067
 20
-1.577456692913386
 30
0.0
 10
7.0390748031496067
 20
-1.577456692913386
 30
0.0
 10
7.0390748031496067
 20
-1.577456692913386
 30
0.0
 10
7.7265748031496067
 20
-1.577456692913386
 30
0.0
 10
7.7265748031496067
 20
-1.577456692913386
 30
0.0
 10
7.7265748031496067
 20
-1.577456692913386
 30
0.0
 10
7.7265748031496067
 20
-1.577456692913386
 30
0.0
 10
8.1015944881889759
 20
-1.5773740157480316
 30
0.0
 10
8.1015944881889759
 20
-1.5773740157480316
 30
0.0
 10
8.1015944881889759
 20
-1.5773740157480316
 30
0.0
 10
8.1015944881889759
 20
-1.5773740157480316
 30
0.0
 10
8.1015944881889759
 20
-1.8773740157480316
 30
0.0
 10
8.1015944881889759
 20
-1.8773740157480316
 30
0.0
 10
8.1015944881889759
 20
-1.8773740157480316
 30
0.0
 10
8.1015944881889759
 20
-1.8773740157480316
 30
0.0
 10
8.3715944881889772
 20
-1.8773740157480316
 30
0.0
 10
8.3715944881889772
 20
-1.8773740157480316
 30
0.0
 10
8.3715944881889772
 20
-1.8773740157480316
 30
0.0
 10
8.3715944881889772
 20
-1.8773740157480316
 30
0.0
 10
8.3715944881889772
 20
-1.5773740157480316
 30
0.0
 10
8.3715944881889772
 20
-1.5773740157480316
 30
0.0
 10
8.3715944881889772
 20
-1.5773740157480316
 30
0.0
 10
8.3715944881889772
 20
-1.5773740157480316
 30
0.0
 10
8.8653188976377955
 20
-1.5775118110236221
 30
0.0
 10
8.8653188976377955
 20
-1.5775118110236221
 30
0.0
 10
8.8653188976377955
 20
-1.5775118110236221
 30
0.0
 10
9.663929133858268
 20
-3.3954409448818899
 30
0.0
 10
11.784007874015748
 20
-3.0655275590551181
 30
0.0
 10
12.69303937007874
 20
-1.5774133858267718
 30
0.0
 10
12.69303937007874
 20
-1.5774133858267718
 30
0.0
 10
12.69303937007874
 20
-1.5774133858267718
 30
0.0
 10
13.068122047244096
 20
-1.5773740157480316
 30
0.0
 10
13.068122047244096
 20
-1.5773740157480316
 30
0.0
 10
13.068122047244096
 20
-1.5773740157480316
 30
0.0
 10
13.068122047244096
 20
-1.5773740157480316
 30
0.0
 10
13.068122047244096
 20
-1.8773740157480316
 30
0.0
 10
13.068122047244096
 20
-1.8773740157480316
 30
0.0
 10
13.068122047244096
 20
-1.8773740157480316
 30
0.0
 10
13.068122047244096
 20
-1.8773740157480316
 30
0.0
 10
13.338122047244095
 20
-1.8773740157480316
 30
0.0
 10
13.338122047244095
 20
-1.8773740157480316
 30
0.0
 10
13.338122047244095
 20
-1.8773740157480316
 30
0.0
 10
13.338122047244095
 20
-1.8773740157480316
 30
0.0
 10
13.338122047244095
 20
-1.5773740157480316
 30
0.0
 10
13.338122047244095
 20
-1.5773740157480316
 30
0.0
 10
13.338122047244095
 20
-1.5773740157480316
 30
0.0
 10
13.338122047244095
 20
-1.5773740157480316
 30
0.0
 10
14.16668503937008
 20
-1.5773740157480316
 30
0.0
 10
14.16668503937008
 20
-1.5773740157480316
 30
0.0
 10
14.16668503937008
 20
-1.5773740157480316
 30
0.0
 10
14.16668503937008
 20
-1.5773740157480316
 30
0.0
 10
14.512322834645669
 20
-1.5773740157480316
 30
0.0
 10
14.512322834645669
 20
-1.5773740157480316
 30
0.0
 10
14.512322834645669
 20
-1.5773740157480316
 30
0.0
 10
14.512322834645669
 20
-1.5773740157480316
 30
0.0
 10
14.512326771653544
 20
-0.7649566929133859
 30
0.0
 10
14.512326771653544
 20
-0.7649566929133859
 30
0.0
 10
14.512326771653544
 20
-0.7649566929133859
 30
0.0
 10
14.512326771653544
 20
-0.7649566929133859
 30
0.0
 10
7.0390748031496067
 20
-0.7649566929133859
 30
0.0
 10
7.0390748031496067
 20
-0.7649566929133859
 30
0.0
  0
TEXT
  5
36
100
AcDbEntity
  8
Layer 1
100
AcDbText
 10
7.818043
 20
2.224094
 30
0.0
 40
0.119999
  1
BA  1537A
 51
-0.000002
  7
Bookman Old Style
100
AcDbText
  0
TEXT
  5
37
100
AcDbEntity
  8
Layer 1
100
AcDbText
 10
12.610232
 20
2.359102
 30
0.0
 40
0.119999
  1
BA  1537B
 51
-0.000002
  7
Bookman Old Style
100
AcDbText
  0
TEXT
  5
38
100
AcDbEntity
  8
Layer 1
100
AcDbText
 10
10.31124
 20
-2.12474
 30
0.0
 40
0.119999
  1
BA  1537C
 51
-0.000002
  7
Bookman Old Style
100
AcDbText
  0
TEXT
  5
39
100
AcDbEntity
  8
Layer 1
100
AcDbText
 10
9.912583
 20
1.163276
 30
0.0
 40
0.119999
  1
BA  221B
 51
-0.000002
  7
Bookman Old Style
100
AcDbText
  0
TEXT
  5
3A
100
AcDbEntity
  8
Layer 1
100
AcDbText
 10
10.927969
 20
1.624764
 30
0.0
 40
0.119999
  1
BA  221B
 51
-0.000002
  7
Bookman Old Style
100
AcDbText
  0
TEXT
  5
3B
100
AcDbEntity
  8
Layer 1
100
AcDbText
 10
6.829886
 20
1.072638
 30
0.0
 40
0.119999
  1
BA  221C
 51
-0.000002
  7
Bookman Old Style
100
AcDbText
  0
TEXT
  5
3C
100
AcDbEntity
  8
Layer 1
100
AcDbText
 10
8.376102
 20
4.482362
 30
0.0
 40
0.18
  1
Note:
 51
-0.000002
  7
Bookman Old Style
100
AcDbText
  0
TEXT
  5
3D
100
AcDbEntity
  8
Layer 1
100
AcDbText
 10
8.376102
 20
3.919858
 30
0.0
 40
0.18
  1
BA 221B & C Do Not Need to be Made
 51
-0.000002
  7
Bookman Old Style
100
AcDbText
  0
TEXT
  5
3E
100
AcDbEntity
  8
Layer 1
100
AcDbText
 10
8.376102
 20
3.357354
 30
0.0
 40
0.18
  1
Knife drawings do not show axial constant
 51
-0.000002
  7
Bookman Old Style
100
AcDbText
  0
TEXT
  5
3F
100
AcDbEntity
  8
Layer 1
100
AcDbText
 10
9.740697
 20
0.791783
 30
0.0
 40
0.119999
  1
Fence
 51
-0.000002
  7
Bookman Old Style
100
AcDbText
  0
TEXT
  5
40
100
AcDbEntity
  8
Layer 1
100
AcDbText
 10
14.249413
 20
-2.682366
 30
0.0
 40
0.119999
  1
Fence
 51
-0.000002
  7
Bookman Old Style
100
AcDbText
  0
TEXT
  5
41
100
AcDbEntity
  8
Layer 1
100
AcDbText
 10
14.018303
 20
0.721579
 30
0.0
 40
0.119999
  1
Fence
 51
-0.000002
  7
Bookman Old Style
100
AcDbText
  0
SPLINE
  5
42
100
AcDbEntity
  8
Layer 1
370
     5
100
AcDbSpline
210
0.0
220
0.0
230
1.0
 70
     1
 71
     3
 72
    44
 73
    40
 74
     0
 42
0.0000000001
 43
0.0000000001
 40
0.0
 40
0.0
 40
0.0
 40
0.0
 40
0.1
 40
0.1
 40
0.1
 40
0.1
 40
0.2
 40
0.2
 40
0.2
 40
0.2
 40
0.3
 40
0.3
 40
0.3
 40
0.3
 40
0.4
 40
0.4
 40
0.4
 40
0.4
 40
0.5
 40
0.5
 40
0.5
 40
0.5
 40
0.6
 40
0.6
 40
0.6
 40
0.6
 40
0.7
 40
0.7
 40
0.7
 40
0.7
 40
0.7999999999999999
 40
0.7999999999999999
 40
0.7999999999999999
 40
0.7999999999999999
 40
0.8999999999999999
 40
0.8999999999999999
 40
0.8999999999999999
 40
0.8999999999999999
 40
1.0
 40
1.0
 40
1.0
 40
1.0
 10
-6.6009291338582683
 20
-2.4114291338582676
 30
0.0
 10
-6.6009291338582683
 20
-2.4114291338582676
 30
0.0
 10
-6.6009291338582683
 20
-2.1368582677165353
 30
0.0
 10
-6.6009291338582683
 20
-2.1368582677165353
 30
0.0
 10
-6.6009291338582683
 20
-2.1368582677165353
 30
0.0
 10
-6.6009291338582683
 20
-2.1368582677165353
 30
0.0
 10
-6.9868228346456691
 20
-2.1368582677165353
 30
0.0
 10
-6.9868228346456691
 20
-2.1368582677165353
 30
0.0
 10
-6.9868228346456691
 20
-2.1368582677165353
 30
0.0
 10
-6.8073818897637794
 20
-1.8431102362204725
 30
0.0
 10
-6.6751259842519683
 20
-1.5042244094488189
 30
0.0
 10
-6.6095472440944887
 20
-1.1278267716535433
 30
0.0
 10
-6.6095472440944887
 20
-1.1278267716535433
 30
0.0
 10
-6.6095472440944887
 20
-1.1278267716535433
 30
0.0
 10
-5.6369094488188978
 20
-1.0696692913385828
 30
0.0
 10
-5.6369094488188978
 20
-1.0696692913385828
 30
0.0
 10
-5.6369094488188978
 20
-1.0696692913385828
 30
0.0
 10
-5.5382519685039373
 20
-1.0655236220472442
 30
0.0
 10
-5.5124685039370078
 20
-1.1150275590551182
 30
0.0
 10
-5.5131771653543309
 20
-1.1830944881889764
 30
0.0
 10
-5.5131771653543309
 20
-1.1830944881889764
 30
0.0
 10
-5.5131771653543309
 20
-1.1830944881889764
 30
0.0
 10
-5.5131771653543309
 20
-1.659484251968504
 30
0.0
 10
-5.5131771653543309
 20
-1.659484251968504
 30
0.0
 10
-5.5131771653543309
 20
-1.659484251968504
 30
0.0
 10
-5.5131771653543309
 20
-1.659484251968504
 30
0.0
 10
-5.5131771653543309
 20
-2.1368188976377955
 30
0.0
 10
-5.5131771653543309
 20
-2.1368188976377955
 30
0.0
 10
-5.5131771653543309
 20
-2.1368188976377955
 30
0.0
 10
-5.5131771653543309
 20
-2.1368188976377955
 30
0.0
 10
-6.3509291338582683
 20
-2.1368582677165353
 30
0.0
 10
-6.3509291338582683
 20
-2.1368582677165353
 30
0.0
 10
-6.3509291338582683
 20
-2.1368582677165353
 30
0.0
 10
-6.3509291338582683
 20
-2.1368582677165353
 30
0.0
 10
-6.3509291338582683
 20
-2.4114291338582676
 30
0.0
 10
-6.3509291338582683
 20
-2.4114291338582676
 30
0.0
 10
-6.3509291338582683
 20
-2.4114291338582676
 30
0.0
 10
-6.3509291338582683
 20
-2.4114291338582676
 30
0.0
 10
-6.6009291338582683
 20
-2.4114291338582676
 30
0.0
 10
-6.6009291338582683
 20
-2.4114291338582676
 30
0.0
  0
SPLINE
  5
43
100
AcDbEntity
  8
Layer 1
370
     5
100
AcDbSpline
210
0.0
220
0.0
230
1.0
 70
     1
 71
     3
 72
    56
 73
    52
 74
     0
 42
0.0000000001
 43
0.0000000001
 40
0.0
 40
0.0
 40
0.0
 40
0.0
 40
0.0769230769230769
 40
0.0769230769230769
 40
0.0769230769230769
 40
0.0769230769230769
 40
0.1538461538461539
 40
0.1538461538461539
 40
0.1538461538461539
 40
0.1538461538461539
 40
0.2307692307692308
 40
0.2307692307692308
 40
0.2307692307692308
 40
0.2307692307692308
 40
0.3076923076923077
 40
0.3076923076923077
 40
0.3076923076923077
 40
0.3076923076923077
 40
0.3846153846153846
 40
0.3846153846153846
 40
0.3846153846153846
 40
0.3846153846153846
 40
0.4615384615384616
 40
0.4615384615384616
 40
0.4615384615384616
 40
0.4615384615384616
 40
0.5384615384615386
 40
0.5384615384615386
 40
0.5384615384615386
 40
0.5384615384615386
 40
0.6153846153846154
 40
0.6153846153846154
 40
0.6153846153846154
 40
0.6153846153846154
 40
0.6923076923076923
 40
0.6923076923076923
 40
0.6923076923076923
 40
0.6923076923076923
 40
0.7692307692307692
 40
0.7692307692307692
 40
0.7692307692307692
 40
0.7692307692307692
 40
0.846153846153846
 40
0.846153846153846
 40
0.846153846153846
 40
0.846153846153846
 40
0.9230769230769229
 40
0.9230769230769229
 40
0.9230769230769229
 40
0.9230769230769229
 40
1.0
 40
1.0
 40
1.0
 40
1.0
 10
-11.567007874015749
 20
-2.4222047244094491
 30
0.0
 10
-11.567007874015749
 20
-2.4222047244094491
 30
0.0
 10
-11.567007874015749
 20
-2.1368582677165353
 30
0.0
 10
-11.567007874015749
 20
-2.1368582677165353
 30
0.0
 10
-11.567007874015749
 20
-2.1368582677165353
 30
0.0
 10
-11.567007874015749
 20
-2.1368582677165353
 30
0.0
 10
-11.951775590551181
 20
-2.1368031496062994
 30
0.0
 10
-11.951775590551181
 20
-2.1368031496062994
 30
0.0
 10
-11.951775590551181
 20
-2.1368031496062994
 30
0.0
 10
-11.951775590551181
 20
-2.1368031496062994
 30
0.0
 10
-11.951775590551181
 20
-0.4799803149606299
 30
0.0
 10
-11.951775590551181
 20
-0.4799803149606299
 30
0.0
 10
-11.951775590551181
 20
-0.4799803149606299
 30
0.0
 10
-11.951775590551181
 20
-0.4799803149606299
 30
0.0
 10
-11.662992125984253
 20
-0.4799803149606299
 30
0.0
 10
-11.662992125984253
 20
-0.4799803149606299
 30
0.0
 10
-11.662992125984253
 20
-0.4799803149606299
 30
0.0
 10
-11.662992125984253
 20
-0.4799803149606299
 30
0.0
 10
-11.662992125984253
 20
-0.2299803149606299
 30
0.0
 10
-11.662992125984253
 20
-0.2299803149606299
 30
0.0
 10
-11.662992125984253
 20
-0.2299803149606299
 30
0.0
 10
-11.662992125984253
 20
-0.2299803149606299
 30
0.0
 10
-11.412992125984253
 20
-0.2299803149606299
 30
0.0
 10
-11.412992125984253
 20
-0.2299803149606299
 30
0.0
 10
-11.412992125984253
 20
-0.2299803149606299
 30
0.0
 10
-11.412992125984253
 20
-0.2299803149606299
 30
0.0
 10
-11.412992125984253
 20
-0.4799803149606299
 30
0.0
 10
-11.412992125984253
 20
-0.4799803149606299
 30
0.0
 10
-11.412992125984253
 20
-0.4799803149606299
 30
0.0
 10
-11.412992125984253
 20
-0.4799803149606299
 30
0.0
 10
-11.124334645669292
 20
-0.4799803149606299
 30
0.0
 10
-11.124334645669292
 20
-0.4799803149606299
 30
0.0
 10
-11.124334645669292
 20
-0.4799803149606299
 30
0.0
 10
-11.120240157480316
 20
-0.8201377952755906
 30
0.0
 10
-11.089484251968504
 20
-1.1272125984251968
 30
0.0
 10
-11.036216535433072
 20
-1.4028188976377953
 30
0.0
 10
-11.036216535433072
 20
-1.4028188976377953
 30
0.0
 10
-10.982948818897638
 20
-1.6784251968503938
 30
0.0
 10
-10.907169291338583
 20
-1.9225708661417324
 30
0.0
 10
-10.813031496062992
 20
-2.1368582677165353
 30
0.0
 10
-10.813031496062992
 20
-2.1368582677165353
 30
0.0
 10
-10.813031496062992
 20
-2.1368582677165353
 30
0.0
 10
-11.317007874015749
 20
-2.1368582677165353
 30
0.0
 10
-11.317007874015749
 20
-2.1368582677165353
 30
0.0
 10
-11.317007874015749
 20
-2.1368582677165353
 30
0.0
 10
-11.317007874015749
 20
-2.1368582677165353
 30
0.0
 10
-11.317007874015749
 20
-2.4222047244094491
 30
0.0
 10
-11.317007874015749
 20
-2.4222047244094491
 30
0.0
 10
-11.317007874015749
 20
-2.4222047244094491
 30
0.0
 10
-11.317007874015749
 20
-2.4222047244094491
 30
0.0
 10
-11.567007874015749
 20
-2.4222047244094491
 30
0.0
 10
-11.567007874015749
 20
-2.4222047244094491
 30
0.0
  0
SPLINE
  5
44
100
AcDbEntity
  8
Layer 1
370
     5
100
AcDbSpline
210
0.0
220
0.0
230
1.0
 70
     0
 71
     3
 72
    28
 73
    24
 74
     0
 42
0.0000000001
 43
0.0000000001
 40
0.0
 40
0.0
 40
0.0
 40
0.0
 40
0.1666666666666667
 40
0.1666666666666667
 40
0.1666666666666667
 40
0.1666666666666667
 40
0.3333333333333333
 40
0.3333333333333333
 40
0.3333333333333333
 40
0.3333333333333333
 40
0.5
 40
0.5
 40
0.5
 40
0.5
 40
0.6666666666666666
 40
0.6666666666666666
 40
0.6666666666666666
 40
0.6666666666666666
 40
0.8333333333333333
 40
0.8333333333333333
 40
0.8333333333333333
 40
0.8333333333333333
 40
1.0
 40
1.0
 40
1.0
 40
1.0
 10
-10.813031496062992
 20
-2.1369960629921261
 30
0.0
 10
-10.01442125984252
 20
-3.954925196850394
 30
0.0
 10
-7.8943425196850399
 20
-3.6250118110236222
 30
0.0
 10
-6.9853110236220477
 20
-2.1368976377952755
 30
0.0
 10
-6.9853110236220477
 20
-2.1368976377952755
 30
0.0
 10
-6.9853110236220477
 20
-2.1368976377952755
 30
0.0
 10
-6.6102283464566929
 20
-2.1368582677165353
 30
0.0
 10
-6.6102283464566929
 20
-2.1368582677165353
 30
0.0
 10
-6.6102283464566929
 20
-2.1368582677165353
 30
0.0
 10
-6.6102283464566929
 20
-2.1368582677165353
 30
0.0
 10
-6.6102283464566929
 20
-2.4368582677165356
 30
0.0
 10
-6.6102283464566929
 20
-2.4368582677165356
 30
0.0
 10
-6.6102283464566929
 20
-2.4368582677165356
 30
0.0
 10
-6.6102283464566929
 20
-2.4368582677165356
 30
0.0
 10
-6.3402283464566933
 20
-2.4368582677165356
 30
0.0
 10
-6.3402283464566933
 20
-2.4368582677165356
 30
0.0
 10
-6.3402283464566933
 20
-2.4368582677165356
 30
0.0
 10
-6.3402283464566933
 20
-2.4368582677165356
 30
0.0
 10
-6.3402283464566933
 20
-2.1368582677165353
 30
0.0
 10
-6.3402283464566933
 20
-2.1368582677165353
 30
0.0
 10
-6.3402283464566933
 20
-2.1368582677165353
 30
0.0
 10
-6.3402283464566933
 20
-2.1368582677165353
 30
0.0
 10
-5.5116653543307086
 20
-2.1368582677165353
 30
0.0
 10
-5.5116653543307086
 20
-2.1368582677165353
 30
0.0
  0
SPLINE
  5
45
100
AcDbEntity
  8
Layer 1
370
     5
100
AcDbSpline
210
0.0
220
0.0
230
1.0
 70
     0
 71
     3
 72
    48
 73
    44
 74
     0
 42
0.0000000001
 43
0.0000000001
 40
0.0
 40
0.0
 40
0.0
 40
0.0
 40
0.0909090909090909
 40
0.0909090909090909
 40
0.0909090909090909
 40
0.0909090909090909
 40
0.1818181818181818
 40
0.1818181818181818
 40
0.1818181818181818
 40
0.1818181818181818
 40
0.2727272727272727
 40
0.2727272727272727
 40
0.2727272727272727
 40
0.2727272727272727
 40
0.3636363636363637
 40
0.3636363636363637
 40
0.3636363636363637
 40
0.3636363636363637
 40
0.4545454545454546
 40
0.4545454545454546
 40
0.4545454545454546
 40
0.4545454545454546
 40
0.5454545454545455
 40
0.5454545454545455
 40
0.5454545454545455
 40
0.5454545454545455
 40
0.6363636363636365
 40
0.6363636363636365
 40
0.6363636363636365
 40
0.6363636363636365
 40
0.7272727272727274
 40
0.7272727272727274
 40
0.7272727272727274
 40
0.7272727272727274
 40
0.8181818181818183
 40
0.8181818181818183
 40
0.8181818181818183
 40
0.8181818181818183
 40
0.9090909090909093
 40
0.9090909090909093
 40
0.9090909090909093
 40
0.9090909090909093
 40
1.0
 40
1.0
 40
1.0
 40
1.0
 10
-5.5116653543307086
 20
-2.1368582677165353
 30
0.0
 10
-6.1220433070866145
 20
-2.3859921259842523
 30
0.0
 10
-6.2341574803149609
 20
-2.5354763779527558
 30
0.0
 10
-6.4832874015748034
 20
-3.4448110236220475
 30
0.0
 10
-6.4832874015748034
 20
-3.4448110236220475
 30
0.0
 10
-6.732417322834646
 20
-4.3541456692913387
 30
0.0
 10
-7.1310354330708661
 20
-4.7776771653543308
 30
0.0
 10
-8.1400275590551185
 20
-4.9022440944881893
 30
0.0
 10
-8.1400275590551185
 20
-4.9022440944881893
 30
0.0
 10
-8.1400275590551185
 20
-4.9022440944881893
 30
0.0
 10
-10.095728346456694
 20
-4.9022440944881893
 30
0.0
 10
-10.095728346456694
 20
-4.9022440944881893
 30
0.0
 10
-10.095728346456694
 20
-4.9022440944881893
 30
0.0
 10
-10.095728346456694
 20
-4.9022440944881893
 30
0.0
 10
-11.951775590551181
 20
-3.2828740157480318
 30
0.0
 10
-11.951775590551181
 20
-3.2828740157480318
 30
0.0
 10
-11.951775590551181
 20
-3.2828740157480318
 30
0.0
 10
-11.951775590551181
 20
-3.2828740157480318
 30
0.0
 10
-11.951775590551181
 20
-2.7099055118110238
 30
0.0
 10
-11.951775590551181
 20
-2.7099055118110238
 30
0.0
 10
-11.951775590551181
 20
-2.7099055118110238
 30
0.0
 10
-11.951775590551181
 20
-2.7099055118110238
 30
0.0
 10
-11.951775590551181
 20
-2.1369409448818897
 30
0.0
 10
-11.951775590551181
 20
-2.1369409448818897
 30
0.0
 10
-11.951775590551181
 20
-2.1369409448818897
 30
0.0
 10
-11.951775590551181
 20
-2.1369409448818897
 30
0.0
 10
-11.576755905511812
 20
-2.1368582677165353
 30
0.0
 10
-11.576755905511812
 20
-2.1368582677165353
 30
0.0
 10
-11.576755905511812
 20
-2.1368582677165353
 30
0.0
 10
-11.576755905511812
 20
-2.1368582677165353
 30
0.0
 10
-11.576755905511812
 20
-2.4368582677165356
 30
0.0
 10
-11.576755905511812
 20
-2.4368582677165356
 30
0.0
 10
-11.576755905511812
 20
-2.4368582677165356
 30
0.0
 10
-11.576755905511812
 20
-2.4368582677165356
 30
0.0
 10
-11.306755905511812
 20
-2.4368582677165356
 30
0.0
 10
-11.306755905511812
 20
-2.4368582677165356
 30
0.0
 10
-11.306755905511812
 20
-2.4368582677165356
 30
0.0
 10
-11.306755905511812
 20
-2.4368582677165356
 30
0.0
 10
-11.306755905511812
 20
-2.1368582677165353
 30
0.0
 10
-11.306755905511812
 20
-2.1368582677165353
 30
0.0
 10
-11.306755905511812
 20
-2.1368582677165353
 30
0.0
 10
-11.306755905511812
 20
-2.1368582677165353
 30
0.0
 10
-10.813031496062992
 20
-2.1369960629921261
 30
0.0
 10
-10.813031496062992
 20
-2.1369960629921261
 30
0.0
  0
TEXT
  5
46
100
AcDbEntity
  8
Layer 1
100
AcDbText
 10
-10.677772
 20
-1.052717
 30
0.0
 40
0.119999
  1
BA  1537A
 51
-0.000002
  7
Bookman Old Style
100
AcDbText
  0
TEXT
  5
47
100
AcDbEntity
  8
Layer 1
100
AcDbText
 10
-8.635504
 20
-3.853634
 30
0.0
 40
0.119999
  1
BA  1537B
 51
-0.000002
  7
Bookman Old Style
100
AcDbText
  0
TEXT
  5
48
100
AcDbEntity
  8
Layer 1
100
AcDbText
 10
-7.98839
 20
-1.427992
 30
0.0
 40
0.119999
  1
BA  1537C
 51
-0.000002
  7
Bookman Old Style
100
AcDbText
  0
TEXT
  5
49
100
AcDbEntity
  8
Layer 1
100
AcDbText
 10
-6.139858
 20
-4.51074
 30
0.0
 40
0.119999
  1
BA  1537D
 51
-0.000002
  7
Bookman Old Style
100
AcDbText
  0
TEXT
  5
4A
100
AcDbEntity
  8
Layer 1
100
AcDbText
 10
-11.771142
 20
-4.308488
 30
0.0
 40
0.119999
  1
Saw Cut
 51
-0.000002
  7
Bookman Old Style
100
AcDbText
  0
TEXT
  5
4B
100
AcDbEntity
  8
Layer 1
100
AcDbText
 10
-10.245098
 20
-2.066831
 30
0.0
 40
0.119999
  1
BA  221B
 51
-0.000002
  7
Bookman Old Style
100
AcDbText
  0
TEXT
  5
4C
100
AcDbEntity
  8
Layer 1
100
AcDbText
 10
-8.479957
 20
-2.058744
 30
0.0
 40
0.119999
  1
BA  221B
 51
-0.000002
  7
Bookman Old Style
100
AcDbText
  0
TEXT
  5
4D
100
AcDbEntity
  8
Layer 1
100
AcDbText
 10
-10.751516
 20
0.107335
 30
0.0
 40
0.119999
  1
BA  221C
 51
-0.000002
  7
Bookman Old Style
100
AcDbText
  0
SPLINE
  5
4E
100
AcDbEntity
  8
Layer 1
370
     5
100
AcDbSpline
210
0.0
220
0.0
230
1.0
 70
     1
 71
     3
 72
    32
 73
    28
 74
     0
 42
0.0000000001
 43
0.0000000001
 40
0.0
 40
0.0
 40
0.0
 40
0.0
 40
0.1428571428571429
 40
0.1428571428571429
 40
0.1428571428571429
 40
0.1428571428571429
 40
0.2857142857142857
 40
0.2857142857142857
 40
0.2857142857142857
 40
0.2857142857142857
 40
0.4285714285714286
 40
0.4285714285714286
 40
0.4285714285714286
 40
0.4285714285714286
 40
0.5714285714285714
 40
0.5714285714285714
 40
0.5714285714285714
 40
0.5714285714285714
 40
0.7142857142857142
 40
0.7142857142857142
 40
0.7142857142857142
 40
0.7142857142857142
 40
0.857142857142857
 40
0.857142857142857
 40
0.857142857142857
 40
0.857142857142857
 40
1.0
 40
1.0
 40
1.0
 40
1.0
 10
-10.302125984251969
 20
-2.1936574803149607
 30
0.0
 10
-10.302125984251969
 20
-2.1936574803149607
 30
0.0
 10
-10.302125984251969
 20
-2.1138149606299215
 30
0.0
 10
-10.302125984251969
 20
-2.1138149606299215
 30
0.0
 10
-10.302125984251969
 20
-2.1138149606299215
 30
0.0
 10
-10.302125984251969
 20
-2.1138149606299215
 30
0.0
 10
-11.372948818897639
 20
-2.3562322834645668
 30
0.0
 10
-11.372948818897639
 20
-2.3562322834645668
 30
0.0
 10
-11.372948818897639
 20
-2.3562322834645668
 30
0.0
 10
-11.372948818897639
 20
-2.3562322834645668
 30
0.0
 10
-10.302125984251969
 20
-2.0239960629921261
 30
0.0
 10
-10.302125984251969
 20
-2.0239960629921261
 30
0.0
 10
-10.302125984251969
 20
-2.0239960629921261
 30
0.0
 10
-10.302125984251969
 20
-2.0239960629921261
 30
0.0
 10
-10.302125984251969
 20
-1.7944527559055119
 30
0.0
 10
-10.302125984251969
 20
-1.7944527559055119
 30
0.0
 10
-10.302125984251969
 20
-1.7944527559055119
 30
0.0
 10
-10.302125984251969
 20
-1.7944527559055119
 30
0.0
 10
-9.415232283464567
 20
-1.7944527559055119
 30
0.0
 10
-9.415232283464567
 20
-1.7944527559055119
 30
0.0
 10
-9.415232283464567
 20
-1.7944527559055119
 30
0.0
 10
-9.415232283464567
 20
-1.7944527559055119
 30
0.0
 10
-9.415232283464567
 20
-2.1936574803149607
 30
0.0
 10
-9.415232283464567
 20
-2.1936574803149607
 30
0.0
 10
-9.415232283464567
 20
-2.1936574803149607
 30
0.0
 10
-9.415232283464567
 20
-2.1936574803149607
 30
0.0
 10
-10.302125984251969
 20
-2.1936574803149607
 30
0.0
 10
-10.302125984251969
 20
-2.1936574803149607
 30
0.0
  0
SPLINE
  5
4F
100
AcDbEntity
  8
Layer 1
370
     5
100
AcDbSpline
210
0.0
220
0.0
230
1.0
 70
     0
 71
     3
 72
     4
 73
     0
 74
     0
 42
0.0000000001
 40
1.0
 40
1.0
 40
1.0
 40
1.0
  0
SPLINE
  5
50
100
AcDbEntity
  8
Layer 1
370
     5
100
AcDbSpline
210
0.0
220
0.0
230
1.0
 70
     0
 71
     3
 72
     4
 73
     0
 74
     0
 42
0.0000000001
 40
1.0
 40
1.0
 40
1.0
 40
1.0
  0
SPLINE
  5
51
100
AcDbEntity
  8
Layer 1
370
     5
100
AcDbSpline
210
0.0
220
0.0
230
1.0
 70
     0
 71
     3
 72
     4
 73
     0
 74
     0
 42
0.0000000001
 40
1.0
 40
1.0
 40
1.0
 40
1.0
  0
SPLINE
  5
52
100
AcDbEntity
  8
Layer 1
370
     5
100
AcDbSpline
210
0.0
220
0.0
230
1.0
 70
     0
 71
     3
 72
     4
 73
     0
 74
     0
 42
0.0000000001
 40
1.0
 40
1.0
 40
1.0
 40
1.0
  0
SPLINE
  5
53
100
AcDbEntity
  8
Layer 1
370
     5
100
AcDbSpline
210
0.0
220
0.0
230
1.0
 70
     0
 71
     3
 72
     4
 73
     0
 74
     0
 42
0.0000000001
 40
1.0
 40
1.0
 40
1.0
 40
1.0
  0
SPLINE
  5
54
100
AcDbEntity
  8
Layer 1
370
     5
100
AcDbSpline
210
0.0
220
0.0
230
1.0
 70
     0
 71
     3
 72
     4
 73
     0
 74
     0
 42
0.0000000001
 40
1.0
 40
1.0
 40
1.0
 40
1.0
  0
SPLINE
  5
55
100
AcDbEntity
  8
Layer 1
370
     5
100
AcDbSpline
210
0.0
220
0.0
230
1.0
 70
     0
 71
     3
 72
     4
 73
     0
 74
     0
 42
0.0000000001
 40
1.0
 40
1.0
 40
1.0
 40
1.0
  0
SPLINE
  5
56
100
AcDbEntity
  8
Layer 1
370
     5
100
AcDbSpline
210
0.0
220
0.0
230
1.0
 70
     1
 71
     3
 72
    32
 73
    28
 74
     0
 42
0.0000000001
 43
0.0000000001
 40
0.0
 40
0.0
 40
0.0
 40
0.0
 40
0.1428571428571429
 40
0.1428571428571429
 40
0.1428571428571429
 40
0.1428571428571429
 40
0.2857142857142857
 40
0.2857142857142857
 40
0.2857142857142857
 40
0.2857142857142857
 40
0.4285714285714286
 40
0.4285714285714286
 40
0.4285714285714286
 40
0.4285714285714286
 40
0.5714285714285714
 40
0.5714285714285714
 40
0.5714285714285714
 40
0.5714285714285714
 40
0.7142857142857142
 40
0.7142857142857142
 40
0.7142857142857142
 40
0.7142857142857142
 40
0.857142857142857
 40
0.857142857142857
 40
0.857142857142857
 40
0.857142857142857
 40
1.0
 40
1.0
 40
1.0
 40
1.0
 10
-7.6386692913385827
 20
-2.1855708661417323
 30
0.0
 10
-7.6386692913385827
 20
-2.1855708661417323
 30
0.0
 10
-7.6386692913385827
 20
-2.1057283464566932
 30
0.0
 10
-7.6386692913385827
 20
-2.1057283464566932
 30
0.0
 10
-7.6386692913385827
 20
-2.1057283464566932
 30
0.0
 10
-7.6386692913385827
 20
-2.1057283464566932
 30
0.0
 10
-6.567846456692914
 20
-2.3481456692913385
 30
0.0
 10
-6.567846456692914
 20
-2.3481456692913385
 30
0.0
 10
-6.567846456692914
 20
-2.3481456692913385
 30
0.0
 10
-6.567846456692914
 20
-2.3481456692913385
 30
0.0
 10
-7.6386692913385827
 20
-2.0159094488188978
 30
0.0
 10
-7.6386692913385827
 20
-2.0159094488188978
 30
0.0
 10
-7.6386692913385827
 20
-2.0159094488188978
 30
0.0
 10
-7.6386692913385827
 20
-2.0159094488188978
 30
0.0
 10
-7.6386692913385827
 20
-1.7863661417322836
 30
0.0
 10
-7.6386692913385827
 20
-1.7863661417322836
 30
0.0
 10
-7.6386692913385827
 20
-1.7863661417322836
 30
0.0
 10
-7.6386692913385827
 20
-1.7863661417322836
 30
0.0
 10
-8.5255629921259839
 20
-1.7863661417322836
 30
0.0
 10
-8.5255629921259839
 20
-1.7863661417322836
 30
0.0
 10
-8.5255629921259839
 20
-1.7863661417322836
 30
0.0
 10
-8.5255629921259839
 20
-1.7863661417322836
 30
0.0
 10
-8.5255629921259839
 20
-2.1855708661417323
 30
0.0
 10
-8.5255629921259839
 20
-2.1855708661417323
 30
0.0
 10
-8.5255629921259839
 20
-2.1855708661417323
 30
0.0
 10
-8.5255629921259839
 20
-2.1855708661417323
 30
0.0
 10
-7.6386692913385827
 20
-2.1855708661417323
 30
0.0
 10
-7.6386692913385827
 20
-2.1855708661417323
 30
0.0
  0
SPLINE
  5
57
100
AcDbEntity
  8
Layer 1
370
     5
100
AcDbSpline
210
0.0
220
0.0
230
1.0
 70
     0
 71
     3
 72
     4
 73
     0
 74
     0
 42
0.0000000001
 40
1.0
 40
1.0
 40
1.0
 40
1.0
  0
SPLINE
  5
58
100
AcDbEntity
  8
Layer 1
370
     5
100
AcDbSpline
210
0.0
220
0.0
230
1.0
 70
     0
 71
     3
 72
     4
 73
     0
 74
     0
 42
0.0000000001
 40
1.0
 40
1.0
 40
1.0
 40
1.0
  0
SPLINE
  5
59
100
AcDbEntity
  8
Layer 1
370
     5
100
AcDbSpline
210
0.0
220
0.0
230
1.0
 70
     0
 71
     3
 72
     4
 73
     0
 74
     0
 42
0.0000000001
 40
1.0
 40
1.0
 40
1.0
 40
1.0
  0
SPLINE
  5
5A
100
AcDbEntity
  8
Layer 1
370
     5
100
AcDbSpline
210
0.0
220
0.0
230
1.0
 70
     0
 71
     3
 72
     4
 73
     0
 74
     0
 42
0.0000000001
 40
1.0
 40
1.0
 40
1.0
 40
1.0
  0
SPLINE
  5
5B
100
AcDbEntity
  8
Layer 1
370
     5
100
AcDbSpline
210
0.0
220
0.0
230
1.0
 70
     0
 71
     3
 72
     4
 73
     0
 74
     0
 42
0.0000000001
 40
1.0
 40
1.0
 40
1.0
 40
1.0
  0
SPLINE
  5
5C
100
AcDbEntity
  8
Layer 1
370
     5
100
AcDbSpline
210
0.0
220
0.0
230
1.0
 70
     0
 71
     3
 72
     4
 73
     0
 74
     0
 42
0.0000000001
 40
1.0
 40
1.0
 40
1.0
 40
1.0
  0
SPLINE
  5
5D
100
AcDbEntity
  8
Layer 1
370
     5
100
AcDbSpline
210
0.0
220
0.0
230
1.0
 70
     0
 71
     3
 72
     4
 73
     0
 74
     0
 42
0.0000000001
 40
1.0
 40
1.0
 40
1.0
 40
1.0
  0
SPLINE
  5
5E
100
AcDbEntity
  8
Layer 1
370
     5
100
AcDbSpline
210
0.0
220
0.0
230
1.0
 70
     1
 71
     3
 72
    32
 73
    28
 74
     0
 42
0.0000000001
 43
0.0000000001
 40
0.0
 40
0.0
 40
0.0
 40
0.0
 40
0.1428571428571429
 40
0.1428571428571429
 40
0.1428571428571429
 40
0.1428571428571429
 40
0.2857142857142857
 40
0.2857142857142857
 40
0.2857142857142857
 40
0.2857142857142857
 40
0.4285714285714286
 40
0.4285714285714286
 40
0.4285714285714286
 40
0.4285714285714286
 40
0.5714285714285714
 40
0.5714285714285714
 40
0.5714285714285714
 40
0.5714285714285714
 40
0.7142857142857142
 40
0.7142857142857142
 40
0.7142857142857142
 40
0.7142857142857142
 40
0.857142857142857
 40
0.857142857142857
 40
0.857142857142857
 40
0.857142857142857
 40
1.0
 40
1.0
 40
1.0
 40
1.0
 10
-10.819610236220473
 20
0.0045314960629921
 30
0.0
 10
-10.819610236220473
 20
0.0045314960629921
 30
0.0
 10
-10.819610236220473
 20
0.3371535433070866
 30
0.0
 10
-10.819610236220473
 20
0.3371535433070866
 30
0.0
 10
-10.819610236220473
 20
0.3371535433070866
 30
0.0
 10
-10.819610236220473
 20
0.3371535433070866
 30
0.0
 10
-9.8322401574803155
 20
0.3371535433070866
 30
0.0
 10
-9.8322401574803155
 20
0.3371535433070866
 30
0.0
 10
-9.8322401574803155
 20
0.3371535433070866
 30
0.0
 10
-9.8322401574803155
 20
0.3371535433070866
 30
0.0
 10
-9.8322401574803155
 20
0.0045314960629921
 30
0.0
 10
-9.8322401574803155
 20
0.0045314960629921
 30
0.0
 10
-9.8322401574803155
 20
0.0045314960629921
 30
0.0
 10
-9.8322401574803155
 20
0.0045314960629921
 30
0.0
 10
-10.399976377952756
 20
0.0045314960629921
 30
0.0
 10
-10.399976377952756
 20
0.0045314960629921
 30
0.0
 10
-10.399976377952756
 20
0.0045314960629921
 30
0.0
 10
-10.399976377952756
 20
0.0045314960629921
 30
0.0
 10
-11.372877952755905
 20
-0.318255905511811
 30
0.0
 10
-11.372877952755905
 20
-0.318255905511811
 30
0.0
 10
-11.372877952755905
 20
-0.318255905511811
 30
0.0
 10
-11.372877952755905
 20
-0.318255905511811
 30
0.0
 10
-10.622137795275592
 20
0.0045314960629921
 30
0.0
 10
-10.622137795275592
 20
0.0045314960629921
 30
0.0
 10
-10.622137795275592
 20
0.0045314960629921
 30
0.0
 10
-10.622137795275592
 20
0.0045314960629921
 30
0.0
 10
-10.819610236220473
 20
0.0045314960629921
 30
0.0
 10
-10.819610236220473
 20
0.0045314960629921
 30
0.0
  0
SPLINE
  5
5F
100
AcDbEntity
  8
Layer 1
370
     5
100
AcDbSpline
210
0.0
220
0.0
230
1.0
 70
     0
 71
     3
 72
     4
 73
     0
 74
     0
 42
0.0000000001
 40
1.0
 40
1.0
 40
1.0
 40
1.0
  0
SPLINE
  5
60
100
AcDbEntity
  8
Layer 1
370
     5
100
AcDbSpline
210
0.0
220
0.0
230
1.0
 70
     0
 71
     3
 72
     4
 73
     0
 74
     0
 42
0.0000000001
 40
1.0
 40
1.0
 40
1.0
 40
1.0
  0
SPLINE
  5
61
100
AcDbEntity
  8
Layer 1
370
     5
100
AcDbSpline
210
0.0
220
0.0
230
1.0
 70
     0
 71
     3
 72
     4
 73
     0
 74
     0
 42
0.0000000001
 40
1.0
 40
1.0
 40
1.0
 40
1.0
  0
SPLINE
  5
62
100
AcDbEntity
  8
Layer 1
370
     5
100
AcDbSpline
210
0.0
220
0.0
230
1.0
 70
     0
 71
     3
 72
     4
 73
     0
 74
     0
 42
0.0000000001
 40
1.0
 40
1.0
 40
1.0
 40
1.0
  0
SPLINE
  5
63
100
AcDbEntity
  8
Layer 1
370
     5
100
AcDbSpline
210
0.0
220
0.0
230
1.0
 70
     0
 71
     3
 72
     4
 73
     0
 74
     0
 42
0.0000000001
 40
1.0
 40
1.0
 40
1.0
 40
1.0
  0
SPLINE
  5
64
100
AcDbEntity
  8
Layer 1
370
     5
100
AcDbSpline
210
0.0
220
0.0
230
1.0
 70
     0
 71
     3
 72
     4
 73
     0
 74
     0
 42
0.0000000001
 40
1.0
 40
1.0
 40
1.0
 40
1.0
  0
SPLINE
  5
65
100
AcDbEntity
  8
Layer 1
370
     5
100
AcDbSpline
210
0.0
220
0.0
230
1.0
 70
     0
 71
     3
 72
     4
 73
     0
 74
     0
 42
0.0000000001
 40
1.0
 40
1.0
 40
1.0
 40
1.0
  0
SPLINE
  5
66
100
AcDbEntity
  8
Layer 1
370
     5
100
AcDbSpline
210
0.0
220
0.0
230
1.0
 70
     1
 71
     3
 72
    32
 73
    28
 74
     0
 42
0.0000000001
 43
0.0000000001
 40
0.0
 40
0.0
 40
0.0
 40
0.0
 40
0.1428571428571429
 40
0.1428571428571429
 40
0.1428571428571429
 40
0.1428571428571429
 40
0.2857142857142857
 40
0.2857142857142857
 40
0.2857142857142857
 40
0.2857142857142857
 40
0.4285714285714286
 40
0.4285714285714286
 40
0.4285714285714286
 40
0.4285714285714286
 40
0.5714285714285714
 40
0.5714285714285714
 40
0.5714285714285714
 40
0.5714285714285714
 40
0.7142857142857142
 40
0.7142857142857142
 40
0.7142857142857142
 40
0.7142857142857142
 40
0.857142857142857
 40
0.857142857142857
 40
0.857142857142857
 40
0.857142857142857
 40
1.0
 40
1.0
 40
1.0
 40
1.0
 10
-10.773787401574804
 20
-1.1324094488188976
 30
0.0
 10
-10.773787401574804
 20
-1.1324094488188976
 30
0.0
 10
-10.773787401574804
 20
-0.8285393700787402
 30
0.0
 10
-10.773787401574804
 20
-0.8285393700787402
 30
0.0
 10
-10.773787401574804
 20
-0.8285393700787402
 30
0.0
 10
-10.773787401574804
 20
-0.8285393700787402
 30
0.0
 10
-9.7727992125984251
 20
-0.8285393700787402
 30
0.0
 10
-9.7727992125984251
 20
-0.8285393700787402
 30
0.0
 10
-9.7727992125984251
 20
-0.8285393700787402
 30
0.0
 10
-9.7727992125984251
 20
-0.8285393700787402
 30
0.0
 10
-9.7727992125984251
 20
-1.1324094488188976
 30
0.0
 10
-9.7727992125984251
 20
-1.1324094488188976
 30
0.0
 10
-9.7727992125984251
 20
-1.1324094488188976
 30
0.0
 10
-9.7727992125984251
 20
-1.1324094488188976
 30
0.0
 10
-10.348366141732283
 20
-1.1324094488188976
 30
0.0
 10
-10.348366141732283
 20
-1.1324094488188976
 30
0.0
 10
-10.348366141732283
 20
-1.1324094488188976
 30
0.0
 10
-10.348366141732283
 20
-1.1324094488188976
 30
0.0
 10
-11.024035433070866
 20
-1.2626417322834647
 30
0.0
 10
-11.024035433070866
 20
-1.2626417322834647
 30
0.0
 10
-11.024035433070866
 20
-1.2626417322834647
 30
0.0
 10
-11.024035433070866
 20
-1.2626417322834647
 30
0.0
 10
-10.573590551181102
 20
-1.1324094488188976
 30
0.0
 10
-10.573590551181102
 20
-1.1324094488188976
 30
0.0
 10
-10.573590551181102
 20
-1.1324094488188976
 30
0.0
 10
-10.573590551181102
 20
-1.1324094488188976
 30
0.0
 10
-10.773787401574804
 20
-1.1324094488188976
 30
0.0
 10
-10.773787401574804
 20
-1.1324094488188976
 30
0.0
  0
SPLINE
  5
67
100
AcDbEntity
  8
Layer 1
370
     5
100
AcDbSpline
210
0.0
220
0.0
230
1.0
 70
     0
 71
     3
 72
     4
 73
     0
 74
     0
 42
0.0000000001
 40
1.0
 40
1.0
 40
1.0
 40
1.0
  0
SPLINE
  5
68
100
AcDbEntity
  8
Layer 1
370
     5
100
AcDbSpline
210
0.0
220
0.0
230
1.0
 70
     0
 71
     3
 72
     4
 73
     0
 74
     0
 42
0.0000000001
 40
1.0
 40
1.0
 40
1.0
 40
1.0
  0
SPLINE
  5
69
100
AcDbEntity
  8
Layer 1
370
     5
100
AcDbSpline
210
0.0
220
0.0
230
1.0
 70
     0
 71
     3
 72
     4
 73
     0
 74
     0
 42
0.0000000001
 40
1.0
 40
1.0
 40
1.0
 40
1.0
  0
SPLINE
  5
6A
100
AcDbEntity
  8
Layer 1
370
     5
100
AcDbSpline
210
0.0
220
0.0
230
1.0
 70
     0
 71
     3
 72
     4
 73
     0
 74
     0
 42
0.0000000001
 40
1.0
 40
1.0
 40
1.0
 40
1.0
  0
SPLINE
  5
6B
100
AcDbEntity
  8
Layer 1
370
     5
100
AcDbSpline
210
0.0
220
0.0
230
1.0
 70
     0
 71
     3
 72
     4
 73
     0
 74
     0
 42
0.0000000001
 40
1.0
 40
1.0
 40
1.0
 40
1.0
  0
SPLINE
  5
6C
100
AcDbEntity
  8
Layer 1
370
     5
100
AcDbSpline
210
0.0
220
0.0
230
1.0
 70
     0
 71
     3
 72
     4
 73
     0
 74
     0
 42
0.0000000001
 40
1.0
 40
1.0
 40
1.0
 40
1.0
  0
SPLINE
  5
6D
100
AcDbEntity
  8
Layer 1
370
     5
100
AcDbSpline
210
0.0
220
0.0
230
1.0
 70
     0
 71
     3
 72
     4
 73
     0
 74
     0
 42
0.0000000001
 40
1.0
 40
1.0
 40
1.0
 40
1.0
  0
SPLINE
  5
6E
100
AcDbEntity
  8
Layer 1
370
     5
100
AcDbSpline
210
0.0
220
0.0
230
1.0
 70
     1
 71
     3
 72
    32
 73
    28
 74
     0
 42
0.0000000001
 43
0.0000000001
 40
0.0
 40
0.0
 40
0.0
 40
0.0
 40
0.1428571428571429
 40
0.1428571428571429
 40
0.1428571428571429
 40
0.1428571428571429
 40
0.2857142857142857
 40
0.2857142857142857
 40
0.2857142857142857
 40
0.2857142857142857
 40
0.4285714285714286
 40
0.4285714285714286
 40
0.4285714285714286
 40
0.4285714285714286
 40
0.5714285714285714
 40
0.5714285714285714
 40
0.5714285714285714
 40
0.5714285714285714
 40
0.7142857142857142
 40
0.7142857142857142
 40
0.7142857142857142
 40
0.7142857142857142
 40
0.857142857142857
 40
0.857142857142857
 40
0.857142857142857
 40
0.857142857142857
 40
1.0
 40
1.0
 40
1.0
 40
1.0
 10
-7.0356062992125983
 20
-1.5190236220472442
 30
0.0
 10
-7.0356062992125983
 20
-1.5190236220472442
 30
0.0
 10
-7.0356062992125983
 20
-1.2151535433070866
 30
0.0
 10
-7.0356062992125983
 20
-1.2151535433070866
 30
0.0
 10
-7.0356062992125983
 20
-1.2151535433070866
 30
0.0
 10
-7.0356062992125983
 20
-1.2151535433070866
 30
0.0
 10
-8.0365944881889764
 20
-1.2151535433070866
 30
0.0
 10
-8.0365944881889764
 20
-1.2151535433070866
 30
0.0
 10
-8.0365944881889764
 20
-1.2151535433070866
 30
0.0
 10
-8.0365944881889764
 20
-1.2151535433070866
 30
0.0
 10
-8.0365944881889764
 20
-1.5190236220472442
 30
0.0
 10
-8.0365944881889764
 20
-1.5190236220472442
 30
0.0
 10
-8.0365944881889764
 20
-1.5190236220472442
 30
0.0
 10
-8.0365944881889764
 20
-1.5190236220472442
 30
0.0
 10
-7.4610275590551183
 20
-1.5190236220472442
 30
0.0
 10
-7.4610275590551183
 20
-1.5190236220472442
 30
0.0
 10
-7.4610275590551183
 20
-1.5190236220472442
 30
0.0
 10
-7.4610275590551183
 20
-1.5190236220472442
 30
0.0
 10
-6.7853582677165356
 20
-1.649255905511811
 30
0.0
 10
-6.7853582677165356
 20
-1.649255905511811
 30
0.0
 10
-6.7853582677165356
 20
-1.649255905511811
 30
0.0
 10
-6.7853582677165356
 20
-1.649255905511811
 30
0.0
 10
-7.2358031496062996
 20
-1.5190236220472442
 30
0.0
 10
-7.2358031496062996
 20
-1.5190236220472442
 30
0.0
 10
-7.2358031496062996
 20
-1.5190236220472442
 30
0.0
 10
-7.2358031496062996
 20
-1.5190236220472442
 30
0.0
 10
-7.0356062992125983
 20
-1.5190236220472442
 30
0.0
 10
-7.0356062992125983
 20
-1.5190236220472442
 30
0.0
  0
SPLINE
  5
6F
100
AcDbEntity
  8
Layer 1
370
     5
100
AcDbSpline
210
0.0
220
0.0
230
1.0
 70
     0
 71
     3
 72
     4
 73
     0
 74
     0
 42
0.0000000001
 40
1.0
 40
1.0
 40
1.0
 40
1.0
  0
SPLINE
  5
70
100
AcDbEntity
  8
Layer 1
370
     5
100
AcDbSpline
210
0.0
220
0.0
230
1.0
 70
     0
 71
     3
 72
     4
 73
     0
 74
     0
 42
0.0000000001
 40
1.0
 40
1.0
 40
1.0
 40
1.0
  0
SPLINE
  5
71
100
AcDbEntity
  8
Layer 1
370
     5
100
AcDbSpline
210
0.0
220
0.0
230
1.0
 70
     0
 71
     3
 72
     4
 73
     0
 74
     0
 42
0.0000000001
 40
1.0
 40
1.0
 40
1.0
 40
1.0
  0
SPLINE
  5
72
100
AcDbEntity
  8
Layer 1
370
     5
100
AcDbSpline
210
0.0
220
0.0
230
1.0
 70
     0
 71
     3
 72
     4
 73
     0
 74
     0
 42
0.0000000001
 40
1.0
 40
1.0
 40
1.0
 40
1.0
  0
SPLINE
  5
73
100
AcDbEntity
  8
Layer 1
370
     5
100
AcDbSpline
210
0.0
220
0.0
230
1.0
 70
     0
 71
     3
 72
     4
 73
     0
 74
     0
 42
0.0000000001
 40
1.0
 40
1.0
 40
1.0
 40
1.0
  0
SPLINE
  5
74
100
AcDbEntity
  8
Layer 1
370
     5
100
AcDbSpline
210
0.0
220
0.0
230
1.0
 70
     0
 71
     3
 72
     4
 73
     0
 74
     0
 42
0.0000000001
 40
1.0
 40
1.0
 40
1.0
 40
1.0
  0
SPLINE
  5
75
100
AcDbEntity
  8
Layer 1
370
     5
100
AcDbSpline
210
0.0
220
0.0
230
1.0
 70
     0
 71
     3
 72
     4
 73
     0
 74
     0
 42
0.0000000001
 40
1.0
 40
1.0
 40
1.0
 40
1.0
  0
SPLINE
  5
76
100
AcDbEntity
  8
Layer 1
370
     5
100
AcDbSpline
210
0.0
220
0.0
230
1.0
 70
     1
 71
     3
 72
    32
 73
    28
 74
     0
 42
0.0000000001
 43
0.0000000001
 40
0.0
 40
0.0
 40
0.0
 40
0.0
 40
0.1428571428571429
 40
0.1428571428571429
 40
0.1428571428571429
 40
0.1428571428571429
 40
0.2857142857142857
 40
0.2857142857142857
 40
0.2857142857142857
 40
0.2857142857142857
 40
0.4285714285714286
 40
0.4285714285714286
 40
0.4285714285714286
 40
0.4285714285714286
 40
0.5714285714285714
 40
0.5714285714285714
 40
0.5714285714285714
 40
0.5714285714285714
 40
0.7142857142857142
 40
0.7142857142857142
 40
0.7142857142857142
 40
0.7142857142857142
 40
0.857142857142857
 40
0.857142857142857
 40
0.857142857142857
 40
0.857142857142857
 40
1.0
 40
1.0
 40
1.0
 40
1.0
 10
-8.8709251968503935
 20
-3.987948818897638
 30
0.0
 10
-8.8709251968503935
 20
-3.987948818897638
 30
0.0
 10
-8.8709251968503935
 20
-3.5779685039370079
 30
0.0
 10
-8.8709251968503935
 20
-3.5779685039370079
 30
0.0
 10
-8.8709251968503935
 20
-3.5779685039370079
 30
0.0
 10
-8.8709251968503935
 20
-3.5779685039370079
 30
0.0
 10
-8.5999803149606304
 20
-3.5779685039370079
 30
0.0
 10
-8.5999803149606304
 20
-3.5779685039370079
 30
0.0
 10
-8.5999803149606304
 20
-3.5779685039370079
 30
0.0
 10
-8.5999803149606304
 20
-3.5779685039370079
 30
0.0
 10
-9.2096023622047252
 20
-3.402263779527559
 30
0.0
 10
-9.2096023622047252
 20
-3.402263779527559
 30
0.0
 10
-9.2096023622047252
 20
-3.402263779527559
 30
0.0
 10
-9.2096023622047252
 20
-3.402263779527559
 30
0.0
 10
-8.2951732283464565
 20
-3.5779685039370079
 30
0.0
 10
-8.2951732283464565
 20
-3.5779685039370079
 30
0.0
 10
-8.2951732283464565
 20
-3.5779685039370079
 30
0.0
 10
-8.2951732283464565
 20
-3.5779685039370079
 30
0.0
 10
-7.5162086614173234
 20
-3.5779685039370079
 30
0.0
 10
-7.5162086614173234
 20
-3.5779685039370079
 30
0.0
 10
-7.5162086614173234
 20
-3.5779685039370079
 30
0.0
 10
-7.5162086614173234
 20
-3.5779685039370079
 30
0.0
 10
-7.5162086614173234
 20
-3.987948818897638
 30
0.0
 10
-7.5162086614173234
 20
-3.987948818897638
 30
0.0
 10
-7.5162086614173234
 20
-3.987948818897638
 30
0.0
 10
-7.5162086614173234
 20
-3.987948818897638
 30
0.0
 10
-8.8709251968503935
 20
-3.987948818897638
 30
0.0
 10
-8.8709251968503935
 20
-3.987948818897638
 30
0.0
  0
SPLINE
  5
77
100
AcDbEntity
  8
Layer 1
370
     5
100
AcDbSpline
210
0.0
220
0.0
230
1.0
 70
     0
 71
     3
 72
     4
 73
     0
 74
     0
 42
0.0000000001
 40
1.0
 40
1.0
 40
1.0
 40
1.0
  0
SPLINE
  5
78
100
AcDbEntity
  8
Layer 1
370
     5
100
AcDbSpline
210
0.0
220
0.0
230
1.0
 70
     0
 71
     3
 72
     4
 73
     0
 74
     0
 42
0.0000000001
 40
1.0
 40
1.0
 40
1.0
 40
1.0
  0
SPLINE
  5
79
100
AcDbEntity
  8
Layer 1
370
     5
100
AcDbSpline
210
0.0
220
0.0
230
1.0
 70
     0
 71
     3
 72
     4
 73
     0
 74
     0
 42
0.0000000001
 40
1.0
 40
1.0
 40
1.0
 40
1.0
  0
SPLINE
  5
7A
100
AcDbEntity
  8
Layer 1
370
     5
100
AcDbSpline
210
0.0
220
0.0
230
1.0
 70
     0
 71
     3
 72
     4
 73
     0
 74
     0
 42
0.0000000001
 40
1.0
 40
1.0
 40
1.0
 40
1.0
  0
SPLINE
  5
7B
100
AcDbEntity
  8
Layer 1
370
     5
100
AcDbSpline
210
0.0
220
0.0
230
1.0
 70
     0
 71
     3
 72
     4
 73
     0
 74
     0
 42
0.0000000001
 40
1.0
 40
1.0
 40
1.0
 40
1.0
  0
SPLINE
  5
7C
100
AcDbEntity
  8
Layer 1
370
     5
100
AcDbSpline
210
0.0
220
0.0
230
1.0
 70
     0
 71
     3
 72
     4
 73
     0
 74
     0
 42
0.0000000001
 40
1.0
 40
1.0
 40
1.0
 40
1.0
  0
SPLINE
  5
7D
100
AcDbEntity
  8
Layer 1
370
     5
100
AcDbSpline
210
0.0
220
0.0
230
1.0
 70
     0
 71
     3
 72
     4
 73
     0
 74
     0
 42
0.0000000001
 40
1.0
 40
1.0
 40
1.0
 40
1.0
  0
SPLINE
  5
7E
100
AcDbEntity
  8
Layer 1
370
     5
100
AcDbSpline
210
0.0
220
0.0
230
1.0
 70
     1
 71
     3
 72
    32
 73
    28
 74
     0
 42
0.0000000001
 43
0.0000000001
 40
0.0
 40
0.0
 40
0.0
 40
0.0
 40
0.1428571428571429
 40
0.1428571428571429
 40
0.1428571428571429
 40
0.1428571428571429
 40
0.2857142857142857
 40
0.2857142857142857
 40
0.2857142857142857
 40
0.2857142857142857
 40
0.4285714285714286
 40
0.4285714285714286
 40
0.4285714285714286
 40
0.4285714285714286
 40
0.5714285714285714
 40
0.5714285714285714
 40
0.5714285714285714
 40
0.5714285714285714
 40
0.7142857142857142
 40
0.7142857142857142
 40
0.7142857142857142
 40
0.7142857142857142
 40
0.857142857142857
 40
0.857142857142857
 40
0.857142857142857
 40
0.857142857142857
 40
1.0
 40
1.0
 40
1.0
 40
1.0
 10
-6.3652086614173227
 20
-4.6372952755905512
 30
0.0
 10
-6.3652086614173227
 20
-4.6372952755905512
 30
0.0
 10
-6.3652086614173227
 20
-4.2273149606299212
 30
0.0
 10
-6.3652086614173227
 20
-4.2273149606299212
 30
0.0
 10
-6.3652086614173227
 20
-4.2273149606299212
 30
0.0
 10
-6.3652086614173227
 20
-4.2273149606299212
 30
0.0
 10
-6.1268622047244099
 20
-4.2273149606299212
 30
0.0
 10
-6.1268622047244099
 20
-4.2273149606299212
 30
0.0
 10
-6.1268622047244099
 20
-4.2273149606299212
 30
0.0
 10
-6.1268622047244099
 20
-4.2273149606299212
 30
0.0
 10
-6.6631456692913389
 20
-4.0516102362204727
 30
0.0
 10
-6.6631456692913389
 20
-4.0516102362204727
 30
0.0
 10
-6.6631456692913389
 20
-4.0516102362204727
 30
0.0
 10
-6.6631456692913389
 20
-4.0516102362204727
 30
0.0
 10
-5.858720472440945
 20
-4.2273149606299212
 30
0.0
 10
-5.858720472440945
 20
-4.2273149606299212
 30
0.0
 10
-5.858720472440945
 20
-4.2273149606299212
 30
0.0
 10
-5.858720472440945
 20
-4.2273149606299212
 30
0.0
 10
-5.1734685039370083
 20
-4.2273149606299212
 30
0.0
 10
-5.1734685039370083
 20
-4.2273149606299212
 30
0.0
 10
-5.1734685039370083
 20
-4.2273149606299212
 30
0.0
 10
-5.1734685039370083
 20
-4.2273149606299212
 30
0.0
 10
-5.1734685039370083
 20
-4.6372952755905512
 30
0.0
 10
-5.1734685039370083
 20
-4.6372952755905512
 30
0.0
 10
-5.1734685039370083
 20
-4.6372952755905512
 30
0.0
 10
-5.1734685039370083
 20
-4.6372952755905512
 30
0.0
 10
-6.3652086614173227
 20
-4.6372952755905512
 30
0.0
 10
-6.3652086614173227
 20
-4.6372952755905512
 30
0.0
  0
SPLINE
  5
7F
100
AcDbEntity
  8
Layer 1
370
     5
100
AcDbSpline
210
0.0
220
0.0
230
1.0
 70
     0
 71
     3
 72
     4
 73
     0
 74
     0
 42
0.0000000001
 40
1.0
 40
1.0
 40
1.0
 40
1.0
  0
SPLINE
  5
80
100
AcDbEntity
  8
Layer 1
370
     5
100
AcDbSpline
210
0.0
220
0.0
230
1.0
 70
     0
 71
     3
 72
     4
 73
     0
 74
     0
 42
0.0000000001
 40
1.0
 40
1.0
 40
1.0
 40
1.0
  0
SPLINE
  5
81
100
AcDbEntity
  8
Layer 1
370
     5
100
AcDbSpline
210
0.0
220
0.0
230
1.0
 70
     0
 71
     3
 72
     4
 73
     0
 74
     0
 42
0.0000000001
 40
1.0
 40
1.0
 40
1.0
 40
1.0
  0
SPLINE
  5
82
100
AcDbEntity
  8
Layer 1
370
     5
100
AcDbSpline
210
0.0
220
0.0
230
1.0
 70
     0
 71
     3
 72
     4
 73
     0
 74
     0
 42
0.0000000001
 40
1.0
 40
1.0
 40
1.0
 40
1.0
  0
SPLINE
  5
83
100
AcDbEntity
  8
Layer 1
370
     5
100
AcDbSpline
210
0.0
220
0.0
230
1.0
 70
     0
 71
     3
 72
     4
 73
     0
 74
     0
 42
0.0000000001
 40
1.0
 40
1.0
 40
1.0
 40
1.0
  0
SPLINE
  5
84
100
AcDbEntity
  8
Layer 1
370
     5
100
AcDbSpline
210
0.0
220
0.0
230
1.0
 70
     0
 71
     3
 72
     4
 73
     0
 74
     0
 42
0.0000000001
 40
1.0
 40
1.0
 40
1.0
 40
1.0
  0
SPLINE
  5
85
100
AcDbEntity
  8
Layer 1
370
     5
100
AcDbSpline
210
0.0
220
0.0
230
1.0
 70
     0
 71
     3
 72
     4
 73
     0
 74
     0
 42
0.0000000001
 40
1.0
 40
1.0
 40
1.0
 40
1.0
  0
SPLINE
  5
86
100
AcDbEntity
  8
Layer 1
370
    40
100
AcDbSpline
210
0.0
220
0.0
230
1.0
 70
     1
 71
     3
 72
    44
 73
    40
 74
     0
 42
0.0000000001
 43
0.0000000001
 40
0.0
 40
0.0
 40
0.0
 40
0.0
 40
0.1
 40
0.1
 40
0.1
 40
0.1
 40
0.2
 40
0.2
 40
0.2
 40
0.2
 40
0.3
 40
0.3
 40
0.3
 40
0.3
 40
0.4
 40
0.4
 40
0.4
 40
0.4
 40
0.5
 40
0.5
 40
0.5
 40
0.5
 40
0.6
 40
0.6
 40
0.6
 40
0.6
 40
0.7
 40
0.7
 40
0.7
 40
0.7
 40
0.7999999999999999
 40
0.7999999999999999
 40
0.7999999999999999
 40
0.7999999999999999
 40
0.8999999999999999
 40
0.8999999999999999
 40
0.8999999999999999
 40
0.8999999999999999
 40
1.0
 40
1.0
 40
1.0
 40
1.0
 10
-8.5853031496063004
 20
12.000858267716536
 30
0.0
 10
-8.5853031496063004
 20
12.000858267716536
 30
0.0
 10
-8.3107322834645672
 20
12.000858267716536
 30
0.0
 10
-8.3107322834645672
 20
12.000858267716536
 30
0.0
 10
-8.3107322834645672
 20
12.000858267716536
 30
0.0
 10
-8.3107322834645672
 20
12.000858267716536
 30
0.0
 10
-8.3107322834645672
 20
12.386751968503937
 30
0.0
 10
-8.3107322834645672
 20
12.386751968503937
 30
0.0
 10
-8.3107322834645672
 20
12.386751968503937
 30
0.0
 10
-8.0169842519685037
 20
12.207311023622047
 30
0.0
 10
-7.6780984251968505
 20
12.075055118110237
 30
0.0
 10
-7.3017007874015754
 20
12.009476377952756
 30
0.0
 10
-7.3017007874015754
 20
12.009476377952756
 30
0.0
 10
-7.3017007874015754
 20
12.009476377952756
 30
0.0
 10
-7.2435433070866146
 20
11.036838582677166
 30
0.0
 10
-7.2435433070866146
 20
11.036838582677166
 30
0.0
 10
-7.2435433070866146
 20
11.036838582677166
 30
0.0
 10
-7.2393976377952756
 20
10.938181102362206
 30
0.0
 10
-7.28890157480315
 20
10.912397637795276
 30
0.0
 10
-7.3569685039370079
 20
10.913106299212599
 30
0.0
 10
-7.3569685039370079
 20
10.913106299212599
 30
0.0
 10
-7.3569685039370079
 20
10.913106299212599
 30
0.0
 10
-7.8333582677165357
 20
10.913106299212599
 30
0.0
 10
-7.8333582677165357
 20
10.913106299212599
 30
0.0
 10
-7.8333582677165357
 20
10.913106299212599
 30
0.0
 10
-7.8333582677165357
 20
10.913106299212599
 30
0.0
 10
-8.3106929133858269
 20
10.913106299212599
 30
0.0
 10
-8.3106929133858269
 20
10.913106299212599
 30
0.0
 10
-8.3106929133858269
 20
10.913106299212599
 30
0.0
 10
-8.3106929133858269
 20
10.913106299212599
 30
0.0
 10
-8.3107322834645672
 20
11.750858267716536
 30
0.0
 10
-8.3107322834645672
 20
11.750858267716536
 30
0.0
 10
-8.3107322834645672
 20
11.750858267716536
 30
0.0
 10
-8.3107322834645672
 20
11.750858267716536
 30
0.0
 10
-8.5853031496063004
 20
11.750858267716536
 30
0.0
 10
-8.5853031496063004
 20
11.750858267716536
 30
0.0
 10
-8.5853031496063004
 20
11.750858267716536
 30
0.0
 10
-8.5853031496063004
 20
11.750858267716536
 30
0.0
 10
-8.5853031496063004
 20
12.000858267716536
 30
0.0
 10
-8.5853031496063004
 20
12.000858267716536
 30
0.0
  0
SPLINE
  5
87
100
AcDbEntity
  8
Layer 1
370
    40
100
AcDbSpline
210
0.0
220
0.0
230
1.0
 70
     1
 71
     3
 72
    44
 73
    40
 74
     0
 42
0.0000000001
 43
0.0000000001
 40
0.0
 40
0.0
 40
0.0
 40
0.0
 40
0.1
 40
0.1
 40
0.1
 40
0.1
 40
0.2
 40
0.2
 40
0.2
 40
0.2
 40
0.3
 40
0.3
 40
0.3
 40
0.3
 40
0.4
 40
0.4
 40
0.4
 40
0.4
 40
0.5
 40
0.5
 40
0.5
 40
0.5
 40
0.6
 40
0.6
 40
0.6
 40
0.6
 40
0.7
 40
0.7
 40
0.7
 40
0.7
 40
0.7999999999999999
 40
0.7999999999999999
 40
0.7999999999999999
 40
0.7999999999999999
 40
0.8999999999999999
 40
0.8999999999999999
 40
0.8999999999999999
 40
0.8999999999999999
 40
1.0
 40
1.0
 40
1.0
 40
1.0
 10
-7.2852755905511817
 20
4.9003740157480316
 30
0.0
 10
-7.2852755905511817
 20
4.9003740157480316
 30
0.0
 10
-7.2852755905511817
 20
5.1749448818897639
 30
0.0
 10
-7.2852755905511817
 20
5.1749448818897639
 30
0.0
 10
-7.2852755905511817
 20
5.1749448818897639
 30
0.0
 10
-7.2852755905511817
 20
5.1749448818897639
 30
0.0
 10
-7.6711692913385834
 20
5.1749448818897639
 30
0.0
 10
-7.6711692913385834
 20
5.1749448818897639
 30
0.0
 10
-7.6711692913385834
 20
5.1749448818897639
 30
0.0
 10
-7.4917283464566928
 20
5.4686929133858273
 30
0.0
 10
-7.3594724409448817
 20
5.8075787401574805
 30
0.0
 10
-7.2938937007874021
 20
6.1839763779527566
 30
0.0
 10
-7.2938937007874021
 20
6.1839763779527566
 30
0.0
 10
-7.2938937007874021
 20
6.1839763779527566
 30
0.0
 10
-6.3212559055118112
 20
6.2421338582677164
 30
0.0
 10
-6.3212559055118112
 20
6.2421338582677164
 30
0.0
 10
-6.3212559055118112
 20
6.2421338582677164
 30
0.0
 10
-6.2225984251968507
 20
6.2462795275590555
 30
0.0
 10
-6.1968149606299212
 20
6.196775590551181
 30
0.0
 10
-6.1975236220472443
 20
6.1287086614173232
 30
0.0
 10
-6.1975236220472443
 20
6.1287086614173232
 30
0.0
 10
-6.1975236220472443
 20
6.1287086614173232
 30
0.0
 10
-6.1975236220472443
 20
5.6523188976377954
 30
0.0
 10
-6.1975236220472443
 20
5.6523188976377954
 30
0.0
 10
-6.1975236220472443
 20
5.6523188976377954
 30
0.0
 10
-6.1975236220472443
 20
5.6523188976377954
 30
0.0
 10
-6.1975236220472443
 20
5.1749842519685041
 30
0.0
 10
-6.1975236220472443
 20
5.1749842519685041
 30
0.0
 10
-6.1975236220472443
 20
5.1749842519685041
 30
0.0
 10
-6.1975236220472443
 20
5.1749842519685041
 30
0.0
 10
-7.0352755905511817
 20
5.1749448818897639
 30
0.0
 10
-7.0352755905511817
 20
5.1749448818897639
 30
0.0
 10
-7.0352755905511817
 20
5.1749448818897639
 30
0.0
 10
-7.0352755905511817
 20
5.1749448818897639
 30
0.0
 10
-7.0352755905511817
 20
4.9003740157480316
 30
0.0
 10
-7.0352755905511817
 20
4.9003740157480316
 30
0.0
 10
-7.0352755905511817
 20
4.9003740157480316
 30
0.0
 10
-7.0352755905511817
 20
4.9003740157480316
 30
0.0
 10
-7.2852755905511817
 20
4.9003740157480316
 30
0.0
 10
-7.2852755905511817
 20
4.9003740157480316
 30
0.0
  0
SPLINE
  5
88
100
AcDbEntity
  8
Layer 1
370
    40
100
AcDbSpline
210
0.0
220
0.0
230
1.0
 70
     1
 71
     3
 72
    56
 73
    52
 74
     0
 42
0.0000000001
 43
0.0000000001
 40
0.0
 40
0.0
 40
0.0
 40
0.0
 40
0.0769230769230769
 40
0.0769230769230769
 40
0.0769230769230769
 40
0.0769230769230769
 40
0.1538461538461539
 40
0.1538461538461539
 40
0.1538461538461539
 40
0.1538461538461539
 40
0.2307692307692308
 40
0.2307692307692308
 40
0.2307692307692308
 40
0.2307692307692308
 40
0.3076923076923077
 40
0.3076923076923077
 40
0.3076923076923077
 40
0.3076923076923077
 40
0.3846153846153846
 40
0.3846153846153846
 40
0.3846153846153846
 40
0.3846153846153846
 40
0.4615384615384616
 40
0.4615384615384616
 40
0.4615384615384616
 40
0.4615384615384616
 40
0.5384615384615386
 40
0.5384615384615386
 40
0.5384615384615386
 40
0.5384615384615386
 40
0.6153846153846154
 40
0.6153846153846154
 40
0.6153846153846154
 40
0.6153846153846154
 40
0.6923076923076923
 40
0.6923076923076923
 40
0.6923076923076923
 40
0.6923076923076923
 40
0.7692307692307692
 40
0.7692307692307692
 40
0.7692307692307692
 40
0.7692307692307692
 40
0.846153846153846
 40
0.846153846153846
 40
0.846153846153846
 40
0.846153846153846
 40
0.9230769230769229
 40
0.9230769230769229
 40
0.9230769230769229
 40
0.9230769230769229
 40
1.0
 40
1.0
 40
1.0
 40
1.0
 10
-9.7526496062992134
 20
11.596976377952757
 30
0.0
 10
-9.7526496062992134
 20
11.596976377952757
 30
0.0
 10
-10.037996062992127
 20
11.596976377952757
 30
0.0
 10
-10.037996062992127
 20
11.596976377952757
 30
0.0
 10
-10.037996062992127
 20
11.596976377952757
 30
0.0
 10
-10.037996062992127
 20
11.596976377952757
 30
0.0
 10
-10.038051181102363
 20
11.212208661417323
 30
0.0
 10
-10.038051181102363
 20
11.212208661417323
 30
0.0
 10
-10.038051181102363
 20
11.212208661417323
 30
0.0
 10
-10.038051181102363
 20
11.212208661417323
 30
0.0
 10
-11.694874015748033
 20
11.212208661417323
 30
0.0
 10
-11.694874015748033
 20
11.212208661417323
 30
0.0
 10
-11.694874015748033
 20
11.212208661417323
 30
0.0
 10
-11.694874015748033
 20
11.212208661417323
 30
0.0
 10
-11.694874015748033
 20
11.500992125984252
 30
0.0
 10
-11.694874015748033
 20
11.500992125984252
 30
0.0
 10
-11.694874015748033
 20
11.500992125984252
 30
0.0
 10
-11.694874015748033
 20
11.500992125984252
 30
0.0
 10
-11.944874015748033
 20
11.500992125984252
 30
0.0
 10
-11.944874015748033
 20
11.500992125984252
 30
0.0
 10
-11.944874015748033
 20
11.500992125984252
 30
0.0
 10
-11.944874015748033
 20
11.500992125984252
 30
0.0
 10
-11.944874015748033
 20
11.750992125984252
 30
0.0
 10
-11.944874015748033
 20
11.750992125984252
 30
0.0
 10
-11.944874015748033
 20
11.750992125984252
 30
0.0
 10
-11.944874015748033
 20
11.750992125984252
 30
0.0
 10
-11.694874015748033
 20
11.750992125984252
 30
0.0
 10
-11.694874015748033
 20
11.750992125984252
 30
0.0
 10
-11.694874015748033
 20
11.750992125984252
 30
0.0
 10
-11.694874015748033
 20
11.750992125984252
 30
0.0
 10
-11.694874015748033
 20
12.039649606299212
 30
0.0
 10
-11.694874015748033
 20
12.039649606299212
 30
0.0
 10
-11.694874015748033
 20
12.039649606299212
 30
0.0
 10
-11.354716535433072
 20
12.04374409448819
 30
0.0
 10
-11.047641732283465
 20
12.0745
 30
0.0
 10
-10.772035433070867
 20
12.127767716535434
 30
0.0
 10
-10.772035433070867
 20
12.127767716535434
 30
0.0
 10
-10.496429133858268
 20
12.181035433070866
 30
0.0
 10
-10.252283464566929
 20
12.256814960629923
 30
0.0
 10
-10.037996062992127
 20
12.350952755905512
 30
0.0
 10
-10.037996062992127
 20
12.350952755905512
 30
0.0
 10
-10.037996062992127
 20
12.350952755905512
 30
0.0
 10
-10.037996062992127
 20
11.846976377952757
 30
0.0
 10
-10.037996062992127
 20
11.846976377952757
 30
0.0
 10
-10.037996062992127
 20
11.846976377952757
 30
0.0
 10
-10.037996062992127
 20
11.846976377952757
 30
0.0
 10
-9.7526496062992134
 20
11.846976377952757
 30
0.0
 10
-9.7526496062992134
 20
11.846976377952757
 30
0.0
 10
-9.7526496062992134
 20
11.846976377952757
 30
0.0
 10
-9.7526496062992134
 20
11.846976377952757
 30
0.0
 10
-9.7526496062992134
 20
11.596976377952757
 30
0.0
 10
-9.7526496062992134
 20
11.596976377952757
 30
0.0
  0
SPLINE
  5
89
100
AcDbEntity
  8
Layer 1
370
    40
100
AcDbSpline
210
0.0
220
0.0
230
1.0
 70
     1
 71
     3
 72
    56
 73
    52
 74
     0
 42
0.0000000001
 43
0.0000000001
 40
0.0
 40
0.0
 40
0.0
 40
0.0
 40
0.0769230769230769
 40
0.0769230769230769
 40
0.0769230769230769
 40
0.0769230769230769
 40
0.1538461538461539
 40
0.1538461538461539
 40
0.1538461538461539
 40
0.1538461538461539
 40
0.2307692307692308
 40
0.2307692307692308
 40
0.2307692307692308
 40
0.2307692307692308
 40
0.3076923076923077
 40
0.3076923076923077
 40
0.3076923076923077
 40
0.3076923076923077
 40
0.3846153846153846
 40
0.3846153846153846
 40
0.3846153846153846
 40
0.3846153846153846
 40
0.4615384615384616
 40
0.4615384615384616
 40
0.4615384615384616
 40
0.4615384615384616
 40
0.5384615384615386
 40
0.5384615384615386
 40
0.5384615384615386
 40
0.5384615384615386
 40
0.6153846153846154
 40
0.6153846153846154
 40
0.6153846153846154
 40
0.6153846153846154
 40
0.6923076923076923
 40
0.6923076923076923
 40
0.6923076923076923
 40
0.6923076923076923
 40
0.7692307692307692
 40
0.7692307692307692
 40
0.7692307692307692
 40
0.7692307692307692
 40
0.846153846153846
 40
0.846153846153846
 40
0.846153846153846
 40
0.846153846153846
 40
0.9230769230769229
 40
0.9230769230769229
 40
0.9230769230769229
 40
0.9230769230769229
 40
1.0
 40
1.0
 40
1.0
 40
1.0
 10
-12.256043307086614
 20
4.8861181102362208
 30
0.0
 10
-12.256043307086614
 20
4.8861181102362208
 30
0.0
 10
-12.256043307086614
 20
5.1714645669291341
 30
0.0
 10
-12.256043307086614
 20
5.1714645669291341
 30
0.0
 10
-12.256043307086614
 20
5.1714645669291341
 30
0.0
 10
-12.256043307086614
 20
5.1714645669291341
 30
0.0
 10
-12.640811023622048
 20
5.1715196850393701
 30
0.0
 10
-12.640811023622048
 20
5.1715196850393701
 30
0.0
 10
-12.640811023622048
 20
5.1715196850393701
 30
0.0
 10
-12.640811023622048
 20
5.1715196850393701
 30
0.0
 10
-12.640811023622048
 20
6.82834251968504
 30
0.0
 10
-12.640811023622048
 20
6.82834251968504
 30
0.0
 10
-12.640811023622048
 20
6.82834251968504
 30
0.0
 10
-12.640811023622048
 20
6.82834251968504
 30
0.0
 10
-12.352027559055118
 20
6.82834251968504
 30
0.0
 10
-12.352027559055118
 20
6.82834251968504
 30
0.0
 10
-12.352027559055118
 20
6.82834251968504
 30
0.0
 10
-12.352027559055118
 20
6.82834251968504
 30
0.0
 10
-12.352027559055118
 20
7.07834251968504
 30
0.0
 10
-12.352027559055118
 20
7.07834251968504
 30
0.0
 10
-12.352027559055118
 20
7.07834251968504
 30
0.0
 10
-12.352027559055118
 20
7.07834251968504
 30
0.0
 10
-12.102027559055118
 20
7.07834251968504
 30
0.0
 10
-12.102027559055118
 20
7.07834251968504
 30
0.0
 10
-12.102027559055118
 20
7.07834251968504
 30
0.0
 10
-12.102027559055118
 20
7.07834251968504
 30
0.0
 10
-12.102027559055118
 20
6.82834251968504
 30
0.0
 10
-12.102027559055118
 20
6.82834251968504
 30
0.0
 10
-12.102027559055118
 20
6.82834251968504
 30
0.0
 10
-12.102027559055118
 20
6.82834251968504
 30
0.0
 10
-11.813370078740158
 20
6.82834251968504
 30
0.0
 10
-11.813370078740158
 20
6.82834251968504
 30
0.0
 10
-11.813370078740158
 20
6.82834251968504
 30
0.0
 10
-11.809275590551181
 20
6.4881850393700793
 30
0.0
 10
-11.77851968503937
 20
6.1811102362204728
 30
0.0
 10
-11.725251968503937
 20
5.9055039370078743
 30
0.0
 10
-11.725251968503937
 20
5.9055039370078743
 30
0.0
 10
-11.671984251968505
 20
5.6298976377952759
 30
0.0
 10
-11.59620472440945
 20
5.3857519685039374
 30
0.0
 10
-11.502066929133859
 20
5.1714645669291341
 30
0.0
 10
-11.502066929133859
 20
5.1714645669291341
 30
0.0
 10
-11.502066929133859
 20
5.1714645669291341
 30
0.0
 10
-12.006043307086614
 20
5.1714645669291341
 30
0.0
 10
-12.006043307086614
 20
5.1714645669291341
 30
0.0
 10
-12.006043307086614
 20
5.1714645669291341
 30
0.0
 10
-12.006043307086614
 20
5.1714645669291341
 30
0.0
 10
-12.006043307086614
 20
4.8861181102362208
 30
0.0
 10
-12.006043307086614
 20
4.8861181102362208
 30
0.0
 10
-12.006043307086614
 20
4.8861181102362208
 30
0.0
 10
-12.006043307086614
 20
4.8861181102362208
 30
0.0
 10
-12.256043307086614
 20
4.8861181102362208
 30
0.0
 10
-12.256043307086614
 20
4.8861181102362208
 30
0.0
  0
SPLINE
  5
8A
100
AcDbEntity
  8
Layer 1
370
    40
100
AcDbSpline
210
0.0
220
0.0
230
1.0
 70
     0
 71
     3
 72
    40
 73
    36
 74
     0
 42
0.0000000001
 43
0.0000000001
 40
0.0
 40
0.0
 40
0.0
 40
0.0
 40
0.1111111111111111
 40
0.1111111111111111
 40
0.1111111111111111
 40
0.1111111111111111
 40
0.2222222222222222
 40
0.2222222222222222
 40
0.2222222222222222
 40
0.2222222222222222
 40
0.3333333333333333
 40
0.3333333333333333
 40
0.3333333333333333
 40
0.3333333333333333
 40
0.4444444444444444
 40
0.4444444444444444
 40
0.4444444444444444
 40
0.4444444444444444
 40
0.5555555555555556
 40
0.5555555555555556
 40
0.5555555555555556
 40
0.5555555555555556
 40
0.6666666666666667
 40
0.6666666666666667
 40
0.6666666666666667
 40
0.6666666666666667
 40
0.7777777777777779
 40
0.7777777777777779
 40
0.7777777777777779
 40
0.7777777777777779
 40
0.8888888888888891
 40
0.8888888888888891
 40
0.8888888888888891
 40
0.8888888888888891
 40
1.0
 40
1.0
 40
1.0
 40
1.0
 10
-11.203122047244095
 20
10.415799212598426
 30
0.0
 10
-10.404511811023623
 20
8.5978700787401579
 30
0.0
 10
-8.2844330708661413
 20
8.9277834645669287
 30
0.0
 10
-7.3754015748031501
 20
10.415897637795275
 30
0.0
 10
-7.3754015748031501
 20
10.415897637795275
 30
0.0
 10
-7.3754015748031501
 20
10.415897637795275
 30
0.0
 10
-7.0003188976377952
 20
10.415937007874016
 30
0.0
 10
-7.0003188976377952
 20
10.415937007874016
 30
0.0
 10
-7.0003188976377952
 20
10.415937007874016
 30
0.0
 10
-7.0003188976377952
 20
10.415937007874016
 30
0.0
 10
-7.0003188976377952
 20
10.115937007874017
 30
0.0
 10
-7.0003188976377952
 20
10.115937007874017
 30
0.0
 10
-7.0003188976377952
 20
10.115937007874017
 30
0.0
 10
-7.0003188976377952
 20
10.115937007874017
 30
0.0
 10
-6.7303188976377957
 20
10.115937007874017
 30
0.0
 10
-6.7303188976377957
 20
10.115937007874017
 30
0.0
 10
-6.7303188976377957
 20
10.115937007874017
 30
0.0
 10
-6.7303188976377957
 20
10.115937007874017
 30
0.0
 10
-6.7303188976377957
 20
10.415937007874016
 30
0.0
 10
-6.7303188976377957
 20
10.415937007874016
 30
0.0
 10
-6.7303188976377957
 20
10.415937007874016
 30
0.0
 10
-6.7303188976377957
 20
10.415937007874016
 30
0.0
 10
-5.901755905511811
 20
10.415937007874016
 30
0.0
 10
-5.901755905511811
 20
10.415937007874016
 30
0.0
 10
-5.901755905511811
 20
10.415937007874016
 30
0.0
 10
-5.901755905511811
 20
10.415937007874016
 30
0.0
 10
-5.901755905511811
 20
7.6505511811023625
 30
0.0
 10
-5.901755905511811
 20
7.6505511811023625
 30
0.0
 10
-5.901755905511811
 20
7.6505511811023625
 30
0.0
 10
-5.901755905511811
 20
7.6505511811023625
 30
0.0
 10
-12.341866141732284
 20
7.6505511811023625
 30
0.0
 10
-12.341866141732284
 20
7.6505511811023625
 30
0.0
 10
-12.341866141732284
 20
7.6505511811023625
 30
0.0
 10
-12.341866141732284
 20
7.6505511811023625
 30
0.0
 10
-12.341866141732284
 20
9.8428897637795281
 30
0.0
 10
-12.341866141732284
 20
9.8428897637795281
 30
0.0
  0
SPLINE
  5
8B
100
AcDbEntity
  8
Layer 1
370
    40
100
AcDbSpline
210
0.0
220
0.0
230
1.0
 70
     0
 71
     3
 72
    28
 73
    24
 74
     0
 42
0.0000000001
 43
0.0000000001
 40
0.0
 40
0.0
 40
0.0
 40
0.0
 40
0.1666666666666667
 40
0.1666666666666667
 40
0.1666666666666667
 40
0.1666666666666667
 40
0.3333333333333333
 40
0.3333333333333333
 40
0.3333333333333333
 40
0.3333333333333333
 40
0.5
 40
0.5
 40
0.5
 40
0.5
 40
0.6666666666666666
 40
0.6666666666666666
 40
0.6666666666666666
 40
0.6666666666666666
 40
0.8333333333333333
 40
0.8333333333333333
 40
0.8333333333333333
 40
0.8333333333333333
 40
1.0
 40
1.0
 40
1.0
 40
1.0
 10
-12.341866141732284
 20
9.8428897637795281
 30
0.0
 10
-12.341866141732284
 20
9.8428897637795281
 30
0.0
 10
-12.341866141732284
 20
10.415854330708662
 30
0.0
 10
-12.341866141732284
 20
10.415854330708662
 30
0.0
 10
-12.341866141732284
 20
10.415854330708662
 30
0.0
 10
-12.341866141732284
 20
10.415854330708662
 30
0.0
 10
-11.966846456692913
 20
10.415937007874016
 30
0.0
 10
-11.966846456692913
 20
10.415937007874016
 30
0.0
 10
-11.966846456692913
 20
10.415937007874016
 30
0.0
 10
-11.966846456692913
 20
10.415937007874016
 30
0.0
 10
-11.966846456692913
 20
10.115937007874017
 30
0.0
 10
-11.966846456692913
 20
10.115937007874017
 30
0.0
 10
-11.966846456692913
 20
10.115937007874017
 30
0.0
 10
-11.966846456692913
 20
10.115937007874017
 30
0.0
 10
-11.696846456692914
 20
10.115937007874017
 30
0.0
 10
-11.696846456692914
 20
10.115937007874017
 30
0.0
 10
-11.696846456692914
 20
10.115937007874017
 30
0.0
 10
-11.696846456692914
 20
10.115937007874017
 30
0.0
 10
-11.696846456692914
 20
10.415937007874016
 30
0.0
 10
-11.696846456692914
 20
10.415937007874016
 30
0.0
 10
-11.696846456692914
 20
10.415937007874016
 30
0.0
 10
-11.696846456692914
 20
10.415937007874016
 30
0.0
 10
-11.203122047244095
 20
10.415799212598426
 30
0.0
 10
-11.203122047244095
 20
10.415799212598426
 30
0.0
  0
SPLINE
  5
8C
100
AcDbEntity
  8
Layer 1
370
    40
100
AcDbSpline
210
0.0
220
0.0
230
1.0
 70
     0
 71
     3
 72
    40
 73
    36
 74
     0
 42
0.0000000001
 43
0.0000000001
 40
0.0
 40
0.0
 40
0.0
 40
0.0
 40
0.1111111111111111
 40
0.1111111111111111
 40
0.1111111111111111
 40
0.1111111111111111
 40
0.2222222222222222
 40
0.2222222222222222
 40
0.2222222222222222
 40
0.2222222222222222
 40
0.3333333333333333
 40
0.3333333333333333
 40
0.3333333333333333
 40
0.3333333333333333
 40
0.4444444444444444
 40
0.4444444444444444
 40
0.4444444444444444
 40
0.4444444444444444
 40
0.5555555555555556
 40
0.5555555555555556
 40
0.5555555555555556
 40
0.5555555555555556
 40
0.6666666666666667
 40
0.6666666666666667
 40
0.6666666666666667
 40
0.6666666666666667
 40
0.7777777777777779
 40
0.7777777777777779
 40
0.7777777777777779
 40
0.7777777777777779
 40
0.8888888888888891
 40
0.8888888888888891
 40
0.8888888888888891
 40
0.8888888888888891
 40
1.0
 40
1.0
 40
1.0
 40
1.0
 10
-11.502066929133859
 20
5.1693543307086616
 30
0.0
 10
-10.703456692913386
 20
3.3514251968503936
 30
0.0
 10
-8.5833779527559066
 20
3.6813385826771654
 30
0.0
 10
-7.6743464566929136
 20
5.1694527559055121
 30
0.0
 10
-7.6743464566929136
 20
5.1694527559055121
 30
0.0
 10
-7.6743464566929136
 20
5.1694527559055121
 30
0.0
 10
-7.2992637795275597
 20
5.1694921259842523
 30
0.0
 10
-7.2992637795275597
 20
5.1694921259842523
 30
0.0
 10
-7.2992637795275597
 20
5.1694921259842523
 30
0.0
 10
-7.2992637795275597
 20
5.1694921259842523
 30
0.0
 10
-7.2992637795275597
 20
4.8694921259842525
 30
0.0
 10
-7.2992637795275597
 20
4.8694921259842525
 30
0.0
 10
-7.2992637795275597
 20
4.8694921259842525
 30
0.0
 10
-7.2992637795275597
 20
4.8694921259842525
 30
0.0
 10
-7.0292637795275592
 20
4.8694921259842525
 30
0.0
 10
-7.0292637795275592
 20
4.8694921259842525
 30
0.0
 10
-7.0292637795275592
 20
4.8694921259842525
 30
0.0
 10
-7.0292637795275592
 20
4.8694921259842525
 30
0.0
 10
-7.0292637795275592
 20
5.1694921259842523
 30
0.0
 10
-7.0292637795275592
 20
5.1694921259842523
 30
0.0
 10
-7.0292637795275592
 20
5.1694921259842523
 30
0.0
 10
-7.0292637795275592
 20
5.1694921259842523
 30
0.0
 10
-6.2007007874015754
 20
5.1694921259842523
 30
0.0
 10
-6.2007007874015754
 20
5.1694921259842523
 30
0.0
 10
-6.2007007874015754
 20
5.1694921259842523
 30
0.0
 10
-6.2007007874015754
 20
5.1694921259842523
 30
0.0
 10
-6.2007007874015754
 20
2.4041062992125983
 30
0.0
 10
-6.2007007874015754
 20
2.4041062992125983
 30
0.0
 10
-6.2007007874015754
 20
2.4041062992125983
 30
0.0
 10
-6.2007007874015754
 20
2.4041062992125983
 30
0.0
 10
-12.640811023622048
 20
2.4041062992125983
 30
0.0
 10
-12.640811023622048
 20
2.4041062992125983
 30
0.0
 10
-12.640811023622048
 20
2.4041062992125983
 30
0.0
 10
-12.640811023622048
 20
2.4041062992125983
 30
0.0
 10
-12.640811023622048
 20
4.5964448818897639
 30
0.0
 10
-12.640811023622048
 20
4.5964448818897639
 30
0.0
  0
SPLINE
  5
8D
100
AcDbEntity
  8
Layer 1
370
    40
100
AcDbSpline
210
0.0
220
0.0
230
1.0
 70
     0
 71
     3
 72
    28
 73
    24
 74
     0
 42
0.0000000001
 43
0.0000000001
 40
0.0
 40
0.0
 40
0.0
 40
0.0
 40
0.1666666666666667
 40
0.1666666666666667
 40
0.1666666666666667
 40
0.1666666666666667
 40
0.3333333333333333
 40
0.3333333333333333
 40
0.3333333333333333
 40
0.3333333333333333
 40
0.5
 40
0.5
 40
0.5
 40
0.5
 40
0.6666666666666666
 40
0.6666666666666666
 40
0.6666666666666666
 40
0.6666666666666666
 40
0.8333333333333333
 40
0.8333333333333333
 40
0.8333333333333333
 40
0.8333333333333333
 40
1.0
 40
1.0
 40
1.0
 40
1.0
 10
-12.640811023622048
 20
4.5964448818897639
 30
0.0
 10
-12.640811023622048
 20
4.5964448818897639
 30
0.0
 10
-12.640811023622048
 20
5.1694094488188975
 30
0.0
 10
-12.640811023622048
 20
5.1694094488188975
 30
0.0
 10
-12.640811023622048
 20
5.1694094488188975
 30
0.0
 10
-12.640811023622048
 20
5.1694094488188975
 30
0.0
 10
-12.265791338582678
 20
5.1694921259842523
 30
0.0
 10
-12.265791338582678
 20
5.1694921259842523
 30
0.0
 10
-12.265791338582678
 20
5.1694921259842523
 30
0.0
 10
-12.265791338582678
 20
5.1694921259842523
 30
0.0
 10
-12.265791338582678
 20
4.8694921259842525
 30
0.0
 10
-12.265791338582678
 20
4.8694921259842525
 30
0.0
 10
-12.265791338582678
 20
4.8694921259842525
 30
0.0
 10
-12.265791338582678
 20
4.8694921259842525
 30
0.0
 10
-11.995791338582677
 20
4.8694921259842525
 30
0.0
 10
-11.995791338582677
 20
4.8694921259842525
 30
0.0
 10
-11.995791338582677
 20
4.8694921259842525
 30
0.0
 10
-11.995791338582677
 20
4.8694921259842525
 30
0.0
 10
-11.995791338582677
 20
5.1694921259842523
 30
0.0
 10
-11.995791338582677
 20
5.1694921259842523
 30
0.0
 10
-11.995791338582677
 20
5.1694921259842523
 30
0.0
 10
-11.995791338582677
 20
5.1694921259842523
 30
0.0
 10
-11.502066929133859
 20
5.1693543307086616
 30
0.0
 10
-11.502066929133859
 20
5.1693543307086616
 30
0.0
  0
TEXT
  5
8E
100
AcDbEntity
  8
Layer 1
100
AcDbText
 10
-9.531748
 20
3.069146
 30
0.0
 40
0.119999
  1
Glue Up
 51
-0.000002
  7
Bookman Old Style
100
AcDbText
  0
TEXT
  5
8F
100
AcDbEntity
  8
Layer 1
100
AcDbText
 10
-3.070854
 20
-5.329339
 30
0.0
 40
0.119999
  1
SawCut
 51
-0.000002
  7
Bookman Old Style
100
AcDbText
  0
TEXT
  5
90
100
AcDbEntity
  8
Layer 1
100
AcDbText
 10
-0.847209
 20
-2.363244
 30
0.0
 40
0.119999
  1
BA  1537A, B, C & D
 51
-0.000002
  7
Bookman Old Style
100
AcDbText
  0
TEXT
  5
91
100
AcDbEntity
  8
Layer 1
100
AcDbText
 10
-0.847209
 20
-2.550744
 30
0.0
 40
0.119999
  1
4-11/16\u+201d x 6-7/16\u+201d
 51
-0.000002
  7
Bookman Old Style
100
AcDbText
  0
TEXT
  5
92
100
AcDbEntity
  8
Layer 1
100
AcDbText
 10
-0.847209
 20
-2.925744
 30
0.0
 40
0.119999
  1
BA 221B & C  
 51
-0.000002
  7
Bookman Old Style
100
AcDbText
  0
ENDSEC
  0
SECTION
  2
OBJECTS
  0
DICTIONARY
  5
19
100
AcDbDictionary
280
     0
281
     1
  3
ACAD_GROUP
350
1A
  3
ACAD_MLINESTYLE
350
1B
  3
ACAD_LAYOUT
350
1E
  3
ACAD_PLOTSETTINGS
350
22
  3
ACAD_PLOTSTYLENAME
350
1F
  3
ACAD_WIPEOUT_VARS
350
23
  0
DICTIONARY
  5
1A
102
{ACAD_REACTORS
330
19
102
}
100
AcDbDictionary
280
     0
281
     1
  0
DICTIONARY
  5
1B
102
{ACAD_REACTORS
330
19
102
}
100
AcDbDictionary
280
     0
281
     1
  3
Standard
350
1C
  0
MLINESTYLE
  5
1C
102
{ACAD_REACTORS
330
1B
102
}
100
AcDbMlineStyle
  2
Standard
 70
     0
  3

 62
     0
 51
90.0
 52
90.0
 71
     2
 49
0.5
 62
   256
  6
BYLAYER
 49
-0.5
 62
   256
  6
BYLAYER
  0
ACDBDICTIONARYWDFLT
  5
1F
102
{ACAD_REACTORS
330
19
102
}
100
AcDbDictionary
281
     1
  3
Normal
350
1D
100
AcDbDictionaryWithDefault
340
1D
  0
ACDBPLACEHOLDER
  5
1D
102
{ACAD_REACTORS
330
1F
102
}
  0
LAYOUT
  5
20
102
{ACAD_REACTORS
330
1E
102
}
100
AcDbPlotSettings
  1

  2

  4

  6

 40
0.0
 41
0.0
 42
0.0
 43
0.0
 44
0.0
 45
0.0
 46
0.0
 47
0.0
 48
0.0
 49
0.0
140
0.0
141
0.0
142
1.0
143
1.0
 70
  1024
 72
     0
 73
     0
 74
     0
  7

 75
     0
147
1.0
148
0.0
149
0.0
100
AcDbLayout
  1
Model
 70
     0
 71
     0
 10
0.0
 20
0.0
 11
0.0
 21
0.0
 12
0.0
 22
0.0
 32
0.0
 14
0.0
 24
0.0
 34
0.0
 15
0.0
 25
0.0
 35
0.0
146
0.0
 13
0.0
 23
0.0
 33
0.0
 16
0.0
 26
0.0
 36
0.0
 17
0.0
 27
0.0
 37
0.0
 76
     0
330
A
331
0
345
0
346
0
  0
LAYOUT
  5
21
102
{ACAD_REACTORS
330
1E
102
}
100
AcDbPlotSettings
  1

  2

  4

  6

 40
0.0
 41
0.0
 42
0.0
 43
0.0
 44
0.0
 45
0.0
 46
0.0
 47
0.0
 48
0.0
 49
0.0
140
0.0
141
0.0
142
1.0
143
1.0
 70
     0
 72
     0
 73
     0
 74
     0
  7

 75
     0
147
1.0
148
0.0
149
0.0
100
AcDbLayout
  1
Layout1
 70
     0
 71
     0
 10
0.0
 20
0.0
 11
0.0
 21
0.0
 12
0.0
 22
0.0
 32
0.0
 14
0.0
 24
0.0
 34
0.0
 15
0.0
 25
0.0
 35
0.0
146
0.0
 13
0.0
 23
0.0
 33
0.0
 16
0.0
 26
0.0
 36
0.0
 17
0.0
 27
0.0
 37
0.0
 76
     0
330
B
331
0
345
0
346
0
  0
DICTIONARY
  5
1E
102
{ACAD_REACTORS
330
19
102
}
100
AcDbDictionary
280
     0
281
     1
  3
Layout1
350
21
  3
Model
350
20
  0
DICTIONARY
  5
22
102
{ACAD_REACTORS
330
19
102
}
100
AcDbDictionary
280
     0
281
     1
  0
WIPEOUTVARIABLES
  5
23
100
AcDbWipeoutVariables
 70
     1
  0
ENDSEC
  0
EOF
