  0
SECTION
  2
HEADER
  9
$ACADVER
  1
AC1015
  9
$ACADMAINTVER
 70
     6
  9
$DWGCODEPAGE
  3
DOS850
  9
$INSBASE
 10
0.0
 20
0.0
 30
0.0
  9
$EXTMIN
 10
-0.427362
 20
0.090512
 30
1.000000E+20
  9
$EXTMAX
 10
1.090626
 20
3.589205
 30
-1.000000E+20
  9
$LIMMIN
 10
0.0
 20
0.0
  9
$LIMMAX
 10
0.0
 20
0.0
  9
$ORTHOMODE
 70
     0
  9
$REGENMODE
 70
     1
  9
$FILLMODE
 70
     1
  9
$QTEXTMODE
 70
     0
  9
$MIRRTEXT
 70
     1
  9
$LTSCALE
 40
1.0
  9
$ATTMODE
 70
     1
  9
$TEXTSIZE
 40
0.2
  9
$TRACEWID
 40
0.05
  9
$TEXTSTYLE
  7
Standard
  9
$CLAYER
  8
0
  9
$CELTYPE
  6
Continuous
  9
$CECOLOR
 62
   256
  9
$CELTSCALE
 40
1.0
  9
$DISPSILH
 70
     0
  9
$DIMSCALE
 40
1.0
  9
$DIMASZ
 40
0.18
  9
$DIMEXO
 40
0.0625
  9
$DIMDLI
 40
0.38
  9
$DIMRND
 40
0.0
  9
$DIMDLE
 40
0.0
  9
$DIMEXE
 40
0.18
  9
$DIMTP
 40
0.0
  9
$DIMTM
 40
0.0
  9
$DIMTXT
 40
0.18
  9
$DIMCEN
 40
0.09
  9
$DIMTSZ
 40
0.0
  9
$DIMTOL
 70
     0
  9
$DIMLIM
 70
     0
  9
$DIMTIH
 70
     1
  9
$DIMTOH
 70
     1
  9
$DIMSE1
 70
     0
  9
$DIMSE2
 70
     0
  9
$DIMTAD
 70
     0
  9
$DIMZIN
 70
     0
  9
$DIMBLK
  1

  9
$DIMASO
 70
     1
  9
$DIMSHO
 70
     1
  9
$DIMPOST
  1

  9
$DIMAPOST
  1

  9
$DIMALT
 70
     0
  9
$DIMALTD
 70
     2
  9
$DIMALTF
 40
25.4
  9
$DIMLFAC
 40
1.0
  9
$DIMTOFL
 70
     0
  9
$DIMTVP
 40
0.0
  9
$DIMTIX
 70
     0
  9
$DIMSOXD
 70
     0
  9
$DIMSAH
 70
     0
  9
$DIMBLK1
  1

  9
$DIMBLK2
  1

  9
$DIMSTYLE
  2
Standard
  9
$DIMCLRD
 70
     0
  9
$DIMCLRE
 70
     0
  9
$DIMCLRT
 70
     0
  9
$DIMTFAC
 40
1.0
  9
$DIMGAP
 40
0.09
  9
$DIMJUST
 70
     0
  9
$DIMSD1
 70
     0
  9
$DIMSD2
 70
     0
  9
$DIMTOLJ
 70
     1
  9
$DIMTZIN
 70
     0
  9
$DIMALTZ
 70
     0
  9
$DIMALTTZ
 70
     0
  9
$DIMUPT
 70
     0
  9
$DIMDEC
 70
     4
  9
$DIMTDEC
 70
     4
  9
$DIMALTU
 70
     2
  9
$DIMALTTD
 70
     2
  9
$DIMTXSTY
  7
Standard
  9
$DIMAUNIT
 70
     0
  9
$DIMADEC
 70
     0
  9
$DIMALTRND
 40
0.0
  9
$DIMAZIN
 70
     0
  9
$DIMDSEP
 70
     0
  9
$DIMATFIT
 70
     3
  9
$DIMFRAC
 70
     0
  9
$DIMLDRBLK
  1

  9
$DIMLUNIT
 70
     2
  9
$DIMLWD
 70
     0
  9
$DIMLWE
 70
     0
  9
$DIMTMOVE
 70
     0
  9
$LUNITS
 70
     2
  9
$LUPREC
 70
     4
  9
$SKETCHINC
 40
0.1
  9
$FILLETRAD
 40
0.0
  9
$AUNITS
 70
     0
  9
$AUPREC
 70
     0
  9
$MENU
  1
acad
  9
$ELEVATION
 40
0.0
  9
$PELEVATION
 40
0.0
  9
$THICKNESS
 40
0.0
  9
$LIMCHECK
 70
     0
  9
$CHAMFERA
 40
0.0
  9
$CHAMFERB
 40
0.0
  9
$CHAMFERC
 40
0.0
  9
$CHAMFERD
 40
0.0
  9
$SKPOLY
 70
     0
  9
$TDCREATE
 40
0.000000000
  9
$TDUCREATE
 40
0.000000000
  9
$TDUPDATE
 40
0.000000000
  9
$TDUUPDATE
 40
0.000000000
  9
$TDINDWG
 40
0.0000000000
  9
$TDUSRTIMER
 40
0.0000000000
  9
$USRTIMER
 70
     1
  9
$ANGBASE
 50
0.0
  9
$ANGDIR
 70
     0
  9
$PDMODE
 70
     0
  9
$PDSIZE
 40
0.0
  9
$PLINEWID
 40
0.0
  9
$SPLFRAME
 70
     0
  9
$SPLINETYPE
 70
     6
  9
$SPLINESEGS
 70
     8
  9
$HANDSEED
  5
6C
  9
$SURFTAB1
 70
     6
  9
$SURFTAB2
 70
     6
  9
$SURFTYPE
 70
     6
  9
$SURFU
 70
     6
  9
$SURFV
 70
     6
  9
$UCSBASE
  2

  9
$UCSNAME
  2

  9
$UCSORG
 10
0.0
 20
0.0
 30
0.0
  9
$UCSXDIR
 10
1.0
 20
0.0
 30
0.0
  9
$UCSYDIR
 10
0.0
 20
1.0
 30
0.0
  9
$UCSORTHOREF
  2

  9
$UCSORTHOVIEW
 70
     0
  9
$UCSORGTOP
 10
0.0
 20
0.0
 30
0.0
  9
$UCSORGBOTTOM
 10
0.0
 20
0.0
 30
0.0
  9
$UCSORGLEFT
 10
0.0
 20
0.0
 30
0.0
  9
$UCSORGRIGHT
 10
0.0
 20
0.0
 30
0.0
  9
$UCSORGFRONT
 10
0.0
 20
0.0
 30
0.0
  9
$UCSORGBACK
 10
0.0
 20
0.0
 30
0.0
  9
$PUCSBASE
  2

  9
$PUCSNAME
  2

  9
$PUCSORG
 10
0.0
 20
0.0
 30
0.0
  9
$PUCSXDIR
 10
1.0
 20
0.0
 30
0.0
  9
$PUCSYDIR
 10
0.0
 20
1.0
 30
0.0
  9
$PUCSORTHOREF
  2

  9
$PUCSORTHOVIEW
 70
     0
  9
$PUCSORGTOP
 10
0.0
 20
0.0
 30
0.0
  9
$PUCSORGBOTTOM
 10
0.0
 20
0.0
 30
0.0
  9
$PUCSORGLEFT
 10
0.0
 20
0.0
 30
0.0
  9
$PUCSORGRIGHT
 10
0.0
 20
0.0
 30
0.0
  9
$PUCSORGFRONT
 10
0.0
 20
0.0
 30
0.0
  9
$PUCSORGBACK
 10
0.0
 20
0.0
 30
0.0
  9
$USERI1
 70
     0
  9
$USERI2
 70
     0
  9
$USERI3
 70
     0
  9
$USERI4
 70
     0
  9
$USERI5
 70
     0
  9
$USERR1
 40
0.0
  9
$USERR2
 40
0.0
  9
$USERR3
 40
0.0
  9
$USERR4
 40
0.0
  9
$USERR5
 40
0.0
  9
$WORLDVIEW
 70
     1
  9
$SHADEDGE
 70
     3
  9
$SHADEDIF
 70
    70
  9
$TILEMODE
 70
     1
  9
$MAXACTVP
 70
    16
  9
$PINSBASE
 10
0.0
 20
0.0
 30
0.0
  9
$PLIMCHECK
 70
     0
  9
$PEXTMIN
 10
1.000000E+20
 20
1.000000E+20
 30
1.000000E+20
  9
$PEXTMAX
 10
-1.000000E+20
 20
-1.000000E+20
 30
-1.000000E+20
  9
$PLIMMIN
 10
0.0
 20
0.0
  9
$PLIMMAX
 10
12.0
 20
9.0
  9
$UNITMODE
 70
     0
  9
$VISRETAIN
 70
     0
  9
$PLINEGEN
 70
     1
  9
$PSLTSCALE
 70
     0
  9
$TREEDEPTH
 70
  3020
  9
$CMLSTYLE
  2
Standard
  9
$CMLJUST
 70
     0
  9
$CMLSCALE
 40
1.0
  9
$PROXYGRAPHICS
 70
     0
  9
$MEASUREMENT
 70
     0
  9
$CELWEIGHT
370
     0
  9
$ENDCAPS
280
     0
  9
$JOINSTYLE
280
     0
  9
$LWDISPLAY
290
     0
  9
$INSUNITS
 70
     1
  9
$HYPERLINKBASE
  1

  9
$XEDIT
290
     1
  9
$CEPSNTYPE
380
     0
  9
$PSTYLEMODE
290
     1
  9
$FINGERPRINTGUID
  2

  9
$VERSIONGUID
  2

  9
$EXTNAMES
290
     1
  9
$PSVPSCALE
 40
0.0
  0
ENDSEC
  0
SECTION
  2
CLASSES
  0
CLASS
  1
LWPOLYLINE
  2
AcDbPolyline
  3
AutoCAD 2000
 90
    32768
280
     0
281
     1
  0
CLASS
  1
IMAGE
  2
AcDbRasterImage
  3
ISM
 90
    32895
280
     0
281
     1
  0
CLASS
  1
OLE2FRAME
  2
AcDbOle2Frame
  3
AutoCAD 2000
 90
    32768
280
     0
281
     1
  0
CLASS
  1
HATCH
  2
AcDbHatch
  3
AutoCAD 2000
 90
    32768
280
     0
281
     1
  0
CLASS
  1
DICTIONARYVAR
  2
AcDbDictionaryVar
  3
AutoCAD 2000
 90
    32768
280
     0
281
     0
  0
CLASS
  1
RASTERVARIABLES
  2
AcDbRasterVariables
  3
ISM
 90
    32768
280
     0
281
     0
  0
CLASS
  1
IMAGEDEF
  2
AcDbRasterImageDef
  3
ISM
 90
    32768
280
     0
281
     0
  0
CLASS
  1
IMAGEDEF_REACTOR
  2
AcDbRasterImageDefReactor
  3
ISM
 90
    32769
280
     0
281
     0
  0
CLASS
  1
IDBUFFER
  2
AcDbIdBuffer
  3
AutoCAD 2000
 90
    32768
280
     0
281
     0
  0
CLASS
  1
SPATIAL_FILTER
  2
AcDbSpatialFilter
  3
AutoCAD 2000
 90
    32768
280
     0
281
     0
  0
CLASS
  1
XRECORD
  2
AcDbXrecord
  3
AutoCAD 2000
 90
    32768
280
     0
281
     0
  0
CLASS
  1
SORTENTSTABLE
  2
AcDbSortentsTable
  3
AutoCAD 2000
 90
    32768
280
     0
281
     0
  0
CLASS
  1
LAYER_INDEX
  2
AcDbLayerIndex
  3
AutoCAD 2000
 90
    32768
280
     0
281
     0
  0
CLASS
  1
SPATIAL_INDEX
  2
AcDbSpatialIndex
  3
AutoCAD 2000
 90
    32768
280
     0
281
     0
  0
CLASS
  1
OBJECT_PTR
  2
CAseDLPNTableRecord
  3
"ASE-LPNTableRecord"
 90
    32769
280
     0
281
     0
  0
CLASS
  1
LAYOUT
  2
AcDbLayout
  3
AutoCAD 2000
 90
        0
280
     0
281
     0
  0
CLASS
  1
PLOTSETTINGS
  2
AcDbPlotSettings
  3
AutoCAD 2000
 90
    32768
280
     0
281
     0
  0
CLASS
  1
ACDBDICTIONARYWDFLT
  2
AcDbDictionaryWithDefault
  3
AutoCAD 2000
 90
        0
280
     0
281
     0
  0
CLASS
  1
ACDBPLACEHOLDER
  2
AcDbPlaceHolder
  3
AutoCAD 2000
 90
        0
280
     0
281
     0
  0
CLASS
  1
VBA_PROJECT
  2
AcDbVbaProject
  3
acadvba
 90
    32768
280
     0
281
     0
  0
CLASS
  1
WIPEOUT
  2
AcDbWipeout
  3
WipeOut|AutoCAD Express Tool|expresstools@autodesk.com
 90
    32895
280
     0
281
     1
  0
CLASS
  1
WIPEOUTVARIABLES
  2
AcDbWipeoutVariables
  3
WipeOut|AutoCAD Express Tool|expresstools@autodesk.com
 90
        0
280
     0
281
     0
  0
CLASS
  1
RTEXT
  2
RText
  3
RText|AutoCAD Express Tool|expresstools@autodesk.com
 90
    32768
280
     0
281
     1
  0
CLASS
  1
ARCALIGNEDTEXT
  2
AcDbArcAlignedText
  3
ATEXT|AutoCAD Express Tool|expresstools@autodesk.com
 90
    32768
280
     0
281
     1
  0
ENDSEC
  0
SECTION
  2
TABLES
  0
TABLE
  2
VPORT
  5
7
100
AcDbSymbolTable
 70
     1
  0
VPORT
  5
15
100
AcDbSymbolTableRecord
100
AcDbViewportTableRecord
  2
*ACTIVE
 70
     0
 10
0.0
 20
0.0
 11
1.0
 21
1.0
 12
6.591288
 22
4.579184
 13
0.0
 23
0.0
 14
1.0
 24
1.0
 15
0.0
 25
0.0
 16
0.0
 26
0.0
 36
1.0
 17
0.0
 27
0.0
 37
0.0
 40
9.158369
 41
0.688564
 42
50.0
 43
0.0
 44
0.0
 50
0.0
 51
0.0
 71
     0
 72
   100
 73
     1
 74
     1
 75
     0
 76
     0
 77
     0
 78
     0
281
     0
 65
     0
110
0.0
120
0.0
130
0.0
111
1.0
121
0.0
131
0.0
112
0.0
122
1.0
132
0.0
345
0
346
0
 79
     0
146
0.0
  0
ENDTAB
  0
TABLE
  2
LTYPE
  5
4
100
AcDbSymbolTable
 70
     3
  0
LTYPE
  5
11
100
AcDbSymbolTableRecord
100
AcDbLinetypeTableRecord
  2
ByBlock
 70
    64
  3

 72
    65
 73
     0
 40
0.0
  0
LTYPE
  5
12
100
AcDbSymbolTableRecord
100
AcDbLinetypeTableRecord
  2
ByLayer
 70
    64
  3

 72
    65
 73
     0
 40
0.0
  0
LTYPE
  5
13
100
AcDbSymbolTableRecord
100
AcDbLinetypeTableRecord
  2
Continuous
 70
    64
  3
Solid line
 72
    65
 73
     0
 40
0.0
  0
ENDTAB
  0
TABLE
  2
LAYER
  5
2
100
AcDbSymbolTable
 70
     2
  0
LAYER
  5
14
100
AcDbSymbolTableRecord
100
AcDbLayerTableRecord
  2
0
 70
     0
 62
     7
  6
Continuous
290
     1
370
    -3
390
1D
  0
LAYER
  5
24
100
AcDbSymbolTableRecord
100
AcDbLayerTableRecord
  2
Layer 1
 70
     0
 62
     7
  6
Continuous
290
     1
370
    -3
390
1F
  0
ENDTAB
  0
TABLE
  2
STYLE
  5
3
100
AcDbSymbolTable
 70
     2
  0
STYLE
  5
17
100
AcDbSymbolTableRecord
100
AcDbTextStyleTableRecord
  2
Standard
 70
     0
 40
0.0
 41
1.0
 50
0.0
 71
     0
 42
0.0
  3
txt
  4

  0
STYLE
  5
26
100
AcDbSymbolTableRecord
100
AcDbTextStyleTableRecord
  2
Bookman Old Style
 70
     0
 40
1.0
 41
1.0
 50
0.0
 71
     0
 42
1.0
  3
Bookman Old Style
  4

  0
ENDTAB
  0
TABLE
  2
VIEW
  5
5
100
AcDbSymbolTable
 70
     0
  0
ENDTAB
  0
TABLE
  2
UCS
  5
6
100
AcDbSymbolTable
 70
     0
  0
ENDTAB
  0
TABLE
  2
APPID
  5
8
100
AcDbSymbolTable
 70
     1
  0
APPID
  5
16
100
AcDbSymbolTableRecord
100
AcDbRegAppTableRecord
  2
ACAD
 70
     0
  0
ENDTAB
  0
TABLE
  2
DIMSTYLE
  5
9
100
AcDbSymbolTable
 70
     1
100
AcDbDimStyleTable
 71
     0
  0
DIMSTYLE
105
18
100
AcDbSymbolTableRecord
100
AcDbDimStyleTableRecord
  2
Standard
 70
     0
  3

  4

 40
1.0
 41
0.18
 42
0.0625
 43
0.38
 44
0.18
 45
0.0
 46
0.0
 47
0.0
 48
0.0
 71
     0
 72
     0
 73
     1
 74
     1
 75
     0
 76
     0
 77
     0
 78
     0
 79
     0
140
0.18
141
0.09
142
0.0
143
25.4
144
1.0
145
0.0
146
1.0
147
0.09
148
0.0
170
     0
171
     2
172
     0
173
     0
174
     0
175
     0
176
     0
177
     0
178
     0
179
     0
271
     4
272
     4
273
     2
274
     2
275
     0
276
     0
277
     2
278
    46
279
     0
280
     0
281
     0
282
     0
283
     1
284
     0
285
     0
286
     0
288
     0
340
17
341
0
342
0
343
0
344
0
371
    -2
372
    -2
  0
ENDTAB
  0
TABLE
  2
BLOCK_RECORD
  5
1
100
AcDbSymbolTable
 70
     0
  0
BLOCK_RECORD
  5
A
100
AcDbSymbolTableRecord
100
AcDbBlockTableRecord
  2
*MODEL_SPACE
340
20
  0
BLOCK_RECORD
  5
B
100
AcDbSymbolTableRecord
100
AcDbBlockTableRecord
  2
*PAPER_SPACE
340
21
  0
ENDTAB
  0
ENDSEC
  0
SECTION
  2
BLOCKS
  0
BLOCK
  5
D
100
AcDbEntity
  8
0
100
AcDbBlockBegin
  2
*MODEL_SPACE
 70
     0
 10
0.0
 20
0.0
 30
0.0
  3
*MODEL_SPACE
  1

  0
ENDBLK
  5
E
100
AcDbEntity
  8
0
100
AcDbBlockEnd
  0
BLOCK
  5
F
100
AcDbEntity
 67
     1
  8
0
100
AcDbBlockBegin
  2
*PAPER_SPACE
 70
     0
 10
0.0
 20
0.0
 30
0.0
  3
*PAPER_SPACE
  1

  0
ENDBLK
  5
10
100
AcDbEntity
 67
     1
  8
0
100
AcDbBlockEnd
  0
ENDSEC
  0
SECTION
  2
ENTITIES
  0
SPLINE
  5
25
100
AcDbEntity
  8
Layer 1
370
     5
100
AcDbSpline
210
0.0
220
0.0
230
1.0
 70
     1
 71
     3
 72
    40
 73
    36
 74
     0
 42
0.0000000001
 43
0.0000000001
 40
0.0
 40
0.0
 40
0.0
 40
0.0
 40
0.1111111111111111
 40
0.1111111111111111
 40
0.1111111111111111
 40
0.1111111111111111
 40
0.2222222222222222
 40
0.2222222222222222
 40
0.2222222222222222
 40
0.2222222222222222
 40
0.3333333333333333
 40
0.3333333333333333
 40
0.3333333333333333
 40
0.3333333333333333
 40
0.4444444444444444
 40
0.4444444444444444
 40
0.4444444444444444
 40
0.4444444444444444
 40
0.5555555555555556
 40
0.5555555555555556
 40
0.5555555555555556
 40
0.5555555555555556
 40
0.6666666666666667
 40
0.6666666666666667
 40
0.6666666666666667
 40
0.6666666666666667
 40
0.7777777777777779
 40
0.7777777777777779
 40
0.7777777777777779
 40
0.7777777777777779
 40
0.8888888888888891
 40
0.8888888888888891
 40
0.8888888888888891
 40
0.8888888888888891
 40
1.0
 40
1.0
 40
1.0
 40
1.0
 10
0.7281968503937009
 20
3.0811850393700788
 30
0.0
 10
0.7281968503937009
 20
3.0811850393700788
 30
0.0
 10
-0.4258622047244094
 20
3.0811850393700788
 30
0.0
 10
-0.4258622047244094
 20
3.0811850393700788
 30
0.0
 10
-0.4258622047244094
 20
3.0811850393700788
 30
0.0
 10
-0.4258622047244094
 20
3.0811850393700788
 30
0.0
 10
-0.4258622047244094
 20
3.2194448818897641
 30
0.0
 10
-0.4258622047244094
 20
3.2194448818897641
 30
0.0
 10
-0.4258622047244094
 20
3.2194448818897641
 30
0.0
 10
-0.4258622047244094
 20
3.2194448818897641
 30
0.0
 10
-0.328011811023622
 20
3.2194448818897641
 30
0.0
 10
-0.328011811023622
 20
3.2194448818897641
 30
0.0
 10
-0.328011811023622
 20
3.2194448818897641
 30
0.0
 10
-0.328011811023622
 20
3.3444448818897641
 30
0.0
 10
-0.1400787401574803
 20
3.3577047244094489
 30
0.0
 10
-0.1405118110236221
 20
3.2194448818897641
 30
0.0
 10
-0.1405118110236221
 20
3.2194448818897641
 30
0.0
 10
-0.025992125984252
 20
3.2457007874015749
 30
0.0
 10
0.0526614173228347
 20
3.3233976377952756
 30
0.0
 10
0.1073425196850394
 20
3.4356377952755905
 30
0.0
 10
0.1073425196850394
 20
3.4356377952755905
 30
0.0
 10
0.1620236220472441
 20
3.5478779527559055
 30
0.0
 10
0.2936259842519685
 20
3.6740433070866145
 30
0.0
 10
0.4145
 20
3.5013661417322837
 30
0.0
 10
0.4145
 20
3.5013661417322837
 30
0.0
 10
0.4145
 20
3.5013661417322837
 30
0.0
 10
0.4375236220472441
 20
3.5877047244094489
 30
0.0
 10
0.4375236220472441
 20
3.5877047244094489
 30
0.0
 10
0.4375236220472441
 20
3.5877047244094489
 30
0.0
 10
0.4375236220472441
 20
3.5877047244094489
 30
0.0
 10
0.7281968503937009
 20
3.5877047244094489
 30
0.0
 10
0.7281968503937009
 20
3.5877047244094489
 30
0.0
 10
0.7281968503937009
 20
3.5877047244094489
 30
0.0
 10
0.7281968503937009
 20
3.5877047244094489
 30
0.0
 10
0.7281968503937009
 20
3.0811850393700788
 30
0.0
 10
0.7281968503937009
 20
3.0811850393700788
 30
0.0
  0
TEXT
  5
27
100
AcDbEntity
  8
Layer 1
100
AcDbText
 10
-0.140535
 20
2.775512
 30
0.0
 40
0.119999
  1
BA  1535
 51
-0.000002
  7
Bookman Old Style
100
AcDbText
  0
TEXT
  5
28
100
AcDbEntity
  8
Layer 1
100
AcDbText
 10
-0.244685
 20
2.588012
 30
0.0
 40
0.119999
  1
\u+00bd\u+201d x 1-1/8\u+201d 
 51
-0.000002
  7
Bookman Old Style
100
AcDbText
  0
SPLINE
  5
29
100
AcDbEntity
  8
Layer 1
 62
   252
100
AcDbSpline
210
0.0
220
0.0
230
1.0
 70
     1
 71
     3
 72
    20
 73
    16
 74
     0
 42
0.0000000001
 43
0.0000000001
 40
0.0
 40
0.0
 40
0.0
 40
0.0
 40
0.25
 40
0.25
 40
0.25
 40
0.25
 40
0.5
 40
0.5
 40
0.5
 40
0.5
 40
0.75
 40
0.75
 40
0.75
 40
0.75
 40
1.0
 40
1.0
 40
1.0
 40
1.0
 10
-0.0608149606299213
 20
1.6306771653543308
 30
0.0
 10
-0.0608149606299213
 20
1.6306771653543308
 30
0.0
 10
0.5826062992125984
 20
2.0033110236220475
 30
0.0
 10
0.5826062992125984
 20
2.0033110236220475
 30
0.0
 10
0.5826062992125984
 20
2.0033110236220475
 30
0.0
 10
0.5826062992125984
 20
2.0033110236220475
 30
0.0
 10
0.7208661417322835
 20
2.0033110236220475
 30
0.0
 10
0.7208661417322835
 20
2.0033110236220475
 30
0.0
 10
0.7208661417322835
 20
2.0033110236220475
 30
0.0
 10
0.7208661417322835
 20
2.0033110236220475
 30
0.0
 10
0.0774448818897638
 20
1.6306771653543308
 30
0.0
 10
0.0774448818897638
 20
1.6306771653543308
 30
0.0
 10
0.0774448818897638
 20
1.6306771653543308
 30
0.0
 10
0.0774448818897638
 20
1.6306771653543308
 30
0.0
 10
-0.0608149606299213
 20
1.6306771653543308
 30
0.0
 10
-0.0608149606299213
 20
1.6306771653543308
 30
0.0
  0
SPLINE
  5
2A
100
AcDbEntity
  8
Layer 1
370
     5
100
AcDbSpline
210
0.0
220
0.0
230
1.0
 70
     1
 71
     3
 72
    20
 73
    16
 74
     0
 42
0.0000000001
 43
0.0000000001
 40
0.0
 40
0.0
 40
0.0
 40
0.0
 40
0.25
 40
0.25
 40
0.25
 40
0.25
 40
0.5
 40
0.5
 40
0.5
 40
0.5
 40
0.75
 40
0.75
 40
0.75
 40
0.75
 40
1.0
 40
1.0
 40
1.0
 40
1.0
 10
-0.0608149606299213
 20
1.6306771653543308
 30
0.0
 10
-0.0608149606299213
 20
1.6306771653543308
 30
0.0
 10
0.5826062992125984
 20
2.0033110236220475
 30
0.0
 10
0.5826062992125984
 20
2.0033110236220475
 30
0.0
 10
0.5826062992125984
 20
2.0033110236220475
 30
0.0
 10
0.5826062992125984
 20
2.0033110236220475
 30
0.0
 10
0.7208661417322835
 20
2.0033110236220475
 30
0.0
 10
0.7208661417322835
 20
2.0033110236220475
 30
0.0
 10
0.7208661417322835
 20
2.0033110236220475
 30
0.0
 10
0.7208661417322835
 20
2.0033110236220475
 30
0.0
 10
0.0774448818897638
 20
1.6306771653543308
 30
0.0
 10
0.0774448818897638
 20
1.6306771653543308
 30
0.0
 10
0.0774448818897638
 20
1.6306771653543308
 30
0.0
 10
0.0774448818897638
 20
1.6306771653543308
 30
0.0
 10
-0.0608149606299213
 20
1.6306771653543308
 30
0.0
 10
-0.0608149606299213
 20
1.6306771653543308
 30
0.0
  0
SPLINE
  5
2B
100
AcDbEntity
  8
Layer 1
 62
     9
100
AcDbSpline
210
0.0
220
0.0
230
1.0
 70
     1
 71
     3
 72
    44
 73
    40
 74
     0
 42
0.0000000001
 43
0.0000000001
 40
0.0
 40
0.0
 40
0.0
 40
0.0
 40
0.1
 40
0.1
 40
0.1
 40
0.1
 40
0.2
 40
0.2
 40
0.2
 40
0.2
 40
0.3
 40
0.3
 40
0.3
 40
0.3
 40
0.4
 40
0.4
 40
0.4
 40
0.4
 40
0.5
 40
0.5
 40
0.5
 40
0.5
 40
0.6
 40
0.6
 40
0.6
 40
0.6
 40
0.7
 40
0.7
 40
0.7
 40
0.7
 40
0.7999999999999999
 40
0.7999999999999999
 40
0.7999999999999999
 40
0.7999999999999999
 40
0.8999999999999999
 40
0.8999999999999999
 40
0.8999999999999999
 40
0.8999999999999999
 40
1.0
 40
1.0
 40
1.0
 40
1.0
 10
0.0774448818897638
 20
1.3453267716535433
 30
0.0
 10
0.0774448818897638
 20
1.3453267716535433
 30
0.0
 10
0.7208661417322835
 20
1.71796062992126
 30
0.0
 10
0.7208661417322835
 20
1.71796062992126
 30
0.0
 10
0.7208661417322835
 20
1.71796062992126
 30
0.0
 10
0.7208661417322835
 20
1.71796062992126
 30
0.0
 10
0.7234685039370079
 20
1.7073228346456693
 30
0.0
 10
0.7234685039370079
 20
1.7073228346456693
 30
0.0
 10
0.7234685039370079
 20
1.7073228346456693
 30
0.0
 10
0.7234685039370079
 20
1.7073228346456693
 30
0.0
 10
0.7263779527559056
 20
1.6969015748031497
 30
0.0
 10
0.7263779527559056
 20
1.6969015748031497
 30
0.0
 10
0.7263779527559056
 20
1.6969015748031497
 30
0.0
 10
0.7263779527559056
 20
1.6969015748031497
 30
0.0
 10
0.7295826771653544
 20
1.6866811023622048
 30
0.0
 10
0.7295826771653544
 20
1.6866811023622048
 30
0.0
 10
0.7295826771653544
 20
1.6866811023622048
 30
0.0
 10
0.7295826771653544
 20
1.6866811023622048
 30
0.0
 10
0.7330826771653544
 20
1.6766692913385828
 30
0.0
 10
0.7330826771653544
 20
1.6766692913385828
 30
0.0
 10
0.7330826771653544
 20
1.6766692913385828
 30
0.0
 10
0.7330826771653544
 20
1.6766692913385828
 30
0.0
 10
0.0896614173228347
 20
1.3040354330708661
 30
0.0
 10
0.0896614173228347
 20
1.3040354330708661
 30
0.0
 10
0.0896614173228347
 20
1.3040354330708661
 30
0.0
 10
0.0896614173228347
 20
1.3040354330708661
 30
0.0
 10
0.0861614173228347
 20
1.3140472440944881
 30
0.0
 10
0.0861614173228347
 20
1.3140472440944881
 30
0.0
 10
0.0861614173228347
 20
1.3140472440944881
 30
0.0
 10
0.0861614173228347
 20
1.3140472440944881
 30
0.0
 10
0.0829566929133858
 20
1.3242677165354331
 30
0.0
 10
0.0829566929133858
 20
1.3242677165354331
 30
0.0
 10
0.0829566929133858
 20
1.3242677165354331
 30
0.0
 10
0.0829566929133858
 20
1.3242677165354331
 30
0.0
 10
0.0800472440944882
 20
1.3346889763779528
 30
0.0
 10
0.0800472440944882
 20
1.3346889763779528
 30
0.0
 10
0.0800472440944882
 20
1.3346889763779528
 30
0.0
 10
0.0800472440944882
 20
1.3346889763779528
 30
0.0
 10
0.0774448818897638
 20
1.3453267716535433
 30
0.0
 10
0.0774448818897638
 20
1.3453267716535433
 30
0.0
  0
SPLINE
  5
2C
100
AcDbEntity
  8
Layer 1
 62
     9
100
AcDbSpline
210
0.0
220
0.0
230
1.0
 70
     1
 71
     3
 72
    44
 73
    40
 74
     0
 42
0.0000000001
 43
0.0000000001
 40
0.0
 40
0.0
 40
0.0
 40
0.0
 40
0.1
 40
0.1
 40
0.1
 40
0.1
 40
0.2
 40
0.2
 40
0.2
 40
0.2
 40
0.3
 40
0.3
 40
0.3
 40
0.3
 40
0.4
 40
0.4
 40
0.4
 40
0.4
 40
0.5
 40
0.5
 40
0.5
 40
0.5
 40
0.6
 40
0.6
 40
0.6
 40
0.6
 40
0.7
 40
0.7
 40
0.7
 40
0.7
 40
0.7999999999999999
 40
0.7999999999999999
 40
0.7999999999999999
 40
0.7999999999999999
 40
0.8999999999999999
 40
0.8999999999999999
 40
0.8999999999999999
 40
0.8999999999999999
 40
1.0
 40
1.0
 40
1.0
 40
1.0
 10
0.0896614173228347
 20
1.3040354330708661
 30
0.0
 10
0.0896614173228347
 20
1.3040354330708661
 30
0.0
 10
0.7330826771653544
 20
1.6766692913385828
 30
0.0
 10
0.7330826771653544
 20
1.6766692913385828
 30
0.0
 10
0.7330826771653544
 20
1.6766692913385828
 30
0.0
 10
0.7330826771653544
 20
1.6766692913385828
 30
0.0
 10
0.7368622047244094
 20
1.6668503937007875
 30
0.0
 10
0.7368622047244094
 20
1.6668503937007875
 30
0.0
 10
0.7368622047244094
 20
1.6668503937007875
 30
0.0
 10
0.7368622047244094
 20
1.6668503937007875
 30
0.0
 10
0.7409370078740157
 20
1.6572401574803151
 30
0.0
 10
0.7409370078740157
 20
1.6572401574803151
 30
0.0
 10
0.7409370078740157
 20
1.6572401574803151
 30
0.0
 10
0.7409370078740157
 20
1.6572401574803151
 30
0.0
 10
0.7452913385826772
 20
1.6478228346456694
 30
0.0
 10
0.7452913385826772
 20
1.6478228346456694
 30
0.0
 10
0.7452913385826772
 20
1.6478228346456694
 30
0.0
 10
0.7452913385826772
 20
1.6478228346456694
 30
0.0
 10
0.7499330708661418
 20
1.6386062992125985
 30
0.0
 10
0.7499330708661418
 20
1.6386062992125985
 30
0.0
 10
0.7499330708661418
 20
1.6386062992125985
 30
0.0
 10
0.7499330708661418
 20
1.6386062992125985
 30
0.0
 10
0.1065118110236221
 20
1.265972440944882
 30
0.0
 10
0.1065118110236221
 20
1.265972440944882
 30
0.0
 10
0.1065118110236221
 20
1.265972440944882
 30
0.0
 10
0.1065118110236221
 20
1.265972440944882
 30
0.0
 10
0.1018700787401575
 20
1.2751889763779527
 30
0.0
 10
0.1018700787401575
 20
1.2751889763779527
 30
0.0
 10
0.1018700787401575
 20
1.2751889763779527
 30
0.0
 10
0.1018700787401575
 20
1.2751889763779527
 30
0.0
 10
0.0975157480314961
 20
1.2846062992125984
 30
0.0
 10
0.0975157480314961
 20
1.2846062992125984
 30
0.0
 10
0.0975157480314961
 20
1.2846062992125984
 30
0.0
 10
0.0975157480314961
 20
1.2846062992125984
 30
0.0
 10
0.0934409448818898
 20
1.294216535433071
 30
0.0
 10
0.0934409448818898
 20
1.294216535433071
 30
0.0
 10
0.0934409448818898
 20
1.294216535433071
 30
0.0
 10
0.0934409448818898
 20
1.294216535433071
 30
0.0
 10
0.0896614173228347
 20
1.3040354330708661
 30
0.0
 10
0.0896614173228347
 20
1.3040354330708661
 30
0.0
  0
SPLINE
  5
2D
100
AcDbEntity
  8
Layer 1
 62
     9
100
AcDbSpline
210
0.0
220
0.0
230
1.0
 70
     1
 71
     3
 72
    44
 73
    40
 74
     0
 42
0.0000000001
 43
0.0000000001
 40
0.0
 40
0.0
 40
0.0
 40
0.0
 40
0.1
 40
0.1
 40
0.1
 40
0.1
 40
0.2
 40
0.2
 40
0.2
 40
0.2
 40
0.3
 40
0.3
 40
0.3
 40
0.3
 40
0.4
 40
0.4
 40
0.4
 40
0.4
 40
0.5
 40
0.5
 40
0.5
 40
0.5
 40
0.6
 40
0.6
 40
0.6
 40
0.6
 40
0.7
 40
0.7
 40
0.7
 40
0.7
 40
0.7999999999999999
 40
0.7999999999999999
 40
0.7999999999999999
 40
0.7999999999999999
 40
0.8999999999999999
 40
0.8999999999999999
 40
0.8999999999999999
 40
0.8999999999999999
 40
1.0
 40
1.0
 40
1.0
 40
1.0
 10
0.1065118110236221
 20
1.265972440944882
 30
0.0
 10
0.1065118110236221
 20
1.265972440944882
 30
0.0
 10
0.7499330708661418
 20
1.6386062992125985
 30
0.0
 10
0.7499330708661418
 20
1.6386062992125985
 30
0.0
 10
0.7499330708661418
 20
1.6386062992125985
 30
0.0
 10
0.7499330708661418
 20
1.6386062992125985
 30
0.0
 10
0.7548385826771654
 20
1.6295708661417323
 30
0.0
 10
0.7548385826771654
 20
1.6295708661417323
 30
0.0
 10
0.7548385826771654
 20
1.6295708661417323
 30
0.0
 10
0.7548385826771654
 20
1.6295708661417323
 30
0.0
 10
0.7600275590551181
 20
1.620732283464567
 30
0.0
 10
0.7600275590551181
 20
1.620732283464567
 30
0.0
 10
0.7600275590551181
 20
1.620732283464567
 30
0.0
 10
0.7600275590551181
 20
1.620732283464567
 30
0.0
 10
0.76548031496063
 20
1.6120787401574803
 30
0.0
 10
0.76548031496063
 20
1.6120787401574803
 30
0.0
 10
0.76548031496063
 20
1.6120787401574803
 30
0.0
 10
0.76548031496063
 20
1.6120787401574803
 30
0.0
 10
0.7712086614173229
 20
1.6036220472440945
 30
0.0
 10
0.7712086614173229
 20
1.6036220472440945
 30
0.0
 10
0.7712086614173229
 20
1.6036220472440945
 30
0.0
 10
0.7712086614173229
 20
1.6036220472440945
 30
0.0
 10
0.1277874015748031
 20
1.2309881889763781
 30
0.0
 10
0.1277874015748031
 20
1.2309881889763781
 30
0.0
 10
0.1277874015748031
 20
1.2309881889763781
 30
0.0
 10
0.1277874015748031
 20
1.2309881889763781
 30
0.0
 10
0.1220590551181102
 20
1.2394448818897639
 30
0.0
 10
0.1220590551181102
 20
1.2394448818897639
 30
0.0
 10
0.1220590551181102
 20
1.2394448818897639
 30
0.0
 10
0.1220590551181102
 20
1.2394448818897639
 30
0.0
 10
0.1166062992125984
 20
1.2480984251968505
 30
0.0
 10
0.1166062992125984
 20
1.2480984251968505
 30
0.0
 10
0.1166062992125984
 20
1.2480984251968505
 30
0.0
 10
0.1166062992125984
 20
1.2480984251968505
 30
0.0
 10
0.1114173228346457
 20
1.2569370078740159
 30
0.0
 10
0.1114173228346457
 20
1.2569370078740159
 30
0.0
 10
0.1114173228346457
 20
1.2569370078740159
 30
0.0
 10
0.1114173228346457
 20
1.2569370078740159
 30
0.0
 10
0.1065118110236221
 20
1.265972440944882
 30
0.0
 10
0.1065118110236221
 20
1.265972440944882
 30
0.0
  0
SPLINE
  5
2E
100
AcDbEntity
  8
Layer 1
 62
     9
100
AcDbSpline
210
0.0
220
0.0
230
1.0
 70
     1
 71
     3
 72
    44
 73
    40
 74
     0
 42
0.0000000001
 43
0.0000000001
 40
0.0
 40
0.0
 40
0.0
 40
0.0
 40
0.1
 40
0.1
 40
0.1
 40
0.1
 40
0.2
 40
0.2
 40
0.2
 40
0.2
 40
0.3
 40
0.3
 40
0.3
 40
0.3
 40
0.4
 40
0.4
 40
0.4
 40
0.4
 40
0.5
 40
0.5
 40
0.5
 40
0.5
 40
0.6
 40
0.6
 40
0.6
 40
0.6
 40
0.7
 40
0.7
 40
0.7
 40
0.7
 40
0.7999999999999999
 40
0.7999999999999999
 40
0.7999999999999999
 40
0.7999999999999999
 40
0.8999999999999999
 40
0.8999999999999999
 40
0.8999999999999999
 40
0.8999999999999999
 40
1.0
 40
1.0
 40
1.0
 40
1.0
 10
0.1277874015748031
 20
1.2309881889763781
 30
0.0
 10
0.1277874015748031
 20
1.2309881889763781
 30
0.0
 10
0.7712086614173229
 20
1.6036220472440945
 30
0.0
 10
0.7712086614173229
 20
1.6036220472440945
 30
0.0
 10
0.7712086614173229
 20
1.6036220472440945
 30
0.0
 10
0.7712086614173229
 20
1.6036220472440945
 30
0.0
 10
0.7771929133858269
 20
1.5953385826771653
 30
0.0
 10
0.7771929133858269
 20
1.5953385826771653
 30
0.0
 10
0.7771929133858269
 20
1.5953385826771653
 30
0.0
 10
0.7771929133858269
 20
1.5953385826771653
 30
0.0
 10
0.7834409448818898
 20
1.5872440944881889
 30
0.0
 10
0.7834409448818898
 20
1.5872440944881889
 30
0.0
 10
0.7834409448818898
 20
1.5872440944881889
 30
0.0
 10
0.7834409448818898
 20
1.5872440944881889
 30
0.0
 10
0.7899488188976378
 20
1.5793228346456694
 30
0.0
 10
0.7899488188976378
 20
1.5793228346456694
 30
0.0
 10
0.7899488188976378
 20
1.5793228346456694
 30
0.0
 10
0.7899488188976378
 20
1.5793228346456694
 30
0.0
 10
0.7967165354330709
 20
1.5715905511811024
 30
0.0
 10
0.7967165354330709
 20
1.5715905511811024
 30
0.0
 10
0.7967165354330709
 20
1.5715905511811024
 30
0.0
 10
0.7967165354330709
 20
1.5715905511811024
 30
0.0
 10
0.1532952755905512
 20
1.1989566929133859
 30
0.0
 10
0.1532952755905512
 20
1.1989566929133859
 30
0.0
 10
0.1532952755905512
 20
1.1989566929133859
 30
0.0
 10
0.1532952755905512
 20
1.1989566929133859
 30
0.0
 10
0.1465275590551181
 20
1.2066889763779527
 30
0.0
 10
0.1465275590551181
 20
1.2066889763779527
 30
0.0
 10
0.1465275590551181
 20
1.2066889763779527
 30
0.0
 10
0.1465275590551181
 20
1.2066889763779527
 30
0.0
 10
0.1400196850393701
 20
1.2146102362204725
 30
0.0
 10
0.1400196850393701
 20
1.2146102362204725
 30
0.0
 10
0.1400196850393701
 20
1.2146102362204725
 30
0.0
 10
0.1400196850393701
 20
1.2146102362204725
 30
0.0
 10
0.1337716535433071
 20
1.2227047244094489
 30
0.0
 10
0.1337716535433071
 20
1.2227047244094489
 30
0.0
 10
0.1337716535433071
 20
1.2227047244094489
 30
0.0
 10
0.1337716535433071
 20
1.2227047244094489
 30
0.0
 10
0.1277874015748031
 20
1.2309881889763781
 30
0.0
 10
0.1277874015748031
 20
1.2309881889763781
 30
0.0
  0
SPLINE
  5
2F
100
AcDbEntity
  8
Layer 1
 62
     9
100
AcDbSpline
210
0.0
220
0.0
230
1.0
 70
     1
 71
     3
 72
    44
 73
    40
 74
     0
 42
0.0000000001
 43
0.0000000001
 40
0.0
 40
0.0
 40
0.0
 40
0.0
 40
0.1
 40
0.1
 40
0.1
 40
0.1
 40
0.2
 40
0.2
 40
0.2
 40
0.2
 40
0.3
 40
0.3
 40
0.3
 40
0.3
 40
0.4
 40
0.4
 40
0.4
 40
0.4
 40
0.5
 40
0.5
 40
0.5
 40
0.5
 40
0.6
 40
0.6
 40
0.6
 40
0.6
 40
0.7
 40
0.7
 40
0.7
 40
0.7
 40
0.7999999999999999
 40
0.7999999999999999
 40
0.7999999999999999
 40
0.7999999999999999
 40
0.8999999999999999
 40
0.8999999999999999
 40
0.8999999999999999
 40
0.8999999999999999
 40
1.0
 40
1.0
 40
1.0
 40
1.0
 10
0.1532952755905512
 20
1.1989566929133859
 30
0.0
 10
0.1532952755905512
 20
1.1989566929133859
 30
0.0
 10
0.7967165354330709
 20
1.5715905511811024
 30
0.0
 10
0.7967165354330709
 20
1.5715905511811024
 30
0.0
 10
0.7967165354330709
 20
1.5715905511811024
 30
0.0
 10
0.7967165354330709
 20
1.5715905511811024
 30
0.0
 10
0.803724409448819
 20
1.5640196850393702
 30
0.0
 10
0.803724409448819
 20
1.5640196850393702
 30
0.0
 10
0.803724409448819
 20
1.5640196850393702
 30
0.0
 10
0.803724409448819
 20
1.5640196850393702
 30
0.0
 10
0.810984251968504
 20
1.5566259842519685
 30
0.0
 10
0.810984251968504
 20
1.5566259842519685
 30
0.0
 10
0.810984251968504
 20
1.5566259842519685
 30
0.0
 10
0.810984251968504
 20
1.5566259842519685
 30
0.0
 10
0.818492125984252
 20
1.5494055118110237
 30
0.0
 10
0.818492125984252
 20
1.5494055118110237
 30
0.0
 10
0.818492125984252
 20
1.5494055118110237
 30
0.0
 10
0.818492125984252
 20
1.5494055118110237
 30
0.0
 10
0.826244094488189
 20
1.5423543307086616
 30
0.0
 10
0.826244094488189
 20
1.5423543307086616
 30
0.0
 10
0.826244094488189
 20
1.5423543307086616
 30
0.0
 10
0.826244094488189
 20
1.5423543307086616
 30
0.0
 10
0.1828228346456693
 20
1.1697204724409449
 30
0.0
 10
0.1828228346456693
 20
1.1697204724409449
 30
0.0
 10
0.1828228346456693
 20
1.1697204724409449
 30
0.0
 10
0.1828228346456693
 20
1.1697204724409449
 30
0.0
 10
0.1750708661417323
 20
1.176771653543307
 30
0.0
 10
0.1750708661417323
 20
1.176771653543307
 30
0.0
 10
0.1750708661417323
 20
1.176771653543307
 30
0.0
 10
0.1750708661417323
 20
1.176771653543307
 30
0.0
 10
0.1675629921259842
 20
1.1839921259842521
 30
0.0
 10
0.1675629921259842
 20
1.1839921259842521
 30
0.0
 10
0.1675629921259842
 20
1.1839921259842521
 30
0.0
 10
0.1675629921259842
 20
1.1839921259842521
 30
0.0
 10
0.1603031496062992
 20
1.1913858267716535
 30
0.0
 10
0.1603031496062992
 20
1.1913858267716535
 30
0.0
 10
0.1603031496062992
 20
1.1913858267716535
 30
0.0
 10
0.1603031496062992
 20
1.1913858267716535
 30
0.0
 10
0.1532952755905512
 20
1.1989566929133859
 30
0.0
 10
0.1532952755905512
 20
1.1989566929133859
 30
0.0
  0
SPLINE
  5
30
100
AcDbEntity
  8
Layer 1
 62
     9
100
AcDbSpline
210
0.0
220
0.0
230
1.0
 70
     1
 71
     3
 72
    44
 73
    40
 74
     0
 42
0.0000000001
 43
0.0000000001
 40
0.0
 40
0.0
 40
0.0
 40
0.0
 40
0.1
 40
0.1
 40
0.1
 40
0.1
 40
0.2
 40
0.2
 40
0.2
 40
0.2
 40
0.3
 40
0.3
 40
0.3
 40
0.3
 40
0.4
 40
0.4
 40
0.4
 40
0.4
 40
0.5
 40
0.5
 40
0.5
 40
0.5
 40
0.6
 40
0.6
 40
0.6
 40
0.6
 40
0.7
 40
0.7
 40
0.7
 40
0.7
 40
0.7999999999999999
 40
0.7999999999999999
 40
0.7999999999999999
 40
0.7999999999999999
 40
0.8999999999999999
 40
0.8999999999999999
 40
0.8999999999999999
 40
0.8999999999999999
 40
1.0
 40
1.0
 40
1.0
 40
1.0
 10
0.1828228346456693
 20
1.1697204724409449
 30
0.0
 10
0.1828228346456693
 20
1.1697204724409449
 30
0.0
 10
0.826244094488189
 20
1.5423543307086616
 30
0.0
 10
0.826244094488189
 20
1.5423543307086616
 30
0.0
 10
0.826244094488189
 20
1.5423543307086616
 30
0.0
 10
0.826244094488189
 20
1.5423543307086616
 30
0.0
 10
0.834228346456693
 20
1.535464566929134
 30
0.0
 10
0.834228346456693
 20
1.535464566929134
 30
0.0
 10
0.834228346456693
 20
1.535464566929134
 30
0.0
 10
0.834228346456693
 20
1.535464566929134
 30
0.0
 10
0.8424606299212599
 20
1.5287440944881889
 30
0.0
 10
0.8424606299212599
 20
1.5287440944881889
 30
0.0
 10
0.8424606299212599
 20
1.5287440944881889
 30
0.0
 10
0.8424606299212599
 20
1.5287440944881889
 30
0.0
 10
0.8509173228346457
 20
1.5221850393700789
 30
0.0
 10
0.8509173228346457
 20
1.5221850393700789
 30
0.0
 10
0.8509173228346457
 20
1.5221850393700789
 30
0.0
 10
0.8509173228346457
 20
1.5221850393700789
 30
0.0
 10
0.8596141732283464
 20
1.5157913385826771
 30
0.0
 10
0.8596141732283464
 20
1.5157913385826771
 30
0.0
 10
0.8596141732283464
 20
1.5157913385826771
 30
0.0
 10
0.8596141732283464
 20
1.5157913385826771
 30
0.0
 10
0.2161929133858268
 20
1.1431574803149607
 30
0.0
 10
0.2161929133858268
 20
1.1431574803149607
 30
0.0
 10
0.2161929133858268
 20
1.1431574803149607
 30
0.0
 10
0.2161929133858268
 20
1.1431574803149607
 30
0.0
 10
0.207496062992126
 20
1.1495511811023622
 30
0.0
 10
0.207496062992126
 20
1.1495511811023622
 30
0.0
 10
0.207496062992126
 20
1.1495511811023622
 30
0.0
 10
0.207496062992126
 20
1.1495511811023622
 30
0.0
 10
0.1990393700787402
 20
1.1561102362204725
 30
0.0
 10
0.1990393700787402
 20
1.1561102362204725
 30
0.0
 10
0.1990393700787402
 20
1.1561102362204725
 30
0.0
 10
0.1990393700787402
 20
1.1561102362204725
 30
0.0
 10
0.1908070866141732
 20
1.1628307086614174
 30
0.0
 10
0.1908070866141732
 20
1.1628307086614174
 30
0.0
 10
0.1908070866141732
 20
1.1628307086614174
 30
0.0
 10
0.1908070866141732
 20
1.1628307086614174
 30
0.0
 10
0.1828228346456693
 20
1.1697204724409449
 30
0.0
 10
0.1828228346456693
 20
1.1697204724409449
 30
0.0
  0
SPLINE
  5
31
100
AcDbEntity
  8
Layer 1
 62
     9
100
AcDbSpline
210
0.0
220
0.0
230
1.0
 70
     1
 71
     3
 72
    44
 73
    40
 74
     0
 42
0.0000000001
 43
0.0000000001
 40
0.0
 40
0.0
 40
0.0
 40
0.0
 40
0.1
 40
0.1
 40
0.1
 40
0.1
 40
0.2
 40
0.2
 40
0.2
 40
0.2
 40
0.3
 40
0.3
 40
0.3
 40
0.3
 40
0.4
 40
0.4
 40
0.4
 40
0.4
 40
0.5
 40
0.5
 40
0.5
 40
0.5
 40
0.6
 40
0.6
 40
0.6
 40
0.6
 40
0.7
 40
0.7
 40
0.7
 40
0.7
 40
0.7999999999999999
 40
0.7999999999999999
 40
0.7999999999999999
 40
0.7999999999999999
 40
0.8999999999999999
 40
0.8999999999999999
 40
0.8999999999999999
 40
0.8999999999999999
 40
1.0
 40
1.0
 40
1.0
 40
1.0
 10
0.2161929133858268
 20
1.1431574803149607
 30
0.0
 10
0.2161929133858268
 20
1.1431574803149607
 30
0.0
 10
0.8596141732283464
 20
1.5157913385826771
 30
0.0
 10
0.8596141732283464
 20
1.5157913385826771
 30
0.0
 10
0.8596141732283464
 20
1.5157913385826771
 30
0.0
 10
0.8596141732283464
 20
1.5157913385826771
 30
0.0
 10
0.8685275590551181
 20
1.5095472440944881
 30
0.0
 10
0.8685275590551181
 20
1.5095472440944881
 30
0.0
 10
0.8685275590551181
 20
1.5095472440944881
 30
0.0
 10
0.8685275590551181
 20
1.5095472440944881
 30
0.0
 10
0.8776692913385827
 20
1.503464566929134
 30
0.0
 10
0.8776692913385827
 20
1.503464566929134
 30
0.0
 10
0.8776692913385827
 20
1.503464566929134
 30
0.0
 10
0.8776692913385827
 20
1.503464566929134
 30
0.0
 10
0.8870314960629921
 20
1.4975314960629922
 30
0.0
 10
0.8870314960629921
 20
1.4975314960629922
 30
0.0
 10
0.8870314960629921
 20
1.4975314960629922
 30
0.0
 10
0.8870314960629921
 20
1.4975314960629922
 30
0.0
 10
0.8966141732283465
 20
1.491755905511811
 30
0.0
 10
0.8966141732283465
 20
1.491755905511811
 30
0.0
 10
0.8966141732283465
 20
1.491755905511811
 30
0.0
 10
0.8966141732283465
 20
1.491755905511811
 30
0.0
 10
0.2531929133858268
 20
1.1191220472440946
 30
0.0
 10
0.2531929133858268
 20
1.1191220472440946
 30
0.0
 10
0.2531929133858268
 20
1.1191220472440946
 30
0.0
 10
0.2531929133858268
 20
1.1191220472440946
 30
0.0
 10
0.2436102362204725
 20
1.1248976377952757
 30
0.0
 10
0.2436102362204725
 20
1.1248976377952757
 30
0.0
 10
0.2436102362204725
 20
1.1248976377952757
 30
0.0
 10
0.2436102362204725
 20
1.1248976377952757
 30
0.0
 10
0.234248031496063
 20
1.1308307086614173
 30
0.0
 10
0.234248031496063
 20
1.1308307086614173
 30
0.0
 10
0.234248031496063
 20
1.1308307086614173
 30
0.0
 10
0.234248031496063
 20
1.1308307086614173
 30
0.0
 10
0.2251062992125984
 20
1.1369133858267717
 30
0.0
 10
0.2251062992125984
 20
1.1369133858267717
 30
0.0
 10
0.2251062992125984
 20
1.1369133858267717
 30
0.0
 10
0.2251062992125984
 20
1.1369133858267717
 30
0.0
 10
0.2161929133858268
 20
1.1431574803149607
 30
0.0
 10
0.2161929133858268
 20
1.1431574803149607
 30
0.0
  0
SPLINE
  5
32
100
AcDbEntity
  8
Layer 1
 62
   253
100
AcDbSpline
210
0.0
220
0.0
230
1.0
 70
     1
 71
     3
 72
    44
 73
    40
 74
     0
 42
0.0000000001
 43
0.0000000001
 40
0.0
 40
0.0
 40
0.0
 40
0.0
 40
0.1
 40
0.1
 40
0.1
 40
0.1
 40
0.2
 40
0.2
 40
0.2
 40
0.2
 40
0.3
 40
0.3
 40
0.3
 40
0.3
 40
0.4
 40
0.4
 40
0.4
 40
0.4
 40
0.5
 40
0.5
 40
0.5
 40
0.5
 40
0.6
 40
0.6
 40
0.6
 40
0.6
 40
0.7
 40
0.7
 40
0.7
 40
0.7
 40
0.7999999999999999
 40
0.7999999999999999
 40
0.7999999999999999
 40
0.7999999999999999
 40
0.8999999999999999
 40
0.8999999999999999
 40
0.8999999999999999
 40
0.8999999999999999
 40
1.0
 40
1.0
 40
1.0
 40
1.0
 10
0.2531929133858268
 20
1.1191220472440946
 30
0.0
 10
0.2531929133858268
 20
1.1191220472440946
 30
0.0
 10
0.8966141732283465
 20
1.491755905511811
 30
0.0
 10
0.8966141732283465
 20
1.491755905511811
 30
0.0
 10
0.8966141732283465
 20
1.491755905511811
 30
0.0
 10
0.8966141732283465
 20
1.491755905511811
 30
0.0
 10
0.9064055118110237
 20
1.4861220472440946
 30
0.0
 10
0.9064055118110237
 20
1.4861220472440946
 30
0.0
 10
0.9064055118110237
 20
1.4861220472440946
 30
0.0
 10
0.9064055118110237
 20
1.4861220472440946
 30
0.0
 10
0.9164173228346457
 20
1.4806377952755907
 30
0.0
 10
0.9164173228346457
 20
1.4806377952755907
 30
0.0
 10
0.9164173228346457
 20
1.4806377952755907
 30
0.0
 10
0.9164173228346457
 20
1.4806377952755907
 30
0.0
 10
0.9266338582677166
 20
1.4752992125984252
 30
0.0
 10
0.9266338582677166
 20
1.4752992125984252
 30
0.0
 10
0.9266338582677166
 20
1.4752992125984252
 30
0.0
 10
0.9266338582677166
 20
1.4752992125984252
 30
0.0
 10
0.9370590551181103
 20
1.4701062992125984
 30
0.0
 10
0.9370590551181103
 20
1.4701062992125984
 30
0.0
 10
0.9370590551181103
 20
1.4701062992125984
 30
0.0
 10
0.9370590551181103
 20
1.4701062992125984
 30
0.0
 10
0.2936377952755906
 20
1.0974724409448819
 30
0.0
 10
0.2936377952755906
 20
1.0974724409448819
 30
0.0
 10
0.2936377952755906
 20
1.0974724409448819
 30
0.0
 10
0.2936377952755906
 20
1.0974724409448819
 30
0.0
 10
0.2832125984251969
 20
1.1026653543307088
 30
0.0
 10
0.2832125984251969
 20
1.1026653543307088
 30
0.0
 10
0.2832125984251969
 20
1.1026653543307088
 30
0.0
 10
0.2832125984251969
 20
1.1026653543307088
 30
0.0
 10
0.272996062992126
 20
1.108003937007874
 30
0.0
 10
0.272996062992126
 20
1.108003937007874
 30
0.0
 10
0.272996062992126
 20
1.108003937007874
 30
0.0
 10
0.272996062992126
 20
1.108003937007874
 30
0.0
 10
0.262984251968504
 20
1.1134881889763779
 30
0.0
 10
0.262984251968504
 20
1.1134881889763779
 30
0.0
 10
0.262984251968504
 20
1.1134881889763779
 30
0.0
 10
0.262984251968504
 20
1.1134881889763779
 30
0.0
 10
0.2531929133858268
 20
1.1191220472440946
 30
0.0
 10
0.2531929133858268
 20
1.1191220472440946
 30
0.0
  0
SPLINE
  5
33
100
AcDbEntity
  8
Layer 1
 62
     9
100
AcDbSpline
210
0.0
220
0.0
230
1.0
 70
     1
 71
     3
 72
    44
 73
    40
 74
     0
 42
0.0000000001
 43
0.0000000001
 40
0.0
 40
0.0
 40
0.0
 40
0.0
 40
0.1
 40
0.1
 40
0.1
 40
0.1
 40
0.2
 40
0.2
 40
0.2
 40
0.2
 40
0.3
 40
0.3
 40
0.3
 40
0.3
 40
0.4
 40
0.4
 40
0.4
 40
0.4
 40
0.5
 40
0.5
 40
0.5
 40
0.5
 40
0.6
 40
0.6
 40
0.6
 40
0.6
 40
0.7
 40
0.7
 40
0.7
 40
0.7
 40
0.7999999999999999
 40
0.7999999999999999
 40
0.7999999999999999
 40
0.7999999999999999
 40
0.8999999999999999
 40
0.8999999999999999
 40
0.8999999999999999
 40
0.8999999999999999
 40
1.0
 40
1.0
 40
1.0
 40
1.0
 10
0.2936377952755906
 20
1.0974724409448819
 30
0.0
 10
0.2936377952755906
 20
1.0974724409448819
 30
0.0
 10
0.9370590551181103
 20
1.4701062992125984
 30
0.0
 10
0.9370590551181103
 20
1.4701062992125984
 30
0.0
 10
0.9370590551181103
 20
1.4701062992125984
 30
0.0
 10
0.9370590551181103
 20
1.4701062992125984
 30
0.0
 10
0.9476062992125984
 20
1.464748031496063
 30
0.0
 10
0.9476062992125984
 20
1.464748031496063
 30
0.0
 10
0.9476062992125984
 20
1.464748031496063
 30
0.0
 10
0.9476062992125984
 20
1.464748031496063
 30
0.0
 10
0.9581850393700788
 20
1.458964566929134
 30
0.0
 10
0.9581850393700788
 20
1.458964566929134
 30
0.0
 10
0.9581850393700788
 20
1.458964566929134
 30
0.0
 10
0.9581850393700788
 20
1.458964566929134
 30
0.0
 10
0.9687283464566929
 20
1.452759842519685
 30
0.0
 10
0.9687283464566929
 20
1.452759842519685
 30
0.0
 10
0.9687283464566929
 20
1.452759842519685
 30
0.0
 10
0.9687283464566929
 20
1.452759842519685
 30
0.0
 10
0.9791889763779528
 20
1.4461574803149606
 30
0.0
 10
0.9791889763779528
 20
1.4461574803149606
 30
0.0
 10
0.9791889763779528
 20
1.4461574803149606
 30
0.0
 10
0.9791889763779528
 20
1.4461574803149606
 30
0.0
 10
0.3357677165354331
 20
1.0735236220472442
 30
0.0
 10
0.3357677165354331
 20
1.0735236220472442
 30
0.0
 10
0.3357677165354331
 20
1.0735236220472442
 30
0.0
 10
0.3357677165354331
 20
1.0735236220472442
 30
0.0
 10
0.3253070866141732
 20
1.0801259842519686
 30
0.0
 10
0.3253070866141732
 20
1.0801259842519686
 30
0.0
 10
0.3253070866141732
 20
1.0801259842519686
 30
0.0
 10
0.3253070866141732
 20
1.0801259842519686
 30
0.0
 10
0.3147637795275591
 20
1.0863307086614173
 30
0.0
 10
0.3147637795275591
 20
1.0863307086614173
 30
0.0
 10
0.3147637795275591
 20
1.0863307086614173
 30
0.0
 10
0.3147637795275591
 20
1.0863307086614173
 30
0.0
 10
0.3041850393700787
 20
1.0921141732283466
 30
0.0
 10
0.3041850393700787
 20
1.0921141732283466
 30
0.0
 10
0.3041850393700787
 20
1.0921141732283466
 30
0.0
 10
0.3041850393700787
 20
1.0921141732283466
 30
0.0
 10
0.2936377952755906
 20
1.0974724409448819
 30
0.0
 10
0.2936377952755906
 20
1.0974724409448819
 30
0.0
  0
SPLINE
  5
34
100
AcDbEntity
  8
Layer 1
 62
     9
100
AcDbSpline
210
0.0
220
0.0
230
1.0
 70
     1
 71
     3
 72
    44
 73
    40
 74
     0
 42
0.0000000001
 43
0.0000000001
 40
0.0
 40
0.0
 40
0.0
 40
0.0
 40
0.1
 40
0.1
 40
0.1
 40
0.1
 40
0.2
 40
0.2
 40
0.2
 40
0.2
 40
0.3
 40
0.3
 40
0.3
 40
0.3
 40
0.4
 40
0.4
 40
0.4
 40
0.4
 40
0.5
 40
0.5
 40
0.5
 40
0.5
 40
0.6
 40
0.6
 40
0.6
 40
0.6
 40
0.7
 40
0.7
 40
0.7
 40
0.7
 40
0.7999999999999999
 40
0.7999999999999999
 40
0.7999999999999999
 40
0.7999999999999999
 40
0.8999999999999999
 40
0.8999999999999999
 40
0.8999999999999999
 40
0.8999999999999999
 40
1.0
 40
1.0
 40
1.0
 40
1.0
 10
0.3357677165354331
 20
1.0735236220472442
 30
0.0
 10
0.3357677165354331
 20
1.0735236220472442
 30
0.0
 10
0.9791889763779528
 20
1.4461574803149606
 30
0.0
 10
0.9791889763779528
 20
1.4461574803149606
 30
0.0
 10
0.9791889763779528
 20
1.4461574803149606
 30
0.0
 10
0.9791889763779528
 20
1.4461574803149606
 30
0.0
 10
0.989492125984252
 20
1.4391614173228346
 30
0.0
 10
0.989492125984252
 20
1.4391614173228346
 30
0.0
 10
0.989492125984252
 20
1.4391614173228346
 30
0.0
 10
0.989492125984252
 20
1.4391614173228346
 30
0.0
 10
0.9995944881889765
 20
1.4318031496062993
 30
0.0
 10
0.9995944881889765
 20
1.4318031496062993
 30
0.0
 10
0.9995944881889765
 20
1.4318031496062993
 30
0.0
 10
0.9995944881889765
 20
1.4318031496062993
 30
0.0
 10
1.0094370078740158
 20
1.4240826771653543
 30
0.0
 10
1.0094370078740158
 20
1.4240826771653543
 30
0.0
 10
1.0094370078740158
 20
1.4240826771653543
 30
0.0
 10
1.0094370078740158
 20
1.4240826771653543
 30
0.0
 10
1.0189606299212599
 20
1.4160354330708662
 30
0.0
 10
1.0189606299212599
 20
1.4160354330708662
 30
0.0
 10
1.0189606299212599
 20
1.4160354330708662
 30
0.0
 10
1.0189606299212599
 20
1.4160354330708662
 30
0.0
 10
0.3755393700787402
 20
1.0434015748031495
 30
0.0
 10
0.3755393700787402
 20
1.0434015748031495
 30
0.0
 10
0.3755393700787402
 20
1.0434015748031495
 30
0.0
 10
0.3755393700787402
 20
1.0434015748031495
 30
0.0
 10
0.3660157480314961
 20
1.0514488188976379
 30
0.0
 10
0.3660157480314961
 20
1.0514488188976379
 30
0.0
 10
0.3660157480314961
 20
1.0514488188976379
 30
0.0
 10
0.3660157480314961
 20
1.0514488188976379
 30
0.0
 10
0.3561732283464567
 20
1.0591692913385826
 30
0.0
 10
0.3561732283464567
 20
1.0591692913385826
 30
0.0
 10
0.3561732283464567
 20
1.0591692913385826
 30
0.0
 10
0.3561732283464567
 20
1.0591692913385826
 30
0.0
 10
0.3460708661417323
 20
1.0665275590551182
 30
0.0
 10
0.3460708661417323
 20
1.0665275590551182
 30
0.0
 10
0.3460708661417323
 20
1.0665275590551182
 30
0.0
 10
0.3460708661417323
 20
1.0665275590551182
 30
0.0
 10
0.3357677165354331
 20
1.0735236220472442
 30
0.0
 10
0.3357677165354331
 20
1.0735236220472442
 30
0.0
  0
SPLINE
  5
35
100
AcDbEntity
  8
Layer 1
 62
     9
100
AcDbSpline
210
0.0
220
0.0
230
1.0
 70
     1
 71
     3
 72
    44
 73
    40
 74
     0
 42
0.0000000001
 43
0.0000000001
 40
0.0
 40
0.0
 40
0.0
 40
0.0
 40
0.1
 40
0.1
 40
0.1
 40
0.1
 40
0.2
 40
0.2
 40
0.2
 40
0.2
 40
0.3
 40
0.3
 40
0.3
 40
0.3
 40
0.4
 40
0.4
 40
0.4
 40
0.4
 40
0.5
 40
0.5
 40
0.5
 40
0.5
 40
0.6
 40
0.6
 40
0.6
 40
0.6
 40
0.7
 40
0.7
 40
0.7
 40
0.7
 40
0.7999999999999999
 40
0.7999999999999999
 40
0.7999999999999999
 40
0.7999999999999999
 40
0.8999999999999999
 40
0.8999999999999999
 40
0.8999999999999999
 40
0.8999999999999999
 40
1.0
 40
1.0
 40
1.0
 40
1.0
 10
0.3755393700787402
 20
1.0434015748031495
 30
0.0
 10
0.3755393700787402
 20
1.0434015748031495
 30
0.0
 10
1.0189606299212599
 20
1.4160354330708662
 30
0.0
 10
1.0189606299212599
 20
1.4160354330708662
 30
0.0
 10
1.0189606299212599
 20
1.4160354330708662
 30
0.0
 10
1.0189606299212599
 20
1.4160354330708662
 30
0.0
 10
1.0281023622047245
 20
1.4076535433070867
 30
0.0
 10
1.0281023622047245
 20
1.4076535433070867
 30
0.0
 10
1.0281023622047245
 20
1.4076535433070867
 30
0.0
 10
1.0281023622047245
 20
1.4076535433070867
 30
0.0
 10
1.0368149606299213
 20
1.398972440944882
 30
0.0
 10
1.0368149606299213
 20
1.398972440944882
 30
0.0
 10
1.0368149606299213
 20
1.398972440944882
 30
0.0
 10
1.0368149606299213
 20
1.398972440944882
 30
0.0
 10
1.0450314960629921
 20
1.389996062992126
 30
0.0
 10
1.0450314960629921
 20
1.389996062992126
 30
0.0
 10
1.0450314960629921
 20
1.389996062992126
 30
0.0
 10
1.0450314960629921
 20
1.389996062992126
 30
0.0
 10
1.052704724409449
 20
1.3807519685039371
 30
0.0
 10
1.052704724409449
 20
1.3807519685039371
 30
0.0
 10
1.052704724409449
 20
1.3807519685039371
 30
0.0
 10
1.052704724409449
 20
1.3807519685039371
 30
0.0
 10
0.4092834645669292
 20
1.0081181102362204
 30
0.0
 10
0.4092834645669292
 20
1.0081181102362204
 30
0.0
 10
0.4092834645669292
 20
1.0081181102362204
 30
0.0
 10
0.4092834645669292
 20
1.0081181102362204
 30
0.0
 10
0.4016102362204725
 20
1.0173622047244095
 30
0.0
 10
0.4016102362204725
 20
1.0173622047244095
 30
0.0
 10
0.4016102362204725
 20
1.0173622047244095
 30
0.0
 10
0.4016102362204725
 20
1.0173622047244095
 30
0.0
 10
0.3933937007874016
 20
1.0263385826771654
 30
0.0
 10
0.3933937007874016
 20
1.0263385826771654
 30
0.0
 10
0.3933937007874016
 20
1.0263385826771654
 30
0.0
 10
0.3933937007874016
 20
1.0263385826771654
 30
0.0
 10
0.3846811023622048
 20
1.03501968503937
 30
0.0
 10
0.3846811023622048
 20
1.03501968503937
 30
0.0
 10
0.3846811023622048
 20
1.03501968503937
 30
0.0
 10
0.3846811023622048
 20
1.03501968503937
 30
0.0
 10
0.3755393700787402
 20
1.0434015748031495
 30
0.0
 10
0.3755393700787402
 20
1.0434015748031495
 30
0.0
  0
SPLINE
  5
36
100
AcDbEntity
  8
Layer 1
 62
     9
100
AcDbSpline
210
0.0
220
0.0
230
1.0
 70
     1
 71
     3
 72
    44
 73
    40
 74
     0
 42
0.0000000001
 43
0.0000000001
 40
0.0
 40
0.0
 40
0.0
 40
0.0
 40
0.1
 40
0.1
 40
0.1
 40
0.1
 40
0.2
 40
0.2
 40
0.2
 40
0.2
 40
0.3
 40
0.3
 40
0.3
 40
0.3
 40
0.4
 40
0.4
 40
0.4
 40
0.4
 40
0.5
 40
0.5
 40
0.5
 40
0.5
 40
0.6
 40
0.6
 40
0.6
 40
0.6
 40
0.7
 40
0.7
 40
0.7
 40
0.7
 40
0.7999999999999999
 40
0.7999999999999999
 40
0.7999999999999999
 40
0.7999999999999999
 40
0.8999999999999999
 40
0.8999999999999999
 40
0.8999999999999999
 40
0.8999999999999999
 40
1.0
 40
1.0
 40
1.0
 40
1.0
 10
0.4092834645669292
 20
1.0081181102362204
 30
0.0
 10
0.4092834645669292
 20
1.0081181102362204
 30
0.0
 10
1.052704724409449
 20
1.3807519685039371
 30
0.0
 10
1.052704724409449
 20
1.3807519685039371
 30
0.0
 10
1.052704724409449
 20
1.3807519685039371
 30
0.0
 10
1.052704724409449
 20
1.3807519685039371
 30
0.0
 10
1.0597677165354331
 20
1.371244094488189
 30
0.0
 10
1.0597677165354331
 20
1.371244094488189
 30
0.0
 10
1.0597677165354331
 20
1.371244094488189
 30
0.0
 10
1.0597677165354331
 20
1.371244094488189
 30
0.0
 10
1.0661732283464567
 20
1.3615000000000002
 30
0.0
 10
1.0661732283464567
 20
1.3615000000000002
 30
0.0
 10
1.0661732283464567
 20
1.3615000000000002
 30
0.0
 10
1.0661732283464567
 20
1.3615000000000002
 30
0.0
 10
1.0718543307086614
 20
1.3515236220472442
 30
0.0
 10
1.0718543307086614
 20
1.3515236220472442
 30
0.0
 10
1.0718543307086614
 20
1.3515236220472442
 30
0.0
 10
1.0718543307086614
 20
1.3515236220472442
 30
0.0
 10
1.0767637795275591
 20
1.3413464566929134
 30
0.0
 10
1.0767637795275591
 20
1.3413464566929134
 30
0.0
 10
1.0767637795275591
 20
1.3413464566929134
 30
0.0
 10
1.0767637795275591
 20
1.3413464566929134
 30
0.0
 10
0.4333425196850394
 20
0.9687125984251969
 30
0.0
 10
0.4333425196850394
 20
0.9687125984251969
 30
0.0
 10
0.4333425196850394
 20
0.9687125984251969
 30
0.0
 10
0.4333425196850394
 20
0.9687125984251969
 30
0.0
 10
0.4284330708661417
 20
0.9788897637795276
 30
0.0
 10
0.4284330708661417
 20
0.9788897637795276
 30
0.0
 10
0.4284330708661417
 20
0.9788897637795276
 30
0.0
 10
0.4284330708661417
 20
0.9788897637795276
 30
0.0
 10
0.422751968503937
 20
0.9888661417322835
 30
0.0
 10
0.422751968503937
 20
0.9888661417322835
 30
0.0
 10
0.422751968503937
 20
0.9888661417322835
 30
0.0
 10
0.422751968503937
 20
0.9888661417322835
 30
0.0
 10
0.4163464566929134
 20
0.9986102362204725
 30
0.0
 10
0.4163464566929134
 20
0.9986102362204725
 30
0.0
 10
0.4163464566929134
 20
0.9986102362204725
 30
0.0
 10
0.4163464566929134
 20
0.9986102362204725
 30
0.0
 10
0.4092834645669292
 20
1.0081181102362204
 30
0.0
 10
0.4092834645669292
 20
1.0081181102362204
 30
0.0
  0
SPLINE
  5
37
100
AcDbEntity
  8
Layer 1
 62
     9
100
AcDbSpline
210
0.0
220
0.0
230
1.0
 70
     1
 71
     3
 72
    44
 73
    40
 74
     0
 42
0.0000000001
 43
0.0000000001
 40
0.0
 40
0.0
 40
0.0
 40
0.0
 40
0.1
 40
0.1
 40
0.1
 40
0.1
 40
0.2
 40
0.2
 40
0.2
 40
0.2
 40
0.3
 40
0.3
 40
0.3
 40
0.3
 40
0.4
 40
0.4
 40
0.4
 40
0.4
 40
0.5
 40
0.5
 40
0.5
 40
0.5
 40
0.6
 40
0.6
 40
0.6
 40
0.6
 40
0.7
 40
0.7
 40
0.7
 40
0.7
 40
0.7999999999999999
 40
0.7999999999999999
 40
0.7999999999999999
 40
0.7999999999999999
 40
0.8999999999999999
 40
0.8999999999999999
 40
0.8999999999999999
 40
0.8999999999999999
 40
1.0
 40
1.0
 40
1.0
 40
1.0
 10
0.4333425196850394
 20
0.9687125984251969
 30
0.0
 10
0.4333425196850394
 20
0.9687125984251969
 30
0.0
 10
1.0767637795275591
 20
1.3413464566929134
 30
0.0
 10
1.0767637795275591
 20
1.3413464566929134
 30
0.0
 10
1.0767637795275591
 20
1.3413464566929134
 30
0.0
 10
1.0767637795275591
 20
1.3413464566929134
 30
0.0
 10
1.0808267716535434
 20
1.3309645669291339
 30
0.0
 10
1.0808267716535434
 20
1.3309645669291339
 30
0.0
 10
1.0808267716535434
 20
1.3309645669291339
 30
0.0
 10
1.0808267716535434
 20
1.3309645669291339
 30
0.0
 10
1.0840078740157482
 20
1.3204094488188978
 30
0.0
 10
1.0840078740157482
 20
1.3204094488188978
 30
0.0
 10
1.0840078740157482
 20
1.3204094488188978
 30
0.0
 10
1.0840078740157482
 20
1.3204094488188978
 30
0.0
 10
1.086232283464567
 20
1.3096889763779529
 30
0.0
 10
1.086232283464567
 20
1.3096889763779529
 30
0.0
 10
1.086232283464567
 20
1.3096889763779529
 30
0.0
 10
1.086232283464567
 20
1.3096889763779529
 30
0.0
 10
1.0874606299212599
 20
1.2988307086614175
 30
0.0
 10
1.0874606299212599
 20
1.2988307086614175
 30
0.0
 10
1.0874606299212599
 20
1.2988307086614175
 30
0.0
 10
1.0874606299212599
 20
1.2988307086614175
 30
0.0
 10
0.4440393700787402
 20
0.9261968503937008
 30
0.0
 10
0.4440393700787402
 20
0.9261968503937008
 30
0.0
 10
0.4440393700787402
 20
0.9261968503937008
 30
0.0
 10
0.4440393700787402
 20
0.9261968503937008
 30
0.0
 10
0.4428110236220473
 20
0.9370551181102362
 30
0.0
 10
0.4428110236220473
 20
0.9370551181102362
 30
0.0
 10
0.4428110236220473
 20
0.9370551181102362
 30
0.0
 10
0.4428110236220473
 20
0.9370551181102362
 30
0.0
 10
0.4405866141732284
 20
0.9477755905511811
 30
0.0
 10
0.4405866141732284
 20
0.9477755905511811
 30
0.0
 10
0.4405866141732284
 20
0.9477755905511811
 30
0.0
 10
0.4405866141732284
 20
0.9477755905511811
 30
0.0
 10
0.4374055118110237
 20
0.9583307086614173
 30
0.0
 10
0.4374055118110237
 20
0.9583307086614173
 30
0.0
 10
0.4374055118110237
 20
0.9583307086614173
 30
0.0
 10
0.4374055118110237
 20
0.9583307086614173
 30
0.0
 10
0.4333425196850394
 20
0.9687125984251969
 30
0.0
 10
0.4333425196850394
 20
0.9687125984251969
 30
0.0
  0
SPLINE
  5
38
100
AcDbEntity
  8
Layer 1
 62
     9
100
AcDbSpline
210
0.0
220
0.0
230
1.0
 70
     1
 71
     3
 72
    44
 73
    40
 74
     0
 42
0.0000000001
 43
0.0000000001
 40
0.0
 40
0.0
 40
0.0
 40
0.0
 40
0.1
 40
0.1
 40
0.1
 40
0.1
 40
0.2
 40
0.2
 40
0.2
 40
0.2
 40
0.3
 40
0.3
 40
0.3
 40
0.3
 40
0.4
 40
0.4
 40
0.4
 40
0.4
 40
0.5
 40
0.5
 40
0.5
 40
0.5
 40
0.6
 40
0.6
 40
0.6
 40
0.6
 40
0.7
 40
0.7
 40
0.7
 40
0.7
 40
0.7999999999999999
 40
0.7999999999999999
 40
0.7999999999999999
 40
0.7999999999999999
 40
0.8999999999999999
 40
0.8999999999999999
 40
0.8999999999999999
 40
0.8999999999999999
 40
1.0
 40
1.0
 40
1.0
 40
1.0
 10
0.4440393700787402
 20
0.9261968503937008
 30
0.0
 10
0.4440393700787402
 20
0.9261968503937008
 30
0.0
 10
1.0874606299212599
 20
1.2988307086614175
 30
0.0
 10
1.0874606299212599
 20
1.2988307086614175
 30
0.0
 10
1.0874606299212599
 20
1.2988307086614175
 30
0.0
 10
1.0874606299212599
 20
1.2988307086614175
 30
0.0
 10
1.0876181102362206
 20
1.2878346456692913
 30
0.0
 10
1.0876181102362206
 20
1.2878346456692913
 30
0.0
 10
1.0876181102362206
 20
1.2878346456692913
 30
0.0
 10
1.0876181102362206
 20
1.2878346456692913
 30
0.0
 10
1.0866574803149607
 20
1.276728346456693
 30
0.0
 10
1.0866574803149607
 20
1.276728346456693
 30
0.0
 10
1.0866574803149607
 20
1.276728346456693
 30
0.0
 10
1.0866574803149607
 20
1.276728346456693
 30
0.0
 10
1.0845157480314962
 20
1.2655236220472441
 30
0.0
 10
1.0845157480314962
 20
1.2655236220472441
 30
0.0
 10
1.0845157480314962
 20
1.2655236220472441
 30
0.0
 10
1.0845157480314962
 20
1.2655236220472441
 30
0.0
 10
1.0811456692913386
 20
1.254244094488189
 30
0.0
 10
1.0811456692913386
 20
1.254244094488189
 30
0.0
 10
1.0811456692913386
 20
1.254244094488189
 30
0.0
 10
1.0811456692913386
 20
1.254244094488189
 30
0.0
 10
0.4377244094488189
 20
0.8816102362204725
 30
0.0
 10
0.4377244094488189
 20
0.8816102362204725
 30
0.0
 10
0.4377244094488189
 20
0.8816102362204725
 30
0.0
 10
0.4377244094488189
 20
0.8816102362204725
 30
0.0
 10
0.4410944881889764
 20
0.8928897637795276
 30
0.0
 10
0.4410944881889764
 20
0.8928897637795276
 30
0.0
 10
0.4410944881889764
 20
0.8928897637795276
 30
0.0
 10
0.4410944881889764
 20
0.8928897637795276
 30
0.0
 10
0.443236220472441
 20
0.9040944881889764
 30
0.0
 10
0.443236220472441
 20
0.9040944881889764
 30
0.0
 10
0.443236220472441
 20
0.9040944881889764
 30
0.0
 10
0.443236220472441
 20
0.9040944881889764
 30
0.0
 10
0.4441968503937008
 20
0.9152007874015748
 30
0.0
 10
0.4441968503937008
 20
0.9152007874015748
 30
0.0
 10
0.4441968503937008
 20
0.9152007874015748
 30
0.0
 10
0.4441968503937008
 20
0.9152007874015748
 30
0.0
 10
0.4440393700787402
 20
0.9261968503937008
 30
0.0
 10
0.4440393700787402
 20
0.9261968503937008
 30
0.0
  0
SPLINE
  5
39
100
AcDbEntity
  8
Layer 1
 62
     9
100
AcDbSpline
210
0.0
220
0.0
230
1.0
 70
     1
 71
     3
 72
    36
 73
    32
 74
     0
 42
0.0000000001
 43
0.0000000001
 40
0.0
 40
0.0
 40
0.0
 40
0.0
 40
0.125
 40
0.125
 40
0.125
 40
0.125
 40
0.25
 40
0.25
 40
0.25
 40
0.25
 40
0.375
 40
0.375
 40
0.375
 40
0.375
 40
0.5
 40
0.5
 40
0.5
 40
0.5
 40
0.625
 40
0.625
 40
0.625
 40
0.625
 40
0.75
 40
0.75
 40
0.75
 40
0.75
 40
0.875
 40
0.875
 40
0.875
 40
0.875
 40
1.0
 40
1.0
 40
1.0
 40
1.0
 10
0.4377244094488189
 20
0.8816102362204725
 30
0.0
 10
0.4377244094488189
 20
0.8816102362204725
 30
0.0
 10
1.0811456692913386
 20
1.254244094488189
 30
0.0
 10
1.0811456692913386
 20
1.254244094488189
 30
0.0
 10
1.0811456692913386
 20
1.254244094488189
 30
0.0
 10
1.0811456692913386
 20
1.254244094488189
 30
0.0
 10
1.076472440944882
 20
1.2428858267716536
 30
0.0
 10
1.076472440944882
 20
1.2428858267716536
 30
0.0
 10
1.076472440944882
 20
1.2428858267716536
 30
0.0
 10
1.076472440944882
 20
1.2428858267716536
 30
0.0
 10
1.0704527559055119
 20
1.231488188976378
 30
0.0
 10
1.0704527559055119
 20
1.231488188976378
 30
0.0
 10
1.0704527559055119
 20
1.231488188976378
 30
0.0
 10
1.0704527559055119
 20
1.231488188976378
 30
0.0
 10
1.0630275590551181
 20
1.2200511811023622
 30
0.0
 10
1.0630275590551181
 20
1.2200511811023622
 30
0.0
 10
1.0630275590551181
 20
1.2200511811023622
 30
0.0
 10
1.0630275590551181
 20
1.2200511811023622
 30
0.0
 10
0.4196062992125985
 20
0.8474173228346457
 30
0.0
 10
0.4196062992125985
 20
0.8474173228346457
 30
0.0
 10
0.4196062992125985
 20
0.8474173228346457
 30
0.0
 10
0.4196062992125985
 20
0.8474173228346457
 30
0.0
 10
0.4270314960629921
 20
0.8588543307086615
 30
0.0
 10
0.4270314960629921
 20
0.8588543307086615
 30
0.0
 10
0.4270314960629921
 20
0.8588543307086615
 30
0.0
 10
0.4270314960629921
 20
0.8588543307086615
 30
0.0
 10
0.4330511811023622
 20
0.8702519685039371
 30
0.0
 10
0.4330511811023622
 20
0.8702519685039371
 30
0.0
 10
0.4330511811023622
 20
0.8702519685039371
 30
0.0
 10
0.4330511811023622
 20
0.8702519685039371
 30
0.0
 10
0.4377244094488189
 20
0.8816102362204725
 30
0.0
 10
0.4377244094488189
 20
0.8816102362204725
 30
0.0
  0
SPLINE
  5
3A
100
AcDbEntity
  8
Layer 1
 62
     9
100
AcDbSpline
210
0.0
220
0.0
230
1.0
 70
     1
 71
     3
 72
    36
 73
    32
 74
     0
 42
0.0000000001
 43
0.0000000001
 40
0.0
 40
0.0
 40
0.0
 40
0.0
 40
0.125
 40
0.125
 40
0.125
 40
0.125
 40
0.25
 40
0.25
 40
0.25
 40
0.25
 40
0.375
 40
0.375
 40
0.375
 40
0.375
 40
0.5
 40
0.5
 40
0.5
 40
0.5
 40
0.625
 40
0.625
 40
0.625
 40
0.625
 40
0.75
 40
0.75
 40
0.75
 40
0.75
 40
0.875
 40
0.875
 40
0.875
 40
0.875
 40
1.0
 40
1.0
 40
1.0
 40
1.0
 10
0.4196062992125985
 20
0.8474173228346457
 30
0.0
 10
0.4196062992125985
 20
0.8474173228346457
 30
0.0
 10
1.0630275590551181
 20
1.2200511811023622
 30
0.0
 10
1.0630275590551181
 20
1.2200511811023622
 30
0.0
 10
1.0630275590551181
 20
1.2200511811023622
 30
0.0
 10
1.0630275590551181
 20
1.2200511811023622
 30
0.0
 10
1.0541377952755906
 20
1.2086023622047244
 30
0.0
 10
1.0541377952755906
 20
1.2086023622047244
 30
0.0
 10
1.0541377952755906
 20
1.2086023622047244
 30
0.0
 10
1.0541377952755906
 20
1.2086023622047244
 30
0.0
 10
1.043720472440945
 20
1.1971456692913387
 30
0.0
 10
1.043720472440945
 20
1.1971456692913387
 30
0.0
 10
1.043720472440945
 20
1.1971456692913387
 30
0.0
 10
1.043720472440945
 20
1.1971456692913387
 30
0.0
 10
1.031732283464567
 20
1.1857086614173229
 30
0.0
 10
1.031732283464567
 20
1.1857086614173229
 30
0.0
 10
1.031732283464567
 20
1.1857086614173229
 30
0.0
 10
1.031732283464567
 20
1.1857086614173229
 30
0.0
 10
0.3883110236220473
 20
0.8130748031496063
 30
0.0
 10
0.3883110236220473
 20
0.8130748031496063
 30
0.0
 10
0.3883110236220473
 20
0.8130748031496063
 30
0.0
 10
0.3883110236220473
 20
0.8130748031496063
 30
0.0
 10
0.4002992125984252
 20
0.824511811023622
 30
0.0
 10
0.4002992125984252
 20
0.824511811023622
 30
0.0
 10
0.4002992125984252
 20
0.824511811023622
 30
0.0
 10
0.4002992125984252
 20
0.824511811023622
 30
0.0
 10
0.4107165354330709
 20
0.835968503937008
 30
0.0
 10
0.4107165354330709
 20
0.835968503937008
 30
0.0
 10
0.4107165354330709
 20
0.835968503937008
 30
0.0
 10
0.4107165354330709
 20
0.835968503937008
 30
0.0
 10
0.4196062992125985
 20
0.8474173228346457
 30
0.0
 10
0.4196062992125985
 20
0.8474173228346457
 30
0.0
  0
SPLINE
  5
3B
100
AcDbEntity
  8
Layer 1
 62
   253
100
AcDbSpline
210
0.0
220
0.0
230
1.0
 70
     1
 71
     3
 72
    28
 73
    24
 74
     0
 42
0.0000000001
 43
0.0000000001
 40
0.0
 40
0.0
 40
0.0
 40
0.0
 40
0.1666666666666667
 40
0.1666666666666667
 40
0.1666666666666667
 40
0.1666666666666667
 40
0.3333333333333333
 40
0.3333333333333333
 40
0.3333333333333333
 40
0.3333333333333333
 40
0.5
 40
0.5
 40
0.5
 40
0.5
 40
0.6666666666666666
 40
0.6666666666666666
 40
0.6666666666666666
 40
0.6666666666666666
 40
0.8333333333333333
 40
0.8333333333333333
 40
0.8333333333333333
 40
0.8333333333333333
 40
1.0
 40
1.0
 40
1.0
 40
1.0
 10
0.3883110236220473
 20
0.8130748031496063
 30
0.0
 10
0.3883110236220473
 20
0.8130748031496063
 30
0.0
 10
1.031732283464567
 20
1.1857086614173229
 30
0.0
 10
1.031732283464567
 20
1.1857086614173229
 30
0.0
 10
1.031732283464567
 20
1.1857086614173229
 30
0.0
 10
1.031732283464567
 20
1.1857086614173229
 30
0.0
 10
1.0181023622047245
 20
1.1743031496062992
 30
0.0
 10
1.0181023622047245
 20
1.1743031496062992
 30
0.0
 10
1.0181023622047245
 20
1.1743031496062992
 30
0.0
 10
1.0181023622047245
 20
1.1743031496062992
 30
0.0
 10
1.0027874015748033
 20
1.1629488188976378
 30
0.0
 10
1.0027874015748033
 20
1.1629488188976378
 30
0.0
 10
1.0027874015748033
 20
1.1629488188976378
 30
0.0
 10
1.0027874015748033
 20
1.1629488188976378
 30
0.0
 10
0.3593661417322835
 20
0.7903149606299212
 30
0.0
 10
0.3593661417322835
 20
0.7903149606299212
 30
0.0
 10
0.3593661417322835
 20
0.7903149606299212
 30
0.0
 10
0.3593661417322835
 20
0.7903149606299212
 30
0.0
 10
0.3746811023622048
 20
0.8016692913385827
 30
0.0
 10
0.3746811023622048
 20
0.8016692913385827
 30
0.0
 10
0.3746811023622048
 20
0.8016692913385827
 30
0.0
 10
0.3746811023622048
 20
0.8016692913385827
 30
0.0
 10
0.3883110236220473
 20
0.8130748031496063
 30
0.0
 10
0.3883110236220473
 20
0.8130748031496063
 30
0.0
  0
SPLINE
  5
3C
100
AcDbEntity
  8
Layer 1
370
     5
100
AcDbSpline
210
0.0
220
0.0
230
1.0
 70
     1
 71
     3
 72
   524
 73
   520
 74
     0
 42
0.0000000001
 43
0.0000000001
 40
0.0
 40
0.0
 40
0.0
 40
0.0
 40
0.0076923076923077
 40
0.0076923076923077
 40
0.0076923076923077
 40
0.0076923076923077
 40
0.0153846153846154
 40
0.0153846153846154
 40
0.0153846153846154
 40
0.0153846153846154
 40
0.0230769230769231
 40
0.0230769230769231
 40
0.0230769230769231
 40
0.0230769230769231
 40
0.0307692307692308
 40
0.0307692307692308
 40
0.0307692307692308
 40
0.0307692307692308
 40
0.0384615384615385
 40
0.0384615384615385
 40
0.0384615384615385
 40
0.0384615384615385
 40
0.0461538461538462
 40
0.0461538461538462
 40
0.0461538461538462
 40
0.0461538461538462
 40
0.0538461538461538
 40
0.0538461538461538
 40
0.0538461538461538
 40
0.0538461538461538
 40
0.0615384615384615
 40
0.0615384615384615
 40
0.0615384615384615
 40
0.0615384615384615
 40
0.0692307692307692
 40
0.0692307692307692
 40
0.0692307692307692
 40
0.0692307692307692
 40
0.0769230769230769
 40
0.0769230769230769
 40
0.0769230769230769
 40
0.0769230769230769
 40
0.0846153846153846
 40
0.0846153846153846
 40
0.0846153846153846
 40
0.0846153846153846
 40
0.0923076923076923
 40
0.0923076923076923
 40
0.0923076923076923
 40
0.0923076923076923
 40
0.1
 40
0.1
 40
0.1
 40
0.1
 40
0.1076923076923077
 40
0.1076923076923077
 40
0.1076923076923077
 40
0.1076923076923077
 40
0.1153846153846154
 40
0.1153846153846154
 40
0.1153846153846154
 40
0.1153846153846154
 40
0.1230769230769231
 40
0.1230769230769231
 40
0.1230769230769231
 40
0.1230769230769231
 40
0.1307692307692308
 40
0.1307692307692308
 40
0.1307692307692308
 40
0.1307692307692308
 40
0.1384615384615385
 40
0.1384615384615385
 40
0.1384615384615385
 40
0.1384615384615385
 40
0.1461538461538462
 40
0.1461538461538462
 40
0.1461538461538462
 40
0.1461538461538462
 40
0.1538461538461539
 40
0.1538461538461539
 40
0.1538461538461539
 40
0.1538461538461539
 40
0.1615384615384616
 40
0.1615384615384616
 40
0.1615384615384616
 40
0.1615384615384616
 40
0.1692307692307692
 40
0.1692307692307692
 40
0.1692307692307692
 40
0.1692307692307692
 40
0.1769230769230769
 40
0.1769230769230769
 40
0.1769230769230769
 40
0.1769230769230769
 40
0.1846153846153846
 40
0.1846153846153846
 40
0.1846153846153846
 40
0.1846153846153846
 40
0.1923076923076923
 40
0.1923076923076923
 40
0.1923076923076923
 40
0.1923076923076923
 40
0.2
 40
0.2
 40
0.2
 40
0.2
 40
0.2076923076923077
 40
0.2076923076923077
 40
0.2076923076923077
 40
0.2076923076923077
 40
0.2153846153846154
 40
0.2153846153846154
 40
0.2153846153846154
 40
0.2153846153846154
 40
0.2230769230769231
 40
0.2230769230769231
 40
0.2230769230769231
 40
0.2230769230769231
 40
0.2307692307692308
 40
0.2307692307692308
 40
0.2307692307692308
 40
0.2307692307692308
 40
0.2384615384615385
 40
0.2384615384615385
 40
0.2384615384615385
 40
0.2384615384615385
 40
0.2461538461538462
 40
0.2461538461538462
 40
0.2461538461538462
 40
0.2461538461538462
 40
0.2538461538461538
 40
0.2538461538461538
 40
0.2538461538461538
 40
0.2538461538461538
 40
0.2615384615384615
 40
0.2615384615384615
 40
0.2615384615384615
 40
0.2615384615384615
 40
0.2692307692307692
 40
0.2692307692307692
 40
0.2692307692307692
 40
0.2692307692307692
 40
0.2769230769230768
 40
0.2769230769230768
 40
0.2769230769230768
 40
0.2769230769230768
 40
0.2846153846153845
 40
0.2846153846153845
 40
0.2846153846153845
 40
0.2846153846153845
 40
0.2923076923076922
 40
0.2923076923076922
 40
0.2923076923076922
 40
0.2923076923076922
 40
0.2999999999999998
 40
0.2999999999999998
 40
0.2999999999999998
 40
0.2999999999999998
 40
0.3076923076923075
 40
0.3076923076923075
 40
0.3076923076923075
 40
0.3076923076923075
 40
0.3153846153846152
 40
0.3153846153846152
 40
0.3153846153846152
 40
0.3153846153846152
 40
0.3230769230769228
 40
0.3230769230769228
 40
0.3230769230769228
 40
0.3230769230769228
 40
0.3307692307692305
 40
0.3307692307692305
 40
0.3307692307692305
 40
0.3307692307692305
 40
0.3384615384615382
 40
0.3384615384615382
 40
0.3384615384615382
 40
0.3384615384615382
 40
0.3461538461538458
 40
0.3461538461538458
 40
0.3461538461538458
 40
0.3461538461538458
 40
0.3538461538461535
 40
0.3538461538461535
 40
0.3538461538461535
 40
0.3538461538461535
 40
0.3615384615384611
 40
0.3615384615384611
 40
0.3615384615384611
 40
0.3615384615384611
 40
0.3692307692307688
 40
0.3692307692307688
 40
0.3692307692307688
 40
0.3692307692307688
 40
0.3769230769230765
 40
0.3769230769230765
 40
0.3769230769230765
 40
0.3769230769230765
 40
0.3846153846153841
 40
0.3846153846153841
 40
0.3846153846153841
 40
0.3846153846153841
 40
0.3923076923076918
 40
0.3923076923076918
 40
0.3923076923076918
 40
0.3923076923076918
 40
0.3999999999999995
 40
0.3999999999999995
 40
0.3999999999999995
 40
0.3999999999999995
 40
0.4076923076923071
 40
0.4076923076923071
 40
0.4076923076923071
 40
0.4076923076923071
 40
0.4153846153846148
 40
0.4153846153846148
 40
0.4153846153846148
 40
0.4153846153846148
 40
0.4230769230769225
 40
0.4230769230769225
 40
0.4230769230769225
 40
0.4230769230769225
 40
0.4307692307692301
 40
0.4307692307692301
 40
0.4307692307692301
 40
0.4307692307692301
 40
0.4384615384615378
 40
0.4384615384615378
 40
0.4384615384615378
 40
0.4384615384615378
 40
0.4461538461538455
 40
0.4461538461538455
 40
0.4461538461538455
 40
0.4461538461538455
 40
0.4538461538461531
 40
0.4538461538461531
 40
0.4538461538461531
 40
0.4538461538461531
 40
0.4615384615384608
 40
0.4615384615384608
 40
0.4615384615384608
 40
0.4615384615384608
 40
0.4692307692307685
 40
0.4692307692307685
 40
0.4692307692307685
 40
0.4692307692307685
 40
0.4769230769230761
 40
0.4769230769230761
 40
0.4769230769230761
 40
0.4769230769230761
 40
0.4846153846153838
 40
0.4846153846153838
 40
0.4846153846153838
 40
0.4846153846153838
 40
0.4923076923076915
 40
0.4923076923076915
 40
0.4923076923076915
 40
0.4923076923076915
 40
0.4999999999999991
 40
0.4999999999999991
 40
0.4999999999999991
 40
0.4999999999999991
 40
0.5076923076923068
 40
0.5076923076923068
 40
0.5076923076923068
 40
0.5076923076923068
 40
0.5153846153846144
 40
0.5153846153846144
 40
0.5153846153846144
 40
0.5153846153846144
 40
0.5230769230769221
 40
0.5230769230769221
 40
0.5230769230769221
 40
0.5230769230769221
 40
0.5307692307692298
 40
0.5307692307692298
 40
0.5307692307692298
 40
0.5307692307692298
 40
0.5384615384615374
 40
0.5384615384615374
 40
0.5384615384615374
 40
0.5384615384615374
 40
0.5461538461538451
 40
0.5461538461538451
 40
0.5461538461538451
 40
0.5461538461538451
 40
0.5538461538461528
 40
0.5538461538461528
 40
0.5538461538461528
 40
0.5538461538461528
 40
0.5615384615384604
 40
0.5615384615384604
 40
0.5615384615384604
 40
0.5615384615384604
 40
0.5692307692307681
 40
0.5692307692307681
 40
0.5692307692307681
 40
0.5692307692307681
 40
0.5769230769230758
 40
0.5769230769230758
 40
0.5769230769230758
 40
0.5769230769230758
 40
0.5846153846153834
 40
0.5846153846153834
 40
0.5846153846153834
 40
0.5846153846153834
 40
0.5923076923076911
 40
0.5923076923076911
 40
0.5923076923076911
 40
0.5923076923076911
 40
0.5999999999999988
 40
0.5999999999999988
 40
0.5999999999999988
 40
0.5999999999999988
 40
0.6076923076923064
 40
0.6076923076923064
 40
0.6076923076923064
 40
0.6076923076923064
 40
0.6153846153846141
 40
0.6153846153846141
 40
0.6153846153846141
 40
0.6153846153846141
 40
0.6230769230769218
 40
0.6230769230769218
 40
0.6230769230769218
 40
0.6230769230769218
 40
0.6307692307692294
 40
0.6307692307692294
 40
0.6307692307692294
 40
0.6307692307692294
 40
0.6384615384615371
 40
0.6384615384615371
 40
0.6384615384615371
 40
0.6384615384615371
 40
0.6461538461538448
 40
0.6461538461538448
 40
0.6461538461538448
 40
0.6461538461538448
 40
0.6538461538461524
 40
0.6538461538461524
 40
0.6538461538461524
 40
0.6538461538461524
 40
0.6615384615384601
 40
0.6615384615384601
 40
0.6615384615384601
 40
0.6615384615384601
 40
0.6692307692307677
 40
0.6692307692307677
 40
0.6692307692307677
 40
0.6692307692307677
 40
0.6769230769230754
 40
0.6769230769230754
 40
0.6769230769230754
 40
0.6769230769230754
 40
0.6846153846153831
 40
0.6846153846153831
 40
0.6846153846153831
 40
0.6846153846153831
 40
0.6923076923076907
 40
0.6923076923076907
 40
0.6923076923076907
 40
0.6923076923076907
 40
0.6999999999999984
 40
0.6999999999999984
 40
0.6999999999999984
 40
0.6999999999999984
 40
0.7076923076923061
 40
0.7076923076923061
 40
0.7076923076923061
 40
0.7076923076923061
 40
0.7153846153846137
 40
0.7153846153846137
 40
0.7153846153846137
 40
0.7153846153846137
 40
0.7230769230769214
 40
0.7230769230769214
 40
0.7230769230769214
 40
0.7230769230769214
 40
0.7307692307692291
 40
0.7307692307692291
 40
0.7307692307692291
 40
0.7307692307692291
 40
0.7384615384615367
 40
0.7384615384615367
 40
0.7384615384615367
 40
0.7384615384615367
 40
0.7461538461538444
 40
0.7461538461538444
 40
0.7461538461538444
 40
0.7461538461538444
 40
0.7538461538461521
 40
0.7538461538461521
 40
0.7538461538461521
 40
0.7538461538461521
 40
0.7615384615384597
 40
0.7615384615384597
 40
0.7615384615384597
 40
0.7615384615384597
 40
0.7692307692307674
 40
0.7692307692307674
 40
0.7692307692307674
 40
0.7692307692307674
 40
0.7769230769230751
 40
0.7769230769230751
 40
0.7769230769230751
 40
0.7769230769230751
 40
0.7846153846153827
 40
0.7846153846153827
 40
0.7846153846153827
 40
0.7846153846153827
 40
0.7923076923076904
 40
0.7923076923076904
 40
0.7923076923076904
 40
0.7923076923076904
 40
0.7999999999999981
 40
0.7999999999999981
 40
0.7999999999999981
 40
0.7999999999999981
 40
0.8076923076923057
 40
0.8076923076923057
 40
0.8076923076923057
 40
0.8076923076923057
 40
0.8153846153846134
 40
0.8153846153846134
 40
0.8153846153846134
 40
0.8153846153846134
 40
0.823076923076921
 40
0.823076923076921
 40
0.823076923076921
 40
0.823076923076921
 40
0.8307692307692287
 40
0.8307692307692287
 40
0.8307692307692287
 40
0.8307692307692287
 40
0.8384615384615364
 40
0.8384615384615364
 40
0.8384615384615364
 40
0.8384615384615364
 40
0.846153846153844
 40
0.846153846153844
 40
0.846153846153844
 40
0.846153846153844
 40
0.8538461538461517
 40
0.8538461538461517
 40
0.8538461538461517
 40
0.8538461538461517
 40
0.8615384615384594
 40
0.8615384615384594
 40
0.8615384615384594
 40
0.8615384615384594
 40
0.869230769230767
 40
0.869230769230767
 40
0.869230769230767
 40
0.869230769230767
 40
0.8769230769230747
 40
0.8769230769230747
 40
0.8769230769230747
 40
0.8769230769230747
 40
0.8846153846153824
 40
0.8846153846153824
 40
0.8846153846153824
 40
0.8846153846153824
 40
0.89230769230769
 40
0.89230769230769
 40
0.89230769230769
 40
0.89230769230769
 40
0.8999999999999977
 40
0.8999999999999977
 40
0.8999999999999977
 40
0.8999999999999977
 40
0.9076923076923054
 40
0.9076923076923054
 40
0.9076923076923054
 40
0.9076923076923054
 40
0.915384615384613
 40
0.915384615384613
 40
0.915384615384613
 40
0.915384615384613
 40
0.9230769230769207
 40
0.9230769230769207
 40
0.9230769230769207
 40
0.9230769230769207
 40
0.9307692307692284
 40
0.9307692307692284
 40
0.9307692307692284
 40
0.9307692307692284
 40
0.938461538461536
 40
0.938461538461536
 40
0.938461538461536
 40
0.938461538461536
 40
0.9461538461538437
 40
0.9461538461538437
 40
0.9461538461538437
 40
0.9461538461538437
 40
0.9538461538461514
 40
0.9538461538461514
 40
0.9538461538461514
 40
0.9538461538461514
 40
0.961538461538459
 40
0.961538461538459
 40
0.961538461538459
 40
0.961538461538459
 40
0.9692307692307667
 40
0.9692307692307667
 40
0.9692307692307667
 40
0.9692307692307667
 40
0.9769230769230743
 40
0.9769230769230743
 40
0.9769230769230743
 40
0.9769230769230743
 40
0.984615384615382
 40
0.984615384615382
 40
0.984615384615382
 40
0.984615384615382
 40
0.9923076923076897
 40
0.9923076923076897
 40
0.9923076923076897
 40
0.9923076923076897
 40
1.0
 40
1.0
 40
1.0
 40
1.0
 10
0.0774448818897638
 20
1.3453267716535433
 30
0.0
 10
0.0774448818897638
 20
1.3453267716535433
 30
0.0
 10
0.7208661417322835
 20
1.71796062992126
 30
0.0
 10
0.7208661417322835
 20
1.71796062992126
 30
0.0
 10
0.7208661417322835
 20
1.71796062992126
 30
0.0
 10
0.7208661417322835
 20
1.71796062992126
 30
0.0
 10
0.7234685039370079
 20
1.7073228346456693
 30
0.0
 10
0.7234685039370079
 20
1.7073228346456693
 30
0.0
 10
0.7234685039370079
 20
1.7073228346456693
 30
0.0
 10
0.7234685039370079
 20
1.7073228346456693
 30
0.0
 10
0.7263779527559056
 20
1.6969015748031497
 30
0.0
 10
0.7263779527559056
 20
1.6969015748031497
 30
0.0
 10
0.7263779527559056
 20
1.6969015748031497
 30
0.0
 10
0.7263779527559056
 20
1.6969015748031497
 30
0.0
 10
0.7295826771653544
 20
1.6866811023622048
 30
0.0
 10
0.7295826771653544
 20
1.6866811023622048
 30
0.0
 10
0.7295826771653544
 20
1.6866811023622048
 30
0.0
 10
0.7295826771653544
 20
1.6866811023622048
 30
0.0
 10
0.7330826771653544
 20
1.6766692913385828
 30
0.0
 10
0.7330826771653544
 20
1.6766692913385828
 30
0.0
 10
0.7330826771653544
 20
1.6766692913385828
 30
0.0
 10
0.7330826771653544
 20
1.6766692913385828
 30
0.0
 10
0.7368622047244094
 20
1.6668503937007875
 30
0.0
 10
0.7368622047244094
 20
1.6668503937007875
 30
0.0
 10
0.7368622047244094
 20
1.6668503937007875
 30
0.0
 10
0.7368622047244094
 20
1.6668503937007875
 30
0.0
 10
0.7409370078740157
 20
1.6572401574803151
 30
0.0
 10
0.7409370078740157
 20
1.6572401574803151
 30
0.0
 10
0.7409370078740157
 20
1.6572401574803151
 30
0.0
 10
0.7409370078740157
 20
1.6572401574803151
 30
0.0
 10
0.7452913385826772
 20
1.6478228346456694
 30
0.0
 10
0.7452913385826772
 20
1.6478228346456694
 30
0.0
 10
0.7452913385826772
 20
1.6478228346456694
 30
0.0
 10
0.7452913385826772
 20
1.6478228346456694
 30
0.0
 10
0.7499330708661418
 20
1.6386062992125985
 30
0.0
 10
0.7499330708661418
 20
1.6386062992125985
 30
0.0
 10
0.7499330708661418
 20
1.6386062992125985
 30
0.0
 10
0.7499330708661418
 20
1.6386062992125985
 30
0.0
 10
0.7548385826771654
 20
1.6295708661417323
 30
0.0
 10
0.7548385826771654
 20
1.6295708661417323
 30
0.0
 10
0.7548385826771654
 20
1.6295708661417323
 30
0.0
 10
0.7548385826771654
 20
1.6295708661417323
 30
0.0
 10
0.7600275590551181
 20
1.620732283464567
 30
0.0
 10
0.7600275590551181
 20
1.620732283464567
 30
0.0
 10
0.7600275590551181
 20
1.620732283464567
 30
0.0
 10
0.7600275590551181
 20
1.620732283464567
 30
0.0
 10
0.76548031496063
 20
1.6120787401574803
 30
0.0
 10
0.76548031496063
 20
1.6120787401574803
 30
0.0
 10
0.76548031496063
 20
1.6120787401574803
 30
0.0
 10
0.76548031496063
 20
1.6120787401574803
 30
0.0
 10
0.7712086614173229
 20
1.6036220472440945
 30
0.0
 10
0.7712086614173229
 20
1.6036220472440945
 30
0.0
 10
0.7712086614173229
 20
1.6036220472440945
 30
0.0
 10
0.7712086614173229
 20
1.6036220472440945
 30
0.0
 10
0.7771929133858269
 20
1.5953385826771653
 30
0.0
 10
0.7771929133858269
 20
1.5953385826771653
 30
0.0
 10
0.7771929133858269
 20
1.5953385826771653
 30
0.0
 10
0.7771929133858269
 20
1.5953385826771653
 30
0.0
 10
0.7834409448818898
 20
1.5872440944881889
 30
0.0
 10
0.7834409448818898
 20
1.5872440944881889
 30
0.0
 10
0.7834409448818898
 20
1.5872440944881889
 30
0.0
 10
0.7834409448818898
 20
1.5872440944881889
 30
0.0
 10
0.7899488188976378
 20
1.5793228346456694
 30
0.0
 10
0.7899488188976378
 20
1.5793228346456694
 30
0.0
 10
0.7899488188976378
 20
1.5793228346456694
 30
0.0
 10
0.7899488188976378
 20
1.5793228346456694
 30
0.0
 10
0.7967165354330709
 20
1.5715905511811024
 30
0.0
 10
0.7967165354330709
 20
1.5715905511811024
 30
0.0
 10
0.7967165354330709
 20
1.5715905511811024
 30
0.0
 10
0.7967165354330709
 20
1.5715905511811024
 30
0.0
 10
0.803724409448819
 20
1.5640196850393702
 30
0.0
 10
0.803724409448819
 20
1.5640196850393702
 30
0.0
 10
0.803724409448819
 20
1.5640196850393702
 30
0.0
 10
0.803724409448819
 20
1.5640196850393702
 30
0.0
 10
0.810984251968504
 20
1.5566259842519685
 30
0.0
 10
0.810984251968504
 20
1.5566259842519685
 30
0.0
 10
0.810984251968504
 20
1.5566259842519685
 30
0.0
 10
0.810984251968504
 20
1.5566259842519685
 30
0.0
 10
0.818492125984252
 20
1.5494055118110237
 30
0.0
 10
0.818492125984252
 20
1.5494055118110237
 30
0.0
 10
0.818492125984252
 20
1.5494055118110237
 30
0.0
 10
0.818492125984252
 20
1.5494055118110237
 30
0.0
 10
0.826244094488189
 20
1.5423543307086616
 30
0.0
 10
0.826244094488189
 20
1.5423543307086616
 30
0.0
 10
0.826244094488189
 20
1.5423543307086616
 30
0.0
 10
0.826244094488189
 20
1.5423543307086616
 30
0.0
 10
0.834228346456693
 20
1.535464566929134
 30
0.0
 10
0.834228346456693
 20
1.535464566929134
 30
0.0
 10
0.834228346456693
 20
1.535464566929134
 30
0.0
 10
0.834228346456693
 20
1.535464566929134
 30
0.0
 10
0.8424606299212599
 20
1.5287440944881889
 30
0.0
 10
0.8424606299212599
 20
1.5287440944881889
 30
0.0
 10
0.8424606299212599
 20
1.5287440944881889
 30
0.0
 10
0.8424606299212599
 20
1.5287440944881889
 30
0.0
 10
0.8509173228346457
 20
1.5221850393700789
 30
0.0
 10
0.8509173228346457
 20
1.5221850393700789
 30
0.0
 10
0.8509173228346457
 20
1.5221850393700789
 30
0.0
 10
0.8509173228346457
 20
1.5221850393700789
 30
0.0
 10
0.8596141732283464
 20
1.5157913385826771
 30
0.0
 10
0.8596141732283464
 20
1.5157913385826771
 30
0.0
 10
0.8596141732283464
 20
1.5157913385826771
 30
0.0
 10
0.8596141732283464
 20
1.5157913385826771
 30
0.0
 10
0.8685275590551181
 20
1.5095472440944881
 30
0.0
 10
0.8685275590551181
 20
1.5095472440944881
 30
0.0
 10
0.8685275590551181
 20
1.5095472440944881
 30
0.0
 10
0.8685275590551181
 20
1.5095472440944881
 30
0.0
 10
0.8776692913385827
 20
1.503464566929134
 30
0.0
 10
0.8776692913385827
 20
1.503464566929134
 30
0.0
 10
0.8776692913385827
 20
1.503464566929134
 30
0.0
 10
0.8776692913385827
 20
1.503464566929134
 30
0.0
 10
0.8870314960629921
 20
1.4975314960629922
 30
0.0
 10
0.8870314960629921
 20
1.4975314960629922
 30
0.0
 10
0.8870314960629921
 20
1.4975314960629922
 30
0.0
 10
0.8870314960629921
 20
1.4975314960629922
 30
0.0
 10
0.8966141732283465
 20
1.491755905511811
 30
0.0
 10
0.8966141732283465
 20
1.491755905511811
 30
0.0
 10
0.8966141732283465
 20
1.491755905511811
 30
0.0
 10
0.8966141732283465
 20
1.491755905511811
 30
0.0
 10
0.9064055118110237
 20
1.4861220472440946
 30
0.0
 10
0.9064055118110237
 20
1.4861220472440946
 30
0.0
 10
0.9064055118110237
 20
1.4861220472440946
 30
0.0
 10
0.9064055118110237
 20
1.4861220472440946
 30
0.0
 10
0.9164173228346457
 20
1.4806377952755907
 30
0.0
 10
0.9164173228346457
 20
1.4806377952755907
 30
0.0
 10
0.9164173228346457
 20
1.4806377952755907
 30
0.0
 10
0.9164173228346457
 20
1.4806377952755907
 30
0.0
 10
0.9266338582677166
 20
1.4752992125984252
 30
0.0
 10
0.9266338582677166
 20
1.4752992125984252
 30
0.0
 10
0.9266338582677166
 20
1.4752992125984252
 30
0.0
 10
0.9266338582677166
 20
1.4752992125984252
 30
0.0
 10
0.9370590551181103
 20
1.4701062992125984
 30
0.0
 10
0.9370590551181103
 20
1.4701062992125984
 30
0.0
 10
0.9370590551181103
 20
1.4701062992125984
 30
0.0
 10
0.9370590551181103
 20
1.4701062992125984
 30
0.0
 10
0.9476062992125984
 20
1.464748031496063
 30
0.0
 10
0.9476062992125984
 20
1.464748031496063
 30
0.0
 10
0.9476062992125984
 20
1.464748031496063
 30
0.0
 10
0.9476062992125984
 20
1.464748031496063
 30
0.0
 10
0.9581850393700788
 20
1.458964566929134
 30
0.0
 10
0.9581850393700788
 20
1.458964566929134
 30
0.0
 10
0.9581850393700788
 20
1.458964566929134
 30
0.0
 10
0.9581850393700788
 20
1.458964566929134
 30
0.0
 10
0.9687283464566929
 20
1.452759842519685
 30
0.0
 10
0.9687283464566929
 20
1.452759842519685
 30
0.0
 10
0.9687283464566929
 20
1.452759842519685
 30
0.0
 10
0.9687283464566929
 20
1.452759842519685
 30
0.0
 10
0.9791889763779528
 20
1.4461574803149606
 30
0.0
 10
0.9791889763779528
 20
1.4461574803149606
 30
0.0
 10
0.9791889763779528
 20
1.4461574803149606
 30
0.0
 10
0.9791889763779528
 20
1.4461574803149606
 30
0.0
 10
0.989492125984252
 20
1.4391614173228346
 30
0.0
 10
0.989492125984252
 20
1.4391614173228346
 30
0.0
 10
0.989492125984252
 20
1.4391614173228346
 30
0.0
 10
0.989492125984252
 20
1.4391614173228346
 30
0.0
 10
0.9995944881889765
 20
1.4318031496062993
 30
0.0
 10
0.9995944881889765
 20
1.4318031496062993
 30
0.0
 10
0.9995944881889765
 20
1.4318031496062993
 30
0.0
 10
0.9995944881889765
 20
1.4318031496062993
 30
0.0
 10
1.0094370078740158
 20
1.4240826771653543
 30
0.0
 10
1.0094370078740158
 20
1.4240826771653543
 30
0.0
 10
1.0094370078740158
 20
1.4240826771653543
 30
0.0
 10
1.0094370078740158
 20
1.4240826771653543
 30
0.0
 10
1.0189606299212599
 20
1.4160354330708662
 30
0.0
 10
1.0189606299212599
 20
1.4160354330708662
 30
0.0
 10
1.0189606299212599
 20
1.4160354330708662
 30
0.0
 10
1.0189606299212599
 20
1.4160354330708662
 30
0.0
 10
1.0281023622047245
 20
1.4076535433070867
 30
0.0
 10
1.0281023622047245
 20
1.4076535433070867
 30
0.0
 10
1.0281023622047245
 20
1.4076535433070867
 30
0.0
 10
1.0281023622047245
 20
1.4076535433070867
 30
0.0
 10
1.0368149606299213
 20
1.398972440944882
 30
0.0
 10
1.0368149606299213
 20
1.398972440944882
 30
0.0
 10
1.0368149606299213
 20
1.398972440944882
 30
0.0
 10
1.0368149606299213
 20
1.398972440944882
 30
0.0
 10
1.0450314960629921
 20
1.389996062992126
 30
0.0
 10
1.0450314960629921
 20
1.389996062992126
 30
0.0
 10
1.0450314960629921
 20
1.389996062992126
 30
0.0
 10
1.0450314960629921
 20
1.389996062992126
 30
0.0
 10
1.052704724409449
 20
1.3807519685039371
 30
0.0
 10
1.052704724409449
 20
1.3807519685039371
 30
0.0
 10
1.052704724409449
 20
1.3807519685039371
 30
0.0
 10
1.052704724409449
 20
1.3807519685039371
 30
0.0
 10
1.0597677165354331
 20
1.371244094488189
 30
0.0
 10
1.0597677165354331
 20
1.371244094488189
 30
0.0
 10
1.0597677165354331
 20
1.371244094488189
 30
0.0
 10
1.0597677165354331
 20
1.371244094488189
 30
0.0
 10
1.0661732283464567
 20
1.3615000000000002
 30
0.0
 10
1.0661732283464567
 20
1.3615000000000002
 30
0.0
 10
1.0661732283464567
 20
1.3615000000000002
 30
0.0
 10
1.0661732283464567
 20
1.3615000000000002
 30
0.0
 10
1.0718543307086614
 20
1.3515236220472442
 30
0.0
 10
1.0718543307086614
 20
1.3515236220472442
 30
0.0
 10
1.0718543307086614
 20
1.3515236220472442
 30
0.0
 10
1.0718543307086614
 20
1.3515236220472442
 30
0.0
 10
1.0767637795275591
 20
1.3413464566929134
 30
0.0
 10
1.0767637795275591
 20
1.3413464566929134
 30
0.0
 10
1.0767637795275591
 20
1.3413464566929134
 30
0.0
 10
1.0767637795275591
 20
1.3413464566929134
 30
0.0
 10
1.0808267716535434
 20
1.3309645669291339
 30
0.0
 10
1.0808267716535434
 20
1.3309645669291339
 30
0.0
 10
1.0808267716535434
 20
1.3309645669291339
 30
0.0
 10
1.0808267716535434
 20
1.3309645669291339
 30
0.0
 10
1.0840078740157482
 20
1.3204094488188978
 30
0.0
 10
1.0840078740157482
 20
1.3204094488188978
 30
0.0
 10
1.0840078740157482
 20
1.3204094488188978
 30
0.0
 10
1.0840078740157482
 20
1.3204094488188978
 30
0.0
 10
1.086232283464567
 20
1.3096889763779529
 30
0.0
 10
1.086232283464567
 20
1.3096889763779529
 30
0.0
 10
1.086232283464567
 20
1.3096889763779529
 30
0.0
 10
1.086232283464567
 20
1.3096889763779529
 30
0.0
 10
1.0874606299212599
 20
1.2988307086614175
 30
0.0
 10
1.0874606299212599
 20
1.2988307086614175
 30
0.0
 10
1.0874606299212599
 20
1.2988307086614175
 30
0.0
 10
1.0874606299212599
 20
1.2988307086614175
 30
0.0
 10
1.0876181102362206
 20
1.2878346456692913
 30
0.0
 10
1.0876181102362206
 20
1.2878346456692913
 30
0.0
 10
1.0876181102362206
 20
1.2878346456692913
 30
0.0
 10
1.0876181102362206
 20
1.2878346456692913
 30
0.0
 10
1.0866574803149607
 20
1.276728346456693
 30
0.0
 10
1.0866574803149607
 20
1.276728346456693
 30
0.0
 10
1.0866574803149607
 20
1.276728346456693
 30
0.0
 10
1.0866574803149607
 20
1.276728346456693
 30
0.0
 10
1.0845157480314962
 20
1.2655236220472441
 30
0.0
 10
1.0845157480314962
 20
1.2655236220472441
 30
0.0
 10
1.0845157480314962
 20
1.2655236220472441
 30
0.0
 10
1.0845157480314962
 20
1.2655236220472441
 30
0.0
 10
1.0811456692913386
 20
1.254244094488189
 30
0.0
 10
1.0811456692913386
 20
1.254244094488189
 30
0.0
 10
1.0811456692913386
 20
1.254244094488189
 30
0.0
 10
1.0811456692913386
 20
1.254244094488189
 30
0.0
 10
1.076472440944882
 20
1.2428858267716536
 30
0.0
 10
1.076472440944882
 20
1.2428858267716536
 30
0.0
 10
1.076472440944882
 20
1.2428858267716536
 30
0.0
 10
1.076472440944882
 20
1.2428858267716536
 30
0.0
 10
1.0704527559055119
 20
1.231488188976378
 30
0.0
 10
1.0704527559055119
 20
1.231488188976378
 30
0.0
 10
1.0704527559055119
 20
1.231488188976378
 30
0.0
 10
1.0704527559055119
 20
1.231488188976378
 30
0.0
 10
1.0630275590551181
 20
1.2200511811023622
 30
0.0
 10
1.0630275590551181
 20
1.2200511811023622
 30
0.0
 10
1.0630275590551181
 20
1.2200511811023622
 30
0.0
 10
1.0630275590551181
 20
1.2200511811023622
 30
0.0
 10
1.0541377952755906
 20
1.2086023622047244
 30
0.0
 10
1.0541377952755906
 20
1.2086023622047244
 30
0.0
 10
1.0541377952755906
 20
1.2086023622047244
 30
0.0
 10
1.0541377952755906
 20
1.2086023622047244
 30
0.0
 10
1.043720472440945
 20
1.1971456692913387
 30
0.0
 10
1.043720472440945
 20
1.1971456692913387
 30
0.0
 10
1.043720472440945
 20
1.1971456692913387
 30
0.0
 10
1.043720472440945
 20
1.1971456692913387
 30
0.0
 10
1.031732283464567
 20
1.1857086614173229
 30
0.0
 10
1.031732283464567
 20
1.1857086614173229
 30
0.0
 10
1.031732283464567
 20
1.1857086614173229
 30
0.0
 10
1.031732283464567
 20
1.1857086614173229
 30
0.0
 10
1.0181023622047245
 20
1.1743031496062992
 30
0.0
 10
1.0181023622047245
 20
1.1743031496062992
 30
0.0
 10
1.0181023622047245
 20
1.1743031496062992
 30
0.0
 10
1.0181023622047245
 20
1.1743031496062992
 30
0.0
 10
1.0027874015748033
 20
1.1629488188976378
 30
0.0
 10
1.0027874015748033
 20
1.1629488188976378
 30
0.0
 10
1.0027874015748033
 20
1.1629488188976378
 30
0.0
 10
1.0027874015748033
 20
1.1629488188976378
 30
0.0
 10
0.3593661417322835
 20
0.7903149606299212
 30
0.0
 10
0.3593661417322835
 20
0.7903149606299212
 30
0.0
 10
0.3593661417322835
 20
0.7903149606299212
 30
0.0
 10
0.3593661417322835
 20
0.7903149606299212
 30
0.0
 10
0.3746811023622048
 20
0.8016692913385827
 30
0.0
 10
0.3746811023622048
 20
0.8016692913385827
 30
0.0
 10
0.3746811023622048
 20
0.8016692913385827
 30
0.0
 10
0.3746811023622048
 20
0.8016692913385827
 30
0.0
 10
0.3883110236220473
 20
0.8130748031496063
 30
0.0
 10
0.3883110236220473
 20
0.8130748031496063
 30
0.0
 10
0.3883110236220473
 20
0.8130748031496063
 30
0.0
 10
0.3883110236220473
 20
0.8130748031496063
 30
0.0
 10
0.4002992125984252
 20
0.824511811023622
 30
0.0
 10
0.4002992125984252
 20
0.824511811023622
 30
0.0
 10
0.4002992125984252
 20
0.824511811023622
 30
0.0
 10
0.4002992125984252
 20
0.824511811023622
 30
0.0
 10
0.4107165354330709
 20
0.835968503937008
 30
0.0
 10
0.4107165354330709
 20
0.835968503937008
 30
0.0
 10
0.4107165354330709
 20
0.835968503937008
 30
0.0
 10
0.4107165354330709
 20
0.835968503937008
 30
0.0
 10
0.4196062992125985
 20
0.8474173228346457
 30
0.0
 10
0.4196062992125985
 20
0.8474173228346457
 30
0.0
 10
0.4196062992125985
 20
0.8474173228346457
 30
0.0
 10
0.4196062992125985
 20
0.8474173228346457
 30
0.0
 10
0.4270314960629921
 20
0.8588543307086615
 30
0.0
 10
0.4270314960629921
 20
0.8588543307086615
 30
0.0
 10
0.4270314960629921
 20
0.8588543307086615
 30
0.0
 10
0.4270314960629921
 20
0.8588543307086615
 30
0.0
 10
0.4330511811023622
 20
0.8702519685039371
 30
0.0
 10
0.4330511811023622
 20
0.8702519685039371
 30
0.0
 10
0.4330511811023622
 20
0.8702519685039371
 30
0.0
 10
0.4330511811023622
 20
0.8702519685039371
 30
0.0
 10
0.4377244094488189
 20
0.8816102362204725
 30
0.0
 10
0.4377244094488189
 20
0.8816102362204725
 30
0.0
 10
0.4377244094488189
 20
0.8816102362204725
 30
0.0
 10
0.4377244094488189
 20
0.8816102362204725
 30
0.0
 10
0.4410944881889764
 20
0.8928897637795276
 30
0.0
 10
0.4410944881889764
 20
0.8928897637795276
 30
0.0
 10
0.4410944881889764
 20
0.8928897637795276
 30
0.0
 10
0.4410944881889764
 20
0.8928897637795276
 30
0.0
 10
0.443236220472441
 20
0.9040944881889764
 30
0.0
 10
0.443236220472441
 20
0.9040944881889764
 30
0.0
 10
0.443236220472441
 20
0.9040944881889764
 30
0.0
 10
0.443236220472441
 20
0.9040944881889764
 30
0.0
 10
0.4441968503937008
 20
0.9152007874015748
 30
0.0
 10
0.4441968503937008
 20
0.9152007874015748
 30
0.0
 10
0.4441968503937008
 20
0.9152007874015748
 30
0.0
 10
0.4441968503937008
 20
0.9152007874015748
 30
0.0
 10
0.4440393700787402
 20
0.9261968503937008
 30
0.0
 10
0.4440393700787402
 20
0.9261968503937008
 30
0.0
 10
0.4440393700787402
 20
0.9261968503937008
 30
0.0
 10
0.4440393700787402
 20
0.9261968503937008
 30
0.0
 10
0.4428110236220473
 20
0.9370551181102362
 30
0.0
 10
0.4428110236220473
 20
0.9370551181102362
 30
0.0
 10
0.4428110236220473
 20
0.9370551181102362
 30
0.0
 10
0.4428110236220473
 20
0.9370551181102362
 30
0.0
 10
0.4405866141732284
 20
0.9477755905511811
 30
0.0
 10
0.4405866141732284
 20
0.9477755905511811
 30
0.0
 10
0.4405866141732284
 20
0.9477755905511811
 30
0.0
 10
0.4405866141732284
 20
0.9477755905511811
 30
0.0
 10
0.4374055118110237
 20
0.9583307086614173
 30
0.0
 10
0.4374055118110237
 20
0.9583307086614173
 30
0.0
 10
0.4374055118110237
 20
0.9583307086614173
 30
0.0
 10
0.4374055118110237
 20
0.9583307086614173
 30
0.0
 10
0.4333425196850394
 20
0.9687125984251969
 30
0.0
 10
0.4333425196850394
 20
0.9687125984251969
 30
0.0
 10
0.4333425196850394
 20
0.9687125984251969
 30
0.0
 10
0.4333425196850394
 20
0.9687125984251969
 30
0.0
 10
0.4284330708661417
 20
0.9788897637795276
 30
0.0
 10
0.4284330708661417
 20
0.9788897637795276
 30
0.0
 10
0.4284330708661417
 20
0.9788897637795276
 30
0.0
 10
0.4284330708661417
 20
0.9788897637795276
 30
0.0
 10
0.422751968503937
 20
0.9888661417322835
 30
0.0
 10
0.422751968503937
 20
0.9888661417322835
 30
0.0
 10
0.422751968503937
 20
0.9888661417322835
 30
0.0
 10
0.422751968503937
 20
0.9888661417322835
 30
0.0
 10
0.4163464566929134
 20
0.9986102362204725
 30
0.0
 10
0.4163464566929134
 20
0.9986102362204725
 30
0.0
 10
0.4163464566929134
 20
0.9986102362204725
 30
0.0
 10
0.4163464566929134
 20
0.9986102362204725
 30
0.0
 10
0.4092834645669292
 20
1.0081181102362204
 30
0.0
 10
0.4092834645669292
 20
1.0081181102362204
 30
0.0
 10
0.4092834645669292
 20
1.0081181102362204
 30
0.0
 10
0.4092834645669292
 20
1.0081181102362204
 30
0.0
 10
0.4016102362204725
 20
1.0173622047244095
 30
0.0
 10
0.4016102362204725
 20
1.0173622047244095
 30
0.0
 10
0.4016102362204725
 20
1.0173622047244095
 30
0.0
 10
0.4016102362204725
 20
1.0173622047244095
 30
0.0
 10
0.3933937007874016
 20
1.0263385826771654
 30
0.0
 10
0.3933937007874016
 20
1.0263385826771654
 30
0.0
 10
0.3933937007874016
 20
1.0263385826771654
 30
0.0
 10
0.3933937007874016
 20
1.0263385826771654
 30
0.0
 10
0.3846811023622048
 20
1.03501968503937
 30
0.0
 10
0.3846811023622048
 20
1.03501968503937
 30
0.0
 10
0.3846811023622048
 20
1.03501968503937
 30
0.0
 10
0.3846811023622048
 20
1.03501968503937
 30
0.0
 10
0.3755393700787402
 20
1.0434015748031495
 30
0.0
 10
0.3755393700787402
 20
1.0434015748031495
 30
0.0
 10
0.3755393700787402
 20
1.0434015748031495
 30
0.0
 10
0.3755393700787402
 20
1.0434015748031495
 30
0.0
 10
0.3660157480314961
 20
1.0514488188976379
 30
0.0
 10
0.3660157480314961
 20
1.0514488188976379
 30
0.0
 10
0.3660157480314961
 20
1.0514488188976379
 30
0.0
 10
0.3660157480314961
 20
1.0514488188976379
 30
0.0
 10
0.3561732283464567
 20
1.0591692913385826
 30
0.0
 10
0.3561732283464567
 20
1.0591692913385826
 30
0.0
 10
0.3561732283464567
 20
1.0591692913385826
 30
0.0
 10
0.3561732283464567
 20
1.0591692913385826
 30
0.0
 10
0.3460708661417323
 20
1.0665275590551182
 30
0.0
 10
0.3460708661417323
 20
1.0665275590551182
 30
0.0
 10
0.3460708661417323
 20
1.0665275590551182
 30
0.0
 10
0.3460708661417323
 20
1.0665275590551182
 30
0.0
 10
0.3357677165354331
 20
1.0735236220472442
 30
0.0
 10
0.3357677165354331
 20
1.0735236220472442
 30
0.0
 10
0.3357677165354331
 20
1.0735236220472442
 30
0.0
 10
0.3357677165354331
 20
1.0735236220472442
 30
0.0
 10
0.3253070866141732
 20
1.0801259842519686
 30
0.0
 10
0.3253070866141732
 20
1.0801259842519686
 30
0.0
 10
0.3253070866141732
 20
1.0801259842519686
 30
0.0
 10
0.3253070866141732
 20
1.0801259842519686
 30
0.0
 10
0.3147637795275591
 20
1.0863307086614173
 30
0.0
 10
0.3147637795275591
 20
1.0863307086614173
 30
0.0
 10
0.3147637795275591
 20
1.0863307086614173
 30
0.0
 10
0.3147637795275591
 20
1.0863307086614173
 30
0.0
 10
0.3041850393700787
 20
1.0921141732283466
 30
0.0
 10
0.3041850393700787
 20
1.0921141732283466
 30
0.0
 10
0.3041850393700787
 20
1.0921141732283466
 30
0.0
 10
0.3041850393700787
 20
1.0921141732283466
 30
0.0
 10
0.2936377952755906
 20
1.0974724409448819
 30
0.0
 10
0.2936377952755906
 20
1.0974724409448819
 30
0.0
 10
0.2936377952755906
 20
1.0974724409448819
 30
0.0
 10
0.2936377952755906
 20
1.0974724409448819
 30
0.0
 10
0.2832125984251969
 20
1.1026653543307088
 30
0.0
 10
0.2832125984251969
 20
1.1026653543307088
 30
0.0
 10
0.2832125984251969
 20
1.1026653543307088
 30
0.0
 10
0.2832125984251969
 20
1.1026653543307088
 30
0.0
 10
0.272996062992126
 20
1.108003937007874
 30
0.0
 10
0.272996062992126
 20
1.108003937007874
 30
0.0
 10
0.272996062992126
 20
1.108003937007874
 30
0.0
 10
0.272996062992126
 20
1.108003937007874
 30
0.0
 10
0.262984251968504
 20
1.1134881889763779
 30
0.0
 10
0.262984251968504
 20
1.1134881889763779
 30
0.0
 10
0.262984251968504
 20
1.1134881889763779
 30
0.0
 10
0.262984251968504
 20
1.1134881889763779
 30
0.0
 10
0.2531929133858268
 20
1.1191220472440946
 30
0.0
 10
0.2531929133858268
 20
1.1191220472440946
 30
0.0
 10
0.2531929133858268
 20
1.1191220472440946
 30
0.0
 10
0.2531929133858268
 20
1.1191220472440946
 30
0.0
 10
0.2436102362204725
 20
1.1248976377952757
 30
0.0
 10
0.2436102362204725
 20
1.1248976377952757
 30
0.0
 10
0.2436102362204725
 20
1.1248976377952757
 30
0.0
 10
0.2436102362204725
 20
1.1248976377952757
 30
0.0
 10
0.234248031496063
 20
1.1308307086614173
 30
0.0
 10
0.234248031496063
 20
1.1308307086614173
 30
0.0
 10
0.234248031496063
 20
1.1308307086614173
 30
0.0
 10
0.234248031496063
 20
1.1308307086614173
 30
0.0
 10
0.2251062992125984
 20
1.1369133858267717
 30
0.0
 10
0.2251062992125984
 20
1.1369133858267717
 30
0.0
 10
0.2251062992125984
 20
1.1369133858267717
 30
0.0
 10
0.2251062992125984
 20
1.1369133858267717
 30
0.0
 10
0.2161929133858268
 20
1.1431574803149607
 30
0.0
 10
0.2161929133858268
 20
1.1431574803149607
 30
0.0
 10
0.2161929133858268
 20
1.1431574803149607
 30
0.0
 10
0.2161929133858268
 20
1.1431574803149607
 30
0.0
 10
0.207496062992126
 20
1.1495511811023622
 30
0.0
 10
0.207496062992126
 20
1.1495511811023622
 30
0.0
 10
0.207496062992126
 20
1.1495511811023622
 30
0.0
 10
0.207496062992126
 20
1.1495511811023622
 30
0.0
 10
0.1990393700787402
 20
1.1561102362204725
 30
0.0
 10
0.1990393700787402
 20
1.1561102362204725
 30
0.0
 10
0.1990393700787402
 20
1.1561102362204725
 30
0.0
 10
0.1990393700787402
 20
1.1561102362204725
 30
0.0
 10
0.1908070866141732
 20
1.1628307086614174
 30
0.0
 10
0.1908070866141732
 20
1.1628307086614174
 30
0.0
 10
0.1908070866141732
 20
1.1628307086614174
 30
0.0
 10
0.1908070866141732
 20
1.1628307086614174
 30
0.0
 10
0.1828228346456693
 20
1.1697204724409449
 30
0.0
 10
0.1828228346456693
 20
1.1697204724409449
 30
0.0
 10
0.1828228346456693
 20
1.1697204724409449
 30
0.0
 10
0.1828228346456693
 20
1.1697204724409449
 30
0.0
 10
0.1750708661417323
 20
1.176771653543307
 30
0.0
 10
0.1750708661417323
 20
1.176771653543307
 30
0.0
 10
0.1750708661417323
 20
1.176771653543307
 30
0.0
 10
0.1750708661417323
 20
1.176771653543307
 30
0.0
 10
0.1675629921259842
 20
1.1839921259842521
 30
0.0
 10
0.1675629921259842
 20
1.1839921259842521
 30
0.0
 10
0.1675629921259842
 20
1.1839921259842521
 30
0.0
 10
0.1675629921259842
 20
1.1839921259842521
 30
0.0
 10
0.1603031496062992
 20
1.1913858267716535
 30
0.0
 10
0.1603031496062992
 20
1.1913858267716535
 30
0.0
 10
0.1603031496062992
 20
1.1913858267716535
 30
0.0
 10
0.1603031496062992
 20
1.1913858267716535
 30
0.0
 10
0.1532952755905512
 20
1.1989566929133859
 30
0.0
 10
0.1532952755905512
 20
1.1989566929133859
 30
0.0
 10
0.1532952755905512
 20
1.1989566929133859
 30
0.0
 10
0.1532952755905512
 20
1.1989566929133859
 30
0.0
 10
0.1465275590551181
 20
1.2066889763779527
 30
0.0
 10
0.1465275590551181
 20
1.2066889763779527
 30
0.0
 10
0.1465275590551181
 20
1.2066889763779527
 30
0.0
 10
0.1465275590551181
 20
1.2066889763779527
 30
0.0
 10
0.1400196850393701
 20
1.2146102362204725
 30
0.0
 10
0.1400196850393701
 20
1.2146102362204725
 30
0.0
 10
0.1400196850393701
 20
1.2146102362204725
 30
0.0
 10
0.1400196850393701
 20
1.2146102362204725
 30
0.0
 10
0.1337716535433071
 20
1.2227047244094489
 30
0.0
 10
0.1337716535433071
 20
1.2227047244094489
 30
0.0
 10
0.1337716535433071
 20
1.2227047244094489
 30
0.0
 10
0.1337716535433071
 20
1.2227047244094489
 30
0.0
 10
0.1277874015748031
 20
1.2309881889763781
 30
0.0
 10
0.1277874015748031
 20
1.2309881889763781
 30
0.0
 10
0.1277874015748031
 20
1.2309881889763781
 30
0.0
 10
0.1277874015748031
 20
1.2309881889763781
 30
0.0
 10
0.1220590551181102
 20
1.2394448818897639
 30
0.0
 10
0.1220590551181102
 20
1.2394448818897639
 30
0.0
 10
0.1220590551181102
 20
1.2394448818897639
 30
0.0
 10
0.1220590551181102
 20
1.2394448818897639
 30
0.0
 10
0.1166062992125984
 20
1.2480984251968505
 30
0.0
 10
0.1166062992125984
 20
1.2480984251968505
 30
0.0
 10
0.1166062992125984
 20
1.2480984251968505
 30
0.0
 10
0.1166062992125984
 20
1.2480984251968505
 30
0.0
 10
0.1114173228346457
 20
1.2569370078740159
 30
0.0
 10
0.1114173228346457
 20
1.2569370078740159
 30
0.0
 10
0.1114173228346457
 20
1.2569370078740159
 30
0.0
 10
0.1114173228346457
 20
1.2569370078740159
 30
0.0
 10
0.1065118110236221
 20
1.265972440944882
 30
0.0
 10
0.1065118110236221
 20
1.265972440944882
 30
0.0
 10
0.1065118110236221
 20
1.265972440944882
 30
0.0
 10
0.1065118110236221
 20
1.265972440944882
 30
0.0
 10
0.1018700787401575
 20
1.2751889763779527
 30
0.0
 10
0.1018700787401575
 20
1.2751889763779527
 30
0.0
 10
0.1018700787401575
 20
1.2751889763779527
 30
0.0
 10
0.1018700787401575
 20
1.2751889763779527
 30
0.0
 10
0.0975157480314961
 20
1.2846062992125984
 30
0.0
 10
0.0975157480314961
 20
1.2846062992125984
 30
0.0
 10
0.0975157480314961
 20
1.2846062992125984
 30
0.0
 10
0.0975157480314961
 20
1.2846062992125984
 30
0.0
 10
0.0934409448818898
 20
1.294216535433071
 30
0.0
 10
0.0934409448818898
 20
1.294216535433071
 30
0.0
 10
0.0934409448818898
 20
1.294216535433071
 30
0.0
 10
0.0934409448818898
 20
1.294216535433071
 30
0.0
 10
0.0896614173228347
 20
1.3040354330708661
 30
0.0
 10
0.0896614173228347
 20
1.3040354330708661
 30
0.0
 10
0.0896614173228347
 20
1.3040354330708661
 30
0.0
 10
0.0896614173228347
 20
1.3040354330708661
 30
0.0
 10
0.0861614173228347
 20
1.3140472440944881
 30
0.0
 10
0.0861614173228347
 20
1.3140472440944881
 30
0.0
 10
0.0861614173228347
 20
1.3140472440944881
 30
0.0
 10
0.0861614173228347
 20
1.3140472440944881
 30
0.0
 10
0.0829566929133858
 20
1.3242677165354331
 30
0.0
 10
0.0829566929133858
 20
1.3242677165354331
 30
0.0
 10
0.0829566929133858
 20
1.3242677165354331
 30
0.0
 10
0.0829566929133858
 20
1.3242677165354331
 30
0.0
 10
0.0800472440944882
 20
1.3346889763779528
 30
0.0
 10
0.0800472440944882
 20
1.3346889763779528
 30
0.0
 10
0.0800472440944882
 20
1.3346889763779528
 30
0.0
 10
0.0800472440944882
 20
1.3346889763779528
 30
0.0
 10
0.0774448818897638
 20
1.3453267716535433
 30
0.0
 10
0.0774448818897638
 20
1.3453267716535433
 30
0.0
  0
SPLINE
  5
3D
100
AcDbEntity
  8
Layer 1
 62
     9
100
AcDbSpline
210
0.0
220
0.0
230
1.0
 70
     1
 71
     3
 72
    20
 73
    16
 74
     0
 42
0.0000000001
 43
0.0000000001
 40
0.0
 40
0.0
 40
0.0
 40
0.0
 40
0.25
 40
0.25
 40
0.25
 40
0.25
 40
0.5
 40
0.5
 40
0.5
 40
0.5
 40
0.75
 40
0.75
 40
0.75
 40
0.75
 40
1.0
 40
1.0
 40
1.0
 40
1.0
 10
0.0774448818897638
 20
1.6306771653543308
 30
0.0
 10
0.0774448818897638
 20
1.6306771653543308
 30
0.0
 10
0.7208661417322835
 20
2.0033110236220475
 30
0.0
 10
0.7208661417322835
 20
2.0033110236220475
 30
0.0
 10
0.7208661417322835
 20
2.0033110236220475
 30
0.0
 10
0.7208661417322835
 20
2.0033110236220475
 30
0.0
 10
0.7208661417322835
 20
1.90546062992126
 30
0.0
 10
0.7208661417322835
 20
1.90546062992126
 30
0.0
 10
0.7208661417322835
 20
1.90546062992126
 30
0.0
 10
0.7208661417322835
 20
1.90546062992126
 30
0.0
 10
0.0774448818897638
 20
1.5328267716535433
 30
0.0
 10
0.0774448818897638
 20
1.5328267716535433
 30
0.0
 10
0.0774448818897638
 20
1.5328267716535433
 30
0.0
 10
0.0774448818897638
 20
1.5328267716535433
 30
0.0
 10
0.0774448818897638
 20
1.6306771653543308
 30
0.0
 10
0.0774448818897638
 20
1.6306771653543308
 30
0.0
  0
SPLINE
  5
3E
100
AcDbEntity
  8
Layer 1
 62
   253
100
AcDbSpline
210
0.0
220
0.0
230
1.0
 70
     1
 71
     3
 72
    44
 73
    40
 74
     0
 42
0.0000000001
 43
0.0000000001
 40
0.0
 40
0.0
 40
0.0
 40
0.0
 40
0.1
 40
0.1
 40
0.1
 40
0.1
 40
0.2
 40
0.2
 40
0.2
 40
0.2
 40
0.3
 40
0.3
 40
0.3
 40
0.3
 40
0.4
 40
0.4
 40
0.4
 40
0.4
 40
0.5
 40
0.5
 40
0.5
 40
0.5
 40
0.6
 40
0.6
 40
0.6
 40
0.6
 40
0.7
 40
0.7
 40
0.7
 40
0.7
 40
0.7999999999999999
 40
0.7999999999999999
 40
0.7999999999999999
 40
0.7999999999999999
 40
0.8999999999999999
 40
0.8999999999999999
 40
0.8999999999999999
 40
0.8999999999999999
 40
1.0
 40
1.0
 40
1.0
 40
1.0
 10
0.0774448818897638
 20
1.5328267716535433
 30
0.0
 10
0.0774448818897638
 20
1.5328267716535433
 30
0.0
 10
0.7208661417322835
 20
1.90546062992126
 30
0.0
 10
0.7208661417322835
 20
1.90546062992126
 30
0.0
 10
0.7208661417322835
 20
1.90546062992126
 30
0.0
 10
0.7208661417322835
 20
1.90546062992126
 30
0.0
 10
0.732251968503937
 20
1.9049173228346457
 30
0.0
 10
0.732251968503937
 20
1.9049173228346457
 30
0.0
 10
0.732251968503937
 20
1.9049173228346457
 30
0.0
 10
0.732251968503937
 20
1.9049173228346457
 30
0.0
 10
0.74298031496063
 20
1.9033464566929135
 30
0.0
 10
0.74298031496063
 20
1.9033464566929135
 30
0.0
 10
0.74298031496063
 20
1.9033464566929135
 30
0.0
 10
0.74298031496063
 20
1.9033464566929135
 30
0.0
 10
0.7530354330708662
 20
1.9008070866141733
 30
0.0
 10
0.7530354330708662
 20
1.9008070866141733
 30
0.0
 10
0.7530354330708662
 20
1.9008070866141733
 30
0.0
 10
0.7530354330708662
 20
1.9008070866141733
 30
0.0
 10
0.7624212598425197
 20
1.8973818897637795
 30
0.0
 10
0.7624212598425197
 20
1.8973818897637795
 30
0.0
 10
0.7624212598425197
 20
1.8973818897637795
 30
0.0
 10
0.7624212598425197
 20
1.8973818897637795
 30
0.0
 10
0.119
 20
1.5247480314960631
 30
0.0
 10
0.119
 20
1.5247480314960631
 30
0.0
 10
0.119
 20
1.5247480314960631
 30
0.0
 10
0.119
 20
1.5247480314960631
 30
0.0
 10
0.1096141732283465
 20
1.5281732283464569
 30
0.0
 10
0.1096141732283465
 20
1.5281732283464569
 30
0.0
 10
0.1096141732283465
 20
1.5281732283464569
 30
0.0
 10
0.1096141732283465
 20
1.5281732283464569
 30
0.0
 10
0.0995590551181102
 20
1.5307125984251968
 30
0.0
 10
0.0995590551181102
 20
1.5307125984251968
 30
0.0
 10
0.0995590551181102
 20
1.5307125984251968
 30
0.0
 10
0.0995590551181102
 20
1.5307125984251968
 30
0.0
 10
0.0888307086614173
 20
1.5322834645669292
 30
0.0
 10
0.0888307086614173
 20
1.5322834645669292
 30
0.0
 10
0.0888307086614173
 20
1.5322834645669292
 30
0.0
 10
0.0888307086614173
 20
1.5322834645669292
 30
0.0
 10
0.0774448818897638
 20
1.5328267716535433
 30
0.0
 10
0.0774448818897638
 20
1.5328267716535433
 30
0.0
  0
SPLINE
  5
3F
100
AcDbEntity
  8
Layer 1
 62
     9
100
AcDbSpline
210
0.0
220
0.0
230
1.0
 70
     1
 71
     3
 72
    52
 73
    48
 74
     0
 42
0.0000000001
 43
0.0000000001
 40
0.0
 40
0.0
 40
0.0
 40
0.0
 40
0.0833333333333333
 40
0.0833333333333333
 40
0.0833333333333333
 40
0.0833333333333333
 40
0.1666666666666667
 40
0.1666666666666667
 40
0.1666666666666667
 40
0.1666666666666667
 40
0.25
 40
0.25
 40
0.25
 40
0.25
 40
0.3333333333333333
 40
0.3333333333333333
 40
0.3333333333333333
 40
0.3333333333333333
 40
0.4166666666666666
 40
0.4166666666666666
 40
0.4166666666666666
 40
0.4166666666666666
 40
0.4999999999999999
 40
0.4999999999999999
 40
0.4999999999999999
 40
0.4999999999999999
 40
0.5833333333333333
 40
0.5833333333333333
 40
0.5833333333333333
 40
0.5833333333333333
 40
0.6666666666666666
 40
0.6666666666666666
 40
0.6666666666666666
 40
0.6666666666666666
 40
0.75
 40
0.75
 40
0.75
 40
0.75
 40
0.8333333333333334
 40
0.8333333333333334
 40
0.8333333333333334
 40
0.8333333333333334
 40
0.9166666666666667
 40
0.9166666666666667
 40
0.9166666666666667
 40
0.9166666666666667
 40
1.0
 40
1.0
 40
1.0
 40
1.0
 10
0.119
 20
1.5247480314960631
 30
0.0
 10
0.119
 20
1.5247480314960631
 30
0.0
 10
0.7624212598425197
 20
1.8973818897637795
 30
0.0
 10
0.7624212598425197
 20
1.8973818897637795
 30
0.0
 10
0.7624212598425197
 20
1.8973818897637795
 30
0.0
 10
0.7624212598425197
 20
1.8973818897637795
 30
0.0
 10
0.7711141732283465
 20
1.8931220472440946
 30
0.0
 10
0.7711141732283465
 20
1.8931220472440946
 30
0.0
 10
0.7711141732283465
 20
1.8931220472440946
 30
0.0
 10
0.7711141732283465
 20
1.8931220472440946
 30
0.0
 10
0.7791259842519686
 20
1.8881141732283466
 30
0.0
 10
0.7791259842519686
 20
1.8881141732283466
 30
0.0
 10
0.7791259842519686
 20
1.8881141732283466
 30
0.0
 10
0.7791259842519686
 20
1.8881141732283466
 30
0.0
 10
0.7864330708661418
 20
1.8824094488188976
 30
0.0
 10
0.7864330708661418
 20
1.8824094488188976
 30
0.0
 10
0.7864330708661418
 20
1.8824094488188976
 30
0.0
 10
0.7864330708661418
 20
1.8824094488188976
 30
0.0
 10
0.7930393700787402
 20
1.8760984251968504
 30
0.0
 10
0.7930393700787402
 20
1.8760984251968504
 30
0.0
 10
0.7930393700787402
 20
1.8760984251968504
 30
0.0
 10
0.7930393700787402
 20
1.8760984251968504
 30
0.0
 10
0.7989251968503938
 20
1.8692244094488191
 30
0.0
 10
0.7989251968503938
 20
1.8692244094488191
 30
0.0
 10
0.7989251968503938
 20
1.8692244094488191
 30
0.0
 10
0.7989251968503938
 20
1.8692244094488191
 30
0.0
 10
0.155503937007874
 20
1.4965905511811024
 30
0.0
 10
0.155503937007874
 20
1.4965905511811024
 30
0.0
 10
0.155503937007874
 20
1.4965905511811024
 30
0.0
 10
0.155503937007874
 20
1.4965905511811024
 30
0.0
 10
0.1496181102362205
 20
1.503464566929134
 30
0.0
 10
0.1496181102362205
 20
1.503464566929134
 30
0.0
 10
0.1496181102362205
 20
1.503464566929134
 30
0.0
 10
0.1496181102362205
 20
1.503464566929134
 30
0.0
 10
0.1430118110236221
 20
1.5097755905511812
 30
0.0
 10
0.1430118110236221
 20
1.5097755905511812
 30
0.0
 10
0.1430118110236221
 20
1.5097755905511812
 30
0.0
 10
0.1430118110236221
 20
1.5097755905511812
 30
0.0
 10
0.1357047244094488
 20
1.51548031496063
 30
0.0
 10
0.1357047244094488
 20
1.51548031496063
 30
0.0
 10
0.1357047244094488
 20
1.51548031496063
 30
0.0
 10
0.1357047244094488
 20
1.51548031496063
 30
0.0
 10
0.1276929133858268
 20
1.5204881889763779
 30
0.0
 10
0.1276929133858268
 20
1.5204881889763779
 30
0.0
 10
0.1276929133858268
 20
1.5204881889763779
 30
0.0
 10
0.1276929133858268
 20
1.5204881889763779
 30
0.0
 10
0.119
 20
1.5247480314960631
 30
0.0
 10
0.119
 20
1.5247480314960631
 30
0.0
  0
SPLINE
  5
40
100
AcDbEntity
  8
Layer 1
 62
     9
100
AcDbSpline
210
0.0
220
0.0
230
1.0
 70
     1
 71
     3
 72
    52
 73
    48
 74
     0
 42
0.0000000001
 43
0.0000000001
 40
0.0
 40
0.0
 40
0.0
 40
0.0
 40
0.0833333333333333
 40
0.0833333333333333
 40
0.0833333333333333
 40
0.0833333333333333
 40
0.1666666666666667
 40
0.1666666666666667
 40
0.1666666666666667
 40
0.1666666666666667
 40
0.25
 40
0.25
 40
0.25
 40
0.25
 40
0.3333333333333333
 40
0.3333333333333333
 40
0.3333333333333333
 40
0.3333333333333333
 40
0.4166666666666666
 40
0.4166666666666666
 40
0.4166666666666666
 40
0.4166666666666666
 40
0.4999999999999999
 40
0.4999999999999999
 40
0.4999999999999999
 40
0.4999999999999999
 40
0.5833333333333333
 40
0.5833333333333333
 40
0.5833333333333333
 40
0.5833333333333333
 40
0.6666666666666666
 40
0.6666666666666666
 40
0.6666666666666666
 40
0.6666666666666666
 40
0.75
 40
0.75
 40
0.75
 40
0.75
 40
0.8333333333333334
 40
0.8333333333333334
 40
0.8333333333333334
 40
0.8333333333333334
 40
0.9166666666666667
 40
0.9166666666666667
 40
0.9166666666666667
 40
0.9166666666666667
 40
1.0
 40
1.0
 40
1.0
 40
1.0
 10
0.155503937007874
 20
1.4965905511811024
 30
0.0
 10
0.155503937007874
 20
1.4965905511811024
 30
0.0
 10
0.7989251968503938
 20
1.8692244094488191
 30
0.0
 10
0.7989251968503938
 20
1.8692244094488191
 30
0.0
 10
0.7989251968503938
 20
1.8692244094488191
 30
0.0
 10
0.7989251968503938
 20
1.8692244094488191
 30
0.0
 10
0.8040984251968504
 20
1.8618779527559055
 30
0.0
 10
0.8040984251968504
 20
1.8618779527559055
 30
0.0
 10
0.8040984251968504
 20
1.8618779527559055
 30
0.0
 10
0.8040984251968504
 20
1.8618779527559055
 30
0.0
 10
0.8085393700787402
 20
1.8541141732283466
 30
0.0
 10
0.8085393700787402
 20
1.8541141732283466
 30
0.0
 10
0.8085393700787402
 20
1.8541141732283466
 30
0.0
 10
0.8085393700787402
 20
1.8541141732283466
 30
0.0
 10
0.8122480314960631
 20
1.846015748031496
 30
0.0
 10
0.8122480314960631
 20
1.846015748031496
 30
0.0
 10
0.8122480314960631
 20
1.846015748031496
 30
0.0
 10
0.8122480314960631
 20
1.846015748031496
 30
0.0
 10
0.8152086614173228
 20
1.8376338582677165
 30
0.0
 10
0.8152086614173228
 20
1.8376338582677165
 30
0.0
 10
0.8152086614173228
 20
1.8376338582677165
 30
0.0
 10
0.8152086614173228
 20
1.8376338582677165
 30
0.0
 10
0.8174251968503937
 20
1.8290511811023622
 30
0.0
 10
0.8174251968503937
 20
1.8290511811023622
 30
0.0
 10
0.8174251968503937
 20
1.8290511811023622
 30
0.0
 10
0.8174251968503937
 20
1.8290511811023622
 30
0.0
 10
0.174003937007874
 20
1.4564173228346458
 30
0.0
 10
0.174003937007874
 20
1.4564173228346458
 30
0.0
 10
0.174003937007874
 20
1.4564173228346458
 30
0.0
 10
0.174003937007874
 20
1.4564173228346458
 30
0.0
 10
0.1717874015748032
 20
1.4650000000000001
 30
0.0
 10
0.1717874015748032
 20
1.4650000000000001
 30
0.0
 10
0.1717874015748032
 20
1.4650000000000001
 30
0.0
 10
0.1717874015748032
 20
1.4650000000000001
 30
0.0
 10
0.1688267716535433
 20
1.4733818897637796
 30
0.0
 10
0.1688267716535433
 20
1.4733818897637796
 30
0.0
 10
0.1688267716535433
 20
1.4733818897637796
 30
0.0
 10
0.1688267716535433
 20
1.4733818897637796
 30
0.0
 10
0.1651181102362205
 20
1.4814803149606299
 30
0.0
 10
0.1651181102362205
 20
1.4814803149606299
 30
0.0
 10
0.1651181102362205
 20
1.4814803149606299
 30
0.0
 10
0.1651181102362205
 20
1.4814803149606299
 30
0.0
 10
0.1606771653543307
 20
1.4892440944881891
 30
0.0
 10
0.1606771653543307
 20
1.4892440944881891
 30
0.0
 10
0.1606771653543307
 20
1.4892440944881891
 30
0.0
 10
0.1606771653543307
 20
1.4892440944881891
 30
0.0
 10
0.155503937007874
 20
1.4965905511811024
 30
0.0
 10
0.155503937007874
 20
1.4965905511811024
 30
0.0
  0
SPLINE
  5
41
100
AcDbEntity
  8
Layer 1
 62
     9
100
AcDbSpline
210
0.0
220
0.0
230
1.0
 70
     1
 71
     3
 72
    52
 73
    48
 74
     0
 42
0.0000000001
 43
0.0000000001
 40
0.0
 40
0.0
 40
0.0
 40
0.0
 40
0.0833333333333333
 40
0.0833333333333333
 40
0.0833333333333333
 40
0.0833333333333333
 40
0.1666666666666667
 40
0.1666666666666667
 40
0.1666666666666667
 40
0.1666666666666667
 40
0.25
 40
0.25
 40
0.25
 40
0.25
 40
0.3333333333333333
 40
0.3333333333333333
 40
0.3333333333333333
 40
0.3333333333333333
 40
0.4166666666666666
 40
0.4166666666666666
 40
0.4166666666666666
 40
0.4166666666666666
 40
0.4999999999999999
 40
0.4999999999999999
 40
0.4999999999999999
 40
0.4999999999999999
 40
0.5833333333333333
 40
0.5833333333333333
 40
0.5833333333333333
 40
0.5833333333333333
 40
0.6666666666666666
 40
0.6666666666666666
 40
0.6666666666666666
 40
0.6666666666666666
 40
0.75
 40
0.75
 40
0.75
 40
0.75
 40
0.8333333333333334
 40
0.8333333333333334
 40
0.8333333333333334
 40
0.8333333333333334
 40
0.9166666666666667
 40
0.9166666666666667
 40
0.9166666666666667
 40
0.9166666666666667
 40
1.0
 40
1.0
 40
1.0
 40
1.0
 10
0.174003937007874
 20
1.4564173228346458
 30
0.0
 10
0.174003937007874
 20
1.4564173228346458
 30
0.0
 10
0.8174251968503937
 20
1.8290511811023622
 30
0.0
 10
0.8174251968503937
 20
1.8290511811023622
 30
0.0
 10
0.8174251968503937
 20
1.8290511811023622
 30
0.0
 10
0.8174251968503937
 20
1.8290511811023622
 30
0.0
 10
0.8188858267716536
 20
1.8203346456692915
 30
0.0
 10
0.8188858267716536
 20
1.8203346456692915
 30
0.0
 10
0.8188858267716536
 20
1.8203346456692915
 30
0.0
 10
0.8188858267716536
 20
1.8203346456692915
 30
0.0
 10
0.8195866141732284
 20
1.8115472440944882
 30
0.0
 10
0.8195866141732284
 20
1.8115472440944882
 30
0.0
 10
0.8195866141732284
 20
1.8115472440944882
 30
0.0
 10
0.8195866141732284
 20
1.8115472440944882
 30
0.0
 10
0.8195039370078741
 20
1.8027559055118112
 30
0.0
 10
0.8195039370078741
 20
1.8027559055118112
 30
0.0
 10
0.8195039370078741
 20
1.8027559055118112
 30
0.0
 10
0.8195039370078741
 20
1.8027559055118112
 30
0.0
 10
0.8186496062992127
 20
1.7940393700787403
 30
0.0
 10
0.8186496062992127
 20
1.7940393700787403
 30
0.0
 10
0.8186496062992127
 20
1.7940393700787403
 30
0.0
 10
0.8186496062992127
 20
1.7940393700787403
 30
0.0
 10
0.817007874015748
 20
1.7854566929133859
 30
0.0
 10
0.817007874015748
 20
1.7854566929133859
 30
0.0
 10
0.817007874015748
 20
1.7854566929133859
 30
0.0
 10
0.817007874015748
 20
1.7854566929133859
 30
0.0
 10
0.1735866141732284
 20
1.4128228346456693
 30
0.0
 10
0.1735866141732284
 20
1.4128228346456693
 30
0.0
 10
0.1735866141732284
 20
1.4128228346456693
 30
0.0
 10
0.1735866141732284
 20
1.4128228346456693
 30
0.0
 10
0.1752283464566929
 20
1.4214055118110236
 30
0.0
 10
0.1752283464566929
 20
1.4214055118110236
 30
0.0
 10
0.1752283464566929
 20
1.4214055118110236
 30
0.0
 10
0.1752283464566929
 20
1.4214055118110236
 30
0.0
 10
0.1760826771653543
 20
1.4301220472440945
 30
0.0
 10
0.1760826771653543
 20
1.4301220472440945
 30
0.0
 10
0.1760826771653543
 20
1.4301220472440945
 30
0.0
 10
0.1760826771653543
 20
1.4301220472440945
 30
0.0
 10
0.1761653543307087
 20
1.4389133858267718
 30
0.0
 10
0.1761653543307087
 20
1.4389133858267718
 30
0.0
 10
0.1761653543307087
 20
1.4389133858267718
 30
0.0
 10
0.1761653543307087
 20
1.4389133858267718
 30
0.0
 10
0.1754645669291339
 20
1.4477007874015748
 30
0.0
 10
0.1754645669291339
 20
1.4477007874015748
 30
0.0
 10
0.1754645669291339
 20
1.4477007874015748
 30
0.0
 10
0.1754645669291339
 20
1.4477007874015748
 30
0.0
 10
0.174003937007874
 20
1.4564173228346458
 30
0.0
 10
0.174003937007874
 20
1.4564173228346458
 30
0.0
  0
SPLINE
  5
42
100
AcDbEntity
  8
Layer 1
 62
     9
100
AcDbSpline
210
0.0
220
0.0
230
1.0
 70
     1
 71
     3
 72
    52
 73
    48
 74
     0
 42
0.0000000001
 43
0.0000000001
 40
0.0
 40
0.0
 40
0.0
 40
0.0
 40
0.0833333333333333
 40
0.0833333333333333
 40
0.0833333333333333
 40
0.0833333333333333
 40
0.1666666666666667
 40
0.1666666666666667
 40
0.1666666666666667
 40
0.1666666666666667
 40
0.25
 40
0.25
 40
0.25
 40
0.25
 40
0.3333333333333333
 40
0.3333333333333333
 40
0.3333333333333333
 40
0.3333333333333333
 40
0.4166666666666666
 40
0.4166666666666666
 40
0.4166666666666666
 40
0.4166666666666666
 40
0.4999999999999999
 40
0.4999999999999999
 40
0.4999999999999999
 40
0.4999999999999999
 40
0.5833333333333333
 40
0.5833333333333333
 40
0.5833333333333333
 40
0.5833333333333333
 40
0.6666666666666666
 40
0.6666666666666666
 40
0.6666666666666666
 40
0.6666666666666666
 40
0.75
 40
0.75
 40
0.75
 40
0.75
 40
0.8333333333333334
 40
0.8333333333333334
 40
0.8333333333333334
 40
0.8333333333333334
 40
0.9166666666666667
 40
0.9166666666666667
 40
0.9166666666666667
 40
0.9166666666666667
 40
1.0
 40
1.0
 40
1.0
 40
1.0
 10
0.1735866141732284
 20
1.4128228346456693
 30
0.0
 10
0.1735866141732284
 20
1.4128228346456693
 30
0.0
 10
0.817007874015748
 20
1.7854566929133859
 30
0.0
 10
0.817007874015748
 20
1.7854566929133859
 30
0.0
 10
0.817007874015748
 20
1.7854566929133859
 30
0.0
 10
0.817007874015748
 20
1.7854566929133859
 30
0.0
 10
0.8145748031496063
 20
1.7770905511811024
 30
0.0
 10
0.8145748031496063
 20
1.7770905511811024
 30
0.0
 10
0.8145748031496063
 20
1.7770905511811024
 30
0.0
 10
0.8145748031496063
 20
1.7770905511811024
 30
0.0
 10
0.8113385826771654
 20
1.768992125984252
 30
0.0
 10
0.8113385826771654
 20
1.768992125984252
 30
0.0
 10
0.8113385826771654
 20
1.768992125984252
 30
0.0
 10
0.8113385826771654
 20
1.768992125984252
 30
0.0
 10
0.8072992125984252
 20
1.761248031496063
 30
0.0
 10
0.8072992125984252
 20
1.761248031496063
 30
0.0
 10
0.8072992125984252
 20
1.761248031496063
 30
0.0
 10
0.8072992125984252
 20
1.761248031496063
 30
0.0
 10
0.8024409448818898
 20
1.7539173228346456
 30
0.0
 10
0.8024409448818898
 20
1.7539173228346456
 30
0.0
 10
0.8024409448818898
 20
1.7539173228346456
 30
0.0
 10
0.8024409448818898
 20
1.7539173228346456
 30
0.0
 10
0.7967677165354331
 20
1.7470708661417325
 30
0.0
 10
0.7967677165354331
 20
1.7470708661417325
 30
0.0
 10
0.7967677165354331
 20
1.7470708661417325
 30
0.0
 10
0.7967677165354331
 20
1.7470708661417325
 30
0.0
 10
0.1533464566929134
 20
1.3744370078740158
 30
0.0
 10
0.1533464566929134
 20
1.3744370078740158
 30
0.0
 10
0.1533464566929134
 20
1.3744370078740158
 30
0.0
 10
0.1533464566929134
 20
1.3744370078740158
 30
0.0
 10
0.1590196850393701
 20
1.3812834645669292
 30
0.0
 10
0.1590196850393701
 20
1.3812834645669292
 30
0.0
 10
0.1590196850393701
 20
1.3812834645669292
 30
0.0
 10
0.1590196850393701
 20
1.3812834645669292
 30
0.0
 10
0.1638779527559055
 20
1.3886141732283466
 30
0.0
 10
0.1638779527559055
 20
1.3886141732283466
 30
0.0
 10
0.1638779527559055
 20
1.3886141732283466
 30
0.0
 10
0.1638779527559055
 20
1.3886141732283466
 30
0.0
 10
0.1679173228346457
 20
1.3963582677165356
 30
0.0
 10
0.1679173228346457
 20
1.3963582677165356
 30
0.0
 10
0.1679173228346457
 20
1.3963582677165356
 30
0.0
 10
0.1679173228346457
 20
1.3963582677165356
 30
0.0
 10
0.1711535433070866
 20
1.4044566929133859
 30
0.0
 10
0.1711535433070866
 20
1.4044566929133859
 30
0.0
 10
0.1711535433070866
 20
1.4044566929133859
 30
0.0
 10
0.1711535433070866
 20
1.4044566929133859
 30
0.0
 10
0.1735866141732284
 20
1.4128228346456693
 30
0.0
 10
0.1735866141732284
 20
1.4128228346456693
 30
0.0
  0
SPLINE
  5
43
100
AcDbEntity
  8
Layer 1
 62
   253
100
AcDbSpline
210
0.0
220
0.0
230
1.0
 70
     1
 71
     3
 72
    36
 73
    32
 74
     0
 42
0.0000000001
 43
0.0000000001
 40
0.0
 40
0.0
 40
0.0
 40
0.0
 40
0.125
 40
0.125
 40
0.125
 40
0.125
 40
0.25
 40
0.25
 40
0.25
 40
0.25
 40
0.375
 40
0.375
 40
0.375
 40
0.375
 40
0.5
 40
0.5
 40
0.5
 40
0.5
 40
0.625
 40
0.625
 40
0.625
 40
0.625
 40
0.75
 40
0.75
 40
0.75
 40
0.75
 40
0.875
 40
0.875
 40
0.875
 40
0.875
 40
1.0
 40
1.0
 40
1.0
 40
1.0
 10
0.1533464566929134
 20
1.3744370078740158
 30
0.0
 10
0.1533464566929134
 20
1.3744370078740158
 30
0.0
 10
0.7967677165354331
 20
1.7470708661417325
 30
0.0
 10
0.7967677165354331
 20
1.7470708661417325
 30
0.0
 10
0.7967677165354331
 20
1.7470708661417325
 30
0.0
 10
0.7967677165354331
 20
1.7470708661417325
 30
0.0
 10
0.790255905511811
 20
1.7407716535433071
 30
0.0
 10
0.790255905511811
 20
1.7407716535433071
 30
0.0
 10
0.790255905511811
 20
1.7407716535433071
 30
0.0
 10
0.790255905511811
 20
1.7407716535433071
 30
0.0
 10
0.7829133858267717
 20
1.7350944881889765
 30
0.0
 10
0.7829133858267717
 20
1.7350944881889765
 30
0.0
 10
0.7829133858267717
 20
1.7350944881889765
 30
0.0
 10
0.7829133858267717
 20
1.7350944881889765
 30
0.0
 10
0.7747204724409449
 20
1.7301102362204726
 30
0.0
 10
0.7747204724409449
 20
1.7301102362204726
 30
0.0
 10
0.7747204724409449
 20
1.7301102362204726
 30
0.0
 10
0.7747204724409449
 20
1.7301102362204726
 30
0.0
 10
0.1312992125984252
 20
1.3574763779527559
 30
0.0
 10
0.1312992125984252
 20
1.3574763779527559
 30
0.0
 10
0.1312992125984252
 20
1.3574763779527559
 30
0.0
 10
0.1312992125984252
 20
1.3574763779527559
 30
0.0
 10
0.139492125984252
 20
1.3624606299212598
 30
0.0
 10
0.139492125984252
 20
1.3624606299212598
 30
0.0
 10
0.139492125984252
 20
1.3624606299212598
 30
0.0
 10
0.139492125984252
 20
1.3624606299212598
 30
0.0
 10
0.1468346456692913
 20
1.3681377952755907
 30
0.0
 10
0.1468346456692913
 20
1.3681377952755907
 30
0.0
 10
0.1468346456692913
 20
1.3681377952755907
 30
0.0
 10
0.1468346456692913
 20
1.3681377952755907
 30
0.0
 10
0.1533464566929134
 20
1.3744370078740158
 30
0.0
 10
0.1533464566929134
 20
1.3744370078740158
 30
0.0
  0
SPLINE
  5
44
100
AcDbEntity
  8
Layer 1
370
     5
100
AcDbSpline
210
0.0
220
0.0
230
1.0
 70
     1
 71
     3
 72
   236
 73
   232
 74
     0
 42
0.0000000001
 43
0.0000000001
 40
0.0
 40
0.0
 40
0.0
 40
0.0
 40
0.0172413793103448
 40
0.0172413793103448
 40
0.0172413793103448
 40
0.0172413793103448
 40
0.0344827586206897
 40
0.0344827586206897
 40
0.0344827586206897
 40
0.0344827586206897
 40
0.0517241379310345
 40
0.0517241379310345
 40
0.0517241379310345
 40
0.0517241379310345
 40
0.0689655172413793
 40
0.0689655172413793
 40
0.0689655172413793
 40
0.0689655172413793
 40
0.0862068965517241
 40
0.0862068965517241
 40
0.0862068965517241
 40
0.0862068965517241
 40
0.103448275862069
 40
0.103448275862069
 40
0.103448275862069
 40
0.103448275862069
 40
0.1206896551724138
 40
0.1206896551724138
 40
0.1206896551724138
 40
0.1206896551724138
 40
0.1379310344827587
 40
0.1379310344827587
 40
0.1379310344827587
 40
0.1379310344827587
 40
0.1551724137931035
 40
0.1551724137931035
 40
0.1551724137931035
 40
0.1551724137931035
 40
0.1724137931034483
 40
0.1724137931034483
 40
0.1724137931034483
 40
0.1724137931034483
 40
0.1896551724137932
 40
0.1896551724137932
 40
0.1896551724137932
 40
0.1896551724137932
 40
0.206896551724138
 40
0.206896551724138
 40
0.206896551724138
 40
0.206896551724138
 40
0.2241379310344828
 40
0.2241379310344828
 40
0.2241379310344828
 40
0.2241379310344828
 40
0.2413793103448277
 40
0.2413793103448277
 40
0.2413793103448277
 40
0.2413793103448277
 40
0.2586206896551725
 40
0.2586206896551725
 40
0.2586206896551725
 40
0.2586206896551725
 40
0.2758620689655173
 40
0.2758620689655173
 40
0.2758620689655173
 40
0.2758620689655173
 40
0.2931034482758621
 40
0.2931034482758621
 40
0.2931034482758621
 40
0.2931034482758621
 40
0.3103448275862069
 40
0.3103448275862069
 40
0.3103448275862069
 40
0.3103448275862069
 40
0.3275862068965517
 40
0.3275862068965517
 40
0.3275862068965517
 40
0.3275862068965517
 40
0.3448275862068965
 40
0.3448275862068965
 40
0.3448275862068965
 40
0.3448275862068965
 40
0.3620689655172413
 40
0.3620689655172413
 40
0.3620689655172413
 40
0.3620689655172413
 40
0.3793103448275861
 40
0.3793103448275861
 40
0.3793103448275861
 40
0.3793103448275861
 40
0.3965517241379309
 40
0.3965517241379309
 40
0.3965517241379309
 40
0.3965517241379309
 40
0.4137931034482758
 40
0.4137931034482758
 40
0.4137931034482758
 40
0.4137931034482758
 40
0.4310344827586206
 40
0.4310344827586206
 40
0.4310344827586206
 40
0.4310344827586206
 40
0.4482758620689654
 40
0.4482758620689654
 40
0.4482758620689654
 40
0.4482758620689654
 40
0.4655172413793102
 40
0.4655172413793102
 40
0.4655172413793102
 40
0.4655172413793102
 40
0.482758620689655
 40
0.482758620689655
 40
0.482758620689655
 40
0.482758620689655
 40
0.4999999999999998
 40
0.4999999999999998
 40
0.4999999999999998
 40
0.4999999999999998
 40
0.5172413793103446
 40
0.5172413793103446
 40
0.5172413793103446
 40
0.5172413793103446
 40
0.5344827586206895
 40
0.5344827586206895
 40
0.5344827586206895
 40
0.5344827586206895
 40
0.5517241379310344
 40
0.5517241379310344
 40
0.5517241379310344
 40
0.5517241379310344
 40
0.5689655172413792
 40
0.5689655172413792
 40
0.5689655172413792
 40
0.5689655172413792
 40
0.5862068965517241
 40
0.5862068965517241
 40
0.5862068965517241
 40
0.5862068965517241
 40
0.603448275862069
 40
0.603448275862069
 40
0.603448275862069
 40
0.603448275862069
 40
0.6206896551724138
 40
0.6206896551724138
 40
0.6206896551724138
 40
0.6206896551724138
 40
0.6379310344827587
 40
0.6379310344827587
 40
0.6379310344827587
 40
0.6379310344827587
 40
0.6551724137931035
 40
0.6551724137931035
 40
0.6551724137931035
 40
0.6551724137931035
 40
0.6724137931034484
 40
0.6724137931034484
 40
0.6724137931034484
 40
0.6724137931034484
 40
0.6896551724137933
 40
0.6896551724137933
 40
0.6896551724137933
 40
0.6896551724137933
 40
0.7068965517241381
 40
0.7068965517241381
 40
0.7068965517241381
 40
0.7068965517241381
 40
0.724137931034483
 40
0.724137931034483
 40
0.724137931034483
 40
0.724137931034483
 40
0.7413793103448279
 40
0.7413793103448279
 40
0.7413793103448279
 40
0.7413793103448279
 40
0.7586206896551727
 40
0.7586206896551727
 40
0.7586206896551727
 40
0.7586206896551727
 40
0.7758620689655176
 40
0.7758620689655176
 40
0.7758620689655176
 40
0.7758620689655176
 40
0.7931034482758624
 40
0.7931034482758624
 40
0.7931034482758624
 40
0.7931034482758624
 40
0.8103448275862073
 40
0.8103448275862073
 40
0.8103448275862073
 40
0.8103448275862073
 40
0.8275862068965522
 40
0.8275862068965522
 40
0.8275862068965522
 40
0.8275862068965522
 40
0.844827586206897
 40
0.844827586206897
 40
0.844827586206897
 40
0.844827586206897
 40
0.8620689655172419
 40
0.8620689655172419
 40
0.8620689655172419
 40
0.8620689655172419
 40
0.8793103448275867
 40
0.8793103448275867
 40
0.8793103448275867
 40
0.8793103448275867
 40
0.8965517241379316
 40
0.8965517241379316
 40
0.8965517241379316
 40
0.8965517241379316
 40
0.9137931034482765
 40
0.9137931034482765
 40
0.9137931034482765
 40
0.9137931034482765
 40
0.9310344827586213
 40
0.9310344827586213
 40
0.9310344827586213
 40
0.9310344827586213
 40
0.9482758620689662
 40
0.9482758620689662
 40
0.9482758620689662
 40
0.9482758620689662
 40
0.9655172413793111
 40
0.9655172413793111
 40
0.9655172413793111
 40
0.9655172413793111
 40
0.9827586206896559
 40
0.9827586206896559
 40
0.9827586206896559
 40
0.9827586206896559
 40
1.0
 40
1.0
 40
1.0
 40
1.0
 10
0.0774448818897638
 20
1.6306771653543308
 30
0.0
 10
0.0774448818897638
 20
1.6306771653543308
 30
0.0
 10
0.7208661417322835
 20
2.0033110236220475
 30
0.0
 10
0.7208661417322835
 20
2.0033110236220475
 30
0.0
 10
0.7208661417322835
 20
2.0033110236220475
 30
0.0
 10
0.7208661417322835
 20
2.0033110236220475
 30
0.0
 10
0.7208661417322835
 20
1.90546062992126
 30
0.0
 10
0.7208661417322835
 20
1.90546062992126
 30
0.0
 10
0.7208661417322835
 20
1.90546062992126
 30
0.0
 10
0.7208661417322835
 20
1.90546062992126
 30
0.0
 10
0.732251968503937
 20
1.9049173228346457
 30
0.0
 10
0.732251968503937
 20
1.9049173228346457
 30
0.0
 10
0.732251968503937
 20
1.9049173228346457
 30
0.0
 10
0.732251968503937
 20
1.9049173228346457
 30
0.0
 10
0.74298031496063
 20
1.9033464566929135
 30
0.0
 10
0.74298031496063
 20
1.9033464566929135
 30
0.0
 10
0.74298031496063
 20
1.9033464566929135
 30
0.0
 10
0.74298031496063
 20
1.9033464566929135
 30
0.0
 10
0.7530354330708662
 20
1.9008070866141733
 30
0.0
 10
0.7530354330708662
 20
1.9008070866141733
 30
0.0
 10
0.7530354330708662
 20
1.9008070866141733
 30
0.0
 10
0.7530354330708662
 20
1.9008070866141733
 30
0.0
 10
0.7624212598425197
 20
1.8973818897637795
 30
0.0
 10
0.7624212598425197
 20
1.8973818897637795
 30
0.0
 10
0.7624212598425197
 20
1.8973818897637795
 30
0.0
 10
0.7624212598425197
 20
1.8973818897637795
 30
0.0
 10
0.7711141732283465
 20
1.8931220472440946
 30
0.0
 10
0.7711141732283465
 20
1.8931220472440946
 30
0.0
 10
0.7711141732283465
 20
1.8931220472440946
 30
0.0
 10
0.7711141732283465
 20
1.8931220472440946
 30
0.0
 10
0.7791259842519686
 20
1.8881141732283466
 30
0.0
 10
0.7791259842519686
 20
1.8881141732283466
 30
0.0
 10
0.7791259842519686
 20
1.8881141732283466
 30
0.0
 10
0.7791259842519686
 20
1.8881141732283466
 30
0.0
 10
0.7864330708661418
 20
1.8824094488188976
 30
0.0
 10
0.7864330708661418
 20
1.8824094488188976
 30
0.0
 10
0.7864330708661418
 20
1.8824094488188976
 30
0.0
 10
0.7864330708661418
 20
1.8824094488188976
 30
0.0
 10
0.7930393700787402
 20
1.8760984251968504
 30
0.0
 10
0.7930393700787402
 20
1.8760984251968504
 30
0.0
 10
0.7930393700787402
 20
1.8760984251968504
 30
0.0
 10
0.7930393700787402
 20
1.8760984251968504
 30
0.0
 10
0.7989251968503938
 20
1.8692244094488191
 30
0.0
 10
0.7989251968503938
 20
1.8692244094488191
 30
0.0
 10
0.7989251968503938
 20
1.8692244094488191
 30
0.0
 10
0.7989251968503938
 20
1.8692244094488191
 30
0.0
 10
0.8040984251968504
 20
1.8618779527559055
 30
0.0
 10
0.8040984251968504
 20
1.8618779527559055
 30
0.0
 10
0.8040984251968504
 20
1.8618779527559055
 30
0.0
 10
0.8040984251968504
 20
1.8618779527559055
 30
0.0
 10
0.8085393700787402
 20
1.8541141732283466
 30
0.0
 10
0.8085393700787402
 20
1.8541141732283466
 30
0.0
 10
0.8085393700787402
 20
1.8541141732283466
 30
0.0
 10
0.8085393700787402
 20
1.8541141732283466
 30
0.0
 10
0.8122480314960631
 20
1.846015748031496
 30
0.0
 10
0.8122480314960631
 20
1.846015748031496
 30
0.0
 10
0.8122480314960631
 20
1.846015748031496
 30
0.0
 10
0.8122480314960631
 20
1.846015748031496
 30
0.0
 10
0.8152086614173228
 20
1.8376338582677165
 30
0.0
 10
0.8152086614173228
 20
1.8376338582677165
 30
0.0
 10
0.8152086614173228
 20
1.8376338582677165
 30
0.0
 10
0.8152086614173228
 20
1.8376338582677165
 30
0.0
 10
0.8174251968503937
 20
1.8290511811023622
 30
0.0
 10
0.8174251968503937
 20
1.8290511811023622
 30
0.0
 10
0.8174251968503937
 20
1.8290511811023622
 30
0.0
 10
0.8174251968503937
 20
1.8290511811023622
 30
0.0
 10
0.8188858267716536
 20
1.8203346456692915
 30
0.0
 10
0.8188858267716536
 20
1.8203346456692915
 30
0.0
 10
0.8188858267716536
 20
1.8203346456692915
 30
0.0
 10
0.8188858267716536
 20
1.8203346456692915
 30
0.0
 10
0.8195866141732284
 20
1.8115472440944882
 30
0.0
 10
0.8195866141732284
 20
1.8115472440944882
 30
0.0
 10
0.8195866141732284
 20
1.8115472440944882
 30
0.0
 10
0.8195866141732284
 20
1.8115472440944882
 30
0.0
 10
0.8195039370078741
 20
1.8027559055118112
 30
0.0
 10
0.8195039370078741
 20
1.8027559055118112
 30
0.0
 10
0.8195039370078741
 20
1.8027559055118112
 30
0.0
 10
0.8195039370078741
 20
1.8027559055118112
 30
0.0
 10
0.8186496062992127
 20
1.7940393700787403
 30
0.0
 10
0.8186496062992127
 20
1.7940393700787403
 30
0.0
 10
0.8186496062992127
 20
1.7940393700787403
 30
0.0
 10
0.8186496062992127
 20
1.7940393700787403
 30
0.0
 10
0.817007874015748
 20
1.7854566929133859
 30
0.0
 10
0.817007874015748
 20
1.7854566929133859
 30
0.0
 10
0.817007874015748
 20
1.7854566929133859
 30
0.0
 10
0.817007874015748
 20
1.7854566929133859
 30
0.0
 10
0.8145748031496063
 20
1.7770905511811024
 30
0.0
 10
0.8145748031496063
 20
1.7770905511811024
 30
0.0
 10
0.8145748031496063
 20
1.7770905511811024
 30
0.0
 10
0.8145748031496063
 20
1.7770905511811024
 30
0.0
 10
0.8113385826771654
 20
1.768992125984252
 30
0.0
 10
0.8113385826771654
 20
1.768992125984252
 30
0.0
 10
0.8113385826771654
 20
1.768992125984252
 30
0.0
 10
0.8113385826771654
 20
1.768992125984252
 30
0.0
 10
0.8072992125984252
 20
1.761248031496063
 30
0.0
 10
0.8072992125984252
 20
1.761248031496063
 30
0.0
 10
0.8072992125984252
 20
1.761248031496063
 30
0.0
 10
0.8072992125984252
 20
1.761248031496063
 30
0.0
 10
0.8024409448818898
 20
1.7539173228346456
 30
0.0
 10
0.8024409448818898
 20
1.7539173228346456
 30
0.0
 10
0.8024409448818898
 20
1.7539173228346456
 30
0.0
 10
0.8024409448818898
 20
1.7539173228346456
 30
0.0
 10
0.7967677165354331
 20
1.7470708661417325
 30
0.0
 10
0.7967677165354331
 20
1.7470708661417325
 30
0.0
 10
0.7967677165354331
 20
1.7470708661417325
 30
0.0
 10
0.7967677165354331
 20
1.7470708661417325
 30
0.0
 10
0.790255905511811
 20
1.7407716535433071
 30
0.0
 10
0.790255905511811
 20
1.7407716535433071
 30
0.0
 10
0.790255905511811
 20
1.7407716535433071
 30
0.0
 10
0.790255905511811
 20
1.7407716535433071
 30
0.0
 10
0.7829133858267717
 20
1.7350944881889765
 30
0.0
 10
0.7829133858267717
 20
1.7350944881889765
 30
0.0
 10
0.7829133858267717
 20
1.7350944881889765
 30
0.0
 10
0.7829133858267717
 20
1.7350944881889765
 30
0.0
 10
0.7747204724409449
 20
1.7301102362204726
 30
0.0
 10
0.7747204724409449
 20
1.7301102362204726
 30
0.0
 10
0.7747204724409449
 20
1.7301102362204726
 30
0.0
 10
0.7747204724409449
 20
1.7301102362204726
 30
0.0
 10
0.1312992125984252
 20
1.3574763779527559
 30
0.0
 10
0.1312992125984252
 20
1.3574763779527559
 30
0.0
 10
0.1312992125984252
 20
1.3574763779527559
 30
0.0
 10
0.1312992125984252
 20
1.3574763779527559
 30
0.0
 10
0.139492125984252
 20
1.3624606299212598
 30
0.0
 10
0.139492125984252
 20
1.3624606299212598
 30
0.0
 10
0.139492125984252
 20
1.3624606299212598
 30
0.0
 10
0.139492125984252
 20
1.3624606299212598
 30
0.0
 10
0.1468346456692913
 20
1.3681377952755907
 30
0.0
 10
0.1468346456692913
 20
1.3681377952755907
 30
0.0
 10
0.1468346456692913
 20
1.3681377952755907
 30
0.0
 10
0.1468346456692913
 20
1.3681377952755907
 30
0.0
 10
0.1533464566929134
 20
1.3744370078740158
 30
0.0
 10
0.1533464566929134
 20
1.3744370078740158
 30
0.0
 10
0.1533464566929134
 20
1.3744370078740158
 30
0.0
 10
0.1533464566929134
 20
1.3744370078740158
 30
0.0
 10
0.1590196850393701
 20
1.3812834645669292
 30
0.0
 10
0.1590196850393701
 20
1.3812834645669292
 30
0.0
 10
0.1590196850393701
 20
1.3812834645669292
 30
0.0
 10
0.1590196850393701
 20
1.3812834645669292
 30
0.0
 10
0.1638779527559055
 20
1.3886141732283466
 30
0.0
 10
0.1638779527559055
 20
1.3886141732283466
 30
0.0
 10
0.1638779527559055
 20
1.3886141732283466
 30
0.0
 10
0.1638779527559055
 20
1.3886141732283466
 30
0.0
 10
0.1679173228346457
 20
1.3963582677165356
 30
0.0
 10
0.1679173228346457
 20
1.3963582677165356
 30
0.0
 10
0.1679173228346457
 20
1.3963582677165356
 30
0.0
 10
0.1679173228346457
 20
1.3963582677165356
 30
0.0
 10
0.1711535433070866
 20
1.4044566929133859
 30
0.0
 10
0.1711535433070866
 20
1.4044566929133859
 30
0.0
 10
0.1711535433070866
 20
1.4044566929133859
 30
0.0
 10
0.1711535433070866
 20
1.4044566929133859
 30
0.0
 10
0.1735866141732284
 20
1.4128228346456693
 30
0.0
 10
0.1735866141732284
 20
1.4128228346456693
 30
0.0
 10
0.1735866141732284
 20
1.4128228346456693
 30
0.0
 10
0.1735866141732284
 20
1.4128228346456693
 30
0.0
 10
0.1752283464566929
 20
1.4214055118110236
 30
0.0
 10
0.1752283464566929
 20
1.4214055118110236
 30
0.0
 10
0.1752283464566929
 20
1.4214055118110236
 30
0.0
 10
0.1752283464566929
 20
1.4214055118110236
 30
0.0
 10
0.1760826771653543
 20
1.4301220472440945
 30
0.0
 10
0.1760826771653543
 20
1.4301220472440945
 30
0.0
 10
0.1760826771653543
 20
1.4301220472440945
 30
0.0
 10
0.1760826771653543
 20
1.4301220472440945
 30
0.0
 10
0.1761653543307087
 20
1.4389133858267718
 30
0.0
 10
0.1761653543307087
 20
1.4389133858267718
 30
0.0
 10
0.1761653543307087
 20
1.4389133858267718
 30
0.0
 10
0.1761653543307087
 20
1.4389133858267718
 30
0.0
 10
0.1754645669291339
 20
1.4477007874015748
 30
0.0
 10
0.1754645669291339
 20
1.4477007874015748
 30
0.0
 10
0.1754645669291339
 20
1.4477007874015748
 30
0.0
 10
0.1754645669291339
 20
1.4477007874015748
 30
0.0
 10
0.174003937007874
 20
1.4564173228346458
 30
0.0
 10
0.174003937007874
 20
1.4564173228346458
 30
0.0
 10
0.174003937007874
 20
1.4564173228346458
 30
0.0
 10
0.174003937007874
 20
1.4564173228346458
 30
0.0
 10
0.1717874015748032
 20
1.4650000000000001
 30
0.0
 10
0.1717874015748032
 20
1.4650000000000001
 30
0.0
 10
0.1717874015748032
 20
1.4650000000000001
 30
0.0
 10
0.1717874015748032
 20
1.4650000000000001
 30
0.0
 10
0.1688267716535433
 20
1.4733818897637796
 30
0.0
 10
0.1688267716535433
 20
1.4733818897637796
 30
0.0
 10
0.1688267716535433
 20
1.4733818897637796
 30
0.0
 10
0.1688267716535433
 20
1.4733818897637796
 30
0.0
 10
0.1651181102362205
 20
1.4814803149606299
 30
0.0
 10
0.1651181102362205
 20
1.4814803149606299
 30
0.0
 10
0.1651181102362205
 20
1.4814803149606299
 30
0.0
 10
0.1651181102362205
 20
1.4814803149606299
 30
0.0
 10
0.1606771653543307
 20
1.4892440944881891
 30
0.0
 10
0.1606771653543307
 20
1.4892440944881891
 30
0.0
 10
0.1606771653543307
 20
1.4892440944881891
 30
0.0
 10
0.1606771653543307
 20
1.4892440944881891
 30
0.0
 10
0.155503937007874
 20
1.4965905511811024
 30
0.0
 10
0.155503937007874
 20
1.4965905511811024
 30
0.0
 10
0.155503937007874
 20
1.4965905511811024
 30
0.0
 10
0.155503937007874
 20
1.4965905511811024
 30
0.0
 10
0.1496181102362205
 20
1.503464566929134
 30
0.0
 10
0.1496181102362205
 20
1.503464566929134
 30
0.0
 10
0.1496181102362205
 20
1.503464566929134
 30
0.0
 10
0.1496181102362205
 20
1.503464566929134
 30
0.0
 10
0.1430118110236221
 20
1.5097755905511812
 30
0.0
 10
0.1430118110236221
 20
1.5097755905511812
 30
0.0
 10
0.1430118110236221
 20
1.5097755905511812
 30
0.0
 10
0.1430118110236221
 20
1.5097755905511812
 30
0.0
 10
0.1357047244094488
 20
1.51548031496063
 30
0.0
 10
0.1357047244094488
 20
1.51548031496063
 30
0.0
 10
0.1357047244094488
 20
1.51548031496063
 30
0.0
 10
0.1357047244094488
 20
1.51548031496063
 30
0.0
 10
0.1276929133858268
 20
1.5204881889763779
 30
0.0
 10
0.1276929133858268
 20
1.5204881889763779
 30
0.0
 10
0.1276929133858268
 20
1.5204881889763779
 30
0.0
 10
0.1276929133858268
 20
1.5204881889763779
 30
0.0
 10
0.119
 20
1.5247480314960631
 30
0.0
 10
0.119
 20
1.5247480314960631
 30
0.0
 10
0.119
 20
1.5247480314960631
 30
0.0
 10
0.119
 20
1.5247480314960631
 30
0.0
 10
0.1096141732283465
 20
1.5281732283464569
 30
0.0
 10
0.1096141732283465
 20
1.5281732283464569
 30
0.0
 10
0.1096141732283465
 20
1.5281732283464569
 30
0.0
 10
0.1096141732283465
 20
1.5281732283464569
 30
0.0
 10
0.0995590551181102
 20
1.5307125984251968
 30
0.0
 10
0.0995590551181102
 20
1.5307125984251968
 30
0.0
 10
0.0995590551181102
 20
1.5307125984251968
 30
0.0
 10
0.0995590551181102
 20
1.5307125984251968
 30
0.0
 10
0.0888307086614173
 20
1.5322834645669292
 30
0.0
 10
0.0888307086614173
 20
1.5322834645669292
 30
0.0
 10
0.0888307086614173
 20
1.5322834645669292
 30
0.0
 10
0.0888307086614173
 20
1.5322834645669292
 30
0.0
 10
0.0774448818897638
 20
1.5328267716535433
 30
0.0
 10
0.0774448818897638
 20
1.5328267716535433
 30
0.0
 10
0.0774448818897638
 20
1.5328267716535433
 30
0.0
 10
0.0774448818897638
 20
1.5328267716535433
 30
0.0
 10
0.0774448818897638
 20
1.6306771653543308
 30
0.0
 10
0.0774448818897638
 20
1.6306771653543308
 30
0.0
  0
SPLINE
  5
45
100
AcDbEntity
  8
Layer 1
 62
   253
100
AcDbSpline
210
0.0
220
0.0
230
1.0
 70
     1
 71
     3
 72
    20
 73
    16
 74
     0
 42
0.0000000001
 43
0.0000000001
 40
0.0
 40
0.0
 40
0.0
 40
0.0
 40
0.25
 40
0.25
 40
0.25
 40
0.25
 40
0.5
 40
0.5
 40
0.5
 40
0.5
 40
0.75
 40
0.75
 40
0.75
 40
0.75
 40
1.0
 40
1.0
 40
1.0
 40
1.0
 10
0.3593661417322835
 20
0.7903149606299212
 30
0.0
 10
0.3593661417322835
 20
0.7903149606299212
 30
0.0
 10
1.0027874015748033
 20
1.1629488188976378
 30
0.0
 10
1.0027874015748033
 20
1.1629488188976378
 30
0.0
 10
1.0027874015748033
 20
1.1629488188976378
 30
0.0
 10
1.0027874015748033
 20
1.1629488188976378
 30
0.0
 10
1.0891259842519685
 20
1.1399251968503938
 30
0.0
 10
1.0891259842519685
 20
1.1399251968503938
 30
0.0
 10
1.0891259842519685
 20
1.1399251968503938
 30
0.0
 10
1.0891259842519685
 20
1.1399251968503938
 30
0.0
 10
0.4457047244094489
 20
0.7672913385826772
 30
0.0
 10
0.4457047244094489
 20
0.7672913385826772
 30
0.0
 10
0.4457047244094489
 20
0.7672913385826772
 30
0.0
 10
0.4457047244094489
 20
0.7672913385826772
 30
0.0
 10
0.3593661417322835
 20
0.7903149606299212
 30
0.0
 10
0.3593661417322835
 20
0.7903149606299212
 30
0.0
  0
SPLINE
  5
46
100
AcDbEntity
  8
Layer 1
370
     5
100
AcDbSpline
210
0.0
220
0.0
230
1.0
 70
     1
 71
     3
 72
    20
 73
    16
 74
     0
 42
0.0000000001
 43
0.0000000001
 40
0.0
 40
0.0
 40
0.0
 40
0.0
 40
0.25
 40
0.25
 40
0.25
 40
0.25
 40
0.5
 40
0.5
 40
0.5
 40
0.5
 40
0.75
 40
0.75
 40
0.75
 40
0.75
 40
1.0
 40
1.0
 40
1.0
 40
1.0
 10
0.3593661417322835
 20
0.7903149606299212
 30
0.0
 10
0.3593661417322835
 20
0.7903149606299212
 30
0.0
 10
1.0027874015748033
 20
1.1629488188976378
 30
0.0
 10
1.0027874015748033
 20
1.1629488188976378
 30
0.0
 10
1.0027874015748033
 20
1.1629488188976378
 30
0.0
 10
1.0027874015748033
 20
1.1629488188976378
 30
0.0
 10
1.0891259842519685
 20
1.1399251968503938
 30
0.0
 10
1.0891259842519685
 20
1.1399251968503938
 30
0.0
 10
1.0891259842519685
 20
1.1399251968503938
 30
0.0
 10
1.0891259842519685
 20
1.1399251968503938
 30
0.0
 10
0.4457047244094489
 20
0.7672913385826772
 30
0.0
 10
0.4457047244094489
 20
0.7672913385826772
 30
0.0
 10
0.4457047244094489
 20
0.7672913385826772
 30
0.0
 10
0.4457047244094489
 20
0.7672913385826772
 30
0.0
 10
0.3593661417322835
 20
0.7903149606299212
 30
0.0
 10
0.3593661417322835
 20
0.7903149606299212
 30
0.0
  0
SPLINE
  5
47
100
AcDbEntity
  8
Layer 1
 62
     9
100
AcDbSpline
210
0.0
220
0.0
230
1.0
 70
     1
 71
     3
 72
    20
 73
    16
 74
     0
 42
0.0000000001
 43
0.0000000001
 40
0.0
 40
0.0
 40
0.0
 40
0.0
 40
0.25
 40
0.25
 40
0.25
 40
0.25
 40
0.5
 40
0.5
 40
0.5
 40
0.5
 40
0.75
 40
0.75
 40
0.75
 40
0.75
 40
1.0
 40
1.0
 40
1.0
 40
1.0
 10
0.4457047244094489
 20
0.7672913385826772
 30
0.0
 10
0.4457047244094489
 20
0.7672913385826772
 30
0.0
 10
1.0891259842519685
 20
1.1399251968503938
 30
0.0
 10
1.0891259842519685
 20
1.1399251968503938
 30
0.0
 10
1.0891259842519685
 20
1.1399251968503938
 30
0.0
 10
1.0891259842519685
 20
1.1399251968503938
 30
0.0
 10
1.0891259842519685
 20
0.849251968503937
 30
0.0
 10
1.0891259842519685
 20
0.849251968503937
 30
0.0
 10
1.0891259842519685
 20
0.849251968503937
 30
0.0
 10
1.0891259842519685
 20
0.849251968503937
 30
0.0
 10
0.4457047244094489
 20
0.4766181102362205
 30
0.0
 10
0.4457047244094489
 20
0.4766181102362205
 30
0.0
 10
0.4457047244094489
 20
0.4766181102362205
 30
0.0
 10
0.4457047244094489
 20
0.4766181102362205
 30
0.0
 10
0.4457047244094489
 20
0.7672913385826772
 30
0.0
 10
0.4457047244094489
 20
0.7672913385826772
 30
0.0
  0
SPLINE
  5
48
100
AcDbEntity
  8
Layer 1
370
     5
100
AcDbSpline
210
0.0
220
0.0
230
1.0
 70
     1
 71
     3
 72
    20
 73
    16
 74
     0
 42
0.0000000001
 43
0.0000000001
 40
0.0
 40
0.0
 40
0.0
 40
0.0
 40
0.25
 40
0.25
 40
0.25
 40
0.25
 40
0.5
 40
0.5
 40
0.5
 40
0.5
 40
0.75
 40
0.75
 40
0.75
 40
0.75
 40
1.0
 40
1.0
 40
1.0
 40
1.0
 10
0.4457047244094489
 20
0.7672913385826772
 30
0.0
 10
0.4457047244094489
 20
0.7672913385826772
 30
0.0
 10
1.0891259842519685
 20
1.1399251968503938
 30
0.0
 10
1.0891259842519685
 20
1.1399251968503938
 30
0.0
 10
1.0891259842519685
 20
1.1399251968503938
 30
0.0
 10
1.0891259842519685
 20
1.1399251968503938
 30
0.0
 10
1.0891259842519685
 20
0.849251968503937
 30
0.0
 10
1.0891259842519685
 20
0.849251968503937
 30
0.0
 10
1.0891259842519685
 20
0.849251968503937
 30
0.0
 10
1.0891259842519685
 20
0.849251968503937
 30
0.0
 10
0.4457047244094489
 20
0.4766181102362205
 30
0.0
 10
0.4457047244094489
 20
0.4766181102362205
 30
0.0
 10
0.4457047244094489
 20
0.4766181102362205
 30
0.0
 10
0.4457047244094489
 20
0.4766181102362205
 30
0.0
 10
0.4457047244094489
 20
0.7672913385826772
 30
0.0
 10
0.4457047244094489
 20
0.7672913385826772
 30
0.0
  0
SPLINE
  5
49
100
AcDbEntity
  8
Layer 1
 62
   252
100
AcDbSpline
210
0.0
220
0.0
230
1.0
 70
     1
 71
     3
 72
    20
 73
    16
 74
     0
 42
0.0000000001
 43
0.0000000001
 40
0.0
 40
0.0
 40
0.0
 40
0.0
 40
0.25
 40
0.25
 40
0.25
 40
0.25
 40
0.5
 40
0.5
 40
0.5
 40
0.5
 40
0.75
 40
0.75
 40
0.75
 40
0.75
 40
1.0
 40
1.0
 40
1.0
 40
1.0
 10
-0.0608149606299213
 20
1.6306771653543308
 30
0.0
 10
-0.0608149606299213
 20
1.6306771653543308
 30
0.0
 10
0.5826062992125984
 20
2.0033110236220475
 30
0.0
 10
0.5826062992125984
 20
2.0033110236220475
 30
0.0
 10
0.5826062992125984
 20
2.0033110236220475
 30
0.0
 10
0.5826062992125984
 20
2.0033110236220475
 30
0.0
 10
0.7208661417322835
 20
2.0033110236220475
 30
0.0
 10
0.7208661417322835
 20
2.0033110236220475
 30
0.0
 10
0.7208661417322835
 20
2.0033110236220475
 30
0.0
 10
0.7208661417322835
 20
2.0033110236220475
 30
0.0
 10
0.0774448818897638
 20
1.6306771653543308
 30
0.0
 10
0.0774448818897638
 20
1.6306771653543308
 30
0.0
 10
0.0774448818897638
 20
1.6306771653543308
 30
0.0
 10
0.0774448818897638
 20
1.6306771653543308
 30
0.0
 10
-0.0608149606299213
 20
1.6306771653543308
 30
0.0
 10
-0.0608149606299213
 20
1.6306771653543308
 30
0.0
  0
SPLINE
  5
4A
100
AcDbEntity
  8
Layer 1
370
     5
100
AcDbSpline
210
0.0
220
0.0
230
1.0
 70
     1
 71
     3
 72
    20
 73
    16
 74
     0
 42
0.0000000001
 43
0.0000000001
 40
0.0
 40
0.0
 40
0.0
 40
0.0
 40
0.25
 40
0.25
 40
0.25
 40
0.25
 40
0.5
 40
0.5
 40
0.5
 40
0.5
 40
0.75
 40
0.75
 40
0.75
 40
0.75
 40
1.0
 40
1.0
 40
1.0
 40
1.0
 10
-0.0608149606299213
 20
1.6306771653543308
 30
0.0
 10
-0.0608149606299213
 20
1.6306771653543308
 30
0.0
 10
0.5826062992125984
 20
2.0033110236220475
 30
0.0
 10
0.5826062992125984
 20
2.0033110236220475
 30
0.0
 10
0.5826062992125984
 20
2.0033110236220475
 30
0.0
 10
0.5826062992125984
 20
2.0033110236220475
 30
0.0
 10
0.7208661417322835
 20
2.0033110236220475
 30
0.0
 10
0.7208661417322835
 20
2.0033110236220475
 30
0.0
 10
0.7208661417322835
 20
2.0033110236220475
 30
0.0
 10
0.7208661417322835
 20
2.0033110236220475
 30
0.0
 10
0.0774448818897638
 20
1.6306771653543308
 30
0.0
 10
0.0774448818897638
 20
1.6306771653543308
 30
0.0
 10
0.0774448818897638
 20
1.6306771653543308
 30
0.0
 10
0.0774448818897638
 20
1.6306771653543308
 30
0.0
 10
-0.0608149606299213
 20
1.6306771653543308
 30
0.0
 10
-0.0608149606299213
 20
1.6306771653543308
 30
0.0
  0
SPLINE
  5
4B
100
AcDbEntity
  8
Layer 1
 62
     9
100
AcDbSpline
210
0.0
220
0.0
230
1.0
 70
     1
 71
     3
 72
    44
 73
    40
 74
     0
 42
0.0000000001
 43
0.0000000001
 40
0.0
 40
0.0
 40
0.0
 40
0.0
 40
0.1
 40
0.1
 40
0.1
 40
0.1
 40
0.2
 40
0.2
 40
0.2
 40
0.2
 40
0.3
 40
0.3
 40
0.3
 40
0.3
 40
0.4
 40
0.4
 40
0.4
 40
0.4
 40
0.5
 40
0.5
 40
0.5
 40
0.5
 40
0.6
 40
0.6
 40
0.6
 40
0.6
 40
0.7
 40
0.7
 40
0.7
 40
0.7
 40
0.7999999999999999
 40
0.7999999999999999
 40
0.7999999999999999
 40
0.7999999999999999
 40
0.8999999999999999
 40
0.8999999999999999
 40
0.8999999999999999
 40
0.8999999999999999
 40
1.0
 40
1.0
 40
1.0
 40
1.0
 10
0.0774448818897638
 20
1.3453267716535433
 30
0.0
 10
0.0774448818897638
 20
1.3453267716535433
 30
0.0
 10
0.7208661417322835
 20
1.71796062992126
 30
0.0
 10
0.7208661417322835
 20
1.71796062992126
 30
0.0
 10
0.7208661417322835
 20
1.71796062992126
 30
0.0
 10
0.7208661417322835
 20
1.71796062992126
 30
0.0
 10
0.7234685039370079
 20
1.7073228346456693
 30
0.0
 10
0.7234685039370079
 20
1.7073228346456693
 30
0.0
 10
0.7234685039370079
 20
1.7073228346456693
 30
0.0
 10
0.7234685039370079
 20
1.7073228346456693
 30
0.0
 10
0.7263779527559056
 20
1.6969015748031497
 30
0.0
 10
0.7263779527559056
 20
1.6969015748031497
 30
0.0
 10
0.7263779527559056
 20
1.6969015748031497
 30
0.0
 10
0.7263779527559056
 20
1.6969015748031497
 30
0.0
 10
0.7295826771653544
 20
1.6866811023622048
 30
0.0
 10
0.7295826771653544
 20
1.6866811023622048
 30
0.0
 10
0.7295826771653544
 20
1.6866811023622048
 30
0.0
 10
0.7295826771653544
 20
1.6866811023622048
 30
0.0
 10
0.7330826771653544
 20
1.6766692913385828
 30
0.0
 10
0.7330826771653544
 20
1.6766692913385828
 30
0.0
 10
0.7330826771653544
 20
1.6766692913385828
 30
0.0
 10
0.7330826771653544
 20
1.6766692913385828
 30
0.0
 10
0.0896614173228347
 20
1.3040354330708661
 30
0.0
 10
0.0896614173228347
 20
1.3040354330708661
 30
0.0
 10
0.0896614173228347
 20
1.3040354330708661
 30
0.0
 10
0.0896614173228347
 20
1.3040354330708661
 30
0.0
 10
0.0861614173228347
 20
1.3140472440944881
 30
0.0
 10
0.0861614173228347
 20
1.3140472440944881
 30
0.0
 10
0.0861614173228347
 20
1.3140472440944881
 30
0.0
 10
0.0861614173228347
 20
1.3140472440944881
 30
0.0
 10
0.0829566929133858
 20
1.3242677165354331
 30
0.0
 10
0.0829566929133858
 20
1.3242677165354331
 30
0.0
 10
0.0829566929133858
 20
1.3242677165354331
 30
0.0
 10
0.0829566929133858
 20
1.3242677165354331
 30
0.0
 10
0.0800472440944882
 20
1.3346889763779528
 30
0.0
 10
0.0800472440944882
 20
1.3346889763779528
 30
0.0
 10
0.0800472440944882
 20
1.3346889763779528
 30
0.0
 10
0.0800472440944882
 20
1.3346889763779528
 30
0.0
 10
0.0774448818897638
 20
1.3453267716535433
 30
0.0
 10
0.0774448818897638
 20
1.3453267716535433
 30
0.0
  0
SPLINE
  5
4C
100
AcDbEntity
  8
Layer 1
 62
     9
100
AcDbSpline
210
0.0
220
0.0
230
1.0
 70
     1
 71
     3
 72
    44
 73
    40
 74
     0
 42
0.0000000001
 43
0.0000000001
 40
0.0
 40
0.0
 40
0.0
 40
0.0
 40
0.1
 40
0.1
 40
0.1
 40
0.1
 40
0.2
 40
0.2
 40
0.2
 40
0.2
 40
0.3
 40
0.3
 40
0.3
 40
0.3
 40
0.4
 40
0.4
 40
0.4
 40
0.4
 40
0.5
 40
0.5
 40
0.5
 40
0.5
 40
0.6
 40
0.6
 40
0.6
 40
0.6
 40
0.7
 40
0.7
 40
0.7
 40
0.7
 40
0.7999999999999999
 40
0.7999999999999999
 40
0.7999999999999999
 40
0.7999999999999999
 40
0.8999999999999999
 40
0.8999999999999999
 40
0.8999999999999999
 40
0.8999999999999999
 40
1.0
 40
1.0
 40
1.0
 40
1.0
 10
0.0896614173228347
 20
1.3040354330708661
 30
0.0
 10
0.0896614173228347
 20
1.3040354330708661
 30
0.0
 10
0.7330826771653544
 20
1.6766692913385828
 30
0.0
 10
0.7330826771653544
 20
1.6766692913385828
 30
0.0
 10
0.7330826771653544
 20
1.6766692913385828
 30
0.0
 10
0.7330826771653544
 20
1.6766692913385828
 30
0.0
 10
0.7368622047244094
 20
1.6668503937007875
 30
0.0
 10
0.7368622047244094
 20
1.6668503937007875
 30
0.0
 10
0.7368622047244094
 20
1.6668503937007875
 30
0.0
 10
0.7368622047244094
 20
1.6668503937007875
 30
0.0
 10
0.7409370078740157
 20
1.6572401574803151
 30
0.0
 10
0.7409370078740157
 20
1.6572401574803151
 30
0.0
 10
0.7409370078740157
 20
1.6572401574803151
 30
0.0
 10
0.7409370078740157
 20
1.6572401574803151
 30
0.0
 10
0.7452913385826772
 20
1.6478228346456694
 30
0.0
 10
0.7452913385826772
 20
1.6478228346456694
 30
0.0
 10
0.7452913385826772
 20
1.6478228346456694
 30
0.0
 10
0.7452913385826772
 20
1.6478228346456694
 30
0.0
 10
0.7499330708661418
 20
1.6386062992125985
 30
0.0
 10
0.7499330708661418
 20
1.6386062992125985
 30
0.0
 10
0.7499330708661418
 20
1.6386062992125985
 30
0.0
 10
0.7499330708661418
 20
1.6386062992125985
 30
0.0
 10
0.1065118110236221
 20
1.265972440944882
 30
0.0
 10
0.1065118110236221
 20
1.265972440944882
 30
0.0
 10
0.1065118110236221
 20
1.265972440944882
 30
0.0
 10
0.1065118110236221
 20
1.265972440944882
 30
0.0
 10
0.1018700787401575
 20
1.2751889763779527
 30
0.0
 10
0.1018700787401575
 20
1.2751889763779527
 30
0.0
 10
0.1018700787401575
 20
1.2751889763779527
 30
0.0
 10
0.1018700787401575
 20
1.2751889763779527
 30
0.0
 10
0.0975157480314961
 20
1.2846062992125984
 30
0.0
 10
0.0975157480314961
 20
1.2846062992125984
 30
0.0
 10
0.0975157480314961
 20
1.2846062992125984
 30
0.0
 10
0.0975157480314961
 20
1.2846062992125984
 30
0.0
 10
0.0934409448818898
 20
1.294216535433071
 30
0.0
 10
0.0934409448818898
 20
1.294216535433071
 30
0.0
 10
0.0934409448818898
 20
1.294216535433071
 30
0.0
 10
0.0934409448818898
 20
1.294216535433071
 30
0.0
 10
0.0896614173228347
 20
1.3040354330708661
 30
0.0
 10
0.0896614173228347
 20
1.3040354330708661
 30
0.0
  0
SPLINE
  5
4D
100
AcDbEntity
  8
Layer 1
 62
     9
100
AcDbSpline
210
0.0
220
0.0
230
1.0
 70
     1
 71
     3
 72
    44
 73
    40
 74
     0
 42
0.0000000001
 43
0.0000000001
 40
0.0
 40
0.0
 40
0.0
 40
0.0
 40
0.1
 40
0.1
 40
0.1
 40
0.1
 40
0.2
 40
0.2
 40
0.2
 40
0.2
 40
0.3
 40
0.3
 40
0.3
 40
0.3
 40
0.4
 40
0.4
 40
0.4
 40
0.4
 40
0.5
 40
0.5
 40
0.5
 40
0.5
 40
0.6
 40
0.6
 40
0.6
 40
0.6
 40
0.7
 40
0.7
 40
0.7
 40
0.7
 40
0.7999999999999999
 40
0.7999999999999999
 40
0.7999999999999999
 40
0.7999999999999999
 40
0.8999999999999999
 40
0.8999999999999999
 40
0.8999999999999999
 40
0.8999999999999999
 40
1.0
 40
1.0
 40
1.0
 40
1.0
 10
0.1065118110236221
 20
1.265972440944882
 30
0.0
 10
0.1065118110236221
 20
1.265972440944882
 30
0.0
 10
0.7499330708661418
 20
1.6386062992125985
 30
0.0
 10
0.7499330708661418
 20
1.6386062992125985
 30
0.0
 10
0.7499330708661418
 20
1.6386062992125985
 30
0.0
 10
0.7499330708661418
 20
1.6386062992125985
 30
0.0
 10
0.7548385826771654
 20
1.6295708661417323
 30
0.0
 10
0.7548385826771654
 20
1.6295708661417323
 30
0.0
 10
0.7548385826771654
 20
1.6295708661417323
 30
0.0
 10
0.7548385826771654
 20
1.6295708661417323
 30
0.0
 10
0.7600275590551181
 20
1.620732283464567
 30
0.0
 10
0.7600275590551181
 20
1.620732283464567
 30
0.0
 10
0.7600275590551181
 20
1.620732283464567
 30
0.0
 10
0.7600275590551181
 20
1.620732283464567
 30
0.0
 10
0.76548031496063
 20
1.6120787401574803
 30
0.0
 10
0.76548031496063
 20
1.6120787401574803
 30
0.0
 10
0.76548031496063
 20
1.6120787401574803
 30
0.0
 10
0.76548031496063
 20
1.6120787401574803
 30
0.0
 10
0.7712086614173229
 20
1.6036220472440945
 30
0.0
 10
0.7712086614173229
 20
1.6036220472440945
 30
0.0
 10
0.7712086614173229
 20
1.6036220472440945
 30
0.0
 10
0.7712086614173229
 20
1.6036220472440945
 30
0.0
 10
0.1277874015748031
 20
1.2309881889763781
 30
0.0
 10
0.1277874015748031
 20
1.2309881889763781
 30
0.0
 10
0.1277874015748031
 20
1.2309881889763781
 30
0.0
 10
0.1277874015748031
 20
1.2309881889763781
 30
0.0
 10
0.1220590551181102
 20
1.2394448818897639
 30
0.0
 10
0.1220590551181102
 20
1.2394448818897639
 30
0.0
 10
0.1220590551181102
 20
1.2394448818897639
 30
0.0
 10
0.1220590551181102
 20
1.2394448818897639
 30
0.0
 10
0.1166062992125984
 20
1.2480984251968505
 30
0.0
 10
0.1166062992125984
 20
1.2480984251968505
 30
0.0
 10
0.1166062992125984
 20
1.2480984251968505
 30
0.0
 10
0.1166062992125984
 20
1.2480984251968505
 30
0.0
 10
0.1114173228346457
 20
1.2569370078740159
 30
0.0
 10
0.1114173228346457
 20
1.2569370078740159
 30
0.0
 10
0.1114173228346457
 20
1.2569370078740159
 30
0.0
 10
0.1114173228346457
 20
1.2569370078740159
 30
0.0
 10
0.1065118110236221
 20
1.265972440944882
 30
0.0
 10
0.1065118110236221
 20
1.265972440944882
 30
0.0
  0
SPLINE
  5
4E
100
AcDbEntity
  8
Layer 1
 62
     9
100
AcDbSpline
210
0.0
220
0.0
230
1.0
 70
     1
 71
     3
 72
    44
 73
    40
 74
     0
 42
0.0000000001
 43
0.0000000001
 40
0.0
 40
0.0
 40
0.0
 40
0.0
 40
0.1
 40
0.1
 40
0.1
 40
0.1
 40
0.2
 40
0.2
 40
0.2
 40
0.2
 40
0.3
 40
0.3
 40
0.3
 40
0.3
 40
0.4
 40
0.4
 40
0.4
 40
0.4
 40
0.5
 40
0.5
 40
0.5
 40
0.5
 40
0.6
 40
0.6
 40
0.6
 40
0.6
 40
0.7
 40
0.7
 40
0.7
 40
0.7
 40
0.7999999999999999
 40
0.7999999999999999
 40
0.7999999999999999
 40
0.7999999999999999
 40
0.8999999999999999
 40
0.8999999999999999
 40
0.8999999999999999
 40
0.8999999999999999
 40
1.0
 40
1.0
 40
1.0
 40
1.0
 10
0.1277874015748031
 20
1.2309881889763781
 30
0.0
 10
0.1277874015748031
 20
1.2309881889763781
 30
0.0
 10
0.7712086614173229
 20
1.6036220472440945
 30
0.0
 10
0.7712086614173229
 20
1.6036220472440945
 30
0.0
 10
0.7712086614173229
 20
1.6036220472440945
 30
0.0
 10
0.7712086614173229
 20
1.6036220472440945
 30
0.0
 10
0.7771929133858269
 20
1.5953385826771653
 30
0.0
 10
0.7771929133858269
 20
1.5953385826771653
 30
0.0
 10
0.7771929133858269
 20
1.5953385826771653
 30
0.0
 10
0.7771929133858269
 20
1.5953385826771653
 30
0.0
 10
0.7834409448818898
 20
1.5872440944881889
 30
0.0
 10
0.7834409448818898
 20
1.5872440944881889
 30
0.0
 10
0.7834409448818898
 20
1.5872440944881889
 30
0.0
 10
0.7834409448818898
 20
1.5872440944881889
 30
0.0
 10
0.7899488188976378
 20
1.5793228346456694
 30
0.0
 10
0.7899488188976378
 20
1.5793228346456694
 30
0.0
 10
0.7899488188976378
 20
1.5793228346456694
 30
0.0
 10
0.7899488188976378
 20
1.5793228346456694
 30
0.0
 10
0.7967165354330709
 20
1.5715905511811024
 30
0.0
 10
0.7967165354330709
 20
1.5715905511811024
 30
0.0
 10
0.7967165354330709
 20
1.5715905511811024
 30
0.0
 10
0.7967165354330709
 20
1.5715905511811024
 30
0.0
 10
0.1532952755905512
 20
1.1989566929133859
 30
0.0
 10
0.1532952755905512
 20
1.1989566929133859
 30
0.0
 10
0.1532952755905512
 20
1.1989566929133859
 30
0.0
 10
0.1532952755905512
 20
1.1989566929133859
 30
0.0
 10
0.1465275590551181
 20
1.2066889763779527
 30
0.0
 10
0.1465275590551181
 20
1.2066889763779527
 30
0.0
 10
0.1465275590551181
 20
1.2066889763779527
 30
0.0
 10
0.1465275590551181
 20
1.2066889763779527
 30
0.0
 10
0.1400196850393701
 20
1.2146102362204725
 30
0.0
 10
0.1400196850393701
 20
1.2146102362204725
 30
0.0
 10
0.1400196850393701
 20
1.2146102362204725
 30
0.0
 10
0.1400196850393701
 20
1.2146102362204725
 30
0.0
 10
0.1337716535433071
 20
1.2227047244094489
 30
0.0
 10
0.1337716535433071
 20
1.2227047244094489
 30
0.0
 10
0.1337716535433071
 20
1.2227047244094489
 30
0.0
 10
0.1337716535433071
 20
1.2227047244094489
 30
0.0
 10
0.1277874015748031
 20
1.2309881889763781
 30
0.0
 10
0.1277874015748031
 20
1.2309881889763781
 30
0.0
  0
SPLINE
  5
4F
100
AcDbEntity
  8
Layer 1
 62
     9
100
AcDbSpline
210
0.0
220
0.0
230
1.0
 70
     1
 71
     3
 72
    44
 73
    40
 74
     0
 42
0.0000000001
 43
0.0000000001
 40
0.0
 40
0.0
 40
0.0
 40
0.0
 40
0.1
 40
0.1
 40
0.1
 40
0.1
 40
0.2
 40
0.2
 40
0.2
 40
0.2
 40
0.3
 40
0.3
 40
0.3
 40
0.3
 40
0.4
 40
0.4
 40
0.4
 40
0.4
 40
0.5
 40
0.5
 40
0.5
 40
0.5
 40
0.6
 40
0.6
 40
0.6
 40
0.6
 40
0.7
 40
0.7
 40
0.7
 40
0.7
 40
0.7999999999999999
 40
0.7999999999999999
 40
0.7999999999999999
 40
0.7999999999999999
 40
0.8999999999999999
 40
0.8999999999999999
 40
0.8999999999999999
 40
0.8999999999999999
 40
1.0
 40
1.0
 40
1.0
 40
1.0
 10
0.1532952755905512
 20
1.1989566929133859
 30
0.0
 10
0.1532952755905512
 20
1.1989566929133859
 30
0.0
 10
0.7967165354330709
 20
1.5715905511811024
 30
0.0
 10
0.7967165354330709
 20
1.5715905511811024
 30
0.0
 10
0.7967165354330709
 20
1.5715905511811024
 30
0.0
 10
0.7967165354330709
 20
1.5715905511811024
 30
0.0
 10
0.803724409448819
 20
1.5640196850393702
 30
0.0
 10
0.803724409448819
 20
1.5640196850393702
 30
0.0
 10
0.803724409448819
 20
1.5640196850393702
 30
0.0
 10
0.803724409448819
 20
1.5640196850393702
 30
0.0
 10
0.810984251968504
 20
1.5566259842519685
 30
0.0
 10
0.810984251968504
 20
1.5566259842519685
 30
0.0
 10
0.810984251968504
 20
1.5566259842519685
 30
0.0
 10
0.810984251968504
 20
1.5566259842519685
 30
0.0
 10
0.818492125984252
 20
1.5494055118110237
 30
0.0
 10
0.818492125984252
 20
1.5494055118110237
 30
0.0
 10
0.818492125984252
 20
1.5494055118110237
 30
0.0
 10
0.818492125984252
 20
1.5494055118110237
 30
0.0
 10
0.826244094488189
 20
1.5423543307086616
 30
0.0
 10
0.826244094488189
 20
1.5423543307086616
 30
0.0
 10
0.826244094488189
 20
1.5423543307086616
 30
0.0
 10
0.826244094488189
 20
1.5423543307086616
 30
0.0
 10
0.1828228346456693
 20
1.1697204724409449
 30
0.0
 10
0.1828228346456693
 20
1.1697204724409449
 30
0.0
 10
0.1828228346456693
 20
1.1697204724409449
 30
0.0
 10
0.1828228346456693
 20
1.1697204724409449
 30
0.0
 10
0.1750708661417323
 20
1.176771653543307
 30
0.0
 10
0.1750708661417323
 20
1.176771653543307
 30
0.0
 10
0.1750708661417323
 20
1.176771653543307
 30
0.0
 10
0.1750708661417323
 20
1.176771653543307
 30
0.0
 10
0.1675629921259842
 20
1.1839921259842521
 30
0.0
 10
0.1675629921259842
 20
1.1839921259842521
 30
0.0
 10
0.1675629921259842
 20
1.1839921259842521
 30
0.0
 10
0.1675629921259842
 20
1.1839921259842521
 30
0.0
 10
0.1603031496062992
 20
1.1913858267716535
 30
0.0
 10
0.1603031496062992
 20
1.1913858267716535
 30
0.0
 10
0.1603031496062992
 20
1.1913858267716535
 30
0.0
 10
0.1603031496062992
 20
1.1913858267716535
 30
0.0
 10
0.1532952755905512
 20
1.1989566929133859
 30
0.0
 10
0.1532952755905512
 20
1.1989566929133859
 30
0.0
  0
SPLINE
  5
50
100
AcDbEntity
  8
Layer 1
 62
     9
100
AcDbSpline
210
0.0
220
0.0
230
1.0
 70
     1
 71
     3
 72
    44
 73
    40
 74
     0
 42
0.0000000001
 43
0.0000000001
 40
0.0
 40
0.0
 40
0.0
 40
0.0
 40
0.1
 40
0.1
 40
0.1
 40
0.1
 40
0.2
 40
0.2
 40
0.2
 40
0.2
 40
0.3
 40
0.3
 40
0.3
 40
0.3
 40
0.4
 40
0.4
 40
0.4
 40
0.4
 40
0.5
 40
0.5
 40
0.5
 40
0.5
 40
0.6
 40
0.6
 40
0.6
 40
0.6
 40
0.7
 40
0.7
 40
0.7
 40
0.7
 40
0.7999999999999999
 40
0.7999999999999999
 40
0.7999999999999999
 40
0.7999999999999999
 40
0.8999999999999999
 40
0.8999999999999999
 40
0.8999999999999999
 40
0.8999999999999999
 40
1.0
 40
1.0
 40
1.0
 40
1.0
 10
0.1828228346456693
 20
1.1697204724409449
 30
0.0
 10
0.1828228346456693
 20
1.1697204724409449
 30
0.0
 10
0.826244094488189
 20
1.5423543307086616
 30
0.0
 10
0.826244094488189
 20
1.5423543307086616
 30
0.0
 10
0.826244094488189
 20
1.5423543307086616
 30
0.0
 10
0.826244094488189
 20
1.5423543307086616
 30
0.0
 10
0.834228346456693
 20
1.535464566929134
 30
0.0
 10
0.834228346456693
 20
1.535464566929134
 30
0.0
 10
0.834228346456693
 20
1.535464566929134
 30
0.0
 10
0.834228346456693
 20
1.535464566929134
 30
0.0
 10
0.8424606299212599
 20
1.5287440944881889
 30
0.0
 10
0.8424606299212599
 20
1.5287440944881889
 30
0.0
 10
0.8424606299212599
 20
1.5287440944881889
 30
0.0
 10
0.8424606299212599
 20
1.5287440944881889
 30
0.0
 10
0.8509173228346457
 20
1.5221850393700789
 30
0.0
 10
0.8509173228346457
 20
1.5221850393700789
 30
0.0
 10
0.8509173228346457
 20
1.5221850393700789
 30
0.0
 10
0.8509173228346457
 20
1.5221850393700789
 30
0.0
 10
0.8596141732283464
 20
1.5157913385826771
 30
0.0
 10
0.8596141732283464
 20
1.5157913385826771
 30
0.0
 10
0.8596141732283464
 20
1.5157913385826771
 30
0.0
 10
0.8596141732283464
 20
1.5157913385826771
 30
0.0
 10
0.2161929133858268
 20
1.1431574803149607
 30
0.0
 10
0.2161929133858268
 20
1.1431574803149607
 30
0.0
 10
0.2161929133858268
 20
1.1431574803149607
 30
0.0
 10
0.2161929133858268
 20
1.1431574803149607
 30
0.0
 10
0.207496062992126
 20
1.1495511811023622
 30
0.0
 10
0.207496062992126
 20
1.1495511811023622
 30
0.0
 10
0.207496062992126
 20
1.1495511811023622
 30
0.0
 10
0.207496062992126
 20
1.1495511811023622
 30
0.0
 10
0.1990393700787402
 20
1.1561102362204725
 30
0.0
 10
0.1990393700787402
 20
1.1561102362204725
 30
0.0
 10
0.1990393700787402
 20
1.1561102362204725
 30
0.0
 10
0.1990393700787402
 20
1.1561102362204725
 30
0.0
 10
0.1908070866141732
 20
1.1628307086614174
 30
0.0
 10
0.1908070866141732
 20
1.1628307086614174
 30
0.0
 10
0.1908070866141732
 20
1.1628307086614174
 30
0.0
 10
0.1908070866141732
 20
1.1628307086614174
 30
0.0
 10
0.1828228346456693
 20
1.1697204724409449
 30
0.0
 10
0.1828228346456693
 20
1.1697204724409449
 30
0.0
  0
SPLINE
  5
51
100
AcDbEntity
  8
Layer 1
 62
     9
100
AcDbSpline
210
0.0
220
0.0
230
1.0
 70
     1
 71
     3
 72
    44
 73
    40
 74
     0
 42
0.0000000001
 43
0.0000000001
 40
0.0
 40
0.0
 40
0.0
 40
0.0
 40
0.1
 40
0.1
 40
0.1
 40
0.1
 40
0.2
 40
0.2
 40
0.2
 40
0.2
 40
0.3
 40
0.3
 40
0.3
 40
0.3
 40
0.4
 40
0.4
 40
0.4
 40
0.4
 40
0.5
 40
0.5
 40
0.5
 40
0.5
 40
0.6
 40
0.6
 40
0.6
 40
0.6
 40
0.7
 40
0.7
 40
0.7
 40
0.7
 40
0.7999999999999999
 40
0.7999999999999999
 40
0.7999999999999999
 40
0.7999999999999999
 40
0.8999999999999999
 40
0.8999999999999999
 40
0.8999999999999999
 40
0.8999999999999999
 40
1.0
 40
1.0
 40
1.0
 40
1.0
 10
0.2161929133858268
 20
1.1431574803149607
 30
0.0
 10
0.2161929133858268
 20
1.1431574803149607
 30
0.0
 10
0.8596141732283464
 20
1.5157913385826771
 30
0.0
 10
0.8596141732283464
 20
1.5157913385826771
 30
0.0
 10
0.8596141732283464
 20
1.5157913385826771
 30
0.0
 10
0.8596141732283464
 20
1.5157913385826771
 30
0.0
 10
0.8685275590551181
 20
1.5095472440944881
 30
0.0
 10
0.8685275590551181
 20
1.5095472440944881
 30
0.0
 10
0.8685275590551181
 20
1.5095472440944881
 30
0.0
 10
0.8685275590551181
 20
1.5095472440944881
 30
0.0
 10
0.8776692913385827
 20
1.503464566929134
 30
0.0
 10
0.8776692913385827
 20
1.503464566929134
 30
0.0
 10
0.8776692913385827
 20
1.503464566929134
 30
0.0
 10
0.8776692913385827
 20
1.503464566929134
 30
0.0
 10
0.8870314960629921
 20
1.4975314960629922
 30
0.0
 10
0.8870314960629921
 20
1.4975314960629922
 30
0.0
 10
0.8870314960629921
 20
1.4975314960629922
 30
0.0
 10
0.8870314960629921
 20
1.4975314960629922
 30
0.0
 10
0.8966141732283465
 20
1.491755905511811
 30
0.0
 10
0.8966141732283465
 20
1.491755905511811
 30
0.0
 10
0.8966141732283465
 20
1.491755905511811
 30
0.0
 10
0.8966141732283465
 20
1.491755905511811
 30
0.0
 10
0.2531929133858268
 20
1.1191220472440946
 30
0.0
 10
0.2531929133858268
 20
1.1191220472440946
 30
0.0
 10
0.2531929133858268
 20
1.1191220472440946
 30
0.0
 10
0.2531929133858268
 20
1.1191220472440946
 30
0.0
 10
0.2436102362204725
 20
1.1248976377952757
 30
0.0
 10
0.2436102362204725
 20
1.1248976377952757
 30
0.0
 10
0.2436102362204725
 20
1.1248976377952757
 30
0.0
 10
0.2436102362204725
 20
1.1248976377952757
 30
0.0
 10
0.234248031496063
 20
1.1308307086614173
 30
0.0
 10
0.234248031496063
 20
1.1308307086614173
 30
0.0
 10
0.234248031496063
 20
1.1308307086614173
 30
0.0
 10
0.234248031496063
 20
1.1308307086614173
 30
0.0
 10
0.2251062992125984
 20
1.1369133858267717
 30
0.0
 10
0.2251062992125984
 20
1.1369133858267717
 30
0.0
 10
0.2251062992125984
 20
1.1369133858267717
 30
0.0
 10
0.2251062992125984
 20
1.1369133858267717
 30
0.0
 10
0.2161929133858268
 20
1.1431574803149607
 30
0.0
 10
0.2161929133858268
 20
1.1431574803149607
 30
0.0
  0
SPLINE
  5
52
100
AcDbEntity
  8
Layer 1
 62
   253
100
AcDbSpline
210
0.0
220
0.0
230
1.0
 70
     1
 71
     3
 72
    44
 73
    40
 74
     0
 42
0.0000000001
 43
0.0000000001
 40
0.0
 40
0.0
 40
0.0
 40
0.0
 40
0.1
 40
0.1
 40
0.1
 40
0.1
 40
0.2
 40
0.2
 40
0.2
 40
0.2
 40
0.3
 40
0.3
 40
0.3
 40
0.3
 40
0.4
 40
0.4
 40
0.4
 40
0.4
 40
0.5
 40
0.5
 40
0.5
 40
0.5
 40
0.6
 40
0.6
 40
0.6
 40
0.6
 40
0.7
 40
0.7
 40
0.7
 40
0.7
 40
0.7999999999999999
 40
0.7999999999999999
 40
0.7999999999999999
 40
0.7999999999999999
 40
0.8999999999999999
 40
0.8999999999999999
 40
0.8999999999999999
 40
0.8999999999999999
 40
1.0
 40
1.0
 40
1.0
 40
1.0
 10
0.2531929133858268
 20
1.1191220472440946
 30
0.0
 10
0.2531929133858268
 20
1.1191220472440946
 30
0.0
 10
0.8966141732283465
 20
1.491755905511811
 30
0.0
 10
0.8966141732283465
 20
1.491755905511811
 30
0.0
 10
0.8966141732283465
 20
1.491755905511811
 30
0.0
 10
0.8966141732283465
 20
1.491755905511811
 30
0.0
 10
0.9064055118110237
 20
1.4861220472440946
 30
0.0
 10
0.9064055118110237
 20
1.4861220472440946
 30
0.0
 10
0.9064055118110237
 20
1.4861220472440946
 30
0.0
 10
0.9064055118110237
 20
1.4861220472440946
 30
0.0
 10
0.9164173228346457
 20
1.4806377952755907
 30
0.0
 10
0.9164173228346457
 20
1.4806377952755907
 30
0.0
 10
0.9164173228346457
 20
1.4806377952755907
 30
0.0
 10
0.9164173228346457
 20
1.4806377952755907
 30
0.0
 10
0.9266338582677166
 20
1.4752992125984252
 30
0.0
 10
0.9266338582677166
 20
1.4752992125984252
 30
0.0
 10
0.9266338582677166
 20
1.4752992125984252
 30
0.0
 10
0.9266338582677166
 20
1.4752992125984252
 30
0.0
 10
0.9370590551181103
 20
1.4701062992125984
 30
0.0
 10
0.9370590551181103
 20
1.4701062992125984
 30
0.0
 10
0.9370590551181103
 20
1.4701062992125984
 30
0.0
 10
0.9370590551181103
 20
1.4701062992125984
 30
0.0
 10
0.2936377952755906
 20
1.0974724409448819
 30
0.0
 10
0.2936377952755906
 20
1.0974724409448819
 30
0.0
 10
0.2936377952755906
 20
1.0974724409448819
 30
0.0
 10
0.2936377952755906
 20
1.0974724409448819
 30
0.0
 10
0.2832125984251969
 20
1.1026653543307088
 30
0.0
 10
0.2832125984251969
 20
1.1026653543307088
 30
0.0
 10
0.2832125984251969
 20
1.1026653543307088
 30
0.0
 10
0.2832125984251969
 20
1.1026653543307088
 30
0.0
 10
0.272996062992126
 20
1.108003937007874
 30
0.0
 10
0.272996062992126
 20
1.108003937007874
 30
0.0
 10
0.272996062992126
 20
1.108003937007874
 30
0.0
 10
0.272996062992126
 20
1.108003937007874
 30
0.0
 10
0.262984251968504
 20
1.1134881889763779
 30
0.0
 10
0.262984251968504
 20
1.1134881889763779
 30
0.0
 10
0.262984251968504
 20
1.1134881889763779
 30
0.0
 10
0.262984251968504
 20
1.1134881889763779
 30
0.0
 10
0.2531929133858268
 20
1.1191220472440946
 30
0.0
 10
0.2531929133858268
 20
1.1191220472440946
 30
0.0
  0
SPLINE
  5
53
100
AcDbEntity
  8
Layer 1
 62
     9
100
AcDbSpline
210
0.0
220
0.0
230
1.0
 70
     1
 71
     3
 72
    44
 73
    40
 74
     0
 42
0.0000000001
 43
0.0000000001
 40
0.0
 40
0.0
 40
0.0
 40
0.0
 40
0.1
 40
0.1
 40
0.1
 40
0.1
 40
0.2
 40
0.2
 40
0.2
 40
0.2
 40
0.3
 40
0.3
 40
0.3
 40
0.3
 40
0.4
 40
0.4
 40
0.4
 40
0.4
 40
0.5
 40
0.5
 40
0.5
 40
0.5
 40
0.6
 40
0.6
 40
0.6
 40
0.6
 40
0.7
 40
0.7
 40
0.7
 40
0.7
 40
0.7999999999999999
 40
0.7999999999999999
 40
0.7999999999999999
 40
0.7999999999999999
 40
0.8999999999999999
 40
0.8999999999999999
 40
0.8999999999999999
 40
0.8999999999999999
 40
1.0
 40
1.0
 40
1.0
 40
1.0
 10
0.2936377952755906
 20
1.0974724409448819
 30
0.0
 10
0.2936377952755906
 20
1.0974724409448819
 30
0.0
 10
0.9370590551181103
 20
1.4701062992125984
 30
0.0
 10
0.9370590551181103
 20
1.4701062992125984
 30
0.0
 10
0.9370590551181103
 20
1.4701062992125984
 30
0.0
 10
0.9370590551181103
 20
1.4701062992125984
 30
0.0
 10
0.9476062992125984
 20
1.464748031496063
 30
0.0
 10
0.9476062992125984
 20
1.464748031496063
 30
0.0
 10
0.9476062992125984
 20
1.464748031496063
 30
0.0
 10
0.9476062992125984
 20
1.464748031496063
 30
0.0
 10
0.9581850393700788
 20
1.458964566929134
 30
0.0
 10
0.9581850393700788
 20
1.458964566929134
 30
0.0
 10
0.9581850393700788
 20
1.458964566929134
 30
0.0
 10
0.9581850393700788
 20
1.458964566929134
 30
0.0
 10
0.9687283464566929
 20
1.452759842519685
 30
0.0
 10
0.9687283464566929
 20
1.452759842519685
 30
0.0
 10
0.9687283464566929
 20
1.452759842519685
 30
0.0
 10
0.9687283464566929
 20
1.452759842519685
 30
0.0
 10
0.9791889763779528
 20
1.4461574803149606
 30
0.0
 10
0.9791889763779528
 20
1.4461574803149606
 30
0.0
 10
0.9791889763779528
 20
1.4461574803149606
 30
0.0
 10
0.9791889763779528
 20
1.4461574803149606
 30
0.0
 10
0.3357677165354331
 20
1.0735236220472442
 30
0.0
 10
0.3357677165354331
 20
1.0735236220472442
 30
0.0
 10
0.3357677165354331
 20
1.0735236220472442
 30
0.0
 10
0.3357677165354331
 20
1.0735236220472442
 30
0.0
 10
0.3253070866141732
 20
1.0801259842519686
 30
0.0
 10
0.3253070866141732
 20
1.0801259842519686
 30
0.0
 10
0.3253070866141732
 20
1.0801259842519686
 30
0.0
 10
0.3253070866141732
 20
1.0801259842519686
 30
0.0
 10
0.3147637795275591
 20
1.0863307086614173
 30
0.0
 10
0.3147637795275591
 20
1.0863307086614173
 30
0.0
 10
0.3147637795275591
 20
1.0863307086614173
 30
0.0
 10
0.3147637795275591
 20
1.0863307086614173
 30
0.0
 10
0.3041850393700787
 20
1.0921141732283466
 30
0.0
 10
0.3041850393700787
 20
1.0921141732283466
 30
0.0
 10
0.3041850393700787
 20
1.0921141732283466
 30
0.0
 10
0.3041850393700787
 20
1.0921141732283466
 30
0.0
 10
0.2936377952755906
 20
1.0974724409448819
 30
0.0
 10
0.2936377952755906
 20
1.0974724409448819
 30
0.0
  0
SPLINE
  5
54
100
AcDbEntity
  8
Layer 1
 62
     9
100
AcDbSpline
210
0.0
220
0.0
230
1.0
 70
     1
 71
     3
 72
    44
 73
    40
 74
     0
 42
0.0000000001
 43
0.0000000001
 40
0.0
 40
0.0
 40
0.0
 40
0.0
 40
0.1
 40
0.1
 40
0.1
 40
0.1
 40
0.2
 40
0.2
 40
0.2
 40
0.2
 40
0.3
 40
0.3
 40
0.3
 40
0.3
 40
0.4
 40
0.4
 40
0.4
 40
0.4
 40
0.5
 40
0.5
 40
0.5
 40
0.5
 40
0.6
 40
0.6
 40
0.6
 40
0.6
 40
0.7
 40
0.7
 40
0.7
 40
0.7
 40
0.7999999999999999
 40
0.7999999999999999
 40
0.7999999999999999
 40
0.7999999999999999
 40
0.8999999999999999
 40
0.8999999999999999
 40
0.8999999999999999
 40
0.8999999999999999
 40
1.0
 40
1.0
 40
1.0
 40
1.0
 10
0.3357677165354331
 20
1.0735236220472442
 30
0.0
 10
0.3357677165354331
 20
1.0735236220472442
 30
0.0
 10
0.9791889763779528
 20
1.4461574803149606
 30
0.0
 10
0.9791889763779528
 20
1.4461574803149606
 30
0.0
 10
0.9791889763779528
 20
1.4461574803149606
 30
0.0
 10
0.9791889763779528
 20
1.4461574803149606
 30
0.0
 10
0.989492125984252
 20
1.4391614173228346
 30
0.0
 10
0.989492125984252
 20
1.4391614173228346
 30
0.0
 10
0.989492125984252
 20
1.4391614173228346
 30
0.0
 10
0.989492125984252
 20
1.4391614173228346
 30
0.0
 10
0.9995944881889765
 20
1.4318031496062993
 30
0.0
 10
0.9995944881889765
 20
1.4318031496062993
 30
0.0
 10
0.9995944881889765
 20
1.4318031496062993
 30
0.0
 10
0.9995944881889765
 20
1.4318031496062993
 30
0.0
 10
1.0094370078740158
 20
1.4240826771653543
 30
0.0
 10
1.0094370078740158
 20
1.4240826771653543
 30
0.0
 10
1.0094370078740158
 20
1.4240826771653543
 30
0.0
 10
1.0094370078740158
 20
1.4240826771653543
 30
0.0
 10
1.0189606299212599
 20
1.4160354330708662
 30
0.0
 10
1.0189606299212599
 20
1.4160354330708662
 30
0.0
 10
1.0189606299212599
 20
1.4160354330708662
 30
0.0
 10
1.0189606299212599
 20
1.4160354330708662
 30
0.0
 10
0.3755393700787402
 20
1.0434015748031495
 30
0.0
 10
0.3755393700787402
 20
1.0434015748031495
 30
0.0
 10
0.3755393700787402
 20
1.0434015748031495
 30
0.0
 10
0.3755393700787402
 20
1.0434015748031495
 30
0.0
 10
0.3660157480314961
 20
1.0514488188976379
 30
0.0
 10
0.3660157480314961
 20
1.0514488188976379
 30
0.0
 10
0.3660157480314961
 20
1.0514488188976379
 30
0.0
 10
0.3660157480314961
 20
1.0514488188976379
 30
0.0
 10
0.3561732283464567
 20
1.0591692913385826
 30
0.0
 10
0.3561732283464567
 20
1.0591692913385826
 30
0.0
 10
0.3561732283464567
 20
1.0591692913385826
 30
0.0
 10
0.3561732283464567
 20
1.0591692913385826
 30
0.0
 10
0.3460708661417323
 20
1.0665275590551182
 30
0.0
 10
0.3460708661417323
 20
1.0665275590551182
 30
0.0
 10
0.3460708661417323
 20
1.0665275590551182
 30
0.0
 10
0.3460708661417323
 20
1.0665275590551182
 30
0.0
 10
0.3357677165354331
 20
1.0735236220472442
 30
0.0
 10
0.3357677165354331
 20
1.0735236220472442
 30
0.0
  0
SPLINE
  5
55
100
AcDbEntity
  8
Layer 1
 62
     9
100
AcDbSpline
210
0.0
220
0.0
230
1.0
 70
     1
 71
     3
 72
    44
 73
    40
 74
     0
 42
0.0000000001
 43
0.0000000001
 40
0.0
 40
0.0
 40
0.0
 40
0.0
 40
0.1
 40
0.1
 40
0.1
 40
0.1
 40
0.2
 40
0.2
 40
0.2
 40
0.2
 40
0.3
 40
0.3
 40
0.3
 40
0.3
 40
0.4
 40
0.4
 40
0.4
 40
0.4
 40
0.5
 40
0.5
 40
0.5
 40
0.5
 40
0.6
 40
0.6
 40
0.6
 40
0.6
 40
0.7
 40
0.7
 40
0.7
 40
0.7
 40
0.7999999999999999
 40
0.7999999999999999
 40
0.7999999999999999
 40
0.7999999999999999
 40
0.8999999999999999
 40
0.8999999999999999
 40
0.8999999999999999
 40
0.8999999999999999
 40
1.0
 40
1.0
 40
1.0
 40
1.0
 10
0.3755393700787402
 20
1.0434015748031495
 30
0.0
 10
0.3755393700787402
 20
1.0434015748031495
 30
0.0
 10
1.0189606299212599
 20
1.4160354330708662
 30
0.0
 10
1.0189606299212599
 20
1.4160354330708662
 30
0.0
 10
1.0189606299212599
 20
1.4160354330708662
 30
0.0
 10
1.0189606299212599
 20
1.4160354330708662
 30
0.0
 10
1.0281023622047245
 20
1.4076535433070867
 30
0.0
 10
1.0281023622047245
 20
1.4076535433070867
 30
0.0
 10
1.0281023622047245
 20
1.4076535433070867
 30
0.0
 10
1.0281023622047245
 20
1.4076535433070867
 30
0.0
 10
1.0368149606299213
 20
1.398972440944882
 30
0.0
 10
1.0368149606299213
 20
1.398972440944882
 30
0.0
 10
1.0368149606299213
 20
1.398972440944882
 30
0.0
 10
1.0368149606299213
 20
1.398972440944882
 30
0.0
 10
1.0450314960629921
 20
1.389996062992126
 30
0.0
 10
1.0450314960629921
 20
1.389996062992126
 30
0.0
 10
1.0450314960629921
 20
1.389996062992126
 30
0.0
 10
1.0450314960629921
 20
1.389996062992126
 30
0.0
 10
1.052704724409449
 20
1.3807519685039371
 30
0.0
 10
1.052704724409449
 20
1.3807519685039371
 30
0.0
 10
1.052704724409449
 20
1.3807519685039371
 30
0.0
 10
1.052704724409449
 20
1.3807519685039371
 30
0.0
 10
0.4092834645669292
 20
1.0081181102362204
 30
0.0
 10
0.4092834645669292
 20
1.0081181102362204
 30
0.0
 10
0.4092834645669292
 20
1.0081181102362204
 30
0.0
 10
0.4092834645669292
 20
1.0081181102362204
 30
0.0
 10
0.4016102362204725
 20
1.0173622047244095
 30
0.0
 10
0.4016102362204725
 20
1.0173622047244095
 30
0.0
 10
0.4016102362204725
 20
1.0173622047244095
 30
0.0
 10
0.4016102362204725
 20
1.0173622047244095
 30
0.0
 10
0.3933937007874016
 20
1.0263385826771654
 30
0.0
 10
0.3933937007874016
 20
1.0263385826771654
 30
0.0
 10
0.3933937007874016
 20
1.0263385826771654
 30
0.0
 10
0.3933937007874016
 20
1.0263385826771654
 30
0.0
 10
0.3846811023622048
 20
1.03501968503937
 30
0.0
 10
0.3846811023622048
 20
1.03501968503937
 30
0.0
 10
0.3846811023622048
 20
1.03501968503937
 30
0.0
 10
0.3846811023622048
 20
1.03501968503937
 30
0.0
 10
0.3755393700787402
 20
1.0434015748031495
 30
0.0
 10
0.3755393700787402
 20
1.0434015748031495
 30
0.0
  0
SPLINE
  5
56
100
AcDbEntity
  8
Layer 1
 62
     9
100
AcDbSpline
210
0.0
220
0.0
230
1.0
 70
     1
 71
     3
 72
    44
 73
    40
 74
     0
 42
0.0000000001
 43
0.0000000001
 40
0.0
 40
0.0
 40
0.0
 40
0.0
 40
0.1
 40
0.1
 40
0.1
 40
0.1
 40
0.2
 40
0.2
 40
0.2
 40
0.2
 40
0.3
 40
0.3
 40
0.3
 40
0.3
 40
0.4
 40
0.4
 40
0.4
 40
0.4
 40
0.5
 40
0.5
 40
0.5
 40
0.5
 40
0.6
 40
0.6
 40
0.6
 40
0.6
 40
0.7
 40
0.7
 40
0.7
 40
0.7
 40
0.7999999999999999
 40
0.7999999999999999
 40
0.7999999999999999
 40
0.7999999999999999
 40
0.8999999999999999
 40
0.8999999999999999
 40
0.8999999999999999
 40
0.8999999999999999
 40
1.0
 40
1.0
 40
1.0
 40
1.0
 10
0.4092834645669292
 20
1.0081181102362204
 30
0.0
 10
0.4092834645669292
 20
1.0081181102362204
 30
0.0
 10
1.052704724409449
 20
1.3807519685039371
 30
0.0
 10
1.052704724409449
 20
1.3807519685039371
 30
0.0
 10
1.052704724409449
 20
1.3807519685039371
 30
0.0
 10
1.052704724409449
 20
1.3807519685039371
 30
0.0
 10
1.0597677165354331
 20
1.371244094488189
 30
0.0
 10
1.0597677165354331
 20
1.371244094488189
 30
0.0
 10
1.0597677165354331
 20
1.371244094488189
 30
0.0
 10
1.0597677165354331
 20
1.371244094488189
 30
0.0
 10
1.0661732283464567
 20
1.3615000000000002
 30
0.0
 10
1.0661732283464567
 20
1.3615000000000002
 30
0.0
 10
1.0661732283464567
 20
1.3615000000000002
 30
0.0
 10
1.0661732283464567
 20
1.3615000000000002
 30
0.0
 10
1.0718543307086614
 20
1.3515236220472442
 30
0.0
 10
1.0718543307086614
 20
1.3515236220472442
 30
0.0
 10
1.0718543307086614
 20
1.3515236220472442
 30
0.0
 10
1.0718543307086614
 20
1.3515236220472442
 30
0.0
 10
1.0767637795275591
 20
1.3413464566929134
 30
0.0
 10
1.0767637795275591
 20
1.3413464566929134
 30
0.0
 10
1.0767637795275591
 20
1.3413464566929134
 30
0.0
 10
1.0767637795275591
 20
1.3413464566929134
 30
0.0
 10
0.4333425196850394
 20
0.9687125984251969
 30
0.0
 10
0.4333425196850394
 20
0.9687125984251969
 30
0.0
 10
0.4333425196850394
 20
0.9687125984251969
 30
0.0
 10
0.4333425196850394
 20
0.9687125984251969
 30
0.0
 10
0.4284330708661417
 20
0.9788897637795276
 30
0.0
 10
0.4284330708661417
 20
0.9788897637795276
 30
0.0
 10
0.4284330708661417
 20
0.9788897637795276
 30
0.0
 10
0.4284330708661417
 20
0.9788897637795276
 30
0.0
 10
0.422751968503937
 20
0.9888661417322835
 30
0.0
 10
0.422751968503937
 20
0.9888661417322835
 30
0.0
 10
0.422751968503937
 20
0.9888661417322835
 30
0.0
 10
0.422751968503937
 20
0.9888661417322835
 30
0.0
 10
0.4163464566929134
 20
0.9986102362204725
 30
0.0
 10
0.4163464566929134
 20
0.9986102362204725
 30
0.0
 10
0.4163464566929134
 20
0.9986102362204725
 30
0.0
 10
0.4163464566929134
 20
0.9986102362204725
 30
0.0
 10
0.4092834645669292
 20
1.0081181102362204
 30
0.0
 10
0.4092834645669292
 20
1.0081181102362204
 30
0.0
  0
SPLINE
  5
57
100
AcDbEntity
  8
Layer 1
 62
     9
100
AcDbSpline
210
0.0
220
0.0
230
1.0
 70
     1
 71
     3
 72
    44
 73
    40
 74
     0
 42
0.0000000001
 43
0.0000000001
 40
0.0
 40
0.0
 40
0.0
 40
0.0
 40
0.1
 40
0.1
 40
0.1
 40
0.1
 40
0.2
 40
0.2
 40
0.2
 40
0.2
 40
0.3
 40
0.3
 40
0.3
 40
0.3
 40
0.4
 40
0.4
 40
0.4
 40
0.4
 40
0.5
 40
0.5
 40
0.5
 40
0.5
 40
0.6
 40
0.6
 40
0.6
 40
0.6
 40
0.7
 40
0.7
 40
0.7
 40
0.7
 40
0.7999999999999999
 40
0.7999999999999999
 40
0.7999999999999999
 40
0.7999999999999999
 40
0.8999999999999999
 40
0.8999999999999999
 40
0.8999999999999999
 40
0.8999999999999999
 40
1.0
 40
1.0
 40
1.0
 40
1.0
 10
0.4333425196850394
 20
0.9687125984251969
 30
0.0
 10
0.4333425196850394
 20
0.9687125984251969
 30
0.0
 10
1.0767637795275591
 20
1.3413464566929134
 30
0.0
 10
1.0767637795275591
 20
1.3413464566929134
 30
0.0
 10
1.0767637795275591
 20
1.3413464566929134
 30
0.0
 10
1.0767637795275591
 20
1.3413464566929134
 30
0.0
 10
1.0808267716535434
 20
1.3309645669291339
 30
0.0
 10
1.0808267716535434
 20
1.3309645669291339
 30
0.0
 10
1.0808267716535434
 20
1.3309645669291339
 30
0.0
 10
1.0808267716535434
 20
1.3309645669291339
 30
0.0
 10
1.0840078740157482
 20
1.3204094488188978
 30
0.0
 10
1.0840078740157482
 20
1.3204094488188978
 30
0.0
 10
1.0840078740157482
 20
1.3204094488188978
 30
0.0
 10
1.0840078740157482
 20
1.3204094488188978
 30
0.0
 10
1.086232283464567
 20
1.3096889763779529
 30
0.0
 10
1.086232283464567
 20
1.3096889763779529
 30
0.0
 10
1.086232283464567
 20
1.3096889763779529
 30
0.0
 10
1.086232283464567
 20
1.3096889763779529
 30
0.0
 10
1.0874606299212599
 20
1.2988307086614175
 30
0.0
 10
1.0874606299212599
 20
1.2988307086614175
 30
0.0
 10
1.0874606299212599
 20
1.2988307086614175
 30
0.0
 10
1.0874606299212599
 20
1.2988307086614175
 30
0.0
 10
0.4440393700787402
 20
0.9261968503937008
 30
0.0
 10
0.4440393700787402
 20
0.9261968503937008
 30
0.0
 10
0.4440393700787402
 20
0.9261968503937008
 30
0.0
 10
0.4440393700787402
 20
0.9261968503937008
 30
0.0
 10
0.4428110236220473
 20
0.9370551181102362
 30
0.0
 10
0.4428110236220473
 20
0.9370551181102362
 30
0.0
 10
0.4428110236220473
 20
0.9370551181102362
 30
0.0
 10
0.4428110236220473
 20
0.9370551181102362
 30
0.0
 10
0.4405866141732284
 20
0.9477755905511811
 30
0.0
 10
0.4405866141732284
 20
0.9477755905511811
 30
0.0
 10
0.4405866141732284
 20
0.9477755905511811
 30
0.0
 10
0.4405866141732284
 20
0.9477755905511811
 30
0.0
 10
0.4374055118110237
 20
0.9583307086614173
 30
0.0
 10
0.4374055118110237
 20
0.9583307086614173
 30
0.0
 10
0.4374055118110237
 20
0.9583307086614173
 30
0.0
 10
0.4374055118110237
 20
0.9583307086614173
 30
0.0
 10
0.4333425196850394
 20
0.9687125984251969
 30
0.0
 10
0.4333425196850394
 20
0.9687125984251969
 30
0.0
  0
SPLINE
  5
58
100
AcDbEntity
  8
Layer 1
 62
     9
100
AcDbSpline
210
0.0
220
0.0
230
1.0
 70
     1
 71
     3
 72
    44
 73
    40
 74
     0
 42
0.0000000001
 43
0.0000000001
 40
0.0
 40
0.0
 40
0.0
 40
0.0
 40
0.1
 40
0.1
 40
0.1
 40
0.1
 40
0.2
 40
0.2
 40
0.2
 40
0.2
 40
0.3
 40
0.3
 40
0.3
 40
0.3
 40
0.4
 40
0.4
 40
0.4
 40
0.4
 40
0.5
 40
0.5
 40
0.5
 40
0.5
 40
0.6
 40
0.6
 40
0.6
 40
0.6
 40
0.7
 40
0.7
 40
0.7
 40
0.7
 40
0.7999999999999999
 40
0.7999999999999999
 40
0.7999999999999999
 40
0.7999999999999999
 40
0.8999999999999999
 40
0.8999999999999999
 40
0.8999999999999999
 40
0.8999999999999999
 40
1.0
 40
1.0
 40
1.0
 40
1.0
 10
0.4440393700787402
 20
0.9261968503937008
 30
0.0
 10
0.4440393700787402
 20
0.9261968503937008
 30
0.0
 10
1.0874606299212599
 20
1.2988307086614175
 30
0.0
 10
1.0874606299212599
 20
1.2988307086614175
 30
0.0
 10
1.0874606299212599
 20
1.2988307086614175
 30
0.0
 10
1.0874606299212599
 20
1.2988307086614175
 30
0.0
 10
1.0876181102362206
 20
1.2878346456692913
 30
0.0
 10
1.0876181102362206
 20
1.2878346456692913
 30
0.0
 10
1.0876181102362206
 20
1.2878346456692913
 30
0.0
 10
1.0876181102362206
 20
1.2878346456692913
 30
0.0
 10
1.0866574803149607
 20
1.276728346456693
 30
0.0
 10
1.0866574803149607
 20
1.276728346456693
 30
0.0
 10
1.0866574803149607
 20
1.276728346456693
 30
0.0
 10
1.0866574803149607
 20
1.276728346456693
 30
0.0
 10
1.0845157480314962
 20
1.2655236220472441
 30
0.0
 10
1.0845157480314962
 20
1.2655236220472441
 30
0.0
 10
1.0845157480314962
 20
1.2655236220472441
 30
0.0
 10
1.0845157480314962
 20
1.2655236220472441
 30
0.0
 10
1.0811456692913386
 20
1.254244094488189
 30
0.0
 10
1.0811456692913386
 20
1.254244094488189
 30
0.0
 10
1.0811456692913386
 20
1.254244094488189
 30
0.0
 10
1.0811456692913386
 20
1.254244094488189
 30
0.0
 10
0.4377244094488189
 20
0.8816102362204725
 30
0.0
 10
0.4377244094488189
 20
0.8816102362204725
 30
0.0
 10
0.4377244094488189
 20
0.8816102362204725
 30
0.0
 10
0.4377244094488189
 20
0.8816102362204725
 30
0.0
 10
0.4410944881889764
 20
0.8928897637795276
 30
0.0
 10
0.4410944881889764
 20
0.8928897637795276
 30
0.0
 10
0.4410944881889764
 20
0.8928897637795276
 30
0.0
 10
0.4410944881889764
 20
0.8928897637795276
 30
0.0
 10
0.443236220472441
 20
0.9040944881889764
 30
0.0
 10
0.443236220472441
 20
0.9040944881889764
 30
0.0
 10
0.443236220472441
 20
0.9040944881889764
 30
0.0
 10
0.443236220472441
 20
0.9040944881889764
 30
0.0
 10
0.4441968503937008
 20
0.9152007874015748
 30
0.0
 10
0.4441968503937008
 20
0.9152007874015748
 30
0.0
 10
0.4441968503937008
 20
0.9152007874015748
 30
0.0
 10
0.4441968503937008
 20
0.9152007874015748
 30
0.0
 10
0.4440393700787402
 20
0.9261968503937008
 30
0.0
 10
0.4440393700787402
 20
0.9261968503937008
 30
0.0
  0
SPLINE
  5
59
100
AcDbEntity
  8
Layer 1
 62
     9
100
AcDbSpline
210
0.0
220
0.0
230
1.0
 70
     1
 71
     3
 72
    36
 73
    32
 74
     0
 42
0.0000000001
 43
0.0000000001
 40
0.0
 40
0.0
 40
0.0
 40
0.0
 40
0.125
 40
0.125
 40
0.125
 40
0.125
 40
0.25
 40
0.25
 40
0.25
 40
0.25
 40
0.375
 40
0.375
 40
0.375
 40
0.375
 40
0.5
 40
0.5
 40
0.5
 40
0.5
 40
0.625
 40
0.625
 40
0.625
 40
0.625
 40
0.75
 40
0.75
 40
0.75
 40
0.75
 40
0.875
 40
0.875
 40
0.875
 40
0.875
 40
1.0
 40
1.0
 40
1.0
 40
1.0
 10
0.4377244094488189
 20
0.8816102362204725
 30
0.0
 10
0.4377244094488189
 20
0.8816102362204725
 30
0.0
 10
1.0811456692913386
 20
1.254244094488189
 30
0.0
 10
1.0811456692913386
 20
1.254244094488189
 30
0.0
 10
1.0811456692913386
 20
1.254244094488189
 30
0.0
 10
1.0811456692913386
 20
1.254244094488189
 30
0.0
 10
1.076472440944882
 20
1.2428858267716536
 30
0.0
 10
1.076472440944882
 20
1.2428858267716536
 30
0.0
 10
1.076472440944882
 20
1.2428858267716536
 30
0.0
 10
1.076472440944882
 20
1.2428858267716536
 30
0.0
 10
1.0704527559055119
 20
1.231488188976378
 30
0.0
 10
1.0704527559055119
 20
1.231488188976378
 30
0.0
 10
1.0704527559055119
 20
1.231488188976378
 30
0.0
 10
1.0704527559055119
 20
1.231488188976378
 30
0.0
 10
1.0630275590551181
 20
1.2200511811023622
 30
0.0
 10
1.0630275590551181
 20
1.2200511811023622
 30
0.0
 10
1.0630275590551181
 20
1.2200511811023622
 30
0.0
 10
1.0630275590551181
 20
1.2200511811023622
 30
0.0
 10
0.4196062992125985
 20
0.8474173228346457
 30
0.0
 10
0.4196062992125985
 20
0.8474173228346457
 30
0.0
 10
0.4196062992125985
 20
0.8474173228346457
 30
0.0
 10
0.4196062992125985
 20
0.8474173228346457
 30
0.0
 10
0.4270314960629921
 20
0.8588543307086615
 30
0.0
 10
0.4270314960629921
 20
0.8588543307086615
 30
0.0
 10
0.4270314960629921
 20
0.8588543307086615
 30
0.0
 10
0.4270314960629921
 20
0.8588543307086615
 30
0.0
 10
0.4330511811023622
 20
0.8702519685039371
 30
0.0
 10
0.4330511811023622
 20
0.8702519685039371
 30
0.0
 10
0.4330511811023622
 20
0.8702519685039371
 30
0.0
 10
0.4330511811023622
 20
0.8702519685039371
 30
0.0
 10
0.4377244094488189
 20
0.8816102362204725
 30
0.0
 10
0.4377244094488189
 20
0.8816102362204725
 30
0.0
  0
SPLINE
  5
5A
100
AcDbEntity
  8
Layer 1
 62
     9
100
AcDbSpline
210
0.0
220
0.0
230
1.0
 70
     1
 71
     3
 72
    36
 73
    32
 74
     0
 42
0.0000000001
 43
0.0000000001
 40
0.0
 40
0.0
 40
0.0
 40
0.0
 40
0.125
 40
0.125
 40
0.125
 40
0.125
 40
0.25
 40
0.25
 40
0.25
 40
0.25
 40
0.375
 40
0.375
 40
0.375
 40
0.375
 40
0.5
 40
0.5
 40
0.5
 40
0.5
 40
0.625
 40
0.625
 40
0.625
 40
0.625
 40
0.75
 40
0.75
 40
0.75
 40
0.75
 40
0.875
 40
0.875
 40
0.875
 40
0.875
 40
1.0
 40
1.0
 40
1.0
 40
1.0
 10
0.4196062992125985
 20
0.8474173228346457
 30
0.0
 10
0.4196062992125985
 20
0.8474173228346457
 30
0.0
 10
1.0630275590551181
 20
1.2200511811023622
 30
0.0
 10
1.0630275590551181
 20
1.2200511811023622
 30
0.0
 10
1.0630275590551181
 20
1.2200511811023622
 30
0.0
 10
1.0630275590551181
 20
1.2200511811023622
 30
0.0
 10
1.0541377952755906
 20
1.2086023622047244
 30
0.0
 10
1.0541377952755906
 20
1.2086023622047244
 30
0.0
 10
1.0541377952755906
 20
1.2086023622047244
 30
0.0
 10
1.0541377952755906
 20
1.2086023622047244
 30
0.0
 10
1.043720472440945
 20
1.1971456692913387
 30
0.0
 10
1.043720472440945
 20
1.1971456692913387
 30
0.0
 10
1.043720472440945
 20
1.1971456692913387
 30
0.0
 10
1.043720472440945
 20
1.1971456692913387
 30
0.0
 10
1.031732283464567
 20
1.1857086614173229
 30
0.0
 10
1.031732283464567
 20
1.1857086614173229
 30
0.0
 10
1.031732283464567
 20
1.1857086614173229
 30
0.0
 10
1.031732283464567
 20
1.1857086614173229
 30
0.0
 10
0.3883110236220473
 20
0.8130748031496063
 30
0.0
 10
0.3883110236220473
 20
0.8130748031496063
 30
0.0
 10
0.3883110236220473
 20
0.8130748031496063
 30
0.0
 10
0.3883110236220473
 20
0.8130748031496063
 30
0.0
 10
0.4002992125984252
 20
0.824511811023622
 30
0.0
 10
0.4002992125984252
 20
0.824511811023622
 30
0.0
 10
0.4002992125984252
 20
0.824511811023622
 30
0.0
 10
0.4002992125984252
 20
0.824511811023622
 30
0.0
 10
0.4107165354330709
 20
0.835968503937008
 30
0.0
 10
0.4107165354330709
 20
0.835968503937008
 30
0.0
 10
0.4107165354330709
 20
0.835968503937008
 30
0.0
 10
0.4107165354330709
 20
0.835968503937008
 30
0.0
 10
0.4196062992125985
 20
0.8474173228346457
 30
0.0
 10
0.4196062992125985
 20
0.8474173228346457
 30
0.0
  0
SPLINE
  5
5B
100
AcDbEntity
  8
Layer 1
 62
   253
100
AcDbSpline
210
0.0
220
0.0
230
1.0
 70
     1
 71
     3
 72
    28
 73
    24
 74
     0
 42
0.0000000001
 43
0.0000000001
 40
0.0
 40
0.0
 40
0.0
 40
0.0
 40
0.1666666666666667
 40
0.1666666666666667
 40
0.1666666666666667
 40
0.1666666666666667
 40
0.3333333333333333
 40
0.3333333333333333
 40
0.3333333333333333
 40
0.3333333333333333
 40
0.5
 40
0.5
 40
0.5
 40
0.5
 40
0.6666666666666666
 40
0.6666666666666666
 40
0.6666666666666666
 40
0.6666666666666666
 40
0.8333333333333333
 40
0.8333333333333333
 40
0.8333333333333333
 40
0.8333333333333333
 40
1.0
 40
1.0
 40
1.0
 40
1.0
 10
0.3883110236220473
 20
0.8130748031496063
 30
0.0
 10
0.3883110236220473
 20
0.8130748031496063
 30
0.0
 10
1.031732283464567
 20
1.1857086614173229
 30
0.0
 10
1.031732283464567
 20
1.1857086614173229
 30
0.0
 10
1.031732283464567
 20
1.1857086614173229
 30
0.0
 10
1.031732283464567
 20
1.1857086614173229
 30
0.0
 10
1.0181023622047245
 20
1.1743031496062992
 30
0.0
 10
1.0181023622047245
 20
1.1743031496062992
 30
0.0
 10
1.0181023622047245
 20
1.1743031496062992
 30
0.0
 10
1.0181023622047245
 20
1.1743031496062992
 30
0.0
 10
1.0027874015748033
 20
1.1629488188976378
 30
0.0
 10
1.0027874015748033
 20
1.1629488188976378
 30
0.0
 10
1.0027874015748033
 20
1.1629488188976378
 30
0.0
 10
1.0027874015748033
 20
1.1629488188976378
 30
0.0
 10
0.3593661417322835
 20
0.7903149606299212
 30
0.0
 10
0.3593661417322835
 20
0.7903149606299212
 30
0.0
 10
0.3593661417322835
 20
0.7903149606299212
 30
0.0
 10
0.3593661417322835
 20
0.7903149606299212
 30
0.0
 10
0.3746811023622048
 20
0.8016692913385827
 30
0.0
 10
0.3746811023622048
 20
0.8016692913385827
 30
0.0
 10
0.3746811023622048
 20
0.8016692913385827
 30
0.0
 10
0.3746811023622048
 20
0.8016692913385827
 30
0.0
 10
0.3883110236220473
 20
0.8130748031496063
 30
0.0
 10
0.3883110236220473
 20
0.8130748031496063
 30
0.0
  0
SPLINE
  5
5C
100
AcDbEntity
  8
Layer 1
370
     5
100
AcDbSpline
210
0.0
220
0.0
230
1.0
 70
     1
 71
     3
 72
   524
 73
   520
 74
     0
 42
0.0000000001
 43
0.0000000001
 40
0.0
 40
0.0
 40
0.0
 40
0.0
 40
0.0076923076923077
 40
0.0076923076923077
 40
0.0076923076923077
 40
0.0076923076923077
 40
0.0153846153846154
 40
0.0153846153846154
 40
0.0153846153846154
 40
0.0153846153846154
 40
0.0230769230769231
 40
0.0230769230769231
 40
0.0230769230769231
 40
0.0230769230769231
 40
0.0307692307692308
 40
0.0307692307692308
 40
0.0307692307692308
 40
0.0307692307692308
 40
0.0384615384615385
 40
0.0384615384615385
 40
0.0384615384615385
 40
0.0384615384615385
 40
0.0461538461538462
 40
0.0461538461538462
 40
0.0461538461538462
 40
0.0461538461538462
 40
0.0538461538461538
 40
0.0538461538461538
 40
0.0538461538461538
 40
0.0538461538461538
 40
0.0615384615384615
 40
0.0615384615384615
 40
0.0615384615384615
 40
0.0615384615384615
 40
0.0692307692307692
 40
0.0692307692307692
 40
0.0692307692307692
 40
0.0692307692307692
 40
0.0769230769230769
 40
0.0769230769230769
 40
0.0769230769230769
 40
0.0769230769230769
 40
0.0846153846153846
 40
0.0846153846153846
 40
0.0846153846153846
 40
0.0846153846153846
 40
0.0923076923076923
 40
0.0923076923076923
 40
0.0923076923076923
 40
0.0923076923076923
 40
0.1
 40
0.1
 40
0.1
 40
0.1
 40
0.1076923076923077
 40
0.1076923076923077
 40
0.1076923076923077
 40
0.1076923076923077
 40
0.1153846153846154
 40
0.1153846153846154
 40
0.1153846153846154
 40
0.1153846153846154
 40
0.1230769230769231
 40
0.1230769230769231
 40
0.1230769230769231
 40
0.1230769230769231
 40
0.1307692307692308
 40
0.1307692307692308
 40
0.1307692307692308
 40
0.1307692307692308
 40
0.1384615384615385
 40
0.1384615384615385
 40
0.1384615384615385
 40
0.1384615384615385
 40
0.1461538461538462
 40
0.1461538461538462
 40
0.1461538461538462
 40
0.1461538461538462
 40
0.1538461538461539
 40
0.1538461538461539
 40
0.1538461538461539
 40
0.1538461538461539
 40
0.1615384615384616
 40
0.1615384615384616
 40
0.1615384615384616
 40
0.1615384615384616
 40
0.1692307692307692
 40
0.1692307692307692
 40
0.1692307692307692
 40
0.1692307692307692
 40
0.1769230769230769
 40
0.1769230769230769
 40
0.1769230769230769
 40
0.1769230769230769
 40
0.1846153846153846
 40
0.1846153846153846
 40
0.1846153846153846
 40
0.1846153846153846
 40
0.1923076923076923
 40
0.1923076923076923
 40
0.1923076923076923
 40
0.1923076923076923
 40
0.2
 40
0.2
 40
0.2
 40
0.2
 40
0.2076923076923077
 40
0.2076923076923077
 40
0.2076923076923077
 40
0.2076923076923077
 40
0.2153846153846154
 40
0.2153846153846154
 40
0.2153846153846154
 40
0.2153846153846154
 40
0.2230769230769231
 40
0.2230769230769231
 40
0.2230769230769231
 40
0.2230769230769231
 40
0.2307692307692308
 40
0.2307692307692308
 40
0.2307692307692308
 40
0.2307692307692308
 40
0.2384615384615385
 40
0.2384615384615385
 40
0.2384615384615385
 40
0.2384615384615385
 40
0.2461538461538462
 40
0.2461538461538462
 40
0.2461538461538462
 40
0.2461538461538462
 40
0.2538461538461538
 40
0.2538461538461538
 40
0.2538461538461538
 40
0.2538461538461538
 40
0.2615384615384615
 40
0.2615384615384615
 40
0.2615384615384615
 40
0.2615384615384615
 40
0.2692307692307692
 40
0.2692307692307692
 40
0.2692307692307692
 40
0.2692307692307692
 40
0.2769230769230768
 40
0.2769230769230768
 40
0.2769230769230768
 40
0.2769230769230768
 40
0.2846153846153845
 40
0.2846153846153845
 40
0.2846153846153845
 40
0.2846153846153845
 40
0.2923076923076922
 40
0.2923076923076922
 40
0.2923076923076922
 40
0.2923076923076922
 40
0.2999999999999998
 40
0.2999999999999998
 40
0.2999999999999998
 40
0.2999999999999998
 40
0.3076923076923075
 40
0.3076923076923075
 40
0.3076923076923075
 40
0.3076923076923075
 40
0.3153846153846152
 40
0.3153846153846152
 40
0.3153846153846152
 40
0.3153846153846152
 40
0.3230769230769228
 40
0.3230769230769228
 40
0.3230769230769228
 40
0.3230769230769228
 40
0.3307692307692305
 40
0.3307692307692305
 40
0.3307692307692305
 40
0.3307692307692305
 40
0.3384615384615382
 40
0.3384615384615382
 40
0.3384615384615382
 40
0.3384615384615382
 40
0.3461538461538458
 40
0.3461538461538458
 40
0.3461538461538458
 40
0.3461538461538458
 40
0.3538461538461535
 40
0.3538461538461535
 40
0.3538461538461535
 40
0.3538461538461535
 40
0.3615384615384611
 40
0.3615384615384611
 40
0.3615384615384611
 40
0.3615384615384611
 40
0.3692307692307688
 40
0.3692307692307688
 40
0.3692307692307688
 40
0.3692307692307688
 40
0.3769230769230765
 40
0.3769230769230765
 40
0.3769230769230765
 40
0.3769230769230765
 40
0.3846153846153841
 40
0.3846153846153841
 40
0.3846153846153841
 40
0.3846153846153841
 40
0.3923076923076918
 40
0.3923076923076918
 40
0.3923076923076918
 40
0.3923076923076918
 40
0.3999999999999995
 40
0.3999999999999995
 40
0.3999999999999995
 40
0.3999999999999995
 40
0.4076923076923071
 40
0.4076923076923071
 40
0.4076923076923071
 40
0.4076923076923071
 40
0.4153846153846148
 40
0.4153846153846148
 40
0.4153846153846148
 40
0.4153846153846148
 40
0.4230769230769225
 40
0.4230769230769225
 40
0.4230769230769225
 40
0.4230769230769225
 40
0.4307692307692301
 40
0.4307692307692301
 40
0.4307692307692301
 40
0.4307692307692301
 40
0.4384615384615378
 40
0.4384615384615378
 40
0.4384615384615378
 40
0.4384615384615378
 40
0.4461538461538455
 40
0.4461538461538455
 40
0.4461538461538455
 40
0.4461538461538455
 40
0.4538461538461531
 40
0.4538461538461531
 40
0.4538461538461531
 40
0.4538461538461531
 40
0.4615384615384608
 40
0.4615384615384608
 40
0.4615384615384608
 40
0.4615384615384608
 40
0.4692307692307685
 40
0.4692307692307685
 40
0.4692307692307685
 40
0.4692307692307685
 40
0.4769230769230761
 40
0.4769230769230761
 40
0.4769230769230761
 40
0.4769230769230761
 40
0.4846153846153838
 40
0.4846153846153838
 40
0.4846153846153838
 40
0.4846153846153838
 40
0.4923076923076915
 40
0.4923076923076915
 40
0.4923076923076915
 40
0.4923076923076915
 40
0.4999999999999991
 40
0.4999999999999991
 40
0.4999999999999991
 40
0.4999999999999991
 40
0.5076923076923068
 40
0.5076923076923068
 40
0.5076923076923068
 40
0.5076923076923068
 40
0.5153846153846144
 40
0.5153846153846144
 40
0.5153846153846144
 40
0.5153846153846144
 40
0.5230769230769221
 40
0.5230769230769221
 40
0.5230769230769221
 40
0.5230769230769221
 40
0.5307692307692298
 40
0.5307692307692298
 40
0.5307692307692298
 40
0.5307692307692298
 40
0.5384615384615374
 40
0.5384615384615374
 40
0.5384615384615374
 40
0.5384615384615374
 40
0.5461538461538451
 40
0.5461538461538451
 40
0.5461538461538451
 40
0.5461538461538451
 40
0.5538461538461528
 40
0.5538461538461528
 40
0.5538461538461528
 40
0.5538461538461528
 40
0.5615384615384604
 40
0.5615384615384604
 40
0.5615384615384604
 40
0.5615384615384604
 40
0.5692307692307681
 40
0.5692307692307681
 40
0.5692307692307681
 40
0.5692307692307681
 40
0.5769230769230758
 40
0.5769230769230758
 40
0.5769230769230758
 40
0.5769230769230758
 40
0.5846153846153834
 40
0.5846153846153834
 40
0.5846153846153834
 40
0.5846153846153834
 40
0.5923076923076911
 40
0.5923076923076911
 40
0.5923076923076911
 40
0.5923076923076911
 40
0.5999999999999988
 40
0.5999999999999988
 40
0.5999999999999988
 40
0.5999999999999988
 40
0.6076923076923064
 40
0.6076923076923064
 40
0.6076923076923064
 40
0.6076923076923064
 40
0.6153846153846141
 40
0.6153846153846141
 40
0.6153846153846141
 40
0.6153846153846141
 40
0.6230769230769218
 40
0.6230769230769218
 40
0.6230769230769218
 40
0.6230769230769218
 40
0.6307692307692294
 40
0.6307692307692294
 40
0.6307692307692294
 40
0.6307692307692294
 40
0.6384615384615371
 40
0.6384615384615371
 40
0.6384615384615371
 40
0.6384615384615371
 40
0.6461538461538448
 40
0.6461538461538448
 40
0.6461538461538448
 40
0.6461538461538448
 40
0.6538461538461524
 40
0.6538461538461524
 40
0.6538461538461524
 40
0.6538461538461524
 40
0.6615384615384601
 40
0.6615384615384601
 40
0.6615384615384601
 40
0.6615384615384601
 40
0.6692307692307677
 40
0.6692307692307677
 40
0.6692307692307677
 40
0.6692307692307677
 40
0.6769230769230754
 40
0.6769230769230754
 40
0.6769230769230754
 40
0.6769230769230754
 40
0.6846153846153831
 40
0.6846153846153831
 40
0.6846153846153831
 40
0.6846153846153831
 40
0.6923076923076907
 40
0.6923076923076907
 40
0.6923076923076907
 40
0.6923076923076907
 40
0.6999999999999984
 40
0.6999999999999984
 40
0.6999999999999984
 40
0.6999999999999984
 40
0.7076923076923061
 40
0.7076923076923061
 40
0.7076923076923061
 40
0.7076923076923061
 40
0.7153846153846137
 40
0.7153846153846137
 40
0.7153846153846137
 40
0.7153846153846137
 40
0.7230769230769214
 40
0.7230769230769214
 40
0.7230769230769214
 40
0.7230769230769214
 40
0.7307692307692291
 40
0.7307692307692291
 40
0.7307692307692291
 40
0.7307692307692291
 40
0.7384615384615367
 40
0.7384615384615367
 40
0.7384615384615367
 40
0.7384615384615367
 40
0.7461538461538444
 40
0.7461538461538444
 40
0.7461538461538444
 40
0.7461538461538444
 40
0.7538461538461521
 40
0.7538461538461521
 40
0.7538461538461521
 40
0.7538461538461521
 40
0.7615384615384597
 40
0.7615384615384597
 40
0.7615384615384597
 40
0.7615384615384597
 40
0.7692307692307674
 40
0.7692307692307674
 40
0.7692307692307674
 40
0.7692307692307674
 40
0.7769230769230751
 40
0.7769230769230751
 40
0.7769230769230751
 40
0.7769230769230751
 40
0.7846153846153827
 40
0.7846153846153827
 40
0.7846153846153827
 40
0.7846153846153827
 40
0.7923076923076904
 40
0.7923076923076904
 40
0.7923076923076904
 40
0.7923076923076904
 40
0.7999999999999981
 40
0.7999999999999981
 40
0.7999999999999981
 40
0.7999999999999981
 40
0.8076923076923057
 40
0.8076923076923057
 40
0.8076923076923057
 40
0.8076923076923057
 40
0.8153846153846134
 40
0.8153846153846134
 40
0.8153846153846134
 40
0.8153846153846134
 40
0.823076923076921
 40
0.823076923076921
 40
0.823076923076921
 40
0.823076923076921
 40
0.8307692307692287
 40
0.8307692307692287
 40
0.8307692307692287
 40
0.8307692307692287
 40
0.8384615384615364
 40
0.8384615384615364
 40
0.8384615384615364
 40
0.8384615384615364
 40
0.846153846153844
 40
0.846153846153844
 40
0.846153846153844
 40
0.846153846153844
 40
0.8538461538461517
 40
0.8538461538461517
 40
0.8538461538461517
 40
0.8538461538461517
 40
0.8615384615384594
 40
0.8615384615384594
 40
0.8615384615384594
 40
0.8615384615384594
 40
0.869230769230767
 40
0.869230769230767
 40
0.869230769230767
 40
0.869230769230767
 40
0.8769230769230747
 40
0.8769230769230747
 40
0.8769230769230747
 40
0.8769230769230747
 40
0.8846153846153824
 40
0.8846153846153824
 40
0.8846153846153824
 40
0.8846153846153824
 40
0.89230769230769
 40
0.89230769230769
 40
0.89230769230769
 40
0.89230769230769
 40
0.8999999999999977
 40
0.8999999999999977
 40
0.8999999999999977
 40
0.8999999999999977
 40
0.9076923076923054
 40
0.9076923076923054
 40
0.9076923076923054
 40
0.9076923076923054
 40
0.915384615384613
 40
0.915384615384613
 40
0.915384615384613
 40
0.915384615384613
 40
0.9230769230769207
 40
0.9230769230769207
 40
0.9230769230769207
 40
0.9230769230769207
 40
0.9307692307692284
 40
0.9307692307692284
 40
0.9307692307692284
 40
0.9307692307692284
 40
0.938461538461536
 40
0.938461538461536
 40
0.938461538461536
 40
0.938461538461536
 40
0.9461538461538437
 40
0.9461538461538437
 40
0.9461538461538437
 40
0.9461538461538437
 40
0.9538461538461514
 40
0.9538461538461514
 40
0.9538461538461514
 40
0.9538461538461514
 40
0.961538461538459
 40
0.961538461538459
 40
0.961538461538459
 40
0.961538461538459
 40
0.9692307692307667
 40
0.9692307692307667
 40
0.9692307692307667
 40
0.9692307692307667
 40
0.9769230769230743
 40
0.9769230769230743
 40
0.9769230769230743
 40
0.9769230769230743
 40
0.984615384615382
 40
0.984615384615382
 40
0.984615384615382
 40
0.984615384615382
 40
0.9923076923076897
 40
0.9923076923076897
 40
0.9923076923076897
 40
0.9923076923076897
 40
1.0
 40
1.0
 40
1.0
 40
1.0
 10
0.0774448818897638
 20
1.3453267716535433
 30
0.0
 10
0.0774448818897638
 20
1.3453267716535433
 30
0.0
 10
0.7208661417322835
 20
1.71796062992126
 30
0.0
 10
0.7208661417322835
 20
1.71796062992126
 30
0.0
 10
0.7208661417322835
 20
1.71796062992126
 30
0.0
 10
0.7208661417322835
 20
1.71796062992126
 30
0.0
 10
0.7234685039370079
 20
1.7073228346456693
 30
0.0
 10
0.7234685039370079
 20
1.7073228346456693
 30
0.0
 10
0.7234685039370079
 20
1.7073228346456693
 30
0.0
 10
0.7234685039370079
 20
1.7073228346456693
 30
0.0
 10
0.7263779527559056
 20
1.6969015748031497
 30
0.0
 10
0.7263779527559056
 20
1.6969015748031497
 30
0.0
 10
0.7263779527559056
 20
1.6969015748031497
 30
0.0
 10
0.7263779527559056
 20
1.6969015748031497
 30
0.0
 10
0.7295826771653544
 20
1.6866811023622048
 30
0.0
 10
0.7295826771653544
 20
1.6866811023622048
 30
0.0
 10
0.7295826771653544
 20
1.6866811023622048
 30
0.0
 10
0.7295826771653544
 20
1.6866811023622048
 30
0.0
 10
0.7330826771653544
 20
1.6766692913385828
 30
0.0
 10
0.7330826771653544
 20
1.6766692913385828
 30
0.0
 10
0.7330826771653544
 20
1.6766692913385828
 30
0.0
 10
0.7330826771653544
 20
1.6766692913385828
 30
0.0
 10
0.7368622047244094
 20
1.6668503937007875
 30
0.0
 10
0.7368622047244094
 20
1.6668503937007875
 30
0.0
 10
0.7368622047244094
 20
1.6668503937007875
 30
0.0
 10
0.7368622047244094
 20
1.6668503937007875
 30
0.0
 10
0.7409370078740157
 20
1.6572401574803151
 30
0.0
 10
0.7409370078740157
 20
1.6572401574803151
 30
0.0
 10
0.7409370078740157
 20
1.6572401574803151
 30
0.0
 10
0.7409370078740157
 20
1.6572401574803151
 30
0.0
 10
0.7452913385826772
 20
1.6478228346456694
 30
0.0
 10
0.7452913385826772
 20
1.6478228346456694
 30
0.0
 10
0.7452913385826772
 20
1.6478228346456694
 30
0.0
 10
0.7452913385826772
 20
1.6478228346456694
 30
0.0
 10
0.7499330708661418
 20
1.6386062992125985
 30
0.0
 10
0.7499330708661418
 20
1.6386062992125985
 30
0.0
 10
0.7499330708661418
 20
1.6386062992125985
 30
0.0
 10
0.7499330708661418
 20
1.6386062992125985
 30
0.0
 10
0.7548385826771654
 20
1.6295708661417323
 30
0.0
 10
0.7548385826771654
 20
1.6295708661417323
 30
0.0
 10
0.7548385826771654
 20
1.6295708661417323
 30
0.0
 10
0.7548385826771654
 20
1.6295708661417323
 30
0.0
 10
0.7600275590551181
 20
1.620732283464567
 30
0.0
 10
0.7600275590551181
 20
1.620732283464567
 30
0.0
 10
0.7600275590551181
 20
1.620732283464567
 30
0.0
 10
0.7600275590551181
 20
1.620732283464567
 30
0.0
 10
0.76548031496063
 20
1.6120787401574803
 30
0.0
 10
0.76548031496063
 20
1.6120787401574803
 30
0.0
 10
0.76548031496063
 20
1.6120787401574803
 30
0.0
 10
0.76548031496063
 20
1.6120787401574803
 30
0.0
 10
0.7712086614173229
 20
1.6036220472440945
 30
0.0
 10
0.7712086614173229
 20
1.6036220472440945
 30
0.0
 10
0.7712086614173229
 20
1.6036220472440945
 30
0.0
 10
0.7712086614173229
 20
1.6036220472440945
 30
0.0
 10
0.7771929133858269
 20
1.5953385826771653
 30
0.0
 10
0.7771929133858269
 20
1.5953385826771653
 30
0.0
 10
0.7771929133858269
 20
1.5953385826771653
 30
0.0
 10
0.7771929133858269
 20
1.5953385826771653
 30
0.0
 10
0.7834409448818898
 20
1.5872440944881889
 30
0.0
 10
0.7834409448818898
 20
1.5872440944881889
 30
0.0
 10
0.7834409448818898
 20
1.5872440944881889
 30
0.0
 10
0.7834409448818898
 20
1.5872440944881889
 30
0.0
 10
0.7899488188976378
 20
1.5793228346456694
 30
0.0
 10
0.7899488188976378
 20
1.5793228346456694
 30
0.0
 10
0.7899488188976378
 20
1.5793228346456694
 30
0.0
 10
0.7899488188976378
 20
1.5793228346456694
 30
0.0
 10
0.7967165354330709
 20
1.5715905511811024
 30
0.0
 10
0.7967165354330709
 20
1.5715905511811024
 30
0.0
 10
0.7967165354330709
 20
1.5715905511811024
 30
0.0
 10
0.7967165354330709
 20
1.5715905511811024
 30
0.0
 10
0.803724409448819
 20
1.5640196850393702
 30
0.0
 10
0.803724409448819
 20
1.5640196850393702
 30
0.0
 10
0.803724409448819
 20
1.5640196850393702
 30
0.0
 10
0.803724409448819
 20
1.5640196850393702
 30
0.0
 10
0.810984251968504
 20
1.5566259842519685
 30
0.0
 10
0.810984251968504
 20
1.5566259842519685
 30
0.0
 10
0.810984251968504
 20
1.5566259842519685
 30
0.0
 10
0.810984251968504
 20
1.5566259842519685
 30
0.0
 10
0.818492125984252
 20
1.5494055118110237
 30
0.0
 10
0.818492125984252
 20
1.5494055118110237
 30
0.0
 10
0.818492125984252
 20
1.5494055118110237
 30
0.0
 10
0.818492125984252
 20
1.5494055118110237
 30
0.0
 10
0.826244094488189
 20
1.5423543307086616
 30
0.0
 10
0.826244094488189
 20
1.5423543307086616
 30
0.0
 10
0.826244094488189
 20
1.5423543307086616
 30
0.0
 10
0.826244094488189
 20
1.5423543307086616
 30
0.0
 10
0.834228346456693
 20
1.535464566929134
 30
0.0
 10
0.834228346456693
 20
1.535464566929134
 30
0.0
 10
0.834228346456693
 20
1.535464566929134
 30
0.0
 10
0.834228346456693
 20
1.535464566929134
 30
0.0
 10
0.8424606299212599
 20
1.5287440944881889
 30
0.0
 10
0.8424606299212599
 20
1.5287440944881889
 30
0.0
 10
0.8424606299212599
 20
1.5287440944881889
 30
0.0
 10
0.8424606299212599
 20
1.5287440944881889
 30
0.0
 10
0.8509173228346457
 20
1.5221850393700789
 30
0.0
 10
0.8509173228346457
 20
1.5221850393700789
 30
0.0
 10
0.8509173228346457
 20
1.5221850393700789
 30
0.0
 10
0.8509173228346457
 20
1.5221850393700789
 30
0.0
 10
0.8596141732283464
 20
1.5157913385826771
 30
0.0
 10
0.8596141732283464
 20
1.5157913385826771
 30
0.0
 10
0.8596141732283464
 20
1.5157913385826771
 30
0.0
 10
0.8596141732283464
 20
1.5157913385826771
 30
0.0
 10
0.8685275590551181
 20
1.5095472440944881
 30
0.0
 10
0.8685275590551181
 20
1.5095472440944881
 30
0.0
 10
0.8685275590551181
 20
1.5095472440944881
 30
0.0
 10
0.8685275590551181
 20
1.5095472440944881
 30
0.0
 10
0.8776692913385827
 20
1.503464566929134
 30
0.0
 10
0.8776692913385827
 20
1.503464566929134
 30
0.0
 10
0.8776692913385827
 20
1.503464566929134
 30
0.0
 10
0.8776692913385827
 20
1.503464566929134
 30
0.0
 10
0.8870314960629921
 20
1.4975314960629922
 30
0.0
 10
0.8870314960629921
 20
1.4975314960629922
 30
0.0
 10
0.8870314960629921
 20
1.4975314960629922
 30
0.0
 10
0.8870314960629921
 20
1.4975314960629922
 30
0.0
 10
0.8966141732283465
 20
1.491755905511811
 30
0.0
 10
0.8966141732283465
 20
1.491755905511811
 30
0.0
 10
0.8966141732283465
 20
1.491755905511811
 30
0.0
 10
0.8966141732283465
 20
1.491755905511811
 30
0.0
 10
0.9064055118110237
 20
1.4861220472440946
 30
0.0
 10
0.9064055118110237
 20
1.4861220472440946
 30
0.0
 10
0.9064055118110237
 20
1.4861220472440946
 30
0.0
 10
0.9064055118110237
 20
1.4861220472440946
 30
0.0
 10
0.9164173228346457
 20
1.4806377952755907
 30
0.0
 10
0.9164173228346457
 20
1.4806377952755907
 30
0.0
 10
0.9164173228346457
 20
1.4806377952755907
 30
0.0
 10
0.9164173228346457
 20
1.4806377952755907
 30
0.0
 10
0.9266338582677166
 20
1.4752992125984252
 30
0.0
 10
0.9266338582677166
 20
1.4752992125984252
 30
0.0
 10
0.9266338582677166
 20
1.4752992125984252
 30
0.0
 10
0.9266338582677166
 20
1.4752992125984252
 30
0.0
 10
0.9370590551181103
 20
1.4701062992125984
 30
0.0
 10
0.9370590551181103
 20
1.4701062992125984
 30
0.0
 10
0.9370590551181103
 20
1.4701062992125984
 30
0.0
 10
0.9370590551181103
 20
1.4701062992125984
 30
0.0
 10
0.9476062992125984
 20
1.464748031496063
 30
0.0
 10
0.9476062992125984
 20
1.464748031496063
 30
0.0
 10
0.9476062992125984
 20
1.464748031496063
 30
0.0
 10
0.9476062992125984
 20
1.464748031496063
 30
0.0
 10
0.9581850393700788
 20
1.458964566929134
 30
0.0
 10
0.9581850393700788
 20
1.458964566929134
 30
0.0
 10
0.9581850393700788
 20
1.458964566929134
 30
0.0
 10
0.9581850393700788
 20
1.458964566929134
 30
0.0
 10
0.9687283464566929
 20
1.452759842519685
 30
0.0
 10
0.9687283464566929
 20
1.452759842519685
 30
0.0
 10
0.9687283464566929
 20
1.452759842519685
 30
0.0
 10
0.9687283464566929
 20
1.452759842519685
 30
0.0
 10
0.9791889763779528
 20
1.4461574803149606
 30
0.0
 10
0.9791889763779528
 20
1.4461574803149606
 30
0.0
 10
0.9791889763779528
 20
1.4461574803149606
 30
0.0
 10
0.9791889763779528
 20
1.4461574803149606
 30
0.0
 10
0.989492125984252
 20
1.4391614173228346
 30
0.0
 10
0.989492125984252
 20
1.4391614173228346
 30
0.0
 10
0.989492125984252
 20
1.4391614173228346
 30
0.0
 10
0.989492125984252
 20
1.4391614173228346
 30
0.0
 10
0.9995944881889765
 20
1.4318031496062993
 30
0.0
 10
0.9995944881889765
 20
1.4318031496062993
 30
0.0
 10
0.9995944881889765
 20
1.4318031496062993
 30
0.0
 10
0.9995944881889765
 20
1.4318031496062993
 30
0.0
 10
1.0094370078740158
 20
1.4240826771653543
 30
0.0
 10
1.0094370078740158
 20
1.4240826771653543
 30
0.0
 10
1.0094370078740158
 20
1.4240826771653543
 30
0.0
 10
1.0094370078740158
 20
1.4240826771653543
 30
0.0
 10
1.0189606299212599
 20
1.4160354330708662
 30
0.0
 10
1.0189606299212599
 20
1.4160354330708662
 30
0.0
 10
1.0189606299212599
 20
1.4160354330708662
 30
0.0
 10
1.0189606299212599
 20
1.4160354330708662
 30
0.0
 10
1.0281023622047245
 20
1.4076535433070867
 30
0.0
 10
1.0281023622047245
 20
1.4076535433070867
 30
0.0
 10
1.0281023622047245
 20
1.4076535433070867
 30
0.0
 10
1.0281023622047245
 20
1.4076535433070867
 30
0.0
 10
1.0368149606299213
 20
1.398972440944882
 30
0.0
 10
1.0368149606299213
 20
1.398972440944882
 30
0.0
 10
1.0368149606299213
 20
1.398972440944882
 30
0.0
 10
1.0368149606299213
 20
1.398972440944882
 30
0.0
 10
1.0450314960629921
 20
1.389996062992126
 30
0.0
 10
1.0450314960629921
 20
1.389996062992126
 30
0.0
 10
1.0450314960629921
 20
1.389996062992126
 30
0.0
 10
1.0450314960629921
 20
1.389996062992126
 30
0.0
 10
1.052704724409449
 20
1.3807519685039371
 30
0.0
 10
1.052704724409449
 20
1.3807519685039371
 30
0.0
 10
1.052704724409449
 20
1.3807519685039371
 30
0.0
 10
1.052704724409449
 20
1.3807519685039371
 30
0.0
 10
1.0597677165354331
 20
1.371244094488189
 30
0.0
 10
1.0597677165354331
 20
1.371244094488189
 30
0.0
 10
1.0597677165354331
 20
1.371244094488189
 30
0.0
 10
1.0597677165354331
 20
1.371244094488189
 30
0.0
 10
1.0661732283464567
 20
1.3615000000000002
 30
0.0
 10
1.0661732283464567
 20
1.3615000000000002
 30
0.0
 10
1.0661732283464567
 20
1.3615000000000002
 30
0.0
 10
1.0661732283464567
 20
1.3615000000000002
 30
0.0
 10
1.0718543307086614
 20
1.3515236220472442
 30
0.0
 10
1.0718543307086614
 20
1.3515236220472442
 30
0.0
 10
1.0718543307086614
 20
1.3515236220472442
 30
0.0
 10
1.0718543307086614
 20
1.3515236220472442
 30
0.0
 10
1.0767637795275591
 20
1.3413464566929134
 30
0.0
 10
1.0767637795275591
 20
1.3413464566929134
 30
0.0
 10
1.0767637795275591
 20
1.3413464566929134
 30
0.0
 10
1.0767637795275591
 20
1.3413464566929134
 30
0.0
 10
1.0808267716535434
 20
1.3309645669291339
 30
0.0
 10
1.0808267716535434
 20
1.3309645669291339
 30
0.0
 10
1.0808267716535434
 20
1.3309645669291339
 30
0.0
 10
1.0808267716535434
 20
1.3309645669291339
 30
0.0
 10
1.0840078740157482
 20
1.3204094488188978
 30
0.0
 10
1.0840078740157482
 20
1.3204094488188978
 30
0.0
 10
1.0840078740157482
 20
1.3204094488188978
 30
0.0
 10
1.0840078740157482
 20
1.3204094488188978
 30
0.0
 10
1.086232283464567
 20
1.3096889763779529
 30
0.0
 10
1.086232283464567
 20
1.3096889763779529
 30
0.0
 10
1.086232283464567
 20
1.3096889763779529
 30
0.0
 10
1.086232283464567
 20
1.3096889763779529
 30
0.0
 10
1.0874606299212599
 20
1.2988307086614175
 30
0.0
 10
1.0874606299212599
 20
1.2988307086614175
 30
0.0
 10
1.0874606299212599
 20
1.2988307086614175
 30
0.0
 10
1.0874606299212599
 20
1.2988307086614175
 30
0.0
 10
1.0876181102362206
 20
1.2878346456692913
 30
0.0
 10
1.0876181102362206
 20
1.2878346456692913
 30
0.0
 10
1.0876181102362206
 20
1.2878346456692913
 30
0.0
 10
1.0876181102362206
 20
1.2878346456692913
 30
0.0
 10
1.0866574803149607
 20
1.276728346456693
 30
0.0
 10
1.0866574803149607
 20
1.276728346456693
 30
0.0
 10
1.0866574803149607
 20
1.276728346456693
 30
0.0
 10
1.0866574803149607
 20
1.276728346456693
 30
0.0
 10
1.0845157480314962
 20
1.2655236220472441
 30
0.0
 10
1.0845157480314962
 20
1.2655236220472441
 30
0.0
 10
1.0845157480314962
 20
1.2655236220472441
 30
0.0
 10
1.0845157480314962
 20
1.2655236220472441
 30
0.0
 10
1.0811456692913386
 20
1.254244094488189
 30
0.0
 10
1.0811456692913386
 20
1.254244094488189
 30
0.0
 10
1.0811456692913386
 20
1.254244094488189
 30
0.0
 10
1.0811456692913386
 20
1.254244094488189
 30
0.0
 10
1.076472440944882
 20
1.2428858267716536
 30
0.0
 10
1.076472440944882
 20
1.2428858267716536
 30
0.0
 10
1.076472440944882
 20
1.2428858267716536
 30
0.0
 10
1.076472440944882
 20
1.2428858267716536
 30
0.0
 10
1.0704527559055119
 20
1.231488188976378
 30
0.0
 10
1.0704527559055119
 20
1.231488188976378
 30
0.0
 10
1.0704527559055119
 20
1.231488188976378
 30
0.0
 10
1.0704527559055119
 20
1.231488188976378
 30
0.0
 10
1.0630275590551181
 20
1.2200511811023622
 30
0.0
 10
1.0630275590551181
 20
1.2200511811023622
 30
0.0
 10
1.0630275590551181
 20
1.2200511811023622
 30
0.0
 10
1.0630275590551181
 20
1.2200511811023622
 30
0.0
 10
1.0541377952755906
 20
1.2086023622047244
 30
0.0
 10
1.0541377952755906
 20
1.2086023622047244
 30
0.0
 10
1.0541377952755906
 20
1.2086023622047244
 30
0.0
 10
1.0541377952755906
 20
1.2086023622047244
 30
0.0
 10
1.043720472440945
 20
1.1971456692913387
 30
0.0
 10
1.043720472440945
 20
1.1971456692913387
 30
0.0
 10
1.043720472440945
 20
1.1971456692913387
 30
0.0
 10
1.043720472440945
 20
1.1971456692913387
 30
0.0
 10
1.031732283464567
 20
1.1857086614173229
 30
0.0
 10
1.031732283464567
 20
1.1857086614173229
 30
0.0
 10
1.031732283464567
 20
1.1857086614173229
 30
0.0
 10
1.031732283464567
 20
1.1857086614173229
 30
0.0
 10
1.0181023622047245
 20
1.1743031496062992
 30
0.0
 10
1.0181023622047245
 20
1.1743031496062992
 30
0.0
 10
1.0181023622047245
 20
1.1743031496062992
 30
0.0
 10
1.0181023622047245
 20
1.1743031496062992
 30
0.0
 10
1.0027874015748033
 20
1.1629488188976378
 30
0.0
 10
1.0027874015748033
 20
1.1629488188976378
 30
0.0
 10
1.0027874015748033
 20
1.1629488188976378
 30
0.0
 10
1.0027874015748033
 20
1.1629488188976378
 30
0.0
 10
0.3593661417322835
 20
0.7903149606299212
 30
0.0
 10
0.3593661417322835
 20
0.7903149606299212
 30
0.0
 10
0.3593661417322835
 20
0.7903149606299212
 30
0.0
 10
0.3593661417322835
 20
0.7903149606299212
 30
0.0
 10
0.3746811023622048
 20
0.8016692913385827
 30
0.0
 10
0.3746811023622048
 20
0.8016692913385827
 30
0.0
 10
0.3746811023622048
 20
0.8016692913385827
 30
0.0
 10
0.3746811023622048
 20
0.8016692913385827
 30
0.0
 10
0.3883110236220473
 20
0.8130748031496063
 30
0.0
 10
0.3883110236220473
 20
0.8130748031496063
 30
0.0
 10
0.3883110236220473
 20
0.8130748031496063
 30
0.0
 10
0.3883110236220473
 20
0.8130748031496063
 30
0.0
 10
0.4002992125984252
 20
0.824511811023622
 30
0.0
 10
0.4002992125984252
 20
0.824511811023622
 30
0.0
 10
0.4002992125984252
 20
0.824511811023622
 30
0.0
 10
0.4002992125984252
 20
0.824511811023622
 30
0.0
 10
0.4107165354330709
 20
0.835968503937008
 30
0.0
 10
0.4107165354330709
 20
0.835968503937008
 30
0.0
 10
0.4107165354330709
 20
0.835968503937008
 30
0.0
 10
0.4107165354330709
 20
0.835968503937008
 30
0.0
 10
0.4196062992125985
 20
0.8474173228346457
 30
0.0
 10
0.4196062992125985
 20
0.8474173228346457
 30
0.0
 10
0.4196062992125985
 20
0.8474173228346457
 30
0.0
 10
0.4196062992125985
 20
0.8474173228346457
 30
0.0
 10
0.4270314960629921
 20
0.8588543307086615
 30
0.0
 10
0.4270314960629921
 20
0.8588543307086615
 30
0.0
 10
0.4270314960629921
 20
0.8588543307086615
 30
0.0
 10
0.4270314960629921
 20
0.8588543307086615
 30
0.0
 10
0.4330511811023622
 20
0.8702519685039371
 30
0.0
 10
0.4330511811023622
 20
0.8702519685039371
 30
0.0
 10
0.4330511811023622
 20
0.8702519685039371
 30
0.0
 10
0.4330511811023622
 20
0.8702519685039371
 30
0.0
 10
0.4377244094488189
 20
0.8816102362204725
 30
0.0
 10
0.4377244094488189
 20
0.8816102362204725
 30
0.0
 10
0.4377244094488189
 20
0.8816102362204725
 30
0.0
 10
0.4377244094488189
 20
0.8816102362204725
 30
0.0
 10
0.4410944881889764
 20
0.8928897637795276
 30
0.0
 10
0.4410944881889764
 20
0.8928897637795276
 30
0.0
 10
0.4410944881889764
 20
0.8928897637795276
 30
0.0
 10
0.4410944881889764
 20
0.8928897637795276
 30
0.0
 10
0.443236220472441
 20
0.9040944881889764
 30
0.0
 10
0.443236220472441
 20
0.9040944881889764
 30
0.0
 10
0.443236220472441
 20
0.9040944881889764
 30
0.0
 10
0.443236220472441
 20
0.9040944881889764
 30
0.0
 10
0.4441968503937008
 20
0.9152007874015748
 30
0.0
 10
0.4441968503937008
 20
0.9152007874015748
 30
0.0
 10
0.4441968503937008
 20
0.9152007874015748
 30
0.0
 10
0.4441968503937008
 20
0.9152007874015748
 30
0.0
 10
0.4440393700787402
 20
0.9261968503937008
 30
0.0
 10
0.4440393700787402
 20
0.9261968503937008
 30
0.0
 10
0.4440393700787402
 20
0.9261968503937008
 30
0.0
 10
0.4440393700787402
 20
0.9261968503937008
 30
0.0
 10
0.4428110236220473
 20
0.9370551181102362
 30
0.0
 10
0.4428110236220473
 20
0.9370551181102362
 30
0.0
 10
0.4428110236220473
 20
0.9370551181102362
 30
0.0
 10
0.4428110236220473
 20
0.9370551181102362
 30
0.0
 10
0.4405866141732284
 20
0.9477755905511811
 30
0.0
 10
0.4405866141732284
 20
0.9477755905511811
 30
0.0
 10
0.4405866141732284
 20
0.9477755905511811
 30
0.0
 10
0.4405866141732284
 20
0.9477755905511811
 30
0.0
 10
0.4374055118110237
 20
0.9583307086614173
 30
0.0
 10
0.4374055118110237
 20
0.9583307086614173
 30
0.0
 10
0.4374055118110237
 20
0.9583307086614173
 30
0.0
 10
0.4374055118110237
 20
0.9583307086614173
 30
0.0
 10
0.4333425196850394
 20
0.9687125984251969
 30
0.0
 10
0.4333425196850394
 20
0.9687125984251969
 30
0.0
 10
0.4333425196850394
 20
0.9687125984251969
 30
0.0
 10
0.4333425196850394
 20
0.9687125984251969
 30
0.0
 10
0.4284330708661417
 20
0.9788897637795276
 30
0.0
 10
0.4284330708661417
 20
0.9788897637795276
 30
0.0
 10
0.4284330708661417
 20
0.9788897637795276
 30
0.0
 10
0.4284330708661417
 20
0.9788897637795276
 30
0.0
 10
0.422751968503937
 20
0.9888661417322835
 30
0.0
 10
0.422751968503937
 20
0.9888661417322835
 30
0.0
 10
0.422751968503937
 20
0.9888661417322835
 30
0.0
 10
0.422751968503937
 20
0.9888661417322835
 30
0.0
 10
0.4163464566929134
 20
0.9986102362204725
 30
0.0
 10
0.4163464566929134
 20
0.9986102362204725
 30
0.0
 10
0.4163464566929134
 20
0.9986102362204725
 30
0.0
 10
0.4163464566929134
 20
0.9986102362204725
 30
0.0
 10
0.4092834645669292
 20
1.0081181102362204
 30
0.0
 10
0.4092834645669292
 20
1.0081181102362204
 30
0.0
 10
0.4092834645669292
 20
1.0081181102362204
 30
0.0
 10
0.4092834645669292
 20
1.0081181102362204
 30
0.0
 10
0.4016102362204725
 20
1.0173622047244095
 30
0.0
 10
0.4016102362204725
 20
1.0173622047244095
 30
0.0
 10
0.4016102362204725
 20
1.0173622047244095
 30
0.0
 10
0.4016102362204725
 20
1.0173622047244095
 30
0.0
 10
0.3933937007874016
 20
1.0263385826771654
 30
0.0
 10
0.3933937007874016
 20
1.0263385826771654
 30
0.0
 10
0.3933937007874016
 20
1.0263385826771654
 30
0.0
 10
0.3933937007874016
 20
1.0263385826771654
 30
0.0
 10
0.3846811023622048
 20
1.03501968503937
 30
0.0
 10
0.3846811023622048
 20
1.03501968503937
 30
0.0
 10
0.3846811023622048
 20
1.03501968503937
 30
0.0
 10
0.3846811023622048
 20
1.03501968503937
 30
0.0
 10
0.3755393700787402
 20
1.0434015748031495
 30
0.0
 10
0.3755393700787402
 20
1.0434015748031495
 30
0.0
 10
0.3755393700787402
 20
1.0434015748031495
 30
0.0
 10
0.3755393700787402
 20
1.0434015748031495
 30
0.0
 10
0.3660157480314961
 20
1.0514488188976379
 30
0.0
 10
0.3660157480314961
 20
1.0514488188976379
 30
0.0
 10
0.3660157480314961
 20
1.0514488188976379
 30
0.0
 10
0.3660157480314961
 20
1.0514488188976379
 30
0.0
 10
0.3561732283464567
 20
1.0591692913385826
 30
0.0
 10
0.3561732283464567
 20
1.0591692913385826
 30
0.0
 10
0.3561732283464567
 20
1.0591692913385826
 30
0.0
 10
0.3561732283464567
 20
1.0591692913385826
 30
0.0
 10
0.3460708661417323
 20
1.0665275590551182
 30
0.0
 10
0.3460708661417323
 20
1.0665275590551182
 30
0.0
 10
0.3460708661417323
 20
1.0665275590551182
 30
0.0
 10
0.3460708661417323
 20
1.0665275590551182
 30
0.0
 10
0.3357677165354331
 20
1.0735236220472442
 30
0.0
 10
0.3357677165354331
 20
1.0735236220472442
 30
0.0
 10
0.3357677165354331
 20
1.0735236220472442
 30
0.0
 10
0.3357677165354331
 20
1.0735236220472442
 30
0.0
 10
0.3253070866141732
 20
1.0801259842519686
 30
0.0
 10
0.3253070866141732
 20
1.0801259842519686
 30
0.0
 10
0.3253070866141732
 20
1.0801259842519686
 30
0.0
 10
0.3253070866141732
 20
1.0801259842519686
 30
0.0
 10
0.3147637795275591
 20
1.0863307086614173
 30
0.0
 10
0.3147637795275591
 20
1.0863307086614173
 30
0.0
 10
0.3147637795275591
 20
1.0863307086614173
 30
0.0
 10
0.3147637795275591
 20
1.0863307086614173
 30
0.0
 10
0.3041850393700787
 20
1.0921141732283466
 30
0.0
 10
0.3041850393700787
 20
1.0921141732283466
 30
0.0
 10
0.3041850393700787
 20
1.0921141732283466
 30
0.0
 10
0.3041850393700787
 20
1.0921141732283466
 30
0.0
 10
0.2936377952755906
 20
1.0974724409448819
 30
0.0
 10
0.2936377952755906
 20
1.0974724409448819
 30
0.0
 10
0.2936377952755906
 20
1.0974724409448819
 30
0.0
 10
0.2936377952755906
 20
1.0974724409448819
 30
0.0
 10
0.2832125984251969
 20
1.1026653543307088
 30
0.0
 10
0.2832125984251969
 20
1.1026653543307088
 30
0.0
 10
0.2832125984251969
 20
1.1026653543307088
 30
0.0
 10
0.2832125984251969
 20
1.1026653543307088
 30
0.0
 10
0.272996062992126
 20
1.108003937007874
 30
0.0
 10
0.272996062992126
 20
1.108003937007874
 30
0.0
 10
0.272996062992126
 20
1.108003937007874
 30
0.0
 10
0.272996062992126
 20
1.108003937007874
 30
0.0
 10
0.262984251968504
 20
1.1134881889763779
 30
0.0
 10
0.262984251968504
 20
1.1134881889763779
 30
0.0
 10
0.262984251968504
 20
1.1134881889763779
 30
0.0
 10
0.262984251968504
 20
1.1134881889763779
 30
0.0
 10
0.2531929133858268
 20
1.1191220472440946
 30
0.0
 10
0.2531929133858268
 20
1.1191220472440946
 30
0.0
 10
0.2531929133858268
 20
1.1191220472440946
 30
0.0
 10
0.2531929133858268
 20
1.1191220472440946
 30
0.0
 10
0.2436102362204725
 20
1.1248976377952757
 30
0.0
 10
0.2436102362204725
 20
1.1248976377952757
 30
0.0
 10
0.2436102362204725
 20
1.1248976377952757
 30
0.0
 10
0.2436102362204725
 20
1.1248976377952757
 30
0.0
 10
0.234248031496063
 20
1.1308307086614173
 30
0.0
 10
0.234248031496063
 20
1.1308307086614173
 30
0.0
 10
0.234248031496063
 20
1.1308307086614173
 30
0.0
 10
0.234248031496063
 20
1.1308307086614173
 30
0.0
 10
0.2251062992125984
 20
1.1369133858267717
 30
0.0
 10
0.2251062992125984
 20
1.1369133858267717
 30
0.0
 10
0.2251062992125984
 20
1.1369133858267717
 30
0.0
 10
0.2251062992125984
 20
1.1369133858267717
 30
0.0
 10
0.2161929133858268
 20
1.1431574803149607
 30
0.0
 10
0.2161929133858268
 20
1.1431574803149607
 30
0.0
 10
0.2161929133858268
 20
1.1431574803149607
 30
0.0
 10
0.2161929133858268
 20
1.1431574803149607
 30
0.0
 10
0.207496062992126
 20
1.1495511811023622
 30
0.0
 10
0.207496062992126
 20
1.1495511811023622
 30
0.0
 10
0.207496062992126
 20
1.1495511811023622
 30
0.0
 10
0.207496062992126
 20
1.1495511811023622
 30
0.0
 10
0.1990393700787402
 20
1.1561102362204725
 30
0.0
 10
0.1990393700787402
 20
1.1561102362204725
 30
0.0
 10
0.1990393700787402
 20
1.1561102362204725
 30
0.0
 10
0.1990393700787402
 20
1.1561102362204725
 30
0.0
 10
0.1908070866141732
 20
1.1628307086614174
 30
0.0
 10
0.1908070866141732
 20
1.1628307086614174
 30
0.0
 10
0.1908070866141732
 20
1.1628307086614174
 30
0.0
 10
0.1908070866141732
 20
1.1628307086614174
 30
0.0
 10
0.1828228346456693
 20
1.1697204724409449
 30
0.0
 10
0.1828228346456693
 20
1.1697204724409449
 30
0.0
 10
0.1828228346456693
 20
1.1697204724409449
 30
0.0
 10
0.1828228346456693
 20
1.1697204724409449
 30
0.0
 10
0.1750708661417323
 20
1.176771653543307
 30
0.0
 10
0.1750708661417323
 20
1.176771653543307
 30
0.0
 10
0.1750708661417323
 20
1.176771653543307
 30
0.0
 10
0.1750708661417323
 20
1.176771653543307
 30
0.0
 10
0.1675629921259842
 20
1.1839921259842521
 30
0.0
 10
0.1675629921259842
 20
1.1839921259842521
 30
0.0
 10
0.1675629921259842
 20
1.1839921259842521
 30
0.0
 10
0.1675629921259842
 20
1.1839921259842521
 30
0.0
 10
0.1603031496062992
 20
1.1913858267716535
 30
0.0
 10
0.1603031496062992
 20
1.1913858267716535
 30
0.0
 10
0.1603031496062992
 20
1.1913858267716535
 30
0.0
 10
0.1603031496062992
 20
1.1913858267716535
 30
0.0
 10
0.1532952755905512
 20
1.1989566929133859
 30
0.0
 10
0.1532952755905512
 20
1.1989566929133859
 30
0.0
 10
0.1532952755905512
 20
1.1989566929133859
 30
0.0
 10
0.1532952755905512
 20
1.1989566929133859
 30
0.0
 10
0.1465275590551181
 20
1.2066889763779527
 30
0.0
 10
0.1465275590551181
 20
1.2066889763779527
 30
0.0
 10
0.1465275590551181
 20
1.2066889763779527
 30
0.0
 10
0.1465275590551181
 20
1.2066889763779527
 30
0.0
 10
0.1400196850393701
 20
1.2146102362204725
 30
0.0
 10
0.1400196850393701
 20
1.2146102362204725
 30
0.0
 10
0.1400196850393701
 20
1.2146102362204725
 30
0.0
 10
0.1400196850393701
 20
1.2146102362204725
 30
0.0
 10
0.1337716535433071
 20
1.2227047244094489
 30
0.0
 10
0.1337716535433071
 20
1.2227047244094489
 30
0.0
 10
0.1337716535433071
 20
1.2227047244094489
 30
0.0
 10
0.1337716535433071
 20
1.2227047244094489
 30
0.0
 10
0.1277874015748031
 20
1.2309881889763781
 30
0.0
 10
0.1277874015748031
 20
1.2309881889763781
 30
0.0
 10
0.1277874015748031
 20
1.2309881889763781
 30
0.0
 10
0.1277874015748031
 20
1.2309881889763781
 30
0.0
 10
0.1220590551181102
 20
1.2394448818897639
 30
0.0
 10
0.1220590551181102
 20
1.2394448818897639
 30
0.0
 10
0.1220590551181102
 20
1.2394448818897639
 30
0.0
 10
0.1220590551181102
 20
1.2394448818897639
 30
0.0
 10
0.1166062992125984
 20
1.2480984251968505
 30
0.0
 10
0.1166062992125984
 20
1.2480984251968505
 30
0.0
 10
0.1166062992125984
 20
1.2480984251968505
 30
0.0
 10
0.1166062992125984
 20
1.2480984251968505
 30
0.0
 10
0.1114173228346457
 20
1.2569370078740159
 30
0.0
 10
0.1114173228346457
 20
1.2569370078740159
 30
0.0
 10
0.1114173228346457
 20
1.2569370078740159
 30
0.0
 10
0.1114173228346457
 20
1.2569370078740159
 30
0.0
 10
0.1065118110236221
 20
1.265972440944882
 30
0.0
 10
0.1065118110236221
 20
1.265972440944882
 30
0.0
 10
0.1065118110236221
 20
1.265972440944882
 30
0.0
 10
0.1065118110236221
 20
1.265972440944882
 30
0.0
 10
0.1018700787401575
 20
1.2751889763779527
 30
0.0
 10
0.1018700787401575
 20
1.2751889763779527
 30
0.0
 10
0.1018700787401575
 20
1.2751889763779527
 30
0.0
 10
0.1018700787401575
 20
1.2751889763779527
 30
0.0
 10
0.0975157480314961
 20
1.2846062992125984
 30
0.0
 10
0.0975157480314961
 20
1.2846062992125984
 30
0.0
 10
0.0975157480314961
 20
1.2846062992125984
 30
0.0
 10
0.0975157480314961
 20
1.2846062992125984
 30
0.0
 10
0.0934409448818898
 20
1.294216535433071
 30
0.0
 10
0.0934409448818898
 20
1.294216535433071
 30
0.0
 10
0.0934409448818898
 20
1.294216535433071
 30
0.0
 10
0.0934409448818898
 20
1.294216535433071
 30
0.0
 10
0.0896614173228347
 20
1.3040354330708661
 30
0.0
 10
0.0896614173228347
 20
1.3040354330708661
 30
0.0
 10
0.0896614173228347
 20
1.3040354330708661
 30
0.0
 10
0.0896614173228347
 20
1.3040354330708661
 30
0.0
 10
0.0861614173228347
 20
1.3140472440944881
 30
0.0
 10
0.0861614173228347
 20
1.3140472440944881
 30
0.0
 10
0.0861614173228347
 20
1.3140472440944881
 30
0.0
 10
0.0861614173228347
 20
1.3140472440944881
 30
0.0
 10
0.0829566929133858
 20
1.3242677165354331
 30
0.0
 10
0.0829566929133858
 20
1.3242677165354331
 30
0.0
 10
0.0829566929133858
 20
1.3242677165354331
 30
0.0
 10
0.0829566929133858
 20
1.3242677165354331
 30
0.0
 10
0.0800472440944882
 20
1.3346889763779528
 30
0.0
 10
0.0800472440944882
 20
1.3346889763779528
 30
0.0
 10
0.0800472440944882
 20
1.3346889763779528
 30
0.0
 10
0.0800472440944882
 20
1.3346889763779528
 30
0.0
 10
0.0774448818897638
 20
1.3453267716535433
 30
0.0
 10
0.0774448818897638
 20
1.3453267716535433
 30
0.0
  0
SPLINE
  5
5D
100
AcDbEntity
  8
Layer 1
 62
     9
100
AcDbSpline
210
0.0
220
0.0
230
1.0
 70
     1
 71
     3
 72
    20
 73
    16
 74
     0
 42
0.0000000001
 43
0.0000000001
 40
0.0
 40
0.0
 40
0.0
 40
0.0
 40
0.25
 40
0.25
 40
0.25
 40
0.25
 40
0.5
 40
0.5
 40
0.5
 40
0.5
 40
0.75
 40
0.75
 40
0.75
 40
0.75
 40
1.0
 40
1.0
 40
1.0
 40
1.0
 10
0.0774448818897638
 20
1.6306771653543308
 30
0.0
 10
0.0774448818897638
 20
1.6306771653543308
 30
0.0
 10
0.7208661417322835
 20
2.0033110236220475
 30
0.0
 10
0.7208661417322835
 20
2.0033110236220475
 30
0.0
 10
0.7208661417322835
 20
2.0033110236220475
 30
0.0
 10
0.7208661417322835
 20
2.0033110236220475
 30
0.0
 10
0.7208661417322835
 20
1.90546062992126
 30
0.0
 10
0.7208661417322835
 20
1.90546062992126
 30
0.0
 10
0.7208661417322835
 20
1.90546062992126
 30
0.0
 10
0.7208661417322835
 20
1.90546062992126
 30
0.0
 10
0.0774448818897638
 20
1.5328267716535433
 30
0.0
 10
0.0774448818897638
 20
1.5328267716535433
 30
0.0
 10
0.0774448818897638
 20
1.5328267716535433
 30
0.0
 10
0.0774448818897638
 20
1.5328267716535433
 30
0.0
 10
0.0774448818897638
 20
1.6306771653543308
 30
0.0
 10
0.0774448818897638
 20
1.6306771653543308
 30
0.0
  0
SPLINE
  5
5E
100
AcDbEntity
  8
Layer 1
 62
   253
100
AcDbSpline
210
0.0
220
0.0
230
1.0
 70
     1
 71
     3
 72
    44
 73
    40
 74
     0
 42
0.0000000001
 43
0.0000000001
 40
0.0
 40
0.0
 40
0.0
 40
0.0
 40
0.1
 40
0.1
 40
0.1
 40
0.1
 40
0.2
 40
0.2
 40
0.2
 40
0.2
 40
0.3
 40
0.3
 40
0.3
 40
0.3
 40
0.4
 40
0.4
 40
0.4
 40
0.4
 40
0.5
 40
0.5
 40
0.5
 40
0.5
 40
0.6
 40
0.6
 40
0.6
 40
0.6
 40
0.7
 40
0.7
 40
0.7
 40
0.7
 40
0.7999999999999999
 40
0.7999999999999999
 40
0.7999999999999999
 40
0.7999999999999999
 40
0.8999999999999999
 40
0.8999999999999999
 40
0.8999999999999999
 40
0.8999999999999999
 40
1.0
 40
1.0
 40
1.0
 40
1.0
 10
0.0774448818897638
 20
1.5328267716535433
 30
0.0
 10
0.0774448818897638
 20
1.5328267716535433
 30
0.0
 10
0.7208661417322835
 20
1.90546062992126
 30
0.0
 10
0.7208661417322835
 20
1.90546062992126
 30
0.0
 10
0.7208661417322835
 20
1.90546062992126
 30
0.0
 10
0.7208661417322835
 20
1.90546062992126
 30
0.0
 10
0.732251968503937
 20
1.9049173228346457
 30
0.0
 10
0.732251968503937
 20
1.9049173228346457
 30
0.0
 10
0.732251968503937
 20
1.9049173228346457
 30
0.0
 10
0.732251968503937
 20
1.9049173228346457
 30
0.0
 10
0.74298031496063
 20
1.9033464566929135
 30
0.0
 10
0.74298031496063
 20
1.9033464566929135
 30
0.0
 10
0.74298031496063
 20
1.9033464566929135
 30
0.0
 10
0.74298031496063
 20
1.9033464566929135
 30
0.0
 10
0.7530354330708662
 20
1.9008070866141733
 30
0.0
 10
0.7530354330708662
 20
1.9008070866141733
 30
0.0
 10
0.7530354330708662
 20
1.9008070866141733
 30
0.0
 10
0.7530354330708662
 20
1.9008070866141733
 30
0.0
 10
0.7624212598425197
 20
1.8973818897637795
 30
0.0
 10
0.7624212598425197
 20
1.8973818897637795
 30
0.0
 10
0.7624212598425197
 20
1.8973818897637795
 30
0.0
 10
0.7624212598425197
 20
1.8973818897637795
 30
0.0
 10
0.119
 20
1.5247480314960631
 30
0.0
 10
0.119
 20
1.5247480314960631
 30
0.0
 10
0.119
 20
1.5247480314960631
 30
0.0
 10
0.119
 20
1.5247480314960631
 30
0.0
 10
0.1096141732283465
 20
1.5281732283464569
 30
0.0
 10
0.1096141732283465
 20
1.5281732283464569
 30
0.0
 10
0.1096141732283465
 20
1.5281732283464569
 30
0.0
 10
0.1096141732283465
 20
1.5281732283464569
 30
0.0
 10
0.0995590551181102
 20
1.5307125984251968
 30
0.0
 10
0.0995590551181102
 20
1.5307125984251968
 30
0.0
 10
0.0995590551181102
 20
1.5307125984251968
 30
0.0
 10
0.0995590551181102
 20
1.5307125984251968
 30
0.0
 10
0.0888307086614173
 20
1.5322834645669292
 30
0.0
 10
0.0888307086614173
 20
1.5322834645669292
 30
0.0
 10
0.0888307086614173
 20
1.5322834645669292
 30
0.0
 10
0.0888307086614173
 20
1.5322834645669292
 30
0.0
 10
0.0774448818897638
 20
1.5328267716535433
 30
0.0
 10
0.0774448818897638
 20
1.5328267716535433
 30
0.0
  0
SPLINE
  5
5F
100
AcDbEntity
  8
Layer 1
 62
     9
100
AcDbSpline
210
0.0
220
0.0
230
1.0
 70
     1
 71
     3
 72
    52
 73
    48
 74
     0
 42
0.0000000001
 43
0.0000000001
 40
0.0
 40
0.0
 40
0.0
 40
0.0
 40
0.0833333333333333
 40
0.0833333333333333
 40
0.0833333333333333
 40
0.0833333333333333
 40
0.1666666666666667
 40
0.1666666666666667
 40
0.1666666666666667
 40
0.1666666666666667
 40
0.25
 40
0.25
 40
0.25
 40
0.25
 40
0.3333333333333333
 40
0.3333333333333333
 40
0.3333333333333333
 40
0.3333333333333333
 40
0.4166666666666666
 40
0.4166666666666666
 40
0.4166666666666666
 40
0.4166666666666666
 40
0.4999999999999999
 40
0.4999999999999999
 40
0.4999999999999999
 40
0.4999999999999999
 40
0.5833333333333333
 40
0.5833333333333333
 40
0.5833333333333333
 40
0.5833333333333333
 40
0.6666666666666666
 40
0.6666666666666666
 40
0.6666666666666666
 40
0.6666666666666666
 40
0.75
 40
0.75
 40
0.75
 40
0.75
 40
0.8333333333333334
 40
0.8333333333333334
 40
0.8333333333333334
 40
0.8333333333333334
 40
0.9166666666666667
 40
0.9166666666666667
 40
0.9166666666666667
 40
0.9166666666666667
 40
1.0
 40
1.0
 40
1.0
 40
1.0
 10
0.119
 20
1.5247480314960631
 30
0.0
 10
0.119
 20
1.5247480314960631
 30
0.0
 10
0.7624212598425197
 20
1.8973818897637795
 30
0.0
 10
0.7624212598425197
 20
1.8973818897637795
 30
0.0
 10
0.7624212598425197
 20
1.8973818897637795
 30
0.0
 10
0.7624212598425197
 20
1.8973818897637795
 30
0.0
 10
0.7711141732283465
 20
1.8931220472440946
 30
0.0
 10
0.7711141732283465
 20
1.8931220472440946
 30
0.0
 10
0.7711141732283465
 20
1.8931220472440946
 30
0.0
 10
0.7711141732283465
 20
1.8931220472440946
 30
0.0
 10
0.7791259842519686
 20
1.8881141732283466
 30
0.0
 10
0.7791259842519686
 20
1.8881141732283466
 30
0.0
 10
0.7791259842519686
 20
1.8881141732283466
 30
0.0
 10
0.7791259842519686
 20
1.8881141732283466
 30
0.0
 10
0.7864330708661418
 20
1.8824094488188976
 30
0.0
 10
0.7864330708661418
 20
1.8824094488188976
 30
0.0
 10
0.7864330708661418
 20
1.8824094488188976
 30
0.0
 10
0.7864330708661418
 20
1.8824094488188976
 30
0.0
 10
0.7930393700787402
 20
1.8760984251968504
 30
0.0
 10
0.7930393700787402
 20
1.8760984251968504
 30
0.0
 10
0.7930393700787402
 20
1.8760984251968504
 30
0.0
 10
0.7930393700787402
 20
1.8760984251968504
 30
0.0
 10
0.7989251968503938
 20
1.8692244094488191
 30
0.0
 10
0.7989251968503938
 20
1.8692244094488191
 30
0.0
 10
0.7989251968503938
 20
1.8692244094488191
 30
0.0
 10
0.7989251968503938
 20
1.8692244094488191
 30
0.0
 10
0.155503937007874
 20
1.4965905511811024
 30
0.0
 10
0.155503937007874
 20
1.4965905511811024
 30
0.0
 10
0.155503937007874
 20
1.4965905511811024
 30
0.0
 10
0.155503937007874
 20
1.4965905511811024
 30
0.0
 10
0.1496181102362205
 20
1.503464566929134
 30
0.0
 10
0.1496181102362205
 20
1.503464566929134
 30
0.0
 10
0.1496181102362205
 20
1.503464566929134
 30
0.0
 10
0.1496181102362205
 20
1.503464566929134
 30
0.0
 10
0.1430118110236221
 20
1.5097755905511812
 30
0.0
 10
0.1430118110236221
 20
1.5097755905511812
 30
0.0
 10
0.1430118110236221
 20
1.5097755905511812
 30
0.0
 10
0.1430118110236221
 20
1.5097755905511812
 30
0.0
 10
0.1357047244094488
 20
1.51548031496063
 30
0.0
 10
0.1357047244094488
 20
1.51548031496063
 30
0.0
 10
0.1357047244094488
 20
1.51548031496063
 30
0.0
 10
0.1357047244094488
 20
1.51548031496063
 30
0.0
 10
0.1276929133858268
 20
1.5204881889763779
 30
0.0
 10
0.1276929133858268
 20
1.5204881889763779
 30
0.0
 10
0.1276929133858268
 20
1.5204881889763779
 30
0.0
 10
0.1276929133858268
 20
1.5204881889763779
 30
0.0
 10
0.119
 20
1.5247480314960631
 30
0.0
 10
0.119
 20
1.5247480314960631
 30
0.0
  0
SPLINE
  5
60
100
AcDbEntity
  8
Layer 1
 62
     9
100
AcDbSpline
210
0.0
220
0.0
230
1.0
 70
     1
 71
     3
 72
    52
 73
    48
 74
     0
 42
0.0000000001
 43
0.0000000001
 40
0.0
 40
0.0
 40
0.0
 40
0.0
 40
0.0833333333333333
 40
0.0833333333333333
 40
0.0833333333333333
 40
0.0833333333333333
 40
0.1666666666666667
 40
0.1666666666666667
 40
0.1666666666666667
 40
0.1666666666666667
 40
0.25
 40
0.25
 40
0.25
 40
0.25
 40
0.3333333333333333
 40
0.3333333333333333
 40
0.3333333333333333
 40
0.3333333333333333
 40
0.4166666666666666
 40
0.4166666666666666
 40
0.4166666666666666
 40
0.4166666666666666
 40
0.4999999999999999
 40
0.4999999999999999
 40
0.4999999999999999
 40
0.4999999999999999
 40
0.5833333333333333
 40
0.5833333333333333
 40
0.5833333333333333
 40
0.5833333333333333
 40
0.6666666666666666
 40
0.6666666666666666
 40
0.6666666666666666
 40
0.6666666666666666
 40
0.75
 40
0.75
 40
0.75
 40
0.75
 40
0.8333333333333334
 40
0.8333333333333334
 40
0.8333333333333334
 40
0.8333333333333334
 40
0.9166666666666667
 40
0.9166666666666667
 40
0.9166666666666667
 40
0.9166666666666667
 40
1.0
 40
1.0
 40
1.0
 40
1.0
 10
0.155503937007874
 20
1.4965905511811024
 30
0.0
 10
0.155503937007874
 20
1.4965905511811024
 30
0.0
 10
0.7989251968503938
 20
1.8692244094488191
 30
0.0
 10
0.7989251968503938
 20
1.8692244094488191
 30
0.0
 10
0.7989251968503938
 20
1.8692244094488191
 30
0.0
 10
0.7989251968503938
 20
1.8692244094488191
 30
0.0
 10
0.8040984251968504
 20
1.8618779527559055
 30
0.0
 10
0.8040984251968504
 20
1.8618779527559055
 30
0.0
 10
0.8040984251968504
 20
1.8618779527559055
 30
0.0
 10
0.8040984251968504
 20
1.8618779527559055
 30
0.0
 10
0.8085393700787402
 20
1.8541141732283466
 30
0.0
 10
0.8085393700787402
 20
1.8541141732283466
 30
0.0
 10
0.8085393700787402
 20
1.8541141732283466
 30
0.0
 10
0.8085393700787402
 20
1.8541141732283466
 30
0.0
 10
0.8122480314960631
 20
1.846015748031496
 30
0.0
 10
0.8122480314960631
 20
1.846015748031496
 30
0.0
 10
0.8122480314960631
 20
1.846015748031496
 30
0.0
 10
0.8122480314960631
 20
1.846015748031496
 30
0.0
 10
0.8152086614173228
 20
1.8376338582677165
 30
0.0
 10
0.8152086614173228
 20
1.8376338582677165
 30
0.0
 10
0.8152086614173228
 20
1.8376338582677165
 30
0.0
 10
0.8152086614173228
 20
1.8376338582677165
 30
0.0
 10
0.8174251968503937
 20
1.8290511811023622
 30
0.0
 10
0.8174251968503937
 20
1.8290511811023622
 30
0.0
 10
0.8174251968503937
 20
1.8290511811023622
 30
0.0
 10
0.8174251968503937
 20
1.8290511811023622
 30
0.0
 10
0.174003937007874
 20
1.4564173228346458
 30
0.0
 10
0.174003937007874
 20
1.4564173228346458
 30
0.0
 10
0.174003937007874
 20
1.4564173228346458
 30
0.0
 10
0.174003937007874
 20
1.4564173228346458
 30
0.0
 10
0.1717874015748032
 20
1.4650000000000001
 30
0.0
 10
0.1717874015748032
 20
1.4650000000000001
 30
0.0
 10
0.1717874015748032
 20
1.4650000000000001
 30
0.0
 10
0.1717874015748032
 20
1.4650000000000001
 30
0.0
 10
0.1688267716535433
 20
1.4733818897637796
 30
0.0
 10
0.1688267716535433
 20
1.4733818897637796
 30
0.0
 10
0.1688267716535433
 20
1.4733818897637796
 30
0.0
 10
0.1688267716535433
 20
1.4733818897637796
 30
0.0
 10
0.1651181102362205
 20
1.4814803149606299
 30
0.0
 10
0.1651181102362205
 20
1.4814803149606299
 30
0.0
 10
0.1651181102362205
 20
1.4814803149606299
 30
0.0
 10
0.1651181102362205
 20
1.4814803149606299
 30
0.0
 10
0.1606771653543307
 20
1.4892440944881891
 30
0.0
 10
0.1606771653543307
 20
1.4892440944881891
 30
0.0
 10
0.1606771653543307
 20
1.4892440944881891
 30
0.0
 10
0.1606771653543307
 20
1.4892440944881891
 30
0.0
 10
0.155503937007874
 20
1.4965905511811024
 30
0.0
 10
0.155503937007874
 20
1.4965905511811024
 30
0.0
  0
SPLINE
  5
61
100
AcDbEntity
  8
Layer 1
 62
     9
100
AcDbSpline
210
0.0
220
0.0
230
1.0
 70
     1
 71
     3
 72
    52
 73
    48
 74
     0
 42
0.0000000001
 43
0.0000000001
 40
0.0
 40
0.0
 40
0.0
 40
0.0
 40
0.0833333333333333
 40
0.0833333333333333
 40
0.0833333333333333
 40
0.0833333333333333
 40
0.1666666666666667
 40
0.1666666666666667
 40
0.1666666666666667
 40
0.1666666666666667
 40
0.25
 40
0.25
 40
0.25
 40
0.25
 40
0.3333333333333333
 40
0.3333333333333333
 40
0.3333333333333333
 40
0.3333333333333333
 40
0.4166666666666666
 40
0.4166666666666666
 40
0.4166666666666666
 40
0.4166666666666666
 40
0.4999999999999999
 40
0.4999999999999999
 40
0.4999999999999999
 40
0.4999999999999999
 40
0.5833333333333333
 40
0.5833333333333333
 40
0.5833333333333333
 40
0.5833333333333333
 40
0.6666666666666666
 40
0.6666666666666666
 40
0.6666666666666666
 40
0.6666666666666666
 40
0.75
 40
0.75
 40
0.75
 40
0.75
 40
0.8333333333333334
 40
0.8333333333333334
 40
0.8333333333333334
 40
0.8333333333333334
 40
0.9166666666666667
 40
0.9166666666666667
 40
0.9166666666666667
 40
0.9166666666666667
 40
1.0
 40
1.0
 40
1.0
 40
1.0
 10
0.174003937007874
 20
1.4564173228346458
 30
0.0
 10
0.174003937007874
 20
1.4564173228346458
 30
0.0
 10
0.8174251968503937
 20
1.8290511811023622
 30
0.0
 10
0.8174251968503937
 20
1.8290511811023622
 30
0.0
 10
0.8174251968503937
 20
1.8290511811023622
 30
0.0
 10
0.8174251968503937
 20
1.8290511811023622
 30
0.0
 10
0.8188858267716536
 20
1.8203346456692915
 30
0.0
 10
0.8188858267716536
 20
1.8203346456692915
 30
0.0
 10
0.8188858267716536
 20
1.8203346456692915
 30
0.0
 10
0.8188858267716536
 20
1.8203346456692915
 30
0.0
 10
0.8195866141732284
 20
1.8115472440944882
 30
0.0
 10
0.8195866141732284
 20
1.8115472440944882
 30
0.0
 10
0.8195866141732284
 20
1.8115472440944882
 30
0.0
 10
0.8195866141732284
 20
1.8115472440944882
 30
0.0
 10
0.8195039370078741
 20
1.8027559055118112
 30
0.0
 10
0.8195039370078741
 20
1.8027559055118112
 30
0.0
 10
0.8195039370078741
 20
1.8027559055118112
 30
0.0
 10
0.8195039370078741
 20
1.8027559055118112
 30
0.0
 10
0.8186496062992127
 20
1.7940393700787403
 30
0.0
 10
0.8186496062992127
 20
1.7940393700787403
 30
0.0
 10
0.8186496062992127
 20
1.7940393700787403
 30
0.0
 10
0.8186496062992127
 20
1.7940393700787403
 30
0.0
 10
0.817007874015748
 20
1.7854566929133859
 30
0.0
 10
0.817007874015748
 20
1.7854566929133859
 30
0.0
 10
0.817007874015748
 20
1.7854566929133859
 30
0.0
 10
0.817007874015748
 20
1.7854566929133859
 30
0.0
 10
0.1735866141732284
 20
1.4128228346456693
 30
0.0
 10
0.1735866141732284
 20
1.4128228346456693
 30
0.0
 10
0.1735866141732284
 20
1.4128228346456693
 30
0.0
 10
0.1735866141732284
 20
1.4128228346456693
 30
0.0
 10
0.1752283464566929
 20
1.4214055118110236
 30
0.0
 10
0.1752283464566929
 20
1.4214055118110236
 30
0.0
 10
0.1752283464566929
 20
1.4214055118110236
 30
0.0
 10
0.1752283464566929
 20
1.4214055118110236
 30
0.0
 10
0.1760826771653543
 20
1.4301220472440945
 30
0.0
 10
0.1760826771653543
 20
1.4301220472440945
 30
0.0
 10
0.1760826771653543
 20
1.4301220472440945
 30
0.0
 10
0.1760826771653543
 20
1.4301220472440945
 30
0.0
 10
0.1761653543307087
 20
1.4389133858267718
 30
0.0
 10
0.1761653543307087
 20
1.4389133858267718
 30
0.0
 10
0.1761653543307087
 20
1.4389133858267718
 30
0.0
 10
0.1761653543307087
 20
1.4389133858267718
 30
0.0
 10
0.1754645669291339
 20
1.4477007874015748
 30
0.0
 10
0.1754645669291339
 20
1.4477007874015748
 30
0.0
 10
0.1754645669291339
 20
1.4477007874015748
 30
0.0
 10
0.1754645669291339
 20
1.4477007874015748
 30
0.0
 10
0.174003937007874
 20
1.4564173228346458
 30
0.0
 10
0.174003937007874
 20
1.4564173228346458
 30
0.0
  0
SPLINE
  5
62
100
AcDbEntity
  8
Layer 1
 62
     9
100
AcDbSpline
210
0.0
220
0.0
230
1.0
 70
     1
 71
     3
 72
    52
 73
    48
 74
     0
 42
0.0000000001
 43
0.0000000001
 40
0.0
 40
0.0
 40
0.0
 40
0.0
 40
0.0833333333333333
 40
0.0833333333333333
 40
0.0833333333333333
 40
0.0833333333333333
 40
0.1666666666666667
 40
0.1666666666666667
 40
0.1666666666666667
 40
0.1666666666666667
 40
0.25
 40
0.25
 40
0.25
 40
0.25
 40
0.3333333333333333
 40
0.3333333333333333
 40
0.3333333333333333
 40
0.3333333333333333
 40
0.4166666666666666
 40
0.4166666666666666
 40
0.4166666666666666
 40
0.4166666666666666
 40
0.4999999999999999
 40
0.4999999999999999
 40
0.4999999999999999
 40
0.4999999999999999
 40
0.5833333333333333
 40
0.5833333333333333
 40
0.5833333333333333
 40
0.5833333333333333
 40
0.6666666666666666
 40
0.6666666666666666
 40
0.6666666666666666
 40
0.6666666666666666
 40
0.75
 40
0.75
 40
0.75
 40
0.75
 40
0.8333333333333334
 40
0.8333333333333334
 40
0.8333333333333334
 40
0.8333333333333334
 40
0.9166666666666667
 40
0.9166666666666667
 40
0.9166666666666667
 40
0.9166666666666667
 40
1.0
 40
1.0
 40
1.0
 40
1.0
 10
0.1735866141732284
 20
1.4128228346456693
 30
0.0
 10
0.1735866141732284
 20
1.4128228346456693
 30
0.0
 10
0.817007874015748
 20
1.7854566929133859
 30
0.0
 10
0.817007874015748
 20
1.7854566929133859
 30
0.0
 10
0.817007874015748
 20
1.7854566929133859
 30
0.0
 10
0.817007874015748
 20
1.7854566929133859
 30
0.0
 10
0.8145748031496063
 20
1.7770905511811024
 30
0.0
 10
0.8145748031496063
 20
1.7770905511811024
 30
0.0
 10
0.8145748031496063
 20
1.7770905511811024
 30
0.0
 10
0.8145748031496063
 20
1.7770905511811024
 30
0.0
 10
0.8113385826771654
 20
1.768992125984252
 30
0.0
 10
0.8113385826771654
 20
1.768992125984252
 30
0.0
 10
0.8113385826771654
 20
1.768992125984252
 30
0.0
 10
0.8113385826771654
 20
1.768992125984252
 30
0.0
 10
0.8072992125984252
 20
1.761248031496063
 30
0.0
 10
0.8072992125984252
 20
1.761248031496063
 30
0.0
 10
0.8072992125984252
 20
1.761248031496063
 30
0.0
 10
0.8072992125984252
 20
1.761248031496063
 30
0.0
 10
0.8024409448818898
 20
1.7539173228346456
 30
0.0
 10
0.8024409448818898
 20
1.7539173228346456
 30
0.0
 10
0.8024409448818898
 20
1.7539173228346456
 30
0.0
 10
0.8024409448818898
 20
1.7539173228346456
 30
0.0
 10
0.7967677165354331
 20
1.7470708661417325
 30
0.0
 10
0.7967677165354331
 20
1.7470708661417325
 30
0.0
 10
0.7967677165354331
 20
1.7470708661417325
 30
0.0
 10
0.7967677165354331
 20
1.7470708661417325
 30
0.0
 10
0.1533464566929134
 20
1.3744370078740158
 30
0.0
 10
0.1533464566929134
 20
1.3744370078740158
 30
0.0
 10
0.1533464566929134
 20
1.3744370078740158
 30
0.0
 10
0.1533464566929134
 20
1.3744370078740158
 30
0.0
 10
0.1590196850393701
 20
1.3812834645669292
 30
0.0
 10
0.1590196850393701
 20
1.3812834645669292
 30
0.0
 10
0.1590196850393701
 20
1.3812834645669292
 30
0.0
 10
0.1590196850393701
 20
1.3812834645669292
 30
0.0
 10
0.1638779527559055
 20
1.3886141732283466
 30
0.0
 10
0.1638779527559055
 20
1.3886141732283466
 30
0.0
 10
0.1638779527559055
 20
1.3886141732283466
 30
0.0
 10
0.1638779527559055
 20
1.3886141732283466
 30
0.0
 10
0.1679173228346457
 20
1.3963582677165356
 30
0.0
 10
0.1679173228346457
 20
1.3963582677165356
 30
0.0
 10
0.1679173228346457
 20
1.3963582677165356
 30
0.0
 10
0.1679173228346457
 20
1.3963582677165356
 30
0.0
 10
0.1711535433070866
 20
1.4044566929133859
 30
0.0
 10
0.1711535433070866
 20
1.4044566929133859
 30
0.0
 10
0.1711535433070866
 20
1.4044566929133859
 30
0.0
 10
0.1711535433070866
 20
1.4044566929133859
 30
0.0
 10
0.1735866141732284
 20
1.4128228346456693
 30
0.0
 10
0.1735866141732284
 20
1.4128228346456693
 30
0.0
  0
SPLINE
  5
63
100
AcDbEntity
  8
Layer 1
 62
   253
100
AcDbSpline
210
0.0
220
0.0
230
1.0
 70
     1
 71
     3
 72
    36
 73
    32
 74
     0
 42
0.0000000001
 43
0.0000000001
 40
0.0
 40
0.0
 40
0.0
 40
0.0
 40
0.125
 40
0.125
 40
0.125
 40
0.125
 40
0.25
 40
0.25
 40
0.25
 40
0.25
 40
0.375
 40
0.375
 40
0.375
 40
0.375
 40
0.5
 40
0.5
 40
0.5
 40
0.5
 40
0.625
 40
0.625
 40
0.625
 40
0.625
 40
0.75
 40
0.75
 40
0.75
 40
0.75
 40
0.875
 40
0.875
 40
0.875
 40
0.875
 40
1.0
 40
1.0
 40
1.0
 40
1.0
 10
0.1533464566929134
 20
1.3744370078740158
 30
0.0
 10
0.1533464566929134
 20
1.3744370078740158
 30
0.0
 10
0.7967677165354331
 20
1.7470708661417325
 30
0.0
 10
0.7967677165354331
 20
1.7470708661417325
 30
0.0
 10
0.7967677165354331
 20
1.7470708661417325
 30
0.0
 10
0.7967677165354331
 20
1.7470708661417325
 30
0.0
 10
0.790255905511811
 20
1.7407716535433071
 30
0.0
 10
0.790255905511811
 20
1.7407716535433071
 30
0.0
 10
0.790255905511811
 20
1.7407716535433071
 30
0.0
 10
0.790255905511811
 20
1.7407716535433071
 30
0.0
 10
0.7829133858267717
 20
1.7350944881889765
 30
0.0
 10
0.7829133858267717
 20
1.7350944881889765
 30
0.0
 10
0.7829133858267717
 20
1.7350944881889765
 30
0.0
 10
0.7829133858267717
 20
1.7350944881889765
 30
0.0
 10
0.7747204724409449
 20
1.7301102362204726
 30
0.0
 10
0.7747204724409449
 20
1.7301102362204726
 30
0.0
 10
0.7747204724409449
 20
1.7301102362204726
 30
0.0
 10
0.7747204724409449
 20
1.7301102362204726
 30
0.0
 10
0.1312992125984252
 20
1.3574763779527559
 30
0.0
 10
0.1312992125984252
 20
1.3574763779527559
 30
0.0
 10
0.1312992125984252
 20
1.3574763779527559
 30
0.0
 10
0.1312992125984252
 20
1.3574763779527559
 30
0.0
 10
0.139492125984252
 20
1.3624606299212598
 30
0.0
 10
0.139492125984252
 20
1.3624606299212598
 30
0.0
 10
0.139492125984252
 20
1.3624606299212598
 30
0.0
 10
0.139492125984252
 20
1.3624606299212598
 30
0.0
 10
0.1468346456692913
 20
1.3681377952755907
 30
0.0
 10
0.1468346456692913
 20
1.3681377952755907
 30
0.0
 10
0.1468346456692913
 20
1.3681377952755907
 30
0.0
 10
0.1468346456692913
 20
1.3681377952755907
 30
0.0
 10
0.1533464566929134
 20
1.3744370078740158
 30
0.0
 10
0.1533464566929134
 20
1.3744370078740158
 30
0.0
  0
SPLINE
  5
64
100
AcDbEntity
  8
Layer 1
370
     5
100
AcDbSpline
210
0.0
220
0.0
230
1.0
 70
     1
 71
     3
 72
   236
 73
   232
 74
     0
 42
0.0000000001
 43
0.0000000001
 40
0.0
 40
0.0
 40
0.0
 40
0.0
 40
0.0172413793103448
 40
0.0172413793103448
 40
0.0172413793103448
 40
0.0172413793103448
 40
0.0344827586206897
 40
0.0344827586206897
 40
0.0344827586206897
 40
0.0344827586206897
 40
0.0517241379310345
 40
0.0517241379310345
 40
0.0517241379310345
 40
0.0517241379310345
 40
0.0689655172413793
 40
0.0689655172413793
 40
0.0689655172413793
 40
0.0689655172413793
 40
0.0862068965517241
 40
0.0862068965517241
 40
0.0862068965517241
 40
0.0862068965517241
 40
0.103448275862069
 40
0.103448275862069
 40
0.103448275862069
 40
0.103448275862069
 40
0.1206896551724138
 40
0.1206896551724138
 40
0.1206896551724138
 40
0.1206896551724138
 40
0.1379310344827587
 40
0.1379310344827587
 40
0.1379310344827587
 40
0.1379310344827587
 40
0.1551724137931035
 40
0.1551724137931035
 40
0.1551724137931035
 40
0.1551724137931035
 40
0.1724137931034483
 40
0.1724137931034483
 40
0.1724137931034483
 40
0.1724137931034483
 40
0.1896551724137932
 40
0.1896551724137932
 40
0.1896551724137932
 40
0.1896551724137932
 40
0.206896551724138
 40
0.206896551724138
 40
0.206896551724138
 40
0.206896551724138
 40
0.2241379310344828
 40
0.2241379310344828
 40
0.2241379310344828
 40
0.2241379310344828
 40
0.2413793103448277
 40
0.2413793103448277
 40
0.2413793103448277
 40
0.2413793103448277
 40
0.2586206896551725
 40
0.2586206896551725
 40
0.2586206896551725
 40
0.2586206896551725
 40
0.2758620689655173
 40
0.2758620689655173
 40
0.2758620689655173
 40
0.2758620689655173
 40
0.2931034482758621
 40
0.2931034482758621
 40
0.2931034482758621
 40
0.2931034482758621
 40
0.3103448275862069
 40
0.3103448275862069
 40
0.3103448275862069
 40
0.3103448275862069
 40
0.3275862068965517
 40
0.3275862068965517
 40
0.3275862068965517
 40
0.3275862068965517
 40
0.3448275862068965
 40
0.3448275862068965
 40
0.3448275862068965
 40
0.3448275862068965
 40
0.3620689655172413
 40
0.3620689655172413
 40
0.3620689655172413
 40
0.3620689655172413
 40
0.3793103448275861
 40
0.3793103448275861
 40
0.3793103448275861
 40
0.3793103448275861
 40
0.3965517241379309
 40
0.3965517241379309
 40
0.3965517241379309
 40
0.3965517241379309
 40
0.4137931034482758
 40
0.4137931034482758
 40
0.4137931034482758
 40
0.4137931034482758
 40
0.4310344827586206
 40
0.4310344827586206
 40
0.4310344827586206
 40
0.4310344827586206
 40
0.4482758620689654
 40
0.4482758620689654
 40
0.4482758620689654
 40
0.4482758620689654
 40
0.4655172413793102
 40
0.4655172413793102
 40
0.4655172413793102
 40
0.4655172413793102
 40
0.482758620689655
 40
0.482758620689655
 40
0.482758620689655
 40
0.482758620689655
 40
0.4999999999999998
 40
0.4999999999999998
 40
0.4999999999999998
 40
0.4999999999999998
 40
0.5172413793103446
 40
0.5172413793103446
 40
0.5172413793103446
 40
0.5172413793103446
 40
0.5344827586206895
 40
0.5344827586206895
 40
0.5344827586206895
 40
0.5344827586206895
 40
0.5517241379310344
 40
0.5517241379310344
 40
0.5517241379310344
 40
0.5517241379310344
 40
0.5689655172413792
 40
0.5689655172413792
 40
0.5689655172413792
 40
0.5689655172413792
 40
0.5862068965517241
 40
0.5862068965517241
 40
0.5862068965517241
 40
0.5862068965517241
 40
0.603448275862069
 40
0.603448275862069
 40
0.603448275862069
 40
0.603448275862069
 40
0.6206896551724138
 40
0.6206896551724138
 40
0.6206896551724138
 40
0.6206896551724138
 40
0.6379310344827587
 40
0.6379310344827587
 40
0.6379310344827587
 40
0.6379310344827587
 40
0.6551724137931035
 40
0.6551724137931035
 40
0.6551724137931035
 40
0.6551724137931035
 40
0.6724137931034484
 40
0.6724137931034484
 40
0.6724137931034484
 40
0.6724137931034484
 40
0.6896551724137933
 40
0.6896551724137933
 40
0.6896551724137933
 40
0.6896551724137933
 40
0.7068965517241381
 40
0.7068965517241381
 40
0.7068965517241381
 40
0.7068965517241381
 40
0.724137931034483
 40
0.724137931034483
 40
0.724137931034483
 40
0.724137931034483
 40
0.7413793103448279
 40
0.7413793103448279
 40
0.7413793103448279
 40
0.7413793103448279
 40
0.7586206896551727
 40
0.7586206896551727
 40
0.7586206896551727
 40
0.7586206896551727
 40
0.7758620689655176
 40
0.7758620689655176
 40
0.7758620689655176
 40
0.7758620689655176
 40
0.7931034482758624
 40
0.7931034482758624
 40
0.7931034482758624
 40
0.7931034482758624
 40
0.8103448275862073
 40
0.8103448275862073
 40
0.8103448275862073
 40
0.8103448275862073
 40
0.8275862068965522
 40
0.8275862068965522
 40
0.8275862068965522
 40
0.8275862068965522
 40
0.844827586206897
 40
0.844827586206897
 40
0.844827586206897
 40
0.844827586206897
 40
0.8620689655172419
 40
0.8620689655172419
 40
0.8620689655172419
 40
0.8620689655172419
 40
0.8793103448275867
 40
0.8793103448275867
 40
0.8793103448275867
 40
0.8793103448275867
 40
0.8965517241379316
 40
0.8965517241379316
 40
0.8965517241379316
 40
0.8965517241379316
 40
0.9137931034482765
 40
0.9137931034482765
 40
0.9137931034482765
 40
0.9137931034482765
 40
0.9310344827586213
 40
0.9310344827586213
 40
0.9310344827586213
 40
0.9310344827586213
 40
0.9482758620689662
 40
0.9482758620689662
 40
0.9482758620689662
 40
0.9482758620689662
 40
0.9655172413793111
 40
0.9655172413793111
 40
0.9655172413793111
 40
0.9655172413793111
 40
0.9827586206896559
 40
0.9827586206896559
 40
0.9827586206896559
 40
0.9827586206896559
 40
1.0
 40
1.0
 40
1.0
 40
1.0
 10
0.0774448818897638
 20
1.6306771653543308
 30
0.0
 10
0.0774448818897638
 20
1.6306771653543308
 30
0.0
 10
0.7208661417322835
 20
2.0033110236220475
 30
0.0
 10
0.7208661417322835
 20
2.0033110236220475
 30
0.0
 10
0.7208661417322835
 20
2.0033110236220475
 30
0.0
 10
0.7208661417322835
 20
2.0033110236220475
 30
0.0
 10
0.7208661417322835
 20
1.90546062992126
 30
0.0
 10
0.7208661417322835
 20
1.90546062992126
 30
0.0
 10
0.7208661417322835
 20
1.90546062992126
 30
0.0
 10
0.7208661417322835
 20
1.90546062992126
 30
0.0
 10
0.732251968503937
 20
1.9049173228346457
 30
0.0
 10
0.732251968503937
 20
1.9049173228346457
 30
0.0
 10
0.732251968503937
 20
1.9049173228346457
 30
0.0
 10
0.732251968503937
 20
1.9049173228346457
 30
0.0
 10
0.74298031496063
 20
1.9033464566929135
 30
0.0
 10
0.74298031496063
 20
1.9033464566929135
 30
0.0
 10
0.74298031496063
 20
1.9033464566929135
 30
0.0
 10
0.74298031496063
 20
1.9033464566929135
 30
0.0
 10
0.7530354330708662
 20
1.9008070866141733
 30
0.0
 10
0.7530354330708662
 20
1.9008070866141733
 30
0.0
 10
0.7530354330708662
 20
1.9008070866141733
 30
0.0
 10
0.7530354330708662
 20
1.9008070866141733
 30
0.0
 10
0.7624212598425197
 20
1.8973818897637795
 30
0.0
 10
0.7624212598425197
 20
1.8973818897637795
 30
0.0
 10
0.7624212598425197
 20
1.8973818897637795
 30
0.0
 10
0.7624212598425197
 20
1.8973818897637795
 30
0.0
 10
0.7711141732283465
 20
1.8931220472440946
 30
0.0
 10
0.7711141732283465
 20
1.8931220472440946
 30
0.0
 10
0.7711141732283465
 20
1.8931220472440946
 30
0.0
 10
0.7711141732283465
 20
1.8931220472440946
 30
0.0
 10
0.7791259842519686
 20
1.8881141732283466
 30
0.0
 10
0.7791259842519686
 20
1.8881141732283466
 30
0.0
 10
0.7791259842519686
 20
1.8881141732283466
 30
0.0
 10
0.7791259842519686
 20
1.8881141732283466
 30
0.0
 10
0.7864330708661418
 20
1.8824094488188976
 30
0.0
 10
0.7864330708661418
 20
1.8824094488188976
 30
0.0
 10
0.7864330708661418
 20
1.8824094488188976
 30
0.0
 10
0.7864330708661418
 20
1.8824094488188976
 30
0.0
 10
0.7930393700787402
 20
1.8760984251968504
 30
0.0
 10
0.7930393700787402
 20
1.8760984251968504
 30
0.0
 10
0.7930393700787402
 20
1.8760984251968504
 30
0.0
 10
0.7930393700787402
 20
1.8760984251968504
 30
0.0
 10
0.7989251968503938
 20
1.8692244094488191
 30
0.0
 10
0.7989251968503938
 20
1.8692244094488191
 30
0.0
 10
0.7989251968503938
 20
1.8692244094488191
 30
0.0
 10
0.7989251968503938
 20
1.8692244094488191
 30
0.0
 10
0.8040984251968504
 20
1.8618779527559055
 30
0.0
 10
0.8040984251968504
 20
1.8618779527559055
 30
0.0
 10
0.8040984251968504
 20
1.8618779527559055
 30
0.0
 10
0.8040984251968504
 20
1.8618779527559055
 30
0.0
 10
0.8085393700787402
 20
1.8541141732283466
 30
0.0
 10
0.8085393700787402
 20
1.8541141732283466
 30
0.0
 10
0.8085393700787402
 20
1.8541141732283466
 30
0.0
 10
0.8085393700787402
 20
1.8541141732283466
 30
0.0
 10
0.8122480314960631
 20
1.846015748031496
 30
0.0
 10
0.8122480314960631
 20
1.846015748031496
 30
0.0
 10
0.8122480314960631
 20
1.846015748031496
 30
0.0
 10
0.8122480314960631
 20
1.846015748031496
 30
0.0
 10
0.8152086614173228
 20
1.8376338582677165
 30
0.0
 10
0.8152086614173228
 20
1.8376338582677165
 30
0.0
 10
0.8152086614173228
 20
1.8376338582677165
 30
0.0
 10
0.8152086614173228
 20
1.8376338582677165
 30
0.0
 10
0.8174251968503937
 20
1.8290511811023622
 30
0.0
 10
0.8174251968503937
 20
1.8290511811023622
 30
0.0
 10
0.8174251968503937
 20
1.8290511811023622
 30
0.0
 10
0.8174251968503937
 20
1.8290511811023622
 30
0.0
 10
0.8188858267716536
 20
1.8203346456692915
 30
0.0
 10
0.8188858267716536
 20
1.8203346456692915
 30
0.0
 10
0.8188858267716536
 20
1.8203346456692915
 30
0.0
 10
0.8188858267716536
 20
1.8203346456692915
 30
0.0
 10
0.8195866141732284
 20
1.8115472440944882
 30
0.0
 10
0.8195866141732284
 20
1.8115472440944882
 30
0.0
 10
0.8195866141732284
 20
1.8115472440944882
 30
0.0
 10
0.8195866141732284
 20
1.8115472440944882
 30
0.0
 10
0.8195039370078741
 20
1.8027559055118112
 30
0.0
 10
0.8195039370078741
 20
1.8027559055118112
 30
0.0
 10
0.8195039370078741
 20
1.8027559055118112
 30
0.0
 10
0.8195039370078741
 20
1.8027559055118112
 30
0.0
 10
0.8186496062992127
 20
1.7940393700787403
 30
0.0
 10
0.8186496062992127
 20
1.7940393700787403
 30
0.0
 10
0.8186496062992127
 20
1.7940393700787403
 30
0.0
 10
0.8186496062992127
 20
1.7940393700787403
 30
0.0
 10
0.817007874015748
 20
1.7854566929133859
 30
0.0
 10
0.817007874015748
 20
1.7854566929133859
 30
0.0
 10
0.817007874015748
 20
1.7854566929133859
 30
0.0
 10
0.817007874015748
 20
1.7854566929133859
 30
0.0
 10
0.8145748031496063
 20
1.7770905511811024
 30
0.0
 10
0.8145748031496063
 20
1.7770905511811024
 30
0.0
 10
0.8145748031496063
 20
1.7770905511811024
 30
0.0
 10
0.8145748031496063
 20
1.7770905511811024
 30
0.0
 10
0.8113385826771654
 20
1.768992125984252
 30
0.0
 10
0.8113385826771654
 20
1.768992125984252
 30
0.0
 10
0.8113385826771654
 20
1.768992125984252
 30
0.0
 10
0.8113385826771654
 20
1.768992125984252
 30
0.0
 10
0.8072992125984252
 20
1.761248031496063
 30
0.0
 10
0.8072992125984252
 20
1.761248031496063
 30
0.0
 10
0.8072992125984252
 20
1.761248031496063
 30
0.0
 10
0.8072992125984252
 20
1.761248031496063
 30
0.0
 10
0.8024409448818898
 20
1.7539173228346456
 30
0.0
 10
0.8024409448818898
 20
1.7539173228346456
 30
0.0
 10
0.8024409448818898
 20
1.7539173228346456
 30
0.0
 10
0.8024409448818898
 20
1.7539173228346456
 30
0.0
 10
0.7967677165354331
 20
1.7470708661417325
 30
0.0
 10
0.7967677165354331
 20
1.7470708661417325
 30
0.0
 10
0.7967677165354331
 20
1.7470708661417325
 30
0.0
 10
0.7967677165354331
 20
1.7470708661417325
 30
0.0
 10
0.790255905511811
 20
1.7407716535433071
 30
0.0
 10
0.790255905511811
 20
1.7407716535433071
 30
0.0
 10
0.790255905511811
 20
1.7407716535433071
 30
0.0
 10
0.790255905511811
 20
1.7407716535433071
 30
0.0
 10
0.7829133858267717
 20
1.7350944881889765
 30
0.0
 10
0.7829133858267717
 20
1.7350944881889765
 30
0.0
 10
0.7829133858267717
 20
1.7350944881889765
 30
0.0
 10
0.7829133858267717
 20
1.7350944881889765
 30
0.0
 10
0.7747204724409449
 20
1.7301102362204726
 30
0.0
 10
0.7747204724409449
 20
1.7301102362204726
 30
0.0
 10
0.7747204724409449
 20
1.7301102362204726
 30
0.0
 10
0.7747204724409449
 20
1.7301102362204726
 30
0.0
 10
0.1312992125984252
 20
1.3574763779527559
 30
0.0
 10
0.1312992125984252
 20
1.3574763779527559
 30
0.0
 10
0.1312992125984252
 20
1.3574763779527559
 30
0.0
 10
0.1312992125984252
 20
1.3574763779527559
 30
0.0
 10
0.139492125984252
 20
1.3624606299212598
 30
0.0
 10
0.139492125984252
 20
1.3624606299212598
 30
0.0
 10
0.139492125984252
 20
1.3624606299212598
 30
0.0
 10
0.139492125984252
 20
1.3624606299212598
 30
0.0
 10
0.1468346456692913
 20
1.3681377952755907
 30
0.0
 10
0.1468346456692913
 20
1.3681377952755907
 30
0.0
 10
0.1468346456692913
 20
1.3681377952755907
 30
0.0
 10
0.1468346456692913
 20
1.3681377952755907
 30
0.0
 10
0.1533464566929134
 20
1.3744370078740158
 30
0.0
 10
0.1533464566929134
 20
1.3744370078740158
 30
0.0
 10
0.1533464566929134
 20
1.3744370078740158
 30
0.0
 10
0.1533464566929134
 20
1.3744370078740158
 30
0.0
 10
0.1590196850393701
 20
1.3812834645669292
 30
0.0
 10
0.1590196850393701
 20
1.3812834645669292
 30
0.0
 10
0.1590196850393701
 20
1.3812834645669292
 30
0.0
 10
0.1590196850393701
 20
1.3812834645669292
 30
0.0
 10
0.1638779527559055
 20
1.3886141732283466
 30
0.0
 10
0.1638779527559055
 20
1.3886141732283466
 30
0.0
 10
0.1638779527559055
 20
1.3886141732283466
 30
0.0
 10
0.1638779527559055
 20
1.3886141732283466
 30
0.0
 10
0.1679173228346457
 20
1.3963582677165356
 30
0.0
 10
0.1679173228346457
 20
1.3963582677165356
 30
0.0
 10
0.1679173228346457
 20
1.3963582677165356
 30
0.0
 10
0.1679173228346457
 20
1.3963582677165356
 30
0.0
 10
0.1711535433070866
 20
1.4044566929133859
 30
0.0
 10
0.1711535433070866
 20
1.4044566929133859
 30
0.0
 10
0.1711535433070866
 20
1.4044566929133859
 30
0.0
 10
0.1711535433070866
 20
1.4044566929133859
 30
0.0
 10
0.1735866141732284
 20
1.4128228346456693
 30
0.0
 10
0.1735866141732284
 20
1.4128228346456693
 30
0.0
 10
0.1735866141732284
 20
1.4128228346456693
 30
0.0
 10
0.1735866141732284
 20
1.4128228346456693
 30
0.0
 10
0.1752283464566929
 20
1.4214055118110236
 30
0.0
 10
0.1752283464566929
 20
1.4214055118110236
 30
0.0
 10
0.1752283464566929
 20
1.4214055118110236
 30
0.0
 10
0.1752283464566929
 20
1.4214055118110236
 30
0.0
 10
0.1760826771653543
 20
1.4301220472440945
 30
0.0
 10
0.1760826771653543
 20
1.4301220472440945
 30
0.0
 10
0.1760826771653543
 20
1.4301220472440945
 30
0.0
 10
0.1760826771653543
 20
1.4301220472440945
 30
0.0
 10
0.1761653543307087
 20
1.4389133858267718
 30
0.0
 10
0.1761653543307087
 20
1.4389133858267718
 30
0.0
 10
0.1761653543307087
 20
1.4389133858267718
 30
0.0
 10
0.1761653543307087
 20
1.4389133858267718
 30
0.0
 10
0.1754645669291339
 20
1.4477007874015748
 30
0.0
 10
0.1754645669291339
 20
1.4477007874015748
 30
0.0
 10
0.1754645669291339
 20
1.4477007874015748
 30
0.0
 10
0.1754645669291339
 20
1.4477007874015748
 30
0.0
 10
0.174003937007874
 20
1.4564173228346458
 30
0.0
 10
0.174003937007874
 20
1.4564173228346458
 30
0.0
 10
0.174003937007874
 20
1.4564173228346458
 30
0.0
 10
0.174003937007874
 20
1.4564173228346458
 30
0.0
 10
0.1717874015748032
 20
1.4650000000000001
 30
0.0
 10
0.1717874015748032
 20
1.4650000000000001
 30
0.0
 10
0.1717874015748032
 20
1.4650000000000001
 30
0.0
 10
0.1717874015748032
 20
1.4650000000000001
 30
0.0
 10
0.1688267716535433
 20
1.4733818897637796
 30
0.0
 10
0.1688267716535433
 20
1.4733818897637796
 30
0.0
 10
0.1688267716535433
 20
1.4733818897637796
 30
0.0
 10
0.1688267716535433
 20
1.4733818897637796
 30
0.0
 10
0.1651181102362205
 20
1.4814803149606299
 30
0.0
 10
0.1651181102362205
 20
1.4814803149606299
 30
0.0
 10
0.1651181102362205
 20
1.4814803149606299
 30
0.0
 10
0.1651181102362205
 20
1.4814803149606299
 30
0.0
 10
0.1606771653543307
 20
1.4892440944881891
 30
0.0
 10
0.1606771653543307
 20
1.4892440944881891
 30
0.0
 10
0.1606771653543307
 20
1.4892440944881891
 30
0.0
 10
0.1606771653543307
 20
1.4892440944881891
 30
0.0
 10
0.155503937007874
 20
1.4965905511811024
 30
0.0
 10
0.155503937007874
 20
1.4965905511811024
 30
0.0
 10
0.155503937007874
 20
1.4965905511811024
 30
0.0
 10
0.155503937007874
 20
1.4965905511811024
 30
0.0
 10
0.1496181102362205
 20
1.503464566929134
 30
0.0
 10
0.1496181102362205
 20
1.503464566929134
 30
0.0
 10
0.1496181102362205
 20
1.503464566929134
 30
0.0
 10
0.1496181102362205
 20
1.503464566929134
 30
0.0
 10
0.1430118110236221
 20
1.5097755905511812
 30
0.0
 10
0.1430118110236221
 20
1.5097755905511812
 30
0.0
 10
0.1430118110236221
 20
1.5097755905511812
 30
0.0
 10
0.1430118110236221
 20
1.5097755905511812
 30
0.0
 10
0.1357047244094488
 20
1.51548031496063
 30
0.0
 10
0.1357047244094488
 20
1.51548031496063
 30
0.0
 10
0.1357047244094488
 20
1.51548031496063
 30
0.0
 10
0.1357047244094488
 20
1.51548031496063
 30
0.0
 10
0.1276929133858268
 20
1.5204881889763779
 30
0.0
 10
0.1276929133858268
 20
1.5204881889763779
 30
0.0
 10
0.1276929133858268
 20
1.5204881889763779
 30
0.0
 10
0.1276929133858268
 20
1.5204881889763779
 30
0.0
 10
0.119
 20
1.5247480314960631
 30
0.0
 10
0.119
 20
1.5247480314960631
 30
0.0
 10
0.119
 20
1.5247480314960631
 30
0.0
 10
0.119
 20
1.5247480314960631
 30
0.0
 10
0.1096141732283465
 20
1.5281732283464569
 30
0.0
 10
0.1096141732283465
 20
1.5281732283464569
 30
0.0
 10
0.1096141732283465
 20
1.5281732283464569
 30
0.0
 10
0.1096141732283465
 20
1.5281732283464569
 30
0.0
 10
0.0995590551181102
 20
1.5307125984251968
 30
0.0
 10
0.0995590551181102
 20
1.5307125984251968
 30
0.0
 10
0.0995590551181102
 20
1.5307125984251968
 30
0.0
 10
0.0995590551181102
 20
1.5307125984251968
 30
0.0
 10
0.0888307086614173
 20
1.5322834645669292
 30
0.0
 10
0.0888307086614173
 20
1.5322834645669292
 30
0.0
 10
0.0888307086614173
 20
1.5322834645669292
 30
0.0
 10
0.0888307086614173
 20
1.5322834645669292
 30
0.0
 10
0.0774448818897638
 20
1.5328267716535433
 30
0.0
 10
0.0774448818897638
 20
1.5328267716535433
 30
0.0
 10
0.0774448818897638
 20
1.5328267716535433
 30
0.0
 10
0.0774448818897638
 20
1.5328267716535433
 30
0.0
 10
0.0774448818897638
 20
1.6306771653543308
 30
0.0
 10
0.0774448818897638
 20
1.6306771653543308
 30
0.0
  0
SPLINE
  5
65
100
AcDbEntity
  8
Layer 1
 62
   253
100
AcDbSpline
210
0.0
220
0.0
230
1.0
 70
     1
 71
     3
 72
    20
 73
    16
 74
     0
 42
0.0000000001
 43
0.0000000001
 40
0.0
 40
0.0
 40
0.0
 40
0.0
 40
0.25
 40
0.25
 40
0.25
 40
0.25
 40
0.5
 40
0.5
 40
0.5
 40
0.5
 40
0.75
 40
0.75
 40
0.75
 40
0.75
 40
1.0
 40
1.0
 40
1.0
 40
1.0
 10
0.3593661417322835
 20
0.7903149606299212
 30
0.0
 10
0.3593661417322835
 20
0.7903149606299212
 30
0.0
 10
1.0027874015748033
 20
1.1629488188976378
 30
0.0
 10
1.0027874015748033
 20
1.1629488188976378
 30
0.0
 10
1.0027874015748033
 20
1.1629488188976378
 30
0.0
 10
1.0027874015748033
 20
1.1629488188976378
 30
0.0
 10
1.0891259842519685
 20
1.1399251968503938
 30
0.0
 10
1.0891259842519685
 20
1.1399251968503938
 30
0.0
 10
1.0891259842519685
 20
1.1399251968503938
 30
0.0
 10
1.0891259842519685
 20
1.1399251968503938
 30
0.0
 10
0.4457047244094489
 20
0.7672913385826772
 30
0.0
 10
0.4457047244094489
 20
0.7672913385826772
 30
0.0
 10
0.4457047244094489
 20
0.7672913385826772
 30
0.0
 10
0.4457047244094489
 20
0.7672913385826772
 30
0.0
 10
0.3593661417322835
 20
0.7903149606299212
 30
0.0
 10
0.3593661417322835
 20
0.7903149606299212
 30
0.0
  0
SPLINE
  5
66
100
AcDbEntity
  8
Layer 1
370
     5
100
AcDbSpline
210
0.0
220
0.0
230
1.0
 70
     1
 71
     3
 72
    20
 73
    16
 74
     0
 42
0.0000000001
 43
0.0000000001
 40
0.0
 40
0.0
 40
0.0
 40
0.0
 40
0.25
 40
0.25
 40
0.25
 40
0.25
 40
0.5
 40
0.5
 40
0.5
 40
0.5
 40
0.75
 40
0.75
 40
0.75
 40
0.75
 40
1.0
 40
1.0
 40
1.0
 40
1.0
 10
0.3593661417322835
 20
0.7903149606299212
 30
0.0
 10
0.3593661417322835
 20
0.7903149606299212
 30
0.0
 10
1.0027874015748033
 20
1.1629488188976378
 30
0.0
 10
1.0027874015748033
 20
1.1629488188976378
 30
0.0
 10
1.0027874015748033
 20
1.1629488188976378
 30
0.0
 10
1.0027874015748033
 20
1.1629488188976378
 30
0.0
 10
1.0891259842519685
 20
1.1399251968503938
 30
0.0
 10
1.0891259842519685
 20
1.1399251968503938
 30
0.0
 10
1.0891259842519685
 20
1.1399251968503938
 30
0.0
 10
1.0891259842519685
 20
1.1399251968503938
 30
0.0
 10
0.4457047244094489
 20
0.7672913385826772
 30
0.0
 10
0.4457047244094489
 20
0.7672913385826772
 30
0.0
 10
0.4457047244094489
 20
0.7672913385826772
 30
0.0
 10
0.4457047244094489
 20
0.7672913385826772
 30
0.0
 10
0.3593661417322835
 20
0.7903149606299212
 30
0.0
 10
0.3593661417322835
 20
0.7903149606299212
 30
0.0
  0
SPLINE
  5
67
100
AcDbEntity
  8
Layer 1
 62
     9
100
AcDbSpline
210
0.0
220
0.0
230
1.0
 70
     1
 71
     3
 72
    20
 73
    16
 74
     0
 42
0.0000000001
 43
0.0000000001
 40
0.0
 40
0.0
 40
0.0
 40
0.0
 40
0.25
 40
0.25
 40
0.25
 40
0.25
 40
0.5
 40
0.5
 40
0.5
 40
0.5
 40
0.75
 40
0.75
 40
0.75
 40
0.75
 40
1.0
 40
1.0
 40
1.0
 40
1.0
 10
0.4457047244094489
 20
0.7672913385826772
 30
0.0
 10
0.4457047244094489
 20
0.7672913385826772
 30
0.0
 10
1.0891259842519685
 20
1.1399251968503938
 30
0.0
 10
1.0891259842519685
 20
1.1399251968503938
 30
0.0
 10
1.0891259842519685
 20
1.1399251968503938
 30
0.0
 10
1.0891259842519685
 20
1.1399251968503938
 30
0.0
 10
1.0891259842519685
 20
0.849251968503937
 30
0.0
 10
1.0891259842519685
 20
0.849251968503937
 30
0.0
 10
1.0891259842519685
 20
0.849251968503937
 30
0.0
 10
1.0891259842519685
 20
0.849251968503937
 30
0.0
 10
0.4457047244094489
 20
0.4766181102362205
 30
0.0
 10
0.4457047244094489
 20
0.4766181102362205
 30
0.0
 10
0.4457047244094489
 20
0.4766181102362205
 30
0.0
 10
0.4457047244094489
 20
0.4766181102362205
 30
0.0
 10
0.4457047244094489
 20
0.7672913385826772
 30
0.0
 10
0.4457047244094489
 20
0.7672913385826772
 30
0.0
  0
SPLINE
  5
68
100
AcDbEntity
  8
Layer 1
370
     5
100
AcDbSpline
210
0.0
220
0.0
230
1.0
 70
     1
 71
     3
 72
    20
 73
    16
 74
     0
 42
0.0000000001
 43
0.0000000001
 40
0.0
 40
0.0
 40
0.0
 40
0.0
 40
0.25
 40
0.25
 40
0.25
 40
0.25
 40
0.5
 40
0.5
 40
0.5
 40
0.5
 40
0.75
 40
0.75
 40
0.75
 40
0.75
 40
1.0
 40
1.0
 40
1.0
 40
1.0
 10
0.4457047244094489
 20
0.7672913385826772
 30
0.0
 10
0.4457047244094489
 20
0.7672913385826772
 30
0.0
 10
1.0891259842519685
 20
1.1399251968503938
 30
0.0
 10
1.0891259842519685
 20
1.1399251968503938
 30
0.0
 10
1.0891259842519685
 20
1.1399251968503938
 30
0.0
 10
1.0891259842519685
 20
1.1399251968503938
 30
0.0
 10
1.0891259842519685
 20
0.849251968503937
 30
0.0
 10
1.0891259842519685
 20
0.849251968503937
 30
0.0
 10
1.0891259842519685
 20
0.849251968503937
 30
0.0
 10
1.0891259842519685
 20
0.849251968503937
 30
0.0
 10
0.4457047244094489
 20
0.4766181102362205
 30
0.0
 10
0.4457047244094489
 20
0.4766181102362205
 30
0.0
 10
0.4457047244094489
 20
0.4766181102362205
 30
0.0
 10
0.4457047244094489
 20
0.4766181102362205
 30
0.0
 10
0.4457047244094489
 20
0.7672913385826772
 30
0.0
 10
0.4457047244094489
 20
0.7672913385826772
 30
0.0
  0
SPLINE
  5
69
100
AcDbEntity
  8
Layer 1
370
     5
 62
     7
100
AcDbSpline
210
0.0
220
0.0
230
1.0
 70
     1
 71
     3
 72
    40
 73
    36
 74
     0
 42
0.0000000001
 43
0.0000000001
 40
0.0
 40
0.0
 40
0.0
 40
0.0
 40
0.1111111111111111
 40
0.1111111111111111
 40
0.1111111111111111
 40
0.1111111111111111
 40
0.2222222222222222
 40
0.2222222222222222
 40
0.2222222222222222
 40
0.2222222222222222
 40
0.3333333333333333
 40
0.3333333333333333
 40
0.3333333333333333
 40
0.3333333333333333
 40
0.4444444444444444
 40
0.4444444444444444
 40
0.4444444444444444
 40
0.4444444444444444
 40
0.5555555555555556
 40
0.5555555555555556
 40
0.5555555555555556
 40
0.5555555555555556
 40
0.6666666666666667
 40
0.6666666666666667
 40
0.6666666666666667
 40
0.6666666666666667
 40
0.7777777777777779
 40
0.7777777777777779
 40
0.7777777777777779
 40
0.7777777777777779
 40
0.8888888888888891
 40
0.8888888888888891
 40
0.8888888888888891
 40
0.8888888888888891
 40
1.0
 40
1.0
 40
1.0
 40
1.0
 10
-0.0608149606299213
 20
0.4766181102362205
 30
0.0
 10
-0.0608149606299213
 20
0.4766181102362205
 30
0.0
 10
-0.0608149606299213
 20
1.6306771653543308
 30
0.0
 10
-0.0608149606299213
 20
1.6306771653543308
 30
0.0
 10
-0.0608149606299213
 20
1.6306771653543308
 30
0.0
 10
-0.0608149606299213
 20
1.6306771653543308
 30
0.0
 10
0.0774448818897638
 20
1.6306771653543308
 30
0.0
 10
0.0774448818897638
 20
1.6306771653543308
 30
0.0
 10
0.0774448818897638
 20
1.6306771653543308
 30
0.0
 10
0.0774448818897638
 20
1.6306771653543308
 30
0.0
 10
0.0774448818897638
 20
1.5328267716535433
 30
0.0
 10
0.0774448818897638
 20
1.5328267716535433
 30
0.0
 10
0.0774448818897638
 20
1.5328267716535433
 30
0.0
 10
0.2024448818897638
 20
1.5328267716535433
 30
0.0
 10
0.2157047244094488
 20
1.3448937007874016
 30
0.0
 10
0.0774448818897638
 20
1.3453267716535433
 30
0.0
 10
0.0774448818897638
 20
1.3453267716535433
 30
0.0
 10
0.1037007874015748
 20
1.2308070866141734
 30
0.0
 10
0.1813976377952756
 20
1.1521535433070866
 30
0.0
 10
0.2936377952755906
 20
1.0974724409448819
 30
0.0
 10
0.2936377952755906
 20
1.0974724409448819
 30
0.0
 10
0.4058779527559056
 20
1.0427913385826773
 30
0.0
 10
0.5320433070866142
 20
0.9111889763779528
 30
0.0
 10
0.3593661417322835
 20
0.7903149606299212
 30
0.0
 10
0.3593661417322835
 20
0.7903149606299212
 30
0.0
 10
0.3593661417322835
 20
0.7903149606299212
 30
0.0
 10
0.4457047244094489
 20
0.7672913385826772
 30
0.0
 10
0.4457047244094489
 20
0.7672913385826772
 30
0.0
 10
0.4457047244094489
 20
0.7672913385826772
 30
0.0
 10
0.4457047244094489
 20
0.7672913385826772
 30
0.0
 10
0.4457047244094489
 20
0.4766181102362205
 30
0.0
 10
0.4457047244094489
 20
0.4766181102362205
 30
0.0
 10
0.4457047244094489
 20
0.4766181102362205
 30
0.0
 10
0.4457047244094489
 20
0.4766181102362205
 30
0.0
 10
-0.0608149606299213
 20
0.4766181102362205
 30
0.0
 10
-0.0608149606299213
 20
0.4766181102362205
 30
0.0
  0
TEXT
  5
6A
100
AcDbEntity
  8
Layer 1
100
AcDbText
 10
0.138803
 20
0.314319
 30
0.0
 40
0.119999
  1
BA  1535
 51
-0.000002
  7
Bookman Old Style
100
AcDbText
  0
TEXT
  5
6B
100
AcDbEntity
  8
Layer 1
100
AcDbText
 10
0.034654
 20
0.126819
 30
0.0
 40
0.119999
  1
\u+00bd\u+201d x 1-1/8\u+201d 
 51
-0.000002
  7
Bookman Old Style
100
AcDbText
  0
ENDSEC
  0
SECTION
  2
OBJECTS
  0
DICTIONARY
  5
19
100
AcDbDictionary
280
     0
281
     1
  3
ACAD_GROUP
350
1A
  3
ACAD_MLINESTYLE
350
1B
  3
ACAD_LAYOUT
350
1E
  3
ACAD_PLOTSETTINGS
350
22
  3
ACAD_PLOTSTYLENAME
350
1F
  3
ACAD_WIPEOUT_VARS
350
23
  0
DICTIONARY
  5
1A
102
{ACAD_REACTORS
330
19
102
}
100
AcDbDictionary
280
     0
281
     1
  0
DICTIONARY
  5
1B
102
{ACAD_REACTORS
330
19
102
}
100
AcDbDictionary
280
     0
281
     1
  3
Standard
350
1C
  0
MLINESTYLE
  5
1C
102
{ACAD_REACTORS
330
1B
102
}
100
AcDbMlineStyle
  2
Standard
 70
     0
  3

 62
     0
 51
90.0
 52
90.0
 71
     2
 49
0.5
 62
   256
  6
BYLAYER
 49
-0.5
 62
   256
  6
BYLAYER
  0
ACDBDICTIONARYWDFLT
  5
1F
102
{ACAD_REACTORS
330
19
102
}
100
AcDbDictionary
281
     1
  3
Normal
350
1D
100
AcDbDictionaryWithDefault
340
1D
  0
ACDBPLACEHOLDER
  5
1D
102
{ACAD_REACTORS
330
1F
102
}
  0
LAYOUT
  5
20
102
{ACAD_REACTORS
330
1E
102
}
100
AcDbPlotSettings
  1

  2

  4

  6

 40
0.0
 41
0.0
 42
0.0
 43
0.0
 44
0.0
 45
0.0
 46
0.0
 47
0.0
 48
0.0
 49
0.0
140
0.0
141
0.0
142
1.0
143
1.0
 70
  1024
 72
     0
 73
     0
 74
     0
  7

 75
     0
147
1.0
148
0.0
149
0.0
100
AcDbLayout
  1
Model
 70
     0
 71
     0
 10
0.0
 20
0.0
 11
0.0
 21
0.0
 12
0.0
 22
0.0
 32
0.0
 14
0.0
 24
0.0
 34
0.0
 15
0.0
 25
0.0
 35
0.0
146
0.0
 13
0.0
 23
0.0
 33
0.0
 16
0.0
 26
0.0
 36
0.0
 17
0.0
 27
0.0
 37
0.0
 76
     0
330
A
331
0
345
0
346
0
  0
LAYOUT
  5
21
102
{ACAD_REACTORS
330
1E
102
}
100
AcDbPlotSettings
  1

  2

  4

  6

 40
0.0
 41
0.0
 42
0.0
 43
0.0
 44
0.0
 45
0.0
 46
0.0
 47
0.0
 48
0.0
 49
0.0
140
0.0
141
0.0
142
1.0
143
1.0
 70
     0
 72
     0
 73
     0
 74
     0
  7

 75
     0
147
1.0
148
0.0
149
0.0
100
AcDbLayout
  1
Layout1
 70
     0
 71
     0
 10
0.0
 20
0.0
 11
0.0
 21
0.0
 12
0.0
 22
0.0
 32
0.0
 14
0.0
 24
0.0
 34
0.0
 15
0.0
 25
0.0
 35
0.0
146
0.0
 13
0.0
 23
0.0
 33
0.0
 16
0.0
 26
0.0
 36
0.0
 17
0.0
 27
0.0
 37
0.0
 76
     0
330
B
331
0
345
0
346
0
  0
DICTIONARY
  5
1E
102
{ACAD_REACTORS
330
19
102
}
100
AcDbDictionary
280
     0
281
     1
  3
Layout1
350
21
  3
Model
350
20
  0
DICTIONARY
  5
22
102
{ACAD_REACTORS
330
19
102
}
100
AcDbDictionary
280
     0
281
     1
  0
WIPEOUTVARIABLES
  5
23
100
AcDbWipeoutVariables
 70
     1
  0
ENDSEC
  0
EOF
