  0
SECTION
  2
HEADER
  9
$ACADVER
  1
AC1015
  9
$ACADMAINTVER
 70
     6
  9
$DWGCODEPAGE
  3
DOS850
  9
$INSBASE
 10
0.0
 20
0.0
 30
0.0
  9
$EXTMIN
 10
-2.930465
 20
-0.973984
 30
1.000000E+20
  9
$EXTMAX
 10
2.808232
 20
4.422992
 30
-1.000000E+20
  9
$LIMMIN
 10
0.0
 20
0.0
  9
$LIMMAX
 10
0.0
 20
0.0
  9
$ORTHOMODE
 70
     0
  9
$REGENMODE
 70
     1
  9
$FILLMODE
 70
     1
  9
$QTEXTMODE
 70
     0
  9
$MIRRTEXT
 70
     1
  9
$LTSCALE
 40
1.0
  9
$ATTMODE
 70
     1
  9
$TEXTSIZE
 40
0.2
  9
$TRACEWID
 40
0.05
  9
$TEXTSTYLE
  7
Standard
  9
$CLAYER
  8
0
  9
$CELTYPE
  6
Continuous
  9
$CECOLOR
 62
   256
  9
$CELTSCALE
 40
1.0
  9
$DISPSILH
 70
     0
  9
$DIMSCALE
 40
1.0
  9
$DIMASZ
 40
0.18
  9
$DIMEXO
 40
0.0625
  9
$DIMDLI
 40
0.38
  9
$DIMRND
 40
0.0
  9
$DIMDLE
 40
0.0
  9
$DIMEXE
 40
0.18
  9
$DIMTP
 40
0.0
  9
$DIMTM
 40
0.0
  9
$DIMTXT
 40
0.18
  9
$DIMCEN
 40
0.09
  9
$DIMTSZ
 40
0.0
  9
$DIMTOL
 70
     0
  9
$DIMLIM
 70
     0
  9
$DIMTIH
 70
     1
  9
$DIMTOH
 70
     1
  9
$DIMSE1
 70
     0
  9
$DIMSE2
 70
     0
  9
$DIMTAD
 70
     0
  9
$DIMZIN
 70
     0
  9
$DIMBLK
  1

  9
$DIMASO
 70
     1
  9
$DIMSHO
 70
     1
  9
$DIMPOST
  1

  9
$DIMAPOST
  1

  9
$DIMALT
 70
     0
  9
$DIMALTD
 70
     2
  9
$DIMALTF
 40
25.4
  9
$DIMLFAC
 40
1.0
  9
$DIMTOFL
 70
     0
  9
$DIMTVP
 40
0.0
  9
$DIMTIX
 70
     0
  9
$DIMSOXD
 70
     0
  9
$DIMSAH
 70
     0
  9
$DIMBLK1
  1

  9
$DIMBLK2
  1

  9
$DIMSTYLE
  2
Standard
  9
$DIMCLRD
 70
     0
  9
$DIMCLRE
 70
     0
  9
$DIMCLRT
 70
     0
  9
$DIMTFAC
 40
1.0
  9
$DIMGAP
 40
0.09
  9
$DIMJUST
 70
     0
  9
$DIMSD1
 70
     0
  9
$DIMSD2
 70
     0
  9
$DIMTOLJ
 70
     1
  9
$DIMTZIN
 70
     0
  9
$DIMALTZ
 70
     0
  9
$DIMALTTZ
 70
     0
  9
$DIMUPT
 70
     0
  9
$DIMDEC
 70
     4
  9
$DIMTDEC
 70
     4
  9
$DIMALTU
 70
     2
  9
$DIMALTTD
 70
     2
  9
$DIMTXSTY
  7
Standard
  9
$DIMAUNIT
 70
     0
  9
$DIMADEC
 70
     0
  9
$DIMALTRND
 40
0.0
  9
$DIMAZIN
 70
     0
  9
$DIMDSEP
 70
     0
  9
$DIMATFIT
 70
     3
  9
$DIMFRAC
 70
     0
  9
$DIMLDRBLK
  1

  9
$DIMLUNIT
 70
     2
  9
$DIMLWD
 70
     0
  9
$DIMLWE
 70
     0
  9
$DIMTMOVE
 70
     0
  9
$LUNITS
 70
     2
  9
$LUPREC
 70
     4
  9
$SKETCHINC
 40
0.1
  9
$FILLETRAD
 40
0.0
  9
$AUNITS
 70
     0
  9
$AUPREC
 70
     0
  9
$MENU
  1
acad
  9
$ELEVATION
 40
0.0
  9
$PELEVATION
 40
0.0
  9
$THICKNESS
 40
0.0
  9
$LIMCHECK
 70
     0
  9
$CHAMFERA
 40
0.0
  9
$CHAMFERB
 40
0.0
  9
$CHAMFERC
 40
0.0
  9
$CHAMFERD
 40
0.0
  9
$SKPOLY
 70
     0
  9
$TDCREATE
 40
0.000000000
  9
$TDUCREATE
 40
0.000000000
  9
$TDUPDATE
 40
0.000000000
  9
$TDUUPDATE
 40
0.000000000
  9
$TDINDWG
 40
0.0000000000
  9
$TDUSRTIMER
 40
0.0000000000
  9
$USRTIMER
 70
     1
  9
$ANGBASE
 50
0.0
  9
$ANGDIR
 70
     0
  9
$PDMODE
 70
     0
  9
$PDSIZE
 40
0.0
  9
$PLINEWID
 40
0.0
  9
$SPLFRAME
 70
     0
  9
$SPLINETYPE
 70
     6
  9
$SPLINESEGS
 70
     8
  9
$HANDSEED
  5
C4
  9
$SURFTAB1
 70
     6
  9
$SURFTAB2
 70
     6
  9
$SURFTYPE
 70
     6
  9
$SURFU
 70
     6
  9
$SURFV
 70
     6
  9
$UCSBASE
  2

  9
$UCSNAME
  2

  9
$UCSORG
 10
0.0
 20
0.0
 30
0.0
  9
$UCSXDIR
 10
1.0
 20
0.0
 30
0.0
  9
$UCSYDIR
 10
0.0
 20
1.0
 30
0.0
  9
$UCSORTHOREF
  2

  9
$UCSORTHOVIEW
 70
     0
  9
$UCSORGTOP
 10
0.0
 20
0.0
 30
0.0
  9
$UCSORGBOTTOM
 10
0.0
 20
0.0
 30
0.0
  9
$UCSORGLEFT
 10
0.0
 20
0.0
 30
0.0
  9
$UCSORGRIGHT
 10
0.0
 20
0.0
 30
0.0
  9
$UCSORGFRONT
 10
0.0
 20
0.0
 30
0.0
  9
$UCSORGBACK
 10
0.0
 20
0.0
 30
0.0
  9
$PUCSBASE
  2

  9
$PUCSNAME
  2

  9
$PUCSORG
 10
0.0
 20
0.0
 30
0.0
  9
$PUCSXDIR
 10
1.0
 20
0.0
 30
0.0
  9
$PUCSYDIR
 10
0.0
 20
1.0
 30
0.0
  9
$PUCSORTHOREF
  2

  9
$PUCSORTHOVIEW
 70
     0
  9
$PUCSORGTOP
 10
0.0
 20
0.0
 30
0.0
  9
$PUCSORGBOTTOM
 10
0.0
 20
0.0
 30
0.0
  9
$PUCSORGLEFT
 10
0.0
 20
0.0
 30
0.0
  9
$PUCSORGRIGHT
 10
0.0
 20
0.0
 30
0.0
  9
$PUCSORGFRONT
 10
0.0
 20
0.0
 30
0.0
  9
$PUCSORGBACK
 10
0.0
 20
0.0
 30
0.0
  9
$USERI1
 70
     0
  9
$USERI2
 70
     0
  9
$USERI3
 70
     0
  9
$USERI4
 70
     0
  9
$USERI5
 70
     0
  9
$USERR1
 40
0.0
  9
$USERR2
 40
0.0
  9
$USERR3
 40
0.0
  9
$USERR4
 40
0.0
  9
$USERR5
 40
0.0
  9
$WORLDVIEW
 70
     1
  9
$SHADEDGE
 70
     3
  9
$SHADEDIF
 70
    70
  9
$TILEMODE
 70
     1
  9
$MAXACTVP
 70
    16
  9
$PINSBASE
 10
0.0
 20
0.0
 30
0.0
  9
$PLIMCHECK
 70
     0
  9
$PEXTMIN
 10
1.000000E+20
 20
1.000000E+20
 30
1.000000E+20
  9
$PEXTMAX
 10
-1.000000E+20
 20
-1.000000E+20
 30
-1.000000E+20
  9
$PLIMMIN
 10
0.0
 20
0.0
  9
$PLIMMAX
 10
12.0
 20
9.0
  9
$UNITMODE
 70
     0
  9
$VISRETAIN
 70
     0
  9
$PLINEGEN
 70
     1
  9
$PSLTSCALE
 70
     0
  9
$TREEDEPTH
 70
  3020
  9
$CMLSTYLE
  2
Standard
  9
$CMLJUST
 70
     0
  9
$CMLSCALE
 40
1.0
  9
$PROXYGRAPHICS
 70
     0
  9
$MEASUREMENT
 70
     0
  9
$CELWEIGHT
370
     0
  9
$ENDCAPS
280
     0
  9
$JOINSTYLE
280
     0
  9
$LWDISPLAY
290
     0
  9
$INSUNITS
 70
     1
  9
$HYPERLINKBASE
  1

  9
$XEDIT
290
     1
  9
$CEPSNTYPE
380
     0
  9
$PSTYLEMODE
290
     1
  9
$FINGERPRINTGUID
  2

  9
$VERSIONGUID
  2

  9
$EXTNAMES
290
     1
  9
$PSVPSCALE
 40
0.0
  0
ENDSEC
  0
SECTION
  2
CLASSES
  0
CLASS
  1
LWPOLYLINE
  2
AcDbPolyline
  3
AutoCAD 2000
 90
    32768
280
     0
281
     1
  0
CLASS
  1
IMAGE
  2
AcDbRasterImage
  3
ISM
 90
    32895
280
     0
281
     1
  0
CLASS
  1
OLE2FRAME
  2
AcDbOle2Frame
  3
AutoCAD 2000
 90
    32768
280
     0
281
     1
  0
CLASS
  1
HATCH
  2
AcDbHatch
  3
AutoCAD 2000
 90
    32768
280
     0
281
     1
  0
CLASS
  1
DICTIONARYVAR
  2
AcDbDictionaryVar
  3
AutoCAD 2000
 90
    32768
280
     0
281
     0
  0
CLASS
  1
RASTERVARIABLES
  2
AcDbRasterVariables
  3
ISM
 90
    32768
280
     0
281
     0
  0
CLASS
  1
IMAGEDEF
  2
AcDbRasterImageDef
  3
ISM
 90
    32768
280
     0
281
     0
  0
CLASS
  1
IMAGEDEF_REACTOR
  2
AcDbRasterImageDefReactor
  3
ISM
 90
    32769
280
     0
281
     0
  0
CLASS
  1
IDBUFFER
  2
AcDbIdBuffer
  3
AutoCAD 2000
 90
    32768
280
     0
281
     0
  0
CLASS
  1
SPATIAL_FILTER
  2
AcDbSpatialFilter
  3
AutoCAD 2000
 90
    32768
280
     0
281
     0
  0
CLASS
  1
XRECORD
  2
AcDbXrecord
  3
AutoCAD 2000
 90
    32768
280
     0
281
     0
  0
CLASS
  1
SORTENTSTABLE
  2
AcDbSortentsTable
  3
AutoCAD 2000
 90
    32768
280
     0
281
     0
  0
CLASS
  1
LAYER_INDEX
  2
AcDbLayerIndex
  3
AutoCAD 2000
 90
    32768
280
     0
281
     0
  0
CLASS
  1
SPATIAL_INDEX
  2
AcDbSpatialIndex
  3
AutoCAD 2000
 90
    32768
280
     0
281
     0
  0
CLASS
  1
OBJECT_PTR
  2
CAseDLPNTableRecord
  3
"ASE-LPNTableRecord"
 90
    32769
280
     0
281
     0
  0
CLASS
  1
LAYOUT
  2
AcDbLayout
  3
AutoCAD 2000
 90
        0
280
     0
281
     0
  0
CLASS
  1
PLOTSETTINGS
  2
AcDbPlotSettings
  3
AutoCAD 2000
 90
    32768
280
     0
281
     0
  0
CLASS
  1
ACDBDICTIONARYWDFLT
  2
AcDbDictionaryWithDefault
  3
AutoCAD 2000
 90
        0
280
     0
281
     0
  0
CLASS
  1
ACDBPLACEHOLDER
  2
AcDbPlaceHolder
  3
AutoCAD 2000
 90
        0
280
     0
281
     0
  0
CLASS
  1
VBA_PROJECT
  2
AcDbVbaProject
  3
acadvba
 90
    32768
280
     0
281
     0
  0
CLASS
  1
WIPEOUT
  2
AcDbWipeout
  3
WipeOut|AutoCAD Express Tool|expresstools@autodesk.com
 90
    32895
280
     0
281
     1
  0
CLASS
  1
WIPEOUTVARIABLES
  2
AcDbWipeoutVariables
  3
WipeOut|AutoCAD Express Tool|expresstools@autodesk.com
 90
        0
280
     0
281
     0
  0
CLASS
  1
RTEXT
  2
RText
  3
RText|AutoCAD Express Tool|expresstools@autodesk.com
 90
    32768
280
     0
281
     1
  0
CLASS
  1
ARCALIGNEDTEXT
  2
AcDbArcAlignedText
  3
ATEXT|AutoCAD Express Tool|expresstools@autodesk.com
 90
    32768
280
     0
281
     1
  0
ENDSEC
  0
SECTION
  2
TABLES
  0
TABLE
  2
VPORT
  5
7
100
AcDbSymbolTable
 70
     1
  0
VPORT
  5
15
100
AcDbSymbolTableRecord
100
AcDbViewportTableRecord
  2
*ACTIVE
 70
     0
 10
0.0
 20
0.0
 11
1.0
 21
1.0
 12
6.591288
 22
4.579184
 13
0.0
 23
0.0
 14
1.0
 24
1.0
 15
0.0
 25
0.0
 16
0.0
 26
0.0
 36
1.0
 17
0.0
 27
0.0
 37
0.0
 40
9.158369
 41
0.688564
 42
50.0
 43
0.0
 44
0.0
 50
0.0
 51
0.0
 71
     0
 72
   100
 73
     1
 74
     1
 75
     0
 76
     0
 77
     0
 78
     0
281
     0
 65
     0
110
0.0
120
0.0
130
0.0
111
1.0
121
0.0
131
0.0
112
0.0
122
1.0
132
0.0
345
0
346
0
 79
     0
146
0.0
  0
ENDTAB
  0
TABLE
  2
LTYPE
  5
4
100
AcDbSymbolTable
 70
     3
  0
LTYPE
  5
11
100
AcDbSymbolTableRecord
100
AcDbLinetypeTableRecord
  2
ByBlock
 70
    64
  3

 72
    65
 73
     0
 40
0.0
  0
LTYPE
  5
12
100
AcDbSymbolTableRecord
100
AcDbLinetypeTableRecord
  2
ByLayer
 70
    64
  3

 72
    65
 73
     0
 40
0.0
  0
LTYPE
  5
13
100
AcDbSymbolTableRecord
100
AcDbLinetypeTableRecord
  2
Continuous
 70
    64
  3
Solid line
 72
    65
 73
     0
 40
0.0
  0
ENDTAB
  0
TABLE
  2
LAYER
  5
2
100
AcDbSymbolTable
 70
     2
  0
LAYER
  5
14
100
AcDbSymbolTableRecord
100
AcDbLayerTableRecord
  2
0
 70
     0
 62
     7
  6
Continuous
290
     1
370
    -3
390
1D
  0
LAYER
  5
24
100
AcDbSymbolTableRecord
100
AcDbLayerTableRecord
  2
Additional Graphics
 70
     0
 62
     7
  6
Continuous
290
     1
370
    -3
390
1F
  0
ENDTAB
  0
TABLE
  2
STYLE
  5
3
100
AcDbSymbolTable
 70
     2
  0
STYLE
  5
17
100
AcDbSymbolTableRecord
100
AcDbTextStyleTableRecord
  2
Standard
 70
     0
 40
0.0
 41
1.0
 50
0.0
 71
     0
 42
0.0
  3
txt
  4

  0
STYLE
  5
26
100
AcDbSymbolTableRecord
100
AcDbTextStyleTableRecord
  2
Bookman Old Style
 70
     0
 40
1.0
 41
1.0
 50
0.0
 71
     0
 42
1.0
  3
Bookman Old Style
  4

  0
ENDTAB
  0
TABLE
  2
VIEW
  5
5
100
AcDbSymbolTable
 70
     0
  0
ENDTAB
  0
TABLE
  2
UCS
  5
6
100
AcDbSymbolTable
 70
     0
  0
ENDTAB
  0
TABLE
  2
APPID
  5
8
100
AcDbSymbolTable
 70
     1
  0
APPID
  5
16
100
AcDbSymbolTableRecord
100
AcDbRegAppTableRecord
  2
ACAD
 70
     0
  0
ENDTAB
  0
TABLE
  2
DIMSTYLE
  5
9
100
AcDbSymbolTable
 70
     1
100
AcDbDimStyleTable
 71
     0
  0
DIMSTYLE
105
18
100
AcDbSymbolTableRecord
100
AcDbDimStyleTableRecord
  2
Standard
 70
     0
  3

  4

 40
1.0
 41
0.18
 42
0.0625
 43
0.38
 44
0.18
 45
0.0
 46
0.0
 47
0.0
 48
0.0
 71
     0
 72
     0
 73
     1
 74
     1
 75
     0
 76
     0
 77
     0
 78
     0
 79
     0
140
0.18
141
0.09
142
0.0
143
25.4
144
1.0
145
0.0
146
1.0
147
0.09
148
0.0
170
     0
171
     2
172
     0
173
     0
174
     0
175
     0
176
     0
177
     0
178
     0
179
     0
271
     4
272
     4
273
     2
274
     2
275
     0
276
     0
277
     2
278
    46
279
     0
280
     0
281
     0
282
     0
283
     1
284
     0
285
     0
286
     0
288
     0
340
17
341
0
342
0
343
0
344
0
371
    -2
372
    -2
  0
ENDTAB
  0
TABLE
  2
BLOCK_RECORD
  5
1
100
AcDbSymbolTable
 70
     0
  0
BLOCK_RECORD
  5
A
100
AcDbSymbolTableRecord
100
AcDbBlockTableRecord
  2
*MODEL_SPACE
340
20
  0
BLOCK_RECORD
  5
B
100
AcDbSymbolTableRecord
100
AcDbBlockTableRecord
  2
*PAPER_SPACE
340
21
  0
ENDTAB
  0
ENDSEC
  0
SECTION
  2
BLOCKS
  0
BLOCK
  5
D
100
AcDbEntity
  8
0
100
AcDbBlockBegin
  2
*MODEL_SPACE
 70
     0
 10
0.0
 20
0.0
 30
0.0
  3
*MODEL_SPACE
  1

  0
ENDBLK
  5
E
100
AcDbEntity
  8
0
100
AcDbBlockEnd
  0
BLOCK
  5
F
100
AcDbEntity
 67
     1
  8
0
100
AcDbBlockBegin
  2
*PAPER_SPACE
 70
     0
 10
0.0
 20
0.0
 30
0.0
  3
*PAPER_SPACE
  1

  0
ENDBLK
  5
10
100
AcDbEntity
 67
     1
  8
0
100
AcDbBlockEnd
  0
ENDSEC
  0
SECTION
  2
ENTITIES
  0
SPLINE
  5
25
100
AcDbEntity
  8
Additional Graphics
370
    40
100
AcDbSpline
210
0.0
220
0.0
230
1.0
 70
     1
 71
     3
 72
    44
 73
    40
 74
     0
 42
0.0000000001
 43
0.0000000001
 40
0.0
 40
0.0
 40
0.0
 40
0.0
 40
0.1
 40
0.1
 40
0.1
 40
0.1
 40
0.2
 40
0.2
 40
0.2
 40
0.2
 40
0.3
 40
0.3
 40
0.3
 40
0.3
 40
0.4
 40
0.4
 40
0.4
 40
0.4
 40
0.5
 40
0.5
 40
0.5
 40
0.5
 40
0.6
 40
0.6
 40
0.6
 40
0.6
 40
0.7
 40
0.7
 40
0.7
 40
0.7
 40
0.7999999999999999
 40
0.7999999999999999
 40
0.7999999999999999
 40
0.7999999999999999
 40
0.8999999999999999
 40
0.8999999999999999
 40
0.8999999999999999
 40
0.8999999999999999
 40
1.0
 40
1.0
 40
1.0
 40
1.0
 10
-1.6919173228346458
 20
3.454925196850394
 30
0.0
 10
-1.6919173228346458
 20
3.454925196850394
 30
0.0
 10
-2.334283464566929
 20
4.1939291338582683
 30
0.0
 10
-2.334283464566929
 20
4.1939291338582683
 30
0.0
 10
-2.334283464566929
 20
4.1939291338582683
 30
0.0
 10
-2.334283464566929
 20
4.1939291338582683
 30
0.0
 10
-2.0850433070866141
 20
4.4130669291338585
 30
0.0
 10
-2.0850433070866141
 20
4.4130669291338585
 30
0.0
 10
-2.0850433070866141
 20
4.4130669291338585
 30
0.0
 10
-2.0850433070866141
 20
4.4130669291338585
 30
0.0
 10
-1.9349842519685041
 20
4.2320787401574806
 30
0.0
 10
-1.9349842519685041
 20
4.2320787401574806
 30
0.0
 10
-1.9349842519685041
 20
4.2320787401574806
 30
0.0
 10
-1.9349842519685041
 20
4.2320787401574806
 30
0.0
 10
-1.7874724409448819
 20
4.3617874015748033
 30
0.0
 10
-1.7874724409448819
 20
4.3617874015748033
 30
0.0
 10
-1.7874724409448819
 20
4.3617874015748033
 30
0.0
 10
-1.0490551181102363
 20
3.7592559055118113
 30
0.0
 10
-0.4783031496062992
 20
4.0701496062992124
 30
0.0
 10
-0.1875748031496063
 20
4.2172480314960632
 30
0.0
 10
-0.1875748031496063
 20
4.2172480314960632
 30
0.0
 10
0.1031535433070866
 20
4.364346456692914
 30
0.0
 10
0.741992125984252
 20
4.6632716535433074
 30
0.0
 10
1.5998858267716536
 20
3.9943740157480319
 30
0.0
 10
1.5998858267716536
 20
3.9943740157480319
 30
0.0
 10
1.5998858267716536
 20
3.9943740157480319
 30
0.0
 10
1.732228346456693
 20
4.0974842519685044
 30
0.0
 10
1.732228346456693
 20
4.0974842519685044
 30
0.0
 10
1.732228346456693
 20
4.0974842519685044
 30
0.0
 10
1.732228346456693
 20
4.0974842519685044
 30
0.0
 10
1.9054566929133858
 20
3.9026023622047243
 30
0.0
 10
1.9054566929133858
 20
3.9026023622047243
 30
0.0
 10
1.9054566929133858
 20
3.9026023622047243
 30
0.0
 10
1.9054566929133858
 20
3.9026023622047243
 30
0.0
 10
1.3789015748031497
 20
3.454925196850394
 30
0.0
 10
1.3789015748031497
 20
3.454925196850394
 30
0.0
 10
1.3789015748031497
 20
3.454925196850394
 30
0.0
 10
1.3789015748031497
 20
3.454925196850394
 30
0.0
 10
-1.6919173228346458
 20
3.454925196850394
 30
0.0
 10
-1.6919173228346458
 20
3.454925196850394
 30
0.0
  0
TEXT
  5
27
100
AcDbEntity
  8
Additional Graphics
100
AcDbText
 10
-0.45087
 20
3.248012
 30
0.0
 40
0.119999
  1
BA  1532
 51
-0.000002
  7
Bookman Old Style
100
AcDbText
  0
TEXT
  5
28
100
AcDbEntity
  8
Additional Graphics
100
AcDbText
 10
-0.529189
 20
3.060512
 30
0.0
 40
0.119999
  1
1\u+201d x 4-1/4\u+201d
 51
-0.000002
  7
Bookman Old Style
100
AcDbText
  0
SPLINE
  5
29
100
AcDbEntity
  8
Additional Graphics
 62
     9
100
AcDbSpline
210
0.0
220
0.0
230
1.0
 70
     1
 71
     3
 72
    20
 73
    16
 74
     0
 42
0.0000000001
 43
0.0000000001
 40
0.0
 40
0.0
 40
0.0
 40
0.0
 40
0.25
 40
0.25
 40
0.25
 40
0.25
 40
0.5
 40
0.5
 40
0.5
 40
0.5
 40
0.75
 40
0.75
 40
0.75
 40
0.75
 40
1.0
 40
1.0
 40
1.0
 40
1.0
 10
0.9881771653543308
 20
2.5370393700787401
 30
0.0
 10
0.9881771653543308
 20
2.5370393700787401
 30
0.0
 10
1.619992125984252
 20
2.1451850393700789
 30
0.0
 10
1.619992125984252
 20
2.1451850393700789
 30
0.0
 10
1.619992125984252
 20
2.1451850393700789
 30
0.0
 10
1.619992125984252
 20
2.1451850393700789
 30
0.0
 10
1.6239133858267718
 20
1.8133346456692914
 30
0.0
 10
1.6239133858267718
 20
1.8133346456692914
 30
0.0
 10
1.6239133858267718
 20
1.8133346456692914
 30
0.0
 10
1.6239133858267718
 20
1.8133346456692914
 30
0.0
 10
0.9920984251968504
 20
2.2051889763779529
 30
0.0
 10
0.9920984251968504
 20
2.2051889763779529
 30
0.0
 10
0.9920984251968504
 20
2.2051889763779529
 30
0.0
 10
0.9920984251968504
 20
2.2051889763779529
 30
0.0
 10
0.9881771653543308
 20
2.5370393700787401
 30
0.0
 10
0.9881771653543308
 20
2.5370393700787401
 30
0.0
  0
SPLINE
  5
2A
100
AcDbEntity
  8
Additional Graphics
370
     5
100
AcDbSpline
210
0.0
220
0.0
230
1.0
 70
     1
 71
     3
 72
    20
 73
    16
 74
     0
 42
0.0000000001
 43
0.0000000001
 40
0.0
 40
0.0
 40
0.0
 40
0.0
 40
0.25
 40
0.25
 40
0.25
 40
0.25
 40
0.5
 40
0.5
 40
0.5
 40
0.5
 40
0.75
 40
0.75
 40
0.75
 40
0.75
 40
1.0
 40
1.0
 40
1.0
 40
1.0
 10
0.9881771653543308
 20
2.5370393700787401
 30
0.0
 10
0.9881771653543308
 20
2.5370393700787401
 30
0.0
 10
1.619992125984252
 20
2.1451850393700789
 30
0.0
 10
1.619992125984252
 20
2.1451850393700789
 30
0.0
 10
1.619992125984252
 20
2.1451850393700789
 30
0.0
 10
1.619992125984252
 20
2.1451850393700789
 30
0.0
 10
1.6239133858267718
 20
1.8133346456692914
 30
0.0
 10
1.6239133858267718
 20
1.8133346456692914
 30
0.0
 10
1.6239133858267718
 20
1.8133346456692914
 30
0.0
 10
1.6239133858267718
 20
1.8133346456692914
 30
0.0
 10
0.9920984251968504
 20
2.2051889763779529
 30
0.0
 10
0.9920984251968504
 20
2.2051889763779529
 30
0.0
 10
0.9920984251968504
 20
2.2051889763779529
 30
0.0
 10
0.9920984251968504
 20
2.2051889763779529
 30
0.0
 10
0.9881771653543308
 20
2.5370393700787401
 30
0.0
 10
0.9881771653543308
 20
2.5370393700787401
 30
0.0
  0
SPLINE
  5
2B
100
AcDbEntity
  8
Additional Graphics
 62
   253
100
AcDbSpline
210
0.0
220
0.0
230
1.0
 70
     1
 71
     3
 72
    20
 73
    16
 74
     0
 42
0.0000000001
 43
0.0000000001
 40
0.0
 40
0.0
 40
0.0
 40
0.0
 40
0.25
 40
0.25
 40
0.25
 40
0.25
 40
0.5
 40
0.5
 40
0.5
 40
0.5
 40
0.75
 40
0.75
 40
0.75
 40
0.75
 40
1.0
 40
1.0
 40
1.0
 40
1.0
 10
0.9920984251968504
 20
2.2051889763779529
 30
0.0
 10
0.9920984251968504
 20
2.2051889763779529
 30
0.0
 10
1.6239133858267718
 20
1.8133346456692914
 30
0.0
 10
1.6239133858267718
 20
1.8133346456692914
 30
0.0
 10
1.6239133858267718
 20
1.8133346456692914
 30
0.0
 10
1.6239133858267718
 20
1.8133346456692914
 30
0.0
 10
1.3888425196850394
 20
1.8173700787401577
 30
0.0
 10
1.3888425196850394
 20
1.8173700787401577
 30
0.0
 10
1.3888425196850394
 20
1.8173700787401577
 30
0.0
 10
1.3888425196850394
 20
1.8173700787401577
 30
0.0
 10
0.7570275590551181
 20
2.2092244094488191
 30
0.0
 10
0.7570275590551181
 20
2.2092244094488191
 30
0.0
 10
0.7570275590551181
 20
2.2092244094488191
 30
0.0
 10
0.7570275590551181
 20
2.2092244094488191
 30
0.0
 10
0.9920984251968504
 20
2.2051889763779529
 30
0.0
 10
0.9920984251968504
 20
2.2051889763779529
 30
0.0
  0
SPLINE
  5
2C
100
AcDbEntity
  8
Additional Graphics
370
     5
100
AcDbSpline
210
0.0
220
0.0
230
1.0
 70
     1
 71
     3
 72
    20
 73
    16
 74
     0
 42
0.0000000001
 43
0.0000000001
 40
0.0
 40
0.0
 40
0.0
 40
0.0
 40
0.25
 40
0.25
 40
0.25
 40
0.25
 40
0.5
 40
0.5
 40
0.5
 40
0.5
 40
0.75
 40
0.75
 40
0.75
 40
0.75
 40
1.0
 40
1.0
 40
1.0
 40
1.0
 10
0.9920984251968504
 20
2.2051889763779529
 30
0.0
 10
0.9920984251968504
 20
2.2051889763779529
 30
0.0
 10
1.6239133858267718
 20
1.8133346456692914
 30
0.0
 10
1.6239133858267718
 20
1.8133346456692914
 30
0.0
 10
1.6239133858267718
 20
1.8133346456692914
 30
0.0
 10
1.6239133858267718
 20
1.8133346456692914
 30
0.0
 10
1.3888425196850394
 20
1.8173700787401577
 30
0.0
 10
1.3888425196850394
 20
1.8173700787401577
 30
0.0
 10
1.3888425196850394
 20
1.8173700787401577
 30
0.0
 10
1.3888425196850394
 20
1.8173700787401577
 30
0.0
 10
0.7570275590551181
 20
2.2092244094488191
 30
0.0
 10
0.7570275590551181
 20
2.2092244094488191
 30
0.0
 10
0.7570275590551181
 20
2.2092244094488191
 30
0.0
 10
0.7570275590551181
 20
2.2092244094488191
 30
0.0
 10
0.9920984251968504
 20
2.2051889763779529
 30
0.0
 10
0.9920984251968504
 20
2.2051889763779529
 30
0.0
  0
SPLINE
  5
2D
100
AcDbEntity
  8
Additional Graphics
 62
     9
100
AcDbSpline
210
0.0
220
0.0
230
1.0
 70
     1
 71
     3
 72
    20
 73
    16
 74
     0
 42
0.0000000001
 43
0.0000000001
 40
0.0
 40
0.0
 40
0.0
 40
0.0
 40
0.25
 40
0.25
 40
0.25
 40
0.25
 40
0.5
 40
0.5
 40
0.5
 40
0.5
 40
0.75
 40
0.75
 40
0.75
 40
0.75
 40
1.0
 40
1.0
 40
1.0
 40
1.0
 10
0.7570275590551181
 20
2.2092244094488191
 30
0.0
 10
0.7570275590551181
 20
2.2092244094488191
 30
0.0
 10
1.3888425196850394
 20
1.8173700787401577
 30
0.0
 10
1.3888425196850394
 20
1.8173700787401577
 30
0.0
 10
1.3888425196850394
 20
1.8173700787401577
 30
0.0
 10
1.3888425196850394
 20
1.8173700787401577
 30
0.0
 10
1.3911692913385827
 20
1.6209566929133858
 30
0.0
 10
1.3911692913385827
 20
1.6209566929133858
 30
0.0
 10
1.3911692913385827
 20
1.6209566929133858
 30
0.0
 10
1.3911692913385827
 20
1.6209566929133858
 30
0.0
 10
0.7593543307086614
 20
2.0128110236220471
 30
0.0
 10
0.7593543307086614
 20
2.0128110236220471
 30
0.0
 10
0.7593543307086614
 20
2.0128110236220471
 30
0.0
 10
0.7593543307086614
 20
2.0128110236220471
 30
0.0
 10
0.7570275590551181
 20
2.2092244094488191
 30
0.0
 10
0.7570275590551181
 20
2.2092244094488191
 30
0.0
  0
SPLINE
  5
2E
100
AcDbEntity
  8
Additional Graphics
370
     5
100
AcDbSpline
210
0.0
220
0.0
230
1.0
 70
     1
 71
     3
 72
    20
 73
    16
 74
     0
 42
0.0000000001
 43
0.0000000001
 40
0.0
 40
0.0
 40
0.0
 40
0.0
 40
0.25
 40
0.25
 40
0.25
 40
0.25
 40
0.5
 40
0.5
 40
0.5
 40
0.5
 40
0.75
 40
0.75
 40
0.75
 40
0.75
 40
1.0
 40
1.0
 40
1.0
 40
1.0
 10
0.7570275590551181
 20
2.2092244094488191
 30
0.0
 10
0.7570275590551181
 20
2.2092244094488191
 30
0.0
 10
1.3888425196850394
 20
1.8173700787401577
 30
0.0
 10
1.3888425196850394
 20
1.8173700787401577
 30
0.0
 10
1.3888425196850394
 20
1.8173700787401577
 30
0.0
 10
1.3888425196850394
 20
1.8173700787401577
 30
0.0
 10
1.3911692913385827
 20
1.6209566929133858
 30
0.0
 10
1.3911692913385827
 20
1.6209566929133858
 30
0.0
 10
1.3911692913385827
 20
1.6209566929133858
 30
0.0
 10
1.3911692913385827
 20
1.6209566929133858
 30
0.0
 10
0.7593543307086614
 20
2.0128110236220471
 30
0.0
 10
0.7593543307086614
 20
2.0128110236220471
 30
0.0
 10
0.7593543307086614
 20
2.0128110236220471
 30
0.0
 10
0.7593543307086614
 20
2.0128110236220471
 30
0.0
 10
0.7570275590551181
 20
2.2092244094488191
 30
0.0
 10
0.7570275590551181
 20
2.2092244094488191
 30
0.0
  0
SPLINE
  5
2F
100
AcDbEntity
  8
Additional Graphics
 62
     9
100
AcDbSpline
210
0.0
220
0.0
230
1.0
 70
     1
 71
     3
 72
    20
 73
    16
 74
     0
 42
0.0000000001
 43
0.0000000001
 40
0.0
 40
0.0
 40
0.0
 40
0.0
 40
0.25
 40
0.25
 40
0.25
 40
0.25
 40
0.5
 40
0.5
 40
0.5
 40
0.5
 40
0.75
 40
0.75
 40
0.75
 40
0.75
 40
1.0
 40
1.0
 40
1.0
 40
1.0
 10
0.7593543307086614
 20
2.0128110236220471
 30
0.0
 10
0.7593543307086614
 20
2.0128110236220471
 30
0.0
 10
1.3911692913385827
 20
1.6209566929133858
 30
0.0
 10
1.3911692913385827
 20
1.6209566929133858
 30
0.0
 10
1.3911692913385827
 20
1.6209566929133858
 30
0.0
 10
1.3911692913385827
 20
1.6209566929133858
 30
0.0
 10
1.3055393700787401
 20
1.6038858267716536
 30
0.0
 10
1.3055393700787401
 20
1.6038858267716536
 30
0.0
 10
1.3055393700787401
 20
1.6038858267716536
 30
0.0
 10
1.3055393700787401
 20
1.6038858267716536
 30
0.0
 10
0.673724409448819
 20
1.9957401574803151
 30
0.0
 10
0.673724409448819
 20
1.9957401574803151
 30
0.0
 10
0.673724409448819
 20
1.9957401574803151
 30
0.0
 10
0.673724409448819
 20
1.9957401574803151
 30
0.0
 10
0.7593543307086614
 20
2.0128110236220471
 30
0.0
 10
0.7593543307086614
 20
2.0128110236220471
 30
0.0
  0
SPLINE
  5
30
100
AcDbEntity
  8
Additional Graphics
 62
     9
100
AcDbSpline
210
0.0
220
0.0
230
1.0
 70
     1
 71
     3
 72
    20
 73
    16
 74
     0
 42
0.0000000001
 43
0.0000000001
 40
0.0
 40
0.0
 40
0.0
 40
0.0
 40
0.25
 40
0.25
 40
0.25
 40
0.25
 40
0.5
 40
0.5
 40
0.5
 40
0.5
 40
0.75
 40
0.75
 40
0.75
 40
0.75
 40
1.0
 40
1.0
 40
1.0
 40
1.0
 10
0.673724409448819
 20
1.9957401574803151
 30
0.0
 10
0.673724409448819
 20
1.9957401574803151
 30
0.0
 10
1.3055393700787401
 20
1.6038858267716536
 30
0.0
 10
1.3055393700787401
 20
1.6038858267716536
 30
0.0
 10
1.3055393700787401
 20
1.6038858267716536
 30
0.0
 10
1.3055393700787401
 20
1.6038858267716536
 30
0.0
 10
1.22448031496063
 20
1.584208661417323
 30
0.0
 10
1.22448031496063
 20
1.584208661417323
 30
0.0
 10
1.22448031496063
 20
1.584208661417323
 30
0.0
 10
1.22448031496063
 20
1.584208661417323
 30
0.0
 10
0.5926653543307087
 20
1.9760629921259842
 30
0.0
 10
0.5926653543307087
 20
1.9760629921259842
 30
0.0
 10
0.5926653543307087
 20
1.9760629921259842
 30
0.0
 10
0.5926653543307087
 20
1.9760629921259842
 30
0.0
 10
0.673724409448819
 20
1.9957401574803151
 30
0.0
 10
0.673724409448819
 20
1.9957401574803151
 30
0.0
  0
SPLINE
  5
31
100
AcDbEntity
  8
Additional Graphics
 62
     9
100
AcDbSpline
210
0.0
220
0.0
230
1.0
 70
     1
 71
     3
 72
    20
 73
    16
 74
     0
 42
0.0000000001
 43
0.0000000001
 40
0.0
 40
0.0
 40
0.0
 40
0.0
 40
0.25
 40
0.25
 40
0.25
 40
0.25
 40
0.5
 40
0.5
 40
0.5
 40
0.5
 40
0.75
 40
0.75
 40
0.75
 40
0.75
 40
1.0
 40
1.0
 40
1.0
 40
1.0
 10
0.5926653543307087
 20
1.9760629921259842
 30
0.0
 10
0.5926653543307087
 20
1.9760629921259842
 30
0.0
 10
1.22448031496063
 20
1.584208661417323
 30
0.0
 10
1.22448031496063
 20
1.584208661417323
 30
0.0
 10
1.22448031496063
 20
1.584208661417323
 30
0.0
 10
1.22448031496063
 20
1.584208661417323
 30
0.0
 10
1.1478464566929134
 20
1.5620866141732284
 30
0.0
 10
1.1478464566929134
 20
1.5620866141732284
 30
0.0
 10
1.1478464566929134
 20
1.5620866141732284
 30
0.0
 10
1.1478464566929134
 20
1.5620866141732284
 30
0.0
 10
0.5160314960629922
 20
1.9539409448818899
 30
0.0
 10
0.5160314960629922
 20
1.9539409448818899
 30
0.0
 10
0.5160314960629922
 20
1.9539409448818899
 30
0.0
 10
0.5160314960629922
 20
1.9539409448818899
 30
0.0
 10
0.5926653543307087
 20
1.9760629921259842
 30
0.0
 10
0.5926653543307087
 20
1.9760629921259842
 30
0.0
  0
SPLINE
  5
32
100
AcDbEntity
  8
Additional Graphics
 62
     9
100
AcDbSpline
210
0.0
220
0.0
230
1.0
 70
     1
 71
     3
 72
    20
 73
    16
 74
     0
 42
0.0000000001
 43
0.0000000001
 40
0.0
 40
0.0
 40
0.0
 40
0.0
 40
0.25
 40
0.25
 40
0.25
 40
0.25
 40
0.5
 40
0.5
 40
0.5
 40
0.5
 40
0.75
 40
0.75
 40
0.75
 40
0.75
 40
1.0
 40
1.0
 40
1.0
 40
1.0
 10
0.5160314960629922
 20
1.9539409448818899
 30
0.0
 10
0.5160314960629922
 20
1.9539409448818899
 30
0.0
 10
1.1478464566929134
 20
1.5620866141732284
 30
0.0
 10
1.1478464566929134
 20
1.5620866141732284
 30
0.0
 10
1.1478464566929134
 20
1.5620866141732284
 30
0.0
 10
1.1478464566929134
 20
1.5620866141732284
 30
0.0
 10
1.0755118110236221
 20
1.5376496062992127
 30
0.0
 10
1.0755118110236221
 20
1.5376496062992127
 30
0.0
 10
1.0755118110236221
 20
1.5376496062992127
 30
0.0
 10
1.0755118110236221
 20
1.5376496062992127
 30
0.0
 10
0.4436968503937008
 20
1.9295039370078741
 30
0.0
 10
0.4436968503937008
 20
1.9295039370078741
 30
0.0
 10
0.4436968503937008
 20
1.9295039370078741
 30
0.0
 10
0.4436968503937008
 20
1.9295039370078741
 30
0.0
 10
0.5160314960629922
 20
1.9539409448818899
 30
0.0
 10
0.5160314960629922
 20
1.9539409448818899
 30
0.0
  0
SPLINE
  5
33
100
AcDbEntity
  8
Additional Graphics
 62
     9
100
AcDbSpline
210
0.0
220
0.0
230
1.0
 70
     1
 71
     3
 72
    20
 73
    16
 74
     0
 42
0.0000000001
 43
0.0000000001
 40
0.0
 40
0.0
 40
0.0
 40
0.0
 40
0.25
 40
0.25
 40
0.25
 40
0.25
 40
0.5
 40
0.5
 40
0.5
 40
0.5
 40
0.75
 40
0.75
 40
0.75
 40
0.75
 40
1.0
 40
1.0
 40
1.0
 40
1.0
 10
0.4436968503937008
 20
1.9295039370078741
 30
0.0
 10
0.4436968503937008
 20
1.9295039370078741
 30
0.0
 10
1.0755118110236221
 20
1.5376496062992127
 30
0.0
 10
1.0755118110236221
 20
1.5376496062992127
 30
0.0
 10
1.0755118110236221
 20
1.5376496062992127
 30
0.0
 10
1.0755118110236221
 20
1.5376496062992127
 30
0.0
 10
1.0073346456692913
 20
1.5110551181102363
 30
0.0
 10
1.0073346456692913
 20
1.5110551181102363
 30
0.0
 10
1.0073346456692913
 20
1.5110551181102363
 30
0.0
 10
1.0073346456692913
 20
1.5110551181102363
 30
0.0
 10
0.3755196850393701
 20
1.9029094488188978
 30
0.0
 10
0.3755196850393701
 20
1.9029094488188978
 30
0.0
 10
0.3755196850393701
 20
1.9029094488188978
 30
0.0
 10
0.3755196850393701
 20
1.9029094488188978
 30
0.0
 10
0.4436968503937008
 20
1.9295039370078741
 30
0.0
 10
0.4436968503937008
 20
1.9295039370078741
 30
0.0
  0
SPLINE
  5
34
100
AcDbEntity
  8
Additional Graphics
 62
     9
100
AcDbSpline
210
0.0
220
0.0
230
1.0
 70
     1
 71
     3
 72
    20
 73
    16
 74
     0
 42
0.0000000001
 43
0.0000000001
 40
0.0
 40
0.0
 40
0.0
 40
0.0
 40
0.25
 40
0.25
 40
0.25
 40
0.25
 40
0.5
 40
0.5
 40
0.5
 40
0.5
 40
0.75
 40
0.75
 40
0.75
 40
0.75
 40
1.0
 40
1.0
 40
1.0
 40
1.0
 10
0.3755196850393701
 20
1.9029094488188978
 30
0.0
 10
0.3755196850393701
 20
1.9029094488188978
 30
0.0
 10
1.0073346456692913
 20
1.5110551181102363
 30
0.0
 10
1.0073346456692913
 20
1.5110551181102363
 30
0.0
 10
1.0073346456692913
 20
1.5110551181102363
 30
0.0
 10
1.0073346456692913
 20
1.5110551181102363
 30
0.0
 10
0.9431692913385827
 20
1.4824330708661417
 30
0.0
 10
0.9431692913385827
 20
1.4824330708661417
 30
0.0
 10
0.9431692913385827
 20
1.4824330708661417
 30
0.0
 10
0.9431692913385827
 20
1.4824330708661417
 30
0.0
 10
0.3113543307086614
 20
1.8742874015748032
 30
0.0
 10
0.3113543307086614
 20
1.8742874015748032
 30
0.0
 10
0.3113543307086614
 20
1.8742874015748032
 30
0.0
 10
0.3113543307086614
 20
1.8742874015748032
 30
0.0
 10
0.3755196850393701
 20
1.9029094488188978
 30
0.0
 10
0.3755196850393701
 20
1.9029094488188978
 30
0.0
  0
SPLINE
  5
35
100
AcDbEntity
  8
Additional Graphics
 62
     9
100
AcDbSpline
210
0.0
220
0.0
230
1.0
 70
     1
 71
     3
 72
    20
 73
    16
 74
     0
 42
0.0000000001
 43
0.0000000001
 40
0.0
 40
0.0
 40
0.0
 40
0.0
 40
0.25
 40
0.25
 40
0.25
 40
0.25
 40
0.5
 40
0.5
 40
0.5
 40
0.5
 40
0.75
 40
0.75
 40
0.75
 40
0.75
 40
1.0
 40
1.0
 40
1.0
 40
1.0
 10
0.3113543307086614
 20
1.8742874015748032
 30
0.0
 10
0.3113543307086614
 20
1.8742874015748032
 30
0.0
 10
0.9431692913385827
 20
1.4824330708661417
 30
0.0
 10
0.9431692913385827
 20
1.4824330708661417
 30
0.0
 10
0.9431692913385827
 20
1.4824330708661417
 30
0.0
 10
0.9431692913385827
 20
1.4824330708661417
 30
0.0
 10
0.8828897637795276
 20
1.4519370078740157
 30
0.0
 10
0.8828897637795276
 20
1.4519370078740157
 30
0.0
 10
0.8828897637795276
 20
1.4519370078740157
 30
0.0
 10
0.8828897637795276
 20
1.4519370078740157
 30
0.0
 10
0.2510748031496063
 20
1.8437913385826772
 30
0.0
 10
0.2510748031496063
 20
1.8437913385826772
 30
0.0
 10
0.2510748031496063
 20
1.8437913385826772
 30
0.0
 10
0.2510748031496063
 20
1.8437913385826772
 30
0.0
 10
0.3113543307086614
 20
1.8742874015748032
 30
0.0
 10
0.3113543307086614
 20
1.8742874015748032
 30
0.0
  0
SPLINE
  5
36
100
AcDbEntity
  8
Additional Graphics
 62
     9
100
AcDbSpline
210
0.0
220
0.0
230
1.0
 70
     1
 71
     3
 72
    20
 73
    16
 74
     0
 42
0.0000000001
 43
0.0000000001
 40
0.0
 40
0.0
 40
0.0
 40
0.0
 40
0.25
 40
0.25
 40
0.25
 40
0.25
 40
0.5
 40
0.5
 40
0.5
 40
0.5
 40
0.75
 40
0.75
 40
0.75
 40
0.75
 40
1.0
 40
1.0
 40
1.0
 40
1.0
 10
0.2510748031496063
 20
1.8437913385826772
 30
0.0
 10
0.2510748031496063
 20
1.8437913385826772
 30
0.0
 10
0.8828897637795276
 20
1.4519370078740157
 30
0.0
 10
0.8828897637795276
 20
1.4519370078740157
 30
0.0
 10
0.8828897637795276
 20
1.4519370078740157
 30
0.0
 10
0.8828897637795276
 20
1.4519370078740157
 30
0.0
 10
0.8263503937007874
 20
1.4197047244094489
 30
0.0
 10
0.8263503937007874
 20
1.4197047244094489
 30
0.0
 10
0.8263503937007874
 20
1.4197047244094489
 30
0.0
 10
0.8263503937007874
 20
1.4197047244094489
 30
0.0
 10
0.1945354330708662
 20
1.8115590551181102
 30
0.0
 10
0.1945354330708662
 20
1.8115590551181102
 30
0.0
 10
0.1945354330708662
 20
1.8115590551181102
 30
0.0
 10
0.1945354330708662
 20
1.8115590551181102
 30
0.0
 10
0.2510748031496063
 20
1.8437913385826772
 30
0.0
 10
0.2510748031496063
 20
1.8437913385826772
 30
0.0
  0
SPLINE
  5
37
100
AcDbEntity
  8
Additional Graphics
 62
     9
100
AcDbSpline
210
0.0
220
0.0
230
1.0
 70
     1
 71
     3
 72
    20
 73
    16
 74
     0
 42
0.0000000001
 43
0.0000000001
 40
0.0
 40
0.0
 40
0.0
 40
0.0
 40
0.25
 40
0.25
 40
0.25
 40
0.25
 40
0.5
 40
0.5
 40
0.5
 40
0.5
 40
0.75
 40
0.75
 40
0.75
 40
0.75
 40
1.0
 40
1.0
 40
1.0
 40
1.0
 10
0.1945354330708662
 20
1.8115590551181102
 30
0.0
 10
0.1945354330708662
 20
1.8115590551181102
 30
0.0
 10
0.8263503937007874
 20
1.4197047244094489
 30
0.0
 10
0.8263503937007874
 20
1.4197047244094489
 30
0.0
 10
0.8263503937007874
 20
1.4197047244094489
 30
0.0
 10
0.8263503937007874
 20
1.4197047244094489
 30
0.0
 10
0.7734330708661418
 20
1.3858897637795276
 30
0.0
 10
0.7734330708661418
 20
1.3858897637795276
 30
0.0
 10
0.7734330708661418
 20
1.3858897637795276
 30
0.0
 10
0.7734330708661418
 20
1.3858897637795276
 30
0.0
 10
0.1416181102362205
 20
1.777744094488189
 30
0.0
 10
0.1416181102362205
 20
1.777744094488189
 30
0.0
 10
0.1416181102362205
 20
1.777744094488189
 30
0.0
 10
0.1416181102362205
 20
1.777744094488189
 30
0.0
 10
0.1945354330708662
 20
1.8115590551181102
 30
0.0
 10
0.1945354330708662
 20
1.8115590551181102
 30
0.0
  0
SPLINE
  5
38
100
AcDbEntity
  8
Additional Graphics
 62
     9
100
AcDbSpline
210
0.0
220
0.0
230
1.0
 70
     1
 71
     3
 72
    20
 73
    16
 74
     0
 42
0.0000000001
 43
0.0000000001
 40
0.0
 40
0.0
 40
0.0
 40
0.0
 40
0.25
 40
0.25
 40
0.25
 40
0.25
 40
0.5
 40
0.5
 40
0.5
 40
0.5
 40
0.75
 40
0.75
 40
0.75
 40
0.75
 40
1.0
 40
1.0
 40
1.0
 40
1.0
 10
0.1416181102362205
 20
1.777744094488189
 30
0.0
 10
0.1416181102362205
 20
1.777744094488189
 30
0.0
 10
0.7734330708661418
 20
1.3858897637795276
 30
0.0
 10
0.7734330708661418
 20
1.3858897637795276
 30
0.0
 10
0.7734330708661418
 20
1.3858897637795276
 30
0.0
 10
0.7734330708661418
 20
1.3858897637795276
 30
0.0
 10
0.7239842519685039
 20
1.3506299212598425
 30
0.0
 10
0.7239842519685039
 20
1.3506299212598425
 30
0.0
 10
0.7239842519685039
 20
1.3506299212598425
 30
0.0
 10
0.7239842519685039
 20
1.3506299212598425
 30
0.0
 10
0.0921692913385827
 20
1.742484251968504
 30
0.0
 10
0.0921692913385827
 20
1.742484251968504
 30
0.0
 10
0.0921692913385827
 20
1.742484251968504
 30
0.0
 10
0.0921692913385827
 20
1.742484251968504
 30
0.0
 10
0.1416181102362205
 20
1.777744094488189
 30
0.0
 10
0.1416181102362205
 20
1.777744094488189
 30
0.0
  0
SPLINE
  5
39
100
AcDbEntity
  8
Additional Graphics
 62
     9
100
AcDbSpline
210
0.0
220
0.0
230
1.0
 70
     1
 71
     3
 72
    20
 73
    16
 74
     0
 42
0.0000000001
 43
0.0000000001
 40
0.0
 40
0.0
 40
0.0
 40
0.0
 40
0.25
 40
0.25
 40
0.25
 40
0.25
 40
0.5
 40
0.5
 40
0.5
 40
0.5
 40
0.75
 40
0.75
 40
0.75
 40
0.75
 40
1.0
 40
1.0
 40
1.0
 40
1.0
 10
0.0921692913385827
 20
1.742484251968504
 30
0.0
 10
0.0921692913385827
 20
1.742484251968504
 30
0.0
 10
0.7239842519685039
 20
1.3506299212598425
 30
0.0
 10
0.7239842519685039
 20
1.3506299212598425
 30
0.0
 10
0.7239842519685039
 20
1.3506299212598425
 30
0.0
 10
0.7239842519685039
 20
1.3506299212598425
 30
0.0
 10
0.6778740157480315
 20
1.3140748031496063
 30
0.0
 10
0.6778740157480315
 20
1.3140748031496063
 30
0.0
 10
0.6778740157480315
 20
1.3140748031496063
 30
0.0
 10
0.6778740157480315
 20
1.3140748031496063
 30
0.0
 10
0.0460590551181102
 20
1.7059291338582678
 30
0.0
 10
0.0460590551181102
 20
1.7059291338582678
 30
0.0
 10
0.0460590551181102
 20
1.7059291338582678
 30
0.0
 10
0.0460590551181102
 20
1.7059291338582678
 30
0.0
 10
0.0921692913385827
 20
1.742484251968504
 30
0.0
 10
0.0921692913385827
 20
1.742484251968504
 30
0.0
  0
SPLINE
  5
3A
100
AcDbEntity
  8
Additional Graphics
 62
     9
100
AcDbSpline
210
0.0
220
0.0
230
1.0
 70
     1
 71
     3
 72
    20
 73
    16
 74
     0
 42
0.0000000001
 43
0.0000000001
 40
0.0
 40
0.0
 40
0.0
 40
0.0
 40
0.25
 40
0.25
 40
0.25
 40
0.25
 40
0.5
 40
0.5
 40
0.5
 40
0.5
 40
0.75
 40
0.75
 40
0.75
 40
0.75
 40
1.0
 40
1.0
 40
1.0
 40
1.0
 10
0.0460590551181102
 20
1.7059291338582678
 30
0.0
 10
0.0460590551181102
 20
1.7059291338582678
 30
0.0
 10
0.6778740157480315
 20
1.3140748031496063
 30
0.0
 10
0.6778740157480315
 20
1.3140748031496063
 30
0.0
 10
0.6778740157480315
 20
1.3140748031496063
 30
0.0
 10
0.6778740157480315
 20
1.3140748031496063
 30
0.0
 10
0.6349606299212599
 20
1.2763503937007874
 30
0.0
 10
0.6349606299212599
 20
1.2763503937007874
 30
0.0
 10
0.6349606299212599
 20
1.2763503937007874
 30
0.0
 10
0.6349606299212599
 20
1.2763503937007874
 30
0.0
 10
0.0031456692913386
 20
1.6682047244094489
 30
0.0
 10
0.0031456692913386
 20
1.6682047244094489
 30
0.0
 10
0.0031456692913386
 20
1.6682047244094489
 30
0.0
 10
0.0031456692913386
 20
1.6682047244094489
 30
0.0
 10
0.0460590551181102
 20
1.7059291338582678
 30
0.0
 10
0.0460590551181102
 20
1.7059291338582678
 30
0.0
  0
SPLINE
  5
3B
100
AcDbEntity
  8
Additional Graphics
 62
     9
100
AcDbSpline
210
0.0
220
0.0
230
1.0
 70
     1
 71
     3
 72
    20
 73
    16
 74
     0
 42
0.0000000001
 43
0.0000000001
 40
0.0
 40
0.0
 40
0.0
 40
0.0
 40
0.25
 40
0.25
 40
0.25
 40
0.25
 40
0.5
 40
0.5
 40
0.5
 40
0.5
 40
0.75
 40
0.75
 40
0.75
 40
0.75
 40
1.0
 40
1.0
 40
1.0
 40
1.0
 10
0.0031456692913386
 20
1.6682047244094489
 30
0.0
 10
0.0031456692913386
 20
1.6682047244094489
 30
0.0
 10
0.6349606299212599
 20
1.2763503937007874
 30
0.0
 10
0.6349606299212599
 20
1.2763503937007874
 30
0.0
 10
0.6349606299212599
 20
1.2763503937007874
 30
0.0
 10
0.6349606299212599
 20
1.2763503937007874
 30
0.0
 10
0.5951220472440946
 20
1.2376259842519686
 30
0.0
 10
0.5951220472440946
 20
1.2376259842519686
 30
0.0
 10
0.5951220472440946
 20
1.2376259842519686
 30
0.0
 10
0.5951220472440946
 20
1.2376259842519686
 30
0.0
 10
-0.0366929133858268
 20
1.6294803149606301
 30
0.0
 10
-0.0366929133858268
 20
1.6294803149606301
 30
0.0
 10
-0.0366929133858268
 20
1.6294803149606301
 30
0.0
 10
-0.0366929133858268
 20
1.6294803149606301
 30
0.0
 10
0.0031456692913386
 20
1.6682047244094489
 30
0.0
 10
0.0031456692913386
 20
1.6682047244094489
 30
0.0
  0
SPLINE
  5
3C
100
AcDbEntity
  8
Additional Graphics
 62
     9
100
AcDbSpline
210
0.0
220
0.0
230
1.0
 70
     1
 71
     3
 72
    20
 73
    16
 74
     0
 42
0.0000000001
 43
0.0000000001
 40
0.0
 40
0.0
 40
0.0
 40
0.0
 40
0.25
 40
0.25
 40
0.25
 40
0.25
 40
0.5
 40
0.5
 40
0.5
 40
0.5
 40
0.75
 40
0.75
 40
0.75
 40
0.75
 40
1.0
 40
1.0
 40
1.0
 40
1.0
 10
-0.0366929133858268
 20
1.6294803149606301
 30
0.0
 10
-0.0366929133858268
 20
1.6294803149606301
 30
0.0
 10
0.5951220472440946
 20
1.2376259842519686
 30
0.0
 10
0.5951220472440946
 20
1.2376259842519686
 30
0.0
 10
0.5951220472440946
 20
1.2376259842519686
 30
0.0
 10
0.5951220472440946
 20
1.2376259842519686
 30
0.0
 10
0.5582047244094488
 20
1.1980275590551182
 30
0.0
 10
0.5582047244094488
 20
1.1980275590551182
 30
0.0
 10
0.5582047244094488
 20
1.1980275590551182
 30
0.0
 10
0.5582047244094488
 20
1.1980275590551182
 30
0.0
 10
-0.0736102362204724
 20
1.5898818897637796
 30
0.0
 10
-0.0736102362204724
 20
1.5898818897637796
 30
0.0
 10
-0.0736102362204724
 20
1.5898818897637796
 30
0.0
 10
-0.0736102362204724
 20
1.5898818897637796
 30
0.0
 10
-0.0366929133858268
 20
1.6294803149606301
 30
0.0
 10
-0.0366929133858268
 20
1.6294803149606301
 30
0.0
  0
SPLINE
  5
3D
100
AcDbEntity
  8
Additional Graphics
 62
     9
100
AcDbSpline
210
0.0
220
0.0
230
1.0
 70
     1
 71
     3
 72
    20
 73
    16
 74
     0
 42
0.0000000001
 43
0.0000000001
 40
0.0
 40
0.0
 40
0.0
 40
0.0
 40
0.25
 40
0.25
 40
0.25
 40
0.25
 40
0.5
 40
0.5
 40
0.5
 40
0.5
 40
0.75
 40
0.75
 40
0.75
 40
0.75
 40
1.0
 40
1.0
 40
1.0
 40
1.0
 10
-0.0736102362204724
 20
1.5898818897637796
 30
0.0
 10
-0.0736102362204724
 20
1.5898818897637796
 30
0.0
 10
0.5582047244094488
 20
1.1980275590551182
 30
0.0
 10
0.5582047244094488
 20
1.1980275590551182
 30
0.0
 10
0.5582047244094488
 20
1.1980275590551182
 30
0.0
 10
0.5582047244094488
 20
1.1980275590551182
 30
0.0
 10
0.5240826771653544
 20
1.1577086614173229
 30
0.0
 10
0.5240826771653544
 20
1.1577086614173229
 30
0.0
 10
0.5240826771653544
 20
1.1577086614173229
 30
0.0
 10
0.5240826771653544
 20
1.1577086614173229
 30
0.0
 10
-0.1077322834645669
 20
1.5495629921259844
 30
0.0
 10
-0.1077322834645669
 20
1.5495629921259844
 30
0.0
 10
-0.1077322834645669
 20
1.5495629921259844
 30
0.0
 10
-0.1077322834645669
 20
1.5495629921259844
 30
0.0
 10
-0.0736102362204724
 20
1.5898818897637796
 30
0.0
 10
-0.0736102362204724
 20
1.5898818897637796
 30
0.0
  0
SPLINE
  5
3E
100
AcDbEntity
  8
Additional Graphics
 62
     9
100
AcDbSpline
210
0.0
220
0.0
230
1.0
 70
     1
 71
     3
 72
    20
 73
    16
 74
     0
 42
0.0000000001
 43
0.0000000001
 40
0.0
 40
0.0
 40
0.0
 40
0.0
 40
0.25
 40
0.25
 40
0.25
 40
0.25
 40
0.5
 40
0.5
 40
0.5
 40
0.5
 40
0.75
 40
0.75
 40
0.75
 40
0.75
 40
1.0
 40
1.0
 40
1.0
 40
1.0
 10
-0.1077322834645669
 20
1.5495629921259844
 30
0.0
 10
-0.1077322834645669
 20
1.5495629921259844
 30
0.0
 10
0.5240826771653544
 20
1.1577086614173229
 30
0.0
 10
0.5240826771653544
 20
1.1577086614173229
 30
0.0
 10
0.5240826771653544
 20
1.1577086614173229
 30
0.0
 10
0.5240826771653544
 20
1.1577086614173229
 30
0.0
 10
0.4926141732283465
 20
1.1168031496062993
 30
0.0
 10
0.4926141732283465
 20
1.1168031496062993
 30
0.0
 10
0.4926141732283465
 20
1.1168031496062993
 30
0.0
 10
0.4926141732283465
 20
1.1168031496062993
 30
0.0
 10
-0.1392007874015748
 20
1.5086574803149606
 30
0.0
 10
-0.1392007874015748
 20
1.5086574803149606
 30
0.0
 10
-0.1392007874015748
 20
1.5086574803149606
 30
0.0
 10
-0.1392007874015748
 20
1.5086574803149606
 30
0.0
 10
-0.1077322834645669
 20
1.5495629921259844
 30
0.0
 10
-0.1077322834645669
 20
1.5495629921259844
 30
0.0
  0
SPLINE
  5
3F
100
AcDbEntity
  8
Additional Graphics
 62
     9
100
AcDbSpline
210
0.0
220
0.0
230
1.0
 70
     1
 71
     3
 72
    20
 73
    16
 74
     0
 42
0.0000000001
 43
0.0000000001
 40
0.0
 40
0.0
 40
0.0
 40
0.0
 40
0.25
 40
0.25
 40
0.25
 40
0.25
 40
0.5
 40
0.5
 40
0.5
 40
0.5
 40
0.75
 40
0.75
 40
0.75
 40
0.75
 40
1.0
 40
1.0
 40
1.0
 40
1.0
 10
-0.1392007874015748
 20
1.5086574803149606
 30
0.0
 10
-0.1392007874015748
 20
1.5086574803149606
 30
0.0
 10
0.4926141732283465
 20
1.1168031496062993
 30
0.0
 10
0.4926141732283465
 20
1.1168031496062993
 30
0.0
 10
0.4926141732283465
 20
1.1168031496062993
 30
0.0
 10
0.4926141732283465
 20
1.1168031496062993
 30
0.0
 10
0.4636771653543307
 20
1.0754724409448819
 30
0.0
 10
0.4636771653543307
 20
1.0754724409448819
 30
0.0
 10
0.4636771653543307
 20
1.0754724409448819
 30
0.0
 10
0.4636771653543307
 20
1.0754724409448819
 30
0.0
 10
-0.1681377952755906
 20
1.4673267716535434
 30
0.0
 10
-0.1681377952755906
 20
1.4673267716535434
 30
0.0
 10
-0.1681377952755906
 20
1.4673267716535434
 30
0.0
 10
-0.1681377952755906
 20
1.4673267716535434
 30
0.0
 10
-0.1392007874015748
 20
1.5086574803149606
 30
0.0
 10
-0.1392007874015748
 20
1.5086574803149606
 30
0.0
  0
SPLINE
  5
40
100
AcDbEntity
  8
Additional Graphics
 62
     9
100
AcDbSpline
210
0.0
220
0.0
230
1.0
 70
     1
 71
     3
 72
    20
 73
    16
 74
     0
 42
0.0000000001
 43
0.0000000001
 40
0.0
 40
0.0
 40
0.0
 40
0.0
 40
0.25
 40
0.25
 40
0.25
 40
0.25
 40
0.5
 40
0.5
 40
0.5
 40
0.5
 40
0.75
 40
0.75
 40
0.75
 40
0.75
 40
1.0
 40
1.0
 40
1.0
 40
1.0
 10
-0.1681377952755906
 20
1.4673267716535434
 30
0.0
 10
-0.1681377952755906
 20
1.4673267716535434
 30
0.0
 10
0.4636771653543307
 20
1.0754724409448819
 30
0.0
 10
0.4636771653543307
 20
1.0754724409448819
 30
0.0
 10
0.4636771653543307
 20
1.0754724409448819
 30
0.0
 10
0.4636771653543307
 20
1.0754724409448819
 30
0.0
 10
0.4371181102362205
 20
1.0338464566929135
 30
0.0
 10
0.4371181102362205
 20
1.0338464566929135
 30
0.0
 10
0.4371181102362205
 20
1.0338464566929135
 30
0.0
 10
0.4371181102362205
 20
1.0338464566929135
 30
0.0
 10
-0.1946968503937008
 20
1.4257007874015748
 30
0.0
 10
-0.1946968503937008
 20
1.4257007874015748
 30
0.0
 10
-0.1946968503937008
 20
1.4257007874015748
 30
0.0
 10
-0.1946968503937008
 20
1.4257007874015748
 30
0.0
 10
-0.1681377952755906
 20
1.4673267716535434
 30
0.0
 10
-0.1681377952755906
 20
1.4673267716535434
 30
0.0
  0
SPLINE
  5
41
100
AcDbEntity
  8
Additional Graphics
 62
     9
100
AcDbSpline
210
0.0
220
0.0
230
1.0
 70
     1
 71
     3
 72
    20
 73
    16
 74
     0
 42
0.0000000001
 43
0.0000000001
 40
0.0
 40
0.0
 40
0.0
 40
0.0
 40
0.25
 40
0.25
 40
0.25
 40
0.25
 40
0.5
 40
0.5
 40
0.5
 40
0.5
 40
0.75
 40
0.75
 40
0.75
 40
0.75
 40
1.0
 40
1.0
 40
1.0
 40
1.0
 10
-0.1946968503937008
 20
1.4257007874015748
 30
0.0
 10
-0.1946968503937008
 20
1.4257007874015748
 30
0.0
 10
0.4371181102362205
 20
1.0338464566929135
 30
0.0
 10
0.4371181102362205
 20
1.0338464566929135
 30
0.0
 10
0.4371181102362205
 20
1.0338464566929135
 30
0.0
 10
0.4371181102362205
 20
1.0338464566929135
 30
0.0
 10
0.4128110236220473
 20
0.9920748031496064
 30
0.0
 10
0.4128110236220473
 20
0.9920748031496064
 30
0.0
 10
0.4128110236220473
 20
0.9920748031496064
 30
0.0
 10
0.4128110236220473
 20
0.9920748031496064
 30
0.0
 10
-0.219003937007874
 20
1.3839291338582678
 30
0.0
 10
-0.219003937007874
 20
1.3839291338582678
 30
0.0
 10
-0.219003937007874
 20
1.3839291338582678
 30
0.0
 10
-0.219003937007874
 20
1.3839291338582678
 30
0.0
 10
-0.1946968503937008
 20
1.4257007874015748
 30
0.0
 10
-0.1946968503937008
 20
1.4257007874015748
 30
0.0
  0
SPLINE
  5
42
100
AcDbEntity
  8
Additional Graphics
 62
     9
100
AcDbSpline
210
0.0
220
0.0
230
1.0
 70
     1
 71
     3
 72
    20
 73
    16
 74
     0
 42
0.0000000001
 43
0.0000000001
 40
0.0
 40
0.0
 40
0.0
 40
0.0
 40
0.25
 40
0.25
 40
0.25
 40
0.25
 40
0.5
 40
0.5
 40
0.5
 40
0.5
 40
0.75
 40
0.75
 40
0.75
 40
0.75
 40
1.0
 40
1.0
 40
1.0
 40
1.0
 10
-0.219003937007874
 20
1.3839291338582678
 30
0.0
 10
-0.219003937007874
 20
1.3839291338582678
 30
0.0
 10
0.4128110236220473
 20
0.9920748031496064
 30
0.0
 10
0.4128110236220473
 20
0.9920748031496064
 30
0.0
 10
0.4128110236220473
 20
0.9920748031496064
 30
0.0
 10
0.4128110236220473
 20
0.9920748031496064
 30
0.0
 10
0.3906102362204725
 20
0.9502992125984252
 30
0.0
 10
0.3906102362204725
 20
0.9502992125984252
 30
0.0
 10
0.3906102362204725
 20
0.9502992125984252
 30
0.0
 10
0.3906102362204725
 20
0.9502992125984252
 30
0.0
 10
-0.2412047244094488
 20
1.3421535433070866
 30
0.0
 10
-0.2412047244094488
 20
1.3421535433070866
 30
0.0
 10
-0.2412047244094488
 20
1.3421535433070866
 30
0.0
 10
-0.2412047244094488
 20
1.3421535433070866
 30
0.0
 10
-0.219003937007874
 20
1.3839291338582678
 30
0.0
 10
-0.219003937007874
 20
1.3839291338582678
 30
0.0
  0
SPLINE
  5
43
100
AcDbEntity
  8
Additional Graphics
 62
     9
100
AcDbSpline
210
0.0
220
0.0
230
1.0
 70
     1
 71
     3
 72
    20
 73
    16
 74
     0
 42
0.0000000001
 43
0.0000000001
 40
0.0
 40
0.0
 40
0.0
 40
0.0
 40
0.25
 40
0.25
 40
0.25
 40
0.25
 40
0.5
 40
0.5
 40
0.5
 40
0.5
 40
0.75
 40
0.75
 40
0.75
 40
0.75
 40
1.0
 40
1.0
 40
1.0
 40
1.0
 10
-0.2412047244094488
 20
1.3421535433070866
 30
0.0
 10
-0.2412047244094488
 20
1.3421535433070866
 30
0.0
 10
0.3906102362204725
 20
0.9502992125984252
 30
0.0
 10
0.3906102362204725
 20
0.9502992125984252
 30
0.0
 10
0.3906102362204725
 20
0.9502992125984252
 30
0.0
 10
0.3906102362204725
 20
0.9502992125984252
 30
0.0
 10
0.3703897637795276
 20
0.9086653543307087
 30
0.0
 10
0.3703897637795276
 20
0.9086653543307087
 30
0.0
 10
0.3703897637795276
 20
0.9086653543307087
 30
0.0
 10
0.3703897637795276
 20
0.9086653543307087
 30
0.0
 10
-0.2614251968503937
 20
1.3005196850393701
 30
0.0
 10
-0.2614251968503937
 20
1.3005196850393701
 30
0.0
 10
-0.2614251968503937
 20
1.3005196850393701
 30
0.0
 10
-0.2614251968503937
 20
1.3005196850393701
 30
0.0
 10
-0.2412047244094488
 20
1.3421535433070866
 30
0.0
 10
-0.2412047244094488
 20
1.3421535433070866
 30
0.0
  0
SPLINE
  5
44
100
AcDbEntity
  8
Additional Graphics
 62
     9
100
AcDbSpline
210
0.0
220
0.0
230
1.0
 70
     1
 71
     3
 72
    20
 73
    16
 74
     0
 42
0.0000000001
 43
0.0000000001
 40
0.0
 40
0.0
 40
0.0
 40
0.0
 40
0.25
 40
0.25
 40
0.25
 40
0.25
 40
0.5
 40
0.5
 40
0.5
 40
0.5
 40
0.75
 40
0.75
 40
0.75
 40
0.75
 40
1.0
 40
1.0
 40
1.0
 40
1.0
 10
-0.2614251968503937
 20
1.3005196850393701
 30
0.0
 10
-0.2614251968503937
 20
1.3005196850393701
 30
0.0
 10
0.3703897637795276
 20
0.9086653543307087
 30
0.0
 10
0.3703897637795276
 20
0.9086653543307087
 30
0.0
 10
0.3703897637795276
 20
0.9086653543307087
 30
0.0
 10
0.3703897637795276
 20
0.9086653543307087
 30
0.0
 10
0.352003937007874
 20
0.8673149606299213
 30
0.0
 10
0.352003937007874
 20
0.8673149606299213
 30
0.0
 10
0.352003937007874
 20
0.8673149606299213
 30
0.0
 10
0.352003937007874
 20
0.8673149606299213
 30
0.0
 10
-0.2798110236220472
 20
1.2591692913385828
 30
0.0
 10
-0.2798110236220472
 20
1.2591692913385828
 30
0.0
 10
-0.2798110236220472
 20
1.2591692913385828
 30
0.0
 10
-0.2798110236220472
 20
1.2591692913385828
 30
0.0
 10
-0.2614251968503937
 20
1.3005196850393701
 30
0.0
 10
-0.2614251968503937
 20
1.3005196850393701
 30
0.0
  0
SPLINE
  5
45
100
AcDbEntity
  8
Additional Graphics
 62
     9
100
AcDbSpline
210
0.0
220
0.0
230
1.0
 70
     1
 71
     3
 72
    20
 73
    16
 74
     0
 42
0.0000000001
 43
0.0000000001
 40
0.0
 40
0.0
 40
0.0
 40
0.0
 40
0.25
 40
0.25
 40
0.25
 40
0.25
 40
0.5
 40
0.5
 40
0.5
 40
0.5
 40
0.75
 40
0.75
 40
0.75
 40
0.75
 40
1.0
 40
1.0
 40
1.0
 40
1.0
 10
-0.2798110236220472
 20
1.2591692913385828
 30
0.0
 10
-0.2798110236220472
 20
1.2591692913385828
 30
0.0
 10
0.352003937007874
 20
0.8673149606299213
 30
0.0
 10
0.352003937007874
 20
0.8673149606299213
 30
0.0
 10
0.352003937007874
 20
0.8673149606299213
 30
0.0
 10
0.352003937007874
 20
0.8673149606299213
 30
0.0
 10
0.3353267716535433
 20
0.8263976377952756
 30
0.0
 10
0.3353267716535433
 20
0.8263976377952756
 30
0.0
 10
0.3353267716535433
 20
0.8263976377952756
 30
0.0
 10
0.3353267716535433
 20
0.8263976377952756
 30
0.0
 10
-0.296488188976378
 20
1.218251968503937
 30
0.0
 10
-0.296488188976378
 20
1.218251968503937
 30
0.0
 10
-0.296488188976378
 20
1.218251968503937
 30
0.0
 10
-0.296488188976378
 20
1.218251968503937
 30
0.0
 10
-0.2798110236220472
 20
1.2591692913385828
 30
0.0
 10
-0.2798110236220472
 20
1.2591692913385828
 30
0.0
  0
SPLINE
  5
46
100
AcDbEntity
  8
Additional Graphics
 62
     9
100
AcDbSpline
210
0.0
220
0.0
230
1.0
 70
     1
 71
     3
 72
    20
 73
    16
 74
     0
 42
0.0000000001
 43
0.0000000001
 40
0.0
 40
0.0
 40
0.0
 40
0.0
 40
0.25
 40
0.25
 40
0.25
 40
0.25
 40
0.5
 40
0.5
 40
0.5
 40
0.5
 40
0.75
 40
0.75
 40
0.75
 40
0.75
 40
1.0
 40
1.0
 40
1.0
 40
1.0
 10
-0.296488188976378
 20
1.218251968503937
 30
0.0
 10
-0.296488188976378
 20
1.218251968503937
 30
0.0
 10
0.3353267716535433
 20
0.8263976377952756
 30
0.0
 10
0.3353267716535433
 20
0.8263976377952756
 30
0.0
 10
0.3353267716535433
 20
0.8263976377952756
 30
0.0
 10
0.3353267716535433
 20
0.8263976377952756
 30
0.0
 10
0.3202047244094488
 20
0.7860433070866142
 30
0.0
 10
0.3202047244094488
 20
0.7860433070866142
 30
0.0
 10
0.3202047244094488
 20
0.7860433070866142
 30
0.0
 10
0.3202047244094488
 20
0.7860433070866142
 30
0.0
 10
-0.3116102362204725
 20
1.1778976377952757
 30
0.0
 10
-0.3116102362204725
 20
1.1778976377952757
 30
0.0
 10
-0.3116102362204725
 20
1.1778976377952757
 30
0.0
 10
-0.3116102362204725
 20
1.1778976377952757
 30
0.0
 10
-0.296488188976378
 20
1.218251968503937
 30
0.0
 10
-0.296488188976378
 20
1.218251968503937
 30
0.0
  0
SPLINE
  5
47
100
AcDbEntity
  8
Additional Graphics
 62
     9
100
AcDbSpline
210
0.0
220
0.0
230
1.0
 70
     1
 71
     3
 72
    20
 73
    16
 74
     0
 42
0.0000000001
 43
0.0000000001
 40
0.0
 40
0.0
 40
0.0
 40
0.0
 40
0.25
 40
0.25
 40
0.25
 40
0.25
 40
0.5
 40
0.5
 40
0.5
 40
0.5
 40
0.75
 40
0.75
 40
0.75
 40
0.75
 40
1.0
 40
1.0
 40
1.0
 40
1.0
 10
-0.3116102362204725
 20
1.1778976377952757
 30
0.0
 10
-0.3116102362204725
 20
1.1778976377952757
 30
0.0
 10
0.3202047244094488
 20
0.7860433070866142
 30
0.0
 10
0.3202047244094488
 20
0.7860433070866142
 30
0.0
 10
0.3202047244094488
 20
0.7860433070866142
 30
0.0
 10
0.3202047244094488
 20
0.7860433070866142
 30
0.0
 10
0.3065275590551181
 20
0.7464173228346457
 30
0.0
 10
0.3065275590551181
 20
0.7464173228346457
 30
0.0
 10
0.3065275590551181
 20
0.7464173228346457
 30
0.0
 10
0.3065275590551181
 20
0.7464173228346457
 30
0.0
 10
-0.3252874015748032
 20
1.1382716535433071
 30
0.0
 10
-0.3252874015748032
 20
1.1382716535433071
 30
0.0
 10
-0.3252874015748032
 20
1.1382716535433071
 30
0.0
 10
-0.3252874015748032
 20
1.1382716535433071
 30
0.0
 10
-0.3116102362204725
 20
1.1778976377952757
 30
0.0
 10
-0.3116102362204725
 20
1.1778976377952757
 30
0.0
  0
SPLINE
  5
48
100
AcDbEntity
  8
Additional Graphics
 62
     9
100
AcDbSpline
210
0.0
220
0.0
230
1.0
 70
     1
 71
     3
 72
    20
 73
    16
 74
     0
 42
0.0000000001
 43
0.0000000001
 40
0.0
 40
0.0
 40
0.0
 40
0.0
 40
0.25
 40
0.25
 40
0.25
 40
0.25
 40
0.5
 40
0.5
 40
0.5
 40
0.5
 40
0.75
 40
0.75
 40
0.75
 40
0.75
 40
1.0
 40
1.0
 40
1.0
 40
1.0
 10
-0.3252874015748032
 20
1.1382716535433071
 30
0.0
 10
-0.3252874015748032
 20
1.1382716535433071
 30
0.0
 10
0.3065275590551181
 20
0.7464173228346457
 30
0.0
 10
0.3065275590551181
 20
0.7464173228346457
 30
0.0
 10
0.3065275590551181
 20
0.7464173228346457
 30
0.0
 10
0.3065275590551181
 20
0.7464173228346457
 30
0.0
 10
0.2941377952755906
 20
0.7076496062992126
 30
0.0
 10
0.2941377952755906
 20
0.7076496062992126
 30
0.0
 10
0.2941377952755906
 20
0.7076496062992126
 30
0.0
 10
0.2941377952755906
 20
0.7076496062992126
 30
0.0
 10
-0.3376771653543307
 20
1.0995039370078741
 30
0.0
 10
-0.3376771653543307
 20
1.0995039370078741
 30
0.0
 10
-0.3376771653543307
 20
1.0995039370078741
 30
0.0
 10
-0.3376771653543307
 20
1.0995039370078741
 30
0.0
 10
-0.3252874015748032
 20
1.1382716535433071
 30
0.0
 10
-0.3252874015748032
 20
1.1382716535433071
 30
0.0
  0
SPLINE
  5
49
100
AcDbEntity
  8
Additional Graphics
 62
     9
100
AcDbSpline
210
0.0
220
0.0
230
1.0
 70
     1
 71
     3
 72
    20
 73
    16
 74
     0
 42
0.0000000001
 43
0.0000000001
 40
0.0
 40
0.0
 40
0.0
 40
0.0
 40
0.25
 40
0.25
 40
0.25
 40
0.25
 40
0.5
 40
0.5
 40
0.5
 40
0.5
 40
0.75
 40
0.75
 40
0.75
 40
0.75
 40
1.0
 40
1.0
 40
1.0
 40
1.0
 10
-0.3376771653543307
 20
1.0995039370078741
 30
0.0
 10
-0.3376771653543307
 20
1.0995039370078741
 30
0.0
 10
0.2941377952755906
 20
0.7076496062992126
 30
0.0
 10
0.2941377952755906
 20
0.7076496062992126
 30
0.0
 10
0.2941377952755906
 20
0.7076496062992126
 30
0.0
 10
0.2941377952755906
 20
0.7076496062992126
 30
0.0
 10
0.2829094488188976
 20
0.6698858267716535
 30
0.0
 10
0.2829094488188976
 20
0.6698858267716535
 30
0.0
 10
0.2829094488188976
 20
0.6698858267716535
 30
0.0
 10
0.2829094488188976
 20
0.6698858267716535
 30
0.0
 10
-0.3489055118110236
 20
1.0617401574803149
 30
0.0
 10
-0.3489055118110236
 20
1.0617401574803149
 30
0.0
 10
-0.3489055118110236
 20
1.0617401574803149
 30
0.0
 10
-0.3489055118110236
 20
1.0617401574803149
 30
0.0
 10
-0.3376771653543307
 20
1.0995039370078741
 30
0.0
 10
-0.3376771653543307
 20
1.0995039370078741
 30
0.0
  0
SPLINE
  5
4A
100
AcDbEntity
  8
Additional Graphics
 62
     9
100
AcDbSpline
210
0.0
220
0.0
230
1.0
 70
     1
 71
     3
 72
    20
 73
    16
 74
     0
 42
0.0000000001
 43
0.0000000001
 40
0.0
 40
0.0
 40
0.0
 40
0.0
 40
0.25
 40
0.25
 40
0.25
 40
0.25
 40
0.5
 40
0.5
 40
0.5
 40
0.5
 40
0.75
 40
0.75
 40
0.75
 40
0.75
 40
1.0
 40
1.0
 40
1.0
 40
1.0
 10
-0.3489055118110236
 20
1.0617401574803149
 30
0.0
 10
-0.3489055118110236
 20
1.0617401574803149
 30
0.0
 10
0.2829094488188976
 20
0.6698858267716535
 30
0.0
 10
0.2829094488188976
 20
0.6698858267716535
 30
0.0
 10
0.2829094488188976
 20
0.6698858267716535
 30
0.0
 10
0.2829094488188976
 20
0.6698858267716535
 30
0.0
 10
0.2726968503937008
 20
0.6332677165354331
 30
0.0
 10
0.2726968503937008
 20
0.6332677165354331
 30
0.0
 10
0.2726968503937008
 20
0.6332677165354331
 30
0.0
 10
0.2726968503937008
 20
0.6332677165354331
 30
0.0
 10
-0.3591181102362205
 20
1.0251220472440945
 30
0.0
 10
-0.3591181102362205
 20
1.0251220472440945
 30
0.0
 10
-0.3591181102362205
 20
1.0251220472440945
 30
0.0
 10
-0.3591181102362205
 20
1.0251220472440945
 30
0.0
 10
-0.3489055118110236
 20
1.0617401574803149
 30
0.0
 10
-0.3489055118110236
 20
1.0617401574803149
 30
0.0
  0
SPLINE
  5
4B
100
AcDbEntity
  8
Additional Graphics
 62
     9
100
AcDbSpline
210
0.0
220
0.0
230
1.0
 70
     1
 71
     3
 72
    20
 73
    16
 74
     0
 42
0.0000000001
 43
0.0000000001
 40
0.0
 40
0.0
 40
0.0
 40
0.0
 40
0.25
 40
0.25
 40
0.25
 40
0.25
 40
0.5
 40
0.5
 40
0.5
 40
0.5
 40
0.75
 40
0.75
 40
0.75
 40
0.75
 40
1.0
 40
1.0
 40
1.0
 40
1.0
 10
-0.3591181102362205
 20
1.0251220472440945
 30
0.0
 10
-0.3591181102362205
 20
1.0251220472440945
 30
0.0
 10
0.2726968503937008
 20
0.6332677165354331
 30
0.0
 10
0.2726968503937008
 20
0.6332677165354331
 30
0.0
 10
0.2726968503937008
 20
0.6332677165354331
 30
0.0
 10
0.2726968503937008
 20
0.6332677165354331
 30
0.0
 10
0.2633740157480315
 20
0.5979527559055118
 30
0.0
 10
0.2633740157480315
 20
0.5979527559055118
 30
0.0
 10
0.2633740157480315
 20
0.5979527559055118
 30
0.0
 10
0.2633740157480315
 20
0.5979527559055118
 30
0.0
 10
-0.3684409448818898
 20
0.9898070866141733
 30
0.0
 10
-0.3684409448818898
 20
0.9898070866141733
 30
0.0
 10
-0.3684409448818898
 20
0.9898070866141733
 30
0.0
 10
-0.3684409448818898
 20
0.9898070866141733
 30
0.0
 10
-0.3591181102362205
 20
1.0251220472440945
 30
0.0
 10
-0.3591181102362205
 20
1.0251220472440945
 30
0.0
  0
SPLINE
  5
4C
100
AcDbEntity
  8
Additional Graphics
 62
     9
100
AcDbSpline
210
0.0
220
0.0
230
1.0
 70
     1
 71
     3
 72
    20
 73
    16
 74
     0
 42
0.0000000001
 43
0.0000000001
 40
0.0
 40
0.0
 40
0.0
 40
0.0
 40
0.25
 40
0.25
 40
0.25
 40
0.25
 40
0.5
 40
0.5
 40
0.5
 40
0.5
 40
0.75
 40
0.75
 40
0.75
 40
0.75
 40
1.0
 40
1.0
 40
1.0
 40
1.0
 10
-0.3684409448818898
 20
0.9898070866141733
 30
0.0
 10
-0.3684409448818898
 20
0.9898070866141733
 30
0.0
 10
0.2633740157480315
 20
0.5979527559055118
 30
0.0
 10
0.2633740157480315
 20
0.5979527559055118
 30
0.0
 10
0.2633740157480315
 20
0.5979527559055118
 30
0.0
 10
0.2633740157480315
 20
0.5979527559055118
 30
0.0
 10
0.2547992125984252
 20
0.5640669291338583
 30
0.0
 10
0.2547992125984252
 20
0.5640669291338583
 30
0.0
 10
0.2547992125984252
 20
0.5640669291338583
 30
0.0
 10
0.2547992125984252
 20
0.5640669291338583
 30
0.0
 10
-0.3770157480314961
 20
0.9559212598425197
 30
0.0
 10
-0.3770157480314961
 20
0.9559212598425197
 30
0.0
 10
-0.3770157480314961
 20
0.9559212598425197
 30
0.0
 10
-0.3770157480314961
 20
0.9559212598425197
 30
0.0
 10
-0.3684409448818898
 20
0.9898070866141733
 30
0.0
 10
-0.3684409448818898
 20
0.9898070866141733
 30
0.0
  0
SPLINE
  5
4D
100
AcDbEntity
  8
Additional Graphics
 62
     9
100
AcDbSpline
210
0.0
220
0.0
230
1.0
 70
     1
 71
     3
 72
    20
 73
    16
 74
     0
 42
0.0000000001
 43
0.0000000001
 40
0.0
 40
0.0
 40
0.0
 40
0.0
 40
0.25
 40
0.25
 40
0.25
 40
0.25
 40
0.5
 40
0.5
 40
0.5
 40
0.5
 40
0.75
 40
0.75
 40
0.75
 40
0.75
 40
1.0
 40
1.0
 40
1.0
 40
1.0
 10
-0.3770157480314961
 20
0.9559212598425197
 30
0.0
 10
-0.3770157480314961
 20
0.9559212598425197
 30
0.0
 10
0.2547992125984252
 20
0.5640669291338583
 30
0.0
 10
0.2547992125984252
 20
0.5640669291338583
 30
0.0
 10
0.2547992125984252
 20
0.5640669291338583
 30
0.0
 10
0.2547992125984252
 20
0.5640669291338583
 30
0.0
 10
0.2468385826771654
 20
0.5317677165354331
 30
0.0
 10
0.2468385826771654
 20
0.5317677165354331
 30
0.0
 10
0.2468385826771654
 20
0.5317677165354331
 30
0.0
 10
0.2468385826771654
 20
0.5317677165354331
 30
0.0
 10
-0.3849763779527559
 20
0.9236220472440945
 30
0.0
 10
-0.3849763779527559
 20
0.9236220472440945
 30
0.0
 10
-0.3849763779527559
 20
0.9236220472440945
 30
0.0
 10
-0.3849763779527559
 20
0.9236220472440945
 30
0.0
 10
-0.3770157480314961
 20
0.9559212598425197
 30
0.0
 10
-0.3770157480314961
 20
0.9559212598425197
 30
0.0
  0
SPLINE
  5
4E
100
AcDbEntity
  8
Additional Graphics
 62
     9
100
AcDbSpline
210
0.0
220
0.0
230
1.0
 70
     1
 71
     3
 72
    20
 73
    16
 74
     0
 42
0.0000000001
 43
0.0000000001
 40
0.0
 40
0.0
 40
0.0
 40
0.0
 40
0.25
 40
0.25
 40
0.25
 40
0.25
 40
0.5
 40
0.5
 40
0.5
 40
0.5
 40
0.75
 40
0.75
 40
0.75
 40
0.75
 40
1.0
 40
1.0
 40
1.0
 40
1.0
 10
-0.3849763779527559
 20
0.9236220472440945
 30
0.0
 10
-0.3849763779527559
 20
0.9236220472440945
 30
0.0
 10
0.2468385826771654
 20
0.5317677165354331
 30
0.0
 10
0.2468385826771654
 20
0.5317677165354331
 30
0.0
 10
0.2468385826771654
 20
0.5317677165354331
 30
0.0
 10
0.2468385826771654
 20
0.5317677165354331
 30
0.0
 10
0.2393503937007874
 20
0.5011889763779528
 30
0.0
 10
0.2393503937007874
 20
0.5011889763779528
 30
0.0
 10
0.2393503937007874
 20
0.5011889763779528
 30
0.0
 10
0.2393503937007874
 20
0.5011889763779528
 30
0.0
 10
-0.3924645669291339
 20
0.8930433070866142
 30
0.0
 10
-0.3924645669291339
 20
0.8930433070866142
 30
0.0
 10
-0.3924645669291339
 20
0.8930433070866142
 30
0.0
 10
-0.3924645669291339
 20
0.8930433070866142
 30
0.0
 10
-0.3849763779527559
 20
0.9236220472440945
 30
0.0
 10
-0.3849763779527559
 20
0.9236220472440945
 30
0.0
  0
SPLINE
  5
4F
100
AcDbEntity
  8
Additional Graphics
 62
     9
100
AcDbSpline
210
0.0
220
0.0
230
1.0
 70
     1
 71
     3
 72
    20
 73
    16
 74
     0
 42
0.0000000001
 43
0.0000000001
 40
0.0
 40
0.0
 40
0.0
 40
0.0
 40
0.25
 40
0.25
 40
0.25
 40
0.25
 40
0.5
 40
0.5
 40
0.5
 40
0.5
 40
0.75
 40
0.75
 40
0.75
 40
0.75
 40
1.0
 40
1.0
 40
1.0
 40
1.0
 10
-0.3924645669291339
 20
0.8930433070866142
 30
0.0
 10
-0.3924645669291339
 20
0.8930433070866142
 30
0.0
 10
0.2393503937007874
 20
0.5011889763779528
 30
0.0
 10
0.2393503937007874
 20
0.5011889763779528
 30
0.0
 10
0.2393503937007874
 20
0.5011889763779528
 30
0.0
 10
0.2393503937007874
 20
0.5011889763779528
 30
0.0
 10
0.2317165354330709
 20
0.470492125984252
 30
0.0
 10
0.2317165354330709
 20
0.470492125984252
 30
0.0
 10
0.2317165354330709
 20
0.470492125984252
 30
0.0
 10
0.2317165354330709
 20
0.470492125984252
 30
0.0
 10
-0.4000984251968504
 20
0.8623464566929134
 30
0.0
 10
-0.4000984251968504
 20
0.8623464566929134
 30
0.0
 10
-0.4000984251968504
 20
0.8623464566929134
 30
0.0
 10
-0.4000984251968504
 20
0.8623464566929134
 30
0.0
 10
-0.3924645669291339
 20
0.8930433070866142
 30
0.0
 10
-0.3924645669291339
 20
0.8930433070866142
 30
0.0
  0
SPLINE
  5
50
100
AcDbEntity
  8
Additional Graphics
 62
     9
100
AcDbSpline
210
0.0
220
0.0
230
1.0
 70
     1
 71
     3
 72
    20
 73
    16
 74
     0
 42
0.0000000001
 43
0.0000000001
 40
0.0
 40
0.0
 40
0.0
 40
0.0
 40
0.25
 40
0.25
 40
0.25
 40
0.25
 40
0.5
 40
0.5
 40
0.5
 40
0.5
 40
0.75
 40
0.75
 40
0.75
 40
0.75
 40
1.0
 40
1.0
 40
1.0
 40
1.0
 10
-0.4000984251968504
 20
0.8623464566929134
 30
0.0
 10
-0.4000984251968504
 20
0.8623464566929134
 30
0.0
 10
0.2317165354330709
 20
0.470492125984252
 30
0.0
 10
0.2317165354330709
 20
0.470492125984252
 30
0.0
 10
0.2317165354330709
 20
0.470492125984252
 30
0.0
 10
0.2317165354330709
 20
0.470492125984252
 30
0.0
 10
0.2232795275590551
 20
0.4378149606299213
 30
0.0
 10
0.2232795275590551
 20
0.4378149606299213
 30
0.0
 10
0.2232795275590551
 20
0.4378149606299213
 30
0.0
 10
0.2232795275590551
 20
0.4378149606299213
 30
0.0
 10
-0.4085354330708662
 20
0.8296692913385827
 30
0.0
 10
-0.4085354330708662
 20
0.8296692913385827
 30
0.0
 10
-0.4085354330708662
 20
0.8296692913385827
 30
0.0
 10
-0.4085354330708662
 20
0.8296692913385827
 30
0.0
 10
-0.4000984251968504
 20
0.8623464566929134
 30
0.0
 10
-0.4000984251968504
 20
0.8623464566929134
 30
0.0
  0
SPLINE
  5
51
100
AcDbEntity
  8
Additional Graphics
 62
     9
100
AcDbSpline
210
0.0
220
0.0
230
1.0
 70
     1
 71
     3
 72
    20
 73
    16
 74
     0
 42
0.0000000001
 43
0.0000000001
 40
0.0
 40
0.0
 40
0.0
 40
0.0
 40
0.25
 40
0.25
 40
0.25
 40
0.25
 40
0.5
 40
0.5
 40
0.5
 40
0.5
 40
0.75
 40
0.75
 40
0.75
 40
0.75
 40
1.0
 40
1.0
 40
1.0
 40
1.0
 10
-0.4085354330708662
 20
0.8296692913385827
 30
0.0
 10
-0.4085354330708662
 20
0.8296692913385827
 30
0.0
 10
0.2232795275590551
 20
0.4378149606299213
 30
0.0
 10
0.2232795275590551
 20
0.4378149606299213
 30
0.0
 10
0.2232795275590551
 20
0.4378149606299213
 30
0.0
 10
0.2232795275590551
 20
0.4378149606299213
 30
0.0
 10
0.2139133858267717
 20
0.4033149606299213
 30
0.0
 10
0.2139133858267717
 20
0.4033149606299213
 30
0.0
 10
0.2139133858267717
 20
0.4033149606299213
 30
0.0
 10
0.2139133858267717
 20
0.4033149606299213
 30
0.0
 10
-0.4179015748031496
 20
0.7951692913385827
 30
0.0
 10
-0.4179015748031496
 20
0.7951692913385827
 30
0.0
 10
-0.4179015748031496
 20
0.7951692913385827
 30
0.0
 10
-0.4179015748031496
 20
0.7951692913385827
 30
0.0
 10
-0.4085354330708662
 20
0.8296692913385827
 30
0.0
 10
-0.4085354330708662
 20
0.8296692913385827
 30
0.0
  0
SPLINE
  5
52
100
AcDbEntity
  8
Additional Graphics
 62
     9
100
AcDbSpline
210
0.0
220
0.0
230
1.0
 70
     1
 71
     3
 72
    20
 73
    16
 74
     0
 42
0.0000000001
 43
0.0000000001
 40
0.0
 40
0.0
 40
0.0
 40
0.0
 40
0.25
 40
0.25
 40
0.25
 40
0.25
 40
0.5
 40
0.5
 40
0.5
 40
0.5
 40
0.75
 40
0.75
 40
0.75
 40
0.75
 40
1.0
 40
1.0
 40
1.0
 40
1.0
 10
-0.4179015748031496
 20
0.7951692913385827
 30
0.0
 10
-0.4179015748031496
 20
0.7951692913385827
 30
0.0
 10
0.2139133858267717
 20
0.4033149606299213
 30
0.0
 10
0.2139133858267717
 20
0.4033149606299213
 30
0.0
 10
0.2139133858267717
 20
0.4033149606299213
 30
0.0
 10
0.2139133858267717
 20
0.4033149606299213
 30
0.0
 10
0.2034685039370079
 20
0.3671377952755905
 30
0.0
 10
0.2034685039370079
 20
0.3671377952755905
 30
0.0
 10
0.2034685039370079
 20
0.3671377952755905
 30
0.0
 10
0.2034685039370079
 20
0.3671377952755905
 30
0.0
 10
-0.4283464566929134
 20
0.758992125984252
 30
0.0
 10
-0.4283464566929134
 20
0.758992125984252
 30
0.0
 10
-0.4283464566929134
 20
0.758992125984252
 30
0.0
 10
-0.4283464566929134
 20
0.758992125984252
 30
0.0
 10
-0.4179015748031496
 20
0.7951692913385827
 30
0.0
 10
-0.4179015748031496
 20
0.7951692913385827
 30
0.0
  0
SPLINE
  5
53
100
AcDbEntity
  8
Additional Graphics
 62
     9
100
AcDbSpline
210
0.0
220
0.0
230
1.0
 70
     1
 71
     3
 72
    20
 73
    16
 74
     0
 42
0.0000000001
 43
0.0000000001
 40
0.0
 40
0.0
 40
0.0
 40
0.0
 40
0.25
 40
0.25
 40
0.25
 40
0.25
 40
0.5
 40
0.5
 40
0.5
 40
0.5
 40
0.75
 40
0.75
 40
0.75
 40
0.75
 40
1.0
 40
1.0
 40
1.0
 40
1.0
 10
-0.4283464566929134
 20
0.758992125984252
 30
0.0
 10
-0.4283464566929134
 20
0.758992125984252
 30
0.0
 10
0.2034685039370079
 20
0.3671377952755905
 30
0.0
 10
0.2034685039370079
 20
0.3671377952755905
 30
0.0
 10
0.2034685039370079
 20
0.3671377952755905
 30
0.0
 10
0.2034685039370079
 20
0.3671377952755905
 30
0.0
 10
0.1918149606299213
 20
0.3294488188976378
 30
0.0
 10
0.1918149606299213
 20
0.3294488188976378
 30
0.0
 10
0.1918149606299213
 20
0.3294488188976378
 30
0.0
 10
0.1918149606299213
 20
0.3294488188976378
 30
0.0
 10
-0.44
 20
0.7213031496062993
 30
0.0
 10
-0.44
 20
0.7213031496062993
 30
0.0
 10
-0.44
 20
0.7213031496062993
 30
0.0
 10
-0.44
 20
0.7213031496062993
 30
0.0
 10
-0.4283464566929134
 20
0.758992125984252
 30
0.0
 10
-0.4283464566929134
 20
0.758992125984252
 30
0.0
  0
SPLINE
  5
54
100
AcDbEntity
  8
Additional Graphics
 62
     9
100
AcDbSpline
210
0.0
220
0.0
230
1.0
 70
     1
 71
     3
 72
    20
 73
    16
 74
     0
 42
0.0000000001
 43
0.0000000001
 40
0.0
 40
0.0
 40
0.0
 40
0.0
 40
0.25
 40
0.25
 40
0.25
 40
0.25
 40
0.5
 40
0.5
 40
0.5
 40
0.5
 40
0.75
 40
0.75
 40
0.75
 40
0.75
 40
1.0
 40
1.0
 40
1.0
 40
1.0
 10
-0.44
 20
0.7213031496062993
 30
0.0
 10
-0.44
 20
0.7213031496062993
 30
0.0
 10
0.1918149606299213
 20
0.3294488188976378
 30
0.0
 10
0.1918149606299213
 20
0.3294488188976378
 30
0.0
 10
0.1918149606299213
 20
0.3294488188976378
 30
0.0
 10
0.1918149606299213
 20
0.3294488188976378
 30
0.0
 10
0.1788031496062992
 20
0.2903818897637795
 30
0.0
 10
0.1788031496062992
 20
0.2903818897637795
 30
0.0
 10
0.1788031496062992
 20
0.2903818897637795
 30
0.0
 10
0.1788031496062992
 20
0.2903818897637795
 30
0.0
 10
-0.4530118110236221
 20
0.6822362204724409
 30
0.0
 10
-0.4530118110236221
 20
0.6822362204724409
 30
0.0
 10
-0.4530118110236221
 20
0.6822362204724409
 30
0.0
 10
-0.4530118110236221
 20
0.6822362204724409
 30
0.0
 10
-0.44
 20
0.7213031496062993
 30
0.0
 10
-0.44
 20
0.7213031496062993
 30
0.0
  0
SPLINE
  5
55
100
AcDbEntity
  8
Additional Graphics
 62
     9
100
AcDbSpline
210
0.0
220
0.0
230
1.0
 70
     1
 71
     3
 72
    20
 73
    16
 74
     0
 42
0.0000000001
 43
0.0000000001
 40
0.0
 40
0.0
 40
0.0
 40
0.0
 40
0.25
 40
0.25
 40
0.25
 40
0.25
 40
0.5
 40
0.5
 40
0.5
 40
0.5
 40
0.75
 40
0.75
 40
0.75
 40
0.75
 40
1.0
 40
1.0
 40
1.0
 40
1.0
 10
-0.4530118110236221
 20
0.6822362204724409
 30
0.0
 10
-0.4530118110236221
 20
0.6822362204724409
 30
0.0
 10
0.1788031496062992
 20
0.2903818897637795
 30
0.0
 10
0.1788031496062992
 20
0.2903818897637795
 30
0.0
 10
0.1788031496062992
 20
0.2903818897637795
 30
0.0
 10
0.1788031496062992
 20
0.2903818897637795
 30
0.0
 10
0.1642992125984252
 20
0.2500984251968504
 30
0.0
 10
0.1642992125984252
 20
0.2500984251968504
 30
0.0
 10
0.1642992125984252
 20
0.2500984251968504
 30
0.0
 10
0.1642992125984252
 20
0.2500984251968504
 30
0.0
 10
-0.4675157480314961
 20
0.6419527559055118
 30
0.0
 10
-0.4675157480314961
 20
0.6419527559055118
 30
0.0
 10
-0.4675157480314961
 20
0.6419527559055118
 30
0.0
 10
-0.4675157480314961
 20
0.6419527559055118
 30
0.0
 10
-0.4530118110236221
 20
0.6822362204724409
 30
0.0
 10
-0.4530118110236221
 20
0.6822362204724409
 30
0.0
  0
SPLINE
  5
56
100
AcDbEntity
  8
Additional Graphics
 62
     9
100
AcDbSpline
210
0.0
220
0.0
230
1.0
 70
     1
 71
     3
 72
    20
 73
    16
 74
     0
 42
0.0000000001
 43
0.0000000001
 40
0.0
 40
0.0
 40
0.0
 40
0.0
 40
0.25
 40
0.25
 40
0.25
 40
0.25
 40
0.5
 40
0.5
 40
0.5
 40
0.5
 40
0.75
 40
0.75
 40
0.75
 40
0.75
 40
1.0
 40
1.0
 40
1.0
 40
1.0
 10
-0.4675157480314961
 20
0.6419527559055118
 30
0.0
 10
-0.4675157480314961
 20
0.6419527559055118
 30
0.0
 10
0.1642992125984252
 20
0.2500984251968504
 30
0.0
 10
0.1642992125984252
 20
0.2500984251968504
 30
0.0
 10
0.1642992125984252
 20
0.2500984251968504
 30
0.0
 10
0.1642992125984252
 20
0.2500984251968504
 30
0.0
 10
0.1481535433070866
 20
0.208744094488189
 30
0.0
 10
0.1481535433070866
 20
0.208744094488189
 30
0.0
 10
0.1481535433070866
 20
0.208744094488189
 30
0.0
 10
0.1481535433070866
 20
0.208744094488189
 30
0.0
 10
-0.4836614173228347
 20
0.6005984251968505
 30
0.0
 10
-0.4836614173228347
 20
0.6005984251968505
 30
0.0
 10
-0.4836614173228347
 20
0.6005984251968505
 30
0.0
 10
-0.4836614173228347
 20
0.6005984251968505
 30
0.0
 10
-0.4675157480314961
 20
0.6419527559055118
 30
0.0
 10
-0.4675157480314961
 20
0.6419527559055118
 30
0.0
  0
SPLINE
  5
57
100
AcDbEntity
  8
Additional Graphics
 62
     9
100
AcDbSpline
210
0.0
220
0.0
230
1.0
 70
     1
 71
     3
 72
    20
 73
    16
 74
     0
 42
0.0000000001
 43
0.0000000001
 40
0.0
 40
0.0
 40
0.0
 40
0.0
 40
0.25
 40
0.25
 40
0.25
 40
0.25
 40
0.5
 40
0.5
 40
0.5
 40
0.5
 40
0.75
 40
0.75
 40
0.75
 40
0.75
 40
1.0
 40
1.0
 40
1.0
 40
1.0
 10
-0.4836614173228347
 20
0.6005984251968505
 30
0.0
 10
-0.4836614173228347
 20
0.6005984251968505
 30
0.0
 10
0.1481535433070866
 20
0.208744094488189
 30
0.0
 10
0.1481535433070866
 20
0.208744094488189
 30
0.0
 10
0.1481535433070866
 20
0.208744094488189
 30
0.0
 10
0.1481535433070866
 20
0.208744094488189
 30
0.0
 10
0.130240157480315
 20
0.1664842519685039
 30
0.0
 10
0.130240157480315
 20
0.1664842519685039
 30
0.0
 10
0.130240157480315
 20
0.1664842519685039
 30
0.0
 10
0.130240157480315
 20
0.1664842519685039
 30
0.0
 10
-0.5015748031496063
 20
0.5583385826771654
 30
0.0
 10
-0.5015748031496063
 20
0.5583385826771654
 30
0.0
 10
-0.5015748031496063
 20
0.5583385826771654
 30
0.0
 10
-0.5015748031496063
 20
0.5583385826771654
 30
0.0
 10
-0.4836614173228347
 20
0.6005984251968505
 30
0.0
 10
-0.4836614173228347
 20
0.6005984251968505
 30
0.0
  0
SPLINE
  5
58
100
AcDbEntity
  8
Additional Graphics
 62
     9
100
AcDbSpline
210
0.0
220
0.0
230
1.0
 70
     1
 71
     3
 72
    20
 73
    16
 74
     0
 42
0.0000000001
 43
0.0000000001
 40
0.0
 40
0.0
 40
0.0
 40
0.0
 40
0.25
 40
0.25
 40
0.25
 40
0.25
 40
0.5
 40
0.5
 40
0.5
 40
0.5
 40
0.75
 40
0.75
 40
0.75
 40
0.75
 40
1.0
 40
1.0
 40
1.0
 40
1.0
 10
-0.5015748031496063
 20
0.5583385826771654
 30
0.0
 10
-0.5015748031496063
 20
0.5583385826771654
 30
0.0
 10
0.130240157480315
 20
0.1664842519685039
 30
0.0
 10
0.130240157480315
 20
0.1664842519685039
 30
0.0
 10
0.130240157480315
 20
0.1664842519685039
 30
0.0
 10
0.130240157480315
 20
0.1664842519685039
 30
0.0
 10
0.1104094488188976
 20
0.1234566929133858
 30
0.0
 10
0.1104094488188976
 20
0.1234566929133858
 30
0.0
 10
0.1104094488188976
 20
0.1234566929133858
 30
0.0
 10
0.1104094488188976
 20
0.1234566929133858
 30
0.0
 10
-0.5214055118110237
 20
0.5153110236220473
 30
0.0
 10
-0.5214055118110237
 20
0.5153110236220473
 30
0.0
 10
-0.5214055118110237
 20
0.5153110236220473
 30
0.0
 10
-0.5214055118110237
 20
0.5153110236220473
 30
0.0
 10
-0.5015748031496063
 20
0.5583385826771654
 30
0.0
 10
-0.5015748031496063
 20
0.5583385826771654
 30
0.0
  0
SPLINE
  5
59
100
AcDbEntity
  8
Additional Graphics
 62
     9
100
AcDbSpline
210
0.0
220
0.0
230
1.0
 70
     1
 71
     3
 72
    20
 73
    16
 74
     0
 42
0.0000000001
 43
0.0000000001
 40
0.0
 40
0.0
 40
0.0
 40
0.0
 40
0.25
 40
0.25
 40
0.25
 40
0.25
 40
0.5
 40
0.5
 40
0.5
 40
0.5
 40
0.75
 40
0.75
 40
0.75
 40
0.75
 40
1.0
 40
1.0
 40
1.0
 40
1.0
 10
-0.5214055118110237
 20
0.5153110236220473
 30
0.0
 10
-0.5214055118110237
 20
0.5153110236220473
 30
0.0
 10
0.1104094488188976
 20
0.1234566929133858
 30
0.0
 10
0.1104094488188976
 20
0.1234566929133858
 30
0.0
 10
0.1104094488188976
 20
0.1234566929133858
 30
0.0
 10
0.1104094488188976
 20
0.1234566929133858
 30
0.0
 10
0.0885236220472441
 20
0.0798149606299213
 30
0.0
 10
0.0885236220472441
 20
0.0798149606299213
 30
0.0
 10
0.0885236220472441
 20
0.0798149606299213
 30
0.0
 10
0.0885236220472441
 20
0.0798149606299213
 30
0.0
 10
-0.5432913385826772
 20
0.4716692913385827
 30
0.0
 10
-0.5432913385826772
 20
0.4716692913385827
 30
0.0
 10
-0.5432913385826772
 20
0.4716692913385827
 30
0.0
 10
-0.5432913385826772
 20
0.4716692913385827
 30
0.0
 10
-0.5214055118110237
 20
0.5153110236220473
 30
0.0
 10
-0.5214055118110237
 20
0.5153110236220473
 30
0.0
  0
SPLINE
  5
5A
100
AcDbEntity
  8
Additional Graphics
 62
     9
100
AcDbSpline
210
0.0
220
0.0
230
1.0
 70
     1
 71
     3
 72
    20
 73
    16
 74
     0
 42
0.0000000001
 43
0.0000000001
 40
0.0
 40
0.0
 40
0.0
 40
0.0
 40
0.25
 40
0.25
 40
0.25
 40
0.25
 40
0.5
 40
0.5
 40
0.5
 40
0.5
 40
0.75
 40
0.75
 40
0.75
 40
0.75
 40
1.0
 40
1.0
 40
1.0
 40
1.0
 10
-0.5432913385826772
 20
0.4716692913385827
 30
0.0
 10
-0.5432913385826772
 20
0.4716692913385827
 30
0.0
 10
0.0885236220472441
 20
0.0798149606299213
 30
0.0
 10
0.0885236220472441
 20
0.0798149606299213
 30
0.0
 10
0.0885236220472441
 20
0.0798149606299213
 30
0.0
 10
0.0885236220472441
 20
0.0798149606299213
 30
0.0
 10
0.0644409448818898
 20
0.0357086614173228
 30
0.0
 10
0.0644409448818898
 20
0.0357086614173228
 30
0.0
 10
0.0644409448818898
 20
0.0357086614173228
 30
0.0
 10
0.0644409448818898
 20
0.0357086614173228
 30
0.0
 10
-0.5673740157480315
 20
0.4275629921259843
 30
0.0
 10
-0.5673740157480315
 20
0.4275629921259843
 30
0.0
 10
-0.5673740157480315
 20
0.4275629921259843
 30
0.0
 10
-0.5673740157480315
 20
0.4275629921259843
 30
0.0
 10
-0.5432913385826772
 20
0.4716692913385827
 30
0.0
 10
-0.5432913385826772
 20
0.4716692913385827
 30
0.0
  0
SPLINE
  5
5B
100
AcDbEntity
  8
Additional Graphics
 62
     9
100
AcDbSpline
210
0.0
220
0.0
230
1.0
 70
     1
 71
     3
 72
    20
 73
    16
 74
     0
 42
0.0000000001
 43
0.0000000001
 40
0.0
 40
0.0
 40
0.0
 40
0.0
 40
0.25
 40
0.25
 40
0.25
 40
0.25
 40
0.5
 40
0.5
 40
0.5
 40
0.5
 40
0.75
 40
0.75
 40
0.75
 40
0.75
 40
1.0
 40
1.0
 40
1.0
 40
1.0
 10
-0.5673740157480315
 20
0.4275629921259843
 30
0.0
 10
-0.5673740157480315
 20
0.4275629921259843
 30
0.0
 10
0.0644409448818898
 20
0.0357086614173228
 30
0.0
 10
0.0644409448818898
 20
0.0357086614173228
 30
0.0
 10
0.0644409448818898
 20
0.0357086614173228
 30
0.0
 10
0.0644409448818898
 20
0.0357086614173228
 30
0.0
 10
0.0380314960629921
 20
-0.0087007874015748
 30
0.0
 10
0.0380314960629921
 20
-0.0087007874015748
 30
0.0
 10
0.0380314960629921
 20
-0.0087007874015748
 30
0.0
 10
0.0380314960629921
 20
-0.0087007874015748
 30
0.0
 10
-0.5937834645669292
 20
0.3831535433070866
 30
0.0
 10
-0.5937834645669292
 20
0.3831535433070866
 30
0.0
 10
-0.5937834645669292
 20
0.3831535433070866
 30
0.0
 10
-0.5937834645669292
 20
0.3831535433070866
 30
0.0
 10
-0.5673740157480315
 20
0.4275629921259843
 30
0.0
 10
-0.5673740157480315
 20
0.4275629921259843
 30
0.0
  0
SPLINE
  5
5C
100
AcDbEntity
  8
Additional Graphics
 62
     9
100
AcDbSpline
210
0.0
220
0.0
230
1.0
 70
     1
 71
     3
 72
    20
 73
    16
 74
     0
 42
0.0000000001
 43
0.0000000001
 40
0.0
 40
0.0
 40
0.0
 40
0.0
 40
0.25
 40
0.25
 40
0.25
 40
0.25
 40
0.5
 40
0.5
 40
0.5
 40
0.5
 40
0.75
 40
0.75
 40
0.75
 40
0.75
 40
1.0
 40
1.0
 40
1.0
 40
1.0
 10
-0.5937834645669292
 20
0.3831535433070866
 30
0.0
 10
-0.5937834645669292
 20
0.3831535433070866
 30
0.0
 10
0.0380314960629921
 20
-0.0087007874015748
 30
0.0
 10
0.0380314960629921
 20
-0.0087007874015748
 30
0.0
 10
0.0380314960629921
 20
-0.0087007874015748
 30
0.0
 10
0.0380314960629921
 20
-0.0087007874015748
 30
0.0
 10
0.0091338582677165
 20
-0.0532755905511811
 30
0.0
 10
0.0091338582677165
 20
-0.0532755905511811
 30
0.0
 10
0.0091338582677165
 20
-0.0532755905511811
 30
0.0
 10
0.0091338582677165
 20
-0.0532755905511811
 30
0.0
 10
-0.6226811023622048
 20
0.3385787401574804
 30
0.0
 10
-0.6226811023622048
 20
0.3385787401574804
 30
0.0
 10
-0.6226811023622048
 20
0.3385787401574804
 30
0.0
 10
-0.6226811023622048
 20
0.3385787401574804
 30
0.0
 10
-0.5937834645669292
 20
0.3831535433070866
 30
0.0
 10
-0.5937834645669292
 20
0.3831535433070866
 30
0.0
  0
SPLINE
  5
5D
100
AcDbEntity
  8
Additional Graphics
 62
     9
100
AcDbSpline
210
0.0
220
0.0
230
1.0
 70
     1
 71
     3
 72
    20
 73
    16
 74
     0
 42
0.0000000001
 43
0.0000000001
 40
0.0
 40
0.0
 40
0.0
 40
0.0
 40
0.25
 40
0.25
 40
0.25
 40
0.25
 40
0.5
 40
0.5
 40
0.5
 40
0.5
 40
0.75
 40
0.75
 40
0.75
 40
0.75
 40
1.0
 40
1.0
 40
1.0
 40
1.0
 10
-0.6226811023622048
 20
0.3385787401574804
 30
0.0
 10
-0.6226811023622048
 20
0.3385787401574804
 30
0.0
 10
0.0091338582677165
 20
-0.0532755905511811
 30
0.0
 10
0.0091338582677165
 20
-0.0532755905511811
 30
0.0
 10
0.0091338582677165
 20
-0.0532755905511811
 30
0.0
 10
0.0091338582677165
 20
-0.0532755905511811
 30
0.0
 10
-0.0223740157480315
 20
-0.0978503937007874
 30
0.0
 10
-0.0223740157480315
 20
-0.0978503937007874
 30
0.0
 10
-0.0223740157480315
 20
-0.0978503937007874
 30
0.0
 10
-0.0223740157480315
 20
-0.0978503937007874
 30
0.0
 10
-0.6541889763779528
 20
0.294003937007874
 30
0.0
 10
-0.6541889763779528
 20
0.294003937007874
 30
0.0
 10
-0.6541889763779528
 20
0.294003937007874
 30
0.0
 10
-0.6541889763779528
 20
0.294003937007874
 30
0.0
 10
-0.6226811023622048
 20
0.3385787401574804
 30
0.0
 10
-0.6226811023622048
 20
0.3385787401574804
 30
0.0
  0
SPLINE
  5
5E
100
AcDbEntity
  8
Additional Graphics
 62
     9
100
AcDbSpline
210
0.0
220
0.0
230
1.0
 70
     1
 71
     3
 72
    20
 73
    16
 74
     0
 42
0.0000000001
 43
0.0000000001
 40
0.0
 40
0.0
 40
0.0
 40
0.0
 40
0.25
 40
0.25
 40
0.25
 40
0.25
 40
0.5
 40
0.5
 40
0.5
 40
0.5
 40
0.75
 40
0.75
 40
0.75
 40
0.75
 40
1.0
 40
1.0
 40
1.0
 40
1.0
 10
-0.6541889763779528
 20
0.294003937007874
 30
0.0
 10
-0.6541889763779528
 20
0.294003937007874
 30
0.0
 10
-0.0223740157480315
 20
-0.0978503937007874
 30
0.0
 10
-0.0223740157480315
 20
-0.0978503937007874
 30
0.0
 10
-0.0223740157480315
 20
-0.0978503937007874
 30
0.0
 10
-0.0223740157480315
 20
-0.0978503937007874
 30
0.0
 10
-0.0566456692913386
 20
-0.1422874015748032
 30
0.0
 10
-0.0566456692913386
 20
-0.1422874015748032
 30
0.0
 10
-0.0566456692913386
 20
-0.1422874015748032
 30
0.0
 10
-0.0566456692913386
 20
-0.1422874015748032
 30
0.0
 10
-0.6884606299212599
 20
0.2495669291338583
 30
0.0
 10
-0.6884606299212599
 20
0.2495669291338583
 30
0.0
 10
-0.6884606299212599
 20
0.2495669291338583
 30
0.0
 10
-0.6884606299212599
 20
0.2495669291338583
 30
0.0
 10
-0.6541889763779528
 20
0.294003937007874
 30
0.0
 10
-0.6541889763779528
 20
0.294003937007874
 30
0.0
  0
SPLINE
  5
5F
100
AcDbEntity
  8
Additional Graphics
 62
     9
100
AcDbSpline
210
0.0
220
0.0
230
1.0
 70
     1
 71
     3
 72
    20
 73
    16
 74
     0
 42
0.0000000001
 43
0.0000000001
 40
0.0
 40
0.0
 40
0.0
 40
0.0
 40
0.25
 40
0.25
 40
0.25
 40
0.25
 40
0.5
 40
0.5
 40
0.5
 40
0.5
 40
0.75
 40
0.75
 40
0.75
 40
0.75
 40
1.0
 40
1.0
 40
1.0
 40
1.0
 10
-0.6884606299212599
 20
0.2495669291338583
 30
0.0
 10
-0.6884606299212599
 20
0.2495669291338583
 30
0.0
 10
-0.0566456692913386
 20
-0.1422874015748032
 30
0.0
 10
-0.0566456692913386
 20
-0.1422874015748032
 30
0.0
 10
-0.0566456692913386
 20
-0.1422874015748032
 30
0.0
 10
-0.0566456692913386
 20
-0.1422874015748032
 30
0.0
 10
-0.0937992125984252
 20
-0.1864133858267717
 30
0.0
 10
-0.0937992125984252
 20
-0.1864133858267717
 30
0.0
 10
-0.0937992125984252
 20
-0.1864133858267717
 30
0.0
 10
-0.0937992125984252
 20
-0.1864133858267717
 30
0.0
 10
-0.7256141732283465
 20
0.2054409448818898
 30
0.0
 10
-0.7256141732283465
 20
0.2054409448818898
 30
0.0
 10
-0.7256141732283465
 20
0.2054409448818898
 30
0.0
 10
-0.7256141732283465
 20
0.2054409448818898
 30
0.0
 10
-0.6884606299212599
 20
0.2495669291338583
 30
0.0
 10
-0.6884606299212599
 20
0.2495669291338583
 30
0.0
  0
SPLINE
  5
60
100
AcDbEntity
  8
Additional Graphics
 62
     9
100
AcDbSpline
210
0.0
220
0.0
230
1.0
 70
     1
 71
     3
 72
    20
 73
    16
 74
     0
 42
0.0000000001
 43
0.0000000001
 40
0.0
 40
0.0
 40
0.0
 40
0.0
 40
0.25
 40
0.25
 40
0.25
 40
0.25
 40
0.5
 40
0.5
 40
0.5
 40
0.5
 40
0.75
 40
0.75
 40
0.75
 40
0.75
 40
1.0
 40
1.0
 40
1.0
 40
1.0
 10
-0.7256141732283465
 20
0.2054409448818898
 30
0.0
 10
-0.7256141732283465
 20
0.2054409448818898
 30
0.0
 10
-0.0937992125984252
 20
-0.1864133858267717
 30
0.0
 10
-0.0937992125984252
 20
-0.1864133858267717
 30
0.0
 10
-0.0937992125984252
 20
-0.1864133858267717
 30
0.0
 10
-0.0937992125984252
 20
-0.1864133858267717
 30
0.0
 10
-0.133996062992126
 20
-0.2301023622047244
 30
0.0
 10
-0.133996062992126
 20
-0.2301023622047244
 30
0.0
 10
-0.133996062992126
 20
-0.2301023622047244
 30
0.0
 10
-0.133996062992126
 20
-0.2301023622047244
 30
0.0
 10
-0.7658110236220472
 20
0.161751968503937
 30
0.0
 10
-0.7658110236220472
 20
0.161751968503937
 30
0.0
 10
-0.7658110236220472
 20
0.161751968503937
 30
0.0
 10
-0.7658110236220472
 20
0.161751968503937
 30
0.0
 10
-0.7256141732283465
 20
0.2054409448818898
 30
0.0
 10
-0.7256141732283465
 20
0.2054409448818898
 30
0.0
  0
SPLINE
  5
61
100
AcDbEntity
  8
Additional Graphics
 62
     9
100
AcDbSpline
210
0.0
220
0.0
230
1.0
 70
     1
 71
     3
 72
    20
 73
    16
 74
     0
 42
0.0000000001
 43
0.0000000001
 40
0.0
 40
0.0
 40
0.0
 40
0.0
 40
0.25
 40
0.25
 40
0.25
 40
0.25
 40
0.5
 40
0.5
 40
0.5
 40
0.5
 40
0.75
 40
0.75
 40
0.75
 40
0.75
 40
1.0
 40
1.0
 40
1.0
 40
1.0
 10
-0.7658110236220472
 20
0.161751968503937
 30
0.0
 10
-0.7658110236220472
 20
0.161751968503937
 30
0.0
 10
-0.133996062992126
 20
-0.2301023622047244
 30
0.0
 10
-0.133996062992126
 20
-0.2301023622047244
 30
0.0
 10
-0.133996062992126
 20
-0.2301023622047244
 30
0.0
 10
-0.133996062992126
 20
-0.2301023622047244
 30
0.0
 10
-0.1773700787401575
 20
-0.2731850393700788
 30
0.0
 10
-0.1773700787401575
 20
-0.2731850393700788
 30
0.0
 10
-0.1773700787401575
 20
-0.2731850393700788
 30
0.0
 10
-0.1773700787401575
 20
-0.2731850393700788
 30
0.0
 10
-0.8091850393700788
 20
0.1186692913385827
 30
0.0
 10
-0.8091850393700788
 20
0.1186692913385827
 30
0.0
 10
-0.8091850393700788
 20
0.1186692913385827
 30
0.0
 10
-0.8091850393700788
 20
0.1186692913385827
 30
0.0
 10
-0.7658110236220472
 20
0.161751968503937
 30
0.0
 10
-0.7658110236220472
 20
0.161751968503937
 30
0.0
  0
SPLINE
  5
62
100
AcDbEntity
  8
Additional Graphics
 62
     9
100
AcDbSpline
210
0.0
220
0.0
230
1.0
 70
     1
 71
     3
 72
    20
 73
    16
 74
     0
 42
0.0000000001
 43
0.0000000001
 40
0.0
 40
0.0
 40
0.0
 40
0.0
 40
0.25
 40
0.25
 40
0.25
 40
0.25
 40
0.5
 40
0.5
 40
0.5
 40
0.5
 40
0.75
 40
0.75
 40
0.75
 40
0.75
 40
1.0
 40
1.0
 40
1.0
 40
1.0
 10
-0.8091850393700788
 20
0.1186692913385827
 30
0.0
 10
-0.8091850393700788
 20
0.1186692913385827
 30
0.0
 10
-0.1773700787401575
 20
-0.2731850393700788
 30
0.0
 10
-0.1773700787401575
 20
-0.2731850393700788
 30
0.0
 10
-0.1773700787401575
 20
-0.2731850393700788
 30
0.0
 10
-0.1773700787401575
 20
-0.2731850393700788
 30
0.0
 10
-0.2240629921259843
 20
-0.3155275590551182
 30
0.0
 10
-0.2240629921259843
 20
-0.3155275590551182
 30
0.0
 10
-0.2240629921259843
 20
-0.3155275590551182
 30
0.0
 10
-0.2240629921259843
 20
-0.3155275590551182
 30
0.0
 10
-0.8558779527559055
 20
0.0763267716535433
 30
0.0
 10
-0.8558779527559055
 20
0.0763267716535433
 30
0.0
 10
-0.8558779527559055
 20
0.0763267716535433
 30
0.0
 10
-0.8558779527559055
 20
0.0763267716535433
 30
0.0
 10
-0.8091850393700788
 20
0.1186692913385827
 30
0.0
 10
-0.8091850393700788
 20
0.1186692913385827
 30
0.0
  0
SPLINE
  5
63
100
AcDbEntity
  8
Additional Graphics
 62
     9
100
AcDbSpline
210
0.0
220
0.0
230
1.0
 70
     1
 71
     3
 72
    20
 73
    16
 74
     0
 42
0.0000000001
 43
0.0000000001
 40
0.0
 40
0.0
 40
0.0
 40
0.0
 40
0.25
 40
0.25
 40
0.25
 40
0.25
 40
0.5
 40
0.5
 40
0.5
 40
0.5
 40
0.75
 40
0.75
 40
0.75
 40
0.75
 40
1.0
 40
1.0
 40
1.0
 40
1.0
 10
-0.8558779527559055
 20
0.0763267716535433
 30
0.0
 10
-0.8558779527559055
 20
0.0763267716535433
 30
0.0
 10
-0.2240629921259843
 20
-0.3155275590551182
 30
0.0
 10
-0.2240629921259843
 20
-0.3155275590551182
 30
0.0
 10
-0.2240629921259843
 20
-0.3155275590551182
 30
0.0
 10
-0.2240629921259843
 20
-0.3155275590551182
 30
0.0
 10
-0.2742086614173229
 20
-0.3569606299212599
 30
0.0
 10
-0.2742086614173229
 20
-0.3569606299212599
 30
0.0
 10
-0.2742086614173229
 20
-0.3569606299212599
 30
0.0
 10
-0.2742086614173229
 20
-0.3569606299212599
 30
0.0
 10
-0.9060236220472442
 20
0.0348937007874016
 30
0.0
 10
-0.9060236220472442
 20
0.0348937007874016
 30
0.0
 10
-0.9060236220472442
 20
0.0348937007874016
 30
0.0
 10
-0.9060236220472442
 20
0.0348937007874016
 30
0.0
 10
-0.8558779527559055
 20
0.0763267716535433
 30
0.0
 10
-0.8558779527559055
 20
0.0763267716535433
 30
0.0
  0
SPLINE
  5
64
100
AcDbEntity
  8
Additional Graphics
 62
     9
100
AcDbSpline
210
0.0
220
0.0
230
1.0
 70
     1
 71
     3
 72
    20
 73
    16
 74
     0
 42
0.0000000001
 43
0.0000000001
 40
0.0
 40
0.0
 40
0.0
 40
0.0
 40
0.25
 40
0.25
 40
0.25
 40
0.25
 40
0.5
 40
0.5
 40
0.5
 40
0.5
 40
0.75
 40
0.75
 40
0.75
 40
0.75
 40
1.0
 40
1.0
 40
1.0
 40
1.0
 10
-0.9060236220472442
 20
0.0348937007874016
 30
0.0
 10
-0.9060236220472442
 20
0.0348937007874016
 30
0.0
 10
-0.2742086614173229
 20
-0.3569606299212599
 30
0.0
 10
-0.2742086614173229
 20
-0.3569606299212599
 30
0.0
 10
-0.2742086614173229
 20
-0.3569606299212599
 30
0.0
 10
-0.2742086614173229
 20
-0.3569606299212599
 30
0.0
 10
-0.3279527559055118
 20
-0.3973425196850394
 30
0.0
 10
-0.3279527559055118
 20
-0.3973425196850394
 30
0.0
 10
-0.3279527559055118
 20
-0.3973425196850394
 30
0.0
 10
-0.3279527559055118
 20
-0.3973425196850394
 30
0.0
 10
-0.9597677165354331
 20
-0.005488188976378
 30
0.0
 10
-0.9597677165354331
 20
-0.005488188976378
 30
0.0
 10
-0.9597677165354331
 20
-0.005488188976378
 30
0.0
 10
-0.9597677165354331
 20
-0.005488188976378
 30
0.0
 10
-0.9060236220472442
 20
0.0348937007874016
 30
0.0
 10
-0.9060236220472442
 20
0.0348937007874016
 30
0.0
  0
SPLINE
  5
65
100
AcDbEntity
  8
Additional Graphics
 62
     9
100
AcDbSpline
210
0.0
220
0.0
230
1.0
 70
     1
 71
     3
 72
    20
 73
    16
 74
     0
 42
0.0000000001
 43
0.0000000001
 40
0.0
 40
0.0
 40
0.0
 40
0.0
 40
0.25
 40
0.25
 40
0.25
 40
0.25
 40
0.5
 40
0.5
 40
0.5
 40
0.5
 40
0.75
 40
0.75
 40
0.75
 40
0.75
 40
1.0
 40
1.0
 40
1.0
 40
1.0
 10
-0.9597677165354331
 20
-0.005488188976378
 30
0.0
 10
-0.9597677165354331
 20
-0.005488188976378
 30
0.0
 10
-0.3279527559055118
 20
-0.3973425196850394
 30
0.0
 10
-0.3279527559055118
 20
-0.3973425196850394
 30
0.0
 10
-0.3279527559055118
 20
-0.3973425196850394
 30
0.0
 10
-0.3279527559055118
 20
-0.3973425196850394
 30
0.0
 10
-0.3854330708661418
 20
-0.4365157480314961
 30
0.0
 10
-0.3854330708661418
 20
-0.4365157480314961
 30
0.0
 10
-0.3854330708661418
 20
-0.4365157480314961
 30
0.0
 10
-0.3854330708661418
 20
-0.4365157480314961
 30
0.0
 10
-1.017248031496063
 20
-0.0446614173228347
 30
0.0
 10
-1.017248031496063
 20
-0.0446614173228347
 30
0.0
 10
-1.017248031496063
 20
-0.0446614173228347
 30
0.0
 10
-1.017248031496063
 20
-0.0446614173228347
 30
0.0
 10
-0.9597677165354331
 20
-0.005488188976378
 30
0.0
 10
-0.9597677165354331
 20
-0.005488188976378
 30
0.0
  0
SPLINE
  5
66
100
AcDbEntity
  8
Additional Graphics
 62
     9
100
AcDbSpline
210
0.0
220
0.0
230
1.0
 70
     1
 71
     3
 72
    20
 73
    16
 74
     0
 42
0.0000000001
 43
0.0000000001
 40
0.0
 40
0.0
 40
0.0
 40
0.0
 40
0.25
 40
0.25
 40
0.25
 40
0.25
 40
0.5
 40
0.5
 40
0.5
 40
0.5
 40
0.75
 40
0.75
 40
0.75
 40
0.75
 40
1.0
 40
1.0
 40
1.0
 40
1.0
 10
-1.017248031496063
 20
-0.0446614173228347
 30
0.0
 10
-1.017248031496063
 20
-0.0446614173228347
 30
0.0
 10
-0.3854330708661418
 20
-0.4365157480314961
 30
0.0
 10
-0.3854330708661418
 20
-0.4365157480314961
 30
0.0
 10
-0.3854330708661418
 20
-0.4365157480314961
 30
0.0
 10
-0.3854330708661418
 20
-0.4365157480314961
 30
0.0
 10
-0.4467952755905512
 20
-0.4743385826771654
 30
0.0
 10
-0.4467952755905512
 20
-0.4743385826771654
 30
0.0
 10
-0.4467952755905512
 20
-0.4743385826771654
 30
0.0
 10
-0.4467952755905512
 20
-0.4743385826771654
 30
0.0
 10
-1.0786102362204726
 20
-0.0824842519685039
 30
0.0
 10
-1.0786102362204726
 20
-0.0824842519685039
 30
0.0
 10
-1.0786102362204726
 20
-0.0824842519685039
 30
0.0
 10
-1.0786102362204726
 20
-0.0824842519685039
 30
0.0
 10
-1.017248031496063
 20
-0.0446614173228347
 30
0.0
 10
-1.017248031496063
 20
-0.0446614173228347
 30
0.0
  0
SPLINE
  5
67
100
AcDbEntity
  8
Additional Graphics
 62
     9
100
AcDbSpline
210
0.0
220
0.0
230
1.0
 70
     1
 71
     3
 72
    20
 73
    16
 74
     0
 42
0.0000000001
 43
0.0000000001
 40
0.0
 40
0.0
 40
0.0
 40
0.0
 40
0.25
 40
0.25
 40
0.25
 40
0.25
 40
0.5
 40
0.5
 40
0.5
 40
0.5
 40
0.75
 40
0.75
 40
0.75
 40
0.75
 40
1.0
 40
1.0
 40
1.0
 40
1.0
 10
-1.0786102362204726
 20
-0.0824842519685039
 30
0.0
 10
-1.0786102362204726
 20
-0.0824842519685039
 30
0.0
 10
-0.4467952755905512
 20
-0.4743385826771654
 30
0.0
 10
-0.4467952755905512
 20
-0.4743385826771654
 30
0.0
 10
-0.4467952755905512
 20
-0.4743385826771654
 30
0.0
 10
-0.4467952755905512
 20
-0.4743385826771654
 30
0.0
 10
-0.5121692913385827
 20
-0.5106456692913386
 30
0.0
 10
-0.5121692913385827
 20
-0.5106456692913386
 30
0.0
 10
-0.5121692913385827
 20
-0.5106456692913386
 30
0.0
 10
-0.5121692913385827
 20
-0.5106456692913386
 30
0.0
 10
-1.143984251968504
 20
-0.1187913385826772
 30
0.0
 10
-1.143984251968504
 20
-0.1187913385826772
 30
0.0
 10
-1.143984251968504
 20
-0.1187913385826772
 30
0.0
 10
-1.143984251968504
 20
-0.1187913385826772
 30
0.0
 10
-1.0786102362204726
 20
-0.0824842519685039
 30
0.0
 10
-1.0786102362204726
 20
-0.0824842519685039
 30
0.0
  0
SPLINE
  5
68
100
AcDbEntity
  8
Additional Graphics
 62
     9
100
AcDbSpline
210
0.0
220
0.0
230
1.0
 70
     1
 71
     3
 72
    20
 73
    16
 74
     0
 42
0.0000000001
 43
0.0000000001
 40
0.0
 40
0.0
 40
0.0
 40
0.0
 40
0.25
 40
0.25
 40
0.25
 40
0.25
 40
0.5
 40
0.5
 40
0.5
 40
0.5
 40
0.75
 40
0.75
 40
0.75
 40
0.75
 40
1.0
 40
1.0
 40
1.0
 40
1.0
 10
-1.143984251968504
 20
-0.1187913385826772
 30
0.0
 10
-1.143984251968504
 20
-0.1187913385826772
 30
0.0
 10
-0.5121692913385827
 20
-0.5106456692913386
 30
0.0
 10
-0.5121692913385827
 20
-0.5106456692913386
 30
0.0
 10
-0.5121692913385827
 20
-0.5106456692913386
 30
0.0
 10
-0.5121692913385827
 20
-0.5106456692913386
 30
0.0
 10
-0.5817047244094489
 20
-0.5452952755905512
 30
0.0
 10
-0.5817047244094489
 20
-0.5452952755905512
 30
0.0
 10
-0.5817047244094489
 20
-0.5452952755905512
 30
0.0
 10
-0.5817047244094489
 20
-0.5452952755905512
 30
0.0
 10
-1.2135196850393701
 20
-0.1534409448818898
 30
0.0
 10
-1.2135196850393701
 20
-0.1534409448818898
 30
0.0
 10
-1.2135196850393701
 20
-0.1534409448818898
 30
0.0
 10
-1.2135196850393701
 20
-0.1534409448818898
 30
0.0
 10
-1.143984251968504
 20
-0.1187913385826772
 30
0.0
 10
-1.143984251968504
 20
-0.1187913385826772
 30
0.0
  0
SPLINE
  5
69
100
AcDbEntity
  8
Additional Graphics
 62
     9
100
AcDbSpline
210
0.0
220
0.0
230
1.0
 70
     1
 71
     3
 72
    20
 73
    16
 74
     0
 42
0.0000000001
 43
0.0000000001
 40
0.0
 40
0.0
 40
0.0
 40
0.0
 40
0.25
 40
0.25
 40
0.25
 40
0.25
 40
0.5
 40
0.5
 40
0.5
 40
0.5
 40
0.75
 40
0.75
 40
0.75
 40
0.75
 40
1.0
 40
1.0
 40
1.0
 40
1.0
 10
-1.2135196850393701
 20
-0.1534409448818898
 30
0.0
 10
-1.2135196850393701
 20
-0.1534409448818898
 30
0.0
 10
-0.5817047244094489
 20
-0.5452952755905512
 30
0.0
 10
-0.5817047244094489
 20
-0.5452952755905512
 30
0.0
 10
-0.5817047244094489
 20
-0.5452952755905512
 30
0.0
 10
-0.5817047244094489
 20
-0.5452952755905512
 30
0.0
 10
-0.6555354330708662
 20
-0.5781299212598425
 30
0.0
 10
-0.6555354330708662
 20
-0.5781299212598425
 30
0.0
 10
-0.6555354330708662
 20
-0.5781299212598425
 30
0.0
 10
-0.6555354330708662
 20
-0.5781299212598425
 30
0.0
 10
-1.2873503937007875
 20
-0.1862755905511811
 30
0.0
 10
-1.2873503937007875
 20
-0.1862755905511811
 30
0.0
 10
-1.2873503937007875
 20
-0.1862755905511811
 30
0.0
 10
-1.2873503937007875
 20
-0.1862755905511811
 30
0.0
 10
-1.2135196850393701
 20
-0.1534409448818898
 30
0.0
 10
-1.2135196850393701
 20
-0.1534409448818898
 30
0.0
  0
SPLINE
  5
6A
100
AcDbEntity
  8
Additional Graphics
 62
     9
100
AcDbSpline
210
0.0
220
0.0
230
1.0
 70
     1
 71
     3
 72
    20
 73
    16
 74
     0
 42
0.0000000001
 43
0.0000000001
 40
0.0
 40
0.0
 40
0.0
 40
0.0
 40
0.25
 40
0.25
 40
0.25
 40
0.25
 40
0.5
 40
0.5
 40
0.5
 40
0.5
 40
0.75
 40
0.75
 40
0.75
 40
0.75
 40
1.0
 40
1.0
 40
1.0
 40
1.0
 10
-1.2873503937007875
 20
-0.1862755905511811
 30
0.0
 10
-1.2873503937007875
 20
-0.1862755905511811
 30
0.0
 10
-0.6555354330708662
 20
-0.5781299212598425
 30
0.0
 10
-0.6555354330708662
 20
-0.5781299212598425
 30
0.0
 10
-0.6555354330708662
 20
-0.5781299212598425
 30
0.0
 10
-0.6555354330708662
 20
-0.5781299212598425
 30
0.0
 10
-0.7338110236220473
 20
-0.6090118110236221
 30
0.0
 10
-0.7338110236220473
 20
-0.6090118110236221
 30
0.0
 10
-0.7338110236220473
 20
-0.6090118110236221
 30
0.0
 10
-0.7338110236220473
 20
-0.6090118110236221
 30
0.0
 10
-1.3656259842519685
 20
-0.2171574803149606
 30
0.0
 10
-1.3656259842519685
 20
-0.2171574803149606
 30
0.0
 10
-1.3656259842519685
 20
-0.2171574803149606
 30
0.0
 10
-1.3656259842519685
 20
-0.2171574803149606
 30
0.0
 10
-1.2873503937007875
 20
-0.1862755905511811
 30
0.0
 10
-1.2873503937007875
 20
-0.1862755905511811
 30
0.0
  0
SPLINE
  5
6B
100
AcDbEntity
  8
Additional Graphics
 62
     9
100
AcDbSpline
210
0.0
220
0.0
230
1.0
 70
     1
 71
     3
 72
    20
 73
    16
 74
     0
 42
0.0000000001
 43
0.0000000001
 40
0.0
 40
0.0
 40
0.0
 40
0.0
 40
0.25
 40
0.25
 40
0.25
 40
0.25
 40
0.5
 40
0.5
 40
0.5
 40
0.5
 40
0.75
 40
0.75
 40
0.75
 40
0.75
 40
1.0
 40
1.0
 40
1.0
 40
1.0
 10
-1.3656259842519685
 20
-0.2171574803149606
 30
0.0
 10
-1.3656259842519685
 20
-0.2171574803149606
 30
0.0
 10
-0.7338110236220473
 20
-0.6090118110236221
 30
0.0
 10
-0.7338110236220473
 20
-0.6090118110236221
 30
0.0
 10
-0.7338110236220473
 20
-0.6090118110236221
 30
0.0
 10
-0.7338110236220473
 20
-0.6090118110236221
 30
0.0
 10
-0.8166535433070866
 20
-0.6377716535433071
 30
0.0
 10
-0.8166535433070866
 20
-0.6377716535433071
 30
0.0
 10
-0.8166535433070866
 20
-0.6377716535433071
 30
0.0
 10
-0.8166535433070866
 20
-0.6377716535433071
 30
0.0
 10
-1.448468503937008
 20
-0.2459173228346457
 30
0.0
 10
-1.448468503937008
 20
-0.2459173228346457
 30
0.0
 10
-1.448468503937008
 20
-0.2459173228346457
 30
0.0
 10
-1.448468503937008
 20
-0.2459173228346457
 30
0.0
 10
-1.3656259842519685
 20
-0.2171574803149606
 30
0.0
 10
-1.3656259842519685
 20
-0.2171574803149606
 30
0.0
  0
SPLINE
  5
6C
100
AcDbEntity
  8
Additional Graphics
 62
     9
100
AcDbSpline
210
0.0
220
0.0
230
1.0
 70
     1
 71
     3
 72
    20
 73
    16
 74
     0
 42
0.0000000001
 43
0.0000000001
 40
0.0
 40
0.0
 40
0.0
 40
0.0
 40
0.25
 40
0.25
 40
0.25
 40
0.25
 40
0.5
 40
0.5
 40
0.5
 40
0.5
 40
0.75
 40
0.75
 40
0.75
 40
0.75
 40
1.0
 40
1.0
 40
1.0
 40
1.0
 10
-1.448468503937008
 20
-0.2459173228346457
 30
0.0
 10
-1.448468503937008
 20
-0.2459173228346457
 30
0.0
 10
-0.8166535433070866
 20
-0.6377716535433071
 30
0.0
 10
-0.8166535433070866
 20
-0.6377716535433071
 30
0.0
 10
-0.8166535433070866
 20
-0.6377716535433071
 30
0.0
 10
-0.8166535433070866
 20
-0.6377716535433071
 30
0.0
 10
-0.9042244094488189
 20
-0.6642716535433071
 30
0.0
 10
-0.9042244094488189
 20
-0.6642716535433071
 30
0.0
 10
-0.9042244094488189
 20
-0.6642716535433071
 30
0.0
 10
-0.9042244094488189
 20
-0.6642716535433071
 30
0.0
 10
-1.5360393700787403
 20
-0.2724173228346457
 30
0.0
 10
-1.5360393700787403
 20
-0.2724173228346457
 30
0.0
 10
-1.5360393700787403
 20
-0.2724173228346457
 30
0.0
 10
-1.5360393700787403
 20
-0.2724173228346457
 30
0.0
 10
-1.448468503937008
 20
-0.2459173228346457
 30
0.0
 10
-1.448468503937008
 20
-0.2459173228346457
 30
0.0
  0
SPLINE
  5
6D
100
AcDbEntity
  8
Additional Graphics
 62
     9
100
AcDbSpline
210
0.0
220
0.0
230
1.0
 70
     1
 71
     3
 72
    20
 73
    16
 74
     0
 42
0.0000000001
 43
0.0000000001
 40
0.0
 40
0.0
 40
0.0
 40
0.0
 40
0.25
 40
0.25
 40
0.25
 40
0.25
 40
0.5
 40
0.5
 40
0.5
 40
0.5
 40
0.75
 40
0.75
 40
0.75
 40
0.75
 40
1.0
 40
1.0
 40
1.0
 40
1.0
 10
-1.5360393700787403
 20
-0.2724173228346457
 30
0.0
 10
-1.5360393700787403
 20
-0.2724173228346457
 30
0.0
 10
-0.9042244094488189
 20
-0.6642716535433071
 30
0.0
 10
-0.9042244094488189
 20
-0.6642716535433071
 30
0.0
 10
-0.9042244094488189
 20
-0.6642716535433071
 30
0.0
 10
-0.9042244094488189
 20
-0.6642716535433071
 30
0.0
 10
-0.9966496062992126
 20
-0.6883503937007874
 30
0.0
 10
-0.9966496062992126
 20
-0.6883503937007874
 30
0.0
 10
-0.9966496062992126
 20
-0.6883503937007874
 30
0.0
 10
-0.9966496062992126
 20
-0.6883503937007874
 30
0.0
 10
-1.628464566929134
 20
-0.296496062992126
 30
0.0
 10
-1.628464566929134
 20
-0.296496062992126
 30
0.0
 10
-1.628464566929134
 20
-0.296496062992126
 30
0.0
 10
-1.628464566929134
 20
-0.296496062992126
 30
0.0
 10
-1.5360393700787403
 20
-0.2724173228346457
 30
0.0
 10
-1.5360393700787403
 20
-0.2724173228346457
 30
0.0
  0
SPLINE
  5
6E
100
AcDbEntity
  8
Additional Graphics
 62
     9
100
AcDbSpline
210
0.0
220
0.0
230
1.0
 70
     1
 71
     3
 72
    20
 73
    16
 74
     0
 42
0.0000000001
 43
0.0000000001
 40
0.0
 40
0.0
 40
0.0
 40
0.0
 40
0.25
 40
0.25
 40
0.25
 40
0.25
 40
0.5
 40
0.5
 40
0.5
 40
0.5
 40
0.75
 40
0.75
 40
0.75
 40
0.75
 40
1.0
 40
1.0
 40
1.0
 40
1.0
 10
-1.628464566929134
 20
-0.296496062992126
 30
0.0
 10
-1.628464566929134
 20
-0.296496062992126
 30
0.0
 10
-0.9966496062992126
 20
-0.6883503937007874
 30
0.0
 10
-0.9966496062992126
 20
-0.6883503937007874
 30
0.0
 10
-0.9966496062992126
 20
-0.6883503937007874
 30
0.0
 10
-0.9966496062992126
 20
-0.6883503937007874
 30
0.0
 10
-1.0940787401574803
 20
-0.7098661417322835
 30
0.0
 10
-1.0940787401574803
 20
-0.7098661417322835
 30
0.0
 10
-1.0940787401574803
 20
-0.7098661417322835
 30
0.0
 10
-1.0940787401574803
 20
-0.7098661417322835
 30
0.0
 10
-1.7258937007874016
 20
-0.3180118110236221
 30
0.0
 10
-1.7258937007874016
 20
-0.3180118110236221
 30
0.0
 10
-1.7258937007874016
 20
-0.3180118110236221
 30
0.0
 10
-1.7258937007874016
 20
-0.3180118110236221
 30
0.0
 10
-1.628464566929134
 20
-0.296496062992126
 30
0.0
 10
-1.628464566929134
 20
-0.296496062992126
 30
0.0
  0
SPLINE
  5
6F
100
AcDbEntity
  8
Additional Graphics
370
     5
100
AcDbSpline
210
0.0
220
0.0
230
1.0
 70
     1
 71
     3
 72
   524
 73
   520
 74
     0
 42
0.0000000001
 43
0.0000000001
 40
0.0
 40
0.0
 40
0.0
 40
0.0
 40
0.0076923076923077
 40
0.0076923076923077
 40
0.0076923076923077
 40
0.0076923076923077
 40
0.0153846153846154
 40
0.0153846153846154
 40
0.0153846153846154
 40
0.0153846153846154
 40
0.0230769230769231
 40
0.0230769230769231
 40
0.0230769230769231
 40
0.0230769230769231
 40
0.0307692307692308
 40
0.0307692307692308
 40
0.0307692307692308
 40
0.0307692307692308
 40
0.0384615384615385
 40
0.0384615384615385
 40
0.0384615384615385
 40
0.0384615384615385
 40
0.0461538461538462
 40
0.0461538461538462
 40
0.0461538461538462
 40
0.0461538461538462
 40
0.0538461538461538
 40
0.0538461538461538
 40
0.0538461538461538
 40
0.0538461538461538
 40
0.0615384615384615
 40
0.0615384615384615
 40
0.0615384615384615
 40
0.0615384615384615
 40
0.0692307692307692
 40
0.0692307692307692
 40
0.0692307692307692
 40
0.0692307692307692
 40
0.0769230769230769
 40
0.0769230769230769
 40
0.0769230769230769
 40
0.0769230769230769
 40
0.0846153846153846
 40
0.0846153846153846
 40
0.0846153846153846
 40
0.0846153846153846
 40
0.0923076923076923
 40
0.0923076923076923
 40
0.0923076923076923
 40
0.0923076923076923
 40
0.1
 40
0.1
 40
0.1
 40
0.1
 40
0.1076923076923077
 40
0.1076923076923077
 40
0.1076923076923077
 40
0.1076923076923077
 40
0.1153846153846154
 40
0.1153846153846154
 40
0.1153846153846154
 40
0.1153846153846154
 40
0.1230769230769231
 40
0.1230769230769231
 40
0.1230769230769231
 40
0.1230769230769231
 40
0.1307692307692308
 40
0.1307692307692308
 40
0.1307692307692308
 40
0.1307692307692308
 40
0.1384615384615385
 40
0.1384615384615385
 40
0.1384615384615385
 40
0.1384615384615385
 40
0.1461538461538462
 40
0.1461538461538462
 40
0.1461538461538462
 40
0.1461538461538462
 40
0.1538461538461539
 40
0.1538461538461539
 40
0.1538461538461539
 40
0.1538461538461539
 40
0.1615384615384616
 40
0.1615384615384616
 40
0.1615384615384616
 40
0.1615384615384616
 40
0.1692307692307692
 40
0.1692307692307692
 40
0.1692307692307692
 40
0.1692307692307692
 40
0.1769230769230769
 40
0.1769230769230769
 40
0.1769230769230769
 40
0.1769230769230769
 40
0.1846153846153846
 40
0.1846153846153846
 40
0.1846153846153846
 40
0.1846153846153846
 40
0.1923076923076923
 40
0.1923076923076923
 40
0.1923076923076923
 40
0.1923076923076923
 40
0.2
 40
0.2
 40
0.2
 40
0.2
 40
0.2076923076923077
 40
0.2076923076923077
 40
0.2076923076923077
 40
0.2076923076923077
 40
0.2153846153846154
 40
0.2153846153846154
 40
0.2153846153846154
 40
0.2153846153846154
 40
0.2230769230769231
 40
0.2230769230769231
 40
0.2230769230769231
 40
0.2230769230769231
 40
0.2307692307692308
 40
0.2307692307692308
 40
0.2307692307692308
 40
0.2307692307692308
 40
0.2384615384615385
 40
0.2384615384615385
 40
0.2384615384615385
 40
0.2384615384615385
 40
0.2461538461538462
 40
0.2461538461538462
 40
0.2461538461538462
 40
0.2461538461538462
 40
0.2538461538461538
 40
0.2538461538461538
 40
0.2538461538461538
 40
0.2538461538461538
 40
0.2615384615384615
 40
0.2615384615384615
 40
0.2615384615384615
 40
0.2615384615384615
 40
0.2692307692307692
 40
0.2692307692307692
 40
0.2692307692307692
 40
0.2692307692307692
 40
0.2769230769230768
 40
0.2769230769230768
 40
0.2769230769230768
 40
0.2769230769230768
 40
0.2846153846153845
 40
0.2846153846153845
 40
0.2846153846153845
 40
0.2846153846153845
 40
0.2923076923076922
 40
0.2923076923076922
 40
0.2923076923076922
 40
0.2923076923076922
 40
0.2999999999999998
 40
0.2999999999999998
 40
0.2999999999999998
 40
0.2999999999999998
 40
0.3076923076923075
 40
0.3076923076923075
 40
0.3076923076923075
 40
0.3076923076923075
 40
0.3153846153846152
 40
0.3153846153846152
 40
0.3153846153846152
 40
0.3153846153846152
 40
0.3230769230769228
 40
0.3230769230769228
 40
0.3230769230769228
 40
0.3230769230769228
 40
0.3307692307692305
 40
0.3307692307692305
 40
0.3307692307692305
 40
0.3307692307692305
 40
0.3384615384615382
 40
0.3384615384615382
 40
0.3384615384615382
 40
0.3384615384615382
 40
0.3461538461538458
 40
0.3461538461538458
 40
0.3461538461538458
 40
0.3461538461538458
 40
0.3538461538461535
 40
0.3538461538461535
 40
0.3538461538461535
 40
0.3538461538461535
 40
0.3615384615384611
 40
0.3615384615384611
 40
0.3615384615384611
 40
0.3615384615384611
 40
0.3692307692307688
 40
0.3692307692307688
 40
0.3692307692307688
 40
0.3692307692307688
 40
0.3769230769230765
 40
0.3769230769230765
 40
0.3769230769230765
 40
0.3769230769230765
 40
0.3846153846153841
 40
0.3846153846153841
 40
0.3846153846153841
 40
0.3846153846153841
 40
0.3923076923076918
 40
0.3923076923076918
 40
0.3923076923076918
 40
0.3923076923076918
 40
0.3999999999999995
 40
0.3999999999999995
 40
0.3999999999999995
 40
0.3999999999999995
 40
0.4076923076923071
 40
0.4076923076923071
 40
0.4076923076923071
 40
0.4076923076923071
 40
0.4153846153846148
 40
0.4153846153846148
 40
0.4153846153846148
 40
0.4153846153846148
 40
0.4230769230769225
 40
0.4230769230769225
 40
0.4230769230769225
 40
0.4230769230769225
 40
0.4307692307692301
 40
0.4307692307692301
 40
0.4307692307692301
 40
0.4307692307692301
 40
0.4384615384615378
 40
0.4384615384615378
 40
0.4384615384615378
 40
0.4384615384615378
 40
0.4461538461538455
 40
0.4461538461538455
 40
0.4461538461538455
 40
0.4461538461538455
 40
0.4538461538461531
 40
0.4538461538461531
 40
0.4538461538461531
 40
0.4538461538461531
 40
0.4615384615384608
 40
0.4615384615384608
 40
0.4615384615384608
 40
0.4615384615384608
 40
0.4692307692307685
 40
0.4692307692307685
 40
0.4692307692307685
 40
0.4692307692307685
 40
0.4769230769230761
 40
0.4769230769230761
 40
0.4769230769230761
 40
0.4769230769230761
 40
0.4846153846153838
 40
0.4846153846153838
 40
0.4846153846153838
 40
0.4846153846153838
 40
0.4923076923076915
 40
0.4923076923076915
 40
0.4923076923076915
 40
0.4923076923076915
 40
0.4999999999999991
 40
0.4999999999999991
 40
0.4999999999999991
 40
0.4999999999999991
 40
0.5076923076923068
 40
0.5076923076923068
 40
0.5076923076923068
 40
0.5076923076923068
 40
0.5153846153846144
 40
0.5153846153846144
 40
0.5153846153846144
 40
0.5153846153846144
 40
0.5230769230769221
 40
0.5230769230769221
 40
0.5230769230769221
 40
0.5230769230769221
 40
0.5307692307692298
 40
0.5307692307692298
 40
0.5307692307692298
 40
0.5307692307692298
 40
0.5384615384615374
 40
0.5384615384615374
 40
0.5384615384615374
 40
0.5384615384615374
 40
0.5461538461538451
 40
0.5461538461538451
 40
0.5461538461538451
 40
0.5461538461538451
 40
0.5538461538461528
 40
0.5538461538461528
 40
0.5538461538461528
 40
0.5538461538461528
 40
0.5615384615384604
 40
0.5615384615384604
 40
0.5615384615384604
 40
0.5615384615384604
 40
0.5692307692307681
 40
0.5692307692307681
 40
0.5692307692307681
 40
0.5692307692307681
 40
0.5769230769230758
 40
0.5769230769230758
 40
0.5769230769230758
 40
0.5769230769230758
 40
0.5846153846153834
 40
0.5846153846153834
 40
0.5846153846153834
 40
0.5846153846153834
 40
0.5923076923076911
 40
0.5923076923076911
 40
0.5923076923076911
 40
0.5923076923076911
 40
0.5999999999999988
 40
0.5999999999999988
 40
0.5999999999999988
 40
0.5999999999999988
 40
0.6076923076923064
 40
0.6076923076923064
 40
0.6076923076923064
 40
0.6076923076923064
 40
0.6153846153846141
 40
0.6153846153846141
 40
0.6153846153846141
 40
0.6153846153846141
 40
0.6230769230769218
 40
0.6230769230769218
 40
0.6230769230769218
 40
0.6230769230769218
 40
0.6307692307692294
 40
0.6307692307692294
 40
0.6307692307692294
 40
0.6307692307692294
 40
0.6384615384615371
 40
0.6384615384615371
 40
0.6384615384615371
 40
0.6384615384615371
 40
0.6461538461538448
 40
0.6461538461538448
 40
0.6461538461538448
 40
0.6461538461538448
 40
0.6538461538461524
 40
0.6538461538461524
 40
0.6538461538461524
 40
0.6538461538461524
 40
0.6615384615384601
 40
0.6615384615384601
 40
0.6615384615384601
 40
0.6615384615384601
 40
0.6692307692307677
 40
0.6692307692307677
 40
0.6692307692307677
 40
0.6692307692307677
 40
0.6769230769230754
 40
0.6769230769230754
 40
0.6769230769230754
 40
0.6769230769230754
 40
0.6846153846153831
 40
0.6846153846153831
 40
0.6846153846153831
 40
0.6846153846153831
 40
0.6923076923076907
 40
0.6923076923076907
 40
0.6923076923076907
 40
0.6923076923076907
 40
0.6999999999999984
 40
0.6999999999999984
 40
0.6999999999999984
 40
0.6999999999999984
 40
0.7076923076923061
 40
0.7076923076923061
 40
0.7076923076923061
 40
0.7076923076923061
 40
0.7153846153846137
 40
0.7153846153846137
 40
0.7153846153846137
 40
0.7153846153846137
 40
0.7230769230769214
 40
0.7230769230769214
 40
0.7230769230769214
 40
0.7230769230769214
 40
0.7307692307692291
 40
0.7307692307692291
 40
0.7307692307692291
 40
0.7307692307692291
 40
0.7384615384615367
 40
0.7384615384615367
 40
0.7384615384615367
 40
0.7384615384615367
 40
0.7461538461538444
 40
0.7461538461538444
 40
0.7461538461538444
 40
0.7461538461538444
 40
0.7538461538461521
 40
0.7538461538461521
 40
0.7538461538461521
 40
0.7538461538461521
 40
0.7615384615384597
 40
0.7615384615384597
 40
0.7615384615384597
 40
0.7615384615384597
 40
0.7692307692307674
 40
0.7692307692307674
 40
0.7692307692307674
 40
0.7692307692307674
 40
0.7769230769230751
 40
0.7769230769230751
 40
0.7769230769230751
 40
0.7769230769230751
 40
0.7846153846153827
 40
0.7846153846153827
 40
0.7846153846153827
 40
0.7846153846153827
 40
0.7923076923076904
 40
0.7923076923076904
 40
0.7923076923076904
 40
0.7923076923076904
 40
0.7999999999999981
 40
0.7999999999999981
 40
0.7999999999999981
 40
0.7999999999999981
 40
0.8076923076923057
 40
0.8076923076923057
 40
0.8076923076923057
 40
0.8076923076923057
 40
0.8153846153846134
 40
0.8153846153846134
 40
0.8153846153846134
 40
0.8153846153846134
 40
0.823076923076921
 40
0.823076923076921
 40
0.823076923076921
 40
0.823076923076921
 40
0.8307692307692287
 40
0.8307692307692287
 40
0.8307692307692287
 40
0.8307692307692287
 40
0.8384615384615364
 40
0.8384615384615364
 40
0.8384615384615364
 40
0.8384615384615364
 40
0.846153846153844
 40
0.846153846153844
 40
0.846153846153844
 40
0.846153846153844
 40
0.8538461538461517
 40
0.8538461538461517
 40
0.8538461538461517
 40
0.8538461538461517
 40
0.8615384615384594
 40
0.8615384615384594
 40
0.8615384615384594
 40
0.8615384615384594
 40
0.869230769230767
 40
0.869230769230767
 40
0.869230769230767
 40
0.869230769230767
 40
0.8769230769230747
 40
0.8769230769230747
 40
0.8769230769230747
 40
0.8769230769230747
 40
0.8846153846153824
 40
0.8846153846153824
 40
0.8846153846153824
 40
0.8846153846153824
 40
0.89230769230769
 40
0.89230769230769
 40
0.89230769230769
 40
0.89230769230769
 40
0.8999999999999977
 40
0.8999999999999977
 40
0.8999999999999977
 40
0.8999999999999977
 40
0.9076923076923054
 40
0.9076923076923054
 40
0.9076923076923054
 40
0.9076923076923054
 40
0.915384615384613
 40
0.915384615384613
 40
0.915384615384613
 40
0.915384615384613
 40
0.9230769230769207
 40
0.9230769230769207
 40
0.9230769230769207
 40
0.9230769230769207
 40
0.9307692307692284
 40
0.9307692307692284
 40
0.9307692307692284
 40
0.9307692307692284
 40
0.938461538461536
 40
0.938461538461536
 40
0.938461538461536
 40
0.938461538461536
 40
0.9461538461538437
 40
0.9461538461538437
 40
0.9461538461538437
 40
0.9461538461538437
 40
0.9538461538461514
 40
0.9538461538461514
 40
0.9538461538461514
 40
0.9538461538461514
 40
0.961538461538459
 40
0.961538461538459
 40
0.961538461538459
 40
0.961538461538459
 40
0.9692307692307667
 40
0.9692307692307667
 40
0.9692307692307667
 40
0.9692307692307667
 40
0.9769230769230743
 40
0.9769230769230743
 40
0.9769230769230743
 40
0.9769230769230743
 40
0.984615384615382
 40
0.984615384615382
 40
0.984615384615382
 40
0.984615384615382
 40
0.9923076923076897
 40
0.9923076923076897
 40
0.9923076923076897
 40
0.9923076923076897
 40
1.0
 40
1.0
 40
1.0
 40
1.0
 10
0.7593543307086614
 20
2.0128110236220471
 30
0.0
 10
0.7593543307086614
 20
2.0128110236220471
 30
0.0
 10
1.3911692913385827
 20
1.6209566929133858
 30
0.0
 10
1.3911692913385827
 20
1.6209566929133858
 30
0.0
 10
1.3911692913385827
 20
1.6209566929133858
 30
0.0
 10
1.3911692913385827
 20
1.6209566929133858
 30
0.0
 10
1.3055393700787401
 20
1.6038858267716536
 30
0.0
 10
1.3055393700787401
 20
1.6038858267716536
 30
0.0
 10
1.3055393700787401
 20
1.6038858267716536
 30
0.0
 10
1.3055393700787401
 20
1.6038858267716536
 30
0.0
 10
1.22448031496063
 20
1.584208661417323
 30
0.0
 10
1.22448031496063
 20
1.584208661417323
 30
0.0
 10
1.22448031496063
 20
1.584208661417323
 30
0.0
 10
1.22448031496063
 20
1.584208661417323
 30
0.0
 10
1.1478464566929134
 20
1.5620866141732284
 30
0.0
 10
1.1478464566929134
 20
1.5620866141732284
 30
0.0
 10
1.1478464566929134
 20
1.5620866141732284
 30
0.0
 10
1.1478464566929134
 20
1.5620866141732284
 30
0.0
 10
1.0755118110236221
 20
1.5376496062992127
 30
0.0
 10
1.0755118110236221
 20
1.5376496062992127
 30
0.0
 10
1.0755118110236221
 20
1.5376496062992127
 30
0.0
 10
1.0755118110236221
 20
1.5376496062992127
 30
0.0
 10
1.0073346456692913
 20
1.5110551181102363
 30
0.0
 10
1.0073346456692913
 20
1.5110551181102363
 30
0.0
 10
1.0073346456692913
 20
1.5110551181102363
 30
0.0
 10
1.0073346456692913
 20
1.5110551181102363
 30
0.0
 10
0.9431692913385827
 20
1.4824330708661417
 30
0.0
 10
0.9431692913385827
 20
1.4824330708661417
 30
0.0
 10
0.9431692913385827
 20
1.4824330708661417
 30
0.0
 10
0.9431692913385827
 20
1.4824330708661417
 30
0.0
 10
0.8828897637795276
 20
1.4519370078740157
 30
0.0
 10
0.8828897637795276
 20
1.4519370078740157
 30
0.0
 10
0.8828897637795276
 20
1.4519370078740157
 30
0.0
 10
0.8828897637795276
 20
1.4519370078740157
 30
0.0
 10
0.8263503937007874
 20
1.4197047244094489
 30
0.0
 10
0.8263503937007874
 20
1.4197047244094489
 30
0.0
 10
0.8263503937007874
 20
1.4197047244094489
 30
0.0
 10
0.8263503937007874
 20
1.4197047244094489
 30
0.0
 10
0.7734330708661418
 20
1.3858897637795276
 30
0.0
 10
0.7734330708661418
 20
1.3858897637795276
 30
0.0
 10
0.7734330708661418
 20
1.3858897637795276
 30
0.0
 10
0.7734330708661418
 20
1.3858897637795276
 30
0.0
 10
0.7239842519685039
 20
1.3506299212598425
 30
0.0
 10
0.7239842519685039
 20
1.3506299212598425
 30
0.0
 10
0.7239842519685039
 20
1.3506299212598425
 30
0.0
 10
0.7239842519685039
 20
1.3506299212598425
 30
0.0
 10
0.6778740157480315
 20
1.3140748031496063
 30
0.0
 10
0.6778740157480315
 20
1.3140748031496063
 30
0.0
 10
0.6778740157480315
 20
1.3140748031496063
 30
0.0
 10
0.6778740157480315
 20
1.3140748031496063
 30
0.0
 10
0.6349606299212599
 20
1.2763503937007874
 30
0.0
 10
0.6349606299212599
 20
1.2763503937007874
 30
0.0
 10
0.6349606299212599
 20
1.2763503937007874
 30
0.0
 10
0.6349606299212599
 20
1.2763503937007874
 30
0.0
 10
0.5951220472440946
 20
1.2376259842519686
 30
0.0
 10
0.5951220472440946
 20
1.2376259842519686
 30
0.0
 10
0.5951220472440946
 20
1.2376259842519686
 30
0.0
 10
0.5951220472440946
 20
1.2376259842519686
 30
0.0
 10
0.5582047244094488
 20
1.1980275590551182
 30
0.0
 10
0.5582047244094488
 20
1.1980275590551182
 30
0.0
 10
0.5582047244094488
 20
1.1980275590551182
 30
0.0
 10
0.5582047244094488
 20
1.1980275590551182
 30
0.0
 10
0.5240826771653544
 20
1.1577086614173229
 30
0.0
 10
0.5240826771653544
 20
1.1577086614173229
 30
0.0
 10
0.5240826771653544
 20
1.1577086614173229
 30
0.0
 10
0.5240826771653544
 20
1.1577086614173229
 30
0.0
 10
0.4926141732283465
 20
1.1168031496062993
 30
0.0
 10
0.4926141732283465
 20
1.1168031496062993
 30
0.0
 10
0.4926141732283465
 20
1.1168031496062993
 30
0.0
 10
0.4926141732283465
 20
1.1168031496062993
 30
0.0
 10
0.4636771653543307
 20
1.0754724409448819
 30
0.0
 10
0.4636771653543307
 20
1.0754724409448819
 30
0.0
 10
0.4636771653543307
 20
1.0754724409448819
 30
0.0
 10
0.4636771653543307
 20
1.0754724409448819
 30
0.0
 10
0.4371181102362205
 20
1.0338464566929135
 30
0.0
 10
0.4371181102362205
 20
1.0338464566929135
 30
0.0
 10
0.4371181102362205
 20
1.0338464566929135
 30
0.0
 10
0.4371181102362205
 20
1.0338464566929135
 30
0.0
 10
0.4128110236220473
 20
0.9920748031496064
 30
0.0
 10
0.4128110236220473
 20
0.9920748031496064
 30
0.0
 10
0.4128110236220473
 20
0.9920748031496064
 30
0.0
 10
0.4128110236220473
 20
0.9920748031496064
 30
0.0
 10
0.3906102362204725
 20
0.9502992125984252
 30
0.0
 10
0.3906102362204725
 20
0.9502992125984252
 30
0.0
 10
0.3906102362204725
 20
0.9502992125984252
 30
0.0
 10
0.3906102362204725
 20
0.9502992125984252
 30
0.0
 10
0.3703897637795276
 20
0.9086653543307087
 30
0.0
 10
0.3703897637795276
 20
0.9086653543307087
 30
0.0
 10
0.3703897637795276
 20
0.9086653543307087
 30
0.0
 10
0.3703897637795276
 20
0.9086653543307087
 30
0.0
 10
0.352003937007874
 20
0.8673149606299213
 30
0.0
 10
0.352003937007874
 20
0.8673149606299213
 30
0.0
 10
0.352003937007874
 20
0.8673149606299213
 30
0.0
 10
0.352003937007874
 20
0.8673149606299213
 30
0.0
 10
0.3353267716535433
 20
0.8263976377952756
 30
0.0
 10
0.3353267716535433
 20
0.8263976377952756
 30
0.0
 10
0.3353267716535433
 20
0.8263976377952756
 30
0.0
 10
0.3353267716535433
 20
0.8263976377952756
 30
0.0
 10
0.3202047244094488
 20
0.7860433070866142
 30
0.0
 10
0.3202047244094488
 20
0.7860433070866142
 30
0.0
 10
0.3202047244094488
 20
0.7860433070866142
 30
0.0
 10
0.3202047244094488
 20
0.7860433070866142
 30
0.0
 10
0.3065275590551181
 20
0.7464173228346457
 30
0.0
 10
0.3065275590551181
 20
0.7464173228346457
 30
0.0
 10
0.3065275590551181
 20
0.7464173228346457
 30
0.0
 10
0.3065275590551181
 20
0.7464173228346457
 30
0.0
 10
0.2941377952755906
 20
0.7076496062992126
 30
0.0
 10
0.2941377952755906
 20
0.7076496062992126
 30
0.0
 10
0.2941377952755906
 20
0.7076496062992126
 30
0.0
 10
0.2941377952755906
 20
0.7076496062992126
 30
0.0
 10
0.2829094488188976
 20
0.6698858267716535
 30
0.0
 10
0.2829094488188976
 20
0.6698858267716535
 30
0.0
 10
0.2829094488188976
 20
0.6698858267716535
 30
0.0
 10
0.2829094488188976
 20
0.6698858267716535
 30
0.0
 10
0.2726968503937008
 20
0.6332677165354331
 30
0.0
 10
0.2726968503937008
 20
0.6332677165354331
 30
0.0
 10
0.2726968503937008
 20
0.6332677165354331
 30
0.0
 10
0.2726968503937008
 20
0.6332677165354331
 30
0.0
 10
0.2633740157480315
 20
0.5979527559055118
 30
0.0
 10
0.2633740157480315
 20
0.5979527559055118
 30
0.0
 10
0.2633740157480315
 20
0.5979527559055118
 30
0.0
 10
0.2633740157480315
 20
0.5979527559055118
 30
0.0
 10
0.2547992125984252
 20
0.5640669291338583
 30
0.0
 10
0.2547992125984252
 20
0.5640669291338583
 30
0.0
 10
0.2547992125984252
 20
0.5640669291338583
 30
0.0
 10
0.2547992125984252
 20
0.5640669291338583
 30
0.0
 10
0.2468385826771654
 20
0.5317677165354331
 30
0.0
 10
0.2468385826771654
 20
0.5317677165354331
 30
0.0
 10
0.2468385826771654
 20
0.5317677165354331
 30
0.0
 10
0.2468385826771654
 20
0.5317677165354331
 30
0.0
 10
0.2393503937007874
 20
0.5011889763779528
 30
0.0
 10
0.2393503937007874
 20
0.5011889763779528
 30
0.0
 10
0.2393503937007874
 20
0.5011889763779528
 30
0.0
 10
0.2393503937007874
 20
0.5011889763779528
 30
0.0
 10
0.2317165354330709
 20
0.470492125984252
 30
0.0
 10
0.2317165354330709
 20
0.470492125984252
 30
0.0
 10
0.2317165354330709
 20
0.470492125984252
 30
0.0
 10
0.2317165354330709
 20
0.470492125984252
 30
0.0
 10
0.2232795275590551
 20
0.4378149606299213
 30
0.0
 10
0.2232795275590551
 20
0.4378149606299213
 30
0.0
 10
0.2232795275590551
 20
0.4378149606299213
 30
0.0
 10
0.2232795275590551
 20
0.4378149606299213
 30
0.0
 10
0.2139133858267717
 20
0.4033149606299213
 30
0.0
 10
0.2139133858267717
 20
0.4033149606299213
 30
0.0
 10
0.2139133858267717
 20
0.4033149606299213
 30
0.0
 10
0.2139133858267717
 20
0.4033149606299213
 30
0.0
 10
0.2034685039370079
 20
0.3671377952755905
 30
0.0
 10
0.2034685039370079
 20
0.3671377952755905
 30
0.0
 10
0.2034685039370079
 20
0.3671377952755905
 30
0.0
 10
0.2034685039370079
 20
0.3671377952755905
 30
0.0
 10
0.1918149606299213
 20
0.3294488188976378
 30
0.0
 10
0.1918149606299213
 20
0.3294488188976378
 30
0.0
 10
0.1918149606299213
 20
0.3294488188976378
 30
0.0
 10
0.1918149606299213
 20
0.3294488188976378
 30
0.0
 10
0.1788031496062992
 20
0.2903818897637795
 30
0.0
 10
0.1788031496062992
 20
0.2903818897637795
 30
0.0
 10
0.1788031496062992
 20
0.2903818897637795
 30
0.0
 10
0.1788031496062992
 20
0.2903818897637795
 30
0.0
 10
0.1642992125984252
 20
0.2500984251968504
 30
0.0
 10
0.1642992125984252
 20
0.2500984251968504
 30
0.0
 10
0.1642992125984252
 20
0.2500984251968504
 30
0.0
 10
0.1642992125984252
 20
0.2500984251968504
 30
0.0
 10
0.1481535433070866
 20
0.208744094488189
 30
0.0
 10
0.1481535433070866
 20
0.208744094488189
 30
0.0
 10
0.1481535433070866
 20
0.208744094488189
 30
0.0
 10
0.1481535433070866
 20
0.208744094488189
 30
0.0
 10
0.130240157480315
 20
0.1664842519685039
 30
0.0
 10
0.130240157480315
 20
0.1664842519685039
 30
0.0
 10
0.130240157480315
 20
0.1664842519685039
 30
0.0
 10
0.130240157480315
 20
0.1664842519685039
 30
0.0
 10
0.1104094488188976
 20
0.1234566929133858
 30
0.0
 10
0.1104094488188976
 20
0.1234566929133858
 30
0.0
 10
0.1104094488188976
 20
0.1234566929133858
 30
0.0
 10
0.1104094488188976
 20
0.1234566929133858
 30
0.0
 10
0.0885236220472441
 20
0.0798149606299213
 30
0.0
 10
0.0885236220472441
 20
0.0798149606299213
 30
0.0
 10
0.0885236220472441
 20
0.0798149606299213
 30
0.0
 10
0.0885236220472441
 20
0.0798149606299213
 30
0.0
 10
0.0644409448818898
 20
0.0357086614173228
 30
0.0
 10
0.0644409448818898
 20
0.0357086614173228
 30
0.0
 10
0.0644409448818898
 20
0.0357086614173228
 30
0.0
 10
0.0644409448818898
 20
0.0357086614173228
 30
0.0
 10
0.0380314960629921
 20
-0.0087007874015748
 30
0.0
 10
0.0380314960629921
 20
-0.0087007874015748
 30
0.0
 10
0.0380314960629921
 20
-0.0087007874015748
 30
0.0
 10
0.0380314960629921
 20
-0.0087007874015748
 30
0.0
 10
0.0091338582677165
 20
-0.0532755905511811
 30
0.0
 10
0.0091338582677165
 20
-0.0532755905511811
 30
0.0
 10
0.0091338582677165
 20
-0.0532755905511811
 30
0.0
 10
0.0091338582677165
 20
-0.0532755905511811
 30
0.0
 10
-0.0223740157480315
 20
-0.0978503937007874
 30
0.0
 10
-0.0223740157480315
 20
-0.0978503937007874
 30
0.0
 10
-0.0223740157480315
 20
-0.0978503937007874
 30
0.0
 10
-0.0223740157480315
 20
-0.0978503937007874
 30
0.0
 10
-0.0566456692913386
 20
-0.1422874015748032
 30
0.0
 10
-0.0566456692913386
 20
-0.1422874015748032
 30
0.0
 10
-0.0566456692913386
 20
-0.1422874015748032
 30
0.0
 10
-0.0566456692913386
 20
-0.1422874015748032
 30
0.0
 10
-0.0937992125984252
 20
-0.1864133858267717
 30
0.0
 10
-0.0937992125984252
 20
-0.1864133858267717
 30
0.0
 10
-0.0937992125984252
 20
-0.1864133858267717
 30
0.0
 10
-0.0937992125984252
 20
-0.1864133858267717
 30
0.0
 10
-0.133996062992126
 20
-0.2301023622047244
 30
0.0
 10
-0.133996062992126
 20
-0.2301023622047244
 30
0.0
 10
-0.133996062992126
 20
-0.2301023622047244
 30
0.0
 10
-0.133996062992126
 20
-0.2301023622047244
 30
0.0
 10
-0.1773700787401575
 20
-0.2731850393700788
 30
0.0
 10
-0.1773700787401575
 20
-0.2731850393700788
 30
0.0
 10
-0.1773700787401575
 20
-0.2731850393700788
 30
0.0
 10
-0.1773700787401575
 20
-0.2731850393700788
 30
0.0
 10
-0.2240629921259843
 20
-0.3155275590551182
 30
0.0
 10
-0.2240629921259843
 20
-0.3155275590551182
 30
0.0
 10
-0.2240629921259843
 20
-0.3155275590551182
 30
0.0
 10
-0.2240629921259843
 20
-0.3155275590551182
 30
0.0
 10
-0.2742086614173229
 20
-0.3569606299212599
 30
0.0
 10
-0.2742086614173229
 20
-0.3569606299212599
 30
0.0
 10
-0.2742086614173229
 20
-0.3569606299212599
 30
0.0
 10
-0.2742086614173229
 20
-0.3569606299212599
 30
0.0
 10
-0.3279527559055118
 20
-0.3973425196850394
 30
0.0
 10
-0.3279527559055118
 20
-0.3973425196850394
 30
0.0
 10
-0.3279527559055118
 20
-0.3973425196850394
 30
0.0
 10
-0.3279527559055118
 20
-0.3973425196850394
 30
0.0
 10
-0.3854330708661418
 20
-0.4365157480314961
 30
0.0
 10
-0.3854330708661418
 20
-0.4365157480314961
 30
0.0
 10
-0.3854330708661418
 20
-0.4365157480314961
 30
0.0
 10
-0.3854330708661418
 20
-0.4365157480314961
 30
0.0
 10
-0.4467952755905512
 20
-0.4743385826771654
 30
0.0
 10
-0.4467952755905512
 20
-0.4743385826771654
 30
0.0
 10
-0.4467952755905512
 20
-0.4743385826771654
 30
0.0
 10
-0.4467952755905512
 20
-0.4743385826771654
 30
0.0
 10
-0.5121692913385827
 20
-0.5106456692913386
 30
0.0
 10
-0.5121692913385827
 20
-0.5106456692913386
 30
0.0
 10
-0.5121692913385827
 20
-0.5106456692913386
 30
0.0
 10
-0.5121692913385827
 20
-0.5106456692913386
 30
0.0
 10
-0.5817047244094489
 20
-0.5452952755905512
 30
0.0
 10
-0.5817047244094489
 20
-0.5452952755905512
 30
0.0
 10
-0.5817047244094489
 20
-0.5452952755905512
 30
0.0
 10
-0.5817047244094489
 20
-0.5452952755905512
 30
0.0
 10
-0.6555354330708662
 20
-0.5781299212598425
 30
0.0
 10
-0.6555354330708662
 20
-0.5781299212598425
 30
0.0
 10
-0.6555354330708662
 20
-0.5781299212598425
 30
0.0
 10
-0.6555354330708662
 20
-0.5781299212598425
 30
0.0
 10
-0.7338110236220473
 20
-0.6090118110236221
 30
0.0
 10
-0.7338110236220473
 20
-0.6090118110236221
 30
0.0
 10
-0.7338110236220473
 20
-0.6090118110236221
 30
0.0
 10
-0.7338110236220473
 20
-0.6090118110236221
 30
0.0
 10
-0.8166535433070866
 20
-0.6377716535433071
 30
0.0
 10
-0.8166535433070866
 20
-0.6377716535433071
 30
0.0
 10
-0.8166535433070866
 20
-0.6377716535433071
 30
0.0
 10
-0.8166535433070866
 20
-0.6377716535433071
 30
0.0
 10
-0.9042244094488189
 20
-0.6642716535433071
 30
0.0
 10
-0.9042244094488189
 20
-0.6642716535433071
 30
0.0
 10
-0.9042244094488189
 20
-0.6642716535433071
 30
0.0
 10
-0.9042244094488189
 20
-0.6642716535433071
 30
0.0
 10
-0.9966496062992126
 20
-0.6883503937007874
 30
0.0
 10
-0.9966496062992126
 20
-0.6883503937007874
 30
0.0
 10
-0.9966496062992126
 20
-0.6883503937007874
 30
0.0
 10
-0.9966496062992126
 20
-0.6883503937007874
 30
0.0
 10
-1.0940787401574803
 20
-0.7098661417322835
 30
0.0
 10
-1.0940787401574803
 20
-0.7098661417322835
 30
0.0
 10
-1.0940787401574803
 20
-0.7098661417322835
 30
0.0
 10
-1.0940787401574803
 20
-0.7098661417322835
 30
0.0
 10
-1.7258937007874016
 20
-0.3180118110236221
 30
0.0
 10
-1.7258937007874016
 20
-0.3180118110236221
 30
0.0
 10
-1.7258937007874016
 20
-0.3180118110236221
 30
0.0
 10
-1.7258937007874016
 20
-0.3180118110236221
 30
0.0
 10
-1.628464566929134
 20
-0.296496062992126
 30
0.0
 10
-1.628464566929134
 20
-0.296496062992126
 30
0.0
 10
-1.628464566929134
 20
-0.296496062992126
 30
0.0
 10
-1.628464566929134
 20
-0.296496062992126
 30
0.0
 10
-1.5360393700787403
 20
-0.2724173228346457
 30
0.0
 10
-1.5360393700787403
 20
-0.2724173228346457
 30
0.0
 10
-1.5360393700787403
 20
-0.2724173228346457
 30
0.0
 10
-1.5360393700787403
 20
-0.2724173228346457
 30
0.0
 10
-1.448468503937008
 20
-0.2459173228346457
 30
0.0
 10
-1.448468503937008
 20
-0.2459173228346457
 30
0.0
 10
-1.448468503937008
 20
-0.2459173228346457
 30
0.0
 10
-1.448468503937008
 20
-0.2459173228346457
 30
0.0
 10
-1.3656259842519685
 20
-0.2171574803149606
 30
0.0
 10
-1.3656259842519685
 20
-0.2171574803149606
 30
0.0
 10
-1.3656259842519685
 20
-0.2171574803149606
 30
0.0
 10
-1.3656259842519685
 20
-0.2171574803149606
 30
0.0
 10
-1.2873503937007875
 20
-0.1862755905511811
 30
0.0
 10
-1.2873503937007875
 20
-0.1862755905511811
 30
0.0
 10
-1.2873503937007875
 20
-0.1862755905511811
 30
0.0
 10
-1.2873503937007875
 20
-0.1862755905511811
 30
0.0
 10
-1.2135196850393701
 20
-0.1534409448818898
 30
0.0
 10
-1.2135196850393701
 20
-0.1534409448818898
 30
0.0
 10
-1.2135196850393701
 20
-0.1534409448818898
 30
0.0
 10
-1.2135196850393701
 20
-0.1534409448818898
 30
0.0
 10
-1.143984251968504
 20
-0.1187913385826772
 30
0.0
 10
-1.143984251968504
 20
-0.1187913385826772
 30
0.0
 10
-1.143984251968504
 20
-0.1187913385826772
 30
0.0
 10
-1.143984251968504
 20
-0.1187913385826772
 30
0.0
 10
-1.0786102362204726
 20
-0.0824842519685039
 30
0.0
 10
-1.0786102362204726
 20
-0.0824842519685039
 30
0.0
 10
-1.0786102362204726
 20
-0.0824842519685039
 30
0.0
 10
-1.0786102362204726
 20
-0.0824842519685039
 30
0.0
 10
-1.017248031496063
 20
-0.0446614173228347
 30
0.0
 10
-1.017248031496063
 20
-0.0446614173228347
 30
0.0
 10
-1.017248031496063
 20
-0.0446614173228347
 30
0.0
 10
-1.017248031496063
 20
-0.0446614173228347
 30
0.0
 10
-0.9597677165354331
 20
-0.005488188976378
 30
0.0
 10
-0.9597677165354331
 20
-0.005488188976378
 30
0.0
 10
-0.9597677165354331
 20
-0.005488188976378
 30
0.0
 10
-0.9597677165354331
 20
-0.005488188976378
 30
0.0
 10
-0.9060236220472442
 20
0.0348937007874016
 30
0.0
 10
-0.9060236220472442
 20
0.0348937007874016
 30
0.0
 10
-0.9060236220472442
 20
0.0348937007874016
 30
0.0
 10
-0.9060236220472442
 20
0.0348937007874016
 30
0.0
 10
-0.8558779527559055
 20
0.0763267716535433
 30
0.0
 10
-0.8558779527559055
 20
0.0763267716535433
 30
0.0
 10
-0.8558779527559055
 20
0.0763267716535433
 30
0.0
 10
-0.8558779527559055
 20
0.0763267716535433
 30
0.0
 10
-0.8091850393700788
 20
0.1186692913385827
 30
0.0
 10
-0.8091850393700788
 20
0.1186692913385827
 30
0.0
 10
-0.8091850393700788
 20
0.1186692913385827
 30
0.0
 10
-0.8091850393700788
 20
0.1186692913385827
 30
0.0
 10
-0.7658110236220472
 20
0.161751968503937
 30
0.0
 10
-0.7658110236220472
 20
0.161751968503937
 30
0.0
 10
-0.7658110236220472
 20
0.161751968503937
 30
0.0
 10
-0.7658110236220472
 20
0.161751968503937
 30
0.0
 10
-0.7256141732283465
 20
0.2054409448818898
 30
0.0
 10
-0.7256141732283465
 20
0.2054409448818898
 30
0.0
 10
-0.7256141732283465
 20
0.2054409448818898
 30
0.0
 10
-0.7256141732283465
 20
0.2054409448818898
 30
0.0
 10
-0.6884606299212599
 20
0.2495669291338583
 30
0.0
 10
-0.6884606299212599
 20
0.2495669291338583
 30
0.0
 10
-0.6884606299212599
 20
0.2495669291338583
 30
0.0
 10
-0.6884606299212599
 20
0.2495669291338583
 30
0.0
 10
-0.6541889763779528
 20
0.294003937007874
 30
0.0
 10
-0.6541889763779528
 20
0.294003937007874
 30
0.0
 10
-0.6541889763779528
 20
0.294003937007874
 30
0.0
 10
-0.6541889763779528
 20
0.294003937007874
 30
0.0
 10
-0.6226811023622048
 20
0.3385787401574804
 30
0.0
 10
-0.6226811023622048
 20
0.3385787401574804
 30
0.0
 10
-0.6226811023622048
 20
0.3385787401574804
 30
0.0
 10
-0.6226811023622048
 20
0.3385787401574804
 30
0.0
 10
-0.5937834645669292
 20
0.3831535433070866
 30
0.0
 10
-0.5937834645669292
 20
0.3831535433070866
 30
0.0
 10
-0.5937834645669292
 20
0.3831535433070866
 30
0.0
 10
-0.5937834645669292
 20
0.3831535433070866
 30
0.0
 10
-0.5673740157480315
 20
0.4275629921259843
 30
0.0
 10
-0.5673740157480315
 20
0.4275629921259843
 30
0.0
 10
-0.5673740157480315
 20
0.4275629921259843
 30
0.0
 10
-0.5673740157480315
 20
0.4275629921259843
 30
0.0
 10
-0.5432913385826772
 20
0.4716692913385827
 30
0.0
 10
-0.5432913385826772
 20
0.4716692913385827
 30
0.0
 10
-0.5432913385826772
 20
0.4716692913385827
 30
0.0
 10
-0.5432913385826772
 20
0.4716692913385827
 30
0.0
 10
-0.5214055118110237
 20
0.5153110236220473
 30
0.0
 10
-0.5214055118110237
 20
0.5153110236220473
 30
0.0
 10
-0.5214055118110237
 20
0.5153110236220473
 30
0.0
 10
-0.5214055118110237
 20
0.5153110236220473
 30
0.0
 10
-0.5015748031496063
 20
0.5583385826771654
 30
0.0
 10
-0.5015748031496063
 20
0.5583385826771654
 30
0.0
 10
-0.5015748031496063
 20
0.5583385826771654
 30
0.0
 10
-0.5015748031496063
 20
0.5583385826771654
 30
0.0
 10
-0.4836614173228347
 20
0.6005984251968505
 30
0.0
 10
-0.4836614173228347
 20
0.6005984251968505
 30
0.0
 10
-0.4836614173228347
 20
0.6005984251968505
 30
0.0
 10
-0.4836614173228347
 20
0.6005984251968505
 30
0.0
 10
-0.4675157480314961
 20
0.6419527559055118
 30
0.0
 10
-0.4675157480314961
 20
0.6419527559055118
 30
0.0
 10
-0.4675157480314961
 20
0.6419527559055118
 30
0.0
 10
-0.4675157480314961
 20
0.6419527559055118
 30
0.0
 10
-0.4530118110236221
 20
0.6822362204724409
 30
0.0
 10
-0.4530118110236221
 20
0.6822362204724409
 30
0.0
 10
-0.4530118110236221
 20
0.6822362204724409
 30
0.0
 10
-0.4530118110236221
 20
0.6822362204724409
 30
0.0
 10
-0.44
 20
0.7213031496062993
 30
0.0
 10
-0.44
 20
0.7213031496062993
 30
0.0
 10
-0.44
 20
0.7213031496062993
 30
0.0
 10
-0.44
 20
0.7213031496062993
 30
0.0
 10
-0.4283464566929134
 20
0.758992125984252
 30
0.0
 10
-0.4283464566929134
 20
0.758992125984252
 30
0.0
 10
-0.4283464566929134
 20
0.758992125984252
 30
0.0
 10
-0.4283464566929134
 20
0.758992125984252
 30
0.0
 10
-0.4179015748031496
 20
0.7951692913385827
 30
0.0
 10
-0.4179015748031496
 20
0.7951692913385827
 30
0.0
 10
-0.4179015748031496
 20
0.7951692913385827
 30
0.0
 10
-0.4179015748031496
 20
0.7951692913385827
 30
0.0
 10
-0.4085354330708662
 20
0.8296692913385827
 30
0.0
 10
-0.4085354330708662
 20
0.8296692913385827
 30
0.0
 10
-0.4085354330708662
 20
0.8296692913385827
 30
0.0
 10
-0.4085354330708662
 20
0.8296692913385827
 30
0.0
 10
-0.4000984251968504
 20
0.8623464566929134
 30
0.0
 10
-0.4000984251968504
 20
0.8623464566929134
 30
0.0
 10
-0.4000984251968504
 20
0.8623464566929134
 30
0.0
 10
-0.4000984251968504
 20
0.8623464566929134
 30
0.0
 10
-0.3924645669291339
 20
0.8930433070866142
 30
0.0
 10
-0.3924645669291339
 20
0.8930433070866142
 30
0.0
 10
-0.3924645669291339
 20
0.8930433070866142
 30
0.0
 10
-0.3924645669291339
 20
0.8930433070866142
 30
0.0
 10
-0.3849763779527559
 20
0.9236220472440945
 30
0.0
 10
-0.3849763779527559
 20
0.9236220472440945
 30
0.0
 10
-0.3849763779527559
 20
0.9236220472440945
 30
0.0
 10
-0.3849763779527559
 20
0.9236220472440945
 30
0.0
 10
-0.3770157480314961
 20
0.9559212598425197
 30
0.0
 10
-0.3770157480314961
 20
0.9559212598425197
 30
0.0
 10
-0.3770157480314961
 20
0.9559212598425197
 30
0.0
 10
-0.3770157480314961
 20
0.9559212598425197
 30
0.0
 10
-0.3684409448818898
 20
0.9898070866141733
 30
0.0
 10
-0.3684409448818898
 20
0.9898070866141733
 30
0.0
 10
-0.3684409448818898
 20
0.9898070866141733
 30
0.0
 10
-0.3684409448818898
 20
0.9898070866141733
 30
0.0
 10
-0.3591181102362205
 20
1.0251220472440945
 30
0.0
 10
-0.3591181102362205
 20
1.0251220472440945
 30
0.0
 10
-0.3591181102362205
 20
1.0251220472440945
 30
0.0
 10
-0.3591181102362205
 20
1.0251220472440945
 30
0.0
 10
-0.3489055118110236
 20
1.0617401574803149
 30
0.0
 10
-0.3489055118110236
 20
1.0617401574803149
 30
0.0
 10
-0.3489055118110236
 20
1.0617401574803149
 30
0.0
 10
-0.3489055118110236
 20
1.0617401574803149
 30
0.0
 10
-0.3376771653543307
 20
1.0995039370078741
 30
0.0
 10
-0.3376771653543307
 20
1.0995039370078741
 30
0.0
 10
-0.3376771653543307
 20
1.0995039370078741
 30
0.0
 10
-0.3376771653543307
 20
1.0995039370078741
 30
0.0
 10
-0.3252874015748032
 20
1.1382716535433071
 30
0.0
 10
-0.3252874015748032
 20
1.1382716535433071
 30
0.0
 10
-0.3252874015748032
 20
1.1382716535433071
 30
0.0
 10
-0.3252874015748032
 20
1.1382716535433071
 30
0.0
 10
-0.3116102362204725
 20
1.1778976377952757
 30
0.0
 10
-0.3116102362204725
 20
1.1778976377952757
 30
0.0
 10
-0.3116102362204725
 20
1.1778976377952757
 30
0.0
 10
-0.3116102362204725
 20
1.1778976377952757
 30
0.0
 10
-0.296488188976378
 20
1.218251968503937
 30
0.0
 10
-0.296488188976378
 20
1.218251968503937
 30
0.0
 10
-0.296488188976378
 20
1.218251968503937
 30
0.0
 10
-0.296488188976378
 20
1.218251968503937
 30
0.0
 10
-0.2798110236220472
 20
1.2591692913385828
 30
0.0
 10
-0.2798110236220472
 20
1.2591692913385828
 30
0.0
 10
-0.2798110236220472
 20
1.2591692913385828
 30
0.0
 10
-0.2798110236220472
 20
1.2591692913385828
 30
0.0
 10
-0.2614251968503937
 20
1.3005196850393701
 30
0.0
 10
-0.2614251968503937
 20
1.3005196850393701
 30
0.0
 10
-0.2614251968503937
 20
1.3005196850393701
 30
0.0
 10
-0.2614251968503937
 20
1.3005196850393701
 30
0.0
 10
-0.2412047244094488
 20
1.3421535433070866
 30
0.0
 10
-0.2412047244094488
 20
1.3421535433070866
 30
0.0
 10
-0.2412047244094488
 20
1.3421535433070866
 30
0.0
 10
-0.2412047244094488
 20
1.3421535433070866
 30
0.0
 10
-0.219003937007874
 20
1.3839291338582678
 30
0.0
 10
-0.219003937007874
 20
1.3839291338582678
 30
0.0
 10
-0.219003937007874
 20
1.3839291338582678
 30
0.0
 10
-0.219003937007874
 20
1.3839291338582678
 30
0.0
 10
-0.1946968503937008
 20
1.4257007874015748
 30
0.0
 10
-0.1946968503937008
 20
1.4257007874015748
 30
0.0
 10
-0.1946968503937008
 20
1.4257007874015748
 30
0.0
 10
-0.1946968503937008
 20
1.4257007874015748
 30
0.0
 10
-0.1681377952755906
 20
1.4673267716535434
 30
0.0
 10
-0.1681377952755906
 20
1.4673267716535434
 30
0.0
 10
-0.1681377952755906
 20
1.4673267716535434
 30
0.0
 10
-0.1681377952755906
 20
1.4673267716535434
 30
0.0
 10
-0.1392007874015748
 20
1.5086574803149606
 30
0.0
 10
-0.1392007874015748
 20
1.5086574803149606
 30
0.0
 10
-0.1392007874015748
 20
1.5086574803149606
 30
0.0
 10
-0.1392007874015748
 20
1.5086574803149606
 30
0.0
 10
-0.1077322834645669
 20
1.5495629921259844
 30
0.0
 10
-0.1077322834645669
 20
1.5495629921259844
 30
0.0
 10
-0.1077322834645669
 20
1.5495629921259844
 30
0.0
 10
-0.1077322834645669
 20
1.5495629921259844
 30
0.0
 10
-0.0736102362204724
 20
1.5898818897637796
 30
0.0
 10
-0.0736102362204724
 20
1.5898818897637796
 30
0.0
 10
-0.0736102362204724
 20
1.5898818897637796
 30
0.0
 10
-0.0736102362204724
 20
1.5898818897637796
 30
0.0
 10
-0.0366929133858268
 20
1.6294803149606301
 30
0.0
 10
-0.0366929133858268
 20
1.6294803149606301
 30
0.0
 10
-0.0366929133858268
 20
1.6294803149606301
 30
0.0
 10
-0.0366929133858268
 20
1.6294803149606301
 30
0.0
 10
0.0031456692913386
 20
1.6682047244094489
 30
0.0
 10
0.0031456692913386
 20
1.6682047244094489
 30
0.0
 10
0.0031456692913386
 20
1.6682047244094489
 30
0.0
 10
0.0031456692913386
 20
1.6682047244094489
 30
0.0
 10
0.0460590551181102
 20
1.7059291338582678
 30
0.0
 10
0.0460590551181102
 20
1.7059291338582678
 30
0.0
 10
0.0460590551181102
 20
1.7059291338582678
 30
0.0
 10
0.0460590551181102
 20
1.7059291338582678
 30
0.0
 10
0.0921692913385827
 20
1.742484251968504
 30
0.0
 10
0.0921692913385827
 20
1.742484251968504
 30
0.0
 10
0.0921692913385827
 20
1.742484251968504
 30
0.0
 10
0.0921692913385827
 20
1.742484251968504
 30
0.0
 10
0.1416181102362205
 20
1.777744094488189
 30
0.0
 10
0.1416181102362205
 20
1.777744094488189
 30
0.0
 10
0.1416181102362205
 20
1.777744094488189
 30
0.0
 10
0.1416181102362205
 20
1.777744094488189
 30
0.0
 10
0.1945354330708662
 20
1.8115590551181102
 30
0.0
 10
0.1945354330708662
 20
1.8115590551181102
 30
0.0
 10
0.1945354330708662
 20
1.8115590551181102
 30
0.0
 10
0.1945354330708662
 20
1.8115590551181102
 30
0.0
 10
0.2510748031496063
 20
1.8437913385826772
 30
0.0
 10
0.2510748031496063
 20
1.8437913385826772
 30
0.0
 10
0.2510748031496063
 20
1.8437913385826772
 30
0.0
 10
0.2510748031496063
 20
1.8437913385826772
 30
0.0
 10
0.3113543307086614
 20
1.8742874015748032
 30
0.0
 10
0.3113543307086614
 20
1.8742874015748032
 30
0.0
 10
0.3113543307086614
 20
1.8742874015748032
 30
0.0
 10
0.3113543307086614
 20
1.8742874015748032
 30
0.0
 10
0.3755196850393701
 20
1.9029094488188978
 30
0.0
 10
0.3755196850393701
 20
1.9029094488188978
 30
0.0
 10
0.3755196850393701
 20
1.9029094488188978
 30
0.0
 10
0.3755196850393701
 20
1.9029094488188978
 30
0.0
 10
0.4436968503937008
 20
1.9295039370078741
 30
0.0
 10
0.4436968503937008
 20
1.9295039370078741
 30
0.0
 10
0.4436968503937008
 20
1.9295039370078741
 30
0.0
 10
0.4436968503937008
 20
1.9295039370078741
 30
0.0
 10
0.5160314960629922
 20
1.9539409448818899
 30
0.0
 10
0.5160314960629922
 20
1.9539409448818899
 30
0.0
 10
0.5160314960629922
 20
1.9539409448818899
 30
0.0
 10
0.5160314960629922
 20
1.9539409448818899
 30
0.0
 10
0.5926653543307087
 20
1.9760629921259842
 30
0.0
 10
0.5926653543307087
 20
1.9760629921259842
 30
0.0
 10
0.5926653543307087
 20
1.9760629921259842
 30
0.0
 10
0.5926653543307087
 20
1.9760629921259842
 30
0.0
 10
0.673724409448819
 20
1.9957401574803151
 30
0.0
 10
0.673724409448819
 20
1.9957401574803151
 30
0.0
 10
0.673724409448819
 20
1.9957401574803151
 30
0.0
 10
0.673724409448819
 20
1.9957401574803151
 30
0.0
 10
0.7593543307086614
 20
2.0128110236220471
 30
0.0
 10
0.7593543307086614
 20
2.0128110236220471
 30
0.0
  0
SPLINE
  5
70
100
AcDbEntity
  8
Additional Graphics
 62
     9
100
AcDbSpline
210
0.0
220
0.0
230
1.0
 70
     1
 71
     3
 72
    20
 73
    16
 74
     0
 42
0.0000000001
 43
0.0000000001
 40
0.0
 40
0.0
 40
0.0
 40
0.0
 40
0.25
 40
0.25
 40
0.25
 40
0.25
 40
0.5
 40
0.5
 40
0.5
 40
0.5
 40
0.75
 40
0.75
 40
0.75
 40
0.75
 40
1.0
 40
1.0
 40
1.0
 40
1.0
 10
-1.7258937007874016
 20
-0.3180118110236221
 30
0.0
 10
-1.7258937007874016
 20
-0.3180118110236221
 30
0.0
 10
-1.0940787401574803
 20
-0.7098661417322835
 30
0.0
 10
-1.0940787401574803
 20
-0.7098661417322835
 30
0.0
 10
-1.0940787401574803
 20
-0.7098661417322835
 30
0.0
 10
-1.0940787401574803
 20
-0.7098661417322835
 30
0.0
 10
-1.1020511811023623
 20
-0.8774448818897638
 30
0.0
 10
-1.1020511811023623
 20
-0.8774448818897638
 30
0.0
 10
-1.1020511811023623
 20
-0.8774448818897638
 30
0.0
 10
-1.1020511811023623
 20
-0.8774448818897638
 30
0.0
 10
-1.7338661417322836
 20
-0.4855905511811024
 30
0.0
 10
-1.7338661417322836
 20
-0.4855905511811024
 30
0.0
 10
-1.7338661417322836
 20
-0.4855905511811024
 30
0.0
 10
-1.7338661417322836
 20
-0.4855905511811024
 30
0.0
 10
-1.7258937007874016
 20
-0.3180118110236221
 30
0.0
 10
-1.7258937007874016
 20
-0.3180118110236221
 30
0.0
  0
SPLINE
  5
71
100
AcDbEntity
  8
Additional Graphics
370
     5
100
AcDbSpline
210
0.0
220
0.0
230
1.0
 70
     1
 71
     3
 72
    20
 73
    16
 74
     0
 42
0.0000000001
 43
0.0000000001
 40
0.0
 40
0.0
 40
0.0
 40
0.0
 40
0.25
 40
0.25
 40
0.25
 40
0.25
 40
0.5
 40
0.5
 40
0.5
 40
0.5
 40
0.75
 40
0.75
 40
0.75
 40
0.75
 40
1.0
 40
1.0
 40
1.0
 40
1.0
 10
-1.7258937007874016
 20
-0.3180118110236221
 30
0.0
 10
-1.7258937007874016
 20
-0.3180118110236221
 30
0.0
 10
-1.0940787401574803
 20
-0.7098661417322835
 30
0.0
 10
-1.0940787401574803
 20
-0.7098661417322835
 30
0.0
 10
-1.0940787401574803
 20
-0.7098661417322835
 30
0.0
 10
-1.0940787401574803
 20
-0.7098661417322835
 30
0.0
 10
-1.1020511811023623
 20
-0.8774448818897638
 30
0.0
 10
-1.1020511811023623
 20
-0.8774448818897638
 30
0.0
 10
-1.1020511811023623
 20
-0.8774448818897638
 30
0.0
 10
-1.1020511811023623
 20
-0.8774448818897638
 30
0.0
 10
-1.7338661417322836
 20
-0.4855905511811024
 30
0.0
 10
-1.7338661417322836
 20
-0.4855905511811024
 30
0.0
 10
-1.7338661417322836
 20
-0.4855905511811024
 30
0.0
 10
-1.7338661417322836
 20
-0.4855905511811024
 30
0.0
 10
-1.7258937007874016
 20
-0.3180118110236221
 30
0.0
 10
-1.7258937007874016
 20
-0.3180118110236221
 30
0.0
  0
SPLINE
  5
72
100
AcDbEntity
  8
Additional Graphics
 62
     9
100
AcDbSpline
210
0.0
220
0.0
230
1.0
 70
     1
 71
     3
 72
    20
 73
    16
 74
     0
 42
0.0000000001
 43
0.0000000001
 40
0.0
 40
0.0
 40
0.0
 40
0.0
 40
0.25
 40
0.25
 40
0.25
 40
0.25
 40
0.5
 40
0.5
 40
0.5
 40
0.5
 40
0.75
 40
0.75
 40
0.75
 40
0.75
 40
1.0
 40
1.0
 40
1.0
 40
1.0
 10
-1.7338661417322836
 20
-0.4855905511811024
 30
0.0
 10
-1.7338661417322836
 20
-0.4855905511811024
 30
0.0
 10
-1.1020511811023623
 20
-0.8774448818897638
 30
0.0
 10
-1.1020511811023623
 20
-0.8774448818897638
 30
0.0
 10
-1.1020511811023623
 20
-0.8774448818897638
 30
0.0
 10
-1.1020511811023623
 20
-0.8774448818897638
 30
0.0
 10
-1.362755905511811
 20
-0.8819370078740157
 30
0.0
 10
-1.362755905511811
 20
-0.8819370078740157
 30
0.0
 10
-1.362755905511811
 20
-0.8819370078740157
 30
0.0
 10
-1.362755905511811
 20
-0.8819370078740157
 30
0.0
 10
-1.9945708661417323
 20
-0.4900826771653544
 30
0.0
 10
-1.9945708661417323
 20
-0.4900826771653544
 30
0.0
 10
-1.9945708661417323
 20
-0.4900826771653544
 30
0.0
 10
-1.9945708661417323
 20
-0.4900826771653544
 30
0.0
 10
-1.7338661417322836
 20
-0.4855905511811024
 30
0.0
 10
-1.7338661417322836
 20
-0.4855905511811024
 30
0.0
  0
SPLINE
  5
73
100
AcDbEntity
  8
Additional Graphics
370
     5
100
AcDbSpline
210
0.0
220
0.0
230
1.0
 70
     1
 71
     3
 72
    20
 73
    16
 74
     0
 42
0.0000000001
 43
0.0000000001
 40
0.0
 40
0.0
 40
0.0
 40
0.0
 40
0.25
 40
0.25
 40
0.25
 40
0.25
 40
0.5
 40
0.5
 40
0.5
 40
0.5
 40
0.75
 40
0.75
 40
0.75
 40
0.75
 40
1.0
 40
1.0
 40
1.0
 40
1.0
 10
-1.7338661417322836
 20
-0.4855905511811024
 30
0.0
 10
-1.7338661417322836
 20
-0.4855905511811024
 30
0.0
 10
-1.1020511811023623
 20
-0.8774448818897638
 30
0.0
 10
-1.1020511811023623
 20
-0.8774448818897638
 30
0.0
 10
-1.1020511811023623
 20
-0.8774448818897638
 30
0.0
 10
-1.1020511811023623
 20
-0.8774448818897638
 30
0.0
 10
-1.362755905511811
 20
-0.8819370078740157
 30
0.0
 10
-1.362755905511811
 20
-0.8819370078740157
 30
0.0
 10
-1.362755905511811
 20
-0.8819370078740157
 30
0.0
 10
-1.362755905511811
 20
-0.8819370078740157
 30
0.0
 10
-1.9945708661417323
 20
-0.4900826771653544
 30
0.0
 10
-1.9945708661417323
 20
-0.4900826771653544
 30
0.0
 10
-1.9945708661417323
 20
-0.4900826771653544
 30
0.0
 10
-1.9945708661417323
 20
-0.4900826771653544
 30
0.0
 10
-1.7338661417322836
 20
-0.4855905511811024
 30
0.0
 10
-1.7338661417322836
 20
-0.4855905511811024
 30
0.0
  0
SPLINE
  5
74
100
AcDbEntity
  8
Additional Graphics
 62
     9
100
AcDbSpline
210
0.0
220
0.0
230
1.0
 70
     1
 71
     3
 72
    20
 73
    16
 74
     0
 42
0.0000000001
 43
0.0000000001
 40
0.0
 40
0.0
 40
0.0
 40
0.0
 40
0.25
 40
0.25
 40
0.25
 40
0.25
 40
0.5
 40
0.5
 40
0.5
 40
0.5
 40
0.75
 40
0.75
 40
0.75
 40
0.75
 40
1.0
 40
1.0
 40
1.0
 40
1.0
 10
0.9881771653543308
 20
2.5370393700787401
 30
0.0
 10
0.9881771653543308
 20
2.5370393700787401
 30
0.0
 10
1.619992125984252
 20
2.1451850393700789
 30
0.0
 10
1.619992125984252
 20
2.1451850393700789
 30
0.0
 10
1.619992125984252
 20
2.1451850393700789
 30
0.0
 10
1.619992125984252
 20
2.1451850393700789
 30
0.0
 10
1.6239133858267718
 20
1.8133346456692914
 30
0.0
 10
1.6239133858267718
 20
1.8133346456692914
 30
0.0
 10
1.6239133858267718
 20
1.8133346456692914
 30
0.0
 10
1.6239133858267718
 20
1.8133346456692914
 30
0.0
 10
0.9920984251968504
 20
2.2051889763779529
 30
0.0
 10
0.9920984251968504
 20
2.2051889763779529
 30
0.0
 10
0.9920984251968504
 20
2.2051889763779529
 30
0.0
 10
0.9920984251968504
 20
2.2051889763779529
 30
0.0
 10
0.9881771653543308
 20
2.5370393700787401
 30
0.0
 10
0.9881771653543308
 20
2.5370393700787401
 30
0.0
  0
SPLINE
  5
75
100
AcDbEntity
  8
Additional Graphics
370
     5
100
AcDbSpline
210
0.0
220
0.0
230
1.0
 70
     1
 71
     3
 72
    20
 73
    16
 74
     0
 42
0.0000000001
 43
0.0000000001
 40
0.0
 40
0.0
 40
0.0
 40
0.0
 40
0.25
 40
0.25
 40
0.25
 40
0.25
 40
0.5
 40
0.5
 40
0.5
 40
0.5
 40
0.75
 40
0.75
 40
0.75
 40
0.75
 40
1.0
 40
1.0
 40
1.0
 40
1.0
 10
0.9881771653543308
 20
2.5370393700787401
 30
0.0
 10
0.9881771653543308
 20
2.5370393700787401
 30
0.0
 10
1.619992125984252
 20
2.1451850393700789
 30
0.0
 10
1.619992125984252
 20
2.1451850393700789
 30
0.0
 10
1.619992125984252
 20
2.1451850393700789
 30
0.0
 10
1.619992125984252
 20
2.1451850393700789
 30
0.0
 10
1.6239133858267718
 20
1.8133346456692914
 30
0.0
 10
1.6239133858267718
 20
1.8133346456692914
 30
0.0
 10
1.6239133858267718
 20
1.8133346456692914
 30
0.0
 10
1.6239133858267718
 20
1.8133346456692914
 30
0.0
 10
0.9920984251968504
 20
2.2051889763779529
 30
0.0
 10
0.9920984251968504
 20
2.2051889763779529
 30
0.0
 10
0.9920984251968504
 20
2.2051889763779529
 30
0.0
 10
0.9920984251968504
 20
2.2051889763779529
 30
0.0
 10
0.9881771653543308
 20
2.5370393700787401
 30
0.0
 10
0.9881771653543308
 20
2.5370393700787401
 30
0.0
  0
SPLINE
  5
76
100
AcDbEntity
  8
Additional Graphics
 62
   253
100
AcDbSpline
210
0.0
220
0.0
230
1.0
 70
     1
 71
     3
 72
    20
 73
    16
 74
     0
 42
0.0000000001
 43
0.0000000001
 40
0.0
 40
0.0
 40
0.0
 40
0.0
 40
0.25
 40
0.25
 40
0.25
 40
0.25
 40
0.5
 40
0.5
 40
0.5
 40
0.5
 40
0.75
 40
0.75
 40
0.75
 40
0.75
 40
1.0
 40
1.0
 40
1.0
 40
1.0
 10
0.9920984251968504
 20
2.2051889763779529
 30
0.0
 10
0.9920984251968504
 20
2.2051889763779529
 30
0.0
 10
1.6239133858267718
 20
1.8133346456692914
 30
0.0
 10
1.6239133858267718
 20
1.8133346456692914
 30
0.0
 10
1.6239133858267718
 20
1.8133346456692914
 30
0.0
 10
1.6239133858267718
 20
1.8133346456692914
 30
0.0
 10
1.3888425196850394
 20
1.8173700787401577
 30
0.0
 10
1.3888425196850394
 20
1.8173700787401577
 30
0.0
 10
1.3888425196850394
 20
1.8173700787401577
 30
0.0
 10
1.3888425196850394
 20
1.8173700787401577
 30
0.0
 10
0.7570275590551181
 20
2.2092244094488191
 30
0.0
 10
0.7570275590551181
 20
2.2092244094488191
 30
0.0
 10
0.7570275590551181
 20
2.2092244094488191
 30
0.0
 10
0.7570275590551181
 20
2.2092244094488191
 30
0.0
 10
0.9920984251968504
 20
2.2051889763779529
 30
0.0
 10
0.9920984251968504
 20
2.2051889763779529
 30
0.0
  0
SPLINE
  5
77
100
AcDbEntity
  8
Additional Graphics
370
     5
100
AcDbSpline
210
0.0
220
0.0
230
1.0
 70
     1
 71
     3
 72
    20
 73
    16
 74
     0
 42
0.0000000001
 43
0.0000000001
 40
0.0
 40
0.0
 40
0.0
 40
0.0
 40
0.25
 40
0.25
 40
0.25
 40
0.25
 40
0.5
 40
0.5
 40
0.5
 40
0.5
 40
0.75
 40
0.75
 40
0.75
 40
0.75
 40
1.0
 40
1.0
 40
1.0
 40
1.0
 10
0.9920984251968504
 20
2.2051889763779529
 30
0.0
 10
0.9920984251968504
 20
2.2051889763779529
 30
0.0
 10
1.6239133858267718
 20
1.8133346456692914
 30
0.0
 10
1.6239133858267718
 20
1.8133346456692914
 30
0.0
 10
1.6239133858267718
 20
1.8133346456692914
 30
0.0
 10
1.6239133858267718
 20
1.8133346456692914
 30
0.0
 10
1.3888425196850394
 20
1.8173700787401577
 30
0.0
 10
1.3888425196850394
 20
1.8173700787401577
 30
0.0
 10
1.3888425196850394
 20
1.8173700787401577
 30
0.0
 10
1.3888425196850394
 20
1.8173700787401577
 30
0.0
 10
0.7570275590551181
 20
2.2092244094488191
 30
0.0
 10
0.7570275590551181
 20
2.2092244094488191
 30
0.0
 10
0.7570275590551181
 20
2.2092244094488191
 30
0.0
 10
0.7570275590551181
 20
2.2092244094488191
 30
0.0
 10
0.9920984251968504
 20
2.2051889763779529
 30
0.0
 10
0.9920984251968504
 20
2.2051889763779529
 30
0.0
  0
SPLINE
  5
78
100
AcDbEntity
  8
Additional Graphics
 62
     9
100
AcDbSpline
210
0.0
220
0.0
230
1.0
 70
     1
 71
     3
 72
    20
 73
    16
 74
     0
 42
0.0000000001
 43
0.0000000001
 40
0.0
 40
0.0
 40
0.0
 40
0.0
 40
0.25
 40
0.25
 40
0.25
 40
0.25
 40
0.5
 40
0.5
 40
0.5
 40
0.5
 40
0.75
 40
0.75
 40
0.75
 40
0.75
 40
1.0
 40
1.0
 40
1.0
 40
1.0
 10
0.7570275590551181
 20
2.2092244094488191
 30
0.0
 10
0.7570275590551181
 20
2.2092244094488191
 30
0.0
 10
1.3888425196850394
 20
1.8173700787401577
 30
0.0
 10
1.3888425196850394
 20
1.8173700787401577
 30
0.0
 10
1.3888425196850394
 20
1.8173700787401577
 30
0.0
 10
1.3888425196850394
 20
1.8173700787401577
 30
0.0
 10
1.3911692913385827
 20
1.6209566929133858
 30
0.0
 10
1.3911692913385827
 20
1.6209566929133858
 30
0.0
 10
1.3911692913385827
 20
1.6209566929133858
 30
0.0
 10
1.3911692913385827
 20
1.6209566929133858
 30
0.0
 10
0.7593543307086614
 20
2.0128110236220471
 30
0.0
 10
0.7593543307086614
 20
2.0128110236220471
 30
0.0
 10
0.7593543307086614
 20
2.0128110236220471
 30
0.0
 10
0.7593543307086614
 20
2.0128110236220471
 30
0.0
 10
0.7570275590551181
 20
2.2092244094488191
 30
0.0
 10
0.7570275590551181
 20
2.2092244094488191
 30
0.0
  0
SPLINE
  5
79
100
AcDbEntity
  8
Additional Graphics
370
     5
100
AcDbSpline
210
0.0
220
0.0
230
1.0
 70
     1
 71
     3
 72
    20
 73
    16
 74
     0
 42
0.0000000001
 43
0.0000000001
 40
0.0
 40
0.0
 40
0.0
 40
0.0
 40
0.25
 40
0.25
 40
0.25
 40
0.25
 40
0.5
 40
0.5
 40
0.5
 40
0.5
 40
0.75
 40
0.75
 40
0.75
 40
0.75
 40
1.0
 40
1.0
 40
1.0
 40
1.0
 10
0.7570275590551181
 20
2.2092244094488191
 30
0.0
 10
0.7570275590551181
 20
2.2092244094488191
 30
0.0
 10
1.3888425196850394
 20
1.8173700787401577
 30
0.0
 10
1.3888425196850394
 20
1.8173700787401577
 30
0.0
 10
1.3888425196850394
 20
1.8173700787401577
 30
0.0
 10
1.3888425196850394
 20
1.8173700787401577
 30
0.0
 10
1.3911692913385827
 20
1.6209566929133858
 30
0.0
 10
1.3911692913385827
 20
1.6209566929133858
 30
0.0
 10
1.3911692913385827
 20
1.6209566929133858
 30
0.0
 10
1.3911692913385827
 20
1.6209566929133858
 30
0.0
 10
0.7593543307086614
 20
2.0128110236220471
 30
0.0
 10
0.7593543307086614
 20
2.0128110236220471
 30
0.0
 10
0.7593543307086614
 20
2.0128110236220471
 30
0.0
 10
0.7593543307086614
 20
2.0128110236220471
 30
0.0
 10
0.7570275590551181
 20
2.2092244094488191
 30
0.0
 10
0.7570275590551181
 20
2.2092244094488191
 30
0.0
  0
SPLINE
  5
7A
100
AcDbEntity
  8
Additional Graphics
 62
     9
100
AcDbSpline
210
0.0
220
0.0
230
1.0
 70
     1
 71
     3
 72
    20
 73
    16
 74
     0
 42
0.0000000001
 43
0.0000000001
 40
0.0
 40
0.0
 40
0.0
 40
0.0
 40
0.25
 40
0.25
 40
0.25
 40
0.25
 40
0.5
 40
0.5
 40
0.5
 40
0.5
 40
0.75
 40
0.75
 40
0.75
 40
0.75
 40
1.0
 40
1.0
 40
1.0
 40
1.0
 10
0.7593543307086614
 20
2.0128110236220471
 30
0.0
 10
0.7593543307086614
 20
2.0128110236220471
 30
0.0
 10
1.3911692913385827
 20
1.6209566929133858
 30
0.0
 10
1.3911692913385827
 20
1.6209566929133858
 30
0.0
 10
1.3911692913385827
 20
1.6209566929133858
 30
0.0
 10
1.3911692913385827
 20
1.6209566929133858
 30
0.0
 10
1.3055393700787401
 20
1.6038858267716536
 30
0.0
 10
1.3055393700787401
 20
1.6038858267716536
 30
0.0
 10
1.3055393700787401
 20
1.6038858267716536
 30
0.0
 10
1.3055393700787401
 20
1.6038858267716536
 30
0.0
 10
0.673724409448819
 20
1.9957401574803151
 30
0.0
 10
0.673724409448819
 20
1.9957401574803151
 30
0.0
 10
0.673724409448819
 20
1.9957401574803151
 30
0.0
 10
0.673724409448819
 20
1.9957401574803151
 30
0.0
 10
0.7593543307086614
 20
2.0128110236220471
 30
0.0
 10
0.7593543307086614
 20
2.0128110236220471
 30
0.0
  0
SPLINE
  5
7B
100
AcDbEntity
  8
Additional Graphics
 62
     9
100
AcDbSpline
210
0.0
220
0.0
230
1.0
 70
     1
 71
     3
 72
    20
 73
    16
 74
     0
 42
0.0000000001
 43
0.0000000001
 40
0.0
 40
0.0
 40
0.0
 40
0.0
 40
0.25
 40
0.25
 40
0.25
 40
0.25
 40
0.5
 40
0.5
 40
0.5
 40
0.5
 40
0.75
 40
0.75
 40
0.75
 40
0.75
 40
1.0
 40
1.0
 40
1.0
 40
1.0
 10
0.673724409448819
 20
1.9957401574803151
 30
0.0
 10
0.673724409448819
 20
1.9957401574803151
 30
0.0
 10
1.3055393700787401
 20
1.6038858267716536
 30
0.0
 10
1.3055393700787401
 20
1.6038858267716536
 30
0.0
 10
1.3055393700787401
 20
1.6038858267716536
 30
0.0
 10
1.3055393700787401
 20
1.6038858267716536
 30
0.0
 10
1.22448031496063
 20
1.584208661417323
 30
0.0
 10
1.22448031496063
 20
1.584208661417323
 30
0.0
 10
1.22448031496063
 20
1.584208661417323
 30
0.0
 10
1.22448031496063
 20
1.584208661417323
 30
0.0
 10
0.5926653543307087
 20
1.9760629921259842
 30
0.0
 10
0.5926653543307087
 20
1.9760629921259842
 30
0.0
 10
0.5926653543307087
 20
1.9760629921259842
 30
0.0
 10
0.5926653543307087
 20
1.9760629921259842
 30
0.0
 10
0.673724409448819
 20
1.9957401574803151
 30
0.0
 10
0.673724409448819
 20
1.9957401574803151
 30
0.0
  0
SPLINE
  5
7C
100
AcDbEntity
  8
Additional Graphics
 62
     9
100
AcDbSpline
210
0.0
220
0.0
230
1.0
 70
     1
 71
     3
 72
    20
 73
    16
 74
     0
 42
0.0000000001
 43
0.0000000001
 40
0.0
 40
0.0
 40
0.0
 40
0.0
 40
0.25
 40
0.25
 40
0.25
 40
0.25
 40
0.5
 40
0.5
 40
0.5
 40
0.5
 40
0.75
 40
0.75
 40
0.75
 40
0.75
 40
1.0
 40
1.0
 40
1.0
 40
1.0
 10
0.5926653543307087
 20
1.9760629921259842
 30
0.0
 10
0.5926653543307087
 20
1.9760629921259842
 30
0.0
 10
1.22448031496063
 20
1.584208661417323
 30
0.0
 10
1.22448031496063
 20
1.584208661417323
 30
0.0
 10
1.22448031496063
 20
1.584208661417323
 30
0.0
 10
1.22448031496063
 20
1.584208661417323
 30
0.0
 10
1.1478464566929134
 20
1.5620866141732284
 30
0.0
 10
1.1478464566929134
 20
1.5620866141732284
 30
0.0
 10
1.1478464566929134
 20
1.5620866141732284
 30
0.0
 10
1.1478464566929134
 20
1.5620866141732284
 30
0.0
 10
0.5160314960629922
 20
1.9539409448818899
 30
0.0
 10
0.5160314960629922
 20
1.9539409448818899
 30
0.0
 10
0.5160314960629922
 20
1.9539409448818899
 30
0.0
 10
0.5160314960629922
 20
1.9539409448818899
 30
0.0
 10
0.5926653543307087
 20
1.9760629921259842
 30
0.0
 10
0.5926653543307087
 20
1.9760629921259842
 30
0.0
  0
SPLINE
  5
7D
100
AcDbEntity
  8
Additional Graphics
 62
     9
100
AcDbSpline
210
0.0
220
0.0
230
1.0
 70
     1
 71
     3
 72
    20
 73
    16
 74
     0
 42
0.0000000001
 43
0.0000000001
 40
0.0
 40
0.0
 40
0.0
 40
0.0
 40
0.25
 40
0.25
 40
0.25
 40
0.25
 40
0.5
 40
0.5
 40
0.5
 40
0.5
 40
0.75
 40
0.75
 40
0.75
 40
0.75
 40
1.0
 40
1.0
 40
1.0
 40
1.0
 10
0.5160314960629922
 20
1.9539409448818899
 30
0.0
 10
0.5160314960629922
 20
1.9539409448818899
 30
0.0
 10
1.1478464566929134
 20
1.5620866141732284
 30
0.0
 10
1.1478464566929134
 20
1.5620866141732284
 30
0.0
 10
1.1478464566929134
 20
1.5620866141732284
 30
0.0
 10
1.1478464566929134
 20
1.5620866141732284
 30
0.0
 10
1.0755118110236221
 20
1.5376496062992127
 30
0.0
 10
1.0755118110236221
 20
1.5376496062992127
 30
0.0
 10
1.0755118110236221
 20
1.5376496062992127
 30
0.0
 10
1.0755118110236221
 20
1.5376496062992127
 30
0.0
 10
0.4436968503937008
 20
1.9295039370078741
 30
0.0
 10
0.4436968503937008
 20
1.9295039370078741
 30
0.0
 10
0.4436968503937008
 20
1.9295039370078741
 30
0.0
 10
0.4436968503937008
 20
1.9295039370078741
 30
0.0
 10
0.5160314960629922
 20
1.9539409448818899
 30
0.0
 10
0.5160314960629922
 20
1.9539409448818899
 30
0.0
  0
SPLINE
  5
7E
100
AcDbEntity
  8
Additional Graphics
 62
     9
100
AcDbSpline
210
0.0
220
0.0
230
1.0
 70
     1
 71
     3
 72
    20
 73
    16
 74
     0
 42
0.0000000001
 43
0.0000000001
 40
0.0
 40
0.0
 40
0.0
 40
0.0
 40
0.25
 40
0.25
 40
0.25
 40
0.25
 40
0.5
 40
0.5
 40
0.5
 40
0.5
 40
0.75
 40
0.75
 40
0.75
 40
0.75
 40
1.0
 40
1.0
 40
1.0
 40
1.0
 10
0.4436968503937008
 20
1.9295039370078741
 30
0.0
 10
0.4436968503937008
 20
1.9295039370078741
 30
0.0
 10
1.0755118110236221
 20
1.5376496062992127
 30
0.0
 10
1.0755118110236221
 20
1.5376496062992127
 30
0.0
 10
1.0755118110236221
 20
1.5376496062992127
 30
0.0
 10
1.0755118110236221
 20
1.5376496062992127
 30
0.0
 10
1.0073346456692913
 20
1.5110551181102363
 30
0.0
 10
1.0073346456692913
 20
1.5110551181102363
 30
0.0
 10
1.0073346456692913
 20
1.5110551181102363
 30
0.0
 10
1.0073346456692913
 20
1.5110551181102363
 30
0.0
 10
0.3755196850393701
 20
1.9029094488188978
 30
0.0
 10
0.3755196850393701
 20
1.9029094488188978
 30
0.0
 10
0.3755196850393701
 20
1.9029094488188978
 30
0.0
 10
0.3755196850393701
 20
1.9029094488188978
 30
0.0
 10
0.4436968503937008
 20
1.9295039370078741
 30
0.0
 10
0.4436968503937008
 20
1.9295039370078741
 30
0.0
  0
SPLINE
  5
7F
100
AcDbEntity
  8
Additional Graphics
 62
     9
100
AcDbSpline
210
0.0
220
0.0
230
1.0
 70
     1
 71
     3
 72
    20
 73
    16
 74
     0
 42
0.0000000001
 43
0.0000000001
 40
0.0
 40
0.0
 40
0.0
 40
0.0
 40
0.25
 40
0.25
 40
0.25
 40
0.25
 40
0.5
 40
0.5
 40
0.5
 40
0.5
 40
0.75
 40
0.75
 40
0.75
 40
0.75
 40
1.0
 40
1.0
 40
1.0
 40
1.0
 10
0.3755196850393701
 20
1.9029094488188978
 30
0.0
 10
0.3755196850393701
 20
1.9029094488188978
 30
0.0
 10
1.0073346456692913
 20
1.5110551181102363
 30
0.0
 10
1.0073346456692913
 20
1.5110551181102363
 30
0.0
 10
1.0073346456692913
 20
1.5110551181102363
 30
0.0
 10
1.0073346456692913
 20
1.5110551181102363
 30
0.0
 10
0.9431692913385827
 20
1.4824330708661417
 30
0.0
 10
0.9431692913385827
 20
1.4824330708661417
 30
0.0
 10
0.9431692913385827
 20
1.4824330708661417
 30
0.0
 10
0.9431692913385827
 20
1.4824330708661417
 30
0.0
 10
0.3113543307086614
 20
1.8742874015748032
 30
0.0
 10
0.3113543307086614
 20
1.8742874015748032
 30
0.0
 10
0.3113543307086614
 20
1.8742874015748032
 30
0.0
 10
0.3113543307086614
 20
1.8742874015748032
 30
0.0
 10
0.3755196850393701
 20
1.9029094488188978
 30
0.0
 10
0.3755196850393701
 20
1.9029094488188978
 30
0.0
  0
SPLINE
  5
80
100
AcDbEntity
  8
Additional Graphics
 62
     9
100
AcDbSpline
210
0.0
220
0.0
230
1.0
 70
     1
 71
     3
 72
    20
 73
    16
 74
     0
 42
0.0000000001
 43
0.0000000001
 40
0.0
 40
0.0
 40
0.0
 40
0.0
 40
0.25
 40
0.25
 40
0.25
 40
0.25
 40
0.5
 40
0.5
 40
0.5
 40
0.5
 40
0.75
 40
0.75
 40
0.75
 40
0.75
 40
1.0
 40
1.0
 40
1.0
 40
1.0
 10
0.3113543307086614
 20
1.8742874015748032
 30
0.0
 10
0.3113543307086614
 20
1.8742874015748032
 30
0.0
 10
0.9431692913385827
 20
1.4824330708661417
 30
0.0
 10
0.9431692913385827
 20
1.4824330708661417
 30
0.0
 10
0.9431692913385827
 20
1.4824330708661417
 30
0.0
 10
0.9431692913385827
 20
1.4824330708661417
 30
0.0
 10
0.8828897637795276
 20
1.4519370078740157
 30
0.0
 10
0.8828897637795276
 20
1.4519370078740157
 30
0.0
 10
0.8828897637795276
 20
1.4519370078740157
 30
0.0
 10
0.8828897637795276
 20
1.4519370078740157
 30
0.0
 10
0.2510748031496063
 20
1.8437913385826772
 30
0.0
 10
0.2510748031496063
 20
1.8437913385826772
 30
0.0
 10
0.2510748031496063
 20
1.8437913385826772
 30
0.0
 10
0.2510748031496063
 20
1.8437913385826772
 30
0.0
 10
0.3113543307086614
 20
1.8742874015748032
 30
0.0
 10
0.3113543307086614
 20
1.8742874015748032
 30
0.0
  0
SPLINE
  5
81
100
AcDbEntity
  8
Additional Graphics
 62
     9
100
AcDbSpline
210
0.0
220
0.0
230
1.0
 70
     1
 71
     3
 72
    20
 73
    16
 74
     0
 42
0.0000000001
 43
0.0000000001
 40
0.0
 40
0.0
 40
0.0
 40
0.0
 40
0.25
 40
0.25
 40
0.25
 40
0.25
 40
0.5
 40
0.5
 40
0.5
 40
0.5
 40
0.75
 40
0.75
 40
0.75
 40
0.75
 40
1.0
 40
1.0
 40
1.0
 40
1.0
 10
0.2510748031496063
 20
1.8437913385826772
 30
0.0
 10
0.2510748031496063
 20
1.8437913385826772
 30
0.0
 10
0.8828897637795276
 20
1.4519370078740157
 30
0.0
 10
0.8828897637795276
 20
1.4519370078740157
 30
0.0
 10
0.8828897637795276
 20
1.4519370078740157
 30
0.0
 10
0.8828897637795276
 20
1.4519370078740157
 30
0.0
 10
0.8263503937007874
 20
1.4197047244094489
 30
0.0
 10
0.8263503937007874
 20
1.4197047244094489
 30
0.0
 10
0.8263503937007874
 20
1.4197047244094489
 30
0.0
 10
0.8263503937007874
 20
1.4197047244094489
 30
0.0
 10
0.1945354330708662
 20
1.8115590551181102
 30
0.0
 10
0.1945354330708662
 20
1.8115590551181102
 30
0.0
 10
0.1945354330708662
 20
1.8115590551181102
 30
0.0
 10
0.1945354330708662
 20
1.8115590551181102
 30
0.0
 10
0.2510748031496063
 20
1.8437913385826772
 30
0.0
 10
0.2510748031496063
 20
1.8437913385826772
 30
0.0
  0
SPLINE
  5
82
100
AcDbEntity
  8
Additional Graphics
 62
     9
100
AcDbSpline
210
0.0
220
0.0
230
1.0
 70
     1
 71
     3
 72
    20
 73
    16
 74
     0
 42
0.0000000001
 43
0.0000000001
 40
0.0
 40
0.0
 40
0.0
 40
0.0
 40
0.25
 40
0.25
 40
0.25
 40
0.25
 40
0.5
 40
0.5
 40
0.5
 40
0.5
 40
0.75
 40
0.75
 40
0.75
 40
0.75
 40
1.0
 40
1.0
 40
1.0
 40
1.0
 10
0.1945354330708662
 20
1.8115590551181102
 30
0.0
 10
0.1945354330708662
 20
1.8115590551181102
 30
0.0
 10
0.8263503937007874
 20
1.4197047244094489
 30
0.0
 10
0.8263503937007874
 20
1.4197047244094489
 30
0.0
 10
0.8263503937007874
 20
1.4197047244094489
 30
0.0
 10
0.8263503937007874
 20
1.4197047244094489
 30
0.0
 10
0.7734330708661418
 20
1.3858897637795276
 30
0.0
 10
0.7734330708661418
 20
1.3858897637795276
 30
0.0
 10
0.7734330708661418
 20
1.3858897637795276
 30
0.0
 10
0.7734330708661418
 20
1.3858897637795276
 30
0.0
 10
0.1416181102362205
 20
1.777744094488189
 30
0.0
 10
0.1416181102362205
 20
1.777744094488189
 30
0.0
 10
0.1416181102362205
 20
1.777744094488189
 30
0.0
 10
0.1416181102362205
 20
1.777744094488189
 30
0.0
 10
0.1945354330708662
 20
1.8115590551181102
 30
0.0
 10
0.1945354330708662
 20
1.8115590551181102
 30
0.0
  0
SPLINE
  5
83
100
AcDbEntity
  8
Additional Graphics
 62
     9
100
AcDbSpline
210
0.0
220
0.0
230
1.0
 70
     1
 71
     3
 72
    20
 73
    16
 74
     0
 42
0.0000000001
 43
0.0000000001
 40
0.0
 40
0.0
 40
0.0
 40
0.0
 40
0.25
 40
0.25
 40
0.25
 40
0.25
 40
0.5
 40
0.5
 40
0.5
 40
0.5
 40
0.75
 40
0.75
 40
0.75
 40
0.75
 40
1.0
 40
1.0
 40
1.0
 40
1.0
 10
0.1416181102362205
 20
1.777744094488189
 30
0.0
 10
0.1416181102362205
 20
1.777744094488189
 30
0.0
 10
0.7734330708661418
 20
1.3858897637795276
 30
0.0
 10
0.7734330708661418
 20
1.3858897637795276
 30
0.0
 10
0.7734330708661418
 20
1.3858897637795276
 30
0.0
 10
0.7734330708661418
 20
1.3858897637795276
 30
0.0
 10
0.7239842519685039
 20
1.3506299212598425
 30
0.0
 10
0.7239842519685039
 20
1.3506299212598425
 30
0.0
 10
0.7239842519685039
 20
1.3506299212598425
 30
0.0
 10
0.7239842519685039
 20
1.3506299212598425
 30
0.0
 10
0.0921692913385827
 20
1.742484251968504
 30
0.0
 10
0.0921692913385827
 20
1.742484251968504
 30
0.0
 10
0.0921692913385827
 20
1.742484251968504
 30
0.0
 10
0.0921692913385827
 20
1.742484251968504
 30
0.0
 10
0.1416181102362205
 20
1.777744094488189
 30
0.0
 10
0.1416181102362205
 20
1.777744094488189
 30
0.0
  0
SPLINE
  5
84
100
AcDbEntity
  8
Additional Graphics
 62
     9
100
AcDbSpline
210
0.0
220
0.0
230
1.0
 70
     1
 71
     3
 72
    20
 73
    16
 74
     0
 42
0.0000000001
 43
0.0000000001
 40
0.0
 40
0.0
 40
0.0
 40
0.0
 40
0.25
 40
0.25
 40
0.25
 40
0.25
 40
0.5
 40
0.5
 40
0.5
 40
0.5
 40
0.75
 40
0.75
 40
0.75
 40
0.75
 40
1.0
 40
1.0
 40
1.0
 40
1.0
 10
0.0921692913385827
 20
1.742484251968504
 30
0.0
 10
0.0921692913385827
 20
1.742484251968504
 30
0.0
 10
0.7239842519685039
 20
1.3506299212598425
 30
0.0
 10
0.7239842519685039
 20
1.3506299212598425
 30
0.0
 10
0.7239842519685039
 20
1.3506299212598425
 30
0.0
 10
0.7239842519685039
 20
1.3506299212598425
 30
0.0
 10
0.6778740157480315
 20
1.3140748031496063
 30
0.0
 10
0.6778740157480315
 20
1.3140748031496063
 30
0.0
 10
0.6778740157480315
 20
1.3140748031496063
 30
0.0
 10
0.6778740157480315
 20
1.3140748031496063
 30
0.0
 10
0.0460590551181102
 20
1.7059291338582678
 30
0.0
 10
0.0460590551181102
 20
1.7059291338582678
 30
0.0
 10
0.0460590551181102
 20
1.7059291338582678
 30
0.0
 10
0.0460590551181102
 20
1.7059291338582678
 30
0.0
 10
0.0921692913385827
 20
1.742484251968504
 30
0.0
 10
0.0921692913385827
 20
1.742484251968504
 30
0.0
  0
SPLINE
  5
85
100
AcDbEntity
  8
Additional Graphics
 62
     9
100
AcDbSpline
210
0.0
220
0.0
230
1.0
 70
     1
 71
     3
 72
    20
 73
    16
 74
     0
 42
0.0000000001
 43
0.0000000001
 40
0.0
 40
0.0
 40
0.0
 40
0.0
 40
0.25
 40
0.25
 40
0.25
 40
0.25
 40
0.5
 40
0.5
 40
0.5
 40
0.5
 40
0.75
 40
0.75
 40
0.75
 40
0.75
 40
1.0
 40
1.0
 40
1.0
 40
1.0
 10
0.0460590551181102
 20
1.7059291338582678
 30
0.0
 10
0.0460590551181102
 20
1.7059291338582678
 30
0.0
 10
0.6778740157480315
 20
1.3140748031496063
 30
0.0
 10
0.6778740157480315
 20
1.3140748031496063
 30
0.0
 10
0.6778740157480315
 20
1.3140748031496063
 30
0.0
 10
0.6778740157480315
 20
1.3140748031496063
 30
0.0
 10
0.6349606299212599
 20
1.2763503937007874
 30
0.0
 10
0.6349606299212599
 20
1.2763503937007874
 30
0.0
 10
0.6349606299212599
 20
1.2763503937007874
 30
0.0
 10
0.6349606299212599
 20
1.2763503937007874
 30
0.0
 10
0.0031456692913386
 20
1.6682047244094489
 30
0.0
 10
0.0031456692913386
 20
1.6682047244094489
 30
0.0
 10
0.0031456692913386
 20
1.6682047244094489
 30
0.0
 10
0.0031456692913386
 20
1.6682047244094489
 30
0.0
 10
0.0460590551181102
 20
1.7059291338582678
 30
0.0
 10
0.0460590551181102
 20
1.7059291338582678
 30
0.0
  0
SPLINE
  5
86
100
AcDbEntity
  8
Additional Graphics
 62
     9
100
AcDbSpline
210
0.0
220
0.0
230
1.0
 70
     1
 71
     3
 72
    20
 73
    16
 74
     0
 42
0.0000000001
 43
0.0000000001
 40
0.0
 40
0.0
 40
0.0
 40
0.0
 40
0.25
 40
0.25
 40
0.25
 40
0.25
 40
0.5
 40
0.5
 40
0.5
 40
0.5
 40
0.75
 40
0.75
 40
0.75
 40
0.75
 40
1.0
 40
1.0
 40
1.0
 40
1.0
 10
0.0031456692913386
 20
1.6682047244094489
 30
0.0
 10
0.0031456692913386
 20
1.6682047244094489
 30
0.0
 10
0.6349606299212599
 20
1.2763503937007874
 30
0.0
 10
0.6349606299212599
 20
1.2763503937007874
 30
0.0
 10
0.6349606299212599
 20
1.2763503937007874
 30
0.0
 10
0.6349606299212599
 20
1.2763503937007874
 30
0.0
 10
0.5951220472440946
 20
1.2376259842519686
 30
0.0
 10
0.5951220472440946
 20
1.2376259842519686
 30
0.0
 10
0.5951220472440946
 20
1.2376259842519686
 30
0.0
 10
0.5951220472440946
 20
1.2376259842519686
 30
0.0
 10
-0.0366929133858268
 20
1.6294803149606301
 30
0.0
 10
-0.0366929133858268
 20
1.6294803149606301
 30
0.0
 10
-0.0366929133858268
 20
1.6294803149606301
 30
0.0
 10
-0.0366929133858268
 20
1.6294803149606301
 30
0.0
 10
0.0031456692913386
 20
1.6682047244094489
 30
0.0
 10
0.0031456692913386
 20
1.6682047244094489
 30
0.0
  0
SPLINE
  5
87
100
AcDbEntity
  8
Additional Graphics
 62
     9
100
AcDbSpline
210
0.0
220
0.0
230
1.0
 70
     1
 71
     3
 72
    20
 73
    16
 74
     0
 42
0.0000000001
 43
0.0000000001
 40
0.0
 40
0.0
 40
0.0
 40
0.0
 40
0.25
 40
0.25
 40
0.25
 40
0.25
 40
0.5
 40
0.5
 40
0.5
 40
0.5
 40
0.75
 40
0.75
 40
0.75
 40
0.75
 40
1.0
 40
1.0
 40
1.0
 40
1.0
 10
-0.0366929133858268
 20
1.6294803149606301
 30
0.0
 10
-0.0366929133858268
 20
1.6294803149606301
 30
0.0
 10
0.5951220472440946
 20
1.2376259842519686
 30
0.0
 10
0.5951220472440946
 20
1.2376259842519686
 30
0.0
 10
0.5951220472440946
 20
1.2376259842519686
 30
0.0
 10
0.5951220472440946
 20
1.2376259842519686
 30
0.0
 10
0.5582047244094488
 20
1.1980275590551182
 30
0.0
 10
0.5582047244094488
 20
1.1980275590551182
 30
0.0
 10
0.5582047244094488
 20
1.1980275590551182
 30
0.0
 10
0.5582047244094488
 20
1.1980275590551182
 30
0.0
 10
-0.0736102362204724
 20
1.5898818897637796
 30
0.0
 10
-0.0736102362204724
 20
1.5898818897637796
 30
0.0
 10
-0.0736102362204724
 20
1.5898818897637796
 30
0.0
 10
-0.0736102362204724
 20
1.5898818897637796
 30
0.0
 10
-0.0366929133858268
 20
1.6294803149606301
 30
0.0
 10
-0.0366929133858268
 20
1.6294803149606301
 30
0.0
  0
SPLINE
  5
88
100
AcDbEntity
  8
Additional Graphics
 62
     9
100
AcDbSpline
210
0.0
220
0.0
230
1.0
 70
     1
 71
     3
 72
    20
 73
    16
 74
     0
 42
0.0000000001
 43
0.0000000001
 40
0.0
 40
0.0
 40
0.0
 40
0.0
 40
0.25
 40
0.25
 40
0.25
 40
0.25
 40
0.5
 40
0.5
 40
0.5
 40
0.5
 40
0.75
 40
0.75
 40
0.75
 40
0.75
 40
1.0
 40
1.0
 40
1.0
 40
1.0
 10
-0.0736102362204724
 20
1.5898818897637796
 30
0.0
 10
-0.0736102362204724
 20
1.5898818897637796
 30
0.0
 10
0.5582047244094488
 20
1.1980275590551182
 30
0.0
 10
0.5582047244094488
 20
1.1980275590551182
 30
0.0
 10
0.5582047244094488
 20
1.1980275590551182
 30
0.0
 10
0.5582047244094488
 20
1.1980275590551182
 30
0.0
 10
0.5240826771653544
 20
1.1577086614173229
 30
0.0
 10
0.5240826771653544
 20
1.1577086614173229
 30
0.0
 10
0.5240826771653544
 20
1.1577086614173229
 30
0.0
 10
0.5240826771653544
 20
1.1577086614173229
 30
0.0
 10
-0.1077322834645669
 20
1.5495629921259844
 30
0.0
 10
-0.1077322834645669
 20
1.5495629921259844
 30
0.0
 10
-0.1077322834645669
 20
1.5495629921259844
 30
0.0
 10
-0.1077322834645669
 20
1.5495629921259844
 30
0.0
 10
-0.0736102362204724
 20
1.5898818897637796
 30
0.0
 10
-0.0736102362204724
 20
1.5898818897637796
 30
0.0
  0
SPLINE
  5
89
100
AcDbEntity
  8
Additional Graphics
 62
     9
100
AcDbSpline
210
0.0
220
0.0
230
1.0
 70
     1
 71
     3
 72
    20
 73
    16
 74
     0
 42
0.0000000001
 43
0.0000000001
 40
0.0
 40
0.0
 40
0.0
 40
0.0
 40
0.25
 40
0.25
 40
0.25
 40
0.25
 40
0.5
 40
0.5
 40
0.5
 40
0.5
 40
0.75
 40
0.75
 40
0.75
 40
0.75
 40
1.0
 40
1.0
 40
1.0
 40
1.0
 10
-0.1077322834645669
 20
1.5495629921259844
 30
0.0
 10
-0.1077322834645669
 20
1.5495629921259844
 30
0.0
 10
0.5240826771653544
 20
1.1577086614173229
 30
0.0
 10
0.5240826771653544
 20
1.1577086614173229
 30
0.0
 10
0.5240826771653544
 20
1.1577086614173229
 30
0.0
 10
0.5240826771653544
 20
1.1577086614173229
 30
0.0
 10
0.4926141732283465
 20
1.1168031496062993
 30
0.0
 10
0.4926141732283465
 20
1.1168031496062993
 30
0.0
 10
0.4926141732283465
 20
1.1168031496062993
 30
0.0
 10
0.4926141732283465
 20
1.1168031496062993
 30
0.0
 10
-0.1392007874015748
 20
1.5086574803149606
 30
0.0
 10
-0.1392007874015748
 20
1.5086574803149606
 30
0.0
 10
-0.1392007874015748
 20
1.5086574803149606
 30
0.0
 10
-0.1392007874015748
 20
1.5086574803149606
 30
0.0
 10
-0.1077322834645669
 20
1.5495629921259844
 30
0.0
 10
-0.1077322834645669
 20
1.5495629921259844
 30
0.0
  0
SPLINE
  5
8A
100
AcDbEntity
  8
Additional Graphics
 62
     9
100
AcDbSpline
210
0.0
220
0.0
230
1.0
 70
     1
 71
     3
 72
    20
 73
    16
 74
     0
 42
0.0000000001
 43
0.0000000001
 40
0.0
 40
0.0
 40
0.0
 40
0.0
 40
0.25
 40
0.25
 40
0.25
 40
0.25
 40
0.5
 40
0.5
 40
0.5
 40
0.5
 40
0.75
 40
0.75
 40
0.75
 40
0.75
 40
1.0
 40
1.0
 40
1.0
 40
1.0
 10
-0.1392007874015748
 20
1.5086574803149606
 30
0.0
 10
-0.1392007874015748
 20
1.5086574803149606
 30
0.0
 10
0.4926141732283465
 20
1.1168031496062993
 30
0.0
 10
0.4926141732283465
 20
1.1168031496062993
 30
0.0
 10
0.4926141732283465
 20
1.1168031496062993
 30
0.0
 10
0.4926141732283465
 20
1.1168031496062993
 30
0.0
 10
0.4636771653543307
 20
1.0754724409448819
 30
0.0
 10
0.4636771653543307
 20
1.0754724409448819
 30
0.0
 10
0.4636771653543307
 20
1.0754724409448819
 30
0.0
 10
0.4636771653543307
 20
1.0754724409448819
 30
0.0
 10
-0.1681377952755906
 20
1.4673267716535434
 30
0.0
 10
-0.1681377952755906
 20
1.4673267716535434
 30
0.0
 10
-0.1681377952755906
 20
1.4673267716535434
 30
0.0
 10
-0.1681377952755906
 20
1.4673267716535434
 30
0.0
 10
-0.1392007874015748
 20
1.5086574803149606
 30
0.0
 10
-0.1392007874015748
 20
1.5086574803149606
 30
0.0
  0
SPLINE
  5
8B
100
AcDbEntity
  8
Additional Graphics
 62
     9
100
AcDbSpline
210
0.0
220
0.0
230
1.0
 70
     1
 71
     3
 72
    20
 73
    16
 74
     0
 42
0.0000000001
 43
0.0000000001
 40
0.0
 40
0.0
 40
0.0
 40
0.0
 40
0.25
 40
0.25
 40
0.25
 40
0.25
 40
0.5
 40
0.5
 40
0.5
 40
0.5
 40
0.75
 40
0.75
 40
0.75
 40
0.75
 40
1.0
 40
1.0
 40
1.0
 40
1.0
 10
-0.1681377952755906
 20
1.4673267716535434
 30
0.0
 10
-0.1681377952755906
 20
1.4673267716535434
 30
0.0
 10
0.4636771653543307
 20
1.0754724409448819
 30
0.0
 10
0.4636771653543307
 20
1.0754724409448819
 30
0.0
 10
0.4636771653543307
 20
1.0754724409448819
 30
0.0
 10
0.4636771653543307
 20
1.0754724409448819
 30
0.0
 10
0.4371181102362205
 20
1.0338464566929135
 30
0.0
 10
0.4371181102362205
 20
1.0338464566929135
 30
0.0
 10
0.4371181102362205
 20
1.0338464566929135
 30
0.0
 10
0.4371181102362205
 20
1.0338464566929135
 30
0.0
 10
-0.1946968503937008
 20
1.4257007874015748
 30
0.0
 10
-0.1946968503937008
 20
1.4257007874015748
 30
0.0
 10
-0.1946968503937008
 20
1.4257007874015748
 30
0.0
 10
-0.1946968503937008
 20
1.4257007874015748
 30
0.0
 10
-0.1681377952755906
 20
1.4673267716535434
 30
0.0
 10
-0.1681377952755906
 20
1.4673267716535434
 30
0.0
  0
SPLINE
  5
8C
100
AcDbEntity
  8
Additional Graphics
 62
     9
100
AcDbSpline
210
0.0
220
0.0
230
1.0
 70
     1
 71
     3
 72
    20
 73
    16
 74
     0
 42
0.0000000001
 43
0.0000000001
 40
0.0
 40
0.0
 40
0.0
 40
0.0
 40
0.25
 40
0.25
 40
0.25
 40
0.25
 40
0.5
 40
0.5
 40
0.5
 40
0.5
 40
0.75
 40
0.75
 40
0.75
 40
0.75
 40
1.0
 40
1.0
 40
1.0
 40
1.0
 10
-0.1946968503937008
 20
1.4257007874015748
 30
0.0
 10
-0.1946968503937008
 20
1.4257007874015748
 30
0.0
 10
0.4371181102362205
 20
1.0338464566929135
 30
0.0
 10
0.4371181102362205
 20
1.0338464566929135
 30
0.0
 10
0.4371181102362205
 20
1.0338464566929135
 30
0.0
 10
0.4371181102362205
 20
1.0338464566929135
 30
0.0
 10
0.4128110236220473
 20
0.9920748031496064
 30
0.0
 10
0.4128110236220473
 20
0.9920748031496064
 30
0.0
 10
0.4128110236220473
 20
0.9920748031496064
 30
0.0
 10
0.4128110236220473
 20
0.9920748031496064
 30
0.0
 10
-0.219003937007874
 20
1.3839291338582678
 30
0.0
 10
-0.219003937007874
 20
1.3839291338582678
 30
0.0
 10
-0.219003937007874
 20
1.3839291338582678
 30
0.0
 10
-0.219003937007874
 20
1.3839291338582678
 30
0.0
 10
-0.1946968503937008
 20
1.4257007874015748
 30
0.0
 10
-0.1946968503937008
 20
1.4257007874015748
 30
0.0
  0
SPLINE
  5
8D
100
AcDbEntity
  8
Additional Graphics
 62
     9
100
AcDbSpline
210
0.0
220
0.0
230
1.0
 70
     1
 71
     3
 72
    20
 73
    16
 74
     0
 42
0.0000000001
 43
0.0000000001
 40
0.0
 40
0.0
 40
0.0
 40
0.0
 40
0.25
 40
0.25
 40
0.25
 40
0.25
 40
0.5
 40
0.5
 40
0.5
 40
0.5
 40
0.75
 40
0.75
 40
0.75
 40
0.75
 40
1.0
 40
1.0
 40
1.0
 40
1.0
 10
-0.219003937007874
 20
1.3839291338582678
 30
0.0
 10
-0.219003937007874
 20
1.3839291338582678
 30
0.0
 10
0.4128110236220473
 20
0.9920748031496064
 30
0.0
 10
0.4128110236220473
 20
0.9920748031496064
 30
0.0
 10
0.4128110236220473
 20
0.9920748031496064
 30
0.0
 10
0.4128110236220473
 20
0.9920748031496064
 30
0.0
 10
0.3906102362204725
 20
0.9502992125984252
 30
0.0
 10
0.3906102362204725
 20
0.9502992125984252
 30
0.0
 10
0.3906102362204725
 20
0.9502992125984252
 30
0.0
 10
0.3906102362204725
 20
0.9502992125984252
 30
0.0
 10
-0.2412047244094488
 20
1.3421535433070866
 30
0.0
 10
-0.2412047244094488
 20
1.3421535433070866
 30
0.0
 10
-0.2412047244094488
 20
1.3421535433070866
 30
0.0
 10
-0.2412047244094488
 20
1.3421535433070866
 30
0.0
 10
-0.219003937007874
 20
1.3839291338582678
 30
0.0
 10
-0.219003937007874
 20
1.3839291338582678
 30
0.0
  0
SPLINE
  5
8E
100
AcDbEntity
  8
Additional Graphics
 62
     9
100
AcDbSpline
210
0.0
220
0.0
230
1.0
 70
     1
 71
     3
 72
    20
 73
    16
 74
     0
 42
0.0000000001
 43
0.0000000001
 40
0.0
 40
0.0
 40
0.0
 40
0.0
 40
0.25
 40
0.25
 40
0.25
 40
0.25
 40
0.5
 40
0.5
 40
0.5
 40
0.5
 40
0.75
 40
0.75
 40
0.75
 40
0.75
 40
1.0
 40
1.0
 40
1.0
 40
1.0
 10
-0.2412047244094488
 20
1.3421535433070866
 30
0.0
 10
-0.2412047244094488
 20
1.3421535433070866
 30
0.0
 10
0.3906102362204725
 20
0.9502992125984252
 30
0.0
 10
0.3906102362204725
 20
0.9502992125984252
 30
0.0
 10
0.3906102362204725
 20
0.9502992125984252
 30
0.0
 10
0.3906102362204725
 20
0.9502992125984252
 30
0.0
 10
0.3703897637795276
 20
0.9086653543307087
 30
0.0
 10
0.3703897637795276
 20
0.9086653543307087
 30
0.0
 10
0.3703897637795276
 20
0.9086653543307087
 30
0.0
 10
0.3703897637795276
 20
0.9086653543307087
 30
0.0
 10
-0.2614251968503937
 20
1.3005196850393701
 30
0.0
 10
-0.2614251968503937
 20
1.3005196850393701
 30
0.0
 10
-0.2614251968503937
 20
1.3005196850393701
 30
0.0
 10
-0.2614251968503937
 20
1.3005196850393701
 30
0.0
 10
-0.2412047244094488
 20
1.3421535433070866
 30
0.0
 10
-0.2412047244094488
 20
1.3421535433070866
 30
0.0
  0
SPLINE
  5
8F
100
AcDbEntity
  8
Additional Graphics
 62
     9
100
AcDbSpline
210
0.0
220
0.0
230
1.0
 70
     1
 71
     3
 72
    20
 73
    16
 74
     0
 42
0.0000000001
 43
0.0000000001
 40
0.0
 40
0.0
 40
0.0
 40
0.0
 40
0.25
 40
0.25
 40
0.25
 40
0.25
 40
0.5
 40
0.5
 40
0.5
 40
0.5
 40
0.75
 40
0.75
 40
0.75
 40
0.75
 40
1.0
 40
1.0
 40
1.0
 40
1.0
 10
-0.2614251968503937
 20
1.3005196850393701
 30
0.0
 10
-0.2614251968503937
 20
1.3005196850393701
 30
0.0
 10
0.3703897637795276
 20
0.9086653543307087
 30
0.0
 10
0.3703897637795276
 20
0.9086653543307087
 30
0.0
 10
0.3703897637795276
 20
0.9086653543307087
 30
0.0
 10
0.3703897637795276
 20
0.9086653543307087
 30
0.0
 10
0.352003937007874
 20
0.8673149606299213
 30
0.0
 10
0.352003937007874
 20
0.8673149606299213
 30
0.0
 10
0.352003937007874
 20
0.8673149606299213
 30
0.0
 10
0.352003937007874
 20
0.8673149606299213
 30
0.0
 10
-0.2798110236220472
 20
1.2591692913385828
 30
0.0
 10
-0.2798110236220472
 20
1.2591692913385828
 30
0.0
 10
-0.2798110236220472
 20
1.2591692913385828
 30
0.0
 10
-0.2798110236220472
 20
1.2591692913385828
 30
0.0
 10
-0.2614251968503937
 20
1.3005196850393701
 30
0.0
 10
-0.2614251968503937
 20
1.3005196850393701
 30
0.0
  0
SPLINE
  5
90
100
AcDbEntity
  8
Additional Graphics
 62
     9
100
AcDbSpline
210
0.0
220
0.0
230
1.0
 70
     1
 71
     3
 72
    20
 73
    16
 74
     0
 42
0.0000000001
 43
0.0000000001
 40
0.0
 40
0.0
 40
0.0
 40
0.0
 40
0.25
 40
0.25
 40
0.25
 40
0.25
 40
0.5
 40
0.5
 40
0.5
 40
0.5
 40
0.75
 40
0.75
 40
0.75
 40
0.75
 40
1.0
 40
1.0
 40
1.0
 40
1.0
 10
-0.2798110236220472
 20
1.2591692913385828
 30
0.0
 10
-0.2798110236220472
 20
1.2591692913385828
 30
0.0
 10
0.352003937007874
 20
0.8673149606299213
 30
0.0
 10
0.352003937007874
 20
0.8673149606299213
 30
0.0
 10
0.352003937007874
 20
0.8673149606299213
 30
0.0
 10
0.352003937007874
 20
0.8673149606299213
 30
0.0
 10
0.3353267716535433
 20
0.8263976377952756
 30
0.0
 10
0.3353267716535433
 20
0.8263976377952756
 30
0.0
 10
0.3353267716535433
 20
0.8263976377952756
 30
0.0
 10
0.3353267716535433
 20
0.8263976377952756
 30
0.0
 10
-0.296488188976378
 20
1.218251968503937
 30
0.0
 10
-0.296488188976378
 20
1.218251968503937
 30
0.0
 10
-0.296488188976378
 20
1.218251968503937
 30
0.0
 10
-0.296488188976378
 20
1.218251968503937
 30
0.0
 10
-0.2798110236220472
 20
1.2591692913385828
 30
0.0
 10
-0.2798110236220472
 20
1.2591692913385828
 30
0.0
  0
SPLINE
  5
91
100
AcDbEntity
  8
Additional Graphics
 62
     9
100
AcDbSpline
210
0.0
220
0.0
230
1.0
 70
     1
 71
     3
 72
    20
 73
    16
 74
     0
 42
0.0000000001
 43
0.0000000001
 40
0.0
 40
0.0
 40
0.0
 40
0.0
 40
0.25
 40
0.25
 40
0.25
 40
0.25
 40
0.5
 40
0.5
 40
0.5
 40
0.5
 40
0.75
 40
0.75
 40
0.75
 40
0.75
 40
1.0
 40
1.0
 40
1.0
 40
1.0
 10
-0.296488188976378
 20
1.218251968503937
 30
0.0
 10
-0.296488188976378
 20
1.218251968503937
 30
0.0
 10
0.3353267716535433
 20
0.8263976377952756
 30
0.0
 10
0.3353267716535433
 20
0.8263976377952756
 30
0.0
 10
0.3353267716535433
 20
0.8263976377952756
 30
0.0
 10
0.3353267716535433
 20
0.8263976377952756
 30
0.0
 10
0.3202047244094488
 20
0.7860433070866142
 30
0.0
 10
0.3202047244094488
 20
0.7860433070866142
 30
0.0
 10
0.3202047244094488
 20
0.7860433070866142
 30
0.0
 10
0.3202047244094488
 20
0.7860433070866142
 30
0.0
 10
-0.3116102362204725
 20
1.1778976377952757
 30
0.0
 10
-0.3116102362204725
 20
1.1778976377952757
 30
0.0
 10
-0.3116102362204725
 20
1.1778976377952757
 30
0.0
 10
-0.3116102362204725
 20
1.1778976377952757
 30
0.0
 10
-0.296488188976378
 20
1.218251968503937
 30
0.0
 10
-0.296488188976378
 20
1.218251968503937
 30
0.0
  0
SPLINE
  5
92
100
AcDbEntity
  8
Additional Graphics
 62
     9
100
AcDbSpline
210
0.0
220
0.0
230
1.0
 70
     1
 71
     3
 72
    20
 73
    16
 74
     0
 42
0.0000000001
 43
0.0000000001
 40
0.0
 40
0.0
 40
0.0
 40
0.0
 40
0.25
 40
0.25
 40
0.25
 40
0.25
 40
0.5
 40
0.5
 40
0.5
 40
0.5
 40
0.75
 40
0.75
 40
0.75
 40
0.75
 40
1.0
 40
1.0
 40
1.0
 40
1.0
 10
-0.3116102362204725
 20
1.1778976377952757
 30
0.0
 10
-0.3116102362204725
 20
1.1778976377952757
 30
0.0
 10
0.3202047244094488
 20
0.7860433070866142
 30
0.0
 10
0.3202047244094488
 20
0.7860433070866142
 30
0.0
 10
0.3202047244094488
 20
0.7860433070866142
 30
0.0
 10
0.3202047244094488
 20
0.7860433070866142
 30
0.0
 10
0.3065275590551181
 20
0.7464173228346457
 30
0.0
 10
0.3065275590551181
 20
0.7464173228346457
 30
0.0
 10
0.3065275590551181
 20
0.7464173228346457
 30
0.0
 10
0.3065275590551181
 20
0.7464173228346457
 30
0.0
 10
-0.3252874015748032
 20
1.1382716535433071
 30
0.0
 10
-0.3252874015748032
 20
1.1382716535433071
 30
0.0
 10
-0.3252874015748032
 20
1.1382716535433071
 30
0.0
 10
-0.3252874015748032
 20
1.1382716535433071
 30
0.0
 10
-0.3116102362204725
 20
1.1778976377952757
 30
0.0
 10
-0.3116102362204725
 20
1.1778976377952757
 30
0.0
  0
SPLINE
  5
93
100
AcDbEntity
  8
Additional Graphics
 62
     9
100
AcDbSpline
210
0.0
220
0.0
230
1.0
 70
     1
 71
     3
 72
    20
 73
    16
 74
     0
 42
0.0000000001
 43
0.0000000001
 40
0.0
 40
0.0
 40
0.0
 40
0.0
 40
0.25
 40
0.25
 40
0.25
 40
0.25
 40
0.5
 40
0.5
 40
0.5
 40
0.5
 40
0.75
 40
0.75
 40
0.75
 40
0.75
 40
1.0
 40
1.0
 40
1.0
 40
1.0
 10
-0.3252874015748032
 20
1.1382716535433071
 30
0.0
 10
-0.3252874015748032
 20
1.1382716535433071
 30
0.0
 10
0.3065275590551181
 20
0.7464173228346457
 30
0.0
 10
0.3065275590551181
 20
0.7464173228346457
 30
0.0
 10
0.3065275590551181
 20
0.7464173228346457
 30
0.0
 10
0.3065275590551181
 20
0.7464173228346457
 30
0.0
 10
0.2941377952755906
 20
0.7076496062992126
 30
0.0
 10
0.2941377952755906
 20
0.7076496062992126
 30
0.0
 10
0.2941377952755906
 20
0.7076496062992126
 30
0.0
 10
0.2941377952755906
 20
0.7076496062992126
 30
0.0
 10
-0.3376771653543307
 20
1.0995039370078741
 30
0.0
 10
-0.3376771653543307
 20
1.0995039370078741
 30
0.0
 10
-0.3376771653543307
 20
1.0995039370078741
 30
0.0
 10
-0.3376771653543307
 20
1.0995039370078741
 30
0.0
 10
-0.3252874015748032
 20
1.1382716535433071
 30
0.0
 10
-0.3252874015748032
 20
1.1382716535433071
 30
0.0
  0
SPLINE
  5
94
100
AcDbEntity
  8
Additional Graphics
 62
     9
100
AcDbSpline
210
0.0
220
0.0
230
1.0
 70
     1
 71
     3
 72
    20
 73
    16
 74
     0
 42
0.0000000001
 43
0.0000000001
 40
0.0
 40
0.0
 40
0.0
 40
0.0
 40
0.25
 40
0.25
 40
0.25
 40
0.25
 40
0.5
 40
0.5
 40
0.5
 40
0.5
 40
0.75
 40
0.75
 40
0.75
 40
0.75
 40
1.0
 40
1.0
 40
1.0
 40
1.0
 10
-0.3376771653543307
 20
1.0995039370078741
 30
0.0
 10
-0.3376771653543307
 20
1.0995039370078741
 30
0.0
 10
0.2941377952755906
 20
0.7076496062992126
 30
0.0
 10
0.2941377952755906
 20
0.7076496062992126
 30
0.0
 10
0.2941377952755906
 20
0.7076496062992126
 30
0.0
 10
0.2941377952755906
 20
0.7076496062992126
 30
0.0
 10
0.2829094488188976
 20
0.6698858267716535
 30
0.0
 10
0.2829094488188976
 20
0.6698858267716535
 30
0.0
 10
0.2829094488188976
 20
0.6698858267716535
 30
0.0
 10
0.2829094488188976
 20
0.6698858267716535
 30
0.0
 10
-0.3489055118110236
 20
1.0617401574803149
 30
0.0
 10
-0.3489055118110236
 20
1.0617401574803149
 30
0.0
 10
-0.3489055118110236
 20
1.0617401574803149
 30
0.0
 10
-0.3489055118110236
 20
1.0617401574803149
 30
0.0
 10
-0.3376771653543307
 20
1.0995039370078741
 30
0.0
 10
-0.3376771653543307
 20
1.0995039370078741
 30
0.0
  0
SPLINE
  5
95
100
AcDbEntity
  8
Additional Graphics
 62
     9
100
AcDbSpline
210
0.0
220
0.0
230
1.0
 70
     1
 71
     3
 72
    20
 73
    16
 74
     0
 42
0.0000000001
 43
0.0000000001
 40
0.0
 40
0.0
 40
0.0
 40
0.0
 40
0.25
 40
0.25
 40
0.25
 40
0.25
 40
0.5
 40
0.5
 40
0.5
 40
0.5
 40
0.75
 40
0.75
 40
0.75
 40
0.75
 40
1.0
 40
1.0
 40
1.0
 40
1.0
 10
-0.3489055118110236
 20
1.0617401574803149
 30
0.0
 10
-0.3489055118110236
 20
1.0617401574803149
 30
0.0
 10
0.2829094488188976
 20
0.6698858267716535
 30
0.0
 10
0.2829094488188976
 20
0.6698858267716535
 30
0.0
 10
0.2829094488188976
 20
0.6698858267716535
 30
0.0
 10
0.2829094488188976
 20
0.6698858267716535
 30
0.0
 10
0.2726968503937008
 20
0.6332677165354331
 30
0.0
 10
0.2726968503937008
 20
0.6332677165354331
 30
0.0
 10
0.2726968503937008
 20
0.6332677165354331
 30
0.0
 10
0.2726968503937008
 20
0.6332677165354331
 30
0.0
 10
-0.3591181102362205
 20
1.0251220472440945
 30
0.0
 10
-0.3591181102362205
 20
1.0251220472440945
 30
0.0
 10
-0.3591181102362205
 20
1.0251220472440945
 30
0.0
 10
-0.3591181102362205
 20
1.0251220472440945
 30
0.0
 10
-0.3489055118110236
 20
1.0617401574803149
 30
0.0
 10
-0.3489055118110236
 20
1.0617401574803149
 30
0.0
  0
SPLINE
  5
96
100
AcDbEntity
  8
Additional Graphics
 62
     9
100
AcDbSpline
210
0.0
220
0.0
230
1.0
 70
     1
 71
     3
 72
    20
 73
    16
 74
     0
 42
0.0000000001
 43
0.0000000001
 40
0.0
 40
0.0
 40
0.0
 40
0.0
 40
0.25
 40
0.25
 40
0.25
 40
0.25
 40
0.5
 40
0.5
 40
0.5
 40
0.5
 40
0.75
 40
0.75
 40
0.75
 40
0.75
 40
1.0
 40
1.0
 40
1.0
 40
1.0
 10
-0.3591181102362205
 20
1.0251220472440945
 30
0.0
 10
-0.3591181102362205
 20
1.0251220472440945
 30
0.0
 10
0.2726968503937008
 20
0.6332677165354331
 30
0.0
 10
0.2726968503937008
 20
0.6332677165354331
 30
0.0
 10
0.2726968503937008
 20
0.6332677165354331
 30
0.0
 10
0.2726968503937008
 20
0.6332677165354331
 30
0.0
 10
0.2633740157480315
 20
0.5979527559055118
 30
0.0
 10
0.2633740157480315
 20
0.5979527559055118
 30
0.0
 10
0.2633740157480315
 20
0.5979527559055118
 30
0.0
 10
0.2633740157480315
 20
0.5979527559055118
 30
0.0
 10
-0.3684409448818898
 20
0.9898070866141733
 30
0.0
 10
-0.3684409448818898
 20
0.9898070866141733
 30
0.0
 10
-0.3684409448818898
 20
0.9898070866141733
 30
0.0
 10
-0.3684409448818898
 20
0.9898070866141733
 30
0.0
 10
-0.3591181102362205
 20
1.0251220472440945
 30
0.0
 10
-0.3591181102362205
 20
1.0251220472440945
 30
0.0
  0
SPLINE
  5
97
100
AcDbEntity
  8
Additional Graphics
 62
     9
100
AcDbSpline
210
0.0
220
0.0
230
1.0
 70
     1
 71
     3
 72
    20
 73
    16
 74
     0
 42
0.0000000001
 43
0.0000000001
 40
0.0
 40
0.0
 40
0.0
 40
0.0
 40
0.25
 40
0.25
 40
0.25
 40
0.25
 40
0.5
 40
0.5
 40
0.5
 40
0.5
 40
0.75
 40
0.75
 40
0.75
 40
0.75
 40
1.0
 40
1.0
 40
1.0
 40
1.0
 10
-0.3684409448818898
 20
0.9898070866141733
 30
0.0
 10
-0.3684409448818898
 20
0.9898070866141733
 30
0.0
 10
0.2633740157480315
 20
0.5979527559055118
 30
0.0
 10
0.2633740157480315
 20
0.5979527559055118
 30
0.0
 10
0.2633740157480315
 20
0.5979527559055118
 30
0.0
 10
0.2633740157480315
 20
0.5979527559055118
 30
0.0
 10
0.2547992125984252
 20
0.5640669291338583
 30
0.0
 10
0.2547992125984252
 20
0.5640669291338583
 30
0.0
 10
0.2547992125984252
 20
0.5640669291338583
 30
0.0
 10
0.2547992125984252
 20
0.5640669291338583
 30
0.0
 10
-0.3770157480314961
 20
0.9559212598425197
 30
0.0
 10
-0.3770157480314961
 20
0.9559212598425197
 30
0.0
 10
-0.3770157480314961
 20
0.9559212598425197
 30
0.0
 10
-0.3770157480314961
 20
0.9559212598425197
 30
0.0
 10
-0.3684409448818898
 20
0.9898070866141733
 30
0.0
 10
-0.3684409448818898
 20
0.9898070866141733
 30
0.0
  0
SPLINE
  5
98
100
AcDbEntity
  8
Additional Graphics
 62
     9
100
AcDbSpline
210
0.0
220
0.0
230
1.0
 70
     1
 71
     3
 72
    20
 73
    16
 74
     0
 42
0.0000000001
 43
0.0000000001
 40
0.0
 40
0.0
 40
0.0
 40
0.0
 40
0.25
 40
0.25
 40
0.25
 40
0.25
 40
0.5
 40
0.5
 40
0.5
 40
0.5
 40
0.75
 40
0.75
 40
0.75
 40
0.75
 40
1.0
 40
1.0
 40
1.0
 40
1.0
 10
-0.3770157480314961
 20
0.9559212598425197
 30
0.0
 10
-0.3770157480314961
 20
0.9559212598425197
 30
0.0
 10
0.2547992125984252
 20
0.5640669291338583
 30
0.0
 10
0.2547992125984252
 20
0.5640669291338583
 30
0.0
 10
0.2547992125984252
 20
0.5640669291338583
 30
0.0
 10
0.2547992125984252
 20
0.5640669291338583
 30
0.0
 10
0.2468385826771654
 20
0.5317677165354331
 30
0.0
 10
0.2468385826771654
 20
0.5317677165354331
 30
0.0
 10
0.2468385826771654
 20
0.5317677165354331
 30
0.0
 10
0.2468385826771654
 20
0.5317677165354331
 30
0.0
 10
-0.3849763779527559
 20
0.9236220472440945
 30
0.0
 10
-0.3849763779527559
 20
0.9236220472440945
 30
0.0
 10
-0.3849763779527559
 20
0.9236220472440945
 30
0.0
 10
-0.3849763779527559
 20
0.9236220472440945
 30
0.0
 10
-0.3770157480314961
 20
0.9559212598425197
 30
0.0
 10
-0.3770157480314961
 20
0.9559212598425197
 30
0.0
  0
SPLINE
  5
99
100
AcDbEntity
  8
Additional Graphics
 62
     9
100
AcDbSpline
210
0.0
220
0.0
230
1.0
 70
     1
 71
     3
 72
    20
 73
    16
 74
     0
 42
0.0000000001
 43
0.0000000001
 40
0.0
 40
0.0
 40
0.0
 40
0.0
 40
0.25
 40
0.25
 40
0.25
 40
0.25
 40
0.5
 40
0.5
 40
0.5
 40
0.5
 40
0.75
 40
0.75
 40
0.75
 40
0.75
 40
1.0
 40
1.0
 40
1.0
 40
1.0
 10
-0.3849763779527559
 20
0.9236220472440945
 30
0.0
 10
-0.3849763779527559
 20
0.9236220472440945
 30
0.0
 10
0.2468385826771654
 20
0.5317677165354331
 30
0.0
 10
0.2468385826771654
 20
0.5317677165354331
 30
0.0
 10
0.2468385826771654
 20
0.5317677165354331
 30
0.0
 10
0.2468385826771654
 20
0.5317677165354331
 30
0.0
 10
0.2393503937007874
 20
0.5011889763779528
 30
0.0
 10
0.2393503937007874
 20
0.5011889763779528
 30
0.0
 10
0.2393503937007874
 20
0.5011889763779528
 30
0.0
 10
0.2393503937007874
 20
0.5011889763779528
 30
0.0
 10
-0.3924645669291339
 20
0.8930433070866142
 30
0.0
 10
-0.3924645669291339
 20
0.8930433070866142
 30
0.0
 10
-0.3924645669291339
 20
0.8930433070866142
 30
0.0
 10
-0.3924645669291339
 20
0.8930433070866142
 30
0.0
 10
-0.3849763779527559
 20
0.9236220472440945
 30
0.0
 10
-0.3849763779527559
 20
0.9236220472440945
 30
0.0
  0
SPLINE
  5
9A
100
AcDbEntity
  8
Additional Graphics
 62
     9
100
AcDbSpline
210
0.0
220
0.0
230
1.0
 70
     1
 71
     3
 72
    20
 73
    16
 74
     0
 42
0.0000000001
 43
0.0000000001
 40
0.0
 40
0.0
 40
0.0
 40
0.0
 40
0.25
 40
0.25
 40
0.25
 40
0.25
 40
0.5
 40
0.5
 40
0.5
 40
0.5
 40
0.75
 40
0.75
 40
0.75
 40
0.75
 40
1.0
 40
1.0
 40
1.0
 40
1.0
 10
-0.3924645669291339
 20
0.8930433070866142
 30
0.0
 10
-0.3924645669291339
 20
0.8930433070866142
 30
0.0
 10
0.2393503937007874
 20
0.5011889763779528
 30
0.0
 10
0.2393503937007874
 20
0.5011889763779528
 30
0.0
 10
0.2393503937007874
 20
0.5011889763779528
 30
0.0
 10
0.2393503937007874
 20
0.5011889763779528
 30
0.0
 10
0.2317165354330709
 20
0.470492125984252
 30
0.0
 10
0.2317165354330709
 20
0.470492125984252
 30
0.0
 10
0.2317165354330709
 20
0.470492125984252
 30
0.0
 10
0.2317165354330709
 20
0.470492125984252
 30
0.0
 10
-0.4000984251968504
 20
0.8623464566929134
 30
0.0
 10
-0.4000984251968504
 20
0.8623464566929134
 30
0.0
 10
-0.4000984251968504
 20
0.8623464566929134
 30
0.0
 10
-0.4000984251968504
 20
0.8623464566929134
 30
0.0
 10
-0.3924645669291339
 20
0.8930433070866142
 30
0.0
 10
-0.3924645669291339
 20
0.8930433070866142
 30
0.0
  0
SPLINE
  5
9B
100
AcDbEntity
  8
Additional Graphics
 62
     9
100
AcDbSpline
210
0.0
220
0.0
230
1.0
 70
     1
 71
     3
 72
    20
 73
    16
 74
     0
 42
0.0000000001
 43
0.0000000001
 40
0.0
 40
0.0
 40
0.0
 40
0.0
 40
0.25
 40
0.25
 40
0.25
 40
0.25
 40
0.5
 40
0.5
 40
0.5
 40
0.5
 40
0.75
 40
0.75
 40
0.75
 40
0.75
 40
1.0
 40
1.0
 40
1.0
 40
1.0
 10
-0.4000984251968504
 20
0.8623464566929134
 30
0.0
 10
-0.4000984251968504
 20
0.8623464566929134
 30
0.0
 10
0.2317165354330709
 20
0.470492125984252
 30
0.0
 10
0.2317165354330709
 20
0.470492125984252
 30
0.0
 10
0.2317165354330709
 20
0.470492125984252
 30
0.0
 10
0.2317165354330709
 20
0.470492125984252
 30
0.0
 10
0.2232795275590551
 20
0.4378149606299213
 30
0.0
 10
0.2232795275590551
 20
0.4378149606299213
 30
0.0
 10
0.2232795275590551
 20
0.4378149606299213
 30
0.0
 10
0.2232795275590551
 20
0.4378149606299213
 30
0.0
 10
-0.4085354330708662
 20
0.8296692913385827
 30
0.0
 10
-0.4085354330708662
 20
0.8296692913385827
 30
0.0
 10
-0.4085354330708662
 20
0.8296692913385827
 30
0.0
 10
-0.4085354330708662
 20
0.8296692913385827
 30
0.0
 10
-0.4000984251968504
 20
0.8623464566929134
 30
0.0
 10
-0.4000984251968504
 20
0.8623464566929134
 30
0.0
  0
SPLINE
  5
9C
100
AcDbEntity
  8
Additional Graphics
 62
     9
100
AcDbSpline
210
0.0
220
0.0
230
1.0
 70
     1
 71
     3
 72
    20
 73
    16
 74
     0
 42
0.0000000001
 43
0.0000000001
 40
0.0
 40
0.0
 40
0.0
 40
0.0
 40
0.25
 40
0.25
 40
0.25
 40
0.25
 40
0.5
 40
0.5
 40
0.5
 40
0.5
 40
0.75
 40
0.75
 40
0.75
 40
0.75
 40
1.0
 40
1.0
 40
1.0
 40
1.0
 10
-0.4085354330708662
 20
0.8296692913385827
 30
0.0
 10
-0.4085354330708662
 20
0.8296692913385827
 30
0.0
 10
0.2232795275590551
 20
0.4378149606299213
 30
0.0
 10
0.2232795275590551
 20
0.4378149606299213
 30
0.0
 10
0.2232795275590551
 20
0.4378149606299213
 30
0.0
 10
0.2232795275590551
 20
0.4378149606299213
 30
0.0
 10
0.2139133858267717
 20
0.4033149606299213
 30
0.0
 10
0.2139133858267717
 20
0.4033149606299213
 30
0.0
 10
0.2139133858267717
 20
0.4033149606299213
 30
0.0
 10
0.2139133858267717
 20
0.4033149606299213
 30
0.0
 10
-0.4179015748031496
 20
0.7951692913385827
 30
0.0
 10
-0.4179015748031496
 20
0.7951692913385827
 30
0.0
 10
-0.4179015748031496
 20
0.7951692913385827
 30
0.0
 10
-0.4179015748031496
 20
0.7951692913385827
 30
0.0
 10
-0.4085354330708662
 20
0.8296692913385827
 30
0.0
 10
-0.4085354330708662
 20
0.8296692913385827
 30
0.0
  0
SPLINE
  5
9D
100
AcDbEntity
  8
Additional Graphics
 62
     9
100
AcDbSpline
210
0.0
220
0.0
230
1.0
 70
     1
 71
     3
 72
    20
 73
    16
 74
     0
 42
0.0000000001
 43
0.0000000001
 40
0.0
 40
0.0
 40
0.0
 40
0.0
 40
0.25
 40
0.25
 40
0.25
 40
0.25
 40
0.5
 40
0.5
 40
0.5
 40
0.5
 40
0.75
 40
0.75
 40
0.75
 40
0.75
 40
1.0
 40
1.0
 40
1.0
 40
1.0
 10
-0.4179015748031496
 20
0.7951692913385827
 30
0.0
 10
-0.4179015748031496
 20
0.7951692913385827
 30
0.0
 10
0.2139133858267717
 20
0.4033149606299213
 30
0.0
 10
0.2139133858267717
 20
0.4033149606299213
 30
0.0
 10
0.2139133858267717
 20
0.4033149606299213
 30
0.0
 10
0.2139133858267717
 20
0.4033149606299213
 30
0.0
 10
0.2034685039370079
 20
0.3671377952755905
 30
0.0
 10
0.2034685039370079
 20
0.3671377952755905
 30
0.0
 10
0.2034685039370079
 20
0.3671377952755905
 30
0.0
 10
0.2034685039370079
 20
0.3671377952755905
 30
0.0
 10
-0.4283464566929134
 20
0.758992125984252
 30
0.0
 10
-0.4283464566929134
 20
0.758992125984252
 30
0.0
 10
-0.4283464566929134
 20
0.758992125984252
 30
0.0
 10
-0.4283464566929134
 20
0.758992125984252
 30
0.0
 10
-0.4179015748031496
 20
0.7951692913385827
 30
0.0
 10
-0.4179015748031496
 20
0.7951692913385827
 30
0.0
  0
SPLINE
  5
9E
100
AcDbEntity
  8
Additional Graphics
 62
     9
100
AcDbSpline
210
0.0
220
0.0
230
1.0
 70
     1
 71
     3
 72
    20
 73
    16
 74
     0
 42
0.0000000001
 43
0.0000000001
 40
0.0
 40
0.0
 40
0.0
 40
0.0
 40
0.25
 40
0.25
 40
0.25
 40
0.25
 40
0.5
 40
0.5
 40
0.5
 40
0.5
 40
0.75
 40
0.75
 40
0.75
 40
0.75
 40
1.0
 40
1.0
 40
1.0
 40
1.0
 10
-0.4283464566929134
 20
0.758992125984252
 30
0.0
 10
-0.4283464566929134
 20
0.758992125984252
 30
0.0
 10
0.2034685039370079
 20
0.3671377952755905
 30
0.0
 10
0.2034685039370079
 20
0.3671377952755905
 30
0.0
 10
0.2034685039370079
 20
0.3671377952755905
 30
0.0
 10
0.2034685039370079
 20
0.3671377952755905
 30
0.0
 10
0.1918149606299213
 20
0.3294488188976378
 30
0.0
 10
0.1918149606299213
 20
0.3294488188976378
 30
0.0
 10
0.1918149606299213
 20
0.3294488188976378
 30
0.0
 10
0.1918149606299213
 20
0.3294488188976378
 30
0.0
 10
-0.44
 20
0.7213031496062993
 30
0.0
 10
-0.44
 20
0.7213031496062993
 30
0.0
 10
-0.44
 20
0.7213031496062993
 30
0.0
 10
-0.44
 20
0.7213031496062993
 30
0.0
 10
-0.4283464566929134
 20
0.758992125984252
 30
0.0
 10
-0.4283464566929134
 20
0.758992125984252
 30
0.0
  0
SPLINE
  5
9F
100
AcDbEntity
  8
Additional Graphics
 62
     9
100
AcDbSpline
210
0.0
220
0.0
230
1.0
 70
     1
 71
     3
 72
    20
 73
    16
 74
     0
 42
0.0000000001
 43
0.0000000001
 40
0.0
 40
0.0
 40
0.0
 40
0.0
 40
0.25
 40
0.25
 40
0.25
 40
0.25
 40
0.5
 40
0.5
 40
0.5
 40
0.5
 40
0.75
 40
0.75
 40
0.75
 40
0.75
 40
1.0
 40
1.0
 40
1.0
 40
1.0
 10
-0.44
 20
0.7213031496062993
 30
0.0
 10
-0.44
 20
0.7213031496062993
 30
0.0
 10
0.1918149606299213
 20
0.3294488188976378
 30
0.0
 10
0.1918149606299213
 20
0.3294488188976378
 30
0.0
 10
0.1918149606299213
 20
0.3294488188976378
 30
0.0
 10
0.1918149606299213
 20
0.3294488188976378
 30
0.0
 10
0.1788031496062992
 20
0.2903818897637795
 30
0.0
 10
0.1788031496062992
 20
0.2903818897637795
 30
0.0
 10
0.1788031496062992
 20
0.2903818897637795
 30
0.0
 10
0.1788031496062992
 20
0.2903818897637795
 30
0.0
 10
-0.4530118110236221
 20
0.6822362204724409
 30
0.0
 10
-0.4530118110236221
 20
0.6822362204724409
 30
0.0
 10
-0.4530118110236221
 20
0.6822362204724409
 30
0.0
 10
-0.4530118110236221
 20
0.6822362204724409
 30
0.0
 10
-0.44
 20
0.7213031496062993
 30
0.0
 10
-0.44
 20
0.7213031496062993
 30
0.0
  0
SPLINE
  5
A0
100
AcDbEntity
  8
Additional Graphics
 62
     9
100
AcDbSpline
210
0.0
220
0.0
230
1.0
 70
     1
 71
     3
 72
    20
 73
    16
 74
     0
 42
0.0000000001
 43
0.0000000001
 40
0.0
 40
0.0
 40
0.0
 40
0.0
 40
0.25
 40
0.25
 40
0.25
 40
0.25
 40
0.5
 40
0.5
 40
0.5
 40
0.5
 40
0.75
 40
0.75
 40
0.75
 40
0.75
 40
1.0
 40
1.0
 40
1.0
 40
1.0
 10
-0.4530118110236221
 20
0.6822362204724409
 30
0.0
 10
-0.4530118110236221
 20
0.6822362204724409
 30
0.0
 10
0.1788031496062992
 20
0.2903818897637795
 30
0.0
 10
0.1788031496062992
 20
0.2903818897637795
 30
0.0
 10
0.1788031496062992
 20
0.2903818897637795
 30
0.0
 10
0.1788031496062992
 20
0.2903818897637795
 30
0.0
 10
0.1642992125984252
 20
0.2500984251968504
 30
0.0
 10
0.1642992125984252
 20
0.2500984251968504
 30
0.0
 10
0.1642992125984252
 20
0.2500984251968504
 30
0.0
 10
0.1642992125984252
 20
0.2500984251968504
 30
0.0
 10
-0.4675157480314961
 20
0.6419527559055118
 30
0.0
 10
-0.4675157480314961
 20
0.6419527559055118
 30
0.0
 10
-0.4675157480314961
 20
0.6419527559055118
 30
0.0
 10
-0.4675157480314961
 20
0.6419527559055118
 30
0.0
 10
-0.4530118110236221
 20
0.6822362204724409
 30
0.0
 10
-0.4530118110236221
 20
0.6822362204724409
 30
0.0
  0
SPLINE
  5
A1
100
AcDbEntity
  8
Additional Graphics
 62
     9
100
AcDbSpline
210
0.0
220
0.0
230
1.0
 70
     1
 71
     3
 72
    20
 73
    16
 74
     0
 42
0.0000000001
 43
0.0000000001
 40
0.0
 40
0.0
 40
0.0
 40
0.0
 40
0.25
 40
0.25
 40
0.25
 40
0.25
 40
0.5
 40
0.5
 40
0.5
 40
0.5
 40
0.75
 40
0.75
 40
0.75
 40
0.75
 40
1.0
 40
1.0
 40
1.0
 40
1.0
 10
-0.4675157480314961
 20
0.6419527559055118
 30
0.0
 10
-0.4675157480314961
 20
0.6419527559055118
 30
0.0
 10
0.1642992125984252
 20
0.2500984251968504
 30
0.0
 10
0.1642992125984252
 20
0.2500984251968504
 30
0.0
 10
0.1642992125984252
 20
0.2500984251968504
 30
0.0
 10
0.1642992125984252
 20
0.2500984251968504
 30
0.0
 10
0.1481535433070866
 20
0.208744094488189
 30
0.0
 10
0.1481535433070866
 20
0.208744094488189
 30
0.0
 10
0.1481535433070866
 20
0.208744094488189
 30
0.0
 10
0.1481535433070866
 20
0.208744094488189
 30
0.0
 10
-0.4836614173228347
 20
0.6005984251968505
 30
0.0
 10
-0.4836614173228347
 20
0.6005984251968505
 30
0.0
 10
-0.4836614173228347
 20
0.6005984251968505
 30
0.0
 10
-0.4836614173228347
 20
0.6005984251968505
 30
0.0
 10
-0.4675157480314961
 20
0.6419527559055118
 30
0.0
 10
-0.4675157480314961
 20
0.6419527559055118
 30
0.0
  0
SPLINE
  5
A2
100
AcDbEntity
  8
Additional Graphics
 62
     9
100
AcDbSpline
210
0.0
220
0.0
230
1.0
 70
     1
 71
     3
 72
    20
 73
    16
 74
     0
 42
0.0000000001
 43
0.0000000001
 40
0.0
 40
0.0
 40
0.0
 40
0.0
 40
0.25
 40
0.25
 40
0.25
 40
0.25
 40
0.5
 40
0.5
 40
0.5
 40
0.5
 40
0.75
 40
0.75
 40
0.75
 40
0.75
 40
1.0
 40
1.0
 40
1.0
 40
1.0
 10
-0.4836614173228347
 20
0.6005984251968505
 30
0.0
 10
-0.4836614173228347
 20
0.6005984251968505
 30
0.0
 10
0.1481535433070866
 20
0.208744094488189
 30
0.0
 10
0.1481535433070866
 20
0.208744094488189
 30
0.0
 10
0.1481535433070866
 20
0.208744094488189
 30
0.0
 10
0.1481535433070866
 20
0.208744094488189
 30
0.0
 10
0.130240157480315
 20
0.1664842519685039
 30
0.0
 10
0.130240157480315
 20
0.1664842519685039
 30
0.0
 10
0.130240157480315
 20
0.1664842519685039
 30
0.0
 10
0.130240157480315
 20
0.1664842519685039
 30
0.0
 10
-0.5015748031496063
 20
0.5583385826771654
 30
0.0
 10
-0.5015748031496063
 20
0.5583385826771654
 30
0.0
 10
-0.5015748031496063
 20
0.5583385826771654
 30
0.0
 10
-0.5015748031496063
 20
0.5583385826771654
 30
0.0
 10
-0.4836614173228347
 20
0.6005984251968505
 30
0.0
 10
-0.4836614173228347
 20
0.6005984251968505
 30
0.0
  0
SPLINE
  5
A3
100
AcDbEntity
  8
Additional Graphics
 62
     9
100
AcDbSpline
210
0.0
220
0.0
230
1.0
 70
     1
 71
     3
 72
    20
 73
    16
 74
     0
 42
0.0000000001
 43
0.0000000001
 40
0.0
 40
0.0
 40
0.0
 40
0.0
 40
0.25
 40
0.25
 40
0.25
 40
0.25
 40
0.5
 40
0.5
 40
0.5
 40
0.5
 40
0.75
 40
0.75
 40
0.75
 40
0.75
 40
1.0
 40
1.0
 40
1.0
 40
1.0
 10
-0.5015748031496063
 20
0.5583385826771654
 30
0.0
 10
-0.5015748031496063
 20
0.5583385826771654
 30
0.0
 10
0.130240157480315
 20
0.1664842519685039
 30
0.0
 10
0.130240157480315
 20
0.1664842519685039
 30
0.0
 10
0.130240157480315
 20
0.1664842519685039
 30
0.0
 10
0.130240157480315
 20
0.1664842519685039
 30
0.0
 10
0.1104094488188976
 20
0.1234566929133858
 30
0.0
 10
0.1104094488188976
 20
0.1234566929133858
 30
0.0
 10
0.1104094488188976
 20
0.1234566929133858
 30
0.0
 10
0.1104094488188976
 20
0.1234566929133858
 30
0.0
 10
-0.5214055118110237
 20
0.5153110236220473
 30
0.0
 10
-0.5214055118110237
 20
0.5153110236220473
 30
0.0
 10
-0.5214055118110237
 20
0.5153110236220473
 30
0.0
 10
-0.5214055118110237
 20
0.5153110236220473
 30
0.0
 10
-0.5015748031496063
 20
0.5583385826771654
 30
0.0
 10
-0.5015748031496063
 20
0.5583385826771654
 30
0.0
  0
SPLINE
  5
A4
100
AcDbEntity
  8
Additional Graphics
 62
     9
100
AcDbSpline
210
0.0
220
0.0
230
1.0
 70
     1
 71
     3
 72
    20
 73
    16
 74
     0
 42
0.0000000001
 43
0.0000000001
 40
0.0
 40
0.0
 40
0.0
 40
0.0
 40
0.25
 40
0.25
 40
0.25
 40
0.25
 40
0.5
 40
0.5
 40
0.5
 40
0.5
 40
0.75
 40
0.75
 40
0.75
 40
0.75
 40
1.0
 40
1.0
 40
1.0
 40
1.0
 10
-0.5214055118110237
 20
0.5153110236220473
 30
0.0
 10
-0.5214055118110237
 20
0.5153110236220473
 30
0.0
 10
0.1104094488188976
 20
0.1234566929133858
 30
0.0
 10
0.1104094488188976
 20
0.1234566929133858
 30
0.0
 10
0.1104094488188976
 20
0.1234566929133858
 30
0.0
 10
0.1104094488188976
 20
0.1234566929133858
 30
0.0
 10
0.0885236220472441
 20
0.0798149606299213
 30
0.0
 10
0.0885236220472441
 20
0.0798149606299213
 30
0.0
 10
0.0885236220472441
 20
0.0798149606299213
 30
0.0
 10
0.0885236220472441
 20
0.0798149606299213
 30
0.0
 10
-0.5432913385826772
 20
0.4716692913385827
 30
0.0
 10
-0.5432913385826772
 20
0.4716692913385827
 30
0.0
 10
-0.5432913385826772
 20
0.4716692913385827
 30
0.0
 10
-0.5432913385826772
 20
0.4716692913385827
 30
0.0
 10
-0.5214055118110237
 20
0.5153110236220473
 30
0.0
 10
-0.5214055118110237
 20
0.5153110236220473
 30
0.0
  0
SPLINE
  5
A5
100
AcDbEntity
  8
Additional Graphics
 62
     9
100
AcDbSpline
210
0.0
220
0.0
230
1.0
 70
     1
 71
     3
 72
    20
 73
    16
 74
     0
 42
0.0000000001
 43
0.0000000001
 40
0.0
 40
0.0
 40
0.0
 40
0.0
 40
0.25
 40
0.25
 40
0.25
 40
0.25
 40
0.5
 40
0.5
 40
0.5
 40
0.5
 40
0.75
 40
0.75
 40
0.75
 40
0.75
 40
1.0
 40
1.0
 40
1.0
 40
1.0
 10
-0.5432913385826772
 20
0.4716692913385827
 30
0.0
 10
-0.5432913385826772
 20
0.4716692913385827
 30
0.0
 10
0.0885236220472441
 20
0.0798149606299213
 30
0.0
 10
0.0885236220472441
 20
0.0798149606299213
 30
0.0
 10
0.0885236220472441
 20
0.0798149606299213
 30
0.0
 10
0.0885236220472441
 20
0.0798149606299213
 30
0.0
 10
0.0644409448818898
 20
0.0357086614173228
 30
0.0
 10
0.0644409448818898
 20
0.0357086614173228
 30
0.0
 10
0.0644409448818898
 20
0.0357086614173228
 30
0.0
 10
0.0644409448818898
 20
0.0357086614173228
 30
0.0
 10
-0.5673740157480315
 20
0.4275629921259843
 30
0.0
 10
-0.5673740157480315
 20
0.4275629921259843
 30
0.0
 10
-0.5673740157480315
 20
0.4275629921259843
 30
0.0
 10
-0.5673740157480315
 20
0.4275629921259843
 30
0.0
 10
-0.5432913385826772
 20
0.4716692913385827
 30
0.0
 10
-0.5432913385826772
 20
0.4716692913385827
 30
0.0
  0
SPLINE
  5
A6
100
AcDbEntity
  8
Additional Graphics
 62
     9
100
AcDbSpline
210
0.0
220
0.0
230
1.0
 70
     1
 71
     3
 72
    20
 73
    16
 74
     0
 42
0.0000000001
 43
0.0000000001
 40
0.0
 40
0.0
 40
0.0
 40
0.0
 40
0.25
 40
0.25
 40
0.25
 40
0.25
 40
0.5
 40
0.5
 40
0.5
 40
0.5
 40
0.75
 40
0.75
 40
0.75
 40
0.75
 40
1.0
 40
1.0
 40
1.0
 40
1.0
 10
-0.5673740157480315
 20
0.4275629921259843
 30
0.0
 10
-0.5673740157480315
 20
0.4275629921259843
 30
0.0
 10
0.0644409448818898
 20
0.0357086614173228
 30
0.0
 10
0.0644409448818898
 20
0.0357086614173228
 30
0.0
 10
0.0644409448818898
 20
0.0357086614173228
 30
0.0
 10
0.0644409448818898
 20
0.0357086614173228
 30
0.0
 10
0.0380314960629921
 20
-0.0087007874015748
 30
0.0
 10
0.0380314960629921
 20
-0.0087007874015748
 30
0.0
 10
0.0380314960629921
 20
-0.0087007874015748
 30
0.0
 10
0.0380314960629921
 20
-0.0087007874015748
 30
0.0
 10
-0.5937834645669292
 20
0.3831535433070866
 30
0.0
 10
-0.5937834645669292
 20
0.3831535433070866
 30
0.0
 10
-0.5937834645669292
 20
0.3831535433070866
 30
0.0
 10
-0.5937834645669292
 20
0.3831535433070866
 30
0.0
 10
-0.5673740157480315
 20
0.4275629921259843
 30
0.0
 10
-0.5673740157480315
 20
0.4275629921259843
 30
0.0
  0
SPLINE
  5
A7
100
AcDbEntity
  8
Additional Graphics
 62
     9
100
AcDbSpline
210
0.0
220
0.0
230
1.0
 70
     1
 71
     3
 72
    20
 73
    16
 74
     0
 42
0.0000000001
 43
0.0000000001
 40
0.0
 40
0.0
 40
0.0
 40
0.0
 40
0.25
 40
0.25
 40
0.25
 40
0.25
 40
0.5
 40
0.5
 40
0.5
 40
0.5
 40
0.75
 40
0.75
 40
0.75
 40
0.75
 40
1.0
 40
1.0
 40
1.0
 40
1.0
 10
-0.5937834645669292
 20
0.3831535433070866
 30
0.0
 10
-0.5937834645669292
 20
0.3831535433070866
 30
0.0
 10
0.0380314960629921
 20
-0.0087007874015748
 30
0.0
 10
0.0380314960629921
 20
-0.0087007874015748
 30
0.0
 10
0.0380314960629921
 20
-0.0087007874015748
 30
0.0
 10
0.0380314960629921
 20
-0.0087007874015748
 30
0.0
 10
0.0091338582677165
 20
-0.0532755905511811
 30
0.0
 10
0.0091338582677165
 20
-0.0532755905511811
 30
0.0
 10
0.0091338582677165
 20
-0.0532755905511811
 30
0.0
 10
0.0091338582677165
 20
-0.0532755905511811
 30
0.0
 10
-0.6226811023622048
 20
0.3385787401574804
 30
0.0
 10
-0.6226811023622048
 20
0.3385787401574804
 30
0.0
 10
-0.6226811023622048
 20
0.3385787401574804
 30
0.0
 10
-0.6226811023622048
 20
0.3385787401574804
 30
0.0
 10
-0.5937834645669292
 20
0.3831535433070866
 30
0.0
 10
-0.5937834645669292
 20
0.3831535433070866
 30
0.0
  0
SPLINE
  5
A8
100
AcDbEntity
  8
Additional Graphics
 62
     9
100
AcDbSpline
210
0.0
220
0.0
230
1.0
 70
     1
 71
     3
 72
    20
 73
    16
 74
     0
 42
0.0000000001
 43
0.0000000001
 40
0.0
 40
0.0
 40
0.0
 40
0.0
 40
0.25
 40
0.25
 40
0.25
 40
0.25
 40
0.5
 40
0.5
 40
0.5
 40
0.5
 40
0.75
 40
0.75
 40
0.75
 40
0.75
 40
1.0
 40
1.0
 40
1.0
 40
1.0
 10
-0.6226811023622048
 20
0.3385787401574804
 30
0.0
 10
-0.6226811023622048
 20
0.3385787401574804
 30
0.0
 10
0.0091338582677165
 20
-0.0532755905511811
 30
0.0
 10
0.0091338582677165
 20
-0.0532755905511811
 30
0.0
 10
0.0091338582677165
 20
-0.0532755905511811
 30
0.0
 10
0.0091338582677165
 20
-0.0532755905511811
 30
0.0
 10
-0.0223740157480315
 20
-0.0978503937007874
 30
0.0
 10
-0.0223740157480315
 20
-0.0978503937007874
 30
0.0
 10
-0.0223740157480315
 20
-0.0978503937007874
 30
0.0
 10
-0.0223740157480315
 20
-0.0978503937007874
 30
0.0
 10
-0.6541889763779528
 20
0.294003937007874
 30
0.0
 10
-0.6541889763779528
 20
0.294003937007874
 30
0.0
 10
-0.6541889763779528
 20
0.294003937007874
 30
0.0
 10
-0.6541889763779528
 20
0.294003937007874
 30
0.0
 10
-0.6226811023622048
 20
0.3385787401574804
 30
0.0
 10
-0.6226811023622048
 20
0.3385787401574804
 30
0.0
  0
SPLINE
  5
A9
100
AcDbEntity
  8
Additional Graphics
 62
     9
100
AcDbSpline
210
0.0
220
0.0
230
1.0
 70
     1
 71
     3
 72
    20
 73
    16
 74
     0
 42
0.0000000001
 43
0.0000000001
 40
0.0
 40
0.0
 40
0.0
 40
0.0
 40
0.25
 40
0.25
 40
0.25
 40
0.25
 40
0.5
 40
0.5
 40
0.5
 40
0.5
 40
0.75
 40
0.75
 40
0.75
 40
0.75
 40
1.0
 40
1.0
 40
1.0
 40
1.0
 10
-0.6541889763779528
 20
0.294003937007874
 30
0.0
 10
-0.6541889763779528
 20
0.294003937007874
 30
0.0
 10
-0.0223740157480315
 20
-0.0978503937007874
 30
0.0
 10
-0.0223740157480315
 20
-0.0978503937007874
 30
0.0
 10
-0.0223740157480315
 20
-0.0978503937007874
 30
0.0
 10
-0.0223740157480315
 20
-0.0978503937007874
 30
0.0
 10
-0.0566456692913386
 20
-0.1422874015748032
 30
0.0
 10
-0.0566456692913386
 20
-0.1422874015748032
 30
0.0
 10
-0.0566456692913386
 20
-0.1422874015748032
 30
0.0
 10
-0.0566456692913386
 20
-0.1422874015748032
 30
0.0
 10
-0.6884606299212599
 20
0.2495669291338583
 30
0.0
 10
-0.6884606299212599
 20
0.2495669291338583
 30
0.0
 10
-0.6884606299212599
 20
0.2495669291338583
 30
0.0
 10
-0.6884606299212599
 20
0.2495669291338583
 30
0.0
 10
-0.6541889763779528
 20
0.294003937007874
 30
0.0
 10
-0.6541889763779528
 20
0.294003937007874
 30
0.0
  0
SPLINE
  5
AA
100
AcDbEntity
  8
Additional Graphics
 62
     9
100
AcDbSpline
210
0.0
220
0.0
230
1.0
 70
     1
 71
     3
 72
    20
 73
    16
 74
     0
 42
0.0000000001
 43
0.0000000001
 40
0.0
 40
0.0
 40
0.0
 40
0.0
 40
0.25
 40
0.25
 40
0.25
 40
0.25
 40
0.5
 40
0.5
 40
0.5
 40
0.5
 40
0.75
 40
0.75
 40
0.75
 40
0.75
 40
1.0
 40
1.0
 40
1.0
 40
1.0
 10
-0.6884606299212599
 20
0.2495669291338583
 30
0.0
 10
-0.6884606299212599
 20
0.2495669291338583
 30
0.0
 10
-0.0566456692913386
 20
-0.1422874015748032
 30
0.0
 10
-0.0566456692913386
 20
-0.1422874015748032
 30
0.0
 10
-0.0566456692913386
 20
-0.1422874015748032
 30
0.0
 10
-0.0566456692913386
 20
-0.1422874015748032
 30
0.0
 10
-0.0937992125984252
 20
-0.1864133858267717
 30
0.0
 10
-0.0937992125984252
 20
-0.1864133858267717
 30
0.0
 10
-0.0937992125984252
 20
-0.1864133858267717
 30
0.0
 10
-0.0937992125984252
 20
-0.1864133858267717
 30
0.0
 10
-0.7256141732283465
 20
0.2054409448818898
 30
0.0
 10
-0.7256141732283465
 20
0.2054409448818898
 30
0.0
 10
-0.7256141732283465
 20
0.2054409448818898
 30
0.0
 10
-0.7256141732283465
 20
0.2054409448818898
 30
0.0
 10
-0.6884606299212599
 20
0.2495669291338583
 30
0.0
 10
-0.6884606299212599
 20
0.2495669291338583
 30
0.0
  0
SPLINE
  5
AB
100
AcDbEntity
  8
Additional Graphics
 62
     9
100
AcDbSpline
210
0.0
220
0.0
230
1.0
 70
     1
 71
     3
 72
    20
 73
    16
 74
     0
 42
0.0000000001
 43
0.0000000001
 40
0.0
 40
0.0
 40
0.0
 40
0.0
 40
0.25
 40
0.25
 40
0.25
 40
0.25
 40
0.5
 40
0.5
 40
0.5
 40
0.5
 40
0.75
 40
0.75
 40
0.75
 40
0.75
 40
1.0
 40
1.0
 40
1.0
 40
1.0
 10
-0.7256141732283465
 20
0.2054409448818898
 30
0.0
 10
-0.7256141732283465
 20
0.2054409448818898
 30
0.0
 10
-0.0937992125984252
 20
-0.1864133858267717
 30
0.0
 10
-0.0937992125984252
 20
-0.1864133858267717
 30
0.0
 10
-0.0937992125984252
 20
-0.1864133858267717
 30
0.0
 10
-0.0937992125984252
 20
-0.1864133858267717
 30
0.0
 10
-0.133996062992126
 20
-0.2301023622047244
 30
0.0
 10
-0.133996062992126
 20
-0.2301023622047244
 30
0.0
 10
-0.133996062992126
 20
-0.2301023622047244
 30
0.0
 10
-0.133996062992126
 20
-0.2301023622047244
 30
0.0
 10
-0.7658110236220472
 20
0.161751968503937
 30
0.0
 10
-0.7658110236220472
 20
0.161751968503937
 30
0.0
 10
-0.7658110236220472
 20
0.161751968503937
 30
0.0
 10
-0.7658110236220472
 20
0.161751968503937
 30
0.0
 10
-0.7256141732283465
 20
0.2054409448818898
 30
0.0
 10
-0.7256141732283465
 20
0.2054409448818898
 30
0.0
  0
SPLINE
  5
AC
100
AcDbEntity
  8
Additional Graphics
 62
     9
100
AcDbSpline
210
0.0
220
0.0
230
1.0
 70
     1
 71
     3
 72
    20
 73
    16
 74
     0
 42
0.0000000001
 43
0.0000000001
 40
0.0
 40
0.0
 40
0.0
 40
0.0
 40
0.25
 40
0.25
 40
0.25
 40
0.25
 40
0.5
 40
0.5
 40
0.5
 40
0.5
 40
0.75
 40
0.75
 40
0.75
 40
0.75
 40
1.0
 40
1.0
 40
1.0
 40
1.0
 10
-0.7658110236220472
 20
0.161751968503937
 30
0.0
 10
-0.7658110236220472
 20
0.161751968503937
 30
0.0
 10
-0.133996062992126
 20
-0.2301023622047244
 30
0.0
 10
-0.133996062992126
 20
-0.2301023622047244
 30
0.0
 10
-0.133996062992126
 20
-0.2301023622047244
 30
0.0
 10
-0.133996062992126
 20
-0.2301023622047244
 30
0.0
 10
-0.1773700787401575
 20
-0.2731850393700788
 30
0.0
 10
-0.1773700787401575
 20
-0.2731850393700788
 30
0.0
 10
-0.1773700787401575
 20
-0.2731850393700788
 30
0.0
 10
-0.1773700787401575
 20
-0.2731850393700788
 30
0.0
 10
-0.8091850393700788
 20
0.1186692913385827
 30
0.0
 10
-0.8091850393700788
 20
0.1186692913385827
 30
0.0
 10
-0.8091850393700788
 20
0.1186692913385827
 30
0.0
 10
-0.8091850393700788
 20
0.1186692913385827
 30
0.0
 10
-0.7658110236220472
 20
0.161751968503937
 30
0.0
 10
-0.7658110236220472
 20
0.161751968503937
 30
0.0
  0
SPLINE
  5
AD
100
AcDbEntity
  8
Additional Graphics
 62
     9
100
AcDbSpline
210
0.0
220
0.0
230
1.0
 70
     1
 71
     3
 72
    20
 73
    16
 74
     0
 42
0.0000000001
 43
0.0000000001
 40
0.0
 40
0.0
 40
0.0
 40
0.0
 40
0.25
 40
0.25
 40
0.25
 40
0.25
 40
0.5
 40
0.5
 40
0.5
 40
0.5
 40
0.75
 40
0.75
 40
0.75
 40
0.75
 40
1.0
 40
1.0
 40
1.0
 40
1.0
 10
-0.8091850393700788
 20
0.1186692913385827
 30
0.0
 10
-0.8091850393700788
 20
0.1186692913385827
 30
0.0
 10
-0.1773700787401575
 20
-0.2731850393700788
 30
0.0
 10
-0.1773700787401575
 20
-0.2731850393700788
 30
0.0
 10
-0.1773700787401575
 20
-0.2731850393700788
 30
0.0
 10
-0.1773700787401575
 20
-0.2731850393700788
 30
0.0
 10
-0.2240629921259843
 20
-0.3155275590551182
 30
0.0
 10
-0.2240629921259843
 20
-0.3155275590551182
 30
0.0
 10
-0.2240629921259843
 20
-0.3155275590551182
 30
0.0
 10
-0.2240629921259843
 20
-0.3155275590551182
 30
0.0
 10
-0.8558779527559055
 20
0.0763267716535433
 30
0.0
 10
-0.8558779527559055
 20
0.0763267716535433
 30
0.0
 10
-0.8558779527559055
 20
0.0763267716535433
 30
0.0
 10
-0.8558779527559055
 20
0.0763267716535433
 30
0.0
 10
-0.8091850393700788
 20
0.1186692913385827
 30
0.0
 10
-0.8091850393700788
 20
0.1186692913385827
 30
0.0
  0
SPLINE
  5
AE
100
AcDbEntity
  8
Additional Graphics
 62
     9
100
AcDbSpline
210
0.0
220
0.0
230
1.0
 70
     1
 71
     3
 72
    20
 73
    16
 74
     0
 42
0.0000000001
 43
0.0000000001
 40
0.0
 40
0.0
 40
0.0
 40
0.0
 40
0.25
 40
0.25
 40
0.25
 40
0.25
 40
0.5
 40
0.5
 40
0.5
 40
0.5
 40
0.75
 40
0.75
 40
0.75
 40
0.75
 40
1.0
 40
1.0
 40
1.0
 40
1.0
 10
-0.8558779527559055
 20
0.0763267716535433
 30
0.0
 10
-0.8558779527559055
 20
0.0763267716535433
 30
0.0
 10
-0.2240629921259843
 20
-0.3155275590551182
 30
0.0
 10
-0.2240629921259843
 20
-0.3155275590551182
 30
0.0
 10
-0.2240629921259843
 20
-0.3155275590551182
 30
0.0
 10
-0.2240629921259843
 20
-0.3155275590551182
 30
0.0
 10
-0.2742086614173229
 20
-0.3569606299212599
 30
0.0
 10
-0.2742086614173229
 20
-0.3569606299212599
 30
0.0
 10
-0.2742086614173229
 20
-0.3569606299212599
 30
0.0
 10
-0.2742086614173229
 20
-0.3569606299212599
 30
0.0
 10
-0.9060236220472442
 20
0.0348937007874016
 30
0.0
 10
-0.9060236220472442
 20
0.0348937007874016
 30
0.0
 10
-0.9060236220472442
 20
0.0348937007874016
 30
0.0
 10
-0.9060236220472442
 20
0.0348937007874016
 30
0.0
 10
-0.8558779527559055
 20
0.0763267716535433
 30
0.0
 10
-0.8558779527559055
 20
0.0763267716535433
 30
0.0
  0
SPLINE
  5
AF
100
AcDbEntity
  8
Additional Graphics
 62
     9
100
AcDbSpline
210
0.0
220
0.0
230
1.0
 70
     1
 71
     3
 72
    20
 73
    16
 74
     0
 42
0.0000000001
 43
0.0000000001
 40
0.0
 40
0.0
 40
0.0
 40
0.0
 40
0.25
 40
0.25
 40
0.25
 40
0.25
 40
0.5
 40
0.5
 40
0.5
 40
0.5
 40
0.75
 40
0.75
 40
0.75
 40
0.75
 40
1.0
 40
1.0
 40
1.0
 40
1.0
 10
-0.9060236220472442
 20
0.0348937007874016
 30
0.0
 10
-0.9060236220472442
 20
0.0348937007874016
 30
0.0
 10
-0.2742086614173229
 20
-0.3569606299212599
 30
0.0
 10
-0.2742086614173229
 20
-0.3569606299212599
 30
0.0
 10
-0.2742086614173229
 20
-0.3569606299212599
 30
0.0
 10
-0.2742086614173229
 20
-0.3569606299212599
 30
0.0
 10
-0.3279527559055118
 20
-0.3973425196850394
 30
0.0
 10
-0.3279527559055118
 20
-0.3973425196850394
 30
0.0
 10
-0.3279527559055118
 20
-0.3973425196850394
 30
0.0
 10
-0.3279527559055118
 20
-0.3973425196850394
 30
0.0
 10
-0.9597677165354331
 20
-0.005488188976378
 30
0.0
 10
-0.9597677165354331
 20
-0.005488188976378
 30
0.0
 10
-0.9597677165354331
 20
-0.005488188976378
 30
0.0
 10
-0.9597677165354331
 20
-0.005488188976378
 30
0.0
 10
-0.9060236220472442
 20
0.0348937007874016
 30
0.0
 10
-0.9060236220472442
 20
0.0348937007874016
 30
0.0
  0
SPLINE
  5
B0
100
AcDbEntity
  8
Additional Graphics
 62
     9
100
AcDbSpline
210
0.0
220
0.0
230
1.0
 70
     1
 71
     3
 72
    20
 73
    16
 74
     0
 42
0.0000000001
 43
0.0000000001
 40
0.0
 40
0.0
 40
0.0
 40
0.0
 40
0.25
 40
0.25
 40
0.25
 40
0.25
 40
0.5
 40
0.5
 40
0.5
 40
0.5
 40
0.75
 40
0.75
 40
0.75
 40
0.75
 40
1.0
 40
1.0
 40
1.0
 40
1.0
 10
-0.9597677165354331
 20
-0.005488188976378
 30
0.0
 10
-0.9597677165354331
 20
-0.005488188976378
 30
0.0
 10
-0.3279527559055118
 20
-0.3973425196850394
 30
0.0
 10
-0.3279527559055118
 20
-0.3973425196850394
 30
0.0
 10
-0.3279527559055118
 20
-0.3973425196850394
 30
0.0
 10
-0.3279527559055118
 20
-0.3973425196850394
 30
0.0
 10
-0.3854330708661418
 20
-0.4365157480314961
 30
0.0
 10
-0.3854330708661418
 20
-0.4365157480314961
 30
0.0
 10
-0.3854330708661418
 20
-0.4365157480314961
 30
0.0
 10
-0.3854330708661418
 20
-0.4365157480314961
 30
0.0
 10
-1.017248031496063
 20
-0.0446614173228347
 30
0.0
 10
-1.017248031496063
 20
-0.0446614173228347
 30
0.0
 10
-1.017248031496063
 20
-0.0446614173228347
 30
0.0
 10
-1.017248031496063
 20
-0.0446614173228347
 30
0.0
 10
-0.9597677165354331
 20
-0.005488188976378
 30
0.0
 10
-0.9597677165354331
 20
-0.005488188976378
 30
0.0
  0
SPLINE
  5
B1
100
AcDbEntity
  8
Additional Graphics
 62
     9
100
AcDbSpline
210
0.0
220
0.0
230
1.0
 70
     1
 71
     3
 72
    20
 73
    16
 74
     0
 42
0.0000000001
 43
0.0000000001
 40
0.0
 40
0.0
 40
0.0
 40
0.0
 40
0.25
 40
0.25
 40
0.25
 40
0.25
 40
0.5
 40
0.5
 40
0.5
 40
0.5
 40
0.75
 40
0.75
 40
0.75
 40
0.75
 40
1.0
 40
1.0
 40
1.0
 40
1.0
 10
-1.017248031496063
 20
-0.0446614173228347
 30
0.0
 10
-1.017248031496063
 20
-0.0446614173228347
 30
0.0
 10
-0.3854330708661418
 20
-0.4365157480314961
 30
0.0
 10
-0.3854330708661418
 20
-0.4365157480314961
 30
0.0
 10
-0.3854330708661418
 20
-0.4365157480314961
 30
0.0
 10
-0.3854330708661418
 20
-0.4365157480314961
 30
0.0
 10
-0.4467952755905512
 20
-0.4743385826771654
 30
0.0
 10
-0.4467952755905512
 20
-0.4743385826771654
 30
0.0
 10
-0.4467952755905512
 20
-0.4743385826771654
 30
0.0
 10
-0.4467952755905512
 20
-0.4743385826771654
 30
0.0
 10
-1.0786102362204726
 20
-0.0824842519685039
 30
0.0
 10
-1.0786102362204726
 20
-0.0824842519685039
 30
0.0
 10
-1.0786102362204726
 20
-0.0824842519685039
 30
0.0
 10
-1.0786102362204726
 20
-0.0824842519685039
 30
0.0
 10
-1.017248031496063
 20
-0.0446614173228347
 30
0.0
 10
-1.017248031496063
 20
-0.0446614173228347
 30
0.0
  0
SPLINE
  5
B2
100
AcDbEntity
  8
Additional Graphics
 62
     9
100
AcDbSpline
210
0.0
220
0.0
230
1.0
 70
     1
 71
     3
 72
    20
 73
    16
 74
     0
 42
0.0000000001
 43
0.0000000001
 40
0.0
 40
0.0
 40
0.0
 40
0.0
 40
0.25
 40
0.25
 40
0.25
 40
0.25
 40
0.5
 40
0.5
 40
0.5
 40
0.5
 40
0.75
 40
0.75
 40
0.75
 40
0.75
 40
1.0
 40
1.0
 40
1.0
 40
1.0
 10
-1.0786102362204726
 20
-0.0824842519685039
 30
0.0
 10
-1.0786102362204726
 20
-0.0824842519685039
 30
0.0
 10
-0.4467952755905512
 20
-0.4743385826771654
 30
0.0
 10
-0.4467952755905512
 20
-0.4743385826771654
 30
0.0
 10
-0.4467952755905512
 20
-0.4743385826771654
 30
0.0
 10
-0.4467952755905512
 20
-0.4743385826771654
 30
0.0
 10
-0.5121692913385827
 20
-0.5106456692913386
 30
0.0
 10
-0.5121692913385827
 20
-0.5106456692913386
 30
0.0
 10
-0.5121692913385827
 20
-0.5106456692913386
 30
0.0
 10
-0.5121692913385827
 20
-0.5106456692913386
 30
0.0
 10
-1.143984251968504
 20
-0.1187913385826772
 30
0.0
 10
-1.143984251968504
 20
-0.1187913385826772
 30
0.0
 10
-1.143984251968504
 20
-0.1187913385826772
 30
0.0
 10
-1.143984251968504
 20
-0.1187913385826772
 30
0.0
 10
-1.0786102362204726
 20
-0.0824842519685039
 30
0.0
 10
-1.0786102362204726
 20
-0.0824842519685039
 30
0.0
  0
SPLINE
  5
B3
100
AcDbEntity
  8
Additional Graphics
 62
     9
100
AcDbSpline
210
0.0
220
0.0
230
1.0
 70
     1
 71
     3
 72
    20
 73
    16
 74
     0
 42
0.0000000001
 43
0.0000000001
 40
0.0
 40
0.0
 40
0.0
 40
0.0
 40
0.25
 40
0.25
 40
0.25
 40
0.25
 40
0.5
 40
0.5
 40
0.5
 40
0.5
 40
0.75
 40
0.75
 40
0.75
 40
0.75
 40
1.0
 40
1.0
 40
1.0
 40
1.0
 10
-1.143984251968504
 20
-0.1187913385826772
 30
0.0
 10
-1.143984251968504
 20
-0.1187913385826772
 30
0.0
 10
-0.5121692913385827
 20
-0.5106456692913386
 30
0.0
 10
-0.5121692913385827
 20
-0.5106456692913386
 30
0.0
 10
-0.5121692913385827
 20
-0.5106456692913386
 30
0.0
 10
-0.5121692913385827
 20
-0.5106456692913386
 30
0.0
 10
-0.5817047244094489
 20
-0.5452952755905512
 30
0.0
 10
-0.5817047244094489
 20
-0.5452952755905512
 30
0.0
 10
-0.5817047244094489
 20
-0.5452952755905512
 30
0.0
 10
-0.5817047244094489
 20
-0.5452952755905512
 30
0.0
 10
-1.2135196850393701
 20
-0.1534409448818898
 30
0.0
 10
-1.2135196850393701
 20
-0.1534409448818898
 30
0.0
 10
-1.2135196850393701
 20
-0.1534409448818898
 30
0.0
 10
-1.2135196850393701
 20
-0.1534409448818898
 30
0.0
 10
-1.143984251968504
 20
-0.1187913385826772
 30
0.0
 10
-1.143984251968504
 20
-0.1187913385826772
 30
0.0
  0
SPLINE
  5
B4
100
AcDbEntity
  8
Additional Graphics
 62
     9
100
AcDbSpline
210
0.0
220
0.0
230
1.0
 70
     1
 71
     3
 72
    20
 73
    16
 74
     0
 42
0.0000000001
 43
0.0000000001
 40
0.0
 40
0.0
 40
0.0
 40
0.0
 40
0.25
 40
0.25
 40
0.25
 40
0.25
 40
0.5
 40
0.5
 40
0.5
 40
0.5
 40
0.75
 40
0.75
 40
0.75
 40
0.75
 40
1.0
 40
1.0
 40
1.0
 40
1.0
 10
-1.2135196850393701
 20
-0.1534409448818898
 30
0.0
 10
-1.2135196850393701
 20
-0.1534409448818898
 30
0.0
 10
-0.5817047244094489
 20
-0.5452952755905512
 30
0.0
 10
-0.5817047244094489
 20
-0.5452952755905512
 30
0.0
 10
-0.5817047244094489
 20
-0.5452952755905512
 30
0.0
 10
-0.5817047244094489
 20
-0.5452952755905512
 30
0.0
 10
-0.6555354330708662
 20
-0.5781299212598425
 30
0.0
 10
-0.6555354330708662
 20
-0.5781299212598425
 30
0.0
 10
-0.6555354330708662
 20
-0.5781299212598425
 30
0.0
 10
-0.6555354330708662
 20
-0.5781299212598425
 30
0.0
 10
-1.2873503937007875
 20
-0.1862755905511811
 30
0.0
 10
-1.2873503937007875
 20
-0.1862755905511811
 30
0.0
 10
-1.2873503937007875
 20
-0.1862755905511811
 30
0.0
 10
-1.2873503937007875
 20
-0.1862755905511811
 30
0.0
 10
-1.2135196850393701
 20
-0.1534409448818898
 30
0.0
 10
-1.2135196850393701
 20
-0.1534409448818898
 30
0.0
  0
SPLINE
  5
B5
100
AcDbEntity
  8
Additional Graphics
 62
     9
100
AcDbSpline
210
0.0
220
0.0
230
1.0
 70
     1
 71
     3
 72
    20
 73
    16
 74
     0
 42
0.0000000001
 43
0.0000000001
 40
0.0
 40
0.0
 40
0.0
 40
0.0
 40
0.25
 40
0.25
 40
0.25
 40
0.25
 40
0.5
 40
0.5
 40
0.5
 40
0.5
 40
0.75
 40
0.75
 40
0.75
 40
0.75
 40
1.0
 40
1.0
 40
1.0
 40
1.0
 10
-1.2873503937007875
 20
-0.1862755905511811
 30
0.0
 10
-1.2873503937007875
 20
-0.1862755905511811
 30
0.0
 10
-0.6555354330708662
 20
-0.5781299212598425
 30
0.0
 10
-0.6555354330708662
 20
-0.5781299212598425
 30
0.0
 10
-0.6555354330708662
 20
-0.5781299212598425
 30
0.0
 10
-0.6555354330708662
 20
-0.5781299212598425
 30
0.0
 10
-0.7338110236220473
 20
-0.6090118110236221
 30
0.0
 10
-0.7338110236220473
 20
-0.6090118110236221
 30
0.0
 10
-0.7338110236220473
 20
-0.6090118110236221
 30
0.0
 10
-0.7338110236220473
 20
-0.6090118110236221
 30
0.0
 10
-1.3656259842519685
 20
-0.2171574803149606
 30
0.0
 10
-1.3656259842519685
 20
-0.2171574803149606
 30
0.0
 10
-1.3656259842519685
 20
-0.2171574803149606
 30
0.0
 10
-1.3656259842519685
 20
-0.2171574803149606
 30
0.0
 10
-1.2873503937007875
 20
-0.1862755905511811
 30
0.0
 10
-1.2873503937007875
 20
-0.1862755905511811
 30
0.0
  0
SPLINE
  5
B6
100
AcDbEntity
  8
Additional Graphics
 62
     9
100
AcDbSpline
210
0.0
220
0.0
230
1.0
 70
     1
 71
     3
 72
    20
 73
    16
 74
     0
 42
0.0000000001
 43
0.0000000001
 40
0.0
 40
0.0
 40
0.0
 40
0.0
 40
0.25
 40
0.25
 40
0.25
 40
0.25
 40
0.5
 40
0.5
 40
0.5
 40
0.5
 40
0.75
 40
0.75
 40
0.75
 40
0.75
 40
1.0
 40
1.0
 40
1.0
 40
1.0
 10
-1.3656259842519685
 20
-0.2171574803149606
 30
0.0
 10
-1.3656259842519685
 20
-0.2171574803149606
 30
0.0
 10
-0.7338110236220473
 20
-0.6090118110236221
 30
0.0
 10
-0.7338110236220473
 20
-0.6090118110236221
 30
0.0
 10
-0.7338110236220473
 20
-0.6090118110236221
 30
0.0
 10
-0.7338110236220473
 20
-0.6090118110236221
 30
0.0
 10
-0.8166535433070866
 20
-0.6377716535433071
 30
0.0
 10
-0.8166535433070866
 20
-0.6377716535433071
 30
0.0
 10
-0.8166535433070866
 20
-0.6377716535433071
 30
0.0
 10
-0.8166535433070866
 20
-0.6377716535433071
 30
0.0
 10
-1.448468503937008
 20
-0.2459173228346457
 30
0.0
 10
-1.448468503937008
 20
-0.2459173228346457
 30
0.0
 10
-1.448468503937008
 20
-0.2459173228346457
 30
0.0
 10
-1.448468503937008
 20
-0.2459173228346457
 30
0.0
 10
-1.3656259842519685
 20
-0.2171574803149606
 30
0.0
 10
-1.3656259842519685
 20
-0.2171574803149606
 30
0.0
  0
SPLINE
  5
B7
100
AcDbEntity
  8
Additional Graphics
 62
     9
100
AcDbSpline
210
0.0
220
0.0
230
1.0
 70
     1
 71
     3
 72
    20
 73
    16
 74
     0
 42
0.0000000001
 43
0.0000000001
 40
0.0
 40
0.0
 40
0.0
 40
0.0
 40
0.25
 40
0.25
 40
0.25
 40
0.25
 40
0.5
 40
0.5
 40
0.5
 40
0.5
 40
0.75
 40
0.75
 40
0.75
 40
0.75
 40
1.0
 40
1.0
 40
1.0
 40
1.0
 10
-1.448468503937008
 20
-0.2459173228346457
 30
0.0
 10
-1.448468503937008
 20
-0.2459173228346457
 30
0.0
 10
-0.8166535433070866
 20
-0.6377716535433071
 30
0.0
 10
-0.8166535433070866
 20
-0.6377716535433071
 30
0.0
 10
-0.8166535433070866
 20
-0.6377716535433071
 30
0.0
 10
-0.8166535433070866
 20
-0.6377716535433071
 30
0.0
 10
-0.9042244094488189
 20
-0.6642716535433071
 30
0.0
 10
-0.9042244094488189
 20
-0.6642716535433071
 30
0.0
 10
-0.9042244094488189
 20
-0.6642716535433071
 30
0.0
 10
-0.9042244094488189
 20
-0.6642716535433071
 30
0.0
 10
-1.5360393700787403
 20
-0.2724173228346457
 30
0.0
 10
-1.5360393700787403
 20
-0.2724173228346457
 30
0.0
 10
-1.5360393700787403
 20
-0.2724173228346457
 30
0.0
 10
-1.5360393700787403
 20
-0.2724173228346457
 30
0.0
 10
-1.448468503937008
 20
-0.2459173228346457
 30
0.0
 10
-1.448468503937008
 20
-0.2459173228346457
 30
0.0
  0
SPLINE
  5
B8
100
AcDbEntity
  8
Additional Graphics
 62
     9
100
AcDbSpline
210
0.0
220
0.0
230
1.0
 70
     1
 71
     3
 72
    20
 73
    16
 74
     0
 42
0.0000000001
 43
0.0000000001
 40
0.0
 40
0.0
 40
0.0
 40
0.0
 40
0.25
 40
0.25
 40
0.25
 40
0.25
 40
0.5
 40
0.5
 40
0.5
 40
0.5
 40
0.75
 40
0.75
 40
0.75
 40
0.75
 40
1.0
 40
1.0
 40
1.0
 40
1.0
 10
-1.5360393700787403
 20
-0.2724173228346457
 30
0.0
 10
-1.5360393700787403
 20
-0.2724173228346457
 30
0.0
 10
-0.9042244094488189
 20
-0.6642716535433071
 30
0.0
 10
-0.9042244094488189
 20
-0.6642716535433071
 30
0.0
 10
-0.9042244094488189
 20
-0.6642716535433071
 30
0.0
 10
-0.9042244094488189
 20
-0.6642716535433071
 30
0.0
 10
-0.9966496062992126
 20
-0.6883503937007874
 30
0.0
 10
-0.9966496062992126
 20
-0.6883503937007874
 30
0.0
 10
-0.9966496062992126
 20
-0.6883503937007874
 30
0.0
 10
-0.9966496062992126
 20
-0.6883503937007874
 30
0.0
 10
-1.628464566929134
 20
-0.296496062992126
 30
0.0
 10
-1.628464566929134
 20
-0.296496062992126
 30
0.0
 10
-1.628464566929134
 20
-0.296496062992126
 30
0.0
 10
-1.628464566929134
 20
-0.296496062992126
 30
0.0
 10
-1.5360393700787403
 20
-0.2724173228346457
 30
0.0
 10
-1.5360393700787403
 20
-0.2724173228346457
 30
0.0
  0
SPLINE
  5
B9
100
AcDbEntity
  8
Additional Graphics
 62
     9
100
AcDbSpline
210
0.0
220
0.0
230
1.0
 70
     1
 71
     3
 72
    20
 73
    16
 74
     0
 42
0.0000000001
 43
0.0000000001
 40
0.0
 40
0.0
 40
0.0
 40
0.0
 40
0.25
 40
0.25
 40
0.25
 40
0.25
 40
0.5
 40
0.5
 40
0.5
 40
0.5
 40
0.75
 40
0.75
 40
0.75
 40
0.75
 40
1.0
 40
1.0
 40
1.0
 40
1.0
 10
-1.628464566929134
 20
-0.296496062992126
 30
0.0
 10
-1.628464566929134
 20
-0.296496062992126
 30
0.0
 10
-0.9966496062992126
 20
-0.6883503937007874
 30
0.0
 10
-0.9966496062992126
 20
-0.6883503937007874
 30
0.0
 10
-0.9966496062992126
 20
-0.6883503937007874
 30
0.0
 10
-0.9966496062992126
 20
-0.6883503937007874
 30
0.0
 10
-1.0940787401574803
 20
-0.7098661417322835
 30
0.0
 10
-1.0940787401574803
 20
-0.7098661417322835
 30
0.0
 10
-1.0940787401574803
 20
-0.7098661417322835
 30
0.0
 10
-1.0940787401574803
 20
-0.7098661417322835
 30
0.0
 10
-1.7258937007874016
 20
-0.3180118110236221
 30
0.0
 10
-1.7258937007874016
 20
-0.3180118110236221
 30
0.0
 10
-1.7258937007874016
 20
-0.3180118110236221
 30
0.0
 10
-1.7258937007874016
 20
-0.3180118110236221
 30
0.0
 10
-1.628464566929134
 20
-0.296496062992126
 30
0.0
 10
-1.628464566929134
 20
-0.296496062992126
 30
0.0
  0
SPLINE
  5
BA
100
AcDbEntity
  8
Additional Graphics
370
     5
100
AcDbSpline
210
0.0
220
0.0
230
1.0
 70
     1
 71
     3
 72
   524
 73
   520
 74
     0
 42
0.0000000001
 43
0.0000000001
 40
0.0
 40
0.0
 40
0.0
 40
0.0
 40
0.0076923076923077
 40
0.0076923076923077
 40
0.0076923076923077
 40
0.0076923076923077
 40
0.0153846153846154
 40
0.0153846153846154
 40
0.0153846153846154
 40
0.0153846153846154
 40
0.0230769230769231
 40
0.0230769230769231
 40
0.0230769230769231
 40
0.0230769230769231
 40
0.0307692307692308
 40
0.0307692307692308
 40
0.0307692307692308
 40
0.0307692307692308
 40
0.0384615384615385
 40
0.0384615384615385
 40
0.0384615384615385
 40
0.0384615384615385
 40
0.0461538461538462
 40
0.0461538461538462
 40
0.0461538461538462
 40
0.0461538461538462
 40
0.0538461538461538
 40
0.0538461538461538
 40
0.0538461538461538
 40
0.0538461538461538
 40
0.0615384615384615
 40
0.0615384615384615
 40
0.0615384615384615
 40
0.0615384615384615
 40
0.0692307692307692
 40
0.0692307692307692
 40
0.0692307692307692
 40
0.0692307692307692
 40
0.0769230769230769
 40
0.0769230769230769
 40
0.0769230769230769
 40
0.0769230769230769
 40
0.0846153846153846
 40
0.0846153846153846
 40
0.0846153846153846
 40
0.0846153846153846
 40
0.0923076923076923
 40
0.0923076923076923
 40
0.0923076923076923
 40
0.0923076923076923
 40
0.1
 40
0.1
 40
0.1
 40
0.1
 40
0.1076923076923077
 40
0.1076923076923077
 40
0.1076923076923077
 40
0.1076923076923077
 40
0.1153846153846154
 40
0.1153846153846154
 40
0.1153846153846154
 40
0.1153846153846154
 40
0.1230769230769231
 40
0.1230769230769231
 40
0.1230769230769231
 40
0.1230769230769231
 40
0.1307692307692308
 40
0.1307692307692308
 40
0.1307692307692308
 40
0.1307692307692308
 40
0.1384615384615385
 40
0.1384615384615385
 40
0.1384615384615385
 40
0.1384615384615385
 40
0.1461538461538462
 40
0.1461538461538462
 40
0.1461538461538462
 40
0.1461538461538462
 40
0.1538461538461539
 40
0.1538461538461539
 40
0.1538461538461539
 40
0.1538461538461539
 40
0.1615384615384616
 40
0.1615384615384616
 40
0.1615384615384616
 40
0.1615384615384616
 40
0.1692307692307692
 40
0.1692307692307692
 40
0.1692307692307692
 40
0.1692307692307692
 40
0.1769230769230769
 40
0.1769230769230769
 40
0.1769230769230769
 40
0.1769230769230769
 40
0.1846153846153846
 40
0.1846153846153846
 40
0.1846153846153846
 40
0.1846153846153846
 40
0.1923076923076923
 40
0.1923076923076923
 40
0.1923076923076923
 40
0.1923076923076923
 40
0.2
 40
0.2
 40
0.2
 40
0.2
 40
0.2076923076923077
 40
0.2076923076923077
 40
0.2076923076923077
 40
0.2076923076923077
 40
0.2153846153846154
 40
0.2153846153846154
 40
0.2153846153846154
 40
0.2153846153846154
 40
0.2230769230769231
 40
0.2230769230769231
 40
0.2230769230769231
 40
0.2230769230769231
 40
0.2307692307692308
 40
0.2307692307692308
 40
0.2307692307692308
 40
0.2307692307692308
 40
0.2384615384615385
 40
0.2384615384615385
 40
0.2384615384615385
 40
0.2384615384615385
 40
0.2461538461538462
 40
0.2461538461538462
 40
0.2461538461538462
 40
0.2461538461538462
 40
0.2538461538461538
 40
0.2538461538461538
 40
0.2538461538461538
 40
0.2538461538461538
 40
0.2615384615384615
 40
0.2615384615384615
 40
0.2615384615384615
 40
0.2615384615384615
 40
0.2692307692307692
 40
0.2692307692307692
 40
0.2692307692307692
 40
0.2692307692307692
 40
0.2769230769230768
 40
0.2769230769230768
 40
0.2769230769230768
 40
0.2769230769230768
 40
0.2846153846153845
 40
0.2846153846153845
 40
0.2846153846153845
 40
0.2846153846153845
 40
0.2923076923076922
 40
0.2923076923076922
 40
0.2923076923076922
 40
0.2923076923076922
 40
0.2999999999999998
 40
0.2999999999999998
 40
0.2999999999999998
 40
0.2999999999999998
 40
0.3076923076923075
 40
0.3076923076923075
 40
0.3076923076923075
 40
0.3076923076923075
 40
0.3153846153846152
 40
0.3153846153846152
 40
0.3153846153846152
 40
0.3153846153846152
 40
0.3230769230769228
 40
0.3230769230769228
 40
0.3230769230769228
 40
0.3230769230769228
 40
0.3307692307692305
 40
0.3307692307692305
 40
0.3307692307692305
 40
0.3307692307692305
 40
0.3384615384615382
 40
0.3384615384615382
 40
0.3384615384615382
 40
0.3384615384615382
 40
0.3461538461538458
 40
0.3461538461538458
 40
0.3461538461538458
 40
0.3461538461538458
 40
0.3538461538461535
 40
0.3538461538461535
 40
0.3538461538461535
 40
0.3538461538461535
 40
0.3615384615384611
 40
0.3615384615384611
 40
0.3615384615384611
 40
0.3615384615384611
 40
0.3692307692307688
 40
0.3692307692307688
 40
0.3692307692307688
 40
0.3692307692307688
 40
0.3769230769230765
 40
0.3769230769230765
 40
0.3769230769230765
 40
0.3769230769230765
 40
0.3846153846153841
 40
0.3846153846153841
 40
0.3846153846153841
 40
0.3846153846153841
 40
0.3923076923076918
 40
0.3923076923076918
 40
0.3923076923076918
 40
0.3923076923076918
 40
0.3999999999999995
 40
0.3999999999999995
 40
0.3999999999999995
 40
0.3999999999999995
 40
0.4076923076923071
 40
0.4076923076923071
 40
0.4076923076923071
 40
0.4076923076923071
 40
0.4153846153846148
 40
0.4153846153846148
 40
0.4153846153846148
 40
0.4153846153846148
 40
0.4230769230769225
 40
0.4230769230769225
 40
0.4230769230769225
 40
0.4230769230769225
 40
0.4307692307692301
 40
0.4307692307692301
 40
0.4307692307692301
 40
0.4307692307692301
 40
0.4384615384615378
 40
0.4384615384615378
 40
0.4384615384615378
 40
0.4384615384615378
 40
0.4461538461538455
 40
0.4461538461538455
 40
0.4461538461538455
 40
0.4461538461538455
 40
0.4538461538461531
 40
0.4538461538461531
 40
0.4538461538461531
 40
0.4538461538461531
 40
0.4615384615384608
 40
0.4615384615384608
 40
0.4615384615384608
 40
0.4615384615384608
 40
0.4692307692307685
 40
0.4692307692307685
 40
0.4692307692307685
 40
0.4692307692307685
 40
0.4769230769230761
 40
0.4769230769230761
 40
0.4769230769230761
 40
0.4769230769230761
 40
0.4846153846153838
 40
0.4846153846153838
 40
0.4846153846153838
 40
0.4846153846153838
 40
0.4923076923076915
 40
0.4923076923076915
 40
0.4923076923076915
 40
0.4923076923076915
 40
0.4999999999999991
 40
0.4999999999999991
 40
0.4999999999999991
 40
0.4999999999999991
 40
0.5076923076923068
 40
0.5076923076923068
 40
0.5076923076923068
 40
0.5076923076923068
 40
0.5153846153846144
 40
0.5153846153846144
 40
0.5153846153846144
 40
0.5153846153846144
 40
0.5230769230769221
 40
0.5230769230769221
 40
0.5230769230769221
 40
0.5230769230769221
 40
0.5307692307692298
 40
0.5307692307692298
 40
0.5307692307692298
 40
0.5307692307692298
 40
0.5384615384615374
 40
0.5384615384615374
 40
0.5384615384615374
 40
0.5384615384615374
 40
0.5461538461538451
 40
0.5461538461538451
 40
0.5461538461538451
 40
0.5461538461538451
 40
0.5538461538461528
 40
0.5538461538461528
 40
0.5538461538461528
 40
0.5538461538461528
 40
0.5615384615384604
 40
0.5615384615384604
 40
0.5615384615384604
 40
0.5615384615384604
 40
0.5692307692307681
 40
0.5692307692307681
 40
0.5692307692307681
 40
0.5692307692307681
 40
0.5769230769230758
 40
0.5769230769230758
 40
0.5769230769230758
 40
0.5769230769230758
 40
0.5846153846153834
 40
0.5846153846153834
 40
0.5846153846153834
 40
0.5846153846153834
 40
0.5923076923076911
 40
0.5923076923076911
 40
0.5923076923076911
 40
0.5923076923076911
 40
0.5999999999999988
 40
0.5999999999999988
 40
0.5999999999999988
 40
0.5999999999999988
 40
0.6076923076923064
 40
0.6076923076923064
 40
0.6076923076923064
 40
0.6076923076923064
 40
0.6153846153846141
 40
0.6153846153846141
 40
0.6153846153846141
 40
0.6153846153846141
 40
0.6230769230769218
 40
0.6230769230769218
 40
0.6230769230769218
 40
0.6230769230769218
 40
0.6307692307692294
 40
0.6307692307692294
 40
0.6307692307692294
 40
0.6307692307692294
 40
0.6384615384615371
 40
0.6384615384615371
 40
0.6384615384615371
 40
0.6384615384615371
 40
0.6461538461538448
 40
0.6461538461538448
 40
0.6461538461538448
 40
0.6461538461538448
 40
0.6538461538461524
 40
0.6538461538461524
 40
0.6538461538461524
 40
0.6538461538461524
 40
0.6615384615384601
 40
0.6615384615384601
 40
0.6615384615384601
 40
0.6615384615384601
 40
0.6692307692307677
 40
0.6692307692307677
 40
0.6692307692307677
 40
0.6692307692307677
 40
0.6769230769230754
 40
0.6769230769230754
 40
0.6769230769230754
 40
0.6769230769230754
 40
0.6846153846153831
 40
0.6846153846153831
 40
0.6846153846153831
 40
0.6846153846153831
 40
0.6923076923076907
 40
0.6923076923076907
 40
0.6923076923076907
 40
0.6923076923076907
 40
0.6999999999999984
 40
0.6999999999999984
 40
0.6999999999999984
 40
0.6999999999999984
 40
0.7076923076923061
 40
0.7076923076923061
 40
0.7076923076923061
 40
0.7076923076923061
 40
0.7153846153846137
 40
0.7153846153846137
 40
0.7153846153846137
 40
0.7153846153846137
 40
0.7230769230769214
 40
0.7230769230769214
 40
0.7230769230769214
 40
0.7230769230769214
 40
0.7307692307692291
 40
0.7307692307692291
 40
0.7307692307692291
 40
0.7307692307692291
 40
0.7384615384615367
 40
0.7384615384615367
 40
0.7384615384615367
 40
0.7384615384615367
 40
0.7461538461538444
 40
0.7461538461538444
 40
0.7461538461538444
 40
0.7461538461538444
 40
0.7538461538461521
 40
0.7538461538461521
 40
0.7538461538461521
 40
0.7538461538461521
 40
0.7615384615384597
 40
0.7615384615384597
 40
0.7615384615384597
 40
0.7615384615384597
 40
0.7692307692307674
 40
0.7692307692307674
 40
0.7692307692307674
 40
0.7692307692307674
 40
0.7769230769230751
 40
0.7769230769230751
 40
0.7769230769230751
 40
0.7769230769230751
 40
0.7846153846153827
 40
0.7846153846153827
 40
0.7846153846153827
 40
0.7846153846153827
 40
0.7923076923076904
 40
0.7923076923076904
 40
0.7923076923076904
 40
0.7923076923076904
 40
0.7999999999999981
 40
0.7999999999999981
 40
0.7999999999999981
 40
0.7999999999999981
 40
0.8076923076923057
 40
0.8076923076923057
 40
0.8076923076923057
 40
0.8076923076923057
 40
0.8153846153846134
 40
0.8153846153846134
 40
0.8153846153846134
 40
0.8153846153846134
 40
0.823076923076921
 40
0.823076923076921
 40
0.823076923076921
 40
0.823076923076921
 40
0.8307692307692287
 40
0.8307692307692287
 40
0.8307692307692287
 40
0.8307692307692287
 40
0.8384615384615364
 40
0.8384615384615364
 40
0.8384615384615364
 40
0.8384615384615364
 40
0.846153846153844
 40
0.846153846153844
 40
0.846153846153844
 40
0.846153846153844
 40
0.8538461538461517
 40
0.8538461538461517
 40
0.8538461538461517
 40
0.8538461538461517
 40
0.8615384615384594
 40
0.8615384615384594
 40
0.8615384615384594
 40
0.8615384615384594
 40
0.869230769230767
 40
0.869230769230767
 40
0.869230769230767
 40
0.869230769230767
 40
0.8769230769230747
 40
0.8769230769230747
 40
0.8769230769230747
 40
0.8769230769230747
 40
0.8846153846153824
 40
0.8846153846153824
 40
0.8846153846153824
 40
0.8846153846153824
 40
0.89230769230769
 40
0.89230769230769
 40
0.89230769230769
 40
0.89230769230769
 40
0.8999999999999977
 40
0.8999999999999977
 40
0.8999999999999977
 40
0.8999999999999977
 40
0.9076923076923054
 40
0.9076923076923054
 40
0.9076923076923054
 40
0.9076923076923054
 40
0.915384615384613
 40
0.915384615384613
 40
0.915384615384613
 40
0.915384615384613
 40
0.9230769230769207
 40
0.9230769230769207
 40
0.9230769230769207
 40
0.9230769230769207
 40
0.9307692307692284
 40
0.9307692307692284
 40
0.9307692307692284
 40
0.9307692307692284
 40
0.938461538461536
 40
0.938461538461536
 40
0.938461538461536
 40
0.938461538461536
 40
0.9461538461538437
 40
0.9461538461538437
 40
0.9461538461538437
 40
0.9461538461538437
 40
0.9538461538461514
 40
0.9538461538461514
 40
0.9538461538461514
 40
0.9538461538461514
 40
0.961538461538459
 40
0.961538461538459
 40
0.961538461538459
 40
0.961538461538459
 40
0.9692307692307667
 40
0.9692307692307667
 40
0.9692307692307667
 40
0.9692307692307667
 40
0.9769230769230743
 40
0.9769230769230743
 40
0.9769230769230743
 40
0.9769230769230743
 40
0.984615384615382
 40
0.984615384615382
 40
0.984615384615382
 40
0.984615384615382
 40
0.9923076923076897
 40
0.9923076923076897
 40
0.9923076923076897
 40
0.9923076923076897
 40
1.0
 40
1.0
 40
1.0
 40
1.0
 10
0.7593543307086614
 20
2.0128110236220471
 30
0.0
 10
0.7593543307086614
 20
2.0128110236220471
 30
0.0
 10
1.3911692913385827
 20
1.6209566929133858
 30
0.0
 10
1.3911692913385827
 20
1.6209566929133858
 30
0.0
 10
1.3911692913385827
 20
1.6209566929133858
 30
0.0
 10
1.3911692913385827
 20
1.6209566929133858
 30
0.0
 10
1.3055393700787401
 20
1.6038858267716536
 30
0.0
 10
1.3055393700787401
 20
1.6038858267716536
 30
0.0
 10
1.3055393700787401
 20
1.6038858267716536
 30
0.0
 10
1.3055393700787401
 20
1.6038858267716536
 30
0.0
 10
1.22448031496063
 20
1.584208661417323
 30
0.0
 10
1.22448031496063
 20
1.584208661417323
 30
0.0
 10
1.22448031496063
 20
1.584208661417323
 30
0.0
 10
1.22448031496063
 20
1.584208661417323
 30
0.0
 10
1.1478464566929134
 20
1.5620866141732284
 30
0.0
 10
1.1478464566929134
 20
1.5620866141732284
 30
0.0
 10
1.1478464566929134
 20
1.5620866141732284
 30
0.0
 10
1.1478464566929134
 20
1.5620866141732284
 30
0.0
 10
1.0755118110236221
 20
1.5376496062992127
 30
0.0
 10
1.0755118110236221
 20
1.5376496062992127
 30
0.0
 10
1.0755118110236221
 20
1.5376496062992127
 30
0.0
 10
1.0755118110236221
 20
1.5376496062992127
 30
0.0
 10
1.0073346456692913
 20
1.5110551181102363
 30
0.0
 10
1.0073346456692913
 20
1.5110551181102363
 30
0.0
 10
1.0073346456692913
 20
1.5110551181102363
 30
0.0
 10
1.0073346456692913
 20
1.5110551181102363
 30
0.0
 10
0.9431692913385827
 20
1.4824330708661417
 30
0.0
 10
0.9431692913385827
 20
1.4824330708661417
 30
0.0
 10
0.9431692913385827
 20
1.4824330708661417
 30
0.0
 10
0.9431692913385827
 20
1.4824330708661417
 30
0.0
 10
0.8828897637795276
 20
1.4519370078740157
 30
0.0
 10
0.8828897637795276
 20
1.4519370078740157
 30
0.0
 10
0.8828897637795276
 20
1.4519370078740157
 30
0.0
 10
0.8828897637795276
 20
1.4519370078740157
 30
0.0
 10
0.8263503937007874
 20
1.4197047244094489
 30
0.0
 10
0.8263503937007874
 20
1.4197047244094489
 30
0.0
 10
0.8263503937007874
 20
1.4197047244094489
 30
0.0
 10
0.8263503937007874
 20
1.4197047244094489
 30
0.0
 10
0.7734330708661418
 20
1.3858897637795276
 30
0.0
 10
0.7734330708661418
 20
1.3858897637795276
 30
0.0
 10
0.7734330708661418
 20
1.3858897637795276
 30
0.0
 10
0.7734330708661418
 20
1.3858897637795276
 30
0.0
 10
0.7239842519685039
 20
1.3506299212598425
 30
0.0
 10
0.7239842519685039
 20
1.3506299212598425
 30
0.0
 10
0.7239842519685039
 20
1.3506299212598425
 30
0.0
 10
0.7239842519685039
 20
1.3506299212598425
 30
0.0
 10
0.6778740157480315
 20
1.3140748031496063
 30
0.0
 10
0.6778740157480315
 20
1.3140748031496063
 30
0.0
 10
0.6778740157480315
 20
1.3140748031496063
 30
0.0
 10
0.6778740157480315
 20
1.3140748031496063
 30
0.0
 10
0.6349606299212599
 20
1.2763503937007874
 30
0.0
 10
0.6349606299212599
 20
1.2763503937007874
 30
0.0
 10
0.6349606299212599
 20
1.2763503937007874
 30
0.0
 10
0.6349606299212599
 20
1.2763503937007874
 30
0.0
 10
0.5951220472440946
 20
1.2376259842519686
 30
0.0
 10
0.5951220472440946
 20
1.2376259842519686
 30
0.0
 10
0.5951220472440946
 20
1.2376259842519686
 30
0.0
 10
0.5951220472440946
 20
1.2376259842519686
 30
0.0
 10
0.5582047244094488
 20
1.1980275590551182
 30
0.0
 10
0.5582047244094488
 20
1.1980275590551182
 30
0.0
 10
0.5582047244094488
 20
1.1980275590551182
 30
0.0
 10
0.5582047244094488
 20
1.1980275590551182
 30
0.0
 10
0.5240826771653544
 20
1.1577086614173229
 30
0.0
 10
0.5240826771653544
 20
1.1577086614173229
 30
0.0
 10
0.5240826771653544
 20
1.1577086614173229
 30
0.0
 10
0.5240826771653544
 20
1.1577086614173229
 30
0.0
 10
0.4926141732283465
 20
1.1168031496062993
 30
0.0
 10
0.4926141732283465
 20
1.1168031496062993
 30
0.0
 10
0.4926141732283465
 20
1.1168031496062993
 30
0.0
 10
0.4926141732283465
 20
1.1168031496062993
 30
0.0
 10
0.4636771653543307
 20
1.0754724409448819
 30
0.0
 10
0.4636771653543307
 20
1.0754724409448819
 30
0.0
 10
0.4636771653543307
 20
1.0754724409448819
 30
0.0
 10
0.4636771653543307
 20
1.0754724409448819
 30
0.0
 10
0.4371181102362205
 20
1.0338464566929135
 30
0.0
 10
0.4371181102362205
 20
1.0338464566929135
 30
0.0
 10
0.4371181102362205
 20
1.0338464566929135
 30
0.0
 10
0.4371181102362205
 20
1.0338464566929135
 30
0.0
 10
0.4128110236220473
 20
0.9920748031496064
 30
0.0
 10
0.4128110236220473
 20
0.9920748031496064
 30
0.0
 10
0.4128110236220473
 20
0.9920748031496064
 30
0.0
 10
0.4128110236220473
 20
0.9920748031496064
 30
0.0
 10
0.3906102362204725
 20
0.9502992125984252
 30
0.0
 10
0.3906102362204725
 20
0.9502992125984252
 30
0.0
 10
0.3906102362204725
 20
0.9502992125984252
 30
0.0
 10
0.3906102362204725
 20
0.9502992125984252
 30
0.0
 10
0.3703897637795276
 20
0.9086653543307087
 30
0.0
 10
0.3703897637795276
 20
0.9086653543307087
 30
0.0
 10
0.3703897637795276
 20
0.9086653543307087
 30
0.0
 10
0.3703897637795276
 20
0.9086653543307087
 30
0.0
 10
0.352003937007874
 20
0.8673149606299213
 30
0.0
 10
0.352003937007874
 20
0.8673149606299213
 30
0.0
 10
0.352003937007874
 20
0.8673149606299213
 30
0.0
 10
0.352003937007874
 20
0.8673149606299213
 30
0.0
 10
0.3353267716535433
 20
0.8263976377952756
 30
0.0
 10
0.3353267716535433
 20
0.8263976377952756
 30
0.0
 10
0.3353267716535433
 20
0.8263976377952756
 30
0.0
 10
0.3353267716535433
 20
0.8263976377952756
 30
0.0
 10
0.3202047244094488
 20
0.7860433070866142
 30
0.0
 10
0.3202047244094488
 20
0.7860433070866142
 30
0.0
 10
0.3202047244094488
 20
0.7860433070866142
 30
0.0
 10
0.3202047244094488
 20
0.7860433070866142
 30
0.0
 10
0.3065275590551181
 20
0.7464173228346457
 30
0.0
 10
0.3065275590551181
 20
0.7464173228346457
 30
0.0
 10
0.3065275590551181
 20
0.7464173228346457
 30
0.0
 10
0.3065275590551181
 20
0.7464173228346457
 30
0.0
 10
0.2941377952755906
 20
0.7076496062992126
 30
0.0
 10
0.2941377952755906
 20
0.7076496062992126
 30
0.0
 10
0.2941377952755906
 20
0.7076496062992126
 30
0.0
 10
0.2941377952755906
 20
0.7076496062992126
 30
0.0
 10
0.2829094488188976
 20
0.6698858267716535
 30
0.0
 10
0.2829094488188976
 20
0.6698858267716535
 30
0.0
 10
0.2829094488188976
 20
0.6698858267716535
 30
0.0
 10
0.2829094488188976
 20
0.6698858267716535
 30
0.0
 10
0.2726968503937008
 20
0.6332677165354331
 30
0.0
 10
0.2726968503937008
 20
0.6332677165354331
 30
0.0
 10
0.2726968503937008
 20
0.6332677165354331
 30
0.0
 10
0.2726968503937008
 20
0.6332677165354331
 30
0.0
 10
0.2633740157480315
 20
0.5979527559055118
 30
0.0
 10
0.2633740157480315
 20
0.5979527559055118
 30
0.0
 10
0.2633740157480315
 20
0.5979527559055118
 30
0.0
 10
0.2633740157480315
 20
0.5979527559055118
 30
0.0
 10
0.2547992125984252
 20
0.5640669291338583
 30
0.0
 10
0.2547992125984252
 20
0.5640669291338583
 30
0.0
 10
0.2547992125984252
 20
0.5640669291338583
 30
0.0
 10
0.2547992125984252
 20
0.5640669291338583
 30
0.0
 10
0.2468385826771654
 20
0.5317677165354331
 30
0.0
 10
0.2468385826771654
 20
0.5317677165354331
 30
0.0
 10
0.2468385826771654
 20
0.5317677165354331
 30
0.0
 10
0.2468385826771654
 20
0.5317677165354331
 30
0.0
 10
0.2393503937007874
 20
0.5011889763779528
 30
0.0
 10
0.2393503937007874
 20
0.5011889763779528
 30
0.0
 10
0.2393503937007874
 20
0.5011889763779528
 30
0.0
 10
0.2393503937007874
 20
0.5011889763779528
 30
0.0
 10
0.2317165354330709
 20
0.470492125984252
 30
0.0
 10
0.2317165354330709
 20
0.470492125984252
 30
0.0
 10
0.2317165354330709
 20
0.470492125984252
 30
0.0
 10
0.2317165354330709
 20
0.470492125984252
 30
0.0
 10
0.2232795275590551
 20
0.4378149606299213
 30
0.0
 10
0.2232795275590551
 20
0.4378149606299213
 30
0.0
 10
0.2232795275590551
 20
0.4378149606299213
 30
0.0
 10
0.2232795275590551
 20
0.4378149606299213
 30
0.0
 10
0.2139133858267717
 20
0.4033149606299213
 30
0.0
 10
0.2139133858267717
 20
0.4033149606299213
 30
0.0
 10
0.2139133858267717
 20
0.4033149606299213
 30
0.0
 10
0.2139133858267717
 20
0.4033149606299213
 30
0.0
 10
0.2034685039370079
 20
0.3671377952755905
 30
0.0
 10
0.2034685039370079
 20
0.3671377952755905
 30
0.0
 10
0.2034685039370079
 20
0.3671377952755905
 30
0.0
 10
0.2034685039370079
 20
0.3671377952755905
 30
0.0
 10
0.1918149606299213
 20
0.3294488188976378
 30
0.0
 10
0.1918149606299213
 20
0.3294488188976378
 30
0.0
 10
0.1918149606299213
 20
0.3294488188976378
 30
0.0
 10
0.1918149606299213
 20
0.3294488188976378
 30
0.0
 10
0.1788031496062992
 20
0.2903818897637795
 30
0.0
 10
0.1788031496062992
 20
0.2903818897637795
 30
0.0
 10
0.1788031496062992
 20
0.2903818897637795
 30
0.0
 10
0.1788031496062992
 20
0.2903818897637795
 30
0.0
 10
0.1642992125984252
 20
0.2500984251968504
 30
0.0
 10
0.1642992125984252
 20
0.2500984251968504
 30
0.0
 10
0.1642992125984252
 20
0.2500984251968504
 30
0.0
 10
0.1642992125984252
 20
0.2500984251968504
 30
0.0
 10
0.1481535433070866
 20
0.208744094488189
 30
0.0
 10
0.1481535433070866
 20
0.208744094488189
 30
0.0
 10
0.1481535433070866
 20
0.208744094488189
 30
0.0
 10
0.1481535433070866
 20
0.208744094488189
 30
0.0
 10
0.130240157480315
 20
0.1664842519685039
 30
0.0
 10
0.130240157480315
 20
0.1664842519685039
 30
0.0
 10
0.130240157480315
 20
0.1664842519685039
 30
0.0
 10
0.130240157480315
 20
0.1664842519685039
 30
0.0
 10
0.1104094488188976
 20
0.1234566929133858
 30
0.0
 10
0.1104094488188976
 20
0.1234566929133858
 30
0.0
 10
0.1104094488188976
 20
0.1234566929133858
 30
0.0
 10
0.1104094488188976
 20
0.1234566929133858
 30
0.0
 10
0.0885236220472441
 20
0.0798149606299213
 30
0.0
 10
0.0885236220472441
 20
0.0798149606299213
 30
0.0
 10
0.0885236220472441
 20
0.0798149606299213
 30
0.0
 10
0.0885236220472441
 20
0.0798149606299213
 30
0.0
 10
0.0644409448818898
 20
0.0357086614173228
 30
0.0
 10
0.0644409448818898
 20
0.0357086614173228
 30
0.0
 10
0.0644409448818898
 20
0.0357086614173228
 30
0.0
 10
0.0644409448818898
 20
0.0357086614173228
 30
0.0
 10
0.0380314960629921
 20
-0.0087007874015748
 30
0.0
 10
0.0380314960629921
 20
-0.0087007874015748
 30
0.0
 10
0.0380314960629921
 20
-0.0087007874015748
 30
0.0
 10
0.0380314960629921
 20
-0.0087007874015748
 30
0.0
 10
0.0091338582677165
 20
-0.0532755905511811
 30
0.0
 10
0.0091338582677165
 20
-0.0532755905511811
 30
0.0
 10
0.0091338582677165
 20
-0.0532755905511811
 30
0.0
 10
0.0091338582677165
 20
-0.0532755905511811
 30
0.0
 10
-0.0223740157480315
 20
-0.0978503937007874
 30
0.0
 10
-0.0223740157480315
 20
-0.0978503937007874
 30
0.0
 10
-0.0223740157480315
 20
-0.0978503937007874
 30
0.0
 10
-0.0223740157480315
 20
-0.0978503937007874
 30
0.0
 10
-0.0566456692913386
 20
-0.1422874015748032
 30
0.0
 10
-0.0566456692913386
 20
-0.1422874015748032
 30
0.0
 10
-0.0566456692913386
 20
-0.1422874015748032
 30
0.0
 10
-0.0566456692913386
 20
-0.1422874015748032
 30
0.0
 10
-0.0937992125984252
 20
-0.1864133858267717
 30
0.0
 10
-0.0937992125984252
 20
-0.1864133858267717
 30
0.0
 10
-0.0937992125984252
 20
-0.1864133858267717
 30
0.0
 10
-0.0937992125984252
 20
-0.1864133858267717
 30
0.0
 10
-0.133996062992126
 20
-0.2301023622047244
 30
0.0
 10
-0.133996062992126
 20
-0.2301023622047244
 30
0.0
 10
-0.133996062992126
 20
-0.2301023622047244
 30
0.0
 10
-0.133996062992126
 20
-0.2301023622047244
 30
0.0
 10
-0.1773700787401575
 20
-0.2731850393700788
 30
0.0
 10
-0.1773700787401575
 20
-0.2731850393700788
 30
0.0
 10
-0.1773700787401575
 20
-0.2731850393700788
 30
0.0
 10
-0.1773700787401575
 20
-0.2731850393700788
 30
0.0
 10
-0.2240629921259843
 20
-0.3155275590551182
 30
0.0
 10
-0.2240629921259843
 20
-0.3155275590551182
 30
0.0
 10
-0.2240629921259843
 20
-0.3155275590551182
 30
0.0
 10
-0.2240629921259843
 20
-0.3155275590551182
 30
0.0
 10
-0.2742086614173229
 20
-0.3569606299212599
 30
0.0
 10
-0.2742086614173229
 20
-0.3569606299212599
 30
0.0
 10
-0.2742086614173229
 20
-0.3569606299212599
 30
0.0
 10
-0.2742086614173229
 20
-0.3569606299212599
 30
0.0
 10
-0.3279527559055118
 20
-0.3973425196850394
 30
0.0
 10
-0.3279527559055118
 20
-0.3973425196850394
 30
0.0
 10
-0.3279527559055118
 20
-0.3973425196850394
 30
0.0
 10
-0.3279527559055118
 20
-0.3973425196850394
 30
0.0
 10
-0.3854330708661418
 20
-0.4365157480314961
 30
0.0
 10
-0.3854330708661418
 20
-0.4365157480314961
 30
0.0
 10
-0.3854330708661418
 20
-0.4365157480314961
 30
0.0
 10
-0.3854330708661418
 20
-0.4365157480314961
 30
0.0
 10
-0.4467952755905512
 20
-0.4743385826771654
 30
0.0
 10
-0.4467952755905512
 20
-0.4743385826771654
 30
0.0
 10
-0.4467952755905512
 20
-0.4743385826771654
 30
0.0
 10
-0.4467952755905512
 20
-0.4743385826771654
 30
0.0
 10
-0.5121692913385827
 20
-0.5106456692913386
 30
0.0
 10
-0.5121692913385827
 20
-0.5106456692913386
 30
0.0
 10
-0.5121692913385827
 20
-0.5106456692913386
 30
0.0
 10
-0.5121692913385827
 20
-0.5106456692913386
 30
0.0
 10
-0.5817047244094489
 20
-0.5452952755905512
 30
0.0
 10
-0.5817047244094489
 20
-0.5452952755905512
 30
0.0
 10
-0.5817047244094489
 20
-0.5452952755905512
 30
0.0
 10
-0.5817047244094489
 20
-0.5452952755905512
 30
0.0
 10
-0.6555354330708662
 20
-0.5781299212598425
 30
0.0
 10
-0.6555354330708662
 20
-0.5781299212598425
 30
0.0
 10
-0.6555354330708662
 20
-0.5781299212598425
 30
0.0
 10
-0.6555354330708662
 20
-0.5781299212598425
 30
0.0
 10
-0.7338110236220473
 20
-0.6090118110236221
 30
0.0
 10
-0.7338110236220473
 20
-0.6090118110236221
 30
0.0
 10
-0.7338110236220473
 20
-0.6090118110236221
 30
0.0
 10
-0.7338110236220473
 20
-0.6090118110236221
 30
0.0
 10
-0.8166535433070866
 20
-0.6377716535433071
 30
0.0
 10
-0.8166535433070866
 20
-0.6377716535433071
 30
0.0
 10
-0.8166535433070866
 20
-0.6377716535433071
 30
0.0
 10
-0.8166535433070866
 20
-0.6377716535433071
 30
0.0
 10
-0.9042244094488189
 20
-0.6642716535433071
 30
0.0
 10
-0.9042244094488189
 20
-0.6642716535433071
 30
0.0
 10
-0.9042244094488189
 20
-0.6642716535433071
 30
0.0
 10
-0.9042244094488189
 20
-0.6642716535433071
 30
0.0
 10
-0.9966496062992126
 20
-0.6883503937007874
 30
0.0
 10
-0.9966496062992126
 20
-0.6883503937007874
 30
0.0
 10
-0.9966496062992126
 20
-0.6883503937007874
 30
0.0
 10
-0.9966496062992126
 20
-0.6883503937007874
 30
0.0
 10
-1.0940787401574803
 20
-0.7098661417322835
 30
0.0
 10
-1.0940787401574803
 20
-0.7098661417322835
 30
0.0
 10
-1.0940787401574803
 20
-0.7098661417322835
 30
0.0
 10
-1.0940787401574803
 20
-0.7098661417322835
 30
0.0
 10
-1.7258937007874016
 20
-0.3180118110236221
 30
0.0
 10
-1.7258937007874016
 20
-0.3180118110236221
 30
0.0
 10
-1.7258937007874016
 20
-0.3180118110236221
 30
0.0
 10
-1.7258937007874016
 20
-0.3180118110236221
 30
0.0
 10
-1.628464566929134
 20
-0.296496062992126
 30
0.0
 10
-1.628464566929134
 20
-0.296496062992126
 30
0.0
 10
-1.628464566929134
 20
-0.296496062992126
 30
0.0
 10
-1.628464566929134
 20
-0.296496062992126
 30
0.0
 10
-1.5360393700787403
 20
-0.2724173228346457
 30
0.0
 10
-1.5360393700787403
 20
-0.2724173228346457
 30
0.0
 10
-1.5360393700787403
 20
-0.2724173228346457
 30
0.0
 10
-1.5360393700787403
 20
-0.2724173228346457
 30
0.0
 10
-1.448468503937008
 20
-0.2459173228346457
 30
0.0
 10
-1.448468503937008
 20
-0.2459173228346457
 30
0.0
 10
-1.448468503937008
 20
-0.2459173228346457
 30
0.0
 10
-1.448468503937008
 20
-0.2459173228346457
 30
0.0
 10
-1.3656259842519685
 20
-0.2171574803149606
 30
0.0
 10
-1.3656259842519685
 20
-0.2171574803149606
 30
0.0
 10
-1.3656259842519685
 20
-0.2171574803149606
 30
0.0
 10
-1.3656259842519685
 20
-0.2171574803149606
 30
0.0
 10
-1.2873503937007875
 20
-0.1862755905511811
 30
0.0
 10
-1.2873503937007875
 20
-0.1862755905511811
 30
0.0
 10
-1.2873503937007875
 20
-0.1862755905511811
 30
0.0
 10
-1.2873503937007875
 20
-0.1862755905511811
 30
0.0
 10
-1.2135196850393701
 20
-0.1534409448818898
 30
0.0
 10
-1.2135196850393701
 20
-0.1534409448818898
 30
0.0
 10
-1.2135196850393701
 20
-0.1534409448818898
 30
0.0
 10
-1.2135196850393701
 20
-0.1534409448818898
 30
0.0
 10
-1.143984251968504
 20
-0.1187913385826772
 30
0.0
 10
-1.143984251968504
 20
-0.1187913385826772
 30
0.0
 10
-1.143984251968504
 20
-0.1187913385826772
 30
0.0
 10
-1.143984251968504
 20
-0.1187913385826772
 30
0.0
 10
-1.0786102362204726
 20
-0.0824842519685039
 30
0.0
 10
-1.0786102362204726
 20
-0.0824842519685039
 30
0.0
 10
-1.0786102362204726
 20
-0.0824842519685039
 30
0.0
 10
-1.0786102362204726
 20
-0.0824842519685039
 30
0.0
 10
-1.017248031496063
 20
-0.0446614173228347
 30
0.0
 10
-1.017248031496063
 20
-0.0446614173228347
 30
0.0
 10
-1.017248031496063
 20
-0.0446614173228347
 30
0.0
 10
-1.017248031496063
 20
-0.0446614173228347
 30
0.0
 10
-0.9597677165354331
 20
-0.005488188976378
 30
0.0
 10
-0.9597677165354331
 20
-0.005488188976378
 30
0.0
 10
-0.9597677165354331
 20
-0.005488188976378
 30
0.0
 10
-0.9597677165354331
 20
-0.005488188976378
 30
0.0
 10
-0.9060236220472442
 20
0.0348937007874016
 30
0.0
 10
-0.9060236220472442
 20
0.0348937007874016
 30
0.0
 10
-0.9060236220472442
 20
0.0348937007874016
 30
0.0
 10
-0.9060236220472442
 20
0.0348937007874016
 30
0.0
 10
-0.8558779527559055
 20
0.0763267716535433
 30
0.0
 10
-0.8558779527559055
 20
0.0763267716535433
 30
0.0
 10
-0.8558779527559055
 20
0.0763267716535433
 30
0.0
 10
-0.8558779527559055
 20
0.0763267716535433
 30
0.0
 10
-0.8091850393700788
 20
0.1186692913385827
 30
0.0
 10
-0.8091850393700788
 20
0.1186692913385827
 30
0.0
 10
-0.8091850393700788
 20
0.1186692913385827
 30
0.0
 10
-0.8091850393700788
 20
0.1186692913385827
 30
0.0
 10
-0.7658110236220472
 20
0.161751968503937
 30
0.0
 10
-0.7658110236220472
 20
0.161751968503937
 30
0.0
 10
-0.7658110236220472
 20
0.161751968503937
 30
0.0
 10
-0.7658110236220472
 20
0.161751968503937
 30
0.0
 10
-0.7256141732283465
 20
0.2054409448818898
 30
0.0
 10
-0.7256141732283465
 20
0.2054409448818898
 30
0.0
 10
-0.7256141732283465
 20
0.2054409448818898
 30
0.0
 10
-0.7256141732283465
 20
0.2054409448818898
 30
0.0
 10
-0.6884606299212599
 20
0.2495669291338583
 30
0.0
 10
-0.6884606299212599
 20
0.2495669291338583
 30
0.0
 10
-0.6884606299212599
 20
0.2495669291338583
 30
0.0
 10
-0.6884606299212599
 20
0.2495669291338583
 30
0.0
 10
-0.6541889763779528
 20
0.294003937007874
 30
0.0
 10
-0.6541889763779528
 20
0.294003937007874
 30
0.0
 10
-0.6541889763779528
 20
0.294003937007874
 30
0.0
 10
-0.6541889763779528
 20
0.294003937007874
 30
0.0
 10
-0.6226811023622048
 20
0.3385787401574804
 30
0.0
 10
-0.6226811023622048
 20
0.3385787401574804
 30
0.0
 10
-0.6226811023622048
 20
0.3385787401574804
 30
0.0
 10
-0.6226811023622048
 20
0.3385787401574804
 30
0.0
 10
-0.5937834645669292
 20
0.3831535433070866
 30
0.0
 10
-0.5937834645669292
 20
0.3831535433070866
 30
0.0
 10
-0.5937834645669292
 20
0.3831535433070866
 30
0.0
 10
-0.5937834645669292
 20
0.3831535433070866
 30
0.0
 10
-0.5673740157480315
 20
0.4275629921259843
 30
0.0
 10
-0.5673740157480315
 20
0.4275629921259843
 30
0.0
 10
-0.5673740157480315
 20
0.4275629921259843
 30
0.0
 10
-0.5673740157480315
 20
0.4275629921259843
 30
0.0
 10
-0.5432913385826772
 20
0.4716692913385827
 30
0.0
 10
-0.5432913385826772
 20
0.4716692913385827
 30
0.0
 10
-0.5432913385826772
 20
0.4716692913385827
 30
0.0
 10
-0.5432913385826772
 20
0.4716692913385827
 30
0.0
 10
-0.5214055118110237
 20
0.5153110236220473
 30
0.0
 10
-0.5214055118110237
 20
0.5153110236220473
 30
0.0
 10
-0.5214055118110237
 20
0.5153110236220473
 30
0.0
 10
-0.5214055118110237
 20
0.5153110236220473
 30
0.0
 10
-0.5015748031496063
 20
0.5583385826771654
 30
0.0
 10
-0.5015748031496063
 20
0.5583385826771654
 30
0.0
 10
-0.5015748031496063
 20
0.5583385826771654
 30
0.0
 10
-0.5015748031496063
 20
0.5583385826771654
 30
0.0
 10
-0.4836614173228347
 20
0.6005984251968505
 30
0.0
 10
-0.4836614173228347
 20
0.6005984251968505
 30
0.0
 10
-0.4836614173228347
 20
0.6005984251968505
 30
0.0
 10
-0.4836614173228347
 20
0.6005984251968505
 30
0.0
 10
-0.4675157480314961
 20
0.6419527559055118
 30
0.0
 10
-0.4675157480314961
 20
0.6419527559055118
 30
0.0
 10
-0.4675157480314961
 20
0.6419527559055118
 30
0.0
 10
-0.4675157480314961
 20
0.6419527559055118
 30
0.0
 10
-0.4530118110236221
 20
0.6822362204724409
 30
0.0
 10
-0.4530118110236221
 20
0.6822362204724409
 30
0.0
 10
-0.4530118110236221
 20
0.6822362204724409
 30
0.0
 10
-0.4530118110236221
 20
0.6822362204724409
 30
0.0
 10
-0.44
 20
0.7213031496062993
 30
0.0
 10
-0.44
 20
0.7213031496062993
 30
0.0
 10
-0.44
 20
0.7213031496062993
 30
0.0
 10
-0.44
 20
0.7213031496062993
 30
0.0
 10
-0.4283464566929134
 20
0.758992125984252
 30
0.0
 10
-0.4283464566929134
 20
0.758992125984252
 30
0.0
 10
-0.4283464566929134
 20
0.758992125984252
 30
0.0
 10
-0.4283464566929134
 20
0.758992125984252
 30
0.0
 10
-0.4179015748031496
 20
0.7951692913385827
 30
0.0
 10
-0.4179015748031496
 20
0.7951692913385827
 30
0.0
 10
-0.4179015748031496
 20
0.7951692913385827
 30
0.0
 10
-0.4179015748031496
 20
0.7951692913385827
 30
0.0
 10
-0.4085354330708662
 20
0.8296692913385827
 30
0.0
 10
-0.4085354330708662
 20
0.8296692913385827
 30
0.0
 10
-0.4085354330708662
 20
0.8296692913385827
 30
0.0
 10
-0.4085354330708662
 20
0.8296692913385827
 30
0.0
 10
-0.4000984251968504
 20
0.8623464566929134
 30
0.0
 10
-0.4000984251968504
 20
0.8623464566929134
 30
0.0
 10
-0.4000984251968504
 20
0.8623464566929134
 30
0.0
 10
-0.4000984251968504
 20
0.8623464566929134
 30
0.0
 10
-0.3924645669291339
 20
0.8930433070866142
 30
0.0
 10
-0.3924645669291339
 20
0.8930433070866142
 30
0.0
 10
-0.3924645669291339
 20
0.8930433070866142
 30
0.0
 10
-0.3924645669291339
 20
0.8930433070866142
 30
0.0
 10
-0.3849763779527559
 20
0.9236220472440945
 30
0.0
 10
-0.3849763779527559
 20
0.9236220472440945
 30
0.0
 10
-0.3849763779527559
 20
0.9236220472440945
 30
0.0
 10
-0.3849763779527559
 20
0.9236220472440945
 30
0.0
 10
-0.3770157480314961
 20
0.9559212598425197
 30
0.0
 10
-0.3770157480314961
 20
0.9559212598425197
 30
0.0
 10
-0.3770157480314961
 20
0.9559212598425197
 30
0.0
 10
-0.3770157480314961
 20
0.9559212598425197
 30
0.0
 10
-0.3684409448818898
 20
0.9898070866141733
 30
0.0
 10
-0.3684409448818898
 20
0.9898070866141733
 30
0.0
 10
-0.3684409448818898
 20
0.9898070866141733
 30
0.0
 10
-0.3684409448818898
 20
0.9898070866141733
 30
0.0
 10
-0.3591181102362205
 20
1.0251220472440945
 30
0.0
 10
-0.3591181102362205
 20
1.0251220472440945
 30
0.0
 10
-0.3591181102362205
 20
1.0251220472440945
 30
0.0
 10
-0.3591181102362205
 20
1.0251220472440945
 30
0.0
 10
-0.3489055118110236
 20
1.0617401574803149
 30
0.0
 10
-0.3489055118110236
 20
1.0617401574803149
 30
0.0
 10
-0.3489055118110236
 20
1.0617401574803149
 30
0.0
 10
-0.3489055118110236
 20
1.0617401574803149
 30
0.0
 10
-0.3376771653543307
 20
1.0995039370078741
 30
0.0
 10
-0.3376771653543307
 20
1.0995039370078741
 30
0.0
 10
-0.3376771653543307
 20
1.0995039370078741
 30
0.0
 10
-0.3376771653543307
 20
1.0995039370078741
 30
0.0
 10
-0.3252874015748032
 20
1.1382716535433071
 30
0.0
 10
-0.3252874015748032
 20
1.1382716535433071
 30
0.0
 10
-0.3252874015748032
 20
1.1382716535433071
 30
0.0
 10
-0.3252874015748032
 20
1.1382716535433071
 30
0.0
 10
-0.3116102362204725
 20
1.1778976377952757
 30
0.0
 10
-0.3116102362204725
 20
1.1778976377952757
 30
0.0
 10
-0.3116102362204725
 20
1.1778976377952757
 30
0.0
 10
-0.3116102362204725
 20
1.1778976377952757
 30
0.0
 10
-0.296488188976378
 20
1.218251968503937
 30
0.0
 10
-0.296488188976378
 20
1.218251968503937
 30
0.0
 10
-0.296488188976378
 20
1.218251968503937
 30
0.0
 10
-0.296488188976378
 20
1.218251968503937
 30
0.0
 10
-0.2798110236220472
 20
1.2591692913385828
 30
0.0
 10
-0.2798110236220472
 20
1.2591692913385828
 30
0.0
 10
-0.2798110236220472
 20
1.2591692913385828
 30
0.0
 10
-0.2798110236220472
 20
1.2591692913385828
 30
0.0
 10
-0.2614251968503937
 20
1.3005196850393701
 30
0.0
 10
-0.2614251968503937
 20
1.3005196850393701
 30
0.0
 10
-0.2614251968503937
 20
1.3005196850393701
 30
0.0
 10
-0.2614251968503937
 20
1.3005196850393701
 30
0.0
 10
-0.2412047244094488
 20
1.3421535433070866
 30
0.0
 10
-0.2412047244094488
 20
1.3421535433070866
 30
0.0
 10
-0.2412047244094488
 20
1.3421535433070866
 30
0.0
 10
-0.2412047244094488
 20
1.3421535433070866
 30
0.0
 10
-0.219003937007874
 20
1.3839291338582678
 30
0.0
 10
-0.219003937007874
 20
1.3839291338582678
 30
0.0
 10
-0.219003937007874
 20
1.3839291338582678
 30
0.0
 10
-0.219003937007874
 20
1.3839291338582678
 30
0.0
 10
-0.1946968503937008
 20
1.4257007874015748
 30
0.0
 10
-0.1946968503937008
 20
1.4257007874015748
 30
0.0
 10
-0.1946968503937008
 20
1.4257007874015748
 30
0.0
 10
-0.1946968503937008
 20
1.4257007874015748
 30
0.0
 10
-0.1681377952755906
 20
1.4673267716535434
 30
0.0
 10
-0.1681377952755906
 20
1.4673267716535434
 30
0.0
 10
-0.1681377952755906
 20
1.4673267716535434
 30
0.0
 10
-0.1681377952755906
 20
1.4673267716535434
 30
0.0
 10
-0.1392007874015748
 20
1.5086574803149606
 30
0.0
 10
-0.1392007874015748
 20
1.5086574803149606
 30
0.0
 10
-0.1392007874015748
 20
1.5086574803149606
 30
0.0
 10
-0.1392007874015748
 20
1.5086574803149606
 30
0.0
 10
-0.1077322834645669
 20
1.5495629921259844
 30
0.0
 10
-0.1077322834645669
 20
1.5495629921259844
 30
0.0
 10
-0.1077322834645669
 20
1.5495629921259844
 30
0.0
 10
-0.1077322834645669
 20
1.5495629921259844
 30
0.0
 10
-0.0736102362204724
 20
1.5898818897637796
 30
0.0
 10
-0.0736102362204724
 20
1.5898818897637796
 30
0.0
 10
-0.0736102362204724
 20
1.5898818897637796
 30
0.0
 10
-0.0736102362204724
 20
1.5898818897637796
 30
0.0
 10
-0.0366929133858268
 20
1.6294803149606301
 30
0.0
 10
-0.0366929133858268
 20
1.6294803149606301
 30
0.0
 10
-0.0366929133858268
 20
1.6294803149606301
 30
0.0
 10
-0.0366929133858268
 20
1.6294803149606301
 30
0.0
 10
0.0031456692913386
 20
1.6682047244094489
 30
0.0
 10
0.0031456692913386
 20
1.6682047244094489
 30
0.0
 10
0.0031456692913386
 20
1.6682047244094489
 30
0.0
 10
0.0031456692913386
 20
1.6682047244094489
 30
0.0
 10
0.0460590551181102
 20
1.7059291338582678
 30
0.0
 10
0.0460590551181102
 20
1.7059291338582678
 30
0.0
 10
0.0460590551181102
 20
1.7059291338582678
 30
0.0
 10
0.0460590551181102
 20
1.7059291338582678
 30
0.0
 10
0.0921692913385827
 20
1.742484251968504
 30
0.0
 10
0.0921692913385827
 20
1.742484251968504
 30
0.0
 10
0.0921692913385827
 20
1.742484251968504
 30
0.0
 10
0.0921692913385827
 20
1.742484251968504
 30
0.0
 10
0.1416181102362205
 20
1.777744094488189
 30
0.0
 10
0.1416181102362205
 20
1.777744094488189
 30
0.0
 10
0.1416181102362205
 20
1.777744094488189
 30
0.0
 10
0.1416181102362205
 20
1.777744094488189
 30
0.0
 10
0.1945354330708662
 20
1.8115590551181102
 30
0.0
 10
0.1945354330708662
 20
1.8115590551181102
 30
0.0
 10
0.1945354330708662
 20
1.8115590551181102
 30
0.0
 10
0.1945354330708662
 20
1.8115590551181102
 30
0.0
 10
0.2510748031496063
 20
1.8437913385826772
 30
0.0
 10
0.2510748031496063
 20
1.8437913385826772
 30
0.0
 10
0.2510748031496063
 20
1.8437913385826772
 30
0.0
 10
0.2510748031496063
 20
1.8437913385826772
 30
0.0
 10
0.3113543307086614
 20
1.8742874015748032
 30
0.0
 10
0.3113543307086614
 20
1.8742874015748032
 30
0.0
 10
0.3113543307086614
 20
1.8742874015748032
 30
0.0
 10
0.3113543307086614
 20
1.8742874015748032
 30
0.0
 10
0.3755196850393701
 20
1.9029094488188978
 30
0.0
 10
0.3755196850393701
 20
1.9029094488188978
 30
0.0
 10
0.3755196850393701
 20
1.9029094488188978
 30
0.0
 10
0.3755196850393701
 20
1.9029094488188978
 30
0.0
 10
0.4436968503937008
 20
1.9295039370078741
 30
0.0
 10
0.4436968503937008
 20
1.9295039370078741
 30
0.0
 10
0.4436968503937008
 20
1.9295039370078741
 30
0.0
 10
0.4436968503937008
 20
1.9295039370078741
 30
0.0
 10
0.5160314960629922
 20
1.9539409448818899
 30
0.0
 10
0.5160314960629922
 20
1.9539409448818899
 30
0.0
 10
0.5160314960629922
 20
1.9539409448818899
 30
0.0
 10
0.5160314960629922
 20
1.9539409448818899
 30
0.0
 10
0.5926653543307087
 20
1.9760629921259842
 30
0.0
 10
0.5926653543307087
 20
1.9760629921259842
 30
0.0
 10
0.5926653543307087
 20
1.9760629921259842
 30
0.0
 10
0.5926653543307087
 20
1.9760629921259842
 30
0.0
 10
0.673724409448819
 20
1.9957401574803151
 30
0.0
 10
0.673724409448819
 20
1.9957401574803151
 30
0.0
 10
0.673724409448819
 20
1.9957401574803151
 30
0.0
 10
0.673724409448819
 20
1.9957401574803151
 30
0.0
 10
0.7593543307086614
 20
2.0128110236220471
 30
0.0
 10
0.7593543307086614
 20
2.0128110236220471
 30
0.0
  0
SPLINE
  5
BB
100
AcDbEntity
  8
Additional Graphics
 62
     9
100
AcDbSpline
210
0.0
220
0.0
230
1.0
 70
     1
 71
     3
 72
    20
 73
    16
 74
     0
 42
0.0000000001
 43
0.0000000001
 40
0.0
 40
0.0
 40
0.0
 40
0.0
 40
0.25
 40
0.25
 40
0.25
 40
0.25
 40
0.5
 40
0.5
 40
0.5
 40
0.5
 40
0.75
 40
0.75
 40
0.75
 40
0.75
 40
1.0
 40
1.0
 40
1.0
 40
1.0
 10
-1.7258937007874016
 20
-0.3180118110236221
 30
0.0
 10
-1.7258937007874016
 20
-0.3180118110236221
 30
0.0
 10
-1.0940787401574803
 20
-0.7098661417322835
 30
0.0
 10
-1.0940787401574803
 20
-0.7098661417322835
 30
0.0
 10
-1.0940787401574803
 20
-0.7098661417322835
 30
0.0
 10
-1.0940787401574803
 20
-0.7098661417322835
 30
0.0
 10
-1.1020511811023623
 20
-0.8774448818897638
 30
0.0
 10
-1.1020511811023623
 20
-0.8774448818897638
 30
0.0
 10
-1.1020511811023623
 20
-0.8774448818897638
 30
0.0
 10
-1.1020511811023623
 20
-0.8774448818897638
 30
0.0
 10
-1.7338661417322836
 20
-0.4855905511811024
 30
0.0
 10
-1.7338661417322836
 20
-0.4855905511811024
 30
0.0
 10
-1.7338661417322836
 20
-0.4855905511811024
 30
0.0
 10
-1.7338661417322836
 20
-0.4855905511811024
 30
0.0
 10
-1.7258937007874016
 20
-0.3180118110236221
 30
0.0
 10
-1.7258937007874016
 20
-0.3180118110236221
 30
0.0
  0
SPLINE
  5
BC
100
AcDbEntity
  8
Additional Graphics
370
     5
100
AcDbSpline
210
0.0
220
0.0
230
1.0
 70
     1
 71
     3
 72
    20
 73
    16
 74
     0
 42
0.0000000001
 43
0.0000000001
 40
0.0
 40
0.0
 40
0.0
 40
0.0
 40
0.25
 40
0.25
 40
0.25
 40
0.25
 40
0.5
 40
0.5
 40
0.5
 40
0.5
 40
0.75
 40
0.75
 40
0.75
 40
0.75
 40
1.0
 40
1.0
 40
1.0
 40
1.0
 10
-1.7258937007874016
 20
-0.3180118110236221
 30
0.0
 10
-1.7258937007874016
 20
-0.3180118110236221
 30
0.0
 10
-1.0940787401574803
 20
-0.7098661417322835
 30
0.0
 10
-1.0940787401574803
 20
-0.7098661417322835
 30
0.0
 10
-1.0940787401574803
 20
-0.7098661417322835
 30
0.0
 10
-1.0940787401574803
 20
-0.7098661417322835
 30
0.0
 10
-1.1020511811023623
 20
-0.8774448818897638
 30
0.0
 10
-1.1020511811023623
 20
-0.8774448818897638
 30
0.0
 10
-1.1020511811023623
 20
-0.8774448818897638
 30
0.0
 10
-1.1020511811023623
 20
-0.8774448818897638
 30
0.0
 10
-1.7338661417322836
 20
-0.4855905511811024
 30
0.0
 10
-1.7338661417322836
 20
-0.4855905511811024
 30
0.0
 10
-1.7338661417322836
 20
-0.4855905511811024
 30
0.0
 10
-1.7338661417322836
 20
-0.4855905511811024
 30
0.0
 10
-1.7258937007874016
 20
-0.3180118110236221
 30
0.0
 10
-1.7258937007874016
 20
-0.3180118110236221
 30
0.0
  0
SPLINE
  5
BD
100
AcDbEntity
  8
Additional Graphics
 62
     9
100
AcDbSpline
210
0.0
220
0.0
230
1.0
 70
     1
 71
     3
 72
    20
 73
    16
 74
     0
 42
0.0000000001
 43
0.0000000001
 40
0.0
 40
0.0
 40
0.0
 40
0.0
 40
0.25
 40
0.25
 40
0.25
 40
0.25
 40
0.5
 40
0.5
 40
0.5
 40
0.5
 40
0.75
 40
0.75
 40
0.75
 40
0.75
 40
1.0
 40
1.0
 40
1.0
 40
1.0
 10
-1.7338661417322836
 20
-0.4855905511811024
 30
0.0
 10
-1.7338661417322836
 20
-0.4855905511811024
 30
0.0
 10
-1.1020511811023623
 20
-0.8774448818897638
 30
0.0
 10
-1.1020511811023623
 20
-0.8774448818897638
 30
0.0
 10
-1.1020511811023623
 20
-0.8774448818897638
 30
0.0
 10
-1.1020511811023623
 20
-0.8774448818897638
 30
0.0
 10
-1.362755905511811
 20
-0.8819370078740157
 30
0.0
 10
-1.362755905511811
 20
-0.8819370078740157
 30
0.0
 10
-1.362755905511811
 20
-0.8819370078740157
 30
0.0
 10
-1.362755905511811
 20
-0.8819370078740157
 30
0.0
 10
-1.9945708661417323
 20
-0.4900826771653544
 30
0.0
 10
-1.9945708661417323
 20
-0.4900826771653544
 30
0.0
 10
-1.9945708661417323
 20
-0.4900826771653544
 30
0.0
 10
-1.9945708661417323
 20
-0.4900826771653544
 30
0.0
 10
-1.7338661417322836
 20
-0.4855905511811024
 30
0.0
 10
-1.7338661417322836
 20
-0.4855905511811024
 30
0.0
  0
SPLINE
  5
BE
100
AcDbEntity
  8
Additional Graphics
370
     5
100
AcDbSpline
210
0.0
220
0.0
230
1.0
 70
     1
 71
     3
 72
    20
 73
    16
 74
     0
 42
0.0000000001
 43
0.0000000001
 40
0.0
 40
0.0
 40
0.0
 40
0.0
 40
0.25
 40
0.25
 40
0.25
 40
0.25
 40
0.5
 40
0.5
 40
0.5
 40
0.5
 40
0.75
 40
0.75
 40
0.75
 40
0.75
 40
1.0
 40
1.0
 40
1.0
 40
1.0
 10
-1.7338661417322836
 20
-0.4855905511811024
 30
0.0
 10
-1.7338661417322836
 20
-0.4855905511811024
 30
0.0
 10
-1.1020511811023623
 20
-0.8774448818897638
 30
0.0
 10
-1.1020511811023623
 20
-0.8774448818897638
 30
0.0
 10
-1.1020511811023623
 20
-0.8774448818897638
 30
0.0
 10
-1.1020511811023623
 20
-0.8774448818897638
 30
0.0
 10
-1.362755905511811
 20
-0.8819370078740157
 30
0.0
 10
-1.362755905511811
 20
-0.8819370078740157
 30
0.0
 10
-1.362755905511811
 20
-0.8819370078740157
 30
0.0
 10
-1.362755905511811
 20
-0.8819370078740157
 30
0.0
 10
-1.9945708661417323
 20
-0.4900826771653544
 30
0.0
 10
-1.9945708661417323
 20
-0.4900826771653544
 30
0.0
 10
-1.9945708661417323
 20
-0.4900826771653544
 30
0.0
 10
-1.9945708661417323
 20
-0.4900826771653544
 30
0.0
 10
-1.7338661417322836
 20
-0.4855905511811024
 30
0.0
 10
-1.7338661417322836
 20
-0.4855905511811024
 30
0.0
  0
SPLINE
  5
BF
100
AcDbEntity
  8
Additional Graphics
370
     5
 62
     7
100
AcDbSpline
210
0.0
220
0.0
230
1.0
 70
     1
 71
     3
 72
    44
 73
    40
 74
     0
 42
0.0000000001
 43
0.0000000001
 40
0.0
 40
0.0
 40
0.0
 40
0.0
 40
0.1
 40
0.1
 40
0.1
 40
0.1
 40
0.2
 40
0.2
 40
0.2
 40
0.2
 40
0.3
 40
0.3
 40
0.3
 40
0.3
 40
0.4
 40
0.4
 40
0.4
 40
0.4
 40
0.5
 40
0.5
 40
0.5
 40
0.5
 40
0.6
 40
0.6
 40
0.6
 40
0.6
 40
0.7
 40
0.7
 40
0.7
 40
0.7
 40
0.7999999999999999
 40
0.7999999999999999
 40
0.7999999999999999
 40
0.7999999999999999
 40
0.8999999999999999
 40
0.8999999999999999
 40
0.8999999999999999
 40
0.8999999999999999
 40
1.0
 40
1.0
 40
1.0
 40
1.0
 10
0.0090314960629921
 20
2.5310236220472442
 30
0.0
 10
0.0090314960629921
 20
2.5310236220472442
 30
0.0
 10
0.9881771653543308
 20
2.5370393700787401
 30
0.0
 10
0.9881771653543308
 20
2.5370393700787401
 30
0.0
 10
0.9881771653543308
 20
2.5370393700787401
 30
0.0
 10
0.9881771653543308
 20
2.5370393700787401
 30
0.0
 10
0.9920984251968504
 20
2.2051889763779529
 30
0.0
 10
0.9920984251968504
 20
2.2051889763779529
 30
0.0
 10
0.9920984251968504
 20
2.2051889763779529
 30
0.0
 10
0.9920984251968504
 20
2.2051889763779529
 30
0.0
 10
0.7570275590551181
 20
2.2092244094488191
 30
0.0
 10
0.7570275590551181
 20
2.2092244094488191
 30
0.0
 10
0.7570275590551181
 20
2.2092244094488191
 30
0.0
 10
0.7570275590551181
 20
2.2092244094488191
 30
0.0
 10
0.7593543307086614
 20
2.0128110236220471
 30
0.0
 10
0.7593543307086614
 20
2.0128110236220471
 30
0.0
 10
0.7593543307086614
 20
2.0128110236220471
 30
0.0
 10
-0.1788070866141732
 20
1.8450157480314962
 30
0.0
 10
-0.3146968503937008
 20
1.2094488188976378
 30
0.0
 10
-0.3924645669291339
 20
0.8930433070866142
 30
0.0
 10
-0.3924645669291339
 20
0.8930433070866142
 30
0.0
 10
-0.4702283464566929
 20
0.5766338582677165
 30
0.0
 10
-0.6595511811023622
 20
-0.1027992125984252
 30
0.0
 10
-1.7258937007874016
 20
-0.3180118110236221
 30
0.0
 10
-1.7258937007874016
 20
-0.3180118110236221
 30
0.0
 10
-1.7258937007874016
 20
-0.3180118110236221
 30
0.0
 10
-1.7338661417322836
 20
-0.4855905511811024
 30
0.0
 10
-1.7338661417322836
 20
-0.4855905511811024
 30
0.0
 10
-1.7338661417322836
 20
-0.4855905511811024
 30
0.0
 10
-1.7338661417322836
 20
-0.4855905511811024
 30
0.0
 10
-1.9945708661417323
 20
-0.4900826771653544
 30
0.0
 10
-1.9945708661417323
 20
-0.4900826771653544
 30
0.0
 10
-1.9945708661417323
 20
-0.4900826771653544
 30
0.0
 10
-1.9945708661417323
 20
-0.4900826771653544
 30
0.0
 10
-1.9912519685039372
 20
0.2010472440944882
 30
0.0
 10
-1.9912519685039372
 20
0.2010472440944882
 30
0.0
 10
-1.9912519685039372
 20
0.2010472440944882
 30
0.0
 10
-1.9912519685039372
 20
0.2010472440944882
 30
0.0
 10
0.0090314960629921
 20
2.5310236220472442
 30
0.0
 10
0.0090314960629921
 20
2.5310236220472442
 30
0.0
  0
TEXT
  5
C0
100
AcDbEntity
  8
Additional Graphics
100
AcDbText
 10
-0.457079
 20
-0.750177
 30
0.0
 40
0.119999
  1
BA  1532
 51
-0.000002
  7
Bookman Old Style
100
AcDbText
  0
TEXT
  5
C1
100
AcDbEntity
  8
Additional Graphics
100
AcDbText
 10
-0.535398
 20
-0.937677
 30
0.0
 40
0.119999
  1
1\u+201d x 4-1/4\u+201d
 51
-0.000002
  7
Bookman Old Style
100
AcDbText
  0
TEXT
  5
C2
100
AcDbEntity
  8
Additional Graphics
100
AcDbText
 10
1.634063
 20
3.456496
 30
0.0
 40
0.119999
  1
BA  619B Side
 51
-0.000002
  7
Bookman Old Style
100
AcDbText
  0
TEXT
  5
C3
100
AcDbEntity
  8
Additional Graphics
100
AcDbText
 10
-2.930465
 20
3.429803
 30
0.0
 40
0.119999
  1
BA 619C Side
 51
-0.000002
  7
Bookman Old Style
100
AcDbText
  0
ENDSEC
  0
SECTION
  2
OBJECTS
  0
DICTIONARY
  5
19
100
AcDbDictionary
280
     0
281
     1
  3
ACAD_GROUP
350
1A
  3
ACAD_MLINESTYLE
350
1B
  3
ACAD_LAYOUT
350
1E
  3
ACAD_PLOTSETTINGS
350
22
  3
ACAD_PLOTSTYLENAME
350
1F
  3
ACAD_WIPEOUT_VARS
350
23
  0
DICTIONARY
  5
1A
102
{ACAD_REACTORS
330
19
102
}
100
AcDbDictionary
280
     0
281
     1
  0
DICTIONARY
  5
1B
102
{ACAD_REACTORS
330
19
102
}
100
AcDbDictionary
280
     0
281
     1
  3
Standard
350
1C
  0
MLINESTYLE
  5
1C
102
{ACAD_REACTORS
330
1B
102
}
100
AcDbMlineStyle
  2
Standard
 70
     0
  3

 62
     0
 51
90.0
 52
90.0
 71
     2
 49
0.5
 62
   256
  6
BYLAYER
 49
-0.5
 62
   256
  6
BYLAYER
  0
ACDBDICTIONARYWDFLT
  5
1F
102
{ACAD_REACTORS
330
19
102
}
100
AcDbDictionary
281
     1
  3
Normal
350
1D
100
AcDbDictionaryWithDefault
340
1D
  0
ACDBPLACEHOLDER
  5
1D
102
{ACAD_REACTORS
330
1F
102
}
  0
LAYOUT
  5
20
102
{ACAD_REACTORS
330
1E
102
}
100
AcDbPlotSettings
  1

  2

  4

  6

 40
0.0
 41
0.0
 42
0.0
 43
0.0
 44
0.0
 45
0.0
 46
0.0
 47
0.0
 48
0.0
 49
0.0
140
0.0
141
0.0
142
1.0
143
1.0
 70
  1024
 72
     0
 73
     0
 74
     0
  7

 75
     0
147
1.0
148
0.0
149
0.0
100
AcDbLayout
  1
Model
 70
     0
 71
     0
 10
0.0
 20
0.0
 11
0.0
 21
0.0
 12
0.0
 22
0.0
 32
0.0
 14
0.0
 24
0.0
 34
0.0
 15
0.0
 25
0.0
 35
0.0
146
0.0
 13
0.0
 23
0.0
 33
0.0
 16
0.0
 26
0.0
 36
0.0
 17
0.0
 27
0.0
 37
0.0
 76
     0
330
A
331
0
345
0
346
0
  0
LAYOUT
  5
21
102
{ACAD_REACTORS
330
1E
102
}
100
AcDbPlotSettings
  1

  2

  4

  6

 40
0.0
 41
0.0
 42
0.0
 43
0.0
 44
0.0
 45
0.0
 46
0.0
 47
0.0
 48
0.0
 49
0.0
140
0.0
141
0.0
142
1.0
143
1.0
 70
     0
 72
     0
 73
     0
 74
     0
  7

 75
     0
147
1.0
148
0.0
149
0.0
100
AcDbLayout
  1
Layout1
 70
     0
 71
     0
 10
0.0
 20
0.0
 11
0.0
 21
0.0
 12
0.0
 22
0.0
 32
0.0
 14
0.0
 24
0.0
 34
0.0
 15
0.0
 25
0.0
 35
0.0
146
0.0
 13
0.0
 23
0.0
 33
0.0
 16
0.0
 26
0.0
 36
0.0
 17
0.0
 27
0.0
 37
0.0
 76
     0
330
B
331
0
345
0
346
0
  0
DICTIONARY
  5
1E
102
{ACAD_REACTORS
330
19
102
}
100
AcDbDictionary
280
     0
281
     1
  3
Layout1
350
21
  3
Model
350
20
  0
DICTIONARY
  5
22
102
{ACAD_REACTORS
330
19
102
}
100
AcDbDictionary
280
     0
281
     1
  0
WIPEOUTVARIABLES
  5
23
100
AcDbWipeoutVariables
 70
     1
  0
ENDSEC
  0
EOF
