  0
SECTION
  2
HEADER
  9
$ACADVER
  1
AC1015
  9
$ACADMAINTVER
 70
     6
  9
$DWGCODEPAGE
  3
DOS850
  9
$INSBASE
 10
0.0
 20
0.0
 30
0.0
  9
$EXTMIN
 10
-1.448402
 20
-3.779248
 30
1.000000E+20
  9
$EXTMAX
 10
1.525622
 20
4.18226
 30
-1.000000E+20
  9
$LIMMIN
 10
0.0
 20
0.0
  9
$LIMMAX
 10
0.0
 20
0.0
  9
$ORTHOMODE
 70
     0
  9
$REGENMODE
 70
     1
  9
$FILLMODE
 70
     1
  9
$QTEXTMODE
 70
     0
  9
$MIRRTEXT
 70
     1
  9
$LTSCALE
 40
1.0
  9
$ATTMODE
 70
     1
  9
$TEXTSIZE
 40
0.2
  9
$TRACEWID
 40
0.05
  9
$TEXTSTYLE
  7
Standard
  9
$CLAYER
  8
0
  9
$CELTYPE
  6
Continuous
  9
$CECOLOR
 62
   256
  9
$CELTSCALE
 40
1.0
  9
$DISPSILH
 70
     0
  9
$DIMSCALE
 40
1.0
  9
$DIMASZ
 40
0.18
  9
$DIMEXO
 40
0.0625
  9
$DIMDLI
 40
0.38
  9
$DIMRND
 40
0.0
  9
$DIMDLE
 40
0.0
  9
$DIMEXE
 40
0.18
  9
$DIMTP
 40
0.0
  9
$DIMTM
 40
0.0
  9
$DIMTXT
 40
0.18
  9
$DIMCEN
 40
0.09
  9
$DIMTSZ
 40
0.0
  9
$DIMTOL
 70
     0
  9
$DIMLIM
 70
     0
  9
$DIMTIH
 70
     1
  9
$DIMTOH
 70
     1
  9
$DIMSE1
 70
     0
  9
$DIMSE2
 70
     0
  9
$DIMTAD
 70
     0
  9
$DIMZIN
 70
     0
  9
$DIMBLK
  1

  9
$DIMASO
 70
     1
  9
$DIMSHO
 70
     1
  9
$DIMPOST
  1

  9
$DIMAPOST
  1

  9
$DIMALT
 70
     0
  9
$DIMALTD
 70
     2
  9
$DIMALTF
 40
25.4
  9
$DIMLFAC
 40
1.0
  9
$DIMTOFL
 70
     0
  9
$DIMTVP
 40
0.0
  9
$DIMTIX
 70
     0
  9
$DIMSOXD
 70
     0
  9
$DIMSAH
 70
     0
  9
$DIMBLK1
  1

  9
$DIMBLK2
  1

  9
$DIMSTYLE
  2
Standard
  9
$DIMCLRD
 70
     0
  9
$DIMCLRE
 70
     0
  9
$DIMCLRT
 70
     0
  9
$DIMTFAC
 40
1.0
  9
$DIMGAP
 40
0.09
  9
$DIMJUST
 70
     0
  9
$DIMSD1
 70
     0
  9
$DIMSD2
 70
     0
  9
$DIMTOLJ
 70
     1
  9
$DIMTZIN
 70
     0
  9
$DIMALTZ
 70
     0
  9
$DIMALTTZ
 70
     0
  9
$DIMUPT
 70
     0
  9
$DIMDEC
 70
     4
  9
$DIMTDEC
 70
     4
  9
$DIMALTU
 70
     2
  9
$DIMALTTD
 70
     2
  9
$DIMTXSTY
  7
Standard
  9
$DIMAUNIT
 70
     0
  9
$DIMADEC
 70
     0
  9
$DIMALTRND
 40
0.0
  9
$DIMAZIN
 70
     0
  9
$DIMDSEP
 70
     0
  9
$DIMATFIT
 70
     3
  9
$DIMFRAC
 70
     0
  9
$DIMLDRBLK
  1

  9
$DIMLUNIT
 70
     2
  9
$DIMLWD
 70
     0
  9
$DIMLWE
 70
     0
  9
$DIMTMOVE
 70
     0
  9
$LUNITS
 70
     2
  9
$LUPREC
 70
     4
  9
$SKETCHINC
 40
0.1
  9
$FILLETRAD
 40
0.0
  9
$AUNITS
 70
     0
  9
$AUPREC
 70
     0
  9
$MENU
  1
acad
  9
$ELEVATION
 40
0.0
  9
$PELEVATION
 40
0.0
  9
$THICKNESS
 40
0.0
  9
$LIMCHECK
 70
     0
  9
$CHAMFERA
 40
0.0
  9
$CHAMFERB
 40
0.0
  9
$CHAMFERC
 40
0.0
  9
$CHAMFERD
 40
0.0
  9
$SKPOLY
 70
     0
  9
$TDCREATE
 40
0.000000000
  9
$TDUCREATE
 40
0.000000000
  9
$TDUPDATE
 40
0.000000000
  9
$TDUUPDATE
 40
0.000000000
  9
$TDINDWG
 40
0.0000000000
  9
$TDUSRTIMER
 40
0.0000000000
  9
$USRTIMER
 70
     1
  9
$ANGBASE
 50
0.0
  9
$ANGDIR
 70
     0
  9
$PDMODE
 70
     0
  9
$PDSIZE
 40
0.0
  9
$PLINEWID
 40
0.0
  9
$SPLFRAME
 70
     0
  9
$SPLINETYPE
 70
     6
  9
$SPLINESEGS
 70
     8
  9
$HANDSEED
  5
CA
  9
$SURFTAB1
 70
     6
  9
$SURFTAB2
 70
     6
  9
$SURFTYPE
 70
     6
  9
$SURFU
 70
     6
  9
$SURFV
 70
     6
  9
$UCSBASE
  2

  9
$UCSNAME
  2

  9
$UCSORG
 10
0.0
 20
0.0
 30
0.0
  9
$UCSXDIR
 10
1.0
 20
0.0
 30
0.0
  9
$UCSYDIR
 10
0.0
 20
1.0
 30
0.0
  9
$UCSORTHOREF
  2

  9
$UCSORTHOVIEW
 70
     0
  9
$UCSORGTOP
 10
0.0
 20
0.0
 30
0.0
  9
$UCSORGBOTTOM
 10
0.0
 20
0.0
 30
0.0
  9
$UCSORGLEFT
 10
0.0
 20
0.0
 30
0.0
  9
$UCSORGRIGHT
 10
0.0
 20
0.0
 30
0.0
  9
$UCSORGFRONT
 10
0.0
 20
0.0
 30
0.0
  9
$UCSORGBACK
 10
0.0
 20
0.0
 30
0.0
  9
$PUCSBASE
  2

  9
$PUCSNAME
  2

  9
$PUCSORG
 10
0.0
 20
0.0
 30
0.0
  9
$PUCSXDIR
 10
1.0
 20
0.0
 30
0.0
  9
$PUCSYDIR
 10
0.0
 20
1.0
 30
0.0
  9
$PUCSORTHOREF
  2

  9
$PUCSORTHOVIEW
 70
     0
  9
$PUCSORGTOP
 10
0.0
 20
0.0
 30
0.0
  9
$PUCSORGBOTTOM
 10
0.0
 20
0.0
 30
0.0
  9
$PUCSORGLEFT
 10
0.0
 20
0.0
 30
0.0
  9
$PUCSORGRIGHT
 10
0.0
 20
0.0
 30
0.0
  9
$PUCSORGFRONT
 10
0.0
 20
0.0
 30
0.0
  9
$PUCSORGBACK
 10
0.0
 20
0.0
 30
0.0
  9
$USERI1
 70
     0
  9
$USERI2
 70
     0
  9
$USERI3
 70
     0
  9
$USERI4
 70
     0
  9
$USERI5
 70
     0
  9
$USERR1
 40
0.0
  9
$USERR2
 40
0.0
  9
$USERR3
 40
0.0
  9
$USERR4
 40
0.0
  9
$USERR5
 40
0.0
  9
$WORLDVIEW
 70
     1
  9
$SHADEDGE
 70
     3
  9
$SHADEDIF
 70
    70
  9
$TILEMODE
 70
     1
  9
$MAXACTVP
 70
    16
  9
$PINSBASE
 10
0.0
 20
0.0
 30
0.0
  9
$PLIMCHECK
 70
     0
  9
$PEXTMIN
 10
1.000000E+20
 20
1.000000E+20
 30
1.000000E+20
  9
$PEXTMAX
 10
-1.000000E+20
 20
-1.000000E+20
 30
-1.000000E+20
  9
$PLIMMIN
 10
0.0
 20
0.0
  9
$PLIMMAX
 10
12.0
 20
9.0
  9
$UNITMODE
 70
     0
  9
$VISRETAIN
 70
     0
  9
$PLINEGEN
 70
     1
  9
$PSLTSCALE
 70
     0
  9
$TREEDEPTH
 70
  3020
  9
$CMLSTYLE
  2
Standard
  9
$CMLJUST
 70
     0
  9
$CMLSCALE
 40
1.0
  9
$PROXYGRAPHICS
 70
     0
  9
$MEASUREMENT
 70
     0
  9
$CELWEIGHT
370
     0
  9
$ENDCAPS
280
     0
  9
$JOINSTYLE
280
     0
  9
$LWDISPLAY
290
     0
  9
$INSUNITS
 70
     1
  9
$HYPERLINKBASE
  1

  9
$XEDIT
290
     1
  9
$CEPSNTYPE
380
     0
  9
$PSTYLEMODE
290
     1
  9
$FINGERPRINTGUID
  2

  9
$VERSIONGUID
  2

  9
$EXTNAMES
290
     1
  9
$PSVPSCALE
 40
0.0
  0
ENDSEC
  0
SECTION
  2
CLASSES
  0
CLASS
  1
LWPOLYLINE
  2
AcDbPolyline
  3
AutoCAD 2000
 90
    32768
280
     0
281
     1
  0
CLASS
  1
IMAGE
  2
AcDbRasterImage
  3
ISM
 90
    32895
280
     0
281
     1
  0
CLASS
  1
OLE2FRAME
  2
AcDbOle2Frame
  3
AutoCAD 2000
 90
    32768
280
     0
281
     1
  0
CLASS
  1
HATCH
  2
AcDbHatch
  3
AutoCAD 2000
 90
    32768
280
     0
281
     1
  0
CLASS
  1
DICTIONARYVAR
  2
AcDbDictionaryVar
  3
AutoCAD 2000
 90
    32768
280
     0
281
     0
  0
CLASS
  1
RASTERVARIABLES
  2
AcDbRasterVariables
  3
ISM
 90
    32768
280
     0
281
     0
  0
CLASS
  1
IMAGEDEF
  2
AcDbRasterImageDef
  3
ISM
 90
    32768
280
     0
281
     0
  0
CLASS
  1
IMAGEDEF_REACTOR
  2
AcDbRasterImageDefReactor
  3
ISM
 90
    32769
280
     0
281
     0
  0
CLASS
  1
IDBUFFER
  2
AcDbIdBuffer
  3
AutoCAD 2000
 90
    32768
280
     0
281
     0
  0
CLASS
  1
SPATIAL_FILTER
  2
AcDbSpatialFilter
  3
AutoCAD 2000
 90
    32768
280
     0
281
     0
  0
CLASS
  1
XRECORD
  2
AcDbXrecord
  3
AutoCAD 2000
 90
    32768
280
     0
281
     0
  0
CLASS
  1
SORTENTSTABLE
  2
AcDbSortentsTable
  3
AutoCAD 2000
 90
    32768
280
     0
281
     0
  0
CLASS
  1
LAYER_INDEX
  2
AcDbLayerIndex
  3
AutoCAD 2000
 90
    32768
280
     0
281
     0
  0
CLASS
  1
SPATIAL_INDEX
  2
AcDbSpatialIndex
  3
AutoCAD 2000
 90
    32768
280
     0
281
     0
  0
CLASS
  1
OBJECT_PTR
  2
CAseDLPNTableRecord
  3
"ASE-LPNTableRecord"
 90
    32769
280
     0
281
     0
  0
CLASS
  1
LAYOUT
  2
AcDbLayout
  3
AutoCAD 2000
 90
        0
280
     0
281
     0
  0
CLASS
  1
PLOTSETTINGS
  2
AcDbPlotSettings
  3
AutoCAD 2000
 90
    32768
280
     0
281
     0
  0
CLASS
  1
ACDBDICTIONARYWDFLT
  2
AcDbDictionaryWithDefault
  3
AutoCAD 2000
 90
        0
280
     0
281
     0
  0
CLASS
  1
ACDBPLACEHOLDER
  2
AcDbPlaceHolder
  3
AutoCAD 2000
 90
        0
280
     0
281
     0
  0
CLASS
  1
VBA_PROJECT
  2
AcDbVbaProject
  3
acadvba
 90
    32768
280
     0
281
     0
  0
CLASS
  1
WIPEOUT
  2
AcDbWipeout
  3
WipeOut|AutoCAD Express Tool|expresstools@autodesk.com
 90
    32895
280
     0
281
     1
  0
CLASS
  1
WIPEOUTVARIABLES
  2
AcDbWipeoutVariables
  3
WipeOut|AutoCAD Express Tool|expresstools@autodesk.com
 90
        0
280
     0
281
     0
  0
CLASS
  1
RTEXT
  2
RText
  3
RText|AutoCAD Express Tool|expresstools@autodesk.com
 90
    32768
280
     0
281
     1
  0
CLASS
  1
ARCALIGNEDTEXT
  2
AcDbArcAlignedText
  3
ATEXT|AutoCAD Express Tool|expresstools@autodesk.com
 90
    32768
280
     0
281
     1
  0
ENDSEC
  0
SECTION
  2
TABLES
  0
TABLE
  2
VPORT
  5
7
100
AcDbSymbolTable
 70
     1
  0
VPORT
  5
15
100
AcDbSymbolTableRecord
100
AcDbViewportTableRecord
  2
*ACTIVE
 70
     0
 10
0.0
 20
0.0
 11
1.0
 21
1.0
 12
6.591288
 22
4.579184
 13
0.0
 23
0.0
 14
1.0
 24
1.0
 15
0.0
 25
0.0
 16
0.0
 26
0.0
 36
1.0
 17
0.0
 27
0.0
 37
0.0
 40
9.158369
 41
0.688564
 42
50.0
 43
0.0
 44
0.0
 50
0.0
 51
0.0
 71
     0
 72
   100
 73
     1
 74
     1
 75
     0
 76
     0
 77
     0
 78
     0
281
     0
 65
     0
110
0.0
120
0.0
130
0.0
111
1.0
121
0.0
131
0.0
112
0.0
122
1.0
132
0.0
345
0
346
0
 79
     0
146
0.0
  0
ENDTAB
  0
TABLE
  2
LTYPE
  5
4
100
AcDbSymbolTable
 70
     3
  0
LTYPE
  5
11
100
AcDbSymbolTableRecord
100
AcDbLinetypeTableRecord
  2
ByBlock
 70
    64
  3

 72
    65
 73
     0
 40
0.0
  0
LTYPE
  5
12
100
AcDbSymbolTableRecord
100
AcDbLinetypeTableRecord
  2
ByLayer
 70
    64
  3

 72
    65
 73
     0
 40
0.0
  0
LTYPE
  5
13
100
AcDbSymbolTableRecord
100
AcDbLinetypeTableRecord
  2
Continuous
 70
    64
  3
Solid line
 72
    65
 73
     0
 40
0.0
  0
ENDTAB
  0
TABLE
  2
LAYER
  5
2
100
AcDbSymbolTable
 70
     2
  0
LAYER
  5
14
100
AcDbSymbolTableRecord
100
AcDbLayerTableRecord
  2
0
 70
     0
 62
     7
  6
Continuous
290
     1
370
    -3
390
1D
  0
LAYER
  5
24
100
AcDbSymbolTableRecord
100
AcDbLayerTableRecord
  2
Additional Graphics
 70
     0
 62
     7
  6
Continuous
290
     1
370
    -3
390
1F
  0
ENDTAB
  0
TABLE
  2
STYLE
  5
3
100
AcDbSymbolTable
 70
     2
  0
STYLE
  5
17
100
AcDbSymbolTableRecord
100
AcDbTextStyleTableRecord
  2
Standard
 70
     0
 40
0.0
 41
1.0
 50
0.0
 71
     0
 42
0.0
  3
txt
  4

  0
STYLE
  5
26
100
AcDbSymbolTableRecord
100
AcDbTextStyleTableRecord
  2
Bookman Old Style
 70
     0
 40
1.0
 41
1.0
 50
0.0
 71
     0
 42
1.0
  3
Bookman Old Style
  4

  0
ENDTAB
  0
TABLE
  2
VIEW
  5
5
100
AcDbSymbolTable
 70
     0
  0
ENDTAB
  0
TABLE
  2
UCS
  5
6
100
AcDbSymbolTable
 70
     0
  0
ENDTAB
  0
TABLE
  2
APPID
  5
8
100
AcDbSymbolTable
 70
     1
  0
APPID
  5
16
100
AcDbSymbolTableRecord
100
AcDbRegAppTableRecord
  2
ACAD
 70
     0
  0
ENDTAB
  0
TABLE
  2
DIMSTYLE
  5
9
100
AcDbSymbolTable
 70
     1
100
AcDbDimStyleTable
 71
     0
  0
DIMSTYLE
105
18
100
AcDbSymbolTableRecord
100
AcDbDimStyleTableRecord
  2
Standard
 70
     0
  3

  4

 40
1.0
 41
0.18
 42
0.0625
 43
0.38
 44
0.18
 45
0.0
 46
0.0
 47
0.0
 48
0.0
 71
     0
 72
     0
 73
     1
 74
     1
 75
     0
 76
     0
 77
     0
 78
     0
 79
     0
140
0.18
141
0.09
142
0.0
143
25.4
144
1.0
145
0.0
146
1.0
147
0.09
148
0.0
170
     0
171
     2
172
     0
173
     0
174
     0
175
     0
176
     0
177
     0
178
     0
179
     0
271
     4
272
     4
273
     2
274
     2
275
     0
276
     0
277
     2
278
    46
279
     0
280
     0
281
     0
282
     0
283
     1
284
     0
285
     0
286
     0
288
     0
340
17
341
0
342
0
343
0
344
0
371
    -2
372
    -2
  0
ENDTAB
  0
TABLE
  2
BLOCK_RECORD
  5
1
100
AcDbSymbolTable
 70
     0
  0
BLOCK_RECORD
  5
A
100
AcDbSymbolTableRecord
100
AcDbBlockTableRecord
  2
*MODEL_SPACE
340
20
  0
BLOCK_RECORD
  5
B
100
AcDbSymbolTableRecord
100
AcDbBlockTableRecord
  2
*PAPER_SPACE
340
21
  0
ENDTAB
  0
ENDSEC
  0
SECTION
  2
BLOCKS
  0
BLOCK
  5
D
100
AcDbEntity
  8
0
100
AcDbBlockBegin
  2
*MODEL_SPACE
 70
     0
 10
0.0
 20
0.0
 30
0.0
  3
*MODEL_SPACE
  1

  0
ENDBLK
  5
E
100
AcDbEntity
  8
0
100
AcDbBlockEnd
  0
BLOCK
  5
F
100
AcDbEntity
 67
     1
  8
0
100
AcDbBlockBegin
  2
*PAPER_SPACE
 70
     0
 10
0.0
 20
0.0
 30
0.0
  3
*PAPER_SPACE
  1

  0
ENDBLK
  5
10
100
AcDbEntity
 67
     1
  8
0
100
AcDbBlockEnd
  0
ENDSEC
  0
SECTION
  2
ENTITIES
  0
SPLINE
  5
25
100
AcDbEntity
  8
Additional Graphics
370
     5
100
AcDbSpline
210
0.0
220
0.0
230
1.0
 70
     1
 71
     3
 72
    40
 73
    36
 74
     0
 42
0.0000000001
 43
0.0000000001
 40
0.0
 40
0.0
 40
0.0
 40
0.0
 40
0.1111111111111111
 40
0.1111111111111111
 40
0.1111111111111111
 40
0.1111111111111111
 40
0.2222222222222222
 40
0.2222222222222222
 40
0.2222222222222222
 40
0.2222222222222222
 40
0.3333333333333333
 40
0.3333333333333333
 40
0.3333333333333333
 40
0.3333333333333333
 40
0.4444444444444444
 40
0.4444444444444444
 40
0.4444444444444444
 40
0.4444444444444444
 40
0.5555555555555556
 40
0.5555555555555556
 40
0.5555555555555556
 40
0.5555555555555556
 40
0.6666666666666667
 40
0.6666666666666667
 40
0.6666666666666667
 40
0.6666666666666667
 40
0.7777777777777779
 40
0.7777777777777779
 40
0.7777777777777779
 40
0.7777777777777779
 40
0.8888888888888891
 40
0.8888888888888891
 40
0.8888888888888891
 40
0.8888888888888891
 40
1.0
 40
1.0
 40
1.0
 40
1.0
 10
-1.1489921259842519
 20
1.1182559055118111
 30
0.0
 10
-1.1489921259842519
 20
1.1182559055118111
 30
0.0
 10
-0.273992125984252
 20
1.1182559055118111
 30
0.0
 10
-0.273992125984252
 20
1.1182559055118111
 30
0.0
 10
-0.273992125984252
 20
1.1182559055118111
 30
0.0
 10
-0.273992125984252
 20
1.1182559055118111
 30
0.0
 10
-0.273992125984252
 20
1.1807559055118111
 30
0.0
 10
-0.273992125984252
 20
1.1807559055118111
 30
0.0
 10
-0.273992125984252
 20
1.1807559055118111
 30
0.0
 10
0.3472204724409449
 20
1.1807559055118111
 30
0.0
 10
0.851003937007874
 20
1.6845393700787403
 30
0.0
 10
0.851003937007874
 20
2.3057559055118113
 30
0.0
 10
0.851003937007874
 20
2.3057559055118113
 30
0.0
 10
0.851003937007874
 20
2.9269685039370081
 30
0.0
 10
0.3472204724409449
 20
3.4307559055118113
 30
0.0
 10
-0.273992125984252
 20
3.4307559055118113
 30
0.0
 10
-0.273992125984252
 20
3.4307559055118113
 30
0.0
 10
-0.273992125984252
 20
3.4307559055118113
 30
0.0
 10
-0.274
 20
3.6807598425196852
 30
0.0
 10
-0.274
 20
3.6807598425196852
 30
0.0
 10
-0.274
 20
3.6807598425196852
 30
0.0
 10
-0.5500944881889764
 20
3.6807598425196852
 30
0.0
 10
-0.774
 20
3.9046653543307088
 30
0.0
 10
-0.774
 20
4.1807598425196852
 30
0.0
 10
-0.774
 20
4.1807598425196852
 30
0.0
 10
-0.774
 20
4.1807598425196852
 30
0.0
 10
-1.149
 20
4.1807598425196852
 30
0.0
 10
-1.149
 20
4.1807598425196852
 30
0.0
 10
-1.149
 20
4.1807598425196852
 30
0.0
 10
-1.149
 20
4.1807598425196852
 30
0.0
 10
-1.149
 20
1.1807559055118111
 30
0.0
 10
-1.149
 20
1.1807559055118111
 30
0.0
 10
-1.149
 20
1.1807559055118111
 30
0.0
 10
-1.149
 20
1.1807559055118111
 30
0.0
 10
-1.1489921259842519
 20
1.1182559055118111
 30
0.0
 10
-1.1489921259842519
 20
1.1182559055118111
 30
0.0
  0
TEXT
  5
27
100
AcDbEntity
  8
Additional Graphics
100
AcDbText
 10
0.644925
 20
1.21161
 30
0.0
 40
0.119999
  1
BA  1530
 51
-0.000002
  7
Bookman Old Style
100
AcDbText
  0
TEXT
  5
28
100
AcDbEntity
  8
Additional Graphics
100
AcDbText
 10
0.514925
 20
1.02411
 30
0.0
 40
0.119999
  1
2\u+201d x 3-1/16\u+201d
 51
-0.000002
  7
Bookman Old Style
100
AcDbText
  0
SPLINE
  5
29
100
AcDbEntity
  8
Additional Graphics
 62
     9
100
AcDbSpline
210
0.0
220
0.0
230
1.0
 70
     1
 71
     3
 72
    20
 73
    16
 74
     0
 42
0.0000000001
 43
0.0000000001
 40
0.0
 40
0.0
 40
0.0
 40
0.0
 40
0.25
 40
0.25
 40
0.25
 40
0.25
 40
0.5
 40
0.5
 40
0.5
 40
0.5
 40
0.75
 40
0.75
 40
0.75
 40
0.75
 40
1.0
 40
1.0
 40
1.0
 40
1.0
 10
-0.5718937007874017
 20
-3.301952755905512
 30
0.0
 10
-0.5718937007874017
 20
-3.301952755905512
 30
0.0
 10
0.072011811023622
 20
-2.930007874015748
 30
0.0
 10
0.072011811023622
 20
-2.930007874015748
 30
0.0
 10
0.072011811023622
 20
-2.930007874015748
 30
0.0
 10
0.072011811023622
 20
-2.930007874015748
 30
0.0
 10
0.072011811023622
 20
-2.867507874015748
 30
0.0
 10
0.072011811023622
 20
-2.867507874015748
 30
0.0
 10
0.072011811023622
 20
-2.867507874015748
 30
0.0
 10
0.072011811023622
 20
-2.867507874015748
 30
0.0
 10
-0.5718937007874017
 20
-3.239452755905512
 30
0.0
 10
-0.5718937007874017
 20
-3.239452755905512
 30
0.0
 10
-0.5718937007874017
 20
-3.239452755905512
 30
0.0
 10
-0.5718937007874017
 20
-3.239452755905512
 30
0.0
 10
-0.5718937007874017
 20
-3.301952755905512
 30
0.0
 10
-0.5718937007874017
 20
-3.301952755905512
 30
0.0
  0
SPLINE
  5
2A
100
AcDbEntity
  8
Additional Graphics
370
     5
100
AcDbSpline
210
0.0
220
0.0
230
1.0
 70
     1
 71
     3
 72
    20
 73
    16
 74
     0
 42
0.0000000001
 43
0.0000000001
 40
0.0
 40
0.0
 40
0.0
 40
0.0
 40
0.25
 40
0.25
 40
0.25
 40
0.25
 40
0.5
 40
0.5
 40
0.5
 40
0.5
 40
0.75
 40
0.75
 40
0.75
 40
0.75
 40
1.0
 40
1.0
 40
1.0
 40
1.0
 10
-0.5718937007874017
 20
-3.301952755905512
 30
0.0
 10
-0.5718937007874017
 20
-3.301952755905512
 30
0.0
 10
0.072011811023622
 20
-2.930007874015748
 30
0.0
 10
0.072011811023622
 20
-2.930007874015748
 30
0.0
 10
0.072011811023622
 20
-2.930007874015748
 30
0.0
 10
0.072011811023622
 20
-2.930007874015748
 30
0.0
 10
0.072011811023622
 20
-2.867507874015748
 30
0.0
 10
0.072011811023622
 20
-2.867507874015748
 30
0.0
 10
0.072011811023622
 20
-2.867507874015748
 30
0.0
 10
0.072011811023622
 20
-2.867507874015748
 30
0.0
 10
-0.5718937007874017
 20
-3.239452755905512
 30
0.0
 10
-0.5718937007874017
 20
-3.239452755905512
 30
0.0
 10
-0.5718937007874017
 20
-3.239452755905512
 30
0.0
 10
-0.5718937007874017
 20
-3.239452755905512
 30
0.0
 10
-0.5718937007874017
 20
-3.301952755905512
 30
0.0
 10
-0.5718937007874017
 20
-3.301952755905512
 30
0.0
  0
SPLINE
  5
2B
100
AcDbEntity
  8
Additional Graphics
 62
   253
100
AcDbSpline
210
0.0
220
0.0
230
1.0
 70
     1
 71
     3
 72
    20
 73
    16
 74
     0
 42
0.0000000001
 43
0.0000000001
 40
0.0
 40
0.0
 40
0.0
 40
0.0
 40
0.25
 40
0.25
 40
0.25
 40
0.25
 40
0.5
 40
0.5
 40
0.5
 40
0.5
 40
0.75
 40
0.75
 40
0.75
 40
0.75
 40
1.0
 40
1.0
 40
1.0
 40
1.0
 10
0.0570511811023622
 20
-3.047287401574803
 30
0.0
 10
0.0570511811023622
 20
-3.047287401574803
 30
0.0
 10
0.7009566929133858
 20
-2.6753425196850396
 30
0.0
 10
0.7009566929133858
 20
-2.6753425196850396
 30
0.0
 10
0.7009566929133858
 20
-2.6753425196850396
 30
0.0
 10
0.7009566929133858
 20
-2.6753425196850396
 30
0.0
 10
0.7450590551181102
 20
-2.6439724409448822
 30
0.0
 10
0.7450590551181102
 20
-2.6439724409448822
 30
0.0
 10
0.7450590551181102
 20
-2.6439724409448822
 30
0.0
 10
0.7450590551181102
 20
-2.6439724409448822
 30
0.0
 10
0.1011535433070866
 20
-3.0159173228346456
 30
0.0
 10
0.1011535433070866
 20
-3.0159173228346456
 30
0.0
 10
0.1011535433070866
 20
-3.0159173228346456
 30
0.0
 10
0.1011535433070866
 20
-3.0159173228346456
 30
0.0
 10
0.0570511811023622
 20
-3.047287401574803
 30
0.0
 10
0.0570511811023622
 20
-3.047287401574803
 30
0.0
  0
SPLINE
  5
2C
100
AcDbEntity
  8
Additional Graphics
 62
   253
100
AcDbSpline
210
0.0
220
0.0
230
1.0
 70
     1
 71
     3
 72
    20
 73
    16
 74
     0
 42
0.0000000001
 43
0.0000000001
 40
0.0
 40
0.0
 40
0.0
 40
0.0
 40
0.25
 40
0.25
 40
0.25
 40
0.25
 40
0.5
 40
0.5
 40
0.5
 40
0.5
 40
0.75
 40
0.75
 40
0.75
 40
0.75
 40
1.0
 40
1.0
 40
1.0
 40
1.0
 10
0.1011535433070866
 20
-3.0159173228346456
 30
0.0
 10
0.1011535433070866
 20
-3.0159173228346456
 30
0.0
 10
0.7450590551181102
 20
-2.6439724409448822
 30
0.0
 10
0.7450590551181102
 20
-2.6439724409448822
 30
0.0
 10
0.7450590551181102
 20
-2.6439724409448822
 30
0.0
 10
0.7450590551181102
 20
-2.6439724409448822
 30
0.0
 10
0.7875590551181103
 20
-2.6105708661417322
 30
0.0
 10
0.7875590551181103
 20
-2.6105708661417322
 30
0.0
 10
0.7875590551181103
 20
-2.6105708661417322
 30
0.0
 10
0.7875590551181103
 20
-2.6105708661417322
 30
0.0
 10
0.1436535433070866
 20
-2.9825157480314961
 30
0.0
 10
0.1436535433070866
 20
-2.9825157480314961
 30
0.0
 10
0.1436535433070866
 20
-2.9825157480314961
 30
0.0
 10
0.1436535433070866
 20
-2.9825157480314961
 30
0.0
 10
0.1011535433070866
 20
-3.0159173228346456
 30
0.0
 10
0.1011535433070866
 20
-3.0159173228346456
 30
0.0
  0
SPLINE
  5
2D
100
AcDbEntity
  8
Additional Graphics
 62
     9
100
AcDbSpline
210
0.0
220
0.0
230
1.0
 70
     1
 71
     3
 72
    20
 73
    16
 74
     0
 42
0.0000000001
 43
0.0000000001
 40
0.0
 40
0.0
 40
0.0
 40
0.0
 40
0.25
 40
0.25
 40
0.25
 40
0.25
 40
0.5
 40
0.5
 40
0.5
 40
0.5
 40
0.75
 40
0.75
 40
0.75
 40
0.75
 40
1.0
 40
1.0
 40
1.0
 40
1.0
 10
0.1436535433070866
 20
-2.9825157480314961
 30
0.0
 10
0.1436535433070866
 20
-2.9825157480314961
 30
0.0
 10
0.7875590551181103
 20
-2.6105708661417322
 30
0.0
 10
0.7875590551181103
 20
-2.6105708661417322
 30
0.0
 10
0.7875590551181103
 20
-2.6105708661417322
 30
0.0
 10
0.7875590551181103
 20
-2.6105708661417322
 30
0.0
 10
0.8283779527559055
 20
-2.5752086614173231
 30
0.0
 10
0.8283779527559055
 20
-2.5752086614173231
 30
0.0
 10
0.8283779527559055
 20
-2.5752086614173231
 30
0.0
 10
0.8283779527559055
 20
-2.5752086614173231
 30
0.0
 10
0.1844724409448819
 20
-2.9471535433070866
 30
0.0
 10
0.1844724409448819
 20
-2.9471535433070866
 30
0.0
 10
0.1844724409448819
 20
-2.9471535433070866
 30
0.0
 10
0.1844724409448819
 20
-2.9471535433070866
 30
0.0
 10
0.1436535433070866
 20
-2.9825157480314961
 30
0.0
 10
0.1436535433070866
 20
-2.9825157480314961
 30
0.0
  0
SPLINE
  5
2E
100
AcDbEntity
  8
Additional Graphics
 62
     9
100
AcDbSpline
210
0.0
220
0.0
230
1.0
 70
     1
 71
     3
 72
    20
 73
    16
 74
     0
 42
0.0000000001
 43
0.0000000001
 40
0.0
 40
0.0
 40
0.0
 40
0.0
 40
0.25
 40
0.25
 40
0.25
 40
0.25
 40
0.5
 40
0.5
 40
0.5
 40
0.5
 40
0.75
 40
0.75
 40
0.75
 40
0.75
 40
1.0
 40
1.0
 40
1.0
 40
1.0
 10
0.1844724409448819
 20
-2.9471535433070866
 30
0.0
 10
0.1844724409448819
 20
-2.9471535433070866
 30
0.0
 10
0.8283779527559055
 20
-2.5752086614173231
 30
0.0
 10
0.8283779527559055
 20
-2.5752086614173231
 30
0.0
 10
0.8283779527559055
 20
-2.5752086614173231
 30
0.0
 10
0.8283779527559055
 20
-2.5752086614173231
 30
0.0
 10
0.8674606299212598
 20
-2.53796062992126
 30
0.0
 10
0.8674606299212598
 20
-2.53796062992126
 30
0.0
 10
0.8674606299212598
 20
-2.53796062992126
 30
0.0
 10
0.8674606299212598
 20
-2.53796062992126
 30
0.0
 10
0.2235551181102362
 20
-2.9099055118110235
 30
0.0
 10
0.2235551181102362
 20
-2.9099055118110235
 30
0.0
 10
0.2235551181102362
 20
-2.9099055118110235
 30
0.0
 10
0.2235551181102362
 20
-2.9099055118110235
 30
0.0
 10
0.1844724409448819
 20
-2.9471535433070866
 30
0.0
 10
0.1844724409448819
 20
-2.9471535433070866
 30
0.0
  0
SPLINE
  5
2F
100
AcDbEntity
  8
Additional Graphics
 62
     9
100
AcDbSpline
210
0.0
220
0.0
230
1.0
 70
     1
 71
     3
 72
    20
 73
    16
 74
     0
 42
0.0000000001
 43
0.0000000001
 40
0.0
 40
0.0
 40
0.0
 40
0.0
 40
0.25
 40
0.25
 40
0.25
 40
0.25
 40
0.5
 40
0.5
 40
0.5
 40
0.5
 40
0.75
 40
0.75
 40
0.75
 40
0.75
 40
1.0
 40
1.0
 40
1.0
 40
1.0
 10
0.2235551181102362
 20
-2.9099055118110235
 30
0.0
 10
0.2235551181102362
 20
-2.9099055118110235
 30
0.0
 10
0.8674606299212598
 20
-2.53796062992126
 30
0.0
 10
0.8674606299212598
 20
-2.53796062992126
 30
0.0
 10
0.8674606299212598
 20
-2.53796062992126
 30
0.0
 10
0.8674606299212598
 20
-2.53796062992126
 30
0.0
 10
0.9047086614173229
 20
-2.4988779527559055
 30
0.0
 10
0.9047086614173229
 20
-2.4988779527559055
 30
0.0
 10
0.9047086614173229
 20
-2.4988779527559055
 30
0.0
 10
0.9047086614173229
 20
-2.4988779527559055
 30
0.0
 10
0.2608031496062992
 20
-2.8708228346456695
 30
0.0
 10
0.2608031496062992
 20
-2.8708228346456695
 30
0.0
 10
0.2608031496062992
 20
-2.8708228346456695
 30
0.0
 10
0.2608031496062992
 20
-2.8708228346456695
 30
0.0
 10
0.2235551181102362
 20
-2.9099055118110235
 30
0.0
 10
0.2235551181102362
 20
-2.9099055118110235
 30
0.0
  0
SPLINE
  5
30
100
AcDbEntity
  8
Additional Graphics
 62
     9
100
AcDbSpline
210
0.0
220
0.0
230
1.0
 70
     1
 71
     3
 72
    20
 73
    16
 74
     0
 42
0.0000000001
 43
0.0000000001
 40
0.0
 40
0.0
 40
0.0
 40
0.0
 40
0.25
 40
0.25
 40
0.25
 40
0.25
 40
0.5
 40
0.5
 40
0.5
 40
0.5
 40
0.75
 40
0.75
 40
0.75
 40
0.75
 40
1.0
 40
1.0
 40
1.0
 40
1.0
 10
0.2608031496062992
 20
-2.8708228346456695
 30
0.0
 10
0.2608031496062992
 20
-2.8708228346456695
 30
0.0
 10
0.9047086614173229
 20
-2.4988779527559055
 30
0.0
 10
0.9047086614173229
 20
-2.4988779527559055
 30
0.0
 10
0.9047086614173229
 20
-2.4988779527559055
 30
0.0
 10
0.9047086614173229
 20
-2.4988779527559055
 30
0.0
 10
0.9400708661417323
 20
-2.4580590551181105
 30
0.0
 10
0.9400708661417323
 20
-2.4580590551181105
 30
0.0
 10
0.9400708661417323
 20
-2.4580590551181105
 30
0.0
 10
0.9400708661417323
 20
-2.4580590551181105
 30
0.0
 10
0.2961653543307087
 20
-2.830003937007874
 30
0.0
 10
0.2961653543307087
 20
-2.830003937007874
 30
0.0
 10
0.2961653543307087
 20
-2.830003937007874
 30
0.0
 10
0.2961653543307087
 20
-2.830003937007874
 30
0.0
 10
0.2608031496062992
 20
-2.8708228346456695
 30
0.0
 10
0.2608031496062992
 20
-2.8708228346456695
 30
0.0
  0
SPLINE
  5
31
100
AcDbEntity
  8
Additional Graphics
 62
     9
100
AcDbSpline
210
0.0
220
0.0
230
1.0
 70
     1
 71
     3
 72
    20
 73
    16
 74
     0
 42
0.0000000001
 43
0.0000000001
 40
0.0
 40
0.0
 40
0.0
 40
0.0
 40
0.25
 40
0.25
 40
0.25
 40
0.25
 40
0.5
 40
0.5
 40
0.5
 40
0.5
 40
0.75
 40
0.75
 40
0.75
 40
0.75
 40
1.0
 40
1.0
 40
1.0
 40
1.0
 10
0.2961653543307087
 20
-2.830003937007874
 30
0.0
 10
0.2961653543307087
 20
-2.830003937007874
 30
0.0
 10
0.9400708661417323
 20
-2.4580590551181105
 30
0.0
 10
0.9400708661417323
 20
-2.4580590551181105
 30
0.0
 10
0.9400708661417323
 20
-2.4580590551181105
 30
0.0
 10
0.9400708661417323
 20
-2.4580590551181105
 30
0.0
 10
0.9734724409448819
 20
-2.4155551181102362
 30
0.0
 10
0.9734724409448819
 20
-2.4155551181102362
 30
0.0
 10
0.9734724409448819
 20
-2.4155551181102362
 30
0.0
 10
0.9734724409448819
 20
-2.4155551181102362
 30
0.0
 10
0.3295669291338583
 20
-2.7875000000000001
 30
0.0
 10
0.3295669291338583
 20
-2.7875000000000001
 30
0.0
 10
0.3295669291338583
 20
-2.7875000000000001
 30
0.0
 10
0.3295669291338583
 20
-2.7875000000000001
 30
0.0
 10
0.2961653543307087
 20
-2.830003937007874
 30
0.0
 10
0.2961653543307087
 20
-2.830003937007874
 30
0.0
  0
SPLINE
  5
32
100
AcDbEntity
  8
Additional Graphics
 62
     9
100
AcDbSpline
210
0.0
220
0.0
230
1.0
 70
     1
 71
     3
 72
    20
 73
    16
 74
     0
 42
0.0000000001
 43
0.0000000001
 40
0.0
 40
0.0
 40
0.0
 40
0.0
 40
0.25
 40
0.25
 40
0.25
 40
0.25
 40
0.5
 40
0.5
 40
0.5
 40
0.5
 40
0.75
 40
0.75
 40
0.75
 40
0.75
 40
1.0
 40
1.0
 40
1.0
 40
1.0
 10
0.3295669291338583
 20
-2.7875000000000001
 30
0.0
 10
0.3295669291338583
 20
-2.7875000000000001
 30
0.0
 10
0.9734724409448819
 20
-2.4155551181102362
 30
0.0
 10
0.9734724409448819
 20
-2.4155551181102362
 30
0.0
 10
0.9734724409448819
 20
-2.4155551181102362
 30
0.0
 10
0.9734724409448819
 20
-2.4155551181102362
 30
0.0
 10
1.0048425196850395
 20
-2.3714527559055121
 30
0.0
 10
1.0048425196850395
 20
-2.3714527559055121
 30
0.0
 10
1.0048425196850395
 20
-2.3714527559055121
 30
0.0
 10
1.0048425196850395
 20
-2.3714527559055121
 30
0.0
 10
0.3609370078740158
 20
-2.7433976377952756
 30
0.0
 10
0.3609370078740158
 20
-2.7433976377952756
 30
0.0
 10
0.3609370078740158
 20
-2.7433976377952756
 30
0.0
 10
0.3609370078740158
 20
-2.7433976377952756
 30
0.0
 10
0.3295669291338583
 20
-2.7875000000000001
 30
0.0
 10
0.3295669291338583
 20
-2.7875000000000001
 30
0.0
  0
SPLINE
  5
33
100
AcDbEntity
  8
Additional Graphics
 62
     9
100
AcDbSpline
210
0.0
220
0.0
230
1.0
 70
     1
 71
     3
 72
    20
 73
    16
 74
     0
 42
0.0000000001
 43
0.0000000001
 40
0.0
 40
0.0
 40
0.0
 40
0.0
 40
0.25
 40
0.25
 40
0.25
 40
0.25
 40
0.5
 40
0.5
 40
0.5
 40
0.5
 40
0.75
 40
0.75
 40
0.75
 40
0.75
 40
1.0
 40
1.0
 40
1.0
 40
1.0
 10
0.3609370078740158
 20
-2.7433976377952756
 30
0.0
 10
0.3609370078740158
 20
-2.7433976377952756
 30
0.0
 10
1.0048425196850395
 20
-2.3714527559055121
 30
0.0
 10
1.0048425196850395
 20
-2.3714527559055121
 30
0.0
 10
1.0048425196850395
 20
-2.3714527559055121
 30
0.0
 10
1.0048425196850395
 20
-2.3714527559055121
 30
0.0
 10
1.0341023622047245
 20
-2.3258031496062994
 30
0.0
 10
1.0341023622047245
 20
-2.3258031496062994
 30
0.0
 10
1.0341023622047245
 20
-2.3258031496062994
 30
0.0
 10
1.0341023622047245
 20
-2.3258031496062994
 30
0.0
 10
0.3901968503937008
 20
-2.6977480314960629
 30
0.0
 10
0.3901968503937008
 20
-2.6977480314960629
 30
0.0
 10
0.3901968503937008
 20
-2.6977480314960629
 30
0.0
 10
0.3901968503937008
 20
-2.6977480314960629
 30
0.0
 10
0.3609370078740158
 20
-2.7433976377952756
 30
0.0
 10
0.3609370078740158
 20
-2.7433976377952756
 30
0.0
  0
SPLINE
  5
34
100
AcDbEntity
  8
Additional Graphics
 62
     9
100
AcDbSpline
210
0.0
220
0.0
230
1.0
 70
     1
 71
     3
 72
    20
 73
    16
 74
     0
 42
0.0000000001
 43
0.0000000001
 40
0.0
 40
0.0
 40
0.0
 40
0.0
 40
0.25
 40
0.25
 40
0.25
 40
0.25
 40
0.5
 40
0.5
 40
0.5
 40
0.5
 40
0.75
 40
0.75
 40
0.75
 40
0.75
 40
1.0
 40
1.0
 40
1.0
 40
1.0
 10
0.3901968503937008
 20
-2.6977480314960629
 30
0.0
 10
0.3901968503937008
 20
-2.6977480314960629
 30
0.0
 10
1.0341023622047245
 20
-2.3258031496062994
 30
0.0
 10
1.0341023622047245
 20
-2.3258031496062994
 30
0.0
 10
1.0341023622047245
 20
-2.3258031496062994
 30
0.0
 10
1.0341023622047245
 20
-2.3258031496062994
 30
0.0
 10
1.0611968503937008
 20
-2.2786929133858269
 30
0.0
 10
1.0611968503937008
 20
-2.2786929133858269
 30
0.0
 10
1.0611968503937008
 20
-2.2786929133858269
 30
0.0
 10
1.0611968503937008
 20
-2.2786929133858269
 30
0.0
 10
0.4172913385826772
 20
-2.6506377952755908
 30
0.0
 10
0.4172913385826772
 20
-2.6506377952755908
 30
0.0
 10
0.4172913385826772
 20
-2.6506377952755908
 30
0.0
 10
0.4172913385826772
 20
-2.6506377952755908
 30
0.0
 10
0.3901968503937008
 20
-2.6977480314960629
 30
0.0
 10
0.3901968503937008
 20
-2.6977480314960629
 30
0.0
  0
SPLINE
  5
35
100
AcDbEntity
  8
Additional Graphics
 62
     9
100
AcDbSpline
210
0.0
220
0.0
230
1.0
 70
     1
 71
     3
 72
    20
 73
    16
 74
     0
 42
0.0000000001
 43
0.0000000001
 40
0.0
 40
0.0
 40
0.0
 40
0.0
 40
0.25
 40
0.25
 40
0.25
 40
0.25
 40
0.5
 40
0.5
 40
0.5
 40
0.5
 40
0.75
 40
0.75
 40
0.75
 40
0.75
 40
1.0
 40
1.0
 40
1.0
 40
1.0
 10
0.4172913385826772
 20
-2.6506377952755908
 30
0.0
 10
0.4172913385826772
 20
-2.6506377952755908
 30
0.0
 10
1.0611968503937008
 20
-2.2786929133858269
 30
0.0
 10
1.0611968503937008
 20
-2.2786929133858269
 30
0.0
 10
1.0611968503937008
 20
-2.2786929133858269
 30
0.0
 10
1.0611968503937008
 20
-2.2786929133858269
 30
0.0
 10
1.0860472440944882
 20
-2.2301850393700788
 30
0.0
 10
1.0860472440944882
 20
-2.2301850393700788
 30
0.0
 10
1.0860472440944882
 20
-2.2301850393700788
 30
0.0
 10
1.0860472440944882
 20
-2.2301850393700788
 30
0.0
 10
0.4421417322834646
 20
-2.6021299212598428
 30
0.0
 10
0.4421417322834646
 20
-2.6021299212598428
 30
0.0
 10
0.4421417322834646
 20
-2.6021299212598428
 30
0.0
 10
0.4421417322834646
 20
-2.6021299212598428
 30
0.0
 10
0.4172913385826772
 20
-2.6506377952755908
 30
0.0
 10
0.4172913385826772
 20
-2.6506377952755908
 30
0.0
  0
SPLINE
  5
36
100
AcDbEntity
  8
Additional Graphics
 62
     9
100
AcDbSpline
210
0.0
220
0.0
230
1.0
 70
     1
 71
     3
 72
    20
 73
    16
 74
     0
 42
0.0000000001
 43
0.0000000001
 40
0.0
 40
0.0
 40
0.0
 40
0.0
 40
0.25
 40
0.25
 40
0.25
 40
0.25
 40
0.5
 40
0.5
 40
0.5
 40
0.5
 40
0.75
 40
0.75
 40
0.75
 40
0.75
 40
1.0
 40
1.0
 40
1.0
 40
1.0
 10
0.4421417322834646
 20
-2.6021299212598428
 30
0.0
 10
0.4421417322834646
 20
-2.6021299212598428
 30
0.0
 10
1.0860472440944882
 20
-2.2301850393700788
 30
0.0
 10
1.0860472440944882
 20
-2.2301850393700788
 30
0.0
 10
1.0860472440944882
 20
-2.2301850393700788
 30
0.0
 10
1.0860472440944882
 20
-2.2301850393700788
 30
0.0
 10
1.1085826771653544
 20
-2.1803582677165356
 30
0.0
 10
1.1085826771653544
 20
-2.1803582677165356
 30
0.0
 10
1.1085826771653544
 20
-2.1803582677165356
 30
0.0
 10
1.1085826771653544
 20
-2.1803582677165356
 30
0.0
 10
0.4646771653543307
 20
-2.5523031496062991
 30
0.0
 10
0.4646771653543307
 20
-2.5523031496062991
 30
0.0
 10
0.4646771653543307
 20
-2.5523031496062991
 30
0.0
 10
0.4646771653543307
 20
-2.5523031496062991
 30
0.0
 10
0.4421417322834646
 20
-2.6021299212598428
 30
0.0
 10
0.4421417322834646
 20
-2.6021299212598428
 30
0.0
  0
SPLINE
  5
37
100
AcDbEntity
  8
Additional Graphics
 62
     9
100
AcDbSpline
210
0.0
220
0.0
230
1.0
 70
     1
 71
     3
 72
    20
 73
    16
 74
     0
 42
0.0000000001
 43
0.0000000001
 40
0.0
 40
0.0
 40
0.0
 40
0.0
 40
0.25
 40
0.25
 40
0.25
 40
0.25
 40
0.5
 40
0.5
 40
0.5
 40
0.5
 40
0.75
 40
0.75
 40
0.75
 40
0.75
 40
1.0
 40
1.0
 40
1.0
 40
1.0
 10
0.4646771653543307
 20
-2.5523031496062991
 30
0.0
 10
0.4646771653543307
 20
-2.5523031496062991
 30
0.0
 10
1.1085826771653544
 20
-2.1803582677165356
 30
0.0
 10
1.1085826771653544
 20
-2.1803582677165356
 30
0.0
 10
1.1085826771653544
 20
-2.1803582677165356
 30
0.0
 10
1.1085826771653544
 20
-2.1803582677165356
 30
0.0
 10
1.128720472440945
 20
-2.1292637795275593
 30
0.0
 10
1.128720472440945
 20
-2.1292637795275593
 30
0.0
 10
1.128720472440945
 20
-2.1292637795275593
 30
0.0
 10
1.128720472440945
 20
-2.1292637795275593
 30
0.0
 10
0.4848149606299213
 20
-2.5012086614173228
 30
0.0
 10
0.4848149606299213
 20
-2.5012086614173228
 30
0.0
 10
0.4848149606299213
 20
-2.5012086614173228
 30
0.0
 10
0.4848149606299213
 20
-2.5012086614173228
 30
0.0
 10
0.4646771653543307
 20
-2.5523031496062991
 30
0.0
 10
0.4646771653543307
 20
-2.5523031496062991
 30
0.0
  0
SPLINE
  5
38
100
AcDbEntity
  8
Additional Graphics
 62
     9
100
AcDbSpline
210
0.0
220
0.0
230
1.0
 70
     1
 71
     3
 72
    20
 73
    16
 74
     0
 42
0.0000000001
 43
0.0000000001
 40
0.0
 40
0.0
 40
0.0
 40
0.0
 40
0.25
 40
0.25
 40
0.25
 40
0.25
 40
0.5
 40
0.5
 40
0.5
 40
0.5
 40
0.75
 40
0.75
 40
0.75
 40
0.75
 40
1.0
 40
1.0
 40
1.0
 40
1.0
 10
0.4848149606299213
 20
-2.5012086614173228
 30
0.0
 10
0.4848149606299213
 20
-2.5012086614173228
 30
0.0
 10
1.128720472440945
 20
-2.1292637795275593
 30
0.0
 10
1.128720472440945
 20
-2.1292637795275593
 30
0.0
 10
1.128720472440945
 20
-2.1292637795275593
 30
0.0
 10
1.128720472440945
 20
-2.1292637795275593
 30
0.0
 10
1.1464133858267718
 20
-2.077
 30
0.0
 10
1.1464133858267718
 20
-2.077
 30
0.0
 10
1.1464133858267718
 20
-2.077
 30
0.0
 10
1.1464133858267718
 20
-2.077
 30
0.0
 10
0.502507874015748
 20
-2.4489448818897639
 30
0.0
 10
0.502507874015748
 20
-2.4489448818897639
 30
0.0
 10
0.502507874015748
 20
-2.4489448818897639
 30
0.0
 10
0.502507874015748
 20
-2.4489448818897639
 30
0.0
 10
0.4848149606299213
 20
-2.5012086614173228
 30
0.0
 10
0.4848149606299213
 20
-2.5012086614173228
 30
0.0
  0
SPLINE
  5
39
100
AcDbEntity
  8
Additional Graphics
 62
     9
100
AcDbSpline
210
0.0
220
0.0
230
1.0
 70
     1
 71
     3
 72
    20
 73
    16
 74
     0
 42
0.0000000001
 43
0.0000000001
 40
0.0
 40
0.0
 40
0.0
 40
0.0
 40
0.25
 40
0.25
 40
0.25
 40
0.25
 40
0.5
 40
0.5
 40
0.5
 40
0.5
 40
0.75
 40
0.75
 40
0.75
 40
0.75
 40
1.0
 40
1.0
 40
1.0
 40
1.0
 10
0.502507874015748
 20
-2.4489448818897639
 30
0.0
 10
0.502507874015748
 20
-2.4489448818897639
 30
0.0
 10
1.1464133858267718
 20
-2.077
 30
0.0
 10
1.1464133858267718
 20
-2.077
 30
0.0
 10
1.1464133858267718
 20
-2.077
 30
0.0
 10
1.1464133858267718
 20
-2.077
 30
0.0
 10
1.1615787401574804
 20
-2.0236141732283466
 30
0.0
 10
1.1615787401574804
 20
-2.0236141732283466
 30
0.0
 10
1.1615787401574804
 20
-2.0236141732283466
 30
0.0
 10
1.1615787401574804
 20
-2.0236141732283466
 30
0.0
 10
0.5176732283464567
 20
-2.3955590551181105
 30
0.0
 10
0.5176732283464567
 20
-2.3955590551181105
 30
0.0
 10
0.5176732283464567
 20
-2.3955590551181105
 30
0.0
 10
0.5176732283464567
 20
-2.3955590551181105
 30
0.0
 10
0.502507874015748
 20
-2.4489448818897639
 30
0.0
 10
0.502507874015748
 20
-2.4489448818897639
 30
0.0
  0
SPLINE
  5
3A
100
AcDbEntity
  8
Additional Graphics
 62
     9
100
AcDbSpline
210
0.0
220
0.0
230
1.0
 70
     1
 71
     3
 72
    20
 73
    16
 74
     0
 42
0.0000000001
 43
0.0000000001
 40
0.0
 40
0.0
 40
0.0
 40
0.0
 40
0.25
 40
0.25
 40
0.25
 40
0.25
 40
0.5
 40
0.5
 40
0.5
 40
0.5
 40
0.75
 40
0.75
 40
0.75
 40
0.75
 40
1.0
 40
1.0
 40
1.0
 40
1.0
 10
0.5176732283464567
 20
-2.3955590551181105
 30
0.0
 10
0.5176732283464567
 20
-2.3955590551181105
 30
0.0
 10
1.1615787401574804
 20
-2.0236141732283466
 30
0.0
 10
1.1615787401574804
 20
-2.0236141732283466
 30
0.0
 10
1.1615787401574804
 20
-2.0236141732283466
 30
0.0
 10
1.1615787401574804
 20
-2.0236141732283466
 30
0.0
 10
1.1741456692913386
 20
-1.969196850393701
 30
0.0
 10
1.1741456692913386
 20
-1.969196850393701
 30
0.0
 10
1.1741456692913386
 20
-1.969196850393701
 30
0.0
 10
1.1741456692913386
 20
-1.969196850393701
 30
0.0
 10
0.5302401574803149
 20
-2.3411417322834644
 30
0.0
 10
0.5302401574803149
 20
-2.3411417322834644
 30
0.0
 10
0.5302401574803149
 20
-2.3411417322834644
 30
0.0
 10
0.5302401574803149
 20
-2.3411417322834644
 30
0.0
 10
0.5176732283464567
 20
-2.3955590551181105
 30
0.0
 10
0.5176732283464567
 20
-2.3955590551181105
 30
0.0
  0
SPLINE
  5
3B
100
AcDbEntity
  8
Additional Graphics
 62
     9
100
AcDbSpline
210
0.0
220
0.0
230
1.0
 70
     1
 71
     3
 72
    20
 73
    16
 74
     0
 42
0.0000000001
 43
0.0000000001
 40
0.0
 40
0.0
 40
0.0
 40
0.0
 40
0.25
 40
0.25
 40
0.25
 40
0.25
 40
0.5
 40
0.5
 40
0.5
 40
0.5
 40
0.75
 40
0.75
 40
0.75
 40
0.75
 40
1.0
 40
1.0
 40
1.0
 40
1.0
 10
0.5302401574803149
 20
-2.3411417322834644
 30
0.0
 10
0.5302401574803149
 20
-2.3411417322834644
 30
0.0
 10
1.1741456692913386
 20
-1.969196850393701
 30
0.0
 10
1.1741456692913386
 20
-1.969196850393701
 30
0.0
 10
1.1741456692913386
 20
-1.969196850393701
 30
0.0
 10
1.1741456692913386
 20
-1.969196850393701
 30
0.0
 10
1.1840393700787402
 20
-1.9137992125984253
 30
0.0
 10
1.1840393700787402
 20
-1.9137992125984253
 30
0.0
 10
1.1840393700787402
 20
-1.9137992125984253
 30
0.0
 10
1.1840393700787402
 20
-1.9137992125984253
 30
0.0
 10
0.5401338582677165
 20
-2.285744094488189
 30
0.0
 10
0.5401338582677165
 20
-2.285744094488189
 30
0.0
 10
0.5401338582677165
 20
-2.285744094488189
 30
0.0
 10
0.5401338582677165
 20
-2.285744094488189
 30
0.0
 10
0.5302401574803149
 20
-2.3411417322834644
 30
0.0
 10
0.5302401574803149
 20
-2.3411417322834644
 30
0.0
  0
SPLINE
  5
3C
100
AcDbEntity
  8
Additional Graphics
 62
     9
100
AcDbSpline
210
0.0
220
0.0
230
1.0
 70
     1
 71
     3
 72
    20
 73
    16
 74
     0
 42
0.0000000001
 43
0.0000000001
 40
0.0
 40
0.0
 40
0.0
 40
0.0
 40
0.25
 40
0.25
 40
0.25
 40
0.25
 40
0.5
 40
0.5
 40
0.5
 40
0.5
 40
0.75
 40
0.75
 40
0.75
 40
0.75
 40
1.0
 40
1.0
 40
1.0
 40
1.0
 10
0.5401338582677165
 20
-2.285744094488189
 30
0.0
 10
0.5401338582677165
 20
-2.285744094488189
 30
0.0
 10
1.1840393700787402
 20
-1.9137992125984253
 30
0.0
 10
1.1840393700787402
 20
-1.9137992125984253
 30
0.0
 10
1.1840393700787402
 20
-1.9137992125984253
 30
0.0
 10
1.1840393700787402
 20
-1.9137992125984253
 30
0.0
 10
1.1911968503937009
 20
-1.857507874015748
 30
0.0
 10
1.1911968503937009
 20
-1.857507874015748
 30
0.0
 10
1.1911968503937009
 20
-1.857507874015748
 30
0.0
 10
1.1911968503937009
 20
-1.857507874015748
 30
0.0
 10
0.5472913385826772
 20
-2.2294527559055117
 30
0.0
 10
0.5472913385826772
 20
-2.2294527559055117
 30
0.0
 10
0.5472913385826772
 20
-2.2294527559055117
 30
0.0
 10
0.5472913385826772
 20
-2.2294527559055117
 30
0.0
 10
0.5401338582677165
 20
-2.285744094488189
 30
0.0
 10
0.5401338582677165
 20
-2.285744094488189
 30
0.0
  0
SPLINE
  5
3D
100
AcDbEntity
  8
Additional Graphics
 62
     9
100
AcDbSpline
210
0.0
220
0.0
230
1.0
 70
     1
 71
     3
 72
    20
 73
    16
 74
     0
 42
0.0000000001
 43
0.0000000001
 40
0.0
 40
0.0
 40
0.0
 40
0.0
 40
0.25
 40
0.25
 40
0.25
 40
0.25
 40
0.5
 40
0.5
 40
0.5
 40
0.5
 40
0.75
 40
0.75
 40
0.75
 40
0.75
 40
1.0
 40
1.0
 40
1.0
 40
1.0
 10
0.5472913385826772
 20
-2.2294527559055117
 30
0.0
 10
0.5472913385826772
 20
-2.2294527559055117
 30
0.0
 10
1.1911968503937009
 20
-1.857507874015748
 30
0.0
 10
1.1911968503937009
 20
-1.857507874015748
 30
0.0
 10
1.1911968503937009
 20
-1.857507874015748
 30
0.0
 10
1.1911968503937009
 20
-1.857507874015748
 30
0.0
 10
1.1955433070866142
 20
-1.8003818897637796
 30
0.0
 10
1.1955433070866142
 20
-1.8003818897637796
 30
0.0
 10
1.1955433070866142
 20
-1.8003818897637796
 30
0.0
 10
1.1955433070866142
 20
-1.8003818897637796
 30
0.0
 10
0.5516377952755905
 20
-2.1723267716535433
 30
0.0
 10
0.5516377952755905
 20
-2.1723267716535433
 30
0.0
 10
0.5516377952755905
 20
-2.1723267716535433
 30
0.0
 10
0.5516377952755905
 20
-2.1723267716535433
 30
0.0
 10
0.5472913385826772
 20
-2.2294527559055117
 30
0.0
 10
0.5472913385826772
 20
-2.2294527559055117
 30
0.0
  0
SPLINE
  5
3E
100
AcDbEntity
  8
Additional Graphics
 62
     9
100
AcDbSpline
210
0.0
220
0.0
230
1.0
 70
     1
 71
     3
 72
    20
 73
    16
 74
     0
 42
0.0000000001
 43
0.0000000001
 40
0.0
 40
0.0
 40
0.0
 40
0.0
 40
0.25
 40
0.25
 40
0.25
 40
0.25
 40
0.5
 40
0.5
 40
0.5
 40
0.5
 40
0.75
 40
0.75
 40
0.75
 40
0.75
 40
1.0
 40
1.0
 40
1.0
 40
1.0
 10
0.5516377952755905
 20
-2.1723267716535433
 30
0.0
 10
0.5516377952755905
 20
-2.1723267716535433
 30
0.0
 10
1.1955433070866142
 20
-1.8003818897637796
 30
0.0
 10
1.1955433070866142
 20
-1.8003818897637796
 30
0.0
 10
1.1955433070866142
 20
-1.8003818897637796
 30
0.0
 10
1.1955433070866142
 20
-1.8003818897637796
 30
0.0
 10
1.1970078740157482
 20
-1.742507874015748
 30
0.0
 10
1.1970078740157482
 20
-1.742507874015748
 30
0.0
 10
1.1970078740157482
 20
-1.742507874015748
 30
0.0
 10
1.1970078740157482
 20
-1.742507874015748
 30
0.0
 10
0.5531023622047244
 20
-2.114452755905512
 30
0.0
 10
0.5531023622047244
 20
-2.114452755905512
 30
0.0
 10
0.5531023622047244
 20
-2.114452755905512
 30
0.0
 10
0.5531023622047244
 20
-2.114452755905512
 30
0.0
 10
0.5516377952755905
 20
-2.1723267716535433
 30
0.0
 10
0.5516377952755905
 20
-2.1723267716535433
 30
0.0
  0
SPLINE
  5
3F
100
AcDbEntity
  8
Additional Graphics
 62
     9
100
AcDbSpline
210
0.0
220
0.0
230
1.0
 70
     1
 71
     3
 72
    20
 73
    16
 74
     0
 42
0.0000000001
 43
0.0000000001
 40
0.0
 40
0.0
 40
0.0
 40
0.0
 40
0.25
 40
0.25
 40
0.25
 40
0.25
 40
0.5
 40
0.5
 40
0.5
 40
0.5
 40
0.75
 40
0.75
 40
0.75
 40
0.75
 40
1.0
 40
1.0
 40
1.0
 40
1.0
 10
0.5531023622047244
 20
-2.114452755905512
 30
0.0
 10
0.5531023622047244
 20
-2.114452755905512
 30
0.0
 10
1.1970078740157482
 20
-1.742507874015748
 30
0.0
 10
1.1970078740157482
 20
-1.742507874015748
 30
0.0
 10
1.1970078740157482
 20
-1.742507874015748
 30
0.0
 10
1.1970078740157482
 20
-1.742507874015748
 30
0.0
 10
1.1955433070866142
 20
-1.6846220472440945
 30
0.0
 10
1.1955433070866142
 20
-1.6846220472440945
 30
0.0
 10
1.1955433070866142
 20
-1.6846220472440945
 30
0.0
 10
1.1955433070866142
 20
-1.6846220472440945
 30
0.0
 10
0.5516377952755905
 20
-2.0565669291338584
 30
0.0
 10
0.5516377952755905
 20
-2.0565669291338584
 30
0.0
 10
0.5516377952755905
 20
-2.0565669291338584
 30
0.0
 10
0.5516377952755905
 20
-2.0565669291338584
 30
0.0
 10
0.5531023622047244
 20
-2.114452755905512
 30
0.0
 10
0.5531023622047244
 20
-2.114452755905512
 30
0.0
  0
SPLINE
  5
40
100
AcDbEntity
  8
Additional Graphics
 62
     9
100
AcDbSpline
210
0.0
220
0.0
230
1.0
 70
     1
 71
     3
 72
    20
 73
    16
 74
     0
 42
0.0000000001
 43
0.0000000001
 40
0.0
 40
0.0
 40
0.0
 40
0.0
 40
0.25
 40
0.25
 40
0.25
 40
0.25
 40
0.5
 40
0.5
 40
0.5
 40
0.5
 40
0.75
 40
0.75
 40
0.75
 40
0.75
 40
1.0
 40
1.0
 40
1.0
 40
1.0
 10
0.5516377952755905
 20
-2.0565669291338584
 30
0.0
 10
0.5516377952755905
 20
-2.0565669291338584
 30
0.0
 10
1.1955433070866142
 20
-1.6846220472440945
 30
0.0
 10
1.1955433070866142
 20
-1.6846220472440945
 30
0.0
 10
1.1955433070866142
 20
-1.6846220472440945
 30
0.0
 10
1.1955433070866142
 20
-1.6846220472440945
 30
0.0
 10
1.1911968503937009
 20
-1.627496062992126
 30
0.0
 10
1.1911968503937009
 20
-1.627496062992126
 30
0.0
 10
1.1911968503937009
 20
-1.627496062992126
 30
0.0
 10
1.1911968503937009
 20
-1.627496062992126
 30
0.0
 10
0.5472913385826772
 20
-1.9994409448818899
 30
0.0
 10
0.5472913385826772
 20
-1.9994409448818899
 30
0.0
 10
0.5472913385826772
 20
-1.9994409448818899
 30
0.0
 10
0.5472913385826772
 20
-1.9994409448818899
 30
0.0
 10
0.5516377952755905
 20
-2.0565669291338584
 30
0.0
 10
0.5516377952755905
 20
-2.0565669291338584
 30
0.0
  0
SPLINE
  5
41
100
AcDbEntity
  8
Additional Graphics
 62
     9
100
AcDbSpline
210
0.0
220
0.0
230
1.0
 70
     1
 71
     3
 72
    20
 73
    16
 74
     0
 42
0.0000000001
 43
0.0000000001
 40
0.0
 40
0.0
 40
0.0
 40
0.0
 40
0.25
 40
0.25
 40
0.25
 40
0.25
 40
0.5
 40
0.5
 40
0.5
 40
0.5
 40
0.75
 40
0.75
 40
0.75
 40
0.75
 40
1.0
 40
1.0
 40
1.0
 40
1.0
 10
0.5472913385826772
 20
-1.9994409448818899
 30
0.0
 10
0.5472913385826772
 20
-1.9994409448818899
 30
0.0
 10
1.1911968503937009
 20
-1.627496062992126
 30
0.0
 10
1.1911968503937009
 20
-1.627496062992126
 30
0.0
 10
1.1911968503937009
 20
-1.627496062992126
 30
0.0
 10
1.1911968503937009
 20
-1.627496062992126
 30
0.0
 10
1.1840393700787402
 20
-1.5712007874015748
 30
0.0
 10
1.1840393700787402
 20
-1.5712007874015748
 30
0.0
 10
1.1840393700787402
 20
-1.5712007874015748
 30
0.0
 10
1.1840393700787402
 20
-1.5712007874015748
 30
0.0
 10
0.5401338582677165
 20
-1.9431456692913387
 30
0.0
 10
0.5401338582677165
 20
-1.9431456692913387
 30
0.0
 10
0.5401338582677165
 20
-1.9431456692913387
 30
0.0
 10
0.5401338582677165
 20
-1.9431456692913387
 30
0.0
 10
0.5472913385826772
 20
-1.9994409448818899
 30
0.0
 10
0.5472913385826772
 20
-1.9994409448818899
 30
0.0
  0
SPLINE
  5
42
100
AcDbEntity
  8
Additional Graphics
 62
     9
100
AcDbSpline
210
0.0
220
0.0
230
1.0
 70
     1
 71
     3
 72
    20
 73
    16
 74
     0
 42
0.0000000001
 43
0.0000000001
 40
0.0
 40
0.0
 40
0.0
 40
0.0
 40
0.25
 40
0.25
 40
0.25
 40
0.25
 40
0.5
 40
0.5
 40
0.5
 40
0.5
 40
0.75
 40
0.75
 40
0.75
 40
0.75
 40
1.0
 40
1.0
 40
1.0
 40
1.0
 10
0.5401338582677165
 20
-1.9431456692913387
 30
0.0
 10
0.5401338582677165
 20
-1.9431456692913387
 30
0.0
 10
1.1840393700787402
 20
-1.5712007874015748
 30
0.0
 10
1.1840393700787402
 20
-1.5712007874015748
 30
0.0
 10
1.1840393700787402
 20
-1.5712007874015748
 30
0.0
 10
1.1840393700787402
 20
-1.5712007874015748
 30
0.0
 10
1.1741456692913386
 20
-1.5158070866141733
 30
0.0
 10
1.1741456692913386
 20
-1.5158070866141733
 30
0.0
 10
1.1741456692913386
 20
-1.5158070866141733
 30
0.0
 10
1.1741456692913386
 20
-1.5158070866141733
 30
0.0
 10
0.5302401574803149
 20
-1.887751968503937
 30
0.0
 10
0.5302401574803149
 20
-1.887751968503937
 30
0.0
 10
0.5302401574803149
 20
-1.887751968503937
 30
0.0
 10
0.5302401574803149
 20
-1.887751968503937
 30
0.0
 10
0.5401338582677165
 20
-1.9431456692913387
 30
0.0
 10
0.5401338582677165
 20
-1.9431456692913387
 30
0.0
  0
SPLINE
  5
43
100
AcDbEntity
  8
Additional Graphics
 62
     9
100
AcDbSpline
210
0.0
220
0.0
230
1.0
 70
     1
 71
     3
 72
    20
 73
    16
 74
     0
 42
0.0000000001
 43
0.0000000001
 40
0.0
 40
0.0
 40
0.0
 40
0.0
 40
0.25
 40
0.25
 40
0.25
 40
0.25
 40
0.5
 40
0.5
 40
0.5
 40
0.5
 40
0.75
 40
0.75
 40
0.75
 40
0.75
 40
1.0
 40
1.0
 40
1.0
 40
1.0
 10
0.5302401574803149
 20
-1.887751968503937
 30
0.0
 10
0.5302401574803149
 20
-1.887751968503937
 30
0.0
 10
1.1741456692913386
 20
-1.5158070866141733
 30
0.0
 10
1.1741456692913386
 20
-1.5158070866141733
 30
0.0
 10
1.1741456692913386
 20
-1.5158070866141733
 30
0.0
 10
1.1741456692913386
 20
-1.5158070866141733
 30
0.0
 10
1.1615787401574804
 20
-1.4613818897637796
 30
0.0
 10
1.1615787401574804
 20
-1.4613818897637796
 30
0.0
 10
1.1615787401574804
 20
-1.4613818897637796
 30
0.0
 10
1.1615787401574804
 20
-1.4613818897637796
 30
0.0
 10
0.5176732283464567
 20
-1.8333267716535433
 30
0.0
 10
0.5176732283464567
 20
-1.8333267716535433
 30
0.0
 10
0.5176732283464567
 20
-1.8333267716535433
 30
0.0
 10
0.5176732283464567
 20
-1.8333267716535433
 30
0.0
 10
0.5302401574803149
 20
-1.887751968503937
 30
0.0
 10
0.5302401574803149
 20
-1.887751968503937
 30
0.0
  0
SPLINE
  5
44
100
AcDbEntity
  8
Additional Graphics
 62
     9
100
AcDbSpline
210
0.0
220
0.0
230
1.0
 70
     1
 71
     3
 72
    20
 73
    16
 74
     0
 42
0.0000000001
 43
0.0000000001
 40
0.0
 40
0.0
 40
0.0
 40
0.0
 40
0.25
 40
0.25
 40
0.25
 40
0.25
 40
0.5
 40
0.5
 40
0.5
 40
0.5
 40
0.75
 40
0.75
 40
0.75
 40
0.75
 40
1.0
 40
1.0
 40
1.0
 40
1.0
 10
0.5176732283464567
 20
-1.8333267716535433
 30
0.0
 10
0.5176732283464567
 20
-1.8333267716535433
 30
0.0
 10
1.1615787401574804
 20
-1.4613818897637796
 30
0.0
 10
1.1615787401574804
 20
-1.4613818897637796
 30
0.0
 10
1.1615787401574804
 20
-1.4613818897637796
 30
0.0
 10
1.1615787401574804
 20
-1.4613818897637796
 30
0.0
 10
1.1464133858267718
 20
-1.4080039370078741
 30
0.0
 10
1.1464133858267718
 20
-1.4080039370078741
 30
0.0
 10
1.1464133858267718
 20
-1.4080039370078741
 30
0.0
 10
1.1464133858267718
 20
-1.4080039370078741
 30
0.0
 10
0.502507874015748
 20
-1.7799488188976378
 30
0.0
 10
0.502507874015748
 20
-1.7799488188976378
 30
0.0
 10
0.502507874015748
 20
-1.7799488188976378
 30
0.0
 10
0.502507874015748
 20
-1.7799488188976378
 30
0.0
 10
0.5176732283464567
 20
-1.8333267716535433
 30
0.0
 10
0.5176732283464567
 20
-1.8333267716535433
 30
0.0
  0
SPLINE
  5
45
100
AcDbEntity
  8
Additional Graphics
 62
     9
100
AcDbSpline
210
0.0
220
0.0
230
1.0
 70
     1
 71
     3
 72
    20
 73
    16
 74
     0
 42
0.0000000001
 43
0.0000000001
 40
0.0
 40
0.0
 40
0.0
 40
0.0
 40
0.25
 40
0.25
 40
0.25
 40
0.25
 40
0.5
 40
0.5
 40
0.5
 40
0.5
 40
0.75
 40
0.75
 40
0.75
 40
0.75
 40
1.0
 40
1.0
 40
1.0
 40
1.0
 10
0.502507874015748
 20
-1.7799488188976378
 30
0.0
 10
0.502507874015748
 20
-1.7799488188976378
 30
0.0
 10
1.1464133858267718
 20
-1.4080039370078741
 30
0.0
 10
1.1464133858267718
 20
-1.4080039370078741
 30
0.0
 10
1.1464133858267718
 20
-1.4080039370078741
 30
0.0
 10
1.1464133858267718
 20
-1.4080039370078741
 30
0.0
 10
1.128720472440945
 20
-1.3557322834645671
 30
0.0
 10
1.128720472440945
 20
-1.3557322834645671
 30
0.0
 10
1.128720472440945
 20
-1.3557322834645671
 30
0.0
 10
1.128720472440945
 20
-1.3557322834645671
 30
0.0
 10
0.4848149606299213
 20
-1.7276771653543308
 30
0.0
 10
0.4848149606299213
 20
-1.7276771653543308
 30
0.0
 10
0.4848149606299213
 20
-1.7276771653543308
 30
0.0
 10
0.4848149606299213
 20
-1.7276771653543308
 30
0.0
 10
0.502507874015748
 20
-1.7799488188976378
 30
0.0
 10
0.502507874015748
 20
-1.7799488188976378
 30
0.0
  0
SPLINE
  5
46
100
AcDbEntity
  8
Additional Graphics
 62
     9
100
AcDbSpline
210
0.0
220
0.0
230
1.0
 70
     1
 71
     3
 72
    20
 73
    16
 74
     0
 42
0.0000000001
 43
0.0000000001
 40
0.0
 40
0.0
 40
0.0
 40
0.0
 40
0.25
 40
0.25
 40
0.25
 40
0.25
 40
0.5
 40
0.5
 40
0.5
 40
0.5
 40
0.75
 40
0.75
 40
0.75
 40
0.75
 40
1.0
 40
1.0
 40
1.0
 40
1.0
 10
0.4848149606299213
 20
-1.7276771653543308
 30
0.0
 10
0.4848149606299213
 20
-1.7276771653543308
 30
0.0
 10
1.128720472440945
 20
-1.3557322834645671
 30
0.0
 10
1.128720472440945
 20
-1.3557322834645671
 30
0.0
 10
1.128720472440945
 20
-1.3557322834645671
 30
0.0
 10
1.128720472440945
 20
-1.3557322834645671
 30
0.0
 10
1.1085826771653544
 20
-1.3046496062992126
 30
0.0
 10
1.1085826771653544
 20
-1.3046496062992126
 30
0.0
 10
1.1085826771653544
 20
-1.3046496062992126
 30
0.0
 10
1.1085826771653544
 20
-1.3046496062992126
 30
0.0
 10
0.4646771653543307
 20
-1.6765944881889765
 30
0.0
 10
0.4646771653543307
 20
-1.6765944881889765
 30
0.0
 10
0.4646771653543307
 20
-1.6765944881889765
 30
0.0
 10
0.4646771653543307
 20
-1.6765944881889765
 30
0.0
 10
0.4848149606299213
 20
-1.7276771653543308
 30
0.0
 10
0.4848149606299213
 20
-1.7276771653543308
 30
0.0
  0
SPLINE
  5
47
100
AcDbEntity
  8
Additional Graphics
 62
     9
100
AcDbSpline
210
0.0
220
0.0
230
1.0
 70
     1
 71
     3
 72
    20
 73
    16
 74
     0
 42
0.0000000001
 43
0.0000000001
 40
0.0
 40
0.0
 40
0.0
 40
0.0
 40
0.25
 40
0.25
 40
0.25
 40
0.25
 40
0.5
 40
0.5
 40
0.5
 40
0.5
 40
0.75
 40
0.75
 40
0.75
 40
0.75
 40
1.0
 40
1.0
 40
1.0
 40
1.0
 10
0.4646771653543307
 20
-1.6765944881889765
 30
0.0
 10
0.4646771653543307
 20
-1.6765944881889765
 30
0.0
 10
1.1085826771653544
 20
-1.3046496062992126
 30
0.0
 10
1.1085826771653544
 20
-1.3046496062992126
 30
0.0
 10
1.1085826771653544
 20
-1.3046496062992126
 30
0.0
 10
1.1085826771653544
 20
-1.3046496062992126
 30
0.0
 10
1.0860472440944882
 20
-1.2548149606299213
 30
0.0
 10
1.0860472440944882
 20
-1.2548149606299213
 30
0.0
 10
1.0860472440944882
 20
-1.2548149606299213
 30
0.0
 10
1.0860472440944882
 20
-1.2548149606299213
 30
0.0
 10
0.4421417322834646
 20
-1.6267598425196852
 30
0.0
 10
0.4421417322834646
 20
-1.6267598425196852
 30
0.0
 10
0.4421417322834646
 20
-1.6267598425196852
 30
0.0
 10
0.4421417322834646
 20
-1.6267598425196852
 30
0.0
 10
0.4646771653543307
 20
-1.6765944881889765
 30
0.0
 10
0.4646771653543307
 20
-1.6765944881889765
 30
0.0
  0
SPLINE
  5
48
100
AcDbEntity
  8
Additional Graphics
 62
     9
100
AcDbSpline
210
0.0
220
0.0
230
1.0
 70
     1
 71
     3
 72
    20
 73
    16
 74
     0
 42
0.0000000001
 43
0.0000000001
 40
0.0
 40
0.0
 40
0.0
 40
0.0
 40
0.25
 40
0.25
 40
0.25
 40
0.25
 40
0.5
 40
0.5
 40
0.5
 40
0.5
 40
0.75
 40
0.75
 40
0.75
 40
0.75
 40
1.0
 40
1.0
 40
1.0
 40
1.0
 10
0.4421417322834646
 20
-1.6267598425196852
 30
0.0
 10
0.4421417322834646
 20
-1.6267598425196852
 30
0.0
 10
1.0860472440944882
 20
-1.2548149606299213
 30
0.0
 10
1.0860472440944882
 20
-1.2548149606299213
 30
0.0
 10
1.0860472440944882
 20
-1.2548149606299213
 30
0.0
 10
1.0860472440944882
 20
-1.2548149606299213
 30
0.0
 10
1.0611968503937008
 20
-1.2063070866141732
 30
0.0
 10
1.0611968503937008
 20
-1.2063070866141732
 30
0.0
 10
1.0611968503937008
 20
-1.2063070866141732
 30
0.0
 10
1.0611968503937008
 20
-1.2063070866141732
 30
0.0
 10
0.4172913385826772
 20
-1.5782519685039371
 30
0.0
 10
0.4172913385826772
 20
-1.5782519685039371
 30
0.0
 10
0.4172913385826772
 20
-1.5782519685039371
 30
0.0
 10
0.4172913385826772
 20
-1.5782519685039371
 30
0.0
 10
0.4421417322834646
 20
-1.6267598425196852
 30
0.0
 10
0.4421417322834646
 20
-1.6267598425196852
 30
0.0
  0
SPLINE
  5
49
100
AcDbEntity
  8
Additional Graphics
 62
     9
100
AcDbSpline
210
0.0
220
0.0
230
1.0
 70
     1
 71
     3
 72
    20
 73
    16
 74
     0
 42
0.0000000001
 43
0.0000000001
 40
0.0
 40
0.0
 40
0.0
 40
0.0
 40
0.25
 40
0.25
 40
0.25
 40
0.25
 40
0.5
 40
0.5
 40
0.5
 40
0.5
 40
0.75
 40
0.75
 40
0.75
 40
0.75
 40
1.0
 40
1.0
 40
1.0
 40
1.0
 10
0.4172913385826772
 20
-1.5782519685039371
 30
0.0
 10
0.4172913385826772
 20
-1.5782519685039371
 30
0.0
 10
1.0611968503937008
 20
-1.2063070866141732
 30
0.0
 10
1.0611968503937008
 20
-1.2063070866141732
 30
0.0
 10
1.0611968503937008
 20
-1.2063070866141732
 30
0.0
 10
1.0611968503937008
 20
-1.2063070866141732
 30
0.0
 10
1.0341023622047245
 20
-1.1591929133858268
 30
0.0
 10
1.0341023622047245
 20
-1.1591929133858268
 30
0.0
 10
1.0341023622047245
 20
-1.1591929133858268
 30
0.0
 10
1.0341023622047245
 20
-1.1591929133858268
 30
0.0
 10
0.3901968503937008
 20
-1.5311377952755907
 30
0.0
 10
0.3901968503937008
 20
-1.5311377952755907
 30
0.0
 10
0.3901968503937008
 20
-1.5311377952755907
 30
0.0
 10
0.3901968503937008
 20
-1.5311377952755907
 30
0.0
 10
0.4172913385826772
 20
-1.5782519685039371
 30
0.0
 10
0.4172913385826772
 20
-1.5782519685039371
 30
0.0
  0
SPLINE
  5
4A
100
AcDbEntity
  8
Additional Graphics
 62
     9
100
AcDbSpline
210
0.0
220
0.0
230
1.0
 70
     1
 71
     3
 72
    20
 73
    16
 74
     0
 42
0.0000000001
 43
0.0000000001
 40
0.0
 40
0.0
 40
0.0
 40
0.0
 40
0.25
 40
0.25
 40
0.25
 40
0.25
 40
0.5
 40
0.5
 40
0.5
 40
0.5
 40
0.75
 40
0.75
 40
0.75
 40
0.75
 40
1.0
 40
1.0
 40
1.0
 40
1.0
 10
0.3901968503937008
 20
-1.5311377952755907
 30
0.0
 10
0.3901968503937008
 20
-1.5311377952755907
 30
0.0
 10
1.0341023622047245
 20
-1.1591929133858268
 30
0.0
 10
1.0341023622047245
 20
-1.1591929133858268
 30
0.0
 10
1.0341023622047245
 20
-1.1591929133858268
 30
0.0
 10
1.0341023622047245
 20
-1.1591929133858268
 30
0.0
 10
1.0048425196850395
 20
-1.1135511811023622
 30
0.0
 10
1.0048425196850395
 20
-1.1135511811023622
 30
0.0
 10
1.0048425196850395
 20
-1.1135511811023622
 30
0.0
 10
1.0048425196850395
 20
-1.1135511811023622
 30
0.0
 10
0.3609370078740158
 20
-1.4854960629921261
 30
0.0
 10
0.3609370078740158
 20
-1.4854960629921261
 30
0.0
 10
0.3609370078740158
 20
-1.4854960629921261
 30
0.0
 10
0.3609370078740158
 20
-1.4854960629921261
 30
0.0
 10
0.3901968503937008
 20
-1.5311377952755907
 30
0.0
 10
0.3901968503937008
 20
-1.5311377952755907
 30
0.0
  0
SPLINE
  5
4B
100
AcDbEntity
  8
Additional Graphics
 62
     9
100
AcDbSpline
210
0.0
220
0.0
230
1.0
 70
     1
 71
     3
 72
    20
 73
    16
 74
     0
 42
0.0000000001
 43
0.0000000001
 40
0.0
 40
0.0
 40
0.0
 40
0.0
 40
0.25
 40
0.25
 40
0.25
 40
0.25
 40
0.5
 40
0.5
 40
0.5
 40
0.5
 40
0.75
 40
0.75
 40
0.75
 40
0.75
 40
1.0
 40
1.0
 40
1.0
 40
1.0
 10
0.3609370078740158
 20
-1.4854960629921261
 30
0.0
 10
0.3609370078740158
 20
-1.4854960629921261
 30
0.0
 10
1.0048425196850395
 20
-1.1135511811023622
 30
0.0
 10
1.0048425196850395
 20
-1.1135511811023622
 30
0.0
 10
1.0048425196850395
 20
-1.1135511811023622
 30
0.0
 10
1.0048425196850395
 20
-1.1135511811023622
 30
0.0
 10
0.9734724409448819
 20
-1.0694370078740159
 30
0.0
 10
0.9734724409448819
 20
-1.0694370078740159
 30
0.0
 10
0.9734724409448819
 20
-1.0694370078740159
 30
0.0
 10
0.9734724409448819
 20
-1.0694370078740159
 30
0.0
 10
0.3295669291338583
 20
-1.4413818897637796
 30
0.0
 10
0.3295669291338583
 20
-1.4413818897637796
 30
0.0
 10
0.3295669291338583
 20
-1.4413818897637796
 30
0.0
 10
0.3295669291338583
 20
-1.4413818897637796
 30
0.0
 10
0.3609370078740158
 20
-1.4854960629921261
 30
0.0
 10
0.3609370078740158
 20
-1.4854960629921261
 30
0.0
  0
SPLINE
  5
4C
100
AcDbEntity
  8
Additional Graphics
 62
     9
100
AcDbSpline
210
0.0
220
0.0
230
1.0
 70
     1
 71
     3
 72
    20
 73
    16
 74
     0
 42
0.0000000001
 43
0.0000000001
 40
0.0
 40
0.0
 40
0.0
 40
0.0
 40
0.25
 40
0.25
 40
0.25
 40
0.25
 40
0.5
 40
0.5
 40
0.5
 40
0.5
 40
0.75
 40
0.75
 40
0.75
 40
0.75
 40
1.0
 40
1.0
 40
1.0
 40
1.0
 10
0.3295669291338583
 20
-1.4413818897637796
 30
0.0
 10
0.3295669291338583
 20
-1.4413818897637796
 30
0.0
 10
0.9734724409448819
 20
-1.0694370078740159
 30
0.0
 10
0.9734724409448819
 20
-1.0694370078740159
 30
0.0
 10
0.9734724409448819
 20
-1.0694370078740159
 30
0.0
 10
0.9734724409448819
 20
-1.0694370078740159
 30
0.0
 10
0.9400708661417323
 20
-1.0269409448818898
 30
0.0
 10
0.9400708661417323
 20
-1.0269409448818898
 30
0.0
 10
0.9400708661417323
 20
-1.0269409448818898
 30
0.0
 10
0.9400708661417323
 20
-1.0269409448818898
 30
0.0
 10
0.2961653543307087
 20
-1.3988858267716535
 30
0.0
 10
0.2961653543307087
 20
-1.3988858267716535
 30
0.0
 10
0.2961653543307087
 20
-1.3988858267716535
 30
0.0
 10
0.2961653543307087
 20
-1.3988858267716535
 30
0.0
 10
0.3295669291338583
 20
-1.4413818897637796
 30
0.0
 10
0.3295669291338583
 20
-1.4413818897637796
 30
0.0
  0
SPLINE
  5
4D
100
AcDbEntity
  8
Additional Graphics
 62
     9
100
AcDbSpline
210
0.0
220
0.0
230
1.0
 70
     1
 71
     3
 72
    20
 73
    16
 74
     0
 42
0.0000000001
 43
0.0000000001
 40
0.0
 40
0.0
 40
0.0
 40
0.0
 40
0.25
 40
0.25
 40
0.25
 40
0.25
 40
0.5
 40
0.5
 40
0.5
 40
0.5
 40
0.75
 40
0.75
 40
0.75
 40
0.75
 40
1.0
 40
1.0
 40
1.0
 40
1.0
 10
0.2961653543307087
 20
-1.3988858267716535
 30
0.0
 10
0.2961653543307087
 20
-1.3988858267716535
 30
0.0
 10
0.9400708661417323
 20
-1.0269409448818898
 30
0.0
 10
0.9400708661417323
 20
-1.0269409448818898
 30
0.0
 10
0.9400708661417323
 20
-1.0269409448818898
 30
0.0
 10
0.9400708661417323
 20
-1.0269409448818898
 30
0.0
 10
0.9047086614173229
 20
-0.9861220472440946
 30
0.0
 10
0.9047086614173229
 20
-0.9861220472440946
 30
0.0
 10
0.9047086614173229
 20
-0.9861220472440946
 30
0.0
 10
0.9047086614173229
 20
-0.9861220472440946
 30
0.0
 10
0.2608031496062992
 20
-1.3580669291338583
 30
0.0
 10
0.2608031496062992
 20
-1.3580669291338583
 30
0.0
 10
0.2608031496062992
 20
-1.3580669291338583
 30
0.0
 10
0.2608031496062992
 20
-1.3580669291338583
 30
0.0
 10
0.2961653543307087
 20
-1.3988858267716535
 30
0.0
 10
0.2961653543307087
 20
-1.3988858267716535
 30
0.0
  0
SPLINE
  5
4E
100
AcDbEntity
  8
Additional Graphics
 62
     9
100
AcDbSpline
210
0.0
220
0.0
230
1.0
 70
     1
 71
     3
 72
    20
 73
    16
 74
     0
 42
0.0000000001
 43
0.0000000001
 40
0.0
 40
0.0
 40
0.0
 40
0.0
 40
0.25
 40
0.25
 40
0.25
 40
0.25
 40
0.5
 40
0.5
 40
0.5
 40
0.5
 40
0.75
 40
0.75
 40
0.75
 40
0.75
 40
1.0
 40
1.0
 40
1.0
 40
1.0
 10
0.2608031496062992
 20
-1.3580669291338583
 30
0.0
 10
0.2608031496062992
 20
-1.3580669291338583
 30
0.0
 10
0.9047086614173229
 20
-0.9861220472440946
 30
0.0
 10
0.9047086614173229
 20
-0.9861220472440946
 30
0.0
 10
0.9047086614173229
 20
-0.9861220472440946
 30
0.0
 10
0.9047086614173229
 20
-0.9861220472440946
 30
0.0
 10
0.8674606299212598
 20
-0.9470511811023622
 30
0.0
 10
0.8674606299212598
 20
-0.9470511811023622
 30
0.0
 10
0.8674606299212598
 20
-0.9470511811023622
 30
0.0
 10
0.8674606299212598
 20
-0.9470511811023622
 30
0.0
 10
0.2235551181102362
 20
-1.318996062992126
 30
0.0
 10
0.2235551181102362
 20
-1.318996062992126
 30
0.0
 10
0.2235551181102362
 20
-1.318996062992126
 30
0.0
 10
0.2235551181102362
 20
-1.318996062992126
 30
0.0
 10
0.2608031496062992
 20
-1.3580669291338583
 30
0.0
 10
0.2608031496062992
 20
-1.3580669291338583
 30
0.0
  0
SPLINE
  5
4F
100
AcDbEntity
  8
Additional Graphics
 62
     9
100
AcDbSpline
210
0.0
220
0.0
230
1.0
 70
     1
 71
     3
 72
    20
 73
    16
 74
     0
 42
0.0000000001
 43
0.0000000001
 40
0.0
 40
0.0
 40
0.0
 40
0.0
 40
0.25
 40
0.25
 40
0.25
 40
0.25
 40
0.5
 40
0.5
 40
0.5
 40
0.5
 40
0.75
 40
0.75
 40
0.75
 40
0.75
 40
1.0
 40
1.0
 40
1.0
 40
1.0
 10
0.2235551181102362
 20
-1.318996062992126
 30
0.0
 10
0.2235551181102362
 20
-1.318996062992126
 30
0.0
 10
0.8674606299212598
 20
-0.9470511811023622
 30
0.0
 10
0.8674606299212598
 20
-0.9470511811023622
 30
0.0
 10
0.8674606299212598
 20
-0.9470511811023622
 30
0.0
 10
0.8674606299212598
 20
-0.9470511811023622
 30
0.0
 10
0.8283779527559055
 20
-0.9097952755905512
 30
0.0
 10
0.8283779527559055
 20
-0.9097952755905512
 30
0.0
 10
0.8283779527559055
 20
-0.9097952755905512
 30
0.0
 10
0.8283779527559055
 20
-0.9097952755905512
 30
0.0
 10
0.1844724409448819
 20
-1.2817401574803151
 30
0.0
 10
0.1844724409448819
 20
-1.2817401574803151
 30
0.0
 10
0.1844724409448819
 20
-1.2817401574803151
 30
0.0
 10
0.1844724409448819
 20
-1.2817401574803151
 30
0.0
 10
0.2235551181102362
 20
-1.318996062992126
 30
0.0
 10
0.2235551181102362
 20
-1.318996062992126
 30
0.0
  0
SPLINE
  5
50
100
AcDbEntity
  8
Additional Graphics
 62
     9
100
AcDbSpline
210
0.0
220
0.0
230
1.0
 70
     1
 71
     3
 72
    20
 73
    16
 74
     0
 42
0.0000000001
 43
0.0000000001
 40
0.0
 40
0.0
 40
0.0
 40
0.0
 40
0.25
 40
0.25
 40
0.25
 40
0.25
 40
0.5
 40
0.5
 40
0.5
 40
0.5
 40
0.75
 40
0.75
 40
0.75
 40
0.75
 40
1.0
 40
1.0
 40
1.0
 40
1.0
 10
0.1844724409448819
 20
-1.2817401574803151
 30
0.0
 10
0.1844724409448819
 20
-1.2817401574803151
 30
0.0
 10
0.8283779527559055
 20
-0.9097952755905512
 30
0.0
 10
0.8283779527559055
 20
-0.9097952755905512
 30
0.0
 10
0.8283779527559055
 20
-0.9097952755905512
 30
0.0
 10
0.8283779527559055
 20
-0.9097952755905512
 30
0.0
 10
0.7875590551181103
 20
-0.8744330708661418
 30
0.0
 10
0.7875590551181103
 20
-0.8744330708661418
 30
0.0
 10
0.7875590551181103
 20
-0.8744330708661418
 30
0.0
 10
0.7875590551181103
 20
-0.8744330708661418
 30
0.0
 10
0.1436535433070866
 20
-1.2463779527559056
 30
0.0
 10
0.1436535433070866
 20
-1.2463779527559056
 30
0.0
 10
0.1436535433070866
 20
-1.2463779527559056
 30
0.0
 10
0.1436535433070866
 20
-1.2463779527559056
 30
0.0
 10
0.1844724409448819
 20
-1.2817401574803151
 30
0.0
 10
0.1844724409448819
 20
-1.2817401574803151
 30
0.0
  0
SPLINE
  5
51
100
AcDbEntity
  8
Additional Graphics
 62
     9
100
AcDbSpline
210
0.0
220
0.0
230
1.0
 70
     1
 71
     3
 72
    20
 73
    16
 74
     0
 42
0.0000000001
 43
0.0000000001
 40
0.0
 40
0.0
 40
0.0
 40
0.0
 40
0.25
 40
0.25
 40
0.25
 40
0.25
 40
0.5
 40
0.5
 40
0.5
 40
0.5
 40
0.75
 40
0.75
 40
0.75
 40
0.75
 40
1.0
 40
1.0
 40
1.0
 40
1.0
 10
0.1436535433070866
 20
-1.2463779527559056
 30
0.0
 10
0.1436535433070866
 20
-1.2463779527559056
 30
0.0
 10
0.7875590551181103
 20
-0.8744330708661418
 30
0.0
 10
0.7875590551181103
 20
-0.8744330708661418
 30
0.0
 10
0.7875590551181103
 20
-0.8744330708661418
 30
0.0
 10
0.7875590551181103
 20
-0.8744330708661418
 30
0.0
 10
0.7450590551181102
 20
-0.8410314960629922
 30
0.0
 10
0.7450590551181102
 20
-0.8410314960629922
 30
0.0
 10
0.7450590551181102
 20
-0.8410314960629922
 30
0.0
 10
0.7450590551181102
 20
-0.8410314960629922
 30
0.0
 10
0.1011535433070866
 20
-1.212976377952756
 30
0.0
 10
0.1011535433070866
 20
-1.212976377952756
 30
0.0
 10
0.1011535433070866
 20
-1.212976377952756
 30
0.0
 10
0.1011535433070866
 20
-1.212976377952756
 30
0.0
 10
0.1436535433070866
 20
-1.2463779527559056
 30
0.0
 10
0.1436535433070866
 20
-1.2463779527559056
 30
0.0
  0
SPLINE
  5
52
100
AcDbEntity
  8
Additional Graphics
 62
     9
100
AcDbSpline
210
0.0
220
0.0
230
1.0
 70
     1
 71
     3
 72
    20
 73
    16
 74
     0
 42
0.0000000001
 43
0.0000000001
 40
0.0
 40
0.0
 40
0.0
 40
0.0
 40
0.25
 40
0.25
 40
0.25
 40
0.25
 40
0.5
 40
0.5
 40
0.5
 40
0.5
 40
0.75
 40
0.75
 40
0.75
 40
0.75
 40
1.0
 40
1.0
 40
1.0
 40
1.0
 10
0.1011535433070866
 20
-1.212976377952756
 30
0.0
 10
0.1011535433070866
 20
-1.212976377952756
 30
0.0
 10
0.7450590551181102
 20
-0.8410314960629922
 30
0.0
 10
0.7450590551181102
 20
-0.8410314960629922
 30
0.0
 10
0.7450590551181102
 20
-0.8410314960629922
 30
0.0
 10
0.7450590551181102
 20
-0.8410314960629922
 30
0.0
 10
0.7009566929133858
 20
-0.8096653543307087
 30
0.0
 10
0.7009566929133858
 20
-0.8096653543307087
 30
0.0
 10
0.7009566929133858
 20
-0.8096653543307087
 30
0.0
 10
0.7009566929133858
 20
-0.8096653543307087
 30
0.0
 10
0.0570511811023622
 20
-1.1816102362204726
 30
0.0
 10
0.0570511811023622
 20
-1.1816102362204726
 30
0.0
 10
0.0570511811023622
 20
-1.1816102362204726
 30
0.0
 10
0.0570511811023622
 20
-1.1816102362204726
 30
0.0
 10
0.1011535433070866
 20
-1.212976377952756
 30
0.0
 10
0.1011535433070866
 20
-1.212976377952756
 30
0.0
  0
SPLINE
  5
53
100
AcDbEntity
  8
Additional Graphics
 62
     9
100
AcDbSpline
210
0.0
220
0.0
230
1.0
 70
     1
 71
     3
 72
    20
 73
    16
 74
     0
 42
0.0000000001
 43
0.0000000001
 40
0.0
 40
0.0
 40
0.0
 40
0.0
 40
0.25
 40
0.25
 40
0.25
 40
0.25
 40
0.5
 40
0.5
 40
0.5
 40
0.5
 40
0.75
 40
0.75
 40
0.75
 40
0.75
 40
1.0
 40
1.0
 40
1.0
 40
1.0
 10
0.0570511811023622
 20
-1.1816102362204726
 30
0.0
 10
0.0570511811023622
 20
-1.1816102362204726
 30
0.0
 10
0.7009566929133858
 20
-0.8096653543307087
 30
0.0
 10
0.7009566929133858
 20
-0.8096653543307087
 30
0.0
 10
0.7009566929133858
 20
-0.8096653543307087
 30
0.0
 10
0.7009566929133858
 20
-0.8096653543307087
 30
0.0
 10
0.6553149606299213
 20
-0.7803976377952756
 30
0.0
 10
0.6553149606299213
 20
-0.7803976377952756
 30
0.0
 10
0.6553149606299213
 20
-0.7803976377952756
 30
0.0
 10
0.6553149606299213
 20
-0.7803976377952756
 30
0.0
 10
0.0114094488188976
 20
-1.1523425196850394
 30
0.0
 10
0.0114094488188976
 20
-1.1523425196850394
 30
0.0
 10
0.0114094488188976
 20
-1.1523425196850394
 30
0.0
 10
0.0114094488188976
 20
-1.1523425196850394
 30
0.0
 10
0.0570511811023622
 20
-1.1816102362204726
 30
0.0
 10
0.0570511811023622
 20
-1.1816102362204726
 30
0.0
  0
SPLINE
  5
54
100
AcDbEntity
  8
Additional Graphics
 62
   253
100
AcDbSpline
210
0.0
220
0.0
230
1.0
 70
     1
 71
     3
 72
    20
 73
    16
 74
     0
 42
0.0000000001
 43
0.0000000001
 40
0.0
 40
0.0
 40
0.0
 40
0.0
 40
0.25
 40
0.25
 40
0.25
 40
0.25
 40
0.5
 40
0.5
 40
0.5
 40
0.5
 40
0.75
 40
0.75
 40
0.75
 40
0.75
 40
1.0
 40
1.0
 40
1.0
 40
1.0
 10
0.0114094488188976
 20
-1.1523425196850394
 30
0.0
 10
0.0114094488188976
 20
-1.1523425196850394
 30
0.0
 10
0.6553149606299213
 20
-0.7803976377952756
 30
0.0
 10
0.6553149606299213
 20
-0.7803976377952756
 30
0.0
 10
0.6553149606299213
 20
-0.7803976377952756
 30
0.0
 10
0.6553149606299213
 20
-0.7803976377952756
 30
0.0
 10
0.6082086614173229
 20
-0.7533031496062993
 30
0.0
 10
0.6082086614173229
 20
-0.7533031496062993
 30
0.0
 10
0.6082086614173229
 20
-0.7533031496062993
 30
0.0
 10
0.6082086614173229
 20
-0.7533031496062993
 30
0.0
 10
-0.0356968503937008
 20
-1.1252480314960631
 30
0.0
 10
-0.0356968503937008
 20
-1.1252480314960631
 30
0.0
 10
-0.0356968503937008
 20
-1.1252480314960631
 30
0.0
 10
-0.0356968503937008
 20
-1.1252480314960631
 30
0.0
 10
0.0114094488188976
 20
-1.1523425196850394
 30
0.0
 10
0.0114094488188976
 20
-1.1523425196850394
 30
0.0
  0
SPLINE
  5
55
100
AcDbEntity
  8
Additional Graphics
 62
   253
100
AcDbSpline
210
0.0
220
0.0
230
1.0
 70
     1
 71
     3
 72
    20
 73
    16
 74
     0
 42
0.0000000001
 43
0.0000000001
 40
0.0
 40
0.0
 40
0.0
 40
0.0
 40
0.25
 40
0.25
 40
0.25
 40
0.25
 40
0.5
 40
0.5
 40
0.5
 40
0.5
 40
0.75
 40
0.75
 40
0.75
 40
0.75
 40
1.0
 40
1.0
 40
1.0
 40
1.0
 10
-0.0356968503937008
 20
-1.1252480314960631
 30
0.0
 10
-0.0356968503937008
 20
-1.1252480314960631
 30
0.0
 10
0.6082086614173229
 20
-0.7533031496062993
 30
0.0
 10
0.6082086614173229
 20
-0.7533031496062993
 30
0.0
 10
0.6082086614173229
 20
-0.7533031496062993
 30
0.0
 10
0.6082086614173229
 20
-0.7533031496062993
 30
0.0
 10
0.5597007874015748
 20
-0.7284527559055118
 30
0.0
 10
0.5597007874015748
 20
-0.7284527559055118
 30
0.0
 10
0.5597007874015748
 20
-0.7284527559055118
 30
0.0
 10
0.5597007874015748
 20
-0.7284527559055118
 30
0.0
 10
-0.0842047244094488
 20
-1.1003976377952756
 30
0.0
 10
-0.0842047244094488
 20
-1.1003976377952756
 30
0.0
 10
-0.0842047244094488
 20
-1.1003976377952756
 30
0.0
 10
-0.0842047244094488
 20
-1.1003976377952756
 30
0.0
 10
-0.0356968503937008
 20
-1.1252480314960631
 30
0.0
 10
-0.0356968503937008
 20
-1.1252480314960631
 30
0.0
  0
SPLINE
  5
56
100
AcDbEntity
  8
Additional Graphics
 62
   253
100
AcDbSpline
210
0.0
220
0.0
230
1.0
 70
     1
 71
     3
 72
    20
 73
    16
 74
     0
 42
0.0000000001
 43
0.0000000001
 40
0.0
 40
0.0
 40
0.0
 40
0.0
 40
0.25
 40
0.25
 40
0.25
 40
0.25
 40
0.5
 40
0.5
 40
0.5
 40
0.5
 40
0.75
 40
0.75
 40
0.75
 40
0.75
 40
1.0
 40
1.0
 40
1.0
 40
1.0
 10
-0.0842047244094488
 20
-1.1003976377952756
 30
0.0
 10
-0.0842047244094488
 20
-1.1003976377952756
 30
0.0
 10
0.5597007874015748
 20
-0.7284527559055118
 30
0.0
 10
0.5597007874015748
 20
-0.7284527559055118
 30
0.0
 10
0.5597007874015748
 20
-0.7284527559055118
 30
0.0
 10
0.5597007874015748
 20
-0.7284527559055118
 30
0.0
 10
0.5098661417322835
 20
-0.7059291338582677
 30
0.0
 10
0.5098661417322835
 20
-0.7059291338582677
 30
0.0
 10
0.5098661417322835
 20
-0.7059291338582677
 30
0.0
 10
0.5098661417322835
 20
-0.7059291338582677
 30
0.0
 10
-0.1340393700787402
 20
-1.0778740157480315
 30
0.0
 10
-0.1340393700787402
 20
-1.0778740157480315
 30
0.0
 10
-0.1340393700787402
 20
-1.0778740157480315
 30
0.0
 10
-0.1340393700787402
 20
-1.0778740157480315
 30
0.0
 10
-0.0842047244094488
 20
-1.1003976377952756
 30
0.0
 10
-0.0842047244094488
 20
-1.1003976377952756
 30
0.0
  0
SPLINE
  5
57
100
AcDbEntity
  8
Additional Graphics
 62
   253
100
AcDbSpline
210
0.0
220
0.0
230
1.0
 70
     1
 71
     3
 72
    20
 73
    16
 74
     0
 42
0.0000000001
 43
0.0000000001
 40
0.0
 40
0.0
 40
0.0
 40
0.0
 40
0.25
 40
0.25
 40
0.25
 40
0.25
 40
0.5
 40
0.5
 40
0.5
 40
0.5
 40
0.75
 40
0.75
 40
0.75
 40
0.75
 40
1.0
 40
1.0
 40
1.0
 40
1.0
 10
-0.1340393700787402
 20
-1.0778740157480315
 30
0.0
 10
-0.1340393700787402
 20
-1.0778740157480315
 30
0.0
 10
0.5098661417322835
 20
-0.7059291338582677
 30
0.0
 10
0.5098661417322835
 20
-0.7059291338582677
 30
0.0
 10
0.5098661417322835
 20
-0.7059291338582677
 30
0.0
 10
0.5098661417322835
 20
-0.7059291338582677
 30
0.0
 10
0.4587834645669291
 20
-0.6857795275590551
 30
0.0
 10
0.4587834645669291
 20
-0.6857795275590551
 30
0.0
 10
0.4587834645669291
 20
-0.6857795275590551
 30
0.0
 10
0.4587834645669291
 20
-0.6857795275590551
 30
0.0
 10
-0.1851220472440945
 20
-1.057724409448819
 30
0.0
 10
-0.1851220472440945
 20
-1.057724409448819
 30
0.0
 10
-0.1851220472440945
 20
-1.057724409448819
 30
0.0
 10
-0.1851220472440945
 20
-1.057724409448819
 30
0.0
 10
-0.1340393700787402
 20
-1.0778740157480315
 30
0.0
 10
-0.1340393700787402
 20
-1.0778740157480315
 30
0.0
  0
SPLINE
  5
58
100
AcDbEntity
  8
Additional Graphics
 62
   253
100
AcDbSpline
210
0.0
220
0.0
230
1.0
 70
     1
 71
     3
 72
    20
 73
    16
 74
     0
 42
0.0000000001
 43
0.0000000001
 40
0.0
 40
0.0
 40
0.0
 40
0.0
 40
0.25
 40
0.25
 40
0.25
 40
0.25
 40
0.5
 40
0.5
 40
0.5
 40
0.5
 40
0.75
 40
0.75
 40
0.75
 40
0.75
 40
1.0
 40
1.0
 40
1.0
 40
1.0
 10
-0.1851220472440945
 20
-1.057724409448819
 30
0.0
 10
-0.1851220472440945
 20
-1.057724409448819
 30
0.0
 10
0.4587834645669291
 20
-0.6857795275590551
 30
0.0
 10
0.4587834645669291
 20
-0.6857795275590551
 30
0.0
 10
0.4587834645669291
 20
-0.6857795275590551
 30
0.0
 10
0.4587834645669291
 20
-0.6857795275590551
 30
0.0
 10
0.4065157480314961
 20
-0.6680866141732283
 30
0.0
 10
0.4065157480314961
 20
-0.6680866141732283
 30
0.0
 10
0.4065157480314961
 20
-0.6680866141732283
 30
0.0
 10
0.4065157480314961
 20
-0.6680866141732283
 30
0.0
 10
-0.2373897637795276
 20
-1.0400314960629922
 30
0.0
 10
-0.2373897637795276
 20
-1.0400314960629922
 30
0.0
 10
-0.2373897637795276
 20
-1.0400314960629922
 30
0.0
 10
-0.2373897637795276
 20
-1.0400314960629922
 30
0.0
 10
-0.1851220472440945
 20
-1.057724409448819
 30
0.0
 10
-0.1851220472440945
 20
-1.057724409448819
 30
0.0
  0
SPLINE
  5
59
100
AcDbEntity
  8
Additional Graphics
 62
   253
100
AcDbSpline
210
0.0
220
0.0
230
1.0
 70
     1
 71
     3
 72
    20
 73
    16
 74
     0
 42
0.0000000001
 43
0.0000000001
 40
0.0
 40
0.0
 40
0.0
 40
0.0
 40
0.25
 40
0.25
 40
0.25
 40
0.25
 40
0.5
 40
0.5
 40
0.5
 40
0.5
 40
0.75
 40
0.75
 40
0.75
 40
0.75
 40
1.0
 40
1.0
 40
1.0
 40
1.0
 10
-0.2373897637795276
 20
-1.0400314960629922
 30
0.0
 10
-0.2373897637795276
 20
-1.0400314960629922
 30
0.0
 10
0.4065157480314961
 20
-0.6680866141732283
 30
0.0
 10
0.4065157480314961
 20
-0.6680866141732283
 30
0.0
 10
0.4065157480314961
 20
-0.6680866141732283
 30
0.0
 10
0.4065157480314961
 20
-0.6680866141732283
 30
0.0
 10
0.3531377952755906
 20
-0.6529212598425197
 30
0.0
 10
0.3531377952755906
 20
-0.6529212598425197
 30
0.0
 10
0.3531377952755906
 20
-0.6529212598425197
 30
0.0
 10
0.3531377952755906
 20
-0.6529212598425197
 30
0.0
 10
-0.2907677165354331
 20
-1.0248661417322835
 30
0.0
 10
-0.2907677165354331
 20
-1.0248661417322835
 30
0.0
 10
-0.2907677165354331
 20
-1.0248661417322835
 30
0.0
 10
-0.2907677165354331
 20
-1.0248661417322835
 30
0.0
 10
-0.2373897637795276
 20
-1.0400314960629922
 30
0.0
 10
-0.2373897637795276
 20
-1.0400314960629922
 30
0.0
  0
SPLINE
  5
5A
100
AcDbEntity
  8
Additional Graphics
 62
   253
100
AcDbSpline
210
0.0
220
0.0
230
1.0
 70
     1
 71
     3
 72
    20
 73
    16
 74
     0
 42
0.0000000001
 43
0.0000000001
 40
0.0
 40
0.0
 40
0.0
 40
0.0
 40
0.25
 40
0.25
 40
0.25
 40
0.25
 40
0.5
 40
0.5
 40
0.5
 40
0.5
 40
0.75
 40
0.75
 40
0.75
 40
0.75
 40
1.0
 40
1.0
 40
1.0
 40
1.0
 10
-0.2907677165354331
 20
-1.0248661417322835
 30
0.0
 10
-0.2907677165354331
 20
-1.0248661417322835
 30
0.0
 10
0.3531377952755906
 20
-0.6529212598425197
 30
0.0
 10
0.3531377952755906
 20
-0.6529212598425197
 30
0.0
 10
0.3531377952755906
 20
-0.6529212598425197
 30
0.0
 10
0.3531377952755906
 20
-0.6529212598425197
 30
0.0
 10
0.2987125984251969
 20
-0.6403661417322835
 30
0.0
 10
0.2987125984251969
 20
-0.6403661417322835
 30
0.0
 10
0.2987125984251969
 20
-0.6403661417322835
 30
0.0
 10
0.2987125984251969
 20
-0.6403661417322835
 30
0.0
 10
-0.3451929133858268
 20
-1.0123110236220474
 30
0.0
 10
-0.3451929133858268
 20
-1.0123110236220474
 30
0.0
 10
-0.3451929133858268
 20
-1.0123110236220474
 30
0.0
 10
-0.3451929133858268
 20
-1.0123110236220474
 30
0.0
 10
-0.2907677165354331
 20
-1.0248661417322835
 30
0.0
 10
-0.2907677165354331
 20
-1.0248661417322835
 30
0.0
  0
SPLINE
  5
5B
100
AcDbEntity
  8
Additional Graphics
 62
   253
100
AcDbSpline
210
0.0
220
0.0
230
1.0
 70
     1
 71
     3
 72
    20
 73
    16
 74
     0
 42
0.0000000001
 43
0.0000000001
 40
0.0
 40
0.0
 40
0.0
 40
0.0
 40
0.25
 40
0.25
 40
0.25
 40
0.25
 40
0.5
 40
0.5
 40
0.5
 40
0.5
 40
0.75
 40
0.75
 40
0.75
 40
0.75
 40
1.0
 40
1.0
 40
1.0
 40
1.0
 10
-0.3451929133858268
 20
-1.0123110236220474
 30
0.0
 10
-0.3451929133858268
 20
-1.0123110236220474
 30
0.0
 10
0.2987125984251969
 20
-0.6403661417322835
 30
0.0
 10
0.2987125984251969
 20
-0.6403661417322835
 30
0.0
 10
0.2987125984251969
 20
-0.6403661417322835
 30
0.0
 10
0.2987125984251969
 20
-0.6403661417322835
 30
0.0
 10
0.2433188976377953
 20
-0.6304685039370079
 30
0.0
 10
0.2433188976377953
 20
-0.6304685039370079
 30
0.0
 10
0.2433188976377953
 20
-0.6304685039370079
 30
0.0
 10
0.2433188976377953
 20
-0.6304685039370079
 30
0.0
 10
-0.4005866141732284
 20
-1.0024133858267716
 30
0.0
 10
-0.4005866141732284
 20
-1.0024133858267716
 30
0.0
 10
-0.4005866141732284
 20
-1.0024133858267716
 30
0.0
 10
-0.4005866141732284
 20
-1.0024133858267716
 30
0.0
 10
-0.3451929133858268
 20
-1.0123110236220474
 30
0.0
 10
-0.3451929133858268
 20
-1.0123110236220474
 30
0.0
  0
SPLINE
  5
5C
100
AcDbEntity
  8
Additional Graphics
 62
   253
100
AcDbSpline
210
0.0
220
0.0
230
1.0
 70
     1
 71
     3
 72
    20
 73
    16
 74
     0
 42
0.0000000001
 43
0.0000000001
 40
0.0
 40
0.0
 40
0.0
 40
0.0
 40
0.25
 40
0.25
 40
0.25
 40
0.25
 40
0.5
 40
0.5
 40
0.5
 40
0.5
 40
0.75
 40
0.75
 40
0.75
 40
0.75
 40
1.0
 40
1.0
 40
1.0
 40
1.0
 10
-0.4005866141732284
 20
-1.0024133858267716
 30
0.0
 10
-0.4005866141732284
 20
-1.0024133858267716
 30
0.0
 10
0.2433188976377953
 20
-0.6304685039370079
 30
0.0
 10
0.2433188976377953
 20
-0.6304685039370079
 30
0.0
 10
0.2433188976377953
 20
-0.6304685039370079
 30
0.0
 10
0.2433188976377953
 20
-0.6304685039370079
 30
0.0
 10
0.1870236220472441
 20
-0.6233110236220473
 30
0.0
 10
0.1870236220472441
 20
-0.6233110236220473
 30
0.0
 10
0.1870236220472441
 20
-0.6233110236220473
 30
0.0
 10
0.1870236220472441
 20
-0.6233110236220473
 30
0.0
 10
-0.4568818897637795
 20
-0.9952559055118111
 30
0.0
 10
-0.4568818897637795
 20
-0.9952559055118111
 30
0.0
 10
-0.4568818897637795
 20
-0.9952559055118111
 30
0.0
 10
-0.4568818897637795
 20
-0.9952559055118111
 30
0.0
 10
-0.4005866141732284
 20
-1.0024133858267716
 30
0.0
 10
-0.4005866141732284
 20
-1.0024133858267716
 30
0.0
  0
SPLINE
  5
5D
100
AcDbEntity
  8
Additional Graphics
 62
   253
100
AcDbSpline
210
0.0
220
0.0
230
1.0
 70
     1
 71
     3
 72
    20
 73
    16
 74
     0
 42
0.0000000001
 43
0.0000000001
 40
0.0
 40
0.0
 40
0.0
 40
0.0
 40
0.25
 40
0.25
 40
0.25
 40
0.25
 40
0.5
 40
0.5
 40
0.5
 40
0.5
 40
0.75
 40
0.75
 40
0.75
 40
0.75
 40
1.0
 40
1.0
 40
1.0
 40
1.0
 10
-0.4568818897637795
 20
-0.9952559055118111
 30
0.0
 10
-0.4568818897637795
 20
-0.9952559055118111
 30
0.0
 10
0.1870236220472441
 20
-0.6233110236220473
 30
0.0
 10
0.1870236220472441
 20
-0.6233110236220473
 30
0.0
 10
0.1870236220472441
 20
-0.6233110236220473
 30
0.0
 10
0.1870236220472441
 20
-0.6233110236220473
 30
0.0
 10
0.1298976377952756
 20
-0.6189645669291339
 30
0.0
 10
0.1298976377952756
 20
-0.6189645669291339
 30
0.0
 10
0.1298976377952756
 20
-0.6189645669291339
 30
0.0
 10
0.1298976377952756
 20
-0.6189645669291339
 30
0.0
 10
-0.5140078740157481
 20
-0.9909094488188976
 30
0.0
 10
-0.5140078740157481
 20
-0.9909094488188976
 30
0.0
 10
-0.5140078740157481
 20
-0.9909094488188976
 30
0.0
 10
-0.5140078740157481
 20
-0.9909094488188976
 30
0.0
 10
-0.4568818897637795
 20
-0.9952559055118111
 30
0.0
 10
-0.4568818897637795
 20
-0.9952559055118111
 30
0.0
  0
SPLINE
  5
5E
100
AcDbEntity
  8
Additional Graphics
 62
   253
100
AcDbSpline
210
0.0
220
0.0
230
1.0
 70
     1
 71
     3
 72
    20
 73
    16
 74
     0
 42
0.0000000001
 43
0.0000000001
 40
0.0
 40
0.0
 40
0.0
 40
0.0
 40
0.25
 40
0.25
 40
0.25
 40
0.25
 40
0.5
 40
0.5
 40
0.5
 40
0.5
 40
0.75
 40
0.75
 40
0.75
 40
0.75
 40
1.0
 40
1.0
 40
1.0
 40
1.0
 10
-0.5140078740157481
 20
-0.9909094488188976
 30
0.0
 10
-0.5140078740157481
 20
-0.9909094488188976
 30
0.0
 10
0.1298976377952756
 20
-0.6189645669291339
 30
0.0
 10
0.1298976377952756
 20
-0.6189645669291339
 30
0.0
 10
0.1298976377952756
 20
-0.6189645669291339
 30
0.0
 10
0.1298976377952756
 20
-0.6189645669291339
 30
0.0
 10
0.072011811023622
 20
-0.617507874015748
 30
0.0
 10
0.072011811023622
 20
-0.617507874015748
 30
0.0
 10
0.072011811023622
 20
-0.617507874015748
 30
0.0
 10
0.072011811023622
 20
-0.617507874015748
 30
0.0
 10
-0.5718937007874017
 20
-0.9894527559055119
 30
0.0
 10
-0.5718937007874017
 20
-0.9894527559055119
 30
0.0
 10
-0.5718937007874017
 20
-0.9894527559055119
 30
0.0
 10
-0.5718937007874017
 20
-0.9894527559055119
 30
0.0
 10
-0.5140078740157481
 20
-0.9909094488188976
 30
0.0
 10
-0.5140078740157481
 20
-0.9909094488188976
 30
0.0
  0
SPLINE
  5
5F
100
AcDbEntity
  8
Additional Graphics
370
     5
100
AcDbSpline
210
0.0
220
0.0
230
1.0
 70
     1
 71
     3
 72
   428
 73
   424
 74
     0
 42
0.0000000001
 43
0.0000000001
 40
0.0
 40
0.0
 40
0.0
 40
0.0
 40
0.0094339622641509
 40
0.0094339622641509
 40
0.0094339622641509
 40
0.0094339622641509
 40
0.0188679245283019
 40
0.0188679245283019
 40
0.0188679245283019
 40
0.0188679245283019
 40
0.0283018867924528
 40
0.0283018867924528
 40
0.0283018867924528
 40
0.0283018867924528
 40
0.0377358490566038
 40
0.0377358490566038
 40
0.0377358490566038
 40
0.0377358490566038
 40
0.0471698113207547
 40
0.0471698113207547
 40
0.0471698113207547
 40
0.0471698113207547
 40
0.0566037735849057
 40
0.0566037735849057
 40
0.0566037735849057
 40
0.0566037735849057
 40
0.0660377358490566
 40
0.0660377358490566
 40
0.0660377358490566
 40
0.0660377358490566
 40
0.0754716981132075
 40
0.0754716981132075
 40
0.0754716981132075
 40
0.0754716981132075
 40
0.0849056603773585
 40
0.0849056603773585
 40
0.0849056603773585
 40
0.0849056603773585
 40
0.0943396226415094
 40
0.0943396226415094
 40
0.0943396226415094
 40
0.0943396226415094
 40
0.1037735849056604
 40
0.1037735849056604
 40
0.1037735849056604
 40
0.1037735849056604
 40
0.1132075471698113
 40
0.1132075471698113
 40
0.1132075471698113
 40
0.1132075471698113
 40
0.1226415094339623
 40
0.1226415094339623
 40
0.1226415094339623
 40
0.1226415094339623
 40
0.1320754716981132
 40
0.1320754716981132
 40
0.1320754716981132
 40
0.1320754716981132
 40
0.1415094339622642
 40
0.1415094339622642
 40
0.1415094339622642
 40
0.1415094339622642
 40
0.1509433962264151
 40
0.1509433962264151
 40
0.1509433962264151
 40
0.1509433962264151
 40
0.160377358490566
 40
0.160377358490566
 40
0.160377358490566
 40
0.160377358490566
 40
0.169811320754717
 40
0.169811320754717
 40
0.169811320754717
 40
0.169811320754717
 40
0.1792452830188679
 40
0.1792452830188679
 40
0.1792452830188679
 40
0.1792452830188679
 40
0.1886792452830189
 40
0.1886792452830189
 40
0.1886792452830189
 40
0.1886792452830189
 40
0.1981132075471698
 40
0.1981132075471698
 40
0.1981132075471698
 40
0.1981132075471698
 40
0.2075471698113207
 40
0.2075471698113207
 40
0.2075471698113207
 40
0.2075471698113207
 40
0.2169811320754717
 40
0.2169811320754717
 40
0.2169811320754717
 40
0.2169811320754717
 40
0.2264150943396226
 40
0.2264150943396226
 40
0.2264150943396226
 40
0.2264150943396226
 40
0.2358490566037736
 40
0.2358490566037736
 40
0.2358490566037736
 40
0.2358490566037736
 40
0.2452830188679245
 40
0.2452830188679245
 40
0.2452830188679245
 40
0.2452830188679245
 40
0.2547169811320755
 40
0.2547169811320755
 40
0.2547169811320755
 40
0.2547169811320755
 40
0.2641509433962264
 40
0.2641509433962264
 40
0.2641509433962264
 40
0.2641509433962264
 40
0.2735849056603774
 40
0.2735849056603774
 40
0.2735849056603774
 40
0.2735849056603774
 40
0.2830188679245283
 40
0.2830188679245283
 40
0.2830188679245283
 40
0.2830188679245283
 40
0.2924528301886792
 40
0.2924528301886792
 40
0.2924528301886792
 40
0.2924528301886792
 40
0.3018867924528302
 40
0.3018867924528302
 40
0.3018867924528302
 40
0.3018867924528302
 40
0.3113207547169811
 40
0.3113207547169811
 40
0.3113207547169811
 40
0.3113207547169811
 40
0.3207547169811321
 40
0.3207547169811321
 40
0.3207547169811321
 40
0.3207547169811321
 40
0.330188679245283
 40
0.330188679245283
 40
0.330188679245283
 40
0.330188679245283
 40
0.3396226415094339
 40
0.3396226415094339
 40
0.3396226415094339
 40
0.3396226415094339
 40
0.3490566037735849
 40
0.3490566037735849
 40
0.3490566037735849
 40
0.3490566037735849
 40
0.3584905660377358
 40
0.3584905660377358
 40
0.3584905660377358
 40
0.3584905660377358
 40
0.3679245283018868
 40
0.3679245283018868
 40
0.3679245283018868
 40
0.3679245283018868
 40
0.3773584905660377
 40
0.3773584905660377
 40
0.3773584905660377
 40
0.3773584905660377
 40
0.3867924528301887
 40
0.3867924528301887
 40
0.3867924528301887
 40
0.3867924528301887
 40
0.3962264150943396
 40
0.3962264150943396
 40
0.3962264150943396
 40
0.3962264150943396
 40
0.4056603773584905
 40
0.4056603773584905
 40
0.4056603773584905
 40
0.4056603773584905
 40
0.4150943396226415
 40
0.4150943396226415
 40
0.4150943396226415
 40
0.4150943396226415
 40
0.4245283018867924
 40
0.4245283018867924
 40
0.4245283018867924
 40
0.4245283018867924
 40
0.4339622641509434
 40
0.4339622641509434
 40
0.4339622641509434
 40
0.4339622641509434
 40
0.4433962264150943
 40
0.4433962264150943
 40
0.4433962264150943
 40
0.4433962264150943
 40
0.4528301886792452
 40
0.4528301886792452
 40
0.4528301886792452
 40
0.4528301886792452
 40
0.4622641509433962
 40
0.4622641509433962
 40
0.4622641509433962
 40
0.4622641509433962
 40
0.4716981132075471
 40
0.4716981132075471
 40
0.4716981132075471
 40
0.4716981132075471
 40
0.4811320754716981
 40
0.4811320754716981
 40
0.4811320754716981
 40
0.4811320754716981
 40
0.490566037735849
 40
0.490566037735849
 40
0.490566037735849
 40
0.490566037735849
 40
0.4999999999999999
 40
0.4999999999999999
 40
0.4999999999999999
 40
0.4999999999999999
 40
0.5094339622641509
 40
0.5094339622641509
 40
0.5094339622641509
 40
0.5094339622641509
 40
0.5188679245283019
 40
0.5188679245283019
 40
0.5188679245283019
 40
0.5188679245283019
 40
0.5283018867924528
 40
0.5283018867924528
 40
0.5283018867924528
 40
0.5283018867924528
 40
0.5377358490566038
 40
0.5377358490566038
 40
0.5377358490566038
 40
0.5377358490566038
 40
0.5471698113207547
 40
0.5471698113207547
 40
0.5471698113207547
 40
0.5471698113207547
 40
0.5566037735849057
 40
0.5566037735849057
 40
0.5566037735849057
 40
0.5566037735849057
 40
0.5660377358490566
 40
0.5660377358490566
 40
0.5660377358490566
 40
0.5660377358490566
 40
0.5754716981132075
 40
0.5754716981132075
 40
0.5754716981132075
 40
0.5754716981132075
 40
0.5849056603773585
 40
0.5849056603773585
 40
0.5849056603773585
 40
0.5849056603773585
 40
0.5943396226415094
 40
0.5943396226415094
 40
0.5943396226415094
 40
0.5943396226415094
 40
0.6037735849056604
 40
0.6037735849056604
 40
0.6037735849056604
 40
0.6037735849056604
 40
0.6132075471698113
 40
0.6132075471698113
 40
0.6132075471698113
 40
0.6132075471698113
 40
0.6226415094339622
 40
0.6226415094339622
 40
0.6226415094339622
 40
0.6226415094339622
 40
0.6320754716981132
 40
0.6320754716981132
 40
0.6320754716981132
 40
0.6320754716981132
 40
0.6415094339622641
 40
0.6415094339622641
 40
0.6415094339622641
 40
0.6415094339622641
 40
0.6509433962264151
 40
0.6509433962264151
 40
0.6509433962264151
 40
0.6509433962264151
 40
0.660377358490566
 40
0.660377358490566
 40
0.660377358490566
 40
0.660377358490566
 40
0.6698113207547169
 40
0.6698113207547169
 40
0.6698113207547169
 40
0.6698113207547169
 40
0.6792452830188679
 40
0.6792452830188679
 40
0.6792452830188679
 40
0.6792452830188679
 40
0.6886792452830188
 40
0.6886792452830188
 40
0.6886792452830188
 40
0.6886792452830188
 40
0.6981132075471698
 40
0.6981132075471698
 40
0.6981132075471698
 40
0.6981132075471698
 40
0.7075471698113207
 40
0.7075471698113207
 40
0.7075471698113207
 40
0.7075471698113207
 40
0.7169811320754717
 40
0.7169811320754717
 40
0.7169811320754717
 40
0.7169811320754717
 40
0.7264150943396226
 40
0.7264150943396226
 40
0.7264150943396226
 40
0.7264150943396226
 40
0.7358490566037735
 40
0.7358490566037735
 40
0.7358490566037735
 40
0.7358490566037735
 40
0.7452830188679245
 40
0.7452830188679245
 40
0.7452830188679245
 40
0.7452830188679245
 40
0.7547169811320754
 40
0.7547169811320754
 40
0.7547169811320754
 40
0.7547169811320754
 40
0.7641509433962264
 40
0.7641509433962264
 40
0.7641509433962264
 40
0.7641509433962264
 40
0.7735849056603773
 40
0.7735849056603773
 40
0.7735849056603773
 40
0.7735849056603773
 40
0.7830188679245282
 40
0.7830188679245282
 40
0.7830188679245282
 40
0.7830188679245282
 40
0.7924528301886792
 40
0.7924528301886792
 40
0.7924528301886792
 40
0.7924528301886792
 40
0.8018867924528301
 40
0.8018867924528301
 40
0.8018867924528301
 40
0.8018867924528301
 40
0.8113207547169811
 40
0.8113207547169811
 40
0.8113207547169811
 40
0.8113207547169811
 40
0.820754716981132
 40
0.820754716981132
 40
0.820754716981132
 40
0.820754716981132
 40
0.830188679245283
 40
0.830188679245283
 40
0.830188679245283
 40
0.830188679245283
 40
0.8396226415094339
 40
0.8396226415094339
 40
0.8396226415094339
 40
0.8396226415094339
 40
0.8490566037735848
 40
0.8490566037735848
 40
0.8490566037735848
 40
0.8490566037735848
 40
0.8584905660377358
 40
0.8584905660377358
 40
0.8584905660377358
 40
0.8584905660377358
 40
0.8679245283018867
 40
0.8679245283018867
 40
0.8679245283018867
 40
0.8679245283018867
 40
0.8773584905660377
 40
0.8773584905660377
 40
0.8773584905660377
 40
0.8773584905660377
 40
0.8867924528301886
 40
0.8867924528301886
 40
0.8867924528301886
 40
0.8867924528301886
 40
0.8962264150943395
 40
0.8962264150943395
 40
0.8962264150943395
 40
0.8962264150943395
 40
0.9056603773584905
 40
0.9056603773584905
 40
0.9056603773584905
 40
0.9056603773584905
 40
0.9150943396226414
 40
0.9150943396226414
 40
0.9150943396226414
 40
0.9150943396226414
 40
0.9245283018867924
 40
0.9245283018867924
 40
0.9245283018867924
 40
0.9245283018867924
 40
0.9339622641509433
 40
0.9339622641509433
 40
0.9339622641509433
 40
0.9339622641509433
 40
0.9433962264150942
 40
0.9433962264150942
 40
0.9433962264150942
 40
0.9433962264150942
 40
0.9528301886792452
 40
0.9528301886792452
 40
0.9528301886792452
 40
0.9528301886792452
 40
0.9622641509433961
 40
0.9622641509433961
 40
0.9622641509433961
 40
0.9622641509433961
 40
0.9716981132075471
 40
0.9716981132075471
 40
0.9716981132075471
 40
0.9716981132075471
 40
0.981132075471698
 40
0.981132075471698
 40
0.981132075471698
 40
0.981132075471698
 40
0.990566037735849
 40
0.990566037735849
 40
0.990566037735849
 40
0.990566037735849
 40
1.0
 40
1.0
 40
1.0
 40
1.0
 10
0.0570511811023622
 20
-3.047287401574803
 30
0.0
 10
0.0570511811023622
 20
-3.047287401574803
 30
0.0
 10
0.7009566929133858
 20
-2.6753425196850396
 30
0.0
 10
0.7009566929133858
 20
-2.6753425196850396
 30
0.0
 10
0.7009566929133858
 20
-2.6753425196850396
 30
0.0
 10
0.7009566929133858
 20
-2.6753425196850396
 30
0.0
 10
0.7450590551181102
 20
-2.6439724409448822
 30
0.0
 10
0.7450590551181102
 20
-2.6439724409448822
 30
0.0
 10
0.7450590551181102
 20
-2.6439724409448822
 30
0.0
 10
0.7450590551181102
 20
-2.6439724409448822
 30
0.0
 10
0.7875590551181103
 20
-2.6105708661417322
 30
0.0
 10
0.7875590551181103
 20
-2.6105708661417322
 30
0.0
 10
0.7875590551181103
 20
-2.6105708661417322
 30
0.0
 10
0.7875590551181103
 20
-2.6105708661417322
 30
0.0
 10
0.8283779527559055
 20
-2.5752086614173231
 30
0.0
 10
0.8283779527559055
 20
-2.5752086614173231
 30
0.0
 10
0.8283779527559055
 20
-2.5752086614173231
 30
0.0
 10
0.8283779527559055
 20
-2.5752086614173231
 30
0.0
 10
0.8674606299212598
 20
-2.53796062992126
 30
0.0
 10
0.8674606299212598
 20
-2.53796062992126
 30
0.0
 10
0.8674606299212598
 20
-2.53796062992126
 30
0.0
 10
0.8674606299212598
 20
-2.53796062992126
 30
0.0
 10
0.9047086614173229
 20
-2.4988779527559055
 30
0.0
 10
0.9047086614173229
 20
-2.4988779527559055
 30
0.0
 10
0.9047086614173229
 20
-2.4988779527559055
 30
0.0
 10
0.9047086614173229
 20
-2.4988779527559055
 30
0.0
 10
0.9400708661417323
 20
-2.4580590551181105
 30
0.0
 10
0.9400708661417323
 20
-2.4580590551181105
 30
0.0
 10
0.9400708661417323
 20
-2.4580590551181105
 30
0.0
 10
0.9400708661417323
 20
-2.4580590551181105
 30
0.0
 10
0.9734724409448819
 20
-2.4155551181102362
 30
0.0
 10
0.9734724409448819
 20
-2.4155551181102362
 30
0.0
 10
0.9734724409448819
 20
-2.4155551181102362
 30
0.0
 10
0.9734724409448819
 20
-2.4155551181102362
 30
0.0
 10
1.0048425196850395
 20
-2.3714527559055121
 30
0.0
 10
1.0048425196850395
 20
-2.3714527559055121
 30
0.0
 10
1.0048425196850395
 20
-2.3714527559055121
 30
0.0
 10
1.0048425196850395
 20
-2.3714527559055121
 30
0.0
 10
1.0341023622047245
 20
-2.3258031496062994
 30
0.0
 10
1.0341023622047245
 20
-2.3258031496062994
 30
0.0
 10
1.0341023622047245
 20
-2.3258031496062994
 30
0.0
 10
1.0341023622047245
 20
-2.3258031496062994
 30
0.0
 10
1.0611968503937008
 20
-2.2786929133858269
 30
0.0
 10
1.0611968503937008
 20
-2.2786929133858269
 30
0.0
 10
1.0611968503937008
 20
-2.2786929133858269
 30
0.0
 10
1.0611968503937008
 20
-2.2786929133858269
 30
0.0
 10
1.0860472440944882
 20
-2.2301850393700788
 30
0.0
 10
1.0860472440944882
 20
-2.2301850393700788
 30
0.0
 10
1.0860472440944882
 20
-2.2301850393700788
 30
0.0
 10
1.0860472440944882
 20
-2.2301850393700788
 30
0.0
 10
1.1085826771653544
 20
-2.1803582677165356
 30
0.0
 10
1.1085826771653544
 20
-2.1803582677165356
 30
0.0
 10
1.1085826771653544
 20
-2.1803582677165356
 30
0.0
 10
1.1085826771653544
 20
-2.1803582677165356
 30
0.0
 10
1.128720472440945
 20
-2.1292637795275593
 30
0.0
 10
1.128720472440945
 20
-2.1292637795275593
 30
0.0
 10
1.128720472440945
 20
-2.1292637795275593
 30
0.0
 10
1.128720472440945
 20
-2.1292637795275593
 30
0.0
 10
1.1464133858267718
 20
-2.077
 30
0.0
 10
1.1464133858267718
 20
-2.077
 30
0.0
 10
1.1464133858267718
 20
-2.077
 30
0.0
 10
1.1464133858267718
 20
-2.077
 30
0.0
 10
1.1615787401574804
 20
-2.0236141732283466
 30
0.0
 10
1.1615787401574804
 20
-2.0236141732283466
 30
0.0
 10
1.1615787401574804
 20
-2.0236141732283466
 30
0.0
 10
1.1615787401574804
 20
-2.0236141732283466
 30
0.0
 10
1.1741456692913386
 20
-1.969196850393701
 30
0.0
 10
1.1741456692913386
 20
-1.969196850393701
 30
0.0
 10
1.1741456692913386
 20
-1.969196850393701
 30
0.0
 10
1.1741456692913386
 20
-1.969196850393701
 30
0.0
 10
1.1840393700787402
 20
-1.9137992125984253
 30
0.0
 10
1.1840393700787402
 20
-1.9137992125984253
 30
0.0
 10
1.1840393700787402
 20
-1.9137992125984253
 30
0.0
 10
1.1840393700787402
 20
-1.9137992125984253
 30
0.0
 10
1.1911968503937009
 20
-1.857507874015748
 30
0.0
 10
1.1911968503937009
 20
-1.857507874015748
 30
0.0
 10
1.1911968503937009
 20
-1.857507874015748
 30
0.0
 10
1.1911968503937009
 20
-1.857507874015748
 30
0.0
 10
1.1955433070866142
 20
-1.8003818897637796
 30
0.0
 10
1.1955433070866142
 20
-1.8003818897637796
 30
0.0
 10
1.1955433070866142
 20
-1.8003818897637796
 30
0.0
 10
1.1955433070866142
 20
-1.8003818897637796
 30
0.0
 10
1.1970078740157482
 20
-1.742507874015748
 30
0.0
 10
1.1970078740157482
 20
-1.742507874015748
 30
0.0
 10
1.1970078740157482
 20
-1.742507874015748
 30
0.0
 10
1.1970078740157482
 20
-1.742507874015748
 30
0.0
 10
1.1955433070866142
 20
-1.6846220472440945
 30
0.0
 10
1.1955433070866142
 20
-1.6846220472440945
 30
0.0
 10
1.1955433070866142
 20
-1.6846220472440945
 30
0.0
 10
1.1955433070866142
 20
-1.6846220472440945
 30
0.0
 10
1.1911968503937009
 20
-1.627496062992126
 30
0.0
 10
1.1911968503937009
 20
-1.627496062992126
 30
0.0
 10
1.1911968503937009
 20
-1.627496062992126
 30
0.0
 10
1.1911968503937009
 20
-1.627496062992126
 30
0.0
 10
1.1840393700787402
 20
-1.5712007874015748
 30
0.0
 10
1.1840393700787402
 20
-1.5712007874015748
 30
0.0
 10
1.1840393700787402
 20
-1.5712007874015748
 30
0.0
 10
1.1840393700787402
 20
-1.5712007874015748
 30
0.0
 10
1.1741456692913386
 20
-1.5158070866141733
 30
0.0
 10
1.1741456692913386
 20
-1.5158070866141733
 30
0.0
 10
1.1741456692913386
 20
-1.5158070866141733
 30
0.0
 10
1.1741456692913386
 20
-1.5158070866141733
 30
0.0
 10
1.1615787401574804
 20
-1.4613818897637796
 30
0.0
 10
1.1615787401574804
 20
-1.4613818897637796
 30
0.0
 10
1.1615787401574804
 20
-1.4613818897637796
 30
0.0
 10
1.1615787401574804
 20
-1.4613818897637796
 30
0.0
 10
1.1464133858267718
 20
-1.4080039370078741
 30
0.0
 10
1.1464133858267718
 20
-1.4080039370078741
 30
0.0
 10
1.1464133858267718
 20
-1.4080039370078741
 30
0.0
 10
1.1464133858267718
 20
-1.4080039370078741
 30
0.0
 10
1.128720472440945
 20
-1.3557322834645671
 30
0.0
 10
1.128720472440945
 20
-1.3557322834645671
 30
0.0
 10
1.128720472440945
 20
-1.3557322834645671
 30
0.0
 10
1.128720472440945
 20
-1.3557322834645671
 30
0.0
 10
1.1085826771653544
 20
-1.3046496062992126
 30
0.0
 10
1.1085826771653544
 20
-1.3046496062992126
 30
0.0
 10
1.1085826771653544
 20
-1.3046496062992126
 30
0.0
 10
1.1085826771653544
 20
-1.3046496062992126
 30
0.0
 10
1.0860472440944882
 20
-1.2548149606299213
 30
0.0
 10
1.0860472440944882
 20
-1.2548149606299213
 30
0.0
 10
1.0860472440944882
 20
-1.2548149606299213
 30
0.0
 10
1.0860472440944882
 20
-1.2548149606299213
 30
0.0
 10
1.0611968503937008
 20
-1.2063070866141732
 30
0.0
 10
1.0611968503937008
 20
-1.2063070866141732
 30
0.0
 10
1.0611968503937008
 20
-1.2063070866141732
 30
0.0
 10
1.0611968503937008
 20
-1.2063070866141732
 30
0.0
 10
1.0341023622047245
 20
-1.1591929133858268
 30
0.0
 10
1.0341023622047245
 20
-1.1591929133858268
 30
0.0
 10
1.0341023622047245
 20
-1.1591929133858268
 30
0.0
 10
1.0341023622047245
 20
-1.1591929133858268
 30
0.0
 10
1.0048425196850395
 20
-1.1135511811023622
 30
0.0
 10
1.0048425196850395
 20
-1.1135511811023622
 30
0.0
 10
1.0048425196850395
 20
-1.1135511811023622
 30
0.0
 10
1.0048425196850395
 20
-1.1135511811023622
 30
0.0
 10
0.9734724409448819
 20
-1.0694370078740159
 30
0.0
 10
0.9734724409448819
 20
-1.0694370078740159
 30
0.0
 10
0.9734724409448819
 20
-1.0694370078740159
 30
0.0
 10
0.9734724409448819
 20
-1.0694370078740159
 30
0.0
 10
0.9400708661417323
 20
-1.0269409448818898
 30
0.0
 10
0.9400708661417323
 20
-1.0269409448818898
 30
0.0
 10
0.9400708661417323
 20
-1.0269409448818898
 30
0.0
 10
0.9400708661417323
 20
-1.0269409448818898
 30
0.0
 10
0.9047086614173229
 20
-0.9861220472440946
 30
0.0
 10
0.9047086614173229
 20
-0.9861220472440946
 30
0.0
 10
0.9047086614173229
 20
-0.9861220472440946
 30
0.0
 10
0.9047086614173229
 20
-0.9861220472440946
 30
0.0
 10
0.8674606299212598
 20
-0.9470511811023622
 30
0.0
 10
0.8674606299212598
 20
-0.9470511811023622
 30
0.0
 10
0.8674606299212598
 20
-0.9470511811023622
 30
0.0
 10
0.8674606299212598
 20
-0.9470511811023622
 30
0.0
 10
0.8283779527559055
 20
-0.9097952755905512
 30
0.0
 10
0.8283779527559055
 20
-0.9097952755905512
 30
0.0
 10
0.8283779527559055
 20
-0.9097952755905512
 30
0.0
 10
0.8283779527559055
 20
-0.9097952755905512
 30
0.0
 10
0.7875590551181103
 20
-0.8744330708661418
 30
0.0
 10
0.7875590551181103
 20
-0.8744330708661418
 30
0.0
 10
0.7875590551181103
 20
-0.8744330708661418
 30
0.0
 10
0.7875590551181103
 20
-0.8744330708661418
 30
0.0
 10
0.7450590551181102
 20
-0.8410314960629922
 30
0.0
 10
0.7450590551181102
 20
-0.8410314960629922
 30
0.0
 10
0.7450590551181102
 20
-0.8410314960629922
 30
0.0
 10
0.7450590551181102
 20
-0.8410314960629922
 30
0.0
 10
0.7009566929133858
 20
-0.8096653543307087
 30
0.0
 10
0.7009566929133858
 20
-0.8096653543307087
 30
0.0
 10
0.7009566929133858
 20
-0.8096653543307087
 30
0.0
 10
0.7009566929133858
 20
-0.8096653543307087
 30
0.0
 10
0.6553149606299213
 20
-0.7803976377952756
 30
0.0
 10
0.6553149606299213
 20
-0.7803976377952756
 30
0.0
 10
0.6553149606299213
 20
-0.7803976377952756
 30
0.0
 10
0.6553149606299213
 20
-0.7803976377952756
 30
0.0
 10
0.6082086614173229
 20
-0.7533031496062993
 30
0.0
 10
0.6082086614173229
 20
-0.7533031496062993
 30
0.0
 10
0.6082086614173229
 20
-0.7533031496062993
 30
0.0
 10
0.6082086614173229
 20
-0.7533031496062993
 30
0.0
 10
0.5597007874015748
 20
-0.7284527559055118
 30
0.0
 10
0.5597007874015748
 20
-0.7284527559055118
 30
0.0
 10
0.5597007874015748
 20
-0.7284527559055118
 30
0.0
 10
0.5597007874015748
 20
-0.7284527559055118
 30
0.0
 10
0.5098661417322835
 20
-0.7059291338582677
 30
0.0
 10
0.5098661417322835
 20
-0.7059291338582677
 30
0.0
 10
0.5098661417322835
 20
-0.7059291338582677
 30
0.0
 10
0.5098661417322835
 20
-0.7059291338582677
 30
0.0
 10
0.4587834645669291
 20
-0.6857795275590551
 30
0.0
 10
0.4587834645669291
 20
-0.6857795275590551
 30
0.0
 10
0.4587834645669291
 20
-0.6857795275590551
 30
0.0
 10
0.4587834645669291
 20
-0.6857795275590551
 30
0.0
 10
0.4065157480314961
 20
-0.6680866141732283
 30
0.0
 10
0.4065157480314961
 20
-0.6680866141732283
 30
0.0
 10
0.4065157480314961
 20
-0.6680866141732283
 30
0.0
 10
0.4065157480314961
 20
-0.6680866141732283
 30
0.0
 10
0.3531377952755906
 20
-0.6529212598425197
 30
0.0
 10
0.3531377952755906
 20
-0.6529212598425197
 30
0.0
 10
0.3531377952755906
 20
-0.6529212598425197
 30
0.0
 10
0.3531377952755906
 20
-0.6529212598425197
 30
0.0
 10
0.2987125984251969
 20
-0.6403661417322835
 30
0.0
 10
0.2987125984251969
 20
-0.6403661417322835
 30
0.0
 10
0.2987125984251969
 20
-0.6403661417322835
 30
0.0
 10
0.2987125984251969
 20
-0.6403661417322835
 30
0.0
 10
0.2433188976377953
 20
-0.6304685039370079
 30
0.0
 10
0.2433188976377953
 20
-0.6304685039370079
 30
0.0
 10
0.2433188976377953
 20
-0.6304685039370079
 30
0.0
 10
0.2433188976377953
 20
-0.6304685039370079
 30
0.0
 10
0.1870236220472441
 20
-0.6233110236220473
 30
0.0
 10
0.1870236220472441
 20
-0.6233110236220473
 30
0.0
 10
0.1870236220472441
 20
-0.6233110236220473
 30
0.0
 10
0.1870236220472441
 20
-0.6233110236220473
 30
0.0
 10
0.1298976377952756
 20
-0.6189645669291339
 30
0.0
 10
0.1298976377952756
 20
-0.6189645669291339
 30
0.0
 10
0.1298976377952756
 20
-0.6189645669291339
 30
0.0
 10
0.1298976377952756
 20
-0.6189645669291339
 30
0.0
 10
0.072011811023622
 20
-0.617507874015748
 30
0.0
 10
0.072011811023622
 20
-0.617507874015748
 30
0.0
 10
0.072011811023622
 20
-0.617507874015748
 30
0.0
 10
0.072011811023622
 20
-0.617507874015748
 30
0.0
 10
-0.5718937007874017
 20
-0.9894527559055119
 30
0.0
 10
-0.5718937007874017
 20
-0.9894527559055119
 30
0.0
 10
-0.5718937007874017
 20
-0.9894527559055119
 30
0.0
 10
-0.5718937007874017
 20
-0.9894527559055119
 30
0.0
 10
-0.5140078740157481
 20
-0.9909094488188976
 30
0.0
 10
-0.5140078740157481
 20
-0.9909094488188976
 30
0.0
 10
-0.5140078740157481
 20
-0.9909094488188976
 30
0.0
 10
-0.5140078740157481
 20
-0.9909094488188976
 30
0.0
 10
-0.4568818897637795
 20
-0.9952559055118111
 30
0.0
 10
-0.4568818897637795
 20
-0.9952559055118111
 30
0.0
 10
-0.4568818897637795
 20
-0.9952559055118111
 30
0.0
 10
-0.4568818897637795
 20
-0.9952559055118111
 30
0.0
 10
-0.4005866141732284
 20
-1.0024133858267716
 30
0.0
 10
-0.4005866141732284
 20
-1.0024133858267716
 30
0.0
 10
-0.4005866141732284
 20
-1.0024133858267716
 30
0.0
 10
-0.4005866141732284
 20
-1.0024133858267716
 30
0.0
 10
-0.3451929133858268
 20
-1.0123110236220474
 30
0.0
 10
-0.3451929133858268
 20
-1.0123110236220474
 30
0.0
 10
-0.3451929133858268
 20
-1.0123110236220474
 30
0.0
 10
-0.3451929133858268
 20
-1.0123110236220474
 30
0.0
 10
-0.2907677165354331
 20
-1.0248661417322835
 30
0.0
 10
-0.2907677165354331
 20
-1.0248661417322835
 30
0.0
 10
-0.2907677165354331
 20
-1.0248661417322835
 30
0.0
 10
-0.2907677165354331
 20
-1.0248661417322835
 30
0.0
 10
-0.2373897637795276
 20
-1.0400314960629922
 30
0.0
 10
-0.2373897637795276
 20
-1.0400314960629922
 30
0.0
 10
-0.2373897637795276
 20
-1.0400314960629922
 30
0.0
 10
-0.2373897637795276
 20
-1.0400314960629922
 30
0.0
 10
-0.1851220472440945
 20
-1.057724409448819
 30
0.0
 10
-0.1851220472440945
 20
-1.057724409448819
 30
0.0
 10
-0.1851220472440945
 20
-1.057724409448819
 30
0.0
 10
-0.1851220472440945
 20
-1.057724409448819
 30
0.0
 10
-0.1340393700787402
 20
-1.0778740157480315
 30
0.0
 10
-0.1340393700787402
 20
-1.0778740157480315
 30
0.0
 10
-0.1340393700787402
 20
-1.0778740157480315
 30
0.0
 10
-0.1340393700787402
 20
-1.0778740157480315
 30
0.0
 10
-0.0842047244094488
 20
-1.1003976377952756
 30
0.0
 10
-0.0842047244094488
 20
-1.1003976377952756
 30
0.0
 10
-0.0842047244094488
 20
-1.1003976377952756
 30
0.0
 10
-0.0842047244094488
 20
-1.1003976377952756
 30
0.0
 10
-0.0356968503937008
 20
-1.1252480314960631
 30
0.0
 10
-0.0356968503937008
 20
-1.1252480314960631
 30
0.0
 10
-0.0356968503937008
 20
-1.1252480314960631
 30
0.0
 10
-0.0356968503937008
 20
-1.1252480314960631
 30
0.0
 10
0.0114094488188976
 20
-1.1523425196850394
 30
0.0
 10
0.0114094488188976
 20
-1.1523425196850394
 30
0.0
 10
0.0114094488188976
 20
-1.1523425196850394
 30
0.0
 10
0.0114094488188976
 20
-1.1523425196850394
 30
0.0
 10
0.0570511811023622
 20
-1.1816102362204726
 30
0.0
 10
0.0570511811023622
 20
-1.1816102362204726
 30
0.0
 10
0.0570511811023622
 20
-1.1816102362204726
 30
0.0
 10
0.0570511811023622
 20
-1.1816102362204726
 30
0.0
 10
0.1011535433070866
 20
-1.212976377952756
 30
0.0
 10
0.1011535433070866
 20
-1.212976377952756
 30
0.0
 10
0.1011535433070866
 20
-1.212976377952756
 30
0.0
 10
0.1011535433070866
 20
-1.212976377952756
 30
0.0
 10
0.1436535433070866
 20
-1.2463779527559056
 30
0.0
 10
0.1436535433070866
 20
-1.2463779527559056
 30
0.0
 10
0.1436535433070866
 20
-1.2463779527559056
 30
0.0
 10
0.1436535433070866
 20
-1.2463779527559056
 30
0.0
 10
0.1844724409448819
 20
-1.2817401574803151
 30
0.0
 10
0.1844724409448819
 20
-1.2817401574803151
 30
0.0
 10
0.1844724409448819
 20
-1.2817401574803151
 30
0.0
 10
0.1844724409448819
 20
-1.2817401574803151
 30
0.0
 10
0.2235551181102362
 20
-1.318996062992126
 30
0.0
 10
0.2235551181102362
 20
-1.318996062992126
 30
0.0
 10
0.2235551181102362
 20
-1.318996062992126
 30
0.0
 10
0.2235551181102362
 20
-1.318996062992126
 30
0.0
 10
0.2608031496062992
 20
-1.3580669291338583
 30
0.0
 10
0.2608031496062992
 20
-1.3580669291338583
 30
0.0
 10
0.2608031496062992
 20
-1.3580669291338583
 30
0.0
 10
0.2608031496062992
 20
-1.3580669291338583
 30
0.0
 10
0.2961653543307087
 20
-1.3988858267716535
 30
0.0
 10
0.2961653543307087
 20
-1.3988858267716535
 30
0.0
 10
0.2961653543307087
 20
-1.3988858267716535
 30
0.0
 10
0.2961653543307087
 20
-1.3988858267716535
 30
0.0
 10
0.3295669291338583
 20
-1.4413818897637796
 30
0.0
 10
0.3295669291338583
 20
-1.4413818897637796
 30
0.0
 10
0.3295669291338583
 20
-1.4413818897637796
 30
0.0
 10
0.3295669291338583
 20
-1.4413818897637796
 30
0.0
 10
0.3609370078740158
 20
-1.4854960629921261
 30
0.0
 10
0.3609370078740158
 20
-1.4854960629921261
 30
0.0
 10
0.3609370078740158
 20
-1.4854960629921261
 30
0.0
 10
0.3609370078740158
 20
-1.4854960629921261
 30
0.0
 10
0.3901968503937008
 20
-1.5311377952755907
 30
0.0
 10
0.3901968503937008
 20
-1.5311377952755907
 30
0.0
 10
0.3901968503937008
 20
-1.5311377952755907
 30
0.0
 10
0.3901968503937008
 20
-1.5311377952755907
 30
0.0
 10
0.4172913385826772
 20
-1.5782519685039371
 30
0.0
 10
0.4172913385826772
 20
-1.5782519685039371
 30
0.0
 10
0.4172913385826772
 20
-1.5782519685039371
 30
0.0
 10
0.4172913385826772
 20
-1.5782519685039371
 30
0.0
 10
0.4421417322834646
 20
-1.6267598425196852
 30
0.0
 10
0.4421417322834646
 20
-1.6267598425196852
 30
0.0
 10
0.4421417322834646
 20
-1.6267598425196852
 30
0.0
 10
0.4421417322834646
 20
-1.6267598425196852
 30
0.0
 10
0.4646771653543307
 20
-1.6765944881889765
 30
0.0
 10
0.4646771653543307
 20
-1.6765944881889765
 30
0.0
 10
0.4646771653543307
 20
-1.6765944881889765
 30
0.0
 10
0.4646771653543307
 20
-1.6765944881889765
 30
0.0
 10
0.4848149606299213
 20
-1.7276771653543308
 30
0.0
 10
0.4848149606299213
 20
-1.7276771653543308
 30
0.0
 10
0.4848149606299213
 20
-1.7276771653543308
 30
0.0
 10
0.4848149606299213
 20
-1.7276771653543308
 30
0.0
 10
0.502507874015748
 20
-1.7799488188976378
 30
0.0
 10
0.502507874015748
 20
-1.7799488188976378
 30
0.0
 10
0.502507874015748
 20
-1.7799488188976378
 30
0.0
 10
0.502507874015748
 20
-1.7799488188976378
 30
0.0
 10
0.5176732283464567
 20
-1.8333267716535433
 30
0.0
 10
0.5176732283464567
 20
-1.8333267716535433
 30
0.0
 10
0.5176732283464567
 20
-1.8333267716535433
 30
0.0
 10
0.5176732283464567
 20
-1.8333267716535433
 30
0.0
 10
0.5302401574803149
 20
-1.887751968503937
 30
0.0
 10
0.5302401574803149
 20
-1.887751968503937
 30
0.0
 10
0.5302401574803149
 20
-1.887751968503937
 30
0.0
 10
0.5302401574803149
 20
-1.887751968503937
 30
0.0
 10
0.5401338582677165
 20
-1.9431456692913387
 30
0.0
 10
0.5401338582677165
 20
-1.9431456692913387
 30
0.0
 10
0.5401338582677165
 20
-1.9431456692913387
 30
0.0
 10
0.5401338582677165
 20
-1.9431456692913387
 30
0.0
 10
0.5472913385826772
 20
-1.9994409448818899
 30
0.0
 10
0.5472913385826772
 20
-1.9994409448818899
 30
0.0
 10
0.5472913385826772
 20
-1.9994409448818899
 30
0.0
 10
0.5472913385826772
 20
-1.9994409448818899
 30
0.0
 10
0.5516377952755905
 20
-2.0565669291338584
 30
0.0
 10
0.5516377952755905
 20
-2.0565669291338584
 30
0.0
 10
0.5516377952755905
 20
-2.0565669291338584
 30
0.0
 10
0.5516377952755905
 20
-2.0565669291338584
 30
0.0
 10
0.5531023622047244
 20
-2.114452755905512
 30
0.0
 10
0.5531023622047244
 20
-2.114452755905512
 30
0.0
 10
0.5531023622047244
 20
-2.114452755905512
 30
0.0
 10
0.5531023622047244
 20
-2.114452755905512
 30
0.0
 10
0.5516377952755905
 20
-2.1723267716535433
 30
0.0
 10
0.5516377952755905
 20
-2.1723267716535433
 30
0.0
 10
0.5516377952755905
 20
-2.1723267716535433
 30
0.0
 10
0.5516377952755905
 20
-2.1723267716535433
 30
0.0
 10
0.5472913385826772
 20
-2.2294527559055117
 30
0.0
 10
0.5472913385826772
 20
-2.2294527559055117
 30
0.0
 10
0.5472913385826772
 20
-2.2294527559055117
 30
0.0
 10
0.5472913385826772
 20
-2.2294527559055117
 30
0.0
 10
0.5401338582677165
 20
-2.285744094488189
 30
0.0
 10
0.5401338582677165
 20
-2.285744094488189
 30
0.0
 10
0.5401338582677165
 20
-2.285744094488189
 30
0.0
 10
0.5401338582677165
 20
-2.285744094488189
 30
0.0
 10
0.5302401574803149
 20
-2.3411417322834644
 30
0.0
 10
0.5302401574803149
 20
-2.3411417322834644
 30
0.0
 10
0.5302401574803149
 20
-2.3411417322834644
 30
0.0
 10
0.5302401574803149
 20
-2.3411417322834644
 30
0.0
 10
0.5176732283464567
 20
-2.3955590551181105
 30
0.0
 10
0.5176732283464567
 20
-2.3955590551181105
 30
0.0
 10
0.5176732283464567
 20
-2.3955590551181105
 30
0.0
 10
0.5176732283464567
 20
-2.3955590551181105
 30
0.0
 10
0.502507874015748
 20
-2.4489448818897639
 30
0.0
 10
0.502507874015748
 20
-2.4489448818897639
 30
0.0
 10
0.502507874015748
 20
-2.4489448818897639
 30
0.0
 10
0.502507874015748
 20
-2.4489448818897639
 30
0.0
 10
0.4848149606299213
 20
-2.5012086614173228
 30
0.0
 10
0.4848149606299213
 20
-2.5012086614173228
 30
0.0
 10
0.4848149606299213
 20
-2.5012086614173228
 30
0.0
 10
0.4848149606299213
 20
-2.5012086614173228
 30
0.0
 10
0.4646771653543307
 20
-2.5523031496062991
 30
0.0
 10
0.4646771653543307
 20
-2.5523031496062991
 30
0.0
 10
0.4646771653543307
 20
-2.5523031496062991
 30
0.0
 10
0.4646771653543307
 20
-2.5523031496062991
 30
0.0
 10
0.4421417322834646
 20
-2.6021299212598428
 30
0.0
 10
0.4421417322834646
 20
-2.6021299212598428
 30
0.0
 10
0.4421417322834646
 20
-2.6021299212598428
 30
0.0
 10
0.4421417322834646
 20
-2.6021299212598428
 30
0.0
 10
0.4172913385826772
 20
-2.6506377952755908
 30
0.0
 10
0.4172913385826772
 20
-2.6506377952755908
 30
0.0
 10
0.4172913385826772
 20
-2.6506377952755908
 30
0.0
 10
0.4172913385826772
 20
-2.6506377952755908
 30
0.0
 10
0.3901968503937008
 20
-2.6977480314960629
 30
0.0
 10
0.3901968503937008
 20
-2.6977480314960629
 30
0.0
 10
0.3901968503937008
 20
-2.6977480314960629
 30
0.0
 10
0.3901968503937008
 20
-2.6977480314960629
 30
0.0
 10
0.3609370078740158
 20
-2.7433976377952756
 30
0.0
 10
0.3609370078740158
 20
-2.7433976377952756
 30
0.0
 10
0.3609370078740158
 20
-2.7433976377952756
 30
0.0
 10
0.3609370078740158
 20
-2.7433976377952756
 30
0.0
 10
0.3295669291338583
 20
-2.7875000000000001
 30
0.0
 10
0.3295669291338583
 20
-2.7875000000000001
 30
0.0
 10
0.3295669291338583
 20
-2.7875000000000001
 30
0.0
 10
0.3295669291338583
 20
-2.7875000000000001
 30
0.0
 10
0.2961653543307087
 20
-2.830003937007874
 30
0.0
 10
0.2961653543307087
 20
-2.830003937007874
 30
0.0
 10
0.2961653543307087
 20
-2.830003937007874
 30
0.0
 10
0.2961653543307087
 20
-2.830003937007874
 30
0.0
 10
0.2608031496062992
 20
-2.8708228346456695
 30
0.0
 10
0.2608031496062992
 20
-2.8708228346456695
 30
0.0
 10
0.2608031496062992
 20
-2.8708228346456695
 30
0.0
 10
0.2608031496062992
 20
-2.8708228346456695
 30
0.0
 10
0.2235551181102362
 20
-2.9099055118110235
 30
0.0
 10
0.2235551181102362
 20
-2.9099055118110235
 30
0.0
 10
0.2235551181102362
 20
-2.9099055118110235
 30
0.0
 10
0.2235551181102362
 20
-2.9099055118110235
 30
0.0
 10
0.1844724409448819
 20
-2.9471535433070866
 30
0.0
 10
0.1844724409448819
 20
-2.9471535433070866
 30
0.0
 10
0.1844724409448819
 20
-2.9471535433070866
 30
0.0
 10
0.1844724409448819
 20
-2.9471535433070866
 30
0.0
 10
0.1436535433070866
 20
-2.9825157480314961
 30
0.0
 10
0.1436535433070866
 20
-2.9825157480314961
 30
0.0
 10
0.1436535433070866
 20
-2.9825157480314961
 30
0.0
 10
0.1436535433070866
 20
-2.9825157480314961
 30
0.0
 10
0.1011535433070866
 20
-3.0159173228346456
 30
0.0
 10
0.1011535433070866
 20
-3.0159173228346456
 30
0.0
 10
0.1011535433070866
 20
-3.0159173228346456
 30
0.0
 10
0.1011535433070866
 20
-3.0159173228346456
 30
0.0
 10
0.0570511811023622
 20
-3.047287401574803
 30
0.0
 10
0.0570511811023622
 20
-3.047287401574803
 30
0.0
  0
SPLINE
  5
60
100
AcDbEntity
  8
Additional Graphics
 62
     9
100
AcDbSpline
210
0.0
220
0.0
230
1.0
 70
     1
 71
     3
 72
    20
 73
    16
 74
     0
 42
0.0000000001
 43
0.0000000001
 40
0.0
 40
0.0
 40
0.0
 40
0.0
 40
0.25
 40
0.25
 40
0.25
 40
0.25
 40
0.5
 40
0.5
 40
0.5
 40
0.5
 40
0.75
 40
0.75
 40
0.75
 40
0.75
 40
1.0
 40
1.0
 40
1.0
 40
1.0
 10
-0.5718937007874017
 20
-0.9894527559055119
 30
0.0
 10
-0.5718937007874017
 20
-0.9894527559055119
 30
0.0
 10
0.072011811023622
 20
-0.617507874015748
 30
0.0
 10
0.072011811023622
 20
-0.617507874015748
 30
0.0
 10
0.072011811023622
 20
-0.617507874015748
 30
0.0
 10
0.072011811023622
 20
-0.617507874015748
 30
0.0
 10
0.072003937007874
 20
-0.367503937007874
 30
0.0
 10
0.072003937007874
 20
-0.367503937007874
 30
0.0
 10
0.072003937007874
 20
-0.367503937007874
 30
0.0
 10
0.072003937007874
 20
-0.367503937007874
 30
0.0
 10
-0.5719015748031496
 20
-0.7394488188976378
 30
0.0
 10
-0.5719015748031496
 20
-0.7394488188976378
 30
0.0
 10
-0.5719015748031496
 20
-0.7394488188976378
 30
0.0
 10
-0.5719015748031496
 20
-0.7394488188976378
 30
0.0
 10
-0.5718937007874017
 20
-0.9894527559055119
 30
0.0
 10
-0.5718937007874017
 20
-0.9894527559055119
 30
0.0
  0
SPLINE
  5
61
100
AcDbEntity
  8
Additional Graphics
370
     5
100
AcDbSpline
210
0.0
220
0.0
230
1.0
 70
     1
 71
     3
 72
    20
 73
    16
 74
     0
 42
0.0000000001
 43
0.0000000001
 40
0.0
 40
0.0
 40
0.0
 40
0.0
 40
0.25
 40
0.25
 40
0.25
 40
0.25
 40
0.5
 40
0.5
 40
0.5
 40
0.5
 40
0.75
 40
0.75
 40
0.75
 40
0.75
 40
1.0
 40
1.0
 40
1.0
 40
1.0
 10
-0.5718937007874017
 20
-0.9894527559055119
 30
0.0
 10
-0.5718937007874017
 20
-0.9894527559055119
 30
0.0
 10
0.072011811023622
 20
-0.617507874015748
 30
0.0
 10
0.072011811023622
 20
-0.617507874015748
 30
0.0
 10
0.072011811023622
 20
-0.617507874015748
 30
0.0
 10
0.072011811023622
 20
-0.617507874015748
 30
0.0
 10
0.072003937007874
 20
-0.367503937007874
 30
0.0
 10
0.072003937007874
 20
-0.367503937007874
 30
0.0
 10
0.072003937007874
 20
-0.367503937007874
 30
0.0
 10
0.072003937007874
 20
-0.367503937007874
 30
0.0
 10
-0.5719015748031496
 20
-0.7394488188976378
 30
0.0
 10
-0.5719015748031496
 20
-0.7394488188976378
 30
0.0
 10
-0.5719015748031496
 20
-0.7394488188976378
 30
0.0
 10
-0.5719015748031496
 20
-0.7394488188976378
 30
0.0
 10
-0.5718937007874017
 20
-0.9894527559055119
 30
0.0
 10
-0.5718937007874017
 20
-0.9894527559055119
 30
0.0
  0
SPLINE
  5
62
100
AcDbEntity
  8
Additional Graphics
 62
   253
100
AcDbSpline
210
0.0
220
0.0
230
1.0
 70
     1
 71
     3
 72
    20
 73
    16
 74
     0
 42
0.0000000001
 43
0.0000000001
 40
0.0
 40
0.0
 40
0.0
 40
0.0
 40
0.25
 40
0.25
 40
0.25
 40
0.25
 40
0.5
 40
0.5
 40
0.5
 40
0.5
 40
0.75
 40
0.75
 40
0.75
 40
0.75
 40
1.0
 40
1.0
 40
1.0
 40
1.0
 10
-0.5719015748031496
 20
-0.7394488188976378
 30
0.0
 10
-0.5719015748031496
 20
-0.7394488188976378
 30
0.0
 10
0.072003937007874
 20
-0.367503937007874
 30
0.0
 10
0.072003937007874
 20
-0.367503937007874
 30
0.0
 10
0.072003937007874
 20
-0.367503937007874
 30
0.0
 10
0.072003937007874
 20
-0.367503937007874
 30
0.0
 10
0.0462834645669291
 20
-0.3668503937007874
 30
0.0
 10
0.0462834645669291
 20
-0.3668503937007874
 30
0.0
 10
0.0462834645669291
 20
-0.3668503937007874
 30
0.0
 10
0.0462834645669291
 20
-0.3668503937007874
 30
0.0
 10
-0.5976220472440945
 20
-0.7387952755905513
 30
0.0
 10
-0.5976220472440945
 20
-0.7387952755905513
 30
0.0
 10
-0.5976220472440945
 20
-0.7387952755905513
 30
0.0
 10
-0.5976220472440945
 20
-0.7387952755905513
 30
0.0
 10
-0.5719015748031496
 20
-0.7394488188976378
 30
0.0
 10
-0.5719015748031496
 20
-0.7394488188976378
 30
0.0
  0
SPLINE
  5
63
100
AcDbEntity
  8
Additional Graphics
 62
   253
100
AcDbSpline
210
0.0
220
0.0
230
1.0
 70
     1
 71
     3
 72
    20
 73
    16
 74
     0
 42
0.0000000001
 43
0.0000000001
 40
0.0
 40
0.0
 40
0.0
 40
0.0
 40
0.25
 40
0.25
 40
0.25
 40
0.25
 40
0.5
 40
0.5
 40
0.5
 40
0.5
 40
0.75
 40
0.75
 40
0.75
 40
0.75
 40
1.0
 40
1.0
 40
1.0
 40
1.0
 10
-0.5976220472440945
 20
-0.7387952755905513
 30
0.0
 10
-0.5976220472440945
 20
-0.7387952755905513
 30
0.0
 10
0.0462834645669291
 20
-0.3668503937007874
 30
0.0
 10
0.0462834645669291
 20
-0.3668503937007874
 30
0.0
 10
0.0462834645669291
 20
-0.3668503937007874
 30
0.0
 10
0.0462834645669291
 20
-0.3668503937007874
 30
0.0
 10
0.0208937007874016
 20
-0.3649173228346457
 30
0.0
 10
0.0208937007874016
 20
-0.3649173228346457
 30
0.0
 10
0.0208937007874016
 20
-0.3649173228346457
 30
0.0
 10
0.0208937007874016
 20
-0.3649173228346457
 30
0.0
 10
-0.623011811023622
 20
-0.7368622047244094
 30
0.0
 10
-0.623011811023622
 20
-0.7368622047244094
 30
0.0
 10
-0.623011811023622
 20
-0.7368622047244094
 30
0.0
 10
-0.623011811023622
 20
-0.7368622047244094
 30
0.0
 10
-0.5976220472440945
 20
-0.7387952755905513
 30
0.0
 10
-0.5976220472440945
 20
-0.7387952755905513
 30
0.0
  0
SPLINE
  5
64
100
AcDbEntity
  8
Additional Graphics
 62
   253
100
AcDbSpline
210
0.0
220
0.0
230
1.0
 70
     1
 71
     3
 72
    20
 73
    16
 74
     0
 42
0.0000000001
 43
0.0000000001
 40
0.0
 40
0.0
 40
0.0
 40
0.0
 40
0.25
 40
0.25
 40
0.25
 40
0.25
 40
0.5
 40
0.5
 40
0.5
 40
0.5
 40
0.75
 40
0.75
 40
0.75
 40
0.75
 40
1.0
 40
1.0
 40
1.0
 40
1.0
 10
-0.623011811023622
 20
-0.7368622047244094
 30
0.0
 10
-0.623011811023622
 20
-0.7368622047244094
 30
0.0
 10
0.0208937007874016
 20
-0.3649173228346457
 30
0.0
 10
0.0208937007874016
 20
-0.3649173228346457
 30
0.0
 10
0.0208937007874016
 20
-0.3649173228346457
 30
0.0
 10
0.0208937007874016
 20
-0.3649173228346457
 30
0.0
 10
-0.0041220472440945
 20
-0.3617322834645669
 30
0.0
 10
-0.0041220472440945
 20
-0.3617322834645669
 30
0.0
 10
-0.0041220472440945
 20
-0.3617322834645669
 30
0.0
 10
-0.0041220472440945
 20
-0.3617322834645669
 30
0.0
 10
-0.6480275590551181
 20
-0.7336771653543307
 30
0.0
 10
-0.6480275590551181
 20
-0.7336771653543307
 30
0.0
 10
-0.6480275590551181
 20
-0.7336771653543307
 30
0.0
 10
-0.6480275590551181
 20
-0.7336771653543307
 30
0.0
 10
-0.623011811023622
 20
-0.7368622047244094
 30
0.0
 10
-0.623011811023622
 20
-0.7368622047244094
 30
0.0
  0
SPLINE
  5
65
100
AcDbEntity
  8
Additional Graphics
 62
   253
100
AcDbSpline
210
0.0
220
0.0
230
1.0
 70
     1
 71
     3
 72
    28
 73
    24
 74
     0
 42
0.0000000001
 43
0.0000000001
 40
0.0
 40
0.0
 40
0.0
 40
0.0
 40
0.1666666666666667
 40
0.1666666666666667
 40
0.1666666666666667
 40
0.1666666666666667
 40
0.3333333333333333
 40
0.3333333333333333
 40
0.3333333333333333
 40
0.3333333333333333
 40
0.5
 40
0.5
 40
0.5
 40
0.5
 40
0.6666666666666666
 40
0.6666666666666666
 40
0.6666666666666666
 40
0.6666666666666666
 40
0.8333333333333333
 40
0.8333333333333333
 40
0.8333333333333333
 40
0.8333333333333333
 40
1.0
 40
1.0
 40
1.0
 40
1.0
 10
-0.6480275590551181
 20
-0.7336771653543307
 30
0.0
 10
-0.6480275590551181
 20
-0.7336771653543307
 30
0.0
 10
-0.0041220472440945
 20
-0.3617322834645669
 30
0.0
 10
-0.0041220472440945
 20
-0.3617322834645669
 30
0.0
 10
-0.0041220472440945
 20
-0.3617322834645669
 30
0.0
 10
-0.0041220472440945
 20
-0.3617322834645669
 30
0.0
 10
-0.028744094488189
 20
-0.3573385826771654
 30
0.0
 10
-0.028744094488189
 20
-0.3573385826771654
 30
0.0
 10
-0.028744094488189
 20
-0.3573385826771654
 30
0.0
 10
-0.028744094488189
 20
-0.3573385826771654
 30
0.0
 10
-0.0529291338582677
 20
-0.351751968503937
 30
0.0
 10
-0.0529291338582677
 20
-0.351751968503937
 30
0.0
 10
-0.0529291338582677
 20
-0.351751968503937
 30
0.0
 10
-0.0529291338582677
 20
-0.351751968503937
 30
0.0
 10
-0.6968346456692913
 20
-0.7236968503937008
 30
0.0
 10
-0.6968346456692913
 20
-0.7236968503937008
 30
0.0
 10
-0.6968346456692913
 20
-0.7236968503937008
 30
0.0
 10
-0.6968346456692913
 20
-0.7236968503937008
 30
0.0
 10
-0.6726496062992127
 20
-0.7292834645669292
 30
0.0
 10
-0.6726496062992127
 20
-0.7292834645669292
 30
0.0
 10
-0.6726496062992127
 20
-0.7292834645669292
 30
0.0
 10
-0.6726496062992127
 20
-0.7292834645669292
 30
0.0
 10
-0.6480275590551181
 20
-0.7336771653543307
 30
0.0
 10
-0.6480275590551181
 20
-0.7336771653543307
 30
0.0
  0
SPLINE
  5
66
100
AcDbEntity
  8
Additional Graphics
 62
   253
100
AcDbSpline
210
0.0
220
0.0
230
1.0
 70
     1
 71
     3
 72
    28
 73
    24
 74
     0
 42
0.0000000001
 43
0.0000000001
 40
0.0
 40
0.0
 40
0.0
 40
0.0
 40
0.1666666666666667
 40
0.1666666666666667
 40
0.1666666666666667
 40
0.1666666666666667
 40
0.3333333333333333
 40
0.3333333333333333
 40
0.3333333333333333
 40
0.3333333333333333
 40
0.5
 40
0.5
 40
0.5
 40
0.5
 40
0.6666666666666666
 40
0.6666666666666666
 40
0.6666666666666666
 40
0.6666666666666666
 40
0.8333333333333333
 40
0.8333333333333333
 40
0.8333333333333333
 40
0.8333333333333333
 40
1.0
 40
1.0
 40
1.0
 40
1.0
 10
-0.6968346456692913
 20
-0.7236968503937008
 30
0.0
 10
-0.6968346456692913
 20
-0.7236968503937008
 30
0.0
 10
-0.0529291338582677
 20
-0.351751968503937
 30
0.0
 10
-0.0529291338582677
 20
-0.351751968503937
 30
0.0
 10
-0.0529291338582677
 20
-0.351751968503937
 30
0.0
 10
-0.0529291338582677
 20
-0.351751968503937
 30
0.0
 10
-0.0766535433070866
 20
-0.3450157480314961
 30
0.0
 10
-0.0766535433070866
 20
-0.3450157480314961
 30
0.0
 10
-0.0766535433070866
 20
-0.3450157480314961
 30
0.0
 10
-0.0766535433070866
 20
-0.3450157480314961
 30
0.0
 10
-0.0998818897637795
 20
-0.3371496062992126
 30
0.0
 10
-0.0998818897637795
 20
-0.3371496062992126
 30
0.0
 10
-0.0998818897637795
 20
-0.3371496062992126
 30
0.0
 10
-0.0998818897637795
 20
-0.3371496062992126
 30
0.0
 10
-0.7437874015748032
 20
-0.7090944881889764
 30
0.0
 10
-0.7437874015748032
 20
-0.7090944881889764
 30
0.0
 10
-0.7437874015748032
 20
-0.7090944881889764
 30
0.0
 10
-0.7437874015748032
 20
-0.7090944881889764
 30
0.0
 10
-0.7205590551181103
 20
-0.7169606299212599
 30
0.0
 10
-0.7205590551181103
 20
-0.7169606299212599
 30
0.0
 10
-0.7205590551181103
 20
-0.7169606299212599
 30
0.0
 10
-0.7205590551181103
 20
-0.7169606299212599
 30
0.0
 10
-0.6968346456692913
 20
-0.7236968503937008
 30
0.0
 10
-0.6968346456692913
 20
-0.7236968503937008
 30
0.0
  0
SPLINE
  5
67
100
AcDbEntity
  8
Additional Graphics
 62
   253
100
AcDbSpline
210
0.0
220
0.0
230
1.0
 70
     1
 71
     3
 72
    28
 73
    24
 74
     0
 42
0.0000000001
 43
0.0000000001
 40
0.0
 40
0.0
 40
0.0
 40
0.0
 40
0.1666666666666667
 40
0.1666666666666667
 40
0.1666666666666667
 40
0.1666666666666667
 40
0.3333333333333333
 40
0.3333333333333333
 40
0.3333333333333333
 40
0.3333333333333333
 40
0.5
 40
0.5
 40
0.5
 40
0.5
 40
0.6666666666666666
 40
0.6666666666666666
 40
0.6666666666666666
 40
0.6666666666666666
 40
0.8333333333333333
 40
0.8333333333333333
 40
0.8333333333333333
 40
0.8333333333333333
 40
1.0
 40
1.0
 40
1.0
 40
1.0
 10
-0.7437874015748032
 20
-0.7090944881889764
 30
0.0
 10
-0.7437874015748032
 20
-0.7090944881889764
 30
0.0
 10
-0.0998818897637795
 20
-0.3371496062992126
 30
0.0
 10
-0.0998818897637795
 20
-0.3371496062992126
 30
0.0
 10
-0.0998818897637795
 20
-0.3371496062992126
 30
0.0
 10
-0.0998818897637795
 20
-0.3371496062992126
 30
0.0
 10
-0.1225944881889764
 20
-0.3282007874015748
 30
0.0
 10
-0.1225944881889764
 20
-0.3282007874015748
 30
0.0
 10
-0.1225944881889764
 20
-0.3282007874015748
 30
0.0
 10
-0.1225944881889764
 20
-0.3282007874015748
 30
0.0
 10
-0.144736220472441
 20
-0.3181811023622048
 30
0.0
 10
-0.144736220472441
 20
-0.3181811023622048
 30
0.0
 10
-0.144736220472441
 20
-0.3181811023622048
 30
0.0
 10
-0.144736220472441
 20
-0.3181811023622048
 30
0.0
 10
-0.7886417322834646
 20
-0.6901259842519686
 30
0.0
 10
-0.7886417322834646
 20
-0.6901259842519686
 30
0.0
 10
-0.7886417322834646
 20
-0.6901259842519686
 30
0.0
 10
-0.7886417322834646
 20
-0.6901259842519686
 30
0.0
 10
-0.7665000000000001
 20
-0.7001456692913386
 30
0.0
 10
-0.7665000000000001
 20
-0.7001456692913386
 30
0.0
 10
-0.7665000000000001
 20
-0.7001456692913386
 30
0.0
 10
-0.7665000000000001
 20
-0.7001456692913386
 30
0.0
 10
-0.7437874015748032
 20
-0.7090944881889764
 30
0.0
 10
-0.7437874015748032
 20
-0.7090944881889764
 30
0.0
  0
SPLINE
  5
68
100
AcDbEntity
  8
Additional Graphics
 62
   253
100
AcDbSpline
210
0.0
220
0.0
230
1.0
 70
     1
 71
     3
 72
    28
 73
    24
 74
     0
 42
0.0000000001
 43
0.0000000001
 40
0.0
 40
0.0
 40
0.0
 40
0.0
 40
0.1666666666666667
 40
0.1666666666666667
 40
0.1666666666666667
 40
0.1666666666666667
 40
0.3333333333333333
 40
0.3333333333333333
 40
0.3333333333333333
 40
0.3333333333333333
 40
0.5
 40
0.5
 40
0.5
 40
0.5
 40
0.6666666666666666
 40
0.6666666666666666
 40
0.6666666666666666
 40
0.6666666666666666
 40
0.8333333333333333
 40
0.8333333333333333
 40
0.8333333333333333
 40
0.8333333333333333
 40
1.0
 40
1.0
 40
1.0
 40
1.0
 10
-0.7886417322834646
 20
-0.6901259842519686
 30
0.0
 10
-0.7886417322834646
 20
-0.6901259842519686
 30
0.0
 10
-0.144736220472441
 20
-0.3181811023622048
 30
0.0
 10
-0.144736220472441
 20
-0.3181811023622048
 30
0.0
 10
-0.144736220472441
 20
-0.3181811023622048
 30
0.0
 10
-0.144736220472441
 20
-0.3181811023622048
 30
0.0
 10
-0.1662992125984252
 20
-0.3071377952755905
 30
0.0
 10
-0.1662992125984252
 20
-0.3071377952755905
 30
0.0
 10
-0.1662992125984252
 20
-0.3071377952755905
 30
0.0
 10
-0.1662992125984252
 20
-0.3071377952755905
 30
0.0
 10
-0.187236220472441
 20
-0.2950944881889764
 30
0.0
 10
-0.187236220472441
 20
-0.2950944881889764
 30
0.0
 10
-0.187236220472441
 20
-0.2950944881889764
 30
0.0
 10
-0.187236220472441
 20
-0.2950944881889764
 30
0.0
 10
-0.8311417322834646
 20
-0.6670393700787402
 30
0.0
 10
-0.8311417322834646
 20
-0.6670393700787402
 30
0.0
 10
-0.8311417322834646
 20
-0.6670393700787402
 30
0.0
 10
-0.8311417322834646
 20
-0.6670393700787402
 30
0.0
 10
-0.8102047244094488
 20
-0.6790826771653543
 30
0.0
 10
-0.8102047244094488
 20
-0.6790826771653543
 30
0.0
 10
-0.8102047244094488
 20
-0.6790826771653543
 30
0.0
 10
-0.8102047244094488
 20
-0.6790826771653543
 30
0.0
 10
-0.7886417322834646
 20
-0.6901259842519686
 30
0.0
 10
-0.7886417322834646
 20
-0.6901259842519686
 30
0.0
  0
SPLINE
  5
69
100
AcDbEntity
  8
Additional Graphics
 62
     9
100
AcDbSpline
210
0.0
220
0.0
230
1.0
 70
     1
 71
     3
 72
    28
 73
    24
 74
     0
 42
0.0000000001
 43
0.0000000001
 40
0.0
 40
0.0
 40
0.0
 40
0.0
 40
0.1666666666666667
 40
0.1666666666666667
 40
0.1666666666666667
 40
0.1666666666666667
 40
0.3333333333333333
 40
0.3333333333333333
 40
0.3333333333333333
 40
0.3333333333333333
 40
0.5
 40
0.5
 40
0.5
 40
0.5
 40
0.6666666666666666
 40
0.6666666666666666
 40
0.6666666666666666
 40
0.6666666666666666
 40
0.8333333333333333
 40
0.8333333333333333
 40
0.8333333333333333
 40
0.8333333333333333
 40
1.0
 40
1.0
 40
1.0
 40
1.0
 10
-0.8311417322834646
 20
-0.6670393700787402
 30
0.0
 10
-0.8311417322834646
 20
-0.6670393700787402
 30
0.0
 10
-0.187236220472441
 20
-0.2950944881889764
 30
0.0
 10
-0.187236220472441
 20
-0.2950944881889764
 30
0.0
 10
-0.187236220472441
 20
-0.2950944881889764
 30
0.0
 10
-0.187236220472441
 20
-0.2950944881889764
 30
0.0
 10
-0.2075275590551181
 20
-0.2820944881889764
 30
0.0
 10
-0.2075275590551181
 20
-0.2820944881889764
 30
0.0
 10
-0.2075275590551181
 20
-0.2820944881889764
 30
0.0
 10
-0.2075275590551181
 20
-0.2820944881889764
 30
0.0
 10
-0.2271299212598425
 20
-0.2681535433070866
 30
0.0
 10
-0.2271299212598425
 20
-0.2681535433070866
 30
0.0
 10
-0.2271299212598425
 20
-0.2681535433070866
 30
0.0
 10
-0.2271299212598425
 20
-0.2681535433070866
 30
0.0
 10
-0.8710354330708662
 20
-0.6400984251968505
 30
0.0
 10
-0.8710354330708662
 20
-0.6400984251968505
 30
0.0
 10
-0.8710354330708662
 20
-0.6400984251968505
 30
0.0
 10
-0.8710354330708662
 20
-0.6400984251968505
 30
0.0
 10
-0.8514330708661417
 20
-0.6540393700787401
 30
0.0
 10
-0.8514330708661417
 20
-0.6540393700787401
 30
0.0
 10
-0.8514330708661417
 20
-0.6540393700787401
 30
0.0
 10
-0.8514330708661417
 20
-0.6540393700787401
 30
0.0
 10
-0.8311417322834646
 20
-0.6670393700787402
 30
0.0
 10
-0.8311417322834646
 20
-0.6670393700787402
 30
0.0
  0
SPLINE
  5
6A
100
AcDbEntity
  8
Additional Graphics
 62
     9
100
AcDbSpline
210
0.0
220
0.0
230
1.0
 70
     1
 71
     3
 72
    28
 73
    24
 74
     0
 42
0.0000000001
 43
0.0000000001
 40
0.0
 40
0.0
 40
0.0
 40
0.0
 40
0.1666666666666667
 40
0.1666666666666667
 40
0.1666666666666667
 40
0.1666666666666667
 40
0.3333333333333333
 40
0.3333333333333333
 40
0.3333333333333333
 40
0.3333333333333333
 40
0.5
 40
0.5
 40
0.5
 40
0.5
 40
0.6666666666666666
 40
0.6666666666666666
 40
0.6666666666666666
 40
0.6666666666666666
 40
0.8333333333333333
 40
0.8333333333333333
 40
0.8333333333333333
 40
0.8333333333333333
 40
1.0
 40
1.0
 40
1.0
 40
1.0
 10
-0.8710354330708662
 20
-0.6400984251968505
 30
0.0
 10
-0.8710354330708662
 20
-0.6400984251968505
 30
0.0
 10
-0.2271299212598425
 20
-0.2681535433070866
 30
0.0
 10
-0.2271299212598425
 20
-0.2681535433070866
 30
0.0
 10
-0.2271299212598425
 20
-0.2681535433070866
 30
0.0
 10
-0.2271299212598425
 20
-0.2681535433070866
 30
0.0
 10
-0.2460196850393701
 20
-0.2533110236220473
 30
0.0
 10
-0.2460196850393701
 20
-0.2533110236220473
 30
0.0
 10
-0.2460196850393701
 20
-0.2533110236220473
 30
0.0
 10
-0.2460196850393701
 20
-0.2533110236220473
 30
0.0
 10
-0.2641614173228347
 20
-0.2375944881889764
 30
0.0
 10
-0.2641614173228347
 20
-0.2375944881889764
 30
0.0
 10
-0.2641614173228347
 20
-0.2375944881889764
 30
0.0
 10
-0.2641614173228347
 20
-0.2375944881889764
 30
0.0
 10
-0.9080669291338583
 20
-0.6095393700787402
 30
0.0
 10
-0.9080669291338583
 20
-0.6095393700787402
 30
0.0
 10
-0.9080669291338583
 20
-0.6095393700787402
 30
0.0
 10
-0.9080669291338583
 20
-0.6095393700787402
 30
0.0
 10
-0.8899251968503937
 20
-0.6252559055118111
 30
0.0
 10
-0.8899251968503937
 20
-0.6252559055118111
 30
0.0
 10
-0.8899251968503937
 20
-0.6252559055118111
 30
0.0
 10
-0.8899251968503937
 20
-0.6252559055118111
 30
0.0
 10
-0.8710354330708662
 20
-0.6400984251968505
 30
0.0
 10
-0.8710354330708662
 20
-0.6400984251968505
 30
0.0
  0
SPLINE
  5
6B
100
AcDbEntity
  8
Additional Graphics
 62
     9
100
AcDbSpline
210
0.0
220
0.0
230
1.0
 70
     1
 71
     3
 72
    28
 73
    24
 74
     0
 42
0.0000000001
 43
0.0000000001
 40
0.0
 40
0.0
 40
0.0
 40
0.0
 40
0.1666666666666667
 40
0.1666666666666667
 40
0.1666666666666667
 40
0.1666666666666667
 40
0.3333333333333333
 40
0.3333333333333333
 40
0.3333333333333333
 40
0.3333333333333333
 40
0.5
 40
0.5
 40
0.5
 40
0.5
 40
0.6666666666666666
 40
0.6666666666666666
 40
0.6666666666666666
 40
0.6666666666666666
 40
0.8333333333333333
 40
0.8333333333333333
 40
0.8333333333333333
 40
0.8333333333333333
 40
1.0
 40
1.0
 40
1.0
 40
1.0
 10
-0.9080669291338583
 20
-0.6095393700787402
 30
0.0
 10
-0.9080669291338583
 20
-0.6095393700787402
 30
0.0
 10
-0.2641614173228347
 20
-0.2375944881889764
 30
0.0
 10
-0.2641614173228347
 20
-0.2375944881889764
 30
0.0
 10
-0.2641614173228347
 20
-0.2375944881889764
 30
0.0
 10
-0.2641614173228347
 20
-0.2375944881889764
 30
0.0
 10
-0.2815314960629922
 20
-0.2210393700787402
 30
0.0
 10
-0.2815314960629922
 20
-0.2210393700787402
 30
0.0
 10
-0.2815314960629922
 20
-0.2210393700787402
 30
0.0
 10
-0.2815314960629922
 20
-0.2210393700787402
 30
0.0
 10
-0.2980866141732284
 20
-0.2036692913385827
 30
0.0
 10
-0.2980866141732284
 20
-0.2036692913385827
 30
0.0
 10
-0.2980866141732284
 20
-0.2036692913385827
 30
0.0
 10
-0.2980866141732284
 20
-0.2036692913385827
 30
0.0
 10
-0.941992125984252
 20
-0.5756141732283465
 30
0.0
 10
-0.941992125984252
 20
-0.5756141732283465
 30
0.0
 10
-0.941992125984252
 20
-0.5756141732283465
 30
0.0
 10
-0.941992125984252
 20
-0.5756141732283465
 30
0.0
 10
-0.9254370078740158
 20
-0.5929842519685039
 30
0.0
 10
-0.9254370078740158
 20
-0.5929842519685039
 30
0.0
 10
-0.9254370078740158
 20
-0.5929842519685039
 30
0.0
 10
-0.9254370078740158
 20
-0.5929842519685039
 30
0.0
 10
-0.9080669291338583
 20
-0.6095393700787402
 30
0.0
 10
-0.9080669291338583
 20
-0.6095393700787402
 30
0.0
  0
SPLINE
  5
6C
100
AcDbEntity
  8
Additional Graphics
 62
     9
100
AcDbSpline
210
0.0
220
0.0
230
1.0
 70
     1
 71
     3
 72
    28
 73
    24
 74
     0
 42
0.0000000001
 43
0.0000000001
 40
0.0
 40
0.0
 40
0.0
 40
0.0
 40
0.1666666666666667
 40
0.1666666666666667
 40
0.1666666666666667
 40
0.1666666666666667
 40
0.3333333333333333
 40
0.3333333333333333
 40
0.3333333333333333
 40
0.3333333333333333
 40
0.5
 40
0.5
 40
0.5
 40
0.5
 40
0.6666666666666666
 40
0.6666666666666666
 40
0.6666666666666666
 40
0.6666666666666666
 40
0.8333333333333333
 40
0.8333333333333333
 40
0.8333333333333333
 40
0.8333333333333333
 40
1.0
 40
1.0
 40
1.0
 40
1.0
 10
-0.941992125984252
 20
-0.5756141732283465
 30
0.0
 10
-0.941992125984252
 20
-0.5756141732283465
 30
0.0
 10
-0.2980866141732284
 20
-0.2036692913385827
 30
0.0
 10
-0.2980866141732284
 20
-0.2036692913385827
 30
0.0
 10
-0.2980866141732284
 20
-0.2036692913385827
 30
0.0
 10
-0.2980866141732284
 20
-0.2036692913385827
 30
0.0
 10
-0.3138031496062992
 20
-0.1855275590551181
 30
0.0
 10
-0.3138031496062992
 20
-0.1855275590551181
 30
0.0
 10
-0.3138031496062992
 20
-0.1855275590551181
 30
0.0
 10
-0.3138031496062992
 20
-0.1855275590551181
 30
0.0
 10
-0.3286456692913386
 20
-0.1666377952755906
 30
0.0
 10
-0.3286456692913386
 20
-0.1666377952755906
 30
0.0
 10
-0.3286456692913386
 20
-0.1666377952755906
 30
0.0
 10
-0.3286456692913386
 20
-0.1666377952755906
 30
0.0
 10
-0.9725511811023623
 20
-0.5385826771653544
 30
0.0
 10
-0.9725511811023623
 20
-0.5385826771653544
 30
0.0
 10
-0.9725511811023623
 20
-0.5385826771653544
 30
0.0
 10
-0.9725511811023623
 20
-0.5385826771653544
 30
0.0
 10
-0.9577086614173229
 20
-0.5574724409448819
 30
0.0
 10
-0.9577086614173229
 20
-0.5574724409448819
 30
0.0
 10
-0.9577086614173229
 20
-0.5574724409448819
 30
0.0
 10
-0.9577086614173229
 20
-0.5574724409448819
 30
0.0
 10
-0.941992125984252
 20
-0.5756141732283465
 30
0.0
 10
-0.941992125984252
 20
-0.5756141732283465
 30
0.0
  0
SPLINE
  5
6D
100
AcDbEntity
  8
Additional Graphics
 62
     9
100
AcDbSpline
210
0.0
220
0.0
230
1.0
 70
     1
 71
     3
 72
    28
 73
    24
 74
     0
 42
0.0000000001
 43
0.0000000001
 40
0.0
 40
0.0
 40
0.0
 40
0.0
 40
0.1666666666666667
 40
0.1666666666666667
 40
0.1666666666666667
 40
0.1666666666666667
 40
0.3333333333333333
 40
0.3333333333333333
 40
0.3333333333333333
 40
0.3333333333333333
 40
0.5
 40
0.5
 40
0.5
 40
0.5
 40
0.6666666666666666
 40
0.6666666666666666
 40
0.6666666666666666
 40
0.6666666666666666
 40
0.8333333333333333
 40
0.8333333333333333
 40
0.8333333333333333
 40
0.8333333333333333
 40
1.0
 40
1.0
 40
1.0
 40
1.0
 10
-0.9725511811023623
 20
-0.5385826771653544
 30
0.0
 10
-0.9725511811023623
 20
-0.5385826771653544
 30
0.0
 10
-0.3286456692913386
 20
-0.1666377952755906
 30
0.0
 10
-0.3286456692913386
 20
-0.1666377952755906
 30
0.0
 10
-0.3286456692913386
 20
-0.1666377952755906
 30
0.0
 10
-0.3286456692913386
 20
-0.1666377952755906
 30
0.0
 10
-0.3425866141732283
 20
-0.1470354330708661
 30
0.0
 10
-0.3425866141732283
 20
-0.1470354330708661
 30
0.0
 10
-0.3425866141732283
 20
-0.1470354330708661
 30
0.0
 10
-0.3425866141732283
 20
-0.1470354330708661
 30
0.0
 10
-0.3555866141732283
 20
-0.126744094488189
 30
0.0
 10
-0.3555866141732283
 20
-0.126744094488189
 30
0.0
 10
-0.3555866141732283
 20
-0.126744094488189
 30
0.0
 10
-0.3555866141732283
 20
-0.126744094488189
 30
0.0
 10
-0.999492125984252
 20
-0.4986889763779528
 30
0.0
 10
-0.999492125984252
 20
-0.4986889763779528
 30
0.0
 10
-0.999492125984252
 20
-0.4986889763779528
 30
0.0
 10
-0.999492125984252
 20
-0.4986889763779528
 30
0.0
 10
-0.986492125984252
 20
-0.5189803149606299
 30
0.0
 10
-0.986492125984252
 20
-0.5189803149606299
 30
0.0
 10
-0.986492125984252
 20
-0.5189803149606299
 30
0.0
 10
-0.986492125984252
 20
-0.5189803149606299
 30
0.0
 10
-0.9725511811023623
 20
-0.5385826771653544
 30
0.0
 10
-0.9725511811023623
 20
-0.5385826771653544
 30
0.0
  0
SPLINE
  5
6E
100
AcDbEntity
  8
Additional Graphics
 62
     9
100
AcDbSpline
210
0.0
220
0.0
230
1.0
 70
     1
 71
     3
 72
    28
 73
    24
 74
     0
 42
0.0000000001
 43
0.0000000001
 40
0.0
 40
0.0
 40
0.0
 40
0.0
 40
0.1666666666666667
 40
0.1666666666666667
 40
0.1666666666666667
 40
0.1666666666666667
 40
0.3333333333333333
 40
0.3333333333333333
 40
0.3333333333333333
 40
0.3333333333333333
 40
0.5
 40
0.5
 40
0.5
 40
0.5
 40
0.6666666666666666
 40
0.6666666666666666
 40
0.6666666666666666
 40
0.6666666666666666
 40
0.8333333333333333
 40
0.8333333333333333
 40
0.8333333333333333
 40
0.8333333333333333
 40
1.0
 40
1.0
 40
1.0
 40
1.0
 10
-0.999492125984252
 20
-0.4986889763779528
 30
0.0
 10
-0.999492125984252
 20
-0.4986889763779528
 30
0.0
 10
-0.3555866141732283
 20
-0.126744094488189
 30
0.0
 10
-0.3555866141732283
 20
-0.126744094488189
 30
0.0
 10
-0.3555866141732283
 20
-0.126744094488189
 30
0.0
 10
-0.3555866141732283
 20
-0.126744094488189
 30
0.0
 10
-0.3676299212598425
 20
-0.1058070866141732
 30
0.0
 10
-0.3676299212598425
 20
-0.1058070866141732
 30
0.0
 10
-0.3676299212598425
 20
-0.1058070866141732
 30
0.0
 10
-0.3676299212598425
 20
-0.1058070866141732
 30
0.0
 10
-0.3786732283464567
 20
-0.084244094488189
 30
0.0
 10
-0.3786732283464567
 20
-0.084244094488189
 30
0.0
 10
-0.3786732283464567
 20
-0.084244094488189
 30
0.0
 10
-0.3786732283464567
 20
-0.084244094488189
 30
0.0
 10
-1.0225787401574804
 20
-0.4561889763779528
 30
0.0
 10
-1.0225787401574804
 20
-0.4561889763779528
 30
0.0
 10
-1.0225787401574804
 20
-0.4561889763779528
 30
0.0
 10
-1.0225787401574804
 20
-0.4561889763779528
 30
0.0
 10
-1.0115354330708661
 20
-0.477751968503937
 30
0.0
 10
-1.0115354330708661
 20
-0.477751968503937
 30
0.0
 10
-1.0115354330708661
 20
-0.477751968503937
 30
0.0
 10
-1.0115354330708661
 20
-0.477751968503937
 30
0.0
 10
-0.999492125984252
 20
-0.4986889763779528
 30
0.0
 10
-0.999492125984252
 20
-0.4986889763779528
 30
0.0
  0
SPLINE
  5
6F
100
AcDbEntity
  8
Additional Graphics
 62
     9
100
AcDbSpline
210
0.0
220
0.0
230
1.0
 70
     1
 71
     3
 72
    28
 73
    24
 74
     0
 42
0.0000000001
 43
0.0000000001
 40
0.0
 40
0.0
 40
0.0
 40
0.0
 40
0.1666666666666667
 40
0.1666666666666667
 40
0.1666666666666667
 40
0.1666666666666667
 40
0.3333333333333333
 40
0.3333333333333333
 40
0.3333333333333333
 40
0.3333333333333333
 40
0.5
 40
0.5
 40
0.5
 40
0.5
 40
0.6666666666666666
 40
0.6666666666666666
 40
0.6666666666666666
 40
0.6666666666666666
 40
0.8333333333333333
 40
0.8333333333333333
 40
0.8333333333333333
 40
0.8333333333333333
 40
1.0
 40
1.0
 40
1.0
 40
1.0
 10
-1.0225787401574804
 20
-0.4561889763779528
 30
0.0
 10
-1.0225787401574804
 20
-0.4561889763779528
 30
0.0
 10
-0.3786732283464567
 20
-0.084244094488189
 30
0.0
 10
-0.3786732283464567
 20
-0.084244094488189
 30
0.0
 10
-0.3786732283464567
 20
-0.084244094488189
 30
0.0
 10
-0.3786732283464567
 20
-0.084244094488189
 30
0.0
 10
-0.3886929133858268
 20
-0.0621023622047244
 30
0.0
 10
-0.3886929133858268
 20
-0.0621023622047244
 30
0.0
 10
-0.3886929133858268
 20
-0.0621023622047244
 30
0.0
 10
-0.3886929133858268
 20
-0.0621023622047244
 30
0.0
 10
-0.3976417322834646
 20
-0.0393897637795276
 30
0.0
 10
-0.3976417322834646
 20
-0.0393897637795276
 30
0.0
 10
-0.3976417322834646
 20
-0.0393897637795276
 30
0.0
 10
-0.3976417322834646
 20
-0.0393897637795276
 30
0.0
 10
-1.0415472440944882
 20
-0.4113346456692913
 30
0.0
 10
-1.0415472440944882
 20
-0.4113346456692913
 30
0.0
 10
-1.0415472440944882
 20
-0.4113346456692913
 30
0.0
 10
-1.0415472440944882
 20
-0.4113346456692913
 30
0.0
 10
-1.0325984251968505
 20
-0.4340472440944882
 30
0.0
 10
-1.0325984251968505
 20
-0.4340472440944882
 30
0.0
 10
-1.0325984251968505
 20
-0.4340472440944882
 30
0.0
 10
-1.0325984251968505
 20
-0.4340472440944882
 30
0.0
 10
-1.0225787401574804
 20
-0.4561889763779528
 30
0.0
 10
-1.0225787401574804
 20
-0.4561889763779528
 30
0.0
  0
SPLINE
  5
70
100
AcDbEntity
  8
Additional Graphics
 62
     9
100
AcDbSpline
210
0.0
220
0.0
230
1.0
 70
     1
 71
     3
 72
    28
 73
    24
 74
     0
 42
0.0000000001
 43
0.0000000001
 40
0.0
 40
0.0
 40
0.0
 40
0.0
 40
0.1666666666666667
 40
0.1666666666666667
 40
0.1666666666666667
 40
0.1666666666666667
 40
0.3333333333333333
 40
0.3333333333333333
 40
0.3333333333333333
 40
0.3333333333333333
 40
0.5
 40
0.5
 40
0.5
 40
0.5
 40
0.6666666666666666
 40
0.6666666666666666
 40
0.6666666666666666
 40
0.6666666666666666
 40
0.8333333333333333
 40
0.8333333333333333
 40
0.8333333333333333
 40
0.8333333333333333
 40
1.0
 40
1.0
 40
1.0
 40
1.0
 10
-1.0415472440944882
 20
-0.4113346456692913
 30
0.0
 10
-1.0415472440944882
 20
-0.4113346456692913
 30
0.0
 10
-0.3976417322834646
 20
-0.0393897637795276
 30
0.0
 10
-0.3976417322834646
 20
-0.0393897637795276
 30
0.0
 10
-0.3976417322834646
 20
-0.0393897637795276
 30
0.0
 10
-0.3976417322834646
 20
-0.0393897637795276
 30
0.0
 10
-0.4055078740157481
 20
-0.0161614173228346
 30
0.0
 10
-0.4055078740157481
 20
-0.0161614173228346
 30
0.0
 10
-0.4055078740157481
 20
-0.0161614173228346
 30
0.0
 10
-0.4055078740157481
 20
-0.0161614173228346
 30
0.0
 10
-0.412244094488189
 20
0.0075629921259843
 30
0.0
 10
-0.412244094488189
 20
0.0075629921259843
 30
0.0
 10
-0.412244094488189
 20
0.0075629921259843
 30
0.0
 10
-0.412244094488189
 20
0.0075629921259843
 30
0.0
 10
-1.0561496062992126
 20
-0.3643818897637796
 30
0.0
 10
-1.0561496062992126
 20
-0.3643818897637796
 30
0.0
 10
-1.0561496062992126
 20
-0.3643818897637796
 30
0.0
 10
-1.0561496062992126
 20
-0.3643818897637796
 30
0.0
 10
-1.0494133858267718
 20
-0.3881062992125984
 30
0.0
 10
-1.0494133858267718
 20
-0.3881062992125984
 30
0.0
 10
-1.0494133858267718
 20
-0.3881062992125984
 30
0.0
 10
-1.0494133858267718
 20
-0.3881062992125984
 30
0.0
 10
-1.0415472440944882
 20
-0.4113346456692913
 30
0.0
 10
-1.0415472440944882
 20
-0.4113346456692913
 30
0.0
  0
SPLINE
  5
71
100
AcDbEntity
  8
Additional Graphics
 62
     9
100
AcDbSpline
210
0.0
220
0.0
230
1.0
 70
     1
 71
     3
 72
    28
 73
    24
 74
     0
 42
0.0000000001
 43
0.0000000001
 40
0.0
 40
0.0
 40
0.0
 40
0.0
 40
0.1666666666666667
 40
0.1666666666666667
 40
0.1666666666666667
 40
0.1666666666666667
 40
0.3333333333333333
 40
0.3333333333333333
 40
0.3333333333333333
 40
0.3333333333333333
 40
0.5
 40
0.5
 40
0.5
 40
0.5
 40
0.6666666666666666
 40
0.6666666666666666
 40
0.6666666666666666
 40
0.6666666666666666
 40
0.8333333333333333
 40
0.8333333333333333
 40
0.8333333333333333
 40
0.8333333333333333
 40
1.0
 40
1.0
 40
1.0
 40
1.0
 10
-1.0561496062992126
 20
-0.3643818897637796
 30
0.0
 10
-1.0561496062992126
 20
-0.3643818897637796
 30
0.0
 10
-0.412244094488189
 20
0.0075629921259843
 30
0.0
 10
-0.412244094488189
 20
0.0075629921259843
 30
0.0
 10
-0.412244094488189
 20
0.0075629921259843
 30
0.0
 10
-0.412244094488189
 20
0.0075629921259843
 30
0.0
 10
-0.4178307086614174
 20
0.031748031496063
 30
0.0
 10
-0.4178307086614174
 20
0.031748031496063
 30
0.0
 10
-0.4178307086614174
 20
0.031748031496063
 30
0.0
 10
-0.4178307086614174
 20
0.031748031496063
 30
0.0
 10
-0.4222244094488189
 20
0.0563700787401575
 30
0.0
 10
-0.4222244094488189
 20
0.0563700787401575
 30
0.0
 10
-0.4222244094488189
 20
0.0563700787401575
 30
0.0
 10
-0.4222244094488189
 20
0.0563700787401575
 30
0.0
 10
-1.0661299212598425
 20
-0.3155748031496063
 30
0.0
 10
-1.0661299212598425
 20
-0.3155748031496063
 30
0.0
 10
-1.0661299212598425
 20
-0.3155748031496063
 30
0.0
 10
-1.0661299212598425
 20
-0.3155748031496063
 30
0.0
 10
-1.061736220472441
 20
-0.3401968503937008
 30
0.0
 10
-1.061736220472441
 20
-0.3401968503937008
 30
0.0
 10
-1.061736220472441
 20
-0.3401968503937008
 30
0.0
 10
-1.061736220472441
 20
-0.3401968503937008
 30
0.0
 10
-1.0561496062992126
 20
-0.3643818897637796
 30
0.0
 10
-1.0561496062992126
 20
-0.3643818897637796
 30
0.0
  0
SPLINE
  5
72
100
AcDbEntity
  8
Additional Graphics
 62
     9
100
AcDbSpline
210
0.0
220
0.0
230
1.0
 70
     1
 71
     3
 72
    20
 73
    16
 74
     0
 42
0.0000000001
 43
0.0000000001
 40
0.0
 40
0.0
 40
0.0
 40
0.0
 40
0.25
 40
0.25
 40
0.25
 40
0.25
 40
0.5
 40
0.5
 40
0.5
 40
0.5
 40
0.75
 40
0.75
 40
0.75
 40
0.75
 40
1.0
 40
1.0
 40
1.0
 40
1.0
 10
-1.0661299212598425
 20
-0.3155748031496063
 30
0.0
 10
-1.0661299212598425
 20
-0.3155748031496063
 30
0.0
 10
-0.4222244094488189
 20
0.0563700787401575
 30
0.0
 10
-0.4222244094488189
 20
0.0563700787401575
 30
0.0
 10
-0.4222244094488189
 20
0.0563700787401575
 30
0.0
 10
-0.4222244094488189
 20
0.0563700787401575
 30
0.0
 10
-0.4254094488188976
 20
0.0813858267716535
 30
0.0
 10
-0.4254094488188976
 20
0.0813858267716535
 30
0.0
 10
-0.4254094488188976
 20
0.0813858267716535
 30
0.0
 10
-0.4254094488188976
 20
0.0813858267716535
 30
0.0
 10
-1.0693149606299213
 20
-0.2905590551181103
 30
0.0
 10
-1.0693149606299213
 20
-0.2905590551181103
 30
0.0
 10
-1.0693149606299213
 20
-0.2905590551181103
 30
0.0
 10
-1.0693149606299213
 20
-0.2905590551181103
 30
0.0
 10
-1.0661299212598425
 20
-0.3155748031496063
 30
0.0
 10
-1.0661299212598425
 20
-0.3155748031496063
 30
0.0
  0
SPLINE
  5
73
100
AcDbEntity
  8
Additional Graphics
 62
     9
100
AcDbSpline
210
0.0
220
0.0
230
1.0
 70
     1
 71
     3
 72
    20
 73
    16
 74
     0
 42
0.0000000001
 43
0.0000000001
 40
0.0
 40
0.0
 40
0.0
 40
0.0
 40
0.25
 40
0.25
 40
0.25
 40
0.25
 40
0.5
 40
0.5
 40
0.5
 40
0.5
 40
0.75
 40
0.75
 40
0.75
 40
0.75
 40
1.0
 40
1.0
 40
1.0
 40
1.0
 10
-1.0693149606299213
 20
-0.2905590551181103
 30
0.0
 10
-1.0693149606299213
 20
-0.2905590551181103
 30
0.0
 10
-0.4254094488188976
 20
0.0813858267716535
 30
0.0
 10
-0.4254094488188976
 20
0.0813858267716535
 30
0.0
 10
-0.4254094488188976
 20
0.0813858267716535
 30
0.0
 10
-0.4254094488188976
 20
0.0813858267716535
 30
0.0
 10
-0.4273425196850394
 20
0.1067755905511811
 30
0.0
 10
-0.4273425196850394
 20
0.1067755905511811
 30
0.0
 10
-0.4273425196850394
 20
0.1067755905511811
 30
0.0
 10
-0.4273425196850394
 20
0.1067755905511811
 30
0.0
 10
-1.0712480314960631
 20
-0.2651692913385827
 30
0.0
 10
-1.0712480314960631
 20
-0.2651692913385827
 30
0.0
 10
-1.0712480314960631
 20
-0.2651692913385827
 30
0.0
 10
-1.0712480314960631
 20
-0.2651692913385827
 30
0.0
 10
-1.0693149606299213
 20
-0.2905590551181103
 30
0.0
 10
-1.0693149606299213
 20
-0.2905590551181103
 30
0.0
  0
SPLINE
  5
74
100
AcDbEntity
  8
Additional Graphics
 62
     9
100
AcDbSpline
210
0.0
220
0.0
230
1.0
 70
     1
 71
     3
 72
    20
 73
    16
 74
     0
 42
0.0000000001
 43
0.0000000001
 40
0.0
 40
0.0
 40
0.0
 40
0.0
 40
0.25
 40
0.25
 40
0.25
 40
0.25
 40
0.5
 40
0.5
 40
0.5
 40
0.5
 40
0.75
 40
0.75
 40
0.75
 40
0.75
 40
1.0
 40
1.0
 40
1.0
 40
1.0
 10
-1.0712480314960631
 20
-0.2651692913385827
 30
0.0
 10
-1.0712480314960631
 20
-0.2651692913385827
 30
0.0
 10
-0.4273425196850394
 20
0.1067755905511811
 30
0.0
 10
-0.4273425196850394
 20
0.1067755905511811
 30
0.0
 10
-0.4273425196850394
 20
0.1067755905511811
 30
0.0
 10
-0.4273425196850394
 20
0.1067755905511811
 30
0.0
 10
-0.427996062992126
 20
0.132496062992126
 30
0.0
 10
-0.427996062992126
 20
0.132496062992126
 30
0.0
 10
-0.427996062992126
 20
0.132496062992126
 30
0.0
 10
-0.427996062992126
 20
0.132496062992126
 30
0.0
 10
-1.0719015748031497
 20
-0.2394488188976378
 30
0.0
 10
-1.0719015748031497
 20
-0.2394488188976378
 30
0.0
 10
-1.0719015748031497
 20
-0.2394488188976378
 30
0.0
 10
-1.0719015748031497
 20
-0.2394488188976378
 30
0.0
 10
-1.0712480314960631
 20
-0.2651692913385827
 30
0.0
 10
-1.0712480314960631
 20
-0.2651692913385827
 30
0.0
  0
SPLINE
  5
75
100
AcDbEntity
  8
Additional Graphics
370
     5
100
AcDbSpline
210
0.0
220
0.0
230
1.0
 70
     1
 71
     3
 72
   268
 73
   264
 74
     0
 42
0.0000000001
 43
0.0000000001
 40
0.0
 40
0.0
 40
0.0
 40
0.0
 40
0.0151515151515152
 40
0.0151515151515152
 40
0.0151515151515152
 40
0.0151515151515152
 40
0.0303030303030303
 40
0.0303030303030303
 40
0.0303030303030303
 40
0.0303030303030303
 40
0.0454545454545455
 40
0.0454545454545455
 40
0.0454545454545455
 40
0.0454545454545455
 40
0.0606060606060606
 40
0.0606060606060606
 40
0.0606060606060606
 40
0.0606060606060606
 40
0.0757575757575758
 40
0.0757575757575758
 40
0.0757575757575758
 40
0.0757575757575758
 40
0.0909090909090909
 40
0.0909090909090909
 40
0.0909090909090909
 40
0.0909090909090909
 40
0.1060606060606061
 40
0.1060606060606061
 40
0.1060606060606061
 40
0.1060606060606061
 40
0.1212121212121212
 40
0.1212121212121212
 40
0.1212121212121212
 40
0.1212121212121212
 40
0.1363636363636364
 40
0.1363636363636364
 40
0.1363636363636364
 40
0.1363636363636364
 40
0.1515151515151515
 40
0.1515151515151515
 40
0.1515151515151515
 40
0.1515151515151515
 40
0.1666666666666666
 40
0.1666666666666666
 40
0.1666666666666666
 40
0.1666666666666666
 40
0.1818181818181818
 40
0.1818181818181818
 40
0.1818181818181818
 40
0.1818181818181818
 40
0.1969696969696969
 40
0.1969696969696969
 40
0.1969696969696969
 40
0.1969696969696969
 40
0.212121212121212
 40
0.212121212121212
 40
0.212121212121212
 40
0.212121212121212
 40
0.2272727272727272
 40
0.2272727272727272
 40
0.2272727272727272
 40
0.2272727272727272
 40
0.2424242424242423
 40
0.2424242424242423
 40
0.2424242424242423
 40
0.2424242424242423
 40
0.2575757575757575
 40
0.2575757575757575
 40
0.2575757575757575
 40
0.2575757575757575
 40
0.2727272727272726
 40
0.2727272727272726
 40
0.2727272727272726
 40
0.2727272727272726
 40
0.2878787878787877
 40
0.2878787878787877
 40
0.2878787878787877
 40
0.2878787878787877
 40
0.3030303030303029
 40
0.3030303030303029
 40
0.3030303030303029
 40
0.3030303030303029
 40
0.318181818181818
 40
0.318181818181818
 40
0.318181818181818
 40
0.318181818181818
 40
0.3333333333333332
 40
0.3333333333333332
 40
0.3333333333333332
 40
0.3333333333333332
 40
0.3484848484848483
 40
0.3484848484848483
 40
0.3484848484848483
 40
0.3484848484848483
 40
0.3636363636363634
 40
0.3636363636363634
 40
0.3636363636363634
 40
0.3636363636363634
 40
0.3787878787878786
 40
0.3787878787878786
 40
0.3787878787878786
 40
0.3787878787878786
 40
0.3939393939393937
 40
0.3939393939393937
 40
0.3939393939393937
 40
0.3939393939393937
 40
0.4090909090909088
 40
0.4090909090909088
 40
0.4090909090909088
 40
0.4090909090909088
 40
0.424242424242424
 40
0.424242424242424
 40
0.424242424242424
 40
0.424242424242424
 40
0.4393939393939391
 40
0.4393939393939391
 40
0.4393939393939391
 40
0.4393939393939391
 40
0.4545454545454543
 40
0.4545454545454543
 40
0.4545454545454543
 40
0.4545454545454543
 40
0.4696969696969694
 40
0.4696969696969694
 40
0.4696969696969694
 40
0.4696969696969694
 40
0.4848484848484845
 40
0.4848484848484845
 40
0.4848484848484845
 40
0.4848484848484845
 40
0.4999999999999997
 40
0.4999999999999997
 40
0.4999999999999997
 40
0.4999999999999997
 40
0.5151515151515148
 40
0.5151515151515148
 40
0.5151515151515148
 40
0.5151515151515148
 40
0.5303030303030299
 40
0.5303030303030299
 40
0.5303030303030299
 40
0.5303030303030299
 40
0.5454545454545451
 40
0.5454545454545451
 40
0.5454545454545451
 40
0.5454545454545451
 40
0.5606060606060602
 40
0.5606060606060602
 40
0.5606060606060602
 40
0.5606060606060602
 40
0.5757575757575754
 40
0.5757575757575754
 40
0.5757575757575754
 40
0.5757575757575754
 40
0.5909090909090905
 40
0.5909090909090905
 40
0.5909090909090905
 40
0.5909090909090905
 40
0.6060606060606056
 40
0.6060606060606056
 40
0.6060606060606056
 40
0.6060606060606056
 40
0.6212121212121208
 40
0.6212121212121208
 40
0.6212121212121208
 40
0.6212121212121208
 40
0.6363636363636359
 40
0.6363636363636359
 40
0.6363636363636359
 40
0.6363636363636359
 40
0.6515151515151511
 40
0.6515151515151511
 40
0.6515151515151511
 40
0.6515151515151511
 40
0.6666666666666662
 40
0.6666666666666662
 40
0.6666666666666662
 40
0.6666666666666662
 40
0.6818181818181813
 40
0.6818181818181813
 40
0.6818181818181813
 40
0.6818181818181813
 40
0.6969696969696965
 40
0.6969696969696965
 40
0.6969696969696965
 40
0.6969696969696965
 40
0.7121212121212116
 40
0.7121212121212116
 40
0.7121212121212116
 40
0.7121212121212116
 40
0.7272727272727267
 40
0.7272727272727267
 40
0.7272727272727267
 40
0.7272727272727267
 40
0.7424242424242419
 40
0.7424242424242419
 40
0.7424242424242419
 40
0.7424242424242419
 40
0.757575757575757
 40
0.757575757575757
 40
0.757575757575757
 40
0.757575757575757
 40
0.7727272727272722
 40
0.7727272727272722
 40
0.7727272727272722
 40
0.7727272727272722
 40
0.7878787878787873
 40
0.7878787878787873
 40
0.7878787878787873
 40
0.7878787878787873
 40
0.8030303030303024
 40
0.8030303030303024
 40
0.8030303030303024
 40
0.8030303030303024
 40
0.8181818181818176
 40
0.8181818181818176
 40
0.8181818181818176
 40
0.8181818181818176
 40
0.8333333333333327
 40
0.8333333333333327
 40
0.8333333333333327
 40
0.8333333333333327
 40
0.8484848484848478
 40
0.8484848484848478
 40
0.8484848484848478
 40
0.8484848484848478
 40
0.863636363636363
 40
0.863636363636363
 40
0.863636363636363
 40
0.863636363636363
 40
0.8787878787878781
 40
0.8787878787878781
 40
0.8787878787878781
 40
0.8787878787878781
 40
0.8939393939393933
 40
0.8939393939393933
 40
0.8939393939393933
 40
0.8939393939393933
 40
0.9090909090909084
 40
0.9090909090909084
 40
0.9090909090909084
 40
0.9090909090909084
 40
0.9242424242424235
 40
0.9242424242424235
 40
0.9242424242424235
 40
0.9242424242424235
 40
0.9393939393939387
 40
0.9393939393939387
 40
0.9393939393939387
 40
0.9393939393939387
 40
0.9545454545454538
 40
0.9545454545454538
 40
0.9545454545454538
 40
0.9545454545454538
 40
0.969696969696969
 40
0.969696969696969
 40
0.969696969696969
 40
0.969696969696969
 40
0.9848484848484841
 40
0.9848484848484841
 40
0.9848484848484841
 40
0.9848484848484841
 40
1.0
 40
1.0
 40
1.0
 40
1.0
 10
-0.5719015748031496
 20
-0.7394488188976378
 30
0.0
 10
-0.5719015748031496
 20
-0.7394488188976378
 30
0.0
 10
0.072003937007874
 20
-0.367503937007874
 30
0.0
 10
0.072003937007874
 20
-0.367503937007874
 30
0.0
 10
0.072003937007874
 20
-0.367503937007874
 30
0.0
 10
0.072003937007874
 20
-0.367503937007874
 30
0.0
 10
0.0462834645669291
 20
-0.3668503937007874
 30
0.0
 10
0.0462834645669291
 20
-0.3668503937007874
 30
0.0
 10
0.0462834645669291
 20
-0.3668503937007874
 30
0.0
 10
0.0462834645669291
 20
-0.3668503937007874
 30
0.0
 10
0.0208937007874016
 20
-0.3649173228346457
 30
0.0
 10
0.0208937007874016
 20
-0.3649173228346457
 30
0.0
 10
0.0208937007874016
 20
-0.3649173228346457
 30
0.0
 10
0.0208937007874016
 20
-0.3649173228346457
 30
0.0
 10
-0.0041220472440945
 20
-0.3617322834645669
 30
0.0
 10
-0.0041220472440945
 20
-0.3617322834645669
 30
0.0
 10
-0.0041220472440945
 20
-0.3617322834645669
 30
0.0
 10
-0.0041220472440945
 20
-0.3617322834645669
 30
0.0
 10
-0.028744094488189
 20
-0.3573385826771654
 30
0.0
 10
-0.028744094488189
 20
-0.3573385826771654
 30
0.0
 10
-0.028744094488189
 20
-0.3573385826771654
 30
0.0
 10
-0.028744094488189
 20
-0.3573385826771654
 30
0.0
 10
-0.0529291338582677
 20
-0.351751968503937
 30
0.0
 10
-0.0529291338582677
 20
-0.351751968503937
 30
0.0
 10
-0.0529291338582677
 20
-0.351751968503937
 30
0.0
 10
-0.0529291338582677
 20
-0.351751968503937
 30
0.0
 10
-0.0766535433070866
 20
-0.3450157480314961
 30
0.0
 10
-0.0766535433070866
 20
-0.3450157480314961
 30
0.0
 10
-0.0766535433070866
 20
-0.3450157480314961
 30
0.0
 10
-0.0766535433070866
 20
-0.3450157480314961
 30
0.0
 10
-0.0998818897637795
 20
-0.3371496062992126
 30
0.0
 10
-0.0998818897637795
 20
-0.3371496062992126
 30
0.0
 10
-0.0998818897637795
 20
-0.3371496062992126
 30
0.0
 10
-0.0998818897637795
 20
-0.3371496062992126
 30
0.0
 10
-0.1225944881889764
 20
-0.3282007874015748
 30
0.0
 10
-0.1225944881889764
 20
-0.3282007874015748
 30
0.0
 10
-0.1225944881889764
 20
-0.3282007874015748
 30
0.0
 10
-0.1225944881889764
 20
-0.3282007874015748
 30
0.0
 10
-0.144736220472441
 20
-0.3181811023622048
 30
0.0
 10
-0.144736220472441
 20
-0.3181811023622048
 30
0.0
 10
-0.144736220472441
 20
-0.3181811023622048
 30
0.0
 10
-0.144736220472441
 20
-0.3181811023622048
 30
0.0
 10
-0.1662992125984252
 20
-0.3071377952755905
 30
0.0
 10
-0.1662992125984252
 20
-0.3071377952755905
 30
0.0
 10
-0.1662992125984252
 20
-0.3071377952755905
 30
0.0
 10
-0.1662992125984252
 20
-0.3071377952755905
 30
0.0
 10
-0.187236220472441
 20
-0.2950944881889764
 30
0.0
 10
-0.187236220472441
 20
-0.2950944881889764
 30
0.0
 10
-0.187236220472441
 20
-0.2950944881889764
 30
0.0
 10
-0.187236220472441
 20
-0.2950944881889764
 30
0.0
 10
-0.2075275590551181
 20
-0.2820944881889764
 30
0.0
 10
-0.2075275590551181
 20
-0.2820944881889764
 30
0.0
 10
-0.2075275590551181
 20
-0.2820944881889764
 30
0.0
 10
-0.2075275590551181
 20
-0.2820944881889764
 30
0.0
 10
-0.2271299212598425
 20
-0.2681535433070866
 30
0.0
 10
-0.2271299212598425
 20
-0.2681535433070866
 30
0.0
 10
-0.2271299212598425
 20
-0.2681535433070866
 30
0.0
 10
-0.2271299212598425
 20
-0.2681535433070866
 30
0.0
 10
-0.2460196850393701
 20
-0.2533110236220473
 30
0.0
 10
-0.2460196850393701
 20
-0.2533110236220473
 30
0.0
 10
-0.2460196850393701
 20
-0.2533110236220473
 30
0.0
 10
-0.2460196850393701
 20
-0.2533110236220473
 30
0.0
 10
-0.2641614173228347
 20
-0.2375944881889764
 30
0.0
 10
-0.2641614173228347
 20
-0.2375944881889764
 30
0.0
 10
-0.2641614173228347
 20
-0.2375944881889764
 30
0.0
 10
-0.2641614173228347
 20
-0.2375944881889764
 30
0.0
 10
-0.2815314960629922
 20
-0.2210393700787402
 30
0.0
 10
-0.2815314960629922
 20
-0.2210393700787402
 30
0.0
 10
-0.2815314960629922
 20
-0.2210393700787402
 30
0.0
 10
-0.2815314960629922
 20
-0.2210393700787402
 30
0.0
 10
-0.2980866141732284
 20
-0.2036692913385827
 30
0.0
 10
-0.2980866141732284
 20
-0.2036692913385827
 30
0.0
 10
-0.2980866141732284
 20
-0.2036692913385827
 30
0.0
 10
-0.2980866141732284
 20
-0.2036692913385827
 30
0.0
 10
-0.3138031496062992
 20
-0.1855275590551181
 30
0.0
 10
-0.3138031496062992
 20
-0.1855275590551181
 30
0.0
 10
-0.3138031496062992
 20
-0.1855275590551181
 30
0.0
 10
-0.3138031496062992
 20
-0.1855275590551181
 30
0.0
 10
-0.3286456692913386
 20
-0.1666377952755906
 30
0.0
 10
-0.3286456692913386
 20
-0.1666377952755906
 30
0.0
 10
-0.3286456692913386
 20
-0.1666377952755906
 30
0.0
 10
-0.3286456692913386
 20
-0.1666377952755906
 30
0.0
 10
-0.3425866141732283
 20
-0.1470354330708661
 30
0.0
 10
-0.3425866141732283
 20
-0.1470354330708661
 30
0.0
 10
-0.3425866141732283
 20
-0.1470354330708661
 30
0.0
 10
-0.3425866141732283
 20
-0.1470354330708661
 30
0.0
 10
-0.3555866141732283
 20
-0.126744094488189
 30
0.0
 10
-0.3555866141732283
 20
-0.126744094488189
 30
0.0
 10
-0.3555866141732283
 20
-0.126744094488189
 30
0.0
 10
-0.3555866141732283
 20
-0.126744094488189
 30
0.0
 10
-0.3676299212598425
 20
-0.1058070866141732
 30
0.0
 10
-0.3676299212598425
 20
-0.1058070866141732
 30
0.0
 10
-0.3676299212598425
 20
-0.1058070866141732
 30
0.0
 10
-0.3676299212598425
 20
-0.1058070866141732
 30
0.0
 10
-0.3786732283464567
 20
-0.084244094488189
 30
0.0
 10
-0.3786732283464567
 20
-0.084244094488189
 30
0.0
 10
-0.3786732283464567
 20
-0.084244094488189
 30
0.0
 10
-0.3786732283464567
 20
-0.084244094488189
 30
0.0
 10
-0.3886929133858268
 20
-0.0621023622047244
 30
0.0
 10
-0.3886929133858268
 20
-0.0621023622047244
 30
0.0
 10
-0.3886929133858268
 20
-0.0621023622047244
 30
0.0
 10
-0.3886929133858268
 20
-0.0621023622047244
 30
0.0
 10
-0.3976417322834646
 20
-0.0393897637795276
 30
0.0
 10
-0.3976417322834646
 20
-0.0393897637795276
 30
0.0
 10
-0.3976417322834646
 20
-0.0393897637795276
 30
0.0
 10
-0.3976417322834646
 20
-0.0393897637795276
 30
0.0
 10
-0.4055078740157481
 20
-0.0161614173228346
 30
0.0
 10
-0.4055078740157481
 20
-0.0161614173228346
 30
0.0
 10
-0.4055078740157481
 20
-0.0161614173228346
 30
0.0
 10
-0.4055078740157481
 20
-0.0161614173228346
 30
0.0
 10
-0.412244094488189
 20
0.0075629921259843
 30
0.0
 10
-0.412244094488189
 20
0.0075629921259843
 30
0.0
 10
-0.412244094488189
 20
0.0075629921259843
 30
0.0
 10
-0.412244094488189
 20
0.0075629921259843
 30
0.0
 10
-0.4178307086614174
 20
0.031748031496063
 30
0.0
 10
-0.4178307086614174
 20
0.031748031496063
 30
0.0
 10
-0.4178307086614174
 20
0.031748031496063
 30
0.0
 10
-0.4178307086614174
 20
0.031748031496063
 30
0.0
 10
-0.4222244094488189
 20
0.0563700787401575
 30
0.0
 10
-0.4222244094488189
 20
0.0563700787401575
 30
0.0
 10
-0.4222244094488189
 20
0.0563700787401575
 30
0.0
 10
-0.4222244094488189
 20
0.0563700787401575
 30
0.0
 10
-0.4254094488188976
 20
0.0813858267716535
 30
0.0
 10
-0.4254094488188976
 20
0.0813858267716535
 30
0.0
 10
-0.4254094488188976
 20
0.0813858267716535
 30
0.0
 10
-0.4254094488188976
 20
0.0813858267716535
 30
0.0
 10
-0.4273425196850394
 20
0.1067755905511811
 30
0.0
 10
-0.4273425196850394
 20
0.1067755905511811
 30
0.0
 10
-0.4273425196850394
 20
0.1067755905511811
 30
0.0
 10
-0.4273425196850394
 20
0.1067755905511811
 30
0.0
 10
-0.427996062992126
 20
0.132496062992126
 30
0.0
 10
-0.427996062992126
 20
0.132496062992126
 30
0.0
 10
-0.427996062992126
 20
0.132496062992126
 30
0.0
 10
-0.427996062992126
 20
0.132496062992126
 30
0.0
 10
-1.0719015748031497
 20
-0.2394488188976378
 30
0.0
 10
-1.0719015748031497
 20
-0.2394488188976378
 30
0.0
 10
-1.0719015748031497
 20
-0.2394488188976378
 30
0.0
 10
-1.0719015748031497
 20
-0.2394488188976378
 30
0.0
 10
-1.0712480314960631
 20
-0.2651692913385827
 30
0.0
 10
-1.0712480314960631
 20
-0.2651692913385827
 30
0.0
 10
-1.0712480314960631
 20
-0.2651692913385827
 30
0.0
 10
-1.0712480314960631
 20
-0.2651692913385827
 30
0.0
 10
-1.0693149606299213
 20
-0.2905590551181103
 30
0.0
 10
-1.0693149606299213
 20
-0.2905590551181103
 30
0.0
 10
-1.0693149606299213
 20
-0.2905590551181103
 30
0.0
 10
-1.0693149606299213
 20
-0.2905590551181103
 30
0.0
 10
-1.0661299212598425
 20
-0.3155748031496063
 30
0.0
 10
-1.0661299212598425
 20
-0.3155748031496063
 30
0.0
 10
-1.0661299212598425
 20
-0.3155748031496063
 30
0.0
 10
-1.0661299212598425
 20
-0.3155748031496063
 30
0.0
 10
-1.061736220472441
 20
-0.3401968503937008
 30
0.0
 10
-1.061736220472441
 20
-0.3401968503937008
 30
0.0
 10
-1.061736220472441
 20
-0.3401968503937008
 30
0.0
 10
-1.061736220472441
 20
-0.3401968503937008
 30
0.0
 10
-1.0561496062992126
 20
-0.3643818897637796
 30
0.0
 10
-1.0561496062992126
 20
-0.3643818897637796
 30
0.0
 10
-1.0561496062992126
 20
-0.3643818897637796
 30
0.0
 10
-1.0561496062992126
 20
-0.3643818897637796
 30
0.0
 10
-1.0494133858267718
 20
-0.3881062992125984
 30
0.0
 10
-1.0494133858267718
 20
-0.3881062992125984
 30
0.0
 10
-1.0494133858267718
 20
-0.3881062992125984
 30
0.0
 10
-1.0494133858267718
 20
-0.3881062992125984
 30
0.0
 10
-1.0415472440944882
 20
-0.4113346456692913
 30
0.0
 10
-1.0415472440944882
 20
-0.4113346456692913
 30
0.0
 10
-1.0415472440944882
 20
-0.4113346456692913
 30
0.0
 10
-1.0415472440944882
 20
-0.4113346456692913
 30
0.0
 10
-1.0325984251968505
 20
-0.4340472440944882
 30
0.0
 10
-1.0325984251968505
 20
-0.4340472440944882
 30
0.0
 10
-1.0325984251968505
 20
-0.4340472440944882
 30
0.0
 10
-1.0325984251968505
 20
-0.4340472440944882
 30
0.0
 10
-1.0225787401574804
 20
-0.4561889763779528
 30
0.0
 10
-1.0225787401574804
 20
-0.4561889763779528
 30
0.0
 10
-1.0225787401574804
 20
-0.4561889763779528
 30
0.0
 10
-1.0225787401574804
 20
-0.4561889763779528
 30
0.0
 10
-1.0115354330708661
 20
-0.477751968503937
 30
0.0
 10
-1.0115354330708661
 20
-0.477751968503937
 30
0.0
 10
-1.0115354330708661
 20
-0.477751968503937
 30
0.0
 10
-1.0115354330708661
 20
-0.477751968503937
 30
0.0
 10
-0.999492125984252
 20
-0.4986889763779528
 30
0.0
 10
-0.999492125984252
 20
-0.4986889763779528
 30
0.0
 10
-0.999492125984252
 20
-0.4986889763779528
 30
0.0
 10
-0.999492125984252
 20
-0.4986889763779528
 30
0.0
 10
-0.986492125984252
 20
-0.5189803149606299
 30
0.0
 10
-0.986492125984252
 20
-0.5189803149606299
 30
0.0
 10
-0.986492125984252
 20
-0.5189803149606299
 30
0.0
 10
-0.986492125984252
 20
-0.5189803149606299
 30
0.0
 10
-0.9725511811023623
 20
-0.5385826771653544
 30
0.0
 10
-0.9725511811023623
 20
-0.5385826771653544
 30
0.0
 10
-0.9725511811023623
 20
-0.5385826771653544
 30
0.0
 10
-0.9725511811023623
 20
-0.5385826771653544
 30
0.0
 10
-0.9577086614173229
 20
-0.5574724409448819
 30
0.0
 10
-0.9577086614173229
 20
-0.5574724409448819
 30
0.0
 10
-0.9577086614173229
 20
-0.5574724409448819
 30
0.0
 10
-0.9577086614173229
 20
-0.5574724409448819
 30
0.0
 10
-0.941992125984252
 20
-0.5756141732283465
 30
0.0
 10
-0.941992125984252
 20
-0.5756141732283465
 30
0.0
 10
-0.941992125984252
 20
-0.5756141732283465
 30
0.0
 10
-0.941992125984252
 20
-0.5756141732283465
 30
0.0
 10
-0.9254370078740158
 20
-0.5929842519685039
 30
0.0
 10
-0.9254370078740158
 20
-0.5929842519685039
 30
0.0
 10
-0.9254370078740158
 20
-0.5929842519685039
 30
0.0
 10
-0.9254370078740158
 20
-0.5929842519685039
 30
0.0
 10
-0.9080669291338583
 20
-0.6095393700787402
 30
0.0
 10
-0.9080669291338583
 20
-0.6095393700787402
 30
0.0
 10
-0.9080669291338583
 20
-0.6095393700787402
 30
0.0
 10
-0.9080669291338583
 20
-0.6095393700787402
 30
0.0
 10
-0.8899251968503937
 20
-0.6252559055118111
 30
0.0
 10
-0.8899251968503937
 20
-0.6252559055118111
 30
0.0
 10
-0.8899251968503937
 20
-0.6252559055118111
 30
0.0
 10
-0.8899251968503937
 20
-0.6252559055118111
 30
0.0
 10
-0.8710354330708662
 20
-0.6400984251968505
 30
0.0
 10
-0.8710354330708662
 20
-0.6400984251968505
 30
0.0
 10
-0.8710354330708662
 20
-0.6400984251968505
 30
0.0
 10
-0.8710354330708662
 20
-0.6400984251968505
 30
0.0
 10
-0.8514330708661417
 20
-0.6540393700787401
 30
0.0
 10
-0.8514330708661417
 20
-0.6540393700787401
 30
0.0
 10
-0.8514330708661417
 20
-0.6540393700787401
 30
0.0
 10
-0.8514330708661417
 20
-0.6540393700787401
 30
0.0
 10
-0.8311417322834646
 20
-0.6670393700787402
 30
0.0
 10
-0.8311417322834646
 20
-0.6670393700787402
 30
0.0
 10
-0.8311417322834646
 20
-0.6670393700787402
 30
0.0
 10
-0.8311417322834646
 20
-0.6670393700787402
 30
0.0
 10
-0.8102047244094488
 20
-0.6790826771653543
 30
0.0
 10
-0.8102047244094488
 20
-0.6790826771653543
 30
0.0
 10
-0.8102047244094488
 20
-0.6790826771653543
 30
0.0
 10
-0.8102047244094488
 20
-0.6790826771653543
 30
0.0
 10
-0.7886417322834646
 20
-0.6901259842519686
 30
0.0
 10
-0.7886417322834646
 20
-0.6901259842519686
 30
0.0
 10
-0.7886417322834646
 20
-0.6901259842519686
 30
0.0
 10
-0.7886417322834646
 20
-0.6901259842519686
 30
0.0
 10
-0.7665000000000001
 20
-0.7001456692913386
 30
0.0
 10
-0.7665000000000001
 20
-0.7001456692913386
 30
0.0
 10
-0.7665000000000001
 20
-0.7001456692913386
 30
0.0
 10
-0.7665000000000001
 20
-0.7001456692913386
 30
0.0
 10
-0.7437874015748032
 20
-0.7090944881889764
 30
0.0
 10
-0.7437874015748032
 20
-0.7090944881889764
 30
0.0
 10
-0.7437874015748032
 20
-0.7090944881889764
 30
0.0
 10
-0.7437874015748032
 20
-0.7090944881889764
 30
0.0
 10
-0.7205590551181103
 20
-0.7169606299212599
 30
0.0
 10
-0.7205590551181103
 20
-0.7169606299212599
 30
0.0
 10
-0.7205590551181103
 20
-0.7169606299212599
 30
0.0
 10
-0.7205590551181103
 20
-0.7169606299212599
 30
0.0
 10
-0.6968346456692913
 20
-0.7236968503937008
 30
0.0
 10
-0.6968346456692913
 20
-0.7236968503937008
 30
0.0
 10
-0.6968346456692913
 20
-0.7236968503937008
 30
0.0
 10
-0.6968346456692913
 20
-0.7236968503937008
 30
0.0
 10
-0.6726496062992127
 20
-0.7292834645669292
 30
0.0
 10
-0.6726496062992127
 20
-0.7292834645669292
 30
0.0
 10
-0.6726496062992127
 20
-0.7292834645669292
 30
0.0
 10
-0.6726496062992127
 20
-0.7292834645669292
 30
0.0
 10
-0.6480275590551181
 20
-0.7336771653543307
 30
0.0
 10
-0.6480275590551181
 20
-0.7336771653543307
 30
0.0
 10
-0.6480275590551181
 20
-0.7336771653543307
 30
0.0
 10
-0.6480275590551181
 20
-0.7336771653543307
 30
0.0
 10
-0.623011811023622
 20
-0.7368622047244094
 30
0.0
 10
-0.623011811023622
 20
-0.7368622047244094
 30
0.0
 10
-0.623011811023622
 20
-0.7368622047244094
 30
0.0
 10
-0.623011811023622
 20
-0.7368622047244094
 30
0.0
 10
-0.5976220472440945
 20
-0.7387952755905513
 30
0.0
 10
-0.5976220472440945
 20
-0.7387952755905513
 30
0.0
 10
-0.5976220472440945
 20
-0.7387952755905513
 30
0.0
 10
-0.5976220472440945
 20
-0.7387952755905513
 30
0.0
 10
-0.5719015748031496
 20
-0.7394488188976378
 30
0.0
 10
-0.5719015748031496
 20
-0.7394488188976378
 30
0.0
  0
SPLINE
  5
76
100
AcDbEntity
  8
Additional Graphics
 62
   252
100
AcDbSpline
210
0.0
220
0.0
230
1.0
 70
     1
 71
     3
 72
    20
 73
    16
 74
     0
 42
0.0000000001
 43
0.0000000001
 40
0.0
 40
0.0
 40
0.0
 40
0.0
 40
0.25
 40
0.25
 40
0.25
 40
0.25
 40
0.5
 40
0.5
 40
0.5
 40
0.5
 40
0.75
 40
0.75
 40
0.75
 40
0.75
 40
1.0
 40
1.0
 40
1.0
 40
1.0
 10
-1.0719015748031497
 20
-0.2394488188976378
 30
0.0
 10
-1.0719015748031497
 20
-0.2394488188976378
 30
0.0
 10
-0.427996062992126
 20
0.132496062992126
 30
0.0
 10
-0.427996062992126
 20
0.132496062992126
 30
0.0
 10
-0.427996062992126
 20
0.132496062992126
 30
0.0
 10
-0.427996062992126
 20
0.132496062992126
 30
0.0
 10
-0.802996062992126
 20
0.132496062992126
 30
0.0
 10
-0.802996062992126
 20
0.132496062992126
 30
0.0
 10
-0.802996062992126
 20
0.132496062992126
 30
0.0
 10
-0.802996062992126
 20
0.132496062992126
 30
0.0
 10
-1.4469015748031497
 20
-0.2394488188976378
 30
0.0
 10
-1.4469015748031497
 20
-0.2394488188976378
 30
0.0
 10
-1.4469015748031497
 20
-0.2394488188976378
 30
0.0
 10
-1.4469015748031497
 20
-0.2394488188976378
 30
0.0
 10
-1.0719015748031497
 20
-0.2394488188976378
 30
0.0
 10
-1.0719015748031497
 20
-0.2394488188976378
 30
0.0
  0
SPLINE
  5
77
100
AcDbEntity
  8
Additional Graphics
370
     5
100
AcDbSpline
210
0.0
220
0.0
230
1.0
 70
     1
 71
     3
 72
    20
 73
    16
 74
     0
 42
0.0000000001
 43
0.0000000001
 40
0.0
 40
0.0
 40
0.0
 40
0.0
 40
0.25
 40
0.25
 40
0.25
 40
0.25
 40
0.5
 40
0.5
 40
0.5
 40
0.5
 40
0.75
 40
0.75
 40
0.75
 40
0.75
 40
1.0
 40
1.0
 40
1.0
 40
1.0
 10
-1.0719015748031497
 20
-0.2394488188976378
 30
0.0
 10
-1.0719015748031497
 20
-0.2394488188976378
 30
0.0
 10
-0.427996062992126
 20
0.132496062992126
 30
0.0
 10
-0.427996062992126
 20
0.132496062992126
 30
0.0
 10
-0.427996062992126
 20
0.132496062992126
 30
0.0
 10
-0.427996062992126
 20
0.132496062992126
 30
0.0
 10
-0.802996062992126
 20
0.132496062992126
 30
0.0
 10
-0.802996062992126
 20
0.132496062992126
 30
0.0
 10
-0.802996062992126
 20
0.132496062992126
 30
0.0
 10
-0.802996062992126
 20
0.132496062992126
 30
0.0
 10
-1.4469015748031497
 20
-0.2394488188976378
 30
0.0
 10
-1.4469015748031497
 20
-0.2394488188976378
 30
0.0
 10
-1.4469015748031497
 20
-0.2394488188976378
 30
0.0
 10
-1.4469015748031497
 20
-0.2394488188976378
 30
0.0
 10
-1.0719015748031497
 20
-0.2394488188976378
 30
0.0
 10
-1.0719015748031497
 20
-0.2394488188976378
 30
0.0
  0
SPLINE
  5
78
100
AcDbEntity
  8
Additional Graphics
 62
     9
100
AcDbSpline
210
0.0
220
0.0
230
1.0
 70
     1
 71
     3
 72
    20
 73
    16
 74
     0
 42
0.0000000001
 43
0.0000000001
 40
0.0
 40
0.0
 40
0.0
 40
0.0
 40
0.25
 40
0.25
 40
0.25
 40
0.25
 40
0.5
 40
0.5
 40
0.5
 40
0.5
 40
0.75
 40
0.75
 40
0.75
 40
0.75
 40
1.0
 40
1.0
 40
1.0
 40
1.0
 10
-0.5718937007874017
 20
-3.301952755905512
 30
0.0
 10
-0.5718937007874017
 20
-3.301952755905512
 30
0.0
 10
0.072011811023622
 20
-2.930007874015748
 30
0.0
 10
0.072011811023622
 20
-2.930007874015748
 30
0.0
 10
0.072011811023622
 20
-2.930007874015748
 30
0.0
 10
0.072011811023622
 20
-2.930007874015748
 30
0.0
 10
0.072011811023622
 20
-2.867507874015748
 30
0.0
 10
0.072011811023622
 20
-2.867507874015748
 30
0.0
 10
0.072011811023622
 20
-2.867507874015748
 30
0.0
 10
0.072011811023622
 20
-2.867507874015748
 30
0.0
 10
-0.5718937007874017
 20
-3.239452755905512
 30
0.0
 10
-0.5718937007874017
 20
-3.239452755905512
 30
0.0
 10
-0.5718937007874017
 20
-3.239452755905512
 30
0.0
 10
-0.5718937007874017
 20
-3.239452755905512
 30
0.0
 10
-0.5718937007874017
 20
-3.301952755905512
 30
0.0
 10
-0.5718937007874017
 20
-3.301952755905512
 30
0.0
  0
SPLINE
  5
79
100
AcDbEntity
  8
Additional Graphics
370
     5
100
AcDbSpline
210
0.0
220
0.0
230
1.0
 70
     1
 71
     3
 72
    20
 73
    16
 74
     0
 42
0.0000000001
 43
0.0000000001
 40
0.0
 40
0.0
 40
0.0
 40
0.0
 40
0.25
 40
0.25
 40
0.25
 40
0.25
 40
0.5
 40
0.5
 40
0.5
 40
0.5
 40
0.75
 40
0.75
 40
0.75
 40
0.75
 40
1.0
 40
1.0
 40
1.0
 40
1.0
 10
-0.5718937007874017
 20
-3.301952755905512
 30
0.0
 10
-0.5718937007874017
 20
-3.301952755905512
 30
0.0
 10
0.072011811023622
 20
-2.930007874015748
 30
0.0
 10
0.072011811023622
 20
-2.930007874015748
 30
0.0
 10
0.072011811023622
 20
-2.930007874015748
 30
0.0
 10
0.072011811023622
 20
-2.930007874015748
 30
0.0
 10
0.072011811023622
 20
-2.867507874015748
 30
0.0
 10
0.072011811023622
 20
-2.867507874015748
 30
0.0
 10
0.072011811023622
 20
-2.867507874015748
 30
0.0
 10
0.072011811023622
 20
-2.867507874015748
 30
0.0
 10
-0.5718937007874017
 20
-3.239452755905512
 30
0.0
 10
-0.5718937007874017
 20
-3.239452755905512
 30
0.0
 10
-0.5718937007874017
 20
-3.239452755905512
 30
0.0
 10
-0.5718937007874017
 20
-3.239452755905512
 30
0.0
 10
-0.5718937007874017
 20
-3.301952755905512
 30
0.0
 10
-0.5718937007874017
 20
-3.301952755905512
 30
0.0
  0
SPLINE
  5
7A
100
AcDbEntity
  8
Additional Graphics
 62
   253
100
AcDbSpline
210
0.0
220
0.0
230
1.0
 70
     1
 71
     3
 72
    20
 73
    16
 74
     0
 42
0.0000000001
 43
0.0000000001
 40
0.0
 40
0.0
 40
0.0
 40
0.0
 40
0.25
 40
0.25
 40
0.25
 40
0.25
 40
0.5
 40
0.5
 40
0.5
 40
0.5
 40
0.75
 40
0.75
 40
0.75
 40
0.75
 40
1.0
 40
1.0
 40
1.0
 40
1.0
 10
0.0570511811023622
 20
-3.047287401574803
 30
0.0
 10
0.0570511811023622
 20
-3.047287401574803
 30
0.0
 10
0.7009566929133858
 20
-2.6753425196850396
 30
0.0
 10
0.7009566929133858
 20
-2.6753425196850396
 30
0.0
 10
0.7009566929133858
 20
-2.6753425196850396
 30
0.0
 10
0.7009566929133858
 20
-2.6753425196850396
 30
0.0
 10
0.7450590551181102
 20
-2.6439724409448822
 30
0.0
 10
0.7450590551181102
 20
-2.6439724409448822
 30
0.0
 10
0.7450590551181102
 20
-2.6439724409448822
 30
0.0
 10
0.7450590551181102
 20
-2.6439724409448822
 30
0.0
 10
0.1011535433070866
 20
-3.0159173228346456
 30
0.0
 10
0.1011535433070866
 20
-3.0159173228346456
 30
0.0
 10
0.1011535433070866
 20
-3.0159173228346456
 30
0.0
 10
0.1011535433070866
 20
-3.0159173228346456
 30
0.0
 10
0.0570511811023622
 20
-3.047287401574803
 30
0.0
 10
0.0570511811023622
 20
-3.047287401574803
 30
0.0
  0
SPLINE
  5
7B
100
AcDbEntity
  8
Additional Graphics
 62
   253
100
AcDbSpline
210
0.0
220
0.0
230
1.0
 70
     1
 71
     3
 72
    20
 73
    16
 74
     0
 42
0.0000000001
 43
0.0000000001
 40
0.0
 40
0.0
 40
0.0
 40
0.0
 40
0.25
 40
0.25
 40
0.25
 40
0.25
 40
0.5
 40
0.5
 40
0.5
 40
0.5
 40
0.75
 40
0.75
 40
0.75
 40
0.75
 40
1.0
 40
1.0
 40
1.0
 40
1.0
 10
0.1011535433070866
 20
-3.0159173228346456
 30
0.0
 10
0.1011535433070866
 20
-3.0159173228346456
 30
0.0
 10
0.7450590551181102
 20
-2.6439724409448822
 30
0.0
 10
0.7450590551181102
 20
-2.6439724409448822
 30
0.0
 10
0.7450590551181102
 20
-2.6439724409448822
 30
0.0
 10
0.7450590551181102
 20
-2.6439724409448822
 30
0.0
 10
0.7875590551181103
 20
-2.6105708661417322
 30
0.0
 10
0.7875590551181103
 20
-2.6105708661417322
 30
0.0
 10
0.7875590551181103
 20
-2.6105708661417322
 30
0.0
 10
0.7875590551181103
 20
-2.6105708661417322
 30
0.0
 10
0.1436535433070866
 20
-2.9825157480314961
 30
0.0
 10
0.1436535433070866
 20
-2.9825157480314961
 30
0.0
 10
0.1436535433070866
 20
-2.9825157480314961
 30
0.0
 10
0.1436535433070866
 20
-2.9825157480314961
 30
0.0
 10
0.1011535433070866
 20
-3.0159173228346456
 30
0.0
 10
0.1011535433070866
 20
-3.0159173228346456
 30
0.0
  0
SPLINE
  5
7C
100
AcDbEntity
  8
Additional Graphics
 62
     9
100
AcDbSpline
210
0.0
220
0.0
230
1.0
 70
     1
 71
     3
 72
    20
 73
    16
 74
     0
 42
0.0000000001
 43
0.0000000001
 40
0.0
 40
0.0
 40
0.0
 40
0.0
 40
0.25
 40
0.25
 40
0.25
 40
0.25
 40
0.5
 40
0.5
 40
0.5
 40
0.5
 40
0.75
 40
0.75
 40
0.75
 40
0.75
 40
1.0
 40
1.0
 40
1.0
 40
1.0
 10
0.1436535433070866
 20
-2.9825157480314961
 30
0.0
 10
0.1436535433070866
 20
-2.9825157480314961
 30
0.0
 10
0.7875590551181103
 20
-2.6105708661417322
 30
0.0
 10
0.7875590551181103
 20
-2.6105708661417322
 30
0.0
 10
0.7875590551181103
 20
-2.6105708661417322
 30
0.0
 10
0.7875590551181103
 20
-2.6105708661417322
 30
0.0
 10
0.8283779527559055
 20
-2.5752086614173231
 30
0.0
 10
0.8283779527559055
 20
-2.5752086614173231
 30
0.0
 10
0.8283779527559055
 20
-2.5752086614173231
 30
0.0
 10
0.8283779527559055
 20
-2.5752086614173231
 30
0.0
 10
0.1844724409448819
 20
-2.9471535433070866
 30
0.0
 10
0.1844724409448819
 20
-2.9471535433070866
 30
0.0
 10
0.1844724409448819
 20
-2.9471535433070866
 30
0.0
 10
0.1844724409448819
 20
-2.9471535433070866
 30
0.0
 10
0.1436535433070866
 20
-2.9825157480314961
 30
0.0
 10
0.1436535433070866
 20
-2.9825157480314961
 30
0.0
  0
SPLINE
  5
7D
100
AcDbEntity
  8
Additional Graphics
 62
     9
100
AcDbSpline
210
0.0
220
0.0
230
1.0
 70
     1
 71
     3
 72
    20
 73
    16
 74
     0
 42
0.0000000001
 43
0.0000000001
 40
0.0
 40
0.0
 40
0.0
 40
0.0
 40
0.25
 40
0.25
 40
0.25
 40
0.25
 40
0.5
 40
0.5
 40
0.5
 40
0.5
 40
0.75
 40
0.75
 40
0.75
 40
0.75
 40
1.0
 40
1.0
 40
1.0
 40
1.0
 10
0.1844724409448819
 20
-2.9471535433070866
 30
0.0
 10
0.1844724409448819
 20
-2.9471535433070866
 30
0.0
 10
0.8283779527559055
 20
-2.5752086614173231
 30
0.0
 10
0.8283779527559055
 20
-2.5752086614173231
 30
0.0
 10
0.8283779527559055
 20
-2.5752086614173231
 30
0.0
 10
0.8283779527559055
 20
-2.5752086614173231
 30
0.0
 10
0.8674606299212598
 20
-2.53796062992126
 30
0.0
 10
0.8674606299212598
 20
-2.53796062992126
 30
0.0
 10
0.8674606299212598
 20
-2.53796062992126
 30
0.0
 10
0.8674606299212598
 20
-2.53796062992126
 30
0.0
 10
0.2235551181102362
 20
-2.9099055118110235
 30
0.0
 10
0.2235551181102362
 20
-2.9099055118110235
 30
0.0
 10
0.2235551181102362
 20
-2.9099055118110235
 30
0.0
 10
0.2235551181102362
 20
-2.9099055118110235
 30
0.0
 10
0.1844724409448819
 20
-2.9471535433070866
 30
0.0
 10
0.1844724409448819
 20
-2.9471535433070866
 30
0.0
  0
SPLINE
  5
7E
100
AcDbEntity
  8
Additional Graphics
 62
     9
100
AcDbSpline
210
0.0
220
0.0
230
1.0
 70
     1
 71
     3
 72
    20
 73
    16
 74
     0
 42
0.0000000001
 43
0.0000000001
 40
0.0
 40
0.0
 40
0.0
 40
0.0
 40
0.25
 40
0.25
 40
0.25
 40
0.25
 40
0.5
 40
0.5
 40
0.5
 40
0.5
 40
0.75
 40
0.75
 40
0.75
 40
0.75
 40
1.0
 40
1.0
 40
1.0
 40
1.0
 10
0.2235551181102362
 20
-2.9099055118110235
 30
0.0
 10
0.2235551181102362
 20
-2.9099055118110235
 30
0.0
 10
0.8674606299212598
 20
-2.53796062992126
 30
0.0
 10
0.8674606299212598
 20
-2.53796062992126
 30
0.0
 10
0.8674606299212598
 20
-2.53796062992126
 30
0.0
 10
0.8674606299212598
 20
-2.53796062992126
 30
0.0
 10
0.9047086614173229
 20
-2.4988779527559055
 30
0.0
 10
0.9047086614173229
 20
-2.4988779527559055
 30
0.0
 10
0.9047086614173229
 20
-2.4988779527559055
 30
0.0
 10
0.9047086614173229
 20
-2.4988779527559055
 30
0.0
 10
0.2608031496062992
 20
-2.8708228346456695
 30
0.0
 10
0.2608031496062992
 20
-2.8708228346456695
 30
0.0
 10
0.2608031496062992
 20
-2.8708228346456695
 30
0.0
 10
0.2608031496062992
 20
-2.8708228346456695
 30
0.0
 10
0.2235551181102362
 20
-2.9099055118110235
 30
0.0
 10
0.2235551181102362
 20
-2.9099055118110235
 30
0.0
  0
SPLINE
  5
7F
100
AcDbEntity
  8
Additional Graphics
 62
     9
100
AcDbSpline
210
0.0
220
0.0
230
1.0
 70
     1
 71
     3
 72
    20
 73
    16
 74
     0
 42
0.0000000001
 43
0.0000000001
 40
0.0
 40
0.0
 40
0.0
 40
0.0
 40
0.25
 40
0.25
 40
0.25
 40
0.25
 40
0.5
 40
0.5
 40
0.5
 40
0.5
 40
0.75
 40
0.75
 40
0.75
 40
0.75
 40
1.0
 40
1.0
 40
1.0
 40
1.0
 10
0.2608031496062992
 20
-2.8708228346456695
 30
0.0
 10
0.2608031496062992
 20
-2.8708228346456695
 30
0.0
 10
0.9047086614173229
 20
-2.4988779527559055
 30
0.0
 10
0.9047086614173229
 20
-2.4988779527559055
 30
0.0
 10
0.9047086614173229
 20
-2.4988779527559055
 30
0.0
 10
0.9047086614173229
 20
-2.4988779527559055
 30
0.0
 10
0.9400708661417323
 20
-2.4580590551181105
 30
0.0
 10
0.9400708661417323
 20
-2.4580590551181105
 30
0.0
 10
0.9400708661417323
 20
-2.4580590551181105
 30
0.0
 10
0.9400708661417323
 20
-2.4580590551181105
 30
0.0
 10
0.2961653543307087
 20
-2.830003937007874
 30
0.0
 10
0.2961653543307087
 20
-2.830003937007874
 30
0.0
 10
0.2961653543307087
 20
-2.830003937007874
 30
0.0
 10
0.2961653543307087
 20
-2.830003937007874
 30
0.0
 10
0.2608031496062992
 20
-2.8708228346456695
 30
0.0
 10
0.2608031496062992
 20
-2.8708228346456695
 30
0.0
  0
SPLINE
  5
80
100
AcDbEntity
  8
Additional Graphics
 62
     9
100
AcDbSpline
210
0.0
220
0.0
230
1.0
 70
     1
 71
     3
 72
    20
 73
    16
 74
     0
 42
0.0000000001
 43
0.0000000001
 40
0.0
 40
0.0
 40
0.0
 40
0.0
 40
0.25
 40
0.25
 40
0.25
 40
0.25
 40
0.5
 40
0.5
 40
0.5
 40
0.5
 40
0.75
 40
0.75
 40
0.75
 40
0.75
 40
1.0
 40
1.0
 40
1.0
 40
1.0
 10
0.2961653543307087
 20
-2.830003937007874
 30
0.0
 10
0.2961653543307087
 20
-2.830003937007874
 30
0.0
 10
0.9400708661417323
 20
-2.4580590551181105
 30
0.0
 10
0.9400708661417323
 20
-2.4580590551181105
 30
0.0
 10
0.9400708661417323
 20
-2.4580590551181105
 30
0.0
 10
0.9400708661417323
 20
-2.4580590551181105
 30
0.0
 10
0.9734724409448819
 20
-2.4155551181102362
 30
0.0
 10
0.9734724409448819
 20
-2.4155551181102362
 30
0.0
 10
0.9734724409448819
 20
-2.4155551181102362
 30
0.0
 10
0.9734724409448819
 20
-2.4155551181102362
 30
0.0
 10
0.3295669291338583
 20
-2.7875000000000001
 30
0.0
 10
0.3295669291338583
 20
-2.7875000000000001
 30
0.0
 10
0.3295669291338583
 20
-2.7875000000000001
 30
0.0
 10
0.3295669291338583
 20
-2.7875000000000001
 30
0.0
 10
0.2961653543307087
 20
-2.830003937007874
 30
0.0
 10
0.2961653543307087
 20
-2.830003937007874
 30
0.0
  0
SPLINE
  5
81
100
AcDbEntity
  8
Additional Graphics
 62
     9
100
AcDbSpline
210
0.0
220
0.0
230
1.0
 70
     1
 71
     3
 72
    20
 73
    16
 74
     0
 42
0.0000000001
 43
0.0000000001
 40
0.0
 40
0.0
 40
0.0
 40
0.0
 40
0.25
 40
0.25
 40
0.25
 40
0.25
 40
0.5
 40
0.5
 40
0.5
 40
0.5
 40
0.75
 40
0.75
 40
0.75
 40
0.75
 40
1.0
 40
1.0
 40
1.0
 40
1.0
 10
0.3295669291338583
 20
-2.7875000000000001
 30
0.0
 10
0.3295669291338583
 20
-2.7875000000000001
 30
0.0
 10
0.9734724409448819
 20
-2.4155551181102362
 30
0.0
 10
0.9734724409448819
 20
-2.4155551181102362
 30
0.0
 10
0.9734724409448819
 20
-2.4155551181102362
 30
0.0
 10
0.9734724409448819
 20
-2.4155551181102362
 30
0.0
 10
1.0048425196850395
 20
-2.3714527559055121
 30
0.0
 10
1.0048425196850395
 20
-2.3714527559055121
 30
0.0
 10
1.0048425196850395
 20
-2.3714527559055121
 30
0.0
 10
1.0048425196850395
 20
-2.3714527559055121
 30
0.0
 10
0.3609370078740158
 20
-2.7433976377952756
 30
0.0
 10
0.3609370078740158
 20
-2.7433976377952756
 30
0.0
 10
0.3609370078740158
 20
-2.7433976377952756
 30
0.0
 10
0.3609370078740158
 20
-2.7433976377952756
 30
0.0
 10
0.3295669291338583
 20
-2.7875000000000001
 30
0.0
 10
0.3295669291338583
 20
-2.7875000000000001
 30
0.0
  0
SPLINE
  5
82
100
AcDbEntity
  8
Additional Graphics
 62
     9
100
AcDbSpline
210
0.0
220
0.0
230
1.0
 70
     1
 71
     3
 72
    20
 73
    16
 74
     0
 42
0.0000000001
 43
0.0000000001
 40
0.0
 40
0.0
 40
0.0
 40
0.0
 40
0.25
 40
0.25
 40
0.25
 40
0.25
 40
0.5
 40
0.5
 40
0.5
 40
0.5
 40
0.75
 40
0.75
 40
0.75
 40
0.75
 40
1.0
 40
1.0
 40
1.0
 40
1.0
 10
0.3609370078740158
 20
-2.7433976377952756
 30
0.0
 10
0.3609370078740158
 20
-2.7433976377952756
 30
0.0
 10
1.0048425196850395
 20
-2.3714527559055121
 30
0.0
 10
1.0048425196850395
 20
-2.3714527559055121
 30
0.0
 10
1.0048425196850395
 20
-2.3714527559055121
 30
0.0
 10
1.0048425196850395
 20
-2.3714527559055121
 30
0.0
 10
1.0341023622047245
 20
-2.3258031496062994
 30
0.0
 10
1.0341023622047245
 20
-2.3258031496062994
 30
0.0
 10
1.0341023622047245
 20
-2.3258031496062994
 30
0.0
 10
1.0341023622047245
 20
-2.3258031496062994
 30
0.0
 10
0.3901968503937008
 20
-2.6977480314960629
 30
0.0
 10
0.3901968503937008
 20
-2.6977480314960629
 30
0.0
 10
0.3901968503937008
 20
-2.6977480314960629
 30
0.0
 10
0.3901968503937008
 20
-2.6977480314960629
 30
0.0
 10
0.3609370078740158
 20
-2.7433976377952756
 30
0.0
 10
0.3609370078740158
 20
-2.7433976377952756
 30
0.0
  0
SPLINE
  5
83
100
AcDbEntity
  8
Additional Graphics
 62
     9
100
AcDbSpline
210
0.0
220
0.0
230
1.0
 70
     1
 71
     3
 72
    20
 73
    16
 74
     0
 42
0.0000000001
 43
0.0000000001
 40
0.0
 40
0.0
 40
0.0
 40
0.0
 40
0.25
 40
0.25
 40
0.25
 40
0.25
 40
0.5
 40
0.5
 40
0.5
 40
0.5
 40
0.75
 40
0.75
 40
0.75
 40
0.75
 40
1.0
 40
1.0
 40
1.0
 40
1.0
 10
0.3901968503937008
 20
-2.6977480314960629
 30
0.0
 10
0.3901968503937008
 20
-2.6977480314960629
 30
0.0
 10
1.0341023622047245
 20
-2.3258031496062994
 30
0.0
 10
1.0341023622047245
 20
-2.3258031496062994
 30
0.0
 10
1.0341023622047245
 20
-2.3258031496062994
 30
0.0
 10
1.0341023622047245
 20
-2.3258031496062994
 30
0.0
 10
1.0611968503937008
 20
-2.2786929133858269
 30
0.0
 10
1.0611968503937008
 20
-2.2786929133858269
 30
0.0
 10
1.0611968503937008
 20
-2.2786929133858269
 30
0.0
 10
1.0611968503937008
 20
-2.2786929133858269
 30
0.0
 10
0.4172913385826772
 20
-2.6506377952755908
 30
0.0
 10
0.4172913385826772
 20
-2.6506377952755908
 30
0.0
 10
0.4172913385826772
 20
-2.6506377952755908
 30
0.0
 10
0.4172913385826772
 20
-2.6506377952755908
 30
0.0
 10
0.3901968503937008
 20
-2.6977480314960629
 30
0.0
 10
0.3901968503937008
 20
-2.6977480314960629
 30
0.0
  0
SPLINE
  5
84
100
AcDbEntity
  8
Additional Graphics
 62
     9
100
AcDbSpline
210
0.0
220
0.0
230
1.0
 70
     1
 71
     3
 72
    20
 73
    16
 74
     0
 42
0.0000000001
 43
0.0000000001
 40
0.0
 40
0.0
 40
0.0
 40
0.0
 40
0.25
 40
0.25
 40
0.25
 40
0.25
 40
0.5
 40
0.5
 40
0.5
 40
0.5
 40
0.75
 40
0.75
 40
0.75
 40
0.75
 40
1.0
 40
1.0
 40
1.0
 40
1.0
 10
0.4172913385826772
 20
-2.6506377952755908
 30
0.0
 10
0.4172913385826772
 20
-2.6506377952755908
 30
0.0
 10
1.0611968503937008
 20
-2.2786929133858269
 30
0.0
 10
1.0611968503937008
 20
-2.2786929133858269
 30
0.0
 10
1.0611968503937008
 20
-2.2786929133858269
 30
0.0
 10
1.0611968503937008
 20
-2.2786929133858269
 30
0.0
 10
1.0860472440944882
 20
-2.2301850393700788
 30
0.0
 10
1.0860472440944882
 20
-2.2301850393700788
 30
0.0
 10
1.0860472440944882
 20
-2.2301850393700788
 30
0.0
 10
1.0860472440944882
 20
-2.2301850393700788
 30
0.0
 10
0.4421417322834646
 20
-2.6021299212598428
 30
0.0
 10
0.4421417322834646
 20
-2.6021299212598428
 30
0.0
 10
0.4421417322834646
 20
-2.6021299212598428
 30
0.0
 10
0.4421417322834646
 20
-2.6021299212598428
 30
0.0
 10
0.4172913385826772
 20
-2.6506377952755908
 30
0.0
 10
0.4172913385826772
 20
-2.6506377952755908
 30
0.0
  0
SPLINE
  5
85
100
AcDbEntity
  8
Additional Graphics
 62
     9
100
AcDbSpline
210
0.0
220
0.0
230
1.0
 70
     1
 71
     3
 72
    20
 73
    16
 74
     0
 42
0.0000000001
 43
0.0000000001
 40
0.0
 40
0.0
 40
0.0
 40
0.0
 40
0.25
 40
0.25
 40
0.25
 40
0.25
 40
0.5
 40
0.5
 40
0.5
 40
0.5
 40
0.75
 40
0.75
 40
0.75
 40
0.75
 40
1.0
 40
1.0
 40
1.0
 40
1.0
 10
0.4421417322834646
 20
-2.6021299212598428
 30
0.0
 10
0.4421417322834646
 20
-2.6021299212598428
 30
0.0
 10
1.0860472440944882
 20
-2.2301850393700788
 30
0.0
 10
1.0860472440944882
 20
-2.2301850393700788
 30
0.0
 10
1.0860472440944882
 20
-2.2301850393700788
 30
0.0
 10
1.0860472440944882
 20
-2.2301850393700788
 30
0.0
 10
1.1085826771653544
 20
-2.1803582677165356
 30
0.0
 10
1.1085826771653544
 20
-2.1803582677165356
 30
0.0
 10
1.1085826771653544
 20
-2.1803582677165356
 30
0.0
 10
1.1085826771653544
 20
-2.1803582677165356
 30
0.0
 10
0.4646771653543307
 20
-2.5523031496062991
 30
0.0
 10
0.4646771653543307
 20
-2.5523031496062991
 30
0.0
 10
0.4646771653543307
 20
-2.5523031496062991
 30
0.0
 10
0.4646771653543307
 20
-2.5523031496062991
 30
0.0
 10
0.4421417322834646
 20
-2.6021299212598428
 30
0.0
 10
0.4421417322834646
 20
-2.6021299212598428
 30
0.0
  0
SPLINE
  5
86
100
AcDbEntity
  8
Additional Graphics
 62
     9
100
AcDbSpline
210
0.0
220
0.0
230
1.0
 70
     1
 71
     3
 72
    20
 73
    16
 74
     0
 42
0.0000000001
 43
0.0000000001
 40
0.0
 40
0.0
 40
0.0
 40
0.0
 40
0.25
 40
0.25
 40
0.25
 40
0.25
 40
0.5
 40
0.5
 40
0.5
 40
0.5
 40
0.75
 40
0.75
 40
0.75
 40
0.75
 40
1.0
 40
1.0
 40
1.0
 40
1.0
 10
0.4646771653543307
 20
-2.5523031496062991
 30
0.0
 10
0.4646771653543307
 20
-2.5523031496062991
 30
0.0
 10
1.1085826771653544
 20
-2.1803582677165356
 30
0.0
 10
1.1085826771653544
 20
-2.1803582677165356
 30
0.0
 10
1.1085826771653544
 20
-2.1803582677165356
 30
0.0
 10
1.1085826771653544
 20
-2.1803582677165356
 30
0.0
 10
1.128720472440945
 20
-2.1292637795275593
 30
0.0
 10
1.128720472440945
 20
-2.1292637795275593
 30
0.0
 10
1.128720472440945
 20
-2.1292637795275593
 30
0.0
 10
1.128720472440945
 20
-2.1292637795275593
 30
0.0
 10
0.4848149606299213
 20
-2.5012086614173228
 30
0.0
 10
0.4848149606299213
 20
-2.5012086614173228
 30
0.0
 10
0.4848149606299213
 20
-2.5012086614173228
 30
0.0
 10
0.4848149606299213
 20
-2.5012086614173228
 30
0.0
 10
0.4646771653543307
 20
-2.5523031496062991
 30
0.0
 10
0.4646771653543307
 20
-2.5523031496062991
 30
0.0
  0
SPLINE
  5
87
100
AcDbEntity
  8
Additional Graphics
 62
     9
100
AcDbSpline
210
0.0
220
0.0
230
1.0
 70
     1
 71
     3
 72
    20
 73
    16
 74
     0
 42
0.0000000001
 43
0.0000000001
 40
0.0
 40
0.0
 40
0.0
 40
0.0
 40
0.25
 40
0.25
 40
0.25
 40
0.25
 40
0.5
 40
0.5
 40
0.5
 40
0.5
 40
0.75
 40
0.75
 40
0.75
 40
0.75
 40
1.0
 40
1.0
 40
1.0
 40
1.0
 10
0.4848149606299213
 20
-2.5012086614173228
 30
0.0
 10
0.4848149606299213
 20
-2.5012086614173228
 30
0.0
 10
1.128720472440945
 20
-2.1292637795275593
 30
0.0
 10
1.128720472440945
 20
-2.1292637795275593
 30
0.0
 10
1.128720472440945
 20
-2.1292637795275593
 30
0.0
 10
1.128720472440945
 20
-2.1292637795275593
 30
0.0
 10
1.1464133858267718
 20
-2.077
 30
0.0
 10
1.1464133858267718
 20
-2.077
 30
0.0
 10
1.1464133858267718
 20
-2.077
 30
0.0
 10
1.1464133858267718
 20
-2.077
 30
0.0
 10
0.502507874015748
 20
-2.4489448818897639
 30
0.0
 10
0.502507874015748
 20
-2.4489448818897639
 30
0.0
 10
0.502507874015748
 20
-2.4489448818897639
 30
0.0
 10
0.502507874015748
 20
-2.4489448818897639
 30
0.0
 10
0.4848149606299213
 20
-2.5012086614173228
 30
0.0
 10
0.4848149606299213
 20
-2.5012086614173228
 30
0.0
  0
SPLINE
  5
88
100
AcDbEntity
  8
Additional Graphics
 62
     9
100
AcDbSpline
210
0.0
220
0.0
230
1.0
 70
     1
 71
     3
 72
    20
 73
    16
 74
     0
 42
0.0000000001
 43
0.0000000001
 40
0.0
 40
0.0
 40
0.0
 40
0.0
 40
0.25
 40
0.25
 40
0.25
 40
0.25
 40
0.5
 40
0.5
 40
0.5
 40
0.5
 40
0.75
 40
0.75
 40
0.75
 40
0.75
 40
1.0
 40
1.0
 40
1.0
 40
1.0
 10
0.502507874015748
 20
-2.4489448818897639
 30
0.0
 10
0.502507874015748
 20
-2.4489448818897639
 30
0.0
 10
1.1464133858267718
 20
-2.077
 30
0.0
 10
1.1464133858267718
 20
-2.077
 30
0.0
 10
1.1464133858267718
 20
-2.077
 30
0.0
 10
1.1464133858267718
 20
-2.077
 30
0.0
 10
1.1615787401574804
 20
-2.0236141732283466
 30
0.0
 10
1.1615787401574804
 20
-2.0236141732283466
 30
0.0
 10
1.1615787401574804
 20
-2.0236141732283466
 30
0.0
 10
1.1615787401574804
 20
-2.0236141732283466
 30
0.0
 10
0.5176732283464567
 20
-2.3955590551181105
 30
0.0
 10
0.5176732283464567
 20
-2.3955590551181105
 30
0.0
 10
0.5176732283464567
 20
-2.3955590551181105
 30
0.0
 10
0.5176732283464567
 20
-2.3955590551181105
 30
0.0
 10
0.502507874015748
 20
-2.4489448818897639
 30
0.0
 10
0.502507874015748
 20
-2.4489448818897639
 30
0.0
  0
SPLINE
  5
89
100
AcDbEntity
  8
Additional Graphics
 62
     9
100
AcDbSpline
210
0.0
220
0.0
230
1.0
 70
     1
 71
     3
 72
    20
 73
    16
 74
     0
 42
0.0000000001
 43
0.0000000001
 40
0.0
 40
0.0
 40
0.0
 40
0.0
 40
0.25
 40
0.25
 40
0.25
 40
0.25
 40
0.5
 40
0.5
 40
0.5
 40
0.5
 40
0.75
 40
0.75
 40
0.75
 40
0.75
 40
1.0
 40
1.0
 40
1.0
 40
1.0
 10
0.5176732283464567
 20
-2.3955590551181105
 30
0.0
 10
0.5176732283464567
 20
-2.3955590551181105
 30
0.0
 10
1.1615787401574804
 20
-2.0236141732283466
 30
0.0
 10
1.1615787401574804
 20
-2.0236141732283466
 30
0.0
 10
1.1615787401574804
 20
-2.0236141732283466
 30
0.0
 10
1.1615787401574804
 20
-2.0236141732283466
 30
0.0
 10
1.1741456692913386
 20
-1.969196850393701
 30
0.0
 10
1.1741456692913386
 20
-1.969196850393701
 30
0.0
 10
1.1741456692913386
 20
-1.969196850393701
 30
0.0
 10
1.1741456692913386
 20
-1.969196850393701
 30
0.0
 10
0.5302401574803149
 20
-2.3411417322834644
 30
0.0
 10
0.5302401574803149
 20
-2.3411417322834644
 30
0.0
 10
0.5302401574803149
 20
-2.3411417322834644
 30
0.0
 10
0.5302401574803149
 20
-2.3411417322834644
 30
0.0
 10
0.5176732283464567
 20
-2.3955590551181105
 30
0.0
 10
0.5176732283464567
 20
-2.3955590551181105
 30
0.0
  0
SPLINE
  5
8A
100
AcDbEntity
  8
Additional Graphics
 62
     9
100
AcDbSpline
210
0.0
220
0.0
230
1.0
 70
     1
 71
     3
 72
    20
 73
    16
 74
     0
 42
0.0000000001
 43
0.0000000001
 40
0.0
 40
0.0
 40
0.0
 40
0.0
 40
0.25
 40
0.25
 40
0.25
 40
0.25
 40
0.5
 40
0.5
 40
0.5
 40
0.5
 40
0.75
 40
0.75
 40
0.75
 40
0.75
 40
1.0
 40
1.0
 40
1.0
 40
1.0
 10
0.5302401574803149
 20
-2.3411417322834644
 30
0.0
 10
0.5302401574803149
 20
-2.3411417322834644
 30
0.0
 10
1.1741456692913386
 20
-1.969196850393701
 30
0.0
 10
1.1741456692913386
 20
-1.969196850393701
 30
0.0
 10
1.1741456692913386
 20
-1.969196850393701
 30
0.0
 10
1.1741456692913386
 20
-1.969196850393701
 30
0.0
 10
1.1840393700787402
 20
-1.9137992125984253
 30
0.0
 10
1.1840393700787402
 20
-1.9137992125984253
 30
0.0
 10
1.1840393700787402
 20
-1.9137992125984253
 30
0.0
 10
1.1840393700787402
 20
-1.9137992125984253
 30
0.0
 10
0.5401338582677165
 20
-2.285744094488189
 30
0.0
 10
0.5401338582677165
 20
-2.285744094488189
 30
0.0
 10
0.5401338582677165
 20
-2.285744094488189
 30
0.0
 10
0.5401338582677165
 20
-2.285744094488189
 30
0.0
 10
0.5302401574803149
 20
-2.3411417322834644
 30
0.0
 10
0.5302401574803149
 20
-2.3411417322834644
 30
0.0
  0
SPLINE
  5
8B
100
AcDbEntity
  8
Additional Graphics
 62
     9
100
AcDbSpline
210
0.0
220
0.0
230
1.0
 70
     1
 71
     3
 72
    20
 73
    16
 74
     0
 42
0.0000000001
 43
0.0000000001
 40
0.0
 40
0.0
 40
0.0
 40
0.0
 40
0.25
 40
0.25
 40
0.25
 40
0.25
 40
0.5
 40
0.5
 40
0.5
 40
0.5
 40
0.75
 40
0.75
 40
0.75
 40
0.75
 40
1.0
 40
1.0
 40
1.0
 40
1.0
 10
0.5401338582677165
 20
-2.285744094488189
 30
0.0
 10
0.5401338582677165
 20
-2.285744094488189
 30
0.0
 10
1.1840393700787402
 20
-1.9137992125984253
 30
0.0
 10
1.1840393700787402
 20
-1.9137992125984253
 30
0.0
 10
1.1840393700787402
 20
-1.9137992125984253
 30
0.0
 10
1.1840393700787402
 20
-1.9137992125984253
 30
0.0
 10
1.1911968503937009
 20
-1.857507874015748
 30
0.0
 10
1.1911968503937009
 20
-1.857507874015748
 30
0.0
 10
1.1911968503937009
 20
-1.857507874015748
 30
0.0
 10
1.1911968503937009
 20
-1.857507874015748
 30
0.0
 10
0.5472913385826772
 20
-2.2294527559055117
 30
0.0
 10
0.5472913385826772
 20
-2.2294527559055117
 30
0.0
 10
0.5472913385826772
 20
-2.2294527559055117
 30
0.0
 10
0.5472913385826772
 20
-2.2294527559055117
 30
0.0
 10
0.5401338582677165
 20
-2.285744094488189
 30
0.0
 10
0.5401338582677165
 20
-2.285744094488189
 30
0.0
  0
SPLINE
  5
8C
100
AcDbEntity
  8
Additional Graphics
 62
     9
100
AcDbSpline
210
0.0
220
0.0
230
1.0
 70
     1
 71
     3
 72
    20
 73
    16
 74
     0
 42
0.0000000001
 43
0.0000000001
 40
0.0
 40
0.0
 40
0.0
 40
0.0
 40
0.25
 40
0.25
 40
0.25
 40
0.25
 40
0.5
 40
0.5
 40
0.5
 40
0.5
 40
0.75
 40
0.75
 40
0.75
 40
0.75
 40
1.0
 40
1.0
 40
1.0
 40
1.0
 10
0.5472913385826772
 20
-2.2294527559055117
 30
0.0
 10
0.5472913385826772
 20
-2.2294527559055117
 30
0.0
 10
1.1911968503937009
 20
-1.857507874015748
 30
0.0
 10
1.1911968503937009
 20
-1.857507874015748
 30
0.0
 10
1.1911968503937009
 20
-1.857507874015748
 30
0.0
 10
1.1911968503937009
 20
-1.857507874015748
 30
0.0
 10
1.1955433070866142
 20
-1.8003818897637796
 30
0.0
 10
1.1955433070866142
 20
-1.8003818897637796
 30
0.0
 10
1.1955433070866142
 20
-1.8003818897637796
 30
0.0
 10
1.1955433070866142
 20
-1.8003818897637796
 30
0.0
 10
0.5516377952755905
 20
-2.1723267716535433
 30
0.0
 10
0.5516377952755905
 20
-2.1723267716535433
 30
0.0
 10
0.5516377952755905
 20
-2.1723267716535433
 30
0.0
 10
0.5516377952755905
 20
-2.1723267716535433
 30
0.0
 10
0.5472913385826772
 20
-2.2294527559055117
 30
0.0
 10
0.5472913385826772
 20
-2.2294527559055117
 30
0.0
  0
SPLINE
  5
8D
100
AcDbEntity
  8
Additional Graphics
 62
     9
100
AcDbSpline
210
0.0
220
0.0
230
1.0
 70
     1
 71
     3
 72
    20
 73
    16
 74
     0
 42
0.0000000001
 43
0.0000000001
 40
0.0
 40
0.0
 40
0.0
 40
0.0
 40
0.25
 40
0.25
 40
0.25
 40
0.25
 40
0.5
 40
0.5
 40
0.5
 40
0.5
 40
0.75
 40
0.75
 40
0.75
 40
0.75
 40
1.0
 40
1.0
 40
1.0
 40
1.0
 10
0.5516377952755905
 20
-2.1723267716535433
 30
0.0
 10
0.5516377952755905
 20
-2.1723267716535433
 30
0.0
 10
1.1955433070866142
 20
-1.8003818897637796
 30
0.0
 10
1.1955433070866142
 20
-1.8003818897637796
 30
0.0
 10
1.1955433070866142
 20
-1.8003818897637796
 30
0.0
 10
1.1955433070866142
 20
-1.8003818897637796
 30
0.0
 10
1.1970078740157482
 20
-1.742507874015748
 30
0.0
 10
1.1970078740157482
 20
-1.742507874015748
 30
0.0
 10
1.1970078740157482
 20
-1.742507874015748
 30
0.0
 10
1.1970078740157482
 20
-1.742507874015748
 30
0.0
 10
0.5531023622047244
 20
-2.114452755905512
 30
0.0
 10
0.5531023622047244
 20
-2.114452755905512
 30
0.0
 10
0.5531023622047244
 20
-2.114452755905512
 30
0.0
 10
0.5531023622047244
 20
-2.114452755905512
 30
0.0
 10
0.5516377952755905
 20
-2.1723267716535433
 30
0.0
 10
0.5516377952755905
 20
-2.1723267716535433
 30
0.0
  0
SPLINE
  5
8E
100
AcDbEntity
  8
Additional Graphics
 62
     9
100
AcDbSpline
210
0.0
220
0.0
230
1.0
 70
     1
 71
     3
 72
    20
 73
    16
 74
     0
 42
0.0000000001
 43
0.0000000001
 40
0.0
 40
0.0
 40
0.0
 40
0.0
 40
0.25
 40
0.25
 40
0.25
 40
0.25
 40
0.5
 40
0.5
 40
0.5
 40
0.5
 40
0.75
 40
0.75
 40
0.75
 40
0.75
 40
1.0
 40
1.0
 40
1.0
 40
1.0
 10
0.5531023622047244
 20
-2.114452755905512
 30
0.0
 10
0.5531023622047244
 20
-2.114452755905512
 30
0.0
 10
1.1970078740157482
 20
-1.742507874015748
 30
0.0
 10
1.1970078740157482
 20
-1.742507874015748
 30
0.0
 10
1.1970078740157482
 20
-1.742507874015748
 30
0.0
 10
1.1970078740157482
 20
-1.742507874015748
 30
0.0
 10
1.1955433070866142
 20
-1.6846220472440945
 30
0.0
 10
1.1955433070866142
 20
-1.6846220472440945
 30
0.0
 10
1.1955433070866142
 20
-1.6846220472440945
 30
0.0
 10
1.1955433070866142
 20
-1.6846220472440945
 30
0.0
 10
0.5516377952755905
 20
-2.0565669291338584
 30
0.0
 10
0.5516377952755905
 20
-2.0565669291338584
 30
0.0
 10
0.5516377952755905
 20
-2.0565669291338584
 30
0.0
 10
0.5516377952755905
 20
-2.0565669291338584
 30
0.0
 10
0.5531023622047244
 20
-2.114452755905512
 30
0.0
 10
0.5531023622047244
 20
-2.114452755905512
 30
0.0
  0
SPLINE
  5
8F
100
AcDbEntity
  8
Additional Graphics
 62
     9
100
AcDbSpline
210
0.0
220
0.0
230
1.0
 70
     1
 71
     3
 72
    20
 73
    16
 74
     0
 42
0.0000000001
 43
0.0000000001
 40
0.0
 40
0.0
 40
0.0
 40
0.0
 40
0.25
 40
0.25
 40
0.25
 40
0.25
 40
0.5
 40
0.5
 40
0.5
 40
0.5
 40
0.75
 40
0.75
 40
0.75
 40
0.75
 40
1.0
 40
1.0
 40
1.0
 40
1.0
 10
0.5516377952755905
 20
-2.0565669291338584
 30
0.0
 10
0.5516377952755905
 20
-2.0565669291338584
 30
0.0
 10
1.1955433070866142
 20
-1.6846220472440945
 30
0.0
 10
1.1955433070866142
 20
-1.6846220472440945
 30
0.0
 10
1.1955433070866142
 20
-1.6846220472440945
 30
0.0
 10
1.1955433070866142
 20
-1.6846220472440945
 30
0.0
 10
1.1911968503937009
 20
-1.627496062992126
 30
0.0
 10
1.1911968503937009
 20
-1.627496062992126
 30
0.0
 10
1.1911968503937009
 20
-1.627496062992126
 30
0.0
 10
1.1911968503937009
 20
-1.627496062992126
 30
0.0
 10
0.5472913385826772
 20
-1.9994409448818899
 30
0.0
 10
0.5472913385826772
 20
-1.9994409448818899
 30
0.0
 10
0.5472913385826772
 20
-1.9994409448818899
 30
0.0
 10
0.5472913385826772
 20
-1.9994409448818899
 30
0.0
 10
0.5516377952755905
 20
-2.0565669291338584
 30
0.0
 10
0.5516377952755905
 20
-2.0565669291338584
 30
0.0
  0
SPLINE
  5
90
100
AcDbEntity
  8
Additional Graphics
 62
     9
100
AcDbSpline
210
0.0
220
0.0
230
1.0
 70
     1
 71
     3
 72
    20
 73
    16
 74
     0
 42
0.0000000001
 43
0.0000000001
 40
0.0
 40
0.0
 40
0.0
 40
0.0
 40
0.25
 40
0.25
 40
0.25
 40
0.25
 40
0.5
 40
0.5
 40
0.5
 40
0.5
 40
0.75
 40
0.75
 40
0.75
 40
0.75
 40
1.0
 40
1.0
 40
1.0
 40
1.0
 10
0.5472913385826772
 20
-1.9994409448818899
 30
0.0
 10
0.5472913385826772
 20
-1.9994409448818899
 30
0.0
 10
1.1911968503937009
 20
-1.627496062992126
 30
0.0
 10
1.1911968503937009
 20
-1.627496062992126
 30
0.0
 10
1.1911968503937009
 20
-1.627496062992126
 30
0.0
 10
1.1911968503937009
 20
-1.627496062992126
 30
0.0
 10
1.1840393700787402
 20
-1.5712007874015748
 30
0.0
 10
1.1840393700787402
 20
-1.5712007874015748
 30
0.0
 10
1.1840393700787402
 20
-1.5712007874015748
 30
0.0
 10
1.1840393700787402
 20
-1.5712007874015748
 30
0.0
 10
0.5401338582677165
 20
-1.9431456692913387
 30
0.0
 10
0.5401338582677165
 20
-1.9431456692913387
 30
0.0
 10
0.5401338582677165
 20
-1.9431456692913387
 30
0.0
 10
0.5401338582677165
 20
-1.9431456692913387
 30
0.0
 10
0.5472913385826772
 20
-1.9994409448818899
 30
0.0
 10
0.5472913385826772
 20
-1.9994409448818899
 30
0.0
  0
SPLINE
  5
91
100
AcDbEntity
  8
Additional Graphics
 62
     9
100
AcDbSpline
210
0.0
220
0.0
230
1.0
 70
     1
 71
     3
 72
    20
 73
    16
 74
     0
 42
0.0000000001
 43
0.0000000001
 40
0.0
 40
0.0
 40
0.0
 40
0.0
 40
0.25
 40
0.25
 40
0.25
 40
0.25
 40
0.5
 40
0.5
 40
0.5
 40
0.5
 40
0.75
 40
0.75
 40
0.75
 40
0.75
 40
1.0
 40
1.0
 40
1.0
 40
1.0
 10
0.5401338582677165
 20
-1.9431456692913387
 30
0.0
 10
0.5401338582677165
 20
-1.9431456692913387
 30
0.0
 10
1.1840393700787402
 20
-1.5712007874015748
 30
0.0
 10
1.1840393700787402
 20
-1.5712007874015748
 30
0.0
 10
1.1840393700787402
 20
-1.5712007874015748
 30
0.0
 10
1.1840393700787402
 20
-1.5712007874015748
 30
0.0
 10
1.1741456692913386
 20
-1.5158070866141733
 30
0.0
 10
1.1741456692913386
 20
-1.5158070866141733
 30
0.0
 10
1.1741456692913386
 20
-1.5158070866141733
 30
0.0
 10
1.1741456692913386
 20
-1.5158070866141733
 30
0.0
 10
0.5302401574803149
 20
-1.887751968503937
 30
0.0
 10
0.5302401574803149
 20
-1.887751968503937
 30
0.0
 10
0.5302401574803149
 20
-1.887751968503937
 30
0.0
 10
0.5302401574803149
 20
-1.887751968503937
 30
0.0
 10
0.5401338582677165
 20
-1.9431456692913387
 30
0.0
 10
0.5401338582677165
 20
-1.9431456692913387
 30
0.0
  0
SPLINE
  5
92
100
AcDbEntity
  8
Additional Graphics
 62
     9
100
AcDbSpline
210
0.0
220
0.0
230
1.0
 70
     1
 71
     3
 72
    20
 73
    16
 74
     0
 42
0.0000000001
 43
0.0000000001
 40
0.0
 40
0.0
 40
0.0
 40
0.0
 40
0.25
 40
0.25
 40
0.25
 40
0.25
 40
0.5
 40
0.5
 40
0.5
 40
0.5
 40
0.75
 40
0.75
 40
0.75
 40
0.75
 40
1.0
 40
1.0
 40
1.0
 40
1.0
 10
0.5302401574803149
 20
-1.887751968503937
 30
0.0
 10
0.5302401574803149
 20
-1.887751968503937
 30
0.0
 10
1.1741456692913386
 20
-1.5158070866141733
 30
0.0
 10
1.1741456692913386
 20
-1.5158070866141733
 30
0.0
 10
1.1741456692913386
 20
-1.5158070866141733
 30
0.0
 10
1.1741456692913386
 20
-1.5158070866141733
 30
0.0
 10
1.1615787401574804
 20
-1.4613818897637796
 30
0.0
 10
1.1615787401574804
 20
-1.4613818897637796
 30
0.0
 10
1.1615787401574804
 20
-1.4613818897637796
 30
0.0
 10
1.1615787401574804
 20
-1.4613818897637796
 30
0.0
 10
0.5176732283464567
 20
-1.8333267716535433
 30
0.0
 10
0.5176732283464567
 20
-1.8333267716535433
 30
0.0
 10
0.5176732283464567
 20
-1.8333267716535433
 30
0.0
 10
0.5176732283464567
 20
-1.8333267716535433
 30
0.0
 10
0.5302401574803149
 20
-1.887751968503937
 30
0.0
 10
0.5302401574803149
 20
-1.887751968503937
 30
0.0
  0
SPLINE
  5
93
100
AcDbEntity
  8
Additional Graphics
 62
     9
100
AcDbSpline
210
0.0
220
0.0
230
1.0
 70
     1
 71
     3
 72
    20
 73
    16
 74
     0
 42
0.0000000001
 43
0.0000000001
 40
0.0
 40
0.0
 40
0.0
 40
0.0
 40
0.25
 40
0.25
 40
0.25
 40
0.25
 40
0.5
 40
0.5
 40
0.5
 40
0.5
 40
0.75
 40
0.75
 40
0.75
 40
0.75
 40
1.0
 40
1.0
 40
1.0
 40
1.0
 10
0.5176732283464567
 20
-1.8333267716535433
 30
0.0
 10
0.5176732283464567
 20
-1.8333267716535433
 30
0.0
 10
1.1615787401574804
 20
-1.4613818897637796
 30
0.0
 10
1.1615787401574804
 20
-1.4613818897637796
 30
0.0
 10
1.1615787401574804
 20
-1.4613818897637796
 30
0.0
 10
1.1615787401574804
 20
-1.4613818897637796
 30
0.0
 10
1.1464133858267718
 20
-1.4080039370078741
 30
0.0
 10
1.1464133858267718
 20
-1.4080039370078741
 30
0.0
 10
1.1464133858267718
 20
-1.4080039370078741
 30
0.0
 10
1.1464133858267718
 20
-1.4080039370078741
 30
0.0
 10
0.502507874015748
 20
-1.7799488188976378
 30
0.0
 10
0.502507874015748
 20
-1.7799488188976378
 30
0.0
 10
0.502507874015748
 20
-1.7799488188976378
 30
0.0
 10
0.502507874015748
 20
-1.7799488188976378
 30
0.0
 10
0.5176732283464567
 20
-1.8333267716535433
 30
0.0
 10
0.5176732283464567
 20
-1.8333267716535433
 30
0.0
  0
SPLINE
  5
94
100
AcDbEntity
  8
Additional Graphics
 62
     9
100
AcDbSpline
210
0.0
220
0.0
230
1.0
 70
     1
 71
     3
 72
    20
 73
    16
 74
     0
 42
0.0000000001
 43
0.0000000001
 40
0.0
 40
0.0
 40
0.0
 40
0.0
 40
0.25
 40
0.25
 40
0.25
 40
0.25
 40
0.5
 40
0.5
 40
0.5
 40
0.5
 40
0.75
 40
0.75
 40
0.75
 40
0.75
 40
1.0
 40
1.0
 40
1.0
 40
1.0
 10
0.502507874015748
 20
-1.7799488188976378
 30
0.0
 10
0.502507874015748
 20
-1.7799488188976378
 30
0.0
 10
1.1464133858267718
 20
-1.4080039370078741
 30
0.0
 10
1.1464133858267718
 20
-1.4080039370078741
 30
0.0
 10
1.1464133858267718
 20
-1.4080039370078741
 30
0.0
 10
1.1464133858267718
 20
-1.4080039370078741
 30
0.0
 10
1.128720472440945
 20
-1.3557322834645671
 30
0.0
 10
1.128720472440945
 20
-1.3557322834645671
 30
0.0
 10
1.128720472440945
 20
-1.3557322834645671
 30
0.0
 10
1.128720472440945
 20
-1.3557322834645671
 30
0.0
 10
0.4848149606299213
 20
-1.7276771653543308
 30
0.0
 10
0.4848149606299213
 20
-1.7276771653543308
 30
0.0
 10
0.4848149606299213
 20
-1.7276771653543308
 30
0.0
 10
0.4848149606299213
 20
-1.7276771653543308
 30
0.0
 10
0.502507874015748
 20
-1.7799488188976378
 30
0.0
 10
0.502507874015748
 20
-1.7799488188976378
 30
0.0
  0
SPLINE
  5
95
100
AcDbEntity
  8
Additional Graphics
 62
     9
100
AcDbSpline
210
0.0
220
0.0
230
1.0
 70
     1
 71
     3
 72
    20
 73
    16
 74
     0
 42
0.0000000001
 43
0.0000000001
 40
0.0
 40
0.0
 40
0.0
 40
0.0
 40
0.25
 40
0.25
 40
0.25
 40
0.25
 40
0.5
 40
0.5
 40
0.5
 40
0.5
 40
0.75
 40
0.75
 40
0.75
 40
0.75
 40
1.0
 40
1.0
 40
1.0
 40
1.0
 10
0.4848149606299213
 20
-1.7276771653543308
 30
0.0
 10
0.4848149606299213
 20
-1.7276771653543308
 30
0.0
 10
1.128720472440945
 20
-1.3557322834645671
 30
0.0
 10
1.128720472440945
 20
-1.3557322834645671
 30
0.0
 10
1.128720472440945
 20
-1.3557322834645671
 30
0.0
 10
1.128720472440945
 20
-1.3557322834645671
 30
0.0
 10
1.1085826771653544
 20
-1.3046496062992126
 30
0.0
 10
1.1085826771653544
 20
-1.3046496062992126
 30
0.0
 10
1.1085826771653544
 20
-1.3046496062992126
 30
0.0
 10
1.1085826771653544
 20
-1.3046496062992126
 30
0.0
 10
0.4646771653543307
 20
-1.6765944881889765
 30
0.0
 10
0.4646771653543307
 20
-1.6765944881889765
 30
0.0
 10
0.4646771653543307
 20
-1.6765944881889765
 30
0.0
 10
0.4646771653543307
 20
-1.6765944881889765
 30
0.0
 10
0.4848149606299213
 20
-1.7276771653543308
 30
0.0
 10
0.4848149606299213
 20
-1.7276771653543308
 30
0.0
  0
SPLINE
  5
96
100
AcDbEntity
  8
Additional Graphics
 62
     9
100
AcDbSpline
210
0.0
220
0.0
230
1.0
 70
     1
 71
     3
 72
    20
 73
    16
 74
     0
 42
0.0000000001
 43
0.0000000001
 40
0.0
 40
0.0
 40
0.0
 40
0.0
 40
0.25
 40
0.25
 40
0.25
 40
0.25
 40
0.5
 40
0.5
 40
0.5
 40
0.5
 40
0.75
 40
0.75
 40
0.75
 40
0.75
 40
1.0
 40
1.0
 40
1.0
 40
1.0
 10
0.4646771653543307
 20
-1.6765944881889765
 30
0.0
 10
0.4646771653543307
 20
-1.6765944881889765
 30
0.0
 10
1.1085826771653544
 20
-1.3046496062992126
 30
0.0
 10
1.1085826771653544
 20
-1.3046496062992126
 30
0.0
 10
1.1085826771653544
 20
-1.3046496062992126
 30
0.0
 10
1.1085826771653544
 20
-1.3046496062992126
 30
0.0
 10
1.0860472440944882
 20
-1.2548149606299213
 30
0.0
 10
1.0860472440944882
 20
-1.2548149606299213
 30
0.0
 10
1.0860472440944882
 20
-1.2548149606299213
 30
0.0
 10
1.0860472440944882
 20
-1.2548149606299213
 30
0.0
 10
0.4421417322834646
 20
-1.6267598425196852
 30
0.0
 10
0.4421417322834646
 20
-1.6267598425196852
 30
0.0
 10
0.4421417322834646
 20
-1.6267598425196852
 30
0.0
 10
0.4421417322834646
 20
-1.6267598425196852
 30
0.0
 10
0.4646771653543307
 20
-1.6765944881889765
 30
0.0
 10
0.4646771653543307
 20
-1.6765944881889765
 30
0.0
  0
SPLINE
  5
97
100
AcDbEntity
  8
Additional Graphics
 62
     9
100
AcDbSpline
210
0.0
220
0.0
230
1.0
 70
     1
 71
     3
 72
    20
 73
    16
 74
     0
 42
0.0000000001
 43
0.0000000001
 40
0.0
 40
0.0
 40
0.0
 40
0.0
 40
0.25
 40
0.25
 40
0.25
 40
0.25
 40
0.5
 40
0.5
 40
0.5
 40
0.5
 40
0.75
 40
0.75
 40
0.75
 40
0.75
 40
1.0
 40
1.0
 40
1.0
 40
1.0
 10
0.4421417322834646
 20
-1.6267598425196852
 30
0.0
 10
0.4421417322834646
 20
-1.6267598425196852
 30
0.0
 10
1.0860472440944882
 20
-1.2548149606299213
 30
0.0
 10
1.0860472440944882
 20
-1.2548149606299213
 30
0.0
 10
1.0860472440944882
 20
-1.2548149606299213
 30
0.0
 10
1.0860472440944882
 20
-1.2548149606299213
 30
0.0
 10
1.0611968503937008
 20
-1.2063070866141732
 30
0.0
 10
1.0611968503937008
 20
-1.2063070866141732
 30
0.0
 10
1.0611968503937008
 20
-1.2063070866141732
 30
0.0
 10
1.0611968503937008
 20
-1.2063070866141732
 30
0.0
 10
0.4172913385826772
 20
-1.5782519685039371
 30
0.0
 10
0.4172913385826772
 20
-1.5782519685039371
 30
0.0
 10
0.4172913385826772
 20
-1.5782519685039371
 30
0.0
 10
0.4172913385826772
 20
-1.5782519685039371
 30
0.0
 10
0.4421417322834646
 20
-1.6267598425196852
 30
0.0
 10
0.4421417322834646
 20
-1.6267598425196852
 30
0.0
  0
SPLINE
  5
98
100
AcDbEntity
  8
Additional Graphics
 62
     9
100
AcDbSpline
210
0.0
220
0.0
230
1.0
 70
     1
 71
     3
 72
    20
 73
    16
 74
     0
 42
0.0000000001
 43
0.0000000001
 40
0.0
 40
0.0
 40
0.0
 40
0.0
 40
0.25
 40
0.25
 40
0.25
 40
0.25
 40
0.5
 40
0.5
 40
0.5
 40
0.5
 40
0.75
 40
0.75
 40
0.75
 40
0.75
 40
1.0
 40
1.0
 40
1.0
 40
1.0
 10
0.4172913385826772
 20
-1.5782519685039371
 30
0.0
 10
0.4172913385826772
 20
-1.5782519685039371
 30
0.0
 10
1.0611968503937008
 20
-1.2063070866141732
 30
0.0
 10
1.0611968503937008
 20
-1.2063070866141732
 30
0.0
 10
1.0611968503937008
 20
-1.2063070866141732
 30
0.0
 10
1.0611968503937008
 20
-1.2063070866141732
 30
0.0
 10
1.0341023622047245
 20
-1.1591929133858268
 30
0.0
 10
1.0341023622047245
 20
-1.1591929133858268
 30
0.0
 10
1.0341023622047245
 20
-1.1591929133858268
 30
0.0
 10
1.0341023622047245
 20
-1.1591929133858268
 30
0.0
 10
0.3901968503937008
 20
-1.5311377952755907
 30
0.0
 10
0.3901968503937008
 20
-1.5311377952755907
 30
0.0
 10
0.3901968503937008
 20
-1.5311377952755907
 30
0.0
 10
0.3901968503937008
 20
-1.5311377952755907
 30
0.0
 10
0.4172913385826772
 20
-1.5782519685039371
 30
0.0
 10
0.4172913385826772
 20
-1.5782519685039371
 30
0.0
  0
SPLINE
  5
99
100
AcDbEntity
  8
Additional Graphics
 62
     9
100
AcDbSpline
210
0.0
220
0.0
230
1.0
 70
     1
 71
     3
 72
    20
 73
    16
 74
     0
 42
0.0000000001
 43
0.0000000001
 40
0.0
 40
0.0
 40
0.0
 40
0.0
 40
0.25
 40
0.25
 40
0.25
 40
0.25
 40
0.5
 40
0.5
 40
0.5
 40
0.5
 40
0.75
 40
0.75
 40
0.75
 40
0.75
 40
1.0
 40
1.0
 40
1.0
 40
1.0
 10
0.3901968503937008
 20
-1.5311377952755907
 30
0.0
 10
0.3901968503937008
 20
-1.5311377952755907
 30
0.0
 10
1.0341023622047245
 20
-1.1591929133858268
 30
0.0
 10
1.0341023622047245
 20
-1.1591929133858268
 30
0.0
 10
1.0341023622047245
 20
-1.1591929133858268
 30
0.0
 10
1.0341023622047245
 20
-1.1591929133858268
 30
0.0
 10
1.0048425196850395
 20
-1.1135511811023622
 30
0.0
 10
1.0048425196850395
 20
-1.1135511811023622
 30
0.0
 10
1.0048425196850395
 20
-1.1135511811023622
 30
0.0
 10
1.0048425196850395
 20
-1.1135511811023622
 30
0.0
 10
0.3609370078740158
 20
-1.4854960629921261
 30
0.0
 10
0.3609370078740158
 20
-1.4854960629921261
 30
0.0
 10
0.3609370078740158
 20
-1.4854960629921261
 30
0.0
 10
0.3609370078740158
 20
-1.4854960629921261
 30
0.0
 10
0.3901968503937008
 20
-1.5311377952755907
 30
0.0
 10
0.3901968503937008
 20
-1.5311377952755907
 30
0.0
  0
SPLINE
  5
9A
100
AcDbEntity
  8
Additional Graphics
 62
     9
100
AcDbSpline
210
0.0
220
0.0
230
1.0
 70
     1
 71
     3
 72
    20
 73
    16
 74
     0
 42
0.0000000001
 43
0.0000000001
 40
0.0
 40
0.0
 40
0.0
 40
0.0
 40
0.25
 40
0.25
 40
0.25
 40
0.25
 40
0.5
 40
0.5
 40
0.5
 40
0.5
 40
0.75
 40
0.75
 40
0.75
 40
0.75
 40
1.0
 40
1.0
 40
1.0
 40
1.0
 10
0.3609370078740158
 20
-1.4854960629921261
 30
0.0
 10
0.3609370078740158
 20
-1.4854960629921261
 30
0.0
 10
1.0048425196850395
 20
-1.1135511811023622
 30
0.0
 10
1.0048425196850395
 20
-1.1135511811023622
 30
0.0
 10
1.0048425196850395
 20
-1.1135511811023622
 30
0.0
 10
1.0048425196850395
 20
-1.1135511811023622
 30
0.0
 10
0.9734724409448819
 20
-1.0694370078740159
 30
0.0
 10
0.9734724409448819
 20
-1.0694370078740159
 30
0.0
 10
0.9734724409448819
 20
-1.0694370078740159
 30
0.0
 10
0.9734724409448819
 20
-1.0694370078740159
 30
0.0
 10
0.3295669291338583
 20
-1.4413818897637796
 30
0.0
 10
0.3295669291338583
 20
-1.4413818897637796
 30
0.0
 10
0.3295669291338583
 20
-1.4413818897637796
 30
0.0
 10
0.3295669291338583
 20
-1.4413818897637796
 30
0.0
 10
0.3609370078740158
 20
-1.4854960629921261
 30
0.0
 10
0.3609370078740158
 20
-1.4854960629921261
 30
0.0
  0
SPLINE
  5
9B
100
AcDbEntity
  8
Additional Graphics
 62
     9
100
AcDbSpline
210
0.0
220
0.0
230
1.0
 70
     1
 71
     3
 72
    20
 73
    16
 74
     0
 42
0.0000000001
 43
0.0000000001
 40
0.0
 40
0.0
 40
0.0
 40
0.0
 40
0.25
 40
0.25
 40
0.25
 40
0.25
 40
0.5
 40
0.5
 40
0.5
 40
0.5
 40
0.75
 40
0.75
 40
0.75
 40
0.75
 40
1.0
 40
1.0
 40
1.0
 40
1.0
 10
0.3295669291338583
 20
-1.4413818897637796
 30
0.0
 10
0.3295669291338583
 20
-1.4413818897637796
 30
0.0
 10
0.9734724409448819
 20
-1.0694370078740159
 30
0.0
 10
0.9734724409448819
 20
-1.0694370078740159
 30
0.0
 10
0.9734724409448819
 20
-1.0694370078740159
 30
0.0
 10
0.9734724409448819
 20
-1.0694370078740159
 30
0.0
 10
0.9400708661417323
 20
-1.0269409448818898
 30
0.0
 10
0.9400708661417323
 20
-1.0269409448818898
 30
0.0
 10
0.9400708661417323
 20
-1.0269409448818898
 30
0.0
 10
0.9400708661417323
 20
-1.0269409448818898
 30
0.0
 10
0.2961653543307087
 20
-1.3988858267716535
 30
0.0
 10
0.2961653543307087
 20
-1.3988858267716535
 30
0.0
 10
0.2961653543307087
 20
-1.3988858267716535
 30
0.0
 10
0.2961653543307087
 20
-1.3988858267716535
 30
0.0
 10
0.3295669291338583
 20
-1.4413818897637796
 30
0.0
 10
0.3295669291338583
 20
-1.4413818897637796
 30
0.0
  0
SPLINE
  5
9C
100
AcDbEntity
  8
Additional Graphics
 62
     9
100
AcDbSpline
210
0.0
220
0.0
230
1.0
 70
     1
 71
     3
 72
    20
 73
    16
 74
     0
 42
0.0000000001
 43
0.0000000001
 40
0.0
 40
0.0
 40
0.0
 40
0.0
 40
0.25
 40
0.25
 40
0.25
 40
0.25
 40
0.5
 40
0.5
 40
0.5
 40
0.5
 40
0.75
 40
0.75
 40
0.75
 40
0.75
 40
1.0
 40
1.0
 40
1.0
 40
1.0
 10
0.2961653543307087
 20
-1.3988858267716535
 30
0.0
 10
0.2961653543307087
 20
-1.3988858267716535
 30
0.0
 10
0.9400708661417323
 20
-1.0269409448818898
 30
0.0
 10
0.9400708661417323
 20
-1.0269409448818898
 30
0.0
 10
0.9400708661417323
 20
-1.0269409448818898
 30
0.0
 10
0.9400708661417323
 20
-1.0269409448818898
 30
0.0
 10
0.9047086614173229
 20
-0.9861220472440946
 30
0.0
 10
0.9047086614173229
 20
-0.9861220472440946
 30
0.0
 10
0.9047086614173229
 20
-0.9861220472440946
 30
0.0
 10
0.9047086614173229
 20
-0.9861220472440946
 30
0.0
 10
0.2608031496062992
 20
-1.3580669291338583
 30
0.0
 10
0.2608031496062992
 20
-1.3580669291338583
 30
0.0
 10
0.2608031496062992
 20
-1.3580669291338583
 30
0.0
 10
0.2608031496062992
 20
-1.3580669291338583
 30
0.0
 10
0.2961653543307087
 20
-1.3988858267716535
 30
0.0
 10
0.2961653543307087
 20
-1.3988858267716535
 30
0.0
  0
SPLINE
  5
9D
100
AcDbEntity
  8
Additional Graphics
 62
     9
100
AcDbSpline
210
0.0
220
0.0
230
1.0
 70
     1
 71
     3
 72
    20
 73
    16
 74
     0
 42
0.0000000001
 43
0.0000000001
 40
0.0
 40
0.0
 40
0.0
 40
0.0
 40
0.25
 40
0.25
 40
0.25
 40
0.25
 40
0.5
 40
0.5
 40
0.5
 40
0.5
 40
0.75
 40
0.75
 40
0.75
 40
0.75
 40
1.0
 40
1.0
 40
1.0
 40
1.0
 10
0.2608031496062992
 20
-1.3580669291338583
 30
0.0
 10
0.2608031496062992
 20
-1.3580669291338583
 30
0.0
 10
0.9047086614173229
 20
-0.9861220472440946
 30
0.0
 10
0.9047086614173229
 20
-0.9861220472440946
 30
0.0
 10
0.9047086614173229
 20
-0.9861220472440946
 30
0.0
 10
0.9047086614173229
 20
-0.9861220472440946
 30
0.0
 10
0.8674606299212598
 20
-0.9470511811023622
 30
0.0
 10
0.8674606299212598
 20
-0.9470511811023622
 30
0.0
 10
0.8674606299212598
 20
-0.9470511811023622
 30
0.0
 10
0.8674606299212598
 20
-0.9470511811023622
 30
0.0
 10
0.2235551181102362
 20
-1.318996062992126
 30
0.0
 10
0.2235551181102362
 20
-1.318996062992126
 30
0.0
 10
0.2235551181102362
 20
-1.318996062992126
 30
0.0
 10
0.2235551181102362
 20
-1.318996062992126
 30
0.0
 10
0.2608031496062992
 20
-1.3580669291338583
 30
0.0
 10
0.2608031496062992
 20
-1.3580669291338583
 30
0.0
  0
SPLINE
  5
9E
100
AcDbEntity
  8
Additional Graphics
 62
     9
100
AcDbSpline
210
0.0
220
0.0
230
1.0
 70
     1
 71
     3
 72
    20
 73
    16
 74
     0
 42
0.0000000001
 43
0.0000000001
 40
0.0
 40
0.0
 40
0.0
 40
0.0
 40
0.25
 40
0.25
 40
0.25
 40
0.25
 40
0.5
 40
0.5
 40
0.5
 40
0.5
 40
0.75
 40
0.75
 40
0.75
 40
0.75
 40
1.0
 40
1.0
 40
1.0
 40
1.0
 10
0.2235551181102362
 20
-1.318996062992126
 30
0.0
 10
0.2235551181102362
 20
-1.318996062992126
 30
0.0
 10
0.8674606299212598
 20
-0.9470511811023622
 30
0.0
 10
0.8674606299212598
 20
-0.9470511811023622
 30
0.0
 10
0.8674606299212598
 20
-0.9470511811023622
 30
0.0
 10
0.8674606299212598
 20
-0.9470511811023622
 30
0.0
 10
0.8283779527559055
 20
-0.9097952755905512
 30
0.0
 10
0.8283779527559055
 20
-0.9097952755905512
 30
0.0
 10
0.8283779527559055
 20
-0.9097952755905512
 30
0.0
 10
0.8283779527559055
 20
-0.9097952755905512
 30
0.0
 10
0.1844724409448819
 20
-1.2817401574803151
 30
0.0
 10
0.1844724409448819
 20
-1.2817401574803151
 30
0.0
 10
0.1844724409448819
 20
-1.2817401574803151
 30
0.0
 10
0.1844724409448819
 20
-1.2817401574803151
 30
0.0
 10
0.2235551181102362
 20
-1.318996062992126
 30
0.0
 10
0.2235551181102362
 20
-1.318996062992126
 30
0.0
  0
SPLINE
  5
9F
100
AcDbEntity
  8
Additional Graphics
 62
     9
100
AcDbSpline
210
0.0
220
0.0
230
1.0
 70
     1
 71
     3
 72
    20
 73
    16
 74
     0
 42
0.0000000001
 43
0.0000000001
 40
0.0
 40
0.0
 40
0.0
 40
0.0
 40
0.25
 40
0.25
 40
0.25
 40
0.25
 40
0.5
 40
0.5
 40
0.5
 40
0.5
 40
0.75
 40
0.75
 40
0.75
 40
0.75
 40
1.0
 40
1.0
 40
1.0
 40
1.0
 10
0.1844724409448819
 20
-1.2817401574803151
 30
0.0
 10
0.1844724409448819
 20
-1.2817401574803151
 30
0.0
 10
0.8283779527559055
 20
-0.9097952755905512
 30
0.0
 10
0.8283779527559055
 20
-0.9097952755905512
 30
0.0
 10
0.8283779527559055
 20
-0.9097952755905512
 30
0.0
 10
0.8283779527559055
 20
-0.9097952755905512
 30
0.0
 10
0.7875590551181103
 20
-0.8744330708661418
 30
0.0
 10
0.7875590551181103
 20
-0.8744330708661418
 30
0.0
 10
0.7875590551181103
 20
-0.8744330708661418
 30
0.0
 10
0.7875590551181103
 20
-0.8744330708661418
 30
0.0
 10
0.1436535433070866
 20
-1.2463779527559056
 30
0.0
 10
0.1436535433070866
 20
-1.2463779527559056
 30
0.0
 10
0.1436535433070866
 20
-1.2463779527559056
 30
0.0
 10
0.1436535433070866
 20
-1.2463779527559056
 30
0.0
 10
0.1844724409448819
 20
-1.2817401574803151
 30
0.0
 10
0.1844724409448819
 20
-1.2817401574803151
 30
0.0
  0
SPLINE
  5
A0
100
AcDbEntity
  8
Additional Graphics
 62
     9
100
AcDbSpline
210
0.0
220
0.0
230
1.0
 70
     1
 71
     3
 72
    20
 73
    16
 74
     0
 42
0.0000000001
 43
0.0000000001
 40
0.0
 40
0.0
 40
0.0
 40
0.0
 40
0.25
 40
0.25
 40
0.25
 40
0.25
 40
0.5
 40
0.5
 40
0.5
 40
0.5
 40
0.75
 40
0.75
 40
0.75
 40
0.75
 40
1.0
 40
1.0
 40
1.0
 40
1.0
 10
0.1436535433070866
 20
-1.2463779527559056
 30
0.0
 10
0.1436535433070866
 20
-1.2463779527559056
 30
0.0
 10
0.7875590551181103
 20
-0.8744330708661418
 30
0.0
 10
0.7875590551181103
 20
-0.8744330708661418
 30
0.0
 10
0.7875590551181103
 20
-0.8744330708661418
 30
0.0
 10
0.7875590551181103
 20
-0.8744330708661418
 30
0.0
 10
0.7450590551181102
 20
-0.8410314960629922
 30
0.0
 10
0.7450590551181102
 20
-0.8410314960629922
 30
0.0
 10
0.7450590551181102
 20
-0.8410314960629922
 30
0.0
 10
0.7450590551181102
 20
-0.8410314960629922
 30
0.0
 10
0.1011535433070866
 20
-1.212976377952756
 30
0.0
 10
0.1011535433070866
 20
-1.212976377952756
 30
0.0
 10
0.1011535433070866
 20
-1.212976377952756
 30
0.0
 10
0.1011535433070866
 20
-1.212976377952756
 30
0.0
 10
0.1436535433070866
 20
-1.2463779527559056
 30
0.0
 10
0.1436535433070866
 20
-1.2463779527559056
 30
0.0
  0
SPLINE
  5
A1
100
AcDbEntity
  8
Additional Graphics
 62
     9
100
AcDbSpline
210
0.0
220
0.0
230
1.0
 70
     1
 71
     3
 72
    20
 73
    16
 74
     0
 42
0.0000000001
 43
0.0000000001
 40
0.0
 40
0.0
 40
0.0
 40
0.0
 40
0.25
 40
0.25
 40
0.25
 40
0.25
 40
0.5
 40
0.5
 40
0.5
 40
0.5
 40
0.75
 40
0.75
 40
0.75
 40
0.75
 40
1.0
 40
1.0
 40
1.0
 40
1.0
 10
0.1011535433070866
 20
-1.212976377952756
 30
0.0
 10
0.1011535433070866
 20
-1.212976377952756
 30
0.0
 10
0.7450590551181102
 20
-0.8410314960629922
 30
0.0
 10
0.7450590551181102
 20
-0.8410314960629922
 30
0.0
 10
0.7450590551181102
 20
-0.8410314960629922
 30
0.0
 10
0.7450590551181102
 20
-0.8410314960629922
 30
0.0
 10
0.7009566929133858
 20
-0.8096653543307087
 30
0.0
 10
0.7009566929133858
 20
-0.8096653543307087
 30
0.0
 10
0.7009566929133858
 20
-0.8096653543307087
 30
0.0
 10
0.7009566929133858
 20
-0.8096653543307087
 30
0.0
 10
0.0570511811023622
 20
-1.1816102362204726
 30
0.0
 10
0.0570511811023622
 20
-1.1816102362204726
 30
0.0
 10
0.0570511811023622
 20
-1.1816102362204726
 30
0.0
 10
0.0570511811023622
 20
-1.1816102362204726
 30
0.0
 10
0.1011535433070866
 20
-1.212976377952756
 30
0.0
 10
0.1011535433070866
 20
-1.212976377952756
 30
0.0
  0
SPLINE
  5
A2
100
AcDbEntity
  8
Additional Graphics
 62
     9
100
AcDbSpline
210
0.0
220
0.0
230
1.0
 70
     1
 71
     3
 72
    20
 73
    16
 74
     0
 42
0.0000000001
 43
0.0000000001
 40
0.0
 40
0.0
 40
0.0
 40
0.0
 40
0.25
 40
0.25
 40
0.25
 40
0.25
 40
0.5
 40
0.5
 40
0.5
 40
0.5
 40
0.75
 40
0.75
 40
0.75
 40
0.75
 40
1.0
 40
1.0
 40
1.0
 40
1.0
 10
0.0570511811023622
 20
-1.1816102362204726
 30
0.0
 10
0.0570511811023622
 20
-1.1816102362204726
 30
0.0
 10
0.7009566929133858
 20
-0.8096653543307087
 30
0.0
 10
0.7009566929133858
 20
-0.8096653543307087
 30
0.0
 10
0.7009566929133858
 20
-0.8096653543307087
 30
0.0
 10
0.7009566929133858
 20
-0.8096653543307087
 30
0.0
 10
0.6553149606299213
 20
-0.7803976377952756
 30
0.0
 10
0.6553149606299213
 20
-0.7803976377952756
 30
0.0
 10
0.6553149606299213
 20
-0.7803976377952756
 30
0.0
 10
0.6553149606299213
 20
-0.7803976377952756
 30
0.0
 10
0.0114094488188976
 20
-1.1523425196850394
 30
0.0
 10
0.0114094488188976
 20
-1.1523425196850394
 30
0.0
 10
0.0114094488188976
 20
-1.1523425196850394
 30
0.0
 10
0.0114094488188976
 20
-1.1523425196850394
 30
0.0
 10
0.0570511811023622
 20
-1.1816102362204726
 30
0.0
 10
0.0570511811023622
 20
-1.1816102362204726
 30
0.0
  0
SPLINE
  5
A3
100
AcDbEntity
  8
Additional Graphics
 62
   253
100
AcDbSpline
210
0.0
220
0.0
230
1.0
 70
     1
 71
     3
 72
    20
 73
    16
 74
     0
 42
0.0000000001
 43
0.0000000001
 40
0.0
 40
0.0
 40
0.0
 40
0.0
 40
0.25
 40
0.25
 40
0.25
 40
0.25
 40
0.5
 40
0.5
 40
0.5
 40
0.5
 40
0.75
 40
0.75
 40
0.75
 40
0.75
 40
1.0
 40
1.0
 40
1.0
 40
1.0
 10
0.0114094488188976
 20
-1.1523425196850394
 30
0.0
 10
0.0114094488188976
 20
-1.1523425196850394
 30
0.0
 10
0.6553149606299213
 20
-0.7803976377952756
 30
0.0
 10
0.6553149606299213
 20
-0.7803976377952756
 30
0.0
 10
0.6553149606299213
 20
-0.7803976377952756
 30
0.0
 10
0.6553149606299213
 20
-0.7803976377952756
 30
0.0
 10
0.6082086614173229
 20
-0.7533031496062993
 30
0.0
 10
0.6082086614173229
 20
-0.7533031496062993
 30
0.0
 10
0.6082086614173229
 20
-0.7533031496062993
 30
0.0
 10
0.6082086614173229
 20
-0.7533031496062993
 30
0.0
 10
-0.0356968503937008
 20
-1.1252480314960631
 30
0.0
 10
-0.0356968503937008
 20
-1.1252480314960631
 30
0.0
 10
-0.0356968503937008
 20
-1.1252480314960631
 30
0.0
 10
-0.0356968503937008
 20
-1.1252480314960631
 30
0.0
 10
0.0114094488188976
 20
-1.1523425196850394
 30
0.0
 10
0.0114094488188976
 20
-1.1523425196850394
 30
0.0
  0
SPLINE
  5
A4
100
AcDbEntity
  8
Additional Graphics
 62
   253
100
AcDbSpline
210
0.0
220
0.0
230
1.0
 70
     1
 71
     3
 72
    20
 73
    16
 74
     0
 42
0.0000000001
 43
0.0000000001
 40
0.0
 40
0.0
 40
0.0
 40
0.0
 40
0.25
 40
0.25
 40
0.25
 40
0.25
 40
0.5
 40
0.5
 40
0.5
 40
0.5
 40
0.75
 40
0.75
 40
0.75
 40
0.75
 40
1.0
 40
1.0
 40
1.0
 40
1.0
 10
-0.0356968503937008
 20
-1.1252480314960631
 30
0.0
 10
-0.0356968503937008
 20
-1.1252480314960631
 30
0.0
 10
0.6082086614173229
 20
-0.7533031496062993
 30
0.0
 10
0.6082086614173229
 20
-0.7533031496062993
 30
0.0
 10
0.6082086614173229
 20
-0.7533031496062993
 30
0.0
 10
0.6082086614173229
 20
-0.7533031496062993
 30
0.0
 10
0.5597007874015748
 20
-0.7284527559055118
 30
0.0
 10
0.5597007874015748
 20
-0.7284527559055118
 30
0.0
 10
0.5597007874015748
 20
-0.7284527559055118
 30
0.0
 10
0.5597007874015748
 20
-0.7284527559055118
 30
0.0
 10
-0.0842047244094488
 20
-1.1003976377952756
 30
0.0
 10
-0.0842047244094488
 20
-1.1003976377952756
 30
0.0
 10
-0.0842047244094488
 20
-1.1003976377952756
 30
0.0
 10
-0.0842047244094488
 20
-1.1003976377952756
 30
0.0
 10
-0.0356968503937008
 20
-1.1252480314960631
 30
0.0
 10
-0.0356968503937008
 20
-1.1252480314960631
 30
0.0
  0
SPLINE
  5
A5
100
AcDbEntity
  8
Additional Graphics
 62
   253
100
AcDbSpline
210
0.0
220
0.0
230
1.0
 70
     1
 71
     3
 72
    20
 73
    16
 74
     0
 42
0.0000000001
 43
0.0000000001
 40
0.0
 40
0.0
 40
0.0
 40
0.0
 40
0.25
 40
0.25
 40
0.25
 40
0.25
 40
0.5
 40
0.5
 40
0.5
 40
0.5
 40
0.75
 40
0.75
 40
0.75
 40
0.75
 40
1.0
 40
1.0
 40
1.0
 40
1.0
 10
-0.0842047244094488
 20
-1.1003976377952756
 30
0.0
 10
-0.0842047244094488
 20
-1.1003976377952756
 30
0.0
 10
0.5597007874015748
 20
-0.7284527559055118
 30
0.0
 10
0.5597007874015748
 20
-0.7284527559055118
 30
0.0
 10
0.5597007874015748
 20
-0.7284527559055118
 30
0.0
 10
0.5597007874015748
 20
-0.7284527559055118
 30
0.0
 10
0.5098661417322835
 20
-0.7059291338582677
 30
0.0
 10
0.5098661417322835
 20
-0.7059291338582677
 30
0.0
 10
0.5098661417322835
 20
-0.7059291338582677
 30
0.0
 10
0.5098661417322835
 20
-0.7059291338582677
 30
0.0
 10
-0.1340393700787402
 20
-1.0778740157480315
 30
0.0
 10
-0.1340393700787402
 20
-1.0778740157480315
 30
0.0
 10
-0.1340393700787402
 20
-1.0778740157480315
 30
0.0
 10
-0.1340393700787402
 20
-1.0778740157480315
 30
0.0
 10
-0.0842047244094488
 20
-1.1003976377952756
 30
0.0
 10
-0.0842047244094488
 20
-1.1003976377952756
 30
0.0
  0
SPLINE
  5
A6
100
AcDbEntity
  8
Additional Graphics
 62
   253
100
AcDbSpline
210
0.0
220
0.0
230
1.0
 70
     1
 71
     3
 72
    20
 73
    16
 74
     0
 42
0.0000000001
 43
0.0000000001
 40
0.0
 40
0.0
 40
0.0
 40
0.0
 40
0.25
 40
0.25
 40
0.25
 40
0.25
 40
0.5
 40
0.5
 40
0.5
 40
0.5
 40
0.75
 40
0.75
 40
0.75
 40
0.75
 40
1.0
 40
1.0
 40
1.0
 40
1.0
 10
-0.1340393700787402
 20
-1.0778740157480315
 30
0.0
 10
-0.1340393700787402
 20
-1.0778740157480315
 30
0.0
 10
0.5098661417322835
 20
-0.7059291338582677
 30
0.0
 10
0.5098661417322835
 20
-0.7059291338582677
 30
0.0
 10
0.5098661417322835
 20
-0.7059291338582677
 30
0.0
 10
0.5098661417322835
 20
-0.7059291338582677
 30
0.0
 10
0.4587834645669291
 20
-0.6857795275590551
 30
0.0
 10
0.4587834645669291
 20
-0.6857795275590551
 30
0.0
 10
0.4587834645669291
 20
-0.6857795275590551
 30
0.0
 10
0.4587834645669291
 20
-0.6857795275590551
 30
0.0
 10
-0.1851220472440945
 20
-1.057724409448819
 30
0.0
 10
-0.1851220472440945
 20
-1.057724409448819
 30
0.0
 10
-0.1851220472440945
 20
-1.057724409448819
 30
0.0
 10
-0.1851220472440945
 20
-1.057724409448819
 30
0.0
 10
-0.1340393700787402
 20
-1.0778740157480315
 30
0.0
 10
-0.1340393700787402
 20
-1.0778740157480315
 30
0.0
  0
SPLINE
  5
A7
100
AcDbEntity
  8
Additional Graphics
 62
   253
100
AcDbSpline
210
0.0
220
0.0
230
1.0
 70
     1
 71
     3
 72
    20
 73
    16
 74
     0
 42
0.0000000001
 43
0.0000000001
 40
0.0
 40
0.0
 40
0.0
 40
0.0
 40
0.25
 40
0.25
 40
0.25
 40
0.25
 40
0.5
 40
0.5
 40
0.5
 40
0.5
 40
0.75
 40
0.75
 40
0.75
 40
0.75
 40
1.0
 40
1.0
 40
1.0
 40
1.0
 10
-0.1851220472440945
 20
-1.057724409448819
 30
0.0
 10
-0.1851220472440945
 20
-1.057724409448819
 30
0.0
 10
0.4587834645669291
 20
-0.6857795275590551
 30
0.0
 10
0.4587834645669291
 20
-0.6857795275590551
 30
0.0
 10
0.4587834645669291
 20
-0.6857795275590551
 30
0.0
 10
0.4587834645669291
 20
-0.6857795275590551
 30
0.0
 10
0.4065157480314961
 20
-0.6680866141732283
 30
0.0
 10
0.4065157480314961
 20
-0.6680866141732283
 30
0.0
 10
0.4065157480314961
 20
-0.6680866141732283
 30
0.0
 10
0.4065157480314961
 20
-0.6680866141732283
 30
0.0
 10
-0.2373897637795276
 20
-1.0400314960629922
 30
0.0
 10
-0.2373897637795276
 20
-1.0400314960629922
 30
0.0
 10
-0.2373897637795276
 20
-1.0400314960629922
 30
0.0
 10
-0.2373897637795276
 20
-1.0400314960629922
 30
0.0
 10
-0.1851220472440945
 20
-1.057724409448819
 30
0.0
 10
-0.1851220472440945
 20
-1.057724409448819
 30
0.0
  0
SPLINE
  5
A8
100
AcDbEntity
  8
Additional Graphics
 62
   253
100
AcDbSpline
210
0.0
220
0.0
230
1.0
 70
     1
 71
     3
 72
    20
 73
    16
 74
     0
 42
0.0000000001
 43
0.0000000001
 40
0.0
 40
0.0
 40
0.0
 40
0.0
 40
0.25
 40
0.25
 40
0.25
 40
0.25
 40
0.5
 40
0.5
 40
0.5
 40
0.5
 40
0.75
 40
0.75
 40
0.75
 40
0.75
 40
1.0
 40
1.0
 40
1.0
 40
1.0
 10
-0.2373897637795276
 20
-1.0400314960629922
 30
0.0
 10
-0.2373897637795276
 20
-1.0400314960629922
 30
0.0
 10
0.4065157480314961
 20
-0.6680866141732283
 30
0.0
 10
0.4065157480314961
 20
-0.6680866141732283
 30
0.0
 10
0.4065157480314961
 20
-0.6680866141732283
 30
0.0
 10
0.4065157480314961
 20
-0.6680866141732283
 30
0.0
 10
0.3531377952755906
 20
-0.6529212598425197
 30
0.0
 10
0.3531377952755906
 20
-0.6529212598425197
 30
0.0
 10
0.3531377952755906
 20
-0.6529212598425197
 30
0.0
 10
0.3531377952755906
 20
-0.6529212598425197
 30
0.0
 10
-0.2907677165354331
 20
-1.0248661417322835
 30
0.0
 10
-0.2907677165354331
 20
-1.0248661417322835
 30
0.0
 10
-0.2907677165354331
 20
-1.0248661417322835
 30
0.0
 10
-0.2907677165354331
 20
-1.0248661417322835
 30
0.0
 10
-0.2373897637795276
 20
-1.0400314960629922
 30
0.0
 10
-0.2373897637795276
 20
-1.0400314960629922
 30
0.0
  0
SPLINE
  5
A9
100
AcDbEntity
  8
Additional Graphics
 62
   253
100
AcDbSpline
210
0.0
220
0.0
230
1.0
 70
     1
 71
     3
 72
    20
 73
    16
 74
     0
 42
0.0000000001
 43
0.0000000001
 40
0.0
 40
0.0
 40
0.0
 40
0.0
 40
0.25
 40
0.25
 40
0.25
 40
0.25
 40
0.5
 40
0.5
 40
0.5
 40
0.5
 40
0.75
 40
0.75
 40
0.75
 40
0.75
 40
1.0
 40
1.0
 40
1.0
 40
1.0
 10
-0.2907677165354331
 20
-1.0248661417322835
 30
0.0
 10
-0.2907677165354331
 20
-1.0248661417322835
 30
0.0
 10
0.3531377952755906
 20
-0.6529212598425197
 30
0.0
 10
0.3531377952755906
 20
-0.6529212598425197
 30
0.0
 10
0.3531377952755906
 20
-0.6529212598425197
 30
0.0
 10
0.3531377952755906
 20
-0.6529212598425197
 30
0.0
 10
0.2987125984251969
 20
-0.6403661417322835
 30
0.0
 10
0.2987125984251969
 20
-0.6403661417322835
 30
0.0
 10
0.2987125984251969
 20
-0.6403661417322835
 30
0.0
 10
0.2987125984251969
 20
-0.6403661417322835
 30
0.0
 10
-0.3451929133858268
 20
-1.0123110236220474
 30
0.0
 10
-0.3451929133858268
 20
-1.0123110236220474
 30
0.0
 10
-0.3451929133858268
 20
-1.0123110236220474
 30
0.0
 10
-0.3451929133858268
 20
-1.0123110236220474
 30
0.0
 10
-0.2907677165354331
 20
-1.0248661417322835
 30
0.0
 10
-0.2907677165354331
 20
-1.0248661417322835
 30
0.0
  0
SPLINE
  5
AA
100
AcDbEntity
  8
Additional Graphics
 62
   253
100
AcDbSpline
210
0.0
220
0.0
230
1.0
 70
     1
 71
     3
 72
    20
 73
    16
 74
     0
 42
0.0000000001
 43
0.0000000001
 40
0.0
 40
0.0
 40
0.0
 40
0.0
 40
0.25
 40
0.25
 40
0.25
 40
0.25
 40
0.5
 40
0.5
 40
0.5
 40
0.5
 40
0.75
 40
0.75
 40
0.75
 40
0.75
 40
1.0
 40
1.0
 40
1.0
 40
1.0
 10
-0.3451929133858268
 20
-1.0123110236220474
 30
0.0
 10
-0.3451929133858268
 20
-1.0123110236220474
 30
0.0
 10
0.2987125984251969
 20
-0.6403661417322835
 30
0.0
 10
0.2987125984251969
 20
-0.6403661417322835
 30
0.0
 10
0.2987125984251969
 20
-0.6403661417322835
 30
0.0
 10
0.2987125984251969
 20
-0.6403661417322835
 30
0.0
 10
0.2433188976377953
 20
-0.6304685039370079
 30
0.0
 10
0.2433188976377953
 20
-0.6304685039370079
 30
0.0
 10
0.2433188976377953
 20
-0.6304685039370079
 30
0.0
 10
0.2433188976377953
 20
-0.6304685039370079
 30
0.0
 10
-0.4005866141732284
 20
-1.0024133858267716
 30
0.0
 10
-0.4005866141732284
 20
-1.0024133858267716
 30
0.0
 10
-0.4005866141732284
 20
-1.0024133858267716
 30
0.0
 10
-0.4005866141732284
 20
-1.0024133858267716
 30
0.0
 10
-0.3451929133858268
 20
-1.0123110236220474
 30
0.0
 10
-0.3451929133858268
 20
-1.0123110236220474
 30
0.0
  0
SPLINE
  5
AB
100
AcDbEntity
  8
Additional Graphics
 62
   253
100
AcDbSpline
210
0.0
220
0.0
230
1.0
 70
     1
 71
     3
 72
    20
 73
    16
 74
     0
 42
0.0000000001
 43
0.0000000001
 40
0.0
 40
0.0
 40
0.0
 40
0.0
 40
0.25
 40
0.25
 40
0.25
 40
0.25
 40
0.5
 40
0.5
 40
0.5
 40
0.5
 40
0.75
 40
0.75
 40
0.75
 40
0.75
 40
1.0
 40
1.0
 40
1.0
 40
1.0
 10
-0.4005866141732284
 20
-1.0024133858267716
 30
0.0
 10
-0.4005866141732284
 20
-1.0024133858267716
 30
0.0
 10
0.2433188976377953
 20
-0.6304685039370079
 30
0.0
 10
0.2433188976377953
 20
-0.6304685039370079
 30
0.0
 10
0.2433188976377953
 20
-0.6304685039370079
 30
0.0
 10
0.2433188976377953
 20
-0.6304685039370079
 30
0.0
 10
0.1870236220472441
 20
-0.6233110236220473
 30
0.0
 10
0.1870236220472441
 20
-0.6233110236220473
 30
0.0
 10
0.1870236220472441
 20
-0.6233110236220473
 30
0.0
 10
0.1870236220472441
 20
-0.6233110236220473
 30
0.0
 10
-0.4568818897637795
 20
-0.9952559055118111
 30
0.0
 10
-0.4568818897637795
 20
-0.9952559055118111
 30
0.0
 10
-0.4568818897637795
 20
-0.9952559055118111
 30
0.0
 10
-0.4568818897637795
 20
-0.9952559055118111
 30
0.0
 10
-0.4005866141732284
 20
-1.0024133858267716
 30
0.0
 10
-0.4005866141732284
 20
-1.0024133858267716
 30
0.0
  0
SPLINE
  5
AC
100
AcDbEntity
  8
Additional Graphics
 62
   253
100
AcDbSpline
210
0.0
220
0.0
230
1.0
 70
     1
 71
     3
 72
    20
 73
    16
 74
     0
 42
0.0000000001
 43
0.0000000001
 40
0.0
 40
0.0
 40
0.0
 40
0.0
 40
0.25
 40
0.25
 40
0.25
 40
0.25
 40
0.5
 40
0.5
 40
0.5
 40
0.5
 40
0.75
 40
0.75
 40
0.75
 40
0.75
 40
1.0
 40
1.0
 40
1.0
 40
1.0
 10
-0.4568818897637795
 20
-0.9952559055118111
 30
0.0
 10
-0.4568818897637795
 20
-0.9952559055118111
 30
0.0
 10
0.1870236220472441
 20
-0.6233110236220473
 30
0.0
 10
0.1870236220472441
 20
-0.6233110236220473
 30
0.0
 10
0.1870236220472441
 20
-0.6233110236220473
 30
0.0
 10
0.1870236220472441
 20
-0.6233110236220473
 30
0.0
 10
0.1298976377952756
 20
-0.6189645669291339
 30
0.0
 10
0.1298976377952756
 20
-0.6189645669291339
 30
0.0
 10
0.1298976377952756
 20
-0.6189645669291339
 30
0.0
 10
0.1298976377952756
 20
-0.6189645669291339
 30
0.0
 10
-0.5140078740157481
 20
-0.9909094488188976
 30
0.0
 10
-0.5140078740157481
 20
-0.9909094488188976
 30
0.0
 10
-0.5140078740157481
 20
-0.9909094488188976
 30
0.0
 10
-0.5140078740157481
 20
-0.9909094488188976
 30
0.0
 10
-0.4568818897637795
 20
-0.9952559055118111
 30
0.0
 10
-0.4568818897637795
 20
-0.9952559055118111
 30
0.0
  0
SPLINE
  5
AD
100
AcDbEntity
  8
Additional Graphics
 62
   253
100
AcDbSpline
210
0.0
220
0.0
230
1.0
 70
     1
 71
     3
 72
    20
 73
    16
 74
     0
 42
0.0000000001
 43
0.0000000001
 40
0.0
 40
0.0
 40
0.0
 40
0.0
 40
0.25
 40
0.25
 40
0.25
 40
0.25
 40
0.5
 40
0.5
 40
0.5
 40
0.5
 40
0.75
 40
0.75
 40
0.75
 40
0.75
 40
1.0
 40
1.0
 40
1.0
 40
1.0
 10
-0.5140078740157481
 20
-0.9909094488188976
 30
0.0
 10
-0.5140078740157481
 20
-0.9909094488188976
 30
0.0
 10
0.1298976377952756
 20
-0.6189645669291339
 30
0.0
 10
0.1298976377952756
 20
-0.6189645669291339
 30
0.0
 10
0.1298976377952756
 20
-0.6189645669291339
 30
0.0
 10
0.1298976377952756
 20
-0.6189645669291339
 30
0.0
 10
0.072011811023622
 20
-0.617507874015748
 30
0.0
 10
0.072011811023622
 20
-0.617507874015748
 30
0.0
 10
0.072011811023622
 20
-0.617507874015748
 30
0.0
 10
0.072011811023622
 20
-0.617507874015748
 30
0.0
 10
-0.5718937007874017
 20
-0.9894527559055119
 30
0.0
 10
-0.5718937007874017
 20
-0.9894527559055119
 30
0.0
 10
-0.5718937007874017
 20
-0.9894527559055119
 30
0.0
 10
-0.5718937007874017
 20
-0.9894527559055119
 30
0.0
 10
-0.5140078740157481
 20
-0.9909094488188976
 30
0.0
 10
-0.5140078740157481
 20
-0.9909094488188976
 30
0.0
  0
SPLINE
  5
AE
100
AcDbEntity
  8
Additional Graphics
370
     5
100
AcDbSpline
210
0.0
220
0.0
230
1.0
 70
     1
 71
     3
 72
   428
 73
   424
 74
     0
 42
0.0000000001
 43
0.0000000001
 40
0.0
 40
0.0
 40
0.0
 40
0.0
 40
0.0094339622641509
 40
0.0094339622641509
 40
0.0094339622641509
 40
0.0094339622641509
 40
0.0188679245283019
 40
0.0188679245283019
 40
0.0188679245283019
 40
0.0188679245283019
 40
0.0283018867924528
 40
0.0283018867924528
 40
0.0283018867924528
 40
0.0283018867924528
 40
0.0377358490566038
 40
0.0377358490566038
 40
0.0377358490566038
 40
0.0377358490566038
 40
0.0471698113207547
 40
0.0471698113207547
 40
0.0471698113207547
 40
0.0471698113207547
 40
0.0566037735849057
 40
0.0566037735849057
 40
0.0566037735849057
 40
0.0566037735849057
 40
0.0660377358490566
 40
0.0660377358490566
 40
0.0660377358490566
 40
0.0660377358490566
 40
0.0754716981132075
 40
0.0754716981132075
 40
0.0754716981132075
 40
0.0754716981132075
 40
0.0849056603773585
 40
0.0849056603773585
 40
0.0849056603773585
 40
0.0849056603773585
 40
0.0943396226415094
 40
0.0943396226415094
 40
0.0943396226415094
 40
0.0943396226415094
 40
0.1037735849056604
 40
0.1037735849056604
 40
0.1037735849056604
 40
0.1037735849056604
 40
0.1132075471698113
 40
0.1132075471698113
 40
0.1132075471698113
 40
0.1132075471698113
 40
0.1226415094339623
 40
0.1226415094339623
 40
0.1226415094339623
 40
0.1226415094339623
 40
0.1320754716981132
 40
0.1320754716981132
 40
0.1320754716981132
 40
0.1320754716981132
 40
0.1415094339622642
 40
0.1415094339622642
 40
0.1415094339622642
 40
0.1415094339622642
 40
0.1509433962264151
 40
0.1509433962264151
 40
0.1509433962264151
 40
0.1509433962264151
 40
0.160377358490566
 40
0.160377358490566
 40
0.160377358490566
 40
0.160377358490566
 40
0.169811320754717
 40
0.169811320754717
 40
0.169811320754717
 40
0.169811320754717
 40
0.1792452830188679
 40
0.1792452830188679
 40
0.1792452830188679
 40
0.1792452830188679
 40
0.1886792452830189
 40
0.1886792452830189
 40
0.1886792452830189
 40
0.1886792452830189
 40
0.1981132075471698
 40
0.1981132075471698
 40
0.1981132075471698
 40
0.1981132075471698
 40
0.2075471698113207
 40
0.2075471698113207
 40
0.2075471698113207
 40
0.2075471698113207
 40
0.2169811320754717
 40
0.2169811320754717
 40
0.2169811320754717
 40
0.2169811320754717
 40
0.2264150943396226
 40
0.2264150943396226
 40
0.2264150943396226
 40
0.2264150943396226
 40
0.2358490566037736
 40
0.2358490566037736
 40
0.2358490566037736
 40
0.2358490566037736
 40
0.2452830188679245
 40
0.2452830188679245
 40
0.2452830188679245
 40
0.2452830188679245
 40
0.2547169811320755
 40
0.2547169811320755
 40
0.2547169811320755
 40
0.2547169811320755
 40
0.2641509433962264
 40
0.2641509433962264
 40
0.2641509433962264
 40
0.2641509433962264
 40
0.2735849056603774
 40
0.2735849056603774
 40
0.2735849056603774
 40
0.2735849056603774
 40
0.2830188679245283
 40
0.2830188679245283
 40
0.2830188679245283
 40
0.2830188679245283
 40
0.2924528301886792
 40
0.2924528301886792
 40
0.2924528301886792
 40
0.2924528301886792
 40
0.3018867924528302
 40
0.3018867924528302
 40
0.3018867924528302
 40
0.3018867924528302
 40
0.3113207547169811
 40
0.3113207547169811
 40
0.3113207547169811
 40
0.3113207547169811
 40
0.3207547169811321
 40
0.3207547169811321
 40
0.3207547169811321
 40
0.3207547169811321
 40
0.330188679245283
 40
0.330188679245283
 40
0.330188679245283
 40
0.330188679245283
 40
0.3396226415094339
 40
0.3396226415094339
 40
0.3396226415094339
 40
0.3396226415094339
 40
0.3490566037735849
 40
0.3490566037735849
 40
0.3490566037735849
 40
0.3490566037735849
 40
0.3584905660377358
 40
0.3584905660377358
 40
0.3584905660377358
 40
0.3584905660377358
 40
0.3679245283018868
 40
0.3679245283018868
 40
0.3679245283018868
 40
0.3679245283018868
 40
0.3773584905660377
 40
0.3773584905660377
 40
0.3773584905660377
 40
0.3773584905660377
 40
0.3867924528301887
 40
0.3867924528301887
 40
0.3867924528301887
 40
0.3867924528301887
 40
0.3962264150943396
 40
0.3962264150943396
 40
0.3962264150943396
 40
0.3962264150943396
 40
0.4056603773584905
 40
0.4056603773584905
 40
0.4056603773584905
 40
0.4056603773584905
 40
0.4150943396226415
 40
0.4150943396226415
 40
0.4150943396226415
 40
0.4150943396226415
 40
0.4245283018867924
 40
0.4245283018867924
 40
0.4245283018867924
 40
0.4245283018867924
 40
0.4339622641509434
 40
0.4339622641509434
 40
0.4339622641509434
 40
0.4339622641509434
 40
0.4433962264150943
 40
0.4433962264150943
 40
0.4433962264150943
 40
0.4433962264150943
 40
0.4528301886792452
 40
0.4528301886792452
 40
0.4528301886792452
 40
0.4528301886792452
 40
0.4622641509433962
 40
0.4622641509433962
 40
0.4622641509433962
 40
0.4622641509433962
 40
0.4716981132075471
 40
0.4716981132075471
 40
0.4716981132075471
 40
0.4716981132075471
 40
0.4811320754716981
 40
0.4811320754716981
 40
0.4811320754716981
 40
0.4811320754716981
 40
0.490566037735849
 40
0.490566037735849
 40
0.490566037735849
 40
0.490566037735849
 40
0.4999999999999999
 40
0.4999999999999999
 40
0.4999999999999999
 40
0.4999999999999999
 40
0.5094339622641509
 40
0.5094339622641509
 40
0.5094339622641509
 40
0.5094339622641509
 40
0.5188679245283019
 40
0.5188679245283019
 40
0.5188679245283019
 40
0.5188679245283019
 40
0.5283018867924528
 40
0.5283018867924528
 40
0.5283018867924528
 40
0.5283018867924528
 40
0.5377358490566038
 40
0.5377358490566038
 40
0.5377358490566038
 40
0.5377358490566038
 40
0.5471698113207547
 40
0.5471698113207547
 40
0.5471698113207547
 40
0.5471698113207547
 40
0.5566037735849057
 40
0.5566037735849057
 40
0.5566037735849057
 40
0.5566037735849057
 40
0.5660377358490566
 40
0.5660377358490566
 40
0.5660377358490566
 40
0.5660377358490566
 40
0.5754716981132075
 40
0.5754716981132075
 40
0.5754716981132075
 40
0.5754716981132075
 40
0.5849056603773585
 40
0.5849056603773585
 40
0.5849056603773585
 40
0.5849056603773585
 40
0.5943396226415094
 40
0.5943396226415094
 40
0.5943396226415094
 40
0.5943396226415094
 40
0.6037735849056604
 40
0.6037735849056604
 40
0.6037735849056604
 40
0.6037735849056604
 40
0.6132075471698113
 40
0.6132075471698113
 40
0.6132075471698113
 40
0.6132075471698113
 40
0.6226415094339622
 40
0.6226415094339622
 40
0.6226415094339622
 40
0.6226415094339622
 40
0.6320754716981132
 40
0.6320754716981132
 40
0.6320754716981132
 40
0.6320754716981132
 40
0.6415094339622641
 40
0.6415094339622641
 40
0.6415094339622641
 40
0.6415094339622641
 40
0.6509433962264151
 40
0.6509433962264151
 40
0.6509433962264151
 40
0.6509433962264151
 40
0.660377358490566
 40
0.660377358490566
 40
0.660377358490566
 40
0.660377358490566
 40
0.6698113207547169
 40
0.6698113207547169
 40
0.6698113207547169
 40
0.6698113207547169
 40
0.6792452830188679
 40
0.6792452830188679
 40
0.6792452830188679
 40
0.6792452830188679
 40
0.6886792452830188
 40
0.6886792452830188
 40
0.6886792452830188
 40
0.6886792452830188
 40
0.6981132075471698
 40
0.6981132075471698
 40
0.6981132075471698
 40
0.6981132075471698
 40
0.7075471698113207
 40
0.7075471698113207
 40
0.7075471698113207
 40
0.7075471698113207
 40
0.7169811320754717
 40
0.7169811320754717
 40
0.7169811320754717
 40
0.7169811320754717
 40
0.7264150943396226
 40
0.7264150943396226
 40
0.7264150943396226
 40
0.7264150943396226
 40
0.7358490566037735
 40
0.7358490566037735
 40
0.7358490566037735
 40
0.7358490566037735
 40
0.7452830188679245
 40
0.7452830188679245
 40
0.7452830188679245
 40
0.7452830188679245
 40
0.7547169811320754
 40
0.7547169811320754
 40
0.7547169811320754
 40
0.7547169811320754
 40
0.7641509433962264
 40
0.7641509433962264
 40
0.7641509433962264
 40
0.7641509433962264
 40
0.7735849056603773
 40
0.7735849056603773
 40
0.7735849056603773
 40
0.7735849056603773
 40
0.7830188679245282
 40
0.7830188679245282
 40
0.7830188679245282
 40
0.7830188679245282
 40
0.7924528301886792
 40
0.7924528301886792
 40
0.7924528301886792
 40
0.7924528301886792
 40
0.8018867924528301
 40
0.8018867924528301
 40
0.8018867924528301
 40
0.8018867924528301
 40
0.8113207547169811
 40
0.8113207547169811
 40
0.8113207547169811
 40
0.8113207547169811
 40
0.820754716981132
 40
0.820754716981132
 40
0.820754716981132
 40
0.820754716981132
 40
0.830188679245283
 40
0.830188679245283
 40
0.830188679245283
 40
0.830188679245283
 40
0.8396226415094339
 40
0.8396226415094339
 40
0.8396226415094339
 40
0.8396226415094339
 40
0.8490566037735848
 40
0.8490566037735848
 40
0.8490566037735848
 40
0.8490566037735848
 40
0.8584905660377358
 40
0.8584905660377358
 40
0.8584905660377358
 40
0.8584905660377358
 40
0.8679245283018867
 40
0.8679245283018867
 40
0.8679245283018867
 40
0.8679245283018867
 40
0.8773584905660377
 40
0.8773584905660377
 40
0.8773584905660377
 40
0.8773584905660377
 40
0.8867924528301886
 40
0.8867924528301886
 40
0.8867924528301886
 40
0.8867924528301886
 40
0.8962264150943395
 40
0.8962264150943395
 40
0.8962264150943395
 40
0.8962264150943395
 40
0.9056603773584905
 40
0.9056603773584905
 40
0.9056603773584905
 40
0.9056603773584905
 40
0.9150943396226414
 40
0.9150943396226414
 40
0.9150943396226414
 40
0.9150943396226414
 40
0.9245283018867924
 40
0.9245283018867924
 40
0.9245283018867924
 40
0.9245283018867924
 40
0.9339622641509433
 40
0.9339622641509433
 40
0.9339622641509433
 40
0.9339622641509433
 40
0.9433962264150942
 40
0.9433962264150942
 40
0.9433962264150942
 40
0.9433962264150942
 40
0.9528301886792452
 40
0.9528301886792452
 40
0.9528301886792452
 40
0.9528301886792452
 40
0.9622641509433961
 40
0.9622641509433961
 40
0.9622641509433961
 40
0.9622641509433961
 40
0.9716981132075471
 40
0.9716981132075471
 40
0.9716981132075471
 40
0.9716981132075471
 40
0.981132075471698
 40
0.981132075471698
 40
0.981132075471698
 40
0.981132075471698
 40
0.990566037735849
 40
0.990566037735849
 40
0.990566037735849
 40
0.990566037735849
 40
1.0
 40
1.0
 40
1.0
 40
1.0
 10
0.0570511811023622
 20
-3.047287401574803
 30
0.0
 10
0.0570511811023622
 20
-3.047287401574803
 30
0.0
 10
0.7009566929133858
 20
-2.6753425196850396
 30
0.0
 10
0.7009566929133858
 20
-2.6753425196850396
 30
0.0
 10
0.7009566929133858
 20
-2.6753425196850396
 30
0.0
 10
0.7009566929133858
 20
-2.6753425196850396
 30
0.0
 10
0.7450590551181102
 20
-2.6439724409448822
 30
0.0
 10
0.7450590551181102
 20
-2.6439724409448822
 30
0.0
 10
0.7450590551181102
 20
-2.6439724409448822
 30
0.0
 10
0.7450590551181102
 20
-2.6439724409448822
 30
0.0
 10
0.7875590551181103
 20
-2.6105708661417322
 30
0.0
 10
0.7875590551181103
 20
-2.6105708661417322
 30
0.0
 10
0.7875590551181103
 20
-2.6105708661417322
 30
0.0
 10
0.7875590551181103
 20
-2.6105708661417322
 30
0.0
 10
0.8283779527559055
 20
-2.5752086614173231
 30
0.0
 10
0.8283779527559055
 20
-2.5752086614173231
 30
0.0
 10
0.8283779527559055
 20
-2.5752086614173231
 30
0.0
 10
0.8283779527559055
 20
-2.5752086614173231
 30
0.0
 10
0.8674606299212598
 20
-2.53796062992126
 30
0.0
 10
0.8674606299212598
 20
-2.53796062992126
 30
0.0
 10
0.8674606299212598
 20
-2.53796062992126
 30
0.0
 10
0.8674606299212598
 20
-2.53796062992126
 30
0.0
 10
0.9047086614173229
 20
-2.4988779527559055
 30
0.0
 10
0.9047086614173229
 20
-2.4988779527559055
 30
0.0
 10
0.9047086614173229
 20
-2.4988779527559055
 30
0.0
 10
0.9047086614173229
 20
-2.4988779527559055
 30
0.0
 10
0.9400708661417323
 20
-2.4580590551181105
 30
0.0
 10
0.9400708661417323
 20
-2.4580590551181105
 30
0.0
 10
0.9400708661417323
 20
-2.4580590551181105
 30
0.0
 10
0.9400708661417323
 20
-2.4580590551181105
 30
0.0
 10
0.9734724409448819
 20
-2.4155551181102362
 30
0.0
 10
0.9734724409448819
 20
-2.4155551181102362
 30
0.0
 10
0.9734724409448819
 20
-2.4155551181102362
 30
0.0
 10
0.9734724409448819
 20
-2.4155551181102362
 30
0.0
 10
1.0048425196850395
 20
-2.3714527559055121
 30
0.0
 10
1.0048425196850395
 20
-2.3714527559055121
 30
0.0
 10
1.0048425196850395
 20
-2.3714527559055121
 30
0.0
 10
1.0048425196850395
 20
-2.3714527559055121
 30
0.0
 10
1.0341023622047245
 20
-2.3258031496062994
 30
0.0
 10
1.0341023622047245
 20
-2.3258031496062994
 30
0.0
 10
1.0341023622047245
 20
-2.3258031496062994
 30
0.0
 10
1.0341023622047245
 20
-2.3258031496062994
 30
0.0
 10
1.0611968503937008
 20
-2.2786929133858269
 30
0.0
 10
1.0611968503937008
 20
-2.2786929133858269
 30
0.0
 10
1.0611968503937008
 20
-2.2786929133858269
 30
0.0
 10
1.0611968503937008
 20
-2.2786929133858269
 30
0.0
 10
1.0860472440944882
 20
-2.2301850393700788
 30
0.0
 10
1.0860472440944882
 20
-2.2301850393700788
 30
0.0
 10
1.0860472440944882
 20
-2.2301850393700788
 30
0.0
 10
1.0860472440944882
 20
-2.2301850393700788
 30
0.0
 10
1.1085826771653544
 20
-2.1803582677165356
 30
0.0
 10
1.1085826771653544
 20
-2.1803582677165356
 30
0.0
 10
1.1085826771653544
 20
-2.1803582677165356
 30
0.0
 10
1.1085826771653544
 20
-2.1803582677165356
 30
0.0
 10
1.128720472440945
 20
-2.1292637795275593
 30
0.0
 10
1.128720472440945
 20
-2.1292637795275593
 30
0.0
 10
1.128720472440945
 20
-2.1292637795275593
 30
0.0
 10
1.128720472440945
 20
-2.1292637795275593
 30
0.0
 10
1.1464133858267718
 20
-2.077
 30
0.0
 10
1.1464133858267718
 20
-2.077
 30
0.0
 10
1.1464133858267718
 20
-2.077
 30
0.0
 10
1.1464133858267718
 20
-2.077
 30
0.0
 10
1.1615787401574804
 20
-2.0236141732283466
 30
0.0
 10
1.1615787401574804
 20
-2.0236141732283466
 30
0.0
 10
1.1615787401574804
 20
-2.0236141732283466
 30
0.0
 10
1.1615787401574804
 20
-2.0236141732283466
 30
0.0
 10
1.1741456692913386
 20
-1.969196850393701
 30
0.0
 10
1.1741456692913386
 20
-1.969196850393701
 30
0.0
 10
1.1741456692913386
 20
-1.969196850393701
 30
0.0
 10
1.1741456692913386
 20
-1.969196850393701
 30
0.0
 10
1.1840393700787402
 20
-1.9137992125984253
 30
0.0
 10
1.1840393700787402
 20
-1.9137992125984253
 30
0.0
 10
1.1840393700787402
 20
-1.9137992125984253
 30
0.0
 10
1.1840393700787402
 20
-1.9137992125984253
 30
0.0
 10
1.1911968503937009
 20
-1.857507874015748
 30
0.0
 10
1.1911968503937009
 20
-1.857507874015748
 30
0.0
 10
1.1911968503937009
 20
-1.857507874015748
 30
0.0
 10
1.1911968503937009
 20
-1.857507874015748
 30
0.0
 10
1.1955433070866142
 20
-1.8003818897637796
 30
0.0
 10
1.1955433070866142
 20
-1.8003818897637796
 30
0.0
 10
1.1955433070866142
 20
-1.8003818897637796
 30
0.0
 10
1.1955433070866142
 20
-1.8003818897637796
 30
0.0
 10
1.1970078740157482
 20
-1.742507874015748
 30
0.0
 10
1.1970078740157482
 20
-1.742507874015748
 30
0.0
 10
1.1970078740157482
 20
-1.742507874015748
 30
0.0
 10
1.1970078740157482
 20
-1.742507874015748
 30
0.0
 10
1.1955433070866142
 20
-1.6846220472440945
 30
0.0
 10
1.1955433070866142
 20
-1.6846220472440945
 30
0.0
 10
1.1955433070866142
 20
-1.6846220472440945
 30
0.0
 10
1.1955433070866142
 20
-1.6846220472440945
 30
0.0
 10
1.1911968503937009
 20
-1.627496062992126
 30
0.0
 10
1.1911968503937009
 20
-1.627496062992126
 30
0.0
 10
1.1911968503937009
 20
-1.627496062992126
 30
0.0
 10
1.1911968503937009
 20
-1.627496062992126
 30
0.0
 10
1.1840393700787402
 20
-1.5712007874015748
 30
0.0
 10
1.1840393700787402
 20
-1.5712007874015748
 30
0.0
 10
1.1840393700787402
 20
-1.5712007874015748
 30
0.0
 10
1.1840393700787402
 20
-1.5712007874015748
 30
0.0
 10
1.1741456692913386
 20
-1.5158070866141733
 30
0.0
 10
1.1741456692913386
 20
-1.5158070866141733
 30
0.0
 10
1.1741456692913386
 20
-1.5158070866141733
 30
0.0
 10
1.1741456692913386
 20
-1.5158070866141733
 30
0.0
 10
1.1615787401574804
 20
-1.4613818897637796
 30
0.0
 10
1.1615787401574804
 20
-1.4613818897637796
 30
0.0
 10
1.1615787401574804
 20
-1.4613818897637796
 30
0.0
 10
1.1615787401574804
 20
-1.4613818897637796
 30
0.0
 10
1.1464133858267718
 20
-1.4080039370078741
 30
0.0
 10
1.1464133858267718
 20
-1.4080039370078741
 30
0.0
 10
1.1464133858267718
 20
-1.4080039370078741
 30
0.0
 10
1.1464133858267718
 20
-1.4080039370078741
 30
0.0
 10
1.128720472440945
 20
-1.3557322834645671
 30
0.0
 10
1.128720472440945
 20
-1.3557322834645671
 30
0.0
 10
1.128720472440945
 20
-1.3557322834645671
 30
0.0
 10
1.128720472440945
 20
-1.3557322834645671
 30
0.0
 10
1.1085826771653544
 20
-1.3046496062992126
 30
0.0
 10
1.1085826771653544
 20
-1.3046496062992126
 30
0.0
 10
1.1085826771653544
 20
-1.3046496062992126
 30
0.0
 10
1.1085826771653544
 20
-1.3046496062992126
 30
0.0
 10
1.0860472440944882
 20
-1.2548149606299213
 30
0.0
 10
1.0860472440944882
 20
-1.2548149606299213
 30
0.0
 10
1.0860472440944882
 20
-1.2548149606299213
 30
0.0
 10
1.0860472440944882
 20
-1.2548149606299213
 30
0.0
 10
1.0611968503937008
 20
-1.2063070866141732
 30
0.0
 10
1.0611968503937008
 20
-1.2063070866141732
 30
0.0
 10
1.0611968503937008
 20
-1.2063070866141732
 30
0.0
 10
1.0611968503937008
 20
-1.2063070866141732
 30
0.0
 10
1.0341023622047245
 20
-1.1591929133858268
 30
0.0
 10
1.0341023622047245
 20
-1.1591929133858268
 30
0.0
 10
1.0341023622047245
 20
-1.1591929133858268
 30
0.0
 10
1.0341023622047245
 20
-1.1591929133858268
 30
0.0
 10
1.0048425196850395
 20
-1.1135511811023622
 30
0.0
 10
1.0048425196850395
 20
-1.1135511811023622
 30
0.0
 10
1.0048425196850395
 20
-1.1135511811023622
 30
0.0
 10
1.0048425196850395
 20
-1.1135511811023622
 30
0.0
 10
0.9734724409448819
 20
-1.0694370078740159
 30
0.0
 10
0.9734724409448819
 20
-1.0694370078740159
 30
0.0
 10
0.9734724409448819
 20
-1.0694370078740159
 30
0.0
 10
0.9734724409448819
 20
-1.0694370078740159
 30
0.0
 10
0.9400708661417323
 20
-1.0269409448818898
 30
0.0
 10
0.9400708661417323
 20
-1.0269409448818898
 30
0.0
 10
0.9400708661417323
 20
-1.0269409448818898
 30
0.0
 10
0.9400708661417323
 20
-1.0269409448818898
 30
0.0
 10
0.9047086614173229
 20
-0.9861220472440946
 30
0.0
 10
0.9047086614173229
 20
-0.9861220472440946
 30
0.0
 10
0.9047086614173229
 20
-0.9861220472440946
 30
0.0
 10
0.9047086614173229
 20
-0.9861220472440946
 30
0.0
 10
0.8674606299212598
 20
-0.9470511811023622
 30
0.0
 10
0.8674606299212598
 20
-0.9470511811023622
 30
0.0
 10
0.8674606299212598
 20
-0.9470511811023622
 30
0.0
 10
0.8674606299212598
 20
-0.9470511811023622
 30
0.0
 10
0.8283779527559055
 20
-0.9097952755905512
 30
0.0
 10
0.8283779527559055
 20
-0.9097952755905512
 30
0.0
 10
0.8283779527559055
 20
-0.9097952755905512
 30
0.0
 10
0.8283779527559055
 20
-0.9097952755905512
 30
0.0
 10
0.7875590551181103
 20
-0.8744330708661418
 30
0.0
 10
0.7875590551181103
 20
-0.8744330708661418
 30
0.0
 10
0.7875590551181103
 20
-0.8744330708661418
 30
0.0
 10
0.7875590551181103
 20
-0.8744330708661418
 30
0.0
 10
0.7450590551181102
 20
-0.8410314960629922
 30
0.0
 10
0.7450590551181102
 20
-0.8410314960629922
 30
0.0
 10
0.7450590551181102
 20
-0.8410314960629922
 30
0.0
 10
0.7450590551181102
 20
-0.8410314960629922
 30
0.0
 10
0.7009566929133858
 20
-0.8096653543307087
 30
0.0
 10
0.7009566929133858
 20
-0.8096653543307087
 30
0.0
 10
0.7009566929133858
 20
-0.8096653543307087
 30
0.0
 10
0.7009566929133858
 20
-0.8096653543307087
 30
0.0
 10
0.6553149606299213
 20
-0.7803976377952756
 30
0.0
 10
0.6553149606299213
 20
-0.7803976377952756
 30
0.0
 10
0.6553149606299213
 20
-0.7803976377952756
 30
0.0
 10
0.6553149606299213
 20
-0.7803976377952756
 30
0.0
 10
0.6082086614173229
 20
-0.7533031496062993
 30
0.0
 10
0.6082086614173229
 20
-0.7533031496062993
 30
0.0
 10
0.6082086614173229
 20
-0.7533031496062993
 30
0.0
 10
0.6082086614173229
 20
-0.7533031496062993
 30
0.0
 10
0.5597007874015748
 20
-0.7284527559055118
 30
0.0
 10
0.5597007874015748
 20
-0.7284527559055118
 30
0.0
 10
0.5597007874015748
 20
-0.7284527559055118
 30
0.0
 10
0.5597007874015748
 20
-0.7284527559055118
 30
0.0
 10
0.5098661417322835
 20
-0.7059291338582677
 30
0.0
 10
0.5098661417322835
 20
-0.7059291338582677
 30
0.0
 10
0.5098661417322835
 20
-0.7059291338582677
 30
0.0
 10
0.5098661417322835
 20
-0.7059291338582677
 30
0.0
 10
0.4587834645669291
 20
-0.6857795275590551
 30
0.0
 10
0.4587834645669291
 20
-0.6857795275590551
 30
0.0
 10
0.4587834645669291
 20
-0.6857795275590551
 30
0.0
 10
0.4587834645669291
 20
-0.6857795275590551
 30
0.0
 10
0.4065157480314961
 20
-0.6680866141732283
 30
0.0
 10
0.4065157480314961
 20
-0.6680866141732283
 30
0.0
 10
0.4065157480314961
 20
-0.6680866141732283
 30
0.0
 10
0.4065157480314961
 20
-0.6680866141732283
 30
0.0
 10
0.3531377952755906
 20
-0.6529212598425197
 30
0.0
 10
0.3531377952755906
 20
-0.6529212598425197
 30
0.0
 10
0.3531377952755906
 20
-0.6529212598425197
 30
0.0
 10
0.3531377952755906
 20
-0.6529212598425197
 30
0.0
 10
0.2987125984251969
 20
-0.6403661417322835
 30
0.0
 10
0.2987125984251969
 20
-0.6403661417322835
 30
0.0
 10
0.2987125984251969
 20
-0.6403661417322835
 30
0.0
 10
0.2987125984251969
 20
-0.6403661417322835
 30
0.0
 10
0.2433188976377953
 20
-0.6304685039370079
 30
0.0
 10
0.2433188976377953
 20
-0.6304685039370079
 30
0.0
 10
0.2433188976377953
 20
-0.6304685039370079
 30
0.0
 10
0.2433188976377953
 20
-0.6304685039370079
 30
0.0
 10
0.1870236220472441
 20
-0.6233110236220473
 30
0.0
 10
0.1870236220472441
 20
-0.6233110236220473
 30
0.0
 10
0.1870236220472441
 20
-0.6233110236220473
 30
0.0
 10
0.1870236220472441
 20
-0.6233110236220473
 30
0.0
 10
0.1298976377952756
 20
-0.6189645669291339
 30
0.0
 10
0.1298976377952756
 20
-0.6189645669291339
 30
0.0
 10
0.1298976377952756
 20
-0.6189645669291339
 30
0.0
 10
0.1298976377952756
 20
-0.6189645669291339
 30
0.0
 10
0.072011811023622
 20
-0.617507874015748
 30
0.0
 10
0.072011811023622
 20
-0.617507874015748
 30
0.0
 10
0.072011811023622
 20
-0.617507874015748
 30
0.0
 10
0.072011811023622
 20
-0.617507874015748
 30
0.0
 10
-0.5718937007874017
 20
-0.9894527559055119
 30
0.0
 10
-0.5718937007874017
 20
-0.9894527559055119
 30
0.0
 10
-0.5718937007874017
 20
-0.9894527559055119
 30
0.0
 10
-0.5718937007874017
 20
-0.9894527559055119
 30
0.0
 10
-0.5140078740157481
 20
-0.9909094488188976
 30
0.0
 10
-0.5140078740157481
 20
-0.9909094488188976
 30
0.0
 10
-0.5140078740157481
 20
-0.9909094488188976
 30
0.0
 10
-0.5140078740157481
 20
-0.9909094488188976
 30
0.0
 10
-0.4568818897637795
 20
-0.9952559055118111
 30
0.0
 10
-0.4568818897637795
 20
-0.9952559055118111
 30
0.0
 10
-0.4568818897637795
 20
-0.9952559055118111
 30
0.0
 10
-0.4568818897637795
 20
-0.9952559055118111
 30
0.0
 10
-0.4005866141732284
 20
-1.0024133858267716
 30
0.0
 10
-0.4005866141732284
 20
-1.0024133858267716
 30
0.0
 10
-0.4005866141732284
 20
-1.0024133858267716
 30
0.0
 10
-0.4005866141732284
 20
-1.0024133858267716
 30
0.0
 10
-0.3451929133858268
 20
-1.0123110236220474
 30
0.0
 10
-0.3451929133858268
 20
-1.0123110236220474
 30
0.0
 10
-0.3451929133858268
 20
-1.0123110236220474
 30
0.0
 10
-0.3451929133858268
 20
-1.0123110236220474
 30
0.0
 10
-0.2907677165354331
 20
-1.0248661417322835
 30
0.0
 10
-0.2907677165354331
 20
-1.0248661417322835
 30
0.0
 10
-0.2907677165354331
 20
-1.0248661417322835
 30
0.0
 10
-0.2907677165354331
 20
-1.0248661417322835
 30
0.0
 10
-0.2373897637795276
 20
-1.0400314960629922
 30
0.0
 10
-0.2373897637795276
 20
-1.0400314960629922
 30
0.0
 10
-0.2373897637795276
 20
-1.0400314960629922
 30
0.0
 10
-0.2373897637795276
 20
-1.0400314960629922
 30
0.0
 10
-0.1851220472440945
 20
-1.057724409448819
 30
0.0
 10
-0.1851220472440945
 20
-1.057724409448819
 30
0.0
 10
-0.1851220472440945
 20
-1.057724409448819
 30
0.0
 10
-0.1851220472440945
 20
-1.057724409448819
 30
0.0
 10
-0.1340393700787402
 20
-1.0778740157480315
 30
0.0
 10
-0.1340393700787402
 20
-1.0778740157480315
 30
0.0
 10
-0.1340393700787402
 20
-1.0778740157480315
 30
0.0
 10
-0.1340393700787402
 20
-1.0778740157480315
 30
0.0
 10
-0.0842047244094488
 20
-1.1003976377952756
 30
0.0
 10
-0.0842047244094488
 20
-1.1003976377952756
 30
0.0
 10
-0.0842047244094488
 20
-1.1003976377952756
 30
0.0
 10
-0.0842047244094488
 20
-1.1003976377952756
 30
0.0
 10
-0.0356968503937008
 20
-1.1252480314960631
 30
0.0
 10
-0.0356968503937008
 20
-1.1252480314960631
 30
0.0
 10
-0.0356968503937008
 20
-1.1252480314960631
 30
0.0
 10
-0.0356968503937008
 20
-1.1252480314960631
 30
0.0
 10
0.0114094488188976
 20
-1.1523425196850394
 30
0.0
 10
0.0114094488188976
 20
-1.1523425196850394
 30
0.0
 10
0.0114094488188976
 20
-1.1523425196850394
 30
0.0
 10
0.0114094488188976
 20
-1.1523425196850394
 30
0.0
 10
0.0570511811023622
 20
-1.1816102362204726
 30
0.0
 10
0.0570511811023622
 20
-1.1816102362204726
 30
0.0
 10
0.0570511811023622
 20
-1.1816102362204726
 30
0.0
 10
0.0570511811023622
 20
-1.1816102362204726
 30
0.0
 10
0.1011535433070866
 20
-1.212976377952756
 30
0.0
 10
0.1011535433070866
 20
-1.212976377952756
 30
0.0
 10
0.1011535433070866
 20
-1.212976377952756
 30
0.0
 10
0.1011535433070866
 20
-1.212976377952756
 30
0.0
 10
0.1436535433070866
 20
-1.2463779527559056
 30
0.0
 10
0.1436535433070866
 20
-1.2463779527559056
 30
0.0
 10
0.1436535433070866
 20
-1.2463779527559056
 30
0.0
 10
0.1436535433070866
 20
-1.2463779527559056
 30
0.0
 10
0.1844724409448819
 20
-1.2817401574803151
 30
0.0
 10
0.1844724409448819
 20
-1.2817401574803151
 30
0.0
 10
0.1844724409448819
 20
-1.2817401574803151
 30
0.0
 10
0.1844724409448819
 20
-1.2817401574803151
 30
0.0
 10
0.2235551181102362
 20
-1.318996062992126
 30
0.0
 10
0.2235551181102362
 20
-1.318996062992126
 30
0.0
 10
0.2235551181102362
 20
-1.318996062992126
 30
0.0
 10
0.2235551181102362
 20
-1.318996062992126
 30
0.0
 10
0.2608031496062992
 20
-1.3580669291338583
 30
0.0
 10
0.2608031496062992
 20
-1.3580669291338583
 30
0.0
 10
0.2608031496062992
 20
-1.3580669291338583
 30
0.0
 10
0.2608031496062992
 20
-1.3580669291338583
 30
0.0
 10
0.2961653543307087
 20
-1.3988858267716535
 30
0.0
 10
0.2961653543307087
 20
-1.3988858267716535
 30
0.0
 10
0.2961653543307087
 20
-1.3988858267716535
 30
0.0
 10
0.2961653543307087
 20
-1.3988858267716535
 30
0.0
 10
0.3295669291338583
 20
-1.4413818897637796
 30
0.0
 10
0.3295669291338583
 20
-1.4413818897637796
 30
0.0
 10
0.3295669291338583
 20
-1.4413818897637796
 30
0.0
 10
0.3295669291338583
 20
-1.4413818897637796
 30
0.0
 10
0.3609370078740158
 20
-1.4854960629921261
 30
0.0
 10
0.3609370078740158
 20
-1.4854960629921261
 30
0.0
 10
0.3609370078740158
 20
-1.4854960629921261
 30
0.0
 10
0.3609370078740158
 20
-1.4854960629921261
 30
0.0
 10
0.3901968503937008
 20
-1.5311377952755907
 30
0.0
 10
0.3901968503937008
 20
-1.5311377952755907
 30
0.0
 10
0.3901968503937008
 20
-1.5311377952755907
 30
0.0
 10
0.3901968503937008
 20
-1.5311377952755907
 30
0.0
 10
0.4172913385826772
 20
-1.5782519685039371
 30
0.0
 10
0.4172913385826772
 20
-1.5782519685039371
 30
0.0
 10
0.4172913385826772
 20
-1.5782519685039371
 30
0.0
 10
0.4172913385826772
 20
-1.5782519685039371
 30
0.0
 10
0.4421417322834646
 20
-1.6267598425196852
 30
0.0
 10
0.4421417322834646
 20
-1.6267598425196852
 30
0.0
 10
0.4421417322834646
 20
-1.6267598425196852
 30
0.0
 10
0.4421417322834646
 20
-1.6267598425196852
 30
0.0
 10
0.4646771653543307
 20
-1.6765944881889765
 30
0.0
 10
0.4646771653543307
 20
-1.6765944881889765
 30
0.0
 10
0.4646771653543307
 20
-1.6765944881889765
 30
0.0
 10
0.4646771653543307
 20
-1.6765944881889765
 30
0.0
 10
0.4848149606299213
 20
-1.7276771653543308
 30
0.0
 10
0.4848149606299213
 20
-1.7276771653543308
 30
0.0
 10
0.4848149606299213
 20
-1.7276771653543308
 30
0.0
 10
0.4848149606299213
 20
-1.7276771653543308
 30
0.0
 10
0.502507874015748
 20
-1.7799488188976378
 30
0.0
 10
0.502507874015748
 20
-1.7799488188976378
 30
0.0
 10
0.502507874015748
 20
-1.7799488188976378
 30
0.0
 10
0.502507874015748
 20
-1.7799488188976378
 30
0.0
 10
0.5176732283464567
 20
-1.8333267716535433
 30
0.0
 10
0.5176732283464567
 20
-1.8333267716535433
 30
0.0
 10
0.5176732283464567
 20
-1.8333267716535433
 30
0.0
 10
0.5176732283464567
 20
-1.8333267716535433
 30
0.0
 10
0.5302401574803149
 20
-1.887751968503937
 30
0.0
 10
0.5302401574803149
 20
-1.887751968503937
 30
0.0
 10
0.5302401574803149
 20
-1.887751968503937
 30
0.0
 10
0.5302401574803149
 20
-1.887751968503937
 30
0.0
 10
0.5401338582677165
 20
-1.9431456692913387
 30
0.0
 10
0.5401338582677165
 20
-1.9431456692913387
 30
0.0
 10
0.5401338582677165
 20
-1.9431456692913387
 30
0.0
 10
0.5401338582677165
 20
-1.9431456692913387
 30
0.0
 10
0.5472913385826772
 20
-1.9994409448818899
 30
0.0
 10
0.5472913385826772
 20
-1.9994409448818899
 30
0.0
 10
0.5472913385826772
 20
-1.9994409448818899
 30
0.0
 10
0.5472913385826772
 20
-1.9994409448818899
 30
0.0
 10
0.5516377952755905
 20
-2.0565669291338584
 30
0.0
 10
0.5516377952755905
 20
-2.0565669291338584
 30
0.0
 10
0.5516377952755905
 20
-2.0565669291338584
 30
0.0
 10
0.5516377952755905
 20
-2.0565669291338584
 30
0.0
 10
0.5531023622047244
 20
-2.114452755905512
 30
0.0
 10
0.5531023622047244
 20
-2.114452755905512
 30
0.0
 10
0.5531023622047244
 20
-2.114452755905512
 30
0.0
 10
0.5531023622047244
 20
-2.114452755905512
 30
0.0
 10
0.5516377952755905
 20
-2.1723267716535433
 30
0.0
 10
0.5516377952755905
 20
-2.1723267716535433
 30
0.0
 10
0.5516377952755905
 20
-2.1723267716535433
 30
0.0
 10
0.5516377952755905
 20
-2.1723267716535433
 30
0.0
 10
0.5472913385826772
 20
-2.2294527559055117
 30
0.0
 10
0.5472913385826772
 20
-2.2294527559055117
 30
0.0
 10
0.5472913385826772
 20
-2.2294527559055117
 30
0.0
 10
0.5472913385826772
 20
-2.2294527559055117
 30
0.0
 10
0.5401338582677165
 20
-2.285744094488189
 30
0.0
 10
0.5401338582677165
 20
-2.285744094488189
 30
0.0
 10
0.5401338582677165
 20
-2.285744094488189
 30
0.0
 10
0.5401338582677165
 20
-2.285744094488189
 30
0.0
 10
0.5302401574803149
 20
-2.3411417322834644
 30
0.0
 10
0.5302401574803149
 20
-2.3411417322834644
 30
0.0
 10
0.5302401574803149
 20
-2.3411417322834644
 30
0.0
 10
0.5302401574803149
 20
-2.3411417322834644
 30
0.0
 10
0.5176732283464567
 20
-2.3955590551181105
 30
0.0
 10
0.5176732283464567
 20
-2.3955590551181105
 30
0.0
 10
0.5176732283464567
 20
-2.3955590551181105
 30
0.0
 10
0.5176732283464567
 20
-2.3955590551181105
 30
0.0
 10
0.502507874015748
 20
-2.4489448818897639
 30
0.0
 10
0.502507874015748
 20
-2.4489448818897639
 30
0.0
 10
0.502507874015748
 20
-2.4489448818897639
 30
0.0
 10
0.502507874015748
 20
-2.4489448818897639
 30
0.0
 10
0.4848149606299213
 20
-2.5012086614173228
 30
0.0
 10
0.4848149606299213
 20
-2.5012086614173228
 30
0.0
 10
0.4848149606299213
 20
-2.5012086614173228
 30
0.0
 10
0.4848149606299213
 20
-2.5012086614173228
 30
0.0
 10
0.4646771653543307
 20
-2.5523031496062991
 30
0.0
 10
0.4646771653543307
 20
-2.5523031496062991
 30
0.0
 10
0.4646771653543307
 20
-2.5523031496062991
 30
0.0
 10
0.4646771653543307
 20
-2.5523031496062991
 30
0.0
 10
0.4421417322834646
 20
-2.6021299212598428
 30
0.0
 10
0.4421417322834646
 20
-2.6021299212598428
 30
0.0
 10
0.4421417322834646
 20
-2.6021299212598428
 30
0.0
 10
0.4421417322834646
 20
-2.6021299212598428
 30
0.0
 10
0.4172913385826772
 20
-2.6506377952755908
 30
0.0
 10
0.4172913385826772
 20
-2.6506377952755908
 30
0.0
 10
0.4172913385826772
 20
-2.6506377952755908
 30
0.0
 10
0.4172913385826772
 20
-2.6506377952755908
 30
0.0
 10
0.3901968503937008
 20
-2.6977480314960629
 30
0.0
 10
0.3901968503937008
 20
-2.6977480314960629
 30
0.0
 10
0.3901968503937008
 20
-2.6977480314960629
 30
0.0
 10
0.3901968503937008
 20
-2.6977480314960629
 30
0.0
 10
0.3609370078740158
 20
-2.7433976377952756
 30
0.0
 10
0.3609370078740158
 20
-2.7433976377952756
 30
0.0
 10
0.3609370078740158
 20
-2.7433976377952756
 30
0.0
 10
0.3609370078740158
 20
-2.7433976377952756
 30
0.0
 10
0.3295669291338583
 20
-2.7875000000000001
 30
0.0
 10
0.3295669291338583
 20
-2.7875000000000001
 30
0.0
 10
0.3295669291338583
 20
-2.7875000000000001
 30
0.0
 10
0.3295669291338583
 20
-2.7875000000000001
 30
0.0
 10
0.2961653543307087
 20
-2.830003937007874
 30
0.0
 10
0.2961653543307087
 20
-2.830003937007874
 30
0.0
 10
0.2961653543307087
 20
-2.830003937007874
 30
0.0
 10
0.2961653543307087
 20
-2.830003937007874
 30
0.0
 10
0.2608031496062992
 20
-2.8708228346456695
 30
0.0
 10
0.2608031496062992
 20
-2.8708228346456695
 30
0.0
 10
0.2608031496062992
 20
-2.8708228346456695
 30
0.0
 10
0.2608031496062992
 20
-2.8708228346456695
 30
0.0
 10
0.2235551181102362
 20
-2.9099055118110235
 30
0.0
 10
0.2235551181102362
 20
-2.9099055118110235
 30
0.0
 10
0.2235551181102362
 20
-2.9099055118110235
 30
0.0
 10
0.2235551181102362
 20
-2.9099055118110235
 30
0.0
 10
0.1844724409448819
 20
-2.9471535433070866
 30
0.0
 10
0.1844724409448819
 20
-2.9471535433070866
 30
0.0
 10
0.1844724409448819
 20
-2.9471535433070866
 30
0.0
 10
0.1844724409448819
 20
-2.9471535433070866
 30
0.0
 10
0.1436535433070866
 20
-2.9825157480314961
 30
0.0
 10
0.1436535433070866
 20
-2.9825157480314961
 30
0.0
 10
0.1436535433070866
 20
-2.9825157480314961
 30
0.0
 10
0.1436535433070866
 20
-2.9825157480314961
 30
0.0
 10
0.1011535433070866
 20
-3.0159173228346456
 30
0.0
 10
0.1011535433070866
 20
-3.0159173228346456
 30
0.0
 10
0.1011535433070866
 20
-3.0159173228346456
 30
0.0
 10
0.1011535433070866
 20
-3.0159173228346456
 30
0.0
 10
0.0570511811023622
 20
-3.047287401574803
 30
0.0
 10
0.0570511811023622
 20
-3.047287401574803
 30
0.0
  0
SPLINE
  5
AF
100
AcDbEntity
  8
Additional Graphics
 62
     9
100
AcDbSpline
210
0.0
220
0.0
230
1.0
 70
     1
 71
     3
 72
    20
 73
    16
 74
     0
 42
0.0000000001
 43
0.0000000001
 40
0.0
 40
0.0
 40
0.0
 40
0.0
 40
0.25
 40
0.25
 40
0.25
 40
0.25
 40
0.5
 40
0.5
 40
0.5
 40
0.5
 40
0.75
 40
0.75
 40
0.75
 40
0.75
 40
1.0
 40
1.0
 40
1.0
 40
1.0
 10
-0.5718937007874017
 20
-0.9894527559055119
 30
0.0
 10
-0.5718937007874017
 20
-0.9894527559055119
 30
0.0
 10
0.072011811023622
 20
-0.617507874015748
 30
0.0
 10
0.072011811023622
 20
-0.617507874015748
 30
0.0
 10
0.072011811023622
 20
-0.617507874015748
 30
0.0
 10
0.072011811023622
 20
-0.617507874015748
 30
0.0
 10
0.072003937007874
 20
-0.367503937007874
 30
0.0
 10
0.072003937007874
 20
-0.367503937007874
 30
0.0
 10
0.072003937007874
 20
-0.367503937007874
 30
0.0
 10
0.072003937007874
 20
-0.367503937007874
 30
0.0
 10
-0.5719015748031496
 20
-0.7394488188976378
 30
0.0
 10
-0.5719015748031496
 20
-0.7394488188976378
 30
0.0
 10
-0.5719015748031496
 20
-0.7394488188976378
 30
0.0
 10
-0.5719015748031496
 20
-0.7394488188976378
 30
0.0
 10
-0.5718937007874017
 20
-0.9894527559055119
 30
0.0
 10
-0.5718937007874017
 20
-0.9894527559055119
 30
0.0
  0
SPLINE
  5
B0
100
AcDbEntity
  8
Additional Graphics
370
     5
100
AcDbSpline
210
0.0
220
0.0
230
1.0
 70
     1
 71
     3
 72
    20
 73
    16
 74
     0
 42
0.0000000001
 43
0.0000000001
 40
0.0
 40
0.0
 40
0.0
 40
0.0
 40
0.25
 40
0.25
 40
0.25
 40
0.25
 40
0.5
 40
0.5
 40
0.5
 40
0.5
 40
0.75
 40
0.75
 40
0.75
 40
0.75
 40
1.0
 40
1.0
 40
1.0
 40
1.0
 10
-0.5718937007874017
 20
-0.9894527559055119
 30
0.0
 10
-0.5718937007874017
 20
-0.9894527559055119
 30
0.0
 10
0.072011811023622
 20
-0.617507874015748
 30
0.0
 10
0.072011811023622
 20
-0.617507874015748
 30
0.0
 10
0.072011811023622
 20
-0.617507874015748
 30
0.0
 10
0.072011811023622
 20
-0.617507874015748
 30
0.0
 10
0.072003937007874
 20
-0.367503937007874
 30
0.0
 10
0.072003937007874
 20
-0.367503937007874
 30
0.0
 10
0.072003937007874
 20
-0.367503937007874
 30
0.0
 10
0.072003937007874
 20
-0.367503937007874
 30
0.0
 10
-0.5719015748031496
 20
-0.7394488188976378
 30
0.0
 10
-0.5719015748031496
 20
-0.7394488188976378
 30
0.0
 10
-0.5719015748031496
 20
-0.7394488188976378
 30
0.0
 10
-0.5719015748031496
 20
-0.7394488188976378
 30
0.0
 10
-0.5718937007874017
 20
-0.9894527559055119
 30
0.0
 10
-0.5718937007874017
 20
-0.9894527559055119
 30
0.0
  0
SPLINE
  5
B1
100
AcDbEntity
  8
Additional Graphics
 62
   253
100
AcDbSpline
210
0.0
220
0.0
230
1.0
 70
     1
 71
     3
 72
    20
 73
    16
 74
     0
 42
0.0000000001
 43
0.0000000001
 40
0.0
 40
0.0
 40
0.0
 40
0.0
 40
0.25
 40
0.25
 40
0.25
 40
0.25
 40
0.5
 40
0.5
 40
0.5
 40
0.5
 40
0.75
 40
0.75
 40
0.75
 40
0.75
 40
1.0
 40
1.0
 40
1.0
 40
1.0
 10
-0.5719015748031496
 20
-0.7394488188976378
 30
0.0
 10
-0.5719015748031496
 20
-0.7394488188976378
 30
0.0
 10
0.072003937007874
 20
-0.367503937007874
 30
0.0
 10
0.072003937007874
 20
-0.367503937007874
 30
0.0
 10
0.072003937007874
 20
-0.367503937007874
 30
0.0
 10
0.072003937007874
 20
-0.367503937007874
 30
0.0
 10
0.0462834645669291
 20
-0.3668503937007874
 30
0.0
 10
0.0462834645669291
 20
-0.3668503937007874
 30
0.0
 10
0.0462834645669291
 20
-0.3668503937007874
 30
0.0
 10
0.0462834645669291
 20
-0.3668503937007874
 30
0.0
 10
-0.5976220472440945
 20
-0.7387952755905513
 30
0.0
 10
-0.5976220472440945
 20
-0.7387952755905513
 30
0.0
 10
-0.5976220472440945
 20
-0.7387952755905513
 30
0.0
 10
-0.5976220472440945
 20
-0.7387952755905513
 30
0.0
 10
-0.5719015748031496
 20
-0.7394488188976378
 30
0.0
 10
-0.5719015748031496
 20
-0.7394488188976378
 30
0.0
  0
SPLINE
  5
B2
100
AcDbEntity
  8
Additional Graphics
 62
   253
100
AcDbSpline
210
0.0
220
0.0
230
1.0
 70
     1
 71
     3
 72
    20
 73
    16
 74
     0
 42
0.0000000001
 43
0.0000000001
 40
0.0
 40
0.0
 40
0.0
 40
0.0
 40
0.25
 40
0.25
 40
0.25
 40
0.25
 40
0.5
 40
0.5
 40
0.5
 40
0.5
 40
0.75
 40
0.75
 40
0.75
 40
0.75
 40
1.0
 40
1.0
 40
1.0
 40
1.0
 10
-0.5976220472440945
 20
-0.7387952755905513
 30
0.0
 10
-0.5976220472440945
 20
-0.7387952755905513
 30
0.0
 10
0.0462834645669291
 20
-0.3668503937007874
 30
0.0
 10
0.0462834645669291
 20
-0.3668503937007874
 30
0.0
 10
0.0462834645669291
 20
-0.3668503937007874
 30
0.0
 10
0.0462834645669291
 20
-0.3668503937007874
 30
0.0
 10
0.0208937007874016
 20
-0.3649173228346457
 30
0.0
 10
0.0208937007874016
 20
-0.3649173228346457
 30
0.0
 10
0.0208937007874016
 20
-0.3649173228346457
 30
0.0
 10
0.0208937007874016
 20
-0.3649173228346457
 30
0.0
 10
-0.623011811023622
 20
-0.7368622047244094
 30
0.0
 10
-0.623011811023622
 20
-0.7368622047244094
 30
0.0
 10
-0.623011811023622
 20
-0.7368622047244094
 30
0.0
 10
-0.623011811023622
 20
-0.7368622047244094
 30
0.0
 10
-0.5976220472440945
 20
-0.7387952755905513
 30
0.0
 10
-0.5976220472440945
 20
-0.7387952755905513
 30
0.0
  0
SPLINE
  5
B3
100
AcDbEntity
  8
Additional Graphics
 62
   253
100
AcDbSpline
210
0.0
220
0.0
230
1.0
 70
     1
 71
     3
 72
    20
 73
    16
 74
     0
 42
0.0000000001
 43
0.0000000001
 40
0.0
 40
0.0
 40
0.0
 40
0.0
 40
0.25
 40
0.25
 40
0.25
 40
0.25
 40
0.5
 40
0.5
 40
0.5
 40
0.5
 40
0.75
 40
0.75
 40
0.75
 40
0.75
 40
1.0
 40
1.0
 40
1.0
 40
1.0
 10
-0.623011811023622
 20
-0.7368622047244094
 30
0.0
 10
-0.623011811023622
 20
-0.7368622047244094
 30
0.0
 10
0.0208937007874016
 20
-0.3649173228346457
 30
0.0
 10
0.0208937007874016
 20
-0.3649173228346457
 30
0.0
 10
0.0208937007874016
 20
-0.3649173228346457
 30
0.0
 10
0.0208937007874016
 20
-0.3649173228346457
 30
0.0
 10
-0.0041220472440945
 20
-0.3617322834645669
 30
0.0
 10
-0.0041220472440945
 20
-0.3617322834645669
 30
0.0
 10
-0.0041220472440945
 20
-0.3617322834645669
 30
0.0
 10
-0.0041220472440945
 20
-0.3617322834645669
 30
0.0
 10
-0.6480275590551181
 20
-0.7336771653543307
 30
0.0
 10
-0.6480275590551181
 20
-0.7336771653543307
 30
0.0
 10
-0.6480275590551181
 20
-0.7336771653543307
 30
0.0
 10
-0.6480275590551181
 20
-0.7336771653543307
 30
0.0
 10
-0.623011811023622
 20
-0.7368622047244094
 30
0.0
 10
-0.623011811023622
 20
-0.7368622047244094
 30
0.0
  0
SPLINE
  5
B4
100
AcDbEntity
  8
Additional Graphics
 62
   253
100
AcDbSpline
210
0.0
220
0.0
230
1.0
 70
     1
 71
     3
 72
    28
 73
    24
 74
     0
 42
0.0000000001
 43
0.0000000001
 40
0.0
 40
0.0
 40
0.0
 40
0.0
 40
0.1666666666666667
 40
0.1666666666666667
 40
0.1666666666666667
 40
0.1666666666666667
 40
0.3333333333333333
 40
0.3333333333333333
 40
0.3333333333333333
 40
0.3333333333333333
 40
0.5
 40
0.5
 40
0.5
 40
0.5
 40
0.6666666666666666
 40
0.6666666666666666
 40
0.6666666666666666
 40
0.6666666666666666
 40
0.8333333333333333
 40
0.8333333333333333
 40
0.8333333333333333
 40
0.8333333333333333
 40
1.0
 40
1.0
 40
1.0
 40
1.0
 10
-0.6480275590551181
 20
-0.7336771653543307
 30
0.0
 10
-0.6480275590551181
 20
-0.7336771653543307
 30
0.0
 10
-0.0041220472440945
 20
-0.3617322834645669
 30
0.0
 10
-0.0041220472440945
 20
-0.3617322834645669
 30
0.0
 10
-0.0041220472440945
 20
-0.3617322834645669
 30
0.0
 10
-0.0041220472440945
 20
-0.3617322834645669
 30
0.0
 10
-0.028744094488189
 20
-0.3573385826771654
 30
0.0
 10
-0.028744094488189
 20
-0.3573385826771654
 30
0.0
 10
-0.028744094488189
 20
-0.3573385826771654
 30
0.0
 10
-0.028744094488189
 20
-0.3573385826771654
 30
0.0
 10
-0.0529291338582677
 20
-0.351751968503937
 30
0.0
 10
-0.0529291338582677
 20
-0.351751968503937
 30
0.0
 10
-0.0529291338582677
 20
-0.351751968503937
 30
0.0
 10
-0.0529291338582677
 20
-0.351751968503937
 30
0.0
 10
-0.6968346456692913
 20
-0.7236968503937008
 30
0.0
 10
-0.6968346456692913
 20
-0.7236968503937008
 30
0.0
 10
-0.6968346456692913
 20
-0.7236968503937008
 30
0.0
 10
-0.6968346456692913
 20
-0.7236968503937008
 30
0.0
 10
-0.6726496062992127
 20
-0.7292834645669292
 30
0.0
 10
-0.6726496062992127
 20
-0.7292834645669292
 30
0.0
 10
-0.6726496062992127
 20
-0.7292834645669292
 30
0.0
 10
-0.6726496062992127
 20
-0.7292834645669292
 30
0.0
 10
-0.6480275590551181
 20
-0.7336771653543307
 30
0.0
 10
-0.6480275590551181
 20
-0.7336771653543307
 30
0.0
  0
SPLINE
  5
B5
100
AcDbEntity
  8
Additional Graphics
 62
   253
100
AcDbSpline
210
0.0
220
0.0
230
1.0
 70
     1
 71
     3
 72
    28
 73
    24
 74
     0
 42
0.0000000001
 43
0.0000000001
 40
0.0
 40
0.0
 40
0.0
 40
0.0
 40
0.1666666666666667
 40
0.1666666666666667
 40
0.1666666666666667
 40
0.1666666666666667
 40
0.3333333333333333
 40
0.3333333333333333
 40
0.3333333333333333
 40
0.3333333333333333
 40
0.5
 40
0.5
 40
0.5
 40
0.5
 40
0.6666666666666666
 40
0.6666666666666666
 40
0.6666666666666666
 40
0.6666666666666666
 40
0.8333333333333333
 40
0.8333333333333333
 40
0.8333333333333333
 40
0.8333333333333333
 40
1.0
 40
1.0
 40
1.0
 40
1.0
 10
-0.6968346456692913
 20
-0.7236968503937008
 30
0.0
 10
-0.6968346456692913
 20
-0.7236968503937008
 30
0.0
 10
-0.0529291338582677
 20
-0.351751968503937
 30
0.0
 10
-0.0529291338582677
 20
-0.351751968503937
 30
0.0
 10
-0.0529291338582677
 20
-0.351751968503937
 30
0.0
 10
-0.0529291338582677
 20
-0.351751968503937
 30
0.0
 10
-0.0766535433070866
 20
-0.3450157480314961
 30
0.0
 10
-0.0766535433070866
 20
-0.3450157480314961
 30
0.0
 10
-0.0766535433070866
 20
-0.3450157480314961
 30
0.0
 10
-0.0766535433070866
 20
-0.3450157480314961
 30
0.0
 10
-0.0998818897637795
 20
-0.3371496062992126
 30
0.0
 10
-0.0998818897637795
 20
-0.3371496062992126
 30
0.0
 10
-0.0998818897637795
 20
-0.3371496062992126
 30
0.0
 10
-0.0998818897637795
 20
-0.3371496062992126
 30
0.0
 10
-0.7437874015748032
 20
-0.7090944881889764
 30
0.0
 10
-0.7437874015748032
 20
-0.7090944881889764
 30
0.0
 10
-0.7437874015748032
 20
-0.7090944881889764
 30
0.0
 10
-0.7437874015748032
 20
-0.7090944881889764
 30
0.0
 10
-0.7205590551181103
 20
-0.7169606299212599
 30
0.0
 10
-0.7205590551181103
 20
-0.7169606299212599
 30
0.0
 10
-0.7205590551181103
 20
-0.7169606299212599
 30
0.0
 10
-0.7205590551181103
 20
-0.7169606299212599
 30
0.0
 10
-0.6968346456692913
 20
-0.7236968503937008
 30
0.0
 10
-0.6968346456692913
 20
-0.7236968503937008
 30
0.0
  0
SPLINE
  5
B6
100
AcDbEntity
  8
Additional Graphics
 62
   253
100
AcDbSpline
210
0.0
220
0.0
230
1.0
 70
     1
 71
     3
 72
    28
 73
    24
 74
     0
 42
0.0000000001
 43
0.0000000001
 40
0.0
 40
0.0
 40
0.0
 40
0.0
 40
0.1666666666666667
 40
0.1666666666666667
 40
0.1666666666666667
 40
0.1666666666666667
 40
0.3333333333333333
 40
0.3333333333333333
 40
0.3333333333333333
 40
0.3333333333333333
 40
0.5
 40
0.5
 40
0.5
 40
0.5
 40
0.6666666666666666
 40
0.6666666666666666
 40
0.6666666666666666
 40
0.6666666666666666
 40
0.8333333333333333
 40
0.8333333333333333
 40
0.8333333333333333
 40
0.8333333333333333
 40
1.0
 40
1.0
 40
1.0
 40
1.0
 10
-0.7437874015748032
 20
-0.7090944881889764
 30
0.0
 10
-0.7437874015748032
 20
-0.7090944881889764
 30
0.0
 10
-0.0998818897637795
 20
-0.3371496062992126
 30
0.0
 10
-0.0998818897637795
 20
-0.3371496062992126
 30
0.0
 10
-0.0998818897637795
 20
-0.3371496062992126
 30
0.0
 10
-0.0998818897637795
 20
-0.3371496062992126
 30
0.0
 10
-0.1225944881889764
 20
-0.3282007874015748
 30
0.0
 10
-0.1225944881889764
 20
-0.3282007874015748
 30
0.0
 10
-0.1225944881889764
 20
-0.3282007874015748
 30
0.0
 10
-0.1225944881889764
 20
-0.3282007874015748
 30
0.0
 10
-0.144736220472441
 20
-0.3181811023622048
 30
0.0
 10
-0.144736220472441
 20
-0.3181811023622048
 30
0.0
 10
-0.144736220472441
 20
-0.3181811023622048
 30
0.0
 10
-0.144736220472441
 20
-0.3181811023622048
 30
0.0
 10
-0.7886417322834646
 20
-0.6901259842519686
 30
0.0
 10
-0.7886417322834646
 20
-0.6901259842519686
 30
0.0
 10
-0.7886417322834646
 20
-0.6901259842519686
 30
0.0
 10
-0.7886417322834646
 20
-0.6901259842519686
 30
0.0
 10
-0.7665000000000001
 20
-0.7001456692913386
 30
0.0
 10
-0.7665000000000001
 20
-0.7001456692913386
 30
0.0
 10
-0.7665000000000001
 20
-0.7001456692913386
 30
0.0
 10
-0.7665000000000001
 20
-0.7001456692913386
 30
0.0
 10
-0.7437874015748032
 20
-0.7090944881889764
 30
0.0
 10
-0.7437874015748032
 20
-0.7090944881889764
 30
0.0
  0
SPLINE
  5
B7
100
AcDbEntity
  8
Additional Graphics
 62
   253
100
AcDbSpline
210
0.0
220
0.0
230
1.0
 70
     1
 71
     3
 72
    28
 73
    24
 74
     0
 42
0.0000000001
 43
0.0000000001
 40
0.0
 40
0.0
 40
0.0
 40
0.0
 40
0.1666666666666667
 40
0.1666666666666667
 40
0.1666666666666667
 40
0.1666666666666667
 40
0.3333333333333333
 40
0.3333333333333333
 40
0.3333333333333333
 40
0.3333333333333333
 40
0.5
 40
0.5
 40
0.5
 40
0.5
 40
0.6666666666666666
 40
0.6666666666666666
 40
0.6666666666666666
 40
0.6666666666666666
 40
0.8333333333333333
 40
0.8333333333333333
 40
0.8333333333333333
 40
0.8333333333333333
 40
1.0
 40
1.0
 40
1.0
 40
1.0
 10
-0.7886417322834646
 20
-0.6901259842519686
 30
0.0
 10
-0.7886417322834646
 20
-0.6901259842519686
 30
0.0
 10
-0.144736220472441
 20
-0.3181811023622048
 30
0.0
 10
-0.144736220472441
 20
-0.3181811023622048
 30
0.0
 10
-0.144736220472441
 20
-0.3181811023622048
 30
0.0
 10
-0.144736220472441
 20
-0.3181811023622048
 30
0.0
 10
-0.1662992125984252
 20
-0.3071377952755905
 30
0.0
 10
-0.1662992125984252
 20
-0.3071377952755905
 30
0.0
 10
-0.1662992125984252
 20
-0.3071377952755905
 30
0.0
 10
-0.1662992125984252
 20
-0.3071377952755905
 30
0.0
 10
-0.187236220472441
 20
-0.2950944881889764
 30
0.0
 10
-0.187236220472441
 20
-0.2950944881889764
 30
0.0
 10
-0.187236220472441
 20
-0.2950944881889764
 30
0.0
 10
-0.187236220472441
 20
-0.2950944881889764
 30
0.0
 10
-0.8311417322834646
 20
-0.6670393700787402
 30
0.0
 10
-0.8311417322834646
 20
-0.6670393700787402
 30
0.0
 10
-0.8311417322834646
 20
-0.6670393700787402
 30
0.0
 10
-0.8311417322834646
 20
-0.6670393700787402
 30
0.0
 10
-0.8102047244094488
 20
-0.6790826771653543
 30
0.0
 10
-0.8102047244094488
 20
-0.6790826771653543
 30
0.0
 10
-0.8102047244094488
 20
-0.6790826771653543
 30
0.0
 10
-0.8102047244094488
 20
-0.6790826771653543
 30
0.0
 10
-0.7886417322834646
 20
-0.6901259842519686
 30
0.0
 10
-0.7886417322834646
 20
-0.6901259842519686
 30
0.0
  0
SPLINE
  5
B8
100
AcDbEntity
  8
Additional Graphics
 62
     9
100
AcDbSpline
210
0.0
220
0.0
230
1.0
 70
     1
 71
     3
 72
    28
 73
    24
 74
     0
 42
0.0000000001
 43
0.0000000001
 40
0.0
 40
0.0
 40
0.0
 40
0.0
 40
0.1666666666666667
 40
0.1666666666666667
 40
0.1666666666666667
 40
0.1666666666666667
 40
0.3333333333333333
 40
0.3333333333333333
 40
0.3333333333333333
 40
0.3333333333333333
 40
0.5
 40
0.5
 40
0.5
 40
0.5
 40
0.6666666666666666
 40
0.6666666666666666
 40
0.6666666666666666
 40
0.6666666666666666
 40
0.8333333333333333
 40
0.8333333333333333
 40
0.8333333333333333
 40
0.8333333333333333
 40
1.0
 40
1.0
 40
1.0
 40
1.0
 10
-0.8311417322834646
 20
-0.6670393700787402
 30
0.0
 10
-0.8311417322834646
 20
-0.6670393700787402
 30
0.0
 10
-0.187236220472441
 20
-0.2950944881889764
 30
0.0
 10
-0.187236220472441
 20
-0.2950944881889764
 30
0.0
 10
-0.187236220472441
 20
-0.2950944881889764
 30
0.0
 10
-0.187236220472441
 20
-0.2950944881889764
 30
0.0
 10
-0.2075275590551181
 20
-0.2820944881889764
 30
0.0
 10
-0.2075275590551181
 20
-0.2820944881889764
 30
0.0
 10
-0.2075275590551181
 20
-0.2820944881889764
 30
0.0
 10
-0.2075275590551181
 20
-0.2820944881889764
 30
0.0
 10
-0.2271299212598425
 20
-0.2681535433070866
 30
0.0
 10
-0.2271299212598425
 20
-0.2681535433070866
 30
0.0
 10
-0.2271299212598425
 20
-0.2681535433070866
 30
0.0
 10
-0.2271299212598425
 20
-0.2681535433070866
 30
0.0
 10
-0.8710354330708662
 20
-0.6400984251968505
 30
0.0
 10
-0.8710354330708662
 20
-0.6400984251968505
 30
0.0
 10
-0.8710354330708662
 20
-0.6400984251968505
 30
0.0
 10
-0.8710354330708662
 20
-0.6400984251968505
 30
0.0
 10
-0.8514330708661417
 20
-0.6540393700787401
 30
0.0
 10
-0.8514330708661417
 20
-0.6540393700787401
 30
0.0
 10
-0.8514330708661417
 20
-0.6540393700787401
 30
0.0
 10
-0.8514330708661417
 20
-0.6540393700787401
 30
0.0
 10
-0.8311417322834646
 20
-0.6670393700787402
 30
0.0
 10
-0.8311417322834646
 20
-0.6670393700787402
 30
0.0
  0
SPLINE
  5
B9
100
AcDbEntity
  8
Additional Graphics
 62
     9
100
AcDbSpline
210
0.0
220
0.0
230
1.0
 70
     1
 71
     3
 72
    28
 73
    24
 74
     0
 42
0.0000000001
 43
0.0000000001
 40
0.0
 40
0.0
 40
0.0
 40
0.0
 40
0.1666666666666667
 40
0.1666666666666667
 40
0.1666666666666667
 40
0.1666666666666667
 40
0.3333333333333333
 40
0.3333333333333333
 40
0.3333333333333333
 40
0.3333333333333333
 40
0.5
 40
0.5
 40
0.5
 40
0.5
 40
0.6666666666666666
 40
0.6666666666666666
 40
0.6666666666666666
 40
0.6666666666666666
 40
0.8333333333333333
 40
0.8333333333333333
 40
0.8333333333333333
 40
0.8333333333333333
 40
1.0
 40
1.0
 40
1.0
 40
1.0
 10
-0.8710354330708662
 20
-0.6400984251968505
 30
0.0
 10
-0.8710354330708662
 20
-0.6400984251968505
 30
0.0
 10
-0.2271299212598425
 20
-0.2681535433070866
 30
0.0
 10
-0.2271299212598425
 20
-0.2681535433070866
 30
0.0
 10
-0.2271299212598425
 20
-0.2681535433070866
 30
0.0
 10
-0.2271299212598425
 20
-0.2681535433070866
 30
0.0
 10
-0.2460196850393701
 20
-0.2533110236220473
 30
0.0
 10
-0.2460196850393701
 20
-0.2533110236220473
 30
0.0
 10
-0.2460196850393701
 20
-0.2533110236220473
 30
0.0
 10
-0.2460196850393701
 20
-0.2533110236220473
 30
0.0
 10
-0.2641614173228347
 20
-0.2375944881889764
 30
0.0
 10
-0.2641614173228347
 20
-0.2375944881889764
 30
0.0
 10
-0.2641614173228347
 20
-0.2375944881889764
 30
0.0
 10
-0.2641614173228347
 20
-0.2375944881889764
 30
0.0
 10
-0.9080669291338583
 20
-0.6095393700787402
 30
0.0
 10
-0.9080669291338583
 20
-0.6095393700787402
 30
0.0
 10
-0.9080669291338583
 20
-0.6095393700787402
 30
0.0
 10
-0.9080669291338583
 20
-0.6095393700787402
 30
0.0
 10
-0.8899251968503937
 20
-0.6252559055118111
 30
0.0
 10
-0.8899251968503937
 20
-0.6252559055118111
 30
0.0
 10
-0.8899251968503937
 20
-0.6252559055118111
 30
0.0
 10
-0.8899251968503937
 20
-0.6252559055118111
 30
0.0
 10
-0.8710354330708662
 20
-0.6400984251968505
 30
0.0
 10
-0.8710354330708662
 20
-0.6400984251968505
 30
0.0
  0
SPLINE
  5
BA
100
AcDbEntity
  8
Additional Graphics
 62
     9
100
AcDbSpline
210
0.0
220
0.0
230
1.0
 70
     1
 71
     3
 72
    28
 73
    24
 74
     0
 42
0.0000000001
 43
0.0000000001
 40
0.0
 40
0.0
 40
0.0
 40
0.0
 40
0.1666666666666667
 40
0.1666666666666667
 40
0.1666666666666667
 40
0.1666666666666667
 40
0.3333333333333333
 40
0.3333333333333333
 40
0.3333333333333333
 40
0.3333333333333333
 40
0.5
 40
0.5
 40
0.5
 40
0.5
 40
0.6666666666666666
 40
0.6666666666666666
 40
0.6666666666666666
 40
0.6666666666666666
 40
0.8333333333333333
 40
0.8333333333333333
 40
0.8333333333333333
 40
0.8333333333333333
 40
1.0
 40
1.0
 40
1.0
 40
1.0
 10
-0.9080669291338583
 20
-0.6095393700787402
 30
0.0
 10
-0.9080669291338583
 20
-0.6095393700787402
 30
0.0
 10
-0.2641614173228347
 20
-0.2375944881889764
 30
0.0
 10
-0.2641614173228347
 20
-0.2375944881889764
 30
0.0
 10
-0.2641614173228347
 20
-0.2375944881889764
 30
0.0
 10
-0.2641614173228347
 20
-0.2375944881889764
 30
0.0
 10
-0.2815314960629922
 20
-0.2210393700787402
 30
0.0
 10
-0.2815314960629922
 20
-0.2210393700787402
 30
0.0
 10
-0.2815314960629922
 20
-0.2210393700787402
 30
0.0
 10
-0.2815314960629922
 20
-0.2210393700787402
 30
0.0
 10
-0.2980866141732284
 20
-0.2036692913385827
 30
0.0
 10
-0.2980866141732284
 20
-0.2036692913385827
 30
0.0
 10
-0.2980866141732284
 20
-0.2036692913385827
 30
0.0
 10
-0.2980866141732284
 20
-0.2036692913385827
 30
0.0
 10
-0.941992125984252
 20
-0.5756141732283465
 30
0.0
 10
-0.941992125984252
 20
-0.5756141732283465
 30
0.0
 10
-0.941992125984252
 20
-0.5756141732283465
 30
0.0
 10
-0.941992125984252
 20
-0.5756141732283465
 30
0.0
 10
-0.9254370078740158
 20
-0.5929842519685039
 30
0.0
 10
-0.9254370078740158
 20
-0.5929842519685039
 30
0.0
 10
-0.9254370078740158
 20
-0.5929842519685039
 30
0.0
 10
-0.9254370078740158
 20
-0.5929842519685039
 30
0.0
 10
-0.9080669291338583
 20
-0.6095393700787402
 30
0.0
 10
-0.9080669291338583
 20
-0.6095393700787402
 30
0.0
  0
SPLINE
  5
BB
100
AcDbEntity
  8
Additional Graphics
 62
     9
100
AcDbSpline
210
0.0
220
0.0
230
1.0
 70
     1
 71
     3
 72
    28
 73
    24
 74
     0
 42
0.0000000001
 43
0.0000000001
 40
0.0
 40
0.0
 40
0.0
 40
0.0
 40
0.1666666666666667
 40
0.1666666666666667
 40
0.1666666666666667
 40
0.1666666666666667
 40
0.3333333333333333
 40
0.3333333333333333
 40
0.3333333333333333
 40
0.3333333333333333
 40
0.5
 40
0.5
 40
0.5
 40
0.5
 40
0.6666666666666666
 40
0.6666666666666666
 40
0.6666666666666666
 40
0.6666666666666666
 40
0.8333333333333333
 40
0.8333333333333333
 40
0.8333333333333333
 40
0.8333333333333333
 40
1.0
 40
1.0
 40
1.0
 40
1.0
 10
-0.941992125984252
 20
-0.5756141732283465
 30
0.0
 10
-0.941992125984252
 20
-0.5756141732283465
 30
0.0
 10
-0.2980866141732284
 20
-0.2036692913385827
 30
0.0
 10
-0.2980866141732284
 20
-0.2036692913385827
 30
0.0
 10
-0.2980866141732284
 20
-0.2036692913385827
 30
0.0
 10
-0.2980866141732284
 20
-0.2036692913385827
 30
0.0
 10
-0.3138031496062992
 20
-0.1855275590551181
 30
0.0
 10
-0.3138031496062992
 20
-0.1855275590551181
 30
0.0
 10
-0.3138031496062992
 20
-0.1855275590551181
 30
0.0
 10
-0.3138031496062992
 20
-0.1855275590551181
 30
0.0
 10
-0.3286456692913386
 20
-0.1666377952755906
 30
0.0
 10
-0.3286456692913386
 20
-0.1666377952755906
 30
0.0
 10
-0.3286456692913386
 20
-0.1666377952755906
 30
0.0
 10
-0.3286456692913386
 20
-0.1666377952755906
 30
0.0
 10
-0.9725511811023623
 20
-0.5385826771653544
 30
0.0
 10
-0.9725511811023623
 20
-0.5385826771653544
 30
0.0
 10
-0.9725511811023623
 20
-0.5385826771653544
 30
0.0
 10
-0.9725511811023623
 20
-0.5385826771653544
 30
0.0
 10
-0.9577086614173229
 20
-0.5574724409448819
 30
0.0
 10
-0.9577086614173229
 20
-0.5574724409448819
 30
0.0
 10
-0.9577086614173229
 20
-0.5574724409448819
 30
0.0
 10
-0.9577086614173229
 20
-0.5574724409448819
 30
0.0
 10
-0.941992125984252
 20
-0.5756141732283465
 30
0.0
 10
-0.941992125984252
 20
-0.5756141732283465
 30
0.0
  0
SPLINE
  5
BC
100
AcDbEntity
  8
Additional Graphics
 62
     9
100
AcDbSpline
210
0.0
220
0.0
230
1.0
 70
     1
 71
     3
 72
    28
 73
    24
 74
     0
 42
0.0000000001
 43
0.0000000001
 40
0.0
 40
0.0
 40
0.0
 40
0.0
 40
0.1666666666666667
 40
0.1666666666666667
 40
0.1666666666666667
 40
0.1666666666666667
 40
0.3333333333333333
 40
0.3333333333333333
 40
0.3333333333333333
 40
0.3333333333333333
 40
0.5
 40
0.5
 40
0.5
 40
0.5
 40
0.6666666666666666
 40
0.6666666666666666
 40
0.6666666666666666
 40
0.6666666666666666
 40
0.8333333333333333
 40
0.8333333333333333
 40
0.8333333333333333
 40
0.8333333333333333
 40
1.0
 40
1.0
 40
1.0
 40
1.0
 10
-0.9725511811023623
 20
-0.5385826771653544
 30
0.0
 10
-0.9725511811023623
 20
-0.5385826771653544
 30
0.0
 10
-0.3286456692913386
 20
-0.1666377952755906
 30
0.0
 10
-0.3286456692913386
 20
-0.1666377952755906
 30
0.0
 10
-0.3286456692913386
 20
-0.1666377952755906
 30
0.0
 10
-0.3286456692913386
 20
-0.1666377952755906
 30
0.0
 10
-0.3425866141732283
 20
-0.1470354330708661
 30
0.0
 10
-0.3425866141732283
 20
-0.1470354330708661
 30
0.0
 10
-0.3425866141732283
 20
-0.1470354330708661
 30
0.0
 10
-0.3425866141732283
 20
-0.1470354330708661
 30
0.0
 10
-0.3555866141732283
 20
-0.126744094488189
 30
0.0
 10
-0.3555866141732283
 20
-0.126744094488189
 30
0.0
 10
-0.3555866141732283
 20
-0.126744094488189
 30
0.0
 10
-0.3555866141732283
 20
-0.126744094488189
 30
0.0
 10
-0.999492125984252
 20
-0.4986889763779528
 30
0.0
 10
-0.999492125984252
 20
-0.4986889763779528
 30
0.0
 10
-0.999492125984252
 20
-0.4986889763779528
 30
0.0
 10
-0.999492125984252
 20
-0.4986889763779528
 30
0.0
 10
-0.986492125984252
 20
-0.5189803149606299
 30
0.0
 10
-0.986492125984252
 20
-0.5189803149606299
 30
0.0
 10
-0.986492125984252
 20
-0.5189803149606299
 30
0.0
 10
-0.986492125984252
 20
-0.5189803149606299
 30
0.0
 10
-0.9725511811023623
 20
-0.5385826771653544
 30
0.0
 10
-0.9725511811023623
 20
-0.5385826771653544
 30
0.0
  0
SPLINE
  5
BD
100
AcDbEntity
  8
Additional Graphics
 62
     9
100
AcDbSpline
210
0.0
220
0.0
230
1.0
 70
     1
 71
     3
 72
    28
 73
    24
 74
     0
 42
0.0000000001
 43
0.0000000001
 40
0.0
 40
0.0
 40
0.0
 40
0.0
 40
0.1666666666666667
 40
0.1666666666666667
 40
0.1666666666666667
 40
0.1666666666666667
 40
0.3333333333333333
 40
0.3333333333333333
 40
0.3333333333333333
 40
0.3333333333333333
 40
0.5
 40
0.5
 40
0.5
 40
0.5
 40
0.6666666666666666
 40
0.6666666666666666
 40
0.6666666666666666
 40
0.6666666666666666
 40
0.8333333333333333
 40
0.8333333333333333
 40
0.8333333333333333
 40
0.8333333333333333
 40
1.0
 40
1.0
 40
1.0
 40
1.0
 10
-0.999492125984252
 20
-0.4986889763779528
 30
0.0
 10
-0.999492125984252
 20
-0.4986889763779528
 30
0.0
 10
-0.3555866141732283
 20
-0.126744094488189
 30
0.0
 10
-0.3555866141732283
 20
-0.126744094488189
 30
0.0
 10
-0.3555866141732283
 20
-0.126744094488189
 30
0.0
 10
-0.3555866141732283
 20
-0.126744094488189
 30
0.0
 10
-0.3676299212598425
 20
-0.1058070866141732
 30
0.0
 10
-0.3676299212598425
 20
-0.1058070866141732
 30
0.0
 10
-0.3676299212598425
 20
-0.1058070866141732
 30
0.0
 10
-0.3676299212598425
 20
-0.1058070866141732
 30
0.0
 10
-0.3786732283464567
 20
-0.084244094488189
 30
0.0
 10
-0.3786732283464567
 20
-0.084244094488189
 30
0.0
 10
-0.3786732283464567
 20
-0.084244094488189
 30
0.0
 10
-0.3786732283464567
 20
-0.084244094488189
 30
0.0
 10
-1.0225787401574804
 20
-0.4561889763779528
 30
0.0
 10
-1.0225787401574804
 20
-0.4561889763779528
 30
0.0
 10
-1.0225787401574804
 20
-0.4561889763779528
 30
0.0
 10
-1.0225787401574804
 20
-0.4561889763779528
 30
0.0
 10
-1.0115354330708661
 20
-0.477751968503937
 30
0.0
 10
-1.0115354330708661
 20
-0.477751968503937
 30
0.0
 10
-1.0115354330708661
 20
-0.477751968503937
 30
0.0
 10
-1.0115354330708661
 20
-0.477751968503937
 30
0.0
 10
-0.999492125984252
 20
-0.4986889763779528
 30
0.0
 10
-0.999492125984252
 20
-0.4986889763779528
 30
0.0
  0
SPLINE
  5
BE
100
AcDbEntity
  8
Additional Graphics
 62
     9
100
AcDbSpline
210
0.0
220
0.0
230
1.0
 70
     1
 71
     3
 72
    28
 73
    24
 74
     0
 42
0.0000000001
 43
0.0000000001
 40
0.0
 40
0.0
 40
0.0
 40
0.0
 40
0.1666666666666667
 40
0.1666666666666667
 40
0.1666666666666667
 40
0.1666666666666667
 40
0.3333333333333333
 40
0.3333333333333333
 40
0.3333333333333333
 40
0.3333333333333333
 40
0.5
 40
0.5
 40
0.5
 40
0.5
 40
0.6666666666666666
 40
0.6666666666666666
 40
0.6666666666666666
 40
0.6666666666666666
 40
0.8333333333333333
 40
0.8333333333333333
 40
0.8333333333333333
 40
0.8333333333333333
 40
1.0
 40
1.0
 40
1.0
 40
1.0
 10
-1.0225787401574804
 20
-0.4561889763779528
 30
0.0
 10
-1.0225787401574804
 20
-0.4561889763779528
 30
0.0
 10
-0.3786732283464567
 20
-0.084244094488189
 30
0.0
 10
-0.3786732283464567
 20
-0.084244094488189
 30
0.0
 10
-0.3786732283464567
 20
-0.084244094488189
 30
0.0
 10
-0.3786732283464567
 20
-0.084244094488189
 30
0.0
 10
-0.3886929133858268
 20
-0.0621023622047244
 30
0.0
 10
-0.3886929133858268
 20
-0.0621023622047244
 30
0.0
 10
-0.3886929133858268
 20
-0.0621023622047244
 30
0.0
 10
-0.3886929133858268
 20
-0.0621023622047244
 30
0.0
 10
-0.3976417322834646
 20
-0.0393897637795276
 30
0.0
 10
-0.3976417322834646
 20
-0.0393897637795276
 30
0.0
 10
-0.3976417322834646
 20
-0.0393897637795276
 30
0.0
 10
-0.3976417322834646
 20
-0.0393897637795276
 30
0.0
 10
-1.0415472440944882
 20
-0.4113346456692913
 30
0.0
 10
-1.0415472440944882
 20
-0.4113346456692913
 30
0.0
 10
-1.0415472440944882
 20
-0.4113346456692913
 30
0.0
 10
-1.0415472440944882
 20
-0.4113346456692913
 30
0.0
 10
-1.0325984251968505
 20
-0.4340472440944882
 30
0.0
 10
-1.0325984251968505
 20
-0.4340472440944882
 30
0.0
 10
-1.0325984251968505
 20
-0.4340472440944882
 30
0.0
 10
-1.0325984251968505
 20
-0.4340472440944882
 30
0.0
 10
-1.0225787401574804
 20
-0.4561889763779528
 30
0.0
 10
-1.0225787401574804
 20
-0.4561889763779528
 30
0.0
  0
SPLINE
  5
BF
100
AcDbEntity
  8
Additional Graphics
 62
     9
100
AcDbSpline
210
0.0
220
0.0
230
1.0
 70
     1
 71
     3
 72
    28
 73
    24
 74
     0
 42
0.0000000001
 43
0.0000000001
 40
0.0
 40
0.0
 40
0.0
 40
0.0
 40
0.1666666666666667
 40
0.1666666666666667
 40
0.1666666666666667
 40
0.1666666666666667
 40
0.3333333333333333
 40
0.3333333333333333
 40
0.3333333333333333
 40
0.3333333333333333
 40
0.5
 40
0.5
 40
0.5
 40
0.5
 40
0.6666666666666666
 40
0.6666666666666666
 40
0.6666666666666666
 40
0.6666666666666666
 40
0.8333333333333333
 40
0.8333333333333333
 40
0.8333333333333333
 40
0.8333333333333333
 40
1.0
 40
1.0
 40
1.0
 40
1.0
 10
-1.0415472440944882
 20
-0.4113346456692913
 30
0.0
 10
-1.0415472440944882
 20
-0.4113346456692913
 30
0.0
 10
-0.3976417322834646
 20
-0.0393897637795276
 30
0.0
 10
-0.3976417322834646
 20
-0.0393897637795276
 30
0.0
 10
-0.3976417322834646
 20
-0.0393897637795276
 30
0.0
 10
-0.3976417322834646
 20
-0.0393897637795276
 30
0.0
 10
-0.4055078740157481
 20
-0.0161614173228346
 30
0.0
 10
-0.4055078740157481
 20
-0.0161614173228346
 30
0.0
 10
-0.4055078740157481
 20
-0.0161614173228346
 30
0.0
 10
-0.4055078740157481
 20
-0.0161614173228346
 30
0.0
 10
-0.412244094488189
 20
0.0075629921259843
 30
0.0
 10
-0.412244094488189
 20
0.0075629921259843
 30
0.0
 10
-0.412244094488189
 20
0.0075629921259843
 30
0.0
 10
-0.412244094488189
 20
0.0075629921259843
 30
0.0
 10
-1.0561496062992126
 20
-0.3643818897637796
 30
0.0
 10
-1.0561496062992126
 20
-0.3643818897637796
 30
0.0
 10
-1.0561496062992126
 20
-0.3643818897637796
 30
0.0
 10
-1.0561496062992126
 20
-0.3643818897637796
 30
0.0
 10
-1.0494133858267718
 20
-0.3881062992125984
 30
0.0
 10
-1.0494133858267718
 20
-0.3881062992125984
 30
0.0
 10
-1.0494133858267718
 20
-0.3881062992125984
 30
0.0
 10
-1.0494133858267718
 20
-0.3881062992125984
 30
0.0
 10
-1.0415472440944882
 20
-0.4113346456692913
 30
0.0
 10
-1.0415472440944882
 20
-0.4113346456692913
 30
0.0
  0
SPLINE
  5
C0
100
AcDbEntity
  8
Additional Graphics
 62
     9
100
AcDbSpline
210
0.0
220
0.0
230
1.0
 70
     1
 71
     3
 72
    28
 73
    24
 74
     0
 42
0.0000000001
 43
0.0000000001
 40
0.0
 40
0.0
 40
0.0
 40
0.0
 40
0.1666666666666667
 40
0.1666666666666667
 40
0.1666666666666667
 40
0.1666666666666667
 40
0.3333333333333333
 40
0.3333333333333333
 40
0.3333333333333333
 40
0.3333333333333333
 40
0.5
 40
0.5
 40
0.5
 40
0.5
 40
0.6666666666666666
 40
0.6666666666666666
 40
0.6666666666666666
 40
0.6666666666666666
 40
0.8333333333333333
 40
0.8333333333333333
 40
0.8333333333333333
 40
0.8333333333333333
 40
1.0
 40
1.0
 40
1.0
 40
1.0
 10
-1.0561496062992126
 20
-0.3643818897637796
 30
0.0
 10
-1.0561496062992126
 20
-0.3643818897637796
 30
0.0
 10
-0.412244094488189
 20
0.0075629921259843
 30
0.0
 10
-0.412244094488189
 20
0.0075629921259843
 30
0.0
 10
-0.412244094488189
 20
0.0075629921259843
 30
0.0
 10
-0.412244094488189
 20
0.0075629921259843
 30
0.0
 10
-0.4178307086614174
 20
0.031748031496063
 30
0.0
 10
-0.4178307086614174
 20
0.031748031496063
 30
0.0
 10
-0.4178307086614174
 20
0.031748031496063
 30
0.0
 10
-0.4178307086614174
 20
0.031748031496063
 30
0.0
 10
-0.4222244094488189
 20
0.0563700787401575
 30
0.0
 10
-0.4222244094488189
 20
0.0563700787401575
 30
0.0
 10
-0.4222244094488189
 20
0.0563700787401575
 30
0.0
 10
-0.4222244094488189
 20
0.0563700787401575
 30
0.0
 10
-1.0661299212598425
 20
-0.3155748031496063
 30
0.0
 10
-1.0661299212598425
 20
-0.3155748031496063
 30
0.0
 10
-1.0661299212598425
 20
-0.3155748031496063
 30
0.0
 10
-1.0661299212598425
 20
-0.3155748031496063
 30
0.0
 10
-1.061736220472441
 20
-0.3401968503937008
 30
0.0
 10
-1.061736220472441
 20
-0.3401968503937008
 30
0.0
 10
-1.061736220472441
 20
-0.3401968503937008
 30
0.0
 10
-1.061736220472441
 20
-0.3401968503937008
 30
0.0
 10
-1.0561496062992126
 20
-0.3643818897637796
 30
0.0
 10
-1.0561496062992126
 20
-0.3643818897637796
 30
0.0
  0
SPLINE
  5
C1
100
AcDbEntity
  8
Additional Graphics
 62
     9
100
AcDbSpline
210
0.0
220
0.0
230
1.0
 70
     1
 71
     3
 72
    20
 73
    16
 74
     0
 42
0.0000000001
 43
0.0000000001
 40
0.0
 40
0.0
 40
0.0
 40
0.0
 40
0.25
 40
0.25
 40
0.25
 40
0.25
 40
0.5
 40
0.5
 40
0.5
 40
0.5
 40
0.75
 40
0.75
 40
0.75
 40
0.75
 40
1.0
 40
1.0
 40
1.0
 40
1.0
 10
-1.0661299212598425
 20
-0.3155748031496063
 30
0.0
 10
-1.0661299212598425
 20
-0.3155748031496063
 30
0.0
 10
-0.4222244094488189
 20
0.0563700787401575
 30
0.0
 10
-0.4222244094488189
 20
0.0563700787401575
 30
0.0
 10
-0.4222244094488189
 20
0.0563700787401575
 30
0.0
 10
-0.4222244094488189
 20
0.0563700787401575
 30
0.0
 10
-0.4254094488188976
 20
0.0813858267716535
 30
0.0
 10
-0.4254094488188976
 20
0.0813858267716535
 30
0.0
 10
-0.4254094488188976
 20
0.0813858267716535
 30
0.0
 10
-0.4254094488188976
 20
0.0813858267716535
 30
0.0
 10
-1.0693149606299213
 20
-0.2905590551181103
 30
0.0
 10
-1.0693149606299213
 20
-0.2905590551181103
 30
0.0
 10
-1.0693149606299213
 20
-0.2905590551181103
 30
0.0
 10
-1.0693149606299213
 20
-0.2905590551181103
 30
0.0
 10
-1.0661299212598425
 20
-0.3155748031496063
 30
0.0
 10
-1.0661299212598425
 20
-0.3155748031496063
 30
0.0
  0
SPLINE
  5
C2
100
AcDbEntity
  8
Additional Graphics
 62
     9
100
AcDbSpline
210
0.0
220
0.0
230
1.0
 70
     1
 71
     3
 72
    20
 73
    16
 74
     0
 42
0.0000000001
 43
0.0000000001
 40
0.0
 40
0.0
 40
0.0
 40
0.0
 40
0.25
 40
0.25
 40
0.25
 40
0.25
 40
0.5
 40
0.5
 40
0.5
 40
0.5
 40
0.75
 40
0.75
 40
0.75
 40
0.75
 40
1.0
 40
1.0
 40
1.0
 40
1.0
 10
-1.0693149606299213
 20
-0.2905590551181103
 30
0.0
 10
-1.0693149606299213
 20
-0.2905590551181103
 30
0.0
 10
-0.4254094488188976
 20
0.0813858267716535
 30
0.0
 10
-0.4254094488188976
 20
0.0813858267716535
 30
0.0
 10
-0.4254094488188976
 20
0.0813858267716535
 30
0.0
 10
-0.4254094488188976
 20
0.0813858267716535
 30
0.0
 10
-0.4273425196850394
 20
0.1067755905511811
 30
0.0
 10
-0.4273425196850394
 20
0.1067755905511811
 30
0.0
 10
-0.4273425196850394
 20
0.1067755905511811
 30
0.0
 10
-0.4273425196850394
 20
0.1067755905511811
 30
0.0
 10
-1.0712480314960631
 20
-0.2651692913385827
 30
0.0
 10
-1.0712480314960631
 20
-0.2651692913385827
 30
0.0
 10
-1.0712480314960631
 20
-0.2651692913385827
 30
0.0
 10
-1.0712480314960631
 20
-0.2651692913385827
 30
0.0
 10
-1.0693149606299213
 20
-0.2905590551181103
 30
0.0
 10
-1.0693149606299213
 20
-0.2905590551181103
 30
0.0
  0
SPLINE
  5
C3
100
AcDbEntity
  8
Additional Graphics
 62
     9
100
AcDbSpline
210
0.0
220
0.0
230
1.0
 70
     1
 71
     3
 72
    20
 73
    16
 74
     0
 42
0.0000000001
 43
0.0000000001
 40
0.0
 40
0.0
 40
0.0
 40
0.0
 40
0.25
 40
0.25
 40
0.25
 40
0.25
 40
0.5
 40
0.5
 40
0.5
 40
0.5
 40
0.75
 40
0.75
 40
0.75
 40
0.75
 40
1.0
 40
1.0
 40
1.0
 40
1.0
 10
-1.0712480314960631
 20
-0.2651692913385827
 30
0.0
 10
-1.0712480314960631
 20
-0.2651692913385827
 30
0.0
 10
-0.4273425196850394
 20
0.1067755905511811
 30
0.0
 10
-0.4273425196850394
 20
0.1067755905511811
 30
0.0
 10
-0.4273425196850394
 20
0.1067755905511811
 30
0.0
 10
-0.4273425196850394
 20
0.1067755905511811
 30
0.0
 10
-0.427996062992126
 20
0.132496062992126
 30
0.0
 10
-0.427996062992126
 20
0.132496062992126
 30
0.0
 10
-0.427996062992126
 20
0.132496062992126
 30
0.0
 10
-0.427996062992126
 20
0.132496062992126
 30
0.0
 10
-1.0719015748031497
 20
-0.2394488188976378
 30
0.0
 10
-1.0719015748031497
 20
-0.2394488188976378
 30
0.0
 10
-1.0719015748031497
 20
-0.2394488188976378
 30
0.0
 10
-1.0719015748031497
 20
-0.2394488188976378
 30
0.0
 10
-1.0712480314960631
 20
-0.2651692913385827
 30
0.0
 10
-1.0712480314960631
 20
-0.2651692913385827
 30
0.0
  0
SPLINE
  5
C4
100
AcDbEntity
  8
Additional Graphics
370
     5
100
AcDbSpline
210
0.0
220
0.0
230
1.0
 70
     1
 71
     3
 72
   268
 73
   264
 74
     0
 42
0.0000000001
 43
0.0000000001
 40
0.0
 40
0.0
 40
0.0
 40
0.0
 40
0.0151515151515152
 40
0.0151515151515152
 40
0.0151515151515152
 40
0.0151515151515152
 40
0.0303030303030303
 40
0.0303030303030303
 40
0.0303030303030303
 40
0.0303030303030303
 40
0.0454545454545455
 40
0.0454545454545455
 40
0.0454545454545455
 40
0.0454545454545455
 40
0.0606060606060606
 40
0.0606060606060606
 40
0.0606060606060606
 40
0.0606060606060606
 40
0.0757575757575758
 40
0.0757575757575758
 40
0.0757575757575758
 40
0.0757575757575758
 40
0.0909090909090909
 40
0.0909090909090909
 40
0.0909090909090909
 40
0.0909090909090909
 40
0.1060606060606061
 40
0.1060606060606061
 40
0.1060606060606061
 40
0.1060606060606061
 40
0.1212121212121212
 40
0.1212121212121212
 40
0.1212121212121212
 40
0.1212121212121212
 40
0.1363636363636364
 40
0.1363636363636364
 40
0.1363636363636364
 40
0.1363636363636364
 40
0.1515151515151515
 40
0.1515151515151515
 40
0.1515151515151515
 40
0.1515151515151515
 40
0.1666666666666666
 40
0.1666666666666666
 40
0.1666666666666666
 40
0.1666666666666666
 40
0.1818181818181818
 40
0.1818181818181818
 40
0.1818181818181818
 40
0.1818181818181818
 40
0.1969696969696969
 40
0.1969696969696969
 40
0.1969696969696969
 40
0.1969696969696969
 40
0.212121212121212
 40
0.212121212121212
 40
0.212121212121212
 40
0.212121212121212
 40
0.2272727272727272
 40
0.2272727272727272
 40
0.2272727272727272
 40
0.2272727272727272
 40
0.2424242424242423
 40
0.2424242424242423
 40
0.2424242424242423
 40
0.2424242424242423
 40
0.2575757575757575
 40
0.2575757575757575
 40
0.2575757575757575
 40
0.2575757575757575
 40
0.2727272727272726
 40
0.2727272727272726
 40
0.2727272727272726
 40
0.2727272727272726
 40
0.2878787878787877
 40
0.2878787878787877
 40
0.2878787878787877
 40
0.2878787878787877
 40
0.3030303030303029
 40
0.3030303030303029
 40
0.3030303030303029
 40
0.3030303030303029
 40
0.318181818181818
 40
0.318181818181818
 40
0.318181818181818
 40
0.318181818181818
 40
0.3333333333333332
 40
0.3333333333333332
 40
0.3333333333333332
 40
0.3333333333333332
 40
0.3484848484848483
 40
0.3484848484848483
 40
0.3484848484848483
 40
0.3484848484848483
 40
0.3636363636363634
 40
0.3636363636363634
 40
0.3636363636363634
 40
0.3636363636363634
 40
0.3787878787878786
 40
0.3787878787878786
 40
0.3787878787878786
 40
0.3787878787878786
 40
0.3939393939393937
 40
0.3939393939393937
 40
0.3939393939393937
 40
0.3939393939393937
 40
0.4090909090909088
 40
0.4090909090909088
 40
0.4090909090909088
 40
0.4090909090909088
 40
0.424242424242424
 40
0.424242424242424
 40
0.424242424242424
 40
0.424242424242424
 40
0.4393939393939391
 40
0.4393939393939391
 40
0.4393939393939391
 40
0.4393939393939391
 40
0.4545454545454543
 40
0.4545454545454543
 40
0.4545454545454543
 40
0.4545454545454543
 40
0.4696969696969694
 40
0.4696969696969694
 40
0.4696969696969694
 40
0.4696969696969694
 40
0.4848484848484845
 40
0.4848484848484845
 40
0.4848484848484845
 40
0.4848484848484845
 40
0.4999999999999997
 40
0.4999999999999997
 40
0.4999999999999997
 40
0.4999999999999997
 40
0.5151515151515148
 40
0.5151515151515148
 40
0.5151515151515148
 40
0.5151515151515148
 40
0.5303030303030299
 40
0.5303030303030299
 40
0.5303030303030299
 40
0.5303030303030299
 40
0.5454545454545451
 40
0.5454545454545451
 40
0.5454545454545451
 40
0.5454545454545451
 40
0.5606060606060602
 40
0.5606060606060602
 40
0.5606060606060602
 40
0.5606060606060602
 40
0.5757575757575754
 40
0.5757575757575754
 40
0.5757575757575754
 40
0.5757575757575754
 40
0.5909090909090905
 40
0.5909090909090905
 40
0.5909090909090905
 40
0.5909090909090905
 40
0.6060606060606056
 40
0.6060606060606056
 40
0.6060606060606056
 40
0.6060606060606056
 40
0.6212121212121208
 40
0.6212121212121208
 40
0.6212121212121208
 40
0.6212121212121208
 40
0.6363636363636359
 40
0.6363636363636359
 40
0.6363636363636359
 40
0.6363636363636359
 40
0.6515151515151511
 40
0.6515151515151511
 40
0.6515151515151511
 40
0.6515151515151511
 40
0.6666666666666662
 40
0.6666666666666662
 40
0.6666666666666662
 40
0.6666666666666662
 40
0.6818181818181813
 40
0.6818181818181813
 40
0.6818181818181813
 40
0.6818181818181813
 40
0.6969696969696965
 40
0.6969696969696965
 40
0.6969696969696965
 40
0.6969696969696965
 40
0.7121212121212116
 40
0.7121212121212116
 40
0.7121212121212116
 40
0.7121212121212116
 40
0.7272727272727267
 40
0.7272727272727267
 40
0.7272727272727267
 40
0.7272727272727267
 40
0.7424242424242419
 40
0.7424242424242419
 40
0.7424242424242419
 40
0.7424242424242419
 40
0.757575757575757
 40
0.757575757575757
 40
0.757575757575757
 40
0.757575757575757
 40
0.7727272727272722
 40
0.7727272727272722
 40
0.7727272727272722
 40
0.7727272727272722
 40
0.7878787878787873
 40
0.7878787878787873
 40
0.7878787878787873
 40
0.7878787878787873
 40
0.8030303030303024
 40
0.8030303030303024
 40
0.8030303030303024
 40
0.8030303030303024
 40
0.8181818181818176
 40
0.8181818181818176
 40
0.8181818181818176
 40
0.8181818181818176
 40
0.8333333333333327
 40
0.8333333333333327
 40
0.8333333333333327
 40
0.8333333333333327
 40
0.8484848484848478
 40
0.8484848484848478
 40
0.8484848484848478
 40
0.8484848484848478
 40
0.863636363636363
 40
0.863636363636363
 40
0.863636363636363
 40
0.863636363636363
 40
0.8787878787878781
 40
0.8787878787878781
 40
0.8787878787878781
 40
0.8787878787878781
 40
0.8939393939393933
 40
0.8939393939393933
 40
0.8939393939393933
 40
0.8939393939393933
 40
0.9090909090909084
 40
0.9090909090909084
 40
0.9090909090909084
 40
0.9090909090909084
 40
0.9242424242424235
 40
0.9242424242424235
 40
0.9242424242424235
 40
0.9242424242424235
 40
0.9393939393939387
 40
0.9393939393939387
 40
0.9393939393939387
 40
0.9393939393939387
 40
0.9545454545454538
 40
0.9545454545454538
 40
0.9545454545454538
 40
0.9545454545454538
 40
0.969696969696969
 40
0.969696969696969
 40
0.969696969696969
 40
0.969696969696969
 40
0.9848484848484841
 40
0.9848484848484841
 40
0.9848484848484841
 40
0.9848484848484841
 40
1.0
 40
1.0
 40
1.0
 40
1.0
 10
-0.5719015748031496
 20
-0.7394488188976378
 30
0.0
 10
-0.5719015748031496
 20
-0.7394488188976378
 30
0.0
 10
0.072003937007874
 20
-0.367503937007874
 30
0.0
 10
0.072003937007874
 20
-0.367503937007874
 30
0.0
 10
0.072003937007874
 20
-0.367503937007874
 30
0.0
 10
0.072003937007874
 20
-0.367503937007874
 30
0.0
 10
0.0462834645669291
 20
-0.3668503937007874
 30
0.0
 10
0.0462834645669291
 20
-0.3668503937007874
 30
0.0
 10
0.0462834645669291
 20
-0.3668503937007874
 30
0.0
 10
0.0462834645669291
 20
-0.3668503937007874
 30
0.0
 10
0.0208937007874016
 20
-0.3649173228346457
 30
0.0
 10
0.0208937007874016
 20
-0.3649173228346457
 30
0.0
 10
0.0208937007874016
 20
-0.3649173228346457
 30
0.0
 10
0.0208937007874016
 20
-0.3649173228346457
 30
0.0
 10
-0.0041220472440945
 20
-0.3617322834645669
 30
0.0
 10
-0.0041220472440945
 20
-0.3617322834645669
 30
0.0
 10
-0.0041220472440945
 20
-0.3617322834645669
 30
0.0
 10
-0.0041220472440945
 20
-0.3617322834645669
 30
0.0
 10
-0.028744094488189
 20
-0.3573385826771654
 30
0.0
 10
-0.028744094488189
 20
-0.3573385826771654
 30
0.0
 10
-0.028744094488189
 20
-0.3573385826771654
 30
0.0
 10
-0.028744094488189
 20
-0.3573385826771654
 30
0.0
 10
-0.0529291338582677
 20
-0.351751968503937
 30
0.0
 10
-0.0529291338582677
 20
-0.351751968503937
 30
0.0
 10
-0.0529291338582677
 20
-0.351751968503937
 30
0.0
 10
-0.0529291338582677
 20
-0.351751968503937
 30
0.0
 10
-0.0766535433070866
 20
-0.3450157480314961
 30
0.0
 10
-0.0766535433070866
 20
-0.3450157480314961
 30
0.0
 10
-0.0766535433070866
 20
-0.3450157480314961
 30
0.0
 10
-0.0766535433070866
 20
-0.3450157480314961
 30
0.0
 10
-0.0998818897637795
 20
-0.3371496062992126
 30
0.0
 10
-0.0998818897637795
 20
-0.3371496062992126
 30
0.0
 10
-0.0998818897637795
 20
-0.3371496062992126
 30
0.0
 10
-0.0998818897637795
 20
-0.3371496062992126
 30
0.0
 10
-0.1225944881889764
 20
-0.3282007874015748
 30
0.0
 10
-0.1225944881889764
 20
-0.3282007874015748
 30
0.0
 10
-0.1225944881889764
 20
-0.3282007874015748
 30
0.0
 10
-0.1225944881889764
 20
-0.3282007874015748
 30
0.0
 10
-0.144736220472441
 20
-0.3181811023622048
 30
0.0
 10
-0.144736220472441
 20
-0.3181811023622048
 30
0.0
 10
-0.144736220472441
 20
-0.3181811023622048
 30
0.0
 10
-0.144736220472441
 20
-0.3181811023622048
 30
0.0
 10
-0.1662992125984252
 20
-0.3071377952755905
 30
0.0
 10
-0.1662992125984252
 20
-0.3071377952755905
 30
0.0
 10
-0.1662992125984252
 20
-0.3071377952755905
 30
0.0
 10
-0.1662992125984252
 20
-0.3071377952755905
 30
0.0
 10
-0.187236220472441
 20
-0.2950944881889764
 30
0.0
 10
-0.187236220472441
 20
-0.2950944881889764
 30
0.0
 10
-0.187236220472441
 20
-0.2950944881889764
 30
0.0
 10
-0.187236220472441
 20
-0.2950944881889764
 30
0.0
 10
-0.2075275590551181
 20
-0.2820944881889764
 30
0.0
 10
-0.2075275590551181
 20
-0.2820944881889764
 30
0.0
 10
-0.2075275590551181
 20
-0.2820944881889764
 30
0.0
 10
-0.2075275590551181
 20
-0.2820944881889764
 30
0.0
 10
-0.2271299212598425
 20
-0.2681535433070866
 30
0.0
 10
-0.2271299212598425
 20
-0.2681535433070866
 30
0.0
 10
-0.2271299212598425
 20
-0.2681535433070866
 30
0.0
 10
-0.2271299212598425
 20
-0.2681535433070866
 30
0.0
 10
-0.2460196850393701
 20
-0.2533110236220473
 30
0.0
 10
-0.2460196850393701
 20
-0.2533110236220473
 30
0.0
 10
-0.2460196850393701
 20
-0.2533110236220473
 30
0.0
 10
-0.2460196850393701
 20
-0.2533110236220473
 30
0.0
 10
-0.2641614173228347
 20
-0.2375944881889764
 30
0.0
 10
-0.2641614173228347
 20
-0.2375944881889764
 30
0.0
 10
-0.2641614173228347
 20
-0.2375944881889764
 30
0.0
 10
-0.2641614173228347
 20
-0.2375944881889764
 30
0.0
 10
-0.2815314960629922
 20
-0.2210393700787402
 30
0.0
 10
-0.2815314960629922
 20
-0.2210393700787402
 30
0.0
 10
-0.2815314960629922
 20
-0.2210393700787402
 30
0.0
 10
-0.2815314960629922
 20
-0.2210393700787402
 30
0.0
 10
-0.2980866141732284
 20
-0.2036692913385827
 30
0.0
 10
-0.2980866141732284
 20
-0.2036692913385827
 30
0.0
 10
-0.2980866141732284
 20
-0.2036692913385827
 30
0.0
 10
-0.2980866141732284
 20
-0.2036692913385827
 30
0.0
 10
-0.3138031496062992
 20
-0.1855275590551181
 30
0.0
 10
-0.3138031496062992
 20
-0.1855275590551181
 30
0.0
 10
-0.3138031496062992
 20
-0.1855275590551181
 30
0.0
 10
-0.3138031496062992
 20
-0.1855275590551181
 30
0.0
 10
-0.3286456692913386
 20
-0.1666377952755906
 30
0.0
 10
-0.3286456692913386
 20
-0.1666377952755906
 30
0.0
 10
-0.3286456692913386
 20
-0.1666377952755906
 30
0.0
 10
-0.3286456692913386
 20
-0.1666377952755906
 30
0.0
 10
-0.3425866141732283
 20
-0.1470354330708661
 30
0.0
 10
-0.3425866141732283
 20
-0.1470354330708661
 30
0.0
 10
-0.3425866141732283
 20
-0.1470354330708661
 30
0.0
 10
-0.3425866141732283
 20
-0.1470354330708661
 30
0.0
 10
-0.3555866141732283
 20
-0.126744094488189
 30
0.0
 10
-0.3555866141732283
 20
-0.126744094488189
 30
0.0
 10
-0.3555866141732283
 20
-0.126744094488189
 30
0.0
 10
-0.3555866141732283
 20
-0.126744094488189
 30
0.0
 10
-0.3676299212598425
 20
-0.1058070866141732
 30
0.0
 10
-0.3676299212598425
 20
-0.1058070866141732
 30
0.0
 10
-0.3676299212598425
 20
-0.1058070866141732
 30
0.0
 10
-0.3676299212598425
 20
-0.1058070866141732
 30
0.0
 10
-0.3786732283464567
 20
-0.084244094488189
 30
0.0
 10
-0.3786732283464567
 20
-0.084244094488189
 30
0.0
 10
-0.3786732283464567
 20
-0.084244094488189
 30
0.0
 10
-0.3786732283464567
 20
-0.084244094488189
 30
0.0
 10
-0.3886929133858268
 20
-0.0621023622047244
 30
0.0
 10
-0.3886929133858268
 20
-0.0621023622047244
 30
0.0
 10
-0.3886929133858268
 20
-0.0621023622047244
 30
0.0
 10
-0.3886929133858268
 20
-0.0621023622047244
 30
0.0
 10
-0.3976417322834646
 20
-0.0393897637795276
 30
0.0
 10
-0.3976417322834646
 20
-0.0393897637795276
 30
0.0
 10
-0.3976417322834646
 20
-0.0393897637795276
 30
0.0
 10
-0.3976417322834646
 20
-0.0393897637795276
 30
0.0
 10
-0.4055078740157481
 20
-0.0161614173228346
 30
0.0
 10
-0.4055078740157481
 20
-0.0161614173228346
 30
0.0
 10
-0.4055078740157481
 20
-0.0161614173228346
 30
0.0
 10
-0.4055078740157481
 20
-0.0161614173228346
 30
0.0
 10
-0.412244094488189
 20
0.0075629921259843
 30
0.0
 10
-0.412244094488189
 20
0.0075629921259843
 30
0.0
 10
-0.412244094488189
 20
0.0075629921259843
 30
0.0
 10
-0.412244094488189
 20
0.0075629921259843
 30
0.0
 10
-0.4178307086614174
 20
0.031748031496063
 30
0.0
 10
-0.4178307086614174
 20
0.031748031496063
 30
0.0
 10
-0.4178307086614174
 20
0.031748031496063
 30
0.0
 10
-0.4178307086614174
 20
0.031748031496063
 30
0.0
 10
-0.4222244094488189
 20
0.0563700787401575
 30
0.0
 10
-0.4222244094488189
 20
0.0563700787401575
 30
0.0
 10
-0.4222244094488189
 20
0.0563700787401575
 30
0.0
 10
-0.4222244094488189
 20
0.0563700787401575
 30
0.0
 10
-0.4254094488188976
 20
0.0813858267716535
 30
0.0
 10
-0.4254094488188976
 20
0.0813858267716535
 30
0.0
 10
-0.4254094488188976
 20
0.0813858267716535
 30
0.0
 10
-0.4254094488188976
 20
0.0813858267716535
 30
0.0
 10
-0.4273425196850394
 20
0.1067755905511811
 30
0.0
 10
-0.4273425196850394
 20
0.1067755905511811
 30
0.0
 10
-0.4273425196850394
 20
0.1067755905511811
 30
0.0
 10
-0.4273425196850394
 20
0.1067755905511811
 30
0.0
 10
-0.427996062992126
 20
0.132496062992126
 30
0.0
 10
-0.427996062992126
 20
0.132496062992126
 30
0.0
 10
-0.427996062992126
 20
0.132496062992126
 30
0.0
 10
-0.427996062992126
 20
0.132496062992126
 30
0.0
 10
-1.0719015748031497
 20
-0.2394488188976378
 30
0.0
 10
-1.0719015748031497
 20
-0.2394488188976378
 30
0.0
 10
-1.0719015748031497
 20
-0.2394488188976378
 30
0.0
 10
-1.0719015748031497
 20
-0.2394488188976378
 30
0.0
 10
-1.0712480314960631
 20
-0.2651692913385827
 30
0.0
 10
-1.0712480314960631
 20
-0.2651692913385827
 30
0.0
 10
-1.0712480314960631
 20
-0.2651692913385827
 30
0.0
 10
-1.0712480314960631
 20
-0.2651692913385827
 30
0.0
 10
-1.0693149606299213
 20
-0.2905590551181103
 30
0.0
 10
-1.0693149606299213
 20
-0.2905590551181103
 30
0.0
 10
-1.0693149606299213
 20
-0.2905590551181103
 30
0.0
 10
-1.0693149606299213
 20
-0.2905590551181103
 30
0.0
 10
-1.0661299212598425
 20
-0.3155748031496063
 30
0.0
 10
-1.0661299212598425
 20
-0.3155748031496063
 30
0.0
 10
-1.0661299212598425
 20
-0.3155748031496063
 30
0.0
 10
-1.0661299212598425
 20
-0.3155748031496063
 30
0.0
 10
-1.061736220472441
 20
-0.3401968503937008
 30
0.0
 10
-1.061736220472441
 20
-0.3401968503937008
 30
0.0
 10
-1.061736220472441
 20
-0.3401968503937008
 30
0.0
 10
-1.061736220472441
 20
-0.3401968503937008
 30
0.0
 10
-1.0561496062992126
 20
-0.3643818897637796
 30
0.0
 10
-1.0561496062992126
 20
-0.3643818897637796
 30
0.0
 10
-1.0561496062992126
 20
-0.3643818897637796
 30
0.0
 10
-1.0561496062992126
 20
-0.3643818897637796
 30
0.0
 10
-1.0494133858267718
 20
-0.3881062992125984
 30
0.0
 10
-1.0494133858267718
 20
-0.3881062992125984
 30
0.0
 10
-1.0494133858267718
 20
-0.3881062992125984
 30
0.0
 10
-1.0494133858267718
 20
-0.3881062992125984
 30
0.0
 10
-1.0415472440944882
 20
-0.4113346456692913
 30
0.0
 10
-1.0415472440944882
 20
-0.4113346456692913
 30
0.0
 10
-1.0415472440944882
 20
-0.4113346456692913
 30
0.0
 10
-1.0415472440944882
 20
-0.4113346456692913
 30
0.0
 10
-1.0325984251968505
 20
-0.4340472440944882
 30
0.0
 10
-1.0325984251968505
 20
-0.4340472440944882
 30
0.0
 10
-1.0325984251968505
 20
-0.4340472440944882
 30
0.0
 10
-1.0325984251968505
 20
-0.4340472440944882
 30
0.0
 10
-1.0225787401574804
 20
-0.4561889763779528
 30
0.0
 10
-1.0225787401574804
 20
-0.4561889763779528
 30
0.0
 10
-1.0225787401574804
 20
-0.4561889763779528
 30
0.0
 10
-1.0225787401574804
 20
-0.4561889763779528
 30
0.0
 10
-1.0115354330708661
 20
-0.477751968503937
 30
0.0
 10
-1.0115354330708661
 20
-0.477751968503937
 30
0.0
 10
-1.0115354330708661
 20
-0.477751968503937
 30
0.0
 10
-1.0115354330708661
 20
-0.477751968503937
 30
0.0
 10
-0.999492125984252
 20
-0.4986889763779528
 30
0.0
 10
-0.999492125984252
 20
-0.4986889763779528
 30
0.0
 10
-0.999492125984252
 20
-0.4986889763779528
 30
0.0
 10
-0.999492125984252
 20
-0.4986889763779528
 30
0.0
 10
-0.986492125984252
 20
-0.5189803149606299
 30
0.0
 10
-0.986492125984252
 20
-0.5189803149606299
 30
0.0
 10
-0.986492125984252
 20
-0.5189803149606299
 30
0.0
 10
-0.986492125984252
 20
-0.5189803149606299
 30
0.0
 10
-0.9725511811023623
 20
-0.5385826771653544
 30
0.0
 10
-0.9725511811023623
 20
-0.5385826771653544
 30
0.0
 10
-0.9725511811023623
 20
-0.5385826771653544
 30
0.0
 10
-0.9725511811023623
 20
-0.5385826771653544
 30
0.0
 10
-0.9577086614173229
 20
-0.5574724409448819
 30
0.0
 10
-0.9577086614173229
 20
-0.5574724409448819
 30
0.0
 10
-0.9577086614173229
 20
-0.5574724409448819
 30
0.0
 10
-0.9577086614173229
 20
-0.5574724409448819
 30
0.0
 10
-0.941992125984252
 20
-0.5756141732283465
 30
0.0
 10
-0.941992125984252
 20
-0.5756141732283465
 30
0.0
 10
-0.941992125984252
 20
-0.5756141732283465
 30
0.0
 10
-0.941992125984252
 20
-0.5756141732283465
 30
0.0
 10
-0.9254370078740158
 20
-0.5929842519685039
 30
0.0
 10
-0.9254370078740158
 20
-0.5929842519685039
 30
0.0
 10
-0.9254370078740158
 20
-0.5929842519685039
 30
0.0
 10
-0.9254370078740158
 20
-0.5929842519685039
 30
0.0
 10
-0.9080669291338583
 20
-0.6095393700787402
 30
0.0
 10
-0.9080669291338583
 20
-0.6095393700787402
 30
0.0
 10
-0.9080669291338583
 20
-0.6095393700787402
 30
0.0
 10
-0.9080669291338583
 20
-0.6095393700787402
 30
0.0
 10
-0.8899251968503937
 20
-0.6252559055118111
 30
0.0
 10
-0.8899251968503937
 20
-0.6252559055118111
 30
0.0
 10
-0.8899251968503937
 20
-0.6252559055118111
 30
0.0
 10
-0.8899251968503937
 20
-0.6252559055118111
 30
0.0
 10
-0.8710354330708662
 20
-0.6400984251968505
 30
0.0
 10
-0.8710354330708662
 20
-0.6400984251968505
 30
0.0
 10
-0.8710354330708662
 20
-0.6400984251968505
 30
0.0
 10
-0.8710354330708662
 20
-0.6400984251968505
 30
0.0
 10
-0.8514330708661417
 20
-0.6540393700787401
 30
0.0
 10
-0.8514330708661417
 20
-0.6540393700787401
 30
0.0
 10
-0.8514330708661417
 20
-0.6540393700787401
 30
0.0
 10
-0.8514330708661417
 20
-0.6540393700787401
 30
0.0
 10
-0.8311417322834646
 20
-0.6670393700787402
 30
0.0
 10
-0.8311417322834646
 20
-0.6670393700787402
 30
0.0
 10
-0.8311417322834646
 20
-0.6670393700787402
 30
0.0
 10
-0.8311417322834646
 20
-0.6670393700787402
 30
0.0
 10
-0.8102047244094488
 20
-0.6790826771653543
 30
0.0
 10
-0.8102047244094488
 20
-0.6790826771653543
 30
0.0
 10
-0.8102047244094488
 20
-0.6790826771653543
 30
0.0
 10
-0.8102047244094488
 20
-0.6790826771653543
 30
0.0
 10
-0.7886417322834646
 20
-0.6901259842519686
 30
0.0
 10
-0.7886417322834646
 20
-0.6901259842519686
 30
0.0
 10
-0.7886417322834646
 20
-0.6901259842519686
 30
0.0
 10
-0.7886417322834646
 20
-0.6901259842519686
 30
0.0
 10
-0.7665000000000001
 20
-0.7001456692913386
 30
0.0
 10
-0.7665000000000001
 20
-0.7001456692913386
 30
0.0
 10
-0.7665000000000001
 20
-0.7001456692913386
 30
0.0
 10
-0.7665000000000001
 20
-0.7001456692913386
 30
0.0
 10
-0.7437874015748032
 20
-0.7090944881889764
 30
0.0
 10
-0.7437874015748032
 20
-0.7090944881889764
 30
0.0
 10
-0.7437874015748032
 20
-0.7090944881889764
 30
0.0
 10
-0.7437874015748032
 20
-0.7090944881889764
 30
0.0
 10
-0.7205590551181103
 20
-0.7169606299212599
 30
0.0
 10
-0.7205590551181103
 20
-0.7169606299212599
 30
0.0
 10
-0.7205590551181103
 20
-0.7169606299212599
 30
0.0
 10
-0.7205590551181103
 20
-0.7169606299212599
 30
0.0
 10
-0.6968346456692913
 20
-0.7236968503937008
 30
0.0
 10
-0.6968346456692913
 20
-0.7236968503937008
 30
0.0
 10
-0.6968346456692913
 20
-0.7236968503937008
 30
0.0
 10
-0.6968346456692913
 20
-0.7236968503937008
 30
0.0
 10
-0.6726496062992127
 20
-0.7292834645669292
 30
0.0
 10
-0.6726496062992127
 20
-0.7292834645669292
 30
0.0
 10
-0.6726496062992127
 20
-0.7292834645669292
 30
0.0
 10
-0.6726496062992127
 20
-0.7292834645669292
 30
0.0
 10
-0.6480275590551181
 20
-0.7336771653543307
 30
0.0
 10
-0.6480275590551181
 20
-0.7336771653543307
 30
0.0
 10
-0.6480275590551181
 20
-0.7336771653543307
 30
0.0
 10
-0.6480275590551181
 20
-0.7336771653543307
 30
0.0
 10
-0.623011811023622
 20
-0.7368622047244094
 30
0.0
 10
-0.623011811023622
 20
-0.7368622047244094
 30
0.0
 10
-0.623011811023622
 20
-0.7368622047244094
 30
0.0
 10
-0.623011811023622
 20
-0.7368622047244094
 30
0.0
 10
-0.5976220472440945
 20
-0.7387952755905513
 30
0.0
 10
-0.5976220472440945
 20
-0.7387952755905513
 30
0.0
 10
-0.5976220472440945
 20
-0.7387952755905513
 30
0.0
 10
-0.5976220472440945
 20
-0.7387952755905513
 30
0.0
 10
-0.5719015748031496
 20
-0.7394488188976378
 30
0.0
 10
-0.5719015748031496
 20
-0.7394488188976378
 30
0.0
  0
SPLINE
  5
C5
100
AcDbEntity
  8
Additional Graphics
 62
   252
100
AcDbSpline
210
0.0
220
0.0
230
1.0
 70
     1
 71
     3
 72
    20
 73
    16
 74
     0
 42
0.0000000001
 43
0.0000000001
 40
0.0
 40
0.0
 40
0.0
 40
0.0
 40
0.25
 40
0.25
 40
0.25
 40
0.25
 40
0.5
 40
0.5
 40
0.5
 40
0.5
 40
0.75
 40
0.75
 40
0.75
 40
0.75
 40
1.0
 40
1.0
 40
1.0
 40
1.0
 10
-1.0719015748031497
 20
-0.2394488188976378
 30
0.0
 10
-1.0719015748031497
 20
-0.2394488188976378
 30
0.0
 10
-0.427996062992126
 20
0.132496062992126
 30
0.0
 10
-0.427996062992126
 20
0.132496062992126
 30
0.0
 10
-0.427996062992126
 20
0.132496062992126
 30
0.0
 10
-0.427996062992126
 20
0.132496062992126
 30
0.0
 10
-0.802996062992126
 20
0.132496062992126
 30
0.0
 10
-0.802996062992126
 20
0.132496062992126
 30
0.0
 10
-0.802996062992126
 20
0.132496062992126
 30
0.0
 10
-0.802996062992126
 20
0.132496062992126
 30
0.0
 10
-1.4469015748031497
 20
-0.2394488188976378
 30
0.0
 10
-1.4469015748031497
 20
-0.2394488188976378
 30
0.0
 10
-1.4469015748031497
 20
-0.2394488188976378
 30
0.0
 10
-1.4469015748031497
 20
-0.2394488188976378
 30
0.0
 10
-1.0719015748031497
 20
-0.2394488188976378
 30
0.0
 10
-1.0719015748031497
 20
-0.2394488188976378
 30
0.0
  0
SPLINE
  5
C6
100
AcDbEntity
  8
Additional Graphics
370
     5
100
AcDbSpline
210
0.0
220
0.0
230
1.0
 70
     1
 71
     3
 72
    20
 73
    16
 74
     0
 42
0.0000000001
 43
0.0000000001
 40
0.0
 40
0.0
 40
0.0
 40
0.0
 40
0.25
 40
0.25
 40
0.25
 40
0.25
 40
0.5
 40
0.5
 40
0.5
 40
0.5
 40
0.75
 40
0.75
 40
0.75
 40
0.75
 40
1.0
 40
1.0
 40
1.0
 40
1.0
 10
-1.0719015748031497
 20
-0.2394488188976378
 30
0.0
 10
-1.0719015748031497
 20
-0.2394488188976378
 30
0.0
 10
-0.427996062992126
 20
0.132496062992126
 30
0.0
 10
-0.427996062992126
 20
0.132496062992126
 30
0.0
 10
-0.427996062992126
 20
0.132496062992126
 30
0.0
 10
-0.427996062992126
 20
0.132496062992126
 30
0.0
 10
-0.802996062992126
 20
0.132496062992126
 30
0.0
 10
-0.802996062992126
 20
0.132496062992126
 30
0.0
 10
-0.802996062992126
 20
0.132496062992126
 30
0.0
 10
-0.802996062992126
 20
0.132496062992126
 30
0.0
 10
-1.4469015748031497
 20
-0.2394488188976378
 30
0.0
 10
-1.4469015748031497
 20
-0.2394488188976378
 30
0.0
 10
-1.4469015748031497
 20
-0.2394488188976378
 30
0.0
 10
-1.4469015748031497
 20
-0.2394488188976378
 30
0.0
 10
-1.0719015748031497
 20
-0.2394488188976378
 30
0.0
 10
-1.0719015748031497
 20
-0.2394488188976378
 30
0.0
  0
SPLINE
  5
C7
100
AcDbEntity
  8
Additional Graphics
370
     5
 62
     7
100
AcDbSpline
210
0.0
220
0.0
230
1.0
 70
     1
 71
     3
 72
    40
 73
    36
 74
     0
 42
0.0000000001
 43
0.0000000001
 40
0.0
 40
0.0
 40
0.0
 40
0.0
 40
0.1111111111111111
 40
0.1111111111111111
 40
0.1111111111111111
 40
0.1111111111111111
 40
0.2222222222222222
 40
0.2222222222222222
 40
0.2222222222222222
 40
0.2222222222222222
 40
0.3333333333333333
 40
0.3333333333333333
 40
0.3333333333333333
 40
0.3333333333333333
 40
0.4444444444444444
 40
0.4444444444444444
 40
0.4444444444444444
 40
0.4444444444444444
 40
0.5555555555555556
 40
0.5555555555555556
 40
0.5555555555555556
 40
0.5555555555555556
 40
0.6666666666666667
 40
0.6666666666666667
 40
0.6666666666666667
 40
0.6666666666666667
 40
0.7777777777777779
 40
0.7777777777777779
 40
0.7777777777777779
 40
0.7777777777777779
 40
0.8888888888888891
 40
0.8888888888888891
 40
0.8888888888888891
 40
0.8888888888888891
 40
1.0
 40
1.0
 40
1.0
 40
1.0
 10
-1.4468937007874016
 20
-3.301952755905512
 30
0.0
 10
-1.4468937007874016
 20
-3.301952755905512
 30
0.0
 10
-0.5718937007874017
 20
-3.301952755905512
 30
0.0
 10
-0.5718937007874017
 20
-3.301952755905512
 30
0.0
 10
-0.5718937007874017
 20
-3.301952755905512
 30
0.0
 10
-0.5718937007874017
 20
-3.301952755905512
 30
0.0
 10
-0.5718937007874017
 20
-3.239452755905512
 30
0.0
 10
-0.5718937007874017
 20
-3.239452755905512
 30
0.0
 10
-0.5718937007874017
 20
-3.239452755905512
 30
0.0
 10
0.0493188976377953
 20
-3.239452755905512
 30
0.0
 10
0.5531023622047244
 20
-2.7356692913385827
 30
0.0
 10
0.5531023622047244
 20
-2.114452755905512
 30
0.0
 10
0.5531023622047244
 20
-2.114452755905512
 30
0.0
 10
0.5531023622047244
 20
-1.4932401574803149
 30
0.0
 10
0.0493188976377953
 20
-0.9894527559055119
 30
0.0
 10
-0.5718937007874017
 20
-0.9894527559055119
 30
0.0
 10
-0.5718937007874017
 20
-0.9894527559055119
 30
0.0
 10
-0.5718937007874017
 20
-0.9894527559055119
 30
0.0
 10
-0.5719015748031496
 20
-0.7394488188976378
 30
0.0
 10
-0.5719015748031496
 20
-0.7394488188976378
 30
0.0
 10
-0.5719015748031496
 20
-0.7394488188976378
 30
0.0
 10
-0.847996062992126
 20
-0.7394488188976378
 30
0.0
 10
-1.0719015748031497
 20
-0.5155433070866142
 30
0.0
 10
-1.0719015748031497
 20
-0.2394488188976378
 30
0.0
 10
-1.0719015748031497
 20
-0.2394488188976378
 30
0.0
 10
-1.0719015748031497
 20
-0.2394488188976378
 30
0.0
 10
-1.4469015748031497
 20
-0.2394488188976378
 30
0.0
 10
-1.4469015748031497
 20
-0.2394488188976378
 30
0.0
 10
-1.4469015748031497
 20
-0.2394488188976378
 30
0.0
 10
-1.4469015748031497
 20
-0.2394488188976378
 30
0.0
 10
-1.4469015748031497
 20
-3.239452755905512
 30
0.0
 10
-1.4469015748031497
 20
-3.239452755905512
 30
0.0
 10
-1.4469015748031497
 20
-3.239452755905512
 30
0.0
 10
-1.4469015748031497
 20
-3.239452755905512
 30
0.0
 10
-1.4468937007874016
 20
-3.301952755905512
 30
0.0
 10
-1.4468937007874016
 20
-3.301952755905512
 30
0.0
  0
TEXT
  5
C8
100
AcDbEntity
  8
Additional Graphics
100
AcDbText
 10
-0.500295
 20
-3.555441
 30
0.0
 40
0.119999
  1
BA  1530
 51
-0.000002
  7
Bookman Old Style
100
AcDbText
  0
TEXT
  5
C9
100
AcDbEntity
  8
Additional Graphics
100
AcDbText
 10
-0.630295
 20
-3.742941
 30
0.0
 40
0.119999
  1
2\u+201d x 3-1/16\u+201d
 51
-0.000002
  7
Bookman Old Style
100
AcDbText
  0
ENDSEC
  0
SECTION
  2
OBJECTS
  0
DICTIONARY
  5
19
100
AcDbDictionary
280
     0
281
     1
  3
ACAD_GROUP
350
1A
  3
ACAD_MLINESTYLE
350
1B
  3
ACAD_LAYOUT
350
1E
  3
ACAD_PLOTSETTINGS
350
22
  3
ACAD_PLOTSTYLENAME
350
1F
  3
ACAD_WIPEOUT_VARS
350
23
  0
DICTIONARY
  5
1A
102
{ACAD_REACTORS
330
19
102
}
100
AcDbDictionary
280
     0
281
     1
  0
DICTIONARY
  5
1B
102
{ACAD_REACTORS
330
19
102
}
100
AcDbDictionary
280
     0
281
     1
  3
Standard
350
1C
  0
MLINESTYLE
  5
1C
102
{ACAD_REACTORS
330
1B
102
}
100
AcDbMlineStyle
  2
Standard
 70
     0
  3

 62
     0
 51
90.0
 52
90.0
 71
     2
 49
0.5
 62
   256
  6
BYLAYER
 49
-0.5
 62
   256
  6
BYLAYER
  0
ACDBDICTIONARYWDFLT
  5
1F
102
{ACAD_REACTORS
330
19
102
}
100
AcDbDictionary
281
     1
  3
Normal
350
1D
100
AcDbDictionaryWithDefault
340
1D
  0
ACDBPLACEHOLDER
  5
1D
102
{ACAD_REACTORS
330
1F
102
}
  0
LAYOUT
  5
20
102
{ACAD_REACTORS
330
1E
102
}
100
AcDbPlotSettings
  1

  2

  4

  6

 40
0.0
 41
0.0
 42
0.0
 43
0.0
 44
0.0
 45
0.0
 46
0.0
 47
0.0
 48
0.0
 49
0.0
140
0.0
141
0.0
142
1.0
143
1.0
 70
  1024
 72
     0
 73
     0
 74
     0
  7

 75
     0
147
1.0
148
0.0
149
0.0
100
AcDbLayout
  1
Model
 70
     0
 71
     0
 10
0.0
 20
0.0
 11
0.0
 21
0.0
 12
0.0
 22
0.0
 32
0.0
 14
0.0
 24
0.0
 34
0.0
 15
0.0
 25
0.0
 35
0.0
146
0.0
 13
0.0
 23
0.0
 33
0.0
 16
0.0
 26
0.0
 36
0.0
 17
0.0
 27
0.0
 37
0.0
 76
     0
330
A
331
0
345
0
346
0
  0
LAYOUT
  5
21
102
{ACAD_REACTORS
330
1E
102
}
100
AcDbPlotSettings
  1

  2

  4

  6

 40
0.0
 41
0.0
 42
0.0
 43
0.0
 44
0.0
 45
0.0
 46
0.0
 47
0.0
 48
0.0
 49
0.0
140
0.0
141
0.0
142
1.0
143
1.0
 70
     0
 72
     0
 73
     0
 74
     0
  7

 75
     0
147
1.0
148
0.0
149
0.0
100
AcDbLayout
  1
Layout1
 70
     0
 71
     0
 10
0.0
 20
0.0
 11
0.0
 21
0.0
 12
0.0
 22
0.0
 32
0.0
 14
0.0
 24
0.0
 34
0.0
 15
0.0
 25
0.0
 35
0.0
146
0.0
 13
0.0
 23
0.0
 33
0.0
 16
0.0
 26
0.0
 36
0.0
 17
0.0
 27
0.0
 37
0.0
 76
     0
330
B
331
0
345
0
346
0
  0
DICTIONARY
  5
1E
102
{ACAD_REACTORS
330
19
102
}
100
AcDbDictionary
280
     0
281
     1
  3
Layout1
350
21
  3
Model
350
20
  0
DICTIONARY
  5
22
102
{ACAD_REACTORS
330
19
102
}
100
AcDbDictionary
280
     0
281
     1
  0
WIPEOUTVARIABLES
  5
23
100
AcDbWipeoutVariables
 70
     1
  0
ENDSEC
  0
EOF
