  0
SECTION
  2
HEADER
  9
$ACADVER
  1
AC1015
  9
$ACADMAINTVER
 70
     6
  9
$DWGCODEPAGE
  3
DOS850
  9
$INSBASE
 10
0.0
 20
0.0
 30
0.0
  9
$EXTMIN
 10
-2.404937
 20
-5.35011
 30
1.000000E+20
  9
$EXTMAX
 10
3.198669
 20
5.016969
 30
-1.000000E+20
  9
$LIMMIN
 10
0.0
 20
0.0
  9
$LIMMAX
 10
0.0
 20
0.0
  9
$ORTHOMODE
 70
     0
  9
$REGENMODE
 70
     1
  9
$FILLMODE
 70
     1
  9
$QTEXTMODE
 70
     0
  9
$MIRRTEXT
 70
     1
  9
$LTSCALE
 40
1.0
  9
$ATTMODE
 70
     1
  9
$TEXTSIZE
 40
0.2
  9
$TRACEWID
 40
0.05
  9
$TEXTSTYLE
  7
Standard
  9
$CLAYER
  8
0
  9
$CELTYPE
  6
Continuous
  9
$CECOLOR
 62
   256
  9
$CELTSCALE
 40
1.0
  9
$DISPSILH
 70
     0
  9
$DIMSCALE
 40
1.0
  9
$DIMASZ
 40
0.18
  9
$DIMEXO
 40
0.0625
  9
$DIMDLI
 40
0.38
  9
$DIMRND
 40
0.0
  9
$DIMDLE
 40
0.0
  9
$DIMEXE
 40
0.18
  9
$DIMTP
 40
0.0
  9
$DIMTM
 40
0.0
  9
$DIMTXT
 40
0.18
  9
$DIMCEN
 40
0.09
  9
$DIMTSZ
 40
0.0
  9
$DIMTOL
 70
     0
  9
$DIMLIM
 70
     0
  9
$DIMTIH
 70
     1
  9
$DIMTOH
 70
     1
  9
$DIMSE1
 70
     0
  9
$DIMSE2
 70
     0
  9
$DIMTAD
 70
     0
  9
$DIMZIN
 70
     0
  9
$DIMBLK
  1

  9
$DIMASO
 70
     1
  9
$DIMSHO
 70
     1
  9
$DIMPOST
  1

  9
$DIMAPOST
  1

  9
$DIMALT
 70
     0
  9
$DIMALTD
 70
     2
  9
$DIMALTF
 40
25.4
  9
$DIMLFAC
 40
1.0
  9
$DIMTOFL
 70
     0
  9
$DIMTVP
 40
0.0
  9
$DIMTIX
 70
     0
  9
$DIMSOXD
 70
     0
  9
$DIMSAH
 70
     0
  9
$DIMBLK1
  1

  9
$DIMBLK2
  1

  9
$DIMSTYLE
  2
Standard
  9
$DIMCLRD
 70
     0
  9
$DIMCLRE
 70
     0
  9
$DIMCLRT
 70
     0
  9
$DIMTFAC
 40
1.0
  9
$DIMGAP
 40
0.09
  9
$DIMJUST
 70
     0
  9
$DIMSD1
 70
     0
  9
$DIMSD2
 70
     0
  9
$DIMTOLJ
 70
     1
  9
$DIMTZIN
 70
     0
  9
$DIMALTZ
 70
     0
  9
$DIMALTTZ
 70
     0
  9
$DIMUPT
 70
     0
  9
$DIMDEC
 70
     4
  9
$DIMTDEC
 70
     4
  9
$DIMALTU
 70
     2
  9
$DIMALTTD
 70
     2
  9
$DIMTXSTY
  7
Standard
  9
$DIMAUNIT
 70
     0
  9
$DIMADEC
 70
     0
  9
$DIMALTRND
 40
0.0
  9
$DIMAZIN
 70
     0
  9
$DIMDSEP
 70
     0
  9
$DIMATFIT
 70
     3
  9
$DIMFRAC
 70
     0
  9
$DIMLDRBLK
  1

  9
$DIMLUNIT
 70
     2
  9
$DIMLWD
 70
     0
  9
$DIMLWE
 70
     0
  9
$DIMTMOVE
 70
     0
  9
$LUNITS
 70
     2
  9
$LUPREC
 70
     4
  9
$SKETCHINC
 40
0.1
  9
$FILLETRAD
 40
0.0
  9
$AUNITS
 70
     0
  9
$AUPREC
 70
     0
  9
$MENU
  1
acad
  9
$ELEVATION
 40
0.0
  9
$PELEVATION
 40
0.0
  9
$THICKNESS
 40
0.0
  9
$LIMCHECK
 70
     0
  9
$CHAMFERA
 40
0.0
  9
$CHAMFERB
 40
0.0
  9
$CHAMFERC
 40
0.0
  9
$CHAMFERD
 40
0.0
  9
$SKPOLY
 70
     0
  9
$TDCREATE
 40
0.000000000
  9
$TDUCREATE
 40
0.000000000
  9
$TDUPDATE
 40
0.000000000
  9
$TDUUPDATE
 40
0.000000000
  9
$TDINDWG
 40
0.0000000000
  9
$TDUSRTIMER
 40
0.0000000000
  9
$USRTIMER
 70
     1
  9
$ANGBASE
 50
0.0
  9
$ANGDIR
 70
     0
  9
$PDMODE
 70
     0
  9
$PDSIZE
 40
0.0
  9
$PLINEWID
 40
0.0
  9
$SPLFRAME
 70
     0
  9
$SPLINETYPE
 70
     6
  9
$SPLINESEGS
 70
     8
  9
$HANDSEED
  5
E2
  9
$SURFTAB1
 70
     6
  9
$SURFTAB2
 70
     6
  9
$SURFTYPE
 70
     6
  9
$SURFU
 70
     6
  9
$SURFV
 70
     6
  9
$UCSBASE
  2

  9
$UCSNAME
  2

  9
$UCSORG
 10
0.0
 20
0.0
 30
0.0
  9
$UCSXDIR
 10
1.0
 20
0.0
 30
0.0
  9
$UCSYDIR
 10
0.0
 20
1.0
 30
0.0
  9
$UCSORTHOREF
  2

  9
$UCSORTHOVIEW
 70
     0
  9
$UCSORGTOP
 10
0.0
 20
0.0
 30
0.0
  9
$UCSORGBOTTOM
 10
0.0
 20
0.0
 30
0.0
  9
$UCSORGLEFT
 10
0.0
 20
0.0
 30
0.0
  9
$UCSORGRIGHT
 10
0.0
 20
0.0
 30
0.0
  9
$UCSORGFRONT
 10
0.0
 20
0.0
 30
0.0
  9
$UCSORGBACK
 10
0.0
 20
0.0
 30
0.0
  9
$PUCSBASE
  2

  9
$PUCSNAME
  2

  9
$PUCSORG
 10
0.0
 20
0.0
 30
0.0
  9
$PUCSXDIR
 10
1.0
 20
0.0
 30
0.0
  9
$PUCSYDIR
 10
0.0
 20
1.0
 30
0.0
  9
$PUCSORTHOREF
  2

  9
$PUCSORTHOVIEW
 70
     0
  9
$PUCSORGTOP
 10
0.0
 20
0.0
 30
0.0
  9
$PUCSORGBOTTOM
 10
0.0
 20
0.0
 30
0.0
  9
$PUCSORGLEFT
 10
0.0
 20
0.0
 30
0.0
  9
$PUCSORGRIGHT
 10
0.0
 20
0.0
 30
0.0
  9
$PUCSORGFRONT
 10
0.0
 20
0.0
 30
0.0
  9
$PUCSORGBACK
 10
0.0
 20
0.0
 30
0.0
  9
$USERI1
 70
     0
  9
$USERI2
 70
     0
  9
$USERI3
 70
     0
  9
$USERI4
 70
     0
  9
$USERI5
 70
     0
  9
$USERR1
 40
0.0
  9
$USERR2
 40
0.0
  9
$USERR3
 40
0.0
  9
$USERR4
 40
0.0
  9
$USERR5
 40
0.0
  9
$WORLDVIEW
 70
     1
  9
$SHADEDGE
 70
     3
  9
$SHADEDIF
 70
    70
  9
$TILEMODE
 70
     1
  9
$MAXACTVP
 70
    16
  9
$PINSBASE
 10
0.0
 20
0.0
 30
0.0
  9
$PLIMCHECK
 70
     0
  9
$PEXTMIN
 10
1.000000E+20
 20
1.000000E+20
 30
1.000000E+20
  9
$PEXTMAX
 10
-1.000000E+20
 20
-1.000000E+20
 30
-1.000000E+20
  9
$PLIMMIN
 10
0.0
 20
0.0
  9
$PLIMMAX
 10
12.0
 20
9.0
  9
$UNITMODE
 70
     0
  9
$VISRETAIN
 70
     0
  9
$PLINEGEN
 70
     1
  9
$PSLTSCALE
 70
     0
  9
$TREEDEPTH
 70
  3020
  9
$CMLSTYLE
  2
Standard
  9
$CMLJUST
 70
     0
  9
$CMLSCALE
 40
1.0
  9
$PROXYGRAPHICS
 70
     0
  9
$MEASUREMENT
 70
     0
  9
$CELWEIGHT
370
     0
  9
$ENDCAPS
280
     0
  9
$JOINSTYLE
280
     0
  9
$LWDISPLAY
290
     0
  9
$INSUNITS
 70
     1
  9
$HYPERLINKBASE
  1

  9
$XEDIT
290
     1
  9
$CEPSNTYPE
380
     0
  9
$PSTYLEMODE
290
     1
  9
$FINGERPRINTGUID
  2

  9
$VERSIONGUID
  2

  9
$EXTNAMES
290
     1
  9
$PSVPSCALE
 40
0.0
  0
ENDSEC
  0
SECTION
  2
CLASSES
  0
CLASS
  1
LWPOLYLINE
  2
AcDbPolyline
  3
AutoCAD 2000
 90
    32768
280
     0
281
     1
  0
CLASS
  1
IMAGE
  2
AcDbRasterImage
  3
ISM
 90
    32895
280
     0
281
     1
  0
CLASS
  1
OLE2FRAME
  2
AcDbOle2Frame
  3
AutoCAD 2000
 90
    32768
280
     0
281
     1
  0
CLASS
  1
HATCH
  2
AcDbHatch
  3
AutoCAD 2000
 90
    32768
280
     0
281
     1
  0
CLASS
  1
DICTIONARYVAR
  2
AcDbDictionaryVar
  3
AutoCAD 2000
 90
    32768
280
     0
281
     0
  0
CLASS
  1
RASTERVARIABLES
  2
AcDbRasterVariables
  3
ISM
 90
    32768
280
     0
281
     0
  0
CLASS
  1
IMAGEDEF
  2
AcDbRasterImageDef
  3
ISM
 90
    32768
280
     0
281
     0
  0
CLASS
  1
IMAGEDEF_REACTOR
  2
AcDbRasterImageDefReactor
  3
ISM
 90
    32769
280
     0
281
     0
  0
CLASS
  1
IDBUFFER
  2
AcDbIdBuffer
  3
AutoCAD 2000
 90
    32768
280
     0
281
     0
  0
CLASS
  1
SPATIAL_FILTER
  2
AcDbSpatialFilter
  3
AutoCAD 2000
 90
    32768
280
     0
281
     0
  0
CLASS
  1
XRECORD
  2
AcDbXrecord
  3
AutoCAD 2000
 90
    32768
280
     0
281
     0
  0
CLASS
  1
SORTENTSTABLE
  2
AcDbSortentsTable
  3
AutoCAD 2000
 90
    32768
280
     0
281
     0
  0
CLASS
  1
LAYER_INDEX
  2
AcDbLayerIndex
  3
AutoCAD 2000
 90
    32768
280
     0
281
     0
  0
CLASS
  1
SPATIAL_INDEX
  2
AcDbSpatialIndex
  3
AutoCAD 2000
 90
    32768
280
     0
281
     0
  0
CLASS
  1
OBJECT_PTR
  2
CAseDLPNTableRecord
  3
"ASE-LPNTableRecord"
 90
    32769
280
     0
281
     0
  0
CLASS
  1
LAYOUT
  2
AcDbLayout
  3
AutoCAD 2000
 90
        0
280
     0
281
     0
  0
CLASS
  1
PLOTSETTINGS
  2
AcDbPlotSettings
  3
AutoCAD 2000
 90
    32768
280
     0
281
     0
  0
CLASS
  1
ACDBDICTIONARYWDFLT
  2
AcDbDictionaryWithDefault
  3
AutoCAD 2000
 90
        0
280
     0
281
     0
  0
CLASS
  1
ACDBPLACEHOLDER
  2
AcDbPlaceHolder
  3
AutoCAD 2000
 90
        0
280
     0
281
     0
  0
CLASS
  1
VBA_PROJECT
  2
AcDbVbaProject
  3
acadvba
 90
    32768
280
     0
281
     0
  0
CLASS
  1
WIPEOUT
  2
AcDbWipeout
  3
WipeOut|AutoCAD Express Tool|expresstools@autodesk.com
 90
    32895
280
     0
281
     1
  0
CLASS
  1
WIPEOUTVARIABLES
  2
AcDbWipeoutVariables
  3
WipeOut|AutoCAD Express Tool|expresstools@autodesk.com
 90
        0
280
     0
281
     0
  0
CLASS
  1
RTEXT
  2
RText
  3
RText|AutoCAD Express Tool|expresstools@autodesk.com
 90
    32768
280
     0
281
     1
  0
CLASS
  1
ARCALIGNEDTEXT
  2
AcDbArcAlignedText
  3
ATEXT|AutoCAD Express Tool|expresstools@autodesk.com
 90
    32768
280
     0
281
     1
  0
ENDSEC
  0
SECTION
  2
TABLES
  0
TABLE
  2
VPORT
  5
7
100
AcDbSymbolTable
 70
     1
  0
VPORT
  5
15
100
AcDbSymbolTableRecord
100
AcDbViewportTableRecord
  2
*ACTIVE
 70
     0
 10
0.0
 20
0.0
 11
1.0
 21
1.0
 12
6.591288
 22
4.579184
 13
0.0
 23
0.0
 14
1.0
 24
1.0
 15
0.0
 25
0.0
 16
0.0
 26
0.0
 36
1.0
 17
0.0
 27
0.0
 37
0.0
 40
9.158369
 41
0.688564
 42
50.0
 43
0.0
 44
0.0
 50
0.0
 51
0.0
 71
     0
 72
   100
 73
     1
 74
     1
 75
     0
 76
     0
 77
     0
 78
     0
281
     0
 65
     0
110
0.0
120
0.0
130
0.0
111
1.0
121
0.0
131
0.0
112
0.0
122
1.0
132
0.0
345
0
346
0
 79
     0
146
0.0
  0
ENDTAB
  0
TABLE
  2
LTYPE
  5
4
100
AcDbSymbolTable
 70
     3
  0
LTYPE
  5
11
100
AcDbSymbolTableRecord
100
AcDbLinetypeTableRecord
  2
ByBlock
 70
    64
  3

 72
    65
 73
     0
 40
0.0
  0
LTYPE
  5
12
100
AcDbSymbolTableRecord
100
AcDbLinetypeTableRecord
  2
ByLayer
 70
    64
  3

 72
    65
 73
     0
 40
0.0
  0
LTYPE
  5
13
100
AcDbSymbolTableRecord
100
AcDbLinetypeTableRecord
  2
Continuous
 70
    64
  3
Solid line
 72
    65
 73
     0
 40
0.0
  0
ENDTAB
  0
TABLE
  2
LAYER
  5
2
100
AcDbSymbolTable
 70
     2
  0
LAYER
  5
14
100
AcDbSymbolTableRecord
100
AcDbLayerTableRecord
  2
0
 70
     0
 62
     7
  6
Continuous
290
     1
370
    -3
390
1D
  0
LAYER
  5
24
100
AcDbSymbolTableRecord
100
AcDbLayerTableRecord
  2
Additional Graphics
 70
     0
 62
     7
  6
Continuous
290
     1
370
    -3
390
1F
  0
ENDTAB
  0
TABLE
  2
STYLE
  5
3
100
AcDbSymbolTable
 70
     2
  0
STYLE
  5
17
100
AcDbSymbolTableRecord
100
AcDbTextStyleTableRecord
  2
Standard
 70
     0
 40
0.0
 41
1.0
 50
0.0
 71
     0
 42
0.0
  3
txt
  4

  0
STYLE
  5
5B
100
AcDbSymbolTableRecord
100
AcDbTextStyleTableRecord
  2
Bookman Old Style
 70
     0
 40
1.0
 41
1.0
 50
0.0
 71
     0
 42
1.0
  3
Bookman Old Style
  4

  0
ENDTAB
  0
TABLE
  2
VIEW
  5
5
100
AcDbSymbolTable
 70
     0
  0
ENDTAB
  0
TABLE
  2
UCS
  5
6
100
AcDbSymbolTable
 70
     0
  0
ENDTAB
  0
TABLE
  2
APPID
  5
8
100
AcDbSymbolTable
 70
     1
  0
APPID
  5
16
100
AcDbSymbolTableRecord
100
AcDbRegAppTableRecord
  2
ACAD
 70
     0
  0
ENDTAB
  0
TABLE
  2
DIMSTYLE
  5
9
100
AcDbSymbolTable
 70
     1
100
AcDbDimStyleTable
 71
     0
  0
DIMSTYLE
105
18
100
AcDbSymbolTableRecord
100
AcDbDimStyleTableRecord
  2
Standard
 70
     0
  3

  4

 40
1.0
 41
0.18
 42
0.0625
 43
0.38
 44
0.18
 45
0.0
 46
0.0
 47
0.0
 48
0.0
 71
     0
 72
     0
 73
     1
 74
     1
 75
     0
 76
     0
 77
     0
 78
     0
 79
     0
140
0.18
141
0.09
142
0.0
143
25.4
144
1.0
145
0.0
146
1.0
147
0.09
148
0.0
170
     0
171
     2
172
     0
173
     0
174
     0
175
     0
176
     0
177
     0
178
     0
179
     0
271
     4
272
     4
273
     2
274
     2
275
     0
276
     0
277
     2
278
    46
279
     0
280
     0
281
     0
282
     0
283
     1
284
     0
285
     0
286
     0
288
     0
340
17
341
0
342
0
343
0
344
0
371
    -2
372
    -2
  0
ENDTAB
  0
TABLE
  2
BLOCK_RECORD
  5
1
100
AcDbSymbolTable
 70
     0
  0
BLOCK_RECORD
  5
A
100
AcDbSymbolTableRecord
100
AcDbBlockTableRecord
  2
*MODEL_SPACE
340
20
  0
BLOCK_RECORD
  5
B
100
AcDbSymbolTableRecord
100
AcDbBlockTableRecord
  2
*PAPER_SPACE
340
21
  0
ENDTAB
  0
ENDSEC
  0
SECTION
  2
BLOCKS
  0
BLOCK
  5
D
100
AcDbEntity
  8
0
100
AcDbBlockBegin
  2
*MODEL_SPACE
 70
     0
 10
0.0
 20
0.0
 30
0.0
  3
*MODEL_SPACE
  1

  0
ENDBLK
  5
E
100
AcDbEntity
  8
0
100
AcDbBlockEnd
  0
BLOCK
  5
F
100
AcDbEntity
 67
     1
  8
0
100
AcDbBlockBegin
  2
*PAPER_SPACE
 70
     0
 10
0.0
 20
0.0
 30
0.0
  3
*PAPER_SPACE
  1

  0
ENDBLK
  5
10
100
AcDbEntity
 67
     1
  8
0
100
AcDbBlockEnd
  0
ENDSEC
  0
SECTION
  2
ENTITIES
  0
SPLINE
  5
25
100
AcDbEntity
  8
Additional Graphics
370
     5
100
AcDbSpline
210
0.0
220
0.0
230
1.0
 70
     1
 71
     3
 72
    28
 73
    24
 74
     0
 42
0.0000000001
 43
0.0000000001
 40
0.0
 40
0.0
 40
0.0
 40
0.0
 40
0.1666666666666667
 40
0.1666666666666667
 40
0.1666666666666667
 40
0.1666666666666667
 40
0.3333333333333333
 40
0.3333333333333333
 40
0.3333333333333333
 40
0.3333333333333333
 40
0.5
 40
0.5
 40
0.5
 40
0.5
 40
0.6666666666666666
 40
0.6666666666666666
 40
0.6666666666666666
 40
0.6666666666666666
 40
0.8333333333333333
 40
0.8333333333333333
 40
0.8333333333333333
 40
0.8333333333333333
 40
1.0
 40
1.0
 40
1.0
 40
1.0
 10
2.6971692913385827
 20
3.4563110236220473
 30
0.0
 10
2.6971692913385827
 20
3.7324055118110238
 30
0.0
 10
2.9210748031496063
 20
3.9563110236220473
 30
0.0
 10
3.1971692913385827
 20
3.9563110236220473
 30
0.0
 10
3.1971692913385827
 20
3.9563110236220473
 30
0.0
 10
3.1971692913385827
 20
3.9563110236220473
 30
0.0
 10
3.1971692913385827
 20
4.7063110236220478
 30
0.0
 10
3.1971692913385827
 20
4.7063110236220478
 30
0.0
 10
3.1971692913385827
 20
4.7063110236220478
 30
0.0
 10
3.1971692913385827
 20
4.7063110236220478
 30
0.0
 10
1.6971692913385827
 20
4.7063110236220478
 30
0.0
 10
1.6971692913385827
 20
4.7063110236220478
 30
0.0
 10
1.6971692913385827
 20
4.7063110236220478
 30
0.0
 10
1.6971692913385827
 20
4.7063110236220478
 30
0.0
 10
1.6971692913385827
 20
1.2063110236220473
 30
0.0
 10
1.6971692913385827
 20
1.2063110236220473
 30
0.0
 10
1.6971692913385827
 20
1.2063110236220473
 30
0.0
 10
1.6971692913385827
 20
1.2063110236220473
 30
0.0
 10
2.6971692913385827
 20
1.2063110236220473
 30
0.0
 10
2.6971692913385827
 20
1.2063110236220473
 30
0.0
 10
2.6971692913385827
 20
1.2063110236220473
 30
0.0
 10
2.6971692913385827
 20
1.2063110236220473
 30
0.0
 10
2.6971692913385827
 20
3.4563110236220473
 30
0.0
 10
2.6971692913385827
 20
3.4563110236220473
 30
0.0
  0
SPLINE
  5
26
100
AcDbEntity
  8
Additional Graphics
 62
     9
100
AcDbSpline
210
0.0
220
0.0
230
1.0
 70
     1
 71
     3
 72
    20
 73
    16
 74
     0
 42
0.0000000001
 43
0.0000000001
 40
0.0
 40
0.0
 40
0.0
 40
0.0
 40
0.25
 40
0.25
 40
0.25
 40
0.25
 40
0.5
 40
0.5
 40
0.5
 40
0.5
 40
0.75
 40
0.75
 40
0.75
 40
0.75
 40
1.0
 40
1.0
 40
1.0
 40
1.0
 10
-0.9108267716535433
 20
3.7654685039370079
 30
0.0
 10
-0.9108267716535433
 20
3.7654685039370079
 30
0.0
 10
-0.2513070866141732
 20
3.375511811023622
 30
0.0
 10
-0.2513070866141732
 20
3.375511811023622
 30
0.0
 10
-0.2513070866141732
 20
3.375511811023622
 30
0.0
 10
-0.2513070866141732
 20
3.375511811023622
 30
0.0
 10
-0.2506535433070866
 20
3.4012322834645672
 30
0.0
 10
-0.2506535433070866
 20
3.4012322834645672
 30
0.0
 10
-0.2506535433070866
 20
3.4012322834645672
 30
0.0
 10
-0.2506535433070866
 20
3.4012322834645672
 30
0.0
 10
-0.9101732283464568
 20
3.7911889763779527
 30
0.0
 10
-0.9101732283464568
 20
3.7911889763779527
 30
0.0
 10
-0.9101732283464568
 20
3.7911889763779527
 30
0.0
 10
-0.9101732283464568
 20
3.7911889763779527
 30
0.0
 10
-0.9108267716535433
 20
3.7654685039370079
 30
0.0
 10
-0.9108267716535433
 20
3.7654685039370079
 30
0.0
  0
SPLINE
  5
27
100
AcDbEntity
  8
Additional Graphics
 62
     9
100
AcDbSpline
210
0.0
220
0.0
230
1.0
 70
     1
 71
     3
 72
    20
 73
    16
 74
     0
 42
0.0000000001
 43
0.0000000001
 40
0.0
 40
0.0
 40
0.0
 40
0.0
 40
0.25
 40
0.25
 40
0.25
 40
0.25
 40
0.5
 40
0.5
 40
0.5
 40
0.5
 40
0.75
 40
0.75
 40
0.75
 40
0.75
 40
1.0
 40
1.0
 40
1.0
 40
1.0
 10
-0.9101732283464568
 20
3.7911889763779527
 30
0.0
 10
-0.9101732283464568
 20
3.7911889763779527
 30
0.0
 10
-0.2506535433070866
 20
3.4012322834645672
 30
0.0
 10
-0.2506535433070866
 20
3.4012322834645672
 30
0.0
 10
-0.2506535433070866
 20
3.4012322834645672
 30
0.0
 10
-0.2506535433070866
 20
3.4012322834645672
 30
0.0
 10
-0.2487204724409449
 20
3.4266220472440945
 30
0.0
 10
-0.2487204724409449
 20
3.4266220472440945
 30
0.0
 10
-0.2487204724409449
 20
3.4266220472440945
 30
0.0
 10
-0.2487204724409449
 20
3.4266220472440945
 30
0.0
 10
-0.908240157480315
 20
3.8165787401574804
 30
0.0
 10
-0.908240157480315
 20
3.8165787401574804
 30
0.0
 10
-0.908240157480315
 20
3.8165787401574804
 30
0.0
 10
-0.908240157480315
 20
3.8165787401574804
 30
0.0
 10
-0.9101732283464568
 20
3.7911889763779527
 30
0.0
 10
-0.9101732283464568
 20
3.7911889763779527
 30
0.0
  0
SPLINE
  5
28
100
AcDbEntity
  8
Additional Graphics
 62
     9
100
AcDbSpline
210
0.0
220
0.0
230
1.0
 70
     1
 71
     3
 72
    20
 73
    16
 74
     0
 42
0.0000000001
 43
0.0000000001
 40
0.0
 40
0.0
 40
0.0
 40
0.0
 40
0.25
 40
0.25
 40
0.25
 40
0.25
 40
0.5
 40
0.5
 40
0.5
 40
0.5
 40
0.75
 40
0.75
 40
0.75
 40
0.75
 40
1.0
 40
1.0
 40
1.0
 40
1.0
 10
-0.908240157480315
 20
3.8165787401574804
 30
0.0
 10
-0.908240157480315
 20
3.8165787401574804
 30
0.0
 10
-0.2487204724409449
 20
3.4266220472440945
 30
0.0
 10
-0.2487204724409449
 20
3.4266220472440945
 30
0.0
 10
-0.2487204724409449
 20
3.4266220472440945
 30
0.0
 10
-0.2487204724409449
 20
3.4266220472440945
 30
0.0
 10
-0.2455354330708661
 20
3.4516377952755906
 30
0.0
 10
-0.2455354330708661
 20
3.4516377952755906
 30
0.0
 10
-0.2455354330708661
 20
3.4516377952755906
 30
0.0
 10
-0.2455354330708661
 20
3.4516377952755906
 30
0.0
 10
-0.9050551181102362
 20
3.8415944881889765
 30
0.0
 10
-0.9050551181102362
 20
3.8415944881889765
 30
0.0
 10
-0.9050551181102362
 20
3.8415944881889765
 30
0.0
 10
-0.9050551181102362
 20
3.8415944881889765
 30
0.0
 10
-0.908240157480315
 20
3.8165787401574804
 30
0.0
 10
-0.908240157480315
 20
3.8165787401574804
 30
0.0
  0
SPLINE
  5
29
100
AcDbEntity
  8
Additional Graphics
 62
     9
100
AcDbSpline
210
0.0
220
0.0
230
1.0
 70
     1
 71
     3
 72
    28
 73
    24
 74
     0
 42
0.0000000001
 43
0.0000000001
 40
0.0
 40
0.0
 40
0.0
 40
0.0
 40
0.1666666666666667
 40
0.1666666666666667
 40
0.1666666666666667
 40
0.1666666666666667
 40
0.3333333333333333
 40
0.3333333333333333
 40
0.3333333333333333
 40
0.3333333333333333
 40
0.5
 40
0.5
 40
0.5
 40
0.5
 40
0.6666666666666666
 40
0.6666666666666666
 40
0.6666666666666666
 40
0.6666666666666666
 40
0.8333333333333333
 40
0.8333333333333333
 40
0.8333333333333333
 40
0.8333333333333333
 40
1.0
 40
1.0
 40
1.0
 40
1.0
 10
-0.9050551181102362
 20
3.8415944881889765
 30
0.0
 10
-0.9050551181102362
 20
3.8415944881889765
 30
0.0
 10
-0.2455354330708661
 20
3.4516377952755906
 30
0.0
 10
-0.2455354330708661
 20
3.4516377952755906
 30
0.0
 10
-0.2455354330708661
 20
3.4516377952755906
 30
0.0
 10
-0.2455354330708661
 20
3.4516377952755906
 30
0.0
 10
-0.2411417322834646
 20
3.4762598425196853
 30
0.0
 10
-0.2411417322834646
 20
3.4762598425196853
 30
0.0
 10
-0.2411417322834646
 20
3.4762598425196853
 30
0.0
 10
-0.2411417322834646
 20
3.4762598425196853
 30
0.0
 10
-0.2355551181102362
 20
3.5004448818897638
 30
0.0
 10
-0.2355551181102362
 20
3.5004448818897638
 30
0.0
 10
-0.2355551181102362
 20
3.5004448818897638
 30
0.0
 10
-0.2355551181102362
 20
3.5004448818897638
 30
0.0
 10
-0.8950748031496063
 20
3.8904015748031497
 30
0.0
 10
-0.8950748031496063
 20
3.8904015748031497
 30
0.0
 10
-0.8950748031496063
 20
3.8904015748031497
 30
0.0
 10
-0.8950748031496063
 20
3.8904015748031497
 30
0.0
 10
-0.9006614173228347
 20
3.8662165354330709
 30
0.0
 10
-0.9006614173228347
 20
3.8662165354330709
 30
0.0
 10
-0.9006614173228347
 20
3.8662165354330709
 30
0.0
 10
-0.9006614173228347
 20
3.8662165354330709
 30
0.0
 10
-0.9050551181102362
 20
3.8415944881889765
 30
0.0
 10
-0.9050551181102362
 20
3.8415944881889765
 30
0.0
  0
SPLINE
  5
2A
100
AcDbEntity
  8
Additional Graphics
 62
     9
100
AcDbSpline
210
0.0
220
0.0
230
1.0
 70
     1
 71
     3
 72
    28
 73
    24
 74
     0
 42
0.0000000001
 43
0.0000000001
 40
0.0
 40
0.0
 40
0.0
 40
0.0
 40
0.1666666666666667
 40
0.1666666666666667
 40
0.1666666666666667
 40
0.1666666666666667
 40
0.3333333333333333
 40
0.3333333333333333
 40
0.3333333333333333
 40
0.3333333333333333
 40
0.5
 40
0.5
 40
0.5
 40
0.5
 40
0.6666666666666666
 40
0.6666666666666666
 40
0.6666666666666666
 40
0.6666666666666666
 40
0.8333333333333333
 40
0.8333333333333333
 40
0.8333333333333333
 40
0.8333333333333333
 40
1.0
 40
1.0
 40
1.0
 40
1.0
 10
-0.8950748031496063
 20
3.8904015748031497
 30
0.0
 10
-0.8950748031496063
 20
3.8904015748031497
 30
0.0
 10
-0.2355551181102362
 20
3.5004448818897638
 30
0.0
 10
-0.2355551181102362
 20
3.5004448818897638
 30
0.0
 10
-0.2355551181102362
 20
3.5004448818897638
 30
0.0
 10
-0.2355551181102362
 20
3.5004448818897638
 30
0.0
 10
-0.2288188976377953
 20
3.5241692913385827
 30
0.0
 10
-0.2288188976377953
 20
3.5241692913385827
 30
0.0
 10
-0.2288188976377953
 20
3.5241692913385827
 30
0.0
 10
-0.2288188976377953
 20
3.5241692913385827
 30
0.0
 10
-0.2209527559055118
 20
3.5473976377952758
 30
0.0
 10
-0.2209527559055118
 20
3.5473976377952758
 30
0.0
 10
-0.2209527559055118
 20
3.5473976377952758
 30
0.0
 10
-0.2209527559055118
 20
3.5473976377952758
 30
0.0
 10
-0.880472440944882
 20
3.9373543307086614
 30
0.0
 10
-0.880472440944882
 20
3.9373543307086614
 30
0.0
 10
-0.880472440944882
 20
3.9373543307086614
 30
0.0
 10
-0.880472440944882
 20
3.9373543307086614
 30
0.0
 10
-0.8883385826771654
 20
3.9141259842519687
 30
0.0
 10
-0.8883385826771654
 20
3.9141259842519687
 30
0.0
 10
-0.8883385826771654
 20
3.9141259842519687
 30
0.0
 10
-0.8883385826771654
 20
3.9141259842519687
 30
0.0
 10
-0.8950748031496063
 20
3.8904015748031497
 30
0.0
 10
-0.8950748031496063
 20
3.8904015748031497
 30
0.0
  0
SPLINE
  5
2B
100
AcDbEntity
  8
Additional Graphics
 62
     9
100
AcDbSpline
210
0.0
220
0.0
230
1.0
 70
     1
 71
     3
 72
    28
 73
    24
 74
     0
 42
0.0000000001
 43
0.0000000001
 40
0.0
 40
0.0
 40
0.0
 40
0.0
 40
0.1666666666666667
 40
0.1666666666666667
 40
0.1666666666666667
 40
0.1666666666666667
 40
0.3333333333333333
 40
0.3333333333333333
 40
0.3333333333333333
 40
0.3333333333333333
 40
0.5
 40
0.5
 40
0.5
 40
0.5
 40
0.6666666666666666
 40
0.6666666666666666
 40
0.6666666666666666
 40
0.6666666666666666
 40
0.8333333333333333
 40
0.8333333333333333
 40
0.8333333333333333
 40
0.8333333333333333
 40
1.0
 40
1.0
 40
1.0
 40
1.0
 10
-0.880472440944882
 20
3.9373543307086614
 30
0.0
 10
-0.880472440944882
 20
3.9373543307086614
 30
0.0
 10
-0.2209527559055118
 20
3.5473976377952758
 30
0.0
 10
-0.2209527559055118
 20
3.5473976377952758
 30
0.0
 10
-0.2209527559055118
 20
3.5473976377952758
 30
0.0
 10
-0.2209527559055118
 20
3.5473976377952758
 30
0.0
 10
-0.212003937007874
 20
3.5701102362204726
 30
0.0
 10
-0.212003937007874
 20
3.5701102362204726
 30
0.0
 10
-0.212003937007874
 20
3.5701102362204726
 30
0.0
 10
-0.212003937007874
 20
3.5701102362204726
 30
0.0
 10
-0.201984251968504
 20
3.5922519685039371
 30
0.0
 10
-0.201984251968504
 20
3.5922519685039371
 30
0.0
 10
-0.201984251968504
 20
3.5922519685039371
 30
0.0
 10
-0.201984251968504
 20
3.5922519685039371
 30
0.0
 10
-0.8615039370078741
 20
3.9822086614173231
 30
0.0
 10
-0.8615039370078741
 20
3.9822086614173231
 30
0.0
 10
-0.8615039370078741
 20
3.9822086614173231
 30
0.0
 10
-0.8615039370078741
 20
3.9822086614173231
 30
0.0
 10
-0.8715236220472441
 20
3.9600669291338586
 30
0.0
 10
-0.8715236220472441
 20
3.9600669291338586
 30
0.0
 10
-0.8715236220472441
 20
3.9600669291338586
 30
0.0
 10
-0.8715236220472441
 20
3.9600669291338586
 30
0.0
 10
-0.880472440944882
 20
3.9373543307086614
 30
0.0
 10
-0.880472440944882
 20
3.9373543307086614
 30
0.0
  0
SPLINE
  5
2C
100
AcDbEntity
  8
Additional Graphics
 62
     9
100
AcDbSpline
210
0.0
220
0.0
230
1.0
 70
     1
 71
     3
 72
    28
 73
    24
 74
     0
 42
0.0000000001
 43
0.0000000001
 40
0.0
 40
0.0
 40
0.0
 40
0.0
 40
0.1666666666666667
 40
0.1666666666666667
 40
0.1666666666666667
 40
0.1666666666666667
 40
0.3333333333333333
 40
0.3333333333333333
 40
0.3333333333333333
 40
0.3333333333333333
 40
0.5
 40
0.5
 40
0.5
 40
0.5
 40
0.6666666666666666
 40
0.6666666666666666
 40
0.6666666666666666
 40
0.6666666666666666
 40
0.8333333333333333
 40
0.8333333333333333
 40
0.8333333333333333
 40
0.8333333333333333
 40
1.0
 40
1.0
 40
1.0
 40
1.0
 10
-0.8615039370078741
 20
3.9822086614173231
 30
0.0
 10
-0.8615039370078741
 20
3.9822086614173231
 30
0.0
 10
-0.201984251968504
 20
3.5922519685039371
 30
0.0
 10
-0.201984251968504
 20
3.5922519685039371
 30
0.0
 10
-0.201984251968504
 20
3.5922519685039371
 30
0.0
 10
-0.201984251968504
 20
3.5922519685039371
 30
0.0
 10
-0.1909409448818898
 20
3.6138149606299215
 30
0.0
 10
-0.1909409448818898
 20
3.6138149606299215
 30
0.0
 10
-0.1909409448818898
 20
3.6138149606299215
 30
0.0
 10
-0.1909409448818898
 20
3.6138149606299215
 30
0.0
 10
-0.1788976377952756
 20
3.6347519685039371
 30
0.0
 10
-0.1788976377952756
 20
3.6347519685039371
 30
0.0
 10
-0.1788976377952756
 20
3.6347519685039371
 30
0.0
 10
-0.1788976377952756
 20
3.6347519685039371
 30
0.0
 10
-0.8384173228346457
 20
4.0247086614173231
 30
0.0
 10
-0.8384173228346457
 20
4.0247086614173231
 30
0.0
 10
-0.8384173228346457
 20
4.0247086614173231
 30
0.0
 10
-0.8384173228346457
 20
4.0247086614173231
 30
0.0
 10
-0.8504606299212599
 20
4.003771653543307
 30
0.0
 10
-0.8504606299212599
 20
4.003771653543307
 30
0.0
 10
-0.8504606299212599
 20
4.003771653543307
 30
0.0
 10
-0.8504606299212599
 20
4.003771653543307
 30
0.0
 10
-0.8615039370078741
 20
3.9822086614173231
 30
0.0
 10
-0.8615039370078741
 20
3.9822086614173231
 30
0.0
  0
SPLINE
  5
2D
100
AcDbEntity
  8
Additional Graphics
 62
     9
100
AcDbSpline
210
0.0
220
0.0
230
1.0
 70
     1
 71
     3
 72
    28
 73
    24
 74
     0
 42
0.0000000001
 43
0.0000000001
 40
0.0
 40
0.0
 40
0.0
 40
0.0
 40
0.1666666666666667
 40
0.1666666666666667
 40
0.1666666666666667
 40
0.1666666666666667
 40
0.3333333333333333
 40
0.3333333333333333
 40
0.3333333333333333
 40
0.3333333333333333
 40
0.5
 40
0.5
 40
0.5
 40
0.5
 40
0.6666666666666666
 40
0.6666666666666666
 40
0.6666666666666666
 40
0.6666666666666666
 40
0.8333333333333333
 40
0.8333333333333333
 40
0.8333333333333333
 40
0.8333333333333333
 40
1.0
 40
1.0
 40
1.0
 40
1.0
 10
-0.8384173228346457
 20
4.0247086614173231
 30
0.0
 10
-0.8384173228346457
 20
4.0247086614173231
 30
0.0
 10
-0.1788976377952756
 20
3.6347519685039371
 30
0.0
 10
-0.1788976377952756
 20
3.6347519685039371
 30
0.0
 10
-0.1788976377952756
 20
3.6347519685039371
 30
0.0
 10
-0.1788976377952756
 20
3.6347519685039371
 30
0.0
 10
-0.1658976377952756
 20
3.6550433070866144
 30
0.0
 10
-0.1658976377952756
 20
3.6550433070866144
 30
0.0
 10
-0.1658976377952756
 20
3.6550433070866144
 30
0.0
 10
-0.1658976377952756
 20
3.6550433070866144
 30
0.0
 10
-0.1519566929133858
 20
3.6746456692913387
 30
0.0
 10
-0.1519566929133858
 20
3.6746456692913387
 30
0.0
 10
-0.1519566929133858
 20
3.6746456692913387
 30
0.0
 10
-0.1519566929133858
 20
3.6746456692913387
 30
0.0
 10
-0.811476377952756
 20
4.0646023622047247
 30
0.0
 10
-0.811476377952756
 20
4.0646023622047247
 30
0.0
 10
-0.811476377952756
 20
4.0646023622047247
 30
0.0
 10
-0.811476377952756
 20
4.0646023622047247
 30
0.0
 10
-0.8254173228346458
 20
4.0449999999999999
 30
0.0
 10
-0.8254173228346458
 20
4.0449999999999999
 30
0.0
 10
-0.8254173228346458
 20
4.0449999999999999
 30
0.0
 10
-0.8254173228346458
 20
4.0449999999999999
 30
0.0
 10
-0.8384173228346457
 20
4.0247086614173231
 30
0.0
 10
-0.8384173228346457
 20
4.0247086614173231
 30
0.0
  0
SPLINE
  5
2E
100
AcDbEntity
  8
Additional Graphics
 62
     9
100
AcDbSpline
210
0.0
220
0.0
230
1.0
 70
     1
 71
     3
 72
    28
 73
    24
 74
     0
 42
0.0000000001
 43
0.0000000001
 40
0.0
 40
0.0
 40
0.0
 40
0.0
 40
0.1666666666666667
 40
0.1666666666666667
 40
0.1666666666666667
 40
0.1666666666666667
 40
0.3333333333333333
 40
0.3333333333333333
 40
0.3333333333333333
 40
0.3333333333333333
 40
0.5
 40
0.5
 40
0.5
 40
0.5
 40
0.6666666666666666
 40
0.6666666666666666
 40
0.6666666666666666
 40
0.6666666666666666
 40
0.8333333333333333
 40
0.8333333333333333
 40
0.8333333333333333
 40
0.8333333333333333
 40
1.0
 40
1.0
 40
1.0
 40
1.0
 10
-0.811476377952756
 20
4.0646023622047247
 30
0.0
 10
-0.811476377952756
 20
4.0646023622047247
 30
0.0
 10
-0.1519566929133858
 20
3.6746456692913387
 30
0.0
 10
-0.1519566929133858
 20
3.6746456692913387
 30
0.0
 10
-0.1519566929133858
 20
3.6746456692913387
 30
0.0
 10
-0.1519566929133858
 20
3.6746456692913387
 30
0.0
 10
-0.1371141732283465
 20
3.6935354330708661
 30
0.0
 10
-0.1371141732283465
 20
3.6935354330708661
 30
0.0
 10
-0.1371141732283465
 20
3.6935354330708661
 30
0.0
 10
-0.1371141732283465
 20
3.6935354330708661
 30
0.0
 10
-0.1213976377952756
 20
3.711677165354331
 30
0.0
 10
-0.1213976377952756
 20
3.711677165354331
 30
0.0
 10
-0.1213976377952756
 20
3.711677165354331
 30
0.0
 10
-0.1213976377952756
 20
3.711677165354331
 30
0.0
 10
-0.7809173228346457
 20
4.101633858267717
 30
0.0
 10
-0.7809173228346457
 20
4.101633858267717
 30
0.0
 10
-0.7809173228346457
 20
4.101633858267717
 30
0.0
 10
-0.7809173228346457
 20
4.101633858267717
 30
0.0
 10
-0.7966338582677166
 20
4.083492125984252
 30
0.0
 10
-0.7966338582677166
 20
4.083492125984252
 30
0.0
 10
-0.7966338582677166
 20
4.083492125984252
 30
0.0
 10
-0.7966338582677166
 20
4.083492125984252
 30
0.0
 10
-0.811476377952756
 20
4.0646023622047247
 30
0.0
 10
-0.811476377952756
 20
4.0646023622047247
 30
0.0
  0
SPLINE
  5
2F
100
AcDbEntity
  8
Additional Graphics
 62
     9
100
AcDbSpline
210
0.0
220
0.0
230
1.0
 70
     1
 71
     3
 72
    28
 73
    24
 74
     0
 42
0.0000000001
 43
0.0000000001
 40
0.0
 40
0.0
 40
0.0
 40
0.0
 40
0.1666666666666667
 40
0.1666666666666667
 40
0.1666666666666667
 40
0.1666666666666667
 40
0.3333333333333333
 40
0.3333333333333333
 40
0.3333333333333333
 40
0.3333333333333333
 40
0.5
 40
0.5
 40
0.5
 40
0.5
 40
0.6666666666666666
 40
0.6666666666666666
 40
0.6666666666666666
 40
0.6666666666666666
 40
0.8333333333333333
 40
0.8333333333333333
 40
0.8333333333333333
 40
0.8333333333333333
 40
1.0
 40
1.0
 40
1.0
 40
1.0
 10
-0.7809173228346457
 20
4.101633858267717
 30
0.0
 10
-0.7809173228346457
 20
4.101633858267717
 30
0.0
 10
-0.1213976377952756
 20
3.711677165354331
 30
0.0
 10
-0.1213976377952756
 20
3.711677165354331
 30
0.0
 10
-0.1213976377952756
 20
3.711677165354331
 30
0.0
 10
-0.1213976377952756
 20
3.711677165354331
 30
0.0
 10
-0.1048425196850394
 20
3.7290472440944882
 30
0.0
 10
-0.1048425196850394
 20
3.7290472440944882
 30
0.0
 10
-0.1048425196850394
 20
3.7290472440944882
 30
0.0
 10
-0.1048425196850394
 20
3.7290472440944882
 30
0.0
 10
-0.0874724409448819
 20
3.7456023622047248
 30
0.0
 10
-0.0874724409448819
 20
3.7456023622047248
 30
0.0
 10
-0.0874724409448819
 20
3.7456023622047248
 30
0.0
 10
-0.0874724409448819
 20
3.7456023622047248
 30
0.0
 10
-0.746992125984252
 20
4.1355590551181107
 30
0.0
 10
-0.746992125984252
 20
4.1355590551181107
 30
0.0
 10
-0.746992125984252
 20
4.1355590551181107
 30
0.0
 10
-0.746992125984252
 20
4.1355590551181107
 30
0.0
 10
-0.7643622047244095
 20
4.1190039370078741
 30
0.0
 10
-0.7643622047244095
 20
4.1190039370078741
 30
0.0
 10
-0.7643622047244095
 20
4.1190039370078741
 30
0.0
 10
-0.7643622047244095
 20
4.1190039370078741
 30
0.0
 10
-0.7809173228346457
 20
4.101633858267717
 30
0.0
 10
-0.7809173228346457
 20
4.101633858267717
 30
0.0
  0
SPLINE
  5
30
100
AcDbEntity
  8
Additional Graphics
 62
     9
100
AcDbSpline
210
0.0
220
0.0
230
1.0
 70
     1
 71
     3
 72
    28
 73
    24
 74
     0
 42
0.0000000001
 43
0.0000000001
 40
0.0
 40
0.0
 40
0.0
 40
0.0
 40
0.1666666666666667
 40
0.1666666666666667
 40
0.1666666666666667
 40
0.1666666666666667
 40
0.3333333333333333
 40
0.3333333333333333
 40
0.3333333333333333
 40
0.3333333333333333
 40
0.5
 40
0.5
 40
0.5
 40
0.5
 40
0.6666666666666666
 40
0.6666666666666666
 40
0.6666666666666666
 40
0.6666666666666666
 40
0.8333333333333333
 40
0.8333333333333333
 40
0.8333333333333333
 40
0.8333333333333333
 40
1.0
 40
1.0
 40
1.0
 40
1.0
 10
-0.746992125984252
 20
4.1355590551181107
 30
0.0
 10
-0.746992125984252
 20
4.1355590551181107
 30
0.0
 10
-0.0874724409448819
 20
3.7456023622047248
 30
0.0
 10
-0.0874724409448819
 20
3.7456023622047248
 30
0.0
 10
-0.0874724409448819
 20
3.7456023622047248
 30
0.0
 10
-0.0874724409448819
 20
3.7456023622047248
 30
0.0
 10
-0.0693307086614173
 20
3.7613188976377954
 30
0.0
 10
-0.0693307086614173
 20
3.7613188976377954
 30
0.0
 10
-0.0693307086614173
 20
3.7613188976377954
 30
0.0
 10
-0.0693307086614173
 20
3.7613188976377954
 30
0.0
 10
-0.0504409448818898
 20
3.7761614173228346
 30
0.0
 10
-0.0504409448818898
 20
3.7761614173228346
 30
0.0
 10
-0.0504409448818898
 20
3.7761614173228346
 30
0.0
 10
-0.0504409448818898
 20
3.7761614173228346
 30
0.0
 10
-0.7099606299212599
 20
4.166118110236221
 30
0.0
 10
-0.7099606299212599
 20
4.166118110236221
 30
0.0
 10
-0.7099606299212599
 20
4.166118110236221
 30
0.0
 10
-0.7099606299212599
 20
4.166118110236221
 30
0.0
 10
-0.7288503937007874
 20
4.1512755905511813
 30
0.0
 10
-0.7288503937007874
 20
4.1512755905511813
 30
0.0
 10
-0.7288503937007874
 20
4.1512755905511813
 30
0.0
 10
-0.7288503937007874
 20
4.1512755905511813
 30
0.0
 10
-0.746992125984252
 20
4.1355590551181107
 30
0.0
 10
-0.746992125984252
 20
4.1355590551181107
 30
0.0
  0
SPLINE
  5
31
100
AcDbEntity
  8
Additional Graphics
 62
     9
100
AcDbSpline
210
0.0
220
0.0
230
1.0
 70
     1
 71
     3
 72
    28
 73
    24
 74
     0
 42
0.0000000001
 43
0.0000000001
 40
0.0
 40
0.0
 40
0.0
 40
0.0
 40
0.1666666666666667
 40
0.1666666666666667
 40
0.1666666666666667
 40
0.1666666666666667
 40
0.3333333333333333
 40
0.3333333333333333
 40
0.3333333333333333
 40
0.3333333333333333
 40
0.5
 40
0.5
 40
0.5
 40
0.5
 40
0.6666666666666666
 40
0.6666666666666666
 40
0.6666666666666666
 40
0.6666666666666666
 40
0.8333333333333333
 40
0.8333333333333333
 40
0.8333333333333333
 40
0.8333333333333333
 40
1.0
 40
1.0
 40
1.0
 40
1.0
 10
-0.7099606299212599
 20
4.166118110236221
 30
0.0
 10
-0.7099606299212599
 20
4.166118110236221
 30
0.0
 10
-0.0504409448818898
 20
3.7761614173228346
 30
0.0
 10
-0.0504409448818898
 20
3.7761614173228346
 30
0.0
 10
-0.0504409448818898
 20
3.7761614173228346
 30
0.0
 10
-0.0504409448818898
 20
3.7761614173228346
 30
0.0
 10
-0.0308385826771654
 20
3.7901023622047245
 30
0.0
 10
-0.0308385826771654
 20
3.7901023622047245
 30
0.0
 10
-0.0308385826771654
 20
3.7901023622047245
 30
0.0
 10
-0.0308385826771654
 20
3.7901023622047245
 30
0.0
 10
-0.0105472440944882
 20
3.8031023622047244
 30
0.0
 10
-0.0105472440944882
 20
3.8031023622047244
 30
0.0
 10
-0.0105472440944882
 20
3.8031023622047244
 30
0.0
 10
-0.0105472440944882
 20
3.8031023622047244
 30
0.0
 10
-0.6700669291338584
 20
4.1930590551181108
 30
0.0
 10
-0.6700669291338584
 20
4.1930590551181108
 30
0.0
 10
-0.6700669291338584
 20
4.1930590551181108
 30
0.0
 10
-0.6700669291338584
 20
4.1930590551181108
 30
0.0
 10
-0.6903582677165354
 20
4.18005905511811
 30
0.0
 10
-0.6903582677165354
 20
4.18005905511811
 30
0.0
 10
-0.6903582677165354
 20
4.18005905511811
 30
0.0
 10
-0.6903582677165354
 20
4.18005905511811
 30
0.0
 10
-0.7099606299212599
 20
4.166118110236221
 30
0.0
 10
-0.7099606299212599
 20
4.166118110236221
 30
0.0
  0
SPLINE
  5
32
100
AcDbEntity
  8
Additional Graphics
 62
     9
100
AcDbSpline
210
0.0
220
0.0
230
1.0
 70
     1
 71
     3
 72
    28
 73
    24
 74
     0
 42
0.0000000001
 43
0.0000000001
 40
0.0
 40
0.0
 40
0.0
 40
0.0
 40
0.1666666666666667
 40
0.1666666666666667
 40
0.1666666666666667
 40
0.1666666666666667
 40
0.3333333333333333
 40
0.3333333333333333
 40
0.3333333333333333
 40
0.3333333333333333
 40
0.5
 40
0.5
 40
0.5
 40
0.5
 40
0.6666666666666666
 40
0.6666666666666666
 40
0.6666666666666666
 40
0.6666666666666666
 40
0.8333333333333333
 40
0.8333333333333333
 40
0.8333333333333333
 40
0.8333333333333333
 40
1.0
 40
1.0
 40
1.0
 40
1.0
 10
-0.6700669291338584
 20
4.1930590551181108
 30
0.0
 10
-0.6700669291338584
 20
4.1930590551181108
 30
0.0
 10
-0.0105472440944882
 20
3.8031023622047244
 30
0.0
 10
-0.0105472440944882
 20
3.8031023622047244
 30
0.0
 10
-0.0105472440944882
 20
3.8031023622047244
 30
0.0
 10
-0.0105472440944882
 20
3.8031023622047244
 30
0.0
 10
0.0103897637795276
 20
3.8151456692913386
 30
0.0
 10
0.0103897637795276
 20
3.8151456692913386
 30
0.0
 10
0.0103897637795276
 20
3.8151456692913386
 30
0.0
 10
0.0103897637795276
 20
3.8151456692913386
 30
0.0
 10
0.0319527559055118
 20
3.8261889763779529
 30
0.0
 10
0.0319527559055118
 20
3.8261889763779529
 30
0.0
 10
0.0319527559055118
 20
3.8261889763779529
 30
0.0
 10
0.0319527559055118
 20
3.8261889763779529
 30
0.0
 10
-0.6275669291338583
 20
4.2161456692913388
 30
0.0
 10
-0.6275669291338583
 20
4.2161456692913388
 30
0.0
 10
-0.6275669291338583
 20
4.2161456692913388
 30
0.0
 10
-0.6275669291338583
 20
4.2161456692913388
 30
0.0
 10
-0.6491299212598426
 20
4.205102362204725
 30
0.0
 10
-0.6491299212598426
 20
4.205102362204725
 30
0.0
 10
-0.6491299212598426
 20
4.205102362204725
 30
0.0
 10
-0.6491299212598426
 20
4.205102362204725
 30
0.0
 10
-0.6700669291338584
 20
4.1930590551181108
 30
0.0
 10
-0.6700669291338584
 20
4.1930590551181108
 30
0.0
  0
SPLINE
  5
33
100
AcDbEntity
  8
Additional Graphics
 62
     9
100
AcDbSpline
210
0.0
220
0.0
230
1.0
 70
     1
 71
     3
 72
    28
 73
    24
 74
     0
 42
0.0000000001
 43
0.0000000001
 40
0.0
 40
0.0
 40
0.0
 40
0.0
 40
0.1666666666666667
 40
0.1666666666666667
 40
0.1666666666666667
 40
0.1666666666666667
 40
0.3333333333333333
 40
0.3333333333333333
 40
0.3333333333333333
 40
0.3333333333333333
 40
0.5
 40
0.5
 40
0.5
 40
0.5
 40
0.6666666666666666
 40
0.6666666666666666
 40
0.6666666666666666
 40
0.6666666666666666
 40
0.8333333333333333
 40
0.8333333333333333
 40
0.8333333333333333
 40
0.8333333333333333
 40
1.0
 40
1.0
 40
1.0
 40
1.0
 10
-0.6275669291338583
 20
4.2161456692913388
 30
0.0
 10
-0.6275669291338583
 20
4.2161456692913388
 30
0.0
 10
0.0319527559055118
 20
3.8261889763779529
 30
0.0
 10
0.0319527559055118
 20
3.8261889763779529
 30
0.0
 10
0.0319527559055118
 20
3.8261889763779529
 30
0.0
 10
0.0319527559055118
 20
3.8261889763779529
 30
0.0
 10
0.0540944881889764
 20
3.8362086614173232
 30
0.0
 10
0.0540944881889764
 20
3.8362086614173232
 30
0.0
 10
0.0540944881889764
 20
3.8362086614173232
 30
0.0
 10
0.0540944881889764
 20
3.8362086614173232
 30
0.0
 10
0.0768070866141732
 20
3.8451574803149606
 30
0.0
 10
0.0768070866141732
 20
3.8451574803149606
 30
0.0
 10
0.0768070866141732
 20
3.8451574803149606
 30
0.0
 10
0.0768070866141732
 20
3.8451574803149606
 30
0.0
 10
-0.5827125984251969
 20
4.2351141732283466
 30
0.0
 10
-0.5827125984251969
 20
4.2351141732283466
 30
0.0
 10
-0.5827125984251969
 20
4.2351141732283466
 30
0.0
 10
-0.5827125984251969
 20
4.2351141732283466
 30
0.0
 10
-0.6054251968503938
 20
4.2261653543307087
 30
0.0
 10
-0.6054251968503938
 20
4.2261653543307087
 30
0.0
 10
-0.6054251968503938
 20
4.2261653543307087
 30
0.0
 10
-0.6054251968503938
 20
4.2261653543307087
 30
0.0
 10
-0.6275669291338583
 20
4.2161456692913388
 30
0.0
 10
-0.6275669291338583
 20
4.2161456692913388
 30
0.0
  0
SPLINE
  5
34
100
AcDbEntity
  8
Additional Graphics
 62
     9
100
AcDbSpline
210
0.0
220
0.0
230
1.0
 70
     1
 71
     3
 72
    28
 73
    24
 74
     0
 42
0.0000000001
 43
0.0000000001
 40
0.0
 40
0.0
 40
0.0
 40
0.0
 40
0.1666666666666667
 40
0.1666666666666667
 40
0.1666666666666667
 40
0.1666666666666667
 40
0.3333333333333333
 40
0.3333333333333333
 40
0.3333333333333333
 40
0.3333333333333333
 40
0.5
 40
0.5
 40
0.5
 40
0.5
 40
0.6666666666666666
 40
0.6666666666666666
 40
0.6666666666666666
 40
0.6666666666666666
 40
0.8333333333333333
 40
0.8333333333333333
 40
0.8333333333333333
 40
0.8333333333333333
 40
1.0
 40
1.0
 40
1.0
 40
1.0
 10
-0.5827125984251969
 20
4.2351141732283466
 30
0.0
 10
-0.5827125984251969
 20
4.2351141732283466
 30
0.0
 10
0.0768070866141732
 20
3.8451574803149606
 30
0.0
 10
0.0768070866141732
 20
3.8451574803149606
 30
0.0
 10
0.0768070866141732
 20
3.8451574803149606
 30
0.0
 10
0.0768070866141732
 20
3.8451574803149606
 30
0.0
 10
0.1000354330708661
 20
3.8530236220472442
 30
0.0
 10
0.1000354330708661
 20
3.8530236220472442
 30
0.0
 10
0.1000354330708661
 20
3.8530236220472442
 30
0.0
 10
0.1000354330708661
 20
3.8530236220472442
 30
0.0
 10
0.123759842519685
 20
3.8597598425196851
 30
0.0
 10
0.123759842519685
 20
3.8597598425196851
 30
0.0
 10
0.123759842519685
 20
3.8597598425196851
 30
0.0
 10
0.123759842519685
 20
3.8597598425196851
 30
0.0
 10
-0.5357598425196851
 20
4.2497165354330706
 30
0.0
 10
-0.5357598425196851
 20
4.2497165354330706
 30
0.0
 10
-0.5357598425196851
 20
4.2497165354330706
 30
0.0
 10
-0.5357598425196851
 20
4.2497165354330706
 30
0.0
 10
-0.5594842519685039
 20
4.2429803149606302
 30
0.0
 10
-0.5594842519685039
 20
4.2429803149606302
 30
0.0
 10
-0.5594842519685039
 20
4.2429803149606302
 30
0.0
 10
-0.5594842519685039
 20
4.2429803149606302
 30
0.0
 10
-0.5827125984251969
 20
4.2351141732283466
 30
0.0
 10
-0.5827125984251969
 20
4.2351141732283466
 30
0.0
  0
SPLINE
  5
35
100
AcDbEntity
  8
Additional Graphics
 62
     9
100
AcDbSpline
210
0.0
220
0.0
230
1.0
 70
     1
 71
     3
 72
    28
 73
    24
 74
     0
 42
0.0000000001
 43
0.0000000001
 40
0.0
 40
0.0
 40
0.0
 40
0.0
 40
0.1666666666666667
 40
0.1666666666666667
 40
0.1666666666666667
 40
0.1666666666666667
 40
0.3333333333333333
 40
0.3333333333333333
 40
0.3333333333333333
 40
0.3333333333333333
 40
0.5
 40
0.5
 40
0.5
 40
0.5
 40
0.6666666666666666
 40
0.6666666666666666
 40
0.6666666666666666
 40
0.6666666666666666
 40
0.8333333333333333
 40
0.8333333333333333
 40
0.8333333333333333
 40
0.8333333333333333
 40
1.0
 40
1.0
 40
1.0
 40
1.0
 10
-0.5357598425196851
 20
4.2497165354330706
 30
0.0
 10
-0.5357598425196851
 20
4.2497165354330706
 30
0.0
 10
0.123759842519685
 20
3.8597598425196851
 30
0.0
 10
0.123759842519685
 20
3.8597598425196851
 30
0.0
 10
0.123759842519685
 20
3.8597598425196851
 30
0.0
 10
0.123759842519685
 20
3.8597598425196851
 30
0.0
 10
0.1479448818897638
 20
3.8653464566929134
 30
0.0
 10
0.1479448818897638
 20
3.8653464566929134
 30
0.0
 10
0.1479448818897638
 20
3.8653464566929134
 30
0.0
 10
0.1479448818897638
 20
3.8653464566929134
 30
0.0
 10
0.1725669291338583
 20
3.8697401574803152
 30
0.0
 10
0.1725669291338583
 20
3.8697401574803152
 30
0.0
 10
0.1725669291338583
 20
3.8697401574803152
 30
0.0
 10
0.1725669291338583
 20
3.8697401574803152
 30
0.0
 10
-0.4869527559055119
 20
4.2596968503937012
 30
0.0
 10
-0.4869527559055119
 20
4.2596968503937012
 30
0.0
 10
-0.4869527559055119
 20
4.2596968503937012
 30
0.0
 10
-0.4869527559055119
 20
4.2596968503937012
 30
0.0
 10
-0.5115748031496064
 20
4.2553031496062994
 30
0.0
 10
-0.5115748031496064
 20
4.2553031496062994
 30
0.0
 10
-0.5115748031496064
 20
4.2553031496062994
 30
0.0
 10
-0.5115748031496064
 20
4.2553031496062994
 30
0.0
 10
-0.5357598425196851
 20
4.2497165354330706
 30
0.0
 10
-0.5357598425196851
 20
4.2497165354330706
 30
0.0
  0
SPLINE
  5
36
100
AcDbEntity
  8
Additional Graphics
 62
     9
100
AcDbSpline
210
0.0
220
0.0
230
1.0
 70
     1
 71
     3
 72
    20
 73
    16
 74
     0
 42
0.0000000001
 43
0.0000000001
 40
0.0
 40
0.0
 40
0.0
 40
0.0
 40
0.25
 40
0.25
 40
0.25
 40
0.25
 40
0.5
 40
0.5
 40
0.5
 40
0.5
 40
0.75
 40
0.75
 40
0.75
 40
0.75
 40
1.0
 40
1.0
 40
1.0
 40
1.0
 10
-0.4869527559055119
 20
4.2596968503937012
 30
0.0
 10
-0.4869527559055119
 20
4.2596968503937012
 30
0.0
 10
0.1725669291338583
 20
3.8697401574803152
 30
0.0
 10
0.1725669291338583
 20
3.8697401574803152
 30
0.0
 10
0.1725669291338583
 20
3.8697401574803152
 30
0.0
 10
0.1725669291338583
 20
3.8697401574803152
 30
0.0
 10
0.1975826771653543
 20
3.8729251968503937
 30
0.0
 10
0.1975826771653543
 20
3.8729251968503937
 30
0.0
 10
0.1975826771653543
 20
3.8729251968503937
 30
0.0
 10
0.1975826771653543
 20
3.8729251968503937
 30
0.0
 10
-0.4619370078740158
 20
4.2628818897637801
 30
0.0
 10
-0.4619370078740158
 20
4.2628818897637801
 30
0.0
 10
-0.4619370078740158
 20
4.2628818897637801
 30
0.0
 10
-0.4619370078740158
 20
4.2628818897637801
 30
0.0
 10
-0.4869527559055119
 20
4.2596968503937012
 30
0.0
 10
-0.4869527559055119
 20
4.2596968503937012
 30
0.0
  0
SPLINE
  5
37
100
AcDbEntity
  8
Additional Graphics
 62
     9
100
AcDbSpline
210
0.0
220
0.0
230
1.0
 70
     1
 71
     3
 72
    20
 73
    16
 74
     0
 42
0.0000000001
 43
0.0000000001
 40
0.0
 40
0.0
 40
0.0
 40
0.0
 40
0.25
 40
0.25
 40
0.25
 40
0.25
 40
0.5
 40
0.5
 40
0.5
 40
0.5
 40
0.75
 40
0.75
 40
0.75
 40
0.75
 40
1.0
 40
1.0
 40
1.0
 40
1.0
 10
-0.4619370078740158
 20
4.2628818897637801
 30
0.0
 10
-0.4619370078740158
 20
4.2628818897637801
 30
0.0
 10
0.1975826771653543
 20
3.8729251968503937
 30
0.0
 10
0.1975826771653543
 20
3.8729251968503937
 30
0.0
 10
0.1975826771653543
 20
3.8729251968503937
 30
0.0
 10
0.1975826771653543
 20
3.8729251968503937
 30
0.0
 10
0.2229724409448819
 20
3.8748582677165357
 30
0.0
 10
0.2229724409448819
 20
3.8748582677165357
 30
0.0
 10
0.2229724409448819
 20
3.8748582677165357
 30
0.0
 10
0.2229724409448819
 20
3.8748582677165357
 30
0.0
 10
-0.4365472440944882
 20
4.2648149606299217
 30
0.0
 10
-0.4365472440944882
 20
4.2648149606299217
 30
0.0
 10
-0.4365472440944882
 20
4.2648149606299217
 30
0.0
 10
-0.4365472440944882
 20
4.2648149606299217
 30
0.0
 10
-0.4619370078740158
 20
4.2628818897637801
 30
0.0
 10
-0.4619370078740158
 20
4.2628818897637801
 30
0.0
  0
SPLINE
  5
38
100
AcDbEntity
  8
Additional Graphics
 62
     9
100
AcDbSpline
210
0.0
220
0.0
230
1.0
 70
     1
 71
     3
 72
    20
 73
    16
 74
     0
 42
0.0000000001
 43
0.0000000001
 40
0.0
 40
0.0
 40
0.0
 40
0.0
 40
0.25
 40
0.25
 40
0.25
 40
0.25
 40
0.5
 40
0.5
 40
0.5
 40
0.5
 40
0.75
 40
0.75
 40
0.75
 40
0.75
 40
1.0
 40
1.0
 40
1.0
 40
1.0
 10
-0.4365472440944882
 20
4.2648149606299217
 30
0.0
 10
-0.4365472440944882
 20
4.2648149606299217
 30
0.0
 10
0.2229724409448819
 20
3.8748582677165357
 30
0.0
 10
0.2229724409448819
 20
3.8748582677165357
 30
0.0
 10
0.2229724409448819
 20
3.8748582677165357
 30
0.0
 10
0.2229724409448819
 20
3.8748582677165357
 30
0.0
 10
0.2486929133858268
 20
3.8755118110236224
 30
0.0
 10
0.2486929133858268
 20
3.8755118110236224
 30
0.0
 10
0.2486929133858268
 20
3.8755118110236224
 30
0.0
 10
0.2486929133858268
 20
3.8755118110236224
 30
0.0
 10
-0.4108267716535433
 20
4.2654685039370079
 30
0.0
 10
-0.4108267716535433
 20
4.2654685039370079
 30
0.0
 10
-0.4108267716535433
 20
4.2654685039370079
 30
0.0
 10
-0.4108267716535433
 20
4.2654685039370079
 30
0.0
 10
-0.4365472440944882
 20
4.2648149606299217
 30
0.0
 10
-0.4365472440944882
 20
4.2648149606299217
 30
0.0
  0
SPLINE
  5
39
100
AcDbEntity
  8
Additional Graphics
370
     5
100
AcDbSpline
210
0.0
220
0.0
230
1.0
 70
     1
 71
     3
 72
   268
 73
   264
 74
     0
 42
0.0000000001
 43
0.0000000001
 40
0.0
 40
0.0
 40
0.0
 40
0.0
 40
0.0151515151515152
 40
0.0151515151515152
 40
0.0151515151515152
 40
0.0151515151515152
 40
0.0303030303030303
 40
0.0303030303030303
 40
0.0303030303030303
 40
0.0303030303030303
 40
0.0454545454545455
 40
0.0454545454545455
 40
0.0454545454545455
 40
0.0454545454545455
 40
0.0606060606060606
 40
0.0606060606060606
 40
0.0606060606060606
 40
0.0606060606060606
 40
0.0757575757575758
 40
0.0757575757575758
 40
0.0757575757575758
 40
0.0757575757575758
 40
0.0909090909090909
 40
0.0909090909090909
 40
0.0909090909090909
 40
0.0909090909090909
 40
0.1060606060606061
 40
0.1060606060606061
 40
0.1060606060606061
 40
0.1060606060606061
 40
0.1212121212121212
 40
0.1212121212121212
 40
0.1212121212121212
 40
0.1212121212121212
 40
0.1363636363636364
 40
0.1363636363636364
 40
0.1363636363636364
 40
0.1363636363636364
 40
0.1515151515151515
 40
0.1515151515151515
 40
0.1515151515151515
 40
0.1515151515151515
 40
0.1666666666666666
 40
0.1666666666666666
 40
0.1666666666666666
 40
0.1666666666666666
 40
0.1818181818181818
 40
0.1818181818181818
 40
0.1818181818181818
 40
0.1818181818181818
 40
0.1969696969696969
 40
0.1969696969696969
 40
0.1969696969696969
 40
0.1969696969696969
 40
0.212121212121212
 40
0.212121212121212
 40
0.212121212121212
 40
0.212121212121212
 40
0.2272727272727272
 40
0.2272727272727272
 40
0.2272727272727272
 40
0.2272727272727272
 40
0.2424242424242423
 40
0.2424242424242423
 40
0.2424242424242423
 40
0.2424242424242423
 40
0.2575757575757575
 40
0.2575757575757575
 40
0.2575757575757575
 40
0.2575757575757575
 40
0.2727272727272726
 40
0.2727272727272726
 40
0.2727272727272726
 40
0.2727272727272726
 40
0.2878787878787877
 40
0.2878787878787877
 40
0.2878787878787877
 40
0.2878787878787877
 40
0.3030303030303029
 40
0.3030303030303029
 40
0.3030303030303029
 40
0.3030303030303029
 40
0.318181818181818
 40
0.318181818181818
 40
0.318181818181818
 40
0.318181818181818
 40
0.3333333333333332
 40
0.3333333333333332
 40
0.3333333333333332
 40
0.3333333333333332
 40
0.3484848484848483
 40
0.3484848484848483
 40
0.3484848484848483
 40
0.3484848484848483
 40
0.3636363636363634
 40
0.3636363636363634
 40
0.3636363636363634
 40
0.3636363636363634
 40
0.3787878787878786
 40
0.3787878787878786
 40
0.3787878787878786
 40
0.3787878787878786
 40
0.3939393939393937
 40
0.3939393939393937
 40
0.3939393939393937
 40
0.3939393939393937
 40
0.4090909090909088
 40
0.4090909090909088
 40
0.4090909090909088
 40
0.4090909090909088
 40
0.424242424242424
 40
0.424242424242424
 40
0.424242424242424
 40
0.424242424242424
 40
0.4393939393939391
 40
0.4393939393939391
 40
0.4393939393939391
 40
0.4393939393939391
 40
0.4545454545454543
 40
0.4545454545454543
 40
0.4545454545454543
 40
0.4545454545454543
 40
0.4696969696969694
 40
0.4696969696969694
 40
0.4696969696969694
 40
0.4696969696969694
 40
0.4848484848484845
 40
0.4848484848484845
 40
0.4848484848484845
 40
0.4848484848484845
 40
0.4999999999999997
 40
0.4999999999999997
 40
0.4999999999999997
 40
0.4999999999999997
 40
0.5151515151515148
 40
0.5151515151515148
 40
0.5151515151515148
 40
0.5151515151515148
 40
0.5303030303030299
 40
0.5303030303030299
 40
0.5303030303030299
 40
0.5303030303030299
 40
0.5454545454545451
 40
0.5454545454545451
 40
0.5454545454545451
 40
0.5454545454545451
 40
0.5606060606060602
 40
0.5606060606060602
 40
0.5606060606060602
 40
0.5606060606060602
 40
0.5757575757575754
 40
0.5757575757575754
 40
0.5757575757575754
 40
0.5757575757575754
 40
0.5909090909090905
 40
0.5909090909090905
 40
0.5909090909090905
 40
0.5909090909090905
 40
0.6060606060606056
 40
0.6060606060606056
 40
0.6060606060606056
 40
0.6060606060606056
 40
0.6212121212121208
 40
0.6212121212121208
 40
0.6212121212121208
 40
0.6212121212121208
 40
0.6363636363636359
 40
0.6363636363636359
 40
0.6363636363636359
 40
0.6363636363636359
 40
0.6515151515151511
 40
0.6515151515151511
 40
0.6515151515151511
 40
0.6515151515151511
 40
0.6666666666666662
 40
0.6666666666666662
 40
0.6666666666666662
 40
0.6666666666666662
 40
0.6818181818181813
 40
0.6818181818181813
 40
0.6818181818181813
 40
0.6818181818181813
 40
0.6969696969696965
 40
0.6969696969696965
 40
0.6969696969696965
 40
0.6969696969696965
 40
0.7121212121212116
 40
0.7121212121212116
 40
0.7121212121212116
 40
0.7121212121212116
 40
0.7272727272727267
 40
0.7272727272727267
 40
0.7272727272727267
 40
0.7272727272727267
 40
0.7424242424242419
 40
0.7424242424242419
 40
0.7424242424242419
 40
0.7424242424242419
 40
0.757575757575757
 40
0.757575757575757
 40
0.757575757575757
 40
0.757575757575757
 40
0.7727272727272722
 40
0.7727272727272722
 40
0.7727272727272722
 40
0.7727272727272722
 40
0.7878787878787873
 40
0.7878787878787873
 40
0.7878787878787873
 40
0.7878787878787873
 40
0.8030303030303024
 40
0.8030303030303024
 40
0.8030303030303024
 40
0.8030303030303024
 40
0.8181818181818176
 40
0.8181818181818176
 40
0.8181818181818176
 40
0.8181818181818176
 40
0.8333333333333327
 40
0.8333333333333327
 40
0.8333333333333327
 40
0.8333333333333327
 40
0.8484848484848478
 40
0.8484848484848478
 40
0.8484848484848478
 40
0.8484848484848478
 40
0.863636363636363
 40
0.863636363636363
 40
0.863636363636363
 40
0.863636363636363
 40
0.8787878787878781
 40
0.8787878787878781
 40
0.8787878787878781
 40
0.8787878787878781
 40
0.8939393939393933
 40
0.8939393939393933
 40
0.8939393939393933
 40
0.8939393939393933
 40
0.9090909090909084
 40
0.9090909090909084
 40
0.9090909090909084
 40
0.9090909090909084
 40
0.9242424242424235
 40
0.9242424242424235
 40
0.9242424242424235
 40
0.9242424242424235
 40
0.9393939393939387
 40
0.9393939393939387
 40
0.9393939393939387
 40
0.9393939393939387
 40
0.9545454545454538
 40
0.9545454545454538
 40
0.9545454545454538
 40
0.9545454545454538
 40
0.969696969696969
 40
0.969696969696969
 40
0.969696969696969
 40
0.969696969696969
 40
0.9848484848484841
 40
0.9848484848484841
 40
0.9848484848484841
 40
0.9848484848484841
 40
1.0
 40
1.0
 40
1.0
 40
1.0
 10
-0.9108267716535433
 20
3.7654685039370079
 30
0.0
 10
-0.9108267716535433
 20
3.7654685039370079
 30
0.0
 10
-0.2513070866141732
 20
3.375511811023622
 30
0.0
 10
-0.2513070866141732
 20
3.375511811023622
 30
0.0
 10
-0.2513070866141732
 20
3.375511811023622
 30
0.0
 10
-0.2513070866141732
 20
3.375511811023622
 30
0.0
 10
-0.2506535433070866
 20
3.4012322834645672
 30
0.0
 10
-0.2506535433070866
 20
3.4012322834645672
 30
0.0
 10
-0.2506535433070866
 20
3.4012322834645672
 30
0.0
 10
-0.2506535433070866
 20
3.4012322834645672
 30
0.0
 10
-0.2487204724409449
 20
3.4266220472440945
 30
0.0
 10
-0.2487204724409449
 20
3.4266220472440945
 30
0.0
 10
-0.2487204724409449
 20
3.4266220472440945
 30
0.0
 10
-0.2487204724409449
 20
3.4266220472440945
 30
0.0
 10
-0.2455354330708661
 20
3.4516377952755906
 30
0.0
 10
-0.2455354330708661
 20
3.4516377952755906
 30
0.0
 10
-0.2455354330708661
 20
3.4516377952755906
 30
0.0
 10
-0.2455354330708661
 20
3.4516377952755906
 30
0.0
 10
-0.2411417322834646
 20
3.4762598425196853
 30
0.0
 10
-0.2411417322834646
 20
3.4762598425196853
 30
0.0
 10
-0.2411417322834646
 20
3.4762598425196853
 30
0.0
 10
-0.2411417322834646
 20
3.4762598425196853
 30
0.0
 10
-0.2355551181102362
 20
3.5004448818897638
 30
0.0
 10
-0.2355551181102362
 20
3.5004448818897638
 30
0.0
 10
-0.2355551181102362
 20
3.5004448818897638
 30
0.0
 10
-0.2355551181102362
 20
3.5004448818897638
 30
0.0
 10
-0.2288188976377953
 20
3.5241692913385827
 30
0.0
 10
-0.2288188976377953
 20
3.5241692913385827
 30
0.0
 10
-0.2288188976377953
 20
3.5241692913385827
 30
0.0
 10
-0.2288188976377953
 20
3.5241692913385827
 30
0.0
 10
-0.2209527559055118
 20
3.5473976377952758
 30
0.0
 10
-0.2209527559055118
 20
3.5473976377952758
 30
0.0
 10
-0.2209527559055118
 20
3.5473976377952758
 30
0.0
 10
-0.2209527559055118
 20
3.5473976377952758
 30
0.0
 10
-0.212003937007874
 20
3.5701102362204726
 30
0.0
 10
-0.212003937007874
 20
3.5701102362204726
 30
0.0
 10
-0.212003937007874
 20
3.5701102362204726
 30
0.0
 10
-0.212003937007874
 20
3.5701102362204726
 30
0.0
 10
-0.201984251968504
 20
3.5922519685039371
 30
0.0
 10
-0.201984251968504
 20
3.5922519685039371
 30
0.0
 10
-0.201984251968504
 20
3.5922519685039371
 30
0.0
 10
-0.201984251968504
 20
3.5922519685039371
 30
0.0
 10
-0.1909409448818898
 20
3.6138149606299215
 30
0.0
 10
-0.1909409448818898
 20
3.6138149606299215
 30
0.0
 10
-0.1909409448818898
 20
3.6138149606299215
 30
0.0
 10
-0.1909409448818898
 20
3.6138149606299215
 30
0.0
 10
-0.1788976377952756
 20
3.6347519685039371
 30
0.0
 10
-0.1788976377952756
 20
3.6347519685039371
 30
0.0
 10
-0.1788976377952756
 20
3.6347519685039371
 30
0.0
 10
-0.1788976377952756
 20
3.6347519685039371
 30
0.0
 10
-0.1658976377952756
 20
3.6550433070866144
 30
0.0
 10
-0.1658976377952756
 20
3.6550433070866144
 30
0.0
 10
-0.1658976377952756
 20
3.6550433070866144
 30
0.0
 10
-0.1658976377952756
 20
3.6550433070866144
 30
0.0
 10
-0.1519566929133858
 20
3.6746456692913387
 30
0.0
 10
-0.1519566929133858
 20
3.6746456692913387
 30
0.0
 10
-0.1519566929133858
 20
3.6746456692913387
 30
0.0
 10
-0.1519566929133858
 20
3.6746456692913387
 30
0.0
 10
-0.1371141732283465
 20
3.6935354330708661
 30
0.0
 10
-0.1371141732283465
 20
3.6935354330708661
 30
0.0
 10
-0.1371141732283465
 20
3.6935354330708661
 30
0.0
 10
-0.1371141732283465
 20
3.6935354330708661
 30
0.0
 10
-0.1213976377952756
 20
3.711677165354331
 30
0.0
 10
-0.1213976377952756
 20
3.711677165354331
 30
0.0
 10
-0.1213976377952756
 20
3.711677165354331
 30
0.0
 10
-0.1213976377952756
 20
3.711677165354331
 30
0.0
 10
-0.1048425196850394
 20
3.7290472440944882
 30
0.0
 10
-0.1048425196850394
 20
3.7290472440944882
 30
0.0
 10
-0.1048425196850394
 20
3.7290472440944882
 30
0.0
 10
-0.1048425196850394
 20
3.7290472440944882
 30
0.0
 10
-0.0874724409448819
 20
3.7456023622047248
 30
0.0
 10
-0.0874724409448819
 20
3.7456023622047248
 30
0.0
 10
-0.0874724409448819
 20
3.7456023622047248
 30
0.0
 10
-0.0874724409448819
 20
3.7456023622047248
 30
0.0
 10
-0.0693307086614173
 20
3.7613188976377954
 30
0.0
 10
-0.0693307086614173
 20
3.7613188976377954
 30
0.0
 10
-0.0693307086614173
 20
3.7613188976377954
 30
0.0
 10
-0.0693307086614173
 20
3.7613188976377954
 30
0.0
 10
-0.0504409448818898
 20
3.7761614173228346
 30
0.0
 10
-0.0504409448818898
 20
3.7761614173228346
 30
0.0
 10
-0.0504409448818898
 20
3.7761614173228346
 30
0.0
 10
-0.0504409448818898
 20
3.7761614173228346
 30
0.0
 10
-0.0308385826771654
 20
3.7901023622047245
 30
0.0
 10
-0.0308385826771654
 20
3.7901023622047245
 30
0.0
 10
-0.0308385826771654
 20
3.7901023622047245
 30
0.0
 10
-0.0308385826771654
 20
3.7901023622047245
 30
0.0
 10
-0.0105472440944882
 20
3.8031023622047244
 30
0.0
 10
-0.0105472440944882
 20
3.8031023622047244
 30
0.0
 10
-0.0105472440944882
 20
3.8031023622047244
 30
0.0
 10
-0.0105472440944882
 20
3.8031023622047244
 30
0.0
 10
0.0103897637795276
 20
3.8151456692913386
 30
0.0
 10
0.0103897637795276
 20
3.8151456692913386
 30
0.0
 10
0.0103897637795276
 20
3.8151456692913386
 30
0.0
 10
0.0103897637795276
 20
3.8151456692913386
 30
0.0
 10
0.0319527559055118
 20
3.8261889763779529
 30
0.0
 10
0.0319527559055118
 20
3.8261889763779529
 30
0.0
 10
0.0319527559055118
 20
3.8261889763779529
 30
0.0
 10
0.0319527559055118
 20
3.8261889763779529
 30
0.0
 10
0.0540944881889764
 20
3.8362086614173232
 30
0.0
 10
0.0540944881889764
 20
3.8362086614173232
 30
0.0
 10
0.0540944881889764
 20
3.8362086614173232
 30
0.0
 10
0.0540944881889764
 20
3.8362086614173232
 30
0.0
 10
0.0768070866141732
 20
3.8451574803149606
 30
0.0
 10
0.0768070866141732
 20
3.8451574803149606
 30
0.0
 10
0.0768070866141732
 20
3.8451574803149606
 30
0.0
 10
0.0768070866141732
 20
3.8451574803149606
 30
0.0
 10
0.1000354330708661
 20
3.8530236220472442
 30
0.0
 10
0.1000354330708661
 20
3.8530236220472442
 30
0.0
 10
0.1000354330708661
 20
3.8530236220472442
 30
0.0
 10
0.1000354330708661
 20
3.8530236220472442
 30
0.0
 10
0.123759842519685
 20
3.8597598425196851
 30
0.0
 10
0.123759842519685
 20
3.8597598425196851
 30
0.0
 10
0.123759842519685
 20
3.8597598425196851
 30
0.0
 10
0.123759842519685
 20
3.8597598425196851
 30
0.0
 10
0.1479448818897638
 20
3.8653464566929134
 30
0.0
 10
0.1479448818897638
 20
3.8653464566929134
 30
0.0
 10
0.1479448818897638
 20
3.8653464566929134
 30
0.0
 10
0.1479448818897638
 20
3.8653464566929134
 30
0.0
 10
0.1725669291338583
 20
3.8697401574803152
 30
0.0
 10
0.1725669291338583
 20
3.8697401574803152
 30
0.0
 10
0.1725669291338583
 20
3.8697401574803152
 30
0.0
 10
0.1725669291338583
 20
3.8697401574803152
 30
0.0
 10
0.1975826771653543
 20
3.8729251968503937
 30
0.0
 10
0.1975826771653543
 20
3.8729251968503937
 30
0.0
 10
0.1975826771653543
 20
3.8729251968503937
 30
0.0
 10
0.1975826771653543
 20
3.8729251968503937
 30
0.0
 10
0.2229724409448819
 20
3.8748582677165357
 30
0.0
 10
0.2229724409448819
 20
3.8748582677165357
 30
0.0
 10
0.2229724409448819
 20
3.8748582677165357
 30
0.0
 10
0.2229724409448819
 20
3.8748582677165357
 30
0.0
 10
0.2486929133858268
 20
3.8755118110236224
 30
0.0
 10
0.2486929133858268
 20
3.8755118110236224
 30
0.0
 10
0.2486929133858268
 20
3.8755118110236224
 30
0.0
 10
0.2486929133858268
 20
3.8755118110236224
 30
0.0
 10
-0.4108267716535433
 20
4.2654685039370079
 30
0.0
 10
-0.4108267716535433
 20
4.2654685039370079
 30
0.0
 10
-0.4108267716535433
 20
4.2654685039370079
 30
0.0
 10
-0.4108267716535433
 20
4.2654685039370079
 30
0.0
 10
-0.4365472440944882
 20
4.2648149606299217
 30
0.0
 10
-0.4365472440944882
 20
4.2648149606299217
 30
0.0
 10
-0.4365472440944882
 20
4.2648149606299217
 30
0.0
 10
-0.4365472440944882
 20
4.2648149606299217
 30
0.0
 10
-0.4619370078740158
 20
4.2628818897637801
 30
0.0
 10
-0.4619370078740158
 20
4.2628818897637801
 30
0.0
 10
-0.4619370078740158
 20
4.2628818897637801
 30
0.0
 10
-0.4619370078740158
 20
4.2628818897637801
 30
0.0
 10
-0.4869527559055119
 20
4.2596968503937012
 30
0.0
 10
-0.4869527559055119
 20
4.2596968503937012
 30
0.0
 10
-0.4869527559055119
 20
4.2596968503937012
 30
0.0
 10
-0.4869527559055119
 20
4.2596968503937012
 30
0.0
 10
-0.5115748031496064
 20
4.2553031496062994
 30
0.0
 10
-0.5115748031496064
 20
4.2553031496062994
 30
0.0
 10
-0.5115748031496064
 20
4.2553031496062994
 30
0.0
 10
-0.5115748031496064
 20
4.2553031496062994
 30
0.0
 10
-0.5357598425196851
 20
4.2497165354330706
 30
0.0
 10
-0.5357598425196851
 20
4.2497165354330706
 30
0.0
 10
-0.5357598425196851
 20
4.2497165354330706
 30
0.0
 10
-0.5357598425196851
 20
4.2497165354330706
 30
0.0
 10
-0.5594842519685039
 20
4.2429803149606302
 30
0.0
 10
-0.5594842519685039
 20
4.2429803149606302
 30
0.0
 10
-0.5594842519685039
 20
4.2429803149606302
 30
0.0
 10
-0.5594842519685039
 20
4.2429803149606302
 30
0.0
 10
-0.5827125984251969
 20
4.2351141732283466
 30
0.0
 10
-0.5827125984251969
 20
4.2351141732283466
 30
0.0
 10
-0.5827125984251969
 20
4.2351141732283466
 30
0.0
 10
-0.5827125984251969
 20
4.2351141732283466
 30
0.0
 10
-0.6054251968503938
 20
4.2261653543307087
 30
0.0
 10
-0.6054251968503938
 20
4.2261653543307087
 30
0.0
 10
-0.6054251968503938
 20
4.2261653543307087
 30
0.0
 10
-0.6054251968503938
 20
4.2261653543307087
 30
0.0
 10
-0.6275669291338583
 20
4.2161456692913388
 30
0.0
 10
-0.6275669291338583
 20
4.2161456692913388
 30
0.0
 10
-0.6275669291338583
 20
4.2161456692913388
 30
0.0
 10
-0.6275669291338583
 20
4.2161456692913388
 30
0.0
 10
-0.6491299212598426
 20
4.205102362204725
 30
0.0
 10
-0.6491299212598426
 20
4.205102362204725
 30
0.0
 10
-0.6491299212598426
 20
4.205102362204725
 30
0.0
 10
-0.6491299212598426
 20
4.205102362204725
 30
0.0
 10
-0.6700669291338584
 20
4.1930590551181108
 30
0.0
 10
-0.6700669291338584
 20
4.1930590551181108
 30
0.0
 10
-0.6700669291338584
 20
4.1930590551181108
 30
0.0
 10
-0.6700669291338584
 20
4.1930590551181108
 30
0.0
 10
-0.6903582677165354
 20
4.18005905511811
 30
0.0
 10
-0.6903582677165354
 20
4.18005905511811
 30
0.0
 10
-0.6903582677165354
 20
4.18005905511811
 30
0.0
 10
-0.6903582677165354
 20
4.18005905511811
 30
0.0
 10
-0.7099606299212599
 20
4.166118110236221
 30
0.0
 10
-0.7099606299212599
 20
4.166118110236221
 30
0.0
 10
-0.7099606299212599
 20
4.166118110236221
 30
0.0
 10
-0.7099606299212599
 20
4.166118110236221
 30
0.0
 10
-0.7288503937007874
 20
4.1512755905511813
 30
0.0
 10
-0.7288503937007874
 20
4.1512755905511813
 30
0.0
 10
-0.7288503937007874
 20
4.1512755905511813
 30
0.0
 10
-0.7288503937007874
 20
4.1512755905511813
 30
0.0
 10
-0.746992125984252
 20
4.1355590551181107
 30
0.0
 10
-0.746992125984252
 20
4.1355590551181107
 30
0.0
 10
-0.746992125984252
 20
4.1355590551181107
 30
0.0
 10
-0.746992125984252
 20
4.1355590551181107
 30
0.0
 10
-0.7643622047244095
 20
4.1190039370078741
 30
0.0
 10
-0.7643622047244095
 20
4.1190039370078741
 30
0.0
 10
-0.7643622047244095
 20
4.1190039370078741
 30
0.0
 10
-0.7643622047244095
 20
4.1190039370078741
 30
0.0
 10
-0.7809173228346457
 20
4.101633858267717
 30
0.0
 10
-0.7809173228346457
 20
4.101633858267717
 30
0.0
 10
-0.7809173228346457
 20
4.101633858267717
 30
0.0
 10
-0.7809173228346457
 20
4.101633858267717
 30
0.0
 10
-0.7966338582677166
 20
4.083492125984252
 30
0.0
 10
-0.7966338582677166
 20
4.083492125984252
 30
0.0
 10
-0.7966338582677166
 20
4.083492125984252
 30
0.0
 10
-0.7966338582677166
 20
4.083492125984252
 30
0.0
 10
-0.811476377952756
 20
4.0646023622047247
 30
0.0
 10
-0.811476377952756
 20
4.0646023622047247
 30
0.0
 10
-0.811476377952756
 20
4.0646023622047247
 30
0.0
 10
-0.811476377952756
 20
4.0646023622047247
 30
0.0
 10
-0.8254173228346458
 20
4.0449999999999999
 30
0.0
 10
-0.8254173228346458
 20
4.0449999999999999
 30
0.0
 10
-0.8254173228346458
 20
4.0449999999999999
 30
0.0
 10
-0.8254173228346458
 20
4.0449999999999999
 30
0.0
 10
-0.8384173228346457
 20
4.0247086614173231
 30
0.0
 10
-0.8384173228346457
 20
4.0247086614173231
 30
0.0
 10
-0.8384173228346457
 20
4.0247086614173231
 30
0.0
 10
-0.8384173228346457
 20
4.0247086614173231
 30
0.0
 10
-0.8504606299212599
 20
4.003771653543307
 30
0.0
 10
-0.8504606299212599
 20
4.003771653543307
 30
0.0
 10
-0.8504606299212599
 20
4.003771653543307
 30
0.0
 10
-0.8504606299212599
 20
4.003771653543307
 30
0.0
 10
-0.8615039370078741
 20
3.9822086614173231
 30
0.0
 10
-0.8615039370078741
 20
3.9822086614173231
 30
0.0
 10
-0.8615039370078741
 20
3.9822086614173231
 30
0.0
 10
-0.8615039370078741
 20
3.9822086614173231
 30
0.0
 10
-0.8715236220472441
 20
3.9600669291338586
 30
0.0
 10
-0.8715236220472441
 20
3.9600669291338586
 30
0.0
 10
-0.8715236220472441
 20
3.9600669291338586
 30
0.0
 10
-0.8715236220472441
 20
3.9600669291338586
 30
0.0
 10
-0.880472440944882
 20
3.9373543307086614
 30
0.0
 10
-0.880472440944882
 20
3.9373543307086614
 30
0.0
 10
-0.880472440944882
 20
3.9373543307086614
 30
0.0
 10
-0.880472440944882
 20
3.9373543307086614
 30
0.0
 10
-0.8883385826771654
 20
3.9141259842519687
 30
0.0
 10
-0.8883385826771654
 20
3.9141259842519687
 30
0.0
 10
-0.8883385826771654
 20
3.9141259842519687
 30
0.0
 10
-0.8883385826771654
 20
3.9141259842519687
 30
0.0
 10
-0.8950748031496063
 20
3.8904015748031497
 30
0.0
 10
-0.8950748031496063
 20
3.8904015748031497
 30
0.0
 10
-0.8950748031496063
 20
3.8904015748031497
 30
0.0
 10
-0.8950748031496063
 20
3.8904015748031497
 30
0.0
 10
-0.9006614173228347
 20
3.8662165354330709
 30
0.0
 10
-0.9006614173228347
 20
3.8662165354330709
 30
0.0
 10
-0.9006614173228347
 20
3.8662165354330709
 30
0.0
 10
-0.9006614173228347
 20
3.8662165354330709
 30
0.0
 10
-0.9050551181102362
 20
3.8415944881889765
 30
0.0
 10
-0.9050551181102362
 20
3.8415944881889765
 30
0.0
 10
-0.9050551181102362
 20
3.8415944881889765
 30
0.0
 10
-0.9050551181102362
 20
3.8415944881889765
 30
0.0
 10
-0.908240157480315
 20
3.8165787401574804
 30
0.0
 10
-0.908240157480315
 20
3.8165787401574804
 30
0.0
 10
-0.908240157480315
 20
3.8165787401574804
 30
0.0
 10
-0.908240157480315
 20
3.8165787401574804
 30
0.0
 10
-0.9101732283464568
 20
3.7911889763779527
 30
0.0
 10
-0.9101732283464568
 20
3.7911889763779527
 30
0.0
 10
-0.9101732283464568
 20
3.7911889763779527
 30
0.0
 10
-0.9101732283464568
 20
3.7911889763779527
 30
0.0
 10
-0.9108267716535433
 20
3.7654685039370079
 30
0.0
 10
-0.9108267716535433
 20
3.7654685039370079
 30
0.0
  0
SPLINE
  5
3A
100
AcDbEntity
  8
Additional Graphics
 62
     9
100
AcDbSpline
210
0.0
220
0.0
230
1.0
 70
     1
 71
     3
 72
    20
 73
    16
 74
     0
 42
0.0000000001
 43
0.0000000001
 40
0.0
 40
0.0
 40
0.0
 40
0.0
 40
0.25
 40
0.25
 40
0.25
 40
0.25
 40
0.5
 40
0.5
 40
0.5
 40
0.5
 40
0.75
 40
0.75
 40
0.75
 40
0.75
 40
1.0
 40
1.0
 40
1.0
 40
1.0
 10
-0.4108267716535433
 20
4.2654685039370079
 30
0.0
 10
-0.4108267716535433
 20
4.2654685039370079
 30
0.0
 10
0.2486929133858268
 20
3.8755118110236224
 30
0.0
 10
0.2486929133858268
 20
3.8755118110236224
 30
0.0
 10
0.2486929133858268
 20
3.8755118110236224
 30
0.0
 10
0.2486929133858268
 20
3.8755118110236224
 30
0.0
 10
0.2486929133858268
 20
4.625511811023622
 30
0.0
 10
0.2486929133858268
 20
4.625511811023622
 30
0.0
 10
0.2486929133858268
 20
4.625511811023622
 30
0.0
 10
0.2486929133858268
 20
4.625511811023622
 30
0.0
 10
-0.4108267716535433
 20
5.0154685039370079
 30
0.0
 10
-0.4108267716535433
 20
5.0154685039370079
 30
0.0
 10
-0.4108267716535433
 20
5.0154685039370079
 30
0.0
 10
-0.4108267716535433
 20
5.0154685039370079
 30
0.0
 10
-0.4108267716535433
 20
4.2654685039370079
 30
0.0
 10
-0.4108267716535433
 20
4.2654685039370079
 30
0.0
  0
SPLINE
  5
3B
100
AcDbEntity
  8
Additional Graphics
370
     5
100
AcDbSpline
210
0.0
220
0.0
230
1.0
 70
     1
 71
     3
 72
    20
 73
    16
 74
     0
 42
0.0000000001
 43
0.0000000001
 40
0.0
 40
0.0
 40
0.0
 40
0.0
 40
0.25
 40
0.25
 40
0.25
 40
0.25
 40
0.5
 40
0.5
 40
0.5
 40
0.5
 40
0.75
 40
0.75
 40
0.75
 40
0.75
 40
1.0
 40
1.0
 40
1.0
 40
1.0
 10
-0.4108267716535433
 20
4.2654685039370079
 30
0.0
 10
-0.4108267716535433
 20
4.2654685039370079
 30
0.0
 10
0.2486929133858268
 20
3.8755118110236224
 30
0.0
 10
0.2486929133858268
 20
3.8755118110236224
 30
0.0
 10
0.2486929133858268
 20
3.8755118110236224
 30
0.0
 10
0.2486929133858268
 20
3.8755118110236224
 30
0.0
 10
0.2486929133858268
 20
4.625511811023622
 30
0.0
 10
0.2486929133858268
 20
4.625511811023622
 30
0.0
 10
0.2486929133858268
 20
4.625511811023622
 30
0.0
 10
0.2486929133858268
 20
4.625511811023622
 30
0.0
 10
-0.4108267716535433
 20
5.0154685039370079
 30
0.0
 10
-0.4108267716535433
 20
5.0154685039370079
 30
0.0
 10
-0.4108267716535433
 20
5.0154685039370079
 30
0.0
 10
-0.4108267716535433
 20
5.0154685039370079
 30
0.0
 10
-0.4108267716535433
 20
4.2654685039370079
 30
0.0
 10
-0.4108267716535433
 20
4.2654685039370079
 30
0.0
  0
SPLINE
  5
3C
100
AcDbEntity
  8
Additional Graphics
 62
     9
100
AcDbSpline
210
0.0
220
0.0
230
1.0
 70
     1
 71
     3
 72
    20
 73
    16
 74
     0
 42
0.0000000001
 43
0.0000000001
 40
0.0
 40
0.0
 40
0.0
 40
0.0
 40
0.25
 40
0.25
 40
0.25
 40
0.25
 40
0.5
 40
0.5
 40
0.5
 40
0.5
 40
0.75
 40
0.75
 40
0.75
 40
0.75
 40
1.0
 40
1.0
 40
1.0
 40
1.0
 10
-1.9108267716535434
 20
1.5154685039370079
 30
0.0
 10
-1.9108267716535434
 20
1.5154685039370079
 30
0.0
 10
-1.2513070866141733
 20
1.1255118110236222
 30
0.0
 10
-1.2513070866141733
 20
1.1255118110236222
 30
0.0
 10
-1.2513070866141733
 20
1.1255118110236222
 30
0.0
 10
-1.2513070866141733
 20
1.1255118110236222
 30
0.0
 10
-0.2513070866141732
 20
1.1255118110236222
 30
0.0
 10
-0.2513070866141732
 20
1.1255118110236222
 30
0.0
 10
-0.2513070866141732
 20
1.1255118110236222
 30
0.0
 10
-0.2513070866141732
 20
1.1255118110236222
 30
0.0
 10
-0.9108267716535433
 20
1.5154685039370079
 30
0.0
 10
-0.9108267716535433
 20
1.5154685039370079
 30
0.0
 10
-0.9108267716535433
 20
1.5154685039370079
 30
0.0
 10
-0.9108267716535433
 20
1.5154685039370079
 30
0.0
 10
-1.9108267716535434
 20
1.5154685039370079
 30
0.0
 10
-1.9108267716535434
 20
1.5154685039370079
 30
0.0
  0
SPLINE
  5
3D
100
AcDbEntity
  8
Additional Graphics
370
     5
100
AcDbSpline
210
0.0
220
0.0
230
1.0
 70
     1
 71
     3
 72
    20
 73
    16
 74
     0
 42
0.0000000001
 43
0.0000000001
 40
0.0
 40
0.0
 40
0.0
 40
0.0
 40
0.25
 40
0.25
 40
0.25
 40
0.25
 40
0.5
 40
0.5
 40
0.5
 40
0.5
 40
0.75
 40
0.75
 40
0.75
 40
0.75
 40
1.0
 40
1.0
 40
1.0
 40
1.0
 10
-1.9108267716535434
 20
1.5154685039370079
 30
0.0
 10
-1.9108267716535434
 20
1.5154685039370079
 30
0.0
 10
-1.2513070866141733
 20
1.1255118110236222
 30
0.0
 10
-1.2513070866141733
 20
1.1255118110236222
 30
0.0
 10
-1.2513070866141733
 20
1.1255118110236222
 30
0.0
 10
-1.2513070866141733
 20
1.1255118110236222
 30
0.0
 10
-0.2513070866141732
 20
1.1255118110236222
 30
0.0
 10
-0.2513070866141732
 20
1.1255118110236222
 30
0.0
 10
-0.2513070866141732
 20
1.1255118110236222
 30
0.0
 10
-0.2513070866141732
 20
1.1255118110236222
 30
0.0
 10
-0.9108267716535433
 20
1.5154685039370079
 30
0.0
 10
-0.9108267716535433
 20
1.5154685039370079
 30
0.0
 10
-0.9108267716535433
 20
1.5154685039370079
 30
0.0
 10
-0.9108267716535433
 20
1.5154685039370079
 30
0.0
 10
-1.9108267716535434
 20
1.5154685039370079
 30
0.0
 10
-1.9108267716535434
 20
1.5154685039370079
 30
0.0
  0
SPLINE
  5
3E
100
AcDbEntity
  8
Additional Graphics
 62
     9
100
AcDbSpline
210
0.0
220
0.0
230
1.0
 70
     1
 71
     3
 72
    20
 73
    16
 74
     0
 42
0.0000000001
 43
0.0000000001
 40
0.0
 40
0.0
 40
0.0
 40
0.0
 40
0.25
 40
0.25
 40
0.25
 40
0.25
 40
0.5
 40
0.5
 40
0.5
 40
0.5
 40
0.75
 40
0.75
 40
0.75
 40
0.75
 40
1.0
 40
1.0
 40
1.0
 40
1.0
 10
-0.9108267716535433
 20
1.5154685039370079
 30
0.0
 10
-0.9108267716535433
 20
1.5154685039370079
 30
0.0
 10
-0.2513070866141732
 20
1.1255118110236222
 30
0.0
 10
-0.2513070866141732
 20
1.1255118110236222
 30
0.0
 10
-0.2513070866141732
 20
1.1255118110236222
 30
0.0
 10
-0.2513070866141732
 20
1.1255118110236222
 30
0.0
 10
-0.2513070866141732
 20
3.375511811023622
 30
0.0
 10
-0.2513070866141732
 20
3.375511811023622
 30
0.0
 10
-0.2513070866141732
 20
3.375511811023622
 30
0.0
 10
-0.2513070866141732
 20
3.375511811023622
 30
0.0
 10
-0.9108267716535433
 20
3.7654685039370079
 30
0.0
 10
-0.9108267716535433
 20
3.7654685039370079
 30
0.0
 10
-0.9108267716535433
 20
3.7654685039370079
 30
0.0
 10
-0.9108267716535433
 20
3.7654685039370079
 30
0.0
 10
-0.9108267716535433
 20
1.5154685039370079
 30
0.0
 10
-0.9108267716535433
 20
1.5154685039370079
 30
0.0
  0
SPLINE
  5
3F
100
AcDbEntity
  8
Additional Graphics
370
     5
100
AcDbSpline
210
0.0
220
0.0
230
1.0
 70
     1
 71
     3
 72
    20
 73
    16
 74
     0
 42
0.0000000001
 43
0.0000000001
 40
0.0
 40
0.0
 40
0.0
 40
0.0
 40
0.25
 40
0.25
 40
0.25
 40
0.25
 40
0.5
 40
0.5
 40
0.5
 40
0.5
 40
0.75
 40
0.75
 40
0.75
 40
0.75
 40
1.0
 40
1.0
 40
1.0
 40
1.0
 10
-0.9108267716535433
 20
1.5154685039370079
 30
0.0
 10
-0.9108267716535433
 20
1.5154685039370079
 30
0.0
 10
-0.2513070866141732
 20
1.1255118110236222
 30
0.0
 10
-0.2513070866141732
 20
1.1255118110236222
 30
0.0
 10
-0.2513070866141732
 20
1.1255118110236222
 30
0.0
 10
-0.2513070866141732
 20
1.1255118110236222
 30
0.0
 10
-0.2513070866141732
 20
3.375511811023622
 30
0.0
 10
-0.2513070866141732
 20
3.375511811023622
 30
0.0
 10
-0.2513070866141732
 20
3.375511811023622
 30
0.0
 10
-0.2513070866141732
 20
3.375511811023622
 30
0.0
 10
-0.9108267716535433
 20
3.7654685039370079
 30
0.0
 10
-0.9108267716535433
 20
3.7654685039370079
 30
0.0
 10
-0.9108267716535433
 20
3.7654685039370079
 30
0.0
 10
-0.9108267716535433
 20
3.7654685039370079
 30
0.0
 10
-0.9108267716535433
 20
1.5154685039370079
 30
0.0
 10
-0.9108267716535433
 20
1.5154685039370079
 30
0.0
  0
SPLINE
  5
40
100
AcDbEntity
  8
Additional Graphics
 62
     9
100
AcDbSpline
210
0.0
220
0.0
230
1.0
 70
     1
 71
     3
 72
    20
 73
    16
 74
     0
 42
0.0000000001
 43
0.0000000001
 40
0.0
 40
0.0
 40
0.0
 40
0.0
 40
0.25
 40
0.25
 40
0.25
 40
0.25
 40
0.5
 40
0.5
 40
0.5
 40
0.5
 40
0.75
 40
0.75
 40
0.75
 40
0.75
 40
1.0
 40
1.0
 40
1.0
 40
1.0
 10
-0.9108267716535433
 20
3.7654685039370079
 30
0.0
 10
-0.9108267716535433
 20
3.7654685039370079
 30
0.0
 10
-0.2513070866141732
 20
3.375511811023622
 30
0.0
 10
-0.2513070866141732
 20
3.375511811023622
 30
0.0
 10
-0.2513070866141732
 20
3.375511811023622
 30
0.0
 10
-0.2513070866141732
 20
3.375511811023622
 30
0.0
 10
-0.2506535433070866
 20
3.4012322834645672
 30
0.0
 10
-0.2506535433070866
 20
3.4012322834645672
 30
0.0
 10
-0.2506535433070866
 20
3.4012322834645672
 30
0.0
 10
-0.2506535433070866
 20
3.4012322834645672
 30
0.0
 10
-0.9101732283464568
 20
3.7911889763779527
 30
0.0
 10
-0.9101732283464568
 20
3.7911889763779527
 30
0.0
 10
-0.9101732283464568
 20
3.7911889763779527
 30
0.0
 10
-0.9101732283464568
 20
3.7911889763779527
 30
0.0
 10
-0.9108267716535433
 20
3.7654685039370079
 30
0.0
 10
-0.9108267716535433
 20
3.7654685039370079
 30
0.0
  0
SPLINE
  5
41
100
AcDbEntity
  8
Additional Graphics
 62
     9
100
AcDbSpline
210
0.0
220
0.0
230
1.0
 70
     1
 71
     3
 72
    20
 73
    16
 74
     0
 42
0.0000000001
 43
0.0000000001
 40
0.0
 40
0.0
 40
0.0
 40
0.0
 40
0.25
 40
0.25
 40
0.25
 40
0.25
 40
0.5
 40
0.5
 40
0.5
 40
0.5
 40
0.75
 40
0.75
 40
0.75
 40
0.75
 40
1.0
 40
1.0
 40
1.0
 40
1.0
 10
-0.9101732283464568
 20
3.7911889763779527
 30
0.0
 10
-0.9101732283464568
 20
3.7911889763779527
 30
0.0
 10
-0.2506535433070866
 20
3.4012322834645672
 30
0.0
 10
-0.2506535433070866
 20
3.4012322834645672
 30
0.0
 10
-0.2506535433070866
 20
3.4012322834645672
 30
0.0
 10
-0.2506535433070866
 20
3.4012322834645672
 30
0.0
 10
-0.2487204724409449
 20
3.4266220472440945
 30
0.0
 10
-0.2487204724409449
 20
3.4266220472440945
 30
0.0
 10
-0.2487204724409449
 20
3.4266220472440945
 30
0.0
 10
-0.2487204724409449
 20
3.4266220472440945
 30
0.0
 10
-0.908240157480315
 20
3.8165787401574804
 30
0.0
 10
-0.908240157480315
 20
3.8165787401574804
 30
0.0
 10
-0.908240157480315
 20
3.8165787401574804
 30
0.0
 10
-0.908240157480315
 20
3.8165787401574804
 30
0.0
 10
-0.9101732283464568
 20
3.7911889763779527
 30
0.0
 10
-0.9101732283464568
 20
3.7911889763779527
 30
0.0
  0
SPLINE
  5
42
100
AcDbEntity
  8
Additional Graphics
 62
     9
100
AcDbSpline
210
0.0
220
0.0
230
1.0
 70
     1
 71
     3
 72
    20
 73
    16
 74
     0
 42
0.0000000001
 43
0.0000000001
 40
0.0
 40
0.0
 40
0.0
 40
0.0
 40
0.25
 40
0.25
 40
0.25
 40
0.25
 40
0.5
 40
0.5
 40
0.5
 40
0.5
 40
0.75
 40
0.75
 40
0.75
 40
0.75
 40
1.0
 40
1.0
 40
1.0
 40
1.0
 10
-0.908240157480315
 20
3.8165787401574804
 30
0.0
 10
-0.908240157480315
 20
3.8165787401574804
 30
0.0
 10
-0.2487204724409449
 20
3.4266220472440945
 30
0.0
 10
-0.2487204724409449
 20
3.4266220472440945
 30
0.0
 10
-0.2487204724409449
 20
3.4266220472440945
 30
0.0
 10
-0.2487204724409449
 20
3.4266220472440945
 30
0.0
 10
-0.2455354330708661
 20
3.4516377952755906
 30
0.0
 10
-0.2455354330708661
 20
3.4516377952755906
 30
0.0
 10
-0.2455354330708661
 20
3.4516377952755906
 30
0.0
 10
-0.2455354330708661
 20
3.4516377952755906
 30
0.0
 10
-0.9050551181102362
 20
3.8415944881889765
 30
0.0
 10
-0.9050551181102362
 20
3.8415944881889765
 30
0.0
 10
-0.9050551181102362
 20
3.8415944881889765
 30
0.0
 10
-0.9050551181102362
 20
3.8415944881889765
 30
0.0
 10
-0.908240157480315
 20
3.8165787401574804
 30
0.0
 10
-0.908240157480315
 20
3.8165787401574804
 30
0.0
  0
SPLINE
  5
43
100
AcDbEntity
  8
Additional Graphics
 62
     9
100
AcDbSpline
210
0.0
220
0.0
230
1.0
 70
     1
 71
     3
 72
    28
 73
    24
 74
     0
 42
0.0000000001
 43
0.0000000001
 40
0.0
 40
0.0
 40
0.0
 40
0.0
 40
0.1666666666666667
 40
0.1666666666666667
 40
0.1666666666666667
 40
0.1666666666666667
 40
0.3333333333333333
 40
0.3333333333333333
 40
0.3333333333333333
 40
0.3333333333333333
 40
0.5
 40
0.5
 40
0.5
 40
0.5
 40
0.6666666666666666
 40
0.6666666666666666
 40
0.6666666666666666
 40
0.6666666666666666
 40
0.8333333333333333
 40
0.8333333333333333
 40
0.8333333333333333
 40
0.8333333333333333
 40
1.0
 40
1.0
 40
1.0
 40
1.0
 10
-0.9050551181102362
 20
3.8415944881889765
 30
0.0
 10
-0.9050551181102362
 20
3.8415944881889765
 30
0.0
 10
-0.2455354330708661
 20
3.4516377952755906
 30
0.0
 10
-0.2455354330708661
 20
3.4516377952755906
 30
0.0
 10
-0.2455354330708661
 20
3.4516377952755906
 30
0.0
 10
-0.2455354330708661
 20
3.4516377952755906
 30
0.0
 10
-0.2411417322834646
 20
3.4762598425196853
 30
0.0
 10
-0.2411417322834646
 20
3.4762598425196853
 30
0.0
 10
-0.2411417322834646
 20
3.4762598425196853
 30
0.0
 10
-0.2411417322834646
 20
3.4762598425196853
 30
0.0
 10
-0.2355551181102362
 20
3.5004448818897638
 30
0.0
 10
-0.2355551181102362
 20
3.5004448818897638
 30
0.0
 10
-0.2355551181102362
 20
3.5004448818897638
 30
0.0
 10
-0.2355551181102362
 20
3.5004448818897638
 30
0.0
 10
-0.8950748031496063
 20
3.8904015748031497
 30
0.0
 10
-0.8950748031496063
 20
3.8904015748031497
 30
0.0
 10
-0.8950748031496063
 20
3.8904015748031497
 30
0.0
 10
-0.8950748031496063
 20
3.8904015748031497
 30
0.0
 10
-0.9006614173228347
 20
3.8662165354330709
 30
0.0
 10
-0.9006614173228347
 20
3.8662165354330709
 30
0.0
 10
-0.9006614173228347
 20
3.8662165354330709
 30
0.0
 10
-0.9006614173228347
 20
3.8662165354330709
 30
0.0
 10
-0.9050551181102362
 20
3.8415944881889765
 30
0.0
 10
-0.9050551181102362
 20
3.8415944881889765
 30
0.0
  0
SPLINE
  5
44
100
AcDbEntity
  8
Additional Graphics
 62
     9
100
AcDbSpline
210
0.0
220
0.0
230
1.0
 70
     1
 71
     3
 72
    28
 73
    24
 74
     0
 42
0.0000000001
 43
0.0000000001
 40
0.0
 40
0.0
 40
0.0
 40
0.0
 40
0.1666666666666667
 40
0.1666666666666667
 40
0.1666666666666667
 40
0.1666666666666667
 40
0.3333333333333333
 40
0.3333333333333333
 40
0.3333333333333333
 40
0.3333333333333333
 40
0.5
 40
0.5
 40
0.5
 40
0.5
 40
0.6666666666666666
 40
0.6666666666666666
 40
0.6666666666666666
 40
0.6666666666666666
 40
0.8333333333333333
 40
0.8333333333333333
 40
0.8333333333333333
 40
0.8333333333333333
 40
1.0
 40
1.0
 40
1.0
 40
1.0
 10
-0.8950748031496063
 20
3.8904015748031497
 30
0.0
 10
-0.8950748031496063
 20
3.8904015748031497
 30
0.0
 10
-0.2355551181102362
 20
3.5004448818897638
 30
0.0
 10
-0.2355551181102362
 20
3.5004448818897638
 30
0.0
 10
-0.2355551181102362
 20
3.5004448818897638
 30
0.0
 10
-0.2355551181102362
 20
3.5004448818897638
 30
0.0
 10
-0.2288188976377953
 20
3.5241692913385827
 30
0.0
 10
-0.2288188976377953
 20
3.5241692913385827
 30
0.0
 10
-0.2288188976377953
 20
3.5241692913385827
 30
0.0
 10
-0.2288188976377953
 20
3.5241692913385827
 30
0.0
 10
-0.2209527559055118
 20
3.5473976377952758
 30
0.0
 10
-0.2209527559055118
 20
3.5473976377952758
 30
0.0
 10
-0.2209527559055118
 20
3.5473976377952758
 30
0.0
 10
-0.2209527559055118
 20
3.5473976377952758
 30
0.0
 10
-0.880472440944882
 20
3.9373543307086614
 30
0.0
 10
-0.880472440944882
 20
3.9373543307086614
 30
0.0
 10
-0.880472440944882
 20
3.9373543307086614
 30
0.0
 10
-0.880472440944882
 20
3.9373543307086614
 30
0.0
 10
-0.8883385826771654
 20
3.9141259842519687
 30
0.0
 10
-0.8883385826771654
 20
3.9141259842519687
 30
0.0
 10
-0.8883385826771654
 20
3.9141259842519687
 30
0.0
 10
-0.8883385826771654
 20
3.9141259842519687
 30
0.0
 10
-0.8950748031496063
 20
3.8904015748031497
 30
0.0
 10
-0.8950748031496063
 20
3.8904015748031497
 30
0.0
  0
SPLINE
  5
45
100
AcDbEntity
  8
Additional Graphics
 62
     9
100
AcDbSpline
210
0.0
220
0.0
230
1.0
 70
     1
 71
     3
 72
    28
 73
    24
 74
     0
 42
0.0000000001
 43
0.0000000001
 40
0.0
 40
0.0
 40
0.0
 40
0.0
 40
0.1666666666666667
 40
0.1666666666666667
 40
0.1666666666666667
 40
0.1666666666666667
 40
0.3333333333333333
 40
0.3333333333333333
 40
0.3333333333333333
 40
0.3333333333333333
 40
0.5
 40
0.5
 40
0.5
 40
0.5
 40
0.6666666666666666
 40
0.6666666666666666
 40
0.6666666666666666
 40
0.6666666666666666
 40
0.8333333333333333
 40
0.8333333333333333
 40
0.8333333333333333
 40
0.8333333333333333
 40
1.0
 40
1.0
 40
1.0
 40
1.0
 10
-0.880472440944882
 20
3.9373543307086614
 30
0.0
 10
-0.880472440944882
 20
3.9373543307086614
 30
0.0
 10
-0.2209527559055118
 20
3.5473976377952758
 30
0.0
 10
-0.2209527559055118
 20
3.5473976377952758
 30
0.0
 10
-0.2209527559055118
 20
3.5473976377952758
 30
0.0
 10
-0.2209527559055118
 20
3.5473976377952758
 30
0.0
 10
-0.212003937007874
 20
3.5701102362204726
 30
0.0
 10
-0.212003937007874
 20
3.5701102362204726
 30
0.0
 10
-0.212003937007874
 20
3.5701102362204726
 30
0.0
 10
-0.212003937007874
 20
3.5701102362204726
 30
0.0
 10
-0.201984251968504
 20
3.5922519685039371
 30
0.0
 10
-0.201984251968504
 20
3.5922519685039371
 30
0.0
 10
-0.201984251968504
 20
3.5922519685039371
 30
0.0
 10
-0.201984251968504
 20
3.5922519685039371
 30
0.0
 10
-0.8615039370078741
 20
3.9822086614173231
 30
0.0
 10
-0.8615039370078741
 20
3.9822086614173231
 30
0.0
 10
-0.8615039370078741
 20
3.9822086614173231
 30
0.0
 10
-0.8615039370078741
 20
3.9822086614173231
 30
0.0
 10
-0.8715236220472441
 20
3.9600669291338586
 30
0.0
 10
-0.8715236220472441
 20
3.9600669291338586
 30
0.0
 10
-0.8715236220472441
 20
3.9600669291338586
 30
0.0
 10
-0.8715236220472441
 20
3.9600669291338586
 30
0.0
 10
-0.880472440944882
 20
3.9373543307086614
 30
0.0
 10
-0.880472440944882
 20
3.9373543307086614
 30
0.0
  0
SPLINE
  5
46
100
AcDbEntity
  8
Additional Graphics
 62
     9
100
AcDbSpline
210
0.0
220
0.0
230
1.0
 70
     1
 71
     3
 72
    28
 73
    24
 74
     0
 42
0.0000000001
 43
0.0000000001
 40
0.0
 40
0.0
 40
0.0
 40
0.0
 40
0.1666666666666667
 40
0.1666666666666667
 40
0.1666666666666667
 40
0.1666666666666667
 40
0.3333333333333333
 40
0.3333333333333333
 40
0.3333333333333333
 40
0.3333333333333333
 40
0.5
 40
0.5
 40
0.5
 40
0.5
 40
0.6666666666666666
 40
0.6666666666666666
 40
0.6666666666666666
 40
0.6666666666666666
 40
0.8333333333333333
 40
0.8333333333333333
 40
0.8333333333333333
 40
0.8333333333333333
 40
1.0
 40
1.0
 40
1.0
 40
1.0
 10
-0.8615039370078741
 20
3.9822086614173231
 30
0.0
 10
-0.8615039370078741
 20
3.9822086614173231
 30
0.0
 10
-0.201984251968504
 20
3.5922519685039371
 30
0.0
 10
-0.201984251968504
 20
3.5922519685039371
 30
0.0
 10
-0.201984251968504
 20
3.5922519685039371
 30
0.0
 10
-0.201984251968504
 20
3.5922519685039371
 30
0.0
 10
-0.1909409448818898
 20
3.6138149606299215
 30
0.0
 10
-0.1909409448818898
 20
3.6138149606299215
 30
0.0
 10
-0.1909409448818898
 20
3.6138149606299215
 30
0.0
 10
-0.1909409448818898
 20
3.6138149606299215
 30
0.0
 10
-0.1788976377952756
 20
3.6347519685039371
 30
0.0
 10
-0.1788976377952756
 20
3.6347519685039371
 30
0.0
 10
-0.1788976377952756
 20
3.6347519685039371
 30
0.0
 10
-0.1788976377952756
 20
3.6347519685039371
 30
0.0
 10
-0.8384173228346457
 20
4.0247086614173231
 30
0.0
 10
-0.8384173228346457
 20
4.0247086614173231
 30
0.0
 10
-0.8384173228346457
 20
4.0247086614173231
 30
0.0
 10
-0.8384173228346457
 20
4.0247086614173231
 30
0.0
 10
-0.8504606299212599
 20
4.003771653543307
 30
0.0
 10
-0.8504606299212599
 20
4.003771653543307
 30
0.0
 10
-0.8504606299212599
 20
4.003771653543307
 30
0.0
 10
-0.8504606299212599
 20
4.003771653543307
 30
0.0
 10
-0.8615039370078741
 20
3.9822086614173231
 30
0.0
 10
-0.8615039370078741
 20
3.9822086614173231
 30
0.0
  0
SPLINE
  5
47
100
AcDbEntity
  8
Additional Graphics
 62
     9
100
AcDbSpline
210
0.0
220
0.0
230
1.0
 70
     1
 71
     3
 72
    28
 73
    24
 74
     0
 42
0.0000000001
 43
0.0000000001
 40
0.0
 40
0.0
 40
0.0
 40
0.0
 40
0.1666666666666667
 40
0.1666666666666667
 40
0.1666666666666667
 40
0.1666666666666667
 40
0.3333333333333333
 40
0.3333333333333333
 40
0.3333333333333333
 40
0.3333333333333333
 40
0.5
 40
0.5
 40
0.5
 40
0.5
 40
0.6666666666666666
 40
0.6666666666666666
 40
0.6666666666666666
 40
0.6666666666666666
 40
0.8333333333333333
 40
0.8333333333333333
 40
0.8333333333333333
 40
0.8333333333333333
 40
1.0
 40
1.0
 40
1.0
 40
1.0
 10
-0.8384173228346457
 20
4.0247086614173231
 30
0.0
 10
-0.8384173228346457
 20
4.0247086614173231
 30
0.0
 10
-0.1788976377952756
 20
3.6347519685039371
 30
0.0
 10
-0.1788976377952756
 20
3.6347519685039371
 30
0.0
 10
-0.1788976377952756
 20
3.6347519685039371
 30
0.0
 10
-0.1788976377952756
 20
3.6347519685039371
 30
0.0
 10
-0.1658976377952756
 20
3.6550433070866144
 30
0.0
 10
-0.1658976377952756
 20
3.6550433070866144
 30
0.0
 10
-0.1658976377952756
 20
3.6550433070866144
 30
0.0
 10
-0.1658976377952756
 20
3.6550433070866144
 30
0.0
 10
-0.1519566929133858
 20
3.6746456692913387
 30
0.0
 10
-0.1519566929133858
 20
3.6746456692913387
 30
0.0
 10
-0.1519566929133858
 20
3.6746456692913387
 30
0.0
 10
-0.1519566929133858
 20
3.6746456692913387
 30
0.0
 10
-0.811476377952756
 20
4.0646023622047247
 30
0.0
 10
-0.811476377952756
 20
4.0646023622047247
 30
0.0
 10
-0.811476377952756
 20
4.0646023622047247
 30
0.0
 10
-0.811476377952756
 20
4.0646023622047247
 30
0.0
 10
-0.8254173228346458
 20
4.0449999999999999
 30
0.0
 10
-0.8254173228346458
 20
4.0449999999999999
 30
0.0
 10
-0.8254173228346458
 20
4.0449999999999999
 30
0.0
 10
-0.8254173228346458
 20
4.0449999999999999
 30
0.0
 10
-0.8384173228346457
 20
4.0247086614173231
 30
0.0
 10
-0.8384173228346457
 20
4.0247086614173231
 30
0.0
  0
SPLINE
  5
48
100
AcDbEntity
  8
Additional Graphics
 62
     9
100
AcDbSpline
210
0.0
220
0.0
230
1.0
 70
     1
 71
     3
 72
    28
 73
    24
 74
     0
 42
0.0000000001
 43
0.0000000001
 40
0.0
 40
0.0
 40
0.0
 40
0.0
 40
0.1666666666666667
 40
0.1666666666666667
 40
0.1666666666666667
 40
0.1666666666666667
 40
0.3333333333333333
 40
0.3333333333333333
 40
0.3333333333333333
 40
0.3333333333333333
 40
0.5
 40
0.5
 40
0.5
 40
0.5
 40
0.6666666666666666
 40
0.6666666666666666
 40
0.6666666666666666
 40
0.6666666666666666
 40
0.8333333333333333
 40
0.8333333333333333
 40
0.8333333333333333
 40
0.8333333333333333
 40
1.0
 40
1.0
 40
1.0
 40
1.0
 10
-0.811476377952756
 20
4.0646023622047247
 30
0.0
 10
-0.811476377952756
 20
4.0646023622047247
 30
0.0
 10
-0.1519566929133858
 20
3.6746456692913387
 30
0.0
 10
-0.1519566929133858
 20
3.6746456692913387
 30
0.0
 10
-0.1519566929133858
 20
3.6746456692913387
 30
0.0
 10
-0.1519566929133858
 20
3.6746456692913387
 30
0.0
 10
-0.1371141732283465
 20
3.6935354330708661
 30
0.0
 10
-0.1371141732283465
 20
3.6935354330708661
 30
0.0
 10
-0.1371141732283465
 20
3.6935354330708661
 30
0.0
 10
-0.1371141732283465
 20
3.6935354330708661
 30
0.0
 10
-0.1213976377952756
 20
3.711677165354331
 30
0.0
 10
-0.1213976377952756
 20
3.711677165354331
 30
0.0
 10
-0.1213976377952756
 20
3.711677165354331
 30
0.0
 10
-0.1213976377952756
 20
3.711677165354331
 30
0.0
 10
-0.7809173228346457
 20
4.101633858267717
 30
0.0
 10
-0.7809173228346457
 20
4.101633858267717
 30
0.0
 10
-0.7809173228346457
 20
4.101633858267717
 30
0.0
 10
-0.7809173228346457
 20
4.101633858267717
 30
0.0
 10
-0.7966338582677166
 20
4.083492125984252
 30
0.0
 10
-0.7966338582677166
 20
4.083492125984252
 30
0.0
 10
-0.7966338582677166
 20
4.083492125984252
 30
0.0
 10
-0.7966338582677166
 20
4.083492125984252
 30
0.0
 10
-0.811476377952756
 20
4.0646023622047247
 30
0.0
 10
-0.811476377952756
 20
4.0646023622047247
 30
0.0
  0
SPLINE
  5
49
100
AcDbEntity
  8
Additional Graphics
 62
     9
100
AcDbSpline
210
0.0
220
0.0
230
1.0
 70
     1
 71
     3
 72
    28
 73
    24
 74
     0
 42
0.0000000001
 43
0.0000000001
 40
0.0
 40
0.0
 40
0.0
 40
0.0
 40
0.1666666666666667
 40
0.1666666666666667
 40
0.1666666666666667
 40
0.1666666666666667
 40
0.3333333333333333
 40
0.3333333333333333
 40
0.3333333333333333
 40
0.3333333333333333
 40
0.5
 40
0.5
 40
0.5
 40
0.5
 40
0.6666666666666666
 40
0.6666666666666666
 40
0.6666666666666666
 40
0.6666666666666666
 40
0.8333333333333333
 40
0.8333333333333333
 40
0.8333333333333333
 40
0.8333333333333333
 40
1.0
 40
1.0
 40
1.0
 40
1.0
 10
-0.7809173228346457
 20
4.101633858267717
 30
0.0
 10
-0.7809173228346457
 20
4.101633858267717
 30
0.0
 10
-0.1213976377952756
 20
3.711677165354331
 30
0.0
 10
-0.1213976377952756
 20
3.711677165354331
 30
0.0
 10
-0.1213976377952756
 20
3.711677165354331
 30
0.0
 10
-0.1213976377952756
 20
3.711677165354331
 30
0.0
 10
-0.1048425196850394
 20
3.7290472440944882
 30
0.0
 10
-0.1048425196850394
 20
3.7290472440944882
 30
0.0
 10
-0.1048425196850394
 20
3.7290472440944882
 30
0.0
 10
-0.1048425196850394
 20
3.7290472440944882
 30
0.0
 10
-0.0874724409448819
 20
3.7456023622047248
 30
0.0
 10
-0.0874724409448819
 20
3.7456023622047248
 30
0.0
 10
-0.0874724409448819
 20
3.7456023622047248
 30
0.0
 10
-0.0874724409448819
 20
3.7456023622047248
 30
0.0
 10
-0.746992125984252
 20
4.1355590551181107
 30
0.0
 10
-0.746992125984252
 20
4.1355590551181107
 30
0.0
 10
-0.746992125984252
 20
4.1355590551181107
 30
0.0
 10
-0.746992125984252
 20
4.1355590551181107
 30
0.0
 10
-0.7643622047244095
 20
4.1190039370078741
 30
0.0
 10
-0.7643622047244095
 20
4.1190039370078741
 30
0.0
 10
-0.7643622047244095
 20
4.1190039370078741
 30
0.0
 10
-0.7643622047244095
 20
4.1190039370078741
 30
0.0
 10
-0.7809173228346457
 20
4.101633858267717
 30
0.0
 10
-0.7809173228346457
 20
4.101633858267717
 30
0.0
  0
SPLINE
  5
4A
100
AcDbEntity
  8
Additional Graphics
 62
     9
100
AcDbSpline
210
0.0
220
0.0
230
1.0
 70
     1
 71
     3
 72
    28
 73
    24
 74
     0
 42
0.0000000001
 43
0.0000000001
 40
0.0
 40
0.0
 40
0.0
 40
0.0
 40
0.1666666666666667
 40
0.1666666666666667
 40
0.1666666666666667
 40
0.1666666666666667
 40
0.3333333333333333
 40
0.3333333333333333
 40
0.3333333333333333
 40
0.3333333333333333
 40
0.5
 40
0.5
 40
0.5
 40
0.5
 40
0.6666666666666666
 40
0.6666666666666666
 40
0.6666666666666666
 40
0.6666666666666666
 40
0.8333333333333333
 40
0.8333333333333333
 40
0.8333333333333333
 40
0.8333333333333333
 40
1.0
 40
1.0
 40
1.0
 40
1.0
 10
-0.746992125984252
 20
4.1355590551181107
 30
0.0
 10
-0.746992125984252
 20
4.1355590551181107
 30
0.0
 10
-0.0874724409448819
 20
3.7456023622047248
 30
0.0
 10
-0.0874724409448819
 20
3.7456023622047248
 30
0.0
 10
-0.0874724409448819
 20
3.7456023622047248
 30
0.0
 10
-0.0874724409448819
 20
3.7456023622047248
 30
0.0
 10
-0.0693307086614173
 20
3.7613188976377954
 30
0.0
 10
-0.0693307086614173
 20
3.7613188976377954
 30
0.0
 10
-0.0693307086614173
 20
3.7613188976377954
 30
0.0
 10
-0.0693307086614173
 20
3.7613188976377954
 30
0.0
 10
-0.0504409448818898
 20
3.7761614173228346
 30
0.0
 10
-0.0504409448818898
 20
3.7761614173228346
 30
0.0
 10
-0.0504409448818898
 20
3.7761614173228346
 30
0.0
 10
-0.0504409448818898
 20
3.7761614173228346
 30
0.0
 10
-0.7099606299212599
 20
4.166118110236221
 30
0.0
 10
-0.7099606299212599
 20
4.166118110236221
 30
0.0
 10
-0.7099606299212599
 20
4.166118110236221
 30
0.0
 10
-0.7099606299212599
 20
4.166118110236221
 30
0.0
 10
-0.7288503937007874
 20
4.1512755905511813
 30
0.0
 10
-0.7288503937007874
 20
4.1512755905511813
 30
0.0
 10
-0.7288503937007874
 20
4.1512755905511813
 30
0.0
 10
-0.7288503937007874
 20
4.1512755905511813
 30
0.0
 10
-0.746992125984252
 20
4.1355590551181107
 30
0.0
 10
-0.746992125984252
 20
4.1355590551181107
 30
0.0
  0
SPLINE
  5
4B
100
AcDbEntity
  8
Additional Graphics
 62
     9
100
AcDbSpline
210
0.0
220
0.0
230
1.0
 70
     1
 71
     3
 72
    28
 73
    24
 74
     0
 42
0.0000000001
 43
0.0000000001
 40
0.0
 40
0.0
 40
0.0
 40
0.0
 40
0.1666666666666667
 40
0.1666666666666667
 40
0.1666666666666667
 40
0.1666666666666667
 40
0.3333333333333333
 40
0.3333333333333333
 40
0.3333333333333333
 40
0.3333333333333333
 40
0.5
 40
0.5
 40
0.5
 40
0.5
 40
0.6666666666666666
 40
0.6666666666666666
 40
0.6666666666666666
 40
0.6666666666666666
 40
0.8333333333333333
 40
0.8333333333333333
 40
0.8333333333333333
 40
0.8333333333333333
 40
1.0
 40
1.0
 40
1.0
 40
1.0
 10
-0.7099606299212599
 20
4.166118110236221
 30
0.0
 10
-0.7099606299212599
 20
4.166118110236221
 30
0.0
 10
-0.0504409448818898
 20
3.7761614173228346
 30
0.0
 10
-0.0504409448818898
 20
3.7761614173228346
 30
0.0
 10
-0.0504409448818898
 20
3.7761614173228346
 30
0.0
 10
-0.0504409448818898
 20
3.7761614173228346
 30
0.0
 10
-0.0308385826771654
 20
3.7901023622047245
 30
0.0
 10
-0.0308385826771654
 20
3.7901023622047245
 30
0.0
 10
-0.0308385826771654
 20
3.7901023622047245
 30
0.0
 10
-0.0308385826771654
 20
3.7901023622047245
 30
0.0
 10
-0.0105472440944882
 20
3.8031023622047244
 30
0.0
 10
-0.0105472440944882
 20
3.8031023622047244
 30
0.0
 10
-0.0105472440944882
 20
3.8031023622047244
 30
0.0
 10
-0.0105472440944882
 20
3.8031023622047244
 30
0.0
 10
-0.6700669291338584
 20
4.1930590551181108
 30
0.0
 10
-0.6700669291338584
 20
4.1930590551181108
 30
0.0
 10
-0.6700669291338584
 20
4.1930590551181108
 30
0.0
 10
-0.6700669291338584
 20
4.1930590551181108
 30
0.0
 10
-0.6903582677165354
 20
4.18005905511811
 30
0.0
 10
-0.6903582677165354
 20
4.18005905511811
 30
0.0
 10
-0.6903582677165354
 20
4.18005905511811
 30
0.0
 10
-0.6903582677165354
 20
4.18005905511811
 30
0.0
 10
-0.7099606299212599
 20
4.166118110236221
 30
0.0
 10
-0.7099606299212599
 20
4.166118110236221
 30
0.0
  0
SPLINE
  5
4C
100
AcDbEntity
  8
Additional Graphics
 62
     9
100
AcDbSpline
210
0.0
220
0.0
230
1.0
 70
     1
 71
     3
 72
    28
 73
    24
 74
     0
 42
0.0000000001
 43
0.0000000001
 40
0.0
 40
0.0
 40
0.0
 40
0.0
 40
0.1666666666666667
 40
0.1666666666666667
 40
0.1666666666666667
 40
0.1666666666666667
 40
0.3333333333333333
 40
0.3333333333333333
 40
0.3333333333333333
 40
0.3333333333333333
 40
0.5
 40
0.5
 40
0.5
 40
0.5
 40
0.6666666666666666
 40
0.6666666666666666
 40
0.6666666666666666
 40
0.6666666666666666
 40
0.8333333333333333
 40
0.8333333333333333
 40
0.8333333333333333
 40
0.8333333333333333
 40
1.0
 40
1.0
 40
1.0
 40
1.0
 10
-0.6700669291338584
 20
4.1930590551181108
 30
0.0
 10
-0.6700669291338584
 20
4.1930590551181108
 30
0.0
 10
-0.0105472440944882
 20
3.8031023622047244
 30
0.0
 10
-0.0105472440944882
 20
3.8031023622047244
 30
0.0
 10
-0.0105472440944882
 20
3.8031023622047244
 30
0.0
 10
-0.0105472440944882
 20
3.8031023622047244
 30
0.0
 10
0.0103897637795276
 20
3.8151456692913386
 30
0.0
 10
0.0103897637795276
 20
3.8151456692913386
 30
0.0
 10
0.0103897637795276
 20
3.8151456692913386
 30
0.0
 10
0.0103897637795276
 20
3.8151456692913386
 30
0.0
 10
0.0319527559055118
 20
3.8261889763779529
 30
0.0
 10
0.0319527559055118
 20
3.8261889763779529
 30
0.0
 10
0.0319527559055118
 20
3.8261889763779529
 30
0.0
 10
0.0319527559055118
 20
3.8261889763779529
 30
0.0
 10
-0.6275669291338583
 20
4.2161456692913388
 30
0.0
 10
-0.6275669291338583
 20
4.2161456692913388
 30
0.0
 10
-0.6275669291338583
 20
4.2161456692913388
 30
0.0
 10
-0.6275669291338583
 20
4.2161456692913388
 30
0.0
 10
-0.6491299212598426
 20
4.205102362204725
 30
0.0
 10
-0.6491299212598426
 20
4.205102362204725
 30
0.0
 10
-0.6491299212598426
 20
4.205102362204725
 30
0.0
 10
-0.6491299212598426
 20
4.205102362204725
 30
0.0
 10
-0.6700669291338584
 20
4.1930590551181108
 30
0.0
 10
-0.6700669291338584
 20
4.1930590551181108
 30
0.0
  0
SPLINE
  5
4D
100
AcDbEntity
  8
Additional Graphics
 62
     9
100
AcDbSpline
210
0.0
220
0.0
230
1.0
 70
     1
 71
     3
 72
    28
 73
    24
 74
     0
 42
0.0000000001
 43
0.0000000001
 40
0.0
 40
0.0
 40
0.0
 40
0.0
 40
0.1666666666666667
 40
0.1666666666666667
 40
0.1666666666666667
 40
0.1666666666666667
 40
0.3333333333333333
 40
0.3333333333333333
 40
0.3333333333333333
 40
0.3333333333333333
 40
0.5
 40
0.5
 40
0.5
 40
0.5
 40
0.6666666666666666
 40
0.6666666666666666
 40
0.6666666666666666
 40
0.6666666666666666
 40
0.8333333333333333
 40
0.8333333333333333
 40
0.8333333333333333
 40
0.8333333333333333
 40
1.0
 40
1.0
 40
1.0
 40
1.0
 10
-0.6275669291338583
 20
4.2161456692913388
 30
0.0
 10
-0.6275669291338583
 20
4.2161456692913388
 30
0.0
 10
0.0319527559055118
 20
3.8261889763779529
 30
0.0
 10
0.0319527559055118
 20
3.8261889763779529
 30
0.0
 10
0.0319527559055118
 20
3.8261889763779529
 30
0.0
 10
0.0319527559055118
 20
3.8261889763779529
 30
0.0
 10
0.0540944881889764
 20
3.8362086614173232
 30
0.0
 10
0.0540944881889764
 20
3.8362086614173232
 30
0.0
 10
0.0540944881889764
 20
3.8362086614173232
 30
0.0
 10
0.0540944881889764
 20
3.8362086614173232
 30
0.0
 10
0.0768070866141732
 20
3.8451574803149606
 30
0.0
 10
0.0768070866141732
 20
3.8451574803149606
 30
0.0
 10
0.0768070866141732
 20
3.8451574803149606
 30
0.0
 10
0.0768070866141732
 20
3.8451574803149606
 30
0.0
 10
-0.5827125984251969
 20
4.2351141732283466
 30
0.0
 10
-0.5827125984251969
 20
4.2351141732283466
 30
0.0
 10
-0.5827125984251969
 20
4.2351141732283466
 30
0.0
 10
-0.5827125984251969
 20
4.2351141732283466
 30
0.0
 10
-0.6054251968503938
 20
4.2261653543307087
 30
0.0
 10
-0.6054251968503938
 20
4.2261653543307087
 30
0.0
 10
-0.6054251968503938
 20
4.2261653543307087
 30
0.0
 10
-0.6054251968503938
 20
4.2261653543307087
 30
0.0
 10
-0.6275669291338583
 20
4.2161456692913388
 30
0.0
 10
-0.6275669291338583
 20
4.2161456692913388
 30
0.0
  0
SPLINE
  5
4E
100
AcDbEntity
  8
Additional Graphics
 62
     9
100
AcDbSpline
210
0.0
220
0.0
230
1.0
 70
     1
 71
     3
 72
    28
 73
    24
 74
     0
 42
0.0000000001
 43
0.0000000001
 40
0.0
 40
0.0
 40
0.0
 40
0.0
 40
0.1666666666666667
 40
0.1666666666666667
 40
0.1666666666666667
 40
0.1666666666666667
 40
0.3333333333333333
 40
0.3333333333333333
 40
0.3333333333333333
 40
0.3333333333333333
 40
0.5
 40
0.5
 40
0.5
 40
0.5
 40
0.6666666666666666
 40
0.6666666666666666
 40
0.6666666666666666
 40
0.6666666666666666
 40
0.8333333333333333
 40
0.8333333333333333
 40
0.8333333333333333
 40
0.8333333333333333
 40
1.0
 40
1.0
 40
1.0
 40
1.0
 10
-0.5827125984251969
 20
4.2351141732283466
 30
0.0
 10
-0.5827125984251969
 20
4.2351141732283466
 30
0.0
 10
0.0768070866141732
 20
3.8451574803149606
 30
0.0
 10
0.0768070866141732
 20
3.8451574803149606
 30
0.0
 10
0.0768070866141732
 20
3.8451574803149606
 30
0.0
 10
0.0768070866141732
 20
3.8451574803149606
 30
0.0
 10
0.1000354330708661
 20
3.8530236220472442
 30
0.0
 10
0.1000354330708661
 20
3.8530236220472442
 30
0.0
 10
0.1000354330708661
 20
3.8530236220472442
 30
0.0
 10
0.1000354330708661
 20
3.8530236220472442
 30
0.0
 10
0.123759842519685
 20
3.8597598425196851
 30
0.0
 10
0.123759842519685
 20
3.8597598425196851
 30
0.0
 10
0.123759842519685
 20
3.8597598425196851
 30
0.0
 10
0.123759842519685
 20
3.8597598425196851
 30
0.0
 10
-0.5357598425196851
 20
4.2497165354330706
 30
0.0
 10
-0.5357598425196851
 20
4.2497165354330706
 30
0.0
 10
-0.5357598425196851
 20
4.2497165354330706
 30
0.0
 10
-0.5357598425196851
 20
4.2497165354330706
 30
0.0
 10
-0.5594842519685039
 20
4.2429803149606302
 30
0.0
 10
-0.5594842519685039
 20
4.2429803149606302
 30
0.0
 10
-0.5594842519685039
 20
4.2429803149606302
 30
0.0
 10
-0.5594842519685039
 20
4.2429803149606302
 30
0.0
 10
-0.5827125984251969
 20
4.2351141732283466
 30
0.0
 10
-0.5827125984251969
 20
4.2351141732283466
 30
0.0
  0
SPLINE
  5
4F
100
AcDbEntity
  8
Additional Graphics
 62
     9
100
AcDbSpline
210
0.0
220
0.0
230
1.0
 70
     1
 71
     3
 72
    28
 73
    24
 74
     0
 42
0.0000000001
 43
0.0000000001
 40
0.0
 40
0.0
 40
0.0
 40
0.0
 40
0.1666666666666667
 40
0.1666666666666667
 40
0.1666666666666667
 40
0.1666666666666667
 40
0.3333333333333333
 40
0.3333333333333333
 40
0.3333333333333333
 40
0.3333333333333333
 40
0.5
 40
0.5
 40
0.5
 40
0.5
 40
0.6666666666666666
 40
0.6666666666666666
 40
0.6666666666666666
 40
0.6666666666666666
 40
0.8333333333333333
 40
0.8333333333333333
 40
0.8333333333333333
 40
0.8333333333333333
 40
1.0
 40
1.0
 40
1.0
 40
1.0
 10
-0.5357598425196851
 20
4.2497165354330706
 30
0.0
 10
-0.5357598425196851
 20
4.2497165354330706
 30
0.0
 10
0.123759842519685
 20
3.8597598425196851
 30
0.0
 10
0.123759842519685
 20
3.8597598425196851
 30
0.0
 10
0.123759842519685
 20
3.8597598425196851
 30
0.0
 10
0.123759842519685
 20
3.8597598425196851
 30
0.0
 10
0.1479448818897638
 20
3.8653464566929134
 30
0.0
 10
0.1479448818897638
 20
3.8653464566929134
 30
0.0
 10
0.1479448818897638
 20
3.8653464566929134
 30
0.0
 10
0.1479448818897638
 20
3.8653464566929134
 30
0.0
 10
0.1725669291338583
 20
3.8697401574803152
 30
0.0
 10
0.1725669291338583
 20
3.8697401574803152
 30
0.0
 10
0.1725669291338583
 20
3.8697401574803152
 30
0.0
 10
0.1725669291338583
 20
3.8697401574803152
 30
0.0
 10
-0.4869527559055119
 20
4.2596968503937012
 30
0.0
 10
-0.4869527559055119
 20
4.2596968503937012
 30
0.0
 10
-0.4869527559055119
 20
4.2596968503937012
 30
0.0
 10
-0.4869527559055119
 20
4.2596968503937012
 30
0.0
 10
-0.5115748031496064
 20
4.2553031496062994
 30
0.0
 10
-0.5115748031496064
 20
4.2553031496062994
 30
0.0
 10
-0.5115748031496064
 20
4.2553031496062994
 30
0.0
 10
-0.5115748031496064
 20
4.2553031496062994
 30
0.0
 10
-0.5357598425196851
 20
4.2497165354330706
 30
0.0
 10
-0.5357598425196851
 20
4.2497165354330706
 30
0.0
  0
SPLINE
  5
50
100
AcDbEntity
  8
Additional Graphics
 62
     9
100
AcDbSpline
210
0.0
220
0.0
230
1.0
 70
     1
 71
     3
 72
    20
 73
    16
 74
     0
 42
0.0000000001
 43
0.0000000001
 40
0.0
 40
0.0
 40
0.0
 40
0.0
 40
0.25
 40
0.25
 40
0.25
 40
0.25
 40
0.5
 40
0.5
 40
0.5
 40
0.5
 40
0.75
 40
0.75
 40
0.75
 40
0.75
 40
1.0
 40
1.0
 40
1.0
 40
1.0
 10
-0.4869527559055119
 20
4.2596968503937012
 30
0.0
 10
-0.4869527559055119
 20
4.2596968503937012
 30
0.0
 10
0.1725669291338583
 20
3.8697401574803152
 30
0.0
 10
0.1725669291338583
 20
3.8697401574803152
 30
0.0
 10
0.1725669291338583
 20
3.8697401574803152
 30
0.0
 10
0.1725669291338583
 20
3.8697401574803152
 30
0.0
 10
0.1975826771653543
 20
3.8729251968503937
 30
0.0
 10
0.1975826771653543
 20
3.8729251968503937
 30
0.0
 10
0.1975826771653543
 20
3.8729251968503937
 30
0.0
 10
0.1975826771653543
 20
3.8729251968503937
 30
0.0
 10
-0.4619370078740158
 20
4.2628818897637801
 30
0.0
 10
-0.4619370078740158
 20
4.2628818897637801
 30
0.0
 10
-0.4619370078740158
 20
4.2628818897637801
 30
0.0
 10
-0.4619370078740158
 20
4.2628818897637801
 30
0.0
 10
-0.4869527559055119
 20
4.2596968503937012
 30
0.0
 10
-0.4869527559055119
 20
4.2596968503937012
 30
0.0
  0
SPLINE
  5
51
100
AcDbEntity
  8
Additional Graphics
 62
     9
100
AcDbSpline
210
0.0
220
0.0
230
1.0
 70
     1
 71
     3
 72
    20
 73
    16
 74
     0
 42
0.0000000001
 43
0.0000000001
 40
0.0
 40
0.0
 40
0.0
 40
0.0
 40
0.25
 40
0.25
 40
0.25
 40
0.25
 40
0.5
 40
0.5
 40
0.5
 40
0.5
 40
0.75
 40
0.75
 40
0.75
 40
0.75
 40
1.0
 40
1.0
 40
1.0
 40
1.0
 10
-0.4619370078740158
 20
4.2628818897637801
 30
0.0
 10
-0.4619370078740158
 20
4.2628818897637801
 30
0.0
 10
0.1975826771653543
 20
3.8729251968503937
 30
0.0
 10
0.1975826771653543
 20
3.8729251968503937
 30
0.0
 10
0.1975826771653543
 20
3.8729251968503937
 30
0.0
 10
0.1975826771653543
 20
3.8729251968503937
 30
0.0
 10
0.2229724409448819
 20
3.8748582677165357
 30
0.0
 10
0.2229724409448819
 20
3.8748582677165357
 30
0.0
 10
0.2229724409448819
 20
3.8748582677165357
 30
0.0
 10
0.2229724409448819
 20
3.8748582677165357
 30
0.0
 10
-0.4365472440944882
 20
4.2648149606299217
 30
0.0
 10
-0.4365472440944882
 20
4.2648149606299217
 30
0.0
 10
-0.4365472440944882
 20
4.2648149606299217
 30
0.0
 10
-0.4365472440944882
 20
4.2648149606299217
 30
0.0
 10
-0.4619370078740158
 20
4.2628818897637801
 30
0.0
 10
-0.4619370078740158
 20
4.2628818897637801
 30
0.0
  0
SPLINE
  5
52
100
AcDbEntity
  8
Additional Graphics
 62
     9
100
AcDbSpline
210
0.0
220
0.0
230
1.0
 70
     1
 71
     3
 72
    20
 73
    16
 74
     0
 42
0.0000000001
 43
0.0000000001
 40
0.0
 40
0.0
 40
0.0
 40
0.0
 40
0.25
 40
0.25
 40
0.25
 40
0.25
 40
0.5
 40
0.5
 40
0.5
 40
0.5
 40
0.75
 40
0.75
 40
0.75
 40
0.75
 40
1.0
 40
1.0
 40
1.0
 40
1.0
 10
-0.4365472440944882
 20
4.2648149606299217
 30
0.0
 10
-0.4365472440944882
 20
4.2648149606299217
 30
0.0
 10
0.2229724409448819
 20
3.8748582677165357
 30
0.0
 10
0.2229724409448819
 20
3.8748582677165357
 30
0.0
 10
0.2229724409448819
 20
3.8748582677165357
 30
0.0
 10
0.2229724409448819
 20
3.8748582677165357
 30
0.0
 10
0.2486929133858268
 20
3.8755118110236224
 30
0.0
 10
0.2486929133858268
 20
3.8755118110236224
 30
0.0
 10
0.2486929133858268
 20
3.8755118110236224
 30
0.0
 10
0.2486929133858268
 20
3.8755118110236224
 30
0.0
 10
-0.4108267716535433
 20
4.2654685039370079
 30
0.0
 10
-0.4108267716535433
 20
4.2654685039370079
 30
0.0
 10
-0.4108267716535433
 20
4.2654685039370079
 30
0.0
 10
-0.4108267716535433
 20
4.2654685039370079
 30
0.0
 10
-0.4365472440944882
 20
4.2648149606299217
 30
0.0
 10
-0.4365472440944882
 20
4.2648149606299217
 30
0.0
  0
SPLINE
  5
53
100
AcDbEntity
  8
Additional Graphics
370
     5
100
AcDbSpline
210
0.0
220
0.0
230
1.0
 70
     1
 71
     3
 72
   268
 73
   264
 74
     0
 42
0.0000000001
 43
0.0000000001
 40
0.0
 40
0.0
 40
0.0
 40
0.0
 40
0.0151515151515152
 40
0.0151515151515152
 40
0.0151515151515152
 40
0.0151515151515152
 40
0.0303030303030303
 40
0.0303030303030303
 40
0.0303030303030303
 40
0.0303030303030303
 40
0.0454545454545455
 40
0.0454545454545455
 40
0.0454545454545455
 40
0.0454545454545455
 40
0.0606060606060606
 40
0.0606060606060606
 40
0.0606060606060606
 40
0.0606060606060606
 40
0.0757575757575758
 40
0.0757575757575758
 40
0.0757575757575758
 40
0.0757575757575758
 40
0.0909090909090909
 40
0.0909090909090909
 40
0.0909090909090909
 40
0.0909090909090909
 40
0.1060606060606061
 40
0.1060606060606061
 40
0.1060606060606061
 40
0.1060606060606061
 40
0.1212121212121212
 40
0.1212121212121212
 40
0.1212121212121212
 40
0.1212121212121212
 40
0.1363636363636364
 40
0.1363636363636364
 40
0.1363636363636364
 40
0.1363636363636364
 40
0.1515151515151515
 40
0.1515151515151515
 40
0.1515151515151515
 40
0.1515151515151515
 40
0.1666666666666666
 40
0.1666666666666666
 40
0.1666666666666666
 40
0.1666666666666666
 40
0.1818181818181818
 40
0.1818181818181818
 40
0.1818181818181818
 40
0.1818181818181818
 40
0.1969696969696969
 40
0.1969696969696969
 40
0.1969696969696969
 40
0.1969696969696969
 40
0.212121212121212
 40
0.212121212121212
 40
0.212121212121212
 40
0.212121212121212
 40
0.2272727272727272
 40
0.2272727272727272
 40
0.2272727272727272
 40
0.2272727272727272
 40
0.2424242424242423
 40
0.2424242424242423
 40
0.2424242424242423
 40
0.2424242424242423
 40
0.2575757575757575
 40
0.2575757575757575
 40
0.2575757575757575
 40
0.2575757575757575
 40
0.2727272727272726
 40
0.2727272727272726
 40
0.2727272727272726
 40
0.2727272727272726
 40
0.2878787878787877
 40
0.2878787878787877
 40
0.2878787878787877
 40
0.2878787878787877
 40
0.3030303030303029
 40
0.3030303030303029
 40
0.3030303030303029
 40
0.3030303030303029
 40
0.318181818181818
 40
0.318181818181818
 40
0.318181818181818
 40
0.318181818181818
 40
0.3333333333333332
 40
0.3333333333333332
 40
0.3333333333333332
 40
0.3333333333333332
 40
0.3484848484848483
 40
0.3484848484848483
 40
0.3484848484848483
 40
0.3484848484848483
 40
0.3636363636363634
 40
0.3636363636363634
 40
0.3636363636363634
 40
0.3636363636363634
 40
0.3787878787878786
 40
0.3787878787878786
 40
0.3787878787878786
 40
0.3787878787878786
 40
0.3939393939393937
 40
0.3939393939393937
 40
0.3939393939393937
 40
0.3939393939393937
 40
0.4090909090909088
 40
0.4090909090909088
 40
0.4090909090909088
 40
0.4090909090909088
 40
0.424242424242424
 40
0.424242424242424
 40
0.424242424242424
 40
0.424242424242424
 40
0.4393939393939391
 40
0.4393939393939391
 40
0.4393939393939391
 40
0.4393939393939391
 40
0.4545454545454543
 40
0.4545454545454543
 40
0.4545454545454543
 40
0.4545454545454543
 40
0.4696969696969694
 40
0.4696969696969694
 40
0.4696969696969694
 40
0.4696969696969694
 40
0.4848484848484845
 40
0.4848484848484845
 40
0.4848484848484845
 40
0.4848484848484845
 40
0.4999999999999997
 40
0.4999999999999997
 40
0.4999999999999997
 40
0.4999999999999997
 40
0.5151515151515148
 40
0.5151515151515148
 40
0.5151515151515148
 40
0.5151515151515148
 40
0.5303030303030299
 40
0.5303030303030299
 40
0.5303030303030299
 40
0.5303030303030299
 40
0.5454545454545451
 40
0.5454545454545451
 40
0.5454545454545451
 40
0.5454545454545451
 40
0.5606060606060602
 40
0.5606060606060602
 40
0.5606060606060602
 40
0.5606060606060602
 40
0.5757575757575754
 40
0.5757575757575754
 40
0.5757575757575754
 40
0.5757575757575754
 40
0.5909090909090905
 40
0.5909090909090905
 40
0.5909090909090905
 40
0.5909090909090905
 40
0.6060606060606056
 40
0.6060606060606056
 40
0.6060606060606056
 40
0.6060606060606056
 40
0.6212121212121208
 40
0.6212121212121208
 40
0.6212121212121208
 40
0.6212121212121208
 40
0.6363636363636359
 40
0.6363636363636359
 40
0.6363636363636359
 40
0.6363636363636359
 40
0.6515151515151511
 40
0.6515151515151511
 40
0.6515151515151511
 40
0.6515151515151511
 40
0.6666666666666662
 40
0.6666666666666662
 40
0.6666666666666662
 40
0.6666666666666662
 40
0.6818181818181813
 40
0.6818181818181813
 40
0.6818181818181813
 40
0.6818181818181813
 40
0.6969696969696965
 40
0.6969696969696965
 40
0.6969696969696965
 40
0.6969696969696965
 40
0.7121212121212116
 40
0.7121212121212116
 40
0.7121212121212116
 40
0.7121212121212116
 40
0.7272727272727267
 40
0.7272727272727267
 40
0.7272727272727267
 40
0.7272727272727267
 40
0.7424242424242419
 40
0.7424242424242419
 40
0.7424242424242419
 40
0.7424242424242419
 40
0.757575757575757
 40
0.757575757575757
 40
0.757575757575757
 40
0.757575757575757
 40
0.7727272727272722
 40
0.7727272727272722
 40
0.7727272727272722
 40
0.7727272727272722
 40
0.7878787878787873
 40
0.7878787878787873
 40
0.7878787878787873
 40
0.7878787878787873
 40
0.8030303030303024
 40
0.8030303030303024
 40
0.8030303030303024
 40
0.8030303030303024
 40
0.8181818181818176
 40
0.8181818181818176
 40
0.8181818181818176
 40
0.8181818181818176
 40
0.8333333333333327
 40
0.8333333333333327
 40
0.8333333333333327
 40
0.8333333333333327
 40
0.8484848484848478
 40
0.8484848484848478
 40
0.8484848484848478
 40
0.8484848484848478
 40
0.863636363636363
 40
0.863636363636363
 40
0.863636363636363
 40
0.863636363636363
 40
0.8787878787878781
 40
0.8787878787878781
 40
0.8787878787878781
 40
0.8787878787878781
 40
0.8939393939393933
 40
0.8939393939393933
 40
0.8939393939393933
 40
0.8939393939393933
 40
0.9090909090909084
 40
0.9090909090909084
 40
0.9090909090909084
 40
0.9090909090909084
 40
0.9242424242424235
 40
0.9242424242424235
 40
0.9242424242424235
 40
0.9242424242424235
 40
0.9393939393939387
 40
0.9393939393939387
 40
0.9393939393939387
 40
0.9393939393939387
 40
0.9545454545454538
 40
0.9545454545454538
 40
0.9545454545454538
 40
0.9545454545454538
 40
0.969696969696969
 40
0.969696969696969
 40
0.969696969696969
 40
0.969696969696969
 40
0.9848484848484841
 40
0.9848484848484841
 40
0.9848484848484841
 40
0.9848484848484841
 40
1.0
 40
1.0
 40
1.0
 40
1.0
 10
-0.9108267716535433
 20
3.7654685039370079
 30
0.0
 10
-0.9108267716535433
 20
3.7654685039370079
 30
0.0
 10
-0.2513070866141732
 20
3.375511811023622
 30
0.0
 10
-0.2513070866141732
 20
3.375511811023622
 30
0.0
 10
-0.2513070866141732
 20
3.375511811023622
 30
0.0
 10
-0.2513070866141732
 20
3.375511811023622
 30
0.0
 10
-0.2506535433070866
 20
3.4012322834645672
 30
0.0
 10
-0.2506535433070866
 20
3.4012322834645672
 30
0.0
 10
-0.2506535433070866
 20
3.4012322834645672
 30
0.0
 10
-0.2506535433070866
 20
3.4012322834645672
 30
0.0
 10
-0.2487204724409449
 20
3.4266220472440945
 30
0.0
 10
-0.2487204724409449
 20
3.4266220472440945
 30
0.0
 10
-0.2487204724409449
 20
3.4266220472440945
 30
0.0
 10
-0.2487204724409449
 20
3.4266220472440945
 30
0.0
 10
-0.2455354330708661
 20
3.4516377952755906
 30
0.0
 10
-0.2455354330708661
 20
3.4516377952755906
 30
0.0
 10
-0.2455354330708661
 20
3.4516377952755906
 30
0.0
 10
-0.2455354330708661
 20
3.4516377952755906
 30
0.0
 10
-0.2411417322834646
 20
3.4762598425196853
 30
0.0
 10
-0.2411417322834646
 20
3.4762598425196853
 30
0.0
 10
-0.2411417322834646
 20
3.4762598425196853
 30
0.0
 10
-0.2411417322834646
 20
3.4762598425196853
 30
0.0
 10
-0.2355551181102362
 20
3.5004448818897638
 30
0.0
 10
-0.2355551181102362
 20
3.5004448818897638
 30
0.0
 10
-0.2355551181102362
 20
3.5004448818897638
 30
0.0
 10
-0.2355551181102362
 20
3.5004448818897638
 30
0.0
 10
-0.2288188976377953
 20
3.5241692913385827
 30
0.0
 10
-0.2288188976377953
 20
3.5241692913385827
 30
0.0
 10
-0.2288188976377953
 20
3.5241692913385827
 30
0.0
 10
-0.2288188976377953
 20
3.5241692913385827
 30
0.0
 10
-0.2209527559055118
 20
3.5473976377952758
 30
0.0
 10
-0.2209527559055118
 20
3.5473976377952758
 30
0.0
 10
-0.2209527559055118
 20
3.5473976377952758
 30
0.0
 10
-0.2209527559055118
 20
3.5473976377952758
 30
0.0
 10
-0.212003937007874
 20
3.5701102362204726
 30
0.0
 10
-0.212003937007874
 20
3.5701102362204726
 30
0.0
 10
-0.212003937007874
 20
3.5701102362204726
 30
0.0
 10
-0.212003937007874
 20
3.5701102362204726
 30
0.0
 10
-0.201984251968504
 20
3.5922519685039371
 30
0.0
 10
-0.201984251968504
 20
3.5922519685039371
 30
0.0
 10
-0.201984251968504
 20
3.5922519685039371
 30
0.0
 10
-0.201984251968504
 20
3.5922519685039371
 30
0.0
 10
-0.1909409448818898
 20
3.6138149606299215
 30
0.0
 10
-0.1909409448818898
 20
3.6138149606299215
 30
0.0
 10
-0.1909409448818898
 20
3.6138149606299215
 30
0.0
 10
-0.1909409448818898
 20
3.6138149606299215
 30
0.0
 10
-0.1788976377952756
 20
3.6347519685039371
 30
0.0
 10
-0.1788976377952756
 20
3.6347519685039371
 30
0.0
 10
-0.1788976377952756
 20
3.6347519685039371
 30
0.0
 10
-0.1788976377952756
 20
3.6347519685039371
 30
0.0
 10
-0.1658976377952756
 20
3.6550433070866144
 30
0.0
 10
-0.1658976377952756
 20
3.6550433070866144
 30
0.0
 10
-0.1658976377952756
 20
3.6550433070866144
 30
0.0
 10
-0.1658976377952756
 20
3.6550433070866144
 30
0.0
 10
-0.1519566929133858
 20
3.6746456692913387
 30
0.0
 10
-0.1519566929133858
 20
3.6746456692913387
 30
0.0
 10
-0.1519566929133858
 20
3.6746456692913387
 30
0.0
 10
-0.1519566929133858
 20
3.6746456692913387
 30
0.0
 10
-0.1371141732283465
 20
3.6935354330708661
 30
0.0
 10
-0.1371141732283465
 20
3.6935354330708661
 30
0.0
 10
-0.1371141732283465
 20
3.6935354330708661
 30
0.0
 10
-0.1371141732283465
 20
3.6935354330708661
 30
0.0
 10
-0.1213976377952756
 20
3.711677165354331
 30
0.0
 10
-0.1213976377952756
 20
3.711677165354331
 30
0.0
 10
-0.1213976377952756
 20
3.711677165354331
 30
0.0
 10
-0.1213976377952756
 20
3.711677165354331
 30
0.0
 10
-0.1048425196850394
 20
3.7290472440944882
 30
0.0
 10
-0.1048425196850394
 20
3.7290472440944882
 30
0.0
 10
-0.1048425196850394
 20
3.7290472440944882
 30
0.0
 10
-0.1048425196850394
 20
3.7290472440944882
 30
0.0
 10
-0.0874724409448819
 20
3.7456023622047248
 30
0.0
 10
-0.0874724409448819
 20
3.7456023622047248
 30
0.0
 10
-0.0874724409448819
 20
3.7456023622047248
 30
0.0
 10
-0.0874724409448819
 20
3.7456023622047248
 30
0.0
 10
-0.0693307086614173
 20
3.7613188976377954
 30
0.0
 10
-0.0693307086614173
 20
3.7613188976377954
 30
0.0
 10
-0.0693307086614173
 20
3.7613188976377954
 30
0.0
 10
-0.0693307086614173
 20
3.7613188976377954
 30
0.0
 10
-0.0504409448818898
 20
3.7761614173228346
 30
0.0
 10
-0.0504409448818898
 20
3.7761614173228346
 30
0.0
 10
-0.0504409448818898
 20
3.7761614173228346
 30
0.0
 10
-0.0504409448818898
 20
3.7761614173228346
 30
0.0
 10
-0.0308385826771654
 20
3.7901023622047245
 30
0.0
 10
-0.0308385826771654
 20
3.7901023622047245
 30
0.0
 10
-0.0308385826771654
 20
3.7901023622047245
 30
0.0
 10
-0.0308385826771654
 20
3.7901023622047245
 30
0.0
 10
-0.0105472440944882
 20
3.8031023622047244
 30
0.0
 10
-0.0105472440944882
 20
3.8031023622047244
 30
0.0
 10
-0.0105472440944882
 20
3.8031023622047244
 30
0.0
 10
-0.0105472440944882
 20
3.8031023622047244
 30
0.0
 10
0.0103897637795276
 20
3.8151456692913386
 30
0.0
 10
0.0103897637795276
 20
3.8151456692913386
 30
0.0
 10
0.0103897637795276
 20
3.8151456692913386
 30
0.0
 10
0.0103897637795276
 20
3.8151456692913386
 30
0.0
 10
0.0319527559055118
 20
3.8261889763779529
 30
0.0
 10
0.0319527559055118
 20
3.8261889763779529
 30
0.0
 10
0.0319527559055118
 20
3.8261889763779529
 30
0.0
 10
0.0319527559055118
 20
3.8261889763779529
 30
0.0
 10
0.0540944881889764
 20
3.8362086614173232
 30
0.0
 10
0.0540944881889764
 20
3.8362086614173232
 30
0.0
 10
0.0540944881889764
 20
3.8362086614173232
 30
0.0
 10
0.0540944881889764
 20
3.8362086614173232
 30
0.0
 10
0.0768070866141732
 20
3.8451574803149606
 30
0.0
 10
0.0768070866141732
 20
3.8451574803149606
 30
0.0
 10
0.0768070866141732
 20
3.8451574803149606
 30
0.0
 10
0.0768070866141732
 20
3.8451574803149606
 30
0.0
 10
0.1000354330708661
 20
3.8530236220472442
 30
0.0
 10
0.1000354330708661
 20
3.8530236220472442
 30
0.0
 10
0.1000354330708661
 20
3.8530236220472442
 30
0.0
 10
0.1000354330708661
 20
3.8530236220472442
 30
0.0
 10
0.123759842519685
 20
3.8597598425196851
 30
0.0
 10
0.123759842519685
 20
3.8597598425196851
 30
0.0
 10
0.123759842519685
 20
3.8597598425196851
 30
0.0
 10
0.123759842519685
 20
3.8597598425196851
 30
0.0
 10
0.1479448818897638
 20
3.8653464566929134
 30
0.0
 10
0.1479448818897638
 20
3.8653464566929134
 30
0.0
 10
0.1479448818897638
 20
3.8653464566929134
 30
0.0
 10
0.1479448818897638
 20
3.8653464566929134
 30
0.0
 10
0.1725669291338583
 20
3.8697401574803152
 30
0.0
 10
0.1725669291338583
 20
3.8697401574803152
 30
0.0
 10
0.1725669291338583
 20
3.8697401574803152
 30
0.0
 10
0.1725669291338583
 20
3.8697401574803152
 30
0.0
 10
0.1975826771653543
 20
3.8729251968503937
 30
0.0
 10
0.1975826771653543
 20
3.8729251968503937
 30
0.0
 10
0.1975826771653543
 20
3.8729251968503937
 30
0.0
 10
0.1975826771653543
 20
3.8729251968503937
 30
0.0
 10
0.2229724409448819
 20
3.8748582677165357
 30
0.0
 10
0.2229724409448819
 20
3.8748582677165357
 30
0.0
 10
0.2229724409448819
 20
3.8748582677165357
 30
0.0
 10
0.2229724409448819
 20
3.8748582677165357
 30
0.0
 10
0.2486929133858268
 20
3.8755118110236224
 30
0.0
 10
0.2486929133858268
 20
3.8755118110236224
 30
0.0
 10
0.2486929133858268
 20
3.8755118110236224
 30
0.0
 10
0.2486929133858268
 20
3.8755118110236224
 30
0.0
 10
-0.4108267716535433
 20
4.2654685039370079
 30
0.0
 10
-0.4108267716535433
 20
4.2654685039370079
 30
0.0
 10
-0.4108267716535433
 20
4.2654685039370079
 30
0.0
 10
-0.4108267716535433
 20
4.2654685039370079
 30
0.0
 10
-0.4365472440944882
 20
4.2648149606299217
 30
0.0
 10
-0.4365472440944882
 20
4.2648149606299217
 30
0.0
 10
-0.4365472440944882
 20
4.2648149606299217
 30
0.0
 10
-0.4365472440944882
 20
4.2648149606299217
 30
0.0
 10
-0.4619370078740158
 20
4.2628818897637801
 30
0.0
 10
-0.4619370078740158
 20
4.2628818897637801
 30
0.0
 10
-0.4619370078740158
 20
4.2628818897637801
 30
0.0
 10
-0.4619370078740158
 20
4.2628818897637801
 30
0.0
 10
-0.4869527559055119
 20
4.2596968503937012
 30
0.0
 10
-0.4869527559055119
 20
4.2596968503937012
 30
0.0
 10
-0.4869527559055119
 20
4.2596968503937012
 30
0.0
 10
-0.4869527559055119
 20
4.2596968503937012
 30
0.0
 10
-0.5115748031496064
 20
4.2553031496062994
 30
0.0
 10
-0.5115748031496064
 20
4.2553031496062994
 30
0.0
 10
-0.5115748031496064
 20
4.2553031496062994
 30
0.0
 10
-0.5115748031496064
 20
4.2553031496062994
 30
0.0
 10
-0.5357598425196851
 20
4.2497165354330706
 30
0.0
 10
-0.5357598425196851
 20
4.2497165354330706
 30
0.0
 10
-0.5357598425196851
 20
4.2497165354330706
 30
0.0
 10
-0.5357598425196851
 20
4.2497165354330706
 30
0.0
 10
-0.5594842519685039
 20
4.2429803149606302
 30
0.0
 10
-0.5594842519685039
 20
4.2429803149606302
 30
0.0
 10
-0.5594842519685039
 20
4.2429803149606302
 30
0.0
 10
-0.5594842519685039
 20
4.2429803149606302
 30
0.0
 10
-0.5827125984251969
 20
4.2351141732283466
 30
0.0
 10
-0.5827125984251969
 20
4.2351141732283466
 30
0.0
 10
-0.5827125984251969
 20
4.2351141732283466
 30
0.0
 10
-0.5827125984251969
 20
4.2351141732283466
 30
0.0
 10
-0.6054251968503938
 20
4.2261653543307087
 30
0.0
 10
-0.6054251968503938
 20
4.2261653543307087
 30
0.0
 10
-0.6054251968503938
 20
4.2261653543307087
 30
0.0
 10
-0.6054251968503938
 20
4.2261653543307087
 30
0.0
 10
-0.6275669291338583
 20
4.2161456692913388
 30
0.0
 10
-0.6275669291338583
 20
4.2161456692913388
 30
0.0
 10
-0.6275669291338583
 20
4.2161456692913388
 30
0.0
 10
-0.6275669291338583
 20
4.2161456692913388
 30
0.0
 10
-0.6491299212598426
 20
4.205102362204725
 30
0.0
 10
-0.6491299212598426
 20
4.205102362204725
 30
0.0
 10
-0.6491299212598426
 20
4.205102362204725
 30
0.0
 10
-0.6491299212598426
 20
4.205102362204725
 30
0.0
 10
-0.6700669291338584
 20
4.1930590551181108
 30
0.0
 10
-0.6700669291338584
 20
4.1930590551181108
 30
0.0
 10
-0.6700669291338584
 20
4.1930590551181108
 30
0.0
 10
-0.6700669291338584
 20
4.1930590551181108
 30
0.0
 10
-0.6903582677165354
 20
4.18005905511811
 30
0.0
 10
-0.6903582677165354
 20
4.18005905511811
 30
0.0
 10
-0.6903582677165354
 20
4.18005905511811
 30
0.0
 10
-0.6903582677165354
 20
4.18005905511811
 30
0.0
 10
-0.7099606299212599
 20
4.166118110236221
 30
0.0
 10
-0.7099606299212599
 20
4.166118110236221
 30
0.0
 10
-0.7099606299212599
 20
4.166118110236221
 30
0.0
 10
-0.7099606299212599
 20
4.166118110236221
 30
0.0
 10
-0.7288503937007874
 20
4.1512755905511813
 30
0.0
 10
-0.7288503937007874
 20
4.1512755905511813
 30
0.0
 10
-0.7288503937007874
 20
4.1512755905511813
 30
0.0
 10
-0.7288503937007874
 20
4.1512755905511813
 30
0.0
 10
-0.746992125984252
 20
4.1355590551181107
 30
0.0
 10
-0.746992125984252
 20
4.1355590551181107
 30
0.0
 10
-0.746992125984252
 20
4.1355590551181107
 30
0.0
 10
-0.746992125984252
 20
4.1355590551181107
 30
0.0
 10
-0.7643622047244095
 20
4.1190039370078741
 30
0.0
 10
-0.7643622047244095
 20
4.1190039370078741
 30
0.0
 10
-0.7643622047244095
 20
4.1190039370078741
 30
0.0
 10
-0.7643622047244095
 20
4.1190039370078741
 30
0.0
 10
-0.7809173228346457
 20
4.101633858267717
 30
0.0
 10
-0.7809173228346457
 20
4.101633858267717
 30
0.0
 10
-0.7809173228346457
 20
4.101633858267717
 30
0.0
 10
-0.7809173228346457
 20
4.101633858267717
 30
0.0
 10
-0.7966338582677166
 20
4.083492125984252
 30
0.0
 10
-0.7966338582677166
 20
4.083492125984252
 30
0.0
 10
-0.7966338582677166
 20
4.083492125984252
 30
0.0
 10
-0.7966338582677166
 20
4.083492125984252
 30
0.0
 10
-0.811476377952756
 20
4.0646023622047247
 30
0.0
 10
-0.811476377952756
 20
4.0646023622047247
 30
0.0
 10
-0.811476377952756
 20
4.0646023622047247
 30
0.0
 10
-0.811476377952756
 20
4.0646023622047247
 30
0.0
 10
-0.8254173228346458
 20
4.0449999999999999
 30
0.0
 10
-0.8254173228346458
 20
4.0449999999999999
 30
0.0
 10
-0.8254173228346458
 20
4.0449999999999999
 30
0.0
 10
-0.8254173228346458
 20
4.0449999999999999
 30
0.0
 10
-0.8384173228346457
 20
4.0247086614173231
 30
0.0
 10
-0.8384173228346457
 20
4.0247086614173231
 30
0.0
 10
-0.8384173228346457
 20
4.0247086614173231
 30
0.0
 10
-0.8384173228346457
 20
4.0247086614173231
 30
0.0
 10
-0.8504606299212599
 20
4.003771653543307
 30
0.0
 10
-0.8504606299212599
 20
4.003771653543307
 30
0.0
 10
-0.8504606299212599
 20
4.003771653543307
 30
0.0
 10
-0.8504606299212599
 20
4.003771653543307
 30
0.0
 10
-0.8615039370078741
 20
3.9822086614173231
 30
0.0
 10
-0.8615039370078741
 20
3.9822086614173231
 30
0.0
 10
-0.8615039370078741
 20
3.9822086614173231
 30
0.0
 10
-0.8615039370078741
 20
3.9822086614173231
 30
0.0
 10
-0.8715236220472441
 20
3.9600669291338586
 30
0.0
 10
-0.8715236220472441
 20
3.9600669291338586
 30
0.0
 10
-0.8715236220472441
 20
3.9600669291338586
 30
0.0
 10
-0.8715236220472441
 20
3.9600669291338586
 30
0.0
 10
-0.880472440944882
 20
3.9373543307086614
 30
0.0
 10
-0.880472440944882
 20
3.9373543307086614
 30
0.0
 10
-0.880472440944882
 20
3.9373543307086614
 30
0.0
 10
-0.880472440944882
 20
3.9373543307086614
 30
0.0
 10
-0.8883385826771654
 20
3.9141259842519687
 30
0.0
 10
-0.8883385826771654
 20
3.9141259842519687
 30
0.0
 10
-0.8883385826771654
 20
3.9141259842519687
 30
0.0
 10
-0.8883385826771654
 20
3.9141259842519687
 30
0.0
 10
-0.8950748031496063
 20
3.8904015748031497
 30
0.0
 10
-0.8950748031496063
 20
3.8904015748031497
 30
0.0
 10
-0.8950748031496063
 20
3.8904015748031497
 30
0.0
 10
-0.8950748031496063
 20
3.8904015748031497
 30
0.0
 10
-0.9006614173228347
 20
3.8662165354330709
 30
0.0
 10
-0.9006614173228347
 20
3.8662165354330709
 30
0.0
 10
-0.9006614173228347
 20
3.8662165354330709
 30
0.0
 10
-0.9006614173228347
 20
3.8662165354330709
 30
0.0
 10
-0.9050551181102362
 20
3.8415944881889765
 30
0.0
 10
-0.9050551181102362
 20
3.8415944881889765
 30
0.0
 10
-0.9050551181102362
 20
3.8415944881889765
 30
0.0
 10
-0.9050551181102362
 20
3.8415944881889765
 30
0.0
 10
-0.908240157480315
 20
3.8165787401574804
 30
0.0
 10
-0.908240157480315
 20
3.8165787401574804
 30
0.0
 10
-0.908240157480315
 20
3.8165787401574804
 30
0.0
 10
-0.908240157480315
 20
3.8165787401574804
 30
0.0
 10
-0.9101732283464568
 20
3.7911889763779527
 30
0.0
 10
-0.9101732283464568
 20
3.7911889763779527
 30
0.0
 10
-0.9101732283464568
 20
3.7911889763779527
 30
0.0
 10
-0.9101732283464568
 20
3.7911889763779527
 30
0.0
 10
-0.9108267716535433
 20
3.7654685039370079
 30
0.0
 10
-0.9108267716535433
 20
3.7654685039370079
 30
0.0
  0
SPLINE
  5
54
100
AcDbEntity
  8
Additional Graphics
 62
     9
100
AcDbSpline
210
0.0
220
0.0
230
1.0
 70
     1
 71
     3
 72
    20
 73
    16
 74
     0
 42
0.0000000001
 43
0.0000000001
 40
0.0
 40
0.0
 40
0.0
 40
0.0
 40
0.25
 40
0.25
 40
0.25
 40
0.25
 40
0.5
 40
0.5
 40
0.5
 40
0.5
 40
0.75
 40
0.75
 40
0.75
 40
0.75
 40
1.0
 40
1.0
 40
1.0
 40
1.0
 10
-0.4108267716535433
 20
4.2654685039370079
 30
0.0
 10
-0.4108267716535433
 20
4.2654685039370079
 30
0.0
 10
0.2486929133858268
 20
3.8755118110236224
 30
0.0
 10
0.2486929133858268
 20
3.8755118110236224
 30
0.0
 10
0.2486929133858268
 20
3.8755118110236224
 30
0.0
 10
0.2486929133858268
 20
3.8755118110236224
 30
0.0
 10
0.2486929133858268
 20
4.625511811023622
 30
0.0
 10
0.2486929133858268
 20
4.625511811023622
 30
0.0
 10
0.2486929133858268
 20
4.625511811023622
 30
0.0
 10
0.2486929133858268
 20
4.625511811023622
 30
0.0
 10
-0.4108267716535433
 20
5.0154685039370079
 30
0.0
 10
-0.4108267716535433
 20
5.0154685039370079
 30
0.0
 10
-0.4108267716535433
 20
5.0154685039370079
 30
0.0
 10
-0.4108267716535433
 20
5.0154685039370079
 30
0.0
 10
-0.4108267716535433
 20
4.2654685039370079
 30
0.0
 10
-0.4108267716535433
 20
4.2654685039370079
 30
0.0
  0
SPLINE
  5
55
100
AcDbEntity
  8
Additional Graphics
370
     5
100
AcDbSpline
210
0.0
220
0.0
230
1.0
 70
     1
 71
     3
 72
    20
 73
    16
 74
     0
 42
0.0000000001
 43
0.0000000001
 40
0.0
 40
0.0
 40
0.0
 40
0.0
 40
0.25
 40
0.25
 40
0.25
 40
0.25
 40
0.5
 40
0.5
 40
0.5
 40
0.5
 40
0.75
 40
0.75
 40
0.75
 40
0.75
 40
1.0
 40
1.0
 40
1.0
 40
1.0
 10
-0.4108267716535433
 20
4.2654685039370079
 30
0.0
 10
-0.4108267716535433
 20
4.2654685039370079
 30
0.0
 10
0.2486929133858268
 20
3.8755118110236224
 30
0.0
 10
0.2486929133858268
 20
3.8755118110236224
 30
0.0
 10
0.2486929133858268
 20
3.8755118110236224
 30
0.0
 10
0.2486929133858268
 20
3.8755118110236224
 30
0.0
 10
0.2486929133858268
 20
4.625511811023622
 30
0.0
 10
0.2486929133858268
 20
4.625511811023622
 30
0.0
 10
0.2486929133858268
 20
4.625511811023622
 30
0.0
 10
0.2486929133858268
 20
4.625511811023622
 30
0.0
 10
-0.4108267716535433
 20
5.0154685039370079
 30
0.0
 10
-0.4108267716535433
 20
5.0154685039370079
 30
0.0
 10
-0.4108267716535433
 20
5.0154685039370079
 30
0.0
 10
-0.4108267716535433
 20
5.0154685039370079
 30
0.0
 10
-0.4108267716535433
 20
4.2654685039370079
 30
0.0
 10
-0.4108267716535433
 20
4.2654685039370079
 30
0.0
  0
SPLINE
  5
56
100
AcDbEntity
  8
Additional Graphics
 62
     9
100
AcDbSpline
210
0.0
220
0.0
230
1.0
 70
     1
 71
     3
 72
    20
 73
    16
 74
     0
 42
0.0000000001
 43
0.0000000001
 40
0.0
 40
0.0
 40
0.0
 40
0.0
 40
0.25
 40
0.25
 40
0.25
 40
0.25
 40
0.5
 40
0.5
 40
0.5
 40
0.5
 40
0.75
 40
0.75
 40
0.75
 40
0.75
 40
1.0
 40
1.0
 40
1.0
 40
1.0
 10
-1.9108267716535434
 20
1.5154685039370079
 30
0.0
 10
-1.9108267716535434
 20
1.5154685039370079
 30
0.0
 10
-1.2513070866141733
 20
1.1255118110236222
 30
0.0
 10
-1.2513070866141733
 20
1.1255118110236222
 30
0.0
 10
-1.2513070866141733
 20
1.1255118110236222
 30
0.0
 10
-1.2513070866141733
 20
1.1255118110236222
 30
0.0
 10
-0.2513070866141732
 20
1.1255118110236222
 30
0.0
 10
-0.2513070866141732
 20
1.1255118110236222
 30
0.0
 10
-0.2513070866141732
 20
1.1255118110236222
 30
0.0
 10
-0.2513070866141732
 20
1.1255118110236222
 30
0.0
 10
-0.9108267716535433
 20
1.5154685039370079
 30
0.0
 10
-0.9108267716535433
 20
1.5154685039370079
 30
0.0
 10
-0.9108267716535433
 20
1.5154685039370079
 30
0.0
 10
-0.9108267716535433
 20
1.5154685039370079
 30
0.0
 10
-1.9108267716535434
 20
1.5154685039370079
 30
0.0
 10
-1.9108267716535434
 20
1.5154685039370079
 30
0.0
  0
SPLINE
  5
57
100
AcDbEntity
  8
Additional Graphics
370
     5
100
AcDbSpline
210
0.0
220
0.0
230
1.0
 70
     1
 71
     3
 72
    20
 73
    16
 74
     0
 42
0.0000000001
 43
0.0000000001
 40
0.0
 40
0.0
 40
0.0
 40
0.0
 40
0.25
 40
0.25
 40
0.25
 40
0.25
 40
0.5
 40
0.5
 40
0.5
 40
0.5
 40
0.75
 40
0.75
 40
0.75
 40
0.75
 40
1.0
 40
1.0
 40
1.0
 40
1.0
 10
-1.9108267716535434
 20
1.5154685039370079
 30
0.0
 10
-1.9108267716535434
 20
1.5154685039370079
 30
0.0
 10
-1.2513070866141733
 20
1.1255118110236222
 30
0.0
 10
-1.2513070866141733
 20
1.1255118110236222
 30
0.0
 10
-1.2513070866141733
 20
1.1255118110236222
 30
0.0
 10
-1.2513070866141733
 20
1.1255118110236222
 30
0.0
 10
-0.2513070866141732
 20
1.1255118110236222
 30
0.0
 10
-0.2513070866141732
 20
1.1255118110236222
 30
0.0
 10
-0.2513070866141732
 20
1.1255118110236222
 30
0.0
 10
-0.2513070866141732
 20
1.1255118110236222
 30
0.0
 10
-0.9108267716535433
 20
1.5154685039370079
 30
0.0
 10
-0.9108267716535433
 20
1.5154685039370079
 30
0.0
 10
-0.9108267716535433
 20
1.5154685039370079
 30
0.0
 10
-0.9108267716535433
 20
1.5154685039370079
 30
0.0
 10
-1.9108267716535434
 20
1.5154685039370079
 30
0.0
 10
-1.9108267716535434
 20
1.5154685039370079
 30
0.0
  0
SPLINE
  5
58
100
AcDbEntity
  8
Additional Graphics
 62
     9
100
AcDbSpline
210
0.0
220
0.0
230
1.0
 70
     1
 71
     3
 72
    20
 73
    16
 74
     0
 42
0.0000000001
 43
0.0000000001
 40
0.0
 40
0.0
 40
0.0
 40
0.0
 40
0.25
 40
0.25
 40
0.25
 40
0.25
 40
0.5
 40
0.5
 40
0.5
 40
0.5
 40
0.75
 40
0.75
 40
0.75
 40
0.75
 40
1.0
 40
1.0
 40
1.0
 40
1.0
 10
-0.9108267716535433
 20
1.5154685039370079
 30
0.0
 10
-0.9108267716535433
 20
1.5154685039370079
 30
0.0
 10
-0.2513070866141732
 20
1.1255118110236222
 30
0.0
 10
-0.2513070866141732
 20
1.1255118110236222
 30
0.0
 10
-0.2513070866141732
 20
1.1255118110236222
 30
0.0
 10
-0.2513070866141732
 20
1.1255118110236222
 30
0.0
 10
-0.2513070866141732
 20
3.375511811023622
 30
0.0
 10
-0.2513070866141732
 20
3.375511811023622
 30
0.0
 10
-0.2513070866141732
 20
3.375511811023622
 30
0.0
 10
-0.2513070866141732
 20
3.375511811023622
 30
0.0
 10
-0.9108267716535433
 20
3.7654685039370079
 30
0.0
 10
-0.9108267716535433
 20
3.7654685039370079
 30
0.0
 10
-0.9108267716535433
 20
3.7654685039370079
 30
0.0
 10
-0.9108267716535433
 20
3.7654685039370079
 30
0.0
 10
-0.9108267716535433
 20
1.5154685039370079
 30
0.0
 10
-0.9108267716535433
 20
1.5154685039370079
 30
0.0
  0
SPLINE
  5
59
100
AcDbEntity
  8
Additional Graphics
370
     5
100
AcDbSpline
210
0.0
220
0.0
230
1.0
 70
     1
 71
     3
 72
    20
 73
    16
 74
     0
 42
0.0000000001
 43
0.0000000001
 40
0.0
 40
0.0
 40
0.0
 40
0.0
 40
0.25
 40
0.25
 40
0.25
 40
0.25
 40
0.5
 40
0.5
 40
0.5
 40
0.5
 40
0.75
 40
0.75
 40
0.75
 40
0.75
 40
1.0
 40
1.0
 40
1.0
 40
1.0
 10
-0.9108267716535433
 20
1.5154685039370079
 30
0.0
 10
-0.9108267716535433
 20
1.5154685039370079
 30
0.0
 10
-0.2513070866141732
 20
1.1255118110236222
 30
0.0
 10
-0.2513070866141732
 20
1.1255118110236222
 30
0.0
 10
-0.2513070866141732
 20
1.1255118110236222
 30
0.0
 10
-0.2513070866141732
 20
1.1255118110236222
 30
0.0
 10
-0.2513070866141732
 20
3.375511811023622
 30
0.0
 10
-0.2513070866141732
 20
3.375511811023622
 30
0.0
 10
-0.2513070866141732
 20
3.375511811023622
 30
0.0
 10
-0.2513070866141732
 20
3.375511811023622
 30
0.0
 10
-0.9108267716535433
 20
3.7654685039370079
 30
0.0
 10
-0.9108267716535433
 20
3.7654685039370079
 30
0.0
 10
-0.9108267716535433
 20
3.7654685039370079
 30
0.0
 10
-0.9108267716535433
 20
3.7654685039370079
 30
0.0
 10
-0.9108267716535433
 20
1.5154685039370079
 30
0.0
 10
-0.9108267716535433
 20
1.5154685039370079
 30
0.0
  0
SPLINE
  5
5A
100
AcDbEntity
  8
Additional Graphics
370
     5
 62
     7
100
AcDbSpline
210
0.0
220
0.0
230
1.0
 70
     1
 71
     3
 72
    28
 73
    24
 74
     0
 42
0.0000000001
 43
0.0000000001
 40
0.0
 40
0.0
 40
0.0
 40
0.0
 40
0.1666666666666667
 40
0.1666666666666667
 40
0.1666666666666667
 40
0.1666666666666667
 40
0.3333333333333333
 40
0.3333333333333333
 40
0.3333333333333333
 40
0.3333333333333333
 40
0.5
 40
0.5
 40
0.5
 40
0.5
 40
0.6666666666666666
 40
0.6666666666666666
 40
0.6666666666666666
 40
0.6666666666666666
 40
0.8333333333333333
 40
0.8333333333333333
 40
0.8333333333333333
 40
0.8333333333333333
 40
1.0
 40
1.0
 40
1.0
 40
1.0
 10
-0.9108267716535433
 20
3.7654685039370079
 30
0.0
 10
-0.9108267716535433
 20
4.0415629921259848
 30
0.0
 10
-0.6869212598425197
 20
4.2654685039370079
 30
0.0
 10
-0.4108267716535433
 20
4.2654685039370079
 30
0.0
 10
-0.4108267716535433
 20
4.2654685039370079
 30
0.0
 10
-0.4108267716535433
 20
4.2654685039370079
 30
0.0
 10
-0.4108267716535433
 20
5.0154685039370079
 30
0.0
 10
-0.4108267716535433
 20
5.0154685039370079
 30
0.0
 10
-0.4108267716535433
 20
5.0154685039370079
 30
0.0
 10
-0.4108267716535433
 20
5.0154685039370079
 30
0.0
 10
-1.9108267716535434
 20
5.0154685039370079
 30
0.0
 10
-1.9108267716535434
 20
5.0154685039370079
 30
0.0
 10
-1.9108267716535434
 20
5.0154685039370079
 30
0.0
 10
-1.9108267716535434
 20
5.0154685039370079
 30
0.0
 10
-1.9108267716535434
 20
1.5154685039370079
 30
0.0
 10
-1.9108267716535434
 20
1.5154685039370079
 30
0.0
 10
-1.9108267716535434
 20
1.5154685039370079
 30
0.0
 10
-1.9108267716535434
 20
1.5154685039370079
 30
0.0
 10
-0.9108267716535433
 20
1.5154685039370079
 30
0.0
 10
-0.9108267716535433
 20
1.5154685039370079
 30
0.0
 10
-0.9108267716535433
 20
1.5154685039370079
 30
0.0
 10
-0.9108267716535433
 20
1.5154685039370079
 30
0.0
 10
-0.9108267716535433
 20
3.7654685039370079
 30
0.0
 10
-0.9108267716535433
 20
3.7654685039370079
 30
0.0
  0
TEXT
  5
5C
100
AcDbEntity
  8
Additional Graphics
100
AcDbText
 10
-1.206417
 20
0.799094
 30
0.0
 40
0.119999
  1
BA  1527
 51
-0.000002
  7
Bookman Old Style
100
AcDbText
  0
TEXT
  5
5D
100
AcDbEntity
  8
Additional Graphics
100
AcDbText
 10
-1.471429
 20
0.611594
 30
0.0
 40
0.119999
  1
1-1/2\u+201d x 3-1/2\u+201d
 51
-0.000002
  7
Bookman Old Style
100
AcDbText
  0
TEXT
  5
5E
100
AcDbEntity
  8
Additional Graphics
100
AcDbText
 10
-0.704732
 20
-5.126303
 30
0.0
 40
0.119999
  1
BA  1526
 51
-0.000002
  7
Bookman Old Style
100
AcDbText
  0
TEXT
  5
5F
100
AcDbEntity
  8
Additional Graphics
100
AcDbText
 10
-0.969744
 20
-5.313803
 30
0.0
 40
0.119999
  1
2-3/8\u+201d x 2-1/2\u+201d
 51
-0.000002
  7
Bookman Old Style
100
AcDbText
  0
TEXT
  5
60
100
AcDbEntity
  8
Additional Graphics
100
AcDbText
 10
1.402571
 20
-2.713965
 30
0.0
 40
0.119999
  1
BA  1527
 51
-0.000002
  7
Bookman Old Style
100
AcDbText
  0
TEXT
  5
61
100
AcDbEntity
  8
Additional Graphics
100
AcDbText
 10
1.137559
 20
-2.901465
 30
0.0
 40
0.119999
  1
1-1/2\u+201d x 3-1/2\u+201d
 51
-0.000002
  7
Bookman Old Style
100
AcDbText
  0
SPLINE
  5
62
100
AcDbEntity
  8
Additional Graphics
 62
     9
100
AcDbSpline
210
0.0
220
0.0
230
1.0
 70
     1
 71
     3
 72
    20
 73
    16
 74
     0
 42
0.0000000001
 43
0.0000000001
 40
0.0
 40
0.0
 40
0.0
 40
0.0
 40
0.25
 40
0.25
 40
0.25
 40
0.25
 40
0.5
 40
0.5
 40
0.5
 40
0.5
 40
0.75
 40
0.75
 40
0.75
 40
0.75
 40
1.0
 40
1.0
 40
1.0
 40
1.0
 10
0.8465629921259843
 20
-0.1041889763779528
 30
0.0
 10
0.8465629921259843
 20
-0.1041889763779528
 30
0.0
 10
1.5086141732283465
 20
-0.4998070866141732
 30
0.0
 10
1.5086141732283465
 20
-0.4998070866141732
 30
0.0
 10
1.5086141732283465
 20
-0.4998070866141732
 30
0.0
 10
1.5086141732283465
 20
-0.4998070866141732
 30
0.0
 10
1.5086141732283465
 20
-1.2498070866141733
 30
0.0
 10
1.5086141732283465
 20
-1.2498070866141733
 30
0.0
 10
1.5086141732283465
 20
-1.2498070866141733
 30
0.0
 10
1.5086141732283465
 20
-1.2498070866141733
 30
0.0
 10
0.8465629921259843
 20
-0.8541889763779528
 30
0.0
 10
0.8465629921259843
 20
-0.8541889763779528
 30
0.0
 10
0.8465629921259843
 20
-0.8541889763779528
 30
0.0
 10
0.8465629921259843
 20
-0.8541889763779528
 30
0.0
 10
0.8465629921259843
 20
-0.1041889763779528
 30
0.0
 10
0.8465629921259843
 20
-0.1041889763779528
 30
0.0
  0
SPLINE
  5
63
100
AcDbEntity
  8
Additional Graphics
370
     5
100
AcDbSpline
210
0.0
220
0.0
230
1.0
 70
     1
 71
     3
 72
    20
 73
    16
 74
     0
 42
0.0000000001
 43
0.0000000001
 40
0.0
 40
0.0
 40
0.0
 40
0.0
 40
0.25
 40
0.25
 40
0.25
 40
0.25
 40
0.5
 40
0.5
 40
0.5
 40
0.5
 40
0.75
 40
0.75
 40
0.75
 40
0.75
 40
1.0
 40
1.0
 40
1.0
 40
1.0
 10
0.8465629921259843
 20
-0.1041889763779528
 30
0.0
 10
0.8465629921259843
 20
-0.1041889763779528
 30
0.0
 10
1.5086141732283465
 20
-0.4998070866141732
 30
0.0
 10
1.5086141732283465
 20
-0.4998070866141732
 30
0.0
 10
1.5086141732283465
 20
-0.4998070866141732
 30
0.0
 10
1.5086141732283465
 20
-0.4998070866141732
 30
0.0
 10
1.5086141732283465
 20
-1.2498070866141733
 30
0.0
 10
1.5086141732283465
 20
-1.2498070866141733
 30
0.0
 10
1.5086141732283465
 20
-1.2498070866141733
 30
0.0
 10
1.5086141732283465
 20
-1.2498070866141733
 30
0.0
 10
0.8465629921259843
 20
-0.8541889763779528
 30
0.0
 10
0.8465629921259843
 20
-0.8541889763779528
 30
0.0
 10
0.8465629921259843
 20
-0.8541889763779528
 30
0.0
 10
0.8465629921259843
 20
-0.8541889763779528
 30
0.0
 10
0.8465629921259843
 20
-0.1041889763779528
 30
0.0
 10
0.8465629921259843
 20
-0.1041889763779528
 30
0.0
  0
SPLINE
  5
64
100
AcDbEntity
  8
Additional Graphics
 62
     9
100
AcDbSpline
210
0.0
220
0.0
230
1.0
 70
     1
 71
     3
 72
    20
 73
    16
 74
     0
 42
0.0000000001
 43
0.0000000001
 40
0.0
 40
0.0
 40
0.0
 40
0.0
 40
0.25
 40
0.25
 40
0.25
 40
0.25
 40
0.5
 40
0.5
 40
0.5
 40
0.5
 40
0.75
 40
0.75
 40
0.75
 40
0.75
 40
1.0
 40
1.0
 40
1.0
 40
1.0
 10
0.8465629921259843
 20
-0.8541889763779528
 30
0.0
 10
0.8465629921259843
 20
-0.8541889763779528
 30
0.0
 10
1.5086141732283465
 20
-1.2498070866141733
 30
0.0
 10
1.5086141732283465
 20
-1.2498070866141733
 30
0.0
 10
1.5086141732283465
 20
-1.2498070866141733
 30
0.0
 10
1.5086141732283465
 20
-1.2498070866141733
 30
0.0
 10
1.4828818897637797
 20
-1.2504527559055119
 30
0.0
 10
1.4828818897637797
 20
-1.2504527559055119
 30
0.0
 10
1.4828818897637797
 20
-1.2504527559055119
 30
0.0
 10
1.4828818897637797
 20
-1.2504527559055119
 30
0.0
 10
0.8208307086614174
 20
-0.8548346456692914
 30
0.0
 10
0.8208307086614174
 20
-0.8548346456692914
 30
0.0
 10
0.8208307086614174
 20
-0.8548346456692914
 30
0.0
 10
0.8208307086614174
 20
-0.8548346456692914
 30
0.0
 10
0.8465629921259843
 20
-0.8541889763779528
 30
0.0
 10
0.8465629921259843
 20
-0.8541889763779528
 30
0.0
  0
SPLINE
  5
65
100
AcDbEntity
  8
Additional Graphics
 62
     9
100
AcDbSpline
210
0.0
220
0.0
230
1.0
 70
     1
 71
     3
 72
    20
 73
    16
 74
     0
 42
0.0000000001
 43
0.0000000001
 40
0.0
 40
0.0
 40
0.0
 40
0.0
 40
0.25
 40
0.25
 40
0.25
 40
0.25
 40
0.5
 40
0.5
 40
0.5
 40
0.5
 40
0.75
 40
0.75
 40
0.75
 40
0.75
 40
1.0
 40
1.0
 40
1.0
 40
1.0
 10
0.8208307086614174
 20
-0.8548346456692914
 30
0.0
 10
0.8208307086614174
 20
-0.8548346456692914
 30
0.0
 10
1.4828818897637797
 20
-1.2504527559055119
 30
0.0
 10
1.4828818897637797
 20
-1.2504527559055119
 30
0.0
 10
1.4828818897637797
 20
-1.2504527559055119
 30
0.0
 10
1.4828818897637797
 20
-1.2504527559055119
 30
0.0
 10
1.4574960629921261
 20
-1.2523858267716537
 30
0.0
 10
1.4574960629921261
 20
-1.2523858267716537
 30
0.0
 10
1.4574960629921261
 20
-1.2523858267716537
 30
0.0
 10
1.4574960629921261
 20
-1.2523858267716537
 30
0.0
 10
0.7954448818897638
 20
-0.8567677165354332
 30
0.0
 10
0.7954448818897638
 20
-0.8567677165354332
 30
0.0
 10
0.7954448818897638
 20
-0.8567677165354332
 30
0.0
 10
0.7954448818897638
 20
-0.8567677165354332
 30
0.0
 10
0.8208307086614174
 20
-0.8548346456692914
 30
0.0
 10
0.8208307086614174
 20
-0.8548346456692914
 30
0.0
  0
SPLINE
  5
66
100
AcDbEntity
  8
Additional Graphics
 62
     9
100
AcDbSpline
210
0.0
220
0.0
230
1.0
 70
     1
 71
     3
 72
    20
 73
    16
 74
     0
 42
0.0000000001
 43
0.0000000001
 40
0.0
 40
0.0
 40
0.0
 40
0.0
 40
0.25
 40
0.25
 40
0.25
 40
0.25
 40
0.5
 40
0.5
 40
0.5
 40
0.5
 40
0.75
 40
0.75
 40
0.75
 40
0.75
 40
1.0
 40
1.0
 40
1.0
 40
1.0
 10
0.7954448818897638
 20
-0.8567677165354332
 30
0.0
 10
0.7954448818897638
 20
-0.8567677165354332
 30
0.0
 10
1.4574960629921261
 20
-1.2523858267716537
 30
0.0
 10
1.4574960629921261
 20
-1.2523858267716537
 30
0.0
 10
1.4574960629921261
 20
-1.2523858267716537
 30
0.0
 10
1.4574960629921261
 20
-1.2523858267716537
 30
0.0
 10
1.4324724409448819
 20
-1.2555629921259843
 30
0.0
 10
1.4324724409448819
 20
-1.2555629921259843
 30
0.0
 10
1.4324724409448819
 20
-1.2555629921259843
 30
0.0
 10
1.4324724409448819
 20
-1.2555629921259843
 30
0.0
 10
0.7704212598425198
 20
-0.8599448818897638
 30
0.0
 10
0.7704212598425198
 20
-0.8599448818897638
 30
0.0
 10
0.7704212598425198
 20
-0.8599448818897638
 30
0.0
 10
0.7704212598425198
 20
-0.8599448818897638
 30
0.0
 10
0.7954448818897638
 20
-0.8567677165354332
 30
0.0
 10
0.7954448818897638
 20
-0.8567677165354332
 30
0.0
  0
SPLINE
  5
67
100
AcDbEntity
  8
Additional Graphics
 62
     9
100
AcDbSpline
210
0.0
220
0.0
230
1.0
 70
     1
 71
     3
 72
    28
 73
    24
 74
     0
 42
0.0000000001
 43
0.0000000001
 40
0.0
 40
0.0
 40
0.0
 40
0.0
 40
0.1666666666666667
 40
0.1666666666666667
 40
0.1666666666666667
 40
0.1666666666666667
 40
0.3333333333333333
 40
0.3333333333333333
 40
0.3333333333333333
 40
0.3333333333333333
 40
0.5
 40
0.5
 40
0.5
 40
0.5
 40
0.6666666666666666
 40
0.6666666666666666
 40
0.6666666666666666
 40
0.6666666666666666
 40
0.8333333333333333
 40
0.8333333333333333
 40
0.8333333333333333
 40
0.8333333333333333
 40
1.0
 40
1.0
 40
1.0
 40
1.0
 10
0.7704212598425198
 20
-0.8599448818897638
 30
0.0
 10
0.7704212598425198
 20
-0.8599448818897638
 30
0.0
 10
1.4324724409448819
 20
-1.2555629921259843
 30
0.0
 10
1.4324724409448819
 20
-1.2555629921259843
 30
0.0
 10
1.4324724409448819
 20
-1.2555629921259843
 30
0.0
 10
1.4324724409448819
 20
-1.2555629921259843
 30
0.0
 10
1.4078582677165354
 20
-1.2599645669291339
 30
0.0
 10
1.4078582677165354
 20
-1.2599645669291339
 30
0.0
 10
1.4078582677165354
 20
-1.2599645669291339
 30
0.0
 10
1.4078582677165354
 20
-1.2599645669291339
 30
0.0
 10
1.3836653543307087
 20
-1.2655433070866142
 30
0.0
 10
1.3836653543307087
 20
-1.2655433070866142
 30
0.0
 10
1.3836653543307087
 20
-1.2655433070866142
 30
0.0
 10
1.3836653543307087
 20
-1.2655433070866142
 30
0.0
 10
0.7216141732283465
 20
-0.8699251968503937
 30
0.0
 10
0.7216141732283465
 20
-0.8699251968503937
 30
0.0
 10
0.7216141732283465
 20
-0.8699251968503937
 30
0.0
 10
0.7216141732283465
 20
-0.8699251968503937
 30
0.0
 10
0.7458070866141733
 20
-0.8643464566929134
 30
0.0
 10
0.7458070866141733
 20
-0.8643464566929134
 30
0.0
 10
0.7458070866141733
 20
-0.8643464566929134
 30
0.0
 10
0.7458070866141733
 20
-0.8643464566929134
 30
0.0
 10
0.7704212598425198
 20
-0.8599448818897638
 30
0.0
 10
0.7704212598425198
 20
-0.8599448818897638
 30
0.0
  0
SPLINE
  5
68
100
AcDbEntity
  8
Additional Graphics
 62
     9
100
AcDbSpline
210
0.0
220
0.0
230
1.0
 70
     1
 71
     3
 72
    28
 73
    24
 74
     0
 42
0.0000000001
 43
0.0000000001
 40
0.0
 40
0.0
 40
0.0
 40
0.0
 40
0.1666666666666667
 40
0.1666666666666667
 40
0.1666666666666667
 40
0.1666666666666667
 40
0.3333333333333333
 40
0.3333333333333333
 40
0.3333333333333333
 40
0.3333333333333333
 40
0.5
 40
0.5
 40
0.5
 40
0.5
 40
0.6666666666666666
 40
0.6666666666666666
 40
0.6666666666666666
 40
0.6666666666666666
 40
0.8333333333333333
 40
0.8333333333333333
 40
0.8333333333333333
 40
0.8333333333333333
 40
1.0
 40
1.0
 40
1.0
 40
1.0
 10
0.7216141732283465
 20
-0.8699251968503937
 30
0.0
 10
0.7216141732283465
 20
-0.8699251968503937
 30
0.0
 10
1.3836653543307087
 20
-1.2655433070866142
 30
0.0
 10
1.3836653543307087
 20
-1.2655433070866142
 30
0.0
 10
1.3836653543307087
 20
-1.2655433070866142
 30
0.0
 10
1.3836653543307087
 20
-1.2655433070866142
 30
0.0
 10
1.3599409448818898
 20
-1.2722834645669292
 30
0.0
 10
1.3599409448818898
 20
-1.2722834645669292
 30
0.0
 10
1.3599409448818898
 20
-1.2722834645669292
 30
0.0
 10
1.3599409448818898
 20
-1.2722834645669292
 30
0.0
 10
1.3367086614173229
 20
-1.2801417322834645
 30
0.0
 10
1.3367086614173229
 20
-1.2801417322834645
 30
0.0
 10
1.3367086614173229
 20
-1.2801417322834645
 30
0.0
 10
1.3367086614173229
 20
-1.2801417322834645
 30
0.0
 10
0.6746574803149606
 20
-0.8845236220472441
 30
0.0
 10
0.6746574803149606
 20
-0.8845236220472441
 30
0.0
 10
0.6746574803149606
 20
-0.8845236220472441
 30
0.0
 10
0.6746574803149606
 20
-0.8845236220472441
 30
0.0
 10
0.6978897637795276
 20
-0.8766653543307087
 30
0.0
 10
0.6978897637795276
 20
-0.8766653543307087
 30
0.0
 10
0.6978897637795276
 20
-0.8766653543307087
 30
0.0
 10
0.6978897637795276
 20
-0.8766653543307087
 30
0.0
 10
0.7216141732283465
 20
-0.8699251968503937
 30
0.0
 10
0.7216141732283465
 20
-0.8699251968503937
 30
0.0
  0
SPLINE
  5
69
100
AcDbEntity
  8
Additional Graphics
 62
     9
100
AcDbSpline
210
0.0
220
0.0
230
1.0
 70
     1
 71
     3
 72
    28
 73
    24
 74
     0
 42
0.0000000001
 43
0.0000000001
 40
0.0
 40
0.0
 40
0.0
 40
0.0
 40
0.1666666666666667
 40
0.1666666666666667
 40
0.1666666666666667
 40
0.1666666666666667
 40
0.3333333333333333
 40
0.3333333333333333
 40
0.3333333333333333
 40
0.3333333333333333
 40
0.5
 40
0.5
 40
0.5
 40
0.5
 40
0.6666666666666666
 40
0.6666666666666666
 40
0.6666666666666666
 40
0.6666666666666666
 40
0.8333333333333333
 40
0.8333333333333333
 40
0.8333333333333333
 40
0.8333333333333333
 40
1.0
 40
1.0
 40
1.0
 40
1.0
 10
0.6746574803149606
 20
-0.8845236220472441
 30
0.0
 10
0.6746574803149606
 20
-0.8845236220472441
 30
0.0
 10
1.3367086614173229
 20
-1.2801417322834645
 30
0.0
 10
1.3367086614173229
 20
-1.2801417322834645
 30
0.0
 10
1.3367086614173229
 20
-1.2801417322834645
 30
0.0
 10
1.3367086614173229
 20
-1.2801417322834645
 30
0.0
 10
1.3140078740157481
 20
-1.2891023622047244
 30
0.0
 10
1.3140078740157481
 20
-1.2891023622047244
 30
0.0
 10
1.3140078740157481
 20
-1.2891023622047244
 30
0.0
 10
1.3140078740157481
 20
-1.2891023622047244
 30
0.0
 10
1.2918543307086614
 20
-1.2991141732283464
 30
0.0
 10
1.2918543307086614
 20
-1.2991141732283464
 30
0.0
 10
1.2918543307086614
 20
-1.2991141732283464
 30
0.0
 10
1.2918543307086614
 20
-1.2991141732283464
 30
0.0
 10
0.6298031496062992
 20
-0.903496062992126
 30
0.0
 10
0.6298031496062992
 20
-0.903496062992126
 30
0.0
 10
0.6298031496062992
 20
-0.903496062992126
 30
0.0
 10
0.6298031496062992
 20
-0.903496062992126
 30
0.0
 10
0.6519566929133859
 20
-0.893484251968504
 30
0.0
 10
0.6519566929133859
 20
-0.893484251968504
 30
0.0
 10
0.6519566929133859
 20
-0.893484251968504
 30
0.0
 10
0.6519566929133859
 20
-0.893484251968504
 30
0.0
 10
0.6746574803149606
 20
-0.8845236220472441
 30
0.0
 10
0.6746574803149606
 20
-0.8845236220472441
 30
0.0
  0
SPLINE
  5
6A
100
AcDbEntity
  8
Additional Graphics
 62
     9
100
AcDbSpline
210
0.0
220
0.0
230
1.0
 70
     1
 71
     3
 72
    28
 73
    24
 74
     0
 42
0.0000000001
 43
0.0000000001
 40
0.0
 40
0.0
 40
0.0
 40
0.0
 40
0.1666666666666667
 40
0.1666666666666667
 40
0.1666666666666667
 40
0.1666666666666667
 40
0.3333333333333333
 40
0.3333333333333333
 40
0.3333333333333333
 40
0.3333333333333333
 40
0.5
 40
0.5
 40
0.5
 40
0.5
 40
0.6666666666666666
 40
0.6666666666666666
 40
0.6666666666666666
 40
0.6666666666666666
 40
0.8333333333333333
 40
0.8333333333333333
 40
0.8333333333333333
 40
0.8333333333333333
 40
1.0
 40
1.0
 40
1.0
 40
1.0
 10
0.6298031496062992
 20
-0.903496062992126
 30
0.0
 10
0.6298031496062992
 20
-0.903496062992126
 30
0.0
 10
1.2918543307086614
 20
-1.2991141732283464
 30
0.0
 10
1.2918543307086614
 20
-1.2991141732283464
 30
0.0
 10
1.2918543307086614
 20
-1.2991141732283464
 30
0.0
 10
1.2918543307086614
 20
-1.2991141732283464
 30
0.0
 10
1.2702992125984252
 20
-1.3101574803149607
 30
0.0
 10
1.2702992125984252
 20
-1.3101574803149607
 30
0.0
 10
1.2702992125984252
 20
-1.3101574803149607
 30
0.0
 10
1.2702992125984252
 20
-1.3101574803149607
 30
0.0
 10
1.2493582677165356
 20
-1.3221968503937009
 30
0.0
 10
1.2493582677165356
 20
-1.3221968503937009
 30
0.0
 10
1.2493582677165356
 20
-1.3221968503937009
 30
0.0
 10
1.2493582677165356
 20
-1.3221968503937009
 30
0.0
 10
0.5873070866141733
 20
-0.9265787401574803
 30
0.0
 10
0.5873070866141733
 20
-0.9265787401574803
 30
0.0
 10
0.5873070866141733
 20
-0.9265787401574803
 30
0.0
 10
0.5873070866141733
 20
-0.9265787401574803
 30
0.0
 10
0.608248031496063
 20
-0.9145393700787402
 30
0.0
 10
0.608248031496063
 20
-0.9145393700787402
 30
0.0
 10
0.608248031496063
 20
-0.9145393700787402
 30
0.0
 10
0.608248031496063
 20
-0.9145393700787402
 30
0.0
 10
0.6298031496062992
 20
-0.903496062992126
 30
0.0
 10
0.6298031496062992
 20
-0.903496062992126
 30
0.0
  0
SPLINE
  5
6B
100
AcDbEntity
  8
Additional Graphics
 62
     9
100
AcDbSpline
210
0.0
220
0.0
230
1.0
 70
     1
 71
     3
 72
    28
 73
    24
 74
     0
 42
0.0000000001
 43
0.0000000001
 40
0.0
 40
0.0
 40
0.0
 40
0.0
 40
0.1666666666666667
 40
0.1666666666666667
 40
0.1666666666666667
 40
0.1666666666666667
 40
0.3333333333333333
 40
0.3333333333333333
 40
0.3333333333333333
 40
0.3333333333333333
 40
0.5
 40
0.5
 40
0.5
 40
0.5
 40
0.6666666666666666
 40
0.6666666666666666
 40
0.6666666666666666
 40
0.6666666666666666
 40
0.8333333333333333
 40
0.8333333333333333
 40
0.8333333333333333
 40
0.8333333333333333
 40
1.0
 40
1.0
 40
1.0
 40
1.0
 10
0.5873070866141733
 20
-0.9265787401574803
 30
0.0
 10
0.5873070866141733
 20
-0.9265787401574803
 30
0.0
 10
1.2493582677165356
 20
-1.3221968503937009
 30
0.0
 10
1.2493582677165356
 20
-1.3221968503937009
 30
0.0
 10
1.2493582677165356
 20
-1.3221968503937009
 30
0.0
 10
1.2493582677165356
 20
-1.3221968503937009
 30
0.0
 10
1.2290748031496064
 20
-1.3352086614173229
 30
0.0
 10
1.2290748031496064
 20
-1.3352086614173229
 30
0.0
 10
1.2290748031496064
 20
-1.3352086614173229
 30
0.0
 10
1.2290748031496064
 20
-1.3352086614173229
 30
0.0
 10
1.2094685039370079
 20
-1.3491456692913386
 30
0.0
 10
1.2094685039370079
 20
-1.3491456692913386
 30
0.0
 10
1.2094685039370079
 20
-1.3491456692913386
 30
0.0
 10
1.2094685039370079
 20
-1.3491456692913386
 30
0.0
 10
0.5474173228346457
 20
-0.9535275590551181
 30
0.0
 10
0.5474173228346457
 20
-0.9535275590551181
 30
0.0
 10
0.5474173228346457
 20
-0.9535275590551181
 30
0.0
 10
0.5474173228346457
 20
-0.9535275590551181
 30
0.0
 10
0.5670236220472441
 20
-0.9395905511811024
 30
0.0
 10
0.5670236220472441
 20
-0.9395905511811024
 30
0.0
 10
0.5670236220472441
 20
-0.9395905511811024
 30
0.0
 10
0.5670236220472441
 20
-0.9395905511811024
 30
0.0
 10
0.5873070866141733
 20
-0.9265787401574803
 30
0.0
 10
0.5873070866141733
 20
-0.9265787401574803
 30
0.0
  0
SPLINE
  5
6C
100
AcDbEntity
  8
Additional Graphics
 62
     9
100
AcDbSpline
210
0.0
220
0.0
230
1.0
 70
     1
 71
     3
 72
    28
 73
    24
 74
     0
 42
0.0000000001
 43
0.0000000001
 40
0.0
 40
0.0
 40
0.0
 40
0.0
 40
0.1666666666666667
 40
0.1666666666666667
 40
0.1666666666666667
 40
0.1666666666666667
 40
0.3333333333333333
 40
0.3333333333333333
 40
0.3333333333333333
 40
0.3333333333333333
 40
0.5
 40
0.5
 40
0.5
 40
0.5
 40
0.6666666666666666
 40
0.6666666666666666
 40
0.6666666666666666
 40
0.6666666666666666
 40
0.8333333333333333
 40
0.8333333333333333
 40
0.8333333333333333
 40
0.8333333333333333
 40
1.0
 40
1.0
 40
1.0
 40
1.0
 10
0.5474173228346457
 20
-0.9535275590551181
 30
0.0
 10
0.5474173228346457
 20
-0.9535275590551181
 30
0.0
 10
1.2094685039370079
 20
-1.3491456692913386
 30
0.0
 10
1.2094685039370079
 20
-1.3491456692913386
 30
0.0
 10
1.2094685039370079
 20
-1.3491456692913386
 30
0.0
 10
1.2094685039370079
 20
-1.3491456692913386
 30
0.0
 10
1.1905826771653545
 20
-1.363992125984252
 30
0.0
 10
1.1905826771653545
 20
-1.363992125984252
 30
0.0
 10
1.1905826771653545
 20
-1.363992125984252
 30
0.0
 10
1.1905826771653545
 20
-1.363992125984252
 30
0.0
 10
1.1724370078740158
 20
-1.3797086614173228
 30
0.0
 10
1.1724370078740158
 20
-1.3797086614173228
 30
0.0
 10
1.1724370078740158
 20
-1.3797086614173228
 30
0.0
 10
1.1724370078740158
 20
-1.3797086614173228
 30
0.0
 10
0.5103858267716536
 20
-0.9840905511811025
 30
0.0
 10
0.5103858267716536
 20
-0.9840905511811025
 30
0.0
 10
0.5103858267716536
 20
-0.9840905511811025
 30
0.0
 10
0.5103858267716536
 20
-0.9840905511811025
 30
0.0
 10
0.5285314960629921
 20
-0.9683740157480315
 30
0.0
 10
0.5285314960629921
 20
-0.9683740157480315
 30
0.0
 10
0.5285314960629921
 20
-0.9683740157480315
 30
0.0
 10
0.5285314960629921
 20
-0.9683740157480315
 30
0.0
 10
0.5474173228346457
 20
-0.9535275590551181
 30
0.0
 10
0.5474173228346457
 20
-0.9535275590551181
 30
0.0
  0
SPLINE
  5
6D
100
AcDbEntity
  8
Additional Graphics
 62
     9
100
AcDbSpline
210
0.0
220
0.0
230
1.0
 70
     1
 71
     3
 72
    28
 73
    24
 74
     0
 42
0.0000000001
 43
0.0000000001
 40
0.0
 40
0.0
 40
0.0
 40
0.0
 40
0.1666666666666667
 40
0.1666666666666667
 40
0.1666666666666667
 40
0.1666666666666667
 40
0.3333333333333333
 40
0.3333333333333333
 40
0.3333333333333333
 40
0.3333333333333333
 40
0.5
 40
0.5
 40
0.5
 40
0.5
 40
0.6666666666666666
 40
0.6666666666666666
 40
0.6666666666666666
 40
0.6666666666666666
 40
0.8333333333333333
 40
0.8333333333333333
 40
0.8333333333333333
 40
0.8333333333333333
 40
1.0
 40
1.0
 40
1.0
 40
1.0
 10
0.5103858267716536
 20
-0.9840905511811025
 30
0.0
 10
0.5103858267716536
 20
-0.9840905511811025
 30
0.0
 10
1.1724370078740158
 20
-1.3797086614173228
 30
0.0
 10
1.1724370078740158
 20
-1.3797086614173228
 30
0.0
 10
1.1724370078740158
 20
-1.3797086614173228
 30
0.0
 10
1.1724370078740158
 20
-1.3797086614173228
 30
0.0
 10
1.1550787401574805
 20
-1.3962716535433071
 30
0.0
 10
1.1550787401574805
 20
-1.3962716535433071
 30
0.0
 10
1.1550787401574805
 20
-1.3962716535433071
 30
0.0
 10
1.1550787401574805
 20
-1.3962716535433071
 30
0.0
 10
1.138515748031496
 20
-1.4136299212598427
 30
0.0
 10
1.138515748031496
 20
-1.4136299212598427
 30
0.0
 10
1.138515748031496
 20
-1.4136299212598427
 30
0.0
 10
1.138515748031496
 20
-1.4136299212598427
 30
0.0
 10
0.4764645669291339
 20
-1.018011811023622
 30
0.0
 10
0.4764645669291339
 20
-1.018011811023622
 30
0.0
 10
0.4764645669291339
 20
-1.018011811023622
 30
0.0
 10
0.4764645669291339
 20
-1.018011811023622
 30
0.0
 10
0.4930275590551181
 20
-1.0006535433070867
 30
0.0
 10
0.4930275590551181
 20
-1.0006535433070867
 30
0.0
 10
0.4930275590551181
 20
-1.0006535433070867
 30
0.0
 10
0.4930275590551181
 20
-1.0006535433070867
 30
0.0
 10
0.5103858267716536
 20
-0.9840905511811025
 30
0.0
 10
0.5103858267716536
 20
-0.9840905511811025
 30
0.0
  0
SPLINE
  5
6E
100
AcDbEntity
  8
Additional Graphics
 62
     9
100
AcDbSpline
210
0.0
220
0.0
230
1.0
 70
     1
 71
     3
 72
    28
 73
    24
 74
     0
 42
0.0000000001
 43
0.0000000001
 40
0.0
 40
0.0
 40
0.0
 40
0.0
 40
0.1666666666666667
 40
0.1666666666666667
 40
0.1666666666666667
 40
0.1666666666666667
 40
0.3333333333333333
 40
0.3333333333333333
 40
0.3333333333333333
 40
0.3333333333333333
 40
0.5
 40
0.5
 40
0.5
 40
0.5
 40
0.6666666666666666
 40
0.6666666666666666
 40
0.6666666666666666
 40
0.6666666666666666
 40
0.8333333333333333
 40
0.8333333333333333
 40
0.8333333333333333
 40
0.8333333333333333
 40
1.0
 40
1.0
 40
1.0
 40
1.0
 10
0.4764645669291339
 20
-1.018011811023622
 30
0.0
 10
0.4764645669291339
 20
-1.018011811023622
 30
0.0
 10
1.138515748031496
 20
-1.4136299212598427
 30
0.0
 10
1.138515748031496
 20
-1.4136299212598427
 30
0.0
 10
1.138515748031496
 20
-1.4136299212598427
 30
0.0
 10
1.138515748031496
 20
-1.4136299212598427
 30
0.0
 10
1.1227992125984252
 20
-1.4317755905511811
 30
0.0
 10
1.1227992125984252
 20
-1.4317755905511811
 30
0.0
 10
1.1227992125984252
 20
-1.4317755905511811
 30
0.0
 10
1.1227992125984252
 20
-1.4317755905511811
 30
0.0
 10
1.1079527559055118
 20
-1.4506614173228347
 30
0.0
 10
1.1079527559055118
 20
-1.4506614173228347
 30
0.0
 10
1.1079527559055118
 20
-1.4506614173228347
 30
0.0
 10
1.1079527559055118
 20
-1.4506614173228347
 30
0.0
 10
0.4459015748031496
 20
-1.0550433070866143
 30
0.0
 10
0.4459015748031496
 20
-1.0550433070866143
 30
0.0
 10
0.4459015748031496
 20
-1.0550433070866143
 30
0.0
 10
0.4459015748031496
 20
-1.0550433070866143
 30
0.0
 10
0.460748031496063
 20
-1.0361574803149607
 30
0.0
 10
0.460748031496063
 20
-1.0361574803149607
 30
0.0
 10
0.460748031496063
 20
-1.0361574803149607
 30
0.0
 10
0.460748031496063
 20
-1.0361574803149607
 30
0.0
 10
0.4764645669291339
 20
-1.018011811023622
 30
0.0
 10
0.4764645669291339
 20
-1.018011811023622
 30
0.0
  0
SPLINE
  5
6F
100
AcDbEntity
  8
Additional Graphics
 62
     9
100
AcDbSpline
210
0.0
220
0.0
230
1.0
 70
     1
 71
     3
 72
    28
 73
    24
 74
     0
 42
0.0000000001
 43
0.0000000001
 40
0.0
 40
0.0
 40
0.0
 40
0.0
 40
0.1666666666666667
 40
0.1666666666666667
 40
0.1666666666666667
 40
0.1666666666666667
 40
0.3333333333333333
 40
0.3333333333333333
 40
0.3333333333333333
 40
0.3333333333333333
 40
0.5
 40
0.5
 40
0.5
 40
0.5
 40
0.6666666666666666
 40
0.6666666666666666
 40
0.6666666666666666
 40
0.6666666666666666
 40
0.8333333333333333
 40
0.8333333333333333
 40
0.8333333333333333
 40
0.8333333333333333
 40
1.0
 40
1.0
 40
1.0
 40
1.0
 10
0.4459015748031496
 20
-1.0550433070866143
 30
0.0
 10
0.4459015748031496
 20
-1.0550433070866143
 30
0.0
 10
1.1079527559055118
 20
-1.4506614173228347
 30
0.0
 10
1.1079527559055118
 20
-1.4506614173228347
 30
0.0
 10
1.1079527559055118
 20
-1.4506614173228347
 30
0.0
 10
1.1079527559055118
 20
-1.4506614173228347
 30
0.0
 10
1.094015748031496
 20
-1.4702677165354332
 30
0.0
 10
1.094015748031496
 20
-1.4702677165354332
 30
0.0
 10
1.094015748031496
 20
-1.4702677165354332
 30
0.0
 10
1.094015748031496
 20
-1.4702677165354332
 30
0.0
 10
1.0810039370078741
 20
-1.4905511811023622
 30
0.0
 10
1.0810039370078741
 20
-1.4905511811023622
 30
0.0
 10
1.0810039370078741
 20
-1.4905511811023622
 30
0.0
 10
1.0810039370078741
 20
-1.4905511811023622
 30
0.0
 10
0.4189527559055118
 20
-1.0949330708661418
 30
0.0
 10
0.4189527559055118
 20
-1.0949330708661418
 30
0.0
 10
0.4189527559055118
 20
-1.0949330708661418
 30
0.0
 10
0.4189527559055118
 20
-1.0949330708661418
 30
0.0
 10
0.4319645669291339
 20
-1.0746496062992126
 30
0.0
 10
0.4319645669291339
 20
-1.0746496062992126
 30
0.0
 10
0.4319645669291339
 20
-1.0746496062992126
 30
0.0
 10
0.4319645669291339
 20
-1.0746496062992126
 30
0.0
 10
0.4459015748031496
 20
-1.0550433070866143
 30
0.0
 10
0.4459015748031496
 20
-1.0550433070866143
 30
0.0
  0
SPLINE
  5
70
100
AcDbEntity
  8
Additional Graphics
 62
     9
100
AcDbSpline
210
0.0
220
0.0
230
1.0
 70
     1
 71
     3
 72
    28
 73
    24
 74
     0
 42
0.0000000001
 43
0.0000000001
 40
0.0
 40
0.0
 40
0.0
 40
0.0
 40
0.1666666666666667
 40
0.1666666666666667
 40
0.1666666666666667
 40
0.1666666666666667
 40
0.3333333333333333
 40
0.3333333333333333
 40
0.3333333333333333
 40
0.3333333333333333
 40
0.5
 40
0.5
 40
0.5
 40
0.5
 40
0.6666666666666666
 40
0.6666666666666666
 40
0.6666666666666666
 40
0.6666666666666666
 40
0.8333333333333333
 40
0.8333333333333333
 40
0.8333333333333333
 40
0.8333333333333333
 40
1.0
 40
1.0
 40
1.0
 40
1.0
 10
0.4189527559055118
 20
-1.0949330708661418
 30
0.0
 10
0.4189527559055118
 20
-1.0949330708661418
 30
0.0
 10
1.0810039370078741
 20
-1.4905511811023622
 30
0.0
 10
1.0810039370078741
 20
-1.4905511811023622
 30
0.0
 10
1.0810039370078741
 20
-1.4905511811023622
 30
0.0
 10
1.0810039370078741
 20
-1.4905511811023622
 30
0.0
 10
1.0689645669291339
 20
-1.511492125984252
 30
0.0
 10
1.0689645669291339
 20
-1.511492125984252
 30
0.0
 10
1.0689645669291339
 20
-1.511492125984252
 30
0.0
 10
1.0689645669291339
 20
-1.511492125984252
 30
0.0
 10
1.0579212598425198
 20
-1.5330472440944882
 30
0.0
 10
1.0579212598425198
 20
-1.5330472440944882
 30
0.0
 10
1.0579212598425198
 20
-1.5330472440944882
 30
0.0
 10
1.0579212598425198
 20
-1.5330472440944882
 30
0.0
 10
0.3958700787401575
 20
-1.1374291338582678
 30
0.0
 10
0.3958700787401575
 20
-1.1374291338582678
 30
0.0
 10
0.3958700787401575
 20
-1.1374291338582678
 30
0.0
 10
0.3958700787401575
 20
-1.1374291338582678
 30
0.0
 10
0.4069133858267717
 20
-1.1158740157480316
 30
0.0
 10
0.4069133858267717
 20
-1.1158740157480316
 30
0.0
 10
0.4069133858267717
 20
-1.1158740157480316
 30
0.0
 10
0.4069133858267717
 20
-1.1158740157480316
 30
0.0
 10
0.4189527559055118
 20
-1.0949330708661418
 30
0.0
 10
0.4189527559055118
 20
-1.0949330708661418
 30
0.0
  0
SPLINE
  5
71
100
AcDbEntity
  8
Additional Graphics
 62
     9
100
AcDbSpline
210
0.0
220
0.0
230
1.0
 70
     1
 71
     3
 72
    28
 73
    24
 74
     0
 42
0.0000000001
 43
0.0000000001
 40
0.0
 40
0.0
 40
0.0
 40
0.0
 40
0.1666666666666667
 40
0.1666666666666667
 40
0.1666666666666667
 40
0.1666666666666667
 40
0.3333333333333333
 40
0.3333333333333333
 40
0.3333333333333333
 40
0.3333333333333333
 40
0.5
 40
0.5
 40
0.5
 40
0.5
 40
0.6666666666666666
 40
0.6666666666666666
 40
0.6666666666666666
 40
0.6666666666666666
 40
0.8333333333333333
 40
0.8333333333333333
 40
0.8333333333333333
 40
0.8333333333333333
 40
1.0
 40
1.0
 40
1.0
 40
1.0
 10
0.3958700787401575
 20
-1.1374291338582678
 30
0.0
 10
0.3958700787401575
 20
-1.1374291338582678
 30
0.0
 10
1.0579212598425198
 20
-1.5330472440944882
 30
0.0
 10
1.0579212598425198
 20
-1.5330472440944882
 30
0.0
 10
1.0579212598425198
 20
-1.5330472440944882
 30
0.0
 10
1.0579212598425198
 20
-1.5330472440944882
 30
0.0
 10
1.0479094488188976
 20
-1.555200787401575
 30
0.0
 10
1.0479094488188976
 20
-1.555200787401575
 30
0.0
 10
1.0479094488188976
 20
-1.555200787401575
 30
0.0
 10
1.0479094488188976
 20
-1.555200787401575
 30
0.0
 10
1.0389488188976379
 20
-1.5779015748031497
 30
0.0
 10
1.0389488188976379
 20
-1.5779015748031497
 30
0.0
 10
1.0389488188976379
 20
-1.5779015748031497
 30
0.0
 10
1.0389488188976379
 20
-1.5779015748031497
 30
0.0
 10
0.3768976377952756
 20
-1.1822834645669291
 30
0.0
 10
0.3768976377952756
 20
-1.1822834645669291
 30
0.0
 10
0.3768976377952756
 20
-1.1822834645669291
 30
0.0
 10
0.3768976377952756
 20
-1.1822834645669291
 30
0.0
 10
0.3858582677165355
 20
-1.1595826771653543
 30
0.0
 10
0.3858582677165355
 20
-1.1595826771653543
 30
0.0
 10
0.3858582677165355
 20
-1.1595826771653543
 30
0.0
 10
0.3858582677165355
 20
-1.1595826771653543
 30
0.0
 10
0.3958700787401575
 20
-1.1374291338582678
 30
0.0
 10
0.3958700787401575
 20
-1.1374291338582678
 30
0.0
  0
SPLINE
  5
72
100
AcDbEntity
  8
Additional Graphics
 62
     9
100
AcDbSpline
210
0.0
220
0.0
230
1.0
 70
     1
 71
     3
 72
    28
 73
    24
 74
     0
 42
0.0000000001
 43
0.0000000001
 40
0.0
 40
0.0
 40
0.0
 40
0.0
 40
0.1666666666666667
 40
0.1666666666666667
 40
0.1666666666666667
 40
0.1666666666666667
 40
0.3333333333333333
 40
0.3333333333333333
 40
0.3333333333333333
 40
0.3333333333333333
 40
0.5
 40
0.5
 40
0.5
 40
0.5
 40
0.6666666666666666
 40
0.6666666666666666
 40
0.6666666666666666
 40
0.6666666666666666
 40
0.8333333333333333
 40
0.8333333333333333
 40
0.8333333333333333
 40
0.8333333333333333
 40
1.0
 40
1.0
 40
1.0
 40
1.0
 10
0.3768976377952756
 20
-1.1822834645669291
 30
0.0
 10
0.3768976377952756
 20
-1.1822834645669291
 30
0.0
 10
1.0389488188976379
 20
-1.5779015748031497
 30
0.0
 10
1.0389488188976379
 20
-1.5779015748031497
 30
0.0
 10
1.0389488188976379
 20
-1.5779015748031497
 30
0.0
 10
1.0389488188976379
 20
-1.5779015748031497
 30
0.0
 10
1.0310905511811024
 20
-1.6011338582677166
 30
0.0
 10
1.0310905511811024
 20
-1.6011338582677166
 30
0.0
 10
1.0310905511811024
 20
-1.6011338582677166
 30
0.0
 10
1.0310905511811024
 20
-1.6011338582677166
 30
0.0
 10
1.0243503937007874
 20
-1.6248582677165355
 30
0.0
 10
1.0243503937007874
 20
-1.6248582677165355
 30
0.0
 10
1.0243503937007874
 20
-1.6248582677165355
 30
0.0
 10
1.0243503937007874
 20
-1.6248582677165355
 30
0.0
 10
0.3622992125984252
 20
-1.2292401574803149
 30
0.0
 10
0.3622992125984252
 20
-1.2292401574803149
 30
0.0
 10
0.3622992125984252
 20
-1.2292401574803149
 30
0.0
 10
0.3622992125984252
 20
-1.2292401574803149
 30
0.0
 10
0.3690393700787402
 20
-1.2055157480314962
 30
0.0
 10
0.3690393700787402
 20
-1.2055157480314962
 30
0.0
 10
0.3690393700787402
 20
-1.2055157480314962
 30
0.0
 10
0.3690393700787402
 20
-1.2055157480314962
 30
0.0
 10
0.3768976377952756
 20
-1.1822834645669291
 30
0.0
 10
0.3768976377952756
 20
-1.1822834645669291
 30
0.0
  0
SPLINE
  5
73
100
AcDbEntity
  8
Additional Graphics
 62
     9
100
AcDbSpline
210
0.0
220
0.0
230
1.0
 70
     1
 71
     3
 72
    28
 73
    24
 74
     0
 42
0.0000000001
 43
0.0000000001
 40
0.0
 40
0.0
 40
0.0
 40
0.0
 40
0.1666666666666667
 40
0.1666666666666667
 40
0.1666666666666667
 40
0.1666666666666667
 40
0.3333333333333333
 40
0.3333333333333333
 40
0.3333333333333333
 40
0.3333333333333333
 40
0.5
 40
0.5
 40
0.5
 40
0.5
 40
0.6666666666666666
 40
0.6666666666666666
 40
0.6666666666666666
 40
0.6666666666666666
 40
0.8333333333333333
 40
0.8333333333333333
 40
0.8333333333333333
 40
0.8333333333333333
 40
1.0
 40
1.0
 40
1.0
 40
1.0
 10
0.3622992125984252
 20
-1.2292401574803149
 30
0.0
 10
0.3622992125984252
 20
-1.2292401574803149
 30
0.0
 10
1.0243503937007874
 20
-1.6248582677165355
 30
0.0
 10
1.0243503937007874
 20
-1.6248582677165355
 30
0.0
 10
1.0243503937007874
 20
-1.6248582677165355
 30
0.0
 10
1.0243503937007874
 20
-1.6248582677165355
 30
0.0
 10
1.0187716535433071
 20
-1.6490511811023623
 30
0.0
 10
1.0187716535433071
 20
-1.6490511811023623
 30
0.0
 10
1.0187716535433071
 20
-1.6490511811023623
 30
0.0
 10
1.0187716535433071
 20
-1.6490511811023623
 30
0.0
 10
1.0143700787401575
 20
-1.6736653543307087
 30
0.0
 10
1.0143700787401575
 20
-1.6736653543307087
 30
0.0
 10
1.0143700787401575
 20
-1.6736653543307087
 30
0.0
 10
1.0143700787401575
 20
-1.6736653543307087
 30
0.0
 10
0.3523188976377953
 20
-1.2780472440944883
 30
0.0
 10
0.3523188976377953
 20
-1.2780472440944883
 30
0.0
 10
0.3523188976377953
 20
-1.2780472440944883
 30
0.0
 10
0.3523188976377953
 20
-1.2780472440944883
 30
0.0
 10
0.3567204724409449
 20
-1.2534330708661419
 30
0.0
 10
0.3567204724409449
 20
-1.2534330708661419
 30
0.0
 10
0.3567204724409449
 20
-1.2534330708661419
 30
0.0
 10
0.3567204724409449
 20
-1.2534330708661419
 30
0.0
 10
0.3622992125984252
 20
-1.2292401574803149
 30
0.0
 10
0.3622992125984252
 20
-1.2292401574803149
 30
0.0
  0
SPLINE
  5
74
100
AcDbEntity
  8
Additional Graphics
 62
     9
100
AcDbSpline
210
0.0
220
0.0
230
1.0
 70
     1
 71
     3
 72
    20
 73
    16
 74
     0
 42
0.0000000001
 43
0.0000000001
 40
0.0
 40
0.0
 40
0.0
 40
0.0
 40
0.25
 40
0.25
 40
0.25
 40
0.25
 40
0.5
 40
0.5
 40
0.5
 40
0.5
 40
0.75
 40
0.75
 40
0.75
 40
0.75
 40
1.0
 40
1.0
 40
1.0
 40
1.0
 10
0.3523188976377953
 20
-1.2780472440944883
 30
0.0
 10
0.3523188976377953
 20
-1.2780472440944883
 30
0.0
 10
1.0143700787401575
 20
-1.6736653543307087
 30
0.0
 10
1.0143700787401575
 20
-1.6736653543307087
 30
0.0
 10
1.0143700787401575
 20
-1.6736653543307087
 30
0.0
 10
1.0143700787401575
 20
-1.6736653543307087
 30
0.0
 10
1.0111929133858268
 20
-1.6986889763779529
 30
0.0
 10
1.0111929133858268
 20
-1.6986889763779529
 30
0.0
 10
1.0111929133858268
 20
-1.6986889763779529
 30
0.0
 10
1.0111929133858268
 20
-1.6986889763779529
 30
0.0
 10
0.3491417322834646
 20
-1.3030708661417323
 30
0.0
 10
0.3491417322834646
 20
-1.3030708661417323
 30
0.0
 10
0.3491417322834646
 20
-1.3030708661417323
 30
0.0
 10
0.3491417322834646
 20
-1.3030708661417323
 30
0.0
 10
0.3523188976377953
 20
-1.2780472440944883
 30
0.0
 10
0.3523188976377953
 20
-1.2780472440944883
 30
0.0
  0
SPLINE
  5
75
100
AcDbEntity
  8
Additional Graphics
 62
     9
100
AcDbSpline
210
0.0
220
0.0
230
1.0
 70
     1
 71
     3
 72
    20
 73
    16
 74
     0
 42
0.0000000001
 43
0.0000000001
 40
0.0
 40
0.0
 40
0.0
 40
0.0
 40
0.25
 40
0.25
 40
0.25
 40
0.25
 40
0.5
 40
0.5
 40
0.5
 40
0.5
 40
0.75
 40
0.75
 40
0.75
 40
0.75
 40
1.0
 40
1.0
 40
1.0
 40
1.0
 10
0.3491417322834646
 20
-1.3030708661417323
 30
0.0
 10
0.3491417322834646
 20
-1.3030708661417323
 30
0.0
 10
1.0111929133858268
 20
-1.6986889763779529
 30
0.0
 10
1.0111929133858268
 20
-1.6986889763779529
 30
0.0
 10
1.0111929133858268
 20
-1.6986889763779529
 30
0.0
 10
1.0111929133858268
 20
-1.6986889763779529
 30
0.0
 10
1.009259842519685
 20
-1.7240748031496063
 30
0.0
 10
1.009259842519685
 20
-1.7240748031496063
 30
0.0
 10
1.009259842519685
 20
-1.7240748031496063
 30
0.0
 10
1.009259842519685
 20
-1.7240748031496063
 30
0.0
 10
0.3472086614173229
 20
-1.3284566929133859
 30
0.0
 10
0.3472086614173229
 20
-1.3284566929133859
 30
0.0
 10
0.3472086614173229
 20
-1.3284566929133859
 30
0.0
 10
0.3472086614173229
 20
-1.3284566929133859
 30
0.0
 10
0.3491417322834646
 20
-1.3030708661417323
 30
0.0
 10
0.3491417322834646
 20
-1.3030708661417323
 30
0.0
  0
SPLINE
  5
76
100
AcDbEntity
  8
Additional Graphics
 62
     9
100
AcDbSpline
210
0.0
220
0.0
230
1.0
 70
     1
 71
     3
 72
    20
 73
    16
 74
     0
 42
0.0000000001
 43
0.0000000001
 40
0.0
 40
0.0
 40
0.0
 40
0.0
 40
0.25
 40
0.25
 40
0.25
 40
0.25
 40
0.5
 40
0.5
 40
0.5
 40
0.5
 40
0.75
 40
0.75
 40
0.75
 40
0.75
 40
1.0
 40
1.0
 40
1.0
 40
1.0
 10
0.3472086614173229
 20
-1.3284566929133859
 30
0.0
 10
0.3472086614173229
 20
-1.3284566929133859
 30
0.0
 10
1.009259842519685
 20
-1.7240748031496063
 30
0.0
 10
1.009259842519685
 20
-1.7240748031496063
 30
0.0
 10
1.009259842519685
 20
-1.7240748031496063
 30
0.0
 10
1.009259842519685
 20
-1.7240748031496063
 30
0.0
 10
1.0086141732283465
 20
-1.7498070866141733
 30
0.0
 10
1.0086141732283465
 20
-1.7498070866141733
 30
0.0
 10
1.0086141732283465
 20
-1.7498070866141733
 30
0.0
 10
1.0086141732283465
 20
-1.7498070866141733
 30
0.0
 10
0.3465629921259843
 20
-1.3541889763779529
 30
0.0
 10
0.3465629921259843
 20
-1.3541889763779529
 30
0.0
 10
0.3465629921259843
 20
-1.3541889763779529
 30
0.0
 10
0.3465629921259843
 20
-1.3541889763779529
 30
0.0
 10
0.3472086614173229
 20
-1.3284566929133859
 30
0.0
 10
0.3472086614173229
 20
-1.3284566929133859
 30
0.0
  0
SPLINE
  5
77
100
AcDbEntity
  8
Additional Graphics
370
     5
100
AcDbSpline
210
0.0
220
0.0
230
1.0
 70
     1
 71
     3
 72
   268
 73
   264
 74
     0
 42
0.0000000001
 43
0.0000000001
 40
0.0
 40
0.0
 40
0.0
 40
0.0
 40
0.0151515151515152
 40
0.0151515151515152
 40
0.0151515151515152
 40
0.0151515151515152
 40
0.0303030303030303
 40
0.0303030303030303
 40
0.0303030303030303
 40
0.0303030303030303
 40
0.0454545454545455
 40
0.0454545454545455
 40
0.0454545454545455
 40
0.0454545454545455
 40
0.0606060606060606
 40
0.0606060606060606
 40
0.0606060606060606
 40
0.0606060606060606
 40
0.0757575757575758
 40
0.0757575757575758
 40
0.0757575757575758
 40
0.0757575757575758
 40
0.0909090909090909
 40
0.0909090909090909
 40
0.0909090909090909
 40
0.0909090909090909
 40
0.1060606060606061
 40
0.1060606060606061
 40
0.1060606060606061
 40
0.1060606060606061
 40
0.1212121212121212
 40
0.1212121212121212
 40
0.1212121212121212
 40
0.1212121212121212
 40
0.1363636363636364
 40
0.1363636363636364
 40
0.1363636363636364
 40
0.1363636363636364
 40
0.1515151515151515
 40
0.1515151515151515
 40
0.1515151515151515
 40
0.1515151515151515
 40
0.1666666666666666
 40
0.1666666666666666
 40
0.1666666666666666
 40
0.1666666666666666
 40
0.1818181818181818
 40
0.1818181818181818
 40
0.1818181818181818
 40
0.1818181818181818
 40
0.1969696969696969
 40
0.1969696969696969
 40
0.1969696969696969
 40
0.1969696969696969
 40
0.212121212121212
 40
0.212121212121212
 40
0.212121212121212
 40
0.212121212121212
 40
0.2272727272727272
 40
0.2272727272727272
 40
0.2272727272727272
 40
0.2272727272727272
 40
0.2424242424242423
 40
0.2424242424242423
 40
0.2424242424242423
 40
0.2424242424242423
 40
0.2575757575757575
 40
0.2575757575757575
 40
0.2575757575757575
 40
0.2575757575757575
 40
0.2727272727272726
 40
0.2727272727272726
 40
0.2727272727272726
 40
0.2727272727272726
 40
0.2878787878787877
 40
0.2878787878787877
 40
0.2878787878787877
 40
0.2878787878787877
 40
0.3030303030303029
 40
0.3030303030303029
 40
0.3030303030303029
 40
0.3030303030303029
 40
0.318181818181818
 40
0.318181818181818
 40
0.318181818181818
 40
0.318181818181818
 40
0.3333333333333332
 40
0.3333333333333332
 40
0.3333333333333332
 40
0.3333333333333332
 40
0.3484848484848483
 40
0.3484848484848483
 40
0.3484848484848483
 40
0.3484848484848483
 40
0.3636363636363634
 40
0.3636363636363634
 40
0.3636363636363634
 40
0.3636363636363634
 40
0.3787878787878786
 40
0.3787878787878786
 40
0.3787878787878786
 40
0.3787878787878786
 40
0.3939393939393937
 40
0.3939393939393937
 40
0.3939393939393937
 40
0.3939393939393937
 40
0.4090909090909088
 40
0.4090909090909088
 40
0.4090909090909088
 40
0.4090909090909088
 40
0.424242424242424
 40
0.424242424242424
 40
0.424242424242424
 40
0.424242424242424
 40
0.4393939393939391
 40
0.4393939393939391
 40
0.4393939393939391
 40
0.4393939393939391
 40
0.4545454545454543
 40
0.4545454545454543
 40
0.4545454545454543
 40
0.4545454545454543
 40
0.4696969696969694
 40
0.4696969696969694
 40
0.4696969696969694
 40
0.4696969696969694
 40
0.4848484848484845
 40
0.4848484848484845
 40
0.4848484848484845
 40
0.4848484848484845
 40
0.4999999999999997
 40
0.4999999999999997
 40
0.4999999999999997
 40
0.4999999999999997
 40
0.5151515151515148
 40
0.5151515151515148
 40
0.5151515151515148
 40
0.5151515151515148
 40
0.5303030303030299
 40
0.5303030303030299
 40
0.5303030303030299
 40
0.5303030303030299
 40
0.5454545454545451
 40
0.5454545454545451
 40
0.5454545454545451
 40
0.5454545454545451
 40
0.5606060606060602
 40
0.5606060606060602
 40
0.5606060606060602
 40
0.5606060606060602
 40
0.5757575757575754
 40
0.5757575757575754
 40
0.5757575757575754
 40
0.5757575757575754
 40
0.5909090909090905
 40
0.5909090909090905
 40
0.5909090909090905
 40
0.5909090909090905
 40
0.6060606060606056
 40
0.6060606060606056
 40
0.6060606060606056
 40
0.6060606060606056
 40
0.6212121212121208
 40
0.6212121212121208
 40
0.6212121212121208
 40
0.6212121212121208
 40
0.6363636363636359
 40
0.6363636363636359
 40
0.6363636363636359
 40
0.6363636363636359
 40
0.6515151515151511
 40
0.6515151515151511
 40
0.6515151515151511
 40
0.6515151515151511
 40
0.6666666666666662
 40
0.6666666666666662
 40
0.6666666666666662
 40
0.6666666666666662
 40
0.6818181818181813
 40
0.6818181818181813
 40
0.6818181818181813
 40
0.6818181818181813
 40
0.6969696969696965
 40
0.6969696969696965
 40
0.6969696969696965
 40
0.6969696969696965
 40
0.7121212121212116
 40
0.7121212121212116
 40
0.7121212121212116
 40
0.7121212121212116
 40
0.7272727272727267
 40
0.7272727272727267
 40
0.7272727272727267
 40
0.7272727272727267
 40
0.7424242424242419
 40
0.7424242424242419
 40
0.7424242424242419
 40
0.7424242424242419
 40
0.757575757575757
 40
0.757575757575757
 40
0.757575757575757
 40
0.757575757575757
 40
0.7727272727272722
 40
0.7727272727272722
 40
0.7727272727272722
 40
0.7727272727272722
 40
0.7878787878787873
 40
0.7878787878787873
 40
0.7878787878787873
 40
0.7878787878787873
 40
0.8030303030303024
 40
0.8030303030303024
 40
0.8030303030303024
 40
0.8030303030303024
 40
0.8181818181818176
 40
0.8181818181818176
 40
0.8181818181818176
 40
0.8181818181818176
 40
0.8333333333333327
 40
0.8333333333333327
 40
0.8333333333333327
 40
0.8333333333333327
 40
0.8484848484848478
 40
0.8484848484848478
 40
0.8484848484848478
 40
0.8484848484848478
 40
0.863636363636363
 40
0.863636363636363
 40
0.863636363636363
 40
0.863636363636363
 40
0.8787878787878781
 40
0.8787878787878781
 40
0.8787878787878781
 40
0.8787878787878781
 40
0.8939393939393933
 40
0.8939393939393933
 40
0.8939393939393933
 40
0.8939393939393933
 40
0.9090909090909084
 40
0.9090909090909084
 40
0.9090909090909084
 40
0.9090909090909084
 40
0.9242424242424235
 40
0.9242424242424235
 40
0.9242424242424235
 40
0.9242424242424235
 40
0.9393939393939387
 40
0.9393939393939387
 40
0.9393939393939387
 40
0.9393939393939387
 40
0.9545454545454538
 40
0.9545454545454538
 40
0.9545454545454538
 40
0.9545454545454538
 40
0.969696969696969
 40
0.969696969696969
 40
0.969696969696969
 40
0.969696969696969
 40
0.9848484848484841
 40
0.9848484848484841
 40
0.9848484848484841
 40
0.9848484848484841
 40
1.0
 40
1.0
 40
1.0
 40
1.0
 10
0.8465629921259843
 20
-0.8541889763779528
 30
0.0
 10
0.8465629921259843
 20
-0.8541889763779528
 30
0.0
 10
1.5086141732283465
 20
-1.2498070866141733
 30
0.0
 10
1.5086141732283465
 20
-1.2498070866141733
 30
0.0
 10
1.5086141732283465
 20
-1.2498070866141733
 30
0.0
 10
1.5086141732283465
 20
-1.2498070866141733
 30
0.0
 10
1.4828818897637797
 20
-1.2504527559055119
 30
0.0
 10
1.4828818897637797
 20
-1.2504527559055119
 30
0.0
 10
1.4828818897637797
 20
-1.2504527559055119
 30
0.0
 10
1.4828818897637797
 20
-1.2504527559055119
 30
0.0
 10
1.4574960629921261
 20
-1.2523858267716537
 30
0.0
 10
1.4574960629921261
 20
-1.2523858267716537
 30
0.0
 10
1.4574960629921261
 20
-1.2523858267716537
 30
0.0
 10
1.4574960629921261
 20
-1.2523858267716537
 30
0.0
 10
1.4324724409448819
 20
-1.2555629921259843
 30
0.0
 10
1.4324724409448819
 20
-1.2555629921259843
 30
0.0
 10
1.4324724409448819
 20
-1.2555629921259843
 30
0.0
 10
1.4324724409448819
 20
-1.2555629921259843
 30
0.0
 10
1.4078582677165354
 20
-1.2599645669291339
 30
0.0
 10
1.4078582677165354
 20
-1.2599645669291339
 30
0.0
 10
1.4078582677165354
 20
-1.2599645669291339
 30
0.0
 10
1.4078582677165354
 20
-1.2599645669291339
 30
0.0
 10
1.3836653543307087
 20
-1.2655433070866142
 30
0.0
 10
1.3836653543307087
 20
-1.2655433070866142
 30
0.0
 10
1.3836653543307087
 20
-1.2655433070866142
 30
0.0
 10
1.3836653543307087
 20
-1.2655433070866142
 30
0.0
 10
1.3599409448818898
 20
-1.2722834645669292
 30
0.0
 10
1.3599409448818898
 20
-1.2722834645669292
 30
0.0
 10
1.3599409448818898
 20
-1.2722834645669292
 30
0.0
 10
1.3599409448818898
 20
-1.2722834645669292
 30
0.0
 10
1.3367086614173229
 20
-1.2801417322834645
 30
0.0
 10
1.3367086614173229
 20
-1.2801417322834645
 30
0.0
 10
1.3367086614173229
 20
-1.2801417322834645
 30
0.0
 10
1.3367086614173229
 20
-1.2801417322834645
 30
0.0
 10
1.3140078740157481
 20
-1.2891023622047244
 30
0.0
 10
1.3140078740157481
 20
-1.2891023622047244
 30
0.0
 10
1.3140078740157481
 20
-1.2891023622047244
 30
0.0
 10
1.3140078740157481
 20
-1.2891023622047244
 30
0.0
 10
1.2918543307086614
 20
-1.2991141732283464
 30
0.0
 10
1.2918543307086614
 20
-1.2991141732283464
 30
0.0
 10
1.2918543307086614
 20
-1.2991141732283464
 30
0.0
 10
1.2918543307086614
 20
-1.2991141732283464
 30
0.0
 10
1.2702992125984252
 20
-1.3101574803149607
 30
0.0
 10
1.2702992125984252
 20
-1.3101574803149607
 30
0.0
 10
1.2702992125984252
 20
-1.3101574803149607
 30
0.0
 10
1.2702992125984252
 20
-1.3101574803149607
 30
0.0
 10
1.2493582677165356
 20
-1.3221968503937009
 30
0.0
 10
1.2493582677165356
 20
-1.3221968503937009
 30
0.0
 10
1.2493582677165356
 20
-1.3221968503937009
 30
0.0
 10
1.2493582677165356
 20
-1.3221968503937009
 30
0.0
 10
1.2290748031496064
 20
-1.3352086614173229
 30
0.0
 10
1.2290748031496064
 20
-1.3352086614173229
 30
0.0
 10
1.2290748031496064
 20
-1.3352086614173229
 30
0.0
 10
1.2290748031496064
 20
-1.3352086614173229
 30
0.0
 10
1.2094685039370079
 20
-1.3491456692913386
 30
0.0
 10
1.2094685039370079
 20
-1.3491456692913386
 30
0.0
 10
1.2094685039370079
 20
-1.3491456692913386
 30
0.0
 10
1.2094685039370079
 20
-1.3491456692913386
 30
0.0
 10
1.1905826771653545
 20
-1.363992125984252
 30
0.0
 10
1.1905826771653545
 20
-1.363992125984252
 30
0.0
 10
1.1905826771653545
 20
-1.363992125984252
 30
0.0
 10
1.1905826771653545
 20
-1.363992125984252
 30
0.0
 10
1.1724370078740158
 20
-1.3797086614173228
 30
0.0
 10
1.1724370078740158
 20
-1.3797086614173228
 30
0.0
 10
1.1724370078740158
 20
-1.3797086614173228
 30
0.0
 10
1.1724370078740158
 20
-1.3797086614173228
 30
0.0
 10
1.1550787401574805
 20
-1.3962716535433071
 30
0.0
 10
1.1550787401574805
 20
-1.3962716535433071
 30
0.0
 10
1.1550787401574805
 20
-1.3962716535433071
 30
0.0
 10
1.1550787401574805
 20
-1.3962716535433071
 30
0.0
 10
1.138515748031496
 20
-1.4136299212598427
 30
0.0
 10
1.138515748031496
 20
-1.4136299212598427
 30
0.0
 10
1.138515748031496
 20
-1.4136299212598427
 30
0.0
 10
1.138515748031496
 20
-1.4136299212598427
 30
0.0
 10
1.1227992125984252
 20
-1.4317755905511811
 30
0.0
 10
1.1227992125984252
 20
-1.4317755905511811
 30
0.0
 10
1.1227992125984252
 20
-1.4317755905511811
 30
0.0
 10
1.1227992125984252
 20
-1.4317755905511811
 30
0.0
 10
1.1079527559055118
 20
-1.4506614173228347
 30
0.0
 10
1.1079527559055118
 20
-1.4506614173228347
 30
0.0
 10
1.1079527559055118
 20
-1.4506614173228347
 30
0.0
 10
1.1079527559055118
 20
-1.4506614173228347
 30
0.0
 10
1.094015748031496
 20
-1.4702677165354332
 30
0.0
 10
1.094015748031496
 20
-1.4702677165354332
 30
0.0
 10
1.094015748031496
 20
-1.4702677165354332
 30
0.0
 10
1.094015748031496
 20
-1.4702677165354332
 30
0.0
 10
1.0810039370078741
 20
-1.4905511811023622
 30
0.0
 10
1.0810039370078741
 20
-1.4905511811023622
 30
0.0
 10
1.0810039370078741
 20
-1.4905511811023622
 30
0.0
 10
1.0810039370078741
 20
-1.4905511811023622
 30
0.0
 10
1.0689645669291339
 20
-1.511492125984252
 30
0.0
 10
1.0689645669291339
 20
-1.511492125984252
 30
0.0
 10
1.0689645669291339
 20
-1.511492125984252
 30
0.0
 10
1.0689645669291339
 20
-1.511492125984252
 30
0.0
 10
1.0579212598425198
 20
-1.5330472440944882
 30
0.0
 10
1.0579212598425198
 20
-1.5330472440944882
 30
0.0
 10
1.0579212598425198
 20
-1.5330472440944882
 30
0.0
 10
1.0579212598425198
 20
-1.5330472440944882
 30
0.0
 10
1.0479094488188976
 20
-1.555200787401575
 30
0.0
 10
1.0479094488188976
 20
-1.555200787401575
 30
0.0
 10
1.0479094488188976
 20
-1.555200787401575
 30
0.0
 10
1.0479094488188976
 20
-1.555200787401575
 30
0.0
 10
1.0389488188976379
 20
-1.5779015748031497
 30
0.0
 10
1.0389488188976379
 20
-1.5779015748031497
 30
0.0
 10
1.0389488188976379
 20
-1.5779015748031497
 30
0.0
 10
1.0389488188976379
 20
-1.5779015748031497
 30
0.0
 10
1.0310905511811024
 20
-1.6011338582677166
 30
0.0
 10
1.0310905511811024
 20
-1.6011338582677166
 30
0.0
 10
1.0310905511811024
 20
-1.6011338582677166
 30
0.0
 10
1.0310905511811024
 20
-1.6011338582677166
 30
0.0
 10
1.0243503937007874
 20
-1.6248582677165355
 30
0.0
 10
1.0243503937007874
 20
-1.6248582677165355
 30
0.0
 10
1.0243503937007874
 20
-1.6248582677165355
 30
0.0
 10
1.0243503937007874
 20
-1.6248582677165355
 30
0.0
 10
1.0187716535433071
 20
-1.6490511811023623
 30
0.0
 10
1.0187716535433071
 20
-1.6490511811023623
 30
0.0
 10
1.0187716535433071
 20
-1.6490511811023623
 30
0.0
 10
1.0187716535433071
 20
-1.6490511811023623
 30
0.0
 10
1.0143700787401575
 20
-1.6736653543307087
 30
0.0
 10
1.0143700787401575
 20
-1.6736653543307087
 30
0.0
 10
1.0143700787401575
 20
-1.6736653543307087
 30
0.0
 10
1.0143700787401575
 20
-1.6736653543307087
 30
0.0
 10
1.0111929133858268
 20
-1.6986889763779529
 30
0.0
 10
1.0111929133858268
 20
-1.6986889763779529
 30
0.0
 10
1.0111929133858268
 20
-1.6986889763779529
 30
0.0
 10
1.0111929133858268
 20
-1.6986889763779529
 30
0.0
 10
1.009259842519685
 20
-1.7240748031496063
 30
0.0
 10
1.009259842519685
 20
-1.7240748031496063
 30
0.0
 10
1.009259842519685
 20
-1.7240748031496063
 30
0.0
 10
1.009259842519685
 20
-1.7240748031496063
 30
0.0
 10
1.0086141732283465
 20
-1.7498070866141733
 30
0.0
 10
1.0086141732283465
 20
-1.7498070866141733
 30
0.0
 10
1.0086141732283465
 20
-1.7498070866141733
 30
0.0
 10
1.0086141732283465
 20
-1.7498070866141733
 30
0.0
 10
0.3465629921259843
 20
-1.3541889763779529
 30
0.0
 10
0.3465629921259843
 20
-1.3541889763779529
 30
0.0
 10
0.3465629921259843
 20
-1.3541889763779529
 30
0.0
 10
0.3465629921259843
 20
-1.3541889763779529
 30
0.0
 10
0.3472086614173229
 20
-1.3284566929133859
 30
0.0
 10
0.3472086614173229
 20
-1.3284566929133859
 30
0.0
 10
0.3472086614173229
 20
-1.3284566929133859
 30
0.0
 10
0.3472086614173229
 20
-1.3284566929133859
 30
0.0
 10
0.3491417322834646
 20
-1.3030708661417323
 30
0.0
 10
0.3491417322834646
 20
-1.3030708661417323
 30
0.0
 10
0.3491417322834646
 20
-1.3030708661417323
 30
0.0
 10
0.3491417322834646
 20
-1.3030708661417323
 30
0.0
 10
0.3523188976377953
 20
-1.2780472440944883
 30
0.0
 10
0.3523188976377953
 20
-1.2780472440944883
 30
0.0
 10
0.3523188976377953
 20
-1.2780472440944883
 30
0.0
 10
0.3523188976377953
 20
-1.2780472440944883
 30
0.0
 10
0.3567204724409449
 20
-1.2534330708661419
 30
0.0
 10
0.3567204724409449
 20
-1.2534330708661419
 30
0.0
 10
0.3567204724409449
 20
-1.2534330708661419
 30
0.0
 10
0.3567204724409449
 20
-1.2534330708661419
 30
0.0
 10
0.3622992125984252
 20
-1.2292401574803149
 30
0.0
 10
0.3622992125984252
 20
-1.2292401574803149
 30
0.0
 10
0.3622992125984252
 20
-1.2292401574803149
 30
0.0
 10
0.3622992125984252
 20
-1.2292401574803149
 30
0.0
 10
0.3690393700787402
 20
-1.2055157480314962
 30
0.0
 10
0.3690393700787402
 20
-1.2055157480314962
 30
0.0
 10
0.3690393700787402
 20
-1.2055157480314962
 30
0.0
 10
0.3690393700787402
 20
-1.2055157480314962
 30
0.0
 10
0.3768976377952756
 20
-1.1822834645669291
 30
0.0
 10
0.3768976377952756
 20
-1.1822834645669291
 30
0.0
 10
0.3768976377952756
 20
-1.1822834645669291
 30
0.0
 10
0.3768976377952756
 20
-1.1822834645669291
 30
0.0
 10
0.3858582677165355
 20
-1.1595826771653543
 30
0.0
 10
0.3858582677165355
 20
-1.1595826771653543
 30
0.0
 10
0.3858582677165355
 20
-1.1595826771653543
 30
0.0
 10
0.3858582677165355
 20
-1.1595826771653543
 30
0.0
 10
0.3958700787401575
 20
-1.1374291338582678
 30
0.0
 10
0.3958700787401575
 20
-1.1374291338582678
 30
0.0
 10
0.3958700787401575
 20
-1.1374291338582678
 30
0.0
 10
0.3958700787401575
 20
-1.1374291338582678
 30
0.0
 10
0.4069133858267717
 20
-1.1158740157480316
 30
0.0
 10
0.4069133858267717
 20
-1.1158740157480316
 30
0.0
 10
0.4069133858267717
 20
-1.1158740157480316
 30
0.0
 10
0.4069133858267717
 20
-1.1158740157480316
 30
0.0
 10
0.4189527559055118
 20
-1.0949330708661418
 30
0.0
 10
0.4189527559055118
 20
-1.0949330708661418
 30
0.0
 10
0.4189527559055118
 20
-1.0949330708661418
 30
0.0
 10
0.4189527559055118
 20
-1.0949330708661418
 30
0.0
 10
0.4319645669291339
 20
-1.0746496062992126
 30
0.0
 10
0.4319645669291339
 20
-1.0746496062992126
 30
0.0
 10
0.4319645669291339
 20
-1.0746496062992126
 30
0.0
 10
0.4319645669291339
 20
-1.0746496062992126
 30
0.0
 10
0.4459015748031496
 20
-1.0550433070866143
 30
0.0
 10
0.4459015748031496
 20
-1.0550433070866143
 30
0.0
 10
0.4459015748031496
 20
-1.0550433070866143
 30
0.0
 10
0.4459015748031496
 20
-1.0550433070866143
 30
0.0
 10
0.460748031496063
 20
-1.0361574803149607
 30
0.0
 10
0.460748031496063
 20
-1.0361574803149607
 30
0.0
 10
0.460748031496063
 20
-1.0361574803149607
 30
0.0
 10
0.460748031496063
 20
-1.0361574803149607
 30
0.0
 10
0.4764645669291339
 20
-1.018011811023622
 30
0.0
 10
0.4764645669291339
 20
-1.018011811023622
 30
0.0
 10
0.4764645669291339
 20
-1.018011811023622
 30
0.0
 10
0.4764645669291339
 20
-1.018011811023622
 30
0.0
 10
0.4930275590551181
 20
-1.0006535433070867
 30
0.0
 10
0.4930275590551181
 20
-1.0006535433070867
 30
0.0
 10
0.4930275590551181
 20
-1.0006535433070867
 30
0.0
 10
0.4930275590551181
 20
-1.0006535433070867
 30
0.0
 10
0.5103858267716536
 20
-0.9840905511811025
 30
0.0
 10
0.5103858267716536
 20
-0.9840905511811025
 30
0.0
 10
0.5103858267716536
 20
-0.9840905511811025
 30
0.0
 10
0.5103858267716536
 20
-0.9840905511811025
 30
0.0
 10
0.5285314960629921
 20
-0.9683740157480315
 30
0.0
 10
0.5285314960629921
 20
-0.9683740157480315
 30
0.0
 10
0.5285314960629921
 20
-0.9683740157480315
 30
0.0
 10
0.5285314960629921
 20
-0.9683740157480315
 30
0.0
 10
0.5474173228346457
 20
-0.9535275590551181
 30
0.0
 10
0.5474173228346457
 20
-0.9535275590551181
 30
0.0
 10
0.5474173228346457
 20
-0.9535275590551181
 30
0.0
 10
0.5474173228346457
 20
-0.9535275590551181
 30
0.0
 10
0.5670236220472441
 20
-0.9395905511811024
 30
0.0
 10
0.5670236220472441
 20
-0.9395905511811024
 30
0.0
 10
0.5670236220472441
 20
-0.9395905511811024
 30
0.0
 10
0.5670236220472441
 20
-0.9395905511811024
 30
0.0
 10
0.5873070866141733
 20
-0.9265787401574803
 30
0.0
 10
0.5873070866141733
 20
-0.9265787401574803
 30
0.0
 10
0.5873070866141733
 20
-0.9265787401574803
 30
0.0
 10
0.5873070866141733
 20
-0.9265787401574803
 30
0.0
 10
0.608248031496063
 20
-0.9145393700787402
 30
0.0
 10
0.608248031496063
 20
-0.9145393700787402
 30
0.0
 10
0.608248031496063
 20
-0.9145393700787402
 30
0.0
 10
0.608248031496063
 20
-0.9145393700787402
 30
0.0
 10
0.6298031496062992
 20
-0.903496062992126
 30
0.0
 10
0.6298031496062992
 20
-0.903496062992126
 30
0.0
 10
0.6298031496062992
 20
-0.903496062992126
 30
0.0
 10
0.6298031496062992
 20
-0.903496062992126
 30
0.0
 10
0.6519566929133859
 20
-0.893484251968504
 30
0.0
 10
0.6519566929133859
 20
-0.893484251968504
 30
0.0
 10
0.6519566929133859
 20
-0.893484251968504
 30
0.0
 10
0.6519566929133859
 20
-0.893484251968504
 30
0.0
 10
0.6746574803149606
 20
-0.8845236220472441
 30
0.0
 10
0.6746574803149606
 20
-0.8845236220472441
 30
0.0
 10
0.6746574803149606
 20
-0.8845236220472441
 30
0.0
 10
0.6746574803149606
 20
-0.8845236220472441
 30
0.0
 10
0.6978897637795276
 20
-0.8766653543307087
 30
0.0
 10
0.6978897637795276
 20
-0.8766653543307087
 30
0.0
 10
0.6978897637795276
 20
-0.8766653543307087
 30
0.0
 10
0.6978897637795276
 20
-0.8766653543307087
 30
0.0
 10
0.7216141732283465
 20
-0.8699251968503937
 30
0.0
 10
0.7216141732283465
 20
-0.8699251968503937
 30
0.0
 10
0.7216141732283465
 20
-0.8699251968503937
 30
0.0
 10
0.7216141732283465
 20
-0.8699251968503937
 30
0.0
 10
0.7458070866141733
 20
-0.8643464566929134
 30
0.0
 10
0.7458070866141733
 20
-0.8643464566929134
 30
0.0
 10
0.7458070866141733
 20
-0.8643464566929134
 30
0.0
 10
0.7458070866141733
 20
-0.8643464566929134
 30
0.0
 10
0.7704212598425198
 20
-0.8599448818897638
 30
0.0
 10
0.7704212598425198
 20
-0.8599448818897638
 30
0.0
 10
0.7704212598425198
 20
-0.8599448818897638
 30
0.0
 10
0.7704212598425198
 20
-0.8599448818897638
 30
0.0
 10
0.7954448818897638
 20
-0.8567677165354332
 30
0.0
 10
0.7954448818897638
 20
-0.8567677165354332
 30
0.0
 10
0.7954448818897638
 20
-0.8567677165354332
 30
0.0
 10
0.7954448818897638
 20
-0.8567677165354332
 30
0.0
 10
0.8208307086614174
 20
-0.8548346456692914
 30
0.0
 10
0.8208307086614174
 20
-0.8548346456692914
 30
0.0
 10
0.8208307086614174
 20
-0.8548346456692914
 30
0.0
 10
0.8208307086614174
 20
-0.8548346456692914
 30
0.0
 10
0.8465629921259843
 20
-0.8541889763779528
 30
0.0
 10
0.8465629921259843
 20
-0.8541889763779528
 30
0.0
  0
SPLINE
  5
78
100
AcDbEntity
  8
Additional Graphics
 62
     9
100
AcDbSpline
210
0.0
220
0.0
230
1.0
 70
     1
 71
     3
 72
    20
 73
    16
 74
     0
 42
0.0000000001
 43
0.0000000001
 40
0.0
 40
0.0
 40
0.0
 40
0.0
 40
0.25
 40
0.25
 40
0.25
 40
0.25
 40
0.5
 40
0.5
 40
0.5
 40
0.5
 40
0.75
 40
0.75
 40
0.75
 40
0.75
 40
1.0
 40
1.0
 40
1.0
 40
1.0
 10
0.3465629921259843
 20
-1.3541889763779529
 30
0.0
 10
0.3465629921259843
 20
-1.3541889763779529
 30
0.0
 10
1.0086141732283465
 20
-1.7498070866141733
 30
0.0
 10
1.0086141732283465
 20
-1.7498070866141733
 30
0.0
 10
1.0086141732283465
 20
-1.7498070866141733
 30
0.0
 10
1.0086141732283465
 20
-1.7498070866141733
 30
0.0
 10
1.0086141732283465
 20
-2.9373070866141733
 30
0.0
 10
1.0086141732283465
 20
-2.9373070866141733
 30
0.0
 10
1.0086141732283465
 20
-2.9373070866141733
 30
0.0
 10
1.0086141732283465
 20
-2.9373070866141733
 30
0.0
 10
0.3465629921259843
 20
-2.5416889763779529
 30
0.0
 10
0.3465629921259843
 20
-2.5416889763779529
 30
0.0
 10
0.3465629921259843
 20
-2.5416889763779529
 30
0.0
 10
0.3465629921259843
 20
-2.5416889763779529
 30
0.0
 10
0.3465629921259843
 20
-1.3541889763779529
 30
0.0
 10
0.3465629921259843
 20
-1.3541889763779529
 30
0.0
  0
SPLINE
  5
79
100
AcDbEntity
  8
Additional Graphics
370
     5
100
AcDbSpline
210
0.0
220
0.0
230
1.0
 70
     1
 71
     3
 72
    20
 73
    16
 74
     0
 42
0.0000000001
 43
0.0000000001
 40
0.0
 40
0.0
 40
0.0
 40
0.0
 40
0.25
 40
0.25
 40
0.25
 40
0.25
 40
0.5
 40
0.5
 40
0.5
 40
0.5
 40
0.75
 40
0.75
 40
0.75
 40
0.75
 40
1.0
 40
1.0
 40
1.0
 40
1.0
 10
0.3465629921259843
 20
-1.3541889763779529
 30
0.0
 10
0.3465629921259843
 20
-1.3541889763779529
 30
0.0
 10
1.0086141732283465
 20
-1.7498070866141733
 30
0.0
 10
1.0086141732283465
 20
-1.7498070866141733
 30
0.0
 10
1.0086141732283465
 20
-1.7498070866141733
 30
0.0
 10
1.0086141732283465
 20
-1.7498070866141733
 30
0.0
 10
1.0086141732283465
 20
-2.9373070866141733
 30
0.0
 10
1.0086141732283465
 20
-2.9373070866141733
 30
0.0
 10
1.0086141732283465
 20
-2.9373070866141733
 30
0.0
 10
1.0086141732283465
 20
-2.9373070866141733
 30
0.0
 10
0.3465629921259843
 20
-2.5416889763779529
 30
0.0
 10
0.3465629921259843
 20
-2.5416889763779529
 30
0.0
 10
0.3465629921259843
 20
-2.5416889763779529
 30
0.0
 10
0.3465629921259843
 20
-2.5416889763779529
 30
0.0
 10
0.3465629921259843
 20
-1.3541889763779529
 30
0.0
 10
0.3465629921259843
 20
-1.3541889763779529
 30
0.0
  0
SPLINE
  5
7A
100
AcDbEntity
  8
Additional Graphics
 62
     9
100
AcDbSpline
210
0.0
220
0.0
230
1.0
 70
     1
 71
     3
 72
    20
 73
    16
 74
     0
 42
0.0000000001
 43
0.0000000001
 40
0.0
 40
0.0
 40
0.0
 40
0.0
 40
0.25
 40
0.25
 40
0.25
 40
0.25
 40
0.5
 40
0.5
 40
0.5
 40
0.5
 40
0.75
 40
0.75
 40
0.75
 40
0.75
 40
1.0
 40
1.0
 40
1.0
 40
1.0
 10
0.3465629921259843
 20
-2.5416889763779529
 30
0.0
 10
0.3465629921259843
 20
-2.5416889763779529
 30
0.0
 10
1.0086141732283465
 20
-2.9373070866141733
 30
0.0
 10
1.0086141732283465
 20
-2.9373070866141733
 30
0.0
 10
1.0086141732283465
 20
-2.9373070866141733
 30
0.0
 10
1.0086141732283465
 20
-2.9373070866141733
 30
0.0
 10
-1.7413858267716535
 20
-2.9373070866141733
 30
0.0
 10
-1.7413858267716535
 20
-2.9373070866141733
 30
0.0
 10
-1.7413858267716535
 20
-2.9373070866141733
 30
0.0
 10
-1.7413858267716535
 20
-2.9373070866141733
 30
0.0
 10
-2.4034370078740159
 20
-2.5416889763779529
 30
0.0
 10
-2.4034370078740159
 20
-2.5416889763779529
 30
0.0
 10
-2.4034370078740159
 20
-2.5416889763779529
 30
0.0
 10
-2.4034370078740159
 20
-2.5416889763779529
 30
0.0
 10
0.3465629921259843
 20
-2.5416889763779529
 30
0.0
 10
0.3465629921259843
 20
-2.5416889763779529
 30
0.0
  0
SPLINE
  5
7B
100
AcDbEntity
  8
Additional Graphics
370
     5
100
AcDbSpline
210
0.0
220
0.0
230
1.0
 70
     1
 71
     3
 72
    20
 73
    16
 74
     0
 42
0.0000000001
 43
0.0000000001
 40
0.0
 40
0.0
 40
0.0
 40
0.0
 40
0.25
 40
0.25
 40
0.25
 40
0.25
 40
0.5
 40
0.5
 40
0.5
 40
0.5
 40
0.75
 40
0.75
 40
0.75
 40
0.75
 40
1.0
 40
1.0
 40
1.0
 40
1.0
 10
0.3465629921259843
 20
-2.5416889763779529
 30
0.0
 10
0.3465629921259843
 20
-2.5416889763779529
 30
0.0
 10
1.0086141732283465
 20
-2.9373070866141733
 30
0.0
 10
1.0086141732283465
 20
-2.9373070866141733
 30
0.0
 10
1.0086141732283465
 20
-2.9373070866141733
 30
0.0
 10
1.0086141732283465
 20
-2.9373070866141733
 30
0.0
 10
-1.7413858267716535
 20
-2.9373070866141733
 30
0.0
 10
-1.7413858267716535
 20
-2.9373070866141733
 30
0.0
 10
-1.7413858267716535
 20
-2.9373070866141733
 30
0.0
 10
-1.7413858267716535
 20
-2.9373070866141733
 30
0.0
 10
-2.4034370078740159
 20
-2.5416889763779529
 30
0.0
 10
-2.4034370078740159
 20
-2.5416889763779529
 30
0.0
 10
-2.4034370078740159
 20
-2.5416889763779529
 30
0.0
 10
-2.4034370078740159
 20
-2.5416889763779529
 30
0.0
 10
0.3465629921259843
 20
-2.5416889763779529
 30
0.0
 10
0.3465629921259843
 20
-2.5416889763779529
 30
0.0
  0
SPLINE
  5
7C
100
AcDbEntity
  8
Additional Graphics
 62
     9
100
AcDbSpline
210
0.0
220
0.0
230
1.0
 70
     1
 71
     3
 72
    20
 73
    16
 74
     0
 42
0.0000000001
 43
0.0000000001
 40
0.0
 40
0.0
 40
0.0
 40
0.0
 40
0.25
 40
0.25
 40
0.25
 40
0.25
 40
0.5
 40
0.5
 40
0.5
 40
0.5
 40
0.75
 40
0.75
 40
0.75
 40
0.75
 40
1.0
 40
1.0
 40
1.0
 40
1.0
 10
0.8465629921259843
 20
-0.1041889763779528
 30
0.0
 10
0.8465629921259843
 20
-0.1041889763779528
 30
0.0
 10
1.5086141732283465
 20
-0.4998070866141732
 30
0.0
 10
1.5086141732283465
 20
-0.4998070866141732
 30
0.0
 10
1.5086141732283465
 20
-0.4998070866141732
 30
0.0
 10
1.5086141732283465
 20
-0.4998070866141732
 30
0.0
 10
1.5086141732283465
 20
-1.2498070866141733
 30
0.0
 10
1.5086141732283465
 20
-1.2498070866141733
 30
0.0
 10
1.5086141732283465
 20
-1.2498070866141733
 30
0.0
 10
1.5086141732283465
 20
-1.2498070866141733
 30
0.0
 10
0.8465629921259843
 20
-0.8541889763779528
 30
0.0
 10
0.8465629921259843
 20
-0.8541889763779528
 30
0.0
 10
0.8465629921259843
 20
-0.8541889763779528
 30
0.0
 10
0.8465629921259843
 20
-0.8541889763779528
 30
0.0
 10
0.8465629921259843
 20
-0.1041889763779528
 30
0.0
 10
0.8465629921259843
 20
-0.1041889763779528
 30
0.0
  0
SPLINE
  5
7D
100
AcDbEntity
  8
Additional Graphics
370
     5
100
AcDbSpline
210
0.0
220
0.0
230
1.0
 70
     1
 71
     3
 72
    20
 73
    16
 74
     0
 42
0.0000000001
 43
0.0000000001
 40
0.0
 40
0.0
 40
0.0
 40
0.0
 40
0.25
 40
0.25
 40
0.25
 40
0.25
 40
0.5
 40
0.5
 40
0.5
 40
0.5
 40
0.75
 40
0.75
 40
0.75
 40
0.75
 40
1.0
 40
1.0
 40
1.0
 40
1.0
 10
0.8465629921259843
 20
-0.1041889763779528
 30
0.0
 10
0.8465629921259843
 20
-0.1041889763779528
 30
0.0
 10
1.5086141732283465
 20
-0.4998070866141732
 30
0.0
 10
1.5086141732283465
 20
-0.4998070866141732
 30
0.0
 10
1.5086141732283465
 20
-0.4998070866141732
 30
0.0
 10
1.5086141732283465
 20
-0.4998070866141732
 30
0.0
 10
1.5086141732283465
 20
-1.2498070866141733
 30
0.0
 10
1.5086141732283465
 20
-1.2498070866141733
 30
0.0
 10
1.5086141732283465
 20
-1.2498070866141733
 30
0.0
 10
1.5086141732283465
 20
-1.2498070866141733
 30
0.0
 10
0.8465629921259843
 20
-0.8541889763779528
 30
0.0
 10
0.8465629921259843
 20
-0.8541889763779528
 30
0.0
 10
0.8465629921259843
 20
-0.8541889763779528
 30
0.0
 10
0.8465629921259843
 20
-0.8541889763779528
 30
0.0
 10
0.8465629921259843
 20
-0.1041889763779528
 30
0.0
 10
0.8465629921259843
 20
-0.1041889763779528
 30
0.0
  0
SPLINE
  5
7E
100
AcDbEntity
  8
Additional Graphics
 62
     9
100
AcDbSpline
210
0.0
220
0.0
230
1.0
 70
     1
 71
     3
 72
    20
 73
    16
 74
     0
 42
0.0000000001
 43
0.0000000001
 40
0.0
 40
0.0
 40
0.0
 40
0.0
 40
0.25
 40
0.25
 40
0.25
 40
0.25
 40
0.5
 40
0.5
 40
0.5
 40
0.5
 40
0.75
 40
0.75
 40
0.75
 40
0.75
 40
1.0
 40
1.0
 40
1.0
 40
1.0
 10
0.8465629921259843
 20
-0.8541889763779528
 30
0.0
 10
0.8465629921259843
 20
-0.8541889763779528
 30
0.0
 10
1.5086141732283465
 20
-1.2498070866141733
 30
0.0
 10
1.5086141732283465
 20
-1.2498070866141733
 30
0.0
 10
1.5086141732283465
 20
-1.2498070866141733
 30
0.0
 10
1.5086141732283465
 20
-1.2498070866141733
 30
0.0
 10
1.4828818897637797
 20
-1.2504527559055119
 30
0.0
 10
1.4828818897637797
 20
-1.2504527559055119
 30
0.0
 10
1.4828818897637797
 20
-1.2504527559055119
 30
0.0
 10
1.4828818897637797
 20
-1.2504527559055119
 30
0.0
 10
0.8208307086614174
 20
-0.8548346456692914
 30
0.0
 10
0.8208307086614174
 20
-0.8548346456692914
 30
0.0
 10
0.8208307086614174
 20
-0.8548346456692914
 30
0.0
 10
0.8208307086614174
 20
-0.8548346456692914
 30
0.0
 10
0.8465629921259843
 20
-0.8541889763779528
 30
0.0
 10
0.8465629921259843
 20
-0.8541889763779528
 30
0.0
  0
SPLINE
  5
7F
100
AcDbEntity
  8
Additional Graphics
 62
     9
100
AcDbSpline
210
0.0
220
0.0
230
1.0
 70
     1
 71
     3
 72
    20
 73
    16
 74
     0
 42
0.0000000001
 43
0.0000000001
 40
0.0
 40
0.0
 40
0.0
 40
0.0
 40
0.25
 40
0.25
 40
0.25
 40
0.25
 40
0.5
 40
0.5
 40
0.5
 40
0.5
 40
0.75
 40
0.75
 40
0.75
 40
0.75
 40
1.0
 40
1.0
 40
1.0
 40
1.0
 10
0.8208307086614174
 20
-0.8548346456692914
 30
0.0
 10
0.8208307086614174
 20
-0.8548346456692914
 30
0.0
 10
1.4828818897637797
 20
-1.2504527559055119
 30
0.0
 10
1.4828818897637797
 20
-1.2504527559055119
 30
0.0
 10
1.4828818897637797
 20
-1.2504527559055119
 30
0.0
 10
1.4828818897637797
 20
-1.2504527559055119
 30
0.0
 10
1.4574960629921261
 20
-1.2523858267716537
 30
0.0
 10
1.4574960629921261
 20
-1.2523858267716537
 30
0.0
 10
1.4574960629921261
 20
-1.2523858267716537
 30
0.0
 10
1.4574960629921261
 20
-1.2523858267716537
 30
0.0
 10
0.7954448818897638
 20
-0.8567677165354332
 30
0.0
 10
0.7954448818897638
 20
-0.8567677165354332
 30
0.0
 10
0.7954448818897638
 20
-0.8567677165354332
 30
0.0
 10
0.7954448818897638
 20
-0.8567677165354332
 30
0.0
 10
0.8208307086614174
 20
-0.8548346456692914
 30
0.0
 10
0.8208307086614174
 20
-0.8548346456692914
 30
0.0
  0
SPLINE
  5
80
100
AcDbEntity
  8
Additional Graphics
 62
     9
100
AcDbSpline
210
0.0
220
0.0
230
1.0
 70
     1
 71
     3
 72
    20
 73
    16
 74
     0
 42
0.0000000001
 43
0.0000000001
 40
0.0
 40
0.0
 40
0.0
 40
0.0
 40
0.25
 40
0.25
 40
0.25
 40
0.25
 40
0.5
 40
0.5
 40
0.5
 40
0.5
 40
0.75
 40
0.75
 40
0.75
 40
0.75
 40
1.0
 40
1.0
 40
1.0
 40
1.0
 10
0.7954448818897638
 20
-0.8567677165354332
 30
0.0
 10
0.7954448818897638
 20
-0.8567677165354332
 30
0.0
 10
1.4574960629921261
 20
-1.2523858267716537
 30
0.0
 10
1.4574960629921261
 20
-1.2523858267716537
 30
0.0
 10
1.4574960629921261
 20
-1.2523858267716537
 30
0.0
 10
1.4574960629921261
 20
-1.2523858267716537
 30
0.0
 10
1.4324724409448819
 20
-1.2555629921259843
 30
0.0
 10
1.4324724409448819
 20
-1.2555629921259843
 30
0.0
 10
1.4324724409448819
 20
-1.2555629921259843
 30
0.0
 10
1.4324724409448819
 20
-1.2555629921259843
 30
0.0
 10
0.7704212598425198
 20
-0.8599448818897638
 30
0.0
 10
0.7704212598425198
 20
-0.8599448818897638
 30
0.0
 10
0.7704212598425198
 20
-0.8599448818897638
 30
0.0
 10
0.7704212598425198
 20
-0.8599448818897638
 30
0.0
 10
0.7954448818897638
 20
-0.8567677165354332
 30
0.0
 10
0.7954448818897638
 20
-0.8567677165354332
 30
0.0
  0
SPLINE
  5
81
100
AcDbEntity
  8
Additional Graphics
 62
     9
100
AcDbSpline
210
0.0
220
0.0
230
1.0
 70
     1
 71
     3
 72
    28
 73
    24
 74
     0
 42
0.0000000001
 43
0.0000000001
 40
0.0
 40
0.0
 40
0.0
 40
0.0
 40
0.1666666666666667
 40
0.1666666666666667
 40
0.1666666666666667
 40
0.1666666666666667
 40
0.3333333333333333
 40
0.3333333333333333
 40
0.3333333333333333
 40
0.3333333333333333
 40
0.5
 40
0.5
 40
0.5
 40
0.5
 40
0.6666666666666666
 40
0.6666666666666666
 40
0.6666666666666666
 40
0.6666666666666666
 40
0.8333333333333333
 40
0.8333333333333333
 40
0.8333333333333333
 40
0.8333333333333333
 40
1.0
 40
1.0
 40
1.0
 40
1.0
 10
0.7704212598425198
 20
-0.8599448818897638
 30
0.0
 10
0.7704212598425198
 20
-0.8599448818897638
 30
0.0
 10
1.4324724409448819
 20
-1.2555629921259843
 30
0.0
 10
1.4324724409448819
 20
-1.2555629921259843
 30
0.0
 10
1.4324724409448819
 20
-1.2555629921259843
 30
0.0
 10
1.4324724409448819
 20
-1.2555629921259843
 30
0.0
 10
1.4078582677165354
 20
-1.2599645669291339
 30
0.0
 10
1.4078582677165354
 20
-1.2599645669291339
 30
0.0
 10
1.4078582677165354
 20
-1.2599645669291339
 30
0.0
 10
1.4078582677165354
 20
-1.2599645669291339
 30
0.0
 10
1.3836653543307087
 20
-1.2655433070866142
 30
0.0
 10
1.3836653543307087
 20
-1.2655433070866142
 30
0.0
 10
1.3836653543307087
 20
-1.2655433070866142
 30
0.0
 10
1.3836653543307087
 20
-1.2655433070866142
 30
0.0
 10
0.7216141732283465
 20
-0.8699251968503937
 30
0.0
 10
0.7216141732283465
 20
-0.8699251968503937
 30
0.0
 10
0.7216141732283465
 20
-0.8699251968503937
 30
0.0
 10
0.7216141732283465
 20
-0.8699251968503937
 30
0.0
 10
0.7458070866141733
 20
-0.8643464566929134
 30
0.0
 10
0.7458070866141733
 20
-0.8643464566929134
 30
0.0
 10
0.7458070866141733
 20
-0.8643464566929134
 30
0.0
 10
0.7458070866141733
 20
-0.8643464566929134
 30
0.0
 10
0.7704212598425198
 20
-0.8599448818897638
 30
0.0
 10
0.7704212598425198
 20
-0.8599448818897638
 30
0.0
  0
SPLINE
  5
82
100
AcDbEntity
  8
Additional Graphics
 62
     9
100
AcDbSpline
210
0.0
220
0.0
230
1.0
 70
     1
 71
     3
 72
    28
 73
    24
 74
     0
 42
0.0000000001
 43
0.0000000001
 40
0.0
 40
0.0
 40
0.0
 40
0.0
 40
0.1666666666666667
 40
0.1666666666666667
 40
0.1666666666666667
 40
0.1666666666666667
 40
0.3333333333333333
 40
0.3333333333333333
 40
0.3333333333333333
 40
0.3333333333333333
 40
0.5
 40
0.5
 40
0.5
 40
0.5
 40
0.6666666666666666
 40
0.6666666666666666
 40
0.6666666666666666
 40
0.6666666666666666
 40
0.8333333333333333
 40
0.8333333333333333
 40
0.8333333333333333
 40
0.8333333333333333
 40
1.0
 40
1.0
 40
1.0
 40
1.0
 10
0.7216141732283465
 20
-0.8699251968503937
 30
0.0
 10
0.7216141732283465
 20
-0.8699251968503937
 30
0.0
 10
1.3836653543307087
 20
-1.2655433070866142
 30
0.0
 10
1.3836653543307087
 20
-1.2655433070866142
 30
0.0
 10
1.3836653543307087
 20
-1.2655433070866142
 30
0.0
 10
1.3836653543307087
 20
-1.2655433070866142
 30
0.0
 10
1.3599409448818898
 20
-1.2722834645669292
 30
0.0
 10
1.3599409448818898
 20
-1.2722834645669292
 30
0.0
 10
1.3599409448818898
 20
-1.2722834645669292
 30
0.0
 10
1.3599409448818898
 20
-1.2722834645669292
 30
0.0
 10
1.3367086614173229
 20
-1.2801417322834645
 30
0.0
 10
1.3367086614173229
 20
-1.2801417322834645
 30
0.0
 10
1.3367086614173229
 20
-1.2801417322834645
 30
0.0
 10
1.3367086614173229
 20
-1.2801417322834645
 30
0.0
 10
0.6746574803149606
 20
-0.8845236220472441
 30
0.0
 10
0.6746574803149606
 20
-0.8845236220472441
 30
0.0
 10
0.6746574803149606
 20
-0.8845236220472441
 30
0.0
 10
0.6746574803149606
 20
-0.8845236220472441
 30
0.0
 10
0.6978897637795276
 20
-0.8766653543307087
 30
0.0
 10
0.6978897637795276
 20
-0.8766653543307087
 30
0.0
 10
0.6978897637795276
 20
-0.8766653543307087
 30
0.0
 10
0.6978897637795276
 20
-0.8766653543307087
 30
0.0
 10
0.7216141732283465
 20
-0.8699251968503937
 30
0.0
 10
0.7216141732283465
 20
-0.8699251968503937
 30
0.0
  0
SPLINE
  5
83
100
AcDbEntity
  8
Additional Graphics
 62
     9
100
AcDbSpline
210
0.0
220
0.0
230
1.0
 70
     1
 71
     3
 72
    28
 73
    24
 74
     0
 42
0.0000000001
 43
0.0000000001
 40
0.0
 40
0.0
 40
0.0
 40
0.0
 40
0.1666666666666667
 40
0.1666666666666667
 40
0.1666666666666667
 40
0.1666666666666667
 40
0.3333333333333333
 40
0.3333333333333333
 40
0.3333333333333333
 40
0.3333333333333333
 40
0.5
 40
0.5
 40
0.5
 40
0.5
 40
0.6666666666666666
 40
0.6666666666666666
 40
0.6666666666666666
 40
0.6666666666666666
 40
0.8333333333333333
 40
0.8333333333333333
 40
0.8333333333333333
 40
0.8333333333333333
 40
1.0
 40
1.0
 40
1.0
 40
1.0
 10
0.6746574803149606
 20
-0.8845236220472441
 30
0.0
 10
0.6746574803149606
 20
-0.8845236220472441
 30
0.0
 10
1.3367086614173229
 20
-1.2801417322834645
 30
0.0
 10
1.3367086614173229
 20
-1.2801417322834645
 30
0.0
 10
1.3367086614173229
 20
-1.2801417322834645
 30
0.0
 10
1.3367086614173229
 20
-1.2801417322834645
 30
0.0
 10
1.3140078740157481
 20
-1.2891023622047244
 30
0.0
 10
1.3140078740157481
 20
-1.2891023622047244
 30
0.0
 10
1.3140078740157481
 20
-1.2891023622047244
 30
0.0
 10
1.3140078740157481
 20
-1.2891023622047244
 30
0.0
 10
1.2918543307086614
 20
-1.2991141732283464
 30
0.0
 10
1.2918543307086614
 20
-1.2991141732283464
 30
0.0
 10
1.2918543307086614
 20
-1.2991141732283464
 30
0.0
 10
1.2918543307086614
 20
-1.2991141732283464
 30
0.0
 10
0.6298031496062992
 20
-0.903496062992126
 30
0.0
 10
0.6298031496062992
 20
-0.903496062992126
 30
0.0
 10
0.6298031496062992
 20
-0.903496062992126
 30
0.0
 10
0.6298031496062992
 20
-0.903496062992126
 30
0.0
 10
0.6519566929133859
 20
-0.893484251968504
 30
0.0
 10
0.6519566929133859
 20
-0.893484251968504
 30
0.0
 10
0.6519566929133859
 20
-0.893484251968504
 30
0.0
 10
0.6519566929133859
 20
-0.893484251968504
 30
0.0
 10
0.6746574803149606
 20
-0.8845236220472441
 30
0.0
 10
0.6746574803149606
 20
-0.8845236220472441
 30
0.0
  0
SPLINE
  5
84
100
AcDbEntity
  8
Additional Graphics
 62
     9
100
AcDbSpline
210
0.0
220
0.0
230
1.0
 70
     1
 71
     3
 72
    28
 73
    24
 74
     0
 42
0.0000000001
 43
0.0000000001
 40
0.0
 40
0.0
 40
0.0
 40
0.0
 40
0.1666666666666667
 40
0.1666666666666667
 40
0.1666666666666667
 40
0.1666666666666667
 40
0.3333333333333333
 40
0.3333333333333333
 40
0.3333333333333333
 40
0.3333333333333333
 40
0.5
 40
0.5
 40
0.5
 40
0.5
 40
0.6666666666666666
 40
0.6666666666666666
 40
0.6666666666666666
 40
0.6666666666666666
 40
0.8333333333333333
 40
0.8333333333333333
 40
0.8333333333333333
 40
0.8333333333333333
 40
1.0
 40
1.0
 40
1.0
 40
1.0
 10
0.6298031496062992
 20
-0.903496062992126
 30
0.0
 10
0.6298031496062992
 20
-0.903496062992126
 30
0.0
 10
1.2918543307086614
 20
-1.2991141732283464
 30
0.0
 10
1.2918543307086614
 20
-1.2991141732283464
 30
0.0
 10
1.2918543307086614
 20
-1.2991141732283464
 30
0.0
 10
1.2918543307086614
 20
-1.2991141732283464
 30
0.0
 10
1.2702992125984252
 20
-1.3101574803149607
 30
0.0
 10
1.2702992125984252
 20
-1.3101574803149607
 30
0.0
 10
1.2702992125984252
 20
-1.3101574803149607
 30
0.0
 10
1.2702992125984252
 20
-1.3101574803149607
 30
0.0
 10
1.2493582677165356
 20
-1.3221968503937009
 30
0.0
 10
1.2493582677165356
 20
-1.3221968503937009
 30
0.0
 10
1.2493582677165356
 20
-1.3221968503937009
 30
0.0
 10
1.2493582677165356
 20
-1.3221968503937009
 30
0.0
 10
0.5873070866141733
 20
-0.9265787401574803
 30
0.0
 10
0.5873070866141733
 20
-0.9265787401574803
 30
0.0
 10
0.5873070866141733
 20
-0.9265787401574803
 30
0.0
 10
0.5873070866141733
 20
-0.9265787401574803
 30
0.0
 10
0.608248031496063
 20
-0.9145393700787402
 30
0.0
 10
0.608248031496063
 20
-0.9145393700787402
 30
0.0
 10
0.608248031496063
 20
-0.9145393700787402
 30
0.0
 10
0.608248031496063
 20
-0.9145393700787402
 30
0.0
 10
0.6298031496062992
 20
-0.903496062992126
 30
0.0
 10
0.6298031496062992
 20
-0.903496062992126
 30
0.0
  0
SPLINE
  5
85
100
AcDbEntity
  8
Additional Graphics
 62
     9
100
AcDbSpline
210
0.0
220
0.0
230
1.0
 70
     1
 71
     3
 72
    28
 73
    24
 74
     0
 42
0.0000000001
 43
0.0000000001
 40
0.0
 40
0.0
 40
0.0
 40
0.0
 40
0.1666666666666667
 40
0.1666666666666667
 40
0.1666666666666667
 40
0.1666666666666667
 40
0.3333333333333333
 40
0.3333333333333333
 40
0.3333333333333333
 40
0.3333333333333333
 40
0.5
 40
0.5
 40
0.5
 40
0.5
 40
0.6666666666666666
 40
0.6666666666666666
 40
0.6666666666666666
 40
0.6666666666666666
 40
0.8333333333333333
 40
0.8333333333333333
 40
0.8333333333333333
 40
0.8333333333333333
 40
1.0
 40
1.0
 40
1.0
 40
1.0
 10
0.5873070866141733
 20
-0.9265787401574803
 30
0.0
 10
0.5873070866141733
 20
-0.9265787401574803
 30
0.0
 10
1.2493582677165356
 20
-1.3221968503937009
 30
0.0
 10
1.2493582677165356
 20
-1.3221968503937009
 30
0.0
 10
1.2493582677165356
 20
-1.3221968503937009
 30
0.0
 10
1.2493582677165356
 20
-1.3221968503937009
 30
0.0
 10
1.2290748031496064
 20
-1.3352086614173229
 30
0.0
 10
1.2290748031496064
 20
-1.3352086614173229
 30
0.0
 10
1.2290748031496064
 20
-1.3352086614173229
 30
0.0
 10
1.2290748031496064
 20
-1.3352086614173229
 30
0.0
 10
1.2094685039370079
 20
-1.3491456692913386
 30
0.0
 10
1.2094685039370079
 20
-1.3491456692913386
 30
0.0
 10
1.2094685039370079
 20
-1.3491456692913386
 30
0.0
 10
1.2094685039370079
 20
-1.3491456692913386
 30
0.0
 10
0.5474173228346457
 20
-0.9535275590551181
 30
0.0
 10
0.5474173228346457
 20
-0.9535275590551181
 30
0.0
 10
0.5474173228346457
 20
-0.9535275590551181
 30
0.0
 10
0.5474173228346457
 20
-0.9535275590551181
 30
0.0
 10
0.5670236220472441
 20
-0.9395905511811024
 30
0.0
 10
0.5670236220472441
 20
-0.9395905511811024
 30
0.0
 10
0.5670236220472441
 20
-0.9395905511811024
 30
0.0
 10
0.5670236220472441
 20
-0.9395905511811024
 30
0.0
 10
0.5873070866141733
 20
-0.9265787401574803
 30
0.0
 10
0.5873070866141733
 20
-0.9265787401574803
 30
0.0
  0
SPLINE
  5
86
100
AcDbEntity
  8
Additional Graphics
 62
     9
100
AcDbSpline
210
0.0
220
0.0
230
1.0
 70
     1
 71
     3
 72
    28
 73
    24
 74
     0
 42
0.0000000001
 43
0.0000000001
 40
0.0
 40
0.0
 40
0.0
 40
0.0
 40
0.1666666666666667
 40
0.1666666666666667
 40
0.1666666666666667
 40
0.1666666666666667
 40
0.3333333333333333
 40
0.3333333333333333
 40
0.3333333333333333
 40
0.3333333333333333
 40
0.5
 40
0.5
 40
0.5
 40
0.5
 40
0.6666666666666666
 40
0.6666666666666666
 40
0.6666666666666666
 40
0.6666666666666666
 40
0.8333333333333333
 40
0.8333333333333333
 40
0.8333333333333333
 40
0.8333333333333333
 40
1.0
 40
1.0
 40
1.0
 40
1.0
 10
0.5474173228346457
 20
-0.9535275590551181
 30
0.0
 10
0.5474173228346457
 20
-0.9535275590551181
 30
0.0
 10
1.2094685039370079
 20
-1.3491456692913386
 30
0.0
 10
1.2094685039370079
 20
-1.3491456692913386
 30
0.0
 10
1.2094685039370079
 20
-1.3491456692913386
 30
0.0
 10
1.2094685039370079
 20
-1.3491456692913386
 30
0.0
 10
1.1905826771653545
 20
-1.363992125984252
 30
0.0
 10
1.1905826771653545
 20
-1.363992125984252
 30
0.0
 10
1.1905826771653545
 20
-1.363992125984252
 30
0.0
 10
1.1905826771653545
 20
-1.363992125984252
 30
0.0
 10
1.1724370078740158
 20
-1.3797086614173228
 30
0.0
 10
1.1724370078740158
 20
-1.3797086614173228
 30
0.0
 10
1.1724370078740158
 20
-1.3797086614173228
 30
0.0
 10
1.1724370078740158
 20
-1.3797086614173228
 30
0.0
 10
0.5103858267716536
 20
-0.9840905511811025
 30
0.0
 10
0.5103858267716536
 20
-0.9840905511811025
 30
0.0
 10
0.5103858267716536
 20
-0.9840905511811025
 30
0.0
 10
0.5103858267716536
 20
-0.9840905511811025
 30
0.0
 10
0.5285314960629921
 20
-0.9683740157480315
 30
0.0
 10
0.5285314960629921
 20
-0.9683740157480315
 30
0.0
 10
0.5285314960629921
 20
-0.9683740157480315
 30
0.0
 10
0.5285314960629921
 20
-0.9683740157480315
 30
0.0
 10
0.5474173228346457
 20
-0.9535275590551181
 30
0.0
 10
0.5474173228346457
 20
-0.9535275590551181
 30
0.0
  0
SPLINE
  5
87
100
AcDbEntity
  8
Additional Graphics
 62
     9
100
AcDbSpline
210
0.0
220
0.0
230
1.0
 70
     1
 71
     3
 72
    28
 73
    24
 74
     0
 42
0.0000000001
 43
0.0000000001
 40
0.0
 40
0.0
 40
0.0
 40
0.0
 40
0.1666666666666667
 40
0.1666666666666667
 40
0.1666666666666667
 40
0.1666666666666667
 40
0.3333333333333333
 40
0.3333333333333333
 40
0.3333333333333333
 40
0.3333333333333333
 40
0.5
 40
0.5
 40
0.5
 40
0.5
 40
0.6666666666666666
 40
0.6666666666666666
 40
0.6666666666666666
 40
0.6666666666666666
 40
0.8333333333333333
 40
0.8333333333333333
 40
0.8333333333333333
 40
0.8333333333333333
 40
1.0
 40
1.0
 40
1.0
 40
1.0
 10
0.5103858267716536
 20
-0.9840905511811025
 30
0.0
 10
0.5103858267716536
 20
-0.9840905511811025
 30
0.0
 10
1.1724370078740158
 20
-1.3797086614173228
 30
0.0
 10
1.1724370078740158
 20
-1.3797086614173228
 30
0.0
 10
1.1724370078740158
 20
-1.3797086614173228
 30
0.0
 10
1.1724370078740158
 20
-1.3797086614173228
 30
0.0
 10
1.1550787401574805
 20
-1.3962716535433071
 30
0.0
 10
1.1550787401574805
 20
-1.3962716535433071
 30
0.0
 10
1.1550787401574805
 20
-1.3962716535433071
 30
0.0
 10
1.1550787401574805
 20
-1.3962716535433071
 30
0.0
 10
1.138515748031496
 20
-1.4136299212598427
 30
0.0
 10
1.138515748031496
 20
-1.4136299212598427
 30
0.0
 10
1.138515748031496
 20
-1.4136299212598427
 30
0.0
 10
1.138515748031496
 20
-1.4136299212598427
 30
0.0
 10
0.4764645669291339
 20
-1.018011811023622
 30
0.0
 10
0.4764645669291339
 20
-1.018011811023622
 30
0.0
 10
0.4764645669291339
 20
-1.018011811023622
 30
0.0
 10
0.4764645669291339
 20
-1.018011811023622
 30
0.0
 10
0.4930275590551181
 20
-1.0006535433070867
 30
0.0
 10
0.4930275590551181
 20
-1.0006535433070867
 30
0.0
 10
0.4930275590551181
 20
-1.0006535433070867
 30
0.0
 10
0.4930275590551181
 20
-1.0006535433070867
 30
0.0
 10
0.5103858267716536
 20
-0.9840905511811025
 30
0.0
 10
0.5103858267716536
 20
-0.9840905511811025
 30
0.0
  0
SPLINE
  5
88
100
AcDbEntity
  8
Additional Graphics
 62
     9
100
AcDbSpline
210
0.0
220
0.0
230
1.0
 70
     1
 71
     3
 72
    28
 73
    24
 74
     0
 42
0.0000000001
 43
0.0000000001
 40
0.0
 40
0.0
 40
0.0
 40
0.0
 40
0.1666666666666667
 40
0.1666666666666667
 40
0.1666666666666667
 40
0.1666666666666667
 40
0.3333333333333333
 40
0.3333333333333333
 40
0.3333333333333333
 40
0.3333333333333333
 40
0.5
 40
0.5
 40
0.5
 40
0.5
 40
0.6666666666666666
 40
0.6666666666666666
 40
0.6666666666666666
 40
0.6666666666666666
 40
0.8333333333333333
 40
0.8333333333333333
 40
0.8333333333333333
 40
0.8333333333333333
 40
1.0
 40
1.0
 40
1.0
 40
1.0
 10
0.4764645669291339
 20
-1.018011811023622
 30
0.0
 10
0.4764645669291339
 20
-1.018011811023622
 30
0.0
 10
1.138515748031496
 20
-1.4136299212598427
 30
0.0
 10
1.138515748031496
 20
-1.4136299212598427
 30
0.0
 10
1.138515748031496
 20
-1.4136299212598427
 30
0.0
 10
1.138515748031496
 20
-1.4136299212598427
 30
0.0
 10
1.1227992125984252
 20
-1.4317755905511811
 30
0.0
 10
1.1227992125984252
 20
-1.4317755905511811
 30
0.0
 10
1.1227992125984252
 20
-1.4317755905511811
 30
0.0
 10
1.1227992125984252
 20
-1.4317755905511811
 30
0.0
 10
1.1079527559055118
 20
-1.4506614173228347
 30
0.0
 10
1.1079527559055118
 20
-1.4506614173228347
 30
0.0
 10
1.1079527559055118
 20
-1.4506614173228347
 30
0.0
 10
1.1079527559055118
 20
-1.4506614173228347
 30
0.0
 10
0.4459015748031496
 20
-1.0550433070866143
 30
0.0
 10
0.4459015748031496
 20
-1.0550433070866143
 30
0.0
 10
0.4459015748031496
 20
-1.0550433070866143
 30
0.0
 10
0.4459015748031496
 20
-1.0550433070866143
 30
0.0
 10
0.460748031496063
 20
-1.0361574803149607
 30
0.0
 10
0.460748031496063
 20
-1.0361574803149607
 30
0.0
 10
0.460748031496063
 20
-1.0361574803149607
 30
0.0
 10
0.460748031496063
 20
-1.0361574803149607
 30
0.0
 10
0.4764645669291339
 20
-1.018011811023622
 30
0.0
 10
0.4764645669291339
 20
-1.018011811023622
 30
0.0
  0
SPLINE
  5
89
100
AcDbEntity
  8
Additional Graphics
 62
     9
100
AcDbSpline
210
0.0
220
0.0
230
1.0
 70
     1
 71
     3
 72
    28
 73
    24
 74
     0
 42
0.0000000001
 43
0.0000000001
 40
0.0
 40
0.0
 40
0.0
 40
0.0
 40
0.1666666666666667
 40
0.1666666666666667
 40
0.1666666666666667
 40
0.1666666666666667
 40
0.3333333333333333
 40
0.3333333333333333
 40
0.3333333333333333
 40
0.3333333333333333
 40
0.5
 40
0.5
 40
0.5
 40
0.5
 40
0.6666666666666666
 40
0.6666666666666666
 40
0.6666666666666666
 40
0.6666666666666666
 40
0.8333333333333333
 40
0.8333333333333333
 40
0.8333333333333333
 40
0.8333333333333333
 40
1.0
 40
1.0
 40
1.0
 40
1.0
 10
0.4459015748031496
 20
-1.0550433070866143
 30
0.0
 10
0.4459015748031496
 20
-1.0550433070866143
 30
0.0
 10
1.1079527559055118
 20
-1.4506614173228347
 30
0.0
 10
1.1079527559055118
 20
-1.4506614173228347
 30
0.0
 10
1.1079527559055118
 20
-1.4506614173228347
 30
0.0
 10
1.1079527559055118
 20
-1.4506614173228347
 30
0.0
 10
1.094015748031496
 20
-1.4702677165354332
 30
0.0
 10
1.094015748031496
 20
-1.4702677165354332
 30
0.0
 10
1.094015748031496
 20
-1.4702677165354332
 30
0.0
 10
1.094015748031496
 20
-1.4702677165354332
 30
0.0
 10
1.0810039370078741
 20
-1.4905511811023622
 30
0.0
 10
1.0810039370078741
 20
-1.4905511811023622
 30
0.0
 10
1.0810039370078741
 20
-1.4905511811023622
 30
0.0
 10
1.0810039370078741
 20
-1.4905511811023622
 30
0.0
 10
0.4189527559055118
 20
-1.0949330708661418
 30
0.0
 10
0.4189527559055118
 20
-1.0949330708661418
 30
0.0
 10
0.4189527559055118
 20
-1.0949330708661418
 30
0.0
 10
0.4189527559055118
 20
-1.0949330708661418
 30
0.0
 10
0.4319645669291339
 20
-1.0746496062992126
 30
0.0
 10
0.4319645669291339
 20
-1.0746496062992126
 30
0.0
 10
0.4319645669291339
 20
-1.0746496062992126
 30
0.0
 10
0.4319645669291339
 20
-1.0746496062992126
 30
0.0
 10
0.4459015748031496
 20
-1.0550433070866143
 30
0.0
 10
0.4459015748031496
 20
-1.0550433070866143
 30
0.0
  0
SPLINE
  5
8A
100
AcDbEntity
  8
Additional Graphics
 62
     9
100
AcDbSpline
210
0.0
220
0.0
230
1.0
 70
     1
 71
     3
 72
    28
 73
    24
 74
     0
 42
0.0000000001
 43
0.0000000001
 40
0.0
 40
0.0
 40
0.0
 40
0.0
 40
0.1666666666666667
 40
0.1666666666666667
 40
0.1666666666666667
 40
0.1666666666666667
 40
0.3333333333333333
 40
0.3333333333333333
 40
0.3333333333333333
 40
0.3333333333333333
 40
0.5
 40
0.5
 40
0.5
 40
0.5
 40
0.6666666666666666
 40
0.6666666666666666
 40
0.6666666666666666
 40
0.6666666666666666
 40
0.8333333333333333
 40
0.8333333333333333
 40
0.8333333333333333
 40
0.8333333333333333
 40
1.0
 40
1.0
 40
1.0
 40
1.0
 10
0.4189527559055118
 20
-1.0949330708661418
 30
0.0
 10
0.4189527559055118
 20
-1.0949330708661418
 30
0.0
 10
1.0810039370078741
 20
-1.4905511811023622
 30
0.0
 10
1.0810039370078741
 20
-1.4905511811023622
 30
0.0
 10
1.0810039370078741
 20
-1.4905511811023622
 30
0.0
 10
1.0810039370078741
 20
-1.4905511811023622
 30
0.0
 10
1.0689645669291339
 20
-1.511492125984252
 30
0.0
 10
1.0689645669291339
 20
-1.511492125984252
 30
0.0
 10
1.0689645669291339
 20
-1.511492125984252
 30
0.0
 10
1.0689645669291339
 20
-1.511492125984252
 30
0.0
 10
1.0579212598425198
 20
-1.5330472440944882
 30
0.0
 10
1.0579212598425198
 20
-1.5330472440944882
 30
0.0
 10
1.0579212598425198
 20
-1.5330472440944882
 30
0.0
 10
1.0579212598425198
 20
-1.5330472440944882
 30
0.0
 10
0.3958700787401575
 20
-1.1374291338582678
 30
0.0
 10
0.3958700787401575
 20
-1.1374291338582678
 30
0.0
 10
0.3958700787401575
 20
-1.1374291338582678
 30
0.0
 10
0.3958700787401575
 20
-1.1374291338582678
 30
0.0
 10
0.4069133858267717
 20
-1.1158740157480316
 30
0.0
 10
0.4069133858267717
 20
-1.1158740157480316
 30
0.0
 10
0.4069133858267717
 20
-1.1158740157480316
 30
0.0
 10
0.4069133858267717
 20
-1.1158740157480316
 30
0.0
 10
0.4189527559055118
 20
-1.0949330708661418
 30
0.0
 10
0.4189527559055118
 20
-1.0949330708661418
 30
0.0
  0
SPLINE
  5
8B
100
AcDbEntity
  8
Additional Graphics
 62
     9
100
AcDbSpline
210
0.0
220
0.0
230
1.0
 70
     1
 71
     3
 72
    28
 73
    24
 74
     0
 42
0.0000000001
 43
0.0000000001
 40
0.0
 40
0.0
 40
0.0
 40
0.0
 40
0.1666666666666667
 40
0.1666666666666667
 40
0.1666666666666667
 40
0.1666666666666667
 40
0.3333333333333333
 40
0.3333333333333333
 40
0.3333333333333333
 40
0.3333333333333333
 40
0.5
 40
0.5
 40
0.5
 40
0.5
 40
0.6666666666666666
 40
0.6666666666666666
 40
0.6666666666666666
 40
0.6666666666666666
 40
0.8333333333333333
 40
0.8333333333333333
 40
0.8333333333333333
 40
0.8333333333333333
 40
1.0
 40
1.0
 40
1.0
 40
1.0
 10
0.3958700787401575
 20
-1.1374291338582678
 30
0.0
 10
0.3958700787401575
 20
-1.1374291338582678
 30
0.0
 10
1.0579212598425198
 20
-1.5330472440944882
 30
0.0
 10
1.0579212598425198
 20
-1.5330472440944882
 30
0.0
 10
1.0579212598425198
 20
-1.5330472440944882
 30
0.0
 10
1.0579212598425198
 20
-1.5330472440944882
 30
0.0
 10
1.0479094488188976
 20
-1.555200787401575
 30
0.0
 10
1.0479094488188976
 20
-1.555200787401575
 30
0.0
 10
1.0479094488188976
 20
-1.555200787401575
 30
0.0
 10
1.0479094488188976
 20
-1.555200787401575
 30
0.0
 10
1.0389488188976379
 20
-1.5779015748031497
 30
0.0
 10
1.0389488188976379
 20
-1.5779015748031497
 30
0.0
 10
1.0389488188976379
 20
-1.5779015748031497
 30
0.0
 10
1.0389488188976379
 20
-1.5779015748031497
 30
0.0
 10
0.3768976377952756
 20
-1.1822834645669291
 30
0.0
 10
0.3768976377952756
 20
-1.1822834645669291
 30
0.0
 10
0.3768976377952756
 20
-1.1822834645669291
 30
0.0
 10
0.3768976377952756
 20
-1.1822834645669291
 30
0.0
 10
0.3858582677165355
 20
-1.1595826771653543
 30
0.0
 10
0.3858582677165355
 20
-1.1595826771653543
 30
0.0
 10
0.3858582677165355
 20
-1.1595826771653543
 30
0.0
 10
0.3858582677165355
 20
-1.1595826771653543
 30
0.0
 10
0.3958700787401575
 20
-1.1374291338582678
 30
0.0
 10
0.3958700787401575
 20
-1.1374291338582678
 30
0.0
  0
SPLINE
  5
8C
100
AcDbEntity
  8
Additional Graphics
 62
     9
100
AcDbSpline
210
0.0
220
0.0
230
1.0
 70
     1
 71
     3
 72
    28
 73
    24
 74
     0
 42
0.0000000001
 43
0.0000000001
 40
0.0
 40
0.0
 40
0.0
 40
0.0
 40
0.1666666666666667
 40
0.1666666666666667
 40
0.1666666666666667
 40
0.1666666666666667
 40
0.3333333333333333
 40
0.3333333333333333
 40
0.3333333333333333
 40
0.3333333333333333
 40
0.5
 40
0.5
 40
0.5
 40
0.5
 40
0.6666666666666666
 40
0.6666666666666666
 40
0.6666666666666666
 40
0.6666666666666666
 40
0.8333333333333333
 40
0.8333333333333333
 40
0.8333333333333333
 40
0.8333333333333333
 40
1.0
 40
1.0
 40
1.0
 40
1.0
 10
0.3768976377952756
 20
-1.1822834645669291
 30
0.0
 10
0.3768976377952756
 20
-1.1822834645669291
 30
0.0
 10
1.0389488188976379
 20
-1.5779015748031497
 30
0.0
 10
1.0389488188976379
 20
-1.5779015748031497
 30
0.0
 10
1.0389488188976379
 20
-1.5779015748031497
 30
0.0
 10
1.0389488188976379
 20
-1.5779015748031497
 30
0.0
 10
1.0310905511811024
 20
-1.6011338582677166
 30
0.0
 10
1.0310905511811024
 20
-1.6011338582677166
 30
0.0
 10
1.0310905511811024
 20
-1.6011338582677166
 30
0.0
 10
1.0310905511811024
 20
-1.6011338582677166
 30
0.0
 10
1.0243503937007874
 20
-1.6248582677165355
 30
0.0
 10
1.0243503937007874
 20
-1.6248582677165355
 30
0.0
 10
1.0243503937007874
 20
-1.6248582677165355
 30
0.0
 10
1.0243503937007874
 20
-1.6248582677165355
 30
0.0
 10
0.3622992125984252
 20
-1.2292401574803149
 30
0.0
 10
0.3622992125984252
 20
-1.2292401574803149
 30
0.0
 10
0.3622992125984252
 20
-1.2292401574803149
 30
0.0
 10
0.3622992125984252
 20
-1.2292401574803149
 30
0.0
 10
0.3690393700787402
 20
-1.2055157480314962
 30
0.0
 10
0.3690393700787402
 20
-1.2055157480314962
 30
0.0
 10
0.3690393700787402
 20
-1.2055157480314962
 30
0.0
 10
0.3690393700787402
 20
-1.2055157480314962
 30
0.0
 10
0.3768976377952756
 20
-1.1822834645669291
 30
0.0
 10
0.3768976377952756
 20
-1.1822834645669291
 30
0.0
  0
SPLINE
  5
8D
100
AcDbEntity
  8
Additional Graphics
 62
     9
100
AcDbSpline
210
0.0
220
0.0
230
1.0
 70
     1
 71
     3
 72
    28
 73
    24
 74
     0
 42
0.0000000001
 43
0.0000000001
 40
0.0
 40
0.0
 40
0.0
 40
0.0
 40
0.1666666666666667
 40
0.1666666666666667
 40
0.1666666666666667
 40
0.1666666666666667
 40
0.3333333333333333
 40
0.3333333333333333
 40
0.3333333333333333
 40
0.3333333333333333
 40
0.5
 40
0.5
 40
0.5
 40
0.5
 40
0.6666666666666666
 40
0.6666666666666666
 40
0.6666666666666666
 40
0.6666666666666666
 40
0.8333333333333333
 40
0.8333333333333333
 40
0.8333333333333333
 40
0.8333333333333333
 40
1.0
 40
1.0
 40
1.0
 40
1.0
 10
0.3622992125984252
 20
-1.2292401574803149
 30
0.0
 10
0.3622992125984252
 20
-1.2292401574803149
 30
0.0
 10
1.0243503937007874
 20
-1.6248582677165355
 30
0.0
 10
1.0243503937007874
 20
-1.6248582677165355
 30
0.0
 10
1.0243503937007874
 20
-1.6248582677165355
 30
0.0
 10
1.0243503937007874
 20
-1.6248582677165355
 30
0.0
 10
1.0187716535433071
 20
-1.6490511811023623
 30
0.0
 10
1.0187716535433071
 20
-1.6490511811023623
 30
0.0
 10
1.0187716535433071
 20
-1.6490511811023623
 30
0.0
 10
1.0187716535433071
 20
-1.6490511811023623
 30
0.0
 10
1.0143700787401575
 20
-1.6736653543307087
 30
0.0
 10
1.0143700787401575
 20
-1.6736653543307087
 30
0.0
 10
1.0143700787401575
 20
-1.6736653543307087
 30
0.0
 10
1.0143700787401575
 20
-1.6736653543307087
 30
0.0
 10
0.3523188976377953
 20
-1.2780472440944883
 30
0.0
 10
0.3523188976377953
 20
-1.2780472440944883
 30
0.0
 10
0.3523188976377953
 20
-1.2780472440944883
 30
0.0
 10
0.3523188976377953
 20
-1.2780472440944883
 30
0.0
 10
0.3567204724409449
 20
-1.2534330708661419
 30
0.0
 10
0.3567204724409449
 20
-1.2534330708661419
 30
0.0
 10
0.3567204724409449
 20
-1.2534330708661419
 30
0.0
 10
0.3567204724409449
 20
-1.2534330708661419
 30
0.0
 10
0.3622992125984252
 20
-1.2292401574803149
 30
0.0
 10
0.3622992125984252
 20
-1.2292401574803149
 30
0.0
  0
SPLINE
  5
8E
100
AcDbEntity
  8
Additional Graphics
 62
     9
100
AcDbSpline
210
0.0
220
0.0
230
1.0
 70
     1
 71
     3
 72
    20
 73
    16
 74
     0
 42
0.0000000001
 43
0.0000000001
 40
0.0
 40
0.0
 40
0.0
 40
0.0
 40
0.25
 40
0.25
 40
0.25
 40
0.25
 40
0.5
 40
0.5
 40
0.5
 40
0.5
 40
0.75
 40
0.75
 40
0.75
 40
0.75
 40
1.0
 40
1.0
 40
1.0
 40
1.0
 10
0.3523188976377953
 20
-1.2780472440944883
 30
0.0
 10
0.3523188976377953
 20
-1.2780472440944883
 30
0.0
 10
1.0143700787401575
 20
-1.6736653543307087
 30
0.0
 10
1.0143700787401575
 20
-1.6736653543307087
 30
0.0
 10
1.0143700787401575
 20
-1.6736653543307087
 30
0.0
 10
1.0143700787401575
 20
-1.6736653543307087
 30
0.0
 10
1.0111929133858268
 20
-1.6986889763779529
 30
0.0
 10
1.0111929133858268
 20
-1.6986889763779529
 30
0.0
 10
1.0111929133858268
 20
-1.6986889763779529
 30
0.0
 10
1.0111929133858268
 20
-1.6986889763779529
 30
0.0
 10
0.3491417322834646
 20
-1.3030708661417323
 30
0.0
 10
0.3491417322834646
 20
-1.3030708661417323
 30
0.0
 10
0.3491417322834646
 20
-1.3030708661417323
 30
0.0
 10
0.3491417322834646
 20
-1.3030708661417323
 30
0.0
 10
0.3523188976377953
 20
-1.2780472440944883
 30
0.0
 10
0.3523188976377953
 20
-1.2780472440944883
 30
0.0
  0
SPLINE
  5
8F
100
AcDbEntity
  8
Additional Graphics
 62
     9
100
AcDbSpline
210
0.0
220
0.0
230
1.0
 70
     1
 71
     3
 72
    20
 73
    16
 74
     0
 42
0.0000000001
 43
0.0000000001
 40
0.0
 40
0.0
 40
0.0
 40
0.0
 40
0.25
 40
0.25
 40
0.25
 40
0.25
 40
0.5
 40
0.5
 40
0.5
 40
0.5
 40
0.75
 40
0.75
 40
0.75
 40
0.75
 40
1.0
 40
1.0
 40
1.0
 40
1.0
 10
0.3491417322834646
 20
-1.3030708661417323
 30
0.0
 10
0.3491417322834646
 20
-1.3030708661417323
 30
0.0
 10
1.0111929133858268
 20
-1.6986889763779529
 30
0.0
 10
1.0111929133858268
 20
-1.6986889763779529
 30
0.0
 10
1.0111929133858268
 20
-1.6986889763779529
 30
0.0
 10
1.0111929133858268
 20
-1.6986889763779529
 30
0.0
 10
1.009259842519685
 20
-1.7240748031496063
 30
0.0
 10
1.009259842519685
 20
-1.7240748031496063
 30
0.0
 10
1.009259842519685
 20
-1.7240748031496063
 30
0.0
 10
1.009259842519685
 20
-1.7240748031496063
 30
0.0
 10
0.3472086614173229
 20
-1.3284566929133859
 30
0.0
 10
0.3472086614173229
 20
-1.3284566929133859
 30
0.0
 10
0.3472086614173229
 20
-1.3284566929133859
 30
0.0
 10
0.3472086614173229
 20
-1.3284566929133859
 30
0.0
 10
0.3491417322834646
 20
-1.3030708661417323
 30
0.0
 10
0.3491417322834646
 20
-1.3030708661417323
 30
0.0
  0
SPLINE
  5
90
100
AcDbEntity
  8
Additional Graphics
 62
     9
100
AcDbSpline
210
0.0
220
0.0
230
1.0
 70
     1
 71
     3
 72
    20
 73
    16
 74
     0
 42
0.0000000001
 43
0.0000000001
 40
0.0
 40
0.0
 40
0.0
 40
0.0
 40
0.25
 40
0.25
 40
0.25
 40
0.25
 40
0.5
 40
0.5
 40
0.5
 40
0.5
 40
0.75
 40
0.75
 40
0.75
 40
0.75
 40
1.0
 40
1.0
 40
1.0
 40
1.0
 10
0.3472086614173229
 20
-1.3284566929133859
 30
0.0
 10
0.3472086614173229
 20
-1.3284566929133859
 30
0.0
 10
1.009259842519685
 20
-1.7240748031496063
 30
0.0
 10
1.009259842519685
 20
-1.7240748031496063
 30
0.0
 10
1.009259842519685
 20
-1.7240748031496063
 30
0.0
 10
1.009259842519685
 20
-1.7240748031496063
 30
0.0
 10
1.0086141732283465
 20
-1.7498070866141733
 30
0.0
 10
1.0086141732283465
 20
-1.7498070866141733
 30
0.0
 10
1.0086141732283465
 20
-1.7498070866141733
 30
0.0
 10
1.0086141732283465
 20
-1.7498070866141733
 30
0.0
 10
0.3465629921259843
 20
-1.3541889763779529
 30
0.0
 10
0.3465629921259843
 20
-1.3541889763779529
 30
0.0
 10
0.3465629921259843
 20
-1.3541889763779529
 30
0.0
 10
0.3465629921259843
 20
-1.3541889763779529
 30
0.0
 10
0.3472086614173229
 20
-1.3284566929133859
 30
0.0
 10
0.3472086614173229
 20
-1.3284566929133859
 30
0.0
  0
SPLINE
  5
91
100
AcDbEntity
  8
Additional Graphics
370
     5
100
AcDbSpline
210
0.0
220
0.0
230
1.0
 70
     1
 71
     3
 72
   268
 73
   264
 74
     0
 42
0.0000000001
 43
0.0000000001
 40
0.0
 40
0.0
 40
0.0
 40
0.0
 40
0.0151515151515152
 40
0.0151515151515152
 40
0.0151515151515152
 40
0.0151515151515152
 40
0.0303030303030303
 40
0.0303030303030303
 40
0.0303030303030303
 40
0.0303030303030303
 40
0.0454545454545455
 40
0.0454545454545455
 40
0.0454545454545455
 40
0.0454545454545455
 40
0.0606060606060606
 40
0.0606060606060606
 40
0.0606060606060606
 40
0.0606060606060606
 40
0.0757575757575758
 40
0.0757575757575758
 40
0.0757575757575758
 40
0.0757575757575758
 40
0.0909090909090909
 40
0.0909090909090909
 40
0.0909090909090909
 40
0.0909090909090909
 40
0.1060606060606061
 40
0.1060606060606061
 40
0.1060606060606061
 40
0.1060606060606061
 40
0.1212121212121212
 40
0.1212121212121212
 40
0.1212121212121212
 40
0.1212121212121212
 40
0.1363636363636364
 40
0.1363636363636364
 40
0.1363636363636364
 40
0.1363636363636364
 40
0.1515151515151515
 40
0.1515151515151515
 40
0.1515151515151515
 40
0.1515151515151515
 40
0.1666666666666666
 40
0.1666666666666666
 40
0.1666666666666666
 40
0.1666666666666666
 40
0.1818181818181818
 40
0.1818181818181818
 40
0.1818181818181818
 40
0.1818181818181818
 40
0.1969696969696969
 40
0.1969696969696969
 40
0.1969696969696969
 40
0.1969696969696969
 40
0.212121212121212
 40
0.212121212121212
 40
0.212121212121212
 40
0.212121212121212
 40
0.2272727272727272
 40
0.2272727272727272
 40
0.2272727272727272
 40
0.2272727272727272
 40
0.2424242424242423
 40
0.2424242424242423
 40
0.2424242424242423
 40
0.2424242424242423
 40
0.2575757575757575
 40
0.2575757575757575
 40
0.2575757575757575
 40
0.2575757575757575
 40
0.2727272727272726
 40
0.2727272727272726
 40
0.2727272727272726
 40
0.2727272727272726
 40
0.2878787878787877
 40
0.2878787878787877
 40
0.2878787878787877
 40
0.2878787878787877
 40
0.3030303030303029
 40
0.3030303030303029
 40
0.3030303030303029
 40
0.3030303030303029
 40
0.318181818181818
 40
0.318181818181818
 40
0.318181818181818
 40
0.318181818181818
 40
0.3333333333333332
 40
0.3333333333333332
 40
0.3333333333333332
 40
0.3333333333333332
 40
0.3484848484848483
 40
0.3484848484848483
 40
0.3484848484848483
 40
0.3484848484848483
 40
0.3636363636363634
 40
0.3636363636363634
 40
0.3636363636363634
 40
0.3636363636363634
 40
0.3787878787878786
 40
0.3787878787878786
 40
0.3787878787878786
 40
0.3787878787878786
 40
0.3939393939393937
 40
0.3939393939393937
 40
0.3939393939393937
 40
0.3939393939393937
 40
0.4090909090909088
 40
0.4090909090909088
 40
0.4090909090909088
 40
0.4090909090909088
 40
0.424242424242424
 40
0.424242424242424
 40
0.424242424242424
 40
0.424242424242424
 40
0.4393939393939391
 40
0.4393939393939391
 40
0.4393939393939391
 40
0.4393939393939391
 40
0.4545454545454543
 40
0.4545454545454543
 40
0.4545454545454543
 40
0.4545454545454543
 40
0.4696969696969694
 40
0.4696969696969694
 40
0.4696969696969694
 40
0.4696969696969694
 40
0.4848484848484845
 40
0.4848484848484845
 40
0.4848484848484845
 40
0.4848484848484845
 40
0.4999999999999997
 40
0.4999999999999997
 40
0.4999999999999997
 40
0.4999999999999997
 40
0.5151515151515148
 40
0.5151515151515148
 40
0.5151515151515148
 40
0.5151515151515148
 40
0.5303030303030299
 40
0.5303030303030299
 40
0.5303030303030299
 40
0.5303030303030299
 40
0.5454545454545451
 40
0.5454545454545451
 40
0.5454545454545451
 40
0.5454545454545451
 40
0.5606060606060602
 40
0.5606060606060602
 40
0.5606060606060602
 40
0.5606060606060602
 40
0.5757575757575754
 40
0.5757575757575754
 40
0.5757575757575754
 40
0.5757575757575754
 40
0.5909090909090905
 40
0.5909090909090905
 40
0.5909090909090905
 40
0.5909090909090905
 40
0.6060606060606056
 40
0.6060606060606056
 40
0.6060606060606056
 40
0.6060606060606056
 40
0.6212121212121208
 40
0.6212121212121208
 40
0.6212121212121208
 40
0.6212121212121208
 40
0.6363636363636359
 40
0.6363636363636359
 40
0.6363636363636359
 40
0.6363636363636359
 40
0.6515151515151511
 40
0.6515151515151511
 40
0.6515151515151511
 40
0.6515151515151511
 40
0.6666666666666662
 40
0.6666666666666662
 40
0.6666666666666662
 40
0.6666666666666662
 40
0.6818181818181813
 40
0.6818181818181813
 40
0.6818181818181813
 40
0.6818181818181813
 40
0.6969696969696965
 40
0.6969696969696965
 40
0.6969696969696965
 40
0.6969696969696965
 40
0.7121212121212116
 40
0.7121212121212116
 40
0.7121212121212116
 40
0.7121212121212116
 40
0.7272727272727267
 40
0.7272727272727267
 40
0.7272727272727267
 40
0.7272727272727267
 40
0.7424242424242419
 40
0.7424242424242419
 40
0.7424242424242419
 40
0.7424242424242419
 40
0.757575757575757
 40
0.757575757575757
 40
0.757575757575757
 40
0.757575757575757
 40
0.7727272727272722
 40
0.7727272727272722
 40
0.7727272727272722
 40
0.7727272727272722
 40
0.7878787878787873
 40
0.7878787878787873
 40
0.7878787878787873
 40
0.7878787878787873
 40
0.8030303030303024
 40
0.8030303030303024
 40
0.8030303030303024
 40
0.8030303030303024
 40
0.8181818181818176
 40
0.8181818181818176
 40
0.8181818181818176
 40
0.8181818181818176
 40
0.8333333333333327
 40
0.8333333333333327
 40
0.8333333333333327
 40
0.8333333333333327
 40
0.8484848484848478
 40
0.8484848484848478
 40
0.8484848484848478
 40
0.8484848484848478
 40
0.863636363636363
 40
0.863636363636363
 40
0.863636363636363
 40
0.863636363636363
 40
0.8787878787878781
 40
0.8787878787878781
 40
0.8787878787878781
 40
0.8787878787878781
 40
0.8939393939393933
 40
0.8939393939393933
 40
0.8939393939393933
 40
0.8939393939393933
 40
0.9090909090909084
 40
0.9090909090909084
 40
0.9090909090909084
 40
0.9090909090909084
 40
0.9242424242424235
 40
0.9242424242424235
 40
0.9242424242424235
 40
0.9242424242424235
 40
0.9393939393939387
 40
0.9393939393939387
 40
0.9393939393939387
 40
0.9393939393939387
 40
0.9545454545454538
 40
0.9545454545454538
 40
0.9545454545454538
 40
0.9545454545454538
 40
0.969696969696969
 40
0.969696969696969
 40
0.969696969696969
 40
0.969696969696969
 40
0.9848484848484841
 40
0.9848484848484841
 40
0.9848484848484841
 40
0.9848484848484841
 40
1.0
 40
1.0
 40
1.0
 40
1.0
 10
0.8465629921259843
 20
-0.8541889763779528
 30
0.0
 10
0.8465629921259843
 20
-0.8541889763779528
 30
0.0
 10
1.5086141732283465
 20
-1.2498070866141733
 30
0.0
 10
1.5086141732283465
 20
-1.2498070866141733
 30
0.0
 10
1.5086141732283465
 20
-1.2498070866141733
 30
0.0
 10
1.5086141732283465
 20
-1.2498070866141733
 30
0.0
 10
1.4828818897637797
 20
-1.2504527559055119
 30
0.0
 10
1.4828818897637797
 20
-1.2504527559055119
 30
0.0
 10
1.4828818897637797
 20
-1.2504527559055119
 30
0.0
 10
1.4828818897637797
 20
-1.2504527559055119
 30
0.0
 10
1.4574960629921261
 20
-1.2523858267716537
 30
0.0
 10
1.4574960629921261
 20
-1.2523858267716537
 30
0.0
 10
1.4574960629921261
 20
-1.2523858267716537
 30
0.0
 10
1.4574960629921261
 20
-1.2523858267716537
 30
0.0
 10
1.4324724409448819
 20
-1.2555629921259843
 30
0.0
 10
1.4324724409448819
 20
-1.2555629921259843
 30
0.0
 10
1.4324724409448819
 20
-1.2555629921259843
 30
0.0
 10
1.4324724409448819
 20
-1.2555629921259843
 30
0.0
 10
1.4078582677165354
 20
-1.2599645669291339
 30
0.0
 10
1.4078582677165354
 20
-1.2599645669291339
 30
0.0
 10
1.4078582677165354
 20
-1.2599645669291339
 30
0.0
 10
1.4078582677165354
 20
-1.2599645669291339
 30
0.0
 10
1.3836653543307087
 20
-1.2655433070866142
 30
0.0
 10
1.3836653543307087
 20
-1.2655433070866142
 30
0.0
 10
1.3836653543307087
 20
-1.2655433070866142
 30
0.0
 10
1.3836653543307087
 20
-1.2655433070866142
 30
0.0
 10
1.3599409448818898
 20
-1.2722834645669292
 30
0.0
 10
1.3599409448818898
 20
-1.2722834645669292
 30
0.0
 10
1.3599409448818898
 20
-1.2722834645669292
 30
0.0
 10
1.3599409448818898
 20
-1.2722834645669292
 30
0.0
 10
1.3367086614173229
 20
-1.2801417322834645
 30
0.0
 10
1.3367086614173229
 20
-1.2801417322834645
 30
0.0
 10
1.3367086614173229
 20
-1.2801417322834645
 30
0.0
 10
1.3367086614173229
 20
-1.2801417322834645
 30
0.0
 10
1.3140078740157481
 20
-1.2891023622047244
 30
0.0
 10
1.3140078740157481
 20
-1.2891023622047244
 30
0.0
 10
1.3140078740157481
 20
-1.2891023622047244
 30
0.0
 10
1.3140078740157481
 20
-1.2891023622047244
 30
0.0
 10
1.2918543307086614
 20
-1.2991141732283464
 30
0.0
 10
1.2918543307086614
 20
-1.2991141732283464
 30
0.0
 10
1.2918543307086614
 20
-1.2991141732283464
 30
0.0
 10
1.2918543307086614
 20
-1.2991141732283464
 30
0.0
 10
1.2702992125984252
 20
-1.3101574803149607
 30
0.0
 10
1.2702992125984252
 20
-1.3101574803149607
 30
0.0
 10
1.2702992125984252
 20
-1.3101574803149607
 30
0.0
 10
1.2702992125984252
 20
-1.3101574803149607
 30
0.0
 10
1.2493582677165356
 20
-1.3221968503937009
 30
0.0
 10
1.2493582677165356
 20
-1.3221968503937009
 30
0.0
 10
1.2493582677165356
 20
-1.3221968503937009
 30
0.0
 10
1.2493582677165356
 20
-1.3221968503937009
 30
0.0
 10
1.2290748031496064
 20
-1.3352086614173229
 30
0.0
 10
1.2290748031496064
 20
-1.3352086614173229
 30
0.0
 10
1.2290748031496064
 20
-1.3352086614173229
 30
0.0
 10
1.2290748031496064
 20
-1.3352086614173229
 30
0.0
 10
1.2094685039370079
 20
-1.3491456692913386
 30
0.0
 10
1.2094685039370079
 20
-1.3491456692913386
 30
0.0
 10
1.2094685039370079
 20
-1.3491456692913386
 30
0.0
 10
1.2094685039370079
 20
-1.3491456692913386
 30
0.0
 10
1.1905826771653545
 20
-1.363992125984252
 30
0.0
 10
1.1905826771653545
 20
-1.363992125984252
 30
0.0
 10
1.1905826771653545
 20
-1.363992125984252
 30
0.0
 10
1.1905826771653545
 20
-1.363992125984252
 30
0.0
 10
1.1724370078740158
 20
-1.3797086614173228
 30
0.0
 10
1.1724370078740158
 20
-1.3797086614173228
 30
0.0
 10
1.1724370078740158
 20
-1.3797086614173228
 30
0.0
 10
1.1724370078740158
 20
-1.3797086614173228
 30
0.0
 10
1.1550787401574805
 20
-1.3962716535433071
 30
0.0
 10
1.1550787401574805
 20
-1.3962716535433071
 30
0.0
 10
1.1550787401574805
 20
-1.3962716535433071
 30
0.0
 10
1.1550787401574805
 20
-1.3962716535433071
 30
0.0
 10
1.138515748031496
 20
-1.4136299212598427
 30
0.0
 10
1.138515748031496
 20
-1.4136299212598427
 30
0.0
 10
1.138515748031496
 20
-1.4136299212598427
 30
0.0
 10
1.138515748031496
 20
-1.4136299212598427
 30
0.0
 10
1.1227992125984252
 20
-1.4317755905511811
 30
0.0
 10
1.1227992125984252
 20
-1.4317755905511811
 30
0.0
 10
1.1227992125984252
 20
-1.4317755905511811
 30
0.0
 10
1.1227992125984252
 20
-1.4317755905511811
 30
0.0
 10
1.1079527559055118
 20
-1.4506614173228347
 30
0.0
 10
1.1079527559055118
 20
-1.4506614173228347
 30
0.0
 10
1.1079527559055118
 20
-1.4506614173228347
 30
0.0
 10
1.1079527559055118
 20
-1.4506614173228347
 30
0.0
 10
1.094015748031496
 20
-1.4702677165354332
 30
0.0
 10
1.094015748031496
 20
-1.4702677165354332
 30
0.0
 10
1.094015748031496
 20
-1.4702677165354332
 30
0.0
 10
1.094015748031496
 20
-1.4702677165354332
 30
0.0
 10
1.0810039370078741
 20
-1.4905511811023622
 30
0.0
 10
1.0810039370078741
 20
-1.4905511811023622
 30
0.0
 10
1.0810039370078741
 20
-1.4905511811023622
 30
0.0
 10
1.0810039370078741
 20
-1.4905511811023622
 30
0.0
 10
1.0689645669291339
 20
-1.511492125984252
 30
0.0
 10
1.0689645669291339
 20
-1.511492125984252
 30
0.0
 10
1.0689645669291339
 20
-1.511492125984252
 30
0.0
 10
1.0689645669291339
 20
-1.511492125984252
 30
0.0
 10
1.0579212598425198
 20
-1.5330472440944882
 30
0.0
 10
1.0579212598425198
 20
-1.5330472440944882
 30
0.0
 10
1.0579212598425198
 20
-1.5330472440944882
 30
0.0
 10
1.0579212598425198
 20
-1.5330472440944882
 30
0.0
 10
1.0479094488188976
 20
-1.555200787401575
 30
0.0
 10
1.0479094488188976
 20
-1.555200787401575
 30
0.0
 10
1.0479094488188976
 20
-1.555200787401575
 30
0.0
 10
1.0479094488188976
 20
-1.555200787401575
 30
0.0
 10
1.0389488188976379
 20
-1.5779015748031497
 30
0.0
 10
1.0389488188976379
 20
-1.5779015748031497
 30
0.0
 10
1.0389488188976379
 20
-1.5779015748031497
 30
0.0
 10
1.0389488188976379
 20
-1.5779015748031497
 30
0.0
 10
1.0310905511811024
 20
-1.6011338582677166
 30
0.0
 10
1.0310905511811024
 20
-1.6011338582677166
 30
0.0
 10
1.0310905511811024
 20
-1.6011338582677166
 30
0.0
 10
1.0310905511811024
 20
-1.6011338582677166
 30
0.0
 10
1.0243503937007874
 20
-1.6248582677165355
 30
0.0
 10
1.0243503937007874
 20
-1.6248582677165355
 30
0.0
 10
1.0243503937007874
 20
-1.6248582677165355
 30
0.0
 10
1.0243503937007874
 20
-1.6248582677165355
 30
0.0
 10
1.0187716535433071
 20
-1.6490511811023623
 30
0.0
 10
1.0187716535433071
 20
-1.6490511811023623
 30
0.0
 10
1.0187716535433071
 20
-1.6490511811023623
 30
0.0
 10
1.0187716535433071
 20
-1.6490511811023623
 30
0.0
 10
1.0143700787401575
 20
-1.6736653543307087
 30
0.0
 10
1.0143700787401575
 20
-1.6736653543307087
 30
0.0
 10
1.0143700787401575
 20
-1.6736653543307087
 30
0.0
 10
1.0143700787401575
 20
-1.6736653543307087
 30
0.0
 10
1.0111929133858268
 20
-1.6986889763779529
 30
0.0
 10
1.0111929133858268
 20
-1.6986889763779529
 30
0.0
 10
1.0111929133858268
 20
-1.6986889763779529
 30
0.0
 10
1.0111929133858268
 20
-1.6986889763779529
 30
0.0
 10
1.009259842519685
 20
-1.7240748031496063
 30
0.0
 10
1.009259842519685
 20
-1.7240748031496063
 30
0.0
 10
1.009259842519685
 20
-1.7240748031496063
 30
0.0
 10
1.009259842519685
 20
-1.7240748031496063
 30
0.0
 10
1.0086141732283465
 20
-1.7498070866141733
 30
0.0
 10
1.0086141732283465
 20
-1.7498070866141733
 30
0.0
 10
1.0086141732283465
 20
-1.7498070866141733
 30
0.0
 10
1.0086141732283465
 20
-1.7498070866141733
 30
0.0
 10
0.3465629921259843
 20
-1.3541889763779529
 30
0.0
 10
0.3465629921259843
 20
-1.3541889763779529
 30
0.0
 10
0.3465629921259843
 20
-1.3541889763779529
 30
0.0
 10
0.3465629921259843
 20
-1.3541889763779529
 30
0.0
 10
0.3472086614173229
 20
-1.3284566929133859
 30
0.0
 10
0.3472086614173229
 20
-1.3284566929133859
 30
0.0
 10
0.3472086614173229
 20
-1.3284566929133859
 30
0.0
 10
0.3472086614173229
 20
-1.3284566929133859
 30
0.0
 10
0.3491417322834646
 20
-1.3030708661417323
 30
0.0
 10
0.3491417322834646
 20
-1.3030708661417323
 30
0.0
 10
0.3491417322834646
 20
-1.3030708661417323
 30
0.0
 10
0.3491417322834646
 20
-1.3030708661417323
 30
0.0
 10
0.3523188976377953
 20
-1.2780472440944883
 30
0.0
 10
0.3523188976377953
 20
-1.2780472440944883
 30
0.0
 10
0.3523188976377953
 20
-1.2780472440944883
 30
0.0
 10
0.3523188976377953
 20
-1.2780472440944883
 30
0.0
 10
0.3567204724409449
 20
-1.2534330708661419
 30
0.0
 10
0.3567204724409449
 20
-1.2534330708661419
 30
0.0
 10
0.3567204724409449
 20
-1.2534330708661419
 30
0.0
 10
0.3567204724409449
 20
-1.2534330708661419
 30
0.0
 10
0.3622992125984252
 20
-1.2292401574803149
 30
0.0
 10
0.3622992125984252
 20
-1.2292401574803149
 30
0.0
 10
0.3622992125984252
 20
-1.2292401574803149
 30
0.0
 10
0.3622992125984252
 20
-1.2292401574803149
 30
0.0
 10
0.3690393700787402
 20
-1.2055157480314962
 30
0.0
 10
0.3690393700787402
 20
-1.2055157480314962
 30
0.0
 10
0.3690393700787402
 20
-1.2055157480314962
 30
0.0
 10
0.3690393700787402
 20
-1.2055157480314962
 30
0.0
 10
0.3768976377952756
 20
-1.1822834645669291
 30
0.0
 10
0.3768976377952756
 20
-1.1822834645669291
 30
0.0
 10
0.3768976377952756
 20
-1.1822834645669291
 30
0.0
 10
0.3768976377952756
 20
-1.1822834645669291
 30
0.0
 10
0.3858582677165355
 20
-1.1595826771653543
 30
0.0
 10
0.3858582677165355
 20
-1.1595826771653543
 30
0.0
 10
0.3858582677165355
 20
-1.1595826771653543
 30
0.0
 10
0.3858582677165355
 20
-1.1595826771653543
 30
0.0
 10
0.3958700787401575
 20
-1.1374291338582678
 30
0.0
 10
0.3958700787401575
 20
-1.1374291338582678
 30
0.0
 10
0.3958700787401575
 20
-1.1374291338582678
 30
0.0
 10
0.3958700787401575
 20
-1.1374291338582678
 30
0.0
 10
0.4069133858267717
 20
-1.1158740157480316
 30
0.0
 10
0.4069133858267717
 20
-1.1158740157480316
 30
0.0
 10
0.4069133858267717
 20
-1.1158740157480316
 30
0.0
 10
0.4069133858267717
 20
-1.1158740157480316
 30
0.0
 10
0.4189527559055118
 20
-1.0949330708661418
 30
0.0
 10
0.4189527559055118
 20
-1.0949330708661418
 30
0.0
 10
0.4189527559055118
 20
-1.0949330708661418
 30
0.0
 10
0.4189527559055118
 20
-1.0949330708661418
 30
0.0
 10
0.4319645669291339
 20
-1.0746496062992126
 30
0.0
 10
0.4319645669291339
 20
-1.0746496062992126
 30
0.0
 10
0.4319645669291339
 20
-1.0746496062992126
 30
0.0
 10
0.4319645669291339
 20
-1.0746496062992126
 30
0.0
 10
0.4459015748031496
 20
-1.0550433070866143
 30
0.0
 10
0.4459015748031496
 20
-1.0550433070866143
 30
0.0
 10
0.4459015748031496
 20
-1.0550433070866143
 30
0.0
 10
0.4459015748031496
 20
-1.0550433070866143
 30
0.0
 10
0.460748031496063
 20
-1.0361574803149607
 30
0.0
 10
0.460748031496063
 20
-1.0361574803149607
 30
0.0
 10
0.460748031496063
 20
-1.0361574803149607
 30
0.0
 10
0.460748031496063
 20
-1.0361574803149607
 30
0.0
 10
0.4764645669291339
 20
-1.018011811023622
 30
0.0
 10
0.4764645669291339
 20
-1.018011811023622
 30
0.0
 10
0.4764645669291339
 20
-1.018011811023622
 30
0.0
 10
0.4764645669291339
 20
-1.018011811023622
 30
0.0
 10
0.4930275590551181
 20
-1.0006535433070867
 30
0.0
 10
0.4930275590551181
 20
-1.0006535433070867
 30
0.0
 10
0.4930275590551181
 20
-1.0006535433070867
 30
0.0
 10
0.4930275590551181
 20
-1.0006535433070867
 30
0.0
 10
0.5103858267716536
 20
-0.9840905511811025
 30
0.0
 10
0.5103858267716536
 20
-0.9840905511811025
 30
0.0
 10
0.5103858267716536
 20
-0.9840905511811025
 30
0.0
 10
0.5103858267716536
 20
-0.9840905511811025
 30
0.0
 10
0.5285314960629921
 20
-0.9683740157480315
 30
0.0
 10
0.5285314960629921
 20
-0.9683740157480315
 30
0.0
 10
0.5285314960629921
 20
-0.9683740157480315
 30
0.0
 10
0.5285314960629921
 20
-0.9683740157480315
 30
0.0
 10
0.5474173228346457
 20
-0.9535275590551181
 30
0.0
 10
0.5474173228346457
 20
-0.9535275590551181
 30
0.0
 10
0.5474173228346457
 20
-0.9535275590551181
 30
0.0
 10
0.5474173228346457
 20
-0.9535275590551181
 30
0.0
 10
0.5670236220472441
 20
-0.9395905511811024
 30
0.0
 10
0.5670236220472441
 20
-0.9395905511811024
 30
0.0
 10
0.5670236220472441
 20
-0.9395905511811024
 30
0.0
 10
0.5670236220472441
 20
-0.9395905511811024
 30
0.0
 10
0.5873070866141733
 20
-0.9265787401574803
 30
0.0
 10
0.5873070866141733
 20
-0.9265787401574803
 30
0.0
 10
0.5873070866141733
 20
-0.9265787401574803
 30
0.0
 10
0.5873070866141733
 20
-0.9265787401574803
 30
0.0
 10
0.608248031496063
 20
-0.9145393700787402
 30
0.0
 10
0.608248031496063
 20
-0.9145393700787402
 30
0.0
 10
0.608248031496063
 20
-0.9145393700787402
 30
0.0
 10
0.608248031496063
 20
-0.9145393700787402
 30
0.0
 10
0.6298031496062992
 20
-0.903496062992126
 30
0.0
 10
0.6298031496062992
 20
-0.903496062992126
 30
0.0
 10
0.6298031496062992
 20
-0.903496062992126
 30
0.0
 10
0.6298031496062992
 20
-0.903496062992126
 30
0.0
 10
0.6519566929133859
 20
-0.893484251968504
 30
0.0
 10
0.6519566929133859
 20
-0.893484251968504
 30
0.0
 10
0.6519566929133859
 20
-0.893484251968504
 30
0.0
 10
0.6519566929133859
 20
-0.893484251968504
 30
0.0
 10
0.6746574803149606
 20
-0.8845236220472441
 30
0.0
 10
0.6746574803149606
 20
-0.8845236220472441
 30
0.0
 10
0.6746574803149606
 20
-0.8845236220472441
 30
0.0
 10
0.6746574803149606
 20
-0.8845236220472441
 30
0.0
 10
0.6978897637795276
 20
-0.8766653543307087
 30
0.0
 10
0.6978897637795276
 20
-0.8766653543307087
 30
0.0
 10
0.6978897637795276
 20
-0.8766653543307087
 30
0.0
 10
0.6978897637795276
 20
-0.8766653543307087
 30
0.0
 10
0.7216141732283465
 20
-0.8699251968503937
 30
0.0
 10
0.7216141732283465
 20
-0.8699251968503937
 30
0.0
 10
0.7216141732283465
 20
-0.8699251968503937
 30
0.0
 10
0.7216141732283465
 20
-0.8699251968503937
 30
0.0
 10
0.7458070866141733
 20
-0.8643464566929134
 30
0.0
 10
0.7458070866141733
 20
-0.8643464566929134
 30
0.0
 10
0.7458070866141733
 20
-0.8643464566929134
 30
0.0
 10
0.7458070866141733
 20
-0.8643464566929134
 30
0.0
 10
0.7704212598425198
 20
-0.8599448818897638
 30
0.0
 10
0.7704212598425198
 20
-0.8599448818897638
 30
0.0
 10
0.7704212598425198
 20
-0.8599448818897638
 30
0.0
 10
0.7704212598425198
 20
-0.8599448818897638
 30
0.0
 10
0.7954448818897638
 20
-0.8567677165354332
 30
0.0
 10
0.7954448818897638
 20
-0.8567677165354332
 30
0.0
 10
0.7954448818897638
 20
-0.8567677165354332
 30
0.0
 10
0.7954448818897638
 20
-0.8567677165354332
 30
0.0
 10
0.8208307086614174
 20
-0.8548346456692914
 30
0.0
 10
0.8208307086614174
 20
-0.8548346456692914
 30
0.0
 10
0.8208307086614174
 20
-0.8548346456692914
 30
0.0
 10
0.8208307086614174
 20
-0.8548346456692914
 30
0.0
 10
0.8465629921259843
 20
-0.8541889763779528
 30
0.0
 10
0.8465629921259843
 20
-0.8541889763779528
 30
0.0
  0
SPLINE
  5
92
100
AcDbEntity
  8
Additional Graphics
 62
     9
100
AcDbSpline
210
0.0
220
0.0
230
1.0
 70
     1
 71
     3
 72
    20
 73
    16
 74
     0
 42
0.0000000001
 43
0.0000000001
 40
0.0
 40
0.0
 40
0.0
 40
0.0
 40
0.25
 40
0.25
 40
0.25
 40
0.25
 40
0.5
 40
0.5
 40
0.5
 40
0.5
 40
0.75
 40
0.75
 40
0.75
 40
0.75
 40
1.0
 40
1.0
 40
1.0
 40
1.0
 10
0.3465629921259843
 20
-1.3541889763779529
 30
0.0
 10
0.3465629921259843
 20
-1.3541889763779529
 30
0.0
 10
1.0086141732283465
 20
-1.7498070866141733
 30
0.0
 10
1.0086141732283465
 20
-1.7498070866141733
 30
0.0
 10
1.0086141732283465
 20
-1.7498070866141733
 30
0.0
 10
1.0086141732283465
 20
-1.7498070866141733
 30
0.0
 10
1.0086141732283465
 20
-2.9373070866141733
 30
0.0
 10
1.0086141732283465
 20
-2.9373070866141733
 30
0.0
 10
1.0086141732283465
 20
-2.9373070866141733
 30
0.0
 10
1.0086141732283465
 20
-2.9373070866141733
 30
0.0
 10
0.3465629921259843
 20
-2.5416889763779529
 30
0.0
 10
0.3465629921259843
 20
-2.5416889763779529
 30
0.0
 10
0.3465629921259843
 20
-2.5416889763779529
 30
0.0
 10
0.3465629921259843
 20
-2.5416889763779529
 30
0.0
 10
0.3465629921259843
 20
-1.3541889763779529
 30
0.0
 10
0.3465629921259843
 20
-1.3541889763779529
 30
0.0
  0
SPLINE
  5
93
100
AcDbEntity
  8
Additional Graphics
370
     5
100
AcDbSpline
210
0.0
220
0.0
230
1.0
 70
     1
 71
     3
 72
    20
 73
    16
 74
     0
 42
0.0000000001
 43
0.0000000001
 40
0.0
 40
0.0
 40
0.0
 40
0.0
 40
0.25
 40
0.25
 40
0.25
 40
0.25
 40
0.5
 40
0.5
 40
0.5
 40
0.5
 40
0.75
 40
0.75
 40
0.75
 40
0.75
 40
1.0
 40
1.0
 40
1.0
 40
1.0
 10
0.3465629921259843
 20
-1.3541889763779529
 30
0.0
 10
0.3465629921259843
 20
-1.3541889763779529
 30
0.0
 10
1.0086141732283465
 20
-1.7498070866141733
 30
0.0
 10
1.0086141732283465
 20
-1.7498070866141733
 30
0.0
 10
1.0086141732283465
 20
-1.7498070866141733
 30
0.0
 10
1.0086141732283465
 20
-1.7498070866141733
 30
0.0
 10
1.0086141732283465
 20
-2.9373070866141733
 30
0.0
 10
1.0086141732283465
 20
-2.9373070866141733
 30
0.0
 10
1.0086141732283465
 20
-2.9373070866141733
 30
0.0
 10
1.0086141732283465
 20
-2.9373070866141733
 30
0.0
 10
0.3465629921259843
 20
-2.5416889763779529
 30
0.0
 10
0.3465629921259843
 20
-2.5416889763779529
 30
0.0
 10
0.3465629921259843
 20
-2.5416889763779529
 30
0.0
 10
0.3465629921259843
 20
-2.5416889763779529
 30
0.0
 10
0.3465629921259843
 20
-1.3541889763779529
 30
0.0
 10
0.3465629921259843
 20
-1.3541889763779529
 30
0.0
  0
SPLINE
  5
94
100
AcDbEntity
  8
Additional Graphics
 62
     9
100
AcDbSpline
210
0.0
220
0.0
230
1.0
 70
     1
 71
     3
 72
    20
 73
    16
 74
     0
 42
0.0000000001
 43
0.0000000001
 40
0.0
 40
0.0
 40
0.0
 40
0.0
 40
0.25
 40
0.25
 40
0.25
 40
0.25
 40
0.5
 40
0.5
 40
0.5
 40
0.5
 40
0.75
 40
0.75
 40
0.75
 40
0.75
 40
1.0
 40
1.0
 40
1.0
 40
1.0
 10
0.3465629921259843
 20
-2.5416889763779529
 30
0.0
 10
0.3465629921259843
 20
-2.5416889763779529
 30
0.0
 10
1.0086141732283465
 20
-2.9373070866141733
 30
0.0
 10
1.0086141732283465
 20
-2.9373070866141733
 30
0.0
 10
1.0086141732283465
 20
-2.9373070866141733
 30
0.0
 10
1.0086141732283465
 20
-2.9373070866141733
 30
0.0
 10
-1.7413858267716535
 20
-2.9373070866141733
 30
0.0
 10
-1.7413858267716535
 20
-2.9373070866141733
 30
0.0
 10
-1.7413858267716535
 20
-2.9373070866141733
 30
0.0
 10
-1.7413858267716535
 20
-2.9373070866141733
 30
0.0
 10
-2.4034370078740159
 20
-2.5416889763779529
 30
0.0
 10
-2.4034370078740159
 20
-2.5416889763779529
 30
0.0
 10
-2.4034370078740159
 20
-2.5416889763779529
 30
0.0
 10
-2.4034370078740159
 20
-2.5416889763779529
 30
0.0
 10
0.3465629921259843
 20
-2.5416889763779529
 30
0.0
 10
0.3465629921259843
 20
-2.5416889763779529
 30
0.0
  0
SPLINE
  5
95
100
AcDbEntity
  8
Additional Graphics
370
     5
100
AcDbSpline
210
0.0
220
0.0
230
1.0
 70
     1
 71
     3
 72
    20
 73
    16
 74
     0
 42
0.0000000001
 43
0.0000000001
 40
0.0
 40
0.0
 40
0.0
 40
0.0
 40
0.25
 40
0.25
 40
0.25
 40
0.25
 40
0.5
 40
0.5
 40
0.5
 40
0.5
 40
0.75
 40
0.75
 40
0.75
 40
0.75
 40
1.0
 40
1.0
 40
1.0
 40
1.0
 10
0.3465629921259843
 20
-2.5416889763779529
 30
0.0
 10
0.3465629921259843
 20
-2.5416889763779529
 30
0.0
 10
1.0086141732283465
 20
-2.9373070866141733
 30
0.0
 10
1.0086141732283465
 20
-2.9373070866141733
 30
0.0
 10
1.0086141732283465
 20
-2.9373070866141733
 30
0.0
 10
1.0086141732283465
 20
-2.9373070866141733
 30
0.0
 10
-1.7413858267716535
 20
-2.9373070866141733
 30
0.0
 10
-1.7413858267716535
 20
-2.9373070866141733
 30
0.0
 10
-1.7413858267716535
 20
-2.9373070866141733
 30
0.0
 10
-1.7413858267716535
 20
-2.9373070866141733
 30
0.0
 10
-2.4034370078740159
 20
-2.5416889763779529
 30
0.0
 10
-2.4034370078740159
 20
-2.5416889763779529
 30
0.0
 10
-2.4034370078740159
 20
-2.5416889763779529
 30
0.0
 10
-2.4034370078740159
 20
-2.5416889763779529
 30
0.0
 10
0.3465629921259843
 20
-2.5416889763779529
 30
0.0
 10
0.3465629921259843
 20
-2.5416889763779529
 30
0.0
  0
SPLINE
  5
96
100
AcDbEntity
  8
Additional Graphics
370
     5
 62
     7
100
AcDbSpline
210
0.0
220
0.0
230
1.0
 70
     1
 71
     3
 72
    28
 73
    24
 74
     0
 42
0.0000000001
 43
0.0000000001
 40
0.0
 40
0.0
 40
0.0
 40
0.0
 40
0.1666666666666667
 40
0.1666666666666667
 40
0.1666666666666667
 40
0.1666666666666667
 40
0.3333333333333333
 40
0.3333333333333333
 40
0.3333333333333333
 40
0.3333333333333333
 40
0.5
 40
0.5
 40
0.5
 40
0.5
 40
0.6666666666666666
 40
0.6666666666666666
 40
0.6666666666666666
 40
0.6666666666666666
 40
0.8333333333333333
 40
0.8333333333333333
 40
0.8333333333333333
 40
0.8333333333333333
 40
1.0
 40
1.0
 40
1.0
 40
1.0
 10
-2.4034370078740159
 20
-2.5416889763779529
 30
0.0
 10
-2.4034370078740159
 20
-2.5416889763779529
 30
0.0
 10
-2.4034370078740159
 20
-0.1041889763779528
 30
0.0
 10
-2.4034370078740159
 20
-0.1041889763779528
 30
0.0
 10
-2.4034370078740159
 20
-0.1041889763779528
 30
0.0
 10
-2.4034370078740159
 20
-0.1041889763779528
 30
0.0
 10
0.8465629921259843
 20
-0.1041889763779528
 30
0.0
 10
0.8465629921259843
 20
-0.1041889763779528
 30
0.0
 10
0.8465629921259843
 20
-0.1041889763779528
 30
0.0
 10
0.8465629921259843
 20
-0.1041889763779528
 30
0.0
 10
0.8465629921259843
 20
-0.8541889763779528
 30
0.0
 10
0.8465629921259843
 20
-0.8541889763779528
 30
0.0
 10
0.8465629921259843
 20
-0.8541889763779528
 30
0.0
 10
0.5704685039370079
 20
-0.8541889763779528
 30
0.0
 10
0.3465629921259843
 20
-1.0780944881889765
 30
0.0
 10
0.3465629921259843
 20
-1.3541889763779529
 30
0.0
 10
0.3465629921259843
 20
-1.3541889763779529
 30
0.0
 10
0.3465629921259843
 20
-1.3541889763779529
 30
0.0
 10
0.3465629921259843
 20
-2.5416889763779529
 30
0.0
 10
0.3465629921259843
 20
-2.5416889763779529
 30
0.0
 10
0.3465629921259843
 20
-2.5416889763779529
 30
0.0
 10
0.3465629921259843
 20
-2.5416889763779529
 30
0.0
 10
-2.4034370078740159
 20
-2.5416889763779529
 30
0.0
 10
-2.4034370078740159
 20
-2.5416889763779529
 30
0.0
  0
SPLINE
  5
97
100
AcDbEntity
  8
Additional Graphics
 62
     9
100
AcDbSpline
210
0.0
220
0.0
230
1.0
 70
     1
 71
     3
 72
    20
 73
    16
 74
     0
 42
0.0000000001
 43
0.0000000001
 40
0.0
 40
0.0
 40
0.0
 40
0.0
 40
0.25
 40
0.25
 40
0.25
 40
0.25
 40
0.5
 40
0.5
 40
0.5
 40
0.5
 40
0.75
 40
0.75
 40
0.75
 40
0.75
 40
1.0
 40
1.0
 40
1.0
 40
1.0
 10
0.0965590551181102
 20
-2.5416889763779529
 30
0.0
 10
0.0965590551181102
 20
-2.5416889763779529
 30
0.0
 10
0.7667047244094488
 20
-2.937523622047244
 30
0.0
 10
0.7667047244094488
 20
-2.937523622047244
 30
0.0
 10
0.7667047244094488
 20
-2.937523622047244
 30
0.0
 10
0.7667047244094488
 20
-2.937523622047244
 30
0.0
 10
0.7640984251968505
 20
-3.0404212598425198
 30
0.0
 10
0.7640984251968505
 20
-3.0404212598425198
 30
0.0
 10
0.7640984251968505
 20
-3.0404212598425198
 30
0.0
 10
0.7640984251968505
 20
-3.0404212598425198
 30
0.0
 10
0.0939527559055118
 20
-2.6445866141732286
 30
0.0
 10
0.0939527559055118
 20
-2.6445866141732286
 30
0.0
 10
0.0939527559055118
 20
-2.6445866141732286
 30
0.0
 10
0.0939527559055118
 20
-2.6445866141732286
 30
0.0
 10
0.0965590551181102
 20
-2.5416889763779529
 30
0.0
 10
0.0965590551181102
 20
-2.5416889763779529
 30
0.0
  0
SPLINE
  5
98
100
AcDbEntity
  8
Additional Graphics
 62
     9
100
AcDbSpline
210
0.0
220
0.0
230
1.0
 70
     1
 71
     3
 72
    20
 73
    16
 74
     0
 42
0.0000000001
 43
0.0000000001
 40
0.0
 40
0.0
 40
0.0
 40
0.0
 40
0.25
 40
0.25
 40
0.25
 40
0.25
 40
0.5
 40
0.5
 40
0.5
 40
0.5
 40
0.75
 40
0.75
 40
0.75
 40
0.75
 40
1.0
 40
1.0
 40
1.0
 40
1.0
 10
0.0939527559055118
 20
-2.6445866141732286
 30
0.0
 10
0.0939527559055118
 20
-2.6445866141732286
 30
0.0
 10
0.7640984251968505
 20
-3.0404212598425198
 30
0.0
 10
0.7640984251968505
 20
-3.0404212598425198
 30
0.0
 10
0.7640984251968505
 20
-3.0404212598425198
 30
0.0
 10
0.7640984251968505
 20
-3.0404212598425198
 30
0.0
 10
0.7563740157480315
 20
-3.1419763779527559
 30
0.0
 10
0.7563740157480315
 20
-3.1419763779527559
 30
0.0
 10
0.7563740157480315
 20
-3.1419763779527559
 30
0.0
 10
0.7563740157480315
 20
-3.1419763779527559
 30
0.0
 10
0.0862283464566929
 20
-2.7461417322834647
 30
0.0
 10
0.0862283464566929
 20
-2.7461417322834647
 30
0.0
 10
0.0862283464566929
 20
-2.7461417322834647
 30
0.0
 10
0.0862283464566929
 20
-2.7461417322834647
 30
0.0
 10
0.0939527559055118
 20
-2.6445866141732286
 30
0.0
 10
0.0939527559055118
 20
-2.6445866141732286
 30
0.0
  0
SPLINE
  5
99
100
AcDbEntity
  8
Additional Graphics
 62
     9
100
AcDbSpline
210
0.0
220
0.0
230
1.0
 70
     1
 71
     3
 72
    20
 73
    16
 74
     0
 42
0.0000000001
 43
0.0000000001
 40
0.0
 40
0.0
 40
0.0
 40
0.0
 40
0.25
 40
0.25
 40
0.25
 40
0.25
 40
0.5
 40
0.5
 40
0.5
 40
0.5
 40
0.75
 40
0.75
 40
0.75
 40
0.75
 40
1.0
 40
1.0
 40
1.0
 40
1.0
 10
0.0862283464566929
 20
-2.7461417322834647
 30
0.0
 10
0.0862283464566929
 20
-2.7461417322834647
 30
0.0
 10
0.7563740157480315
 20
-3.1419763779527559
 30
0.0
 10
0.7563740157480315
 20
-3.1419763779527559
 30
0.0
 10
0.7563740157480315
 20
-3.1419763779527559
 30
0.0
 10
0.7563740157480315
 20
-3.1419763779527559
 30
0.0
 10
0.7436496062992126
 20
-3.2420511811023625
 30
0.0
 10
0.7436496062992126
 20
-3.2420511811023625
 30
0.0
 10
0.7436496062992126
 20
-3.2420511811023625
 30
0.0
 10
0.7436496062992126
 20
-3.2420511811023625
 30
0.0
 10
0.073503937007874
 20
-2.8462165354330708
 30
0.0
 10
0.073503937007874
 20
-2.8462165354330708
 30
0.0
 10
0.073503937007874
 20
-2.8462165354330708
 30
0.0
 10
0.073503937007874
 20
-2.8462165354330708
 30
0.0
 10
0.0862283464566929
 20
-2.7461417322834647
 30
0.0
 10
0.0862283464566929
 20
-2.7461417322834647
 30
0.0
  0
SPLINE
  5
9A
100
AcDbEntity
  8
Additional Graphics
 62
     9
100
AcDbSpline
210
0.0
220
0.0
230
1.0
 70
     1
 71
     3
 72
    20
 73
    16
 74
     0
 42
0.0000000001
 43
0.0000000001
 40
0.0
 40
0.0
 40
0.0
 40
0.0
 40
0.25
 40
0.25
 40
0.25
 40
0.25
 40
0.5
 40
0.5
 40
0.5
 40
0.5
 40
0.75
 40
0.75
 40
0.75
 40
0.75
 40
1.0
 40
1.0
 40
1.0
 40
1.0
 10
0.073503937007874
 20
-2.8462165354330708
 30
0.0
 10
0.073503937007874
 20
-2.8462165354330708
 30
0.0
 10
0.7436496062992126
 20
-3.2420511811023625
 30
0.0
 10
0.7436496062992126
 20
-3.2420511811023625
 30
0.0
 10
0.7436496062992126
 20
-3.2420511811023625
 30
0.0
 10
0.7436496062992126
 20
-3.2420511811023625
 30
0.0
 10
0.7260629921259842
 20
-3.3405354330708663
 30
0.0
 10
0.7260629921259842
 20
-3.3405354330708663
 30
0.0
 10
0.7260629921259842
 20
-3.3405354330708663
 30
0.0
 10
0.7260629921259842
 20
-3.3405354330708663
 30
0.0
 10
0.0559173228346457
 20
-2.9447007874015747
 30
0.0
 10
0.0559173228346457
 20
-2.9447007874015747
 30
0.0
 10
0.0559173228346457
 20
-2.9447007874015747
 30
0.0
 10
0.0559173228346457
 20
-2.9447007874015747
 30
0.0
 10
0.073503937007874
 20
-2.8462165354330708
 30
0.0
 10
0.073503937007874
 20
-2.8462165354330708
 30
0.0
  0
SPLINE
  5
9B
100
AcDbEntity
  8
Additional Graphics
 62
     9
100
AcDbSpline
210
0.0
220
0.0
230
1.0
 70
     1
 71
     3
 72
    20
 73
    16
 74
     0
 42
0.0000000001
 43
0.0000000001
 40
0.0
 40
0.0
 40
0.0
 40
0.0
 40
0.25
 40
0.25
 40
0.25
 40
0.25
 40
0.5
 40
0.5
 40
0.5
 40
0.5
 40
0.75
 40
0.75
 40
0.75
 40
0.75
 40
1.0
 40
1.0
 40
1.0
 40
1.0
 10
0.0559173228346457
 20
-2.9447007874015747
 30
0.0
 10
0.0559173228346457
 20
-2.9447007874015747
 30
0.0
 10
0.7260629921259842
 20
-3.3405354330708663
 30
0.0
 10
0.7260629921259842
 20
-3.3405354330708663
 30
0.0
 10
0.7260629921259842
 20
-3.3405354330708663
 30
0.0
 10
0.7260629921259842
 20
-3.3405354330708663
 30
0.0
 10
0.703724409448819
 20
-3.4372834645669292
 30
0.0
 10
0.703724409448819
 20
-3.4372834645669292
 30
0.0
 10
0.703724409448819
 20
-3.4372834645669292
 30
0.0
 10
0.703724409448819
 20
-3.4372834645669292
 30
0.0
 10
0.0335787401574803
 20
-3.0414488188976381
 30
0.0
 10
0.0335787401574803
 20
-3.0414488188976381
 30
0.0
 10
0.0335787401574803
 20
-3.0414488188976381
 30
0.0
 10
0.0335787401574803
 20
-3.0414488188976381
 30
0.0
 10
0.0559173228346457
 20
-2.9447007874015747
 30
0.0
 10
0.0559173228346457
 20
-2.9447007874015747
 30
0.0
  0
SPLINE
  5
9C
100
AcDbEntity
  8
Additional Graphics
 62
     9
100
AcDbSpline
210
0.0
220
0.0
230
1.0
 70
     1
 71
     3
 72
    20
 73
    16
 74
     0
 42
0.0000000001
 43
0.0000000001
 40
0.0
 40
0.0
 40
0.0
 40
0.0
 40
0.25
 40
0.25
 40
0.25
 40
0.25
 40
0.5
 40
0.5
 40
0.5
 40
0.5
 40
0.75
 40
0.75
 40
0.75
 40
0.75
 40
1.0
 40
1.0
 40
1.0
 40
1.0
 10
0.0335787401574803
 20
-3.0414488188976381
 30
0.0
 10
0.0335787401574803
 20
-3.0414488188976381
 30
0.0
 10
0.703724409448819
 20
-3.4372834645669292
 30
0.0
 10
0.703724409448819
 20
-3.4372834645669292
 30
0.0
 10
0.703724409448819
 20
-3.4372834645669292
 30
0.0
 10
0.703724409448819
 20
-3.4372834645669292
 30
0.0
 10
0.6767677165354331
 20
-3.5321889763779528
 30
0.0
 10
0.6767677165354331
 20
-3.5321889763779528
 30
0.0
 10
0.6767677165354331
 20
-3.5321889763779528
 30
0.0
 10
0.6767677165354331
 20
-3.5321889763779528
 30
0.0
 10
0.0066220472440945
 20
-3.1363543307086617
 30
0.0
 10
0.0066220472440945
 20
-3.1363543307086617
 30
0.0
 10
0.0066220472440945
 20
-3.1363543307086617
 30
0.0
 10
0.0066220472440945
 20
-3.1363543307086617
 30
0.0
 10
0.0335787401574803
 20
-3.0414488188976381
 30
0.0
 10
0.0335787401574803
 20
-3.0414488188976381
 30
0.0
  0
SPLINE
  5
9D
100
AcDbEntity
  8
Additional Graphics
 62
     9
100
AcDbSpline
210
0.0
220
0.0
230
1.0
 70
     1
 71
     3
 72
    20
 73
    16
 74
     0
 42
0.0000000001
 43
0.0000000001
 40
0.0
 40
0.0
 40
0.0
 40
0.0
 40
0.25
 40
0.25
 40
0.25
 40
0.25
 40
0.5
 40
0.5
 40
0.5
 40
0.5
 40
0.75
 40
0.75
 40
0.75
 40
0.75
 40
1.0
 40
1.0
 40
1.0
 40
1.0
 10
0.0066220472440945
 20
-3.1363543307086617
 30
0.0
 10
0.0066220472440945
 20
-3.1363543307086617
 30
0.0
 10
0.6767677165354331
 20
-3.5321889763779528
 30
0.0
 10
0.6767677165354331
 20
-3.5321889763779528
 30
0.0
 10
0.6767677165354331
 20
-3.5321889763779528
 30
0.0
 10
0.6767677165354331
 20
-3.5321889763779528
 30
0.0
 10
0.6453188976377953
 20
-3.6251102362204728
 30
0.0
 10
0.6453188976377953
 20
-3.6251102362204728
 30
0.0
 10
0.6453188976377953
 20
-3.6251102362204728
 30
0.0
 10
0.6453188976377953
 20
-3.6251102362204728
 30
0.0
 10
-0.0248267716535433
 20
-3.2292755905511812
 30
0.0
 10
-0.0248267716535433
 20
-3.2292755905511812
 30
0.0
 10
-0.0248267716535433
 20
-3.2292755905511812
 30
0.0
 10
-0.0248267716535433
 20
-3.2292755905511812
 30
0.0
 10
0.0066220472440945
 20
-3.1363543307086617
 30
0.0
 10
0.0066220472440945
 20
-3.1363543307086617
 30
0.0
  0
SPLINE
  5
9E
100
AcDbEntity
  8
Additional Graphics
 62
     9
100
AcDbSpline
210
0.0
220
0.0
230
1.0
 70
     1
 71
     3
 72
    20
 73
    16
 74
     0
 42
0.0000000001
 43
0.0000000001
 40
0.0
 40
0.0
 40
0.0
 40
0.0
 40
0.25
 40
0.25
 40
0.25
 40
0.25
 40
0.5
 40
0.5
 40
0.5
 40
0.5
 40
0.75
 40
0.75
 40
0.75
 40
0.75
 40
1.0
 40
1.0
 40
1.0
 40
1.0
 10
-0.0248267716535433
 20
-3.2292755905511812
 30
0.0
 10
-0.0248267716535433
 20
-3.2292755905511812
 30
0.0
 10
0.6453188976377953
 20
-3.6251102362204728
 30
0.0
 10
0.6453188976377953
 20
-3.6251102362204728
 30
0.0
 10
0.6453188976377953
 20
-3.6251102362204728
 30
0.0
 10
0.6453188976377953
 20
-3.6251102362204728
 30
0.0
 10
0.609507874015748
 20
-3.715933070866142
 30
0.0
 10
0.609507874015748
 20
-3.715933070866142
 30
0.0
 10
0.609507874015748
 20
-3.715933070866142
 30
0.0
 10
0.609507874015748
 20
-3.715933070866142
 30
0.0
 10
-0.0606377952755906
 20
-3.3200984251968504
 30
0.0
 10
-0.0606377952755906
 20
-3.3200984251968504
 30
0.0
 10
-0.0606377952755906
 20
-3.3200984251968504
 30
0.0
 10
-0.0606377952755906
 20
-3.3200984251968504
 30
0.0
 10
-0.0248267716535433
 20
-3.2292755905511812
 30
0.0
 10
-0.0248267716535433
 20
-3.2292755905511812
 30
0.0
  0
SPLINE
  5
9F
100
AcDbEntity
  8
Additional Graphics
 62
     9
100
AcDbSpline
210
0.0
220
0.0
230
1.0
 70
     1
 71
     3
 72
    20
 73
    16
 74
     0
 42
0.0000000001
 43
0.0000000001
 40
0.0
 40
0.0
 40
0.0
 40
0.0
 40
0.25
 40
0.25
 40
0.25
 40
0.25
 40
0.5
 40
0.5
 40
0.5
 40
0.5
 40
0.75
 40
0.75
 40
0.75
 40
0.75
 40
1.0
 40
1.0
 40
1.0
 40
1.0
 10
-0.0606377952755906
 20
-3.3200984251968504
 30
0.0
 10
-0.0606377952755906
 20
-3.3200984251968504
 30
0.0
 10
0.609507874015748
 20
-3.715933070866142
 30
0.0
 10
0.609507874015748
 20
-3.715933070866142
 30
0.0
 10
0.609507874015748
 20
-3.715933070866142
 30
0.0
 10
0.609507874015748
 20
-3.715933070866142
 30
0.0
 10
0.5694448818897638
 20
-3.8045196850393701
 30
0.0
 10
0.5694448818897638
 20
-3.8045196850393701
 30
0.0
 10
0.5694448818897638
 20
-3.8045196850393701
 30
0.0
 10
0.5694448818897638
 20
-3.8045196850393701
 30
0.0
 10
-0.1007007874015748
 20
-3.4086850393700789
 30
0.0
 10
-0.1007007874015748
 20
-3.4086850393700789
 30
0.0
 10
-0.1007007874015748
 20
-3.4086850393700789
 30
0.0
 10
-0.1007007874015748
 20
-3.4086850393700789
 30
0.0
 10
-0.0606377952755906
 20
-3.3200984251968504
 30
0.0
 10
-0.0606377952755906
 20
-3.3200984251968504
 30
0.0
  0
SPLINE
  5
A0
100
AcDbEntity
  8
Additional Graphics
 62
     9
100
AcDbSpline
210
0.0
220
0.0
230
1.0
 70
     1
 71
     3
 72
    20
 73
    16
 74
     0
 42
0.0000000001
 43
0.0000000001
 40
0.0
 40
0.0
 40
0.0
 40
0.0
 40
0.25
 40
0.25
 40
0.25
 40
0.25
 40
0.5
 40
0.5
 40
0.5
 40
0.5
 40
0.75
 40
0.75
 40
0.75
 40
0.75
 40
1.0
 40
1.0
 40
1.0
 40
1.0
 10
-0.1007007874015748
 20
-3.4086850393700789
 30
0.0
 10
-0.1007007874015748
 20
-3.4086850393700789
 30
0.0
 10
0.5694448818897638
 20
-3.8045196850393701
 30
0.0
 10
0.5694448818897638
 20
-3.8045196850393701
 30
0.0
 10
0.5694448818897638
 20
-3.8045196850393701
 30
0.0
 10
0.5694448818897638
 20
-3.8045196850393701
 30
0.0
 10
0.5252716535433071
 20
-3.8907559055118113
 30
0.0
 10
0.5252716535433071
 20
-3.8907559055118113
 30
0.0
 10
0.5252716535433071
 20
-3.8907559055118113
 30
0.0
 10
0.5252716535433071
 20
-3.8907559055118113
 30
0.0
 10
-0.1448740157480315
 20
-3.4949212598425197
 30
0.0
 10
-0.1448740157480315
 20
-3.4949212598425197
 30
0.0
 10
-0.1448740157480315
 20
-3.4949212598425197
 30
0.0
 10
-0.1448740157480315
 20
-3.4949212598425197
 30
0.0
 10
-0.1007007874015748
 20
-3.4086850393700789
 30
0.0
 10
-0.1007007874015748
 20
-3.4086850393700789
 30
0.0
  0
SPLINE
  5
A1
100
AcDbEntity
  8
Additional Graphics
 62
     9
100
AcDbSpline
210
0.0
220
0.0
230
1.0
 70
     1
 71
     3
 72
    20
 73
    16
 74
     0
 42
0.0000000001
 43
0.0000000001
 40
0.0
 40
0.0
 40
0.0
 40
0.0
 40
0.25
 40
0.25
 40
0.25
 40
0.25
 40
0.5
 40
0.5
 40
0.5
 40
0.5
 40
0.75
 40
0.75
 40
0.75
 40
0.75
 40
1.0
 40
1.0
 40
1.0
 40
1.0
 10
-0.1448740157480315
 20
-3.4949212598425197
 30
0.0
 10
-0.1448740157480315
 20
-3.4949212598425197
 30
0.0
 10
0.5252716535433071
 20
-3.8907559055118113
 30
0.0
 10
0.5252716535433071
 20
-3.8907559055118113
 30
0.0
 10
0.5252716535433071
 20
-3.8907559055118113
 30
0.0
 10
0.5252716535433071
 20
-3.8907559055118113
 30
0.0
 10
0.4771062992125985
 20
-3.9745078740157482
 30
0.0
 10
0.4771062992125985
 20
-3.9745078740157482
 30
0.0
 10
0.4771062992125985
 20
-3.9745078740157482
 30
0.0
 10
0.4771062992125985
 20
-3.9745078740157482
 30
0.0
 10
-0.1930393700787402
 20
-3.5786732283464566
 30
0.0
 10
-0.1930393700787402
 20
-3.5786732283464566
 30
0.0
 10
-0.1930393700787402
 20
-3.5786732283464566
 30
0.0
 10
-0.1930393700787402
 20
-3.5786732283464566
 30
0.0
 10
-0.1448740157480315
 20
-3.4949212598425197
 30
0.0
 10
-0.1448740157480315
 20
-3.4949212598425197
 30
0.0
  0
SPLINE
  5
A2
100
AcDbEntity
  8
Additional Graphics
 62
     9
100
AcDbSpline
210
0.0
220
0.0
230
1.0
 70
     1
 71
     3
 72
    20
 73
    16
 74
     0
 42
0.0000000001
 43
0.0000000001
 40
0.0
 40
0.0
 40
0.0
 40
0.0
 40
0.25
 40
0.25
 40
0.25
 40
0.25
 40
0.5
 40
0.5
 40
0.5
 40
0.5
 40
0.75
 40
0.75
 40
0.75
 40
0.75
 40
1.0
 40
1.0
 40
1.0
 40
1.0
 10
-0.1930393700787402
 20
-3.5786732283464566
 30
0.0
 10
-0.1930393700787402
 20
-3.5786732283464566
 30
0.0
 10
0.4771062992125985
 20
-3.9745078740157482
 30
0.0
 10
0.4771062992125985
 20
-3.9745078740157482
 30
0.0
 10
0.4771062992125985
 20
-3.9745078740157482
 30
0.0
 10
0.4771062992125985
 20
-3.9745078740157482
 30
0.0
 10
0.4250826771653544
 20
-4.0556574803149612
 30
0.0
 10
0.4250826771653544
 20
-4.0556574803149612
 30
0.0
 10
0.4250826771653544
 20
-4.0556574803149612
 30
0.0
 10
0.4250826771653544
 20
-4.0556574803149612
 30
0.0
 10
-0.2450629921259843
 20
-3.6598228346456696
 30
0.0
 10
-0.2450629921259843
 20
-3.6598228346456696
 30
0.0
 10
-0.2450629921259843
 20
-3.6598228346456696
 30
0.0
 10
-0.2450629921259843
 20
-3.6598228346456696
 30
0.0
 10
-0.1930393700787402
 20
-3.5786732283464566
 30
0.0
 10
-0.1930393700787402
 20
-3.5786732283464566
 30
0.0
  0
SPLINE
  5
A3
100
AcDbEntity
  8
Additional Graphics
 62
     9
100
AcDbSpline
210
0.0
220
0.0
230
1.0
 70
     1
 71
     3
 72
    20
 73
    16
 74
     0
 42
0.0000000001
 43
0.0000000001
 40
0.0
 40
0.0
 40
0.0
 40
0.0
 40
0.25
 40
0.25
 40
0.25
 40
0.25
 40
0.5
 40
0.5
 40
0.5
 40
0.5
 40
0.75
 40
0.75
 40
0.75
 40
0.75
 40
1.0
 40
1.0
 40
1.0
 40
1.0
 10
-0.2450629921259843
 20
-3.6598228346456696
 30
0.0
 10
-0.2450629921259843
 20
-3.6598228346456696
 30
0.0
 10
0.4250826771653544
 20
-4.0556574803149612
 30
0.0
 10
0.4250826771653544
 20
-4.0556574803149612
 30
0.0
 10
0.4250826771653544
 20
-4.0556574803149612
 30
0.0
 10
0.4250826771653544
 20
-4.0556574803149612
 30
0.0
 10
0.3693149606299213
 20
-4.134070866141732
 30
0.0
 10
0.3693149606299213
 20
-4.134070866141732
 30
0.0
 10
0.3693149606299213
 20
-4.134070866141732
 30
0.0
 10
0.3693149606299213
 20
-4.134070866141732
 30
0.0
 10
-0.3008307086614173
 20
-3.7382362204724413
 30
0.0
 10
-0.3008307086614173
 20
-3.7382362204724413
 30
0.0
 10
-0.3008307086614173
 20
-3.7382362204724413
 30
0.0
 10
-0.3008307086614173
 20
-3.7382362204724413
 30
0.0
 10
-0.2450629921259843
 20
-3.6598228346456696
 30
0.0
 10
-0.2450629921259843
 20
-3.6598228346456696
 30
0.0
  0
SPLINE
  5
A4
100
AcDbEntity
  8
Additional Graphics
 62
     9
100
AcDbSpline
210
0.0
220
0.0
230
1.0
 70
     1
 71
     3
 72
    20
 73
    16
 74
     0
 42
0.0000000001
 43
0.0000000001
 40
0.0
 40
0.0
 40
0.0
 40
0.0
 40
0.25
 40
0.25
 40
0.25
 40
0.25
 40
0.5
 40
0.5
 40
0.5
 40
0.5
 40
0.75
 40
0.75
 40
0.75
 40
0.75
 40
1.0
 40
1.0
 40
1.0
 40
1.0
 10
-0.3008307086614173
 20
-3.7382362204724413
 30
0.0
 10
-0.3008307086614173
 20
-3.7382362204724413
 30
0.0
 10
0.3693149606299213
 20
-4.134070866141732
 30
0.0
 10
0.3693149606299213
 20
-4.134070866141732
 30
0.0
 10
0.3693149606299213
 20
-4.134070866141732
 30
0.0
 10
0.3693149606299213
 20
-4.134070866141732
 30
0.0
 10
0.3099370078740157
 20
-4.2096299212598423
 30
0.0
 10
0.3099370078740157
 20
-4.2096299212598423
 30
0.0
 10
0.3099370078740157
 20
-4.2096299212598423
 30
0.0
 10
0.3099370078740157
 20
-4.2096299212598423
 30
0.0
 10
-0.3602086614173228
 20
-3.8137952755905515
 30
0.0
 10
-0.3602086614173228
 20
-3.8137952755905515
 30
0.0
 10
-0.3602086614173228
 20
-3.8137952755905515
 30
0.0
 10
-0.3602086614173228
 20
-3.8137952755905515
 30
0.0
 10
-0.3008307086614173
 20
-3.7382362204724413
 30
0.0
 10
-0.3008307086614173
 20
-3.7382362204724413
 30
0.0
  0
SPLINE
  5
A5
100
AcDbEntity
  8
Additional Graphics
 62
     9
100
AcDbSpline
210
0.0
220
0.0
230
1.0
 70
     1
 71
     3
 72
    20
 73
    16
 74
     0
 42
0.0000000001
 43
0.0000000001
 40
0.0
 40
0.0
 40
0.0
 40
0.0
 40
0.25
 40
0.25
 40
0.25
 40
0.25
 40
0.5
 40
0.5
 40
0.5
 40
0.5
 40
0.75
 40
0.75
 40
0.75
 40
0.75
 40
1.0
 40
1.0
 40
1.0
 40
1.0
 10
-0.3602086614173228
 20
-3.8137952755905515
 30
0.0
 10
-0.3602086614173228
 20
-3.8137952755905515
 30
0.0
 10
0.3099370078740157
 20
-4.2096299212598423
 30
0.0
 10
0.3099370078740157
 20
-4.2096299212598423
 30
0.0
 10
0.3099370078740157
 20
-4.2096299212598423
 30
0.0
 10
0.3099370078740157
 20
-4.2096299212598423
 30
0.0
 10
0.2470708661417323
 20
-4.282204724409449
 30
0.0
 10
0.2470708661417323
 20
-4.282204724409449
 30
0.0
 10
0.2470708661417323
 20
-4.282204724409449
 30
0.0
 10
0.2470708661417323
 20
-4.282204724409449
 30
0.0
 10
-0.4230748031496063
 20
-3.8863700787401578
 30
0.0
 10
-0.4230748031496063
 20
-3.8863700787401578
 30
0.0
 10
-0.4230748031496063
 20
-3.8863700787401578
 30
0.0
 10
-0.4230748031496063
 20
-3.8863700787401578
 30
0.0
 10
-0.3602086614173228
 20
-3.8137952755905515
 30
0.0
 10
-0.3602086614173228
 20
-3.8137952755905515
 30
0.0
  0
SPLINE
  5
A6
100
AcDbEntity
  8
Additional Graphics
 62
     9
100
AcDbSpline
210
0.0
220
0.0
230
1.0
 70
     1
 71
     3
 72
    20
 73
    16
 74
     0
 42
0.0000000001
 43
0.0000000001
 40
0.0
 40
0.0
 40
0.0
 40
0.0
 40
0.25
 40
0.25
 40
0.25
 40
0.25
 40
0.5
 40
0.5
 40
0.5
 40
0.5
 40
0.75
 40
0.75
 40
0.75
 40
0.75
 40
1.0
 40
1.0
 40
1.0
 40
1.0
 10
-0.4230748031496063
 20
-3.8863700787401578
 30
0.0
 10
-0.4230748031496063
 20
-3.8863700787401578
 30
0.0
 10
0.2470708661417323
 20
-4.282204724409449
 30
0.0
 10
0.2470708661417323
 20
-4.282204724409449
 30
0.0
 10
0.2470708661417323
 20
-4.282204724409449
 30
0.0
 10
0.2470708661417323
 20
-4.282204724409449
 30
0.0
 10
0.1808464566929134
 20
-4.3516692913385828
 30
0.0
 10
0.1808464566929134
 20
-4.3516692913385828
 30
0.0
 10
0.1808464566929134
 20
-4.3516692913385828
 30
0.0
 10
0.1808464566929134
 20
-4.3516692913385828
 30
0.0
 10
-0.4892992125984252
 20
-3.9558346456692917
 30
0.0
 10
-0.4892992125984252
 20
-3.9558346456692917
 30
0.0
 10
-0.4892992125984252
 20
-3.9558346456692917
 30
0.0
 10
-0.4892992125984252
 20
-3.9558346456692917
 30
0.0
 10
-0.4230748031496063
 20
-3.8863700787401578
 30
0.0
 10
-0.4230748031496063
 20
-3.8863700787401578
 30
0.0
  0
SPLINE
  5
A7
100
AcDbEntity
  8
Additional Graphics
 62
     9
100
AcDbSpline
210
0.0
220
0.0
230
1.0
 70
     1
 71
     3
 72
    20
 73
    16
 74
     0
 42
0.0000000001
 43
0.0000000001
 40
0.0
 40
0.0
 40
0.0
 40
0.0
 40
0.25
 40
0.25
 40
0.25
 40
0.25
 40
0.5
 40
0.5
 40
0.5
 40
0.5
 40
0.75
 40
0.75
 40
0.75
 40
0.75
 40
1.0
 40
1.0
 40
1.0
 40
1.0
 10
-0.4892992125984252
 20
-3.9558346456692917
 30
0.0
 10
-0.4892992125984252
 20
-3.9558346456692917
 30
0.0
 10
0.1808464566929134
 20
-4.3516692913385828
 30
0.0
 10
0.1808464566929134
 20
-4.3516692913385828
 30
0.0
 10
0.1808464566929134
 20
-4.3516692913385828
 30
0.0
 10
0.1808464566929134
 20
-4.3516692913385828
 30
0.0
 10
0.1113818897637795
 20
-4.4178937007874017
 30
0.0
 10
0.1113818897637795
 20
-4.4178937007874017
 30
0.0
 10
0.1113818897637795
 20
-4.4178937007874017
 30
0.0
 10
0.1113818897637795
 20
-4.4178937007874017
 30
0.0
 10
-0.5587637795275591
 20
-4.0220590551181106
 30
0.0
 10
-0.5587637795275591
 20
-4.0220590551181106
 30
0.0
 10
-0.5587637795275591
 20
-4.0220590551181106
 30
0.0
 10
-0.5587637795275591
 20
-4.0220590551181106
 30
0.0
 10
-0.4892992125984252
 20
-3.9558346456692917
 30
0.0
 10
-0.4892992125984252
 20
-3.9558346456692917
 30
0.0
  0
SPLINE
  5
A8
100
AcDbEntity
  8
Additional Graphics
 62
     9
100
AcDbSpline
210
0.0
220
0.0
230
1.0
 70
     1
 71
     3
 72
    20
 73
    16
 74
     0
 42
0.0000000001
 43
0.0000000001
 40
0.0
 40
0.0
 40
0.0
 40
0.0
 40
0.25
 40
0.25
 40
0.25
 40
0.25
 40
0.5
 40
0.5
 40
0.5
 40
0.5
 40
0.75
 40
0.75
 40
0.75
 40
0.75
 40
1.0
 40
1.0
 40
1.0
 40
1.0
 10
-0.5587637795275591
 20
-4.0220590551181106
 30
0.0
 10
-0.5587637795275591
 20
-4.0220590551181106
 30
0.0
 10
0.1113818897637795
 20
-4.4178937007874017
 30
0.0
 10
0.1113818897637795
 20
-4.4178937007874017
 30
0.0
 10
0.1113818897637795
 20
-4.4178937007874017
 30
0.0
 10
0.1113818897637795
 20
-4.4178937007874017
 30
0.0
 10
0.0388070866141732
 20
-4.4807598425196851
 30
0.0
 10
0.0388070866141732
 20
-4.4807598425196851
 30
0.0
 10
0.0388070866141732
 20
-4.4807598425196851
 30
0.0
 10
0.0388070866141732
 20
-4.4807598425196851
 30
0.0
 10
-0.6313385826771654
 20
-4.0849251968503939
 30
0.0
 10
-0.6313385826771654
 20
-4.0849251968503939
 30
0.0
 10
-0.6313385826771654
 20
-4.0849251968503939
 30
0.0
 10
-0.6313385826771654
 20
-4.0849251968503939
 30
0.0
 10
-0.5587637795275591
 20
-4.0220590551181106
 30
0.0
 10
-0.5587637795275591
 20
-4.0220590551181106
 30
0.0
  0
SPLINE
  5
A9
100
AcDbEntity
  8
Additional Graphics
 62
     9
100
AcDbSpline
210
0.0
220
0.0
230
1.0
 70
     1
 71
     3
 72
    20
 73
    16
 74
     0
 42
0.0000000001
 43
0.0000000001
 40
0.0
 40
0.0
 40
0.0
 40
0.0
 40
0.25
 40
0.25
 40
0.25
 40
0.25
 40
0.5
 40
0.5
 40
0.5
 40
0.5
 40
0.75
 40
0.75
 40
0.75
 40
0.75
 40
1.0
 40
1.0
 40
1.0
 40
1.0
 10
-0.6313385826771654
 20
-4.0849251968503939
 30
0.0
 10
-0.6313385826771654
 20
-4.0849251968503939
 30
0.0
 10
0.0388070866141732
 20
-4.4807598425196851
 30
0.0
 10
0.0388070866141732
 20
-4.4807598425196851
 30
0.0
 10
0.0388070866141732
 20
-4.4807598425196851
 30
0.0
 10
0.0388070866141732
 20
-4.4807598425196851
 30
0.0
 10
-0.036751968503937
 20
-4.5401377952755908
 30
0.0
 10
-0.036751968503937
 20
-4.5401377952755908
 30
0.0
 10
-0.036751968503937
 20
-4.5401377952755908
 30
0.0
 10
-0.036751968503937
 20
-4.5401377952755908
 30
0.0
 10
-0.7068976377952756
 20
-4.1443031496062996
 30
0.0
 10
-0.7068976377952756
 20
-4.1443031496062996
 30
0.0
 10
-0.7068976377952756
 20
-4.1443031496062996
 30
0.0
 10
-0.7068976377952756
 20
-4.1443031496062996
 30
0.0
 10
-0.6313385826771654
 20
-4.0849251968503939
 30
0.0
 10
-0.6313385826771654
 20
-4.0849251968503939
 30
0.0
  0
SPLINE
  5
AA
100
AcDbEntity
  8
Additional Graphics
 62
     9
100
AcDbSpline
210
0.0
220
0.0
230
1.0
 70
     1
 71
     3
 72
    20
 73
    16
 74
     0
 42
0.0000000001
 43
0.0000000001
 40
0.0
 40
0.0
 40
0.0
 40
0.0
 40
0.25
 40
0.25
 40
0.25
 40
0.25
 40
0.5
 40
0.5
 40
0.5
 40
0.5
 40
0.75
 40
0.75
 40
0.75
 40
0.75
 40
1.0
 40
1.0
 40
1.0
 40
1.0
 10
-0.7068976377952756
 20
-4.1443031496062996
 30
0.0
 10
-0.7068976377952756
 20
-4.1443031496062996
 30
0.0
 10
-0.036751968503937
 20
-4.5401377952755908
 30
0.0
 10
-0.036751968503937
 20
-4.5401377952755908
 30
0.0
 10
-0.036751968503937
 20
-4.5401377952755908
 30
0.0
 10
-0.036751968503937
 20
-4.5401377952755908
 30
0.0
 10
-0.1151614173228347
 20
-4.5959055118110239
 30
0.0
 10
-0.1151614173228347
 20
-4.5959055118110239
 30
0.0
 10
-0.1151614173228347
 20
-4.5959055118110239
 30
0.0
 10
-0.1151614173228347
 20
-4.5959055118110239
 30
0.0
 10
-0.7853070866141733
 20
-4.2000708661417328
 30
0.0
 10
-0.7853070866141733
 20
-4.2000708661417328
 30
0.0
 10
-0.7853070866141733
 20
-4.2000708661417328
 30
0.0
 10
-0.7853070866141733
 20
-4.2000708661417328
 30
0.0
 10
-0.7068976377952756
 20
-4.1443031496062996
 30
0.0
 10
-0.7068976377952756
 20
-4.1443031496062996
 30
0.0
  0
SPLINE
  5
AB
100
AcDbEntity
  8
Additional Graphics
 62
     9
100
AcDbSpline
210
0.0
220
0.0
230
1.0
 70
     1
 71
     3
 72
    20
 73
    16
 74
     0
 42
0.0000000001
 43
0.0000000001
 40
0.0
 40
0.0
 40
0.0
 40
0.0
 40
0.25
 40
0.25
 40
0.25
 40
0.25
 40
0.5
 40
0.5
 40
0.5
 40
0.5
 40
0.75
 40
0.75
 40
0.75
 40
0.75
 40
1.0
 40
1.0
 40
1.0
 40
1.0
 10
-0.7853070866141733
 20
-4.2000708661417328
 30
0.0
 10
-0.7853070866141733
 20
-4.2000708661417328
 30
0.0
 10
-0.1151614173228347
 20
-4.5959055118110239
 30
0.0
 10
-0.1151614173228347
 20
-4.5959055118110239
 30
0.0
 10
-0.1151614173228347
 20
-4.5959055118110239
 30
0.0
 10
-0.1151614173228347
 20
-4.5959055118110239
 30
0.0
 10
-0.1963110236220473
 20
-4.647929133858268
 30
0.0
 10
-0.1963110236220473
 20
-4.647929133858268
 30
0.0
 10
-0.1963110236220473
 20
-4.647929133858268
 30
0.0
 10
-0.1963110236220473
 20
-4.647929133858268
 30
0.0
 10
-0.8664566929133859
 20
-4.2520944881889768
 30
0.0
 10
-0.8664566929133859
 20
-4.2520944881889768
 30
0.0
 10
-0.8664566929133859
 20
-4.2520944881889768
 30
0.0
 10
-0.8664566929133859
 20
-4.2520944881889768
 30
0.0
 10
-0.7853070866141733
 20
-4.2000708661417328
 30
0.0
 10
-0.7853070866141733
 20
-4.2000708661417328
 30
0.0
  0
SPLINE
  5
AC
100
AcDbEntity
  8
Additional Graphics
 62
     9
100
AcDbSpline
210
0.0
220
0.0
230
1.0
 70
     1
 71
     3
 72
    20
 73
    16
 74
     0
 42
0.0000000001
 43
0.0000000001
 40
0.0
 40
0.0
 40
0.0
 40
0.0
 40
0.25
 40
0.25
 40
0.25
 40
0.25
 40
0.5
 40
0.5
 40
0.5
 40
0.5
 40
0.75
 40
0.75
 40
0.75
 40
0.75
 40
1.0
 40
1.0
 40
1.0
 40
1.0
 10
-0.8664566929133859
 20
-4.2520944881889768
 30
0.0
 10
-0.8664566929133859
 20
-4.2520944881889768
 30
0.0
 10
-0.1963110236220473
 20
-4.647929133858268
 30
0.0
 10
-0.1963110236220473
 20
-4.647929133858268
 30
0.0
 10
-0.1963110236220473
 20
-4.647929133858268
 30
0.0
 10
-0.1963110236220473
 20
-4.647929133858268
 30
0.0
 10
-0.2800551181102363
 20
-4.6960944881889768
 30
0.0
 10
-0.2800551181102363
 20
-4.6960944881889768
 30
0.0
 10
-0.2800551181102363
 20
-4.6960944881889768
 30
0.0
 10
-0.2800551181102363
 20
-4.6960944881889768
 30
0.0
 10
-0.9502007874015749
 20
-4.3002598425196856
 30
0.0
 10
-0.9502007874015749
 20
-4.3002598425196856
 30
0.0
 10
-0.9502007874015749
 20
-4.3002598425196856
 30
0.0
 10
-0.9502007874015749
 20
-4.3002598425196856
 30
0.0
 10
-0.8664566929133859
 20
-4.2520944881889768
 30
0.0
 10
-0.8664566929133859
 20
-4.2520944881889768
 30
0.0
  0
SPLINE
  5
AD
100
AcDbEntity
  8
Additional Graphics
 62
     9
100
AcDbSpline
210
0.0
220
0.0
230
1.0
 70
     1
 71
     3
 72
    20
 73
    16
 74
     0
 42
0.0000000001
 43
0.0000000001
 40
0.0
 40
0.0
 40
0.0
 40
0.0
 40
0.25
 40
0.25
 40
0.25
 40
0.25
 40
0.5
 40
0.5
 40
0.5
 40
0.5
 40
0.75
 40
0.75
 40
0.75
 40
0.75
 40
1.0
 40
1.0
 40
1.0
 40
1.0
 10
-0.9502007874015749
 20
-4.3002598425196856
 30
0.0
 10
-0.9502007874015749
 20
-4.3002598425196856
 30
0.0
 10
-0.2800551181102363
 20
-4.6960944881889768
 30
0.0
 10
-0.2800551181102363
 20
-4.6960944881889768
 30
0.0
 10
-0.2800551181102363
 20
-4.6960944881889768
 30
0.0
 10
-0.2800551181102363
 20
-4.6960944881889768
 30
0.0
 10
-0.3662834645669292
 20
-4.740267716535433
 30
0.0
 10
-0.3662834645669292
 20
-4.740267716535433
 30
0.0
 10
-0.3662834645669292
 20
-4.740267716535433
 30
0.0
 10
-0.3662834645669292
 20
-4.740267716535433
 30
0.0
 10
-1.0364291338582678
 20
-4.3444330708661418
 30
0.0
 10
-1.0364291338582678
 20
-4.3444330708661418
 30
0.0
 10
-1.0364291338582678
 20
-4.3444330708661418
 30
0.0
 10
-1.0364291338582678
 20
-4.3444330708661418
 30
0.0
 10
-0.9502007874015749
 20
-4.3002598425196856
 30
0.0
 10
-0.9502007874015749
 20
-4.3002598425196856
 30
0.0
  0
SPLINE
  5
AE
100
AcDbEntity
  8
Additional Graphics
 62
     9
100
AcDbSpline
210
0.0
220
0.0
230
1.0
 70
     1
 71
     3
 72
    20
 73
    16
 74
     0
 42
0.0000000001
 43
0.0000000001
 40
0.0
 40
0.0
 40
0.0
 40
0.0
 40
0.25
 40
0.25
 40
0.25
 40
0.25
 40
0.5
 40
0.5
 40
0.5
 40
0.5
 40
0.75
 40
0.75
 40
0.75
 40
0.75
 40
1.0
 40
1.0
 40
1.0
 40
1.0
 10
-1.0364291338582678
 20
-4.3444330708661418
 30
0.0
 10
-1.0364291338582678
 20
-4.3444330708661418
 30
0.0
 10
-0.3662834645669292
 20
-4.740267716535433
 30
0.0
 10
-0.3662834645669292
 20
-4.740267716535433
 30
0.0
 10
-0.3662834645669292
 20
-4.740267716535433
 30
0.0
 10
-0.3662834645669292
 20
-4.740267716535433
 30
0.0
 10
-0.4548779527559055
 20
-4.7803307086614177
 30
0.0
 10
-0.4548779527559055
 20
-4.7803307086614177
 30
0.0
 10
-0.4548779527559055
 20
-4.7803307086614177
 30
0.0
 10
-0.4548779527559055
 20
-4.7803307086614177
 30
0.0
 10
-1.125023622047244
 20
-4.3844960629921266
 30
0.0
 10
-1.125023622047244
 20
-4.3844960629921266
 30
0.0
 10
-1.125023622047244
 20
-4.3844960629921266
 30
0.0
 10
-1.125023622047244
 20
-4.3844960629921266
 30
0.0
 10
-1.0364291338582678
 20
-4.3444330708661418
 30
0.0
 10
-1.0364291338582678
 20
-4.3444330708661418
 30
0.0
  0
SPLINE
  5
AF
100
AcDbEntity
  8
Additional Graphics
 62
     9
100
AcDbSpline
210
0.0
220
0.0
230
1.0
 70
     1
 71
     3
 72
    20
 73
    16
 74
     0
 42
0.0000000001
 43
0.0000000001
 40
0.0
 40
0.0
 40
0.0
 40
0.0
 40
0.25
 40
0.25
 40
0.25
 40
0.25
 40
0.5
 40
0.5
 40
0.5
 40
0.5
 40
0.75
 40
0.75
 40
0.75
 40
0.75
 40
1.0
 40
1.0
 40
1.0
 40
1.0
 10
-1.125023622047244
 20
-4.3844960629921266
 30
0.0
 10
-1.125023622047244
 20
-4.3844960629921266
 30
0.0
 10
-0.4548779527559055
 20
-4.7803307086614177
 30
0.0
 10
-0.4548779527559055
 20
-4.7803307086614177
 30
0.0
 10
-0.4548779527559055
 20
-4.7803307086614177
 30
0.0
 10
-0.4548779527559055
 20
-4.7803307086614177
 30
0.0
 10
-0.5456929133858268
 20
-4.816141732283465
 30
0.0
 10
-0.5456929133858268
 20
-4.816141732283465
 30
0.0
 10
-0.5456929133858268
 20
-4.816141732283465
 30
0.0
 10
-0.5456929133858268
 20
-4.816141732283465
 30
0.0
 10
-1.2158385826771654
 20
-4.4203070866141738
 30
0.0
 10
-1.2158385826771654
 20
-4.4203070866141738
 30
0.0
 10
-1.2158385826771654
 20
-4.4203070866141738
 30
0.0
 10
-1.2158385826771654
 20
-4.4203070866141738
 30
0.0
 10
-1.125023622047244
 20
-4.3844960629921266
 30
0.0
 10
-1.125023622047244
 20
-4.3844960629921266
 30
0.0
  0
SPLINE
  5
B0
100
AcDbEntity
  8
Additional Graphics
 62
     9
100
AcDbSpline
210
0.0
220
0.0
230
1.0
 70
     1
 71
     3
 72
    20
 73
    16
 74
     0
 42
0.0000000001
 43
0.0000000001
 40
0.0
 40
0.0
 40
0.0
 40
0.0
 40
0.25
 40
0.25
 40
0.25
 40
0.25
 40
0.5
 40
0.5
 40
0.5
 40
0.5
 40
0.75
 40
0.75
 40
0.75
 40
0.75
 40
1.0
 40
1.0
 40
1.0
 40
1.0
 10
-1.2158385826771654
 20
-4.4203070866141738
 30
0.0
 10
-1.2158385826771654
 20
-4.4203070866141738
 30
0.0
 10
-0.5456929133858268
 20
-4.816141732283465
 30
0.0
 10
-0.5456929133858268
 20
-4.816141732283465
 30
0.0
 10
-0.5456929133858268
 20
-4.816141732283465
 30
0.0
 10
-0.5456929133858268
 20
-4.816141732283465
 30
0.0
 10
-0.6386181102362205
 20
-4.8475905511811028
 30
0.0
 10
-0.6386181102362205
 20
-4.8475905511811028
 30
0.0
 10
-0.6386181102362205
 20
-4.8475905511811028
 30
0.0
 10
-0.6386181102362205
 20
-4.8475905511811028
 30
0.0
 10
-1.3087637795275591
 20
-4.4517559055118108
 30
0.0
 10
-1.3087637795275591
 20
-4.4517559055118108
 30
0.0
 10
-1.3087637795275591
 20
-4.4517559055118108
 30
0.0
 10
-1.3087637795275591
 20
-4.4517559055118108
 30
0.0
 10
-1.2158385826771654
 20
-4.4203070866141738
 30
0.0
 10
-1.2158385826771654
 20
-4.4203070866141738
 30
0.0
  0
SPLINE
  5
B1
100
AcDbEntity
  8
Additional Graphics
 62
     9
100
AcDbSpline
210
0.0
220
0.0
230
1.0
 70
     1
 71
     3
 72
    20
 73
    16
 74
     0
 42
0.0000000001
 43
0.0000000001
 40
0.0
 40
0.0
 40
0.0
 40
0.0
 40
0.25
 40
0.25
 40
0.25
 40
0.25
 40
0.5
 40
0.5
 40
0.5
 40
0.5
 40
0.75
 40
0.75
 40
0.75
 40
0.75
 40
1.0
 40
1.0
 40
1.0
 40
1.0
 10
-1.3087637795275591
 20
-4.4517559055118108
 30
0.0
 10
-1.3087637795275591
 20
-4.4517559055118108
 30
0.0
 10
-0.6386181102362205
 20
-4.8475905511811028
 30
0.0
 10
-0.6386181102362205
 20
-4.8475905511811028
 30
0.0
 10
-0.6386181102362205
 20
-4.8475905511811028
 30
0.0
 10
-0.6386181102362205
 20
-4.8475905511811028
 30
0.0
 10
-0.7335157480314961
 20
-4.8745472440944884
 30
0.0
 10
-0.7335157480314961
 20
-4.8745472440944884
 30
0.0
 10
-0.7335157480314961
 20
-4.8745472440944884
 30
0.0
 10
-0.7335157480314961
 20
-4.8745472440944884
 30
0.0
 10
-1.4036614173228348
 20
-4.4787125984251972
 30
0.0
 10
-1.4036614173228348
 20
-4.4787125984251972
 30
0.0
 10
-1.4036614173228348
 20
-4.4787125984251972
 30
0.0
 10
-1.4036614173228348
 20
-4.4787125984251972
 30
0.0
 10
-1.3087637795275591
 20
-4.4517559055118108
 30
0.0
 10
-1.3087637795275591
 20
-4.4517559055118108
 30
0.0
  0
SPLINE
  5
B2
100
AcDbEntity
  8
Additional Graphics
 62
     9
100
AcDbSpline
210
0.0
220
0.0
230
1.0
 70
     1
 71
     3
 72
    20
 73
    16
 74
     0
 42
0.0000000001
 43
0.0000000001
 40
0.0
 40
0.0
 40
0.0
 40
0.0
 40
0.25
 40
0.25
 40
0.25
 40
0.25
 40
0.5
 40
0.5
 40
0.5
 40
0.5
 40
0.75
 40
0.75
 40
0.75
 40
0.75
 40
1.0
 40
1.0
 40
1.0
 40
1.0
 10
-1.4036614173228348
 20
-4.4787125984251972
 30
0.0
 10
-1.4036614173228348
 20
-4.4787125984251972
 30
0.0
 10
-0.7335157480314961
 20
-4.8745472440944884
 30
0.0
 10
-0.7335157480314961
 20
-4.8745472440944884
 30
0.0
 10
-0.7335157480314961
 20
-4.8745472440944884
 30
0.0
 10
-0.7335157480314961
 20
-4.8745472440944884
 30
0.0
 10
-0.8302716535433071
 20
-4.896885826771654
 30
0.0
 10
-0.8302716535433071
 20
-4.896885826771654
 30
0.0
 10
-0.8302716535433071
 20
-4.896885826771654
 30
0.0
 10
-0.8302716535433071
 20
-4.896885826771654
 30
0.0
 10
-1.5004173228346458
 20
-4.5010511811023628
 30
0.0
 10
-1.5004173228346458
 20
-4.5010511811023628
 30
0.0
 10
-1.5004173228346458
 20
-4.5010511811023628
 30
0.0
 10
-1.5004173228346458
 20
-4.5010511811023628
 30
0.0
 10
-1.4036614173228348
 20
-4.4787125984251972
 30
0.0
 10
-1.4036614173228348
 20
-4.4787125984251972
 30
0.0
  0
SPLINE
  5
B3
100
AcDbEntity
  8
Additional Graphics
 62
     9
100
AcDbSpline
210
0.0
220
0.0
230
1.0
 70
     1
 71
     3
 72
    20
 73
    16
 74
     0
 42
0.0000000001
 43
0.0000000001
 40
0.0
 40
0.0
 40
0.0
 40
0.0
 40
0.25
 40
0.25
 40
0.25
 40
0.25
 40
0.5
 40
0.5
 40
0.5
 40
0.5
 40
0.75
 40
0.75
 40
0.75
 40
0.75
 40
1.0
 40
1.0
 40
1.0
 40
1.0
 10
-1.5004173228346458
 20
-4.5010511811023628
 30
0.0
 10
-1.5004173228346458
 20
-4.5010511811023628
 30
0.0
 10
-0.8302716535433071
 20
-4.896885826771654
 30
0.0
 10
-0.8302716535433071
 20
-4.896885826771654
 30
0.0
 10
-0.8302716535433071
 20
-4.896885826771654
 30
0.0
 10
-0.8302716535433071
 20
-4.896885826771654
 30
0.0
 10
-0.9287440944881891
 20
-4.9144724409448823
 30
0.0
 10
-0.9287440944881891
 20
-4.9144724409448823
 30
0.0
 10
-0.9287440944881891
 20
-4.9144724409448823
 30
0.0
 10
-0.9287440944881891
 20
-4.9144724409448823
 30
0.0
 10
-1.5988897637795276
 20
-4.5186377952755903
 30
0.0
 10
-1.5988897637795276
 20
-4.5186377952755903
 30
0.0
 10
-1.5988897637795276
 20
-4.5186377952755903
 30
0.0
 10
-1.5988897637795276
 20
-4.5186377952755903
 30
0.0
 10
-1.5004173228346458
 20
-4.5010511811023628
 30
0.0
 10
-1.5004173228346458
 20
-4.5010511811023628
 30
0.0
  0
SPLINE
  5
B4
100
AcDbEntity
  8
Additional Graphics
 62
     9
100
AcDbSpline
210
0.0
220
0.0
230
1.0
 70
     1
 71
     3
 72
    20
 73
    16
 74
     0
 42
0.0000000001
 43
0.0000000001
 40
0.0
 40
0.0
 40
0.0
 40
0.0
 40
0.25
 40
0.25
 40
0.25
 40
0.25
 40
0.5
 40
0.5
 40
0.5
 40
0.5
 40
0.75
 40
0.75
 40
0.75
 40
0.75
 40
1.0
 40
1.0
 40
1.0
 40
1.0
 10
-1.5988897637795276
 20
-4.5186377952755903
 30
0.0
 10
-1.5988897637795276
 20
-4.5186377952755903
 30
0.0
 10
-0.9287440944881891
 20
-4.9144724409448823
 30
0.0
 10
-0.9287440944881891
 20
-4.9144724409448823
 30
0.0
 10
-0.9287440944881891
 20
-4.9144724409448823
 30
0.0
 10
-0.9287440944881891
 20
-4.9144724409448823
 30
0.0
 10
-1.0288267716535433
 20
-4.9271968503937007
 30
0.0
 10
-1.0288267716535433
 20
-4.9271968503937007
 30
0.0
 10
-1.0288267716535433
 20
-4.9271968503937007
 30
0.0
 10
-1.0288267716535433
 20
-4.9271968503937007
 30
0.0
 10
-1.6989724409448819
 20
-4.5313622047244095
 30
0.0
 10
-1.6989724409448819
 20
-4.5313622047244095
 30
0.0
 10
-1.6989724409448819
 20
-4.5313622047244095
 30
0.0
 10
-1.6989724409448819
 20
-4.5313622047244095
 30
0.0
 10
-1.5988897637795276
 20
-4.5186377952755903
 30
0.0
 10
-1.5988897637795276
 20
-4.5186377952755903
 30
0.0
  0
SPLINE
  5
B5
100
AcDbEntity
  8
Additional Graphics
 62
     9
100
AcDbSpline
210
0.0
220
0.0
230
1.0
 70
     1
 71
     3
 72
    20
 73
    16
 74
     0
 42
0.0000000001
 43
0.0000000001
 40
0.0
 40
0.0
 40
0.0
 40
0.0
 40
0.25
 40
0.25
 40
0.25
 40
0.25
 40
0.5
 40
0.5
 40
0.5
 40
0.5
 40
0.75
 40
0.75
 40
0.75
 40
0.75
 40
1.0
 40
1.0
 40
1.0
 40
1.0
 10
-1.6989724409448819
 20
-4.5313622047244095
 30
0.0
 10
-1.6989724409448819
 20
-4.5313622047244095
 30
0.0
 10
-1.0288267716535433
 20
-4.9271968503937007
 30
0.0
 10
-1.0288267716535433
 20
-4.9271968503937007
 30
0.0
 10
-1.0288267716535433
 20
-4.9271968503937007
 30
0.0
 10
-1.0288267716535433
 20
-4.9271968503937007
 30
0.0
 10
-1.1303818897637796
 20
-4.9349212598425201
 30
0.0
 10
-1.1303818897637796
 20
-4.9349212598425201
 30
0.0
 10
-1.1303818897637796
 20
-4.9349212598425201
 30
0.0
 10
-1.1303818897637796
 20
-4.9349212598425201
 30
0.0
 10
-1.8005275590551182
 20
-4.5390866141732289
 30
0.0
 10
-1.8005275590551182
 20
-4.5390866141732289
 30
0.0
 10
-1.8005275590551182
 20
-4.5390866141732289
 30
0.0
 10
-1.8005275590551182
 20
-4.5390866141732289
 30
0.0
 10
-1.6989724409448819
 20
-4.5313622047244095
 30
0.0
 10
-1.6989724409448819
 20
-4.5313622047244095
 30
0.0
  0
SPLINE
  5
B6
100
AcDbEntity
  8
Additional Graphics
 62
     9
100
AcDbSpline
210
0.0
220
0.0
230
1.0
 70
     1
 71
     3
 72
    20
 73
    16
 74
     0
 42
0.0000000001
 43
0.0000000001
 40
0.0
 40
0.0
 40
0.0
 40
0.0
 40
0.25
 40
0.25
 40
0.25
 40
0.25
 40
0.5
 40
0.5
 40
0.5
 40
0.5
 40
0.75
 40
0.75
 40
0.75
 40
0.75
 40
1.0
 40
1.0
 40
1.0
 40
1.0
 10
-1.8005275590551182
 20
-4.5390866141732289
 30
0.0
 10
-1.8005275590551182
 20
-4.5390866141732289
 30
0.0
 10
-1.1303818897637796
 20
-4.9349212598425201
 30
0.0
 10
-1.1303818897637796
 20
-4.9349212598425201
 30
0.0
 10
-1.1303818897637796
 20
-4.9349212598425201
 30
0.0
 10
-1.1303818897637796
 20
-4.9349212598425201
 30
0.0
 10
-1.2332913385826771
 20
-4.937527559055118
 30
0.0
 10
-1.2332913385826771
 20
-4.937527559055118
 30
0.0
 10
-1.2332913385826771
 20
-4.937527559055118
 30
0.0
 10
-1.2332913385826771
 20
-4.937527559055118
 30
0.0
 10
-1.9034370078740159
 20
-4.5416929133858268
 30
0.0
 10
-1.9034370078740159
 20
-4.5416929133858268
 30
0.0
 10
-1.9034370078740159
 20
-4.5416929133858268
 30
0.0
 10
-1.9034370078740159
 20
-4.5416929133858268
 30
0.0
 10
-1.8005275590551182
 20
-4.5390866141732289
 30
0.0
 10
-1.8005275590551182
 20
-4.5390866141732289
 30
0.0
  0
SPLINE
  5
B7
100
AcDbEntity
  8
Additional Graphics
370
     5
100
AcDbSpline
210
0.0
220
0.0
230
1.0
 70
     1
 71
     3
 72
   268
 73
   264
 74
     0
 42
0.0000000001
 43
0.0000000001
 40
0.0
 40
0.0
 40
0.0
 40
0.0
 40
0.0151515151515152
 40
0.0151515151515152
 40
0.0151515151515152
 40
0.0151515151515152
 40
0.0303030303030303
 40
0.0303030303030303
 40
0.0303030303030303
 40
0.0303030303030303
 40
0.0454545454545455
 40
0.0454545454545455
 40
0.0454545454545455
 40
0.0454545454545455
 40
0.0606060606060606
 40
0.0606060606060606
 40
0.0606060606060606
 40
0.0606060606060606
 40
0.0757575757575758
 40
0.0757575757575758
 40
0.0757575757575758
 40
0.0757575757575758
 40
0.0909090909090909
 40
0.0909090909090909
 40
0.0909090909090909
 40
0.0909090909090909
 40
0.1060606060606061
 40
0.1060606060606061
 40
0.1060606060606061
 40
0.1060606060606061
 40
0.1212121212121212
 40
0.1212121212121212
 40
0.1212121212121212
 40
0.1212121212121212
 40
0.1363636363636364
 40
0.1363636363636364
 40
0.1363636363636364
 40
0.1363636363636364
 40
0.1515151515151515
 40
0.1515151515151515
 40
0.1515151515151515
 40
0.1515151515151515
 40
0.1666666666666666
 40
0.1666666666666666
 40
0.1666666666666666
 40
0.1666666666666666
 40
0.1818181818181818
 40
0.1818181818181818
 40
0.1818181818181818
 40
0.1818181818181818
 40
0.1969696969696969
 40
0.1969696969696969
 40
0.1969696969696969
 40
0.1969696969696969
 40
0.212121212121212
 40
0.212121212121212
 40
0.212121212121212
 40
0.212121212121212
 40
0.2272727272727272
 40
0.2272727272727272
 40
0.2272727272727272
 40
0.2272727272727272
 40
0.2424242424242423
 40
0.2424242424242423
 40
0.2424242424242423
 40
0.2424242424242423
 40
0.2575757575757575
 40
0.2575757575757575
 40
0.2575757575757575
 40
0.2575757575757575
 40
0.2727272727272726
 40
0.2727272727272726
 40
0.2727272727272726
 40
0.2727272727272726
 40
0.2878787878787877
 40
0.2878787878787877
 40
0.2878787878787877
 40
0.2878787878787877
 40
0.3030303030303029
 40
0.3030303030303029
 40
0.3030303030303029
 40
0.3030303030303029
 40
0.318181818181818
 40
0.318181818181818
 40
0.318181818181818
 40
0.318181818181818
 40
0.3333333333333332
 40
0.3333333333333332
 40
0.3333333333333332
 40
0.3333333333333332
 40
0.3484848484848483
 40
0.3484848484848483
 40
0.3484848484848483
 40
0.3484848484848483
 40
0.3636363636363634
 40
0.3636363636363634
 40
0.3636363636363634
 40
0.3636363636363634
 40
0.3787878787878786
 40
0.3787878787878786
 40
0.3787878787878786
 40
0.3787878787878786
 40
0.3939393939393937
 40
0.3939393939393937
 40
0.3939393939393937
 40
0.3939393939393937
 40
0.4090909090909088
 40
0.4090909090909088
 40
0.4090909090909088
 40
0.4090909090909088
 40
0.424242424242424
 40
0.424242424242424
 40
0.424242424242424
 40
0.424242424242424
 40
0.4393939393939391
 40
0.4393939393939391
 40
0.4393939393939391
 40
0.4393939393939391
 40
0.4545454545454543
 40
0.4545454545454543
 40
0.4545454545454543
 40
0.4545454545454543
 40
0.4696969696969694
 40
0.4696969696969694
 40
0.4696969696969694
 40
0.4696969696969694
 40
0.4848484848484845
 40
0.4848484848484845
 40
0.4848484848484845
 40
0.4848484848484845
 40
0.4999999999999997
 40
0.4999999999999997
 40
0.4999999999999997
 40
0.4999999999999997
 40
0.5151515151515148
 40
0.5151515151515148
 40
0.5151515151515148
 40
0.5151515151515148
 40
0.5303030303030299
 40
0.5303030303030299
 40
0.5303030303030299
 40
0.5303030303030299
 40
0.5454545454545451
 40
0.5454545454545451
 40
0.5454545454545451
 40
0.5454545454545451
 40
0.5606060606060602
 40
0.5606060606060602
 40
0.5606060606060602
 40
0.5606060606060602
 40
0.5757575757575754
 40
0.5757575757575754
 40
0.5757575757575754
 40
0.5757575757575754
 40
0.5909090909090905
 40
0.5909090909090905
 40
0.5909090909090905
 40
0.5909090909090905
 40
0.6060606060606056
 40
0.6060606060606056
 40
0.6060606060606056
 40
0.6060606060606056
 40
0.6212121212121208
 40
0.6212121212121208
 40
0.6212121212121208
 40
0.6212121212121208
 40
0.6363636363636359
 40
0.6363636363636359
 40
0.6363636363636359
 40
0.6363636363636359
 40
0.6515151515151511
 40
0.6515151515151511
 40
0.6515151515151511
 40
0.6515151515151511
 40
0.6666666666666662
 40
0.6666666666666662
 40
0.6666666666666662
 40
0.6666666666666662
 40
0.6818181818181813
 40
0.6818181818181813
 40
0.6818181818181813
 40
0.6818181818181813
 40
0.6969696969696965
 40
0.6969696969696965
 40
0.6969696969696965
 40
0.6969696969696965
 40
0.7121212121212116
 40
0.7121212121212116
 40
0.7121212121212116
 40
0.7121212121212116
 40
0.7272727272727267
 40
0.7272727272727267
 40
0.7272727272727267
 40
0.7272727272727267
 40
0.7424242424242419
 40
0.7424242424242419
 40
0.7424242424242419
 40
0.7424242424242419
 40
0.757575757575757
 40
0.757575757575757
 40
0.757575757575757
 40
0.757575757575757
 40
0.7727272727272722
 40
0.7727272727272722
 40
0.7727272727272722
 40
0.7727272727272722
 40
0.7878787878787873
 40
0.7878787878787873
 40
0.7878787878787873
 40
0.7878787878787873
 40
0.8030303030303024
 40
0.8030303030303024
 40
0.8030303030303024
 40
0.8030303030303024
 40
0.8181818181818176
 40
0.8181818181818176
 40
0.8181818181818176
 40
0.8181818181818176
 40
0.8333333333333327
 40
0.8333333333333327
 40
0.8333333333333327
 40
0.8333333333333327
 40
0.8484848484848478
 40
0.8484848484848478
 40
0.8484848484848478
 40
0.8484848484848478
 40
0.863636363636363
 40
0.863636363636363
 40
0.863636363636363
 40
0.863636363636363
 40
0.8787878787878781
 40
0.8787878787878781
 40
0.8787878787878781
 40
0.8787878787878781
 40
0.8939393939393933
 40
0.8939393939393933
 40
0.8939393939393933
 40
0.8939393939393933
 40
0.9090909090909084
 40
0.9090909090909084
 40
0.9090909090909084
 40
0.9090909090909084
 40
0.9242424242424235
 40
0.9242424242424235
 40
0.9242424242424235
 40
0.9242424242424235
 40
0.9393939393939387
 40
0.9393939393939387
 40
0.9393939393939387
 40
0.9393939393939387
 40
0.9545454545454538
 40
0.9545454545454538
 40
0.9545454545454538
 40
0.9545454545454538
 40
0.969696969696969
 40
0.969696969696969
 40
0.969696969696969
 40
0.969696969696969
 40
0.9848484848484841
 40
0.9848484848484841
 40
0.9848484848484841
 40
0.9848484848484841
 40
1.0
 40
1.0
 40
1.0
 40
1.0
 10
0.0965590551181102
 20
-2.5416889763779529
 30
0.0
 10
0.0965590551181102
 20
-2.5416889763779529
 30
0.0
 10
0.7667047244094488
 20
-2.937523622047244
 30
0.0
 10
0.7667047244094488
 20
-2.937523622047244
 30
0.0
 10
0.7667047244094488
 20
-2.937523622047244
 30
0.0
 10
0.7667047244094488
 20
-2.937523622047244
 30
0.0
 10
0.7640984251968505
 20
-3.0404212598425198
 30
0.0
 10
0.7640984251968505
 20
-3.0404212598425198
 30
0.0
 10
0.7640984251968505
 20
-3.0404212598425198
 30
0.0
 10
0.7640984251968505
 20
-3.0404212598425198
 30
0.0
 10
0.7563740157480315
 20
-3.1419763779527559
 30
0.0
 10
0.7563740157480315
 20
-3.1419763779527559
 30
0.0
 10
0.7563740157480315
 20
-3.1419763779527559
 30
0.0
 10
0.7563740157480315
 20
-3.1419763779527559
 30
0.0
 10
0.7436496062992126
 20
-3.2420511811023625
 30
0.0
 10
0.7436496062992126
 20
-3.2420511811023625
 30
0.0
 10
0.7436496062992126
 20
-3.2420511811023625
 30
0.0
 10
0.7436496062992126
 20
-3.2420511811023625
 30
0.0
 10
0.7260629921259842
 20
-3.3405354330708663
 30
0.0
 10
0.7260629921259842
 20
-3.3405354330708663
 30
0.0
 10
0.7260629921259842
 20
-3.3405354330708663
 30
0.0
 10
0.7260629921259842
 20
-3.3405354330708663
 30
0.0
 10
0.703724409448819
 20
-3.4372834645669292
 30
0.0
 10
0.703724409448819
 20
-3.4372834645669292
 30
0.0
 10
0.703724409448819
 20
-3.4372834645669292
 30
0.0
 10
0.703724409448819
 20
-3.4372834645669292
 30
0.0
 10
0.6767677165354331
 20
-3.5321889763779528
 30
0.0
 10
0.6767677165354331
 20
-3.5321889763779528
 30
0.0
 10
0.6767677165354331
 20
-3.5321889763779528
 30
0.0
 10
0.6767677165354331
 20
-3.5321889763779528
 30
0.0
 10
0.6453188976377953
 20
-3.6251102362204728
 30
0.0
 10
0.6453188976377953
 20
-3.6251102362204728
 30
0.0
 10
0.6453188976377953
 20
-3.6251102362204728
 30
0.0
 10
0.6453188976377953
 20
-3.6251102362204728
 30
0.0
 10
0.609507874015748
 20
-3.715933070866142
 30
0.0
 10
0.609507874015748
 20
-3.715933070866142
 30
0.0
 10
0.609507874015748
 20
-3.715933070866142
 30
0.0
 10
0.609507874015748
 20
-3.715933070866142
 30
0.0
 10
0.5694448818897638
 20
-3.8045196850393701
 30
0.0
 10
0.5694448818897638
 20
-3.8045196850393701
 30
0.0
 10
0.5694448818897638
 20
-3.8045196850393701
 30
0.0
 10
0.5694448818897638
 20
-3.8045196850393701
 30
0.0
 10
0.5252716535433071
 20
-3.8907559055118113
 30
0.0
 10
0.5252716535433071
 20
-3.8907559055118113
 30
0.0
 10
0.5252716535433071
 20
-3.8907559055118113
 30
0.0
 10
0.5252716535433071
 20
-3.8907559055118113
 30
0.0
 10
0.4771062992125985
 20
-3.9745078740157482
 30
0.0
 10
0.4771062992125985
 20
-3.9745078740157482
 30
0.0
 10
0.4771062992125985
 20
-3.9745078740157482
 30
0.0
 10
0.4771062992125985
 20
-3.9745078740157482
 30
0.0
 10
0.4250826771653544
 20
-4.0556574803149612
 30
0.0
 10
0.4250826771653544
 20
-4.0556574803149612
 30
0.0
 10
0.4250826771653544
 20
-4.0556574803149612
 30
0.0
 10
0.4250826771653544
 20
-4.0556574803149612
 30
0.0
 10
0.3693149606299213
 20
-4.134070866141732
 30
0.0
 10
0.3693149606299213
 20
-4.134070866141732
 30
0.0
 10
0.3693149606299213
 20
-4.134070866141732
 30
0.0
 10
0.3693149606299213
 20
-4.134070866141732
 30
0.0
 10
0.3099370078740157
 20
-4.2096299212598423
 30
0.0
 10
0.3099370078740157
 20
-4.2096299212598423
 30
0.0
 10
0.3099370078740157
 20
-4.2096299212598423
 30
0.0
 10
0.3099370078740157
 20
-4.2096299212598423
 30
0.0
 10
0.2470708661417323
 20
-4.282204724409449
 30
0.0
 10
0.2470708661417323
 20
-4.282204724409449
 30
0.0
 10
0.2470708661417323
 20
-4.282204724409449
 30
0.0
 10
0.2470708661417323
 20
-4.282204724409449
 30
0.0
 10
0.1808464566929134
 20
-4.3516692913385828
 30
0.0
 10
0.1808464566929134
 20
-4.3516692913385828
 30
0.0
 10
0.1808464566929134
 20
-4.3516692913385828
 30
0.0
 10
0.1808464566929134
 20
-4.3516692913385828
 30
0.0
 10
0.1113818897637795
 20
-4.4178937007874017
 30
0.0
 10
0.1113818897637795
 20
-4.4178937007874017
 30
0.0
 10
0.1113818897637795
 20
-4.4178937007874017
 30
0.0
 10
0.1113818897637795
 20
-4.4178937007874017
 30
0.0
 10
0.0388070866141732
 20
-4.4807598425196851
 30
0.0
 10
0.0388070866141732
 20
-4.4807598425196851
 30
0.0
 10
0.0388070866141732
 20
-4.4807598425196851
 30
0.0
 10
0.0388070866141732
 20
-4.4807598425196851
 30
0.0
 10
-0.036751968503937
 20
-4.5401377952755908
 30
0.0
 10
-0.036751968503937
 20
-4.5401377952755908
 30
0.0
 10
-0.036751968503937
 20
-4.5401377952755908
 30
0.0
 10
-0.036751968503937
 20
-4.5401377952755908
 30
0.0
 10
-0.1151614173228347
 20
-4.5959055118110239
 30
0.0
 10
-0.1151614173228347
 20
-4.5959055118110239
 30
0.0
 10
-0.1151614173228347
 20
-4.5959055118110239
 30
0.0
 10
-0.1151614173228347
 20
-4.5959055118110239
 30
0.0
 10
-0.1963110236220473
 20
-4.647929133858268
 30
0.0
 10
-0.1963110236220473
 20
-4.647929133858268
 30
0.0
 10
-0.1963110236220473
 20
-4.647929133858268
 30
0.0
 10
-0.1963110236220473
 20
-4.647929133858268
 30
0.0
 10
-0.2800551181102363
 20
-4.6960944881889768
 30
0.0
 10
-0.2800551181102363
 20
-4.6960944881889768
 30
0.0
 10
-0.2800551181102363
 20
-4.6960944881889768
 30
0.0
 10
-0.2800551181102363
 20
-4.6960944881889768
 30
0.0
 10
-0.3662834645669292
 20
-4.740267716535433
 30
0.0
 10
-0.3662834645669292
 20
-4.740267716535433
 30
0.0
 10
-0.3662834645669292
 20
-4.740267716535433
 30
0.0
 10
-0.3662834645669292
 20
-4.740267716535433
 30
0.0
 10
-0.4548779527559055
 20
-4.7803307086614177
 30
0.0
 10
-0.4548779527559055
 20
-4.7803307086614177
 30
0.0
 10
-0.4548779527559055
 20
-4.7803307086614177
 30
0.0
 10
-0.4548779527559055
 20
-4.7803307086614177
 30
0.0
 10
-0.5456929133858268
 20
-4.816141732283465
 30
0.0
 10
-0.5456929133858268
 20
-4.816141732283465
 30
0.0
 10
-0.5456929133858268
 20
-4.816141732283465
 30
0.0
 10
-0.5456929133858268
 20
-4.816141732283465
 30
0.0
 10
-0.6386181102362205
 20
-4.8475905511811028
 30
0.0
 10
-0.6386181102362205
 20
-4.8475905511811028
 30
0.0
 10
-0.6386181102362205
 20
-4.8475905511811028
 30
0.0
 10
-0.6386181102362205
 20
-4.8475905511811028
 30
0.0
 10
-0.7335157480314961
 20
-4.8745472440944884
 30
0.0
 10
-0.7335157480314961
 20
-4.8745472440944884
 30
0.0
 10
-0.7335157480314961
 20
-4.8745472440944884
 30
0.0
 10
-0.7335157480314961
 20
-4.8745472440944884
 30
0.0
 10
-0.8302716535433071
 20
-4.896885826771654
 30
0.0
 10
-0.8302716535433071
 20
-4.896885826771654
 30
0.0
 10
-0.8302716535433071
 20
-4.896885826771654
 30
0.0
 10
-0.8302716535433071
 20
-4.896885826771654
 30
0.0
 10
-0.9287440944881891
 20
-4.9144724409448823
 30
0.0
 10
-0.9287440944881891
 20
-4.9144724409448823
 30
0.0
 10
-0.9287440944881891
 20
-4.9144724409448823
 30
0.0
 10
-0.9287440944881891
 20
-4.9144724409448823
 30
0.0
 10
-1.0288267716535433
 20
-4.9271968503937007
 30
0.0
 10
-1.0288267716535433
 20
-4.9271968503937007
 30
0.0
 10
-1.0288267716535433
 20
-4.9271968503937007
 30
0.0
 10
-1.0288267716535433
 20
-4.9271968503937007
 30
0.0
 10
-1.1303818897637796
 20
-4.9349212598425201
 30
0.0
 10
-1.1303818897637796
 20
-4.9349212598425201
 30
0.0
 10
-1.1303818897637796
 20
-4.9349212598425201
 30
0.0
 10
-1.1303818897637796
 20
-4.9349212598425201
 30
0.0
 10
-1.2332913385826771
 20
-4.937527559055118
 30
0.0
 10
-1.2332913385826771
 20
-4.937527559055118
 30
0.0
 10
-1.2332913385826771
 20
-4.937527559055118
 30
0.0
 10
-1.2332913385826771
 20
-4.937527559055118
 30
0.0
 10
-1.9034370078740159
 20
-4.5416929133858268
 30
0.0
 10
-1.9034370078740159
 20
-4.5416929133858268
 30
0.0
 10
-1.9034370078740159
 20
-4.5416929133858268
 30
0.0
 10
-1.9034370078740159
 20
-4.5416929133858268
 30
0.0
 10
-1.8005275590551182
 20
-4.5390866141732289
 30
0.0
 10
-1.8005275590551182
 20
-4.5390866141732289
 30
0.0
 10
-1.8005275590551182
 20
-4.5390866141732289
 30
0.0
 10
-1.8005275590551182
 20
-4.5390866141732289
 30
0.0
 10
-1.6989724409448819
 20
-4.5313622047244095
 30
0.0
 10
-1.6989724409448819
 20
-4.5313622047244095
 30
0.0
 10
-1.6989724409448819
 20
-4.5313622047244095
 30
0.0
 10
-1.6989724409448819
 20
-4.5313622047244095
 30
0.0
 10
-1.5988897637795276
 20
-4.5186377952755903
 30
0.0
 10
-1.5988897637795276
 20
-4.5186377952755903
 30
0.0
 10
-1.5988897637795276
 20
-4.5186377952755903
 30
0.0
 10
-1.5988897637795276
 20
-4.5186377952755903
 30
0.0
 10
-1.5004173228346458
 20
-4.5010511811023628
 30
0.0
 10
-1.5004173228346458
 20
-4.5010511811023628
 30
0.0
 10
-1.5004173228346458
 20
-4.5010511811023628
 30
0.0
 10
-1.5004173228346458
 20
-4.5010511811023628
 30
0.0
 10
-1.4036614173228348
 20
-4.4787125984251972
 30
0.0
 10
-1.4036614173228348
 20
-4.4787125984251972
 30
0.0
 10
-1.4036614173228348
 20
-4.4787125984251972
 30
0.0
 10
-1.4036614173228348
 20
-4.4787125984251972
 30
0.0
 10
-1.3087637795275591
 20
-4.4517559055118108
 30
0.0
 10
-1.3087637795275591
 20
-4.4517559055118108
 30
0.0
 10
-1.3087637795275591
 20
-4.4517559055118108
 30
0.0
 10
-1.3087637795275591
 20
-4.4517559055118108
 30
0.0
 10
-1.2158385826771654
 20
-4.4203070866141738
 30
0.0
 10
-1.2158385826771654
 20
-4.4203070866141738
 30
0.0
 10
-1.2158385826771654
 20
-4.4203070866141738
 30
0.0
 10
-1.2158385826771654
 20
-4.4203070866141738
 30
0.0
 10
-1.125023622047244
 20
-4.3844960629921266
 30
0.0
 10
-1.125023622047244
 20
-4.3844960629921266
 30
0.0
 10
-1.125023622047244
 20
-4.3844960629921266
 30
0.0
 10
-1.125023622047244
 20
-4.3844960629921266
 30
0.0
 10
-1.0364291338582678
 20
-4.3444330708661418
 30
0.0
 10
-1.0364291338582678
 20
-4.3444330708661418
 30
0.0
 10
-1.0364291338582678
 20
-4.3444330708661418
 30
0.0
 10
-1.0364291338582678
 20
-4.3444330708661418
 30
0.0
 10
-0.9502007874015749
 20
-4.3002598425196856
 30
0.0
 10
-0.9502007874015749
 20
-4.3002598425196856
 30
0.0
 10
-0.9502007874015749
 20
-4.3002598425196856
 30
0.0
 10
-0.9502007874015749
 20
-4.3002598425196856
 30
0.0
 10
-0.8664566929133859
 20
-4.2520944881889768
 30
0.0
 10
-0.8664566929133859
 20
-4.2520944881889768
 30
0.0
 10
-0.8664566929133859
 20
-4.2520944881889768
 30
0.0
 10
-0.8664566929133859
 20
-4.2520944881889768
 30
0.0
 10
-0.7853070866141733
 20
-4.2000708661417328
 30
0.0
 10
-0.7853070866141733
 20
-4.2000708661417328
 30
0.0
 10
-0.7853070866141733
 20
-4.2000708661417328
 30
0.0
 10
-0.7853070866141733
 20
-4.2000708661417328
 30
0.0
 10
-0.7068976377952756
 20
-4.1443031496062996
 30
0.0
 10
-0.7068976377952756
 20
-4.1443031496062996
 30
0.0
 10
-0.7068976377952756
 20
-4.1443031496062996
 30
0.0
 10
-0.7068976377952756
 20
-4.1443031496062996
 30
0.0
 10
-0.6313385826771654
 20
-4.0849251968503939
 30
0.0
 10
-0.6313385826771654
 20
-4.0849251968503939
 30
0.0
 10
-0.6313385826771654
 20
-4.0849251968503939
 30
0.0
 10
-0.6313385826771654
 20
-4.0849251968503939
 30
0.0
 10
-0.5587637795275591
 20
-4.0220590551181106
 30
0.0
 10
-0.5587637795275591
 20
-4.0220590551181106
 30
0.0
 10
-0.5587637795275591
 20
-4.0220590551181106
 30
0.0
 10
-0.5587637795275591
 20
-4.0220590551181106
 30
0.0
 10
-0.4892992125984252
 20
-3.9558346456692917
 30
0.0
 10
-0.4892992125984252
 20
-3.9558346456692917
 30
0.0
 10
-0.4892992125984252
 20
-3.9558346456692917
 30
0.0
 10
-0.4892992125984252
 20
-3.9558346456692917
 30
0.0
 10
-0.4230748031496063
 20
-3.8863700787401578
 30
0.0
 10
-0.4230748031496063
 20
-3.8863700787401578
 30
0.0
 10
-0.4230748031496063
 20
-3.8863700787401578
 30
0.0
 10
-0.4230748031496063
 20
-3.8863700787401578
 30
0.0
 10
-0.3602086614173228
 20
-3.8137952755905515
 30
0.0
 10
-0.3602086614173228
 20
-3.8137952755905515
 30
0.0
 10
-0.3602086614173228
 20
-3.8137952755905515
 30
0.0
 10
-0.3602086614173228
 20
-3.8137952755905515
 30
0.0
 10
-0.3008307086614173
 20
-3.7382362204724413
 30
0.0
 10
-0.3008307086614173
 20
-3.7382362204724413
 30
0.0
 10
-0.3008307086614173
 20
-3.7382362204724413
 30
0.0
 10
-0.3008307086614173
 20
-3.7382362204724413
 30
0.0
 10
-0.2450629921259843
 20
-3.6598228346456696
 30
0.0
 10
-0.2450629921259843
 20
-3.6598228346456696
 30
0.0
 10
-0.2450629921259843
 20
-3.6598228346456696
 30
0.0
 10
-0.2450629921259843
 20
-3.6598228346456696
 30
0.0
 10
-0.1930393700787402
 20
-3.5786732283464566
 30
0.0
 10
-0.1930393700787402
 20
-3.5786732283464566
 30
0.0
 10
-0.1930393700787402
 20
-3.5786732283464566
 30
0.0
 10
-0.1930393700787402
 20
-3.5786732283464566
 30
0.0
 10
-0.1448740157480315
 20
-3.4949212598425197
 30
0.0
 10
-0.1448740157480315
 20
-3.4949212598425197
 30
0.0
 10
-0.1448740157480315
 20
-3.4949212598425197
 30
0.0
 10
-0.1448740157480315
 20
-3.4949212598425197
 30
0.0
 10
-0.1007007874015748
 20
-3.4086850393700789
 30
0.0
 10
-0.1007007874015748
 20
-3.4086850393700789
 30
0.0
 10
-0.1007007874015748
 20
-3.4086850393700789
 30
0.0
 10
-0.1007007874015748
 20
-3.4086850393700789
 30
0.0
 10
-0.0606377952755906
 20
-3.3200984251968504
 30
0.0
 10
-0.0606377952755906
 20
-3.3200984251968504
 30
0.0
 10
-0.0606377952755906
 20
-3.3200984251968504
 30
0.0
 10
-0.0606377952755906
 20
-3.3200984251968504
 30
0.0
 10
-0.0248267716535433
 20
-3.2292755905511812
 30
0.0
 10
-0.0248267716535433
 20
-3.2292755905511812
 30
0.0
 10
-0.0248267716535433
 20
-3.2292755905511812
 30
0.0
 10
-0.0248267716535433
 20
-3.2292755905511812
 30
0.0
 10
0.0066220472440945
 20
-3.1363543307086617
 30
0.0
 10
0.0066220472440945
 20
-3.1363543307086617
 30
0.0
 10
0.0066220472440945
 20
-3.1363543307086617
 30
0.0
 10
0.0066220472440945
 20
-3.1363543307086617
 30
0.0
 10
0.0335787401574803
 20
-3.0414488188976381
 30
0.0
 10
0.0335787401574803
 20
-3.0414488188976381
 30
0.0
 10
0.0335787401574803
 20
-3.0414488188976381
 30
0.0
 10
0.0335787401574803
 20
-3.0414488188976381
 30
0.0
 10
0.0559173228346457
 20
-2.9447007874015747
 30
0.0
 10
0.0559173228346457
 20
-2.9447007874015747
 30
0.0
 10
0.0559173228346457
 20
-2.9447007874015747
 30
0.0
 10
0.0559173228346457
 20
-2.9447007874015747
 30
0.0
 10
0.073503937007874
 20
-2.8462165354330708
 30
0.0
 10
0.073503937007874
 20
-2.8462165354330708
 30
0.0
 10
0.073503937007874
 20
-2.8462165354330708
 30
0.0
 10
0.073503937007874
 20
-2.8462165354330708
 30
0.0
 10
0.0862283464566929
 20
-2.7461417322834647
 30
0.0
 10
0.0862283464566929
 20
-2.7461417322834647
 30
0.0
 10
0.0862283464566929
 20
-2.7461417322834647
 30
0.0
 10
0.0862283464566929
 20
-2.7461417322834647
 30
0.0
 10
0.0939527559055118
 20
-2.6445866141732286
 30
0.0
 10
0.0939527559055118
 20
-2.6445866141732286
 30
0.0
 10
0.0939527559055118
 20
-2.6445866141732286
 30
0.0
 10
0.0939527559055118
 20
-2.6445866141732286
 30
0.0
 10
0.0965590551181102
 20
-2.5416889763779529
 30
0.0
 10
0.0965590551181102
 20
-2.5416889763779529
 30
0.0
  0
SPLINE
  5
B8
100
AcDbEntity
  8
Additional Graphics
 62
     9
100
AcDbSpline
210
0.0
220
0.0
230
1.0
 70
     1
 71
     3
 72
    20
 73
    16
 74
     0
 42
0.0000000001
 43
0.0000000001
 40
0.0
 40
0.0
 40
0.0
 40
0.0
 40
0.25
 40
0.25
 40
0.25
 40
0.25
 40
0.5
 40
0.5
 40
0.5
 40
0.5
 40
0.75
 40
0.75
 40
0.75
 40
0.75
 40
1.0
 40
1.0
 40
1.0
 40
1.0
 10
-1.9034370078740159
 20
-4.5416929133858268
 30
0.0
 10
-1.9034370078740159
 20
-4.5416929133858268
 30
0.0
 10
-1.2332913385826771
 20
-4.937527559055118
 30
0.0
 10
-1.2332913385826771
 20
-4.937527559055118
 30
0.0
 10
-1.2332913385826771
 20
-4.937527559055118
 30
0.0
 10
-1.2332913385826771
 20
-4.937527559055118
 30
0.0
 10
-1.2332913385826771
 20
-5.312527559055118
 30
0.0
 10
-1.2332913385826771
 20
-5.312527559055118
 30
0.0
 10
-1.2332913385826771
 20
-5.312527559055118
 30
0.0
 10
-1.2332913385826771
 20
-5.312527559055118
 30
0.0
 10
-1.9034370078740159
 20
-4.9166929133858268
 30
0.0
 10
-1.9034370078740159
 20
-4.9166929133858268
 30
0.0
 10
-1.9034370078740159
 20
-4.9166929133858268
 30
0.0
 10
-1.9034370078740159
 20
-4.9166929133858268
 30
0.0
 10
-1.9034370078740159
 20
-4.5416929133858268
 30
0.0
 10
-1.9034370078740159
 20
-4.5416929133858268
 30
0.0
  0
SPLINE
  5
B9
100
AcDbEntity
  8
Additional Graphics
370
     5
100
AcDbSpline
210
0.0
220
0.0
230
1.0
 70
     1
 71
     3
 72
    20
 73
    16
 74
     0
 42
0.0000000001
 43
0.0000000001
 40
0.0
 40
0.0
 40
0.0
 40
0.0
 40
0.25
 40
0.25
 40
0.25
 40
0.25
 40
0.5
 40
0.5
 40
0.5
 40
0.5
 40
0.75
 40
0.75
 40
0.75
 40
0.75
 40
1.0
 40
1.0
 40
1.0
 40
1.0
 10
-1.9034370078740159
 20
-4.5416929133858268
 30
0.0
 10
-1.9034370078740159
 20
-4.5416929133858268
 30
0.0
 10
-1.2332913385826771
 20
-4.937527559055118
 30
0.0
 10
-1.2332913385826771
 20
-4.937527559055118
 30
0.0
 10
-1.2332913385826771
 20
-4.937527559055118
 30
0.0
 10
-1.2332913385826771
 20
-4.937527559055118
 30
0.0
 10
-1.2332913385826771
 20
-5.312527559055118
 30
0.0
 10
-1.2332913385826771
 20
-5.312527559055118
 30
0.0
 10
-1.2332913385826771
 20
-5.312527559055118
 30
0.0
 10
-1.2332913385826771
 20
-5.312527559055118
 30
0.0
 10
-1.9034370078740159
 20
-4.9166929133858268
 30
0.0
 10
-1.9034370078740159
 20
-4.9166929133858268
 30
0.0
 10
-1.9034370078740159
 20
-4.9166929133858268
 30
0.0
 10
-1.9034370078740159
 20
-4.9166929133858268
 30
0.0
 10
-1.9034370078740159
 20
-4.5416929133858268
 30
0.0
 10
-1.9034370078740159
 20
-4.5416929133858268
 30
0.0
  0
SPLINE
  5
BA
100
AcDbEntity
  8
Additional Graphics
 62
     9
100
AcDbSpline
210
0.0
220
0.0
230
1.0
 70
     1
 71
     3
 72
    20
 73
    16
 74
     0
 42
0.0000000001
 43
0.0000000001
 40
0.0
 40
0.0
 40
0.0
 40
0.0
 40
0.25
 40
0.25
 40
0.25
 40
0.25
 40
0.5
 40
0.5
 40
0.5
 40
0.5
 40
0.75
 40
0.75
 40
0.75
 40
0.75
 40
1.0
 40
1.0
 40
1.0
 40
1.0
 10
-1.9034370078740159
 20
-4.9166929133858268
 30
0.0
 10
-1.9034370078740159
 20
-4.9166929133858268
 30
0.0
 10
-1.2332913385826771
 20
-5.312527559055118
 30
0.0
 10
-1.2332913385826771
 20
-5.312527559055118
 30
0.0
 10
-1.2332913385826771
 20
-5.312527559055118
 30
0.0
 10
-1.2332913385826771
 20
-5.312527559055118
 30
0.0
 10
-1.7332913385826771
 20
-5.312527559055118
 30
0.0
 10
-1.7332913385826771
 20
-5.312527559055118
 30
0.0
 10
-1.7332913385826771
 20
-5.312527559055118
 30
0.0
 10
-1.7332913385826771
 20
-5.312527559055118
 30
0.0
 10
-2.4034370078740159
 20
-4.9166929133858268
 30
0.0
 10
-2.4034370078740159
 20
-4.9166929133858268
 30
0.0
 10
-2.4034370078740159
 20
-4.9166929133858268
 30
0.0
 10
-2.4034370078740159
 20
-4.9166929133858268
 30
0.0
 10
-1.9034370078740159
 20
-4.9166929133858268
 30
0.0
 10
-1.9034370078740159
 20
-4.9166929133858268
 30
0.0
  0
SPLINE
  5
BB
100
AcDbEntity
  8
Additional Graphics
370
     5
100
AcDbSpline
210
0.0
220
0.0
230
1.0
 70
     1
 71
     3
 72
    20
 73
    16
 74
     0
 42
0.0000000001
 43
0.0000000001
 40
0.0
 40
0.0
 40
0.0
 40
0.0
 40
0.25
 40
0.25
 40
0.25
 40
0.25
 40
0.5
 40
0.5
 40
0.5
 40
0.5
 40
0.75
 40
0.75
 40
0.75
 40
0.75
 40
1.0
 40
1.0
 40
1.0
 40
1.0
 10
-1.9034370078740159
 20
-4.9166929133858268
 30
0.0
 10
-1.9034370078740159
 20
-4.9166929133858268
 30
0.0
 10
-1.2332913385826771
 20
-5.312527559055118
 30
0.0
 10
-1.2332913385826771
 20
-5.312527559055118
 30
0.0
 10
-1.2332913385826771
 20
-5.312527559055118
 30
0.0
 10
-1.2332913385826771
 20
-5.312527559055118
 30
0.0
 10
-1.7332913385826771
 20
-5.312527559055118
 30
0.0
 10
-1.7332913385826771
 20
-5.312527559055118
 30
0.0
 10
-1.7332913385826771
 20
-5.312527559055118
 30
0.0
 10
-1.7332913385826771
 20
-5.312527559055118
 30
0.0
 10
-2.4034370078740159
 20
-4.9166929133858268
 30
0.0
 10
-2.4034370078740159
 20
-4.9166929133858268
 30
0.0
 10
-2.4034370078740159
 20
-4.9166929133858268
 30
0.0
 10
-2.4034370078740159
 20
-4.9166929133858268
 30
0.0
 10
-1.9034370078740159
 20
-4.9166929133858268
 30
0.0
 10
-1.9034370078740159
 20
-4.9166929133858268
 30
0.0
  0
SPLINE
  5
BC
100
AcDbEntity
  8
Additional Graphics
 62
     9
100
AcDbSpline
210
0.0
220
0.0
230
1.0
 70
     1
 71
     3
 72
    20
 73
    16
 74
     0
 42
0.0000000001
 43
0.0000000001
 40
0.0
 40
0.0
 40
0.0
 40
0.0
 40
0.25
 40
0.25
 40
0.25
 40
0.25
 40
0.5
 40
0.5
 40
0.5
 40
0.5
 40
0.75
 40
0.75
 40
0.75
 40
0.75
 40
1.0
 40
1.0
 40
1.0
 40
1.0
 10
0.0965590551181102
 20
-2.5416889763779529
 30
0.0
 10
0.0965590551181102
 20
-2.5416889763779529
 30
0.0
 10
0.7667047244094488
 20
-2.937523622047244
 30
0.0
 10
0.7667047244094488
 20
-2.937523622047244
 30
0.0
 10
0.7667047244094488
 20
-2.937523622047244
 30
0.0
 10
0.7667047244094488
 20
-2.937523622047244
 30
0.0
 10
0.7640984251968505
 20
-3.0404212598425198
 30
0.0
 10
0.7640984251968505
 20
-3.0404212598425198
 30
0.0
 10
0.7640984251968505
 20
-3.0404212598425198
 30
0.0
 10
0.7640984251968505
 20
-3.0404212598425198
 30
0.0
 10
0.0939527559055118
 20
-2.6445866141732286
 30
0.0
 10
0.0939527559055118
 20
-2.6445866141732286
 30
0.0
 10
0.0939527559055118
 20
-2.6445866141732286
 30
0.0
 10
0.0939527559055118
 20
-2.6445866141732286
 30
0.0
 10
0.0965590551181102
 20
-2.5416889763779529
 30
0.0
 10
0.0965590551181102
 20
-2.5416889763779529
 30
0.0
  0
SPLINE
  5
BD
100
AcDbEntity
  8
Additional Graphics
 62
     9
100
AcDbSpline
210
0.0
220
0.0
230
1.0
 70
     1
 71
     3
 72
    20
 73
    16
 74
     0
 42
0.0000000001
 43
0.0000000001
 40
0.0
 40
0.0
 40
0.0
 40
0.0
 40
0.25
 40
0.25
 40
0.25
 40
0.25
 40
0.5
 40
0.5
 40
0.5
 40
0.5
 40
0.75
 40
0.75
 40
0.75
 40
0.75
 40
1.0
 40
1.0
 40
1.0
 40
1.0
 10
0.0939527559055118
 20
-2.6445866141732286
 30
0.0
 10
0.0939527559055118
 20
-2.6445866141732286
 30
0.0
 10
0.7640984251968505
 20
-3.0404212598425198
 30
0.0
 10
0.7640984251968505
 20
-3.0404212598425198
 30
0.0
 10
0.7640984251968505
 20
-3.0404212598425198
 30
0.0
 10
0.7640984251968505
 20
-3.0404212598425198
 30
0.0
 10
0.7563740157480315
 20
-3.1419763779527559
 30
0.0
 10
0.7563740157480315
 20
-3.1419763779527559
 30
0.0
 10
0.7563740157480315
 20
-3.1419763779527559
 30
0.0
 10
0.7563740157480315
 20
-3.1419763779527559
 30
0.0
 10
0.0862283464566929
 20
-2.7461417322834647
 30
0.0
 10
0.0862283464566929
 20
-2.7461417322834647
 30
0.0
 10
0.0862283464566929
 20
-2.7461417322834647
 30
0.0
 10
0.0862283464566929
 20
-2.7461417322834647
 30
0.0
 10
0.0939527559055118
 20
-2.6445866141732286
 30
0.0
 10
0.0939527559055118
 20
-2.6445866141732286
 30
0.0
  0
SPLINE
  5
BE
100
AcDbEntity
  8
Additional Graphics
 62
     9
100
AcDbSpline
210
0.0
220
0.0
230
1.0
 70
     1
 71
     3
 72
    20
 73
    16
 74
     0
 42
0.0000000001
 43
0.0000000001
 40
0.0
 40
0.0
 40
0.0
 40
0.0
 40
0.25
 40
0.25
 40
0.25
 40
0.25
 40
0.5
 40
0.5
 40
0.5
 40
0.5
 40
0.75
 40
0.75
 40
0.75
 40
0.75
 40
1.0
 40
1.0
 40
1.0
 40
1.0
 10
0.0862283464566929
 20
-2.7461417322834647
 30
0.0
 10
0.0862283464566929
 20
-2.7461417322834647
 30
0.0
 10
0.7563740157480315
 20
-3.1419763779527559
 30
0.0
 10
0.7563740157480315
 20
-3.1419763779527559
 30
0.0
 10
0.7563740157480315
 20
-3.1419763779527559
 30
0.0
 10
0.7563740157480315
 20
-3.1419763779527559
 30
0.0
 10
0.7436496062992126
 20
-3.2420511811023625
 30
0.0
 10
0.7436496062992126
 20
-3.2420511811023625
 30
0.0
 10
0.7436496062992126
 20
-3.2420511811023625
 30
0.0
 10
0.7436496062992126
 20
-3.2420511811023625
 30
0.0
 10
0.073503937007874
 20
-2.8462165354330708
 30
0.0
 10
0.073503937007874
 20
-2.8462165354330708
 30
0.0
 10
0.073503937007874
 20
-2.8462165354330708
 30
0.0
 10
0.073503937007874
 20
-2.8462165354330708
 30
0.0
 10
0.0862283464566929
 20
-2.7461417322834647
 30
0.0
 10
0.0862283464566929
 20
-2.7461417322834647
 30
0.0
  0
SPLINE
  5
BF
100
AcDbEntity
  8
Additional Graphics
 62
     9
100
AcDbSpline
210
0.0
220
0.0
230
1.0
 70
     1
 71
     3
 72
    20
 73
    16
 74
     0
 42
0.0000000001
 43
0.0000000001
 40
0.0
 40
0.0
 40
0.0
 40
0.0
 40
0.25
 40
0.25
 40
0.25
 40
0.25
 40
0.5
 40
0.5
 40
0.5
 40
0.5
 40
0.75
 40
0.75
 40
0.75
 40
0.75
 40
1.0
 40
1.0
 40
1.0
 40
1.0
 10
0.073503937007874
 20
-2.8462165354330708
 30
0.0
 10
0.073503937007874
 20
-2.8462165354330708
 30
0.0
 10
0.7436496062992126
 20
-3.2420511811023625
 30
0.0
 10
0.7436496062992126
 20
-3.2420511811023625
 30
0.0
 10
0.7436496062992126
 20
-3.2420511811023625
 30
0.0
 10
0.7436496062992126
 20
-3.2420511811023625
 30
0.0
 10
0.7260629921259842
 20
-3.3405354330708663
 30
0.0
 10
0.7260629921259842
 20
-3.3405354330708663
 30
0.0
 10
0.7260629921259842
 20
-3.3405354330708663
 30
0.0
 10
0.7260629921259842
 20
-3.3405354330708663
 30
0.0
 10
0.0559173228346457
 20
-2.9447007874015747
 30
0.0
 10
0.0559173228346457
 20
-2.9447007874015747
 30
0.0
 10
0.0559173228346457
 20
-2.9447007874015747
 30
0.0
 10
0.0559173228346457
 20
-2.9447007874015747
 30
0.0
 10
0.073503937007874
 20
-2.8462165354330708
 30
0.0
 10
0.073503937007874
 20
-2.8462165354330708
 30
0.0
  0
SPLINE
  5
C0
100
AcDbEntity
  8
Additional Graphics
 62
     9
100
AcDbSpline
210
0.0
220
0.0
230
1.0
 70
     1
 71
     3
 72
    20
 73
    16
 74
     0
 42
0.0000000001
 43
0.0000000001
 40
0.0
 40
0.0
 40
0.0
 40
0.0
 40
0.25
 40
0.25
 40
0.25
 40
0.25
 40
0.5
 40
0.5
 40
0.5
 40
0.5
 40
0.75
 40
0.75
 40
0.75
 40
0.75
 40
1.0
 40
1.0
 40
1.0
 40
1.0
 10
0.0559173228346457
 20
-2.9447007874015747
 30
0.0
 10
0.0559173228346457
 20
-2.9447007874015747
 30
0.0
 10
0.7260629921259842
 20
-3.3405354330708663
 30
0.0
 10
0.7260629921259842
 20
-3.3405354330708663
 30
0.0
 10
0.7260629921259842
 20
-3.3405354330708663
 30
0.0
 10
0.7260629921259842
 20
-3.3405354330708663
 30
0.0
 10
0.703724409448819
 20
-3.4372834645669292
 30
0.0
 10
0.703724409448819
 20
-3.4372834645669292
 30
0.0
 10
0.703724409448819
 20
-3.4372834645669292
 30
0.0
 10
0.703724409448819
 20
-3.4372834645669292
 30
0.0
 10
0.0335787401574803
 20
-3.0414488188976381
 30
0.0
 10
0.0335787401574803
 20
-3.0414488188976381
 30
0.0
 10
0.0335787401574803
 20
-3.0414488188976381
 30
0.0
 10
0.0335787401574803
 20
-3.0414488188976381
 30
0.0
 10
0.0559173228346457
 20
-2.9447007874015747
 30
0.0
 10
0.0559173228346457
 20
-2.9447007874015747
 30
0.0
  0
SPLINE
  5
C1
100
AcDbEntity
  8
Additional Graphics
 62
     9
100
AcDbSpline
210
0.0
220
0.0
230
1.0
 70
     1
 71
     3
 72
    20
 73
    16
 74
     0
 42
0.0000000001
 43
0.0000000001
 40
0.0
 40
0.0
 40
0.0
 40
0.0
 40
0.25
 40
0.25
 40
0.25
 40
0.25
 40
0.5
 40
0.5
 40
0.5
 40
0.5
 40
0.75
 40
0.75
 40
0.75
 40
0.75
 40
1.0
 40
1.0
 40
1.0
 40
1.0
 10
0.0335787401574803
 20
-3.0414488188976381
 30
0.0
 10
0.0335787401574803
 20
-3.0414488188976381
 30
0.0
 10
0.703724409448819
 20
-3.4372834645669292
 30
0.0
 10
0.703724409448819
 20
-3.4372834645669292
 30
0.0
 10
0.703724409448819
 20
-3.4372834645669292
 30
0.0
 10
0.703724409448819
 20
-3.4372834645669292
 30
0.0
 10
0.6767677165354331
 20
-3.5321889763779528
 30
0.0
 10
0.6767677165354331
 20
-3.5321889763779528
 30
0.0
 10
0.6767677165354331
 20
-3.5321889763779528
 30
0.0
 10
0.6767677165354331
 20
-3.5321889763779528
 30
0.0
 10
0.0066220472440945
 20
-3.1363543307086617
 30
0.0
 10
0.0066220472440945
 20
-3.1363543307086617
 30
0.0
 10
0.0066220472440945
 20
-3.1363543307086617
 30
0.0
 10
0.0066220472440945
 20
-3.1363543307086617
 30
0.0
 10
0.0335787401574803
 20
-3.0414488188976381
 30
0.0
 10
0.0335787401574803
 20
-3.0414488188976381
 30
0.0
  0
SPLINE
  5
C2
100
AcDbEntity
  8
Additional Graphics
 62
     9
100
AcDbSpline
210
0.0
220
0.0
230
1.0
 70
     1
 71
     3
 72
    20
 73
    16
 74
     0
 42
0.0000000001
 43
0.0000000001
 40
0.0
 40
0.0
 40
0.0
 40
0.0
 40
0.25
 40
0.25
 40
0.25
 40
0.25
 40
0.5
 40
0.5
 40
0.5
 40
0.5
 40
0.75
 40
0.75
 40
0.75
 40
0.75
 40
1.0
 40
1.0
 40
1.0
 40
1.0
 10
0.0066220472440945
 20
-3.1363543307086617
 30
0.0
 10
0.0066220472440945
 20
-3.1363543307086617
 30
0.0
 10
0.6767677165354331
 20
-3.5321889763779528
 30
0.0
 10
0.6767677165354331
 20
-3.5321889763779528
 30
0.0
 10
0.6767677165354331
 20
-3.5321889763779528
 30
0.0
 10
0.6767677165354331
 20
-3.5321889763779528
 30
0.0
 10
0.6453188976377953
 20
-3.6251102362204728
 30
0.0
 10
0.6453188976377953
 20
-3.6251102362204728
 30
0.0
 10
0.6453188976377953
 20
-3.6251102362204728
 30
0.0
 10
0.6453188976377953
 20
-3.6251102362204728
 30
0.0
 10
-0.0248267716535433
 20
-3.2292755905511812
 30
0.0
 10
-0.0248267716535433
 20
-3.2292755905511812
 30
0.0
 10
-0.0248267716535433
 20
-3.2292755905511812
 30
0.0
 10
-0.0248267716535433
 20
-3.2292755905511812
 30
0.0
 10
0.0066220472440945
 20
-3.1363543307086617
 30
0.0
 10
0.0066220472440945
 20
-3.1363543307086617
 30
0.0
  0
SPLINE
  5
C3
100
AcDbEntity
  8
Additional Graphics
 62
     9
100
AcDbSpline
210
0.0
220
0.0
230
1.0
 70
     1
 71
     3
 72
    20
 73
    16
 74
     0
 42
0.0000000001
 43
0.0000000001
 40
0.0
 40
0.0
 40
0.0
 40
0.0
 40
0.25
 40
0.25
 40
0.25
 40
0.25
 40
0.5
 40
0.5
 40
0.5
 40
0.5
 40
0.75
 40
0.75
 40
0.75
 40
0.75
 40
1.0
 40
1.0
 40
1.0
 40
1.0
 10
-0.0248267716535433
 20
-3.2292755905511812
 30
0.0
 10
-0.0248267716535433
 20
-3.2292755905511812
 30
0.0
 10
0.6453188976377953
 20
-3.6251102362204728
 30
0.0
 10
0.6453188976377953
 20
-3.6251102362204728
 30
0.0
 10
0.6453188976377953
 20
-3.6251102362204728
 30
0.0
 10
0.6453188976377953
 20
-3.6251102362204728
 30
0.0
 10
0.609507874015748
 20
-3.715933070866142
 30
0.0
 10
0.609507874015748
 20
-3.715933070866142
 30
0.0
 10
0.609507874015748
 20
-3.715933070866142
 30
0.0
 10
0.609507874015748
 20
-3.715933070866142
 30
0.0
 10
-0.0606377952755906
 20
-3.3200984251968504
 30
0.0
 10
-0.0606377952755906
 20
-3.3200984251968504
 30
0.0
 10
-0.0606377952755906
 20
-3.3200984251968504
 30
0.0
 10
-0.0606377952755906
 20
-3.3200984251968504
 30
0.0
 10
-0.0248267716535433
 20
-3.2292755905511812
 30
0.0
 10
-0.0248267716535433
 20
-3.2292755905511812
 30
0.0
  0
SPLINE
  5
C4
100
AcDbEntity
  8
Additional Graphics
 62
     9
100
AcDbSpline
210
0.0
220
0.0
230
1.0
 70
     1
 71
     3
 72
    20
 73
    16
 74
     0
 42
0.0000000001
 43
0.0000000001
 40
0.0
 40
0.0
 40
0.0
 40
0.0
 40
0.25
 40
0.25
 40
0.25
 40
0.25
 40
0.5
 40
0.5
 40
0.5
 40
0.5
 40
0.75
 40
0.75
 40
0.75
 40
0.75
 40
1.0
 40
1.0
 40
1.0
 40
1.0
 10
-0.0606377952755906
 20
-3.3200984251968504
 30
0.0
 10
-0.0606377952755906
 20
-3.3200984251968504
 30
0.0
 10
0.609507874015748
 20
-3.715933070866142
 30
0.0
 10
0.609507874015748
 20
-3.715933070866142
 30
0.0
 10
0.609507874015748
 20
-3.715933070866142
 30
0.0
 10
0.609507874015748
 20
-3.715933070866142
 30
0.0
 10
0.5694448818897638
 20
-3.8045196850393701
 30
0.0
 10
0.5694448818897638
 20
-3.8045196850393701
 30
0.0
 10
0.5694448818897638
 20
-3.8045196850393701
 30
0.0
 10
0.5694448818897638
 20
-3.8045196850393701
 30
0.0
 10
-0.1007007874015748
 20
-3.4086850393700789
 30
0.0
 10
-0.1007007874015748
 20
-3.4086850393700789
 30
0.0
 10
-0.1007007874015748
 20
-3.4086850393700789
 30
0.0
 10
-0.1007007874015748
 20
-3.4086850393700789
 30
0.0
 10
-0.0606377952755906
 20
-3.3200984251968504
 30
0.0
 10
-0.0606377952755906
 20
-3.3200984251968504
 30
0.0
  0
SPLINE
  5
C5
100
AcDbEntity
  8
Additional Graphics
 62
     9
100
AcDbSpline
210
0.0
220
0.0
230
1.0
 70
     1
 71
     3
 72
    20
 73
    16
 74
     0
 42
0.0000000001
 43
0.0000000001
 40
0.0
 40
0.0
 40
0.0
 40
0.0
 40
0.25
 40
0.25
 40
0.25
 40
0.25
 40
0.5
 40
0.5
 40
0.5
 40
0.5
 40
0.75
 40
0.75
 40
0.75
 40
0.75
 40
1.0
 40
1.0
 40
1.0
 40
1.0
 10
-0.1007007874015748
 20
-3.4086850393700789
 30
0.0
 10
-0.1007007874015748
 20
-3.4086850393700789
 30
0.0
 10
0.5694448818897638
 20
-3.8045196850393701
 30
0.0
 10
0.5694448818897638
 20
-3.8045196850393701
 30
0.0
 10
0.5694448818897638
 20
-3.8045196850393701
 30
0.0
 10
0.5694448818897638
 20
-3.8045196850393701
 30
0.0
 10
0.5252716535433071
 20
-3.8907559055118113
 30
0.0
 10
0.5252716535433071
 20
-3.8907559055118113
 30
0.0
 10
0.5252716535433071
 20
-3.8907559055118113
 30
0.0
 10
0.5252716535433071
 20
-3.8907559055118113
 30
0.0
 10
-0.1448740157480315
 20
-3.4949212598425197
 30
0.0
 10
-0.1448740157480315
 20
-3.4949212598425197
 30
0.0
 10
-0.1448740157480315
 20
-3.4949212598425197
 30
0.0
 10
-0.1448740157480315
 20
-3.4949212598425197
 30
0.0
 10
-0.1007007874015748
 20
-3.4086850393700789
 30
0.0
 10
-0.1007007874015748
 20
-3.4086850393700789
 30
0.0
  0
SPLINE
  5
C6
100
AcDbEntity
  8
Additional Graphics
 62
     9
100
AcDbSpline
210
0.0
220
0.0
230
1.0
 70
     1
 71
     3
 72
    20
 73
    16
 74
     0
 42
0.0000000001
 43
0.0000000001
 40
0.0
 40
0.0
 40
0.0
 40
0.0
 40
0.25
 40
0.25
 40
0.25
 40
0.25
 40
0.5
 40
0.5
 40
0.5
 40
0.5
 40
0.75
 40
0.75
 40
0.75
 40
0.75
 40
1.0
 40
1.0
 40
1.0
 40
1.0
 10
-0.1448740157480315
 20
-3.4949212598425197
 30
0.0
 10
-0.1448740157480315
 20
-3.4949212598425197
 30
0.0
 10
0.5252716535433071
 20
-3.8907559055118113
 30
0.0
 10
0.5252716535433071
 20
-3.8907559055118113
 30
0.0
 10
0.5252716535433071
 20
-3.8907559055118113
 30
0.0
 10
0.5252716535433071
 20
-3.8907559055118113
 30
0.0
 10
0.4771062992125985
 20
-3.9745078740157482
 30
0.0
 10
0.4771062992125985
 20
-3.9745078740157482
 30
0.0
 10
0.4771062992125985
 20
-3.9745078740157482
 30
0.0
 10
0.4771062992125985
 20
-3.9745078740157482
 30
0.0
 10
-0.1930393700787402
 20
-3.5786732283464566
 30
0.0
 10
-0.1930393700787402
 20
-3.5786732283464566
 30
0.0
 10
-0.1930393700787402
 20
-3.5786732283464566
 30
0.0
 10
-0.1930393700787402
 20
-3.5786732283464566
 30
0.0
 10
-0.1448740157480315
 20
-3.4949212598425197
 30
0.0
 10
-0.1448740157480315
 20
-3.4949212598425197
 30
0.0
  0
SPLINE
  5
C7
100
AcDbEntity
  8
Additional Graphics
 62
     9
100
AcDbSpline
210
0.0
220
0.0
230
1.0
 70
     1
 71
     3
 72
    20
 73
    16
 74
     0
 42
0.0000000001
 43
0.0000000001
 40
0.0
 40
0.0
 40
0.0
 40
0.0
 40
0.25
 40
0.25
 40
0.25
 40
0.25
 40
0.5
 40
0.5
 40
0.5
 40
0.5
 40
0.75
 40
0.75
 40
0.75
 40
0.75
 40
1.0
 40
1.0
 40
1.0
 40
1.0
 10
-0.1930393700787402
 20
-3.5786732283464566
 30
0.0
 10
-0.1930393700787402
 20
-3.5786732283464566
 30
0.0
 10
0.4771062992125985
 20
-3.9745078740157482
 30
0.0
 10
0.4771062992125985
 20
-3.9745078740157482
 30
0.0
 10
0.4771062992125985
 20
-3.9745078740157482
 30
0.0
 10
0.4771062992125985
 20
-3.9745078740157482
 30
0.0
 10
0.4250826771653544
 20
-4.0556574803149612
 30
0.0
 10
0.4250826771653544
 20
-4.0556574803149612
 30
0.0
 10
0.4250826771653544
 20
-4.0556574803149612
 30
0.0
 10
0.4250826771653544
 20
-4.0556574803149612
 30
0.0
 10
-0.2450629921259843
 20
-3.6598228346456696
 30
0.0
 10
-0.2450629921259843
 20
-3.6598228346456696
 30
0.0
 10
-0.2450629921259843
 20
-3.6598228346456696
 30
0.0
 10
-0.2450629921259843
 20
-3.6598228346456696
 30
0.0
 10
-0.1930393700787402
 20
-3.5786732283464566
 30
0.0
 10
-0.1930393700787402
 20
-3.5786732283464566
 30
0.0
  0
SPLINE
  5
C8
100
AcDbEntity
  8
Additional Graphics
 62
     9
100
AcDbSpline
210
0.0
220
0.0
230
1.0
 70
     1
 71
     3
 72
    20
 73
    16
 74
     0
 42
0.0000000001
 43
0.0000000001
 40
0.0
 40
0.0
 40
0.0
 40
0.0
 40
0.25
 40
0.25
 40
0.25
 40
0.25
 40
0.5
 40
0.5
 40
0.5
 40
0.5
 40
0.75
 40
0.75
 40
0.75
 40
0.75
 40
1.0
 40
1.0
 40
1.0
 40
1.0
 10
-0.2450629921259843
 20
-3.6598228346456696
 30
0.0
 10
-0.2450629921259843
 20
-3.6598228346456696
 30
0.0
 10
0.4250826771653544
 20
-4.0556574803149612
 30
0.0
 10
0.4250826771653544
 20
-4.0556574803149612
 30
0.0
 10
0.4250826771653544
 20
-4.0556574803149612
 30
0.0
 10
0.4250826771653544
 20
-4.0556574803149612
 30
0.0
 10
0.3693149606299213
 20
-4.134070866141732
 30
0.0
 10
0.3693149606299213
 20
-4.134070866141732
 30
0.0
 10
0.3693149606299213
 20
-4.134070866141732
 30
0.0
 10
0.3693149606299213
 20
-4.134070866141732
 30
0.0
 10
-0.3008307086614173
 20
-3.7382362204724413
 30
0.0
 10
-0.3008307086614173
 20
-3.7382362204724413
 30
0.0
 10
-0.3008307086614173
 20
-3.7382362204724413
 30
0.0
 10
-0.3008307086614173
 20
-3.7382362204724413
 30
0.0
 10
-0.2450629921259843
 20
-3.6598228346456696
 30
0.0
 10
-0.2450629921259843
 20
-3.6598228346456696
 30
0.0
  0
SPLINE
  5
C9
100
AcDbEntity
  8
Additional Graphics
 62
     9
100
AcDbSpline
210
0.0
220
0.0
230
1.0
 70
     1
 71
     3
 72
    20
 73
    16
 74
     0
 42
0.0000000001
 43
0.0000000001
 40
0.0
 40
0.0
 40
0.0
 40
0.0
 40
0.25
 40
0.25
 40
0.25
 40
0.25
 40
0.5
 40
0.5
 40
0.5
 40
0.5
 40
0.75
 40
0.75
 40
0.75
 40
0.75
 40
1.0
 40
1.0
 40
1.0
 40
1.0
 10
-0.3008307086614173
 20
-3.7382362204724413
 30
0.0
 10
-0.3008307086614173
 20
-3.7382362204724413
 30
0.0
 10
0.3693149606299213
 20
-4.134070866141732
 30
0.0
 10
0.3693149606299213
 20
-4.134070866141732
 30
0.0
 10
0.3693149606299213
 20
-4.134070866141732
 30
0.0
 10
0.3693149606299213
 20
-4.134070866141732
 30
0.0
 10
0.3099370078740157
 20
-4.2096299212598423
 30
0.0
 10
0.3099370078740157
 20
-4.2096299212598423
 30
0.0
 10
0.3099370078740157
 20
-4.2096299212598423
 30
0.0
 10
0.3099370078740157
 20
-4.2096299212598423
 30
0.0
 10
-0.3602086614173228
 20
-3.8137952755905515
 30
0.0
 10
-0.3602086614173228
 20
-3.8137952755905515
 30
0.0
 10
-0.3602086614173228
 20
-3.8137952755905515
 30
0.0
 10
-0.3602086614173228
 20
-3.8137952755905515
 30
0.0
 10
-0.3008307086614173
 20
-3.7382362204724413
 30
0.0
 10
-0.3008307086614173
 20
-3.7382362204724413
 30
0.0
  0
SPLINE
  5
CA
100
AcDbEntity
  8
Additional Graphics
 62
     9
100
AcDbSpline
210
0.0
220
0.0
230
1.0
 70
     1
 71
     3
 72
    20
 73
    16
 74
     0
 42
0.0000000001
 43
0.0000000001
 40
0.0
 40
0.0
 40
0.0
 40
0.0
 40
0.25
 40
0.25
 40
0.25
 40
0.25
 40
0.5
 40
0.5
 40
0.5
 40
0.5
 40
0.75
 40
0.75
 40
0.75
 40
0.75
 40
1.0
 40
1.0
 40
1.0
 40
1.0
 10
-0.3602086614173228
 20
-3.8137952755905515
 30
0.0
 10
-0.3602086614173228
 20
-3.8137952755905515
 30
0.0
 10
0.3099370078740157
 20
-4.2096299212598423
 30
0.0
 10
0.3099370078740157
 20
-4.2096299212598423
 30
0.0
 10
0.3099370078740157
 20
-4.2096299212598423
 30
0.0
 10
0.3099370078740157
 20
-4.2096299212598423
 30
0.0
 10
0.2470708661417323
 20
-4.282204724409449
 30
0.0
 10
0.2470708661417323
 20
-4.282204724409449
 30
0.0
 10
0.2470708661417323
 20
-4.282204724409449
 30
0.0
 10
0.2470708661417323
 20
-4.282204724409449
 30
0.0
 10
-0.4230748031496063
 20
-3.8863700787401578
 30
0.0
 10
-0.4230748031496063
 20
-3.8863700787401578
 30
0.0
 10
-0.4230748031496063
 20
-3.8863700787401578
 30
0.0
 10
-0.4230748031496063
 20
-3.8863700787401578
 30
0.0
 10
-0.3602086614173228
 20
-3.8137952755905515
 30
0.0
 10
-0.3602086614173228
 20
-3.8137952755905515
 30
0.0
  0
SPLINE
  5
CB
100
AcDbEntity
  8
Additional Graphics
 62
     9
100
AcDbSpline
210
0.0
220
0.0
230
1.0
 70
     1
 71
     3
 72
    20
 73
    16
 74
     0
 42
0.0000000001
 43
0.0000000001
 40
0.0
 40
0.0
 40
0.0
 40
0.0
 40
0.25
 40
0.25
 40
0.25
 40
0.25
 40
0.5
 40
0.5
 40
0.5
 40
0.5
 40
0.75
 40
0.75
 40
0.75
 40
0.75
 40
1.0
 40
1.0
 40
1.0
 40
1.0
 10
-0.4230748031496063
 20
-3.8863700787401578
 30
0.0
 10
-0.4230748031496063
 20
-3.8863700787401578
 30
0.0
 10
0.2470708661417323
 20
-4.282204724409449
 30
0.0
 10
0.2470708661417323
 20
-4.282204724409449
 30
0.0
 10
0.2470708661417323
 20
-4.282204724409449
 30
0.0
 10
0.2470708661417323
 20
-4.282204724409449
 30
0.0
 10
0.1808464566929134
 20
-4.3516692913385828
 30
0.0
 10
0.1808464566929134
 20
-4.3516692913385828
 30
0.0
 10
0.1808464566929134
 20
-4.3516692913385828
 30
0.0
 10
0.1808464566929134
 20
-4.3516692913385828
 30
0.0
 10
-0.4892992125984252
 20
-3.9558346456692917
 30
0.0
 10
-0.4892992125984252
 20
-3.9558346456692917
 30
0.0
 10
-0.4892992125984252
 20
-3.9558346456692917
 30
0.0
 10
-0.4892992125984252
 20
-3.9558346456692917
 30
0.0
 10
-0.4230748031496063
 20
-3.8863700787401578
 30
0.0
 10
-0.4230748031496063
 20
-3.8863700787401578
 30
0.0
  0
SPLINE
  5
CC
100
AcDbEntity
  8
Additional Graphics
 62
     9
100
AcDbSpline
210
0.0
220
0.0
230
1.0
 70
     1
 71
     3
 72
    20
 73
    16
 74
     0
 42
0.0000000001
 43
0.0000000001
 40
0.0
 40
0.0
 40
0.0
 40
0.0
 40
0.25
 40
0.25
 40
0.25
 40
0.25
 40
0.5
 40
0.5
 40
0.5
 40
0.5
 40
0.75
 40
0.75
 40
0.75
 40
0.75
 40
1.0
 40
1.0
 40
1.0
 40
1.0
 10
-0.4892992125984252
 20
-3.9558346456692917
 30
0.0
 10
-0.4892992125984252
 20
-3.9558346456692917
 30
0.0
 10
0.1808464566929134
 20
-4.3516692913385828
 30
0.0
 10
0.1808464566929134
 20
-4.3516692913385828
 30
0.0
 10
0.1808464566929134
 20
-4.3516692913385828
 30
0.0
 10
0.1808464566929134
 20
-4.3516692913385828
 30
0.0
 10
0.1113818897637795
 20
-4.4178937007874017
 30
0.0
 10
0.1113818897637795
 20
-4.4178937007874017
 30
0.0
 10
0.1113818897637795
 20
-4.4178937007874017
 30
0.0
 10
0.1113818897637795
 20
-4.4178937007874017
 30
0.0
 10
-0.5587637795275591
 20
-4.0220590551181106
 30
0.0
 10
-0.5587637795275591
 20
-4.0220590551181106
 30
0.0
 10
-0.5587637795275591
 20
-4.0220590551181106
 30
0.0
 10
-0.5587637795275591
 20
-4.0220590551181106
 30
0.0
 10
-0.4892992125984252
 20
-3.9558346456692917
 30
0.0
 10
-0.4892992125984252
 20
-3.9558346456692917
 30
0.0
  0
SPLINE
  5
CD
100
AcDbEntity
  8
Additional Graphics
 62
     9
100
AcDbSpline
210
0.0
220
0.0
230
1.0
 70
     1
 71
     3
 72
    20
 73
    16
 74
     0
 42
0.0000000001
 43
0.0000000001
 40
0.0
 40
0.0
 40
0.0
 40
0.0
 40
0.25
 40
0.25
 40
0.25
 40
0.25
 40
0.5
 40
0.5
 40
0.5
 40
0.5
 40
0.75
 40
0.75
 40
0.75
 40
0.75
 40
1.0
 40
1.0
 40
1.0
 40
1.0
 10
-0.5587637795275591
 20
-4.0220590551181106
 30
0.0
 10
-0.5587637795275591
 20
-4.0220590551181106
 30
0.0
 10
0.1113818897637795
 20
-4.4178937007874017
 30
0.0
 10
0.1113818897637795
 20
-4.4178937007874017
 30
0.0
 10
0.1113818897637795
 20
-4.4178937007874017
 30
0.0
 10
0.1113818897637795
 20
-4.4178937007874017
 30
0.0
 10
0.0388070866141732
 20
-4.4807598425196851
 30
0.0
 10
0.0388070866141732
 20
-4.4807598425196851
 30
0.0
 10
0.0388070866141732
 20
-4.4807598425196851
 30
0.0
 10
0.0388070866141732
 20
-4.4807598425196851
 30
0.0
 10
-0.6313385826771654
 20
-4.0849251968503939
 30
0.0
 10
-0.6313385826771654
 20
-4.0849251968503939
 30
0.0
 10
-0.6313385826771654
 20
-4.0849251968503939
 30
0.0
 10
-0.6313385826771654
 20
-4.0849251968503939
 30
0.0
 10
-0.5587637795275591
 20
-4.0220590551181106
 30
0.0
 10
-0.5587637795275591
 20
-4.0220590551181106
 30
0.0
  0
SPLINE
  5
CE
100
AcDbEntity
  8
Additional Graphics
 62
     9
100
AcDbSpline
210
0.0
220
0.0
230
1.0
 70
     1
 71
     3
 72
    20
 73
    16
 74
     0
 42
0.0000000001
 43
0.0000000001
 40
0.0
 40
0.0
 40
0.0
 40
0.0
 40
0.25
 40
0.25
 40
0.25
 40
0.25
 40
0.5
 40
0.5
 40
0.5
 40
0.5
 40
0.75
 40
0.75
 40
0.75
 40
0.75
 40
1.0
 40
1.0
 40
1.0
 40
1.0
 10
-0.6313385826771654
 20
-4.0849251968503939
 30
0.0
 10
-0.6313385826771654
 20
-4.0849251968503939
 30
0.0
 10
0.0388070866141732
 20
-4.4807598425196851
 30
0.0
 10
0.0388070866141732
 20
-4.4807598425196851
 30
0.0
 10
0.0388070866141732
 20
-4.4807598425196851
 30
0.0
 10
0.0388070866141732
 20
-4.4807598425196851
 30
0.0
 10
-0.036751968503937
 20
-4.5401377952755908
 30
0.0
 10
-0.036751968503937
 20
-4.5401377952755908
 30
0.0
 10
-0.036751968503937
 20
-4.5401377952755908
 30
0.0
 10
-0.036751968503937
 20
-4.5401377952755908
 30
0.0
 10
-0.7068976377952756
 20
-4.1443031496062996
 30
0.0
 10
-0.7068976377952756
 20
-4.1443031496062996
 30
0.0
 10
-0.7068976377952756
 20
-4.1443031496062996
 30
0.0
 10
-0.7068976377952756
 20
-4.1443031496062996
 30
0.0
 10
-0.6313385826771654
 20
-4.0849251968503939
 30
0.0
 10
-0.6313385826771654
 20
-4.0849251968503939
 30
0.0
  0
SPLINE
  5
CF
100
AcDbEntity
  8
Additional Graphics
 62
     9
100
AcDbSpline
210
0.0
220
0.0
230
1.0
 70
     1
 71
     3
 72
    20
 73
    16
 74
     0
 42
0.0000000001
 43
0.0000000001
 40
0.0
 40
0.0
 40
0.0
 40
0.0
 40
0.25
 40
0.25
 40
0.25
 40
0.25
 40
0.5
 40
0.5
 40
0.5
 40
0.5
 40
0.75
 40
0.75
 40
0.75
 40
0.75
 40
1.0
 40
1.0
 40
1.0
 40
1.0
 10
-0.7068976377952756
 20
-4.1443031496062996
 30
0.0
 10
-0.7068976377952756
 20
-4.1443031496062996
 30
0.0
 10
-0.036751968503937
 20
-4.5401377952755908
 30
0.0
 10
-0.036751968503937
 20
-4.5401377952755908
 30
0.0
 10
-0.036751968503937
 20
-4.5401377952755908
 30
0.0
 10
-0.036751968503937
 20
-4.5401377952755908
 30
0.0
 10
-0.1151614173228347
 20
-4.5959055118110239
 30
0.0
 10
-0.1151614173228347
 20
-4.5959055118110239
 30
0.0
 10
-0.1151614173228347
 20
-4.5959055118110239
 30
0.0
 10
-0.1151614173228347
 20
-4.5959055118110239
 30
0.0
 10
-0.7853070866141733
 20
-4.2000708661417328
 30
0.0
 10
-0.7853070866141733
 20
-4.2000708661417328
 30
0.0
 10
-0.7853070866141733
 20
-4.2000708661417328
 30
0.0
 10
-0.7853070866141733
 20
-4.2000708661417328
 30
0.0
 10
-0.7068976377952756
 20
-4.1443031496062996
 30
0.0
 10
-0.7068976377952756
 20
-4.1443031496062996
 30
0.0
  0
SPLINE
  5
D0
100
AcDbEntity
  8
Additional Graphics
 62
     9
100
AcDbSpline
210
0.0
220
0.0
230
1.0
 70
     1
 71
     3
 72
    20
 73
    16
 74
     0
 42
0.0000000001
 43
0.0000000001
 40
0.0
 40
0.0
 40
0.0
 40
0.0
 40
0.25
 40
0.25
 40
0.25
 40
0.25
 40
0.5
 40
0.5
 40
0.5
 40
0.5
 40
0.75
 40
0.75
 40
0.75
 40
0.75
 40
1.0
 40
1.0
 40
1.0
 40
1.0
 10
-0.7853070866141733
 20
-4.2000708661417328
 30
0.0
 10
-0.7853070866141733
 20
-4.2000708661417328
 30
0.0
 10
-0.1151614173228347
 20
-4.5959055118110239
 30
0.0
 10
-0.1151614173228347
 20
-4.5959055118110239
 30
0.0
 10
-0.1151614173228347
 20
-4.5959055118110239
 30
0.0
 10
-0.1151614173228347
 20
-4.5959055118110239
 30
0.0
 10
-0.1963110236220473
 20
-4.647929133858268
 30
0.0
 10
-0.1963110236220473
 20
-4.647929133858268
 30
0.0
 10
-0.1963110236220473
 20
-4.647929133858268
 30
0.0
 10
-0.1963110236220473
 20
-4.647929133858268
 30
0.0
 10
-0.8664566929133859
 20
-4.2520944881889768
 30
0.0
 10
-0.8664566929133859
 20
-4.2520944881889768
 30
0.0
 10
-0.8664566929133859
 20
-4.2520944881889768
 30
0.0
 10
-0.8664566929133859
 20
-4.2520944881889768
 30
0.0
 10
-0.7853070866141733
 20
-4.2000708661417328
 30
0.0
 10
-0.7853070866141733
 20
-4.2000708661417328
 30
0.0
  0
SPLINE
  5
D1
100
AcDbEntity
  8
Additional Graphics
 62
     9
100
AcDbSpline
210
0.0
220
0.0
230
1.0
 70
     1
 71
     3
 72
    20
 73
    16
 74
     0
 42
0.0000000001
 43
0.0000000001
 40
0.0
 40
0.0
 40
0.0
 40
0.0
 40
0.25
 40
0.25
 40
0.25
 40
0.25
 40
0.5
 40
0.5
 40
0.5
 40
0.5
 40
0.75
 40
0.75
 40
0.75
 40
0.75
 40
1.0
 40
1.0
 40
1.0
 40
1.0
 10
-0.8664566929133859
 20
-4.2520944881889768
 30
0.0
 10
-0.8664566929133859
 20
-4.2520944881889768
 30
0.0
 10
-0.1963110236220473
 20
-4.647929133858268
 30
0.0
 10
-0.1963110236220473
 20
-4.647929133858268
 30
0.0
 10
-0.1963110236220473
 20
-4.647929133858268
 30
0.0
 10
-0.1963110236220473
 20
-4.647929133858268
 30
0.0
 10
-0.2800551181102363
 20
-4.6960944881889768
 30
0.0
 10
-0.2800551181102363
 20
-4.6960944881889768
 30
0.0
 10
-0.2800551181102363
 20
-4.6960944881889768
 30
0.0
 10
-0.2800551181102363
 20
-4.6960944881889768
 30
0.0
 10
-0.9502007874015749
 20
-4.3002598425196856
 30
0.0
 10
-0.9502007874015749
 20
-4.3002598425196856
 30
0.0
 10
-0.9502007874015749
 20
-4.3002598425196856
 30
0.0
 10
-0.9502007874015749
 20
-4.3002598425196856
 30
0.0
 10
-0.8664566929133859
 20
-4.2520944881889768
 30
0.0
 10
-0.8664566929133859
 20
-4.2520944881889768
 30
0.0
  0
SPLINE
  5
D2
100
AcDbEntity
  8
Additional Graphics
 62
     9
100
AcDbSpline
210
0.0
220
0.0
230
1.0
 70
     1
 71
     3
 72
    20
 73
    16
 74
     0
 42
0.0000000001
 43
0.0000000001
 40
0.0
 40
0.0
 40
0.0
 40
0.0
 40
0.25
 40
0.25
 40
0.25
 40
0.25
 40
0.5
 40
0.5
 40
0.5
 40
0.5
 40
0.75
 40
0.75
 40
0.75
 40
0.75
 40
1.0
 40
1.0
 40
1.0
 40
1.0
 10
-0.9502007874015749
 20
-4.3002598425196856
 30
0.0
 10
-0.9502007874015749
 20
-4.3002598425196856
 30
0.0
 10
-0.2800551181102363
 20
-4.6960944881889768
 30
0.0
 10
-0.2800551181102363
 20
-4.6960944881889768
 30
0.0
 10
-0.2800551181102363
 20
-4.6960944881889768
 30
0.0
 10
-0.2800551181102363
 20
-4.6960944881889768
 30
0.0
 10
-0.3662834645669292
 20
-4.740267716535433
 30
0.0
 10
-0.3662834645669292
 20
-4.740267716535433
 30
0.0
 10
-0.3662834645669292
 20
-4.740267716535433
 30
0.0
 10
-0.3662834645669292
 20
-4.740267716535433
 30
0.0
 10
-1.0364291338582678
 20
-4.3444330708661418
 30
0.0
 10
-1.0364291338582678
 20
-4.3444330708661418
 30
0.0
 10
-1.0364291338582678
 20
-4.3444330708661418
 30
0.0
 10
-1.0364291338582678
 20
-4.3444330708661418
 30
0.0
 10
-0.9502007874015749
 20
-4.3002598425196856
 30
0.0
 10
-0.9502007874015749
 20
-4.3002598425196856
 30
0.0
  0
SPLINE
  5
D3
100
AcDbEntity
  8
Additional Graphics
 62
     9
100
AcDbSpline
210
0.0
220
0.0
230
1.0
 70
     1
 71
     3
 72
    20
 73
    16
 74
     0
 42
0.0000000001
 43
0.0000000001
 40
0.0
 40
0.0
 40
0.0
 40
0.0
 40
0.25
 40
0.25
 40
0.25
 40
0.25
 40
0.5
 40
0.5
 40
0.5
 40
0.5
 40
0.75
 40
0.75
 40
0.75
 40
0.75
 40
1.0
 40
1.0
 40
1.0
 40
1.0
 10
-1.0364291338582678
 20
-4.3444330708661418
 30
0.0
 10
-1.0364291338582678
 20
-4.3444330708661418
 30
0.0
 10
-0.3662834645669292
 20
-4.740267716535433
 30
0.0
 10
-0.3662834645669292
 20
-4.740267716535433
 30
0.0
 10
-0.3662834645669292
 20
-4.740267716535433
 30
0.0
 10
-0.3662834645669292
 20
-4.740267716535433
 30
0.0
 10
-0.4548779527559055
 20
-4.7803307086614177
 30
0.0
 10
-0.4548779527559055
 20
-4.7803307086614177
 30
0.0
 10
-0.4548779527559055
 20
-4.7803307086614177
 30
0.0
 10
-0.4548779527559055
 20
-4.7803307086614177
 30
0.0
 10
-1.125023622047244
 20
-4.3844960629921266
 30
0.0
 10
-1.125023622047244
 20
-4.3844960629921266
 30
0.0
 10
-1.125023622047244
 20
-4.3844960629921266
 30
0.0
 10
-1.125023622047244
 20
-4.3844960629921266
 30
0.0
 10
-1.0364291338582678
 20
-4.3444330708661418
 30
0.0
 10
-1.0364291338582678
 20
-4.3444330708661418
 30
0.0
  0
SPLINE
  5
D4
100
AcDbEntity
  8
Additional Graphics
 62
     9
100
AcDbSpline
210
0.0
220
0.0
230
1.0
 70
     1
 71
     3
 72
    20
 73
    16
 74
     0
 42
0.0000000001
 43
0.0000000001
 40
0.0
 40
0.0
 40
0.0
 40
0.0
 40
0.25
 40
0.25
 40
0.25
 40
0.25
 40
0.5
 40
0.5
 40
0.5
 40
0.5
 40
0.75
 40
0.75
 40
0.75
 40
0.75
 40
1.0
 40
1.0
 40
1.0
 40
1.0
 10
-1.125023622047244
 20
-4.3844960629921266
 30
0.0
 10
-1.125023622047244
 20
-4.3844960629921266
 30
0.0
 10
-0.4548779527559055
 20
-4.7803307086614177
 30
0.0
 10
-0.4548779527559055
 20
-4.7803307086614177
 30
0.0
 10
-0.4548779527559055
 20
-4.7803307086614177
 30
0.0
 10
-0.4548779527559055
 20
-4.7803307086614177
 30
0.0
 10
-0.5456929133858268
 20
-4.816141732283465
 30
0.0
 10
-0.5456929133858268
 20
-4.816141732283465
 30
0.0
 10
-0.5456929133858268
 20
-4.816141732283465
 30
0.0
 10
-0.5456929133858268
 20
-4.816141732283465
 30
0.0
 10
-1.2158385826771654
 20
-4.4203070866141738
 30
0.0
 10
-1.2158385826771654
 20
-4.4203070866141738
 30
0.0
 10
-1.2158385826771654
 20
-4.4203070866141738
 30
0.0
 10
-1.2158385826771654
 20
-4.4203070866141738
 30
0.0
 10
-1.125023622047244
 20
-4.3844960629921266
 30
0.0
 10
-1.125023622047244
 20
-4.3844960629921266
 30
0.0
  0
SPLINE
  5
D5
100
AcDbEntity
  8
Additional Graphics
 62
     9
100
AcDbSpline
210
0.0
220
0.0
230
1.0
 70
     1
 71
     3
 72
    20
 73
    16
 74
     0
 42
0.0000000001
 43
0.0000000001
 40
0.0
 40
0.0
 40
0.0
 40
0.0
 40
0.25
 40
0.25
 40
0.25
 40
0.25
 40
0.5
 40
0.5
 40
0.5
 40
0.5
 40
0.75
 40
0.75
 40
0.75
 40
0.75
 40
1.0
 40
1.0
 40
1.0
 40
1.0
 10
-1.2158385826771654
 20
-4.4203070866141738
 30
0.0
 10
-1.2158385826771654
 20
-4.4203070866141738
 30
0.0
 10
-0.5456929133858268
 20
-4.816141732283465
 30
0.0
 10
-0.5456929133858268
 20
-4.816141732283465
 30
0.0
 10
-0.5456929133858268
 20
-4.816141732283465
 30
0.0
 10
-0.5456929133858268
 20
-4.816141732283465
 30
0.0
 10
-0.6386181102362205
 20
-4.8475905511811028
 30
0.0
 10
-0.6386181102362205
 20
-4.8475905511811028
 30
0.0
 10
-0.6386181102362205
 20
-4.8475905511811028
 30
0.0
 10
-0.6386181102362205
 20
-4.8475905511811028
 30
0.0
 10
-1.3087637795275591
 20
-4.4517559055118108
 30
0.0
 10
-1.3087637795275591
 20
-4.4517559055118108
 30
0.0
 10
-1.3087637795275591
 20
-4.4517559055118108
 30
0.0
 10
-1.3087637795275591
 20
-4.4517559055118108
 30
0.0
 10
-1.2158385826771654
 20
-4.4203070866141738
 30
0.0
 10
-1.2158385826771654
 20
-4.4203070866141738
 30
0.0
  0
SPLINE
  5
D6
100
AcDbEntity
  8
Additional Graphics
 62
     9
100
AcDbSpline
210
0.0
220
0.0
230
1.0
 70
     1
 71
     3
 72
    20
 73
    16
 74
     0
 42
0.0000000001
 43
0.0000000001
 40
0.0
 40
0.0
 40
0.0
 40
0.0
 40
0.25
 40
0.25
 40
0.25
 40
0.25
 40
0.5
 40
0.5
 40
0.5
 40
0.5
 40
0.75
 40
0.75
 40
0.75
 40
0.75
 40
1.0
 40
1.0
 40
1.0
 40
1.0
 10
-1.3087637795275591
 20
-4.4517559055118108
 30
0.0
 10
-1.3087637795275591
 20
-4.4517559055118108
 30
0.0
 10
-0.6386181102362205
 20
-4.8475905511811028
 30
0.0
 10
-0.6386181102362205
 20
-4.8475905511811028
 30
0.0
 10
-0.6386181102362205
 20
-4.8475905511811028
 30
0.0
 10
-0.6386181102362205
 20
-4.8475905511811028
 30
0.0
 10
-0.7335157480314961
 20
-4.8745472440944884
 30
0.0
 10
-0.7335157480314961
 20
-4.8745472440944884
 30
0.0
 10
-0.7335157480314961
 20
-4.8745472440944884
 30
0.0
 10
-0.7335157480314961
 20
-4.8745472440944884
 30
0.0
 10
-1.4036614173228348
 20
-4.4787125984251972
 30
0.0
 10
-1.4036614173228348
 20
-4.4787125984251972
 30
0.0
 10
-1.4036614173228348
 20
-4.4787125984251972
 30
0.0
 10
-1.4036614173228348
 20
-4.4787125984251972
 30
0.0
 10
-1.3087637795275591
 20
-4.4517559055118108
 30
0.0
 10
-1.3087637795275591
 20
-4.4517559055118108
 30
0.0
  0
SPLINE
  5
D7
100
AcDbEntity
  8
Additional Graphics
 62
     9
100
AcDbSpline
210
0.0
220
0.0
230
1.0
 70
     1
 71
     3
 72
    20
 73
    16
 74
     0
 42
0.0000000001
 43
0.0000000001
 40
0.0
 40
0.0
 40
0.0
 40
0.0
 40
0.25
 40
0.25
 40
0.25
 40
0.25
 40
0.5
 40
0.5
 40
0.5
 40
0.5
 40
0.75
 40
0.75
 40
0.75
 40
0.75
 40
1.0
 40
1.0
 40
1.0
 40
1.0
 10
-1.4036614173228348
 20
-4.4787125984251972
 30
0.0
 10
-1.4036614173228348
 20
-4.4787125984251972
 30
0.0
 10
-0.7335157480314961
 20
-4.8745472440944884
 30
0.0
 10
-0.7335157480314961
 20
-4.8745472440944884
 30
0.0
 10
-0.7335157480314961
 20
-4.8745472440944884
 30
0.0
 10
-0.7335157480314961
 20
-4.8745472440944884
 30
0.0
 10
-0.8302716535433071
 20
-4.896885826771654
 30
0.0
 10
-0.8302716535433071
 20
-4.896885826771654
 30
0.0
 10
-0.8302716535433071
 20
-4.896885826771654
 30
0.0
 10
-0.8302716535433071
 20
-4.896885826771654
 30
0.0
 10
-1.5004173228346458
 20
-4.5010511811023628
 30
0.0
 10
-1.5004173228346458
 20
-4.5010511811023628
 30
0.0
 10
-1.5004173228346458
 20
-4.5010511811023628
 30
0.0
 10
-1.5004173228346458
 20
-4.5010511811023628
 30
0.0
 10
-1.4036614173228348
 20
-4.4787125984251972
 30
0.0
 10
-1.4036614173228348
 20
-4.4787125984251972
 30
0.0
  0
SPLINE
  5
D8
100
AcDbEntity
  8
Additional Graphics
 62
     9
100
AcDbSpline
210
0.0
220
0.0
230
1.0
 70
     1
 71
     3
 72
    20
 73
    16
 74
     0
 42
0.0000000001
 43
0.0000000001
 40
0.0
 40
0.0
 40
0.0
 40
0.0
 40
0.25
 40
0.25
 40
0.25
 40
0.25
 40
0.5
 40
0.5
 40
0.5
 40
0.5
 40
0.75
 40
0.75
 40
0.75
 40
0.75
 40
1.0
 40
1.0
 40
1.0
 40
1.0
 10
-1.5004173228346458
 20
-4.5010511811023628
 30
0.0
 10
-1.5004173228346458
 20
-4.5010511811023628
 30
0.0
 10
-0.8302716535433071
 20
-4.896885826771654
 30
0.0
 10
-0.8302716535433071
 20
-4.896885826771654
 30
0.0
 10
-0.8302716535433071
 20
-4.896885826771654
 30
0.0
 10
-0.8302716535433071
 20
-4.896885826771654
 30
0.0
 10
-0.9287440944881891
 20
-4.9144724409448823
 30
0.0
 10
-0.9287440944881891
 20
-4.9144724409448823
 30
0.0
 10
-0.9287440944881891
 20
-4.9144724409448823
 30
0.0
 10
-0.9287440944881891
 20
-4.9144724409448823
 30
0.0
 10
-1.5988897637795276
 20
-4.5186377952755903
 30
0.0
 10
-1.5988897637795276
 20
-4.5186377952755903
 30
0.0
 10
-1.5988897637795276
 20
-4.5186377952755903
 30
0.0
 10
-1.5988897637795276
 20
-4.5186377952755903
 30
0.0
 10
-1.5004173228346458
 20
-4.5010511811023628
 30
0.0
 10
-1.5004173228346458
 20
-4.5010511811023628
 30
0.0
  0
SPLINE
  5
D9
100
AcDbEntity
  8
Additional Graphics
 62
     9
100
AcDbSpline
210
0.0
220
0.0
230
1.0
 70
     1
 71
     3
 72
    20
 73
    16
 74
     0
 42
0.0000000001
 43
0.0000000001
 40
0.0
 40
0.0
 40
0.0
 40
0.0
 40
0.25
 40
0.25
 40
0.25
 40
0.25
 40
0.5
 40
0.5
 40
0.5
 40
0.5
 40
0.75
 40
0.75
 40
0.75
 40
0.75
 40
1.0
 40
1.0
 40
1.0
 40
1.0
 10
-1.5988897637795276
 20
-4.5186377952755903
 30
0.0
 10
-1.5988897637795276
 20
-4.5186377952755903
 30
0.0
 10
-0.9287440944881891
 20
-4.9144724409448823
 30
0.0
 10
-0.9287440944881891
 20
-4.9144724409448823
 30
0.0
 10
-0.9287440944881891
 20
-4.9144724409448823
 30
0.0
 10
-0.9287440944881891
 20
-4.9144724409448823
 30
0.0
 10
-1.0288267716535433
 20
-4.9271968503937007
 30
0.0
 10
-1.0288267716535433
 20
-4.9271968503937007
 30
0.0
 10
-1.0288267716535433
 20
-4.9271968503937007
 30
0.0
 10
-1.0288267716535433
 20
-4.9271968503937007
 30
0.0
 10
-1.6989724409448819
 20
-4.5313622047244095
 30
0.0
 10
-1.6989724409448819
 20
-4.5313622047244095
 30
0.0
 10
-1.6989724409448819
 20
-4.5313622047244095
 30
0.0
 10
-1.6989724409448819
 20
-4.5313622047244095
 30
0.0
 10
-1.5988897637795276
 20
-4.5186377952755903
 30
0.0
 10
-1.5988897637795276
 20
-4.5186377952755903
 30
0.0
  0
SPLINE
  5
DA
100
AcDbEntity
  8
Additional Graphics
 62
     9
100
AcDbSpline
210
0.0
220
0.0
230
1.0
 70
     1
 71
     3
 72
    20
 73
    16
 74
     0
 42
0.0000000001
 43
0.0000000001
 40
0.0
 40
0.0
 40
0.0
 40
0.0
 40
0.25
 40
0.25
 40
0.25
 40
0.25
 40
0.5
 40
0.5
 40
0.5
 40
0.5
 40
0.75
 40
0.75
 40
0.75
 40
0.75
 40
1.0
 40
1.0
 40
1.0
 40
1.0
 10
-1.6989724409448819
 20
-4.5313622047244095
 30
0.0
 10
-1.6989724409448819
 20
-4.5313622047244095
 30
0.0
 10
-1.0288267716535433
 20
-4.9271968503937007
 30
0.0
 10
-1.0288267716535433
 20
-4.9271968503937007
 30
0.0
 10
-1.0288267716535433
 20
-4.9271968503937007
 30
0.0
 10
-1.0288267716535433
 20
-4.9271968503937007
 30
0.0
 10
-1.1303818897637796
 20
-4.9349212598425201
 30
0.0
 10
-1.1303818897637796
 20
-4.9349212598425201
 30
0.0
 10
-1.1303818897637796
 20
-4.9349212598425201
 30
0.0
 10
-1.1303818897637796
 20
-4.9349212598425201
 30
0.0
 10
-1.8005275590551182
 20
-4.5390866141732289
 30
0.0
 10
-1.8005275590551182
 20
-4.5390866141732289
 30
0.0
 10
-1.8005275590551182
 20
-4.5390866141732289
 30
0.0
 10
-1.8005275590551182
 20
-4.5390866141732289
 30
0.0
 10
-1.6989724409448819
 20
-4.5313622047244095
 30
0.0
 10
-1.6989724409448819
 20
-4.5313622047244095
 30
0.0
  0
SPLINE
  5
DB
100
AcDbEntity
  8
Additional Graphics
 62
     9
100
AcDbSpline
210
0.0
220
0.0
230
1.0
 70
     1
 71
     3
 72
    20
 73
    16
 74
     0
 42
0.0000000001
 43
0.0000000001
 40
0.0
 40
0.0
 40
0.0
 40
0.0
 40
0.25
 40
0.25
 40
0.25
 40
0.25
 40
0.5
 40
0.5
 40
0.5
 40
0.5
 40
0.75
 40
0.75
 40
0.75
 40
0.75
 40
1.0
 40
1.0
 40
1.0
 40
1.0
 10
-1.8005275590551182
 20
-4.5390866141732289
 30
0.0
 10
-1.8005275590551182
 20
-4.5390866141732289
 30
0.0
 10
-1.1303818897637796
 20
-4.9349212598425201
 30
0.0
 10
-1.1303818897637796
 20
-4.9349212598425201
 30
0.0
 10
-1.1303818897637796
 20
-4.9349212598425201
 30
0.0
 10
-1.1303818897637796
 20
-4.9349212598425201
 30
0.0
 10
-1.2332913385826771
 20
-4.937527559055118
 30
0.0
 10
-1.2332913385826771
 20
-4.937527559055118
 30
0.0
 10
-1.2332913385826771
 20
-4.937527559055118
 30
0.0
 10
-1.2332913385826771
 20
-4.937527559055118
 30
0.0
 10
-1.9034370078740159
 20
-4.5416929133858268
 30
0.0
 10
-1.9034370078740159
 20
-4.5416929133858268
 30
0.0
 10
-1.9034370078740159
 20
-4.5416929133858268
 30
0.0
 10
-1.9034370078740159
 20
-4.5416929133858268
 30
0.0
 10
-1.8005275590551182
 20
-4.5390866141732289
 30
0.0
 10
-1.8005275590551182
 20
-4.5390866141732289
 30
0.0
  0
SPLINE
  5
DC
100
AcDbEntity
  8
Additional Graphics
370
     5
100
AcDbSpline
210
0.0
220
0.0
230
1.0
 70
     1
 71
     3
 72
   268
 73
   264
 74
     0
 42
0.0000000001
 43
0.0000000001
 40
0.0
 40
0.0
 40
0.0
 40
0.0
 40
0.0151515151515152
 40
0.0151515151515152
 40
0.0151515151515152
 40
0.0151515151515152
 40
0.0303030303030303
 40
0.0303030303030303
 40
0.0303030303030303
 40
0.0303030303030303
 40
0.0454545454545455
 40
0.0454545454545455
 40
0.0454545454545455
 40
0.0454545454545455
 40
0.0606060606060606
 40
0.0606060606060606
 40
0.0606060606060606
 40
0.0606060606060606
 40
0.0757575757575758
 40
0.0757575757575758
 40
0.0757575757575758
 40
0.0757575757575758
 40
0.0909090909090909
 40
0.0909090909090909
 40
0.0909090909090909
 40
0.0909090909090909
 40
0.1060606060606061
 40
0.1060606060606061
 40
0.1060606060606061
 40
0.1060606060606061
 40
0.1212121212121212
 40
0.1212121212121212
 40
0.1212121212121212
 40
0.1212121212121212
 40
0.1363636363636364
 40
0.1363636363636364
 40
0.1363636363636364
 40
0.1363636363636364
 40
0.1515151515151515
 40
0.1515151515151515
 40
0.1515151515151515
 40
0.1515151515151515
 40
0.1666666666666666
 40
0.1666666666666666
 40
0.1666666666666666
 40
0.1666666666666666
 40
0.1818181818181818
 40
0.1818181818181818
 40
0.1818181818181818
 40
0.1818181818181818
 40
0.1969696969696969
 40
0.1969696969696969
 40
0.1969696969696969
 40
0.1969696969696969
 40
0.212121212121212
 40
0.212121212121212
 40
0.212121212121212
 40
0.212121212121212
 40
0.2272727272727272
 40
0.2272727272727272
 40
0.2272727272727272
 40
0.2272727272727272
 40
0.2424242424242423
 40
0.2424242424242423
 40
0.2424242424242423
 40
0.2424242424242423
 40
0.2575757575757575
 40
0.2575757575757575
 40
0.2575757575757575
 40
0.2575757575757575
 40
0.2727272727272726
 40
0.2727272727272726
 40
0.2727272727272726
 40
0.2727272727272726
 40
0.2878787878787877
 40
0.2878787878787877
 40
0.2878787878787877
 40
0.2878787878787877
 40
0.3030303030303029
 40
0.3030303030303029
 40
0.3030303030303029
 40
0.3030303030303029
 40
0.318181818181818
 40
0.318181818181818
 40
0.318181818181818
 40
0.318181818181818
 40
0.3333333333333332
 40
0.3333333333333332
 40
0.3333333333333332
 40
0.3333333333333332
 40
0.3484848484848483
 40
0.3484848484848483
 40
0.3484848484848483
 40
0.3484848484848483
 40
0.3636363636363634
 40
0.3636363636363634
 40
0.3636363636363634
 40
0.3636363636363634
 40
0.3787878787878786
 40
0.3787878787878786
 40
0.3787878787878786
 40
0.3787878787878786
 40
0.3939393939393937
 40
0.3939393939393937
 40
0.3939393939393937
 40
0.3939393939393937
 40
0.4090909090909088
 40
0.4090909090909088
 40
0.4090909090909088
 40
0.4090909090909088
 40
0.424242424242424
 40
0.424242424242424
 40
0.424242424242424
 40
0.424242424242424
 40
0.4393939393939391
 40
0.4393939393939391
 40
0.4393939393939391
 40
0.4393939393939391
 40
0.4545454545454543
 40
0.4545454545454543
 40
0.4545454545454543
 40
0.4545454545454543
 40
0.4696969696969694
 40
0.4696969696969694
 40
0.4696969696969694
 40
0.4696969696969694
 40
0.4848484848484845
 40
0.4848484848484845
 40
0.4848484848484845
 40
0.4848484848484845
 40
0.4999999999999997
 40
0.4999999999999997
 40
0.4999999999999997
 40
0.4999999999999997
 40
0.5151515151515148
 40
0.5151515151515148
 40
0.5151515151515148
 40
0.5151515151515148
 40
0.5303030303030299
 40
0.5303030303030299
 40
0.5303030303030299
 40
0.5303030303030299
 40
0.5454545454545451
 40
0.5454545454545451
 40
0.5454545454545451
 40
0.5454545454545451
 40
0.5606060606060602
 40
0.5606060606060602
 40
0.5606060606060602
 40
0.5606060606060602
 40
0.5757575757575754
 40
0.5757575757575754
 40
0.5757575757575754
 40
0.5757575757575754
 40
0.5909090909090905
 40
0.5909090909090905
 40
0.5909090909090905
 40
0.5909090909090905
 40
0.6060606060606056
 40
0.6060606060606056
 40
0.6060606060606056
 40
0.6060606060606056
 40
0.6212121212121208
 40
0.6212121212121208
 40
0.6212121212121208
 40
0.6212121212121208
 40
0.6363636363636359
 40
0.6363636363636359
 40
0.6363636363636359
 40
0.6363636363636359
 40
0.6515151515151511
 40
0.6515151515151511
 40
0.6515151515151511
 40
0.6515151515151511
 40
0.6666666666666662
 40
0.6666666666666662
 40
0.6666666666666662
 40
0.6666666666666662
 40
0.6818181818181813
 40
0.6818181818181813
 40
0.6818181818181813
 40
0.6818181818181813
 40
0.6969696969696965
 40
0.6969696969696965
 40
0.6969696969696965
 40
0.6969696969696965
 40
0.7121212121212116
 40
0.7121212121212116
 40
0.7121212121212116
 40
0.7121212121212116
 40
0.7272727272727267
 40
0.7272727272727267
 40
0.7272727272727267
 40
0.7272727272727267
 40
0.7424242424242419
 40
0.7424242424242419
 40
0.7424242424242419
 40
0.7424242424242419
 40
0.757575757575757
 40
0.757575757575757
 40
0.757575757575757
 40
0.757575757575757
 40
0.7727272727272722
 40
0.7727272727272722
 40
0.7727272727272722
 40
0.7727272727272722
 40
0.7878787878787873
 40
0.7878787878787873
 40
0.7878787878787873
 40
0.7878787878787873
 40
0.8030303030303024
 40
0.8030303030303024
 40
0.8030303030303024
 40
0.8030303030303024
 40
0.8181818181818176
 40
0.8181818181818176
 40
0.8181818181818176
 40
0.8181818181818176
 40
0.8333333333333327
 40
0.8333333333333327
 40
0.8333333333333327
 40
0.8333333333333327
 40
0.8484848484848478
 40
0.8484848484848478
 40
0.8484848484848478
 40
0.8484848484848478
 40
0.863636363636363
 40
0.863636363636363
 40
0.863636363636363
 40
0.863636363636363
 40
0.8787878787878781
 40
0.8787878787878781
 40
0.8787878787878781
 40
0.8787878787878781
 40
0.8939393939393933
 40
0.8939393939393933
 40
0.8939393939393933
 40
0.8939393939393933
 40
0.9090909090909084
 40
0.9090909090909084
 40
0.9090909090909084
 40
0.9090909090909084
 40
0.9242424242424235
 40
0.9242424242424235
 40
0.9242424242424235
 40
0.9242424242424235
 40
0.9393939393939387
 40
0.9393939393939387
 40
0.9393939393939387
 40
0.9393939393939387
 40
0.9545454545454538
 40
0.9545454545454538
 40
0.9545454545454538
 40
0.9545454545454538
 40
0.969696969696969
 40
0.969696969696969
 40
0.969696969696969
 40
0.969696969696969
 40
0.9848484848484841
 40
0.9848484848484841
 40
0.9848484848484841
 40
0.9848484848484841
 40
1.0
 40
1.0
 40
1.0
 40
1.0
 10
0.0965590551181102
 20
-2.5416889763779529
 30
0.0
 10
0.0965590551181102
 20
-2.5416889763779529
 30
0.0
 10
0.7667047244094488
 20
-2.937523622047244
 30
0.0
 10
0.7667047244094488
 20
-2.937523622047244
 30
0.0
 10
0.7667047244094488
 20
-2.937523622047244
 30
0.0
 10
0.7667047244094488
 20
-2.937523622047244
 30
0.0
 10
0.7640984251968505
 20
-3.0404212598425198
 30
0.0
 10
0.7640984251968505
 20
-3.0404212598425198
 30
0.0
 10
0.7640984251968505
 20
-3.0404212598425198
 30
0.0
 10
0.7640984251968505
 20
-3.0404212598425198
 30
0.0
 10
0.7563740157480315
 20
-3.1419763779527559
 30
0.0
 10
0.7563740157480315
 20
-3.1419763779527559
 30
0.0
 10
0.7563740157480315
 20
-3.1419763779527559
 30
0.0
 10
0.7563740157480315
 20
-3.1419763779527559
 30
0.0
 10
0.7436496062992126
 20
-3.2420511811023625
 30
0.0
 10
0.7436496062992126
 20
-3.2420511811023625
 30
0.0
 10
0.7436496062992126
 20
-3.2420511811023625
 30
0.0
 10
0.7436496062992126
 20
-3.2420511811023625
 30
0.0
 10
0.7260629921259842
 20
-3.3405354330708663
 30
0.0
 10
0.7260629921259842
 20
-3.3405354330708663
 30
0.0
 10
0.7260629921259842
 20
-3.3405354330708663
 30
0.0
 10
0.7260629921259842
 20
-3.3405354330708663
 30
0.0
 10
0.703724409448819
 20
-3.4372834645669292
 30
0.0
 10
0.703724409448819
 20
-3.4372834645669292
 30
0.0
 10
0.703724409448819
 20
-3.4372834645669292
 30
0.0
 10
0.703724409448819
 20
-3.4372834645669292
 30
0.0
 10
0.6767677165354331
 20
-3.5321889763779528
 30
0.0
 10
0.6767677165354331
 20
-3.5321889763779528
 30
0.0
 10
0.6767677165354331
 20
-3.5321889763779528
 30
0.0
 10
0.6767677165354331
 20
-3.5321889763779528
 30
0.0
 10
0.6453188976377953
 20
-3.6251102362204728
 30
0.0
 10
0.6453188976377953
 20
-3.6251102362204728
 30
0.0
 10
0.6453188976377953
 20
-3.6251102362204728
 30
0.0
 10
0.6453188976377953
 20
-3.6251102362204728
 30
0.0
 10
0.609507874015748
 20
-3.715933070866142
 30
0.0
 10
0.609507874015748
 20
-3.715933070866142
 30
0.0
 10
0.609507874015748
 20
-3.715933070866142
 30
0.0
 10
0.609507874015748
 20
-3.715933070866142
 30
0.0
 10
0.5694448818897638
 20
-3.8045196850393701
 30
0.0
 10
0.5694448818897638
 20
-3.8045196850393701
 30
0.0
 10
0.5694448818897638
 20
-3.8045196850393701
 30
0.0
 10
0.5694448818897638
 20
-3.8045196850393701
 30
0.0
 10
0.5252716535433071
 20
-3.8907559055118113
 30
0.0
 10
0.5252716535433071
 20
-3.8907559055118113
 30
0.0
 10
0.5252716535433071
 20
-3.8907559055118113
 30
0.0
 10
0.5252716535433071
 20
-3.8907559055118113
 30
0.0
 10
0.4771062992125985
 20
-3.9745078740157482
 30
0.0
 10
0.4771062992125985
 20
-3.9745078740157482
 30
0.0
 10
0.4771062992125985
 20
-3.9745078740157482
 30
0.0
 10
0.4771062992125985
 20
-3.9745078740157482
 30
0.0
 10
0.4250826771653544
 20
-4.0556574803149612
 30
0.0
 10
0.4250826771653544
 20
-4.0556574803149612
 30
0.0
 10
0.4250826771653544
 20
-4.0556574803149612
 30
0.0
 10
0.4250826771653544
 20
-4.0556574803149612
 30
0.0
 10
0.3693149606299213
 20
-4.134070866141732
 30
0.0
 10
0.3693149606299213
 20
-4.134070866141732
 30
0.0
 10
0.3693149606299213
 20
-4.134070866141732
 30
0.0
 10
0.3693149606299213
 20
-4.134070866141732
 30
0.0
 10
0.3099370078740157
 20
-4.2096299212598423
 30
0.0
 10
0.3099370078740157
 20
-4.2096299212598423
 30
0.0
 10
0.3099370078740157
 20
-4.2096299212598423
 30
0.0
 10
0.3099370078740157
 20
-4.2096299212598423
 30
0.0
 10
0.2470708661417323
 20
-4.282204724409449
 30
0.0
 10
0.2470708661417323
 20
-4.282204724409449
 30
0.0
 10
0.2470708661417323
 20
-4.282204724409449
 30
0.0
 10
0.2470708661417323
 20
-4.282204724409449
 30
0.0
 10
0.1808464566929134
 20
-4.3516692913385828
 30
0.0
 10
0.1808464566929134
 20
-4.3516692913385828
 30
0.0
 10
0.1808464566929134
 20
-4.3516692913385828
 30
0.0
 10
0.1808464566929134
 20
-4.3516692913385828
 30
0.0
 10
0.1113818897637795
 20
-4.4178937007874017
 30
0.0
 10
0.1113818897637795
 20
-4.4178937007874017
 30
0.0
 10
0.1113818897637795
 20
-4.4178937007874017
 30
0.0
 10
0.1113818897637795
 20
-4.4178937007874017
 30
0.0
 10
0.0388070866141732
 20
-4.4807598425196851
 30
0.0
 10
0.0388070866141732
 20
-4.4807598425196851
 30
0.0
 10
0.0388070866141732
 20
-4.4807598425196851
 30
0.0
 10
0.0388070866141732
 20
-4.4807598425196851
 30
0.0
 10
-0.036751968503937
 20
-4.5401377952755908
 30
0.0
 10
-0.036751968503937
 20
-4.5401377952755908
 30
0.0
 10
-0.036751968503937
 20
-4.5401377952755908
 30
0.0
 10
-0.036751968503937
 20
-4.5401377952755908
 30
0.0
 10
-0.1151614173228347
 20
-4.5959055118110239
 30
0.0
 10
-0.1151614173228347
 20
-4.5959055118110239
 30
0.0
 10
-0.1151614173228347
 20
-4.5959055118110239
 30
0.0
 10
-0.1151614173228347
 20
-4.5959055118110239
 30
0.0
 10
-0.1963110236220473
 20
-4.647929133858268
 30
0.0
 10
-0.1963110236220473
 20
-4.647929133858268
 30
0.0
 10
-0.1963110236220473
 20
-4.647929133858268
 30
0.0
 10
-0.1963110236220473
 20
-4.647929133858268
 30
0.0
 10
-0.2800551181102363
 20
-4.6960944881889768
 30
0.0
 10
-0.2800551181102363
 20
-4.6960944881889768
 30
0.0
 10
-0.2800551181102363
 20
-4.6960944881889768
 30
0.0
 10
-0.2800551181102363
 20
-4.6960944881889768
 30
0.0
 10
-0.3662834645669292
 20
-4.740267716535433
 30
0.0
 10
-0.3662834645669292
 20
-4.740267716535433
 30
0.0
 10
-0.3662834645669292
 20
-4.740267716535433
 30
0.0
 10
-0.3662834645669292
 20
-4.740267716535433
 30
0.0
 10
-0.4548779527559055
 20
-4.7803307086614177
 30
0.0
 10
-0.4548779527559055
 20
-4.7803307086614177
 30
0.0
 10
-0.4548779527559055
 20
-4.7803307086614177
 30
0.0
 10
-0.4548779527559055
 20
-4.7803307086614177
 30
0.0
 10
-0.5456929133858268
 20
-4.816141732283465
 30
0.0
 10
-0.5456929133858268
 20
-4.816141732283465
 30
0.0
 10
-0.5456929133858268
 20
-4.816141732283465
 30
0.0
 10
-0.5456929133858268
 20
-4.816141732283465
 30
0.0
 10
-0.6386181102362205
 20
-4.8475905511811028
 30
0.0
 10
-0.6386181102362205
 20
-4.8475905511811028
 30
0.0
 10
-0.6386181102362205
 20
-4.8475905511811028
 30
0.0
 10
-0.6386181102362205
 20
-4.8475905511811028
 30
0.0
 10
-0.7335157480314961
 20
-4.8745472440944884
 30
0.0
 10
-0.7335157480314961
 20
-4.8745472440944884
 30
0.0
 10
-0.7335157480314961
 20
-4.8745472440944884
 30
0.0
 10
-0.7335157480314961
 20
-4.8745472440944884
 30
0.0
 10
-0.8302716535433071
 20
-4.896885826771654
 30
0.0
 10
-0.8302716535433071
 20
-4.896885826771654
 30
0.0
 10
-0.8302716535433071
 20
-4.896885826771654
 30
0.0
 10
-0.8302716535433071
 20
-4.896885826771654
 30
0.0
 10
-0.9287440944881891
 20
-4.9144724409448823
 30
0.0
 10
-0.9287440944881891
 20
-4.9144724409448823
 30
0.0
 10
-0.9287440944881891
 20
-4.9144724409448823
 30
0.0
 10
-0.9287440944881891
 20
-4.9144724409448823
 30
0.0
 10
-1.0288267716535433
 20
-4.9271968503937007
 30
0.0
 10
-1.0288267716535433
 20
-4.9271968503937007
 30
0.0
 10
-1.0288267716535433
 20
-4.9271968503937007
 30
0.0
 10
-1.0288267716535433
 20
-4.9271968503937007
 30
0.0
 10
-1.1303818897637796
 20
-4.9349212598425201
 30
0.0
 10
-1.1303818897637796
 20
-4.9349212598425201
 30
0.0
 10
-1.1303818897637796
 20
-4.9349212598425201
 30
0.0
 10
-1.1303818897637796
 20
-4.9349212598425201
 30
0.0
 10
-1.2332913385826771
 20
-4.937527559055118
 30
0.0
 10
-1.2332913385826771
 20
-4.937527559055118
 30
0.0
 10
-1.2332913385826771
 20
-4.937527559055118
 30
0.0
 10
-1.2332913385826771
 20
-4.937527559055118
 30
0.0
 10
-1.9034370078740159
 20
-4.5416929133858268
 30
0.0
 10
-1.9034370078740159
 20
-4.5416929133858268
 30
0.0
 10
-1.9034370078740159
 20
-4.5416929133858268
 30
0.0
 10
-1.9034370078740159
 20
-4.5416929133858268
 30
0.0
 10
-1.8005275590551182
 20
-4.5390866141732289
 30
0.0
 10
-1.8005275590551182
 20
-4.5390866141732289
 30
0.0
 10
-1.8005275590551182
 20
-4.5390866141732289
 30
0.0
 10
-1.8005275590551182
 20
-4.5390866141732289
 30
0.0
 10
-1.6989724409448819
 20
-4.5313622047244095
 30
0.0
 10
-1.6989724409448819
 20
-4.5313622047244095
 30
0.0
 10
-1.6989724409448819
 20
-4.5313622047244095
 30
0.0
 10
-1.6989724409448819
 20
-4.5313622047244095
 30
0.0
 10
-1.5988897637795276
 20
-4.5186377952755903
 30
0.0
 10
-1.5988897637795276
 20
-4.5186377952755903
 30
0.0
 10
-1.5988897637795276
 20
-4.5186377952755903
 30
0.0
 10
-1.5988897637795276
 20
-4.5186377952755903
 30
0.0
 10
-1.5004173228346458
 20
-4.5010511811023628
 30
0.0
 10
-1.5004173228346458
 20
-4.5010511811023628
 30
0.0
 10
-1.5004173228346458
 20
-4.5010511811023628
 30
0.0
 10
-1.5004173228346458
 20
-4.5010511811023628
 30
0.0
 10
-1.4036614173228348
 20
-4.4787125984251972
 30
0.0
 10
-1.4036614173228348
 20
-4.4787125984251972
 30
0.0
 10
-1.4036614173228348
 20
-4.4787125984251972
 30
0.0
 10
-1.4036614173228348
 20
-4.4787125984251972
 30
0.0
 10
-1.3087637795275591
 20
-4.4517559055118108
 30
0.0
 10
-1.3087637795275591
 20
-4.4517559055118108
 30
0.0
 10
-1.3087637795275591
 20
-4.4517559055118108
 30
0.0
 10
-1.3087637795275591
 20
-4.4517559055118108
 30
0.0
 10
-1.2158385826771654
 20
-4.4203070866141738
 30
0.0
 10
-1.2158385826771654
 20
-4.4203070866141738
 30
0.0
 10
-1.2158385826771654
 20
-4.4203070866141738
 30
0.0
 10
-1.2158385826771654
 20
-4.4203070866141738
 30
0.0
 10
-1.125023622047244
 20
-4.3844960629921266
 30
0.0
 10
-1.125023622047244
 20
-4.3844960629921266
 30
0.0
 10
-1.125023622047244
 20
-4.3844960629921266
 30
0.0
 10
-1.125023622047244
 20
-4.3844960629921266
 30
0.0
 10
-1.0364291338582678
 20
-4.3444330708661418
 30
0.0
 10
-1.0364291338582678
 20
-4.3444330708661418
 30
0.0
 10
-1.0364291338582678
 20
-4.3444330708661418
 30
0.0
 10
-1.0364291338582678
 20
-4.3444330708661418
 30
0.0
 10
-0.9502007874015749
 20
-4.3002598425196856
 30
0.0
 10
-0.9502007874015749
 20
-4.3002598425196856
 30
0.0
 10
-0.9502007874015749
 20
-4.3002598425196856
 30
0.0
 10
-0.9502007874015749
 20
-4.3002598425196856
 30
0.0
 10
-0.8664566929133859
 20
-4.2520944881889768
 30
0.0
 10
-0.8664566929133859
 20
-4.2520944881889768
 30
0.0
 10
-0.8664566929133859
 20
-4.2520944881889768
 30
0.0
 10
-0.8664566929133859
 20
-4.2520944881889768
 30
0.0
 10
-0.7853070866141733
 20
-4.2000708661417328
 30
0.0
 10
-0.7853070866141733
 20
-4.2000708661417328
 30
0.0
 10
-0.7853070866141733
 20
-4.2000708661417328
 30
0.0
 10
-0.7853070866141733
 20
-4.2000708661417328
 30
0.0
 10
-0.7068976377952756
 20
-4.1443031496062996
 30
0.0
 10
-0.7068976377952756
 20
-4.1443031496062996
 30
0.0
 10
-0.7068976377952756
 20
-4.1443031496062996
 30
0.0
 10
-0.7068976377952756
 20
-4.1443031496062996
 30
0.0
 10
-0.6313385826771654
 20
-4.0849251968503939
 30
0.0
 10
-0.6313385826771654
 20
-4.0849251968503939
 30
0.0
 10
-0.6313385826771654
 20
-4.0849251968503939
 30
0.0
 10
-0.6313385826771654
 20
-4.0849251968503939
 30
0.0
 10
-0.5587637795275591
 20
-4.0220590551181106
 30
0.0
 10
-0.5587637795275591
 20
-4.0220590551181106
 30
0.0
 10
-0.5587637795275591
 20
-4.0220590551181106
 30
0.0
 10
-0.5587637795275591
 20
-4.0220590551181106
 30
0.0
 10
-0.4892992125984252
 20
-3.9558346456692917
 30
0.0
 10
-0.4892992125984252
 20
-3.9558346456692917
 30
0.0
 10
-0.4892992125984252
 20
-3.9558346456692917
 30
0.0
 10
-0.4892992125984252
 20
-3.9558346456692917
 30
0.0
 10
-0.4230748031496063
 20
-3.8863700787401578
 30
0.0
 10
-0.4230748031496063
 20
-3.8863700787401578
 30
0.0
 10
-0.4230748031496063
 20
-3.8863700787401578
 30
0.0
 10
-0.4230748031496063
 20
-3.8863700787401578
 30
0.0
 10
-0.3602086614173228
 20
-3.8137952755905515
 30
0.0
 10
-0.3602086614173228
 20
-3.8137952755905515
 30
0.0
 10
-0.3602086614173228
 20
-3.8137952755905515
 30
0.0
 10
-0.3602086614173228
 20
-3.8137952755905515
 30
0.0
 10
-0.3008307086614173
 20
-3.7382362204724413
 30
0.0
 10
-0.3008307086614173
 20
-3.7382362204724413
 30
0.0
 10
-0.3008307086614173
 20
-3.7382362204724413
 30
0.0
 10
-0.3008307086614173
 20
-3.7382362204724413
 30
0.0
 10
-0.2450629921259843
 20
-3.6598228346456696
 30
0.0
 10
-0.2450629921259843
 20
-3.6598228346456696
 30
0.0
 10
-0.2450629921259843
 20
-3.6598228346456696
 30
0.0
 10
-0.2450629921259843
 20
-3.6598228346456696
 30
0.0
 10
-0.1930393700787402
 20
-3.5786732283464566
 30
0.0
 10
-0.1930393700787402
 20
-3.5786732283464566
 30
0.0
 10
-0.1930393700787402
 20
-3.5786732283464566
 30
0.0
 10
-0.1930393700787402
 20
-3.5786732283464566
 30
0.0
 10
-0.1448740157480315
 20
-3.4949212598425197
 30
0.0
 10
-0.1448740157480315
 20
-3.4949212598425197
 30
0.0
 10
-0.1448740157480315
 20
-3.4949212598425197
 30
0.0
 10
-0.1448740157480315
 20
-3.4949212598425197
 30
0.0
 10
-0.1007007874015748
 20
-3.4086850393700789
 30
0.0
 10
-0.1007007874015748
 20
-3.4086850393700789
 30
0.0
 10
-0.1007007874015748
 20
-3.4086850393700789
 30
0.0
 10
-0.1007007874015748
 20
-3.4086850393700789
 30
0.0
 10
-0.0606377952755906
 20
-3.3200984251968504
 30
0.0
 10
-0.0606377952755906
 20
-3.3200984251968504
 30
0.0
 10
-0.0606377952755906
 20
-3.3200984251968504
 30
0.0
 10
-0.0606377952755906
 20
-3.3200984251968504
 30
0.0
 10
-0.0248267716535433
 20
-3.2292755905511812
 30
0.0
 10
-0.0248267716535433
 20
-3.2292755905511812
 30
0.0
 10
-0.0248267716535433
 20
-3.2292755905511812
 30
0.0
 10
-0.0248267716535433
 20
-3.2292755905511812
 30
0.0
 10
0.0066220472440945
 20
-3.1363543307086617
 30
0.0
 10
0.0066220472440945
 20
-3.1363543307086617
 30
0.0
 10
0.0066220472440945
 20
-3.1363543307086617
 30
0.0
 10
0.0066220472440945
 20
-3.1363543307086617
 30
0.0
 10
0.0335787401574803
 20
-3.0414488188976381
 30
0.0
 10
0.0335787401574803
 20
-3.0414488188976381
 30
0.0
 10
0.0335787401574803
 20
-3.0414488188976381
 30
0.0
 10
0.0335787401574803
 20
-3.0414488188976381
 30
0.0
 10
0.0559173228346457
 20
-2.9447007874015747
 30
0.0
 10
0.0559173228346457
 20
-2.9447007874015747
 30
0.0
 10
0.0559173228346457
 20
-2.9447007874015747
 30
0.0
 10
0.0559173228346457
 20
-2.9447007874015747
 30
0.0
 10
0.073503937007874
 20
-2.8462165354330708
 30
0.0
 10
0.073503937007874
 20
-2.8462165354330708
 30
0.0
 10
0.073503937007874
 20
-2.8462165354330708
 30
0.0
 10
0.073503937007874
 20
-2.8462165354330708
 30
0.0
 10
0.0862283464566929
 20
-2.7461417322834647
 30
0.0
 10
0.0862283464566929
 20
-2.7461417322834647
 30
0.0
 10
0.0862283464566929
 20
-2.7461417322834647
 30
0.0
 10
0.0862283464566929
 20
-2.7461417322834647
 30
0.0
 10
0.0939527559055118
 20
-2.6445866141732286
 30
0.0
 10
0.0939527559055118
 20
-2.6445866141732286
 30
0.0
 10
0.0939527559055118
 20
-2.6445866141732286
 30
0.0
 10
0.0939527559055118
 20
-2.6445866141732286
 30
0.0
 10
0.0965590551181102
 20
-2.5416889763779529
 30
0.0
 10
0.0965590551181102
 20
-2.5416889763779529
 30
0.0
  0
SPLINE
  5
DD
100
AcDbEntity
  8
Additional Graphics
 62
     9
100
AcDbSpline
210
0.0
220
0.0
230
1.0
 70
     1
 71
     3
 72
    20
 73
    16
 74
     0
 42
0.0000000001
 43
0.0000000001
 40
0.0
 40
0.0
 40
0.0
 40
0.0
 40
0.25
 40
0.25
 40
0.25
 40
0.25
 40
0.5
 40
0.5
 40
0.5
 40
0.5
 40
0.75
 40
0.75
 40
0.75
 40
0.75
 40
1.0
 40
1.0
 40
1.0
 40
1.0
 10
-1.9034370078740159
 20
-4.5416929133858268
 30
0.0
 10
-1.9034370078740159
 20
-4.5416929133858268
 30
0.0
 10
-1.2332913385826771
 20
-4.937527559055118
 30
0.0
 10
-1.2332913385826771
 20
-4.937527559055118
 30
0.0
 10
-1.2332913385826771
 20
-4.937527559055118
 30
0.0
 10
-1.2332913385826771
 20
-4.937527559055118
 30
0.0
 10
-1.2332913385826771
 20
-5.312527559055118
 30
0.0
 10
-1.2332913385826771
 20
-5.312527559055118
 30
0.0
 10
-1.2332913385826771
 20
-5.312527559055118
 30
0.0
 10
-1.2332913385826771
 20
-5.312527559055118
 30
0.0
 10
-1.9034370078740159
 20
-4.9166929133858268
 30
0.0
 10
-1.9034370078740159
 20
-4.9166929133858268
 30
0.0
 10
-1.9034370078740159
 20
-4.9166929133858268
 30
0.0
 10
-1.9034370078740159
 20
-4.9166929133858268
 30
0.0
 10
-1.9034370078740159
 20
-4.5416929133858268
 30
0.0
 10
-1.9034370078740159
 20
-4.5416929133858268
 30
0.0
  0
SPLINE
  5
DE
100
AcDbEntity
  8
Additional Graphics
370
     5
100
AcDbSpline
210
0.0
220
0.0
230
1.0
 70
     1
 71
     3
 72
    20
 73
    16
 74
     0
 42
0.0000000001
 43
0.0000000001
 40
0.0
 40
0.0
 40
0.0
 40
0.0
 40
0.25
 40
0.25
 40
0.25
 40
0.25
 40
0.5
 40
0.5
 40
0.5
 40
0.5
 40
0.75
 40
0.75
 40
0.75
 40
0.75
 40
1.0
 40
1.0
 40
1.0
 40
1.0
 10
-1.9034370078740159
 20
-4.5416929133858268
 30
0.0
 10
-1.9034370078740159
 20
-4.5416929133858268
 30
0.0
 10
-1.2332913385826771
 20
-4.937527559055118
 30
0.0
 10
-1.2332913385826771
 20
-4.937527559055118
 30
0.0
 10
-1.2332913385826771
 20
-4.937527559055118
 30
0.0
 10
-1.2332913385826771
 20
-4.937527559055118
 30
0.0
 10
-1.2332913385826771
 20
-5.312527559055118
 30
0.0
 10
-1.2332913385826771
 20
-5.312527559055118
 30
0.0
 10
-1.2332913385826771
 20
-5.312527559055118
 30
0.0
 10
-1.2332913385826771
 20
-5.312527559055118
 30
0.0
 10
-1.9034370078740159
 20
-4.9166929133858268
 30
0.0
 10
-1.9034370078740159
 20
-4.9166929133858268
 30
0.0
 10
-1.9034370078740159
 20
-4.9166929133858268
 30
0.0
 10
-1.9034370078740159
 20
-4.9166929133858268
 30
0.0
 10
-1.9034370078740159
 20
-4.5416929133858268
 30
0.0
 10
-1.9034370078740159
 20
-4.5416929133858268
 30
0.0
  0
SPLINE
  5
DF
100
AcDbEntity
  8
Additional Graphics
 62
     9
100
AcDbSpline
210
0.0
220
0.0
230
1.0
 70
     1
 71
     3
 72
    20
 73
    16
 74
     0
 42
0.0000000001
 43
0.0000000001
 40
0.0
 40
0.0
 40
0.0
 40
0.0
 40
0.25
 40
0.25
 40
0.25
 40
0.25
 40
0.5
 40
0.5
 40
0.5
 40
0.5
 40
0.75
 40
0.75
 40
0.75
 40
0.75
 40
1.0
 40
1.0
 40
1.0
 40
1.0
 10
-1.9034370078740159
 20
-4.9166929133858268
 30
0.0
 10
-1.9034370078740159
 20
-4.9166929133858268
 30
0.0
 10
-1.2332913385826771
 20
-5.312527559055118
 30
0.0
 10
-1.2332913385826771
 20
-5.312527559055118
 30
0.0
 10
-1.2332913385826771
 20
-5.312527559055118
 30
0.0
 10
-1.2332913385826771
 20
-5.312527559055118
 30
0.0
 10
-1.7332913385826771
 20
-5.312527559055118
 30
0.0
 10
-1.7332913385826771
 20
-5.312527559055118
 30
0.0
 10
-1.7332913385826771
 20
-5.312527559055118
 30
0.0
 10
-1.7332913385826771
 20
-5.312527559055118
 30
0.0
 10
-2.4034370078740159
 20
-4.9166929133858268
 30
0.0
 10
-2.4034370078740159
 20
-4.9166929133858268
 30
0.0
 10
-2.4034370078740159
 20
-4.9166929133858268
 30
0.0
 10
-2.4034370078740159
 20
-4.9166929133858268
 30
0.0
 10
-1.9034370078740159
 20
-4.9166929133858268
 30
0.0
 10
-1.9034370078740159
 20
-4.9166929133858268
 30
0.0
  0
SPLINE
  5
E0
100
AcDbEntity
  8
Additional Graphics
370
     5
100
AcDbSpline
210
0.0
220
0.0
230
1.0
 70
     1
 71
     3
 72
    20
 73
    16
 74
     0
 42
0.0000000001
 43
0.0000000001
 40
0.0
 40
0.0
 40
0.0
 40
0.0
 40
0.25
 40
0.25
 40
0.25
 40
0.25
 40
0.5
 40
0.5
 40
0.5
 40
0.5
 40
0.75
 40
0.75
 40
0.75
 40
0.75
 40
1.0
 40
1.0
 40
1.0
 40
1.0
 10
-1.9034370078740159
 20
-4.9166929133858268
 30
0.0
 10
-1.9034370078740159
 20
-4.9166929133858268
 30
0.0
 10
-1.2332913385826771
 20
-5.312527559055118
 30
0.0
 10
-1.2332913385826771
 20
-5.312527559055118
 30
0.0
 10
-1.2332913385826771
 20
-5.312527559055118
 30
0.0
 10
-1.2332913385826771
 20
-5.312527559055118
 30
0.0
 10
-1.7332913385826771
 20
-5.312527559055118
 30
0.0
 10
-1.7332913385826771
 20
-5.312527559055118
 30
0.0
 10
-1.7332913385826771
 20
-5.312527559055118
 30
0.0
 10
-1.7332913385826771
 20
-5.312527559055118
 30
0.0
 10
-2.4034370078740159
 20
-4.9166929133858268
 30
0.0
 10
-2.4034370078740159
 20
-4.9166929133858268
 30
0.0
 10
-2.4034370078740159
 20
-4.9166929133858268
 30
0.0
 10
-2.4034370078740159
 20
-4.9166929133858268
 30
0.0
 10
-1.9034370078740159
 20
-4.9166929133858268
 30
0.0
 10
-1.9034370078740159
 20
-4.9166929133858268
 30
0.0
  0
SPLINE
  5
E1
100
AcDbEntity
  8
Additional Graphics
370
     5
 62
     7
100
AcDbSpline
210
0.0
220
0.0
230
1.0
 70
     1
 71
     3
 72
    24
 73
    20
 74
     0
 42
0.0000000001
 43
0.0000000001
 40
0.0
 40
0.0
 40
0.0
 40
0.0
 40
0.2
 40
0.2
 40
0.2
 40
0.2
 40
0.4
 40
0.4
 40
0.4
 40
0.4
 40
0.6000000000000001
 40
0.6000000000000001
 40
0.6000000000000001
 40
0.6000000000000001
 40
0.8
 40
0.8
 40
0.8
 40
0.8
 40
1.0
 40
1.0
 40
1.0
 40
1.0
 10
0.0965590551181102
 20
-2.5416889763779529
 30
0.0
 10
0.0965590551181102
 20
-3.6460748031496064
 30
0.0
 10
-0.7990551181102362
 20
-4.5416929133858268
 30
0.0
 10
-1.9034370078740159
 20
-4.5416929133858268
 30
0.0
 10
-1.9034370078740159
 20
-4.5416929133858268
 30
0.0
 10
-1.9034370078740159
 20
-4.5416929133858268
 30
0.0
 10
-1.9034370078740159
 20
-4.9166929133858268
 30
0.0
 10
-1.9034370078740159
 20
-4.9166929133858268
 30
0.0
 10
-1.9034370078740159
 20
-4.9166929133858268
 30
0.0
 10
-1.9034370078740159
 20
-4.9166929133858268
 30
0.0
 10
-2.4034370078740159
 20
-4.9166929133858268
 30
0.0
 10
-2.4034370078740159
 20
-4.9166929133858268
 30
0.0
 10
-2.4034370078740159
 20
-4.9166929133858268
 30
0.0
 10
-2.4034370078740159
 20
-4.9166929133858268
 30
0.0
 10
-2.4034370078740159
 20
-2.5416889763779529
 30
0.0
 10
-2.4034370078740159
 20
-2.5416889763779529
 30
0.0
 10
-2.4034370078740159
 20
-2.5416889763779529
 30
0.0
 10
-2.4034370078740159
 20
-2.5416889763779529
 30
0.0
 10
0.0965590551181102
 20
-2.5416889763779529
 30
0.0
 10
0.0965590551181102
 20
-2.5416889763779529
 30
0.0
  0
ENDSEC
  0
SECTION
  2
OBJECTS
  0
DICTIONARY
  5
19
100
AcDbDictionary
280
     0
281
     1
  3
ACAD_GROUP
350
1A
  3
ACAD_MLINESTYLE
350
1B
  3
ACAD_LAYOUT
350
1E
  3
ACAD_PLOTSETTINGS
350
22
  3
ACAD_PLOTSTYLENAME
350
1F
  3
ACAD_WIPEOUT_VARS
350
23
  0
DICTIONARY
  5
1A
102
{ACAD_REACTORS
330
19
102
}
100
AcDbDictionary
280
     0
281
     1
  0
DICTIONARY
  5
1B
102
{ACAD_REACTORS
330
19
102
}
100
AcDbDictionary
280
     0
281
     1
  3
Standard
350
1C
  0
MLINESTYLE
  5
1C
102
{ACAD_REACTORS
330
1B
102
}
100
AcDbMlineStyle
  2
Standard
 70
     0
  3

 62
     0
 51
90.0
 52
90.0
 71
     2
 49
0.5
 62
   256
  6
BYLAYER
 49
-0.5
 62
   256
  6
BYLAYER
  0
ACDBDICTIONARYWDFLT
  5
1F
102
{ACAD_REACTORS
330
19
102
}
100
AcDbDictionary
281
     1
  3
Normal
350
1D
100
AcDbDictionaryWithDefault
340
1D
  0
ACDBPLACEHOLDER
  5
1D
102
{ACAD_REACTORS
330
1F
102
}
  0
LAYOUT
  5
20
102
{ACAD_REACTORS
330
1E
102
}
100
AcDbPlotSettings
  1

  2

  4

  6

 40
0.0
 41
0.0
 42
0.0
 43
0.0
 44
0.0
 45
0.0
 46
0.0
 47
0.0
 48
0.0
 49
0.0
140
0.0
141
0.0
142
1.0
143
1.0
 70
  1024
 72
     0
 73
     0
 74
     0
  7

 75
     0
147
1.0
148
0.0
149
0.0
100
AcDbLayout
  1
Model
 70
     0
 71
     0
 10
0.0
 20
0.0
 11
0.0
 21
0.0
 12
0.0
 22
0.0
 32
0.0
 14
0.0
 24
0.0
 34
0.0
 15
0.0
 25
0.0
 35
0.0
146
0.0
 13
0.0
 23
0.0
 33
0.0
 16
0.0
 26
0.0
 36
0.0
 17
0.0
 27
0.0
 37
0.0
 76
     0
330
A
331
0
345
0
346
0
  0
LAYOUT
  5
21
102
{ACAD_REACTORS
330
1E
102
}
100
AcDbPlotSettings
  1

  2

  4

  6

 40
0.0
 41
0.0
 42
0.0
 43
0.0
 44
0.0
 45
0.0
 46
0.0
 47
0.0
 48
0.0
 49
0.0
140
0.0
141
0.0
142
1.0
143
1.0
 70
     0
 72
     0
 73
     0
 74
     0
  7

 75
     0
147
1.0
148
0.0
149
0.0
100
AcDbLayout
  1
Layout1
 70
     0
 71
     0
 10
0.0
 20
0.0
 11
0.0
 21
0.0
 12
0.0
 22
0.0
 32
0.0
 14
0.0
 24
0.0
 34
0.0
 15
0.0
 25
0.0
 35
0.0
146
0.0
 13
0.0
 23
0.0
 33
0.0
 16
0.0
 26
0.0
 36
0.0
 17
0.0
 27
0.0
 37
0.0
 76
     0
330
B
331
0
345
0
346
0
  0
DICTIONARY
  5
1E
102
{ACAD_REACTORS
330
19
102
}
100
AcDbDictionary
280
     0
281
     1
  3
Layout1
350
21
  3
Model
350
20
  0
DICTIONARY
  5
22
102
{ACAD_REACTORS
330
19
102
}
100
AcDbDictionary
280
     0
281
     1
  0
WIPEOUTVARIABLES
  5
23
100
AcDbWipeoutVariables
 70
     1
  0
ENDSEC
  0
EOF
