  0
SECTION
  2
HEADER
  9
$ACADVER
  1
AC1015
  9
$ACADMAINTVER
 70
     6
  9
$DWGCODEPAGE
  3
DOS850
  9
$INSBASE
 10
0.0
 20
0.0
 30
0.0
  9
$EXTMIN
 10
-3.809126
 20
-5.122492
 30
1.000000E+20
  9
$EXTMAX
 10
3.70476
 20
5.202071
 30
-1.000000E+20
  9
$LIMMIN
 10
0.0
 20
0.0
  9
$LIMMAX
 10
0.0
 20
0.0
  9
$ORTHOMODE
 70
     0
  9
$REGENMODE
 70
     1
  9
$FILLMODE
 70
     1
  9
$QTEXTMODE
 70
     0
  9
$MIRRTEXT
 70
     1
  9
$LTSCALE
 40
1.0
  9
$ATTMODE
 70
     1
  9
$TEXTSIZE
 40
0.2
  9
$TRACEWID
 40
0.05
  9
$TEXTSTYLE
  7
Standard
  9
$CLAYER
  8
0
  9
$CELTYPE
  6
Continuous
  9
$CECOLOR
 62
   256
  9
$CELTSCALE
 40
1.0
  9
$DISPSILH
 70
     0
  9
$DIMSCALE
 40
1.0
  9
$DIMASZ
 40
0.18
  9
$DIMEXO
 40
0.0625
  9
$DIMDLI
 40
0.38
  9
$DIMRND
 40
0.0
  9
$DIMDLE
 40
0.0
  9
$DIMEXE
 40
0.18
  9
$DIMTP
 40
0.0
  9
$DIMTM
 40
0.0
  9
$DIMTXT
 40
0.18
  9
$DIMCEN
 40
0.09
  9
$DIMTSZ
 40
0.0
  9
$DIMTOL
 70
     0
  9
$DIMLIM
 70
     0
  9
$DIMTIH
 70
     1
  9
$DIMTOH
 70
     1
  9
$DIMSE1
 70
     0
  9
$DIMSE2
 70
     0
  9
$DIMTAD
 70
     0
  9
$DIMZIN
 70
     0
  9
$DIMBLK
  1

  9
$DIMASO
 70
     1
  9
$DIMSHO
 70
     1
  9
$DIMPOST
  1

  9
$DIMAPOST
  1

  9
$DIMALT
 70
     0
  9
$DIMALTD
 70
     2
  9
$DIMALTF
 40
25.4
  9
$DIMLFAC
 40
1.0
  9
$DIMTOFL
 70
     0
  9
$DIMTVP
 40
0.0
  9
$DIMTIX
 70
     0
  9
$DIMSOXD
 70
     0
  9
$DIMSAH
 70
     0
  9
$DIMBLK1
  1

  9
$DIMBLK2
  1

  9
$DIMSTYLE
  2
Standard
  9
$DIMCLRD
 70
     0
  9
$DIMCLRE
 70
     0
  9
$DIMCLRT
 70
     0
  9
$DIMTFAC
 40
1.0
  9
$DIMGAP
 40
0.09
  9
$DIMJUST
 70
     0
  9
$DIMSD1
 70
     0
  9
$DIMSD2
 70
     0
  9
$DIMTOLJ
 70
     1
  9
$DIMTZIN
 70
     0
  9
$DIMALTZ
 70
     0
  9
$DIMALTTZ
 70
     0
  9
$DIMUPT
 70
     0
  9
$DIMDEC
 70
     4
  9
$DIMTDEC
 70
     4
  9
$DIMALTU
 70
     2
  9
$DIMALTTD
 70
     2
  9
$DIMTXSTY
  7
Standard
  9
$DIMAUNIT
 70
     0
  9
$DIMADEC
 70
     0
  9
$DIMALTRND
 40
0.0
  9
$DIMAZIN
 70
     0
  9
$DIMDSEP
 70
     0
  9
$DIMATFIT
 70
     3
  9
$DIMFRAC
 70
     0
  9
$DIMLDRBLK
  1

  9
$DIMLUNIT
 70
     2
  9
$DIMLWD
 70
     0
  9
$DIMLWE
 70
     0
  9
$DIMTMOVE
 70
     0
  9
$LUNITS
 70
     2
  9
$LUPREC
 70
     4
  9
$SKETCHINC
 40
0.1
  9
$FILLETRAD
 40
0.0
  9
$AUNITS
 70
     0
  9
$AUPREC
 70
     0
  9
$MENU
  1
acad
  9
$ELEVATION
 40
0.0
  9
$PELEVATION
 40
0.0
  9
$THICKNESS
 40
0.0
  9
$LIMCHECK
 70
     0
  9
$CHAMFERA
 40
0.0
  9
$CHAMFERB
 40
0.0
  9
$CHAMFERC
 40
0.0
  9
$CHAMFERD
 40
0.0
  9
$SKPOLY
 70
     0
  9
$TDCREATE
 40
0.000000000
  9
$TDUCREATE
 40
0.000000000
  9
$TDUPDATE
 40
0.000000000
  9
$TDUUPDATE
 40
0.000000000
  9
$TDINDWG
 40
0.0000000000
  9
$TDUSRTIMER
 40
0.0000000000
  9
$USRTIMER
 70
     1
  9
$ANGBASE
 50
0.0
  9
$ANGDIR
 70
     0
  9
$PDMODE
 70
     0
  9
$PDSIZE
 40
0.0
  9
$PLINEWID
 40
0.0
  9
$SPLFRAME
 70
     0
  9
$SPLINETYPE
 70
     6
  9
$SPLINESEGS
 70
     8
  9
$HANDSEED
  5
7A
  9
$SURFTAB1
 70
     6
  9
$SURFTAB2
 70
     6
  9
$SURFTYPE
 70
     6
  9
$SURFU
 70
     6
  9
$SURFV
 70
     6
  9
$UCSBASE
  2

  9
$UCSNAME
  2

  9
$UCSORG
 10
0.0
 20
0.0
 30
0.0
  9
$UCSXDIR
 10
1.0
 20
0.0
 30
0.0
  9
$UCSYDIR
 10
0.0
 20
1.0
 30
0.0
  9
$UCSORTHOREF
  2

  9
$UCSORTHOVIEW
 70
     0
  9
$UCSORGTOP
 10
0.0
 20
0.0
 30
0.0
  9
$UCSORGBOTTOM
 10
0.0
 20
0.0
 30
0.0
  9
$UCSORGLEFT
 10
0.0
 20
0.0
 30
0.0
  9
$UCSORGRIGHT
 10
0.0
 20
0.0
 30
0.0
  9
$UCSORGFRONT
 10
0.0
 20
0.0
 30
0.0
  9
$UCSORGBACK
 10
0.0
 20
0.0
 30
0.0
  9
$PUCSBASE
  2

  9
$PUCSNAME
  2

  9
$PUCSORG
 10
0.0
 20
0.0
 30
0.0
  9
$PUCSXDIR
 10
1.0
 20
0.0
 30
0.0
  9
$PUCSYDIR
 10
0.0
 20
1.0
 30
0.0
  9
$PUCSORTHOREF
  2

  9
$PUCSORTHOVIEW
 70
     0
  9
$PUCSORGTOP
 10
0.0
 20
0.0
 30
0.0
  9
$PUCSORGBOTTOM
 10
0.0
 20
0.0
 30
0.0
  9
$PUCSORGLEFT
 10
0.0
 20
0.0
 30
0.0
  9
$PUCSORGRIGHT
 10
0.0
 20
0.0
 30
0.0
  9
$PUCSORGFRONT
 10
0.0
 20
0.0
 30
0.0
  9
$PUCSORGBACK
 10
0.0
 20
0.0
 30
0.0
  9
$USERI1
 70
     0
  9
$USERI2
 70
     0
  9
$USERI3
 70
     0
  9
$USERI4
 70
     0
  9
$USERI5
 70
     0
  9
$USERR1
 40
0.0
  9
$USERR2
 40
0.0
  9
$USERR3
 40
0.0
  9
$USERR4
 40
0.0
  9
$USERR5
 40
0.0
  9
$WORLDVIEW
 70
     1
  9
$SHADEDGE
 70
     3
  9
$SHADEDIF
 70
    70
  9
$TILEMODE
 70
     1
  9
$MAXACTVP
 70
    16
  9
$PINSBASE
 10
0.0
 20
0.0
 30
0.0
  9
$PLIMCHECK
 70
     0
  9
$PEXTMIN
 10
1.000000E+20
 20
1.000000E+20
 30
1.000000E+20
  9
$PEXTMAX
 10
-1.000000E+20
 20
-1.000000E+20
 30
-1.000000E+20
  9
$PLIMMIN
 10
0.0
 20
0.0
  9
$PLIMMAX
 10
12.0
 20
9.0
  9
$UNITMODE
 70
     0
  9
$VISRETAIN
 70
     0
  9
$PLINEGEN
 70
     1
  9
$PSLTSCALE
 70
     0
  9
$TREEDEPTH
 70
  3020
  9
$CMLSTYLE
  2
Standard
  9
$CMLJUST
 70
     0
  9
$CMLSCALE
 40
1.0
  9
$PROXYGRAPHICS
 70
     0
  9
$MEASUREMENT
 70
     0
  9
$CELWEIGHT
370
     0
  9
$ENDCAPS
280
     0
  9
$JOINSTYLE
280
     0
  9
$LWDISPLAY
290
     0
  9
$INSUNITS
 70
     1
  9
$HYPERLINKBASE
  1

  9
$XEDIT
290
     1
  9
$CEPSNTYPE
380
     0
  9
$PSTYLEMODE
290
     1
  9
$FINGERPRINTGUID
  2

  9
$VERSIONGUID
  2

  9
$EXTNAMES
290
     1
  9
$PSVPSCALE
 40
0.0
  0
ENDSEC
  0
SECTION
  2
CLASSES
  0
CLASS
  1
LWPOLYLINE
  2
AcDbPolyline
  3
AutoCAD 2000
 90
    32768
280
     0
281
     1
  0
CLASS
  1
IMAGE
  2
AcDbRasterImage
  3
ISM
 90
    32895
280
     0
281
     1
  0
CLASS
  1
OLE2FRAME
  2
AcDbOle2Frame
  3
AutoCAD 2000
 90
    32768
280
     0
281
     1
  0
CLASS
  1
HATCH
  2
AcDbHatch
  3
AutoCAD 2000
 90
    32768
280
     0
281
     1
  0
CLASS
  1
DICTIONARYVAR
  2
AcDbDictionaryVar
  3
AutoCAD 2000
 90
    32768
280
     0
281
     0
  0
CLASS
  1
RASTERVARIABLES
  2
AcDbRasterVariables
  3
ISM
 90
    32768
280
     0
281
     0
  0
CLASS
  1
IMAGEDEF
  2
AcDbRasterImageDef
  3
ISM
 90
    32768
280
     0
281
     0
  0
CLASS
  1
IMAGEDEF_REACTOR
  2
AcDbRasterImageDefReactor
  3
ISM
 90
    32769
280
     0
281
     0
  0
CLASS
  1
IDBUFFER
  2
AcDbIdBuffer
  3
AutoCAD 2000
 90
    32768
280
     0
281
     0
  0
CLASS
  1
SPATIAL_FILTER
  2
AcDbSpatialFilter
  3
AutoCAD 2000
 90
    32768
280
     0
281
     0
  0
CLASS
  1
XRECORD
  2
AcDbXrecord
  3
AutoCAD 2000
 90
    32768
280
     0
281
     0
  0
CLASS
  1
SORTENTSTABLE
  2
AcDbSortentsTable
  3
AutoCAD 2000
 90
    32768
280
     0
281
     0
  0
CLASS
  1
LAYER_INDEX
  2
AcDbLayerIndex
  3
AutoCAD 2000
 90
    32768
280
     0
281
     0
  0
CLASS
  1
SPATIAL_INDEX
  2
AcDbSpatialIndex
  3
AutoCAD 2000
 90
    32768
280
     0
281
     0
  0
CLASS
  1
OBJECT_PTR
  2
CAseDLPNTableRecord
  3
"ASE-LPNTableRecord"
 90
    32769
280
     0
281
     0
  0
CLASS
  1
LAYOUT
  2
AcDbLayout
  3
AutoCAD 2000
 90
        0
280
     0
281
     0
  0
CLASS
  1
PLOTSETTINGS
  2
AcDbPlotSettings
  3
AutoCAD 2000
 90
    32768
280
     0
281
     0
  0
CLASS
  1
ACDBDICTIONARYWDFLT
  2
AcDbDictionaryWithDefault
  3
AutoCAD 2000
 90
        0
280
     0
281
     0
  0
CLASS
  1
ACDBPLACEHOLDER
  2
AcDbPlaceHolder
  3
AutoCAD 2000
 90
        0
280
     0
281
     0
  0
CLASS
  1
VBA_PROJECT
  2
AcDbVbaProject
  3
acadvba
 90
    32768
280
     0
281
     0
  0
CLASS
  1
WIPEOUT
  2
AcDbWipeout
  3
WipeOut|AutoCAD Express Tool|expresstools@autodesk.com
 90
    32895
280
     0
281
     1
  0
CLASS
  1
WIPEOUTVARIABLES
  2
AcDbWipeoutVariables
  3
WipeOut|AutoCAD Express Tool|expresstools@autodesk.com
 90
        0
280
     0
281
     0
  0
CLASS
  1
RTEXT
  2
RText
  3
RText|AutoCAD Express Tool|expresstools@autodesk.com
 90
    32768
280
     0
281
     1
  0
CLASS
  1
ARCALIGNEDTEXT
  2
AcDbArcAlignedText
  3
ATEXT|AutoCAD Express Tool|expresstools@autodesk.com
 90
    32768
280
     0
281
     1
  0
ENDSEC
  0
SECTION
  2
TABLES
  0
TABLE
  2
VPORT
  5
7
100
AcDbSymbolTable
 70
     1
  0
VPORT
  5
15
100
AcDbSymbolTableRecord
100
AcDbViewportTableRecord
  2
*ACTIVE
 70
     0
 10
0.0
 20
0.0
 11
1.0
 21
1.0
 12
6.591288
 22
4.579184
 13
0.0
 23
0.0
 14
1.0
 24
1.0
 15
0.0
 25
0.0
 16
0.0
 26
0.0
 36
1.0
 17
0.0
 27
0.0
 37
0.0
 40
9.158369
 41
0.688564
 42
50.0
 43
0.0
 44
0.0
 50
0.0
 51
0.0
 71
     0
 72
   100
 73
     1
 74
     1
 75
     0
 76
     0
 77
     0
 78
     0
281
     0
 65
     0
110
0.0
120
0.0
130
0.0
111
1.0
121
0.0
131
0.0
112
0.0
122
1.0
132
0.0
345
0
346
0
 79
     0
146
0.0
  0
ENDTAB
  0
TABLE
  2
LTYPE
  5
4
100
AcDbSymbolTable
 70
     3
  0
LTYPE
  5
11
100
AcDbSymbolTableRecord
100
AcDbLinetypeTableRecord
  2
ByBlock
 70
    64
  3

 72
    65
 73
     0
 40
0.0
  0
LTYPE
  5
12
100
AcDbSymbolTableRecord
100
AcDbLinetypeTableRecord
  2
ByLayer
 70
    64
  3

 72
    65
 73
     0
 40
0.0
  0
LTYPE
  5
13
100
AcDbSymbolTableRecord
100
AcDbLinetypeTableRecord
  2
Continuous
 70
    64
  3
Solid line
 72
    65
 73
     0
 40
0.0
  0
ENDTAB
  0
TABLE
  2
LAYER
  5
2
100
AcDbSymbolTable
 70
     2
  0
LAYER
  5
14
100
AcDbSymbolTableRecord
100
AcDbLayerTableRecord
  2
0
 70
     0
 62
     7
  6
Continuous
290
     1
370
    -3
390
1D
  0
LAYER
  5
24
100
AcDbSymbolTableRecord
100
AcDbLayerTableRecord
  2
Additional Graphics
 70
     0
 62
     7
  6
Continuous
290
     1
370
    -3
390
1F
  0
ENDTAB
  0
TABLE
  2
STYLE
  5
3
100
AcDbSymbolTable
 70
     2
  0
STYLE
  5
17
100
AcDbSymbolTableRecord
100
AcDbTextStyleTableRecord
  2
Standard
 70
     0
 40
0.0
 41
1.0
 50
0.0
 71
     0
 42
0.0
  3
txt
  4

  0
STYLE
  5
26
100
AcDbSymbolTableRecord
100
AcDbTextStyleTableRecord
  2
Bookman Old Style
 70
     0
 40
1.0
 41
1.0
 50
0.0
 71
     0
 42
1.0
  3
Bookman Old Style
  4

  0
ENDTAB
  0
TABLE
  2
VIEW
  5
5
100
AcDbSymbolTable
 70
     0
  0
ENDTAB
  0
TABLE
  2
UCS
  5
6
100
AcDbSymbolTable
 70
     0
  0
ENDTAB
  0
TABLE
  2
APPID
  5
8
100
AcDbSymbolTable
 70
     1
  0
APPID
  5
16
100
AcDbSymbolTableRecord
100
AcDbRegAppTableRecord
  2
ACAD
 70
     0
  0
ENDTAB
  0
TABLE
  2
DIMSTYLE
  5
9
100
AcDbSymbolTable
 70
     1
100
AcDbDimStyleTable
 71
     0
  0
DIMSTYLE
105
18
100
AcDbSymbolTableRecord
100
AcDbDimStyleTableRecord
  2
Standard
 70
     0
  3

  4

 40
1.0
 41
0.18
 42
0.0625
 43
0.38
 44
0.18
 45
0.0
 46
0.0
 47
0.0
 48
0.0
 71
     0
 72
     0
 73
     1
 74
     1
 75
     0
 76
     0
 77
     0
 78
     0
 79
     0
140
0.18
141
0.09
142
0.0
143
25.4
144
1.0
145
0.0
146
1.0
147
0.09
148
0.0
170
     0
171
     2
172
     0
173
     0
174
     0
175
     0
176
     0
177
     0
178
     0
179
     0
271
     4
272
     4
273
     2
274
     2
275
     0
276
     0
277
     2
278
    46
279
     0
280
     0
281
     0
282
     0
283
     1
284
     0
285
     0
286
     0
288
     0
340
17
341
0
342
0
343
0
344
0
371
    -2
372
    -2
  0
ENDTAB
  0
TABLE
  2
BLOCK_RECORD
  5
1
100
AcDbSymbolTable
 70
     0
  0
BLOCK_RECORD
  5
A
100
AcDbSymbolTableRecord
100
AcDbBlockTableRecord
  2
*MODEL_SPACE
340
20
  0
BLOCK_RECORD
  5
B
100
AcDbSymbolTableRecord
100
AcDbBlockTableRecord
  2
*PAPER_SPACE
340
21
  0
ENDTAB
  0
ENDSEC
  0
SECTION
  2
BLOCKS
  0
BLOCK
  5
D
100
AcDbEntity
  8
0
100
AcDbBlockBegin
  2
*MODEL_SPACE
 70
     0
 10
0.0
 20
0.0
 30
0.0
  3
*MODEL_SPACE
  1

  0
ENDBLK
  5
E
100
AcDbEntity
  8
0
100
AcDbBlockEnd
  0
BLOCK
  5
F
100
AcDbEntity
 67
     1
  8
0
100
AcDbBlockBegin
  2
*PAPER_SPACE
 70
     0
 10
0.0
 20
0.0
 30
0.0
  3
*PAPER_SPACE
  1

  0
ENDBLK
  5
10
100
AcDbEntity
 67
     1
  8
0
100
AcDbBlockEnd
  0
ENDSEC
  0
SECTION
  2
ENTITIES
  0
SPLINE
  5
25
100
AcDbEntity
  8
Additional Graphics
370
    40
100
AcDbSpline
210
0.0
220
0.0
230
1.0
 70
     1
 71
     3
 72
    28
 73
    24
 74
     0
 42
0.0000000001
 43
0.0000000001
 40
0.0
 40
0.0
 40
0.0
 40
0.0
 40
0.1666666666666667
 40
0.1666666666666667
 40
0.1666666666666667
 40
0.1666666666666667
 40
0.3333333333333333
 40
0.3333333333333333
 40
0.3333333333333333
 40
0.3333333333333333
 40
0.5
 40
0.5
 40
0.5
 40
0.5
 40
0.6666666666666666
 40
0.6666666666666666
 40
0.6666666666666666
 40
0.6666666666666666
 40
0.8333333333333333
 40
0.8333333333333333
 40
0.8333333333333333
 40
0.8333333333333333
 40
1.0
 40
1.0
 40
1.0
 40
1.0
 10
-1.5521811023622047
 20
3.9451259842519688
 30
0.0
 10
-2.2424212598425197
 20
3.9451259842519688
 30
0.0
 10
-2.802181102362205
 20
4.5048858267716536
 30
0.0
 10
-2.802181102362205
 20
5.1951259842519688
 30
0.0
 10
-2.802181102362205
 20
5.1951259842519688
 30
0.0
 10
-2.802181102362205
 20
5.1951259842519688
 30
0.0
 10
-3.802181102362205
 20
5.1951259842519688
 30
0.0
 10
-3.802181102362205
 20
5.1951259842519688
 30
0.0
 10
-3.802181102362205
 20
5.1951259842519688
 30
0.0
 10
-3.802181102362205
 20
5.1951259842519688
 30
0.0
 10
-3.802181102362205
 20
2.9451259842519688
 30
0.0
 10
-3.802181102362205
 20
2.9451259842519688
 30
0.0
 10
-3.802181102362205
 20
2.9451259842519688
 30
0.0
 10
-3.802181102362205
 20
2.9451259842519688
 30
0.0
 10
3.6978149606299215
 20
2.9451259842519688
 30
0.0
 10
3.6978149606299215
 20
2.9451259842519688
 30
0.0
 10
3.6978149606299215
 20
2.9451259842519688
 30
0.0
 10
3.6978149606299215
 20
2.9451259842519688
 30
0.0
 10
3.6978149606299215
 20
3.9451259842519688
 30
0.0
 10
3.6978149606299215
 20
3.9451259842519688
 30
0.0
 10
3.6978149606299215
 20
3.9451259842519688
 30
0.0
 10
3.6978149606299215
 20
3.9451259842519688
 30
0.0
 10
-1.5521811023622047
 20
3.9451259842519688
 30
0.0
 10
-1.5521811023622047
 20
3.9451259842519688
 30
0.0
  0
TEXT
  5
27
100
AcDbEntity
  8
Additional Graphics
100
AcDbText
 10
-0.244898
 20
2.700583
 30
0.0
 40
0.119999
  1
BA  1525
 51
-0.000002
  7
Bookman Old Style
100
AcDbText
  0
TEXT
  5
28
100
AcDbEntity
  8
Additional Graphics
100
AcDbText
 10
-0.509909
 20
2.513083
 30
0.0
 40
0.119999
  1
2-1/4\u+201d x 7-1/2\u+201d
 51
-0.000002
  7
Bookman Old Style
100
AcDbText
  0
SPLINE
  5
29
100
AcDbEntity
  8
Additional Graphics
 62
     9
100
AcDbSpline
210
0.0
220
0.0
230
1.0
 70
     1
 71
     3
 72
    20
 73
    16
 74
     0
 42
0.0000000001
 43
0.0000000001
 40
0.0
 40
0.0
 40
0.0
 40
0.0
 40
0.25
 40
0.25
 40
0.25
 40
0.25
 40
0.5
 40
0.5
 40
0.5
 40
0.5
 40
0.75
 40
0.75
 40
0.75
 40
0.75
 40
1.0
 40
1.0
 40
1.0
 40
1.0
 10
-2.5101535433070867
 20
0.523744094488189
 30
0.0
 10
-2.5101535433070867
 20
0.523744094488189
 30
0.0
 10
-1.8705433070866142
 20
0.129003937007874
 30
0.0
 10
-1.8705433070866142
 20
0.129003937007874
 30
0.0
 10
-1.8705433070866142
 20
0.129003937007874
 30
0.0
 10
-1.8705433070866142
 20
0.129003937007874
 30
0.0
 10
-1.8689133858267717
 20
0.1933149606299213
 30
0.0
 10
-1.8689133858267717
 20
0.1933149606299213
 30
0.0
 10
-1.8689133858267717
 20
0.1933149606299213
 30
0.0
 10
-1.8689133858267717
 20
0.1933149606299213
 30
0.0
 10
-2.5085236220472442
 20
0.5880551181102363
 30
0.0
 10
-2.5085236220472442
 20
0.5880551181102363
 30
0.0
 10
-2.5085236220472442
 20
0.5880551181102363
 30
0.0
 10
-2.5085236220472442
 20
0.5880551181102363
 30
0.0
 10
-2.5101535433070867
 20
0.523744094488189
 30
0.0
 10
-2.5101535433070867
 20
0.523744094488189
 30
0.0
  0
SPLINE
  5
2A
100
AcDbEntity
  8
Additional Graphics
 62
     9
100
AcDbSpline
210
0.0
220
0.0
230
1.0
 70
     1
 71
     3
 72
    20
 73
    16
 74
     0
 42
0.0000000001
 43
0.0000000001
 40
0.0
 40
0.0
 40
0.0
 40
0.0
 40
0.25
 40
0.25
 40
0.25
 40
0.25
 40
0.5
 40
0.5
 40
0.5
 40
0.5
 40
0.75
 40
0.75
 40
0.75
 40
0.75
 40
1.0
 40
1.0
 40
1.0
 40
1.0
 10
-2.5085236220472442
 20
0.5880551181102363
 30
0.0
 10
-2.5085236220472442
 20
0.5880551181102363
 30
0.0
 10
-1.8689133858267717
 20
0.1933149606299213
 30
0.0
 10
-1.8689133858267717
 20
0.1933149606299213
 30
0.0
 10
-1.8689133858267717
 20
0.1933149606299213
 30
0.0
 10
-1.8689133858267717
 20
0.1933149606299213
 30
0.0
 10
-1.8640826771653545
 20
0.2567874015748032
 30
0.0
 10
-1.8640826771653545
 20
0.2567874015748032
 30
0.0
 10
-1.8640826771653545
 20
0.2567874015748032
 30
0.0
 10
-1.8640826771653545
 20
0.2567874015748032
 30
0.0
 10
-2.503692913385827
 20
0.6515275590551182
 30
0.0
 10
-2.503692913385827
 20
0.6515275590551182
 30
0.0
 10
-2.503692913385827
 20
0.6515275590551182
 30
0.0
 10
-2.503692913385827
 20
0.6515275590551182
 30
0.0
 10
-2.5085236220472442
 20
0.5880551181102363
 30
0.0
 10
-2.5085236220472442
 20
0.5880551181102363
 30
0.0
  0
SPLINE
  5
2B
100
AcDbEntity
  8
Additional Graphics
 62
     9
100
AcDbSpline
210
0.0
220
0.0
230
1.0
 70
     1
 71
     3
 72
    20
 73
    16
 74
     0
 42
0.0000000001
 43
0.0000000001
 40
0.0
 40
0.0
 40
0.0
 40
0.0
 40
0.25
 40
0.25
 40
0.25
 40
0.25
 40
0.5
 40
0.5
 40
0.5
 40
0.5
 40
0.75
 40
0.75
 40
0.75
 40
0.75
 40
1.0
 40
1.0
 40
1.0
 40
1.0
 10
-2.503692913385827
 20
0.6515275590551182
 30
0.0
 10
-2.503692913385827
 20
0.6515275590551182
 30
0.0
 10
-1.8640826771653545
 20
0.2567874015748032
 30
0.0
 10
-1.8640826771653545
 20
0.2567874015748032
 30
0.0
 10
-1.8640826771653545
 20
0.2567874015748032
 30
0.0
 10
-1.8640826771653545
 20
0.2567874015748032
 30
0.0
 10
-1.8561299212598426
 20
0.3193346456692914
 30
0.0
 10
-1.8561299212598426
 20
0.3193346456692914
 30
0.0
 10
-1.8561299212598426
 20
0.3193346456692914
 30
0.0
 10
-1.8561299212598426
 20
0.3193346456692914
 30
0.0
 10
-2.4957401574803151
 20
0.7140748031496064
 30
0.0
 10
-2.4957401574803151
 20
0.7140748031496064
 30
0.0
 10
-2.4957401574803151
 20
0.7140748031496064
 30
0.0
 10
-2.4957401574803151
 20
0.7140748031496064
 30
0.0
 10
-2.503692913385827
 20
0.6515275590551182
 30
0.0
 10
-2.503692913385827
 20
0.6515275590551182
 30
0.0
  0
SPLINE
  5
2C
100
AcDbEntity
  8
Additional Graphics
 62
     9
100
AcDbSpline
210
0.0
220
0.0
230
1.0
 70
     1
 71
     3
 72
    20
 73
    16
 74
     0
 42
0.0000000001
 43
0.0000000001
 40
0.0
 40
0.0
 40
0.0
 40
0.0
 40
0.25
 40
0.25
 40
0.25
 40
0.25
 40
0.5
 40
0.5
 40
0.5
 40
0.5
 40
0.75
 40
0.75
 40
0.75
 40
0.75
 40
1.0
 40
1.0
 40
1.0
 40
1.0
 10
-2.4957401574803151
 20
0.7140748031496064
 30
0.0
 10
-2.4957401574803151
 20
0.7140748031496064
 30
0.0
 10
-1.8561299212598426
 20
0.3193346456692914
 30
0.0
 10
-1.8561299212598426
 20
0.3193346456692914
 30
0.0
 10
-1.8561299212598426
 20
0.3193346456692914
 30
0.0
 10
-1.8561299212598426
 20
0.3193346456692914
 30
0.0
 10
-1.8451377952755905
 20
0.3808858267716536
 30
0.0
 10
-1.8451377952755905
 20
0.3808858267716536
 30
0.0
 10
-1.8451377952755905
 20
0.3808858267716536
 30
0.0
 10
-1.8451377952755905
 20
0.3808858267716536
 30
0.0
 10
-2.4847480314960633
 20
0.7756259842519685
 30
0.0
 10
-2.4847480314960633
 20
0.7756259842519685
 30
0.0
 10
-2.4847480314960633
 20
0.7756259842519685
 30
0.0
 10
-2.4847480314960633
 20
0.7756259842519685
 30
0.0
 10
-2.4957401574803151
 20
0.7140748031496064
 30
0.0
 10
-2.4957401574803151
 20
0.7140748031496064
 30
0.0
  0
SPLINE
  5
2D
100
AcDbEntity
  8
Additional Graphics
 62
     9
100
AcDbSpline
210
0.0
220
0.0
230
1.0
 70
     1
 71
     3
 72
    20
 73
    16
 74
     0
 42
0.0000000001
 43
0.0000000001
 40
0.0
 40
0.0
 40
0.0
 40
0.0
 40
0.25
 40
0.25
 40
0.25
 40
0.25
 40
0.5
 40
0.5
 40
0.5
 40
0.5
 40
0.75
 40
0.75
 40
0.75
 40
0.75
 40
1.0
 40
1.0
 40
1.0
 40
1.0
 10
-2.4847480314960633
 20
0.7756259842519685
 30
0.0
 10
-2.4847480314960633
 20
0.7756259842519685
 30
0.0
 10
-1.8451377952755905
 20
0.3808858267716536
 30
0.0
 10
-1.8451377952755905
 20
0.3808858267716536
 30
0.0
 10
-1.8451377952755905
 20
0.3808858267716536
 30
0.0
 10
-1.8451377952755905
 20
0.3808858267716536
 30
0.0
 10
-1.8311732283464568
 20
0.4413503937007874
 30
0.0
 10
-1.8311732283464568
 20
0.4413503937007874
 30
0.0
 10
-1.8311732283464568
 20
0.4413503937007874
 30
0.0
 10
-1.8311732283464568
 20
0.4413503937007874
 30
0.0
 10
-2.4707834645669293
 20
0.8360905511811024
 30
0.0
 10
-2.4707834645669293
 20
0.8360905511811024
 30
0.0
 10
-2.4707834645669293
 20
0.8360905511811024
 30
0.0
 10
-2.4707834645669293
 20
0.8360905511811024
 30
0.0
 10
-2.4847480314960633
 20
0.7756259842519685
 30
0.0
 10
-2.4847480314960633
 20
0.7756259842519685
 30
0.0
  0
SPLINE
  5
2E
100
AcDbEntity
  8
Additional Graphics
 62
     9
100
AcDbSpline
210
0.0
220
0.0
230
1.0
 70
     1
 71
     3
 72
    20
 73
    16
 74
     0
 42
0.0000000001
 43
0.0000000001
 40
0.0
 40
0.0
 40
0.0
 40
0.0
 40
0.25
 40
0.25
 40
0.25
 40
0.25
 40
0.5
 40
0.5
 40
0.5
 40
0.5
 40
0.75
 40
0.75
 40
0.75
 40
0.75
 40
1.0
 40
1.0
 40
1.0
 40
1.0
 10
-2.4707834645669293
 20
0.8360905511811024
 30
0.0
 10
-2.4707834645669293
 20
0.8360905511811024
 30
0.0
 10
-1.8311732283464568
 20
0.4413503937007874
 30
0.0
 10
-1.8311732283464568
 20
0.4413503937007874
 30
0.0
 10
-1.8311732283464568
 20
0.4413503937007874
 30
0.0
 10
-1.8311732283464568
 20
0.4413503937007874
 30
0.0
 10
-1.8143267716535434
 20
0.5006653543307087
 30
0.0
 10
-1.8143267716535434
 20
0.5006653543307087
 30
0.0
 10
-1.8143267716535434
 20
0.5006653543307087
 30
0.0
 10
-1.8143267716535434
 20
0.5006653543307087
 30
0.0
 10
-2.4539370078740159
 20
0.8954055118110237
 30
0.0
 10
-2.4539370078740159
 20
0.8954055118110237
 30
0.0
 10
-2.4539370078740159
 20
0.8954055118110237
 30
0.0
 10
-2.4539370078740159
 20
0.8954055118110237
 30
0.0
 10
-2.4707834645669293
 20
0.8360905511811024
 30
0.0
 10
-2.4707834645669293
 20
0.8360905511811024
 30
0.0
  0
SPLINE
  5
2F
100
AcDbEntity
  8
Additional Graphics
 62
     9
100
AcDbSpline
210
0.0
220
0.0
230
1.0
 70
     1
 71
     3
 72
    20
 73
    16
 74
     0
 42
0.0000000001
 43
0.0000000001
 40
0.0
 40
0.0
 40
0.0
 40
0.0
 40
0.25
 40
0.25
 40
0.25
 40
0.25
 40
0.5
 40
0.5
 40
0.5
 40
0.5
 40
0.75
 40
0.75
 40
0.75
 40
0.75
 40
1.0
 40
1.0
 40
1.0
 40
1.0
 10
-2.4539370078740159
 20
0.8954055118110237
 30
0.0
 10
-2.4539370078740159
 20
0.8954055118110237
 30
0.0
 10
-1.8143267716535434
 20
0.5006653543307087
 30
0.0
 10
-1.8143267716535434
 20
0.5006653543307087
 30
0.0
 10
-1.8143267716535434
 20
0.5006653543307087
 30
0.0
 10
-1.8143267716535434
 20
0.5006653543307087
 30
0.0
 10
-1.7946732283464568
 20
0.558744094488189
 30
0.0
 10
-1.7946732283464568
 20
0.558744094488189
 30
0.0
 10
-1.7946732283464568
 20
0.558744094488189
 30
0.0
 10
-1.7946732283464568
 20
0.558744094488189
 30
0.0
 10
-2.4342834645669291
 20
0.953484251968504
 30
0.0
 10
-2.4342834645669291
 20
0.953484251968504
 30
0.0
 10
-2.4342834645669291
 20
0.953484251968504
 30
0.0
 10
-2.4342834645669291
 20
0.953484251968504
 30
0.0
 10
-2.4539370078740159
 20
0.8954055118110237
 30
0.0
 10
-2.4539370078740159
 20
0.8954055118110237
 30
0.0
  0
SPLINE
  5
30
100
AcDbEntity
  8
Additional Graphics
 62
     9
100
AcDbSpline
210
0.0
220
0.0
230
1.0
 70
     1
 71
     3
 72
    20
 73
    16
 74
     0
 42
0.0000000001
 43
0.0000000001
 40
0.0
 40
0.0
 40
0.0
 40
0.0
 40
0.25
 40
0.25
 40
0.25
 40
0.25
 40
0.5
 40
0.5
 40
0.5
 40
0.5
 40
0.75
 40
0.75
 40
0.75
 40
0.75
 40
1.0
 40
1.0
 40
1.0
 40
1.0
 10
-2.4342834645669291
 20
0.953484251968504
 30
0.0
 10
-2.4342834645669291
 20
0.953484251968504
 30
0.0
 10
-1.7946732283464568
 20
0.558744094488189
 30
0.0
 10
-1.7946732283464568
 20
0.558744094488189
 30
0.0
 10
-1.7946732283464568
 20
0.558744094488189
 30
0.0
 10
-1.7946732283464568
 20
0.558744094488189
 30
0.0
 10
-1.7722913385826773
 20
0.615507874015748
 30
0.0
 10
-1.7722913385826773
 20
0.615507874015748
 30
0.0
 10
-1.7722913385826773
 20
0.615507874015748
 30
0.0
 10
-1.7722913385826773
 20
0.615507874015748
 30
0.0
 10
-2.4119015748031498
 20
1.0102480314960631
 30
0.0
 10
-2.4119015748031498
 20
1.0102480314960631
 30
0.0
 10
-2.4119015748031498
 20
1.0102480314960631
 30
0.0
 10
-2.4119015748031498
 20
1.0102480314960631
 30
0.0
 10
-2.4342834645669291
 20
0.953484251968504
 30
0.0
 10
-2.4342834645669291
 20
0.953484251968504
 30
0.0
  0
SPLINE
  5
31
100
AcDbEntity
  8
Additional Graphics
 62
     9
100
AcDbSpline
210
0.0
220
0.0
230
1.0
 70
     1
 71
     3
 72
    20
 73
    16
 74
     0
 42
0.0000000001
 43
0.0000000001
 40
0.0
 40
0.0
 40
0.0
 40
0.0
 40
0.25
 40
0.25
 40
0.25
 40
0.25
 40
0.5
 40
0.5
 40
0.5
 40
0.5
 40
0.75
 40
0.75
 40
0.75
 40
0.75
 40
1.0
 40
1.0
 40
1.0
 40
1.0
 10
-2.4119015748031498
 20
1.0102480314960631
 30
0.0
 10
-2.4119015748031498
 20
1.0102480314960631
 30
0.0
 10
-1.7722913385826773
 20
0.615507874015748
 30
0.0
 10
-1.7722913385826773
 20
0.615507874015748
 30
0.0
 10
-1.7722913385826773
 20
0.615507874015748
 30
0.0
 10
-1.7722913385826773
 20
0.615507874015748
 30
0.0
 10
-1.7472519685039372
 20
0.6708740157480315
 30
0.0
 10
-1.7472519685039372
 20
0.6708740157480315
 30
0.0
 10
-1.7472519685039372
 20
0.6708740157480315
 30
0.0
 10
-1.7472519685039372
 20
0.6708740157480315
 30
0.0
 10
-2.3868622047244097
 20
1.0656141732283464
 30
0.0
 10
-2.3868622047244097
 20
1.0656141732283464
 30
0.0
 10
-2.3868622047244097
 20
1.0656141732283464
 30
0.0
 10
-2.3868622047244097
 20
1.0656141732283464
 30
0.0
 10
-2.4119015748031498
 20
1.0102480314960631
 30
0.0
 10
-2.4119015748031498
 20
1.0102480314960631
 30
0.0
  0
SPLINE
  5
32
100
AcDbEntity
  8
Additional Graphics
 62
     9
100
AcDbSpline
210
0.0
220
0.0
230
1.0
 70
     1
 71
     3
 72
    20
 73
    16
 74
     0
 42
0.0000000001
 43
0.0000000001
 40
0.0
 40
0.0
 40
0.0
 40
0.0
 40
0.25
 40
0.25
 40
0.25
 40
0.25
 40
0.5
 40
0.5
 40
0.5
 40
0.5
 40
0.75
 40
0.75
 40
0.75
 40
0.75
 40
1.0
 40
1.0
 40
1.0
 40
1.0
 10
-2.3868622047244097
 20
1.0656141732283464
 30
0.0
 10
-2.3868622047244097
 20
1.0656141732283464
 30
0.0
 10
-1.7472519685039372
 20
0.6708740157480315
 30
0.0
 10
-1.7472519685039372
 20
0.6708740157480315
 30
0.0
 10
-1.7472519685039372
 20
0.6708740157480315
 30
0.0
 10
-1.7472519685039372
 20
0.6708740157480315
 30
0.0
 10
-1.7196456692913387
 20
0.7247716535433071
 30
0.0
 10
-1.7196456692913387
 20
0.7247716535433071
 30
0.0
 10
-1.7196456692913387
 20
0.7247716535433071
 30
0.0
 10
-1.7196456692913387
 20
0.7247716535433071
 30
0.0
 10
-2.359255905511811
 20
1.1195118110236222
 30
0.0
 10
-2.359255905511811
 20
1.1195118110236222
 30
0.0
 10
-2.359255905511811
 20
1.1195118110236222
 30
0.0
 10
-2.359255905511811
 20
1.1195118110236222
 30
0.0
 10
-2.3868622047244097
 20
1.0656141732283464
 30
0.0
 10
-2.3868622047244097
 20
1.0656141732283464
 30
0.0
  0
SPLINE
  5
33
100
AcDbEntity
  8
Additional Graphics
 62
     9
100
AcDbSpline
210
0.0
220
0.0
230
1.0
 70
     1
 71
     3
 72
    20
 73
    16
 74
     0
 42
0.0000000001
 43
0.0000000001
 40
0.0
 40
0.0
 40
0.0
 40
0.0
 40
0.25
 40
0.25
 40
0.25
 40
0.25
 40
0.5
 40
0.5
 40
0.5
 40
0.5
 40
0.75
 40
0.75
 40
0.75
 40
0.75
 40
1.0
 40
1.0
 40
1.0
 40
1.0
 10
-2.359255905511811
 20
1.1195118110236222
 30
0.0
 10
-2.359255905511811
 20
1.1195118110236222
 30
0.0
 10
-1.7196456692913387
 20
0.7247716535433071
 30
0.0
 10
-1.7196456692913387
 20
0.7247716535433071
 30
0.0
 10
-1.7196456692913387
 20
0.7247716535433071
 30
0.0
 10
-1.7196456692913387
 20
0.7247716535433071
 30
0.0
 10
-1.6895433070866142
 20
0.7771141732283465
 30
0.0
 10
-1.6895433070866142
 20
0.7771141732283465
 30
0.0
 10
-1.6895433070866142
 20
0.7771141732283465
 30
0.0
 10
-1.6895433070866142
 20
0.7771141732283465
 30
0.0
 10
-2.3291535433070867
 20
1.1718543307086615
 30
0.0
 10
-2.3291535433070867
 20
1.1718543307086615
 30
0.0
 10
-2.3291535433070867
 20
1.1718543307086615
 30
0.0
 10
-2.3291535433070867
 20
1.1718543307086615
 30
0.0
 10
-2.359255905511811
 20
1.1195118110236222
 30
0.0
 10
-2.359255905511811
 20
1.1195118110236222
 30
0.0
  0
SPLINE
  5
34
100
AcDbEntity
  8
Additional Graphics
 62
     9
100
AcDbSpline
210
0.0
220
0.0
230
1.0
 70
     1
 71
     3
 72
    20
 73
    16
 74
     0
 42
0.0000000001
 43
0.0000000001
 40
0.0
 40
0.0
 40
0.0
 40
0.0
 40
0.25
 40
0.25
 40
0.25
 40
0.25
 40
0.5
 40
0.5
 40
0.5
 40
0.5
 40
0.75
 40
0.75
 40
0.75
 40
0.75
 40
1.0
 40
1.0
 40
1.0
 40
1.0
 10
-2.3291535433070867
 20
1.1718543307086615
 30
0.0
 10
-2.3291535433070867
 20
1.1718543307086615
 30
0.0
 10
-1.6895433070866142
 20
0.7771141732283465
 30
0.0
 10
-1.6895433070866142
 20
0.7771141732283465
 30
0.0
 10
-1.6895433070866142
 20
0.7771141732283465
 30
0.0
 10
-1.6895433070866142
 20
0.7771141732283465
 30
0.0
 10
-1.6570275590551182
 20
0.8278346456692913
 30
0.0
 10
-1.6570275590551182
 20
0.8278346456692913
 30
0.0
 10
-1.6570275590551182
 20
0.8278346456692913
 30
0.0
 10
-1.6570275590551182
 20
0.8278346456692913
 30
0.0
 10
-2.2966377952755908
 20
1.2225748031496064
 30
0.0
 10
-2.2966377952755908
 20
1.2225748031496064
 30
0.0
 10
-2.2966377952755908
 20
1.2225748031496064
 30
0.0
 10
-2.2966377952755908
 20
1.2225748031496064
 30
0.0
 10
-2.3291535433070867
 20
1.1718543307086615
 30
0.0
 10
-2.3291535433070867
 20
1.1718543307086615
 30
0.0
  0
SPLINE
  5
35
100
AcDbEntity
  8
Additional Graphics
 62
     9
100
AcDbSpline
210
0.0
220
0.0
230
1.0
 70
     1
 71
     3
 72
    20
 73
    16
 74
     0
 42
0.0000000001
 43
0.0000000001
 40
0.0
 40
0.0
 40
0.0
 40
0.0
 40
0.25
 40
0.25
 40
0.25
 40
0.25
 40
0.5
 40
0.5
 40
0.5
 40
0.5
 40
0.75
 40
0.75
 40
0.75
 40
0.75
 40
1.0
 40
1.0
 40
1.0
 40
1.0
 10
-2.2966377952755908
 20
1.2225748031496064
 30
0.0
 10
-2.2966377952755908
 20
1.2225748031496064
 30
0.0
 10
-1.6570275590551182
 20
0.8278346456692913
 30
0.0
 10
-1.6570275590551182
 20
0.8278346456692913
 30
0.0
 10
-1.6570275590551182
 20
0.8278346456692913
 30
0.0
 10
-1.6570275590551182
 20
0.8278346456692913
 30
0.0
 10
-1.6221732283464567
 20
0.8768425196850395
 30
0.0
 10
-1.6221732283464567
 20
0.8768425196850395
 30
0.0
 10
-1.6221732283464567
 20
0.8768425196850395
 30
0.0
 10
-1.6221732283464567
 20
0.8768425196850395
 30
0.0
 10
-2.2617834645669292
 20
1.2715826771653544
 30
0.0
 10
-2.2617834645669292
 20
1.2715826771653544
 30
0.0
 10
-2.2617834645669292
 20
1.2715826771653544
 30
0.0
 10
-2.2617834645669292
 20
1.2715826771653544
 30
0.0
 10
-2.2966377952755908
 20
1.2225748031496064
 30
0.0
 10
-2.2966377952755908
 20
1.2225748031496064
 30
0.0
  0
SPLINE
  5
36
100
AcDbEntity
  8
Additional Graphics
 62
     9
100
AcDbSpline
210
0.0
220
0.0
230
1.0
 70
     1
 71
     3
 72
    20
 73
    16
 74
     0
 42
0.0000000001
 43
0.0000000001
 40
0.0
 40
0.0
 40
0.0
 40
0.0
 40
0.25
 40
0.25
 40
0.25
 40
0.25
 40
0.5
 40
0.5
 40
0.5
 40
0.5
 40
0.75
 40
0.75
 40
0.75
 40
0.75
 40
1.0
 40
1.0
 40
1.0
 40
1.0
 10
-2.2617834645669292
 20
1.2715826771653544
 30
0.0
 10
-2.2617834645669292
 20
1.2715826771653544
 30
0.0
 10
-1.6221732283464567
 20
0.8768425196850395
 30
0.0
 10
-1.6221732283464567
 20
0.8768425196850395
 30
0.0
 10
-1.6221732283464567
 20
0.8768425196850395
 30
0.0
 10
-1.6221732283464567
 20
0.8768425196850395
 30
0.0
 10
-1.5850629921259842
 20
0.9240669291338584
 30
0.0
 10
-1.5850629921259842
 20
0.9240669291338584
 30
0.0
 10
-1.5850629921259842
 20
0.9240669291338584
 30
0.0
 10
-1.5850629921259842
 20
0.9240669291338584
 30
0.0
 10
-2.224673228346457
 20
1.3188070866141732
 30
0.0
 10
-2.224673228346457
 20
1.3188070866141732
 30
0.0
 10
-2.224673228346457
 20
1.3188070866141732
 30
0.0
 10
-2.224673228346457
 20
1.3188070866141732
 30
0.0
 10
-2.2617834645669292
 20
1.2715826771653544
 30
0.0
 10
-2.2617834645669292
 20
1.2715826771653544
 30
0.0
  0
SPLINE
  5
37
100
AcDbEntity
  8
Additional Graphics
 62
     9
100
AcDbSpline
210
0.0
220
0.0
230
1.0
 70
     1
 71
     3
 72
    20
 73
    16
 74
     0
 42
0.0000000001
 43
0.0000000001
 40
0.0
 40
0.0
 40
0.0
 40
0.0
 40
0.25
 40
0.25
 40
0.25
 40
0.25
 40
0.5
 40
0.5
 40
0.5
 40
0.5
 40
0.75
 40
0.75
 40
0.75
 40
0.75
 40
1.0
 40
1.0
 40
1.0
 40
1.0
 10
-2.224673228346457
 20
1.3188070866141732
 30
0.0
 10
-2.224673228346457
 20
1.3188070866141732
 30
0.0
 10
-1.5850629921259842
 20
0.9240669291338584
 30
0.0
 10
-1.5850629921259842
 20
0.9240669291338584
 30
0.0
 10
-1.5850629921259842
 20
0.9240669291338584
 30
0.0
 10
-1.5850629921259842
 20
0.9240669291338584
 30
0.0
 10
-1.5457677165354331
 20
0.9694212598425197
 30
0.0
 10
-1.5457677165354331
 20
0.9694212598425197
 30
0.0
 10
-1.5457677165354331
 20
0.9694212598425197
 30
0.0
 10
-1.5457677165354331
 20
0.9694212598425197
 30
0.0
 10
-2.1853779527559056
 20
1.3641614173228347
 30
0.0
 10
-2.1853779527559056
 20
1.3641614173228347
 30
0.0
 10
-2.1853779527559056
 20
1.3641614173228347
 30
0.0
 10
-2.1853779527559056
 20
1.3641614173228347
 30
0.0
 10
-2.224673228346457
 20
1.3188070866141732
 30
0.0
 10
-2.224673228346457
 20
1.3188070866141732
 30
0.0
  0
SPLINE
  5
38
100
AcDbEntity
  8
Additional Graphics
 62
     9
100
AcDbSpline
210
0.0
220
0.0
230
1.0
 70
     1
 71
     3
 72
    20
 73
    16
 74
     0
 42
0.0000000001
 43
0.0000000001
 40
0.0
 40
0.0
 40
0.0
 40
0.0
 40
0.25
 40
0.25
 40
0.25
 40
0.25
 40
0.5
 40
0.5
 40
0.5
 40
0.5
 40
0.75
 40
0.75
 40
0.75
 40
0.75
 40
1.0
 40
1.0
 40
1.0
 40
1.0
 10
-2.1853779527559056
 20
1.3641614173228347
 30
0.0
 10
-2.1853779527559056
 20
1.3641614173228347
 30
0.0
 10
-1.5457677165354331
 20
0.9694212598425197
 30
0.0
 10
-1.5457677165354331
 20
0.9694212598425197
 30
0.0
 10
-1.5457677165354331
 20
0.9694212598425197
 30
0.0
 10
-1.5457677165354331
 20
0.9694212598425197
 30
0.0
 10
-1.5043818897637795
 20
1.0128425196850395
 30
0.0
 10
-1.5043818897637795
 20
1.0128425196850395
 30
0.0
 10
-1.5043818897637795
 20
1.0128425196850395
 30
0.0
 10
-1.5043818897637795
 20
1.0128425196850395
 30
0.0
 10
-2.1439921259842523
 20
1.4075826771653543
 30
0.0
 10
-2.1439921259842523
 20
1.4075826771653543
 30
0.0
 10
-2.1439921259842523
 20
1.4075826771653543
 30
0.0
 10
-2.1439921259842523
 20
1.4075826771653543
 30
0.0
 10
-2.1853779527559056
 20
1.3641614173228347
 30
0.0
 10
-2.1853779527559056
 20
1.3641614173228347
 30
0.0
  0
SPLINE
  5
39
100
AcDbEntity
  8
Additional Graphics
 62
     9
100
AcDbSpline
210
0.0
220
0.0
230
1.0
 70
     1
 71
     3
 72
    20
 73
    16
 74
     0
 42
0.0000000001
 43
0.0000000001
 40
0.0
 40
0.0
 40
0.0
 40
0.0
 40
0.25
 40
0.25
 40
0.25
 40
0.25
 40
0.5
 40
0.5
 40
0.5
 40
0.5
 40
0.75
 40
0.75
 40
0.75
 40
0.75
 40
1.0
 40
1.0
 40
1.0
 40
1.0
 10
-2.1439921259842523
 20
1.4075826771653543
 30
0.0
 10
-2.1439921259842523
 20
1.4075826771653543
 30
0.0
 10
-1.5043818897637795
 20
1.0128425196850395
 30
0.0
 10
-1.5043818897637795
 20
1.0128425196850395
 30
0.0
 10
-1.5043818897637795
 20
1.0128425196850395
 30
0.0
 10
-1.5043818897637795
 20
1.0128425196850395
 30
0.0
 10
-1.4609606299212599
 20
1.0542283464566931
 30
0.0
 10
-1.4609606299212599
 20
1.0542283464566931
 30
0.0
 10
-1.4609606299212599
 20
1.0542283464566931
 30
0.0
 10
-1.4609606299212599
 20
1.0542283464566931
 30
0.0
 10
-2.1005708661417324
 20
1.4489685039370079
 30
0.0
 10
-2.1005708661417324
 20
1.4489685039370079
 30
0.0
 10
-2.1005708661417324
 20
1.4489685039370079
 30
0.0
 10
-2.1005708661417324
 20
1.4489685039370079
 30
0.0
 10
-2.1439921259842523
 20
1.4075826771653543
 30
0.0
 10
-2.1439921259842523
 20
1.4075826771653543
 30
0.0
  0
SPLINE
  5
3A
100
AcDbEntity
  8
Additional Graphics
 62
     9
100
AcDbSpline
210
0.0
220
0.0
230
1.0
 70
     1
 71
     3
 72
    20
 73
    16
 74
     0
 42
0.0000000001
 43
0.0000000001
 40
0.0
 40
0.0
 40
0.0
 40
0.0
 40
0.25
 40
0.25
 40
0.25
 40
0.25
 40
0.5
 40
0.5
 40
0.5
 40
0.5
 40
0.75
 40
0.75
 40
0.75
 40
0.75
 40
1.0
 40
1.0
 40
1.0
 40
1.0
 10
-2.1005708661417324
 20
1.4489685039370079
 30
0.0
 10
-2.1005708661417324
 20
1.4489685039370079
 30
0.0
 10
-1.4609606299212599
 20
1.0542283464566931
 30
0.0
 10
-1.4609606299212599
 20
1.0542283464566931
 30
0.0
 10
-1.4609606299212599
 20
1.0542283464566931
 30
0.0
 10
-1.4609606299212599
 20
1.0542283464566931
 30
0.0
 10
-1.4156062992125984
 20
1.0935236220472442
 30
0.0
 10
-1.4156062992125984
 20
1.0935236220472442
 30
0.0
 10
-1.4156062992125984
 20
1.0935236220472442
 30
0.0
 10
-1.4156062992125984
 20
1.0935236220472442
 30
0.0
 10
-2.0552165354330709
 20
1.4882637795275591
 30
0.0
 10
-2.0552165354330709
 20
1.4882637795275591
 30
0.0
 10
-2.0552165354330709
 20
1.4882637795275591
 30
0.0
 10
-2.0552165354330709
 20
1.4882637795275591
 30
0.0
 10
-2.1005708661417324
 20
1.4489685039370079
 30
0.0
 10
-2.1005708661417324
 20
1.4489685039370079
 30
0.0
  0
SPLINE
  5
3B
100
AcDbEntity
  8
Additional Graphics
 62
     9
100
AcDbSpline
210
0.0
220
0.0
230
1.0
 70
     1
 71
     3
 72
    20
 73
    16
 74
     0
 42
0.0000000001
 43
0.0000000001
 40
0.0
 40
0.0
 40
0.0
 40
0.0
 40
0.25
 40
0.25
 40
0.25
 40
0.25
 40
0.5
 40
0.5
 40
0.5
 40
0.5
 40
0.75
 40
0.75
 40
0.75
 40
0.75
 40
1.0
 40
1.0
 40
1.0
 40
1.0
 10
-2.0552165354330709
 20
1.4882637795275591
 30
0.0
 10
-2.0552165354330709
 20
1.4882637795275591
 30
0.0
 10
-1.4156062992125984
 20
1.0935236220472442
 30
0.0
 10
-1.4156062992125984
 20
1.0935236220472442
 30
0.0
 10
-1.4156062992125984
 20
1.0935236220472442
 30
0.0
 10
-1.4156062992125984
 20
1.0935236220472442
 30
0.0
 10
-1.3683818897637796
 20
1.1306338582677167
 30
0.0
 10
-1.3683818897637796
 20
1.1306338582677167
 30
0.0
 10
-1.3683818897637796
 20
1.1306338582677167
 30
0.0
 10
-1.3683818897637796
 20
1.1306338582677167
 30
0.0
 10
-2.0079921259842521
 20
1.5253740157480316
 30
0.0
 10
-2.0079921259842521
 20
1.5253740157480316
 30
0.0
 10
-2.0079921259842521
 20
1.5253740157480316
 30
0.0
 10
-2.0079921259842521
 20
1.5253740157480316
 30
0.0
 10
-2.0552165354330709
 20
1.4882637795275591
 30
0.0
 10
-2.0552165354330709
 20
1.4882637795275591
 30
0.0
  0
SPLINE
  5
3C
100
AcDbEntity
  8
Additional Graphics
 62
     9
100
AcDbSpline
210
0.0
220
0.0
230
1.0
 70
     1
 71
     3
 72
    20
 73
    16
 74
     0
 42
0.0000000001
 43
0.0000000001
 40
0.0
 40
0.0
 40
0.0
 40
0.0
 40
0.25
 40
0.25
 40
0.25
 40
0.25
 40
0.5
 40
0.5
 40
0.5
 40
0.5
 40
0.75
 40
0.75
 40
0.75
 40
0.75
 40
1.0
 40
1.0
 40
1.0
 40
1.0
 10
-2.0079921259842521
 20
1.5253740157480316
 30
0.0
 10
-2.0079921259842521
 20
1.5253740157480316
 30
0.0
 10
-1.3683818897637796
 20
1.1306338582677167
 30
0.0
 10
-1.3683818897637796
 20
1.1306338582677167
 30
0.0
 10
-1.3683818897637796
 20
1.1306338582677167
 30
0.0
 10
-1.3683818897637796
 20
1.1306338582677167
 30
0.0
 10
-1.3193740157480316
 20
1.165488188976378
 30
0.0
 10
-1.3193740157480316
 20
1.165488188976378
 30
0.0
 10
-1.3193740157480316
 20
1.165488188976378
 30
0.0
 10
-1.3193740157480316
 20
1.165488188976378
 30
0.0
 10
-1.9589842519685041
 20
1.5602283464566931
 30
0.0
 10
-1.9589842519685041
 20
1.5602283464566931
 30
0.0
 10
-1.9589842519685041
 20
1.5602283464566931
 30
0.0
 10
-1.9589842519685041
 20
1.5602283464566931
 30
0.0
 10
-2.0079921259842521
 20
1.5253740157480316
 30
0.0
 10
-2.0079921259842521
 20
1.5253740157480316
 30
0.0
  0
SPLINE
  5
3D
100
AcDbEntity
  8
Additional Graphics
 62
     9
100
AcDbSpline
210
0.0
220
0.0
230
1.0
 70
     1
 71
     3
 72
    20
 73
    16
 74
     0
 42
0.0000000001
 43
0.0000000001
 40
0.0
 40
0.0
 40
0.0
 40
0.0
 40
0.25
 40
0.25
 40
0.25
 40
0.25
 40
0.5
 40
0.5
 40
0.5
 40
0.5
 40
0.75
 40
0.75
 40
0.75
 40
0.75
 40
1.0
 40
1.0
 40
1.0
 40
1.0
 10
-1.9589842519685041
 20
1.5602283464566931
 30
0.0
 10
-1.9589842519685041
 20
1.5602283464566931
 30
0.0
 10
-1.3193740157480316
 20
1.165488188976378
 30
0.0
 10
-1.3193740157480316
 20
1.165488188976378
 30
0.0
 10
-1.3193740157480316
 20
1.165488188976378
 30
0.0
 10
-1.3193740157480316
 20
1.165488188976378
 30
0.0
 10
-1.2686535433070867
 20
1.1980039370078741
 30
0.0
 10
-1.2686535433070867
 20
1.1980039370078741
 30
0.0
 10
-1.2686535433070867
 20
1.1980039370078741
 30
0.0
 10
-1.2686535433070867
 20
1.1980039370078741
 30
0.0
 10
-1.9082637795275592
 20
1.592744094488189
 30
0.0
 10
-1.9082637795275592
 20
1.592744094488189
 30
0.0
 10
-1.9082637795275592
 20
1.592744094488189
 30
0.0
 10
-1.9082637795275592
 20
1.592744094488189
 30
0.0
 10
-1.9589842519685041
 20
1.5602283464566931
 30
0.0
 10
-1.9589842519685041
 20
1.5602283464566931
 30
0.0
  0
SPLINE
  5
3E
100
AcDbEntity
  8
Additional Graphics
 62
     9
100
AcDbSpline
210
0.0
220
0.0
230
1.0
 70
     1
 71
     3
 72
    20
 73
    16
 74
     0
 42
0.0000000001
 43
0.0000000001
 40
0.0
 40
0.0
 40
0.0
 40
0.0
 40
0.25
 40
0.25
 40
0.25
 40
0.25
 40
0.5
 40
0.5
 40
0.5
 40
0.5
 40
0.75
 40
0.75
 40
0.75
 40
0.75
 40
1.0
 40
1.0
 40
1.0
 40
1.0
 10
-1.9082637795275592
 20
1.592744094488189
 30
0.0
 10
-1.9082637795275592
 20
1.592744094488189
 30
0.0
 10
-1.2686535433070867
 20
1.1980039370078741
 30
0.0
 10
-1.2686535433070867
 20
1.1980039370078741
 30
0.0
 10
-1.2686535433070867
 20
1.1980039370078741
 30
0.0
 10
-1.2686535433070867
 20
1.1980039370078741
 30
0.0
 10
-1.2163110236220473
 20
1.2281062992125984
 30
0.0
 10
-1.2163110236220473
 20
1.2281062992125984
 30
0.0
 10
-1.2163110236220473
 20
1.2281062992125984
 30
0.0
 10
-1.2163110236220473
 20
1.2281062992125984
 30
0.0
 10
-1.8559212598425197
 20
1.6228464566929135
 30
0.0
 10
-1.8559212598425197
 20
1.6228464566929135
 30
0.0
 10
-1.8559212598425197
 20
1.6228464566929135
 30
0.0
 10
-1.8559212598425197
 20
1.6228464566929135
 30
0.0
 10
-1.9082637795275592
 20
1.592744094488189
 30
0.0
 10
-1.9082637795275592
 20
1.592744094488189
 30
0.0
  0
SPLINE
  5
3F
100
AcDbEntity
  8
Additional Graphics
 62
     9
100
AcDbSpline
210
0.0
220
0.0
230
1.0
 70
     1
 71
     3
 72
    20
 73
    16
 74
     0
 42
0.0000000001
 43
0.0000000001
 40
0.0
 40
0.0
 40
0.0
 40
0.0
 40
0.25
 40
0.25
 40
0.25
 40
0.25
 40
0.5
 40
0.5
 40
0.5
 40
0.5
 40
0.75
 40
0.75
 40
0.75
 40
0.75
 40
1.0
 40
1.0
 40
1.0
 40
1.0
 10
-1.8559212598425197
 20
1.6228464566929135
 30
0.0
 10
-1.8559212598425197
 20
1.6228464566929135
 30
0.0
 10
-1.2163110236220473
 20
1.2281062992125984
 30
0.0
 10
-1.2163110236220473
 20
1.2281062992125984
 30
0.0
 10
-1.2163110236220473
 20
1.2281062992125984
 30
0.0
 10
-1.2163110236220473
 20
1.2281062992125984
 30
0.0
 10
-1.1624133858267718
 20
1.2557125984251969
 30
0.0
 10
-1.1624133858267718
 20
1.2557125984251969
 30
0.0
 10
-1.1624133858267718
 20
1.2557125984251969
 30
0.0
 10
-1.1624133858267718
 20
1.2557125984251969
 30
0.0
 10
-1.8020236220472441
 20
1.6504527559055118
 30
0.0
 10
-1.8020236220472441
 20
1.6504527559055118
 30
0.0
 10
-1.8020236220472441
 20
1.6504527559055118
 30
0.0
 10
-1.8020236220472441
 20
1.6504527559055118
 30
0.0
 10
-1.8559212598425197
 20
1.6228464566929135
 30
0.0
 10
-1.8559212598425197
 20
1.6228464566929135
 30
0.0
  0
SPLINE
  5
40
100
AcDbEntity
  8
Additional Graphics
 62
     9
100
AcDbSpline
210
0.0
220
0.0
230
1.0
 70
     1
 71
     3
 72
    20
 73
    16
 74
     0
 42
0.0000000001
 43
0.0000000001
 40
0.0
 40
0.0
 40
0.0
 40
0.0
 40
0.25
 40
0.25
 40
0.25
 40
0.25
 40
0.5
 40
0.5
 40
0.5
 40
0.5
 40
0.75
 40
0.75
 40
0.75
 40
0.75
 40
1.0
 40
1.0
 40
1.0
 40
1.0
 10
-1.8020236220472441
 20
1.6504527559055118
 30
0.0
 10
-1.8020236220472441
 20
1.6504527559055118
 30
0.0
 10
-1.1624133858267718
 20
1.2557125984251969
 30
0.0
 10
-1.1624133858267718
 20
1.2557125984251969
 30
0.0
 10
-1.1624133858267718
 20
1.2557125984251969
 30
0.0
 10
-1.1624133858267718
 20
1.2557125984251969
 30
0.0
 10
-1.1070472440944883
 20
1.280751968503937
 30
0.0
 10
-1.1070472440944883
 20
1.280751968503937
 30
0.0
 10
-1.1070472440944883
 20
1.280751968503937
 30
0.0
 10
-1.1070472440944883
 20
1.280751968503937
 30
0.0
 10
-1.7466574803149606
 20
1.6754921259842521
 30
0.0
 10
-1.7466574803149606
 20
1.6754921259842521
 30
0.0
 10
-1.7466574803149606
 20
1.6754921259842521
 30
0.0
 10
-1.7466574803149606
 20
1.6754921259842521
 30
0.0
 10
-1.8020236220472441
 20
1.6504527559055118
 30
0.0
 10
-1.8020236220472441
 20
1.6504527559055118
 30
0.0
  0
SPLINE
  5
41
100
AcDbEntity
  8
Additional Graphics
 62
     9
100
AcDbSpline
210
0.0
220
0.0
230
1.0
 70
     1
 71
     3
 72
    20
 73
    16
 74
     0
 42
0.0000000001
 43
0.0000000001
 40
0.0
 40
0.0
 40
0.0
 40
0.0
 40
0.25
 40
0.25
 40
0.25
 40
0.25
 40
0.5
 40
0.5
 40
0.5
 40
0.5
 40
0.75
 40
0.75
 40
0.75
 40
0.75
 40
1.0
 40
1.0
 40
1.0
 40
1.0
 10
-1.7466574803149606
 20
1.6754921259842521
 30
0.0
 10
-1.7466574803149606
 20
1.6754921259842521
 30
0.0
 10
-1.1070472440944883
 20
1.280751968503937
 30
0.0
 10
-1.1070472440944883
 20
1.280751968503937
 30
0.0
 10
-1.1070472440944883
 20
1.280751968503937
 30
0.0
 10
-1.1070472440944883
 20
1.280751968503937
 30
0.0
 10
-1.0502834645669292
 20
1.3031338582677165
 30
0.0
 10
-1.0502834645669292
 20
1.3031338582677165
 30
0.0
 10
-1.0502834645669292
 20
1.3031338582677165
 30
0.0
 10
-1.0502834645669292
 20
1.3031338582677165
 30
0.0
 10
-1.6898937007874015
 20
1.6978740157480317
 30
0.0
 10
-1.6898937007874015
 20
1.6978740157480317
 30
0.0
 10
-1.6898937007874015
 20
1.6978740157480317
 30
0.0
 10
-1.6898937007874015
 20
1.6978740157480317
 30
0.0
 10
-1.7466574803149606
 20
1.6754921259842521
 30
0.0
 10
-1.7466574803149606
 20
1.6754921259842521
 30
0.0
  0
SPLINE
  5
42
100
AcDbEntity
  8
Additional Graphics
 62
     9
100
AcDbSpline
210
0.0
220
0.0
230
1.0
 70
     1
 71
     3
 72
    20
 73
    16
 74
     0
 42
0.0000000001
 43
0.0000000001
 40
0.0
 40
0.0
 40
0.0
 40
0.0
 40
0.25
 40
0.25
 40
0.25
 40
0.25
 40
0.5
 40
0.5
 40
0.5
 40
0.5
 40
0.75
 40
0.75
 40
0.75
 40
0.75
 40
1.0
 40
1.0
 40
1.0
 40
1.0
 10
-1.6898937007874015
 20
1.6978740157480317
 30
0.0
 10
-1.6898937007874015
 20
1.6978740157480317
 30
0.0
 10
-1.0502834645669292
 20
1.3031338582677165
 30
0.0
 10
-1.0502834645669292
 20
1.3031338582677165
 30
0.0
 10
-1.0502834645669292
 20
1.3031338582677165
 30
0.0
 10
-1.0502834645669292
 20
1.3031338582677165
 30
0.0
 10
-0.9922047244094489
 20
1.3227874015748031
 30
0.0
 10
-0.9922047244094489
 20
1.3227874015748031
 30
0.0
 10
-0.9922047244094489
 20
1.3227874015748031
 30
0.0
 10
-0.9922047244094489
 20
1.3227874015748031
 30
0.0
 10
-1.6318149606299213
 20
1.7175275590551182
 30
0.0
 10
-1.6318149606299213
 20
1.7175275590551182
 30
0.0
 10
-1.6318149606299213
 20
1.7175275590551182
 30
0.0
 10
-1.6318149606299213
 20
1.7175275590551182
 30
0.0
 10
-1.6898937007874015
 20
1.6978740157480317
 30
0.0
 10
-1.6898937007874015
 20
1.6978740157480317
 30
0.0
  0
SPLINE
  5
43
100
AcDbEntity
  8
Additional Graphics
 62
     9
100
AcDbSpline
210
0.0
220
0.0
230
1.0
 70
     1
 71
     3
 72
    20
 73
    16
 74
     0
 42
0.0000000001
 43
0.0000000001
 40
0.0
 40
0.0
 40
0.0
 40
0.0
 40
0.25
 40
0.25
 40
0.25
 40
0.25
 40
0.5
 40
0.5
 40
0.5
 40
0.5
 40
0.75
 40
0.75
 40
0.75
 40
0.75
 40
1.0
 40
1.0
 40
1.0
 40
1.0
 10
-1.6318149606299213
 20
1.7175275590551182
 30
0.0
 10
-1.6318149606299213
 20
1.7175275590551182
 30
0.0
 10
-0.9922047244094489
 20
1.3227874015748031
 30
0.0
 10
-0.9922047244094489
 20
1.3227874015748031
 30
0.0
 10
-0.9922047244094489
 20
1.3227874015748031
 30
0.0
 10
-0.9922047244094489
 20
1.3227874015748031
 30
0.0
 10
-0.9328897637795276
 20
1.3396338582677165
 30
0.0
 10
-0.9328897637795276
 20
1.3396338582677165
 30
0.0
 10
-0.9328897637795276
 20
1.3396338582677165
 30
0.0
 10
-0.9328897637795276
 20
1.3396338582677165
 30
0.0
 10
-1.5725
 20
1.7343740157480316
 30
0.0
 10
-1.5725
 20
1.7343740157480316
 30
0.0
 10
-1.5725
 20
1.7343740157480316
 30
0.0
 10
-1.5725
 20
1.7343740157480316
 30
0.0
 10
-1.6318149606299213
 20
1.7175275590551182
 30
0.0
 10
-1.6318149606299213
 20
1.7175275590551182
 30
0.0
  0
SPLINE
  5
44
100
AcDbEntity
  8
Additional Graphics
 62
     9
100
AcDbSpline
210
0.0
220
0.0
230
1.0
 70
     1
 71
     3
 72
    20
 73
    16
 74
     0
 42
0.0000000001
 43
0.0000000001
 40
0.0
 40
0.0
 40
0.0
 40
0.0
 40
0.25
 40
0.25
 40
0.25
 40
0.25
 40
0.5
 40
0.5
 40
0.5
 40
0.5
 40
0.75
 40
0.75
 40
0.75
 40
0.75
 40
1.0
 40
1.0
 40
1.0
 40
1.0
 10
-1.5725
 20
1.7343740157480316
 30
0.0
 10
-1.5725
 20
1.7343740157480316
 30
0.0
 10
-0.9328897637795276
 20
1.3396338582677165
 30
0.0
 10
-0.9328897637795276
 20
1.3396338582677165
 30
0.0
 10
-0.9328897637795276
 20
1.3396338582677165
 30
0.0
 10
-0.9328897637795276
 20
1.3396338582677165
 30
0.0
 10
-0.8724251968503938
 20
1.3535984251968505
 30
0.0
 10
-0.8724251968503938
 20
1.3535984251968505
 30
0.0
 10
-0.8724251968503938
 20
1.3535984251968505
 30
0.0
 10
-0.8724251968503938
 20
1.3535984251968505
 30
0.0
 10
-1.5120354330708663
 20
1.7483385826771654
 30
0.0
 10
-1.5120354330708663
 20
1.7483385826771654
 30
0.0
 10
-1.5120354330708663
 20
1.7483385826771654
 30
0.0
 10
-1.5120354330708663
 20
1.7483385826771654
 30
0.0
 10
-1.5725
 20
1.7343740157480316
 30
0.0
 10
-1.5725
 20
1.7343740157480316
 30
0.0
  0
SPLINE
  5
45
100
AcDbEntity
  8
Additional Graphics
 62
     9
100
AcDbSpline
210
0.0
220
0.0
230
1.0
 70
     1
 71
     3
 72
    20
 73
    16
 74
     0
 42
0.0000000001
 43
0.0000000001
 40
0.0
 40
0.0
 40
0.0
 40
0.0
 40
0.25
 40
0.25
 40
0.25
 40
0.25
 40
0.5
 40
0.5
 40
0.5
 40
0.5
 40
0.75
 40
0.75
 40
0.75
 40
0.75
 40
1.0
 40
1.0
 40
1.0
 40
1.0
 10
-1.5120354330708663
 20
1.7483385826771654
 30
0.0
 10
-1.5120354330708663
 20
1.7483385826771654
 30
0.0
 10
-0.8724251968503938
 20
1.3535984251968505
 30
0.0
 10
-0.8724251968503938
 20
1.3535984251968505
 30
0.0
 10
-0.8724251968503938
 20
1.3535984251968505
 30
0.0
 10
-0.8724251968503938
 20
1.3535984251968505
 30
0.0
 10
-0.8108740157480315
 20
1.3645905511811025
 30
0.0
 10
-0.8108740157480315
 20
1.3645905511811025
 30
0.0
 10
-0.8108740157480315
 20
1.3645905511811025
 30
0.0
 10
-0.8108740157480315
 20
1.3645905511811025
 30
0.0
 10
-1.4504842519685039
 20
1.7593307086614174
 30
0.0
 10
-1.4504842519685039
 20
1.7593307086614174
 30
0.0
 10
-1.4504842519685039
 20
1.7593307086614174
 30
0.0
 10
-1.4504842519685039
 20
1.7593307086614174
 30
0.0
 10
-1.5120354330708663
 20
1.7483385826771654
 30
0.0
 10
-1.5120354330708663
 20
1.7483385826771654
 30
0.0
  0
SPLINE
  5
46
100
AcDbEntity
  8
Additional Graphics
 62
     9
100
AcDbSpline
210
0.0
220
0.0
230
1.0
 70
     1
 71
     3
 72
    20
 73
    16
 74
     0
 42
0.0000000001
 43
0.0000000001
 40
0.0
 40
0.0
 40
0.0
 40
0.0
 40
0.25
 40
0.25
 40
0.25
 40
0.25
 40
0.5
 40
0.5
 40
0.5
 40
0.5
 40
0.75
 40
0.75
 40
0.75
 40
0.75
 40
1.0
 40
1.0
 40
1.0
 40
1.0
 10
-1.4504842519685039
 20
1.7593307086614174
 30
0.0
 10
-1.4504842519685039
 20
1.7593307086614174
 30
0.0
 10
-0.8108740157480315
 20
1.3645905511811025
 30
0.0
 10
-0.8108740157480315
 20
1.3645905511811025
 30
0.0
 10
-0.8108740157480315
 20
1.3645905511811025
 30
0.0
 10
-0.8108740157480315
 20
1.3645905511811025
 30
0.0
 10
-0.7483267716535433
 20
1.3725433070866142
 30
0.0
 10
-0.7483267716535433
 20
1.3725433070866142
 30
0.0
 10
-0.7483267716535433
 20
1.3725433070866142
 30
0.0
 10
-0.7483267716535433
 20
1.3725433070866142
 30
0.0
 10
-1.3879370078740159
 20
1.7672834645669293
 30
0.0
 10
-1.3879370078740159
 20
1.7672834645669293
 30
0.0
 10
-1.3879370078740159
 20
1.7672834645669293
 30
0.0
 10
-1.3879370078740159
 20
1.7672834645669293
 30
0.0
 10
-1.4504842519685039
 20
1.7593307086614174
 30
0.0
 10
-1.4504842519685039
 20
1.7593307086614174
 30
0.0
  0
SPLINE
  5
47
100
AcDbEntity
  8
Additional Graphics
 62
     9
100
AcDbSpline
210
0.0
220
0.0
230
1.0
 70
     1
 71
     3
 72
    20
 73
    16
 74
     0
 42
0.0000000001
 43
0.0000000001
 40
0.0
 40
0.0
 40
0.0
 40
0.0
 40
0.25
 40
0.25
 40
0.25
 40
0.25
 40
0.5
 40
0.5
 40
0.5
 40
0.5
 40
0.75
 40
0.75
 40
0.75
 40
0.75
 40
1.0
 40
1.0
 40
1.0
 40
1.0
 10
-1.3879370078740159
 20
1.7672834645669293
 30
0.0
 10
-1.3879370078740159
 20
1.7672834645669293
 30
0.0
 10
-0.7483267716535433
 20
1.3725433070866142
 30
0.0
 10
-0.7483267716535433
 20
1.3725433070866142
 30
0.0
 10
-0.7483267716535433
 20
1.3725433070866142
 30
0.0
 10
-0.7483267716535433
 20
1.3725433070866142
 30
0.0
 10
-0.6848543307086614
 20
1.3773740157480316
 30
0.0
 10
-0.6848543307086614
 20
1.3773740157480316
 30
0.0
 10
-0.6848543307086614
 20
1.3773740157480316
 30
0.0
 10
-0.6848543307086614
 20
1.3773740157480316
 30
0.0
 10
-1.3244645669291339
 20
1.7721141732283465
 30
0.0
 10
-1.3244645669291339
 20
1.7721141732283465
 30
0.0
 10
-1.3244645669291339
 20
1.7721141732283465
 30
0.0
 10
-1.3244645669291339
 20
1.7721141732283465
 30
0.0
 10
-1.3879370078740159
 20
1.7672834645669293
 30
0.0
 10
-1.3879370078740159
 20
1.7672834645669293
 30
0.0
  0
SPLINE
  5
48
100
AcDbEntity
  8
Additional Graphics
 62
     9
100
AcDbSpline
210
0.0
220
0.0
230
1.0
 70
     1
 71
     3
 72
    20
 73
    16
 74
     0
 42
0.0000000001
 43
0.0000000001
 40
0.0
 40
0.0
 40
0.0
 40
0.0
 40
0.25
 40
0.25
 40
0.25
 40
0.25
 40
0.5
 40
0.5
 40
0.5
 40
0.5
 40
0.75
 40
0.75
 40
0.75
 40
0.75
 40
1.0
 40
1.0
 40
1.0
 40
1.0
 10
-1.3244645669291339
 20
1.7721141732283465
 30
0.0
 10
-1.3244645669291339
 20
1.7721141732283465
 30
0.0
 10
-0.6848543307086614
 20
1.3773740157480316
 30
0.0
 10
-0.6848543307086614
 20
1.3773740157480316
 30
0.0
 10
-0.6848543307086614
 20
1.3773740157480316
 30
0.0
 10
-0.6848543307086614
 20
1.3773740157480316
 30
0.0
 10
-0.6205433070866142
 20
1.3790039370078742
 30
0.0
 10
-0.6205433070866142
 20
1.3790039370078742
 30
0.0
 10
-0.6205433070866142
 20
1.3790039370078742
 30
0.0
 10
-0.6205433070866142
 20
1.3790039370078742
 30
0.0
 10
-1.2601535433070867
 20
1.773744094488189
 30
0.0
 10
-1.2601535433070867
 20
1.773744094488189
 30
0.0
 10
-1.2601535433070867
 20
1.773744094488189
 30
0.0
 10
-1.2601535433070867
 20
1.773744094488189
 30
0.0
 10
-1.3244645669291339
 20
1.7721141732283465
 30
0.0
 10
-1.3244645669291339
 20
1.7721141732283465
 30
0.0
  0
SPLINE
  5
49
100
AcDbEntity
  8
Additional Graphics
370
     5
100
AcDbSpline
210
0.0
220
0.0
230
1.0
 70
     1
 71
     3
 72
   268
 73
   264
 74
     0
 42
0.0000000001
 43
0.0000000001
 40
0.0
 40
0.0
 40
0.0
 40
0.0
 40
0.0151515151515152
 40
0.0151515151515152
 40
0.0151515151515152
 40
0.0151515151515152
 40
0.0303030303030303
 40
0.0303030303030303
 40
0.0303030303030303
 40
0.0303030303030303
 40
0.0454545454545455
 40
0.0454545454545455
 40
0.0454545454545455
 40
0.0454545454545455
 40
0.0606060606060606
 40
0.0606060606060606
 40
0.0606060606060606
 40
0.0606060606060606
 40
0.0757575757575758
 40
0.0757575757575758
 40
0.0757575757575758
 40
0.0757575757575758
 40
0.0909090909090909
 40
0.0909090909090909
 40
0.0909090909090909
 40
0.0909090909090909
 40
0.1060606060606061
 40
0.1060606060606061
 40
0.1060606060606061
 40
0.1060606060606061
 40
0.1212121212121212
 40
0.1212121212121212
 40
0.1212121212121212
 40
0.1212121212121212
 40
0.1363636363636364
 40
0.1363636363636364
 40
0.1363636363636364
 40
0.1363636363636364
 40
0.1515151515151515
 40
0.1515151515151515
 40
0.1515151515151515
 40
0.1515151515151515
 40
0.1666666666666666
 40
0.1666666666666666
 40
0.1666666666666666
 40
0.1666666666666666
 40
0.1818181818181818
 40
0.1818181818181818
 40
0.1818181818181818
 40
0.1818181818181818
 40
0.1969696969696969
 40
0.1969696969696969
 40
0.1969696969696969
 40
0.1969696969696969
 40
0.212121212121212
 40
0.212121212121212
 40
0.212121212121212
 40
0.212121212121212
 40
0.2272727272727272
 40
0.2272727272727272
 40
0.2272727272727272
 40
0.2272727272727272
 40
0.2424242424242423
 40
0.2424242424242423
 40
0.2424242424242423
 40
0.2424242424242423
 40
0.2575757575757575
 40
0.2575757575757575
 40
0.2575757575757575
 40
0.2575757575757575
 40
0.2727272727272726
 40
0.2727272727272726
 40
0.2727272727272726
 40
0.2727272727272726
 40
0.2878787878787877
 40
0.2878787878787877
 40
0.2878787878787877
 40
0.2878787878787877
 40
0.3030303030303029
 40
0.3030303030303029
 40
0.3030303030303029
 40
0.3030303030303029
 40
0.318181818181818
 40
0.318181818181818
 40
0.318181818181818
 40
0.318181818181818
 40
0.3333333333333332
 40
0.3333333333333332
 40
0.3333333333333332
 40
0.3333333333333332
 40
0.3484848484848483
 40
0.3484848484848483
 40
0.3484848484848483
 40
0.3484848484848483
 40
0.3636363636363634
 40
0.3636363636363634
 40
0.3636363636363634
 40
0.3636363636363634
 40
0.3787878787878786
 40
0.3787878787878786
 40
0.3787878787878786
 40
0.3787878787878786
 40
0.3939393939393937
 40
0.3939393939393937
 40
0.3939393939393937
 40
0.3939393939393937
 40
0.4090909090909088
 40
0.4090909090909088
 40
0.4090909090909088
 40
0.4090909090909088
 40
0.424242424242424
 40
0.424242424242424
 40
0.424242424242424
 40
0.424242424242424
 40
0.4393939393939391
 40
0.4393939393939391
 40
0.4393939393939391
 40
0.4393939393939391
 40
0.4545454545454543
 40
0.4545454545454543
 40
0.4545454545454543
 40
0.4545454545454543
 40
0.4696969696969694
 40
0.4696969696969694
 40
0.4696969696969694
 40
0.4696969696969694
 40
0.4848484848484845
 40
0.4848484848484845
 40
0.4848484848484845
 40
0.4848484848484845
 40
0.4999999999999997
 40
0.4999999999999997
 40
0.4999999999999997
 40
0.4999999999999997
 40
0.5151515151515148
 40
0.5151515151515148
 40
0.5151515151515148
 40
0.5151515151515148
 40
0.5303030303030299
 40
0.5303030303030299
 40
0.5303030303030299
 40
0.5303030303030299
 40
0.5454545454545451
 40
0.5454545454545451
 40
0.5454545454545451
 40
0.5454545454545451
 40
0.5606060606060602
 40
0.5606060606060602
 40
0.5606060606060602
 40
0.5606060606060602
 40
0.5757575757575754
 40
0.5757575757575754
 40
0.5757575757575754
 40
0.5757575757575754
 40
0.5909090909090905
 40
0.5909090909090905
 40
0.5909090909090905
 40
0.5909090909090905
 40
0.6060606060606056
 40
0.6060606060606056
 40
0.6060606060606056
 40
0.6060606060606056
 40
0.6212121212121208
 40
0.6212121212121208
 40
0.6212121212121208
 40
0.6212121212121208
 40
0.6363636363636359
 40
0.6363636363636359
 40
0.6363636363636359
 40
0.6363636363636359
 40
0.6515151515151511
 40
0.6515151515151511
 40
0.6515151515151511
 40
0.6515151515151511
 40
0.6666666666666662
 40
0.6666666666666662
 40
0.6666666666666662
 40
0.6666666666666662
 40
0.6818181818181813
 40
0.6818181818181813
 40
0.6818181818181813
 40
0.6818181818181813
 40
0.6969696969696965
 40
0.6969696969696965
 40
0.6969696969696965
 40
0.6969696969696965
 40
0.7121212121212116
 40
0.7121212121212116
 40
0.7121212121212116
 40
0.7121212121212116
 40
0.7272727272727267
 40
0.7272727272727267
 40
0.7272727272727267
 40
0.7272727272727267
 40
0.7424242424242419
 40
0.7424242424242419
 40
0.7424242424242419
 40
0.7424242424242419
 40
0.757575757575757
 40
0.757575757575757
 40
0.757575757575757
 40
0.757575757575757
 40
0.7727272727272722
 40
0.7727272727272722
 40
0.7727272727272722
 40
0.7727272727272722
 40
0.7878787878787873
 40
0.7878787878787873
 40
0.7878787878787873
 40
0.7878787878787873
 40
0.8030303030303024
 40
0.8030303030303024
 40
0.8030303030303024
 40
0.8030303030303024
 40
0.8181818181818176
 40
0.8181818181818176
 40
0.8181818181818176
 40
0.8181818181818176
 40
0.8333333333333327
 40
0.8333333333333327
 40
0.8333333333333327
 40
0.8333333333333327
 40
0.8484848484848478
 40
0.8484848484848478
 40
0.8484848484848478
 40
0.8484848484848478
 40
0.863636363636363
 40
0.863636363636363
 40
0.863636363636363
 40
0.863636363636363
 40
0.8787878787878781
 40
0.8787878787878781
 40
0.8787878787878781
 40
0.8787878787878781
 40
0.8939393939393933
 40
0.8939393939393933
 40
0.8939393939393933
 40
0.8939393939393933
 40
0.9090909090909084
 40
0.9090909090909084
 40
0.9090909090909084
 40
0.9090909090909084
 40
0.9242424242424235
 40
0.9242424242424235
 40
0.9242424242424235
 40
0.9242424242424235
 40
0.9393939393939387
 40
0.9393939393939387
 40
0.9393939393939387
 40
0.9393939393939387
 40
0.9545454545454538
 40
0.9545454545454538
 40
0.9545454545454538
 40
0.9545454545454538
 40
0.969696969696969
 40
0.969696969696969
 40
0.969696969696969
 40
0.969696969696969
 40
0.9848484848484841
 40
0.9848484848484841
 40
0.9848484848484841
 40
0.9848484848484841
 40
1.0
 40
1.0
 40
1.0
 40
1.0
 10
-2.5101535433070867
 20
0.523744094488189
 30
0.0
 10
-2.5101535433070867
 20
0.523744094488189
 30
0.0
 10
-1.8705433070866142
 20
0.129003937007874
 30
0.0
 10
-1.8705433070866142
 20
0.129003937007874
 30
0.0
 10
-1.8705433070866142
 20
0.129003937007874
 30
0.0
 10
-1.8705433070866142
 20
0.129003937007874
 30
0.0
 10
-1.8689133858267717
 20
0.1933149606299213
 30
0.0
 10
-1.8689133858267717
 20
0.1933149606299213
 30
0.0
 10
-1.8689133858267717
 20
0.1933149606299213
 30
0.0
 10
-1.8689133858267717
 20
0.1933149606299213
 30
0.0
 10
-1.8640826771653545
 20
0.2567874015748032
 30
0.0
 10
-1.8640826771653545
 20
0.2567874015748032
 30
0.0
 10
-1.8640826771653545
 20
0.2567874015748032
 30
0.0
 10
-1.8640826771653545
 20
0.2567874015748032
 30
0.0
 10
-1.8561299212598426
 20
0.3193346456692914
 30
0.0
 10
-1.8561299212598426
 20
0.3193346456692914
 30
0.0
 10
-1.8561299212598426
 20
0.3193346456692914
 30
0.0
 10
-1.8561299212598426
 20
0.3193346456692914
 30
0.0
 10
-1.8451377952755905
 20
0.3808858267716536
 30
0.0
 10
-1.8451377952755905
 20
0.3808858267716536
 30
0.0
 10
-1.8451377952755905
 20
0.3808858267716536
 30
0.0
 10
-1.8451377952755905
 20
0.3808858267716536
 30
0.0
 10
-1.8311732283464568
 20
0.4413503937007874
 30
0.0
 10
-1.8311732283464568
 20
0.4413503937007874
 30
0.0
 10
-1.8311732283464568
 20
0.4413503937007874
 30
0.0
 10
-1.8311732283464568
 20
0.4413503937007874
 30
0.0
 10
-1.8143267716535434
 20
0.5006653543307087
 30
0.0
 10
-1.8143267716535434
 20
0.5006653543307087
 30
0.0
 10
-1.8143267716535434
 20
0.5006653543307087
 30
0.0
 10
-1.8143267716535434
 20
0.5006653543307087
 30
0.0
 10
-1.7946732283464568
 20
0.558744094488189
 30
0.0
 10
-1.7946732283464568
 20
0.558744094488189
 30
0.0
 10
-1.7946732283464568
 20
0.558744094488189
 30
0.0
 10
-1.7946732283464568
 20
0.558744094488189
 30
0.0
 10
-1.7722913385826773
 20
0.615507874015748
 30
0.0
 10
-1.7722913385826773
 20
0.615507874015748
 30
0.0
 10
-1.7722913385826773
 20
0.615507874015748
 30
0.0
 10
-1.7722913385826773
 20
0.615507874015748
 30
0.0
 10
-1.7472519685039372
 20
0.6708740157480315
 30
0.0
 10
-1.7472519685039372
 20
0.6708740157480315
 30
0.0
 10
-1.7472519685039372
 20
0.6708740157480315
 30
0.0
 10
-1.7472519685039372
 20
0.6708740157480315
 30
0.0
 10
-1.7196456692913387
 20
0.7247716535433071
 30
0.0
 10
-1.7196456692913387
 20
0.7247716535433071
 30
0.0
 10
-1.7196456692913387
 20
0.7247716535433071
 30
0.0
 10
-1.7196456692913387
 20
0.7247716535433071
 30
0.0
 10
-1.6895433070866142
 20
0.7771141732283465
 30
0.0
 10
-1.6895433070866142
 20
0.7771141732283465
 30
0.0
 10
-1.6895433070866142
 20
0.7771141732283465
 30
0.0
 10
-1.6895433070866142
 20
0.7771141732283465
 30
0.0
 10
-1.6570275590551182
 20
0.8278346456692913
 30
0.0
 10
-1.6570275590551182
 20
0.8278346456692913
 30
0.0
 10
-1.6570275590551182
 20
0.8278346456692913
 30
0.0
 10
-1.6570275590551182
 20
0.8278346456692913
 30
0.0
 10
-1.6221732283464567
 20
0.8768425196850395
 30
0.0
 10
-1.6221732283464567
 20
0.8768425196850395
 30
0.0
 10
-1.6221732283464567
 20
0.8768425196850395
 30
0.0
 10
-1.6221732283464567
 20
0.8768425196850395
 30
0.0
 10
-1.5850629921259842
 20
0.9240669291338584
 30
0.0
 10
-1.5850629921259842
 20
0.9240669291338584
 30
0.0
 10
-1.5850629921259842
 20
0.9240669291338584
 30
0.0
 10
-1.5850629921259842
 20
0.9240669291338584
 30
0.0
 10
-1.5457677165354331
 20
0.9694212598425197
 30
0.0
 10
-1.5457677165354331
 20
0.9694212598425197
 30
0.0
 10
-1.5457677165354331
 20
0.9694212598425197
 30
0.0
 10
-1.5457677165354331
 20
0.9694212598425197
 30
0.0
 10
-1.5043818897637795
 20
1.0128425196850395
 30
0.0
 10
-1.5043818897637795
 20
1.0128425196850395
 30
0.0
 10
-1.5043818897637795
 20
1.0128425196850395
 30
0.0
 10
-1.5043818897637795
 20
1.0128425196850395
 30
0.0
 10
-1.4609606299212599
 20
1.0542283464566931
 30
0.0
 10
-1.4609606299212599
 20
1.0542283464566931
 30
0.0
 10
-1.4609606299212599
 20
1.0542283464566931
 30
0.0
 10
-1.4609606299212599
 20
1.0542283464566931
 30
0.0
 10
-1.4156062992125984
 20
1.0935236220472442
 30
0.0
 10
-1.4156062992125984
 20
1.0935236220472442
 30
0.0
 10
-1.4156062992125984
 20
1.0935236220472442
 30
0.0
 10
-1.4156062992125984
 20
1.0935236220472442
 30
0.0
 10
-1.3683818897637796
 20
1.1306338582677167
 30
0.0
 10
-1.3683818897637796
 20
1.1306338582677167
 30
0.0
 10
-1.3683818897637796
 20
1.1306338582677167
 30
0.0
 10
-1.3683818897637796
 20
1.1306338582677167
 30
0.0
 10
-1.3193740157480316
 20
1.165488188976378
 30
0.0
 10
-1.3193740157480316
 20
1.165488188976378
 30
0.0
 10
-1.3193740157480316
 20
1.165488188976378
 30
0.0
 10
-1.3193740157480316
 20
1.165488188976378
 30
0.0
 10
-1.2686535433070867
 20
1.1980039370078741
 30
0.0
 10
-1.2686535433070867
 20
1.1980039370078741
 30
0.0
 10
-1.2686535433070867
 20
1.1980039370078741
 30
0.0
 10
-1.2686535433070867
 20
1.1980039370078741
 30
0.0
 10
-1.2163110236220473
 20
1.2281062992125984
 30
0.0
 10
-1.2163110236220473
 20
1.2281062992125984
 30
0.0
 10
-1.2163110236220473
 20
1.2281062992125984
 30
0.0
 10
-1.2163110236220473
 20
1.2281062992125984
 30
0.0
 10
-1.1624133858267718
 20
1.2557125984251969
 30
0.0
 10
-1.1624133858267718
 20
1.2557125984251969
 30
0.0
 10
-1.1624133858267718
 20
1.2557125984251969
 30
0.0
 10
-1.1624133858267718
 20
1.2557125984251969
 30
0.0
 10
-1.1070472440944883
 20
1.280751968503937
 30
0.0
 10
-1.1070472440944883
 20
1.280751968503937
 30
0.0
 10
-1.1070472440944883
 20
1.280751968503937
 30
0.0
 10
-1.1070472440944883
 20
1.280751968503937
 30
0.0
 10
-1.0502834645669292
 20
1.3031338582677165
 30
0.0
 10
-1.0502834645669292
 20
1.3031338582677165
 30
0.0
 10
-1.0502834645669292
 20
1.3031338582677165
 30
0.0
 10
-1.0502834645669292
 20
1.3031338582677165
 30
0.0
 10
-0.9922047244094489
 20
1.3227874015748031
 30
0.0
 10
-0.9922047244094489
 20
1.3227874015748031
 30
0.0
 10
-0.9922047244094489
 20
1.3227874015748031
 30
0.0
 10
-0.9922047244094489
 20
1.3227874015748031
 30
0.0
 10
-0.9328897637795276
 20
1.3396338582677165
 30
0.0
 10
-0.9328897637795276
 20
1.3396338582677165
 30
0.0
 10
-0.9328897637795276
 20
1.3396338582677165
 30
0.0
 10
-0.9328897637795276
 20
1.3396338582677165
 30
0.0
 10
-0.8724251968503938
 20
1.3535984251968505
 30
0.0
 10
-0.8724251968503938
 20
1.3535984251968505
 30
0.0
 10
-0.8724251968503938
 20
1.3535984251968505
 30
0.0
 10
-0.8724251968503938
 20
1.3535984251968505
 30
0.0
 10
-0.8108740157480315
 20
1.3645905511811025
 30
0.0
 10
-0.8108740157480315
 20
1.3645905511811025
 30
0.0
 10
-0.8108740157480315
 20
1.3645905511811025
 30
0.0
 10
-0.8108740157480315
 20
1.3645905511811025
 30
0.0
 10
-0.7483267716535433
 20
1.3725433070866142
 30
0.0
 10
-0.7483267716535433
 20
1.3725433070866142
 30
0.0
 10
-0.7483267716535433
 20
1.3725433070866142
 30
0.0
 10
-0.7483267716535433
 20
1.3725433070866142
 30
0.0
 10
-0.6848543307086614
 20
1.3773740157480316
 30
0.0
 10
-0.6848543307086614
 20
1.3773740157480316
 30
0.0
 10
-0.6848543307086614
 20
1.3773740157480316
 30
0.0
 10
-0.6848543307086614
 20
1.3773740157480316
 30
0.0
 10
-0.6205433070866142
 20
1.3790039370078742
 30
0.0
 10
-0.6205433070866142
 20
1.3790039370078742
 30
0.0
 10
-0.6205433070866142
 20
1.3790039370078742
 30
0.0
 10
-0.6205433070866142
 20
1.3790039370078742
 30
0.0
 10
-1.2601535433070867
 20
1.773744094488189
 30
0.0
 10
-1.2601535433070867
 20
1.773744094488189
 30
0.0
 10
-1.2601535433070867
 20
1.773744094488189
 30
0.0
 10
-1.2601535433070867
 20
1.773744094488189
 30
0.0
 10
-1.3244645669291339
 20
1.7721141732283465
 30
0.0
 10
-1.3244645669291339
 20
1.7721141732283465
 30
0.0
 10
-1.3244645669291339
 20
1.7721141732283465
 30
0.0
 10
-1.3244645669291339
 20
1.7721141732283465
 30
0.0
 10
-1.3879370078740159
 20
1.7672834645669293
 30
0.0
 10
-1.3879370078740159
 20
1.7672834645669293
 30
0.0
 10
-1.3879370078740159
 20
1.7672834645669293
 30
0.0
 10
-1.3879370078740159
 20
1.7672834645669293
 30
0.0
 10
-1.4504842519685039
 20
1.7593307086614174
 30
0.0
 10
-1.4504842519685039
 20
1.7593307086614174
 30
0.0
 10
-1.4504842519685039
 20
1.7593307086614174
 30
0.0
 10
-1.4504842519685039
 20
1.7593307086614174
 30
0.0
 10
-1.5120354330708663
 20
1.7483385826771654
 30
0.0
 10
-1.5120354330708663
 20
1.7483385826771654
 30
0.0
 10
-1.5120354330708663
 20
1.7483385826771654
 30
0.0
 10
-1.5120354330708663
 20
1.7483385826771654
 30
0.0
 10
-1.5725
 20
1.7343740157480316
 30
0.0
 10
-1.5725
 20
1.7343740157480316
 30
0.0
 10
-1.5725
 20
1.7343740157480316
 30
0.0
 10
-1.5725
 20
1.7343740157480316
 30
0.0
 10
-1.6318149606299213
 20
1.7175275590551182
 30
0.0
 10
-1.6318149606299213
 20
1.7175275590551182
 30
0.0
 10
-1.6318149606299213
 20
1.7175275590551182
 30
0.0
 10
-1.6318149606299213
 20
1.7175275590551182
 30
0.0
 10
-1.6898937007874015
 20
1.6978740157480317
 30
0.0
 10
-1.6898937007874015
 20
1.6978740157480317
 30
0.0
 10
-1.6898937007874015
 20
1.6978740157480317
 30
0.0
 10
-1.6898937007874015
 20
1.6978740157480317
 30
0.0
 10
-1.7466574803149606
 20
1.6754921259842521
 30
0.0
 10
-1.7466574803149606
 20
1.6754921259842521
 30
0.0
 10
-1.7466574803149606
 20
1.6754921259842521
 30
0.0
 10
-1.7466574803149606
 20
1.6754921259842521
 30
0.0
 10
-1.8020236220472441
 20
1.6504527559055118
 30
0.0
 10
-1.8020236220472441
 20
1.6504527559055118
 30
0.0
 10
-1.8020236220472441
 20
1.6504527559055118
 30
0.0
 10
-1.8020236220472441
 20
1.6504527559055118
 30
0.0
 10
-1.8559212598425197
 20
1.6228464566929135
 30
0.0
 10
-1.8559212598425197
 20
1.6228464566929135
 30
0.0
 10
-1.8559212598425197
 20
1.6228464566929135
 30
0.0
 10
-1.8559212598425197
 20
1.6228464566929135
 30
0.0
 10
-1.9082637795275592
 20
1.592744094488189
 30
0.0
 10
-1.9082637795275592
 20
1.592744094488189
 30
0.0
 10
-1.9082637795275592
 20
1.592744094488189
 30
0.0
 10
-1.9082637795275592
 20
1.592744094488189
 30
0.0
 10
-1.9589842519685041
 20
1.5602283464566931
 30
0.0
 10
-1.9589842519685041
 20
1.5602283464566931
 30
0.0
 10
-1.9589842519685041
 20
1.5602283464566931
 30
0.0
 10
-1.9589842519685041
 20
1.5602283464566931
 30
0.0
 10
-2.0079921259842521
 20
1.5253740157480316
 30
0.0
 10
-2.0079921259842521
 20
1.5253740157480316
 30
0.0
 10
-2.0079921259842521
 20
1.5253740157480316
 30
0.0
 10
-2.0079921259842521
 20
1.5253740157480316
 30
0.0
 10
-2.0552165354330709
 20
1.4882637795275591
 30
0.0
 10
-2.0552165354330709
 20
1.4882637795275591
 30
0.0
 10
-2.0552165354330709
 20
1.4882637795275591
 30
0.0
 10
-2.0552165354330709
 20
1.4882637795275591
 30
0.0
 10
-2.1005708661417324
 20
1.4489685039370079
 30
0.0
 10
-2.1005708661417324
 20
1.4489685039370079
 30
0.0
 10
-2.1005708661417324
 20
1.4489685039370079
 30
0.0
 10
-2.1005708661417324
 20
1.4489685039370079
 30
0.0
 10
-2.1439921259842523
 20
1.4075826771653543
 30
0.0
 10
-2.1439921259842523
 20
1.4075826771653543
 30
0.0
 10
-2.1439921259842523
 20
1.4075826771653543
 30
0.0
 10
-2.1439921259842523
 20
1.4075826771653543
 30
0.0
 10
-2.1853779527559056
 20
1.3641614173228347
 30
0.0
 10
-2.1853779527559056
 20
1.3641614173228347
 30
0.0
 10
-2.1853779527559056
 20
1.3641614173228347
 30
0.0
 10
-2.1853779527559056
 20
1.3641614173228347
 30
0.0
 10
-2.224673228346457
 20
1.3188070866141732
 30
0.0
 10
-2.224673228346457
 20
1.3188070866141732
 30
0.0
 10
-2.224673228346457
 20
1.3188070866141732
 30
0.0
 10
-2.224673228346457
 20
1.3188070866141732
 30
0.0
 10
-2.2617834645669292
 20
1.2715826771653544
 30
0.0
 10
-2.2617834645669292
 20
1.2715826771653544
 30
0.0
 10
-2.2617834645669292
 20
1.2715826771653544
 30
0.0
 10
-2.2617834645669292
 20
1.2715826771653544
 30
0.0
 10
-2.2966377952755908
 20
1.2225748031496064
 30
0.0
 10
-2.2966377952755908
 20
1.2225748031496064
 30
0.0
 10
-2.2966377952755908
 20
1.2225748031496064
 30
0.0
 10
-2.2966377952755908
 20
1.2225748031496064
 30
0.0
 10
-2.3291535433070867
 20
1.1718543307086615
 30
0.0
 10
-2.3291535433070867
 20
1.1718543307086615
 30
0.0
 10
-2.3291535433070867
 20
1.1718543307086615
 30
0.0
 10
-2.3291535433070867
 20
1.1718543307086615
 30
0.0
 10
-2.359255905511811
 20
1.1195118110236222
 30
0.0
 10
-2.359255905511811
 20
1.1195118110236222
 30
0.0
 10
-2.359255905511811
 20
1.1195118110236222
 30
0.0
 10
-2.359255905511811
 20
1.1195118110236222
 30
0.0
 10
-2.3868622047244097
 20
1.0656141732283464
 30
0.0
 10
-2.3868622047244097
 20
1.0656141732283464
 30
0.0
 10
-2.3868622047244097
 20
1.0656141732283464
 30
0.0
 10
-2.3868622047244097
 20
1.0656141732283464
 30
0.0
 10
-2.4119015748031498
 20
1.0102480314960631
 30
0.0
 10
-2.4119015748031498
 20
1.0102480314960631
 30
0.0
 10
-2.4119015748031498
 20
1.0102480314960631
 30
0.0
 10
-2.4119015748031498
 20
1.0102480314960631
 30
0.0
 10
-2.4342834645669291
 20
0.953484251968504
 30
0.0
 10
-2.4342834645669291
 20
0.953484251968504
 30
0.0
 10
-2.4342834645669291
 20
0.953484251968504
 30
0.0
 10
-2.4342834645669291
 20
0.953484251968504
 30
0.0
 10
-2.4539370078740159
 20
0.8954055118110237
 30
0.0
 10
-2.4539370078740159
 20
0.8954055118110237
 30
0.0
 10
-2.4539370078740159
 20
0.8954055118110237
 30
0.0
 10
-2.4539370078740159
 20
0.8954055118110237
 30
0.0
 10
-2.4707834645669293
 20
0.8360905511811024
 30
0.0
 10
-2.4707834645669293
 20
0.8360905511811024
 30
0.0
 10
-2.4707834645669293
 20
0.8360905511811024
 30
0.0
 10
-2.4707834645669293
 20
0.8360905511811024
 30
0.0
 10
-2.4847480314960633
 20
0.7756259842519685
 30
0.0
 10
-2.4847480314960633
 20
0.7756259842519685
 30
0.0
 10
-2.4847480314960633
 20
0.7756259842519685
 30
0.0
 10
-2.4847480314960633
 20
0.7756259842519685
 30
0.0
 10
-2.4957401574803151
 20
0.7140748031496064
 30
0.0
 10
-2.4957401574803151
 20
0.7140748031496064
 30
0.0
 10
-2.4957401574803151
 20
0.7140748031496064
 30
0.0
 10
-2.4957401574803151
 20
0.7140748031496064
 30
0.0
 10
-2.503692913385827
 20
0.6515275590551182
 30
0.0
 10
-2.503692913385827
 20
0.6515275590551182
 30
0.0
 10
-2.503692913385827
 20
0.6515275590551182
 30
0.0
 10
-2.503692913385827
 20
0.6515275590551182
 30
0.0
 10
-2.5085236220472442
 20
0.5880551181102363
 30
0.0
 10
-2.5085236220472442
 20
0.5880551181102363
 30
0.0
 10
-2.5085236220472442
 20
0.5880551181102363
 30
0.0
 10
-2.5085236220472442
 20
0.5880551181102363
 30
0.0
 10
-2.5101535433070867
 20
0.523744094488189
 30
0.0
 10
-2.5101535433070867
 20
0.523744094488189
 30
0.0
  0
SPLINE
  5
4A
100
AcDbEntity
  8
Additional Graphics
 62
     9
100
AcDbSpline
210
0.0
220
0.0
230
1.0
 70
     1
 71
     3
 72
    20
 73
    16
 74
     0
 42
0.0000000001
 43
0.0000000001
 40
0.0
 40
0.0
 40
0.0
 40
0.0
 40
0.25
 40
0.25
 40
0.25
 40
0.25
 40
0.5
 40
0.5
 40
0.5
 40
0.5
 40
0.75
 40
0.75
 40
0.75
 40
0.75
 40
1.0
 40
1.0
 40
1.0
 40
1.0
 10
-1.2601535433070867
 20
1.773744094488189
 30
0.0
 10
-1.2601535433070867
 20
1.773744094488189
 30
0.0
 10
-0.6205433070866142
 20
1.3790039370078742
 30
0.0
 10
-0.6205433070866142
 20
1.3790039370078742
 30
0.0
 10
-0.6205433070866142
 20
1.3790039370078742
 30
0.0
 10
-0.6205433070866142
 20
1.3790039370078742
 30
0.0
 10
-0.6205433070866142
 20
2.3790039370078739
 30
0.0
 10
-0.6205433070866142
 20
2.3790039370078739
 30
0.0
 10
-0.6205433070866142
 20
2.3790039370078739
 30
0.0
 10
-0.6205433070866142
 20
2.3790039370078739
 30
0.0
 10
-1.2601535433070867
 20
2.773744094488189
 30
0.0
 10
-1.2601535433070867
 20
2.773744094488189
 30
0.0
 10
-1.2601535433070867
 20
2.773744094488189
 30
0.0
 10
-1.2601535433070867
 20
2.773744094488189
 30
0.0
 10
-1.2601535433070867
 20
1.773744094488189
 30
0.0
 10
-1.2601535433070867
 20
1.773744094488189
 30
0.0
  0
SPLINE
  5
4B
100
AcDbEntity
  8
Additional Graphics
370
     5
100
AcDbSpline
210
0.0
220
0.0
230
1.0
 70
     1
 71
     3
 72
    20
 73
    16
 74
     0
 42
0.0000000001
 43
0.0000000001
 40
0.0
 40
0.0
 40
0.0
 40
0.0
 40
0.25
 40
0.25
 40
0.25
 40
0.25
 40
0.5
 40
0.5
 40
0.5
 40
0.5
 40
0.75
 40
0.75
 40
0.75
 40
0.75
 40
1.0
 40
1.0
 40
1.0
 40
1.0
 10
-1.2601535433070867
 20
1.773744094488189
 30
0.0
 10
-1.2601535433070867
 20
1.773744094488189
 30
0.0
 10
-0.6205433070866142
 20
1.3790039370078742
 30
0.0
 10
-0.6205433070866142
 20
1.3790039370078742
 30
0.0
 10
-0.6205433070866142
 20
1.3790039370078742
 30
0.0
 10
-0.6205433070866142
 20
1.3790039370078742
 30
0.0
 10
-0.6205433070866142
 20
2.3790039370078739
 30
0.0
 10
-0.6205433070866142
 20
2.3790039370078739
 30
0.0
 10
-0.6205433070866142
 20
2.3790039370078739
 30
0.0
 10
-0.6205433070866142
 20
2.3790039370078739
 30
0.0
 10
-1.2601535433070867
 20
2.773744094488189
 30
0.0
 10
-1.2601535433070867
 20
2.773744094488189
 30
0.0
 10
-1.2601535433070867
 20
2.773744094488189
 30
0.0
 10
-1.2601535433070867
 20
2.773744094488189
 30
0.0
 10
-1.2601535433070867
 20
1.773744094488189
 30
0.0
 10
-1.2601535433070867
 20
1.773744094488189
 30
0.0
  0
SPLINE
  5
4C
100
AcDbEntity
  8
Additional Graphics
 62
     9
100
AcDbSpline
210
0.0
220
0.0
230
1.0
 70
     1
 71
     3
 72
    20
 73
    16
 74
     0
 42
0.0000000001
 43
0.0000000001
 40
0.0
 40
0.0
 40
0.0
 40
0.0
 40
0.25
 40
0.25
 40
0.25
 40
0.25
 40
0.5
 40
0.5
 40
0.5
 40
0.5
 40
0.75
 40
0.75
 40
0.75
 40
0.75
 40
1.0
 40
1.0
 40
1.0
 40
1.0
 10
-3.5101535433070867
 20
-4.726251968503937
 30
0.0
 10
-3.5101535433070867
 20
-4.726251968503937
 30
0.0
 10
-2.8705433070866144
 20
-5.1209921259842526
 30
0.0
 10
-2.8705433070866144
 20
-5.1209921259842526
 30
0.0
 10
-2.8705433070866144
 20
-5.1209921259842526
 30
0.0
 10
-2.8705433070866144
 20
-5.1209921259842526
 30
0.0
 10
-1.8705433070866142
 20
-5.1209921259842526
 30
0.0
 10
-1.8705433070866142
 20
-5.1209921259842526
 30
0.0
 10
-1.8705433070866142
 20
-5.1209921259842526
 30
0.0
 10
-1.8705433070866142
 20
-5.1209921259842526
 30
0.0
 10
-2.5101535433070867
 20
-4.726251968503937
 30
0.0
 10
-2.5101535433070867
 20
-4.726251968503937
 30
0.0
 10
-2.5101535433070867
 20
-4.726251968503937
 30
0.0
 10
-2.5101535433070867
 20
-4.726251968503937
 30
0.0
 10
-3.5101535433070867
 20
-4.726251968503937
 30
0.0
 10
-3.5101535433070867
 20
-4.726251968503937
 30
0.0
  0
SPLINE
  5
4D
100
AcDbEntity
  8
Additional Graphics
370
     5
100
AcDbSpline
210
0.0
220
0.0
230
1.0
 70
     1
 71
     3
 72
    20
 73
    16
 74
     0
 42
0.0000000001
 43
0.0000000001
 40
0.0
 40
0.0
 40
0.0
 40
0.0
 40
0.25
 40
0.25
 40
0.25
 40
0.25
 40
0.5
 40
0.5
 40
0.5
 40
0.5
 40
0.75
 40
0.75
 40
0.75
 40
0.75
 40
1.0
 40
1.0
 40
1.0
 40
1.0
 10
-3.5101535433070867
 20
-4.726251968503937
 30
0.0
 10
-3.5101535433070867
 20
-4.726251968503937
 30
0.0
 10
-2.8705433070866144
 20
-5.1209921259842526
 30
0.0
 10
-2.8705433070866144
 20
-5.1209921259842526
 30
0.0
 10
-2.8705433070866144
 20
-5.1209921259842526
 30
0.0
 10
-2.8705433070866144
 20
-5.1209921259842526
 30
0.0
 10
-1.8705433070866142
 20
-5.1209921259842526
 30
0.0
 10
-1.8705433070866142
 20
-5.1209921259842526
 30
0.0
 10
-1.8705433070866142
 20
-5.1209921259842526
 30
0.0
 10
-1.8705433070866142
 20
-5.1209921259842526
 30
0.0
 10
-2.5101535433070867
 20
-4.726251968503937
 30
0.0
 10
-2.5101535433070867
 20
-4.726251968503937
 30
0.0
 10
-2.5101535433070867
 20
-4.726251968503937
 30
0.0
 10
-2.5101535433070867
 20
-4.726251968503937
 30
0.0
 10
-3.5101535433070867
 20
-4.726251968503937
 30
0.0
 10
-3.5101535433070867
 20
-4.726251968503937
 30
0.0
  0
SPLINE
  5
4E
100
AcDbEntity
  8
Additional Graphics
 62
     9
100
AcDbSpline
210
0.0
220
0.0
230
1.0
 70
     1
 71
     3
 72
    20
 73
    16
 74
     0
 42
0.0000000001
 43
0.0000000001
 40
0.0
 40
0.0
 40
0.0
 40
0.0
 40
0.25
 40
0.25
 40
0.25
 40
0.25
 40
0.5
 40
0.5
 40
0.5
 40
0.5
 40
0.75
 40
0.75
 40
0.75
 40
0.75
 40
1.0
 40
1.0
 40
1.0
 40
1.0
 10
-2.5101535433070867
 20
-4.726251968503937
 30
0.0
 10
-2.5101535433070867
 20
-4.726251968503937
 30
0.0
 10
-1.8705433070866142
 20
-5.1209921259842526
 30
0.0
 10
-1.8705433070866142
 20
-5.1209921259842526
 30
0.0
 10
-1.8705433070866142
 20
-5.1209921259842526
 30
0.0
 10
-1.8705433070866142
 20
-5.1209921259842526
 30
0.0
 10
-1.8705433070866142
 20
0.129003937007874
 30
0.0
 10
-1.8705433070866142
 20
0.129003937007874
 30
0.0
 10
-1.8705433070866142
 20
0.129003937007874
 30
0.0
 10
-1.8705433070866142
 20
0.129003937007874
 30
0.0
 10
-2.5101535433070867
 20
0.523744094488189
 30
0.0
 10
-2.5101535433070867
 20
0.523744094488189
 30
0.0
 10
-2.5101535433070867
 20
0.523744094488189
 30
0.0
 10
-2.5101535433070867
 20
0.523744094488189
 30
0.0
 10
-2.5101535433070867
 20
-4.726251968503937
 30
0.0
 10
-2.5101535433070867
 20
-4.726251968503937
 30
0.0
  0
SPLINE
  5
4F
100
AcDbEntity
  8
Additional Graphics
370
     5
100
AcDbSpline
210
0.0
220
0.0
230
1.0
 70
     1
 71
     3
 72
    20
 73
    16
 74
     0
 42
0.0000000001
 43
0.0000000001
 40
0.0
 40
0.0
 40
0.0
 40
0.0
 40
0.25
 40
0.25
 40
0.25
 40
0.25
 40
0.5
 40
0.5
 40
0.5
 40
0.5
 40
0.75
 40
0.75
 40
0.75
 40
0.75
 40
1.0
 40
1.0
 40
1.0
 40
1.0
 10
-2.5101535433070867
 20
-4.726251968503937
 30
0.0
 10
-2.5101535433070867
 20
-4.726251968503937
 30
0.0
 10
-1.8705433070866142
 20
-5.1209921259842526
 30
0.0
 10
-1.8705433070866142
 20
-5.1209921259842526
 30
0.0
 10
-1.8705433070866142
 20
-5.1209921259842526
 30
0.0
 10
-1.8705433070866142
 20
-5.1209921259842526
 30
0.0
 10
-1.8705433070866142
 20
0.129003937007874
 30
0.0
 10
-1.8705433070866142
 20
0.129003937007874
 30
0.0
 10
-1.8705433070866142
 20
0.129003937007874
 30
0.0
 10
-1.8705433070866142
 20
0.129003937007874
 30
0.0
 10
-2.5101535433070867
 20
0.523744094488189
 30
0.0
 10
-2.5101535433070867
 20
0.523744094488189
 30
0.0
 10
-2.5101535433070867
 20
0.523744094488189
 30
0.0
 10
-2.5101535433070867
 20
0.523744094488189
 30
0.0
 10
-2.5101535433070867
 20
-4.726251968503937
 30
0.0
 10
-2.5101535433070867
 20
-4.726251968503937
 30
0.0
  0
SPLINE
  5
50
100
AcDbEntity
  8
Additional Graphics
 62
     9
100
AcDbSpline
210
0.0
220
0.0
230
1.0
 70
     1
 71
     3
 72
    20
 73
    16
 74
     0
 42
0.0000000001
 43
0.0000000001
 40
0.0
 40
0.0
 40
0.0
 40
0.0
 40
0.25
 40
0.25
 40
0.25
 40
0.25
 40
0.5
 40
0.5
 40
0.5
 40
0.5
 40
0.75
 40
0.75
 40
0.75
 40
0.75
 40
1.0
 40
1.0
 40
1.0
 40
1.0
 10
-2.5101535433070867
 20
0.523744094488189
 30
0.0
 10
-2.5101535433070867
 20
0.523744094488189
 30
0.0
 10
-1.8705433070866142
 20
0.129003937007874
 30
0.0
 10
-1.8705433070866142
 20
0.129003937007874
 30
0.0
 10
-1.8705433070866142
 20
0.129003937007874
 30
0.0
 10
-1.8705433070866142
 20
0.129003937007874
 30
0.0
 10
-1.8689133858267717
 20
0.1933149606299213
 30
0.0
 10
-1.8689133858267717
 20
0.1933149606299213
 30
0.0
 10
-1.8689133858267717
 20
0.1933149606299213
 30
0.0
 10
-1.8689133858267717
 20
0.1933149606299213
 30
0.0
 10
-2.5085236220472442
 20
0.5880551181102363
 30
0.0
 10
-2.5085236220472442
 20
0.5880551181102363
 30
0.0
 10
-2.5085236220472442
 20
0.5880551181102363
 30
0.0
 10
-2.5085236220472442
 20
0.5880551181102363
 30
0.0
 10
-2.5101535433070867
 20
0.523744094488189
 30
0.0
 10
-2.5101535433070867
 20
0.523744094488189
 30
0.0
  0
SPLINE
  5
51
100
AcDbEntity
  8
Additional Graphics
 62
     9
100
AcDbSpline
210
0.0
220
0.0
230
1.0
 70
     1
 71
     3
 72
    20
 73
    16
 74
     0
 42
0.0000000001
 43
0.0000000001
 40
0.0
 40
0.0
 40
0.0
 40
0.0
 40
0.25
 40
0.25
 40
0.25
 40
0.25
 40
0.5
 40
0.5
 40
0.5
 40
0.5
 40
0.75
 40
0.75
 40
0.75
 40
0.75
 40
1.0
 40
1.0
 40
1.0
 40
1.0
 10
-2.5085236220472442
 20
0.5880551181102363
 30
0.0
 10
-2.5085236220472442
 20
0.5880551181102363
 30
0.0
 10
-1.8689133858267717
 20
0.1933149606299213
 30
0.0
 10
-1.8689133858267717
 20
0.1933149606299213
 30
0.0
 10
-1.8689133858267717
 20
0.1933149606299213
 30
0.0
 10
-1.8689133858267717
 20
0.1933149606299213
 30
0.0
 10
-1.8640826771653545
 20
0.2567874015748032
 30
0.0
 10
-1.8640826771653545
 20
0.2567874015748032
 30
0.0
 10
-1.8640826771653545
 20
0.2567874015748032
 30
0.0
 10
-1.8640826771653545
 20
0.2567874015748032
 30
0.0
 10
-2.503692913385827
 20
0.6515275590551182
 30
0.0
 10
-2.503692913385827
 20
0.6515275590551182
 30
0.0
 10
-2.503692913385827
 20
0.6515275590551182
 30
0.0
 10
-2.503692913385827
 20
0.6515275590551182
 30
0.0
 10
-2.5085236220472442
 20
0.5880551181102363
 30
0.0
 10
-2.5085236220472442
 20
0.5880551181102363
 30
0.0
  0
SPLINE
  5
52
100
AcDbEntity
  8
Additional Graphics
 62
     9
100
AcDbSpline
210
0.0
220
0.0
230
1.0
 70
     1
 71
     3
 72
    20
 73
    16
 74
     0
 42
0.0000000001
 43
0.0000000001
 40
0.0
 40
0.0
 40
0.0
 40
0.0
 40
0.25
 40
0.25
 40
0.25
 40
0.25
 40
0.5
 40
0.5
 40
0.5
 40
0.5
 40
0.75
 40
0.75
 40
0.75
 40
0.75
 40
1.0
 40
1.0
 40
1.0
 40
1.0
 10
-2.503692913385827
 20
0.6515275590551182
 30
0.0
 10
-2.503692913385827
 20
0.6515275590551182
 30
0.0
 10
-1.8640826771653545
 20
0.2567874015748032
 30
0.0
 10
-1.8640826771653545
 20
0.2567874015748032
 30
0.0
 10
-1.8640826771653545
 20
0.2567874015748032
 30
0.0
 10
-1.8640826771653545
 20
0.2567874015748032
 30
0.0
 10
-1.8561299212598426
 20
0.3193346456692914
 30
0.0
 10
-1.8561299212598426
 20
0.3193346456692914
 30
0.0
 10
-1.8561299212598426
 20
0.3193346456692914
 30
0.0
 10
-1.8561299212598426
 20
0.3193346456692914
 30
0.0
 10
-2.4957401574803151
 20
0.7140748031496064
 30
0.0
 10
-2.4957401574803151
 20
0.7140748031496064
 30
0.0
 10
-2.4957401574803151
 20
0.7140748031496064
 30
0.0
 10
-2.4957401574803151
 20
0.7140748031496064
 30
0.0
 10
-2.503692913385827
 20
0.6515275590551182
 30
0.0
 10
-2.503692913385827
 20
0.6515275590551182
 30
0.0
  0
SPLINE
  5
53
100
AcDbEntity
  8
Additional Graphics
 62
     9
100
AcDbSpline
210
0.0
220
0.0
230
1.0
 70
     1
 71
     3
 72
    20
 73
    16
 74
     0
 42
0.0000000001
 43
0.0000000001
 40
0.0
 40
0.0
 40
0.0
 40
0.0
 40
0.25
 40
0.25
 40
0.25
 40
0.25
 40
0.5
 40
0.5
 40
0.5
 40
0.5
 40
0.75
 40
0.75
 40
0.75
 40
0.75
 40
1.0
 40
1.0
 40
1.0
 40
1.0
 10
-2.4957401574803151
 20
0.7140748031496064
 30
0.0
 10
-2.4957401574803151
 20
0.7140748031496064
 30
0.0
 10
-1.8561299212598426
 20
0.3193346456692914
 30
0.0
 10
-1.8561299212598426
 20
0.3193346456692914
 30
0.0
 10
-1.8561299212598426
 20
0.3193346456692914
 30
0.0
 10
-1.8561299212598426
 20
0.3193346456692914
 30
0.0
 10
-1.8451377952755905
 20
0.3808858267716536
 30
0.0
 10
-1.8451377952755905
 20
0.3808858267716536
 30
0.0
 10
-1.8451377952755905
 20
0.3808858267716536
 30
0.0
 10
-1.8451377952755905
 20
0.3808858267716536
 30
0.0
 10
-2.4847480314960633
 20
0.7756259842519685
 30
0.0
 10
-2.4847480314960633
 20
0.7756259842519685
 30
0.0
 10
-2.4847480314960633
 20
0.7756259842519685
 30
0.0
 10
-2.4847480314960633
 20
0.7756259842519685
 30
0.0
 10
-2.4957401574803151
 20
0.7140748031496064
 30
0.0
 10
-2.4957401574803151
 20
0.7140748031496064
 30
0.0
  0
SPLINE
  5
54
100
AcDbEntity
  8
Additional Graphics
 62
     9
100
AcDbSpline
210
0.0
220
0.0
230
1.0
 70
     1
 71
     3
 72
    20
 73
    16
 74
     0
 42
0.0000000001
 43
0.0000000001
 40
0.0
 40
0.0
 40
0.0
 40
0.0
 40
0.25
 40
0.25
 40
0.25
 40
0.25
 40
0.5
 40
0.5
 40
0.5
 40
0.5
 40
0.75
 40
0.75
 40
0.75
 40
0.75
 40
1.0
 40
1.0
 40
1.0
 40
1.0
 10
-2.4847480314960633
 20
0.7756259842519685
 30
0.0
 10
-2.4847480314960633
 20
0.7756259842519685
 30
0.0
 10
-1.8451377952755905
 20
0.3808858267716536
 30
0.0
 10
-1.8451377952755905
 20
0.3808858267716536
 30
0.0
 10
-1.8451377952755905
 20
0.3808858267716536
 30
0.0
 10
-1.8451377952755905
 20
0.3808858267716536
 30
0.0
 10
-1.8311732283464568
 20
0.4413503937007874
 30
0.0
 10
-1.8311732283464568
 20
0.4413503937007874
 30
0.0
 10
-1.8311732283464568
 20
0.4413503937007874
 30
0.0
 10
-1.8311732283464568
 20
0.4413503937007874
 30
0.0
 10
-2.4707834645669293
 20
0.8360905511811024
 30
0.0
 10
-2.4707834645669293
 20
0.8360905511811024
 30
0.0
 10
-2.4707834645669293
 20
0.8360905511811024
 30
0.0
 10
-2.4707834645669293
 20
0.8360905511811024
 30
0.0
 10
-2.4847480314960633
 20
0.7756259842519685
 30
0.0
 10
-2.4847480314960633
 20
0.7756259842519685
 30
0.0
  0
SPLINE
  5
55
100
AcDbEntity
  8
Additional Graphics
 62
     9
100
AcDbSpline
210
0.0
220
0.0
230
1.0
 70
     1
 71
     3
 72
    20
 73
    16
 74
     0
 42
0.0000000001
 43
0.0000000001
 40
0.0
 40
0.0
 40
0.0
 40
0.0
 40
0.25
 40
0.25
 40
0.25
 40
0.25
 40
0.5
 40
0.5
 40
0.5
 40
0.5
 40
0.75
 40
0.75
 40
0.75
 40
0.75
 40
1.0
 40
1.0
 40
1.0
 40
1.0
 10
-2.4707834645669293
 20
0.8360905511811024
 30
0.0
 10
-2.4707834645669293
 20
0.8360905511811024
 30
0.0
 10
-1.8311732283464568
 20
0.4413503937007874
 30
0.0
 10
-1.8311732283464568
 20
0.4413503937007874
 30
0.0
 10
-1.8311732283464568
 20
0.4413503937007874
 30
0.0
 10
-1.8311732283464568
 20
0.4413503937007874
 30
0.0
 10
-1.8143267716535434
 20
0.5006653543307087
 30
0.0
 10
-1.8143267716535434
 20
0.5006653543307087
 30
0.0
 10
-1.8143267716535434
 20
0.5006653543307087
 30
0.0
 10
-1.8143267716535434
 20
0.5006653543307087
 30
0.0
 10
-2.4539370078740159
 20
0.8954055118110237
 30
0.0
 10
-2.4539370078740159
 20
0.8954055118110237
 30
0.0
 10
-2.4539370078740159
 20
0.8954055118110237
 30
0.0
 10
-2.4539370078740159
 20
0.8954055118110237
 30
0.0
 10
-2.4707834645669293
 20
0.8360905511811024
 30
0.0
 10
-2.4707834645669293
 20
0.8360905511811024
 30
0.0
  0
SPLINE
  5
56
100
AcDbEntity
  8
Additional Graphics
 62
     9
100
AcDbSpline
210
0.0
220
0.0
230
1.0
 70
     1
 71
     3
 72
    20
 73
    16
 74
     0
 42
0.0000000001
 43
0.0000000001
 40
0.0
 40
0.0
 40
0.0
 40
0.0
 40
0.25
 40
0.25
 40
0.25
 40
0.25
 40
0.5
 40
0.5
 40
0.5
 40
0.5
 40
0.75
 40
0.75
 40
0.75
 40
0.75
 40
1.0
 40
1.0
 40
1.0
 40
1.0
 10
-2.4539370078740159
 20
0.8954055118110237
 30
0.0
 10
-2.4539370078740159
 20
0.8954055118110237
 30
0.0
 10
-1.8143267716535434
 20
0.5006653543307087
 30
0.0
 10
-1.8143267716535434
 20
0.5006653543307087
 30
0.0
 10
-1.8143267716535434
 20
0.5006653543307087
 30
0.0
 10
-1.8143267716535434
 20
0.5006653543307087
 30
0.0
 10
-1.7946732283464568
 20
0.558744094488189
 30
0.0
 10
-1.7946732283464568
 20
0.558744094488189
 30
0.0
 10
-1.7946732283464568
 20
0.558744094488189
 30
0.0
 10
-1.7946732283464568
 20
0.558744094488189
 30
0.0
 10
-2.4342834645669291
 20
0.953484251968504
 30
0.0
 10
-2.4342834645669291
 20
0.953484251968504
 30
0.0
 10
-2.4342834645669291
 20
0.953484251968504
 30
0.0
 10
-2.4342834645669291
 20
0.953484251968504
 30
0.0
 10
-2.4539370078740159
 20
0.8954055118110237
 30
0.0
 10
-2.4539370078740159
 20
0.8954055118110237
 30
0.0
  0
SPLINE
  5
57
100
AcDbEntity
  8
Additional Graphics
 62
     9
100
AcDbSpline
210
0.0
220
0.0
230
1.0
 70
     1
 71
     3
 72
    20
 73
    16
 74
     0
 42
0.0000000001
 43
0.0000000001
 40
0.0
 40
0.0
 40
0.0
 40
0.0
 40
0.25
 40
0.25
 40
0.25
 40
0.25
 40
0.5
 40
0.5
 40
0.5
 40
0.5
 40
0.75
 40
0.75
 40
0.75
 40
0.75
 40
1.0
 40
1.0
 40
1.0
 40
1.0
 10
-2.4342834645669291
 20
0.953484251968504
 30
0.0
 10
-2.4342834645669291
 20
0.953484251968504
 30
0.0
 10
-1.7946732283464568
 20
0.558744094488189
 30
0.0
 10
-1.7946732283464568
 20
0.558744094488189
 30
0.0
 10
-1.7946732283464568
 20
0.558744094488189
 30
0.0
 10
-1.7946732283464568
 20
0.558744094488189
 30
0.0
 10
-1.7722913385826773
 20
0.615507874015748
 30
0.0
 10
-1.7722913385826773
 20
0.615507874015748
 30
0.0
 10
-1.7722913385826773
 20
0.615507874015748
 30
0.0
 10
-1.7722913385826773
 20
0.615507874015748
 30
0.0
 10
-2.4119015748031498
 20
1.0102480314960631
 30
0.0
 10
-2.4119015748031498
 20
1.0102480314960631
 30
0.0
 10
-2.4119015748031498
 20
1.0102480314960631
 30
0.0
 10
-2.4119015748031498
 20
1.0102480314960631
 30
0.0
 10
-2.4342834645669291
 20
0.953484251968504
 30
0.0
 10
-2.4342834645669291
 20
0.953484251968504
 30
0.0
  0
SPLINE
  5
58
100
AcDbEntity
  8
Additional Graphics
 62
     9
100
AcDbSpline
210
0.0
220
0.0
230
1.0
 70
     1
 71
     3
 72
    20
 73
    16
 74
     0
 42
0.0000000001
 43
0.0000000001
 40
0.0
 40
0.0
 40
0.0
 40
0.0
 40
0.25
 40
0.25
 40
0.25
 40
0.25
 40
0.5
 40
0.5
 40
0.5
 40
0.5
 40
0.75
 40
0.75
 40
0.75
 40
0.75
 40
1.0
 40
1.0
 40
1.0
 40
1.0
 10
-2.4119015748031498
 20
1.0102480314960631
 30
0.0
 10
-2.4119015748031498
 20
1.0102480314960631
 30
0.0
 10
-1.7722913385826773
 20
0.615507874015748
 30
0.0
 10
-1.7722913385826773
 20
0.615507874015748
 30
0.0
 10
-1.7722913385826773
 20
0.615507874015748
 30
0.0
 10
-1.7722913385826773
 20
0.615507874015748
 30
0.0
 10
-1.7472519685039372
 20
0.6708740157480315
 30
0.0
 10
-1.7472519685039372
 20
0.6708740157480315
 30
0.0
 10
-1.7472519685039372
 20
0.6708740157480315
 30
0.0
 10
-1.7472519685039372
 20
0.6708740157480315
 30
0.0
 10
-2.3868622047244097
 20
1.0656141732283464
 30
0.0
 10
-2.3868622047244097
 20
1.0656141732283464
 30
0.0
 10
-2.3868622047244097
 20
1.0656141732283464
 30
0.0
 10
-2.3868622047244097
 20
1.0656141732283464
 30
0.0
 10
-2.4119015748031498
 20
1.0102480314960631
 30
0.0
 10
-2.4119015748031498
 20
1.0102480314960631
 30
0.0
  0
SPLINE
  5
59
100
AcDbEntity
  8
Additional Graphics
 62
     9
100
AcDbSpline
210
0.0
220
0.0
230
1.0
 70
     1
 71
     3
 72
    20
 73
    16
 74
     0
 42
0.0000000001
 43
0.0000000001
 40
0.0
 40
0.0
 40
0.0
 40
0.0
 40
0.25
 40
0.25
 40
0.25
 40
0.25
 40
0.5
 40
0.5
 40
0.5
 40
0.5
 40
0.75
 40
0.75
 40
0.75
 40
0.75
 40
1.0
 40
1.0
 40
1.0
 40
1.0
 10
-2.3868622047244097
 20
1.0656141732283464
 30
0.0
 10
-2.3868622047244097
 20
1.0656141732283464
 30
0.0
 10
-1.7472519685039372
 20
0.6708740157480315
 30
0.0
 10
-1.7472519685039372
 20
0.6708740157480315
 30
0.0
 10
-1.7472519685039372
 20
0.6708740157480315
 30
0.0
 10
-1.7472519685039372
 20
0.6708740157480315
 30
0.0
 10
-1.7196456692913387
 20
0.7247716535433071
 30
0.0
 10
-1.7196456692913387
 20
0.7247716535433071
 30
0.0
 10
-1.7196456692913387
 20
0.7247716535433071
 30
0.0
 10
-1.7196456692913387
 20
0.7247716535433071
 30
0.0
 10
-2.359255905511811
 20
1.1195118110236222
 30
0.0
 10
-2.359255905511811
 20
1.1195118110236222
 30
0.0
 10
-2.359255905511811
 20
1.1195118110236222
 30
0.0
 10
-2.359255905511811
 20
1.1195118110236222
 30
0.0
 10
-2.3868622047244097
 20
1.0656141732283464
 30
0.0
 10
-2.3868622047244097
 20
1.0656141732283464
 30
0.0
  0
SPLINE
  5
5A
100
AcDbEntity
  8
Additional Graphics
 62
     9
100
AcDbSpline
210
0.0
220
0.0
230
1.0
 70
     1
 71
     3
 72
    20
 73
    16
 74
     0
 42
0.0000000001
 43
0.0000000001
 40
0.0
 40
0.0
 40
0.0
 40
0.0
 40
0.25
 40
0.25
 40
0.25
 40
0.25
 40
0.5
 40
0.5
 40
0.5
 40
0.5
 40
0.75
 40
0.75
 40
0.75
 40
0.75
 40
1.0
 40
1.0
 40
1.0
 40
1.0
 10
-2.359255905511811
 20
1.1195118110236222
 30
0.0
 10
-2.359255905511811
 20
1.1195118110236222
 30
0.0
 10
-1.7196456692913387
 20
0.7247716535433071
 30
0.0
 10
-1.7196456692913387
 20
0.7247716535433071
 30
0.0
 10
-1.7196456692913387
 20
0.7247716535433071
 30
0.0
 10
-1.7196456692913387
 20
0.7247716535433071
 30
0.0
 10
-1.6895433070866142
 20
0.7771141732283465
 30
0.0
 10
-1.6895433070866142
 20
0.7771141732283465
 30
0.0
 10
-1.6895433070866142
 20
0.7771141732283465
 30
0.0
 10
-1.6895433070866142
 20
0.7771141732283465
 30
0.0
 10
-2.3291535433070867
 20
1.1718543307086615
 30
0.0
 10
-2.3291535433070867
 20
1.1718543307086615
 30
0.0
 10
-2.3291535433070867
 20
1.1718543307086615
 30
0.0
 10
-2.3291535433070867
 20
1.1718543307086615
 30
0.0
 10
-2.359255905511811
 20
1.1195118110236222
 30
0.0
 10
-2.359255905511811
 20
1.1195118110236222
 30
0.0
  0
SPLINE
  5
5B
100
AcDbEntity
  8
Additional Graphics
 62
     9
100
AcDbSpline
210
0.0
220
0.0
230
1.0
 70
     1
 71
     3
 72
    20
 73
    16
 74
     0
 42
0.0000000001
 43
0.0000000001
 40
0.0
 40
0.0
 40
0.0
 40
0.0
 40
0.25
 40
0.25
 40
0.25
 40
0.25
 40
0.5
 40
0.5
 40
0.5
 40
0.5
 40
0.75
 40
0.75
 40
0.75
 40
0.75
 40
1.0
 40
1.0
 40
1.0
 40
1.0
 10
-2.3291535433070867
 20
1.1718543307086615
 30
0.0
 10
-2.3291535433070867
 20
1.1718543307086615
 30
0.0
 10
-1.6895433070866142
 20
0.7771141732283465
 30
0.0
 10
-1.6895433070866142
 20
0.7771141732283465
 30
0.0
 10
-1.6895433070866142
 20
0.7771141732283465
 30
0.0
 10
-1.6895433070866142
 20
0.7771141732283465
 30
0.0
 10
-1.6570275590551182
 20
0.8278346456692913
 30
0.0
 10
-1.6570275590551182
 20
0.8278346456692913
 30
0.0
 10
-1.6570275590551182
 20
0.8278346456692913
 30
0.0
 10
-1.6570275590551182
 20
0.8278346456692913
 30
0.0
 10
-2.2966377952755908
 20
1.2225748031496064
 30
0.0
 10
-2.2966377952755908
 20
1.2225748031496064
 30
0.0
 10
-2.2966377952755908
 20
1.2225748031496064
 30
0.0
 10
-2.2966377952755908
 20
1.2225748031496064
 30
0.0
 10
-2.3291535433070867
 20
1.1718543307086615
 30
0.0
 10
-2.3291535433070867
 20
1.1718543307086615
 30
0.0
  0
SPLINE
  5
5C
100
AcDbEntity
  8
Additional Graphics
 62
     9
100
AcDbSpline
210
0.0
220
0.0
230
1.0
 70
     1
 71
     3
 72
    20
 73
    16
 74
     0
 42
0.0000000001
 43
0.0000000001
 40
0.0
 40
0.0
 40
0.0
 40
0.0
 40
0.25
 40
0.25
 40
0.25
 40
0.25
 40
0.5
 40
0.5
 40
0.5
 40
0.5
 40
0.75
 40
0.75
 40
0.75
 40
0.75
 40
1.0
 40
1.0
 40
1.0
 40
1.0
 10
-2.2966377952755908
 20
1.2225748031496064
 30
0.0
 10
-2.2966377952755908
 20
1.2225748031496064
 30
0.0
 10
-1.6570275590551182
 20
0.8278346456692913
 30
0.0
 10
-1.6570275590551182
 20
0.8278346456692913
 30
0.0
 10
-1.6570275590551182
 20
0.8278346456692913
 30
0.0
 10
-1.6570275590551182
 20
0.8278346456692913
 30
0.0
 10
-1.6221732283464567
 20
0.8768425196850395
 30
0.0
 10
-1.6221732283464567
 20
0.8768425196850395
 30
0.0
 10
-1.6221732283464567
 20
0.8768425196850395
 30
0.0
 10
-1.6221732283464567
 20
0.8768425196850395
 30
0.0
 10
-2.2617834645669292
 20
1.2715826771653544
 30
0.0
 10
-2.2617834645669292
 20
1.2715826771653544
 30
0.0
 10
-2.2617834645669292
 20
1.2715826771653544
 30
0.0
 10
-2.2617834645669292
 20
1.2715826771653544
 30
0.0
 10
-2.2966377952755908
 20
1.2225748031496064
 30
0.0
 10
-2.2966377952755908
 20
1.2225748031496064
 30
0.0
  0
SPLINE
  5
5D
100
AcDbEntity
  8
Additional Graphics
 62
     9
100
AcDbSpline
210
0.0
220
0.0
230
1.0
 70
     1
 71
     3
 72
    20
 73
    16
 74
     0
 42
0.0000000001
 43
0.0000000001
 40
0.0
 40
0.0
 40
0.0
 40
0.0
 40
0.25
 40
0.25
 40
0.25
 40
0.25
 40
0.5
 40
0.5
 40
0.5
 40
0.5
 40
0.75
 40
0.75
 40
0.75
 40
0.75
 40
1.0
 40
1.0
 40
1.0
 40
1.0
 10
-2.2617834645669292
 20
1.2715826771653544
 30
0.0
 10
-2.2617834645669292
 20
1.2715826771653544
 30
0.0
 10
-1.6221732283464567
 20
0.8768425196850395
 30
0.0
 10
-1.6221732283464567
 20
0.8768425196850395
 30
0.0
 10
-1.6221732283464567
 20
0.8768425196850395
 30
0.0
 10
-1.6221732283464567
 20
0.8768425196850395
 30
0.0
 10
-1.5850629921259842
 20
0.9240669291338584
 30
0.0
 10
-1.5850629921259842
 20
0.9240669291338584
 30
0.0
 10
-1.5850629921259842
 20
0.9240669291338584
 30
0.0
 10
-1.5850629921259842
 20
0.9240669291338584
 30
0.0
 10
-2.224673228346457
 20
1.3188070866141732
 30
0.0
 10
-2.224673228346457
 20
1.3188070866141732
 30
0.0
 10
-2.224673228346457
 20
1.3188070866141732
 30
0.0
 10
-2.224673228346457
 20
1.3188070866141732
 30
0.0
 10
-2.2617834645669292
 20
1.2715826771653544
 30
0.0
 10
-2.2617834645669292
 20
1.2715826771653544
 30
0.0
  0
SPLINE
  5
5E
100
AcDbEntity
  8
Additional Graphics
 62
     9
100
AcDbSpline
210
0.0
220
0.0
230
1.0
 70
     1
 71
     3
 72
    20
 73
    16
 74
     0
 42
0.0000000001
 43
0.0000000001
 40
0.0
 40
0.0
 40
0.0
 40
0.0
 40
0.25
 40
0.25
 40
0.25
 40
0.25
 40
0.5
 40
0.5
 40
0.5
 40
0.5
 40
0.75
 40
0.75
 40
0.75
 40
0.75
 40
1.0
 40
1.0
 40
1.0
 40
1.0
 10
-2.224673228346457
 20
1.3188070866141732
 30
0.0
 10
-2.224673228346457
 20
1.3188070866141732
 30
0.0
 10
-1.5850629921259842
 20
0.9240669291338584
 30
0.0
 10
-1.5850629921259842
 20
0.9240669291338584
 30
0.0
 10
-1.5850629921259842
 20
0.9240669291338584
 30
0.0
 10
-1.5850629921259842
 20
0.9240669291338584
 30
0.0
 10
-1.5457677165354331
 20
0.9694212598425197
 30
0.0
 10
-1.5457677165354331
 20
0.9694212598425197
 30
0.0
 10
-1.5457677165354331
 20
0.9694212598425197
 30
0.0
 10
-1.5457677165354331
 20
0.9694212598425197
 30
0.0
 10
-2.1853779527559056
 20
1.3641614173228347
 30
0.0
 10
-2.1853779527559056
 20
1.3641614173228347
 30
0.0
 10
-2.1853779527559056
 20
1.3641614173228347
 30
0.0
 10
-2.1853779527559056
 20
1.3641614173228347
 30
0.0
 10
-2.224673228346457
 20
1.3188070866141732
 30
0.0
 10
-2.224673228346457
 20
1.3188070866141732
 30
0.0
  0
SPLINE
  5
5F
100
AcDbEntity
  8
Additional Graphics
 62
     9
100
AcDbSpline
210
0.0
220
0.0
230
1.0
 70
     1
 71
     3
 72
    20
 73
    16
 74
     0
 42
0.0000000001
 43
0.0000000001
 40
0.0
 40
0.0
 40
0.0
 40
0.0
 40
0.25
 40
0.25
 40
0.25
 40
0.25
 40
0.5
 40
0.5
 40
0.5
 40
0.5
 40
0.75
 40
0.75
 40
0.75
 40
0.75
 40
1.0
 40
1.0
 40
1.0
 40
1.0
 10
-2.1853779527559056
 20
1.3641614173228347
 30
0.0
 10
-2.1853779527559056
 20
1.3641614173228347
 30
0.0
 10
-1.5457677165354331
 20
0.9694212598425197
 30
0.0
 10
-1.5457677165354331
 20
0.9694212598425197
 30
0.0
 10
-1.5457677165354331
 20
0.9694212598425197
 30
0.0
 10
-1.5457677165354331
 20
0.9694212598425197
 30
0.0
 10
-1.5043818897637795
 20
1.0128425196850395
 30
0.0
 10
-1.5043818897637795
 20
1.0128425196850395
 30
0.0
 10
-1.5043818897637795
 20
1.0128425196850395
 30
0.0
 10
-1.5043818897637795
 20
1.0128425196850395
 30
0.0
 10
-2.1439921259842523
 20
1.4075826771653543
 30
0.0
 10
-2.1439921259842523
 20
1.4075826771653543
 30
0.0
 10
-2.1439921259842523
 20
1.4075826771653543
 30
0.0
 10
-2.1439921259842523
 20
1.4075826771653543
 30
0.0
 10
-2.1853779527559056
 20
1.3641614173228347
 30
0.0
 10
-2.1853779527559056
 20
1.3641614173228347
 30
0.0
  0
SPLINE
  5
60
100
AcDbEntity
  8
Additional Graphics
 62
     9
100
AcDbSpline
210
0.0
220
0.0
230
1.0
 70
     1
 71
     3
 72
    20
 73
    16
 74
     0
 42
0.0000000001
 43
0.0000000001
 40
0.0
 40
0.0
 40
0.0
 40
0.0
 40
0.25
 40
0.25
 40
0.25
 40
0.25
 40
0.5
 40
0.5
 40
0.5
 40
0.5
 40
0.75
 40
0.75
 40
0.75
 40
0.75
 40
1.0
 40
1.0
 40
1.0
 40
1.0
 10
-2.1439921259842523
 20
1.4075826771653543
 30
0.0
 10
-2.1439921259842523
 20
1.4075826771653543
 30
0.0
 10
-1.5043818897637795
 20
1.0128425196850395
 30
0.0
 10
-1.5043818897637795
 20
1.0128425196850395
 30
0.0
 10
-1.5043818897637795
 20
1.0128425196850395
 30
0.0
 10
-1.5043818897637795
 20
1.0128425196850395
 30
0.0
 10
-1.4609606299212599
 20
1.0542283464566931
 30
0.0
 10
-1.4609606299212599
 20
1.0542283464566931
 30
0.0
 10
-1.4609606299212599
 20
1.0542283464566931
 30
0.0
 10
-1.4609606299212599
 20
1.0542283464566931
 30
0.0
 10
-2.1005708661417324
 20
1.4489685039370079
 30
0.0
 10
-2.1005708661417324
 20
1.4489685039370079
 30
0.0
 10
-2.1005708661417324
 20
1.4489685039370079
 30
0.0
 10
-2.1005708661417324
 20
1.4489685039370079
 30
0.0
 10
-2.1439921259842523
 20
1.4075826771653543
 30
0.0
 10
-2.1439921259842523
 20
1.4075826771653543
 30
0.0
  0
SPLINE
  5
61
100
AcDbEntity
  8
Additional Graphics
 62
     9
100
AcDbSpline
210
0.0
220
0.0
230
1.0
 70
     1
 71
     3
 72
    20
 73
    16
 74
     0
 42
0.0000000001
 43
0.0000000001
 40
0.0
 40
0.0
 40
0.0
 40
0.0
 40
0.25
 40
0.25
 40
0.25
 40
0.25
 40
0.5
 40
0.5
 40
0.5
 40
0.5
 40
0.75
 40
0.75
 40
0.75
 40
0.75
 40
1.0
 40
1.0
 40
1.0
 40
1.0
 10
-2.1005708661417324
 20
1.4489685039370079
 30
0.0
 10
-2.1005708661417324
 20
1.4489685039370079
 30
0.0
 10
-1.4609606299212599
 20
1.0542283464566931
 30
0.0
 10
-1.4609606299212599
 20
1.0542283464566931
 30
0.0
 10
-1.4609606299212599
 20
1.0542283464566931
 30
0.0
 10
-1.4609606299212599
 20
1.0542283464566931
 30
0.0
 10
-1.4156062992125984
 20
1.0935236220472442
 30
0.0
 10
-1.4156062992125984
 20
1.0935236220472442
 30
0.0
 10
-1.4156062992125984
 20
1.0935236220472442
 30
0.0
 10
-1.4156062992125984
 20
1.0935236220472442
 30
0.0
 10
-2.0552165354330709
 20
1.4882637795275591
 30
0.0
 10
-2.0552165354330709
 20
1.4882637795275591
 30
0.0
 10
-2.0552165354330709
 20
1.4882637795275591
 30
0.0
 10
-2.0552165354330709
 20
1.4882637795275591
 30
0.0
 10
-2.1005708661417324
 20
1.4489685039370079
 30
0.0
 10
-2.1005708661417324
 20
1.4489685039370079
 30
0.0
  0
SPLINE
  5
62
100
AcDbEntity
  8
Additional Graphics
 62
     9
100
AcDbSpline
210
0.0
220
0.0
230
1.0
 70
     1
 71
     3
 72
    20
 73
    16
 74
     0
 42
0.0000000001
 43
0.0000000001
 40
0.0
 40
0.0
 40
0.0
 40
0.0
 40
0.25
 40
0.25
 40
0.25
 40
0.25
 40
0.5
 40
0.5
 40
0.5
 40
0.5
 40
0.75
 40
0.75
 40
0.75
 40
0.75
 40
1.0
 40
1.0
 40
1.0
 40
1.0
 10
-2.0552165354330709
 20
1.4882637795275591
 30
0.0
 10
-2.0552165354330709
 20
1.4882637795275591
 30
0.0
 10
-1.4156062992125984
 20
1.0935236220472442
 30
0.0
 10
-1.4156062992125984
 20
1.0935236220472442
 30
0.0
 10
-1.4156062992125984
 20
1.0935236220472442
 30
0.0
 10
-1.4156062992125984
 20
1.0935236220472442
 30
0.0
 10
-1.3683818897637796
 20
1.1306338582677167
 30
0.0
 10
-1.3683818897637796
 20
1.1306338582677167
 30
0.0
 10
-1.3683818897637796
 20
1.1306338582677167
 30
0.0
 10
-1.3683818897637796
 20
1.1306338582677167
 30
0.0
 10
-2.0079921259842521
 20
1.5253740157480316
 30
0.0
 10
-2.0079921259842521
 20
1.5253740157480316
 30
0.0
 10
-2.0079921259842521
 20
1.5253740157480316
 30
0.0
 10
-2.0079921259842521
 20
1.5253740157480316
 30
0.0
 10
-2.0552165354330709
 20
1.4882637795275591
 30
0.0
 10
-2.0552165354330709
 20
1.4882637795275591
 30
0.0
  0
SPLINE
  5
63
100
AcDbEntity
  8
Additional Graphics
 62
     9
100
AcDbSpline
210
0.0
220
0.0
230
1.0
 70
     1
 71
     3
 72
    20
 73
    16
 74
     0
 42
0.0000000001
 43
0.0000000001
 40
0.0
 40
0.0
 40
0.0
 40
0.0
 40
0.25
 40
0.25
 40
0.25
 40
0.25
 40
0.5
 40
0.5
 40
0.5
 40
0.5
 40
0.75
 40
0.75
 40
0.75
 40
0.75
 40
1.0
 40
1.0
 40
1.0
 40
1.0
 10
-2.0079921259842521
 20
1.5253740157480316
 30
0.0
 10
-2.0079921259842521
 20
1.5253740157480316
 30
0.0
 10
-1.3683818897637796
 20
1.1306338582677167
 30
0.0
 10
-1.3683818897637796
 20
1.1306338582677167
 30
0.0
 10
-1.3683818897637796
 20
1.1306338582677167
 30
0.0
 10
-1.3683818897637796
 20
1.1306338582677167
 30
0.0
 10
-1.3193740157480316
 20
1.165488188976378
 30
0.0
 10
-1.3193740157480316
 20
1.165488188976378
 30
0.0
 10
-1.3193740157480316
 20
1.165488188976378
 30
0.0
 10
-1.3193740157480316
 20
1.165488188976378
 30
0.0
 10
-1.9589842519685041
 20
1.5602283464566931
 30
0.0
 10
-1.9589842519685041
 20
1.5602283464566931
 30
0.0
 10
-1.9589842519685041
 20
1.5602283464566931
 30
0.0
 10
-1.9589842519685041
 20
1.5602283464566931
 30
0.0
 10
-2.0079921259842521
 20
1.5253740157480316
 30
0.0
 10
-2.0079921259842521
 20
1.5253740157480316
 30
0.0
  0
SPLINE
  5
64
100
AcDbEntity
  8
Additional Graphics
 62
     9
100
AcDbSpline
210
0.0
220
0.0
230
1.0
 70
     1
 71
     3
 72
    20
 73
    16
 74
     0
 42
0.0000000001
 43
0.0000000001
 40
0.0
 40
0.0
 40
0.0
 40
0.0
 40
0.25
 40
0.25
 40
0.25
 40
0.25
 40
0.5
 40
0.5
 40
0.5
 40
0.5
 40
0.75
 40
0.75
 40
0.75
 40
0.75
 40
1.0
 40
1.0
 40
1.0
 40
1.0
 10
-1.9589842519685041
 20
1.5602283464566931
 30
0.0
 10
-1.9589842519685041
 20
1.5602283464566931
 30
0.0
 10
-1.3193740157480316
 20
1.165488188976378
 30
0.0
 10
-1.3193740157480316
 20
1.165488188976378
 30
0.0
 10
-1.3193740157480316
 20
1.165488188976378
 30
0.0
 10
-1.3193740157480316
 20
1.165488188976378
 30
0.0
 10
-1.2686535433070867
 20
1.1980039370078741
 30
0.0
 10
-1.2686535433070867
 20
1.1980039370078741
 30
0.0
 10
-1.2686535433070867
 20
1.1980039370078741
 30
0.0
 10
-1.2686535433070867
 20
1.1980039370078741
 30
0.0
 10
-1.9082637795275592
 20
1.592744094488189
 30
0.0
 10
-1.9082637795275592
 20
1.592744094488189
 30
0.0
 10
-1.9082637795275592
 20
1.592744094488189
 30
0.0
 10
-1.9082637795275592
 20
1.592744094488189
 30
0.0
 10
-1.9589842519685041
 20
1.5602283464566931
 30
0.0
 10
-1.9589842519685041
 20
1.5602283464566931
 30
0.0
  0
SPLINE
  5
65
100
AcDbEntity
  8
Additional Graphics
 62
     9
100
AcDbSpline
210
0.0
220
0.0
230
1.0
 70
     1
 71
     3
 72
    20
 73
    16
 74
     0
 42
0.0000000001
 43
0.0000000001
 40
0.0
 40
0.0
 40
0.0
 40
0.0
 40
0.25
 40
0.25
 40
0.25
 40
0.25
 40
0.5
 40
0.5
 40
0.5
 40
0.5
 40
0.75
 40
0.75
 40
0.75
 40
0.75
 40
1.0
 40
1.0
 40
1.0
 40
1.0
 10
-1.9082637795275592
 20
1.592744094488189
 30
0.0
 10
-1.9082637795275592
 20
1.592744094488189
 30
0.0
 10
-1.2686535433070867
 20
1.1980039370078741
 30
0.0
 10
-1.2686535433070867
 20
1.1980039370078741
 30
0.0
 10
-1.2686535433070867
 20
1.1980039370078741
 30
0.0
 10
-1.2686535433070867
 20
1.1980039370078741
 30
0.0
 10
-1.2163110236220473
 20
1.2281062992125984
 30
0.0
 10
-1.2163110236220473
 20
1.2281062992125984
 30
0.0
 10
-1.2163110236220473
 20
1.2281062992125984
 30
0.0
 10
-1.2163110236220473
 20
1.2281062992125984
 30
0.0
 10
-1.8559212598425197
 20
1.6228464566929135
 30
0.0
 10
-1.8559212598425197
 20
1.6228464566929135
 30
0.0
 10
-1.8559212598425197
 20
1.6228464566929135
 30
0.0
 10
-1.8559212598425197
 20
1.6228464566929135
 30
0.0
 10
-1.9082637795275592
 20
1.592744094488189
 30
0.0
 10
-1.9082637795275592
 20
1.592744094488189
 30
0.0
  0
SPLINE
  5
66
100
AcDbEntity
  8
Additional Graphics
 62
     9
100
AcDbSpline
210
0.0
220
0.0
230
1.0
 70
     1
 71
     3
 72
    20
 73
    16
 74
     0
 42
0.0000000001
 43
0.0000000001
 40
0.0
 40
0.0
 40
0.0
 40
0.0
 40
0.25
 40
0.25
 40
0.25
 40
0.25
 40
0.5
 40
0.5
 40
0.5
 40
0.5
 40
0.75
 40
0.75
 40
0.75
 40
0.75
 40
1.0
 40
1.0
 40
1.0
 40
1.0
 10
-1.8559212598425197
 20
1.6228464566929135
 30
0.0
 10
-1.8559212598425197
 20
1.6228464566929135
 30
0.0
 10
-1.2163110236220473
 20
1.2281062992125984
 30
0.0
 10
-1.2163110236220473
 20
1.2281062992125984
 30
0.0
 10
-1.2163110236220473
 20
1.2281062992125984
 30
0.0
 10
-1.2163110236220473
 20
1.2281062992125984
 30
0.0
 10
-1.1624133858267718
 20
1.2557125984251969
 30
0.0
 10
-1.1624133858267718
 20
1.2557125984251969
 30
0.0
 10
-1.1624133858267718
 20
1.2557125984251969
 30
0.0
 10
-1.1624133858267718
 20
1.2557125984251969
 30
0.0
 10
-1.8020236220472441
 20
1.6504527559055118
 30
0.0
 10
-1.8020236220472441
 20
1.6504527559055118
 30
0.0
 10
-1.8020236220472441
 20
1.6504527559055118
 30
0.0
 10
-1.8020236220472441
 20
1.6504527559055118
 30
0.0
 10
-1.8559212598425197
 20
1.6228464566929135
 30
0.0
 10
-1.8559212598425197
 20
1.6228464566929135
 30
0.0
  0
SPLINE
  5
67
100
AcDbEntity
  8
Additional Graphics
 62
     9
100
AcDbSpline
210
0.0
220
0.0
230
1.0
 70
     1
 71
     3
 72
    20
 73
    16
 74
     0
 42
0.0000000001
 43
0.0000000001
 40
0.0
 40
0.0
 40
0.0
 40
0.0
 40
0.25
 40
0.25
 40
0.25
 40
0.25
 40
0.5
 40
0.5
 40
0.5
 40
0.5
 40
0.75
 40
0.75
 40
0.75
 40
0.75
 40
1.0
 40
1.0
 40
1.0
 40
1.0
 10
-1.8020236220472441
 20
1.6504527559055118
 30
0.0
 10
-1.8020236220472441
 20
1.6504527559055118
 30
0.0
 10
-1.1624133858267718
 20
1.2557125984251969
 30
0.0
 10
-1.1624133858267718
 20
1.2557125984251969
 30
0.0
 10
-1.1624133858267718
 20
1.2557125984251969
 30
0.0
 10
-1.1624133858267718
 20
1.2557125984251969
 30
0.0
 10
-1.1070472440944883
 20
1.280751968503937
 30
0.0
 10
-1.1070472440944883
 20
1.280751968503937
 30
0.0
 10
-1.1070472440944883
 20
1.280751968503937
 30
0.0
 10
-1.1070472440944883
 20
1.280751968503937
 30
0.0
 10
-1.7466574803149606
 20
1.6754921259842521
 30
0.0
 10
-1.7466574803149606
 20
1.6754921259842521
 30
0.0
 10
-1.7466574803149606
 20
1.6754921259842521
 30
0.0
 10
-1.7466574803149606
 20
1.6754921259842521
 30
0.0
 10
-1.8020236220472441
 20
1.6504527559055118
 30
0.0
 10
-1.8020236220472441
 20
1.6504527559055118
 30
0.0
  0
SPLINE
  5
68
100
AcDbEntity
  8
Additional Graphics
 62
     9
100
AcDbSpline
210
0.0
220
0.0
230
1.0
 70
     1
 71
     3
 72
    20
 73
    16
 74
     0
 42
0.0000000001
 43
0.0000000001
 40
0.0
 40
0.0
 40
0.0
 40
0.0
 40
0.25
 40
0.25
 40
0.25
 40
0.25
 40
0.5
 40
0.5
 40
0.5
 40
0.5
 40
0.75
 40
0.75
 40
0.75
 40
0.75
 40
1.0
 40
1.0
 40
1.0
 40
1.0
 10
-1.7466574803149606
 20
1.6754921259842521
 30
0.0
 10
-1.7466574803149606
 20
1.6754921259842521
 30
0.0
 10
-1.1070472440944883
 20
1.280751968503937
 30
0.0
 10
-1.1070472440944883
 20
1.280751968503937
 30
0.0
 10
-1.1070472440944883
 20
1.280751968503937
 30
0.0
 10
-1.1070472440944883
 20
1.280751968503937
 30
0.0
 10
-1.0502834645669292
 20
1.3031338582677165
 30
0.0
 10
-1.0502834645669292
 20
1.3031338582677165
 30
0.0
 10
-1.0502834645669292
 20
1.3031338582677165
 30
0.0
 10
-1.0502834645669292
 20
1.3031338582677165
 30
0.0
 10
-1.6898937007874015
 20
1.6978740157480317
 30
0.0
 10
-1.6898937007874015
 20
1.6978740157480317
 30
0.0
 10
-1.6898937007874015
 20
1.6978740157480317
 30
0.0
 10
-1.6898937007874015
 20
1.6978740157480317
 30
0.0
 10
-1.7466574803149606
 20
1.6754921259842521
 30
0.0
 10
-1.7466574803149606
 20
1.6754921259842521
 30
0.0
  0
SPLINE
  5
69
100
AcDbEntity
  8
Additional Graphics
 62
     9
100
AcDbSpline
210
0.0
220
0.0
230
1.0
 70
     1
 71
     3
 72
    20
 73
    16
 74
     0
 42
0.0000000001
 43
0.0000000001
 40
0.0
 40
0.0
 40
0.0
 40
0.0
 40
0.25
 40
0.25
 40
0.25
 40
0.25
 40
0.5
 40
0.5
 40
0.5
 40
0.5
 40
0.75
 40
0.75
 40
0.75
 40
0.75
 40
1.0
 40
1.0
 40
1.0
 40
1.0
 10
-1.6898937007874015
 20
1.6978740157480317
 30
0.0
 10
-1.6898937007874015
 20
1.6978740157480317
 30
0.0
 10
-1.0502834645669292
 20
1.3031338582677165
 30
0.0
 10
-1.0502834645669292
 20
1.3031338582677165
 30
0.0
 10
-1.0502834645669292
 20
1.3031338582677165
 30
0.0
 10
-1.0502834645669292
 20
1.3031338582677165
 30
0.0
 10
-0.9922047244094489
 20
1.3227874015748031
 30
0.0
 10
-0.9922047244094489
 20
1.3227874015748031
 30
0.0
 10
-0.9922047244094489
 20
1.3227874015748031
 30
0.0
 10
-0.9922047244094489
 20
1.3227874015748031
 30
0.0
 10
-1.6318149606299213
 20
1.7175275590551182
 30
0.0
 10
-1.6318149606299213
 20
1.7175275590551182
 30
0.0
 10
-1.6318149606299213
 20
1.7175275590551182
 30
0.0
 10
-1.6318149606299213
 20
1.7175275590551182
 30
0.0
 10
-1.6898937007874015
 20
1.6978740157480317
 30
0.0
 10
-1.6898937007874015
 20
1.6978740157480317
 30
0.0
  0
SPLINE
  5
6A
100
AcDbEntity
  8
Additional Graphics
 62
     9
100
AcDbSpline
210
0.0
220
0.0
230
1.0
 70
     1
 71
     3
 72
    20
 73
    16
 74
     0
 42
0.0000000001
 43
0.0000000001
 40
0.0
 40
0.0
 40
0.0
 40
0.0
 40
0.25
 40
0.25
 40
0.25
 40
0.25
 40
0.5
 40
0.5
 40
0.5
 40
0.5
 40
0.75
 40
0.75
 40
0.75
 40
0.75
 40
1.0
 40
1.0
 40
1.0
 40
1.0
 10
-1.6318149606299213
 20
1.7175275590551182
 30
0.0
 10
-1.6318149606299213
 20
1.7175275590551182
 30
0.0
 10
-0.9922047244094489
 20
1.3227874015748031
 30
0.0
 10
-0.9922047244094489
 20
1.3227874015748031
 30
0.0
 10
-0.9922047244094489
 20
1.3227874015748031
 30
0.0
 10
-0.9922047244094489
 20
1.3227874015748031
 30
0.0
 10
-0.9328897637795276
 20
1.3396338582677165
 30
0.0
 10
-0.9328897637795276
 20
1.3396338582677165
 30
0.0
 10
-0.9328897637795276
 20
1.3396338582677165
 30
0.0
 10
-0.9328897637795276
 20
1.3396338582677165
 30
0.0
 10
-1.5725
 20
1.7343740157480316
 30
0.0
 10
-1.5725
 20
1.7343740157480316
 30
0.0
 10
-1.5725
 20
1.7343740157480316
 30
0.0
 10
-1.5725
 20
1.7343740157480316
 30
0.0
 10
-1.6318149606299213
 20
1.7175275590551182
 30
0.0
 10
-1.6318149606299213
 20
1.7175275590551182
 30
0.0
  0
SPLINE
  5
6B
100
AcDbEntity
  8
Additional Graphics
 62
     9
100
AcDbSpline
210
0.0
220
0.0
230
1.0
 70
     1
 71
     3
 72
    20
 73
    16
 74
     0
 42
0.0000000001
 43
0.0000000001
 40
0.0
 40
0.0
 40
0.0
 40
0.0
 40
0.25
 40
0.25
 40
0.25
 40
0.25
 40
0.5
 40
0.5
 40
0.5
 40
0.5
 40
0.75
 40
0.75
 40
0.75
 40
0.75
 40
1.0
 40
1.0
 40
1.0
 40
1.0
 10
-1.5725
 20
1.7343740157480316
 30
0.0
 10
-1.5725
 20
1.7343740157480316
 30
0.0
 10
-0.9328897637795276
 20
1.3396338582677165
 30
0.0
 10
-0.9328897637795276
 20
1.3396338582677165
 30
0.0
 10
-0.9328897637795276
 20
1.3396338582677165
 30
0.0
 10
-0.9328897637795276
 20
1.3396338582677165
 30
0.0
 10
-0.8724251968503938
 20
1.3535984251968505
 30
0.0
 10
-0.8724251968503938
 20
1.3535984251968505
 30
0.0
 10
-0.8724251968503938
 20
1.3535984251968505
 30
0.0
 10
-0.8724251968503938
 20
1.3535984251968505
 30
0.0
 10
-1.5120354330708663
 20
1.7483385826771654
 30
0.0
 10
-1.5120354330708663
 20
1.7483385826771654
 30
0.0
 10
-1.5120354330708663
 20
1.7483385826771654
 30
0.0
 10
-1.5120354330708663
 20
1.7483385826771654
 30
0.0
 10
-1.5725
 20
1.7343740157480316
 30
0.0
 10
-1.5725
 20
1.7343740157480316
 30
0.0
  0
SPLINE
  5
6C
100
AcDbEntity
  8
Additional Graphics
 62
     9
100
AcDbSpline
210
0.0
220
0.0
230
1.0
 70
     1
 71
     3
 72
    20
 73
    16
 74
     0
 42
0.0000000001
 43
0.0000000001
 40
0.0
 40
0.0
 40
0.0
 40
0.0
 40
0.25
 40
0.25
 40
0.25
 40
0.25
 40
0.5
 40
0.5
 40
0.5
 40
0.5
 40
0.75
 40
0.75
 40
0.75
 40
0.75
 40
1.0
 40
1.0
 40
1.0
 40
1.0
 10
-1.5120354330708663
 20
1.7483385826771654
 30
0.0
 10
-1.5120354330708663
 20
1.7483385826771654
 30
0.0
 10
-0.8724251968503938
 20
1.3535984251968505
 30
0.0
 10
-0.8724251968503938
 20
1.3535984251968505
 30
0.0
 10
-0.8724251968503938
 20
1.3535984251968505
 30
0.0
 10
-0.8724251968503938
 20
1.3535984251968505
 30
0.0
 10
-0.8108740157480315
 20
1.3645905511811025
 30
0.0
 10
-0.8108740157480315
 20
1.3645905511811025
 30
0.0
 10
-0.8108740157480315
 20
1.3645905511811025
 30
0.0
 10
-0.8108740157480315
 20
1.3645905511811025
 30
0.0
 10
-1.4504842519685039
 20
1.7593307086614174
 30
0.0
 10
-1.4504842519685039
 20
1.7593307086614174
 30
0.0
 10
-1.4504842519685039
 20
1.7593307086614174
 30
0.0
 10
-1.4504842519685039
 20
1.7593307086614174
 30
0.0
 10
-1.5120354330708663
 20
1.7483385826771654
 30
0.0
 10
-1.5120354330708663
 20
1.7483385826771654
 30
0.0
  0
SPLINE
  5
6D
100
AcDbEntity
  8
Additional Graphics
 62
     9
100
AcDbSpline
210
0.0
220
0.0
230
1.0
 70
     1
 71
     3
 72
    20
 73
    16
 74
     0
 42
0.0000000001
 43
0.0000000001
 40
0.0
 40
0.0
 40
0.0
 40
0.0
 40
0.25
 40
0.25
 40
0.25
 40
0.25
 40
0.5
 40
0.5
 40
0.5
 40
0.5
 40
0.75
 40
0.75
 40
0.75
 40
0.75
 40
1.0
 40
1.0
 40
1.0
 40
1.0
 10
-1.4504842519685039
 20
1.7593307086614174
 30
0.0
 10
-1.4504842519685039
 20
1.7593307086614174
 30
0.0
 10
-0.8108740157480315
 20
1.3645905511811025
 30
0.0
 10
-0.8108740157480315
 20
1.3645905511811025
 30
0.0
 10
-0.8108740157480315
 20
1.3645905511811025
 30
0.0
 10
-0.8108740157480315
 20
1.3645905511811025
 30
0.0
 10
-0.7483267716535433
 20
1.3725433070866142
 30
0.0
 10
-0.7483267716535433
 20
1.3725433070866142
 30
0.0
 10
-0.7483267716535433
 20
1.3725433070866142
 30
0.0
 10
-0.7483267716535433
 20
1.3725433070866142
 30
0.0
 10
-1.3879370078740159
 20
1.7672834645669293
 30
0.0
 10
-1.3879370078740159
 20
1.7672834645669293
 30
0.0
 10
-1.3879370078740159
 20
1.7672834645669293
 30
0.0
 10
-1.3879370078740159
 20
1.7672834645669293
 30
0.0
 10
-1.4504842519685039
 20
1.7593307086614174
 30
0.0
 10
-1.4504842519685039
 20
1.7593307086614174
 30
0.0
  0
SPLINE
  5
6E
100
AcDbEntity
  8
Additional Graphics
 62
     9
100
AcDbSpline
210
0.0
220
0.0
230
1.0
 70
     1
 71
     3
 72
    20
 73
    16
 74
     0
 42
0.0000000001
 43
0.0000000001
 40
0.0
 40
0.0
 40
0.0
 40
0.0
 40
0.25
 40
0.25
 40
0.25
 40
0.25
 40
0.5
 40
0.5
 40
0.5
 40
0.5
 40
0.75
 40
0.75
 40
0.75
 40
0.75
 40
1.0
 40
1.0
 40
1.0
 40
1.0
 10
-1.3879370078740159
 20
1.7672834645669293
 30
0.0
 10
-1.3879370078740159
 20
1.7672834645669293
 30
0.0
 10
-0.7483267716535433
 20
1.3725433070866142
 30
0.0
 10
-0.7483267716535433
 20
1.3725433070866142
 30
0.0
 10
-0.7483267716535433
 20
1.3725433070866142
 30
0.0
 10
-0.7483267716535433
 20
1.3725433070866142
 30
0.0
 10
-0.6848543307086614
 20
1.3773740157480316
 30
0.0
 10
-0.6848543307086614
 20
1.3773740157480316
 30
0.0
 10
-0.6848543307086614
 20
1.3773740157480316
 30
0.0
 10
-0.6848543307086614
 20
1.3773740157480316
 30
0.0
 10
-1.3244645669291339
 20
1.7721141732283465
 30
0.0
 10
-1.3244645669291339
 20
1.7721141732283465
 30
0.0
 10
-1.3244645669291339
 20
1.7721141732283465
 30
0.0
 10
-1.3244645669291339
 20
1.7721141732283465
 30
0.0
 10
-1.3879370078740159
 20
1.7672834645669293
 30
0.0
 10
-1.3879370078740159
 20
1.7672834645669293
 30
0.0
  0
SPLINE
  5
6F
100
AcDbEntity
  8
Additional Graphics
 62
     9
100
AcDbSpline
210
0.0
220
0.0
230
1.0
 70
     1
 71
     3
 72
    20
 73
    16
 74
     0
 42
0.0000000001
 43
0.0000000001
 40
0.0
 40
0.0
 40
0.0
 40
0.0
 40
0.25
 40
0.25
 40
0.25
 40
0.25
 40
0.5
 40
0.5
 40
0.5
 40
0.5
 40
0.75
 40
0.75
 40
0.75
 40
0.75
 40
1.0
 40
1.0
 40
1.0
 40
1.0
 10
-1.3244645669291339
 20
1.7721141732283465
 30
0.0
 10
-1.3244645669291339
 20
1.7721141732283465
 30
0.0
 10
-0.6848543307086614
 20
1.3773740157480316
 30
0.0
 10
-0.6848543307086614
 20
1.3773740157480316
 30
0.0
 10
-0.6848543307086614
 20
1.3773740157480316
 30
0.0
 10
-0.6848543307086614
 20
1.3773740157480316
 30
0.0
 10
-0.6205433070866142
 20
1.3790039370078742
 30
0.0
 10
-0.6205433070866142
 20
1.3790039370078742
 30
0.0
 10
-0.6205433070866142
 20
1.3790039370078742
 30
0.0
 10
-0.6205433070866142
 20
1.3790039370078742
 30
0.0
 10
-1.2601535433070867
 20
1.773744094488189
 30
0.0
 10
-1.2601535433070867
 20
1.773744094488189
 30
0.0
 10
-1.2601535433070867
 20
1.773744094488189
 30
0.0
 10
-1.2601535433070867
 20
1.773744094488189
 30
0.0
 10
-1.3244645669291339
 20
1.7721141732283465
 30
0.0
 10
-1.3244645669291339
 20
1.7721141732283465
 30
0.0
  0
SPLINE
  5
70
100
AcDbEntity
  8
Additional Graphics
370
     5
100
AcDbSpline
210
0.0
220
0.0
230
1.0
 70
     1
 71
     3
 72
   268
 73
   264
 74
     0
 42
0.0000000001
 43
0.0000000001
 40
0.0
 40
0.0
 40
0.0
 40
0.0
 40
0.0151515151515152
 40
0.0151515151515152
 40
0.0151515151515152
 40
0.0151515151515152
 40
0.0303030303030303
 40
0.0303030303030303
 40
0.0303030303030303
 40
0.0303030303030303
 40
0.0454545454545455
 40
0.0454545454545455
 40
0.0454545454545455
 40
0.0454545454545455
 40
0.0606060606060606
 40
0.0606060606060606
 40
0.0606060606060606
 40
0.0606060606060606
 40
0.0757575757575758
 40
0.0757575757575758
 40
0.0757575757575758
 40
0.0757575757575758
 40
0.0909090909090909
 40
0.0909090909090909
 40
0.0909090909090909
 40
0.0909090909090909
 40
0.1060606060606061
 40
0.1060606060606061
 40
0.1060606060606061
 40
0.1060606060606061
 40
0.1212121212121212
 40
0.1212121212121212
 40
0.1212121212121212
 40
0.1212121212121212
 40
0.1363636363636364
 40
0.1363636363636364
 40
0.1363636363636364
 40
0.1363636363636364
 40
0.1515151515151515
 40
0.1515151515151515
 40
0.1515151515151515
 40
0.1515151515151515
 40
0.1666666666666666
 40
0.1666666666666666
 40
0.1666666666666666
 40
0.1666666666666666
 40
0.1818181818181818
 40
0.1818181818181818
 40
0.1818181818181818
 40
0.1818181818181818
 40
0.1969696969696969
 40
0.1969696969696969
 40
0.1969696969696969
 40
0.1969696969696969
 40
0.212121212121212
 40
0.212121212121212
 40
0.212121212121212
 40
0.212121212121212
 40
0.2272727272727272
 40
0.2272727272727272
 40
0.2272727272727272
 40
0.2272727272727272
 40
0.2424242424242423
 40
0.2424242424242423
 40
0.2424242424242423
 40
0.2424242424242423
 40
0.2575757575757575
 40
0.2575757575757575
 40
0.2575757575757575
 40
0.2575757575757575
 40
0.2727272727272726
 40
0.2727272727272726
 40
0.2727272727272726
 40
0.2727272727272726
 40
0.2878787878787877
 40
0.2878787878787877
 40
0.2878787878787877
 40
0.2878787878787877
 40
0.3030303030303029
 40
0.3030303030303029
 40
0.3030303030303029
 40
0.3030303030303029
 40
0.318181818181818
 40
0.318181818181818
 40
0.318181818181818
 40
0.318181818181818
 40
0.3333333333333332
 40
0.3333333333333332
 40
0.3333333333333332
 40
0.3333333333333332
 40
0.3484848484848483
 40
0.3484848484848483
 40
0.3484848484848483
 40
0.3484848484848483
 40
0.3636363636363634
 40
0.3636363636363634
 40
0.3636363636363634
 40
0.3636363636363634
 40
0.3787878787878786
 40
0.3787878787878786
 40
0.3787878787878786
 40
0.3787878787878786
 40
0.3939393939393937
 40
0.3939393939393937
 40
0.3939393939393937
 40
0.3939393939393937
 40
0.4090909090909088
 40
0.4090909090909088
 40
0.4090909090909088
 40
0.4090909090909088
 40
0.424242424242424
 40
0.424242424242424
 40
0.424242424242424
 40
0.424242424242424
 40
0.4393939393939391
 40
0.4393939393939391
 40
0.4393939393939391
 40
0.4393939393939391
 40
0.4545454545454543
 40
0.4545454545454543
 40
0.4545454545454543
 40
0.4545454545454543
 40
0.4696969696969694
 40
0.4696969696969694
 40
0.4696969696969694
 40
0.4696969696969694
 40
0.4848484848484845
 40
0.4848484848484845
 40
0.4848484848484845
 40
0.4848484848484845
 40
0.4999999999999997
 40
0.4999999999999997
 40
0.4999999999999997
 40
0.4999999999999997
 40
0.5151515151515148
 40
0.5151515151515148
 40
0.5151515151515148
 40
0.5151515151515148
 40
0.5303030303030299
 40
0.5303030303030299
 40
0.5303030303030299
 40
0.5303030303030299
 40
0.5454545454545451
 40
0.5454545454545451
 40
0.5454545454545451
 40
0.5454545454545451
 40
0.5606060606060602
 40
0.5606060606060602
 40
0.5606060606060602
 40
0.5606060606060602
 40
0.5757575757575754
 40
0.5757575757575754
 40
0.5757575757575754
 40
0.5757575757575754
 40
0.5909090909090905
 40
0.5909090909090905
 40
0.5909090909090905
 40
0.5909090909090905
 40
0.6060606060606056
 40
0.6060606060606056
 40
0.6060606060606056
 40
0.6060606060606056
 40
0.6212121212121208
 40
0.6212121212121208
 40
0.6212121212121208
 40
0.6212121212121208
 40
0.6363636363636359
 40
0.6363636363636359
 40
0.6363636363636359
 40
0.6363636363636359
 40
0.6515151515151511
 40
0.6515151515151511
 40
0.6515151515151511
 40
0.6515151515151511
 40
0.6666666666666662
 40
0.6666666666666662
 40
0.6666666666666662
 40
0.6666666666666662
 40
0.6818181818181813
 40
0.6818181818181813
 40
0.6818181818181813
 40
0.6818181818181813
 40
0.6969696969696965
 40
0.6969696969696965
 40
0.6969696969696965
 40
0.6969696969696965
 40
0.7121212121212116
 40
0.7121212121212116
 40
0.7121212121212116
 40
0.7121212121212116
 40
0.7272727272727267
 40
0.7272727272727267
 40
0.7272727272727267
 40
0.7272727272727267
 40
0.7424242424242419
 40
0.7424242424242419
 40
0.7424242424242419
 40
0.7424242424242419
 40
0.757575757575757
 40
0.757575757575757
 40
0.757575757575757
 40
0.757575757575757
 40
0.7727272727272722
 40
0.7727272727272722
 40
0.7727272727272722
 40
0.7727272727272722
 40
0.7878787878787873
 40
0.7878787878787873
 40
0.7878787878787873
 40
0.7878787878787873
 40
0.8030303030303024
 40
0.8030303030303024
 40
0.8030303030303024
 40
0.8030303030303024
 40
0.8181818181818176
 40
0.8181818181818176
 40
0.8181818181818176
 40
0.8181818181818176
 40
0.8333333333333327
 40
0.8333333333333327
 40
0.8333333333333327
 40
0.8333333333333327
 40
0.8484848484848478
 40
0.8484848484848478
 40
0.8484848484848478
 40
0.8484848484848478
 40
0.863636363636363
 40
0.863636363636363
 40
0.863636363636363
 40
0.863636363636363
 40
0.8787878787878781
 40
0.8787878787878781
 40
0.8787878787878781
 40
0.8787878787878781
 40
0.8939393939393933
 40
0.8939393939393933
 40
0.8939393939393933
 40
0.8939393939393933
 40
0.9090909090909084
 40
0.9090909090909084
 40
0.9090909090909084
 40
0.9090909090909084
 40
0.9242424242424235
 40
0.9242424242424235
 40
0.9242424242424235
 40
0.9242424242424235
 40
0.9393939393939387
 40
0.9393939393939387
 40
0.9393939393939387
 40
0.9393939393939387
 40
0.9545454545454538
 40
0.9545454545454538
 40
0.9545454545454538
 40
0.9545454545454538
 40
0.969696969696969
 40
0.969696969696969
 40
0.969696969696969
 40
0.969696969696969
 40
0.9848484848484841
 40
0.9848484848484841
 40
0.9848484848484841
 40
0.9848484848484841
 40
1.0
 40
1.0
 40
1.0
 40
1.0
 10
-2.5101535433070867
 20
0.523744094488189
 30
0.0
 10
-2.5101535433070867
 20
0.523744094488189
 30
0.0
 10
-1.8705433070866142
 20
0.129003937007874
 30
0.0
 10
-1.8705433070866142
 20
0.129003937007874
 30
0.0
 10
-1.8705433070866142
 20
0.129003937007874
 30
0.0
 10
-1.8705433070866142
 20
0.129003937007874
 30
0.0
 10
-1.8689133858267717
 20
0.1933149606299213
 30
0.0
 10
-1.8689133858267717
 20
0.1933149606299213
 30
0.0
 10
-1.8689133858267717
 20
0.1933149606299213
 30
0.0
 10
-1.8689133858267717
 20
0.1933149606299213
 30
0.0
 10
-1.8640826771653545
 20
0.2567874015748032
 30
0.0
 10
-1.8640826771653545
 20
0.2567874015748032
 30
0.0
 10
-1.8640826771653545
 20
0.2567874015748032
 30
0.0
 10
-1.8640826771653545
 20
0.2567874015748032
 30
0.0
 10
-1.8561299212598426
 20
0.3193346456692914
 30
0.0
 10
-1.8561299212598426
 20
0.3193346456692914
 30
0.0
 10
-1.8561299212598426
 20
0.3193346456692914
 30
0.0
 10
-1.8561299212598426
 20
0.3193346456692914
 30
0.0
 10
-1.8451377952755905
 20
0.3808858267716536
 30
0.0
 10
-1.8451377952755905
 20
0.3808858267716536
 30
0.0
 10
-1.8451377952755905
 20
0.3808858267716536
 30
0.0
 10
-1.8451377952755905
 20
0.3808858267716536
 30
0.0
 10
-1.8311732283464568
 20
0.4413503937007874
 30
0.0
 10
-1.8311732283464568
 20
0.4413503937007874
 30
0.0
 10
-1.8311732283464568
 20
0.4413503937007874
 30
0.0
 10
-1.8311732283464568
 20
0.4413503937007874
 30
0.0
 10
-1.8143267716535434
 20
0.5006653543307087
 30
0.0
 10
-1.8143267716535434
 20
0.5006653543307087
 30
0.0
 10
-1.8143267716535434
 20
0.5006653543307087
 30
0.0
 10
-1.8143267716535434
 20
0.5006653543307087
 30
0.0
 10
-1.7946732283464568
 20
0.558744094488189
 30
0.0
 10
-1.7946732283464568
 20
0.558744094488189
 30
0.0
 10
-1.7946732283464568
 20
0.558744094488189
 30
0.0
 10
-1.7946732283464568
 20
0.558744094488189
 30
0.0
 10
-1.7722913385826773
 20
0.615507874015748
 30
0.0
 10
-1.7722913385826773
 20
0.615507874015748
 30
0.0
 10
-1.7722913385826773
 20
0.615507874015748
 30
0.0
 10
-1.7722913385826773
 20
0.615507874015748
 30
0.0
 10
-1.7472519685039372
 20
0.6708740157480315
 30
0.0
 10
-1.7472519685039372
 20
0.6708740157480315
 30
0.0
 10
-1.7472519685039372
 20
0.6708740157480315
 30
0.0
 10
-1.7472519685039372
 20
0.6708740157480315
 30
0.0
 10
-1.7196456692913387
 20
0.7247716535433071
 30
0.0
 10
-1.7196456692913387
 20
0.7247716535433071
 30
0.0
 10
-1.7196456692913387
 20
0.7247716535433071
 30
0.0
 10
-1.7196456692913387
 20
0.7247716535433071
 30
0.0
 10
-1.6895433070866142
 20
0.7771141732283465
 30
0.0
 10
-1.6895433070866142
 20
0.7771141732283465
 30
0.0
 10
-1.6895433070866142
 20
0.7771141732283465
 30
0.0
 10
-1.6895433070866142
 20
0.7771141732283465
 30
0.0
 10
-1.6570275590551182
 20
0.8278346456692913
 30
0.0
 10
-1.6570275590551182
 20
0.8278346456692913
 30
0.0
 10
-1.6570275590551182
 20
0.8278346456692913
 30
0.0
 10
-1.6570275590551182
 20
0.8278346456692913
 30
0.0
 10
-1.6221732283464567
 20
0.8768425196850395
 30
0.0
 10
-1.6221732283464567
 20
0.8768425196850395
 30
0.0
 10
-1.6221732283464567
 20
0.8768425196850395
 30
0.0
 10
-1.6221732283464567
 20
0.8768425196850395
 30
0.0
 10
-1.5850629921259842
 20
0.9240669291338584
 30
0.0
 10
-1.5850629921259842
 20
0.9240669291338584
 30
0.0
 10
-1.5850629921259842
 20
0.9240669291338584
 30
0.0
 10
-1.5850629921259842
 20
0.9240669291338584
 30
0.0
 10
-1.5457677165354331
 20
0.9694212598425197
 30
0.0
 10
-1.5457677165354331
 20
0.9694212598425197
 30
0.0
 10
-1.5457677165354331
 20
0.9694212598425197
 30
0.0
 10
-1.5457677165354331
 20
0.9694212598425197
 30
0.0
 10
-1.5043818897637795
 20
1.0128425196850395
 30
0.0
 10
-1.5043818897637795
 20
1.0128425196850395
 30
0.0
 10
-1.5043818897637795
 20
1.0128425196850395
 30
0.0
 10
-1.5043818897637795
 20
1.0128425196850395
 30
0.0
 10
-1.4609606299212599
 20
1.0542283464566931
 30
0.0
 10
-1.4609606299212599
 20
1.0542283464566931
 30
0.0
 10
-1.4609606299212599
 20
1.0542283464566931
 30
0.0
 10
-1.4609606299212599
 20
1.0542283464566931
 30
0.0
 10
-1.4156062992125984
 20
1.0935236220472442
 30
0.0
 10
-1.4156062992125984
 20
1.0935236220472442
 30
0.0
 10
-1.4156062992125984
 20
1.0935236220472442
 30
0.0
 10
-1.4156062992125984
 20
1.0935236220472442
 30
0.0
 10
-1.3683818897637796
 20
1.1306338582677167
 30
0.0
 10
-1.3683818897637796
 20
1.1306338582677167
 30
0.0
 10
-1.3683818897637796
 20
1.1306338582677167
 30
0.0
 10
-1.3683818897637796
 20
1.1306338582677167
 30
0.0
 10
-1.3193740157480316
 20
1.165488188976378
 30
0.0
 10
-1.3193740157480316
 20
1.165488188976378
 30
0.0
 10
-1.3193740157480316
 20
1.165488188976378
 30
0.0
 10
-1.3193740157480316
 20
1.165488188976378
 30
0.0
 10
-1.2686535433070867
 20
1.1980039370078741
 30
0.0
 10
-1.2686535433070867
 20
1.1980039370078741
 30
0.0
 10
-1.2686535433070867
 20
1.1980039370078741
 30
0.0
 10
-1.2686535433070867
 20
1.1980039370078741
 30
0.0
 10
-1.2163110236220473
 20
1.2281062992125984
 30
0.0
 10
-1.2163110236220473
 20
1.2281062992125984
 30
0.0
 10
-1.2163110236220473
 20
1.2281062992125984
 30
0.0
 10
-1.2163110236220473
 20
1.2281062992125984
 30
0.0
 10
-1.1624133858267718
 20
1.2557125984251969
 30
0.0
 10
-1.1624133858267718
 20
1.2557125984251969
 30
0.0
 10
-1.1624133858267718
 20
1.2557125984251969
 30
0.0
 10
-1.1624133858267718
 20
1.2557125984251969
 30
0.0
 10
-1.1070472440944883
 20
1.280751968503937
 30
0.0
 10
-1.1070472440944883
 20
1.280751968503937
 30
0.0
 10
-1.1070472440944883
 20
1.280751968503937
 30
0.0
 10
-1.1070472440944883
 20
1.280751968503937
 30
0.0
 10
-1.0502834645669292
 20
1.3031338582677165
 30
0.0
 10
-1.0502834645669292
 20
1.3031338582677165
 30
0.0
 10
-1.0502834645669292
 20
1.3031338582677165
 30
0.0
 10
-1.0502834645669292
 20
1.3031338582677165
 30
0.0
 10
-0.9922047244094489
 20
1.3227874015748031
 30
0.0
 10
-0.9922047244094489
 20
1.3227874015748031
 30
0.0
 10
-0.9922047244094489
 20
1.3227874015748031
 30
0.0
 10
-0.9922047244094489
 20
1.3227874015748031
 30
0.0
 10
-0.9328897637795276
 20
1.3396338582677165
 30
0.0
 10
-0.9328897637795276
 20
1.3396338582677165
 30
0.0
 10
-0.9328897637795276
 20
1.3396338582677165
 30
0.0
 10
-0.9328897637795276
 20
1.3396338582677165
 30
0.0
 10
-0.8724251968503938
 20
1.3535984251968505
 30
0.0
 10
-0.8724251968503938
 20
1.3535984251968505
 30
0.0
 10
-0.8724251968503938
 20
1.3535984251968505
 30
0.0
 10
-0.8724251968503938
 20
1.3535984251968505
 30
0.0
 10
-0.8108740157480315
 20
1.3645905511811025
 30
0.0
 10
-0.8108740157480315
 20
1.3645905511811025
 30
0.0
 10
-0.8108740157480315
 20
1.3645905511811025
 30
0.0
 10
-0.8108740157480315
 20
1.3645905511811025
 30
0.0
 10
-0.7483267716535433
 20
1.3725433070866142
 30
0.0
 10
-0.7483267716535433
 20
1.3725433070866142
 30
0.0
 10
-0.7483267716535433
 20
1.3725433070866142
 30
0.0
 10
-0.7483267716535433
 20
1.3725433070866142
 30
0.0
 10
-0.6848543307086614
 20
1.3773740157480316
 30
0.0
 10
-0.6848543307086614
 20
1.3773740157480316
 30
0.0
 10
-0.6848543307086614
 20
1.3773740157480316
 30
0.0
 10
-0.6848543307086614
 20
1.3773740157480316
 30
0.0
 10
-0.6205433070866142
 20
1.3790039370078742
 30
0.0
 10
-0.6205433070866142
 20
1.3790039370078742
 30
0.0
 10
-0.6205433070866142
 20
1.3790039370078742
 30
0.0
 10
-0.6205433070866142
 20
1.3790039370078742
 30
0.0
 10
-1.2601535433070867
 20
1.773744094488189
 30
0.0
 10
-1.2601535433070867
 20
1.773744094488189
 30
0.0
 10
-1.2601535433070867
 20
1.773744094488189
 30
0.0
 10
-1.2601535433070867
 20
1.773744094488189
 30
0.0
 10
-1.3244645669291339
 20
1.7721141732283465
 30
0.0
 10
-1.3244645669291339
 20
1.7721141732283465
 30
0.0
 10
-1.3244645669291339
 20
1.7721141732283465
 30
0.0
 10
-1.3244645669291339
 20
1.7721141732283465
 30
0.0
 10
-1.3879370078740159
 20
1.7672834645669293
 30
0.0
 10
-1.3879370078740159
 20
1.7672834645669293
 30
0.0
 10
-1.3879370078740159
 20
1.7672834645669293
 30
0.0
 10
-1.3879370078740159
 20
1.7672834645669293
 30
0.0
 10
-1.4504842519685039
 20
1.7593307086614174
 30
0.0
 10
-1.4504842519685039
 20
1.7593307086614174
 30
0.0
 10
-1.4504842519685039
 20
1.7593307086614174
 30
0.0
 10
-1.4504842519685039
 20
1.7593307086614174
 30
0.0
 10
-1.5120354330708663
 20
1.7483385826771654
 30
0.0
 10
-1.5120354330708663
 20
1.7483385826771654
 30
0.0
 10
-1.5120354330708663
 20
1.7483385826771654
 30
0.0
 10
-1.5120354330708663
 20
1.7483385826771654
 30
0.0
 10
-1.5725
 20
1.7343740157480316
 30
0.0
 10
-1.5725
 20
1.7343740157480316
 30
0.0
 10
-1.5725
 20
1.7343740157480316
 30
0.0
 10
-1.5725
 20
1.7343740157480316
 30
0.0
 10
-1.6318149606299213
 20
1.7175275590551182
 30
0.0
 10
-1.6318149606299213
 20
1.7175275590551182
 30
0.0
 10
-1.6318149606299213
 20
1.7175275590551182
 30
0.0
 10
-1.6318149606299213
 20
1.7175275590551182
 30
0.0
 10
-1.6898937007874015
 20
1.6978740157480317
 30
0.0
 10
-1.6898937007874015
 20
1.6978740157480317
 30
0.0
 10
-1.6898937007874015
 20
1.6978740157480317
 30
0.0
 10
-1.6898937007874015
 20
1.6978740157480317
 30
0.0
 10
-1.7466574803149606
 20
1.6754921259842521
 30
0.0
 10
-1.7466574803149606
 20
1.6754921259842521
 30
0.0
 10
-1.7466574803149606
 20
1.6754921259842521
 30
0.0
 10
-1.7466574803149606
 20
1.6754921259842521
 30
0.0
 10
-1.8020236220472441
 20
1.6504527559055118
 30
0.0
 10
-1.8020236220472441
 20
1.6504527559055118
 30
0.0
 10
-1.8020236220472441
 20
1.6504527559055118
 30
0.0
 10
-1.8020236220472441
 20
1.6504527559055118
 30
0.0
 10
-1.8559212598425197
 20
1.6228464566929135
 30
0.0
 10
-1.8559212598425197
 20
1.6228464566929135
 30
0.0
 10
-1.8559212598425197
 20
1.6228464566929135
 30
0.0
 10
-1.8559212598425197
 20
1.6228464566929135
 30
0.0
 10
-1.9082637795275592
 20
1.592744094488189
 30
0.0
 10
-1.9082637795275592
 20
1.592744094488189
 30
0.0
 10
-1.9082637795275592
 20
1.592744094488189
 30
0.0
 10
-1.9082637795275592
 20
1.592744094488189
 30
0.0
 10
-1.9589842519685041
 20
1.5602283464566931
 30
0.0
 10
-1.9589842519685041
 20
1.5602283464566931
 30
0.0
 10
-1.9589842519685041
 20
1.5602283464566931
 30
0.0
 10
-1.9589842519685041
 20
1.5602283464566931
 30
0.0
 10
-2.0079921259842521
 20
1.5253740157480316
 30
0.0
 10
-2.0079921259842521
 20
1.5253740157480316
 30
0.0
 10
-2.0079921259842521
 20
1.5253740157480316
 30
0.0
 10
-2.0079921259842521
 20
1.5253740157480316
 30
0.0
 10
-2.0552165354330709
 20
1.4882637795275591
 30
0.0
 10
-2.0552165354330709
 20
1.4882637795275591
 30
0.0
 10
-2.0552165354330709
 20
1.4882637795275591
 30
0.0
 10
-2.0552165354330709
 20
1.4882637795275591
 30
0.0
 10
-2.1005708661417324
 20
1.4489685039370079
 30
0.0
 10
-2.1005708661417324
 20
1.4489685039370079
 30
0.0
 10
-2.1005708661417324
 20
1.4489685039370079
 30
0.0
 10
-2.1005708661417324
 20
1.4489685039370079
 30
0.0
 10
-2.1439921259842523
 20
1.4075826771653543
 30
0.0
 10
-2.1439921259842523
 20
1.4075826771653543
 30
0.0
 10
-2.1439921259842523
 20
1.4075826771653543
 30
0.0
 10
-2.1439921259842523
 20
1.4075826771653543
 30
0.0
 10
-2.1853779527559056
 20
1.3641614173228347
 30
0.0
 10
-2.1853779527559056
 20
1.3641614173228347
 30
0.0
 10
-2.1853779527559056
 20
1.3641614173228347
 30
0.0
 10
-2.1853779527559056
 20
1.3641614173228347
 30
0.0
 10
-2.224673228346457
 20
1.3188070866141732
 30
0.0
 10
-2.224673228346457
 20
1.3188070866141732
 30
0.0
 10
-2.224673228346457
 20
1.3188070866141732
 30
0.0
 10
-2.224673228346457
 20
1.3188070866141732
 30
0.0
 10
-2.2617834645669292
 20
1.2715826771653544
 30
0.0
 10
-2.2617834645669292
 20
1.2715826771653544
 30
0.0
 10
-2.2617834645669292
 20
1.2715826771653544
 30
0.0
 10
-2.2617834645669292
 20
1.2715826771653544
 30
0.0
 10
-2.2966377952755908
 20
1.2225748031496064
 30
0.0
 10
-2.2966377952755908
 20
1.2225748031496064
 30
0.0
 10
-2.2966377952755908
 20
1.2225748031496064
 30
0.0
 10
-2.2966377952755908
 20
1.2225748031496064
 30
0.0
 10
-2.3291535433070867
 20
1.1718543307086615
 30
0.0
 10
-2.3291535433070867
 20
1.1718543307086615
 30
0.0
 10
-2.3291535433070867
 20
1.1718543307086615
 30
0.0
 10
-2.3291535433070867
 20
1.1718543307086615
 30
0.0
 10
-2.359255905511811
 20
1.1195118110236222
 30
0.0
 10
-2.359255905511811
 20
1.1195118110236222
 30
0.0
 10
-2.359255905511811
 20
1.1195118110236222
 30
0.0
 10
-2.359255905511811
 20
1.1195118110236222
 30
0.0
 10
-2.3868622047244097
 20
1.0656141732283464
 30
0.0
 10
-2.3868622047244097
 20
1.0656141732283464
 30
0.0
 10
-2.3868622047244097
 20
1.0656141732283464
 30
0.0
 10
-2.3868622047244097
 20
1.0656141732283464
 30
0.0
 10
-2.4119015748031498
 20
1.0102480314960631
 30
0.0
 10
-2.4119015748031498
 20
1.0102480314960631
 30
0.0
 10
-2.4119015748031498
 20
1.0102480314960631
 30
0.0
 10
-2.4119015748031498
 20
1.0102480314960631
 30
0.0
 10
-2.4342834645669291
 20
0.953484251968504
 30
0.0
 10
-2.4342834645669291
 20
0.953484251968504
 30
0.0
 10
-2.4342834645669291
 20
0.953484251968504
 30
0.0
 10
-2.4342834645669291
 20
0.953484251968504
 30
0.0
 10
-2.4539370078740159
 20
0.8954055118110237
 30
0.0
 10
-2.4539370078740159
 20
0.8954055118110237
 30
0.0
 10
-2.4539370078740159
 20
0.8954055118110237
 30
0.0
 10
-2.4539370078740159
 20
0.8954055118110237
 30
0.0
 10
-2.4707834645669293
 20
0.8360905511811024
 30
0.0
 10
-2.4707834645669293
 20
0.8360905511811024
 30
0.0
 10
-2.4707834645669293
 20
0.8360905511811024
 30
0.0
 10
-2.4707834645669293
 20
0.8360905511811024
 30
0.0
 10
-2.4847480314960633
 20
0.7756259842519685
 30
0.0
 10
-2.4847480314960633
 20
0.7756259842519685
 30
0.0
 10
-2.4847480314960633
 20
0.7756259842519685
 30
0.0
 10
-2.4847480314960633
 20
0.7756259842519685
 30
0.0
 10
-2.4957401574803151
 20
0.7140748031496064
 30
0.0
 10
-2.4957401574803151
 20
0.7140748031496064
 30
0.0
 10
-2.4957401574803151
 20
0.7140748031496064
 30
0.0
 10
-2.4957401574803151
 20
0.7140748031496064
 30
0.0
 10
-2.503692913385827
 20
0.6515275590551182
 30
0.0
 10
-2.503692913385827
 20
0.6515275590551182
 30
0.0
 10
-2.503692913385827
 20
0.6515275590551182
 30
0.0
 10
-2.503692913385827
 20
0.6515275590551182
 30
0.0
 10
-2.5085236220472442
 20
0.5880551181102363
 30
0.0
 10
-2.5085236220472442
 20
0.5880551181102363
 30
0.0
 10
-2.5085236220472442
 20
0.5880551181102363
 30
0.0
 10
-2.5085236220472442
 20
0.5880551181102363
 30
0.0
 10
-2.5101535433070867
 20
0.523744094488189
 30
0.0
 10
-2.5101535433070867
 20
0.523744094488189
 30
0.0
  0
SPLINE
  5
71
100
AcDbEntity
  8
Additional Graphics
 62
     9
100
AcDbSpline
210
0.0
220
0.0
230
1.0
 70
     1
 71
     3
 72
    20
 73
    16
 74
     0
 42
0.0000000001
 43
0.0000000001
 40
0.0
 40
0.0
 40
0.0
 40
0.0
 40
0.25
 40
0.25
 40
0.25
 40
0.25
 40
0.5
 40
0.5
 40
0.5
 40
0.5
 40
0.75
 40
0.75
 40
0.75
 40
0.75
 40
1.0
 40
1.0
 40
1.0
 40
1.0
 10
-1.2601535433070867
 20
1.773744094488189
 30
0.0
 10
-1.2601535433070867
 20
1.773744094488189
 30
0.0
 10
-0.6205433070866142
 20
1.3790039370078742
 30
0.0
 10
-0.6205433070866142
 20
1.3790039370078742
 30
0.0
 10
-0.6205433070866142
 20
1.3790039370078742
 30
0.0
 10
-0.6205433070866142
 20
1.3790039370078742
 30
0.0
 10
-0.6205433070866142
 20
2.3790039370078739
 30
0.0
 10
-0.6205433070866142
 20
2.3790039370078739
 30
0.0
 10
-0.6205433070866142
 20
2.3790039370078739
 30
0.0
 10
-0.6205433070866142
 20
2.3790039370078739
 30
0.0
 10
-1.2601535433070867
 20
2.773744094488189
 30
0.0
 10
-1.2601535433070867
 20
2.773744094488189
 30
0.0
 10
-1.2601535433070867
 20
2.773744094488189
 30
0.0
 10
-1.2601535433070867
 20
2.773744094488189
 30
0.0
 10
-1.2601535433070867
 20
1.773744094488189
 30
0.0
 10
-1.2601535433070867
 20
1.773744094488189
 30
0.0
  0
SPLINE
  5
72
100
AcDbEntity
  8
Additional Graphics
370
     5
100
AcDbSpline
210
0.0
220
0.0
230
1.0
 70
     1
 71
     3
 72
    20
 73
    16
 74
     0
 42
0.0000000001
 43
0.0000000001
 40
0.0
 40
0.0
 40
0.0
 40
0.0
 40
0.25
 40
0.25
 40
0.25
 40
0.25
 40
0.5
 40
0.5
 40
0.5
 40
0.5
 40
0.75
 40
0.75
 40
0.75
 40
0.75
 40
1.0
 40
1.0
 40
1.0
 40
1.0
 10
-1.2601535433070867
 20
1.773744094488189
 30
0.0
 10
-1.2601535433070867
 20
1.773744094488189
 30
0.0
 10
-0.6205433070866142
 20
1.3790039370078742
 30
0.0
 10
-0.6205433070866142
 20
1.3790039370078742
 30
0.0
 10
-0.6205433070866142
 20
1.3790039370078742
 30
0.0
 10
-0.6205433070866142
 20
1.3790039370078742
 30
0.0
 10
-0.6205433070866142
 20
2.3790039370078739
 30
0.0
 10
-0.6205433070866142
 20
2.3790039370078739
 30
0.0
 10
-0.6205433070866142
 20
2.3790039370078739
 30
0.0
 10
-0.6205433070866142
 20
2.3790039370078739
 30
0.0
 10
-1.2601535433070867
 20
2.773744094488189
 30
0.0
 10
-1.2601535433070867
 20
2.773744094488189
 30
0.0
 10
-1.2601535433070867
 20
2.773744094488189
 30
0.0
 10
-1.2601535433070867
 20
2.773744094488189
 30
0.0
 10
-1.2601535433070867
 20
1.773744094488189
 30
0.0
 10
-1.2601535433070867
 20
1.773744094488189
 30
0.0
  0
SPLINE
  5
73
100
AcDbEntity
  8
Additional Graphics
 62
     9
100
AcDbSpline
210
0.0
220
0.0
230
1.0
 70
     1
 71
     3
 72
    20
 73
    16
 74
     0
 42
0.0000000001
 43
0.0000000001
 40
0.0
 40
0.0
 40
0.0
 40
0.0
 40
0.25
 40
0.25
 40
0.25
 40
0.25
 40
0.5
 40
0.5
 40
0.5
 40
0.5
 40
0.75
 40
0.75
 40
0.75
 40
0.75
 40
1.0
 40
1.0
 40
1.0
 40
1.0
 10
-3.5101535433070867
 20
-4.726251968503937
 30
0.0
 10
-3.5101535433070867
 20
-4.726251968503937
 30
0.0
 10
-2.8705433070866144
 20
-5.1209921259842526
 30
0.0
 10
-2.8705433070866144
 20
-5.1209921259842526
 30
0.0
 10
-2.8705433070866144
 20
-5.1209921259842526
 30
0.0
 10
-2.8705433070866144
 20
-5.1209921259842526
 30
0.0
 10
-1.8705433070866142
 20
-5.1209921259842526
 30
0.0
 10
-1.8705433070866142
 20
-5.1209921259842526
 30
0.0
 10
-1.8705433070866142
 20
-5.1209921259842526
 30
0.0
 10
-1.8705433070866142
 20
-5.1209921259842526
 30
0.0
 10
-2.5101535433070867
 20
-4.726251968503937
 30
0.0
 10
-2.5101535433070867
 20
-4.726251968503937
 30
0.0
 10
-2.5101535433070867
 20
-4.726251968503937
 30
0.0
 10
-2.5101535433070867
 20
-4.726251968503937
 30
0.0
 10
-3.5101535433070867
 20
-4.726251968503937
 30
0.0
 10
-3.5101535433070867
 20
-4.726251968503937
 30
0.0
  0
SPLINE
  5
74
100
AcDbEntity
  8
Additional Graphics
370
     5
100
AcDbSpline
210
0.0
220
0.0
230
1.0
 70
     1
 71
     3
 72
    20
 73
    16
 74
     0
 42
0.0000000001
 43
0.0000000001
 40
0.0
 40
0.0
 40
0.0
 40
0.0
 40
0.25
 40
0.25
 40
0.25
 40
0.25
 40
0.5
 40
0.5
 40
0.5
 40
0.5
 40
0.75
 40
0.75
 40
0.75
 40
0.75
 40
1.0
 40
1.0
 40
1.0
 40
1.0
 10
-3.5101535433070867
 20
-4.726251968503937
 30
0.0
 10
-3.5101535433070867
 20
-4.726251968503937
 30
0.0
 10
-2.8705433070866144
 20
-5.1209921259842526
 30
0.0
 10
-2.8705433070866144
 20
-5.1209921259842526
 30
0.0
 10
-2.8705433070866144
 20
-5.1209921259842526
 30
0.0
 10
-2.8705433070866144
 20
-5.1209921259842526
 30
0.0
 10
-1.8705433070866142
 20
-5.1209921259842526
 30
0.0
 10
-1.8705433070866142
 20
-5.1209921259842526
 30
0.0
 10
-1.8705433070866142
 20
-5.1209921259842526
 30
0.0
 10
-1.8705433070866142
 20
-5.1209921259842526
 30
0.0
 10
-2.5101535433070867
 20
-4.726251968503937
 30
0.0
 10
-2.5101535433070867
 20
-4.726251968503937
 30
0.0
 10
-2.5101535433070867
 20
-4.726251968503937
 30
0.0
 10
-2.5101535433070867
 20
-4.726251968503937
 30
0.0
 10
-3.5101535433070867
 20
-4.726251968503937
 30
0.0
 10
-3.5101535433070867
 20
-4.726251968503937
 30
0.0
  0
SPLINE
  5
75
100
AcDbEntity
  8
Additional Graphics
 62
     9
100
AcDbSpline
210
0.0
220
0.0
230
1.0
 70
     1
 71
     3
 72
    20
 73
    16
 74
     0
 42
0.0000000001
 43
0.0000000001
 40
0.0
 40
0.0
 40
0.0
 40
0.0
 40
0.25
 40
0.25
 40
0.25
 40
0.25
 40
0.5
 40
0.5
 40
0.5
 40
0.5
 40
0.75
 40
0.75
 40
0.75
 40
0.75
 40
1.0
 40
1.0
 40
1.0
 40
1.0
 10
-2.5101535433070867
 20
-4.726251968503937
 30
0.0
 10
-2.5101535433070867
 20
-4.726251968503937
 30
0.0
 10
-1.8705433070866142
 20
-5.1209921259842526
 30
0.0
 10
-1.8705433070866142
 20
-5.1209921259842526
 30
0.0
 10
-1.8705433070866142
 20
-5.1209921259842526
 30
0.0
 10
-1.8705433070866142
 20
-5.1209921259842526
 30
0.0
 10
-1.8705433070866142
 20
0.129003937007874
 30
0.0
 10
-1.8705433070866142
 20
0.129003937007874
 30
0.0
 10
-1.8705433070866142
 20
0.129003937007874
 30
0.0
 10
-1.8705433070866142
 20
0.129003937007874
 30
0.0
 10
-2.5101535433070867
 20
0.523744094488189
 30
0.0
 10
-2.5101535433070867
 20
0.523744094488189
 30
0.0
 10
-2.5101535433070867
 20
0.523744094488189
 30
0.0
 10
-2.5101535433070867
 20
0.523744094488189
 30
0.0
 10
-2.5101535433070867
 20
-4.726251968503937
 30
0.0
 10
-2.5101535433070867
 20
-4.726251968503937
 30
0.0
  0
SPLINE
  5
76
100
AcDbEntity
  8
Additional Graphics
370
     5
100
AcDbSpline
210
0.0
220
0.0
230
1.0
 70
     1
 71
     3
 72
    20
 73
    16
 74
     0
 42
0.0000000001
 43
0.0000000001
 40
0.0
 40
0.0
 40
0.0
 40
0.0
 40
0.25
 40
0.25
 40
0.25
 40
0.25
 40
0.5
 40
0.5
 40
0.5
 40
0.5
 40
0.75
 40
0.75
 40
0.75
 40
0.75
 40
1.0
 40
1.0
 40
1.0
 40
1.0
 10
-2.5101535433070867
 20
-4.726251968503937
 30
0.0
 10
-2.5101535433070867
 20
-4.726251968503937
 30
0.0
 10
-1.8705433070866142
 20
-5.1209921259842526
 30
0.0
 10
-1.8705433070866142
 20
-5.1209921259842526
 30
0.0
 10
-1.8705433070866142
 20
-5.1209921259842526
 30
0.0
 10
-1.8705433070866142
 20
-5.1209921259842526
 30
0.0
 10
-1.8705433070866142
 20
0.129003937007874
 30
0.0
 10
-1.8705433070866142
 20
0.129003937007874
 30
0.0
 10
-1.8705433070866142
 20
0.129003937007874
 30
0.0
 10
-1.8705433070866142
 20
0.129003937007874
 30
0.0
 10
-2.5101535433070867
 20
0.523744094488189
 30
0.0
 10
-2.5101535433070867
 20
0.523744094488189
 30
0.0
 10
-2.5101535433070867
 20
0.523744094488189
 30
0.0
 10
-2.5101535433070867
 20
0.523744094488189
 30
0.0
 10
-2.5101535433070867
 20
-4.726251968503937
 30
0.0
 10
-2.5101535433070867
 20
-4.726251968503937
 30
0.0
  0
SPLINE
  5
77
100
AcDbEntity
  8
Additional Graphics
370
     5
 62
     7
100
AcDbSpline
210
0.0
220
0.0
230
1.0
 70
     1
 71
     3
 72
    28
 73
    24
 74
     0
 42
0.0000000001
 43
0.0000000001
 40
0.0
 40
0.0
 40
0.0
 40
0.0
 40
0.1666666666666667
 40
0.1666666666666667
 40
0.1666666666666667
 40
0.1666666666666667
 40
0.3333333333333333
 40
0.3333333333333333
 40
0.3333333333333333
 40
0.3333333333333333
 40
0.5
 40
0.5
 40
0.5
 40
0.5
 40
0.6666666666666666
 40
0.6666666666666666
 40
0.6666666666666666
 40
0.6666666666666666
 40
0.8333333333333333
 40
0.8333333333333333
 40
0.8333333333333333
 40
0.8333333333333333
 40
1.0
 40
1.0
 40
1.0
 40
1.0
 10
-2.5101535433070867
 20
0.523744094488189
 30
0.0
 10
-2.5101535433070867
 20
1.213984251968504
 30
0.0
 10
-1.9503937007874017
 20
1.773744094488189
 30
0.0
 10
-1.2601535433070867
 20
1.773744094488189
 30
0.0
 10
-1.2601535433070867
 20
1.773744094488189
 30
0.0
 10
-1.2601535433070867
 20
1.773744094488189
 30
0.0
 10
-1.2601535433070867
 20
2.773744094488189
 30
0.0
 10
-1.2601535433070867
 20
2.773744094488189
 30
0.0
 10
-1.2601535433070867
 20
2.773744094488189
 30
0.0
 10
-1.2601535433070867
 20
2.773744094488189
 30
0.0
 10
-3.5101535433070867
 20
2.773744094488189
 30
0.0
 10
-3.5101535433070867
 20
2.773744094488189
 30
0.0
 10
-3.5101535433070867
 20
2.773744094488189
 30
0.0
 10
-3.5101535433070867
 20
2.773744094488189
 30
0.0
 10
-3.5101535433070867
 20
-4.726251968503937
 30
0.0
 10
-3.5101535433070867
 20
-4.726251968503937
 30
0.0
 10
-3.5101535433070867
 20
-4.726251968503937
 30
0.0
 10
-3.5101535433070867
 20
-4.726251968503937
 30
0.0
 10
-2.5101535433070867
 20
-4.726251968503937
 30
0.0
 10
-2.5101535433070867
 20
-4.726251968503937
 30
0.0
 10
-2.5101535433070867
 20
-4.726251968503937
 30
0.0
 10
-2.5101535433070867
 20
-4.726251968503937
 30
0.0
 10
-2.5101535433070867
 20
0.523744094488189
 30
0.0
 10
-2.5101535433070867
 20
0.523744094488189
 30
0.0
  0
TEXT
  5
78
100
AcDbEntity
  8
Additional Graphics
100
AcDbText
 10
-1.273335
 20
-4.897181
 30
0.0
 40
0.119999
  1
BA  1525
 51
-0.000002
  7
Bookman Old Style
100
AcDbText
  0
TEXT
  5
79
100
AcDbEntity
  8
Additional Graphics
100
AcDbText
 10
-1.538346
 20
-5.084681
 30
0.0
 40
0.119999
  1
2-1/4\u+201d x 7-1/2\u+201d
 51
-0.000002
  7
Bookman Old Style
100
AcDbText
  0
ENDSEC
  0
SECTION
  2
OBJECTS
  0
DICTIONARY
  5
19
100
AcDbDictionary
280
     0
281
     1
  3
ACAD_GROUP
350
1A
  3
ACAD_MLINESTYLE
350
1B
  3
ACAD_LAYOUT
350
1E
  3
ACAD_PLOTSETTINGS
350
22
  3
ACAD_PLOTSTYLENAME
350
1F
  3
ACAD_WIPEOUT_VARS
350
23
  0
DICTIONARY
  5
1A
102
{ACAD_REACTORS
330
19
102
}
100
AcDbDictionary
280
     0
281
     1
  0
DICTIONARY
  5
1B
102
{ACAD_REACTORS
330
19
102
}
100
AcDbDictionary
280
     0
281
     1
  3
Standard
350
1C
  0
MLINESTYLE
  5
1C
102
{ACAD_REACTORS
330
1B
102
}
100
AcDbMlineStyle
  2
Standard
 70
     0
  3

 62
     0
 51
90.0
 52
90.0
 71
     2
 49
0.5
 62
   256
  6
BYLAYER
 49
-0.5
 62
   256
  6
BYLAYER
  0
ACDBDICTIONARYWDFLT
  5
1F
102
{ACAD_REACTORS
330
19
102
}
100
AcDbDictionary
281
     1
  3
Normal
350
1D
100
AcDbDictionaryWithDefault
340
1D
  0
ACDBPLACEHOLDER
  5
1D
102
{ACAD_REACTORS
330
1F
102
}
  0
LAYOUT
  5
20
102
{ACAD_REACTORS
330
1E
102
}
100
AcDbPlotSettings
  1

  2

  4

  6

 40
0.0
 41
0.0
 42
0.0
 43
0.0
 44
0.0
 45
0.0
 46
0.0
 47
0.0
 48
0.0
 49
0.0
140
0.0
141
0.0
142
1.0
143
1.0
 70
  1024
 72
     0
 73
     0
 74
     0
  7

 75
     0
147
1.0
148
0.0
149
0.0
100
AcDbLayout
  1
Model
 70
     0
 71
     0
 10
0.0
 20
0.0
 11
0.0
 21
0.0
 12
0.0
 22
0.0
 32
0.0
 14
0.0
 24
0.0
 34
0.0
 15
0.0
 25
0.0
 35
0.0
146
0.0
 13
0.0
 23
0.0
 33
0.0
 16
0.0
 26
0.0
 36
0.0
 17
0.0
 27
0.0
 37
0.0
 76
     0
330
A
331
0
345
0
346
0
  0
LAYOUT
  5
21
102
{ACAD_REACTORS
330
1E
102
}
100
AcDbPlotSettings
  1

  2

  4

  6

 40
0.0
 41
0.0
 42
0.0
 43
0.0
 44
0.0
 45
0.0
 46
0.0
 47
0.0
 48
0.0
 49
0.0
140
0.0
141
0.0
142
1.0
143
1.0
 70
     0
 72
     0
 73
     0
 74
     0
  7

 75
     0
147
1.0
148
0.0
149
0.0
100
AcDbLayout
  1
Layout1
 70
     0
 71
     0
 10
0.0
 20
0.0
 11
0.0
 21
0.0
 12
0.0
 22
0.0
 32
0.0
 14
0.0
 24
0.0
 34
0.0
 15
0.0
 25
0.0
 35
0.0
146
0.0
 13
0.0
 23
0.0
 33
0.0
 16
0.0
 26
0.0
 36
0.0
 17
0.0
 27
0.0
 37
0.0
 76
     0
330
B
331
0
345
0
346
0
  0
DICTIONARY
  5
1E
102
{ACAD_REACTORS
330
19
102
}
100
AcDbDictionary
280
     0
281
     1
  3
Layout1
350
21
  3
Model
350
20
  0
DICTIONARY
  5
22
102
{ACAD_REACTORS
330
19
102
}
100
AcDbDictionary
280
     0
281
     1
  0
WIPEOUTVARIABLES
  5
23
100
AcDbWipeoutVariables
 70
     1
  0
ENDSEC
  0
EOF
