  0
SECTION
  2
HEADER
  9
$ACADVER
  1
AC1015
  9
$ACADMAINTVER
 70
     6
  9
$DWGCODEPAGE
  3
DOS850
  9
$INSBASE
 10
0.0
 20
0.0
 30
0.0
  9
$EXTMIN
 10
-3.31713
 20
-3.479913
 30
1.000000E+20
  9
$EXTMAX
 10
3.456547
 20
4.301291
 30
-1.000000E+20
  9
$LIMMIN
 10
0.0
 20
0.0
  9
$LIMMAX
 10
0.0
 20
0.0
  9
$ORTHOMODE
 70
     0
  9
$REGENMODE
 70
     1
  9
$FILLMODE
 70
     1
  9
$QTEXTMODE
 70
     0
  9
$MIRRTEXT
 70
     1
  9
$LTSCALE
 40
1.0
  9
$ATTMODE
 70
     1
  9
$TEXTSIZE
 40
0.2
  9
$TRACEWID
 40
0.05
  9
$TEXTSTYLE
  7
Standard
  9
$CLAYER
  8
0
  9
$CELTYPE
  6
Continuous
  9
$CECOLOR
 62
   256
  9
$CELTSCALE
 40
1.0
  9
$DISPSILH
 70
     0
  9
$DIMSCALE
 40
1.0
  9
$DIMASZ
 40
0.18
  9
$DIMEXO
 40
0.0625
  9
$DIMDLI
 40
0.38
  9
$DIMRND
 40
0.0
  9
$DIMDLE
 40
0.0
  9
$DIMEXE
 40
0.18
  9
$DIMTP
 40
0.0
  9
$DIMTM
 40
0.0
  9
$DIMTXT
 40
0.18
  9
$DIMCEN
 40
0.09
  9
$DIMTSZ
 40
0.0
  9
$DIMTOL
 70
     0
  9
$DIMLIM
 70
     0
  9
$DIMTIH
 70
     1
  9
$DIMTOH
 70
     1
  9
$DIMSE1
 70
     0
  9
$DIMSE2
 70
     0
  9
$DIMTAD
 70
     0
  9
$DIMZIN
 70
     0
  9
$DIMBLK
  1

  9
$DIMASO
 70
     1
  9
$DIMSHO
 70
     1
  9
$DIMPOST
  1

  9
$DIMAPOST
  1

  9
$DIMALT
 70
     0
  9
$DIMALTD
 70
     2
  9
$DIMALTF
 40
25.4
  9
$DIMLFAC
 40
1.0
  9
$DIMTOFL
 70
     0
  9
$DIMTVP
 40
0.0
  9
$DIMTIX
 70
     0
  9
$DIMSOXD
 70
     0
  9
$DIMSAH
 70
     0
  9
$DIMBLK1
  1

  9
$DIMBLK2
  1

  9
$DIMSTYLE
  2
Standard
  9
$DIMCLRD
 70
     0
  9
$DIMCLRE
 70
     0
  9
$DIMCLRT
 70
     0
  9
$DIMTFAC
 40
1.0
  9
$DIMGAP
 40
0.09
  9
$DIMJUST
 70
     0
  9
$DIMSD1
 70
     0
  9
$DIMSD2
 70
     0
  9
$DIMTOLJ
 70
     1
  9
$DIMTZIN
 70
     0
  9
$DIMALTZ
 70
     0
  9
$DIMALTTZ
 70
     0
  9
$DIMUPT
 70
     0
  9
$DIMDEC
 70
     4
  9
$DIMTDEC
 70
     4
  9
$DIMALTU
 70
     2
  9
$DIMALTTD
 70
     2
  9
$DIMTXSTY
  7
Standard
  9
$DIMAUNIT
 70
     0
  9
$DIMADEC
 70
     0
  9
$DIMALTRND
 40
0.0
  9
$DIMAZIN
 70
     0
  9
$DIMDSEP
 70
     0
  9
$DIMATFIT
 70
     3
  9
$DIMFRAC
 70
     0
  9
$DIMLDRBLK
  1

  9
$DIMLUNIT
 70
     2
  9
$DIMLWD
 70
     0
  9
$DIMLWE
 70
     0
  9
$DIMTMOVE
 70
     0
  9
$LUNITS
 70
     2
  9
$LUPREC
 70
     4
  9
$SKETCHINC
 40
0.1
  9
$FILLETRAD
 40
0.0
  9
$AUNITS
 70
     0
  9
$AUPREC
 70
     0
  9
$MENU
  1
acad
  9
$ELEVATION
 40
0.0
  9
$PELEVATION
 40
0.0
  9
$THICKNESS
 40
0.0
  9
$LIMCHECK
 70
     0
  9
$CHAMFERA
 40
0.0
  9
$CHAMFERB
 40
0.0
  9
$CHAMFERC
 40
0.0
  9
$CHAMFERD
 40
0.0
  9
$SKPOLY
 70
     0
  9
$TDCREATE
 40
0.000000000
  9
$TDUCREATE
 40
0.000000000
  9
$TDUPDATE
 40
0.000000000
  9
$TDUUPDATE
 40
0.000000000
  9
$TDINDWG
 40
0.0000000000
  9
$TDUSRTIMER
 40
0.0000000000
  9
$USRTIMER
 70
     1
  9
$ANGBASE
 50
0.0
  9
$ANGDIR
 70
     0
  9
$PDMODE
 70
     0
  9
$PDSIZE
 40
0.0
  9
$PLINEWID
 40
0.0
  9
$SPLFRAME
 70
     0
  9
$SPLINETYPE
 70
     6
  9
$SPLINESEGS
 70
     8
  9
$HANDSEED
  5
96
  9
$SURFTAB1
 70
     6
  9
$SURFTAB2
 70
     6
  9
$SURFTYPE
 70
     6
  9
$SURFU
 70
     6
  9
$SURFV
 70
     6
  9
$UCSBASE
  2

  9
$UCSNAME
  2

  9
$UCSORG
 10
0.0
 20
0.0
 30
0.0
  9
$UCSXDIR
 10
1.0
 20
0.0
 30
0.0
  9
$UCSYDIR
 10
0.0
 20
1.0
 30
0.0
  9
$UCSORTHOREF
  2

  9
$UCSORTHOVIEW
 70
     0
  9
$UCSORGTOP
 10
0.0
 20
0.0
 30
0.0
  9
$UCSORGBOTTOM
 10
0.0
 20
0.0
 30
0.0
  9
$UCSORGLEFT
 10
0.0
 20
0.0
 30
0.0
  9
$UCSORGRIGHT
 10
0.0
 20
0.0
 30
0.0
  9
$UCSORGFRONT
 10
0.0
 20
0.0
 30
0.0
  9
$UCSORGBACK
 10
0.0
 20
0.0
 30
0.0
  9
$PUCSBASE
  2

  9
$PUCSNAME
  2

  9
$PUCSORG
 10
0.0
 20
0.0
 30
0.0
  9
$PUCSXDIR
 10
1.0
 20
0.0
 30
0.0
  9
$PUCSYDIR
 10
0.0
 20
1.0
 30
0.0
  9
$PUCSORTHOREF
  2

  9
$PUCSORTHOVIEW
 70
     0
  9
$PUCSORGTOP
 10
0.0
 20
0.0
 30
0.0
  9
$PUCSORGBOTTOM
 10
0.0
 20
0.0
 30
0.0
  9
$PUCSORGLEFT
 10
0.0
 20
0.0
 30
0.0
  9
$PUCSORGRIGHT
 10
0.0
 20
0.0
 30
0.0
  9
$PUCSORGFRONT
 10
0.0
 20
0.0
 30
0.0
  9
$PUCSORGBACK
 10
0.0
 20
0.0
 30
0.0
  9
$USERI1
 70
     0
  9
$USERI2
 70
     0
  9
$USERI3
 70
     0
  9
$USERI4
 70
     0
  9
$USERI5
 70
     0
  9
$USERR1
 40
0.0
  9
$USERR2
 40
0.0
  9
$USERR3
 40
0.0
  9
$USERR4
 40
0.0
  9
$USERR5
 40
0.0
  9
$WORLDVIEW
 70
     1
  9
$SHADEDGE
 70
     3
  9
$SHADEDIF
 70
    70
  9
$TILEMODE
 70
     1
  9
$MAXACTVP
 70
    16
  9
$PINSBASE
 10
0.0
 20
0.0
 30
0.0
  9
$PLIMCHECK
 70
     0
  9
$PEXTMIN
 10
1.000000E+20
 20
1.000000E+20
 30
1.000000E+20
  9
$PEXTMAX
 10
-1.000000E+20
 20
-1.000000E+20
 30
-1.000000E+20
  9
$PLIMMIN
 10
0.0
 20
0.0
  9
$PLIMMAX
 10
12.0
 20
9.0
  9
$UNITMODE
 70
     0
  9
$VISRETAIN
 70
     0
  9
$PLINEGEN
 70
     1
  9
$PSLTSCALE
 70
     0
  9
$TREEDEPTH
 70
  3020
  9
$CMLSTYLE
  2
Standard
  9
$CMLJUST
 70
     0
  9
$CMLSCALE
 40
1.0
  9
$PROXYGRAPHICS
 70
     0
  9
$MEASUREMENT
 70
     0
  9
$CELWEIGHT
370
     0
  9
$ENDCAPS
280
     0
  9
$JOINSTYLE
280
     0
  9
$LWDISPLAY
290
     0
  9
$INSUNITS
 70
     1
  9
$HYPERLINKBASE
  1

  9
$XEDIT
290
     1
  9
$CEPSNTYPE
380
     0
  9
$PSTYLEMODE
290
     1
  9
$FINGERPRINTGUID
  2

  9
$VERSIONGUID
  2

  9
$EXTNAMES
290
     1
  9
$PSVPSCALE
 40
0.0
  0
ENDSEC
  0
SECTION
  2
CLASSES
  0
CLASS
  1
LWPOLYLINE
  2
AcDbPolyline
  3
AutoCAD 2000
 90
    32768
280
     0
281
     1
  0
CLASS
  1
IMAGE
  2
AcDbRasterImage
  3
ISM
 90
    32895
280
     0
281
     1
  0
CLASS
  1
OLE2FRAME
  2
AcDbOle2Frame
  3
AutoCAD 2000
 90
    32768
280
     0
281
     1
  0
CLASS
  1
HATCH
  2
AcDbHatch
  3
AutoCAD 2000
 90
    32768
280
     0
281
     1
  0
CLASS
  1
DICTIONARYVAR
  2
AcDbDictionaryVar
  3
AutoCAD 2000
 90
    32768
280
     0
281
     0
  0
CLASS
  1
RASTERVARIABLES
  2
AcDbRasterVariables
  3
ISM
 90
    32768
280
     0
281
     0
  0
CLASS
  1
IMAGEDEF
  2
AcDbRasterImageDef
  3
ISM
 90
    32768
280
     0
281
     0
  0
CLASS
  1
IMAGEDEF_REACTOR
  2
AcDbRasterImageDefReactor
  3
ISM
 90
    32769
280
     0
281
     0
  0
CLASS
  1
IDBUFFER
  2
AcDbIdBuffer
  3
AutoCAD 2000
 90
    32768
280
     0
281
     0
  0
CLASS
  1
SPATIAL_FILTER
  2
AcDbSpatialFilter
  3
AutoCAD 2000
 90
    32768
280
     0
281
     0
  0
CLASS
  1
XRECORD
  2
AcDbXrecord
  3
AutoCAD 2000
 90
    32768
280
     0
281
     0
  0
CLASS
  1
SORTENTSTABLE
  2
AcDbSortentsTable
  3
AutoCAD 2000
 90
    32768
280
     0
281
     0
  0
CLASS
  1
LAYER_INDEX
  2
AcDbLayerIndex
  3
AutoCAD 2000
 90
    32768
280
     0
281
     0
  0
CLASS
  1
SPATIAL_INDEX
  2
AcDbSpatialIndex
  3
AutoCAD 2000
 90
    32768
280
     0
281
     0
  0
CLASS
  1
OBJECT_PTR
  2
CAseDLPNTableRecord
  3
"ASE-LPNTableRecord"
 90
    32769
280
     0
281
     0
  0
CLASS
  1
LAYOUT
  2
AcDbLayout
  3
AutoCAD 2000
 90
        0
280
     0
281
     0
  0
CLASS
  1
PLOTSETTINGS
  2
AcDbPlotSettings
  3
AutoCAD 2000
 90
    32768
280
     0
281
     0
  0
CLASS
  1
ACDBDICTIONARYWDFLT
  2
AcDbDictionaryWithDefault
  3
AutoCAD 2000
 90
        0
280
     0
281
     0
  0
CLASS
  1
ACDBPLACEHOLDER
  2
AcDbPlaceHolder
  3
AutoCAD 2000
 90
        0
280
     0
281
     0
  0
CLASS
  1
VBA_PROJECT
  2
AcDbVbaProject
  3
acadvba
 90
    32768
280
     0
281
     0
  0
CLASS
  1
WIPEOUT
  2
AcDbWipeout
  3
WipeOut|AutoCAD Express Tool|expresstools@autodesk.com
 90
    32895
280
     0
281
     1
  0
CLASS
  1
WIPEOUTVARIABLES
  2
AcDbWipeoutVariables
  3
WipeOut|AutoCAD Express Tool|expresstools@autodesk.com
 90
        0
280
     0
281
     0
  0
CLASS
  1
RTEXT
  2
RText
  3
RText|AutoCAD Express Tool|expresstools@autodesk.com
 90
    32768
280
     0
281
     1
  0
CLASS
  1
ARCALIGNEDTEXT
  2
AcDbArcAlignedText
  3
ATEXT|AutoCAD Express Tool|expresstools@autodesk.com
 90
    32768
280
     0
281
     1
  0
ENDSEC
  0
SECTION
  2
TABLES
  0
TABLE
  2
VPORT
  5
7
100
AcDbSymbolTable
 70
     1
  0
VPORT
  5
15
100
AcDbSymbolTableRecord
100
AcDbViewportTableRecord
  2
*ACTIVE
 70
     0
 10
0.0
 20
0.0
 11
1.0
 21
1.0
 12
6.591288
 22
4.579184
 13
0.0
 23
0.0
 14
1.0
 24
1.0
 15
0.0
 25
0.0
 16
0.0
 26
0.0
 36
1.0
 17
0.0
 27
0.0
 37
0.0
 40
9.158369
 41
0.688564
 42
50.0
 43
0.0
 44
0.0
 50
0.0
 51
0.0
 71
     0
 72
   100
 73
     1
 74
     1
 75
     0
 76
     0
 77
     0
 78
     0
281
     0
 65
     0
110
0.0
120
0.0
130
0.0
111
1.0
121
0.0
131
0.0
112
0.0
122
1.0
132
0.0
345
0
346
0
 79
     0
146
0.0
  0
ENDTAB
  0
TABLE
  2
LTYPE
  5
4
100
AcDbSymbolTable
 70
     3
  0
LTYPE
  5
11
100
AcDbSymbolTableRecord
100
AcDbLinetypeTableRecord
  2
ByBlock
 70
    64
  3

 72
    65
 73
     0
 40
0.0
  0
LTYPE
  5
12
100
AcDbSymbolTableRecord
100
AcDbLinetypeTableRecord
  2
ByLayer
 70
    64
  3

 72
    65
 73
     0
 40
0.0
  0
LTYPE
  5
13
100
AcDbSymbolTableRecord
100
AcDbLinetypeTableRecord
  2
Continuous
 70
    64
  3
Solid line
 72
    65
 73
     0
 40
0.0
  0
ENDTAB
  0
TABLE
  2
LAYER
  5
2
100
AcDbSymbolTable
 70
     2
  0
LAYER
  5
14
100
AcDbSymbolTableRecord
100
AcDbLayerTableRecord
  2
0
 70
     0
 62
     7
  6
Continuous
290
     1
370
    -3
390
1D
  0
LAYER
  5
24
100
AcDbSymbolTableRecord
100
AcDbLayerTableRecord
  2
Additional Graphics
 70
     0
 62
     7
  6
Continuous
290
     1
370
    -3
390
1F
  0
ENDTAB
  0
TABLE
  2
STYLE
  5
3
100
AcDbSymbolTable
 70
     2
  0
STYLE
  5
17
100
AcDbSymbolTableRecord
100
AcDbTextStyleTableRecord
  2
Standard
 70
     0
 40
0.0
 41
1.0
 50
0.0
 71
     0
 42
0.0
  3
txt
  4

  0
STYLE
  5
26
100
AcDbSymbolTableRecord
100
AcDbTextStyleTableRecord
  2
Bookman Old Style
 70
     0
 40
1.0
 41
1.0
 50
0.0
 71
     0
 42
1.0
  3
Bookman Old Style
  4

  0
ENDTAB
  0
TABLE
  2
VIEW
  5
5
100
AcDbSymbolTable
 70
     0
  0
ENDTAB
  0
TABLE
  2
UCS
  5
6
100
AcDbSymbolTable
 70
     0
  0
ENDTAB
  0
TABLE
  2
APPID
  5
8
100
AcDbSymbolTable
 70
     1
  0
APPID
  5
16
100
AcDbSymbolTableRecord
100
AcDbRegAppTableRecord
  2
ACAD
 70
     0
  0
ENDTAB
  0
TABLE
  2
DIMSTYLE
  5
9
100
AcDbSymbolTable
 70
     1
100
AcDbDimStyleTable
 71
     0
  0
DIMSTYLE
105
18
100
AcDbSymbolTableRecord
100
AcDbDimStyleTableRecord
  2
Standard
 70
     0
  3

  4

 40
1.0
 41
0.18
 42
0.0625
 43
0.38
 44
0.18
 45
0.0
 46
0.0
 47
0.0
 48
0.0
 71
     0
 72
     0
 73
     1
 74
     1
 75
     0
 76
     0
 77
     0
 78
     0
 79
     0
140
0.18
141
0.09
142
0.0
143
25.4
144
1.0
145
0.0
146
1.0
147
0.09
148
0.0
170
     0
171
     2
172
     0
173
     0
174
     0
175
     0
176
     0
177
     0
178
     0
179
     0
271
     4
272
     4
273
     2
274
     2
275
     0
276
     0
277
     2
278
    46
279
     0
280
     0
281
     0
282
     0
283
     1
284
     0
285
     0
286
     0
288
     0
340
17
341
0
342
0
343
0
344
0
371
    -2
372
    -2
  0
ENDTAB
  0
TABLE
  2
BLOCK_RECORD
  5
1
100
AcDbSymbolTable
 70
     0
  0
BLOCK_RECORD
  5
A
100
AcDbSymbolTableRecord
100
AcDbBlockTableRecord
  2
*MODEL_SPACE
340
20
  0
BLOCK_RECORD
  5
B
100
AcDbSymbolTableRecord
100
AcDbBlockTableRecord
  2
*PAPER_SPACE
340
21
  0
ENDTAB
  0
ENDSEC
  0
SECTION
  2
BLOCKS
  0
BLOCK
  5
D
100
AcDbEntity
  8
0
100
AcDbBlockBegin
  2
*MODEL_SPACE
 70
     0
 10
0.0
 20
0.0
 30
0.0
  3
*MODEL_SPACE
  1

  0
ENDBLK
  5
E
100
AcDbEntity
  8
0
100
AcDbBlockEnd
  0
BLOCK
  5
F
100
AcDbEntity
 67
     1
  8
0
100
AcDbBlockBegin
  2
*PAPER_SPACE
 70
     0
 10
0.0
 20
0.0
 30
0.0
  3
*PAPER_SPACE
  1

  0
ENDBLK
  5
10
100
AcDbEntity
 67
     1
  8
0
100
AcDbBlockEnd
  0
ENDSEC
  0
SECTION
  2
ENTITIES
  0
SPLINE
  5
25
100
AcDbEntity
  8
Additional Graphics
370
    40
100
AcDbSpline
210
0.0
220
0.0
230
1.0
 70
     1
 71
     3
 72
    44
 73
    40
 74
     0
 42
0.0000000001
 43
0.0000000001
 40
0.0
 40
0.0
 40
0.0
 40
0.0
 40
0.1
 40
0.1
 40
0.1
 40
0.1
 40
0.2
 40
0.2
 40
0.2
 40
0.2
 40
0.3
 40
0.3
 40
0.3
 40
0.3
 40
0.4
 40
0.4
 40
0.4
 40
0.4
 40
0.5
 40
0.5
 40
0.5
 40
0.5
 40
0.6
 40
0.6
 40
0.6
 40
0.6
 40
0.7
 40
0.7
 40
0.7
 40
0.7
 40
0.7999999999999999
 40
0.7999999999999999
 40
0.7999999999999999
 40
0.7999999999999999
 40
0.8999999999999999
 40
0.8999999999999999
 40
0.8999999999999999
 40
0.8999999999999999
 40
1.0
 40
1.0
 40
1.0
 40
1.0
 10
-2.832503937007874
 20
2.7836614173228349
 30
0.0
 10
-2.832503937007874
 20
2.7836614173228349
 30
0.0
 10
2.9579685039370078
 20
2.7836614173228349
 30
0.0
 10
2.9579685039370078
 20
2.7836614173228349
 30
0.0
 10
2.9579685039370078
 20
2.7836614173228349
 30
0.0
 10
2.9579685039370078
 20
2.7836614173228349
 30
0.0
 10
3.2524606299212602
 20
3.0781535433070868
 30
0.0
 10
3.2524606299212602
 20
3.0781535433070868
 30
0.0
 10
3.2524606299212602
 20
3.0781535433070868
 30
0.0
 10
3.2524606299212602
 20
3.0781535433070868
 30
0.0
 10
2.874181102362205
 20
3.4141417322834648
 30
0.0
 10
2.874181102362205
 20
3.4141417322834648
 30
0.0
 10
2.874181102362205
 20
3.4141417322834648
 30
0.0
 10
2.874181102362205
 20
3.4141417322834648
 30
0.0
 10
3.040917322834646
 20
3.600413385826772
 30
0.0
 10
3.040917322834646
 20
3.600413385826772
 30
0.0
 10
3.040917322834646
 20
3.600413385826772
 30
0.0
 10
3.040917322834646
 20
3.600413385826772
 30
0.0
 10
2.6683149606299215
 20
3.9352283464566931
 30
0.0
 10
2.6683149606299215
 20
3.9352283464566931
 30
0.0
 10
2.6683149606299215
 20
3.9352283464566931
 30
0.0
 10
2.6233858267716537
 20
3.976708661417323
 30
0.0
 10
2.5633346456692916
 20
4.002066929133858
 30
0.0
 10
2.4973779527559055
 20
4.002066929133858
 30
0.0
 10
2.4973779527559055
 20
4.002066929133858
 30
0.0
 10
2.3810314960629921
 20
4.002066929133858
 30
0.0
 10
2.2830708661417325
 20
3.9231889763779528
 30
0.0
 10
2.2540551181102364
 20
3.8160118110236221
 30
0.0
 10
2.2540551181102364
 20
3.8160118110236221
 30
0.0
 10
2.2540551181102364
 20
3.8160118110236221
 30
0.0
 10
2.2043188976377954
 20
3.63848031496063
 30
0.0
 10
2.2043188976377954
 20
3.63848031496063
 30
0.0
 10
2.2043188976377954
 20
3.63848031496063
 30
0.0
 10
-0.1100866141732284
 20
4.8841062992125988
 30
0.0
 10
-2.095263779527559
 20
4.1260118110236226
 30
0.0
 10
-3.3064566929133861
 20
3.258279527559055
 30
0.0
 10
-3.3064566929133861
 20
3.258279527559055
 30
0.0
 10
-3.3064566929133861
 20
3.258279527559055
 30
0.0
 10
-2.832503937007874
 20
2.7836614173228349
 30
0.0
 10
-2.832503937007874
 20
2.7836614173228349
 30
0.0
  0
TEXT
  5
27
100
AcDbEntity
  8
Additional Graphics
100
AcDbText
 10
-0.336626
 20
2.535748
 30
0.0
 40
0.119999
  1
BA 1524
 51
-0.000002
  7
Bookman Old Style
100
AcDbText
  0
TEXT
  5
28
100
AcDbEntity
  8
Additional Graphics
100
AcDbText
 10
-0.679972
 20
2.348248
 30
0.0
 40
0.119999
  1
1-1/2\u+201d x 6-9/16\u+201d
 51
-0.000002
  7
Bookman Old Style
100
AcDbText
  0
SPLINE
  5
29
100
AcDbEntity
  8
Additional Graphics
 62
     9
100
AcDbSpline
210
0.0
220
0.0
230
1.0
 70
     1
 71
     3
 72
    20
 73
    16
 74
     0
 42
0.0000000001
 43
0.0000000001
 40
0.0
 40
0.0
 40
0.0
 40
0.0
 40
0.25
 40
0.25
 40
0.25
 40
0.25
 40
0.5
 40
0.5
 40
0.5
 40
0.5
 40
0.75
 40
0.75
 40
0.75
 40
0.75
 40
1.0
 40
1.0
 40
1.0
 40
1.0
 10
-2.7638188976377953
 20
-2.8795984251968507
 30
0.0
 10
-2.7638188976377953
 20
-2.8795984251968507
 30
0.0
 10
-2.1184330708661419
 20
-3.2661850393700789
 30
0.0
 10
-2.1184330708661419
 20
-3.2661850393700789
 30
0.0
 10
-2.1184330708661419
 20
-3.2661850393700789
 30
0.0
 10
-2.1184330708661419
 20
-3.2661850393700789
 30
0.0
 10
-1.6138503937007875
 20
-3.2290275590551181
 30
0.0
 10
-1.6138503937007875
 20
-3.2290275590551181
 30
0.0
 10
-1.6138503937007875
 20
-3.2290275590551181
 30
0.0
 10
-1.6138503937007875
 20
-3.2290275590551181
 30
0.0
 10
-2.2592362204724412
 20
-2.8424409448818899
 30
0.0
 10
-2.2592362204724412
 20
-2.8424409448818899
 30
0.0
 10
-2.2592362204724412
 20
-2.8424409448818899
 30
0.0
 10
-2.2592362204724412
 20
-2.8424409448818899
 30
0.0
 10
-2.7638188976377953
 20
-2.8795984251968507
 30
0.0
 10
-2.7638188976377953
 20
-2.8795984251968507
 30
0.0
  0
SPLINE
  5
2A
100
AcDbEntity
  8
Additional Graphics
370
     5
100
AcDbSpline
210
0.0
220
0.0
230
1.0
 70
     1
 71
     3
 72
    20
 73
    16
 74
     0
 42
0.0000000001
 43
0.0000000001
 40
0.0
 40
0.0
 40
0.0
 40
0.0
 40
0.25
 40
0.25
 40
0.25
 40
0.25
 40
0.5
 40
0.5
 40
0.5
 40
0.5
 40
0.75
 40
0.75
 40
0.75
 40
0.75
 40
1.0
 40
1.0
 40
1.0
 40
1.0
 10
-2.7638188976377953
 20
-2.8795984251968507
 30
0.0
 10
-2.7638188976377953
 20
-2.8795984251968507
 30
0.0
 10
-2.1184330708661419
 20
-3.2661850393700789
 30
0.0
 10
-2.1184330708661419
 20
-3.2661850393700789
 30
0.0
 10
-2.1184330708661419
 20
-3.2661850393700789
 30
0.0
 10
-2.1184330708661419
 20
-3.2661850393700789
 30
0.0
 10
-1.6138503937007875
 20
-3.2290275590551181
 30
0.0
 10
-1.6138503937007875
 20
-3.2290275590551181
 30
0.0
 10
-1.6138503937007875
 20
-3.2290275590551181
 30
0.0
 10
-1.6138503937007875
 20
-3.2290275590551181
 30
0.0
 10
-2.2592362204724412
 20
-2.8424409448818899
 30
0.0
 10
-2.2592362204724412
 20
-2.8424409448818899
 30
0.0
 10
-2.2592362204724412
 20
-2.8424409448818899
 30
0.0
 10
-2.2592362204724412
 20
-2.8424409448818899
 30
0.0
 10
-2.7638188976377953
 20
-2.8795984251968507
 30
0.0
 10
-2.7638188976377953
 20
-2.8795984251968507
 30
0.0
  0
SPLINE
  5
2B
100
AcDbEntity
  8
Additional Graphics
 62
     9
100
AcDbSpline
210
0.0
220
0.0
230
1.0
 70
     1
 71
     3
 72
    20
 73
    16
 74
     0
 42
0.0000000001
 43
0.0000000001
 40
0.0
 40
0.0
 40
0.0
 40
0.0
 40
0.25
 40
0.25
 40
0.25
 40
0.25
 40
0.5
 40
0.5
 40
0.5
 40
0.5
 40
0.75
 40
0.75
 40
0.75
 40
0.75
 40
1.0
 40
1.0
 40
1.0
 40
1.0
 10
-2.2418385826771656
 20
-3.0918307086614174
 30
0.0
 10
-2.2418385826771656
 20
-3.0918307086614174
 30
0.0
 10
-1.5964527559055119
 20
-3.478417322834646
 30
0.0
 10
-1.5964527559055119
 20
-3.478417322834646
 30
0.0
 10
-1.5964527559055119
 20
-3.478417322834646
 30
0.0
 10
-1.5964527559055119
 20
-3.478417322834646
 30
0.0
 10
-1.0966692913385827
 20
-3.4445118110236224
 30
0.0
 10
-1.0966692913385827
 20
-3.4445118110236224
 30
0.0
 10
-1.0966692913385827
 20
-3.4445118110236224
 30
0.0
 10
-1.0966692913385827
 20
-3.4445118110236224
 30
0.0
 10
-1.7420551181102364
 20
-3.0579251968503938
 30
0.0
 10
-1.7420551181102364
 20
-3.0579251968503938
 30
0.0
 10
-1.7420551181102364
 20
-3.0579251968503938
 30
0.0
 10
-1.7420551181102364
 20
-3.0579251968503938
 30
0.0
 10
-2.2418385826771656
 20
-3.0918307086614174
 30
0.0
 10
-2.2418385826771656
 20
-3.0918307086614174
 30
0.0
  0
SPLINE
  5
2C
100
AcDbEntity
  8
Additional Graphics
370
     5
100
AcDbSpline
210
0.0
220
0.0
230
1.0
 70
     1
 71
     3
 72
    20
 73
    16
 74
     0
 42
0.0000000001
 43
0.0000000001
 40
0.0
 40
0.0
 40
0.0
 40
0.0
 40
0.25
 40
0.25
 40
0.25
 40
0.25
 40
0.5
 40
0.5
 40
0.5
 40
0.5
 40
0.75
 40
0.75
 40
0.75
 40
0.75
 40
1.0
 40
1.0
 40
1.0
 40
1.0
 10
-2.2418385826771656
 20
-3.0918307086614174
 30
0.0
 10
-2.2418385826771656
 20
-3.0918307086614174
 30
0.0
 10
-1.5964527559055119
 20
-3.478417322834646
 30
0.0
 10
-1.5964527559055119
 20
-3.478417322834646
 30
0.0
 10
-1.5964527559055119
 20
-3.478417322834646
 30
0.0
 10
-1.5964527559055119
 20
-3.478417322834646
 30
0.0
 10
-1.0966692913385827
 20
-3.4445118110236224
 30
0.0
 10
-1.0966692913385827
 20
-3.4445118110236224
 30
0.0
 10
-1.0966692913385827
 20
-3.4445118110236224
 30
0.0
 10
-1.0966692913385827
 20
-3.4445118110236224
 30
0.0
 10
-1.7420551181102364
 20
-3.0579251968503938
 30
0.0
 10
-1.7420551181102364
 20
-3.0579251968503938
 30
0.0
 10
-1.7420551181102364
 20
-3.0579251968503938
 30
0.0
 10
-1.7420551181102364
 20
-3.0579251968503938
 30
0.0
 10
-2.2418385826771656
 20
-3.0918307086614174
 30
0.0
 10
-2.2418385826771656
 20
-3.0918307086614174
 30
0.0
  0
SPLINE
  5
2D
100
AcDbEntity
  8
Additional Graphics
 62
     9
100
AcDbSpline
210
0.0
220
0.0
230
1.0
 70
     1
 71
     3
 72
    76
 73
    72
 74
     0
 42
0.0000000001
 43
0.0000000001
 40
0.0
 40
0.0
 40
0.0
 40
0.0
 40
0.0555555555555556
 40
0.0555555555555556
 40
0.0555555555555556
 40
0.0555555555555556
 40
0.1111111111111111
 40
0.1111111111111111
 40
0.1111111111111111
 40
0.1111111111111111
 40
0.1666666666666667
 40
0.1666666666666667
 40
0.1666666666666667
 40
0.1666666666666667
 40
0.2222222222222222
 40
0.2222222222222222
 40
0.2222222222222222
 40
0.2222222222222222
 40
0.2777777777777778
 40
0.2777777777777778
 40
0.2777777777777778
 40
0.2777777777777778
 40
0.3333333333333334
 40
0.3333333333333334
 40
0.3333333333333334
 40
0.3333333333333334
 40
0.388888888888889
 40
0.388888888888889
 40
0.388888888888889
 40
0.388888888888889
 40
0.4444444444444445
 40
0.4444444444444445
 40
0.4444444444444445
 40
0.4444444444444445
 40
0.5000000000000001
 40
0.5000000000000001
 40
0.5000000000000001
 40
0.5000000000000001
 40
0.5555555555555557
 40
0.5555555555555557
 40
0.5555555555555557
 40
0.5555555555555557
 40
0.6111111111111113
 40
0.6111111111111113
 40
0.6111111111111113
 40
0.6111111111111113
 40
0.6666666666666669
 40
0.6666666666666669
 40
0.6666666666666669
 40
0.6666666666666669
 40
0.7222222222222224
 40
0.7222222222222224
 40
0.7222222222222224
 40
0.7222222222222224
 40
0.777777777777778
 40
0.777777777777778
 40
0.777777777777778
 40
0.777777777777778
 40
0.8333333333333336
 40
0.8333333333333336
 40
0.8333333333333336
 40
0.8333333333333336
 40
0.8888888888888892
 40
0.8888888888888892
 40
0.8888888888888892
 40
0.8888888888888892
 40
0.9444444444444448
 40
0.9444444444444448
 40
0.9444444444444448
 40
0.9444444444444448
 40
1.0
 40
1.0
 40
1.0
 40
1.0
 10
-1.7420551181102364
 20
-3.0579251968503938
 30
0.0
 10
-1.7420551181102364
 20
-3.0579251968503938
 30
0.0
 10
-1.0966692913385827
 20
-3.4445118110236224
 30
0.0
 10
-1.0966692913385827
 20
-3.4445118110236224
 30
0.0
 10
-1.0966692913385827
 20
-3.4445118110236224
 30
0.0
 10
-1.0966692913385827
 20
-3.4445118110236224
 30
0.0
 10
-1.0909409448818899
 20
-3.4441299212598429
 30
0.0
 10
-1.0909409448818899
 20
-3.4441299212598429
 30
0.0
 10
-1.0909409448818899
 20
-3.4441299212598429
 30
0.0
 10
-1.0909409448818899
 20
-3.4441299212598429
 30
0.0
 10
-1.085228346456693
 20
-3.4436259842519688
 30
0.0
 10
-1.085228346456693
 20
-3.4436259842519688
 30
0.0
 10
-1.085228346456693
 20
-3.4436259842519688
 30
0.0
 10
-1.085228346456693
 20
-3.4436259842519688
 30
0.0
 10
-1.0795236220472442
 20
-3.4429881889763783
 30
0.0
 10
-1.0795236220472442
 20
-3.4429881889763783
 30
0.0
 10
-1.0795236220472442
 20
-3.4429881889763783
 30
0.0
 10
-1.0795236220472442
 20
-3.4429881889763783
 30
0.0
 10
-1.0738385826771655
 20
-3.4422283464566932
 30
0.0
 10
-1.0738385826771655
 20
-3.4422283464566932
 30
0.0
 10
-1.0738385826771655
 20
-3.4422283464566932
 30
0.0
 10
-1.0738385826771655
 20
-3.4422283464566932
 30
0.0
 10
-1.0681614173228346
 20
-3.4413346456692913
 30
0.0
 10
-1.0681614173228346
 20
-3.4413346456692913
 30
0.0
 10
-1.0681614173228346
 20
-3.4413346456692913
 30
0.0
 10
-1.0681614173228346
 20
-3.4413346456692913
 30
0.0
 10
-1.0625078740157481
 20
-3.4403149606299213
 30
0.0
 10
-1.0625078740157481
 20
-3.4403149606299213
 30
0.0
 10
-1.0625078740157481
 20
-3.4403149606299213
 30
0.0
 10
-1.0625078740157481
 20
-3.4403149606299213
 30
0.0
 10
-1.0568740157480316
 20
-3.4391614173228349
 30
0.0
 10
-1.0568740157480316
 20
-3.4391614173228349
 30
0.0
 10
-1.0568740157480316
 20
-3.4391614173228349
 30
0.0
 10
-1.0568740157480316
 20
-3.4391614173228349
 30
0.0
 10
-1.0512677165354332
 20
-3.4378858267716539
 30
0.0
 10
-1.0512677165354332
 20
-3.4378858267716539
 30
0.0
 10
-1.0512677165354332
 20
-3.4378858267716539
 30
0.0
 10
-1.0512677165354332
 20
-3.4378858267716539
 30
0.0
 10
-1.6966535433070866
 20
-3.0512992125984253
 30
0.0
 10
-1.6966535433070866
 20
-3.0512992125984253
 30
0.0
 10
-1.6966535433070866
 20
-3.0512992125984253
 30
0.0
 10
-1.6966535433070866
 20
-3.0512992125984253
 30
0.0
 10
-1.7022598425196851
 20
-3.0525748031496063
 30
0.0
 10
-1.7022598425196851
 20
-3.0525748031496063
 30
0.0
 10
-1.7022598425196851
 20
-3.0525748031496063
 30
0.0
 10
-1.7022598425196851
 20
-3.0525748031496063
 30
0.0
 10
-1.7078937007874015
 20
-3.0537283464566931
 30
0.0
 10
-1.7078937007874015
 20
-3.0537283464566931
 30
0.0
 10
-1.7078937007874015
 20
-3.0537283464566931
 30
0.0
 10
-1.7078937007874015
 20
-3.0537283464566931
 30
0.0
 10
-1.7135472440944883
 20
-3.0547480314960631
 30
0.0
 10
-1.7135472440944883
 20
-3.0547480314960631
 30
0.0
 10
-1.7135472440944883
 20
-3.0547480314960631
 30
0.0
 10
-1.7135472440944883
 20
-3.0547480314960631
 30
0.0
 10
-1.7192244094488189
 20
-3.0556417322834646
 30
0.0
 10
-1.7192244094488189
 20
-3.0556417322834646
 30
0.0
 10
-1.7192244094488189
 20
-3.0556417322834646
 30
0.0
 10
-1.7192244094488189
 20
-3.0556417322834646
 30
0.0
 10
-1.7249094488188976
 20
-3.0564015748031497
 30
0.0
 10
-1.7249094488188976
 20
-3.0564015748031497
 30
0.0
 10
-1.7249094488188976
 20
-3.0564015748031497
 30
0.0
 10
-1.7249094488188976
 20
-3.0564015748031497
 30
0.0
 10
-1.7306141732283464
 20
-3.0570393700787402
 30
0.0
 10
-1.7306141732283464
 20
-3.0570393700787402
 30
0.0
 10
-1.7306141732283464
 20
-3.0570393700787402
 30
0.0
 10
-1.7306141732283464
 20
-3.0570393700787402
 30
0.0
 10
-1.7363267716535433
 20
-3.0575433070866143
 30
0.0
 10
-1.7363267716535433
 20
-3.0575433070866143
 30
0.0
 10
-1.7363267716535433
 20
-3.0575433070866143
 30
0.0
 10
-1.7363267716535433
 20
-3.0575433070866143
 30
0.0
 10
-1.7420551181102364
 20
-3.0579251968503938
 30
0.0
 10
-1.7420551181102364
 20
-3.0579251968503938
 30
0.0
  0
SPLINE
  5
2E
100
AcDbEntity
  8
Additional Graphics
 62
     9
100
AcDbSpline
210
0.0
220
0.0
230
1.0
 70
     1
 71
     3
 72
    76
 73
    72
 74
     0
 42
0.0000000001
 43
0.0000000001
 40
0.0
 40
0.0
 40
0.0
 40
0.0
 40
0.0555555555555556
 40
0.0555555555555556
 40
0.0555555555555556
 40
0.0555555555555556
 40
0.1111111111111111
 40
0.1111111111111111
 40
0.1111111111111111
 40
0.1111111111111111
 40
0.1666666666666667
 40
0.1666666666666667
 40
0.1666666666666667
 40
0.1666666666666667
 40
0.2222222222222222
 40
0.2222222222222222
 40
0.2222222222222222
 40
0.2222222222222222
 40
0.2777777777777778
 40
0.2777777777777778
 40
0.2777777777777778
 40
0.2777777777777778
 40
0.3333333333333334
 40
0.3333333333333334
 40
0.3333333333333334
 40
0.3333333333333334
 40
0.388888888888889
 40
0.388888888888889
 40
0.388888888888889
 40
0.388888888888889
 40
0.4444444444444445
 40
0.4444444444444445
 40
0.4444444444444445
 40
0.4444444444444445
 40
0.5000000000000001
 40
0.5000000000000001
 40
0.5000000000000001
 40
0.5000000000000001
 40
0.5555555555555557
 40
0.5555555555555557
 40
0.5555555555555557
 40
0.5555555555555557
 40
0.6111111111111113
 40
0.6111111111111113
 40
0.6111111111111113
 40
0.6111111111111113
 40
0.6666666666666669
 40
0.6666666666666669
 40
0.6666666666666669
 40
0.6666666666666669
 40
0.7222222222222224
 40
0.7222222222222224
 40
0.7222222222222224
 40
0.7222222222222224
 40
0.777777777777778
 40
0.777777777777778
 40
0.777777777777778
 40
0.777777777777778
 40
0.8333333333333336
 40
0.8333333333333336
 40
0.8333333333333336
 40
0.8333333333333336
 40
0.8888888888888892
 40
0.8888888888888892
 40
0.8888888888888892
 40
0.8888888888888892
 40
0.9444444444444448
 40
0.9444444444444448
 40
0.9444444444444448
 40
0.9444444444444448
 40
1.0
 40
1.0
 40
1.0
 40
1.0
 10
-1.6966535433070866
 20
-3.0512992125984253
 30
0.0
 10
-1.6966535433070866
 20
-3.0512992125984253
 30
0.0
 10
-1.0512677165354332
 20
-3.4378858267716539
 30
0.0
 10
-1.0512677165354332
 20
-3.4378858267716539
 30
0.0
 10
-1.0512677165354332
 20
-3.4378858267716539
 30
0.0
 10
-1.0512677165354332
 20
-3.4378858267716539
 30
0.0
 10
-1.0456771653543306
 20
-3.4364724409448821
 30
0.0
 10
-1.0456771653543306
 20
-3.4364724409448821
 30
0.0
 10
-1.0456771653543306
 20
-3.4364724409448821
 30
0.0
 10
-1.0456771653543306
 20
-3.4364724409448821
 30
0.0
 10
-1.0401181102362205
 20
-3.4349330708661419
 30
0.0
 10
-1.0401181102362205
 20
-3.4349330708661419
 30
0.0
 10
-1.0401181102362205
 20
-3.4349330708661419
 30
0.0
 10
-1.0401181102362205
 20
-3.4349330708661419
 30
0.0
 10
-1.0345866141732283
 20
-3.4332598425196852
 30
0.0
 10
-1.0345866141732283
 20
-3.4332598425196852
 30
0.0
 10
-1.0345866141732283
 20
-3.4332598425196852
 30
0.0
 10
-1.0345866141732283
 20
-3.4332598425196852
 30
0.0
 10
-1.0290905511811024
 20
-3.4314685039370079
 30
0.0
 10
-1.0290905511811024
 20
-3.4314685039370079
 30
0.0
 10
-1.0290905511811024
 20
-3.4314685039370079
 30
0.0
 10
-1.0290905511811024
 20
-3.4314685039370079
 30
0.0
 10
-1.0236259842519686
 20
-3.4295393700787402
 30
0.0
 10
-1.0236259842519686
 20
-3.4295393700787402
 30
0.0
 10
-1.0236259842519686
 20
-3.4295393700787402
 30
0.0
 10
-1.0236259842519686
 20
-3.4295393700787402
 30
0.0
 10
-1.0182007874015748
 20
-3.427488188976378
 30
0.0
 10
-1.0182007874015748
 20
-3.427488188976378
 30
0.0
 10
-1.0182007874015748
 20
-3.427488188976378
 30
0.0
 10
-1.0182007874015748
 20
-3.427488188976378
 30
0.0
 10
-1.0128149606299213
 20
-3.4253031496062993
 30
0.0
 10
-1.0128149606299213
 20
-3.4253031496062993
 30
0.0
 10
-1.0128149606299213
 20
-3.4253031496062993
 30
0.0
 10
-1.0128149606299213
 20
-3.4253031496062993
 30
0.0
 10
-1.007476377952756
 20
-3.4229960629921261
 30
0.0
 10
-1.007476377952756
 20
-3.4229960629921261
 30
0.0
 10
-1.007476377952756
 20
-3.4229960629921261
 30
0.0
 10
-1.007476377952756
 20
-3.4229960629921261
 30
0.0
 10
-1.6528622047244095
 20
-3.036409448818898
 30
0.0
 10
-1.6528622047244095
 20
-3.036409448818898
 30
0.0
 10
-1.6528622047244095
 20
-3.036409448818898
 30
0.0
 10
-1.6528622047244095
 20
-3.036409448818898
 30
0.0
 10
-1.6582007874015749
 20
-3.0387165354330712
 30
0.0
 10
-1.6582007874015749
 20
-3.0387165354330712
 30
0.0
 10
-1.6582007874015749
 20
-3.0387165354330712
 30
0.0
 10
-1.6582007874015749
 20
-3.0387165354330712
 30
0.0
 10
-1.6635866141732285
 20
-3.0409015748031498
 30
0.0
 10
-1.6635866141732285
 20
-3.0409015748031498
 30
0.0
 10
-1.6635866141732285
 20
-3.0409015748031498
 30
0.0
 10
-1.6635866141732285
 20
-3.0409015748031498
 30
0.0
 10
-1.6690118110236221
 20
-3.0429527559055121
 30
0.0
 10
-1.6690118110236221
 20
-3.0429527559055121
 30
0.0
 10
-1.6690118110236221
 20
-3.0429527559055121
 30
0.0
 10
-1.6690118110236221
 20
-3.0429527559055121
 30
0.0
 10
-1.6744763779527561
 20
-3.0448818897637797
 30
0.0
 10
-1.6744763779527561
 20
-3.0448818897637797
 30
0.0
 10
-1.6744763779527561
 20
-3.0448818897637797
 30
0.0
 10
-1.6744763779527561
 20
-3.0448818897637797
 30
0.0
 10
-1.679972440944882
 20
-3.0466732283464566
 30
0.0
 10
-1.679972440944882
 20
-3.0466732283464566
 30
0.0
 10
-1.679972440944882
 20
-3.0466732283464566
 30
0.0
 10
-1.679972440944882
 20
-3.0466732283464566
 30
0.0
 10
-1.6855039370078742
 20
-3.0483464566929137
 30
0.0
 10
-1.6855039370078742
 20
-3.0483464566929137
 30
0.0
 10
-1.6855039370078742
 20
-3.0483464566929137
 30
0.0
 10
-1.6855039370078742
 20
-3.0483464566929137
 30
0.0
 10
-1.6910629921259843
 20
-3.0498858267716535
 30
0.0
 10
-1.6910629921259843
 20
-3.0498858267716535
 30
0.0
 10
-1.6910629921259843
 20
-3.0498858267716535
 30
0.0
 10
-1.6910629921259843
 20
-3.0498858267716535
 30
0.0
 10
-1.6966535433070866
 20
-3.0512992125984253
 30
0.0
 10
-1.6966535433070866
 20
-3.0512992125984253
 30
0.0
  0
SPLINE
  5
2F
100
AcDbEntity
  8
Additional Graphics
 62
     9
100
AcDbSpline
210
0.0
220
0.0
230
1.0
 70
     1
 71
     3
 72
    76
 73
    72
 74
     0
 42
0.0000000001
 43
0.0000000001
 40
0.0
 40
0.0
 40
0.0
 40
0.0
 40
0.0555555555555556
 40
0.0555555555555556
 40
0.0555555555555556
 40
0.0555555555555556
 40
0.1111111111111111
 40
0.1111111111111111
 40
0.1111111111111111
 40
0.1111111111111111
 40
0.1666666666666667
 40
0.1666666666666667
 40
0.1666666666666667
 40
0.1666666666666667
 40
0.2222222222222222
 40
0.2222222222222222
 40
0.2222222222222222
 40
0.2222222222222222
 40
0.2777777777777778
 40
0.2777777777777778
 40
0.2777777777777778
 40
0.2777777777777778
 40
0.3333333333333334
 40
0.3333333333333334
 40
0.3333333333333334
 40
0.3333333333333334
 40
0.388888888888889
 40
0.388888888888889
 40
0.388888888888889
 40
0.388888888888889
 40
0.4444444444444445
 40
0.4444444444444445
 40
0.4444444444444445
 40
0.4444444444444445
 40
0.5000000000000001
 40
0.5000000000000001
 40
0.5000000000000001
 40
0.5000000000000001
 40
0.5555555555555557
 40
0.5555555555555557
 40
0.5555555555555557
 40
0.5555555555555557
 40
0.6111111111111113
 40
0.6111111111111113
 40
0.6111111111111113
 40
0.6111111111111113
 40
0.6666666666666669
 40
0.6666666666666669
 40
0.6666666666666669
 40
0.6666666666666669
 40
0.7222222222222224
 40
0.7222222222222224
 40
0.7222222222222224
 40
0.7222222222222224
 40
0.777777777777778
 40
0.777777777777778
 40
0.777777777777778
 40
0.777777777777778
 40
0.8333333333333336
 40
0.8333333333333336
 40
0.8333333333333336
 40
0.8333333333333336
 40
0.8888888888888892
 40
0.8888888888888892
 40
0.8888888888888892
 40
0.8888888888888892
 40
0.9444444444444448
 40
0.9444444444444448
 40
0.9444444444444448
 40
0.9444444444444448
 40
1.0
 40
1.0
 40
1.0
 40
1.0
 10
-1.6528622047244095
 20
-3.036409448818898
 30
0.0
 10
-1.6528622047244095
 20
-3.036409448818898
 30
0.0
 10
-1.007476377952756
 20
-3.4229960629921261
 30
0.0
 10
-1.007476377952756
 20
-3.4229960629921261
 30
0.0
 10
-1.007476377952756
 20
-3.4229960629921261
 30
0.0
 10
-1.007476377952756
 20
-3.4229960629921261
 30
0.0
 10
-1.0021732283464568
 20
-3.4205472440944882
 30
0.0
 10
-1.0021732283464568
 20
-3.4205472440944882
 30
0.0
 10
-1.0021732283464568
 20
-3.4205472440944882
 30
0.0
 10
-1.0021732283464568
 20
-3.4205472440944882
 30
0.0
 10
-0.9969173228346457
 20
-3.41798031496063
 30
0.0
 10
-0.9969173228346457
 20
-3.41798031496063
 30
0.0
 10
-0.9969173228346457
 20
-3.41798031496063
 30
0.0
 10
-0.9969173228346457
 20
-3.41798031496063
 30
0.0
 10
-0.9917125984251969
 20
-3.4152795275590551
 30
0.0
 10
-0.9917125984251969
 20
-3.4152795275590551
 30
0.0
 10
-0.9917125984251969
 20
-3.4152795275590551
 30
0.0
 10
-0.9917125984251969
 20
-3.4152795275590551
 30
0.0
 10
-0.9865629921259843
 20
-3.412452755905512
 30
0.0
 10
-0.9865629921259843
 20
-3.412452755905512
 30
0.0
 10
-0.9865629921259843
 20
-3.412452755905512
 30
0.0
 10
-0.9865629921259843
 20
-3.412452755905512
 30
0.0
 10
-0.9814606299212599
 20
-3.4094921259842521
 30
0.0
 10
-0.9814606299212599
 20
-3.4094921259842521
 30
0.0
 10
-0.9814606299212599
 20
-3.4094921259842521
 30
0.0
 10
-0.9814606299212599
 20
-3.4094921259842521
 30
0.0
 10
-0.9764173228346457
 20
-3.406413385826772
 30
0.0
 10
-0.9764173228346457
 20
-3.406413385826772
 30
0.0
 10
-0.9764173228346457
 20
-3.406413385826772
 30
0.0
 10
-0.9764173228346457
 20
-3.406413385826772
 30
0.0
 10
-0.9714291338582678
 20
-3.4031968503937011
 30
0.0
 10
-0.9714291338582678
 20
-3.4031968503937011
 30
0.0
 10
-0.9714291338582678
 20
-3.4031968503937011
 30
0.0
 10
-0.9714291338582678
 20
-3.4031968503937011
 30
0.0
 10
-0.9665118110236221
 20
-3.3998582677165357
 30
0.0
 10
-0.9665118110236221
 20
-3.3998582677165357
 30
0.0
 10
-0.9665118110236221
 20
-3.3998582677165357
 30
0.0
 10
-0.9665118110236221
 20
-3.3998582677165357
 30
0.0
 10
-1.6118976377952756
 20
-3.0132716535433071
 30
0.0
 10
-1.6118976377952756
 20
-3.0132716535433071
 30
0.0
 10
-1.6118976377952756
 20
-3.0132716535433071
 30
0.0
 10
-1.6118976377952756
 20
-3.0132716535433071
 30
0.0
 10
-1.6168149606299214
 20
-3.0166102362204725
 30
0.0
 10
-1.6168149606299214
 20
-3.0166102362204725
 30
0.0
 10
-1.6168149606299214
 20
-3.0166102362204725
 30
0.0
 10
-1.6168149606299214
 20
-3.0166102362204725
 30
0.0
 10
-1.6218031496062992
 20
-3.0198267716535434
 30
0.0
 10
-1.6218031496062992
 20
-3.0198267716535434
 30
0.0
 10
-1.6218031496062992
 20
-3.0198267716535434
 30
0.0
 10
-1.6218031496062992
 20
-3.0198267716535434
 30
0.0
 10
-1.6268464566929135
 20
-3.0229055118110235
 30
0.0
 10
-1.6268464566929135
 20
-3.0229055118110235
 30
0.0
 10
-1.6268464566929135
 20
-3.0229055118110235
 30
0.0
 10
-1.6268464566929135
 20
-3.0229055118110235
 30
0.0
 10
-1.6319488188976379
 20
-3.0258661417322834
 30
0.0
 10
-1.6319488188976379
 20
-3.0258661417322834
 30
0.0
 10
-1.6319488188976379
 20
-3.0258661417322834
 30
0.0
 10
-1.6319488188976379
 20
-3.0258661417322834
 30
0.0
 10
-1.6370984251968506
 20
-3.0286929133858269
 30
0.0
 10
-1.6370984251968506
 20
-3.0286929133858269
 30
0.0
 10
-1.6370984251968506
 20
-3.0286929133858269
 30
0.0
 10
-1.6370984251968506
 20
-3.0286929133858269
 30
0.0
 10
-1.6423031496062992
 20
-3.0313937007874019
 30
0.0
 10
-1.6423031496062992
 20
-3.0313937007874019
 30
0.0
 10
-1.6423031496062992
 20
-3.0313937007874019
 30
0.0
 10
-1.6423031496062992
 20
-3.0313937007874019
 30
0.0
 10
-1.6475590551181103
 20
-3.03396062992126
 30
0.0
 10
-1.6475590551181103
 20
-3.03396062992126
 30
0.0
 10
-1.6475590551181103
 20
-3.03396062992126
 30
0.0
 10
-1.6475590551181103
 20
-3.03396062992126
 30
0.0
 10
-1.6528622047244095
 20
-3.036409448818898
 30
0.0
 10
-1.6528622047244095
 20
-3.036409448818898
 30
0.0
  0
SPLINE
  5
30
100
AcDbEntity
  8
Additional Graphics
 62
     9
100
AcDbSpline
210
0.0
220
0.0
230
1.0
 70
     1
 71
     3
 72
    76
 73
    72
 74
     0
 42
0.0000000001
 43
0.0000000001
 40
0.0
 40
0.0
 40
0.0
 40
0.0
 40
0.0555555555555556
 40
0.0555555555555556
 40
0.0555555555555556
 40
0.0555555555555556
 40
0.1111111111111111
 40
0.1111111111111111
 40
0.1111111111111111
 40
0.1111111111111111
 40
0.1666666666666667
 40
0.1666666666666667
 40
0.1666666666666667
 40
0.1666666666666667
 40
0.2222222222222222
 40
0.2222222222222222
 40
0.2222222222222222
 40
0.2222222222222222
 40
0.2777777777777778
 40
0.2777777777777778
 40
0.2777777777777778
 40
0.2777777777777778
 40
0.3333333333333334
 40
0.3333333333333334
 40
0.3333333333333334
 40
0.3333333333333334
 40
0.388888888888889
 40
0.388888888888889
 40
0.388888888888889
 40
0.388888888888889
 40
0.4444444444444445
 40
0.4444444444444445
 40
0.4444444444444445
 40
0.4444444444444445
 40
0.5000000000000001
 40
0.5000000000000001
 40
0.5000000000000001
 40
0.5000000000000001
 40
0.5555555555555557
 40
0.5555555555555557
 40
0.5555555555555557
 40
0.5555555555555557
 40
0.6111111111111113
 40
0.6111111111111113
 40
0.6111111111111113
 40
0.6111111111111113
 40
0.6666666666666669
 40
0.6666666666666669
 40
0.6666666666666669
 40
0.6666666666666669
 40
0.7222222222222224
 40
0.7222222222222224
 40
0.7222222222222224
 40
0.7222222222222224
 40
0.777777777777778
 40
0.777777777777778
 40
0.777777777777778
 40
0.777777777777778
 40
0.8333333333333336
 40
0.8333333333333336
 40
0.8333333333333336
 40
0.8333333333333336
 40
0.8888888888888892
 40
0.8888888888888892
 40
0.8888888888888892
 40
0.8888888888888892
 40
0.9444444444444448
 40
0.9444444444444448
 40
0.9444444444444448
 40
0.9444444444444448
 40
1.0
 40
1.0
 40
1.0
 40
1.0
 10
-1.6118976377952756
 20
-3.0132716535433071
 30
0.0
 10
-1.6118976377952756
 20
-3.0132716535433071
 30
0.0
 10
-0.9665118110236221
 20
-3.3998582677165357
 30
0.0
 10
-0.9665118110236221
 20
-3.3998582677165357
 30
0.0
 10
-0.9665118110236221
 20
-3.3998582677165357
 30
0.0
 10
-0.9665118110236221
 20
-3.3998582677165357
 30
0.0
 10
-0.9616456692913387
 20
-3.3963818897637799
 30
0.0
 10
-0.9616456692913387
 20
-3.3963818897637799
 30
0.0
 10
-0.9616456692913387
 20
-3.3963818897637799
 30
0.0
 10
-0.9616456692913387
 20
-3.3963818897637799
 30
0.0
 10
-0.9568543307086614
 20
-3.3927834645669295
 30
0.0
 10
-0.9568543307086614
 20
-3.3927834645669295
 30
0.0
 10
-0.9568543307086614
 20
-3.3927834645669295
 30
0.0
 10
-0.9568543307086614
 20
-3.3927834645669295
 30
0.0
 10
-0.9521299212598425
 20
-3.3890551181102362
 30
0.0
 10
-0.9521299212598425
 20
-3.3890551181102362
 30
0.0
 10
-0.9521299212598425
 20
-3.3890551181102362
 30
0.0
 10
-0.9521299212598425
 20
-3.3890551181102362
 30
0.0
 10
-0.947476377952756
 20
-3.3852007874015748
 30
0.0
 10
-0.947476377952756
 20
-3.3852007874015748
 30
0.0
 10
-0.947476377952756
 20
-3.3852007874015748
 30
0.0
 10
-0.947476377952756
 20
-3.3852007874015748
 30
0.0
 10
-0.9428937007874017
 20
-3.3812125984251971
 30
0.0
 10
-0.9428937007874017
 20
-3.3812125984251971
 30
0.0
 10
-0.9428937007874017
 20
-3.3812125984251971
 30
0.0
 10
-0.9428937007874017
 20
-3.3812125984251971
 30
0.0
 10
-0.9383858267716536
 20
-3.3771023622047247
 30
0.0
 10
-0.9383858267716536
 20
-3.3771023622047247
 30
0.0
 10
-0.9383858267716536
 20
-3.3771023622047247
 30
0.0
 10
-0.9383858267716536
 20
-3.3771023622047247
 30
0.0
 10
-0.9339527559055119
 20
-3.3728582677165355
 30
0.0
 10
-0.9339527559055119
 20
-3.3728582677165355
 30
0.0
 10
-0.9339527559055119
 20
-3.3728582677165355
 30
0.0
 10
-0.9339527559055119
 20
-3.3728582677165355
 30
0.0
 10
-0.9296102362204725
 20
-3.3684960629921261
 30
0.0
 10
-0.9296102362204725
 20
-3.3684960629921261
 30
0.0
 10
-0.9296102362204725
 20
-3.3684960629921261
 30
0.0
 10
-0.9296102362204725
 20
-3.3684960629921261
 30
0.0
 10
-1.574996062992126
 20
-2.981909448818898
 30
0.0
 10
-1.574996062992126
 20
-2.981909448818898
 30
0.0
 10
-1.574996062992126
 20
-2.981909448818898
 30
0.0
 10
-1.574996062992126
 20
-2.981909448818898
 30
0.0
 10
-1.5793385826771653
 20
-2.9862716535433074
 30
0.0
 10
-1.5793385826771653
 20
-2.9862716535433074
 30
0.0
 10
-1.5793385826771653
 20
-2.9862716535433074
 30
0.0
 10
-1.5793385826771653
 20
-2.9862716535433074
 30
0.0
 10
-1.5837716535433071
 20
-2.9905157480314961
 30
0.0
 10
-1.5837716535433071
 20
-2.9905157480314961
 30
0.0
 10
-1.5837716535433071
 20
-2.9905157480314961
 30
0.0
 10
-1.5837716535433071
 20
-2.9905157480314961
 30
0.0
 10
-1.5882795275590551
 20
-2.9946259842519685
 30
0.0
 10
-1.5882795275590551
 20
-2.9946259842519685
 30
0.0
 10
-1.5882795275590551
 20
-2.9946259842519685
 30
0.0
 10
-1.5882795275590551
 20
-2.9946259842519685
 30
0.0
 10
-1.5928622047244094
 20
-2.9986141732283467
 30
0.0
 10
-1.5928622047244094
 20
-2.9986141732283467
 30
0.0
 10
-1.5928622047244094
 20
-2.9986141732283467
 30
0.0
 10
-1.5928622047244094
 20
-2.9986141732283467
 30
0.0
 10
-1.5975157480314961
 20
-3.002468503937008
 30
0.0
 10
-1.5975157480314961
 20
-3.002468503937008
 30
0.0
 10
-1.5975157480314961
 20
-3.002468503937008
 30
0.0
 10
-1.5975157480314961
 20
-3.002468503937008
 30
0.0
 10
-1.6022401574803151
 20
-3.0061968503937009
 30
0.0
 10
-1.6022401574803151
 20
-3.0061968503937009
 30
0.0
 10
-1.6022401574803151
 20
-3.0061968503937009
 30
0.0
 10
-1.6022401574803151
 20
-3.0061968503937009
 30
0.0
 10
-1.6070314960629921
 20
-3.0097952755905513
 30
0.0
 10
-1.6070314960629921
 20
-3.0097952755905513
 30
0.0
 10
-1.6070314960629921
 20
-3.0097952755905513
 30
0.0
 10
-1.6070314960629921
 20
-3.0097952755905513
 30
0.0
 10
-1.6118976377952756
 20
-3.0132716535433071
 30
0.0
 10
-1.6118976377952756
 20
-3.0132716535433071
 30
0.0
  0
SPLINE
  5
31
100
AcDbEntity
  8
Additional Graphics
 62
     9
100
AcDbSpline
210
0.0
220
0.0
230
1.0
 70
     1
 71
     3
 72
    44
 73
    40
 74
     0
 42
0.0000000001
 43
0.0000000001
 40
0.0
 40
0.0
 40
0.0
 40
0.0
 40
0.1
 40
0.1
 40
0.1
 40
0.1
 40
0.2
 40
0.2
 40
0.2
 40
0.2
 40
0.3
 40
0.3
 40
0.3
 40
0.3
 40
0.4
 40
0.4
 40
0.4
 40
0.4
 40
0.5
 40
0.5
 40
0.5
 40
0.5
 40
0.6
 40
0.6
 40
0.6
 40
0.6
 40
0.7
 40
0.7
 40
0.7
 40
0.7
 40
0.7999999999999999
 40
0.7999999999999999
 40
0.7999999999999999
 40
0.7999999999999999
 40
0.8999999999999999
 40
0.8999999999999999
 40
0.8999999999999999
 40
0.8999999999999999
 40
1.0
 40
1.0
 40
1.0
 40
1.0
 10
-1.574996062992126
 20
-2.981909448818898
 30
0.0
 10
-1.574996062992126
 20
-2.981909448818898
 30
0.0
 10
-0.9296102362204725
 20
-3.3684960629921261
 30
0.0
 10
-0.9296102362204725
 20
-3.3684960629921261
 30
0.0
 10
-0.9296102362204725
 20
-3.3684960629921261
 30
0.0
 10
-0.9296102362204725
 20
-3.3684960629921261
 30
0.0
 10
-0.9222047244094489
 20
-3.3605472440944881
 30
0.0
 10
-0.9222047244094489
 20
-3.3605472440944881
 30
0.0
 10
-0.9222047244094489
 20
-3.3605472440944881
 30
0.0
 10
-0.9222047244094489
 20
-3.3605472440944881
 30
0.0
 10
-0.9152125984251969
 20
-3.3523740157480315
 30
0.0
 10
-0.9152125984251969
 20
-3.3523740157480315
 30
0.0
 10
-0.9152125984251969
 20
-3.3523740157480315
 30
0.0
 10
-0.9152125984251969
 20
-3.3523740157480315
 30
0.0
 10
-0.9086299212598425
 20
-3.3439763779527558
 30
0.0
 10
-0.9086299212598425
 20
-3.3439763779527558
 30
0.0
 10
-0.9086299212598425
 20
-3.3439763779527558
 30
0.0
 10
-0.9086299212598425
 20
-3.3439763779527558
 30
0.0
 10
-0.9024527559055119
 20
-3.3353818897637795
 30
0.0
 10
-0.9024527559055119
 20
-3.3353818897637795
 30
0.0
 10
-0.9024527559055119
 20
-3.3353818897637795
 30
0.0
 10
-0.9024527559055119
 20
-3.3353818897637795
 30
0.0
 10
-1.5478385826771655
 20
-2.9487952755905513
 30
0.0
 10
-1.5478385826771655
 20
-2.9487952755905513
 30
0.0
 10
-1.5478385826771655
 20
-2.9487952755905513
 30
0.0
 10
-1.5478385826771655
 20
-2.9487952755905513
 30
0.0
 10
-1.5540157480314962
 20
-2.9573897637795277
 30
0.0
 10
-1.5540157480314962
 20
-2.9573897637795277
 30
0.0
 10
-1.5540157480314962
 20
-2.9573897637795277
 30
0.0
 10
-1.5540157480314962
 20
-2.9573897637795277
 30
0.0
 10
-1.5605984251968505
 20
-2.9657874015748034
 30
0.0
 10
-1.5605984251968505
 20
-2.9657874015748034
 30
0.0
 10
-1.5605984251968505
 20
-2.9657874015748034
 30
0.0
 10
-1.5605984251968505
 20
-2.9657874015748034
 30
0.0
 10
-1.5675905511811024
 20
-2.97396062992126
 30
0.0
 10
-1.5675905511811024
 20
-2.97396062992126
 30
0.0
 10
-1.5675905511811024
 20
-2.97396062992126
 30
0.0
 10
-1.5675905511811024
 20
-2.97396062992126
 30
0.0
 10
-1.574996062992126
 20
-2.981909448818898
 30
0.0
 10
-1.574996062992126
 20
-2.981909448818898
 30
0.0
  0
SPLINE
  5
32
100
AcDbEntity
  8
Additional Graphics
 62
     9
100
AcDbSpline
210
0.0
220
0.0
230
1.0
 70
     1
 71
     3
 72
    44
 73
    40
 74
     0
 42
0.0000000001
 43
0.0000000001
 40
0.0
 40
0.0
 40
0.0
 40
0.0
 40
0.1
 40
0.1
 40
0.1
 40
0.1
 40
0.2
 40
0.2
 40
0.2
 40
0.2
 40
0.3
 40
0.3
 40
0.3
 40
0.3
 40
0.4
 40
0.4
 40
0.4
 40
0.4
 40
0.5
 40
0.5
 40
0.5
 40
0.5
 40
0.6
 40
0.6
 40
0.6
 40
0.6
 40
0.7
 40
0.7
 40
0.7
 40
0.7
 40
0.7999999999999999
 40
0.7999999999999999
 40
0.7999999999999999
 40
0.7999999999999999
 40
0.8999999999999999
 40
0.8999999999999999
 40
0.8999999999999999
 40
0.8999999999999999
 40
1.0
 40
1.0
 40
1.0
 40
1.0
 10
-1.5478385826771655
 20
-2.9487952755905513
 30
0.0
 10
-1.5478385826771655
 20
-2.9487952755905513
 30
0.0
 10
-0.9024527559055119
 20
-3.3353818897637795
 30
0.0
 10
-0.9024527559055119
 20
-3.3353818897637795
 30
0.0
 10
-0.9024527559055119
 20
-3.3353818897637795
 30
0.0
 10
-0.9024527559055119
 20
-3.3353818897637795
 30
0.0
 10
-0.8966771653543307
 20
-3.3265866141732285
 30
0.0
 10
-0.8966771653543307
 20
-3.3265866141732285
 30
0.0
 10
-0.8966771653543307
 20
-3.3265866141732285
 30
0.0
 10
-0.8966771653543307
 20
-3.3265866141732285
 30
0.0
 10
-0.8913070866141732
 20
-3.3176181102362206
 30
0.0
 10
-0.8913070866141732
 20
-3.3176181102362206
 30
0.0
 10
-0.8913070866141732
 20
-3.3176181102362206
 30
0.0
 10
-0.8913070866141732
 20
-3.3176181102362206
 30
0.0
 10
-0.8863464566929135
 20
-3.3084803149606299
 30
0.0
 10
-0.8863464566929135
 20
-3.3084803149606299
 30
0.0
 10
-0.8863464566929135
 20
-3.3084803149606299
 30
0.0
 10
-0.8863464566929135
 20
-3.3084803149606299
 30
0.0
 10
-0.8817913385826772
 20
-3.2991929133858271
 30
0.0
 10
-0.8817913385826772
 20
-3.2991929133858271
 30
0.0
 10
-0.8817913385826772
 20
-3.2991929133858271
 30
0.0
 10
-0.8817913385826772
 20
-3.2991929133858271
 30
0.0
 10
-1.5271771653543307
 20
-2.9126062992125985
 30
0.0
 10
-1.5271771653543307
 20
-2.9126062992125985
 30
0.0
 10
-1.5271771653543307
 20
-2.9126062992125985
 30
0.0
 10
-1.5271771653543307
 20
-2.9126062992125985
 30
0.0
 10
-1.531732283464567
 20
-2.9218937007874017
 30
0.0
 10
-1.531732283464567
 20
-2.9218937007874017
 30
0.0
 10
-1.531732283464567
 20
-2.9218937007874017
 30
0.0
 10
-1.531732283464567
 20
-2.9218937007874017
 30
0.0
 10
-1.5366929133858269
 20
-2.9310314960629924
 30
0.0
 10
-1.5366929133858269
 20
-2.9310314960629924
 30
0.0
 10
-1.5366929133858269
 20
-2.9310314960629924
 30
0.0
 10
-1.5366929133858269
 20
-2.9310314960629924
 30
0.0
 10
-1.5420629921259843
 20
-2.9399999999999999
 30
0.0
 10
-1.5420629921259843
 20
-2.9399999999999999
 30
0.0
 10
-1.5420629921259843
 20
-2.9399999999999999
 30
0.0
 10
-1.5420629921259843
 20
-2.9399999999999999
 30
0.0
 10
-1.5478385826771655
 20
-2.9487952755905513
 30
0.0
 10
-1.5478385826771655
 20
-2.9487952755905513
 30
0.0
  0
SPLINE
  5
33
100
AcDbEntity
  8
Additional Graphics
 62
     9
100
AcDbSpline
210
0.0
220
0.0
230
1.0
 70
     1
 71
     3
 72
    44
 73
    40
 74
     0
 42
0.0000000001
 43
0.0000000001
 40
0.0
 40
0.0
 40
0.0
 40
0.0
 40
0.1
 40
0.1
 40
0.1
 40
0.1
 40
0.2
 40
0.2
 40
0.2
 40
0.2
 40
0.3
 40
0.3
 40
0.3
 40
0.3
 40
0.4
 40
0.4
 40
0.4
 40
0.4
 40
0.5
 40
0.5
 40
0.5
 40
0.5
 40
0.6
 40
0.6
 40
0.6
 40
0.6
 40
0.7
 40
0.7
 40
0.7
 40
0.7
 40
0.7999999999999999
 40
0.7999999999999999
 40
0.7999999999999999
 40
0.7999999999999999
 40
0.8999999999999999
 40
0.8999999999999999
 40
0.8999999999999999
 40
0.8999999999999999
 40
1.0
 40
1.0
 40
1.0
 40
1.0
 10
-1.5271771653543307
 20
-2.9126062992125985
 30
0.0
 10
-1.5271771653543307
 20
-2.9126062992125985
 30
0.0
 10
-0.8817913385826772
 20
-3.2991929133858271
 30
0.0
 10
-0.8817913385826772
 20
-3.2991929133858271
 30
0.0
 10
-0.8817913385826772
 20
-3.2991929133858271
 30
0.0
 10
-0.8817913385826772
 20
-3.2991929133858271
 30
0.0
 10
-0.8776338582677166
 20
-3.2897559055118113
 30
0.0
 10
-0.8776338582677166
 20
-3.2897559055118113
 30
0.0
 10
-0.8776338582677166
 20
-3.2897559055118113
 30
0.0
 10
-0.8776338582677166
 20
-3.2897559055118113
 30
0.0
 10
-0.8738858267716536
 20
-3.2802007874015748
 30
0.0
 10
-0.8738858267716536
 20
-3.2802007874015748
 30
0.0
 10
-0.8738858267716536
 20
-3.2802007874015748
 30
0.0
 10
-0.8738858267716536
 20
-3.2802007874015748
 30
0.0
 10
-0.8705433070866142
 20
-3.2705275590551182
 30
0.0
 10
-0.8705433070866142
 20
-3.2705275590551182
 30
0.0
 10
-0.8705433070866142
 20
-3.2705275590551182
 30
0.0
 10
-0.8705433070866142
 20
-3.2705275590551182
 30
0.0
 10
-0.8676062992125985
 20
-3.2607598425196853
 30
0.0
 10
-0.8676062992125985
 20
-3.2607598425196853
 30
0.0
 10
-0.8676062992125985
 20
-3.2607598425196853
 30
0.0
 10
-0.8676062992125985
 20
-3.2607598425196853
 30
0.0
 10
-1.512992125984252
 20
-2.8741732283464567
 30
0.0
 10
-1.512992125984252
 20
-2.8741732283464567
 30
0.0
 10
-1.512992125984252
 20
-2.8741732283464567
 30
0.0
 10
-1.512992125984252
 20
-2.8741732283464567
 30
0.0
 10
-1.5159291338582677
 20
-2.88394094488189
 30
0.0
 10
-1.5159291338582677
 20
-2.88394094488189
 30
0.0
 10
-1.5159291338582677
 20
-2.88394094488189
 30
0.0
 10
-1.5159291338582677
 20
-2.88394094488189
 30
0.0
 10
-1.5192716535433071
 20
-2.8936141732283467
 30
0.0
 10
-1.5192716535433071
 20
-2.8936141732283467
 30
0.0
 10
-1.5192716535433071
 20
-2.8936141732283467
 30
0.0
 10
-1.5192716535433071
 20
-2.8936141732283467
 30
0.0
 10
-1.5230196850393702
 20
-2.9031692913385827
 30
0.0
 10
-1.5230196850393702
 20
-2.9031692913385827
 30
0.0
 10
-1.5230196850393702
 20
-2.9031692913385827
 30
0.0
 10
-1.5230196850393702
 20
-2.9031692913385827
 30
0.0
 10
-1.5271771653543307
 20
-2.9126062992125985
 30
0.0
 10
-1.5271771653543307
 20
-2.9126062992125985
 30
0.0
  0
SPLINE
  5
34
100
AcDbEntity
  8
Additional Graphics
 62
     9
100
AcDbSpline
210
0.0
220
0.0
230
1.0
 70
     1
 71
     3
 72
    44
 73
    40
 74
     0
 42
0.0000000001
 43
0.0000000001
 40
0.0
 40
0.0
 40
0.0
 40
0.0
 40
0.1
 40
0.1
 40
0.1
 40
0.1
 40
0.2
 40
0.2
 40
0.2
 40
0.2
 40
0.3
 40
0.3
 40
0.3
 40
0.3
 40
0.4
 40
0.4
 40
0.4
 40
0.4
 40
0.5
 40
0.5
 40
0.5
 40
0.5
 40
0.6
 40
0.6
 40
0.6
 40
0.6
 40
0.7
 40
0.7
 40
0.7
 40
0.7
 40
0.7999999999999999
 40
0.7999999999999999
 40
0.7999999999999999
 40
0.7999999999999999
 40
0.8999999999999999
 40
0.8999999999999999
 40
0.8999999999999999
 40
0.8999999999999999
 40
1.0
 40
1.0
 40
1.0
 40
1.0
 10
-1.512992125984252
 20
-2.8741732283464567
 30
0.0
 10
-1.512992125984252
 20
-2.8741732283464567
 30
0.0
 10
-0.8676062992125985
 20
-3.2607598425196853
 30
0.0
 10
-0.8676062992125985
 20
-3.2607598425196853
 30
0.0
 10
-0.8676062992125985
 20
-3.2607598425196853
 30
0.0
 10
-0.8676062992125985
 20
-3.2607598425196853
 30
0.0
 10
-0.8650669291338583
 20
-3.2509015748031498
 30
0.0
 10
-0.8650669291338583
 20
-3.2509015748031498
 30
0.0
 10
-0.8650669291338583
 20
-3.2509015748031498
 30
0.0
 10
-0.8650669291338583
 20
-3.2509015748031498
 30
0.0
 10
-0.8629370078740157
 20
-3.2409685039370082
 30
0.0
 10
-0.8629370078740157
 20
-3.2409685039370082
 30
0.0
 10
-0.8629370078740157
 20
-3.2409685039370082
 30
0.0
 10
-0.8629370078740157
 20
-3.2409685039370082
 30
0.0
 10
-0.8612125984251969
 20
-3.2309724409448819
 30
0.0
 10
-0.8612125984251969
 20
-3.2309724409448819
 30
0.0
 10
-0.8612125984251969
 20
-3.2309724409448819
 30
0.0
 10
-0.8612125984251969
 20
-3.2309724409448819
 30
0.0
 10
-0.8598937007874016
 20
-3.2209330708661419
 30
0.0
 10
-0.8598937007874016
 20
-3.2209330708661419
 30
0.0
 10
-0.8598937007874016
 20
-3.2209330708661419
 30
0.0
 10
-0.8598937007874016
 20
-3.2209330708661419
 30
0.0
 10
-1.5052795275590551
 20
-2.8343464566929133
 30
0.0
 10
-1.5052795275590551
 20
-2.8343464566929133
 30
0.0
 10
-1.5052795275590551
 20
-2.8343464566929133
 30
0.0
 10
-1.5052795275590551
 20
-2.8343464566929133
 30
0.0
 10
-1.5065984251968505
 20
-2.8443858267716537
 30
0.0
 10
-1.5065984251968505
 20
-2.8443858267716537
 30
0.0
 10
-1.5065984251968505
 20
-2.8443858267716537
 30
0.0
 10
-1.5065984251968505
 20
-2.8443858267716537
 30
0.0
 10
-1.5083228346456694
 20
-2.8543818897637796
 30
0.0
 10
-1.5083228346456694
 20
-2.8543818897637796
 30
0.0
 10
-1.5083228346456694
 20
-2.8543818897637796
 30
0.0
 10
-1.5083228346456694
 20
-2.8543818897637796
 30
0.0
 10
-1.5104527559055119
 20
-2.8643149606299212
 30
0.0
 10
-1.5104527559055119
 20
-2.8643149606299212
 30
0.0
 10
-1.5104527559055119
 20
-2.8643149606299212
 30
0.0
 10
-1.5104527559055119
 20
-2.8643149606299212
 30
0.0
 10
-1.512992125984252
 20
-2.8741732283464567
 30
0.0
 10
-1.512992125984252
 20
-2.8741732283464567
 30
0.0
  0
SPLINE
  5
35
100
AcDbEntity
  8
Additional Graphics
 62
     9
100
AcDbSpline
210
0.0
220
0.0
230
1.0
 70
     1
 71
     3
 72
    44
 73
    40
 74
     0
 42
0.0000000001
 43
0.0000000001
 40
0.0
 40
0.0
 40
0.0
 40
0.0
 40
0.1
 40
0.1
 40
0.1
 40
0.1
 40
0.2
 40
0.2
 40
0.2
 40
0.2
 40
0.3
 40
0.3
 40
0.3
 40
0.3
 40
0.4
 40
0.4
 40
0.4
 40
0.4
 40
0.5
 40
0.5
 40
0.5
 40
0.5
 40
0.6
 40
0.6
 40
0.6
 40
0.6
 40
0.7
 40
0.7
 40
0.7
 40
0.7
 40
0.7999999999999999
 40
0.7999999999999999
 40
0.7999999999999999
 40
0.7999999999999999
 40
0.8999999999999999
 40
0.8999999999999999
 40
0.8999999999999999
 40
0.8999999999999999
 40
1.0
 40
1.0
 40
1.0
 40
1.0
 10
-1.5052795275590551
 20
-2.8343464566929133
 30
0.0
 10
-1.5052795275590551
 20
-2.8343464566929133
 30
0.0
 10
-0.8598937007874016
 20
-3.2209330708661419
 30
0.0
 10
-0.8598937007874016
 20
-3.2209330708661419
 30
0.0
 10
-0.8598937007874016
 20
-3.2209330708661419
 30
0.0
 10
-0.8598937007874016
 20
-3.2209330708661419
 30
0.0
 10
-0.8589724409448819
 20
-3.2108464566929134
 30
0.0
 10
-0.8589724409448819
 20
-3.2108464566929134
 30
0.0
 10
-0.8589724409448819
 20
-3.2108464566929134
 30
0.0
 10
-0.8589724409448819
 20
-3.2108464566929134
 30
0.0
 10
-0.8584566929133859
 20
-3.200748031496063
 30
0.0
 10
-0.8584566929133859
 20
-3.200748031496063
 30
0.0
 10
-0.8584566929133859
 20
-3.200748031496063
 30
0.0
 10
-0.8584566929133859
 20
-3.200748031496063
 30
0.0
 10
-0.8583385826771653
 20
-3.1906338582677165
 30
0.0
 10
-0.8583385826771653
 20
-3.1906338582677165
 30
0.0
 10
-0.8583385826771653
 20
-3.1906338582677165
 30
0.0
 10
-0.8583385826771653
 20
-3.1906338582677165
 30
0.0
 10
-0.8586338582677165
 20
-3.1805314960629922
 30
0.0
 10
-0.8586338582677165
 20
-3.1805314960629922
 30
0.0
 10
-0.8586338582677165
 20
-3.1805314960629922
 30
0.0
 10
-0.8586338582677165
 20
-3.1805314960629922
 30
0.0
 10
-1.5040196850393701
 20
-2.7939448818897641
 30
0.0
 10
-1.5040196850393701
 20
-2.7939448818897641
 30
0.0
 10
-1.5040196850393701
 20
-2.7939448818897641
 30
0.0
 10
-1.5040196850393701
 20
-2.7939448818897641
 30
0.0
 10
-1.5037244094488189
 20
-2.8040472440944884
 30
0.0
 10
-1.5037244094488189
 20
-2.8040472440944884
 30
0.0
 10
-1.5037244094488189
 20
-2.8040472440944884
 30
0.0
 10
-1.5037244094488189
 20
-2.8040472440944884
 30
0.0
 10
-1.5038425196850393
 20
-2.8141614173228349
 30
0.0
 10
-1.5038425196850393
 20
-2.8141614173228349
 30
0.0
 10
-1.5038425196850393
 20
-2.8141614173228349
 30
0.0
 10
-1.5038425196850393
 20
-2.8141614173228349
 30
0.0
 10
-1.5043582677165355
 20
-2.8242598425196852
 30
0.0
 10
-1.5043582677165355
 20
-2.8242598425196852
 30
0.0
 10
-1.5043582677165355
 20
-2.8242598425196852
 30
0.0
 10
-1.5043582677165355
 20
-2.8242598425196852
 30
0.0
 10
-1.5052795275590551
 20
-2.8343464566929133
 30
0.0
 10
-1.5052795275590551
 20
-2.8343464566929133
 30
0.0
  0
SPLINE
  5
36
100
AcDbEntity
  8
Additional Graphics
 62
     9
100
AcDbSpline
210
0.0
220
0.0
230
1.0
 70
     1
 71
     3
 72
    44
 73
    40
 74
     0
 42
0.0000000001
 43
0.0000000001
 40
0.0
 40
0.0
 40
0.0
 40
0.0
 40
0.1
 40
0.1
 40
0.1
 40
0.1
 40
0.2
 40
0.2
 40
0.2
 40
0.2
 40
0.3
 40
0.3
 40
0.3
 40
0.3
 40
0.4
 40
0.4
 40
0.4
 40
0.4
 40
0.5
 40
0.5
 40
0.5
 40
0.5
 40
0.6
 40
0.6
 40
0.6
 40
0.6
 40
0.7
 40
0.7
 40
0.7
 40
0.7
 40
0.7999999999999999
 40
0.7999999999999999
 40
0.7999999999999999
 40
0.7999999999999999
 40
0.8999999999999999
 40
0.8999999999999999
 40
0.8999999999999999
 40
0.8999999999999999
 40
1.0
 40
1.0
 40
1.0
 40
1.0
 10
-1.5040196850393701
 20
-2.7939448818897641
 30
0.0
 10
-1.5040196850393701
 20
-2.7939448818897641
 30
0.0
 10
-0.8586338582677165
 20
-3.1805314960629922
 30
0.0
 10
-0.8586338582677165
 20
-3.1805314960629922
 30
0.0
 10
-0.8586338582677165
 20
-3.1805314960629922
 30
0.0
 10
-0.8586338582677165
 20
-3.1805314960629922
 30
0.0
 10
-0.8593228346456693
 20
-3.1704409448818898
 30
0.0
 10
-0.8593228346456693
 20
-3.1704409448818898
 30
0.0
 10
-0.8593228346456693
 20
-3.1704409448818898
 30
0.0
 10
-0.8593228346456693
 20
-3.1704409448818898
 30
0.0
 10
-0.8604212598425197
 20
-3.1603818897637797
 30
0.0
 10
-0.8604212598425197
 20
-3.1603818897637797
 30
0.0
 10
-0.8604212598425197
 20
-3.1603818897637797
 30
0.0
 10
-0.8604212598425197
 20
-3.1603818897637797
 30
0.0
 10
-0.8619212598425198
 20
-3.1503661417322837
 30
0.0
 10
-0.8619212598425198
 20
-3.1503661417322837
 30
0.0
 10
-0.8619212598425198
 20
-3.1503661417322837
 30
0.0
 10
-0.8619212598425198
 20
-3.1503661417322837
 30
0.0
 10
-0.8638228346456693
 20
-3.1404094488188976
 30
0.0
 10
-0.8638228346456693
 20
-3.1404094488188976
 30
0.0
 10
-0.8638228346456693
 20
-3.1404094488188976
 30
0.0
 10
-0.8638228346456693
 20
-3.1404094488188976
 30
0.0
 10
-1.5092086614173228
 20
-2.7538228346456695
 30
0.0
 10
-1.5092086614173228
 20
-2.7538228346456695
 30
0.0
 10
-1.5092086614173228
 20
-2.7538228346456695
 30
0.0
 10
-1.5092086614173228
 20
-2.7538228346456695
 30
0.0
 10
-1.5073070866141733
 20
-2.7637795275590551
 30
0.0
 10
-1.5073070866141733
 20
-2.7637795275590551
 30
0.0
 10
-1.5073070866141733
 20
-2.7637795275590551
 30
0.0
 10
-1.5073070866141733
 20
-2.7637795275590551
 30
0.0
 10
-1.5058070866141733
 20
-2.7737952755905515
 30
0.0
 10
-1.5058070866141733
 20
-2.7737952755905515
 30
0.0
 10
-1.5058070866141733
 20
-2.7737952755905515
 30
0.0
 10
-1.5058070866141733
 20
-2.7737952755905515
 30
0.0
 10
-1.5047086614173228
 20
-2.7838543307086616
 30
0.0
 10
-1.5047086614173228
 20
-2.7838543307086616
 30
0.0
 10
-1.5047086614173228
 20
-2.7838543307086616
 30
0.0
 10
-1.5047086614173228
 20
-2.7838543307086616
 30
0.0
 10
-1.5040196850393701
 20
-2.7939448818897641
 30
0.0
 10
-1.5040196850393701
 20
-2.7939448818897641
 30
0.0
  0
SPLINE
  5
37
100
AcDbEntity
  8
Additional Graphics
 62
     9
100
AcDbSpline
210
0.0
220
0.0
230
1.0
 70
     1
 71
     3
 72
    44
 73
    40
 74
     0
 42
0.0000000001
 43
0.0000000001
 40
0.0
 40
0.0
 40
0.0
 40
0.0
 40
0.1
 40
0.1
 40
0.1
 40
0.1
 40
0.2
 40
0.2
 40
0.2
 40
0.2
 40
0.3
 40
0.3
 40
0.3
 40
0.3
 40
0.4
 40
0.4
 40
0.4
 40
0.4
 40
0.5
 40
0.5
 40
0.5
 40
0.5
 40
0.6
 40
0.6
 40
0.6
 40
0.6
 40
0.7
 40
0.7
 40
0.7
 40
0.7
 40
0.7999999999999999
 40
0.7999999999999999
 40
0.7999999999999999
 40
0.7999999999999999
 40
0.8999999999999999
 40
0.8999999999999999
 40
0.8999999999999999
 40
0.8999999999999999
 40
1.0
 40
1.0
 40
1.0
 40
1.0
 10
-1.5092086614173228
 20
-2.7538228346456695
 30
0.0
 10
-1.5092086614173228
 20
-2.7538228346456695
 30
0.0
 10
-0.8638228346456693
 20
-3.1404094488188976
 30
0.0
 10
-0.8638228346456693
 20
-3.1404094488188976
 30
0.0
 10
-0.8638228346456693
 20
-3.1404094488188976
 30
0.0
 10
-0.8638228346456693
 20
-3.1404094488188976
 30
0.0
 10
-0.8661181102362205
 20
-3.1305157480314962
 30
0.0
 10
-0.8661181102362205
 20
-3.1305157480314962
 30
0.0
 10
-0.8661181102362205
 20
-3.1305157480314962
 30
0.0
 10
-0.8661181102362205
 20
-3.1305157480314962
 30
0.0
 10
-0.8688228346456693
 20
-3.1207086614173232
 30
0.0
 10
-0.8688228346456693
 20
-3.1207086614173232
 30
0.0
 10
-0.8688228346456693
 20
-3.1207086614173232
 30
0.0
 10
-0.8688228346456693
 20
-3.1207086614173232
 30
0.0
 10
-0.8719291338582678
 20
-3.1109921259842519
 30
0.0
 10
-0.8719291338582678
 20
-3.1109921259842519
 30
0.0
 10
-0.8719291338582678
 20
-3.1109921259842519
 30
0.0
 10
-0.8719291338582678
 20
-3.1109921259842519
 30
0.0
 10
-0.8754370078740158
 20
-3.1013937007874017
 30
0.0
 10
-0.8754370078740158
 20
-3.1013937007874017
 30
0.0
 10
-0.8754370078740158
 20
-3.1013937007874017
 30
0.0
 10
-0.8754370078740158
 20
-3.1013937007874017
 30
0.0
 10
-1.5208228346456694
 20
-2.7148070866141731
 30
0.0
 10
-1.5208228346456694
 20
-2.7148070866141731
 30
0.0
 10
-1.5208228346456694
 20
-2.7148070866141731
 30
0.0
 10
-1.5208228346456694
 20
-2.7148070866141731
 30
0.0
 10
-1.5173149606299212
 20
-2.7244055118110238
 30
0.0
 10
-1.5173149606299212
 20
-2.7244055118110238
 30
0.0
 10
-1.5173149606299212
 20
-2.7244055118110238
 30
0.0
 10
-1.5173149606299212
 20
-2.7244055118110238
 30
0.0
 10
-1.5142086614173229
 20
-2.7341220472440946
 30
0.0
 10
-1.5142086614173229
 20
-2.7341220472440946
 30
0.0
 10
-1.5142086614173229
 20
-2.7341220472440946
 30
0.0
 10
-1.5142086614173229
 20
-2.7341220472440946
 30
0.0
 10
-1.511503937007874
 20
-2.7439291338582676
 30
0.0
 10
-1.511503937007874
 20
-2.7439291338582676
 30
0.0
 10
-1.511503937007874
 20
-2.7439291338582676
 30
0.0
 10
-1.511503937007874
 20
-2.7439291338582676
 30
0.0
 10
-1.5092086614173228
 20
-2.7538228346456695
 30
0.0
 10
-1.5092086614173228
 20
-2.7538228346456695
 30
0.0
  0
SPLINE
  5
38
100
AcDbEntity
  8
Additional Graphics
 62
     9
100
AcDbSpline
210
0.0
220
0.0
230
1.0
 70
     1
 71
     3
 72
    44
 73
    40
 74
     0
 42
0.0000000001
 43
0.0000000001
 40
0.0
 40
0.0
 40
0.0
 40
0.0
 40
0.1
 40
0.1
 40
0.1
 40
0.1
 40
0.2
 40
0.2
 40
0.2
 40
0.2
 40
0.3
 40
0.3
 40
0.3
 40
0.3
 40
0.4
 40
0.4
 40
0.4
 40
0.4
 40
0.5
 40
0.5
 40
0.5
 40
0.5
 40
0.6
 40
0.6
 40
0.6
 40
0.6
 40
0.7
 40
0.7
 40
0.7
 40
0.7
 40
0.7999999999999999
 40
0.7999999999999999
 40
0.7999999999999999
 40
0.7999999999999999
 40
0.8999999999999999
 40
0.8999999999999999
 40
0.8999999999999999
 40
0.8999999999999999
 40
1.0
 40
1.0
 40
1.0
 40
1.0
 10
-1.5208228346456694
 20
-2.7148070866141731
 30
0.0
 10
-1.5208228346456694
 20
-2.7148070866141731
 30
0.0
 10
-0.8754370078740158
 20
-3.1013937007874017
 30
0.0
 10
-0.8754370078740158
 20
-3.1013937007874017
 30
0.0
 10
-0.8754370078740158
 20
-3.1013937007874017
 30
0.0
 10
-0.8754370078740158
 20
-3.1013937007874017
 30
0.0
 10
-0.8793425196850394
 20
-3.0919094488188978
 30
0.0
 10
-0.8793425196850394
 20
-3.0919094488188978
 30
0.0
 10
-0.8793425196850394
 20
-3.0919094488188978
 30
0.0
 10
-0.8793425196850394
 20
-3.0919094488188978
 30
0.0
 10
-0.8836535433070867
 20
-3.0825629921259843
 30
0.0
 10
-0.8836535433070867
 20
-3.0825629921259843
 30
0.0
 10
-0.8836535433070867
 20
-3.0825629921259843
 30
0.0
 10
-0.8836535433070867
 20
-3.0825629921259843
 30
0.0
 10
-0.8883661417322835
 20
-3.0733661417322837
 30
0.0
 10
-0.8883661417322835
 20
-3.0733661417322837
 30
0.0
 10
-0.8883661417322835
 20
-3.0733661417322837
 30
0.0
 10
-0.8883661417322835
 20
-3.0733661417322837
 30
0.0
 10
-0.89348031496063
 20
-3.0643307086614175
 30
0.0
 10
-0.89348031496063
 20
-3.0643307086614175
 30
0.0
 10
-0.89348031496063
 20
-3.0643307086614175
 30
0.0
 10
-0.89348031496063
 20
-3.0643307086614175
 30
0.0
 10
-1.5388661417322835
 20
-2.677744094488189
 30
0.0
 10
-1.5388661417322835
 20
-2.677744094488189
 30
0.0
 10
-1.5388661417322835
 20
-2.677744094488189
 30
0.0
 10
-1.5388661417322835
 20
-2.677744094488189
 30
0.0
 10
-1.5337519685039371
 20
-2.6867795275590551
 30
0.0
 10
-1.5337519685039371
 20
-2.6867795275590551
 30
0.0
 10
-1.5337519685039371
 20
-2.6867795275590551
 30
0.0
 10
-1.5337519685039371
 20
-2.6867795275590551
 30
0.0
 10
-1.5290393700787401
 20
-2.6959763779527561
 30
0.0
 10
-1.5290393700787401
 20
-2.6959763779527561
 30
0.0
 10
-1.5290393700787401
 20
-2.6959763779527561
 30
0.0
 10
-1.5290393700787401
 20
-2.6959763779527561
 30
0.0
 10
-1.524728346456693
 20
-2.7053228346456692
 30
0.0
 10
-1.524728346456693
 20
-2.7053228346456692
 30
0.0
 10
-1.524728346456693
 20
-2.7053228346456692
 30
0.0
 10
-1.524728346456693
 20
-2.7053228346456692
 30
0.0
 10
-1.5208228346456694
 20
-2.7148070866141731
 30
0.0
 10
-1.5208228346456694
 20
-2.7148070866141731
 30
0.0
  0
SPLINE
  5
39
100
AcDbEntity
  8
Additional Graphics
370
     5
100
AcDbSpline
210
0.0
220
0.0
230
1.0
 70
     1
 71
     3
 72
   524
 73
   520
 74
     0
 42
0.0000000001
 43
0.0000000001
 40
0.0
 40
0.0
 40
0.0
 40
0.0
 40
0.0076923076923077
 40
0.0076923076923077
 40
0.0076923076923077
 40
0.0076923076923077
 40
0.0153846153846154
 40
0.0153846153846154
 40
0.0153846153846154
 40
0.0153846153846154
 40
0.0230769230769231
 40
0.0230769230769231
 40
0.0230769230769231
 40
0.0230769230769231
 40
0.0307692307692308
 40
0.0307692307692308
 40
0.0307692307692308
 40
0.0307692307692308
 40
0.0384615384615385
 40
0.0384615384615385
 40
0.0384615384615385
 40
0.0384615384615385
 40
0.0461538461538462
 40
0.0461538461538462
 40
0.0461538461538462
 40
0.0461538461538462
 40
0.0538461538461538
 40
0.0538461538461538
 40
0.0538461538461538
 40
0.0538461538461538
 40
0.0615384615384615
 40
0.0615384615384615
 40
0.0615384615384615
 40
0.0615384615384615
 40
0.0692307692307692
 40
0.0692307692307692
 40
0.0692307692307692
 40
0.0692307692307692
 40
0.0769230769230769
 40
0.0769230769230769
 40
0.0769230769230769
 40
0.0769230769230769
 40
0.0846153846153846
 40
0.0846153846153846
 40
0.0846153846153846
 40
0.0846153846153846
 40
0.0923076923076923
 40
0.0923076923076923
 40
0.0923076923076923
 40
0.0923076923076923
 40
0.1
 40
0.1
 40
0.1
 40
0.1
 40
0.1076923076923077
 40
0.1076923076923077
 40
0.1076923076923077
 40
0.1076923076923077
 40
0.1153846153846154
 40
0.1153846153846154
 40
0.1153846153846154
 40
0.1153846153846154
 40
0.1230769230769231
 40
0.1230769230769231
 40
0.1230769230769231
 40
0.1230769230769231
 40
0.1307692307692308
 40
0.1307692307692308
 40
0.1307692307692308
 40
0.1307692307692308
 40
0.1384615384615385
 40
0.1384615384615385
 40
0.1384615384615385
 40
0.1384615384615385
 40
0.1461538461538462
 40
0.1461538461538462
 40
0.1461538461538462
 40
0.1461538461538462
 40
0.1538461538461539
 40
0.1538461538461539
 40
0.1538461538461539
 40
0.1538461538461539
 40
0.1615384615384616
 40
0.1615384615384616
 40
0.1615384615384616
 40
0.1615384615384616
 40
0.1692307692307692
 40
0.1692307692307692
 40
0.1692307692307692
 40
0.1692307692307692
 40
0.1769230769230769
 40
0.1769230769230769
 40
0.1769230769230769
 40
0.1769230769230769
 40
0.1846153846153846
 40
0.1846153846153846
 40
0.1846153846153846
 40
0.1846153846153846
 40
0.1923076923076923
 40
0.1923076923076923
 40
0.1923076923076923
 40
0.1923076923076923
 40
0.2
 40
0.2
 40
0.2
 40
0.2
 40
0.2076923076923077
 40
0.2076923076923077
 40
0.2076923076923077
 40
0.2076923076923077
 40
0.2153846153846154
 40
0.2153846153846154
 40
0.2153846153846154
 40
0.2153846153846154
 40
0.2230769230769231
 40
0.2230769230769231
 40
0.2230769230769231
 40
0.2230769230769231
 40
0.2307692307692308
 40
0.2307692307692308
 40
0.2307692307692308
 40
0.2307692307692308
 40
0.2384615384615385
 40
0.2384615384615385
 40
0.2384615384615385
 40
0.2384615384615385
 40
0.2461538461538462
 40
0.2461538461538462
 40
0.2461538461538462
 40
0.2461538461538462
 40
0.2538461538461538
 40
0.2538461538461538
 40
0.2538461538461538
 40
0.2538461538461538
 40
0.2615384615384615
 40
0.2615384615384615
 40
0.2615384615384615
 40
0.2615384615384615
 40
0.2692307692307692
 40
0.2692307692307692
 40
0.2692307692307692
 40
0.2692307692307692
 40
0.2769230769230768
 40
0.2769230769230768
 40
0.2769230769230768
 40
0.2769230769230768
 40
0.2846153846153845
 40
0.2846153846153845
 40
0.2846153846153845
 40
0.2846153846153845
 40
0.2923076923076922
 40
0.2923076923076922
 40
0.2923076923076922
 40
0.2923076923076922
 40
0.2999999999999998
 40
0.2999999999999998
 40
0.2999999999999998
 40
0.2999999999999998
 40
0.3076923076923075
 40
0.3076923076923075
 40
0.3076923076923075
 40
0.3076923076923075
 40
0.3153846153846152
 40
0.3153846153846152
 40
0.3153846153846152
 40
0.3153846153846152
 40
0.3230769230769228
 40
0.3230769230769228
 40
0.3230769230769228
 40
0.3230769230769228
 40
0.3307692307692305
 40
0.3307692307692305
 40
0.3307692307692305
 40
0.3307692307692305
 40
0.3384615384615382
 40
0.3384615384615382
 40
0.3384615384615382
 40
0.3384615384615382
 40
0.3461538461538458
 40
0.3461538461538458
 40
0.3461538461538458
 40
0.3461538461538458
 40
0.3538461538461535
 40
0.3538461538461535
 40
0.3538461538461535
 40
0.3538461538461535
 40
0.3615384615384611
 40
0.3615384615384611
 40
0.3615384615384611
 40
0.3615384615384611
 40
0.3692307692307688
 40
0.3692307692307688
 40
0.3692307692307688
 40
0.3692307692307688
 40
0.3769230769230765
 40
0.3769230769230765
 40
0.3769230769230765
 40
0.3769230769230765
 40
0.3846153846153841
 40
0.3846153846153841
 40
0.3846153846153841
 40
0.3846153846153841
 40
0.3923076923076918
 40
0.3923076923076918
 40
0.3923076923076918
 40
0.3923076923076918
 40
0.3999999999999995
 40
0.3999999999999995
 40
0.3999999999999995
 40
0.3999999999999995
 40
0.4076923076923071
 40
0.4076923076923071
 40
0.4076923076923071
 40
0.4076923076923071
 40
0.4153846153846148
 40
0.4153846153846148
 40
0.4153846153846148
 40
0.4153846153846148
 40
0.4230769230769225
 40
0.4230769230769225
 40
0.4230769230769225
 40
0.4230769230769225
 40
0.4307692307692301
 40
0.4307692307692301
 40
0.4307692307692301
 40
0.4307692307692301
 40
0.4384615384615378
 40
0.4384615384615378
 40
0.4384615384615378
 40
0.4384615384615378
 40
0.4461538461538455
 40
0.4461538461538455
 40
0.4461538461538455
 40
0.4461538461538455
 40
0.4538461538461531
 40
0.4538461538461531
 40
0.4538461538461531
 40
0.4538461538461531
 40
0.4615384615384608
 40
0.4615384615384608
 40
0.4615384615384608
 40
0.4615384615384608
 40
0.4692307692307685
 40
0.4692307692307685
 40
0.4692307692307685
 40
0.4692307692307685
 40
0.4769230769230761
 40
0.4769230769230761
 40
0.4769230769230761
 40
0.4769230769230761
 40
0.4846153846153838
 40
0.4846153846153838
 40
0.4846153846153838
 40
0.4846153846153838
 40
0.4923076923076915
 40
0.4923076923076915
 40
0.4923076923076915
 40
0.4923076923076915
 40
0.4999999999999991
 40
0.4999999999999991
 40
0.4999999999999991
 40
0.4999999999999991
 40
0.5076923076923068
 40
0.5076923076923068
 40
0.5076923076923068
 40
0.5076923076923068
 40
0.5153846153846144
 40
0.5153846153846144
 40
0.5153846153846144
 40
0.5153846153846144
 40
0.5230769230769221
 40
0.5230769230769221
 40
0.5230769230769221
 40
0.5230769230769221
 40
0.5307692307692298
 40
0.5307692307692298
 40
0.5307692307692298
 40
0.5307692307692298
 40
0.5384615384615374
 40
0.5384615384615374
 40
0.5384615384615374
 40
0.5384615384615374
 40
0.5461538461538451
 40
0.5461538461538451
 40
0.5461538461538451
 40
0.5461538461538451
 40
0.5538461538461528
 40
0.5538461538461528
 40
0.5538461538461528
 40
0.5538461538461528
 40
0.5615384615384604
 40
0.5615384615384604
 40
0.5615384615384604
 40
0.5615384615384604
 40
0.5692307692307681
 40
0.5692307692307681
 40
0.5692307692307681
 40
0.5692307692307681
 40
0.5769230769230758
 40
0.5769230769230758
 40
0.5769230769230758
 40
0.5769230769230758
 40
0.5846153846153834
 40
0.5846153846153834
 40
0.5846153846153834
 40
0.5846153846153834
 40
0.5923076923076911
 40
0.5923076923076911
 40
0.5923076923076911
 40
0.5923076923076911
 40
0.5999999999999988
 40
0.5999999999999988
 40
0.5999999999999988
 40
0.5999999999999988
 40
0.6076923076923064
 40
0.6076923076923064
 40
0.6076923076923064
 40
0.6076923076923064
 40
0.6153846153846141
 40
0.6153846153846141
 40
0.6153846153846141
 40
0.6153846153846141
 40
0.6230769230769218
 40
0.6230769230769218
 40
0.6230769230769218
 40
0.6230769230769218
 40
0.6307692307692294
 40
0.6307692307692294
 40
0.6307692307692294
 40
0.6307692307692294
 40
0.6384615384615371
 40
0.6384615384615371
 40
0.6384615384615371
 40
0.6384615384615371
 40
0.6461538461538448
 40
0.6461538461538448
 40
0.6461538461538448
 40
0.6461538461538448
 40
0.6538461538461524
 40
0.6538461538461524
 40
0.6538461538461524
 40
0.6538461538461524
 40
0.6615384615384601
 40
0.6615384615384601
 40
0.6615384615384601
 40
0.6615384615384601
 40
0.6692307692307677
 40
0.6692307692307677
 40
0.6692307692307677
 40
0.6692307692307677
 40
0.6769230769230754
 40
0.6769230769230754
 40
0.6769230769230754
 40
0.6769230769230754
 40
0.6846153846153831
 40
0.6846153846153831
 40
0.6846153846153831
 40
0.6846153846153831
 40
0.6923076923076907
 40
0.6923076923076907
 40
0.6923076923076907
 40
0.6923076923076907
 40
0.6999999999999984
 40
0.6999999999999984
 40
0.6999999999999984
 40
0.6999999999999984
 40
0.7076923076923061
 40
0.7076923076923061
 40
0.7076923076923061
 40
0.7076923076923061
 40
0.7153846153846137
 40
0.7153846153846137
 40
0.7153846153846137
 40
0.7153846153846137
 40
0.7230769230769214
 40
0.7230769230769214
 40
0.7230769230769214
 40
0.7230769230769214
 40
0.7307692307692291
 40
0.7307692307692291
 40
0.7307692307692291
 40
0.7307692307692291
 40
0.7384615384615367
 40
0.7384615384615367
 40
0.7384615384615367
 40
0.7384615384615367
 40
0.7461538461538444
 40
0.7461538461538444
 40
0.7461538461538444
 40
0.7461538461538444
 40
0.7538461538461521
 40
0.7538461538461521
 40
0.7538461538461521
 40
0.7538461538461521
 40
0.7615384615384597
 40
0.7615384615384597
 40
0.7615384615384597
 40
0.7615384615384597
 40
0.7692307692307674
 40
0.7692307692307674
 40
0.7692307692307674
 40
0.7692307692307674
 40
0.7769230769230751
 40
0.7769230769230751
 40
0.7769230769230751
 40
0.7769230769230751
 40
0.7846153846153827
 40
0.7846153846153827
 40
0.7846153846153827
 40
0.7846153846153827
 40
0.7923076923076904
 40
0.7923076923076904
 40
0.7923076923076904
 40
0.7923076923076904
 40
0.7999999999999981
 40
0.7999999999999981
 40
0.7999999999999981
 40
0.7999999999999981
 40
0.8076923076923057
 40
0.8076923076923057
 40
0.8076923076923057
 40
0.8076923076923057
 40
0.8153846153846134
 40
0.8153846153846134
 40
0.8153846153846134
 40
0.8153846153846134
 40
0.823076923076921
 40
0.823076923076921
 40
0.823076923076921
 40
0.823076923076921
 40
0.8307692307692287
 40
0.8307692307692287
 40
0.8307692307692287
 40
0.8307692307692287
 40
0.8384615384615364
 40
0.8384615384615364
 40
0.8384615384615364
 40
0.8384615384615364
 40
0.846153846153844
 40
0.846153846153844
 40
0.846153846153844
 40
0.846153846153844
 40
0.8538461538461517
 40
0.8538461538461517
 40
0.8538461538461517
 40
0.8538461538461517
 40
0.8615384615384594
 40
0.8615384615384594
 40
0.8615384615384594
 40
0.8615384615384594
 40
0.869230769230767
 40
0.869230769230767
 40
0.869230769230767
 40
0.869230769230767
 40
0.8769230769230747
 40
0.8769230769230747
 40
0.8769230769230747
 40
0.8769230769230747
 40
0.8846153846153824
 40
0.8846153846153824
 40
0.8846153846153824
 40
0.8846153846153824
 40
0.89230769230769
 40
0.89230769230769
 40
0.89230769230769
 40
0.89230769230769
 40
0.8999999999999977
 40
0.8999999999999977
 40
0.8999999999999977
 40
0.8999999999999977
 40
0.9076923076923054
 40
0.9076923076923054
 40
0.9076923076923054
 40
0.9076923076923054
 40
0.915384615384613
 40
0.915384615384613
 40
0.915384615384613
 40
0.915384615384613
 40
0.9230769230769207
 40
0.9230769230769207
 40
0.9230769230769207
 40
0.9230769230769207
 40
0.9307692307692284
 40
0.9307692307692284
 40
0.9307692307692284
 40
0.9307692307692284
 40
0.938461538461536
 40
0.938461538461536
 40
0.938461538461536
 40
0.938461538461536
 40
0.9461538461538437
 40
0.9461538461538437
 40
0.9461538461538437
 40
0.9461538461538437
 40
0.9538461538461514
 40
0.9538461538461514
 40
0.9538461538461514
 40
0.9538461538461514
 40
0.961538461538459
 40
0.961538461538459
 40
0.961538461538459
 40
0.961538461538459
 40
0.9692307692307667
 40
0.9692307692307667
 40
0.9692307692307667
 40
0.9692307692307667
 40
0.9769230769230743
 40
0.9769230769230743
 40
0.9769230769230743
 40
0.9769230769230743
 40
0.984615384615382
 40
0.984615384615382
 40
0.984615384615382
 40
0.984615384615382
 40
0.9923076923076897
 40
0.9923076923076897
 40
0.9923076923076897
 40
0.9923076923076897
 40
1.0
 40
1.0
 40
1.0
 40
1.0
 10
-1.7420551181102364
 20
-3.0579251968503938
 30
0.0
 10
-1.7420551181102364
 20
-3.0579251968503938
 30
0.0
 10
-1.0966692913385827
 20
-3.4445118110236224
 30
0.0
 10
-1.0966692913385827
 20
-3.4445118110236224
 30
0.0
 10
-1.0966692913385827
 20
-3.4445118110236224
 30
0.0
 10
-1.0966692913385827
 20
-3.4445118110236224
 30
0.0
 10
-1.0909409448818899
 20
-3.4441299212598429
 30
0.0
 10
-1.0909409448818899
 20
-3.4441299212598429
 30
0.0
 10
-1.0909409448818899
 20
-3.4441299212598429
 30
0.0
 10
-1.0909409448818899
 20
-3.4441299212598429
 30
0.0
 10
-1.085228346456693
 20
-3.4436259842519688
 30
0.0
 10
-1.085228346456693
 20
-3.4436259842519688
 30
0.0
 10
-1.085228346456693
 20
-3.4436259842519688
 30
0.0
 10
-1.085228346456693
 20
-3.4436259842519688
 30
0.0
 10
-1.0795236220472442
 20
-3.4429881889763783
 30
0.0
 10
-1.0795236220472442
 20
-3.4429881889763783
 30
0.0
 10
-1.0795236220472442
 20
-3.4429881889763783
 30
0.0
 10
-1.0795236220472442
 20
-3.4429881889763783
 30
0.0
 10
-1.0738385826771655
 20
-3.4422283464566932
 30
0.0
 10
-1.0738385826771655
 20
-3.4422283464566932
 30
0.0
 10
-1.0738385826771655
 20
-3.4422283464566932
 30
0.0
 10
-1.0738385826771655
 20
-3.4422283464566932
 30
0.0
 10
-1.0681614173228346
 20
-3.4413346456692913
 30
0.0
 10
-1.0681614173228346
 20
-3.4413346456692913
 30
0.0
 10
-1.0681614173228346
 20
-3.4413346456692913
 30
0.0
 10
-1.0681614173228346
 20
-3.4413346456692913
 30
0.0
 10
-1.0625078740157481
 20
-3.4403149606299213
 30
0.0
 10
-1.0625078740157481
 20
-3.4403149606299213
 30
0.0
 10
-1.0625078740157481
 20
-3.4403149606299213
 30
0.0
 10
-1.0625078740157481
 20
-3.4403149606299213
 30
0.0
 10
-1.0568740157480316
 20
-3.4391614173228349
 30
0.0
 10
-1.0568740157480316
 20
-3.4391614173228349
 30
0.0
 10
-1.0568740157480316
 20
-3.4391614173228349
 30
0.0
 10
-1.0568740157480316
 20
-3.4391614173228349
 30
0.0
 10
-1.0512677165354332
 20
-3.4378858267716539
 30
0.0
 10
-1.0512677165354332
 20
-3.4378858267716539
 30
0.0
 10
-1.0512677165354332
 20
-3.4378858267716539
 30
0.0
 10
-1.0512677165354332
 20
-3.4378858267716539
 30
0.0
 10
-1.0456771653543306
 20
-3.4364724409448821
 30
0.0
 10
-1.0456771653543306
 20
-3.4364724409448821
 30
0.0
 10
-1.0456771653543306
 20
-3.4364724409448821
 30
0.0
 10
-1.0456771653543306
 20
-3.4364724409448821
 30
0.0
 10
-1.0401181102362205
 20
-3.4349330708661419
 30
0.0
 10
-1.0401181102362205
 20
-3.4349330708661419
 30
0.0
 10
-1.0401181102362205
 20
-3.4349330708661419
 30
0.0
 10
-1.0401181102362205
 20
-3.4349330708661419
 30
0.0
 10
-1.0345866141732283
 20
-3.4332598425196852
 30
0.0
 10
-1.0345866141732283
 20
-3.4332598425196852
 30
0.0
 10
-1.0345866141732283
 20
-3.4332598425196852
 30
0.0
 10
-1.0345866141732283
 20
-3.4332598425196852
 30
0.0
 10
-1.0290905511811024
 20
-3.4314685039370079
 30
0.0
 10
-1.0290905511811024
 20
-3.4314685039370079
 30
0.0
 10
-1.0290905511811024
 20
-3.4314685039370079
 30
0.0
 10
-1.0290905511811024
 20
-3.4314685039370079
 30
0.0
 10
-1.0236259842519686
 20
-3.4295393700787402
 30
0.0
 10
-1.0236259842519686
 20
-3.4295393700787402
 30
0.0
 10
-1.0236259842519686
 20
-3.4295393700787402
 30
0.0
 10
-1.0236259842519686
 20
-3.4295393700787402
 30
0.0
 10
-1.0182007874015748
 20
-3.427488188976378
 30
0.0
 10
-1.0182007874015748
 20
-3.427488188976378
 30
0.0
 10
-1.0182007874015748
 20
-3.427488188976378
 30
0.0
 10
-1.0182007874015748
 20
-3.427488188976378
 30
0.0
 10
-1.0128149606299213
 20
-3.4253031496062993
 30
0.0
 10
-1.0128149606299213
 20
-3.4253031496062993
 30
0.0
 10
-1.0128149606299213
 20
-3.4253031496062993
 30
0.0
 10
-1.0128149606299213
 20
-3.4253031496062993
 30
0.0
 10
-1.007476377952756
 20
-3.4229960629921261
 30
0.0
 10
-1.007476377952756
 20
-3.4229960629921261
 30
0.0
 10
-1.007476377952756
 20
-3.4229960629921261
 30
0.0
 10
-1.007476377952756
 20
-3.4229960629921261
 30
0.0
 10
-1.0021732283464568
 20
-3.4205472440944882
 30
0.0
 10
-1.0021732283464568
 20
-3.4205472440944882
 30
0.0
 10
-1.0021732283464568
 20
-3.4205472440944882
 30
0.0
 10
-1.0021732283464568
 20
-3.4205472440944882
 30
0.0
 10
-0.9969173228346457
 20
-3.41798031496063
 30
0.0
 10
-0.9969173228346457
 20
-3.41798031496063
 30
0.0
 10
-0.9969173228346457
 20
-3.41798031496063
 30
0.0
 10
-0.9969173228346457
 20
-3.41798031496063
 30
0.0
 10
-0.9917125984251969
 20
-3.4152795275590551
 30
0.0
 10
-0.9917125984251969
 20
-3.4152795275590551
 30
0.0
 10
-0.9917125984251969
 20
-3.4152795275590551
 30
0.0
 10
-0.9917125984251969
 20
-3.4152795275590551
 30
0.0
 10
-0.9865629921259843
 20
-3.412452755905512
 30
0.0
 10
-0.9865629921259843
 20
-3.412452755905512
 30
0.0
 10
-0.9865629921259843
 20
-3.412452755905512
 30
0.0
 10
-0.9865629921259843
 20
-3.412452755905512
 30
0.0
 10
-0.9814606299212599
 20
-3.4094921259842521
 30
0.0
 10
-0.9814606299212599
 20
-3.4094921259842521
 30
0.0
 10
-0.9814606299212599
 20
-3.4094921259842521
 30
0.0
 10
-0.9814606299212599
 20
-3.4094921259842521
 30
0.0
 10
-0.9764173228346457
 20
-3.406413385826772
 30
0.0
 10
-0.9764173228346457
 20
-3.406413385826772
 30
0.0
 10
-0.9764173228346457
 20
-3.406413385826772
 30
0.0
 10
-0.9764173228346457
 20
-3.406413385826772
 30
0.0
 10
-0.9714291338582678
 20
-3.4031968503937011
 30
0.0
 10
-0.9714291338582678
 20
-3.4031968503937011
 30
0.0
 10
-0.9714291338582678
 20
-3.4031968503937011
 30
0.0
 10
-0.9714291338582678
 20
-3.4031968503937011
 30
0.0
 10
-0.9665118110236221
 20
-3.3998582677165357
 30
0.0
 10
-0.9665118110236221
 20
-3.3998582677165357
 30
0.0
 10
-0.9665118110236221
 20
-3.3998582677165357
 30
0.0
 10
-0.9665118110236221
 20
-3.3998582677165357
 30
0.0
 10
-0.9616456692913387
 20
-3.3963818897637799
 30
0.0
 10
-0.9616456692913387
 20
-3.3963818897637799
 30
0.0
 10
-0.9616456692913387
 20
-3.3963818897637799
 30
0.0
 10
-0.9616456692913387
 20
-3.3963818897637799
 30
0.0
 10
-0.9568543307086614
 20
-3.3927834645669295
 30
0.0
 10
-0.9568543307086614
 20
-3.3927834645669295
 30
0.0
 10
-0.9568543307086614
 20
-3.3927834645669295
 30
0.0
 10
-0.9568543307086614
 20
-3.3927834645669295
 30
0.0
 10
-0.9521299212598425
 20
-3.3890551181102362
 30
0.0
 10
-0.9521299212598425
 20
-3.3890551181102362
 30
0.0
 10
-0.9521299212598425
 20
-3.3890551181102362
 30
0.0
 10
-0.9521299212598425
 20
-3.3890551181102362
 30
0.0
 10
-0.947476377952756
 20
-3.3852007874015748
 30
0.0
 10
-0.947476377952756
 20
-3.3852007874015748
 30
0.0
 10
-0.947476377952756
 20
-3.3852007874015748
 30
0.0
 10
-0.947476377952756
 20
-3.3852007874015748
 30
0.0
 10
-0.9428937007874017
 20
-3.3812125984251971
 30
0.0
 10
-0.9428937007874017
 20
-3.3812125984251971
 30
0.0
 10
-0.9428937007874017
 20
-3.3812125984251971
 30
0.0
 10
-0.9428937007874017
 20
-3.3812125984251971
 30
0.0
 10
-0.9383858267716536
 20
-3.3771023622047247
 30
0.0
 10
-0.9383858267716536
 20
-3.3771023622047247
 30
0.0
 10
-0.9383858267716536
 20
-3.3771023622047247
 30
0.0
 10
-0.9383858267716536
 20
-3.3771023622047247
 30
0.0
 10
-0.9339527559055119
 20
-3.3728582677165355
 30
0.0
 10
-0.9339527559055119
 20
-3.3728582677165355
 30
0.0
 10
-0.9339527559055119
 20
-3.3728582677165355
 30
0.0
 10
-0.9339527559055119
 20
-3.3728582677165355
 30
0.0
 10
-0.9296102362204725
 20
-3.3684960629921261
 30
0.0
 10
-0.9296102362204725
 20
-3.3684960629921261
 30
0.0
 10
-0.9296102362204725
 20
-3.3684960629921261
 30
0.0
 10
-0.9296102362204725
 20
-3.3684960629921261
 30
0.0
 10
-0.9222047244094489
 20
-3.3605472440944881
 30
0.0
 10
-0.9222047244094489
 20
-3.3605472440944881
 30
0.0
 10
-0.9222047244094489
 20
-3.3605472440944881
 30
0.0
 10
-0.9222047244094489
 20
-3.3605472440944881
 30
0.0
 10
-0.9152125984251969
 20
-3.3523740157480315
 30
0.0
 10
-0.9152125984251969
 20
-3.3523740157480315
 30
0.0
 10
-0.9152125984251969
 20
-3.3523740157480315
 30
0.0
 10
-0.9152125984251969
 20
-3.3523740157480315
 30
0.0
 10
-0.9086299212598425
 20
-3.3439763779527558
 30
0.0
 10
-0.9086299212598425
 20
-3.3439763779527558
 30
0.0
 10
-0.9086299212598425
 20
-3.3439763779527558
 30
0.0
 10
-0.9086299212598425
 20
-3.3439763779527558
 30
0.0
 10
-0.9024527559055119
 20
-3.3353818897637795
 30
0.0
 10
-0.9024527559055119
 20
-3.3353818897637795
 30
0.0
 10
-0.9024527559055119
 20
-3.3353818897637795
 30
0.0
 10
-0.9024527559055119
 20
-3.3353818897637795
 30
0.0
 10
-0.8966771653543307
 20
-3.3265866141732285
 30
0.0
 10
-0.8966771653543307
 20
-3.3265866141732285
 30
0.0
 10
-0.8966771653543307
 20
-3.3265866141732285
 30
0.0
 10
-0.8966771653543307
 20
-3.3265866141732285
 30
0.0
 10
-0.8913070866141732
 20
-3.3176181102362206
 30
0.0
 10
-0.8913070866141732
 20
-3.3176181102362206
 30
0.0
 10
-0.8913070866141732
 20
-3.3176181102362206
 30
0.0
 10
-0.8913070866141732
 20
-3.3176181102362206
 30
0.0
 10
-0.8863464566929135
 20
-3.3084803149606299
 30
0.0
 10
-0.8863464566929135
 20
-3.3084803149606299
 30
0.0
 10
-0.8863464566929135
 20
-3.3084803149606299
 30
0.0
 10
-0.8863464566929135
 20
-3.3084803149606299
 30
0.0
 10
-0.8817913385826772
 20
-3.2991929133858271
 30
0.0
 10
-0.8817913385826772
 20
-3.2991929133858271
 30
0.0
 10
-0.8817913385826772
 20
-3.2991929133858271
 30
0.0
 10
-0.8817913385826772
 20
-3.2991929133858271
 30
0.0
 10
-0.8776338582677166
 20
-3.2897559055118113
 30
0.0
 10
-0.8776338582677166
 20
-3.2897559055118113
 30
0.0
 10
-0.8776338582677166
 20
-3.2897559055118113
 30
0.0
 10
-0.8776338582677166
 20
-3.2897559055118113
 30
0.0
 10
-0.8738858267716536
 20
-3.2802007874015748
 30
0.0
 10
-0.8738858267716536
 20
-3.2802007874015748
 30
0.0
 10
-0.8738858267716536
 20
-3.2802007874015748
 30
0.0
 10
-0.8738858267716536
 20
-3.2802007874015748
 30
0.0
 10
-0.8705433070866142
 20
-3.2705275590551182
 30
0.0
 10
-0.8705433070866142
 20
-3.2705275590551182
 30
0.0
 10
-0.8705433070866142
 20
-3.2705275590551182
 30
0.0
 10
-0.8705433070866142
 20
-3.2705275590551182
 30
0.0
 10
-0.8676062992125985
 20
-3.2607598425196853
 30
0.0
 10
-0.8676062992125985
 20
-3.2607598425196853
 30
0.0
 10
-0.8676062992125985
 20
-3.2607598425196853
 30
0.0
 10
-0.8676062992125985
 20
-3.2607598425196853
 30
0.0
 10
-0.8650669291338583
 20
-3.2509015748031498
 30
0.0
 10
-0.8650669291338583
 20
-3.2509015748031498
 30
0.0
 10
-0.8650669291338583
 20
-3.2509015748031498
 30
0.0
 10
-0.8650669291338583
 20
-3.2509015748031498
 30
0.0
 10
-0.8629370078740157
 20
-3.2409685039370082
 30
0.0
 10
-0.8629370078740157
 20
-3.2409685039370082
 30
0.0
 10
-0.8629370078740157
 20
-3.2409685039370082
 30
0.0
 10
-0.8629370078740157
 20
-3.2409685039370082
 30
0.0
 10
-0.8612125984251969
 20
-3.2309724409448819
 30
0.0
 10
-0.8612125984251969
 20
-3.2309724409448819
 30
0.0
 10
-0.8612125984251969
 20
-3.2309724409448819
 30
0.0
 10
-0.8612125984251969
 20
-3.2309724409448819
 30
0.0
 10
-0.8598937007874016
 20
-3.2209330708661419
 30
0.0
 10
-0.8598937007874016
 20
-3.2209330708661419
 30
0.0
 10
-0.8598937007874016
 20
-3.2209330708661419
 30
0.0
 10
-0.8598937007874016
 20
-3.2209330708661419
 30
0.0
 10
-0.8589724409448819
 20
-3.2108464566929134
 30
0.0
 10
-0.8589724409448819
 20
-3.2108464566929134
 30
0.0
 10
-0.8589724409448819
 20
-3.2108464566929134
 30
0.0
 10
-0.8589724409448819
 20
-3.2108464566929134
 30
0.0
 10
-0.8584566929133859
 20
-3.200748031496063
 30
0.0
 10
-0.8584566929133859
 20
-3.200748031496063
 30
0.0
 10
-0.8584566929133859
 20
-3.200748031496063
 30
0.0
 10
-0.8584566929133859
 20
-3.200748031496063
 30
0.0
 10
-0.8583385826771653
 20
-3.1906338582677165
 30
0.0
 10
-0.8583385826771653
 20
-3.1906338582677165
 30
0.0
 10
-0.8583385826771653
 20
-3.1906338582677165
 30
0.0
 10
-0.8583385826771653
 20
-3.1906338582677165
 30
0.0
 10
-0.8586338582677165
 20
-3.1805314960629922
 30
0.0
 10
-0.8586338582677165
 20
-3.1805314960629922
 30
0.0
 10
-0.8586338582677165
 20
-3.1805314960629922
 30
0.0
 10
-0.8586338582677165
 20
-3.1805314960629922
 30
0.0
 10
-0.8593228346456693
 20
-3.1704409448818898
 30
0.0
 10
-0.8593228346456693
 20
-3.1704409448818898
 30
0.0
 10
-0.8593228346456693
 20
-3.1704409448818898
 30
0.0
 10
-0.8593228346456693
 20
-3.1704409448818898
 30
0.0
 10
-0.8604212598425197
 20
-3.1603818897637797
 30
0.0
 10
-0.8604212598425197
 20
-3.1603818897637797
 30
0.0
 10
-0.8604212598425197
 20
-3.1603818897637797
 30
0.0
 10
-0.8604212598425197
 20
-3.1603818897637797
 30
0.0
 10
-0.8619212598425198
 20
-3.1503661417322837
 30
0.0
 10
-0.8619212598425198
 20
-3.1503661417322837
 30
0.0
 10
-0.8619212598425198
 20
-3.1503661417322837
 30
0.0
 10
-0.8619212598425198
 20
-3.1503661417322837
 30
0.0
 10
-0.8638228346456693
 20
-3.1404094488188976
 30
0.0
 10
-0.8638228346456693
 20
-3.1404094488188976
 30
0.0
 10
-0.8638228346456693
 20
-3.1404094488188976
 30
0.0
 10
-0.8638228346456693
 20
-3.1404094488188976
 30
0.0
 10
-0.8661181102362205
 20
-3.1305157480314962
 30
0.0
 10
-0.8661181102362205
 20
-3.1305157480314962
 30
0.0
 10
-0.8661181102362205
 20
-3.1305157480314962
 30
0.0
 10
-0.8661181102362205
 20
-3.1305157480314962
 30
0.0
 10
-0.8688228346456693
 20
-3.1207086614173232
 30
0.0
 10
-0.8688228346456693
 20
-3.1207086614173232
 30
0.0
 10
-0.8688228346456693
 20
-3.1207086614173232
 30
0.0
 10
-0.8688228346456693
 20
-3.1207086614173232
 30
0.0
 10
-0.8719291338582678
 20
-3.1109921259842519
 30
0.0
 10
-0.8719291338582678
 20
-3.1109921259842519
 30
0.0
 10
-0.8719291338582678
 20
-3.1109921259842519
 30
0.0
 10
-0.8719291338582678
 20
-3.1109921259842519
 30
0.0
 10
-0.8754370078740158
 20
-3.1013937007874017
 30
0.0
 10
-0.8754370078740158
 20
-3.1013937007874017
 30
0.0
 10
-0.8754370078740158
 20
-3.1013937007874017
 30
0.0
 10
-0.8754370078740158
 20
-3.1013937007874017
 30
0.0
 10
-0.8793425196850394
 20
-3.0919094488188978
 30
0.0
 10
-0.8793425196850394
 20
-3.0919094488188978
 30
0.0
 10
-0.8793425196850394
 20
-3.0919094488188978
 30
0.0
 10
-0.8793425196850394
 20
-3.0919094488188978
 30
0.0
 10
-0.8836535433070867
 20
-3.0825629921259843
 30
0.0
 10
-0.8836535433070867
 20
-3.0825629921259843
 30
0.0
 10
-0.8836535433070867
 20
-3.0825629921259843
 30
0.0
 10
-0.8836535433070867
 20
-3.0825629921259843
 30
0.0
 10
-0.8883661417322835
 20
-3.0733661417322837
 30
0.0
 10
-0.8883661417322835
 20
-3.0733661417322837
 30
0.0
 10
-0.8883661417322835
 20
-3.0733661417322837
 30
0.0
 10
-0.8883661417322835
 20
-3.0733661417322837
 30
0.0
 10
-0.89348031496063
 20
-3.0643307086614175
 30
0.0
 10
-0.89348031496063
 20
-3.0643307086614175
 30
0.0
 10
-0.89348031496063
 20
-3.0643307086614175
 30
0.0
 10
-0.89348031496063
 20
-3.0643307086614175
 30
0.0
 10
-1.5388661417322835
 20
-2.677744094488189
 30
0.0
 10
-1.5388661417322835
 20
-2.677744094488189
 30
0.0
 10
-1.5388661417322835
 20
-2.677744094488189
 30
0.0
 10
-1.5388661417322835
 20
-2.677744094488189
 30
0.0
 10
-1.5337519685039371
 20
-2.6867795275590551
 30
0.0
 10
-1.5337519685039371
 20
-2.6867795275590551
 30
0.0
 10
-1.5337519685039371
 20
-2.6867795275590551
 30
0.0
 10
-1.5337519685039371
 20
-2.6867795275590551
 30
0.0
 10
-1.5290393700787401
 20
-2.6959763779527561
 30
0.0
 10
-1.5290393700787401
 20
-2.6959763779527561
 30
0.0
 10
-1.5290393700787401
 20
-2.6959763779527561
 30
0.0
 10
-1.5290393700787401
 20
-2.6959763779527561
 30
0.0
 10
-1.524728346456693
 20
-2.7053228346456692
 30
0.0
 10
-1.524728346456693
 20
-2.7053228346456692
 30
0.0
 10
-1.524728346456693
 20
-2.7053228346456692
 30
0.0
 10
-1.524728346456693
 20
-2.7053228346456692
 30
0.0
 10
-1.5208228346456694
 20
-2.7148070866141731
 30
0.0
 10
-1.5208228346456694
 20
-2.7148070866141731
 30
0.0
 10
-1.5208228346456694
 20
-2.7148070866141731
 30
0.0
 10
-1.5208228346456694
 20
-2.7148070866141731
 30
0.0
 10
-1.5173149606299212
 20
-2.7244055118110238
 30
0.0
 10
-1.5173149606299212
 20
-2.7244055118110238
 30
0.0
 10
-1.5173149606299212
 20
-2.7244055118110238
 30
0.0
 10
-1.5173149606299212
 20
-2.7244055118110238
 30
0.0
 10
-1.5142086614173229
 20
-2.7341220472440946
 30
0.0
 10
-1.5142086614173229
 20
-2.7341220472440946
 30
0.0
 10
-1.5142086614173229
 20
-2.7341220472440946
 30
0.0
 10
-1.5142086614173229
 20
-2.7341220472440946
 30
0.0
 10
-1.511503937007874
 20
-2.7439291338582676
 30
0.0
 10
-1.511503937007874
 20
-2.7439291338582676
 30
0.0
 10
-1.511503937007874
 20
-2.7439291338582676
 30
0.0
 10
-1.511503937007874
 20
-2.7439291338582676
 30
0.0
 10
-1.5092086614173228
 20
-2.7538228346456695
 30
0.0
 10
-1.5092086614173228
 20
-2.7538228346456695
 30
0.0
 10
-1.5092086614173228
 20
-2.7538228346456695
 30
0.0
 10
-1.5092086614173228
 20
-2.7538228346456695
 30
0.0
 10
-1.5073070866141733
 20
-2.7637795275590551
 30
0.0
 10
-1.5073070866141733
 20
-2.7637795275590551
 30
0.0
 10
-1.5073070866141733
 20
-2.7637795275590551
 30
0.0
 10
-1.5073070866141733
 20
-2.7637795275590551
 30
0.0
 10
-1.5058070866141733
 20
-2.7737952755905515
 30
0.0
 10
-1.5058070866141733
 20
-2.7737952755905515
 30
0.0
 10
-1.5058070866141733
 20
-2.7737952755905515
 30
0.0
 10
-1.5058070866141733
 20
-2.7737952755905515
 30
0.0
 10
-1.5047086614173228
 20
-2.7838543307086616
 30
0.0
 10
-1.5047086614173228
 20
-2.7838543307086616
 30
0.0
 10
-1.5047086614173228
 20
-2.7838543307086616
 30
0.0
 10
-1.5047086614173228
 20
-2.7838543307086616
 30
0.0
 10
-1.5040196850393701
 20
-2.7939448818897641
 30
0.0
 10
-1.5040196850393701
 20
-2.7939448818897641
 30
0.0
 10
-1.5040196850393701
 20
-2.7939448818897641
 30
0.0
 10
-1.5040196850393701
 20
-2.7939448818897641
 30
0.0
 10
-1.5037244094488189
 20
-2.8040472440944884
 30
0.0
 10
-1.5037244094488189
 20
-2.8040472440944884
 30
0.0
 10
-1.5037244094488189
 20
-2.8040472440944884
 30
0.0
 10
-1.5037244094488189
 20
-2.8040472440944884
 30
0.0
 10
-1.5038425196850393
 20
-2.8141614173228349
 30
0.0
 10
-1.5038425196850393
 20
-2.8141614173228349
 30
0.0
 10
-1.5038425196850393
 20
-2.8141614173228349
 30
0.0
 10
-1.5038425196850393
 20
-2.8141614173228349
 30
0.0
 10
-1.5043582677165355
 20
-2.8242598425196852
 30
0.0
 10
-1.5043582677165355
 20
-2.8242598425196852
 30
0.0
 10
-1.5043582677165355
 20
-2.8242598425196852
 30
0.0
 10
-1.5043582677165355
 20
-2.8242598425196852
 30
0.0
 10
-1.5052795275590551
 20
-2.8343464566929133
 30
0.0
 10
-1.5052795275590551
 20
-2.8343464566929133
 30
0.0
 10
-1.5052795275590551
 20
-2.8343464566929133
 30
0.0
 10
-1.5052795275590551
 20
-2.8343464566929133
 30
0.0
 10
-1.5065984251968505
 20
-2.8443858267716537
 30
0.0
 10
-1.5065984251968505
 20
-2.8443858267716537
 30
0.0
 10
-1.5065984251968505
 20
-2.8443858267716537
 30
0.0
 10
-1.5065984251968505
 20
-2.8443858267716537
 30
0.0
 10
-1.5083228346456694
 20
-2.8543818897637796
 30
0.0
 10
-1.5083228346456694
 20
-2.8543818897637796
 30
0.0
 10
-1.5083228346456694
 20
-2.8543818897637796
 30
0.0
 10
-1.5083228346456694
 20
-2.8543818897637796
 30
0.0
 10
-1.5104527559055119
 20
-2.8643149606299212
 30
0.0
 10
-1.5104527559055119
 20
-2.8643149606299212
 30
0.0
 10
-1.5104527559055119
 20
-2.8643149606299212
 30
0.0
 10
-1.5104527559055119
 20
-2.8643149606299212
 30
0.0
 10
-1.512992125984252
 20
-2.8741732283464567
 30
0.0
 10
-1.512992125984252
 20
-2.8741732283464567
 30
0.0
 10
-1.512992125984252
 20
-2.8741732283464567
 30
0.0
 10
-1.512992125984252
 20
-2.8741732283464567
 30
0.0
 10
-1.5159291338582677
 20
-2.88394094488189
 30
0.0
 10
-1.5159291338582677
 20
-2.88394094488189
 30
0.0
 10
-1.5159291338582677
 20
-2.88394094488189
 30
0.0
 10
-1.5159291338582677
 20
-2.88394094488189
 30
0.0
 10
-1.5192716535433071
 20
-2.8936141732283467
 30
0.0
 10
-1.5192716535433071
 20
-2.8936141732283467
 30
0.0
 10
-1.5192716535433071
 20
-2.8936141732283467
 30
0.0
 10
-1.5192716535433071
 20
-2.8936141732283467
 30
0.0
 10
-1.5230196850393702
 20
-2.9031692913385827
 30
0.0
 10
-1.5230196850393702
 20
-2.9031692913385827
 30
0.0
 10
-1.5230196850393702
 20
-2.9031692913385827
 30
0.0
 10
-1.5230196850393702
 20
-2.9031692913385827
 30
0.0
 10
-1.5271771653543307
 20
-2.9126062992125985
 30
0.0
 10
-1.5271771653543307
 20
-2.9126062992125985
 30
0.0
 10
-1.5271771653543307
 20
-2.9126062992125985
 30
0.0
 10
-1.5271771653543307
 20
-2.9126062992125985
 30
0.0
 10
-1.531732283464567
 20
-2.9218937007874017
 30
0.0
 10
-1.531732283464567
 20
-2.9218937007874017
 30
0.0
 10
-1.531732283464567
 20
-2.9218937007874017
 30
0.0
 10
-1.531732283464567
 20
-2.9218937007874017
 30
0.0
 10
-1.5366929133858269
 20
-2.9310314960629924
 30
0.0
 10
-1.5366929133858269
 20
-2.9310314960629924
 30
0.0
 10
-1.5366929133858269
 20
-2.9310314960629924
 30
0.0
 10
-1.5366929133858269
 20
-2.9310314960629924
 30
0.0
 10
-1.5420629921259843
 20
-2.9399999999999999
 30
0.0
 10
-1.5420629921259843
 20
-2.9399999999999999
 30
0.0
 10
-1.5420629921259843
 20
-2.9399999999999999
 30
0.0
 10
-1.5420629921259843
 20
-2.9399999999999999
 30
0.0
 10
-1.5478385826771655
 20
-2.9487952755905513
 30
0.0
 10
-1.5478385826771655
 20
-2.9487952755905513
 30
0.0
 10
-1.5478385826771655
 20
-2.9487952755905513
 30
0.0
 10
-1.5478385826771655
 20
-2.9487952755905513
 30
0.0
 10
-1.5540157480314962
 20
-2.9573897637795277
 30
0.0
 10
-1.5540157480314962
 20
-2.9573897637795277
 30
0.0
 10
-1.5540157480314962
 20
-2.9573897637795277
 30
0.0
 10
-1.5540157480314962
 20
-2.9573897637795277
 30
0.0
 10
-1.5605984251968505
 20
-2.9657874015748034
 30
0.0
 10
-1.5605984251968505
 20
-2.9657874015748034
 30
0.0
 10
-1.5605984251968505
 20
-2.9657874015748034
 30
0.0
 10
-1.5605984251968505
 20
-2.9657874015748034
 30
0.0
 10
-1.5675905511811024
 20
-2.97396062992126
 30
0.0
 10
-1.5675905511811024
 20
-2.97396062992126
 30
0.0
 10
-1.5675905511811024
 20
-2.97396062992126
 30
0.0
 10
-1.5675905511811024
 20
-2.97396062992126
 30
0.0
 10
-1.574996062992126
 20
-2.981909448818898
 30
0.0
 10
-1.574996062992126
 20
-2.981909448818898
 30
0.0
 10
-1.574996062992126
 20
-2.981909448818898
 30
0.0
 10
-1.574996062992126
 20
-2.981909448818898
 30
0.0
 10
-1.5793385826771653
 20
-2.9862716535433074
 30
0.0
 10
-1.5793385826771653
 20
-2.9862716535433074
 30
0.0
 10
-1.5793385826771653
 20
-2.9862716535433074
 30
0.0
 10
-1.5793385826771653
 20
-2.9862716535433074
 30
0.0
 10
-1.5837716535433071
 20
-2.9905157480314961
 30
0.0
 10
-1.5837716535433071
 20
-2.9905157480314961
 30
0.0
 10
-1.5837716535433071
 20
-2.9905157480314961
 30
0.0
 10
-1.5837716535433071
 20
-2.9905157480314961
 30
0.0
 10
-1.5882795275590551
 20
-2.9946259842519685
 30
0.0
 10
-1.5882795275590551
 20
-2.9946259842519685
 30
0.0
 10
-1.5882795275590551
 20
-2.9946259842519685
 30
0.0
 10
-1.5882795275590551
 20
-2.9946259842519685
 30
0.0
 10
-1.5928622047244094
 20
-2.9986141732283467
 30
0.0
 10
-1.5928622047244094
 20
-2.9986141732283467
 30
0.0
 10
-1.5928622047244094
 20
-2.9986141732283467
 30
0.0
 10
-1.5928622047244094
 20
-2.9986141732283467
 30
0.0
 10
-1.5975157480314961
 20
-3.002468503937008
 30
0.0
 10
-1.5975157480314961
 20
-3.002468503937008
 30
0.0
 10
-1.5975157480314961
 20
-3.002468503937008
 30
0.0
 10
-1.5975157480314961
 20
-3.002468503937008
 30
0.0
 10
-1.6022401574803151
 20
-3.0061968503937009
 30
0.0
 10
-1.6022401574803151
 20
-3.0061968503937009
 30
0.0
 10
-1.6022401574803151
 20
-3.0061968503937009
 30
0.0
 10
-1.6022401574803151
 20
-3.0061968503937009
 30
0.0
 10
-1.6070314960629921
 20
-3.0097952755905513
 30
0.0
 10
-1.6070314960629921
 20
-3.0097952755905513
 30
0.0
 10
-1.6070314960629921
 20
-3.0097952755905513
 30
0.0
 10
-1.6070314960629921
 20
-3.0097952755905513
 30
0.0
 10
-1.6118976377952756
 20
-3.0132716535433071
 30
0.0
 10
-1.6118976377952756
 20
-3.0132716535433071
 30
0.0
 10
-1.6118976377952756
 20
-3.0132716535433071
 30
0.0
 10
-1.6118976377952756
 20
-3.0132716535433071
 30
0.0
 10
-1.6168149606299214
 20
-3.0166102362204725
 30
0.0
 10
-1.6168149606299214
 20
-3.0166102362204725
 30
0.0
 10
-1.6168149606299214
 20
-3.0166102362204725
 30
0.0
 10
-1.6168149606299214
 20
-3.0166102362204725
 30
0.0
 10
-1.6218031496062992
 20
-3.0198267716535434
 30
0.0
 10
-1.6218031496062992
 20
-3.0198267716535434
 30
0.0
 10
-1.6218031496062992
 20
-3.0198267716535434
 30
0.0
 10
-1.6218031496062992
 20
-3.0198267716535434
 30
0.0
 10
-1.6268464566929135
 20
-3.0229055118110235
 30
0.0
 10
-1.6268464566929135
 20
-3.0229055118110235
 30
0.0
 10
-1.6268464566929135
 20
-3.0229055118110235
 30
0.0
 10
-1.6268464566929135
 20
-3.0229055118110235
 30
0.0
 10
-1.6319488188976379
 20
-3.0258661417322834
 30
0.0
 10
-1.6319488188976379
 20
-3.0258661417322834
 30
0.0
 10
-1.6319488188976379
 20
-3.0258661417322834
 30
0.0
 10
-1.6319488188976379
 20
-3.0258661417322834
 30
0.0
 10
-1.6370984251968506
 20
-3.0286929133858269
 30
0.0
 10
-1.6370984251968506
 20
-3.0286929133858269
 30
0.0
 10
-1.6370984251968506
 20
-3.0286929133858269
 30
0.0
 10
-1.6370984251968506
 20
-3.0286929133858269
 30
0.0
 10
-1.6423031496062992
 20
-3.0313937007874019
 30
0.0
 10
-1.6423031496062992
 20
-3.0313937007874019
 30
0.0
 10
-1.6423031496062992
 20
-3.0313937007874019
 30
0.0
 10
-1.6423031496062992
 20
-3.0313937007874019
 30
0.0
 10
-1.6475590551181103
 20
-3.03396062992126
 30
0.0
 10
-1.6475590551181103
 20
-3.03396062992126
 30
0.0
 10
-1.6475590551181103
 20
-3.03396062992126
 30
0.0
 10
-1.6475590551181103
 20
-3.03396062992126
 30
0.0
 10
-1.6528622047244095
 20
-3.036409448818898
 30
0.0
 10
-1.6528622047244095
 20
-3.036409448818898
 30
0.0
 10
-1.6528622047244095
 20
-3.036409448818898
 30
0.0
 10
-1.6528622047244095
 20
-3.036409448818898
 30
0.0
 10
-1.6582007874015749
 20
-3.0387165354330712
 30
0.0
 10
-1.6582007874015749
 20
-3.0387165354330712
 30
0.0
 10
-1.6582007874015749
 20
-3.0387165354330712
 30
0.0
 10
-1.6582007874015749
 20
-3.0387165354330712
 30
0.0
 10
-1.6635866141732285
 20
-3.0409015748031498
 30
0.0
 10
-1.6635866141732285
 20
-3.0409015748031498
 30
0.0
 10
-1.6635866141732285
 20
-3.0409015748031498
 30
0.0
 10
-1.6635866141732285
 20
-3.0409015748031498
 30
0.0
 10
-1.6690118110236221
 20
-3.0429527559055121
 30
0.0
 10
-1.6690118110236221
 20
-3.0429527559055121
 30
0.0
 10
-1.6690118110236221
 20
-3.0429527559055121
 30
0.0
 10
-1.6690118110236221
 20
-3.0429527559055121
 30
0.0
 10
-1.6744763779527561
 20
-3.0448818897637797
 30
0.0
 10
-1.6744763779527561
 20
-3.0448818897637797
 30
0.0
 10
-1.6744763779527561
 20
-3.0448818897637797
 30
0.0
 10
-1.6744763779527561
 20
-3.0448818897637797
 30
0.0
 10
-1.679972440944882
 20
-3.0466732283464566
 30
0.0
 10
-1.679972440944882
 20
-3.0466732283464566
 30
0.0
 10
-1.679972440944882
 20
-3.0466732283464566
 30
0.0
 10
-1.679972440944882
 20
-3.0466732283464566
 30
0.0
 10
-1.6855039370078742
 20
-3.0483464566929137
 30
0.0
 10
-1.6855039370078742
 20
-3.0483464566929137
 30
0.0
 10
-1.6855039370078742
 20
-3.0483464566929137
 30
0.0
 10
-1.6855039370078742
 20
-3.0483464566929137
 30
0.0
 10
-1.6910629921259843
 20
-3.0498858267716535
 30
0.0
 10
-1.6910629921259843
 20
-3.0498858267716535
 30
0.0
 10
-1.6910629921259843
 20
-3.0498858267716535
 30
0.0
 10
-1.6910629921259843
 20
-3.0498858267716535
 30
0.0
 10
-1.6966535433070866
 20
-3.0512992125984253
 30
0.0
 10
-1.6966535433070866
 20
-3.0512992125984253
 30
0.0
 10
-1.6966535433070866
 20
-3.0512992125984253
 30
0.0
 10
-1.6966535433070866
 20
-3.0512992125984253
 30
0.0
 10
-1.7022598425196851
 20
-3.0525748031496063
 30
0.0
 10
-1.7022598425196851
 20
-3.0525748031496063
 30
0.0
 10
-1.7022598425196851
 20
-3.0525748031496063
 30
0.0
 10
-1.7022598425196851
 20
-3.0525748031496063
 30
0.0
 10
-1.7078937007874015
 20
-3.0537283464566931
 30
0.0
 10
-1.7078937007874015
 20
-3.0537283464566931
 30
0.0
 10
-1.7078937007874015
 20
-3.0537283464566931
 30
0.0
 10
-1.7078937007874015
 20
-3.0537283464566931
 30
0.0
 10
-1.7135472440944883
 20
-3.0547480314960631
 30
0.0
 10
-1.7135472440944883
 20
-3.0547480314960631
 30
0.0
 10
-1.7135472440944883
 20
-3.0547480314960631
 30
0.0
 10
-1.7135472440944883
 20
-3.0547480314960631
 30
0.0
 10
-1.7192244094488189
 20
-3.0556417322834646
 30
0.0
 10
-1.7192244094488189
 20
-3.0556417322834646
 30
0.0
 10
-1.7192244094488189
 20
-3.0556417322834646
 30
0.0
 10
-1.7192244094488189
 20
-3.0556417322834646
 30
0.0
 10
-1.7249094488188976
 20
-3.0564015748031497
 30
0.0
 10
-1.7249094488188976
 20
-3.0564015748031497
 30
0.0
 10
-1.7249094488188976
 20
-3.0564015748031497
 30
0.0
 10
-1.7249094488188976
 20
-3.0564015748031497
 30
0.0
 10
-1.7306141732283464
 20
-3.0570393700787402
 30
0.0
 10
-1.7306141732283464
 20
-3.0570393700787402
 30
0.0
 10
-1.7306141732283464
 20
-3.0570393700787402
 30
0.0
 10
-1.7306141732283464
 20
-3.0570393700787402
 30
0.0
 10
-1.7363267716535433
 20
-3.0575433070866143
 30
0.0
 10
-1.7363267716535433
 20
-3.0575433070866143
 30
0.0
 10
-1.7363267716535433
 20
-3.0575433070866143
 30
0.0
 10
-1.7363267716535433
 20
-3.0575433070866143
 30
0.0
 10
-1.7420551181102364
 20
-3.0579251968503938
 30
0.0
 10
-1.7420551181102364
 20
-3.0579251968503938
 30
0.0
  0
SPLINE
  5
3A
100
AcDbEntity
  8
Additional Graphics
 62
     9
100
AcDbSpline
210
0.0
220
0.0
230
1.0
 70
     1
 71
     3
 72
    20
 73
    16
 74
     0
 42
0.0000000001
 43
0.0000000001
 40
0.0
 40
0.0
 40
0.0
 40
0.0
 40
0.25
 40
0.25
 40
0.25
 40
0.25
 40
0.5
 40
0.5
 40
0.5
 40
0.5
 40
0.75
 40
0.75
 40
0.75
 40
0.75
 40
1.0
 40
1.0
 40
1.0
 40
1.0
 10
-1.5388661417322835
 20
-2.677744094488189
 30
0.0
 10
-1.5388661417322835
 20
-2.677744094488189
 30
0.0
 10
-0.89348031496063
 20
-3.0643307086614175
 30
0.0
 10
-0.89348031496063
 20
-3.0643307086614175
 30
0.0
 10
-0.89348031496063
 20
-3.0643307086614175
 30
0.0
 10
-0.89348031496063
 20
-3.0643307086614175
 30
0.0
 10
-0.9861456692913386
 20
-2.9049409448818899
 30
0.0
 10
-0.9861456692913386
 20
-2.9049409448818899
 30
0.0
 10
-0.9861456692913386
 20
-2.9049409448818899
 30
0.0
 10
-0.9861456692913386
 20
-2.9049409448818899
 30
0.0
 10
-1.6315314960629921
 20
-2.5183543307086613
 30
0.0
 10
-1.6315314960629921
 20
-2.5183543307086613
 30
0.0
 10
-1.6315314960629921
 20
-2.5183543307086613
 30
0.0
 10
-1.6315314960629921
 20
-2.5183543307086613
 30
0.0
 10
-1.5388661417322835
 20
-2.677744094488189
 30
0.0
 10
-1.5388661417322835
 20
-2.677744094488189
 30
0.0
  0
SPLINE
  5
3B
100
AcDbEntity
  8
Additional Graphics
370
     5
100
AcDbSpline
210
0.0
220
0.0
230
1.0
 70
     1
 71
     3
 72
    20
 73
    16
 74
     0
 42
0.0000000001
 43
0.0000000001
 40
0.0
 40
0.0
 40
0.0
 40
0.0
 40
0.25
 40
0.25
 40
0.25
 40
0.25
 40
0.5
 40
0.5
 40
0.5
 40
0.5
 40
0.75
 40
0.75
 40
0.75
 40
0.75
 40
1.0
 40
1.0
 40
1.0
 40
1.0
 10
-1.5388661417322835
 20
-2.677744094488189
 30
0.0
 10
-1.5388661417322835
 20
-2.677744094488189
 30
0.0
 10
-0.89348031496063
 20
-3.0643307086614175
 30
0.0
 10
-0.89348031496063
 20
-3.0643307086614175
 30
0.0
 10
-0.89348031496063
 20
-3.0643307086614175
 30
0.0
 10
-0.89348031496063
 20
-3.0643307086614175
 30
0.0
 10
-0.9861456692913386
 20
-2.9049409448818899
 30
0.0
 10
-0.9861456692913386
 20
-2.9049409448818899
 30
0.0
 10
-0.9861456692913386
 20
-2.9049409448818899
 30
0.0
 10
-0.9861456692913386
 20
-2.9049409448818899
 30
0.0
 10
-1.6315314960629921
 20
-2.5183543307086613
 30
0.0
 10
-1.6315314960629921
 20
-2.5183543307086613
 30
0.0
 10
-1.6315314960629921
 20
-2.5183543307086613
 30
0.0
 10
-1.6315314960629921
 20
-2.5183543307086613
 30
0.0
 10
-1.5388661417322835
 20
-2.677744094488189
 30
0.0
 10
-1.5388661417322835
 20
-2.677744094488189
 30
0.0
  0
SPLINE
  5
3C
100
AcDbEntity
  8
Additional Graphics
 62
     9
100
AcDbSpline
210
0.0
220
0.0
230
1.0
 70
     1
 71
     3
 72
    20
 73
    16
 74
     0
 42
0.0000000001
 43
0.0000000001
 40
0.0
 40
0.0
 40
0.0
 40
0.0
 40
0.25
 40
0.25
 40
0.25
 40
0.25
 40
0.5
 40
0.5
 40
0.5
 40
0.5
 40
0.75
 40
0.75
 40
0.75
 40
0.75
 40
1.0
 40
1.0
 40
1.0
 40
1.0
 10
-1.6315314960629921
 20
-2.5183543307086613
 30
0.0
 10
-1.6315314960629921
 20
-2.5183543307086613
 30
0.0
 10
-0.9861456692913386
 20
-2.9049409448818899
 30
0.0
 10
-0.9861456692913386
 20
-2.9049409448818899
 30
0.0
 10
-0.9861456692913386
 20
-2.9049409448818899
 30
0.0
 10
-0.9861456692913386
 20
-2.9049409448818899
 30
0.0
 10
-0.7560354330708662
 20
-2.8273503937007876
 30
0.0
 10
-0.7560354330708662
 20
-2.8273503937007876
 30
0.0
 10
-0.7560354330708662
 20
-2.8273503937007876
 30
0.0
 10
-0.7560354330708662
 20
-2.8273503937007876
 30
0.0
 10
-1.4014212598425198
 20
-2.440763779527559
 30
0.0
 10
-1.4014212598425198
 20
-2.440763779527559
 30
0.0
 10
-1.4014212598425198
 20
-2.440763779527559
 30
0.0
 10
-1.4014212598425198
 20
-2.440763779527559
 30
0.0
 10
-1.6315314960629921
 20
-2.5183543307086613
 30
0.0
 10
-1.6315314960629921
 20
-2.5183543307086613
 30
0.0
  0
SPLINE
  5
3D
100
AcDbEntity
  8
Additional Graphics
 62
     9
100
AcDbSpline
210
0.0
220
0.0
230
1.0
 70
     1
 71
     3
 72
    20
 73
    16
 74
     0
 42
0.0000000001
 43
0.0000000001
 40
0.0
 40
0.0
 40
0.0
 40
0.0
 40
0.25
 40
0.25
 40
0.25
 40
0.25
 40
0.5
 40
0.5
 40
0.5
 40
0.5
 40
0.75
 40
0.75
 40
0.75
 40
0.75
 40
1.0
 40
1.0
 40
1.0
 40
1.0
 10
-1.4014212598425198
 20
-2.440763779527559
 30
0.0
 10
-1.4014212598425198
 20
-2.440763779527559
 30
0.0
 10
-0.7560354330708662
 20
-2.8273503937007876
 30
0.0
 10
-0.7560354330708662
 20
-2.8273503937007876
 30
0.0
 10
-0.7560354330708662
 20
-2.8273503937007876
 30
0.0
 10
-0.7560354330708662
 20
-2.8273503937007876
 30
0.0
 10
-0.5355
 20
-2.743271653543307
 30
0.0
 10
-0.5355
 20
-2.743271653543307
 30
0.0
 10
-0.5355
 20
-2.743271653543307
 30
0.0
 10
-0.5355
 20
-2.743271653543307
 30
0.0
 10
-1.1808858267716535
 20
-2.3566850393700789
 30
0.0
 10
-1.1808858267716535
 20
-2.3566850393700789
 30
0.0
 10
-1.1808858267716535
 20
-2.3566850393700789
 30
0.0
 10
-1.1808858267716535
 20
-2.3566850393700789
 30
0.0
 10
-1.4014212598425198
 20
-2.440763779527559
 30
0.0
 10
-1.4014212598425198
 20
-2.440763779527559
 30
0.0
  0
SPLINE
  5
3E
100
AcDbEntity
  8
Additional Graphics
 62
     9
100
AcDbSpline
210
0.0
220
0.0
230
1.0
 70
     1
 71
     3
 72
    20
 73
    16
 74
     0
 42
0.0000000001
 43
0.0000000001
 40
0.0
 40
0.0
 40
0.0
 40
0.0
 40
0.25
 40
0.25
 40
0.25
 40
0.25
 40
0.5
 40
0.5
 40
0.5
 40
0.5
 40
0.75
 40
0.75
 40
0.75
 40
0.75
 40
1.0
 40
1.0
 40
1.0
 40
1.0
 10
-1.1808858267716535
 20
-2.3566850393700789
 30
0.0
 10
-1.1808858267716535
 20
-2.3566850393700789
 30
0.0
 10
-0.5355
 20
-2.743271653543307
 30
0.0
 10
-0.5355
 20
-2.743271653543307
 30
0.0
 10
-0.5355
 20
-2.743271653543307
 30
0.0
 10
-0.5355
 20
-2.743271653543307
 30
0.0
 10
-0.3243464566929134
 20
-2.6529921259842522
 30
0.0
 10
-0.3243464566929134
 20
-2.6529921259842522
 30
0.0
 10
-0.3243464566929134
 20
-2.6529921259842522
 30
0.0
 10
-0.3243464566929134
 20
-2.6529921259842522
 30
0.0
 10
-0.969732283464567
 20
-2.2664055118110236
 30
0.0
 10
-0.969732283464567
 20
-2.2664055118110236
 30
0.0
 10
-0.969732283464567
 20
-2.2664055118110236
 30
0.0
 10
-0.969732283464567
 20
-2.2664055118110236
 30
0.0
 10
-1.1808858267716535
 20
-2.3566850393700789
 30
0.0
 10
-1.1808858267716535
 20
-2.3566850393700789
 30
0.0
  0
SPLINE
  5
3F
100
AcDbEntity
  8
Additional Graphics
 62
     9
100
AcDbSpline
210
0.0
220
0.0
230
1.0
 70
     1
 71
     3
 72
    20
 73
    16
 74
     0
 42
0.0000000001
 43
0.0000000001
 40
0.0
 40
0.0
 40
0.0
 40
0.0
 40
0.25
 40
0.25
 40
0.25
 40
0.25
 40
0.5
 40
0.5
 40
0.5
 40
0.5
 40
0.75
 40
0.75
 40
0.75
 40
0.75
 40
1.0
 40
1.0
 40
1.0
 40
1.0
 10
-0.969732283464567
 20
-2.2664055118110236
 30
0.0
 10
-0.969732283464567
 20
-2.2664055118110236
 30
0.0
 10
-0.3243464566929134
 20
-2.6529921259842522
 30
0.0
 10
-0.3243464566929134
 20
-2.6529921259842522
 30
0.0
 10
-0.3243464566929134
 20
-2.6529921259842522
 30
0.0
 10
-0.3243464566929134
 20
-2.6529921259842522
 30
0.0
 10
-0.1223818897637795
 20
-2.5568188976377955
 30
0.0
 10
-0.1223818897637795
 20
-2.5568188976377955
 30
0.0
 10
-0.1223818897637795
 20
-2.5568188976377955
 30
0.0
 10
-0.1223818897637795
 20
-2.5568188976377955
 30
0.0
 10
-0.7677677165354331
 20
-2.1702322834645669
 30
0.0
 10
-0.7677677165354331
 20
-2.1702322834645669
 30
0.0
 10
-0.7677677165354331
 20
-2.1702322834645669
 30
0.0
 10
-0.7677677165354331
 20
-2.1702322834645669
 30
0.0
 10
-0.969732283464567
 20
-2.2664055118110236
 30
0.0
 10
-0.969732283464567
 20
-2.2664055118110236
 30
0.0
  0
SPLINE
  5
40
100
AcDbEntity
  8
Additional Graphics
 62
     9
100
AcDbSpline
210
0.0
220
0.0
230
1.0
 70
     1
 71
     3
 72
    20
 73
    16
 74
     0
 42
0.0000000001
 43
0.0000000001
 40
0.0
 40
0.0
 40
0.0
 40
0.0
 40
0.25
 40
0.25
 40
0.25
 40
0.25
 40
0.5
 40
0.5
 40
0.5
 40
0.5
 40
0.75
 40
0.75
 40
0.75
 40
0.75
 40
1.0
 40
1.0
 40
1.0
 40
1.0
 10
-0.7677677165354331
 20
-2.1702322834645669
 30
0.0
 10
-0.7677677165354331
 20
-2.1702322834645669
 30
0.0
 10
-0.1223818897637795
 20
-2.5568188976377955
 30
0.0
 10
-0.1223818897637795
 20
-2.5568188976377955
 30
0.0
 10
-0.1223818897637795
 20
-2.5568188976377955
 30
0.0
 10
-0.1223818897637795
 20
-2.5568188976377955
 30
0.0
 10
0.0705905511811024
 20
-2.4550393700787403
 30
0.0
 10
0.0705905511811024
 20
-2.4550393700787403
 30
0.0
 10
0.0705905511811024
 20
-2.4550393700787403
 30
0.0
 10
0.0705905511811024
 20
-2.4550393700787403
 30
0.0
 10
-0.5747952755905512
 20
-2.0684527559055117
 30
0.0
 10
-0.5747952755905512
 20
-2.0684527559055117
 30
0.0
 10
-0.5747952755905512
 20
-2.0684527559055117
 30
0.0
 10
-0.5747952755905512
 20
-2.0684527559055117
 30
0.0
 10
-0.7677677165354331
 20
-2.1702322834645669
 30
0.0
 10
-0.7677677165354331
 20
-2.1702322834645669
 30
0.0
  0
SPLINE
  5
41
100
AcDbEntity
  8
Additional Graphics
 62
     9
100
AcDbSpline
210
0.0
220
0.0
230
1.0
 70
     1
 71
     3
 72
    20
 73
    16
 74
     0
 42
0.0000000001
 43
0.0000000001
 40
0.0
 40
0.0
 40
0.0
 40
0.0
 40
0.25
 40
0.25
 40
0.25
 40
0.25
 40
0.5
 40
0.5
 40
0.5
 40
0.5
 40
0.75
 40
0.75
 40
0.75
 40
0.75
 40
1.0
 40
1.0
 40
1.0
 40
1.0
 10
-0.5747952755905512
 20
-2.0684527559055117
 30
0.0
 10
-0.5747952755905512
 20
-2.0684527559055117
 30
0.0
 10
0.0705905511811024
 20
-2.4550393700787403
 30
0.0
 10
0.0705905511811024
 20
-2.4550393700787403
 30
0.0
 10
0.0705905511811024
 20
-2.4550393700787403
 30
0.0
 10
0.0705905511811024
 20
-2.4550393700787403
 30
0.0
 10
0.254748031496063
 20
-2.347968503937008
 30
0.0
 10
0.254748031496063
 20
-2.347968503937008
 30
0.0
 10
0.254748031496063
 20
-2.347968503937008
 30
0.0
 10
0.254748031496063
 20
-2.347968503937008
 30
0.0
 10
-0.3906377952755906
 20
-1.9613818897637796
 30
0.0
 10
-0.3906377952755906
 20
-1.9613818897637796
 30
0.0
 10
-0.3906377952755906
 20
-1.9613818897637796
 30
0.0
 10
-0.3906377952755906
 20
-1.9613818897637796
 30
0.0
 10
-0.5747952755905512
 20
-2.0684527559055117
 30
0.0
 10
-0.5747952755905512
 20
-2.0684527559055117
 30
0.0
  0
SPLINE
  5
42
100
AcDbEntity
  8
Additional Graphics
 62
     9
100
AcDbSpline
210
0.0
220
0.0
230
1.0
 70
     1
 71
     3
 72
    20
 73
    16
 74
     0
 42
0.0000000001
 43
0.0000000001
 40
0.0
 40
0.0
 40
0.0
 40
0.0
 40
0.25
 40
0.25
 40
0.25
 40
0.25
 40
0.5
 40
0.5
 40
0.5
 40
0.5
 40
0.75
 40
0.75
 40
0.75
 40
0.75
 40
1.0
 40
1.0
 40
1.0
 40
1.0
 10
-0.3906377952755906
 20
-1.9613818897637796
 30
0.0
 10
-0.3906377952755906
 20
-1.9613818897637796
 30
0.0
 10
0.254748031496063
 20
-2.347968503937008
 30
0.0
 10
0.254748031496063
 20
-2.347968503937008
 30
0.0
 10
0.254748031496063
 20
-2.347968503937008
 30
0.0
 10
0.254748031496063
 20
-2.347968503937008
 30
0.0
 10
0.4302992125984252
 20
-2.2358976377952757
 30
0.0
 10
0.4302992125984252
 20
-2.2358976377952757
 30
0.0
 10
0.4302992125984252
 20
-2.2358976377952757
 30
0.0
 10
0.4302992125984252
 20
-2.2358976377952757
 30
0.0
 10
-0.2150866141732284
 20
-1.8493110236220474
 30
0.0
 10
-0.2150866141732284
 20
-1.8493110236220474
 30
0.0
 10
-0.2150866141732284
 20
-1.8493110236220474
 30
0.0
 10
-0.2150866141732284
 20
-1.8493110236220474
 30
0.0
 10
-0.3906377952755906
 20
-1.9613818897637796
 30
0.0
 10
-0.3906377952755906
 20
-1.9613818897637796
 30
0.0
  0
SPLINE
  5
43
100
AcDbEntity
  8
Additional Graphics
 62
     9
100
AcDbSpline
210
0.0
220
0.0
230
1.0
 70
     1
 71
     3
 72
    20
 73
    16
 74
     0
 42
0.0000000001
 43
0.0000000001
 40
0.0
 40
0.0
 40
0.0
 40
0.0
 40
0.25
 40
0.25
 40
0.25
 40
0.25
 40
0.5
 40
0.5
 40
0.5
 40
0.5
 40
0.75
 40
0.75
 40
0.75
 40
0.75
 40
1.0
 40
1.0
 40
1.0
 40
1.0
 10
-0.2150866141732284
 20
-1.8493110236220474
 30
0.0
 10
-0.2150866141732284
 20
-1.8493110236220474
 30
0.0
 10
0.4302992125984252
 20
-2.2358976377952757
 30
0.0
 10
0.4302992125984252
 20
-2.2358976377952757
 30
0.0
 10
0.4302992125984252
 20
-2.2358976377952757
 30
0.0
 10
0.4302992125984252
 20
-2.2358976377952757
 30
0.0
 10
0.5974251968503938
 20
-2.1191338582677166
 30
0.0
 10
0.5974251968503938
 20
-2.1191338582677166
 30
0.0
 10
0.5974251968503938
 20
-2.1191338582677166
 30
0.0
 10
0.5974251968503938
 20
-2.1191338582677166
 30
0.0
 10
-0.0479606299212598
 20
-1.7325472440944882
 30
0.0
 10
-0.0479606299212598
 20
-1.7325472440944882
 30
0.0
 10
-0.0479606299212598
 20
-1.7325472440944882
 30
0.0
 10
-0.0479606299212598
 20
-1.7325472440944882
 30
0.0
 10
-0.2150866141732284
 20
-1.8493110236220474
 30
0.0
 10
-0.2150866141732284
 20
-1.8493110236220474
 30
0.0
  0
SPLINE
  5
44
100
AcDbEntity
  8
Additional Graphics
 62
     9
100
AcDbSpline
210
0.0
220
0.0
230
1.0
 70
     1
 71
     3
 72
    20
 73
    16
 74
     0
 42
0.0000000001
 43
0.0000000001
 40
0.0
 40
0.0
 40
0.0
 40
0.0
 40
0.25
 40
0.25
 40
0.25
 40
0.25
 40
0.5
 40
0.5
 40
0.5
 40
0.5
 40
0.75
 40
0.75
 40
0.75
 40
0.75
 40
1.0
 40
1.0
 40
1.0
 40
1.0
 10
-0.0479606299212598
 20
-1.7325472440944882
 30
0.0
 10
-0.0479606299212598
 20
-1.7325472440944882
 30
0.0
 10
0.5974251968503938
 20
-2.1191338582677166
 30
0.0
 10
0.5974251968503938
 20
-2.1191338582677166
 30
0.0
 10
0.5974251968503938
 20
-2.1191338582677166
 30
0.0
 10
0.5974251968503938
 20
-2.1191338582677166
 30
0.0
 10
0.7563188976377953
 20
-1.9979645669291339
 30
0.0
 10
0.7563188976377953
 20
-1.9979645669291339
 30
0.0
 10
0.7563188976377953
 20
-1.9979645669291339
 30
0.0
 10
0.7563188976377953
 20
-1.9979645669291339
 30
0.0
 10
0.1109330708661417
 20
-1.6113779527559056
 30
0.0
 10
0.1109330708661417
 20
-1.6113779527559056
 30
0.0
 10
0.1109330708661417
 20
-1.6113779527559056
 30
0.0
 10
0.1109330708661417
 20
-1.6113779527559056
 30
0.0
 10
-0.0479606299212598
 20
-1.7325472440944882
 30
0.0
 10
-0.0479606299212598
 20
-1.7325472440944882
 30
0.0
  0
SPLINE
  5
45
100
AcDbEntity
  8
Additional Graphics
 62
     9
100
AcDbSpline
210
0.0
220
0.0
230
1.0
 70
     1
 71
     3
 72
    20
 73
    16
 74
     0
 42
0.0000000001
 43
0.0000000001
 40
0.0
 40
0.0
 40
0.0
 40
0.0
 40
0.25
 40
0.25
 40
0.25
 40
0.25
 40
0.5
 40
0.5
 40
0.5
 40
0.5
 40
0.75
 40
0.75
 40
0.75
 40
0.75
 40
1.0
 40
1.0
 40
1.0
 40
1.0
 10
0.1109330708661417
 20
-1.6113779527559056
 30
0.0
 10
0.1109330708661417
 20
-1.6113779527559056
 30
0.0
 10
0.7563188976377953
 20
-1.9979645669291339
 30
0.0
 10
0.7563188976377953
 20
-1.9979645669291339
 30
0.0
 10
0.7563188976377953
 20
-1.9979645669291339
 30
0.0
 10
0.7563188976377953
 20
-1.9979645669291339
 30
0.0
 10
0.9071811023622047
 20
-1.8727007874015749
 30
0.0
 10
0.9071811023622047
 20
-1.8727007874015749
 30
0.0
 10
0.9071811023622047
 20
-1.8727007874015749
 30
0.0
 10
0.9071811023622047
 20
-1.8727007874015749
 30
0.0
 10
0.2617952755905512
 20
-1.4861141732283465
 30
0.0
 10
0.2617952755905512
 20
-1.4861141732283465
 30
0.0
 10
0.2617952755905512
 20
-1.4861141732283465
 30
0.0
 10
0.2617952755905512
 20
-1.4861141732283465
 30
0.0
 10
0.1109330708661417
 20
-1.6113779527559056
 30
0.0
 10
0.1109330708661417
 20
-1.6113779527559056
 30
0.0
  0
SPLINE
  5
46
100
AcDbEntity
  8
Additional Graphics
 62
     9
100
AcDbSpline
210
0.0
220
0.0
230
1.0
 70
     1
 71
     3
 72
    20
 73
    16
 74
     0
 42
0.0000000001
 43
0.0000000001
 40
0.0
 40
0.0
 40
0.0
 40
0.0
 40
0.25
 40
0.25
 40
0.25
 40
0.25
 40
0.5
 40
0.5
 40
0.5
 40
0.5
 40
0.75
 40
0.75
 40
0.75
 40
0.75
 40
1.0
 40
1.0
 40
1.0
 40
1.0
 10
0.2617952755905512
 20
-1.4861141732283465
 30
0.0
 10
0.2617952755905512
 20
-1.4861141732283465
 30
0.0
 10
0.9071811023622047
 20
-1.8727007874015749
 30
0.0
 10
0.9071811023622047
 20
-1.8727007874015749
 30
0.0
 10
0.9071811023622047
 20
-1.8727007874015749
 30
0.0
 10
0.9071811023622047
 20
-1.8727007874015749
 30
0.0
 10
1.0501968503937009
 20
-1.7436377952755906
 30
0.0
 10
1.0501968503937009
 20
-1.7436377952755906
 30
0.0
 10
1.0501968503937009
 20
-1.7436377952755906
 30
0.0
 10
1.0501968503937009
 20
-1.7436377952755906
 30
0.0
 10
0.4048110236220472
 20
-1.3570511811023622
 30
0.0
 10
0.4048110236220472
 20
-1.3570511811023622
 30
0.0
 10
0.4048110236220472
 20
-1.3570511811023622
 30
0.0
 10
0.4048110236220472
 20
-1.3570511811023622
 30
0.0
 10
0.2617952755905512
 20
-1.4861141732283465
 30
0.0
 10
0.2617952755905512
 20
-1.4861141732283465
 30
0.0
  0
SPLINE
  5
47
100
AcDbEntity
  8
Additional Graphics
 62
     9
100
AcDbSpline
210
0.0
220
0.0
230
1.0
 70
     1
 71
     3
 72
    20
 73
    16
 74
     0
 42
0.0000000001
 43
0.0000000001
 40
0.0
 40
0.0
 40
0.0
 40
0.0
 40
0.25
 40
0.25
 40
0.25
 40
0.25
 40
0.5
 40
0.5
 40
0.5
 40
0.5
 40
0.75
 40
0.75
 40
0.75
 40
0.75
 40
1.0
 40
1.0
 40
1.0
 40
1.0
 10
0.4048110236220472
 20
-1.3570511811023622
 30
0.0
 10
0.4048110236220472
 20
-1.3570511811023622
 30
0.0
 10
1.0501968503937009
 20
-1.7436377952755906
 30
0.0
 10
1.0501968503937009
 20
-1.7436377952755906
 30
0.0
 10
1.0501968503937009
 20
-1.7436377952755906
 30
0.0
 10
1.0501968503937009
 20
-1.7436377952755906
 30
0.0
 10
1.1855708661417323
 20
-1.6110866141732285
 30
0.0
 10
1.1855708661417323
 20
-1.6110866141732285
 30
0.0
 10
1.1855708661417323
 20
-1.6110866141732285
 30
0.0
 10
1.1855708661417323
 20
-1.6110866141732285
 30
0.0
 10
0.5401850393700788
 20
-1.2245000000000001
 30
0.0
 10
0.5401850393700788
 20
-1.2245000000000001
 30
0.0
 10
0.5401850393700788
 20
-1.2245000000000001
 30
0.0
 10
0.5401850393700788
 20
-1.2245000000000001
 30
0.0
 10
0.4048110236220472
 20
-1.3570511811023622
 30
0.0
 10
0.4048110236220472
 20
-1.3570511811023622
 30
0.0
  0
SPLINE
  5
48
100
AcDbEntity
  8
Additional Graphics
 62
     9
100
AcDbSpline
210
0.0
220
0.0
230
1.0
 70
     1
 71
     3
 72
    20
 73
    16
 74
     0
 42
0.0000000001
 43
0.0000000001
 40
0.0
 40
0.0
 40
0.0
 40
0.0
 40
0.25
 40
0.25
 40
0.25
 40
0.25
 40
0.5
 40
0.5
 40
0.5
 40
0.5
 40
0.75
 40
0.75
 40
0.75
 40
0.75
 40
1.0
 40
1.0
 40
1.0
 40
1.0
 10
0.5401850393700788
 20
-1.2245000000000001
 30
0.0
 10
0.5401850393700788
 20
-1.2245000000000001
 30
0.0
 10
1.1855708661417323
 20
-1.6110866141732285
 30
0.0
 10
1.1855708661417323
 20
-1.6110866141732285
 30
0.0
 10
1.1855708661417323
 20
-1.6110866141732285
 30
0.0
 10
1.1855708661417323
 20
-1.6110866141732285
 30
0.0
 10
1.3134724409448819
 20
-1.4753267716535434
 30
0.0
 10
1.3134724409448819
 20
-1.4753267716535434
 30
0.0
 10
1.3134724409448819
 20
-1.4753267716535434
 30
0.0
 10
1.3134724409448819
 20
-1.4753267716535434
 30
0.0
 10
0.6680866141732283
 20
-1.0887401574803151
 30
0.0
 10
0.6680866141732283
 20
-1.0887401574803151
 30
0.0
 10
0.6680866141732283
 20
-1.0887401574803151
 30
0.0
 10
0.6680866141732283
 20
-1.0887401574803151
 30
0.0
 10
0.5401850393700788
 20
-1.2245000000000001
 30
0.0
 10
0.5401850393700788
 20
-1.2245000000000001
 30
0.0
  0
SPLINE
  5
49
100
AcDbEntity
  8
Additional Graphics
 62
     9
100
AcDbSpline
210
0.0
220
0.0
230
1.0
 70
     1
 71
     3
 72
    20
 73
    16
 74
     0
 42
0.0000000001
 43
0.0000000001
 40
0.0
 40
0.0
 40
0.0
 40
0.0
 40
0.25
 40
0.25
 40
0.25
 40
0.25
 40
0.5
 40
0.5
 40
0.5
 40
0.5
 40
0.75
 40
0.75
 40
0.75
 40
0.75
 40
1.0
 40
1.0
 40
1.0
 40
1.0
 10
0.6680866141732283
 20
-1.0887401574803151
 30
0.0
 10
0.6680866141732283
 20
-1.0887401574803151
 30
0.0
 10
1.3134724409448819
 20
-1.4753267716535434
 30
0.0
 10
1.3134724409448819
 20
-1.4753267716535434
 30
0.0
 10
1.3134724409448819
 20
-1.4753267716535434
 30
0.0
 10
1.3134724409448819
 20
-1.4753267716535434
 30
0.0
 10
1.4341102362204725
 20
-1.3366811023622047
 30
0.0
 10
1.4341102362204725
 20
-1.3366811023622047
 30
0.0
 10
1.4341102362204725
 20
-1.3366811023622047
 30
0.0
 10
1.4341102362204725
 20
-1.3366811023622047
 30
0.0
 10
0.7887244094488189
 20
-0.9500944881889765
 30
0.0
 10
0.7887244094488189
 20
-0.9500944881889765
 30
0.0
 10
0.7887244094488189
 20
-0.9500944881889765
 30
0.0
 10
0.7887244094488189
 20
-0.9500944881889765
 30
0.0
 10
0.6680866141732283
 20
-1.0887401574803151
 30
0.0
 10
0.6680866141732283
 20
-1.0887401574803151
 30
0.0
  0
SPLINE
  5
4A
100
AcDbEntity
  8
Additional Graphics
 62
     9
100
AcDbSpline
210
0.0
220
0.0
230
1.0
 70
     1
 71
     3
 72
    20
 73
    16
 74
     0
 42
0.0000000001
 43
0.0000000001
 40
0.0
 40
0.0
 40
0.0
 40
0.0
 40
0.25
 40
0.25
 40
0.25
 40
0.25
 40
0.5
 40
0.5
 40
0.5
 40
0.5
 40
0.75
 40
0.75
 40
0.75
 40
0.75
 40
1.0
 40
1.0
 40
1.0
 40
1.0
 10
0.7887244094488189
 20
-0.9500944881889765
 30
0.0
 10
0.7887244094488189
 20
-0.9500944881889765
 30
0.0
 10
1.4341102362204725
 20
-1.3366811023622047
 30
0.0
 10
1.4341102362204725
 20
-1.3366811023622047
 30
0.0
 10
1.4341102362204725
 20
-1.3366811023622047
 30
0.0
 10
1.4341102362204725
 20
-1.3366811023622047
 30
0.0
 10
1.5476732283464567
 20
-1.1954330708661418
 30
0.0
 10
1.5476732283464567
 20
-1.1954330708661418
 30
0.0
 10
1.5476732283464567
 20
-1.1954330708661418
 30
0.0
 10
1.5476732283464567
 20
-1.1954330708661418
 30
0.0
 10
0.9022874015748031
 20
-0.8088464566929134
 30
0.0
 10
0.9022874015748031
 20
-0.8088464566929134
 30
0.0
 10
0.9022874015748031
 20
-0.8088464566929134
 30
0.0
 10
0.9022874015748031
 20
-0.8088464566929134
 30
0.0
 10
0.7887244094488189
 20
-0.9500944881889765
 30
0.0
 10
0.7887244094488189
 20
-0.9500944881889765
 30
0.0
  0
SPLINE
  5
4B
100
AcDbEntity
  8
Additional Graphics
 62
     9
100
AcDbSpline
210
0.0
220
0.0
230
1.0
 70
     1
 71
     3
 72
    20
 73
    16
 74
     0
 42
0.0000000001
 43
0.0000000001
 40
0.0
 40
0.0
 40
0.0
 40
0.0
 40
0.25
 40
0.25
 40
0.25
 40
0.25
 40
0.5
 40
0.5
 40
0.5
 40
0.5
 40
0.75
 40
0.75
 40
0.75
 40
0.75
 40
1.0
 40
1.0
 40
1.0
 40
1.0
 10
0.9022874015748031
 20
-0.8088464566929134
 30
0.0
 10
0.9022874015748031
 20
-0.8088464566929134
 30
0.0
 10
1.5476732283464567
 20
-1.1954330708661418
 30
0.0
 10
1.5476732283464567
 20
-1.1954330708661418
 30
0.0
 10
1.5476732283464567
 20
-1.1954330708661418
 30
0.0
 10
1.5476732283464567
 20
-1.1954330708661418
 30
0.0
 10
1.6543543307086614
 20
-1.0518937007874016
 30
0.0
 10
1.6543543307086614
 20
-1.0518937007874016
 30
0.0
 10
1.6543543307086614
 20
-1.0518937007874016
 30
0.0
 10
1.6543543307086614
 20
-1.0518937007874016
 30
0.0
 10
1.008968503937008
 20
-0.6653070866141733
 30
0.0
 10
1.008968503937008
 20
-0.6653070866141733
 30
0.0
 10
1.008968503937008
 20
-0.6653070866141733
 30
0.0
 10
1.008968503937008
 20
-0.6653070866141733
 30
0.0
 10
0.9022874015748031
 20
-0.8088464566929134
 30
0.0
 10
0.9022874015748031
 20
-0.8088464566929134
 30
0.0
  0
SPLINE
  5
4C
100
AcDbEntity
  8
Additional Graphics
 62
     9
100
AcDbSpline
210
0.0
220
0.0
230
1.0
 70
     1
 71
     3
 72
    20
 73
    16
 74
     0
 42
0.0000000001
 43
0.0000000001
 40
0.0
 40
0.0
 40
0.0
 40
0.0
 40
0.25
 40
0.25
 40
0.25
 40
0.25
 40
0.5
 40
0.5
 40
0.5
 40
0.5
 40
0.75
 40
0.75
 40
0.75
 40
0.75
 40
1.0
 40
1.0
 40
1.0
 40
1.0
 10
1.008968503937008
 20
-0.6653070866141733
 30
0.0
 10
1.008968503937008
 20
-0.6653070866141733
 30
0.0
 10
1.6543543307086614
 20
-1.0518937007874016
 30
0.0
 10
1.6543543307086614
 20
-1.0518937007874016
 30
0.0
 10
1.6543543307086614
 20
-1.0518937007874016
 30
0.0
 10
1.6543543307086614
 20
-1.0518937007874016
 30
0.0
 10
1.7543307086614175
 20
-0.9063464566929135
 30
0.0
 10
1.7543307086614175
 20
-0.9063464566929135
 30
0.0
 10
1.7543307086614175
 20
-0.9063464566929135
 30
0.0
 10
1.7543307086614175
 20
-0.9063464566929135
 30
0.0
 10
1.1089448818897638
 20
-0.5197598425196851
 30
0.0
 10
1.1089448818897638
 20
-0.5197598425196851
 30
0.0
 10
1.1089448818897638
 20
-0.5197598425196851
 30
0.0
 10
1.1089448818897638
 20
-0.5197598425196851
 30
0.0
 10
1.008968503937008
 20
-0.6653070866141733
 30
0.0
 10
1.008968503937008
 20
-0.6653070866141733
 30
0.0
  0
SPLINE
  5
4D
100
AcDbEntity
  8
Additional Graphics
 62
     9
100
AcDbSpline
210
0.0
220
0.0
230
1.0
 70
     1
 71
     3
 72
    20
 73
    16
 74
     0
 42
0.0000000001
 43
0.0000000001
 40
0.0
 40
0.0
 40
0.0
 40
0.0
 40
0.25
 40
0.25
 40
0.25
 40
0.25
 40
0.5
 40
0.5
 40
0.5
 40
0.5
 40
0.75
 40
0.75
 40
0.75
 40
0.75
 40
1.0
 40
1.0
 40
1.0
 40
1.0
 10
1.1089448818897638
 20
-0.5197598425196851
 30
0.0
 10
1.1089448818897638
 20
-0.5197598425196851
 30
0.0
 10
1.7543307086614175
 20
-0.9063464566929135
 30
0.0
 10
1.7543307086614175
 20
-0.9063464566929135
 30
0.0
 10
1.7543307086614175
 20
-0.9063464566929135
 30
0.0
 10
1.7543307086614175
 20
-0.9063464566929135
 30
0.0
 10
1.8478149606299212
 20
-0.7591102362204725
 30
0.0
 10
1.8478149606299212
 20
-0.7591102362204725
 30
0.0
 10
1.8478149606299212
 20
-0.7591102362204725
 30
0.0
 10
1.8478149606299212
 20
-0.7591102362204725
 30
0.0
 10
1.2024291338582678
 20
-0.3725236220472441
 30
0.0
 10
1.2024291338582678
 20
-0.3725236220472441
 30
0.0
 10
1.2024291338582678
 20
-0.3725236220472441
 30
0.0
 10
1.2024291338582678
 20
-0.3725236220472441
 30
0.0
 10
1.1089448818897638
 20
-0.5197598425196851
 30
0.0
 10
1.1089448818897638
 20
-0.5197598425196851
 30
0.0
  0
SPLINE
  5
4E
100
AcDbEntity
  8
Additional Graphics
 62
     9
100
AcDbSpline
210
0.0
220
0.0
230
1.0
 70
     1
 71
     3
 72
    20
 73
    16
 74
     0
 42
0.0000000001
 43
0.0000000001
 40
0.0
 40
0.0
 40
0.0
 40
0.0
 40
0.25
 40
0.25
 40
0.25
 40
0.25
 40
0.5
 40
0.5
 40
0.5
 40
0.5
 40
0.75
 40
0.75
 40
0.75
 40
0.75
 40
1.0
 40
1.0
 40
1.0
 40
1.0
 10
1.2024291338582678
 20
-0.3725236220472441
 30
0.0
 10
1.2024291338582678
 20
-0.3725236220472441
 30
0.0
 10
1.8478149606299212
 20
-0.7591102362204725
 30
0.0
 10
1.8478149606299212
 20
-0.7591102362204725
 30
0.0
 10
1.8478149606299212
 20
-0.7591102362204725
 30
0.0
 10
1.8478149606299212
 20
-0.7591102362204725
 30
0.0
 10
1.934988188976378
 20
-0.6104763779527559
 30
0.0
 10
1.934988188976378
 20
-0.6104763779527559
 30
0.0
 10
1.934988188976378
 20
-0.6104763779527559
 30
0.0
 10
1.934988188976378
 20
-0.6104763779527559
 30
0.0
 10
1.2896023622047244
 20
-0.2238897637795276
 30
0.0
 10
1.2896023622047244
 20
-0.2238897637795276
 30
0.0
 10
1.2896023622047244
 20
-0.2238897637795276
 30
0.0
 10
1.2896023622047244
 20
-0.2238897637795276
 30
0.0
 10
1.2024291338582678
 20
-0.3725236220472441
 30
0.0
 10
1.2024291338582678
 20
-0.3725236220472441
 30
0.0
  0
SPLINE
  5
4F
100
AcDbEntity
  8
Additional Graphics
 62
     9
100
AcDbSpline
210
0.0
220
0.0
230
1.0
 70
     1
 71
     3
 72
    20
 73
    16
 74
     0
 42
0.0000000001
 43
0.0000000001
 40
0.0
 40
0.0
 40
0.0
 40
0.0
 40
0.25
 40
0.25
 40
0.25
 40
0.25
 40
0.5
 40
0.5
 40
0.5
 40
0.5
 40
0.75
 40
0.75
 40
0.75
 40
0.75
 40
1.0
 40
1.0
 40
1.0
 40
1.0
 10
1.2896023622047244
 20
-0.2238897637795276
 30
0.0
 10
1.2896023622047244
 20
-0.2238897637795276
 30
0.0
 10
1.934988188976378
 20
-0.6104763779527559
 30
0.0
 10
1.934988188976378
 20
-0.6104763779527559
 30
0.0
 10
1.934988188976378
 20
-0.6104763779527559
 30
0.0
 10
1.934988188976378
 20
-0.6104763779527559
 30
0.0
 10
2.0160472440944881
 20
-0.460751968503937
 30
0.0
 10
2.0160472440944881
 20
-0.460751968503937
 30
0.0
 10
2.0160472440944881
 20
-0.460751968503937
 30
0.0
 10
2.0160472440944881
 20
-0.460751968503937
 30
0.0
 10
1.3706614173228346
 20
-0.0741653543307087
 30
0.0
 10
1.3706614173228346
 20
-0.0741653543307087
 30
0.0
 10
1.3706614173228346
 20
-0.0741653543307087
 30
0.0
 10
1.3706614173228346
 20
-0.0741653543307087
 30
0.0
 10
1.2896023622047244
 20
-0.2238897637795276
 30
0.0
 10
1.2896023622047244
 20
-0.2238897637795276
 30
0.0
  0
SPLINE
  5
50
100
AcDbEntity
  8
Additional Graphics
 62
     9
100
AcDbSpline
210
0.0
220
0.0
230
1.0
 70
     1
 71
     3
 72
    20
 73
    16
 74
     0
 42
0.0000000001
 43
0.0000000001
 40
0.0
 40
0.0
 40
0.0
 40
0.0
 40
0.25
 40
0.25
 40
0.25
 40
0.25
 40
0.5
 40
0.5
 40
0.5
 40
0.5
 40
0.75
 40
0.75
 40
0.75
 40
0.75
 40
1.0
 40
1.0
 40
1.0
 40
1.0
 10
1.3706614173228346
 20
-0.0741653543307087
 30
0.0
 10
1.3706614173228346
 20
-0.0741653543307087
 30
0.0
 10
2.0160472440944881
 20
-0.460751968503937
 30
0.0
 10
2.0160472440944881
 20
-0.460751968503937
 30
0.0
 10
2.0160472440944881
 20
-0.460751968503937
 30
0.0
 10
2.0160472440944881
 20
-0.460751968503937
 30
0.0
 10
2.0911771653543307
 20
-0.3102322834645669
 30
0.0
 10
2.0911771653543307
 20
-0.3102322834645669
 30
0.0
 10
2.0911771653543307
 20
-0.3102322834645669
 30
0.0
 10
2.0911771653543307
 20
-0.3102322834645669
 30
0.0
 10
1.4457913385826773
 20
0.0763543307086614
 30
0.0
 10
1.4457913385826773
 20
0.0763543307086614
 30
0.0
 10
1.4457913385826773
 20
0.0763543307086614
 30
0.0
 10
1.4457913385826773
 20
0.0763543307086614
 30
0.0
 10
1.3706614173228346
 20
-0.0741653543307087
 30
0.0
 10
1.3706614173228346
 20
-0.0741653543307087
 30
0.0
  0
SPLINE
  5
51
100
AcDbEntity
  8
Additional Graphics
 62
     9
100
AcDbSpline
210
0.0
220
0.0
230
1.0
 70
     1
 71
     3
 72
    20
 73
    16
 74
     0
 42
0.0000000001
 43
0.0000000001
 40
0.0
 40
0.0
 40
0.0
 40
0.0
 40
0.25
 40
0.25
 40
0.25
 40
0.25
 40
0.5
 40
0.5
 40
0.5
 40
0.5
 40
0.75
 40
0.75
 40
0.75
 40
0.75
 40
1.0
 40
1.0
 40
1.0
 40
1.0
 10
1.4457913385826773
 20
0.0763543307086614
 30
0.0
 10
1.4457913385826773
 20
0.0763543307086614
 30
0.0
 10
2.0911771653543307
 20
-0.3102322834645669
 30
0.0
 10
2.0911771653543307
 20
-0.3102322834645669
 30
0.0
 10
2.0911771653543307
 20
-0.3102322834645669
 30
0.0
 10
2.0911771653543307
 20
-0.3102322834645669
 30
0.0
 10
2.1605787401574803
 20
-0.1592086614173228
 30
0.0
 10
2.1605787401574803
 20
-0.1592086614173228
 30
0.0
 10
2.1605787401574803
 20
-0.1592086614173228
 30
0.0
 10
2.1605787401574803
 20
-0.1592086614173228
 30
0.0
 10
1.5151929133858268
 20
0.2273779527559055
 30
0.0
 10
1.5151929133858268
 20
0.2273779527559055
 30
0.0
 10
1.5151929133858268
 20
0.2273779527559055
 30
0.0
 10
1.5151929133858268
 20
0.2273779527559055
 30
0.0
 10
1.4457913385826773
 20
0.0763543307086614
 30
0.0
 10
1.4457913385826773
 20
0.0763543307086614
 30
0.0
  0
SPLINE
  5
52
100
AcDbEntity
  8
Additional Graphics
 62
     9
100
AcDbSpline
210
0.0
220
0.0
230
1.0
 70
     1
 71
     3
 72
    20
 73
    16
 74
     0
 42
0.0000000001
 43
0.0000000001
 40
0.0
 40
0.0
 40
0.0
 40
0.0
 40
0.25
 40
0.25
 40
0.25
 40
0.25
 40
0.5
 40
0.5
 40
0.5
 40
0.5
 40
0.75
 40
0.75
 40
0.75
 40
0.75
 40
1.0
 40
1.0
 40
1.0
 40
1.0
 10
1.5151929133858268
 20
0.2273779527559055
 30
0.0
 10
1.5151929133858268
 20
0.2273779527559055
 30
0.0
 10
2.1605787401574803
 20
-0.1592086614173228
 30
0.0
 10
2.1605787401574803
 20
-0.1592086614173228
 30
0.0
 10
2.1605787401574803
 20
-0.1592086614173228
 30
0.0
 10
2.1605787401574803
 20
-0.1592086614173228
 30
0.0
 10
2.2244330708661417
 20
-0.007992125984252
 30
0.0
 10
2.2244330708661417
 20
-0.007992125984252
 30
0.0
 10
2.2244330708661417
 20
-0.007992125984252
 30
0.0
 10
2.2244330708661417
 20
-0.007992125984252
 30
0.0
 10
1.5790472440944883
 20
0.3785944881889764
 30
0.0
 10
1.5790472440944883
 20
0.3785944881889764
 30
0.0
 10
1.5790472440944883
 20
0.3785944881889764
 30
0.0
 10
1.5790472440944883
 20
0.3785944881889764
 30
0.0
 10
1.5151929133858268
 20
0.2273779527559055
 30
0.0
 10
1.5151929133858268
 20
0.2273779527559055
 30
0.0
  0
SPLINE
  5
53
100
AcDbEntity
  8
Additional Graphics
 62
     9
100
AcDbSpline
210
0.0
220
0.0
230
1.0
 70
     1
 71
     3
 72
    20
 73
    16
 74
     0
 42
0.0000000001
 43
0.0000000001
 40
0.0
 40
0.0
 40
0.0
 40
0.0
 40
0.25
 40
0.25
 40
0.25
 40
0.25
 40
0.5
 40
0.5
 40
0.5
 40
0.5
 40
0.75
 40
0.75
 40
0.75
 40
0.75
 40
1.0
 40
1.0
 40
1.0
 40
1.0
 10
1.5790472440944883
 20
0.3785944881889764
 30
0.0
 10
1.5790472440944883
 20
0.3785944881889764
 30
0.0
 10
2.2244330708661417
 20
-0.007992125984252
 30
0.0
 10
2.2244330708661417
 20
-0.007992125984252
 30
0.0
 10
2.2244330708661417
 20
-0.007992125984252
 30
0.0
 10
2.2244330708661417
 20
-0.007992125984252
 30
0.0
 10
2.2829488188976379
 20
0.1431259842519685
 30
0.0
 10
2.2829488188976379
 20
0.1431259842519685
 30
0.0
 10
2.2829488188976379
 20
0.1431259842519685
 30
0.0
 10
2.2829488188976379
 20
0.1431259842519685
 30
0.0
 10
1.6375629921259842
 20
0.5297125984251969
 30
0.0
 10
1.6375629921259842
 20
0.5297125984251969
 30
0.0
 10
1.6375629921259842
 20
0.5297125984251969
 30
0.0
 10
1.6375629921259842
 20
0.5297125984251969
 30
0.0
 10
1.5790472440944883
 20
0.3785944881889764
 30
0.0
 10
1.5790472440944883
 20
0.3785944881889764
 30
0.0
  0
SPLINE
  5
54
100
AcDbEntity
  8
Additional Graphics
 62
     9
100
AcDbSpline
210
0.0
220
0.0
230
1.0
 70
     1
 71
     3
 72
    20
 73
    16
 74
     0
 42
0.0000000001
 43
0.0000000001
 40
0.0
 40
0.0
 40
0.0
 40
0.0
 40
0.25
 40
0.25
 40
0.25
 40
0.25
 40
0.5
 40
0.5
 40
0.5
 40
0.5
 40
0.75
 40
0.75
 40
0.75
 40
0.75
 40
1.0
 40
1.0
 40
1.0
 40
1.0
 10
1.6375629921259842
 20
0.5297125984251969
 30
0.0
 10
1.6375629921259842
 20
0.5297125984251969
 30
0.0
 10
2.2829488188976379
 20
0.1431259842519685
 30
0.0
 10
2.2829488188976379
 20
0.1431259842519685
 30
0.0
 10
2.2829488188976379
 20
0.1431259842519685
 30
0.0
 10
2.2829488188976379
 20
0.1431259842519685
 30
0.0
 10
2.3362952755905511
 20
0.2938307086614174
 30
0.0
 10
2.3362952755905511
 20
0.2938307086614174
 30
0.0
 10
2.3362952755905511
 20
0.2938307086614174
 30
0.0
 10
2.3362952755905511
 20
0.2938307086614174
 30
0.0
 10
1.6909094488188976
 20
0.6804173228346457
 30
0.0
 10
1.6909094488188976
 20
0.6804173228346457
 30
0.0
 10
1.6909094488188976
 20
0.6804173228346457
 30
0.0
 10
1.6909094488188976
 20
0.6804173228346457
 30
0.0
 10
1.6375629921259842
 20
0.5297125984251969
 30
0.0
 10
1.6375629921259842
 20
0.5297125984251969
 30
0.0
  0
SPLINE
  5
55
100
AcDbEntity
  8
Additional Graphics
 62
     9
100
AcDbSpline
210
0.0
220
0.0
230
1.0
 70
     1
 71
     3
 72
    20
 73
    16
 74
     0
 42
0.0000000001
 43
0.0000000001
 40
0.0
 40
0.0
 40
0.0
 40
0.0
 40
0.25
 40
0.25
 40
0.25
 40
0.25
 40
0.5
 40
0.5
 40
0.5
 40
0.5
 40
0.75
 40
0.75
 40
0.75
 40
0.75
 40
1.0
 40
1.0
 40
1.0
 40
1.0
 10
1.6909094488188976
 20
0.6804173228346457
 30
0.0
 10
1.6909094488188976
 20
0.6804173228346457
 30
0.0
 10
2.3362952755905511
 20
0.2938307086614174
 30
0.0
 10
2.3362952755905511
 20
0.2938307086614174
 30
0.0
 10
2.3362952755905511
 20
0.2938307086614174
 30
0.0
 10
2.3362952755905511
 20
0.2938307086614174
 30
0.0
 10
2.3846850393700789
 20
0.4438385826771654
 30
0.0
 10
2.3846850393700789
 20
0.4438385826771654
 30
0.0
 10
2.3846850393700789
 20
0.4438385826771654
 30
0.0
 10
2.3846850393700789
 20
0.4438385826771654
 30
0.0
 10
1.7392992125984252
 20
0.8304251968503937
 30
0.0
 10
1.7392992125984252
 20
0.8304251968503937
 30
0.0
 10
1.7392992125984252
 20
0.8304251968503937
 30
0.0
 10
1.7392992125984252
 20
0.8304251968503937
 30
0.0
 10
1.6909094488188976
 20
0.6804173228346457
 30
0.0
 10
1.6909094488188976
 20
0.6804173228346457
 30
0.0
  0
SPLINE
  5
56
100
AcDbEntity
  8
Additional Graphics
 62
     9
100
AcDbSpline
210
0.0
220
0.0
230
1.0
 70
     1
 71
     3
 72
    20
 73
    16
 74
     0
 42
0.0000000001
 43
0.0000000001
 40
0.0
 40
0.0
 40
0.0
 40
0.0
 40
0.25
 40
0.25
 40
0.25
 40
0.25
 40
0.5
 40
0.5
 40
0.5
 40
0.5
 40
0.75
 40
0.75
 40
0.75
 40
0.75
 40
1.0
 40
1.0
 40
1.0
 40
1.0
 10
1.7392992125984252
 20
0.8304251968503937
 30
0.0
 10
1.7392992125984252
 20
0.8304251968503937
 30
0.0
 10
2.3846850393700789
 20
0.4438385826771654
 30
0.0
 10
2.3846850393700789
 20
0.4438385826771654
 30
0.0
 10
2.3846850393700789
 20
0.4438385826771654
 30
0.0
 10
2.3846850393700789
 20
0.4438385826771654
 30
0.0
 10
2.4282992125984251
 20
0.5928385826771654
 30
0.0
 10
2.4282992125984251
 20
0.5928385826771654
 30
0.0
 10
2.4282992125984251
 20
0.5928385826771654
 30
0.0
 10
2.4282992125984251
 20
0.5928385826771654
 30
0.0
 10
1.7829133858267716
 20
0.9794251968503938
 30
0.0
 10
1.7829133858267716
 20
0.9794251968503938
 30
0.0
 10
1.7829133858267716
 20
0.9794251968503938
 30
0.0
 10
1.7829133858267716
 20
0.9794251968503938
 30
0.0
 10
1.7392992125984252
 20
0.8304251968503937
 30
0.0
 10
1.7392992125984252
 20
0.8304251968503937
 30
0.0
  0
SPLINE
  5
57
100
AcDbEntity
  8
Additional Graphics
 62
     9
100
AcDbSpline
210
0.0
220
0.0
230
1.0
 70
     1
 71
     3
 72
    20
 73
    16
 74
     0
 42
0.0000000001
 43
0.0000000001
 40
0.0
 40
0.0
 40
0.0
 40
0.0
 40
0.25
 40
0.25
 40
0.25
 40
0.25
 40
0.5
 40
0.5
 40
0.5
 40
0.5
 40
0.75
 40
0.75
 40
0.75
 40
0.75
 40
1.0
 40
1.0
 40
1.0
 40
1.0
 10
1.7829133858267716
 20
0.9794251968503938
 30
0.0
 10
1.7829133858267716
 20
0.9794251968503938
 30
0.0
 10
2.4282992125984251
 20
0.5928385826771654
 30
0.0
 10
2.4282992125984251
 20
0.5928385826771654
 30
0.0
 10
2.4282992125984251
 20
0.5928385826771654
 30
0.0
 10
2.4282992125984251
 20
0.5928385826771654
 30
0.0
 10
2.4673346456692915
 20
0.7405433070866142
 30
0.0
 10
2.4673346456692915
 20
0.7405433070866142
 30
0.0
 10
2.4673346456692915
 20
0.7405433070866142
 30
0.0
 10
2.4673346456692915
 20
0.7405433070866142
 30
0.0
 10
1.8219488188976378
 20
1.1271299212598425
 30
0.0
 10
1.8219488188976378
 20
1.1271299212598425
 30
0.0
 10
1.8219488188976378
 20
1.1271299212598425
 30
0.0
 10
1.8219488188976378
 20
1.1271299212598425
 30
0.0
 10
1.7829133858267716
 20
0.9794251968503938
 30
0.0
 10
1.7829133858267716
 20
0.9794251968503938
 30
0.0
  0
SPLINE
  5
58
100
AcDbEntity
  8
Additional Graphics
 62
     9
100
AcDbSpline
210
0.0
220
0.0
230
1.0
 70
     1
 71
     3
 72
    20
 73
    16
 74
     0
 42
0.0000000001
 43
0.0000000001
 40
0.0
 40
0.0
 40
0.0
 40
0.0
 40
0.25
 40
0.25
 40
0.25
 40
0.25
 40
0.5
 40
0.5
 40
0.5
 40
0.5
 40
0.75
 40
0.75
 40
0.75
 40
0.75
 40
1.0
 40
1.0
 40
1.0
 40
1.0
 10
1.8219488188976378
 20
1.1271299212598425
 30
0.0
 10
1.8219488188976378
 20
1.1271299212598425
 30
0.0
 10
2.4673346456692915
 20
0.7405433070866142
 30
0.0
 10
2.4673346456692915
 20
0.7405433070866142
 30
0.0
 10
2.4673346456692915
 20
0.7405433070866142
 30
0.0
 10
2.4673346456692915
 20
0.7405433070866142
 30
0.0
 10
2.5019724409448818
 20
0.8866338582677166
 30
0.0
 10
2.5019724409448818
 20
0.8866338582677166
 30
0.0
 10
2.5019724409448818
 20
0.8866338582677166
 30
0.0
 10
2.5019724409448818
 20
0.8866338582677166
 30
0.0
 10
1.8565866141732283
 20
1.2732204724409448
 30
0.0
 10
1.8565866141732283
 20
1.2732204724409448
 30
0.0
 10
1.8565866141732283
 20
1.2732204724409448
 30
0.0
 10
1.8565866141732283
 20
1.2732204724409448
 30
0.0
 10
1.8219488188976378
 20
1.1271299212598425
 30
0.0
 10
1.8219488188976378
 20
1.1271299212598425
 30
0.0
  0
SPLINE
  5
59
100
AcDbEntity
  8
Additional Graphics
 62
     9
100
AcDbSpline
210
0.0
220
0.0
230
1.0
 70
     1
 71
     3
 72
    20
 73
    16
 74
     0
 42
0.0000000001
 43
0.0000000001
 40
0.0
 40
0.0
 40
0.0
 40
0.0
 40
0.25
 40
0.25
 40
0.25
 40
0.25
 40
0.5
 40
0.5
 40
0.5
 40
0.5
 40
0.75
 40
0.75
 40
0.75
 40
0.75
 40
1.0
 40
1.0
 40
1.0
 40
1.0
 10
1.8565866141732283
 20
1.2732204724409448
 30
0.0
 10
1.8565866141732283
 20
1.2732204724409448
 30
0.0
 10
2.5019724409448818
 20
0.8866338582677166
 30
0.0
 10
2.5019724409448818
 20
0.8866338582677166
 30
0.0
 10
2.5019724409448818
 20
0.8866338582677166
 30
0.0
 10
2.5019724409448818
 20
0.8866338582677166
 30
0.0
 10
2.5324212598425198
 20
1.0308267716535433
 30
0.0
 10
2.5324212598425198
 20
1.0308267716535433
 30
0.0
 10
2.5324212598425198
 20
1.0308267716535433
 30
0.0
 10
2.5324212598425198
 20
1.0308267716535433
 30
0.0
 10
1.8870354330708663
 20
1.4174133858267717
 30
0.0
 10
1.8870354330708663
 20
1.4174133858267717
 30
0.0
 10
1.8870354330708663
 20
1.4174133858267717
 30
0.0
 10
1.8870354330708663
 20
1.4174133858267717
 30
0.0
 10
1.8565866141732283
 20
1.2732204724409448
 30
0.0
 10
1.8565866141732283
 20
1.2732204724409448
 30
0.0
  0
SPLINE
  5
5A
100
AcDbEntity
  8
Additional Graphics
 62
     9
100
AcDbSpline
210
0.0
220
0.0
230
1.0
 70
     1
 71
     3
 72
    20
 73
    16
 74
     0
 42
0.0000000001
 43
0.0000000001
 40
0.0
 40
0.0
 40
0.0
 40
0.0
 40
0.25
 40
0.25
 40
0.25
 40
0.25
 40
0.5
 40
0.5
 40
0.5
 40
0.5
 40
0.75
 40
0.75
 40
0.75
 40
0.75
 40
1.0
 40
1.0
 40
1.0
 40
1.0
 10
1.8870354330708663
 20
1.4174133858267717
 30
0.0
 10
1.8870354330708663
 20
1.4174133858267717
 30
0.0
 10
2.5324212598425198
 20
1.0308267716535433
 30
0.0
 10
2.5324212598425198
 20
1.0308267716535433
 30
0.0
 10
2.5324212598425198
 20
1.0308267716535433
 30
0.0
 10
2.5324212598425198
 20
1.0308267716535433
 30
0.0
 10
2.5588661417322838
 20
1.1728110236220473
 30
0.0
 10
2.5588661417322838
 20
1.1728110236220473
 30
0.0
 10
2.5588661417322838
 20
1.1728110236220473
 30
0.0
 10
2.5588661417322838
 20
1.1728110236220473
 30
0.0
 10
1.9134803149606301
 20
1.5593976377952756
 30
0.0
 10
1.9134803149606301
 20
1.5593976377952756
 30
0.0
 10
1.9134803149606301
 20
1.5593976377952756
 30
0.0
 10
1.9134803149606301
 20
1.5593976377952756
 30
0.0
 10
1.8870354330708663
 20
1.4174133858267717
 30
0.0
 10
1.8870354330708663
 20
1.4174133858267717
 30
0.0
  0
SPLINE
  5
5B
100
AcDbEntity
  8
Additional Graphics
 62
     9
100
AcDbSpline
210
0.0
220
0.0
230
1.0
 70
     1
 71
     3
 72
    20
 73
    16
 74
     0
 42
0.0000000001
 43
0.0000000001
 40
0.0
 40
0.0
 40
0.0
 40
0.0
 40
0.25
 40
0.25
 40
0.25
 40
0.25
 40
0.5
 40
0.5
 40
0.5
 40
0.5
 40
0.75
 40
0.75
 40
0.75
 40
0.75
 40
1.0
 40
1.0
 40
1.0
 40
1.0
 10
1.9134803149606301
 20
1.5593976377952756
 30
0.0
 10
1.9134803149606301
 20
1.5593976377952756
 30
0.0
 10
2.5588661417322838
 20
1.1728110236220473
 30
0.0
 10
2.5588661417322838
 20
1.1728110236220473
 30
0.0
 10
2.5588661417322838
 20
1.1728110236220473
 30
0.0
 10
2.5588661417322838
 20
1.1728110236220473
 30
0.0
 10
2.5815000000000001
 20
1.3122952755905513
 30
0.0
 10
2.5815000000000001
 20
1.3122952755905513
 30
0.0
 10
2.5815000000000001
 20
1.3122952755905513
 30
0.0
 10
2.5815000000000001
 20
1.3122952755905513
 30
0.0
 10
1.9361141732283464
 20
1.6988818897637796
 30
0.0
 10
1.9361141732283464
 20
1.6988818897637796
 30
0.0
 10
1.9361141732283464
 20
1.6988818897637796
 30
0.0
 10
1.9361141732283464
 20
1.6988818897637796
 30
0.0
 10
1.9134803149606301
 20
1.5593976377952756
 30
0.0
 10
1.9134803149606301
 20
1.5593976377952756
 30
0.0
  0
SPLINE
  5
5C
100
AcDbEntity
  8
Additional Graphics
370
     5
100
AcDbSpline
210
0.0
220
0.0
230
1.0
 70
     1
 71
     3
 72
   268
 73
   264
 74
     0
 42
0.0000000001
 43
0.0000000001
 40
0.0
 40
0.0
 40
0.0
 40
0.0
 40
0.0151515151515152
 40
0.0151515151515152
 40
0.0151515151515152
 40
0.0151515151515152
 40
0.0303030303030303
 40
0.0303030303030303
 40
0.0303030303030303
 40
0.0303030303030303
 40
0.0454545454545455
 40
0.0454545454545455
 40
0.0454545454545455
 40
0.0454545454545455
 40
0.0606060606060606
 40
0.0606060606060606
 40
0.0606060606060606
 40
0.0606060606060606
 40
0.0757575757575758
 40
0.0757575757575758
 40
0.0757575757575758
 40
0.0757575757575758
 40
0.0909090909090909
 40
0.0909090909090909
 40
0.0909090909090909
 40
0.0909090909090909
 40
0.1060606060606061
 40
0.1060606060606061
 40
0.1060606060606061
 40
0.1060606060606061
 40
0.1212121212121212
 40
0.1212121212121212
 40
0.1212121212121212
 40
0.1212121212121212
 40
0.1363636363636364
 40
0.1363636363636364
 40
0.1363636363636364
 40
0.1363636363636364
 40
0.1515151515151515
 40
0.1515151515151515
 40
0.1515151515151515
 40
0.1515151515151515
 40
0.1666666666666666
 40
0.1666666666666666
 40
0.1666666666666666
 40
0.1666666666666666
 40
0.1818181818181818
 40
0.1818181818181818
 40
0.1818181818181818
 40
0.1818181818181818
 40
0.1969696969696969
 40
0.1969696969696969
 40
0.1969696969696969
 40
0.1969696969696969
 40
0.212121212121212
 40
0.212121212121212
 40
0.212121212121212
 40
0.212121212121212
 40
0.2272727272727272
 40
0.2272727272727272
 40
0.2272727272727272
 40
0.2272727272727272
 40
0.2424242424242423
 40
0.2424242424242423
 40
0.2424242424242423
 40
0.2424242424242423
 40
0.2575757575757575
 40
0.2575757575757575
 40
0.2575757575757575
 40
0.2575757575757575
 40
0.2727272727272726
 40
0.2727272727272726
 40
0.2727272727272726
 40
0.2727272727272726
 40
0.2878787878787877
 40
0.2878787878787877
 40
0.2878787878787877
 40
0.2878787878787877
 40
0.3030303030303029
 40
0.3030303030303029
 40
0.3030303030303029
 40
0.3030303030303029
 40
0.318181818181818
 40
0.318181818181818
 40
0.318181818181818
 40
0.318181818181818
 40
0.3333333333333332
 40
0.3333333333333332
 40
0.3333333333333332
 40
0.3333333333333332
 40
0.3484848484848483
 40
0.3484848484848483
 40
0.3484848484848483
 40
0.3484848484848483
 40
0.3636363636363634
 40
0.3636363636363634
 40
0.3636363636363634
 40
0.3636363636363634
 40
0.3787878787878786
 40
0.3787878787878786
 40
0.3787878787878786
 40
0.3787878787878786
 40
0.3939393939393937
 40
0.3939393939393937
 40
0.3939393939393937
 40
0.3939393939393937
 40
0.4090909090909088
 40
0.4090909090909088
 40
0.4090909090909088
 40
0.4090909090909088
 40
0.424242424242424
 40
0.424242424242424
 40
0.424242424242424
 40
0.424242424242424
 40
0.4393939393939391
 40
0.4393939393939391
 40
0.4393939393939391
 40
0.4393939393939391
 40
0.4545454545454543
 40
0.4545454545454543
 40
0.4545454545454543
 40
0.4545454545454543
 40
0.4696969696969694
 40
0.4696969696969694
 40
0.4696969696969694
 40
0.4696969696969694
 40
0.4848484848484845
 40
0.4848484848484845
 40
0.4848484848484845
 40
0.4848484848484845
 40
0.4999999999999997
 40
0.4999999999999997
 40
0.4999999999999997
 40
0.4999999999999997
 40
0.5151515151515148
 40
0.5151515151515148
 40
0.5151515151515148
 40
0.5151515151515148
 40
0.5303030303030299
 40
0.5303030303030299
 40
0.5303030303030299
 40
0.5303030303030299
 40
0.5454545454545451
 40
0.5454545454545451
 40
0.5454545454545451
 40
0.5454545454545451
 40
0.5606060606060602
 40
0.5606060606060602
 40
0.5606060606060602
 40
0.5606060606060602
 40
0.5757575757575754
 40
0.5757575757575754
 40
0.5757575757575754
 40
0.5757575757575754
 40
0.5909090909090905
 40
0.5909090909090905
 40
0.5909090909090905
 40
0.5909090909090905
 40
0.6060606060606056
 40
0.6060606060606056
 40
0.6060606060606056
 40
0.6060606060606056
 40
0.6212121212121208
 40
0.6212121212121208
 40
0.6212121212121208
 40
0.6212121212121208
 40
0.6363636363636359
 40
0.6363636363636359
 40
0.6363636363636359
 40
0.6363636363636359
 40
0.6515151515151511
 40
0.6515151515151511
 40
0.6515151515151511
 40
0.6515151515151511
 40
0.6666666666666662
 40
0.6666666666666662
 40
0.6666666666666662
 40
0.6666666666666662
 40
0.6818181818181813
 40
0.6818181818181813
 40
0.6818181818181813
 40
0.6818181818181813
 40
0.6969696969696965
 40
0.6969696969696965
 40
0.6969696969696965
 40
0.6969696969696965
 40
0.7121212121212116
 40
0.7121212121212116
 40
0.7121212121212116
 40
0.7121212121212116
 40
0.7272727272727267
 40
0.7272727272727267
 40
0.7272727272727267
 40
0.7272727272727267
 40
0.7424242424242419
 40
0.7424242424242419
 40
0.7424242424242419
 40
0.7424242424242419
 40
0.757575757575757
 40
0.757575757575757
 40
0.757575757575757
 40
0.757575757575757
 40
0.7727272727272722
 40
0.7727272727272722
 40
0.7727272727272722
 40
0.7727272727272722
 40
0.7878787878787873
 40
0.7878787878787873
 40
0.7878787878787873
 40
0.7878787878787873
 40
0.8030303030303024
 40
0.8030303030303024
 40
0.8030303030303024
 40
0.8030303030303024
 40
0.8181818181818176
 40
0.8181818181818176
 40
0.8181818181818176
 40
0.8181818181818176
 40
0.8333333333333327
 40
0.8333333333333327
 40
0.8333333333333327
 40
0.8333333333333327
 40
0.8484848484848478
 40
0.8484848484848478
 40
0.8484848484848478
 40
0.8484848484848478
 40
0.863636363636363
 40
0.863636363636363
 40
0.863636363636363
 40
0.863636363636363
 40
0.8787878787878781
 40
0.8787878787878781
 40
0.8787878787878781
 40
0.8787878787878781
 40
0.8939393939393933
 40
0.8939393939393933
 40
0.8939393939393933
 40
0.8939393939393933
 40
0.9090909090909084
 40
0.9090909090909084
 40
0.9090909090909084
 40
0.9090909090909084
 40
0.9242424242424235
 40
0.9242424242424235
 40
0.9242424242424235
 40
0.9242424242424235
 40
0.9393939393939387
 40
0.9393939393939387
 40
0.9393939393939387
 40
0.9393939393939387
 40
0.9545454545454538
 40
0.9545454545454538
 40
0.9545454545454538
 40
0.9545454545454538
 40
0.969696969696969
 40
0.969696969696969
 40
0.969696969696969
 40
0.969696969696969
 40
0.9848484848484841
 40
0.9848484848484841
 40
0.9848484848484841
 40
0.9848484848484841
 40
1.0
 40
1.0
 40
1.0
 40
1.0
 10
-1.6315314960629921
 20
-2.5183543307086613
 30
0.0
 10
-1.6315314960629921
 20
-2.5183543307086613
 30
0.0
 10
-0.9861456692913386
 20
-2.9049409448818899
 30
0.0
 10
-0.9861456692913386
 20
-2.9049409448818899
 30
0.0
 10
-0.9861456692913386
 20
-2.9049409448818899
 30
0.0
 10
-0.9861456692913386
 20
-2.9049409448818899
 30
0.0
 10
-0.7560354330708662
 20
-2.8273503937007876
 30
0.0
 10
-0.7560354330708662
 20
-2.8273503937007876
 30
0.0
 10
-0.7560354330708662
 20
-2.8273503937007876
 30
0.0
 10
-0.7560354330708662
 20
-2.8273503937007876
 30
0.0
 10
-0.5355
 20
-2.743271653543307
 30
0.0
 10
-0.5355
 20
-2.743271653543307
 30
0.0
 10
-0.5355
 20
-2.743271653543307
 30
0.0
 10
-0.5355
 20
-2.743271653543307
 30
0.0
 10
-0.3243464566929134
 20
-2.6529921259842522
 30
0.0
 10
-0.3243464566929134
 20
-2.6529921259842522
 30
0.0
 10
-0.3243464566929134
 20
-2.6529921259842522
 30
0.0
 10
-0.3243464566929134
 20
-2.6529921259842522
 30
0.0
 10
-0.1223818897637795
 20
-2.5568188976377955
 30
0.0
 10
-0.1223818897637795
 20
-2.5568188976377955
 30
0.0
 10
-0.1223818897637795
 20
-2.5568188976377955
 30
0.0
 10
-0.1223818897637795
 20
-2.5568188976377955
 30
0.0
 10
0.0705905511811024
 20
-2.4550393700787403
 30
0.0
 10
0.0705905511811024
 20
-2.4550393700787403
 30
0.0
 10
0.0705905511811024
 20
-2.4550393700787403
 30
0.0
 10
0.0705905511811024
 20
-2.4550393700787403
 30
0.0
 10
0.254748031496063
 20
-2.347968503937008
 30
0.0
 10
0.254748031496063
 20
-2.347968503937008
 30
0.0
 10
0.254748031496063
 20
-2.347968503937008
 30
0.0
 10
0.254748031496063
 20
-2.347968503937008
 30
0.0
 10
0.4302992125984252
 20
-2.2358976377952757
 30
0.0
 10
0.4302992125984252
 20
-2.2358976377952757
 30
0.0
 10
0.4302992125984252
 20
-2.2358976377952757
 30
0.0
 10
0.4302992125984252
 20
-2.2358976377952757
 30
0.0
 10
0.5974251968503938
 20
-2.1191338582677166
 30
0.0
 10
0.5974251968503938
 20
-2.1191338582677166
 30
0.0
 10
0.5974251968503938
 20
-2.1191338582677166
 30
0.0
 10
0.5974251968503938
 20
-2.1191338582677166
 30
0.0
 10
0.7563188976377953
 20
-1.9979645669291339
 30
0.0
 10
0.7563188976377953
 20
-1.9979645669291339
 30
0.0
 10
0.7563188976377953
 20
-1.9979645669291339
 30
0.0
 10
0.7563188976377953
 20
-1.9979645669291339
 30
0.0
 10
0.9071811023622047
 20
-1.8727007874015749
 30
0.0
 10
0.9071811023622047
 20
-1.8727007874015749
 30
0.0
 10
0.9071811023622047
 20
-1.8727007874015749
 30
0.0
 10
0.9071811023622047
 20
-1.8727007874015749
 30
0.0
 10
1.0501968503937009
 20
-1.7436377952755906
 30
0.0
 10
1.0501968503937009
 20
-1.7436377952755906
 30
0.0
 10
1.0501968503937009
 20
-1.7436377952755906
 30
0.0
 10
1.0501968503937009
 20
-1.7436377952755906
 30
0.0
 10
1.1855708661417323
 20
-1.6110866141732285
 30
0.0
 10
1.1855708661417323
 20
-1.6110866141732285
 30
0.0
 10
1.1855708661417323
 20
-1.6110866141732285
 30
0.0
 10
1.1855708661417323
 20
-1.6110866141732285
 30
0.0
 10
1.3134724409448819
 20
-1.4753267716535434
 30
0.0
 10
1.3134724409448819
 20
-1.4753267716535434
 30
0.0
 10
1.3134724409448819
 20
-1.4753267716535434
 30
0.0
 10
1.3134724409448819
 20
-1.4753267716535434
 30
0.0
 10
1.4341102362204725
 20
-1.3366811023622047
 30
0.0
 10
1.4341102362204725
 20
-1.3366811023622047
 30
0.0
 10
1.4341102362204725
 20
-1.3366811023622047
 30
0.0
 10
1.4341102362204725
 20
-1.3366811023622047
 30
0.0
 10
1.5476732283464567
 20
-1.1954330708661418
 30
0.0
 10
1.5476732283464567
 20
-1.1954330708661418
 30
0.0
 10
1.5476732283464567
 20
-1.1954330708661418
 30
0.0
 10
1.5476732283464567
 20
-1.1954330708661418
 30
0.0
 10
1.6543543307086614
 20
-1.0518937007874016
 30
0.0
 10
1.6543543307086614
 20
-1.0518937007874016
 30
0.0
 10
1.6543543307086614
 20
-1.0518937007874016
 30
0.0
 10
1.6543543307086614
 20
-1.0518937007874016
 30
0.0
 10
1.7543307086614175
 20
-0.9063464566929135
 30
0.0
 10
1.7543307086614175
 20
-0.9063464566929135
 30
0.0
 10
1.7543307086614175
 20
-0.9063464566929135
 30
0.0
 10
1.7543307086614175
 20
-0.9063464566929135
 30
0.0
 10
1.8478149606299212
 20
-0.7591102362204725
 30
0.0
 10
1.8478149606299212
 20
-0.7591102362204725
 30
0.0
 10
1.8478149606299212
 20
-0.7591102362204725
 30
0.0
 10
1.8478149606299212
 20
-0.7591102362204725
 30
0.0
 10
1.934988188976378
 20
-0.6104763779527559
 30
0.0
 10
1.934988188976378
 20
-0.6104763779527559
 30
0.0
 10
1.934988188976378
 20
-0.6104763779527559
 30
0.0
 10
1.934988188976378
 20
-0.6104763779527559
 30
0.0
 10
2.0160472440944881
 20
-0.460751968503937
 30
0.0
 10
2.0160472440944881
 20
-0.460751968503937
 30
0.0
 10
2.0160472440944881
 20
-0.460751968503937
 30
0.0
 10
2.0160472440944881
 20
-0.460751968503937
 30
0.0
 10
2.0911771653543307
 20
-0.3102322834645669
 30
0.0
 10
2.0911771653543307
 20
-0.3102322834645669
 30
0.0
 10
2.0911771653543307
 20
-0.3102322834645669
 30
0.0
 10
2.0911771653543307
 20
-0.3102322834645669
 30
0.0
 10
2.1605787401574803
 20
-0.1592086614173228
 30
0.0
 10
2.1605787401574803
 20
-0.1592086614173228
 30
0.0
 10
2.1605787401574803
 20
-0.1592086614173228
 30
0.0
 10
2.1605787401574803
 20
-0.1592086614173228
 30
0.0
 10
2.2244330708661417
 20
-0.007992125984252
 30
0.0
 10
2.2244330708661417
 20
-0.007992125984252
 30
0.0
 10
2.2244330708661417
 20
-0.007992125984252
 30
0.0
 10
2.2244330708661417
 20
-0.007992125984252
 30
0.0
 10
2.2829488188976379
 20
0.1431259842519685
 30
0.0
 10
2.2829488188976379
 20
0.1431259842519685
 30
0.0
 10
2.2829488188976379
 20
0.1431259842519685
 30
0.0
 10
2.2829488188976379
 20
0.1431259842519685
 30
0.0
 10
2.3362952755905511
 20
0.2938307086614174
 30
0.0
 10
2.3362952755905511
 20
0.2938307086614174
 30
0.0
 10
2.3362952755905511
 20
0.2938307086614174
 30
0.0
 10
2.3362952755905511
 20
0.2938307086614174
 30
0.0
 10
2.3846850393700789
 20
0.4438385826771654
 30
0.0
 10
2.3846850393700789
 20
0.4438385826771654
 30
0.0
 10
2.3846850393700789
 20
0.4438385826771654
 30
0.0
 10
2.3846850393700789
 20
0.4438385826771654
 30
0.0
 10
2.4282992125984251
 20
0.5928385826771654
 30
0.0
 10
2.4282992125984251
 20
0.5928385826771654
 30
0.0
 10
2.4282992125984251
 20
0.5928385826771654
 30
0.0
 10
2.4282992125984251
 20
0.5928385826771654
 30
0.0
 10
2.4673346456692915
 20
0.7405433070866142
 30
0.0
 10
2.4673346456692915
 20
0.7405433070866142
 30
0.0
 10
2.4673346456692915
 20
0.7405433070866142
 30
0.0
 10
2.4673346456692915
 20
0.7405433070866142
 30
0.0
 10
2.5019724409448818
 20
0.8866338582677166
 30
0.0
 10
2.5019724409448818
 20
0.8866338582677166
 30
0.0
 10
2.5019724409448818
 20
0.8866338582677166
 30
0.0
 10
2.5019724409448818
 20
0.8866338582677166
 30
0.0
 10
2.5324212598425198
 20
1.0308267716535433
 30
0.0
 10
2.5324212598425198
 20
1.0308267716535433
 30
0.0
 10
2.5324212598425198
 20
1.0308267716535433
 30
0.0
 10
2.5324212598425198
 20
1.0308267716535433
 30
0.0
 10
2.5588661417322838
 20
1.1728110236220473
 30
0.0
 10
2.5588661417322838
 20
1.1728110236220473
 30
0.0
 10
2.5588661417322838
 20
1.1728110236220473
 30
0.0
 10
2.5588661417322838
 20
1.1728110236220473
 30
0.0
 10
2.5815000000000001
 20
1.3122952755905513
 30
0.0
 10
2.5815000000000001
 20
1.3122952755905513
 30
0.0
 10
2.5815000000000001
 20
1.3122952755905513
 30
0.0
 10
2.5815000000000001
 20
1.3122952755905513
 30
0.0
 10
1.9361141732283464
 20
1.6988818897637796
 30
0.0
 10
1.9361141732283464
 20
1.6988818897637796
 30
0.0
 10
1.9361141732283464
 20
1.6988818897637796
 30
0.0
 10
1.9361141732283464
 20
1.6988818897637796
 30
0.0
 10
1.9134803149606301
 20
1.5593976377952756
 30
0.0
 10
1.9134803149606301
 20
1.5593976377952756
 30
0.0
 10
1.9134803149606301
 20
1.5593976377952756
 30
0.0
 10
1.9134803149606301
 20
1.5593976377952756
 30
0.0
 10
1.8870354330708663
 20
1.4174133858267717
 30
0.0
 10
1.8870354330708663
 20
1.4174133858267717
 30
0.0
 10
1.8870354330708663
 20
1.4174133858267717
 30
0.0
 10
1.8870354330708663
 20
1.4174133858267717
 30
0.0
 10
1.8565866141732283
 20
1.2732204724409448
 30
0.0
 10
1.8565866141732283
 20
1.2732204724409448
 30
0.0
 10
1.8565866141732283
 20
1.2732204724409448
 30
0.0
 10
1.8565866141732283
 20
1.2732204724409448
 30
0.0
 10
1.8219488188976378
 20
1.1271299212598425
 30
0.0
 10
1.8219488188976378
 20
1.1271299212598425
 30
0.0
 10
1.8219488188976378
 20
1.1271299212598425
 30
0.0
 10
1.8219488188976378
 20
1.1271299212598425
 30
0.0
 10
1.7829133858267716
 20
0.9794251968503938
 30
0.0
 10
1.7829133858267716
 20
0.9794251968503938
 30
0.0
 10
1.7829133858267716
 20
0.9794251968503938
 30
0.0
 10
1.7829133858267716
 20
0.9794251968503938
 30
0.0
 10
1.7392992125984252
 20
0.8304251968503937
 30
0.0
 10
1.7392992125984252
 20
0.8304251968503937
 30
0.0
 10
1.7392992125984252
 20
0.8304251968503937
 30
0.0
 10
1.7392992125984252
 20
0.8304251968503937
 30
0.0
 10
1.6909094488188976
 20
0.6804173228346457
 30
0.0
 10
1.6909094488188976
 20
0.6804173228346457
 30
0.0
 10
1.6909094488188976
 20
0.6804173228346457
 30
0.0
 10
1.6909094488188976
 20
0.6804173228346457
 30
0.0
 10
1.6375629921259842
 20
0.5297125984251969
 30
0.0
 10
1.6375629921259842
 20
0.5297125984251969
 30
0.0
 10
1.6375629921259842
 20
0.5297125984251969
 30
0.0
 10
1.6375629921259842
 20
0.5297125984251969
 30
0.0
 10
1.5790472440944883
 20
0.3785944881889764
 30
0.0
 10
1.5790472440944883
 20
0.3785944881889764
 30
0.0
 10
1.5790472440944883
 20
0.3785944881889764
 30
0.0
 10
1.5790472440944883
 20
0.3785944881889764
 30
0.0
 10
1.5151929133858268
 20
0.2273779527559055
 30
0.0
 10
1.5151929133858268
 20
0.2273779527559055
 30
0.0
 10
1.5151929133858268
 20
0.2273779527559055
 30
0.0
 10
1.5151929133858268
 20
0.2273779527559055
 30
0.0
 10
1.4457913385826773
 20
0.0763543307086614
 30
0.0
 10
1.4457913385826773
 20
0.0763543307086614
 30
0.0
 10
1.4457913385826773
 20
0.0763543307086614
 30
0.0
 10
1.4457913385826773
 20
0.0763543307086614
 30
0.0
 10
1.3706614173228346
 20
-0.0741653543307087
 30
0.0
 10
1.3706614173228346
 20
-0.0741653543307087
 30
0.0
 10
1.3706614173228346
 20
-0.0741653543307087
 30
0.0
 10
1.3706614173228346
 20
-0.0741653543307087
 30
0.0
 10
1.2896023622047244
 20
-0.2238897637795276
 30
0.0
 10
1.2896023622047244
 20
-0.2238897637795276
 30
0.0
 10
1.2896023622047244
 20
-0.2238897637795276
 30
0.0
 10
1.2896023622047244
 20
-0.2238897637795276
 30
0.0
 10
1.2024291338582678
 20
-0.3725236220472441
 30
0.0
 10
1.2024291338582678
 20
-0.3725236220472441
 30
0.0
 10
1.2024291338582678
 20
-0.3725236220472441
 30
0.0
 10
1.2024291338582678
 20
-0.3725236220472441
 30
0.0
 10
1.1089448818897638
 20
-0.5197598425196851
 30
0.0
 10
1.1089448818897638
 20
-0.5197598425196851
 30
0.0
 10
1.1089448818897638
 20
-0.5197598425196851
 30
0.0
 10
1.1089448818897638
 20
-0.5197598425196851
 30
0.0
 10
1.008968503937008
 20
-0.6653070866141733
 30
0.0
 10
1.008968503937008
 20
-0.6653070866141733
 30
0.0
 10
1.008968503937008
 20
-0.6653070866141733
 30
0.0
 10
1.008968503937008
 20
-0.6653070866141733
 30
0.0
 10
0.9022874015748031
 20
-0.8088464566929134
 30
0.0
 10
0.9022874015748031
 20
-0.8088464566929134
 30
0.0
 10
0.9022874015748031
 20
-0.8088464566929134
 30
0.0
 10
0.9022874015748031
 20
-0.8088464566929134
 30
0.0
 10
0.7887244094488189
 20
-0.9500944881889765
 30
0.0
 10
0.7887244094488189
 20
-0.9500944881889765
 30
0.0
 10
0.7887244094488189
 20
-0.9500944881889765
 30
0.0
 10
0.7887244094488189
 20
-0.9500944881889765
 30
0.0
 10
0.6680866141732283
 20
-1.0887401574803151
 30
0.0
 10
0.6680866141732283
 20
-1.0887401574803151
 30
0.0
 10
0.6680866141732283
 20
-1.0887401574803151
 30
0.0
 10
0.6680866141732283
 20
-1.0887401574803151
 30
0.0
 10
0.5401850393700788
 20
-1.2245000000000001
 30
0.0
 10
0.5401850393700788
 20
-1.2245000000000001
 30
0.0
 10
0.5401850393700788
 20
-1.2245000000000001
 30
0.0
 10
0.5401850393700788
 20
-1.2245000000000001
 30
0.0
 10
0.4048110236220472
 20
-1.3570511811023622
 30
0.0
 10
0.4048110236220472
 20
-1.3570511811023622
 30
0.0
 10
0.4048110236220472
 20
-1.3570511811023622
 30
0.0
 10
0.4048110236220472
 20
-1.3570511811023622
 30
0.0
 10
0.2617952755905512
 20
-1.4861141732283465
 30
0.0
 10
0.2617952755905512
 20
-1.4861141732283465
 30
0.0
 10
0.2617952755905512
 20
-1.4861141732283465
 30
0.0
 10
0.2617952755905512
 20
-1.4861141732283465
 30
0.0
 10
0.1109330708661417
 20
-1.6113779527559056
 30
0.0
 10
0.1109330708661417
 20
-1.6113779527559056
 30
0.0
 10
0.1109330708661417
 20
-1.6113779527559056
 30
0.0
 10
0.1109330708661417
 20
-1.6113779527559056
 30
0.0
 10
-0.0479606299212598
 20
-1.7325472440944882
 30
0.0
 10
-0.0479606299212598
 20
-1.7325472440944882
 30
0.0
 10
-0.0479606299212598
 20
-1.7325472440944882
 30
0.0
 10
-0.0479606299212598
 20
-1.7325472440944882
 30
0.0
 10
-0.2150866141732284
 20
-1.8493110236220474
 30
0.0
 10
-0.2150866141732284
 20
-1.8493110236220474
 30
0.0
 10
-0.2150866141732284
 20
-1.8493110236220474
 30
0.0
 10
-0.2150866141732284
 20
-1.8493110236220474
 30
0.0
 10
-0.3906377952755906
 20
-1.9613818897637796
 30
0.0
 10
-0.3906377952755906
 20
-1.9613818897637796
 30
0.0
 10
-0.3906377952755906
 20
-1.9613818897637796
 30
0.0
 10
-0.3906377952755906
 20
-1.9613818897637796
 30
0.0
 10
-0.5747952755905512
 20
-2.0684527559055117
 30
0.0
 10
-0.5747952755905512
 20
-2.0684527559055117
 30
0.0
 10
-0.5747952755905512
 20
-2.0684527559055117
 30
0.0
 10
-0.5747952755905512
 20
-2.0684527559055117
 30
0.0
 10
-0.7677677165354331
 20
-2.1702322834645669
 30
0.0
 10
-0.7677677165354331
 20
-2.1702322834645669
 30
0.0
 10
-0.7677677165354331
 20
-2.1702322834645669
 30
0.0
 10
-0.7677677165354331
 20
-2.1702322834645669
 30
0.0
 10
-0.969732283464567
 20
-2.2664055118110236
 30
0.0
 10
-0.969732283464567
 20
-2.2664055118110236
 30
0.0
 10
-0.969732283464567
 20
-2.2664055118110236
 30
0.0
 10
-0.969732283464567
 20
-2.2664055118110236
 30
0.0
 10
-1.1808858267716535
 20
-2.3566850393700789
 30
0.0
 10
-1.1808858267716535
 20
-2.3566850393700789
 30
0.0
 10
-1.1808858267716535
 20
-2.3566850393700789
 30
0.0
 10
-1.1808858267716535
 20
-2.3566850393700789
 30
0.0
 10
-1.4014212598425198
 20
-2.440763779527559
 30
0.0
 10
-1.4014212598425198
 20
-2.440763779527559
 30
0.0
 10
-1.4014212598425198
 20
-2.440763779527559
 30
0.0
 10
-1.4014212598425198
 20
-2.440763779527559
 30
0.0
 10
-1.6315314960629921
 20
-2.5183543307086613
 30
0.0
 10
-1.6315314960629921
 20
-2.5183543307086613
 30
0.0
  0
SPLINE
  5
5D
100
AcDbEntity
  8
Additional Graphics
 62
     9
100
AcDbSpline
210
0.0
220
0.0
230
1.0
 70
     1
 71
     3
 72
    20
 73
    16
 74
     0
 42
0.0000000001
 43
0.0000000001
 40
0.0
 40
0.0
 40
0.0
 40
0.0
 40
0.25
 40
0.25
 40
0.25
 40
0.25
 40
0.5
 40
0.5
 40
0.5
 40
0.5
 40
0.75
 40
0.75
 40
0.75
 40
0.75
 40
1.0
 40
1.0
 40
1.0
 40
1.0
 10
-2.7638188976377953
 20
-2.8795984251968507
 30
0.0
 10
-2.7638188976377953
 20
-2.8795984251968507
 30
0.0
 10
-2.1184330708661419
 20
-3.2661850393700789
 30
0.0
 10
-2.1184330708661419
 20
-3.2661850393700789
 30
0.0
 10
-2.1184330708661419
 20
-3.2661850393700789
 30
0.0
 10
-2.1184330708661419
 20
-3.2661850393700789
 30
0.0
 10
-1.6138503937007875
 20
-3.2290275590551181
 30
0.0
 10
-1.6138503937007875
 20
-3.2290275590551181
 30
0.0
 10
-1.6138503937007875
 20
-3.2290275590551181
 30
0.0
 10
-1.6138503937007875
 20
-3.2290275590551181
 30
0.0
 10
-2.2592362204724412
 20
-2.8424409448818899
 30
0.0
 10
-2.2592362204724412
 20
-2.8424409448818899
 30
0.0
 10
-2.2592362204724412
 20
-2.8424409448818899
 30
0.0
 10
-2.2592362204724412
 20
-2.8424409448818899
 30
0.0
 10
-2.7638188976377953
 20
-2.8795984251968507
 30
0.0
 10
-2.7638188976377953
 20
-2.8795984251968507
 30
0.0
  0
SPLINE
  5
5E
100
AcDbEntity
  8
Additional Graphics
370
     5
100
AcDbSpline
210
0.0
220
0.0
230
1.0
 70
     1
 71
     3
 72
    20
 73
    16
 74
     0
 42
0.0000000001
 43
0.0000000001
 40
0.0
 40
0.0
 40
0.0
 40
0.0
 40
0.25
 40
0.25
 40
0.25
 40
0.25
 40
0.5
 40
0.5
 40
0.5
 40
0.5
 40
0.75
 40
0.75
 40
0.75
 40
0.75
 40
1.0
 40
1.0
 40
1.0
 40
1.0
 10
-2.7638188976377953
 20
-2.8795984251968507
 30
0.0
 10
-2.7638188976377953
 20
-2.8795984251968507
 30
0.0
 10
-2.1184330708661419
 20
-3.2661850393700789
 30
0.0
 10
-2.1184330708661419
 20
-3.2661850393700789
 30
0.0
 10
-2.1184330708661419
 20
-3.2661850393700789
 30
0.0
 10
-2.1184330708661419
 20
-3.2661850393700789
 30
0.0
 10
-1.6138503937007875
 20
-3.2290275590551181
 30
0.0
 10
-1.6138503937007875
 20
-3.2290275590551181
 30
0.0
 10
-1.6138503937007875
 20
-3.2290275590551181
 30
0.0
 10
-1.6138503937007875
 20
-3.2290275590551181
 30
0.0
 10
-2.2592362204724412
 20
-2.8424409448818899
 30
0.0
 10
-2.2592362204724412
 20
-2.8424409448818899
 30
0.0
 10
-2.2592362204724412
 20
-2.8424409448818899
 30
0.0
 10
-2.2592362204724412
 20
-2.8424409448818899
 30
0.0
 10
-2.7638188976377953
 20
-2.8795984251968507
 30
0.0
 10
-2.7638188976377953
 20
-2.8795984251968507
 30
0.0
  0
SPLINE
  5
5F
100
AcDbEntity
  8
Additional Graphics
 62
     9
100
AcDbSpline
210
0.0
220
0.0
230
1.0
 70
     1
 71
     3
 72
    20
 73
    16
 74
     0
 42
0.0000000001
 43
0.0000000001
 40
0.0
 40
0.0
 40
0.0
 40
0.0
 40
0.25
 40
0.25
 40
0.25
 40
0.25
 40
0.5
 40
0.5
 40
0.5
 40
0.5
 40
0.75
 40
0.75
 40
0.75
 40
0.75
 40
1.0
 40
1.0
 40
1.0
 40
1.0
 10
-2.2418385826771656
 20
-3.0918307086614174
 30
0.0
 10
-2.2418385826771656
 20
-3.0918307086614174
 30
0.0
 10
-1.5964527559055119
 20
-3.478417322834646
 30
0.0
 10
-1.5964527559055119
 20
-3.478417322834646
 30
0.0
 10
-1.5964527559055119
 20
-3.478417322834646
 30
0.0
 10
-1.5964527559055119
 20
-3.478417322834646
 30
0.0
 10
-1.0966692913385827
 20
-3.4445118110236224
 30
0.0
 10
-1.0966692913385827
 20
-3.4445118110236224
 30
0.0
 10
-1.0966692913385827
 20
-3.4445118110236224
 30
0.0
 10
-1.0966692913385827
 20
-3.4445118110236224
 30
0.0
 10
-1.7420551181102364
 20
-3.0579251968503938
 30
0.0
 10
-1.7420551181102364
 20
-3.0579251968503938
 30
0.0
 10
-1.7420551181102364
 20
-3.0579251968503938
 30
0.0
 10
-1.7420551181102364
 20
-3.0579251968503938
 30
0.0
 10
-2.2418385826771656
 20
-3.0918307086614174
 30
0.0
 10
-2.2418385826771656
 20
-3.0918307086614174
 30
0.0
  0
SPLINE
  5
60
100
AcDbEntity
  8
Additional Graphics
370
     5
100
AcDbSpline
210
0.0
220
0.0
230
1.0
 70
     1
 71
     3
 72
    20
 73
    16
 74
     0
 42
0.0000000001
 43
0.0000000001
 40
0.0
 40
0.0
 40
0.0
 40
0.0
 40
0.25
 40
0.25
 40
0.25
 40
0.25
 40
0.5
 40
0.5
 40
0.5
 40
0.5
 40
0.75
 40
0.75
 40
0.75
 40
0.75
 40
1.0
 40
1.0
 40
1.0
 40
1.0
 10
-2.2418385826771656
 20
-3.0918307086614174
 30
0.0
 10
-2.2418385826771656
 20
-3.0918307086614174
 30
0.0
 10
-1.5964527559055119
 20
-3.478417322834646
 30
0.0
 10
-1.5964527559055119
 20
-3.478417322834646
 30
0.0
 10
-1.5964527559055119
 20
-3.478417322834646
 30
0.0
 10
-1.5964527559055119
 20
-3.478417322834646
 30
0.0
 10
-1.0966692913385827
 20
-3.4445118110236224
 30
0.0
 10
-1.0966692913385827
 20
-3.4445118110236224
 30
0.0
 10
-1.0966692913385827
 20
-3.4445118110236224
 30
0.0
 10
-1.0966692913385827
 20
-3.4445118110236224
 30
0.0
 10
-1.7420551181102364
 20
-3.0579251968503938
 30
0.0
 10
-1.7420551181102364
 20
-3.0579251968503938
 30
0.0
 10
-1.7420551181102364
 20
-3.0579251968503938
 30
0.0
 10
-1.7420551181102364
 20
-3.0579251968503938
 30
0.0
 10
-2.2418385826771656
 20
-3.0918307086614174
 30
0.0
 10
-2.2418385826771656
 20
-3.0918307086614174
 30
0.0
  0
SPLINE
  5
61
100
AcDbEntity
  8
Additional Graphics
 62
     9
100
AcDbSpline
210
0.0
220
0.0
230
1.0
 70
     1
 71
     3
 72
    76
 73
    72
 74
     0
 42
0.0000000001
 43
0.0000000001
 40
0.0
 40
0.0
 40
0.0
 40
0.0
 40
0.0555555555555556
 40
0.0555555555555556
 40
0.0555555555555556
 40
0.0555555555555556
 40
0.1111111111111111
 40
0.1111111111111111
 40
0.1111111111111111
 40
0.1111111111111111
 40
0.1666666666666667
 40
0.1666666666666667
 40
0.1666666666666667
 40
0.1666666666666667
 40
0.2222222222222222
 40
0.2222222222222222
 40
0.2222222222222222
 40
0.2222222222222222
 40
0.2777777777777778
 40
0.2777777777777778
 40
0.2777777777777778
 40
0.2777777777777778
 40
0.3333333333333334
 40
0.3333333333333334
 40
0.3333333333333334
 40
0.3333333333333334
 40
0.388888888888889
 40
0.388888888888889
 40
0.388888888888889
 40
0.388888888888889
 40
0.4444444444444445
 40
0.4444444444444445
 40
0.4444444444444445
 40
0.4444444444444445
 40
0.5000000000000001
 40
0.5000000000000001
 40
0.5000000000000001
 40
0.5000000000000001
 40
0.5555555555555557
 40
0.5555555555555557
 40
0.5555555555555557
 40
0.5555555555555557
 40
0.6111111111111113
 40
0.6111111111111113
 40
0.6111111111111113
 40
0.6111111111111113
 40
0.6666666666666669
 40
0.6666666666666669
 40
0.6666666666666669
 40
0.6666666666666669
 40
0.7222222222222224
 40
0.7222222222222224
 40
0.7222222222222224
 40
0.7222222222222224
 40
0.777777777777778
 40
0.777777777777778
 40
0.777777777777778
 40
0.777777777777778
 40
0.8333333333333336
 40
0.8333333333333336
 40
0.8333333333333336
 40
0.8333333333333336
 40
0.8888888888888892
 40
0.8888888888888892
 40
0.8888888888888892
 40
0.8888888888888892
 40
0.9444444444444448
 40
0.9444444444444448
 40
0.9444444444444448
 40
0.9444444444444448
 40
1.0
 40
1.0
 40
1.0
 40
1.0
 10
-1.7420551181102364
 20
-3.0579251968503938
 30
0.0
 10
-1.7420551181102364
 20
-3.0579251968503938
 30
0.0
 10
-1.0966692913385827
 20
-3.4445118110236224
 30
0.0
 10
-1.0966692913385827
 20
-3.4445118110236224
 30
0.0
 10
-1.0966692913385827
 20
-3.4445118110236224
 30
0.0
 10
-1.0966692913385827
 20
-3.4445118110236224
 30
0.0
 10
-1.0909409448818899
 20
-3.4441299212598429
 30
0.0
 10
-1.0909409448818899
 20
-3.4441299212598429
 30
0.0
 10
-1.0909409448818899
 20
-3.4441299212598429
 30
0.0
 10
-1.0909409448818899
 20
-3.4441299212598429
 30
0.0
 10
-1.085228346456693
 20
-3.4436259842519688
 30
0.0
 10
-1.085228346456693
 20
-3.4436259842519688
 30
0.0
 10
-1.085228346456693
 20
-3.4436259842519688
 30
0.0
 10
-1.085228346456693
 20
-3.4436259842519688
 30
0.0
 10
-1.0795236220472442
 20
-3.4429881889763783
 30
0.0
 10
-1.0795236220472442
 20
-3.4429881889763783
 30
0.0
 10
-1.0795236220472442
 20
-3.4429881889763783
 30
0.0
 10
-1.0795236220472442
 20
-3.4429881889763783
 30
0.0
 10
-1.0738385826771655
 20
-3.4422283464566932
 30
0.0
 10
-1.0738385826771655
 20
-3.4422283464566932
 30
0.0
 10
-1.0738385826771655
 20
-3.4422283464566932
 30
0.0
 10
-1.0738385826771655
 20
-3.4422283464566932
 30
0.0
 10
-1.0681614173228346
 20
-3.4413346456692913
 30
0.0
 10
-1.0681614173228346
 20
-3.4413346456692913
 30
0.0
 10
-1.0681614173228346
 20
-3.4413346456692913
 30
0.0
 10
-1.0681614173228346
 20
-3.4413346456692913
 30
0.0
 10
-1.0625078740157481
 20
-3.4403149606299213
 30
0.0
 10
-1.0625078740157481
 20
-3.4403149606299213
 30
0.0
 10
-1.0625078740157481
 20
-3.4403149606299213
 30
0.0
 10
-1.0625078740157481
 20
-3.4403149606299213
 30
0.0
 10
-1.0568740157480316
 20
-3.4391614173228349
 30
0.0
 10
-1.0568740157480316
 20
-3.4391614173228349
 30
0.0
 10
-1.0568740157480316
 20
-3.4391614173228349
 30
0.0
 10
-1.0568740157480316
 20
-3.4391614173228349
 30
0.0
 10
-1.0512677165354332
 20
-3.4378858267716539
 30
0.0
 10
-1.0512677165354332
 20
-3.4378858267716539
 30
0.0
 10
-1.0512677165354332
 20
-3.4378858267716539
 30
0.0
 10
-1.0512677165354332
 20
-3.4378858267716539
 30
0.0
 10
-1.6966535433070866
 20
-3.0512992125984253
 30
0.0
 10
-1.6966535433070866
 20
-3.0512992125984253
 30
0.0
 10
-1.6966535433070866
 20
-3.0512992125984253
 30
0.0
 10
-1.6966535433070866
 20
-3.0512992125984253
 30
0.0
 10
-1.7022598425196851
 20
-3.0525748031496063
 30
0.0
 10
-1.7022598425196851
 20
-3.0525748031496063
 30
0.0
 10
-1.7022598425196851
 20
-3.0525748031496063
 30
0.0
 10
-1.7022598425196851
 20
-3.0525748031496063
 30
0.0
 10
-1.7078937007874015
 20
-3.0537283464566931
 30
0.0
 10
-1.7078937007874015
 20
-3.0537283464566931
 30
0.0
 10
-1.7078937007874015
 20
-3.0537283464566931
 30
0.0
 10
-1.7078937007874015
 20
-3.0537283464566931
 30
0.0
 10
-1.7135472440944883
 20
-3.0547480314960631
 30
0.0
 10
-1.7135472440944883
 20
-3.0547480314960631
 30
0.0
 10
-1.7135472440944883
 20
-3.0547480314960631
 30
0.0
 10
-1.7135472440944883
 20
-3.0547480314960631
 30
0.0
 10
-1.7192244094488189
 20
-3.0556417322834646
 30
0.0
 10
-1.7192244094488189
 20
-3.0556417322834646
 30
0.0
 10
-1.7192244094488189
 20
-3.0556417322834646
 30
0.0
 10
-1.7192244094488189
 20
-3.0556417322834646
 30
0.0
 10
-1.7249094488188976
 20
-3.0564015748031497
 30
0.0
 10
-1.7249094488188976
 20
-3.0564015748031497
 30
0.0
 10
-1.7249094488188976
 20
-3.0564015748031497
 30
0.0
 10
-1.7249094488188976
 20
-3.0564015748031497
 30
0.0
 10
-1.7306141732283464
 20
-3.0570393700787402
 30
0.0
 10
-1.7306141732283464
 20
-3.0570393700787402
 30
0.0
 10
-1.7306141732283464
 20
-3.0570393700787402
 30
0.0
 10
-1.7306141732283464
 20
-3.0570393700787402
 30
0.0
 10
-1.7363267716535433
 20
-3.0575433070866143
 30
0.0
 10
-1.7363267716535433
 20
-3.0575433070866143
 30
0.0
 10
-1.7363267716535433
 20
-3.0575433070866143
 30
0.0
 10
-1.7363267716535433
 20
-3.0575433070866143
 30
0.0
 10
-1.7420551181102364
 20
-3.0579251968503938
 30
0.0
 10
-1.7420551181102364
 20
-3.0579251968503938
 30
0.0
  0
SPLINE
  5
62
100
AcDbEntity
  8
Additional Graphics
 62
     9
100
AcDbSpline
210
0.0
220
0.0
230
1.0
 70
     1
 71
     3
 72
    76
 73
    72
 74
     0
 42
0.0000000001
 43
0.0000000001
 40
0.0
 40
0.0
 40
0.0
 40
0.0
 40
0.0555555555555556
 40
0.0555555555555556
 40
0.0555555555555556
 40
0.0555555555555556
 40
0.1111111111111111
 40
0.1111111111111111
 40
0.1111111111111111
 40
0.1111111111111111
 40
0.1666666666666667
 40
0.1666666666666667
 40
0.1666666666666667
 40
0.1666666666666667
 40
0.2222222222222222
 40
0.2222222222222222
 40
0.2222222222222222
 40
0.2222222222222222
 40
0.2777777777777778
 40
0.2777777777777778
 40
0.2777777777777778
 40
0.2777777777777778
 40
0.3333333333333334
 40
0.3333333333333334
 40
0.3333333333333334
 40
0.3333333333333334
 40
0.388888888888889
 40
0.388888888888889
 40
0.388888888888889
 40
0.388888888888889
 40
0.4444444444444445
 40
0.4444444444444445
 40
0.4444444444444445
 40
0.4444444444444445
 40
0.5000000000000001
 40
0.5000000000000001
 40
0.5000000000000001
 40
0.5000000000000001
 40
0.5555555555555557
 40
0.5555555555555557
 40
0.5555555555555557
 40
0.5555555555555557
 40
0.6111111111111113
 40
0.6111111111111113
 40
0.6111111111111113
 40
0.6111111111111113
 40
0.6666666666666669
 40
0.6666666666666669
 40
0.6666666666666669
 40
0.6666666666666669
 40
0.7222222222222224
 40
0.7222222222222224
 40
0.7222222222222224
 40
0.7222222222222224
 40
0.777777777777778
 40
0.777777777777778
 40
0.777777777777778
 40
0.777777777777778
 40
0.8333333333333336
 40
0.8333333333333336
 40
0.8333333333333336
 40
0.8333333333333336
 40
0.8888888888888892
 40
0.8888888888888892
 40
0.8888888888888892
 40
0.8888888888888892
 40
0.9444444444444448
 40
0.9444444444444448
 40
0.9444444444444448
 40
0.9444444444444448
 40
1.0
 40
1.0
 40
1.0
 40
1.0
 10
-1.6966535433070866
 20
-3.0512992125984253
 30
0.0
 10
-1.6966535433070866
 20
-3.0512992125984253
 30
0.0
 10
-1.0512677165354332
 20
-3.4378858267716539
 30
0.0
 10
-1.0512677165354332
 20
-3.4378858267716539
 30
0.0
 10
-1.0512677165354332
 20
-3.4378858267716539
 30
0.0
 10
-1.0512677165354332
 20
-3.4378858267716539
 30
0.0
 10
-1.0456771653543306
 20
-3.4364724409448821
 30
0.0
 10
-1.0456771653543306
 20
-3.4364724409448821
 30
0.0
 10
-1.0456771653543306
 20
-3.4364724409448821
 30
0.0
 10
-1.0456771653543306
 20
-3.4364724409448821
 30
0.0
 10
-1.0401181102362205
 20
-3.4349330708661419
 30
0.0
 10
-1.0401181102362205
 20
-3.4349330708661419
 30
0.0
 10
-1.0401181102362205
 20
-3.4349330708661419
 30
0.0
 10
-1.0401181102362205
 20
-3.4349330708661419
 30
0.0
 10
-1.0345866141732283
 20
-3.4332598425196852
 30
0.0
 10
-1.0345866141732283
 20
-3.4332598425196852
 30
0.0
 10
-1.0345866141732283
 20
-3.4332598425196852
 30
0.0
 10
-1.0345866141732283
 20
-3.4332598425196852
 30
0.0
 10
-1.0290905511811024
 20
-3.4314685039370079
 30
0.0
 10
-1.0290905511811024
 20
-3.4314685039370079
 30
0.0
 10
-1.0290905511811024
 20
-3.4314685039370079
 30
0.0
 10
-1.0290905511811024
 20
-3.4314685039370079
 30
0.0
 10
-1.0236259842519686
 20
-3.4295393700787402
 30
0.0
 10
-1.0236259842519686
 20
-3.4295393700787402
 30
0.0
 10
-1.0236259842519686
 20
-3.4295393700787402
 30
0.0
 10
-1.0236259842519686
 20
-3.4295393700787402
 30
0.0
 10
-1.0182007874015748
 20
-3.427488188976378
 30
0.0
 10
-1.0182007874015748
 20
-3.427488188976378
 30
0.0
 10
-1.0182007874015748
 20
-3.427488188976378
 30
0.0
 10
-1.0182007874015748
 20
-3.427488188976378
 30
0.0
 10
-1.0128149606299213
 20
-3.4253031496062993
 30
0.0
 10
-1.0128149606299213
 20
-3.4253031496062993
 30
0.0
 10
-1.0128149606299213
 20
-3.4253031496062993
 30
0.0
 10
-1.0128149606299213
 20
-3.4253031496062993
 30
0.0
 10
-1.007476377952756
 20
-3.4229960629921261
 30
0.0
 10
-1.007476377952756
 20
-3.4229960629921261
 30
0.0
 10
-1.007476377952756
 20
-3.4229960629921261
 30
0.0
 10
-1.007476377952756
 20
-3.4229960629921261
 30
0.0
 10
-1.6528622047244095
 20
-3.036409448818898
 30
0.0
 10
-1.6528622047244095
 20
-3.036409448818898
 30
0.0
 10
-1.6528622047244095
 20
-3.036409448818898
 30
0.0
 10
-1.6528622047244095
 20
-3.036409448818898
 30
0.0
 10
-1.6582007874015749
 20
-3.0387165354330712
 30
0.0
 10
-1.6582007874015749
 20
-3.0387165354330712
 30
0.0
 10
-1.6582007874015749
 20
-3.0387165354330712
 30
0.0
 10
-1.6582007874015749
 20
-3.0387165354330712
 30
0.0
 10
-1.6635866141732285
 20
-3.0409015748031498
 30
0.0
 10
-1.6635866141732285
 20
-3.0409015748031498
 30
0.0
 10
-1.6635866141732285
 20
-3.0409015748031498
 30
0.0
 10
-1.6635866141732285
 20
-3.0409015748031498
 30
0.0
 10
-1.6690118110236221
 20
-3.0429527559055121
 30
0.0
 10
-1.6690118110236221
 20
-3.0429527559055121
 30
0.0
 10
-1.6690118110236221
 20
-3.0429527559055121
 30
0.0
 10
-1.6690118110236221
 20
-3.0429527559055121
 30
0.0
 10
-1.6744763779527561
 20
-3.0448818897637797
 30
0.0
 10
-1.6744763779527561
 20
-3.0448818897637797
 30
0.0
 10
-1.6744763779527561
 20
-3.0448818897637797
 30
0.0
 10
-1.6744763779527561
 20
-3.0448818897637797
 30
0.0
 10
-1.679972440944882
 20
-3.0466732283464566
 30
0.0
 10
-1.679972440944882
 20
-3.0466732283464566
 30
0.0
 10
-1.679972440944882
 20
-3.0466732283464566
 30
0.0
 10
-1.679972440944882
 20
-3.0466732283464566
 30
0.0
 10
-1.6855039370078742
 20
-3.0483464566929137
 30
0.0
 10
-1.6855039370078742
 20
-3.0483464566929137
 30
0.0
 10
-1.6855039370078742
 20
-3.0483464566929137
 30
0.0
 10
-1.6855039370078742
 20
-3.0483464566929137
 30
0.0
 10
-1.6910629921259843
 20
-3.0498858267716535
 30
0.0
 10
-1.6910629921259843
 20
-3.0498858267716535
 30
0.0
 10
-1.6910629921259843
 20
-3.0498858267716535
 30
0.0
 10
-1.6910629921259843
 20
-3.0498858267716535
 30
0.0
 10
-1.6966535433070866
 20
-3.0512992125984253
 30
0.0
 10
-1.6966535433070866
 20
-3.0512992125984253
 30
0.0
  0
SPLINE
  5
63
100
AcDbEntity
  8
Additional Graphics
 62
     9
100
AcDbSpline
210
0.0
220
0.0
230
1.0
 70
     1
 71
     3
 72
    76
 73
    72
 74
     0
 42
0.0000000001
 43
0.0000000001
 40
0.0
 40
0.0
 40
0.0
 40
0.0
 40
0.0555555555555556
 40
0.0555555555555556
 40
0.0555555555555556
 40
0.0555555555555556
 40
0.1111111111111111
 40
0.1111111111111111
 40
0.1111111111111111
 40
0.1111111111111111
 40
0.1666666666666667
 40
0.1666666666666667
 40
0.1666666666666667
 40
0.1666666666666667
 40
0.2222222222222222
 40
0.2222222222222222
 40
0.2222222222222222
 40
0.2222222222222222
 40
0.2777777777777778
 40
0.2777777777777778
 40
0.2777777777777778
 40
0.2777777777777778
 40
0.3333333333333334
 40
0.3333333333333334
 40
0.3333333333333334
 40
0.3333333333333334
 40
0.388888888888889
 40
0.388888888888889
 40
0.388888888888889
 40
0.388888888888889
 40
0.4444444444444445
 40
0.4444444444444445
 40
0.4444444444444445
 40
0.4444444444444445
 40
0.5000000000000001
 40
0.5000000000000001
 40
0.5000000000000001
 40
0.5000000000000001
 40
0.5555555555555557
 40
0.5555555555555557
 40
0.5555555555555557
 40
0.5555555555555557
 40
0.6111111111111113
 40
0.6111111111111113
 40
0.6111111111111113
 40
0.6111111111111113
 40
0.6666666666666669
 40
0.6666666666666669
 40
0.6666666666666669
 40
0.6666666666666669
 40
0.7222222222222224
 40
0.7222222222222224
 40
0.7222222222222224
 40
0.7222222222222224
 40
0.777777777777778
 40
0.777777777777778
 40
0.777777777777778
 40
0.777777777777778
 40
0.8333333333333336
 40
0.8333333333333336
 40
0.8333333333333336
 40
0.8333333333333336
 40
0.8888888888888892
 40
0.8888888888888892
 40
0.8888888888888892
 40
0.8888888888888892
 40
0.9444444444444448
 40
0.9444444444444448
 40
0.9444444444444448
 40
0.9444444444444448
 40
1.0
 40
1.0
 40
1.0
 40
1.0
 10
-1.6528622047244095
 20
-3.036409448818898
 30
0.0
 10
-1.6528622047244095
 20
-3.036409448818898
 30
0.0
 10
-1.007476377952756
 20
-3.4229960629921261
 30
0.0
 10
-1.007476377952756
 20
-3.4229960629921261
 30
0.0
 10
-1.007476377952756
 20
-3.4229960629921261
 30
0.0
 10
-1.007476377952756
 20
-3.4229960629921261
 30
0.0
 10
-1.0021732283464568
 20
-3.4205472440944882
 30
0.0
 10
-1.0021732283464568
 20
-3.4205472440944882
 30
0.0
 10
-1.0021732283464568
 20
-3.4205472440944882
 30
0.0
 10
-1.0021732283464568
 20
-3.4205472440944882
 30
0.0
 10
-0.9969173228346457
 20
-3.41798031496063
 30
0.0
 10
-0.9969173228346457
 20
-3.41798031496063
 30
0.0
 10
-0.9969173228346457
 20
-3.41798031496063
 30
0.0
 10
-0.9969173228346457
 20
-3.41798031496063
 30
0.0
 10
-0.9917125984251969
 20
-3.4152795275590551
 30
0.0
 10
-0.9917125984251969
 20
-3.4152795275590551
 30
0.0
 10
-0.9917125984251969
 20
-3.4152795275590551
 30
0.0
 10
-0.9917125984251969
 20
-3.4152795275590551
 30
0.0
 10
-0.9865629921259843
 20
-3.412452755905512
 30
0.0
 10
-0.9865629921259843
 20
-3.412452755905512
 30
0.0
 10
-0.9865629921259843
 20
-3.412452755905512
 30
0.0
 10
-0.9865629921259843
 20
-3.412452755905512
 30
0.0
 10
-0.9814606299212599
 20
-3.4094921259842521
 30
0.0
 10
-0.9814606299212599
 20
-3.4094921259842521
 30
0.0
 10
-0.9814606299212599
 20
-3.4094921259842521
 30
0.0
 10
-0.9814606299212599
 20
-3.4094921259842521
 30
0.0
 10
-0.9764173228346457
 20
-3.406413385826772
 30
0.0
 10
-0.9764173228346457
 20
-3.406413385826772
 30
0.0
 10
-0.9764173228346457
 20
-3.406413385826772
 30
0.0
 10
-0.9764173228346457
 20
-3.406413385826772
 30
0.0
 10
-0.9714291338582678
 20
-3.4031968503937011
 30
0.0
 10
-0.9714291338582678
 20
-3.4031968503937011
 30
0.0
 10
-0.9714291338582678
 20
-3.4031968503937011
 30
0.0
 10
-0.9714291338582678
 20
-3.4031968503937011
 30
0.0
 10
-0.9665118110236221
 20
-3.3998582677165357
 30
0.0
 10
-0.9665118110236221
 20
-3.3998582677165357
 30
0.0
 10
-0.9665118110236221
 20
-3.3998582677165357
 30
0.0
 10
-0.9665118110236221
 20
-3.3998582677165357
 30
0.0
 10
-1.6118976377952756
 20
-3.0132716535433071
 30
0.0
 10
-1.6118976377952756
 20
-3.0132716535433071
 30
0.0
 10
-1.6118976377952756
 20
-3.0132716535433071
 30
0.0
 10
-1.6118976377952756
 20
-3.0132716535433071
 30
0.0
 10
-1.6168149606299214
 20
-3.0166102362204725
 30
0.0
 10
-1.6168149606299214
 20
-3.0166102362204725
 30
0.0
 10
-1.6168149606299214
 20
-3.0166102362204725
 30
0.0
 10
-1.6168149606299214
 20
-3.0166102362204725
 30
0.0
 10
-1.6218031496062992
 20
-3.0198267716535434
 30
0.0
 10
-1.6218031496062992
 20
-3.0198267716535434
 30
0.0
 10
-1.6218031496062992
 20
-3.0198267716535434
 30
0.0
 10
-1.6218031496062992
 20
-3.0198267716535434
 30
0.0
 10
-1.6268464566929135
 20
-3.0229055118110235
 30
0.0
 10
-1.6268464566929135
 20
-3.0229055118110235
 30
0.0
 10
-1.6268464566929135
 20
-3.0229055118110235
 30
0.0
 10
-1.6268464566929135
 20
-3.0229055118110235
 30
0.0
 10
-1.6319488188976379
 20
-3.0258661417322834
 30
0.0
 10
-1.6319488188976379
 20
-3.0258661417322834
 30
0.0
 10
-1.6319488188976379
 20
-3.0258661417322834
 30
0.0
 10
-1.6319488188976379
 20
-3.0258661417322834
 30
0.0
 10
-1.6370984251968506
 20
-3.0286929133858269
 30
0.0
 10
-1.6370984251968506
 20
-3.0286929133858269
 30
0.0
 10
-1.6370984251968506
 20
-3.0286929133858269
 30
0.0
 10
-1.6370984251968506
 20
-3.0286929133858269
 30
0.0
 10
-1.6423031496062992
 20
-3.0313937007874019
 30
0.0
 10
-1.6423031496062992
 20
-3.0313937007874019
 30
0.0
 10
-1.6423031496062992
 20
-3.0313937007874019
 30
0.0
 10
-1.6423031496062992
 20
-3.0313937007874019
 30
0.0
 10
-1.6475590551181103
 20
-3.03396062992126
 30
0.0
 10
-1.6475590551181103
 20
-3.03396062992126
 30
0.0
 10
-1.6475590551181103
 20
-3.03396062992126
 30
0.0
 10
-1.6475590551181103
 20
-3.03396062992126
 30
0.0
 10
-1.6528622047244095
 20
-3.036409448818898
 30
0.0
 10
-1.6528622047244095
 20
-3.036409448818898
 30
0.0
  0
SPLINE
  5
64
100
AcDbEntity
  8
Additional Graphics
 62
     9
100
AcDbSpline
210
0.0
220
0.0
230
1.0
 70
     1
 71
     3
 72
    76
 73
    72
 74
     0
 42
0.0000000001
 43
0.0000000001
 40
0.0
 40
0.0
 40
0.0
 40
0.0
 40
0.0555555555555556
 40
0.0555555555555556
 40
0.0555555555555556
 40
0.0555555555555556
 40
0.1111111111111111
 40
0.1111111111111111
 40
0.1111111111111111
 40
0.1111111111111111
 40
0.1666666666666667
 40
0.1666666666666667
 40
0.1666666666666667
 40
0.1666666666666667
 40
0.2222222222222222
 40
0.2222222222222222
 40
0.2222222222222222
 40
0.2222222222222222
 40
0.2777777777777778
 40
0.2777777777777778
 40
0.2777777777777778
 40
0.2777777777777778
 40
0.3333333333333334
 40
0.3333333333333334
 40
0.3333333333333334
 40
0.3333333333333334
 40
0.388888888888889
 40
0.388888888888889
 40
0.388888888888889
 40
0.388888888888889
 40
0.4444444444444445
 40
0.4444444444444445
 40
0.4444444444444445
 40
0.4444444444444445
 40
0.5000000000000001
 40
0.5000000000000001
 40
0.5000000000000001
 40
0.5000000000000001
 40
0.5555555555555557
 40
0.5555555555555557
 40
0.5555555555555557
 40
0.5555555555555557
 40
0.6111111111111113
 40
0.6111111111111113
 40
0.6111111111111113
 40
0.6111111111111113
 40
0.6666666666666669
 40
0.6666666666666669
 40
0.6666666666666669
 40
0.6666666666666669
 40
0.7222222222222224
 40
0.7222222222222224
 40
0.7222222222222224
 40
0.7222222222222224
 40
0.777777777777778
 40
0.777777777777778
 40
0.777777777777778
 40
0.777777777777778
 40
0.8333333333333336
 40
0.8333333333333336
 40
0.8333333333333336
 40
0.8333333333333336
 40
0.8888888888888892
 40
0.8888888888888892
 40
0.8888888888888892
 40
0.8888888888888892
 40
0.9444444444444448
 40
0.9444444444444448
 40
0.9444444444444448
 40
0.9444444444444448
 40
1.0
 40
1.0
 40
1.0
 40
1.0
 10
-1.6118976377952756
 20
-3.0132716535433071
 30
0.0
 10
-1.6118976377952756
 20
-3.0132716535433071
 30
0.0
 10
-0.9665118110236221
 20
-3.3998582677165357
 30
0.0
 10
-0.9665118110236221
 20
-3.3998582677165357
 30
0.0
 10
-0.9665118110236221
 20
-3.3998582677165357
 30
0.0
 10
-0.9665118110236221
 20
-3.3998582677165357
 30
0.0
 10
-0.9616456692913387
 20
-3.3963818897637799
 30
0.0
 10
-0.9616456692913387
 20
-3.3963818897637799
 30
0.0
 10
-0.9616456692913387
 20
-3.3963818897637799
 30
0.0
 10
-0.9616456692913387
 20
-3.3963818897637799
 30
0.0
 10
-0.9568543307086614
 20
-3.3927834645669295
 30
0.0
 10
-0.9568543307086614
 20
-3.3927834645669295
 30
0.0
 10
-0.9568543307086614
 20
-3.3927834645669295
 30
0.0
 10
-0.9568543307086614
 20
-3.3927834645669295
 30
0.0
 10
-0.9521299212598425
 20
-3.3890551181102362
 30
0.0
 10
-0.9521299212598425
 20
-3.3890551181102362
 30
0.0
 10
-0.9521299212598425
 20
-3.3890551181102362
 30
0.0
 10
-0.9521299212598425
 20
-3.3890551181102362
 30
0.0
 10
-0.947476377952756
 20
-3.3852007874015748
 30
0.0
 10
-0.947476377952756
 20
-3.3852007874015748
 30
0.0
 10
-0.947476377952756
 20
-3.3852007874015748
 30
0.0
 10
-0.947476377952756
 20
-3.3852007874015748
 30
0.0
 10
-0.9428937007874017
 20
-3.3812125984251971
 30
0.0
 10
-0.9428937007874017
 20
-3.3812125984251971
 30
0.0
 10
-0.9428937007874017
 20
-3.3812125984251971
 30
0.0
 10
-0.9428937007874017
 20
-3.3812125984251971
 30
0.0
 10
-0.9383858267716536
 20
-3.3771023622047247
 30
0.0
 10
-0.9383858267716536
 20
-3.3771023622047247
 30
0.0
 10
-0.9383858267716536
 20
-3.3771023622047247
 30
0.0
 10
-0.9383858267716536
 20
-3.3771023622047247
 30
0.0
 10
-0.9339527559055119
 20
-3.3728582677165355
 30
0.0
 10
-0.9339527559055119
 20
-3.3728582677165355
 30
0.0
 10
-0.9339527559055119
 20
-3.3728582677165355
 30
0.0
 10
-0.9339527559055119
 20
-3.3728582677165355
 30
0.0
 10
-0.9296102362204725
 20
-3.3684960629921261
 30
0.0
 10
-0.9296102362204725
 20
-3.3684960629921261
 30
0.0
 10
-0.9296102362204725
 20
-3.3684960629921261
 30
0.0
 10
-0.9296102362204725
 20
-3.3684960629921261
 30
0.0
 10
-1.574996062992126
 20
-2.981909448818898
 30
0.0
 10
-1.574996062992126
 20
-2.981909448818898
 30
0.0
 10
-1.574996062992126
 20
-2.981909448818898
 30
0.0
 10
-1.574996062992126
 20
-2.981909448818898
 30
0.0
 10
-1.5793385826771653
 20
-2.9862716535433074
 30
0.0
 10
-1.5793385826771653
 20
-2.9862716535433074
 30
0.0
 10
-1.5793385826771653
 20
-2.9862716535433074
 30
0.0
 10
-1.5793385826771653
 20
-2.9862716535433074
 30
0.0
 10
-1.5837716535433071
 20
-2.9905157480314961
 30
0.0
 10
-1.5837716535433071
 20
-2.9905157480314961
 30
0.0
 10
-1.5837716535433071
 20
-2.9905157480314961
 30
0.0
 10
-1.5837716535433071
 20
-2.9905157480314961
 30
0.0
 10
-1.5882795275590551
 20
-2.9946259842519685
 30
0.0
 10
-1.5882795275590551
 20
-2.9946259842519685
 30
0.0
 10
-1.5882795275590551
 20
-2.9946259842519685
 30
0.0
 10
-1.5882795275590551
 20
-2.9946259842519685
 30
0.0
 10
-1.5928622047244094
 20
-2.9986141732283467
 30
0.0
 10
-1.5928622047244094
 20
-2.9986141732283467
 30
0.0
 10
-1.5928622047244094
 20
-2.9986141732283467
 30
0.0
 10
-1.5928622047244094
 20
-2.9986141732283467
 30
0.0
 10
-1.5975157480314961
 20
-3.002468503937008
 30
0.0
 10
-1.5975157480314961
 20
-3.002468503937008
 30
0.0
 10
-1.5975157480314961
 20
-3.002468503937008
 30
0.0
 10
-1.5975157480314961
 20
-3.002468503937008
 30
0.0
 10
-1.6022401574803151
 20
-3.0061968503937009
 30
0.0
 10
-1.6022401574803151
 20
-3.0061968503937009
 30
0.0
 10
-1.6022401574803151
 20
-3.0061968503937009
 30
0.0
 10
-1.6022401574803151
 20
-3.0061968503937009
 30
0.0
 10
-1.6070314960629921
 20
-3.0097952755905513
 30
0.0
 10
-1.6070314960629921
 20
-3.0097952755905513
 30
0.0
 10
-1.6070314960629921
 20
-3.0097952755905513
 30
0.0
 10
-1.6070314960629921
 20
-3.0097952755905513
 30
0.0
 10
-1.6118976377952756
 20
-3.0132716535433071
 30
0.0
 10
-1.6118976377952756
 20
-3.0132716535433071
 30
0.0
  0
SPLINE
  5
65
100
AcDbEntity
  8
Additional Graphics
 62
     9
100
AcDbSpline
210
0.0
220
0.0
230
1.0
 70
     1
 71
     3
 72
    44
 73
    40
 74
     0
 42
0.0000000001
 43
0.0000000001
 40
0.0
 40
0.0
 40
0.0
 40
0.0
 40
0.1
 40
0.1
 40
0.1
 40
0.1
 40
0.2
 40
0.2
 40
0.2
 40
0.2
 40
0.3
 40
0.3
 40
0.3
 40
0.3
 40
0.4
 40
0.4
 40
0.4
 40
0.4
 40
0.5
 40
0.5
 40
0.5
 40
0.5
 40
0.6
 40
0.6
 40
0.6
 40
0.6
 40
0.7
 40
0.7
 40
0.7
 40
0.7
 40
0.7999999999999999
 40
0.7999999999999999
 40
0.7999999999999999
 40
0.7999999999999999
 40
0.8999999999999999
 40
0.8999999999999999
 40
0.8999999999999999
 40
0.8999999999999999
 40
1.0
 40
1.0
 40
1.0
 40
1.0
 10
-1.574996062992126
 20
-2.981909448818898
 30
0.0
 10
-1.574996062992126
 20
-2.981909448818898
 30
0.0
 10
-0.9296102362204725
 20
-3.3684960629921261
 30
0.0
 10
-0.9296102362204725
 20
-3.3684960629921261
 30
0.0
 10
-0.9296102362204725
 20
-3.3684960629921261
 30
0.0
 10
-0.9296102362204725
 20
-3.3684960629921261
 30
0.0
 10
-0.9222047244094489
 20
-3.3605472440944881
 30
0.0
 10
-0.9222047244094489
 20
-3.3605472440944881
 30
0.0
 10
-0.9222047244094489
 20
-3.3605472440944881
 30
0.0
 10
-0.9222047244094489
 20
-3.3605472440944881
 30
0.0
 10
-0.9152125984251969
 20
-3.3523740157480315
 30
0.0
 10
-0.9152125984251969
 20
-3.3523740157480315
 30
0.0
 10
-0.9152125984251969
 20
-3.3523740157480315
 30
0.0
 10
-0.9152125984251969
 20
-3.3523740157480315
 30
0.0
 10
-0.9086299212598425
 20
-3.3439763779527558
 30
0.0
 10
-0.9086299212598425
 20
-3.3439763779527558
 30
0.0
 10
-0.9086299212598425
 20
-3.3439763779527558
 30
0.0
 10
-0.9086299212598425
 20
-3.3439763779527558
 30
0.0
 10
-0.9024527559055119
 20
-3.3353818897637795
 30
0.0
 10
-0.9024527559055119
 20
-3.3353818897637795
 30
0.0
 10
-0.9024527559055119
 20
-3.3353818897637795
 30
0.0
 10
-0.9024527559055119
 20
-3.3353818897637795
 30
0.0
 10
-1.5478385826771655
 20
-2.9487952755905513
 30
0.0
 10
-1.5478385826771655
 20
-2.9487952755905513
 30
0.0
 10
-1.5478385826771655
 20
-2.9487952755905513
 30
0.0
 10
-1.5478385826771655
 20
-2.9487952755905513
 30
0.0
 10
-1.5540157480314962
 20
-2.9573897637795277
 30
0.0
 10
-1.5540157480314962
 20
-2.9573897637795277
 30
0.0
 10
-1.5540157480314962
 20
-2.9573897637795277
 30
0.0
 10
-1.5540157480314962
 20
-2.9573897637795277
 30
0.0
 10
-1.5605984251968505
 20
-2.9657874015748034
 30
0.0
 10
-1.5605984251968505
 20
-2.9657874015748034
 30
0.0
 10
-1.5605984251968505
 20
-2.9657874015748034
 30
0.0
 10
-1.5605984251968505
 20
-2.9657874015748034
 30
0.0
 10
-1.5675905511811024
 20
-2.97396062992126
 30
0.0
 10
-1.5675905511811024
 20
-2.97396062992126
 30
0.0
 10
-1.5675905511811024
 20
-2.97396062992126
 30
0.0
 10
-1.5675905511811024
 20
-2.97396062992126
 30
0.0
 10
-1.574996062992126
 20
-2.981909448818898
 30
0.0
 10
-1.574996062992126
 20
-2.981909448818898
 30
0.0
  0
SPLINE
  5
66
100
AcDbEntity
  8
Additional Graphics
 62
     9
100
AcDbSpline
210
0.0
220
0.0
230
1.0
 70
     1
 71
     3
 72
    44
 73
    40
 74
     0
 42
0.0000000001
 43
0.0000000001
 40
0.0
 40
0.0
 40
0.0
 40
0.0
 40
0.1
 40
0.1
 40
0.1
 40
0.1
 40
0.2
 40
0.2
 40
0.2
 40
0.2
 40
0.3
 40
0.3
 40
0.3
 40
0.3
 40
0.4
 40
0.4
 40
0.4
 40
0.4
 40
0.5
 40
0.5
 40
0.5
 40
0.5
 40
0.6
 40
0.6
 40
0.6
 40
0.6
 40
0.7
 40
0.7
 40
0.7
 40
0.7
 40
0.7999999999999999
 40
0.7999999999999999
 40
0.7999999999999999
 40
0.7999999999999999
 40
0.8999999999999999
 40
0.8999999999999999
 40
0.8999999999999999
 40
0.8999999999999999
 40
1.0
 40
1.0
 40
1.0
 40
1.0
 10
-1.5478385826771655
 20
-2.9487952755905513
 30
0.0
 10
-1.5478385826771655
 20
-2.9487952755905513
 30
0.0
 10
-0.9024527559055119
 20
-3.3353818897637795
 30
0.0
 10
-0.9024527559055119
 20
-3.3353818897637795
 30
0.0
 10
-0.9024527559055119
 20
-3.3353818897637795
 30
0.0
 10
-0.9024527559055119
 20
-3.3353818897637795
 30
0.0
 10
-0.8966771653543307
 20
-3.3265866141732285
 30
0.0
 10
-0.8966771653543307
 20
-3.3265866141732285
 30
0.0
 10
-0.8966771653543307
 20
-3.3265866141732285
 30
0.0
 10
-0.8966771653543307
 20
-3.3265866141732285
 30
0.0
 10
-0.8913070866141732
 20
-3.3176181102362206
 30
0.0
 10
-0.8913070866141732
 20
-3.3176181102362206
 30
0.0
 10
-0.8913070866141732
 20
-3.3176181102362206
 30
0.0
 10
-0.8913070866141732
 20
-3.3176181102362206
 30
0.0
 10
-0.8863464566929135
 20
-3.3084803149606299
 30
0.0
 10
-0.8863464566929135
 20
-3.3084803149606299
 30
0.0
 10
-0.8863464566929135
 20
-3.3084803149606299
 30
0.0
 10
-0.8863464566929135
 20
-3.3084803149606299
 30
0.0
 10
-0.8817913385826772
 20
-3.2991929133858271
 30
0.0
 10
-0.8817913385826772
 20
-3.2991929133858271
 30
0.0
 10
-0.8817913385826772
 20
-3.2991929133858271
 30
0.0
 10
-0.8817913385826772
 20
-3.2991929133858271
 30
0.0
 10
-1.5271771653543307
 20
-2.9126062992125985
 30
0.0
 10
-1.5271771653543307
 20
-2.9126062992125985
 30
0.0
 10
-1.5271771653543307
 20
-2.9126062992125985
 30
0.0
 10
-1.5271771653543307
 20
-2.9126062992125985
 30
0.0
 10
-1.531732283464567
 20
-2.9218937007874017
 30
0.0
 10
-1.531732283464567
 20
-2.9218937007874017
 30
0.0
 10
-1.531732283464567
 20
-2.9218937007874017
 30
0.0
 10
-1.531732283464567
 20
-2.9218937007874017
 30
0.0
 10
-1.5366929133858269
 20
-2.9310314960629924
 30
0.0
 10
-1.5366929133858269
 20
-2.9310314960629924
 30
0.0
 10
-1.5366929133858269
 20
-2.9310314960629924
 30
0.0
 10
-1.5366929133858269
 20
-2.9310314960629924
 30
0.0
 10
-1.5420629921259843
 20
-2.9399999999999999
 30
0.0
 10
-1.5420629921259843
 20
-2.9399999999999999
 30
0.0
 10
-1.5420629921259843
 20
-2.9399999999999999
 30
0.0
 10
-1.5420629921259843
 20
-2.9399999999999999
 30
0.0
 10
-1.5478385826771655
 20
-2.9487952755905513
 30
0.0
 10
-1.5478385826771655
 20
-2.9487952755905513
 30
0.0
  0
SPLINE
  5
67
100
AcDbEntity
  8
Additional Graphics
 62
     9
100
AcDbSpline
210
0.0
220
0.0
230
1.0
 70
     1
 71
     3
 72
    44
 73
    40
 74
     0
 42
0.0000000001
 43
0.0000000001
 40
0.0
 40
0.0
 40
0.0
 40
0.0
 40
0.1
 40
0.1
 40
0.1
 40
0.1
 40
0.2
 40
0.2
 40
0.2
 40
0.2
 40
0.3
 40
0.3
 40
0.3
 40
0.3
 40
0.4
 40
0.4
 40
0.4
 40
0.4
 40
0.5
 40
0.5
 40
0.5
 40
0.5
 40
0.6
 40
0.6
 40
0.6
 40
0.6
 40
0.7
 40
0.7
 40
0.7
 40
0.7
 40
0.7999999999999999
 40
0.7999999999999999
 40
0.7999999999999999
 40
0.7999999999999999
 40
0.8999999999999999
 40
0.8999999999999999
 40
0.8999999999999999
 40
0.8999999999999999
 40
1.0
 40
1.0
 40
1.0
 40
1.0
 10
-1.5271771653543307
 20
-2.9126062992125985
 30
0.0
 10
-1.5271771653543307
 20
-2.9126062992125985
 30
0.0
 10
-0.8817913385826772
 20
-3.2991929133858271
 30
0.0
 10
-0.8817913385826772
 20
-3.2991929133858271
 30
0.0
 10
-0.8817913385826772
 20
-3.2991929133858271
 30
0.0
 10
-0.8817913385826772
 20
-3.2991929133858271
 30
0.0
 10
-0.8776338582677166
 20
-3.2897559055118113
 30
0.0
 10
-0.8776338582677166
 20
-3.2897559055118113
 30
0.0
 10
-0.8776338582677166
 20
-3.2897559055118113
 30
0.0
 10
-0.8776338582677166
 20
-3.2897559055118113
 30
0.0
 10
-0.8738858267716536
 20
-3.2802007874015748
 30
0.0
 10
-0.8738858267716536
 20
-3.2802007874015748
 30
0.0
 10
-0.8738858267716536
 20
-3.2802007874015748
 30
0.0
 10
-0.8738858267716536
 20
-3.2802007874015748
 30
0.0
 10
-0.8705433070866142
 20
-3.2705275590551182
 30
0.0
 10
-0.8705433070866142
 20
-3.2705275590551182
 30
0.0
 10
-0.8705433070866142
 20
-3.2705275590551182
 30
0.0
 10
-0.8705433070866142
 20
-3.2705275590551182
 30
0.0
 10
-0.8676062992125985
 20
-3.2607598425196853
 30
0.0
 10
-0.8676062992125985
 20
-3.2607598425196853
 30
0.0
 10
-0.8676062992125985
 20
-3.2607598425196853
 30
0.0
 10
-0.8676062992125985
 20
-3.2607598425196853
 30
0.0
 10
-1.512992125984252
 20
-2.8741732283464567
 30
0.0
 10
-1.512992125984252
 20
-2.8741732283464567
 30
0.0
 10
-1.512992125984252
 20
-2.8741732283464567
 30
0.0
 10
-1.512992125984252
 20
-2.8741732283464567
 30
0.0
 10
-1.5159291338582677
 20
-2.88394094488189
 30
0.0
 10
-1.5159291338582677
 20
-2.88394094488189
 30
0.0
 10
-1.5159291338582677
 20
-2.88394094488189
 30
0.0
 10
-1.5159291338582677
 20
-2.88394094488189
 30
0.0
 10
-1.5192716535433071
 20
-2.8936141732283467
 30
0.0
 10
-1.5192716535433071
 20
-2.8936141732283467
 30
0.0
 10
-1.5192716535433071
 20
-2.8936141732283467
 30
0.0
 10
-1.5192716535433071
 20
-2.8936141732283467
 30
0.0
 10
-1.5230196850393702
 20
-2.9031692913385827
 30
0.0
 10
-1.5230196850393702
 20
-2.9031692913385827
 30
0.0
 10
-1.5230196850393702
 20
-2.9031692913385827
 30
0.0
 10
-1.5230196850393702
 20
-2.9031692913385827
 30
0.0
 10
-1.5271771653543307
 20
-2.9126062992125985
 30
0.0
 10
-1.5271771653543307
 20
-2.9126062992125985
 30
0.0
  0
SPLINE
  5
68
100
AcDbEntity
  8
Additional Graphics
 62
     9
100
AcDbSpline
210
0.0
220
0.0
230
1.0
 70
     1
 71
     3
 72
    44
 73
    40
 74
     0
 42
0.0000000001
 43
0.0000000001
 40
0.0
 40
0.0
 40
0.0
 40
0.0
 40
0.1
 40
0.1
 40
0.1
 40
0.1
 40
0.2
 40
0.2
 40
0.2
 40
0.2
 40
0.3
 40
0.3
 40
0.3
 40
0.3
 40
0.4
 40
0.4
 40
0.4
 40
0.4
 40
0.5
 40
0.5
 40
0.5
 40
0.5
 40
0.6
 40
0.6
 40
0.6
 40
0.6
 40
0.7
 40
0.7
 40
0.7
 40
0.7
 40
0.7999999999999999
 40
0.7999999999999999
 40
0.7999999999999999
 40
0.7999999999999999
 40
0.8999999999999999
 40
0.8999999999999999
 40
0.8999999999999999
 40
0.8999999999999999
 40
1.0
 40
1.0
 40
1.0
 40
1.0
 10
-1.512992125984252
 20
-2.8741732283464567
 30
0.0
 10
-1.512992125984252
 20
-2.8741732283464567
 30
0.0
 10
-0.8676062992125985
 20
-3.2607598425196853
 30
0.0
 10
-0.8676062992125985
 20
-3.2607598425196853
 30
0.0
 10
-0.8676062992125985
 20
-3.2607598425196853
 30
0.0
 10
-0.8676062992125985
 20
-3.2607598425196853
 30
0.0
 10
-0.8650669291338583
 20
-3.2509015748031498
 30
0.0
 10
-0.8650669291338583
 20
-3.2509015748031498
 30
0.0
 10
-0.8650669291338583
 20
-3.2509015748031498
 30
0.0
 10
-0.8650669291338583
 20
-3.2509015748031498
 30
0.0
 10
-0.8629370078740157
 20
-3.2409685039370082
 30
0.0
 10
-0.8629370078740157
 20
-3.2409685039370082
 30
0.0
 10
-0.8629370078740157
 20
-3.2409685039370082
 30
0.0
 10
-0.8629370078740157
 20
-3.2409685039370082
 30
0.0
 10
-0.8612125984251969
 20
-3.2309724409448819
 30
0.0
 10
-0.8612125984251969
 20
-3.2309724409448819
 30
0.0
 10
-0.8612125984251969
 20
-3.2309724409448819
 30
0.0
 10
-0.8612125984251969
 20
-3.2309724409448819
 30
0.0
 10
-0.8598937007874016
 20
-3.2209330708661419
 30
0.0
 10
-0.8598937007874016
 20
-3.2209330708661419
 30
0.0
 10
-0.8598937007874016
 20
-3.2209330708661419
 30
0.0
 10
-0.8598937007874016
 20
-3.2209330708661419
 30
0.0
 10
-1.5052795275590551
 20
-2.8343464566929133
 30
0.0
 10
-1.5052795275590551
 20
-2.8343464566929133
 30
0.0
 10
-1.5052795275590551
 20
-2.8343464566929133
 30
0.0
 10
-1.5052795275590551
 20
-2.8343464566929133
 30
0.0
 10
-1.5065984251968505
 20
-2.8443858267716537
 30
0.0
 10
-1.5065984251968505
 20
-2.8443858267716537
 30
0.0
 10
-1.5065984251968505
 20
-2.8443858267716537
 30
0.0
 10
-1.5065984251968505
 20
-2.8443858267716537
 30
0.0
 10
-1.5083228346456694
 20
-2.8543818897637796
 30
0.0
 10
-1.5083228346456694
 20
-2.8543818897637796
 30
0.0
 10
-1.5083228346456694
 20
-2.8543818897637796
 30
0.0
 10
-1.5083228346456694
 20
-2.8543818897637796
 30
0.0
 10
-1.5104527559055119
 20
-2.8643149606299212
 30
0.0
 10
-1.5104527559055119
 20
-2.8643149606299212
 30
0.0
 10
-1.5104527559055119
 20
-2.8643149606299212
 30
0.0
 10
-1.5104527559055119
 20
-2.8643149606299212
 30
0.0
 10
-1.512992125984252
 20
-2.8741732283464567
 30
0.0
 10
-1.512992125984252
 20
-2.8741732283464567
 30
0.0
  0
SPLINE
  5
69
100
AcDbEntity
  8
Additional Graphics
 62
     9
100
AcDbSpline
210
0.0
220
0.0
230
1.0
 70
     1
 71
     3
 72
    44
 73
    40
 74
     0
 42
0.0000000001
 43
0.0000000001
 40
0.0
 40
0.0
 40
0.0
 40
0.0
 40
0.1
 40
0.1
 40
0.1
 40
0.1
 40
0.2
 40
0.2
 40
0.2
 40
0.2
 40
0.3
 40
0.3
 40
0.3
 40
0.3
 40
0.4
 40
0.4
 40
0.4
 40
0.4
 40
0.5
 40
0.5
 40
0.5
 40
0.5
 40
0.6
 40
0.6
 40
0.6
 40
0.6
 40
0.7
 40
0.7
 40
0.7
 40
0.7
 40
0.7999999999999999
 40
0.7999999999999999
 40
0.7999999999999999
 40
0.7999999999999999
 40
0.8999999999999999
 40
0.8999999999999999
 40
0.8999999999999999
 40
0.8999999999999999
 40
1.0
 40
1.0
 40
1.0
 40
1.0
 10
-1.5052795275590551
 20
-2.8343464566929133
 30
0.0
 10
-1.5052795275590551
 20
-2.8343464566929133
 30
0.0
 10
-0.8598937007874016
 20
-3.2209330708661419
 30
0.0
 10
-0.8598937007874016
 20
-3.2209330708661419
 30
0.0
 10
-0.8598937007874016
 20
-3.2209330708661419
 30
0.0
 10
-0.8598937007874016
 20
-3.2209330708661419
 30
0.0
 10
-0.8589724409448819
 20
-3.2108464566929134
 30
0.0
 10
-0.8589724409448819
 20
-3.2108464566929134
 30
0.0
 10
-0.8589724409448819
 20
-3.2108464566929134
 30
0.0
 10
-0.8589724409448819
 20
-3.2108464566929134
 30
0.0
 10
-0.8584566929133859
 20
-3.200748031496063
 30
0.0
 10
-0.8584566929133859
 20
-3.200748031496063
 30
0.0
 10
-0.8584566929133859
 20
-3.200748031496063
 30
0.0
 10
-0.8584566929133859
 20
-3.200748031496063
 30
0.0
 10
-0.8583385826771653
 20
-3.1906338582677165
 30
0.0
 10
-0.8583385826771653
 20
-3.1906338582677165
 30
0.0
 10
-0.8583385826771653
 20
-3.1906338582677165
 30
0.0
 10
-0.8583385826771653
 20
-3.1906338582677165
 30
0.0
 10
-0.8586338582677165
 20
-3.1805314960629922
 30
0.0
 10
-0.8586338582677165
 20
-3.1805314960629922
 30
0.0
 10
-0.8586338582677165
 20
-3.1805314960629922
 30
0.0
 10
-0.8586338582677165
 20
-3.1805314960629922
 30
0.0
 10
-1.5040196850393701
 20
-2.7939448818897641
 30
0.0
 10
-1.5040196850393701
 20
-2.7939448818897641
 30
0.0
 10
-1.5040196850393701
 20
-2.7939448818897641
 30
0.0
 10
-1.5040196850393701
 20
-2.7939448818897641
 30
0.0
 10
-1.5037244094488189
 20
-2.8040472440944884
 30
0.0
 10
-1.5037244094488189
 20
-2.8040472440944884
 30
0.0
 10
-1.5037244094488189
 20
-2.8040472440944884
 30
0.0
 10
-1.5037244094488189
 20
-2.8040472440944884
 30
0.0
 10
-1.5038425196850393
 20
-2.8141614173228349
 30
0.0
 10
-1.5038425196850393
 20
-2.8141614173228349
 30
0.0
 10
-1.5038425196850393
 20
-2.8141614173228349
 30
0.0
 10
-1.5038425196850393
 20
-2.8141614173228349
 30
0.0
 10
-1.5043582677165355
 20
-2.8242598425196852
 30
0.0
 10
-1.5043582677165355
 20
-2.8242598425196852
 30
0.0
 10
-1.5043582677165355
 20
-2.8242598425196852
 30
0.0
 10
-1.5043582677165355
 20
-2.8242598425196852
 30
0.0
 10
-1.5052795275590551
 20
-2.8343464566929133
 30
0.0
 10
-1.5052795275590551
 20
-2.8343464566929133
 30
0.0
  0
SPLINE
  5
6A
100
AcDbEntity
  8
Additional Graphics
 62
     9
100
AcDbSpline
210
0.0
220
0.0
230
1.0
 70
     1
 71
     3
 72
    44
 73
    40
 74
     0
 42
0.0000000001
 43
0.0000000001
 40
0.0
 40
0.0
 40
0.0
 40
0.0
 40
0.1
 40
0.1
 40
0.1
 40
0.1
 40
0.2
 40
0.2
 40
0.2
 40
0.2
 40
0.3
 40
0.3
 40
0.3
 40
0.3
 40
0.4
 40
0.4
 40
0.4
 40
0.4
 40
0.5
 40
0.5
 40
0.5
 40
0.5
 40
0.6
 40
0.6
 40
0.6
 40
0.6
 40
0.7
 40
0.7
 40
0.7
 40
0.7
 40
0.7999999999999999
 40
0.7999999999999999
 40
0.7999999999999999
 40
0.7999999999999999
 40
0.8999999999999999
 40
0.8999999999999999
 40
0.8999999999999999
 40
0.8999999999999999
 40
1.0
 40
1.0
 40
1.0
 40
1.0
 10
-1.5040196850393701
 20
-2.7939448818897641
 30
0.0
 10
-1.5040196850393701
 20
-2.7939448818897641
 30
0.0
 10
-0.8586338582677165
 20
-3.1805314960629922
 30
0.0
 10
-0.8586338582677165
 20
-3.1805314960629922
 30
0.0
 10
-0.8586338582677165
 20
-3.1805314960629922
 30
0.0
 10
-0.8586338582677165
 20
-3.1805314960629922
 30
0.0
 10
-0.8593228346456693
 20
-3.1704409448818898
 30
0.0
 10
-0.8593228346456693
 20
-3.1704409448818898
 30
0.0
 10
-0.8593228346456693
 20
-3.1704409448818898
 30
0.0
 10
-0.8593228346456693
 20
-3.1704409448818898
 30
0.0
 10
-0.8604212598425197
 20
-3.1603818897637797
 30
0.0
 10
-0.8604212598425197
 20
-3.1603818897637797
 30
0.0
 10
-0.8604212598425197
 20
-3.1603818897637797
 30
0.0
 10
-0.8604212598425197
 20
-3.1603818897637797
 30
0.0
 10
-0.8619212598425198
 20
-3.1503661417322837
 30
0.0
 10
-0.8619212598425198
 20
-3.1503661417322837
 30
0.0
 10
-0.8619212598425198
 20
-3.1503661417322837
 30
0.0
 10
-0.8619212598425198
 20
-3.1503661417322837
 30
0.0
 10
-0.8638228346456693
 20
-3.1404094488188976
 30
0.0
 10
-0.8638228346456693
 20
-3.1404094488188976
 30
0.0
 10
-0.8638228346456693
 20
-3.1404094488188976
 30
0.0
 10
-0.8638228346456693
 20
-3.1404094488188976
 30
0.0
 10
-1.5092086614173228
 20
-2.7538228346456695
 30
0.0
 10
-1.5092086614173228
 20
-2.7538228346456695
 30
0.0
 10
-1.5092086614173228
 20
-2.7538228346456695
 30
0.0
 10
-1.5092086614173228
 20
-2.7538228346456695
 30
0.0
 10
-1.5073070866141733
 20
-2.7637795275590551
 30
0.0
 10
-1.5073070866141733
 20
-2.7637795275590551
 30
0.0
 10
-1.5073070866141733
 20
-2.7637795275590551
 30
0.0
 10
-1.5073070866141733
 20
-2.7637795275590551
 30
0.0
 10
-1.5058070866141733
 20
-2.7737952755905515
 30
0.0
 10
-1.5058070866141733
 20
-2.7737952755905515
 30
0.0
 10
-1.5058070866141733
 20
-2.7737952755905515
 30
0.0
 10
-1.5058070866141733
 20
-2.7737952755905515
 30
0.0
 10
-1.5047086614173228
 20
-2.7838543307086616
 30
0.0
 10
-1.5047086614173228
 20
-2.7838543307086616
 30
0.0
 10
-1.5047086614173228
 20
-2.7838543307086616
 30
0.0
 10
-1.5047086614173228
 20
-2.7838543307086616
 30
0.0
 10
-1.5040196850393701
 20
-2.7939448818897641
 30
0.0
 10
-1.5040196850393701
 20
-2.7939448818897641
 30
0.0
  0
SPLINE
  5
6B
100
AcDbEntity
  8
Additional Graphics
 62
     9
100
AcDbSpline
210
0.0
220
0.0
230
1.0
 70
     1
 71
     3
 72
    44
 73
    40
 74
     0
 42
0.0000000001
 43
0.0000000001
 40
0.0
 40
0.0
 40
0.0
 40
0.0
 40
0.1
 40
0.1
 40
0.1
 40
0.1
 40
0.2
 40
0.2
 40
0.2
 40
0.2
 40
0.3
 40
0.3
 40
0.3
 40
0.3
 40
0.4
 40
0.4
 40
0.4
 40
0.4
 40
0.5
 40
0.5
 40
0.5
 40
0.5
 40
0.6
 40
0.6
 40
0.6
 40
0.6
 40
0.7
 40
0.7
 40
0.7
 40
0.7
 40
0.7999999999999999
 40
0.7999999999999999
 40
0.7999999999999999
 40
0.7999999999999999
 40
0.8999999999999999
 40
0.8999999999999999
 40
0.8999999999999999
 40
0.8999999999999999
 40
1.0
 40
1.0
 40
1.0
 40
1.0
 10
-1.5092086614173228
 20
-2.7538228346456695
 30
0.0
 10
-1.5092086614173228
 20
-2.7538228346456695
 30
0.0
 10
-0.8638228346456693
 20
-3.1404094488188976
 30
0.0
 10
-0.8638228346456693
 20
-3.1404094488188976
 30
0.0
 10
-0.8638228346456693
 20
-3.1404094488188976
 30
0.0
 10
-0.8638228346456693
 20
-3.1404094488188976
 30
0.0
 10
-0.8661181102362205
 20
-3.1305157480314962
 30
0.0
 10
-0.8661181102362205
 20
-3.1305157480314962
 30
0.0
 10
-0.8661181102362205
 20
-3.1305157480314962
 30
0.0
 10
-0.8661181102362205
 20
-3.1305157480314962
 30
0.0
 10
-0.8688228346456693
 20
-3.1207086614173232
 30
0.0
 10
-0.8688228346456693
 20
-3.1207086614173232
 30
0.0
 10
-0.8688228346456693
 20
-3.1207086614173232
 30
0.0
 10
-0.8688228346456693
 20
-3.1207086614173232
 30
0.0
 10
-0.8719291338582678
 20
-3.1109921259842519
 30
0.0
 10
-0.8719291338582678
 20
-3.1109921259842519
 30
0.0
 10
-0.8719291338582678
 20
-3.1109921259842519
 30
0.0
 10
-0.8719291338582678
 20
-3.1109921259842519
 30
0.0
 10
-0.8754370078740158
 20
-3.1013937007874017
 30
0.0
 10
-0.8754370078740158
 20
-3.1013937007874017
 30
0.0
 10
-0.8754370078740158
 20
-3.1013937007874017
 30
0.0
 10
-0.8754370078740158
 20
-3.1013937007874017
 30
0.0
 10
-1.5208228346456694
 20
-2.7148070866141731
 30
0.0
 10
-1.5208228346456694
 20
-2.7148070866141731
 30
0.0
 10
-1.5208228346456694
 20
-2.7148070866141731
 30
0.0
 10
-1.5208228346456694
 20
-2.7148070866141731
 30
0.0
 10
-1.5173149606299212
 20
-2.7244055118110238
 30
0.0
 10
-1.5173149606299212
 20
-2.7244055118110238
 30
0.0
 10
-1.5173149606299212
 20
-2.7244055118110238
 30
0.0
 10
-1.5173149606299212
 20
-2.7244055118110238
 30
0.0
 10
-1.5142086614173229
 20
-2.7341220472440946
 30
0.0
 10
-1.5142086614173229
 20
-2.7341220472440946
 30
0.0
 10
-1.5142086614173229
 20
-2.7341220472440946
 30
0.0
 10
-1.5142086614173229
 20
-2.7341220472440946
 30
0.0
 10
-1.511503937007874
 20
-2.7439291338582676
 30
0.0
 10
-1.511503937007874
 20
-2.7439291338582676
 30
0.0
 10
-1.511503937007874
 20
-2.7439291338582676
 30
0.0
 10
-1.511503937007874
 20
-2.7439291338582676
 30
0.0
 10
-1.5092086614173228
 20
-2.7538228346456695
 30
0.0
 10
-1.5092086614173228
 20
-2.7538228346456695
 30
0.0
  0
SPLINE
  5
6C
100
AcDbEntity
  8
Additional Graphics
 62
     9
100
AcDbSpline
210
0.0
220
0.0
230
1.0
 70
     1
 71
     3
 72
    44
 73
    40
 74
     0
 42
0.0000000001
 43
0.0000000001
 40
0.0
 40
0.0
 40
0.0
 40
0.0
 40
0.1
 40
0.1
 40
0.1
 40
0.1
 40
0.2
 40
0.2
 40
0.2
 40
0.2
 40
0.3
 40
0.3
 40
0.3
 40
0.3
 40
0.4
 40
0.4
 40
0.4
 40
0.4
 40
0.5
 40
0.5
 40
0.5
 40
0.5
 40
0.6
 40
0.6
 40
0.6
 40
0.6
 40
0.7
 40
0.7
 40
0.7
 40
0.7
 40
0.7999999999999999
 40
0.7999999999999999
 40
0.7999999999999999
 40
0.7999999999999999
 40
0.8999999999999999
 40
0.8999999999999999
 40
0.8999999999999999
 40
0.8999999999999999
 40
1.0
 40
1.0
 40
1.0
 40
1.0
 10
-1.5208228346456694
 20
-2.7148070866141731
 30
0.0
 10
-1.5208228346456694
 20
-2.7148070866141731
 30
0.0
 10
-0.8754370078740158
 20
-3.1013937007874017
 30
0.0
 10
-0.8754370078740158
 20
-3.1013937007874017
 30
0.0
 10
-0.8754370078740158
 20
-3.1013937007874017
 30
0.0
 10
-0.8754370078740158
 20
-3.1013937007874017
 30
0.0
 10
-0.8793425196850394
 20
-3.0919094488188978
 30
0.0
 10
-0.8793425196850394
 20
-3.0919094488188978
 30
0.0
 10
-0.8793425196850394
 20
-3.0919094488188978
 30
0.0
 10
-0.8793425196850394
 20
-3.0919094488188978
 30
0.0
 10
-0.8836535433070867
 20
-3.0825629921259843
 30
0.0
 10
-0.8836535433070867
 20
-3.0825629921259843
 30
0.0
 10
-0.8836535433070867
 20
-3.0825629921259843
 30
0.0
 10
-0.8836535433070867
 20
-3.0825629921259843
 30
0.0
 10
-0.8883661417322835
 20
-3.0733661417322837
 30
0.0
 10
-0.8883661417322835
 20
-3.0733661417322837
 30
0.0
 10
-0.8883661417322835
 20
-3.0733661417322837
 30
0.0
 10
-0.8883661417322835
 20
-3.0733661417322837
 30
0.0
 10
-0.89348031496063
 20
-3.0643307086614175
 30
0.0
 10
-0.89348031496063
 20
-3.0643307086614175
 30
0.0
 10
-0.89348031496063
 20
-3.0643307086614175
 30
0.0
 10
-0.89348031496063
 20
-3.0643307086614175
 30
0.0
 10
-1.5388661417322835
 20
-2.677744094488189
 30
0.0
 10
-1.5388661417322835
 20
-2.677744094488189
 30
0.0
 10
-1.5388661417322835
 20
-2.677744094488189
 30
0.0
 10
-1.5388661417322835
 20
-2.677744094488189
 30
0.0
 10
-1.5337519685039371
 20
-2.6867795275590551
 30
0.0
 10
-1.5337519685039371
 20
-2.6867795275590551
 30
0.0
 10
-1.5337519685039371
 20
-2.6867795275590551
 30
0.0
 10
-1.5337519685039371
 20
-2.6867795275590551
 30
0.0
 10
-1.5290393700787401
 20
-2.6959763779527561
 30
0.0
 10
-1.5290393700787401
 20
-2.6959763779527561
 30
0.0
 10
-1.5290393700787401
 20
-2.6959763779527561
 30
0.0
 10
-1.5290393700787401
 20
-2.6959763779527561
 30
0.0
 10
-1.524728346456693
 20
-2.7053228346456692
 30
0.0
 10
-1.524728346456693
 20
-2.7053228346456692
 30
0.0
 10
-1.524728346456693
 20
-2.7053228346456692
 30
0.0
 10
-1.524728346456693
 20
-2.7053228346456692
 30
0.0
 10
-1.5208228346456694
 20
-2.7148070866141731
 30
0.0
 10
-1.5208228346456694
 20
-2.7148070866141731
 30
0.0
  0
SPLINE
  5
6D
100
AcDbEntity
  8
Additional Graphics
370
     5
100
AcDbSpline
210
0.0
220
0.0
230
1.0
 70
     1
 71
     3
 72
   524
 73
   520
 74
     0
 42
0.0000000001
 43
0.0000000001
 40
0.0
 40
0.0
 40
0.0
 40
0.0
 40
0.0076923076923077
 40
0.0076923076923077
 40
0.0076923076923077
 40
0.0076923076923077
 40
0.0153846153846154
 40
0.0153846153846154
 40
0.0153846153846154
 40
0.0153846153846154
 40
0.0230769230769231
 40
0.0230769230769231
 40
0.0230769230769231
 40
0.0230769230769231
 40
0.0307692307692308
 40
0.0307692307692308
 40
0.0307692307692308
 40
0.0307692307692308
 40
0.0384615384615385
 40
0.0384615384615385
 40
0.0384615384615385
 40
0.0384615384615385
 40
0.0461538461538462
 40
0.0461538461538462
 40
0.0461538461538462
 40
0.0461538461538462
 40
0.0538461538461538
 40
0.0538461538461538
 40
0.0538461538461538
 40
0.0538461538461538
 40
0.0615384615384615
 40
0.0615384615384615
 40
0.0615384615384615
 40
0.0615384615384615
 40
0.0692307692307692
 40
0.0692307692307692
 40
0.0692307692307692
 40
0.0692307692307692
 40
0.0769230769230769
 40
0.0769230769230769
 40
0.0769230769230769
 40
0.0769230769230769
 40
0.0846153846153846
 40
0.0846153846153846
 40
0.0846153846153846
 40
0.0846153846153846
 40
0.0923076923076923
 40
0.0923076923076923
 40
0.0923076923076923
 40
0.0923076923076923
 40
0.1
 40
0.1
 40
0.1
 40
0.1
 40
0.1076923076923077
 40
0.1076923076923077
 40
0.1076923076923077
 40
0.1076923076923077
 40
0.1153846153846154
 40
0.1153846153846154
 40
0.1153846153846154
 40
0.1153846153846154
 40
0.1230769230769231
 40
0.1230769230769231
 40
0.1230769230769231
 40
0.1230769230769231
 40
0.1307692307692308
 40
0.1307692307692308
 40
0.1307692307692308
 40
0.1307692307692308
 40
0.1384615384615385
 40
0.1384615384615385
 40
0.1384615384615385
 40
0.1384615384615385
 40
0.1461538461538462
 40
0.1461538461538462
 40
0.1461538461538462
 40
0.1461538461538462
 40
0.1538461538461539
 40
0.1538461538461539
 40
0.1538461538461539
 40
0.1538461538461539
 40
0.1615384615384616
 40
0.1615384615384616
 40
0.1615384615384616
 40
0.1615384615384616
 40
0.1692307692307692
 40
0.1692307692307692
 40
0.1692307692307692
 40
0.1692307692307692
 40
0.1769230769230769
 40
0.1769230769230769
 40
0.1769230769230769
 40
0.1769230769230769
 40
0.1846153846153846
 40
0.1846153846153846
 40
0.1846153846153846
 40
0.1846153846153846
 40
0.1923076923076923
 40
0.1923076923076923
 40
0.1923076923076923
 40
0.1923076923076923
 40
0.2
 40
0.2
 40
0.2
 40
0.2
 40
0.2076923076923077
 40
0.2076923076923077
 40
0.2076923076923077
 40
0.2076923076923077
 40
0.2153846153846154
 40
0.2153846153846154
 40
0.2153846153846154
 40
0.2153846153846154
 40
0.2230769230769231
 40
0.2230769230769231
 40
0.2230769230769231
 40
0.2230769230769231
 40
0.2307692307692308
 40
0.2307692307692308
 40
0.2307692307692308
 40
0.2307692307692308
 40
0.2384615384615385
 40
0.2384615384615385
 40
0.2384615384615385
 40
0.2384615384615385
 40
0.2461538461538462
 40
0.2461538461538462
 40
0.2461538461538462
 40
0.2461538461538462
 40
0.2538461538461538
 40
0.2538461538461538
 40
0.2538461538461538
 40
0.2538461538461538
 40
0.2615384615384615
 40
0.2615384615384615
 40
0.2615384615384615
 40
0.2615384615384615
 40
0.2692307692307692
 40
0.2692307692307692
 40
0.2692307692307692
 40
0.2692307692307692
 40
0.2769230769230768
 40
0.2769230769230768
 40
0.2769230769230768
 40
0.2769230769230768
 40
0.2846153846153845
 40
0.2846153846153845
 40
0.2846153846153845
 40
0.2846153846153845
 40
0.2923076923076922
 40
0.2923076923076922
 40
0.2923076923076922
 40
0.2923076923076922
 40
0.2999999999999998
 40
0.2999999999999998
 40
0.2999999999999998
 40
0.2999999999999998
 40
0.3076923076923075
 40
0.3076923076923075
 40
0.3076923076923075
 40
0.3076923076923075
 40
0.3153846153846152
 40
0.3153846153846152
 40
0.3153846153846152
 40
0.3153846153846152
 40
0.3230769230769228
 40
0.3230769230769228
 40
0.3230769230769228
 40
0.3230769230769228
 40
0.3307692307692305
 40
0.3307692307692305
 40
0.3307692307692305
 40
0.3307692307692305
 40
0.3384615384615382
 40
0.3384615384615382
 40
0.3384615384615382
 40
0.3384615384615382
 40
0.3461538461538458
 40
0.3461538461538458
 40
0.3461538461538458
 40
0.3461538461538458
 40
0.3538461538461535
 40
0.3538461538461535
 40
0.3538461538461535
 40
0.3538461538461535
 40
0.3615384615384611
 40
0.3615384615384611
 40
0.3615384615384611
 40
0.3615384615384611
 40
0.3692307692307688
 40
0.3692307692307688
 40
0.3692307692307688
 40
0.3692307692307688
 40
0.3769230769230765
 40
0.3769230769230765
 40
0.3769230769230765
 40
0.3769230769230765
 40
0.3846153846153841
 40
0.3846153846153841
 40
0.3846153846153841
 40
0.3846153846153841
 40
0.3923076923076918
 40
0.3923076923076918
 40
0.3923076923076918
 40
0.3923076923076918
 40
0.3999999999999995
 40
0.3999999999999995
 40
0.3999999999999995
 40
0.3999999999999995
 40
0.4076923076923071
 40
0.4076923076923071
 40
0.4076923076923071
 40
0.4076923076923071
 40
0.4153846153846148
 40
0.4153846153846148
 40
0.4153846153846148
 40
0.4153846153846148
 40
0.4230769230769225
 40
0.4230769230769225
 40
0.4230769230769225
 40
0.4230769230769225
 40
0.4307692307692301
 40
0.4307692307692301
 40
0.4307692307692301
 40
0.4307692307692301
 40
0.4384615384615378
 40
0.4384615384615378
 40
0.4384615384615378
 40
0.4384615384615378
 40
0.4461538461538455
 40
0.4461538461538455
 40
0.4461538461538455
 40
0.4461538461538455
 40
0.4538461538461531
 40
0.4538461538461531
 40
0.4538461538461531
 40
0.4538461538461531
 40
0.4615384615384608
 40
0.4615384615384608
 40
0.4615384615384608
 40
0.4615384615384608
 40
0.4692307692307685
 40
0.4692307692307685
 40
0.4692307692307685
 40
0.4692307692307685
 40
0.4769230769230761
 40
0.4769230769230761
 40
0.4769230769230761
 40
0.4769230769230761
 40
0.4846153846153838
 40
0.4846153846153838
 40
0.4846153846153838
 40
0.4846153846153838
 40
0.4923076923076915
 40
0.4923076923076915
 40
0.4923076923076915
 40
0.4923076923076915
 40
0.4999999999999991
 40
0.4999999999999991
 40
0.4999999999999991
 40
0.4999999999999991
 40
0.5076923076923068
 40
0.5076923076923068
 40
0.5076923076923068
 40
0.5076923076923068
 40
0.5153846153846144
 40
0.5153846153846144
 40
0.5153846153846144
 40
0.5153846153846144
 40
0.5230769230769221
 40
0.5230769230769221
 40
0.5230769230769221
 40
0.5230769230769221
 40
0.5307692307692298
 40
0.5307692307692298
 40
0.5307692307692298
 40
0.5307692307692298
 40
0.5384615384615374
 40
0.5384615384615374
 40
0.5384615384615374
 40
0.5384615384615374
 40
0.5461538461538451
 40
0.5461538461538451
 40
0.5461538461538451
 40
0.5461538461538451
 40
0.5538461538461528
 40
0.5538461538461528
 40
0.5538461538461528
 40
0.5538461538461528
 40
0.5615384615384604
 40
0.5615384615384604
 40
0.5615384615384604
 40
0.5615384615384604
 40
0.5692307692307681
 40
0.5692307692307681
 40
0.5692307692307681
 40
0.5692307692307681
 40
0.5769230769230758
 40
0.5769230769230758
 40
0.5769230769230758
 40
0.5769230769230758
 40
0.5846153846153834
 40
0.5846153846153834
 40
0.5846153846153834
 40
0.5846153846153834
 40
0.5923076923076911
 40
0.5923076923076911
 40
0.5923076923076911
 40
0.5923076923076911
 40
0.5999999999999988
 40
0.5999999999999988
 40
0.5999999999999988
 40
0.5999999999999988
 40
0.6076923076923064
 40
0.6076923076923064
 40
0.6076923076923064
 40
0.6076923076923064
 40
0.6153846153846141
 40
0.6153846153846141
 40
0.6153846153846141
 40
0.6153846153846141
 40
0.6230769230769218
 40
0.6230769230769218
 40
0.6230769230769218
 40
0.6230769230769218
 40
0.6307692307692294
 40
0.6307692307692294
 40
0.6307692307692294
 40
0.6307692307692294
 40
0.6384615384615371
 40
0.6384615384615371
 40
0.6384615384615371
 40
0.6384615384615371
 40
0.6461538461538448
 40
0.6461538461538448
 40
0.6461538461538448
 40
0.6461538461538448
 40
0.6538461538461524
 40
0.6538461538461524
 40
0.6538461538461524
 40
0.6538461538461524
 40
0.6615384615384601
 40
0.6615384615384601
 40
0.6615384615384601
 40
0.6615384615384601
 40
0.6692307692307677
 40
0.6692307692307677
 40
0.6692307692307677
 40
0.6692307692307677
 40
0.6769230769230754
 40
0.6769230769230754
 40
0.6769230769230754
 40
0.6769230769230754
 40
0.6846153846153831
 40
0.6846153846153831
 40
0.6846153846153831
 40
0.6846153846153831
 40
0.6923076923076907
 40
0.6923076923076907
 40
0.6923076923076907
 40
0.6923076923076907
 40
0.6999999999999984
 40
0.6999999999999984
 40
0.6999999999999984
 40
0.6999999999999984
 40
0.7076923076923061
 40
0.7076923076923061
 40
0.7076923076923061
 40
0.7076923076923061
 40
0.7153846153846137
 40
0.7153846153846137
 40
0.7153846153846137
 40
0.7153846153846137
 40
0.7230769230769214
 40
0.7230769230769214
 40
0.7230769230769214
 40
0.7230769230769214
 40
0.7307692307692291
 40
0.7307692307692291
 40
0.7307692307692291
 40
0.7307692307692291
 40
0.7384615384615367
 40
0.7384615384615367
 40
0.7384615384615367
 40
0.7384615384615367
 40
0.7461538461538444
 40
0.7461538461538444
 40
0.7461538461538444
 40
0.7461538461538444
 40
0.7538461538461521
 40
0.7538461538461521
 40
0.7538461538461521
 40
0.7538461538461521
 40
0.7615384615384597
 40
0.7615384615384597
 40
0.7615384615384597
 40
0.7615384615384597
 40
0.7692307692307674
 40
0.7692307692307674
 40
0.7692307692307674
 40
0.7692307692307674
 40
0.7769230769230751
 40
0.7769230769230751
 40
0.7769230769230751
 40
0.7769230769230751
 40
0.7846153846153827
 40
0.7846153846153827
 40
0.7846153846153827
 40
0.7846153846153827
 40
0.7923076923076904
 40
0.7923076923076904
 40
0.7923076923076904
 40
0.7923076923076904
 40
0.7999999999999981
 40
0.7999999999999981
 40
0.7999999999999981
 40
0.7999999999999981
 40
0.8076923076923057
 40
0.8076923076923057
 40
0.8076923076923057
 40
0.8076923076923057
 40
0.8153846153846134
 40
0.8153846153846134
 40
0.8153846153846134
 40
0.8153846153846134
 40
0.823076923076921
 40
0.823076923076921
 40
0.823076923076921
 40
0.823076923076921
 40
0.8307692307692287
 40
0.8307692307692287
 40
0.8307692307692287
 40
0.8307692307692287
 40
0.8384615384615364
 40
0.8384615384615364
 40
0.8384615384615364
 40
0.8384615384615364
 40
0.846153846153844
 40
0.846153846153844
 40
0.846153846153844
 40
0.846153846153844
 40
0.8538461538461517
 40
0.8538461538461517
 40
0.8538461538461517
 40
0.8538461538461517
 40
0.8615384615384594
 40
0.8615384615384594
 40
0.8615384615384594
 40
0.8615384615384594
 40
0.869230769230767
 40
0.869230769230767
 40
0.869230769230767
 40
0.869230769230767
 40
0.8769230769230747
 40
0.8769230769230747
 40
0.8769230769230747
 40
0.8769230769230747
 40
0.8846153846153824
 40
0.8846153846153824
 40
0.8846153846153824
 40
0.8846153846153824
 40
0.89230769230769
 40
0.89230769230769
 40
0.89230769230769
 40
0.89230769230769
 40
0.8999999999999977
 40
0.8999999999999977
 40
0.8999999999999977
 40
0.8999999999999977
 40
0.9076923076923054
 40
0.9076923076923054
 40
0.9076923076923054
 40
0.9076923076923054
 40
0.915384615384613
 40
0.915384615384613
 40
0.915384615384613
 40
0.915384615384613
 40
0.9230769230769207
 40
0.9230769230769207
 40
0.9230769230769207
 40
0.9230769230769207
 40
0.9307692307692284
 40
0.9307692307692284
 40
0.9307692307692284
 40
0.9307692307692284
 40
0.938461538461536
 40
0.938461538461536
 40
0.938461538461536
 40
0.938461538461536
 40
0.9461538461538437
 40
0.9461538461538437
 40
0.9461538461538437
 40
0.9461538461538437
 40
0.9538461538461514
 40
0.9538461538461514
 40
0.9538461538461514
 40
0.9538461538461514
 40
0.961538461538459
 40
0.961538461538459
 40
0.961538461538459
 40
0.961538461538459
 40
0.9692307692307667
 40
0.9692307692307667
 40
0.9692307692307667
 40
0.9692307692307667
 40
0.9769230769230743
 40
0.9769230769230743
 40
0.9769230769230743
 40
0.9769230769230743
 40
0.984615384615382
 40
0.984615384615382
 40
0.984615384615382
 40
0.984615384615382
 40
0.9923076923076897
 40
0.9923076923076897
 40
0.9923076923076897
 40
0.9923076923076897
 40
1.0
 40
1.0
 40
1.0
 40
1.0
 10
-1.7420551181102364
 20
-3.0579251968503938
 30
0.0
 10
-1.7420551181102364
 20
-3.0579251968503938
 30
0.0
 10
-1.0966692913385827
 20
-3.4445118110236224
 30
0.0
 10
-1.0966692913385827
 20
-3.4445118110236224
 30
0.0
 10
-1.0966692913385827
 20
-3.4445118110236224
 30
0.0
 10
-1.0966692913385827
 20
-3.4445118110236224
 30
0.0
 10
-1.0909409448818899
 20
-3.4441299212598429
 30
0.0
 10
-1.0909409448818899
 20
-3.4441299212598429
 30
0.0
 10
-1.0909409448818899
 20
-3.4441299212598429
 30
0.0
 10
-1.0909409448818899
 20
-3.4441299212598429
 30
0.0
 10
-1.085228346456693
 20
-3.4436259842519688
 30
0.0
 10
-1.085228346456693
 20
-3.4436259842519688
 30
0.0
 10
-1.085228346456693
 20
-3.4436259842519688
 30
0.0
 10
-1.085228346456693
 20
-3.4436259842519688
 30
0.0
 10
-1.0795236220472442
 20
-3.4429881889763783
 30
0.0
 10
-1.0795236220472442
 20
-3.4429881889763783
 30
0.0
 10
-1.0795236220472442
 20
-3.4429881889763783
 30
0.0
 10
-1.0795236220472442
 20
-3.4429881889763783
 30
0.0
 10
-1.0738385826771655
 20
-3.4422283464566932
 30
0.0
 10
-1.0738385826771655
 20
-3.4422283464566932
 30
0.0
 10
-1.0738385826771655
 20
-3.4422283464566932
 30
0.0
 10
-1.0738385826771655
 20
-3.4422283464566932
 30
0.0
 10
-1.0681614173228346
 20
-3.4413346456692913
 30
0.0
 10
-1.0681614173228346
 20
-3.4413346456692913
 30
0.0
 10
-1.0681614173228346
 20
-3.4413346456692913
 30
0.0
 10
-1.0681614173228346
 20
-3.4413346456692913
 30
0.0
 10
-1.0625078740157481
 20
-3.4403149606299213
 30
0.0
 10
-1.0625078740157481
 20
-3.4403149606299213
 30
0.0
 10
-1.0625078740157481
 20
-3.4403149606299213
 30
0.0
 10
-1.0625078740157481
 20
-3.4403149606299213
 30
0.0
 10
-1.0568740157480316
 20
-3.4391614173228349
 30
0.0
 10
-1.0568740157480316
 20
-3.4391614173228349
 30
0.0
 10
-1.0568740157480316
 20
-3.4391614173228349
 30
0.0
 10
-1.0568740157480316
 20
-3.4391614173228349
 30
0.0
 10
-1.0512677165354332
 20
-3.4378858267716539
 30
0.0
 10
-1.0512677165354332
 20
-3.4378858267716539
 30
0.0
 10
-1.0512677165354332
 20
-3.4378858267716539
 30
0.0
 10
-1.0512677165354332
 20
-3.4378858267716539
 30
0.0
 10
-1.0456771653543306
 20
-3.4364724409448821
 30
0.0
 10
-1.0456771653543306
 20
-3.4364724409448821
 30
0.0
 10
-1.0456771653543306
 20
-3.4364724409448821
 30
0.0
 10
-1.0456771653543306
 20
-3.4364724409448821
 30
0.0
 10
-1.0401181102362205
 20
-3.4349330708661419
 30
0.0
 10
-1.0401181102362205
 20
-3.4349330708661419
 30
0.0
 10
-1.0401181102362205
 20
-3.4349330708661419
 30
0.0
 10
-1.0401181102362205
 20
-3.4349330708661419
 30
0.0
 10
-1.0345866141732283
 20
-3.4332598425196852
 30
0.0
 10
-1.0345866141732283
 20
-3.4332598425196852
 30
0.0
 10
-1.0345866141732283
 20
-3.4332598425196852
 30
0.0
 10
-1.0345866141732283
 20
-3.4332598425196852
 30
0.0
 10
-1.0290905511811024
 20
-3.4314685039370079
 30
0.0
 10
-1.0290905511811024
 20
-3.4314685039370079
 30
0.0
 10
-1.0290905511811024
 20
-3.4314685039370079
 30
0.0
 10
-1.0290905511811024
 20
-3.4314685039370079
 30
0.0
 10
-1.0236259842519686
 20
-3.4295393700787402
 30
0.0
 10
-1.0236259842519686
 20
-3.4295393700787402
 30
0.0
 10
-1.0236259842519686
 20
-3.4295393700787402
 30
0.0
 10
-1.0236259842519686
 20
-3.4295393700787402
 30
0.0
 10
-1.0182007874015748
 20
-3.427488188976378
 30
0.0
 10
-1.0182007874015748
 20
-3.427488188976378
 30
0.0
 10
-1.0182007874015748
 20
-3.427488188976378
 30
0.0
 10
-1.0182007874015748
 20
-3.427488188976378
 30
0.0
 10
-1.0128149606299213
 20
-3.4253031496062993
 30
0.0
 10
-1.0128149606299213
 20
-3.4253031496062993
 30
0.0
 10
-1.0128149606299213
 20
-3.4253031496062993
 30
0.0
 10
-1.0128149606299213
 20
-3.4253031496062993
 30
0.0
 10
-1.007476377952756
 20
-3.4229960629921261
 30
0.0
 10
-1.007476377952756
 20
-3.4229960629921261
 30
0.0
 10
-1.007476377952756
 20
-3.4229960629921261
 30
0.0
 10
-1.007476377952756
 20
-3.4229960629921261
 30
0.0
 10
-1.0021732283464568
 20
-3.4205472440944882
 30
0.0
 10
-1.0021732283464568
 20
-3.4205472440944882
 30
0.0
 10
-1.0021732283464568
 20
-3.4205472440944882
 30
0.0
 10
-1.0021732283464568
 20
-3.4205472440944882
 30
0.0
 10
-0.9969173228346457
 20
-3.41798031496063
 30
0.0
 10
-0.9969173228346457
 20
-3.41798031496063
 30
0.0
 10
-0.9969173228346457
 20
-3.41798031496063
 30
0.0
 10
-0.9969173228346457
 20
-3.41798031496063
 30
0.0
 10
-0.9917125984251969
 20
-3.4152795275590551
 30
0.0
 10
-0.9917125984251969
 20
-3.4152795275590551
 30
0.0
 10
-0.9917125984251969
 20
-3.4152795275590551
 30
0.0
 10
-0.9917125984251969
 20
-3.4152795275590551
 30
0.0
 10
-0.9865629921259843
 20
-3.412452755905512
 30
0.0
 10
-0.9865629921259843
 20
-3.412452755905512
 30
0.0
 10
-0.9865629921259843
 20
-3.412452755905512
 30
0.0
 10
-0.9865629921259843
 20
-3.412452755905512
 30
0.0
 10
-0.9814606299212599
 20
-3.4094921259842521
 30
0.0
 10
-0.9814606299212599
 20
-3.4094921259842521
 30
0.0
 10
-0.9814606299212599
 20
-3.4094921259842521
 30
0.0
 10
-0.9814606299212599
 20
-3.4094921259842521
 30
0.0
 10
-0.9764173228346457
 20
-3.406413385826772
 30
0.0
 10
-0.9764173228346457
 20
-3.406413385826772
 30
0.0
 10
-0.9764173228346457
 20
-3.406413385826772
 30
0.0
 10
-0.9764173228346457
 20
-3.406413385826772
 30
0.0
 10
-0.9714291338582678
 20
-3.4031968503937011
 30
0.0
 10
-0.9714291338582678
 20
-3.4031968503937011
 30
0.0
 10
-0.9714291338582678
 20
-3.4031968503937011
 30
0.0
 10
-0.9714291338582678
 20
-3.4031968503937011
 30
0.0
 10
-0.9665118110236221
 20
-3.3998582677165357
 30
0.0
 10
-0.9665118110236221
 20
-3.3998582677165357
 30
0.0
 10
-0.9665118110236221
 20
-3.3998582677165357
 30
0.0
 10
-0.9665118110236221
 20
-3.3998582677165357
 30
0.0
 10
-0.9616456692913387
 20
-3.3963818897637799
 30
0.0
 10
-0.9616456692913387
 20
-3.3963818897637799
 30
0.0
 10
-0.9616456692913387
 20
-3.3963818897637799
 30
0.0
 10
-0.9616456692913387
 20
-3.3963818897637799
 30
0.0
 10
-0.9568543307086614
 20
-3.3927834645669295
 30
0.0
 10
-0.9568543307086614
 20
-3.3927834645669295
 30
0.0
 10
-0.9568543307086614
 20
-3.3927834645669295
 30
0.0
 10
-0.9568543307086614
 20
-3.3927834645669295
 30
0.0
 10
-0.9521299212598425
 20
-3.3890551181102362
 30
0.0
 10
-0.9521299212598425
 20
-3.3890551181102362
 30
0.0
 10
-0.9521299212598425
 20
-3.3890551181102362
 30
0.0
 10
-0.9521299212598425
 20
-3.3890551181102362
 30
0.0
 10
-0.947476377952756
 20
-3.3852007874015748
 30
0.0
 10
-0.947476377952756
 20
-3.3852007874015748
 30
0.0
 10
-0.947476377952756
 20
-3.3852007874015748
 30
0.0
 10
-0.947476377952756
 20
-3.3852007874015748
 30
0.0
 10
-0.9428937007874017
 20
-3.3812125984251971
 30
0.0
 10
-0.9428937007874017
 20
-3.3812125984251971
 30
0.0
 10
-0.9428937007874017
 20
-3.3812125984251971
 30
0.0
 10
-0.9428937007874017
 20
-3.3812125984251971
 30
0.0
 10
-0.9383858267716536
 20
-3.3771023622047247
 30
0.0
 10
-0.9383858267716536
 20
-3.3771023622047247
 30
0.0
 10
-0.9383858267716536
 20
-3.3771023622047247
 30
0.0
 10
-0.9383858267716536
 20
-3.3771023622047247
 30
0.0
 10
-0.9339527559055119
 20
-3.3728582677165355
 30
0.0
 10
-0.9339527559055119
 20
-3.3728582677165355
 30
0.0
 10
-0.9339527559055119
 20
-3.3728582677165355
 30
0.0
 10
-0.9339527559055119
 20
-3.3728582677165355
 30
0.0
 10
-0.9296102362204725
 20
-3.3684960629921261
 30
0.0
 10
-0.9296102362204725
 20
-3.3684960629921261
 30
0.0
 10
-0.9296102362204725
 20
-3.3684960629921261
 30
0.0
 10
-0.9296102362204725
 20
-3.3684960629921261
 30
0.0
 10
-0.9222047244094489
 20
-3.3605472440944881
 30
0.0
 10
-0.9222047244094489
 20
-3.3605472440944881
 30
0.0
 10
-0.9222047244094489
 20
-3.3605472440944881
 30
0.0
 10
-0.9222047244094489
 20
-3.3605472440944881
 30
0.0
 10
-0.9152125984251969
 20
-3.3523740157480315
 30
0.0
 10
-0.9152125984251969
 20
-3.3523740157480315
 30
0.0
 10
-0.9152125984251969
 20
-3.3523740157480315
 30
0.0
 10
-0.9152125984251969
 20
-3.3523740157480315
 30
0.0
 10
-0.9086299212598425
 20
-3.3439763779527558
 30
0.0
 10
-0.9086299212598425
 20
-3.3439763779527558
 30
0.0
 10
-0.9086299212598425
 20
-3.3439763779527558
 30
0.0
 10
-0.9086299212598425
 20
-3.3439763779527558
 30
0.0
 10
-0.9024527559055119
 20
-3.3353818897637795
 30
0.0
 10
-0.9024527559055119
 20
-3.3353818897637795
 30
0.0
 10
-0.9024527559055119
 20
-3.3353818897637795
 30
0.0
 10
-0.9024527559055119
 20
-3.3353818897637795
 30
0.0
 10
-0.8966771653543307
 20
-3.3265866141732285
 30
0.0
 10
-0.8966771653543307
 20
-3.3265866141732285
 30
0.0
 10
-0.8966771653543307
 20
-3.3265866141732285
 30
0.0
 10
-0.8966771653543307
 20
-3.3265866141732285
 30
0.0
 10
-0.8913070866141732
 20
-3.3176181102362206
 30
0.0
 10
-0.8913070866141732
 20
-3.3176181102362206
 30
0.0
 10
-0.8913070866141732
 20
-3.3176181102362206
 30
0.0
 10
-0.8913070866141732
 20
-3.3176181102362206
 30
0.0
 10
-0.8863464566929135
 20
-3.3084803149606299
 30
0.0
 10
-0.8863464566929135
 20
-3.3084803149606299
 30
0.0
 10
-0.8863464566929135
 20
-3.3084803149606299
 30
0.0
 10
-0.8863464566929135
 20
-3.3084803149606299
 30
0.0
 10
-0.8817913385826772
 20
-3.2991929133858271
 30
0.0
 10
-0.8817913385826772
 20
-3.2991929133858271
 30
0.0
 10
-0.8817913385826772
 20
-3.2991929133858271
 30
0.0
 10
-0.8817913385826772
 20
-3.2991929133858271
 30
0.0
 10
-0.8776338582677166
 20
-3.2897559055118113
 30
0.0
 10
-0.8776338582677166
 20
-3.2897559055118113
 30
0.0
 10
-0.8776338582677166
 20
-3.2897559055118113
 30
0.0
 10
-0.8776338582677166
 20
-3.2897559055118113
 30
0.0
 10
-0.8738858267716536
 20
-3.2802007874015748
 30
0.0
 10
-0.8738858267716536
 20
-3.2802007874015748
 30
0.0
 10
-0.8738858267716536
 20
-3.2802007874015748
 30
0.0
 10
-0.8738858267716536
 20
-3.2802007874015748
 30
0.0
 10
-0.8705433070866142
 20
-3.2705275590551182
 30
0.0
 10
-0.8705433070866142
 20
-3.2705275590551182
 30
0.0
 10
-0.8705433070866142
 20
-3.2705275590551182
 30
0.0
 10
-0.8705433070866142
 20
-3.2705275590551182
 30
0.0
 10
-0.8676062992125985
 20
-3.2607598425196853
 30
0.0
 10
-0.8676062992125985
 20
-3.2607598425196853
 30
0.0
 10
-0.8676062992125985
 20
-3.2607598425196853
 30
0.0
 10
-0.8676062992125985
 20
-3.2607598425196853
 30
0.0
 10
-0.8650669291338583
 20
-3.2509015748031498
 30
0.0
 10
-0.8650669291338583
 20
-3.2509015748031498
 30
0.0
 10
-0.8650669291338583
 20
-3.2509015748031498
 30
0.0
 10
-0.8650669291338583
 20
-3.2509015748031498
 30
0.0
 10
-0.8629370078740157
 20
-3.2409685039370082
 30
0.0
 10
-0.8629370078740157
 20
-3.2409685039370082
 30
0.0
 10
-0.8629370078740157
 20
-3.2409685039370082
 30
0.0
 10
-0.8629370078740157
 20
-3.2409685039370082
 30
0.0
 10
-0.8612125984251969
 20
-3.2309724409448819
 30
0.0
 10
-0.8612125984251969
 20
-3.2309724409448819
 30
0.0
 10
-0.8612125984251969
 20
-3.2309724409448819
 30
0.0
 10
-0.8612125984251969
 20
-3.2309724409448819
 30
0.0
 10
-0.8598937007874016
 20
-3.2209330708661419
 30
0.0
 10
-0.8598937007874016
 20
-3.2209330708661419
 30
0.0
 10
-0.8598937007874016
 20
-3.2209330708661419
 30
0.0
 10
-0.8598937007874016
 20
-3.2209330708661419
 30
0.0
 10
-0.8589724409448819
 20
-3.2108464566929134
 30
0.0
 10
-0.8589724409448819
 20
-3.2108464566929134
 30
0.0
 10
-0.8589724409448819
 20
-3.2108464566929134
 30
0.0
 10
-0.8589724409448819
 20
-3.2108464566929134
 30
0.0
 10
-0.8584566929133859
 20
-3.200748031496063
 30
0.0
 10
-0.8584566929133859
 20
-3.200748031496063
 30
0.0
 10
-0.8584566929133859
 20
-3.200748031496063
 30
0.0
 10
-0.8584566929133859
 20
-3.200748031496063
 30
0.0
 10
-0.8583385826771653
 20
-3.1906338582677165
 30
0.0
 10
-0.8583385826771653
 20
-3.1906338582677165
 30
0.0
 10
-0.8583385826771653
 20
-3.1906338582677165
 30
0.0
 10
-0.8583385826771653
 20
-3.1906338582677165
 30
0.0
 10
-0.8586338582677165
 20
-3.1805314960629922
 30
0.0
 10
-0.8586338582677165
 20
-3.1805314960629922
 30
0.0
 10
-0.8586338582677165
 20
-3.1805314960629922
 30
0.0
 10
-0.8586338582677165
 20
-3.1805314960629922
 30
0.0
 10
-0.8593228346456693
 20
-3.1704409448818898
 30
0.0
 10
-0.8593228346456693
 20
-3.1704409448818898
 30
0.0
 10
-0.8593228346456693
 20
-3.1704409448818898
 30
0.0
 10
-0.8593228346456693
 20
-3.1704409448818898
 30
0.0
 10
-0.8604212598425197
 20
-3.1603818897637797
 30
0.0
 10
-0.8604212598425197
 20
-3.1603818897637797
 30
0.0
 10
-0.8604212598425197
 20
-3.1603818897637797
 30
0.0
 10
-0.8604212598425197
 20
-3.1603818897637797
 30
0.0
 10
-0.8619212598425198
 20
-3.1503661417322837
 30
0.0
 10
-0.8619212598425198
 20
-3.1503661417322837
 30
0.0
 10
-0.8619212598425198
 20
-3.1503661417322837
 30
0.0
 10
-0.8619212598425198
 20
-3.1503661417322837
 30
0.0
 10
-0.8638228346456693
 20
-3.1404094488188976
 30
0.0
 10
-0.8638228346456693
 20
-3.1404094488188976
 30
0.0
 10
-0.8638228346456693
 20
-3.1404094488188976
 30
0.0
 10
-0.8638228346456693
 20
-3.1404094488188976
 30
0.0
 10
-0.8661181102362205
 20
-3.1305157480314962
 30
0.0
 10
-0.8661181102362205
 20
-3.1305157480314962
 30
0.0
 10
-0.8661181102362205
 20
-3.1305157480314962
 30
0.0
 10
-0.8661181102362205
 20
-3.1305157480314962
 30
0.0
 10
-0.8688228346456693
 20
-3.1207086614173232
 30
0.0
 10
-0.8688228346456693
 20
-3.1207086614173232
 30
0.0
 10
-0.8688228346456693
 20
-3.1207086614173232
 30
0.0
 10
-0.8688228346456693
 20
-3.1207086614173232
 30
0.0
 10
-0.8719291338582678
 20
-3.1109921259842519
 30
0.0
 10
-0.8719291338582678
 20
-3.1109921259842519
 30
0.0
 10
-0.8719291338582678
 20
-3.1109921259842519
 30
0.0
 10
-0.8719291338582678
 20
-3.1109921259842519
 30
0.0
 10
-0.8754370078740158
 20
-3.1013937007874017
 30
0.0
 10
-0.8754370078740158
 20
-3.1013937007874017
 30
0.0
 10
-0.8754370078740158
 20
-3.1013937007874017
 30
0.0
 10
-0.8754370078740158
 20
-3.1013937007874017
 30
0.0
 10
-0.8793425196850394
 20
-3.0919094488188978
 30
0.0
 10
-0.8793425196850394
 20
-3.0919094488188978
 30
0.0
 10
-0.8793425196850394
 20
-3.0919094488188978
 30
0.0
 10
-0.8793425196850394
 20
-3.0919094488188978
 30
0.0
 10
-0.8836535433070867
 20
-3.0825629921259843
 30
0.0
 10
-0.8836535433070867
 20
-3.0825629921259843
 30
0.0
 10
-0.8836535433070867
 20
-3.0825629921259843
 30
0.0
 10
-0.8836535433070867
 20
-3.0825629921259843
 30
0.0
 10
-0.8883661417322835
 20
-3.0733661417322837
 30
0.0
 10
-0.8883661417322835
 20
-3.0733661417322837
 30
0.0
 10
-0.8883661417322835
 20
-3.0733661417322837
 30
0.0
 10
-0.8883661417322835
 20
-3.0733661417322837
 30
0.0
 10
-0.89348031496063
 20
-3.0643307086614175
 30
0.0
 10
-0.89348031496063
 20
-3.0643307086614175
 30
0.0
 10
-0.89348031496063
 20
-3.0643307086614175
 30
0.0
 10
-0.89348031496063
 20
-3.0643307086614175
 30
0.0
 10
-1.5388661417322835
 20
-2.677744094488189
 30
0.0
 10
-1.5388661417322835
 20
-2.677744094488189
 30
0.0
 10
-1.5388661417322835
 20
-2.677744094488189
 30
0.0
 10
-1.5388661417322835
 20
-2.677744094488189
 30
0.0
 10
-1.5337519685039371
 20
-2.6867795275590551
 30
0.0
 10
-1.5337519685039371
 20
-2.6867795275590551
 30
0.0
 10
-1.5337519685039371
 20
-2.6867795275590551
 30
0.0
 10
-1.5337519685039371
 20
-2.6867795275590551
 30
0.0
 10
-1.5290393700787401
 20
-2.6959763779527561
 30
0.0
 10
-1.5290393700787401
 20
-2.6959763779527561
 30
0.0
 10
-1.5290393700787401
 20
-2.6959763779527561
 30
0.0
 10
-1.5290393700787401
 20
-2.6959763779527561
 30
0.0
 10
-1.524728346456693
 20
-2.7053228346456692
 30
0.0
 10
-1.524728346456693
 20
-2.7053228346456692
 30
0.0
 10
-1.524728346456693
 20
-2.7053228346456692
 30
0.0
 10
-1.524728346456693
 20
-2.7053228346456692
 30
0.0
 10
-1.5208228346456694
 20
-2.7148070866141731
 30
0.0
 10
-1.5208228346456694
 20
-2.7148070866141731
 30
0.0
 10
-1.5208228346456694
 20
-2.7148070866141731
 30
0.0
 10
-1.5208228346456694
 20
-2.7148070866141731
 30
0.0
 10
-1.5173149606299212
 20
-2.7244055118110238
 30
0.0
 10
-1.5173149606299212
 20
-2.7244055118110238
 30
0.0
 10
-1.5173149606299212
 20
-2.7244055118110238
 30
0.0
 10
-1.5173149606299212
 20
-2.7244055118110238
 30
0.0
 10
-1.5142086614173229
 20
-2.7341220472440946
 30
0.0
 10
-1.5142086614173229
 20
-2.7341220472440946
 30
0.0
 10
-1.5142086614173229
 20
-2.7341220472440946
 30
0.0
 10
-1.5142086614173229
 20
-2.7341220472440946
 30
0.0
 10
-1.511503937007874
 20
-2.7439291338582676
 30
0.0
 10
-1.511503937007874
 20
-2.7439291338582676
 30
0.0
 10
-1.511503937007874
 20
-2.7439291338582676
 30
0.0
 10
-1.511503937007874
 20
-2.7439291338582676
 30
0.0
 10
-1.5092086614173228
 20
-2.7538228346456695
 30
0.0
 10
-1.5092086614173228
 20
-2.7538228346456695
 30
0.0
 10
-1.5092086614173228
 20
-2.7538228346456695
 30
0.0
 10
-1.5092086614173228
 20
-2.7538228346456695
 30
0.0
 10
-1.5073070866141733
 20
-2.7637795275590551
 30
0.0
 10
-1.5073070866141733
 20
-2.7637795275590551
 30
0.0
 10
-1.5073070866141733
 20
-2.7637795275590551
 30
0.0
 10
-1.5073070866141733
 20
-2.7637795275590551
 30
0.0
 10
-1.5058070866141733
 20
-2.7737952755905515
 30
0.0
 10
-1.5058070866141733
 20
-2.7737952755905515
 30
0.0
 10
-1.5058070866141733
 20
-2.7737952755905515
 30
0.0
 10
-1.5058070866141733
 20
-2.7737952755905515
 30
0.0
 10
-1.5047086614173228
 20
-2.7838543307086616
 30
0.0
 10
-1.5047086614173228
 20
-2.7838543307086616
 30
0.0
 10
-1.5047086614173228
 20
-2.7838543307086616
 30
0.0
 10
-1.5047086614173228
 20
-2.7838543307086616
 30
0.0
 10
-1.5040196850393701
 20
-2.7939448818897641
 30
0.0
 10
-1.5040196850393701
 20
-2.7939448818897641
 30
0.0
 10
-1.5040196850393701
 20
-2.7939448818897641
 30
0.0
 10
-1.5040196850393701
 20
-2.7939448818897641
 30
0.0
 10
-1.5037244094488189
 20
-2.8040472440944884
 30
0.0
 10
-1.5037244094488189
 20
-2.8040472440944884
 30
0.0
 10
-1.5037244094488189
 20
-2.8040472440944884
 30
0.0
 10
-1.5037244094488189
 20
-2.8040472440944884
 30
0.0
 10
-1.5038425196850393
 20
-2.8141614173228349
 30
0.0
 10
-1.5038425196850393
 20
-2.8141614173228349
 30
0.0
 10
-1.5038425196850393
 20
-2.8141614173228349
 30
0.0
 10
-1.5038425196850393
 20
-2.8141614173228349
 30
0.0
 10
-1.5043582677165355
 20
-2.8242598425196852
 30
0.0
 10
-1.5043582677165355
 20
-2.8242598425196852
 30
0.0
 10
-1.5043582677165355
 20
-2.8242598425196852
 30
0.0
 10
-1.5043582677165355
 20
-2.8242598425196852
 30
0.0
 10
-1.5052795275590551
 20
-2.8343464566929133
 30
0.0
 10
-1.5052795275590551
 20
-2.8343464566929133
 30
0.0
 10
-1.5052795275590551
 20
-2.8343464566929133
 30
0.0
 10
-1.5052795275590551
 20
-2.8343464566929133
 30
0.0
 10
-1.5065984251968505
 20
-2.8443858267716537
 30
0.0
 10
-1.5065984251968505
 20
-2.8443858267716537
 30
0.0
 10
-1.5065984251968505
 20
-2.8443858267716537
 30
0.0
 10
-1.5065984251968505
 20
-2.8443858267716537
 30
0.0
 10
-1.5083228346456694
 20
-2.8543818897637796
 30
0.0
 10
-1.5083228346456694
 20
-2.8543818897637796
 30
0.0
 10
-1.5083228346456694
 20
-2.8543818897637796
 30
0.0
 10
-1.5083228346456694
 20
-2.8543818897637796
 30
0.0
 10
-1.5104527559055119
 20
-2.8643149606299212
 30
0.0
 10
-1.5104527559055119
 20
-2.8643149606299212
 30
0.0
 10
-1.5104527559055119
 20
-2.8643149606299212
 30
0.0
 10
-1.5104527559055119
 20
-2.8643149606299212
 30
0.0
 10
-1.512992125984252
 20
-2.8741732283464567
 30
0.0
 10
-1.512992125984252
 20
-2.8741732283464567
 30
0.0
 10
-1.512992125984252
 20
-2.8741732283464567
 30
0.0
 10
-1.512992125984252
 20
-2.8741732283464567
 30
0.0
 10
-1.5159291338582677
 20
-2.88394094488189
 30
0.0
 10
-1.5159291338582677
 20
-2.88394094488189
 30
0.0
 10
-1.5159291338582677
 20
-2.88394094488189
 30
0.0
 10
-1.5159291338582677
 20
-2.88394094488189
 30
0.0
 10
-1.5192716535433071
 20
-2.8936141732283467
 30
0.0
 10
-1.5192716535433071
 20
-2.8936141732283467
 30
0.0
 10
-1.5192716535433071
 20
-2.8936141732283467
 30
0.0
 10
-1.5192716535433071
 20
-2.8936141732283467
 30
0.0
 10
-1.5230196850393702
 20
-2.9031692913385827
 30
0.0
 10
-1.5230196850393702
 20
-2.9031692913385827
 30
0.0
 10
-1.5230196850393702
 20
-2.9031692913385827
 30
0.0
 10
-1.5230196850393702
 20
-2.9031692913385827
 30
0.0
 10
-1.5271771653543307
 20
-2.9126062992125985
 30
0.0
 10
-1.5271771653543307
 20
-2.9126062992125985
 30
0.0
 10
-1.5271771653543307
 20
-2.9126062992125985
 30
0.0
 10
-1.5271771653543307
 20
-2.9126062992125985
 30
0.0
 10
-1.531732283464567
 20
-2.9218937007874017
 30
0.0
 10
-1.531732283464567
 20
-2.9218937007874017
 30
0.0
 10
-1.531732283464567
 20
-2.9218937007874017
 30
0.0
 10
-1.531732283464567
 20
-2.9218937007874017
 30
0.0
 10
-1.5366929133858269
 20
-2.9310314960629924
 30
0.0
 10
-1.5366929133858269
 20
-2.9310314960629924
 30
0.0
 10
-1.5366929133858269
 20
-2.9310314960629924
 30
0.0
 10
-1.5366929133858269
 20
-2.9310314960629924
 30
0.0
 10
-1.5420629921259843
 20
-2.9399999999999999
 30
0.0
 10
-1.5420629921259843
 20
-2.9399999999999999
 30
0.0
 10
-1.5420629921259843
 20
-2.9399999999999999
 30
0.0
 10
-1.5420629921259843
 20
-2.9399999999999999
 30
0.0
 10
-1.5478385826771655
 20
-2.9487952755905513
 30
0.0
 10
-1.5478385826771655
 20
-2.9487952755905513
 30
0.0
 10
-1.5478385826771655
 20
-2.9487952755905513
 30
0.0
 10
-1.5478385826771655
 20
-2.9487952755905513
 30
0.0
 10
-1.5540157480314962
 20
-2.9573897637795277
 30
0.0
 10
-1.5540157480314962
 20
-2.9573897637795277
 30
0.0
 10
-1.5540157480314962
 20
-2.9573897637795277
 30
0.0
 10
-1.5540157480314962
 20
-2.9573897637795277
 30
0.0
 10
-1.5605984251968505
 20
-2.9657874015748034
 30
0.0
 10
-1.5605984251968505
 20
-2.9657874015748034
 30
0.0
 10
-1.5605984251968505
 20
-2.9657874015748034
 30
0.0
 10
-1.5605984251968505
 20
-2.9657874015748034
 30
0.0
 10
-1.5675905511811024
 20
-2.97396062992126
 30
0.0
 10
-1.5675905511811024
 20
-2.97396062992126
 30
0.0
 10
-1.5675905511811024
 20
-2.97396062992126
 30
0.0
 10
-1.5675905511811024
 20
-2.97396062992126
 30
0.0
 10
-1.574996062992126
 20
-2.981909448818898
 30
0.0
 10
-1.574996062992126
 20
-2.981909448818898
 30
0.0
 10
-1.574996062992126
 20
-2.981909448818898
 30
0.0
 10
-1.574996062992126
 20
-2.981909448818898
 30
0.0
 10
-1.5793385826771653
 20
-2.9862716535433074
 30
0.0
 10
-1.5793385826771653
 20
-2.9862716535433074
 30
0.0
 10
-1.5793385826771653
 20
-2.9862716535433074
 30
0.0
 10
-1.5793385826771653
 20
-2.9862716535433074
 30
0.0
 10
-1.5837716535433071
 20
-2.9905157480314961
 30
0.0
 10
-1.5837716535433071
 20
-2.9905157480314961
 30
0.0
 10
-1.5837716535433071
 20
-2.9905157480314961
 30
0.0
 10
-1.5837716535433071
 20
-2.9905157480314961
 30
0.0
 10
-1.5882795275590551
 20
-2.9946259842519685
 30
0.0
 10
-1.5882795275590551
 20
-2.9946259842519685
 30
0.0
 10
-1.5882795275590551
 20
-2.9946259842519685
 30
0.0
 10
-1.5882795275590551
 20
-2.9946259842519685
 30
0.0
 10
-1.5928622047244094
 20
-2.9986141732283467
 30
0.0
 10
-1.5928622047244094
 20
-2.9986141732283467
 30
0.0
 10
-1.5928622047244094
 20
-2.9986141732283467
 30
0.0
 10
-1.5928622047244094
 20
-2.9986141732283467
 30
0.0
 10
-1.5975157480314961
 20
-3.002468503937008
 30
0.0
 10
-1.5975157480314961
 20
-3.002468503937008
 30
0.0
 10
-1.5975157480314961
 20
-3.002468503937008
 30
0.0
 10
-1.5975157480314961
 20
-3.002468503937008
 30
0.0
 10
-1.6022401574803151
 20
-3.0061968503937009
 30
0.0
 10
-1.6022401574803151
 20
-3.0061968503937009
 30
0.0
 10
-1.6022401574803151
 20
-3.0061968503937009
 30
0.0
 10
-1.6022401574803151
 20
-3.0061968503937009
 30
0.0
 10
-1.6070314960629921
 20
-3.0097952755905513
 30
0.0
 10
-1.6070314960629921
 20
-3.0097952755905513
 30
0.0
 10
-1.6070314960629921
 20
-3.0097952755905513
 30
0.0
 10
-1.6070314960629921
 20
-3.0097952755905513
 30
0.0
 10
-1.6118976377952756
 20
-3.0132716535433071
 30
0.0
 10
-1.6118976377952756
 20
-3.0132716535433071
 30
0.0
 10
-1.6118976377952756
 20
-3.0132716535433071
 30
0.0
 10
-1.6118976377952756
 20
-3.0132716535433071
 30
0.0
 10
-1.6168149606299214
 20
-3.0166102362204725
 30
0.0
 10
-1.6168149606299214
 20
-3.0166102362204725
 30
0.0
 10
-1.6168149606299214
 20
-3.0166102362204725
 30
0.0
 10
-1.6168149606299214
 20
-3.0166102362204725
 30
0.0
 10
-1.6218031496062992
 20
-3.0198267716535434
 30
0.0
 10
-1.6218031496062992
 20
-3.0198267716535434
 30
0.0
 10
-1.6218031496062992
 20
-3.0198267716535434
 30
0.0
 10
-1.6218031496062992
 20
-3.0198267716535434
 30
0.0
 10
-1.6268464566929135
 20
-3.0229055118110235
 30
0.0
 10
-1.6268464566929135
 20
-3.0229055118110235
 30
0.0
 10
-1.6268464566929135
 20
-3.0229055118110235
 30
0.0
 10
-1.6268464566929135
 20
-3.0229055118110235
 30
0.0
 10
-1.6319488188976379
 20
-3.0258661417322834
 30
0.0
 10
-1.6319488188976379
 20
-3.0258661417322834
 30
0.0
 10
-1.6319488188976379
 20
-3.0258661417322834
 30
0.0
 10
-1.6319488188976379
 20
-3.0258661417322834
 30
0.0
 10
-1.6370984251968506
 20
-3.0286929133858269
 30
0.0
 10
-1.6370984251968506
 20
-3.0286929133858269
 30
0.0
 10
-1.6370984251968506
 20
-3.0286929133858269
 30
0.0
 10
-1.6370984251968506
 20
-3.0286929133858269
 30
0.0
 10
-1.6423031496062992
 20
-3.0313937007874019
 30
0.0
 10
-1.6423031496062992
 20
-3.0313937007874019
 30
0.0
 10
-1.6423031496062992
 20
-3.0313937007874019
 30
0.0
 10
-1.6423031496062992
 20
-3.0313937007874019
 30
0.0
 10
-1.6475590551181103
 20
-3.03396062992126
 30
0.0
 10
-1.6475590551181103
 20
-3.03396062992126
 30
0.0
 10
-1.6475590551181103
 20
-3.03396062992126
 30
0.0
 10
-1.6475590551181103
 20
-3.03396062992126
 30
0.0
 10
-1.6528622047244095
 20
-3.036409448818898
 30
0.0
 10
-1.6528622047244095
 20
-3.036409448818898
 30
0.0
 10
-1.6528622047244095
 20
-3.036409448818898
 30
0.0
 10
-1.6528622047244095
 20
-3.036409448818898
 30
0.0
 10
-1.6582007874015749
 20
-3.0387165354330712
 30
0.0
 10
-1.6582007874015749
 20
-3.0387165354330712
 30
0.0
 10
-1.6582007874015749
 20
-3.0387165354330712
 30
0.0
 10
-1.6582007874015749
 20
-3.0387165354330712
 30
0.0
 10
-1.6635866141732285
 20
-3.0409015748031498
 30
0.0
 10
-1.6635866141732285
 20
-3.0409015748031498
 30
0.0
 10
-1.6635866141732285
 20
-3.0409015748031498
 30
0.0
 10
-1.6635866141732285
 20
-3.0409015748031498
 30
0.0
 10
-1.6690118110236221
 20
-3.0429527559055121
 30
0.0
 10
-1.6690118110236221
 20
-3.0429527559055121
 30
0.0
 10
-1.6690118110236221
 20
-3.0429527559055121
 30
0.0
 10
-1.6690118110236221
 20
-3.0429527559055121
 30
0.0
 10
-1.6744763779527561
 20
-3.0448818897637797
 30
0.0
 10
-1.6744763779527561
 20
-3.0448818897637797
 30
0.0
 10
-1.6744763779527561
 20
-3.0448818897637797
 30
0.0
 10
-1.6744763779527561
 20
-3.0448818897637797
 30
0.0
 10
-1.679972440944882
 20
-3.0466732283464566
 30
0.0
 10
-1.679972440944882
 20
-3.0466732283464566
 30
0.0
 10
-1.679972440944882
 20
-3.0466732283464566
 30
0.0
 10
-1.679972440944882
 20
-3.0466732283464566
 30
0.0
 10
-1.6855039370078742
 20
-3.0483464566929137
 30
0.0
 10
-1.6855039370078742
 20
-3.0483464566929137
 30
0.0
 10
-1.6855039370078742
 20
-3.0483464566929137
 30
0.0
 10
-1.6855039370078742
 20
-3.0483464566929137
 30
0.0
 10
-1.6910629921259843
 20
-3.0498858267716535
 30
0.0
 10
-1.6910629921259843
 20
-3.0498858267716535
 30
0.0
 10
-1.6910629921259843
 20
-3.0498858267716535
 30
0.0
 10
-1.6910629921259843
 20
-3.0498858267716535
 30
0.0
 10
-1.6966535433070866
 20
-3.0512992125984253
 30
0.0
 10
-1.6966535433070866
 20
-3.0512992125984253
 30
0.0
 10
-1.6966535433070866
 20
-3.0512992125984253
 30
0.0
 10
-1.6966535433070866
 20
-3.0512992125984253
 30
0.0
 10
-1.7022598425196851
 20
-3.0525748031496063
 30
0.0
 10
-1.7022598425196851
 20
-3.0525748031496063
 30
0.0
 10
-1.7022598425196851
 20
-3.0525748031496063
 30
0.0
 10
-1.7022598425196851
 20
-3.0525748031496063
 30
0.0
 10
-1.7078937007874015
 20
-3.0537283464566931
 30
0.0
 10
-1.7078937007874015
 20
-3.0537283464566931
 30
0.0
 10
-1.7078937007874015
 20
-3.0537283464566931
 30
0.0
 10
-1.7078937007874015
 20
-3.0537283464566931
 30
0.0
 10
-1.7135472440944883
 20
-3.0547480314960631
 30
0.0
 10
-1.7135472440944883
 20
-3.0547480314960631
 30
0.0
 10
-1.7135472440944883
 20
-3.0547480314960631
 30
0.0
 10
-1.7135472440944883
 20
-3.0547480314960631
 30
0.0
 10
-1.7192244094488189
 20
-3.0556417322834646
 30
0.0
 10
-1.7192244094488189
 20
-3.0556417322834646
 30
0.0
 10
-1.7192244094488189
 20
-3.0556417322834646
 30
0.0
 10
-1.7192244094488189
 20
-3.0556417322834646
 30
0.0
 10
-1.7249094488188976
 20
-3.0564015748031497
 30
0.0
 10
-1.7249094488188976
 20
-3.0564015748031497
 30
0.0
 10
-1.7249094488188976
 20
-3.0564015748031497
 30
0.0
 10
-1.7249094488188976
 20
-3.0564015748031497
 30
0.0
 10
-1.7306141732283464
 20
-3.0570393700787402
 30
0.0
 10
-1.7306141732283464
 20
-3.0570393700787402
 30
0.0
 10
-1.7306141732283464
 20
-3.0570393700787402
 30
0.0
 10
-1.7306141732283464
 20
-3.0570393700787402
 30
0.0
 10
-1.7363267716535433
 20
-3.0575433070866143
 30
0.0
 10
-1.7363267716535433
 20
-3.0575433070866143
 30
0.0
 10
-1.7363267716535433
 20
-3.0575433070866143
 30
0.0
 10
-1.7363267716535433
 20
-3.0575433070866143
 30
0.0
 10
-1.7420551181102364
 20
-3.0579251968503938
 30
0.0
 10
-1.7420551181102364
 20
-3.0579251968503938
 30
0.0
  0
SPLINE
  5
6E
100
AcDbEntity
  8
Additional Graphics
 62
     9
100
AcDbSpline
210
0.0
220
0.0
230
1.0
 70
     1
 71
     3
 72
    20
 73
    16
 74
     0
 42
0.0000000001
 43
0.0000000001
 40
0.0
 40
0.0
 40
0.0
 40
0.0
 40
0.25
 40
0.25
 40
0.25
 40
0.25
 40
0.5
 40
0.5
 40
0.5
 40
0.5
 40
0.75
 40
0.75
 40
0.75
 40
0.75
 40
1.0
 40
1.0
 40
1.0
 40
1.0
 10
-1.5388661417322835
 20
-2.677744094488189
 30
0.0
 10
-1.5388661417322835
 20
-2.677744094488189
 30
0.0
 10
-0.89348031496063
 20
-3.0643307086614175
 30
0.0
 10
-0.89348031496063
 20
-3.0643307086614175
 30
0.0
 10
-0.89348031496063
 20
-3.0643307086614175
 30
0.0
 10
-0.89348031496063
 20
-3.0643307086614175
 30
0.0
 10
-0.9861456692913386
 20
-2.9049409448818899
 30
0.0
 10
-0.9861456692913386
 20
-2.9049409448818899
 30
0.0
 10
-0.9861456692913386
 20
-2.9049409448818899
 30
0.0
 10
-0.9861456692913386
 20
-2.9049409448818899
 30
0.0
 10
-1.6315314960629921
 20
-2.5183543307086613
 30
0.0
 10
-1.6315314960629921
 20
-2.5183543307086613
 30
0.0
 10
-1.6315314960629921
 20
-2.5183543307086613
 30
0.0
 10
-1.6315314960629921
 20
-2.5183543307086613
 30
0.0
 10
-1.5388661417322835
 20
-2.677744094488189
 30
0.0
 10
-1.5388661417322835
 20
-2.677744094488189
 30
0.0
  0
SPLINE
  5
6F
100
AcDbEntity
  8
Additional Graphics
370
     5
100
AcDbSpline
210
0.0
220
0.0
230
1.0
 70
     1
 71
     3
 72
    20
 73
    16
 74
     0
 42
0.0000000001
 43
0.0000000001
 40
0.0
 40
0.0
 40
0.0
 40
0.0
 40
0.25
 40
0.25
 40
0.25
 40
0.25
 40
0.5
 40
0.5
 40
0.5
 40
0.5
 40
0.75
 40
0.75
 40
0.75
 40
0.75
 40
1.0
 40
1.0
 40
1.0
 40
1.0
 10
-1.5388661417322835
 20
-2.677744094488189
 30
0.0
 10
-1.5388661417322835
 20
-2.677744094488189
 30
0.0
 10
-0.89348031496063
 20
-3.0643307086614175
 30
0.0
 10
-0.89348031496063
 20
-3.0643307086614175
 30
0.0
 10
-0.89348031496063
 20
-3.0643307086614175
 30
0.0
 10
-0.89348031496063
 20
-3.0643307086614175
 30
0.0
 10
-0.9861456692913386
 20
-2.9049409448818899
 30
0.0
 10
-0.9861456692913386
 20
-2.9049409448818899
 30
0.0
 10
-0.9861456692913386
 20
-2.9049409448818899
 30
0.0
 10
-0.9861456692913386
 20
-2.9049409448818899
 30
0.0
 10
-1.6315314960629921
 20
-2.5183543307086613
 30
0.0
 10
-1.6315314960629921
 20
-2.5183543307086613
 30
0.0
 10
-1.6315314960629921
 20
-2.5183543307086613
 30
0.0
 10
-1.6315314960629921
 20
-2.5183543307086613
 30
0.0
 10
-1.5388661417322835
 20
-2.677744094488189
 30
0.0
 10
-1.5388661417322835
 20
-2.677744094488189
 30
0.0
  0
SPLINE
  5
70
100
AcDbEntity
  8
Additional Graphics
 62
     9
100
AcDbSpline
210
0.0
220
0.0
230
1.0
 70
     1
 71
     3
 72
    20
 73
    16
 74
     0
 42
0.0000000001
 43
0.0000000001
 40
0.0
 40
0.0
 40
0.0
 40
0.0
 40
0.25
 40
0.25
 40
0.25
 40
0.25
 40
0.5
 40
0.5
 40
0.5
 40
0.5
 40
0.75
 40
0.75
 40
0.75
 40
0.75
 40
1.0
 40
1.0
 40
1.0
 40
1.0
 10
-1.6315314960629921
 20
-2.5183543307086613
 30
0.0
 10
-1.6315314960629921
 20
-2.5183543307086613
 30
0.0
 10
-0.9861456692913386
 20
-2.9049409448818899
 30
0.0
 10
-0.9861456692913386
 20
-2.9049409448818899
 30
0.0
 10
-0.9861456692913386
 20
-2.9049409448818899
 30
0.0
 10
-0.9861456692913386
 20
-2.9049409448818899
 30
0.0
 10
-0.7560354330708662
 20
-2.8273503937007876
 30
0.0
 10
-0.7560354330708662
 20
-2.8273503937007876
 30
0.0
 10
-0.7560354330708662
 20
-2.8273503937007876
 30
0.0
 10
-0.7560354330708662
 20
-2.8273503937007876
 30
0.0
 10
-1.4014212598425198
 20
-2.440763779527559
 30
0.0
 10
-1.4014212598425198
 20
-2.440763779527559
 30
0.0
 10
-1.4014212598425198
 20
-2.440763779527559
 30
0.0
 10
-1.4014212598425198
 20
-2.440763779527559
 30
0.0
 10
-1.6315314960629921
 20
-2.5183543307086613
 30
0.0
 10
-1.6315314960629921
 20
-2.5183543307086613
 30
0.0
  0
SPLINE
  5
71
100
AcDbEntity
  8
Additional Graphics
 62
     9
100
AcDbSpline
210
0.0
220
0.0
230
1.0
 70
     1
 71
     3
 72
    20
 73
    16
 74
     0
 42
0.0000000001
 43
0.0000000001
 40
0.0
 40
0.0
 40
0.0
 40
0.0
 40
0.25
 40
0.25
 40
0.25
 40
0.25
 40
0.5
 40
0.5
 40
0.5
 40
0.5
 40
0.75
 40
0.75
 40
0.75
 40
0.75
 40
1.0
 40
1.0
 40
1.0
 40
1.0
 10
-1.4014212598425198
 20
-2.440763779527559
 30
0.0
 10
-1.4014212598425198
 20
-2.440763779527559
 30
0.0
 10
-0.7560354330708662
 20
-2.8273503937007876
 30
0.0
 10
-0.7560354330708662
 20
-2.8273503937007876
 30
0.0
 10
-0.7560354330708662
 20
-2.8273503937007876
 30
0.0
 10
-0.7560354330708662
 20
-2.8273503937007876
 30
0.0
 10
-0.5355
 20
-2.743271653543307
 30
0.0
 10
-0.5355
 20
-2.743271653543307
 30
0.0
 10
-0.5355
 20
-2.743271653543307
 30
0.0
 10
-0.5355
 20
-2.743271653543307
 30
0.0
 10
-1.1808858267716535
 20
-2.3566850393700789
 30
0.0
 10
-1.1808858267716535
 20
-2.3566850393700789
 30
0.0
 10
-1.1808858267716535
 20
-2.3566850393700789
 30
0.0
 10
-1.1808858267716535
 20
-2.3566850393700789
 30
0.0
 10
-1.4014212598425198
 20
-2.440763779527559
 30
0.0
 10
-1.4014212598425198
 20
-2.440763779527559
 30
0.0
  0
SPLINE
  5
72
100
AcDbEntity
  8
Additional Graphics
 62
     9
100
AcDbSpline
210
0.0
220
0.0
230
1.0
 70
     1
 71
     3
 72
    20
 73
    16
 74
     0
 42
0.0000000001
 43
0.0000000001
 40
0.0
 40
0.0
 40
0.0
 40
0.0
 40
0.25
 40
0.25
 40
0.25
 40
0.25
 40
0.5
 40
0.5
 40
0.5
 40
0.5
 40
0.75
 40
0.75
 40
0.75
 40
0.75
 40
1.0
 40
1.0
 40
1.0
 40
1.0
 10
-1.1808858267716535
 20
-2.3566850393700789
 30
0.0
 10
-1.1808858267716535
 20
-2.3566850393700789
 30
0.0
 10
-0.5355
 20
-2.743271653543307
 30
0.0
 10
-0.5355
 20
-2.743271653543307
 30
0.0
 10
-0.5355
 20
-2.743271653543307
 30
0.0
 10
-0.5355
 20
-2.743271653543307
 30
0.0
 10
-0.3243464566929134
 20
-2.6529921259842522
 30
0.0
 10
-0.3243464566929134
 20
-2.6529921259842522
 30
0.0
 10
-0.3243464566929134
 20
-2.6529921259842522
 30
0.0
 10
-0.3243464566929134
 20
-2.6529921259842522
 30
0.0
 10
-0.969732283464567
 20
-2.2664055118110236
 30
0.0
 10
-0.969732283464567
 20
-2.2664055118110236
 30
0.0
 10
-0.969732283464567
 20
-2.2664055118110236
 30
0.0
 10
-0.969732283464567
 20
-2.2664055118110236
 30
0.0
 10
-1.1808858267716535
 20
-2.3566850393700789
 30
0.0
 10
-1.1808858267716535
 20
-2.3566850393700789
 30
0.0
  0
SPLINE
  5
73
100
AcDbEntity
  8
Additional Graphics
 62
     9
100
AcDbSpline
210
0.0
220
0.0
230
1.0
 70
     1
 71
     3
 72
    20
 73
    16
 74
     0
 42
0.0000000001
 43
0.0000000001
 40
0.0
 40
0.0
 40
0.0
 40
0.0
 40
0.25
 40
0.25
 40
0.25
 40
0.25
 40
0.5
 40
0.5
 40
0.5
 40
0.5
 40
0.75
 40
0.75
 40
0.75
 40
0.75
 40
1.0
 40
1.0
 40
1.0
 40
1.0
 10
-0.969732283464567
 20
-2.2664055118110236
 30
0.0
 10
-0.969732283464567
 20
-2.2664055118110236
 30
0.0
 10
-0.3243464566929134
 20
-2.6529921259842522
 30
0.0
 10
-0.3243464566929134
 20
-2.6529921259842522
 30
0.0
 10
-0.3243464566929134
 20
-2.6529921259842522
 30
0.0
 10
-0.3243464566929134
 20
-2.6529921259842522
 30
0.0
 10
-0.1223818897637795
 20
-2.5568188976377955
 30
0.0
 10
-0.1223818897637795
 20
-2.5568188976377955
 30
0.0
 10
-0.1223818897637795
 20
-2.5568188976377955
 30
0.0
 10
-0.1223818897637795
 20
-2.5568188976377955
 30
0.0
 10
-0.7677677165354331
 20
-2.1702322834645669
 30
0.0
 10
-0.7677677165354331
 20
-2.1702322834645669
 30
0.0
 10
-0.7677677165354331
 20
-2.1702322834645669
 30
0.0
 10
-0.7677677165354331
 20
-2.1702322834645669
 30
0.0
 10
-0.969732283464567
 20
-2.2664055118110236
 30
0.0
 10
-0.969732283464567
 20
-2.2664055118110236
 30
0.0
  0
SPLINE
  5
74
100
AcDbEntity
  8
Additional Graphics
 62
     9
100
AcDbSpline
210
0.0
220
0.0
230
1.0
 70
     1
 71
     3
 72
    20
 73
    16
 74
     0
 42
0.0000000001
 43
0.0000000001
 40
0.0
 40
0.0
 40
0.0
 40
0.0
 40
0.25
 40
0.25
 40
0.25
 40
0.25
 40
0.5
 40
0.5
 40
0.5
 40
0.5
 40
0.75
 40
0.75
 40
0.75
 40
0.75
 40
1.0
 40
1.0
 40
1.0
 40
1.0
 10
-0.7677677165354331
 20
-2.1702322834645669
 30
0.0
 10
-0.7677677165354331
 20
-2.1702322834645669
 30
0.0
 10
-0.1223818897637795
 20
-2.5568188976377955
 30
0.0
 10
-0.1223818897637795
 20
-2.5568188976377955
 30
0.0
 10
-0.1223818897637795
 20
-2.5568188976377955
 30
0.0
 10
-0.1223818897637795
 20
-2.5568188976377955
 30
0.0
 10
0.0705905511811024
 20
-2.4550393700787403
 30
0.0
 10
0.0705905511811024
 20
-2.4550393700787403
 30
0.0
 10
0.0705905511811024
 20
-2.4550393700787403
 30
0.0
 10
0.0705905511811024
 20
-2.4550393700787403
 30
0.0
 10
-0.5747952755905512
 20
-2.0684527559055117
 30
0.0
 10
-0.5747952755905512
 20
-2.0684527559055117
 30
0.0
 10
-0.5747952755905512
 20
-2.0684527559055117
 30
0.0
 10
-0.5747952755905512
 20
-2.0684527559055117
 30
0.0
 10
-0.7677677165354331
 20
-2.1702322834645669
 30
0.0
 10
-0.7677677165354331
 20
-2.1702322834645669
 30
0.0
  0
SPLINE
  5
75
100
AcDbEntity
  8
Additional Graphics
 62
     9
100
AcDbSpline
210
0.0
220
0.0
230
1.0
 70
     1
 71
     3
 72
    20
 73
    16
 74
     0
 42
0.0000000001
 43
0.0000000001
 40
0.0
 40
0.0
 40
0.0
 40
0.0
 40
0.25
 40
0.25
 40
0.25
 40
0.25
 40
0.5
 40
0.5
 40
0.5
 40
0.5
 40
0.75
 40
0.75
 40
0.75
 40
0.75
 40
1.0
 40
1.0
 40
1.0
 40
1.0
 10
-0.5747952755905512
 20
-2.0684527559055117
 30
0.0
 10
-0.5747952755905512
 20
-2.0684527559055117
 30
0.0
 10
0.0705905511811024
 20
-2.4550393700787403
 30
0.0
 10
0.0705905511811024
 20
-2.4550393700787403
 30
0.0
 10
0.0705905511811024
 20
-2.4550393700787403
 30
0.0
 10
0.0705905511811024
 20
-2.4550393700787403
 30
0.0
 10
0.254748031496063
 20
-2.347968503937008
 30
0.0
 10
0.254748031496063
 20
-2.347968503937008
 30
0.0
 10
0.254748031496063
 20
-2.347968503937008
 30
0.0
 10
0.254748031496063
 20
-2.347968503937008
 30
0.0
 10
-0.3906377952755906
 20
-1.9613818897637796
 30
0.0
 10
-0.3906377952755906
 20
-1.9613818897637796
 30
0.0
 10
-0.3906377952755906
 20
-1.9613818897637796
 30
0.0
 10
-0.3906377952755906
 20
-1.9613818897637796
 30
0.0
 10
-0.5747952755905512
 20
-2.0684527559055117
 30
0.0
 10
-0.5747952755905512
 20
-2.0684527559055117
 30
0.0
  0
SPLINE
  5
76
100
AcDbEntity
  8
Additional Graphics
 62
     9
100
AcDbSpline
210
0.0
220
0.0
230
1.0
 70
     1
 71
     3
 72
    20
 73
    16
 74
     0
 42
0.0000000001
 43
0.0000000001
 40
0.0
 40
0.0
 40
0.0
 40
0.0
 40
0.25
 40
0.25
 40
0.25
 40
0.25
 40
0.5
 40
0.5
 40
0.5
 40
0.5
 40
0.75
 40
0.75
 40
0.75
 40
0.75
 40
1.0
 40
1.0
 40
1.0
 40
1.0
 10
-0.3906377952755906
 20
-1.9613818897637796
 30
0.0
 10
-0.3906377952755906
 20
-1.9613818897637796
 30
0.0
 10
0.254748031496063
 20
-2.347968503937008
 30
0.0
 10
0.254748031496063
 20
-2.347968503937008
 30
0.0
 10
0.254748031496063
 20
-2.347968503937008
 30
0.0
 10
0.254748031496063
 20
-2.347968503937008
 30
0.0
 10
0.4302992125984252
 20
-2.2358976377952757
 30
0.0
 10
0.4302992125984252
 20
-2.2358976377952757
 30
0.0
 10
0.4302992125984252
 20
-2.2358976377952757
 30
0.0
 10
0.4302992125984252
 20
-2.2358976377952757
 30
0.0
 10
-0.2150866141732284
 20
-1.8493110236220474
 30
0.0
 10
-0.2150866141732284
 20
-1.8493110236220474
 30
0.0
 10
-0.2150866141732284
 20
-1.8493110236220474
 30
0.0
 10
-0.2150866141732284
 20
-1.8493110236220474
 30
0.0
 10
-0.3906377952755906
 20
-1.9613818897637796
 30
0.0
 10
-0.3906377952755906
 20
-1.9613818897637796
 30
0.0
  0
SPLINE
  5
77
100
AcDbEntity
  8
Additional Graphics
 62
     9
100
AcDbSpline
210
0.0
220
0.0
230
1.0
 70
     1
 71
     3
 72
    20
 73
    16
 74
     0
 42
0.0000000001
 43
0.0000000001
 40
0.0
 40
0.0
 40
0.0
 40
0.0
 40
0.25
 40
0.25
 40
0.25
 40
0.25
 40
0.5
 40
0.5
 40
0.5
 40
0.5
 40
0.75
 40
0.75
 40
0.75
 40
0.75
 40
1.0
 40
1.0
 40
1.0
 40
1.0
 10
-0.2150866141732284
 20
-1.8493110236220474
 30
0.0
 10
-0.2150866141732284
 20
-1.8493110236220474
 30
0.0
 10
0.4302992125984252
 20
-2.2358976377952757
 30
0.0
 10
0.4302992125984252
 20
-2.2358976377952757
 30
0.0
 10
0.4302992125984252
 20
-2.2358976377952757
 30
0.0
 10
0.4302992125984252
 20
-2.2358976377952757
 30
0.0
 10
0.5974251968503938
 20
-2.1191338582677166
 30
0.0
 10
0.5974251968503938
 20
-2.1191338582677166
 30
0.0
 10
0.5974251968503938
 20
-2.1191338582677166
 30
0.0
 10
0.5974251968503938
 20
-2.1191338582677166
 30
0.0
 10
-0.0479606299212598
 20
-1.7325472440944882
 30
0.0
 10
-0.0479606299212598
 20
-1.7325472440944882
 30
0.0
 10
-0.0479606299212598
 20
-1.7325472440944882
 30
0.0
 10
-0.0479606299212598
 20
-1.7325472440944882
 30
0.0
 10
-0.2150866141732284
 20
-1.8493110236220474
 30
0.0
 10
-0.2150866141732284
 20
-1.8493110236220474
 30
0.0
  0
SPLINE
  5
78
100
AcDbEntity
  8
Additional Graphics
 62
     9
100
AcDbSpline
210
0.0
220
0.0
230
1.0
 70
     1
 71
     3
 72
    20
 73
    16
 74
     0
 42
0.0000000001
 43
0.0000000001
 40
0.0
 40
0.0
 40
0.0
 40
0.0
 40
0.25
 40
0.25
 40
0.25
 40
0.25
 40
0.5
 40
0.5
 40
0.5
 40
0.5
 40
0.75
 40
0.75
 40
0.75
 40
0.75
 40
1.0
 40
1.0
 40
1.0
 40
1.0
 10
-0.0479606299212598
 20
-1.7325472440944882
 30
0.0
 10
-0.0479606299212598
 20
-1.7325472440944882
 30
0.0
 10
0.5974251968503938
 20
-2.1191338582677166
 30
0.0
 10
0.5974251968503938
 20
-2.1191338582677166
 30
0.0
 10
0.5974251968503938
 20
-2.1191338582677166
 30
0.0
 10
0.5974251968503938
 20
-2.1191338582677166
 30
0.0
 10
0.7563188976377953
 20
-1.9979645669291339
 30
0.0
 10
0.7563188976377953
 20
-1.9979645669291339
 30
0.0
 10
0.7563188976377953
 20
-1.9979645669291339
 30
0.0
 10
0.7563188976377953
 20
-1.9979645669291339
 30
0.0
 10
0.1109330708661417
 20
-1.6113779527559056
 30
0.0
 10
0.1109330708661417
 20
-1.6113779527559056
 30
0.0
 10
0.1109330708661417
 20
-1.6113779527559056
 30
0.0
 10
0.1109330708661417
 20
-1.6113779527559056
 30
0.0
 10
-0.0479606299212598
 20
-1.7325472440944882
 30
0.0
 10
-0.0479606299212598
 20
-1.7325472440944882
 30
0.0
  0
SPLINE
  5
79
100
AcDbEntity
  8
Additional Graphics
 62
     9
100
AcDbSpline
210
0.0
220
0.0
230
1.0
 70
     1
 71
     3
 72
    20
 73
    16
 74
     0
 42
0.0000000001
 43
0.0000000001
 40
0.0
 40
0.0
 40
0.0
 40
0.0
 40
0.25
 40
0.25
 40
0.25
 40
0.25
 40
0.5
 40
0.5
 40
0.5
 40
0.5
 40
0.75
 40
0.75
 40
0.75
 40
0.75
 40
1.0
 40
1.0
 40
1.0
 40
1.0
 10
0.1109330708661417
 20
-1.6113779527559056
 30
0.0
 10
0.1109330708661417
 20
-1.6113779527559056
 30
0.0
 10
0.7563188976377953
 20
-1.9979645669291339
 30
0.0
 10
0.7563188976377953
 20
-1.9979645669291339
 30
0.0
 10
0.7563188976377953
 20
-1.9979645669291339
 30
0.0
 10
0.7563188976377953
 20
-1.9979645669291339
 30
0.0
 10
0.9071811023622047
 20
-1.8727007874015749
 30
0.0
 10
0.9071811023622047
 20
-1.8727007874015749
 30
0.0
 10
0.9071811023622047
 20
-1.8727007874015749
 30
0.0
 10
0.9071811023622047
 20
-1.8727007874015749
 30
0.0
 10
0.2617952755905512
 20
-1.4861141732283465
 30
0.0
 10
0.2617952755905512
 20
-1.4861141732283465
 30
0.0
 10
0.2617952755905512
 20
-1.4861141732283465
 30
0.0
 10
0.2617952755905512
 20
-1.4861141732283465
 30
0.0
 10
0.1109330708661417
 20
-1.6113779527559056
 30
0.0
 10
0.1109330708661417
 20
-1.6113779527559056
 30
0.0
  0
SPLINE
  5
7A
100
AcDbEntity
  8
Additional Graphics
 62
     9
100
AcDbSpline
210
0.0
220
0.0
230
1.0
 70
     1
 71
     3
 72
    20
 73
    16
 74
     0
 42
0.0000000001
 43
0.0000000001
 40
0.0
 40
0.0
 40
0.0
 40
0.0
 40
0.25
 40
0.25
 40
0.25
 40
0.25
 40
0.5
 40
0.5
 40
0.5
 40
0.5
 40
0.75
 40
0.75
 40
0.75
 40
0.75
 40
1.0
 40
1.0
 40
1.0
 40
1.0
 10
0.2617952755905512
 20
-1.4861141732283465
 30
0.0
 10
0.2617952755905512
 20
-1.4861141732283465
 30
0.0
 10
0.9071811023622047
 20
-1.8727007874015749
 30
0.0
 10
0.9071811023622047
 20
-1.8727007874015749
 30
0.0
 10
0.9071811023622047
 20
-1.8727007874015749
 30
0.0
 10
0.9071811023622047
 20
-1.8727007874015749
 30
0.0
 10
1.0501968503937009
 20
-1.7436377952755906
 30
0.0
 10
1.0501968503937009
 20
-1.7436377952755906
 30
0.0
 10
1.0501968503937009
 20
-1.7436377952755906
 30
0.0
 10
1.0501968503937009
 20
-1.7436377952755906
 30
0.0
 10
0.4048110236220472
 20
-1.3570511811023622
 30
0.0
 10
0.4048110236220472
 20
-1.3570511811023622
 30
0.0
 10
0.4048110236220472
 20
-1.3570511811023622
 30
0.0
 10
0.4048110236220472
 20
-1.3570511811023622
 30
0.0
 10
0.2617952755905512
 20
-1.4861141732283465
 30
0.0
 10
0.2617952755905512
 20
-1.4861141732283465
 30
0.0
  0
SPLINE
  5
7B
100
AcDbEntity
  8
Additional Graphics
 62
     9
100
AcDbSpline
210
0.0
220
0.0
230
1.0
 70
     1
 71
     3
 72
    20
 73
    16
 74
     0
 42
0.0000000001
 43
0.0000000001
 40
0.0
 40
0.0
 40
0.0
 40
0.0
 40
0.25
 40
0.25
 40
0.25
 40
0.25
 40
0.5
 40
0.5
 40
0.5
 40
0.5
 40
0.75
 40
0.75
 40
0.75
 40
0.75
 40
1.0
 40
1.0
 40
1.0
 40
1.0
 10
0.4048110236220472
 20
-1.3570511811023622
 30
0.0
 10
0.4048110236220472
 20
-1.3570511811023622
 30
0.0
 10
1.0501968503937009
 20
-1.7436377952755906
 30
0.0
 10
1.0501968503937009
 20
-1.7436377952755906
 30
0.0
 10
1.0501968503937009
 20
-1.7436377952755906
 30
0.0
 10
1.0501968503937009
 20
-1.7436377952755906
 30
0.0
 10
1.1855708661417323
 20
-1.6110866141732285
 30
0.0
 10
1.1855708661417323
 20
-1.6110866141732285
 30
0.0
 10
1.1855708661417323
 20
-1.6110866141732285
 30
0.0
 10
1.1855708661417323
 20
-1.6110866141732285
 30
0.0
 10
0.5401850393700788
 20
-1.2245000000000001
 30
0.0
 10
0.5401850393700788
 20
-1.2245000000000001
 30
0.0
 10
0.5401850393700788
 20
-1.2245000000000001
 30
0.0
 10
0.5401850393700788
 20
-1.2245000000000001
 30
0.0
 10
0.4048110236220472
 20
-1.3570511811023622
 30
0.0
 10
0.4048110236220472
 20
-1.3570511811023622
 30
0.0
  0
SPLINE
  5
7C
100
AcDbEntity
  8
Additional Graphics
 62
     9
100
AcDbSpline
210
0.0
220
0.0
230
1.0
 70
     1
 71
     3
 72
    20
 73
    16
 74
     0
 42
0.0000000001
 43
0.0000000001
 40
0.0
 40
0.0
 40
0.0
 40
0.0
 40
0.25
 40
0.25
 40
0.25
 40
0.25
 40
0.5
 40
0.5
 40
0.5
 40
0.5
 40
0.75
 40
0.75
 40
0.75
 40
0.75
 40
1.0
 40
1.0
 40
1.0
 40
1.0
 10
0.5401850393700788
 20
-1.2245000000000001
 30
0.0
 10
0.5401850393700788
 20
-1.2245000000000001
 30
0.0
 10
1.1855708661417323
 20
-1.6110866141732285
 30
0.0
 10
1.1855708661417323
 20
-1.6110866141732285
 30
0.0
 10
1.1855708661417323
 20
-1.6110866141732285
 30
0.0
 10
1.1855708661417323
 20
-1.6110866141732285
 30
0.0
 10
1.3134724409448819
 20
-1.4753267716535434
 30
0.0
 10
1.3134724409448819
 20
-1.4753267716535434
 30
0.0
 10
1.3134724409448819
 20
-1.4753267716535434
 30
0.0
 10
1.3134724409448819
 20
-1.4753267716535434
 30
0.0
 10
0.6680866141732283
 20
-1.0887401574803151
 30
0.0
 10
0.6680866141732283
 20
-1.0887401574803151
 30
0.0
 10
0.6680866141732283
 20
-1.0887401574803151
 30
0.0
 10
0.6680866141732283
 20
-1.0887401574803151
 30
0.0
 10
0.5401850393700788
 20
-1.2245000000000001
 30
0.0
 10
0.5401850393700788
 20
-1.2245000000000001
 30
0.0
  0
SPLINE
  5
7D
100
AcDbEntity
  8
Additional Graphics
 62
     9
100
AcDbSpline
210
0.0
220
0.0
230
1.0
 70
     1
 71
     3
 72
    20
 73
    16
 74
     0
 42
0.0000000001
 43
0.0000000001
 40
0.0
 40
0.0
 40
0.0
 40
0.0
 40
0.25
 40
0.25
 40
0.25
 40
0.25
 40
0.5
 40
0.5
 40
0.5
 40
0.5
 40
0.75
 40
0.75
 40
0.75
 40
0.75
 40
1.0
 40
1.0
 40
1.0
 40
1.0
 10
0.6680866141732283
 20
-1.0887401574803151
 30
0.0
 10
0.6680866141732283
 20
-1.0887401574803151
 30
0.0
 10
1.3134724409448819
 20
-1.4753267716535434
 30
0.0
 10
1.3134724409448819
 20
-1.4753267716535434
 30
0.0
 10
1.3134724409448819
 20
-1.4753267716535434
 30
0.0
 10
1.3134724409448819
 20
-1.4753267716535434
 30
0.0
 10
1.4341102362204725
 20
-1.3366811023622047
 30
0.0
 10
1.4341102362204725
 20
-1.3366811023622047
 30
0.0
 10
1.4341102362204725
 20
-1.3366811023622047
 30
0.0
 10
1.4341102362204725
 20
-1.3366811023622047
 30
0.0
 10
0.7887244094488189
 20
-0.9500944881889765
 30
0.0
 10
0.7887244094488189
 20
-0.9500944881889765
 30
0.0
 10
0.7887244094488189
 20
-0.9500944881889765
 30
0.0
 10
0.7887244094488189
 20
-0.9500944881889765
 30
0.0
 10
0.6680866141732283
 20
-1.0887401574803151
 30
0.0
 10
0.6680866141732283
 20
-1.0887401574803151
 30
0.0
  0
SPLINE
  5
7E
100
AcDbEntity
  8
Additional Graphics
 62
     9
100
AcDbSpline
210
0.0
220
0.0
230
1.0
 70
     1
 71
     3
 72
    20
 73
    16
 74
     0
 42
0.0000000001
 43
0.0000000001
 40
0.0
 40
0.0
 40
0.0
 40
0.0
 40
0.25
 40
0.25
 40
0.25
 40
0.25
 40
0.5
 40
0.5
 40
0.5
 40
0.5
 40
0.75
 40
0.75
 40
0.75
 40
0.75
 40
1.0
 40
1.0
 40
1.0
 40
1.0
 10
0.7887244094488189
 20
-0.9500944881889765
 30
0.0
 10
0.7887244094488189
 20
-0.9500944881889765
 30
0.0
 10
1.4341102362204725
 20
-1.3366811023622047
 30
0.0
 10
1.4341102362204725
 20
-1.3366811023622047
 30
0.0
 10
1.4341102362204725
 20
-1.3366811023622047
 30
0.0
 10
1.4341102362204725
 20
-1.3366811023622047
 30
0.0
 10
1.5476732283464567
 20
-1.1954330708661418
 30
0.0
 10
1.5476732283464567
 20
-1.1954330708661418
 30
0.0
 10
1.5476732283464567
 20
-1.1954330708661418
 30
0.0
 10
1.5476732283464567
 20
-1.1954330708661418
 30
0.0
 10
0.9022874015748031
 20
-0.8088464566929134
 30
0.0
 10
0.9022874015748031
 20
-0.8088464566929134
 30
0.0
 10
0.9022874015748031
 20
-0.8088464566929134
 30
0.0
 10
0.9022874015748031
 20
-0.8088464566929134
 30
0.0
 10
0.7887244094488189
 20
-0.9500944881889765
 30
0.0
 10
0.7887244094488189
 20
-0.9500944881889765
 30
0.0
  0
SPLINE
  5
7F
100
AcDbEntity
  8
Additional Graphics
 62
     9
100
AcDbSpline
210
0.0
220
0.0
230
1.0
 70
     1
 71
     3
 72
    20
 73
    16
 74
     0
 42
0.0000000001
 43
0.0000000001
 40
0.0
 40
0.0
 40
0.0
 40
0.0
 40
0.25
 40
0.25
 40
0.25
 40
0.25
 40
0.5
 40
0.5
 40
0.5
 40
0.5
 40
0.75
 40
0.75
 40
0.75
 40
0.75
 40
1.0
 40
1.0
 40
1.0
 40
1.0
 10
0.9022874015748031
 20
-0.8088464566929134
 30
0.0
 10
0.9022874015748031
 20
-0.8088464566929134
 30
0.0
 10
1.5476732283464567
 20
-1.1954330708661418
 30
0.0
 10
1.5476732283464567
 20
-1.1954330708661418
 30
0.0
 10
1.5476732283464567
 20
-1.1954330708661418
 30
0.0
 10
1.5476732283464567
 20
-1.1954330708661418
 30
0.0
 10
1.6543543307086614
 20
-1.0518937007874016
 30
0.0
 10
1.6543543307086614
 20
-1.0518937007874016
 30
0.0
 10
1.6543543307086614
 20
-1.0518937007874016
 30
0.0
 10
1.6543543307086614
 20
-1.0518937007874016
 30
0.0
 10
1.008968503937008
 20
-0.6653070866141733
 30
0.0
 10
1.008968503937008
 20
-0.6653070866141733
 30
0.0
 10
1.008968503937008
 20
-0.6653070866141733
 30
0.0
 10
1.008968503937008
 20
-0.6653070866141733
 30
0.0
 10
0.9022874015748031
 20
-0.8088464566929134
 30
0.0
 10
0.9022874015748031
 20
-0.8088464566929134
 30
0.0
  0
SPLINE
  5
80
100
AcDbEntity
  8
Additional Graphics
 62
     9
100
AcDbSpline
210
0.0
220
0.0
230
1.0
 70
     1
 71
     3
 72
    20
 73
    16
 74
     0
 42
0.0000000001
 43
0.0000000001
 40
0.0
 40
0.0
 40
0.0
 40
0.0
 40
0.25
 40
0.25
 40
0.25
 40
0.25
 40
0.5
 40
0.5
 40
0.5
 40
0.5
 40
0.75
 40
0.75
 40
0.75
 40
0.75
 40
1.0
 40
1.0
 40
1.0
 40
1.0
 10
1.008968503937008
 20
-0.6653070866141733
 30
0.0
 10
1.008968503937008
 20
-0.6653070866141733
 30
0.0
 10
1.6543543307086614
 20
-1.0518937007874016
 30
0.0
 10
1.6543543307086614
 20
-1.0518937007874016
 30
0.0
 10
1.6543543307086614
 20
-1.0518937007874016
 30
0.0
 10
1.6543543307086614
 20
-1.0518937007874016
 30
0.0
 10
1.7543307086614175
 20
-0.9063464566929135
 30
0.0
 10
1.7543307086614175
 20
-0.9063464566929135
 30
0.0
 10
1.7543307086614175
 20
-0.9063464566929135
 30
0.0
 10
1.7543307086614175
 20
-0.9063464566929135
 30
0.0
 10
1.1089448818897638
 20
-0.5197598425196851
 30
0.0
 10
1.1089448818897638
 20
-0.5197598425196851
 30
0.0
 10
1.1089448818897638
 20
-0.5197598425196851
 30
0.0
 10
1.1089448818897638
 20
-0.5197598425196851
 30
0.0
 10
1.008968503937008
 20
-0.6653070866141733
 30
0.0
 10
1.008968503937008
 20
-0.6653070866141733
 30
0.0
  0
SPLINE
  5
81
100
AcDbEntity
  8
Additional Graphics
 62
     9
100
AcDbSpline
210
0.0
220
0.0
230
1.0
 70
     1
 71
     3
 72
    20
 73
    16
 74
     0
 42
0.0000000001
 43
0.0000000001
 40
0.0
 40
0.0
 40
0.0
 40
0.0
 40
0.25
 40
0.25
 40
0.25
 40
0.25
 40
0.5
 40
0.5
 40
0.5
 40
0.5
 40
0.75
 40
0.75
 40
0.75
 40
0.75
 40
1.0
 40
1.0
 40
1.0
 40
1.0
 10
1.1089448818897638
 20
-0.5197598425196851
 30
0.0
 10
1.1089448818897638
 20
-0.5197598425196851
 30
0.0
 10
1.7543307086614175
 20
-0.9063464566929135
 30
0.0
 10
1.7543307086614175
 20
-0.9063464566929135
 30
0.0
 10
1.7543307086614175
 20
-0.9063464566929135
 30
0.0
 10
1.7543307086614175
 20
-0.9063464566929135
 30
0.0
 10
1.8478149606299212
 20
-0.7591102362204725
 30
0.0
 10
1.8478149606299212
 20
-0.7591102362204725
 30
0.0
 10
1.8478149606299212
 20
-0.7591102362204725
 30
0.0
 10
1.8478149606299212
 20
-0.7591102362204725
 30
0.0
 10
1.2024291338582678
 20
-0.3725236220472441
 30
0.0
 10
1.2024291338582678
 20
-0.3725236220472441
 30
0.0
 10
1.2024291338582678
 20
-0.3725236220472441
 30
0.0
 10
1.2024291338582678
 20
-0.3725236220472441
 30
0.0
 10
1.1089448818897638
 20
-0.5197598425196851
 30
0.0
 10
1.1089448818897638
 20
-0.5197598425196851
 30
0.0
  0
SPLINE
  5
82
100
AcDbEntity
  8
Additional Graphics
 62
     9
100
AcDbSpline
210
0.0
220
0.0
230
1.0
 70
     1
 71
     3
 72
    20
 73
    16
 74
     0
 42
0.0000000001
 43
0.0000000001
 40
0.0
 40
0.0
 40
0.0
 40
0.0
 40
0.25
 40
0.25
 40
0.25
 40
0.25
 40
0.5
 40
0.5
 40
0.5
 40
0.5
 40
0.75
 40
0.75
 40
0.75
 40
0.75
 40
1.0
 40
1.0
 40
1.0
 40
1.0
 10
1.2024291338582678
 20
-0.3725236220472441
 30
0.0
 10
1.2024291338582678
 20
-0.3725236220472441
 30
0.0
 10
1.8478149606299212
 20
-0.7591102362204725
 30
0.0
 10
1.8478149606299212
 20
-0.7591102362204725
 30
0.0
 10
1.8478149606299212
 20
-0.7591102362204725
 30
0.0
 10
1.8478149606299212
 20
-0.7591102362204725
 30
0.0
 10
1.934988188976378
 20
-0.6104763779527559
 30
0.0
 10
1.934988188976378
 20
-0.6104763779527559
 30
0.0
 10
1.934988188976378
 20
-0.6104763779527559
 30
0.0
 10
1.934988188976378
 20
-0.6104763779527559
 30
0.0
 10
1.2896023622047244
 20
-0.2238897637795276
 30
0.0
 10
1.2896023622047244
 20
-0.2238897637795276
 30
0.0
 10
1.2896023622047244
 20
-0.2238897637795276
 30
0.0
 10
1.2896023622047244
 20
-0.2238897637795276
 30
0.0
 10
1.2024291338582678
 20
-0.3725236220472441
 30
0.0
 10
1.2024291338582678
 20
-0.3725236220472441
 30
0.0
  0
SPLINE
  5
83
100
AcDbEntity
  8
Additional Graphics
 62
     9
100
AcDbSpline
210
0.0
220
0.0
230
1.0
 70
     1
 71
     3
 72
    20
 73
    16
 74
     0
 42
0.0000000001
 43
0.0000000001
 40
0.0
 40
0.0
 40
0.0
 40
0.0
 40
0.25
 40
0.25
 40
0.25
 40
0.25
 40
0.5
 40
0.5
 40
0.5
 40
0.5
 40
0.75
 40
0.75
 40
0.75
 40
0.75
 40
1.0
 40
1.0
 40
1.0
 40
1.0
 10
1.2896023622047244
 20
-0.2238897637795276
 30
0.0
 10
1.2896023622047244
 20
-0.2238897637795276
 30
0.0
 10
1.934988188976378
 20
-0.6104763779527559
 30
0.0
 10
1.934988188976378
 20
-0.6104763779527559
 30
0.0
 10
1.934988188976378
 20
-0.6104763779527559
 30
0.0
 10
1.934988188976378
 20
-0.6104763779527559
 30
0.0
 10
2.0160472440944881
 20
-0.460751968503937
 30
0.0
 10
2.0160472440944881
 20
-0.460751968503937
 30
0.0
 10
2.0160472440944881
 20
-0.460751968503937
 30
0.0
 10
2.0160472440944881
 20
-0.460751968503937
 30
0.0
 10
1.3706614173228346
 20
-0.0741653543307087
 30
0.0
 10
1.3706614173228346
 20
-0.0741653543307087
 30
0.0
 10
1.3706614173228346
 20
-0.0741653543307087
 30
0.0
 10
1.3706614173228346
 20
-0.0741653543307087
 30
0.0
 10
1.2896023622047244
 20
-0.2238897637795276
 30
0.0
 10
1.2896023622047244
 20
-0.2238897637795276
 30
0.0
  0
SPLINE
  5
84
100
AcDbEntity
  8
Additional Graphics
 62
     9
100
AcDbSpline
210
0.0
220
0.0
230
1.0
 70
     1
 71
     3
 72
    20
 73
    16
 74
     0
 42
0.0000000001
 43
0.0000000001
 40
0.0
 40
0.0
 40
0.0
 40
0.0
 40
0.25
 40
0.25
 40
0.25
 40
0.25
 40
0.5
 40
0.5
 40
0.5
 40
0.5
 40
0.75
 40
0.75
 40
0.75
 40
0.75
 40
1.0
 40
1.0
 40
1.0
 40
1.0
 10
1.3706614173228346
 20
-0.0741653543307087
 30
0.0
 10
1.3706614173228346
 20
-0.0741653543307087
 30
0.0
 10
2.0160472440944881
 20
-0.460751968503937
 30
0.0
 10
2.0160472440944881
 20
-0.460751968503937
 30
0.0
 10
2.0160472440944881
 20
-0.460751968503937
 30
0.0
 10
2.0160472440944881
 20
-0.460751968503937
 30
0.0
 10
2.0911771653543307
 20
-0.3102322834645669
 30
0.0
 10
2.0911771653543307
 20
-0.3102322834645669
 30
0.0
 10
2.0911771653543307
 20
-0.3102322834645669
 30
0.0
 10
2.0911771653543307
 20
-0.3102322834645669
 30
0.0
 10
1.4457913385826773
 20
0.0763543307086614
 30
0.0
 10
1.4457913385826773
 20
0.0763543307086614
 30
0.0
 10
1.4457913385826773
 20
0.0763543307086614
 30
0.0
 10
1.4457913385826773
 20
0.0763543307086614
 30
0.0
 10
1.3706614173228346
 20
-0.0741653543307087
 30
0.0
 10
1.3706614173228346
 20
-0.0741653543307087
 30
0.0
  0
SPLINE
  5
85
100
AcDbEntity
  8
Additional Graphics
 62
     9
100
AcDbSpline
210
0.0
220
0.0
230
1.0
 70
     1
 71
     3
 72
    20
 73
    16
 74
     0
 42
0.0000000001
 43
0.0000000001
 40
0.0
 40
0.0
 40
0.0
 40
0.0
 40
0.25
 40
0.25
 40
0.25
 40
0.25
 40
0.5
 40
0.5
 40
0.5
 40
0.5
 40
0.75
 40
0.75
 40
0.75
 40
0.75
 40
1.0
 40
1.0
 40
1.0
 40
1.0
 10
1.4457913385826773
 20
0.0763543307086614
 30
0.0
 10
1.4457913385826773
 20
0.0763543307086614
 30
0.0
 10
2.0911771653543307
 20
-0.3102322834645669
 30
0.0
 10
2.0911771653543307
 20
-0.3102322834645669
 30
0.0
 10
2.0911771653543307
 20
-0.3102322834645669
 30
0.0
 10
2.0911771653543307
 20
-0.3102322834645669
 30
0.0
 10
2.1605787401574803
 20
-0.1592086614173228
 30
0.0
 10
2.1605787401574803
 20
-0.1592086614173228
 30
0.0
 10
2.1605787401574803
 20
-0.1592086614173228
 30
0.0
 10
2.1605787401574803
 20
-0.1592086614173228
 30
0.0
 10
1.5151929133858268
 20
0.2273779527559055
 30
0.0
 10
1.5151929133858268
 20
0.2273779527559055
 30
0.0
 10
1.5151929133858268
 20
0.2273779527559055
 30
0.0
 10
1.5151929133858268
 20
0.2273779527559055
 30
0.0
 10
1.4457913385826773
 20
0.0763543307086614
 30
0.0
 10
1.4457913385826773
 20
0.0763543307086614
 30
0.0
  0
SPLINE
  5
86
100
AcDbEntity
  8
Additional Graphics
 62
     9
100
AcDbSpline
210
0.0
220
0.0
230
1.0
 70
     1
 71
     3
 72
    20
 73
    16
 74
     0
 42
0.0000000001
 43
0.0000000001
 40
0.0
 40
0.0
 40
0.0
 40
0.0
 40
0.25
 40
0.25
 40
0.25
 40
0.25
 40
0.5
 40
0.5
 40
0.5
 40
0.5
 40
0.75
 40
0.75
 40
0.75
 40
0.75
 40
1.0
 40
1.0
 40
1.0
 40
1.0
 10
1.5151929133858268
 20
0.2273779527559055
 30
0.0
 10
1.5151929133858268
 20
0.2273779527559055
 30
0.0
 10
2.1605787401574803
 20
-0.1592086614173228
 30
0.0
 10
2.1605787401574803
 20
-0.1592086614173228
 30
0.0
 10
2.1605787401574803
 20
-0.1592086614173228
 30
0.0
 10
2.1605787401574803
 20
-0.1592086614173228
 30
0.0
 10
2.2244330708661417
 20
-0.007992125984252
 30
0.0
 10
2.2244330708661417
 20
-0.007992125984252
 30
0.0
 10
2.2244330708661417
 20
-0.007992125984252
 30
0.0
 10
2.2244330708661417
 20
-0.007992125984252
 30
0.0
 10
1.5790472440944883
 20
0.3785944881889764
 30
0.0
 10
1.5790472440944883
 20
0.3785944881889764
 30
0.0
 10
1.5790472440944883
 20
0.3785944881889764
 30
0.0
 10
1.5790472440944883
 20
0.3785944881889764
 30
0.0
 10
1.5151929133858268
 20
0.2273779527559055
 30
0.0
 10
1.5151929133858268
 20
0.2273779527559055
 30
0.0
  0
SPLINE
  5
87
100
AcDbEntity
  8
Additional Graphics
 62
     9
100
AcDbSpline
210
0.0
220
0.0
230
1.0
 70
     1
 71
     3
 72
    20
 73
    16
 74
     0
 42
0.0000000001
 43
0.0000000001
 40
0.0
 40
0.0
 40
0.0
 40
0.0
 40
0.25
 40
0.25
 40
0.25
 40
0.25
 40
0.5
 40
0.5
 40
0.5
 40
0.5
 40
0.75
 40
0.75
 40
0.75
 40
0.75
 40
1.0
 40
1.0
 40
1.0
 40
1.0
 10
1.5790472440944883
 20
0.3785944881889764
 30
0.0
 10
1.5790472440944883
 20
0.3785944881889764
 30
0.0
 10
2.2244330708661417
 20
-0.007992125984252
 30
0.0
 10
2.2244330708661417
 20
-0.007992125984252
 30
0.0
 10
2.2244330708661417
 20
-0.007992125984252
 30
0.0
 10
2.2244330708661417
 20
-0.007992125984252
 30
0.0
 10
2.2829488188976379
 20
0.1431259842519685
 30
0.0
 10
2.2829488188976379
 20
0.1431259842519685
 30
0.0
 10
2.2829488188976379
 20
0.1431259842519685
 30
0.0
 10
2.2829488188976379
 20
0.1431259842519685
 30
0.0
 10
1.6375629921259842
 20
0.5297125984251969
 30
0.0
 10
1.6375629921259842
 20
0.5297125984251969
 30
0.0
 10
1.6375629921259842
 20
0.5297125984251969
 30
0.0
 10
1.6375629921259842
 20
0.5297125984251969
 30
0.0
 10
1.5790472440944883
 20
0.3785944881889764
 30
0.0
 10
1.5790472440944883
 20
0.3785944881889764
 30
0.0
  0
SPLINE
  5
88
100
AcDbEntity
  8
Additional Graphics
 62
     9
100
AcDbSpline
210
0.0
220
0.0
230
1.0
 70
     1
 71
     3
 72
    20
 73
    16
 74
     0
 42
0.0000000001
 43
0.0000000001
 40
0.0
 40
0.0
 40
0.0
 40
0.0
 40
0.25
 40
0.25
 40
0.25
 40
0.25
 40
0.5
 40
0.5
 40
0.5
 40
0.5
 40
0.75
 40
0.75
 40
0.75
 40
0.75
 40
1.0
 40
1.0
 40
1.0
 40
1.0
 10
1.6375629921259842
 20
0.5297125984251969
 30
0.0
 10
1.6375629921259842
 20
0.5297125984251969
 30
0.0
 10
2.2829488188976379
 20
0.1431259842519685
 30
0.0
 10
2.2829488188976379
 20
0.1431259842519685
 30
0.0
 10
2.2829488188976379
 20
0.1431259842519685
 30
0.0
 10
2.2829488188976379
 20
0.1431259842519685
 30
0.0
 10
2.3362952755905511
 20
0.2938307086614174
 30
0.0
 10
2.3362952755905511
 20
0.2938307086614174
 30
0.0
 10
2.3362952755905511
 20
0.2938307086614174
 30
0.0
 10
2.3362952755905511
 20
0.2938307086614174
 30
0.0
 10
1.6909094488188976
 20
0.6804173228346457
 30
0.0
 10
1.6909094488188976
 20
0.6804173228346457
 30
0.0
 10
1.6909094488188976
 20
0.6804173228346457
 30
0.0
 10
1.6909094488188976
 20
0.6804173228346457
 30
0.0
 10
1.6375629921259842
 20
0.5297125984251969
 30
0.0
 10
1.6375629921259842
 20
0.5297125984251969
 30
0.0
  0
SPLINE
  5
89
100
AcDbEntity
  8
Additional Graphics
 62
     9
100
AcDbSpline
210
0.0
220
0.0
230
1.0
 70
     1
 71
     3
 72
    20
 73
    16
 74
     0
 42
0.0000000001
 43
0.0000000001
 40
0.0
 40
0.0
 40
0.0
 40
0.0
 40
0.25
 40
0.25
 40
0.25
 40
0.25
 40
0.5
 40
0.5
 40
0.5
 40
0.5
 40
0.75
 40
0.75
 40
0.75
 40
0.75
 40
1.0
 40
1.0
 40
1.0
 40
1.0
 10
1.6909094488188976
 20
0.6804173228346457
 30
0.0
 10
1.6909094488188976
 20
0.6804173228346457
 30
0.0
 10
2.3362952755905511
 20
0.2938307086614174
 30
0.0
 10
2.3362952755905511
 20
0.2938307086614174
 30
0.0
 10
2.3362952755905511
 20
0.2938307086614174
 30
0.0
 10
2.3362952755905511
 20
0.2938307086614174
 30
0.0
 10
2.3846850393700789
 20
0.4438385826771654
 30
0.0
 10
2.3846850393700789
 20
0.4438385826771654
 30
0.0
 10
2.3846850393700789
 20
0.4438385826771654
 30
0.0
 10
2.3846850393700789
 20
0.4438385826771654
 30
0.0
 10
1.7392992125984252
 20
0.8304251968503937
 30
0.0
 10
1.7392992125984252
 20
0.8304251968503937
 30
0.0
 10
1.7392992125984252
 20
0.8304251968503937
 30
0.0
 10
1.7392992125984252
 20
0.8304251968503937
 30
0.0
 10
1.6909094488188976
 20
0.6804173228346457
 30
0.0
 10
1.6909094488188976
 20
0.6804173228346457
 30
0.0
  0
SPLINE
  5
8A
100
AcDbEntity
  8
Additional Graphics
 62
     9
100
AcDbSpline
210
0.0
220
0.0
230
1.0
 70
     1
 71
     3
 72
    20
 73
    16
 74
     0
 42
0.0000000001
 43
0.0000000001
 40
0.0
 40
0.0
 40
0.0
 40
0.0
 40
0.25
 40
0.25
 40
0.25
 40
0.25
 40
0.5
 40
0.5
 40
0.5
 40
0.5
 40
0.75
 40
0.75
 40
0.75
 40
0.75
 40
1.0
 40
1.0
 40
1.0
 40
1.0
 10
1.7392992125984252
 20
0.8304251968503937
 30
0.0
 10
1.7392992125984252
 20
0.8304251968503937
 30
0.0
 10
2.3846850393700789
 20
0.4438385826771654
 30
0.0
 10
2.3846850393700789
 20
0.4438385826771654
 30
0.0
 10
2.3846850393700789
 20
0.4438385826771654
 30
0.0
 10
2.3846850393700789
 20
0.4438385826771654
 30
0.0
 10
2.4282992125984251
 20
0.5928385826771654
 30
0.0
 10
2.4282992125984251
 20
0.5928385826771654
 30
0.0
 10
2.4282992125984251
 20
0.5928385826771654
 30
0.0
 10
2.4282992125984251
 20
0.5928385826771654
 30
0.0
 10
1.7829133858267716
 20
0.9794251968503938
 30
0.0
 10
1.7829133858267716
 20
0.9794251968503938
 30
0.0
 10
1.7829133858267716
 20
0.9794251968503938
 30
0.0
 10
1.7829133858267716
 20
0.9794251968503938
 30
0.0
 10
1.7392992125984252
 20
0.8304251968503937
 30
0.0
 10
1.7392992125984252
 20
0.8304251968503937
 30
0.0
  0
SPLINE
  5
8B
100
AcDbEntity
  8
Additional Graphics
 62
     9
100
AcDbSpline
210
0.0
220
0.0
230
1.0
 70
     1
 71
     3
 72
    20
 73
    16
 74
     0
 42
0.0000000001
 43
0.0000000001
 40
0.0
 40
0.0
 40
0.0
 40
0.0
 40
0.25
 40
0.25
 40
0.25
 40
0.25
 40
0.5
 40
0.5
 40
0.5
 40
0.5
 40
0.75
 40
0.75
 40
0.75
 40
0.75
 40
1.0
 40
1.0
 40
1.0
 40
1.0
 10
1.7829133858267716
 20
0.9794251968503938
 30
0.0
 10
1.7829133858267716
 20
0.9794251968503938
 30
0.0
 10
2.4282992125984251
 20
0.5928385826771654
 30
0.0
 10
2.4282992125984251
 20
0.5928385826771654
 30
0.0
 10
2.4282992125984251
 20
0.5928385826771654
 30
0.0
 10
2.4282992125984251
 20
0.5928385826771654
 30
0.0
 10
2.4673346456692915
 20
0.7405433070866142
 30
0.0
 10
2.4673346456692915
 20
0.7405433070866142
 30
0.0
 10
2.4673346456692915
 20
0.7405433070866142
 30
0.0
 10
2.4673346456692915
 20
0.7405433070866142
 30
0.0
 10
1.8219488188976378
 20
1.1271299212598425
 30
0.0
 10
1.8219488188976378
 20
1.1271299212598425
 30
0.0
 10
1.8219488188976378
 20
1.1271299212598425
 30
0.0
 10
1.8219488188976378
 20
1.1271299212598425
 30
0.0
 10
1.7829133858267716
 20
0.9794251968503938
 30
0.0
 10
1.7829133858267716
 20
0.9794251968503938
 30
0.0
  0
SPLINE
  5
8C
100
AcDbEntity
  8
Additional Graphics
 62
     9
100
AcDbSpline
210
0.0
220
0.0
230
1.0
 70
     1
 71
     3
 72
    20
 73
    16
 74
     0
 42
0.0000000001
 43
0.0000000001
 40
0.0
 40
0.0
 40
0.0
 40
0.0
 40
0.25
 40
0.25
 40
0.25
 40
0.25
 40
0.5
 40
0.5
 40
0.5
 40
0.5
 40
0.75
 40
0.75
 40
0.75
 40
0.75
 40
1.0
 40
1.0
 40
1.0
 40
1.0
 10
1.8219488188976378
 20
1.1271299212598425
 30
0.0
 10
1.8219488188976378
 20
1.1271299212598425
 30
0.0
 10
2.4673346456692915
 20
0.7405433070866142
 30
0.0
 10
2.4673346456692915
 20
0.7405433070866142
 30
0.0
 10
2.4673346456692915
 20
0.7405433070866142
 30
0.0
 10
2.4673346456692915
 20
0.7405433070866142
 30
0.0
 10
2.5019724409448818
 20
0.8866338582677166
 30
0.0
 10
2.5019724409448818
 20
0.8866338582677166
 30
0.0
 10
2.5019724409448818
 20
0.8866338582677166
 30
0.0
 10
2.5019724409448818
 20
0.8866338582677166
 30
0.0
 10
1.8565866141732283
 20
1.2732204724409448
 30
0.0
 10
1.8565866141732283
 20
1.2732204724409448
 30
0.0
 10
1.8565866141732283
 20
1.2732204724409448
 30
0.0
 10
1.8565866141732283
 20
1.2732204724409448
 30
0.0
 10
1.8219488188976378
 20
1.1271299212598425
 30
0.0
 10
1.8219488188976378
 20
1.1271299212598425
 30
0.0
  0
SPLINE
  5
8D
100
AcDbEntity
  8
Additional Graphics
 62
     9
100
AcDbSpline
210
0.0
220
0.0
230
1.0
 70
     1
 71
     3
 72
    20
 73
    16
 74
     0
 42
0.0000000001
 43
0.0000000001
 40
0.0
 40
0.0
 40
0.0
 40
0.0
 40
0.25
 40
0.25
 40
0.25
 40
0.25
 40
0.5
 40
0.5
 40
0.5
 40
0.5
 40
0.75
 40
0.75
 40
0.75
 40
0.75
 40
1.0
 40
1.0
 40
1.0
 40
1.0
 10
1.8565866141732283
 20
1.2732204724409448
 30
0.0
 10
1.8565866141732283
 20
1.2732204724409448
 30
0.0
 10
2.5019724409448818
 20
0.8866338582677166
 30
0.0
 10
2.5019724409448818
 20
0.8866338582677166
 30
0.0
 10
2.5019724409448818
 20
0.8866338582677166
 30
0.0
 10
2.5019724409448818
 20
0.8866338582677166
 30
0.0
 10
2.5324212598425198
 20
1.0308267716535433
 30
0.0
 10
2.5324212598425198
 20
1.0308267716535433
 30
0.0
 10
2.5324212598425198
 20
1.0308267716535433
 30
0.0
 10
2.5324212598425198
 20
1.0308267716535433
 30
0.0
 10
1.8870354330708663
 20
1.4174133858267717
 30
0.0
 10
1.8870354330708663
 20
1.4174133858267717
 30
0.0
 10
1.8870354330708663
 20
1.4174133858267717
 30
0.0
 10
1.8870354330708663
 20
1.4174133858267717
 30
0.0
 10
1.8565866141732283
 20
1.2732204724409448
 30
0.0
 10
1.8565866141732283
 20
1.2732204724409448
 30
0.0
  0
SPLINE
  5
8E
100
AcDbEntity
  8
Additional Graphics
 62
     9
100
AcDbSpline
210
0.0
220
0.0
230
1.0
 70
     1
 71
     3
 72
    20
 73
    16
 74
     0
 42
0.0000000001
 43
0.0000000001
 40
0.0
 40
0.0
 40
0.0
 40
0.0
 40
0.25
 40
0.25
 40
0.25
 40
0.25
 40
0.5
 40
0.5
 40
0.5
 40
0.5
 40
0.75
 40
0.75
 40
0.75
 40
0.75
 40
1.0
 40
1.0
 40
1.0
 40
1.0
 10
1.8870354330708663
 20
1.4174133858267717
 30
0.0
 10
1.8870354330708663
 20
1.4174133858267717
 30
0.0
 10
2.5324212598425198
 20
1.0308267716535433
 30
0.0
 10
2.5324212598425198
 20
1.0308267716535433
 30
0.0
 10
2.5324212598425198
 20
1.0308267716535433
 30
0.0
 10
2.5324212598425198
 20
1.0308267716535433
 30
0.0
 10
2.5588661417322838
 20
1.1728110236220473
 30
0.0
 10
2.5588661417322838
 20
1.1728110236220473
 30
0.0
 10
2.5588661417322838
 20
1.1728110236220473
 30
0.0
 10
2.5588661417322838
 20
1.1728110236220473
 30
0.0
 10
1.9134803149606301
 20
1.5593976377952756
 30
0.0
 10
1.9134803149606301
 20
1.5593976377952756
 30
0.0
 10
1.9134803149606301
 20
1.5593976377952756
 30
0.0
 10
1.9134803149606301
 20
1.5593976377952756
 30
0.0
 10
1.8870354330708663
 20
1.4174133858267717
 30
0.0
 10
1.8870354330708663
 20
1.4174133858267717
 30
0.0
  0
SPLINE
  5
8F
100
AcDbEntity
  8
Additional Graphics
 62
     9
100
AcDbSpline
210
0.0
220
0.0
230
1.0
 70
     1
 71
     3
 72
    20
 73
    16
 74
     0
 42
0.0000000001
 43
0.0000000001
 40
0.0
 40
0.0
 40
0.0
 40
0.0
 40
0.25
 40
0.25
 40
0.25
 40
0.25
 40
0.5
 40
0.5
 40
0.5
 40
0.5
 40
0.75
 40
0.75
 40
0.75
 40
0.75
 40
1.0
 40
1.0
 40
1.0
 40
1.0
 10
1.9134803149606301
 20
1.5593976377952756
 30
0.0
 10
1.9134803149606301
 20
1.5593976377952756
 30
0.0
 10
2.5588661417322838
 20
1.1728110236220473
 30
0.0
 10
2.5588661417322838
 20
1.1728110236220473
 30
0.0
 10
2.5588661417322838
 20
1.1728110236220473
 30
0.0
 10
2.5588661417322838
 20
1.1728110236220473
 30
0.0
 10
2.5815000000000001
 20
1.3122952755905513
 30
0.0
 10
2.5815000000000001
 20
1.3122952755905513
 30
0.0
 10
2.5815000000000001
 20
1.3122952755905513
 30
0.0
 10
2.5815000000000001
 20
1.3122952755905513
 30
0.0
 10
1.9361141732283464
 20
1.6988818897637796
 30
0.0
 10
1.9361141732283464
 20
1.6988818897637796
 30
0.0
 10
1.9361141732283464
 20
1.6988818897637796
 30
0.0
 10
1.9361141732283464
 20
1.6988818897637796
 30
0.0
 10
1.9134803149606301
 20
1.5593976377952756
 30
0.0
 10
1.9134803149606301
 20
1.5593976377952756
 30
0.0
  0
SPLINE
  5
90
100
AcDbEntity
  8
Additional Graphics
370
     5
100
AcDbSpline
210
0.0
220
0.0
230
1.0
 70
     1
 71
     3
 72
   268
 73
   264
 74
     0
 42
0.0000000001
 43
0.0000000001
 40
0.0
 40
0.0
 40
0.0
 40
0.0
 40
0.0151515151515152
 40
0.0151515151515152
 40
0.0151515151515152
 40
0.0151515151515152
 40
0.0303030303030303
 40
0.0303030303030303
 40
0.0303030303030303
 40
0.0303030303030303
 40
0.0454545454545455
 40
0.0454545454545455
 40
0.0454545454545455
 40
0.0454545454545455
 40
0.0606060606060606
 40
0.0606060606060606
 40
0.0606060606060606
 40
0.0606060606060606
 40
0.0757575757575758
 40
0.0757575757575758
 40
0.0757575757575758
 40
0.0757575757575758
 40
0.0909090909090909
 40
0.0909090909090909
 40
0.0909090909090909
 40
0.0909090909090909
 40
0.1060606060606061
 40
0.1060606060606061
 40
0.1060606060606061
 40
0.1060606060606061
 40
0.1212121212121212
 40
0.1212121212121212
 40
0.1212121212121212
 40
0.1212121212121212
 40
0.1363636363636364
 40
0.1363636363636364
 40
0.1363636363636364
 40
0.1363636363636364
 40
0.1515151515151515
 40
0.1515151515151515
 40
0.1515151515151515
 40
0.1515151515151515
 40
0.1666666666666666
 40
0.1666666666666666
 40
0.1666666666666666
 40
0.1666666666666666
 40
0.1818181818181818
 40
0.1818181818181818
 40
0.1818181818181818
 40
0.1818181818181818
 40
0.1969696969696969
 40
0.1969696969696969
 40
0.1969696969696969
 40
0.1969696969696969
 40
0.212121212121212
 40
0.212121212121212
 40
0.212121212121212
 40
0.212121212121212
 40
0.2272727272727272
 40
0.2272727272727272
 40
0.2272727272727272
 40
0.2272727272727272
 40
0.2424242424242423
 40
0.2424242424242423
 40
0.2424242424242423
 40
0.2424242424242423
 40
0.2575757575757575
 40
0.2575757575757575
 40
0.2575757575757575
 40
0.2575757575757575
 40
0.2727272727272726
 40
0.2727272727272726
 40
0.2727272727272726
 40
0.2727272727272726
 40
0.2878787878787877
 40
0.2878787878787877
 40
0.2878787878787877
 40
0.2878787878787877
 40
0.3030303030303029
 40
0.3030303030303029
 40
0.3030303030303029
 40
0.3030303030303029
 40
0.318181818181818
 40
0.318181818181818
 40
0.318181818181818
 40
0.318181818181818
 40
0.3333333333333332
 40
0.3333333333333332
 40
0.3333333333333332
 40
0.3333333333333332
 40
0.3484848484848483
 40
0.3484848484848483
 40
0.3484848484848483
 40
0.3484848484848483
 40
0.3636363636363634
 40
0.3636363636363634
 40
0.3636363636363634
 40
0.3636363636363634
 40
0.3787878787878786
 40
0.3787878787878786
 40
0.3787878787878786
 40
0.3787878787878786
 40
0.3939393939393937
 40
0.3939393939393937
 40
0.3939393939393937
 40
0.3939393939393937
 40
0.4090909090909088
 40
0.4090909090909088
 40
0.4090909090909088
 40
0.4090909090909088
 40
0.424242424242424
 40
0.424242424242424
 40
0.424242424242424
 40
0.424242424242424
 40
0.4393939393939391
 40
0.4393939393939391
 40
0.4393939393939391
 40
0.4393939393939391
 40
0.4545454545454543
 40
0.4545454545454543
 40
0.4545454545454543
 40
0.4545454545454543
 40
0.4696969696969694
 40
0.4696969696969694
 40
0.4696969696969694
 40
0.4696969696969694
 40
0.4848484848484845
 40
0.4848484848484845
 40
0.4848484848484845
 40
0.4848484848484845
 40
0.4999999999999997
 40
0.4999999999999997
 40
0.4999999999999997
 40
0.4999999999999997
 40
0.5151515151515148
 40
0.5151515151515148
 40
0.5151515151515148
 40
0.5151515151515148
 40
0.5303030303030299
 40
0.5303030303030299
 40
0.5303030303030299
 40
0.5303030303030299
 40
0.5454545454545451
 40
0.5454545454545451
 40
0.5454545454545451
 40
0.5454545454545451
 40
0.5606060606060602
 40
0.5606060606060602
 40
0.5606060606060602
 40
0.5606060606060602
 40
0.5757575757575754
 40
0.5757575757575754
 40
0.5757575757575754
 40
0.5757575757575754
 40
0.5909090909090905
 40
0.5909090909090905
 40
0.5909090909090905
 40
0.5909090909090905
 40
0.6060606060606056
 40
0.6060606060606056
 40
0.6060606060606056
 40
0.6060606060606056
 40
0.6212121212121208
 40
0.6212121212121208
 40
0.6212121212121208
 40
0.6212121212121208
 40
0.6363636363636359
 40
0.6363636363636359
 40
0.6363636363636359
 40
0.6363636363636359
 40
0.6515151515151511
 40
0.6515151515151511
 40
0.6515151515151511
 40
0.6515151515151511
 40
0.6666666666666662
 40
0.6666666666666662
 40
0.6666666666666662
 40
0.6666666666666662
 40
0.6818181818181813
 40
0.6818181818181813
 40
0.6818181818181813
 40
0.6818181818181813
 40
0.6969696969696965
 40
0.6969696969696965
 40
0.6969696969696965
 40
0.6969696969696965
 40
0.7121212121212116
 40
0.7121212121212116
 40
0.7121212121212116
 40
0.7121212121212116
 40
0.7272727272727267
 40
0.7272727272727267
 40
0.7272727272727267
 40
0.7272727272727267
 40
0.7424242424242419
 40
0.7424242424242419
 40
0.7424242424242419
 40
0.7424242424242419
 40
0.757575757575757
 40
0.757575757575757
 40
0.757575757575757
 40
0.757575757575757
 40
0.7727272727272722
 40
0.7727272727272722
 40
0.7727272727272722
 40
0.7727272727272722
 40
0.7878787878787873
 40
0.7878787878787873
 40
0.7878787878787873
 40
0.7878787878787873
 40
0.8030303030303024
 40
0.8030303030303024
 40
0.8030303030303024
 40
0.8030303030303024
 40
0.8181818181818176
 40
0.8181818181818176
 40
0.8181818181818176
 40
0.8181818181818176
 40
0.8333333333333327
 40
0.8333333333333327
 40
0.8333333333333327
 40
0.8333333333333327
 40
0.8484848484848478
 40
0.8484848484848478
 40
0.8484848484848478
 40
0.8484848484848478
 40
0.863636363636363
 40
0.863636363636363
 40
0.863636363636363
 40
0.863636363636363
 40
0.8787878787878781
 40
0.8787878787878781
 40
0.8787878787878781
 40
0.8787878787878781
 40
0.8939393939393933
 40
0.8939393939393933
 40
0.8939393939393933
 40
0.8939393939393933
 40
0.9090909090909084
 40
0.9090909090909084
 40
0.9090909090909084
 40
0.9090909090909084
 40
0.9242424242424235
 40
0.9242424242424235
 40
0.9242424242424235
 40
0.9242424242424235
 40
0.9393939393939387
 40
0.9393939393939387
 40
0.9393939393939387
 40
0.9393939393939387
 40
0.9545454545454538
 40
0.9545454545454538
 40
0.9545454545454538
 40
0.9545454545454538
 40
0.969696969696969
 40
0.969696969696969
 40
0.969696969696969
 40
0.969696969696969
 40
0.9848484848484841
 40
0.9848484848484841
 40
0.9848484848484841
 40
0.9848484848484841
 40
1.0
 40
1.0
 40
1.0
 40
1.0
 10
-1.6315314960629921
 20
-2.5183543307086613
 30
0.0
 10
-1.6315314960629921
 20
-2.5183543307086613
 30
0.0
 10
-0.9861456692913386
 20
-2.9049409448818899
 30
0.0
 10
-0.9861456692913386
 20
-2.9049409448818899
 30
0.0
 10
-0.9861456692913386
 20
-2.9049409448818899
 30
0.0
 10
-0.9861456692913386
 20
-2.9049409448818899
 30
0.0
 10
-0.7560354330708662
 20
-2.8273503937007876
 30
0.0
 10
-0.7560354330708662
 20
-2.8273503937007876
 30
0.0
 10
-0.7560354330708662
 20
-2.8273503937007876
 30
0.0
 10
-0.7560354330708662
 20
-2.8273503937007876
 30
0.0
 10
-0.5355
 20
-2.743271653543307
 30
0.0
 10
-0.5355
 20
-2.743271653543307
 30
0.0
 10
-0.5355
 20
-2.743271653543307
 30
0.0
 10
-0.5355
 20
-2.743271653543307
 30
0.0
 10
-0.3243464566929134
 20
-2.6529921259842522
 30
0.0
 10
-0.3243464566929134
 20
-2.6529921259842522
 30
0.0
 10
-0.3243464566929134
 20
-2.6529921259842522
 30
0.0
 10
-0.3243464566929134
 20
-2.6529921259842522
 30
0.0
 10
-0.1223818897637795
 20
-2.5568188976377955
 30
0.0
 10
-0.1223818897637795
 20
-2.5568188976377955
 30
0.0
 10
-0.1223818897637795
 20
-2.5568188976377955
 30
0.0
 10
-0.1223818897637795
 20
-2.5568188976377955
 30
0.0
 10
0.0705905511811024
 20
-2.4550393700787403
 30
0.0
 10
0.0705905511811024
 20
-2.4550393700787403
 30
0.0
 10
0.0705905511811024
 20
-2.4550393700787403
 30
0.0
 10
0.0705905511811024
 20
-2.4550393700787403
 30
0.0
 10
0.254748031496063
 20
-2.347968503937008
 30
0.0
 10
0.254748031496063
 20
-2.347968503937008
 30
0.0
 10
0.254748031496063
 20
-2.347968503937008
 30
0.0
 10
0.254748031496063
 20
-2.347968503937008
 30
0.0
 10
0.4302992125984252
 20
-2.2358976377952757
 30
0.0
 10
0.4302992125984252
 20
-2.2358976377952757
 30
0.0
 10
0.4302992125984252
 20
-2.2358976377952757
 30
0.0
 10
0.4302992125984252
 20
-2.2358976377952757
 30
0.0
 10
0.5974251968503938
 20
-2.1191338582677166
 30
0.0
 10
0.5974251968503938
 20
-2.1191338582677166
 30
0.0
 10
0.5974251968503938
 20
-2.1191338582677166
 30
0.0
 10
0.5974251968503938
 20
-2.1191338582677166
 30
0.0
 10
0.7563188976377953
 20
-1.9979645669291339
 30
0.0
 10
0.7563188976377953
 20
-1.9979645669291339
 30
0.0
 10
0.7563188976377953
 20
-1.9979645669291339
 30
0.0
 10
0.7563188976377953
 20
-1.9979645669291339
 30
0.0
 10
0.9071811023622047
 20
-1.8727007874015749
 30
0.0
 10
0.9071811023622047
 20
-1.8727007874015749
 30
0.0
 10
0.9071811023622047
 20
-1.8727007874015749
 30
0.0
 10
0.9071811023622047
 20
-1.8727007874015749
 30
0.0
 10
1.0501968503937009
 20
-1.7436377952755906
 30
0.0
 10
1.0501968503937009
 20
-1.7436377952755906
 30
0.0
 10
1.0501968503937009
 20
-1.7436377952755906
 30
0.0
 10
1.0501968503937009
 20
-1.7436377952755906
 30
0.0
 10
1.1855708661417323
 20
-1.6110866141732285
 30
0.0
 10
1.1855708661417323
 20
-1.6110866141732285
 30
0.0
 10
1.1855708661417323
 20
-1.6110866141732285
 30
0.0
 10
1.1855708661417323
 20
-1.6110866141732285
 30
0.0
 10
1.3134724409448819
 20
-1.4753267716535434
 30
0.0
 10
1.3134724409448819
 20
-1.4753267716535434
 30
0.0
 10
1.3134724409448819
 20
-1.4753267716535434
 30
0.0
 10
1.3134724409448819
 20
-1.4753267716535434
 30
0.0
 10
1.4341102362204725
 20
-1.3366811023622047
 30
0.0
 10
1.4341102362204725
 20
-1.3366811023622047
 30
0.0
 10
1.4341102362204725
 20
-1.3366811023622047
 30
0.0
 10
1.4341102362204725
 20
-1.3366811023622047
 30
0.0
 10
1.5476732283464567
 20
-1.1954330708661418
 30
0.0
 10
1.5476732283464567
 20
-1.1954330708661418
 30
0.0
 10
1.5476732283464567
 20
-1.1954330708661418
 30
0.0
 10
1.5476732283464567
 20
-1.1954330708661418
 30
0.0
 10
1.6543543307086614
 20
-1.0518937007874016
 30
0.0
 10
1.6543543307086614
 20
-1.0518937007874016
 30
0.0
 10
1.6543543307086614
 20
-1.0518937007874016
 30
0.0
 10
1.6543543307086614
 20
-1.0518937007874016
 30
0.0
 10
1.7543307086614175
 20
-0.9063464566929135
 30
0.0
 10
1.7543307086614175
 20
-0.9063464566929135
 30
0.0
 10
1.7543307086614175
 20
-0.9063464566929135
 30
0.0
 10
1.7543307086614175
 20
-0.9063464566929135
 30
0.0
 10
1.8478149606299212
 20
-0.7591102362204725
 30
0.0
 10
1.8478149606299212
 20
-0.7591102362204725
 30
0.0
 10
1.8478149606299212
 20
-0.7591102362204725
 30
0.0
 10
1.8478149606299212
 20
-0.7591102362204725
 30
0.0
 10
1.934988188976378
 20
-0.6104763779527559
 30
0.0
 10
1.934988188976378
 20
-0.6104763779527559
 30
0.0
 10
1.934988188976378
 20
-0.6104763779527559
 30
0.0
 10
1.934988188976378
 20
-0.6104763779527559
 30
0.0
 10
2.0160472440944881
 20
-0.460751968503937
 30
0.0
 10
2.0160472440944881
 20
-0.460751968503937
 30
0.0
 10
2.0160472440944881
 20
-0.460751968503937
 30
0.0
 10
2.0160472440944881
 20
-0.460751968503937
 30
0.0
 10
2.0911771653543307
 20
-0.3102322834645669
 30
0.0
 10
2.0911771653543307
 20
-0.3102322834645669
 30
0.0
 10
2.0911771653543307
 20
-0.3102322834645669
 30
0.0
 10
2.0911771653543307
 20
-0.3102322834645669
 30
0.0
 10
2.1605787401574803
 20
-0.1592086614173228
 30
0.0
 10
2.1605787401574803
 20
-0.1592086614173228
 30
0.0
 10
2.1605787401574803
 20
-0.1592086614173228
 30
0.0
 10
2.1605787401574803
 20
-0.1592086614173228
 30
0.0
 10
2.2244330708661417
 20
-0.007992125984252
 30
0.0
 10
2.2244330708661417
 20
-0.007992125984252
 30
0.0
 10
2.2244330708661417
 20
-0.007992125984252
 30
0.0
 10
2.2244330708661417
 20
-0.007992125984252
 30
0.0
 10
2.2829488188976379
 20
0.1431259842519685
 30
0.0
 10
2.2829488188976379
 20
0.1431259842519685
 30
0.0
 10
2.2829488188976379
 20
0.1431259842519685
 30
0.0
 10
2.2829488188976379
 20
0.1431259842519685
 30
0.0
 10
2.3362952755905511
 20
0.2938307086614174
 30
0.0
 10
2.3362952755905511
 20
0.2938307086614174
 30
0.0
 10
2.3362952755905511
 20
0.2938307086614174
 30
0.0
 10
2.3362952755905511
 20
0.2938307086614174
 30
0.0
 10
2.3846850393700789
 20
0.4438385826771654
 30
0.0
 10
2.3846850393700789
 20
0.4438385826771654
 30
0.0
 10
2.3846850393700789
 20
0.4438385826771654
 30
0.0
 10
2.3846850393700789
 20
0.4438385826771654
 30
0.0
 10
2.4282992125984251
 20
0.5928385826771654
 30
0.0
 10
2.4282992125984251
 20
0.5928385826771654
 30
0.0
 10
2.4282992125984251
 20
0.5928385826771654
 30
0.0
 10
2.4282992125984251
 20
0.5928385826771654
 30
0.0
 10
2.4673346456692915
 20
0.7405433070866142
 30
0.0
 10
2.4673346456692915
 20
0.7405433070866142
 30
0.0
 10
2.4673346456692915
 20
0.7405433070866142
 30
0.0
 10
2.4673346456692915
 20
0.7405433070866142
 30
0.0
 10
2.5019724409448818
 20
0.8866338582677166
 30
0.0
 10
2.5019724409448818
 20
0.8866338582677166
 30
0.0
 10
2.5019724409448818
 20
0.8866338582677166
 30
0.0
 10
2.5019724409448818
 20
0.8866338582677166
 30
0.0
 10
2.5324212598425198
 20
1.0308267716535433
 30
0.0
 10
2.5324212598425198
 20
1.0308267716535433
 30
0.0
 10
2.5324212598425198
 20
1.0308267716535433
 30
0.0
 10
2.5324212598425198
 20
1.0308267716535433
 30
0.0
 10
2.5588661417322838
 20
1.1728110236220473
 30
0.0
 10
2.5588661417322838
 20
1.1728110236220473
 30
0.0
 10
2.5588661417322838
 20
1.1728110236220473
 30
0.0
 10
2.5588661417322838
 20
1.1728110236220473
 30
0.0
 10
2.5815000000000001
 20
1.3122952755905513
 30
0.0
 10
2.5815000000000001
 20
1.3122952755905513
 30
0.0
 10
2.5815000000000001
 20
1.3122952755905513
 30
0.0
 10
2.5815000000000001
 20
1.3122952755905513
 30
0.0
 10
1.9361141732283464
 20
1.6988818897637796
 30
0.0
 10
1.9361141732283464
 20
1.6988818897637796
 30
0.0
 10
1.9361141732283464
 20
1.6988818897637796
 30
0.0
 10
1.9361141732283464
 20
1.6988818897637796
 30
0.0
 10
1.9134803149606301
 20
1.5593976377952756
 30
0.0
 10
1.9134803149606301
 20
1.5593976377952756
 30
0.0
 10
1.9134803149606301
 20
1.5593976377952756
 30
0.0
 10
1.9134803149606301
 20
1.5593976377952756
 30
0.0
 10
1.8870354330708663
 20
1.4174133858267717
 30
0.0
 10
1.8870354330708663
 20
1.4174133858267717
 30
0.0
 10
1.8870354330708663
 20
1.4174133858267717
 30
0.0
 10
1.8870354330708663
 20
1.4174133858267717
 30
0.0
 10
1.8565866141732283
 20
1.2732204724409448
 30
0.0
 10
1.8565866141732283
 20
1.2732204724409448
 30
0.0
 10
1.8565866141732283
 20
1.2732204724409448
 30
0.0
 10
1.8565866141732283
 20
1.2732204724409448
 30
0.0
 10
1.8219488188976378
 20
1.1271299212598425
 30
0.0
 10
1.8219488188976378
 20
1.1271299212598425
 30
0.0
 10
1.8219488188976378
 20
1.1271299212598425
 30
0.0
 10
1.8219488188976378
 20
1.1271299212598425
 30
0.0
 10
1.7829133858267716
 20
0.9794251968503938
 30
0.0
 10
1.7829133858267716
 20
0.9794251968503938
 30
0.0
 10
1.7829133858267716
 20
0.9794251968503938
 30
0.0
 10
1.7829133858267716
 20
0.9794251968503938
 30
0.0
 10
1.7392992125984252
 20
0.8304251968503937
 30
0.0
 10
1.7392992125984252
 20
0.8304251968503937
 30
0.0
 10
1.7392992125984252
 20
0.8304251968503937
 30
0.0
 10
1.7392992125984252
 20
0.8304251968503937
 30
0.0
 10
1.6909094488188976
 20
0.6804173228346457
 30
0.0
 10
1.6909094488188976
 20
0.6804173228346457
 30
0.0
 10
1.6909094488188976
 20
0.6804173228346457
 30
0.0
 10
1.6909094488188976
 20
0.6804173228346457
 30
0.0
 10
1.6375629921259842
 20
0.5297125984251969
 30
0.0
 10
1.6375629921259842
 20
0.5297125984251969
 30
0.0
 10
1.6375629921259842
 20
0.5297125984251969
 30
0.0
 10
1.6375629921259842
 20
0.5297125984251969
 30
0.0
 10
1.5790472440944883
 20
0.3785944881889764
 30
0.0
 10
1.5790472440944883
 20
0.3785944881889764
 30
0.0
 10
1.5790472440944883
 20
0.3785944881889764
 30
0.0
 10
1.5790472440944883
 20
0.3785944881889764
 30
0.0
 10
1.5151929133858268
 20
0.2273779527559055
 30
0.0
 10
1.5151929133858268
 20
0.2273779527559055
 30
0.0
 10
1.5151929133858268
 20
0.2273779527559055
 30
0.0
 10
1.5151929133858268
 20
0.2273779527559055
 30
0.0
 10
1.4457913385826773
 20
0.0763543307086614
 30
0.0
 10
1.4457913385826773
 20
0.0763543307086614
 30
0.0
 10
1.4457913385826773
 20
0.0763543307086614
 30
0.0
 10
1.4457913385826773
 20
0.0763543307086614
 30
0.0
 10
1.3706614173228346
 20
-0.0741653543307087
 30
0.0
 10
1.3706614173228346
 20
-0.0741653543307087
 30
0.0
 10
1.3706614173228346
 20
-0.0741653543307087
 30
0.0
 10
1.3706614173228346
 20
-0.0741653543307087
 30
0.0
 10
1.2896023622047244
 20
-0.2238897637795276
 30
0.0
 10
1.2896023622047244
 20
-0.2238897637795276
 30
0.0
 10
1.2896023622047244
 20
-0.2238897637795276
 30
0.0
 10
1.2896023622047244
 20
-0.2238897637795276
 30
0.0
 10
1.2024291338582678
 20
-0.3725236220472441
 30
0.0
 10
1.2024291338582678
 20
-0.3725236220472441
 30
0.0
 10
1.2024291338582678
 20
-0.3725236220472441
 30
0.0
 10
1.2024291338582678
 20
-0.3725236220472441
 30
0.0
 10
1.1089448818897638
 20
-0.5197598425196851
 30
0.0
 10
1.1089448818897638
 20
-0.5197598425196851
 30
0.0
 10
1.1089448818897638
 20
-0.5197598425196851
 30
0.0
 10
1.1089448818897638
 20
-0.5197598425196851
 30
0.0
 10
1.008968503937008
 20
-0.6653070866141733
 30
0.0
 10
1.008968503937008
 20
-0.6653070866141733
 30
0.0
 10
1.008968503937008
 20
-0.6653070866141733
 30
0.0
 10
1.008968503937008
 20
-0.6653070866141733
 30
0.0
 10
0.9022874015748031
 20
-0.8088464566929134
 30
0.0
 10
0.9022874015748031
 20
-0.8088464566929134
 30
0.0
 10
0.9022874015748031
 20
-0.8088464566929134
 30
0.0
 10
0.9022874015748031
 20
-0.8088464566929134
 30
0.0
 10
0.7887244094488189
 20
-0.9500944881889765
 30
0.0
 10
0.7887244094488189
 20
-0.9500944881889765
 30
0.0
 10
0.7887244094488189
 20
-0.9500944881889765
 30
0.0
 10
0.7887244094488189
 20
-0.9500944881889765
 30
0.0
 10
0.6680866141732283
 20
-1.0887401574803151
 30
0.0
 10
0.6680866141732283
 20
-1.0887401574803151
 30
0.0
 10
0.6680866141732283
 20
-1.0887401574803151
 30
0.0
 10
0.6680866141732283
 20
-1.0887401574803151
 30
0.0
 10
0.5401850393700788
 20
-1.2245000000000001
 30
0.0
 10
0.5401850393700788
 20
-1.2245000000000001
 30
0.0
 10
0.5401850393700788
 20
-1.2245000000000001
 30
0.0
 10
0.5401850393700788
 20
-1.2245000000000001
 30
0.0
 10
0.4048110236220472
 20
-1.3570511811023622
 30
0.0
 10
0.4048110236220472
 20
-1.3570511811023622
 30
0.0
 10
0.4048110236220472
 20
-1.3570511811023622
 30
0.0
 10
0.4048110236220472
 20
-1.3570511811023622
 30
0.0
 10
0.2617952755905512
 20
-1.4861141732283465
 30
0.0
 10
0.2617952755905512
 20
-1.4861141732283465
 30
0.0
 10
0.2617952755905512
 20
-1.4861141732283465
 30
0.0
 10
0.2617952755905512
 20
-1.4861141732283465
 30
0.0
 10
0.1109330708661417
 20
-1.6113779527559056
 30
0.0
 10
0.1109330708661417
 20
-1.6113779527559056
 30
0.0
 10
0.1109330708661417
 20
-1.6113779527559056
 30
0.0
 10
0.1109330708661417
 20
-1.6113779527559056
 30
0.0
 10
-0.0479606299212598
 20
-1.7325472440944882
 30
0.0
 10
-0.0479606299212598
 20
-1.7325472440944882
 30
0.0
 10
-0.0479606299212598
 20
-1.7325472440944882
 30
0.0
 10
-0.0479606299212598
 20
-1.7325472440944882
 30
0.0
 10
-0.2150866141732284
 20
-1.8493110236220474
 30
0.0
 10
-0.2150866141732284
 20
-1.8493110236220474
 30
0.0
 10
-0.2150866141732284
 20
-1.8493110236220474
 30
0.0
 10
-0.2150866141732284
 20
-1.8493110236220474
 30
0.0
 10
-0.3906377952755906
 20
-1.9613818897637796
 30
0.0
 10
-0.3906377952755906
 20
-1.9613818897637796
 30
0.0
 10
-0.3906377952755906
 20
-1.9613818897637796
 30
0.0
 10
-0.3906377952755906
 20
-1.9613818897637796
 30
0.0
 10
-0.5747952755905512
 20
-2.0684527559055117
 30
0.0
 10
-0.5747952755905512
 20
-2.0684527559055117
 30
0.0
 10
-0.5747952755905512
 20
-2.0684527559055117
 30
0.0
 10
-0.5747952755905512
 20
-2.0684527559055117
 30
0.0
 10
-0.7677677165354331
 20
-2.1702322834645669
 30
0.0
 10
-0.7677677165354331
 20
-2.1702322834645669
 30
0.0
 10
-0.7677677165354331
 20
-2.1702322834645669
 30
0.0
 10
-0.7677677165354331
 20
-2.1702322834645669
 30
0.0
 10
-0.969732283464567
 20
-2.2664055118110236
 30
0.0
 10
-0.969732283464567
 20
-2.2664055118110236
 30
0.0
 10
-0.969732283464567
 20
-2.2664055118110236
 30
0.0
 10
-0.969732283464567
 20
-2.2664055118110236
 30
0.0
 10
-1.1808858267716535
 20
-2.3566850393700789
 30
0.0
 10
-1.1808858267716535
 20
-2.3566850393700789
 30
0.0
 10
-1.1808858267716535
 20
-2.3566850393700789
 30
0.0
 10
-1.1808858267716535
 20
-2.3566850393700789
 30
0.0
 10
-1.4014212598425198
 20
-2.440763779527559
 30
0.0
 10
-1.4014212598425198
 20
-2.440763779527559
 30
0.0
 10
-1.4014212598425198
 20
-2.440763779527559
 30
0.0
 10
-1.4014212598425198
 20
-2.440763779527559
 30
0.0
 10
-1.6315314960629921
 20
-2.5183543307086613
 30
0.0
 10
-1.6315314960629921
 20
-2.5183543307086613
 30
0.0
  0
SPLINE
  5
91
100
AcDbEntity
  8
Additional Graphics
370
     5
 62
     7
100
AcDbSpline
210
0.0
220
0.0
230
1.0
 70
     1
 71
     3
 72
    44
 73
    40
 74
     0
 42
0.0000000001
 43
0.0000000001
 40
0.0
 40
0.0
 40
0.0
 40
0.0
 40
0.1
 40
0.1
 40
0.1
 40
0.1
 40
0.2
 40
0.2
 40
0.2
 40
0.2
 40
0.3
 40
0.3
 40
0.3
 40
0.3
 40
0.4
 40
0.4
 40
0.4
 40
0.4
 40
0.5
 40
0.5
 40
0.5
 40
0.5
 40
0.6
 40
0.6
 40
0.6
 40
0.6
 40
0.7
 40
0.7
 40
0.7
 40
0.7
 40
0.7999999999999999
 40
0.7999999999999999
 40
0.7999999999999999
 40
0.7999999999999999
 40
0.8999999999999999
 40
0.8999999999999999
 40
0.8999999999999999
 40
0.8999999999999999
 40
1.0
 40
1.0
 40
1.0
 40
1.0
 10
1.2654370078740158
 20
1.689716535433071
 30
0.0
 10
1.2654370078740158
 20
1.689716535433071
 30
0.0
 10
-2.7698031496062994
 20
-2.4631653543307088
 30
0.0
 10
-2.7698031496062994
 20
-2.4631653543307088
 30
0.0
 10
-2.7698031496062994
 20
-2.4631653543307088
 30
0.0
 10
-2.7698031496062994
 20
-2.4631653543307088
 30
0.0
 10
-2.7638188976377953
 20
-2.8795984251968507
 30
0.0
 10
-2.7638188976377953
 20
-2.8795984251968507
 30
0.0
 10
-2.7638188976377953
 20
-2.8795984251968507
 30
0.0
 10
-2.7638188976377953
 20
-2.8795984251968507
 30
0.0
 10
-2.2592362204724412
 20
-2.8424409448818899
 30
0.0
 10
-2.2592362204724412
 20
-2.8424409448818899
 30
0.0
 10
-2.2592362204724412
 20
-2.8424409448818899
 30
0.0
 10
-2.2592362204724412
 20
-2.8424409448818899
 30
0.0
 10
-2.2418385826771656
 20
-3.0918307086614174
 30
0.0
 10
-2.2418385826771656
 20
-3.0918307086614174
 30
0.0
 10
-2.2418385826771656
 20
-3.0918307086614174
 30
0.0
 10
-2.2418385826771656
 20
-3.0918307086614174
 30
0.0
 10
-1.7420551181102364
 20
-3.0579251968503938
 30
0.0
 10
-1.7420551181102364
 20
-3.0579251968503938
 30
0.0
 10
-1.7420551181102364
 20
-3.0579251968503938
 30
0.0
 10
-1.6809960629921261
 20
-3.0546102362204723
 30
0.0
 10
-1.62096062992126
 20
-3.0292125984251967
 30
0.0
 10
-1.574996062992126
 20
-2.981909448818898
 30
0.0
 10
-1.574996062992126
 20
-2.981909448818898
 30
0.0
 10
-1.4939173228346456
 20
-2.8984685039370079
 30
0.0
 10
-1.4822204724409449
 20
-2.7732440944881889
 30
0.0
 10
-1.5388661417322835
 20
-2.677744094488189
 30
0.0
 10
-1.5388661417322835
 20
-2.677744094488189
 30
0.0
 10
-1.5388661417322835
 20
-2.677744094488189
 30
0.0
 10
-1.6315314960629921
 20
-2.5183543307086613
 30
0.0
 10
-1.6315314960629921
 20
-2.5183543307086613
 30
0.0
 10
-1.6315314960629921
 20
-2.5183543307086613
 30
0.0
 10
0.8746732283464568
 20
-1.7265275590551181
 30
0.0
 10
1.7143937007874017
 20
0.2255236220472441
 30
0.0
 10
1.9361141732283464
 20
1.6988818897637796
 30
0.0
 10
1.9361141732283464
 20
1.6988818897637796
 30
0.0
 10
1.9361141732283464
 20
1.6988818897637796
 30
0.0
 10
1.2654370078740158
 20
1.689716535433071
 30
0.0
 10
1.2654370078740158
 20
1.689716535433071
 30
0.0
  0
TEXT
  5
92
100
AcDbEntity
  8
Additional Graphics
100
AcDbText
 10
-0.420949
 20
-3.25461
 30
0.0
 40
0.119999
  1
BA 1524
 51
-0.000002
  7
Bookman Old Style
100
AcDbText
  0
TEXT
  5
93
100
AcDbEntity
  8
Additional Graphics
100
AcDbText
 10
-0.764295
 20
-3.44211
 30
0.0
 40
0.119999
  1
1-1/2\u+201d x 6-9/16\u+201d
 51
-0.000002
  7
Bookman Old Style
100
AcDbText
  0
TEXT
  5
94
100
AcDbEntity
  8
Additional Graphics
100
AcDbText
 10
-3.226283
 20
2.592205
 30
0.0
 40
0.119999
  1
BA 40B Side
 51
-0.000002
  7
Bookman Old Style
100
AcDbText
  0
TEXT
  5
95
100
AcDbEntity
  8
Additional Graphics
100
AcDbText
 10
2.179016
 20
2.473118
 30
0.0
 40
0.119999
  1
BA  1524B Side
 51
-0.000002
  7
Bookman Old Style
100
AcDbText
  0
ENDSEC
  0
SECTION
  2
OBJECTS
  0
DICTIONARY
  5
19
100
AcDbDictionary
280
     0
281
     1
  3
ACAD_GROUP
350
1A
  3
ACAD_MLINESTYLE
350
1B
  3
ACAD_LAYOUT
350
1E
  3
ACAD_PLOTSETTINGS
350
22
  3
ACAD_PLOTSTYLENAME
350
1F
  3
ACAD_WIPEOUT_VARS
350
23
  0
DICTIONARY
  5
1A
102
{ACAD_REACTORS
330
19
102
}
100
AcDbDictionary
280
     0
281
     1
  0
DICTIONARY
  5
1B
102
{ACAD_REACTORS
330
19
102
}
100
AcDbDictionary
280
     0
281
     1
  3
Standard
350
1C
  0
MLINESTYLE
  5
1C
102
{ACAD_REACTORS
330
1B
102
}
100
AcDbMlineStyle
  2
Standard
 70
     0
  3

 62
     0
 51
90.0
 52
90.0
 71
     2
 49
0.5
 62
   256
  6
BYLAYER
 49
-0.5
 62
   256
  6
BYLAYER
  0
ACDBDICTIONARYWDFLT
  5
1F
102
{ACAD_REACTORS
330
19
102
}
100
AcDbDictionary
281
     1
  3
Normal
350
1D
100
AcDbDictionaryWithDefault
340
1D
  0
ACDBPLACEHOLDER
  5
1D
102
{ACAD_REACTORS
330
1F
102
}
  0
LAYOUT
  5
20
102
{ACAD_REACTORS
330
1E
102
}
100
AcDbPlotSettings
  1

  2

  4

  6

 40
0.0
 41
0.0
 42
0.0
 43
0.0
 44
0.0
 45
0.0
 46
0.0
 47
0.0
 48
0.0
 49
0.0
140
0.0
141
0.0
142
1.0
143
1.0
 70
  1024
 72
     0
 73
     0
 74
     0
  7

 75
     0
147
1.0
148
0.0
149
0.0
100
AcDbLayout
  1
Model
 70
     0
 71
     0
 10
0.0
 20
0.0
 11
0.0
 21
0.0
 12
0.0
 22
0.0
 32
0.0
 14
0.0
 24
0.0
 34
0.0
 15
0.0
 25
0.0
 35
0.0
146
0.0
 13
0.0
 23
0.0
 33
0.0
 16
0.0
 26
0.0
 36
0.0
 17
0.0
 27
0.0
 37
0.0
 76
     0
330
A
331
0
345
0
346
0
  0
LAYOUT
  5
21
102
{ACAD_REACTORS
330
1E
102
}
100
AcDbPlotSettings
  1

  2

  4

  6

 40
0.0
 41
0.0
 42
0.0
 43
0.0
 44
0.0
 45
0.0
 46
0.0
 47
0.0
 48
0.0
 49
0.0
140
0.0
141
0.0
142
1.0
143
1.0
 70
     0
 72
     0
 73
     0
 74
     0
  7

 75
     0
147
1.0
148
0.0
149
0.0
100
AcDbLayout
  1
Layout1
 70
     0
 71
     0
 10
0.0
 20
0.0
 11
0.0
 21
0.0
 12
0.0
 22
0.0
 32
0.0
 14
0.0
 24
0.0
 34
0.0
 15
0.0
 25
0.0
 35
0.0
146
0.0
 13
0.0
 23
0.0
 33
0.0
 16
0.0
 26
0.0
 36
0.0
 17
0.0
 27
0.0
 37
0.0
 76
     0
330
B
331
0
345
0
346
0
  0
DICTIONARY
  5
1E
102
{ACAD_REACTORS
330
19
102
}
100
AcDbDictionary
280
     0
281
     1
  3
Layout1
350
21
  3
Model
350
20
  0
DICTIONARY
  5
22
102
{ACAD_REACTORS
330
19
102
}
100
AcDbDictionary
280
     0
281
     1
  0
WIPEOUTVARIABLES
  5
23
100
AcDbWipeoutVariables
 70
     1
  0
ENDSEC
  0
EOF
