  0
SECTION
  2
HEADER
  9
$ACADVER
  1
AC1015
  9
$ACADMAINTVER
 70
     6
  9
$DWGCODEPAGE
  3
DOS850
  9
$INSBASE
 10
0.0
 20
0.0
 30
0.0
  9
$EXTMIN
 10
-1.471106
 20
-1.204185
 30
1.000000E+20
  9
$EXTMAX
 10
1.638657
 20
1.808764
 30
-1.000000E+20
  9
$LIMMIN
 10
0.0
 20
0.0
  9
$LIMMAX
 10
0.0
 20
0.0
  9
$ORTHOMODE
 70
     0
  9
$REGENMODE
 70
     1
  9
$FILLMODE
 70
     1
  9
$QTEXTMODE
 70
     0
  9
$MIRRTEXT
 70
     1
  9
$LTSCALE
 40
1.0
  9
$ATTMODE
 70
     1
  9
$TEXTSIZE
 40
0.2
  9
$TRACEWID
 40
0.05
  9
$TEXTSTYLE
  7
Standard
  9
$CLAYER
  8
0
  9
$CELTYPE
  6
Continuous
  9
$CECOLOR
 62
   256
  9
$CELTSCALE
 40
1.0
  9
$DISPSILH
 70
     0
  9
$DIMSCALE
 40
1.0
  9
$DIMASZ
 40
0.18
  9
$DIMEXO
 40
0.0625
  9
$DIMDLI
 40
0.38
  9
$DIMRND
 40
0.0
  9
$DIMDLE
 40
0.0
  9
$DIMEXE
 40
0.18
  9
$DIMTP
 40
0.0
  9
$DIMTM
 40
0.0
  9
$DIMTXT
 40
0.18
  9
$DIMCEN
 40
0.09
  9
$DIMTSZ
 40
0.0
  9
$DIMTOL
 70
     0
  9
$DIMLIM
 70
     0
  9
$DIMTIH
 70
     1
  9
$DIMTOH
 70
     1
  9
$DIMSE1
 70
     0
  9
$DIMSE2
 70
     0
  9
$DIMTAD
 70
     0
  9
$DIMZIN
 70
     0
  9
$DIMBLK
  1

  9
$DIMASO
 70
     1
  9
$DIMSHO
 70
     1
  9
$DIMPOST
  1

  9
$DIMAPOST
  1

  9
$DIMALT
 70
     0
  9
$DIMALTD
 70
     2
  9
$DIMALTF
 40
25.4
  9
$DIMLFAC
 40
1.0
  9
$DIMTOFL
 70
     0
  9
$DIMTVP
 40
0.0
  9
$DIMTIX
 70
     0
  9
$DIMSOXD
 70
     0
  9
$DIMSAH
 70
     0
  9
$DIMBLK1
  1

  9
$DIMBLK2
  1

  9
$DIMSTYLE
  2
Standard
  9
$DIMCLRD
 70
     0
  9
$DIMCLRE
 70
     0
  9
$DIMCLRT
 70
     0
  9
$DIMTFAC
 40
1.0
  9
$DIMGAP
 40
0.09
  9
$DIMJUST
 70
     0
  9
$DIMSD1
 70
     0
  9
$DIMSD2
 70
     0
  9
$DIMTOLJ
 70
     1
  9
$DIMTZIN
 70
     0
  9
$DIMALTZ
 70
     0
  9
$DIMALTTZ
 70
     0
  9
$DIMUPT
 70
     0
  9
$DIMDEC
 70
     4
  9
$DIMTDEC
 70
     4
  9
$DIMALTU
 70
     2
  9
$DIMALTTD
 70
     2
  9
$DIMTXSTY
  7
Standard
  9
$DIMAUNIT
 70
     0
  9
$DIMADEC
 70
     0
  9
$DIMALTRND
 40
0.0
  9
$DIMAZIN
 70
     0
  9
$DIMDSEP
 70
     0
  9
$DIMATFIT
 70
     3
  9
$DIMFRAC
 70
     0
  9
$DIMLDRBLK
  1

  9
$DIMLUNIT
 70
     2
  9
$DIMLWD
 70
     0
  9
$DIMLWE
 70
     0
  9
$DIMTMOVE
 70
     0
  9
$LUNITS
 70
     2
  9
$LUPREC
 70
     4
  9
$SKETCHINC
 40
0.1
  9
$FILLETRAD
 40
0.0
  9
$AUNITS
 70
     0
  9
$AUPREC
 70
     0
  9
$MENU
  1
acad
  9
$ELEVATION
 40
0.0
  9
$PELEVATION
 40
0.0
  9
$THICKNESS
 40
0.0
  9
$LIMCHECK
 70
     0
  9
$CHAMFERA
 40
0.0
  9
$CHAMFERB
 40
0.0
  9
$CHAMFERC
 40
0.0
  9
$CHAMFERD
 40
0.0
  9
$SKPOLY
 70
     0
  9
$TDCREATE
 40
0.000000000
  9
$TDUCREATE
 40
0.000000000
  9
$TDUPDATE
 40
0.000000000
  9
$TDUUPDATE
 40
0.000000000
  9
$TDINDWG
 40
0.0000000000
  9
$TDUSRTIMER
 40
0.0000000000
  9
$USRTIMER
 70
     1
  9
$ANGBASE
 50
0.0
  9
$ANGDIR
 70
     0
  9
$PDMODE
 70
     0
  9
$PDSIZE
 40
0.0
  9
$PLINEWID
 40
0.0
  9
$SPLFRAME
 70
     0
  9
$SPLINETYPE
 70
     6
  9
$SPLINESEGS
 70
     8
  9
$HANDSEED
  5
8E
  9
$SURFTAB1
 70
     6
  9
$SURFTAB2
 70
     6
  9
$SURFTYPE
 70
     6
  9
$SURFU
 70
     6
  9
$SURFV
 70
     6
  9
$UCSBASE
  2

  9
$UCSNAME
  2

  9
$UCSORG
 10
0.0
 20
0.0
 30
0.0
  9
$UCSXDIR
 10
1.0
 20
0.0
 30
0.0
  9
$UCSYDIR
 10
0.0
 20
1.0
 30
0.0
  9
$UCSORTHOREF
  2

  9
$UCSORTHOVIEW
 70
     0
  9
$UCSORGTOP
 10
0.0
 20
0.0
 30
0.0
  9
$UCSORGBOTTOM
 10
0.0
 20
0.0
 30
0.0
  9
$UCSORGLEFT
 10
0.0
 20
0.0
 30
0.0
  9
$UCSORGRIGHT
 10
0.0
 20
0.0
 30
0.0
  9
$UCSORGFRONT
 10
0.0
 20
0.0
 30
0.0
  9
$UCSORGBACK
 10
0.0
 20
0.0
 30
0.0
  9
$PUCSBASE
  2

  9
$PUCSNAME
  2

  9
$PUCSORG
 10
0.0
 20
0.0
 30
0.0
  9
$PUCSXDIR
 10
1.0
 20
0.0
 30
0.0
  9
$PUCSYDIR
 10
0.0
 20
1.0
 30
0.0
  9
$PUCSORTHOREF
  2

  9
$PUCSORTHOVIEW
 70
     0
  9
$PUCSORGTOP
 10
0.0
 20
0.0
 30
0.0
  9
$PUCSORGBOTTOM
 10
0.0
 20
0.0
 30
0.0
  9
$PUCSORGLEFT
 10
0.0
 20
0.0
 30
0.0
  9
$PUCSORGRIGHT
 10
0.0
 20
0.0
 30
0.0
  9
$PUCSORGFRONT
 10
0.0
 20
0.0
 30
0.0
  9
$PUCSORGBACK
 10
0.0
 20
0.0
 30
0.0
  9
$USERI1
 70
     0
  9
$USERI2
 70
     0
  9
$USERI3
 70
     0
  9
$USERI4
 70
     0
  9
$USERI5
 70
     0
  9
$USERR1
 40
0.0
  9
$USERR2
 40
0.0
  9
$USERR3
 40
0.0
  9
$USERR4
 40
0.0
  9
$USERR5
 40
0.0
  9
$WORLDVIEW
 70
     1
  9
$SHADEDGE
 70
     3
  9
$SHADEDIF
 70
    70
  9
$TILEMODE
 70
     1
  9
$MAXACTVP
 70
    16
  9
$PINSBASE
 10
0.0
 20
0.0
 30
0.0
  9
$PLIMCHECK
 70
     0
  9
$PEXTMIN
 10
1.000000E+20
 20
1.000000E+20
 30
1.000000E+20
  9
$PEXTMAX
 10
-1.000000E+20
 20
-1.000000E+20
 30
-1.000000E+20
  9
$PLIMMIN
 10
0.0
 20
0.0
  9
$PLIMMAX
 10
12.0
 20
9.0
  9
$UNITMODE
 70
     0
  9
$VISRETAIN
 70
     0
  9
$PLINEGEN
 70
     1
  9
$PSLTSCALE
 70
     0
  9
$TREEDEPTH
 70
  3020
  9
$CMLSTYLE
  2
Standard
  9
$CMLJUST
 70
     0
  9
$CMLSCALE
 40
1.0
  9
$PROXYGRAPHICS
 70
     0
  9
$MEASUREMENT
 70
     0
  9
$CELWEIGHT
370
     0
  9
$ENDCAPS
280
     0
  9
$JOINSTYLE
280
     0
  9
$LWDISPLAY
290
     0
  9
$INSUNITS
 70
     1
  9
$HYPERLINKBASE
  1

  9
$XEDIT
290
     1
  9
$CEPSNTYPE
380
     0
  9
$PSTYLEMODE
290
     1
  9
$FINGERPRINTGUID
  2

  9
$VERSIONGUID
  2

  9
$EXTNAMES
290
     1
  9
$PSVPSCALE
 40
0.0
  0
ENDSEC
  0
SECTION
  2
CLASSES
  0
CLASS
  1
LWPOLYLINE
  2
AcDbPolyline
  3
AutoCAD 2000
 90
    32768
280
     0
281
     1
  0
CLASS
  1
IMAGE
  2
AcDbRasterImage
  3
ISM
 90
    32895
280
     0
281
     1
  0
CLASS
  1
OLE2FRAME
  2
AcDbOle2Frame
  3
AutoCAD 2000
 90
    32768
280
     0
281
     1
  0
CLASS
  1
HATCH
  2
AcDbHatch
  3
AutoCAD 2000
 90
    32768
280
     0
281
     1
  0
CLASS
  1
DICTIONARYVAR
  2
AcDbDictionaryVar
  3
AutoCAD 2000
 90
    32768
280
     0
281
     0
  0
CLASS
  1
RASTERVARIABLES
  2
AcDbRasterVariables
  3
ISM
 90
    32768
280
     0
281
     0
  0
CLASS
  1
IMAGEDEF
  2
AcDbRasterImageDef
  3
ISM
 90
    32768
280
     0
281
     0
  0
CLASS
  1
IMAGEDEF_REACTOR
  2
AcDbRasterImageDefReactor
  3
ISM
 90
    32769
280
     0
281
     0
  0
CLASS
  1
IDBUFFER
  2
AcDbIdBuffer
  3
AutoCAD 2000
 90
    32768
280
     0
281
     0
  0
CLASS
  1
SPATIAL_FILTER
  2
AcDbSpatialFilter
  3
AutoCAD 2000
 90
    32768
280
     0
281
     0
  0
CLASS
  1
XRECORD
  2
AcDbXrecord
  3
AutoCAD 2000
 90
    32768
280
     0
281
     0
  0
CLASS
  1
SORTENTSTABLE
  2
AcDbSortentsTable
  3
AutoCAD 2000
 90
    32768
280
     0
281
     0
  0
CLASS
  1
LAYER_INDEX
  2
AcDbLayerIndex
  3
AutoCAD 2000
 90
    32768
280
     0
281
     0
  0
CLASS
  1
SPATIAL_INDEX
  2
AcDbSpatialIndex
  3
AutoCAD 2000
 90
    32768
280
     0
281
     0
  0
CLASS
  1
OBJECT_PTR
  2
CAseDLPNTableRecord
  3
"ASE-LPNTableRecord"
 90
    32769
280
     0
281
     0
  0
CLASS
  1
LAYOUT
  2
AcDbLayout
  3
AutoCAD 2000
 90
        0
280
     0
281
     0
  0
CLASS
  1
PLOTSETTINGS
  2
AcDbPlotSettings
  3
AutoCAD 2000
 90
    32768
280
     0
281
     0
  0
CLASS
  1
ACDBDICTIONARYWDFLT
  2
AcDbDictionaryWithDefault
  3
AutoCAD 2000
 90
        0
280
     0
281
     0
  0
CLASS
  1
ACDBPLACEHOLDER
  2
AcDbPlaceHolder
  3
AutoCAD 2000
 90
        0
280
     0
281
     0
  0
CLASS
  1
VBA_PROJECT
  2
AcDbVbaProject
  3
acadvba
 90
    32768
280
     0
281
     0
  0
CLASS
  1
WIPEOUT
  2
AcDbWipeout
  3
WipeOut|AutoCAD Express Tool|expresstools@autodesk.com
 90
    32895
280
     0
281
     1
  0
CLASS
  1
WIPEOUTVARIABLES
  2
AcDbWipeoutVariables
  3
WipeOut|AutoCAD Express Tool|expresstools@autodesk.com
 90
        0
280
     0
281
     0
  0
CLASS
  1
RTEXT
  2
RText
  3
RText|AutoCAD Express Tool|expresstools@autodesk.com
 90
    32768
280
     0
281
     1
  0
CLASS
  1
ARCALIGNEDTEXT
  2
AcDbArcAlignedText
  3
ATEXT|AutoCAD Express Tool|expresstools@autodesk.com
 90
    32768
280
     0
281
     1
  0
ENDSEC
  0
SECTION
  2
TABLES
  0
TABLE
  2
VPORT
  5
7
100
AcDbSymbolTable
 70
     1
  0
VPORT
  5
15
100
AcDbSymbolTableRecord
100
AcDbViewportTableRecord
  2
*ACTIVE
 70
     0
 10
0.0
 20
0.0
 11
1.0
 21
1.0
 12
6.591288
 22
4.579184
 13
0.0
 23
0.0
 14
1.0
 24
1.0
 15
0.0
 25
0.0
 16
0.0
 26
0.0
 36
1.0
 17
0.0
 27
0.0
 37
0.0
 40
9.158369
 41
0.688564
 42
50.0
 43
0.0
 44
0.0
 50
0.0
 51
0.0
 71
     0
 72
   100
 73
     1
 74
     1
 75
     0
 76
     0
 77
     0
 78
     0
281
     0
 65
     0
110
0.0
120
0.0
130
0.0
111
1.0
121
0.0
131
0.0
112
0.0
122
1.0
132
0.0
345
0
346
0
 79
     0
146
0.0
  0
ENDTAB
  0
TABLE
  2
LTYPE
  5
4
100
AcDbSymbolTable
 70
     3
  0
LTYPE
  5
11
100
AcDbSymbolTableRecord
100
AcDbLinetypeTableRecord
  2
ByBlock
 70
    64
  3

 72
    65
 73
     0
 40
0.0
  0
LTYPE
  5
12
100
AcDbSymbolTableRecord
100
AcDbLinetypeTableRecord
  2
ByLayer
 70
    64
  3

 72
    65
 73
     0
 40
0.0
  0
LTYPE
  5
13
100
AcDbSymbolTableRecord
100
AcDbLinetypeTableRecord
  2
Continuous
 70
    64
  3
Solid line
 72
    65
 73
     0
 40
0.0
  0
ENDTAB
  0
TABLE
  2
LAYER
  5
2
100
AcDbSymbolTable
 70
     2
  0
LAYER
  5
14
100
AcDbSymbolTableRecord
100
AcDbLayerTableRecord
  2
0
 70
     0
 62
     7
  6
Continuous
290
     1
370
    -3
390
1D
  0
LAYER
  5
24
100
AcDbSymbolTableRecord
100
AcDbLayerTableRecord
  2
Layer 1
 70
     0
 62
     7
  6
Continuous
290
     1
370
    -3
390
1F
  0
ENDTAB
  0
TABLE
  2
STYLE
  5
3
100
AcDbSymbolTable
 70
     2
  0
STYLE
  5
17
100
AcDbSymbolTableRecord
100
AcDbTextStyleTableRecord
  2
Standard
 70
     0
 40
0.0
 41
1.0
 50
0.0
 71
     0
 42
0.0
  3
txt
  4

  0
STYLE
  5
26
100
AcDbSymbolTableRecord
100
AcDbTextStyleTableRecord
  2
Bookman Old Style
 70
     0
 40
1.0
 41
1.0
 50
0.0
 71
     0
 42
1.0
  3
Bookman Old Style
  4

  0
ENDTAB
  0
TABLE
  2
VIEW
  5
5
100
AcDbSymbolTable
 70
     0
  0
ENDTAB
  0
TABLE
  2
UCS
  5
6
100
AcDbSymbolTable
 70
     0
  0
ENDTAB
  0
TABLE
  2
APPID
  5
8
100
AcDbSymbolTable
 70
     1
  0
APPID
  5
16
100
AcDbSymbolTableRecord
100
AcDbRegAppTableRecord
  2
ACAD
 70
     0
  0
ENDTAB
  0
TABLE
  2
DIMSTYLE
  5
9
100
AcDbSymbolTable
 70
     1
100
AcDbDimStyleTable
 71
     0
  0
DIMSTYLE
105
18
100
AcDbSymbolTableRecord
100
AcDbDimStyleTableRecord
  2
Standard
 70
     0
  3

  4

 40
1.0
 41
0.18
 42
0.0625
 43
0.38
 44
0.18
 45
0.0
 46
0.0
 47
0.0
 48
0.0
 71
     0
 72
     0
 73
     1
 74
     1
 75
     0
 76
     0
 77
     0
 78
     0
 79
     0
140
0.18
141
0.09
142
0.0
143
25.4
144
1.0
145
0.0
146
1.0
147
0.09
148
0.0
170
     0
171
     2
172
     0
173
     0
174
     0
175
     0
176
     0
177
     0
178
     0
179
     0
271
     4
272
     4
273
     2
274
     2
275
     0
276
     0
277
     2
278
    46
279
     0
280
     0
281
     0
282
     0
283
     1
284
     0
285
     0
286
     0
288
     0
340
17
341
0
342
0
343
0
344
0
371
    -2
372
    -2
  0
ENDTAB
  0
TABLE
  2
BLOCK_RECORD
  5
1
100
AcDbSymbolTable
 70
     0
  0
BLOCK_RECORD
  5
A
100
AcDbSymbolTableRecord
100
AcDbBlockTableRecord
  2
*MODEL_SPACE
340
20
  0
BLOCK_RECORD
  5
B
100
AcDbSymbolTableRecord
100
AcDbBlockTableRecord
  2
*PAPER_SPACE
340
21
  0
ENDTAB
  0
ENDSEC
  0
SECTION
  2
BLOCKS
  0
BLOCK
  5
D
100
AcDbEntity
  8
0
100
AcDbBlockBegin
  2
*MODEL_SPACE
 70
     0
 10
0.0
 20
0.0
 30
0.0
  3
*MODEL_SPACE
  1

  0
ENDBLK
  5
E
100
AcDbEntity
  8
0
100
AcDbBlockEnd
  0
BLOCK
  5
F
100
AcDbEntity
 67
     1
  8
0
100
AcDbBlockBegin
  2
*PAPER_SPACE
 70
     0
 10
0.0
 20
0.0
 30
0.0
  3
*PAPER_SPACE
  1

  0
ENDBLK
  5
10
100
AcDbEntity
 67
     1
  8
0
100
AcDbBlockEnd
  0
ENDSEC
  0
SECTION
  2
ENTITIES
  0
SPLINE
  5
25
100
AcDbEntity
  8
Layer 1
370
     5
100
AcDbSpline
210
0.0
220
0.0
230
1.0
 70
     1
 71
     3
 72
    32
 73
    28
 74
     0
 42
0.0000000001
 43
0.0000000001
 40
0.0
 40
0.0
 40
0.0
 40
0.0
 40
0.1428571428571429
 40
0.1428571428571429
 40
0.1428571428571429
 40
0.1428571428571429
 40
0.2857142857142857
 40
0.2857142857142857
 40
0.2857142857142857
 40
0.2857142857142857
 40
0.4285714285714286
 40
0.4285714285714286
 40
0.4285714285714286
 40
0.4285714285714286
 40
0.5714285714285714
 40
0.5714285714285714
 40
0.5714285714285714
 40
0.5714285714285714
 40
0.7142857142857142
 40
0.7142857142857142
 40
0.7142857142857142
 40
0.7142857142857142
 40
0.857142857142857
 40
0.857142857142857
 40
0.857142857142857
 40
0.857142857142857
 40
1.0
 40
1.0
 40
1.0
 40
1.0
 10
-1.1781929133858269
 20
1.0498267716535434
 30
0.0
 10
-1.1781929133858269
 20
1.445972440944882
 30
0.0
 10
-0.6409488188976378
 20
1.0720787401574803
 30
0.0
 10
-0.5994803149606299
 20
1.8072165354330709
 30
0.0
 10
-0.5994803149606299
 20
1.8072165354330709
 30
0.0
 10
-0.5994803149606299
 20
1.8072165354330709
 30
0.0
 10
-0.0652086614173228
 20
1.7879330708661418
 30
0.0
 10
-0.0652086614173228
 20
1.7879330708661418
 30
0.0
 10
-0.0652086614173228
 20
1.7879330708661418
 30
0.0
 10
0.1632047244094488
 20
1.4038622047244096
 30
0.0
 10
0.7214055118110236
 20
1.7214960629921261
 30
0.0
 10
0.870224409448819
 20
1.3308464566929135
 30
0.0
 10
0.870224409448819
 20
1.3308464566929135
 30
0.0
 10
0.870224409448819
 20
1.3308464566929135
 30
0.0
 10
1.2741968503937009
 20
1.3308464566929135
 30
0.0
 10
1.2741968503937009
 20
1.3308464566929135
 30
0.0
 10
1.2741968503937009
 20
1.3308464566929135
 30
0.0
 10
1.2741968503937009
 20
1.3308464566929135
 30
0.0
 10
1.2741968503937009
 20
1.031212598425197
 30
0.0
 10
1.2741968503937009
 20
1.031212598425197
 30
0.0
 10
1.2741968503937009
 20
1.031212598425197
 30
0.0
 10
1.2741968503937009
 20
1.031212598425197
 30
0.0
 10
-1.1777992125984253
 20
1.031212598425197
 30
0.0
 10
-1.1777992125984253
 20
1.031212598425197
 30
0.0
 10
-1.1777992125984253
 20
1.031212598425197
 30
0.0
 10
-1.1777992125984253
 20
1.031212598425197
 30
0.0
 10
-1.1781929133858269
 20
1.0498267716535434
 30
0.0
 10
-1.1781929133858269
 20
1.0498267716535434
 30
0.0
  0
TEXT
  5
27
100
AcDbEntity
  8
Layer 1
100
AcDbText
 10
-0.390461
 20
0.728106
 30
0.0
 40
0.119999
  1
BA  1521
 51
-0.000002
  7
Bookman Old Style
100
AcDbText
  0
TEXT
  5
28
100
AcDbEntity
  8
Layer 1
100
AcDbText
 10
-0.622154
 20
0.540606
 30
0.0
 40
0.119999
  1
3/4\u+201d x 2-7/16\u+201d
 51
-0.000002
  7
Bookman Old Style
100
AcDbText
  0
SPLINE
  5
29
100
AcDbEntity
  8
Layer 1
100
AcDbSpline
210
0.0
220
0.0
230
1.0
 70
     1
 71
     3
 72
    28
 73
    24
 74
     0
 42
0.0000000001
 43
0.0000000001
 40
0.0
 40
0.0
 40
0.0
 40
0.0
 40
0.1666666666666667
 40
0.1666666666666667
 40
0.1666666666666667
 40
0.1666666666666667
 40
0.3333333333333333
 40
0.3333333333333333
 40
0.3333333333333333
 40
0.3333333333333333
 40
0.5
 40
0.5
 40
0.5
 40
0.5
 40
0.6666666666666666
 40
0.6666666666666666
 40
0.6666666666666666
 40
0.6666666666666666
 40
0.8333333333333333
 40
0.8333333333333333
 40
0.8333333333333333
 40
0.8333333333333333
 40
1.0
 40
1.0
 40
1.0
 40
1.0
 10
-1.3650905511811025
 20
-0.5636062992125984
 30
0.0
 10
-1.3650905511811025
 20
-0.5636062992125984
 30
0.0
 10
-0.7107165354330709
 20
-0.201748031496063
 30
0.0
 10
-0.7107165354330709
 20
-0.201748031496063
 30
0.0
 10
-0.7107165354330709
 20
-0.201748031496063
 30
0.0
 10
-0.7107165354330709
 20
-0.201748031496063
 30
0.0
 10
-0.6893582677165354
 20
-0.1919330708661418
 30
0.0
 10
-0.6893582677165354
 20
-0.1919330708661418
 30
0.0
 10
-0.6893582677165354
 20
-0.1919330708661418
 30
0.0
 10
-0.6893582677165354
 20
-0.1919330708661418
 30
0.0
 10
-0.666736220472441
 20
-0.1831850393700787
 30
0.0
 10
-0.666736220472441
 20
-0.1831850393700787
 30
0.0
 10
-0.666736220472441
 20
-0.1831850393700787
 30
0.0
 10
-0.666736220472441
 20
-0.1831850393700787
 30
0.0
 10
-1.3211102362204725
 20
-0.5450433070866142
 30
0.0
 10
-1.3211102362204725
 20
-0.5450433070866142
 30
0.0
 10
-1.3211102362204725
 20
-0.5450433070866142
 30
0.0
 10
-1.3211102362204725
 20
-0.5450433070866142
 30
0.0
 10
-1.3437322834645671
 20
-0.5537913385826772
 30
0.0
 10
-1.3437322834645671
 20
-0.5537913385826772
 30
0.0
 10
-1.3437322834645671
 20
-0.5537913385826772
 30
0.0
 10
-1.3437322834645671
 20
-0.5537913385826772
 30
0.0
 10
-1.3650905511811025
 20
-0.5636062992125984
 30
0.0
 10
-1.3650905511811025
 20
-0.5636062992125984
 30
0.0
  0
SPLINE
  5
2A
100
AcDbEntity
  8
Layer 1
 62
   118
100
AcDbSpline
210
0.0
220
0.0
230
1.0
 70
     1
 71
     3
 72
    20
 73
    16
 74
     0
 42
0.0000000001
 43
0.0000000001
 40
0.0
 40
0.0
 40
0.0
 40
0.0
 40
0.25
 40
0.25
 40
0.25
 40
0.25
 40
0.5
 40
0.5
 40
0.5
 40
0.5
 40
0.75
 40
0.75
 40
0.75
 40
0.75
 40
1.0
 40
1.0
 40
1.0
 40
1.0
 10
-1.3211102362204725
 20
-0.5450433070866142
 30
0.0
 10
-1.3211102362204725
 20
-0.5450433070866142
 30
0.0
 10
-0.666736220472441
 20
-0.1831850393700787
 30
0.0
 10
-0.666736220472441
 20
-0.1831850393700787
 30
0.0
 10
-0.666736220472441
 20
-0.1831850393700787
 30
0.0
 10
-0.666736220472441
 20
-0.1831850393700787
 30
0.0
 10
-0.6430551181102362
 20
-0.1751732283464567
 30
0.0
 10
-0.6430551181102362
 20
-0.1751732283464567
 30
0.0
 10
-0.6430551181102362
 20
-0.1751732283464567
 30
0.0
 10
-0.6430551181102362
 20
-0.1751732283464567
 30
0.0
 10
-1.2974291338582677
 20
-0.5370314960629922
 30
0.0
 10
-1.2974291338582677
 20
-0.5370314960629922
 30
0.0
 10
-1.2974291338582677
 20
-0.5370314960629922
 30
0.0
 10
-1.2974291338582677
 20
-0.5370314960629922
 30
0.0
 10
-1.3211102362204725
 20
-0.5450433070866142
 30
0.0
 10
-1.3211102362204725
 20
-0.5450433070866142
 30
0.0
  0
SPLINE
  5
2B
100
AcDbEntity
  8
Layer 1
 62
   118
100
AcDbSpline
210
0.0
220
0.0
230
1.0
 70
     1
 71
     3
 72
    20
 73
    16
 74
     0
 42
0.0000000001
 43
0.0000000001
 40
0.0
 40
0.0
 40
0.0
 40
0.0
 40
0.25
 40
0.25
 40
0.25
 40
0.25
 40
0.5
 40
0.5
 40
0.5
 40
0.5
 40
0.75
 40
0.75
 40
0.75
 40
0.75
 40
1.0
 40
1.0
 40
1.0
 40
1.0
 10
-1.2974291338582677
 20
-0.5370314960629922
 30
0.0
 10
-1.2974291338582677
 20
-0.5370314960629922
 30
0.0
 10
-0.6430551181102362
 20
-0.1751732283464567
 30
0.0
 10
-0.6430551181102362
 20
-0.1751732283464567
 30
0.0
 10
-0.6430551181102362
 20
-0.1751732283464567
 30
0.0
 10
-0.6430551181102362
 20
-0.1751732283464567
 30
0.0
 10
-0.618484251968504
 20
-0.1675354330708662
 30
0.0
 10
-0.618484251968504
 20
-0.1675354330708662
 30
0.0
 10
-0.618484251968504
 20
-0.1675354330708662
 30
0.0
 10
-0.618484251968504
 20
-0.1675354330708662
 30
0.0
 10
-1.2728582677165354
 20
-0.5293937007874016
 30
0.0
 10
-1.2728582677165354
 20
-0.5293937007874016
 30
0.0
 10
-1.2728582677165354
 20
-0.5293937007874016
 30
0.0
 10
-1.2728582677165354
 20
-0.5293937007874016
 30
0.0
 10
-1.2974291338582677
 20
-0.5370314960629922
 30
0.0
 10
-1.2974291338582677
 20
-0.5370314960629922
 30
0.0
  0
SPLINE
  5
2C
100
AcDbEntity
  8
Layer 1
 62
   109
100
AcDbSpline
210
0.0
220
0.0
230
1.0
 70
     1
 71
     3
 72
    20
 73
    16
 74
     0
 42
0.0000000001
 43
0.0000000001
 40
0.0
 40
0.0
 40
0.0
 40
0.0
 40
0.25
 40
0.25
 40
0.25
 40
0.25
 40
0.5
 40
0.5
 40
0.5
 40
0.5
 40
0.75
 40
0.75
 40
0.75
 40
0.75
 40
1.0
 40
1.0
 40
1.0
 40
1.0
 10
-1.2728582677165354
 20
-0.5293937007874016
 30
0.0
 10
-1.2728582677165354
 20
-0.5293937007874016
 30
0.0
 10
-0.618484251968504
 20
-0.1675354330708662
 30
0.0
 10
-0.618484251968504
 20
-0.1675354330708662
 30
0.0
 10
-0.618484251968504
 20
-0.1675354330708662
 30
0.0
 10
-0.618484251968504
 20
-0.1675354330708662
 30
0.0
 10
-0.593236220472441
 20
-0.1599448818897638
 30
0.0
 10
-0.593236220472441
 20
-0.1599448818897638
 30
0.0
 10
-0.593236220472441
 20
-0.1599448818897638
 30
0.0
 10
-0.593236220472441
 20
-0.1599448818897638
 30
0.0
 10
-1.2476102362204724
 20
-0.5218031496062993
 30
0.0
 10
-1.2476102362204724
 20
-0.5218031496062993
 30
0.0
 10
-1.2476102362204724
 20
-0.5218031496062993
 30
0.0
 10
-1.2476102362204724
 20
-0.5218031496062993
 30
0.0
 10
-1.2728582677165354
 20
-0.5293937007874016
 30
0.0
 10
-1.2728582677165354
 20
-0.5293937007874016
 30
0.0
  0
SPLINE
  5
2D
100
AcDbEntity
  8
Layer 1
 62
   109
100
AcDbSpline
210
0.0
220
0.0
230
1.0
 70
     1
 71
     3
 72
    20
 73
    16
 74
     0
 42
0.0000000001
 43
0.0000000001
 40
0.0
 40
0.0
 40
0.0
 40
0.0
 40
0.25
 40
0.25
 40
0.25
 40
0.25
 40
0.5
 40
0.5
 40
0.5
 40
0.5
 40
0.75
 40
0.75
 40
0.75
 40
0.75
 40
1.0
 40
1.0
 40
1.0
 40
1.0
 10
-1.2476102362204724
 20
-0.5218031496062993
 30
0.0
 10
-1.2476102362204724
 20
-0.5218031496062993
 30
0.0
 10
-0.593236220472441
 20
-0.1599448818897638
 30
0.0
 10
-0.593236220472441
 20
-0.1599448818897638
 30
0.0
 10
-0.593236220472441
 20
-0.1599448818897638
 30
0.0
 10
-0.593236220472441
 20
-0.1599448818897638
 30
0.0
 10
-0.5674842519685039
 20
-0.1520433070866142
 30
0.0
 10
-0.5674842519685039
 20
-0.1520433070866142
 30
0.0
 10
-0.5674842519685039
 20
-0.1520433070866142
 30
0.0
 10
-0.5674842519685039
 20
-0.1520433070866142
 30
0.0
 10
-1.2218582677165355
 20
-0.5139015748031496
 30
0.0
 10
-1.2218582677165355
 20
-0.5139015748031496
 30
0.0
 10
-1.2218582677165355
 20
-0.5139015748031496
 30
0.0
 10
-1.2218582677165355
 20
-0.5139015748031496
 30
0.0
 10
-1.2476102362204724
 20
-0.5218031496062993
 30
0.0
 10
-1.2476102362204724
 20
-0.5218031496062993
 30
0.0
  0
SPLINE
  5
2E
100
AcDbEntity
  8
Layer 1
 62
   118
100
AcDbSpline
210
0.0
220
0.0
230
1.0
 70
     1
 71
     3
 72
    20
 73
    16
 74
     0
 42
0.0000000001
 43
0.0000000001
 40
0.0
 40
0.0
 40
0.0
 40
0.0
 40
0.25
 40
0.25
 40
0.25
 40
0.25
 40
0.5
 40
0.5
 40
0.5
 40
0.5
 40
0.75
 40
0.75
 40
0.75
 40
0.75
 40
1.0
 40
1.0
 40
1.0
 40
1.0
 10
-1.2218582677165355
 20
-0.5139015748031496
 30
0.0
 10
-1.2218582677165355
 20
-0.5139015748031496
 30
0.0
 10
-0.5674842519685039
 20
-0.1520433070866142
 30
0.0
 10
-0.5674842519685039
 20
-0.1520433070866142
 30
0.0
 10
-0.5674842519685039
 20
-0.1520433070866142
 30
0.0
 10
-0.5674842519685039
 20
-0.1520433070866142
 30
0.0
 10
-0.5414251968503937
 20
-0.1435
 30
0.0
 10
-0.5414251968503937
 20
-0.1435
 30
0.0
 10
-0.5414251968503937
 20
-0.1435
 30
0.0
 10
-0.5414251968503937
 20
-0.1435
 30
0.0
 10
-1.1957992125984251
 20
-0.5053582677165355
 30
0.0
 10
-1.1957992125984251
 20
-0.5053582677165355
 30
0.0
 10
-1.1957992125984251
 20
-0.5053582677165355
 30
0.0
 10
-1.1957992125984251
 20
-0.5053582677165355
 30
0.0
 10
-1.2218582677165355
 20
-0.5139015748031496
 30
0.0
 10
-1.2218582677165355
 20
-0.5139015748031496
 30
0.0
  0
SPLINE
  5
2F
100
AcDbEntity
  8
Layer 1
100
AcDbSpline
210
0.0
220
0.0
230
1.0
 70
     1
 71
     3
 72
    20
 73
    16
 74
     0
 42
0.0000000001
 43
0.0000000001
 40
0.0
 40
0.0
 40
0.0
 40
0.0
 40
0.25
 40
0.25
 40
0.25
 40
0.25
 40
0.5
 40
0.5
 40
0.5
 40
0.5
 40
0.75
 40
0.75
 40
0.75
 40
0.75
 40
1.0
 40
1.0
 40
1.0
 40
1.0
 10
-1.1957992125984251
 20
-0.5053582677165355
 30
0.0
 10
-1.1957992125984251
 20
-0.5053582677165355
 30
0.0
 10
-0.5414251968503937
 20
-0.1435
 30
0.0
 10
-0.5414251968503937
 20
-0.1435
 30
0.0
 10
-0.5414251968503937
 20
-0.1435
 30
0.0
 10
-0.5414251968503937
 20
-0.1435
 30
0.0
 10
-0.515236220472441
 20
-0.1339527559055118
 30
0.0
 10
-0.515236220472441
 20
-0.1339527559055118
 30
0.0
 10
-0.515236220472441
 20
-0.1339527559055118
 30
0.0
 10
-0.515236220472441
 20
-0.1339527559055118
 30
0.0
 10
-1.1696102362204726
 20
-0.4958110236220473
 30
0.0
 10
-1.1696102362204726
 20
-0.4958110236220473
 30
0.0
 10
-1.1696102362204726
 20
-0.4958110236220473
 30
0.0
 10
-1.1696102362204726
 20
-0.4958110236220473
 30
0.0
 10
-1.1957992125984251
 20
-0.5053582677165355
 30
0.0
 10
-1.1957992125984251
 20
-0.5053582677165355
 30
0.0
  0
SPLINE
  5
30
100
AcDbEntity
  8
Layer 1
100
AcDbSpline
210
0.0
220
0.0
230
1.0
 70
     1
 71
     3
 72
    20
 73
    16
 74
     0
 42
0.0000000001
 43
0.0000000001
 40
0.0
 40
0.0
 40
0.0
 40
0.0
 40
0.25
 40
0.25
 40
0.25
 40
0.25
 40
0.5
 40
0.5
 40
0.5
 40
0.5
 40
0.75
 40
0.75
 40
0.75
 40
0.75
 40
1.0
 40
1.0
 40
1.0
 40
1.0
 10
-1.1696102362204726
 20
-0.4958110236220473
 30
0.0
 10
-1.1696102362204726
 20
-0.4958110236220473
 30
0.0
 10
-0.515236220472441
 20
-0.1339527559055118
 30
0.0
 10
-0.515236220472441
 20
-0.1339527559055118
 30
0.0
 10
-0.515236220472441
 20
-0.1339527559055118
 30
0.0
 10
-0.515236220472441
 20
-0.1339527559055118
 30
0.0
 10
-0.4891181102362205
 20
-0.1230748031496063
 30
0.0
 10
-0.4891181102362205
 20
-0.1230748031496063
 30
0.0
 10
-0.4891181102362205
 20
-0.1230748031496063
 30
0.0
 10
-0.4891181102362205
 20
-0.1230748031496063
 30
0.0
 10
-1.1434921259842521
 20
-0.4849330708661417
 30
0.0
 10
-1.1434921259842521
 20
-0.4849330708661417
 30
0.0
 10
-1.1434921259842521
 20
-0.4849330708661417
 30
0.0
 10
-1.1434921259842521
 20
-0.4849330708661417
 30
0.0
 10
-1.1696102362204726
 20
-0.4958110236220473
 30
0.0
 10
-1.1696102362204726
 20
-0.4958110236220473
 30
0.0
  0
SPLINE
  5
31
100
AcDbEntity
  8
Layer 1
100
AcDbSpline
210
0.0
220
0.0
230
1.0
 70
     1
 71
     3
 72
    20
 73
    16
 74
     0
 42
0.0000000001
 43
0.0000000001
 40
0.0
 40
0.0
 40
0.0
 40
0.0
 40
0.25
 40
0.25
 40
0.25
 40
0.25
 40
0.5
 40
0.5
 40
0.5
 40
0.5
 40
0.75
 40
0.75
 40
0.75
 40
0.75
 40
1.0
 40
1.0
 40
1.0
 40
1.0
 10
-1.1434921259842521
 20
-0.4849330708661417
 30
0.0
 10
-1.1434921259842521
 20
-0.4849330708661417
 30
0.0
 10
-0.4891181102362205
 20
-0.1230748031496063
 30
0.0
 10
-0.4891181102362205
 20
-0.1230748031496063
 30
0.0
 10
-0.4891181102362205
 20
-0.1230748031496063
 30
0.0
 10
-0.4891181102362205
 20
-0.1230748031496063
 30
0.0
 10
-0.4632559055118111
 20
-0.1105118110236221
 30
0.0
 10
-0.4632559055118111
 20
-0.1105118110236221
 30
0.0
 10
-0.4632559055118111
 20
-0.1105118110236221
 30
0.0
 10
-0.4632559055118111
 20
-0.1105118110236221
 30
0.0
 10
-1.1176299212598426
 20
-0.4723700787401575
 30
0.0
 10
-1.1176299212598426
 20
-0.4723700787401575
 30
0.0
 10
-1.1176299212598426
 20
-0.4723700787401575
 30
0.0
 10
-1.1176299212598426
 20
-0.4723700787401575
 30
0.0
 10
-1.1434921259842521
 20
-0.4849330708661417
 30
0.0
 10
-1.1434921259842521
 20
-0.4849330708661417
 30
0.0
  0
SPLINE
  5
32
100
AcDbEntity
  8
Layer 1
370
     5
100
AcDbSpline
210
0.0
220
0.0
230
1.0
 70
     1
 71
     3
 72
    92
 73
    88
 74
     0
 42
0.0000000001
 43
0.0000000001
 40
0.0
 40
0.0
 40
0.0
 40
0.0
 40
0.0454545454545455
 40
0.0454545454545455
 40
0.0454545454545455
 40
0.0454545454545455
 40
0.0909090909090909
 40
0.0909090909090909
 40
0.0909090909090909
 40
0.0909090909090909
 40
0.1363636363636364
 40
0.1363636363636364
 40
0.1363636363636364
 40
0.1363636363636364
 40
0.1818181818181818
 40
0.1818181818181818
 40
0.1818181818181818
 40
0.1818181818181818
 40
0.2272727272727273
 40
0.2272727272727273
 40
0.2272727272727273
 40
0.2272727272727273
 40
0.2727272727272728
 40
0.2727272727272728
 40
0.2727272727272728
 40
0.2727272727272728
 40
0.3181818181818182
 40
0.3181818181818182
 40
0.3181818181818182
 40
0.3181818181818182
 40
0.3636363636363637
 40
0.3636363636363637
 40
0.3636363636363637
 40
0.3636363636363637
 40
0.4090909090909092
 40
0.4090909090909092
 40
0.4090909090909092
 40
0.4090909090909092
 40
0.4545454545454546
 40
0.4545454545454546
 40
0.4545454545454546
 40
0.4545454545454546
 40
0.5000000000000001
 40
0.5000000000000001
 40
0.5000000000000001
 40
0.5000000000000001
 40
0.5454545454545455
 40
0.5454545454545455
 40
0.5454545454545455
 40
0.5454545454545455
 40
0.5909090909090909
 40
0.5909090909090909
 40
0.5909090909090909
 40
0.5909090909090909
 40
0.6363636363636364
 40
0.6363636363636364
 40
0.6363636363636364
 40
0.6363636363636364
 40
0.6818181818181818
 40
0.6818181818181818
 40
0.6818181818181818
 40
0.6818181818181818
 40
0.7272727272727272
 40
0.7272727272727272
 40
0.7272727272727272
 40
0.7272727272727272
 40
0.7727272727272726
 40
0.7727272727272726
 40
0.7727272727272726
 40
0.7727272727272726
 40
0.818181818181818
 40
0.818181818181818
 40
0.818181818181818
 40
0.818181818181818
 40
0.8636363636363634
 40
0.8636363636363634
 40
0.8636363636363634
 40
0.8636363636363634
 40
0.9090909090909088
 40
0.9090909090909088
 40
0.9090909090909088
 40
0.9090909090909088
 40
0.9545454545454543
 40
0.9545454545454543
 40
0.9545454545454543
 40
0.9545454545454543
 40
1.0
 40
1.0
 40
1.0
 40
1.0
 10
-1.3650905511811025
 20
-0.5636062992125984
 30
0.0
 10
-1.3650905511811025
 20
-0.5636062992125984
 30
0.0
 10
-0.7107165354330709
 20
-0.201748031496063
 30
0.0
 10
-0.7107165354330709
 20
-0.201748031496063
 30
0.0
 10
-0.7107165354330709
 20
-0.201748031496063
 30
0.0
 10
-0.7107165354330709
 20
-0.201748031496063
 30
0.0
 10
-0.6893582677165354
 20
-0.1919330708661418
 30
0.0
 10
-0.6893582677165354
 20
-0.1919330708661418
 30
0.0
 10
-0.6893582677165354
 20
-0.1919330708661418
 30
0.0
 10
-0.6893582677165354
 20
-0.1919330708661418
 30
0.0
 10
-0.666736220472441
 20
-0.1831850393700787
 30
0.0
 10
-0.666736220472441
 20
-0.1831850393700787
 30
0.0
 10
-0.666736220472441
 20
-0.1831850393700787
 30
0.0
 10
-0.666736220472441
 20
-0.1831850393700787
 30
0.0
 10
-0.6430551181102362
 20
-0.1751732283464567
 30
0.0
 10
-0.6430551181102362
 20
-0.1751732283464567
 30
0.0
 10
-0.6430551181102362
 20
-0.1751732283464567
 30
0.0
 10
-0.6430551181102362
 20
-0.1751732283464567
 30
0.0
 10
-0.618484251968504
 20
-0.1675354330708662
 30
0.0
 10
-0.618484251968504
 20
-0.1675354330708662
 30
0.0
 10
-0.618484251968504
 20
-0.1675354330708662
 30
0.0
 10
-0.618484251968504
 20
-0.1675354330708662
 30
0.0
 10
-0.593236220472441
 20
-0.1599448818897638
 30
0.0
 10
-0.593236220472441
 20
-0.1599448818897638
 30
0.0
 10
-0.593236220472441
 20
-0.1599448818897638
 30
0.0
 10
-0.593236220472441
 20
-0.1599448818897638
 30
0.0
 10
-0.5674842519685039
 20
-0.1520433070866142
 30
0.0
 10
-0.5674842519685039
 20
-0.1520433070866142
 30
0.0
 10
-0.5674842519685039
 20
-0.1520433070866142
 30
0.0
 10
-0.5674842519685039
 20
-0.1520433070866142
 30
0.0
 10
-0.5414251968503937
 20
-0.1435
 30
0.0
 10
-0.5414251968503937
 20
-0.1435
 30
0.0
 10
-0.5414251968503937
 20
-0.1435
 30
0.0
 10
-0.5414251968503937
 20
-0.1435
 30
0.0
 10
-0.515236220472441
 20
-0.1339527559055118
 30
0.0
 10
-0.515236220472441
 20
-0.1339527559055118
 30
0.0
 10
-0.515236220472441
 20
-0.1339527559055118
 30
0.0
 10
-0.515236220472441
 20
-0.1339527559055118
 30
0.0
 10
-0.4891181102362205
 20
-0.1230748031496063
 30
0.0
 10
-0.4891181102362205
 20
-0.1230748031496063
 30
0.0
 10
-0.4891181102362205
 20
-0.1230748031496063
 30
0.0
 10
-0.4891181102362205
 20
-0.1230748031496063
 30
0.0
 10
-0.4632559055118111
 20
-0.1105118110236221
 30
0.0
 10
-0.4632559055118111
 20
-0.1105118110236221
 30
0.0
 10
-0.4632559055118111
 20
-0.1105118110236221
 30
0.0
 10
-0.4632559055118111
 20
-0.1105118110236221
 30
0.0
 10
-1.1176299212598426
 20
-0.4723700787401575
 30
0.0
 10
-1.1176299212598426
 20
-0.4723700787401575
 30
0.0
 10
-1.1176299212598426
 20
-0.4723700787401575
 30
0.0
 10
-1.1176299212598426
 20
-0.4723700787401575
 30
0.0
 10
-1.1434921259842521
 20
-0.4849330708661417
 30
0.0
 10
-1.1434921259842521
 20
-0.4849330708661417
 30
0.0
 10
-1.1434921259842521
 20
-0.4849330708661417
 30
0.0
 10
-1.1434921259842521
 20
-0.4849330708661417
 30
0.0
 10
-1.1696102362204726
 20
-0.4958110236220473
 30
0.0
 10
-1.1696102362204726
 20
-0.4958110236220473
 30
0.0
 10
-1.1696102362204726
 20
-0.4958110236220473
 30
0.0
 10
-1.1696102362204726
 20
-0.4958110236220473
 30
0.0
 10
-1.1957992125984251
 20
-0.5053582677165355
 30
0.0
 10
-1.1957992125984251
 20
-0.5053582677165355
 30
0.0
 10
-1.1957992125984251
 20
-0.5053582677165355
 30
0.0
 10
-1.1957992125984251
 20
-0.5053582677165355
 30
0.0
 10
-1.2218582677165355
 20
-0.5139015748031496
 30
0.0
 10
-1.2218582677165355
 20
-0.5139015748031496
 30
0.0
 10
-1.2218582677165355
 20
-0.5139015748031496
 30
0.0
 10
-1.2218582677165355
 20
-0.5139015748031496
 30
0.0
 10
-1.2476102362204724
 20
-0.5218031496062993
 30
0.0
 10
-1.2476102362204724
 20
-0.5218031496062993
 30
0.0
 10
-1.2476102362204724
 20
-0.5218031496062993
 30
0.0
 10
-1.2476102362204724
 20
-0.5218031496062993
 30
0.0
 10
-1.2728582677165354
 20
-0.5293937007874016
 30
0.0
 10
-1.2728582677165354
 20
-0.5293937007874016
 30
0.0
 10
-1.2728582677165354
 20
-0.5293937007874016
 30
0.0
 10
-1.2728582677165354
 20
-0.5293937007874016
 30
0.0
 10
-1.2974291338582677
 20
-0.5370314960629922
 30
0.0
 10
-1.2974291338582677
 20
-0.5370314960629922
 30
0.0
 10
-1.2974291338582677
 20
-0.5370314960629922
 30
0.0
 10
-1.2974291338582677
 20
-0.5370314960629922
 30
0.0
 10
-1.3211102362204725
 20
-0.5450433070866142
 30
0.0
 10
-1.3211102362204725
 20
-0.5450433070866142
 30
0.0
 10
-1.3211102362204725
 20
-0.5450433070866142
 30
0.0
 10
-1.3211102362204725
 20
-0.5450433070866142
 30
0.0
 10
-1.3437322834645671
 20
-0.5537913385826772
 30
0.0
 10
-1.3437322834645671
 20
-0.5537913385826772
 30
0.0
 10
-1.3437322834645671
 20
-0.5537913385826772
 30
0.0
 10
-1.3437322834645671
 20
-0.5537913385826772
 30
0.0
 10
-1.3650905511811025
 20
-0.5636062992125984
 30
0.0
 10
-1.3650905511811025
 20
-0.5636062992125984
 30
0.0
  0
SPLINE
  5
33
100
AcDbEntity
  8
Layer 1
 62
   253
100
AcDbSpline
210
0.0
220
0.0
230
1.0
 70
     1
 71
     3
 72
    20
 73
    16
 74
     0
 42
0.0000000001
 43
0.0000000001
 40
0.0
 40
0.0
 40
0.0
 40
0.0
 40
0.25
 40
0.25
 40
0.25
 40
0.25
 40
0.5
 40
0.5
 40
0.5
 40
0.5
 40
0.75
 40
0.75
 40
0.75
 40
0.75
 40
1.0
 40
1.0
 40
1.0
 40
1.0
 10
-0.8908937007874016
 20
0.0004566929133858
 30
0.0
 10
-0.8908937007874016
 20
0.0004566929133858
 30
0.0
 10
-0.2365196850393701
 20
0.3623149606299213
 30
0.0
 10
-0.2365196850393701
 20
0.3623149606299213
 30
0.0
 10
-0.2365196850393701
 20
0.3623149606299213
 30
0.0
 10
-0.2365196850393701
 20
0.3623149606299213
 30
0.0
 10
0.297751968503937
 20
0.3430314960629922
 30
0.0
 10
0.297751968503937
 20
0.3430314960629922
 30
0.0
 10
0.297751968503937
 20
0.3430314960629922
 30
0.0
 10
0.297751968503937
 20
0.3430314960629922
 30
0.0
 10
-0.3566220472440945
 20
-0.0188267716535433
 30
0.0
 10
-0.3566220472440945
 20
-0.0188267716535433
 30
0.0
 10
-0.3566220472440945
 20
-0.0188267716535433
 30
0.0
 10
-0.3566220472440945
 20
-0.0188267716535433
 30
0.0
 10
-0.8908937007874016
 20
0.0004566929133858
 30
0.0
 10
-0.8908937007874016
 20
0.0004566929133858
 30
0.0
  0
SPLINE
  5
34
100
AcDbEntity
  8
Layer 1
370
     5
100
AcDbSpline
210
0.0
220
0.0
230
1.0
 70
     1
 71
     3
 72
    20
 73
    16
 74
     0
 42
0.0000000001
 43
0.0000000001
 40
0.0
 40
0.0
 40
0.0
 40
0.0
 40
0.25
 40
0.25
 40
0.25
 40
0.25
 40
0.5
 40
0.5
 40
0.5
 40
0.5
 40
0.75
 40
0.75
 40
0.75
 40
0.75
 40
1.0
 40
1.0
 40
1.0
 40
1.0
 10
-0.8908937007874016
 20
0.0004566929133858
 30
0.0
 10
-0.8908937007874016
 20
0.0004566929133858
 30
0.0
 10
-0.2365196850393701
 20
0.3623149606299213
 30
0.0
 10
-0.2365196850393701
 20
0.3623149606299213
 30
0.0
 10
-0.2365196850393701
 20
0.3623149606299213
 30
0.0
 10
-0.2365196850393701
 20
0.3623149606299213
 30
0.0
 10
0.297751968503937
 20
0.3430314960629922
 30
0.0
 10
0.297751968503937
 20
0.3430314960629922
 30
0.0
 10
0.297751968503937
 20
0.3430314960629922
 30
0.0
 10
0.297751968503937
 20
0.3430314960629922
 30
0.0
 10
-0.3566220472440945
 20
-0.0188267716535433
 30
0.0
 10
-0.3566220472440945
 20
-0.0188267716535433
 30
0.0
 10
-0.3566220472440945
 20
-0.0188267716535433
 30
0.0
 10
-0.3566220472440945
 20
-0.0188267716535433
 30
0.0
 10
-0.8908937007874016
 20
0.0004566929133858
 30
0.0
 10
-0.8908937007874016
 20
0.0004566929133858
 30
0.0
  0
SPLINE
  5
35
100
AcDbEntity
  8
Layer 1
 62
     9
100
AcDbSpline
210
0.0
220
0.0
230
1.0
 70
     1
 71
     3
 72
    20
 73
    16
 74
     0
 42
0.0000000001
 43
0.0000000001
 40
0.0
 40
0.0
 40
0.0
 40
0.0
 40
0.25
 40
0.25
 40
0.25
 40
0.25
 40
0.5
 40
0.5
 40
0.5
 40
0.5
 40
0.75
 40
0.75
 40
0.75
 40
0.75
 40
1.0
 40
1.0
 40
1.0
 40
1.0
 10
-0.3566220472440945
 20
-0.0188267716535433
 30
0.0
 10
-0.3566220472440945
 20
-0.0188267716535433
 30
0.0
 10
0.297751968503937
 20
0.3430314960629922
 30
0.0
 10
0.297751968503937
 20
0.3430314960629922
 30
0.0
 10
0.297751968503937
 20
0.3430314960629922
 30
0.0
 10
0.297751968503937
 20
0.3430314960629922
 30
0.0
 10
0.3201062992125984
 20
0.3090433070866142
 30
0.0
 10
0.3201062992125984
 20
0.3090433070866142
 30
0.0
 10
0.3201062992125984
 20
0.3090433070866142
 30
0.0
 10
0.3201062992125984
 20
0.3090433070866142
 30
0.0
 10
-0.3342677165354331
 20
-0.0528149606299213
 30
0.0
 10
-0.3342677165354331
 20
-0.0528149606299213
 30
0.0
 10
-0.3342677165354331
 20
-0.0528149606299213
 30
0.0
 10
-0.3342677165354331
 20
-0.0528149606299213
 30
0.0
 10
-0.3566220472440945
 20
-0.0188267716535433
 30
0.0
 10
-0.3566220472440945
 20
-0.0188267716535433
 30
0.0
  0
SPLINE
  5
36
100
AcDbEntity
  8
Layer 1
 62
     9
100
AcDbSpline
210
0.0
220
0.0
230
1.0
 70
     1
 71
     3
 72
    20
 73
    16
 74
     0
 42
0.0000000001
 43
0.0000000001
 40
0.0
 40
0.0
 40
0.0
 40
0.0
 40
0.25
 40
0.25
 40
0.25
 40
0.25
 40
0.5
 40
0.5
 40
0.5
 40
0.5
 40
0.75
 40
0.75
 40
0.75
 40
0.75
 40
1.0
 40
1.0
 40
1.0
 40
1.0
 10
-0.3342677165354331
 20
-0.0528149606299213
 30
0.0
 10
-0.3342677165354331
 20
-0.0528149606299213
 30
0.0
 10
0.3201062992125984
 20
0.3090433070866142
 30
0.0
 10
0.3201062992125984
 20
0.3090433070866142
 30
0.0
 10
0.3201062992125984
 20
0.3090433070866142
 30
0.0
 10
0.3201062992125984
 20
0.3090433070866142
 30
0.0
 10
0.3442598425196851
 20
0.2789015748031496
 30
0.0
 10
0.3442598425196851
 20
0.2789015748031496
 30
0.0
 10
0.3442598425196851
 20
0.2789015748031496
 30
0.0
 10
0.3442598425196851
 20
0.2789015748031496
 30
0.0
 10
-0.3101141732283465
 20
-0.0829566929133858
 30
0.0
 10
-0.3101141732283465
 20
-0.0829566929133858
 30
0.0
 10
-0.3101141732283465
 20
-0.0829566929133858
 30
0.0
 10
-0.3101141732283465
 20
-0.0829566929133858
 30
0.0
 10
-0.3342677165354331
 20
-0.0528149606299213
 30
0.0
 10
-0.3342677165354331
 20
-0.0528149606299213
 30
0.0
  0
SPLINE
  5
37
100
AcDbEntity
  8
Layer 1
 62
     9
100
AcDbSpline
210
0.0
220
0.0
230
1.0
 70
     1
 71
     3
 72
    20
 73
    16
 74
     0
 42
0.0000000001
 43
0.0000000001
 40
0.0
 40
0.0
 40
0.0
 40
0.0
 40
0.25
 40
0.25
 40
0.25
 40
0.25
 40
0.5
 40
0.5
 40
0.5
 40
0.5
 40
0.75
 40
0.75
 40
0.75
 40
0.75
 40
1.0
 40
1.0
 40
1.0
 40
1.0
 10
-0.3101141732283465
 20
-0.0829566929133858
 30
0.0
 10
-0.3101141732283465
 20
-0.0829566929133858
 30
0.0
 10
0.3442598425196851
 20
0.2789015748031496
 30
0.0
 10
0.3442598425196851
 20
0.2789015748031496
 30
0.0
 10
0.3442598425196851
 20
0.2789015748031496
 30
0.0
 10
0.3442598425196851
 20
0.2789015748031496
 30
0.0
 10
0.3700708661417323
 20
0.2523622047244095
 30
0.0
 10
0.3700708661417323
 20
0.2523622047244095
 30
0.0
 10
0.3700708661417323
 20
0.2523622047244095
 30
0.0
 10
0.3700708661417323
 20
0.2523622047244095
 30
0.0
 10
-0.2843031496062992
 20
-0.109496062992126
 30
0.0
 10
-0.2843031496062992
 20
-0.109496062992126
 30
0.0
 10
-0.2843031496062992
 20
-0.109496062992126
 30
0.0
 10
-0.2843031496062992
 20
-0.109496062992126
 30
0.0
 10
-0.3101141732283465
 20
-0.0829566929133858
 30
0.0
 10
-0.3101141732283465
 20
-0.0829566929133858
 30
0.0
  0
SPLINE
  5
38
100
AcDbEntity
  8
Layer 1
 62
     9
100
AcDbSpline
210
0.0
220
0.0
230
1.0
 70
     1
 71
     3
 72
    20
 73
    16
 74
     0
 42
0.0000000001
 43
0.0000000001
 40
0.0
 40
0.0
 40
0.0
 40
0.0
 40
0.25
 40
0.25
 40
0.25
 40
0.25
 40
0.5
 40
0.5
 40
0.5
 40
0.5
 40
0.75
 40
0.75
 40
0.75
 40
0.75
 40
1.0
 40
1.0
 40
1.0
 40
1.0
 10
-0.2843031496062992
 20
-0.109496062992126
 30
0.0
 10
-0.2843031496062992
 20
-0.109496062992126
 30
0.0
 10
0.3700708661417323
 20
0.2523622047244095
 30
0.0
 10
0.3700708661417323
 20
0.2523622047244095
 30
0.0
 10
0.3700708661417323
 20
0.2523622047244095
 30
0.0
 10
0.3700708661417323
 20
0.2523622047244095
 30
0.0
 10
0.3974173228346457
 20
0.2291496062992126
 30
0.0
 10
0.3974173228346457
 20
0.2291496062992126
 30
0.0
 10
0.3974173228346457
 20
0.2291496062992126
 30
0.0
 10
0.3974173228346457
 20
0.2291496062992126
 30
0.0
 10
-0.2569566929133859
 20
-0.1327086614173229
 30
0.0
 10
-0.2569566929133859
 20
-0.1327086614173229
 30
0.0
 10
-0.2569566929133859
 20
-0.1327086614173229
 30
0.0
 10
-0.2569566929133859
 20
-0.1327086614173229
 30
0.0
 10
-0.2843031496062992
 20
-0.109496062992126
 30
0.0
 10
-0.2843031496062992
 20
-0.109496062992126
 30
0.0
  0
SPLINE
  5
39
100
AcDbEntity
  8
Layer 1
 62
     9
100
AcDbSpline
210
0.0
220
0.0
230
1.0
 70
     1
 71
     3
 72
    20
 73
    16
 74
     0
 42
0.0000000001
 43
0.0000000001
 40
0.0
 40
0.0
 40
0.0
 40
0.0
 40
0.25
 40
0.25
 40
0.25
 40
0.25
 40
0.5
 40
0.5
 40
0.5
 40
0.5
 40
0.75
 40
0.75
 40
0.75
 40
0.75
 40
1.0
 40
1.0
 40
1.0
 40
1.0
 10
-0.2569566929133859
 20
-0.1327086614173229
 30
0.0
 10
-0.2569566929133859
 20
-0.1327086614173229
 30
0.0
 10
0.3974173228346457
 20
0.2291496062992126
 30
0.0
 10
0.3974173228346457
 20
0.2291496062992126
 30
0.0
 10
0.3974173228346457
 20
0.2291496062992126
 30
0.0
 10
0.3974173228346457
 20
0.2291496062992126
 30
0.0
 10
0.4261456692913386
 20
0.2090236220472441
 30
0.0
 10
0.4261456692913386
 20
0.2090236220472441
 30
0.0
 10
0.4261456692913386
 20
0.2090236220472441
 30
0.0
 10
0.4261456692913386
 20
0.2090236220472441
 30
0.0
 10
-0.2282283464566929
 20
-0.1528346456692913
 30
0.0
 10
-0.2282283464566929
 20
-0.1528346456692913
 30
0.0
 10
-0.2282283464566929
 20
-0.1528346456692913
 30
0.0
 10
-0.2282283464566929
 20
-0.1528346456692913
 30
0.0
 10
-0.2569566929133859
 20
-0.1327086614173229
 30
0.0
 10
-0.2569566929133859
 20
-0.1327086614173229
 30
0.0
  0
SPLINE
  5
3A
100
AcDbEntity
  8
Layer 1
 62
   253
100
AcDbSpline
210
0.0
220
0.0
230
1.0
 70
     1
 71
     3
 72
    20
 73
    16
 74
     0
 42
0.0000000001
 43
0.0000000001
 40
0.0
 40
0.0
 40
0.0
 40
0.0
 40
0.25
 40
0.25
 40
0.25
 40
0.25
 40
0.5
 40
0.5
 40
0.5
 40
0.5
 40
0.75
 40
0.75
 40
0.75
 40
0.75
 40
1.0
 40
1.0
 40
1.0
 40
1.0
 10
-0.2282283464566929
 20
-0.1528346456692913
 30
0.0
 10
-0.2282283464566929
 20
-0.1528346456692913
 30
0.0
 10
0.4261456692913386
 20
0.2090236220472441
 30
0.0
 10
0.4261456692913386
 20
0.2090236220472441
 30
0.0
 10
0.4261456692913386
 20
0.2090236220472441
 30
0.0
 10
0.4261456692913386
 20
0.2090236220472441
 30
0.0
 10
0.4561338582677166
 20
0.1917125984251969
 30
0.0
 10
0.4561338582677166
 20
0.1917125984251969
 30
0.0
 10
0.4561338582677166
 20
0.1917125984251969
 30
0.0
 10
0.4561338582677166
 20
0.1917125984251969
 30
0.0
 10
-0.198240157480315
 20
-0.1701456692913386
 30
0.0
 10
-0.198240157480315
 20
-0.1701456692913386
 30
0.0
 10
-0.198240157480315
 20
-0.1701456692913386
 30
0.0
 10
-0.198240157480315
 20
-0.1701456692913386
 30
0.0
 10
-0.2282283464566929
 20
-0.1528346456692913
 30
0.0
 10
-0.2282283464566929
 20
-0.1528346456692913
 30
0.0
  0
SPLINE
  5
3B
100
AcDbEntity
  8
Layer 1
 62
   253
100
AcDbSpline
210
0.0
220
0.0
230
1.0
 70
     1
 71
     3
 72
    20
 73
    16
 74
     0
 42
0.0000000001
 43
0.0000000001
 40
0.0
 40
0.0
 40
0.0
 40
0.0
 40
0.25
 40
0.25
 40
0.25
 40
0.25
 40
0.5
 40
0.5
 40
0.5
 40
0.5
 40
0.75
 40
0.75
 40
0.75
 40
0.75
 40
1.0
 40
1.0
 40
1.0
 40
1.0
 10
-0.198240157480315
 20
-0.1701456692913386
 30
0.0
 10
-0.198240157480315
 20
-0.1701456692913386
 30
0.0
 10
0.4561338582677166
 20
0.1917125984251969
 30
0.0
 10
0.4561338582677166
 20
0.1917125984251969
 30
0.0
 10
0.4561338582677166
 20
0.1917125984251969
 30
0.0
 10
0.4561338582677166
 20
0.1917125984251969
 30
0.0
 10
0.487240157480315
 20
0.1769685039370079
 30
0.0
 10
0.487240157480315
 20
0.1769685039370079
 30
0.0
 10
0.487240157480315
 20
0.1769685039370079
 30
0.0
 10
0.487240157480315
 20
0.1769685039370079
 30
0.0
 10
-0.1671338582677165
 20
-0.1848897637795276
 30
0.0
 10
-0.1671338582677165
 20
-0.1848897637795276
 30
0.0
 10
-0.1671338582677165
 20
-0.1848897637795276
 30
0.0
 10
-0.1671338582677165
 20
-0.1848897637795276
 30
0.0
 10
-0.198240157480315
 20
-0.1701456692913386
 30
0.0
 10
-0.198240157480315
 20
-0.1701456692913386
 30
0.0
  0
SPLINE
  5
3C
100
AcDbEntity
  8
Layer 1
 62
   253
100
AcDbSpline
210
0.0
220
0.0
230
1.0
 70
     1
 71
     3
 72
    20
 73
    16
 74
     0
 42
0.0000000001
 43
0.0000000001
 40
0.0
 40
0.0
 40
0.0
 40
0.0
 40
0.25
 40
0.25
 40
0.25
 40
0.25
 40
0.5
 40
0.5
 40
0.5
 40
0.5
 40
0.75
 40
0.75
 40
0.75
 40
0.75
 40
1.0
 40
1.0
 40
1.0
 40
1.0
 10
-0.1671338582677165
 20
-0.1848897637795276
 30
0.0
 10
-0.1671338582677165
 20
-0.1848897637795276
 30
0.0
 10
0.487240157480315
 20
0.1769685039370079
 30
0.0
 10
0.487240157480315
 20
0.1769685039370079
 30
0.0
 10
0.487240157480315
 20
0.1769685039370079
 30
0.0
 10
0.487240157480315
 20
0.1769685039370079
 30
0.0
 10
0.5193425196850394
 20
0.1645196850393701
 30
0.0
 10
0.5193425196850394
 20
0.1645196850393701
 30
0.0
 10
0.5193425196850394
 20
0.1645196850393701
 30
0.0
 10
0.5193425196850394
 20
0.1645196850393701
 30
0.0
 10
-0.1350314960629921
 20
-0.1973385826771654
 30
0.0
 10
-0.1350314960629921
 20
-0.1973385826771654
 30
0.0
 10
-0.1350314960629921
 20
-0.1973385826771654
 30
0.0
 10
-0.1350314960629921
 20
-0.1973385826771654
 30
0.0
 10
-0.1671338582677165
 20
-0.1848897637795276
 30
0.0
 10
-0.1671338582677165
 20
-0.1848897637795276
 30
0.0
  0
SPLINE
  5
3D
100
AcDbEntity
  8
Layer 1
 62
   253
100
AcDbSpline
210
0.0
220
0.0
230
1.0
 70
     1
 71
     3
 72
    20
 73
    16
 74
     0
 42
0.0000000001
 43
0.0000000001
 40
0.0
 40
0.0
 40
0.0
 40
0.0
 40
0.25
 40
0.25
 40
0.25
 40
0.25
 40
0.5
 40
0.5
 40
0.5
 40
0.5
 40
0.75
 40
0.75
 40
0.75
 40
0.75
 40
1.0
 40
1.0
 40
1.0
 40
1.0
 10
-0.1350314960629921
 20
-0.1973385826771654
 30
0.0
 10
-0.1350314960629921
 20
-0.1973385826771654
 30
0.0
 10
0.5193425196850394
 20
0.1645196850393701
 30
0.0
 10
0.5193425196850394
 20
0.1645196850393701
 30
0.0
 10
0.5193425196850394
 20
0.1645196850393701
 30
0.0
 10
0.5193425196850394
 20
0.1645196850393701
 30
0.0
 10
0.5522834645669291
 20
0.1541299212598425
 30
0.0
 10
0.5522834645669291
 20
0.1541299212598425
 30
0.0
 10
0.5522834645669291
 20
0.1541299212598425
 30
0.0
 10
0.5522834645669291
 20
0.1541299212598425
 30
0.0
 10
-0.1020905511811024
 20
-0.2077283464566929
 30
0.0
 10
-0.1020905511811024
 20
-0.2077283464566929
 30
0.0
 10
-0.1020905511811024
 20
-0.2077283464566929
 30
0.0
 10
-0.1020905511811024
 20
-0.2077283464566929
 30
0.0
 10
-0.1350314960629921
 20
-0.1973385826771654
 30
0.0
 10
-0.1350314960629921
 20
-0.1973385826771654
 30
0.0
  0
SPLINE
  5
3E
100
AcDbEntity
  8
Layer 1
 62
   253
100
AcDbSpline
210
0.0
220
0.0
230
1.0
 70
     1
 71
     3
 72
    20
 73
    16
 74
     0
 42
0.0000000001
 43
0.0000000001
 40
0.0
 40
0.0
 40
0.0
 40
0.0
 40
0.25
 40
0.25
 40
0.25
 40
0.25
 40
0.5
 40
0.5
 40
0.5
 40
0.5
 40
0.75
 40
0.75
 40
0.75
 40
0.75
 40
1.0
 40
1.0
 40
1.0
 40
1.0
 10
-0.1020905511811024
 20
-0.2077283464566929
 30
0.0
 10
-0.1020905511811024
 20
-0.2077283464566929
 30
0.0
 10
0.5522834645669291
 20
0.1541299212598425
 30
0.0
 10
0.5522834645669291
 20
0.1541299212598425
 30
0.0
 10
0.5522834645669291
 20
0.1541299212598425
 30
0.0
 10
0.5522834645669291
 20
0.1541299212598425
 30
0.0
 10
0.5859409448818898
 20
0.1455236220472441
 30
0.0
 10
0.5859409448818898
 20
0.1455236220472441
 30
0.0
 10
0.5859409448818898
 20
0.1455236220472441
 30
0.0
 10
0.5859409448818898
 20
0.1455236220472441
 30
0.0
 10
-0.0684330708661417
 20
-0.2163346456692913
 30
0.0
 10
-0.0684330708661417
 20
-0.2163346456692913
 30
0.0
 10
-0.0684330708661417
 20
-0.2163346456692913
 30
0.0
 10
-0.0684330708661417
 20
-0.2163346456692913
 30
0.0
 10
-0.1020905511811024
 20
-0.2077283464566929
 30
0.0
 10
-0.1020905511811024
 20
-0.2077283464566929
 30
0.0
  0
SPLINE
  5
3F
100
AcDbEntity
  8
Layer 1
 62
   253
100
AcDbSpline
210
0.0
220
0.0
230
1.0
 70
     1
 71
     3
 72
    20
 73
    16
 74
     0
 42
0.0000000001
 43
0.0000000001
 40
0.0
 40
0.0
 40
0.0
 40
0.0
 40
0.25
 40
0.25
 40
0.25
 40
0.25
 40
0.5
 40
0.5
 40
0.5
 40
0.5
 40
0.75
 40
0.75
 40
0.75
 40
0.75
 40
1.0
 40
1.0
 40
1.0
 40
1.0
 10
-0.0684330708661417
 20
-0.2163346456692913
 30
0.0
 10
-0.0684330708661417
 20
-0.2163346456692913
 30
0.0
 10
0.5859409448818898
 20
0.1455236220472441
 30
0.0
 10
0.5859409448818898
 20
0.1455236220472441
 30
0.0
 10
0.5859409448818898
 20
0.1455236220472441
 30
0.0
 10
0.5859409448818898
 20
0.1455236220472441
 30
0.0
 10
0.6201771653543308
 20
0.1384448818897638
 30
0.0
 10
0.6201771653543308
 20
0.1384448818897638
 30
0.0
 10
0.6201771653543308
 20
0.1384448818897638
 30
0.0
 10
0.6201771653543308
 20
0.1384448818897638
 30
0.0
 10
-0.0341968503937008
 20
-0.2234133858267717
 30
0.0
 10
-0.0341968503937008
 20
-0.2234133858267717
 30
0.0
 10
-0.0341968503937008
 20
-0.2234133858267717
 30
0.0
 10
-0.0341968503937008
 20
-0.2234133858267717
 30
0.0
 10
-0.0684330708661417
 20
-0.2163346456692913
 30
0.0
 10
-0.0684330708661417
 20
-0.2163346456692913
 30
0.0
  0
SPLINE
  5
40
100
AcDbEntity
  8
Layer 1
 62
   253
100
AcDbSpline
210
0.0
220
0.0
230
1.0
 70
     1
 71
     3
 72
    20
 73
    16
 74
     0
 42
0.0000000001
 43
0.0000000001
 40
0.0
 40
0.0
 40
0.0
 40
0.0
 40
0.25
 40
0.25
 40
0.25
 40
0.25
 40
0.5
 40
0.5
 40
0.5
 40
0.5
 40
0.75
 40
0.75
 40
0.75
 40
0.75
 40
1.0
 40
1.0
 40
1.0
 40
1.0
 10
-0.0341968503937008
 20
-0.2234133858267717
 30
0.0
 10
-0.0341968503937008
 20
-0.2234133858267717
 30
0.0
 10
0.6201771653543308
 20
0.1384448818897638
 30
0.0
 10
0.6201771653543308
 20
0.1384448818897638
 30
0.0
 10
0.6201771653543308
 20
0.1384448818897638
 30
0.0
 10
0.6201771653543308
 20
0.1384448818897638
 30
0.0
 10
0.6548622047244095
 20
0.1326377952755906
 30
0.0
 10
0.6548622047244095
 20
0.1326377952755906
 30
0.0
 10
0.6548622047244095
 20
0.1326377952755906
 30
0.0
 10
0.6548622047244095
 20
0.1326377952755906
 30
0.0
 10
0.000488188976378
 20
-0.2292204724409449
 30
0.0
 10
0.000488188976378
 20
-0.2292204724409449
 30
0.0
 10
0.000488188976378
 20
-0.2292204724409449
 30
0.0
 10
0.000488188976378
 20
-0.2292204724409449
 30
0.0
 10
-0.0341968503937008
 20
-0.2234133858267717
 30
0.0
 10
-0.0341968503937008
 20
-0.2234133858267717
 30
0.0
  0
SPLINE
  5
41
100
AcDbEntity
  8
Layer 1
 62
   253
100
AcDbSpline
210
0.0
220
0.0
230
1.0
 70
     1
 71
     3
 72
    20
 73
    16
 74
     0
 42
0.0000000001
 43
0.0000000001
 40
0.0
 40
0.0
 40
0.0
 40
0.0
 40
0.25
 40
0.25
 40
0.25
 40
0.25
 40
0.5
 40
0.5
 40
0.5
 40
0.5
 40
0.75
 40
0.75
 40
0.75
 40
0.75
 40
1.0
 40
1.0
 40
1.0
 40
1.0
 10
0.000488188976378
 20
-0.2292204724409449
 30
0.0
 10
0.000488188976378
 20
-0.2292204724409449
 30
0.0
 10
0.6548622047244095
 20
0.1326377952755906
 30
0.0
 10
0.6548622047244095
 20
0.1326377952755906
 30
0.0
 10
0.6548622047244095
 20
0.1326377952755906
 30
0.0
 10
0.6548622047244095
 20
0.1326377952755906
 30
0.0
 10
0.6898464566929135
 20
0.1278464566929134
 30
0.0
 10
0.6898464566929135
 20
0.1278464566929134
 30
0.0
 10
0.6898464566929135
 20
0.1278464566929134
 30
0.0
 10
0.6898464566929135
 20
0.1278464566929134
 30
0.0
 10
0.0354724409448819
 20
-0.2340118110236221
 30
0.0
 10
0.0354724409448819
 20
-0.2340118110236221
 30
0.0
 10
0.0354724409448819
 20
-0.2340118110236221
 30
0.0
 10
0.0354724409448819
 20
-0.2340118110236221
 30
0.0
 10
0.000488188976378
 20
-0.2292204724409449
 30
0.0
 10
0.000488188976378
 20
-0.2292204724409449
 30
0.0
  0
SPLINE
  5
42
100
AcDbEntity
  8
Layer 1
 62
   253
100
AcDbSpline
210
0.0
220
0.0
230
1.0
 70
     1
 71
     3
 72
    20
 73
    16
 74
     0
 42
0.0000000001
 43
0.0000000001
 40
0.0
 40
0.0
 40
0.0
 40
0.0
 40
0.25
 40
0.25
 40
0.25
 40
0.25
 40
0.5
 40
0.5
 40
0.5
 40
0.5
 40
0.75
 40
0.75
 40
0.75
 40
0.75
 40
1.0
 40
1.0
 40
1.0
 40
1.0
 10
0.0354724409448819
 20
-0.2340118110236221
 30
0.0
 10
0.0354724409448819
 20
-0.2340118110236221
 30
0.0
 10
0.6898464566929135
 20
0.1278464566929134
 30
0.0
 10
0.6898464566929135
 20
0.1278464566929134
 30
0.0
 10
0.6898464566929135
 20
0.1278464566929134
 30
0.0
 10
0.6898464566929135
 20
0.1278464566929134
 30
0.0
 10
0.7250118110236221
 20
0.1238070866141732
 30
0.0
 10
0.7250118110236221
 20
0.1238070866141732
 30
0.0
 10
0.7250118110236221
 20
0.1238070866141732
 30
0.0
 10
0.7250118110236221
 20
0.1238070866141732
 30
0.0
 10
0.0706377952755906
 20
-0.2380511811023622
 30
0.0
 10
0.0706377952755906
 20
-0.2380511811023622
 30
0.0
 10
0.0706377952755906
 20
-0.2380511811023622
 30
0.0
 10
0.0706377952755906
 20
-0.2380511811023622
 30
0.0
 10
0.0354724409448819
 20
-0.2340118110236221
 30
0.0
 10
0.0354724409448819
 20
-0.2340118110236221
 30
0.0
  0
SPLINE
  5
43
100
AcDbEntity
  8
Layer 1
 62
   253
100
AcDbSpline
210
0.0
220
0.0
230
1.0
 70
     1
 71
     3
 72
    20
 73
    16
 74
     0
 42
0.0000000001
 43
0.0000000001
 40
0.0
 40
0.0
 40
0.0
 40
0.0
 40
0.25
 40
0.25
 40
0.25
 40
0.25
 40
0.5
 40
0.5
 40
0.5
 40
0.5
 40
0.75
 40
0.75
 40
0.75
 40
0.75
 40
1.0
 40
1.0
 40
1.0
 40
1.0
 10
0.0706377952755906
 20
-0.2380511811023622
 30
0.0
 10
0.0706377952755906
 20
-0.2380511811023622
 30
0.0
 10
0.7250118110236221
 20
0.1238070866141732
 30
0.0
 10
0.7250118110236221
 20
0.1238070866141732
 30
0.0
 10
0.7250118110236221
 20
0.1238070866141732
 30
0.0
 10
0.7250118110236221
 20
0.1238070866141732
 30
0.0
 10
0.7602086614173229
 20
0.1202677165354331
 30
0.0
 10
0.7602086614173229
 20
0.1202677165354331
 30
0.0
 10
0.7602086614173229
 20
0.1202677165354331
 30
0.0
 10
0.7602086614173229
 20
0.1202677165354331
 30
0.0
 10
0.1058346456692913
 20
-0.2415905511811024
 30
0.0
 10
0.1058346456692913
 20
-0.2415905511811024
 30
0.0
 10
0.1058346456692913
 20
-0.2415905511811024
 30
0.0
 10
0.1058346456692913
 20
-0.2415905511811024
 30
0.0
 10
0.0706377952755906
 20
-0.2380511811023622
 30
0.0
 10
0.0706377952755906
 20
-0.2380511811023622
 30
0.0
  0
SPLINE
  5
44
100
AcDbEntity
  8
Layer 1
 62
   253
100
AcDbSpline
210
0.0
220
0.0
230
1.0
 70
     1
 71
     3
 72
    20
 73
    16
 74
     0
 42
0.0000000001
 43
0.0000000001
 40
0.0
 40
0.0
 40
0.0
 40
0.0
 40
0.25
 40
0.25
 40
0.25
 40
0.25
 40
0.5
 40
0.5
 40
0.5
 40
0.5
 40
0.75
 40
0.75
 40
0.75
 40
0.75
 40
1.0
 40
1.0
 40
1.0
 40
1.0
 10
0.1058346456692913
 20
-0.2415905511811024
 30
0.0
 10
0.1058346456692913
 20
-0.2415905511811024
 30
0.0
 10
0.7602086614173229
 20
0.1202677165354331
 30
0.0
 10
0.7602086614173229
 20
0.1202677165354331
 30
0.0
 10
0.7602086614173229
 20
0.1202677165354331
 30
0.0
 10
0.7602086614173229
 20
0.1202677165354331
 30
0.0
 10
0.7953149606299212
 20
0.1169606299212598
 30
0.0
 10
0.7953149606299212
 20
0.1169606299212598
 30
0.0
 10
0.7953149606299212
 20
0.1169606299212598
 30
0.0
 10
0.7953149606299212
 20
0.1169606299212598
 30
0.0
 10
0.1409409448818898
 20
-0.2448976377952756
 30
0.0
 10
0.1409409448818898
 20
-0.2448976377952756
 30
0.0
 10
0.1409409448818898
 20
-0.2448976377952756
 30
0.0
 10
0.1409409448818898
 20
-0.2448976377952756
 30
0.0
 10
0.1058346456692913
 20
-0.2415905511811024
 30
0.0
 10
0.1058346456692913
 20
-0.2415905511811024
 30
0.0
  0
SPLINE
  5
45
100
AcDbEntity
  8
Layer 1
 62
   253
100
AcDbSpline
210
0.0
220
0.0
230
1.0
 70
     1
 71
     3
 72
    20
 73
    16
 74
     0
 42
0.0000000001
 43
0.0000000001
 40
0.0
 40
0.0
 40
0.0
 40
0.0
 40
0.25
 40
0.25
 40
0.25
 40
0.25
 40
0.5
 40
0.5
 40
0.5
 40
0.5
 40
0.75
 40
0.75
 40
0.75
 40
0.75
 40
1.0
 40
1.0
 40
1.0
 40
1.0
 10
0.1409409448818898
 20
-0.2448976377952756
 30
0.0
 10
0.1409409448818898
 20
-0.2448976377952756
 30
0.0
 10
0.7953149606299212
 20
0.1169606299212598
 30
0.0
 10
0.7953149606299212
 20
0.1169606299212598
 30
0.0
 10
0.7953149606299212
 20
0.1169606299212598
 30
0.0
 10
0.7953149606299212
 20
0.1169606299212598
 30
0.0
 10
0.8301771653543307
 20
0.1136456692913386
 30
0.0
 10
0.8301771653543307
 20
0.1136456692913386
 30
0.0
 10
0.8301771653543307
 20
0.1136456692913386
 30
0.0
 10
0.8301771653543307
 20
0.1136456692913386
 30
0.0
 10
0.1758031496062992
 20
-0.2482125984251969
 30
0.0
 10
0.1758031496062992
 20
-0.2482125984251969
 30
0.0
 10
0.1758031496062992
 20
-0.2482125984251969
 30
0.0
 10
0.1758031496062992
 20
-0.2482125984251969
 30
0.0
 10
0.1409409448818898
 20
-0.2448976377952756
 30
0.0
 10
0.1409409448818898
 20
-0.2448976377952756
 30
0.0
  0
SPLINE
  5
46
100
AcDbEntity
  8
Layer 1
 62
   253
100
AcDbSpline
210
0.0
220
0.0
230
1.0
 70
     1
 71
     3
 72
    20
 73
    16
 74
     0
 42
0.0000000001
 43
0.0000000001
 40
0.0
 40
0.0
 40
0.0
 40
0.0
 40
0.25
 40
0.25
 40
0.25
 40
0.25
 40
0.5
 40
0.5
 40
0.5
 40
0.5
 40
0.75
 40
0.75
 40
0.75
 40
0.75
 40
1.0
 40
1.0
 40
1.0
 40
1.0
 10
0.1758031496062992
 20
-0.2482125984251969
 30
0.0
 10
0.1758031496062992
 20
-0.2482125984251969
 30
0.0
 10
0.8301771653543307
 20
0.1136456692913386
 30
0.0
 10
0.8301771653543307
 20
0.1136456692913386
 30
0.0
 10
0.8301771653543307
 20
0.1136456692913386
 30
0.0
 10
0.8301771653543307
 20
0.1136456692913386
 30
0.0
 10
0.8646771653543307
 20
0.1100433070866142
 30
0.0
 10
0.8646771653543307
 20
0.1100433070866142
 30
0.0
 10
0.8646771653543307
 20
0.1100433070866142
 30
0.0
 10
0.8646771653543307
 20
0.1100433070866142
 30
0.0
 10
0.2103031496062992
 20
-0.2518149606299213
 30
0.0
 10
0.2103031496062992
 20
-0.2518149606299213
 30
0.0
 10
0.2103031496062992
 20
-0.2518149606299213
 30
0.0
 10
0.2103031496062992
 20
-0.2518149606299213
 30
0.0
 10
0.1758031496062992
 20
-0.2482125984251969
 30
0.0
 10
0.1758031496062992
 20
-0.2482125984251969
 30
0.0
  0
SPLINE
  5
47
100
AcDbEntity
  8
Layer 1
 62
   253
100
AcDbSpline
210
0.0
220
0.0
230
1.0
 70
     1
 71
     3
 72
    20
 73
    16
 74
     0
 42
0.0000000001
 43
0.0000000001
 40
0.0
 40
0.0
 40
0.0
 40
0.0
 40
0.25
 40
0.25
 40
0.25
 40
0.25
 40
0.5
 40
0.5
 40
0.5
 40
0.5
 40
0.75
 40
0.75
 40
0.75
 40
0.75
 40
1.0
 40
1.0
 40
1.0
 40
1.0
 10
0.2103031496062992
 20
-0.2518149606299213
 30
0.0
 10
0.2103031496062992
 20
-0.2518149606299213
 30
0.0
 10
0.8646771653543307
 20
0.1100433070866142
 30
0.0
 10
0.8646771653543307
 20
0.1100433070866142
 30
0.0
 10
0.8646771653543307
 20
0.1100433070866142
 30
0.0
 10
0.8646771653543307
 20
0.1100433070866142
 30
0.0
 10
0.8986692913385828
 20
0.1059094488188977
 30
0.0
 10
0.8986692913385828
 20
0.1059094488188977
 30
0.0
 10
0.8986692913385828
 20
0.1059094488188977
 30
0.0
 10
0.8986692913385828
 20
0.1059094488188977
 30
0.0
 10
0.2442952755905512
 20
-0.2559488188976378
 30
0.0
 10
0.2442952755905512
 20
-0.2559488188976378
 30
0.0
 10
0.2442952755905512
 20
-0.2559488188976378
 30
0.0
 10
0.2442952755905512
 20
-0.2559488188976378
 30
0.0
 10
0.2103031496062992
 20
-0.2518149606299213
 30
0.0
 10
0.2103031496062992
 20
-0.2518149606299213
 30
0.0
  0
SPLINE
  5
48
100
AcDbEntity
  8
Layer 1
 62
   253
100
AcDbSpline
210
0.0
220
0.0
230
1.0
 70
     1
 71
     3
 72
    20
 73
    16
 74
     0
 42
0.0000000001
 43
0.0000000001
 40
0.0
 40
0.0
 40
0.0
 40
0.0
 40
0.25
 40
0.25
 40
0.25
 40
0.25
 40
0.5
 40
0.5
 40
0.5
 40
0.5
 40
0.75
 40
0.75
 40
0.75
 40
0.75
 40
1.0
 40
1.0
 40
1.0
 40
1.0
 10
0.2442952755905512
 20
-0.2559488188976378
 30
0.0
 10
0.2442952755905512
 20
-0.2559488188976378
 30
0.0
 10
0.8986692913385828
 20
0.1059094488188977
 30
0.0
 10
0.8986692913385828
 20
0.1059094488188977
 30
0.0
 10
0.8986692913385828
 20
0.1059094488188977
 30
0.0
 10
0.8986692913385828
 20
0.1059094488188977
 30
0.0
 10
0.9320314960629922
 20
0.1009803149606299
 30
0.0
 10
0.9320314960629922
 20
0.1009803149606299
 30
0.0
 10
0.9320314960629922
 20
0.1009803149606299
 30
0.0
 10
0.9320314960629922
 20
0.1009803149606299
 30
0.0
 10
0.2776574803149606
 20
-0.2608779527559055
 30
0.0
 10
0.2776574803149606
 20
-0.2608779527559055
 30
0.0
 10
0.2776574803149606
 20
-0.2608779527559055
 30
0.0
 10
0.2776574803149606
 20
-0.2608779527559055
 30
0.0
 10
0.2442952755905512
 20
-0.2559488188976378
 30
0.0
 10
0.2442952755905512
 20
-0.2559488188976378
 30
0.0
  0
SPLINE
  5
49
100
AcDbEntity
  8
Layer 1
 62
   253
100
AcDbSpline
210
0.0
220
0.0
230
1.0
 70
     1
 71
     3
 72
    20
 73
    16
 74
     0
 42
0.0000000001
 43
0.0000000001
 40
0.0
 40
0.0
 40
0.0
 40
0.0
 40
0.25
 40
0.25
 40
0.25
 40
0.25
 40
0.5
 40
0.5
 40
0.5
 40
0.5
 40
0.75
 40
0.75
 40
0.75
 40
0.75
 40
1.0
 40
1.0
 40
1.0
 40
1.0
 10
0.2776574803149606
 20
-0.2608779527559055
 30
0.0
 10
0.2776574803149606
 20
-0.2608779527559055
 30
0.0
 10
0.9320314960629922
 20
0.1009803149606299
 30
0.0
 10
0.9320314960629922
 20
0.1009803149606299
 30
0.0
 10
0.9320314960629922
 20
0.1009803149606299
 30
0.0
 10
0.9320314960629922
 20
0.1009803149606299
 30
0.0
 10
0.9646062992125984
 20
0.095003937007874
 30
0.0
 10
0.9646062992125984
 20
0.095003937007874
 30
0.0
 10
0.9646062992125984
 20
0.095003937007874
 30
0.0
 10
0.9646062992125984
 20
0.095003937007874
 30
0.0
 10
0.3102322834645669
 20
-0.2668543307086614
 30
0.0
 10
0.3102322834645669
 20
-0.2668543307086614
 30
0.0
 10
0.3102322834645669
 20
-0.2668543307086614
 30
0.0
 10
0.3102322834645669
 20
-0.2668543307086614
 30
0.0
 10
0.2776574803149606
 20
-0.2608779527559055
 30
0.0
 10
0.2776574803149606
 20
-0.2608779527559055
 30
0.0
  0
SPLINE
  5
4A
100
AcDbEntity
  8
Layer 1
 62
   253
100
AcDbSpline
210
0.0
220
0.0
230
1.0
 70
     1
 71
     3
 72
    20
 73
    16
 74
     0
 42
0.0000000001
 43
0.0000000001
 40
0.0
 40
0.0
 40
0.0
 40
0.0
 40
0.25
 40
0.25
 40
0.25
 40
0.25
 40
0.5
 40
0.5
 40
0.5
 40
0.5
 40
0.75
 40
0.75
 40
0.75
 40
0.75
 40
1.0
 40
1.0
 40
1.0
 40
1.0
 10
0.3102322834645669
 20
-0.2668543307086614
 30
0.0
 10
0.3102322834645669
 20
-0.2668543307086614
 30
0.0
 10
0.9646062992125984
 20
0.095003937007874
 30
0.0
 10
0.9646062992125984
 20
0.095003937007874
 30
0.0
 10
0.9646062992125984
 20
0.095003937007874
 30
0.0
 10
0.9646062992125984
 20
0.095003937007874
 30
0.0
 10
0.9962795275590551
 20
0.0877125984251969
 30
0.0
 10
0.9962795275590551
 20
0.0877125984251969
 30
0.0
 10
0.9962795275590551
 20
0.0877125984251969
 30
0.0
 10
0.9962795275590551
 20
0.0877125984251969
 30
0.0
 10
0.3419055118110236
 20
-0.2741456692913386
 30
0.0
 10
0.3419055118110236
 20
-0.2741456692913386
 30
0.0
 10
0.3419055118110236
 20
-0.2741456692913386
 30
0.0
 10
0.3419055118110236
 20
-0.2741456692913386
 30
0.0
 10
0.3102322834645669
 20
-0.2668543307086614
 30
0.0
 10
0.3102322834645669
 20
-0.2668543307086614
 30
0.0
  0
SPLINE
  5
4B
100
AcDbEntity
  8
Layer 1
 62
   253
100
AcDbSpline
210
0.0
220
0.0
230
1.0
 70
     1
 71
     3
 72
    20
 73
    16
 74
     0
 42
0.0000000001
 43
0.0000000001
 40
0.0
 40
0.0
 40
0.0
 40
0.0
 40
0.25
 40
0.25
 40
0.25
 40
0.25
 40
0.5
 40
0.5
 40
0.5
 40
0.5
 40
0.75
 40
0.75
 40
0.75
 40
0.75
 40
1.0
 40
1.0
 40
1.0
 40
1.0
 10
0.3419055118110236
 20
-0.2741456692913386
 30
0.0
 10
0.3419055118110236
 20
-0.2741456692913386
 30
0.0
 10
0.9962795275590551
 20
0.0877125984251969
 30
0.0
 10
0.9962795275590551
 20
0.0877125984251969
 30
0.0
 10
0.9962795275590551
 20
0.0877125984251969
 30
0.0
 10
0.9962795275590551
 20
0.0877125984251969
 30
0.0
 10
1.0269055118110237
 20
0.0788543307086614
 30
0.0
 10
1.0269055118110237
 20
0.0788543307086614
 30
0.0
 10
1.0269055118110237
 20
0.0788543307086614
 30
0.0
 10
1.0269055118110237
 20
0.0788543307086614
 30
0.0
 10
0.3725314960629921
 20
-0.283003937007874
 30
0.0
 10
0.3725314960629921
 20
-0.283003937007874
 30
0.0
 10
0.3725314960629921
 20
-0.283003937007874
 30
0.0
 10
0.3725314960629921
 20
-0.283003937007874
 30
0.0
 10
0.3419055118110236
 20
-0.2741456692913386
 30
0.0
 10
0.3419055118110236
 20
-0.2741456692913386
 30
0.0
  0
SPLINE
  5
4C
100
AcDbEntity
  8
Layer 1
 62
   253
100
AcDbSpline
210
0.0
220
0.0
230
1.0
 70
     1
 71
     3
 72
    20
 73
    16
 74
     0
 42
0.0000000001
 43
0.0000000001
 40
0.0
 40
0.0
 40
0.0
 40
0.0
 40
0.25
 40
0.25
 40
0.25
 40
0.25
 40
0.5
 40
0.5
 40
0.5
 40
0.5
 40
0.75
 40
0.75
 40
0.75
 40
0.75
 40
1.0
 40
1.0
 40
1.0
 40
1.0
 10
0.3725314960629921
 20
-0.283003937007874
 30
0.0
 10
0.3725314960629921
 20
-0.283003937007874
 30
0.0
 10
1.0269055118110237
 20
0.0788543307086614
 30
0.0
 10
1.0269055118110237
 20
0.0788543307086614
 30
0.0
 10
1.0269055118110237
 20
0.0788543307086614
 30
0.0
 10
1.0269055118110237
 20
0.0788543307086614
 30
0.0
 10
1.0563582677165355
 20
0.0681653543307087
 30
0.0
 10
1.0563582677165355
 20
0.0681653543307087
 30
0.0
 10
1.0563582677165355
 20
0.0681653543307087
 30
0.0
 10
1.0563582677165355
 20
0.0681653543307087
 30
0.0
 10
0.401984251968504
 20
-0.2936929133858268
 30
0.0
 10
0.401984251968504
 20
-0.2936929133858268
 30
0.0
 10
0.401984251968504
 20
-0.2936929133858268
 30
0.0
 10
0.401984251968504
 20
-0.2936929133858268
 30
0.0
 10
0.3725314960629921
 20
-0.283003937007874
 30
0.0
 10
0.3725314960629921
 20
-0.283003937007874
 30
0.0
  0
SPLINE
  5
4D
100
AcDbEntity
  8
Layer 1
 62
   253
100
AcDbSpline
210
0.0
220
0.0
230
1.0
 70
     1
 71
     3
 72
    20
 73
    16
 74
     0
 42
0.0000000001
 43
0.0000000001
 40
0.0
 40
0.0
 40
0.0
 40
0.0
 40
0.25
 40
0.25
 40
0.25
 40
0.25
 40
0.5
 40
0.5
 40
0.5
 40
0.5
 40
0.75
 40
0.75
 40
0.75
 40
0.75
 40
1.0
 40
1.0
 40
1.0
 40
1.0
 10
0.401984251968504
 20
-0.2936929133858268
 30
0.0
 10
0.401984251968504
 20
-0.2936929133858268
 30
0.0
 10
1.0563582677165355
 20
0.0681653543307087
 30
0.0
 10
1.0563582677165355
 20
0.0681653543307087
 30
0.0
 10
1.0563582677165355
 20
0.0681653543307087
 30
0.0
 10
1.0563582677165355
 20
0.0681653543307087
 30
0.0
 10
1.0844842519685041
 20
0.0554015748031496
 30
0.0
 10
1.0844842519685041
 20
0.0554015748031496
 30
0.0
 10
1.0844842519685041
 20
0.0554015748031496
 30
0.0
 10
1.0844842519685041
 20
0.0554015748031496
 30
0.0
 10
0.4301102362204725
 20
-0.3064566929133858
 30
0.0
 10
0.4301102362204725
 20
-0.3064566929133858
 30
0.0
 10
0.4301102362204725
 20
-0.3064566929133858
 30
0.0
 10
0.4301102362204725
 20
-0.3064566929133858
 30
0.0
 10
0.401984251968504
 20
-0.2936929133858268
 30
0.0
 10
0.401984251968504
 20
-0.2936929133858268
 30
0.0
  0
SPLINE
  5
4E
100
AcDbEntity
  8
Layer 1
 62
   253
100
AcDbSpline
210
0.0
220
0.0
230
1.0
 70
     1
 71
     3
 72
    20
 73
    16
 74
     0
 42
0.0000000001
 43
0.0000000001
 40
0.0
 40
0.0
 40
0.0
 40
0.0
 40
0.25
 40
0.25
 40
0.25
 40
0.25
 40
0.5
 40
0.5
 40
0.5
 40
0.5
 40
0.75
 40
0.75
 40
0.75
 40
0.75
 40
1.0
 40
1.0
 40
1.0
 40
1.0
 10
0.4301102362204725
 20
-0.3064566929133858
 30
0.0
 10
0.4301102362204725
 20
-0.3064566929133858
 30
0.0
 10
1.0844842519685041
 20
0.0554015748031496
 30
0.0
 10
1.0844842519685041
 20
0.0554015748031496
 30
0.0
 10
1.0844842519685041
 20
0.0554015748031496
 30
0.0
 10
1.0844842519685041
 20
0.0554015748031496
 30
0.0
 10
1.1111653543307087
 20
0.0402874015748032
 30
0.0
 10
1.1111653543307087
 20
0.0402874015748032
 30
0.0
 10
1.1111653543307087
 20
0.0402874015748032
 30
0.0
 10
1.1111653543307087
 20
0.0402874015748032
 30
0.0
 10
0.4567913385826772
 20
-0.3215708661417323
 30
0.0
 10
0.4567913385826772
 20
-0.3215708661417323
 30
0.0
 10
0.4567913385826772
 20
-0.3215708661417323
 30
0.0
 10
0.4567913385826772
 20
-0.3215708661417323
 30
0.0
 10
0.4301102362204725
 20
-0.3064566929133858
 30
0.0
 10
0.4301102362204725
 20
-0.3064566929133858
 30
0.0
  0
SPLINE
  5
4F
100
AcDbEntity
  8
Layer 1
 62
     9
100
AcDbSpline
210
0.0
220
0.0
230
1.0
 70
     1
 71
     3
 72
    20
 73
    16
 74
     0
 42
0.0000000001
 43
0.0000000001
 40
0.0
 40
0.0
 40
0.0
 40
0.0
 40
0.25
 40
0.25
 40
0.25
 40
0.25
 40
0.5
 40
0.5
 40
0.5
 40
0.5
 40
0.75
 40
0.75
 40
0.75
 40
0.75
 40
1.0
 40
1.0
 40
1.0
 40
1.0
 10
0.4567913385826772
 20
-0.3215708661417323
 30
0.0
 10
0.4567913385826772
 20
-0.3215708661417323
 30
0.0
 10
1.1111653543307087
 20
0.0402874015748032
 30
0.0
 10
1.1111653543307087
 20
0.0402874015748032
 30
0.0
 10
1.1111653543307087
 20
0.0402874015748032
 30
0.0
 10
1.1111653543307087
 20
0.0402874015748032
 30
0.0
 10
1.1362559055118111
 20
0.0225748031496063
 30
0.0
 10
1.1362559055118111
 20
0.0225748031496063
 30
0.0
 10
1.1362559055118111
 20
0.0225748031496063
 30
0.0
 10
1.1362559055118111
 20
0.0225748031496063
 30
0.0
 10
0.4818818897637796
 20
-0.3392834645669292
 30
0.0
 10
0.4818818897637796
 20
-0.3392834645669292
 30
0.0
 10
0.4818818897637796
 20
-0.3392834645669292
 30
0.0
 10
0.4818818897637796
 20
-0.3392834645669292
 30
0.0
 10
0.4567913385826772
 20
-0.3215708661417323
 30
0.0
 10
0.4567913385826772
 20
-0.3215708661417323
 30
0.0
  0
SPLINE
  5
50
100
AcDbEntity
  8
Layer 1
 62
     9
100
AcDbSpline
210
0.0
220
0.0
230
1.0
 70
     1
 71
     3
 72
    20
 73
    16
 74
     0
 42
0.0000000001
 43
0.0000000001
 40
0.0
 40
0.0
 40
0.0
 40
0.0
 40
0.25
 40
0.25
 40
0.25
 40
0.25
 40
0.5
 40
0.5
 40
0.5
 40
0.5
 40
0.75
 40
0.75
 40
0.75
 40
0.75
 40
1.0
 40
1.0
 40
1.0
 40
1.0
 10
0.4818818897637796
 20
-0.3392834645669292
 30
0.0
 10
0.4818818897637796
 20
-0.3392834645669292
 30
0.0
 10
1.1362559055118111
 20
0.0225748031496063
 30
0.0
 10
1.1362559055118111
 20
0.0225748031496063
 30
0.0
 10
1.1362559055118111
 20
0.0225748031496063
 30
0.0
 10
1.1362559055118111
 20
0.0225748031496063
 30
0.0
 10
1.1596299212598427
 20
0.002
 30
0.0
 10
1.1596299212598427
 20
0.002
 30
0.0
 10
1.1596299212598427
 20
0.002
 30
0.0
 10
1.1596299212598427
 20
0.002
 30
0.0
 10
0.505255905511811
 20
-0.3598582677165355
 30
0.0
 10
0.505255905511811
 20
-0.3598582677165355
 30
0.0
 10
0.505255905511811
 20
-0.3598582677165355
 30
0.0
 10
0.505255905511811
 20
-0.3598582677165355
 30
0.0
 10
0.4818818897637796
 20
-0.3392834645669292
 30
0.0
 10
0.4818818897637796
 20
-0.3392834645669292
 30
0.0
  0
SPLINE
  5
51
100
AcDbEntity
  8
Layer 1
 62
     9
100
AcDbSpline
210
0.0
220
0.0
230
1.0
 70
     1
 71
     3
 72
    20
 73
    16
 74
     0
 42
0.0000000001
 43
0.0000000001
 40
0.0
 40
0.0
 40
0.0
 40
0.0
 40
0.25
 40
0.25
 40
0.25
 40
0.25
 40
0.5
 40
0.5
 40
0.5
 40
0.5
 40
0.75
 40
0.75
 40
0.75
 40
0.75
 40
1.0
 40
1.0
 40
1.0
 40
1.0
 10
0.505255905511811
 20
-0.3598582677165355
 30
0.0
 10
0.505255905511811
 20
-0.3598582677165355
 30
0.0
 10
1.1596299212598427
 20
0.002
 30
0.0
 10
1.1596299212598427
 20
0.002
 30
0.0
 10
1.1596299212598427
 20
0.002
 30
0.0
 10
1.1596299212598427
 20
0.002
 30
0.0
 10
1.1811377952755906
 20
-0.0216889763779528
 30
0.0
 10
1.1811377952755906
 20
-0.0216889763779528
 30
0.0
 10
1.1811377952755906
 20
-0.0216889763779528
 30
0.0
 10
1.1811377952755906
 20
-0.0216889763779528
 30
0.0
 10
0.526763779527559
 20
-0.3835472440944882
 30
0.0
 10
0.526763779527559
 20
-0.3835472440944882
 30
0.0
 10
0.526763779527559
 20
-0.3835472440944882
 30
0.0
 10
0.526763779527559
 20
-0.3835472440944882
 30
0.0
 10
0.505255905511811
 20
-0.3598582677165355
 30
0.0
 10
0.505255905511811
 20
-0.3598582677165355
 30
0.0
  0
SPLINE
  5
52
100
AcDbEntity
  8
Layer 1
 62
     9
100
AcDbSpline
210
0.0
220
0.0
230
1.0
 70
     1
 71
     3
 72
    20
 73
    16
 74
     0
 42
0.0000000001
 43
0.0000000001
 40
0.0
 40
0.0
 40
0.0
 40
0.0
 40
0.25
 40
0.25
 40
0.25
 40
0.25
 40
0.5
 40
0.5
 40
0.5
 40
0.5
 40
0.75
 40
0.75
 40
0.75
 40
0.75
 40
1.0
 40
1.0
 40
1.0
 40
1.0
 10
0.526763779527559
 20
-0.3835472440944882
 30
0.0
 10
0.526763779527559
 20
-0.3835472440944882
 30
0.0
 10
1.1811377952755906
 20
-0.0216889763779528
 30
0.0
 10
1.1811377952755906
 20
-0.0216889763779528
 30
0.0
 10
1.1811377952755906
 20
-0.0216889763779528
 30
0.0
 10
1.1811377952755906
 20
-0.0216889763779528
 30
0.0
 10
1.2006614173228347
 20
-0.048755905511811
 30
0.0
 10
1.2006614173228347
 20
-0.048755905511811
 30
0.0
 10
1.2006614173228347
 20
-0.048755905511811
 30
0.0
 10
1.2006614173228347
 20
-0.048755905511811
 30
0.0
 10
0.5462874015748032
 20
-0.4106141732283465
 30
0.0
 10
0.5462874015748032
 20
-0.4106141732283465
 30
0.0
 10
0.5462874015748032
 20
-0.4106141732283465
 30
0.0
 10
0.5462874015748032
 20
-0.4106141732283465
 30
0.0
 10
0.526763779527559
 20
-0.3835472440944882
 30
0.0
 10
0.526763779527559
 20
-0.3835472440944882
 30
0.0
  0
SPLINE
  5
53
100
AcDbEntity
  8
Layer 1
 62
     9
100
AcDbSpline
210
0.0
220
0.0
230
1.0
 70
     1
 71
     3
 72
    20
 73
    16
 74
     0
 42
0.0000000001
 43
0.0000000001
 40
0.0
 40
0.0
 40
0.0
 40
0.0
 40
0.25
 40
0.25
 40
0.25
 40
0.25
 40
0.5
 40
0.5
 40
0.5
 40
0.5
 40
0.75
 40
0.75
 40
0.75
 40
0.75
 40
1.0
 40
1.0
 40
1.0
 40
1.0
 10
0.5462874015748032
 20
-0.4106141732283465
 30
0.0
 10
0.5462874015748032
 20
-0.4106141732283465
 30
0.0
 10
1.2006614173228347
 20
-0.048755905511811
 30
0.0
 10
1.2006614173228347
 20
-0.048755905511811
 30
0.0
 10
1.2006614173228347
 20
-0.048755905511811
 30
0.0
 10
1.2006614173228347
 20
-0.048755905511811
 30
0.0
 10
1.2180511811023622
 20
-0.0794566929133858
 30
0.0
 10
1.2180511811023622
 20
-0.0794566929133858
 30
0.0
 10
1.2180511811023622
 20
-0.0794566929133858
 30
0.0
 10
1.2180511811023622
 20
-0.0794566929133858
 30
0.0
 10
0.5636771653543308
 20
-0.4413149606299213
 30
0.0
 10
0.5636771653543308
 20
-0.4413149606299213
 30
0.0
 10
0.5636771653543308
 20
-0.4413149606299213
 30
0.0
 10
0.5636771653543308
 20
-0.4413149606299213
 30
0.0
 10
0.5462874015748032
 20
-0.4106141732283465
 30
0.0
 10
0.5462874015748032
 20
-0.4106141732283465
 30
0.0
  0
SPLINE
  5
54
100
AcDbEntity
  8
Layer 1
 62
     9
100
AcDbSpline
210
0.0
220
0.0
230
1.0
 70
     1
 71
     3
 72
    20
 73
    16
 74
     0
 42
0.0000000001
 43
0.0000000001
 40
0.0
 40
0.0
 40
0.0
 40
0.0
 40
0.25
 40
0.25
 40
0.25
 40
0.25
 40
0.5
 40
0.5
 40
0.5
 40
0.5
 40
0.75
 40
0.75
 40
0.75
 40
0.75
 40
1.0
 40
1.0
 40
1.0
 40
1.0
 10
0.5636771653543308
 20
-0.4413149606299213
 30
0.0
 10
0.5636771653543308
 20
-0.4413149606299213
 30
0.0
 10
1.2180511811023622
 20
-0.0794566929133858
 30
0.0
 10
1.2180511811023622
 20
-0.0794566929133858
 30
0.0
 10
1.2180511811023622
 20
-0.0794566929133858
 30
0.0
 10
1.2180511811023622
 20
-0.0794566929133858
 30
0.0
 10
1.2331850393700787
 20
-0.1140551181102362
 30
0.0
 10
1.2331850393700787
 20
-0.1140551181102362
 30
0.0
 10
1.2331850393700787
 20
-0.1140551181102362
 30
0.0
 10
1.2331850393700787
 20
-0.1140551181102362
 30
0.0
 10
0.5788110236220473
 20
-0.4759133858267717
 30
0.0
 10
0.5788110236220473
 20
-0.4759133858267717
 30
0.0
 10
0.5788110236220473
 20
-0.4759133858267717
 30
0.0
 10
0.5788110236220473
 20
-0.4759133858267717
 30
0.0
 10
0.5636771653543308
 20
-0.4413149606299213
 30
0.0
 10
0.5636771653543308
 20
-0.4413149606299213
 30
0.0
  0
SPLINE
  5
55
100
AcDbEntity
  8
Layer 1
370
     5
100
AcDbSpline
210
0.0
220
0.0
230
1.0
 70
     1
 71
     3
 72
   268
 73
   264
 74
     0
 42
0.0000000001
 43
0.0000000001
 40
0.0
 40
0.0
 40
0.0
 40
0.0
 40
0.0151515151515152
 40
0.0151515151515152
 40
0.0151515151515152
 40
0.0151515151515152
 40
0.0303030303030303
 40
0.0303030303030303
 40
0.0303030303030303
 40
0.0303030303030303
 40
0.0454545454545455
 40
0.0454545454545455
 40
0.0454545454545455
 40
0.0454545454545455
 40
0.0606060606060606
 40
0.0606060606060606
 40
0.0606060606060606
 40
0.0606060606060606
 40
0.0757575757575758
 40
0.0757575757575758
 40
0.0757575757575758
 40
0.0757575757575758
 40
0.0909090909090909
 40
0.0909090909090909
 40
0.0909090909090909
 40
0.0909090909090909
 40
0.1060606060606061
 40
0.1060606060606061
 40
0.1060606060606061
 40
0.1060606060606061
 40
0.1212121212121212
 40
0.1212121212121212
 40
0.1212121212121212
 40
0.1212121212121212
 40
0.1363636363636364
 40
0.1363636363636364
 40
0.1363636363636364
 40
0.1363636363636364
 40
0.1515151515151515
 40
0.1515151515151515
 40
0.1515151515151515
 40
0.1515151515151515
 40
0.1666666666666666
 40
0.1666666666666666
 40
0.1666666666666666
 40
0.1666666666666666
 40
0.1818181818181818
 40
0.1818181818181818
 40
0.1818181818181818
 40
0.1818181818181818
 40
0.1969696969696969
 40
0.1969696969696969
 40
0.1969696969696969
 40
0.1969696969696969
 40
0.212121212121212
 40
0.212121212121212
 40
0.212121212121212
 40
0.212121212121212
 40
0.2272727272727272
 40
0.2272727272727272
 40
0.2272727272727272
 40
0.2272727272727272
 40
0.2424242424242423
 40
0.2424242424242423
 40
0.2424242424242423
 40
0.2424242424242423
 40
0.2575757575757575
 40
0.2575757575757575
 40
0.2575757575757575
 40
0.2575757575757575
 40
0.2727272727272726
 40
0.2727272727272726
 40
0.2727272727272726
 40
0.2727272727272726
 40
0.2878787878787877
 40
0.2878787878787877
 40
0.2878787878787877
 40
0.2878787878787877
 40
0.3030303030303029
 40
0.3030303030303029
 40
0.3030303030303029
 40
0.3030303030303029
 40
0.318181818181818
 40
0.318181818181818
 40
0.318181818181818
 40
0.318181818181818
 40
0.3333333333333332
 40
0.3333333333333332
 40
0.3333333333333332
 40
0.3333333333333332
 40
0.3484848484848483
 40
0.3484848484848483
 40
0.3484848484848483
 40
0.3484848484848483
 40
0.3636363636363634
 40
0.3636363636363634
 40
0.3636363636363634
 40
0.3636363636363634
 40
0.3787878787878786
 40
0.3787878787878786
 40
0.3787878787878786
 40
0.3787878787878786
 40
0.3939393939393937
 40
0.3939393939393937
 40
0.3939393939393937
 40
0.3939393939393937
 40
0.4090909090909088
 40
0.4090909090909088
 40
0.4090909090909088
 40
0.4090909090909088
 40
0.424242424242424
 40
0.424242424242424
 40
0.424242424242424
 40
0.424242424242424
 40
0.4393939393939391
 40
0.4393939393939391
 40
0.4393939393939391
 40
0.4393939393939391
 40
0.4545454545454543
 40
0.4545454545454543
 40
0.4545454545454543
 40
0.4545454545454543
 40
0.4696969696969694
 40
0.4696969696969694
 40
0.4696969696969694
 40
0.4696969696969694
 40
0.4848484848484845
 40
0.4848484848484845
 40
0.4848484848484845
 40
0.4848484848484845
 40
0.4999999999999997
 40
0.4999999999999997
 40
0.4999999999999997
 40
0.4999999999999997
 40
0.5151515151515148
 40
0.5151515151515148
 40
0.5151515151515148
 40
0.5151515151515148
 40
0.5303030303030299
 40
0.5303030303030299
 40
0.5303030303030299
 40
0.5303030303030299
 40
0.5454545454545451
 40
0.5454545454545451
 40
0.5454545454545451
 40
0.5454545454545451
 40
0.5606060606060602
 40
0.5606060606060602
 40
0.5606060606060602
 40
0.5606060606060602
 40
0.5757575757575754
 40
0.5757575757575754
 40
0.5757575757575754
 40
0.5757575757575754
 40
0.5909090909090905
 40
0.5909090909090905
 40
0.5909090909090905
 40
0.5909090909090905
 40
0.6060606060606056
 40
0.6060606060606056
 40
0.6060606060606056
 40
0.6060606060606056
 40
0.6212121212121208
 40
0.6212121212121208
 40
0.6212121212121208
 40
0.6212121212121208
 40
0.6363636363636359
 40
0.6363636363636359
 40
0.6363636363636359
 40
0.6363636363636359
 40
0.6515151515151511
 40
0.6515151515151511
 40
0.6515151515151511
 40
0.6515151515151511
 40
0.6666666666666662
 40
0.6666666666666662
 40
0.6666666666666662
 40
0.6666666666666662
 40
0.6818181818181813
 40
0.6818181818181813
 40
0.6818181818181813
 40
0.6818181818181813
 40
0.6969696969696965
 40
0.6969696969696965
 40
0.6969696969696965
 40
0.6969696969696965
 40
0.7121212121212116
 40
0.7121212121212116
 40
0.7121212121212116
 40
0.7121212121212116
 40
0.7272727272727267
 40
0.7272727272727267
 40
0.7272727272727267
 40
0.7272727272727267
 40
0.7424242424242419
 40
0.7424242424242419
 40
0.7424242424242419
 40
0.7424242424242419
 40
0.757575757575757
 40
0.757575757575757
 40
0.757575757575757
 40
0.757575757575757
 40
0.7727272727272722
 40
0.7727272727272722
 40
0.7727272727272722
 40
0.7727272727272722
 40
0.7878787878787873
 40
0.7878787878787873
 40
0.7878787878787873
 40
0.7878787878787873
 40
0.8030303030303024
 40
0.8030303030303024
 40
0.8030303030303024
 40
0.8030303030303024
 40
0.8181818181818176
 40
0.8181818181818176
 40
0.8181818181818176
 40
0.8181818181818176
 40
0.8333333333333327
 40
0.8333333333333327
 40
0.8333333333333327
 40
0.8333333333333327
 40
0.8484848484848478
 40
0.8484848484848478
 40
0.8484848484848478
 40
0.8484848484848478
 40
0.863636363636363
 40
0.863636363636363
 40
0.863636363636363
 40
0.863636363636363
 40
0.8787878787878781
 40
0.8787878787878781
 40
0.8787878787878781
 40
0.8787878787878781
 40
0.8939393939393933
 40
0.8939393939393933
 40
0.8939393939393933
 40
0.8939393939393933
 40
0.9090909090909084
 40
0.9090909090909084
 40
0.9090909090909084
 40
0.9090909090909084
 40
0.9242424242424235
 40
0.9242424242424235
 40
0.9242424242424235
 40
0.9242424242424235
 40
0.9393939393939387
 40
0.9393939393939387
 40
0.9393939393939387
 40
0.9393939393939387
 40
0.9545454545454538
 40
0.9545454545454538
 40
0.9545454545454538
 40
0.9545454545454538
 40
0.969696969696969
 40
0.969696969696969
 40
0.969696969696969
 40
0.969696969696969
 40
0.9848484848484841
 40
0.9848484848484841
 40
0.9848484848484841
 40
0.9848484848484841
 40
1.0
 40
1.0
 40
1.0
 40
1.0
 10
-0.3566220472440945
 20
-0.0188267716535433
 30
0.0
 10
-0.3566220472440945
 20
-0.0188267716535433
 30
0.0
 10
0.297751968503937
 20
0.3430314960629922
 30
0.0
 10
0.297751968503937
 20
0.3430314960629922
 30
0.0
 10
0.297751968503937
 20
0.3430314960629922
 30
0.0
 10
0.297751968503937
 20
0.3430314960629922
 30
0.0
 10
0.3201062992125984
 20
0.3090433070866142
 30
0.0
 10
0.3201062992125984
 20
0.3090433070866142
 30
0.0
 10
0.3201062992125984
 20
0.3090433070866142
 30
0.0
 10
0.3201062992125984
 20
0.3090433070866142
 30
0.0
 10
0.3442598425196851
 20
0.2789015748031496
 30
0.0
 10
0.3442598425196851
 20
0.2789015748031496
 30
0.0
 10
0.3442598425196851
 20
0.2789015748031496
 30
0.0
 10
0.3442598425196851
 20
0.2789015748031496
 30
0.0
 10
0.3700708661417323
 20
0.2523622047244095
 30
0.0
 10
0.3700708661417323
 20
0.2523622047244095
 30
0.0
 10
0.3700708661417323
 20
0.2523622047244095
 30
0.0
 10
0.3700708661417323
 20
0.2523622047244095
 30
0.0
 10
0.3974173228346457
 20
0.2291496062992126
 30
0.0
 10
0.3974173228346457
 20
0.2291496062992126
 30
0.0
 10
0.3974173228346457
 20
0.2291496062992126
 30
0.0
 10
0.3974173228346457
 20
0.2291496062992126
 30
0.0
 10
0.4261456692913386
 20
0.2090236220472441
 30
0.0
 10
0.4261456692913386
 20
0.2090236220472441
 30
0.0
 10
0.4261456692913386
 20
0.2090236220472441
 30
0.0
 10
0.4261456692913386
 20
0.2090236220472441
 30
0.0
 10
0.4561338582677166
 20
0.1917125984251969
 30
0.0
 10
0.4561338582677166
 20
0.1917125984251969
 30
0.0
 10
0.4561338582677166
 20
0.1917125984251969
 30
0.0
 10
0.4561338582677166
 20
0.1917125984251969
 30
0.0
 10
0.487240157480315
 20
0.1769685039370079
 30
0.0
 10
0.487240157480315
 20
0.1769685039370079
 30
0.0
 10
0.487240157480315
 20
0.1769685039370079
 30
0.0
 10
0.487240157480315
 20
0.1769685039370079
 30
0.0
 10
0.5193425196850394
 20
0.1645196850393701
 30
0.0
 10
0.5193425196850394
 20
0.1645196850393701
 30
0.0
 10
0.5193425196850394
 20
0.1645196850393701
 30
0.0
 10
0.5193425196850394
 20
0.1645196850393701
 30
0.0
 10
0.5522834645669291
 20
0.1541299212598425
 30
0.0
 10
0.5522834645669291
 20
0.1541299212598425
 30
0.0
 10
0.5522834645669291
 20
0.1541299212598425
 30
0.0
 10
0.5522834645669291
 20
0.1541299212598425
 30
0.0
 10
0.5859409448818898
 20
0.1455236220472441
 30
0.0
 10
0.5859409448818898
 20
0.1455236220472441
 30
0.0
 10
0.5859409448818898
 20
0.1455236220472441
 30
0.0
 10
0.5859409448818898
 20
0.1455236220472441
 30
0.0
 10
0.6201771653543308
 20
0.1384448818897638
 30
0.0
 10
0.6201771653543308
 20
0.1384448818897638
 30
0.0
 10
0.6201771653543308
 20
0.1384448818897638
 30
0.0
 10
0.6201771653543308
 20
0.1384448818897638
 30
0.0
 10
0.6548622047244095
 20
0.1326377952755906
 30
0.0
 10
0.6548622047244095
 20
0.1326377952755906
 30
0.0
 10
0.6548622047244095
 20
0.1326377952755906
 30
0.0
 10
0.6548622047244095
 20
0.1326377952755906
 30
0.0
 10
0.6898464566929135
 20
0.1278464566929134
 30
0.0
 10
0.6898464566929135
 20
0.1278464566929134
 30
0.0
 10
0.6898464566929135
 20
0.1278464566929134
 30
0.0
 10
0.6898464566929135
 20
0.1278464566929134
 30
0.0
 10
0.7250118110236221
 20
0.1238070866141732
 30
0.0
 10
0.7250118110236221
 20
0.1238070866141732
 30
0.0
 10
0.7250118110236221
 20
0.1238070866141732
 30
0.0
 10
0.7250118110236221
 20
0.1238070866141732
 30
0.0
 10
0.7602086614173229
 20
0.1202677165354331
 30
0.0
 10
0.7602086614173229
 20
0.1202677165354331
 30
0.0
 10
0.7602086614173229
 20
0.1202677165354331
 30
0.0
 10
0.7602086614173229
 20
0.1202677165354331
 30
0.0
 10
0.7953149606299212
 20
0.1169606299212598
 30
0.0
 10
0.7953149606299212
 20
0.1169606299212598
 30
0.0
 10
0.7953149606299212
 20
0.1169606299212598
 30
0.0
 10
0.7953149606299212
 20
0.1169606299212598
 30
0.0
 10
0.8301771653543307
 20
0.1136456692913386
 30
0.0
 10
0.8301771653543307
 20
0.1136456692913386
 30
0.0
 10
0.8301771653543307
 20
0.1136456692913386
 30
0.0
 10
0.8301771653543307
 20
0.1136456692913386
 30
0.0
 10
0.8646771653543307
 20
0.1100433070866142
 30
0.0
 10
0.8646771653543307
 20
0.1100433070866142
 30
0.0
 10
0.8646771653543307
 20
0.1100433070866142
 30
0.0
 10
0.8646771653543307
 20
0.1100433070866142
 30
0.0
 10
0.8986692913385828
 20
0.1059094488188977
 30
0.0
 10
0.8986692913385828
 20
0.1059094488188977
 30
0.0
 10
0.8986692913385828
 20
0.1059094488188977
 30
0.0
 10
0.8986692913385828
 20
0.1059094488188977
 30
0.0
 10
0.9320314960629922
 20
0.1009803149606299
 30
0.0
 10
0.9320314960629922
 20
0.1009803149606299
 30
0.0
 10
0.9320314960629922
 20
0.1009803149606299
 30
0.0
 10
0.9320314960629922
 20
0.1009803149606299
 30
0.0
 10
0.9646062992125984
 20
0.095003937007874
 30
0.0
 10
0.9646062992125984
 20
0.095003937007874
 30
0.0
 10
0.9646062992125984
 20
0.095003937007874
 30
0.0
 10
0.9646062992125984
 20
0.095003937007874
 30
0.0
 10
0.9962795275590551
 20
0.0877125984251969
 30
0.0
 10
0.9962795275590551
 20
0.0877125984251969
 30
0.0
 10
0.9962795275590551
 20
0.0877125984251969
 30
0.0
 10
0.9962795275590551
 20
0.0877125984251969
 30
0.0
 10
1.0269055118110237
 20
0.0788543307086614
 30
0.0
 10
1.0269055118110237
 20
0.0788543307086614
 30
0.0
 10
1.0269055118110237
 20
0.0788543307086614
 30
0.0
 10
1.0269055118110237
 20
0.0788543307086614
 30
0.0
 10
1.0563582677165355
 20
0.0681653543307087
 30
0.0
 10
1.0563582677165355
 20
0.0681653543307087
 30
0.0
 10
1.0563582677165355
 20
0.0681653543307087
 30
0.0
 10
1.0563582677165355
 20
0.0681653543307087
 30
0.0
 10
1.0844842519685041
 20
0.0554015748031496
 30
0.0
 10
1.0844842519685041
 20
0.0554015748031496
 30
0.0
 10
1.0844842519685041
 20
0.0554015748031496
 30
0.0
 10
1.0844842519685041
 20
0.0554015748031496
 30
0.0
 10
1.1111653543307087
 20
0.0402874015748032
 30
0.0
 10
1.1111653543307087
 20
0.0402874015748032
 30
0.0
 10
1.1111653543307087
 20
0.0402874015748032
 30
0.0
 10
1.1111653543307087
 20
0.0402874015748032
 30
0.0
 10
1.1362559055118111
 20
0.0225748031496063
 30
0.0
 10
1.1362559055118111
 20
0.0225748031496063
 30
0.0
 10
1.1362559055118111
 20
0.0225748031496063
 30
0.0
 10
1.1362559055118111
 20
0.0225748031496063
 30
0.0
 10
1.1596299212598427
 20
0.002
 30
0.0
 10
1.1596299212598427
 20
0.002
 30
0.0
 10
1.1596299212598427
 20
0.002
 30
0.0
 10
1.1596299212598427
 20
0.002
 30
0.0
 10
1.1811377952755906
 20
-0.0216889763779528
 30
0.0
 10
1.1811377952755906
 20
-0.0216889763779528
 30
0.0
 10
1.1811377952755906
 20
-0.0216889763779528
 30
0.0
 10
1.1811377952755906
 20
-0.0216889763779528
 30
0.0
 10
1.2006614173228347
 20
-0.048755905511811
 30
0.0
 10
1.2006614173228347
 20
-0.048755905511811
 30
0.0
 10
1.2006614173228347
 20
-0.048755905511811
 30
0.0
 10
1.2006614173228347
 20
-0.048755905511811
 30
0.0
 10
1.2180511811023622
 20
-0.0794566929133858
 30
0.0
 10
1.2180511811023622
 20
-0.0794566929133858
 30
0.0
 10
1.2180511811023622
 20
-0.0794566929133858
 30
0.0
 10
1.2180511811023622
 20
-0.0794566929133858
 30
0.0
 10
1.2331850393700787
 20
-0.1140551181102362
 30
0.0
 10
1.2331850393700787
 20
-0.1140551181102362
 30
0.0
 10
1.2331850393700787
 20
-0.1140551181102362
 30
0.0
 10
1.2331850393700787
 20
-0.1140551181102362
 30
0.0
 10
0.5788110236220473
 20
-0.4759133858267717
 30
0.0
 10
0.5788110236220473
 20
-0.4759133858267717
 30
0.0
 10
0.5788110236220473
 20
-0.4759133858267717
 30
0.0
 10
0.5788110236220473
 20
-0.4759133858267717
 30
0.0
 10
0.5636771653543308
 20
-0.4413149606299213
 30
0.0
 10
0.5636771653543308
 20
-0.4413149606299213
 30
0.0
 10
0.5636771653543308
 20
-0.4413149606299213
 30
0.0
 10
0.5636771653543308
 20
-0.4413149606299213
 30
0.0
 10
0.5462874015748032
 20
-0.4106141732283465
 30
0.0
 10
0.5462874015748032
 20
-0.4106141732283465
 30
0.0
 10
0.5462874015748032
 20
-0.4106141732283465
 30
0.0
 10
0.5462874015748032
 20
-0.4106141732283465
 30
0.0
 10
0.526763779527559
 20
-0.3835472440944882
 30
0.0
 10
0.526763779527559
 20
-0.3835472440944882
 30
0.0
 10
0.526763779527559
 20
-0.3835472440944882
 30
0.0
 10
0.526763779527559
 20
-0.3835472440944882
 30
0.0
 10
0.505255905511811
 20
-0.3598582677165355
 30
0.0
 10
0.505255905511811
 20
-0.3598582677165355
 30
0.0
 10
0.505255905511811
 20
-0.3598582677165355
 30
0.0
 10
0.505255905511811
 20
-0.3598582677165355
 30
0.0
 10
0.4818818897637796
 20
-0.3392834645669292
 30
0.0
 10
0.4818818897637796
 20
-0.3392834645669292
 30
0.0
 10
0.4818818897637796
 20
-0.3392834645669292
 30
0.0
 10
0.4818818897637796
 20
-0.3392834645669292
 30
0.0
 10
0.4567913385826772
 20
-0.3215708661417323
 30
0.0
 10
0.4567913385826772
 20
-0.3215708661417323
 30
0.0
 10
0.4567913385826772
 20
-0.3215708661417323
 30
0.0
 10
0.4567913385826772
 20
-0.3215708661417323
 30
0.0
 10
0.4301102362204725
 20
-0.3064566929133858
 30
0.0
 10
0.4301102362204725
 20
-0.3064566929133858
 30
0.0
 10
0.4301102362204725
 20
-0.3064566929133858
 30
0.0
 10
0.4301102362204725
 20
-0.3064566929133858
 30
0.0
 10
0.401984251968504
 20
-0.2936929133858268
 30
0.0
 10
0.401984251968504
 20
-0.2936929133858268
 30
0.0
 10
0.401984251968504
 20
-0.2936929133858268
 30
0.0
 10
0.401984251968504
 20
-0.2936929133858268
 30
0.0
 10
0.3725314960629921
 20
-0.283003937007874
 30
0.0
 10
0.3725314960629921
 20
-0.283003937007874
 30
0.0
 10
0.3725314960629921
 20
-0.283003937007874
 30
0.0
 10
0.3725314960629921
 20
-0.283003937007874
 30
0.0
 10
0.3419055118110236
 20
-0.2741456692913386
 30
0.0
 10
0.3419055118110236
 20
-0.2741456692913386
 30
0.0
 10
0.3419055118110236
 20
-0.2741456692913386
 30
0.0
 10
0.3419055118110236
 20
-0.2741456692913386
 30
0.0
 10
0.3102322834645669
 20
-0.2668543307086614
 30
0.0
 10
0.3102322834645669
 20
-0.2668543307086614
 30
0.0
 10
0.3102322834645669
 20
-0.2668543307086614
 30
0.0
 10
0.3102322834645669
 20
-0.2668543307086614
 30
0.0
 10
0.2776574803149606
 20
-0.2608779527559055
 30
0.0
 10
0.2776574803149606
 20
-0.2608779527559055
 30
0.0
 10
0.2776574803149606
 20
-0.2608779527559055
 30
0.0
 10
0.2776574803149606
 20
-0.2608779527559055
 30
0.0
 10
0.2442952755905512
 20
-0.2559488188976378
 30
0.0
 10
0.2442952755905512
 20
-0.2559488188976378
 30
0.0
 10
0.2442952755905512
 20
-0.2559488188976378
 30
0.0
 10
0.2442952755905512
 20
-0.2559488188976378
 30
0.0
 10
0.2103031496062992
 20
-0.2518149606299213
 30
0.0
 10
0.2103031496062992
 20
-0.2518149606299213
 30
0.0
 10
0.2103031496062992
 20
-0.2518149606299213
 30
0.0
 10
0.2103031496062992
 20
-0.2518149606299213
 30
0.0
 10
0.1758031496062992
 20
-0.2482125984251969
 30
0.0
 10
0.1758031496062992
 20
-0.2482125984251969
 30
0.0
 10
0.1758031496062992
 20
-0.2482125984251969
 30
0.0
 10
0.1758031496062992
 20
-0.2482125984251969
 30
0.0
 10
0.1409409448818898
 20
-0.2448976377952756
 30
0.0
 10
0.1409409448818898
 20
-0.2448976377952756
 30
0.0
 10
0.1409409448818898
 20
-0.2448976377952756
 30
0.0
 10
0.1409409448818898
 20
-0.2448976377952756
 30
0.0
 10
0.1058346456692913
 20
-0.2415905511811024
 30
0.0
 10
0.1058346456692913
 20
-0.2415905511811024
 30
0.0
 10
0.1058346456692913
 20
-0.2415905511811024
 30
0.0
 10
0.1058346456692913
 20
-0.2415905511811024
 30
0.0
 10
0.0706377952755906
 20
-0.2380511811023622
 30
0.0
 10
0.0706377952755906
 20
-0.2380511811023622
 30
0.0
 10
0.0706377952755906
 20
-0.2380511811023622
 30
0.0
 10
0.0706377952755906
 20
-0.2380511811023622
 30
0.0
 10
0.0354724409448819
 20
-0.2340118110236221
 30
0.0
 10
0.0354724409448819
 20
-0.2340118110236221
 30
0.0
 10
0.0354724409448819
 20
-0.2340118110236221
 30
0.0
 10
0.0354724409448819
 20
-0.2340118110236221
 30
0.0
 10
0.000488188976378
 20
-0.2292204724409449
 30
0.0
 10
0.000488188976378
 20
-0.2292204724409449
 30
0.0
 10
0.000488188976378
 20
-0.2292204724409449
 30
0.0
 10
0.000488188976378
 20
-0.2292204724409449
 30
0.0
 10
-0.0341968503937008
 20
-0.2234133858267717
 30
0.0
 10
-0.0341968503937008
 20
-0.2234133858267717
 30
0.0
 10
-0.0341968503937008
 20
-0.2234133858267717
 30
0.0
 10
-0.0341968503937008
 20
-0.2234133858267717
 30
0.0
 10
-0.0684330708661417
 20
-0.2163346456692913
 30
0.0
 10
-0.0684330708661417
 20
-0.2163346456692913
 30
0.0
 10
-0.0684330708661417
 20
-0.2163346456692913
 30
0.0
 10
-0.0684330708661417
 20
-0.2163346456692913
 30
0.0
 10
-0.1020905511811024
 20
-0.2077283464566929
 30
0.0
 10
-0.1020905511811024
 20
-0.2077283464566929
 30
0.0
 10
-0.1020905511811024
 20
-0.2077283464566929
 30
0.0
 10
-0.1020905511811024
 20
-0.2077283464566929
 30
0.0
 10
-0.1350314960629921
 20
-0.1973385826771654
 30
0.0
 10
-0.1350314960629921
 20
-0.1973385826771654
 30
0.0
 10
-0.1350314960629921
 20
-0.1973385826771654
 30
0.0
 10
-0.1350314960629921
 20
-0.1973385826771654
 30
0.0
 10
-0.1671338582677165
 20
-0.1848897637795276
 30
0.0
 10
-0.1671338582677165
 20
-0.1848897637795276
 30
0.0
 10
-0.1671338582677165
 20
-0.1848897637795276
 30
0.0
 10
-0.1671338582677165
 20
-0.1848897637795276
 30
0.0
 10
-0.198240157480315
 20
-0.1701456692913386
 30
0.0
 10
-0.198240157480315
 20
-0.1701456692913386
 30
0.0
 10
-0.198240157480315
 20
-0.1701456692913386
 30
0.0
 10
-0.198240157480315
 20
-0.1701456692913386
 30
0.0
 10
-0.2282283464566929
 20
-0.1528346456692913
 30
0.0
 10
-0.2282283464566929
 20
-0.1528346456692913
 30
0.0
 10
-0.2282283464566929
 20
-0.1528346456692913
 30
0.0
 10
-0.2282283464566929
 20
-0.1528346456692913
 30
0.0
 10
-0.2569566929133859
 20
-0.1327086614173229
 30
0.0
 10
-0.2569566929133859
 20
-0.1327086614173229
 30
0.0
 10
-0.2569566929133859
 20
-0.1327086614173229
 30
0.0
 10
-0.2569566929133859
 20
-0.1327086614173229
 30
0.0
 10
-0.2843031496062992
 20
-0.109496062992126
 30
0.0
 10
-0.2843031496062992
 20
-0.109496062992126
 30
0.0
 10
-0.2843031496062992
 20
-0.109496062992126
 30
0.0
 10
-0.2843031496062992
 20
-0.109496062992126
 30
0.0
 10
-0.3101141732283465
 20
-0.0829566929133858
 30
0.0
 10
-0.3101141732283465
 20
-0.0829566929133858
 30
0.0
 10
-0.3101141732283465
 20
-0.0829566929133858
 30
0.0
 10
-0.3101141732283465
 20
-0.0829566929133858
 30
0.0
 10
-0.3342677165354331
 20
-0.0528149606299213
 30
0.0
 10
-0.3342677165354331
 20
-0.0528149606299213
 30
0.0
 10
-0.3342677165354331
 20
-0.0528149606299213
 30
0.0
 10
-0.3342677165354331
 20
-0.0528149606299213
 30
0.0
 10
-0.3566220472440945
 20
-0.0188267716535433
 30
0.0
 10
-0.3566220472440945
 20
-0.0188267716535433
 30
0.0
  0
SPLINE
  5
56
100
AcDbEntity
  8
Layer 1
 62
   252
100
AcDbSpline
210
0.0
220
0.0
230
1.0
 70
     1
 71
     3
 72
    20
 73
    16
 74
     0
 42
0.0000000001
 43
0.0000000001
 40
0.0
 40
0.0
 40
0.0
 40
0.0
 40
0.25
 40
0.25
 40
0.25
 40
0.25
 40
0.5
 40
0.5
 40
0.5
 40
0.5
 40
0.75
 40
0.75
 40
0.75
 40
0.75
 40
1.0
 40
1.0
 40
1.0
 40
1.0
 10
0.5788110236220473
 20
-0.4759133858267717
 30
0.0
 10
0.5788110236220473
 20
-0.4759133858267717
 30
0.0
 10
1.2331850393700787
 20
-0.1140551181102362
 30
0.0
 10
1.2331850393700787
 20
-0.1140551181102362
 30
0.0
 10
1.2331850393700787
 20
-0.1140551181102362
 30
0.0
 10
1.2331850393700787
 20
-0.1140551181102362
 30
0.0
 10
1.6371574803149607
 20
-0.1140551181102362
 30
0.0
 10
1.6371574803149607
 20
-0.1140551181102362
 30
0.0
 10
1.6371574803149607
 20
-0.1140551181102362
 30
0.0
 10
1.6371574803149607
 20
-0.1140551181102362
 30
0.0
 10
0.9827834645669292
 20
-0.4759133858267717
 30
0.0
 10
0.9827834645669292
 20
-0.4759133858267717
 30
0.0
 10
0.9827834645669292
 20
-0.4759133858267717
 30
0.0
 10
0.9827834645669292
 20
-0.4759133858267717
 30
0.0
 10
0.5788110236220473
 20
-0.4759133858267717
 30
0.0
 10
0.5788110236220473
 20
-0.4759133858267717
 30
0.0
  0
SPLINE
  5
57
100
AcDbEntity
  8
Layer 1
370
     5
100
AcDbSpline
210
0.0
220
0.0
230
1.0
 70
     1
 71
     3
 72
    20
 73
    16
 74
     0
 42
0.0000000001
 43
0.0000000001
 40
0.0
 40
0.0
 40
0.0
 40
0.0
 40
0.25
 40
0.25
 40
0.25
 40
0.25
 40
0.5
 40
0.5
 40
0.5
 40
0.5
 40
0.75
 40
0.75
 40
0.75
 40
0.75
 40
1.0
 40
1.0
 40
1.0
 40
1.0
 10
0.5788110236220473
 20
-0.4759133858267717
 30
0.0
 10
0.5788110236220473
 20
-0.4759133858267717
 30
0.0
 10
1.2331850393700787
 20
-0.1140551181102362
 30
0.0
 10
1.2331850393700787
 20
-0.1140551181102362
 30
0.0
 10
1.2331850393700787
 20
-0.1140551181102362
 30
0.0
 10
1.2331850393700787
 20
-0.1140551181102362
 30
0.0
 10
1.6371574803149607
 20
-0.1140551181102362
 30
0.0
 10
1.6371574803149607
 20
-0.1140551181102362
 30
0.0
 10
1.6371574803149607
 20
-0.1140551181102362
 30
0.0
 10
1.6371574803149607
 20
-0.1140551181102362
 30
0.0
 10
0.9827834645669292
 20
-0.4759133858267717
 30
0.0
 10
0.9827834645669292
 20
-0.4759133858267717
 30
0.0
 10
0.9827834645669292
 20
-0.4759133858267717
 30
0.0
 10
0.9827834645669292
 20
-0.4759133858267717
 30
0.0
 10
0.5788110236220473
 20
-0.4759133858267717
 30
0.0
 10
0.5788110236220473
 20
-0.4759133858267717
 30
0.0
  0
SPLINE
  5
58
100
AcDbEntity
  8
Layer 1
 62
     9
100
AcDbSpline
210
0.0
220
0.0
230
1.0
 70
     1
 71
     3
 72
    20
 73
    16
 74
     0
 42
0.0000000001
 43
0.0000000001
 40
0.0
 40
0.0
 40
0.0
 40
0.0
 40
0.25
 40
0.25
 40
0.25
 40
0.25
 40
0.5
 40
0.5
 40
0.5
 40
0.5
 40
0.75
 40
0.75
 40
0.75
 40
0.75
 40
1.0
 40
1.0
 40
1.0
 40
1.0
 10
0.9827834645669292
 20
-0.4759133858267717
 30
0.0
 10
0.9827834645669292
 20
-0.4759133858267717
 30
0.0
 10
1.6371574803149607
 20
-0.1140551181102362
 30
0.0
 10
1.6371574803149607
 20
-0.1140551181102362
 30
0.0
 10
1.6371574803149607
 20
-0.1140551181102362
 30
0.0
 10
1.6371574803149607
 20
-0.1140551181102362
 30
0.0
 10
1.6371574803149607
 20
-0.4136889763779528
 30
0.0
 10
1.6371574803149607
 20
-0.4136889763779528
 30
0.0
 10
1.6371574803149607
 20
-0.4136889763779528
 30
0.0
 10
1.6371574803149607
 20
-0.4136889763779528
 30
0.0
 10
0.9827834645669292
 20
-0.7755472440944882
 30
0.0
 10
0.9827834645669292
 20
-0.7755472440944882
 30
0.0
 10
0.9827834645669292
 20
-0.7755472440944882
 30
0.0
 10
0.9827834645669292
 20
-0.7755472440944882
 30
0.0
 10
0.9827834645669292
 20
-0.4759133858267717
 30
0.0
 10
0.9827834645669292
 20
-0.4759133858267717
 30
0.0
  0
SPLINE
  5
59
100
AcDbEntity
  8
Layer 1
370
     5
100
AcDbSpline
210
0.0
220
0.0
230
1.0
 70
     1
 71
     3
 72
    20
 73
    16
 74
     0
 42
0.0000000001
 43
0.0000000001
 40
0.0
 40
0.0
 40
0.0
 40
0.0
 40
0.25
 40
0.25
 40
0.25
 40
0.25
 40
0.5
 40
0.5
 40
0.5
 40
0.5
 40
0.75
 40
0.75
 40
0.75
 40
0.75
 40
1.0
 40
1.0
 40
1.0
 40
1.0
 10
0.9827834645669292
 20
-0.4759133858267717
 30
0.0
 10
0.9827834645669292
 20
-0.4759133858267717
 30
0.0
 10
1.6371574803149607
 20
-0.1140551181102362
 30
0.0
 10
1.6371574803149607
 20
-0.1140551181102362
 30
0.0
 10
1.6371574803149607
 20
-0.1140551181102362
 30
0.0
 10
1.6371574803149607
 20
-0.1140551181102362
 30
0.0
 10
1.6371574803149607
 20
-0.4136889763779528
 30
0.0
 10
1.6371574803149607
 20
-0.4136889763779528
 30
0.0
 10
1.6371574803149607
 20
-0.4136889763779528
 30
0.0
 10
1.6371574803149607
 20
-0.4136889763779528
 30
0.0
 10
0.9827834645669292
 20
-0.7755472440944882
 30
0.0
 10
0.9827834645669292
 20
-0.7755472440944882
 30
0.0
 10
0.9827834645669292
 20
-0.7755472440944882
 30
0.0
 10
0.9827834645669292
 20
-0.7755472440944882
 30
0.0
 10
0.9827834645669292
 20
-0.4759133858267717
 30
0.0
 10
0.9827834645669292
 20
-0.4759133858267717
 30
0.0
  0
SPLINE
  5
5A
100
AcDbEntity
  8
Layer 1
100
AcDbSpline
210
0.0
220
0.0
230
1.0
 70
     1
 71
     3
 72
    28
 73
    24
 74
     0
 42
0.0000000001
 43
0.0000000001
 40
0.0
 40
0.0
 40
0.0
 40
0.0
 40
0.1666666666666667
 40
0.1666666666666667
 40
0.1666666666666667
 40
0.1666666666666667
 40
0.3333333333333333
 40
0.3333333333333333
 40
0.3333333333333333
 40
0.3333333333333333
 40
0.5
 40
0.5
 40
0.5
 40
0.5
 40
0.6666666666666666
 40
0.6666666666666666
 40
0.6666666666666666
 40
0.6666666666666666
 40
0.8333333333333333
 40
0.8333333333333333
 40
0.8333333333333333
 40
0.8333333333333333
 40
1.0
 40
1.0
 40
1.0
 40
1.0
 10
-1.3650905511811025
 20
-0.5636062992125984
 30
0.0
 10
-1.3650905511811025
 20
-0.5636062992125984
 30
0.0
 10
-0.7107165354330709
 20
-0.201748031496063
 30
0.0
 10
-0.7107165354330709
 20
-0.201748031496063
 30
0.0
 10
-0.7107165354330709
 20
-0.201748031496063
 30
0.0
 10
-0.7107165354330709
 20
-0.201748031496063
 30
0.0
 10
-0.6893582677165354
 20
-0.1919330708661418
 30
0.0
 10
-0.6893582677165354
 20
-0.1919330708661418
 30
0.0
 10
-0.6893582677165354
 20
-0.1919330708661418
 30
0.0
 10
-0.6893582677165354
 20
-0.1919330708661418
 30
0.0
 10
-0.666736220472441
 20
-0.1831850393700787
 30
0.0
 10
-0.666736220472441
 20
-0.1831850393700787
 30
0.0
 10
-0.666736220472441
 20
-0.1831850393700787
 30
0.0
 10
-0.666736220472441
 20
-0.1831850393700787
 30
0.0
 10
-1.3211102362204725
 20
-0.5450433070866142
 30
0.0
 10
-1.3211102362204725
 20
-0.5450433070866142
 30
0.0
 10
-1.3211102362204725
 20
-0.5450433070866142
 30
0.0
 10
-1.3211102362204725
 20
-0.5450433070866142
 30
0.0
 10
-1.3437322834645671
 20
-0.5537913385826772
 30
0.0
 10
-1.3437322834645671
 20
-0.5537913385826772
 30
0.0
 10
-1.3437322834645671
 20
-0.5537913385826772
 30
0.0
 10
-1.3437322834645671
 20
-0.5537913385826772
 30
0.0
 10
-1.3650905511811025
 20
-0.5636062992125984
 30
0.0
 10
-1.3650905511811025
 20
-0.5636062992125984
 30
0.0
  0
SPLINE
  5
5B
100
AcDbEntity
  8
Layer 1
 62
   118
100
AcDbSpline
210
0.0
220
0.0
230
1.0
 70
     1
 71
     3
 72
    20
 73
    16
 74
     0
 42
0.0000000001
 43
0.0000000001
 40
0.0
 40
0.0
 40
0.0
 40
0.0
 40
0.25
 40
0.25
 40
0.25
 40
0.25
 40
0.5
 40
0.5
 40
0.5
 40
0.5
 40
0.75
 40
0.75
 40
0.75
 40
0.75
 40
1.0
 40
1.0
 40
1.0
 40
1.0
 10
-1.3211102362204725
 20
-0.5450433070866142
 30
0.0
 10
-1.3211102362204725
 20
-0.5450433070866142
 30
0.0
 10
-0.666736220472441
 20
-0.1831850393700787
 30
0.0
 10
-0.666736220472441
 20
-0.1831850393700787
 30
0.0
 10
-0.666736220472441
 20
-0.1831850393700787
 30
0.0
 10
-0.666736220472441
 20
-0.1831850393700787
 30
0.0
 10
-0.6430551181102362
 20
-0.1751732283464567
 30
0.0
 10
-0.6430551181102362
 20
-0.1751732283464567
 30
0.0
 10
-0.6430551181102362
 20
-0.1751732283464567
 30
0.0
 10
-0.6430551181102362
 20
-0.1751732283464567
 30
0.0
 10
-1.2974291338582677
 20
-0.5370314960629922
 30
0.0
 10
-1.2974291338582677
 20
-0.5370314960629922
 30
0.0
 10
-1.2974291338582677
 20
-0.5370314960629922
 30
0.0
 10
-1.2974291338582677
 20
-0.5370314960629922
 30
0.0
 10
-1.3211102362204725
 20
-0.5450433070866142
 30
0.0
 10
-1.3211102362204725
 20
-0.5450433070866142
 30
0.0
  0
SPLINE
  5
5C
100
AcDbEntity
  8
Layer 1
 62
   118
100
AcDbSpline
210
0.0
220
0.0
230
1.0
 70
     1
 71
     3
 72
    20
 73
    16
 74
     0
 42
0.0000000001
 43
0.0000000001
 40
0.0
 40
0.0
 40
0.0
 40
0.0
 40
0.25
 40
0.25
 40
0.25
 40
0.25
 40
0.5
 40
0.5
 40
0.5
 40
0.5
 40
0.75
 40
0.75
 40
0.75
 40
0.75
 40
1.0
 40
1.0
 40
1.0
 40
1.0
 10
-1.2974291338582677
 20
-0.5370314960629922
 30
0.0
 10
-1.2974291338582677
 20
-0.5370314960629922
 30
0.0
 10
-0.6430551181102362
 20
-0.1751732283464567
 30
0.0
 10
-0.6430551181102362
 20
-0.1751732283464567
 30
0.0
 10
-0.6430551181102362
 20
-0.1751732283464567
 30
0.0
 10
-0.6430551181102362
 20
-0.1751732283464567
 30
0.0
 10
-0.618484251968504
 20
-0.1675354330708662
 30
0.0
 10
-0.618484251968504
 20
-0.1675354330708662
 30
0.0
 10
-0.618484251968504
 20
-0.1675354330708662
 30
0.0
 10
-0.618484251968504
 20
-0.1675354330708662
 30
0.0
 10
-1.2728582677165354
 20
-0.5293937007874016
 30
0.0
 10
-1.2728582677165354
 20
-0.5293937007874016
 30
0.0
 10
-1.2728582677165354
 20
-0.5293937007874016
 30
0.0
 10
-1.2728582677165354
 20
-0.5293937007874016
 30
0.0
 10
-1.2974291338582677
 20
-0.5370314960629922
 30
0.0
 10
-1.2974291338582677
 20
-0.5370314960629922
 30
0.0
  0
SPLINE
  5
5D
100
AcDbEntity
  8
Layer 1
 62
   109
100
AcDbSpline
210
0.0
220
0.0
230
1.0
 70
     1
 71
     3
 72
    20
 73
    16
 74
     0
 42
0.0000000001
 43
0.0000000001
 40
0.0
 40
0.0
 40
0.0
 40
0.0
 40
0.25
 40
0.25
 40
0.25
 40
0.25
 40
0.5
 40
0.5
 40
0.5
 40
0.5
 40
0.75
 40
0.75
 40
0.75
 40
0.75
 40
1.0
 40
1.0
 40
1.0
 40
1.0
 10
-1.2728582677165354
 20
-0.5293937007874016
 30
0.0
 10
-1.2728582677165354
 20
-0.5293937007874016
 30
0.0
 10
-0.618484251968504
 20
-0.1675354330708662
 30
0.0
 10
-0.618484251968504
 20
-0.1675354330708662
 30
0.0
 10
-0.618484251968504
 20
-0.1675354330708662
 30
0.0
 10
-0.618484251968504
 20
-0.1675354330708662
 30
0.0
 10
-0.593236220472441
 20
-0.1599448818897638
 30
0.0
 10
-0.593236220472441
 20
-0.1599448818897638
 30
0.0
 10
-0.593236220472441
 20
-0.1599448818897638
 30
0.0
 10
-0.593236220472441
 20
-0.1599448818897638
 30
0.0
 10
-1.2476102362204724
 20
-0.5218031496062993
 30
0.0
 10
-1.2476102362204724
 20
-0.5218031496062993
 30
0.0
 10
-1.2476102362204724
 20
-0.5218031496062993
 30
0.0
 10
-1.2476102362204724
 20
-0.5218031496062993
 30
0.0
 10
-1.2728582677165354
 20
-0.5293937007874016
 30
0.0
 10
-1.2728582677165354
 20
-0.5293937007874016
 30
0.0
  0
SPLINE
  5
5E
100
AcDbEntity
  8
Layer 1
 62
   109
100
AcDbSpline
210
0.0
220
0.0
230
1.0
 70
     1
 71
     3
 72
    20
 73
    16
 74
     0
 42
0.0000000001
 43
0.0000000001
 40
0.0
 40
0.0
 40
0.0
 40
0.0
 40
0.25
 40
0.25
 40
0.25
 40
0.25
 40
0.5
 40
0.5
 40
0.5
 40
0.5
 40
0.75
 40
0.75
 40
0.75
 40
0.75
 40
1.0
 40
1.0
 40
1.0
 40
1.0
 10
-1.2476102362204724
 20
-0.5218031496062993
 30
0.0
 10
-1.2476102362204724
 20
-0.5218031496062993
 30
0.0
 10
-0.593236220472441
 20
-0.1599448818897638
 30
0.0
 10
-0.593236220472441
 20
-0.1599448818897638
 30
0.0
 10
-0.593236220472441
 20
-0.1599448818897638
 30
0.0
 10
-0.593236220472441
 20
-0.1599448818897638
 30
0.0
 10
-0.5674842519685039
 20
-0.1520433070866142
 30
0.0
 10
-0.5674842519685039
 20
-0.1520433070866142
 30
0.0
 10
-0.5674842519685039
 20
-0.1520433070866142
 30
0.0
 10
-0.5674842519685039
 20
-0.1520433070866142
 30
0.0
 10
-1.2218582677165355
 20
-0.5139015748031496
 30
0.0
 10
-1.2218582677165355
 20
-0.5139015748031496
 30
0.0
 10
-1.2218582677165355
 20
-0.5139015748031496
 30
0.0
 10
-1.2218582677165355
 20
-0.5139015748031496
 30
0.0
 10
-1.2476102362204724
 20
-0.5218031496062993
 30
0.0
 10
-1.2476102362204724
 20
-0.5218031496062993
 30
0.0
  0
SPLINE
  5
5F
100
AcDbEntity
  8
Layer 1
 62
   118
100
AcDbSpline
210
0.0
220
0.0
230
1.0
 70
     1
 71
     3
 72
    20
 73
    16
 74
     0
 42
0.0000000001
 43
0.0000000001
 40
0.0
 40
0.0
 40
0.0
 40
0.0
 40
0.25
 40
0.25
 40
0.25
 40
0.25
 40
0.5
 40
0.5
 40
0.5
 40
0.5
 40
0.75
 40
0.75
 40
0.75
 40
0.75
 40
1.0
 40
1.0
 40
1.0
 40
1.0
 10
-1.2218582677165355
 20
-0.5139015748031496
 30
0.0
 10
-1.2218582677165355
 20
-0.5139015748031496
 30
0.0
 10
-0.5674842519685039
 20
-0.1520433070866142
 30
0.0
 10
-0.5674842519685039
 20
-0.1520433070866142
 30
0.0
 10
-0.5674842519685039
 20
-0.1520433070866142
 30
0.0
 10
-0.5674842519685039
 20
-0.1520433070866142
 30
0.0
 10
-0.5414251968503937
 20
-0.1435
 30
0.0
 10
-0.5414251968503937
 20
-0.1435
 30
0.0
 10
-0.5414251968503937
 20
-0.1435
 30
0.0
 10
-0.5414251968503937
 20
-0.1435
 30
0.0
 10
-1.1957992125984251
 20
-0.5053582677165355
 30
0.0
 10
-1.1957992125984251
 20
-0.5053582677165355
 30
0.0
 10
-1.1957992125984251
 20
-0.5053582677165355
 30
0.0
 10
-1.1957992125984251
 20
-0.5053582677165355
 30
0.0
 10
-1.2218582677165355
 20
-0.5139015748031496
 30
0.0
 10
-1.2218582677165355
 20
-0.5139015748031496
 30
0.0
  0
SPLINE
  5
60
100
AcDbEntity
  8
Layer 1
100
AcDbSpline
210
0.0
220
0.0
230
1.0
 70
     1
 71
     3
 72
    20
 73
    16
 74
     0
 42
0.0000000001
 43
0.0000000001
 40
0.0
 40
0.0
 40
0.0
 40
0.0
 40
0.25
 40
0.25
 40
0.25
 40
0.25
 40
0.5
 40
0.5
 40
0.5
 40
0.5
 40
0.75
 40
0.75
 40
0.75
 40
0.75
 40
1.0
 40
1.0
 40
1.0
 40
1.0
 10
-1.1957992125984251
 20
-0.5053582677165355
 30
0.0
 10
-1.1957992125984251
 20
-0.5053582677165355
 30
0.0
 10
-0.5414251968503937
 20
-0.1435
 30
0.0
 10
-0.5414251968503937
 20
-0.1435
 30
0.0
 10
-0.5414251968503937
 20
-0.1435
 30
0.0
 10
-0.5414251968503937
 20
-0.1435
 30
0.0
 10
-0.515236220472441
 20
-0.1339527559055118
 30
0.0
 10
-0.515236220472441
 20
-0.1339527559055118
 30
0.0
 10
-0.515236220472441
 20
-0.1339527559055118
 30
0.0
 10
-0.515236220472441
 20
-0.1339527559055118
 30
0.0
 10
-1.1696102362204726
 20
-0.4958110236220473
 30
0.0
 10
-1.1696102362204726
 20
-0.4958110236220473
 30
0.0
 10
-1.1696102362204726
 20
-0.4958110236220473
 30
0.0
 10
-1.1696102362204726
 20
-0.4958110236220473
 30
0.0
 10
-1.1957992125984251
 20
-0.5053582677165355
 30
0.0
 10
-1.1957992125984251
 20
-0.5053582677165355
 30
0.0
  0
SPLINE
  5
61
100
AcDbEntity
  8
Layer 1
100
AcDbSpline
210
0.0
220
0.0
230
1.0
 70
     1
 71
     3
 72
    20
 73
    16
 74
     0
 42
0.0000000001
 43
0.0000000001
 40
0.0
 40
0.0
 40
0.0
 40
0.0
 40
0.25
 40
0.25
 40
0.25
 40
0.25
 40
0.5
 40
0.5
 40
0.5
 40
0.5
 40
0.75
 40
0.75
 40
0.75
 40
0.75
 40
1.0
 40
1.0
 40
1.0
 40
1.0
 10
-1.1696102362204726
 20
-0.4958110236220473
 30
0.0
 10
-1.1696102362204726
 20
-0.4958110236220473
 30
0.0
 10
-0.515236220472441
 20
-0.1339527559055118
 30
0.0
 10
-0.515236220472441
 20
-0.1339527559055118
 30
0.0
 10
-0.515236220472441
 20
-0.1339527559055118
 30
0.0
 10
-0.515236220472441
 20
-0.1339527559055118
 30
0.0
 10
-0.4891181102362205
 20
-0.1230748031496063
 30
0.0
 10
-0.4891181102362205
 20
-0.1230748031496063
 30
0.0
 10
-0.4891181102362205
 20
-0.1230748031496063
 30
0.0
 10
-0.4891181102362205
 20
-0.1230748031496063
 30
0.0
 10
-1.1434921259842521
 20
-0.4849330708661417
 30
0.0
 10
-1.1434921259842521
 20
-0.4849330708661417
 30
0.0
 10
-1.1434921259842521
 20
-0.4849330708661417
 30
0.0
 10
-1.1434921259842521
 20
-0.4849330708661417
 30
0.0
 10
-1.1696102362204726
 20
-0.4958110236220473
 30
0.0
 10
-1.1696102362204726
 20
-0.4958110236220473
 30
0.0
  0
SPLINE
  5
62
100
AcDbEntity
  8
Layer 1
100
AcDbSpline
210
0.0
220
0.0
230
1.0
 70
     1
 71
     3
 72
    20
 73
    16
 74
     0
 42
0.0000000001
 43
0.0000000001
 40
0.0
 40
0.0
 40
0.0
 40
0.0
 40
0.25
 40
0.25
 40
0.25
 40
0.25
 40
0.5
 40
0.5
 40
0.5
 40
0.5
 40
0.75
 40
0.75
 40
0.75
 40
0.75
 40
1.0
 40
1.0
 40
1.0
 40
1.0
 10
-1.1434921259842521
 20
-0.4849330708661417
 30
0.0
 10
-1.1434921259842521
 20
-0.4849330708661417
 30
0.0
 10
-0.4891181102362205
 20
-0.1230748031496063
 30
0.0
 10
-0.4891181102362205
 20
-0.1230748031496063
 30
0.0
 10
-0.4891181102362205
 20
-0.1230748031496063
 30
0.0
 10
-0.4891181102362205
 20
-0.1230748031496063
 30
0.0
 10
-0.4632559055118111
 20
-0.1105118110236221
 30
0.0
 10
-0.4632559055118111
 20
-0.1105118110236221
 30
0.0
 10
-0.4632559055118111
 20
-0.1105118110236221
 30
0.0
 10
-0.4632559055118111
 20
-0.1105118110236221
 30
0.0
 10
-1.1176299212598426
 20
-0.4723700787401575
 30
0.0
 10
-1.1176299212598426
 20
-0.4723700787401575
 30
0.0
 10
-1.1176299212598426
 20
-0.4723700787401575
 30
0.0
 10
-1.1176299212598426
 20
-0.4723700787401575
 30
0.0
 10
-1.1434921259842521
 20
-0.4849330708661417
 30
0.0
 10
-1.1434921259842521
 20
-0.4849330708661417
 30
0.0
  0
SPLINE
  5
63
100
AcDbEntity
  8
Layer 1
370
     5
100
AcDbSpline
210
0.0
220
0.0
230
1.0
 70
     1
 71
     3
 72
    92
 73
    88
 74
     0
 42
0.0000000001
 43
0.0000000001
 40
0.0
 40
0.0
 40
0.0
 40
0.0
 40
0.0454545454545455
 40
0.0454545454545455
 40
0.0454545454545455
 40
0.0454545454545455
 40
0.0909090909090909
 40
0.0909090909090909
 40
0.0909090909090909
 40
0.0909090909090909
 40
0.1363636363636364
 40
0.1363636363636364
 40
0.1363636363636364
 40
0.1363636363636364
 40
0.1818181818181818
 40
0.1818181818181818
 40
0.1818181818181818
 40
0.1818181818181818
 40
0.2272727272727273
 40
0.2272727272727273
 40
0.2272727272727273
 40
0.2272727272727273
 40
0.2727272727272728
 40
0.2727272727272728
 40
0.2727272727272728
 40
0.2727272727272728
 40
0.3181818181818182
 40
0.3181818181818182
 40
0.3181818181818182
 40
0.3181818181818182
 40
0.3636363636363637
 40
0.3636363636363637
 40
0.3636363636363637
 40
0.3636363636363637
 40
0.4090909090909092
 40
0.4090909090909092
 40
0.4090909090909092
 40
0.4090909090909092
 40
0.4545454545454546
 40
0.4545454545454546
 40
0.4545454545454546
 40
0.4545454545454546
 40
0.5000000000000001
 40
0.5000000000000001
 40
0.5000000000000001
 40
0.5000000000000001
 40
0.5454545454545455
 40
0.5454545454545455
 40
0.5454545454545455
 40
0.5454545454545455
 40
0.5909090909090909
 40
0.5909090909090909
 40
0.5909090909090909
 40
0.5909090909090909
 40
0.6363636363636364
 40
0.6363636363636364
 40
0.6363636363636364
 40
0.6363636363636364
 40
0.6818181818181818
 40
0.6818181818181818
 40
0.6818181818181818
 40
0.6818181818181818
 40
0.7272727272727272
 40
0.7272727272727272
 40
0.7272727272727272
 40
0.7272727272727272
 40
0.7727272727272726
 40
0.7727272727272726
 40
0.7727272727272726
 40
0.7727272727272726
 40
0.818181818181818
 40
0.818181818181818
 40
0.818181818181818
 40
0.818181818181818
 40
0.8636363636363634
 40
0.8636363636363634
 40
0.8636363636363634
 40
0.8636363636363634
 40
0.9090909090909088
 40
0.9090909090909088
 40
0.9090909090909088
 40
0.9090909090909088
 40
0.9545454545454543
 40
0.9545454545454543
 40
0.9545454545454543
 40
0.9545454545454543
 40
1.0
 40
1.0
 40
1.0
 40
1.0
 10
-1.3650905511811025
 20
-0.5636062992125984
 30
0.0
 10
-1.3650905511811025
 20
-0.5636062992125984
 30
0.0
 10
-0.7107165354330709
 20
-0.201748031496063
 30
0.0
 10
-0.7107165354330709
 20
-0.201748031496063
 30
0.0
 10
-0.7107165354330709
 20
-0.201748031496063
 30
0.0
 10
-0.7107165354330709
 20
-0.201748031496063
 30
0.0
 10
-0.6893582677165354
 20
-0.1919330708661418
 30
0.0
 10
-0.6893582677165354
 20
-0.1919330708661418
 30
0.0
 10
-0.6893582677165354
 20
-0.1919330708661418
 30
0.0
 10
-0.6893582677165354
 20
-0.1919330708661418
 30
0.0
 10
-0.666736220472441
 20
-0.1831850393700787
 30
0.0
 10
-0.666736220472441
 20
-0.1831850393700787
 30
0.0
 10
-0.666736220472441
 20
-0.1831850393700787
 30
0.0
 10
-0.666736220472441
 20
-0.1831850393700787
 30
0.0
 10
-0.6430551181102362
 20
-0.1751732283464567
 30
0.0
 10
-0.6430551181102362
 20
-0.1751732283464567
 30
0.0
 10
-0.6430551181102362
 20
-0.1751732283464567
 30
0.0
 10
-0.6430551181102362
 20
-0.1751732283464567
 30
0.0
 10
-0.618484251968504
 20
-0.1675354330708662
 30
0.0
 10
-0.618484251968504
 20
-0.1675354330708662
 30
0.0
 10
-0.618484251968504
 20
-0.1675354330708662
 30
0.0
 10
-0.618484251968504
 20
-0.1675354330708662
 30
0.0
 10
-0.593236220472441
 20
-0.1599448818897638
 30
0.0
 10
-0.593236220472441
 20
-0.1599448818897638
 30
0.0
 10
-0.593236220472441
 20
-0.1599448818897638
 30
0.0
 10
-0.593236220472441
 20
-0.1599448818897638
 30
0.0
 10
-0.5674842519685039
 20
-0.1520433070866142
 30
0.0
 10
-0.5674842519685039
 20
-0.1520433070866142
 30
0.0
 10
-0.5674842519685039
 20
-0.1520433070866142
 30
0.0
 10
-0.5674842519685039
 20
-0.1520433070866142
 30
0.0
 10
-0.5414251968503937
 20
-0.1435
 30
0.0
 10
-0.5414251968503937
 20
-0.1435
 30
0.0
 10
-0.5414251968503937
 20
-0.1435
 30
0.0
 10
-0.5414251968503937
 20
-0.1435
 30
0.0
 10
-0.515236220472441
 20
-0.1339527559055118
 30
0.0
 10
-0.515236220472441
 20
-0.1339527559055118
 30
0.0
 10
-0.515236220472441
 20
-0.1339527559055118
 30
0.0
 10
-0.515236220472441
 20
-0.1339527559055118
 30
0.0
 10
-0.4891181102362205
 20
-0.1230748031496063
 30
0.0
 10
-0.4891181102362205
 20
-0.1230748031496063
 30
0.0
 10
-0.4891181102362205
 20
-0.1230748031496063
 30
0.0
 10
-0.4891181102362205
 20
-0.1230748031496063
 30
0.0
 10
-0.4632559055118111
 20
-0.1105118110236221
 30
0.0
 10
-0.4632559055118111
 20
-0.1105118110236221
 30
0.0
 10
-0.4632559055118111
 20
-0.1105118110236221
 30
0.0
 10
-0.4632559055118111
 20
-0.1105118110236221
 30
0.0
 10
-1.1176299212598426
 20
-0.4723700787401575
 30
0.0
 10
-1.1176299212598426
 20
-0.4723700787401575
 30
0.0
 10
-1.1176299212598426
 20
-0.4723700787401575
 30
0.0
 10
-1.1176299212598426
 20
-0.4723700787401575
 30
0.0
 10
-1.1434921259842521
 20
-0.4849330708661417
 30
0.0
 10
-1.1434921259842521
 20
-0.4849330708661417
 30
0.0
 10
-1.1434921259842521
 20
-0.4849330708661417
 30
0.0
 10
-1.1434921259842521
 20
-0.4849330708661417
 30
0.0
 10
-1.1696102362204726
 20
-0.4958110236220473
 30
0.0
 10
-1.1696102362204726
 20
-0.4958110236220473
 30
0.0
 10
-1.1696102362204726
 20
-0.4958110236220473
 30
0.0
 10
-1.1696102362204726
 20
-0.4958110236220473
 30
0.0
 10
-1.1957992125984251
 20
-0.5053582677165355
 30
0.0
 10
-1.1957992125984251
 20
-0.5053582677165355
 30
0.0
 10
-1.1957992125984251
 20
-0.5053582677165355
 30
0.0
 10
-1.1957992125984251
 20
-0.5053582677165355
 30
0.0
 10
-1.2218582677165355
 20
-0.5139015748031496
 30
0.0
 10
-1.2218582677165355
 20
-0.5139015748031496
 30
0.0
 10
-1.2218582677165355
 20
-0.5139015748031496
 30
0.0
 10
-1.2218582677165355
 20
-0.5139015748031496
 30
0.0
 10
-1.2476102362204724
 20
-0.5218031496062993
 30
0.0
 10
-1.2476102362204724
 20
-0.5218031496062993
 30
0.0
 10
-1.2476102362204724
 20
-0.5218031496062993
 30
0.0
 10
-1.2476102362204724
 20
-0.5218031496062993
 30
0.0
 10
-1.2728582677165354
 20
-0.5293937007874016
 30
0.0
 10
-1.2728582677165354
 20
-0.5293937007874016
 30
0.0
 10
-1.2728582677165354
 20
-0.5293937007874016
 30
0.0
 10
-1.2728582677165354
 20
-0.5293937007874016
 30
0.0
 10
-1.2974291338582677
 20
-0.5370314960629922
 30
0.0
 10
-1.2974291338582677
 20
-0.5370314960629922
 30
0.0
 10
-1.2974291338582677
 20
-0.5370314960629922
 30
0.0
 10
-1.2974291338582677
 20
-0.5370314960629922
 30
0.0
 10
-1.3211102362204725
 20
-0.5450433070866142
 30
0.0
 10
-1.3211102362204725
 20
-0.5450433070866142
 30
0.0
 10
-1.3211102362204725
 20
-0.5450433070866142
 30
0.0
 10
-1.3211102362204725
 20
-0.5450433070866142
 30
0.0
 10
-1.3437322834645671
 20
-0.5537913385826772
 30
0.0
 10
-1.3437322834645671
 20
-0.5537913385826772
 30
0.0
 10
-1.3437322834645671
 20
-0.5537913385826772
 30
0.0
 10
-1.3437322834645671
 20
-0.5537913385826772
 30
0.0
 10
-1.3650905511811025
 20
-0.5636062992125984
 30
0.0
 10
-1.3650905511811025
 20
-0.5636062992125984
 30
0.0
  0
SPLINE
  5
64
100
AcDbEntity
  8
Layer 1
 62
   253
100
AcDbSpline
210
0.0
220
0.0
230
1.0
 70
     1
 71
     3
 72
    20
 73
    16
 74
     0
 42
0.0000000001
 43
0.0000000001
 40
0.0
 40
0.0
 40
0.0
 40
0.0
 40
0.25
 40
0.25
 40
0.25
 40
0.25
 40
0.5
 40
0.5
 40
0.5
 40
0.5
 40
0.75
 40
0.75
 40
0.75
 40
0.75
 40
1.0
 40
1.0
 40
1.0
 40
1.0
 10
-0.8908937007874016
 20
0.0004566929133858
 30
0.0
 10
-0.8908937007874016
 20
0.0004566929133858
 30
0.0
 10
-0.2365196850393701
 20
0.3623149606299213
 30
0.0
 10
-0.2365196850393701
 20
0.3623149606299213
 30
0.0
 10
-0.2365196850393701
 20
0.3623149606299213
 30
0.0
 10
-0.2365196850393701
 20
0.3623149606299213
 30
0.0
 10
0.297751968503937
 20
0.3430314960629922
 30
0.0
 10
0.297751968503937
 20
0.3430314960629922
 30
0.0
 10
0.297751968503937
 20
0.3430314960629922
 30
0.0
 10
0.297751968503937
 20
0.3430314960629922
 30
0.0
 10
-0.3566220472440945
 20
-0.0188267716535433
 30
0.0
 10
-0.3566220472440945
 20
-0.0188267716535433
 30
0.0
 10
-0.3566220472440945
 20
-0.0188267716535433
 30
0.0
 10
-0.3566220472440945
 20
-0.0188267716535433
 30
0.0
 10
-0.8908937007874016
 20
0.0004566929133858
 30
0.0
 10
-0.8908937007874016
 20
0.0004566929133858
 30
0.0
  0
SPLINE
  5
65
100
AcDbEntity
  8
Layer 1
370
     5
100
AcDbSpline
210
0.0
220
0.0
230
1.0
 70
     1
 71
     3
 72
    20
 73
    16
 74
     0
 42
0.0000000001
 43
0.0000000001
 40
0.0
 40
0.0
 40
0.0
 40
0.0
 40
0.25
 40
0.25
 40
0.25
 40
0.25
 40
0.5
 40
0.5
 40
0.5
 40
0.5
 40
0.75
 40
0.75
 40
0.75
 40
0.75
 40
1.0
 40
1.0
 40
1.0
 40
1.0
 10
-0.8908937007874016
 20
0.0004566929133858
 30
0.0
 10
-0.8908937007874016
 20
0.0004566929133858
 30
0.0
 10
-0.2365196850393701
 20
0.3623149606299213
 30
0.0
 10
-0.2365196850393701
 20
0.3623149606299213
 30
0.0
 10
-0.2365196850393701
 20
0.3623149606299213
 30
0.0
 10
-0.2365196850393701
 20
0.3623149606299213
 30
0.0
 10
0.297751968503937
 20
0.3430314960629922
 30
0.0
 10
0.297751968503937
 20
0.3430314960629922
 30
0.0
 10
0.297751968503937
 20
0.3430314960629922
 30
0.0
 10
0.297751968503937
 20
0.3430314960629922
 30
0.0
 10
-0.3566220472440945
 20
-0.0188267716535433
 30
0.0
 10
-0.3566220472440945
 20
-0.0188267716535433
 30
0.0
 10
-0.3566220472440945
 20
-0.0188267716535433
 30
0.0
 10
-0.3566220472440945
 20
-0.0188267716535433
 30
0.0
 10
-0.8908937007874016
 20
0.0004566929133858
 30
0.0
 10
-0.8908937007874016
 20
0.0004566929133858
 30
0.0
  0
SPLINE
  5
66
100
AcDbEntity
  8
Layer 1
 62
     9
100
AcDbSpline
210
0.0
220
0.0
230
1.0
 70
     1
 71
     3
 72
    20
 73
    16
 74
     0
 42
0.0000000001
 43
0.0000000001
 40
0.0
 40
0.0
 40
0.0
 40
0.0
 40
0.25
 40
0.25
 40
0.25
 40
0.25
 40
0.5
 40
0.5
 40
0.5
 40
0.5
 40
0.75
 40
0.75
 40
0.75
 40
0.75
 40
1.0
 40
1.0
 40
1.0
 40
1.0
 10
-0.3566220472440945
 20
-0.0188267716535433
 30
0.0
 10
-0.3566220472440945
 20
-0.0188267716535433
 30
0.0
 10
0.297751968503937
 20
0.3430314960629922
 30
0.0
 10
0.297751968503937
 20
0.3430314960629922
 30
0.0
 10
0.297751968503937
 20
0.3430314960629922
 30
0.0
 10
0.297751968503937
 20
0.3430314960629922
 30
0.0
 10
0.3201062992125984
 20
0.3090433070866142
 30
0.0
 10
0.3201062992125984
 20
0.3090433070866142
 30
0.0
 10
0.3201062992125984
 20
0.3090433070866142
 30
0.0
 10
0.3201062992125984
 20
0.3090433070866142
 30
0.0
 10
-0.3342677165354331
 20
-0.0528149606299213
 30
0.0
 10
-0.3342677165354331
 20
-0.0528149606299213
 30
0.0
 10
-0.3342677165354331
 20
-0.0528149606299213
 30
0.0
 10
-0.3342677165354331
 20
-0.0528149606299213
 30
0.0
 10
-0.3566220472440945
 20
-0.0188267716535433
 30
0.0
 10
-0.3566220472440945
 20
-0.0188267716535433
 30
0.0
  0
SPLINE
  5
67
100
AcDbEntity
  8
Layer 1
 62
     9
100
AcDbSpline
210
0.0
220
0.0
230
1.0
 70
     1
 71
     3
 72
    20
 73
    16
 74
     0
 42
0.0000000001
 43
0.0000000001
 40
0.0
 40
0.0
 40
0.0
 40
0.0
 40
0.25
 40
0.25
 40
0.25
 40
0.25
 40
0.5
 40
0.5
 40
0.5
 40
0.5
 40
0.75
 40
0.75
 40
0.75
 40
0.75
 40
1.0
 40
1.0
 40
1.0
 40
1.0
 10
-0.3342677165354331
 20
-0.0528149606299213
 30
0.0
 10
-0.3342677165354331
 20
-0.0528149606299213
 30
0.0
 10
0.3201062992125984
 20
0.3090433070866142
 30
0.0
 10
0.3201062992125984
 20
0.3090433070866142
 30
0.0
 10
0.3201062992125984
 20
0.3090433070866142
 30
0.0
 10
0.3201062992125984
 20
0.3090433070866142
 30
0.0
 10
0.3442598425196851
 20
0.2789015748031496
 30
0.0
 10
0.3442598425196851
 20
0.2789015748031496
 30
0.0
 10
0.3442598425196851
 20
0.2789015748031496
 30
0.0
 10
0.3442598425196851
 20
0.2789015748031496
 30
0.0
 10
-0.3101141732283465
 20
-0.0829566929133858
 30
0.0
 10
-0.3101141732283465
 20
-0.0829566929133858
 30
0.0
 10
-0.3101141732283465
 20
-0.0829566929133858
 30
0.0
 10
-0.3101141732283465
 20
-0.0829566929133858
 30
0.0
 10
-0.3342677165354331
 20
-0.0528149606299213
 30
0.0
 10
-0.3342677165354331
 20
-0.0528149606299213
 30
0.0
  0
SPLINE
  5
68
100
AcDbEntity
  8
Layer 1
 62
     9
100
AcDbSpline
210
0.0
220
0.0
230
1.0
 70
     1
 71
     3
 72
    20
 73
    16
 74
     0
 42
0.0000000001
 43
0.0000000001
 40
0.0
 40
0.0
 40
0.0
 40
0.0
 40
0.25
 40
0.25
 40
0.25
 40
0.25
 40
0.5
 40
0.5
 40
0.5
 40
0.5
 40
0.75
 40
0.75
 40
0.75
 40
0.75
 40
1.0
 40
1.0
 40
1.0
 40
1.0
 10
-0.3101141732283465
 20
-0.0829566929133858
 30
0.0
 10
-0.3101141732283465
 20
-0.0829566929133858
 30
0.0
 10
0.3442598425196851
 20
0.2789015748031496
 30
0.0
 10
0.3442598425196851
 20
0.2789015748031496
 30
0.0
 10
0.3442598425196851
 20
0.2789015748031496
 30
0.0
 10
0.3442598425196851
 20
0.2789015748031496
 30
0.0
 10
0.3700708661417323
 20
0.2523622047244095
 30
0.0
 10
0.3700708661417323
 20
0.2523622047244095
 30
0.0
 10
0.3700708661417323
 20
0.2523622047244095
 30
0.0
 10
0.3700708661417323
 20
0.2523622047244095
 30
0.0
 10
-0.2843031496062992
 20
-0.109496062992126
 30
0.0
 10
-0.2843031496062992
 20
-0.109496062992126
 30
0.0
 10
-0.2843031496062992
 20
-0.109496062992126
 30
0.0
 10
-0.2843031496062992
 20
-0.109496062992126
 30
0.0
 10
-0.3101141732283465
 20
-0.0829566929133858
 30
0.0
 10
-0.3101141732283465
 20
-0.0829566929133858
 30
0.0
  0
SPLINE
  5
69
100
AcDbEntity
  8
Layer 1
 62
     9
100
AcDbSpline
210
0.0
220
0.0
230
1.0
 70
     1
 71
     3
 72
    20
 73
    16
 74
     0
 42
0.0000000001
 43
0.0000000001
 40
0.0
 40
0.0
 40
0.0
 40
0.0
 40
0.25
 40
0.25
 40
0.25
 40
0.25
 40
0.5
 40
0.5
 40
0.5
 40
0.5
 40
0.75
 40
0.75
 40
0.75
 40
0.75
 40
1.0
 40
1.0
 40
1.0
 40
1.0
 10
-0.2843031496062992
 20
-0.109496062992126
 30
0.0
 10
-0.2843031496062992
 20
-0.109496062992126
 30
0.0
 10
0.3700708661417323
 20
0.2523622047244095
 30
0.0
 10
0.3700708661417323
 20
0.2523622047244095
 30
0.0
 10
0.3700708661417323
 20
0.2523622047244095
 30
0.0
 10
0.3700708661417323
 20
0.2523622047244095
 30
0.0
 10
0.3974173228346457
 20
0.2291496062992126
 30
0.0
 10
0.3974173228346457
 20
0.2291496062992126
 30
0.0
 10
0.3974173228346457
 20
0.2291496062992126
 30
0.0
 10
0.3974173228346457
 20
0.2291496062992126
 30
0.0
 10
-0.2569566929133859
 20
-0.1327086614173229
 30
0.0
 10
-0.2569566929133859
 20
-0.1327086614173229
 30
0.0
 10
-0.2569566929133859
 20
-0.1327086614173229
 30
0.0
 10
-0.2569566929133859
 20
-0.1327086614173229
 30
0.0
 10
-0.2843031496062992
 20
-0.109496062992126
 30
0.0
 10
-0.2843031496062992
 20
-0.109496062992126
 30
0.0
  0
SPLINE
  5
6A
100
AcDbEntity
  8
Layer 1
 62
     9
100
AcDbSpline
210
0.0
220
0.0
230
1.0
 70
     1
 71
     3
 72
    20
 73
    16
 74
     0
 42
0.0000000001
 43
0.0000000001
 40
0.0
 40
0.0
 40
0.0
 40
0.0
 40
0.25
 40
0.25
 40
0.25
 40
0.25
 40
0.5
 40
0.5
 40
0.5
 40
0.5
 40
0.75
 40
0.75
 40
0.75
 40
0.75
 40
1.0
 40
1.0
 40
1.0
 40
1.0
 10
-0.2569566929133859
 20
-0.1327086614173229
 30
0.0
 10
-0.2569566929133859
 20
-0.1327086614173229
 30
0.0
 10
0.3974173228346457
 20
0.2291496062992126
 30
0.0
 10
0.3974173228346457
 20
0.2291496062992126
 30
0.0
 10
0.3974173228346457
 20
0.2291496062992126
 30
0.0
 10
0.3974173228346457
 20
0.2291496062992126
 30
0.0
 10
0.4261456692913386
 20
0.2090236220472441
 30
0.0
 10
0.4261456692913386
 20
0.2090236220472441
 30
0.0
 10
0.4261456692913386
 20
0.2090236220472441
 30
0.0
 10
0.4261456692913386
 20
0.2090236220472441
 30
0.0
 10
-0.2282283464566929
 20
-0.1528346456692913
 30
0.0
 10
-0.2282283464566929
 20
-0.1528346456692913
 30
0.0
 10
-0.2282283464566929
 20
-0.1528346456692913
 30
0.0
 10
-0.2282283464566929
 20
-0.1528346456692913
 30
0.0
 10
-0.2569566929133859
 20
-0.1327086614173229
 30
0.0
 10
-0.2569566929133859
 20
-0.1327086614173229
 30
0.0
  0
SPLINE
  5
6B
100
AcDbEntity
  8
Layer 1
 62
   253
100
AcDbSpline
210
0.0
220
0.0
230
1.0
 70
     1
 71
     3
 72
    20
 73
    16
 74
     0
 42
0.0000000001
 43
0.0000000001
 40
0.0
 40
0.0
 40
0.0
 40
0.0
 40
0.25
 40
0.25
 40
0.25
 40
0.25
 40
0.5
 40
0.5
 40
0.5
 40
0.5
 40
0.75
 40
0.75
 40
0.75
 40
0.75
 40
1.0
 40
1.0
 40
1.0
 40
1.0
 10
-0.2282283464566929
 20
-0.1528346456692913
 30
0.0
 10
-0.2282283464566929
 20
-0.1528346456692913
 30
0.0
 10
0.4261456692913386
 20
0.2090236220472441
 30
0.0
 10
0.4261456692913386
 20
0.2090236220472441
 30
0.0
 10
0.4261456692913386
 20
0.2090236220472441
 30
0.0
 10
0.4261456692913386
 20
0.2090236220472441
 30
0.0
 10
0.4561338582677166
 20
0.1917125984251969
 30
0.0
 10
0.4561338582677166
 20
0.1917125984251969
 30
0.0
 10
0.4561338582677166
 20
0.1917125984251969
 30
0.0
 10
0.4561338582677166
 20
0.1917125984251969
 30
0.0
 10
-0.198240157480315
 20
-0.1701456692913386
 30
0.0
 10
-0.198240157480315
 20
-0.1701456692913386
 30
0.0
 10
-0.198240157480315
 20
-0.1701456692913386
 30
0.0
 10
-0.198240157480315
 20
-0.1701456692913386
 30
0.0
 10
-0.2282283464566929
 20
-0.1528346456692913
 30
0.0
 10
-0.2282283464566929
 20
-0.1528346456692913
 30
0.0
  0
SPLINE
  5
6C
100
AcDbEntity
  8
Layer 1
 62
   253
100
AcDbSpline
210
0.0
220
0.0
230
1.0
 70
     1
 71
     3
 72
    20
 73
    16
 74
     0
 42
0.0000000001
 43
0.0000000001
 40
0.0
 40
0.0
 40
0.0
 40
0.0
 40
0.25
 40
0.25
 40
0.25
 40
0.25
 40
0.5
 40
0.5
 40
0.5
 40
0.5
 40
0.75
 40
0.75
 40
0.75
 40
0.75
 40
1.0
 40
1.0
 40
1.0
 40
1.0
 10
-0.198240157480315
 20
-0.1701456692913386
 30
0.0
 10
-0.198240157480315
 20
-0.1701456692913386
 30
0.0
 10
0.4561338582677166
 20
0.1917125984251969
 30
0.0
 10
0.4561338582677166
 20
0.1917125984251969
 30
0.0
 10
0.4561338582677166
 20
0.1917125984251969
 30
0.0
 10
0.4561338582677166
 20
0.1917125984251969
 30
0.0
 10
0.487240157480315
 20
0.1769685039370079
 30
0.0
 10
0.487240157480315
 20
0.1769685039370079
 30
0.0
 10
0.487240157480315
 20
0.1769685039370079
 30
0.0
 10
0.487240157480315
 20
0.1769685039370079
 30
0.0
 10
-0.1671338582677165
 20
-0.1848897637795276
 30
0.0
 10
-0.1671338582677165
 20
-0.1848897637795276
 30
0.0
 10
-0.1671338582677165
 20
-0.1848897637795276
 30
0.0
 10
-0.1671338582677165
 20
-0.1848897637795276
 30
0.0
 10
-0.198240157480315
 20
-0.1701456692913386
 30
0.0
 10
-0.198240157480315
 20
-0.1701456692913386
 30
0.0
  0
SPLINE
  5
6D
100
AcDbEntity
  8
Layer 1
 62
   253
100
AcDbSpline
210
0.0
220
0.0
230
1.0
 70
     1
 71
     3
 72
    20
 73
    16
 74
     0
 42
0.0000000001
 43
0.0000000001
 40
0.0
 40
0.0
 40
0.0
 40
0.0
 40
0.25
 40
0.25
 40
0.25
 40
0.25
 40
0.5
 40
0.5
 40
0.5
 40
0.5
 40
0.75
 40
0.75
 40
0.75
 40
0.75
 40
1.0
 40
1.0
 40
1.0
 40
1.0
 10
-0.1671338582677165
 20
-0.1848897637795276
 30
0.0
 10
-0.1671338582677165
 20
-0.1848897637795276
 30
0.0
 10
0.487240157480315
 20
0.1769685039370079
 30
0.0
 10
0.487240157480315
 20
0.1769685039370079
 30
0.0
 10
0.487240157480315
 20
0.1769685039370079
 30
0.0
 10
0.487240157480315
 20
0.1769685039370079
 30
0.0
 10
0.5193425196850394
 20
0.1645196850393701
 30
0.0
 10
0.5193425196850394
 20
0.1645196850393701
 30
0.0
 10
0.5193425196850394
 20
0.1645196850393701
 30
0.0
 10
0.5193425196850394
 20
0.1645196850393701
 30
0.0
 10
-0.1350314960629921
 20
-0.1973385826771654
 30
0.0
 10
-0.1350314960629921
 20
-0.1973385826771654
 30
0.0
 10
-0.1350314960629921
 20
-0.1973385826771654
 30
0.0
 10
-0.1350314960629921
 20
-0.1973385826771654
 30
0.0
 10
-0.1671338582677165
 20
-0.1848897637795276
 30
0.0
 10
-0.1671338582677165
 20
-0.1848897637795276
 30
0.0
  0
SPLINE
  5
6E
100
AcDbEntity
  8
Layer 1
 62
   253
100
AcDbSpline
210
0.0
220
0.0
230
1.0
 70
     1
 71
     3
 72
    20
 73
    16
 74
     0
 42
0.0000000001
 43
0.0000000001
 40
0.0
 40
0.0
 40
0.0
 40
0.0
 40
0.25
 40
0.25
 40
0.25
 40
0.25
 40
0.5
 40
0.5
 40
0.5
 40
0.5
 40
0.75
 40
0.75
 40
0.75
 40
0.75
 40
1.0
 40
1.0
 40
1.0
 40
1.0
 10
-0.1350314960629921
 20
-0.1973385826771654
 30
0.0
 10
-0.1350314960629921
 20
-0.1973385826771654
 30
0.0
 10
0.5193425196850394
 20
0.1645196850393701
 30
0.0
 10
0.5193425196850394
 20
0.1645196850393701
 30
0.0
 10
0.5193425196850394
 20
0.1645196850393701
 30
0.0
 10
0.5193425196850394
 20
0.1645196850393701
 30
0.0
 10
0.5522834645669291
 20
0.1541299212598425
 30
0.0
 10
0.5522834645669291
 20
0.1541299212598425
 30
0.0
 10
0.5522834645669291
 20
0.1541299212598425
 30
0.0
 10
0.5522834645669291
 20
0.1541299212598425
 30
0.0
 10
-0.1020905511811024
 20
-0.2077283464566929
 30
0.0
 10
-0.1020905511811024
 20
-0.2077283464566929
 30
0.0
 10
-0.1020905511811024
 20
-0.2077283464566929
 30
0.0
 10
-0.1020905511811024
 20
-0.2077283464566929
 30
0.0
 10
-0.1350314960629921
 20
-0.1973385826771654
 30
0.0
 10
-0.1350314960629921
 20
-0.1973385826771654
 30
0.0
  0
SPLINE
  5
6F
100
AcDbEntity
  8
Layer 1
 62
   253
100
AcDbSpline
210
0.0
220
0.0
230
1.0
 70
     1
 71
     3
 72
    20
 73
    16
 74
     0
 42
0.0000000001
 43
0.0000000001
 40
0.0
 40
0.0
 40
0.0
 40
0.0
 40
0.25
 40
0.25
 40
0.25
 40
0.25
 40
0.5
 40
0.5
 40
0.5
 40
0.5
 40
0.75
 40
0.75
 40
0.75
 40
0.75
 40
1.0
 40
1.0
 40
1.0
 40
1.0
 10
-0.1020905511811024
 20
-0.2077283464566929
 30
0.0
 10
-0.1020905511811024
 20
-0.2077283464566929
 30
0.0
 10
0.5522834645669291
 20
0.1541299212598425
 30
0.0
 10
0.5522834645669291
 20
0.1541299212598425
 30
0.0
 10
0.5522834645669291
 20
0.1541299212598425
 30
0.0
 10
0.5522834645669291
 20
0.1541299212598425
 30
0.0
 10
0.5859409448818898
 20
0.1455236220472441
 30
0.0
 10
0.5859409448818898
 20
0.1455236220472441
 30
0.0
 10
0.5859409448818898
 20
0.1455236220472441
 30
0.0
 10
0.5859409448818898
 20
0.1455236220472441
 30
0.0
 10
-0.0684330708661417
 20
-0.2163346456692913
 30
0.0
 10
-0.0684330708661417
 20
-0.2163346456692913
 30
0.0
 10
-0.0684330708661417
 20
-0.2163346456692913
 30
0.0
 10
-0.0684330708661417
 20
-0.2163346456692913
 30
0.0
 10
-0.1020905511811024
 20
-0.2077283464566929
 30
0.0
 10
-0.1020905511811024
 20
-0.2077283464566929
 30
0.0
  0
SPLINE
  5
70
100
AcDbEntity
  8
Layer 1
 62
   253
100
AcDbSpline
210
0.0
220
0.0
230
1.0
 70
     1
 71
     3
 72
    20
 73
    16
 74
     0
 42
0.0000000001
 43
0.0000000001
 40
0.0
 40
0.0
 40
0.0
 40
0.0
 40
0.25
 40
0.25
 40
0.25
 40
0.25
 40
0.5
 40
0.5
 40
0.5
 40
0.5
 40
0.75
 40
0.75
 40
0.75
 40
0.75
 40
1.0
 40
1.0
 40
1.0
 40
1.0
 10
-0.0684330708661417
 20
-0.2163346456692913
 30
0.0
 10
-0.0684330708661417
 20
-0.2163346456692913
 30
0.0
 10
0.5859409448818898
 20
0.1455236220472441
 30
0.0
 10
0.5859409448818898
 20
0.1455236220472441
 30
0.0
 10
0.5859409448818898
 20
0.1455236220472441
 30
0.0
 10
0.5859409448818898
 20
0.1455236220472441
 30
0.0
 10
0.6201771653543308
 20
0.1384448818897638
 30
0.0
 10
0.6201771653543308
 20
0.1384448818897638
 30
0.0
 10
0.6201771653543308
 20
0.1384448818897638
 30
0.0
 10
0.6201771653543308
 20
0.1384448818897638
 30
0.0
 10
-0.0341968503937008
 20
-0.2234133858267717
 30
0.0
 10
-0.0341968503937008
 20
-0.2234133858267717
 30
0.0
 10
-0.0341968503937008
 20
-0.2234133858267717
 30
0.0
 10
-0.0341968503937008
 20
-0.2234133858267717
 30
0.0
 10
-0.0684330708661417
 20
-0.2163346456692913
 30
0.0
 10
-0.0684330708661417
 20
-0.2163346456692913
 30
0.0
  0
SPLINE
  5
71
100
AcDbEntity
  8
Layer 1
 62
   253
100
AcDbSpline
210
0.0
220
0.0
230
1.0
 70
     1
 71
     3
 72
    20
 73
    16
 74
     0
 42
0.0000000001
 43
0.0000000001
 40
0.0
 40
0.0
 40
0.0
 40
0.0
 40
0.25
 40
0.25
 40
0.25
 40
0.25
 40
0.5
 40
0.5
 40
0.5
 40
0.5
 40
0.75
 40
0.75
 40
0.75
 40
0.75
 40
1.0
 40
1.0
 40
1.0
 40
1.0
 10
-0.0341968503937008
 20
-0.2234133858267717
 30
0.0
 10
-0.0341968503937008
 20
-0.2234133858267717
 30
0.0
 10
0.6201771653543308
 20
0.1384448818897638
 30
0.0
 10
0.6201771653543308
 20
0.1384448818897638
 30
0.0
 10
0.6201771653543308
 20
0.1384448818897638
 30
0.0
 10
0.6201771653543308
 20
0.1384448818897638
 30
0.0
 10
0.6548622047244095
 20
0.1326377952755906
 30
0.0
 10
0.6548622047244095
 20
0.1326377952755906
 30
0.0
 10
0.6548622047244095
 20
0.1326377952755906
 30
0.0
 10
0.6548622047244095
 20
0.1326377952755906
 30
0.0
 10
0.000488188976378
 20
-0.2292204724409449
 30
0.0
 10
0.000488188976378
 20
-0.2292204724409449
 30
0.0
 10
0.000488188976378
 20
-0.2292204724409449
 30
0.0
 10
0.000488188976378
 20
-0.2292204724409449
 30
0.0
 10
-0.0341968503937008
 20
-0.2234133858267717
 30
0.0
 10
-0.0341968503937008
 20
-0.2234133858267717
 30
0.0
  0
SPLINE
  5
72
100
AcDbEntity
  8
Layer 1
 62
   253
100
AcDbSpline
210
0.0
220
0.0
230
1.0
 70
     1
 71
     3
 72
    20
 73
    16
 74
     0
 42
0.0000000001
 43
0.0000000001
 40
0.0
 40
0.0
 40
0.0
 40
0.0
 40
0.25
 40
0.25
 40
0.25
 40
0.25
 40
0.5
 40
0.5
 40
0.5
 40
0.5
 40
0.75
 40
0.75
 40
0.75
 40
0.75
 40
1.0
 40
1.0
 40
1.0
 40
1.0
 10
0.000488188976378
 20
-0.2292204724409449
 30
0.0
 10
0.000488188976378
 20
-0.2292204724409449
 30
0.0
 10
0.6548622047244095
 20
0.1326377952755906
 30
0.0
 10
0.6548622047244095
 20
0.1326377952755906
 30
0.0
 10
0.6548622047244095
 20
0.1326377952755906
 30
0.0
 10
0.6548622047244095
 20
0.1326377952755906
 30
0.0
 10
0.6898464566929135
 20
0.1278464566929134
 30
0.0
 10
0.6898464566929135
 20
0.1278464566929134
 30
0.0
 10
0.6898464566929135
 20
0.1278464566929134
 30
0.0
 10
0.6898464566929135
 20
0.1278464566929134
 30
0.0
 10
0.0354724409448819
 20
-0.2340118110236221
 30
0.0
 10
0.0354724409448819
 20
-0.2340118110236221
 30
0.0
 10
0.0354724409448819
 20
-0.2340118110236221
 30
0.0
 10
0.0354724409448819
 20
-0.2340118110236221
 30
0.0
 10
0.000488188976378
 20
-0.2292204724409449
 30
0.0
 10
0.000488188976378
 20
-0.2292204724409449
 30
0.0
  0
SPLINE
  5
73
100
AcDbEntity
  8
Layer 1
 62
   253
100
AcDbSpline
210
0.0
220
0.0
230
1.0
 70
     1
 71
     3
 72
    20
 73
    16
 74
     0
 42
0.0000000001
 43
0.0000000001
 40
0.0
 40
0.0
 40
0.0
 40
0.0
 40
0.25
 40
0.25
 40
0.25
 40
0.25
 40
0.5
 40
0.5
 40
0.5
 40
0.5
 40
0.75
 40
0.75
 40
0.75
 40
0.75
 40
1.0
 40
1.0
 40
1.0
 40
1.0
 10
0.0354724409448819
 20
-0.2340118110236221
 30
0.0
 10
0.0354724409448819
 20
-0.2340118110236221
 30
0.0
 10
0.6898464566929135
 20
0.1278464566929134
 30
0.0
 10
0.6898464566929135
 20
0.1278464566929134
 30
0.0
 10
0.6898464566929135
 20
0.1278464566929134
 30
0.0
 10
0.6898464566929135
 20
0.1278464566929134
 30
0.0
 10
0.7250118110236221
 20
0.1238070866141732
 30
0.0
 10
0.7250118110236221
 20
0.1238070866141732
 30
0.0
 10
0.7250118110236221
 20
0.1238070866141732
 30
0.0
 10
0.7250118110236221
 20
0.1238070866141732
 30
0.0
 10
0.0706377952755906
 20
-0.2380511811023622
 30
0.0
 10
0.0706377952755906
 20
-0.2380511811023622
 30
0.0
 10
0.0706377952755906
 20
-0.2380511811023622
 30
0.0
 10
0.0706377952755906
 20
-0.2380511811023622
 30
0.0
 10
0.0354724409448819
 20
-0.2340118110236221
 30
0.0
 10
0.0354724409448819
 20
-0.2340118110236221
 30
0.0
  0
SPLINE
  5
74
100
AcDbEntity
  8
Layer 1
 62
   253
100
AcDbSpline
210
0.0
220
0.0
230
1.0
 70
     1
 71
     3
 72
    20
 73
    16
 74
     0
 42
0.0000000001
 43
0.0000000001
 40
0.0
 40
0.0
 40
0.0
 40
0.0
 40
0.25
 40
0.25
 40
0.25
 40
0.25
 40
0.5
 40
0.5
 40
0.5
 40
0.5
 40
0.75
 40
0.75
 40
0.75
 40
0.75
 40
1.0
 40
1.0
 40
1.0
 40
1.0
 10
0.0706377952755906
 20
-0.2380511811023622
 30
0.0
 10
0.0706377952755906
 20
-0.2380511811023622
 30
0.0
 10
0.7250118110236221
 20
0.1238070866141732
 30
0.0
 10
0.7250118110236221
 20
0.1238070866141732
 30
0.0
 10
0.7250118110236221
 20
0.1238070866141732
 30
0.0
 10
0.7250118110236221
 20
0.1238070866141732
 30
0.0
 10
0.7602086614173229
 20
0.1202677165354331
 30
0.0
 10
0.7602086614173229
 20
0.1202677165354331
 30
0.0
 10
0.7602086614173229
 20
0.1202677165354331
 30
0.0
 10
0.7602086614173229
 20
0.1202677165354331
 30
0.0
 10
0.1058346456692913
 20
-0.2415905511811024
 30
0.0
 10
0.1058346456692913
 20
-0.2415905511811024
 30
0.0
 10
0.1058346456692913
 20
-0.2415905511811024
 30
0.0
 10
0.1058346456692913
 20
-0.2415905511811024
 30
0.0
 10
0.0706377952755906
 20
-0.2380511811023622
 30
0.0
 10
0.0706377952755906
 20
-0.2380511811023622
 30
0.0
  0
SPLINE
  5
75
100
AcDbEntity
  8
Layer 1
 62
   253
100
AcDbSpline
210
0.0
220
0.0
230
1.0
 70
     1
 71
     3
 72
    20
 73
    16
 74
     0
 42
0.0000000001
 43
0.0000000001
 40
0.0
 40
0.0
 40
0.0
 40
0.0
 40
0.25
 40
0.25
 40
0.25
 40
0.25
 40
0.5
 40
0.5
 40
0.5
 40
0.5
 40
0.75
 40
0.75
 40
0.75
 40
0.75
 40
1.0
 40
1.0
 40
1.0
 40
1.0
 10
0.1058346456692913
 20
-0.2415905511811024
 30
0.0
 10
0.1058346456692913
 20
-0.2415905511811024
 30
0.0
 10
0.7602086614173229
 20
0.1202677165354331
 30
0.0
 10
0.7602086614173229
 20
0.1202677165354331
 30
0.0
 10
0.7602086614173229
 20
0.1202677165354331
 30
0.0
 10
0.7602086614173229
 20
0.1202677165354331
 30
0.0
 10
0.7953149606299212
 20
0.1169606299212598
 30
0.0
 10
0.7953149606299212
 20
0.1169606299212598
 30
0.0
 10
0.7953149606299212
 20
0.1169606299212598
 30
0.0
 10
0.7953149606299212
 20
0.1169606299212598
 30
0.0
 10
0.1409409448818898
 20
-0.2448976377952756
 30
0.0
 10
0.1409409448818898
 20
-0.2448976377952756
 30
0.0
 10
0.1409409448818898
 20
-0.2448976377952756
 30
0.0
 10
0.1409409448818898
 20
-0.2448976377952756
 30
0.0
 10
0.1058346456692913
 20
-0.2415905511811024
 30
0.0
 10
0.1058346456692913
 20
-0.2415905511811024
 30
0.0
  0
SPLINE
  5
76
100
AcDbEntity
  8
Layer 1
 62
   253
100
AcDbSpline
210
0.0
220
0.0
230
1.0
 70
     1
 71
     3
 72
    20
 73
    16
 74
     0
 42
0.0000000001
 43
0.0000000001
 40
0.0
 40
0.0
 40
0.0
 40
0.0
 40
0.25
 40
0.25
 40
0.25
 40
0.25
 40
0.5
 40
0.5
 40
0.5
 40
0.5
 40
0.75
 40
0.75
 40
0.75
 40
0.75
 40
1.0
 40
1.0
 40
1.0
 40
1.0
 10
0.1409409448818898
 20
-0.2448976377952756
 30
0.0
 10
0.1409409448818898
 20
-0.2448976377952756
 30
0.0
 10
0.7953149606299212
 20
0.1169606299212598
 30
0.0
 10
0.7953149606299212
 20
0.1169606299212598
 30
0.0
 10
0.7953149606299212
 20
0.1169606299212598
 30
0.0
 10
0.7953149606299212
 20
0.1169606299212598
 30
0.0
 10
0.8301771653543307
 20
0.1136456692913386
 30
0.0
 10
0.8301771653543307
 20
0.1136456692913386
 30
0.0
 10
0.8301771653543307
 20
0.1136456692913386
 30
0.0
 10
0.8301771653543307
 20
0.1136456692913386
 30
0.0
 10
0.1758031496062992
 20
-0.2482125984251969
 30
0.0
 10
0.1758031496062992
 20
-0.2482125984251969
 30
0.0
 10
0.1758031496062992
 20
-0.2482125984251969
 30
0.0
 10
0.1758031496062992
 20
-0.2482125984251969
 30
0.0
 10
0.1409409448818898
 20
-0.2448976377952756
 30
0.0
 10
0.1409409448818898
 20
-0.2448976377952756
 30
0.0
  0
SPLINE
  5
77
100
AcDbEntity
  8
Layer 1
 62
   253
100
AcDbSpline
210
0.0
220
0.0
230
1.0
 70
     1
 71
     3
 72
    20
 73
    16
 74
     0
 42
0.0000000001
 43
0.0000000001
 40
0.0
 40
0.0
 40
0.0
 40
0.0
 40
0.25
 40
0.25
 40
0.25
 40
0.25
 40
0.5
 40
0.5
 40
0.5
 40
0.5
 40
0.75
 40
0.75
 40
0.75
 40
0.75
 40
1.0
 40
1.0
 40
1.0
 40
1.0
 10
0.1758031496062992
 20
-0.2482125984251969
 30
0.0
 10
0.1758031496062992
 20
-0.2482125984251969
 30
0.0
 10
0.8301771653543307
 20
0.1136456692913386
 30
0.0
 10
0.8301771653543307
 20
0.1136456692913386
 30
0.0
 10
0.8301771653543307
 20
0.1136456692913386
 30
0.0
 10
0.8301771653543307
 20
0.1136456692913386
 30
0.0
 10
0.8646771653543307
 20
0.1100433070866142
 30
0.0
 10
0.8646771653543307
 20
0.1100433070866142
 30
0.0
 10
0.8646771653543307
 20
0.1100433070866142
 30
0.0
 10
0.8646771653543307
 20
0.1100433070866142
 30
0.0
 10
0.2103031496062992
 20
-0.2518149606299213
 30
0.0
 10
0.2103031496062992
 20
-0.2518149606299213
 30
0.0
 10
0.2103031496062992
 20
-0.2518149606299213
 30
0.0
 10
0.2103031496062992
 20
-0.2518149606299213
 30
0.0
 10
0.1758031496062992
 20
-0.2482125984251969
 30
0.0
 10
0.1758031496062992
 20
-0.2482125984251969
 30
0.0
  0
SPLINE
  5
78
100
AcDbEntity
  8
Layer 1
 62
   253
100
AcDbSpline
210
0.0
220
0.0
230
1.0
 70
     1
 71
     3
 72
    20
 73
    16
 74
     0
 42
0.0000000001
 43
0.0000000001
 40
0.0
 40
0.0
 40
0.0
 40
0.0
 40
0.25
 40
0.25
 40
0.25
 40
0.25
 40
0.5
 40
0.5
 40
0.5
 40
0.5
 40
0.75
 40
0.75
 40
0.75
 40
0.75
 40
1.0
 40
1.0
 40
1.0
 40
1.0
 10
0.2103031496062992
 20
-0.2518149606299213
 30
0.0
 10
0.2103031496062992
 20
-0.2518149606299213
 30
0.0
 10
0.8646771653543307
 20
0.1100433070866142
 30
0.0
 10
0.8646771653543307
 20
0.1100433070866142
 30
0.0
 10
0.8646771653543307
 20
0.1100433070866142
 30
0.0
 10
0.8646771653543307
 20
0.1100433070866142
 30
0.0
 10
0.8986692913385828
 20
0.1059094488188977
 30
0.0
 10
0.8986692913385828
 20
0.1059094488188977
 30
0.0
 10
0.8986692913385828
 20
0.1059094488188977
 30
0.0
 10
0.8986692913385828
 20
0.1059094488188977
 30
0.0
 10
0.2442952755905512
 20
-0.2559488188976378
 30
0.0
 10
0.2442952755905512
 20
-0.2559488188976378
 30
0.0
 10
0.2442952755905512
 20
-0.2559488188976378
 30
0.0
 10
0.2442952755905512
 20
-0.2559488188976378
 30
0.0
 10
0.2103031496062992
 20
-0.2518149606299213
 30
0.0
 10
0.2103031496062992
 20
-0.2518149606299213
 30
0.0
  0
SPLINE
  5
79
100
AcDbEntity
  8
Layer 1
 62
   253
100
AcDbSpline
210
0.0
220
0.0
230
1.0
 70
     1
 71
     3
 72
    20
 73
    16
 74
     0
 42
0.0000000001
 43
0.0000000001
 40
0.0
 40
0.0
 40
0.0
 40
0.0
 40
0.25
 40
0.25
 40
0.25
 40
0.25
 40
0.5
 40
0.5
 40
0.5
 40
0.5
 40
0.75
 40
0.75
 40
0.75
 40
0.75
 40
1.0
 40
1.0
 40
1.0
 40
1.0
 10
0.2442952755905512
 20
-0.2559488188976378
 30
0.0
 10
0.2442952755905512
 20
-0.2559488188976378
 30
0.0
 10
0.8986692913385828
 20
0.1059094488188977
 30
0.0
 10
0.8986692913385828
 20
0.1059094488188977
 30
0.0
 10
0.8986692913385828
 20
0.1059094488188977
 30
0.0
 10
0.8986692913385828
 20
0.1059094488188977
 30
0.0
 10
0.9320314960629922
 20
0.1009803149606299
 30
0.0
 10
0.9320314960629922
 20
0.1009803149606299
 30
0.0
 10
0.9320314960629922
 20
0.1009803149606299
 30
0.0
 10
0.9320314960629922
 20
0.1009803149606299
 30
0.0
 10
0.2776574803149606
 20
-0.2608779527559055
 30
0.0
 10
0.2776574803149606
 20
-0.2608779527559055
 30
0.0
 10
0.2776574803149606
 20
-0.2608779527559055
 30
0.0
 10
0.2776574803149606
 20
-0.2608779527559055
 30
0.0
 10
0.2442952755905512
 20
-0.2559488188976378
 30
0.0
 10
0.2442952755905512
 20
-0.2559488188976378
 30
0.0
  0
SPLINE
  5
7A
100
AcDbEntity
  8
Layer 1
 62
   253
100
AcDbSpline
210
0.0
220
0.0
230
1.0
 70
     1
 71
     3
 72
    20
 73
    16
 74
     0
 42
0.0000000001
 43
0.0000000001
 40
0.0
 40
0.0
 40
0.0
 40
0.0
 40
0.25
 40
0.25
 40
0.25
 40
0.25
 40
0.5
 40
0.5
 40
0.5
 40
0.5
 40
0.75
 40
0.75
 40
0.75
 40
0.75
 40
1.0
 40
1.0
 40
1.0
 40
1.0
 10
0.2776574803149606
 20
-0.2608779527559055
 30
0.0
 10
0.2776574803149606
 20
-0.2608779527559055
 30
0.0
 10
0.9320314960629922
 20
0.1009803149606299
 30
0.0
 10
0.9320314960629922
 20
0.1009803149606299
 30
0.0
 10
0.9320314960629922
 20
0.1009803149606299
 30
0.0
 10
0.9320314960629922
 20
0.1009803149606299
 30
0.0
 10
0.9646062992125984
 20
0.095003937007874
 30
0.0
 10
0.9646062992125984
 20
0.095003937007874
 30
0.0
 10
0.9646062992125984
 20
0.095003937007874
 30
0.0
 10
0.9646062992125984
 20
0.095003937007874
 30
0.0
 10
0.3102322834645669
 20
-0.2668543307086614
 30
0.0
 10
0.3102322834645669
 20
-0.2668543307086614
 30
0.0
 10
0.3102322834645669
 20
-0.2668543307086614
 30
0.0
 10
0.3102322834645669
 20
-0.2668543307086614
 30
0.0
 10
0.2776574803149606
 20
-0.2608779527559055
 30
0.0
 10
0.2776574803149606
 20
-0.2608779527559055
 30
0.0
  0
SPLINE
  5
7B
100
AcDbEntity
  8
Layer 1
 62
   253
100
AcDbSpline
210
0.0
220
0.0
230
1.0
 70
     1
 71
     3
 72
    20
 73
    16
 74
     0
 42
0.0000000001
 43
0.0000000001
 40
0.0
 40
0.0
 40
0.0
 40
0.0
 40
0.25
 40
0.25
 40
0.25
 40
0.25
 40
0.5
 40
0.5
 40
0.5
 40
0.5
 40
0.75
 40
0.75
 40
0.75
 40
0.75
 40
1.0
 40
1.0
 40
1.0
 40
1.0
 10
0.3102322834645669
 20
-0.2668543307086614
 30
0.0
 10
0.3102322834645669
 20
-0.2668543307086614
 30
0.0
 10
0.9646062992125984
 20
0.095003937007874
 30
0.0
 10
0.9646062992125984
 20
0.095003937007874
 30
0.0
 10
0.9646062992125984
 20
0.095003937007874
 30
0.0
 10
0.9646062992125984
 20
0.095003937007874
 30
0.0
 10
0.9962795275590551
 20
0.0877125984251969
 30
0.0
 10
0.9962795275590551
 20
0.0877125984251969
 30
0.0
 10
0.9962795275590551
 20
0.0877125984251969
 30
0.0
 10
0.9962795275590551
 20
0.0877125984251969
 30
0.0
 10
0.3419055118110236
 20
-0.2741456692913386
 30
0.0
 10
0.3419055118110236
 20
-0.2741456692913386
 30
0.0
 10
0.3419055118110236
 20
-0.2741456692913386
 30
0.0
 10
0.3419055118110236
 20
-0.2741456692913386
 30
0.0
 10
0.3102322834645669
 20
-0.2668543307086614
 30
0.0
 10
0.3102322834645669
 20
-0.2668543307086614
 30
0.0
  0
SPLINE
  5
7C
100
AcDbEntity
  8
Layer 1
 62
   253
100
AcDbSpline
210
0.0
220
0.0
230
1.0
 70
     1
 71
     3
 72
    20
 73
    16
 74
     0
 42
0.0000000001
 43
0.0000000001
 40
0.0
 40
0.0
 40
0.0
 40
0.0
 40
0.25
 40
0.25
 40
0.25
 40
0.25
 40
0.5
 40
0.5
 40
0.5
 40
0.5
 40
0.75
 40
0.75
 40
0.75
 40
0.75
 40
1.0
 40
1.0
 40
1.0
 40
1.0
 10
0.3419055118110236
 20
-0.2741456692913386
 30
0.0
 10
0.3419055118110236
 20
-0.2741456692913386
 30
0.0
 10
0.9962795275590551
 20
0.0877125984251969
 30
0.0
 10
0.9962795275590551
 20
0.0877125984251969
 30
0.0
 10
0.9962795275590551
 20
0.0877125984251969
 30
0.0
 10
0.9962795275590551
 20
0.0877125984251969
 30
0.0
 10
1.0269055118110237
 20
0.0788543307086614
 30
0.0
 10
1.0269055118110237
 20
0.0788543307086614
 30
0.0
 10
1.0269055118110237
 20
0.0788543307086614
 30
0.0
 10
1.0269055118110237
 20
0.0788543307086614
 30
0.0
 10
0.3725314960629921
 20
-0.283003937007874
 30
0.0
 10
0.3725314960629921
 20
-0.283003937007874
 30
0.0
 10
0.3725314960629921
 20
-0.283003937007874
 30
0.0
 10
0.3725314960629921
 20
-0.283003937007874
 30
0.0
 10
0.3419055118110236
 20
-0.2741456692913386
 30
0.0
 10
0.3419055118110236
 20
-0.2741456692913386
 30
0.0
  0
SPLINE
  5
7D
100
AcDbEntity
  8
Layer 1
 62
   253
100
AcDbSpline
210
0.0
220
0.0
230
1.0
 70
     1
 71
     3
 72
    20
 73
    16
 74
     0
 42
0.0000000001
 43
0.0000000001
 40
0.0
 40
0.0
 40
0.0
 40
0.0
 40
0.25
 40
0.25
 40
0.25
 40
0.25
 40
0.5
 40
0.5
 40
0.5
 40
0.5
 40
0.75
 40
0.75
 40
0.75
 40
0.75
 40
1.0
 40
1.0
 40
1.0
 40
1.0
 10
0.3725314960629921
 20
-0.283003937007874
 30
0.0
 10
0.3725314960629921
 20
-0.283003937007874
 30
0.0
 10
1.0269055118110237
 20
0.0788543307086614
 30
0.0
 10
1.0269055118110237
 20
0.0788543307086614
 30
0.0
 10
1.0269055118110237
 20
0.0788543307086614
 30
0.0
 10
1.0269055118110237
 20
0.0788543307086614
 30
0.0
 10
1.0563582677165355
 20
0.0681653543307087
 30
0.0
 10
1.0563582677165355
 20
0.0681653543307087
 30
0.0
 10
1.0563582677165355
 20
0.0681653543307087
 30
0.0
 10
1.0563582677165355
 20
0.0681653543307087
 30
0.0
 10
0.401984251968504
 20
-0.2936929133858268
 30
0.0
 10
0.401984251968504
 20
-0.2936929133858268
 30
0.0
 10
0.401984251968504
 20
-0.2936929133858268
 30
0.0
 10
0.401984251968504
 20
-0.2936929133858268
 30
0.0
 10
0.3725314960629921
 20
-0.283003937007874
 30
0.0
 10
0.3725314960629921
 20
-0.283003937007874
 30
0.0
  0
SPLINE
  5
7E
100
AcDbEntity
  8
Layer 1
 62
   253
100
AcDbSpline
210
0.0
220
0.0
230
1.0
 70
     1
 71
     3
 72
    20
 73
    16
 74
     0
 42
0.0000000001
 43
0.0000000001
 40
0.0
 40
0.0
 40
0.0
 40
0.0
 40
0.25
 40
0.25
 40
0.25
 40
0.25
 40
0.5
 40
0.5
 40
0.5
 40
0.5
 40
0.75
 40
0.75
 40
0.75
 40
0.75
 40
1.0
 40
1.0
 40
1.0
 40
1.0
 10
0.401984251968504
 20
-0.2936929133858268
 30
0.0
 10
0.401984251968504
 20
-0.2936929133858268
 30
0.0
 10
1.0563582677165355
 20
0.0681653543307087
 30
0.0
 10
1.0563582677165355
 20
0.0681653543307087
 30
0.0
 10
1.0563582677165355
 20
0.0681653543307087
 30
0.0
 10
1.0563582677165355
 20
0.0681653543307087
 30
0.0
 10
1.0844842519685041
 20
0.0554015748031496
 30
0.0
 10
1.0844842519685041
 20
0.0554015748031496
 30
0.0
 10
1.0844842519685041
 20
0.0554015748031496
 30
0.0
 10
1.0844842519685041
 20
0.0554015748031496
 30
0.0
 10
0.4301102362204725
 20
-0.3064566929133858
 30
0.0
 10
0.4301102362204725
 20
-0.3064566929133858
 30
0.0
 10
0.4301102362204725
 20
-0.3064566929133858
 30
0.0
 10
0.4301102362204725
 20
-0.3064566929133858
 30
0.0
 10
0.401984251968504
 20
-0.2936929133858268
 30
0.0
 10
0.401984251968504
 20
-0.2936929133858268
 30
0.0
  0
SPLINE
  5
7F
100
AcDbEntity
  8
Layer 1
 62
   253
100
AcDbSpline
210
0.0
220
0.0
230
1.0
 70
     1
 71
     3
 72
    20
 73
    16
 74
     0
 42
0.0000000001
 43
0.0000000001
 40
0.0
 40
0.0
 40
0.0
 40
0.0
 40
0.25
 40
0.25
 40
0.25
 40
0.25
 40
0.5
 40
0.5
 40
0.5
 40
0.5
 40
0.75
 40
0.75
 40
0.75
 40
0.75
 40
1.0
 40
1.0
 40
1.0
 40
1.0
 10
0.4301102362204725
 20
-0.3064566929133858
 30
0.0
 10
0.4301102362204725
 20
-0.3064566929133858
 30
0.0
 10
1.0844842519685041
 20
0.0554015748031496
 30
0.0
 10
1.0844842519685041
 20
0.0554015748031496
 30
0.0
 10
1.0844842519685041
 20
0.0554015748031496
 30
0.0
 10
1.0844842519685041
 20
0.0554015748031496
 30
0.0
 10
1.1111653543307087
 20
0.0402874015748032
 30
0.0
 10
1.1111653543307087
 20
0.0402874015748032
 30
0.0
 10
1.1111653543307087
 20
0.0402874015748032
 30
0.0
 10
1.1111653543307087
 20
0.0402874015748032
 30
0.0
 10
0.4567913385826772
 20
-0.3215708661417323
 30
0.0
 10
0.4567913385826772
 20
-0.3215708661417323
 30
0.0
 10
0.4567913385826772
 20
-0.3215708661417323
 30
0.0
 10
0.4567913385826772
 20
-0.3215708661417323
 30
0.0
 10
0.4301102362204725
 20
-0.3064566929133858
 30
0.0
 10
0.4301102362204725
 20
-0.3064566929133858
 30
0.0
  0
SPLINE
  5
80
100
AcDbEntity
  8
Layer 1
 62
     9
100
AcDbSpline
210
0.0
220
0.0
230
1.0
 70
     1
 71
     3
 72
    20
 73
    16
 74
     0
 42
0.0000000001
 43
0.0000000001
 40
0.0
 40
0.0
 40
0.0
 40
0.0
 40
0.25
 40
0.25
 40
0.25
 40
0.25
 40
0.5
 40
0.5
 40
0.5
 40
0.5
 40
0.75
 40
0.75
 40
0.75
 40
0.75
 40
1.0
 40
1.0
 40
1.0
 40
1.0
 10
0.4567913385826772
 20
-0.3215708661417323
 30
0.0
 10
0.4567913385826772
 20
-0.3215708661417323
 30
0.0
 10
1.1111653543307087
 20
0.0402874015748032
 30
0.0
 10
1.1111653543307087
 20
0.0402874015748032
 30
0.0
 10
1.1111653543307087
 20
0.0402874015748032
 30
0.0
 10
1.1111653543307087
 20
0.0402874015748032
 30
0.0
 10
1.1362559055118111
 20
0.0225748031496063
 30
0.0
 10
1.1362559055118111
 20
0.0225748031496063
 30
0.0
 10
1.1362559055118111
 20
0.0225748031496063
 30
0.0
 10
1.1362559055118111
 20
0.0225748031496063
 30
0.0
 10
0.4818818897637796
 20
-0.3392834645669292
 30
0.0
 10
0.4818818897637796
 20
-0.3392834645669292
 30
0.0
 10
0.4818818897637796
 20
-0.3392834645669292
 30
0.0
 10
0.4818818897637796
 20
-0.3392834645669292
 30
0.0
 10
0.4567913385826772
 20
-0.3215708661417323
 30
0.0
 10
0.4567913385826772
 20
-0.3215708661417323
 30
0.0
  0
SPLINE
  5
81
100
AcDbEntity
  8
Layer 1
 62
     9
100
AcDbSpline
210
0.0
220
0.0
230
1.0
 70
     1
 71
     3
 72
    20
 73
    16
 74
     0
 42
0.0000000001
 43
0.0000000001
 40
0.0
 40
0.0
 40
0.0
 40
0.0
 40
0.25
 40
0.25
 40
0.25
 40
0.25
 40
0.5
 40
0.5
 40
0.5
 40
0.5
 40
0.75
 40
0.75
 40
0.75
 40
0.75
 40
1.0
 40
1.0
 40
1.0
 40
1.0
 10
0.4818818897637796
 20
-0.3392834645669292
 30
0.0
 10
0.4818818897637796
 20
-0.3392834645669292
 30
0.0
 10
1.1362559055118111
 20
0.0225748031496063
 30
0.0
 10
1.1362559055118111
 20
0.0225748031496063
 30
0.0
 10
1.1362559055118111
 20
0.0225748031496063
 30
0.0
 10
1.1362559055118111
 20
0.0225748031496063
 30
0.0
 10
1.1596299212598427
 20
0.002
 30
0.0
 10
1.1596299212598427
 20
0.002
 30
0.0
 10
1.1596299212598427
 20
0.002
 30
0.0
 10
1.1596299212598427
 20
0.002
 30
0.0
 10
0.505255905511811
 20
-0.3598582677165355
 30
0.0
 10
0.505255905511811
 20
-0.3598582677165355
 30
0.0
 10
0.505255905511811
 20
-0.3598582677165355
 30
0.0
 10
0.505255905511811
 20
-0.3598582677165355
 30
0.0
 10
0.4818818897637796
 20
-0.3392834645669292
 30
0.0
 10
0.4818818897637796
 20
-0.3392834645669292
 30
0.0
  0
SPLINE
  5
82
100
AcDbEntity
  8
Layer 1
 62
     9
100
AcDbSpline
210
0.0
220
0.0
230
1.0
 70
     1
 71
     3
 72
    20
 73
    16
 74
     0
 42
0.0000000001
 43
0.0000000001
 40
0.0
 40
0.0
 40
0.0
 40
0.0
 40
0.25
 40
0.25
 40
0.25
 40
0.25
 40
0.5
 40
0.5
 40
0.5
 40
0.5
 40
0.75
 40
0.75
 40
0.75
 40
0.75
 40
1.0
 40
1.0
 40
1.0
 40
1.0
 10
0.505255905511811
 20
-0.3598582677165355
 30
0.0
 10
0.505255905511811
 20
-0.3598582677165355
 30
0.0
 10
1.1596299212598427
 20
0.002
 30
0.0
 10
1.1596299212598427
 20
0.002
 30
0.0
 10
1.1596299212598427
 20
0.002
 30
0.0
 10
1.1596299212598427
 20
0.002
 30
0.0
 10
1.1811377952755906
 20
-0.0216889763779528
 30
0.0
 10
1.1811377952755906
 20
-0.0216889763779528
 30
0.0
 10
1.1811377952755906
 20
-0.0216889763779528
 30
0.0
 10
1.1811377952755906
 20
-0.0216889763779528
 30
0.0
 10
0.526763779527559
 20
-0.3835472440944882
 30
0.0
 10
0.526763779527559
 20
-0.3835472440944882
 30
0.0
 10
0.526763779527559
 20
-0.3835472440944882
 30
0.0
 10
0.526763779527559
 20
-0.3835472440944882
 30
0.0
 10
0.505255905511811
 20
-0.3598582677165355
 30
0.0
 10
0.505255905511811
 20
-0.3598582677165355
 30
0.0
  0
SPLINE
  5
83
100
AcDbEntity
  8
Layer 1
 62
     9
100
AcDbSpline
210
0.0
220
0.0
230
1.0
 70
     1
 71
     3
 72
    20
 73
    16
 74
     0
 42
0.0000000001
 43
0.0000000001
 40
0.0
 40
0.0
 40
0.0
 40
0.0
 40
0.25
 40
0.25
 40
0.25
 40
0.25
 40
0.5
 40
0.5
 40
0.5
 40
0.5
 40
0.75
 40
0.75
 40
0.75
 40
0.75
 40
1.0
 40
1.0
 40
1.0
 40
1.0
 10
0.526763779527559
 20
-0.3835472440944882
 30
0.0
 10
0.526763779527559
 20
-0.3835472440944882
 30
0.0
 10
1.1811377952755906
 20
-0.0216889763779528
 30
0.0
 10
1.1811377952755906
 20
-0.0216889763779528
 30
0.0
 10
1.1811377952755906
 20
-0.0216889763779528
 30
0.0
 10
1.1811377952755906
 20
-0.0216889763779528
 30
0.0
 10
1.2006614173228347
 20
-0.048755905511811
 30
0.0
 10
1.2006614173228347
 20
-0.048755905511811
 30
0.0
 10
1.2006614173228347
 20
-0.048755905511811
 30
0.0
 10
1.2006614173228347
 20
-0.048755905511811
 30
0.0
 10
0.5462874015748032
 20
-0.4106141732283465
 30
0.0
 10
0.5462874015748032
 20
-0.4106141732283465
 30
0.0
 10
0.5462874015748032
 20
-0.4106141732283465
 30
0.0
 10
0.5462874015748032
 20
-0.4106141732283465
 30
0.0
 10
0.526763779527559
 20
-0.3835472440944882
 30
0.0
 10
0.526763779527559
 20
-0.3835472440944882
 30
0.0
  0
SPLINE
  5
84
100
AcDbEntity
  8
Layer 1
 62
     9
100
AcDbSpline
210
0.0
220
0.0
230
1.0
 70
     1
 71
     3
 72
    20
 73
    16
 74
     0
 42
0.0000000001
 43
0.0000000001
 40
0.0
 40
0.0
 40
0.0
 40
0.0
 40
0.25
 40
0.25
 40
0.25
 40
0.25
 40
0.5
 40
0.5
 40
0.5
 40
0.5
 40
0.75
 40
0.75
 40
0.75
 40
0.75
 40
1.0
 40
1.0
 40
1.0
 40
1.0
 10
0.5462874015748032
 20
-0.4106141732283465
 30
0.0
 10
0.5462874015748032
 20
-0.4106141732283465
 30
0.0
 10
1.2006614173228347
 20
-0.048755905511811
 30
0.0
 10
1.2006614173228347
 20
-0.048755905511811
 30
0.0
 10
1.2006614173228347
 20
-0.048755905511811
 30
0.0
 10
1.2006614173228347
 20
-0.048755905511811
 30
0.0
 10
1.2180511811023622
 20
-0.0794566929133858
 30
0.0
 10
1.2180511811023622
 20
-0.0794566929133858
 30
0.0
 10
1.2180511811023622
 20
-0.0794566929133858
 30
0.0
 10
1.2180511811023622
 20
-0.0794566929133858
 30
0.0
 10
0.5636771653543308
 20
-0.4413149606299213
 30
0.0
 10
0.5636771653543308
 20
-0.4413149606299213
 30
0.0
 10
0.5636771653543308
 20
-0.4413149606299213
 30
0.0
 10
0.5636771653543308
 20
-0.4413149606299213
 30
0.0
 10
0.5462874015748032
 20
-0.4106141732283465
 30
0.0
 10
0.5462874015748032
 20
-0.4106141732283465
 30
0.0
  0
SPLINE
  5
85
100
AcDbEntity
  8
Layer 1
 62
     9
100
AcDbSpline
210
0.0
220
0.0
230
1.0
 70
     1
 71
     3
 72
    20
 73
    16
 74
     0
 42
0.0000000001
 43
0.0000000001
 40
0.0
 40
0.0
 40
0.0
 40
0.0
 40
0.25
 40
0.25
 40
0.25
 40
0.25
 40
0.5
 40
0.5
 40
0.5
 40
0.5
 40
0.75
 40
0.75
 40
0.75
 40
0.75
 40
1.0
 40
1.0
 40
1.0
 40
1.0
 10
0.5636771653543308
 20
-0.4413149606299213
 30
0.0
 10
0.5636771653543308
 20
-0.4413149606299213
 30
0.0
 10
1.2180511811023622
 20
-0.0794566929133858
 30
0.0
 10
1.2180511811023622
 20
-0.0794566929133858
 30
0.0
 10
1.2180511811023622
 20
-0.0794566929133858
 30
0.0
 10
1.2180511811023622
 20
-0.0794566929133858
 30
0.0
 10
1.2331850393700787
 20
-0.1140551181102362
 30
0.0
 10
1.2331850393700787
 20
-0.1140551181102362
 30
0.0
 10
1.2331850393700787
 20
-0.1140551181102362
 30
0.0
 10
1.2331850393700787
 20
-0.1140551181102362
 30
0.0
 10
0.5788110236220473
 20
-0.4759133858267717
 30
0.0
 10
0.5788110236220473
 20
-0.4759133858267717
 30
0.0
 10
0.5788110236220473
 20
-0.4759133858267717
 30
0.0
 10
0.5788110236220473
 20
-0.4759133858267717
 30
0.0
 10
0.5636771653543308
 20
-0.4413149606299213
 30
0.0
 10
0.5636771653543308
 20
-0.4413149606299213
 30
0.0
  0
SPLINE
  5
86
100
AcDbEntity
  8
Layer 1
370
     5
100
AcDbSpline
210
0.0
220
0.0
230
1.0
 70
     1
 71
     3
 72
   268
 73
   264
 74
     0
 42
0.0000000001
 43
0.0000000001
 40
0.0
 40
0.0
 40
0.0
 40
0.0
 40
0.0151515151515152
 40
0.0151515151515152
 40
0.0151515151515152
 40
0.0151515151515152
 40
0.0303030303030303
 40
0.0303030303030303
 40
0.0303030303030303
 40
0.0303030303030303
 40
0.0454545454545455
 40
0.0454545454545455
 40
0.0454545454545455
 40
0.0454545454545455
 40
0.0606060606060606
 40
0.0606060606060606
 40
0.0606060606060606
 40
0.0606060606060606
 40
0.0757575757575758
 40
0.0757575757575758
 40
0.0757575757575758
 40
0.0757575757575758
 40
0.0909090909090909
 40
0.0909090909090909
 40
0.0909090909090909
 40
0.0909090909090909
 40
0.1060606060606061
 40
0.1060606060606061
 40
0.1060606060606061
 40
0.1060606060606061
 40
0.1212121212121212
 40
0.1212121212121212
 40
0.1212121212121212
 40
0.1212121212121212
 40
0.1363636363636364
 40
0.1363636363636364
 40
0.1363636363636364
 40
0.1363636363636364
 40
0.1515151515151515
 40
0.1515151515151515
 40
0.1515151515151515
 40
0.1515151515151515
 40
0.1666666666666666
 40
0.1666666666666666
 40
0.1666666666666666
 40
0.1666666666666666
 40
0.1818181818181818
 40
0.1818181818181818
 40
0.1818181818181818
 40
0.1818181818181818
 40
0.1969696969696969
 40
0.1969696969696969
 40
0.1969696969696969
 40
0.1969696969696969
 40
0.212121212121212
 40
0.212121212121212
 40
0.212121212121212
 40
0.212121212121212
 40
0.2272727272727272
 40
0.2272727272727272
 40
0.2272727272727272
 40
0.2272727272727272
 40
0.2424242424242423
 40
0.2424242424242423
 40
0.2424242424242423
 40
0.2424242424242423
 40
0.2575757575757575
 40
0.2575757575757575
 40
0.2575757575757575
 40
0.2575757575757575
 40
0.2727272727272726
 40
0.2727272727272726
 40
0.2727272727272726
 40
0.2727272727272726
 40
0.2878787878787877
 40
0.2878787878787877
 40
0.2878787878787877
 40
0.2878787878787877
 40
0.3030303030303029
 40
0.3030303030303029
 40
0.3030303030303029
 40
0.3030303030303029
 40
0.318181818181818
 40
0.318181818181818
 40
0.318181818181818
 40
0.318181818181818
 40
0.3333333333333332
 40
0.3333333333333332
 40
0.3333333333333332
 40
0.3333333333333332
 40
0.3484848484848483
 40
0.3484848484848483
 40
0.3484848484848483
 40
0.3484848484848483
 40
0.3636363636363634
 40
0.3636363636363634
 40
0.3636363636363634
 40
0.3636363636363634
 40
0.3787878787878786
 40
0.3787878787878786
 40
0.3787878787878786
 40
0.3787878787878786
 40
0.3939393939393937
 40
0.3939393939393937
 40
0.3939393939393937
 40
0.3939393939393937
 40
0.4090909090909088
 40
0.4090909090909088
 40
0.4090909090909088
 40
0.4090909090909088
 40
0.424242424242424
 40
0.424242424242424
 40
0.424242424242424
 40
0.424242424242424
 40
0.4393939393939391
 40
0.4393939393939391
 40
0.4393939393939391
 40
0.4393939393939391
 40
0.4545454545454543
 40
0.4545454545454543
 40
0.4545454545454543
 40
0.4545454545454543
 40
0.4696969696969694
 40
0.4696969696969694
 40
0.4696969696969694
 40
0.4696969696969694
 40
0.4848484848484845
 40
0.4848484848484845
 40
0.4848484848484845
 40
0.4848484848484845
 40
0.4999999999999997
 40
0.4999999999999997
 40
0.4999999999999997
 40
0.4999999999999997
 40
0.5151515151515148
 40
0.5151515151515148
 40
0.5151515151515148
 40
0.5151515151515148
 40
0.5303030303030299
 40
0.5303030303030299
 40
0.5303030303030299
 40
0.5303030303030299
 40
0.5454545454545451
 40
0.5454545454545451
 40
0.5454545454545451
 40
0.5454545454545451
 40
0.5606060606060602
 40
0.5606060606060602
 40
0.5606060606060602
 40
0.5606060606060602
 40
0.5757575757575754
 40
0.5757575757575754
 40
0.5757575757575754
 40
0.5757575757575754
 40
0.5909090909090905
 40
0.5909090909090905
 40
0.5909090909090905
 40
0.5909090909090905
 40
0.6060606060606056
 40
0.6060606060606056
 40
0.6060606060606056
 40
0.6060606060606056
 40
0.6212121212121208
 40
0.6212121212121208
 40
0.6212121212121208
 40
0.6212121212121208
 40
0.6363636363636359
 40
0.6363636363636359
 40
0.6363636363636359
 40
0.6363636363636359
 40
0.6515151515151511
 40
0.6515151515151511
 40
0.6515151515151511
 40
0.6515151515151511
 40
0.6666666666666662
 40
0.6666666666666662
 40
0.6666666666666662
 40
0.6666666666666662
 40
0.6818181818181813
 40
0.6818181818181813
 40
0.6818181818181813
 40
0.6818181818181813
 40
0.6969696969696965
 40
0.6969696969696965
 40
0.6969696969696965
 40
0.6969696969696965
 40
0.7121212121212116
 40
0.7121212121212116
 40
0.7121212121212116
 40
0.7121212121212116
 40
0.7272727272727267
 40
0.7272727272727267
 40
0.7272727272727267
 40
0.7272727272727267
 40
0.7424242424242419
 40
0.7424242424242419
 40
0.7424242424242419
 40
0.7424242424242419
 40
0.757575757575757
 40
0.757575757575757
 40
0.757575757575757
 40
0.757575757575757
 40
0.7727272727272722
 40
0.7727272727272722
 40
0.7727272727272722
 40
0.7727272727272722
 40
0.7878787878787873
 40
0.7878787878787873
 40
0.7878787878787873
 40
0.7878787878787873
 40
0.8030303030303024
 40
0.8030303030303024
 40
0.8030303030303024
 40
0.8030303030303024
 40
0.8181818181818176
 40
0.8181818181818176
 40
0.8181818181818176
 40
0.8181818181818176
 40
0.8333333333333327
 40
0.8333333333333327
 40
0.8333333333333327
 40
0.8333333333333327
 40
0.8484848484848478
 40
0.8484848484848478
 40
0.8484848484848478
 40
0.8484848484848478
 40
0.863636363636363
 40
0.863636363636363
 40
0.863636363636363
 40
0.863636363636363
 40
0.8787878787878781
 40
0.8787878787878781
 40
0.8787878787878781
 40
0.8787878787878781
 40
0.8939393939393933
 40
0.8939393939393933
 40
0.8939393939393933
 40
0.8939393939393933
 40
0.9090909090909084
 40
0.9090909090909084
 40
0.9090909090909084
 40
0.9090909090909084
 40
0.9242424242424235
 40
0.9242424242424235
 40
0.9242424242424235
 40
0.9242424242424235
 40
0.9393939393939387
 40
0.9393939393939387
 40
0.9393939393939387
 40
0.9393939393939387
 40
0.9545454545454538
 40
0.9545454545454538
 40
0.9545454545454538
 40
0.9545454545454538
 40
0.969696969696969
 40
0.969696969696969
 40
0.969696969696969
 40
0.969696969696969
 40
0.9848484848484841
 40
0.9848484848484841
 40
0.9848484848484841
 40
0.9848484848484841
 40
1.0
 40
1.0
 40
1.0
 40
1.0
 10
-0.3566220472440945
 20
-0.0188267716535433
 30
0.0
 10
-0.3566220472440945
 20
-0.0188267716535433
 30
0.0
 10
0.297751968503937
 20
0.3430314960629922
 30
0.0
 10
0.297751968503937
 20
0.3430314960629922
 30
0.0
 10
0.297751968503937
 20
0.3430314960629922
 30
0.0
 10
0.297751968503937
 20
0.3430314960629922
 30
0.0
 10
0.3201062992125984
 20
0.3090433070866142
 30
0.0
 10
0.3201062992125984
 20
0.3090433070866142
 30
0.0
 10
0.3201062992125984
 20
0.3090433070866142
 30
0.0
 10
0.3201062992125984
 20
0.3090433070866142
 30
0.0
 10
0.3442598425196851
 20
0.2789015748031496
 30
0.0
 10
0.3442598425196851
 20
0.2789015748031496
 30
0.0
 10
0.3442598425196851
 20
0.2789015748031496
 30
0.0
 10
0.3442598425196851
 20
0.2789015748031496
 30
0.0
 10
0.3700708661417323
 20
0.2523622047244095
 30
0.0
 10
0.3700708661417323
 20
0.2523622047244095
 30
0.0
 10
0.3700708661417323
 20
0.2523622047244095
 30
0.0
 10
0.3700708661417323
 20
0.2523622047244095
 30
0.0
 10
0.3974173228346457
 20
0.2291496062992126
 30
0.0
 10
0.3974173228346457
 20
0.2291496062992126
 30
0.0
 10
0.3974173228346457
 20
0.2291496062992126
 30
0.0
 10
0.3974173228346457
 20
0.2291496062992126
 30
0.0
 10
0.4261456692913386
 20
0.2090236220472441
 30
0.0
 10
0.4261456692913386
 20
0.2090236220472441
 30
0.0
 10
0.4261456692913386
 20
0.2090236220472441
 30
0.0
 10
0.4261456692913386
 20
0.2090236220472441
 30
0.0
 10
0.4561338582677166
 20
0.1917125984251969
 30
0.0
 10
0.4561338582677166
 20
0.1917125984251969
 30
0.0
 10
0.4561338582677166
 20
0.1917125984251969
 30
0.0
 10
0.4561338582677166
 20
0.1917125984251969
 30
0.0
 10
0.487240157480315
 20
0.1769685039370079
 30
0.0
 10
0.487240157480315
 20
0.1769685039370079
 30
0.0
 10
0.487240157480315
 20
0.1769685039370079
 30
0.0
 10
0.487240157480315
 20
0.1769685039370079
 30
0.0
 10
0.5193425196850394
 20
0.1645196850393701
 30
0.0
 10
0.5193425196850394
 20
0.1645196850393701
 30
0.0
 10
0.5193425196850394
 20
0.1645196850393701
 30
0.0
 10
0.5193425196850394
 20
0.1645196850393701
 30
0.0
 10
0.5522834645669291
 20
0.1541299212598425
 30
0.0
 10
0.5522834645669291
 20
0.1541299212598425
 30
0.0
 10
0.5522834645669291
 20
0.1541299212598425
 30
0.0
 10
0.5522834645669291
 20
0.1541299212598425
 30
0.0
 10
0.5859409448818898
 20
0.1455236220472441
 30
0.0
 10
0.5859409448818898
 20
0.1455236220472441
 30
0.0
 10
0.5859409448818898
 20
0.1455236220472441
 30
0.0
 10
0.5859409448818898
 20
0.1455236220472441
 30
0.0
 10
0.6201771653543308
 20
0.1384448818897638
 30
0.0
 10
0.6201771653543308
 20
0.1384448818897638
 30
0.0
 10
0.6201771653543308
 20
0.1384448818897638
 30
0.0
 10
0.6201771653543308
 20
0.1384448818897638
 30
0.0
 10
0.6548622047244095
 20
0.1326377952755906
 30
0.0
 10
0.6548622047244095
 20
0.1326377952755906
 30
0.0
 10
0.6548622047244095
 20
0.1326377952755906
 30
0.0
 10
0.6548622047244095
 20
0.1326377952755906
 30
0.0
 10
0.6898464566929135
 20
0.1278464566929134
 30
0.0
 10
0.6898464566929135
 20
0.1278464566929134
 30
0.0
 10
0.6898464566929135
 20
0.1278464566929134
 30
0.0
 10
0.6898464566929135
 20
0.1278464566929134
 30
0.0
 10
0.7250118110236221
 20
0.1238070866141732
 30
0.0
 10
0.7250118110236221
 20
0.1238070866141732
 30
0.0
 10
0.7250118110236221
 20
0.1238070866141732
 30
0.0
 10
0.7250118110236221
 20
0.1238070866141732
 30
0.0
 10
0.7602086614173229
 20
0.1202677165354331
 30
0.0
 10
0.7602086614173229
 20
0.1202677165354331
 30
0.0
 10
0.7602086614173229
 20
0.1202677165354331
 30
0.0
 10
0.7602086614173229
 20
0.1202677165354331
 30
0.0
 10
0.7953149606299212
 20
0.1169606299212598
 30
0.0
 10
0.7953149606299212
 20
0.1169606299212598
 30
0.0
 10
0.7953149606299212
 20
0.1169606299212598
 30
0.0
 10
0.7953149606299212
 20
0.1169606299212598
 30
0.0
 10
0.8301771653543307
 20
0.1136456692913386
 30
0.0
 10
0.8301771653543307
 20
0.1136456692913386
 30
0.0
 10
0.8301771653543307
 20
0.1136456692913386
 30
0.0
 10
0.8301771653543307
 20
0.1136456692913386
 30
0.0
 10
0.8646771653543307
 20
0.1100433070866142
 30
0.0
 10
0.8646771653543307
 20
0.1100433070866142
 30
0.0
 10
0.8646771653543307
 20
0.1100433070866142
 30
0.0
 10
0.8646771653543307
 20
0.1100433070866142
 30
0.0
 10
0.8986692913385828
 20
0.1059094488188977
 30
0.0
 10
0.8986692913385828
 20
0.1059094488188977
 30
0.0
 10
0.8986692913385828
 20
0.1059094488188977
 30
0.0
 10
0.8986692913385828
 20
0.1059094488188977
 30
0.0
 10
0.9320314960629922
 20
0.1009803149606299
 30
0.0
 10
0.9320314960629922
 20
0.1009803149606299
 30
0.0
 10
0.9320314960629922
 20
0.1009803149606299
 30
0.0
 10
0.9320314960629922
 20
0.1009803149606299
 30
0.0
 10
0.9646062992125984
 20
0.095003937007874
 30
0.0
 10
0.9646062992125984
 20
0.095003937007874
 30
0.0
 10
0.9646062992125984
 20
0.095003937007874
 30
0.0
 10
0.9646062992125984
 20
0.095003937007874
 30
0.0
 10
0.9962795275590551
 20
0.0877125984251969
 30
0.0
 10
0.9962795275590551
 20
0.0877125984251969
 30
0.0
 10
0.9962795275590551
 20
0.0877125984251969
 30
0.0
 10
0.9962795275590551
 20
0.0877125984251969
 30
0.0
 10
1.0269055118110237
 20
0.0788543307086614
 30
0.0
 10
1.0269055118110237
 20
0.0788543307086614
 30
0.0
 10
1.0269055118110237
 20
0.0788543307086614
 30
0.0
 10
1.0269055118110237
 20
0.0788543307086614
 30
0.0
 10
1.0563582677165355
 20
0.0681653543307087
 30
0.0
 10
1.0563582677165355
 20
0.0681653543307087
 30
0.0
 10
1.0563582677165355
 20
0.0681653543307087
 30
0.0
 10
1.0563582677165355
 20
0.0681653543307087
 30
0.0
 10
1.0844842519685041
 20
0.0554015748031496
 30
0.0
 10
1.0844842519685041
 20
0.0554015748031496
 30
0.0
 10
1.0844842519685041
 20
0.0554015748031496
 30
0.0
 10
1.0844842519685041
 20
0.0554015748031496
 30
0.0
 10
1.1111653543307087
 20
0.0402874015748032
 30
0.0
 10
1.1111653543307087
 20
0.0402874015748032
 30
0.0
 10
1.1111653543307087
 20
0.0402874015748032
 30
0.0
 10
1.1111653543307087
 20
0.0402874015748032
 30
0.0
 10
1.1362559055118111
 20
0.0225748031496063
 30
0.0
 10
1.1362559055118111
 20
0.0225748031496063
 30
0.0
 10
1.1362559055118111
 20
0.0225748031496063
 30
0.0
 10
1.1362559055118111
 20
0.0225748031496063
 30
0.0
 10
1.1596299212598427
 20
0.002
 30
0.0
 10
1.1596299212598427
 20
0.002
 30
0.0
 10
1.1596299212598427
 20
0.002
 30
0.0
 10
1.1596299212598427
 20
0.002
 30
0.0
 10
1.1811377952755906
 20
-0.0216889763779528
 30
0.0
 10
1.1811377952755906
 20
-0.0216889763779528
 30
0.0
 10
1.1811377952755906
 20
-0.0216889763779528
 30
0.0
 10
1.1811377952755906
 20
-0.0216889763779528
 30
0.0
 10
1.2006614173228347
 20
-0.048755905511811
 30
0.0
 10
1.2006614173228347
 20
-0.048755905511811
 30
0.0
 10
1.2006614173228347
 20
-0.048755905511811
 30
0.0
 10
1.2006614173228347
 20
-0.048755905511811
 30
0.0
 10
1.2180511811023622
 20
-0.0794566929133858
 30
0.0
 10
1.2180511811023622
 20
-0.0794566929133858
 30
0.0
 10
1.2180511811023622
 20
-0.0794566929133858
 30
0.0
 10
1.2180511811023622
 20
-0.0794566929133858
 30
0.0
 10
1.2331850393700787
 20
-0.1140551181102362
 30
0.0
 10
1.2331850393700787
 20
-0.1140551181102362
 30
0.0
 10
1.2331850393700787
 20
-0.1140551181102362
 30
0.0
 10
1.2331850393700787
 20
-0.1140551181102362
 30
0.0
 10
0.5788110236220473
 20
-0.4759133858267717
 30
0.0
 10
0.5788110236220473
 20
-0.4759133858267717
 30
0.0
 10
0.5788110236220473
 20
-0.4759133858267717
 30
0.0
 10
0.5788110236220473
 20
-0.4759133858267717
 30
0.0
 10
0.5636771653543308
 20
-0.4413149606299213
 30
0.0
 10
0.5636771653543308
 20
-0.4413149606299213
 30
0.0
 10
0.5636771653543308
 20
-0.4413149606299213
 30
0.0
 10
0.5636771653543308
 20
-0.4413149606299213
 30
0.0
 10
0.5462874015748032
 20
-0.4106141732283465
 30
0.0
 10
0.5462874015748032
 20
-0.4106141732283465
 30
0.0
 10
0.5462874015748032
 20
-0.4106141732283465
 30
0.0
 10
0.5462874015748032
 20
-0.4106141732283465
 30
0.0
 10
0.526763779527559
 20
-0.3835472440944882
 30
0.0
 10
0.526763779527559
 20
-0.3835472440944882
 30
0.0
 10
0.526763779527559
 20
-0.3835472440944882
 30
0.0
 10
0.526763779527559
 20
-0.3835472440944882
 30
0.0
 10
0.505255905511811
 20
-0.3598582677165355
 30
0.0
 10
0.505255905511811
 20
-0.3598582677165355
 30
0.0
 10
0.505255905511811
 20
-0.3598582677165355
 30
0.0
 10
0.505255905511811
 20
-0.3598582677165355
 30
0.0
 10
0.4818818897637796
 20
-0.3392834645669292
 30
0.0
 10
0.4818818897637796
 20
-0.3392834645669292
 30
0.0
 10
0.4818818897637796
 20
-0.3392834645669292
 30
0.0
 10
0.4818818897637796
 20
-0.3392834645669292
 30
0.0
 10
0.4567913385826772
 20
-0.3215708661417323
 30
0.0
 10
0.4567913385826772
 20
-0.3215708661417323
 30
0.0
 10
0.4567913385826772
 20
-0.3215708661417323
 30
0.0
 10
0.4567913385826772
 20
-0.3215708661417323
 30
0.0
 10
0.4301102362204725
 20
-0.3064566929133858
 30
0.0
 10
0.4301102362204725
 20
-0.3064566929133858
 30
0.0
 10
0.4301102362204725
 20
-0.3064566929133858
 30
0.0
 10
0.4301102362204725
 20
-0.3064566929133858
 30
0.0
 10
0.401984251968504
 20
-0.2936929133858268
 30
0.0
 10
0.401984251968504
 20
-0.2936929133858268
 30
0.0
 10
0.401984251968504
 20
-0.2936929133858268
 30
0.0
 10
0.401984251968504
 20
-0.2936929133858268
 30
0.0
 10
0.3725314960629921
 20
-0.283003937007874
 30
0.0
 10
0.3725314960629921
 20
-0.283003937007874
 30
0.0
 10
0.3725314960629921
 20
-0.283003937007874
 30
0.0
 10
0.3725314960629921
 20
-0.283003937007874
 30
0.0
 10
0.3419055118110236
 20
-0.2741456692913386
 30
0.0
 10
0.3419055118110236
 20
-0.2741456692913386
 30
0.0
 10
0.3419055118110236
 20
-0.2741456692913386
 30
0.0
 10
0.3419055118110236
 20
-0.2741456692913386
 30
0.0
 10
0.3102322834645669
 20
-0.2668543307086614
 30
0.0
 10
0.3102322834645669
 20
-0.2668543307086614
 30
0.0
 10
0.3102322834645669
 20
-0.2668543307086614
 30
0.0
 10
0.3102322834645669
 20
-0.2668543307086614
 30
0.0
 10
0.2776574803149606
 20
-0.2608779527559055
 30
0.0
 10
0.2776574803149606
 20
-0.2608779527559055
 30
0.0
 10
0.2776574803149606
 20
-0.2608779527559055
 30
0.0
 10
0.2776574803149606
 20
-0.2608779527559055
 30
0.0
 10
0.2442952755905512
 20
-0.2559488188976378
 30
0.0
 10
0.2442952755905512
 20
-0.2559488188976378
 30
0.0
 10
0.2442952755905512
 20
-0.2559488188976378
 30
0.0
 10
0.2442952755905512
 20
-0.2559488188976378
 30
0.0
 10
0.2103031496062992
 20
-0.2518149606299213
 30
0.0
 10
0.2103031496062992
 20
-0.2518149606299213
 30
0.0
 10
0.2103031496062992
 20
-0.2518149606299213
 30
0.0
 10
0.2103031496062992
 20
-0.2518149606299213
 30
0.0
 10
0.1758031496062992
 20
-0.2482125984251969
 30
0.0
 10
0.1758031496062992
 20
-0.2482125984251969
 30
0.0
 10
0.1758031496062992
 20
-0.2482125984251969
 30
0.0
 10
0.1758031496062992
 20
-0.2482125984251969
 30
0.0
 10
0.1409409448818898
 20
-0.2448976377952756
 30
0.0
 10
0.1409409448818898
 20
-0.2448976377952756
 30
0.0
 10
0.1409409448818898
 20
-0.2448976377952756
 30
0.0
 10
0.1409409448818898
 20
-0.2448976377952756
 30
0.0
 10
0.1058346456692913
 20
-0.2415905511811024
 30
0.0
 10
0.1058346456692913
 20
-0.2415905511811024
 30
0.0
 10
0.1058346456692913
 20
-0.2415905511811024
 30
0.0
 10
0.1058346456692913
 20
-0.2415905511811024
 30
0.0
 10
0.0706377952755906
 20
-0.2380511811023622
 30
0.0
 10
0.0706377952755906
 20
-0.2380511811023622
 30
0.0
 10
0.0706377952755906
 20
-0.2380511811023622
 30
0.0
 10
0.0706377952755906
 20
-0.2380511811023622
 30
0.0
 10
0.0354724409448819
 20
-0.2340118110236221
 30
0.0
 10
0.0354724409448819
 20
-0.2340118110236221
 30
0.0
 10
0.0354724409448819
 20
-0.2340118110236221
 30
0.0
 10
0.0354724409448819
 20
-0.2340118110236221
 30
0.0
 10
0.000488188976378
 20
-0.2292204724409449
 30
0.0
 10
0.000488188976378
 20
-0.2292204724409449
 30
0.0
 10
0.000488188976378
 20
-0.2292204724409449
 30
0.0
 10
0.000488188976378
 20
-0.2292204724409449
 30
0.0
 10
-0.0341968503937008
 20
-0.2234133858267717
 30
0.0
 10
-0.0341968503937008
 20
-0.2234133858267717
 30
0.0
 10
-0.0341968503937008
 20
-0.2234133858267717
 30
0.0
 10
-0.0341968503937008
 20
-0.2234133858267717
 30
0.0
 10
-0.0684330708661417
 20
-0.2163346456692913
 30
0.0
 10
-0.0684330708661417
 20
-0.2163346456692913
 30
0.0
 10
-0.0684330708661417
 20
-0.2163346456692913
 30
0.0
 10
-0.0684330708661417
 20
-0.2163346456692913
 30
0.0
 10
-0.1020905511811024
 20
-0.2077283464566929
 30
0.0
 10
-0.1020905511811024
 20
-0.2077283464566929
 30
0.0
 10
-0.1020905511811024
 20
-0.2077283464566929
 30
0.0
 10
-0.1020905511811024
 20
-0.2077283464566929
 30
0.0
 10
-0.1350314960629921
 20
-0.1973385826771654
 30
0.0
 10
-0.1350314960629921
 20
-0.1973385826771654
 30
0.0
 10
-0.1350314960629921
 20
-0.1973385826771654
 30
0.0
 10
-0.1350314960629921
 20
-0.1973385826771654
 30
0.0
 10
-0.1671338582677165
 20
-0.1848897637795276
 30
0.0
 10
-0.1671338582677165
 20
-0.1848897637795276
 30
0.0
 10
-0.1671338582677165
 20
-0.1848897637795276
 30
0.0
 10
-0.1671338582677165
 20
-0.1848897637795276
 30
0.0
 10
-0.198240157480315
 20
-0.1701456692913386
 30
0.0
 10
-0.198240157480315
 20
-0.1701456692913386
 30
0.0
 10
-0.198240157480315
 20
-0.1701456692913386
 30
0.0
 10
-0.198240157480315
 20
-0.1701456692913386
 30
0.0
 10
-0.2282283464566929
 20
-0.1528346456692913
 30
0.0
 10
-0.2282283464566929
 20
-0.1528346456692913
 30
0.0
 10
-0.2282283464566929
 20
-0.1528346456692913
 30
0.0
 10
-0.2282283464566929
 20
-0.1528346456692913
 30
0.0
 10
-0.2569566929133859
 20
-0.1327086614173229
 30
0.0
 10
-0.2569566929133859
 20
-0.1327086614173229
 30
0.0
 10
-0.2569566929133859
 20
-0.1327086614173229
 30
0.0
 10
-0.2569566929133859
 20
-0.1327086614173229
 30
0.0
 10
-0.2843031496062992
 20
-0.109496062992126
 30
0.0
 10
-0.2843031496062992
 20
-0.109496062992126
 30
0.0
 10
-0.2843031496062992
 20
-0.109496062992126
 30
0.0
 10
-0.2843031496062992
 20
-0.109496062992126
 30
0.0
 10
-0.3101141732283465
 20
-0.0829566929133858
 30
0.0
 10
-0.3101141732283465
 20
-0.0829566929133858
 30
0.0
 10
-0.3101141732283465
 20
-0.0829566929133858
 30
0.0
 10
-0.3101141732283465
 20
-0.0829566929133858
 30
0.0
 10
-0.3342677165354331
 20
-0.0528149606299213
 30
0.0
 10
-0.3342677165354331
 20
-0.0528149606299213
 30
0.0
 10
-0.3342677165354331
 20
-0.0528149606299213
 30
0.0
 10
-0.3342677165354331
 20
-0.0528149606299213
 30
0.0
 10
-0.3566220472440945
 20
-0.0188267716535433
 30
0.0
 10
-0.3566220472440945
 20
-0.0188267716535433
 30
0.0
  0
SPLINE
  5
87
100
AcDbEntity
  8
Layer 1
 62
   252
100
AcDbSpline
210
0.0
220
0.0
230
1.0
 70
     1
 71
     3
 72
    20
 73
    16
 74
     0
 42
0.0000000001
 43
0.0000000001
 40
0.0
 40
0.0
 40
0.0
 40
0.0
 40
0.25
 40
0.25
 40
0.25
 40
0.25
 40
0.5
 40
0.5
 40
0.5
 40
0.5
 40
0.75
 40
0.75
 40
0.75
 40
0.75
 40
1.0
 40
1.0
 40
1.0
 40
1.0
 10
0.5788110236220473
 20
-0.4759133858267717
 30
0.0
 10
0.5788110236220473
 20
-0.4759133858267717
 30
0.0
 10
1.2331850393700787
 20
-0.1140551181102362
 30
0.0
 10
1.2331850393700787
 20
-0.1140551181102362
 30
0.0
 10
1.2331850393700787
 20
-0.1140551181102362
 30
0.0
 10
1.2331850393700787
 20
-0.1140551181102362
 30
0.0
 10
1.6371574803149607
 20
-0.1140551181102362
 30
0.0
 10
1.6371574803149607
 20
-0.1140551181102362
 30
0.0
 10
1.6371574803149607
 20
-0.1140551181102362
 30
0.0
 10
1.6371574803149607
 20
-0.1140551181102362
 30
0.0
 10
0.9827834645669292
 20
-0.4759133858267717
 30
0.0
 10
0.9827834645669292
 20
-0.4759133858267717
 30
0.0
 10
0.9827834645669292
 20
-0.4759133858267717
 30
0.0
 10
0.9827834645669292
 20
-0.4759133858267717
 30
0.0
 10
0.5788110236220473
 20
-0.4759133858267717
 30
0.0
 10
0.5788110236220473
 20
-0.4759133858267717
 30
0.0
  0
SPLINE
  5
88
100
AcDbEntity
  8
Layer 1
370
     5
100
AcDbSpline
210
0.0
220
0.0
230
1.0
 70
     1
 71
     3
 72
    20
 73
    16
 74
     0
 42
0.0000000001
 43
0.0000000001
 40
0.0
 40
0.0
 40
0.0
 40
0.0
 40
0.25
 40
0.25
 40
0.25
 40
0.25
 40
0.5
 40
0.5
 40
0.5
 40
0.5
 40
0.75
 40
0.75
 40
0.75
 40
0.75
 40
1.0
 40
1.0
 40
1.0
 40
1.0
 10
0.5788110236220473
 20
-0.4759133858267717
 30
0.0
 10
0.5788110236220473
 20
-0.4759133858267717
 30
0.0
 10
1.2331850393700787
 20
-0.1140551181102362
 30
0.0
 10
1.2331850393700787
 20
-0.1140551181102362
 30
0.0
 10
1.2331850393700787
 20
-0.1140551181102362
 30
0.0
 10
1.2331850393700787
 20
-0.1140551181102362
 30
0.0
 10
1.6371574803149607
 20
-0.1140551181102362
 30
0.0
 10
1.6371574803149607
 20
-0.1140551181102362
 30
0.0
 10
1.6371574803149607
 20
-0.1140551181102362
 30
0.0
 10
1.6371574803149607
 20
-0.1140551181102362
 30
0.0
 10
0.9827834645669292
 20
-0.4759133858267717
 30
0.0
 10
0.9827834645669292
 20
-0.4759133858267717
 30
0.0
 10
0.9827834645669292
 20
-0.4759133858267717
 30
0.0
 10
0.9827834645669292
 20
-0.4759133858267717
 30
0.0
 10
0.5788110236220473
 20
-0.4759133858267717
 30
0.0
 10
0.5788110236220473
 20
-0.4759133858267717
 30
0.0
  0
SPLINE
  5
89
100
AcDbEntity
  8
Layer 1
 62
     9
100
AcDbSpline
210
0.0
220
0.0
230
1.0
 70
     1
 71
     3
 72
    20
 73
    16
 74
     0
 42
0.0000000001
 43
0.0000000001
 40
0.0
 40
0.0
 40
0.0
 40
0.0
 40
0.25
 40
0.25
 40
0.25
 40
0.25
 40
0.5
 40
0.5
 40
0.5
 40
0.5
 40
0.75
 40
0.75
 40
0.75
 40
0.75
 40
1.0
 40
1.0
 40
1.0
 40
1.0
 10
0.9827834645669292
 20
-0.4759133858267717
 30
0.0
 10
0.9827834645669292
 20
-0.4759133858267717
 30
0.0
 10
1.6371574803149607
 20
-0.1140551181102362
 30
0.0
 10
1.6371574803149607
 20
-0.1140551181102362
 30
0.0
 10
1.6371574803149607
 20
-0.1140551181102362
 30
0.0
 10
1.6371574803149607
 20
-0.1140551181102362
 30
0.0
 10
1.6371574803149607
 20
-0.4136889763779528
 30
0.0
 10
1.6371574803149607
 20
-0.4136889763779528
 30
0.0
 10
1.6371574803149607
 20
-0.4136889763779528
 30
0.0
 10
1.6371574803149607
 20
-0.4136889763779528
 30
0.0
 10
0.9827834645669292
 20
-0.7755472440944882
 30
0.0
 10
0.9827834645669292
 20
-0.7755472440944882
 30
0.0
 10
0.9827834645669292
 20
-0.7755472440944882
 30
0.0
 10
0.9827834645669292
 20
-0.7755472440944882
 30
0.0
 10
0.9827834645669292
 20
-0.4759133858267717
 30
0.0
 10
0.9827834645669292
 20
-0.4759133858267717
 30
0.0
  0
SPLINE
  5
8A
100
AcDbEntity
  8
Layer 1
370
     5
100
AcDbSpline
210
0.0
220
0.0
230
1.0
 70
     1
 71
     3
 72
    20
 73
    16
 74
     0
 42
0.0000000001
 43
0.0000000001
 40
0.0
 40
0.0
 40
0.0
 40
0.0
 40
0.25
 40
0.25
 40
0.25
 40
0.25
 40
0.5
 40
0.5
 40
0.5
 40
0.5
 40
0.75
 40
0.75
 40
0.75
 40
0.75
 40
1.0
 40
1.0
 40
1.0
 40
1.0
 10
0.9827834645669292
 20
-0.4759133858267717
 30
0.0
 10
0.9827834645669292
 20
-0.4759133858267717
 30
0.0
 10
1.6371574803149607
 20
-0.1140551181102362
 30
0.0
 10
1.6371574803149607
 20
-0.1140551181102362
 30
0.0
 10
1.6371574803149607
 20
-0.1140551181102362
 30
0.0
 10
1.6371574803149607
 20
-0.1140551181102362
 30
0.0
 10
1.6371574803149607
 20
-0.4136889763779528
 30
0.0
 10
1.6371574803149607
 20
-0.4136889763779528
 30
0.0
 10
1.6371574803149607
 20
-0.4136889763779528
 30
0.0
 10
1.6371574803149607
 20
-0.4136889763779528
 30
0.0
 10
0.9827834645669292
 20
-0.7755472440944882
 30
0.0
 10
0.9827834645669292
 20
-0.7755472440944882
 30
0.0
 10
0.9827834645669292
 20
-0.7755472440944882
 30
0.0
 10
0.9827834645669292
 20
-0.7755472440944882
 30
0.0
 10
0.9827834645669292
 20
-0.4759133858267717
 30
0.0
 10
0.9827834645669292
 20
-0.4759133858267717
 30
0.0
  0
SPLINE
  5
8B
100
AcDbEntity
  8
Layer 1
370
     5
 62
     7
100
AcDbSpline
210
0.0
220
0.0
230
1.0
 70
     1
 71
     3
 72
    32
 73
    28
 74
     0
 42
0.0000000001
 43
0.0000000001
 40
0.0
 40
0.0
 40
0.0
 40
0.0
 40
0.1428571428571429
 40
0.1428571428571429
 40
0.1428571428571429
 40
0.1428571428571429
 40
0.2857142857142857
 40
0.2857142857142857
 40
0.2857142857142857
 40
0.2857142857142857
 40
0.4285714285714286
 40
0.4285714285714286
 40
0.4285714285714286
 40
0.4285714285714286
 40
0.5714285714285714
 40
0.5714285714285714
 40
0.5714285714285714
 40
0.5714285714285714
 40
0.7142857142857142
 40
0.7142857142857142
 40
0.7142857142857142
 40
0.7142857142857142
 40
0.857142857142857
 40
0.857142857142857
 40
0.857142857142857
 40
0.857142857142857
 40
1.0
 40
1.0
 40
1.0
 40
1.0
 10
-1.4696062992125984
 20
-0.7569330708661418
 30
0.0
 10
-1.4696062992125984
 20
-0.3607874015748032
 30
0.0
 10
-0.9323622047244095
 20
-0.7346811023622047
 30
0.0
 10
-0.8908937007874016
 20
0.0004566929133858
 30
0.0
 10
-0.8908937007874016
 20
0.0004566929133858
 30
0.0
 10
-0.8908937007874016
 20
0.0004566929133858
 30
0.0
 10
-0.3566220472440945
 20
-0.0188267716535433
 30
0.0
 10
-0.3566220472440945
 20
-0.0188267716535433
 30
0.0
 10
-0.3566220472440945
 20
-0.0188267716535433
 30
0.0
 10
-0.1282086614173228
 20
-0.4028976377952756
 30
0.0
 10
0.429992125984252
 20
-0.0852637795275591
 30
0.0
 10
0.5788110236220473
 20
-0.4759133858267717
 30
0.0
 10
0.5788110236220473
 20
-0.4759133858267717
 30
0.0
 10
0.5788110236220473
 20
-0.4759133858267717
 30
0.0
 10
0.9827834645669292
 20
-0.4759133858267717
 30
0.0
 10
0.9827834645669292
 20
-0.4759133858267717
 30
0.0
 10
0.9827834645669292
 20
-0.4759133858267717
 30
0.0
 10
0.9827834645669292
 20
-0.4759133858267717
 30
0.0
 10
0.9827834645669292
 20
-0.7755472440944882
 30
0.0
 10
0.9827834645669292
 20
-0.7755472440944882
 30
0.0
 10
0.9827834645669292
 20
-0.7755472440944882
 30
0.0
 10
0.9827834645669292
 20
-0.7755472440944882
 30
0.0
 10
-1.4692125984251969
 20
-0.7755472440944882
 30
0.0
 10
-1.4692125984251969
 20
-0.7755472440944882
 30
0.0
 10
-1.4692125984251969
 20
-0.7755472440944882
 30
0.0
 10
-1.4692125984251969
 20
-0.7755472440944882
 30
0.0
 10
-1.4696062992125984
 20
-0.7569330708661418
 30
0.0
 10
-1.4696062992125984
 20
-0.7569330708661418
 30
0.0
  0
TEXT
  5
8C
100
AcDbEntity
  8
Layer 1
100
AcDbText
 10
-0.291575
 20
-0.980378
 30
0.0
 40
0.119999
  1
BA  1521
 51
-0.000002
  7
Bookman Old Style
100
AcDbText
  0
TEXT
  5
8D
100
AcDbEntity
  8
Layer 1
100
AcDbText
 10
-0.523268
 20
-1.167878
 30
0.0
 40
0.119999
  1
3/4\u+201d x 2-7/16\u+201d
 51
-0.000002
  7
Bookman Old Style
100
AcDbText
  0
ENDSEC
  0
SECTION
  2
OBJECTS
  0
DICTIONARY
  5
19
100
AcDbDictionary
280
     0
281
     1
  3
ACAD_GROUP
350
1A
  3
ACAD_MLINESTYLE
350
1B
  3
ACAD_LAYOUT
350
1E
  3
ACAD_PLOTSETTINGS
350
22
  3
ACAD_PLOTSTYLENAME
350
1F
  3
ACAD_WIPEOUT_VARS
350
23
  0
DICTIONARY
  5
1A
102
{ACAD_REACTORS
330
19
102
}
100
AcDbDictionary
280
     0
281
     1
  0
DICTIONARY
  5
1B
102
{ACAD_REACTORS
330
19
102
}
100
AcDbDictionary
280
     0
281
     1
  3
Standard
350
1C
  0
MLINESTYLE
  5
1C
102
{ACAD_REACTORS
330
1B
102
}
100
AcDbMlineStyle
  2
Standard
 70
     0
  3

 62
     0
 51
90.0
 52
90.0
 71
     2
 49
0.5
 62
   256
  6
BYLAYER
 49
-0.5
 62
   256
  6
BYLAYER
  0
ACDBDICTIONARYWDFLT
  5
1F
102
{ACAD_REACTORS
330
19
102
}
100
AcDbDictionary
281
     1
  3
Normal
350
1D
100
AcDbDictionaryWithDefault
340
1D
  0
ACDBPLACEHOLDER
  5
1D
102
{ACAD_REACTORS
330
1F
102
}
  0
LAYOUT
  5
20
102
{ACAD_REACTORS
330
1E
102
}
100
AcDbPlotSettings
  1

  2

  4

  6

 40
0.0
 41
0.0
 42
0.0
 43
0.0
 44
0.0
 45
0.0
 46
0.0
 47
0.0
 48
0.0
 49
0.0
140
0.0
141
0.0
142
1.0
143
1.0
 70
  1024
 72
     0
 73
     0
 74
     0
  7

 75
     0
147
1.0
148
0.0
149
0.0
100
AcDbLayout
  1
Model
 70
     0
 71
     0
 10
0.0
 20
0.0
 11
0.0
 21
0.0
 12
0.0
 22
0.0
 32
0.0
 14
0.0
 24
0.0
 34
0.0
 15
0.0
 25
0.0
 35
0.0
146
0.0
 13
0.0
 23
0.0
 33
0.0
 16
0.0
 26
0.0
 36
0.0
 17
0.0
 27
0.0
 37
0.0
 76
     0
330
A
331
0
345
0
346
0
  0
LAYOUT
  5
21
102
{ACAD_REACTORS
330
1E
102
}
100
AcDbPlotSettings
  1

  2

  4

  6

 40
0.0
 41
0.0
 42
0.0
 43
0.0
 44
0.0
 45
0.0
 46
0.0
 47
0.0
 48
0.0
 49
0.0
140
0.0
141
0.0
142
1.0
143
1.0
 70
     0
 72
     0
 73
     0
 74
     0
  7

 75
     0
147
1.0
148
0.0
149
0.0
100
AcDbLayout
  1
Layout1
 70
     0
 71
     0
 10
0.0
 20
0.0
 11
0.0
 21
0.0
 12
0.0
 22
0.0
 32
0.0
 14
0.0
 24
0.0
 34
0.0
 15
0.0
 25
0.0
 35
0.0
146
0.0
 13
0.0
 23
0.0
 33
0.0
 16
0.0
 26
0.0
 36
0.0
 17
0.0
 27
0.0
 37
0.0
 76
     0
330
B
331
0
345
0
346
0
  0
DICTIONARY
  5
1E
102
{ACAD_REACTORS
330
19
102
}
100
AcDbDictionary
280
     0
281
     1
  3
Layout1
350
21
  3
Model
350
20
  0
DICTIONARY
  5
22
102
{ACAD_REACTORS
330
19
102
}
100
AcDbDictionary
280
     0
281
     1
  0
WIPEOUTVARIABLES
  5
23
100
AcDbWipeoutVariables
 70
     1
  0
ENDSEC
  0
EOF
