  0
SECTION
  2
HEADER
  9
$ACADVER
  1
AC1015
  9
$ACADMAINTVER
 70
     6
  9
$DWGCODEPAGE
  3
DOS850
  9
$INSBASE
 10
0.0
 20
0.0
 30
0.0
  9
$EXTMIN
 10
-2.079772
 20
-3.082031
 30
1.000000E+20
  9
$EXTMAX
 10
1.923228
 20
4.274161
 30
-1.000000E+20
  9
$LIMMIN
 10
0.0
 20
0.0
  9
$LIMMAX
 10
0.0
 20
0.0
  9
$ORTHOMODE
 70
     0
  9
$REGENMODE
 70
     1
  9
$FILLMODE
 70
     1
  9
$QTEXTMODE
 70
     0
  9
$MIRRTEXT
 70
     1
  9
$LTSCALE
 40
1.0
  9
$ATTMODE
 70
     1
  9
$TEXTSIZE
 40
0.2
  9
$TRACEWID
 40
0.05
  9
$TEXTSTYLE
  7
Standard
  9
$CLAYER
  8
0
  9
$CELTYPE
  6
Continuous
  9
$CECOLOR
 62
   256
  9
$CELTSCALE
 40
1.0
  9
$DISPSILH
 70
     0
  9
$DIMSCALE
 40
1.0
  9
$DIMASZ
 40
0.18
  9
$DIMEXO
 40
0.0625
  9
$DIMDLI
 40
0.38
  9
$DIMRND
 40
0.0
  9
$DIMDLE
 40
0.0
  9
$DIMEXE
 40
0.18
  9
$DIMTP
 40
0.0
  9
$DIMTM
 40
0.0
  9
$DIMTXT
 40
0.18
  9
$DIMCEN
 40
0.09
  9
$DIMTSZ
 40
0.0
  9
$DIMTOL
 70
     0
  9
$DIMLIM
 70
     0
  9
$DIMTIH
 70
     1
  9
$DIMTOH
 70
     1
  9
$DIMSE1
 70
     0
  9
$DIMSE2
 70
     0
  9
$DIMTAD
 70
     0
  9
$DIMZIN
 70
     0
  9
$DIMBLK
  1

  9
$DIMASO
 70
     1
  9
$DIMSHO
 70
     1
  9
$DIMPOST
  1

  9
$DIMAPOST
  1

  9
$DIMALT
 70
     0
  9
$DIMALTD
 70
     2
  9
$DIMALTF
 40
25.4
  9
$DIMLFAC
 40
1.0
  9
$DIMTOFL
 70
     0
  9
$DIMTVP
 40
0.0
  9
$DIMTIX
 70
     0
  9
$DIMSOXD
 70
     0
  9
$DIMSAH
 70
     0
  9
$DIMBLK1
  1

  9
$DIMBLK2
  1

  9
$DIMSTYLE
  2
Standard
  9
$DIMCLRD
 70
     0
  9
$DIMCLRE
 70
     0
  9
$DIMCLRT
 70
     0
  9
$DIMTFAC
 40
1.0
  9
$DIMGAP
 40
0.09
  9
$DIMJUST
 70
     0
  9
$DIMSD1
 70
     0
  9
$DIMSD2
 70
     0
  9
$DIMTOLJ
 70
     1
  9
$DIMTZIN
 70
     0
  9
$DIMALTZ
 70
     0
  9
$DIMALTTZ
 70
     0
  9
$DIMUPT
 70
     0
  9
$DIMDEC
 70
     4
  9
$DIMTDEC
 70
     4
  9
$DIMALTU
 70
     2
  9
$DIMALTTD
 70
     2
  9
$DIMTXSTY
  7
Standard
  9
$DIMAUNIT
 70
     0
  9
$DIMADEC
 70
     0
  9
$DIMALTRND
 40
0.0
  9
$DIMAZIN
 70
     0
  9
$DIMDSEP
 70
     0
  9
$DIMATFIT
 70
     3
  9
$DIMFRAC
 70
     0
  9
$DIMLDRBLK
  1

  9
$DIMLUNIT
 70
     2
  9
$DIMLWD
 70
     0
  9
$DIMLWE
 70
     0
  9
$DIMTMOVE
 70
     0
  9
$LUNITS
 70
     2
  9
$LUPREC
 70
     4
  9
$SKETCHINC
 40
0.1
  9
$FILLETRAD
 40
0.0
  9
$AUNITS
 70
     0
  9
$AUPREC
 70
     0
  9
$MENU
  1
acad
  9
$ELEVATION
 40
0.0
  9
$PELEVATION
 40
0.0
  9
$THICKNESS
 40
0.0
  9
$LIMCHECK
 70
     0
  9
$CHAMFERA
 40
0.0
  9
$CHAMFERB
 40
0.0
  9
$CHAMFERC
 40
0.0
  9
$CHAMFERD
 40
0.0
  9
$SKPOLY
 70
     0
  9
$TDCREATE
 40
0.000000000
  9
$TDUCREATE
 40
0.000000000
  9
$TDUPDATE
 40
0.000000000
  9
$TDUUPDATE
 40
0.000000000
  9
$TDINDWG
 40
0.0000000000
  9
$TDUSRTIMER
 40
0.0000000000
  9
$USRTIMER
 70
     1
  9
$ANGBASE
 50
0.0
  9
$ANGDIR
 70
     0
  9
$PDMODE
 70
     0
  9
$PDSIZE
 40
0.0
  9
$PLINEWID
 40
0.0
  9
$SPLFRAME
 70
     0
  9
$SPLINETYPE
 70
     6
  9
$SPLINESEGS
 70
     8
  9
$HANDSEED
  5
C2
  9
$SURFTAB1
 70
     6
  9
$SURFTAB2
 70
     6
  9
$SURFTYPE
 70
     6
  9
$SURFU
 70
     6
  9
$SURFV
 70
     6
  9
$UCSBASE
  2

  9
$UCSNAME
  2

  9
$UCSORG
 10
0.0
 20
0.0
 30
0.0
  9
$UCSXDIR
 10
1.0
 20
0.0
 30
0.0
  9
$UCSYDIR
 10
0.0
 20
1.0
 30
0.0
  9
$UCSORTHOREF
  2

  9
$UCSORTHOVIEW
 70
     0
  9
$UCSORGTOP
 10
0.0
 20
0.0
 30
0.0
  9
$UCSORGBOTTOM
 10
0.0
 20
0.0
 30
0.0
  9
$UCSORGLEFT
 10
0.0
 20
0.0
 30
0.0
  9
$UCSORGRIGHT
 10
0.0
 20
0.0
 30
0.0
  9
$UCSORGFRONT
 10
0.0
 20
0.0
 30
0.0
  9
$UCSORGBACK
 10
0.0
 20
0.0
 30
0.0
  9
$PUCSBASE
  2

  9
$PUCSNAME
  2

  9
$PUCSORG
 10
0.0
 20
0.0
 30
0.0
  9
$PUCSXDIR
 10
1.0
 20
0.0
 30
0.0
  9
$PUCSYDIR
 10
0.0
 20
1.0
 30
0.0
  9
$PUCSORTHOREF
  2

  9
$PUCSORTHOVIEW
 70
     0
  9
$PUCSORGTOP
 10
0.0
 20
0.0
 30
0.0
  9
$PUCSORGBOTTOM
 10
0.0
 20
0.0
 30
0.0
  9
$PUCSORGLEFT
 10
0.0
 20
0.0
 30
0.0
  9
$PUCSORGRIGHT
 10
0.0
 20
0.0
 30
0.0
  9
$PUCSORGFRONT
 10
0.0
 20
0.0
 30
0.0
  9
$PUCSORGBACK
 10
0.0
 20
0.0
 30
0.0
  9
$USERI1
 70
     0
  9
$USERI2
 70
     0
  9
$USERI3
 70
     0
  9
$USERI4
 70
     0
  9
$USERI5
 70
     0
  9
$USERR1
 40
0.0
  9
$USERR2
 40
0.0
  9
$USERR3
 40
0.0
  9
$USERR4
 40
0.0
  9
$USERR5
 40
0.0
  9
$WORLDVIEW
 70
     1
  9
$SHADEDGE
 70
     3
  9
$SHADEDIF
 70
    70
  9
$TILEMODE
 70
     1
  9
$MAXACTVP
 70
    16
  9
$PINSBASE
 10
0.0
 20
0.0
 30
0.0
  9
$PLIMCHECK
 70
     0
  9
$PEXTMIN
 10
1.000000E+20
 20
1.000000E+20
 30
1.000000E+20
  9
$PEXTMAX
 10
-1.000000E+20
 20
-1.000000E+20
 30
-1.000000E+20
  9
$PLIMMIN
 10
0.0
 20
0.0
  9
$PLIMMAX
 10
12.0
 20
9.0
  9
$UNITMODE
 70
     0
  9
$VISRETAIN
 70
     0
  9
$PLINEGEN
 70
     1
  9
$PSLTSCALE
 70
     0
  9
$TREEDEPTH
 70
  3020
  9
$CMLSTYLE
  2
Standard
  9
$CMLJUST
 70
     0
  9
$CMLSCALE
 40
1.0
  9
$PROXYGRAPHICS
 70
     0
  9
$MEASUREMENT
 70
     0
  9
$CELWEIGHT
370
     0
  9
$ENDCAPS
280
     0
  9
$JOINSTYLE
280
     0
  9
$LWDISPLAY
290
     0
  9
$INSUNITS
 70
     1
  9
$HYPERLINKBASE
  1

  9
$XEDIT
290
     1
  9
$CEPSNTYPE
380
     0
  9
$PSTYLEMODE
290
     1
  9
$FINGERPRINTGUID
  2

  9
$VERSIONGUID
  2

  9
$EXTNAMES
290
     1
  9
$PSVPSCALE
 40
0.0
  0
ENDSEC
  0
SECTION
  2
CLASSES
  0
CLASS
  1
LWPOLYLINE
  2
AcDbPolyline
  3
AutoCAD 2000
 90
    32768
280
     0
281
     1
  0
CLASS
  1
IMAGE
  2
AcDbRasterImage
  3
ISM
 90
    32895
280
     0
281
     1
  0
CLASS
  1
OLE2FRAME
  2
AcDbOle2Frame
  3
AutoCAD 2000
 90
    32768
280
     0
281
     1
  0
CLASS
  1
HATCH
  2
AcDbHatch
  3
AutoCAD 2000
 90
    32768
280
     0
281
     1
  0
CLASS
  1
DICTIONARYVAR
  2
AcDbDictionaryVar
  3
AutoCAD 2000
 90
    32768
280
     0
281
     0
  0
CLASS
  1
RASTERVARIABLES
  2
AcDbRasterVariables
  3
ISM
 90
    32768
280
     0
281
     0
  0
CLASS
  1
IMAGEDEF
  2
AcDbRasterImageDef
  3
ISM
 90
    32768
280
     0
281
     0
  0
CLASS
  1
IMAGEDEF_REACTOR
  2
AcDbRasterImageDefReactor
  3
ISM
 90
    32769
280
     0
281
     0
  0
CLASS
  1
IDBUFFER
  2
AcDbIdBuffer
  3
AutoCAD 2000
 90
    32768
280
     0
281
     0
  0
CLASS
  1
SPATIAL_FILTER
  2
AcDbSpatialFilter
  3
AutoCAD 2000
 90
    32768
280
     0
281
     0
  0
CLASS
  1
XRECORD
  2
AcDbXrecord
  3
AutoCAD 2000
 90
    32768
280
     0
281
     0
  0
CLASS
  1
SORTENTSTABLE
  2
AcDbSortentsTable
  3
AutoCAD 2000
 90
    32768
280
     0
281
     0
  0
CLASS
  1
LAYER_INDEX
  2
AcDbLayerIndex
  3
AutoCAD 2000
 90
    32768
280
     0
281
     0
  0
CLASS
  1
SPATIAL_INDEX
  2
AcDbSpatialIndex
  3
AutoCAD 2000
 90
    32768
280
     0
281
     0
  0
CLASS
  1
OBJECT_PTR
  2
CAseDLPNTableRecord
  3
"ASE-LPNTableRecord"
 90
    32769
280
     0
281
     0
  0
CLASS
  1
LAYOUT
  2
AcDbLayout
  3
AutoCAD 2000
 90
        0
280
     0
281
     0
  0
CLASS
  1
PLOTSETTINGS
  2
AcDbPlotSettings
  3
AutoCAD 2000
 90
    32768
280
     0
281
     0
  0
CLASS
  1
ACDBDICTIONARYWDFLT
  2
AcDbDictionaryWithDefault
  3
AutoCAD 2000
 90
        0
280
     0
281
     0
  0
CLASS
  1
ACDBPLACEHOLDER
  2
AcDbPlaceHolder
  3
AutoCAD 2000
 90
        0
280
     0
281
     0
  0
CLASS
  1
VBA_PROJECT
  2
AcDbVbaProject
  3
acadvba
 90
    32768
280
     0
281
     0
  0
CLASS
  1
WIPEOUT
  2
AcDbWipeout
  3
WipeOut|AutoCAD Express Tool|expresstools@autodesk.com
 90
    32895
280
     0
281
     1
  0
CLASS
  1
WIPEOUTVARIABLES
  2
AcDbWipeoutVariables
  3
WipeOut|AutoCAD Express Tool|expresstools@autodesk.com
 90
        0
280
     0
281
     0
  0
CLASS
  1
RTEXT
  2
RText
  3
RText|AutoCAD Express Tool|expresstools@autodesk.com
 90
    32768
280
     0
281
     1
  0
CLASS
  1
ARCALIGNEDTEXT
  2
AcDbArcAlignedText
  3
ATEXT|AutoCAD Express Tool|expresstools@autodesk.com
 90
    32768
280
     0
281
     1
  0
ENDSEC
  0
SECTION
  2
TABLES
  0
TABLE
  2
VPORT
  5
7
100
AcDbSymbolTable
 70
     1
  0
VPORT
  5
15
100
AcDbSymbolTableRecord
100
AcDbViewportTableRecord
  2
*ACTIVE
 70
     0
 10
0.0
 20
0.0
 11
1.0
 21
1.0
 12
6.591288
 22
4.579184
 13
0.0
 23
0.0
 14
1.0
 24
1.0
 15
0.0
 25
0.0
 16
0.0
 26
0.0
 36
1.0
 17
0.0
 27
0.0
 37
0.0
 40
9.158369
 41
0.688564
 42
50.0
 43
0.0
 44
0.0
 50
0.0
 51
0.0
 71
     0
 72
   100
 73
     1
 74
     1
 75
     0
 76
     0
 77
     0
 78
     0
281
     0
 65
     0
110
0.0
120
0.0
130
0.0
111
1.0
121
0.0
131
0.0
112
0.0
122
1.0
132
0.0
345
0
346
0
 79
     0
146
0.0
  0
ENDTAB
  0
TABLE
  2
LTYPE
  5
4
100
AcDbSymbolTable
 70
     3
  0
LTYPE
  5
11
100
AcDbSymbolTableRecord
100
AcDbLinetypeTableRecord
  2
ByBlock
 70
    64
  3

 72
    65
 73
     0
 40
0.0
  0
LTYPE
  5
12
100
AcDbSymbolTableRecord
100
AcDbLinetypeTableRecord
  2
ByLayer
 70
    64
  3

 72
    65
 73
     0
 40
0.0
  0
LTYPE
  5
13
100
AcDbSymbolTableRecord
100
AcDbLinetypeTableRecord
  2
Continuous
 70
    64
  3
Solid line
 72
    65
 73
     0
 40
0.0
  0
ENDTAB
  0
TABLE
  2
LAYER
  5
2
100
AcDbSymbolTable
 70
     2
  0
LAYER
  5
14
100
AcDbSymbolTableRecord
100
AcDbLayerTableRecord
  2
0
 70
     0
 62
     7
  6
Continuous
290
     1
370
    -3
390
1D
  0
LAYER
  5
24
100
AcDbSymbolTableRecord
100
AcDbLayerTableRecord
  2
Layer 1
 70
     0
 62
     7
  6
Continuous
290
     1
370
    -3
390
1F
  0
ENDTAB
  0
TABLE
  2
STYLE
  5
3
100
AcDbSymbolTable
 70
     2
  0
STYLE
  5
17
100
AcDbSymbolTableRecord
100
AcDbTextStyleTableRecord
  2
Standard
 70
     0
 40
0.0
 41
1.0
 50
0.0
 71
     0
 42
0.0
  3
txt
  4

  0
STYLE
  5
26
100
AcDbSymbolTableRecord
100
AcDbTextStyleTableRecord
  2
Bookman Old Style
 70
     0
 40
1.0
 41
1.0
 50
0.0
 71
     0
 42
1.0
  3
Bookman Old Style
  4

  0
ENDTAB
  0
TABLE
  2
VIEW
  5
5
100
AcDbSymbolTable
 70
     0
  0
ENDTAB
  0
TABLE
  2
UCS
  5
6
100
AcDbSymbolTable
 70
     0
  0
ENDTAB
  0
TABLE
  2
APPID
  5
8
100
AcDbSymbolTable
 70
     1
  0
APPID
  5
16
100
AcDbSymbolTableRecord
100
AcDbRegAppTableRecord
  2
ACAD
 70
     0
  0
ENDTAB
  0
TABLE
  2
DIMSTYLE
  5
9
100
AcDbSymbolTable
 70
     1
100
AcDbDimStyleTable
 71
     0
  0
DIMSTYLE
105
18
100
AcDbSymbolTableRecord
100
AcDbDimStyleTableRecord
  2
Standard
 70
     0
  3

  4

 40
1.0
 41
0.18
 42
0.0625
 43
0.38
 44
0.18
 45
0.0
 46
0.0
 47
0.0
 48
0.0
 71
     0
 72
     0
 73
     1
 74
     1
 75
     0
 76
     0
 77
     0
 78
     0
 79
     0
140
0.18
141
0.09
142
0.0
143
25.4
144
1.0
145
0.0
146
1.0
147
0.09
148
0.0
170
     0
171
     2
172
     0
173
     0
174
     0
175
     0
176
     0
177
     0
178
     0
179
     0
271
     4
272
     4
273
     2
274
     2
275
     0
276
     0
277
     2
278
    46
279
     0
280
     0
281
     0
282
     0
283
     1
284
     0
285
     0
286
     0
288
     0
340
17
341
0
342
0
343
0
344
0
371
    -2
372
    -2
  0
ENDTAB
  0
TABLE
  2
BLOCK_RECORD
  5
1
100
AcDbSymbolTable
 70
     0
  0
BLOCK_RECORD
  5
A
100
AcDbSymbolTableRecord
100
AcDbBlockTableRecord
  2
*MODEL_SPACE
340
20
  0
BLOCK_RECORD
  5
B
100
AcDbSymbolTableRecord
100
AcDbBlockTableRecord
  2
*PAPER_SPACE
340
21
  0
ENDTAB
  0
ENDSEC
  0
SECTION
  2
BLOCKS
  0
BLOCK
  5
D
100
AcDbEntity
  8
0
100
AcDbBlockBegin
  2
*MODEL_SPACE
 70
     0
 10
0.0
 20
0.0
 30
0.0
  3
*MODEL_SPACE
  1

  0
ENDBLK
  5
E
100
AcDbEntity
  8
0
100
AcDbBlockEnd
  0
BLOCK
  5
F
100
AcDbEntity
 67
     1
  8
0
100
AcDbBlockBegin
  2
*PAPER_SPACE
 70
     0
 10
0.0
 20
0.0
 30
0.0
  3
*PAPER_SPACE
  1

  0
ENDBLK
  5
10
100
AcDbEntity
 67
     1
  8
0
100
AcDbBlockEnd
  0
ENDSEC
  0
SECTION
  2
ENTITIES
  0
SPLINE
  5
25
100
AcDbEntity
  8
Layer 1
370
     5
100
AcDbSpline
210
0.0
220
0.0
230
1.0
 70
     1
 71
     3
 72
    48
 73
    44
 74
     0
 42
0.0000000001
 43
0.0000000001
 40
0.0
 40
0.0
 40
0.0
 40
0.0
 40
0.0909090909090909
 40
0.0909090909090909
 40
0.0909090909090909
 40
0.0909090909090909
 40
0.1818181818181818
 40
0.1818181818181818
 40
0.1818181818181818
 40
0.1818181818181818
 40
0.2727272727272727
 40
0.2727272727272727
 40
0.2727272727272727
 40
0.2727272727272727
 40
0.3636363636363637
 40
0.3636363636363637
 40
0.3636363636363637
 40
0.3636363636363637
 40
0.4545454545454546
 40
0.4545454545454546
 40
0.4545454545454546
 40
0.4545454545454546
 40
0.5454545454545455
 40
0.5454545454545455
 40
0.5454545454545455
 40
0.5454545454545455
 40
0.6363636363636365
 40
0.6363636363636365
 40
0.6363636363636365
 40
0.6363636363636365
 40
0.7272727272727274
 40
0.7272727272727274
 40
0.7272727272727274
 40
0.7272727272727274
 40
0.8181818181818183
 40
0.8181818181818183
 40
0.8181818181818183
 40
0.8181818181818183
 40
0.9090909090909093
 40
0.9090909090909093
 40
0.9090909090909093
 40
0.9090909090909093
 40
1.0
 40
1.0
 40
1.0
 40
1.0
 10
1.921728346456693
 20
2.6043385826771654
 30
0.0
 10
1.921728346456693
 20
2.6043385826771654
 30
0.0
 10
1.921728346456693
 20
2.3543385826771654
 30
0.0
 10
1.921728346456693
 20
2.3543385826771654
 30
0.0
 10
1.921728346456693
 20
2.3543385826771654
 30
0.0
 10
1.921728346456693
 20
2.3543385826771654
 30
0.0
 10
-2.078271653543307
 20
2.3543385826771654
 30
0.0
 10
-2.078271653543307
 20
2.3543385826771654
 30
0.0
 10
-2.078271653543307
 20
2.3543385826771654
 30
0.0
 10
-2.078271653543307
 20
2.3543385826771654
 30
0.0
 10
-2.078271653543307
 20
4.2726614173228352
 30
0.0
 10
-2.078271653543307
 20
4.2726614173228352
 30
0.0
 10
-2.078271653543307
 20
4.2726614173228352
 30
0.0
 10
-2.078271653543307
 20
4.2726614173228352
 30
0.0
 10
-1.4086023622047246
 20
4.2726614173228352
 30
0.0
 10
-1.4086023622047246
 20
4.2726614173228352
 30
0.0
 10
-1.4086023622047246
 20
4.2726614173228352
 30
0.0
 10
-1.3778937007874017
 20
4.0600629921259843
 30
0.0
 10
-1.2860354330708661
 20
3.9615826771653544
 30
0.0
 10
-0.9458779527559056
 20
3.9615826771653544
 30
0.0
 10
-0.9458779527559056
 20
3.9615826771653544
 30
0.0
 10
-0.9458779527559056
 20
3.9615826771653544
 30
0.0
 10
-0.9128937007874016
 20
3.8365393700787402
 30
0.0
 10
-0.9128937007874016
 20
3.8365393700787402
 30
0.0
 10
-0.9128937007874016
 20
3.8365393700787402
 30
0.0
 10
-0.9128937007874016
 20
3.8365393700787402
 30
0.0
 10
0.3068897637795276
 20
3.8365393700787402
 30
0.0
 10
0.3068897637795276
 20
3.8365393700787402
 30
0.0
 10
0.3068897637795276
 20
3.8365393700787402
 30
0.0
 10
0.3068897637795276
 20
3.8365393700787402
 30
0.0
 10
0.3361220472440945
 20
3.6425433070866142
 30
0.0
 10
0.3361220472440945
 20
3.6425433070866142
 30
0.0
 10
0.3361220472440945
 20
3.6425433070866142
 30
0.0
 10
1.0861220472440944
 20
3.6425433070866142
 30
0.0
 10
1.2609251968503938
 20
3.0844724409448818
 30
0.0
 10
1.2609251968503938
 20
2.9569133858267715
 30
0.0
 10
1.2609251968503938
 20
2.9569133858267715
 30
0.0
 10
1.2609251968503938
 20
2.9569133858267715
 30
0.0
 10
1.5109251968503938
 20
2.954240157480315
 30
0.0
 10
1.5109251968503938
 20
2.954240157480315
 30
0.0
 10
1.5109251968503938
 20
2.954240157480315
 30
0.0
 10
1.5240551181102362
 20
2.5791653543307089
 30
0.0
 10
1.865011811023622
 20
2.6025511811023625
 30
0.0
 10
1.921728346456693
 20
2.6043385826771654
 30
0.0
  0
TEXT
  5
27
100
AcDbEntity
  8
Layer 1
100
AcDbText
 10
-0.567004
 20
1.991642
 30
0.0
 40
0.119999
  1
BA  1520
 51
-0.000002
  7
Bookman Old Style
100
AcDbText
  0
TEXT
  5
28
100
AcDbEntity
  8
Layer 1
100
AcDbText
 10
-0.458626
 20
1.804142
 30
0.0
 40
0.119999
  1
2\u+201d x 4\u+201d
 51
-0.000002
  7
Bookman Old Style
100
AcDbText
  0
SPLINE
  5
29
100
AcDbEntity
  8
Layer 1
 62
     9
100
AcDbSpline
210
0.0
220
0.0
230
1.0
 70
     1
 71
     3
 72
    20
 73
    16
 74
     0
 42
0.0000000001
 43
0.0000000001
 40
0.0
 40
0.0
 40
0.0
 40
0.0
 40
0.25
 40
0.25
 40
0.25
 40
0.25
 40
0.5
 40
0.5
 40
0.5
 40
0.5
 40
0.75
 40
0.75
 40
0.75
 40
0.75
 40
1.0
 40
1.0
 40
1.0
 40
1.0
 10
-1.3353346456692914
 20
-2.704444881889764
 30
0.0
 10
-1.3353346456692914
 20
-2.704444881889764
 30
0.0
 10
-0.6889645669291339
 20
-3.0805314960629921
 30
0.0
 10
-0.6889645669291339
 20
-3.0805314960629921
 30
0.0
 10
-0.6889645669291339
 20
-3.0805314960629921
 30
0.0
 10
-0.6889645669291339
 20
-3.0805314960629921
 30
0.0
 10
-0.9389645669291339
 20
-3.0805314960629921
 30
0.0
 10
-0.9389645669291339
 20
-3.0805314960629921
 30
0.0
 10
-0.9389645669291339
 20
-3.0805314960629921
 30
0.0
 10
-0.9389645669291339
 20
-3.0805314960629921
 30
0.0
 10
-1.5853346456692914
 20
-2.704444881889764
 30
0.0
 10
-1.5853346456692914
 20
-2.704444881889764
 30
0.0
 10
-1.5853346456692914
 20
-2.704444881889764
 30
0.0
 10
-1.5853346456692914
 20
-2.704444881889764
 30
0.0
 10
-1.3353346456692914
 20
-2.704444881889764
 30
0.0
 10
-1.3353346456692914
 20
-2.704444881889764
 30
0.0
  0
SPLINE
  5
2A
100
AcDbEntity
  8
Layer 1
370
     5
100
AcDbSpline
210
0.0
220
0.0
230
1.0
 70
     1
 71
     3
 72
    20
 73
    16
 74
     0
 42
0.0000000001
 43
0.0000000001
 40
0.0
 40
0.0
 40
0.0
 40
0.0
 40
0.25
 40
0.25
 40
0.25
 40
0.25
 40
0.5
 40
0.5
 40
0.5
 40
0.5
 40
0.75
 40
0.75
 40
0.75
 40
0.75
 40
1.0
 40
1.0
 40
1.0
 40
1.0
 10
-1.3353346456692914
 20
-2.704444881889764
 30
0.0
 10
-1.3353346456692914
 20
-2.704444881889764
 30
0.0
 10
-0.6889645669291339
 20
-3.0805314960629921
 30
0.0
 10
-0.6889645669291339
 20
-3.0805314960629921
 30
0.0
 10
-0.6889645669291339
 20
-3.0805314960629921
 30
0.0
 10
-0.6889645669291339
 20
-3.0805314960629921
 30
0.0
 10
-0.9389645669291339
 20
-3.0805314960629921
 30
0.0
 10
-0.9389645669291339
 20
-3.0805314960629921
 30
0.0
 10
-0.9389645669291339
 20
-3.0805314960629921
 30
0.0
 10
-0.9389645669291339
 20
-3.0805314960629921
 30
0.0
 10
-1.5853346456692914
 20
-2.704444881889764
 30
0.0
 10
-1.5853346456692914
 20
-2.704444881889764
 30
0.0
 10
-1.5853346456692914
 20
-2.704444881889764
 30
0.0
 10
-1.5853346456692914
 20
-2.704444881889764
 30
0.0
 10
-1.3353346456692914
 20
-2.704444881889764
 30
0.0
 10
-1.3353346456692914
 20
-2.704444881889764
 30
0.0
  0
SPLINE
  5
2B
100
AcDbEntity
  8
Layer 1
 62
     9
100
AcDbSpline
210
0.0
220
0.0
230
1.0
 70
     1
 71
     3
 72
    20
 73
    16
 74
     0
 42
0.0000000001
 43
0.0000000001
 40
0.0
 40
0.0
 40
0.0
 40
0.0
 40
0.25
 40
0.25
 40
0.25
 40
0.25
 40
0.5
 40
0.5
 40
0.5
 40
0.5
 40
0.75
 40
0.75
 40
0.75
 40
0.75
 40
1.0
 40
1.0
 40
1.0
 40
1.0
 10
0.3329881889763779
 20
1.2955551181102363
 30
0.0
 10
0.3329881889763779
 20
1.2955551181102363
 30
0.0
 10
0.9793582677165355
 20
0.919468503937008
 30
0.0
 10
0.9793582677165355
 20
0.919468503937008
 30
0.0
 10
0.9793582677165355
 20
0.919468503937008
 30
0.0
 10
0.9793582677165355
 20
0.919468503937008
 30
0.0
 10
0.9793582677165355
 20
0.2497992125984252
 30
0.0
 10
0.9793582677165355
 20
0.2497992125984252
 30
0.0
 10
0.9793582677165355
 20
0.2497992125984252
 30
0.0
 10
0.9793582677165355
 20
0.2497992125984252
 30
0.0
 10
0.3329881889763779
 20
0.6258858267716536
 30
0.0
 10
0.3329881889763779
 20
0.6258858267716536
 30
0.0
 10
0.3329881889763779
 20
0.6258858267716536
 30
0.0
 10
0.3329881889763779
 20
0.6258858267716536
 30
0.0
 10
0.3329881889763779
 20
1.2955551181102363
 30
0.0
 10
0.3329881889763779
 20
1.2955551181102363
 30
0.0
  0
SPLINE
  5
2C
100
AcDbEntity
  8
Layer 1
370
     5
100
AcDbSpline
210
0.0
220
0.0
230
1.0
 70
     1
 71
     3
 72
    20
 73
    16
 74
     0
 42
0.0000000001
 43
0.0000000001
 40
0.0
 40
0.0
 40
0.0
 40
0.0
 40
0.25
 40
0.25
 40
0.25
 40
0.25
 40
0.5
 40
0.5
 40
0.5
 40
0.5
 40
0.75
 40
0.75
 40
0.75
 40
0.75
 40
1.0
 40
1.0
 40
1.0
 40
1.0
 10
0.3329881889763779
 20
1.2955551181102363
 30
0.0
 10
0.3329881889763779
 20
1.2955551181102363
 30
0.0
 10
0.9793582677165355
 20
0.919468503937008
 30
0.0
 10
0.9793582677165355
 20
0.919468503937008
 30
0.0
 10
0.9793582677165355
 20
0.919468503937008
 30
0.0
 10
0.9793582677165355
 20
0.919468503937008
 30
0.0
 10
0.9793582677165355
 20
0.2497992125984252
 30
0.0
 10
0.9793582677165355
 20
0.2497992125984252
 30
0.0
 10
0.9793582677165355
 20
0.2497992125984252
 30
0.0
 10
0.9793582677165355
 20
0.2497992125984252
 30
0.0
 10
0.3329881889763779
 20
0.6258858267716536
 30
0.0
 10
0.3329881889763779
 20
0.6258858267716536
 30
0.0
 10
0.3329881889763779
 20
0.6258858267716536
 30
0.0
 10
0.3329881889763779
 20
0.6258858267716536
 30
0.0
 10
0.3329881889763779
 20
1.2955551181102363
 30
0.0
 10
0.3329881889763779
 20
1.2955551181102363
 30
0.0
  0
SPLINE
  5
2D
100
AcDbEntity
  8
Layer 1
 62
     9
100
AcDbSpline
210
0.0
220
0.0
230
1.0
 70
     1
 71
     3
 72
    28
 73
    24
 74
     0
 42
0.0000000001
 43
0.0000000001
 40
0.0
 40
0.0
 40
0.0
 40
0.0
 40
0.1666666666666667
 40
0.1666666666666667
 40
0.1666666666666667
 40
0.1666666666666667
 40
0.3333333333333333
 40
0.3333333333333333
 40
0.3333333333333333
 40
0.3333333333333333
 40
0.5
 40
0.5
 40
0.5
 40
0.5
 40
0.6666666666666666
 40
0.6666666666666666
 40
0.6666666666666666
 40
0.6666666666666666
 40
0.8333333333333333
 40
0.8333333333333333
 40
0.8333333333333333
 40
0.8333333333333333
 40
1.0
 40
1.0
 40
1.0
 40
1.0
 10
0.3329881889763779
 20
0.6258858267716536
 30
0.0
 10
0.3329881889763779
 20
0.6258858267716536
 30
0.0
 10
0.9793582677165355
 20
0.2497992125984252
 30
0.0
 10
0.9793582677165355
 20
0.2497992125984252
 30
0.0
 10
0.9793582677165355
 20
0.2497992125984252
 30
0.0
 10
0.9793582677165355
 20
0.2497992125984252
 30
0.0
 10
0.9597598425196851
 20
0.2467322834645669
 30
0.0
 10
0.9597598425196851
 20
0.2467322834645669
 30
0.0
 10
0.9597598425196851
 20
0.2467322834645669
 30
0.0
 10
0.9597598425196851
 20
0.2467322834645669
 30
0.0
 10
0.9408267716535433
 20
0.2432755905511811
 30
0.0
 10
0.9408267716535433
 20
0.2432755905511811
 30
0.0
 10
0.9408267716535433
 20
0.2432755905511811
 30
0.0
 10
0.9408267716535433
 20
0.2432755905511811
 30
0.0
 10
0.2944566929133858
 20
0.6193622047244095
 30
0.0
 10
0.2944566929133858
 20
0.6193622047244095
 30
0.0
 10
0.2944566929133858
 20
0.6193622047244095
 30
0.0
 10
0.2944566929133858
 20
0.6193622047244095
 30
0.0
 10
0.3133897637795276
 20
0.6228188976377953
 30
0.0
 10
0.3133897637795276
 20
0.6228188976377953
 30
0.0
 10
0.3133897637795276
 20
0.6228188976377953
 30
0.0
 10
0.3133897637795276
 20
0.6228188976377953
 30
0.0
 10
0.3329881889763779
 20
0.6258858267716536
 30
0.0
 10
0.3329881889763779
 20
0.6258858267716536
 30
0.0
  0
SPLINE
  5
2E
100
AcDbEntity
  8
Layer 1
 62
     9
100
AcDbSpline
210
0.0
220
0.0
230
1.0
 70
     1
 71
     3
 72
    28
 73
    24
 74
     0
 42
0.0000000001
 43
0.0000000001
 40
0.0
 40
0.0
 40
0.0
 40
0.0
 40
0.1666666666666667
 40
0.1666666666666667
 40
0.1666666666666667
 40
0.1666666666666667
 40
0.3333333333333333
 40
0.3333333333333333
 40
0.3333333333333333
 40
0.3333333333333333
 40
0.5
 40
0.5
 40
0.5
 40
0.5
 40
0.6666666666666666
 40
0.6666666666666666
 40
0.6666666666666666
 40
0.6666666666666666
 40
0.8333333333333333
 40
0.8333333333333333
 40
0.8333333333333333
 40
0.8333333333333333
 40
1.0
 40
1.0
 40
1.0
 40
1.0
 10
0.2944566929133858
 20
0.6193622047244095
 30
0.0
 10
0.2944566929133858
 20
0.6193622047244095
 30
0.0
 10
0.9408267716535433
 20
0.2432755905511811
 30
0.0
 10
0.9408267716535433
 20
0.2432755905511811
 30
0.0
 10
0.9408267716535433
 20
0.2432755905511811
 30
0.0
 10
0.9408267716535433
 20
0.2432755905511811
 30
0.0
 10
0.9225551181102363
 20
0.2393897637795276
 30
0.0
 10
0.9225551181102363
 20
0.2393897637795276
 30
0.0
 10
0.9225551181102363
 20
0.2393897637795276
 30
0.0
 10
0.9225551181102363
 20
0.2393897637795276
 30
0.0
 10
0.9049488188976378
 20
0.2350472440944882
 30
0.0
 10
0.9049488188976378
 20
0.2350472440944882
 30
0.0
 10
0.9049488188976378
 20
0.2350472440944882
 30
0.0
 10
0.9049488188976378
 20
0.2350472440944882
 30
0.0
 10
0.2585787401574803
 20
0.6111338582677166
 30
0.0
 10
0.2585787401574803
 20
0.6111338582677166
 30
0.0
 10
0.2585787401574803
 20
0.6111338582677166
 30
0.0
 10
0.2585787401574803
 20
0.6111338582677166
 30
0.0
 10
0.2761850393700788
 20
0.6154763779527559
 30
0.0
 10
0.2761850393700788
 20
0.6154763779527559
 30
0.0
 10
0.2761850393700788
 20
0.6154763779527559
 30
0.0
 10
0.2761850393700788
 20
0.6154763779527559
 30
0.0
 10
0.2944566929133858
 20
0.6193622047244095
 30
0.0
 10
0.2944566929133858
 20
0.6193622047244095
 30
0.0
  0
SPLINE
  5
2F
100
AcDbEntity
  8
Layer 1
 62
     9
100
AcDbSpline
210
0.0
220
0.0
230
1.0
 70
     1
 71
     3
 72
    28
 73
    24
 74
     0
 42
0.0000000001
 43
0.0000000001
 40
0.0
 40
0.0
 40
0.0
 40
0.0
 40
0.1666666666666667
 40
0.1666666666666667
 40
0.1666666666666667
 40
0.1666666666666667
 40
0.3333333333333333
 40
0.3333333333333333
 40
0.3333333333333333
 40
0.3333333333333333
 40
0.5
 40
0.5
 40
0.5
 40
0.5
 40
0.6666666666666666
 40
0.6666666666666666
 40
0.6666666666666666
 40
0.6666666666666666
 40
0.8333333333333333
 40
0.8333333333333333
 40
0.8333333333333333
 40
0.8333333333333333
 40
1.0
 40
1.0
 40
1.0
 40
1.0
 10
0.2585787401574803
 20
0.6111338582677166
 30
0.0
 10
0.2585787401574803
 20
0.6111338582677166
 30
0.0
 10
0.9049488188976378
 20
0.2350472440944882
 30
0.0
 10
0.9049488188976378
 20
0.2350472440944882
 30
0.0
 10
0.9049488188976378
 20
0.2350472440944882
 30
0.0
 10
0.9049488188976378
 20
0.2350472440944882
 30
0.0
 10
0.887992125984252
 20
0.2302007874015748
 30
0.0
 10
0.887992125984252
 20
0.2302007874015748
 30
0.0
 10
0.887992125984252
 20
0.2302007874015748
 30
0.0
 10
0.887992125984252
 20
0.2302007874015748
 30
0.0
 10
0.8716968503937008
 20
0.2248346456692913
 30
0.0
 10
0.8716968503937008
 20
0.2248346456692913
 30
0.0
 10
0.8716968503937008
 20
0.2248346456692913
 30
0.0
 10
0.8716968503937008
 20
0.2248346456692913
 30
0.0
 10
0.2253267716535433
 20
0.6009212598425198
 30
0.0
 10
0.2253267716535433
 20
0.6009212598425198
 30
0.0
 10
0.2253267716535433
 20
0.6009212598425198
 30
0.0
 10
0.2253267716535433
 20
0.6009212598425198
 30
0.0
 10
0.2416220472440945
 20
0.6062874015748032
 30
0.0
 10
0.2416220472440945
 20
0.6062874015748032
 30
0.0
 10
0.2416220472440945
 20
0.6062874015748032
 30
0.0
 10
0.2416220472440945
 20
0.6062874015748032
 30
0.0
 10
0.2585787401574803
 20
0.6111338582677166
 30
0.0
 10
0.2585787401574803
 20
0.6111338582677166
 30
0.0
  0
SPLINE
  5
30
100
AcDbEntity
  8
Layer 1
 62
     9
100
AcDbSpline
210
0.0
220
0.0
230
1.0
 70
     1
 71
     3
 72
    36
 73
    32
 74
     0
 42
0.0000000001
 43
0.0000000001
 40
0.0
 40
0.0
 40
0.0
 40
0.0
 40
0.125
 40
0.125
 40
0.125
 40
0.125
 40
0.25
 40
0.25
 40
0.25
 40
0.25
 40
0.375
 40
0.375
 40
0.375
 40
0.375
 40
0.5
 40
0.5
 40
0.5
 40
0.5
 40
0.625
 40
0.625
 40
0.625
 40
0.625
 40
0.75
 40
0.75
 40
0.75
 40
0.75
 40
0.875
 40
0.875
 40
0.875
 40
0.875
 40
1.0
 40
1.0
 40
1.0
 40
1.0
 10
0.2253267716535433
 20
0.6009212598425198
 30
0.0
 10
0.2253267716535433
 20
0.6009212598425198
 30
0.0
 10
0.8716968503937008
 20
0.2248346456692913
 30
0.0
 10
0.8716968503937008
 20
0.2248346456692913
 30
0.0
 10
0.8716968503937008
 20
0.2248346456692913
 30
0.0
 10
0.8716968503937008
 20
0.2248346456692913
 30
0.0
 10
0.8560511811023622
 20
0.2189015748031496
 30
0.0
 10
0.8560511811023622
 20
0.2189015748031496
 30
0.0
 10
0.8560511811023622
 20
0.2189015748031496
 30
0.0
 10
0.8560511811023622
 20
0.2189015748031496
 30
0.0
 10
0.8410590551181103
 20
0.2123740157480315
 30
0.0
 10
0.8410590551181103
 20
0.2123740157480315
 30
0.0
 10
0.8410590551181103
 20
0.2123740157480315
 30
0.0
 10
0.8410590551181103
 20
0.2123740157480315
 30
0.0
 10
0.8267047244094489
 20
0.2052047244094488
 30
0.0
 10
0.8267047244094489
 20
0.2052047244094488
 30
0.0
 10
0.8267047244094489
 20
0.2052047244094488
 30
0.0
 10
0.8267047244094489
 20
0.2052047244094488
 30
0.0
 10
0.1803346456692913
 20
0.5812913385826772
 30
0.0
 10
0.1803346456692913
 20
0.5812913385826772
 30
0.0
 10
0.1803346456692913
 20
0.5812913385826772
 30
0.0
 10
0.1803346456692913
 20
0.5812913385826772
 30
0.0
 10
0.1946889763779528
 20
0.5884606299212599
 30
0.0
 10
0.1946889763779528
 20
0.5884606299212599
 30
0.0
 10
0.1946889763779528
 20
0.5884606299212599
 30
0.0
 10
0.1946889763779528
 20
0.5884606299212599
 30
0.0
 10
0.2096811023622047
 20
0.594988188976378
 30
0.0
 10
0.2096811023622047
 20
0.594988188976378
 30
0.0
 10
0.2096811023622047
 20
0.594988188976378
 30
0.0
 10
0.2096811023622047
 20
0.594988188976378
 30
0.0
 10
0.2253267716535433
 20
0.6009212598425198
 30
0.0
 10
0.2253267716535433
 20
0.6009212598425198
 30
0.0
  0
SPLINE
  5
31
100
AcDbEntity
  8
Layer 1
 62
     9
100
AcDbSpline
210
0.0
220
0.0
230
1.0
 70
     1
 71
     3
 72
    36
 73
    32
 74
     0
 42
0.0000000001
 43
0.0000000001
 40
0.0
 40
0.0
 40
0.0
 40
0.0
 40
0.125
 40
0.125
 40
0.125
 40
0.125
 40
0.25
 40
0.25
 40
0.25
 40
0.25
 40
0.375
 40
0.375
 40
0.375
 40
0.375
 40
0.5
 40
0.5
 40
0.5
 40
0.5
 40
0.625
 40
0.625
 40
0.625
 40
0.625
 40
0.75
 40
0.75
 40
0.75
 40
0.75
 40
0.875
 40
0.875
 40
0.875
 40
0.875
 40
1.0
 40
1.0
 40
1.0
 40
1.0
 10
0.1803346456692913
 20
0.5812913385826772
 30
0.0
 10
0.1803346456692913
 20
0.5812913385826772
 30
0.0
 10
0.8267047244094489
 20
0.2052047244094488
 30
0.0
 10
0.8267047244094489
 20
0.2052047244094488
 30
0.0
 10
0.8267047244094489
 20
0.2052047244094488
 30
0.0
 10
0.8267047244094489
 20
0.2052047244094488
 30
0.0
 10
0.812996062992126
 20
0.1973740157480315
 30
0.0
 10
0.812996062992126
 20
0.1973740157480315
 30
0.0
 10
0.812996062992126
 20
0.1973740157480315
 30
0.0
 10
0.812996062992126
 20
0.1973740157480315
 30
0.0
 10
0.7999212598425197
 20
0.1888425196850394
 30
0.0
 10
0.7999212598425197
 20
0.1888425196850394
 30
0.0
 10
0.7999212598425197
 20
0.1888425196850394
 30
0.0
 10
0.7999212598425197
 20
0.1888425196850394
 30
0.0
 10
0.787496062992126
 20
0.1795787401574803
 30
0.0
 10
0.787496062992126
 20
0.1795787401574803
 30
0.0
 10
0.787496062992126
 20
0.1795787401574803
 30
0.0
 10
0.787496062992126
 20
0.1795787401574803
 30
0.0
 10
0.1411259842519685
 20
0.5556653543307086
 30
0.0
 10
0.1411259842519685
 20
0.5556653543307086
 30
0.0
 10
0.1411259842519685
 20
0.5556653543307086
 30
0.0
 10
0.1411259842519685
 20
0.5556653543307086
 30
0.0
 10
0.1535511811023622
 20
0.5649291338582677
 30
0.0
 10
0.1535511811023622
 20
0.5649291338582677
 30
0.0
 10
0.1535511811023622
 20
0.5649291338582677
 30
0.0
 10
0.1535511811023622
 20
0.5649291338582677
 30
0.0
 10
0.1666259842519685
 20
0.5734606299212599
 30
0.0
 10
0.1666259842519685
 20
0.5734606299212599
 30
0.0
 10
0.1666259842519685
 20
0.5734606299212599
 30
0.0
 10
0.1666259842519685
 20
0.5734606299212599
 30
0.0
 10
0.1803346456692913
 20
0.5812913385826772
 30
0.0
 10
0.1803346456692913
 20
0.5812913385826772
 30
0.0
  0
SPLINE
  5
32
100
AcDbEntity
  8
Layer 1
 62
     9
100
AcDbSpline
210
0.0
220
0.0
230
1.0
 70
     1
 71
     3
 72
    36
 73
    32
 74
     0
 42
0.0000000001
 43
0.0000000001
 40
0.0
 40
0.0
 40
0.0
 40
0.0
 40
0.125
 40
0.125
 40
0.125
 40
0.125
 40
0.25
 40
0.25
 40
0.25
 40
0.25
 40
0.375
 40
0.375
 40
0.375
 40
0.375
 40
0.5
 40
0.5
 40
0.5
 40
0.5
 40
0.625
 40
0.625
 40
0.625
 40
0.625
 40
0.75
 40
0.75
 40
0.75
 40
0.75
 40
0.875
 40
0.875
 40
0.875
 40
0.875
 40
1.0
 40
1.0
 40
1.0
 40
1.0
 10
0.1411259842519685
 20
0.5556653543307086
 30
0.0
 10
0.1411259842519685
 20
0.5556653543307086
 30
0.0
 10
0.787496062992126
 20
0.1795787401574803
 30
0.0
 10
0.787496062992126
 20
0.1795787401574803
 30
0.0
 10
0.787496062992126
 20
0.1795787401574803
 30
0.0
 10
0.787496062992126
 20
0.1795787401574803
 30
0.0
 10
0.7756968503937008
 20
0.1695393700787402
 30
0.0
 10
0.7756968503937008
 20
0.1695393700787402
 30
0.0
 10
0.7756968503937008
 20
0.1695393700787402
 30
0.0
 10
0.7756968503937008
 20
0.1695393700787402
 30
0.0
 10
0.7645354330708661
 20
0.1587047244094488
 30
0.0
 10
0.7645354330708661
 20
0.1587047244094488
 30
0.0
 10
0.7645354330708661
 20
0.1587047244094488
 30
0.0
 10
0.7645354330708661
 20
0.1587047244094488
 30
0.0
 10
0.753996062992126
 20
0.1470275590551181
 30
0.0
 10
0.753996062992126
 20
0.1470275590551181
 30
0.0
 10
0.753996062992126
 20
0.1470275590551181
 30
0.0
 10
0.753996062992126
 20
0.1470275590551181
 30
0.0
 10
0.1076259842519685
 20
0.5231141732283465
 30
0.0
 10
0.1076259842519685
 20
0.5231141732283465
 30
0.0
 10
0.1076259842519685
 20
0.5231141732283465
 30
0.0
 10
0.1076259842519685
 20
0.5231141732283465
 30
0.0
 10
0.1181653543307087
 20
0.5347913385826771
 30
0.0
 10
0.1181653543307087
 20
0.5347913385826771
 30
0.0
 10
0.1181653543307087
 20
0.5347913385826771
 30
0.0
 10
0.1181653543307087
 20
0.5347913385826771
 30
0.0
 10
0.1293267716535433
 20
0.5456259842519685
 30
0.0
 10
0.1293267716535433
 20
0.5456259842519685
 30
0.0
 10
0.1293267716535433
 20
0.5456259842519685
 30
0.0
 10
0.1293267716535433
 20
0.5456259842519685
 30
0.0
 10
0.1411259842519685
 20
0.5556653543307086
 30
0.0
 10
0.1411259842519685
 20
0.5556653543307086
 30
0.0
  0
SPLINE
  5
33
100
AcDbEntity
  8
Layer 1
 62
     9
100
AcDbSpline
210
0.0
220
0.0
230
1.0
 70
     1
 71
     3
 72
    36
 73
    32
 74
     0
 42
0.0000000001
 43
0.0000000001
 40
0.0
 40
0.0
 40
0.0
 40
0.0
 40
0.125
 40
0.125
 40
0.125
 40
0.125
 40
0.25
 40
0.25
 40
0.25
 40
0.25
 40
0.375
 40
0.375
 40
0.375
 40
0.375
 40
0.5
 40
0.5
 40
0.5
 40
0.5
 40
0.625
 40
0.625
 40
0.625
 40
0.625
 40
0.75
 40
0.75
 40
0.75
 40
0.75
 40
0.875
 40
0.875
 40
0.875
 40
0.875
 40
1.0
 40
1.0
 40
1.0
 40
1.0
 10
0.1076259842519685
 20
0.5231141732283465
 30
0.0
 10
0.1076259842519685
 20
0.5231141732283465
 30
0.0
 10
0.753996062992126
 20
0.1470275590551181
 30
0.0
 10
0.753996062992126
 20
0.1470275590551181
 30
0.0
 10
0.753996062992126
 20
0.1470275590551181
 30
0.0
 10
0.753996062992126
 20
0.1470275590551181
 30
0.0
 10
0.7440905511811023
 20
0.1344803149606299
 30
0.0
 10
0.7440905511811023
 20
0.1344803149606299
 30
0.0
 10
0.7440905511811023
 20
0.1344803149606299
 30
0.0
 10
0.7440905511811023
 20
0.1344803149606299
 30
0.0
 10
0.7347992125984252
 20
0.1210196850393701
 30
0.0
 10
0.7347992125984252
 20
0.1210196850393701
 30
0.0
 10
0.7347992125984252
 20
0.1210196850393701
 30
0.0
 10
0.7347992125984252
 20
0.1210196850393701
 30
0.0
 10
0.7261299212598426
 20
0.1066220472440945
 30
0.0
 10
0.7261299212598426
 20
0.1066220472440945
 30
0.0
 10
0.7261299212598426
 20
0.1066220472440945
 30
0.0
 10
0.7261299212598426
 20
0.1066220472440945
 30
0.0
 10
0.079759842519685
 20
0.4827086614173228
 30
0.0
 10
0.079759842519685
 20
0.4827086614173228
 30
0.0
 10
0.079759842519685
 20
0.4827086614173228
 30
0.0
 10
0.079759842519685
 20
0.4827086614173228
 30
0.0
 10
0.0884291338582677
 20
0.4971062992125985
 30
0.0
 10
0.0884291338582677
 20
0.4971062992125985
 30
0.0
 10
0.0884291338582677
 20
0.4971062992125985
 30
0.0
 10
0.0884291338582677
 20
0.4971062992125985
 30
0.0
 10
0.0977204724409449
 20
0.5105669291338583
 30
0.0
 10
0.0977204724409449
 20
0.5105669291338583
 30
0.0
 10
0.0977204724409449
 20
0.5105669291338583
 30
0.0
 10
0.0977204724409449
 20
0.5105669291338583
 30
0.0
 10
0.1076259842519685
 20
0.5231141732283465
 30
0.0
 10
0.1076259842519685
 20
0.5231141732283465
 30
0.0
  0
SPLINE
  5
34
100
AcDbEntity
  8
Layer 1
 62
     9
100
AcDbSpline
210
0.0
220
0.0
230
1.0
 70
     1
 71
     3
 72
    28
 73
    24
 74
     0
 42
0.0000000001
 43
0.0000000001
 40
0.0
 40
0.0
 40
0.0
 40
0.0
 40
0.1666666666666667
 40
0.1666666666666667
 40
0.1666666666666667
 40
0.1666666666666667
 40
0.3333333333333333
 40
0.3333333333333333
 40
0.3333333333333333
 40
0.3333333333333333
 40
0.5
 40
0.5
 40
0.5
 40
0.5
 40
0.6666666666666666
 40
0.6666666666666666
 40
0.6666666666666666
 40
0.6666666666666666
 40
0.8333333333333333
 40
0.8333333333333333
 40
0.8333333333333333
 40
0.8333333333333333
 40
1.0
 40
1.0
 40
1.0
 40
1.0
 10
0.079759842519685
 20
0.4827086614173228
 30
0.0
 10
0.079759842519685
 20
0.4827086614173228
 30
0.0
 10
0.7261299212598426
 20
0.1066220472440945
 30
0.0
 10
0.7261299212598426
 20
0.1066220472440945
 30
0.0
 10
0.7261299212598426
 20
0.1066220472440945
 30
0.0
 10
0.7261299212598426
 20
0.1066220472440945
 30
0.0
 10
0.7180748031496064
 20
0.091244094488189
 30
0.0
 10
0.7180748031496064
 20
0.091244094488189
 30
0.0
 10
0.7180748031496064
 20
0.091244094488189
 30
0.0
 10
0.7180748031496064
 20
0.091244094488189
 30
0.0
 10
0.7106456692913387
 20
0.0748661417322835
 30
0.0
 10
0.7106456692913387
 20
0.0748661417322835
 30
0.0
 10
0.7106456692913387
 20
0.0748661417322835
 30
0.0
 10
0.7106456692913387
 20
0.0748661417322835
 30
0.0
 10
0.0642755905511811
 20
0.4509527559055118
 30
0.0
 10
0.0642755905511811
 20
0.4509527559055118
 30
0.0
 10
0.0642755905511811
 20
0.4509527559055118
 30
0.0
 10
0.0642755905511811
 20
0.4509527559055118
 30
0.0
 10
0.0717047244094488
 20
0.4673307086614174
 30
0.0
 10
0.0717047244094488
 20
0.4673307086614174
 30
0.0
 10
0.0717047244094488
 20
0.4673307086614174
 30
0.0
 10
0.0717047244094488
 20
0.4673307086614174
 30
0.0
 10
0.079759842519685
 20
0.4827086614173228
 30
0.0
 10
0.079759842519685
 20
0.4827086614173228
 30
0.0
  0
SPLINE
  5
35
100
AcDbEntity
  8
Layer 1
 62
     9
100
AcDbSpline
210
0.0
220
0.0
230
1.0
 70
     1
 71
     3
 72
    28
 73
    24
 74
     0
 42
0.0000000001
 43
0.0000000001
 40
0.0
 40
0.0
 40
0.0
 40
0.0
 40
0.1666666666666667
 40
0.1666666666666667
 40
0.1666666666666667
 40
0.1666666666666667
 40
0.3333333333333333
 40
0.3333333333333333
 40
0.3333333333333333
 40
0.3333333333333333
 40
0.5
 40
0.5
 40
0.5
 40
0.5
 40
0.6666666666666666
 40
0.6666666666666666
 40
0.6666666666666666
 40
0.6666666666666666
 40
0.8333333333333333
 40
0.8333333333333333
 40
0.8333333333333333
 40
0.8333333333333333
 40
1.0
 40
1.0
 40
1.0
 40
1.0
 10
0.0642755905511811
 20
0.4509527559055118
 30
0.0
 10
0.0642755905511811
 20
0.4509527559055118
 30
0.0
 10
0.7106456692913387
 20
0.0748661417322835
 30
0.0
 10
0.7106456692913387
 20
0.0748661417322835
 30
0.0
 10
0.7106456692913387
 20
0.0748661417322835
 30
0.0
 10
0.7106456692913387
 20
0.0748661417322835
 30
0.0
 10
0.7038149606299213
 20
0.0574370078740157
 30
0.0
 10
0.7038149606299213
 20
0.0574370078740157
 30
0.0
 10
0.7038149606299213
 20
0.0574370078740157
 30
0.0
 10
0.7038149606299213
 20
0.0574370078740157
 30
0.0
 10
0.6975984251968505
 20
0.0389330708661417
 30
0.0
 10
0.6975984251968505
 20
0.0389330708661417
 30
0.0
 10
0.6975984251968505
 20
0.0389330708661417
 30
0.0
 10
0.6975984251968505
 20
0.0389330708661417
 30
0.0
 10
0.0512283464566929
 20
0.4150196850393701
 30
0.0
 10
0.0512283464566929
 20
0.4150196850393701
 30
0.0
 10
0.0512283464566929
 20
0.4150196850393701
 30
0.0
 10
0.0512283464566929
 20
0.4150196850393701
 30
0.0
 10
0.0574448818897638
 20
0.4335236220472441
 30
0.0
 10
0.0574448818897638
 20
0.4335236220472441
 30
0.0
 10
0.0574448818897638
 20
0.4335236220472441
 30
0.0
 10
0.0574448818897638
 20
0.4335236220472441
 30
0.0
 10
0.0642755905511811
 20
0.4509527559055118
 30
0.0
 10
0.0642755905511811
 20
0.4509527559055118
 30
0.0
  0
SPLINE
  5
36
100
AcDbEntity
  8
Layer 1
 62
     9
100
AcDbSpline
210
0.0
220
0.0
230
1.0
 70
     1
 71
     3
 72
    28
 73
    24
 74
     0
 42
0.0000000001
 43
0.0000000001
 40
0.0
 40
0.0
 40
0.0
 40
0.0
 40
0.1666666666666667
 40
0.1666666666666667
 40
0.1666666666666667
 40
0.1666666666666667
 40
0.3333333333333333
 40
0.3333333333333333
 40
0.3333333333333333
 40
0.3333333333333333
 40
0.5
 40
0.5
 40
0.5
 40
0.5
 40
0.6666666666666666
 40
0.6666666666666666
 40
0.6666666666666666
 40
0.6666666666666666
 40
0.8333333333333333
 40
0.8333333333333333
 40
0.8333333333333333
 40
0.8333333333333333
 40
1.0
 40
1.0
 40
1.0
 40
1.0
 10
0.0512283464566929
 20
0.4150196850393701
 30
0.0
 10
0.0512283464566929
 20
0.4150196850393701
 30
0.0
 10
0.6975984251968505
 20
0.0389330708661417
 30
0.0
 10
0.6975984251968505
 20
0.0389330708661417
 30
0.0
 10
0.6975984251968505
 20
0.0389330708661417
 30
0.0
 10
0.6975984251968505
 20
0.0389330708661417
 30
0.0
 10
0.6919881889763779
 20
0.0193149606299213
 30
0.0
 10
0.6919881889763779
 20
0.0193149606299213
 30
0.0
 10
0.6919881889763779
 20
0.0193149606299213
 30
0.0
 10
0.6919881889763779
 20
0.0193149606299213
 30
0.0
 10
0.686984251968504
 20
-0.0014409448818898
 30
0.0
 10
0.686984251968504
 20
-0.0014409448818898
 30
0.0
 10
0.686984251968504
 20
-0.0014409448818898
 30
0.0
 10
0.686984251968504
 20
-0.0014409448818898
 30
0.0
 10
0.0406141732283465
 20
0.3746456692913386
 30
0.0
 10
0.0406141732283465
 20
0.3746456692913386
 30
0.0
 10
0.0406141732283465
 20
0.3746456692913386
 30
0.0
 10
0.0406141732283465
 20
0.3746456692913386
 30
0.0
 10
0.0456181102362205
 20
0.3954015748031496
 30
0.0
 10
0.0456181102362205
 20
0.3954015748031496
 30
0.0
 10
0.0456181102362205
 20
0.3954015748031496
 30
0.0
 10
0.0456181102362205
 20
0.3954015748031496
 30
0.0
 10
0.0512283464566929
 20
0.4150196850393701
 30
0.0
 10
0.0512283464566929
 20
0.4150196850393701
 30
0.0
  0
SPLINE
  5
37
100
AcDbEntity
  8
Layer 1
 62
     9
100
AcDbSpline
210
0.0
220
0.0
230
1.0
 70
     1
 71
     3
 72
    28
 73
    24
 74
     0
 42
0.0000000001
 43
0.0000000001
 40
0.0
 40
0.0
 40
0.0
 40
0.0
 40
0.1666666666666667
 40
0.1666666666666667
 40
0.1666666666666667
 40
0.1666666666666667
 40
0.3333333333333333
 40
0.3333333333333333
 40
0.3333333333333333
 40
0.3333333333333333
 40
0.5
 40
0.5
 40
0.5
 40
0.5
 40
0.6666666666666666
 40
0.6666666666666666
 40
0.6666666666666666
 40
0.6666666666666666
 40
0.8333333333333333
 40
0.8333333333333333
 40
0.8333333333333333
 40
0.8333333333333333
 40
1.0
 40
1.0
 40
1.0
 40
1.0
 10
0.0406141732283465
 20
0.3746456692913386
 30
0.0
 10
0.0406141732283465
 20
0.3746456692913386
 30
0.0
 10
0.686984251968504
 20
-0.0014409448818898
 30
0.0
 10
0.686984251968504
 20
-0.0014409448818898
 30
0.0
 10
0.686984251968504
 20
-0.0014409448818898
 30
0.0
 10
0.686984251968504
 20
-0.0014409448818898
 30
0.0
 10
0.6825748031496063
 20
-0.0233897637795276
 30
0.0
 10
0.6825748031496063
 20
-0.0233897637795276
 30
0.0
 10
0.6825748031496063
 20
-0.0233897637795276
 30
0.0
 10
0.6825748031496063
 20
-0.0233897637795276
 30
0.0
 10
0.6787637795275591
 20
-0.0465472440944882
 30
0.0
 10
0.6787637795275591
 20
-0.0465472440944882
 30
0.0
 10
0.6787637795275591
 20
-0.0465472440944882
 30
0.0
 10
0.6787637795275591
 20
-0.0465472440944882
 30
0.0
 10
0.0323937007874016
 20
0.3295393700787402
 30
0.0
 10
0.0323937007874016
 20
0.3295393700787402
 30
0.0
 10
0.0323937007874016
 20
0.3295393700787402
 30
0.0
 10
0.0323937007874016
 20
0.3295393700787402
 30
0.0
 10
0.0362047244094488
 20
0.3526968503937008
 30
0.0
 10
0.0362047244094488
 20
0.3526968503937008
 30
0.0
 10
0.0362047244094488
 20
0.3526968503937008
 30
0.0
 10
0.0362047244094488
 20
0.3526968503937008
 30
0.0
 10
0.0406141732283465
 20
0.3746456692913386
 30
0.0
 10
0.0406141732283465
 20
0.3746456692913386
 30
0.0
  0
SPLINE
  5
38
100
AcDbEntity
  8
Layer 1
 62
     9
100
AcDbSpline
210
0.0
220
0.0
230
1.0
 70
     1
 71
     3
 72
    20
 73
    16
 74
     0
 42
0.0000000001
 43
0.0000000001
 40
0.0
 40
0.0
 40
0.0
 40
0.0
 40
0.25
 40
0.25
 40
0.25
 40
0.25
 40
0.5
 40
0.5
 40
0.5
 40
0.5
 40
0.75
 40
0.75
 40
0.75
 40
0.75
 40
1.0
 40
1.0
 40
1.0
 40
1.0
 10
0.0323937007874016
 20
0.3295393700787402
 30
0.0
 10
0.0323937007874016
 20
0.3295393700787402
 30
0.0
 10
0.6787637795275591
 20
-0.0465472440944882
 30
0.0
 10
0.6787637795275591
 20
-0.0465472440944882
 30
0.0
 10
0.6787637795275591
 20
-0.0465472440944882
 30
0.0
 10
0.6787637795275591
 20
-0.0465472440944882
 30
0.0
 10
0.6755433070866143
 20
-0.0709566929133858
 30
0.0
 10
0.6755433070866143
 20
-0.0709566929133858
 30
0.0
 10
0.6755433070866143
 20
-0.0709566929133858
 30
0.0
 10
0.6755433070866143
 20
-0.0709566929133858
 30
0.0
 10
0.0291732283464567
 20
0.3051299212598425
 30
0.0
 10
0.0291732283464567
 20
0.3051299212598425
 30
0.0
 10
0.0291732283464567
 20
0.3051299212598425
 30
0.0
 10
0.0291732283464567
 20
0.3051299212598425
 30
0.0
 10
0.0323937007874016
 20
0.3295393700787402
 30
0.0
 10
0.0323937007874016
 20
0.3295393700787402
 30
0.0
  0
SPLINE
  5
39
100
AcDbEntity
  8
Layer 1
 62
     9
100
AcDbSpline
210
0.0
220
0.0
230
1.0
 70
     1
 71
     3
 72
    20
 73
    16
 74
     0
 42
0.0000000001
 43
0.0000000001
 40
0.0
 40
0.0
 40
0.0
 40
0.0
 40
0.25
 40
0.25
 40
0.25
 40
0.25
 40
0.5
 40
0.5
 40
0.5
 40
0.5
 40
0.75
 40
0.75
 40
0.75
 40
0.75
 40
1.0
 40
1.0
 40
1.0
 40
1.0
 10
0.0291732283464567
 20
0.3051299212598425
 30
0.0
 10
0.0291732283464567
 20
0.3051299212598425
 30
0.0
 10
0.6755433070866143
 20
-0.0709566929133858
 30
0.0
 10
0.6755433070866143
 20
-0.0709566929133858
 30
0.0
 10
0.6755433070866143
 20
-0.0709566929133858
 30
0.0
 10
0.6755433070866143
 20
-0.0709566929133858
 30
0.0
 10
0.6729212598425197
 20
-0.0966417322834646
 30
0.0
 10
0.6729212598425197
 20
-0.0966417322834646
 30
0.0
 10
0.6729212598425197
 20
-0.0966417322834646
 30
0.0
 10
0.6729212598425197
 20
-0.0966417322834646
 30
0.0
 10
0.0265511811023622
 20
0.2794448818897638
 30
0.0
 10
0.0265511811023622
 20
0.2794448818897638
 30
0.0
 10
0.0265511811023622
 20
0.2794448818897638
 30
0.0
 10
0.0265511811023622
 20
0.2794448818897638
 30
0.0
 10
0.0291732283464567
 20
0.3051299212598425
 30
0.0
 10
0.0291732283464567
 20
0.3051299212598425
 30
0.0
  0
SPLINE
  5
3A
100
AcDbEntity
  8
Layer 1
 62
     9
100
AcDbSpline
210
0.0
220
0.0
230
1.0
 70
     1
 71
     3
 72
    20
 73
    16
 74
     0
 42
0.0000000001
 43
0.0000000001
 40
0.0
 40
0.0
 40
0.0
 40
0.0
 40
0.25
 40
0.25
 40
0.25
 40
0.25
 40
0.5
 40
0.5
 40
0.5
 40
0.5
 40
0.75
 40
0.75
 40
0.75
 40
0.75
 40
1.0
 40
1.0
 40
1.0
 40
1.0
 10
0.0265511811023622
 20
0.2794448818897638
 30
0.0
 10
0.0265511811023622
 20
0.2794448818897638
 30
0.0
 10
0.6729212598425197
 20
-0.0966417322834646
 30
0.0
 10
0.6729212598425197
 20
-0.0966417322834646
 30
0.0
 10
0.6729212598425197
 20
-0.0966417322834646
 30
0.0
 10
0.6729212598425197
 20
-0.0966417322834646
 30
0.0
 10
0.6708779527559056
 20
-0.1236535433070866
 30
0.0
 10
0.6708779527559056
 20
-0.1236535433070866
 30
0.0
 10
0.6708779527559056
 20
-0.1236535433070866
 30
0.0
 10
0.6708779527559056
 20
-0.1236535433070866
 30
0.0
 10
0.024507874015748
 20
0.2524330708661418
 30
0.0
 10
0.024507874015748
 20
0.2524330708661418
 30
0.0
 10
0.024507874015748
 20
0.2524330708661418
 30
0.0
 10
0.024507874015748
 20
0.2524330708661418
 30
0.0
 10
0.0265511811023622
 20
0.2794448818897638
 30
0.0
 10
0.0265511811023622
 20
0.2794448818897638
 30
0.0
  0
SPLINE
  5
3B
100
AcDbEntity
  8
Layer 1
 62
     9
100
AcDbSpline
210
0.0
220
0.0
230
1.0
 70
     1
 71
     3
 72
    20
 73
    16
 74
     0
 42
0.0000000001
 43
0.0000000001
 40
0.0
 40
0.0
 40
0.0
 40
0.0
 40
0.25
 40
0.25
 40
0.25
 40
0.25
 40
0.5
 40
0.5
 40
0.5
 40
0.5
 40
0.75
 40
0.75
 40
0.75
 40
0.75
 40
1.0
 40
1.0
 40
1.0
 40
1.0
 10
0.024507874015748
 20
0.2524330708661418
 30
0.0
 10
0.024507874015748
 20
0.2524330708661418
 30
0.0
 10
0.6708779527559056
 20
-0.1236535433070866
 30
0.0
 10
0.6708779527559056
 20
-0.1236535433070866
 30
0.0
 10
0.6708779527559056
 20
-0.1236535433070866
 30
0.0
 10
0.6708779527559056
 20
-0.1236535433070866
 30
0.0
 10
0.6694330708661418
 20
-0.1520118110236221
 30
0.0
 10
0.6694330708661418
 20
-0.1520118110236221
 30
0.0
 10
0.6694330708661418
 20
-0.1520118110236221
 30
0.0
 10
0.6694330708661418
 20
-0.1520118110236221
 30
0.0
 10
0.0230629921259843
 20
0.2240748031496063
 30
0.0
 10
0.0230629921259843
 20
0.2240748031496063
 30
0.0
 10
0.0230629921259843
 20
0.2240748031496063
 30
0.0
 10
0.0230629921259843
 20
0.2240748031496063
 30
0.0
 10
0.024507874015748
 20
0.2524330708661418
 30
0.0
 10
0.024507874015748
 20
0.2524330708661418
 30
0.0
  0
SPLINE
  5
3C
100
AcDbEntity
  8
Layer 1
 62
     9
100
AcDbSpline
210
0.0
220
0.0
230
1.0
 70
     1
 71
     3
 72
    20
 73
    16
 74
     0
 42
0.0000000001
 43
0.0000000001
 40
0.0
 40
0.0
 40
0.0
 40
0.0
 40
0.25
 40
0.25
 40
0.25
 40
0.25
 40
0.5
 40
0.5
 40
0.5
 40
0.5
 40
0.75
 40
0.75
 40
0.75
 40
0.75
 40
1.0
 40
1.0
 40
1.0
 40
1.0
 10
0.0230629921259843
 20
0.2240748031496063
 30
0.0
 10
0.0230629921259843
 20
0.2240748031496063
 30
0.0
 10
0.6694330708661418
 20
-0.1520118110236221
 30
0.0
 10
0.6694330708661418
 20
-0.1520118110236221
 30
0.0
 10
0.6694330708661418
 20
-0.1520118110236221
 30
0.0
 10
0.6694330708661418
 20
-0.1520118110236221
 30
0.0
 10
0.6685629921259843
 20
-0.1817598425196851
 30
0.0
 10
0.6685629921259843
 20
-0.1817598425196851
 30
0.0
 10
0.6685629921259843
 20
-0.1817598425196851
 30
0.0
 10
0.6685629921259843
 20
-0.1817598425196851
 30
0.0
 10
0.0221929133858268
 20
0.1943267716535433
 30
0.0
 10
0.0221929133858268
 20
0.1943267716535433
 30
0.0
 10
0.0221929133858268
 20
0.1943267716535433
 30
0.0
 10
0.0221929133858268
 20
0.1943267716535433
 30
0.0
 10
0.0230629921259843
 20
0.2240748031496063
 30
0.0
 10
0.0230629921259843
 20
0.2240748031496063
 30
0.0
  0
SPLINE
  5
3D
100
AcDbEntity
  8
Layer 1
 62
     9
100
AcDbSpline
210
0.0
220
0.0
230
1.0
 70
     1
 71
     3
 72
    20
 73
    16
 74
     0
 42
0.0000000001
 43
0.0000000001
 40
0.0
 40
0.0
 40
0.0
 40
0.0
 40
0.25
 40
0.25
 40
0.25
 40
0.25
 40
0.5
 40
0.5
 40
0.5
 40
0.5
 40
0.75
 40
0.75
 40
0.75
 40
0.75
 40
1.0
 40
1.0
 40
1.0
 40
1.0
 10
0.0221929133858268
 20
0.1943267716535433
 30
0.0
 10
0.0221929133858268
 20
0.1943267716535433
 30
0.0
 10
0.6685629921259843
 20
-0.1817598425196851
 30
0.0
 10
0.6685629921259843
 20
-0.1817598425196851
 30
0.0
 10
0.6685629921259843
 20
-0.1817598425196851
 30
0.0
 10
0.6685629921259843
 20
-0.1817598425196851
 30
0.0
 10
0.6682795275590552
 20
-0.2129251968503937
 30
0.0
 10
0.6682795275590552
 20
-0.2129251968503937
 30
0.0
 10
0.6682795275590552
 20
-0.2129251968503937
 30
0.0
 10
0.6682795275590552
 20
-0.2129251968503937
 30
0.0
 10
0.0219094488188976
 20
0.1631614173228347
 30
0.0
 10
0.0219094488188976
 20
0.1631614173228347
 30
0.0
 10
0.0219094488188976
 20
0.1631614173228347
 30
0.0
 10
0.0219094488188976
 20
0.1631614173228347
 30
0.0
 10
0.0221929133858268
 20
0.1943267716535433
 30
0.0
 10
0.0221929133858268
 20
0.1943267716535433
 30
0.0
  0
SPLINE
  5
3E
100
AcDbEntity
  8
Layer 1
370
     5
100
AcDbSpline
210
0.0
220
0.0
230
1.0
 70
     1
 71
     3
 72
   268
 73
   264
 74
     0
 42
0.0000000001
 43
0.0000000001
 40
0.0
 40
0.0
 40
0.0
 40
0.0
 40
0.0151515151515152
 40
0.0151515151515152
 40
0.0151515151515152
 40
0.0151515151515152
 40
0.0303030303030303
 40
0.0303030303030303
 40
0.0303030303030303
 40
0.0303030303030303
 40
0.0454545454545455
 40
0.0454545454545455
 40
0.0454545454545455
 40
0.0454545454545455
 40
0.0606060606060606
 40
0.0606060606060606
 40
0.0606060606060606
 40
0.0606060606060606
 40
0.0757575757575758
 40
0.0757575757575758
 40
0.0757575757575758
 40
0.0757575757575758
 40
0.0909090909090909
 40
0.0909090909090909
 40
0.0909090909090909
 40
0.0909090909090909
 40
0.1060606060606061
 40
0.1060606060606061
 40
0.1060606060606061
 40
0.1060606060606061
 40
0.1212121212121212
 40
0.1212121212121212
 40
0.1212121212121212
 40
0.1212121212121212
 40
0.1363636363636364
 40
0.1363636363636364
 40
0.1363636363636364
 40
0.1363636363636364
 40
0.1515151515151515
 40
0.1515151515151515
 40
0.1515151515151515
 40
0.1515151515151515
 40
0.1666666666666666
 40
0.1666666666666666
 40
0.1666666666666666
 40
0.1666666666666666
 40
0.1818181818181818
 40
0.1818181818181818
 40
0.1818181818181818
 40
0.1818181818181818
 40
0.1969696969696969
 40
0.1969696969696969
 40
0.1969696969696969
 40
0.1969696969696969
 40
0.212121212121212
 40
0.212121212121212
 40
0.212121212121212
 40
0.212121212121212
 40
0.2272727272727272
 40
0.2272727272727272
 40
0.2272727272727272
 40
0.2272727272727272
 40
0.2424242424242423
 40
0.2424242424242423
 40
0.2424242424242423
 40
0.2424242424242423
 40
0.2575757575757575
 40
0.2575757575757575
 40
0.2575757575757575
 40
0.2575757575757575
 40
0.2727272727272726
 40
0.2727272727272726
 40
0.2727272727272726
 40
0.2727272727272726
 40
0.2878787878787877
 40
0.2878787878787877
 40
0.2878787878787877
 40
0.2878787878787877
 40
0.3030303030303029
 40
0.3030303030303029
 40
0.3030303030303029
 40
0.3030303030303029
 40
0.318181818181818
 40
0.318181818181818
 40
0.318181818181818
 40
0.318181818181818
 40
0.3333333333333332
 40
0.3333333333333332
 40
0.3333333333333332
 40
0.3333333333333332
 40
0.3484848484848483
 40
0.3484848484848483
 40
0.3484848484848483
 40
0.3484848484848483
 40
0.3636363636363634
 40
0.3636363636363634
 40
0.3636363636363634
 40
0.3636363636363634
 40
0.3787878787878786
 40
0.3787878787878786
 40
0.3787878787878786
 40
0.3787878787878786
 40
0.3939393939393937
 40
0.3939393939393937
 40
0.3939393939393937
 40
0.3939393939393937
 40
0.4090909090909088
 40
0.4090909090909088
 40
0.4090909090909088
 40
0.4090909090909088
 40
0.424242424242424
 40
0.424242424242424
 40
0.424242424242424
 40
0.424242424242424
 40
0.4393939393939391
 40
0.4393939393939391
 40
0.4393939393939391
 40
0.4393939393939391
 40
0.4545454545454543
 40
0.4545454545454543
 40
0.4545454545454543
 40
0.4545454545454543
 40
0.4696969696969694
 40
0.4696969696969694
 40
0.4696969696969694
 40
0.4696969696969694
 40
0.4848484848484845
 40
0.4848484848484845
 40
0.4848484848484845
 40
0.4848484848484845
 40
0.4999999999999997
 40
0.4999999999999997
 40
0.4999999999999997
 40
0.4999999999999997
 40
0.5151515151515148
 40
0.5151515151515148
 40
0.5151515151515148
 40
0.5151515151515148
 40
0.5303030303030299
 40
0.5303030303030299
 40
0.5303030303030299
 40
0.5303030303030299
 40
0.5454545454545451
 40
0.5454545454545451
 40
0.5454545454545451
 40
0.5454545454545451
 40
0.5606060606060602
 40
0.5606060606060602
 40
0.5606060606060602
 40
0.5606060606060602
 40
0.5757575757575754
 40
0.5757575757575754
 40
0.5757575757575754
 40
0.5757575757575754
 40
0.5909090909090905
 40
0.5909090909090905
 40
0.5909090909090905
 40
0.5909090909090905
 40
0.6060606060606056
 40
0.6060606060606056
 40
0.6060606060606056
 40
0.6060606060606056
 40
0.6212121212121208
 40
0.6212121212121208
 40
0.6212121212121208
 40
0.6212121212121208
 40
0.6363636363636359
 40
0.6363636363636359
 40
0.6363636363636359
 40
0.6363636363636359
 40
0.6515151515151511
 40
0.6515151515151511
 40
0.6515151515151511
 40
0.6515151515151511
 40
0.6666666666666662
 40
0.6666666666666662
 40
0.6666666666666662
 40
0.6666666666666662
 40
0.6818181818181813
 40
0.6818181818181813
 40
0.6818181818181813
 40
0.6818181818181813
 40
0.6969696969696965
 40
0.6969696969696965
 40
0.6969696969696965
 40
0.6969696969696965
 40
0.7121212121212116
 40
0.7121212121212116
 40
0.7121212121212116
 40
0.7121212121212116
 40
0.7272727272727267
 40
0.7272727272727267
 40
0.7272727272727267
 40
0.7272727272727267
 40
0.7424242424242419
 40
0.7424242424242419
 40
0.7424242424242419
 40
0.7424242424242419
 40
0.757575757575757
 40
0.757575757575757
 40
0.757575757575757
 40
0.757575757575757
 40
0.7727272727272722
 40
0.7727272727272722
 40
0.7727272727272722
 40
0.7727272727272722
 40
0.7878787878787873
 40
0.7878787878787873
 40
0.7878787878787873
 40
0.7878787878787873
 40
0.8030303030303024
 40
0.8030303030303024
 40
0.8030303030303024
 40
0.8030303030303024
 40
0.8181818181818176
 40
0.8181818181818176
 40
0.8181818181818176
 40
0.8181818181818176
 40
0.8333333333333327
 40
0.8333333333333327
 40
0.8333333333333327
 40
0.8333333333333327
 40
0.8484848484848478
 40
0.8484848484848478
 40
0.8484848484848478
 40
0.8484848484848478
 40
0.863636363636363
 40
0.863636363636363
 40
0.863636363636363
 40
0.863636363636363
 40
0.8787878787878781
 40
0.8787878787878781
 40
0.8787878787878781
 40
0.8787878787878781
 40
0.8939393939393933
 40
0.8939393939393933
 40
0.8939393939393933
 40
0.8939393939393933
 40
0.9090909090909084
 40
0.9090909090909084
 40
0.9090909090909084
 40
0.9090909090909084
 40
0.9242424242424235
 40
0.9242424242424235
 40
0.9242424242424235
 40
0.9242424242424235
 40
0.9393939393939387
 40
0.9393939393939387
 40
0.9393939393939387
 40
0.9393939393939387
 40
0.9545454545454538
 40
0.9545454545454538
 40
0.9545454545454538
 40
0.9545454545454538
 40
0.969696969696969
 40
0.969696969696969
 40
0.969696969696969
 40
0.969696969696969
 40
0.9848484848484841
 40
0.9848484848484841
 40
0.9848484848484841
 40
0.9848484848484841
 40
1.0
 40
1.0
 40
1.0
 40
1.0
 10
0.3329881889763779
 20
0.6258858267716536
 30
0.0
 10
0.3329881889763779
 20
0.6258858267716536
 30
0.0
 10
0.9793582677165355
 20
0.2497992125984252
 30
0.0
 10
0.9793582677165355
 20
0.2497992125984252
 30
0.0
 10
0.9793582677165355
 20
0.2497992125984252
 30
0.0
 10
0.9793582677165355
 20
0.2497992125984252
 30
0.0
 10
0.9597598425196851
 20
0.2467322834645669
 30
0.0
 10
0.9597598425196851
 20
0.2467322834645669
 30
0.0
 10
0.9597598425196851
 20
0.2467322834645669
 30
0.0
 10
0.9597598425196851
 20
0.2467322834645669
 30
0.0
 10
0.9408267716535433
 20
0.2432755905511811
 30
0.0
 10
0.9408267716535433
 20
0.2432755905511811
 30
0.0
 10
0.9408267716535433
 20
0.2432755905511811
 30
0.0
 10
0.9408267716535433
 20
0.2432755905511811
 30
0.0
 10
0.9225551181102363
 20
0.2393897637795276
 30
0.0
 10
0.9225551181102363
 20
0.2393897637795276
 30
0.0
 10
0.9225551181102363
 20
0.2393897637795276
 30
0.0
 10
0.9225551181102363
 20
0.2393897637795276
 30
0.0
 10
0.9049488188976378
 20
0.2350472440944882
 30
0.0
 10
0.9049488188976378
 20
0.2350472440944882
 30
0.0
 10
0.9049488188976378
 20
0.2350472440944882
 30
0.0
 10
0.9049488188976378
 20
0.2350472440944882
 30
0.0
 10
0.887992125984252
 20
0.2302007874015748
 30
0.0
 10
0.887992125984252
 20
0.2302007874015748
 30
0.0
 10
0.887992125984252
 20
0.2302007874015748
 30
0.0
 10
0.887992125984252
 20
0.2302007874015748
 30
0.0
 10
0.8716968503937008
 20
0.2248346456692913
 30
0.0
 10
0.8716968503937008
 20
0.2248346456692913
 30
0.0
 10
0.8716968503937008
 20
0.2248346456692913
 30
0.0
 10
0.8716968503937008
 20
0.2248346456692913
 30
0.0
 10
0.8560511811023622
 20
0.2189015748031496
 30
0.0
 10
0.8560511811023622
 20
0.2189015748031496
 30
0.0
 10
0.8560511811023622
 20
0.2189015748031496
 30
0.0
 10
0.8560511811023622
 20
0.2189015748031496
 30
0.0
 10
0.8410590551181103
 20
0.2123740157480315
 30
0.0
 10
0.8410590551181103
 20
0.2123740157480315
 30
0.0
 10
0.8410590551181103
 20
0.2123740157480315
 30
0.0
 10
0.8410590551181103
 20
0.2123740157480315
 30
0.0
 10
0.8267047244094489
 20
0.2052047244094488
 30
0.0
 10
0.8267047244094489
 20
0.2052047244094488
 30
0.0
 10
0.8267047244094489
 20
0.2052047244094488
 30
0.0
 10
0.8267047244094489
 20
0.2052047244094488
 30
0.0
 10
0.812996062992126
 20
0.1973740157480315
 30
0.0
 10
0.812996062992126
 20
0.1973740157480315
 30
0.0
 10
0.812996062992126
 20
0.1973740157480315
 30
0.0
 10
0.812996062992126
 20
0.1973740157480315
 30
0.0
 10
0.7999212598425197
 20
0.1888425196850394
 30
0.0
 10
0.7999212598425197
 20
0.1888425196850394
 30
0.0
 10
0.7999212598425197
 20
0.1888425196850394
 30
0.0
 10
0.7999212598425197
 20
0.1888425196850394
 30
0.0
 10
0.787496062992126
 20
0.1795787401574803
 30
0.0
 10
0.787496062992126
 20
0.1795787401574803
 30
0.0
 10
0.787496062992126
 20
0.1795787401574803
 30
0.0
 10
0.787496062992126
 20
0.1795787401574803
 30
0.0
 10
0.7756968503937008
 20
0.1695393700787402
 30
0.0
 10
0.7756968503937008
 20
0.1695393700787402
 30
0.0
 10
0.7756968503937008
 20
0.1695393700787402
 30
0.0
 10
0.7756968503937008
 20
0.1695393700787402
 30
0.0
 10
0.7645354330708661
 20
0.1587047244094488
 30
0.0
 10
0.7645354330708661
 20
0.1587047244094488
 30
0.0
 10
0.7645354330708661
 20
0.1587047244094488
 30
0.0
 10
0.7645354330708661
 20
0.1587047244094488
 30
0.0
 10
0.753996062992126
 20
0.1470275590551181
 30
0.0
 10
0.753996062992126
 20
0.1470275590551181
 30
0.0
 10
0.753996062992126
 20
0.1470275590551181
 30
0.0
 10
0.753996062992126
 20
0.1470275590551181
 30
0.0
 10
0.7440905511811023
 20
0.1344803149606299
 30
0.0
 10
0.7440905511811023
 20
0.1344803149606299
 30
0.0
 10
0.7440905511811023
 20
0.1344803149606299
 30
0.0
 10
0.7440905511811023
 20
0.1344803149606299
 30
0.0
 10
0.7347992125984252
 20
0.1210196850393701
 30
0.0
 10
0.7347992125984252
 20
0.1210196850393701
 30
0.0
 10
0.7347992125984252
 20
0.1210196850393701
 30
0.0
 10
0.7347992125984252
 20
0.1210196850393701
 30
0.0
 10
0.7261299212598426
 20
0.1066220472440945
 30
0.0
 10
0.7261299212598426
 20
0.1066220472440945
 30
0.0
 10
0.7261299212598426
 20
0.1066220472440945
 30
0.0
 10
0.7261299212598426
 20
0.1066220472440945
 30
0.0
 10
0.7180748031496064
 20
0.091244094488189
 30
0.0
 10
0.7180748031496064
 20
0.091244094488189
 30
0.0
 10
0.7180748031496064
 20
0.091244094488189
 30
0.0
 10
0.7180748031496064
 20
0.091244094488189
 30
0.0
 10
0.7106456692913387
 20
0.0748661417322835
 30
0.0
 10
0.7106456692913387
 20
0.0748661417322835
 30
0.0
 10
0.7106456692913387
 20
0.0748661417322835
 30
0.0
 10
0.7106456692913387
 20
0.0748661417322835
 30
0.0
 10
0.7038149606299213
 20
0.0574370078740157
 30
0.0
 10
0.7038149606299213
 20
0.0574370078740157
 30
0.0
 10
0.7038149606299213
 20
0.0574370078740157
 30
0.0
 10
0.7038149606299213
 20
0.0574370078740157
 30
0.0
 10
0.6975984251968505
 20
0.0389330708661417
 30
0.0
 10
0.6975984251968505
 20
0.0389330708661417
 30
0.0
 10
0.6975984251968505
 20
0.0389330708661417
 30
0.0
 10
0.6975984251968505
 20
0.0389330708661417
 30
0.0
 10
0.6919881889763779
 20
0.0193149606299213
 30
0.0
 10
0.6919881889763779
 20
0.0193149606299213
 30
0.0
 10
0.6919881889763779
 20
0.0193149606299213
 30
0.0
 10
0.6919881889763779
 20
0.0193149606299213
 30
0.0
 10
0.686984251968504
 20
-0.0014409448818898
 30
0.0
 10
0.686984251968504
 20
-0.0014409448818898
 30
0.0
 10
0.686984251968504
 20
-0.0014409448818898
 30
0.0
 10
0.686984251968504
 20
-0.0014409448818898
 30
0.0
 10
0.6825748031496063
 20
-0.0233897637795276
 30
0.0
 10
0.6825748031496063
 20
-0.0233897637795276
 30
0.0
 10
0.6825748031496063
 20
-0.0233897637795276
 30
0.0
 10
0.6825748031496063
 20
-0.0233897637795276
 30
0.0
 10
0.6787637795275591
 20
-0.0465472440944882
 30
0.0
 10
0.6787637795275591
 20
-0.0465472440944882
 30
0.0
 10
0.6787637795275591
 20
-0.0465472440944882
 30
0.0
 10
0.6787637795275591
 20
-0.0465472440944882
 30
0.0
 10
0.6755433070866143
 20
-0.0709566929133858
 30
0.0
 10
0.6755433070866143
 20
-0.0709566929133858
 30
0.0
 10
0.6755433070866143
 20
-0.0709566929133858
 30
0.0
 10
0.6755433070866143
 20
-0.0709566929133858
 30
0.0
 10
0.6729212598425197
 20
-0.0966417322834646
 30
0.0
 10
0.6729212598425197
 20
-0.0966417322834646
 30
0.0
 10
0.6729212598425197
 20
-0.0966417322834646
 30
0.0
 10
0.6729212598425197
 20
-0.0966417322834646
 30
0.0
 10
0.6708779527559056
 20
-0.1236535433070866
 30
0.0
 10
0.6708779527559056
 20
-0.1236535433070866
 30
0.0
 10
0.6708779527559056
 20
-0.1236535433070866
 30
0.0
 10
0.6708779527559056
 20
-0.1236535433070866
 30
0.0
 10
0.6694330708661418
 20
-0.1520118110236221
 30
0.0
 10
0.6694330708661418
 20
-0.1520118110236221
 30
0.0
 10
0.6694330708661418
 20
-0.1520118110236221
 30
0.0
 10
0.6694330708661418
 20
-0.1520118110236221
 30
0.0
 10
0.6685629921259843
 20
-0.1817598425196851
 30
0.0
 10
0.6685629921259843
 20
-0.1817598425196851
 30
0.0
 10
0.6685629921259843
 20
-0.1817598425196851
 30
0.0
 10
0.6685629921259843
 20
-0.1817598425196851
 30
0.0
 10
0.6682795275590552
 20
-0.2129251968503937
 30
0.0
 10
0.6682795275590552
 20
-0.2129251968503937
 30
0.0
 10
0.6682795275590552
 20
-0.2129251968503937
 30
0.0
 10
0.6682795275590552
 20
-0.2129251968503937
 30
0.0
 10
0.0219094488188976
 20
0.1631614173228347
 30
0.0
 10
0.0219094488188976
 20
0.1631614173228347
 30
0.0
 10
0.0219094488188976
 20
0.1631614173228347
 30
0.0
 10
0.0219094488188976
 20
0.1631614173228347
 30
0.0
 10
0.0221929133858268
 20
0.1943267716535433
 30
0.0
 10
0.0221929133858268
 20
0.1943267716535433
 30
0.0
 10
0.0221929133858268
 20
0.1943267716535433
 30
0.0
 10
0.0221929133858268
 20
0.1943267716535433
 30
0.0
 10
0.0230629921259843
 20
0.2240748031496063
 30
0.0
 10
0.0230629921259843
 20
0.2240748031496063
 30
0.0
 10
0.0230629921259843
 20
0.2240748031496063
 30
0.0
 10
0.0230629921259843
 20
0.2240748031496063
 30
0.0
 10
0.024507874015748
 20
0.2524330708661418
 30
0.0
 10
0.024507874015748
 20
0.2524330708661418
 30
0.0
 10
0.024507874015748
 20
0.2524330708661418
 30
0.0
 10
0.024507874015748
 20
0.2524330708661418
 30
0.0
 10
0.0265511811023622
 20
0.2794448818897638
 30
0.0
 10
0.0265511811023622
 20
0.2794448818897638
 30
0.0
 10
0.0265511811023622
 20
0.2794448818897638
 30
0.0
 10
0.0265511811023622
 20
0.2794448818897638
 30
0.0
 10
0.0291732283464567
 20
0.3051299212598425
 30
0.0
 10
0.0291732283464567
 20
0.3051299212598425
 30
0.0
 10
0.0291732283464567
 20
0.3051299212598425
 30
0.0
 10
0.0291732283464567
 20
0.3051299212598425
 30
0.0
 10
0.0323937007874016
 20
0.3295393700787402
 30
0.0
 10
0.0323937007874016
 20
0.3295393700787402
 30
0.0
 10
0.0323937007874016
 20
0.3295393700787402
 30
0.0
 10
0.0323937007874016
 20
0.3295393700787402
 30
0.0
 10
0.0362047244094488
 20
0.3526968503937008
 30
0.0
 10
0.0362047244094488
 20
0.3526968503937008
 30
0.0
 10
0.0362047244094488
 20
0.3526968503937008
 30
0.0
 10
0.0362047244094488
 20
0.3526968503937008
 30
0.0
 10
0.0406141732283465
 20
0.3746456692913386
 30
0.0
 10
0.0406141732283465
 20
0.3746456692913386
 30
0.0
 10
0.0406141732283465
 20
0.3746456692913386
 30
0.0
 10
0.0406141732283465
 20
0.3746456692913386
 30
0.0
 10
0.0456181102362205
 20
0.3954015748031496
 30
0.0
 10
0.0456181102362205
 20
0.3954015748031496
 30
0.0
 10
0.0456181102362205
 20
0.3954015748031496
 30
0.0
 10
0.0456181102362205
 20
0.3954015748031496
 30
0.0
 10
0.0512283464566929
 20
0.4150196850393701
 30
0.0
 10
0.0512283464566929
 20
0.4150196850393701
 30
0.0
 10
0.0512283464566929
 20
0.4150196850393701
 30
0.0
 10
0.0512283464566929
 20
0.4150196850393701
 30
0.0
 10
0.0574448818897638
 20
0.4335236220472441
 30
0.0
 10
0.0574448818897638
 20
0.4335236220472441
 30
0.0
 10
0.0574448818897638
 20
0.4335236220472441
 30
0.0
 10
0.0574448818897638
 20
0.4335236220472441
 30
0.0
 10
0.0642755905511811
 20
0.4509527559055118
 30
0.0
 10
0.0642755905511811
 20
0.4509527559055118
 30
0.0
 10
0.0642755905511811
 20
0.4509527559055118
 30
0.0
 10
0.0642755905511811
 20
0.4509527559055118
 30
0.0
 10
0.0717047244094488
 20
0.4673307086614174
 30
0.0
 10
0.0717047244094488
 20
0.4673307086614174
 30
0.0
 10
0.0717047244094488
 20
0.4673307086614174
 30
0.0
 10
0.0717047244094488
 20
0.4673307086614174
 30
0.0
 10
0.079759842519685
 20
0.4827086614173228
 30
0.0
 10
0.079759842519685
 20
0.4827086614173228
 30
0.0
 10
0.079759842519685
 20
0.4827086614173228
 30
0.0
 10
0.079759842519685
 20
0.4827086614173228
 30
0.0
 10
0.0884291338582677
 20
0.4971062992125985
 30
0.0
 10
0.0884291338582677
 20
0.4971062992125985
 30
0.0
 10
0.0884291338582677
 20
0.4971062992125985
 30
0.0
 10
0.0884291338582677
 20
0.4971062992125985
 30
0.0
 10
0.0977204724409449
 20
0.5105669291338583
 30
0.0
 10
0.0977204724409449
 20
0.5105669291338583
 30
0.0
 10
0.0977204724409449
 20
0.5105669291338583
 30
0.0
 10
0.0977204724409449
 20
0.5105669291338583
 30
0.0
 10
0.1076259842519685
 20
0.5231141732283465
 30
0.0
 10
0.1076259842519685
 20
0.5231141732283465
 30
0.0
 10
0.1076259842519685
 20
0.5231141732283465
 30
0.0
 10
0.1076259842519685
 20
0.5231141732283465
 30
0.0
 10
0.1181653543307087
 20
0.5347913385826771
 30
0.0
 10
0.1181653543307087
 20
0.5347913385826771
 30
0.0
 10
0.1181653543307087
 20
0.5347913385826771
 30
0.0
 10
0.1181653543307087
 20
0.5347913385826771
 30
0.0
 10
0.1293267716535433
 20
0.5456259842519685
 30
0.0
 10
0.1293267716535433
 20
0.5456259842519685
 30
0.0
 10
0.1293267716535433
 20
0.5456259842519685
 30
0.0
 10
0.1293267716535433
 20
0.5456259842519685
 30
0.0
 10
0.1411259842519685
 20
0.5556653543307086
 30
0.0
 10
0.1411259842519685
 20
0.5556653543307086
 30
0.0
 10
0.1411259842519685
 20
0.5556653543307086
 30
0.0
 10
0.1411259842519685
 20
0.5556653543307086
 30
0.0
 10
0.1535511811023622
 20
0.5649291338582677
 30
0.0
 10
0.1535511811023622
 20
0.5649291338582677
 30
0.0
 10
0.1535511811023622
 20
0.5649291338582677
 30
0.0
 10
0.1535511811023622
 20
0.5649291338582677
 30
0.0
 10
0.1666259842519685
 20
0.5734606299212599
 30
0.0
 10
0.1666259842519685
 20
0.5734606299212599
 30
0.0
 10
0.1666259842519685
 20
0.5734606299212599
 30
0.0
 10
0.1666259842519685
 20
0.5734606299212599
 30
0.0
 10
0.1803346456692913
 20
0.5812913385826772
 30
0.0
 10
0.1803346456692913
 20
0.5812913385826772
 30
0.0
 10
0.1803346456692913
 20
0.5812913385826772
 30
0.0
 10
0.1803346456692913
 20
0.5812913385826772
 30
0.0
 10
0.1946889763779528
 20
0.5884606299212599
 30
0.0
 10
0.1946889763779528
 20
0.5884606299212599
 30
0.0
 10
0.1946889763779528
 20
0.5884606299212599
 30
0.0
 10
0.1946889763779528
 20
0.5884606299212599
 30
0.0
 10
0.2096811023622047
 20
0.594988188976378
 30
0.0
 10
0.2096811023622047
 20
0.594988188976378
 30
0.0
 10
0.2096811023622047
 20
0.594988188976378
 30
0.0
 10
0.2096811023622047
 20
0.594988188976378
 30
0.0
 10
0.2253267716535433
 20
0.6009212598425198
 30
0.0
 10
0.2253267716535433
 20
0.6009212598425198
 30
0.0
 10
0.2253267716535433
 20
0.6009212598425198
 30
0.0
 10
0.2253267716535433
 20
0.6009212598425198
 30
0.0
 10
0.2416220472440945
 20
0.6062874015748032
 30
0.0
 10
0.2416220472440945
 20
0.6062874015748032
 30
0.0
 10
0.2416220472440945
 20
0.6062874015748032
 30
0.0
 10
0.2416220472440945
 20
0.6062874015748032
 30
0.0
 10
0.2585787401574803
 20
0.6111338582677166
 30
0.0
 10
0.2585787401574803
 20
0.6111338582677166
 30
0.0
 10
0.2585787401574803
 20
0.6111338582677166
 30
0.0
 10
0.2585787401574803
 20
0.6111338582677166
 30
0.0
 10
0.2761850393700788
 20
0.6154763779527559
 30
0.0
 10
0.2761850393700788
 20
0.6154763779527559
 30
0.0
 10
0.2761850393700788
 20
0.6154763779527559
 30
0.0
 10
0.2761850393700788
 20
0.6154763779527559
 30
0.0
 10
0.2944566929133858
 20
0.6193622047244095
 30
0.0
 10
0.2944566929133858
 20
0.6193622047244095
 30
0.0
 10
0.2944566929133858
 20
0.6193622047244095
 30
0.0
 10
0.2944566929133858
 20
0.6193622047244095
 30
0.0
 10
0.3133897637795276
 20
0.6228188976377953
 30
0.0
 10
0.3133897637795276
 20
0.6228188976377953
 30
0.0
 10
0.3133897637795276
 20
0.6228188976377953
 30
0.0
 10
0.3133897637795276
 20
0.6228188976377953
 30
0.0
 10
0.3329881889763779
 20
0.6258858267716536
 30
0.0
 10
0.3329881889763779
 20
0.6258858267716536
 30
0.0
  0
SPLINE
  5
3F
100
AcDbEntity
  8
Layer 1
 62
     9
100
AcDbSpline
210
0.0
220
0.0
230
1.0
 70
     1
 71
     3
 72
    20
 73
    16
 74
     0
 42
0.0000000001
 43
0.0000000001
 40
0.0
 40
0.0
 40
0.0
 40
0.0
 40
0.25
 40
0.25
 40
0.25
 40
0.25
 40
0.5
 40
0.5
 40
0.5
 40
0.5
 40
0.75
 40
0.75
 40
0.75
 40
0.75
 40
1.0
 40
1.0
 40
1.0
 40
1.0
 10
0.0219094488188976
 20
0.1631614173228347
 30
0.0
 10
0.0219094488188976
 20
0.1631614173228347
 30
0.0
 10
0.6682795275590552
 20
-0.2129251968503937
 30
0.0
 10
0.6682795275590552
 20
-0.2129251968503937
 30
0.0
 10
0.6682795275590552
 20
-0.2129251968503937
 30
0.0
 10
0.6682795275590552
 20
-0.2129251968503937
 30
0.0
 10
0.5432362204724409
 20
-0.2459094488188977
 30
0.0
 10
0.5432362204724409
 20
-0.2459094488188977
 30
0.0
 10
0.5432362204724409
 20
-0.2459094488188977
 30
0.0
 10
0.5432362204724409
 20
-0.2459094488188977
 30
0.0
 10
-0.1031338582677165
 20
0.1301771653543307
 30
0.0
 10
-0.1031338582677165
 20
0.1301771653543307
 30
0.0
 10
-0.1031338582677165
 20
0.1301771653543307
 30
0.0
 10
-0.1031338582677165
 20
0.1301771653543307
 30
0.0
 10
0.0219094488188976
 20
0.1631614173228347
 30
0.0
 10
0.0219094488188976
 20
0.1631614173228347
 30
0.0
  0
SPLINE
  5
40
100
AcDbEntity
  8
Layer 1
370
     5
100
AcDbSpline
210
0.0
220
0.0
230
1.0
 70
     1
 71
     3
 72
    20
 73
    16
 74
     0
 42
0.0000000001
 43
0.0000000001
 40
0.0
 40
0.0
 40
0.0
 40
0.0
 40
0.25
 40
0.25
 40
0.25
 40
0.25
 40
0.5
 40
0.5
 40
0.5
 40
0.5
 40
0.75
 40
0.75
 40
0.75
 40
0.75
 40
1.0
 40
1.0
 40
1.0
 40
1.0
 10
0.0219094488188976
 20
0.1631614173228347
 30
0.0
 10
0.0219094488188976
 20
0.1631614173228347
 30
0.0
 10
0.6682795275590552
 20
-0.2129251968503937
 30
0.0
 10
0.6682795275590552
 20
-0.2129251968503937
 30
0.0
 10
0.6682795275590552
 20
-0.2129251968503937
 30
0.0
 10
0.6682795275590552
 20
-0.2129251968503937
 30
0.0
 10
0.5432362204724409
 20
-0.2459094488188977
 30
0.0
 10
0.5432362204724409
 20
-0.2459094488188977
 30
0.0
 10
0.5432362204724409
 20
-0.2459094488188977
 30
0.0
 10
0.5432362204724409
 20
-0.2459094488188977
 30
0.0
 10
-0.1031338582677165
 20
0.1301771653543307
 30
0.0
 10
-0.1031338582677165
 20
0.1301771653543307
 30
0.0
 10
-0.1031338582677165
 20
0.1301771653543307
 30
0.0
 10
-0.1031338582677165
 20
0.1301771653543307
 30
0.0
 10
0.0219094488188976
 20
0.1631614173228347
 30
0.0
 10
0.0219094488188976
 20
0.1631614173228347
 30
0.0
  0
SPLINE
  5
41
100
AcDbEntity
  8
Layer 1
 62
     9
100
AcDbSpline
210
0.0
220
0.0
230
1.0
 70
     1
 71
     3
 72
    20
 73
    16
 74
     0
 42
0.0000000001
 43
0.0000000001
 40
0.0
 40
0.0
 40
0.0
 40
0.0
 40
0.25
 40
0.25
 40
0.25
 40
0.25
 40
0.5
 40
0.5
 40
0.5
 40
0.5
 40
0.75
 40
0.75
 40
0.75
 40
0.75
 40
1.0
 40
1.0
 40
1.0
 40
1.0
 10
-0.1031338582677165
 20
0.1301771653543307
 30
0.0
 10
-0.1031338582677165
 20
0.1301771653543307
 30
0.0
 10
0.5432362204724409
 20
-0.2459094488188977
 30
0.0
 10
0.5432362204724409
 20
-0.2459094488188977
 30
0.0
 10
0.5432362204724409
 20
-0.2459094488188977
 30
0.0
 10
0.5432362204724409
 20
-0.2459094488188977
 30
0.0
 10
0.5432362204724409
 20
-1.4656929133858267
 30
0.0
 10
0.5432362204724409
 20
-1.4656929133858267
 30
0.0
 10
0.5432362204724409
 20
-1.4656929133858267
 30
0.0
 10
0.5432362204724409
 20
-1.4656929133858267
 30
0.0
 10
-0.1031338582677165
 20
-1.0896062992125986
 30
0.0
 10
-0.1031338582677165
 20
-1.0896062992125986
 30
0.0
 10
-0.1031338582677165
 20
-1.0896062992125986
 30
0.0
 10
-0.1031338582677165
 20
-1.0896062992125986
 30
0.0
 10
-0.1031338582677165
 20
0.1301771653543307
 30
0.0
 10
-0.1031338582677165
 20
0.1301771653543307
 30
0.0
  0
SPLINE
  5
42
100
AcDbEntity
  8
Layer 1
370
     5
100
AcDbSpline
210
0.0
220
0.0
230
1.0
 70
     1
 71
     3
 72
    20
 73
    16
 74
     0
 42
0.0000000001
 43
0.0000000001
 40
0.0
 40
0.0
 40
0.0
 40
0.0
 40
0.25
 40
0.25
 40
0.25
 40
0.25
 40
0.5
 40
0.5
 40
0.5
 40
0.5
 40
0.75
 40
0.75
 40
0.75
 40
0.75
 40
1.0
 40
1.0
 40
1.0
 40
1.0
 10
-0.1031338582677165
 20
0.1301771653543307
 30
0.0
 10
-0.1031338582677165
 20
0.1301771653543307
 30
0.0
 10
0.5432362204724409
 20
-0.2459094488188977
 30
0.0
 10
0.5432362204724409
 20
-0.2459094488188977
 30
0.0
 10
0.5432362204724409
 20
-0.2459094488188977
 30
0.0
 10
0.5432362204724409
 20
-0.2459094488188977
 30
0.0
 10
0.5432362204724409
 20
-1.4656929133858267
 30
0.0
 10
0.5432362204724409
 20
-1.4656929133858267
 30
0.0
 10
0.5432362204724409
 20
-1.4656929133858267
 30
0.0
 10
0.5432362204724409
 20
-1.4656929133858267
 30
0.0
 10
-0.1031338582677165
 20
-1.0896062992125986
 30
0.0
 10
-0.1031338582677165
 20
-1.0896062992125986
 30
0.0
 10
-0.1031338582677165
 20
-1.0896062992125986
 30
0.0
 10
-0.1031338582677165
 20
-1.0896062992125986
 30
0.0
 10
-0.1031338582677165
 20
0.1301771653543307
 30
0.0
 10
-0.1031338582677165
 20
0.1301771653543307
 30
0.0
  0
SPLINE
  5
43
100
AcDbEntity
  8
Layer 1
 62
     9
100
AcDbSpline
210
0.0
220
0.0
230
1.0
 70
     1
 71
     3
 72
    20
 73
    16
 74
     0
 42
0.0000000001
 43
0.0000000001
 40
0.0
 40
0.0
 40
0.0
 40
0.0
 40
0.25
 40
0.25
 40
0.25
 40
0.25
 40
0.5
 40
0.5
 40
0.5
 40
0.5
 40
0.75
 40
0.75
 40
0.75
 40
0.75
 40
1.0
 40
1.0
 40
1.0
 40
1.0
 10
-0.1031338582677165
 20
-1.0896062992125986
 30
0.0
 10
-0.1031338582677165
 20
-1.0896062992125986
 30
0.0
 10
0.5432362204724409
 20
-1.4656929133858267
 30
0.0
 10
0.5432362204724409
 20
-1.4656929133858267
 30
0.0
 10
0.5432362204724409
 20
-1.4656929133858267
 30
0.0
 10
0.5432362204724409
 20
-1.4656929133858267
 30
0.0
 10
0.349240157480315
 20
-1.4949251968503938
 30
0.0
 10
0.349240157480315
 20
-1.4949251968503938
 30
0.0
 10
0.349240157480315
 20
-1.4949251968503938
 30
0.0
 10
0.349240157480315
 20
-1.4949251968503938
 30
0.0
 10
-0.2971299212598426
 20
-1.1188385826771654
 30
0.0
 10
-0.2971299212598426
 20
-1.1188385826771654
 30
0.0
 10
-0.2971299212598426
 20
-1.1188385826771654
 30
0.0
 10
-0.2971299212598426
 20
-1.1188385826771654
 30
0.0
 10
-0.1031338582677165
 20
-1.0896062992125986
 30
0.0
 10
-0.1031338582677165
 20
-1.0896062992125986
 30
0.0
  0
SPLINE
  5
44
100
AcDbEntity
  8
Layer 1
 62
     9
100
AcDbSpline
210
0.0
220
0.0
230
1.0
 70
     1
 71
     3
 72
    20
 73
    16
 74
     0
 42
0.0000000001
 43
0.0000000001
 40
0.0
 40
0.0
 40
0.0
 40
0.0
 40
0.25
 40
0.25
 40
0.25
 40
0.25
 40
0.5
 40
0.5
 40
0.5
 40
0.5
 40
0.75
 40
0.75
 40
0.75
 40
0.75
 40
1.0
 40
1.0
 40
1.0
 40
1.0
 10
-0.2971299212598426
 20
-1.1188385826771654
 30
0.0
 10
-0.2971299212598426
 20
-1.1188385826771654
 30
0.0
 10
0.349240157480315
 20
-1.4949251968503938
 30
0.0
 10
0.349240157480315
 20
-1.4949251968503938
 30
0.0
 10
0.349240157480315
 20
-1.4949251968503938
 30
0.0
 10
0.349240157480315
 20
-1.4949251968503938
 30
0.0
 10
0.3476377952755906
 20
-1.5635590551181102
 30
0.0
 10
0.3476377952755906
 20
-1.5635590551181102
 30
0.0
 10
0.3476377952755906
 20
-1.5635590551181102
 30
0.0
 10
0.3476377952755906
 20
-1.5635590551181102
 30
0.0
 10
-0.2987322834645669
 20
-1.187472440944882
 30
0.0
 10
-0.2987322834645669
 20
-1.187472440944882
 30
0.0
 10
-0.2987322834645669
 20
-1.187472440944882
 30
0.0
 10
-0.2987322834645669
 20
-1.187472440944882
 30
0.0
 10
-0.2971299212598426
 20
-1.1188385826771654
 30
0.0
 10
-0.2971299212598426
 20
-1.1188385826771654
 30
0.0
  0
SPLINE
  5
45
100
AcDbEntity
  8
Layer 1
 62
     9
100
AcDbSpline
210
0.0
220
0.0
230
1.0
 70
     1
 71
     3
 72
    20
 73
    16
 74
     0
 42
0.0000000001
 43
0.0000000001
 40
0.0
 40
0.0
 40
0.0
 40
0.0
 40
0.25
 40
0.25
 40
0.25
 40
0.25
 40
0.5
 40
0.5
 40
0.5
 40
0.5
 40
0.75
 40
0.75
 40
0.75
 40
0.75
 40
1.0
 40
1.0
 40
1.0
 40
1.0
 10
-0.2987322834645669
 20
-1.187472440944882
 30
0.0
 10
-0.2987322834645669
 20
-1.187472440944882
 30
0.0
 10
0.3476377952755906
 20
-1.5635590551181102
 30
0.0
 10
0.3476377952755906
 20
-1.5635590551181102
 30
0.0
 10
0.3476377952755906
 20
-1.5635590551181102
 30
0.0
 10
0.3476377952755906
 20
-1.5635590551181102
 30
0.0
 10
0.3429448818897638
 20
-1.6289015748031497
 30
0.0
 10
0.3429448818897638
 20
-1.6289015748031497
 30
0.0
 10
0.3429448818897638
 20
-1.6289015748031497
 30
0.0
 10
0.3429448818897638
 20
-1.6289015748031497
 30
0.0
 10
-0.3034251968503937
 20
-1.2528149606299213
 30
0.0
 10
-0.3034251968503937
 20
-1.2528149606299213
 30
0.0
 10
-0.3034251968503937
 20
-1.2528149606299213
 30
0.0
 10
-0.3034251968503937
 20
-1.2528149606299213
 30
0.0
 10
-0.2987322834645669
 20
-1.187472440944882
 30
0.0
 10
-0.2987322834645669
 20
-1.187472440944882
 30
0.0
  0
SPLINE
  5
46
100
AcDbEntity
  8
Layer 1
 62
     9
100
AcDbSpline
210
0.0
220
0.0
230
1.0
 70
     1
 71
     3
 72
    20
 73
    16
 74
     0
 42
0.0000000001
 43
0.0000000001
 40
0.0
 40
0.0
 40
0.0
 40
0.0
 40
0.25
 40
0.25
 40
0.25
 40
0.25
 40
0.5
 40
0.5
 40
0.5
 40
0.5
 40
0.75
 40
0.75
 40
0.75
 40
0.75
 40
1.0
 40
1.0
 40
1.0
 40
1.0
 10
-0.3034251968503937
 20
-1.2528149606299213
 30
0.0
 10
-0.3034251968503937
 20
-1.2528149606299213
 30
0.0
 10
0.3429448818897638
 20
-1.6289015748031497
 30
0.0
 10
0.3429448818897638
 20
-1.6289015748031497
 30
0.0
 10
0.3429448818897638
 20
-1.6289015748031497
 30
0.0
 10
0.3429448818897638
 20
-1.6289015748031497
 30
0.0
 10
0.3353464566929134
 20
-1.6910157480314962
 30
0.0
 10
0.3353464566929134
 20
-1.6910157480314962
 30
0.0
 10
0.3353464566929134
 20
-1.6910157480314962
 30
0.0
 10
0.3353464566929134
 20
-1.6910157480314962
 30
0.0
 10
-0.3110236220472441
 20
-1.3149291338582678
 30
0.0
 10
-0.3110236220472441
 20
-1.3149291338582678
 30
0.0
 10
-0.3110236220472441
 20
-1.3149291338582678
 30
0.0
 10
-0.3110236220472441
 20
-1.3149291338582678
 30
0.0
 10
-0.3034251968503937
 20
-1.2528149606299213
 30
0.0
 10
-0.3034251968503937
 20
-1.2528149606299213
 30
0.0
  0
SPLINE
  5
47
100
AcDbEntity
  8
Layer 1
 62
     9
100
AcDbSpline
210
0.0
220
0.0
230
1.0
 70
     1
 71
     3
 72
    20
 73
    16
 74
     0
 42
0.0000000001
 43
0.0000000001
 40
0.0
 40
0.0
 40
0.0
 40
0.0
 40
0.25
 40
0.25
 40
0.25
 40
0.25
 40
0.5
 40
0.5
 40
0.5
 40
0.5
 40
0.75
 40
0.75
 40
0.75
 40
0.75
 40
1.0
 40
1.0
 40
1.0
 40
1.0
 10
-0.3110236220472441
 20
-1.3149291338582678
 30
0.0
 10
-0.3110236220472441
 20
-1.3149291338582678
 30
0.0
 10
0.3353464566929134
 20
-1.6910157480314962
 30
0.0
 10
0.3353464566929134
 20
-1.6910157480314962
 30
0.0
 10
0.3353464566929134
 20
-1.6910157480314962
 30
0.0
 10
0.3353464566929134
 20
-1.6910157480314962
 30
0.0
 10
0.3250157480314961
 20
-1.749988188976378
 30
0.0
 10
0.3250157480314961
 20
-1.749988188976378
 30
0.0
 10
0.3250157480314961
 20
-1.749988188976378
 30
0.0
 10
0.3250157480314961
 20
-1.749988188976378
 30
0.0
 10
-0.3213543307086614
 20
-1.3739015748031496
 30
0.0
 10
-0.3213543307086614
 20
-1.3739015748031496
 30
0.0
 10
-0.3213543307086614
 20
-1.3739015748031496
 30
0.0
 10
-0.3213543307086614
 20
-1.3739015748031496
 30
0.0
 10
-0.3110236220472441
 20
-1.3149291338582678
 30
0.0
 10
-0.3110236220472441
 20
-1.3149291338582678
 30
0.0
  0
SPLINE
  5
48
100
AcDbEntity
  8
Layer 1
 62
     9
100
AcDbSpline
210
0.0
220
0.0
230
1.0
 70
     1
 71
     3
 72
    20
 73
    16
 74
     0
 42
0.0000000001
 43
0.0000000001
 40
0.0
 40
0.0
 40
0.0
 40
0.0
 40
0.25
 40
0.25
 40
0.25
 40
0.25
 40
0.5
 40
0.5
 40
0.5
 40
0.5
 40
0.75
 40
0.75
 40
0.75
 40
0.75
 40
1.0
 40
1.0
 40
1.0
 40
1.0
 10
-0.3213543307086614
 20
-1.3739015748031496
 30
0.0
 10
-0.3213543307086614
 20
-1.3739015748031496
 30
0.0
 10
0.3250157480314961
 20
-1.749988188976378
 30
0.0
 10
0.3250157480314961
 20
-1.749988188976378
 30
0.0
 10
0.3250157480314961
 20
-1.749988188976378
 30
0.0
 10
0.3250157480314961
 20
-1.749988188976378
 30
0.0
 10
0.3121456692913386
 20
-1.8058740157480315
 30
0.0
 10
0.3121456692913386
 20
-1.8058740157480315
 30
0.0
 10
0.3121456692913386
 20
-1.8058740157480315
 30
0.0
 10
0.3121456692913386
 20
-1.8058740157480315
 30
0.0
 10
-0.3342244094488189
 20
-1.4297874015748031
 30
0.0
 10
-0.3342244094488189
 20
-1.4297874015748031
 30
0.0
 10
-0.3342244094488189
 20
-1.4297874015748031
 30
0.0
 10
-0.3342244094488189
 20
-1.4297874015748031
 30
0.0
 10
-0.3213543307086614
 20
-1.3739015748031496
 30
0.0
 10
-0.3213543307086614
 20
-1.3739015748031496
 30
0.0
  0
SPLINE
  5
49
100
AcDbEntity
  8
Layer 1
 62
     9
100
AcDbSpline
210
0.0
220
0.0
230
1.0
 70
     1
 71
     3
 72
    20
 73
    16
 74
     0
 42
0.0000000001
 43
0.0000000001
 40
0.0
 40
0.0
 40
0.0
 40
0.0
 40
0.25
 40
0.25
 40
0.25
 40
0.25
 40
0.5
 40
0.5
 40
0.5
 40
0.5
 40
0.75
 40
0.75
 40
0.75
 40
0.75
 40
1.0
 40
1.0
 40
1.0
 40
1.0
 10
-0.3342244094488189
 20
-1.4297874015748031
 30
0.0
 10
-0.3342244094488189
 20
-1.4297874015748031
 30
0.0
 10
0.3121456692913386
 20
-1.8058740157480315
 30
0.0
 10
0.3121456692913386
 20
-1.8058740157480315
 30
0.0
 10
0.3121456692913386
 20
-1.8058740157480315
 30
0.0
 10
0.3121456692913386
 20
-1.8058740157480315
 30
0.0
 10
0.2969055118110237
 20
-1.8587637795275591
 30
0.0
 10
0.2969055118110237
 20
-1.8587637795275591
 30
0.0
 10
0.2969055118110237
 20
-1.8587637795275591
 30
0.0
 10
0.2969055118110237
 20
-1.8587637795275591
 30
0.0
 10
-0.3494645669291339
 20
-1.4826771653543307
 30
0.0
 10
-0.3494645669291339
 20
-1.4826771653543307
 30
0.0
 10
-0.3494645669291339
 20
-1.4826771653543307
 30
0.0
 10
-0.3494645669291339
 20
-1.4826771653543307
 30
0.0
 10
-0.3342244094488189
 20
-1.4297874015748031
 30
0.0
 10
-0.3342244094488189
 20
-1.4297874015748031
 30
0.0
  0
SPLINE
  5
4A
100
AcDbEntity
  8
Layer 1
 62
     9
100
AcDbSpline
210
0.0
220
0.0
230
1.0
 70
     1
 71
     3
 72
    20
 73
    16
 74
     0
 42
0.0000000001
 43
0.0000000001
 40
0.0
 40
0.0
 40
0.0
 40
0.0
 40
0.25
 40
0.25
 40
0.25
 40
0.25
 40
0.5
 40
0.5
 40
0.5
 40
0.5
 40
0.75
 40
0.75
 40
0.75
 40
0.75
 40
1.0
 40
1.0
 40
1.0
 40
1.0
 10
-0.3494645669291339
 20
-1.4826771653543307
 30
0.0
 10
-0.3494645669291339
 20
-1.4826771653543307
 30
0.0
 10
0.2969055118110237
 20
-1.8587637795275591
 30
0.0
 10
0.2969055118110237
 20
-1.8587637795275591
 30
0.0
 10
0.2969055118110237
 20
-1.8587637795275591
 30
0.0
 10
0.2969055118110237
 20
-1.8587637795275591
 30
0.0
 10
0.279484251968504
 20
-1.9087244094488189
 30
0.0
 10
0.279484251968504
 20
-1.9087244094488189
 30
0.0
 10
0.279484251968504
 20
-1.9087244094488189
 30
0.0
 10
0.279484251968504
 20
-1.9087244094488189
 30
0.0
 10
-0.3668858267716535
 20
-1.5326377952755905
 30
0.0
 10
-0.3668858267716535
 20
-1.5326377952755905
 30
0.0
 10
-0.3668858267716535
 20
-1.5326377952755905
 30
0.0
 10
-0.3668858267716535
 20
-1.5326377952755905
 30
0.0
 10
-0.3494645669291339
 20
-1.4826771653543307
 30
0.0
 10
-0.3494645669291339
 20
-1.4826771653543307
 30
0.0
  0
SPLINE
  5
4B
100
AcDbEntity
  8
Layer 1
 62
     9
100
AcDbSpline
210
0.0
220
0.0
230
1.0
 70
     1
 71
     3
 72
    20
 73
    16
 74
     0
 42
0.0000000001
 43
0.0000000001
 40
0.0
 40
0.0
 40
0.0
 40
0.0
 40
0.25
 40
0.25
 40
0.25
 40
0.25
 40
0.5
 40
0.5
 40
0.5
 40
0.5
 40
0.75
 40
0.75
 40
0.75
 40
0.75
 40
1.0
 40
1.0
 40
1.0
 40
1.0
 10
-0.3668858267716535
 20
-1.5326377952755905
 30
0.0
 10
-0.3668858267716535
 20
-1.5326377952755905
 30
0.0
 10
0.279484251968504
 20
-1.9087244094488189
 30
0.0
 10
0.279484251968504
 20
-1.9087244094488189
 30
0.0
 10
0.279484251968504
 20
-1.9087244094488189
 30
0.0
 10
0.279484251968504
 20
-1.9087244094488189
 30
0.0
 10
0.2600511811023622
 20
-1.9558267716535434
 30
0.0
 10
0.2600511811023622
 20
-1.9558267716535434
 30
0.0
 10
0.2600511811023622
 20
-1.9558267716535434
 30
0.0
 10
0.2600511811023622
 20
-1.9558267716535434
 30
0.0
 10
-0.3863188976377953
 20
-1.5797401574803149
 30
0.0
 10
-0.3863188976377953
 20
-1.5797401574803149
 30
0.0
 10
-0.3863188976377953
 20
-1.5797401574803149
 30
0.0
 10
-0.3863188976377953
 20
-1.5797401574803149
 30
0.0
 10
-0.3668858267716535
 20
-1.5326377952755905
 30
0.0
 10
-0.3668858267716535
 20
-1.5326377952755905
 30
0.0
  0
SPLINE
  5
4C
100
AcDbEntity
  8
Layer 1
 62
     9
100
AcDbSpline
210
0.0
220
0.0
230
1.0
 70
     1
 71
     3
 72
    20
 73
    16
 74
     0
 42
0.0000000001
 43
0.0000000001
 40
0.0
 40
0.0
 40
0.0
 40
0.0
 40
0.25
 40
0.25
 40
0.25
 40
0.25
 40
0.5
 40
0.5
 40
0.5
 40
0.5
 40
0.75
 40
0.75
 40
0.75
 40
0.75
 40
1.0
 40
1.0
 40
1.0
 40
1.0
 10
-0.3863188976377953
 20
-1.5797401574803149
 30
0.0
 10
-0.3863188976377953
 20
-1.5797401574803149
 30
0.0
 10
0.2600511811023622
 20
-1.9558267716535434
 30
0.0
 10
0.2600511811023622
 20
-1.9558267716535434
 30
0.0
 10
0.2600511811023622
 20
-1.9558267716535434
 30
0.0
 10
0.2600511811023622
 20
-1.9558267716535434
 30
0.0
 10
0.2388110236220473
 20
-2.0001417322834647
 30
0.0
 10
0.2388110236220473
 20
-2.0001417322834647
 30
0.0
 10
0.2388110236220473
 20
-2.0001417322834647
 30
0.0
 10
0.2388110236220473
 20
-2.0001417322834647
 30
0.0
 10
-0.4075590551181103
 20
-1.6240551181102363
 30
0.0
 10
-0.4075590551181103
 20
-1.6240551181102363
 30
0.0
 10
-0.4075590551181103
 20
-1.6240551181102363
 30
0.0
 10
-0.4075590551181103
 20
-1.6240551181102363
 30
0.0
 10
-0.3863188976377953
 20
-1.5797401574803149
 30
0.0
 10
-0.3863188976377953
 20
-1.5797401574803149
 30
0.0
  0
SPLINE
  5
4D
100
AcDbEntity
  8
Layer 1
 62
     9
100
AcDbSpline
210
0.0
220
0.0
230
1.0
 70
     1
 71
     3
 72
    20
 73
    16
 74
     0
 42
0.0000000001
 43
0.0000000001
 40
0.0
 40
0.0
 40
0.0
 40
0.0
 40
0.25
 40
0.25
 40
0.25
 40
0.25
 40
0.5
 40
0.5
 40
0.5
 40
0.5
 40
0.75
 40
0.75
 40
0.75
 40
0.75
 40
1.0
 40
1.0
 40
1.0
 40
1.0
 10
-0.4075590551181103
 20
-1.6240551181102363
 30
0.0
 10
-0.4075590551181103
 20
-1.6240551181102363
 30
0.0
 10
0.2388110236220473
 20
-2.0001417322834647
 30
0.0
 10
0.2388110236220473
 20
-2.0001417322834647
 30
0.0
 10
0.2388110236220473
 20
-2.0001417322834647
 30
0.0
 10
0.2388110236220473
 20
-2.0001417322834647
 30
0.0
 10
0.2159212598425197
 20
-2.0417480314960632
 30
0.0
 10
0.2159212598425197
 20
-2.0417480314960632
 30
0.0
 10
0.2159212598425197
 20
-2.0417480314960632
 30
0.0
 10
0.2159212598425197
 20
-2.0417480314960632
 30
0.0
 10
-0.4304488188976378
 20
-1.6656614173228348
 30
0.0
 10
-0.4304488188976378
 20
-1.6656614173228348
 30
0.0
 10
-0.4304488188976378
 20
-1.6656614173228348
 30
0.0
 10
-0.4304488188976378
 20
-1.6656614173228348
 30
0.0
 10
-0.4075590551181103
 20
-1.6240551181102363
 30
0.0
 10
-0.4075590551181103
 20
-1.6240551181102363
 30
0.0
  0
SPLINE
  5
4E
100
AcDbEntity
  8
Layer 1
 62
     9
100
AcDbSpline
210
0.0
220
0.0
230
1.0
 70
     1
 71
     3
 72
    20
 73
    16
 74
     0
 42
0.0000000001
 43
0.0000000001
 40
0.0
 40
0.0
 40
0.0
 40
0.0
 40
0.25
 40
0.25
 40
0.25
 40
0.25
 40
0.5
 40
0.5
 40
0.5
 40
0.5
 40
0.75
 40
0.75
 40
0.75
 40
0.75
 40
1.0
 40
1.0
 40
1.0
 40
1.0
 10
-0.4304488188976378
 20
-1.6656614173228348
 30
0.0
 10
-0.4304488188976378
 20
-1.6656614173228348
 30
0.0
 10
0.2159212598425197
 20
-2.0417480314960632
 30
0.0
 10
0.2159212598425197
 20
-2.0417480314960632
 30
0.0
 10
0.2159212598425197
 20
-2.0417480314960632
 30
0.0
 10
0.2159212598425197
 20
-2.0417480314960632
 30
0.0
 10
0.1915748031496063
 20
-2.0807125984251971
 30
0.0
 10
0.1915748031496063
 20
-2.0807125984251971
 30
0.0
 10
0.1915748031496063
 20
-2.0807125984251971
 30
0.0
 10
0.1915748031496063
 20
-2.0807125984251971
 30
0.0
 10
-0.4547952755905512
 20
-1.7046259842519687
 30
0.0
 10
-0.4547952755905512
 20
-1.7046259842519687
 30
0.0
 10
-0.4547952755905512
 20
-1.7046259842519687
 30
0.0
 10
-0.4547952755905512
 20
-1.7046259842519687
 30
0.0
 10
-0.4304488188976378
 20
-1.6656614173228348
 30
0.0
 10
-0.4304488188976378
 20
-1.6656614173228348
 30
0.0
  0
SPLINE
  5
4F
100
AcDbEntity
  8
Layer 1
 62
     9
100
AcDbSpline
210
0.0
220
0.0
230
1.0
 70
     1
 71
     3
 72
    20
 73
    16
 74
     0
 42
0.0000000001
 43
0.0000000001
 40
0.0
 40
0.0
 40
0.0
 40
0.0
 40
0.25
 40
0.25
 40
0.25
 40
0.25
 40
0.5
 40
0.5
 40
0.5
 40
0.5
 40
0.75
 40
0.75
 40
0.75
 40
0.75
 40
1.0
 40
1.0
 40
1.0
 40
1.0
 10
-0.4547952755905512
 20
-1.7046259842519687
 30
0.0
 10
-0.4547952755905512
 20
-1.7046259842519687
 30
0.0
 10
0.1915748031496063
 20
-2.0807125984251971
 30
0.0
 10
0.1915748031496063
 20
-2.0807125984251971
 30
0.0
 10
0.1915748031496063
 20
-2.0807125984251971
 30
0.0
 10
0.1915748031496063
 20
-2.0807125984251971
 30
0.0
 10
0.1659448818897638
 20
-2.1171220472440946
 30
0.0
 10
0.1659448818897638
 20
-2.1171220472440946
 30
0.0
 10
0.1659448818897638
 20
-2.1171220472440946
 30
0.0
 10
0.1659448818897638
 20
-2.1171220472440946
 30
0.0
 10
-0.4804251968503937
 20
-1.7410354330708662
 30
0.0
 10
-0.4804251968503937
 20
-1.7410354330708662
 30
0.0
 10
-0.4804251968503937
 20
-1.7410354330708662
 30
0.0
 10
-0.4804251968503937
 20
-1.7410354330708662
 30
0.0
 10
-0.4547952755905512
 20
-1.7046259842519687
 30
0.0
 10
-0.4547952755905512
 20
-1.7046259842519687
 30
0.0
  0
SPLINE
  5
50
100
AcDbEntity
  8
Layer 1
 62
     9
100
AcDbSpline
210
0.0
220
0.0
230
1.0
 70
     1
 71
     3
 72
    20
 73
    16
 74
     0
 42
0.0000000001
 43
0.0000000001
 40
0.0
 40
0.0
 40
0.0
 40
0.0
 40
0.25
 40
0.25
 40
0.25
 40
0.25
 40
0.5
 40
0.5
 40
0.5
 40
0.5
 40
0.75
 40
0.75
 40
0.75
 40
0.75
 40
1.0
 40
1.0
 40
1.0
 40
1.0
 10
-0.4804251968503937
 20
-1.7410354330708662
 30
0.0
 10
-0.4804251968503937
 20
-1.7410354330708662
 30
0.0
 10
0.1659448818897638
 20
-2.1171220472440946
 30
0.0
 10
0.1659448818897638
 20
-2.1171220472440946
 30
0.0
 10
0.1659448818897638
 20
-2.1171220472440946
 30
0.0
 10
0.1659448818897638
 20
-2.1171220472440946
 30
0.0
 10
0.1392204724409449
 20
-2.1510354330708661
 30
0.0
 10
0.1392204724409449
 20
-2.1510354330708661
 30
0.0
 10
0.1392204724409449
 20
-2.1510354330708661
 30
0.0
 10
0.1392204724409449
 20
-2.1510354330708661
 30
0.0
 10
-0.5071496062992126
 20
-1.7749488188976379
 30
0.0
 10
-0.5071496062992126
 20
-1.7749488188976379
 30
0.0
 10
-0.5071496062992126
 20
-1.7749488188976379
 30
0.0
 10
-0.5071496062992126
 20
-1.7749488188976379
 30
0.0
 10
-0.4804251968503937
 20
-1.7410354330708662
 30
0.0
 10
-0.4804251968503937
 20
-1.7410354330708662
 30
0.0
  0
SPLINE
  5
51
100
AcDbEntity
  8
Layer 1
 62
     9
100
AcDbSpline
210
0.0
220
0.0
230
1.0
 70
     1
 71
     3
 72
    20
 73
    16
 74
     0
 42
0.0000000001
 43
0.0000000001
 40
0.0
 40
0.0
 40
0.0
 40
0.0
 40
0.25
 40
0.25
 40
0.25
 40
0.25
 40
0.5
 40
0.5
 40
0.5
 40
0.5
 40
0.75
 40
0.75
 40
0.75
 40
0.75
 40
1.0
 40
1.0
 40
1.0
 40
1.0
 10
-0.5071496062992126
 20
-1.7749488188976379
 30
0.0
 10
-0.5071496062992126
 20
-1.7749488188976379
 30
0.0
 10
0.1392204724409449
 20
-2.1510354330708661
 30
0.0
 10
0.1392204724409449
 20
-2.1510354330708661
 30
0.0
 10
0.1392204724409449
 20
-2.1510354330708661
 30
0.0
 10
0.1392204724409449
 20
-2.1510354330708661
 30
0.0
 10
0.1115787401574803
 20
-2.1825354330708664
 30
0.0
 10
0.1115787401574803
 20
-2.1825354330708664
 30
0.0
 10
0.1115787401574803
 20
-2.1825354330708664
 30
0.0
 10
0.1115787401574803
 20
-2.1825354330708664
 30
0.0
 10
-0.5347913385826771
 20
-1.8064488188976378
 30
0.0
 10
-0.5347913385826771
 20
-1.8064488188976378
 30
0.0
 10
-0.5347913385826771
 20
-1.8064488188976378
 30
0.0
 10
-0.5347913385826771
 20
-1.8064488188976378
 30
0.0
 10
-0.5071496062992126
 20
-1.7749488188976379
 30
0.0
 10
-0.5071496062992126
 20
-1.7749488188976379
 30
0.0
  0
SPLINE
  5
52
100
AcDbEntity
  8
Layer 1
 62
     9
100
AcDbSpline
210
0.0
220
0.0
230
1.0
 70
     1
 71
     3
 72
    20
 73
    16
 74
     0
 42
0.0000000001
 43
0.0000000001
 40
0.0
 40
0.0
 40
0.0
 40
0.0
 40
0.25
 40
0.25
 40
0.25
 40
0.25
 40
0.5
 40
0.5
 40
0.5
 40
0.5
 40
0.75
 40
0.75
 40
0.75
 40
0.75
 40
1.0
 40
1.0
 40
1.0
 40
1.0
 10
-0.5347913385826771
 20
-1.8064488188976378
 30
0.0
 10
-0.5347913385826771
 20
-1.8064488188976378
 30
0.0
 10
0.1115787401574803
 20
-2.1825354330708664
 30
0.0
 10
0.1115787401574803
 20
-2.1825354330708664
 30
0.0
 10
0.1115787401574803
 20
-2.1825354330708664
 30
0.0
 10
0.1115787401574803
 20
-2.1825354330708664
 30
0.0
 10
0.0832007874015748
 20
-2.2116850393700789
 30
0.0
 10
0.0832007874015748
 20
-2.2116850393700789
 30
0.0
 10
0.0832007874015748
 20
-2.2116850393700789
 30
0.0
 10
0.0832007874015748
 20
-2.2116850393700789
 30
0.0
 10
-0.5631692913385827
 20
-1.8355984251968505
 30
0.0
 10
-0.5631692913385827
 20
-1.8355984251968505
 30
0.0
 10
-0.5631692913385827
 20
-1.8355984251968505
 30
0.0
 10
-0.5631692913385827
 20
-1.8355984251968505
 30
0.0
 10
-0.5347913385826771
 20
-1.8064488188976378
 30
0.0
 10
-0.5347913385826771
 20
-1.8064488188976378
 30
0.0
  0
SPLINE
  5
53
100
AcDbEntity
  8
Layer 1
 62
     9
100
AcDbSpline
210
0.0
220
0.0
230
1.0
 70
     1
 71
     3
 72
    20
 73
    16
 74
     0
 42
0.0000000001
 43
0.0000000001
 40
0.0
 40
0.0
 40
0.0
 40
0.0
 40
0.25
 40
0.25
 40
0.25
 40
0.25
 40
0.5
 40
0.5
 40
0.5
 40
0.5
 40
0.75
 40
0.75
 40
0.75
 40
0.75
 40
1.0
 40
1.0
 40
1.0
 40
1.0
 10
-0.5631692913385827
 20
-1.8355984251968505
 30
0.0
 10
-0.5631692913385827
 20
-1.8355984251968505
 30
0.0
 10
0.0832007874015748
 20
-2.2116850393700789
 30
0.0
 10
0.0832007874015748
 20
-2.2116850393700789
 30
0.0
 10
0.0832007874015748
 20
-2.2116850393700789
 30
0.0
 10
0.0832007874015748
 20
-2.2116850393700789
 30
0.0
 10
0.0542637795275591
 20
-2.2385748031496062
 30
0.0
 10
0.0542637795275591
 20
-2.2385748031496062
 30
0.0
 10
0.0542637795275591
 20
-2.2385748031496062
 30
0.0
 10
0.0542637795275591
 20
-2.2385748031496062
 30
0.0
 10
-0.5921062992125985
 20
-1.862488188976378
 30
0.0
 10
-0.5921062992125985
 20
-1.862488188976378
 30
0.0
 10
-0.5921062992125985
 20
-1.862488188976378
 30
0.0
 10
-0.5921062992125985
 20
-1.862488188976378
 30
0.0
 10
-0.5631692913385827
 20
-1.8355984251968505
 30
0.0
 10
-0.5631692913385827
 20
-1.8355984251968505
 30
0.0
  0
SPLINE
  5
54
100
AcDbEntity
  8
Layer 1
 62
     9
100
AcDbSpline
210
0.0
220
0.0
230
1.0
 70
     1
 71
     3
 72
    20
 73
    16
 74
     0
 42
0.0000000001
 43
0.0000000001
 40
0.0
 40
0.0
 40
0.0
 40
0.0
 40
0.25
 40
0.25
 40
0.25
 40
0.25
 40
0.5
 40
0.5
 40
0.5
 40
0.5
 40
0.75
 40
0.75
 40
0.75
 40
0.75
 40
1.0
 40
1.0
 40
1.0
 40
1.0
 10
-0.5921062992125985
 20
-1.862488188976378
 30
0.0
 10
-0.5921062992125985
 20
-1.862488188976378
 30
0.0
 10
0.0542637795275591
 20
-2.2385748031496062
 30
0.0
 10
0.0542637795275591
 20
-2.2385748031496062
 30
0.0
 10
0.0542637795275591
 20
-2.2385748031496062
 30
0.0
 10
0.0542637795275591
 20
-2.2385748031496062
 30
0.0
 10
0.0249606299212598
 20
-2.2632559055118113
 30
0.0
 10
0.0249606299212598
 20
-2.2632559055118113
 30
0.0
 10
0.0249606299212598
 20
-2.2632559055118113
 30
0.0
 10
0.0249606299212598
 20
-2.2632559055118113
 30
0.0
 10
-0.6214094488188977
 20
-1.8871692913385827
 30
0.0
 10
-0.6214094488188977
 20
-1.8871692913385827
 30
0.0
 10
-0.6214094488188977
 20
-1.8871692913385827
 30
0.0
 10
-0.6214094488188977
 20
-1.8871692913385827
 30
0.0
 10
-0.5921062992125985
 20
-1.862488188976378
 30
0.0
 10
-0.5921062992125985
 20
-1.862488188976378
 30
0.0
  0
SPLINE
  5
55
100
AcDbEntity
  8
Layer 1
 62
     9
100
AcDbSpline
210
0.0
220
0.0
230
1.0
 70
     1
 71
     3
 72
    20
 73
    16
 74
     0
 42
0.0000000001
 43
0.0000000001
 40
0.0
 40
0.0
 40
0.0
 40
0.0
 40
0.25
 40
0.25
 40
0.25
 40
0.25
 40
0.5
 40
0.5
 40
0.5
 40
0.5
 40
0.75
 40
0.75
 40
0.75
 40
0.75
 40
1.0
 40
1.0
 40
1.0
 40
1.0
 10
-0.6214094488188977
 20
-1.8871692913385827
 30
0.0
 10
-0.6214094488188977
 20
-1.8871692913385827
 30
0.0
 10
0.0249606299212598
 20
-2.2632559055118113
 30
0.0
 10
0.0249606299212598
 20
-2.2632559055118113
 30
0.0
 10
0.0249606299212598
 20
-2.2632559055118113
 30
0.0
 10
0.0249606299212598
 20
-2.2632559055118113
 30
0.0
 10
-0.0045393700787402
 20
-2.2858149606299212
 30
0.0
 10
-0.0045393700787402
 20
-2.2858149606299212
 30
0.0
 10
-0.0045393700787402
 20
-2.2858149606299212
 30
0.0
 10
-0.0045393700787402
 20
-2.2858149606299212
 30
0.0
 10
-0.6509094488188977
 20
-1.909728346456693
 30
0.0
 10
-0.6509094488188977
 20
-1.909728346456693
 30
0.0
 10
-0.6509094488188977
 20
-1.909728346456693
 30
0.0
 10
-0.6509094488188977
 20
-1.909728346456693
 30
0.0
 10
-0.6214094488188977
 20
-1.8871692913385827
 30
0.0
 10
-0.6214094488188977
 20
-1.8871692913385827
 30
0.0
  0
SPLINE
  5
56
100
AcDbEntity
  8
Layer 1
 62
     9
100
AcDbSpline
210
0.0
220
0.0
230
1.0
 70
     1
 71
     3
 72
    20
 73
    16
 74
     0
 42
0.0000000001
 43
0.0000000001
 40
0.0
 40
0.0
 40
0.0
 40
0.0
 40
0.25
 40
0.25
 40
0.25
 40
0.25
 40
0.5
 40
0.5
 40
0.5
 40
0.5
 40
0.75
 40
0.75
 40
0.75
 40
0.75
 40
1.0
 40
1.0
 40
1.0
 40
1.0
 10
-0.6509094488188977
 20
-1.909728346456693
 30
0.0
 10
-0.6509094488188977
 20
-1.909728346456693
 30
0.0
 10
-0.0045393700787402
 20
-2.2858149606299212
 30
0.0
 10
-0.0045393700787402
 20
-2.2858149606299212
 30
0.0
 10
-0.0045393700787402
 20
-2.2858149606299212
 30
0.0
 10
-0.0045393700787402
 20
-2.2858149606299212
 30
0.0
 10
-0.0340472440944882
 20
-2.3063267716535436
 30
0.0
 10
-0.0340472440944882
 20
-2.3063267716535436
 30
0.0
 10
-0.0340472440944882
 20
-2.3063267716535436
 30
0.0
 10
-0.0340472440944882
 20
-2.3063267716535436
 30
0.0
 10
-0.6804173228346457
 20
-1.930240157480315
 30
0.0
 10
-0.6804173228346457
 20
-1.930240157480315
 30
0.0
 10
-0.6804173228346457
 20
-1.930240157480315
 30
0.0
 10
-0.6804173228346457
 20
-1.930240157480315
 30
0.0
 10
-0.6509094488188977
 20
-1.909728346456693
 30
0.0
 10
-0.6509094488188977
 20
-1.909728346456693
 30
0.0
  0
SPLINE
  5
57
100
AcDbEntity
  8
Layer 1
 62
     9
100
AcDbSpline
210
0.0
220
0.0
230
1.0
 70
     1
 71
     3
 72
    20
 73
    16
 74
     0
 42
0.0000000001
 43
0.0000000001
 40
0.0
 40
0.0
 40
0.0
 40
0.0
 40
0.25
 40
0.25
 40
0.25
 40
0.25
 40
0.5
 40
0.5
 40
0.5
 40
0.5
 40
0.75
 40
0.75
 40
0.75
 40
0.75
 40
1.0
 40
1.0
 40
1.0
 40
1.0
 10
-0.6804173228346457
 20
-1.930240157480315
 30
0.0
 10
-0.6804173228346457
 20
-1.930240157480315
 30
0.0
 10
-0.0340472440944882
 20
-2.3063267716535436
 30
0.0
 10
-0.0340472440944882
 20
-2.3063267716535436
 30
0.0
 10
-0.0340472440944882
 20
-2.3063267716535436
 30
0.0
 10
-0.0340472440944882
 20
-2.3063267716535436
 30
0.0
 10
-0.0633897637795276
 20
-2.3248622047244094
 30
0.0
 10
-0.0633897637795276
 20
-2.3248622047244094
 30
0.0
 10
-0.0633897637795276
 20
-2.3248622047244094
 30
0.0
 10
-0.0633897637795276
 20
-2.3248622047244094
 30
0.0
 10
-0.7097598425196851
 20
-1.9487755905511812
 30
0.0
 10
-0.7097598425196851
 20
-1.9487755905511812
 30
0.0
 10
-0.7097598425196851
 20
-1.9487755905511812
 30
0.0
 10
-0.7097598425196851
 20
-1.9487755905511812
 30
0.0
 10
-0.6804173228346457
 20
-1.930240157480315
 30
0.0
 10
-0.6804173228346457
 20
-1.930240157480315
 30
0.0
  0
SPLINE
  5
58
100
AcDbEntity
  8
Layer 1
 62
     9
100
AcDbSpline
210
0.0
220
0.0
230
1.0
 70
     1
 71
     3
 72
    20
 73
    16
 74
     0
 42
0.0000000001
 43
0.0000000001
 40
0.0
 40
0.0
 40
0.0
 40
0.0
 40
0.25
 40
0.25
 40
0.25
 40
0.25
 40
0.5
 40
0.5
 40
0.5
 40
0.5
 40
0.75
 40
0.75
 40
0.75
 40
0.75
 40
1.0
 40
1.0
 40
1.0
 40
1.0
 10
-0.7097598425196851
 20
-1.9487755905511812
 30
0.0
 10
-0.7097598425196851
 20
-1.9487755905511812
 30
0.0
 10
-0.0633897637795276
 20
-2.3248622047244094
 30
0.0
 10
-0.0633897637795276
 20
-2.3248622047244094
 30
0.0
 10
-0.0633897637795276
 20
-2.3248622047244094
 30
0.0
 10
-0.0633897637795276
 20
-2.3248622047244094
 30
0.0
 10
-0.0923779527559055
 20
-2.3414881889763781
 30
0.0
 10
-0.0923779527559055
 20
-2.3414881889763781
 30
0.0
 10
-0.0923779527559055
 20
-2.3414881889763781
 30
0.0
 10
-0.0923779527559055
 20
-2.3414881889763781
 30
0.0
 10
-0.7387480314960631
 20
-1.9654015748031497
 30
0.0
 10
-0.7387480314960631
 20
-1.9654015748031497
 30
0.0
 10
-0.7387480314960631
 20
-1.9654015748031497
 30
0.0
 10
-0.7387480314960631
 20
-1.9654015748031497
 30
0.0
 10
-0.7097598425196851
 20
-1.9487755905511812
 30
0.0
 10
-0.7097598425196851
 20
-1.9487755905511812
 30
0.0
  0
SPLINE
  5
59
100
AcDbEntity
  8
Layer 1
 62
     9
100
AcDbSpline
210
0.0
220
0.0
230
1.0
 70
     1
 71
     3
 72
    20
 73
    16
 74
     0
 42
0.0000000001
 43
0.0000000001
 40
0.0
 40
0.0
 40
0.0
 40
0.0
 40
0.25
 40
0.25
 40
0.25
 40
0.25
 40
0.5
 40
0.5
 40
0.5
 40
0.5
 40
0.75
 40
0.75
 40
0.75
 40
0.75
 40
1.0
 40
1.0
 40
1.0
 40
1.0
 10
-0.7387480314960631
 20
-1.9654015748031497
 30
0.0
 10
-0.7387480314960631
 20
-1.9654015748031497
 30
0.0
 10
-0.0923779527559055
 20
-2.3414881889763781
 30
0.0
 10
-0.0923779527559055
 20
-2.3414881889763781
 30
0.0
 10
-0.0923779527559055
 20
-2.3414881889763781
 30
0.0
 10
-0.0923779527559055
 20
-2.3414881889763781
 30
0.0
 10
-0.1208385826771654
 20
-2.3562874015748032
 30
0.0
 10
-0.1208385826771654
 20
-2.3562874015748032
 30
0.0
 10
-0.1208385826771654
 20
-2.3562874015748032
 30
0.0
 10
-0.1208385826771654
 20
-2.3562874015748032
 30
0.0
 10
-0.7672086614173229
 20
-1.9802007874015748
 30
0.0
 10
-0.7672086614173229
 20
-1.9802007874015748
 30
0.0
 10
-0.7672086614173229
 20
-1.9802007874015748
 30
0.0
 10
-0.7672086614173229
 20
-1.9802007874015748
 30
0.0
 10
-0.7387480314960631
 20
-1.9654015748031497
 30
0.0
 10
-0.7387480314960631
 20
-1.9654015748031497
 30
0.0
  0
SPLINE
  5
5A
100
AcDbEntity
  8
Layer 1
 62
     9
100
AcDbSpline
210
0.0
220
0.0
230
1.0
 70
     1
 71
     3
 72
    20
 73
    16
 74
     0
 42
0.0000000001
 43
0.0000000001
 40
0.0
 40
0.0
 40
0.0
 40
0.0
 40
0.25
 40
0.25
 40
0.25
 40
0.25
 40
0.5
 40
0.5
 40
0.5
 40
0.5
 40
0.75
 40
0.75
 40
0.75
 40
0.75
 40
1.0
 40
1.0
 40
1.0
 40
1.0
 10
-0.7672086614173229
 20
-1.9802007874015748
 30
0.0
 10
-0.7672086614173229
 20
-1.9802007874015748
 30
0.0
 10
-0.1208385826771654
 20
-2.3562874015748032
 30
0.0
 10
-0.1208385826771654
 20
-2.3562874015748032
 30
0.0
 10
-0.1208385826771654
 20
-2.3562874015748032
 30
0.0
 10
-0.1208385826771654
 20
-2.3562874015748032
 30
0.0
 10
-0.1485826771653543
 20
-2.3693307086614173
 30
0.0
 10
-0.1485826771653543
 20
-2.3693307086614173
 30
0.0
 10
-0.1485826771653543
 20
-2.3693307086614173
 30
0.0
 10
-0.1485826771653543
 20
-2.3693307086614173
 30
0.0
 10
-0.7949527559055118
 20
-1.9932440944881891
 30
0.0
 10
-0.7949527559055118
 20
-1.9932440944881891
 30
0.0
 10
-0.7949527559055118
 20
-1.9932440944881891
 30
0.0
 10
-0.7949527559055118
 20
-1.9932440944881891
 30
0.0
 10
-0.7672086614173229
 20
-1.9802007874015748
 30
0.0
 10
-0.7672086614173229
 20
-1.9802007874015748
 30
0.0
  0
SPLINE
  5
5B
100
AcDbEntity
  8
Layer 1
 62
     9
100
AcDbSpline
210
0.0
220
0.0
230
1.0
 70
     1
 71
     3
 72
    20
 73
    16
 74
     0
 42
0.0000000001
 43
0.0000000001
 40
0.0
 40
0.0
 40
0.0
 40
0.0
 40
0.25
 40
0.25
 40
0.25
 40
0.25
 40
0.5
 40
0.5
 40
0.5
 40
0.5
 40
0.75
 40
0.75
 40
0.75
 40
0.75
 40
1.0
 40
1.0
 40
1.0
 40
1.0
 10
-0.7949527559055118
 20
-1.9932440944881891
 30
0.0
 10
-0.7949527559055118
 20
-1.9932440944881891
 30
0.0
 10
-0.1485826771653543
 20
-2.3693307086614173
 30
0.0
 10
-0.1485826771653543
 20
-2.3693307086614173
 30
0.0
 10
-0.1485826771653543
 20
-2.3693307086614173
 30
0.0
 10
-0.1485826771653543
 20
-2.3693307086614173
 30
0.0
 10
-0.1754409448818898
 20
-2.3806929133858268
 30
0.0
 10
-0.1754409448818898
 20
-2.3806929133858268
 30
0.0
 10
-0.1754409448818898
 20
-2.3806929133858268
 30
0.0
 10
-0.1754409448818898
 20
-2.3806929133858268
 30
0.0
 10
-0.8218110236220473
 20
-2.0046062992125986
 30
0.0
 10
-0.8218110236220473
 20
-2.0046062992125986
 30
0.0
 10
-0.8218110236220473
 20
-2.0046062992125986
 30
0.0
 10
-0.8218110236220473
 20
-2.0046062992125986
 30
0.0
 10
-0.7949527559055118
 20
-1.9932440944881891
 30
0.0
 10
-0.7949527559055118
 20
-1.9932440944881891
 30
0.0
  0
SPLINE
  5
5C
100
AcDbEntity
  8
Layer 1
 62
     9
100
AcDbSpline
210
0.0
220
0.0
230
1.0
 70
     1
 71
     3
 72
    20
 73
    16
 74
     0
 42
0.0000000001
 43
0.0000000001
 40
0.0
 40
0.0
 40
0.0
 40
0.0
 40
0.25
 40
0.25
 40
0.25
 40
0.25
 40
0.5
 40
0.5
 40
0.5
 40
0.5
 40
0.75
 40
0.75
 40
0.75
 40
0.75
 40
1.0
 40
1.0
 40
1.0
 40
1.0
 10
-0.8218110236220473
 20
-2.0046062992125986
 30
0.0
 10
-0.8218110236220473
 20
-2.0046062992125986
 30
0.0
 10
-0.1754409448818898
 20
-2.3806929133858268
 30
0.0
 10
-0.1754409448818898
 20
-2.3806929133858268
 30
0.0
 10
-0.1754409448818898
 20
-2.3806929133858268
 30
0.0
 10
-0.1754409448818898
 20
-2.3806929133858268
 30
0.0
 10
-0.2012165354330709
 20
-2.390437007874016
 30
0.0
 10
-0.2012165354330709
 20
-2.390437007874016
 30
0.0
 10
-0.2012165354330709
 20
-2.390437007874016
 30
0.0
 10
-0.2012165354330709
 20
-2.390437007874016
 30
0.0
 10
-0.8475866141732283
 20
-2.0143503937007874
 30
0.0
 10
-0.8475866141732283
 20
-2.0143503937007874
 30
0.0
 10
-0.8475866141732283
 20
-2.0143503937007874
 30
0.0
 10
-0.8475866141732283
 20
-2.0143503937007874
 30
0.0
 10
-0.8218110236220473
 20
-2.0046062992125986
 30
0.0
 10
-0.8218110236220473
 20
-2.0046062992125986
 30
0.0
  0
SPLINE
  5
5D
100
AcDbEntity
  8
Layer 1
 62
     9
100
AcDbSpline
210
0.0
220
0.0
230
1.0
 70
     1
 71
     3
 72
    28
 73
    24
 74
     0
 42
0.0000000001
 43
0.0000000001
 40
0.0
 40
0.0
 40
0.0
 40
0.0
 40
0.1666666666666667
 40
0.1666666666666667
 40
0.1666666666666667
 40
0.1666666666666667
 40
0.3333333333333333
 40
0.3333333333333333
 40
0.3333333333333333
 40
0.3333333333333333
 40
0.5
 40
0.5
 40
0.5
 40
0.5
 40
0.6666666666666666
 40
0.6666666666666666
 40
0.6666666666666666
 40
0.6666666666666666
 40
0.8333333333333333
 40
0.8333333333333333
 40
0.8333333333333333
 40
0.8333333333333333
 40
1.0
 40
1.0
 40
1.0
 40
1.0
 10
-0.8475866141732283
 20
-2.0143503937007874
 30
0.0
 10
-0.8475866141732283
 20
-2.0143503937007874
 30
0.0
 10
-0.2012165354330709
 20
-2.390437007874016
 30
0.0
 10
-0.2012165354330709
 20
-2.390437007874016
 30
0.0
 10
-0.2012165354330709
 20
-2.390437007874016
 30
0.0
 10
-0.2012165354330709
 20
-2.390437007874016
 30
0.0
 10
-0.225740157480315
 20
-2.3986496062992129
 30
0.0
 10
-0.225740157480315
 20
-2.3986496062992129
 30
0.0
 10
-0.225740157480315
 20
-2.3986496062992129
 30
0.0
 10
-0.225740157480315
 20
-2.3986496062992129
 30
0.0
 10
-0.2488267716535433
 20
-2.4053937007874016
 30
0.0
 10
-0.2488267716535433
 20
-2.4053937007874016
 30
0.0
 10
-0.2488267716535433
 20
-2.4053937007874016
 30
0.0
 10
-0.2488267716535433
 20
-2.4053937007874016
 30
0.0
 10
-0.8951968503937008
 20
-2.0293070866141734
 30
0.0
 10
-0.8951968503937008
 20
-2.0293070866141734
 30
0.0
 10
-0.8951968503937008
 20
-2.0293070866141734
 30
0.0
 10
-0.8951968503937008
 20
-2.0293070866141734
 30
0.0
 10
-0.8721102362204725
 20
-2.0225629921259842
 30
0.0
 10
-0.8721102362204725
 20
-2.0225629921259842
 30
0.0
 10
-0.8721102362204725
 20
-2.0225629921259842
 30
0.0
 10
-0.8721102362204725
 20
-2.0225629921259842
 30
0.0
 10
-0.8475866141732283
 20
-2.0143503937007874
 30
0.0
 10
-0.8475866141732283
 20
-2.0143503937007874
 30
0.0
  0
SPLINE
  5
5E
100
AcDbEntity
  8
Layer 1
 62
     9
100
AcDbSpline
210
0.0
220
0.0
230
1.0
 70
     1
 71
     3
 72
    28
 73
    24
 74
     0
 42
0.0000000001
 43
0.0000000001
 40
0.0
 40
0.0
 40
0.0
 40
0.0
 40
0.1666666666666667
 40
0.1666666666666667
 40
0.1666666666666667
 40
0.1666666666666667
 40
0.3333333333333333
 40
0.3333333333333333
 40
0.3333333333333333
 40
0.3333333333333333
 40
0.5
 40
0.5
 40
0.5
 40
0.5
 40
0.6666666666666666
 40
0.6666666666666666
 40
0.6666666666666666
 40
0.6666666666666666
 40
0.8333333333333333
 40
0.8333333333333333
 40
0.8333333333333333
 40
0.8333333333333333
 40
1.0
 40
1.0
 40
1.0
 40
1.0
 10
-0.8951968503937008
 20
-2.0293070866141734
 30
0.0
 10
-0.8951968503937008
 20
-2.0293070866141734
 30
0.0
 10
-0.2488267716535433
 20
-2.4053937007874016
 30
0.0
 10
-0.2488267716535433
 20
-2.4053937007874016
 30
0.0
 10
-0.2488267716535433
 20
-2.4053937007874016
 30
0.0
 10
-0.2488267716535433
 20
-2.4053937007874016
 30
0.0
 10
-0.2703031496062992
 20
-2.410748031496063
 30
0.0
 10
-0.2703031496062992
 20
-2.410748031496063
 30
0.0
 10
-0.2703031496062992
 20
-2.410748031496063
 30
0.0
 10
-0.2703031496062992
 20
-2.410748031496063
 30
0.0
 10
-0.2899724409448819
 20
-2.4147834645669293
 30
0.0
 10
-0.2899724409448819
 20
-2.4147834645669293
 30
0.0
 10
-0.2899724409448819
 20
-2.4147834645669293
 30
0.0
 10
-0.2899724409448819
 20
-2.4147834645669293
 30
0.0
 10
-0.9363425196850395
 20
-2.0386968503937011
 30
0.0
 10
-0.9363425196850395
 20
-2.0386968503937011
 30
0.0
 10
-0.9363425196850395
 20
-2.0386968503937011
 30
0.0
 10
-0.9363425196850395
 20
-2.0386968503937011
 30
0.0
 10
-0.9166732283464567
 20
-2.0346614173228348
 30
0.0
 10
-0.9166732283464567
 20
-2.0346614173228348
 30
0.0
 10
-0.9166732283464567
 20
-2.0346614173228348
 30
0.0
 10
-0.9166732283464567
 20
-2.0346614173228348
 30
0.0
 10
-0.8951968503937008
 20
-2.0293070866141734
 30
0.0
 10
-0.8951968503937008
 20
-2.0293070866141734
 30
0.0
  0
SPLINE
  5
5F
100
AcDbEntity
  8
Layer 1
 62
     9
100
AcDbSpline
210
0.0
220
0.0
230
1.0
 70
     1
 71
     3
 72
    36
 73
    32
 74
     0
 42
0.0000000001
 43
0.0000000001
 40
0.0
 40
0.0
 40
0.0
 40
0.0
 40
0.125
 40
0.125
 40
0.125
 40
0.125
 40
0.25
 40
0.25
 40
0.25
 40
0.25
 40
0.375
 40
0.375
 40
0.375
 40
0.375
 40
0.5
 40
0.5
 40
0.5
 40
0.5
 40
0.625
 40
0.625
 40
0.625
 40
0.625
 40
0.75
 40
0.75
 40
0.75
 40
0.75
 40
0.875
 40
0.875
 40
0.875
 40
0.875
 40
1.0
 40
1.0
 40
1.0
 40
1.0
 10
-0.9363425196850395
 20
-2.0386968503937011
 30
0.0
 10
-0.9363425196850395
 20
-2.0386968503937011
 30
0.0
 10
-0.2899724409448819
 20
-2.4147834645669293
 30
0.0
 10
-0.2899724409448819
 20
-2.4147834645669293
 30
0.0
 10
-0.2899724409448819
 20
-2.4147834645669293
 30
0.0
 10
-0.2899724409448819
 20
-2.4147834645669293
 30
0.0
 10
-0.3076653543307087
 20
-2.4175787401574804
 30
0.0
 10
-0.3076653543307087
 20
-2.4175787401574804
 30
0.0
 10
-0.3076653543307087
 20
-2.4175787401574804
 30
0.0
 10
-0.3076653543307087
 20
-2.4175787401574804
 30
0.0
 10
-0.3231929133858268
 20
-2.4192007874015751
 30
0.0
 10
-0.3231929133858268
 20
-2.4192007874015751
 30
0.0
 10
-0.3231929133858268
 20
-2.4192007874015751
 30
0.0
 10
-0.3231929133858268
 20
-2.4192007874015751
 30
0.0
 10
-0.3363897637795276
 20
-2.4197283464566932
 30
0.0
 10
-0.3363897637795276
 20
-2.4197283464566932
 30
0.0
 10
-0.3363897637795276
 20
-2.4197283464566932
 30
0.0
 10
-0.3363897637795276
 20
-2.4197283464566932
 30
0.0
 10
-0.9827598425196851
 20
-2.0436417322834646
 30
0.0
 10
-0.9827598425196851
 20
-2.0436417322834646
 30
0.0
 10
-0.9827598425196851
 20
-2.0436417322834646
 30
0.0
 10
-0.9827598425196851
 20
-2.0436417322834646
 30
0.0
 10
-0.9695629921259843
 20
-2.0431141732283464
 30
0.0
 10
-0.9695629921259843
 20
-2.0431141732283464
 30
0.0
 10
-0.9695629921259843
 20
-2.0431141732283464
 30
0.0
 10
-0.9695629921259843
 20
-2.0431141732283464
 30
0.0
 10
-0.9540354330708661
 20
-2.0414921259842522
 30
0.0
 10
-0.9540354330708661
 20
-2.0414921259842522
 30
0.0
 10
-0.9540354330708661
 20
-2.0414921259842522
 30
0.0
 10
-0.9540354330708661
 20
-2.0414921259842522
 30
0.0
 10
-0.9363425196850395
 20
-2.0386968503937011
 30
0.0
 10
-0.9363425196850395
 20
-2.0386968503937011
 30
0.0
  0
SPLINE
  5
60
100
AcDbEntity
  8
Layer 1
370
     5
100
AcDbSpline
210
0.0
220
0.0
230
1.0
 70
     1
 71
     3
 72
   276
 73
   272
 74
     0
 42
0.0000000001
 43
0.0000000001
 40
0.0
 40
0.0
 40
0.0
 40
0.0
 40
0.0147058823529412
 40
0.0147058823529412
 40
0.0147058823529412
 40
0.0147058823529412
 40
0.0294117647058824
 40
0.0294117647058824
 40
0.0294117647058824
 40
0.0294117647058824
 40
0.0441176470588235
 40
0.0441176470588235
 40
0.0441176470588235
 40
0.0441176470588235
 40
0.0588235294117647
 40
0.0588235294117647
 40
0.0588235294117647
 40
0.0588235294117647
 40
0.0735294117647059
 40
0.0735294117647059
 40
0.0735294117647059
 40
0.0735294117647059
 40
0.0882352941176471
 40
0.0882352941176471
 40
0.0882352941176471
 40
0.0882352941176471
 40
0.1029411764705882
 40
0.1029411764705882
 40
0.1029411764705882
 40
0.1029411764705882
 40
0.1176470588235294
 40
0.1176470588235294
 40
0.1176470588235294
 40
0.1176470588235294
 40
0.1323529411764706
 40
0.1323529411764706
 40
0.1323529411764706
 40
0.1323529411764706
 40
0.1470588235294118
 40
0.1470588235294118
 40
0.1470588235294118
 40
0.1470588235294118
 40
0.161764705882353
 40
0.161764705882353
 40
0.161764705882353
 40
0.161764705882353
 40
0.1764705882352941
 40
0.1764705882352941
 40
0.1764705882352941
 40
0.1764705882352941
 40
0.1911764705882353
 40
0.1911764705882353
 40
0.1911764705882353
 40
0.1911764705882353
 40
0.2058823529411765
 40
0.2058823529411765
 40
0.2058823529411765
 40
0.2058823529411765
 40
0.2205882352941177
 40
0.2205882352941177
 40
0.2205882352941177
 40
0.2205882352941177
 40
0.2352941176470589
 40
0.2352941176470589
 40
0.2352941176470589
 40
0.2352941176470589
 40
0.25
 40
0.25
 40
0.25
 40
0.25
 40
0.2647058823529412
 40
0.2647058823529412
 40
0.2647058823529412
 40
0.2647058823529412
 40
0.2794117647058824
 40
0.2794117647058824
 40
0.2794117647058824
 40
0.2794117647058824
 40
0.2941176470588235
 40
0.2941176470588235
 40
0.2941176470588235
 40
0.2941176470588235
 40
0.3088235294117647
 40
0.3088235294117647
 40
0.3088235294117647
 40
0.3088235294117647
 40
0.3235294117647059
 40
0.3235294117647059
 40
0.3235294117647059
 40
0.3235294117647059
 40
0.3382352941176471
 40
0.3382352941176471
 40
0.3382352941176471
 40
0.3382352941176471
 40
0.3529411764705883
 40
0.3529411764705883
 40
0.3529411764705883
 40
0.3529411764705883
 40
0.3676470588235294
 40
0.3676470588235294
 40
0.3676470588235294
 40
0.3676470588235294
 40
0.3823529411764706
 40
0.3823529411764706
 40
0.3823529411764706
 40
0.3823529411764706
 40
0.3970588235294118
 40
0.3970588235294118
 40
0.3970588235294118
 40
0.3970588235294118
 40
0.411764705882353
 40
0.411764705882353
 40
0.411764705882353
 40
0.411764705882353
 40
0.4264705882352942
 40
0.4264705882352942
 40
0.4264705882352942
 40
0.4264705882352942
 40
0.4411764705882353
 40
0.4411764705882353
 40
0.4411764705882353
 40
0.4411764705882353
 40
0.4558823529411765
 40
0.4558823529411765
 40
0.4558823529411765
 40
0.4558823529411765
 40
0.4705882352941177
 40
0.4705882352941177
 40
0.4705882352941177
 40
0.4705882352941177
 40
0.4852941176470589
 40
0.4852941176470589
 40
0.4852941176470589
 40
0.4852941176470589
 40
0.5
 40
0.5
 40
0.5
 40
0.5
 40
0.5147058823529411
 40
0.5147058823529411
 40
0.5147058823529411
 40
0.5147058823529411
 40
0.5294117647058823
 40
0.5294117647058823
 40
0.5294117647058823
 40
0.5294117647058823
 40
0.5441176470588234
 40
0.5441176470588234
 40
0.5441176470588234
 40
0.5441176470588234
 40
0.5588235294117645
 40
0.5588235294117645
 40
0.5588235294117645
 40
0.5588235294117645
 40
0.5735294117647056
 40
0.5735294117647056
 40
0.5735294117647056
 40
0.5735294117647056
 40
0.5882352941176468
 40
0.5882352941176468
 40
0.5882352941176468
 40
0.5882352941176468
 40
0.6029411764705879
 40
0.6029411764705879
 40
0.6029411764705879
 40
0.6029411764705879
 40
0.617647058823529
 40
0.617647058823529
 40
0.617647058823529
 40
0.617647058823529
 40
0.6323529411764701
 40
0.6323529411764701
 40
0.6323529411764701
 40
0.6323529411764701
 40
0.6470588235294112
 40
0.6470588235294112
 40
0.6470588235294112
 40
0.6470588235294112
 40
0.6617647058823524
 40
0.6617647058823524
 40
0.6617647058823524
 40
0.6617647058823524
 40
0.6764705882352935
 40
0.6764705882352935
 40
0.6764705882352935
 40
0.6764705882352935
 40
0.6911764705882346
 40
0.6911764705882346
 40
0.6911764705882346
 40
0.6911764705882346
 40
0.7058823529411757
 40
0.7058823529411757
 40
0.7058823529411757
 40
0.7058823529411757
 40
0.7205882352941169
 40
0.7205882352941169
 40
0.7205882352941169
 40
0.7205882352941169
 40
0.735294117647058
 40
0.735294117647058
 40
0.735294117647058
 40
0.735294117647058
 40
0.7499999999999991
 40
0.7499999999999991
 40
0.7499999999999991
 40
0.7499999999999991
 40
0.7647058823529402
 40
0.7647058823529402
 40
0.7647058823529402
 40
0.7647058823529402
 40
0.7794117647058814
 40
0.7794117647058814
 40
0.7794117647058814
 40
0.7794117647058814
 40
0.7941176470588225
 40
0.7941176470588225
 40
0.7941176470588225
 40
0.7941176470588225
 40
0.8088235294117636
 40
0.8088235294117636
 40
0.8088235294117636
 40
0.8088235294117636
 40
0.8235294117647047
 40
0.8235294117647047
 40
0.8235294117647047
 40
0.8235294117647047
 40
0.8382352941176459
 40
0.8382352941176459
 40
0.8382352941176459
 40
0.8382352941176459
 40
0.852941176470587
 40
0.852941176470587
 40
0.852941176470587
 40
0.852941176470587
 40
0.8676470588235281
 40
0.8676470588235281
 40
0.8676470588235281
 40
0.8676470588235281
 40
0.8823529411764692
 40
0.8823529411764692
 40
0.8823529411764692
 40
0.8823529411764692
 40
0.8970588235294104
 40
0.8970588235294104
 40
0.8970588235294104
 40
0.8970588235294104
 40
0.9117647058823515
 40
0.9117647058823515
 40
0.9117647058823515
 40
0.9117647058823515
 40
0.9264705882352926
 40
0.9264705882352926
 40
0.9264705882352926
 40
0.9264705882352926
 40
0.9411764705882337
 40
0.9411764705882337
 40
0.9411764705882337
 40
0.9411764705882337
 40
0.9558823529411749
 40
0.9558823529411749
 40
0.9558823529411749
 40
0.9558823529411749
 40
0.970588235294116
 40
0.970588235294116
 40
0.970588235294116
 40
0.970588235294116
 40
0.9852941176470571
 40
0.9852941176470571
 40
0.9852941176470571
 40
0.9852941176470571
 40
1.0
 40
1.0
 40
1.0
 40
1.0
 10
-0.1031338582677165
 20
-1.0896062992125986
 30
0.0
 10
-0.1031338582677165
 20
-1.0896062992125986
 30
0.0
 10
0.5432362204724409
 20
-1.4656929133858267
 30
0.0
 10
0.5432362204724409
 20
-1.4656929133858267
 30
0.0
 10
0.5432362204724409
 20
-1.4656929133858267
 30
0.0
 10
0.5432362204724409
 20
-1.4656929133858267
 30
0.0
 10
0.349240157480315
 20
-1.4949251968503938
 30
0.0
 10
0.349240157480315
 20
-1.4949251968503938
 30
0.0
 10
0.349240157480315
 20
-1.4949251968503938
 30
0.0
 10
0.349240157480315
 20
-1.4949251968503938
 30
0.0
 10
0.3476377952755906
 20
-1.5635590551181102
 30
0.0
 10
0.3476377952755906
 20
-1.5635590551181102
 30
0.0
 10
0.3476377952755906
 20
-1.5635590551181102
 30
0.0
 10
0.3476377952755906
 20
-1.5635590551181102
 30
0.0
 10
0.3429448818897638
 20
-1.6289015748031497
 30
0.0
 10
0.3429448818897638
 20
-1.6289015748031497
 30
0.0
 10
0.3429448818897638
 20
-1.6289015748031497
 30
0.0
 10
0.3429448818897638
 20
-1.6289015748031497
 30
0.0
 10
0.3353464566929134
 20
-1.6910157480314962
 30
0.0
 10
0.3353464566929134
 20
-1.6910157480314962
 30
0.0
 10
0.3353464566929134
 20
-1.6910157480314962
 30
0.0
 10
0.3353464566929134
 20
-1.6910157480314962
 30
0.0
 10
0.3250157480314961
 20
-1.749988188976378
 30
0.0
 10
0.3250157480314961
 20
-1.749988188976378
 30
0.0
 10
0.3250157480314961
 20
-1.749988188976378
 30
0.0
 10
0.3250157480314961
 20
-1.749988188976378
 30
0.0
 10
0.3121456692913386
 20
-1.8058740157480315
 30
0.0
 10
0.3121456692913386
 20
-1.8058740157480315
 30
0.0
 10
0.3121456692913386
 20
-1.8058740157480315
 30
0.0
 10
0.3121456692913386
 20
-1.8058740157480315
 30
0.0
 10
0.2969055118110237
 20
-1.8587637795275591
 30
0.0
 10
0.2969055118110237
 20
-1.8587637795275591
 30
0.0
 10
0.2969055118110237
 20
-1.8587637795275591
 30
0.0
 10
0.2969055118110237
 20
-1.8587637795275591
 30
0.0
 10
0.279484251968504
 20
-1.9087244094488189
 30
0.0
 10
0.279484251968504
 20
-1.9087244094488189
 30
0.0
 10
0.279484251968504
 20
-1.9087244094488189
 30
0.0
 10
0.279484251968504
 20
-1.9087244094488189
 30
0.0
 10
0.2600511811023622
 20
-1.9558267716535434
 30
0.0
 10
0.2600511811023622
 20
-1.9558267716535434
 30
0.0
 10
0.2600511811023622
 20
-1.9558267716535434
 30
0.0
 10
0.2600511811023622
 20
-1.9558267716535434
 30
0.0
 10
0.2388110236220473
 20
-2.0001417322834647
 30
0.0
 10
0.2388110236220473
 20
-2.0001417322834647
 30
0.0
 10
0.2388110236220473
 20
-2.0001417322834647
 30
0.0
 10
0.2388110236220473
 20
-2.0001417322834647
 30
0.0
 10
0.2159212598425197
 20
-2.0417480314960632
 30
0.0
 10
0.2159212598425197
 20
-2.0417480314960632
 30
0.0
 10
0.2159212598425197
 20
-2.0417480314960632
 30
0.0
 10
0.2159212598425197
 20
-2.0417480314960632
 30
0.0
 10
0.1915748031496063
 20
-2.0807125984251971
 30
0.0
 10
0.1915748031496063
 20
-2.0807125984251971
 30
0.0
 10
0.1915748031496063
 20
-2.0807125984251971
 30
0.0
 10
0.1915748031496063
 20
-2.0807125984251971
 30
0.0
 10
0.1659448818897638
 20
-2.1171220472440946
 30
0.0
 10
0.1659448818897638
 20
-2.1171220472440946
 30
0.0
 10
0.1659448818897638
 20
-2.1171220472440946
 30
0.0
 10
0.1659448818897638
 20
-2.1171220472440946
 30
0.0
 10
0.1392204724409449
 20
-2.1510354330708661
 30
0.0
 10
0.1392204724409449
 20
-2.1510354330708661
 30
0.0
 10
0.1392204724409449
 20
-2.1510354330708661
 30
0.0
 10
0.1392204724409449
 20
-2.1510354330708661
 30
0.0
 10
0.1115787401574803
 20
-2.1825354330708664
 30
0.0
 10
0.1115787401574803
 20
-2.1825354330708664
 30
0.0
 10
0.1115787401574803
 20
-2.1825354330708664
 30
0.0
 10
0.1115787401574803
 20
-2.1825354330708664
 30
0.0
 10
0.0832007874015748
 20
-2.2116850393700789
 30
0.0
 10
0.0832007874015748
 20
-2.2116850393700789
 30
0.0
 10
0.0832007874015748
 20
-2.2116850393700789
 30
0.0
 10
0.0832007874015748
 20
-2.2116850393700789
 30
0.0
 10
0.0542637795275591
 20
-2.2385748031496062
 30
0.0
 10
0.0542637795275591
 20
-2.2385748031496062
 30
0.0
 10
0.0542637795275591
 20
-2.2385748031496062
 30
0.0
 10
0.0542637795275591
 20
-2.2385748031496062
 30
0.0
 10
0.0249606299212598
 20
-2.2632559055118113
 30
0.0
 10
0.0249606299212598
 20
-2.2632559055118113
 30
0.0
 10
0.0249606299212598
 20
-2.2632559055118113
 30
0.0
 10
0.0249606299212598
 20
-2.2632559055118113
 30
0.0
 10
-0.0045393700787402
 20
-2.2858149606299212
 30
0.0
 10
-0.0045393700787402
 20
-2.2858149606299212
 30
0.0
 10
-0.0045393700787402
 20
-2.2858149606299212
 30
0.0
 10
-0.0045393700787402
 20
-2.2858149606299212
 30
0.0
 10
-0.0340472440944882
 20
-2.3063267716535436
 30
0.0
 10
-0.0340472440944882
 20
-2.3063267716535436
 30
0.0
 10
-0.0340472440944882
 20
-2.3063267716535436
 30
0.0
 10
-0.0340472440944882
 20
-2.3063267716535436
 30
0.0
 10
-0.0633897637795276
 20
-2.3248622047244094
 30
0.0
 10
-0.0633897637795276
 20
-2.3248622047244094
 30
0.0
 10
-0.0633897637795276
 20
-2.3248622047244094
 30
0.0
 10
-0.0633897637795276
 20
-2.3248622047244094
 30
0.0
 10
-0.0923779527559055
 20
-2.3414881889763781
 30
0.0
 10
-0.0923779527559055
 20
-2.3414881889763781
 30
0.0
 10
-0.0923779527559055
 20
-2.3414881889763781
 30
0.0
 10
-0.0923779527559055
 20
-2.3414881889763781
 30
0.0
 10
-0.1208385826771654
 20
-2.3562874015748032
 30
0.0
 10
-0.1208385826771654
 20
-2.3562874015748032
 30
0.0
 10
-0.1208385826771654
 20
-2.3562874015748032
 30
0.0
 10
-0.1208385826771654
 20
-2.3562874015748032
 30
0.0
 10
-0.1485826771653543
 20
-2.3693307086614173
 30
0.0
 10
-0.1485826771653543
 20
-2.3693307086614173
 30
0.0
 10
-0.1485826771653543
 20
-2.3693307086614173
 30
0.0
 10
-0.1485826771653543
 20
-2.3693307086614173
 30
0.0
 10
-0.1754409448818898
 20
-2.3806929133858268
 30
0.0
 10
-0.1754409448818898
 20
-2.3806929133858268
 30
0.0
 10
-0.1754409448818898
 20
-2.3806929133858268
 30
0.0
 10
-0.1754409448818898
 20
-2.3806929133858268
 30
0.0
 10
-0.2012165354330709
 20
-2.390437007874016
 30
0.0
 10
-0.2012165354330709
 20
-2.390437007874016
 30
0.0
 10
-0.2012165354330709
 20
-2.390437007874016
 30
0.0
 10
-0.2012165354330709
 20
-2.390437007874016
 30
0.0
 10
-0.225740157480315
 20
-2.3986496062992129
 30
0.0
 10
-0.225740157480315
 20
-2.3986496062992129
 30
0.0
 10
-0.225740157480315
 20
-2.3986496062992129
 30
0.0
 10
-0.225740157480315
 20
-2.3986496062992129
 30
0.0
 10
-0.2488267716535433
 20
-2.4053937007874016
 30
0.0
 10
-0.2488267716535433
 20
-2.4053937007874016
 30
0.0
 10
-0.2488267716535433
 20
-2.4053937007874016
 30
0.0
 10
-0.2488267716535433
 20
-2.4053937007874016
 30
0.0
 10
-0.2703031496062992
 20
-2.410748031496063
 30
0.0
 10
-0.2703031496062992
 20
-2.410748031496063
 30
0.0
 10
-0.2703031496062992
 20
-2.410748031496063
 30
0.0
 10
-0.2703031496062992
 20
-2.410748031496063
 30
0.0
 10
-0.2899724409448819
 20
-2.4147834645669293
 30
0.0
 10
-0.2899724409448819
 20
-2.4147834645669293
 30
0.0
 10
-0.2899724409448819
 20
-2.4147834645669293
 30
0.0
 10
-0.2899724409448819
 20
-2.4147834645669293
 30
0.0
 10
-0.3076653543307087
 20
-2.4175787401574804
 30
0.0
 10
-0.3076653543307087
 20
-2.4175787401574804
 30
0.0
 10
-0.3076653543307087
 20
-2.4175787401574804
 30
0.0
 10
-0.3076653543307087
 20
-2.4175787401574804
 30
0.0
 10
-0.3231929133858268
 20
-2.4192007874015751
 30
0.0
 10
-0.3231929133858268
 20
-2.4192007874015751
 30
0.0
 10
-0.3231929133858268
 20
-2.4192007874015751
 30
0.0
 10
-0.3231929133858268
 20
-2.4192007874015751
 30
0.0
 10
-0.3363897637795276
 20
-2.4197283464566932
 30
0.0
 10
-0.3363897637795276
 20
-2.4197283464566932
 30
0.0
 10
-0.3363897637795276
 20
-2.4197283464566932
 30
0.0
 10
-0.3363897637795276
 20
-2.4197283464566932
 30
0.0
 10
-0.9827598425196851
 20
-2.0436417322834646
 30
0.0
 10
-0.9827598425196851
 20
-2.0436417322834646
 30
0.0
 10
-0.9827598425196851
 20
-2.0436417322834646
 30
0.0
 10
-0.9827598425196851
 20
-2.0436417322834646
 30
0.0
 10
-0.9695629921259843
 20
-2.0431141732283464
 30
0.0
 10
-0.9695629921259843
 20
-2.0431141732283464
 30
0.0
 10
-0.9695629921259843
 20
-2.0431141732283464
 30
0.0
 10
-0.9695629921259843
 20
-2.0431141732283464
 30
0.0
 10
-0.9540354330708661
 20
-2.0414921259842522
 30
0.0
 10
-0.9540354330708661
 20
-2.0414921259842522
 30
0.0
 10
-0.9540354330708661
 20
-2.0414921259842522
 30
0.0
 10
-0.9540354330708661
 20
-2.0414921259842522
 30
0.0
 10
-0.9363425196850395
 20
-2.0386968503937011
 30
0.0
 10
-0.9363425196850395
 20
-2.0386968503937011
 30
0.0
 10
-0.9363425196850395
 20
-2.0386968503937011
 30
0.0
 10
-0.9363425196850395
 20
-2.0386968503937011
 30
0.0
 10
-0.9166732283464567
 20
-2.0346614173228348
 30
0.0
 10
-0.9166732283464567
 20
-2.0346614173228348
 30
0.0
 10
-0.9166732283464567
 20
-2.0346614173228348
 30
0.0
 10
-0.9166732283464567
 20
-2.0346614173228348
 30
0.0
 10
-0.8951968503937008
 20
-2.0293070866141734
 30
0.0
 10
-0.8951968503937008
 20
-2.0293070866141734
 30
0.0
 10
-0.8951968503937008
 20
-2.0293070866141734
 30
0.0
 10
-0.8951968503937008
 20
-2.0293070866141734
 30
0.0
 10
-0.8721102362204725
 20
-2.0225629921259842
 30
0.0
 10
-0.8721102362204725
 20
-2.0225629921259842
 30
0.0
 10
-0.8721102362204725
 20
-2.0225629921259842
 30
0.0
 10
-0.8721102362204725
 20
-2.0225629921259842
 30
0.0
 10
-0.8475866141732283
 20
-2.0143503937007874
 30
0.0
 10
-0.8475866141732283
 20
-2.0143503937007874
 30
0.0
 10
-0.8475866141732283
 20
-2.0143503937007874
 30
0.0
 10
-0.8475866141732283
 20
-2.0143503937007874
 30
0.0
 10
-0.8218110236220473
 20
-2.0046062992125986
 30
0.0
 10
-0.8218110236220473
 20
-2.0046062992125986
 30
0.0
 10
-0.8218110236220473
 20
-2.0046062992125986
 30
0.0
 10
-0.8218110236220473
 20
-2.0046062992125986
 30
0.0
 10
-0.7949527559055118
 20
-1.9932440944881891
 30
0.0
 10
-0.7949527559055118
 20
-1.9932440944881891
 30
0.0
 10
-0.7949527559055118
 20
-1.9932440944881891
 30
0.0
 10
-0.7949527559055118
 20
-1.9932440944881891
 30
0.0
 10
-0.7672086614173229
 20
-1.9802007874015748
 30
0.0
 10
-0.7672086614173229
 20
-1.9802007874015748
 30
0.0
 10
-0.7672086614173229
 20
-1.9802007874015748
 30
0.0
 10
-0.7672086614173229
 20
-1.9802007874015748
 30
0.0
 10
-0.7387480314960631
 20
-1.9654015748031497
 30
0.0
 10
-0.7387480314960631
 20
-1.9654015748031497
 30
0.0
 10
-0.7387480314960631
 20
-1.9654015748031497
 30
0.0
 10
-0.7387480314960631
 20
-1.9654015748031497
 30
0.0
 10
-0.7097598425196851
 20
-1.9487755905511812
 30
0.0
 10
-0.7097598425196851
 20
-1.9487755905511812
 30
0.0
 10
-0.7097598425196851
 20
-1.9487755905511812
 30
0.0
 10
-0.7097598425196851
 20
-1.9487755905511812
 30
0.0
 10
-0.6804173228346457
 20
-1.930240157480315
 30
0.0
 10
-0.6804173228346457
 20
-1.930240157480315
 30
0.0
 10
-0.6804173228346457
 20
-1.930240157480315
 30
0.0
 10
-0.6804173228346457
 20
-1.930240157480315
 30
0.0
 10
-0.6509094488188977
 20
-1.909728346456693
 30
0.0
 10
-0.6509094488188977
 20
-1.909728346456693
 30
0.0
 10
-0.6509094488188977
 20
-1.909728346456693
 30
0.0
 10
-0.6509094488188977
 20
-1.909728346456693
 30
0.0
 10
-0.6214094488188977
 20
-1.8871692913385827
 30
0.0
 10
-0.6214094488188977
 20
-1.8871692913385827
 30
0.0
 10
-0.6214094488188977
 20
-1.8871692913385827
 30
0.0
 10
-0.6214094488188977
 20
-1.8871692913385827
 30
0.0
 10
-0.5921062992125985
 20
-1.862488188976378
 30
0.0
 10
-0.5921062992125985
 20
-1.862488188976378
 30
0.0
 10
-0.5921062992125985
 20
-1.862488188976378
 30
0.0
 10
-0.5921062992125985
 20
-1.862488188976378
 30
0.0
 10
-0.5631692913385827
 20
-1.8355984251968505
 30
0.0
 10
-0.5631692913385827
 20
-1.8355984251968505
 30
0.0
 10
-0.5631692913385827
 20
-1.8355984251968505
 30
0.0
 10
-0.5631692913385827
 20
-1.8355984251968505
 30
0.0
 10
-0.5347913385826771
 20
-1.8064488188976378
 30
0.0
 10
-0.5347913385826771
 20
-1.8064488188976378
 30
0.0
 10
-0.5347913385826771
 20
-1.8064488188976378
 30
0.0
 10
-0.5347913385826771
 20
-1.8064488188976378
 30
0.0
 10
-0.5071496062992126
 20
-1.7749488188976379
 30
0.0
 10
-0.5071496062992126
 20
-1.7749488188976379
 30
0.0
 10
-0.5071496062992126
 20
-1.7749488188976379
 30
0.0
 10
-0.5071496062992126
 20
-1.7749488188976379
 30
0.0
 10
-0.4804251968503937
 20
-1.7410354330708662
 30
0.0
 10
-0.4804251968503937
 20
-1.7410354330708662
 30
0.0
 10
-0.4804251968503937
 20
-1.7410354330708662
 30
0.0
 10
-0.4804251968503937
 20
-1.7410354330708662
 30
0.0
 10
-0.4547952755905512
 20
-1.7046259842519687
 30
0.0
 10
-0.4547952755905512
 20
-1.7046259842519687
 30
0.0
 10
-0.4547952755905512
 20
-1.7046259842519687
 30
0.0
 10
-0.4547952755905512
 20
-1.7046259842519687
 30
0.0
 10
-0.4304488188976378
 20
-1.6656614173228348
 30
0.0
 10
-0.4304488188976378
 20
-1.6656614173228348
 30
0.0
 10
-0.4304488188976378
 20
-1.6656614173228348
 30
0.0
 10
-0.4304488188976378
 20
-1.6656614173228348
 30
0.0
 10
-0.4075590551181103
 20
-1.6240551181102363
 30
0.0
 10
-0.4075590551181103
 20
-1.6240551181102363
 30
0.0
 10
-0.4075590551181103
 20
-1.6240551181102363
 30
0.0
 10
-0.4075590551181103
 20
-1.6240551181102363
 30
0.0
 10
-0.3863188976377953
 20
-1.5797401574803149
 30
0.0
 10
-0.3863188976377953
 20
-1.5797401574803149
 30
0.0
 10
-0.3863188976377953
 20
-1.5797401574803149
 30
0.0
 10
-0.3863188976377953
 20
-1.5797401574803149
 30
0.0
 10
-0.3668858267716535
 20
-1.5326377952755905
 30
0.0
 10
-0.3668858267716535
 20
-1.5326377952755905
 30
0.0
 10
-0.3668858267716535
 20
-1.5326377952755905
 30
0.0
 10
-0.3668858267716535
 20
-1.5326377952755905
 30
0.0
 10
-0.3494645669291339
 20
-1.4826771653543307
 30
0.0
 10
-0.3494645669291339
 20
-1.4826771653543307
 30
0.0
 10
-0.3494645669291339
 20
-1.4826771653543307
 30
0.0
 10
-0.3494645669291339
 20
-1.4826771653543307
 30
0.0
 10
-0.3342244094488189
 20
-1.4297874015748031
 30
0.0
 10
-0.3342244094488189
 20
-1.4297874015748031
 30
0.0
 10
-0.3342244094488189
 20
-1.4297874015748031
 30
0.0
 10
-0.3342244094488189
 20
-1.4297874015748031
 30
0.0
 10
-0.3213543307086614
 20
-1.3739015748031496
 30
0.0
 10
-0.3213543307086614
 20
-1.3739015748031496
 30
0.0
 10
-0.3213543307086614
 20
-1.3739015748031496
 30
0.0
 10
-0.3213543307086614
 20
-1.3739015748031496
 30
0.0
 10
-0.3110236220472441
 20
-1.3149291338582678
 30
0.0
 10
-0.3110236220472441
 20
-1.3149291338582678
 30
0.0
 10
-0.3110236220472441
 20
-1.3149291338582678
 30
0.0
 10
-0.3110236220472441
 20
-1.3149291338582678
 30
0.0
 10
-0.3034251968503937
 20
-1.2528149606299213
 30
0.0
 10
-0.3034251968503937
 20
-1.2528149606299213
 30
0.0
 10
-0.3034251968503937
 20
-1.2528149606299213
 30
0.0
 10
-0.3034251968503937
 20
-1.2528149606299213
 30
0.0
 10
-0.2987322834645669
 20
-1.187472440944882
 30
0.0
 10
-0.2987322834645669
 20
-1.187472440944882
 30
0.0
 10
-0.2987322834645669
 20
-1.187472440944882
 30
0.0
 10
-0.2987322834645669
 20
-1.187472440944882
 30
0.0
 10
-0.2971299212598426
 20
-1.1188385826771654
 30
0.0
 10
-0.2971299212598426
 20
-1.1188385826771654
 30
0.0
 10
-0.2971299212598426
 20
-1.1188385826771654
 30
0.0
 10
-0.2971299212598426
 20
-1.1188385826771654
 30
0.0
 10
-0.1031338582677165
 20
-1.0896062992125986
 30
0.0
 10
-0.1031338582677165
 20
-1.0896062992125986
 30
0.0
  0
SPLINE
  5
61
100
AcDbEntity
  8
Layer 1
 62
     9
100
AcDbSpline
210
0.0
220
0.0
230
1.0
 70
     1
 71
     3
 72
    20
 73
    16
 74
     0
 42
0.0000000001
 43
0.0000000001
 40
0.0
 40
0.0
 40
0.0
 40
0.0
 40
0.25
 40
0.25
 40
0.25
 40
0.25
 40
0.5
 40
0.5
 40
0.5
 40
0.5
 40
0.75
 40
0.75
 40
0.75
 40
0.75
 40
1.0
 40
1.0
 40
1.0
 40
1.0
 10
-0.9827598425196851
 20
-2.0436417322834646
 30
0.0
 10
-0.9827598425196851
 20
-2.0436417322834646
 30
0.0
 10
-0.3363897637795276
 20
-2.4197283464566932
 30
0.0
 10
-0.3363897637795276
 20
-2.4197283464566932
 30
0.0
 10
-0.3363897637795276
 20
-2.4197283464566932
 30
0.0
 10
-0.3363897637795276
 20
-2.4197283464566932
 30
0.0
 10
-0.3390629921259843
 20
-2.6697283464566932
 30
0.0
 10
-0.3390629921259843
 20
-2.6697283464566932
 30
0.0
 10
-0.3390629921259843
 20
-2.6697283464566932
 30
0.0
 10
-0.3390629921259843
 20
-2.6697283464566932
 30
0.0
 10
-0.9854330708661417
 20
-2.2936417322834646
 30
0.0
 10
-0.9854330708661417
 20
-2.2936417322834646
 30
0.0
 10
-0.9854330708661417
 20
-2.2936417322834646
 30
0.0
 10
-0.9854330708661417
 20
-2.2936417322834646
 30
0.0
 10
-0.9827598425196851
 20
-2.0436417322834646
 30
0.0
 10
-0.9827598425196851
 20
-2.0436417322834646
 30
0.0
  0
SPLINE
  5
62
100
AcDbEntity
  8
Layer 1
370
     5
100
AcDbSpline
210
0.0
220
0.0
230
1.0
 70
     1
 71
     3
 72
    20
 73
    16
 74
     0
 42
0.0000000001
 43
0.0000000001
 40
0.0
 40
0.0
 40
0.0
 40
0.0
 40
0.25
 40
0.25
 40
0.25
 40
0.25
 40
0.5
 40
0.5
 40
0.5
 40
0.5
 40
0.75
 40
0.75
 40
0.75
 40
0.75
 40
1.0
 40
1.0
 40
1.0
 40
1.0
 10
-0.9827598425196851
 20
-2.0436417322834646
 30
0.0
 10
-0.9827598425196851
 20
-2.0436417322834646
 30
0.0
 10
-0.3363897637795276
 20
-2.4197283464566932
 30
0.0
 10
-0.3363897637795276
 20
-2.4197283464566932
 30
0.0
 10
-0.3363897637795276
 20
-2.4197283464566932
 30
0.0
 10
-0.3363897637795276
 20
-2.4197283464566932
 30
0.0
 10
-0.3390629921259843
 20
-2.6697283464566932
 30
0.0
 10
-0.3390629921259843
 20
-2.6697283464566932
 30
0.0
 10
-0.3390629921259843
 20
-2.6697283464566932
 30
0.0
 10
-0.3390629921259843
 20
-2.6697283464566932
 30
0.0
 10
-0.9854330708661417
 20
-2.2936417322834646
 30
0.0
 10
-0.9854330708661417
 20
-2.2936417322834646
 30
0.0
 10
-0.9854330708661417
 20
-2.2936417322834646
 30
0.0
 10
-0.9854330708661417
 20
-2.2936417322834646
 30
0.0
 10
-0.9827598425196851
 20
-2.0436417322834646
 30
0.0
 10
-0.9827598425196851
 20
-2.0436417322834646
 30
0.0
  0
SPLINE
  5
63
100
AcDbEntity
  8
Layer 1
 62
     9
100
AcDbSpline
210
0.0
220
0.0
230
1.0
 70
     1
 71
     3
 72
    20
 73
    16
 74
     0
 42
0.0000000001
 43
0.0000000001
 40
0.0
 40
0.0
 40
0.0
 40
0.0
 40
0.25
 40
0.25
 40
0.25
 40
0.25
 40
0.5
 40
0.5
 40
0.5
 40
0.5
 40
0.75
 40
0.75
 40
0.75
 40
0.75
 40
1.0
 40
1.0
 40
1.0
 40
1.0
 10
-0.9854330708661417
 20
-2.2936417322834646
 30
0.0
 10
-0.9854330708661417
 20
-2.2936417322834646
 30
0.0
 10
-0.3390629921259843
 20
-2.6697283464566932
 30
0.0
 10
-0.3390629921259843
 20
-2.6697283464566932
 30
0.0
 10
-0.3390629921259843
 20
-2.6697283464566932
 30
0.0
 10
-0.3390629921259843
 20
-2.6697283464566932
 30
0.0
 10
-0.3730669291338583
 20
-2.6718937007874017
 30
0.0
 10
-0.3730669291338583
 20
-2.6718937007874017
 30
0.0
 10
-0.3730669291338583
 20
-2.6718937007874017
 30
0.0
 10
-0.3730669291338583
 20
-2.6718937007874017
 30
0.0
 10
-1.0194370078740158
 20
-2.2958070866141731
 30
0.0
 10
-1.0194370078740158
 20
-2.2958070866141731
 30
0.0
 10
-1.0194370078740158
 20
-2.2958070866141731
 30
0.0
 10
-1.0194370078740158
 20
-2.2958070866141731
 30
0.0
 10
-0.9854330708661417
 20
-2.2936417322834646
 30
0.0
 10
-0.9854330708661417
 20
-2.2936417322834646
 30
0.0
  0
SPLINE
  5
64
100
AcDbEntity
  8
Layer 1
 62
     9
100
AcDbSpline
210
0.0
220
0.0
230
1.0
 70
     1
 71
     3
 72
    20
 73
    16
 74
     0
 42
0.0000000001
 43
0.0000000001
 40
0.0
 40
0.0
 40
0.0
 40
0.0
 40
0.25
 40
0.25
 40
0.25
 40
0.25
 40
0.5
 40
0.5
 40
0.5
 40
0.5
 40
0.75
 40
0.75
 40
0.75
 40
0.75
 40
1.0
 40
1.0
 40
1.0
 40
1.0
 10
-1.0194370078740158
 20
-2.2958070866141731
 30
0.0
 10
-1.0194370078740158
 20
-2.2958070866141731
 30
0.0
 10
-0.3730669291338583
 20
-2.6718937007874017
 30
0.0
 10
-0.3730669291338583
 20
-2.6718937007874017
 30
0.0
 10
-0.3730669291338583
 20
-2.6718937007874017
 30
0.0
 10
-0.3730669291338583
 20
-2.6718937007874017
 30
0.0
 10
-0.4048149606299213
 20
-2.6758779527559056
 30
0.0
 10
-0.4048149606299213
 20
-2.6758779527559056
 30
0.0
 10
-0.4048149606299213
 20
-2.6758779527559056
 30
0.0
 10
-0.4048149606299213
 20
-2.6758779527559056
 30
0.0
 10
-1.0511850393700788
 20
-2.2997913385826774
 30
0.0
 10
-1.0511850393700788
 20
-2.2997913385826774
 30
0.0
 10
-1.0511850393700788
 20
-2.2997913385826774
 30
0.0
 10
-1.0511850393700788
 20
-2.2997913385826774
 30
0.0
 10
-1.0194370078740158
 20
-2.2958070866141731
 30
0.0
 10
-1.0194370078740158
 20
-2.2958070866141731
 30
0.0
  0
SPLINE
  5
65
100
AcDbEntity
  8
Layer 1
 62
     9
100
AcDbSpline
210
0.0
220
0.0
230
1.0
 70
     1
 71
     3
 72
    20
 73
    16
 74
     0
 42
0.0000000001
 43
0.0000000001
 40
0.0
 40
0.0
 40
0.0
 40
0.0
 40
0.25
 40
0.25
 40
0.25
 40
0.25
 40
0.5
 40
0.5
 40
0.5
 40
0.5
 40
0.75
 40
0.75
 40
0.75
 40
0.75
 40
1.0
 40
1.0
 40
1.0
 40
1.0
 10
-1.0511850393700788
 20
-2.2997913385826774
 30
0.0
 10
-1.0511850393700788
 20
-2.2997913385826774
 30
0.0
 10
-0.4048149606299213
 20
-2.6758779527559056
 30
0.0
 10
-0.4048149606299213
 20
-2.6758779527559056
 30
0.0
 10
-0.4048149606299213
 20
-2.6758779527559056
 30
0.0
 10
-0.4048149606299213
 20
-2.6758779527559056
 30
0.0
 10
-0.4343818897637796
 20
-2.6815511811023622
 30
0.0
 10
-0.4343818897637796
 20
-2.6815511811023622
 30
0.0
 10
-0.4343818897637796
 20
-2.6815511811023622
 30
0.0
 10
-0.4343818897637796
 20
-2.6815511811023622
 30
0.0
 10
-1.0807519685039371
 20
-2.305464566929134
 30
0.0
 10
-1.0807519685039371
 20
-2.305464566929134
 30
0.0
 10
-1.0807519685039371
 20
-2.305464566929134
 30
0.0
 10
-1.0807519685039371
 20
-2.305464566929134
 30
0.0
 10
-1.0511850393700788
 20
-2.2997913385826774
 30
0.0
 10
-1.0511850393700788
 20
-2.2997913385826774
 30
0.0
  0
SPLINE
  5
66
100
AcDbEntity
  8
Layer 1
 62
     9
100
AcDbSpline
210
0.0
220
0.0
230
1.0
 70
     1
 71
     3
 72
    20
 73
    16
 74
     0
 42
0.0000000001
 43
0.0000000001
 40
0.0
 40
0.0
 40
0.0
 40
0.0
 40
0.25
 40
0.25
 40
0.25
 40
0.25
 40
0.5
 40
0.5
 40
0.5
 40
0.5
 40
0.75
 40
0.75
 40
0.75
 40
0.75
 40
1.0
 40
1.0
 40
1.0
 40
1.0
 10
-1.0807519685039371
 20
-2.305464566929134
 30
0.0
 10
-1.0807519685039371
 20
-2.305464566929134
 30
0.0
 10
-0.4343818897637796
 20
-2.6815511811023622
 30
0.0
 10
-0.4343818897637796
 20
-2.6815511811023622
 30
0.0
 10
-0.4343818897637796
 20
-2.6815511811023622
 30
0.0
 10
-0.4343818897637796
 20
-2.6815511811023622
 30
0.0
 10
-0.4618543307086614
 20
-2.6888188976377956
 30
0.0
 10
-0.4618543307086614
 20
-2.6888188976377956
 30
0.0
 10
-0.4618543307086614
 20
-2.6888188976377956
 30
0.0
 10
-0.4618543307086614
 20
-2.6888188976377956
 30
0.0
 10
-1.1082244094488189
 20
-2.3127322834645669
 30
0.0
 10
-1.1082244094488189
 20
-2.3127322834645669
 30
0.0
 10
-1.1082244094488189
 20
-2.3127322834645669
 30
0.0
 10
-1.1082244094488189
 20
-2.3127322834645669
 30
0.0
 10
-1.0807519685039371
 20
-2.305464566929134
 30
0.0
 10
-1.0807519685039371
 20
-2.305464566929134
 30
0.0
  0
SPLINE
  5
67
100
AcDbEntity
  8
Layer 1
 62
     9
100
AcDbSpline
210
0.0
220
0.0
230
1.0
 70
     1
 71
     3
 72
    20
 73
    16
 74
     0
 42
0.0000000001
 43
0.0000000001
 40
0.0
 40
0.0
 40
0.0
 40
0.0
 40
0.25
 40
0.25
 40
0.25
 40
0.25
 40
0.5
 40
0.5
 40
0.5
 40
0.5
 40
0.75
 40
0.75
 40
0.75
 40
0.75
 40
1.0
 40
1.0
 40
1.0
 40
1.0
 10
-1.1082244094488189
 20
-2.3127322834645669
 30
0.0
 10
-1.1082244094488189
 20
-2.3127322834645669
 30
0.0
 10
-0.4618543307086614
 20
-2.6888188976377956
 30
0.0
 10
-0.4618543307086614
 20
-2.6888188976377956
 30
0.0
 10
-0.4618543307086614
 20
-2.6888188976377956
 30
0.0
 10
-0.4618543307086614
 20
-2.6888188976377956
 30
0.0
 10
-0.4872874015748032
 20
-2.6975472440944883
 30
0.0
 10
-0.4872874015748032
 20
-2.6975472440944883
 30
0.0
 10
-0.4872874015748032
 20
-2.6975472440944883
 30
0.0
 10
-0.4872874015748032
 20
-2.6975472440944883
 30
0.0
 10
-1.1336574803149606
 20
-2.3214606299212601
 30
0.0
 10
-1.1336574803149606
 20
-2.3214606299212601
 30
0.0
 10
-1.1336574803149606
 20
-2.3214606299212601
 30
0.0
 10
-1.1336574803149606
 20
-2.3214606299212601
 30
0.0
 10
-1.1082244094488189
 20
-2.3127322834645669
 30
0.0
 10
-1.1082244094488189
 20
-2.3127322834645669
 30
0.0
  0
SPLINE
  5
68
100
AcDbEntity
  8
Layer 1
 62
     9
100
AcDbSpline
210
0.0
220
0.0
230
1.0
 70
     1
 71
     3
 72
    28
 73
    24
 74
     0
 42
0.0000000001
 43
0.0000000001
 40
0.0
 40
0.0
 40
0.0
 40
0.0
 40
0.1666666666666667
 40
0.1666666666666667
 40
0.1666666666666667
 40
0.1666666666666667
 40
0.3333333333333333
 40
0.3333333333333333
 40
0.3333333333333333
 40
0.3333333333333333
 40
0.5
 40
0.5
 40
0.5
 40
0.5
 40
0.6666666666666666
 40
0.6666666666666666
 40
0.6666666666666666
 40
0.6666666666666666
 40
0.8333333333333333
 40
0.8333333333333333
 40
0.8333333333333333
 40
0.8333333333333333
 40
1.0
 40
1.0
 40
1.0
 40
1.0
 10
-1.1336574803149606
 20
-2.3214606299212601
 30
0.0
 10
-1.1336574803149606
 20
-2.3214606299212601
 30
0.0
 10
-0.4872874015748032
 20
-2.6975472440944883
 30
0.0
 10
-0.4872874015748032
 20
-2.6975472440944883
 30
0.0
 10
-0.4872874015748032
 20
-2.6975472440944883
 30
0.0
 10
-0.4872874015748032
 20
-2.6975472440944883
 30
0.0
 10
-0.5107755905511812
 20
-2.7076456692913387
 30
0.0
 10
-0.5107755905511812
 20
-2.7076456692913387
 30
0.0
 10
-0.5107755905511812
 20
-2.7076456692913387
 30
0.0
 10
-0.5107755905511812
 20
-2.7076456692913387
 30
0.0
 10
-0.5323897637795276
 20
-2.7189881889763781
 30
0.0
 10
-0.5323897637795276
 20
-2.7189881889763781
 30
0.0
 10
-0.5323897637795276
 20
-2.7189881889763781
 30
0.0
 10
-0.5323897637795276
 20
-2.7189881889763781
 30
0.0
 10
-1.178759842519685
 20
-2.3429015748031499
 30
0.0
 10
-1.178759842519685
 20
-2.3429015748031499
 30
0.0
 10
-1.178759842519685
 20
-2.3429015748031499
 30
0.0
 10
-1.178759842519685
 20
-2.3429015748031499
 30
0.0
 10
-1.1571456692913387
 20
-2.3315590551181105
 30
0.0
 10
-1.1571456692913387
 20
-2.3315590551181105
 30
0.0
 10
-1.1571456692913387
 20
-2.3315590551181105
 30
0.0
 10
-1.1571456692913387
 20
-2.3315590551181105
 30
0.0
 10
-1.1336574803149606
 20
-2.3214606299212601
 30
0.0
 10
-1.1336574803149606
 20
-2.3214606299212601
 30
0.0
  0
SPLINE
  5
69
100
AcDbEntity
  8
Layer 1
 62
     9
100
AcDbSpline
210
0.0
220
0.0
230
1.0
 70
     1
 71
     3
 72
    28
 73
    24
 74
     0
 42
0.0000000001
 43
0.0000000001
 40
0.0
 40
0.0
 40
0.0
 40
0.0
 40
0.1666666666666667
 40
0.1666666666666667
 40
0.1666666666666667
 40
0.1666666666666667
 40
0.3333333333333333
 40
0.3333333333333333
 40
0.3333333333333333
 40
0.3333333333333333
 40
0.5
 40
0.5
 40
0.5
 40
0.5
 40
0.6666666666666666
 40
0.6666666666666666
 40
0.6666666666666666
 40
0.6666666666666666
 40
0.8333333333333333
 40
0.8333333333333333
 40
0.8333333333333333
 40
0.8333333333333333
 40
1.0
 40
1.0
 40
1.0
 40
1.0
 10
-1.178759842519685
 20
-2.3429015748031499
 30
0.0
 10
-1.178759842519685
 20
-2.3429015748031499
 30
0.0
 10
-0.5323897637795276
 20
-2.7189881889763781
 30
0.0
 10
-0.5323897637795276
 20
-2.7189881889763781
 30
0.0
 10
-0.5323897637795276
 20
-2.7189881889763781
 30
0.0
 10
-0.5323897637795276
 20
-2.7189881889763781
 30
0.0
 10
-0.5522165354330709
 20
-2.731476377952756
 30
0.0
 10
-0.5522165354330709
 20
-2.731476377952756
 30
0.0
 10
-0.5522165354330709
 20
-2.731476377952756
 30
0.0
 10
-0.5522165354330709
 20
-2.731476377952756
 30
0.0
 10
-0.5703110236220472
 20
-2.7449763779527561
 30
0.0
 10
-0.5703110236220472
 20
-2.7449763779527561
 30
0.0
 10
-0.5703110236220472
 20
-2.7449763779527561
 30
0.0
 10
-0.5703110236220472
 20
-2.7449763779527561
 30
0.0
 10
-1.2166811023622048
 20
-2.3688897637795279
 30
0.0
 10
-1.2166811023622048
 20
-2.3688897637795279
 30
0.0
 10
-1.2166811023622048
 20
-2.3688897637795279
 30
0.0
 10
-1.2166811023622048
 20
-2.3688897637795279
 30
0.0
 10
-1.1985866141732284
 20
-2.3553897637795278
 30
0.0
 10
-1.1985866141732284
 20
-2.3553897637795278
 30
0.0
 10
-1.1985866141732284
 20
-2.3553897637795278
 30
0.0
 10
-1.1985866141732284
 20
-2.3553897637795278
 30
0.0
 10
-1.178759842519685
 20
-2.3429015748031499
 30
0.0
 10
-1.178759842519685
 20
-2.3429015748031499
 30
0.0
  0
SPLINE
  5
6A
100
AcDbEntity
  8
Layer 1
 62
     9
100
AcDbSpline
210
0.0
220
0.0
230
1.0
 70
     1
 71
     3
 72
    28
 73
    24
 74
     0
 42
0.0000000001
 43
0.0000000001
 40
0.0
 40
0.0
 40
0.0
 40
0.0
 40
0.1666666666666667
 40
0.1666666666666667
 40
0.1666666666666667
 40
0.1666666666666667
 40
0.3333333333333333
 40
0.3333333333333333
 40
0.3333333333333333
 40
0.3333333333333333
 40
0.5
 40
0.5
 40
0.5
 40
0.5
 40
0.6666666666666666
 40
0.6666666666666666
 40
0.6666666666666666
 40
0.6666666666666666
 40
0.8333333333333333
 40
0.8333333333333333
 40
0.8333333333333333
 40
0.8333333333333333
 40
1.0
 40
1.0
 40
1.0
 40
1.0
 10
-1.2166811023622048
 20
-2.3688897637795279
 30
0.0
 10
-1.2166811023622048
 20
-2.3688897637795279
 30
0.0
 10
-0.5703110236220472
 20
-2.7449763779527561
 30
0.0
 10
-0.5703110236220472
 20
-2.7449763779527561
 30
0.0
 10
-0.5703110236220472
 20
-2.7449763779527561
 30
0.0
 10
-0.5703110236220472
 20
-2.7449763779527561
 30
0.0
 10
-0.5867716535433071
 20
-2.7593937007874016
 30
0.0
 10
-0.5867716535433071
 20
-2.7593937007874016
 30
0.0
 10
-0.5867716535433071
 20
-2.7593937007874016
 30
0.0
 10
-0.5867716535433071
 20
-2.7593937007874016
 30
0.0
 10
-0.6016614173228346
 20
-2.7746102362204725
 30
0.0
 10
-0.6016614173228346
 20
-2.7746102362204725
 30
0.0
 10
-0.6016614173228346
 20
-2.7746102362204725
 30
0.0
 10
-0.6016614173228346
 20
-2.7746102362204725
 30
0.0
 10
-1.2480314960629921
 20
-2.3985236220472443
 30
0.0
 10
-1.2480314960629921
 20
-2.3985236220472443
 30
0.0
 10
-1.2480314960629921
 20
-2.3985236220472443
 30
0.0
 10
-1.2480314960629921
 20
-2.3985236220472443
 30
0.0
 10
-1.2331417322834646
 20
-2.3833070866141735
 30
0.0
 10
-1.2331417322834646
 20
-2.3833070866141735
 30
0.0
 10
-1.2331417322834646
 20
-2.3833070866141735
 30
0.0
 10
-1.2331417322834646
 20
-2.3833070866141735
 30
0.0
 10
-1.2166811023622048
 20
-2.3688897637795279
 30
0.0
 10
-1.2166811023622048
 20
-2.3688897637795279
 30
0.0
  0
SPLINE
  5
6B
100
AcDbEntity
  8
Layer 1
 62
     9
100
AcDbSpline
210
0.0
220
0.0
230
1.0
 70
     1
 71
     3
 72
    28
 73
    24
 74
     0
 42
0.0000000001
 43
0.0000000001
 40
0.0
 40
0.0
 40
0.0
 40
0.0
 40
0.1666666666666667
 40
0.1666666666666667
 40
0.1666666666666667
 40
0.1666666666666667
 40
0.3333333333333333
 40
0.3333333333333333
 40
0.3333333333333333
 40
0.3333333333333333
 40
0.5
 40
0.5
 40
0.5
 40
0.5
 40
0.6666666666666666
 40
0.6666666666666666
 40
0.6666666666666666
 40
0.6666666666666666
 40
0.8333333333333333
 40
0.8333333333333333
 40
0.8333333333333333
 40
0.8333333333333333
 40
1.0
 40
1.0
 40
1.0
 40
1.0
 10
-1.2480314960629921
 20
-2.3985236220472443
 30
0.0
 10
-1.2480314960629921
 20
-2.3985236220472443
 30
0.0
 10
-0.6016614173228346
 20
-2.7746102362204725
 30
0.0
 10
-0.6016614173228346
 20
-2.7746102362204725
 30
0.0
 10
-0.6016614173228346
 20
-2.7746102362204725
 30
0.0
 10
-0.6016614173228346
 20
-2.7746102362204725
 30
0.0
 10
-0.6150669291338583
 20
-2.7905157480314964
 30
0.0
 10
-0.6150669291338583
 20
-2.7905157480314964
 30
0.0
 10
-0.6150669291338583
 20
-2.7905157480314964
 30
0.0
 10
-0.6150669291338583
 20
-2.7905157480314964
 30
0.0
 10
-0.6270551181102363
 20
-2.8069921259842521
 30
0.0
 10
-0.6270551181102363
 20
-2.8069921259842521
 30
0.0
 10
-0.6270551181102363
 20
-2.8069921259842521
 30
0.0
 10
-0.6270551181102363
 20
-2.8069921259842521
 30
0.0
 10
-1.2734251968503938
 20
-2.4309055118110239
 30
0.0
 10
-1.2734251968503938
 20
-2.4309055118110239
 30
0.0
 10
-1.2734251968503938
 20
-2.4309055118110239
 30
0.0
 10
-1.2734251968503938
 20
-2.4309055118110239
 30
0.0
 10
-1.2614370078740158
 20
-2.4144291338582677
 30
0.0
 10
-1.2614370078740158
 20
-2.4144291338582677
 30
0.0
 10
-1.2614370078740158
 20
-2.4144291338582677
 30
0.0
 10
-1.2614370078740158
 20
-2.4144291338582677
 30
0.0
 10
-1.2480314960629921
 20
-2.3985236220472443
 30
0.0
 10
-1.2480314960629921
 20
-2.3985236220472443
 30
0.0
  0
SPLINE
  5
6C
100
AcDbEntity
  8
Layer 1
 62
     9
100
AcDbSpline
210
0.0
220
0.0
230
1.0
 70
     1
 71
     3
 72
    28
 73
    24
 74
     0
 42
0.0000000001
 43
0.0000000001
 40
0.0
 40
0.0
 40
0.0
 40
0.0
 40
0.1666666666666667
 40
0.1666666666666667
 40
0.1666666666666667
 40
0.1666666666666667
 40
0.3333333333333333
 40
0.3333333333333333
 40
0.3333333333333333
 40
0.3333333333333333
 40
0.5
 40
0.5
 40
0.5
 40
0.5
 40
0.6666666666666666
 40
0.6666666666666666
 40
0.6666666666666666
 40
0.6666666666666666
 40
0.8333333333333333
 40
0.8333333333333333
 40
0.8333333333333333
 40
0.8333333333333333
 40
1.0
 40
1.0
 40
1.0
 40
1.0
 10
-1.2734251968503938
 20
-2.4309055118110239
 30
0.0
 10
-1.2734251968503938
 20
-2.4309055118110239
 30
0.0
 10
-0.6270551181102363
 20
-2.8069921259842521
 30
0.0
 10
-0.6270551181102363
 20
-2.8069921259842521
 30
0.0
 10
-0.6270551181102363
 20
-2.8069921259842521
 30
0.0
 10
-0.6270551181102363
 20
-2.8069921259842521
 30
0.0
 10
-0.6377165354330709
 20
-2.82394094488189
 30
0.0
 10
-0.6377165354330709
 20
-2.82394094488189
 30
0.0
 10
-0.6377165354330709
 20
-2.82394094488189
 30
0.0
 10
-0.6377165354330709
 20
-2.82394094488189
 30
0.0
 10
-0.6471141732283465
 20
-2.8412362204724411
 30
0.0
 10
-0.6471141732283465
 20
-2.8412362204724411
 30
0.0
 10
-0.6471141732283465
 20
-2.8412362204724411
 30
0.0
 10
-0.6471141732283465
 20
-2.8412362204724411
 30
0.0
 10
-1.2934842519685039
 20
-2.4651496062992129
 30
0.0
 10
-1.2934842519685039
 20
-2.4651496062992129
 30
0.0
 10
-1.2934842519685039
 20
-2.4651496062992129
 30
0.0
 10
-1.2934842519685039
 20
-2.4651496062992129
 30
0.0
 10
-1.2840866141732283
 20
-2.4478543307086613
 30
0.0
 10
-1.2840866141732283
 20
-2.4478543307086613
 30
0.0
 10
-1.2840866141732283
 20
-2.4478543307086613
 30
0.0
 10
-1.2840866141732283
 20
-2.4478543307086613
 30
0.0
 10
-1.2734251968503938
 20
-2.4309055118110239
 30
0.0
 10
-1.2734251968503938
 20
-2.4309055118110239
 30
0.0
  0
SPLINE
  5
6D
100
AcDbEntity
  8
Layer 1
 62
     9
100
AcDbSpline
210
0.0
220
0.0
230
1.0
 70
     1
 71
     3
 72
    28
 73
    24
 74
     0
 42
0.0000000001
 43
0.0000000001
 40
0.0
 40
0.0
 40
0.0
 40
0.0
 40
0.1666666666666667
 40
0.1666666666666667
 40
0.1666666666666667
 40
0.1666666666666667
 40
0.3333333333333333
 40
0.3333333333333333
 40
0.3333333333333333
 40
0.3333333333333333
 40
0.5
 40
0.5
 40
0.5
 40
0.5
 40
0.6666666666666666
 40
0.6666666666666666
 40
0.6666666666666666
 40
0.6666666666666666
 40
0.8333333333333333
 40
0.8333333333333333
 40
0.8333333333333333
 40
0.8333333333333333
 40
1.0
 40
1.0
 40
1.0
 40
1.0
 10
-1.2934842519685039
 20
-2.4651496062992129
 30
0.0
 10
-1.2934842519685039
 20
-2.4651496062992129
 30
0.0
 10
-0.6471141732283465
 20
-2.8412362204724411
 30
0.0
 10
-0.6471141732283465
 20
-2.8412362204724411
 30
0.0
 10
-0.6471141732283465
 20
-2.8412362204724411
 30
0.0
 10
-0.6471141732283465
 20
-2.8412362204724411
 30
0.0
 10
-0.6553346456692913
 20
-2.8587795275590553
 30
0.0
 10
-0.6553346456692913
 20
-2.8587795275590553
 30
0.0
 10
-0.6553346456692913
 20
-2.8587795275590553
 30
0.0
 10
-0.6553346456692913
 20
-2.8587795275590553
 30
0.0
 10
-0.6624409448818898
 20
-2.8764370078740158
 30
0.0
 10
-0.6624409448818898
 20
-2.8764370078740158
 30
0.0
 10
-0.6624409448818898
 20
-2.8764370078740158
 30
0.0
 10
-0.6624409448818898
 20
-2.8764370078740158
 30
0.0
 10
-1.3088110236220474
 20
-2.5003503937007876
 30
0.0
 10
-1.3088110236220474
 20
-2.5003503937007876
 30
0.0
 10
-1.3088110236220474
 20
-2.5003503937007876
 30
0.0
 10
-1.3088110236220474
 20
-2.5003503937007876
 30
0.0
 10
-1.3017047244094488
 20
-2.4826929133858266
 30
0.0
 10
-1.3017047244094488
 20
-2.4826929133858266
 30
0.0
 10
-1.3017047244094488
 20
-2.4826929133858266
 30
0.0
 10
-1.3017047244094488
 20
-2.4826929133858266
 30
0.0
 10
-1.2934842519685039
 20
-2.4651496062992129
 30
0.0
 10
-1.2934842519685039
 20
-2.4651496062992129
 30
0.0
  0
SPLINE
  5
6E
100
AcDbEntity
  8
Layer 1
 62
     9
100
AcDbSpline
210
0.0
220
0.0
230
1.0
 70
     1
 71
     3
 72
    28
 73
    24
 74
     0
 42
0.0000000001
 43
0.0000000001
 40
0.0
 40
0.0
 40
0.0
 40
0.0
 40
0.1666666666666667
 40
0.1666666666666667
 40
0.1666666666666667
 40
0.1666666666666667
 40
0.3333333333333333
 40
0.3333333333333333
 40
0.3333333333333333
 40
0.3333333333333333
 40
0.5
 40
0.5
 40
0.5
 40
0.5
 40
0.6666666666666666
 40
0.6666666666666666
 40
0.6666666666666666
 40
0.6666666666666666
 40
0.8333333333333333
 40
0.8333333333333333
 40
0.8333333333333333
 40
0.8333333333333333
 40
1.0
 40
1.0
 40
1.0
 40
1.0
 10
-1.3088110236220474
 20
-2.5003503937007876
 30
0.0
 10
-1.3088110236220474
 20
-2.5003503937007876
 30
0.0
 10
-0.6624409448818898
 20
-2.8764370078740158
 30
0.0
 10
-0.6624409448818898
 20
-2.8764370078740158
 30
0.0
 10
-0.6624409448818898
 20
-2.8764370078740158
 30
0.0
 10
-0.6624409448818898
 20
-2.8764370078740158
 30
0.0
 10
-0.6685314960629921
 20
-2.8941181102362208
 30
0.0
 10
-0.6685314960629921
 20
-2.8941181102362208
 30
0.0
 10
-0.6685314960629921
 20
-2.8941181102362208
 30
0.0
 10
-0.6685314960629921
 20
-2.8941181102362208
 30
0.0
 10
-0.6736653543307087
 20
-2.9117007874015748
 30
0.0
 10
-0.6736653543307087
 20
-2.9117007874015748
 30
0.0
 10
-0.6736653543307087
 20
-2.9117007874015748
 30
0.0
 10
-0.6736653543307087
 20
-2.9117007874015748
 30
0.0
 10
-1.3200354330708661
 20
-2.5356141732283466
 30
0.0
 10
-1.3200354330708661
 20
-2.5356141732283466
 30
0.0
 10
-1.3200354330708661
 20
-2.5356141732283466
 30
0.0
 10
-1.3200354330708661
 20
-2.5356141732283466
 30
0.0
 10
-1.3149015748031496
 20
-2.5180314960629921
 30
0.0
 10
-1.3149015748031496
 20
-2.5180314960629921
 30
0.0
 10
-1.3149015748031496
 20
-2.5180314960629921
 30
0.0
 10
-1.3149015748031496
 20
-2.5180314960629921
 30
0.0
 10
-1.3088110236220474
 20
-2.5003503937007876
 30
0.0
 10
-1.3088110236220474
 20
-2.5003503937007876
 30
0.0
  0
SPLINE
  5
6F
100
AcDbEntity
  8
Layer 1
 62
     9
100
AcDbSpline
210
0.0
220
0.0
230
1.0
 70
     1
 71
     3
 72
    28
 73
    24
 74
     0
 42
0.0000000001
 43
0.0000000001
 40
0.0
 40
0.0
 40
0.0
 40
0.0
 40
0.1666666666666667
 40
0.1666666666666667
 40
0.1666666666666667
 40
0.1666666666666667
 40
0.3333333333333333
 40
0.3333333333333333
 40
0.3333333333333333
 40
0.3333333333333333
 40
0.5
 40
0.5
 40
0.5
 40
0.5
 40
0.6666666666666666
 40
0.6666666666666666
 40
0.6666666666666666
 40
0.6666666666666666
 40
0.8333333333333333
 40
0.8333333333333333
 40
0.8333333333333333
 40
0.8333333333333333
 40
1.0
 40
1.0
 40
1.0
 40
1.0
 10
-1.3200354330708661
 20
-2.5356141732283466
 30
0.0
 10
-1.3200354330708661
 20
-2.5356141732283466
 30
0.0
 10
-0.6736653543307087
 20
-2.9117007874015748
 30
0.0
 10
-0.6736653543307087
 20
-2.9117007874015748
 30
0.0
 10
-0.6736653543307087
 20
-2.9117007874015748
 30
0.0
 10
-0.6736653543307087
 20
-2.9117007874015748
 30
0.0
 10
-0.6779291338582677
 20
-2.9290787401574803
 30
0.0
 10
-0.6779291338582677
 20
-2.9290787401574803
 30
0.0
 10
-0.6779291338582677
 20
-2.9290787401574803
 30
0.0
 10
-0.6779291338582677
 20
-2.9290787401574803
 30
0.0
 10
-0.6813897637795275
 20
-2.9461299212598426
 30
0.0
 10
-0.6813897637795275
 20
-2.9461299212598426
 30
0.0
 10
-0.6813897637795275
 20
-2.9461299212598426
 30
0.0
 10
-0.6813897637795275
 20
-2.9461299212598426
 30
0.0
 10
-1.327759842519685
 20
-2.5700433070866144
 30
0.0
 10
-1.327759842519685
 20
-2.5700433070866144
 30
0.0
 10
-1.327759842519685
 20
-2.5700433070866144
 30
0.0
 10
-1.327759842519685
 20
-2.5700433070866144
 30
0.0
 10
-1.3242992125984252
 20
-2.5529921259842521
 30
0.0
 10
-1.3242992125984252
 20
-2.5529921259842521
 30
0.0
 10
-1.3242992125984252
 20
-2.5529921259842521
 30
0.0
 10
-1.3242992125984252
 20
-2.5529921259842521
 30
0.0
 10
-1.3200354330708661
 20
-2.5356141732283466
 30
0.0
 10
-1.3200354330708661
 20
-2.5356141732283466
 30
0.0
  0
SPLINE
  5
70
100
AcDbEntity
  8
Layer 1
 62
     9
100
AcDbSpline
210
0.0
220
0.0
230
1.0
 70
     1
 71
     3
 72
    36
 73
    32
 74
     0
 42
0.0000000001
 43
0.0000000001
 40
0.0
 40
0.0
 40
0.0
 40
0.0
 40
0.125
 40
0.125
 40
0.125
 40
0.125
 40
0.25
 40
0.25
 40
0.25
 40
0.25
 40
0.375
 40
0.375
 40
0.375
 40
0.375
 40
0.5
 40
0.5
 40
0.5
 40
0.5
 40
0.625
 40
0.625
 40
0.625
 40
0.625
 40
0.75
 40
0.75
 40
0.75
 40
0.75
 40
0.875
 40
0.875
 40
0.875
 40
0.875
 40
1.0
 40
1.0
 40
1.0
 40
1.0
 10
-1.327759842519685
 20
-2.5700433070866144
 30
0.0
 10
-1.327759842519685
 20
-2.5700433070866144
 30
0.0
 10
-0.6813897637795275
 20
-2.9461299212598426
 30
0.0
 10
-0.6813897637795275
 20
-2.9461299212598426
 30
0.0
 10
-0.6813897637795275
 20
-2.9461299212598426
 30
0.0
 10
-0.6813897637795275
 20
-2.9461299212598426
 30
0.0
 10
-0.6841417322834646
 20
-2.962751968503937
 30
0.0
 10
-0.6841417322834646
 20
-2.962751968503937
 30
0.0
 10
-0.6841417322834646
 20
-2.962751968503937
 30
0.0
 10
-0.6841417322834646
 20
-2.962751968503937
 30
0.0
 10
-0.686244094488189
 20
-2.9788307086614174
 30
0.0
 10
-0.686244094488189
 20
-2.9788307086614174
 30
0.0
 10
-0.686244094488189
 20
-2.9788307086614174
 30
0.0
 10
-0.686244094488189
 20
-2.9788307086614174
 30
0.0
 10
-0.6877874015748032
 20
-2.9942559055118112
 30
0.0
 10
-0.6877874015748032
 20
-2.9942559055118112
 30
0.0
 10
-0.6877874015748032
 20
-2.9942559055118112
 30
0.0
 10
-0.6877874015748032
 20
-2.9942559055118112
 30
0.0
 10
-1.3341574803149607
 20
-2.6181692913385826
 30
0.0
 10
-1.3341574803149607
 20
-2.6181692913385826
 30
0.0
 10
-1.3341574803149607
 20
-2.6181692913385826
 30
0.0
 10
-1.3341574803149607
 20
-2.6181692913385826
 30
0.0
 10
-1.3326141732283465
 20
-2.6027440944881892
 30
0.0
 10
-1.3326141732283465
 20
-2.6027440944881892
 30
0.0
 10
-1.3326141732283465
 20
-2.6027440944881892
 30
0.0
 10
-1.3326141732283465
 20
-2.6027440944881892
 30
0.0
 10
-1.330511811023622
 20
-2.5866653543307088
 30
0.0
 10
-1.330511811023622
 20
-2.5866653543307088
 30
0.0
 10
-1.330511811023622
 20
-2.5866653543307088
 30
0.0
 10
-1.330511811023622
 20
-2.5866653543307088
 30
0.0
 10
-1.327759842519685
 20
-2.5700433070866144
 30
0.0
 10
-1.327759842519685
 20
-2.5700433070866144
 30
0.0
  0
SPLINE
  5
71
100
AcDbEntity
  8
Layer 1
 62
     9
100
AcDbSpline
210
0.0
220
0.0
230
1.0
 70
     1
 71
     3
 72
    36
 73
    32
 74
     0
 42
0.0000000001
 43
0.0000000001
 40
0.0
 40
0.0
 40
0.0
 40
0.0
 40
0.125
 40
0.125
 40
0.125
 40
0.125
 40
0.25
 40
0.25
 40
0.25
 40
0.25
 40
0.375
 40
0.375
 40
0.375
 40
0.375
 40
0.5
 40
0.5
 40
0.5
 40
0.5
 40
0.625
 40
0.625
 40
0.625
 40
0.625
 40
0.75
 40
0.75
 40
0.75
 40
0.75
 40
0.875
 40
0.875
 40
0.875
 40
0.875
 40
1.0
 40
1.0
 40
1.0
 40
1.0
 10
-1.3341574803149607
 20
-2.6181692913385826
 30
0.0
 10
-1.3341574803149607
 20
-2.6181692913385826
 30
0.0
 10
-0.6877874015748032
 20
-2.9942559055118112
 30
0.0
 10
-0.6877874015748032
 20
-2.9942559055118112
 30
0.0
 10
-0.6877874015748032
 20
-2.9942559055118112
 30
0.0
 10
-0.6877874015748032
 20
-2.9942559055118112
 30
0.0
 10
-0.6888346456692913
 20
-3.0089015748031498
 30
0.0
 10
-0.6888346456692913
 20
-3.0089015748031498
 30
0.0
 10
-0.6888346456692913
 20
-3.0089015748031498
 30
0.0
 10
-0.6888346456692913
 20
-3.0089015748031498
 30
0.0
 10
-0.6894724409448819
 20
-3.022677165354331
 30
0.0
 10
-0.6894724409448819
 20
-3.022677165354331
 30
0.0
 10
-0.6894724409448819
 20
-3.022677165354331
 30
0.0
 10
-0.6894724409448819
 20
-3.022677165354331
 30
0.0
 10
-0.6897755905511811
 20
-3.0354527559055118
 30
0.0
 10
-0.6897755905511811
 20
-3.0354527559055118
 30
0.0
 10
-0.6897755905511811
 20
-3.0354527559055118
 30
0.0
 10
-0.6897755905511811
 20
-3.0354527559055118
 30
0.0
 10
-1.3361456692913387
 20
-2.6593661417322836
 30
0.0
 10
-1.3361456692913387
 20
-2.6593661417322836
 30
0.0
 10
-1.3361456692913387
 20
-2.6593661417322836
 30
0.0
 10
-1.3361456692913387
 20
-2.6593661417322836
 30
0.0
 10
-1.3358425196850394
 20
-2.6465905511811023
 30
0.0
 10
-1.3358425196850394
 20
-2.6465905511811023
 30
0.0
 10
-1.3358425196850394
 20
-2.6465905511811023
 30
0.0
 10
-1.3358425196850394
 20
-2.6465905511811023
 30
0.0
 10
-1.3352047244094489
 20
-2.6328149606299212
 30
0.0
 10
-1.3352047244094489
 20
-2.6328149606299212
 30
0.0
 10
-1.3352047244094489
 20
-2.6328149606299212
 30
0.0
 10
-1.3352047244094489
 20
-2.6328149606299212
 30
0.0
 10
-1.3341574803149607
 20
-2.6181692913385826
 30
0.0
 10
-1.3341574803149607
 20
-2.6181692913385826
 30
0.0
  0
SPLINE
  5
72
100
AcDbEntity
  8
Layer 1
 62
     9
100
AcDbSpline
210
0.0
220
0.0
230
1.0
 70
     1
 71
     3
 72
    52
 73
    48
 74
     0
 42
0.0000000001
 43
0.0000000001
 40
0.0
 40
0.0
 40
0.0
 40
0.0
 40
0.0833333333333333
 40
0.0833333333333333
 40
0.0833333333333333
 40
0.0833333333333333
 40
0.1666666666666667
 40
0.1666666666666667
 40
0.1666666666666667
 40
0.1666666666666667
 40
0.25
 40
0.25
 40
0.25
 40
0.25
 40
0.3333333333333333
 40
0.3333333333333333
 40
0.3333333333333333
 40
0.3333333333333333
 40
0.4166666666666666
 40
0.4166666666666666
 40
0.4166666666666666
 40
0.4166666666666666
 40
0.4999999999999999
 40
0.4999999999999999
 40
0.4999999999999999
 40
0.4999999999999999
 40
0.5833333333333333
 40
0.5833333333333333
 40
0.5833333333333333
 40
0.5833333333333333
 40
0.6666666666666666
 40
0.6666666666666666
 40
0.6666666666666666
 40
0.6666666666666666
 40
0.75
 40
0.75
 40
0.75
 40
0.75
 40
0.8333333333333334
 40
0.8333333333333334
 40
0.8333333333333334
 40
0.8333333333333334
 40
0.9166666666666667
 40
0.9166666666666667
 40
0.9166666666666667
 40
0.9166666666666667
 40
1.0
 40
1.0
 40
1.0
 40
1.0
 10
-1.3361456692913387
 20
-2.6593661417322836
 30
0.0
 10
-1.3361456692913387
 20
-2.6593661417322836
 30
0.0
 10
-0.6897755905511811
 20
-3.0354527559055118
 30
0.0
 10
-0.6897755905511811
 20
-3.0354527559055118
 30
0.0
 10
-0.6897755905511811
 20
-3.0354527559055118
 30
0.0
 10
-0.6897755905511811
 20
-3.0354527559055118
 30
0.0
 10
-0.6898228346456693
 20
-3.0471299212598426
 30
0.0
 10
-0.6898228346456693
 20
-3.0471299212598426
 30
0.0
 10
-0.6898228346456693
 20
-3.0471299212598426
 30
0.0
 10
-0.6898228346456693
 20
-3.0471299212598426
 30
0.0
 10
-0.6896811023622047
 20
-3.0575826771653545
 30
0.0
 10
-0.6896811023622047
 20
-3.0575826771653545
 30
0.0
 10
-0.6896811023622047
 20
-3.0575826771653545
 30
0.0
 10
-0.6896811023622047
 20
-3.0575826771653545
 30
0.0
 10
-0.6894448818897638
 20
-3.0667086614173229
 30
0.0
 10
-0.6894448818897638
 20
-3.0667086614173229
 30
0.0
 10
-0.6894448818897638
 20
-3.0667086614173229
 30
0.0
 10
-0.6894448818897638
 20
-3.0667086614173229
 30
0.0
 10
-0.6891771653543307
 20
-3.0743937007874016
 30
0.0
 10
-0.6891771653543307
 20
-3.0743937007874016
 30
0.0
 10
-0.6891771653543307
 20
-3.0743937007874016
 30
0.0
 10
-0.6891771653543307
 20
-3.0743937007874016
 30
0.0
 10
-0.6889645669291339
 20
-3.0805314960629921
 30
0.0
 10
-0.6889645669291339
 20
-3.0805314960629921
 30
0.0
 10
-0.6889645669291339
 20
-3.0805314960629921
 30
0.0
 10
-0.6889645669291339
 20
-3.0805314960629921
 30
0.0
 10
-1.3353346456692914
 20
-2.704444881889764
 30
0.0
 10
-1.3353346456692914
 20
-2.704444881889764
 30
0.0
 10
-1.3353346456692914
 20
-2.704444881889764
 30
0.0
 10
-1.3353346456692914
 20
-2.704444881889764
 30
0.0
 10
-1.3355472440944882
 20
-2.6983070866141734
 30
0.0
 10
-1.3355472440944882
 20
-2.6983070866141734
 30
0.0
 10
-1.3355472440944882
 20
-2.6983070866141734
 30
0.0
 10
-1.3355472440944882
 20
-2.6983070866141734
 30
0.0
 10
-1.3358149606299212
 20
-2.6906220472440947
 30
0.0
 10
-1.3358149606299212
 20
-2.6906220472440947
 30
0.0
 10
-1.3358149606299212
 20
-2.6906220472440947
 30
0.0
 10
-1.3358149606299212
 20
-2.6906220472440947
 30
0.0
 10
-1.3360511811023623
 20
-2.6814960629921263
 30
0.0
 10
-1.3360511811023623
 20
-2.6814960629921263
 30
0.0
 10
-1.3360511811023623
 20
-2.6814960629921263
 30
0.0
 10
-1.3360511811023623
 20
-2.6814960629921263
 30
0.0
 10
-1.3361929133858268
 20
-2.6710433070866144
 30
0.0
 10
-1.3361929133858268
 20
-2.6710433070866144
 30
0.0
 10
-1.3361929133858268
 20
-2.6710433070866144
 30
0.0
 10
-1.3361929133858268
 20
-2.6710433070866144
 30
0.0
 10
-1.3361456692913387
 20
-2.6593661417322836
 30
0.0
 10
-1.3361456692913387
 20
-2.6593661417322836
 30
0.0
  0
SPLINE
  5
73
100
AcDbEntity
  8
Layer 1
370
     5
100
AcDbSpline
210
0.0
220
0.0
230
1.0
 70
     1
 71
     3
 72
   268
 73
   264
 74
     0
 42
0.0000000001
 43
0.0000000001
 40
0.0
 40
0.0
 40
0.0
 40
0.0
 40
0.0151515151515152
 40
0.0151515151515152
 40
0.0151515151515152
 40
0.0151515151515152
 40
0.0303030303030303
 40
0.0303030303030303
 40
0.0303030303030303
 40
0.0303030303030303
 40
0.0454545454545455
 40
0.0454545454545455
 40
0.0454545454545455
 40
0.0454545454545455
 40
0.0606060606060606
 40
0.0606060606060606
 40
0.0606060606060606
 40
0.0606060606060606
 40
0.0757575757575758
 40
0.0757575757575758
 40
0.0757575757575758
 40
0.0757575757575758
 40
0.0909090909090909
 40
0.0909090909090909
 40
0.0909090909090909
 40
0.0909090909090909
 40
0.1060606060606061
 40
0.1060606060606061
 40
0.1060606060606061
 40
0.1060606060606061
 40
0.1212121212121212
 40
0.1212121212121212
 40
0.1212121212121212
 40
0.1212121212121212
 40
0.1363636363636364
 40
0.1363636363636364
 40
0.1363636363636364
 40
0.1363636363636364
 40
0.1515151515151515
 40
0.1515151515151515
 40
0.1515151515151515
 40
0.1515151515151515
 40
0.1666666666666666
 40
0.1666666666666666
 40
0.1666666666666666
 40
0.1666666666666666
 40
0.1818181818181818
 40
0.1818181818181818
 40
0.1818181818181818
 40
0.1818181818181818
 40
0.1969696969696969
 40
0.1969696969696969
 40
0.1969696969696969
 40
0.1969696969696969
 40
0.212121212121212
 40
0.212121212121212
 40
0.212121212121212
 40
0.212121212121212
 40
0.2272727272727272
 40
0.2272727272727272
 40
0.2272727272727272
 40
0.2272727272727272
 40
0.2424242424242423
 40
0.2424242424242423
 40
0.2424242424242423
 40
0.2424242424242423
 40
0.2575757575757575
 40
0.2575757575757575
 40
0.2575757575757575
 40
0.2575757575757575
 40
0.2727272727272726
 40
0.2727272727272726
 40
0.2727272727272726
 40
0.2727272727272726
 40
0.2878787878787877
 40
0.2878787878787877
 40
0.2878787878787877
 40
0.2878787878787877
 40
0.3030303030303029
 40
0.3030303030303029
 40
0.3030303030303029
 40
0.3030303030303029
 40
0.318181818181818
 40
0.318181818181818
 40
0.318181818181818
 40
0.318181818181818
 40
0.3333333333333332
 40
0.3333333333333332
 40
0.3333333333333332
 40
0.3333333333333332
 40
0.3484848484848483
 40
0.3484848484848483
 40
0.3484848484848483
 40
0.3484848484848483
 40
0.3636363636363634
 40
0.3636363636363634
 40
0.3636363636363634
 40
0.3636363636363634
 40
0.3787878787878786
 40
0.3787878787878786
 40
0.3787878787878786
 40
0.3787878787878786
 40
0.3939393939393937
 40
0.3939393939393937
 40
0.3939393939393937
 40
0.3939393939393937
 40
0.4090909090909088
 40
0.4090909090909088
 40
0.4090909090909088
 40
0.4090909090909088
 40
0.424242424242424
 40
0.424242424242424
 40
0.424242424242424
 40
0.424242424242424
 40
0.4393939393939391
 40
0.4393939393939391
 40
0.4393939393939391
 40
0.4393939393939391
 40
0.4545454545454543
 40
0.4545454545454543
 40
0.4545454545454543
 40
0.4545454545454543
 40
0.4696969696969694
 40
0.4696969696969694
 40
0.4696969696969694
 40
0.4696969696969694
 40
0.4848484848484845
 40
0.4848484848484845
 40
0.4848484848484845
 40
0.4848484848484845
 40
0.4999999999999997
 40
0.4999999999999997
 40
0.4999999999999997
 40
0.4999999999999997
 40
0.5151515151515148
 40
0.5151515151515148
 40
0.5151515151515148
 40
0.5151515151515148
 40
0.5303030303030299
 40
0.5303030303030299
 40
0.5303030303030299
 40
0.5303030303030299
 40
0.5454545454545451
 40
0.5454545454545451
 40
0.5454545454545451
 40
0.5454545454545451
 40
0.5606060606060602
 40
0.5606060606060602
 40
0.5606060606060602
 40
0.5606060606060602
 40
0.5757575757575754
 40
0.5757575757575754
 40
0.5757575757575754
 40
0.5757575757575754
 40
0.5909090909090905
 40
0.5909090909090905
 40
0.5909090909090905
 40
0.5909090909090905
 40
0.6060606060606056
 40
0.6060606060606056
 40
0.6060606060606056
 40
0.6060606060606056
 40
0.6212121212121208
 40
0.6212121212121208
 40
0.6212121212121208
 40
0.6212121212121208
 40
0.6363636363636359
 40
0.6363636363636359
 40
0.6363636363636359
 40
0.6363636363636359
 40
0.6515151515151511
 40
0.6515151515151511
 40
0.6515151515151511
 40
0.6515151515151511
 40
0.6666666666666662
 40
0.6666666666666662
 40
0.6666666666666662
 40
0.6666666666666662
 40
0.6818181818181813
 40
0.6818181818181813
 40
0.6818181818181813
 40
0.6818181818181813
 40
0.6969696969696965
 40
0.6969696969696965
 40
0.6969696969696965
 40
0.6969696969696965
 40
0.7121212121212116
 40
0.7121212121212116
 40
0.7121212121212116
 40
0.7121212121212116
 40
0.7272727272727267
 40
0.7272727272727267
 40
0.7272727272727267
 40
0.7272727272727267
 40
0.7424242424242419
 40
0.7424242424242419
 40
0.7424242424242419
 40
0.7424242424242419
 40
0.757575757575757
 40
0.757575757575757
 40
0.757575757575757
 40
0.757575757575757
 40
0.7727272727272722
 40
0.7727272727272722
 40
0.7727272727272722
 40
0.7727272727272722
 40
0.7878787878787873
 40
0.7878787878787873
 40
0.7878787878787873
 40
0.7878787878787873
 40
0.8030303030303024
 40
0.8030303030303024
 40
0.8030303030303024
 40
0.8030303030303024
 40
0.8181818181818176
 40
0.8181818181818176
 40
0.8181818181818176
 40
0.8181818181818176
 40
0.8333333333333327
 40
0.8333333333333327
 40
0.8333333333333327
 40
0.8333333333333327
 40
0.8484848484848478
 40
0.8484848484848478
 40
0.8484848484848478
 40
0.8484848484848478
 40
0.863636363636363
 40
0.863636363636363
 40
0.863636363636363
 40
0.863636363636363
 40
0.8787878787878781
 40
0.8787878787878781
 40
0.8787878787878781
 40
0.8787878787878781
 40
0.8939393939393933
 40
0.8939393939393933
 40
0.8939393939393933
 40
0.8939393939393933
 40
0.9090909090909084
 40
0.9090909090909084
 40
0.9090909090909084
 40
0.9090909090909084
 40
0.9242424242424235
 40
0.9242424242424235
 40
0.9242424242424235
 40
0.9242424242424235
 40
0.9393939393939387
 40
0.9393939393939387
 40
0.9393939393939387
 40
0.9393939393939387
 40
0.9545454545454538
 40
0.9545454545454538
 40
0.9545454545454538
 40
0.9545454545454538
 40
0.969696969696969
 40
0.969696969696969
 40
0.969696969696969
 40
0.969696969696969
 40
0.9848484848484841
 40
0.9848484848484841
 40
0.9848484848484841
 40
0.9848484848484841
 40
1.0
 40
1.0
 40
1.0
 40
1.0
 10
-0.9854330708661417
 20
-2.2936417322834646
 30
0.0
 10
-0.9854330708661417
 20
-2.2936417322834646
 30
0.0
 10
-0.3390629921259843
 20
-2.6697283464566932
 30
0.0
 10
-0.3390629921259843
 20
-2.6697283464566932
 30
0.0
 10
-0.3390629921259843
 20
-2.6697283464566932
 30
0.0
 10
-0.3390629921259843
 20
-2.6697283464566932
 30
0.0
 10
-0.3730669291338583
 20
-2.6718937007874017
 30
0.0
 10
-0.3730669291338583
 20
-2.6718937007874017
 30
0.0
 10
-0.3730669291338583
 20
-2.6718937007874017
 30
0.0
 10
-0.3730669291338583
 20
-2.6718937007874017
 30
0.0
 10
-0.4048149606299213
 20
-2.6758779527559056
 30
0.0
 10
-0.4048149606299213
 20
-2.6758779527559056
 30
0.0
 10
-0.4048149606299213
 20
-2.6758779527559056
 30
0.0
 10
-0.4048149606299213
 20
-2.6758779527559056
 30
0.0
 10
-0.4343818897637796
 20
-2.6815511811023622
 30
0.0
 10
-0.4343818897637796
 20
-2.6815511811023622
 30
0.0
 10
-0.4343818897637796
 20
-2.6815511811023622
 30
0.0
 10
-0.4343818897637796
 20
-2.6815511811023622
 30
0.0
 10
-0.4618543307086614
 20
-2.6888188976377956
 30
0.0
 10
-0.4618543307086614
 20
-2.6888188976377956
 30
0.0
 10
-0.4618543307086614
 20
-2.6888188976377956
 30
0.0
 10
-0.4618543307086614
 20
-2.6888188976377956
 30
0.0
 10
-0.4872874015748032
 20
-2.6975472440944883
 30
0.0
 10
-0.4872874015748032
 20
-2.6975472440944883
 30
0.0
 10
-0.4872874015748032
 20
-2.6975472440944883
 30
0.0
 10
-0.4872874015748032
 20
-2.6975472440944883
 30
0.0
 10
-0.5107755905511812
 20
-2.7076456692913387
 30
0.0
 10
-0.5107755905511812
 20
-2.7076456692913387
 30
0.0
 10
-0.5107755905511812
 20
-2.7076456692913387
 30
0.0
 10
-0.5107755905511812
 20
-2.7076456692913387
 30
0.0
 10
-0.5323897637795276
 20
-2.7189881889763781
 30
0.0
 10
-0.5323897637795276
 20
-2.7189881889763781
 30
0.0
 10
-0.5323897637795276
 20
-2.7189881889763781
 30
0.0
 10
-0.5323897637795276
 20
-2.7189881889763781
 30
0.0
 10
-0.5522165354330709
 20
-2.731476377952756
 30
0.0
 10
-0.5522165354330709
 20
-2.731476377952756
 30
0.0
 10
-0.5522165354330709
 20
-2.731476377952756
 30
0.0
 10
-0.5522165354330709
 20
-2.731476377952756
 30
0.0
 10
-0.5703110236220472
 20
-2.7449763779527561
 30
0.0
 10
-0.5703110236220472
 20
-2.7449763779527561
 30
0.0
 10
-0.5703110236220472
 20
-2.7449763779527561
 30
0.0
 10
-0.5703110236220472
 20
-2.7449763779527561
 30
0.0
 10
-0.5867716535433071
 20
-2.7593937007874016
 30
0.0
 10
-0.5867716535433071
 20
-2.7593937007874016
 30
0.0
 10
-0.5867716535433071
 20
-2.7593937007874016
 30
0.0
 10
-0.5867716535433071
 20
-2.7593937007874016
 30
0.0
 10
-0.6016614173228346
 20
-2.7746102362204725
 30
0.0
 10
-0.6016614173228346
 20
-2.7746102362204725
 30
0.0
 10
-0.6016614173228346
 20
-2.7746102362204725
 30
0.0
 10
-0.6016614173228346
 20
-2.7746102362204725
 30
0.0
 10
-0.6150669291338583
 20
-2.7905157480314964
 30
0.0
 10
-0.6150669291338583
 20
-2.7905157480314964
 30
0.0
 10
-0.6150669291338583
 20
-2.7905157480314964
 30
0.0
 10
-0.6150669291338583
 20
-2.7905157480314964
 30
0.0
 10
-0.6270551181102363
 20
-2.8069921259842521
 30
0.0
 10
-0.6270551181102363
 20
-2.8069921259842521
 30
0.0
 10
-0.6270551181102363
 20
-2.8069921259842521
 30
0.0
 10
-0.6270551181102363
 20
-2.8069921259842521
 30
0.0
 10
-0.6377165354330709
 20
-2.82394094488189
 30
0.0
 10
-0.6377165354330709
 20
-2.82394094488189
 30
0.0
 10
-0.6377165354330709
 20
-2.82394094488189
 30
0.0
 10
-0.6377165354330709
 20
-2.82394094488189
 30
0.0
 10
-0.6471141732283465
 20
-2.8412362204724411
 30
0.0
 10
-0.6471141732283465
 20
-2.8412362204724411
 30
0.0
 10
-0.6471141732283465
 20
-2.8412362204724411
 30
0.0
 10
-0.6471141732283465
 20
-2.8412362204724411
 30
0.0
 10
-0.6553346456692913
 20
-2.8587795275590553
 30
0.0
 10
-0.6553346456692913
 20
-2.8587795275590553
 30
0.0
 10
-0.6553346456692913
 20
-2.8587795275590553
 30
0.0
 10
-0.6553346456692913
 20
-2.8587795275590553
 30
0.0
 10
-0.6624409448818898
 20
-2.8764370078740158
 30
0.0
 10
-0.6624409448818898
 20
-2.8764370078740158
 30
0.0
 10
-0.6624409448818898
 20
-2.8764370078740158
 30
0.0
 10
-0.6624409448818898
 20
-2.8764370078740158
 30
0.0
 10
-0.6685314960629921
 20
-2.8941181102362208
 30
0.0
 10
-0.6685314960629921
 20
-2.8941181102362208
 30
0.0
 10
-0.6685314960629921
 20
-2.8941181102362208
 30
0.0
 10
-0.6685314960629921
 20
-2.8941181102362208
 30
0.0
 10
-0.6736653543307087
 20
-2.9117007874015748
 30
0.0
 10
-0.6736653543307087
 20
-2.9117007874015748
 30
0.0
 10
-0.6736653543307087
 20
-2.9117007874015748
 30
0.0
 10
-0.6736653543307087
 20
-2.9117007874015748
 30
0.0
 10
-0.6779291338582677
 20
-2.9290787401574803
 30
0.0
 10
-0.6779291338582677
 20
-2.9290787401574803
 30
0.0
 10
-0.6779291338582677
 20
-2.9290787401574803
 30
0.0
 10
-0.6779291338582677
 20
-2.9290787401574803
 30
0.0
 10
-0.6813897637795275
 20
-2.9461299212598426
 30
0.0
 10
-0.6813897637795275
 20
-2.9461299212598426
 30
0.0
 10
-0.6813897637795275
 20
-2.9461299212598426
 30
0.0
 10
-0.6813897637795275
 20
-2.9461299212598426
 30
0.0
 10
-0.6841417322834646
 20
-2.962751968503937
 30
0.0
 10
-0.6841417322834646
 20
-2.962751968503937
 30
0.0
 10
-0.6841417322834646
 20
-2.962751968503937
 30
0.0
 10
-0.6841417322834646
 20
-2.962751968503937
 30
0.0
 10
-0.686244094488189
 20
-2.9788307086614174
 30
0.0
 10
-0.686244094488189
 20
-2.9788307086614174
 30
0.0
 10
-0.686244094488189
 20
-2.9788307086614174
 30
0.0
 10
-0.686244094488189
 20
-2.9788307086614174
 30
0.0
 10
-0.6877874015748032
 20
-2.9942559055118112
 30
0.0
 10
-0.6877874015748032
 20
-2.9942559055118112
 30
0.0
 10
-0.6877874015748032
 20
-2.9942559055118112
 30
0.0
 10
-0.6877874015748032
 20
-2.9942559055118112
 30
0.0
 10
-0.6888346456692913
 20
-3.0089015748031498
 30
0.0
 10
-0.6888346456692913
 20
-3.0089015748031498
 30
0.0
 10
-0.6888346456692913
 20
-3.0089015748031498
 30
0.0
 10
-0.6888346456692913
 20
-3.0089015748031498
 30
0.0
 10
-0.6894724409448819
 20
-3.022677165354331
 30
0.0
 10
-0.6894724409448819
 20
-3.022677165354331
 30
0.0
 10
-0.6894724409448819
 20
-3.022677165354331
 30
0.0
 10
-0.6894724409448819
 20
-3.022677165354331
 30
0.0
 10
-0.6897755905511811
 20
-3.0354527559055118
 30
0.0
 10
-0.6897755905511811
 20
-3.0354527559055118
 30
0.0
 10
-0.6897755905511811
 20
-3.0354527559055118
 30
0.0
 10
-0.6897755905511811
 20
-3.0354527559055118
 30
0.0
 10
-0.6898228346456693
 20
-3.0471299212598426
 30
0.0
 10
-0.6898228346456693
 20
-3.0471299212598426
 30
0.0
 10
-0.6898228346456693
 20
-3.0471299212598426
 30
0.0
 10
-0.6898228346456693
 20
-3.0471299212598426
 30
0.0
 10
-0.6896811023622047
 20
-3.0575826771653545
 30
0.0
 10
-0.6896811023622047
 20
-3.0575826771653545
 30
0.0
 10
-0.6896811023622047
 20
-3.0575826771653545
 30
0.0
 10
-0.6896811023622047
 20
-3.0575826771653545
 30
0.0
 10
-0.6894448818897638
 20
-3.0667086614173229
 30
0.0
 10
-0.6894448818897638
 20
-3.0667086614173229
 30
0.0
 10
-0.6894448818897638
 20
-3.0667086614173229
 30
0.0
 10
-0.6894448818897638
 20
-3.0667086614173229
 30
0.0
 10
-0.6891771653543307
 20
-3.0743937007874016
 30
0.0
 10
-0.6891771653543307
 20
-3.0743937007874016
 30
0.0
 10
-0.6891771653543307
 20
-3.0743937007874016
 30
0.0
 10
-0.6891771653543307
 20
-3.0743937007874016
 30
0.0
 10
-0.6889645669291339
 20
-3.0805314960629921
 30
0.0
 10
-0.6889645669291339
 20
-3.0805314960629921
 30
0.0
 10
-0.6889645669291339
 20
-3.0805314960629921
 30
0.0
 10
-0.6889645669291339
 20
-3.0805314960629921
 30
0.0
 10
-1.3353346456692914
 20
-2.704444881889764
 30
0.0
 10
-1.3353346456692914
 20
-2.704444881889764
 30
0.0
 10
-1.3353346456692914
 20
-2.704444881889764
 30
0.0
 10
-1.3353346456692914
 20
-2.704444881889764
 30
0.0
 10
-1.3355472440944882
 20
-2.6983070866141734
 30
0.0
 10
-1.3355472440944882
 20
-2.6983070866141734
 30
0.0
 10
-1.3355472440944882
 20
-2.6983070866141734
 30
0.0
 10
-1.3355472440944882
 20
-2.6983070866141734
 30
0.0
 10
-1.3358149606299212
 20
-2.6906220472440947
 30
0.0
 10
-1.3358149606299212
 20
-2.6906220472440947
 30
0.0
 10
-1.3358149606299212
 20
-2.6906220472440947
 30
0.0
 10
-1.3358149606299212
 20
-2.6906220472440947
 30
0.0
 10
-1.3360511811023623
 20
-2.6814960629921263
 30
0.0
 10
-1.3360511811023623
 20
-2.6814960629921263
 30
0.0
 10
-1.3360511811023623
 20
-2.6814960629921263
 30
0.0
 10
-1.3360511811023623
 20
-2.6814960629921263
 30
0.0
 10
-1.3361929133858268
 20
-2.6710433070866144
 30
0.0
 10
-1.3361929133858268
 20
-2.6710433070866144
 30
0.0
 10
-1.3361929133858268
 20
-2.6710433070866144
 30
0.0
 10
-1.3361929133858268
 20
-2.6710433070866144
 30
0.0
 10
-1.3361456692913387
 20
-2.6593661417322836
 30
0.0
 10
-1.3361456692913387
 20
-2.6593661417322836
 30
0.0
 10
-1.3361456692913387
 20
-2.6593661417322836
 30
0.0
 10
-1.3361456692913387
 20
-2.6593661417322836
 30
0.0
 10
-1.3358425196850394
 20
-2.6465905511811023
 30
0.0
 10
-1.3358425196850394
 20
-2.6465905511811023
 30
0.0
 10
-1.3358425196850394
 20
-2.6465905511811023
 30
0.0
 10
-1.3358425196850394
 20
-2.6465905511811023
 30
0.0
 10
-1.3352047244094489
 20
-2.6328149606299212
 30
0.0
 10
-1.3352047244094489
 20
-2.6328149606299212
 30
0.0
 10
-1.3352047244094489
 20
-2.6328149606299212
 30
0.0
 10
-1.3352047244094489
 20
-2.6328149606299212
 30
0.0
 10
-1.3341574803149607
 20
-2.6181692913385826
 30
0.0
 10
-1.3341574803149607
 20
-2.6181692913385826
 30
0.0
 10
-1.3341574803149607
 20
-2.6181692913385826
 30
0.0
 10
-1.3341574803149607
 20
-2.6181692913385826
 30
0.0
 10
-1.3326141732283465
 20
-2.6027440944881892
 30
0.0
 10
-1.3326141732283465
 20
-2.6027440944881892
 30
0.0
 10
-1.3326141732283465
 20
-2.6027440944881892
 30
0.0
 10
-1.3326141732283465
 20
-2.6027440944881892
 30
0.0
 10
-1.330511811023622
 20
-2.5866653543307088
 30
0.0
 10
-1.330511811023622
 20
-2.5866653543307088
 30
0.0
 10
-1.330511811023622
 20
-2.5866653543307088
 30
0.0
 10
-1.330511811023622
 20
-2.5866653543307088
 30
0.0
 10
-1.327759842519685
 20
-2.5700433070866144
 30
0.0
 10
-1.327759842519685
 20
-2.5700433070866144
 30
0.0
 10
-1.327759842519685
 20
-2.5700433070866144
 30
0.0
 10
-1.327759842519685
 20
-2.5700433070866144
 30
0.0
 10
-1.3242992125984252
 20
-2.5529921259842521
 30
0.0
 10
-1.3242992125984252
 20
-2.5529921259842521
 30
0.0
 10
-1.3242992125984252
 20
-2.5529921259842521
 30
0.0
 10
-1.3242992125984252
 20
-2.5529921259842521
 30
0.0
 10
-1.3200354330708661
 20
-2.5356141732283466
 30
0.0
 10
-1.3200354330708661
 20
-2.5356141732283466
 30
0.0
 10
-1.3200354330708661
 20
-2.5356141732283466
 30
0.0
 10
-1.3200354330708661
 20
-2.5356141732283466
 30
0.0
 10
-1.3149015748031496
 20
-2.5180314960629921
 30
0.0
 10
-1.3149015748031496
 20
-2.5180314960629921
 30
0.0
 10
-1.3149015748031496
 20
-2.5180314960629921
 30
0.0
 10
-1.3149015748031496
 20
-2.5180314960629921
 30
0.0
 10
-1.3088110236220474
 20
-2.5003503937007876
 30
0.0
 10
-1.3088110236220474
 20
-2.5003503937007876
 30
0.0
 10
-1.3088110236220474
 20
-2.5003503937007876
 30
0.0
 10
-1.3088110236220474
 20
-2.5003503937007876
 30
0.0
 10
-1.3017047244094488
 20
-2.4826929133858266
 30
0.0
 10
-1.3017047244094488
 20
-2.4826929133858266
 30
0.0
 10
-1.3017047244094488
 20
-2.4826929133858266
 30
0.0
 10
-1.3017047244094488
 20
-2.4826929133858266
 30
0.0
 10
-1.2934842519685039
 20
-2.4651496062992129
 30
0.0
 10
-1.2934842519685039
 20
-2.4651496062992129
 30
0.0
 10
-1.2934842519685039
 20
-2.4651496062992129
 30
0.0
 10
-1.2934842519685039
 20
-2.4651496062992129
 30
0.0
 10
-1.2840866141732283
 20
-2.4478543307086613
 30
0.0
 10
-1.2840866141732283
 20
-2.4478543307086613
 30
0.0
 10
-1.2840866141732283
 20
-2.4478543307086613
 30
0.0
 10
-1.2840866141732283
 20
-2.4478543307086613
 30
0.0
 10
-1.2734251968503938
 20
-2.4309055118110239
 30
0.0
 10
-1.2734251968503938
 20
-2.4309055118110239
 30
0.0
 10
-1.2734251968503938
 20
-2.4309055118110239
 30
0.0
 10
-1.2734251968503938
 20
-2.4309055118110239
 30
0.0
 10
-1.2614370078740158
 20
-2.4144291338582677
 30
0.0
 10
-1.2614370078740158
 20
-2.4144291338582677
 30
0.0
 10
-1.2614370078740158
 20
-2.4144291338582677
 30
0.0
 10
-1.2614370078740158
 20
-2.4144291338582677
 30
0.0
 10
-1.2480314960629921
 20
-2.3985236220472443
 30
0.0
 10
-1.2480314960629921
 20
-2.3985236220472443
 30
0.0
 10
-1.2480314960629921
 20
-2.3985236220472443
 30
0.0
 10
-1.2480314960629921
 20
-2.3985236220472443
 30
0.0
 10
-1.2331417322834646
 20
-2.3833070866141735
 30
0.0
 10
-1.2331417322834646
 20
-2.3833070866141735
 30
0.0
 10
-1.2331417322834646
 20
-2.3833070866141735
 30
0.0
 10
-1.2331417322834646
 20
-2.3833070866141735
 30
0.0
 10
-1.2166811023622048
 20
-2.3688897637795279
 30
0.0
 10
-1.2166811023622048
 20
-2.3688897637795279
 30
0.0
 10
-1.2166811023622048
 20
-2.3688897637795279
 30
0.0
 10
-1.2166811023622048
 20
-2.3688897637795279
 30
0.0
 10
-1.1985866141732284
 20
-2.3553897637795278
 30
0.0
 10
-1.1985866141732284
 20
-2.3553897637795278
 30
0.0
 10
-1.1985866141732284
 20
-2.3553897637795278
 30
0.0
 10
-1.1985866141732284
 20
-2.3553897637795278
 30
0.0
 10
-1.178759842519685
 20
-2.3429015748031499
 30
0.0
 10
-1.178759842519685
 20
-2.3429015748031499
 30
0.0
 10
-1.178759842519685
 20
-2.3429015748031499
 30
0.0
 10
-1.178759842519685
 20
-2.3429015748031499
 30
0.0
 10
-1.1571456692913387
 20
-2.3315590551181105
 30
0.0
 10
-1.1571456692913387
 20
-2.3315590551181105
 30
0.0
 10
-1.1571456692913387
 20
-2.3315590551181105
 30
0.0
 10
-1.1571456692913387
 20
-2.3315590551181105
 30
0.0
 10
-1.1336574803149606
 20
-2.3214606299212601
 30
0.0
 10
-1.1336574803149606
 20
-2.3214606299212601
 30
0.0
 10
-1.1336574803149606
 20
-2.3214606299212601
 30
0.0
 10
-1.1336574803149606
 20
-2.3214606299212601
 30
0.0
 10
-1.1082244094488189
 20
-2.3127322834645669
 30
0.0
 10
-1.1082244094488189
 20
-2.3127322834645669
 30
0.0
 10
-1.1082244094488189
 20
-2.3127322834645669
 30
0.0
 10
-1.1082244094488189
 20
-2.3127322834645669
 30
0.0
 10
-1.0807519685039371
 20
-2.305464566929134
 30
0.0
 10
-1.0807519685039371
 20
-2.305464566929134
 30
0.0
 10
-1.0807519685039371
 20
-2.305464566929134
 30
0.0
 10
-1.0807519685039371
 20
-2.305464566929134
 30
0.0
 10
-1.0511850393700788
 20
-2.2997913385826774
 30
0.0
 10
-1.0511850393700788
 20
-2.2997913385826774
 30
0.0
 10
-1.0511850393700788
 20
-2.2997913385826774
 30
0.0
 10
-1.0511850393700788
 20
-2.2997913385826774
 30
0.0
 10
-1.0194370078740158
 20
-2.2958070866141731
 30
0.0
 10
-1.0194370078740158
 20
-2.2958070866141731
 30
0.0
 10
-1.0194370078740158
 20
-2.2958070866141731
 30
0.0
 10
-1.0194370078740158
 20
-2.2958070866141731
 30
0.0
 10
-0.9854330708661417
 20
-2.2936417322834646
 30
0.0
 10
-0.9854330708661417
 20
-2.2936417322834646
 30
0.0
  0
SPLINE
  5
74
100
AcDbEntity
  8
Layer 1
 62
     9
100
AcDbSpline
210
0.0
220
0.0
230
1.0
 70
     1
 71
     3
 72
    20
 73
    16
 74
     0
 42
0.0000000001
 43
0.0000000001
 40
0.0
 40
0.0
 40
0.0
 40
0.0
 40
0.25
 40
0.25
 40
0.25
 40
0.25
 40
0.5
 40
0.5
 40
0.5
 40
0.5
 40
0.75
 40
0.75
 40
0.75
 40
0.75
 40
1.0
 40
1.0
 40
1.0
 40
1.0
 10
-1.3353346456692914
 20
-2.704444881889764
 30
0.0
 10
-1.3353346456692914
 20
-2.704444881889764
 30
0.0
 10
-0.6889645669291339
 20
-3.0805314960629921
 30
0.0
 10
-0.6889645669291339
 20
-3.0805314960629921
 30
0.0
 10
-0.6889645669291339
 20
-3.0805314960629921
 30
0.0
 10
-0.6889645669291339
 20
-3.0805314960629921
 30
0.0
 10
-0.9389645669291339
 20
-3.0805314960629921
 30
0.0
 10
-0.9389645669291339
 20
-3.0805314960629921
 30
0.0
 10
-0.9389645669291339
 20
-3.0805314960629921
 30
0.0
 10
-0.9389645669291339
 20
-3.0805314960629921
 30
0.0
 10
-1.5853346456692914
 20
-2.704444881889764
 30
0.0
 10
-1.5853346456692914
 20
-2.704444881889764
 30
0.0
 10
-1.5853346456692914
 20
-2.704444881889764
 30
0.0
 10
-1.5853346456692914
 20
-2.704444881889764
 30
0.0
 10
-1.3353346456692914
 20
-2.704444881889764
 30
0.0
 10
-1.3353346456692914
 20
-2.704444881889764
 30
0.0
  0
SPLINE
  5
75
100
AcDbEntity
  8
Layer 1
370
     5
100
AcDbSpline
210
0.0
220
0.0
230
1.0
 70
     1
 71
     3
 72
    20
 73
    16
 74
     0
 42
0.0000000001
 43
0.0000000001
 40
0.0
 40
0.0
 40
0.0
 40
0.0
 40
0.25
 40
0.25
 40
0.25
 40
0.25
 40
0.5
 40
0.5
 40
0.5
 40
0.5
 40
0.75
 40
0.75
 40
0.75
 40
0.75
 40
1.0
 40
1.0
 40
1.0
 40
1.0
 10
-1.3353346456692914
 20
-2.704444881889764
 30
0.0
 10
-1.3353346456692914
 20
-2.704444881889764
 30
0.0
 10
-0.6889645669291339
 20
-3.0805314960629921
 30
0.0
 10
-0.6889645669291339
 20
-3.0805314960629921
 30
0.0
 10
-0.6889645669291339
 20
-3.0805314960629921
 30
0.0
 10
-0.6889645669291339
 20
-3.0805314960629921
 30
0.0
 10
-0.9389645669291339
 20
-3.0805314960629921
 30
0.0
 10
-0.9389645669291339
 20
-3.0805314960629921
 30
0.0
 10
-0.9389645669291339
 20
-3.0805314960629921
 30
0.0
 10
-0.9389645669291339
 20
-3.0805314960629921
 30
0.0
 10
-1.5853346456692914
 20
-2.704444881889764
 30
0.0
 10
-1.5853346456692914
 20
-2.704444881889764
 30
0.0
 10
-1.5853346456692914
 20
-2.704444881889764
 30
0.0
 10
-1.5853346456692914
 20
-2.704444881889764
 30
0.0
 10
-1.3353346456692914
 20
-2.704444881889764
 30
0.0
 10
-1.3353346456692914
 20
-2.704444881889764
 30
0.0
  0
SPLINE
  5
76
100
AcDbEntity
  8
Layer 1
 62
     9
100
AcDbSpline
210
0.0
220
0.0
230
1.0
 70
     1
 71
     3
 72
    20
 73
    16
 74
     0
 42
0.0000000001
 43
0.0000000001
 40
0.0
 40
0.0
 40
0.0
 40
0.0
 40
0.25
 40
0.25
 40
0.25
 40
0.25
 40
0.5
 40
0.5
 40
0.5
 40
0.5
 40
0.75
 40
0.75
 40
0.75
 40
0.75
 40
1.0
 40
1.0
 40
1.0
 40
1.0
 10
0.3329881889763779
 20
1.2955551181102363
 30
0.0
 10
0.3329881889763779
 20
1.2955551181102363
 30
0.0
 10
0.9793582677165355
 20
0.919468503937008
 30
0.0
 10
0.9793582677165355
 20
0.919468503937008
 30
0.0
 10
0.9793582677165355
 20
0.919468503937008
 30
0.0
 10
0.9793582677165355
 20
0.919468503937008
 30
0.0
 10
0.9793582677165355
 20
0.2497992125984252
 30
0.0
 10
0.9793582677165355
 20
0.2497992125984252
 30
0.0
 10
0.9793582677165355
 20
0.2497992125984252
 30
0.0
 10
0.9793582677165355
 20
0.2497992125984252
 30
0.0
 10
0.3329881889763779
 20
0.6258858267716536
 30
0.0
 10
0.3329881889763779
 20
0.6258858267716536
 30
0.0
 10
0.3329881889763779
 20
0.6258858267716536
 30
0.0
 10
0.3329881889763779
 20
0.6258858267716536
 30
0.0
 10
0.3329881889763779
 20
1.2955551181102363
 30
0.0
 10
0.3329881889763779
 20
1.2955551181102363
 30
0.0
  0
SPLINE
  5
77
100
AcDbEntity
  8
Layer 1
370
     5
100
AcDbSpline
210
0.0
220
0.0
230
1.0
 70
     1
 71
     3
 72
    20
 73
    16
 74
     0
 42
0.0000000001
 43
0.0000000001
 40
0.0
 40
0.0
 40
0.0
 40
0.0
 40
0.25
 40
0.25
 40
0.25
 40
0.25
 40
0.5
 40
0.5
 40
0.5
 40
0.5
 40
0.75
 40
0.75
 40
0.75
 40
0.75
 40
1.0
 40
1.0
 40
1.0
 40
1.0
 10
0.3329881889763779
 20
1.2955551181102363
 30
0.0
 10
0.3329881889763779
 20
1.2955551181102363
 30
0.0
 10
0.9793582677165355
 20
0.919468503937008
 30
0.0
 10
0.9793582677165355
 20
0.919468503937008
 30
0.0
 10
0.9793582677165355
 20
0.919468503937008
 30
0.0
 10
0.9793582677165355
 20
0.919468503937008
 30
0.0
 10
0.9793582677165355
 20
0.2497992125984252
 30
0.0
 10
0.9793582677165355
 20
0.2497992125984252
 30
0.0
 10
0.9793582677165355
 20
0.2497992125984252
 30
0.0
 10
0.9793582677165355
 20
0.2497992125984252
 30
0.0
 10
0.3329881889763779
 20
0.6258858267716536
 30
0.0
 10
0.3329881889763779
 20
0.6258858267716536
 30
0.0
 10
0.3329881889763779
 20
0.6258858267716536
 30
0.0
 10
0.3329881889763779
 20
0.6258858267716536
 30
0.0
 10
0.3329881889763779
 20
1.2955551181102363
 30
0.0
 10
0.3329881889763779
 20
1.2955551181102363
 30
0.0
  0
SPLINE
  5
78
100
AcDbEntity
  8
Layer 1
 62
     9
100
AcDbSpline
210
0.0
220
0.0
230
1.0
 70
     1
 71
     3
 72
    28
 73
    24
 74
     0
 42
0.0000000001
 43
0.0000000001
 40
0.0
 40
0.0
 40
0.0
 40
0.0
 40
0.1666666666666667
 40
0.1666666666666667
 40
0.1666666666666667
 40
0.1666666666666667
 40
0.3333333333333333
 40
0.3333333333333333
 40
0.3333333333333333
 40
0.3333333333333333
 40
0.5
 40
0.5
 40
0.5
 40
0.5
 40
0.6666666666666666
 40
0.6666666666666666
 40
0.6666666666666666
 40
0.6666666666666666
 40
0.8333333333333333
 40
0.8333333333333333
 40
0.8333333333333333
 40
0.8333333333333333
 40
1.0
 40
1.0
 40
1.0
 40
1.0
 10
0.3329881889763779
 20
0.6258858267716536
 30
0.0
 10
0.3329881889763779
 20
0.6258858267716536
 30
0.0
 10
0.9793582677165355
 20
0.2497992125984252
 30
0.0
 10
0.9793582677165355
 20
0.2497992125984252
 30
0.0
 10
0.9793582677165355
 20
0.2497992125984252
 30
0.0
 10
0.9793582677165355
 20
0.2497992125984252
 30
0.0
 10
0.9597598425196851
 20
0.2467322834645669
 30
0.0
 10
0.9597598425196851
 20
0.2467322834645669
 30
0.0
 10
0.9597598425196851
 20
0.2467322834645669
 30
0.0
 10
0.9597598425196851
 20
0.2467322834645669
 30
0.0
 10
0.9408267716535433
 20
0.2432755905511811
 30
0.0
 10
0.9408267716535433
 20
0.2432755905511811
 30
0.0
 10
0.9408267716535433
 20
0.2432755905511811
 30
0.0
 10
0.9408267716535433
 20
0.2432755905511811
 30
0.0
 10
0.2944566929133858
 20
0.6193622047244095
 30
0.0
 10
0.2944566929133858
 20
0.6193622047244095
 30
0.0
 10
0.2944566929133858
 20
0.6193622047244095
 30
0.0
 10
0.2944566929133858
 20
0.6193622047244095
 30
0.0
 10
0.3133897637795276
 20
0.6228188976377953
 30
0.0
 10
0.3133897637795276
 20
0.6228188976377953
 30
0.0
 10
0.3133897637795276
 20
0.6228188976377953
 30
0.0
 10
0.3133897637795276
 20
0.6228188976377953
 30
0.0
 10
0.3329881889763779
 20
0.6258858267716536
 30
0.0
 10
0.3329881889763779
 20
0.6258858267716536
 30
0.0
  0
SPLINE
  5
79
100
AcDbEntity
  8
Layer 1
 62
     9
100
AcDbSpline
210
0.0
220
0.0
230
1.0
 70
     1
 71
     3
 72
    28
 73
    24
 74
     0
 42
0.0000000001
 43
0.0000000001
 40
0.0
 40
0.0
 40
0.0
 40
0.0
 40
0.1666666666666667
 40
0.1666666666666667
 40
0.1666666666666667
 40
0.1666666666666667
 40
0.3333333333333333
 40
0.3333333333333333
 40
0.3333333333333333
 40
0.3333333333333333
 40
0.5
 40
0.5
 40
0.5
 40
0.5
 40
0.6666666666666666
 40
0.6666666666666666
 40
0.6666666666666666
 40
0.6666666666666666
 40
0.8333333333333333
 40
0.8333333333333333
 40
0.8333333333333333
 40
0.8333333333333333
 40
1.0
 40
1.0
 40
1.0
 40
1.0
 10
0.2944566929133858
 20
0.6193622047244095
 30
0.0
 10
0.2944566929133858
 20
0.6193622047244095
 30
0.0
 10
0.9408267716535433
 20
0.2432755905511811
 30
0.0
 10
0.9408267716535433
 20
0.2432755905511811
 30
0.0
 10
0.9408267716535433
 20
0.2432755905511811
 30
0.0
 10
0.9408267716535433
 20
0.2432755905511811
 30
0.0
 10
0.9225551181102363
 20
0.2393897637795276
 30
0.0
 10
0.9225551181102363
 20
0.2393897637795276
 30
0.0
 10
0.9225551181102363
 20
0.2393897637795276
 30
0.0
 10
0.9225551181102363
 20
0.2393897637795276
 30
0.0
 10
0.9049488188976378
 20
0.2350472440944882
 30
0.0
 10
0.9049488188976378
 20
0.2350472440944882
 30
0.0
 10
0.9049488188976378
 20
0.2350472440944882
 30
0.0
 10
0.9049488188976378
 20
0.2350472440944882
 30
0.0
 10
0.2585787401574803
 20
0.6111338582677166
 30
0.0
 10
0.2585787401574803
 20
0.6111338582677166
 30
0.0
 10
0.2585787401574803
 20
0.6111338582677166
 30
0.0
 10
0.2585787401574803
 20
0.6111338582677166
 30
0.0
 10
0.2761850393700788
 20
0.6154763779527559
 30
0.0
 10
0.2761850393700788
 20
0.6154763779527559
 30
0.0
 10
0.2761850393700788
 20
0.6154763779527559
 30
0.0
 10
0.2761850393700788
 20
0.6154763779527559
 30
0.0
 10
0.2944566929133858
 20
0.6193622047244095
 30
0.0
 10
0.2944566929133858
 20
0.6193622047244095
 30
0.0
  0
SPLINE
  5
7A
100
AcDbEntity
  8
Layer 1
 62
     9
100
AcDbSpline
210
0.0
220
0.0
230
1.0
 70
     1
 71
     3
 72
    28
 73
    24
 74
     0
 42
0.0000000001
 43
0.0000000001
 40
0.0
 40
0.0
 40
0.0
 40
0.0
 40
0.1666666666666667
 40
0.1666666666666667
 40
0.1666666666666667
 40
0.1666666666666667
 40
0.3333333333333333
 40
0.3333333333333333
 40
0.3333333333333333
 40
0.3333333333333333
 40
0.5
 40
0.5
 40
0.5
 40
0.5
 40
0.6666666666666666
 40
0.6666666666666666
 40
0.6666666666666666
 40
0.6666666666666666
 40
0.8333333333333333
 40
0.8333333333333333
 40
0.8333333333333333
 40
0.8333333333333333
 40
1.0
 40
1.0
 40
1.0
 40
1.0
 10
0.2585787401574803
 20
0.6111338582677166
 30
0.0
 10
0.2585787401574803
 20
0.6111338582677166
 30
0.0
 10
0.9049488188976378
 20
0.2350472440944882
 30
0.0
 10
0.9049488188976378
 20
0.2350472440944882
 30
0.0
 10
0.9049488188976378
 20
0.2350472440944882
 30
0.0
 10
0.9049488188976378
 20
0.2350472440944882
 30
0.0
 10
0.887992125984252
 20
0.2302007874015748
 30
0.0
 10
0.887992125984252
 20
0.2302007874015748
 30
0.0
 10
0.887992125984252
 20
0.2302007874015748
 30
0.0
 10
0.887992125984252
 20
0.2302007874015748
 30
0.0
 10
0.8716968503937008
 20
0.2248346456692913
 30
0.0
 10
0.8716968503937008
 20
0.2248346456692913
 30
0.0
 10
0.8716968503937008
 20
0.2248346456692913
 30
0.0
 10
0.8716968503937008
 20
0.2248346456692913
 30
0.0
 10
0.2253267716535433
 20
0.6009212598425198
 30
0.0
 10
0.2253267716535433
 20
0.6009212598425198
 30
0.0
 10
0.2253267716535433
 20
0.6009212598425198
 30
0.0
 10
0.2253267716535433
 20
0.6009212598425198
 30
0.0
 10
0.2416220472440945
 20
0.6062874015748032
 30
0.0
 10
0.2416220472440945
 20
0.6062874015748032
 30
0.0
 10
0.2416220472440945
 20
0.6062874015748032
 30
0.0
 10
0.2416220472440945
 20
0.6062874015748032
 30
0.0
 10
0.2585787401574803
 20
0.6111338582677166
 30
0.0
 10
0.2585787401574803
 20
0.6111338582677166
 30
0.0
  0
SPLINE
  5
7B
100
AcDbEntity
  8
Layer 1
 62
     9
100
AcDbSpline
210
0.0
220
0.0
230
1.0
 70
     1
 71
     3
 72
    36
 73
    32
 74
     0
 42
0.0000000001
 43
0.0000000001
 40
0.0
 40
0.0
 40
0.0
 40
0.0
 40
0.125
 40
0.125
 40
0.125
 40
0.125
 40
0.25
 40
0.25
 40
0.25
 40
0.25
 40
0.375
 40
0.375
 40
0.375
 40
0.375
 40
0.5
 40
0.5
 40
0.5
 40
0.5
 40
0.625
 40
0.625
 40
0.625
 40
0.625
 40
0.75
 40
0.75
 40
0.75
 40
0.75
 40
0.875
 40
0.875
 40
0.875
 40
0.875
 40
1.0
 40
1.0
 40
1.0
 40
1.0
 10
0.2253267716535433
 20
0.6009212598425198
 30
0.0
 10
0.2253267716535433
 20
0.6009212598425198
 30
0.0
 10
0.8716968503937008
 20
0.2248346456692913
 30
0.0
 10
0.8716968503937008
 20
0.2248346456692913
 30
0.0
 10
0.8716968503937008
 20
0.2248346456692913
 30
0.0
 10
0.8716968503937008
 20
0.2248346456692913
 30
0.0
 10
0.8560511811023622
 20
0.2189015748031496
 30
0.0
 10
0.8560511811023622
 20
0.2189015748031496
 30
0.0
 10
0.8560511811023622
 20
0.2189015748031496
 30
0.0
 10
0.8560511811023622
 20
0.2189015748031496
 30
0.0
 10
0.8410590551181103
 20
0.2123740157480315
 30
0.0
 10
0.8410590551181103
 20
0.2123740157480315
 30
0.0
 10
0.8410590551181103
 20
0.2123740157480315
 30
0.0
 10
0.8410590551181103
 20
0.2123740157480315
 30
0.0
 10
0.8267047244094489
 20
0.2052047244094488
 30
0.0
 10
0.8267047244094489
 20
0.2052047244094488
 30
0.0
 10
0.8267047244094489
 20
0.2052047244094488
 30
0.0
 10
0.8267047244094489
 20
0.2052047244094488
 30
0.0
 10
0.1803346456692913
 20
0.5812913385826772
 30
0.0
 10
0.1803346456692913
 20
0.5812913385826772
 30
0.0
 10
0.1803346456692913
 20
0.5812913385826772
 30
0.0
 10
0.1803346456692913
 20
0.5812913385826772
 30
0.0
 10
0.1946889763779528
 20
0.5884606299212599
 30
0.0
 10
0.1946889763779528
 20
0.5884606299212599
 30
0.0
 10
0.1946889763779528
 20
0.5884606299212599
 30
0.0
 10
0.1946889763779528
 20
0.5884606299212599
 30
0.0
 10
0.2096811023622047
 20
0.594988188976378
 30
0.0
 10
0.2096811023622047
 20
0.594988188976378
 30
0.0
 10
0.2096811023622047
 20
0.594988188976378
 30
0.0
 10
0.2096811023622047
 20
0.594988188976378
 30
0.0
 10
0.2253267716535433
 20
0.6009212598425198
 30
0.0
 10
0.2253267716535433
 20
0.6009212598425198
 30
0.0
  0
SPLINE
  5
7C
100
AcDbEntity
  8
Layer 1
 62
     9
100
AcDbSpline
210
0.0
220
0.0
230
1.0
 70
     1
 71
     3
 72
    36
 73
    32
 74
     0
 42
0.0000000001
 43
0.0000000001
 40
0.0
 40
0.0
 40
0.0
 40
0.0
 40
0.125
 40
0.125
 40
0.125
 40
0.125
 40
0.25
 40
0.25
 40
0.25
 40
0.25
 40
0.375
 40
0.375
 40
0.375
 40
0.375
 40
0.5
 40
0.5
 40
0.5
 40
0.5
 40
0.625
 40
0.625
 40
0.625
 40
0.625
 40
0.75
 40
0.75
 40
0.75
 40
0.75
 40
0.875
 40
0.875
 40
0.875
 40
0.875
 40
1.0
 40
1.0
 40
1.0
 40
1.0
 10
0.1803346456692913
 20
0.5812913385826772
 30
0.0
 10
0.1803346456692913
 20
0.5812913385826772
 30
0.0
 10
0.8267047244094489
 20
0.2052047244094488
 30
0.0
 10
0.8267047244094489
 20
0.2052047244094488
 30
0.0
 10
0.8267047244094489
 20
0.2052047244094488
 30
0.0
 10
0.8267047244094489
 20
0.2052047244094488
 30
0.0
 10
0.812996062992126
 20
0.1973740157480315
 30
0.0
 10
0.812996062992126
 20
0.1973740157480315
 30
0.0
 10
0.812996062992126
 20
0.1973740157480315
 30
0.0
 10
0.812996062992126
 20
0.1973740157480315
 30
0.0
 10
0.7999212598425197
 20
0.1888425196850394
 30
0.0
 10
0.7999212598425197
 20
0.1888425196850394
 30
0.0
 10
0.7999212598425197
 20
0.1888425196850394
 30
0.0
 10
0.7999212598425197
 20
0.1888425196850394
 30
0.0
 10
0.787496062992126
 20
0.1795787401574803
 30
0.0
 10
0.787496062992126
 20
0.1795787401574803
 30
0.0
 10
0.787496062992126
 20
0.1795787401574803
 30
0.0
 10
0.787496062992126
 20
0.1795787401574803
 30
0.0
 10
0.1411259842519685
 20
0.5556653543307086
 30
0.0
 10
0.1411259842519685
 20
0.5556653543307086
 30
0.0
 10
0.1411259842519685
 20
0.5556653543307086
 30
0.0
 10
0.1411259842519685
 20
0.5556653543307086
 30
0.0
 10
0.1535511811023622
 20
0.5649291338582677
 30
0.0
 10
0.1535511811023622
 20
0.5649291338582677
 30
0.0
 10
0.1535511811023622
 20
0.5649291338582677
 30
0.0
 10
0.1535511811023622
 20
0.5649291338582677
 30
0.0
 10
0.1666259842519685
 20
0.5734606299212599
 30
0.0
 10
0.1666259842519685
 20
0.5734606299212599
 30
0.0
 10
0.1666259842519685
 20
0.5734606299212599
 30
0.0
 10
0.1666259842519685
 20
0.5734606299212599
 30
0.0
 10
0.1803346456692913
 20
0.5812913385826772
 30
0.0
 10
0.1803346456692913
 20
0.5812913385826772
 30
0.0
  0
SPLINE
  5
7D
100
AcDbEntity
  8
Layer 1
 62
     9
100
AcDbSpline
210
0.0
220
0.0
230
1.0
 70
     1
 71
     3
 72
    36
 73
    32
 74
     0
 42
0.0000000001
 43
0.0000000001
 40
0.0
 40
0.0
 40
0.0
 40
0.0
 40
0.125
 40
0.125
 40
0.125
 40
0.125
 40
0.25
 40
0.25
 40
0.25
 40
0.25
 40
0.375
 40
0.375
 40
0.375
 40
0.375
 40
0.5
 40
0.5
 40
0.5
 40
0.5
 40
0.625
 40
0.625
 40
0.625
 40
0.625
 40
0.75
 40
0.75
 40
0.75
 40
0.75
 40
0.875
 40
0.875
 40
0.875
 40
0.875
 40
1.0
 40
1.0
 40
1.0
 40
1.0
 10
0.1411259842519685
 20
0.5556653543307086
 30
0.0
 10
0.1411259842519685
 20
0.5556653543307086
 30
0.0
 10
0.787496062992126
 20
0.1795787401574803
 30
0.0
 10
0.787496062992126
 20
0.1795787401574803
 30
0.0
 10
0.787496062992126
 20
0.1795787401574803
 30
0.0
 10
0.787496062992126
 20
0.1795787401574803
 30
0.0
 10
0.7756968503937008
 20
0.1695393700787402
 30
0.0
 10
0.7756968503937008
 20
0.1695393700787402
 30
0.0
 10
0.7756968503937008
 20
0.1695393700787402
 30
0.0
 10
0.7756968503937008
 20
0.1695393700787402
 30
0.0
 10
0.7645354330708661
 20
0.1587047244094488
 30
0.0
 10
0.7645354330708661
 20
0.1587047244094488
 30
0.0
 10
0.7645354330708661
 20
0.1587047244094488
 30
0.0
 10
0.7645354330708661
 20
0.1587047244094488
 30
0.0
 10
0.753996062992126
 20
0.1470275590551181
 30
0.0
 10
0.753996062992126
 20
0.1470275590551181
 30
0.0
 10
0.753996062992126
 20
0.1470275590551181
 30
0.0
 10
0.753996062992126
 20
0.1470275590551181
 30
0.0
 10
0.1076259842519685
 20
0.5231141732283465
 30
0.0
 10
0.1076259842519685
 20
0.5231141732283465
 30
0.0
 10
0.1076259842519685
 20
0.5231141732283465
 30
0.0
 10
0.1076259842519685
 20
0.5231141732283465
 30
0.0
 10
0.1181653543307087
 20
0.5347913385826771
 30
0.0
 10
0.1181653543307087
 20
0.5347913385826771
 30
0.0
 10
0.1181653543307087
 20
0.5347913385826771
 30
0.0
 10
0.1181653543307087
 20
0.5347913385826771
 30
0.0
 10
0.1293267716535433
 20
0.5456259842519685
 30
0.0
 10
0.1293267716535433
 20
0.5456259842519685
 30
0.0
 10
0.1293267716535433
 20
0.5456259842519685
 30
0.0
 10
0.1293267716535433
 20
0.5456259842519685
 30
0.0
 10
0.1411259842519685
 20
0.5556653543307086
 30
0.0
 10
0.1411259842519685
 20
0.5556653543307086
 30
0.0
  0
SPLINE
  5
7E
100
AcDbEntity
  8
Layer 1
 62
     9
100
AcDbSpline
210
0.0
220
0.0
230
1.0
 70
     1
 71
     3
 72
    36
 73
    32
 74
     0
 42
0.0000000001
 43
0.0000000001
 40
0.0
 40
0.0
 40
0.0
 40
0.0
 40
0.125
 40
0.125
 40
0.125
 40
0.125
 40
0.25
 40
0.25
 40
0.25
 40
0.25
 40
0.375
 40
0.375
 40
0.375
 40
0.375
 40
0.5
 40
0.5
 40
0.5
 40
0.5
 40
0.625
 40
0.625
 40
0.625
 40
0.625
 40
0.75
 40
0.75
 40
0.75
 40
0.75
 40
0.875
 40
0.875
 40
0.875
 40
0.875
 40
1.0
 40
1.0
 40
1.0
 40
1.0
 10
0.1076259842519685
 20
0.5231141732283465
 30
0.0
 10
0.1076259842519685
 20
0.5231141732283465
 30
0.0
 10
0.753996062992126
 20
0.1470275590551181
 30
0.0
 10
0.753996062992126
 20
0.1470275590551181
 30
0.0
 10
0.753996062992126
 20
0.1470275590551181
 30
0.0
 10
0.753996062992126
 20
0.1470275590551181
 30
0.0
 10
0.7440905511811023
 20
0.1344803149606299
 30
0.0
 10
0.7440905511811023
 20
0.1344803149606299
 30
0.0
 10
0.7440905511811023
 20
0.1344803149606299
 30
0.0
 10
0.7440905511811023
 20
0.1344803149606299
 30
0.0
 10
0.7347992125984252
 20
0.1210196850393701
 30
0.0
 10
0.7347992125984252
 20
0.1210196850393701
 30
0.0
 10
0.7347992125984252
 20
0.1210196850393701
 30
0.0
 10
0.7347992125984252
 20
0.1210196850393701
 30
0.0
 10
0.7261299212598426
 20
0.1066220472440945
 30
0.0
 10
0.7261299212598426
 20
0.1066220472440945
 30
0.0
 10
0.7261299212598426
 20
0.1066220472440945
 30
0.0
 10
0.7261299212598426
 20
0.1066220472440945
 30
0.0
 10
0.079759842519685
 20
0.4827086614173228
 30
0.0
 10
0.079759842519685
 20
0.4827086614173228
 30
0.0
 10
0.079759842519685
 20
0.4827086614173228
 30
0.0
 10
0.079759842519685
 20
0.4827086614173228
 30
0.0
 10
0.0884291338582677
 20
0.4971062992125985
 30
0.0
 10
0.0884291338582677
 20
0.4971062992125985
 30
0.0
 10
0.0884291338582677
 20
0.4971062992125985
 30
0.0
 10
0.0884291338582677
 20
0.4971062992125985
 30
0.0
 10
0.0977204724409449
 20
0.5105669291338583
 30
0.0
 10
0.0977204724409449
 20
0.5105669291338583
 30
0.0
 10
0.0977204724409449
 20
0.5105669291338583
 30
0.0
 10
0.0977204724409449
 20
0.5105669291338583
 30
0.0
 10
0.1076259842519685
 20
0.5231141732283465
 30
0.0
 10
0.1076259842519685
 20
0.5231141732283465
 30
0.0
  0
SPLINE
  5
7F
100
AcDbEntity
  8
Layer 1
 62
     9
100
AcDbSpline
210
0.0
220
0.0
230
1.0
 70
     1
 71
     3
 72
    28
 73
    24
 74
     0
 42
0.0000000001
 43
0.0000000001
 40
0.0
 40
0.0
 40
0.0
 40
0.0
 40
0.1666666666666667
 40
0.1666666666666667
 40
0.1666666666666667
 40
0.1666666666666667
 40
0.3333333333333333
 40
0.3333333333333333
 40
0.3333333333333333
 40
0.3333333333333333
 40
0.5
 40
0.5
 40
0.5
 40
0.5
 40
0.6666666666666666
 40
0.6666666666666666
 40
0.6666666666666666
 40
0.6666666666666666
 40
0.8333333333333333
 40
0.8333333333333333
 40
0.8333333333333333
 40
0.8333333333333333
 40
1.0
 40
1.0
 40
1.0
 40
1.0
 10
0.079759842519685
 20
0.4827086614173228
 30
0.0
 10
0.079759842519685
 20
0.4827086614173228
 30
0.0
 10
0.7261299212598426
 20
0.1066220472440945
 30
0.0
 10
0.7261299212598426
 20
0.1066220472440945
 30
0.0
 10
0.7261299212598426
 20
0.1066220472440945
 30
0.0
 10
0.7261299212598426
 20
0.1066220472440945
 30
0.0
 10
0.7180748031496064
 20
0.091244094488189
 30
0.0
 10
0.7180748031496064
 20
0.091244094488189
 30
0.0
 10
0.7180748031496064
 20
0.091244094488189
 30
0.0
 10
0.7180748031496064
 20
0.091244094488189
 30
0.0
 10
0.7106456692913387
 20
0.0748661417322835
 30
0.0
 10
0.7106456692913387
 20
0.0748661417322835
 30
0.0
 10
0.7106456692913387
 20
0.0748661417322835
 30
0.0
 10
0.7106456692913387
 20
0.0748661417322835
 30
0.0
 10
0.0642755905511811
 20
0.4509527559055118
 30
0.0
 10
0.0642755905511811
 20
0.4509527559055118
 30
0.0
 10
0.0642755905511811
 20
0.4509527559055118
 30
0.0
 10
0.0642755905511811
 20
0.4509527559055118
 30
0.0
 10
0.0717047244094488
 20
0.4673307086614174
 30
0.0
 10
0.0717047244094488
 20
0.4673307086614174
 30
0.0
 10
0.0717047244094488
 20
0.4673307086614174
 30
0.0
 10
0.0717047244094488
 20
0.4673307086614174
 30
0.0
 10
0.079759842519685
 20
0.4827086614173228
 30
0.0
 10
0.079759842519685
 20
0.4827086614173228
 30
0.0
  0
SPLINE
  5
80
100
AcDbEntity
  8
Layer 1
 62
     9
100
AcDbSpline
210
0.0
220
0.0
230
1.0
 70
     1
 71
     3
 72
    28
 73
    24
 74
     0
 42
0.0000000001
 43
0.0000000001
 40
0.0
 40
0.0
 40
0.0
 40
0.0
 40
0.1666666666666667
 40
0.1666666666666667
 40
0.1666666666666667
 40
0.1666666666666667
 40
0.3333333333333333
 40
0.3333333333333333
 40
0.3333333333333333
 40
0.3333333333333333
 40
0.5
 40
0.5
 40
0.5
 40
0.5
 40
0.6666666666666666
 40
0.6666666666666666
 40
0.6666666666666666
 40
0.6666666666666666
 40
0.8333333333333333
 40
0.8333333333333333
 40
0.8333333333333333
 40
0.8333333333333333
 40
1.0
 40
1.0
 40
1.0
 40
1.0
 10
0.0642755905511811
 20
0.4509527559055118
 30
0.0
 10
0.0642755905511811
 20
0.4509527559055118
 30
0.0
 10
0.7106456692913387
 20
0.0748661417322835
 30
0.0
 10
0.7106456692913387
 20
0.0748661417322835
 30
0.0
 10
0.7106456692913387
 20
0.0748661417322835
 30
0.0
 10
0.7106456692913387
 20
0.0748661417322835
 30
0.0
 10
0.7038149606299213
 20
0.0574370078740157
 30
0.0
 10
0.7038149606299213
 20
0.0574370078740157
 30
0.0
 10
0.7038149606299213
 20
0.0574370078740157
 30
0.0
 10
0.7038149606299213
 20
0.0574370078740157
 30
0.0
 10
0.6975984251968505
 20
0.0389330708661417
 30
0.0
 10
0.6975984251968505
 20
0.0389330708661417
 30
0.0
 10
0.6975984251968505
 20
0.0389330708661417
 30
0.0
 10
0.6975984251968505
 20
0.0389330708661417
 30
0.0
 10
0.0512283464566929
 20
0.4150196850393701
 30
0.0
 10
0.0512283464566929
 20
0.4150196850393701
 30
0.0
 10
0.0512283464566929
 20
0.4150196850393701
 30
0.0
 10
0.0512283464566929
 20
0.4150196850393701
 30
0.0
 10
0.0574448818897638
 20
0.4335236220472441
 30
0.0
 10
0.0574448818897638
 20
0.4335236220472441
 30
0.0
 10
0.0574448818897638
 20
0.4335236220472441
 30
0.0
 10
0.0574448818897638
 20
0.4335236220472441
 30
0.0
 10
0.0642755905511811
 20
0.4509527559055118
 30
0.0
 10
0.0642755905511811
 20
0.4509527559055118
 30
0.0
  0
SPLINE
  5
81
100
AcDbEntity
  8
Layer 1
 62
     9
100
AcDbSpline
210
0.0
220
0.0
230
1.0
 70
     1
 71
     3
 72
    28
 73
    24
 74
     0
 42
0.0000000001
 43
0.0000000001
 40
0.0
 40
0.0
 40
0.0
 40
0.0
 40
0.1666666666666667
 40
0.1666666666666667
 40
0.1666666666666667
 40
0.1666666666666667
 40
0.3333333333333333
 40
0.3333333333333333
 40
0.3333333333333333
 40
0.3333333333333333
 40
0.5
 40
0.5
 40
0.5
 40
0.5
 40
0.6666666666666666
 40
0.6666666666666666
 40
0.6666666666666666
 40
0.6666666666666666
 40
0.8333333333333333
 40
0.8333333333333333
 40
0.8333333333333333
 40
0.8333333333333333
 40
1.0
 40
1.0
 40
1.0
 40
1.0
 10
0.0512283464566929
 20
0.4150196850393701
 30
0.0
 10
0.0512283464566929
 20
0.4150196850393701
 30
0.0
 10
0.6975984251968505
 20
0.0389330708661417
 30
0.0
 10
0.6975984251968505
 20
0.0389330708661417
 30
0.0
 10
0.6975984251968505
 20
0.0389330708661417
 30
0.0
 10
0.6975984251968505
 20
0.0389330708661417
 30
0.0
 10
0.6919881889763779
 20
0.0193149606299213
 30
0.0
 10
0.6919881889763779
 20
0.0193149606299213
 30
0.0
 10
0.6919881889763779
 20
0.0193149606299213
 30
0.0
 10
0.6919881889763779
 20
0.0193149606299213
 30
0.0
 10
0.686984251968504
 20
-0.0014409448818898
 30
0.0
 10
0.686984251968504
 20
-0.0014409448818898
 30
0.0
 10
0.686984251968504
 20
-0.0014409448818898
 30
0.0
 10
0.686984251968504
 20
-0.0014409448818898
 30
0.0
 10
0.0406141732283465
 20
0.3746456692913386
 30
0.0
 10
0.0406141732283465
 20
0.3746456692913386
 30
0.0
 10
0.0406141732283465
 20
0.3746456692913386
 30
0.0
 10
0.0406141732283465
 20
0.3746456692913386
 30
0.0
 10
0.0456181102362205
 20
0.3954015748031496
 30
0.0
 10
0.0456181102362205
 20
0.3954015748031496
 30
0.0
 10
0.0456181102362205
 20
0.3954015748031496
 30
0.0
 10
0.0456181102362205
 20
0.3954015748031496
 30
0.0
 10
0.0512283464566929
 20
0.4150196850393701
 30
0.0
 10
0.0512283464566929
 20
0.4150196850393701
 30
0.0
  0
SPLINE
  5
82
100
AcDbEntity
  8
Layer 1
 62
     9
100
AcDbSpline
210
0.0
220
0.0
230
1.0
 70
     1
 71
     3
 72
    28
 73
    24
 74
     0
 42
0.0000000001
 43
0.0000000001
 40
0.0
 40
0.0
 40
0.0
 40
0.0
 40
0.1666666666666667
 40
0.1666666666666667
 40
0.1666666666666667
 40
0.1666666666666667
 40
0.3333333333333333
 40
0.3333333333333333
 40
0.3333333333333333
 40
0.3333333333333333
 40
0.5
 40
0.5
 40
0.5
 40
0.5
 40
0.6666666666666666
 40
0.6666666666666666
 40
0.6666666666666666
 40
0.6666666666666666
 40
0.8333333333333333
 40
0.8333333333333333
 40
0.8333333333333333
 40
0.8333333333333333
 40
1.0
 40
1.0
 40
1.0
 40
1.0
 10
0.0406141732283465
 20
0.3746456692913386
 30
0.0
 10
0.0406141732283465
 20
0.3746456692913386
 30
0.0
 10
0.686984251968504
 20
-0.0014409448818898
 30
0.0
 10
0.686984251968504
 20
-0.0014409448818898
 30
0.0
 10
0.686984251968504
 20
-0.0014409448818898
 30
0.0
 10
0.686984251968504
 20
-0.0014409448818898
 30
0.0
 10
0.6825748031496063
 20
-0.0233897637795276
 30
0.0
 10
0.6825748031496063
 20
-0.0233897637795276
 30
0.0
 10
0.6825748031496063
 20
-0.0233897637795276
 30
0.0
 10
0.6825748031496063
 20
-0.0233897637795276
 30
0.0
 10
0.6787637795275591
 20
-0.0465472440944882
 30
0.0
 10
0.6787637795275591
 20
-0.0465472440944882
 30
0.0
 10
0.6787637795275591
 20
-0.0465472440944882
 30
0.0
 10
0.6787637795275591
 20
-0.0465472440944882
 30
0.0
 10
0.0323937007874016
 20
0.3295393700787402
 30
0.0
 10
0.0323937007874016
 20
0.3295393700787402
 30
0.0
 10
0.0323937007874016
 20
0.3295393700787402
 30
0.0
 10
0.0323937007874016
 20
0.3295393700787402
 30
0.0
 10
0.0362047244094488
 20
0.3526968503937008
 30
0.0
 10
0.0362047244094488
 20
0.3526968503937008
 30
0.0
 10
0.0362047244094488
 20
0.3526968503937008
 30
0.0
 10
0.0362047244094488
 20
0.3526968503937008
 30
0.0
 10
0.0406141732283465
 20
0.3746456692913386
 30
0.0
 10
0.0406141732283465
 20
0.3746456692913386
 30
0.0
  0
SPLINE
  5
83
100
AcDbEntity
  8
Layer 1
 62
     9
100
AcDbSpline
210
0.0
220
0.0
230
1.0
 70
     1
 71
     3
 72
    20
 73
    16
 74
     0
 42
0.0000000001
 43
0.0000000001
 40
0.0
 40
0.0
 40
0.0
 40
0.0
 40
0.25
 40
0.25
 40
0.25
 40
0.25
 40
0.5
 40
0.5
 40
0.5
 40
0.5
 40
0.75
 40
0.75
 40
0.75
 40
0.75
 40
1.0
 40
1.0
 40
1.0
 40
1.0
 10
0.0323937007874016
 20
0.3295393700787402
 30
0.0
 10
0.0323937007874016
 20
0.3295393700787402
 30
0.0
 10
0.6787637795275591
 20
-0.0465472440944882
 30
0.0
 10
0.6787637795275591
 20
-0.0465472440944882
 30
0.0
 10
0.6787637795275591
 20
-0.0465472440944882
 30
0.0
 10
0.6787637795275591
 20
-0.0465472440944882
 30
0.0
 10
0.6755433070866143
 20
-0.0709566929133858
 30
0.0
 10
0.6755433070866143
 20
-0.0709566929133858
 30
0.0
 10
0.6755433070866143
 20
-0.0709566929133858
 30
0.0
 10
0.6755433070866143
 20
-0.0709566929133858
 30
0.0
 10
0.0291732283464567
 20
0.3051299212598425
 30
0.0
 10
0.0291732283464567
 20
0.3051299212598425
 30
0.0
 10
0.0291732283464567
 20
0.3051299212598425
 30
0.0
 10
0.0291732283464567
 20
0.3051299212598425
 30
0.0
 10
0.0323937007874016
 20
0.3295393700787402
 30
0.0
 10
0.0323937007874016
 20
0.3295393700787402
 30
0.0
  0
SPLINE
  5
84
100
AcDbEntity
  8
Layer 1
 62
     9
100
AcDbSpline
210
0.0
220
0.0
230
1.0
 70
     1
 71
     3
 72
    20
 73
    16
 74
     0
 42
0.0000000001
 43
0.0000000001
 40
0.0
 40
0.0
 40
0.0
 40
0.0
 40
0.25
 40
0.25
 40
0.25
 40
0.25
 40
0.5
 40
0.5
 40
0.5
 40
0.5
 40
0.75
 40
0.75
 40
0.75
 40
0.75
 40
1.0
 40
1.0
 40
1.0
 40
1.0
 10
0.0291732283464567
 20
0.3051299212598425
 30
0.0
 10
0.0291732283464567
 20
0.3051299212598425
 30
0.0
 10
0.6755433070866143
 20
-0.0709566929133858
 30
0.0
 10
0.6755433070866143
 20
-0.0709566929133858
 30
0.0
 10
0.6755433070866143
 20
-0.0709566929133858
 30
0.0
 10
0.6755433070866143
 20
-0.0709566929133858
 30
0.0
 10
0.6729212598425197
 20
-0.0966417322834646
 30
0.0
 10
0.6729212598425197
 20
-0.0966417322834646
 30
0.0
 10
0.6729212598425197
 20
-0.0966417322834646
 30
0.0
 10
0.6729212598425197
 20
-0.0966417322834646
 30
0.0
 10
0.0265511811023622
 20
0.2794448818897638
 30
0.0
 10
0.0265511811023622
 20
0.2794448818897638
 30
0.0
 10
0.0265511811023622
 20
0.2794448818897638
 30
0.0
 10
0.0265511811023622
 20
0.2794448818897638
 30
0.0
 10
0.0291732283464567
 20
0.3051299212598425
 30
0.0
 10
0.0291732283464567
 20
0.3051299212598425
 30
0.0
  0
SPLINE
  5
85
100
AcDbEntity
  8
Layer 1
 62
     9
100
AcDbSpline
210
0.0
220
0.0
230
1.0
 70
     1
 71
     3
 72
    20
 73
    16
 74
     0
 42
0.0000000001
 43
0.0000000001
 40
0.0
 40
0.0
 40
0.0
 40
0.0
 40
0.25
 40
0.25
 40
0.25
 40
0.25
 40
0.5
 40
0.5
 40
0.5
 40
0.5
 40
0.75
 40
0.75
 40
0.75
 40
0.75
 40
1.0
 40
1.0
 40
1.0
 40
1.0
 10
0.0265511811023622
 20
0.2794448818897638
 30
0.0
 10
0.0265511811023622
 20
0.2794448818897638
 30
0.0
 10
0.6729212598425197
 20
-0.0966417322834646
 30
0.0
 10
0.6729212598425197
 20
-0.0966417322834646
 30
0.0
 10
0.6729212598425197
 20
-0.0966417322834646
 30
0.0
 10
0.6729212598425197
 20
-0.0966417322834646
 30
0.0
 10
0.6708779527559056
 20
-0.1236535433070866
 30
0.0
 10
0.6708779527559056
 20
-0.1236535433070866
 30
0.0
 10
0.6708779527559056
 20
-0.1236535433070866
 30
0.0
 10
0.6708779527559056
 20
-0.1236535433070866
 30
0.0
 10
0.024507874015748
 20
0.2524330708661418
 30
0.0
 10
0.024507874015748
 20
0.2524330708661418
 30
0.0
 10
0.024507874015748
 20
0.2524330708661418
 30
0.0
 10
0.024507874015748
 20
0.2524330708661418
 30
0.0
 10
0.0265511811023622
 20
0.2794448818897638
 30
0.0
 10
0.0265511811023622
 20
0.2794448818897638
 30
0.0
  0
SPLINE
  5
86
100
AcDbEntity
  8
Layer 1
 62
     9
100
AcDbSpline
210
0.0
220
0.0
230
1.0
 70
     1
 71
     3
 72
    20
 73
    16
 74
     0
 42
0.0000000001
 43
0.0000000001
 40
0.0
 40
0.0
 40
0.0
 40
0.0
 40
0.25
 40
0.25
 40
0.25
 40
0.25
 40
0.5
 40
0.5
 40
0.5
 40
0.5
 40
0.75
 40
0.75
 40
0.75
 40
0.75
 40
1.0
 40
1.0
 40
1.0
 40
1.0
 10
0.024507874015748
 20
0.2524330708661418
 30
0.0
 10
0.024507874015748
 20
0.2524330708661418
 30
0.0
 10
0.6708779527559056
 20
-0.1236535433070866
 30
0.0
 10
0.6708779527559056
 20
-0.1236535433070866
 30
0.0
 10
0.6708779527559056
 20
-0.1236535433070866
 30
0.0
 10
0.6708779527559056
 20
-0.1236535433070866
 30
0.0
 10
0.6694330708661418
 20
-0.1520118110236221
 30
0.0
 10
0.6694330708661418
 20
-0.1520118110236221
 30
0.0
 10
0.6694330708661418
 20
-0.1520118110236221
 30
0.0
 10
0.6694330708661418
 20
-0.1520118110236221
 30
0.0
 10
0.0230629921259843
 20
0.2240748031496063
 30
0.0
 10
0.0230629921259843
 20
0.2240748031496063
 30
0.0
 10
0.0230629921259843
 20
0.2240748031496063
 30
0.0
 10
0.0230629921259843
 20
0.2240748031496063
 30
0.0
 10
0.024507874015748
 20
0.2524330708661418
 30
0.0
 10
0.024507874015748
 20
0.2524330708661418
 30
0.0
  0
SPLINE
  5
87
100
AcDbEntity
  8
Layer 1
 62
     9
100
AcDbSpline
210
0.0
220
0.0
230
1.0
 70
     1
 71
     3
 72
    20
 73
    16
 74
     0
 42
0.0000000001
 43
0.0000000001
 40
0.0
 40
0.0
 40
0.0
 40
0.0
 40
0.25
 40
0.25
 40
0.25
 40
0.25
 40
0.5
 40
0.5
 40
0.5
 40
0.5
 40
0.75
 40
0.75
 40
0.75
 40
0.75
 40
1.0
 40
1.0
 40
1.0
 40
1.0
 10
0.0230629921259843
 20
0.2240748031496063
 30
0.0
 10
0.0230629921259843
 20
0.2240748031496063
 30
0.0
 10
0.6694330708661418
 20
-0.1520118110236221
 30
0.0
 10
0.6694330708661418
 20
-0.1520118110236221
 30
0.0
 10
0.6694330708661418
 20
-0.1520118110236221
 30
0.0
 10
0.6694330708661418
 20
-0.1520118110236221
 30
0.0
 10
0.6685629921259843
 20
-0.1817598425196851
 30
0.0
 10
0.6685629921259843
 20
-0.1817598425196851
 30
0.0
 10
0.6685629921259843
 20
-0.1817598425196851
 30
0.0
 10
0.6685629921259843
 20
-0.1817598425196851
 30
0.0
 10
0.0221929133858268
 20
0.1943267716535433
 30
0.0
 10
0.0221929133858268
 20
0.1943267716535433
 30
0.0
 10
0.0221929133858268
 20
0.1943267716535433
 30
0.0
 10
0.0221929133858268
 20
0.1943267716535433
 30
0.0
 10
0.0230629921259843
 20
0.2240748031496063
 30
0.0
 10
0.0230629921259843
 20
0.2240748031496063
 30
0.0
  0
SPLINE
  5
88
100
AcDbEntity
  8
Layer 1
 62
     9
100
AcDbSpline
210
0.0
220
0.0
230
1.0
 70
     1
 71
     3
 72
    20
 73
    16
 74
     0
 42
0.0000000001
 43
0.0000000001
 40
0.0
 40
0.0
 40
0.0
 40
0.0
 40
0.25
 40
0.25
 40
0.25
 40
0.25
 40
0.5
 40
0.5
 40
0.5
 40
0.5
 40
0.75
 40
0.75
 40
0.75
 40
0.75
 40
1.0
 40
1.0
 40
1.0
 40
1.0
 10
0.0221929133858268
 20
0.1943267716535433
 30
0.0
 10
0.0221929133858268
 20
0.1943267716535433
 30
0.0
 10
0.6685629921259843
 20
-0.1817598425196851
 30
0.0
 10
0.6685629921259843
 20
-0.1817598425196851
 30
0.0
 10
0.6685629921259843
 20
-0.1817598425196851
 30
0.0
 10
0.6685629921259843
 20
-0.1817598425196851
 30
0.0
 10
0.6682795275590552
 20
-0.2129251968503937
 30
0.0
 10
0.6682795275590552
 20
-0.2129251968503937
 30
0.0
 10
0.6682795275590552
 20
-0.2129251968503937
 30
0.0
 10
0.6682795275590552
 20
-0.2129251968503937
 30
0.0
 10
0.0219094488188976
 20
0.1631614173228347
 30
0.0
 10
0.0219094488188976
 20
0.1631614173228347
 30
0.0
 10
0.0219094488188976
 20
0.1631614173228347
 30
0.0
 10
0.0219094488188976
 20
0.1631614173228347
 30
0.0
 10
0.0221929133858268
 20
0.1943267716535433
 30
0.0
 10
0.0221929133858268
 20
0.1943267716535433
 30
0.0
  0
SPLINE
  5
89
100
AcDbEntity
  8
Layer 1
370
     5
100
AcDbSpline
210
0.0
220
0.0
230
1.0
 70
     1
 71
     3
 72
   268
 73
   264
 74
     0
 42
0.0000000001
 43
0.0000000001
 40
0.0
 40
0.0
 40
0.0
 40
0.0
 40
0.0151515151515152
 40
0.0151515151515152
 40
0.0151515151515152
 40
0.0151515151515152
 40
0.0303030303030303
 40
0.0303030303030303
 40
0.0303030303030303
 40
0.0303030303030303
 40
0.0454545454545455
 40
0.0454545454545455
 40
0.0454545454545455
 40
0.0454545454545455
 40
0.0606060606060606
 40
0.0606060606060606
 40
0.0606060606060606
 40
0.0606060606060606
 40
0.0757575757575758
 40
0.0757575757575758
 40
0.0757575757575758
 40
0.0757575757575758
 40
0.0909090909090909
 40
0.0909090909090909
 40
0.0909090909090909
 40
0.0909090909090909
 40
0.1060606060606061
 40
0.1060606060606061
 40
0.1060606060606061
 40
0.1060606060606061
 40
0.1212121212121212
 40
0.1212121212121212
 40
0.1212121212121212
 40
0.1212121212121212
 40
0.1363636363636364
 40
0.1363636363636364
 40
0.1363636363636364
 40
0.1363636363636364
 40
0.1515151515151515
 40
0.1515151515151515
 40
0.1515151515151515
 40
0.1515151515151515
 40
0.1666666666666666
 40
0.1666666666666666
 40
0.1666666666666666
 40
0.1666666666666666
 40
0.1818181818181818
 40
0.1818181818181818
 40
0.1818181818181818
 40
0.1818181818181818
 40
0.1969696969696969
 40
0.1969696969696969
 40
0.1969696969696969
 40
0.1969696969696969
 40
0.212121212121212
 40
0.212121212121212
 40
0.212121212121212
 40
0.212121212121212
 40
0.2272727272727272
 40
0.2272727272727272
 40
0.2272727272727272
 40
0.2272727272727272
 40
0.2424242424242423
 40
0.2424242424242423
 40
0.2424242424242423
 40
0.2424242424242423
 40
0.2575757575757575
 40
0.2575757575757575
 40
0.2575757575757575
 40
0.2575757575757575
 40
0.2727272727272726
 40
0.2727272727272726
 40
0.2727272727272726
 40
0.2727272727272726
 40
0.2878787878787877
 40
0.2878787878787877
 40
0.2878787878787877
 40
0.2878787878787877
 40
0.3030303030303029
 40
0.3030303030303029
 40
0.3030303030303029
 40
0.3030303030303029
 40
0.318181818181818
 40
0.318181818181818
 40
0.318181818181818
 40
0.318181818181818
 40
0.3333333333333332
 40
0.3333333333333332
 40
0.3333333333333332
 40
0.3333333333333332
 40
0.3484848484848483
 40
0.3484848484848483
 40
0.3484848484848483
 40
0.3484848484848483
 40
0.3636363636363634
 40
0.3636363636363634
 40
0.3636363636363634
 40
0.3636363636363634
 40
0.3787878787878786
 40
0.3787878787878786
 40
0.3787878787878786
 40
0.3787878787878786
 40
0.3939393939393937
 40
0.3939393939393937
 40
0.3939393939393937
 40
0.3939393939393937
 40
0.4090909090909088
 40
0.4090909090909088
 40
0.4090909090909088
 40
0.4090909090909088
 40
0.424242424242424
 40
0.424242424242424
 40
0.424242424242424
 40
0.424242424242424
 40
0.4393939393939391
 40
0.4393939393939391
 40
0.4393939393939391
 40
0.4393939393939391
 40
0.4545454545454543
 40
0.4545454545454543
 40
0.4545454545454543
 40
0.4545454545454543
 40
0.4696969696969694
 40
0.4696969696969694
 40
0.4696969696969694
 40
0.4696969696969694
 40
0.4848484848484845
 40
0.4848484848484845
 40
0.4848484848484845
 40
0.4848484848484845
 40
0.4999999999999997
 40
0.4999999999999997
 40
0.4999999999999997
 40
0.4999999999999997
 40
0.5151515151515148
 40
0.5151515151515148
 40
0.5151515151515148
 40
0.5151515151515148
 40
0.5303030303030299
 40
0.5303030303030299
 40
0.5303030303030299
 40
0.5303030303030299
 40
0.5454545454545451
 40
0.5454545454545451
 40
0.5454545454545451
 40
0.5454545454545451
 40
0.5606060606060602
 40
0.5606060606060602
 40
0.5606060606060602
 40
0.5606060606060602
 40
0.5757575757575754
 40
0.5757575757575754
 40
0.5757575757575754
 40
0.5757575757575754
 40
0.5909090909090905
 40
0.5909090909090905
 40
0.5909090909090905
 40
0.5909090909090905
 40
0.6060606060606056
 40
0.6060606060606056
 40
0.6060606060606056
 40
0.6060606060606056
 40
0.6212121212121208
 40
0.6212121212121208
 40
0.6212121212121208
 40
0.6212121212121208
 40
0.6363636363636359
 40
0.6363636363636359
 40
0.6363636363636359
 40
0.6363636363636359
 40
0.6515151515151511
 40
0.6515151515151511
 40
0.6515151515151511
 40
0.6515151515151511
 40
0.6666666666666662
 40
0.6666666666666662
 40
0.6666666666666662
 40
0.6666666666666662
 40
0.6818181818181813
 40
0.6818181818181813
 40
0.6818181818181813
 40
0.6818181818181813
 40
0.6969696969696965
 40
0.6969696969696965
 40
0.6969696969696965
 40
0.6969696969696965
 40
0.7121212121212116
 40
0.7121212121212116
 40
0.7121212121212116
 40
0.7121212121212116
 40
0.7272727272727267
 40
0.7272727272727267
 40
0.7272727272727267
 40
0.7272727272727267
 40
0.7424242424242419
 40
0.7424242424242419
 40
0.7424242424242419
 40
0.7424242424242419
 40
0.757575757575757
 40
0.757575757575757
 40
0.757575757575757
 40
0.757575757575757
 40
0.7727272727272722
 40
0.7727272727272722
 40
0.7727272727272722
 40
0.7727272727272722
 40
0.7878787878787873
 40
0.7878787878787873
 40
0.7878787878787873
 40
0.7878787878787873
 40
0.8030303030303024
 40
0.8030303030303024
 40
0.8030303030303024
 40
0.8030303030303024
 40
0.8181818181818176
 40
0.8181818181818176
 40
0.8181818181818176
 40
0.8181818181818176
 40
0.8333333333333327
 40
0.8333333333333327
 40
0.8333333333333327
 40
0.8333333333333327
 40
0.8484848484848478
 40
0.8484848484848478
 40
0.8484848484848478
 40
0.8484848484848478
 40
0.863636363636363
 40
0.863636363636363
 40
0.863636363636363
 40
0.863636363636363
 40
0.8787878787878781
 40
0.8787878787878781
 40
0.8787878787878781
 40
0.8787878787878781
 40
0.8939393939393933
 40
0.8939393939393933
 40
0.8939393939393933
 40
0.8939393939393933
 40
0.9090909090909084
 40
0.9090909090909084
 40
0.9090909090909084
 40
0.9090909090909084
 40
0.9242424242424235
 40
0.9242424242424235
 40
0.9242424242424235
 40
0.9242424242424235
 40
0.9393939393939387
 40
0.9393939393939387
 40
0.9393939393939387
 40
0.9393939393939387
 40
0.9545454545454538
 40
0.9545454545454538
 40
0.9545454545454538
 40
0.9545454545454538
 40
0.969696969696969
 40
0.969696969696969
 40
0.969696969696969
 40
0.969696969696969
 40
0.9848484848484841
 40
0.9848484848484841
 40
0.9848484848484841
 40
0.9848484848484841
 40
1.0
 40
1.0
 40
1.0
 40
1.0
 10
0.3329881889763779
 20
0.6258858267716536
 30
0.0
 10
0.3329881889763779
 20
0.6258858267716536
 30
0.0
 10
0.9793582677165355
 20
0.2497992125984252
 30
0.0
 10
0.9793582677165355
 20
0.2497992125984252
 30
0.0
 10
0.9793582677165355
 20
0.2497992125984252
 30
0.0
 10
0.9793582677165355
 20
0.2497992125984252
 30
0.0
 10
0.9597598425196851
 20
0.2467322834645669
 30
0.0
 10
0.9597598425196851
 20
0.2467322834645669
 30
0.0
 10
0.9597598425196851
 20
0.2467322834645669
 30
0.0
 10
0.9597598425196851
 20
0.2467322834645669
 30
0.0
 10
0.9408267716535433
 20
0.2432755905511811
 30
0.0
 10
0.9408267716535433
 20
0.2432755905511811
 30
0.0
 10
0.9408267716535433
 20
0.2432755905511811
 30
0.0
 10
0.9408267716535433
 20
0.2432755905511811
 30
0.0
 10
0.9225551181102363
 20
0.2393897637795276
 30
0.0
 10
0.9225551181102363
 20
0.2393897637795276
 30
0.0
 10
0.9225551181102363
 20
0.2393897637795276
 30
0.0
 10
0.9225551181102363
 20
0.2393897637795276
 30
0.0
 10
0.9049488188976378
 20
0.2350472440944882
 30
0.0
 10
0.9049488188976378
 20
0.2350472440944882
 30
0.0
 10
0.9049488188976378
 20
0.2350472440944882
 30
0.0
 10
0.9049488188976378
 20
0.2350472440944882
 30
0.0
 10
0.887992125984252
 20
0.2302007874015748
 30
0.0
 10
0.887992125984252
 20
0.2302007874015748
 30
0.0
 10
0.887992125984252
 20
0.2302007874015748
 30
0.0
 10
0.887992125984252
 20
0.2302007874015748
 30
0.0
 10
0.8716968503937008
 20
0.2248346456692913
 30
0.0
 10
0.8716968503937008
 20
0.2248346456692913
 30
0.0
 10
0.8716968503937008
 20
0.2248346456692913
 30
0.0
 10
0.8716968503937008
 20
0.2248346456692913
 30
0.0
 10
0.8560511811023622
 20
0.2189015748031496
 30
0.0
 10
0.8560511811023622
 20
0.2189015748031496
 30
0.0
 10
0.8560511811023622
 20
0.2189015748031496
 30
0.0
 10
0.8560511811023622
 20
0.2189015748031496
 30
0.0
 10
0.8410590551181103
 20
0.2123740157480315
 30
0.0
 10
0.8410590551181103
 20
0.2123740157480315
 30
0.0
 10
0.8410590551181103
 20
0.2123740157480315
 30
0.0
 10
0.8410590551181103
 20
0.2123740157480315
 30
0.0
 10
0.8267047244094489
 20
0.2052047244094488
 30
0.0
 10
0.8267047244094489
 20
0.2052047244094488
 30
0.0
 10
0.8267047244094489
 20
0.2052047244094488
 30
0.0
 10
0.8267047244094489
 20
0.2052047244094488
 30
0.0
 10
0.812996062992126
 20
0.1973740157480315
 30
0.0
 10
0.812996062992126
 20
0.1973740157480315
 30
0.0
 10
0.812996062992126
 20
0.1973740157480315
 30
0.0
 10
0.812996062992126
 20
0.1973740157480315
 30
0.0
 10
0.7999212598425197
 20
0.1888425196850394
 30
0.0
 10
0.7999212598425197
 20
0.1888425196850394
 30
0.0
 10
0.7999212598425197
 20
0.1888425196850394
 30
0.0
 10
0.7999212598425197
 20
0.1888425196850394
 30
0.0
 10
0.787496062992126
 20
0.1795787401574803
 30
0.0
 10
0.787496062992126
 20
0.1795787401574803
 30
0.0
 10
0.787496062992126
 20
0.1795787401574803
 30
0.0
 10
0.787496062992126
 20
0.1795787401574803
 30
0.0
 10
0.7756968503937008
 20
0.1695393700787402
 30
0.0
 10
0.7756968503937008
 20
0.1695393700787402
 30
0.0
 10
0.7756968503937008
 20
0.1695393700787402
 30
0.0
 10
0.7756968503937008
 20
0.1695393700787402
 30
0.0
 10
0.7645354330708661
 20
0.1587047244094488
 30
0.0
 10
0.7645354330708661
 20
0.1587047244094488
 30
0.0
 10
0.7645354330708661
 20
0.1587047244094488
 30
0.0
 10
0.7645354330708661
 20
0.1587047244094488
 30
0.0
 10
0.753996062992126
 20
0.1470275590551181
 30
0.0
 10
0.753996062992126
 20
0.1470275590551181
 30
0.0
 10
0.753996062992126
 20
0.1470275590551181
 30
0.0
 10
0.753996062992126
 20
0.1470275590551181
 30
0.0
 10
0.7440905511811023
 20
0.1344803149606299
 30
0.0
 10
0.7440905511811023
 20
0.1344803149606299
 30
0.0
 10
0.7440905511811023
 20
0.1344803149606299
 30
0.0
 10
0.7440905511811023
 20
0.1344803149606299
 30
0.0
 10
0.7347992125984252
 20
0.1210196850393701
 30
0.0
 10
0.7347992125984252
 20
0.1210196850393701
 30
0.0
 10
0.7347992125984252
 20
0.1210196850393701
 30
0.0
 10
0.7347992125984252
 20
0.1210196850393701
 30
0.0
 10
0.7261299212598426
 20
0.1066220472440945
 30
0.0
 10
0.7261299212598426
 20
0.1066220472440945
 30
0.0
 10
0.7261299212598426
 20
0.1066220472440945
 30
0.0
 10
0.7261299212598426
 20
0.1066220472440945
 30
0.0
 10
0.7180748031496064
 20
0.091244094488189
 30
0.0
 10
0.7180748031496064
 20
0.091244094488189
 30
0.0
 10
0.7180748031496064
 20
0.091244094488189
 30
0.0
 10
0.7180748031496064
 20
0.091244094488189
 30
0.0
 10
0.7106456692913387
 20
0.0748661417322835
 30
0.0
 10
0.7106456692913387
 20
0.0748661417322835
 30
0.0
 10
0.7106456692913387
 20
0.0748661417322835
 30
0.0
 10
0.7106456692913387
 20
0.0748661417322835
 30
0.0
 10
0.7038149606299213
 20
0.0574370078740157
 30
0.0
 10
0.7038149606299213
 20
0.0574370078740157
 30
0.0
 10
0.7038149606299213
 20
0.0574370078740157
 30
0.0
 10
0.7038149606299213
 20
0.0574370078740157
 30
0.0
 10
0.6975984251968505
 20
0.0389330708661417
 30
0.0
 10
0.6975984251968505
 20
0.0389330708661417
 30
0.0
 10
0.6975984251968505
 20
0.0389330708661417
 30
0.0
 10
0.6975984251968505
 20
0.0389330708661417
 30
0.0
 10
0.6919881889763779
 20
0.0193149606299213
 30
0.0
 10
0.6919881889763779
 20
0.0193149606299213
 30
0.0
 10
0.6919881889763779
 20
0.0193149606299213
 30
0.0
 10
0.6919881889763779
 20
0.0193149606299213
 30
0.0
 10
0.686984251968504
 20
-0.0014409448818898
 30
0.0
 10
0.686984251968504
 20
-0.0014409448818898
 30
0.0
 10
0.686984251968504
 20
-0.0014409448818898
 30
0.0
 10
0.686984251968504
 20
-0.0014409448818898
 30
0.0
 10
0.6825748031496063
 20
-0.0233897637795276
 30
0.0
 10
0.6825748031496063
 20
-0.0233897637795276
 30
0.0
 10
0.6825748031496063
 20
-0.0233897637795276
 30
0.0
 10
0.6825748031496063
 20
-0.0233897637795276
 30
0.0
 10
0.6787637795275591
 20
-0.0465472440944882
 30
0.0
 10
0.6787637795275591
 20
-0.0465472440944882
 30
0.0
 10
0.6787637795275591
 20
-0.0465472440944882
 30
0.0
 10
0.6787637795275591
 20
-0.0465472440944882
 30
0.0
 10
0.6755433070866143
 20
-0.0709566929133858
 30
0.0
 10
0.6755433070866143
 20
-0.0709566929133858
 30
0.0
 10
0.6755433070866143
 20
-0.0709566929133858
 30
0.0
 10
0.6755433070866143
 20
-0.0709566929133858
 30
0.0
 10
0.6729212598425197
 20
-0.0966417322834646
 30
0.0
 10
0.6729212598425197
 20
-0.0966417322834646
 30
0.0
 10
0.6729212598425197
 20
-0.0966417322834646
 30
0.0
 10
0.6729212598425197
 20
-0.0966417322834646
 30
0.0
 10
0.6708779527559056
 20
-0.1236535433070866
 30
0.0
 10
0.6708779527559056
 20
-0.1236535433070866
 30
0.0
 10
0.6708779527559056
 20
-0.1236535433070866
 30
0.0
 10
0.6708779527559056
 20
-0.1236535433070866
 30
0.0
 10
0.6694330708661418
 20
-0.1520118110236221
 30
0.0
 10
0.6694330708661418
 20
-0.1520118110236221
 30
0.0
 10
0.6694330708661418
 20
-0.1520118110236221
 30
0.0
 10
0.6694330708661418
 20
-0.1520118110236221
 30
0.0
 10
0.6685629921259843
 20
-0.1817598425196851
 30
0.0
 10
0.6685629921259843
 20
-0.1817598425196851
 30
0.0
 10
0.6685629921259843
 20
-0.1817598425196851
 30
0.0
 10
0.6685629921259843
 20
-0.1817598425196851
 30
0.0
 10
0.6682795275590552
 20
-0.2129251968503937
 30
0.0
 10
0.6682795275590552
 20
-0.2129251968503937
 30
0.0
 10
0.6682795275590552
 20
-0.2129251968503937
 30
0.0
 10
0.6682795275590552
 20
-0.2129251968503937
 30
0.0
 10
0.0219094488188976
 20
0.1631614173228347
 30
0.0
 10
0.0219094488188976
 20
0.1631614173228347
 30
0.0
 10
0.0219094488188976
 20
0.1631614173228347
 30
0.0
 10
0.0219094488188976
 20
0.1631614173228347
 30
0.0
 10
0.0221929133858268
 20
0.1943267716535433
 30
0.0
 10
0.0221929133858268
 20
0.1943267716535433
 30
0.0
 10
0.0221929133858268
 20
0.1943267716535433
 30
0.0
 10
0.0221929133858268
 20
0.1943267716535433
 30
0.0
 10
0.0230629921259843
 20
0.2240748031496063
 30
0.0
 10
0.0230629921259843
 20
0.2240748031496063
 30
0.0
 10
0.0230629921259843
 20
0.2240748031496063
 30
0.0
 10
0.0230629921259843
 20
0.2240748031496063
 30
0.0
 10
0.024507874015748
 20
0.2524330708661418
 30
0.0
 10
0.024507874015748
 20
0.2524330708661418
 30
0.0
 10
0.024507874015748
 20
0.2524330708661418
 30
0.0
 10
0.024507874015748
 20
0.2524330708661418
 30
0.0
 10
0.0265511811023622
 20
0.2794448818897638
 30
0.0
 10
0.0265511811023622
 20
0.2794448818897638
 30
0.0
 10
0.0265511811023622
 20
0.2794448818897638
 30
0.0
 10
0.0265511811023622
 20
0.2794448818897638
 30
0.0
 10
0.0291732283464567
 20
0.3051299212598425
 30
0.0
 10
0.0291732283464567
 20
0.3051299212598425
 30
0.0
 10
0.0291732283464567
 20
0.3051299212598425
 30
0.0
 10
0.0291732283464567
 20
0.3051299212598425
 30
0.0
 10
0.0323937007874016
 20
0.3295393700787402
 30
0.0
 10
0.0323937007874016
 20
0.3295393700787402
 30
0.0
 10
0.0323937007874016
 20
0.3295393700787402
 30
0.0
 10
0.0323937007874016
 20
0.3295393700787402
 30
0.0
 10
0.0362047244094488
 20
0.3526968503937008
 30
0.0
 10
0.0362047244094488
 20
0.3526968503937008
 30
0.0
 10
0.0362047244094488
 20
0.3526968503937008
 30
0.0
 10
0.0362047244094488
 20
0.3526968503937008
 30
0.0
 10
0.0406141732283465
 20
0.3746456692913386
 30
0.0
 10
0.0406141732283465
 20
0.3746456692913386
 30
0.0
 10
0.0406141732283465
 20
0.3746456692913386
 30
0.0
 10
0.0406141732283465
 20
0.3746456692913386
 30
0.0
 10
0.0456181102362205
 20
0.3954015748031496
 30
0.0
 10
0.0456181102362205
 20
0.3954015748031496
 30
0.0
 10
0.0456181102362205
 20
0.3954015748031496
 30
0.0
 10
0.0456181102362205
 20
0.3954015748031496
 30
0.0
 10
0.0512283464566929
 20
0.4150196850393701
 30
0.0
 10
0.0512283464566929
 20
0.4150196850393701
 30
0.0
 10
0.0512283464566929
 20
0.4150196850393701
 30
0.0
 10
0.0512283464566929
 20
0.4150196850393701
 30
0.0
 10
0.0574448818897638
 20
0.4335236220472441
 30
0.0
 10
0.0574448818897638
 20
0.4335236220472441
 30
0.0
 10
0.0574448818897638
 20
0.4335236220472441
 30
0.0
 10
0.0574448818897638
 20
0.4335236220472441
 30
0.0
 10
0.0642755905511811
 20
0.4509527559055118
 30
0.0
 10
0.0642755905511811
 20
0.4509527559055118
 30
0.0
 10
0.0642755905511811
 20
0.4509527559055118
 30
0.0
 10
0.0642755905511811
 20
0.4509527559055118
 30
0.0
 10
0.0717047244094488
 20
0.4673307086614174
 30
0.0
 10
0.0717047244094488
 20
0.4673307086614174
 30
0.0
 10
0.0717047244094488
 20
0.4673307086614174
 30
0.0
 10
0.0717047244094488
 20
0.4673307086614174
 30
0.0
 10
0.079759842519685
 20
0.4827086614173228
 30
0.0
 10
0.079759842519685
 20
0.4827086614173228
 30
0.0
 10
0.079759842519685
 20
0.4827086614173228
 30
0.0
 10
0.079759842519685
 20
0.4827086614173228
 30
0.0
 10
0.0884291338582677
 20
0.4971062992125985
 30
0.0
 10
0.0884291338582677
 20
0.4971062992125985
 30
0.0
 10
0.0884291338582677
 20
0.4971062992125985
 30
0.0
 10
0.0884291338582677
 20
0.4971062992125985
 30
0.0
 10
0.0977204724409449
 20
0.5105669291338583
 30
0.0
 10
0.0977204724409449
 20
0.5105669291338583
 30
0.0
 10
0.0977204724409449
 20
0.5105669291338583
 30
0.0
 10
0.0977204724409449
 20
0.5105669291338583
 30
0.0
 10
0.1076259842519685
 20
0.5231141732283465
 30
0.0
 10
0.1076259842519685
 20
0.5231141732283465
 30
0.0
 10
0.1076259842519685
 20
0.5231141732283465
 30
0.0
 10
0.1076259842519685
 20
0.5231141732283465
 30
0.0
 10
0.1181653543307087
 20
0.5347913385826771
 30
0.0
 10
0.1181653543307087
 20
0.5347913385826771
 30
0.0
 10
0.1181653543307087
 20
0.5347913385826771
 30
0.0
 10
0.1181653543307087
 20
0.5347913385826771
 30
0.0
 10
0.1293267716535433
 20
0.5456259842519685
 30
0.0
 10
0.1293267716535433
 20
0.5456259842519685
 30
0.0
 10
0.1293267716535433
 20
0.5456259842519685
 30
0.0
 10
0.1293267716535433
 20
0.5456259842519685
 30
0.0
 10
0.1411259842519685
 20
0.5556653543307086
 30
0.0
 10
0.1411259842519685
 20
0.5556653543307086
 30
0.0
 10
0.1411259842519685
 20
0.5556653543307086
 30
0.0
 10
0.1411259842519685
 20
0.5556653543307086
 30
0.0
 10
0.1535511811023622
 20
0.5649291338582677
 30
0.0
 10
0.1535511811023622
 20
0.5649291338582677
 30
0.0
 10
0.1535511811023622
 20
0.5649291338582677
 30
0.0
 10
0.1535511811023622
 20
0.5649291338582677
 30
0.0
 10
0.1666259842519685
 20
0.5734606299212599
 30
0.0
 10
0.1666259842519685
 20
0.5734606299212599
 30
0.0
 10
0.1666259842519685
 20
0.5734606299212599
 30
0.0
 10
0.1666259842519685
 20
0.5734606299212599
 30
0.0
 10
0.1803346456692913
 20
0.5812913385826772
 30
0.0
 10
0.1803346456692913
 20
0.5812913385826772
 30
0.0
 10
0.1803346456692913
 20
0.5812913385826772
 30
0.0
 10
0.1803346456692913
 20
0.5812913385826772
 30
0.0
 10
0.1946889763779528
 20
0.5884606299212599
 30
0.0
 10
0.1946889763779528
 20
0.5884606299212599
 30
0.0
 10
0.1946889763779528
 20
0.5884606299212599
 30
0.0
 10
0.1946889763779528
 20
0.5884606299212599
 30
0.0
 10
0.2096811023622047
 20
0.594988188976378
 30
0.0
 10
0.2096811023622047
 20
0.594988188976378
 30
0.0
 10
0.2096811023622047
 20
0.594988188976378
 30
0.0
 10
0.2096811023622047
 20
0.594988188976378
 30
0.0
 10
0.2253267716535433
 20
0.6009212598425198
 30
0.0
 10
0.2253267716535433
 20
0.6009212598425198
 30
0.0
 10
0.2253267716535433
 20
0.6009212598425198
 30
0.0
 10
0.2253267716535433
 20
0.6009212598425198
 30
0.0
 10
0.2416220472440945
 20
0.6062874015748032
 30
0.0
 10
0.2416220472440945
 20
0.6062874015748032
 30
0.0
 10
0.2416220472440945
 20
0.6062874015748032
 30
0.0
 10
0.2416220472440945
 20
0.6062874015748032
 30
0.0
 10
0.2585787401574803
 20
0.6111338582677166
 30
0.0
 10
0.2585787401574803
 20
0.6111338582677166
 30
0.0
 10
0.2585787401574803
 20
0.6111338582677166
 30
0.0
 10
0.2585787401574803
 20
0.6111338582677166
 30
0.0
 10
0.2761850393700788
 20
0.6154763779527559
 30
0.0
 10
0.2761850393700788
 20
0.6154763779527559
 30
0.0
 10
0.2761850393700788
 20
0.6154763779527559
 30
0.0
 10
0.2761850393700788
 20
0.6154763779527559
 30
0.0
 10
0.2944566929133858
 20
0.6193622047244095
 30
0.0
 10
0.2944566929133858
 20
0.6193622047244095
 30
0.0
 10
0.2944566929133858
 20
0.6193622047244095
 30
0.0
 10
0.2944566929133858
 20
0.6193622047244095
 30
0.0
 10
0.3133897637795276
 20
0.6228188976377953
 30
0.0
 10
0.3133897637795276
 20
0.6228188976377953
 30
0.0
 10
0.3133897637795276
 20
0.6228188976377953
 30
0.0
 10
0.3133897637795276
 20
0.6228188976377953
 30
0.0
 10
0.3329881889763779
 20
0.6258858267716536
 30
0.0
 10
0.3329881889763779
 20
0.6258858267716536
 30
0.0
  0
SPLINE
  5
8A
100
AcDbEntity
  8
Layer 1
 62
     9
100
AcDbSpline
210
0.0
220
0.0
230
1.0
 70
     1
 71
     3
 72
    20
 73
    16
 74
     0
 42
0.0000000001
 43
0.0000000001
 40
0.0
 40
0.0
 40
0.0
 40
0.0
 40
0.25
 40
0.25
 40
0.25
 40
0.25
 40
0.5
 40
0.5
 40
0.5
 40
0.5
 40
0.75
 40
0.75
 40
0.75
 40
0.75
 40
1.0
 40
1.0
 40
1.0
 40
1.0
 10
0.0219094488188976
 20
0.1631614173228347
 30
0.0
 10
0.0219094488188976
 20
0.1631614173228347
 30
0.0
 10
0.6682795275590552
 20
-0.2129251968503937
 30
0.0
 10
0.6682795275590552
 20
-0.2129251968503937
 30
0.0
 10
0.6682795275590552
 20
-0.2129251968503937
 30
0.0
 10
0.6682795275590552
 20
-0.2129251968503937
 30
0.0
 10
0.5432362204724409
 20
-0.2459094488188977
 30
0.0
 10
0.5432362204724409
 20
-0.2459094488188977
 30
0.0
 10
0.5432362204724409
 20
-0.2459094488188977
 30
0.0
 10
0.5432362204724409
 20
-0.2459094488188977
 30
0.0
 10
-0.1031338582677165
 20
0.1301771653543307
 30
0.0
 10
-0.1031338582677165
 20
0.1301771653543307
 30
0.0
 10
-0.1031338582677165
 20
0.1301771653543307
 30
0.0
 10
-0.1031338582677165
 20
0.1301771653543307
 30
0.0
 10
0.0219094488188976
 20
0.1631614173228347
 30
0.0
 10
0.0219094488188976
 20
0.1631614173228347
 30
0.0
  0
SPLINE
  5
8B
100
AcDbEntity
  8
Layer 1
370
     5
100
AcDbSpline
210
0.0
220
0.0
230
1.0
 70
     1
 71
     3
 72
    20
 73
    16
 74
     0
 42
0.0000000001
 43
0.0000000001
 40
0.0
 40
0.0
 40
0.0
 40
0.0
 40
0.25
 40
0.25
 40
0.25
 40
0.25
 40
0.5
 40
0.5
 40
0.5
 40
0.5
 40
0.75
 40
0.75
 40
0.75
 40
0.75
 40
1.0
 40
1.0
 40
1.0
 40
1.0
 10
0.0219094488188976
 20
0.1631614173228347
 30
0.0
 10
0.0219094488188976
 20
0.1631614173228347
 30
0.0
 10
0.6682795275590552
 20
-0.2129251968503937
 30
0.0
 10
0.6682795275590552
 20
-0.2129251968503937
 30
0.0
 10
0.6682795275590552
 20
-0.2129251968503937
 30
0.0
 10
0.6682795275590552
 20
-0.2129251968503937
 30
0.0
 10
0.5432362204724409
 20
-0.2459094488188977
 30
0.0
 10
0.5432362204724409
 20
-0.2459094488188977
 30
0.0
 10
0.5432362204724409
 20
-0.2459094488188977
 30
0.0
 10
0.5432362204724409
 20
-0.2459094488188977
 30
0.0
 10
-0.1031338582677165
 20
0.1301771653543307
 30
0.0
 10
-0.1031338582677165
 20
0.1301771653543307
 30
0.0
 10
-0.1031338582677165
 20
0.1301771653543307
 30
0.0
 10
-0.1031338582677165
 20
0.1301771653543307
 30
0.0
 10
0.0219094488188976
 20
0.1631614173228347
 30
0.0
 10
0.0219094488188976
 20
0.1631614173228347
 30
0.0
  0
SPLINE
  5
8C
100
AcDbEntity
  8
Layer 1
 62
     9
100
AcDbSpline
210
0.0
220
0.0
230
1.0
 70
     1
 71
     3
 72
    20
 73
    16
 74
     0
 42
0.0000000001
 43
0.0000000001
 40
0.0
 40
0.0
 40
0.0
 40
0.0
 40
0.25
 40
0.25
 40
0.25
 40
0.25
 40
0.5
 40
0.5
 40
0.5
 40
0.5
 40
0.75
 40
0.75
 40
0.75
 40
0.75
 40
1.0
 40
1.0
 40
1.0
 40
1.0
 10
-0.1031338582677165
 20
0.1301771653543307
 30
0.0
 10
-0.1031338582677165
 20
0.1301771653543307
 30
0.0
 10
0.5432362204724409
 20
-0.2459094488188977
 30
0.0
 10
0.5432362204724409
 20
-0.2459094488188977
 30
0.0
 10
0.5432362204724409
 20
-0.2459094488188977
 30
0.0
 10
0.5432362204724409
 20
-0.2459094488188977
 30
0.0
 10
0.5432362204724409
 20
-1.4656929133858267
 30
0.0
 10
0.5432362204724409
 20
-1.4656929133858267
 30
0.0
 10
0.5432362204724409
 20
-1.4656929133858267
 30
0.0
 10
0.5432362204724409
 20
-1.4656929133858267
 30
0.0
 10
-0.1031338582677165
 20
-1.0896062992125986
 30
0.0
 10
-0.1031338582677165
 20
-1.0896062992125986
 30
0.0
 10
-0.1031338582677165
 20
-1.0896062992125986
 30
0.0
 10
-0.1031338582677165
 20
-1.0896062992125986
 30
0.0
 10
-0.1031338582677165
 20
0.1301771653543307
 30
0.0
 10
-0.1031338582677165
 20
0.1301771653543307
 30
0.0
  0
SPLINE
  5
8D
100
AcDbEntity
  8
Layer 1
370
     5
100
AcDbSpline
210
0.0
220
0.0
230
1.0
 70
     1
 71
     3
 72
    20
 73
    16
 74
     0
 42
0.0000000001
 43
0.0000000001
 40
0.0
 40
0.0
 40
0.0
 40
0.0
 40
0.25
 40
0.25
 40
0.25
 40
0.25
 40
0.5
 40
0.5
 40
0.5
 40
0.5
 40
0.75
 40
0.75
 40
0.75
 40
0.75
 40
1.0
 40
1.0
 40
1.0
 40
1.0
 10
-0.1031338582677165
 20
0.1301771653543307
 30
0.0
 10
-0.1031338582677165
 20
0.1301771653543307
 30
0.0
 10
0.5432362204724409
 20
-0.2459094488188977
 30
0.0
 10
0.5432362204724409
 20
-0.2459094488188977
 30
0.0
 10
0.5432362204724409
 20
-0.2459094488188977
 30
0.0
 10
0.5432362204724409
 20
-0.2459094488188977
 30
0.0
 10
0.5432362204724409
 20
-1.4656929133858267
 30
0.0
 10
0.5432362204724409
 20
-1.4656929133858267
 30
0.0
 10
0.5432362204724409
 20
-1.4656929133858267
 30
0.0
 10
0.5432362204724409
 20
-1.4656929133858267
 30
0.0
 10
-0.1031338582677165
 20
-1.0896062992125986
 30
0.0
 10
-0.1031338582677165
 20
-1.0896062992125986
 30
0.0
 10
-0.1031338582677165
 20
-1.0896062992125986
 30
0.0
 10
-0.1031338582677165
 20
-1.0896062992125986
 30
0.0
 10
-0.1031338582677165
 20
0.1301771653543307
 30
0.0
 10
-0.1031338582677165
 20
0.1301771653543307
 30
0.0
  0
SPLINE
  5
8E
100
AcDbEntity
  8
Layer 1
 62
     9
100
AcDbSpline
210
0.0
220
0.0
230
1.0
 70
     1
 71
     3
 72
    20
 73
    16
 74
     0
 42
0.0000000001
 43
0.0000000001
 40
0.0
 40
0.0
 40
0.0
 40
0.0
 40
0.25
 40
0.25
 40
0.25
 40
0.25
 40
0.5
 40
0.5
 40
0.5
 40
0.5
 40
0.75
 40
0.75
 40
0.75
 40
0.75
 40
1.0
 40
1.0
 40
1.0
 40
1.0
 10
-0.1031338582677165
 20
-1.0896062992125986
 30
0.0
 10
-0.1031338582677165
 20
-1.0896062992125986
 30
0.0
 10
0.5432362204724409
 20
-1.4656929133858267
 30
0.0
 10
0.5432362204724409
 20
-1.4656929133858267
 30
0.0
 10
0.5432362204724409
 20
-1.4656929133858267
 30
0.0
 10
0.5432362204724409
 20
-1.4656929133858267
 30
0.0
 10
0.349240157480315
 20
-1.4949251968503938
 30
0.0
 10
0.349240157480315
 20
-1.4949251968503938
 30
0.0
 10
0.349240157480315
 20
-1.4949251968503938
 30
0.0
 10
0.349240157480315
 20
-1.4949251968503938
 30
0.0
 10
-0.2971299212598426
 20
-1.1188385826771654
 30
0.0
 10
-0.2971299212598426
 20
-1.1188385826771654
 30
0.0
 10
-0.2971299212598426
 20
-1.1188385826771654
 30
0.0
 10
-0.2971299212598426
 20
-1.1188385826771654
 30
0.0
 10
-0.1031338582677165
 20
-1.0896062992125986
 30
0.0
 10
-0.1031338582677165
 20
-1.0896062992125986
 30
0.0
  0
SPLINE
  5
8F
100
AcDbEntity
  8
Layer 1
 62
     9
100
AcDbSpline
210
0.0
220
0.0
230
1.0
 70
     1
 71
     3
 72
    20
 73
    16
 74
     0
 42
0.0000000001
 43
0.0000000001
 40
0.0
 40
0.0
 40
0.0
 40
0.0
 40
0.25
 40
0.25
 40
0.25
 40
0.25
 40
0.5
 40
0.5
 40
0.5
 40
0.5
 40
0.75
 40
0.75
 40
0.75
 40
0.75
 40
1.0
 40
1.0
 40
1.0
 40
1.0
 10
-0.2971299212598426
 20
-1.1188385826771654
 30
0.0
 10
-0.2971299212598426
 20
-1.1188385826771654
 30
0.0
 10
0.349240157480315
 20
-1.4949251968503938
 30
0.0
 10
0.349240157480315
 20
-1.4949251968503938
 30
0.0
 10
0.349240157480315
 20
-1.4949251968503938
 30
0.0
 10
0.349240157480315
 20
-1.4949251968503938
 30
0.0
 10
0.3476377952755906
 20
-1.5635590551181102
 30
0.0
 10
0.3476377952755906
 20
-1.5635590551181102
 30
0.0
 10
0.3476377952755906
 20
-1.5635590551181102
 30
0.0
 10
0.3476377952755906
 20
-1.5635590551181102
 30
0.0
 10
-0.2987322834645669
 20
-1.187472440944882
 30
0.0
 10
-0.2987322834645669
 20
-1.187472440944882
 30
0.0
 10
-0.2987322834645669
 20
-1.187472440944882
 30
0.0
 10
-0.2987322834645669
 20
-1.187472440944882
 30
0.0
 10
-0.2971299212598426
 20
-1.1188385826771654
 30
0.0
 10
-0.2971299212598426
 20
-1.1188385826771654
 30
0.0
  0
SPLINE
  5
90
100
AcDbEntity
  8
Layer 1
 62
     9
100
AcDbSpline
210
0.0
220
0.0
230
1.0
 70
     1
 71
     3
 72
    20
 73
    16
 74
     0
 42
0.0000000001
 43
0.0000000001
 40
0.0
 40
0.0
 40
0.0
 40
0.0
 40
0.25
 40
0.25
 40
0.25
 40
0.25
 40
0.5
 40
0.5
 40
0.5
 40
0.5
 40
0.75
 40
0.75
 40
0.75
 40
0.75
 40
1.0
 40
1.0
 40
1.0
 40
1.0
 10
-0.2987322834645669
 20
-1.187472440944882
 30
0.0
 10
-0.2987322834645669
 20
-1.187472440944882
 30
0.0
 10
0.3476377952755906
 20
-1.5635590551181102
 30
0.0
 10
0.3476377952755906
 20
-1.5635590551181102
 30
0.0
 10
0.3476377952755906
 20
-1.5635590551181102
 30
0.0
 10
0.3476377952755906
 20
-1.5635590551181102
 30
0.0
 10
0.3429448818897638
 20
-1.6289015748031497
 30
0.0
 10
0.3429448818897638
 20
-1.6289015748031497
 30
0.0
 10
0.3429448818897638
 20
-1.6289015748031497
 30
0.0
 10
0.3429448818897638
 20
-1.6289015748031497
 30
0.0
 10
-0.3034251968503937
 20
-1.2528149606299213
 30
0.0
 10
-0.3034251968503937
 20
-1.2528149606299213
 30
0.0
 10
-0.3034251968503937
 20
-1.2528149606299213
 30
0.0
 10
-0.3034251968503937
 20
-1.2528149606299213
 30
0.0
 10
-0.2987322834645669
 20
-1.187472440944882
 30
0.0
 10
-0.2987322834645669
 20
-1.187472440944882
 30
0.0
  0
SPLINE
  5
91
100
AcDbEntity
  8
Layer 1
 62
     9
100
AcDbSpline
210
0.0
220
0.0
230
1.0
 70
     1
 71
     3
 72
    20
 73
    16
 74
     0
 42
0.0000000001
 43
0.0000000001
 40
0.0
 40
0.0
 40
0.0
 40
0.0
 40
0.25
 40
0.25
 40
0.25
 40
0.25
 40
0.5
 40
0.5
 40
0.5
 40
0.5
 40
0.75
 40
0.75
 40
0.75
 40
0.75
 40
1.0
 40
1.0
 40
1.0
 40
1.0
 10
-0.3034251968503937
 20
-1.2528149606299213
 30
0.0
 10
-0.3034251968503937
 20
-1.2528149606299213
 30
0.0
 10
0.3429448818897638
 20
-1.6289015748031497
 30
0.0
 10
0.3429448818897638
 20
-1.6289015748031497
 30
0.0
 10
0.3429448818897638
 20
-1.6289015748031497
 30
0.0
 10
0.3429448818897638
 20
-1.6289015748031497
 30
0.0
 10
0.3353464566929134
 20
-1.6910157480314962
 30
0.0
 10
0.3353464566929134
 20
-1.6910157480314962
 30
0.0
 10
0.3353464566929134
 20
-1.6910157480314962
 30
0.0
 10
0.3353464566929134
 20
-1.6910157480314962
 30
0.0
 10
-0.3110236220472441
 20
-1.3149291338582678
 30
0.0
 10
-0.3110236220472441
 20
-1.3149291338582678
 30
0.0
 10
-0.3110236220472441
 20
-1.3149291338582678
 30
0.0
 10
-0.3110236220472441
 20
-1.3149291338582678
 30
0.0
 10
-0.3034251968503937
 20
-1.2528149606299213
 30
0.0
 10
-0.3034251968503937
 20
-1.2528149606299213
 30
0.0
  0
SPLINE
  5
92
100
AcDbEntity
  8
Layer 1
 62
     9
100
AcDbSpline
210
0.0
220
0.0
230
1.0
 70
     1
 71
     3
 72
    20
 73
    16
 74
     0
 42
0.0000000001
 43
0.0000000001
 40
0.0
 40
0.0
 40
0.0
 40
0.0
 40
0.25
 40
0.25
 40
0.25
 40
0.25
 40
0.5
 40
0.5
 40
0.5
 40
0.5
 40
0.75
 40
0.75
 40
0.75
 40
0.75
 40
1.0
 40
1.0
 40
1.0
 40
1.0
 10
-0.3110236220472441
 20
-1.3149291338582678
 30
0.0
 10
-0.3110236220472441
 20
-1.3149291338582678
 30
0.0
 10
0.3353464566929134
 20
-1.6910157480314962
 30
0.0
 10
0.3353464566929134
 20
-1.6910157480314962
 30
0.0
 10
0.3353464566929134
 20
-1.6910157480314962
 30
0.0
 10
0.3353464566929134
 20
-1.6910157480314962
 30
0.0
 10
0.3250157480314961
 20
-1.749988188976378
 30
0.0
 10
0.3250157480314961
 20
-1.749988188976378
 30
0.0
 10
0.3250157480314961
 20
-1.749988188976378
 30
0.0
 10
0.3250157480314961
 20
-1.749988188976378
 30
0.0
 10
-0.3213543307086614
 20
-1.3739015748031496
 30
0.0
 10
-0.3213543307086614
 20
-1.3739015748031496
 30
0.0
 10
-0.3213543307086614
 20
-1.3739015748031496
 30
0.0
 10
-0.3213543307086614
 20
-1.3739015748031496
 30
0.0
 10
-0.3110236220472441
 20
-1.3149291338582678
 30
0.0
 10
-0.3110236220472441
 20
-1.3149291338582678
 30
0.0
  0
SPLINE
  5
93
100
AcDbEntity
  8
Layer 1
 62
     9
100
AcDbSpline
210
0.0
220
0.0
230
1.0
 70
     1
 71
     3
 72
    20
 73
    16
 74
     0
 42
0.0000000001
 43
0.0000000001
 40
0.0
 40
0.0
 40
0.0
 40
0.0
 40
0.25
 40
0.25
 40
0.25
 40
0.25
 40
0.5
 40
0.5
 40
0.5
 40
0.5
 40
0.75
 40
0.75
 40
0.75
 40
0.75
 40
1.0
 40
1.0
 40
1.0
 40
1.0
 10
-0.3213543307086614
 20
-1.3739015748031496
 30
0.0
 10
-0.3213543307086614
 20
-1.3739015748031496
 30
0.0
 10
0.3250157480314961
 20
-1.749988188976378
 30
0.0
 10
0.3250157480314961
 20
-1.749988188976378
 30
0.0
 10
0.3250157480314961
 20
-1.749988188976378
 30
0.0
 10
0.3250157480314961
 20
-1.749988188976378
 30
0.0
 10
0.3121456692913386
 20
-1.8058740157480315
 30
0.0
 10
0.3121456692913386
 20
-1.8058740157480315
 30
0.0
 10
0.3121456692913386
 20
-1.8058740157480315
 30
0.0
 10
0.3121456692913386
 20
-1.8058740157480315
 30
0.0
 10
-0.3342244094488189
 20
-1.4297874015748031
 30
0.0
 10
-0.3342244094488189
 20
-1.4297874015748031
 30
0.0
 10
-0.3342244094488189
 20
-1.4297874015748031
 30
0.0
 10
-0.3342244094488189
 20
-1.4297874015748031
 30
0.0
 10
-0.3213543307086614
 20
-1.3739015748031496
 30
0.0
 10
-0.3213543307086614
 20
-1.3739015748031496
 30
0.0
  0
SPLINE
  5
94
100
AcDbEntity
  8
Layer 1
 62
     9
100
AcDbSpline
210
0.0
220
0.0
230
1.0
 70
     1
 71
     3
 72
    20
 73
    16
 74
     0
 42
0.0000000001
 43
0.0000000001
 40
0.0
 40
0.0
 40
0.0
 40
0.0
 40
0.25
 40
0.25
 40
0.25
 40
0.25
 40
0.5
 40
0.5
 40
0.5
 40
0.5
 40
0.75
 40
0.75
 40
0.75
 40
0.75
 40
1.0
 40
1.0
 40
1.0
 40
1.0
 10
-0.3342244094488189
 20
-1.4297874015748031
 30
0.0
 10
-0.3342244094488189
 20
-1.4297874015748031
 30
0.0
 10
0.3121456692913386
 20
-1.8058740157480315
 30
0.0
 10
0.3121456692913386
 20
-1.8058740157480315
 30
0.0
 10
0.3121456692913386
 20
-1.8058740157480315
 30
0.0
 10
0.3121456692913386
 20
-1.8058740157480315
 30
0.0
 10
0.2969055118110237
 20
-1.8587637795275591
 30
0.0
 10
0.2969055118110237
 20
-1.8587637795275591
 30
0.0
 10
0.2969055118110237
 20
-1.8587637795275591
 30
0.0
 10
0.2969055118110237
 20
-1.8587637795275591
 30
0.0
 10
-0.3494645669291339
 20
-1.4826771653543307
 30
0.0
 10
-0.3494645669291339
 20
-1.4826771653543307
 30
0.0
 10
-0.3494645669291339
 20
-1.4826771653543307
 30
0.0
 10
-0.3494645669291339
 20
-1.4826771653543307
 30
0.0
 10
-0.3342244094488189
 20
-1.4297874015748031
 30
0.0
 10
-0.3342244094488189
 20
-1.4297874015748031
 30
0.0
  0
SPLINE
  5
95
100
AcDbEntity
  8
Layer 1
 62
     9
100
AcDbSpline
210
0.0
220
0.0
230
1.0
 70
     1
 71
     3
 72
    20
 73
    16
 74
     0
 42
0.0000000001
 43
0.0000000001
 40
0.0
 40
0.0
 40
0.0
 40
0.0
 40
0.25
 40
0.25
 40
0.25
 40
0.25
 40
0.5
 40
0.5
 40
0.5
 40
0.5
 40
0.75
 40
0.75
 40
0.75
 40
0.75
 40
1.0
 40
1.0
 40
1.0
 40
1.0
 10
-0.3494645669291339
 20
-1.4826771653543307
 30
0.0
 10
-0.3494645669291339
 20
-1.4826771653543307
 30
0.0
 10
0.2969055118110237
 20
-1.8587637795275591
 30
0.0
 10
0.2969055118110237
 20
-1.8587637795275591
 30
0.0
 10
0.2969055118110237
 20
-1.8587637795275591
 30
0.0
 10
0.2969055118110237
 20
-1.8587637795275591
 30
0.0
 10
0.279484251968504
 20
-1.9087244094488189
 30
0.0
 10
0.279484251968504
 20
-1.9087244094488189
 30
0.0
 10
0.279484251968504
 20
-1.9087244094488189
 30
0.0
 10
0.279484251968504
 20
-1.9087244094488189
 30
0.0
 10
-0.3668858267716535
 20
-1.5326377952755905
 30
0.0
 10
-0.3668858267716535
 20
-1.5326377952755905
 30
0.0
 10
-0.3668858267716535
 20
-1.5326377952755905
 30
0.0
 10
-0.3668858267716535
 20
-1.5326377952755905
 30
0.0
 10
-0.3494645669291339
 20
-1.4826771653543307
 30
0.0
 10
-0.3494645669291339
 20
-1.4826771653543307
 30
0.0
  0
SPLINE
  5
96
100
AcDbEntity
  8
Layer 1
 62
     9
100
AcDbSpline
210
0.0
220
0.0
230
1.0
 70
     1
 71
     3
 72
    20
 73
    16
 74
     0
 42
0.0000000001
 43
0.0000000001
 40
0.0
 40
0.0
 40
0.0
 40
0.0
 40
0.25
 40
0.25
 40
0.25
 40
0.25
 40
0.5
 40
0.5
 40
0.5
 40
0.5
 40
0.75
 40
0.75
 40
0.75
 40
0.75
 40
1.0
 40
1.0
 40
1.0
 40
1.0
 10
-0.3668858267716535
 20
-1.5326377952755905
 30
0.0
 10
-0.3668858267716535
 20
-1.5326377952755905
 30
0.0
 10
0.279484251968504
 20
-1.9087244094488189
 30
0.0
 10
0.279484251968504
 20
-1.9087244094488189
 30
0.0
 10
0.279484251968504
 20
-1.9087244094488189
 30
0.0
 10
0.279484251968504
 20
-1.9087244094488189
 30
0.0
 10
0.2600511811023622
 20
-1.9558267716535434
 30
0.0
 10
0.2600511811023622
 20
-1.9558267716535434
 30
0.0
 10
0.2600511811023622
 20
-1.9558267716535434
 30
0.0
 10
0.2600511811023622
 20
-1.9558267716535434
 30
0.0
 10
-0.3863188976377953
 20
-1.5797401574803149
 30
0.0
 10
-0.3863188976377953
 20
-1.5797401574803149
 30
0.0
 10
-0.3863188976377953
 20
-1.5797401574803149
 30
0.0
 10
-0.3863188976377953
 20
-1.5797401574803149
 30
0.0
 10
-0.3668858267716535
 20
-1.5326377952755905
 30
0.0
 10
-0.3668858267716535
 20
-1.5326377952755905
 30
0.0
  0
SPLINE
  5
97
100
AcDbEntity
  8
Layer 1
 62
     9
100
AcDbSpline
210
0.0
220
0.0
230
1.0
 70
     1
 71
     3
 72
    20
 73
    16
 74
     0
 42
0.0000000001
 43
0.0000000001
 40
0.0
 40
0.0
 40
0.0
 40
0.0
 40
0.25
 40
0.25
 40
0.25
 40
0.25
 40
0.5
 40
0.5
 40
0.5
 40
0.5
 40
0.75
 40
0.75
 40
0.75
 40
0.75
 40
1.0
 40
1.0
 40
1.0
 40
1.0
 10
-0.3863188976377953
 20
-1.5797401574803149
 30
0.0
 10
-0.3863188976377953
 20
-1.5797401574803149
 30
0.0
 10
0.2600511811023622
 20
-1.9558267716535434
 30
0.0
 10
0.2600511811023622
 20
-1.9558267716535434
 30
0.0
 10
0.2600511811023622
 20
-1.9558267716535434
 30
0.0
 10
0.2600511811023622
 20
-1.9558267716535434
 30
0.0
 10
0.2388110236220473
 20
-2.0001417322834647
 30
0.0
 10
0.2388110236220473
 20
-2.0001417322834647
 30
0.0
 10
0.2388110236220473
 20
-2.0001417322834647
 30
0.0
 10
0.2388110236220473
 20
-2.0001417322834647
 30
0.0
 10
-0.4075590551181103
 20
-1.6240551181102363
 30
0.0
 10
-0.4075590551181103
 20
-1.6240551181102363
 30
0.0
 10
-0.4075590551181103
 20
-1.6240551181102363
 30
0.0
 10
-0.4075590551181103
 20
-1.6240551181102363
 30
0.0
 10
-0.3863188976377953
 20
-1.5797401574803149
 30
0.0
 10
-0.3863188976377953
 20
-1.5797401574803149
 30
0.0
  0
SPLINE
  5
98
100
AcDbEntity
  8
Layer 1
 62
     9
100
AcDbSpline
210
0.0
220
0.0
230
1.0
 70
     1
 71
     3
 72
    20
 73
    16
 74
     0
 42
0.0000000001
 43
0.0000000001
 40
0.0
 40
0.0
 40
0.0
 40
0.0
 40
0.25
 40
0.25
 40
0.25
 40
0.25
 40
0.5
 40
0.5
 40
0.5
 40
0.5
 40
0.75
 40
0.75
 40
0.75
 40
0.75
 40
1.0
 40
1.0
 40
1.0
 40
1.0
 10
-0.4075590551181103
 20
-1.6240551181102363
 30
0.0
 10
-0.4075590551181103
 20
-1.6240551181102363
 30
0.0
 10
0.2388110236220473
 20
-2.0001417322834647
 30
0.0
 10
0.2388110236220473
 20
-2.0001417322834647
 30
0.0
 10
0.2388110236220473
 20
-2.0001417322834647
 30
0.0
 10
0.2388110236220473
 20
-2.0001417322834647
 30
0.0
 10
0.2159212598425197
 20
-2.0417480314960632
 30
0.0
 10
0.2159212598425197
 20
-2.0417480314960632
 30
0.0
 10
0.2159212598425197
 20
-2.0417480314960632
 30
0.0
 10
0.2159212598425197
 20
-2.0417480314960632
 30
0.0
 10
-0.4304488188976378
 20
-1.6656614173228348
 30
0.0
 10
-0.4304488188976378
 20
-1.6656614173228348
 30
0.0
 10
-0.4304488188976378
 20
-1.6656614173228348
 30
0.0
 10
-0.4304488188976378
 20
-1.6656614173228348
 30
0.0
 10
-0.4075590551181103
 20
-1.6240551181102363
 30
0.0
 10
-0.4075590551181103
 20
-1.6240551181102363
 30
0.0
  0
SPLINE
  5
99
100
AcDbEntity
  8
Layer 1
 62
     9
100
AcDbSpline
210
0.0
220
0.0
230
1.0
 70
     1
 71
     3
 72
    20
 73
    16
 74
     0
 42
0.0000000001
 43
0.0000000001
 40
0.0
 40
0.0
 40
0.0
 40
0.0
 40
0.25
 40
0.25
 40
0.25
 40
0.25
 40
0.5
 40
0.5
 40
0.5
 40
0.5
 40
0.75
 40
0.75
 40
0.75
 40
0.75
 40
1.0
 40
1.0
 40
1.0
 40
1.0
 10
-0.4304488188976378
 20
-1.6656614173228348
 30
0.0
 10
-0.4304488188976378
 20
-1.6656614173228348
 30
0.0
 10
0.2159212598425197
 20
-2.0417480314960632
 30
0.0
 10
0.2159212598425197
 20
-2.0417480314960632
 30
0.0
 10
0.2159212598425197
 20
-2.0417480314960632
 30
0.0
 10
0.2159212598425197
 20
-2.0417480314960632
 30
0.0
 10
0.1915748031496063
 20
-2.0807125984251971
 30
0.0
 10
0.1915748031496063
 20
-2.0807125984251971
 30
0.0
 10
0.1915748031496063
 20
-2.0807125984251971
 30
0.0
 10
0.1915748031496063
 20
-2.0807125984251971
 30
0.0
 10
-0.4547952755905512
 20
-1.7046259842519687
 30
0.0
 10
-0.4547952755905512
 20
-1.7046259842519687
 30
0.0
 10
-0.4547952755905512
 20
-1.7046259842519687
 30
0.0
 10
-0.4547952755905512
 20
-1.7046259842519687
 30
0.0
 10
-0.4304488188976378
 20
-1.6656614173228348
 30
0.0
 10
-0.4304488188976378
 20
-1.6656614173228348
 30
0.0
  0
SPLINE
  5
9A
100
AcDbEntity
  8
Layer 1
 62
     9
100
AcDbSpline
210
0.0
220
0.0
230
1.0
 70
     1
 71
     3
 72
    20
 73
    16
 74
     0
 42
0.0000000001
 43
0.0000000001
 40
0.0
 40
0.0
 40
0.0
 40
0.0
 40
0.25
 40
0.25
 40
0.25
 40
0.25
 40
0.5
 40
0.5
 40
0.5
 40
0.5
 40
0.75
 40
0.75
 40
0.75
 40
0.75
 40
1.0
 40
1.0
 40
1.0
 40
1.0
 10
-0.4547952755905512
 20
-1.7046259842519687
 30
0.0
 10
-0.4547952755905512
 20
-1.7046259842519687
 30
0.0
 10
0.1915748031496063
 20
-2.0807125984251971
 30
0.0
 10
0.1915748031496063
 20
-2.0807125984251971
 30
0.0
 10
0.1915748031496063
 20
-2.0807125984251971
 30
0.0
 10
0.1915748031496063
 20
-2.0807125984251971
 30
0.0
 10
0.1659448818897638
 20
-2.1171220472440946
 30
0.0
 10
0.1659448818897638
 20
-2.1171220472440946
 30
0.0
 10
0.1659448818897638
 20
-2.1171220472440946
 30
0.0
 10
0.1659448818897638
 20
-2.1171220472440946
 30
0.0
 10
-0.4804251968503937
 20
-1.7410354330708662
 30
0.0
 10
-0.4804251968503937
 20
-1.7410354330708662
 30
0.0
 10
-0.4804251968503937
 20
-1.7410354330708662
 30
0.0
 10
-0.4804251968503937
 20
-1.7410354330708662
 30
0.0
 10
-0.4547952755905512
 20
-1.7046259842519687
 30
0.0
 10
-0.4547952755905512
 20
-1.7046259842519687
 30
0.0
  0
SPLINE
  5
9B
100
AcDbEntity
  8
Layer 1
 62
     9
100
AcDbSpline
210
0.0
220
0.0
230
1.0
 70
     1
 71
     3
 72
    20
 73
    16
 74
     0
 42
0.0000000001
 43
0.0000000001
 40
0.0
 40
0.0
 40
0.0
 40
0.0
 40
0.25
 40
0.25
 40
0.25
 40
0.25
 40
0.5
 40
0.5
 40
0.5
 40
0.5
 40
0.75
 40
0.75
 40
0.75
 40
0.75
 40
1.0
 40
1.0
 40
1.0
 40
1.0
 10
-0.4804251968503937
 20
-1.7410354330708662
 30
0.0
 10
-0.4804251968503937
 20
-1.7410354330708662
 30
0.0
 10
0.1659448818897638
 20
-2.1171220472440946
 30
0.0
 10
0.1659448818897638
 20
-2.1171220472440946
 30
0.0
 10
0.1659448818897638
 20
-2.1171220472440946
 30
0.0
 10
0.1659448818897638
 20
-2.1171220472440946
 30
0.0
 10
0.1392204724409449
 20
-2.1510354330708661
 30
0.0
 10
0.1392204724409449
 20
-2.1510354330708661
 30
0.0
 10
0.1392204724409449
 20
-2.1510354330708661
 30
0.0
 10
0.1392204724409449
 20
-2.1510354330708661
 30
0.0
 10
-0.5071496062992126
 20
-1.7749488188976379
 30
0.0
 10
-0.5071496062992126
 20
-1.7749488188976379
 30
0.0
 10
-0.5071496062992126
 20
-1.7749488188976379
 30
0.0
 10
-0.5071496062992126
 20
-1.7749488188976379
 30
0.0
 10
-0.4804251968503937
 20
-1.7410354330708662
 30
0.0
 10
-0.4804251968503937
 20
-1.7410354330708662
 30
0.0
  0
SPLINE
  5
9C
100
AcDbEntity
  8
Layer 1
 62
     9
100
AcDbSpline
210
0.0
220
0.0
230
1.0
 70
     1
 71
     3
 72
    20
 73
    16
 74
     0
 42
0.0000000001
 43
0.0000000001
 40
0.0
 40
0.0
 40
0.0
 40
0.0
 40
0.25
 40
0.25
 40
0.25
 40
0.25
 40
0.5
 40
0.5
 40
0.5
 40
0.5
 40
0.75
 40
0.75
 40
0.75
 40
0.75
 40
1.0
 40
1.0
 40
1.0
 40
1.0
 10
-0.5071496062992126
 20
-1.7749488188976379
 30
0.0
 10
-0.5071496062992126
 20
-1.7749488188976379
 30
0.0
 10
0.1392204724409449
 20
-2.1510354330708661
 30
0.0
 10
0.1392204724409449
 20
-2.1510354330708661
 30
0.0
 10
0.1392204724409449
 20
-2.1510354330708661
 30
0.0
 10
0.1392204724409449
 20
-2.1510354330708661
 30
0.0
 10
0.1115787401574803
 20
-2.1825354330708664
 30
0.0
 10
0.1115787401574803
 20
-2.1825354330708664
 30
0.0
 10
0.1115787401574803
 20
-2.1825354330708664
 30
0.0
 10
0.1115787401574803
 20
-2.1825354330708664
 30
0.0
 10
-0.5347913385826771
 20
-1.8064488188976378
 30
0.0
 10
-0.5347913385826771
 20
-1.8064488188976378
 30
0.0
 10
-0.5347913385826771
 20
-1.8064488188976378
 30
0.0
 10
-0.5347913385826771
 20
-1.8064488188976378
 30
0.0
 10
-0.5071496062992126
 20
-1.7749488188976379
 30
0.0
 10
-0.5071496062992126
 20
-1.7749488188976379
 30
0.0
  0
SPLINE
  5
9D
100
AcDbEntity
  8
Layer 1
 62
     9
100
AcDbSpline
210
0.0
220
0.0
230
1.0
 70
     1
 71
     3
 72
    20
 73
    16
 74
     0
 42
0.0000000001
 43
0.0000000001
 40
0.0
 40
0.0
 40
0.0
 40
0.0
 40
0.25
 40
0.25
 40
0.25
 40
0.25
 40
0.5
 40
0.5
 40
0.5
 40
0.5
 40
0.75
 40
0.75
 40
0.75
 40
0.75
 40
1.0
 40
1.0
 40
1.0
 40
1.0
 10
-0.5347913385826771
 20
-1.8064488188976378
 30
0.0
 10
-0.5347913385826771
 20
-1.8064488188976378
 30
0.0
 10
0.1115787401574803
 20
-2.1825354330708664
 30
0.0
 10
0.1115787401574803
 20
-2.1825354330708664
 30
0.0
 10
0.1115787401574803
 20
-2.1825354330708664
 30
0.0
 10
0.1115787401574803
 20
-2.1825354330708664
 30
0.0
 10
0.0832007874015748
 20
-2.2116850393700789
 30
0.0
 10
0.0832007874015748
 20
-2.2116850393700789
 30
0.0
 10
0.0832007874015748
 20
-2.2116850393700789
 30
0.0
 10
0.0832007874015748
 20
-2.2116850393700789
 30
0.0
 10
-0.5631692913385827
 20
-1.8355984251968505
 30
0.0
 10
-0.5631692913385827
 20
-1.8355984251968505
 30
0.0
 10
-0.5631692913385827
 20
-1.8355984251968505
 30
0.0
 10
-0.5631692913385827
 20
-1.8355984251968505
 30
0.0
 10
-0.5347913385826771
 20
-1.8064488188976378
 30
0.0
 10
-0.5347913385826771
 20
-1.8064488188976378
 30
0.0
  0
SPLINE
  5
9E
100
AcDbEntity
  8
Layer 1
 62
     9
100
AcDbSpline
210
0.0
220
0.0
230
1.0
 70
     1
 71
     3
 72
    20
 73
    16
 74
     0
 42
0.0000000001
 43
0.0000000001
 40
0.0
 40
0.0
 40
0.0
 40
0.0
 40
0.25
 40
0.25
 40
0.25
 40
0.25
 40
0.5
 40
0.5
 40
0.5
 40
0.5
 40
0.75
 40
0.75
 40
0.75
 40
0.75
 40
1.0
 40
1.0
 40
1.0
 40
1.0
 10
-0.5631692913385827
 20
-1.8355984251968505
 30
0.0
 10
-0.5631692913385827
 20
-1.8355984251968505
 30
0.0
 10
0.0832007874015748
 20
-2.2116850393700789
 30
0.0
 10
0.0832007874015748
 20
-2.2116850393700789
 30
0.0
 10
0.0832007874015748
 20
-2.2116850393700789
 30
0.0
 10
0.0832007874015748
 20
-2.2116850393700789
 30
0.0
 10
0.0542637795275591
 20
-2.2385748031496062
 30
0.0
 10
0.0542637795275591
 20
-2.2385748031496062
 30
0.0
 10
0.0542637795275591
 20
-2.2385748031496062
 30
0.0
 10
0.0542637795275591
 20
-2.2385748031496062
 30
0.0
 10
-0.5921062992125985
 20
-1.862488188976378
 30
0.0
 10
-0.5921062992125985
 20
-1.862488188976378
 30
0.0
 10
-0.5921062992125985
 20
-1.862488188976378
 30
0.0
 10
-0.5921062992125985
 20
-1.862488188976378
 30
0.0
 10
-0.5631692913385827
 20
-1.8355984251968505
 30
0.0
 10
-0.5631692913385827
 20
-1.8355984251968505
 30
0.0
  0
SPLINE
  5
9F
100
AcDbEntity
  8
Layer 1
 62
     9
100
AcDbSpline
210
0.0
220
0.0
230
1.0
 70
     1
 71
     3
 72
    20
 73
    16
 74
     0
 42
0.0000000001
 43
0.0000000001
 40
0.0
 40
0.0
 40
0.0
 40
0.0
 40
0.25
 40
0.25
 40
0.25
 40
0.25
 40
0.5
 40
0.5
 40
0.5
 40
0.5
 40
0.75
 40
0.75
 40
0.75
 40
0.75
 40
1.0
 40
1.0
 40
1.0
 40
1.0
 10
-0.5921062992125985
 20
-1.862488188976378
 30
0.0
 10
-0.5921062992125985
 20
-1.862488188976378
 30
0.0
 10
0.0542637795275591
 20
-2.2385748031496062
 30
0.0
 10
0.0542637795275591
 20
-2.2385748031496062
 30
0.0
 10
0.0542637795275591
 20
-2.2385748031496062
 30
0.0
 10
0.0542637795275591
 20
-2.2385748031496062
 30
0.0
 10
0.0249606299212598
 20
-2.2632559055118113
 30
0.0
 10
0.0249606299212598
 20
-2.2632559055118113
 30
0.0
 10
0.0249606299212598
 20
-2.2632559055118113
 30
0.0
 10
0.0249606299212598
 20
-2.2632559055118113
 30
0.0
 10
-0.6214094488188977
 20
-1.8871692913385827
 30
0.0
 10
-0.6214094488188977
 20
-1.8871692913385827
 30
0.0
 10
-0.6214094488188977
 20
-1.8871692913385827
 30
0.0
 10
-0.6214094488188977
 20
-1.8871692913385827
 30
0.0
 10
-0.5921062992125985
 20
-1.862488188976378
 30
0.0
 10
-0.5921062992125985
 20
-1.862488188976378
 30
0.0
  0
SPLINE
  5
A0
100
AcDbEntity
  8
Layer 1
 62
     9
100
AcDbSpline
210
0.0
220
0.0
230
1.0
 70
     1
 71
     3
 72
    20
 73
    16
 74
     0
 42
0.0000000001
 43
0.0000000001
 40
0.0
 40
0.0
 40
0.0
 40
0.0
 40
0.25
 40
0.25
 40
0.25
 40
0.25
 40
0.5
 40
0.5
 40
0.5
 40
0.5
 40
0.75
 40
0.75
 40
0.75
 40
0.75
 40
1.0
 40
1.0
 40
1.0
 40
1.0
 10
-0.6214094488188977
 20
-1.8871692913385827
 30
0.0
 10
-0.6214094488188977
 20
-1.8871692913385827
 30
0.0
 10
0.0249606299212598
 20
-2.2632559055118113
 30
0.0
 10
0.0249606299212598
 20
-2.2632559055118113
 30
0.0
 10
0.0249606299212598
 20
-2.2632559055118113
 30
0.0
 10
0.0249606299212598
 20
-2.2632559055118113
 30
0.0
 10
-0.0045393700787402
 20
-2.2858149606299212
 30
0.0
 10
-0.0045393700787402
 20
-2.2858149606299212
 30
0.0
 10
-0.0045393700787402
 20
-2.2858149606299212
 30
0.0
 10
-0.0045393700787402
 20
-2.2858149606299212
 30
0.0
 10
-0.6509094488188977
 20
-1.909728346456693
 30
0.0
 10
-0.6509094488188977
 20
-1.909728346456693
 30
0.0
 10
-0.6509094488188977
 20
-1.909728346456693
 30
0.0
 10
-0.6509094488188977
 20
-1.909728346456693
 30
0.0
 10
-0.6214094488188977
 20
-1.8871692913385827
 30
0.0
 10
-0.6214094488188977
 20
-1.8871692913385827
 30
0.0
  0
SPLINE
  5
A1
100
AcDbEntity
  8
Layer 1
 62
     9
100
AcDbSpline
210
0.0
220
0.0
230
1.0
 70
     1
 71
     3
 72
    20
 73
    16
 74
     0
 42
0.0000000001
 43
0.0000000001
 40
0.0
 40
0.0
 40
0.0
 40
0.0
 40
0.25
 40
0.25
 40
0.25
 40
0.25
 40
0.5
 40
0.5
 40
0.5
 40
0.5
 40
0.75
 40
0.75
 40
0.75
 40
0.75
 40
1.0
 40
1.0
 40
1.0
 40
1.0
 10
-0.6509094488188977
 20
-1.909728346456693
 30
0.0
 10
-0.6509094488188977
 20
-1.909728346456693
 30
0.0
 10
-0.0045393700787402
 20
-2.2858149606299212
 30
0.0
 10
-0.0045393700787402
 20
-2.2858149606299212
 30
0.0
 10
-0.0045393700787402
 20
-2.2858149606299212
 30
0.0
 10
-0.0045393700787402
 20
-2.2858149606299212
 30
0.0
 10
-0.0340472440944882
 20
-2.3063267716535436
 30
0.0
 10
-0.0340472440944882
 20
-2.3063267716535436
 30
0.0
 10
-0.0340472440944882
 20
-2.3063267716535436
 30
0.0
 10
-0.0340472440944882
 20
-2.3063267716535436
 30
0.0
 10
-0.6804173228346457
 20
-1.930240157480315
 30
0.0
 10
-0.6804173228346457
 20
-1.930240157480315
 30
0.0
 10
-0.6804173228346457
 20
-1.930240157480315
 30
0.0
 10
-0.6804173228346457
 20
-1.930240157480315
 30
0.0
 10
-0.6509094488188977
 20
-1.909728346456693
 30
0.0
 10
-0.6509094488188977
 20
-1.909728346456693
 30
0.0
  0
SPLINE
  5
A2
100
AcDbEntity
  8
Layer 1
 62
     9
100
AcDbSpline
210
0.0
220
0.0
230
1.0
 70
     1
 71
     3
 72
    20
 73
    16
 74
     0
 42
0.0000000001
 43
0.0000000001
 40
0.0
 40
0.0
 40
0.0
 40
0.0
 40
0.25
 40
0.25
 40
0.25
 40
0.25
 40
0.5
 40
0.5
 40
0.5
 40
0.5
 40
0.75
 40
0.75
 40
0.75
 40
0.75
 40
1.0
 40
1.0
 40
1.0
 40
1.0
 10
-0.6804173228346457
 20
-1.930240157480315
 30
0.0
 10
-0.6804173228346457
 20
-1.930240157480315
 30
0.0
 10
-0.0340472440944882
 20
-2.3063267716535436
 30
0.0
 10
-0.0340472440944882
 20
-2.3063267716535436
 30
0.0
 10
-0.0340472440944882
 20
-2.3063267716535436
 30
0.0
 10
-0.0340472440944882
 20
-2.3063267716535436
 30
0.0
 10
-0.0633897637795276
 20
-2.3248622047244094
 30
0.0
 10
-0.0633897637795276
 20
-2.3248622047244094
 30
0.0
 10
-0.0633897637795276
 20
-2.3248622047244094
 30
0.0
 10
-0.0633897637795276
 20
-2.3248622047244094
 30
0.0
 10
-0.7097598425196851
 20
-1.9487755905511812
 30
0.0
 10
-0.7097598425196851
 20
-1.9487755905511812
 30
0.0
 10
-0.7097598425196851
 20
-1.9487755905511812
 30
0.0
 10
-0.7097598425196851
 20
-1.9487755905511812
 30
0.0
 10
-0.6804173228346457
 20
-1.930240157480315
 30
0.0
 10
-0.6804173228346457
 20
-1.930240157480315
 30
0.0
  0
SPLINE
  5
A3
100
AcDbEntity
  8
Layer 1
 62
     9
100
AcDbSpline
210
0.0
220
0.0
230
1.0
 70
     1
 71
     3
 72
    20
 73
    16
 74
     0
 42
0.0000000001
 43
0.0000000001
 40
0.0
 40
0.0
 40
0.0
 40
0.0
 40
0.25
 40
0.25
 40
0.25
 40
0.25
 40
0.5
 40
0.5
 40
0.5
 40
0.5
 40
0.75
 40
0.75
 40
0.75
 40
0.75
 40
1.0
 40
1.0
 40
1.0
 40
1.0
 10
-0.7097598425196851
 20
-1.9487755905511812
 30
0.0
 10
-0.7097598425196851
 20
-1.9487755905511812
 30
0.0
 10
-0.0633897637795276
 20
-2.3248622047244094
 30
0.0
 10
-0.0633897637795276
 20
-2.3248622047244094
 30
0.0
 10
-0.0633897637795276
 20
-2.3248622047244094
 30
0.0
 10
-0.0633897637795276
 20
-2.3248622047244094
 30
0.0
 10
-0.0923779527559055
 20
-2.3414881889763781
 30
0.0
 10
-0.0923779527559055
 20
-2.3414881889763781
 30
0.0
 10
-0.0923779527559055
 20
-2.3414881889763781
 30
0.0
 10
-0.0923779527559055
 20
-2.3414881889763781
 30
0.0
 10
-0.7387480314960631
 20
-1.9654015748031497
 30
0.0
 10
-0.7387480314960631
 20
-1.9654015748031497
 30
0.0
 10
-0.7387480314960631
 20
-1.9654015748031497
 30
0.0
 10
-0.7387480314960631
 20
-1.9654015748031497
 30
0.0
 10
-0.7097598425196851
 20
-1.9487755905511812
 30
0.0
 10
-0.7097598425196851
 20
-1.9487755905511812
 30
0.0
  0
SPLINE
  5
A4
100
AcDbEntity
  8
Layer 1
 62
     9
100
AcDbSpline
210
0.0
220
0.0
230
1.0
 70
     1
 71
     3
 72
    20
 73
    16
 74
     0
 42
0.0000000001
 43
0.0000000001
 40
0.0
 40
0.0
 40
0.0
 40
0.0
 40
0.25
 40
0.25
 40
0.25
 40
0.25
 40
0.5
 40
0.5
 40
0.5
 40
0.5
 40
0.75
 40
0.75
 40
0.75
 40
0.75
 40
1.0
 40
1.0
 40
1.0
 40
1.0
 10
-0.7387480314960631
 20
-1.9654015748031497
 30
0.0
 10
-0.7387480314960631
 20
-1.9654015748031497
 30
0.0
 10
-0.0923779527559055
 20
-2.3414881889763781
 30
0.0
 10
-0.0923779527559055
 20
-2.3414881889763781
 30
0.0
 10
-0.0923779527559055
 20
-2.3414881889763781
 30
0.0
 10
-0.0923779527559055
 20
-2.3414881889763781
 30
0.0
 10
-0.1208385826771654
 20
-2.3562874015748032
 30
0.0
 10
-0.1208385826771654
 20
-2.3562874015748032
 30
0.0
 10
-0.1208385826771654
 20
-2.3562874015748032
 30
0.0
 10
-0.1208385826771654
 20
-2.3562874015748032
 30
0.0
 10
-0.7672086614173229
 20
-1.9802007874015748
 30
0.0
 10
-0.7672086614173229
 20
-1.9802007874015748
 30
0.0
 10
-0.7672086614173229
 20
-1.9802007874015748
 30
0.0
 10
-0.7672086614173229
 20
-1.9802007874015748
 30
0.0
 10
-0.7387480314960631
 20
-1.9654015748031497
 30
0.0
 10
-0.7387480314960631
 20
-1.9654015748031497
 30
0.0
  0
SPLINE
  5
A5
100
AcDbEntity
  8
Layer 1
 62
     9
100
AcDbSpline
210
0.0
220
0.0
230
1.0
 70
     1
 71
     3
 72
    20
 73
    16
 74
     0
 42
0.0000000001
 43
0.0000000001
 40
0.0
 40
0.0
 40
0.0
 40
0.0
 40
0.25
 40
0.25
 40
0.25
 40
0.25
 40
0.5
 40
0.5
 40
0.5
 40
0.5
 40
0.75
 40
0.75
 40
0.75
 40
0.75
 40
1.0
 40
1.0
 40
1.0
 40
1.0
 10
-0.7672086614173229
 20
-1.9802007874015748
 30
0.0
 10
-0.7672086614173229
 20
-1.9802007874015748
 30
0.0
 10
-0.1208385826771654
 20
-2.3562874015748032
 30
0.0
 10
-0.1208385826771654
 20
-2.3562874015748032
 30
0.0
 10
-0.1208385826771654
 20
-2.3562874015748032
 30
0.0
 10
-0.1208385826771654
 20
-2.3562874015748032
 30
0.0
 10
-0.1485826771653543
 20
-2.3693307086614173
 30
0.0
 10
-0.1485826771653543
 20
-2.3693307086614173
 30
0.0
 10
-0.1485826771653543
 20
-2.3693307086614173
 30
0.0
 10
-0.1485826771653543
 20
-2.3693307086614173
 30
0.0
 10
-0.7949527559055118
 20
-1.9932440944881891
 30
0.0
 10
-0.7949527559055118
 20
-1.9932440944881891
 30
0.0
 10
-0.7949527559055118
 20
-1.9932440944881891
 30
0.0
 10
-0.7949527559055118
 20
-1.9932440944881891
 30
0.0
 10
-0.7672086614173229
 20
-1.9802007874015748
 30
0.0
 10
-0.7672086614173229
 20
-1.9802007874015748
 30
0.0
  0
SPLINE
  5
A6
100
AcDbEntity
  8
Layer 1
 62
     9
100
AcDbSpline
210
0.0
220
0.0
230
1.0
 70
     1
 71
     3
 72
    20
 73
    16
 74
     0
 42
0.0000000001
 43
0.0000000001
 40
0.0
 40
0.0
 40
0.0
 40
0.0
 40
0.25
 40
0.25
 40
0.25
 40
0.25
 40
0.5
 40
0.5
 40
0.5
 40
0.5
 40
0.75
 40
0.75
 40
0.75
 40
0.75
 40
1.0
 40
1.0
 40
1.0
 40
1.0
 10
-0.7949527559055118
 20
-1.9932440944881891
 30
0.0
 10
-0.7949527559055118
 20
-1.9932440944881891
 30
0.0
 10
-0.1485826771653543
 20
-2.3693307086614173
 30
0.0
 10
-0.1485826771653543
 20
-2.3693307086614173
 30
0.0
 10
-0.1485826771653543
 20
-2.3693307086614173
 30
0.0
 10
-0.1485826771653543
 20
-2.3693307086614173
 30
0.0
 10
-0.1754409448818898
 20
-2.3806929133858268
 30
0.0
 10
-0.1754409448818898
 20
-2.3806929133858268
 30
0.0
 10
-0.1754409448818898
 20
-2.3806929133858268
 30
0.0
 10
-0.1754409448818898
 20
-2.3806929133858268
 30
0.0
 10
-0.8218110236220473
 20
-2.0046062992125986
 30
0.0
 10
-0.8218110236220473
 20
-2.0046062992125986
 30
0.0
 10
-0.8218110236220473
 20
-2.0046062992125986
 30
0.0
 10
-0.8218110236220473
 20
-2.0046062992125986
 30
0.0
 10
-0.7949527559055118
 20
-1.9932440944881891
 30
0.0
 10
-0.7949527559055118
 20
-1.9932440944881891
 30
0.0
  0
SPLINE
  5
A7
100
AcDbEntity
  8
Layer 1
 62
     9
100
AcDbSpline
210
0.0
220
0.0
230
1.0
 70
     1
 71
     3
 72
    20
 73
    16
 74
     0
 42
0.0000000001
 43
0.0000000001
 40
0.0
 40
0.0
 40
0.0
 40
0.0
 40
0.25
 40
0.25
 40
0.25
 40
0.25
 40
0.5
 40
0.5
 40
0.5
 40
0.5
 40
0.75
 40
0.75
 40
0.75
 40
0.75
 40
1.0
 40
1.0
 40
1.0
 40
1.0
 10
-0.8218110236220473
 20
-2.0046062992125986
 30
0.0
 10
-0.8218110236220473
 20
-2.0046062992125986
 30
0.0
 10
-0.1754409448818898
 20
-2.3806929133858268
 30
0.0
 10
-0.1754409448818898
 20
-2.3806929133858268
 30
0.0
 10
-0.1754409448818898
 20
-2.3806929133858268
 30
0.0
 10
-0.1754409448818898
 20
-2.3806929133858268
 30
0.0
 10
-0.2012165354330709
 20
-2.390437007874016
 30
0.0
 10
-0.2012165354330709
 20
-2.390437007874016
 30
0.0
 10
-0.2012165354330709
 20
-2.390437007874016
 30
0.0
 10
-0.2012165354330709
 20
-2.390437007874016
 30
0.0
 10
-0.8475866141732283
 20
-2.0143503937007874
 30
0.0
 10
-0.8475866141732283
 20
-2.0143503937007874
 30
0.0
 10
-0.8475866141732283
 20
-2.0143503937007874
 30
0.0
 10
-0.8475866141732283
 20
-2.0143503937007874
 30
0.0
 10
-0.8218110236220473
 20
-2.0046062992125986
 30
0.0
 10
-0.8218110236220473
 20
-2.0046062992125986
 30
0.0
  0
SPLINE
  5
A8
100
AcDbEntity
  8
Layer 1
 62
     9
100
AcDbSpline
210
0.0
220
0.0
230
1.0
 70
     1
 71
     3
 72
    28
 73
    24
 74
     0
 42
0.0000000001
 43
0.0000000001
 40
0.0
 40
0.0
 40
0.0
 40
0.0
 40
0.1666666666666667
 40
0.1666666666666667
 40
0.1666666666666667
 40
0.1666666666666667
 40
0.3333333333333333
 40
0.3333333333333333
 40
0.3333333333333333
 40
0.3333333333333333
 40
0.5
 40
0.5
 40
0.5
 40
0.5
 40
0.6666666666666666
 40
0.6666666666666666
 40
0.6666666666666666
 40
0.6666666666666666
 40
0.8333333333333333
 40
0.8333333333333333
 40
0.8333333333333333
 40
0.8333333333333333
 40
1.0
 40
1.0
 40
1.0
 40
1.0
 10
-0.8475866141732283
 20
-2.0143503937007874
 30
0.0
 10
-0.8475866141732283
 20
-2.0143503937007874
 30
0.0
 10
-0.2012165354330709
 20
-2.390437007874016
 30
0.0
 10
-0.2012165354330709
 20
-2.390437007874016
 30
0.0
 10
-0.2012165354330709
 20
-2.390437007874016
 30
0.0
 10
-0.2012165354330709
 20
-2.390437007874016
 30
0.0
 10
-0.225740157480315
 20
-2.3986496062992129
 30
0.0
 10
-0.225740157480315
 20
-2.3986496062992129
 30
0.0
 10
-0.225740157480315
 20
-2.3986496062992129
 30
0.0
 10
-0.225740157480315
 20
-2.3986496062992129
 30
0.0
 10
-0.2488267716535433
 20
-2.4053937007874016
 30
0.0
 10
-0.2488267716535433
 20
-2.4053937007874016
 30
0.0
 10
-0.2488267716535433
 20
-2.4053937007874016
 30
0.0
 10
-0.2488267716535433
 20
-2.4053937007874016
 30
0.0
 10
-0.8951968503937008
 20
-2.0293070866141734
 30
0.0
 10
-0.8951968503937008
 20
-2.0293070866141734
 30
0.0
 10
-0.8951968503937008
 20
-2.0293070866141734
 30
0.0
 10
-0.8951968503937008
 20
-2.0293070866141734
 30
0.0
 10
-0.8721102362204725
 20
-2.0225629921259842
 30
0.0
 10
-0.8721102362204725
 20
-2.0225629921259842
 30
0.0
 10
-0.8721102362204725
 20
-2.0225629921259842
 30
0.0
 10
-0.8721102362204725
 20
-2.0225629921259842
 30
0.0
 10
-0.8475866141732283
 20
-2.0143503937007874
 30
0.0
 10
-0.8475866141732283
 20
-2.0143503937007874
 30
0.0
  0
SPLINE
  5
A9
100
AcDbEntity
  8
Layer 1
 62
     9
100
AcDbSpline
210
0.0
220
0.0
230
1.0
 70
     1
 71
     3
 72
    28
 73
    24
 74
     0
 42
0.0000000001
 43
0.0000000001
 40
0.0
 40
0.0
 40
0.0
 40
0.0
 40
0.1666666666666667
 40
0.1666666666666667
 40
0.1666666666666667
 40
0.1666666666666667
 40
0.3333333333333333
 40
0.3333333333333333
 40
0.3333333333333333
 40
0.3333333333333333
 40
0.5
 40
0.5
 40
0.5
 40
0.5
 40
0.6666666666666666
 40
0.6666666666666666
 40
0.6666666666666666
 40
0.6666666666666666
 40
0.8333333333333333
 40
0.8333333333333333
 40
0.8333333333333333
 40
0.8333333333333333
 40
1.0
 40
1.0
 40
1.0
 40
1.0
 10
-0.8951968503937008
 20
-2.0293070866141734
 30
0.0
 10
-0.8951968503937008
 20
-2.0293070866141734
 30
0.0
 10
-0.2488267716535433
 20
-2.4053937007874016
 30
0.0
 10
-0.2488267716535433
 20
-2.4053937007874016
 30
0.0
 10
-0.2488267716535433
 20
-2.4053937007874016
 30
0.0
 10
-0.2488267716535433
 20
-2.4053937007874016
 30
0.0
 10
-0.2703031496062992
 20
-2.410748031496063
 30
0.0
 10
-0.2703031496062992
 20
-2.410748031496063
 30
0.0
 10
-0.2703031496062992
 20
-2.410748031496063
 30
0.0
 10
-0.2703031496062992
 20
-2.410748031496063
 30
0.0
 10
-0.2899724409448819
 20
-2.4147834645669293
 30
0.0
 10
-0.2899724409448819
 20
-2.4147834645669293
 30
0.0
 10
-0.2899724409448819
 20
-2.4147834645669293
 30
0.0
 10
-0.2899724409448819
 20
-2.4147834645669293
 30
0.0
 10
-0.9363425196850395
 20
-2.0386968503937011
 30
0.0
 10
-0.9363425196850395
 20
-2.0386968503937011
 30
0.0
 10
-0.9363425196850395
 20
-2.0386968503937011
 30
0.0
 10
-0.9363425196850395
 20
-2.0386968503937011
 30
0.0
 10
-0.9166732283464567
 20
-2.0346614173228348
 30
0.0
 10
-0.9166732283464567
 20
-2.0346614173228348
 30
0.0
 10
-0.9166732283464567
 20
-2.0346614173228348
 30
0.0
 10
-0.9166732283464567
 20
-2.0346614173228348
 30
0.0
 10
-0.8951968503937008
 20
-2.0293070866141734
 30
0.0
 10
-0.8951968503937008
 20
-2.0293070866141734
 30
0.0
  0
SPLINE
  5
AA
100
AcDbEntity
  8
Layer 1
 62
     9
100
AcDbSpline
210
0.0
220
0.0
230
1.0
 70
     1
 71
     3
 72
    36
 73
    32
 74
     0
 42
0.0000000001
 43
0.0000000001
 40
0.0
 40
0.0
 40
0.0
 40
0.0
 40
0.125
 40
0.125
 40
0.125
 40
0.125
 40
0.25
 40
0.25
 40
0.25
 40
0.25
 40
0.375
 40
0.375
 40
0.375
 40
0.375
 40
0.5
 40
0.5
 40
0.5
 40
0.5
 40
0.625
 40
0.625
 40
0.625
 40
0.625
 40
0.75
 40
0.75
 40
0.75
 40
0.75
 40
0.875
 40
0.875
 40
0.875
 40
0.875
 40
1.0
 40
1.0
 40
1.0
 40
1.0
 10
-0.9363425196850395
 20
-2.0386968503937011
 30
0.0
 10
-0.9363425196850395
 20
-2.0386968503937011
 30
0.0
 10
-0.2899724409448819
 20
-2.4147834645669293
 30
0.0
 10
-0.2899724409448819
 20
-2.4147834645669293
 30
0.0
 10
-0.2899724409448819
 20
-2.4147834645669293
 30
0.0
 10
-0.2899724409448819
 20
-2.4147834645669293
 30
0.0
 10
-0.3076653543307087
 20
-2.4175787401574804
 30
0.0
 10
-0.3076653543307087
 20
-2.4175787401574804
 30
0.0
 10
-0.3076653543307087
 20
-2.4175787401574804
 30
0.0
 10
-0.3076653543307087
 20
-2.4175787401574804
 30
0.0
 10
-0.3231929133858268
 20
-2.4192007874015751
 30
0.0
 10
-0.3231929133858268
 20
-2.4192007874015751
 30
0.0
 10
-0.3231929133858268
 20
-2.4192007874015751
 30
0.0
 10
-0.3231929133858268
 20
-2.4192007874015751
 30
0.0
 10
-0.3363897637795276
 20
-2.4197283464566932
 30
0.0
 10
-0.3363897637795276
 20
-2.4197283464566932
 30
0.0
 10
-0.3363897637795276
 20
-2.4197283464566932
 30
0.0
 10
-0.3363897637795276
 20
-2.4197283464566932
 30
0.0
 10
-0.9827598425196851
 20
-2.0436417322834646
 30
0.0
 10
-0.9827598425196851
 20
-2.0436417322834646
 30
0.0
 10
-0.9827598425196851
 20
-2.0436417322834646
 30
0.0
 10
-0.9827598425196851
 20
-2.0436417322834646
 30
0.0
 10
-0.9695629921259843
 20
-2.0431141732283464
 30
0.0
 10
-0.9695629921259843
 20
-2.0431141732283464
 30
0.0
 10
-0.9695629921259843
 20
-2.0431141732283464
 30
0.0
 10
-0.9695629921259843
 20
-2.0431141732283464
 30
0.0
 10
-0.9540354330708661
 20
-2.0414921259842522
 30
0.0
 10
-0.9540354330708661
 20
-2.0414921259842522
 30
0.0
 10
-0.9540354330708661
 20
-2.0414921259842522
 30
0.0
 10
-0.9540354330708661
 20
-2.0414921259842522
 30
0.0
 10
-0.9363425196850395
 20
-2.0386968503937011
 30
0.0
 10
-0.9363425196850395
 20
-2.0386968503937011
 30
0.0
  0
SPLINE
  5
AB
100
AcDbEntity
  8
Layer 1
370
     5
100
AcDbSpline
210
0.0
220
0.0
230
1.0
 70
     1
 71
     3
 72
   276
 73
   272
 74
     0
 42
0.0000000001
 43
0.0000000001
 40
0.0
 40
0.0
 40
0.0
 40
0.0
 40
0.0147058823529412
 40
0.0147058823529412
 40
0.0147058823529412
 40
0.0147058823529412
 40
0.0294117647058824
 40
0.0294117647058824
 40
0.0294117647058824
 40
0.0294117647058824
 40
0.0441176470588235
 40
0.0441176470588235
 40
0.0441176470588235
 40
0.0441176470588235
 40
0.0588235294117647
 40
0.0588235294117647
 40
0.0588235294117647
 40
0.0588235294117647
 40
0.0735294117647059
 40
0.0735294117647059
 40
0.0735294117647059
 40
0.0735294117647059
 40
0.0882352941176471
 40
0.0882352941176471
 40
0.0882352941176471
 40
0.0882352941176471
 40
0.1029411764705882
 40
0.1029411764705882
 40
0.1029411764705882
 40
0.1029411764705882
 40
0.1176470588235294
 40
0.1176470588235294
 40
0.1176470588235294
 40
0.1176470588235294
 40
0.1323529411764706
 40
0.1323529411764706
 40
0.1323529411764706
 40
0.1323529411764706
 40
0.1470588235294118
 40
0.1470588235294118
 40
0.1470588235294118
 40
0.1470588235294118
 40
0.161764705882353
 40
0.161764705882353
 40
0.161764705882353
 40
0.161764705882353
 40
0.1764705882352941
 40
0.1764705882352941
 40
0.1764705882352941
 40
0.1764705882352941
 40
0.1911764705882353
 40
0.1911764705882353
 40
0.1911764705882353
 40
0.1911764705882353
 40
0.2058823529411765
 40
0.2058823529411765
 40
0.2058823529411765
 40
0.2058823529411765
 40
0.2205882352941177
 40
0.2205882352941177
 40
0.2205882352941177
 40
0.2205882352941177
 40
0.2352941176470589
 40
0.2352941176470589
 40
0.2352941176470589
 40
0.2352941176470589
 40
0.25
 40
0.25
 40
0.25
 40
0.25
 40
0.2647058823529412
 40
0.2647058823529412
 40
0.2647058823529412
 40
0.2647058823529412
 40
0.2794117647058824
 40
0.2794117647058824
 40
0.2794117647058824
 40
0.2794117647058824
 40
0.2941176470588235
 40
0.2941176470588235
 40
0.2941176470588235
 40
0.2941176470588235
 40
0.3088235294117647
 40
0.3088235294117647
 40
0.3088235294117647
 40
0.3088235294117647
 40
0.3235294117647059
 40
0.3235294117647059
 40
0.3235294117647059
 40
0.3235294117647059
 40
0.3382352941176471
 40
0.3382352941176471
 40
0.3382352941176471
 40
0.3382352941176471
 40
0.3529411764705883
 40
0.3529411764705883
 40
0.3529411764705883
 40
0.3529411764705883
 40
0.3676470588235294
 40
0.3676470588235294
 40
0.3676470588235294
 40
0.3676470588235294
 40
0.3823529411764706
 40
0.3823529411764706
 40
0.3823529411764706
 40
0.3823529411764706
 40
0.3970588235294118
 40
0.3970588235294118
 40
0.3970588235294118
 40
0.3970588235294118
 40
0.411764705882353
 40
0.411764705882353
 40
0.411764705882353
 40
0.411764705882353
 40
0.4264705882352942
 40
0.4264705882352942
 40
0.4264705882352942
 40
0.4264705882352942
 40
0.4411764705882353
 40
0.4411764705882353
 40
0.4411764705882353
 40
0.4411764705882353
 40
0.4558823529411765
 40
0.4558823529411765
 40
0.4558823529411765
 40
0.4558823529411765
 40
0.4705882352941177
 40
0.4705882352941177
 40
0.4705882352941177
 40
0.4705882352941177
 40
0.4852941176470589
 40
0.4852941176470589
 40
0.4852941176470589
 40
0.4852941176470589
 40
0.5
 40
0.5
 40
0.5
 40
0.5
 40
0.5147058823529411
 40
0.5147058823529411
 40
0.5147058823529411
 40
0.5147058823529411
 40
0.5294117647058823
 40
0.5294117647058823
 40
0.5294117647058823
 40
0.5294117647058823
 40
0.5441176470588234
 40
0.5441176470588234
 40
0.5441176470588234
 40
0.5441176470588234
 40
0.5588235294117645
 40
0.5588235294117645
 40
0.5588235294117645
 40
0.5588235294117645
 40
0.5735294117647056
 40
0.5735294117647056
 40
0.5735294117647056
 40
0.5735294117647056
 40
0.5882352941176468
 40
0.5882352941176468
 40
0.5882352941176468
 40
0.5882352941176468
 40
0.6029411764705879
 40
0.6029411764705879
 40
0.6029411764705879
 40
0.6029411764705879
 40
0.617647058823529
 40
0.617647058823529
 40
0.617647058823529
 40
0.617647058823529
 40
0.6323529411764701
 40
0.6323529411764701
 40
0.6323529411764701
 40
0.6323529411764701
 40
0.6470588235294112
 40
0.6470588235294112
 40
0.6470588235294112
 40
0.6470588235294112
 40
0.6617647058823524
 40
0.6617647058823524
 40
0.6617647058823524
 40
0.6617647058823524
 40
0.6764705882352935
 40
0.6764705882352935
 40
0.6764705882352935
 40
0.6764705882352935
 40
0.6911764705882346
 40
0.6911764705882346
 40
0.6911764705882346
 40
0.6911764705882346
 40
0.7058823529411757
 40
0.7058823529411757
 40
0.7058823529411757
 40
0.7058823529411757
 40
0.7205882352941169
 40
0.7205882352941169
 40
0.7205882352941169
 40
0.7205882352941169
 40
0.735294117647058
 40
0.735294117647058
 40
0.735294117647058
 40
0.735294117647058
 40
0.7499999999999991
 40
0.7499999999999991
 40
0.7499999999999991
 40
0.7499999999999991
 40
0.7647058823529402
 40
0.7647058823529402
 40
0.7647058823529402
 40
0.7647058823529402
 40
0.7794117647058814
 40
0.7794117647058814
 40
0.7794117647058814
 40
0.7794117647058814
 40
0.7941176470588225
 40
0.7941176470588225
 40
0.7941176470588225
 40
0.7941176470588225
 40
0.8088235294117636
 40
0.8088235294117636
 40
0.8088235294117636
 40
0.8088235294117636
 40
0.8235294117647047
 40
0.8235294117647047
 40
0.8235294117647047
 40
0.8235294117647047
 40
0.8382352941176459
 40
0.8382352941176459
 40
0.8382352941176459
 40
0.8382352941176459
 40
0.852941176470587
 40
0.852941176470587
 40
0.852941176470587
 40
0.852941176470587
 40
0.8676470588235281
 40
0.8676470588235281
 40
0.8676470588235281
 40
0.8676470588235281
 40
0.8823529411764692
 40
0.8823529411764692
 40
0.8823529411764692
 40
0.8823529411764692
 40
0.8970588235294104
 40
0.8970588235294104
 40
0.8970588235294104
 40
0.8970588235294104
 40
0.9117647058823515
 40
0.9117647058823515
 40
0.9117647058823515
 40
0.9117647058823515
 40
0.9264705882352926
 40
0.9264705882352926
 40
0.9264705882352926
 40
0.9264705882352926
 40
0.9411764705882337
 40
0.9411764705882337
 40
0.9411764705882337
 40
0.9411764705882337
 40
0.9558823529411749
 40
0.9558823529411749
 40
0.9558823529411749
 40
0.9558823529411749
 40
0.970588235294116
 40
0.970588235294116
 40
0.970588235294116
 40
0.970588235294116
 40
0.9852941176470571
 40
0.9852941176470571
 40
0.9852941176470571
 40
0.9852941176470571
 40
1.0
 40
1.0
 40
1.0
 40
1.0
 10
-0.1031338582677165
 20
-1.0896062992125986
 30
0.0
 10
-0.1031338582677165
 20
-1.0896062992125986
 30
0.0
 10
0.5432362204724409
 20
-1.4656929133858267
 30
0.0
 10
0.5432362204724409
 20
-1.4656929133858267
 30
0.0
 10
0.5432362204724409
 20
-1.4656929133858267
 30
0.0
 10
0.5432362204724409
 20
-1.4656929133858267
 30
0.0
 10
0.349240157480315
 20
-1.4949251968503938
 30
0.0
 10
0.349240157480315
 20
-1.4949251968503938
 30
0.0
 10
0.349240157480315
 20
-1.4949251968503938
 30
0.0
 10
0.349240157480315
 20
-1.4949251968503938
 30
0.0
 10
0.3476377952755906
 20
-1.5635590551181102
 30
0.0
 10
0.3476377952755906
 20
-1.5635590551181102
 30
0.0
 10
0.3476377952755906
 20
-1.5635590551181102
 30
0.0
 10
0.3476377952755906
 20
-1.5635590551181102
 30
0.0
 10
0.3429448818897638
 20
-1.6289015748031497
 30
0.0
 10
0.3429448818897638
 20
-1.6289015748031497
 30
0.0
 10
0.3429448818897638
 20
-1.6289015748031497
 30
0.0
 10
0.3429448818897638
 20
-1.6289015748031497
 30
0.0
 10
0.3353464566929134
 20
-1.6910157480314962
 30
0.0
 10
0.3353464566929134
 20
-1.6910157480314962
 30
0.0
 10
0.3353464566929134
 20
-1.6910157480314962
 30
0.0
 10
0.3353464566929134
 20
-1.6910157480314962
 30
0.0
 10
0.3250157480314961
 20
-1.749988188976378
 30
0.0
 10
0.3250157480314961
 20
-1.749988188976378
 30
0.0
 10
0.3250157480314961
 20
-1.749988188976378
 30
0.0
 10
0.3250157480314961
 20
-1.749988188976378
 30
0.0
 10
0.3121456692913386
 20
-1.8058740157480315
 30
0.0
 10
0.3121456692913386
 20
-1.8058740157480315
 30
0.0
 10
0.3121456692913386
 20
-1.8058740157480315
 30
0.0
 10
0.3121456692913386
 20
-1.8058740157480315
 30
0.0
 10
0.2969055118110237
 20
-1.8587637795275591
 30
0.0
 10
0.2969055118110237
 20
-1.8587637795275591
 30
0.0
 10
0.2969055118110237
 20
-1.8587637795275591
 30
0.0
 10
0.2969055118110237
 20
-1.8587637795275591
 30
0.0
 10
0.279484251968504
 20
-1.9087244094488189
 30
0.0
 10
0.279484251968504
 20
-1.9087244094488189
 30
0.0
 10
0.279484251968504
 20
-1.9087244094488189
 30
0.0
 10
0.279484251968504
 20
-1.9087244094488189
 30
0.0
 10
0.2600511811023622
 20
-1.9558267716535434
 30
0.0
 10
0.2600511811023622
 20
-1.9558267716535434
 30
0.0
 10
0.2600511811023622
 20
-1.9558267716535434
 30
0.0
 10
0.2600511811023622
 20
-1.9558267716535434
 30
0.0
 10
0.2388110236220473
 20
-2.0001417322834647
 30
0.0
 10
0.2388110236220473
 20
-2.0001417322834647
 30
0.0
 10
0.2388110236220473
 20
-2.0001417322834647
 30
0.0
 10
0.2388110236220473
 20
-2.0001417322834647
 30
0.0
 10
0.2159212598425197
 20
-2.0417480314960632
 30
0.0
 10
0.2159212598425197
 20
-2.0417480314960632
 30
0.0
 10
0.2159212598425197
 20
-2.0417480314960632
 30
0.0
 10
0.2159212598425197
 20
-2.0417480314960632
 30
0.0
 10
0.1915748031496063
 20
-2.0807125984251971
 30
0.0
 10
0.1915748031496063
 20
-2.0807125984251971
 30
0.0
 10
0.1915748031496063
 20
-2.0807125984251971
 30
0.0
 10
0.1915748031496063
 20
-2.0807125984251971
 30
0.0
 10
0.1659448818897638
 20
-2.1171220472440946
 30
0.0
 10
0.1659448818897638
 20
-2.1171220472440946
 30
0.0
 10
0.1659448818897638
 20
-2.1171220472440946
 30
0.0
 10
0.1659448818897638
 20
-2.1171220472440946
 30
0.0
 10
0.1392204724409449
 20
-2.1510354330708661
 30
0.0
 10
0.1392204724409449
 20
-2.1510354330708661
 30
0.0
 10
0.1392204724409449
 20
-2.1510354330708661
 30
0.0
 10
0.1392204724409449
 20
-2.1510354330708661
 30
0.0
 10
0.1115787401574803
 20
-2.1825354330708664
 30
0.0
 10
0.1115787401574803
 20
-2.1825354330708664
 30
0.0
 10
0.1115787401574803
 20
-2.1825354330708664
 30
0.0
 10
0.1115787401574803
 20
-2.1825354330708664
 30
0.0
 10
0.0832007874015748
 20
-2.2116850393700789
 30
0.0
 10
0.0832007874015748
 20
-2.2116850393700789
 30
0.0
 10
0.0832007874015748
 20
-2.2116850393700789
 30
0.0
 10
0.0832007874015748
 20
-2.2116850393700789
 30
0.0
 10
0.0542637795275591
 20
-2.2385748031496062
 30
0.0
 10
0.0542637795275591
 20
-2.2385748031496062
 30
0.0
 10
0.0542637795275591
 20
-2.2385748031496062
 30
0.0
 10
0.0542637795275591
 20
-2.2385748031496062
 30
0.0
 10
0.0249606299212598
 20
-2.2632559055118113
 30
0.0
 10
0.0249606299212598
 20
-2.2632559055118113
 30
0.0
 10
0.0249606299212598
 20
-2.2632559055118113
 30
0.0
 10
0.0249606299212598
 20
-2.2632559055118113
 30
0.0
 10
-0.0045393700787402
 20
-2.2858149606299212
 30
0.0
 10
-0.0045393700787402
 20
-2.2858149606299212
 30
0.0
 10
-0.0045393700787402
 20
-2.2858149606299212
 30
0.0
 10
-0.0045393700787402
 20
-2.2858149606299212
 30
0.0
 10
-0.0340472440944882
 20
-2.3063267716535436
 30
0.0
 10
-0.0340472440944882
 20
-2.3063267716535436
 30
0.0
 10
-0.0340472440944882
 20
-2.3063267716535436
 30
0.0
 10
-0.0340472440944882
 20
-2.3063267716535436
 30
0.0
 10
-0.0633897637795276
 20
-2.3248622047244094
 30
0.0
 10
-0.0633897637795276
 20
-2.3248622047244094
 30
0.0
 10
-0.0633897637795276
 20
-2.3248622047244094
 30
0.0
 10
-0.0633897637795276
 20
-2.3248622047244094
 30
0.0
 10
-0.0923779527559055
 20
-2.3414881889763781
 30
0.0
 10
-0.0923779527559055
 20
-2.3414881889763781
 30
0.0
 10
-0.0923779527559055
 20
-2.3414881889763781
 30
0.0
 10
-0.0923779527559055
 20
-2.3414881889763781
 30
0.0
 10
-0.1208385826771654
 20
-2.3562874015748032
 30
0.0
 10
-0.1208385826771654
 20
-2.3562874015748032
 30
0.0
 10
-0.1208385826771654
 20
-2.3562874015748032
 30
0.0
 10
-0.1208385826771654
 20
-2.3562874015748032
 30
0.0
 10
-0.1485826771653543
 20
-2.3693307086614173
 30
0.0
 10
-0.1485826771653543
 20
-2.3693307086614173
 30
0.0
 10
-0.1485826771653543
 20
-2.3693307086614173
 30
0.0
 10
-0.1485826771653543
 20
-2.3693307086614173
 30
0.0
 10
-0.1754409448818898
 20
-2.3806929133858268
 30
0.0
 10
-0.1754409448818898
 20
-2.3806929133858268
 30
0.0
 10
-0.1754409448818898
 20
-2.3806929133858268
 30
0.0
 10
-0.1754409448818898
 20
-2.3806929133858268
 30
0.0
 10
-0.2012165354330709
 20
-2.390437007874016
 30
0.0
 10
-0.2012165354330709
 20
-2.390437007874016
 30
0.0
 10
-0.2012165354330709
 20
-2.390437007874016
 30
0.0
 10
-0.2012165354330709
 20
-2.390437007874016
 30
0.0
 10
-0.225740157480315
 20
-2.3986496062992129
 30
0.0
 10
-0.225740157480315
 20
-2.3986496062992129
 30
0.0
 10
-0.225740157480315
 20
-2.3986496062992129
 30
0.0
 10
-0.225740157480315
 20
-2.3986496062992129
 30
0.0
 10
-0.2488267716535433
 20
-2.4053937007874016
 30
0.0
 10
-0.2488267716535433
 20
-2.4053937007874016
 30
0.0
 10
-0.2488267716535433
 20
-2.4053937007874016
 30
0.0
 10
-0.2488267716535433
 20
-2.4053937007874016
 30
0.0
 10
-0.2703031496062992
 20
-2.410748031496063
 30
0.0
 10
-0.2703031496062992
 20
-2.410748031496063
 30
0.0
 10
-0.2703031496062992
 20
-2.410748031496063
 30
0.0
 10
-0.2703031496062992
 20
-2.410748031496063
 30
0.0
 10
-0.2899724409448819
 20
-2.4147834645669293
 30
0.0
 10
-0.2899724409448819
 20
-2.4147834645669293
 30
0.0
 10
-0.2899724409448819
 20
-2.4147834645669293
 30
0.0
 10
-0.2899724409448819
 20
-2.4147834645669293
 30
0.0
 10
-0.3076653543307087
 20
-2.4175787401574804
 30
0.0
 10
-0.3076653543307087
 20
-2.4175787401574804
 30
0.0
 10
-0.3076653543307087
 20
-2.4175787401574804
 30
0.0
 10
-0.3076653543307087
 20
-2.4175787401574804
 30
0.0
 10
-0.3231929133858268
 20
-2.4192007874015751
 30
0.0
 10
-0.3231929133858268
 20
-2.4192007874015751
 30
0.0
 10
-0.3231929133858268
 20
-2.4192007874015751
 30
0.0
 10
-0.3231929133858268
 20
-2.4192007874015751
 30
0.0
 10
-0.3363897637795276
 20
-2.4197283464566932
 30
0.0
 10
-0.3363897637795276
 20
-2.4197283464566932
 30
0.0
 10
-0.3363897637795276
 20
-2.4197283464566932
 30
0.0
 10
-0.3363897637795276
 20
-2.4197283464566932
 30
0.0
 10
-0.9827598425196851
 20
-2.0436417322834646
 30
0.0
 10
-0.9827598425196851
 20
-2.0436417322834646
 30
0.0
 10
-0.9827598425196851
 20
-2.0436417322834646
 30
0.0
 10
-0.9827598425196851
 20
-2.0436417322834646
 30
0.0
 10
-0.9695629921259843
 20
-2.0431141732283464
 30
0.0
 10
-0.9695629921259843
 20
-2.0431141732283464
 30
0.0
 10
-0.9695629921259843
 20
-2.0431141732283464
 30
0.0
 10
-0.9695629921259843
 20
-2.0431141732283464
 30
0.0
 10
-0.9540354330708661
 20
-2.0414921259842522
 30
0.0
 10
-0.9540354330708661
 20
-2.0414921259842522
 30
0.0
 10
-0.9540354330708661
 20
-2.0414921259842522
 30
0.0
 10
-0.9540354330708661
 20
-2.0414921259842522
 30
0.0
 10
-0.9363425196850395
 20
-2.0386968503937011
 30
0.0
 10
-0.9363425196850395
 20
-2.0386968503937011
 30
0.0
 10
-0.9363425196850395
 20
-2.0386968503937011
 30
0.0
 10
-0.9363425196850395
 20
-2.0386968503937011
 30
0.0
 10
-0.9166732283464567
 20
-2.0346614173228348
 30
0.0
 10
-0.9166732283464567
 20
-2.0346614173228348
 30
0.0
 10
-0.9166732283464567
 20
-2.0346614173228348
 30
0.0
 10
-0.9166732283464567
 20
-2.0346614173228348
 30
0.0
 10
-0.8951968503937008
 20
-2.0293070866141734
 30
0.0
 10
-0.8951968503937008
 20
-2.0293070866141734
 30
0.0
 10
-0.8951968503937008
 20
-2.0293070866141734
 30
0.0
 10
-0.8951968503937008
 20
-2.0293070866141734
 30
0.0
 10
-0.8721102362204725
 20
-2.0225629921259842
 30
0.0
 10
-0.8721102362204725
 20
-2.0225629921259842
 30
0.0
 10
-0.8721102362204725
 20
-2.0225629921259842
 30
0.0
 10
-0.8721102362204725
 20
-2.0225629921259842
 30
0.0
 10
-0.8475866141732283
 20
-2.0143503937007874
 30
0.0
 10
-0.8475866141732283
 20
-2.0143503937007874
 30
0.0
 10
-0.8475866141732283
 20
-2.0143503937007874
 30
0.0
 10
-0.8475866141732283
 20
-2.0143503937007874
 30
0.0
 10
-0.8218110236220473
 20
-2.0046062992125986
 30
0.0
 10
-0.8218110236220473
 20
-2.0046062992125986
 30
0.0
 10
-0.8218110236220473
 20
-2.0046062992125986
 30
0.0
 10
-0.8218110236220473
 20
-2.0046062992125986
 30
0.0
 10
-0.7949527559055118
 20
-1.9932440944881891
 30
0.0
 10
-0.7949527559055118
 20
-1.9932440944881891
 30
0.0
 10
-0.7949527559055118
 20
-1.9932440944881891
 30
0.0
 10
-0.7949527559055118
 20
-1.9932440944881891
 30
0.0
 10
-0.7672086614173229
 20
-1.9802007874015748
 30
0.0
 10
-0.7672086614173229
 20
-1.9802007874015748
 30
0.0
 10
-0.7672086614173229
 20
-1.9802007874015748
 30
0.0
 10
-0.7672086614173229
 20
-1.9802007874015748
 30
0.0
 10
-0.7387480314960631
 20
-1.9654015748031497
 30
0.0
 10
-0.7387480314960631
 20
-1.9654015748031497
 30
0.0
 10
-0.7387480314960631
 20
-1.9654015748031497
 30
0.0
 10
-0.7387480314960631
 20
-1.9654015748031497
 30
0.0
 10
-0.7097598425196851
 20
-1.9487755905511812
 30
0.0
 10
-0.7097598425196851
 20
-1.9487755905511812
 30
0.0
 10
-0.7097598425196851
 20
-1.9487755905511812
 30
0.0
 10
-0.7097598425196851
 20
-1.9487755905511812
 30
0.0
 10
-0.6804173228346457
 20
-1.930240157480315
 30
0.0
 10
-0.6804173228346457
 20
-1.930240157480315
 30
0.0
 10
-0.6804173228346457
 20
-1.930240157480315
 30
0.0
 10
-0.6804173228346457
 20
-1.930240157480315
 30
0.0
 10
-0.6509094488188977
 20
-1.909728346456693
 30
0.0
 10
-0.6509094488188977
 20
-1.909728346456693
 30
0.0
 10
-0.6509094488188977
 20
-1.909728346456693
 30
0.0
 10
-0.6509094488188977
 20
-1.909728346456693
 30
0.0
 10
-0.6214094488188977
 20
-1.8871692913385827
 30
0.0
 10
-0.6214094488188977
 20
-1.8871692913385827
 30
0.0
 10
-0.6214094488188977
 20
-1.8871692913385827
 30
0.0
 10
-0.6214094488188977
 20
-1.8871692913385827
 30
0.0
 10
-0.5921062992125985
 20
-1.862488188976378
 30
0.0
 10
-0.5921062992125985
 20
-1.862488188976378
 30
0.0
 10
-0.5921062992125985
 20
-1.862488188976378
 30
0.0
 10
-0.5921062992125985
 20
-1.862488188976378
 30
0.0
 10
-0.5631692913385827
 20
-1.8355984251968505
 30
0.0
 10
-0.5631692913385827
 20
-1.8355984251968505
 30
0.0
 10
-0.5631692913385827
 20
-1.8355984251968505
 30
0.0
 10
-0.5631692913385827
 20
-1.8355984251968505
 30
0.0
 10
-0.5347913385826771
 20
-1.8064488188976378
 30
0.0
 10
-0.5347913385826771
 20
-1.8064488188976378
 30
0.0
 10
-0.5347913385826771
 20
-1.8064488188976378
 30
0.0
 10
-0.5347913385826771
 20
-1.8064488188976378
 30
0.0
 10
-0.5071496062992126
 20
-1.7749488188976379
 30
0.0
 10
-0.5071496062992126
 20
-1.7749488188976379
 30
0.0
 10
-0.5071496062992126
 20
-1.7749488188976379
 30
0.0
 10
-0.5071496062992126
 20
-1.7749488188976379
 30
0.0
 10
-0.4804251968503937
 20
-1.7410354330708662
 30
0.0
 10
-0.4804251968503937
 20
-1.7410354330708662
 30
0.0
 10
-0.4804251968503937
 20
-1.7410354330708662
 30
0.0
 10
-0.4804251968503937
 20
-1.7410354330708662
 30
0.0
 10
-0.4547952755905512
 20
-1.7046259842519687
 30
0.0
 10
-0.4547952755905512
 20
-1.7046259842519687
 30
0.0
 10
-0.4547952755905512
 20
-1.7046259842519687
 30
0.0
 10
-0.4547952755905512
 20
-1.7046259842519687
 30
0.0
 10
-0.4304488188976378
 20
-1.6656614173228348
 30
0.0
 10
-0.4304488188976378
 20
-1.6656614173228348
 30
0.0
 10
-0.4304488188976378
 20
-1.6656614173228348
 30
0.0
 10
-0.4304488188976378
 20
-1.6656614173228348
 30
0.0
 10
-0.4075590551181103
 20
-1.6240551181102363
 30
0.0
 10
-0.4075590551181103
 20
-1.6240551181102363
 30
0.0
 10
-0.4075590551181103
 20
-1.6240551181102363
 30
0.0
 10
-0.4075590551181103
 20
-1.6240551181102363
 30
0.0
 10
-0.3863188976377953
 20
-1.5797401574803149
 30
0.0
 10
-0.3863188976377953
 20
-1.5797401574803149
 30
0.0
 10
-0.3863188976377953
 20
-1.5797401574803149
 30
0.0
 10
-0.3863188976377953
 20
-1.5797401574803149
 30
0.0
 10
-0.3668858267716535
 20
-1.5326377952755905
 30
0.0
 10
-0.3668858267716535
 20
-1.5326377952755905
 30
0.0
 10
-0.3668858267716535
 20
-1.5326377952755905
 30
0.0
 10
-0.3668858267716535
 20
-1.5326377952755905
 30
0.0
 10
-0.3494645669291339
 20
-1.4826771653543307
 30
0.0
 10
-0.3494645669291339
 20
-1.4826771653543307
 30
0.0
 10
-0.3494645669291339
 20
-1.4826771653543307
 30
0.0
 10
-0.3494645669291339
 20
-1.4826771653543307
 30
0.0
 10
-0.3342244094488189
 20
-1.4297874015748031
 30
0.0
 10
-0.3342244094488189
 20
-1.4297874015748031
 30
0.0
 10
-0.3342244094488189
 20
-1.4297874015748031
 30
0.0
 10
-0.3342244094488189
 20
-1.4297874015748031
 30
0.0
 10
-0.3213543307086614
 20
-1.3739015748031496
 30
0.0
 10
-0.3213543307086614
 20
-1.3739015748031496
 30
0.0
 10
-0.3213543307086614
 20
-1.3739015748031496
 30
0.0
 10
-0.3213543307086614
 20
-1.3739015748031496
 30
0.0
 10
-0.3110236220472441
 20
-1.3149291338582678
 30
0.0
 10
-0.3110236220472441
 20
-1.3149291338582678
 30
0.0
 10
-0.3110236220472441
 20
-1.3149291338582678
 30
0.0
 10
-0.3110236220472441
 20
-1.3149291338582678
 30
0.0
 10
-0.3034251968503937
 20
-1.2528149606299213
 30
0.0
 10
-0.3034251968503937
 20
-1.2528149606299213
 30
0.0
 10
-0.3034251968503937
 20
-1.2528149606299213
 30
0.0
 10
-0.3034251968503937
 20
-1.2528149606299213
 30
0.0
 10
-0.2987322834645669
 20
-1.187472440944882
 30
0.0
 10
-0.2987322834645669
 20
-1.187472440944882
 30
0.0
 10
-0.2987322834645669
 20
-1.187472440944882
 30
0.0
 10
-0.2987322834645669
 20
-1.187472440944882
 30
0.0
 10
-0.2971299212598426
 20
-1.1188385826771654
 30
0.0
 10
-0.2971299212598426
 20
-1.1188385826771654
 30
0.0
 10
-0.2971299212598426
 20
-1.1188385826771654
 30
0.0
 10
-0.2971299212598426
 20
-1.1188385826771654
 30
0.0
 10
-0.1031338582677165
 20
-1.0896062992125986
 30
0.0
 10
-0.1031338582677165
 20
-1.0896062992125986
 30
0.0
  0
SPLINE
  5
AC
100
AcDbEntity
  8
Layer 1
 62
     9
100
AcDbSpline
210
0.0
220
0.0
230
1.0
 70
     1
 71
     3
 72
    20
 73
    16
 74
     0
 42
0.0000000001
 43
0.0000000001
 40
0.0
 40
0.0
 40
0.0
 40
0.0
 40
0.25
 40
0.25
 40
0.25
 40
0.25
 40
0.5
 40
0.5
 40
0.5
 40
0.5
 40
0.75
 40
0.75
 40
0.75
 40
0.75
 40
1.0
 40
1.0
 40
1.0
 40
1.0
 10
-0.9827598425196851
 20
-2.0436417322834646
 30
0.0
 10
-0.9827598425196851
 20
-2.0436417322834646
 30
0.0
 10
-0.3363897637795276
 20
-2.4197283464566932
 30
0.0
 10
-0.3363897637795276
 20
-2.4197283464566932
 30
0.0
 10
-0.3363897637795276
 20
-2.4197283464566932
 30
0.0
 10
-0.3363897637795276
 20
-2.4197283464566932
 30
0.0
 10
-0.3390629921259843
 20
-2.6697283464566932
 30
0.0
 10
-0.3390629921259843
 20
-2.6697283464566932
 30
0.0
 10
-0.3390629921259843
 20
-2.6697283464566932
 30
0.0
 10
-0.3390629921259843
 20
-2.6697283464566932
 30
0.0
 10
-0.9854330708661417
 20
-2.2936417322834646
 30
0.0
 10
-0.9854330708661417
 20
-2.2936417322834646
 30
0.0
 10
-0.9854330708661417
 20
-2.2936417322834646
 30
0.0
 10
-0.9854330708661417
 20
-2.2936417322834646
 30
0.0
 10
-0.9827598425196851
 20
-2.0436417322834646
 30
0.0
 10
-0.9827598425196851
 20
-2.0436417322834646
 30
0.0
  0
SPLINE
  5
AD
100
AcDbEntity
  8
Layer 1
370
     5
100
AcDbSpline
210
0.0
220
0.0
230
1.0
 70
     1
 71
     3
 72
    20
 73
    16
 74
     0
 42
0.0000000001
 43
0.0000000001
 40
0.0
 40
0.0
 40
0.0
 40
0.0
 40
0.25
 40
0.25
 40
0.25
 40
0.25
 40
0.5
 40
0.5
 40
0.5
 40
0.5
 40
0.75
 40
0.75
 40
0.75
 40
0.75
 40
1.0
 40
1.0
 40
1.0
 40
1.0
 10
-0.9827598425196851
 20
-2.0436417322834646
 30
0.0
 10
-0.9827598425196851
 20
-2.0436417322834646
 30
0.0
 10
-0.3363897637795276
 20
-2.4197283464566932
 30
0.0
 10
-0.3363897637795276
 20
-2.4197283464566932
 30
0.0
 10
-0.3363897637795276
 20
-2.4197283464566932
 30
0.0
 10
-0.3363897637795276
 20
-2.4197283464566932
 30
0.0
 10
-0.3390629921259843
 20
-2.6697283464566932
 30
0.0
 10
-0.3390629921259843
 20
-2.6697283464566932
 30
0.0
 10
-0.3390629921259843
 20
-2.6697283464566932
 30
0.0
 10
-0.3390629921259843
 20
-2.6697283464566932
 30
0.0
 10
-0.9854330708661417
 20
-2.2936417322834646
 30
0.0
 10
-0.9854330708661417
 20
-2.2936417322834646
 30
0.0
 10
-0.9854330708661417
 20
-2.2936417322834646
 30
0.0
 10
-0.9854330708661417
 20
-2.2936417322834646
 30
0.0
 10
-0.9827598425196851
 20
-2.0436417322834646
 30
0.0
 10
-0.9827598425196851
 20
-2.0436417322834646
 30
0.0
  0
SPLINE
  5
AE
100
AcDbEntity
  8
Layer 1
 62
     9
100
AcDbSpline
210
0.0
220
0.0
230
1.0
 70
     1
 71
     3
 72
    20
 73
    16
 74
     0
 42
0.0000000001
 43
0.0000000001
 40
0.0
 40
0.0
 40
0.0
 40
0.0
 40
0.25
 40
0.25
 40
0.25
 40
0.25
 40
0.5
 40
0.5
 40
0.5
 40
0.5
 40
0.75
 40
0.75
 40
0.75
 40
0.75
 40
1.0
 40
1.0
 40
1.0
 40
1.0
 10
-0.9854330708661417
 20
-2.2936417322834646
 30
0.0
 10
-0.9854330708661417
 20
-2.2936417322834646
 30
0.0
 10
-0.3390629921259843
 20
-2.6697283464566932
 30
0.0
 10
-0.3390629921259843
 20
-2.6697283464566932
 30
0.0
 10
-0.3390629921259843
 20
-2.6697283464566932
 30
0.0
 10
-0.3390629921259843
 20
-2.6697283464566932
 30
0.0
 10
-0.3730669291338583
 20
-2.6718937007874017
 30
0.0
 10
-0.3730669291338583
 20
-2.6718937007874017
 30
0.0
 10
-0.3730669291338583
 20
-2.6718937007874017
 30
0.0
 10
-0.3730669291338583
 20
-2.6718937007874017
 30
0.0
 10
-1.0194370078740158
 20
-2.2958070866141731
 30
0.0
 10
-1.0194370078740158
 20
-2.2958070866141731
 30
0.0
 10
-1.0194370078740158
 20
-2.2958070866141731
 30
0.0
 10
-1.0194370078740158
 20
-2.2958070866141731
 30
0.0
 10
-0.9854330708661417
 20
-2.2936417322834646
 30
0.0
 10
-0.9854330708661417
 20
-2.2936417322834646
 30
0.0
  0
SPLINE
  5
AF
100
AcDbEntity
  8
Layer 1
 62
     9
100
AcDbSpline
210
0.0
220
0.0
230
1.0
 70
     1
 71
     3
 72
    20
 73
    16
 74
     0
 42
0.0000000001
 43
0.0000000001
 40
0.0
 40
0.0
 40
0.0
 40
0.0
 40
0.25
 40
0.25
 40
0.25
 40
0.25
 40
0.5
 40
0.5
 40
0.5
 40
0.5
 40
0.75
 40
0.75
 40
0.75
 40
0.75
 40
1.0
 40
1.0
 40
1.0
 40
1.0
 10
-1.0194370078740158
 20
-2.2958070866141731
 30
0.0
 10
-1.0194370078740158
 20
-2.2958070866141731
 30
0.0
 10
-0.3730669291338583
 20
-2.6718937007874017
 30
0.0
 10
-0.3730669291338583
 20
-2.6718937007874017
 30
0.0
 10
-0.3730669291338583
 20
-2.6718937007874017
 30
0.0
 10
-0.3730669291338583
 20
-2.6718937007874017
 30
0.0
 10
-0.4048149606299213
 20
-2.6758779527559056
 30
0.0
 10
-0.4048149606299213
 20
-2.6758779527559056
 30
0.0
 10
-0.4048149606299213
 20
-2.6758779527559056
 30
0.0
 10
-0.4048149606299213
 20
-2.6758779527559056
 30
0.0
 10
-1.0511850393700788
 20
-2.2997913385826774
 30
0.0
 10
-1.0511850393700788
 20
-2.2997913385826774
 30
0.0
 10
-1.0511850393700788
 20
-2.2997913385826774
 30
0.0
 10
-1.0511850393700788
 20
-2.2997913385826774
 30
0.0
 10
-1.0194370078740158
 20
-2.2958070866141731
 30
0.0
 10
-1.0194370078740158
 20
-2.2958070866141731
 30
0.0
  0
SPLINE
  5
B0
100
AcDbEntity
  8
Layer 1
 62
     9
100
AcDbSpline
210
0.0
220
0.0
230
1.0
 70
     1
 71
     3
 72
    20
 73
    16
 74
     0
 42
0.0000000001
 43
0.0000000001
 40
0.0
 40
0.0
 40
0.0
 40
0.0
 40
0.25
 40
0.25
 40
0.25
 40
0.25
 40
0.5
 40
0.5
 40
0.5
 40
0.5
 40
0.75
 40
0.75
 40
0.75
 40
0.75
 40
1.0
 40
1.0
 40
1.0
 40
1.0
 10
-1.0511850393700788
 20
-2.2997913385826774
 30
0.0
 10
-1.0511850393700788
 20
-2.2997913385826774
 30
0.0
 10
-0.4048149606299213
 20
-2.6758779527559056
 30
0.0
 10
-0.4048149606299213
 20
-2.6758779527559056
 30
0.0
 10
-0.4048149606299213
 20
-2.6758779527559056
 30
0.0
 10
-0.4048149606299213
 20
-2.6758779527559056
 30
0.0
 10
-0.4343818897637796
 20
-2.6815511811023622
 30
0.0
 10
-0.4343818897637796
 20
-2.6815511811023622
 30
0.0
 10
-0.4343818897637796
 20
-2.6815511811023622
 30
0.0
 10
-0.4343818897637796
 20
-2.6815511811023622
 30
0.0
 10
-1.0807519685039371
 20
-2.305464566929134
 30
0.0
 10
-1.0807519685039371
 20
-2.305464566929134
 30
0.0
 10
-1.0807519685039371
 20
-2.305464566929134
 30
0.0
 10
-1.0807519685039371
 20
-2.305464566929134
 30
0.0
 10
-1.0511850393700788
 20
-2.2997913385826774
 30
0.0
 10
-1.0511850393700788
 20
-2.2997913385826774
 30
0.0
  0
SPLINE
  5
B1
100
AcDbEntity
  8
Layer 1
 62
     9
100
AcDbSpline
210
0.0
220
0.0
230
1.0
 70
     1
 71
     3
 72
    20
 73
    16
 74
     0
 42
0.0000000001
 43
0.0000000001
 40
0.0
 40
0.0
 40
0.0
 40
0.0
 40
0.25
 40
0.25
 40
0.25
 40
0.25
 40
0.5
 40
0.5
 40
0.5
 40
0.5
 40
0.75
 40
0.75
 40
0.75
 40
0.75
 40
1.0
 40
1.0
 40
1.0
 40
1.0
 10
-1.0807519685039371
 20
-2.305464566929134
 30
0.0
 10
-1.0807519685039371
 20
-2.305464566929134
 30
0.0
 10
-0.4343818897637796
 20
-2.6815511811023622
 30
0.0
 10
-0.4343818897637796
 20
-2.6815511811023622
 30
0.0
 10
-0.4343818897637796
 20
-2.6815511811023622
 30
0.0
 10
-0.4343818897637796
 20
-2.6815511811023622
 30
0.0
 10
-0.4618543307086614
 20
-2.6888188976377956
 30
0.0
 10
-0.4618543307086614
 20
-2.6888188976377956
 30
0.0
 10
-0.4618543307086614
 20
-2.6888188976377956
 30
0.0
 10
-0.4618543307086614
 20
-2.6888188976377956
 30
0.0
 10
-1.1082244094488189
 20
-2.3127322834645669
 30
0.0
 10
-1.1082244094488189
 20
-2.3127322834645669
 30
0.0
 10
-1.1082244094488189
 20
-2.3127322834645669
 30
0.0
 10
-1.1082244094488189
 20
-2.3127322834645669
 30
0.0
 10
-1.0807519685039371
 20
-2.305464566929134
 30
0.0
 10
-1.0807519685039371
 20
-2.305464566929134
 30
0.0
  0
SPLINE
  5
B2
100
AcDbEntity
  8
Layer 1
 62
     9
100
AcDbSpline
210
0.0
220
0.0
230
1.0
 70
     1
 71
     3
 72
    20
 73
    16
 74
     0
 42
0.0000000001
 43
0.0000000001
 40
0.0
 40
0.0
 40
0.0
 40
0.0
 40
0.25
 40
0.25
 40
0.25
 40
0.25
 40
0.5
 40
0.5
 40
0.5
 40
0.5
 40
0.75
 40
0.75
 40
0.75
 40
0.75
 40
1.0
 40
1.0
 40
1.0
 40
1.0
 10
-1.1082244094488189
 20
-2.3127322834645669
 30
0.0
 10
-1.1082244094488189
 20
-2.3127322834645669
 30
0.0
 10
-0.4618543307086614
 20
-2.6888188976377956
 30
0.0
 10
-0.4618543307086614
 20
-2.6888188976377956
 30
0.0
 10
-0.4618543307086614
 20
-2.6888188976377956
 30
0.0
 10
-0.4618543307086614
 20
-2.6888188976377956
 30
0.0
 10
-0.4872874015748032
 20
-2.6975472440944883
 30
0.0
 10
-0.4872874015748032
 20
-2.6975472440944883
 30
0.0
 10
-0.4872874015748032
 20
-2.6975472440944883
 30
0.0
 10
-0.4872874015748032
 20
-2.6975472440944883
 30
0.0
 10
-1.1336574803149606
 20
-2.3214606299212601
 30
0.0
 10
-1.1336574803149606
 20
-2.3214606299212601
 30
0.0
 10
-1.1336574803149606
 20
-2.3214606299212601
 30
0.0
 10
-1.1336574803149606
 20
-2.3214606299212601
 30
0.0
 10
-1.1082244094488189
 20
-2.3127322834645669
 30
0.0
 10
-1.1082244094488189
 20
-2.3127322834645669
 30
0.0
  0
SPLINE
  5
B3
100
AcDbEntity
  8
Layer 1
 62
     9
100
AcDbSpline
210
0.0
220
0.0
230
1.0
 70
     1
 71
     3
 72
    28
 73
    24
 74
     0
 42
0.0000000001
 43
0.0000000001
 40
0.0
 40
0.0
 40
0.0
 40
0.0
 40
0.1666666666666667
 40
0.1666666666666667
 40
0.1666666666666667
 40
0.1666666666666667
 40
0.3333333333333333
 40
0.3333333333333333
 40
0.3333333333333333
 40
0.3333333333333333
 40
0.5
 40
0.5
 40
0.5
 40
0.5
 40
0.6666666666666666
 40
0.6666666666666666
 40
0.6666666666666666
 40
0.6666666666666666
 40
0.8333333333333333
 40
0.8333333333333333
 40
0.8333333333333333
 40
0.8333333333333333
 40
1.0
 40
1.0
 40
1.0
 40
1.0
 10
-1.1336574803149606
 20
-2.3214606299212601
 30
0.0
 10
-1.1336574803149606
 20
-2.3214606299212601
 30
0.0
 10
-0.4872874015748032
 20
-2.6975472440944883
 30
0.0
 10
-0.4872874015748032
 20
-2.6975472440944883
 30
0.0
 10
-0.4872874015748032
 20
-2.6975472440944883
 30
0.0
 10
-0.4872874015748032
 20
-2.6975472440944883
 30
0.0
 10
-0.5107755905511812
 20
-2.7076456692913387
 30
0.0
 10
-0.5107755905511812
 20
-2.7076456692913387
 30
0.0
 10
-0.5107755905511812
 20
-2.7076456692913387
 30
0.0
 10
-0.5107755905511812
 20
-2.7076456692913387
 30
0.0
 10
-0.5323897637795276
 20
-2.7189881889763781
 30
0.0
 10
-0.5323897637795276
 20
-2.7189881889763781
 30
0.0
 10
-0.5323897637795276
 20
-2.7189881889763781
 30
0.0
 10
-0.5323897637795276
 20
-2.7189881889763781
 30
0.0
 10
-1.178759842519685
 20
-2.3429015748031499
 30
0.0
 10
-1.178759842519685
 20
-2.3429015748031499
 30
0.0
 10
-1.178759842519685
 20
-2.3429015748031499
 30
0.0
 10
-1.178759842519685
 20
-2.3429015748031499
 30
0.0
 10
-1.1571456692913387
 20
-2.3315590551181105
 30
0.0
 10
-1.1571456692913387
 20
-2.3315590551181105
 30
0.0
 10
-1.1571456692913387
 20
-2.3315590551181105
 30
0.0
 10
-1.1571456692913387
 20
-2.3315590551181105
 30
0.0
 10
-1.1336574803149606
 20
-2.3214606299212601
 30
0.0
 10
-1.1336574803149606
 20
-2.3214606299212601
 30
0.0
  0
SPLINE
  5
B4
100
AcDbEntity
  8
Layer 1
 62
     9
100
AcDbSpline
210
0.0
220
0.0
230
1.0
 70
     1
 71
     3
 72
    28
 73
    24
 74
     0
 42
0.0000000001
 43
0.0000000001
 40
0.0
 40
0.0
 40
0.0
 40
0.0
 40
0.1666666666666667
 40
0.1666666666666667
 40
0.1666666666666667
 40
0.1666666666666667
 40
0.3333333333333333
 40
0.3333333333333333
 40
0.3333333333333333
 40
0.3333333333333333
 40
0.5
 40
0.5
 40
0.5
 40
0.5
 40
0.6666666666666666
 40
0.6666666666666666
 40
0.6666666666666666
 40
0.6666666666666666
 40
0.8333333333333333
 40
0.8333333333333333
 40
0.8333333333333333
 40
0.8333333333333333
 40
1.0
 40
1.0
 40
1.0
 40
1.0
 10
-1.178759842519685
 20
-2.3429015748031499
 30
0.0
 10
-1.178759842519685
 20
-2.3429015748031499
 30
0.0
 10
-0.5323897637795276
 20
-2.7189881889763781
 30
0.0
 10
-0.5323897637795276
 20
-2.7189881889763781
 30
0.0
 10
-0.5323897637795276
 20
-2.7189881889763781
 30
0.0
 10
-0.5323897637795276
 20
-2.7189881889763781
 30
0.0
 10
-0.5522165354330709
 20
-2.731476377952756
 30
0.0
 10
-0.5522165354330709
 20
-2.731476377952756
 30
0.0
 10
-0.5522165354330709
 20
-2.731476377952756
 30
0.0
 10
-0.5522165354330709
 20
-2.731476377952756
 30
0.0
 10
-0.5703110236220472
 20
-2.7449763779527561
 30
0.0
 10
-0.5703110236220472
 20
-2.7449763779527561
 30
0.0
 10
-0.5703110236220472
 20
-2.7449763779527561
 30
0.0
 10
-0.5703110236220472
 20
-2.7449763779527561
 30
0.0
 10
-1.2166811023622048
 20
-2.3688897637795279
 30
0.0
 10
-1.2166811023622048
 20
-2.3688897637795279
 30
0.0
 10
-1.2166811023622048
 20
-2.3688897637795279
 30
0.0
 10
-1.2166811023622048
 20
-2.3688897637795279
 30
0.0
 10
-1.1985866141732284
 20
-2.3553897637795278
 30
0.0
 10
-1.1985866141732284
 20
-2.3553897637795278
 30
0.0
 10
-1.1985866141732284
 20
-2.3553897637795278
 30
0.0
 10
-1.1985866141732284
 20
-2.3553897637795278
 30
0.0
 10
-1.178759842519685
 20
-2.3429015748031499
 30
0.0
 10
-1.178759842519685
 20
-2.3429015748031499
 30
0.0
  0
SPLINE
  5
B5
100
AcDbEntity
  8
Layer 1
 62
     9
100
AcDbSpline
210
0.0
220
0.0
230
1.0
 70
     1
 71
     3
 72
    28
 73
    24
 74
     0
 42
0.0000000001
 43
0.0000000001
 40
0.0
 40
0.0
 40
0.0
 40
0.0
 40
0.1666666666666667
 40
0.1666666666666667
 40
0.1666666666666667
 40
0.1666666666666667
 40
0.3333333333333333
 40
0.3333333333333333
 40
0.3333333333333333
 40
0.3333333333333333
 40
0.5
 40
0.5
 40
0.5
 40
0.5
 40
0.6666666666666666
 40
0.6666666666666666
 40
0.6666666666666666
 40
0.6666666666666666
 40
0.8333333333333333
 40
0.8333333333333333
 40
0.8333333333333333
 40
0.8333333333333333
 40
1.0
 40
1.0
 40
1.0
 40
1.0
 10
-1.2166811023622048
 20
-2.3688897637795279
 30
0.0
 10
-1.2166811023622048
 20
-2.3688897637795279
 30
0.0
 10
-0.5703110236220472
 20
-2.7449763779527561
 30
0.0
 10
-0.5703110236220472
 20
-2.7449763779527561
 30
0.0
 10
-0.5703110236220472
 20
-2.7449763779527561
 30
0.0
 10
-0.5703110236220472
 20
-2.7449763779527561
 30
0.0
 10
-0.5867716535433071
 20
-2.7593937007874016
 30
0.0
 10
-0.5867716535433071
 20
-2.7593937007874016
 30
0.0
 10
-0.5867716535433071
 20
-2.7593937007874016
 30
0.0
 10
-0.5867716535433071
 20
-2.7593937007874016
 30
0.0
 10
-0.6016614173228346
 20
-2.7746102362204725
 30
0.0
 10
-0.6016614173228346
 20
-2.7746102362204725
 30
0.0
 10
-0.6016614173228346
 20
-2.7746102362204725
 30
0.0
 10
-0.6016614173228346
 20
-2.7746102362204725
 30
0.0
 10
-1.2480314960629921
 20
-2.3985236220472443
 30
0.0
 10
-1.2480314960629921
 20
-2.3985236220472443
 30
0.0
 10
-1.2480314960629921
 20
-2.3985236220472443
 30
0.0
 10
-1.2480314960629921
 20
-2.3985236220472443
 30
0.0
 10
-1.2331417322834646
 20
-2.3833070866141735
 30
0.0
 10
-1.2331417322834646
 20
-2.3833070866141735
 30
0.0
 10
-1.2331417322834646
 20
-2.3833070866141735
 30
0.0
 10
-1.2331417322834646
 20
-2.3833070866141735
 30
0.0
 10
-1.2166811023622048
 20
-2.3688897637795279
 30
0.0
 10
-1.2166811023622048
 20
-2.3688897637795279
 30
0.0
  0
SPLINE
  5
B6
100
AcDbEntity
  8
Layer 1
 62
     9
100
AcDbSpline
210
0.0
220
0.0
230
1.0
 70
     1
 71
     3
 72
    28
 73
    24
 74
     0
 42
0.0000000001
 43
0.0000000001
 40
0.0
 40
0.0
 40
0.0
 40
0.0
 40
0.1666666666666667
 40
0.1666666666666667
 40
0.1666666666666667
 40
0.1666666666666667
 40
0.3333333333333333
 40
0.3333333333333333
 40
0.3333333333333333
 40
0.3333333333333333
 40
0.5
 40
0.5
 40
0.5
 40
0.5
 40
0.6666666666666666
 40
0.6666666666666666
 40
0.6666666666666666
 40
0.6666666666666666
 40
0.8333333333333333
 40
0.8333333333333333
 40
0.8333333333333333
 40
0.8333333333333333
 40
1.0
 40
1.0
 40
1.0
 40
1.0
 10
-1.2480314960629921
 20
-2.3985236220472443
 30
0.0
 10
-1.2480314960629921
 20
-2.3985236220472443
 30
0.0
 10
-0.6016614173228346
 20
-2.7746102362204725
 30
0.0
 10
-0.6016614173228346
 20
-2.7746102362204725
 30
0.0
 10
-0.6016614173228346
 20
-2.7746102362204725
 30
0.0
 10
-0.6016614173228346
 20
-2.7746102362204725
 30
0.0
 10
-0.6150669291338583
 20
-2.7905157480314964
 30
0.0
 10
-0.6150669291338583
 20
-2.7905157480314964
 30
0.0
 10
-0.6150669291338583
 20
-2.7905157480314964
 30
0.0
 10
-0.6150669291338583
 20
-2.7905157480314964
 30
0.0
 10
-0.6270551181102363
 20
-2.8069921259842521
 30
0.0
 10
-0.6270551181102363
 20
-2.8069921259842521
 30
0.0
 10
-0.6270551181102363
 20
-2.8069921259842521
 30
0.0
 10
-0.6270551181102363
 20
-2.8069921259842521
 30
0.0
 10
-1.2734251968503938
 20
-2.4309055118110239
 30
0.0
 10
-1.2734251968503938
 20
-2.4309055118110239
 30
0.0
 10
-1.2734251968503938
 20
-2.4309055118110239
 30
0.0
 10
-1.2734251968503938
 20
-2.4309055118110239
 30
0.0
 10
-1.2614370078740158
 20
-2.4144291338582677
 30
0.0
 10
-1.2614370078740158
 20
-2.4144291338582677
 30
0.0
 10
-1.2614370078740158
 20
-2.4144291338582677
 30
0.0
 10
-1.2614370078740158
 20
-2.4144291338582677
 30
0.0
 10
-1.2480314960629921
 20
-2.3985236220472443
 30
0.0
 10
-1.2480314960629921
 20
-2.3985236220472443
 30
0.0
  0
SPLINE
  5
B7
100
AcDbEntity
  8
Layer 1
 62
     9
100
AcDbSpline
210
0.0
220
0.0
230
1.0
 70
     1
 71
     3
 72
    28
 73
    24
 74
     0
 42
0.0000000001
 43
0.0000000001
 40
0.0
 40
0.0
 40
0.0
 40
0.0
 40
0.1666666666666667
 40
0.1666666666666667
 40
0.1666666666666667
 40
0.1666666666666667
 40
0.3333333333333333
 40
0.3333333333333333
 40
0.3333333333333333
 40
0.3333333333333333
 40
0.5
 40
0.5
 40
0.5
 40
0.5
 40
0.6666666666666666
 40
0.6666666666666666
 40
0.6666666666666666
 40
0.6666666666666666
 40
0.8333333333333333
 40
0.8333333333333333
 40
0.8333333333333333
 40
0.8333333333333333
 40
1.0
 40
1.0
 40
1.0
 40
1.0
 10
-1.2734251968503938
 20
-2.4309055118110239
 30
0.0
 10
-1.2734251968503938
 20
-2.4309055118110239
 30
0.0
 10
-0.6270551181102363
 20
-2.8069921259842521
 30
0.0
 10
-0.6270551181102363
 20
-2.8069921259842521
 30
0.0
 10
-0.6270551181102363
 20
-2.8069921259842521
 30
0.0
 10
-0.6270551181102363
 20
-2.8069921259842521
 30
0.0
 10
-0.6377165354330709
 20
-2.82394094488189
 30
0.0
 10
-0.6377165354330709
 20
-2.82394094488189
 30
0.0
 10
-0.6377165354330709
 20
-2.82394094488189
 30
0.0
 10
-0.6377165354330709
 20
-2.82394094488189
 30
0.0
 10
-0.6471141732283465
 20
-2.8412362204724411
 30
0.0
 10
-0.6471141732283465
 20
-2.8412362204724411
 30
0.0
 10
-0.6471141732283465
 20
-2.8412362204724411
 30
0.0
 10
-0.6471141732283465
 20
-2.8412362204724411
 30
0.0
 10
-1.2934842519685039
 20
-2.4651496062992129
 30
0.0
 10
-1.2934842519685039
 20
-2.4651496062992129
 30
0.0
 10
-1.2934842519685039
 20
-2.4651496062992129
 30
0.0
 10
-1.2934842519685039
 20
-2.4651496062992129
 30
0.0
 10
-1.2840866141732283
 20
-2.4478543307086613
 30
0.0
 10
-1.2840866141732283
 20
-2.4478543307086613
 30
0.0
 10
-1.2840866141732283
 20
-2.4478543307086613
 30
0.0
 10
-1.2840866141732283
 20
-2.4478543307086613
 30
0.0
 10
-1.2734251968503938
 20
-2.4309055118110239
 30
0.0
 10
-1.2734251968503938
 20
-2.4309055118110239
 30
0.0
  0
SPLINE
  5
B8
100
AcDbEntity
  8
Layer 1
 62
     9
100
AcDbSpline
210
0.0
220
0.0
230
1.0
 70
     1
 71
     3
 72
    28
 73
    24
 74
     0
 42
0.0000000001
 43
0.0000000001
 40
0.0
 40
0.0
 40
0.0
 40
0.0
 40
0.1666666666666667
 40
0.1666666666666667
 40
0.1666666666666667
 40
0.1666666666666667
 40
0.3333333333333333
 40
0.3333333333333333
 40
0.3333333333333333
 40
0.3333333333333333
 40
0.5
 40
0.5
 40
0.5
 40
0.5
 40
0.6666666666666666
 40
0.6666666666666666
 40
0.6666666666666666
 40
0.6666666666666666
 40
0.8333333333333333
 40
0.8333333333333333
 40
0.8333333333333333
 40
0.8333333333333333
 40
1.0
 40
1.0
 40
1.0
 40
1.0
 10
-1.2934842519685039
 20
-2.4651496062992129
 30
0.0
 10
-1.2934842519685039
 20
-2.4651496062992129
 30
0.0
 10
-0.6471141732283465
 20
-2.8412362204724411
 30
0.0
 10
-0.6471141732283465
 20
-2.8412362204724411
 30
0.0
 10
-0.6471141732283465
 20
-2.8412362204724411
 30
0.0
 10
-0.6471141732283465
 20
-2.8412362204724411
 30
0.0
 10
-0.6553346456692913
 20
-2.8587795275590553
 30
0.0
 10
-0.6553346456692913
 20
-2.8587795275590553
 30
0.0
 10
-0.6553346456692913
 20
-2.8587795275590553
 30
0.0
 10
-0.6553346456692913
 20
-2.8587795275590553
 30
0.0
 10
-0.6624409448818898
 20
-2.8764370078740158
 30
0.0
 10
-0.6624409448818898
 20
-2.8764370078740158
 30
0.0
 10
-0.6624409448818898
 20
-2.8764370078740158
 30
0.0
 10
-0.6624409448818898
 20
-2.8764370078740158
 30
0.0
 10
-1.3088110236220474
 20
-2.5003503937007876
 30
0.0
 10
-1.3088110236220474
 20
-2.5003503937007876
 30
0.0
 10
-1.3088110236220474
 20
-2.5003503937007876
 30
0.0
 10
-1.3088110236220474
 20
-2.5003503937007876
 30
0.0
 10
-1.3017047244094488
 20
-2.4826929133858266
 30
0.0
 10
-1.3017047244094488
 20
-2.4826929133858266
 30
0.0
 10
-1.3017047244094488
 20
-2.4826929133858266
 30
0.0
 10
-1.3017047244094488
 20
-2.4826929133858266
 30
0.0
 10
-1.2934842519685039
 20
-2.4651496062992129
 30
0.0
 10
-1.2934842519685039
 20
-2.4651496062992129
 30
0.0
  0
SPLINE
  5
B9
100
AcDbEntity
  8
Layer 1
 62
     9
100
AcDbSpline
210
0.0
220
0.0
230
1.0
 70
     1
 71
     3
 72
    28
 73
    24
 74
     0
 42
0.0000000001
 43
0.0000000001
 40
0.0
 40
0.0
 40
0.0
 40
0.0
 40
0.1666666666666667
 40
0.1666666666666667
 40
0.1666666666666667
 40
0.1666666666666667
 40
0.3333333333333333
 40
0.3333333333333333
 40
0.3333333333333333
 40
0.3333333333333333
 40
0.5
 40
0.5
 40
0.5
 40
0.5
 40
0.6666666666666666
 40
0.6666666666666666
 40
0.6666666666666666
 40
0.6666666666666666
 40
0.8333333333333333
 40
0.8333333333333333
 40
0.8333333333333333
 40
0.8333333333333333
 40
1.0
 40
1.0
 40
1.0
 40
1.0
 10
-1.3088110236220474
 20
-2.5003503937007876
 30
0.0
 10
-1.3088110236220474
 20
-2.5003503937007876
 30
0.0
 10
-0.6624409448818898
 20
-2.8764370078740158
 30
0.0
 10
-0.6624409448818898
 20
-2.8764370078740158
 30
0.0
 10
-0.6624409448818898
 20
-2.8764370078740158
 30
0.0
 10
-0.6624409448818898
 20
-2.8764370078740158
 30
0.0
 10
-0.6685314960629921
 20
-2.8941181102362208
 30
0.0
 10
-0.6685314960629921
 20
-2.8941181102362208
 30
0.0
 10
-0.6685314960629921
 20
-2.8941181102362208
 30
0.0
 10
-0.6685314960629921
 20
-2.8941181102362208
 30
0.0
 10
-0.6736653543307087
 20
-2.9117007874015748
 30
0.0
 10
-0.6736653543307087
 20
-2.9117007874015748
 30
0.0
 10
-0.6736653543307087
 20
-2.9117007874015748
 30
0.0
 10
-0.6736653543307087
 20
-2.9117007874015748
 30
0.0
 10
-1.3200354330708661
 20
-2.5356141732283466
 30
0.0
 10
-1.3200354330708661
 20
-2.5356141732283466
 30
0.0
 10
-1.3200354330708661
 20
-2.5356141732283466
 30
0.0
 10
-1.3200354330708661
 20
-2.5356141732283466
 30
0.0
 10
-1.3149015748031496
 20
-2.5180314960629921
 30
0.0
 10
-1.3149015748031496
 20
-2.5180314960629921
 30
0.0
 10
-1.3149015748031496
 20
-2.5180314960629921
 30
0.0
 10
-1.3149015748031496
 20
-2.5180314960629921
 30
0.0
 10
-1.3088110236220474
 20
-2.5003503937007876
 30
0.0
 10
-1.3088110236220474
 20
-2.5003503937007876
 30
0.0
  0
SPLINE
  5
BA
100
AcDbEntity
  8
Layer 1
 62
     9
100
AcDbSpline
210
0.0
220
0.0
230
1.0
 70
     1
 71
     3
 72
    28
 73
    24
 74
     0
 42
0.0000000001
 43
0.0000000001
 40
0.0
 40
0.0
 40
0.0
 40
0.0
 40
0.1666666666666667
 40
0.1666666666666667
 40
0.1666666666666667
 40
0.1666666666666667
 40
0.3333333333333333
 40
0.3333333333333333
 40
0.3333333333333333
 40
0.3333333333333333
 40
0.5
 40
0.5
 40
0.5
 40
0.5
 40
0.6666666666666666
 40
0.6666666666666666
 40
0.6666666666666666
 40
0.6666666666666666
 40
0.8333333333333333
 40
0.8333333333333333
 40
0.8333333333333333
 40
0.8333333333333333
 40
1.0
 40
1.0
 40
1.0
 40
1.0
 10
-1.3200354330708661
 20
-2.5356141732283466
 30
0.0
 10
-1.3200354330708661
 20
-2.5356141732283466
 30
0.0
 10
-0.6736653543307087
 20
-2.9117007874015748
 30
0.0
 10
-0.6736653543307087
 20
-2.9117007874015748
 30
0.0
 10
-0.6736653543307087
 20
-2.9117007874015748
 30
0.0
 10
-0.6736653543307087
 20
-2.9117007874015748
 30
0.0
 10
-0.6779291338582677
 20
-2.9290787401574803
 30
0.0
 10
-0.6779291338582677
 20
-2.9290787401574803
 30
0.0
 10
-0.6779291338582677
 20
-2.9290787401574803
 30
0.0
 10
-0.6779291338582677
 20
-2.9290787401574803
 30
0.0
 10
-0.6813897637795275
 20
-2.9461299212598426
 30
0.0
 10
-0.6813897637795275
 20
-2.9461299212598426
 30
0.0
 10
-0.6813897637795275
 20
-2.9461299212598426
 30
0.0
 10
-0.6813897637795275
 20
-2.9461299212598426
 30
0.0
 10
-1.327759842519685
 20
-2.5700433070866144
 30
0.0
 10
-1.327759842519685
 20
-2.5700433070866144
 30
0.0
 10
-1.327759842519685
 20
-2.5700433070866144
 30
0.0
 10
-1.327759842519685
 20
-2.5700433070866144
 30
0.0
 10
-1.3242992125984252
 20
-2.5529921259842521
 30
0.0
 10
-1.3242992125984252
 20
-2.5529921259842521
 30
0.0
 10
-1.3242992125984252
 20
-2.5529921259842521
 30
0.0
 10
-1.3242992125984252
 20
-2.5529921259842521
 30
0.0
 10
-1.3200354330708661
 20
-2.5356141732283466
 30
0.0
 10
-1.3200354330708661
 20
-2.5356141732283466
 30
0.0
  0
SPLINE
  5
BB
100
AcDbEntity
  8
Layer 1
 62
     9
100
AcDbSpline
210
0.0
220
0.0
230
1.0
 70
     1
 71
     3
 72
    36
 73
    32
 74
     0
 42
0.0000000001
 43
0.0000000001
 40
0.0
 40
0.0
 40
0.0
 40
0.0
 40
0.125
 40
0.125
 40
0.125
 40
0.125
 40
0.25
 40
0.25
 40
0.25
 40
0.25
 40
0.375
 40
0.375
 40
0.375
 40
0.375
 40
0.5
 40
0.5
 40
0.5
 40
0.5
 40
0.625
 40
0.625
 40
0.625
 40
0.625
 40
0.75
 40
0.75
 40
0.75
 40
0.75
 40
0.875
 40
0.875
 40
0.875
 40
0.875
 40
1.0
 40
1.0
 40
1.0
 40
1.0
 10
-1.327759842519685
 20
-2.5700433070866144
 30
0.0
 10
-1.327759842519685
 20
-2.5700433070866144
 30
0.0
 10
-0.6813897637795275
 20
-2.9461299212598426
 30
0.0
 10
-0.6813897637795275
 20
-2.9461299212598426
 30
0.0
 10
-0.6813897637795275
 20
-2.9461299212598426
 30
0.0
 10
-0.6813897637795275
 20
-2.9461299212598426
 30
0.0
 10
-0.6841417322834646
 20
-2.962751968503937
 30
0.0
 10
-0.6841417322834646
 20
-2.962751968503937
 30
0.0
 10
-0.6841417322834646
 20
-2.962751968503937
 30
0.0
 10
-0.6841417322834646
 20
-2.962751968503937
 30
0.0
 10
-0.686244094488189
 20
-2.9788307086614174
 30
0.0
 10
-0.686244094488189
 20
-2.9788307086614174
 30
0.0
 10
-0.686244094488189
 20
-2.9788307086614174
 30
0.0
 10
-0.686244094488189
 20
-2.9788307086614174
 30
0.0
 10
-0.6877874015748032
 20
-2.9942559055118112
 30
0.0
 10
-0.6877874015748032
 20
-2.9942559055118112
 30
0.0
 10
-0.6877874015748032
 20
-2.9942559055118112
 30
0.0
 10
-0.6877874015748032
 20
-2.9942559055118112
 30
0.0
 10
-1.3341574803149607
 20
-2.6181692913385826
 30
0.0
 10
-1.3341574803149607
 20
-2.6181692913385826
 30
0.0
 10
-1.3341574803149607
 20
-2.6181692913385826
 30
0.0
 10
-1.3341574803149607
 20
-2.6181692913385826
 30
0.0
 10
-1.3326141732283465
 20
-2.6027440944881892
 30
0.0
 10
-1.3326141732283465
 20
-2.6027440944881892
 30
0.0
 10
-1.3326141732283465
 20
-2.6027440944881892
 30
0.0
 10
-1.3326141732283465
 20
-2.6027440944881892
 30
0.0
 10
-1.330511811023622
 20
-2.5866653543307088
 30
0.0
 10
-1.330511811023622
 20
-2.5866653543307088
 30
0.0
 10
-1.330511811023622
 20
-2.5866653543307088
 30
0.0
 10
-1.330511811023622
 20
-2.5866653543307088
 30
0.0
 10
-1.327759842519685
 20
-2.5700433070866144
 30
0.0
 10
-1.327759842519685
 20
-2.5700433070866144
 30
0.0
  0
SPLINE
  5
BC
100
AcDbEntity
  8
Layer 1
 62
     9
100
AcDbSpline
210
0.0
220
0.0
230
1.0
 70
     1
 71
     3
 72
    36
 73
    32
 74
     0
 42
0.0000000001
 43
0.0000000001
 40
0.0
 40
0.0
 40
0.0
 40
0.0
 40
0.125
 40
0.125
 40
0.125
 40
0.125
 40
0.25
 40
0.25
 40
0.25
 40
0.25
 40
0.375
 40
0.375
 40
0.375
 40
0.375
 40
0.5
 40
0.5
 40
0.5
 40
0.5
 40
0.625
 40
0.625
 40
0.625
 40
0.625
 40
0.75
 40
0.75
 40
0.75
 40
0.75
 40
0.875
 40
0.875
 40
0.875
 40
0.875
 40
1.0
 40
1.0
 40
1.0
 40
1.0
 10
-1.3341574803149607
 20
-2.6181692913385826
 30
0.0
 10
-1.3341574803149607
 20
-2.6181692913385826
 30
0.0
 10
-0.6877874015748032
 20
-2.9942559055118112
 30
0.0
 10
-0.6877874015748032
 20
-2.9942559055118112
 30
0.0
 10
-0.6877874015748032
 20
-2.9942559055118112
 30
0.0
 10
-0.6877874015748032
 20
-2.9942559055118112
 30
0.0
 10
-0.6888346456692913
 20
-3.0089015748031498
 30
0.0
 10
-0.6888346456692913
 20
-3.0089015748031498
 30
0.0
 10
-0.6888346456692913
 20
-3.0089015748031498
 30
0.0
 10
-0.6888346456692913
 20
-3.0089015748031498
 30
0.0
 10
-0.6894724409448819
 20
-3.022677165354331
 30
0.0
 10
-0.6894724409448819
 20
-3.022677165354331
 30
0.0
 10
-0.6894724409448819
 20
-3.022677165354331
 30
0.0
 10
-0.6894724409448819
 20
-3.022677165354331
 30
0.0
 10
-0.6897755905511811
 20
-3.0354527559055118
 30
0.0
 10
-0.6897755905511811
 20
-3.0354527559055118
 30
0.0
 10
-0.6897755905511811
 20
-3.0354527559055118
 30
0.0
 10
-0.6897755905511811
 20
-3.0354527559055118
 30
0.0
 10
-1.3361456692913387
 20
-2.6593661417322836
 30
0.0
 10
-1.3361456692913387
 20
-2.6593661417322836
 30
0.0
 10
-1.3361456692913387
 20
-2.6593661417322836
 30
0.0
 10
-1.3361456692913387
 20
-2.6593661417322836
 30
0.0
 10
-1.3358425196850394
 20
-2.6465905511811023
 30
0.0
 10
-1.3358425196850394
 20
-2.6465905511811023
 30
0.0
 10
-1.3358425196850394
 20
-2.6465905511811023
 30
0.0
 10
-1.3358425196850394
 20
-2.6465905511811023
 30
0.0
 10
-1.3352047244094489
 20
-2.6328149606299212
 30
0.0
 10
-1.3352047244094489
 20
-2.6328149606299212
 30
0.0
 10
-1.3352047244094489
 20
-2.6328149606299212
 30
0.0
 10
-1.3352047244094489
 20
-2.6328149606299212
 30
0.0
 10
-1.3341574803149607
 20
-2.6181692913385826
 30
0.0
 10
-1.3341574803149607
 20
-2.6181692913385826
 30
0.0
  0
SPLINE
  5
BD
100
AcDbEntity
  8
Layer 1
 62
     9
100
AcDbSpline
210
0.0
220
0.0
230
1.0
 70
     1
 71
     3
 72
    52
 73
    48
 74
     0
 42
0.0000000001
 43
0.0000000001
 40
0.0
 40
0.0
 40
0.0
 40
0.0
 40
0.0833333333333333
 40
0.0833333333333333
 40
0.0833333333333333
 40
0.0833333333333333
 40
0.1666666666666667
 40
0.1666666666666667
 40
0.1666666666666667
 40
0.1666666666666667
 40
0.25
 40
0.25
 40
0.25
 40
0.25
 40
0.3333333333333333
 40
0.3333333333333333
 40
0.3333333333333333
 40
0.3333333333333333
 40
0.4166666666666666
 40
0.4166666666666666
 40
0.4166666666666666
 40
0.4166666666666666
 40
0.4999999999999999
 40
0.4999999999999999
 40
0.4999999999999999
 40
0.4999999999999999
 40
0.5833333333333333
 40
0.5833333333333333
 40
0.5833333333333333
 40
0.5833333333333333
 40
0.6666666666666666
 40
0.6666666666666666
 40
0.6666666666666666
 40
0.6666666666666666
 40
0.75
 40
0.75
 40
0.75
 40
0.75
 40
0.8333333333333334
 40
0.8333333333333334
 40
0.8333333333333334
 40
0.8333333333333334
 40
0.9166666666666667
 40
0.9166666666666667
 40
0.9166666666666667
 40
0.9166666666666667
 40
1.0
 40
1.0
 40
1.0
 40
1.0
 10
-1.3361456692913387
 20
-2.6593661417322836
 30
0.0
 10
-1.3361456692913387
 20
-2.6593661417322836
 30
0.0
 10
-0.6897755905511811
 20
-3.0354527559055118
 30
0.0
 10
-0.6897755905511811
 20
-3.0354527559055118
 30
0.0
 10
-0.6897755905511811
 20
-3.0354527559055118
 30
0.0
 10
-0.6897755905511811
 20
-3.0354527559055118
 30
0.0
 10
-0.6898228346456693
 20
-3.0471299212598426
 30
0.0
 10
-0.6898228346456693
 20
-3.0471299212598426
 30
0.0
 10
-0.6898228346456693
 20
-3.0471299212598426
 30
0.0
 10
-0.6898228346456693
 20
-3.0471299212598426
 30
0.0
 10
-0.6896811023622047
 20
-3.0575826771653545
 30
0.0
 10
-0.6896811023622047
 20
-3.0575826771653545
 30
0.0
 10
-0.6896811023622047
 20
-3.0575826771653545
 30
0.0
 10
-0.6896811023622047
 20
-3.0575826771653545
 30
0.0
 10
-0.6894448818897638
 20
-3.0667086614173229
 30
0.0
 10
-0.6894448818897638
 20
-3.0667086614173229
 30
0.0
 10
-0.6894448818897638
 20
-3.0667086614173229
 30
0.0
 10
-0.6894448818897638
 20
-3.0667086614173229
 30
0.0
 10
-0.6891771653543307
 20
-3.0743937007874016
 30
0.0
 10
-0.6891771653543307
 20
-3.0743937007874016
 30
0.0
 10
-0.6891771653543307
 20
-3.0743937007874016
 30
0.0
 10
-0.6891771653543307
 20
-3.0743937007874016
 30
0.0
 10
-0.6889645669291339
 20
-3.0805314960629921
 30
0.0
 10
-0.6889645669291339
 20
-3.0805314960629921
 30
0.0
 10
-0.6889645669291339
 20
-3.0805314960629921
 30
0.0
 10
-0.6889645669291339
 20
-3.0805314960629921
 30
0.0
 10
-1.3353346456692914
 20
-2.704444881889764
 30
0.0
 10
-1.3353346456692914
 20
-2.704444881889764
 30
0.0
 10
-1.3353346456692914
 20
-2.704444881889764
 30
0.0
 10
-1.3353346456692914
 20
-2.704444881889764
 30
0.0
 10
-1.3355472440944882
 20
-2.6983070866141734
 30
0.0
 10
-1.3355472440944882
 20
-2.6983070866141734
 30
0.0
 10
-1.3355472440944882
 20
-2.6983070866141734
 30
0.0
 10
-1.3355472440944882
 20
-2.6983070866141734
 30
0.0
 10
-1.3358149606299212
 20
-2.6906220472440947
 30
0.0
 10
-1.3358149606299212
 20
-2.6906220472440947
 30
0.0
 10
-1.3358149606299212
 20
-2.6906220472440947
 30
0.0
 10
-1.3358149606299212
 20
-2.6906220472440947
 30
0.0
 10
-1.3360511811023623
 20
-2.6814960629921263
 30
0.0
 10
-1.3360511811023623
 20
-2.6814960629921263
 30
0.0
 10
-1.3360511811023623
 20
-2.6814960629921263
 30
0.0
 10
-1.3360511811023623
 20
-2.6814960629921263
 30
0.0
 10
-1.3361929133858268
 20
-2.6710433070866144
 30
0.0
 10
-1.3361929133858268
 20
-2.6710433070866144
 30
0.0
 10
-1.3361929133858268
 20
-2.6710433070866144
 30
0.0
 10
-1.3361929133858268
 20
-2.6710433070866144
 30
0.0
 10
-1.3361456692913387
 20
-2.6593661417322836
 30
0.0
 10
-1.3361456692913387
 20
-2.6593661417322836
 30
0.0
  0
SPLINE
  5
BE
100
AcDbEntity
  8
Layer 1
370
     5
100
AcDbSpline
210
0.0
220
0.0
230
1.0
 70
     1
 71
     3
 72
   268
 73
   264
 74
     0
 42
0.0000000001
 43
0.0000000001
 40
0.0
 40
0.0
 40
0.0
 40
0.0
 40
0.0151515151515152
 40
0.0151515151515152
 40
0.0151515151515152
 40
0.0151515151515152
 40
0.0303030303030303
 40
0.0303030303030303
 40
0.0303030303030303
 40
0.0303030303030303
 40
0.0454545454545455
 40
0.0454545454545455
 40
0.0454545454545455
 40
0.0454545454545455
 40
0.0606060606060606
 40
0.0606060606060606
 40
0.0606060606060606
 40
0.0606060606060606
 40
0.0757575757575758
 40
0.0757575757575758
 40
0.0757575757575758
 40
0.0757575757575758
 40
0.0909090909090909
 40
0.0909090909090909
 40
0.0909090909090909
 40
0.0909090909090909
 40
0.1060606060606061
 40
0.1060606060606061
 40
0.1060606060606061
 40
0.1060606060606061
 40
0.1212121212121212
 40
0.1212121212121212
 40
0.1212121212121212
 40
0.1212121212121212
 40
0.1363636363636364
 40
0.1363636363636364
 40
0.1363636363636364
 40
0.1363636363636364
 40
0.1515151515151515
 40
0.1515151515151515
 40
0.1515151515151515
 40
0.1515151515151515
 40
0.1666666666666666
 40
0.1666666666666666
 40
0.1666666666666666
 40
0.1666666666666666
 40
0.1818181818181818
 40
0.1818181818181818
 40
0.1818181818181818
 40
0.1818181818181818
 40
0.1969696969696969
 40
0.1969696969696969
 40
0.1969696969696969
 40
0.1969696969696969
 40
0.212121212121212
 40
0.212121212121212
 40
0.212121212121212
 40
0.212121212121212
 40
0.2272727272727272
 40
0.2272727272727272
 40
0.2272727272727272
 40
0.2272727272727272
 40
0.2424242424242423
 40
0.2424242424242423
 40
0.2424242424242423
 40
0.2424242424242423
 40
0.2575757575757575
 40
0.2575757575757575
 40
0.2575757575757575
 40
0.2575757575757575
 40
0.2727272727272726
 40
0.2727272727272726
 40
0.2727272727272726
 40
0.2727272727272726
 40
0.2878787878787877
 40
0.2878787878787877
 40
0.2878787878787877
 40
0.2878787878787877
 40
0.3030303030303029
 40
0.3030303030303029
 40
0.3030303030303029
 40
0.3030303030303029
 40
0.318181818181818
 40
0.318181818181818
 40
0.318181818181818
 40
0.318181818181818
 40
0.3333333333333332
 40
0.3333333333333332
 40
0.3333333333333332
 40
0.3333333333333332
 40
0.3484848484848483
 40
0.3484848484848483
 40
0.3484848484848483
 40
0.3484848484848483
 40
0.3636363636363634
 40
0.3636363636363634
 40
0.3636363636363634
 40
0.3636363636363634
 40
0.3787878787878786
 40
0.3787878787878786
 40
0.3787878787878786
 40
0.3787878787878786
 40
0.3939393939393937
 40
0.3939393939393937
 40
0.3939393939393937
 40
0.3939393939393937
 40
0.4090909090909088
 40
0.4090909090909088
 40
0.4090909090909088
 40
0.4090909090909088
 40
0.424242424242424
 40
0.424242424242424
 40
0.424242424242424
 40
0.424242424242424
 40
0.4393939393939391
 40
0.4393939393939391
 40
0.4393939393939391
 40
0.4393939393939391
 40
0.4545454545454543
 40
0.4545454545454543
 40
0.4545454545454543
 40
0.4545454545454543
 40
0.4696969696969694
 40
0.4696969696969694
 40
0.4696969696969694
 40
0.4696969696969694
 40
0.4848484848484845
 40
0.4848484848484845
 40
0.4848484848484845
 40
0.4848484848484845
 40
0.4999999999999997
 40
0.4999999999999997
 40
0.4999999999999997
 40
0.4999999999999997
 40
0.5151515151515148
 40
0.5151515151515148
 40
0.5151515151515148
 40
0.5151515151515148
 40
0.5303030303030299
 40
0.5303030303030299
 40
0.5303030303030299
 40
0.5303030303030299
 40
0.5454545454545451
 40
0.5454545454545451
 40
0.5454545454545451
 40
0.5454545454545451
 40
0.5606060606060602
 40
0.5606060606060602
 40
0.5606060606060602
 40
0.5606060606060602
 40
0.5757575757575754
 40
0.5757575757575754
 40
0.5757575757575754
 40
0.5757575757575754
 40
0.5909090909090905
 40
0.5909090909090905
 40
0.5909090909090905
 40
0.5909090909090905
 40
0.6060606060606056
 40
0.6060606060606056
 40
0.6060606060606056
 40
0.6060606060606056
 40
0.6212121212121208
 40
0.6212121212121208
 40
0.6212121212121208
 40
0.6212121212121208
 40
0.6363636363636359
 40
0.6363636363636359
 40
0.6363636363636359
 40
0.6363636363636359
 40
0.6515151515151511
 40
0.6515151515151511
 40
0.6515151515151511
 40
0.6515151515151511
 40
0.6666666666666662
 40
0.6666666666666662
 40
0.6666666666666662
 40
0.6666666666666662
 40
0.6818181818181813
 40
0.6818181818181813
 40
0.6818181818181813
 40
0.6818181818181813
 40
0.6969696969696965
 40
0.6969696969696965
 40
0.6969696969696965
 40
0.6969696969696965
 40
0.7121212121212116
 40
0.7121212121212116
 40
0.7121212121212116
 40
0.7121212121212116
 40
0.7272727272727267
 40
0.7272727272727267
 40
0.7272727272727267
 40
0.7272727272727267
 40
0.7424242424242419
 40
0.7424242424242419
 40
0.7424242424242419
 40
0.7424242424242419
 40
0.757575757575757
 40
0.757575757575757
 40
0.757575757575757
 40
0.757575757575757
 40
0.7727272727272722
 40
0.7727272727272722
 40
0.7727272727272722
 40
0.7727272727272722
 40
0.7878787878787873
 40
0.7878787878787873
 40
0.7878787878787873
 40
0.7878787878787873
 40
0.8030303030303024
 40
0.8030303030303024
 40
0.8030303030303024
 40
0.8030303030303024
 40
0.8181818181818176
 40
0.8181818181818176
 40
0.8181818181818176
 40
0.8181818181818176
 40
0.8333333333333327
 40
0.8333333333333327
 40
0.8333333333333327
 40
0.8333333333333327
 40
0.8484848484848478
 40
0.8484848484848478
 40
0.8484848484848478
 40
0.8484848484848478
 40
0.863636363636363
 40
0.863636363636363
 40
0.863636363636363
 40
0.863636363636363
 40
0.8787878787878781
 40
0.8787878787878781
 40
0.8787878787878781
 40
0.8787878787878781
 40
0.8939393939393933
 40
0.8939393939393933
 40
0.8939393939393933
 40
0.8939393939393933
 40
0.9090909090909084
 40
0.9090909090909084
 40
0.9090909090909084
 40
0.9090909090909084
 40
0.9242424242424235
 40
0.9242424242424235
 40
0.9242424242424235
 40
0.9242424242424235
 40
0.9393939393939387
 40
0.9393939393939387
 40
0.9393939393939387
 40
0.9393939393939387
 40
0.9545454545454538
 40
0.9545454545454538
 40
0.9545454545454538
 40
0.9545454545454538
 40
0.969696969696969
 40
0.969696969696969
 40
0.969696969696969
 40
0.969696969696969
 40
0.9848484848484841
 40
0.9848484848484841
 40
0.9848484848484841
 40
0.9848484848484841
 40
1.0
 40
1.0
 40
1.0
 40
1.0
 10
-0.9854330708661417
 20
-2.2936417322834646
 30
0.0
 10
-0.9854330708661417
 20
-2.2936417322834646
 30
0.0
 10
-0.3390629921259843
 20
-2.6697283464566932
 30
0.0
 10
-0.3390629921259843
 20
-2.6697283464566932
 30
0.0
 10
-0.3390629921259843
 20
-2.6697283464566932
 30
0.0
 10
-0.3390629921259843
 20
-2.6697283464566932
 30
0.0
 10
-0.3730669291338583
 20
-2.6718937007874017
 30
0.0
 10
-0.3730669291338583
 20
-2.6718937007874017
 30
0.0
 10
-0.3730669291338583
 20
-2.6718937007874017
 30
0.0
 10
-0.3730669291338583
 20
-2.6718937007874017
 30
0.0
 10
-0.4048149606299213
 20
-2.6758779527559056
 30
0.0
 10
-0.4048149606299213
 20
-2.6758779527559056
 30
0.0
 10
-0.4048149606299213
 20
-2.6758779527559056
 30
0.0
 10
-0.4048149606299213
 20
-2.6758779527559056
 30
0.0
 10
-0.4343818897637796
 20
-2.6815511811023622
 30
0.0
 10
-0.4343818897637796
 20
-2.6815511811023622
 30
0.0
 10
-0.4343818897637796
 20
-2.6815511811023622
 30
0.0
 10
-0.4343818897637796
 20
-2.6815511811023622
 30
0.0
 10
-0.4618543307086614
 20
-2.6888188976377956
 30
0.0
 10
-0.4618543307086614
 20
-2.6888188976377956
 30
0.0
 10
-0.4618543307086614
 20
-2.6888188976377956
 30
0.0
 10
-0.4618543307086614
 20
-2.6888188976377956
 30
0.0
 10
-0.4872874015748032
 20
-2.6975472440944883
 30
0.0
 10
-0.4872874015748032
 20
-2.6975472440944883
 30
0.0
 10
-0.4872874015748032
 20
-2.6975472440944883
 30
0.0
 10
-0.4872874015748032
 20
-2.6975472440944883
 30
0.0
 10
-0.5107755905511812
 20
-2.7076456692913387
 30
0.0
 10
-0.5107755905511812
 20
-2.7076456692913387
 30
0.0
 10
-0.5107755905511812
 20
-2.7076456692913387
 30
0.0
 10
-0.5107755905511812
 20
-2.7076456692913387
 30
0.0
 10
-0.5323897637795276
 20
-2.7189881889763781
 30
0.0
 10
-0.5323897637795276
 20
-2.7189881889763781
 30
0.0
 10
-0.5323897637795276
 20
-2.7189881889763781
 30
0.0
 10
-0.5323897637795276
 20
-2.7189881889763781
 30
0.0
 10
-0.5522165354330709
 20
-2.731476377952756
 30
0.0
 10
-0.5522165354330709
 20
-2.731476377952756
 30
0.0
 10
-0.5522165354330709
 20
-2.731476377952756
 30
0.0
 10
-0.5522165354330709
 20
-2.731476377952756
 30
0.0
 10
-0.5703110236220472
 20
-2.7449763779527561
 30
0.0
 10
-0.5703110236220472
 20
-2.7449763779527561
 30
0.0
 10
-0.5703110236220472
 20
-2.7449763779527561
 30
0.0
 10
-0.5703110236220472
 20
-2.7449763779527561
 30
0.0
 10
-0.5867716535433071
 20
-2.7593937007874016
 30
0.0
 10
-0.5867716535433071
 20
-2.7593937007874016
 30
0.0
 10
-0.5867716535433071
 20
-2.7593937007874016
 30
0.0
 10
-0.5867716535433071
 20
-2.7593937007874016
 30
0.0
 10
-0.6016614173228346
 20
-2.7746102362204725
 30
0.0
 10
-0.6016614173228346
 20
-2.7746102362204725
 30
0.0
 10
-0.6016614173228346
 20
-2.7746102362204725
 30
0.0
 10
-0.6016614173228346
 20
-2.7746102362204725
 30
0.0
 10
-0.6150669291338583
 20
-2.7905157480314964
 30
0.0
 10
-0.6150669291338583
 20
-2.7905157480314964
 30
0.0
 10
-0.6150669291338583
 20
-2.7905157480314964
 30
0.0
 10
-0.6150669291338583
 20
-2.7905157480314964
 30
0.0
 10
-0.6270551181102363
 20
-2.8069921259842521
 30
0.0
 10
-0.6270551181102363
 20
-2.8069921259842521
 30
0.0
 10
-0.6270551181102363
 20
-2.8069921259842521
 30
0.0
 10
-0.6270551181102363
 20
-2.8069921259842521
 30
0.0
 10
-0.6377165354330709
 20
-2.82394094488189
 30
0.0
 10
-0.6377165354330709
 20
-2.82394094488189
 30
0.0
 10
-0.6377165354330709
 20
-2.82394094488189
 30
0.0
 10
-0.6377165354330709
 20
-2.82394094488189
 30
0.0
 10
-0.6471141732283465
 20
-2.8412362204724411
 30
0.0
 10
-0.6471141732283465
 20
-2.8412362204724411
 30
0.0
 10
-0.6471141732283465
 20
-2.8412362204724411
 30
0.0
 10
-0.6471141732283465
 20
-2.8412362204724411
 30
0.0
 10
-0.6553346456692913
 20
-2.8587795275590553
 30
0.0
 10
-0.6553346456692913
 20
-2.8587795275590553
 30
0.0
 10
-0.6553346456692913
 20
-2.8587795275590553
 30
0.0
 10
-0.6553346456692913
 20
-2.8587795275590553
 30
0.0
 10
-0.6624409448818898
 20
-2.8764370078740158
 30
0.0
 10
-0.6624409448818898
 20
-2.8764370078740158
 30
0.0
 10
-0.6624409448818898
 20
-2.8764370078740158
 30
0.0
 10
-0.6624409448818898
 20
-2.8764370078740158
 30
0.0
 10
-0.6685314960629921
 20
-2.8941181102362208
 30
0.0
 10
-0.6685314960629921
 20
-2.8941181102362208
 30
0.0
 10
-0.6685314960629921
 20
-2.8941181102362208
 30
0.0
 10
-0.6685314960629921
 20
-2.8941181102362208
 30
0.0
 10
-0.6736653543307087
 20
-2.9117007874015748
 30
0.0
 10
-0.6736653543307087
 20
-2.9117007874015748
 30
0.0
 10
-0.6736653543307087
 20
-2.9117007874015748
 30
0.0
 10
-0.6736653543307087
 20
-2.9117007874015748
 30
0.0
 10
-0.6779291338582677
 20
-2.9290787401574803
 30
0.0
 10
-0.6779291338582677
 20
-2.9290787401574803
 30
0.0
 10
-0.6779291338582677
 20
-2.9290787401574803
 30
0.0
 10
-0.6779291338582677
 20
-2.9290787401574803
 30
0.0
 10
-0.6813897637795275
 20
-2.9461299212598426
 30
0.0
 10
-0.6813897637795275
 20
-2.9461299212598426
 30
0.0
 10
-0.6813897637795275
 20
-2.9461299212598426
 30
0.0
 10
-0.6813897637795275
 20
-2.9461299212598426
 30
0.0
 10
-0.6841417322834646
 20
-2.962751968503937
 30
0.0
 10
-0.6841417322834646
 20
-2.962751968503937
 30
0.0
 10
-0.6841417322834646
 20
-2.962751968503937
 30
0.0
 10
-0.6841417322834646
 20
-2.962751968503937
 30
0.0
 10
-0.686244094488189
 20
-2.9788307086614174
 30
0.0
 10
-0.686244094488189
 20
-2.9788307086614174
 30
0.0
 10
-0.686244094488189
 20
-2.9788307086614174
 30
0.0
 10
-0.686244094488189
 20
-2.9788307086614174
 30
0.0
 10
-0.6877874015748032
 20
-2.9942559055118112
 30
0.0
 10
-0.6877874015748032
 20
-2.9942559055118112
 30
0.0
 10
-0.6877874015748032
 20
-2.9942559055118112
 30
0.0
 10
-0.6877874015748032
 20
-2.9942559055118112
 30
0.0
 10
-0.6888346456692913
 20
-3.0089015748031498
 30
0.0
 10
-0.6888346456692913
 20
-3.0089015748031498
 30
0.0
 10
-0.6888346456692913
 20
-3.0089015748031498
 30
0.0
 10
-0.6888346456692913
 20
-3.0089015748031498
 30
0.0
 10
-0.6894724409448819
 20
-3.022677165354331
 30
0.0
 10
-0.6894724409448819
 20
-3.022677165354331
 30
0.0
 10
-0.6894724409448819
 20
-3.022677165354331
 30
0.0
 10
-0.6894724409448819
 20
-3.022677165354331
 30
0.0
 10
-0.6897755905511811
 20
-3.0354527559055118
 30
0.0
 10
-0.6897755905511811
 20
-3.0354527559055118
 30
0.0
 10
-0.6897755905511811
 20
-3.0354527559055118
 30
0.0
 10
-0.6897755905511811
 20
-3.0354527559055118
 30
0.0
 10
-0.6898228346456693
 20
-3.0471299212598426
 30
0.0
 10
-0.6898228346456693
 20
-3.0471299212598426
 30
0.0
 10
-0.6898228346456693
 20
-3.0471299212598426
 30
0.0
 10
-0.6898228346456693
 20
-3.0471299212598426
 30
0.0
 10
-0.6896811023622047
 20
-3.0575826771653545
 30
0.0
 10
-0.6896811023622047
 20
-3.0575826771653545
 30
0.0
 10
-0.6896811023622047
 20
-3.0575826771653545
 30
0.0
 10
-0.6896811023622047
 20
-3.0575826771653545
 30
0.0
 10
-0.6894448818897638
 20
-3.0667086614173229
 30
0.0
 10
-0.6894448818897638
 20
-3.0667086614173229
 30
0.0
 10
-0.6894448818897638
 20
-3.0667086614173229
 30
0.0
 10
-0.6894448818897638
 20
-3.0667086614173229
 30
0.0
 10
-0.6891771653543307
 20
-3.0743937007874016
 30
0.0
 10
-0.6891771653543307
 20
-3.0743937007874016
 30
0.0
 10
-0.6891771653543307
 20
-3.0743937007874016
 30
0.0
 10
-0.6891771653543307
 20
-3.0743937007874016
 30
0.0
 10
-0.6889645669291339
 20
-3.0805314960629921
 30
0.0
 10
-0.6889645669291339
 20
-3.0805314960629921
 30
0.0
 10
-0.6889645669291339
 20
-3.0805314960629921
 30
0.0
 10
-0.6889645669291339
 20
-3.0805314960629921
 30
0.0
 10
-1.3353346456692914
 20
-2.704444881889764
 30
0.0
 10
-1.3353346456692914
 20
-2.704444881889764
 30
0.0
 10
-1.3353346456692914
 20
-2.704444881889764
 30
0.0
 10
-1.3353346456692914
 20
-2.704444881889764
 30
0.0
 10
-1.3355472440944882
 20
-2.6983070866141734
 30
0.0
 10
-1.3355472440944882
 20
-2.6983070866141734
 30
0.0
 10
-1.3355472440944882
 20
-2.6983070866141734
 30
0.0
 10
-1.3355472440944882
 20
-2.6983070866141734
 30
0.0
 10
-1.3358149606299212
 20
-2.6906220472440947
 30
0.0
 10
-1.3358149606299212
 20
-2.6906220472440947
 30
0.0
 10
-1.3358149606299212
 20
-2.6906220472440947
 30
0.0
 10
-1.3358149606299212
 20
-2.6906220472440947
 30
0.0
 10
-1.3360511811023623
 20
-2.6814960629921263
 30
0.0
 10
-1.3360511811023623
 20
-2.6814960629921263
 30
0.0
 10
-1.3360511811023623
 20
-2.6814960629921263
 30
0.0
 10
-1.3360511811023623
 20
-2.6814960629921263
 30
0.0
 10
-1.3361929133858268
 20
-2.6710433070866144
 30
0.0
 10
-1.3361929133858268
 20
-2.6710433070866144
 30
0.0
 10
-1.3361929133858268
 20
-2.6710433070866144
 30
0.0
 10
-1.3361929133858268
 20
-2.6710433070866144
 30
0.0
 10
-1.3361456692913387
 20
-2.6593661417322836
 30
0.0
 10
-1.3361456692913387
 20
-2.6593661417322836
 30
0.0
 10
-1.3361456692913387
 20
-2.6593661417322836
 30
0.0
 10
-1.3361456692913387
 20
-2.6593661417322836
 30
0.0
 10
-1.3358425196850394
 20
-2.6465905511811023
 30
0.0
 10
-1.3358425196850394
 20
-2.6465905511811023
 30
0.0
 10
-1.3358425196850394
 20
-2.6465905511811023
 30
0.0
 10
-1.3358425196850394
 20
-2.6465905511811023
 30
0.0
 10
-1.3352047244094489
 20
-2.6328149606299212
 30
0.0
 10
-1.3352047244094489
 20
-2.6328149606299212
 30
0.0
 10
-1.3352047244094489
 20
-2.6328149606299212
 30
0.0
 10
-1.3352047244094489
 20
-2.6328149606299212
 30
0.0
 10
-1.3341574803149607
 20
-2.6181692913385826
 30
0.0
 10
-1.3341574803149607
 20
-2.6181692913385826
 30
0.0
 10
-1.3341574803149607
 20
-2.6181692913385826
 30
0.0
 10
-1.3341574803149607
 20
-2.6181692913385826
 30
0.0
 10
-1.3326141732283465
 20
-2.6027440944881892
 30
0.0
 10
-1.3326141732283465
 20
-2.6027440944881892
 30
0.0
 10
-1.3326141732283465
 20
-2.6027440944881892
 30
0.0
 10
-1.3326141732283465
 20
-2.6027440944881892
 30
0.0
 10
-1.330511811023622
 20
-2.5866653543307088
 30
0.0
 10
-1.330511811023622
 20
-2.5866653543307088
 30
0.0
 10
-1.330511811023622
 20
-2.5866653543307088
 30
0.0
 10
-1.330511811023622
 20
-2.5866653543307088
 30
0.0
 10
-1.327759842519685
 20
-2.5700433070866144
 30
0.0
 10
-1.327759842519685
 20
-2.5700433070866144
 30
0.0
 10
-1.327759842519685
 20
-2.5700433070866144
 30
0.0
 10
-1.327759842519685
 20
-2.5700433070866144
 30
0.0
 10
-1.3242992125984252
 20
-2.5529921259842521
 30
0.0
 10
-1.3242992125984252
 20
-2.5529921259842521
 30
0.0
 10
-1.3242992125984252
 20
-2.5529921259842521
 30
0.0
 10
-1.3242992125984252
 20
-2.5529921259842521
 30
0.0
 10
-1.3200354330708661
 20
-2.5356141732283466
 30
0.0
 10
-1.3200354330708661
 20
-2.5356141732283466
 30
0.0
 10
-1.3200354330708661
 20
-2.5356141732283466
 30
0.0
 10
-1.3200354330708661
 20
-2.5356141732283466
 30
0.0
 10
-1.3149015748031496
 20
-2.5180314960629921
 30
0.0
 10
-1.3149015748031496
 20
-2.5180314960629921
 30
0.0
 10
-1.3149015748031496
 20
-2.5180314960629921
 30
0.0
 10
-1.3149015748031496
 20
-2.5180314960629921
 30
0.0
 10
-1.3088110236220474
 20
-2.5003503937007876
 30
0.0
 10
-1.3088110236220474
 20
-2.5003503937007876
 30
0.0
 10
-1.3088110236220474
 20
-2.5003503937007876
 30
0.0
 10
-1.3088110236220474
 20
-2.5003503937007876
 30
0.0
 10
-1.3017047244094488
 20
-2.4826929133858266
 30
0.0
 10
-1.3017047244094488
 20
-2.4826929133858266
 30
0.0
 10
-1.3017047244094488
 20
-2.4826929133858266
 30
0.0
 10
-1.3017047244094488
 20
-2.4826929133858266
 30
0.0
 10
-1.2934842519685039
 20
-2.4651496062992129
 30
0.0
 10
-1.2934842519685039
 20
-2.4651496062992129
 30
0.0
 10
-1.2934842519685039
 20
-2.4651496062992129
 30
0.0
 10
-1.2934842519685039
 20
-2.4651496062992129
 30
0.0
 10
-1.2840866141732283
 20
-2.4478543307086613
 30
0.0
 10
-1.2840866141732283
 20
-2.4478543307086613
 30
0.0
 10
-1.2840866141732283
 20
-2.4478543307086613
 30
0.0
 10
-1.2840866141732283
 20
-2.4478543307086613
 30
0.0
 10
-1.2734251968503938
 20
-2.4309055118110239
 30
0.0
 10
-1.2734251968503938
 20
-2.4309055118110239
 30
0.0
 10
-1.2734251968503938
 20
-2.4309055118110239
 30
0.0
 10
-1.2734251968503938
 20
-2.4309055118110239
 30
0.0
 10
-1.2614370078740158
 20
-2.4144291338582677
 30
0.0
 10
-1.2614370078740158
 20
-2.4144291338582677
 30
0.0
 10
-1.2614370078740158
 20
-2.4144291338582677
 30
0.0
 10
-1.2614370078740158
 20
-2.4144291338582677
 30
0.0
 10
-1.2480314960629921
 20
-2.3985236220472443
 30
0.0
 10
-1.2480314960629921
 20
-2.3985236220472443
 30
0.0
 10
-1.2480314960629921
 20
-2.3985236220472443
 30
0.0
 10
-1.2480314960629921
 20
-2.3985236220472443
 30
0.0
 10
-1.2331417322834646
 20
-2.3833070866141735
 30
0.0
 10
-1.2331417322834646
 20
-2.3833070866141735
 30
0.0
 10
-1.2331417322834646
 20
-2.3833070866141735
 30
0.0
 10
-1.2331417322834646
 20
-2.3833070866141735
 30
0.0
 10
-1.2166811023622048
 20
-2.3688897637795279
 30
0.0
 10
-1.2166811023622048
 20
-2.3688897637795279
 30
0.0
 10
-1.2166811023622048
 20
-2.3688897637795279
 30
0.0
 10
-1.2166811023622048
 20
-2.3688897637795279
 30
0.0
 10
-1.1985866141732284
 20
-2.3553897637795278
 30
0.0
 10
-1.1985866141732284
 20
-2.3553897637795278
 30
0.0
 10
-1.1985866141732284
 20
-2.3553897637795278
 30
0.0
 10
-1.1985866141732284
 20
-2.3553897637795278
 30
0.0
 10
-1.178759842519685
 20
-2.3429015748031499
 30
0.0
 10
-1.178759842519685
 20
-2.3429015748031499
 30
0.0
 10
-1.178759842519685
 20
-2.3429015748031499
 30
0.0
 10
-1.178759842519685
 20
-2.3429015748031499
 30
0.0
 10
-1.1571456692913387
 20
-2.3315590551181105
 30
0.0
 10
-1.1571456692913387
 20
-2.3315590551181105
 30
0.0
 10
-1.1571456692913387
 20
-2.3315590551181105
 30
0.0
 10
-1.1571456692913387
 20
-2.3315590551181105
 30
0.0
 10
-1.1336574803149606
 20
-2.3214606299212601
 30
0.0
 10
-1.1336574803149606
 20
-2.3214606299212601
 30
0.0
 10
-1.1336574803149606
 20
-2.3214606299212601
 30
0.0
 10
-1.1336574803149606
 20
-2.3214606299212601
 30
0.0
 10
-1.1082244094488189
 20
-2.3127322834645669
 30
0.0
 10
-1.1082244094488189
 20
-2.3127322834645669
 30
0.0
 10
-1.1082244094488189
 20
-2.3127322834645669
 30
0.0
 10
-1.1082244094488189
 20
-2.3127322834645669
 30
0.0
 10
-1.0807519685039371
 20
-2.305464566929134
 30
0.0
 10
-1.0807519685039371
 20
-2.305464566929134
 30
0.0
 10
-1.0807519685039371
 20
-2.305464566929134
 30
0.0
 10
-1.0807519685039371
 20
-2.305464566929134
 30
0.0
 10
-1.0511850393700788
 20
-2.2997913385826774
 30
0.0
 10
-1.0511850393700788
 20
-2.2997913385826774
 30
0.0
 10
-1.0511850393700788
 20
-2.2997913385826774
 30
0.0
 10
-1.0511850393700788
 20
-2.2997913385826774
 30
0.0
 10
-1.0194370078740158
 20
-2.2958070866141731
 30
0.0
 10
-1.0194370078740158
 20
-2.2958070866141731
 30
0.0
 10
-1.0194370078740158
 20
-2.2958070866141731
 30
0.0
 10
-1.0194370078740158
 20
-2.2958070866141731
 30
0.0
 10
-0.9854330708661417
 20
-2.2936417322834646
 30
0.0
 10
-0.9854330708661417
 20
-2.2936417322834646
 30
0.0
  0
SPLINE
  5
BF
100
AcDbEntity
  8
Layer 1
370
     5
 62
     7
100
AcDbSpline
210
0.0
220
0.0
230
1.0
 70
     1
 71
     3
 72
    48
 73
    44
 74
     0
 42
0.0000000001
 43
0.0000000001
 40
0.0
 40
0.0
 40
0.0
 40
0.0
 40
0.0909090909090909
 40
0.0909090909090909
 40
0.0909090909090909
 40
0.0909090909090909
 40
0.1818181818181818
 40
0.1818181818181818
 40
0.1818181818181818
 40
0.1818181818181818
 40
0.2727272727272727
 40
0.2727272727272727
 40
0.2727272727272727
 40
0.2727272727272727
 40
0.3636363636363637
 40
0.3636363636363637
 40
0.3636363636363637
 40
0.3636363636363637
 40
0.4545454545454546
 40
0.4545454545454546
 40
0.4545454545454546
 40
0.4545454545454546
 40
0.5454545454545455
 40
0.5454545454545455
 40
0.5454545454545455
 40
0.5454545454545455
 40
0.6363636363636365
 40
0.6363636363636365
 40
0.6363636363636365
 40
0.6363636363636365
 40
0.7272727272727274
 40
0.7272727272727274
 40
0.7272727272727274
 40
0.7272727272727274
 40
0.8181818181818183
 40
0.8181818181818183
 40
0.8181818181818183
 40
0.8181818181818183
 40
0.9090909090909093
 40
0.9090909090909093
 40
0.9090909090909093
 40
0.9090909090909093
 40
1.0
 40
1.0
 40
1.0
 40
1.0
 10
-1.3353346456692914
 20
-2.704444881889764
 30
0.0
 10
-1.3353346456692914
 20
-2.704444881889764
 30
0.0
 10
-1.5853346456692914
 20
-2.704444881889764
 30
0.0
 10
-1.5853346456692914
 20
-2.704444881889764
 30
0.0
 10
-1.5853346456692914
 20
-2.704444881889764
 30
0.0
 10
-1.5853346456692914
 20
-2.704444881889764
 30
0.0
 10
-1.5853346456692914
 20
1.2955551181102363
 30
0.0
 10
-1.5853346456692914
 20
1.2955551181102363
 30
0.0
 10
-1.5853346456692914
 20
1.2955551181102363
 30
0.0
 10
-1.5853346456692914
 20
1.2955551181102363
 30
0.0
 10
0.3329881889763779
 20
1.2955551181102363
 30
0.0
 10
0.3329881889763779
 20
1.2955551181102363
 30
0.0
 10
0.3329881889763779
 20
1.2955551181102363
 30
0.0
 10
0.3329881889763779
 20
1.2955551181102363
 30
0.0
 10
0.3329881889763779
 20
0.6258858267716536
 30
0.0
 10
0.3329881889763779
 20
0.6258858267716536
 30
0.0
 10
0.3329881889763779
 20
0.6258858267716536
 30
0.0
 10
0.1203897637795276
 20
0.5951771653543307
 30
0.0
 10
0.0219094488188976
 20
0.5033188976377953
 30
0.0
 10
0.0219094488188976
 20
0.1631614173228347
 30
0.0
 10
0.0219094488188976
 20
0.1631614173228347
 30
0.0
 10
0.0219094488188976
 20
0.1631614173228347
 30
0.0
 10
-0.1031338582677165
 20
0.1301771653543307
 30
0.0
 10
-0.1031338582677165
 20
0.1301771653543307
 30
0.0
 10
-0.1031338582677165
 20
0.1301771653543307
 30
0.0
 10
-0.1031338582677165
 20
0.1301771653543307
 30
0.0
 10
-0.1031338582677165
 20
-1.0896062992125986
 30
0.0
 10
-0.1031338582677165
 20
-1.0896062992125986
 30
0.0
 10
-0.1031338582677165
 20
-1.0896062992125986
 30
0.0
 10
-0.1031338582677165
 20
-1.0896062992125986
 30
0.0
 10
-0.2971299212598426
 20
-1.1188385826771654
 30
0.0
 10
-0.2971299212598426
 20
-1.1188385826771654
 30
0.0
 10
-0.2971299212598426
 20
-1.1188385826771654
 30
0.0
 10
-0.2971299212598426
 20
-1.8688385826771654
 30
0.0
 10
-0.8552007874015748
 20
-2.0436417322834646
 30
0.0
 10
-0.9827598425196851
 20
-2.0436417322834646
 30
0.0
 10
-0.9827598425196851
 20
-2.0436417322834646
 30
0.0
 10
-0.9827598425196851
 20
-2.0436417322834646
 30
0.0
 10
-0.9854330708661417
 20
-2.2936417322834646
 30
0.0
 10
-0.9854330708661417
 20
-2.2936417322834646
 30
0.0
 10
-0.9854330708661417
 20
-2.2936417322834646
 30
0.0
 10
-1.3605078740157481
 20
-2.3067716535433074
 30
0.0
 10
-1.3371220472440946
 20
-2.647728346456693
 30
0.0
 10
-1.3353346456692914
 20
-2.704444881889764
 30
0.0
  0
TEXT
  5
C0
100
AcDbEntity
  8
Layer 1
100
AcDbText
 10
-0.260358
 20
-2.888976
 30
0.0
 40
0.119999
  1
BA  1520
 51
-0.000002
  7
Bookman Old Style
100
AcDbText
  0
TEXT
  5
C1
100
AcDbEntity
  8
Layer 1
100
AcDbText
 10
-0.15198
 20
-3.076476
 30
0.0
 40
0.119999
  1
2\u+201d x 4\u+201d
 51
-0.000002
  7
Bookman Old Style
100
AcDbText
  0
ENDSEC
  0
SECTION
  2
OBJECTS
  0
DICTIONARY
  5
19
100
AcDbDictionary
280
     0
281
     1
  3
ACAD_GROUP
350
1A
  3
ACAD_MLINESTYLE
350
1B
  3
ACAD_LAYOUT
350
1E
  3
ACAD_PLOTSETTINGS
350
22
  3
ACAD_PLOTSTYLENAME
350
1F
  3
ACAD_WIPEOUT_VARS
350
23
  0
DICTIONARY
  5
1A
102
{ACAD_REACTORS
330
19
102
}
100
AcDbDictionary
280
     0
281
     1
  0
DICTIONARY
  5
1B
102
{ACAD_REACTORS
330
19
102
}
100
AcDbDictionary
280
     0
281
     1
  3
Standard
350
1C
  0
MLINESTYLE
  5
1C
102
{ACAD_REACTORS
330
1B
102
}
100
AcDbMlineStyle
  2
Standard
 70
     0
  3

 62
     0
 51
90.0
 52
90.0
 71
     2
 49
0.5
 62
   256
  6
BYLAYER
 49
-0.5
 62
   256
  6
BYLAYER
  0
ACDBDICTIONARYWDFLT
  5
1F
102
{ACAD_REACTORS
330
19
102
}
100
AcDbDictionary
281
     1
  3
Normal
350
1D
100
AcDbDictionaryWithDefault
340
1D
  0
ACDBPLACEHOLDER
  5
1D
102
{ACAD_REACTORS
330
1F
102
}
  0
LAYOUT
  5
20
102
{ACAD_REACTORS
330
1E
102
}
100
AcDbPlotSettings
  1

  2

  4

  6

 40
0.0
 41
0.0
 42
0.0
 43
0.0
 44
0.0
 45
0.0
 46
0.0
 47
0.0
 48
0.0
 49
0.0
140
0.0
141
0.0
142
1.0
143
1.0
 70
  1024
 72
     0
 73
     0
 74
     0
  7

 75
     0
147
1.0
148
0.0
149
0.0
100
AcDbLayout
  1
Model
 70
     0
 71
     0
 10
0.0
 20
0.0
 11
0.0
 21
0.0
 12
0.0
 22
0.0
 32
0.0
 14
0.0
 24
0.0
 34
0.0
 15
0.0
 25
0.0
 35
0.0
146
0.0
 13
0.0
 23
0.0
 33
0.0
 16
0.0
 26
0.0
 36
0.0
 17
0.0
 27
0.0
 37
0.0
 76
     0
330
A
331
0
345
0
346
0
  0
LAYOUT
  5
21
102
{ACAD_REACTORS
330
1E
102
}
100
AcDbPlotSettings
  1

  2

  4

  6

 40
0.0
 41
0.0
 42
0.0
 43
0.0
 44
0.0
 45
0.0
 46
0.0
 47
0.0
 48
0.0
 49
0.0
140
0.0
141
0.0
142
1.0
143
1.0
 70
     0
 72
     0
 73
     0
 74
     0
  7

 75
     0
147
1.0
148
0.0
149
0.0
100
AcDbLayout
  1
Layout1
 70
     0
 71
     0
 10
0.0
 20
0.0
 11
0.0
 21
0.0
 12
0.0
 22
0.0
 32
0.0
 14
0.0
 24
0.0
 34
0.0
 15
0.0
 25
0.0
 35
0.0
146
0.0
 13
0.0
 23
0.0
 33
0.0
 16
0.0
 26
0.0
 36
0.0
 17
0.0
 27
0.0
 37
0.0
 76
     0
330
B
331
0
345
0
346
0
  0
DICTIONARY
  5
1E
102
{ACAD_REACTORS
330
19
102
}
100
AcDbDictionary
280
     0
281
     1
  3
Layout1
350
21
  3
Model
350
20
  0
DICTIONARY
  5
22
102
{ACAD_REACTORS
330
19
102
}
100
AcDbDictionary
280
     0
281
     1
  0
WIPEOUTVARIABLES
  5
23
100
AcDbWipeoutVariables
 70
     1
  0
ENDSEC
  0
EOF
