  0
SECTION
  2
HEADER
  9
$ACADVER
  1
AC1015
  9
$ACADMAINTVER
 70
     6
  9
$DWGCODEPAGE
  3
DOS850
  9
$INSBASE
 10
0.0
 20
0.0
 30
0.0
  9
$EXTMIN
 10
-0.714429
 20
-2.151291
 30
1.000000E+20
  9
$EXTMAX
 10
1.740646
 20
0.999646
 30
-1.000000E+20
  9
$LIMMIN
 10
0.0
 20
0.0
  9
$LIMMAX
 10
0.0
 20
0.0
  9
$ORTHOMODE
 70
     0
  9
$REGENMODE
 70
     1
  9
$FILLMODE
 70
     1
  9
$QTEXTMODE
 70
     0
  9
$MIRRTEXT
 70
     1
  9
$LTSCALE
 40
1.0
  9
$ATTMODE
 70
     1
  9
$TEXTSIZE
 40
0.2
  9
$TRACEWID
 40
0.05
  9
$TEXTSTYLE
  7
Standard
  9
$CLAYER
  8
0
  9
$CELTYPE
  6
Continuous
  9
$CECOLOR
 62
   256
  9
$CELTSCALE
 40
1.0
  9
$DISPSILH
 70
     0
  9
$DIMSCALE
 40
1.0
  9
$DIMASZ
 40
0.18
  9
$DIMEXO
 40
0.0625
  9
$DIMDLI
 40
0.38
  9
$DIMRND
 40
0.0
  9
$DIMDLE
 40
0.0
  9
$DIMEXE
 40
0.18
  9
$DIMTP
 40
0.0
  9
$DIMTM
 40
0.0
  9
$DIMTXT
 40
0.18
  9
$DIMCEN
 40
0.09
  9
$DIMTSZ
 40
0.0
  9
$DIMTOL
 70
     0
  9
$DIMLIM
 70
     0
  9
$DIMTIH
 70
     1
  9
$DIMTOH
 70
     1
  9
$DIMSE1
 70
     0
  9
$DIMSE2
 70
     0
  9
$DIMTAD
 70
     0
  9
$DIMZIN
 70
     0
  9
$DIMBLK
  1

  9
$DIMASO
 70
     1
  9
$DIMSHO
 70
     1
  9
$DIMPOST
  1

  9
$DIMAPOST
  1

  9
$DIMALT
 70
     0
  9
$DIMALTD
 70
     2
  9
$DIMALTF
 40
25.4
  9
$DIMLFAC
 40
1.0
  9
$DIMTOFL
 70
     0
  9
$DIMTVP
 40
0.0
  9
$DIMTIX
 70
     0
  9
$DIMSOXD
 70
     0
  9
$DIMSAH
 70
     0
  9
$DIMBLK1
  1

  9
$DIMBLK2
  1

  9
$DIMSTYLE
  2
Standard
  9
$DIMCLRD
 70
     0
  9
$DIMCLRE
 70
     0
  9
$DIMCLRT
 70
     0
  9
$DIMTFAC
 40
1.0
  9
$DIMGAP
 40
0.09
  9
$DIMJUST
 70
     0
  9
$DIMSD1
 70
     0
  9
$DIMSD2
 70
     0
  9
$DIMTOLJ
 70
     1
  9
$DIMTZIN
 70
     0
  9
$DIMALTZ
 70
     0
  9
$DIMALTTZ
 70
     0
  9
$DIMUPT
 70
     0
  9
$DIMDEC
 70
     4
  9
$DIMTDEC
 70
     4
  9
$DIMALTU
 70
     2
  9
$DIMALTTD
 70
     2
  9
$DIMTXSTY
  7
Standard
  9
$DIMAUNIT
 70
     0
  9
$DIMADEC
 70
     0
  9
$DIMALTRND
 40
0.0
  9
$DIMAZIN
 70
     0
  9
$DIMDSEP
 70
     0
  9
$DIMATFIT
 70
     3
  9
$DIMFRAC
 70
     0
  9
$DIMLDRBLK
  1

  9
$DIMLUNIT
 70
     2
  9
$DIMLWD
 70
     0
  9
$DIMLWE
 70
     0
  9
$DIMTMOVE
 70
     0
  9
$LUNITS
 70
     2
  9
$LUPREC
 70
     4
  9
$SKETCHINC
 40
0.1
  9
$FILLETRAD
 40
0.0
  9
$AUNITS
 70
     0
  9
$AUPREC
 70
     0
  9
$MENU
  1
acad
  9
$ELEVATION
 40
0.0
  9
$PELEVATION
 40
0.0
  9
$THICKNESS
 40
0.0
  9
$LIMCHECK
 70
     0
  9
$CHAMFERA
 40
0.0
  9
$CHAMFERB
 40
0.0
  9
$CHAMFERC
 40
0.0
  9
$CHAMFERD
 40
0.0
  9
$SKPOLY
 70
     0
  9
$TDCREATE
 40
0.000000000
  9
$TDUCREATE
 40
0.000000000
  9
$TDUPDATE
 40
0.000000000
  9
$TDUUPDATE
 40
0.000000000
  9
$TDINDWG
 40
0.0000000000
  9
$TDUSRTIMER
 40
0.0000000000
  9
$USRTIMER
 70
     1
  9
$ANGBASE
 50
0.0
  9
$ANGDIR
 70
     0
  9
$PDMODE
 70
     0
  9
$PDSIZE
 40
0.0
  9
$PLINEWID
 40
0.0
  9
$SPLFRAME
 70
     0
  9
$SPLINETYPE
 70
     6
  9
$SPLINESEGS
 70
     8
  9
$HANDSEED
  5
60
  9
$SURFTAB1
 70
     6
  9
$SURFTAB2
 70
     6
  9
$SURFTYPE
 70
     6
  9
$SURFU
 70
     6
  9
$SURFV
 70
     6
  9
$UCSBASE
  2

  9
$UCSNAME
  2

  9
$UCSORG
 10
0.0
 20
0.0
 30
0.0
  9
$UCSXDIR
 10
1.0
 20
0.0
 30
0.0
  9
$UCSYDIR
 10
0.0
 20
1.0
 30
0.0
  9
$UCSORTHOREF
  2

  9
$UCSORTHOVIEW
 70
     0
  9
$UCSORGTOP
 10
0.0
 20
0.0
 30
0.0
  9
$UCSORGBOTTOM
 10
0.0
 20
0.0
 30
0.0
  9
$UCSORGLEFT
 10
0.0
 20
0.0
 30
0.0
  9
$UCSORGRIGHT
 10
0.0
 20
0.0
 30
0.0
  9
$UCSORGFRONT
 10
0.0
 20
0.0
 30
0.0
  9
$UCSORGBACK
 10
0.0
 20
0.0
 30
0.0
  9
$PUCSBASE
  2

  9
$PUCSNAME
  2

  9
$PUCSORG
 10
0.0
 20
0.0
 30
0.0
  9
$PUCSXDIR
 10
1.0
 20
0.0
 30
0.0
  9
$PUCSYDIR
 10
0.0
 20
1.0
 30
0.0
  9
$PUCSORTHOREF
  2

  9
$PUCSORTHOVIEW
 70
     0
  9
$PUCSORGTOP
 10
0.0
 20
0.0
 30
0.0
  9
$PUCSORGBOTTOM
 10
0.0
 20
0.0
 30
0.0
  9
$PUCSORGLEFT
 10
0.0
 20
0.0
 30
0.0
  9
$PUCSORGRIGHT
 10
0.0
 20
0.0
 30
0.0
  9
$PUCSORGFRONT
 10
0.0
 20
0.0
 30
0.0
  9
$PUCSORGBACK
 10
0.0
 20
0.0
 30
0.0
  9
$USERI1
 70
     0
  9
$USERI2
 70
     0
  9
$USERI3
 70
     0
  9
$USERI4
 70
     0
  9
$USERI5
 70
     0
  9
$USERR1
 40
0.0
  9
$USERR2
 40
0.0
  9
$USERR3
 40
0.0
  9
$USERR4
 40
0.0
  9
$USERR5
 40
0.0
  9
$WORLDVIEW
 70
     1
  9
$SHADEDGE
 70
     3
  9
$SHADEDIF
 70
    70
  9
$TILEMODE
 70
     1
  9
$MAXACTVP
 70
    16
  9
$PINSBASE
 10
0.0
 20
0.0
 30
0.0
  9
$PLIMCHECK
 70
     0
  9
$PEXTMIN
 10
1.000000E+20
 20
1.000000E+20
 30
1.000000E+20
  9
$PEXTMAX
 10
-1.000000E+20
 20
-1.000000E+20
 30
-1.000000E+20
  9
$PLIMMIN
 10
0.0
 20
0.0
  9
$PLIMMAX
 10
12.0
 20
9.0
  9
$UNITMODE
 70
     0
  9
$VISRETAIN
 70
     0
  9
$PLINEGEN
 70
     1
  9
$PSLTSCALE
 70
     0
  9
$TREEDEPTH
 70
  3020
  9
$CMLSTYLE
  2
Standard
  9
$CMLJUST
 70
     0
  9
$CMLSCALE
 40
1.0
  9
$PROXYGRAPHICS
 70
     0
  9
$MEASUREMENT
 70
     0
  9
$CELWEIGHT
370
     0
  9
$ENDCAPS
280
     0
  9
$JOINSTYLE
280
     0
  9
$LWDISPLAY
290
     0
  9
$INSUNITS
 70
     1
  9
$HYPERLINKBASE
  1

  9
$XEDIT
290
     1
  9
$CEPSNTYPE
380
     0
  9
$PSTYLEMODE
290
     1
  9
$FINGERPRINTGUID
  2

  9
$VERSIONGUID
  2

  9
$EXTNAMES
290
     1
  9
$PSVPSCALE
 40
0.0
  0
ENDSEC
  0
SECTION
  2
CLASSES
  0
CLASS
  1
LWPOLYLINE
  2
AcDbPolyline
  3
AutoCAD 2000
 90
    32768
280
     0
281
     1
  0
CLASS
  1
IMAGE
  2
AcDbRasterImage
  3
ISM
 90
    32895
280
     0
281
     1
  0
CLASS
  1
OLE2FRAME
  2
AcDbOle2Frame
  3
AutoCAD 2000
 90
    32768
280
     0
281
     1
  0
CLASS
  1
HATCH
  2
AcDbHatch
  3
AutoCAD 2000
 90
    32768
280
     0
281
     1
  0
CLASS
  1
DICTIONARYVAR
  2
AcDbDictionaryVar
  3
AutoCAD 2000
 90
    32768
280
     0
281
     0
  0
CLASS
  1
RASTERVARIABLES
  2
AcDbRasterVariables
  3
ISM
 90
    32768
280
     0
281
     0
  0
CLASS
  1
IMAGEDEF
  2
AcDbRasterImageDef
  3
ISM
 90
    32768
280
     0
281
     0
  0
CLASS
  1
IMAGEDEF_REACTOR
  2
AcDbRasterImageDefReactor
  3
ISM
 90
    32769
280
     0
281
     0
  0
CLASS
  1
IDBUFFER
  2
AcDbIdBuffer
  3
AutoCAD 2000
 90
    32768
280
     0
281
     0
  0
CLASS
  1
SPATIAL_FILTER
  2
AcDbSpatialFilter
  3
AutoCAD 2000
 90
    32768
280
     0
281
     0
  0
CLASS
  1
XRECORD
  2
AcDbXrecord
  3
AutoCAD 2000
 90
    32768
280
     0
281
     0
  0
CLASS
  1
SORTENTSTABLE
  2
AcDbSortentsTable
  3
AutoCAD 2000
 90
    32768
280
     0
281
     0
  0
CLASS
  1
LAYER_INDEX
  2
AcDbLayerIndex
  3
AutoCAD 2000
 90
    32768
280
     0
281
     0
  0
CLASS
  1
SPATIAL_INDEX
  2
AcDbSpatialIndex
  3
AutoCAD 2000
 90
    32768
280
     0
281
     0
  0
CLASS
  1
OBJECT_PTR
  2
CAseDLPNTableRecord
  3
"ASE-LPNTableRecord"
 90
    32769
280
     0
281
     0
  0
CLASS
  1
LAYOUT
  2
AcDbLayout
  3
AutoCAD 2000
 90
        0
280
     0
281
     0
  0
CLASS
  1
PLOTSETTINGS
  2
AcDbPlotSettings
  3
AutoCAD 2000
 90
    32768
280
     0
281
     0
  0
CLASS
  1
ACDBDICTIONARYWDFLT
  2
AcDbDictionaryWithDefault
  3
AutoCAD 2000
 90
        0
280
     0
281
     0
  0
CLASS
  1
ACDBPLACEHOLDER
  2
AcDbPlaceHolder
  3
AutoCAD 2000
 90
        0
280
     0
281
     0
  0
CLASS
  1
VBA_PROJECT
  2
AcDbVbaProject
  3
acadvba
 90
    32768
280
     0
281
     0
  0
CLASS
  1
WIPEOUT
  2
AcDbWipeout
  3
WipeOut|AutoCAD Express Tool|expresstools@autodesk.com
 90
    32895
280
     0
281
     1
  0
CLASS
  1
WIPEOUTVARIABLES
  2
AcDbWipeoutVariables
  3
WipeOut|AutoCAD Express Tool|expresstools@autodesk.com
 90
        0
280
     0
281
     0
  0
CLASS
  1
RTEXT
  2
RText
  3
RText|AutoCAD Express Tool|expresstools@autodesk.com
 90
    32768
280
     0
281
     1
  0
CLASS
  1
ARCALIGNEDTEXT
  2
AcDbArcAlignedText
  3
ATEXT|AutoCAD Express Tool|expresstools@autodesk.com
 90
    32768
280
     0
281
     1
  0
ENDSEC
  0
SECTION
  2
TABLES
  0
TABLE
  2
VPORT
  5
7
100
AcDbSymbolTable
 70
     1
  0
VPORT
  5
15
100
AcDbSymbolTableRecord
100
AcDbViewportTableRecord
  2
*ACTIVE
 70
     0
 10
0.0
 20
0.0
 11
1.0
 21
1.0
 12
6.591288
 22
4.579184
 13
0.0
 23
0.0
 14
1.0
 24
1.0
 15
0.0
 25
0.0
 16
0.0
 26
0.0
 36
1.0
 17
0.0
 27
0.0
 37
0.0
 40
9.158369
 41
0.688564
 42
50.0
 43
0.0
 44
0.0
 50
0.0
 51
0.0
 71
     0
 72
   100
 73
     1
 74
     1
 75
     0
 76
     0
 77
     0
 78
     0
281
     0
 65
     0
110
0.0
120
0.0
130
0.0
111
1.0
121
0.0
131
0.0
112
0.0
122
1.0
132
0.0
345
0
346
0
 79
     0
146
0.0
  0
ENDTAB
  0
TABLE
  2
LTYPE
  5
4
100
AcDbSymbolTable
 70
     3
  0
LTYPE
  5
11
100
AcDbSymbolTableRecord
100
AcDbLinetypeTableRecord
  2
ByBlock
 70
    64
  3

 72
    65
 73
     0
 40
0.0
  0
LTYPE
  5
12
100
AcDbSymbolTableRecord
100
AcDbLinetypeTableRecord
  2
ByLayer
 70
    64
  3

 72
    65
 73
     0
 40
0.0
  0
LTYPE
  5
13
100
AcDbSymbolTableRecord
100
AcDbLinetypeTableRecord
  2
Continuous
 70
    64
  3
Solid line
 72
    65
 73
     0
 40
0.0
  0
ENDTAB
  0
TABLE
  2
LAYER
  5
2
100
AcDbSymbolTable
 70
     2
  0
LAYER
  5
14
100
AcDbSymbolTableRecord
100
AcDbLayerTableRecord
  2
0
 70
     0
 62
     7
  6
Continuous
290
     1
370
    -3
390
1D
  0
LAYER
  5
24
100
AcDbSymbolTableRecord
100
AcDbLayerTableRecord
  2
Layer 1
 70
     0
 62
     7
  6
Continuous
290
     1
370
    -3
390
1F
  0
ENDTAB
  0
TABLE
  2
STYLE
  5
3
100
AcDbSymbolTable
 70
     2
  0
STYLE
  5
17
100
AcDbSymbolTableRecord
100
AcDbTextStyleTableRecord
  2
Standard
 70
     0
 40
0.0
 41
1.0
 50
0.0
 71
     0
 42
0.0
  3
txt
  4

  0
STYLE
  5
5B
100
AcDbSymbolTableRecord
100
AcDbTextStyleTableRecord
  2
Bookman Old Style
 70
     0
 40
1.0
 41
1.0
 50
0.0
 71
     0
 42
1.0
  3
Bookman Old Style
  4

  0
ENDTAB
  0
TABLE
  2
VIEW
  5
5
100
AcDbSymbolTable
 70
     0
  0
ENDTAB
  0
TABLE
  2
UCS
  5
6
100
AcDbSymbolTable
 70
     0
  0
ENDTAB
  0
TABLE
  2
APPID
  5
8
100
AcDbSymbolTable
 70
     1
  0
APPID
  5
16
100
AcDbSymbolTableRecord
100
AcDbRegAppTableRecord
  2
ACAD
 70
     0
  0
ENDTAB
  0
TABLE
  2
DIMSTYLE
  5
9
100
AcDbSymbolTable
 70
     1
100
AcDbDimStyleTable
 71
     0
  0
DIMSTYLE
105
18
100
AcDbSymbolTableRecord
100
AcDbDimStyleTableRecord
  2
Standard
 70
     0
  3

  4

 40
1.0
 41
0.18
 42
0.0625
 43
0.38
 44
0.18
 45
0.0
 46
0.0
 47
0.0
 48
0.0
 71
     0
 72
     0
 73
     1
 74
     1
 75
     0
 76
     0
 77
     0
 78
     0
 79
     0
140
0.18
141
0.09
142
0.0
143
25.4
144
1.0
145
0.0
146
1.0
147
0.09
148
0.0
170
     0
171
     2
172
     0
173
     0
174
     0
175
     0
176
     0
177
     0
178
     0
179
     0
271
     4
272
     4
273
     2
274
     2
275
     0
276
     0
277
     2
278
    46
279
     0
280
     0
281
     0
282
     0
283
     1
284
     0
285
     0
286
     0
288
     0
340
17
341
0
342
0
343
0
344
0
371
    -2
372
    -2
  0
ENDTAB
  0
TABLE
  2
BLOCK_RECORD
  5
1
100
AcDbSymbolTable
 70
     0
  0
BLOCK_RECORD
  5
A
100
AcDbSymbolTableRecord
100
AcDbBlockTableRecord
  2
*MODEL_SPACE
340
20
  0
BLOCK_RECORD
  5
B
100
AcDbSymbolTableRecord
100
AcDbBlockTableRecord
  2
*PAPER_SPACE
340
21
  0
ENDTAB
  0
ENDSEC
  0
SECTION
  2
BLOCKS
  0
BLOCK
  5
D
100
AcDbEntity
  8
0
100
AcDbBlockBegin
  2
*MODEL_SPACE
 70
     0
 10
0.0
 20
0.0
 30
0.0
  3
*MODEL_SPACE
  1

  0
ENDBLK
  5
E
100
AcDbEntity
  8
0
100
AcDbBlockEnd
  0
BLOCK
  5
F
100
AcDbEntity
 67
     1
  8
0
100
AcDbBlockBegin
  2
*PAPER_SPACE
 70
     0
 10
0.0
 20
0.0
 30
0.0
  3
*PAPER_SPACE
  1

  0
ENDBLK
  5
10
100
AcDbEntity
 67
     1
  8
0
100
AcDbBlockEnd
  0
ENDSEC
  0
SECTION
  2
ENTITIES
  0
SPLINE
  5
25
100
AcDbEntity
  8
Layer 1
370
     5
100
AcDbSpline
210
0.0
220
0.0
230
1.0
 70
     1
 71
     3
 72
    60
 73
    56
 74
     0
 42
0.0000000001
 43
0.0000000001
 40
0.0
 40
0.0
 40
0.0
 40
0.0
 40
0.0714285714285714
 40
0.0714285714285714
 40
0.0714285714285714
 40
0.0714285714285714
 40
0.1428571428571429
 40
0.1428571428571429
 40
0.1428571428571429
 40
0.1428571428571429
 40
0.2142857142857143
 40
0.2142857142857143
 40
0.2142857142857143
 40
0.2142857142857143
 40
0.2857142857142857
 40
0.2857142857142857
 40
0.2857142857142857
 40
0.2857142857142857
 40
0.3571428571428571
 40
0.3571428571428571
 40
0.3571428571428571
 40
0.3571428571428571
 40
0.4285714285714285
 40
0.4285714285714285
 40
0.4285714285714285
 40
0.4285714285714285
 40
0.4999999999999999
 40
0.4999999999999999
 40
0.4999999999999999
 40
0.4999999999999999
 40
0.5714285714285713
 40
0.5714285714285713
 40
0.5714285714285713
 40
0.5714285714285713
 40
0.6428571428571427
 40
0.6428571428571427
 40
0.6428571428571427
 40
0.6428571428571427
 40
0.7142857142857141
 40
0.7142857142857141
 40
0.7142857142857141
 40
0.7142857142857141
 40
0.7857142857142855
 40
0.7857142857142855
 40
0.7857142857142855
 40
0.7857142857142855
 40
0.8571428571428569
 40
0.8571428571428569
 40
0.8571428571428569
 40
0.8571428571428569
 40
0.9285714285714283
 40
0.9285714285714283
 40
0.9285714285714283
 40
0.9285714285714283
 40
1.0
 40
1.0
 40
1.0
 40
1.0
 10
-0.619472440944882
 20
0.3731456692913386
 30
0.0
 10
-0.619472440944882
 20
0.3731456692913386
 30
0.0
 10
1.1810984251968504
 20
0.3731535433070866
 30
0.0
 10
1.1810984251968504
 20
0.3731535433070866
 30
0.0
 10
1.1810984251968504
 20
0.3731535433070866
 30
0.0
 10
1.1810984251968504
 20
0.3731535433070866
 30
0.0
 10
1.1810984251968504
 20
0.6903149606299213
 30
0.0
 10
1.1810984251968504
 20
0.6903149606299213
 30
0.0
 10
1.1810984251968504
 20
0.6903149606299213
 30
0.0
 10
1.1810984251968504
 20
0.6903149606299213
 30
0.0
 10
1.1198937007874017
 20
0.6903149606299213
 30
0.0
 10
1.1198937007874017
 20
0.6903149606299213
 30
0.0
 10
1.1198937007874017
 20
0.6903149606299213
 30
0.0
 10
1.1198937007874017
 20
0.6903149606299213
 30
0.0
 10
1.1198937007874017
 20
0.7635236220472441
 30
0.0
 10
1.1198937007874017
 20
0.7635236220472441
 30
0.0
 10
1.1198937007874017
 20
0.7635236220472441
 30
0.0
 10
1.0739370078740158
 20
0.773736220472441
 30
0.0
 10
0.9871338582677166
 20
0.782244094488189
 30
0.0
 10
0.9820275590551182
 20
0.9286220472440945
 30
0.0
 10
0.9820275590551182
 20
0.9286220472440945
 30
0.0
 10
0.9820275590551182
 20
0.9286220472440945
 30
0.0
 10
0.8542716535433071
 20
0.9286220472440945
 30
0.0
 10
0.8542716535433071
 20
0.9286220472440945
 30
0.0
 10
0.8542716535433071
 20
0.9286220472440945
 30
0.0
 10
0.8542716535433071
 20
0.9286220472440945
 30
0.0
 10
0.8433031496062993
 20
0.9981456692913386
 30
0.0
 10
0.8433031496062993
 20
0.9981456692913386
 30
0.0
 10
0.8433031496062993
 20
0.9981456692913386
 30
0.0
 10
0.8433031496062993
 20
0.9981456692913386
 30
0.0
 10
-0.2816968503937008
 20
0.9981456692913386
 30
0.0
 10
-0.2816968503937008
 20
0.9981456692913386
 30
0.0
 10
-0.2816968503937008
 20
0.9981456692913386
 30
0.0
 10
-0.2816968503937008
 20
0.9981456692913386
 30
0.0
 10
-0.2926456692913386
 20
0.9286141732283465
 30
0.0
 10
-0.2926456692913386
 20
0.9286141732283465
 30
0.0
 10
-0.2926456692913386
 20
0.9286141732283465
 30
0.0
 10
-0.2926456692913386
 20
0.9286141732283465
 30
0.0
 10
-0.4204015748031496
 20
0.9286141732283465
 30
0.0
 10
-0.4204015748031496
 20
0.9286141732283465
 30
0.0
 10
-0.4204015748031496
 20
0.9286141732283465
 30
0.0
 10
-0.425507874015748
 20
0.782236220472441
 30
0.0
 10
-0.5123110236220473
 20
0.773728346456693
 30
0.0
 10
-0.5582677165354331
 20
0.7635157480314961
 30
0.0
 10
-0.5582677165354331
 20
0.7635157480314961
 30
0.0
 10
-0.5582677165354331
 20
0.7635157480314961
 30
0.0
 10
-0.5582677165354331
 20
0.6903070866141733
 30
0.0
 10
-0.5582677165354331
 20
0.6903070866141733
 30
0.0
 10
-0.5582677165354331
 20
0.6903070866141733
 30
0.0
 10
-0.5582677165354331
 20
0.6903070866141733
 30
0.0
 10
-0.619472440944882
 20
0.6903070866141733
 30
0.0
 10
-0.619472440944882
 20
0.6903070866141733
 30
0.0
 10
-0.619472440944882
 20
0.6903070866141733
 30
0.0
 10
-0.619472440944882
 20
0.6903070866141733
 30
0.0
 10
-0.619472440944882
 20
0.3731456692913386
 30
0.0
 10
-0.619472440944882
 20
0.3731456692913386
 30
0.0
  0
SPLINE
  5
26
100
AcDbEntity
  8
Layer 1
 62
     9
100
AcDbSpline
210
0.0
220
0.0
230
1.0
 70
     1
 71
     3
 72
    20
 73
    16
 74
     0
 42
0.0000000001
 43
0.0000000001
 40
0.0
 40
0.0
 40
0.0
 40
0.0
 40
0.25
 40
0.25
 40
0.25
 40
0.25
 40
0.5
 40
0.5
 40
0.5
 40
0.5
 40
0.75
 40
0.75
 40
0.75
 40
0.75
 40
1.0
 40
1.0
 40
1.0
 40
1.0
 10
1.0876417322834646
 20
-1.7553661417322834
 30
0.0
 10
1.0876417322834646
 20
-1.7553661417322834
 30
0.0
 10
1.7391456692913387
 20
-1.3742637795275592
 30
0.0
 10
1.7391456692913387
 20
-1.3742637795275592
 30
0.0
 10
1.7391456692913387
 20
-1.3742637795275592
 30
0.0
 10
1.7391456692913387
 20
-1.3742637795275592
 30
0.0
 10
1.7391456692913387
 20
-1.0571023622047244
 30
0.0
 10
1.7391456692913387
 20
-1.0571023622047244
 30
0.0
 10
1.7391456692913387
 20
-1.0571023622047244
 30
0.0
 10
1.7391456692913387
 20
-1.0571023622047244
 30
0.0
 10
1.0876417322834646
 20
-1.4382047244094489
 30
0.0
 10
1.0876417322834646
 20
-1.4382047244094489
 30
0.0
 10
1.0876417322834646
 20
-1.4382047244094489
 30
0.0
 10
1.0876417322834646
 20
-1.4382047244094489
 30
0.0
 10
1.0876417322834646
 20
-1.7553661417322834
 30
0.0
 10
1.0876417322834646
 20
-1.7553661417322834
 30
0.0
  0
SPLINE
  5
27
100
AcDbEntity
  8
Layer 1
370
     5
100
AcDbSpline
210
0.0
220
0.0
230
1.0
 70
     1
 71
     3
 72
    20
 73
    16
 74
     0
 42
0.0000000001
 43
0.0000000001
 40
0.0
 40
0.0
 40
0.0
 40
0.0
 40
0.25
 40
0.25
 40
0.25
 40
0.25
 40
0.5
 40
0.5
 40
0.5
 40
0.5
 40
0.75
 40
0.75
 40
0.75
 40
0.75
 40
1.0
 40
1.0
 40
1.0
 40
1.0
 10
1.0876417322834646
 20
-1.7553661417322834
 30
0.0
 10
1.0876417322834646
 20
-1.7553661417322834
 30
0.0
 10
1.7391456692913387
 20
-1.3742637795275592
 30
0.0
 10
1.7391456692913387
 20
-1.3742637795275592
 30
0.0
 10
1.7391456692913387
 20
-1.3742637795275592
 30
0.0
 10
1.7391456692913387
 20
-1.3742637795275592
 30
0.0
 10
1.7391456692913387
 20
-1.0571023622047244
 30
0.0
 10
1.7391456692913387
 20
-1.0571023622047244
 30
0.0
 10
1.7391456692913387
 20
-1.0571023622047244
 30
0.0
 10
1.7391456692913387
 20
-1.0571023622047244
 30
0.0
 10
1.0876417322834646
 20
-1.4382047244094489
 30
0.0
 10
1.0876417322834646
 20
-1.4382047244094489
 30
0.0
 10
1.0876417322834646
 20
-1.4382047244094489
 30
0.0
 10
1.0876417322834646
 20
-1.4382047244094489
 30
0.0
 10
1.0876417322834646
 20
-1.7553661417322834
 30
0.0
 10
1.0876417322834646
 20
-1.7553661417322834
 30
0.0
  0
SPLINE
  5
28
100
AcDbEntity
  8
Layer 1
 62
   252
100
AcDbSpline
210
0.0
220
0.0
230
1.0
 70
     1
 71
     3
 72
    20
 73
    16
 74
     0
 42
0.0000000001
 43
0.0000000001
 40
0.0
 40
0.0
 40
0.0
 40
0.0
 40
0.25
 40
0.25
 40
0.25
 40
0.25
 40
0.5
 40
0.5
 40
0.5
 40
0.5
 40
0.75
 40
0.75
 40
0.75
 40
0.75
 40
1.0
 40
1.0
 40
1.0
 40
1.0
 10
1.0876417322834646
 20
-1.4382047244094489
 30
0.0
 10
1.0876417322834646
 20
-1.4382047244094489
 30
0.0
 10
1.7391456692913387
 20
-1.0571023622047244
 30
0.0
 10
1.7391456692913387
 20
-1.0571023622047244
 30
0.0
 10
1.7391456692913387
 20
-1.0571023622047244
 30
0.0
 10
1.7391456692913387
 20
-1.0571023622047244
 30
0.0
 10
1.6779409448818898
 20
-1.0571023622047244
 30
0.0
 10
1.6779409448818898
 20
-1.0571023622047244
 30
0.0
 10
1.6779409448818898
 20
-1.0571023622047244
 30
0.0
 10
1.6779409448818898
 20
-1.0571023622047244
 30
0.0
 10
1.0264370078740157
 20
-1.4382047244094489
 30
0.0
 10
1.0264370078740157
 20
-1.4382047244094489
 30
0.0
 10
1.0264370078740157
 20
-1.4382047244094489
 30
0.0
 10
1.0264370078740157
 20
-1.4382047244094489
 30
0.0
 10
1.0876417322834646
 20
-1.4382047244094489
 30
0.0
 10
1.0876417322834646
 20
-1.4382047244094489
 30
0.0
  0
SPLINE
  5
29
100
AcDbEntity
  8
Layer 1
370
     5
100
AcDbSpline
210
0.0
220
0.0
230
1.0
 70
     1
 71
     3
 72
    20
 73
    16
 74
     0
 42
0.0000000001
 43
0.0000000001
 40
0.0
 40
0.0
 40
0.0
 40
0.0
 40
0.25
 40
0.25
 40
0.25
 40
0.25
 40
0.5
 40
0.5
 40
0.5
 40
0.5
 40
0.75
 40
0.75
 40
0.75
 40
0.75
 40
1.0
 40
1.0
 40
1.0
 40
1.0
 10
1.0876417322834646
 20
-1.4382047244094489
 30
0.0
 10
1.0876417322834646
 20
-1.4382047244094489
 30
0.0
 10
1.7391456692913387
 20
-1.0571023622047244
 30
0.0
 10
1.7391456692913387
 20
-1.0571023622047244
 30
0.0
 10
1.7391456692913387
 20
-1.0571023622047244
 30
0.0
 10
1.7391456692913387
 20
-1.0571023622047244
 30
0.0
 10
1.6779409448818898
 20
-1.0571023622047244
 30
0.0
 10
1.6779409448818898
 20
-1.0571023622047244
 30
0.0
 10
1.6779409448818898
 20
-1.0571023622047244
 30
0.0
 10
1.6779409448818898
 20
-1.0571023622047244
 30
0.0
 10
1.0264370078740157
 20
-1.4382047244094489
 30
0.0
 10
1.0264370078740157
 20
-1.4382047244094489
 30
0.0
 10
1.0264370078740157
 20
-1.4382047244094489
 30
0.0
 10
1.0264370078740157
 20
-1.4382047244094489
 30
0.0
 10
1.0876417322834646
 20
-1.4382047244094489
 30
0.0
 10
1.0876417322834646
 20
-1.4382047244094489
 30
0.0
  0
SPLINE
  5
2A
100
AcDbEntity
  8
Layer 1
 62
     9
100
AcDbSpline
210
0.0
220
0.0
230
1.0
 70
     1
 71
     3
 72
    20
 73
    16
 74
     0
 42
0.0000000001
 43
0.0000000001
 40
0.0
 40
0.0
 40
0.0
 40
0.0
 40
0.25
 40
0.25
 40
0.25
 40
0.25
 40
0.5
 40
0.5
 40
0.5
 40
0.5
 40
0.75
 40
0.75
 40
0.75
 40
0.75
 40
1.0
 40
1.0
 40
1.0
 40
1.0
 10
1.0264370078740157
 20
-1.4382047244094489
 30
0.0
 10
1.0264370078740157
 20
-1.4382047244094489
 30
0.0
 10
1.6779409448818898
 20
-1.0571023622047244
 30
0.0
 10
1.6779409448818898
 20
-1.0571023622047244
 30
0.0
 10
1.6779409448818898
 20
-1.0571023622047244
 30
0.0
 10
1.6779409448818898
 20
-1.0571023622047244
 30
0.0
 10
1.6779409448818898
 20
-0.9838937007874016
 30
0.0
 10
1.6779409448818898
 20
-0.9838937007874016
 30
0.0
 10
1.6779409448818898
 20
-0.9838937007874016
 30
0.0
 10
1.6779409448818898
 20
-0.9838937007874016
 30
0.0
 10
1.0264370078740157
 20
-1.3649960629921261
 30
0.0
 10
1.0264370078740157
 20
-1.3649960629921261
 30
0.0
 10
1.0264370078740157
 20
-1.3649960629921261
 30
0.0
 10
1.0264370078740157
 20
-1.3649960629921261
 30
0.0
 10
1.0264370078740157
 20
-1.4382047244094489
 30
0.0
 10
1.0264370078740157
 20
-1.4382047244094489
 30
0.0
  0
SPLINE
  5
2B
100
AcDbEntity
  8
Layer 1
370
     5
100
AcDbSpline
210
0.0
220
0.0
230
1.0
 70
     1
 71
     3
 72
    20
 73
    16
 74
     0
 42
0.0000000001
 43
0.0000000001
 40
0.0
 40
0.0
 40
0.0
 40
0.0
 40
0.25
 40
0.25
 40
0.25
 40
0.25
 40
0.5
 40
0.5
 40
0.5
 40
0.5
 40
0.75
 40
0.75
 40
0.75
 40
0.75
 40
1.0
 40
1.0
 40
1.0
 40
1.0
 10
1.0264370078740157
 20
-1.4382047244094489
 30
0.0
 10
1.0264370078740157
 20
-1.4382047244094489
 30
0.0
 10
1.6779409448818898
 20
-1.0571023622047244
 30
0.0
 10
1.6779409448818898
 20
-1.0571023622047244
 30
0.0
 10
1.6779409448818898
 20
-1.0571023622047244
 30
0.0
 10
1.6779409448818898
 20
-1.0571023622047244
 30
0.0
 10
1.6779409448818898
 20
-0.9838937007874016
 30
0.0
 10
1.6779409448818898
 20
-0.9838937007874016
 30
0.0
 10
1.6779409448818898
 20
-0.9838937007874016
 30
0.0
 10
1.6779409448818898
 20
-0.9838937007874016
 30
0.0
 10
1.0264370078740157
 20
-1.3649960629921261
 30
0.0
 10
1.0264370078740157
 20
-1.3649960629921261
 30
0.0
 10
1.0264370078740157
 20
-1.3649960629921261
 30
0.0
 10
1.0264370078740157
 20
-1.3649960629921261
 30
0.0
 10
1.0264370078740157
 20
-1.4382047244094489
 30
0.0
 10
1.0264370078740157
 20
-1.4382047244094489
 30
0.0
  0
SPLINE
  5
2C
100
AcDbEntity
  8
Layer 1
 62
   253
100
AcDbSpline
210
0.0
220
0.0
230
1.0
 70
     1
 71
     3
 72
    84
 73
    80
 74
     0
 42
0.0000000001
 43
0.0000000001
 40
0.0
 40
0.0
 40
0.0
 40
0.0
 40
0.05
 40
0.05
 40
0.05
 40
0.05
 40
0.1
 40
0.1
 40
0.1
 40
0.1
 40
0.15
 40
0.15
 40
0.15
 40
0.15
 40
0.2
 40
0.2
 40
0.2
 40
0.2
 40
0.25
 40
0.25
 40
0.25
 40
0.25
 40
0.3
 40
0.3
 40
0.3
 40
0.3
 40
0.35
 40
0.35
 40
0.35
 40
0.35
 40
0.4
 40
0.4
 40
0.4
 40
0.4
 40
0.45
 40
0.45
 40
0.45
 40
0.45
 40
0.4999999999999999
 40
0.4999999999999999
 40
0.4999999999999999
 40
0.4999999999999999
 40
0.5499999999999999
 40
0.5499999999999999
 40
0.5499999999999999
 40
0.5499999999999999
 40
0.6
 40
0.6
 40
0.6
 40
0.6
 40
0.65
 40
0.65
 40
0.65
 40
0.65
 40
0.7000000000000001
 40
0.7000000000000001
 40
0.7000000000000001
 40
0.7000000000000001
 40
0.7500000000000001
 40
0.7500000000000001
 40
0.7500000000000001
 40
0.7500000000000001
 40
0.8000000000000002
 40
0.8000000000000002
 40
0.8000000000000002
 40
0.8000000000000002
 40
0.8500000000000002
 40
0.8500000000000002
 40
0.8500000000000002
 40
0.8500000000000002
 40
0.9000000000000002
 40
0.9000000000000002
 40
0.9000000000000002
 40
0.9000000000000002
 40
0.9500000000000003
 40
0.9500000000000003
 40
0.9500000000000003
 40
0.9500000000000003
 40
1.0
 40
1.0
 40
1.0
 40
1.0
 10
1.0264370078740157
 20
-1.3649960629921261
 30
0.0
 10
1.0264370078740157
 20
-1.3649960629921261
 30
0.0
 10
1.6779409448818898
 20
-0.9838937007874016
 30
0.0
 10
1.6779409448818898
 20
-0.9838937007874016
 30
0.0
 10
1.6779409448818898
 20
-0.9838937007874016
 30
0.0
 10
1.6779409448818898
 20
-0.9838937007874016
 30
0.0
 10
1.6735078740157481
 20
-0.9829291338582678
 30
0.0
 10
1.6735078740157481
 20
-0.9829291338582678
 30
0.0
 10
1.6735078740157481
 20
-0.9829291338582678
 30
0.0
 10
1.6735078740157481
 20
-0.9829291338582678
 30
0.0
 10
1.6688661417322834
 20
-0.9819566929133858
 30
0.0
 10
1.6688661417322834
 20
-0.9819566929133858
 30
0.0
 10
1.6688661417322834
 20
-0.9819566929133858
 30
0.0
 10
1.6688661417322834
 20
-0.9819566929133858
 30
0.0
 10
1.6640275590551181
 20
-0.9809448818897638
 30
0.0
 10
1.6640275590551181
 20
-0.9809448818897638
 30
0.0
 10
1.6640275590551181
 20
-0.9809448818897638
 30
0.0
 10
1.6640275590551181
 20
-0.9809448818897638
 30
0.0
 10
1.6590236220472441
 20
-0.9798661417322835
 30
0.0
 10
1.6590236220472441
 20
-0.9798661417322835
 30
0.0
 10
1.6590236220472441
 20
-0.9798661417322835
 30
0.0
 10
1.6590236220472441
 20
-0.9798661417322835
 30
0.0
 10
1.6538622047244096
 20
-0.9786929133858268
 30
0.0
 10
1.6538622047244096
 20
-0.9786929133858268
 30
0.0
 10
1.6538622047244096
 20
-0.9786929133858268
 30
0.0
 10
1.6538622047244096
 20
-0.9786929133858268
 30
0.0
 10
1.6485826771653544
 20
-0.9774015748031496
 30
0.0
 10
1.6485826771653544
 20
-0.9774015748031496
 30
0.0
 10
1.6485826771653544
 20
-0.9774015748031496
 30
0.0
 10
1.6485826771653544
 20
-0.9774015748031496
 30
0.0
 10
1.6431929133858267
 20
-0.975968503937008
 30
0.0
 10
1.6431929133858267
 20
-0.975968503937008
 30
0.0
 10
1.6431929133858267
 20
-0.975968503937008
 30
0.0
 10
1.6431929133858267
 20
-0.975968503937008
 30
0.0
 10
1.637724409448819
 20
-0.9743700787401575
 30
0.0
 10
1.637724409448819
 20
-0.9743700787401575
 30
0.0
 10
1.637724409448819
 20
-0.9743700787401575
 30
0.0
 10
1.637724409448819
 20
-0.9743700787401575
 30
0.0
 10
1.6321889763779529
 20
-0.9725708661417323
 30
0.0
 10
1.6321889763779529
 20
-0.9725708661417323
 30
0.0
 10
1.6321889763779529
 20
-0.9725708661417323
 30
0.0
 10
1.6321889763779529
 20
-0.9725708661417323
 30
0.0
 10
0.9806850393700788
 20
-1.3536732283464568
 30
0.0
 10
0.9806850393700788
 20
-1.3536732283464568
 30
0.0
 10
0.9806850393700788
 20
-1.3536732283464568
 30
0.0
 10
0.9806850393700788
 20
-1.3536732283464568
 30
0.0
 10
0.9862204724409449
 20
-1.355472440944882
 30
0.0
 10
0.9862204724409449
 20
-1.355472440944882
 30
0.0
 10
0.9862204724409449
 20
-1.355472440944882
 30
0.0
 10
0.9862204724409449
 20
-1.355472440944882
 30
0.0
 10
0.9916889763779528
 20
-1.3570708661417323
 30
0.0
 10
0.9916889763779528
 20
-1.3570708661417323
 30
0.0
 10
0.9916889763779528
 20
-1.3570708661417323
 30
0.0
 10
0.9916889763779528
 20
-1.3570708661417323
 30
0.0
 10
0.9970787401574803
 20
-1.358503937007874
 30
0.0
 10
0.9970787401574803
 20
-1.358503937007874
 30
0.0
 10
0.9970787401574803
 20
-1.358503937007874
 30
0.0
 10
0.9970787401574803
 20
-1.358503937007874
 30
0.0
 10
1.0023582677165355
 20
-1.3597952755905511
 30
0.0
 10
1.0023582677165355
 20
-1.3597952755905511
 30
0.0
 10
1.0023582677165355
 20
-1.3597952755905511
 30
0.0
 10
1.0023582677165355
 20
-1.3597952755905511
 30
0.0
 10
1.0075196850393702
 20
-1.3609685039370079
 30
0.0
 10
1.0075196850393702
 20
-1.3609685039370079
 30
0.0
 10
1.0075196850393702
 20
-1.3609685039370079
 30
0.0
 10
1.0075196850393702
 20
-1.3609685039370079
 30
0.0
 10
1.0125236220472442
 20
-1.3620472440944882
 30
0.0
 10
1.0125236220472442
 20
-1.3620472440944882
 30
0.0
 10
1.0125236220472442
 20
-1.3620472440944882
 30
0.0
 10
1.0125236220472442
 20
-1.3620472440944882
 30
0.0
 10
1.0173622047244095
 20
-1.3630590551181103
 30
0.0
 10
1.0173622047244095
 20
-1.3630590551181103
 30
0.0
 10
1.0173622047244095
 20
-1.3630590551181103
 30
0.0
 10
1.0173622047244095
 20
-1.3630590551181103
 30
0.0
 10
1.022003937007874
 20
-1.3640314960629922
 30
0.0
 10
1.022003937007874
 20
-1.3640314960629922
 30
0.0
 10
1.022003937007874
 20
-1.3640314960629922
 30
0.0
 10
1.022003937007874
 20
-1.3640314960629922
 30
0.0
 10
1.0264370078740157
 20
-1.3649960629921261
 30
0.0
 10
1.0264370078740157
 20
-1.3649960629921261
 30
0.0
  0
SPLINE
  5
2D
100
AcDbEntity
  8
Layer 1
 62
   253
100
AcDbSpline
210
0.0
220
0.0
230
1.0
 70
     1
 71
     3
 72
    68
 73
    64
 74
     0
 42
0.0000000001
 43
0.0000000001
 40
0.0
 40
0.0
 40
0.0
 40
0.0
 40
0.0625
 40
0.0625
 40
0.0625
 40
0.0625
 40
0.125
 40
0.125
 40
0.125
 40
0.125
 40
0.1875
 40
0.1875
 40
0.1875
 40
0.1875
 40
0.25
 40
0.25
 40
0.25
 40
0.25
 40
0.3125
 40
0.3125
 40
0.3125
 40
0.3125
 40
0.375
 40
0.375
 40
0.375
 40
0.375
 40
0.4375
 40
0.4375
 40
0.4375
 40
0.4375
 40
0.5
 40
0.5
 40
0.5
 40
0.5
 40
0.5625
 40
0.5625
 40
0.5625
 40
0.5625
 40
0.625
 40
0.625
 40
0.625
 40
0.625
 40
0.6875
 40
0.6875
 40
0.6875
 40
0.6875
 40
0.75
 40
0.75
 40
0.75
 40
0.75
 40
0.8125
 40
0.8125
 40
0.8125
 40
0.8125
 40
0.875
 40
0.875
 40
0.875
 40
0.875
 40
0.9375
 40
0.9375
 40
0.9375
 40
0.9375
 40
1.0
 40
1.0
 40
1.0
 40
1.0
 10
0.9806850393700788
 20
-1.3536732283464568
 30
0.0
 10
0.9806850393700788
 20
-1.3536732283464568
 30
0.0
 10
1.6321889763779529
 20
-0.9725708661417323
 30
0.0
 10
1.6321889763779529
 20
-0.9725708661417323
 30
0.0
 10
1.6321889763779529
 20
-0.9725708661417323
 30
0.0
 10
1.6321889763779529
 20
-0.9725708661417323
 30
0.0
 10
1.6266220472440946
 20
-0.9705551181102362
 30
0.0
 10
1.6266220472440946
 20
-0.9705551181102362
 30
0.0
 10
1.6266220472440946
 20
-0.9705551181102362
 30
0.0
 10
1.6266220472440946
 20
-0.9705551181102362
 30
0.0
 10
1.6210354330708663
 20
-0.9682874015748032
 30
0.0
 10
1.6210354330708663
 20
-0.9682874015748032
 30
0.0
 10
1.6210354330708663
 20
-0.9682874015748032
 30
0.0
 10
1.6210354330708663
 20
-0.9682874015748032
 30
0.0
 10
1.6154645669291339
 20
-0.9657598425196851
 30
0.0
 10
1.6154645669291339
 20
-0.9657598425196851
 30
0.0
 10
1.6154645669291339
 20
-0.9657598425196851
 30
0.0
 10
1.6154645669291339
 20
-0.9657598425196851
 30
0.0
 10
1.6099133858267718
 20
-0.9629251968503937
 30
0.0
 10
1.6099133858267718
 20
-0.9629251968503937
 30
0.0
 10
1.6099133858267718
 20
-0.9629251968503937
 30
0.0
 10
1.6099133858267718
 20
-0.9629251968503937
 30
0.0
 10
1.6044212598425198
 20
-0.9597755905511811
 30
0.0
 10
1.6044212598425198
 20
-0.9597755905511811
 30
0.0
 10
1.6044212598425198
 20
-0.9597755905511811
 30
0.0
 10
1.6044212598425198
 20
-0.9597755905511811
 30
0.0
 10
1.5990039370078741
 20
-0.9562755905511812
 30
0.0
 10
1.5990039370078741
 20
-0.9562755905511812
 30
0.0
 10
1.5990039370078741
 20
-0.9562755905511812
 30
0.0
 10
1.5990039370078741
 20
-0.9562755905511812
 30
0.0
 10
1.5936850393700788
 20
-0.9524055118110236
 30
0.0
 10
1.5936850393700788
 20
-0.9524055118110236
 30
0.0
 10
1.5936850393700788
 20
-0.9524055118110236
 30
0.0
 10
1.5936850393700788
 20
-0.9524055118110236
 30
0.0
 10
0.9421811023622048
 20
-1.333507874015748
 30
0.0
 10
0.9421811023622048
 20
-1.333507874015748
 30
0.0
 10
0.9421811023622048
 20
-1.333507874015748
 30
0.0
 10
0.9421811023622048
 20
-1.333507874015748
 30
0.0
 10
0.9475
 20
-1.3373779527559055
 30
0.0
 10
0.9475
 20
-1.3373779527559055
 30
0.0
 10
0.9475
 20
-1.3373779527559055
 30
0.0
 10
0.9475
 20
-1.3373779527559055
 30
0.0
 10
0.9529173228346457
 20
-1.3408779527559056
 30
0.0
 10
0.9529173228346457
 20
-1.3408779527559056
 30
0.0
 10
0.9529173228346457
 20
-1.3408779527559056
 30
0.0
 10
0.9529173228346457
 20
-1.3408779527559056
 30
0.0
 10
0.9584094488188977
 20
-1.3440275590551181
 30
0.0
 10
0.9584094488188977
 20
-1.3440275590551181
 30
0.0
 10
0.9584094488188977
 20
-1.3440275590551181
 30
0.0
 10
0.9584094488188977
 20
-1.3440275590551181
 30
0.0
 10
0.9639606299212599
 20
-1.3468622047244094
 30
0.0
 10
0.9639606299212599
 20
-1.3468622047244094
 30
0.0
 10
0.9639606299212599
 20
-1.3468622047244094
 30
0.0
 10
0.9639606299212599
 20
-1.3468622047244094
 30
0.0
 10
0.9695314960629922
 20
-1.3493897637795276
 30
0.0
 10
0.9695314960629922
 20
-1.3493897637795276
 30
0.0
 10
0.9695314960629922
 20
-1.3493897637795276
 30
0.0
 10
0.9695314960629922
 20
-1.3493897637795276
 30
0.0
 10
0.9751181102362205
 20
-1.3516574803149606
 30
0.0
 10
0.9751181102362205
 20
-1.3516574803149606
 30
0.0
 10
0.9751181102362205
 20
-1.3516574803149606
 30
0.0
 10
0.9751181102362205
 20
-1.3516574803149606
 30
0.0
 10
0.9806850393700788
 20
-1.3536732283464568
 30
0.0
 10
0.9806850393700788
 20
-1.3536732283464568
 30
0.0
  0
SPLINE
  5
2E
100
AcDbEntity
  8
Layer 1
 62
     9
100
AcDbSpline
210
0.0
220
0.0
230
1.0
 70
     1
 71
     3
 72
    60
 73
    56
 74
     0
 42
0.0000000001
 43
0.0000000001
 40
0.0
 40
0.0
 40
0.0
 40
0.0
 40
0.0714285714285714
 40
0.0714285714285714
 40
0.0714285714285714
 40
0.0714285714285714
 40
0.1428571428571429
 40
0.1428571428571429
 40
0.1428571428571429
 40
0.1428571428571429
 40
0.2142857142857143
 40
0.2142857142857143
 40
0.2142857142857143
 40
0.2142857142857143
 40
0.2857142857142857
 40
0.2857142857142857
 40
0.2857142857142857
 40
0.2857142857142857
 40
0.3571428571428571
 40
0.3571428571428571
 40
0.3571428571428571
 40
0.3571428571428571
 40
0.4285714285714285
 40
0.4285714285714285
 40
0.4285714285714285
 40
0.4285714285714285
 40
0.4999999999999999
 40
0.4999999999999999
 40
0.4999999999999999
 40
0.4999999999999999
 40
0.5714285714285713
 40
0.5714285714285713
 40
0.5714285714285713
 40
0.5714285714285713
 40
0.6428571428571427
 40
0.6428571428571427
 40
0.6428571428571427
 40
0.6428571428571427
 40
0.7142857142857141
 40
0.7142857142857141
 40
0.7142857142857141
 40
0.7142857142857141
 40
0.7857142857142855
 40
0.7857142857142855
 40
0.7857142857142855
 40
0.7857142857142855
 40
0.8571428571428569
 40
0.8571428571428569
 40
0.8571428571428569
 40
0.8571428571428569
 40
0.9285714285714283
 40
0.9285714285714283
 40
0.9285714285714283
 40
0.9285714285714283
 40
1.0
 40
1.0
 40
1.0
 40
1.0
 10
0.9421811023622048
 20
-1.333507874015748
 30
0.0
 10
0.9421811023622048
 20
-1.333507874015748
 30
0.0
 10
1.5936850393700788
 20
-0.9524055118110236
 30
0.0
 10
1.5936850393700788
 20
-0.9524055118110236
 30
0.0
 10
1.5936850393700788
 20
-0.9524055118110236
 30
0.0
 10
1.5936850393700788
 20
-0.9524055118110236
 30
0.0
 10
1.5884803149606299
 20
-0.9481259842519686
 30
0.0
 10
1.5884803149606299
 20
-0.9481259842519686
 30
0.0
 10
1.5884803149606299
 20
-0.9481259842519686
 30
0.0
 10
1.5884803149606299
 20
-0.9481259842519686
 30
0.0
 10
1.5834173228346458
 20
-0.9434330708661418
 30
0.0
 10
1.5834173228346458
 20
-0.9434330708661418
 30
0.0
 10
1.5834173228346458
 20
-0.9434330708661418
 30
0.0
 10
1.5834173228346458
 20
-0.9434330708661418
 30
0.0
 10
1.5785196850393701
 20
-0.9382795275590552
 30
0.0
 10
1.5785196850393701
 20
-0.9382795275590552
 30
0.0
 10
1.5785196850393701
 20
-0.9382795275590552
 30
0.0
 10
1.5785196850393701
 20
-0.9382795275590552
 30
0.0
 10
1.5738149606299212
 20
-0.9326614173228347
 30
0.0
 10
1.5738149606299212
 20
-0.9326614173228347
 30
0.0
 10
1.5738149606299212
 20
-0.9326614173228347
 30
0.0
 10
1.5738149606299212
 20
-0.9326614173228347
 30
0.0
 10
1.5693110236220473
 20
-0.9265314960629921
 30
0.0
 10
1.5693110236220473
 20
-0.9265314960629921
 30
0.0
 10
1.5693110236220473
 20
-0.9265314960629921
 30
0.0
 10
1.5693110236220473
 20
-0.9265314960629921
 30
0.0
 10
1.5650472440944883
 20
-0.9198858267716535
 30
0.0
 10
1.5650472440944883
 20
-0.9198858267716535
 30
0.0
 10
1.5650472440944883
 20
-0.9198858267716535
 30
0.0
 10
1.5650472440944883
 20
-0.9198858267716535
 30
0.0
 10
0.9135433070866142
 20
-1.3009881889763779
 30
0.0
 10
0.9135433070866142
 20
-1.3009881889763779
 30
0.0
 10
0.9135433070866142
 20
-1.3009881889763779
 30
0.0
 10
0.9135433070866142
 20
-1.3009881889763779
 30
0.0
 10
0.9178070866141733
 20
-1.3076338582677165
 30
0.0
 10
0.9178070866141733
 20
-1.3076338582677165
 30
0.0
 10
0.9178070866141733
 20
-1.3076338582677165
 30
0.0
 10
0.9178070866141733
 20
-1.3076338582677165
 30
0.0
 10
0.9223110236220473
 20
-1.3137637795275592
 30
0.0
 10
0.9223110236220473
 20
-1.3137637795275592
 30
0.0
 10
0.9223110236220473
 20
-1.3137637795275592
 30
0.0
 10
0.9223110236220473
 20
-1.3137637795275592
 30
0.0
 10
0.9270157480314961
 20
-1.3193818897637797
 30
0.0
 10
0.9270157480314961
 20
-1.3193818897637797
 30
0.0
 10
0.9270157480314961
 20
-1.3193818897637797
 30
0.0
 10
0.9270157480314961
 20
-1.3193818897637797
 30
0.0
 10
0.9319133858267716
 20
-1.3245354330708663
 30
0.0
 10
0.9319133858267716
 20
-1.3245354330708663
 30
0.0
 10
0.9319133858267716
 20
-1.3245354330708663
 30
0.0
 10
0.9319133858267716
 20
-1.3245354330708663
 30
0.0
 10
0.9369763779527559
 20
-1.329228346456693
 30
0.0
 10
0.9369763779527559
 20
-1.329228346456693
 30
0.0
 10
0.9369763779527559
 20
-1.329228346456693
 30
0.0
 10
0.9369763779527559
 20
-1.329228346456693
 30
0.0
 10
0.9421811023622048
 20
-1.333507874015748
 30
0.0
 10
0.9421811023622048
 20
-1.333507874015748
 30
0.0
  0
SPLINE
  5
2F
100
AcDbEntity
  8
Layer 1
 62
     9
100
AcDbSpline
210
0.0
220
0.0
230
1.0
 70
     1
 71
     3
 72
    52
 73
    48
 74
     0
 42
0.0000000001
 43
0.0000000001
 40
0.0
 40
0.0
 40
0.0
 40
0.0
 40
0.0833333333333333
 40
0.0833333333333333
 40
0.0833333333333333
 40
0.0833333333333333
 40
0.1666666666666667
 40
0.1666666666666667
 40
0.1666666666666667
 40
0.1666666666666667
 40
0.25
 40
0.25
 40
0.25
 40
0.25
 40
0.3333333333333333
 40
0.3333333333333333
 40
0.3333333333333333
 40
0.3333333333333333
 40
0.4166666666666666
 40
0.4166666666666666
 40
0.4166666666666666
 40
0.4166666666666666
 40
0.4999999999999999
 40
0.4999999999999999
 40
0.4999999999999999
 40
0.4999999999999999
 40
0.5833333333333333
 40
0.5833333333333333
 40
0.5833333333333333
 40
0.5833333333333333
 40
0.6666666666666666
 40
0.6666666666666666
 40
0.6666666666666666
 40
0.6666666666666666
 40
0.75
 40
0.75
 40
0.75
 40
0.75
 40
0.8333333333333334
 40
0.8333333333333334
 40
0.8333333333333334
 40
0.8333333333333334
 40
0.9166666666666667
 40
0.9166666666666667
 40
0.9166666666666667
 40
0.9166666666666667
 40
1.0
 40
1.0
 40
1.0
 40
1.0
 10
0.9135433070866142
 20
-1.3009881889763779
 30
0.0
 10
0.9135433070866142
 20
-1.3009881889763779
 30
0.0
 10
1.5650472440944883
 20
-0.9198858267716535
 30
0.0
 10
1.5650472440944883
 20
-0.9198858267716535
 30
0.0
 10
1.5650472440944883
 20
-0.9198858267716535
 30
0.0
 10
1.5650472440944883
 20
-0.9198858267716535
 30
0.0
 10
1.5610354330708662
 20
-0.9126811023622048
 30
0.0
 10
1.5610354330708662
 20
-0.9126811023622048
 30
0.0
 10
1.5610354330708662
 20
-0.9126811023622048
 30
0.0
 10
1.5610354330708662
 20
-0.9126811023622048
 30
0.0
 10
1.5573031496062992
 20
-0.9049055118110236
 30
0.0
 10
1.5573031496062992
 20
-0.9049055118110236
 30
0.0
 10
1.5573031496062992
 20
-0.9049055118110236
 30
0.0
 10
1.5573031496062992
 20
-0.9049055118110236
 30
0.0
 10
1.5538622047244095
 20
-0.8965196850393701
 30
0.0
 10
1.5538622047244095
 20
-0.8965196850393701
 30
0.0
 10
1.5538622047244095
 20
-0.8965196850393701
 30
0.0
 10
1.5538622047244095
 20
-0.8965196850393701
 30
0.0
 10
1.5507480314960631
 20
-0.887507874015748
 30
0.0
 10
1.5507480314960631
 20
-0.887507874015748
 30
0.0
 10
1.5507480314960631
 20
-0.887507874015748
 30
0.0
 10
1.5507480314960631
 20
-0.887507874015748
 30
0.0
 10
1.547976377952756
 20
-0.8778385826771654
 30
0.0
 10
1.547976377952756
 20
-0.8778385826771654
 30
0.0
 10
1.547976377952756
 20
-0.8778385826771654
 30
0.0
 10
1.547976377952756
 20
-0.8778385826771654
 30
0.0
 10
0.8964724409448819
 20
-1.2589409448818898
 30
0.0
 10
0.8964724409448819
 20
-1.2589409448818898
 30
0.0
 10
0.8964724409448819
 20
-1.2589409448818898
 30
0.0
 10
0.8964724409448819
 20
-1.2589409448818898
 30
0.0
 10
0.899244094488189
 20
-1.2686102362204725
 30
0.0
 10
0.899244094488189
 20
-1.2686102362204725
 30
0.0
 10
0.899244094488189
 20
-1.2686102362204725
 30
0.0
 10
0.899244094488189
 20
-1.2686102362204725
 30
0.0
 10
0.9023582677165355
 20
-1.2776220472440944
 30
0.0
 10
0.9023582677165355
 20
-1.2776220472440944
 30
0.0
 10
0.9023582677165355
 20
-1.2776220472440944
 30
0.0
 10
0.9023582677165355
 20
-1.2776220472440944
 30
0.0
 10
0.9057992125984252
 20
-1.2860078740157481
 30
0.0
 10
0.9057992125984252
 20
-1.2860078740157481
 30
0.0
 10
0.9057992125984252
 20
-1.2860078740157481
 30
0.0
 10
0.9057992125984252
 20
-1.2860078740157481
 30
0.0
 10
0.9095314960629921
 20
-1.2937834645669293
 30
0.0
 10
0.9095314960629921
 20
-1.2937834645669293
 30
0.0
 10
0.9095314960629921
 20
-1.2937834645669293
 30
0.0
 10
0.9095314960629921
 20
-1.2937834645669293
 30
0.0
 10
0.9135433070866142
 20
-1.3009881889763779
 30
0.0
 10
0.9135433070866142
 20
-1.3009881889763779
 30
0.0
  0
SPLINE
  5
30
100
AcDbEntity
  8
Layer 1
 62
     9
100
AcDbSpline
210
0.0
220
0.0
230
1.0
 70
     1
 71
     3
 72
    44
 73
    40
 74
     0
 42
0.0000000001
 43
0.0000000001
 40
0.0
 40
0.0
 40
0.0
 40
0.0
 40
0.1
 40
0.1
 40
0.1
 40
0.1
 40
0.2
 40
0.2
 40
0.2
 40
0.2
 40
0.3
 40
0.3
 40
0.3
 40
0.3
 40
0.4
 40
0.4
 40
0.4
 40
0.4
 40
0.5
 40
0.5
 40
0.5
 40
0.5
 40
0.6
 40
0.6
 40
0.6
 40
0.6
 40
0.7
 40
0.7
 40
0.7
 40
0.7
 40
0.7999999999999999
 40
0.7999999999999999
 40
0.7999999999999999
 40
0.7999999999999999
 40
0.8999999999999999
 40
0.8999999999999999
 40
0.8999999999999999
 40
0.8999999999999999
 40
1.0
 40
1.0
 40
1.0
 40
1.0
 10
0.8964724409448819
 20
-1.2589409448818898
 30
0.0
 10
0.8964724409448819
 20
-1.2589409448818898
 30
0.0
 10
1.547976377952756
 20
-0.8778385826771654
 30
0.0
 10
1.547976377952756
 20
-0.8778385826771654
 30
0.0
 10
1.547976377952756
 20
-0.8778385826771654
 30
0.0
 10
1.547976377952756
 20
-0.8778385826771654
 30
0.0
 10
1.5455748031496064
 20
-0.867492125984252
 30
0.0
 10
1.5455748031496064
 20
-0.867492125984252
 30
0.0
 10
1.5455748031496064
 20
-0.867492125984252
 30
0.0
 10
1.5455748031496064
 20
-0.867492125984252
 30
0.0
 10
1.5435551181102363
 20
-0.8564330708661417
 30
0.0
 10
1.5435551181102363
 20
-0.8564330708661417
 30
0.0
 10
1.5435551181102363
 20
-0.8564330708661417
 30
0.0
 10
1.5435551181102363
 20
-0.8564330708661417
 30
0.0
 10
1.5419566929133859
 20
-0.8446535433070866
 30
0.0
 10
1.5419566929133859
 20
-0.8446535433070866
 30
0.0
 10
1.5419566929133859
 20
-0.8446535433070866
 30
0.0
 10
1.5419566929133859
 20
-0.8446535433070866
 30
0.0
 10
1.5407874015748033
 20
-0.8321102362204724
 30
0.0
 10
1.5407874015748033
 20
-0.8321102362204724
 30
0.0
 10
1.5407874015748033
 20
-0.8321102362204724
 30
0.0
 10
1.5407874015748033
 20
-0.8321102362204724
 30
0.0
 10
0.8892834645669292
 20
-1.2132125984251969
 30
0.0
 10
0.8892834645669292
 20
-1.2132125984251969
 30
0.0
 10
0.8892834645669292
 20
-1.2132125984251969
 30
0.0
 10
0.8892834645669292
 20
-1.2132125984251969
 30
0.0
 10
0.8904527559055119
 20
-1.225755905511811
 30
0.0
 10
0.8904527559055119
 20
-1.225755905511811
 30
0.0
 10
0.8904527559055119
 20
-1.225755905511811
 30
0.0
 10
0.8904527559055119
 20
-1.225755905511811
 30
0.0
 10
0.8920511811023623
 20
-1.2375354330708661
 30
0.0
 10
0.8920511811023623
 20
-1.2375354330708661
 30
0.0
 10
0.8920511811023623
 20
-1.2375354330708661
 30
0.0
 10
0.8920511811023623
 20
-1.2375354330708661
 30
0.0
 10
0.8940708661417324
 20
-1.2485944881889763
 30
0.0
 10
0.8940708661417324
 20
-1.2485944881889763
 30
0.0
 10
0.8940708661417324
 20
-1.2485944881889763
 30
0.0
 10
0.8940708661417324
 20
-1.2485944881889763
 30
0.0
 10
0.8964724409448819
 20
-1.2589409448818898
 30
0.0
 10
0.8964724409448819
 20
-1.2589409448818898
 30
0.0
  0
SPLINE
  5
31
100
AcDbEntity
  8
Layer 1
 62
     9
100
AcDbSpline
210
0.0
220
0.0
230
1.0
 70
     1
 71
     3
 72
    20
 73
    16
 74
     0
 42
0.0000000001
 43
0.0000000001
 40
0.0
 40
0.0
 40
0.0
 40
0.0
 40
0.25
 40
0.25
 40
0.25
 40
0.25
 40
0.5
 40
0.5
 40
0.5
 40
0.5
 40
0.75
 40
0.75
 40
0.75
 40
0.75
 40
1.0
 40
1.0
 40
1.0
 40
1.0
 10
0.8892834645669292
 20
-1.2132125984251969
 30
0.0
 10
0.8892834645669292
 20
-1.2132125984251969
 30
0.0
 10
1.5407874015748033
 20
-0.8321102362204724
 30
0.0
 10
1.5407874015748033
 20
-0.8321102362204724
 30
0.0
 10
1.5407874015748033
 20
-0.8321102362204724
 30
0.0
 10
1.5407874015748033
 20
-0.8321102362204724
 30
0.0
 10
1.5400748031496063
 20
-0.8187952755905512
 30
0.0
 10
1.5400748031496063
 20
-0.8187952755905512
 30
0.0
 10
1.5400748031496063
 20
-0.8187952755905512
 30
0.0
 10
1.5400748031496063
 20
-0.8187952755905512
 30
0.0
 10
0.8885708661417323
 20
-1.1998976377952757
 30
0.0
 10
0.8885708661417323
 20
-1.1998976377952757
 30
0.0
 10
0.8885708661417323
 20
-1.1998976377952757
 30
0.0
 10
0.8885708661417323
 20
-1.1998976377952757
 30
0.0
 10
0.8892834645669292
 20
-1.2132125984251969
 30
0.0
 10
0.8892834645669292
 20
-1.2132125984251969
 30
0.0
  0
SPLINE
  5
32
100
AcDbEntity
  8
Layer 1
370
     5
100
AcDbSpline
210
0.0
220
0.0
230
1.0
 70
     1
 71
     3
 72
   268
 73
   264
 74
     0
 42
0.0000000001
 43
0.0000000001
 40
0.0
 40
0.0
 40
0.0
 40
0.0
 40
0.0151515151515152
 40
0.0151515151515152
 40
0.0151515151515152
 40
0.0151515151515152
 40
0.0303030303030303
 40
0.0303030303030303
 40
0.0303030303030303
 40
0.0303030303030303
 40
0.0454545454545455
 40
0.0454545454545455
 40
0.0454545454545455
 40
0.0454545454545455
 40
0.0606060606060606
 40
0.0606060606060606
 40
0.0606060606060606
 40
0.0606060606060606
 40
0.0757575757575758
 40
0.0757575757575758
 40
0.0757575757575758
 40
0.0757575757575758
 40
0.0909090909090909
 40
0.0909090909090909
 40
0.0909090909090909
 40
0.0909090909090909
 40
0.1060606060606061
 40
0.1060606060606061
 40
0.1060606060606061
 40
0.1060606060606061
 40
0.1212121212121212
 40
0.1212121212121212
 40
0.1212121212121212
 40
0.1212121212121212
 40
0.1363636363636364
 40
0.1363636363636364
 40
0.1363636363636364
 40
0.1363636363636364
 40
0.1515151515151515
 40
0.1515151515151515
 40
0.1515151515151515
 40
0.1515151515151515
 40
0.1666666666666666
 40
0.1666666666666666
 40
0.1666666666666666
 40
0.1666666666666666
 40
0.1818181818181818
 40
0.1818181818181818
 40
0.1818181818181818
 40
0.1818181818181818
 40
0.1969696969696969
 40
0.1969696969696969
 40
0.1969696969696969
 40
0.1969696969696969
 40
0.212121212121212
 40
0.212121212121212
 40
0.212121212121212
 40
0.212121212121212
 40
0.2272727272727272
 40
0.2272727272727272
 40
0.2272727272727272
 40
0.2272727272727272
 40
0.2424242424242423
 40
0.2424242424242423
 40
0.2424242424242423
 40
0.2424242424242423
 40
0.2575757575757575
 40
0.2575757575757575
 40
0.2575757575757575
 40
0.2575757575757575
 40
0.2727272727272726
 40
0.2727272727272726
 40
0.2727272727272726
 40
0.2727272727272726
 40
0.2878787878787877
 40
0.2878787878787877
 40
0.2878787878787877
 40
0.2878787878787877
 40
0.3030303030303029
 40
0.3030303030303029
 40
0.3030303030303029
 40
0.3030303030303029
 40
0.318181818181818
 40
0.318181818181818
 40
0.318181818181818
 40
0.318181818181818
 40
0.3333333333333332
 40
0.3333333333333332
 40
0.3333333333333332
 40
0.3333333333333332
 40
0.3484848484848483
 40
0.3484848484848483
 40
0.3484848484848483
 40
0.3484848484848483
 40
0.3636363636363634
 40
0.3636363636363634
 40
0.3636363636363634
 40
0.3636363636363634
 40
0.3787878787878786
 40
0.3787878787878786
 40
0.3787878787878786
 40
0.3787878787878786
 40
0.3939393939393937
 40
0.3939393939393937
 40
0.3939393939393937
 40
0.3939393939393937
 40
0.4090909090909088
 40
0.4090909090909088
 40
0.4090909090909088
 40
0.4090909090909088
 40
0.424242424242424
 40
0.424242424242424
 40
0.424242424242424
 40
0.424242424242424
 40
0.4393939393939391
 40
0.4393939393939391
 40
0.4393939393939391
 40
0.4393939393939391
 40
0.4545454545454543
 40
0.4545454545454543
 40
0.4545454545454543
 40
0.4545454545454543
 40
0.4696969696969694
 40
0.4696969696969694
 40
0.4696969696969694
 40
0.4696969696969694
 40
0.4848484848484845
 40
0.4848484848484845
 40
0.4848484848484845
 40
0.4848484848484845
 40
0.4999999999999997
 40
0.4999999999999997
 40
0.4999999999999997
 40
0.4999999999999997
 40
0.5151515151515148
 40
0.5151515151515148
 40
0.5151515151515148
 40
0.5151515151515148
 40
0.5303030303030299
 40
0.5303030303030299
 40
0.5303030303030299
 40
0.5303030303030299
 40
0.5454545454545451
 40
0.5454545454545451
 40
0.5454545454545451
 40
0.5454545454545451
 40
0.5606060606060602
 40
0.5606060606060602
 40
0.5606060606060602
 40
0.5606060606060602
 40
0.5757575757575754
 40
0.5757575757575754
 40
0.5757575757575754
 40
0.5757575757575754
 40
0.5909090909090905
 40
0.5909090909090905
 40
0.5909090909090905
 40
0.5909090909090905
 40
0.6060606060606056
 40
0.6060606060606056
 40
0.6060606060606056
 40
0.6060606060606056
 40
0.6212121212121208
 40
0.6212121212121208
 40
0.6212121212121208
 40
0.6212121212121208
 40
0.6363636363636359
 40
0.6363636363636359
 40
0.6363636363636359
 40
0.6363636363636359
 40
0.6515151515151511
 40
0.6515151515151511
 40
0.6515151515151511
 40
0.6515151515151511
 40
0.6666666666666662
 40
0.6666666666666662
 40
0.6666666666666662
 40
0.6666666666666662
 40
0.6818181818181813
 40
0.6818181818181813
 40
0.6818181818181813
 40
0.6818181818181813
 40
0.6969696969696965
 40
0.6969696969696965
 40
0.6969696969696965
 40
0.6969696969696965
 40
0.7121212121212116
 40
0.7121212121212116
 40
0.7121212121212116
 40
0.7121212121212116
 40
0.7272727272727267
 40
0.7272727272727267
 40
0.7272727272727267
 40
0.7272727272727267
 40
0.7424242424242419
 40
0.7424242424242419
 40
0.7424242424242419
 40
0.7424242424242419
 40
0.757575757575757
 40
0.757575757575757
 40
0.757575757575757
 40
0.757575757575757
 40
0.7727272727272722
 40
0.7727272727272722
 40
0.7727272727272722
 40
0.7727272727272722
 40
0.7878787878787873
 40
0.7878787878787873
 40
0.7878787878787873
 40
0.7878787878787873
 40
0.8030303030303024
 40
0.8030303030303024
 40
0.8030303030303024
 40
0.8030303030303024
 40
0.8181818181818176
 40
0.8181818181818176
 40
0.8181818181818176
 40
0.8181818181818176
 40
0.8333333333333327
 40
0.8333333333333327
 40
0.8333333333333327
 40
0.8333333333333327
 40
0.8484848484848478
 40
0.8484848484848478
 40
0.8484848484848478
 40
0.8484848484848478
 40
0.863636363636363
 40
0.863636363636363
 40
0.863636363636363
 40
0.863636363636363
 40
0.8787878787878781
 40
0.8787878787878781
 40
0.8787878787878781
 40
0.8787878787878781
 40
0.8939393939393933
 40
0.8939393939393933
 40
0.8939393939393933
 40
0.8939393939393933
 40
0.9090909090909084
 40
0.9090909090909084
 40
0.9090909090909084
 40
0.9090909090909084
 40
0.9242424242424235
 40
0.9242424242424235
 40
0.9242424242424235
 40
0.9242424242424235
 40
0.9393939393939387
 40
0.9393939393939387
 40
0.9393939393939387
 40
0.9393939393939387
 40
0.9545454545454538
 40
0.9545454545454538
 40
0.9545454545454538
 40
0.9545454545454538
 40
0.969696969696969
 40
0.969696969696969
 40
0.969696969696969
 40
0.969696969696969
 40
0.9848484848484841
 40
0.9848484848484841
 40
0.9848484848484841
 40
0.9848484848484841
 40
1.0
 40
1.0
 40
1.0
 40
1.0
 10
1.0264370078740157
 20
-1.3649960629921261
 30
0.0
 10
1.0264370078740157
 20
-1.3649960629921261
 30
0.0
 10
1.6779409448818898
 20
-0.9838937007874016
 30
0.0
 10
1.6779409448818898
 20
-0.9838937007874016
 30
0.0
 10
1.6779409448818898
 20
-0.9838937007874016
 30
0.0
 10
1.6779409448818898
 20
-0.9838937007874016
 30
0.0
 10
1.6735078740157481
 20
-0.9829291338582678
 30
0.0
 10
1.6735078740157481
 20
-0.9829291338582678
 30
0.0
 10
1.6735078740157481
 20
-0.9829291338582678
 30
0.0
 10
1.6735078740157481
 20
-0.9829291338582678
 30
0.0
 10
1.6688661417322834
 20
-0.9819566929133858
 30
0.0
 10
1.6688661417322834
 20
-0.9819566929133858
 30
0.0
 10
1.6688661417322834
 20
-0.9819566929133858
 30
0.0
 10
1.6688661417322834
 20
-0.9819566929133858
 30
0.0
 10
1.6640275590551181
 20
-0.9809448818897638
 30
0.0
 10
1.6640275590551181
 20
-0.9809448818897638
 30
0.0
 10
1.6640275590551181
 20
-0.9809448818897638
 30
0.0
 10
1.6640275590551181
 20
-0.9809448818897638
 30
0.0
 10
1.6590236220472441
 20
-0.9798661417322835
 30
0.0
 10
1.6590236220472441
 20
-0.9798661417322835
 30
0.0
 10
1.6590236220472441
 20
-0.9798661417322835
 30
0.0
 10
1.6590236220472441
 20
-0.9798661417322835
 30
0.0
 10
1.6538622047244096
 20
-0.9786929133858268
 30
0.0
 10
1.6538622047244096
 20
-0.9786929133858268
 30
0.0
 10
1.6538622047244096
 20
-0.9786929133858268
 30
0.0
 10
1.6538622047244096
 20
-0.9786929133858268
 30
0.0
 10
1.6485826771653544
 20
-0.9774015748031496
 30
0.0
 10
1.6485826771653544
 20
-0.9774015748031496
 30
0.0
 10
1.6485826771653544
 20
-0.9774015748031496
 30
0.0
 10
1.6485826771653544
 20
-0.9774015748031496
 30
0.0
 10
1.6431929133858267
 20
-0.975968503937008
 30
0.0
 10
1.6431929133858267
 20
-0.975968503937008
 30
0.0
 10
1.6431929133858267
 20
-0.975968503937008
 30
0.0
 10
1.6431929133858267
 20
-0.975968503937008
 30
0.0
 10
1.637724409448819
 20
-0.9743700787401575
 30
0.0
 10
1.637724409448819
 20
-0.9743700787401575
 30
0.0
 10
1.637724409448819
 20
-0.9743700787401575
 30
0.0
 10
1.637724409448819
 20
-0.9743700787401575
 30
0.0
 10
1.6321889763779529
 20
-0.9725708661417323
 30
0.0
 10
1.6321889763779529
 20
-0.9725708661417323
 30
0.0
 10
1.6321889763779529
 20
-0.9725708661417323
 30
0.0
 10
1.6321889763779529
 20
-0.9725708661417323
 30
0.0
 10
1.6266220472440946
 20
-0.9705551181102362
 30
0.0
 10
1.6266220472440946
 20
-0.9705551181102362
 30
0.0
 10
1.6266220472440946
 20
-0.9705551181102362
 30
0.0
 10
1.6266220472440946
 20
-0.9705551181102362
 30
0.0
 10
1.6210354330708663
 20
-0.9682874015748032
 30
0.0
 10
1.6210354330708663
 20
-0.9682874015748032
 30
0.0
 10
1.6210354330708663
 20
-0.9682874015748032
 30
0.0
 10
1.6210354330708663
 20
-0.9682874015748032
 30
0.0
 10
1.6154645669291339
 20
-0.9657598425196851
 30
0.0
 10
1.6154645669291339
 20
-0.9657598425196851
 30
0.0
 10
1.6154645669291339
 20
-0.9657598425196851
 30
0.0
 10
1.6154645669291339
 20
-0.9657598425196851
 30
0.0
 10
1.6099133858267718
 20
-0.9629251968503937
 30
0.0
 10
1.6099133858267718
 20
-0.9629251968503937
 30
0.0
 10
1.6099133858267718
 20
-0.9629251968503937
 30
0.0
 10
1.6099133858267718
 20
-0.9629251968503937
 30
0.0
 10
1.6044212598425198
 20
-0.9597755905511811
 30
0.0
 10
1.6044212598425198
 20
-0.9597755905511811
 30
0.0
 10
1.6044212598425198
 20
-0.9597755905511811
 30
0.0
 10
1.6044212598425198
 20
-0.9597755905511811
 30
0.0
 10
1.5990039370078741
 20
-0.9562755905511812
 30
0.0
 10
1.5990039370078741
 20
-0.9562755905511812
 30
0.0
 10
1.5990039370078741
 20
-0.9562755905511812
 30
0.0
 10
1.5990039370078741
 20
-0.9562755905511812
 30
0.0
 10
1.5936850393700788
 20
-0.9524055118110236
 30
0.0
 10
1.5936850393700788
 20
-0.9524055118110236
 30
0.0
 10
1.5936850393700788
 20
-0.9524055118110236
 30
0.0
 10
1.5936850393700788
 20
-0.9524055118110236
 30
0.0
 10
1.5884803149606299
 20
-0.9481259842519686
 30
0.0
 10
1.5884803149606299
 20
-0.9481259842519686
 30
0.0
 10
1.5884803149606299
 20
-0.9481259842519686
 30
0.0
 10
1.5884803149606299
 20
-0.9481259842519686
 30
0.0
 10
1.5834173228346458
 20
-0.9434330708661418
 30
0.0
 10
1.5834173228346458
 20
-0.9434330708661418
 30
0.0
 10
1.5834173228346458
 20
-0.9434330708661418
 30
0.0
 10
1.5834173228346458
 20
-0.9434330708661418
 30
0.0
 10
1.5785196850393701
 20
-0.9382795275590552
 30
0.0
 10
1.5785196850393701
 20
-0.9382795275590552
 30
0.0
 10
1.5785196850393701
 20
-0.9382795275590552
 30
0.0
 10
1.5785196850393701
 20
-0.9382795275590552
 30
0.0
 10
1.5738149606299212
 20
-0.9326614173228347
 30
0.0
 10
1.5738149606299212
 20
-0.9326614173228347
 30
0.0
 10
1.5738149606299212
 20
-0.9326614173228347
 30
0.0
 10
1.5738149606299212
 20
-0.9326614173228347
 30
0.0
 10
1.5693110236220473
 20
-0.9265314960629921
 30
0.0
 10
1.5693110236220473
 20
-0.9265314960629921
 30
0.0
 10
1.5693110236220473
 20
-0.9265314960629921
 30
0.0
 10
1.5693110236220473
 20
-0.9265314960629921
 30
0.0
 10
1.5650472440944883
 20
-0.9198858267716535
 30
0.0
 10
1.5650472440944883
 20
-0.9198858267716535
 30
0.0
 10
1.5650472440944883
 20
-0.9198858267716535
 30
0.0
 10
1.5650472440944883
 20
-0.9198858267716535
 30
0.0
 10
1.5610354330708662
 20
-0.9126811023622048
 30
0.0
 10
1.5610354330708662
 20
-0.9126811023622048
 30
0.0
 10
1.5610354330708662
 20
-0.9126811023622048
 30
0.0
 10
1.5610354330708662
 20
-0.9126811023622048
 30
0.0
 10
1.5573031496062992
 20
-0.9049055118110236
 30
0.0
 10
1.5573031496062992
 20
-0.9049055118110236
 30
0.0
 10
1.5573031496062992
 20
-0.9049055118110236
 30
0.0
 10
1.5573031496062992
 20
-0.9049055118110236
 30
0.0
 10
1.5538622047244095
 20
-0.8965196850393701
 30
0.0
 10
1.5538622047244095
 20
-0.8965196850393701
 30
0.0
 10
1.5538622047244095
 20
-0.8965196850393701
 30
0.0
 10
1.5538622047244095
 20
-0.8965196850393701
 30
0.0
 10
1.5507480314960631
 20
-0.887507874015748
 30
0.0
 10
1.5507480314960631
 20
-0.887507874015748
 30
0.0
 10
1.5507480314960631
 20
-0.887507874015748
 30
0.0
 10
1.5507480314960631
 20
-0.887507874015748
 30
0.0
 10
1.547976377952756
 20
-0.8778385826771654
 30
0.0
 10
1.547976377952756
 20
-0.8778385826771654
 30
0.0
 10
1.547976377952756
 20
-0.8778385826771654
 30
0.0
 10
1.547976377952756
 20
-0.8778385826771654
 30
0.0
 10
1.5455748031496064
 20
-0.867492125984252
 30
0.0
 10
1.5455748031496064
 20
-0.867492125984252
 30
0.0
 10
1.5455748031496064
 20
-0.867492125984252
 30
0.0
 10
1.5455748031496064
 20
-0.867492125984252
 30
0.0
 10
1.5435551181102363
 20
-0.8564330708661417
 30
0.0
 10
1.5435551181102363
 20
-0.8564330708661417
 30
0.0
 10
1.5435551181102363
 20
-0.8564330708661417
 30
0.0
 10
1.5435551181102363
 20
-0.8564330708661417
 30
0.0
 10
1.5419566929133859
 20
-0.8446535433070866
 30
0.0
 10
1.5419566929133859
 20
-0.8446535433070866
 30
0.0
 10
1.5419566929133859
 20
-0.8446535433070866
 30
0.0
 10
1.5419566929133859
 20
-0.8446535433070866
 30
0.0
 10
1.5407874015748033
 20
-0.8321102362204724
 30
0.0
 10
1.5407874015748033
 20
-0.8321102362204724
 30
0.0
 10
1.5407874015748033
 20
-0.8321102362204724
 30
0.0
 10
1.5407874015748033
 20
-0.8321102362204724
 30
0.0
 10
1.5400748031496063
 20
-0.8187952755905512
 30
0.0
 10
1.5400748031496063
 20
-0.8187952755905512
 30
0.0
 10
1.5400748031496063
 20
-0.8187952755905512
 30
0.0
 10
1.5400748031496063
 20
-0.8187952755905512
 30
0.0
 10
0.8885708661417323
 20
-1.1998976377952757
 30
0.0
 10
0.8885708661417323
 20
-1.1998976377952757
 30
0.0
 10
0.8885708661417323
 20
-1.1998976377952757
 30
0.0
 10
0.8885708661417323
 20
-1.1998976377952757
 30
0.0
 10
0.8892834645669292
 20
-1.2132125984251969
 30
0.0
 10
0.8892834645669292
 20
-1.2132125984251969
 30
0.0
 10
0.8892834645669292
 20
-1.2132125984251969
 30
0.0
 10
0.8892834645669292
 20
-1.2132125984251969
 30
0.0
 10
0.8904527559055119
 20
-1.225755905511811
 30
0.0
 10
0.8904527559055119
 20
-1.225755905511811
 30
0.0
 10
0.8904527559055119
 20
-1.225755905511811
 30
0.0
 10
0.8904527559055119
 20
-1.225755905511811
 30
0.0
 10
0.8920511811023623
 20
-1.2375354330708661
 30
0.0
 10
0.8920511811023623
 20
-1.2375354330708661
 30
0.0
 10
0.8920511811023623
 20
-1.2375354330708661
 30
0.0
 10
0.8920511811023623
 20
-1.2375354330708661
 30
0.0
 10
0.8940708661417324
 20
-1.2485944881889763
 30
0.0
 10
0.8940708661417324
 20
-1.2485944881889763
 30
0.0
 10
0.8940708661417324
 20
-1.2485944881889763
 30
0.0
 10
0.8940708661417324
 20
-1.2485944881889763
 30
0.0
 10
0.8964724409448819
 20
-1.2589409448818898
 30
0.0
 10
0.8964724409448819
 20
-1.2589409448818898
 30
0.0
 10
0.8964724409448819
 20
-1.2589409448818898
 30
0.0
 10
0.8964724409448819
 20
-1.2589409448818898
 30
0.0
 10
0.899244094488189
 20
-1.2686102362204725
 30
0.0
 10
0.899244094488189
 20
-1.2686102362204725
 30
0.0
 10
0.899244094488189
 20
-1.2686102362204725
 30
0.0
 10
0.899244094488189
 20
-1.2686102362204725
 30
0.0
 10
0.9023582677165355
 20
-1.2776220472440944
 30
0.0
 10
0.9023582677165355
 20
-1.2776220472440944
 30
0.0
 10
0.9023582677165355
 20
-1.2776220472440944
 30
0.0
 10
0.9023582677165355
 20
-1.2776220472440944
 30
0.0
 10
0.9057992125984252
 20
-1.2860078740157481
 30
0.0
 10
0.9057992125984252
 20
-1.2860078740157481
 30
0.0
 10
0.9057992125984252
 20
-1.2860078740157481
 30
0.0
 10
0.9057992125984252
 20
-1.2860078740157481
 30
0.0
 10
0.9095314960629921
 20
-1.2937834645669293
 30
0.0
 10
0.9095314960629921
 20
-1.2937834645669293
 30
0.0
 10
0.9095314960629921
 20
-1.2937834645669293
 30
0.0
 10
0.9095314960629921
 20
-1.2937834645669293
 30
0.0
 10
0.9135433070866142
 20
-1.3009881889763779
 30
0.0
 10
0.9135433070866142
 20
-1.3009881889763779
 30
0.0
 10
0.9135433070866142
 20
-1.3009881889763779
 30
0.0
 10
0.9135433070866142
 20
-1.3009881889763779
 30
0.0
 10
0.9178070866141733
 20
-1.3076338582677165
 30
0.0
 10
0.9178070866141733
 20
-1.3076338582677165
 30
0.0
 10
0.9178070866141733
 20
-1.3076338582677165
 30
0.0
 10
0.9178070866141733
 20
-1.3076338582677165
 30
0.0
 10
0.9223110236220473
 20
-1.3137637795275592
 30
0.0
 10
0.9223110236220473
 20
-1.3137637795275592
 30
0.0
 10
0.9223110236220473
 20
-1.3137637795275592
 30
0.0
 10
0.9223110236220473
 20
-1.3137637795275592
 30
0.0
 10
0.9270157480314961
 20
-1.3193818897637797
 30
0.0
 10
0.9270157480314961
 20
-1.3193818897637797
 30
0.0
 10
0.9270157480314961
 20
-1.3193818897637797
 30
0.0
 10
0.9270157480314961
 20
-1.3193818897637797
 30
0.0
 10
0.9319133858267716
 20
-1.3245354330708663
 30
0.0
 10
0.9319133858267716
 20
-1.3245354330708663
 30
0.0
 10
0.9319133858267716
 20
-1.3245354330708663
 30
0.0
 10
0.9319133858267716
 20
-1.3245354330708663
 30
0.0
 10
0.9369763779527559
 20
-1.329228346456693
 30
0.0
 10
0.9369763779527559
 20
-1.329228346456693
 30
0.0
 10
0.9369763779527559
 20
-1.329228346456693
 30
0.0
 10
0.9369763779527559
 20
-1.329228346456693
 30
0.0
 10
0.9421811023622048
 20
-1.333507874015748
 30
0.0
 10
0.9421811023622048
 20
-1.333507874015748
 30
0.0
 10
0.9421811023622048
 20
-1.333507874015748
 30
0.0
 10
0.9421811023622048
 20
-1.333507874015748
 30
0.0
 10
0.9475
 20
-1.3373779527559055
 30
0.0
 10
0.9475
 20
-1.3373779527559055
 30
0.0
 10
0.9475
 20
-1.3373779527559055
 30
0.0
 10
0.9475
 20
-1.3373779527559055
 30
0.0
 10
0.9529173228346457
 20
-1.3408779527559056
 30
0.0
 10
0.9529173228346457
 20
-1.3408779527559056
 30
0.0
 10
0.9529173228346457
 20
-1.3408779527559056
 30
0.0
 10
0.9529173228346457
 20
-1.3408779527559056
 30
0.0
 10
0.9584094488188977
 20
-1.3440275590551181
 30
0.0
 10
0.9584094488188977
 20
-1.3440275590551181
 30
0.0
 10
0.9584094488188977
 20
-1.3440275590551181
 30
0.0
 10
0.9584094488188977
 20
-1.3440275590551181
 30
0.0
 10
0.9639606299212599
 20
-1.3468622047244094
 30
0.0
 10
0.9639606299212599
 20
-1.3468622047244094
 30
0.0
 10
0.9639606299212599
 20
-1.3468622047244094
 30
0.0
 10
0.9639606299212599
 20
-1.3468622047244094
 30
0.0
 10
0.9695314960629922
 20
-1.3493897637795276
 30
0.0
 10
0.9695314960629922
 20
-1.3493897637795276
 30
0.0
 10
0.9695314960629922
 20
-1.3493897637795276
 30
0.0
 10
0.9695314960629922
 20
-1.3493897637795276
 30
0.0
 10
0.9751181102362205
 20
-1.3516574803149606
 30
0.0
 10
0.9751181102362205
 20
-1.3516574803149606
 30
0.0
 10
0.9751181102362205
 20
-1.3516574803149606
 30
0.0
 10
0.9751181102362205
 20
-1.3516574803149606
 30
0.0
 10
0.9806850393700788
 20
-1.3536732283464568
 30
0.0
 10
0.9806850393700788
 20
-1.3536732283464568
 30
0.0
 10
0.9806850393700788
 20
-1.3536732283464568
 30
0.0
 10
0.9806850393700788
 20
-1.3536732283464568
 30
0.0
 10
0.9862204724409449
 20
-1.355472440944882
 30
0.0
 10
0.9862204724409449
 20
-1.355472440944882
 30
0.0
 10
0.9862204724409449
 20
-1.355472440944882
 30
0.0
 10
0.9862204724409449
 20
-1.355472440944882
 30
0.0
 10
0.9916889763779528
 20
-1.3570708661417323
 30
0.0
 10
0.9916889763779528
 20
-1.3570708661417323
 30
0.0
 10
0.9916889763779528
 20
-1.3570708661417323
 30
0.0
 10
0.9916889763779528
 20
-1.3570708661417323
 30
0.0
 10
0.9970787401574803
 20
-1.358503937007874
 30
0.0
 10
0.9970787401574803
 20
-1.358503937007874
 30
0.0
 10
0.9970787401574803
 20
-1.358503937007874
 30
0.0
 10
0.9970787401574803
 20
-1.358503937007874
 30
0.0
 10
1.0023582677165355
 20
-1.3597952755905511
 30
0.0
 10
1.0023582677165355
 20
-1.3597952755905511
 30
0.0
 10
1.0023582677165355
 20
-1.3597952755905511
 30
0.0
 10
1.0023582677165355
 20
-1.3597952755905511
 30
0.0
 10
1.0075196850393702
 20
-1.3609685039370079
 30
0.0
 10
1.0075196850393702
 20
-1.3609685039370079
 30
0.0
 10
1.0075196850393702
 20
-1.3609685039370079
 30
0.0
 10
1.0075196850393702
 20
-1.3609685039370079
 30
0.0
 10
1.0125236220472442
 20
-1.3620472440944882
 30
0.0
 10
1.0125236220472442
 20
-1.3620472440944882
 30
0.0
 10
1.0125236220472442
 20
-1.3620472440944882
 30
0.0
 10
1.0125236220472442
 20
-1.3620472440944882
 30
0.0
 10
1.0173622047244095
 20
-1.3630590551181103
 30
0.0
 10
1.0173622047244095
 20
-1.3630590551181103
 30
0.0
 10
1.0173622047244095
 20
-1.3630590551181103
 30
0.0
 10
1.0173622047244095
 20
-1.3630590551181103
 30
0.0
 10
1.022003937007874
 20
-1.3640314960629922
 30
0.0
 10
1.022003937007874
 20
-1.3640314960629922
 30
0.0
 10
1.022003937007874
 20
-1.3640314960629922
 30
0.0
 10
1.022003937007874
 20
-1.3640314960629922
 30
0.0
 10
1.0264370078740157
 20
-1.3649960629921261
 30
0.0
 10
1.0264370078740157
 20
-1.3649960629921261
 30
0.0
  0
SPLINE
  5
33
100
AcDbEntity
  8
Layer 1
 62
   252
100
AcDbSpline
210
0.0
220
0.0
230
1.0
 70
     1
 71
     3
 72
    20
 73
    16
 74
     0
 42
0.0000000001
 43
0.0000000001
 40
0.0
 40
0.0
 40
0.0
 40
0.0
 40
0.25
 40
0.25
 40
0.25
 40
0.25
 40
0.5
 40
0.5
 40
0.5
 40
0.5
 40
0.75
 40
0.75
 40
0.75
 40
0.75
 40
1.0
 40
1.0
 40
1.0
 40
1.0
 10
0.8885708661417323
 20
-1.1998976377952757
 30
0.0
 10
0.8885708661417323
 20
-1.1998976377952757
 30
0.0
 10
1.5400748031496063
 20
-0.8187952755905512
 30
0.0
 10
1.5400748031496063
 20
-0.8187952755905512
 30
0.0
 10
1.5400748031496063
 20
-0.8187952755905512
 30
0.0
 10
1.5400748031496063
 20
-0.8187952755905512
 30
0.0
 10
1.4123188976377954
 20
-0.8187952755905512
 30
0.0
 10
1.4123188976377954
 20
-0.8187952755905512
 30
0.0
 10
1.4123188976377954
 20
-0.8187952755905512
 30
0.0
 10
1.4123188976377954
 20
-0.8187952755905512
 30
0.0
 10
0.7608149606299213
 20
-1.1998976377952757
 30
0.0
 10
0.7608149606299213
 20
-1.1998976377952757
 30
0.0
 10
0.7608149606299213
 20
-1.1998976377952757
 30
0.0
 10
0.7608149606299213
 20
-1.1998976377952757
 30
0.0
 10
0.8885708661417323
 20
-1.1998976377952757
 30
0.0
 10
0.8885708661417323
 20
-1.1998976377952757
 30
0.0
  0
SPLINE
  5
34
100
AcDbEntity
  8
Layer 1
370
     5
100
AcDbSpline
210
0.0
220
0.0
230
1.0
 70
     1
 71
     3
 72
    20
 73
    16
 74
     0
 42
0.0000000001
 43
0.0000000001
 40
0.0
 40
0.0
 40
0.0
 40
0.0
 40
0.25
 40
0.25
 40
0.25
 40
0.25
 40
0.5
 40
0.5
 40
0.5
 40
0.5
 40
0.75
 40
0.75
 40
0.75
 40
0.75
 40
1.0
 40
1.0
 40
1.0
 40
1.0
 10
0.8885708661417323
 20
-1.1998976377952757
 30
0.0
 10
0.8885708661417323
 20
-1.1998976377952757
 30
0.0
 10
1.5400748031496063
 20
-0.8187952755905512
 30
0.0
 10
1.5400748031496063
 20
-0.8187952755905512
 30
0.0
 10
1.5400748031496063
 20
-0.8187952755905512
 30
0.0
 10
1.5400748031496063
 20
-0.8187952755905512
 30
0.0
 10
1.4123188976377954
 20
-0.8187952755905512
 30
0.0
 10
1.4123188976377954
 20
-0.8187952755905512
 30
0.0
 10
1.4123188976377954
 20
-0.8187952755905512
 30
0.0
 10
1.4123188976377954
 20
-0.8187952755905512
 30
0.0
 10
0.7608149606299213
 20
-1.1998976377952757
 30
0.0
 10
0.7608149606299213
 20
-1.1998976377952757
 30
0.0
 10
0.7608149606299213
 20
-1.1998976377952757
 30
0.0
 10
0.7608149606299213
 20
-1.1998976377952757
 30
0.0
 10
0.8885708661417323
 20
-1.1998976377952757
 30
0.0
 10
0.8885708661417323
 20
-1.1998976377952757
 30
0.0
  0
SPLINE
  5
35
100
AcDbEntity
  8
Layer 1
 62
     9
100
AcDbSpline
210
0.0
220
0.0
230
1.0
 70
     1
 71
     3
 72
    20
 73
    16
 74
     0
 42
0.0000000001
 43
0.0000000001
 40
0.0
 40
0.0
 40
0.0
 40
0.0
 40
0.25
 40
0.25
 40
0.25
 40
0.25
 40
0.5
 40
0.5
 40
0.5
 40
0.5
 40
0.75
 40
0.75
 40
0.75
 40
0.75
 40
1.0
 40
1.0
 40
1.0
 40
1.0
 10
0.7608149606299213
 20
-1.1998976377952757
 30
0.0
 10
0.7608149606299213
 20
-1.1998976377952757
 30
0.0
 10
1.4123188976377954
 20
-0.8187952755905512
 30
0.0
 10
1.4123188976377954
 20
-0.8187952755905512
 30
0.0
 10
1.4123188976377954
 20
-0.8187952755905512
 30
0.0
 10
1.4123188976377954
 20
-0.8187952755905512
 30
0.0
 10
1.4013503937007874
 20
-0.7492716535433072
 30
0.0
 10
1.4013503937007874
 20
-0.7492716535433072
 30
0.0
 10
1.4013503937007874
 20
-0.7492716535433072
 30
0.0
 10
1.4013503937007874
 20
-0.7492716535433072
 30
0.0
 10
0.7498464566929134
 20
-1.1303740157480315
 30
0.0
 10
0.7498464566929134
 20
-1.1303740157480315
 30
0.0
 10
0.7498464566929134
 20
-1.1303740157480315
 30
0.0
 10
0.7498464566929134
 20
-1.1303740157480315
 30
0.0
 10
0.7608149606299213
 20
-1.1998976377952757
 30
0.0
 10
0.7608149606299213
 20
-1.1998976377952757
 30
0.0
  0
SPLINE
  5
36
100
AcDbEntity
  8
Layer 1
370
     5
100
AcDbSpline
210
0.0
220
0.0
230
1.0
 70
     1
 71
     3
 72
    20
 73
    16
 74
     0
 42
0.0000000001
 43
0.0000000001
 40
0.0
 40
0.0
 40
0.0
 40
0.0
 40
0.25
 40
0.25
 40
0.25
 40
0.25
 40
0.5
 40
0.5
 40
0.5
 40
0.5
 40
0.75
 40
0.75
 40
0.75
 40
0.75
 40
1.0
 40
1.0
 40
1.0
 40
1.0
 10
0.7608149606299213
 20
-1.1998976377952757
 30
0.0
 10
0.7608149606299213
 20
-1.1998976377952757
 30
0.0
 10
1.4123188976377954
 20
-0.8187952755905512
 30
0.0
 10
1.4123188976377954
 20
-0.8187952755905512
 30
0.0
 10
1.4123188976377954
 20
-0.8187952755905512
 30
0.0
 10
1.4123188976377954
 20
-0.8187952755905512
 30
0.0
 10
1.4013503937007874
 20
-0.7492716535433072
 30
0.0
 10
1.4013503937007874
 20
-0.7492716535433072
 30
0.0
 10
1.4013503937007874
 20
-0.7492716535433072
 30
0.0
 10
1.4013503937007874
 20
-0.7492716535433072
 30
0.0
 10
0.7498464566929134
 20
-1.1303740157480315
 30
0.0
 10
0.7498464566929134
 20
-1.1303740157480315
 30
0.0
 10
0.7498464566929134
 20
-1.1303740157480315
 30
0.0
 10
0.7498464566929134
 20
-1.1303740157480315
 30
0.0
 10
0.7608149606299213
 20
-1.1998976377952757
 30
0.0
 10
0.7608149606299213
 20
-1.1998976377952757
 30
0.0
  0
SPLINE
  5
37
100
AcDbEntity
  8
Layer 1
 62
   252
100
AcDbSpline
210
0.0
220
0.0
230
1.0
 70
     1
 71
     3
 72
    20
 73
    16
 74
     0
 42
0.0000000001
 43
0.0000000001
 40
0.0
 40
0.0
 40
0.0
 40
0.0
 40
0.25
 40
0.25
 40
0.25
 40
0.25
 40
0.5
 40
0.5
 40
0.5
 40
0.5
 40
0.75
 40
0.75
 40
0.75
 40
0.75
 40
1.0
 40
1.0
 40
1.0
 40
1.0
 10
-0.3861023622047244
 20
-1.1999055118110236
 30
0.0
 10
-0.3861023622047244
 20
-1.1999055118110236
 30
0.0
 10
0.2654015748031496
 20
-0.8188031496062993
 30
0.0
 10
0.2654015748031496
 20
-0.8188031496062993
 30
0.0
 10
0.2654015748031496
 20
-0.8188031496062993
 30
0.0
 10
0.2654015748031496
 20
-0.8188031496062993
 30
0.0
 10
0.1376456692913386
 20
-0.8188031496062993
 30
0.0
 10
0.1376456692913386
 20
-0.8188031496062993
 30
0.0
 10
0.1376456692913386
 20
-0.8188031496062993
 30
0.0
 10
0.1376456692913386
 20
-0.8188031496062993
 30
0.0
 10
-0.5138582677165354
 20
-1.1999055118110236
 30
0.0
 10
-0.5138582677165354
 20
-1.1999055118110236
 30
0.0
 10
-0.5138582677165354
 20
-1.1999055118110236
 30
0.0
 10
-0.5138582677165354
 20
-1.1999055118110236
 30
0.0
 10
-0.3861023622047244
 20
-1.1999055118110236
 30
0.0
 10
-0.3861023622047244
 20
-1.1999055118110236
 30
0.0
  0
SPLINE
  5
38
100
AcDbEntity
  8
Layer 1
370
     5
100
AcDbSpline
210
0.0
220
0.0
230
1.0
 70
     1
 71
     3
 72
    20
 73
    16
 74
     0
 42
0.0000000001
 43
0.0000000001
 40
0.0
 40
0.0
 40
0.0
 40
0.0
 40
0.25
 40
0.25
 40
0.25
 40
0.25
 40
0.5
 40
0.5
 40
0.5
 40
0.5
 40
0.75
 40
0.75
 40
0.75
 40
0.75
 40
1.0
 40
1.0
 40
1.0
 40
1.0
 10
-0.3861023622047244
 20
-1.1999055118110236
 30
0.0
 10
-0.3861023622047244
 20
-1.1999055118110236
 30
0.0
 10
0.2654015748031496
 20
-0.8188031496062993
 30
0.0
 10
0.2654015748031496
 20
-0.8188031496062993
 30
0.0
 10
0.2654015748031496
 20
-0.8188031496062993
 30
0.0
 10
0.2654015748031496
 20
-0.8188031496062993
 30
0.0
 10
0.1376456692913386
 20
-0.8188031496062993
 30
0.0
 10
0.1376456692913386
 20
-0.8188031496062993
 30
0.0
 10
0.1376456692913386
 20
-0.8188031496062993
 30
0.0
 10
0.1376456692913386
 20
-0.8188031496062993
 30
0.0
 10
-0.5138582677165354
 20
-1.1999055118110236
 30
0.0
 10
-0.5138582677165354
 20
-1.1999055118110236
 30
0.0
 10
-0.5138582677165354
 20
-1.1999055118110236
 30
0.0
 10
-0.5138582677165354
 20
-1.1999055118110236
 30
0.0
 10
-0.3861023622047244
 20
-1.1999055118110236
 30
0.0
 10
-0.3861023622047244
 20
-1.1999055118110236
 30
0.0
  0
SPLINE
  5
39
100
AcDbEntity
  8
Layer 1
 62
   109
100
AcDbSpline
210
0.0
220
0.0
230
1.0
 70
     1
 71
     3
 72
    76
 73
    72
 74
     0
 42
0.0000000001
 43
0.0000000001
 40
0.0
 40
0.0
 40
0.0
 40
0.0
 40
0.0555555555555556
 40
0.0555555555555556
 40
0.0555555555555556
 40
0.0555555555555556
 40
0.1111111111111111
 40
0.1111111111111111
 40
0.1111111111111111
 40
0.1111111111111111
 40
0.1666666666666667
 40
0.1666666666666667
 40
0.1666666666666667
 40
0.1666666666666667
 40
0.2222222222222222
 40
0.2222222222222222
 40
0.2222222222222222
 40
0.2222222222222222
 40
0.2777777777777778
 40
0.2777777777777778
 40
0.2777777777777778
 40
0.2777777777777778
 40
0.3333333333333334
 40
0.3333333333333334
 40
0.3333333333333334
 40
0.3333333333333334
 40
0.388888888888889
 40
0.388888888888889
 40
0.388888888888889
 40
0.388888888888889
 40
0.4444444444444445
 40
0.4444444444444445
 40
0.4444444444444445
 40
0.4444444444444445
 40
0.5000000000000001
 40
0.5000000000000001
 40
0.5000000000000001
 40
0.5000000000000001
 40
0.5555555555555557
 40
0.5555555555555557
 40
0.5555555555555557
 40
0.5555555555555557
 40
0.6111111111111113
 40
0.6111111111111113
 40
0.6111111111111113
 40
0.6111111111111113
 40
0.6666666666666669
 40
0.6666666666666669
 40
0.6666666666666669
 40
0.6666666666666669
 40
0.7222222222222224
 40
0.7222222222222224
 40
0.7222222222222224
 40
0.7222222222222224
 40
0.777777777777778
 40
0.777777777777778
 40
0.777777777777778
 40
0.777777777777778
 40
0.8333333333333336
 40
0.8333333333333336
 40
0.8333333333333336
 40
0.8333333333333336
 40
0.8888888888888892
 40
0.8888888888888892
 40
0.8888888888888892
 40
0.8888888888888892
 40
0.9444444444444448
 40
0.9444444444444448
 40
0.9444444444444448
 40
0.9444444444444448
 40
1.0
 40
1.0
 40
1.0
 40
1.0
 10
-0.5836968503937008
 20
-1.3440354330708661
 30
0.0
 10
-0.5836968503937008
 20
-1.3440354330708661
 30
0.0
 10
0.0678070866141732
 20
-0.9629330708661418
 30
0.0
 10
0.0678070866141732
 20
-0.9629330708661418
 30
0.0
 10
0.0678070866141732
 20
-0.9629330708661418
 30
0.0
 10
0.0678070866141732
 20
-0.9629330708661418
 30
0.0
 10
0.062255905511811
 20
-0.9657677165354331
 30
0.0
 10
0.062255905511811
 20
-0.9657677165354331
 30
0.0
 10
0.062255905511811
 20
-0.9657677165354331
 30
0.0
 10
0.062255905511811
 20
-0.9657677165354331
 30
0.0
 10
0.0566850393700787
 20
-0.9682952755905512
 30
0.0
 10
0.0566850393700787
 20
-0.9682952755905512
 30
0.0
 10
0.0566850393700787
 20
-0.9682952755905512
 30
0.0
 10
0.0566850393700787
 20
-0.9682952755905512
 30
0.0
 10
0.0510984251968504
 20
-0.9705629921259843
 30
0.0
 10
0.0510984251968504
 20
-0.9705629921259843
 30
0.0
 10
0.0510984251968504
 20
-0.9705629921259843
 30
0.0
 10
0.0510984251968504
 20
-0.9705629921259843
 30
0.0
 10
0.0455314960629921
 20
-0.9725787401574804
 30
0.0
 10
0.0455314960629921
 20
-0.9725787401574804
 30
0.0
 10
0.0455314960629921
 20
-0.9725787401574804
 30
0.0
 10
0.0455314960629921
 20
-0.9725787401574804
 30
0.0
 10
0.039996062992126
 20
-0.9743779527559056
 30
0.0
 10
0.039996062992126
 20
-0.9743779527559056
 30
0.0
 10
0.039996062992126
 20
-0.9743779527559056
 30
0.0
 10
0.039996062992126
 20
-0.9743779527559056
 30
0.0
 10
0.0345275590551181
 20
-0.9759763779527559
 30
0.0
 10
0.0345275590551181
 20
-0.9759763779527559
 30
0.0
 10
0.0345275590551181
 20
-0.9759763779527559
 30
0.0
 10
0.0345275590551181
 20
-0.9759763779527559
 30
0.0
 10
0.0291377952755906
 20
-0.9774094488188977
 30
0.0
 10
0.0291377952755906
 20
-0.9774094488188977
 30
0.0
 10
0.0291377952755906
 20
-0.9774094488188977
 30
0.0
 10
0.0291377952755906
 20
-0.9774094488188977
 30
0.0
 10
0.0238582677165354
 20
-0.9787007874015749
 30
0.0
 10
0.0238582677165354
 20
-0.9787007874015749
 30
0.0
 10
0.0238582677165354
 20
-0.9787007874015749
 30
0.0
 10
0.0238582677165354
 20
-0.9787007874015749
 30
0.0
 10
-0.6276456692913386
 20
-1.3598031496062992
 30
0.0
 10
-0.6276456692913386
 20
-1.3598031496062992
 30
0.0
 10
-0.6276456692913386
 20
-1.3598031496062992
 30
0.0
 10
-0.6276456692913386
 20
-1.3598031496062992
 30
0.0
 10
-0.6223661417322834
 20
-1.3585118110236221
 30
0.0
 10
-0.6223661417322834
 20
-1.3585118110236221
 30
0.0
 10
-0.6223661417322834
 20
-1.3585118110236221
 30
0.0
 10
-0.6223661417322834
 20
-1.3585118110236221
 30
0.0
 10
-0.616976377952756
 20
-1.3570787401574804
 30
0.0
 10
-0.616976377952756
 20
-1.3570787401574804
 30
0.0
 10
-0.616976377952756
 20
-1.3570787401574804
 30
0.0
 10
-0.616976377952756
 20
-1.3570787401574804
 30
0.0
 10
-0.611507874015748
 20
-1.35548031496063
 30
0.0
 10
-0.611507874015748
 20
-1.35548031496063
 30
0.0
 10
-0.611507874015748
 20
-1.35548031496063
 30
0.0
 10
-0.611507874015748
 20
-1.35548031496063
 30
0.0
 10
-0.6059724409448819
 20
-1.3536811023622048
 30
0.0
 10
-0.6059724409448819
 20
-1.3536811023622048
 30
0.0
 10
-0.6059724409448819
 20
-1.3536811023622048
 30
0.0
 10
-0.6059724409448819
 20
-1.3536811023622048
 30
0.0
 10
-0.6004055118110236
 20
-1.3516653543307087
 30
0.0
 10
-0.6004055118110236
 20
-1.3516653543307087
 30
0.0
 10
-0.6004055118110236
 20
-1.3516653543307087
 30
0.0
 10
-0.6004055118110236
 20
-1.3516653543307087
 30
0.0
 10
-0.5948188976377953
 20
-1.3493976377952757
 30
0.0
 10
-0.5948188976377953
 20
-1.3493976377952757
 30
0.0
 10
-0.5948188976377953
 20
-1.3493976377952757
 30
0.0
 10
-0.5948188976377953
 20
-1.3493976377952757
 30
0.0
 10
-0.589248031496063
 20
-1.3468700787401575
 30
0.0
 10
-0.589248031496063
 20
-1.3468700787401575
 30
0.0
 10
-0.589248031496063
 20
-1.3468700787401575
 30
0.0
 10
-0.589248031496063
 20
-1.3468700787401575
 30
0.0
 10
-0.5836968503937008
 20
-1.3440354330708661
 30
0.0
 10
-0.5836968503937008
 20
-1.3440354330708661
 30
0.0
  0
SPLINE
  5
3A
100
AcDbEntity
  8
Layer 1
 62
   251
100
AcDbSpline
210
0.0
220
0.0
230
1.0
 70
     1
 71
     3
 72
    52
 73
    48
 74
     0
 42
0.0000000001
 43
0.0000000001
 40
0.0
 40
0.0
 40
0.0
 40
0.0
 40
0.0833333333333333
 40
0.0833333333333333
 40
0.0833333333333333
 40
0.0833333333333333
 40
0.1666666666666667
 40
0.1666666666666667
 40
0.1666666666666667
 40
0.1666666666666667
 40
0.25
 40
0.25
 40
0.25
 40
0.25
 40
0.3333333333333333
 40
0.3333333333333333
 40
0.3333333333333333
 40
0.3333333333333333
 40
0.4166666666666666
 40
0.4166666666666666
 40
0.4166666666666666
 40
0.4166666666666666
 40
0.4999999999999999
 40
0.4999999999999999
 40
0.4999999999999999
 40
0.4999999999999999
 40
0.5833333333333333
 40
0.5833333333333333
 40
0.5833333333333333
 40
0.5833333333333333
 40
0.6666666666666666
 40
0.6666666666666666
 40
0.6666666666666666
 40
0.6666666666666666
 40
0.75
 40
0.75
 40
0.75
 40
0.75
 40
0.8333333333333334
 40
0.8333333333333334
 40
0.8333333333333334
 40
0.8333333333333334
 40
0.9166666666666667
 40
0.9166666666666667
 40
0.9166666666666667
 40
0.9166666666666667
 40
1.0
 40
1.0
 40
1.0
 40
1.0
 10
-0.6276456692913386
 20
-1.3598031496062992
 30
0.0
 10
-0.6276456692913386
 20
-1.3598031496062992
 30
0.0
 10
0.0238582677165354
 20
-0.9787007874015749
 30
0.0
 10
0.0238582677165354
 20
-0.9787007874015749
 30
0.0
 10
0.0238582677165354
 20
-0.9787007874015749
 30
0.0
 10
0.0238582677165354
 20
-0.9787007874015749
 30
0.0
 10
0.0186968503937008
 20
-0.9798740157480316
 30
0.0
 10
0.0186968503937008
 20
-0.9798740157480316
 30
0.0
 10
0.0186968503937008
 20
-0.9798740157480316
 30
0.0
 10
0.0186968503937008
 20
-0.9798740157480316
 30
0.0
 10
0.0136929133858268
 20
-0.9809527559055119
 30
0.0
 10
0.0136929133858268
 20
-0.9809527559055119
 30
0.0
 10
0.0136929133858268
 20
-0.9809527559055119
 30
0.0
 10
0.0136929133858268
 20
-0.9809527559055119
 30
0.0
 10
0.0088543307086614
 20
-0.9819645669291339
 30
0.0
 10
0.0088543307086614
 20
-0.9819645669291339
 30
0.0
 10
0.0088543307086614
 20
-0.9819645669291339
 30
0.0
 10
0.0088543307086614
 20
-0.9819645669291339
 30
0.0
 10
0.0042125984251969
 20
-0.9829370078740158
 30
0.0
 10
0.0042125984251969
 20
-0.9829370078740158
 30
0.0
 10
0.0042125984251969
 20
-0.9829370078740158
 30
0.0
 10
0.0042125984251969
 20
-0.9829370078740158
 30
0.0
 10
-0.0002204724409449
 20
-0.9839015748031497
 30
0.0
 10
-0.0002204724409449
 20
-0.9839015748031497
 30
0.0
 10
-0.0002204724409449
 20
-0.9839015748031497
 30
0.0
 10
-0.0002204724409449
 20
-0.9839015748031497
 30
0.0
 10
-0.6517244094488189
 20
-1.3650039370078741
 30
0.0
 10
-0.6517244094488189
 20
-1.3650039370078741
 30
0.0
 10
-0.6517244094488189
 20
-1.3650039370078741
 30
0.0
 10
-0.6517244094488189
 20
-1.3650039370078741
 30
0.0
 10
-0.6472913385826772
 20
-1.3640393700787401
 30
0.0
 10
-0.6472913385826772
 20
-1.3640393700787401
 30
0.0
 10
-0.6472913385826772
 20
-1.3640393700787401
 30
0.0
 10
-0.6472913385826772
 20
-1.3640393700787401
 30
0.0
 10
-0.6426496062992126
 20
-1.3630669291338584
 30
0.0
 10
-0.6426496062992126
 20
-1.3630669291338584
 30
0.0
 10
-0.6426496062992126
 20
-1.3630669291338584
 30
0.0
 10
-0.6426496062992126
 20
-1.3630669291338584
 30
0.0
 10
-0.6378110236220472
 20
-1.3620551181102363
 30
0.0
 10
-0.6378110236220472
 20
-1.3620551181102363
 30
0.0
 10
-0.6378110236220472
 20
-1.3620551181102363
 30
0.0
 10
-0.6378110236220472
 20
-1.3620551181102363
 30
0.0
 10
-0.6328070866141733
 20
-1.3609763779527559
 30
0.0
 10
-0.6328070866141733
 20
-1.3609763779527559
 30
0.0
 10
-0.6328070866141733
 20
-1.3609763779527559
 30
0.0
 10
-0.6328070866141733
 20
-1.3609763779527559
 30
0.0
 10
-0.6276456692913386
 20
-1.3598031496062992
 30
0.0
 10
-0.6276456692913386
 20
-1.3598031496062992
 30
0.0
  0
SPLINE
  5
3B
100
AcDbEntity
  8
Layer 1
370
     5
100
AcDbSpline
210
0.0
220
0.0
230
1.0
 70
     1
 71
     3
 72
   116
 73
   112
 74
     0
 42
0.0000000001
 43
0.0000000001
 40
0.0
 40
0.0
 40
0.0
 40
0.0
 40
0.0357142857142857
 40
0.0357142857142857
 40
0.0357142857142857
 40
0.0357142857142857
 40
0.0714285714285714
 40
0.0714285714285714
 40
0.0714285714285714
 40
0.0714285714285714
 40
0.1071428571428571
 40
0.1071428571428571
 40
0.1071428571428571
 40
0.1071428571428571
 40
0.1428571428571429
 40
0.1428571428571429
 40
0.1428571428571429
 40
0.1428571428571429
 40
0.1785714285714286
 40
0.1785714285714286
 40
0.1785714285714286
 40
0.1785714285714286
 40
0.2142857142857143
 40
0.2142857142857143
 40
0.2142857142857143
 40
0.2142857142857143
 40
0.2499999999999999
 40
0.2499999999999999
 40
0.2499999999999999
 40
0.2499999999999999
 40
0.2857142857142856
 40
0.2857142857142856
 40
0.2857142857142856
 40
0.2857142857142856
 40
0.3214285714285713
 40
0.3214285714285713
 40
0.3214285714285713
 40
0.3214285714285713
 40
0.357142857142857
 40
0.357142857142857
 40
0.357142857142857
 40
0.357142857142857
 40
0.3928571428571427
 40
0.3928571428571427
 40
0.3928571428571427
 40
0.3928571428571427
 40
0.4285714285714284
 40
0.4285714285714284
 40
0.4285714285714284
 40
0.4285714285714284
 40
0.4642857142857141
 40
0.4642857142857141
 40
0.4642857142857141
 40
0.4642857142857141
 40
0.4999999999999998
 40
0.4999999999999998
 40
0.4999999999999998
 40
0.4999999999999998
 40
0.5357142857142856
 40
0.5357142857142856
 40
0.5357142857142856
 40
0.5357142857142856
 40
0.5714285714285713
 40
0.5714285714285713
 40
0.5714285714285713
 40
0.5714285714285713
 40
0.607142857142857
 40
0.607142857142857
 40
0.607142857142857
 40
0.607142857142857
 40
0.6428571428571427
 40
0.6428571428571427
 40
0.6428571428571427
 40
0.6428571428571427
 40
0.6785714285714284
 40
0.6785714285714284
 40
0.6785714285714284
 40
0.6785714285714284
 40
0.7142857142857141
 40
0.7142857142857141
 40
0.7142857142857141
 40
0.7142857142857141
 40
0.7499999999999998
 40
0.7499999999999998
 40
0.7499999999999998
 40
0.7499999999999998
 40
0.7857142857142855
 40
0.7857142857142855
 40
0.7857142857142855
 40
0.7857142857142855
 40
0.8214285714285712
 40
0.8214285714285712
 40
0.8214285714285712
 40
0.8214285714285712
 40
0.8571428571428569
 40
0.8571428571428569
 40
0.8571428571428569
 40
0.8571428571428569
 40
0.8928571428571426
 40
0.8928571428571426
 40
0.8928571428571426
 40
0.8928571428571426
 40
0.9285714285714283
 40
0.9285714285714283
 40
0.9285714285714283
 40
0.9285714285714283
 40
0.964285714285714
 40
0.964285714285714
 40
0.964285714285714
 40
0.964285714285714
 40
1.0
 40
1.0
 40
1.0
 40
1.0
 10
-0.5836968503937008
 20
-1.3440354330708661
 30
0.0
 10
-0.5836968503937008
 20
-1.3440354330708661
 30
0.0
 10
0.0678070866141732
 20
-0.9629330708661418
 30
0.0
 10
0.0678070866141732
 20
-0.9629330708661418
 30
0.0
 10
0.0678070866141732
 20
-0.9629330708661418
 30
0.0
 10
0.0678070866141732
 20
-0.9629330708661418
 30
0.0
 10
0.062255905511811
 20
-0.9657677165354331
 30
0.0
 10
0.062255905511811
 20
-0.9657677165354331
 30
0.0
 10
0.062255905511811
 20
-0.9657677165354331
 30
0.0
 10
0.062255905511811
 20
-0.9657677165354331
 30
0.0
 10
0.0566850393700787
 20
-0.9682952755905512
 30
0.0
 10
0.0566850393700787
 20
-0.9682952755905512
 30
0.0
 10
0.0566850393700787
 20
-0.9682952755905512
 30
0.0
 10
0.0566850393700787
 20
-0.9682952755905512
 30
0.0
 10
0.0510984251968504
 20
-0.9705629921259843
 30
0.0
 10
0.0510984251968504
 20
-0.9705629921259843
 30
0.0
 10
0.0510984251968504
 20
-0.9705629921259843
 30
0.0
 10
0.0510984251968504
 20
-0.9705629921259843
 30
0.0
 10
0.0455314960629921
 20
-0.9725787401574804
 30
0.0
 10
0.0455314960629921
 20
-0.9725787401574804
 30
0.0
 10
0.0455314960629921
 20
-0.9725787401574804
 30
0.0
 10
0.0455314960629921
 20
-0.9725787401574804
 30
0.0
 10
0.039996062992126
 20
-0.9743779527559056
 30
0.0
 10
0.039996062992126
 20
-0.9743779527559056
 30
0.0
 10
0.039996062992126
 20
-0.9743779527559056
 30
0.0
 10
0.039996062992126
 20
-0.9743779527559056
 30
0.0
 10
0.0345275590551181
 20
-0.9759763779527559
 30
0.0
 10
0.0345275590551181
 20
-0.9759763779527559
 30
0.0
 10
0.0345275590551181
 20
-0.9759763779527559
 30
0.0
 10
0.0345275590551181
 20
-0.9759763779527559
 30
0.0
 10
0.0291377952755906
 20
-0.9774094488188977
 30
0.0
 10
0.0291377952755906
 20
-0.9774094488188977
 30
0.0
 10
0.0291377952755906
 20
-0.9774094488188977
 30
0.0
 10
0.0291377952755906
 20
-0.9774094488188977
 30
0.0
 10
0.0238582677165354
 20
-0.9787007874015749
 30
0.0
 10
0.0238582677165354
 20
-0.9787007874015749
 30
0.0
 10
0.0238582677165354
 20
-0.9787007874015749
 30
0.0
 10
0.0238582677165354
 20
-0.9787007874015749
 30
0.0
 10
0.0186968503937008
 20
-0.9798740157480316
 30
0.0
 10
0.0186968503937008
 20
-0.9798740157480316
 30
0.0
 10
0.0186968503937008
 20
-0.9798740157480316
 30
0.0
 10
0.0186968503937008
 20
-0.9798740157480316
 30
0.0
 10
0.0136929133858268
 20
-0.9809527559055119
 30
0.0
 10
0.0136929133858268
 20
-0.9809527559055119
 30
0.0
 10
0.0136929133858268
 20
-0.9809527559055119
 30
0.0
 10
0.0136929133858268
 20
-0.9809527559055119
 30
0.0
 10
0.0088543307086614
 20
-0.9819645669291339
 30
0.0
 10
0.0088543307086614
 20
-0.9819645669291339
 30
0.0
 10
0.0088543307086614
 20
-0.9819645669291339
 30
0.0
 10
0.0088543307086614
 20
-0.9819645669291339
 30
0.0
 10
0.0042125984251969
 20
-0.9829370078740158
 30
0.0
 10
0.0042125984251969
 20
-0.9829370078740158
 30
0.0
 10
0.0042125984251969
 20
-0.9829370078740158
 30
0.0
 10
0.0042125984251969
 20
-0.9829370078740158
 30
0.0
 10
-0.0002204724409449
 20
-0.9839015748031497
 30
0.0
 10
-0.0002204724409449
 20
-0.9839015748031497
 30
0.0
 10
-0.0002204724409449
 20
-0.9839015748031497
 30
0.0
 10
-0.0002204724409449
 20
-0.9839015748031497
 30
0.0
 10
-0.6517244094488189
 20
-1.3650039370078741
 30
0.0
 10
-0.6517244094488189
 20
-1.3650039370078741
 30
0.0
 10
-0.6517244094488189
 20
-1.3650039370078741
 30
0.0
 10
-0.6517244094488189
 20
-1.3650039370078741
 30
0.0
 10
-0.6472913385826772
 20
-1.3640393700787401
 30
0.0
 10
-0.6472913385826772
 20
-1.3640393700787401
 30
0.0
 10
-0.6472913385826772
 20
-1.3640393700787401
 30
0.0
 10
-0.6472913385826772
 20
-1.3640393700787401
 30
0.0
 10
-0.6426496062992126
 20
-1.3630669291338584
 30
0.0
 10
-0.6426496062992126
 20
-1.3630669291338584
 30
0.0
 10
-0.6426496062992126
 20
-1.3630669291338584
 30
0.0
 10
-0.6426496062992126
 20
-1.3630669291338584
 30
0.0
 10
-0.6378110236220472
 20
-1.3620551181102363
 30
0.0
 10
-0.6378110236220472
 20
-1.3620551181102363
 30
0.0
 10
-0.6378110236220472
 20
-1.3620551181102363
 30
0.0
 10
-0.6378110236220472
 20
-1.3620551181102363
 30
0.0
 10
-0.6328070866141733
 20
-1.3609763779527559
 30
0.0
 10
-0.6328070866141733
 20
-1.3609763779527559
 30
0.0
 10
-0.6328070866141733
 20
-1.3609763779527559
 30
0.0
 10
-0.6328070866141733
 20
-1.3609763779527559
 30
0.0
 10
-0.6276456692913386
 20
-1.3598031496062992
 30
0.0
 10
-0.6276456692913386
 20
-1.3598031496062992
 30
0.0
 10
-0.6276456692913386
 20
-1.3598031496062992
 30
0.0
 10
-0.6276456692913386
 20
-1.3598031496062992
 30
0.0
 10
-0.6223661417322834
 20
-1.3585118110236221
 30
0.0
 10
-0.6223661417322834
 20
-1.3585118110236221
 30
0.0
 10
-0.6223661417322834
 20
-1.3585118110236221
 30
0.0
 10
-0.6223661417322834
 20
-1.3585118110236221
 30
0.0
 10
-0.616976377952756
 20
-1.3570787401574804
 30
0.0
 10
-0.616976377952756
 20
-1.3570787401574804
 30
0.0
 10
-0.616976377952756
 20
-1.3570787401574804
 30
0.0
 10
-0.616976377952756
 20
-1.3570787401574804
 30
0.0
 10
-0.611507874015748
 20
-1.35548031496063
 30
0.0
 10
-0.611507874015748
 20
-1.35548031496063
 30
0.0
 10
-0.611507874015748
 20
-1.35548031496063
 30
0.0
 10
-0.611507874015748
 20
-1.35548031496063
 30
0.0
 10
-0.6059724409448819
 20
-1.3536811023622048
 30
0.0
 10
-0.6059724409448819
 20
-1.3536811023622048
 30
0.0
 10
-0.6059724409448819
 20
-1.3536811023622048
 30
0.0
 10
-0.6059724409448819
 20
-1.3536811023622048
 30
0.0
 10
-0.6004055118110236
 20
-1.3516653543307087
 30
0.0
 10
-0.6004055118110236
 20
-1.3516653543307087
 30
0.0
 10
-0.6004055118110236
 20
-1.3516653543307087
 30
0.0
 10
-0.6004055118110236
 20
-1.3516653543307087
 30
0.0
 10
-0.5948188976377953
 20
-1.3493976377952757
 30
0.0
 10
-0.5948188976377953
 20
-1.3493976377952757
 30
0.0
 10
-0.5948188976377953
 20
-1.3493976377952757
 30
0.0
 10
-0.5948188976377953
 20
-1.3493976377952757
 30
0.0
 10
-0.589248031496063
 20
-1.3468700787401575
 30
0.0
 10
-0.589248031496063
 20
-1.3468700787401575
 30
0.0
 10
-0.589248031496063
 20
-1.3468700787401575
 30
0.0
 10
-0.589248031496063
 20
-1.3468700787401575
 30
0.0
 10
-0.5836968503937008
 20
-1.3440354330708661
 30
0.0
 10
-0.5836968503937008
 20
-1.3440354330708661
 30
0.0
  0
SPLINE
  5
3C
100
AcDbEntity
  8
Layer 1
 62
   252
100
AcDbSpline
210
0.0
220
0.0
230
1.0
 70
     1
 71
     3
 72
    20
 73
    16
 74
     0
 42
0.0000000001
 43
0.0000000001
 40
0.0
 40
0.0
 40
0.0
 40
0.0
 40
0.25
 40
0.25
 40
0.25
 40
0.25
 40
0.5
 40
0.5
 40
0.5
 40
0.5
 40
0.75
 40
0.75
 40
0.75
 40
0.75
 40
1.0
 40
1.0
 40
1.0
 40
1.0
 10
-0.6517244094488189
 20
-1.438212598425197
 30
0.0
 10
-0.6517244094488189
 20
-1.438212598425197
 30
0.0
 10
-0.0002204724409449
 20
-1.0571102362204725
 30
0.0
 10
-0.0002204724409449
 20
-1.0571102362204725
 30
0.0
 10
-0.0002204724409449
 20
-1.0571102362204725
 30
0.0
 10
-0.0002204724409449
 20
-1.0571102362204725
 30
0.0
 10
-0.0614251968503937
 20
-1.0571102362204725
 30
0.0
 10
-0.0614251968503937
 20
-1.0571102362204725
 30
0.0
 10
-0.0614251968503937
 20
-1.0571102362204725
 30
0.0
 10
-0.0614251968503937
 20
-1.0571102362204725
 30
0.0
 10
-0.7129291338582677
 20
-1.438212598425197
 30
0.0
 10
-0.7129291338582677
 20
-1.438212598425197
 30
0.0
 10
-0.7129291338582677
 20
-1.438212598425197
 30
0.0
 10
-0.7129291338582677
 20
-1.438212598425197
 30
0.0
 10
-0.6517244094488189
 20
-1.438212598425197
 30
0.0
 10
-0.6517244094488189
 20
-1.438212598425197
 30
0.0
  0
SPLINE
  5
3D
100
AcDbEntity
  8
Layer 1
370
     5
100
AcDbSpline
210
0.0
220
0.0
230
1.0
 70
     1
 71
     3
 72
    20
 73
    16
 74
     0
 42
0.0000000001
 43
0.0000000001
 40
0.0
 40
0.0
 40
0.0
 40
0.0
 40
0.25
 40
0.25
 40
0.25
 40
0.25
 40
0.5
 40
0.5
 40
0.5
 40
0.5
 40
0.75
 40
0.75
 40
0.75
 40
0.75
 40
1.0
 40
1.0
 40
1.0
 40
1.0
 10
-0.6517244094488189
 20
-1.438212598425197
 30
0.0
 10
-0.6517244094488189
 20
-1.438212598425197
 30
0.0
 10
-0.0002204724409449
 20
-1.0571102362204725
 30
0.0
 10
-0.0002204724409449
 20
-1.0571102362204725
 30
0.0
 10
-0.0002204724409449
 20
-1.0571102362204725
 30
0.0
 10
-0.0002204724409449
 20
-1.0571102362204725
 30
0.0
 10
-0.0614251968503937
 20
-1.0571102362204725
 30
0.0
 10
-0.0614251968503937
 20
-1.0571102362204725
 30
0.0
 10
-0.0614251968503937
 20
-1.0571102362204725
 30
0.0
 10
-0.0614251968503937
 20
-1.0571102362204725
 30
0.0
 10
-0.7129291338582677
 20
-1.438212598425197
 30
0.0
 10
-0.7129291338582677
 20
-1.438212598425197
 30
0.0
 10
-0.7129291338582677
 20
-1.438212598425197
 30
0.0
 10
-0.7129291338582677
 20
-1.438212598425197
 30
0.0
 10
-0.6517244094488189
 20
-1.438212598425197
 30
0.0
 10
-0.6517244094488189
 20
-1.438212598425197
 30
0.0
  0
SPLINE
  5
3E
100
AcDbEntity
  8
Layer 1
 62
   252
100
AcDbSpline
210
0.0
220
0.0
230
1.0
 70
     1
 71
     3
 72
    20
 73
    16
 74
     0
 42
0.0000000001
 43
0.0000000001
 40
0.0
 40
0.0
 40
0.0
 40
0.0
 40
0.25
 40
0.25
 40
0.25
 40
0.25
 40
0.5
 40
0.5
 40
0.5
 40
0.5
 40
0.75
 40
0.75
 40
0.75
 40
0.75
 40
1.0
 40
1.0
 40
1.0
 40
1.0
 10
0.7498464566929134
 20
-1.1303740157480315
 30
0.0
 10
0.7498464566929134
 20
-1.1303740157480315
 30
0.0
 10
1.4013503937007874
 20
-0.7492716535433072
 30
0.0
 10
1.4013503937007874
 20
-0.7492716535433072
 30
0.0
 10
1.4013503937007874
 20
-0.7492716535433072
 30
0.0
 10
1.4013503937007874
 20
-0.7492716535433072
 30
0.0
 10
0.2763503937007874
 20
-0.7492716535433072
 30
0.0
 10
0.2763503937007874
 20
-0.7492716535433072
 30
0.0
 10
0.2763503937007874
 20
-0.7492716535433072
 30
0.0
 10
0.2763503937007874
 20
-0.7492716535433072
 30
0.0
 10
-0.3751535433070866
 20
-1.1303740157480315
 30
0.0
 10
-0.3751535433070866
 20
-1.1303740157480315
 30
0.0
 10
-0.3751535433070866
 20
-1.1303740157480315
 30
0.0
 10
-0.3751535433070866
 20
-1.1303740157480315
 30
0.0
 10
0.7498464566929134
 20
-1.1303740157480315
 30
0.0
 10
0.7498464566929134
 20
-1.1303740157480315
 30
0.0
  0
SPLINE
  5
3F
100
AcDbEntity
  8
Layer 1
370
     5
100
AcDbSpline
210
0.0
220
0.0
230
1.0
 70
     1
 71
     3
 72
    20
 73
    16
 74
     0
 42
0.0000000001
 43
0.0000000001
 40
0.0
 40
0.0
 40
0.0
 40
0.0
 40
0.25
 40
0.25
 40
0.25
 40
0.25
 40
0.5
 40
0.5
 40
0.5
 40
0.5
 40
0.75
 40
0.75
 40
0.75
 40
0.75
 40
1.0
 40
1.0
 40
1.0
 40
1.0
 10
0.7498464566929134
 20
-1.1303740157480315
 30
0.0
 10
0.7498464566929134
 20
-1.1303740157480315
 30
0.0
 10
1.4013503937007874
 20
-0.7492716535433072
 30
0.0
 10
1.4013503937007874
 20
-0.7492716535433072
 30
0.0
 10
1.4013503937007874
 20
-0.7492716535433072
 30
0.0
 10
1.4013503937007874
 20
-0.7492716535433072
 30
0.0
 10
0.2763503937007874
 20
-0.7492716535433072
 30
0.0
 10
0.2763503937007874
 20
-0.7492716535433072
 30
0.0
 10
0.2763503937007874
 20
-0.7492716535433072
 30
0.0
 10
0.2763503937007874
 20
-0.7492716535433072
 30
0.0
 10
-0.3751535433070866
 20
-1.1303740157480315
 30
0.0
 10
-0.3751535433070866
 20
-1.1303740157480315
 30
0.0
 10
-0.3751535433070866
 20
-1.1303740157480315
 30
0.0
 10
-0.3751535433070866
 20
-1.1303740157480315
 30
0.0
 10
0.7498464566929134
 20
-1.1303740157480315
 30
0.0
 10
0.7498464566929134
 20
-1.1303740157480315
 30
0.0
  0
SPLINE
  5
40
100
AcDbEntity
  8
Layer 1
 62
     9
100
AcDbSpline
210
0.0
220
0.0
230
1.0
 70
     1
 71
     3
 72
    20
 73
    16
 74
     0
 42
0.0000000001
 43
0.0000000001
 40
0.0
 40
0.0
 40
0.0
 40
0.0
 40
0.25
 40
0.25
 40
0.25
 40
0.25
 40
0.5
 40
0.5
 40
0.5
 40
0.5
 40
0.75
 40
0.75
 40
0.75
 40
0.75
 40
1.0
 40
1.0
 40
1.0
 40
1.0
 10
1.0876417322834646
 20
-1.7553661417322834
 30
0.0
 10
1.0876417322834646
 20
-1.7553661417322834
 30
0.0
 10
1.7391456692913387
 20
-1.3742637795275592
 30
0.0
 10
1.7391456692913387
 20
-1.3742637795275592
 30
0.0
 10
1.7391456692913387
 20
-1.3742637795275592
 30
0.0
 10
1.7391456692913387
 20
-1.3742637795275592
 30
0.0
 10
1.7391456692913387
 20
-1.0571023622047244
 30
0.0
 10
1.7391456692913387
 20
-1.0571023622047244
 30
0.0
 10
1.7391456692913387
 20
-1.0571023622047244
 30
0.0
 10
1.7391456692913387
 20
-1.0571023622047244
 30
0.0
 10
1.0876417322834646
 20
-1.4382047244094489
 30
0.0
 10
1.0876417322834646
 20
-1.4382047244094489
 30
0.0
 10
1.0876417322834646
 20
-1.4382047244094489
 30
0.0
 10
1.0876417322834646
 20
-1.4382047244094489
 30
0.0
 10
1.0876417322834646
 20
-1.7553661417322834
 30
0.0
 10
1.0876417322834646
 20
-1.7553661417322834
 30
0.0
  0
SPLINE
  5
41
100
AcDbEntity
  8
Layer 1
370
     5
100
AcDbSpline
210
0.0
220
0.0
230
1.0
 70
     1
 71
     3
 72
    20
 73
    16
 74
     0
 42
0.0000000001
 43
0.0000000001
 40
0.0
 40
0.0
 40
0.0
 40
0.0
 40
0.25
 40
0.25
 40
0.25
 40
0.25
 40
0.5
 40
0.5
 40
0.5
 40
0.5
 40
0.75
 40
0.75
 40
0.75
 40
0.75
 40
1.0
 40
1.0
 40
1.0
 40
1.0
 10
1.0876417322834646
 20
-1.7553661417322834
 30
0.0
 10
1.0876417322834646
 20
-1.7553661417322834
 30
0.0
 10
1.7391456692913387
 20
-1.3742637795275592
 30
0.0
 10
1.7391456692913387
 20
-1.3742637795275592
 30
0.0
 10
1.7391456692913387
 20
-1.3742637795275592
 30
0.0
 10
1.7391456692913387
 20
-1.3742637795275592
 30
0.0
 10
1.7391456692913387
 20
-1.0571023622047244
 30
0.0
 10
1.7391456692913387
 20
-1.0571023622047244
 30
0.0
 10
1.7391456692913387
 20
-1.0571023622047244
 30
0.0
 10
1.7391456692913387
 20
-1.0571023622047244
 30
0.0
 10
1.0876417322834646
 20
-1.4382047244094489
 30
0.0
 10
1.0876417322834646
 20
-1.4382047244094489
 30
0.0
 10
1.0876417322834646
 20
-1.4382047244094489
 30
0.0
 10
1.0876417322834646
 20
-1.4382047244094489
 30
0.0
 10
1.0876417322834646
 20
-1.7553661417322834
 30
0.0
 10
1.0876417322834646
 20
-1.7553661417322834
 30
0.0
  0
SPLINE
  5
42
100
AcDbEntity
  8
Layer 1
 62
   252
100
AcDbSpline
210
0.0
220
0.0
230
1.0
 70
     1
 71
     3
 72
    20
 73
    16
 74
     0
 42
0.0000000001
 43
0.0000000001
 40
0.0
 40
0.0
 40
0.0
 40
0.0
 40
0.25
 40
0.25
 40
0.25
 40
0.25
 40
0.5
 40
0.5
 40
0.5
 40
0.5
 40
0.75
 40
0.75
 40
0.75
 40
0.75
 40
1.0
 40
1.0
 40
1.0
 40
1.0
 10
1.0876417322834646
 20
-1.4382047244094489
 30
0.0
 10
1.0876417322834646
 20
-1.4382047244094489
 30
0.0
 10
1.7391456692913387
 20
-1.0571023622047244
 30
0.0
 10
1.7391456692913387
 20
-1.0571023622047244
 30
0.0
 10
1.7391456692913387
 20
-1.0571023622047244
 30
0.0
 10
1.7391456692913387
 20
-1.0571023622047244
 30
0.0
 10
1.6779409448818898
 20
-1.0571023622047244
 30
0.0
 10
1.6779409448818898
 20
-1.0571023622047244
 30
0.0
 10
1.6779409448818898
 20
-1.0571023622047244
 30
0.0
 10
1.6779409448818898
 20
-1.0571023622047244
 30
0.0
 10
1.0264370078740157
 20
-1.4382047244094489
 30
0.0
 10
1.0264370078740157
 20
-1.4382047244094489
 30
0.0
 10
1.0264370078740157
 20
-1.4382047244094489
 30
0.0
 10
1.0264370078740157
 20
-1.4382047244094489
 30
0.0
 10
1.0876417322834646
 20
-1.4382047244094489
 30
0.0
 10
1.0876417322834646
 20
-1.4382047244094489
 30
0.0
  0
SPLINE
  5
43
100
AcDbEntity
  8
Layer 1
370
     5
100
AcDbSpline
210
0.0
220
0.0
230
1.0
 70
     1
 71
     3
 72
    20
 73
    16
 74
     0
 42
0.0000000001
 43
0.0000000001
 40
0.0
 40
0.0
 40
0.0
 40
0.0
 40
0.25
 40
0.25
 40
0.25
 40
0.25
 40
0.5
 40
0.5
 40
0.5
 40
0.5
 40
0.75
 40
0.75
 40
0.75
 40
0.75
 40
1.0
 40
1.0
 40
1.0
 40
1.0
 10
1.0876417322834646
 20
-1.4382047244094489
 30
0.0
 10
1.0876417322834646
 20
-1.4382047244094489
 30
0.0
 10
1.7391456692913387
 20
-1.0571023622047244
 30
0.0
 10
1.7391456692913387
 20
-1.0571023622047244
 30
0.0
 10
1.7391456692913387
 20
-1.0571023622047244
 30
0.0
 10
1.7391456692913387
 20
-1.0571023622047244
 30
0.0
 10
1.6779409448818898
 20
-1.0571023622047244
 30
0.0
 10
1.6779409448818898
 20
-1.0571023622047244
 30
0.0
 10
1.6779409448818898
 20
-1.0571023622047244
 30
0.0
 10
1.6779409448818898
 20
-1.0571023622047244
 30
0.0
 10
1.0264370078740157
 20
-1.4382047244094489
 30
0.0
 10
1.0264370078740157
 20
-1.4382047244094489
 30
0.0
 10
1.0264370078740157
 20
-1.4382047244094489
 30
0.0
 10
1.0264370078740157
 20
-1.4382047244094489
 30
0.0
 10
1.0876417322834646
 20
-1.4382047244094489
 30
0.0
 10
1.0876417322834646
 20
-1.4382047244094489
 30
0.0
  0
SPLINE
  5
44
100
AcDbEntity
  8
Layer 1
 62
     9
100
AcDbSpline
210
0.0
220
0.0
230
1.0
 70
     1
 71
     3
 72
    20
 73
    16
 74
     0
 42
0.0000000001
 43
0.0000000001
 40
0.0
 40
0.0
 40
0.0
 40
0.0
 40
0.25
 40
0.25
 40
0.25
 40
0.25
 40
0.5
 40
0.5
 40
0.5
 40
0.5
 40
0.75
 40
0.75
 40
0.75
 40
0.75
 40
1.0
 40
1.0
 40
1.0
 40
1.0
 10
1.0264370078740157
 20
-1.4382047244094489
 30
0.0
 10
1.0264370078740157
 20
-1.4382047244094489
 30
0.0
 10
1.6779409448818898
 20
-1.0571023622047244
 30
0.0
 10
1.6779409448818898
 20
-1.0571023622047244
 30
0.0
 10
1.6779409448818898
 20
-1.0571023622047244
 30
0.0
 10
1.6779409448818898
 20
-1.0571023622047244
 30
0.0
 10
1.6779409448818898
 20
-0.9838937007874016
 30
0.0
 10
1.6779409448818898
 20
-0.9838937007874016
 30
0.0
 10
1.6779409448818898
 20
-0.9838937007874016
 30
0.0
 10
1.6779409448818898
 20
-0.9838937007874016
 30
0.0
 10
1.0264370078740157
 20
-1.3649960629921261
 30
0.0
 10
1.0264370078740157
 20
-1.3649960629921261
 30
0.0
 10
1.0264370078740157
 20
-1.3649960629921261
 30
0.0
 10
1.0264370078740157
 20
-1.3649960629921261
 30
0.0
 10
1.0264370078740157
 20
-1.4382047244094489
 30
0.0
 10
1.0264370078740157
 20
-1.4382047244094489
 30
0.0
  0
SPLINE
  5
45
100
AcDbEntity
  8
Layer 1
370
     5
100
AcDbSpline
210
0.0
220
0.0
230
1.0
 70
     1
 71
     3
 72
    20
 73
    16
 74
     0
 42
0.0000000001
 43
0.0000000001
 40
0.0
 40
0.0
 40
0.0
 40
0.0
 40
0.25
 40
0.25
 40
0.25
 40
0.25
 40
0.5
 40
0.5
 40
0.5
 40
0.5
 40
0.75
 40
0.75
 40
0.75
 40
0.75
 40
1.0
 40
1.0
 40
1.0
 40
1.0
 10
1.0264370078740157
 20
-1.4382047244094489
 30
0.0
 10
1.0264370078740157
 20
-1.4382047244094489
 30
0.0
 10
1.6779409448818898
 20
-1.0571023622047244
 30
0.0
 10
1.6779409448818898
 20
-1.0571023622047244
 30
0.0
 10
1.6779409448818898
 20
-1.0571023622047244
 30
0.0
 10
1.6779409448818898
 20
-1.0571023622047244
 30
0.0
 10
1.6779409448818898
 20
-0.9838937007874016
 30
0.0
 10
1.6779409448818898
 20
-0.9838937007874016
 30
0.0
 10
1.6779409448818898
 20
-0.9838937007874016
 30
0.0
 10
1.6779409448818898
 20
-0.9838937007874016
 30
0.0
 10
1.0264370078740157
 20
-1.3649960629921261
 30
0.0
 10
1.0264370078740157
 20
-1.3649960629921261
 30
0.0
 10
1.0264370078740157
 20
-1.3649960629921261
 30
0.0
 10
1.0264370078740157
 20
-1.3649960629921261
 30
0.0
 10
1.0264370078740157
 20
-1.4382047244094489
 30
0.0
 10
1.0264370078740157
 20
-1.4382047244094489
 30
0.0
  0
SPLINE
  5
46
100
AcDbEntity
  8
Layer 1
 62
   253
100
AcDbSpline
210
0.0
220
0.0
230
1.0
 70
     1
 71
     3
 72
    84
 73
    80
 74
     0
 42
0.0000000001
 43
0.0000000001
 40
0.0
 40
0.0
 40
0.0
 40
0.0
 40
0.05
 40
0.05
 40
0.05
 40
0.05
 40
0.1
 40
0.1
 40
0.1
 40
0.1
 40
0.15
 40
0.15
 40
0.15
 40
0.15
 40
0.2
 40
0.2
 40
0.2
 40
0.2
 40
0.25
 40
0.25
 40
0.25
 40
0.25
 40
0.3
 40
0.3
 40
0.3
 40
0.3
 40
0.35
 40
0.35
 40
0.35
 40
0.35
 40
0.4
 40
0.4
 40
0.4
 40
0.4
 40
0.45
 40
0.45
 40
0.45
 40
0.45
 40
0.4999999999999999
 40
0.4999999999999999
 40
0.4999999999999999
 40
0.4999999999999999
 40
0.5499999999999999
 40
0.5499999999999999
 40
0.5499999999999999
 40
0.5499999999999999
 40
0.6
 40
0.6
 40
0.6
 40
0.6
 40
0.65
 40
0.65
 40
0.65
 40
0.65
 40
0.7000000000000001
 40
0.7000000000000001
 40
0.7000000000000001
 40
0.7000000000000001
 40
0.7500000000000001
 40
0.7500000000000001
 40
0.7500000000000001
 40
0.7500000000000001
 40
0.8000000000000002
 40
0.8000000000000002
 40
0.8000000000000002
 40
0.8000000000000002
 40
0.8500000000000002
 40
0.8500000000000002
 40
0.8500000000000002
 40
0.8500000000000002
 40
0.9000000000000002
 40
0.9000000000000002
 40
0.9000000000000002
 40
0.9000000000000002
 40
0.9500000000000003
 40
0.9500000000000003
 40
0.9500000000000003
 40
0.9500000000000003
 40
1.0
 40
1.0
 40
1.0
 40
1.0
 10
1.0264370078740157
 20
-1.3649960629921261
 30
0.0
 10
1.0264370078740157
 20
-1.3649960629921261
 30
0.0
 10
1.6779409448818898
 20
-0.9838937007874016
 30
0.0
 10
1.6779409448818898
 20
-0.9838937007874016
 30
0.0
 10
1.6779409448818898
 20
-0.9838937007874016
 30
0.0
 10
1.6779409448818898
 20
-0.9838937007874016
 30
0.0
 10
1.6735078740157481
 20
-0.9829291338582678
 30
0.0
 10
1.6735078740157481
 20
-0.9829291338582678
 30
0.0
 10
1.6735078740157481
 20
-0.9829291338582678
 30
0.0
 10
1.6735078740157481
 20
-0.9829291338582678
 30
0.0
 10
1.6688661417322834
 20
-0.9819566929133858
 30
0.0
 10
1.6688661417322834
 20
-0.9819566929133858
 30
0.0
 10
1.6688661417322834
 20
-0.9819566929133858
 30
0.0
 10
1.6688661417322834
 20
-0.9819566929133858
 30
0.0
 10
1.6640275590551181
 20
-0.9809448818897638
 30
0.0
 10
1.6640275590551181
 20
-0.9809448818897638
 30
0.0
 10
1.6640275590551181
 20
-0.9809448818897638
 30
0.0
 10
1.6640275590551181
 20
-0.9809448818897638
 30
0.0
 10
1.6590236220472441
 20
-0.9798661417322835
 30
0.0
 10
1.6590236220472441
 20
-0.9798661417322835
 30
0.0
 10
1.6590236220472441
 20
-0.9798661417322835
 30
0.0
 10
1.6590236220472441
 20
-0.9798661417322835
 30
0.0
 10
1.6538622047244096
 20
-0.9786929133858268
 30
0.0
 10
1.6538622047244096
 20
-0.9786929133858268
 30
0.0
 10
1.6538622047244096
 20
-0.9786929133858268
 30
0.0
 10
1.6538622047244096
 20
-0.9786929133858268
 30
0.0
 10
1.6485826771653544
 20
-0.9774015748031496
 30
0.0
 10
1.6485826771653544
 20
-0.9774015748031496
 30
0.0
 10
1.6485826771653544
 20
-0.9774015748031496
 30
0.0
 10
1.6485826771653544
 20
-0.9774015748031496
 30
0.0
 10
1.6431929133858267
 20
-0.975968503937008
 30
0.0
 10
1.6431929133858267
 20
-0.975968503937008
 30
0.0
 10
1.6431929133858267
 20
-0.975968503937008
 30
0.0
 10
1.6431929133858267
 20
-0.975968503937008
 30
0.0
 10
1.637724409448819
 20
-0.9743700787401575
 30
0.0
 10
1.637724409448819
 20
-0.9743700787401575
 30
0.0
 10
1.637724409448819
 20
-0.9743700787401575
 30
0.0
 10
1.637724409448819
 20
-0.9743700787401575
 30
0.0
 10
1.6321889763779529
 20
-0.9725708661417323
 30
0.0
 10
1.6321889763779529
 20
-0.9725708661417323
 30
0.0
 10
1.6321889763779529
 20
-0.9725708661417323
 30
0.0
 10
1.6321889763779529
 20
-0.9725708661417323
 30
0.0
 10
0.9806850393700788
 20
-1.3536732283464568
 30
0.0
 10
0.9806850393700788
 20
-1.3536732283464568
 30
0.0
 10
0.9806850393700788
 20
-1.3536732283464568
 30
0.0
 10
0.9806850393700788
 20
-1.3536732283464568
 30
0.0
 10
0.9862204724409449
 20
-1.355472440944882
 30
0.0
 10
0.9862204724409449
 20
-1.355472440944882
 30
0.0
 10
0.9862204724409449
 20
-1.355472440944882
 30
0.0
 10
0.9862204724409449
 20
-1.355472440944882
 30
0.0
 10
0.9916889763779528
 20
-1.3570708661417323
 30
0.0
 10
0.9916889763779528
 20
-1.3570708661417323
 30
0.0
 10
0.9916889763779528
 20
-1.3570708661417323
 30
0.0
 10
0.9916889763779528
 20
-1.3570708661417323
 30
0.0
 10
0.9970787401574803
 20
-1.358503937007874
 30
0.0
 10
0.9970787401574803
 20
-1.358503937007874
 30
0.0
 10
0.9970787401574803
 20
-1.358503937007874
 30
0.0
 10
0.9970787401574803
 20
-1.358503937007874
 30
0.0
 10
1.0023582677165355
 20
-1.3597952755905511
 30
0.0
 10
1.0023582677165355
 20
-1.3597952755905511
 30
0.0
 10
1.0023582677165355
 20
-1.3597952755905511
 30
0.0
 10
1.0023582677165355
 20
-1.3597952755905511
 30
0.0
 10
1.0075196850393702
 20
-1.3609685039370079
 30
0.0
 10
1.0075196850393702
 20
-1.3609685039370079
 30
0.0
 10
1.0075196850393702
 20
-1.3609685039370079
 30
0.0
 10
1.0075196850393702
 20
-1.3609685039370079
 30
0.0
 10
1.0125236220472442
 20
-1.3620472440944882
 30
0.0
 10
1.0125236220472442
 20
-1.3620472440944882
 30
0.0
 10
1.0125236220472442
 20
-1.3620472440944882
 30
0.0
 10
1.0125236220472442
 20
-1.3620472440944882
 30
0.0
 10
1.0173622047244095
 20
-1.3630590551181103
 30
0.0
 10
1.0173622047244095
 20
-1.3630590551181103
 30
0.0
 10
1.0173622047244095
 20
-1.3630590551181103
 30
0.0
 10
1.0173622047244095
 20
-1.3630590551181103
 30
0.0
 10
1.022003937007874
 20
-1.3640314960629922
 30
0.0
 10
1.022003937007874
 20
-1.3640314960629922
 30
0.0
 10
1.022003937007874
 20
-1.3640314960629922
 30
0.0
 10
1.022003937007874
 20
-1.3640314960629922
 30
0.0
 10
1.0264370078740157
 20
-1.3649960629921261
 30
0.0
 10
1.0264370078740157
 20
-1.3649960629921261
 30
0.0
  0
SPLINE
  5
47
100
AcDbEntity
  8
Layer 1
 62
   253
100
AcDbSpline
210
0.0
220
0.0
230
1.0
 70
     1
 71
     3
 72
    68
 73
    64
 74
     0
 42
0.0000000001
 43
0.0000000001
 40
0.0
 40
0.0
 40
0.0
 40
0.0
 40
0.0625
 40
0.0625
 40
0.0625
 40
0.0625
 40
0.125
 40
0.125
 40
0.125
 40
0.125
 40
0.1875
 40
0.1875
 40
0.1875
 40
0.1875
 40
0.25
 40
0.25
 40
0.25
 40
0.25
 40
0.3125
 40
0.3125
 40
0.3125
 40
0.3125
 40
0.375
 40
0.375
 40
0.375
 40
0.375
 40
0.4375
 40
0.4375
 40
0.4375
 40
0.4375
 40
0.5
 40
0.5
 40
0.5
 40
0.5
 40
0.5625
 40
0.5625
 40
0.5625
 40
0.5625
 40
0.625
 40
0.625
 40
0.625
 40
0.625
 40
0.6875
 40
0.6875
 40
0.6875
 40
0.6875
 40
0.75
 40
0.75
 40
0.75
 40
0.75
 40
0.8125
 40
0.8125
 40
0.8125
 40
0.8125
 40
0.875
 40
0.875
 40
0.875
 40
0.875
 40
0.9375
 40
0.9375
 40
0.9375
 40
0.9375
 40
1.0
 40
1.0
 40
1.0
 40
1.0
 10
0.9806850393700788
 20
-1.3536732283464568
 30
0.0
 10
0.9806850393700788
 20
-1.3536732283464568
 30
0.0
 10
1.6321889763779529
 20
-0.9725708661417323
 30
0.0
 10
1.6321889763779529
 20
-0.9725708661417323
 30
0.0
 10
1.6321889763779529
 20
-0.9725708661417323
 30
0.0
 10
1.6321889763779529
 20
-0.9725708661417323
 30
0.0
 10
1.6266220472440946
 20
-0.9705551181102362
 30
0.0
 10
1.6266220472440946
 20
-0.9705551181102362
 30
0.0
 10
1.6266220472440946
 20
-0.9705551181102362
 30
0.0
 10
1.6266220472440946
 20
-0.9705551181102362
 30
0.0
 10
1.6210354330708663
 20
-0.9682874015748032
 30
0.0
 10
1.6210354330708663
 20
-0.9682874015748032
 30
0.0
 10
1.6210354330708663
 20
-0.9682874015748032
 30
0.0
 10
1.6210354330708663
 20
-0.9682874015748032
 30
0.0
 10
1.6154645669291339
 20
-0.9657598425196851
 30
0.0
 10
1.6154645669291339
 20
-0.9657598425196851
 30
0.0
 10
1.6154645669291339
 20
-0.9657598425196851
 30
0.0
 10
1.6154645669291339
 20
-0.9657598425196851
 30
0.0
 10
1.6099133858267718
 20
-0.9629251968503937
 30
0.0
 10
1.6099133858267718
 20
-0.9629251968503937
 30
0.0
 10
1.6099133858267718
 20
-0.9629251968503937
 30
0.0
 10
1.6099133858267718
 20
-0.9629251968503937
 30
0.0
 10
1.6044212598425198
 20
-0.9597755905511811
 30
0.0
 10
1.6044212598425198
 20
-0.9597755905511811
 30
0.0
 10
1.6044212598425198
 20
-0.9597755905511811
 30
0.0
 10
1.6044212598425198
 20
-0.9597755905511811
 30
0.0
 10
1.5990039370078741
 20
-0.9562755905511812
 30
0.0
 10
1.5990039370078741
 20
-0.9562755905511812
 30
0.0
 10
1.5990039370078741
 20
-0.9562755905511812
 30
0.0
 10
1.5990039370078741
 20
-0.9562755905511812
 30
0.0
 10
1.5936850393700788
 20
-0.9524055118110236
 30
0.0
 10
1.5936850393700788
 20
-0.9524055118110236
 30
0.0
 10
1.5936850393700788
 20
-0.9524055118110236
 30
0.0
 10
1.5936850393700788
 20
-0.9524055118110236
 30
0.0
 10
0.9421811023622048
 20
-1.333507874015748
 30
0.0
 10
0.9421811023622048
 20
-1.333507874015748
 30
0.0
 10
0.9421811023622048
 20
-1.333507874015748
 30
0.0
 10
0.9421811023622048
 20
-1.333507874015748
 30
0.0
 10
0.9475
 20
-1.3373779527559055
 30
0.0
 10
0.9475
 20
-1.3373779527559055
 30
0.0
 10
0.9475
 20
-1.3373779527559055
 30
0.0
 10
0.9475
 20
-1.3373779527559055
 30
0.0
 10
0.9529173228346457
 20
-1.3408779527559056
 30
0.0
 10
0.9529173228346457
 20
-1.3408779527559056
 30
0.0
 10
0.9529173228346457
 20
-1.3408779527559056
 30
0.0
 10
0.9529173228346457
 20
-1.3408779527559056
 30
0.0
 10
0.9584094488188977
 20
-1.3440275590551181
 30
0.0
 10
0.9584094488188977
 20
-1.3440275590551181
 30
0.0
 10
0.9584094488188977
 20
-1.3440275590551181
 30
0.0
 10
0.9584094488188977
 20
-1.3440275590551181
 30
0.0
 10
0.9639606299212599
 20
-1.3468622047244094
 30
0.0
 10
0.9639606299212599
 20
-1.3468622047244094
 30
0.0
 10
0.9639606299212599
 20
-1.3468622047244094
 30
0.0
 10
0.9639606299212599
 20
-1.3468622047244094
 30
0.0
 10
0.9695314960629922
 20
-1.3493897637795276
 30
0.0
 10
0.9695314960629922
 20
-1.3493897637795276
 30
0.0
 10
0.9695314960629922
 20
-1.3493897637795276
 30
0.0
 10
0.9695314960629922
 20
-1.3493897637795276
 30
0.0
 10
0.9751181102362205
 20
-1.3516574803149606
 30
0.0
 10
0.9751181102362205
 20
-1.3516574803149606
 30
0.0
 10
0.9751181102362205
 20
-1.3516574803149606
 30
0.0
 10
0.9751181102362205
 20
-1.3516574803149606
 30
0.0
 10
0.9806850393700788
 20
-1.3536732283464568
 30
0.0
 10
0.9806850393700788
 20
-1.3536732283464568
 30
0.0
  0
SPLINE
  5
48
100
AcDbEntity
  8
Layer 1
 62
     9
100
AcDbSpline
210
0.0
220
0.0
230
1.0
 70
     1
 71
     3
 72
    60
 73
    56
 74
     0
 42
0.0000000001
 43
0.0000000001
 40
0.0
 40
0.0
 40
0.0
 40
0.0
 40
0.0714285714285714
 40
0.0714285714285714
 40
0.0714285714285714
 40
0.0714285714285714
 40
0.1428571428571429
 40
0.1428571428571429
 40
0.1428571428571429
 40
0.1428571428571429
 40
0.2142857142857143
 40
0.2142857142857143
 40
0.2142857142857143
 40
0.2142857142857143
 40
0.2857142857142857
 40
0.2857142857142857
 40
0.2857142857142857
 40
0.2857142857142857
 40
0.3571428571428571
 40
0.3571428571428571
 40
0.3571428571428571
 40
0.3571428571428571
 40
0.4285714285714285
 40
0.4285714285714285
 40
0.4285714285714285
 40
0.4285714285714285
 40
0.4999999999999999
 40
0.4999999999999999
 40
0.4999999999999999
 40
0.4999999999999999
 40
0.5714285714285713
 40
0.5714285714285713
 40
0.5714285714285713
 40
0.5714285714285713
 40
0.6428571428571427
 40
0.6428571428571427
 40
0.6428571428571427
 40
0.6428571428571427
 40
0.7142857142857141
 40
0.7142857142857141
 40
0.7142857142857141
 40
0.7142857142857141
 40
0.7857142857142855
 40
0.7857142857142855
 40
0.7857142857142855
 40
0.7857142857142855
 40
0.8571428571428569
 40
0.8571428571428569
 40
0.8571428571428569
 40
0.8571428571428569
 40
0.9285714285714283
 40
0.9285714285714283
 40
0.9285714285714283
 40
0.9285714285714283
 40
1.0
 40
1.0
 40
1.0
 40
1.0
 10
0.9421811023622048
 20
-1.333507874015748
 30
0.0
 10
0.9421811023622048
 20
-1.333507874015748
 30
0.0
 10
1.5936850393700788
 20
-0.9524055118110236
 30
0.0
 10
1.5936850393700788
 20
-0.9524055118110236
 30
0.0
 10
1.5936850393700788
 20
-0.9524055118110236
 30
0.0
 10
1.5936850393700788
 20
-0.9524055118110236
 30
0.0
 10
1.5884803149606299
 20
-0.9481259842519686
 30
0.0
 10
1.5884803149606299
 20
-0.9481259842519686
 30
0.0
 10
1.5884803149606299
 20
-0.9481259842519686
 30
0.0
 10
1.5884803149606299
 20
-0.9481259842519686
 30
0.0
 10
1.5834173228346458
 20
-0.9434330708661418
 30
0.0
 10
1.5834173228346458
 20
-0.9434330708661418
 30
0.0
 10
1.5834173228346458
 20
-0.9434330708661418
 30
0.0
 10
1.5834173228346458
 20
-0.9434330708661418
 30
0.0
 10
1.5785196850393701
 20
-0.9382795275590552
 30
0.0
 10
1.5785196850393701
 20
-0.9382795275590552
 30
0.0
 10
1.5785196850393701
 20
-0.9382795275590552
 30
0.0
 10
1.5785196850393701
 20
-0.9382795275590552
 30
0.0
 10
1.5738149606299212
 20
-0.9326614173228347
 30
0.0
 10
1.5738149606299212
 20
-0.9326614173228347
 30
0.0
 10
1.5738149606299212
 20
-0.9326614173228347
 30
0.0
 10
1.5738149606299212
 20
-0.9326614173228347
 30
0.0
 10
1.5693110236220473
 20
-0.9265314960629921
 30
0.0
 10
1.5693110236220473
 20
-0.9265314960629921
 30
0.0
 10
1.5693110236220473
 20
-0.9265314960629921
 30
0.0
 10
1.5693110236220473
 20
-0.9265314960629921
 30
0.0
 10
1.5650472440944883
 20
-0.9198858267716535
 30
0.0
 10
1.5650472440944883
 20
-0.9198858267716535
 30
0.0
 10
1.5650472440944883
 20
-0.9198858267716535
 30
0.0
 10
1.5650472440944883
 20
-0.9198858267716535
 30
0.0
 10
0.9135433070866142
 20
-1.3009881889763779
 30
0.0
 10
0.9135433070866142
 20
-1.3009881889763779
 30
0.0
 10
0.9135433070866142
 20
-1.3009881889763779
 30
0.0
 10
0.9135433070866142
 20
-1.3009881889763779
 30
0.0
 10
0.9178070866141733
 20
-1.3076338582677165
 30
0.0
 10
0.9178070866141733
 20
-1.3076338582677165
 30
0.0
 10
0.9178070866141733
 20
-1.3076338582677165
 30
0.0
 10
0.9178070866141733
 20
-1.3076338582677165
 30
0.0
 10
0.9223110236220473
 20
-1.3137637795275592
 30
0.0
 10
0.9223110236220473
 20
-1.3137637795275592
 30
0.0
 10
0.9223110236220473
 20
-1.3137637795275592
 30
0.0
 10
0.9223110236220473
 20
-1.3137637795275592
 30
0.0
 10
0.9270157480314961
 20
-1.3193818897637797
 30
0.0
 10
0.9270157480314961
 20
-1.3193818897637797
 30
0.0
 10
0.9270157480314961
 20
-1.3193818897637797
 30
0.0
 10
0.9270157480314961
 20
-1.3193818897637797
 30
0.0
 10
0.9319133858267716
 20
-1.3245354330708663
 30
0.0
 10
0.9319133858267716
 20
-1.3245354330708663
 30
0.0
 10
0.9319133858267716
 20
-1.3245354330708663
 30
0.0
 10
0.9319133858267716
 20
-1.3245354330708663
 30
0.0
 10
0.9369763779527559
 20
-1.329228346456693
 30
0.0
 10
0.9369763779527559
 20
-1.329228346456693
 30
0.0
 10
0.9369763779527559
 20
-1.329228346456693
 30
0.0
 10
0.9369763779527559
 20
-1.329228346456693
 30
0.0
 10
0.9421811023622048
 20
-1.333507874015748
 30
0.0
 10
0.9421811023622048
 20
-1.333507874015748
 30
0.0
  0
SPLINE
  5
49
100
AcDbEntity
  8
Layer 1
 62
     9
100
AcDbSpline
210
0.0
220
0.0
230
1.0
 70
     1
 71
     3
 72
    52
 73
    48
 74
     0
 42
0.0000000001
 43
0.0000000001
 40
0.0
 40
0.0
 40
0.0
 40
0.0
 40
0.0833333333333333
 40
0.0833333333333333
 40
0.0833333333333333
 40
0.0833333333333333
 40
0.1666666666666667
 40
0.1666666666666667
 40
0.1666666666666667
 40
0.1666666666666667
 40
0.25
 40
0.25
 40
0.25
 40
0.25
 40
0.3333333333333333
 40
0.3333333333333333
 40
0.3333333333333333
 40
0.3333333333333333
 40
0.4166666666666666
 40
0.4166666666666666
 40
0.4166666666666666
 40
0.4166666666666666
 40
0.4999999999999999
 40
0.4999999999999999
 40
0.4999999999999999
 40
0.4999999999999999
 40
0.5833333333333333
 40
0.5833333333333333
 40
0.5833333333333333
 40
0.5833333333333333
 40
0.6666666666666666
 40
0.6666666666666666
 40
0.6666666666666666
 40
0.6666666666666666
 40
0.75
 40
0.75
 40
0.75
 40
0.75
 40
0.8333333333333334
 40
0.8333333333333334
 40
0.8333333333333334
 40
0.8333333333333334
 40
0.9166666666666667
 40
0.9166666666666667
 40
0.9166666666666667
 40
0.9166666666666667
 40
1.0
 40
1.0
 40
1.0
 40
1.0
 10
0.9135433070866142
 20
-1.3009881889763779
 30
0.0
 10
0.9135433070866142
 20
-1.3009881889763779
 30
0.0
 10
1.5650472440944883
 20
-0.9198858267716535
 30
0.0
 10
1.5650472440944883
 20
-0.9198858267716535
 30
0.0
 10
1.5650472440944883
 20
-0.9198858267716535
 30
0.0
 10
1.5650472440944883
 20
-0.9198858267716535
 30
0.0
 10
1.5610354330708662
 20
-0.9126811023622048
 30
0.0
 10
1.5610354330708662
 20
-0.9126811023622048
 30
0.0
 10
1.5610354330708662
 20
-0.9126811023622048
 30
0.0
 10
1.5610354330708662
 20
-0.9126811023622048
 30
0.0
 10
1.5573031496062992
 20
-0.9049055118110236
 30
0.0
 10
1.5573031496062992
 20
-0.9049055118110236
 30
0.0
 10
1.5573031496062992
 20
-0.9049055118110236
 30
0.0
 10
1.5573031496062992
 20
-0.9049055118110236
 30
0.0
 10
1.5538622047244095
 20
-0.8965196850393701
 30
0.0
 10
1.5538622047244095
 20
-0.8965196850393701
 30
0.0
 10
1.5538622047244095
 20
-0.8965196850393701
 30
0.0
 10
1.5538622047244095
 20
-0.8965196850393701
 30
0.0
 10
1.5507480314960631
 20
-0.887507874015748
 30
0.0
 10
1.5507480314960631
 20
-0.887507874015748
 30
0.0
 10
1.5507480314960631
 20
-0.887507874015748
 30
0.0
 10
1.5507480314960631
 20
-0.887507874015748
 30
0.0
 10
1.547976377952756
 20
-0.8778385826771654
 30
0.0
 10
1.547976377952756
 20
-0.8778385826771654
 30
0.0
 10
1.547976377952756
 20
-0.8778385826771654
 30
0.0
 10
1.547976377952756
 20
-0.8778385826771654
 30
0.0
 10
0.8964724409448819
 20
-1.2589409448818898
 30
0.0
 10
0.8964724409448819
 20
-1.2589409448818898
 30
0.0
 10
0.8964724409448819
 20
-1.2589409448818898
 30
0.0
 10
0.8964724409448819
 20
-1.2589409448818898
 30
0.0
 10
0.899244094488189
 20
-1.2686102362204725
 30
0.0
 10
0.899244094488189
 20
-1.2686102362204725
 30
0.0
 10
0.899244094488189
 20
-1.2686102362204725
 30
0.0
 10
0.899244094488189
 20
-1.2686102362204725
 30
0.0
 10
0.9023582677165355
 20
-1.2776220472440944
 30
0.0
 10
0.9023582677165355
 20
-1.2776220472440944
 30
0.0
 10
0.9023582677165355
 20
-1.2776220472440944
 30
0.0
 10
0.9023582677165355
 20
-1.2776220472440944
 30
0.0
 10
0.9057992125984252
 20
-1.2860078740157481
 30
0.0
 10
0.9057992125984252
 20
-1.2860078740157481
 30
0.0
 10
0.9057992125984252
 20
-1.2860078740157481
 30
0.0
 10
0.9057992125984252
 20
-1.2860078740157481
 30
0.0
 10
0.9095314960629921
 20
-1.2937834645669293
 30
0.0
 10
0.9095314960629921
 20
-1.2937834645669293
 30
0.0
 10
0.9095314960629921
 20
-1.2937834645669293
 30
0.0
 10
0.9095314960629921
 20
-1.2937834645669293
 30
0.0
 10
0.9135433070866142
 20
-1.3009881889763779
 30
0.0
 10
0.9135433070866142
 20
-1.3009881889763779
 30
0.0
  0
SPLINE
  5
4A
100
AcDbEntity
  8
Layer 1
 62
     9
100
AcDbSpline
210
0.0
220
0.0
230
1.0
 70
     1
 71
     3
 72
    44
 73
    40
 74
     0
 42
0.0000000001
 43
0.0000000001
 40
0.0
 40
0.0
 40
0.0
 40
0.0
 40
0.1
 40
0.1
 40
0.1
 40
0.1
 40
0.2
 40
0.2
 40
0.2
 40
0.2
 40
0.3
 40
0.3
 40
0.3
 40
0.3
 40
0.4
 40
0.4
 40
0.4
 40
0.4
 40
0.5
 40
0.5
 40
0.5
 40
0.5
 40
0.6
 40
0.6
 40
0.6
 40
0.6
 40
0.7
 40
0.7
 40
0.7
 40
0.7
 40
0.7999999999999999
 40
0.7999999999999999
 40
0.7999999999999999
 40
0.7999999999999999
 40
0.8999999999999999
 40
0.8999999999999999
 40
0.8999999999999999
 40
0.8999999999999999
 40
1.0
 40
1.0
 40
1.0
 40
1.0
 10
0.8964724409448819
 20
-1.2589409448818898
 30
0.0
 10
0.8964724409448819
 20
-1.2589409448818898
 30
0.0
 10
1.547976377952756
 20
-0.8778385826771654
 30
0.0
 10
1.547976377952756
 20
-0.8778385826771654
 30
0.0
 10
1.547976377952756
 20
-0.8778385826771654
 30
0.0
 10
1.547976377952756
 20
-0.8778385826771654
 30
0.0
 10
1.5455748031496064
 20
-0.867492125984252
 30
0.0
 10
1.5455748031496064
 20
-0.867492125984252
 30
0.0
 10
1.5455748031496064
 20
-0.867492125984252
 30
0.0
 10
1.5455748031496064
 20
-0.867492125984252
 30
0.0
 10
1.5435551181102363
 20
-0.8564330708661417
 30
0.0
 10
1.5435551181102363
 20
-0.8564330708661417
 30
0.0
 10
1.5435551181102363
 20
-0.8564330708661417
 30
0.0
 10
1.5435551181102363
 20
-0.8564330708661417
 30
0.0
 10
1.5419566929133859
 20
-0.8446535433070866
 30
0.0
 10
1.5419566929133859
 20
-0.8446535433070866
 30
0.0
 10
1.5419566929133859
 20
-0.8446535433070866
 30
0.0
 10
1.5419566929133859
 20
-0.8446535433070866
 30
0.0
 10
1.5407874015748033
 20
-0.8321102362204724
 30
0.0
 10
1.5407874015748033
 20
-0.8321102362204724
 30
0.0
 10
1.5407874015748033
 20
-0.8321102362204724
 30
0.0
 10
1.5407874015748033
 20
-0.8321102362204724
 30
0.0
 10
0.8892834645669292
 20
-1.2132125984251969
 30
0.0
 10
0.8892834645669292
 20
-1.2132125984251969
 30
0.0
 10
0.8892834645669292
 20
-1.2132125984251969
 30
0.0
 10
0.8892834645669292
 20
-1.2132125984251969
 30
0.0
 10
0.8904527559055119
 20
-1.225755905511811
 30
0.0
 10
0.8904527559055119
 20
-1.225755905511811
 30
0.0
 10
0.8904527559055119
 20
-1.225755905511811
 30
0.0
 10
0.8904527559055119
 20
-1.225755905511811
 30
0.0
 10
0.8920511811023623
 20
-1.2375354330708661
 30
0.0
 10
0.8920511811023623
 20
-1.2375354330708661
 30
0.0
 10
0.8920511811023623
 20
-1.2375354330708661
 30
0.0
 10
0.8920511811023623
 20
-1.2375354330708661
 30
0.0
 10
0.8940708661417324
 20
-1.2485944881889763
 30
0.0
 10
0.8940708661417324
 20
-1.2485944881889763
 30
0.0
 10
0.8940708661417324
 20
-1.2485944881889763
 30
0.0
 10
0.8940708661417324
 20
-1.2485944881889763
 30
0.0
 10
0.8964724409448819
 20
-1.2589409448818898
 30
0.0
 10
0.8964724409448819
 20
-1.2589409448818898
 30
0.0
  0
SPLINE
  5
4B
100
AcDbEntity
  8
Layer 1
 62
     9
100
AcDbSpline
210
0.0
220
0.0
230
1.0
 70
     1
 71
     3
 72
    20
 73
    16
 74
     0
 42
0.0000000001
 43
0.0000000001
 40
0.0
 40
0.0
 40
0.0
 40
0.0
 40
0.25
 40
0.25
 40
0.25
 40
0.25
 40
0.5
 40
0.5
 40
0.5
 40
0.5
 40
0.75
 40
0.75
 40
0.75
 40
0.75
 40
1.0
 40
1.0
 40
1.0
 40
1.0
 10
0.8892834645669292
 20
-1.2132125984251969
 30
0.0
 10
0.8892834645669292
 20
-1.2132125984251969
 30
0.0
 10
1.5407874015748033
 20
-0.8321102362204724
 30
0.0
 10
1.5407874015748033
 20
-0.8321102362204724
 30
0.0
 10
1.5407874015748033
 20
-0.8321102362204724
 30
0.0
 10
1.5407874015748033
 20
-0.8321102362204724
 30
0.0
 10
1.5400748031496063
 20
-0.8187952755905512
 30
0.0
 10
1.5400748031496063
 20
-0.8187952755905512
 30
0.0
 10
1.5400748031496063
 20
-0.8187952755905512
 30
0.0
 10
1.5400748031496063
 20
-0.8187952755905512
 30
0.0
 10
0.8885708661417323
 20
-1.1998976377952757
 30
0.0
 10
0.8885708661417323
 20
-1.1998976377952757
 30
0.0
 10
0.8885708661417323
 20
-1.1998976377952757
 30
0.0
 10
0.8885708661417323
 20
-1.1998976377952757
 30
0.0
 10
0.8892834645669292
 20
-1.2132125984251969
 30
0.0
 10
0.8892834645669292
 20
-1.2132125984251969
 30
0.0
  0
SPLINE
  5
4C
100
AcDbEntity
  8
Layer 1
370
     5
100
AcDbSpline
210
0.0
220
0.0
230
1.0
 70
     1
 71
     3
 72
   268
 73
   264
 74
     0
 42
0.0000000001
 43
0.0000000001
 40
0.0
 40
0.0
 40
0.0
 40
0.0
 40
0.0151515151515152
 40
0.0151515151515152
 40
0.0151515151515152
 40
0.0151515151515152
 40
0.0303030303030303
 40
0.0303030303030303
 40
0.0303030303030303
 40
0.0303030303030303
 40
0.0454545454545455
 40
0.0454545454545455
 40
0.0454545454545455
 40
0.0454545454545455
 40
0.0606060606060606
 40
0.0606060606060606
 40
0.0606060606060606
 40
0.0606060606060606
 40
0.0757575757575758
 40
0.0757575757575758
 40
0.0757575757575758
 40
0.0757575757575758
 40
0.0909090909090909
 40
0.0909090909090909
 40
0.0909090909090909
 40
0.0909090909090909
 40
0.1060606060606061
 40
0.1060606060606061
 40
0.1060606060606061
 40
0.1060606060606061
 40
0.1212121212121212
 40
0.1212121212121212
 40
0.1212121212121212
 40
0.1212121212121212
 40
0.1363636363636364
 40
0.1363636363636364
 40
0.1363636363636364
 40
0.1363636363636364
 40
0.1515151515151515
 40
0.1515151515151515
 40
0.1515151515151515
 40
0.1515151515151515
 40
0.1666666666666666
 40
0.1666666666666666
 40
0.1666666666666666
 40
0.1666666666666666
 40
0.1818181818181818
 40
0.1818181818181818
 40
0.1818181818181818
 40
0.1818181818181818
 40
0.1969696969696969
 40
0.1969696969696969
 40
0.1969696969696969
 40
0.1969696969696969
 40
0.212121212121212
 40
0.212121212121212
 40
0.212121212121212
 40
0.212121212121212
 40
0.2272727272727272
 40
0.2272727272727272
 40
0.2272727272727272
 40
0.2272727272727272
 40
0.2424242424242423
 40
0.2424242424242423
 40
0.2424242424242423
 40
0.2424242424242423
 40
0.2575757575757575
 40
0.2575757575757575
 40
0.2575757575757575
 40
0.2575757575757575
 40
0.2727272727272726
 40
0.2727272727272726
 40
0.2727272727272726
 40
0.2727272727272726
 40
0.2878787878787877
 40
0.2878787878787877
 40
0.2878787878787877
 40
0.2878787878787877
 40
0.3030303030303029
 40
0.3030303030303029
 40
0.3030303030303029
 40
0.3030303030303029
 40
0.318181818181818
 40
0.318181818181818
 40
0.318181818181818
 40
0.318181818181818
 40
0.3333333333333332
 40
0.3333333333333332
 40
0.3333333333333332
 40
0.3333333333333332
 40
0.3484848484848483
 40
0.3484848484848483
 40
0.3484848484848483
 40
0.3484848484848483
 40
0.3636363636363634
 40
0.3636363636363634
 40
0.3636363636363634
 40
0.3636363636363634
 40
0.3787878787878786
 40
0.3787878787878786
 40
0.3787878787878786
 40
0.3787878787878786
 40
0.3939393939393937
 40
0.3939393939393937
 40
0.3939393939393937
 40
0.3939393939393937
 40
0.4090909090909088
 40
0.4090909090909088
 40
0.4090909090909088
 40
0.4090909090909088
 40
0.424242424242424
 40
0.424242424242424
 40
0.424242424242424
 40
0.424242424242424
 40
0.4393939393939391
 40
0.4393939393939391
 40
0.4393939393939391
 40
0.4393939393939391
 40
0.4545454545454543
 40
0.4545454545454543
 40
0.4545454545454543
 40
0.4545454545454543
 40
0.4696969696969694
 40
0.4696969696969694
 40
0.4696969696969694
 40
0.4696969696969694
 40
0.4848484848484845
 40
0.4848484848484845
 40
0.4848484848484845
 40
0.4848484848484845
 40
0.4999999999999997
 40
0.4999999999999997
 40
0.4999999999999997
 40
0.4999999999999997
 40
0.5151515151515148
 40
0.5151515151515148
 40
0.5151515151515148
 40
0.5151515151515148
 40
0.5303030303030299
 40
0.5303030303030299
 40
0.5303030303030299
 40
0.5303030303030299
 40
0.5454545454545451
 40
0.5454545454545451
 40
0.5454545454545451
 40
0.5454545454545451
 40
0.5606060606060602
 40
0.5606060606060602
 40
0.5606060606060602
 40
0.5606060606060602
 40
0.5757575757575754
 40
0.5757575757575754
 40
0.5757575757575754
 40
0.5757575757575754
 40
0.5909090909090905
 40
0.5909090909090905
 40
0.5909090909090905
 40
0.5909090909090905
 40
0.6060606060606056
 40
0.6060606060606056
 40
0.6060606060606056
 40
0.6060606060606056
 40
0.6212121212121208
 40
0.6212121212121208
 40
0.6212121212121208
 40
0.6212121212121208
 40
0.6363636363636359
 40
0.6363636363636359
 40
0.6363636363636359
 40
0.6363636363636359
 40
0.6515151515151511
 40
0.6515151515151511
 40
0.6515151515151511
 40
0.6515151515151511
 40
0.6666666666666662
 40
0.6666666666666662
 40
0.6666666666666662
 40
0.6666666666666662
 40
0.6818181818181813
 40
0.6818181818181813
 40
0.6818181818181813
 40
0.6818181818181813
 40
0.6969696969696965
 40
0.6969696969696965
 40
0.6969696969696965
 40
0.6969696969696965
 40
0.7121212121212116
 40
0.7121212121212116
 40
0.7121212121212116
 40
0.7121212121212116
 40
0.7272727272727267
 40
0.7272727272727267
 40
0.7272727272727267
 40
0.7272727272727267
 40
0.7424242424242419
 40
0.7424242424242419
 40
0.7424242424242419
 40
0.7424242424242419
 40
0.757575757575757
 40
0.757575757575757
 40
0.757575757575757
 40
0.757575757575757
 40
0.7727272727272722
 40
0.7727272727272722
 40
0.7727272727272722
 40
0.7727272727272722
 40
0.7878787878787873
 40
0.7878787878787873
 40
0.7878787878787873
 40
0.7878787878787873
 40
0.8030303030303024
 40
0.8030303030303024
 40
0.8030303030303024
 40
0.8030303030303024
 40
0.8181818181818176
 40
0.8181818181818176
 40
0.8181818181818176
 40
0.8181818181818176
 40
0.8333333333333327
 40
0.8333333333333327
 40
0.8333333333333327
 40
0.8333333333333327
 40
0.8484848484848478
 40
0.8484848484848478
 40
0.8484848484848478
 40
0.8484848484848478
 40
0.863636363636363
 40
0.863636363636363
 40
0.863636363636363
 40
0.863636363636363
 40
0.8787878787878781
 40
0.8787878787878781
 40
0.8787878787878781
 40
0.8787878787878781
 40
0.8939393939393933
 40
0.8939393939393933
 40
0.8939393939393933
 40
0.8939393939393933
 40
0.9090909090909084
 40
0.9090909090909084
 40
0.9090909090909084
 40
0.9090909090909084
 40
0.9242424242424235
 40
0.9242424242424235
 40
0.9242424242424235
 40
0.9242424242424235
 40
0.9393939393939387
 40
0.9393939393939387
 40
0.9393939393939387
 40
0.9393939393939387
 40
0.9545454545454538
 40
0.9545454545454538
 40
0.9545454545454538
 40
0.9545454545454538
 40
0.969696969696969
 40
0.969696969696969
 40
0.969696969696969
 40
0.969696969696969
 40
0.9848484848484841
 40
0.9848484848484841
 40
0.9848484848484841
 40
0.9848484848484841
 40
1.0
 40
1.0
 40
1.0
 40
1.0
 10
1.0264370078740157
 20
-1.3649960629921261
 30
0.0
 10
1.0264370078740157
 20
-1.3649960629921261
 30
0.0
 10
1.6779409448818898
 20
-0.9838937007874016
 30
0.0
 10
1.6779409448818898
 20
-0.9838937007874016
 30
0.0
 10
1.6779409448818898
 20
-0.9838937007874016
 30
0.0
 10
1.6779409448818898
 20
-0.9838937007874016
 30
0.0
 10
1.6735078740157481
 20
-0.9829291338582678
 30
0.0
 10
1.6735078740157481
 20
-0.9829291338582678
 30
0.0
 10
1.6735078740157481
 20
-0.9829291338582678
 30
0.0
 10
1.6735078740157481
 20
-0.9829291338582678
 30
0.0
 10
1.6688661417322834
 20
-0.9819566929133858
 30
0.0
 10
1.6688661417322834
 20
-0.9819566929133858
 30
0.0
 10
1.6688661417322834
 20
-0.9819566929133858
 30
0.0
 10
1.6688661417322834
 20
-0.9819566929133858
 30
0.0
 10
1.6640275590551181
 20
-0.9809448818897638
 30
0.0
 10
1.6640275590551181
 20
-0.9809448818897638
 30
0.0
 10
1.6640275590551181
 20
-0.9809448818897638
 30
0.0
 10
1.6640275590551181
 20
-0.9809448818897638
 30
0.0
 10
1.6590236220472441
 20
-0.9798661417322835
 30
0.0
 10
1.6590236220472441
 20
-0.9798661417322835
 30
0.0
 10
1.6590236220472441
 20
-0.9798661417322835
 30
0.0
 10
1.6590236220472441
 20
-0.9798661417322835
 30
0.0
 10
1.6538622047244096
 20
-0.9786929133858268
 30
0.0
 10
1.6538622047244096
 20
-0.9786929133858268
 30
0.0
 10
1.6538622047244096
 20
-0.9786929133858268
 30
0.0
 10
1.6538622047244096
 20
-0.9786929133858268
 30
0.0
 10
1.6485826771653544
 20
-0.9774015748031496
 30
0.0
 10
1.6485826771653544
 20
-0.9774015748031496
 30
0.0
 10
1.6485826771653544
 20
-0.9774015748031496
 30
0.0
 10
1.6485826771653544
 20
-0.9774015748031496
 30
0.0
 10
1.6431929133858267
 20
-0.975968503937008
 30
0.0
 10
1.6431929133858267
 20
-0.975968503937008
 30
0.0
 10
1.6431929133858267
 20
-0.975968503937008
 30
0.0
 10
1.6431929133858267
 20
-0.975968503937008
 30
0.0
 10
1.637724409448819
 20
-0.9743700787401575
 30
0.0
 10
1.637724409448819
 20
-0.9743700787401575
 30
0.0
 10
1.637724409448819
 20
-0.9743700787401575
 30
0.0
 10
1.637724409448819
 20
-0.9743700787401575
 30
0.0
 10
1.6321889763779529
 20
-0.9725708661417323
 30
0.0
 10
1.6321889763779529
 20
-0.9725708661417323
 30
0.0
 10
1.6321889763779529
 20
-0.9725708661417323
 30
0.0
 10
1.6321889763779529
 20
-0.9725708661417323
 30
0.0
 10
1.6266220472440946
 20
-0.9705551181102362
 30
0.0
 10
1.6266220472440946
 20
-0.9705551181102362
 30
0.0
 10
1.6266220472440946
 20
-0.9705551181102362
 30
0.0
 10
1.6266220472440946
 20
-0.9705551181102362
 30
0.0
 10
1.6210354330708663
 20
-0.9682874015748032
 30
0.0
 10
1.6210354330708663
 20
-0.9682874015748032
 30
0.0
 10
1.6210354330708663
 20
-0.9682874015748032
 30
0.0
 10
1.6210354330708663
 20
-0.9682874015748032
 30
0.0
 10
1.6154645669291339
 20
-0.9657598425196851
 30
0.0
 10
1.6154645669291339
 20
-0.9657598425196851
 30
0.0
 10
1.6154645669291339
 20
-0.9657598425196851
 30
0.0
 10
1.6154645669291339
 20
-0.9657598425196851
 30
0.0
 10
1.6099133858267718
 20
-0.9629251968503937
 30
0.0
 10
1.6099133858267718
 20
-0.9629251968503937
 30
0.0
 10
1.6099133858267718
 20
-0.9629251968503937
 30
0.0
 10
1.6099133858267718
 20
-0.9629251968503937
 30
0.0
 10
1.6044212598425198
 20
-0.9597755905511811
 30
0.0
 10
1.6044212598425198
 20
-0.9597755905511811
 30
0.0
 10
1.6044212598425198
 20
-0.9597755905511811
 30
0.0
 10
1.6044212598425198
 20
-0.9597755905511811
 30
0.0
 10
1.5990039370078741
 20
-0.9562755905511812
 30
0.0
 10
1.5990039370078741
 20
-0.9562755905511812
 30
0.0
 10
1.5990039370078741
 20
-0.9562755905511812
 30
0.0
 10
1.5990039370078741
 20
-0.9562755905511812
 30
0.0
 10
1.5936850393700788
 20
-0.9524055118110236
 30
0.0
 10
1.5936850393700788
 20
-0.9524055118110236
 30
0.0
 10
1.5936850393700788
 20
-0.9524055118110236
 30
0.0
 10
1.5936850393700788
 20
-0.9524055118110236
 30
0.0
 10
1.5884803149606299
 20
-0.9481259842519686
 30
0.0
 10
1.5884803149606299
 20
-0.9481259842519686
 30
0.0
 10
1.5884803149606299
 20
-0.9481259842519686
 30
0.0
 10
1.5884803149606299
 20
-0.9481259842519686
 30
0.0
 10
1.5834173228346458
 20
-0.9434330708661418
 30
0.0
 10
1.5834173228346458
 20
-0.9434330708661418
 30
0.0
 10
1.5834173228346458
 20
-0.9434330708661418
 30
0.0
 10
1.5834173228346458
 20
-0.9434330708661418
 30
0.0
 10
1.5785196850393701
 20
-0.9382795275590552
 30
0.0
 10
1.5785196850393701
 20
-0.9382795275590552
 30
0.0
 10
1.5785196850393701
 20
-0.9382795275590552
 30
0.0
 10
1.5785196850393701
 20
-0.9382795275590552
 30
0.0
 10
1.5738149606299212
 20
-0.9326614173228347
 30
0.0
 10
1.5738149606299212
 20
-0.9326614173228347
 30
0.0
 10
1.5738149606299212
 20
-0.9326614173228347
 30
0.0
 10
1.5738149606299212
 20
-0.9326614173228347
 30
0.0
 10
1.5693110236220473
 20
-0.9265314960629921
 30
0.0
 10
1.5693110236220473
 20
-0.9265314960629921
 30
0.0
 10
1.5693110236220473
 20
-0.9265314960629921
 30
0.0
 10
1.5693110236220473
 20
-0.9265314960629921
 30
0.0
 10
1.5650472440944883
 20
-0.9198858267716535
 30
0.0
 10
1.5650472440944883
 20
-0.9198858267716535
 30
0.0
 10
1.5650472440944883
 20
-0.9198858267716535
 30
0.0
 10
1.5650472440944883
 20
-0.9198858267716535
 30
0.0
 10
1.5610354330708662
 20
-0.9126811023622048
 30
0.0
 10
1.5610354330708662
 20
-0.9126811023622048
 30
0.0
 10
1.5610354330708662
 20
-0.9126811023622048
 30
0.0
 10
1.5610354330708662
 20
-0.9126811023622048
 30
0.0
 10
1.5573031496062992
 20
-0.9049055118110236
 30
0.0
 10
1.5573031496062992
 20
-0.9049055118110236
 30
0.0
 10
1.5573031496062992
 20
-0.9049055118110236
 30
0.0
 10
1.5573031496062992
 20
-0.9049055118110236
 30
0.0
 10
1.5538622047244095
 20
-0.8965196850393701
 30
0.0
 10
1.5538622047244095
 20
-0.8965196850393701
 30
0.0
 10
1.5538622047244095
 20
-0.8965196850393701
 30
0.0
 10
1.5538622047244095
 20
-0.8965196850393701
 30
0.0
 10
1.5507480314960631
 20
-0.887507874015748
 30
0.0
 10
1.5507480314960631
 20
-0.887507874015748
 30
0.0
 10
1.5507480314960631
 20
-0.887507874015748
 30
0.0
 10
1.5507480314960631
 20
-0.887507874015748
 30
0.0
 10
1.547976377952756
 20
-0.8778385826771654
 30
0.0
 10
1.547976377952756
 20
-0.8778385826771654
 30
0.0
 10
1.547976377952756
 20
-0.8778385826771654
 30
0.0
 10
1.547976377952756
 20
-0.8778385826771654
 30
0.0
 10
1.5455748031496064
 20
-0.867492125984252
 30
0.0
 10
1.5455748031496064
 20
-0.867492125984252
 30
0.0
 10
1.5455748031496064
 20
-0.867492125984252
 30
0.0
 10
1.5455748031496064
 20
-0.867492125984252
 30
0.0
 10
1.5435551181102363
 20
-0.8564330708661417
 30
0.0
 10
1.5435551181102363
 20
-0.8564330708661417
 30
0.0
 10
1.5435551181102363
 20
-0.8564330708661417
 30
0.0
 10
1.5435551181102363
 20
-0.8564330708661417
 30
0.0
 10
1.5419566929133859
 20
-0.8446535433070866
 30
0.0
 10
1.5419566929133859
 20
-0.8446535433070866
 30
0.0
 10
1.5419566929133859
 20
-0.8446535433070866
 30
0.0
 10
1.5419566929133859
 20
-0.8446535433070866
 30
0.0
 10
1.5407874015748033
 20
-0.8321102362204724
 30
0.0
 10
1.5407874015748033
 20
-0.8321102362204724
 30
0.0
 10
1.5407874015748033
 20
-0.8321102362204724
 30
0.0
 10
1.5407874015748033
 20
-0.8321102362204724
 30
0.0
 10
1.5400748031496063
 20
-0.8187952755905512
 30
0.0
 10
1.5400748031496063
 20
-0.8187952755905512
 30
0.0
 10
1.5400748031496063
 20
-0.8187952755905512
 30
0.0
 10
1.5400748031496063
 20
-0.8187952755905512
 30
0.0
 10
0.8885708661417323
 20
-1.1998976377952757
 30
0.0
 10
0.8885708661417323
 20
-1.1998976377952757
 30
0.0
 10
0.8885708661417323
 20
-1.1998976377952757
 30
0.0
 10
0.8885708661417323
 20
-1.1998976377952757
 30
0.0
 10
0.8892834645669292
 20
-1.2132125984251969
 30
0.0
 10
0.8892834645669292
 20
-1.2132125984251969
 30
0.0
 10
0.8892834645669292
 20
-1.2132125984251969
 30
0.0
 10
0.8892834645669292
 20
-1.2132125984251969
 30
0.0
 10
0.8904527559055119
 20
-1.225755905511811
 30
0.0
 10
0.8904527559055119
 20
-1.225755905511811
 30
0.0
 10
0.8904527559055119
 20
-1.225755905511811
 30
0.0
 10
0.8904527559055119
 20
-1.225755905511811
 30
0.0
 10
0.8920511811023623
 20
-1.2375354330708661
 30
0.0
 10
0.8920511811023623
 20
-1.2375354330708661
 30
0.0
 10
0.8920511811023623
 20
-1.2375354330708661
 30
0.0
 10
0.8920511811023623
 20
-1.2375354330708661
 30
0.0
 10
0.8940708661417324
 20
-1.2485944881889763
 30
0.0
 10
0.8940708661417324
 20
-1.2485944881889763
 30
0.0
 10
0.8940708661417324
 20
-1.2485944881889763
 30
0.0
 10
0.8940708661417324
 20
-1.2485944881889763
 30
0.0
 10
0.8964724409448819
 20
-1.2589409448818898
 30
0.0
 10
0.8964724409448819
 20
-1.2589409448818898
 30
0.0
 10
0.8964724409448819
 20
-1.2589409448818898
 30
0.0
 10
0.8964724409448819
 20
-1.2589409448818898
 30
0.0
 10
0.899244094488189
 20
-1.2686102362204725
 30
0.0
 10
0.899244094488189
 20
-1.2686102362204725
 30
0.0
 10
0.899244094488189
 20
-1.2686102362204725
 30
0.0
 10
0.899244094488189
 20
-1.2686102362204725
 30
0.0
 10
0.9023582677165355
 20
-1.2776220472440944
 30
0.0
 10
0.9023582677165355
 20
-1.2776220472440944
 30
0.0
 10
0.9023582677165355
 20
-1.2776220472440944
 30
0.0
 10
0.9023582677165355
 20
-1.2776220472440944
 30
0.0
 10
0.9057992125984252
 20
-1.2860078740157481
 30
0.0
 10
0.9057992125984252
 20
-1.2860078740157481
 30
0.0
 10
0.9057992125984252
 20
-1.2860078740157481
 30
0.0
 10
0.9057992125984252
 20
-1.2860078740157481
 30
0.0
 10
0.9095314960629921
 20
-1.2937834645669293
 30
0.0
 10
0.9095314960629921
 20
-1.2937834645669293
 30
0.0
 10
0.9095314960629921
 20
-1.2937834645669293
 30
0.0
 10
0.9095314960629921
 20
-1.2937834645669293
 30
0.0
 10
0.9135433070866142
 20
-1.3009881889763779
 30
0.0
 10
0.9135433070866142
 20
-1.3009881889763779
 30
0.0
 10
0.9135433070866142
 20
-1.3009881889763779
 30
0.0
 10
0.9135433070866142
 20
-1.3009881889763779
 30
0.0
 10
0.9178070866141733
 20
-1.3076338582677165
 30
0.0
 10
0.9178070866141733
 20
-1.3076338582677165
 30
0.0
 10
0.9178070866141733
 20
-1.3076338582677165
 30
0.0
 10
0.9178070866141733
 20
-1.3076338582677165
 30
0.0
 10
0.9223110236220473
 20
-1.3137637795275592
 30
0.0
 10
0.9223110236220473
 20
-1.3137637795275592
 30
0.0
 10
0.9223110236220473
 20
-1.3137637795275592
 30
0.0
 10
0.9223110236220473
 20
-1.3137637795275592
 30
0.0
 10
0.9270157480314961
 20
-1.3193818897637797
 30
0.0
 10
0.9270157480314961
 20
-1.3193818897637797
 30
0.0
 10
0.9270157480314961
 20
-1.3193818897637797
 30
0.0
 10
0.9270157480314961
 20
-1.3193818897637797
 30
0.0
 10
0.9319133858267716
 20
-1.3245354330708663
 30
0.0
 10
0.9319133858267716
 20
-1.3245354330708663
 30
0.0
 10
0.9319133858267716
 20
-1.3245354330708663
 30
0.0
 10
0.9319133858267716
 20
-1.3245354330708663
 30
0.0
 10
0.9369763779527559
 20
-1.329228346456693
 30
0.0
 10
0.9369763779527559
 20
-1.329228346456693
 30
0.0
 10
0.9369763779527559
 20
-1.329228346456693
 30
0.0
 10
0.9369763779527559
 20
-1.329228346456693
 30
0.0
 10
0.9421811023622048
 20
-1.333507874015748
 30
0.0
 10
0.9421811023622048
 20
-1.333507874015748
 30
0.0
 10
0.9421811023622048
 20
-1.333507874015748
 30
0.0
 10
0.9421811023622048
 20
-1.333507874015748
 30
0.0
 10
0.9475
 20
-1.3373779527559055
 30
0.0
 10
0.9475
 20
-1.3373779527559055
 30
0.0
 10
0.9475
 20
-1.3373779527559055
 30
0.0
 10
0.9475
 20
-1.3373779527559055
 30
0.0
 10
0.9529173228346457
 20
-1.3408779527559056
 30
0.0
 10
0.9529173228346457
 20
-1.3408779527559056
 30
0.0
 10
0.9529173228346457
 20
-1.3408779527559056
 30
0.0
 10
0.9529173228346457
 20
-1.3408779527559056
 30
0.0
 10
0.9584094488188977
 20
-1.3440275590551181
 30
0.0
 10
0.9584094488188977
 20
-1.3440275590551181
 30
0.0
 10
0.9584094488188977
 20
-1.3440275590551181
 30
0.0
 10
0.9584094488188977
 20
-1.3440275590551181
 30
0.0
 10
0.9639606299212599
 20
-1.3468622047244094
 30
0.0
 10
0.9639606299212599
 20
-1.3468622047244094
 30
0.0
 10
0.9639606299212599
 20
-1.3468622047244094
 30
0.0
 10
0.9639606299212599
 20
-1.3468622047244094
 30
0.0
 10
0.9695314960629922
 20
-1.3493897637795276
 30
0.0
 10
0.9695314960629922
 20
-1.3493897637795276
 30
0.0
 10
0.9695314960629922
 20
-1.3493897637795276
 30
0.0
 10
0.9695314960629922
 20
-1.3493897637795276
 30
0.0
 10
0.9751181102362205
 20
-1.3516574803149606
 30
0.0
 10
0.9751181102362205
 20
-1.3516574803149606
 30
0.0
 10
0.9751181102362205
 20
-1.3516574803149606
 30
0.0
 10
0.9751181102362205
 20
-1.3516574803149606
 30
0.0
 10
0.9806850393700788
 20
-1.3536732283464568
 30
0.0
 10
0.9806850393700788
 20
-1.3536732283464568
 30
0.0
 10
0.9806850393700788
 20
-1.3536732283464568
 30
0.0
 10
0.9806850393700788
 20
-1.3536732283464568
 30
0.0
 10
0.9862204724409449
 20
-1.355472440944882
 30
0.0
 10
0.9862204724409449
 20
-1.355472440944882
 30
0.0
 10
0.9862204724409449
 20
-1.355472440944882
 30
0.0
 10
0.9862204724409449
 20
-1.355472440944882
 30
0.0
 10
0.9916889763779528
 20
-1.3570708661417323
 30
0.0
 10
0.9916889763779528
 20
-1.3570708661417323
 30
0.0
 10
0.9916889763779528
 20
-1.3570708661417323
 30
0.0
 10
0.9916889763779528
 20
-1.3570708661417323
 30
0.0
 10
0.9970787401574803
 20
-1.358503937007874
 30
0.0
 10
0.9970787401574803
 20
-1.358503937007874
 30
0.0
 10
0.9970787401574803
 20
-1.358503937007874
 30
0.0
 10
0.9970787401574803
 20
-1.358503937007874
 30
0.0
 10
1.0023582677165355
 20
-1.3597952755905511
 30
0.0
 10
1.0023582677165355
 20
-1.3597952755905511
 30
0.0
 10
1.0023582677165355
 20
-1.3597952755905511
 30
0.0
 10
1.0023582677165355
 20
-1.3597952755905511
 30
0.0
 10
1.0075196850393702
 20
-1.3609685039370079
 30
0.0
 10
1.0075196850393702
 20
-1.3609685039370079
 30
0.0
 10
1.0075196850393702
 20
-1.3609685039370079
 30
0.0
 10
1.0075196850393702
 20
-1.3609685039370079
 30
0.0
 10
1.0125236220472442
 20
-1.3620472440944882
 30
0.0
 10
1.0125236220472442
 20
-1.3620472440944882
 30
0.0
 10
1.0125236220472442
 20
-1.3620472440944882
 30
0.0
 10
1.0125236220472442
 20
-1.3620472440944882
 30
0.0
 10
1.0173622047244095
 20
-1.3630590551181103
 30
0.0
 10
1.0173622047244095
 20
-1.3630590551181103
 30
0.0
 10
1.0173622047244095
 20
-1.3630590551181103
 30
0.0
 10
1.0173622047244095
 20
-1.3630590551181103
 30
0.0
 10
1.022003937007874
 20
-1.3640314960629922
 30
0.0
 10
1.022003937007874
 20
-1.3640314960629922
 30
0.0
 10
1.022003937007874
 20
-1.3640314960629922
 30
0.0
 10
1.022003937007874
 20
-1.3640314960629922
 30
0.0
 10
1.0264370078740157
 20
-1.3649960629921261
 30
0.0
 10
1.0264370078740157
 20
-1.3649960629921261
 30
0.0
  0
SPLINE
  5
4D
100
AcDbEntity
  8
Layer 1
 62
   252
100
AcDbSpline
210
0.0
220
0.0
230
1.0
 70
     1
 71
     3
 72
    20
 73
    16
 74
     0
 42
0.0000000001
 43
0.0000000001
 40
0.0
 40
0.0
 40
0.0
 40
0.0
 40
0.25
 40
0.25
 40
0.25
 40
0.25
 40
0.5
 40
0.5
 40
0.5
 40
0.5
 40
0.75
 40
0.75
 40
0.75
 40
0.75
 40
1.0
 40
1.0
 40
1.0
 40
1.0
 10
0.8885708661417323
 20
-1.1998976377952757
 30
0.0
 10
0.8885708661417323
 20
-1.1998976377952757
 30
0.0
 10
1.5400748031496063
 20
-0.8187952755905512
 30
0.0
 10
1.5400748031496063
 20
-0.8187952755905512
 30
0.0
 10
1.5400748031496063
 20
-0.8187952755905512
 30
0.0
 10
1.5400748031496063
 20
-0.8187952755905512
 30
0.0
 10
1.4123188976377954
 20
-0.8187952755905512
 30
0.0
 10
1.4123188976377954
 20
-0.8187952755905512
 30
0.0
 10
1.4123188976377954
 20
-0.8187952755905512
 30
0.0
 10
1.4123188976377954
 20
-0.8187952755905512
 30
0.0
 10
0.7608149606299213
 20
-1.1998976377952757
 30
0.0
 10
0.7608149606299213
 20
-1.1998976377952757
 30
0.0
 10
0.7608149606299213
 20
-1.1998976377952757
 30
0.0
 10
0.7608149606299213
 20
-1.1998976377952757
 30
0.0
 10
0.8885708661417323
 20
-1.1998976377952757
 30
0.0
 10
0.8885708661417323
 20
-1.1998976377952757
 30
0.0
  0
SPLINE
  5
4E
100
AcDbEntity
  8
Layer 1
370
     5
100
AcDbSpline
210
0.0
220
0.0
230
1.0
 70
     1
 71
     3
 72
    20
 73
    16
 74
     0
 42
0.0000000001
 43
0.0000000001
 40
0.0
 40
0.0
 40
0.0
 40
0.0
 40
0.25
 40
0.25
 40
0.25
 40
0.25
 40
0.5
 40
0.5
 40
0.5
 40
0.5
 40
0.75
 40
0.75
 40
0.75
 40
0.75
 40
1.0
 40
1.0
 40
1.0
 40
1.0
 10
0.8885708661417323
 20
-1.1998976377952757
 30
0.0
 10
0.8885708661417323
 20
-1.1998976377952757
 30
0.0
 10
1.5400748031496063
 20
-0.8187952755905512
 30
0.0
 10
1.5400748031496063
 20
-0.8187952755905512
 30
0.0
 10
1.5400748031496063
 20
-0.8187952755905512
 30
0.0
 10
1.5400748031496063
 20
-0.8187952755905512
 30
0.0
 10
1.4123188976377954
 20
-0.8187952755905512
 30
0.0
 10
1.4123188976377954
 20
-0.8187952755905512
 30
0.0
 10
1.4123188976377954
 20
-0.8187952755905512
 30
0.0
 10
1.4123188976377954
 20
-0.8187952755905512
 30
0.0
 10
0.7608149606299213
 20
-1.1998976377952757
 30
0.0
 10
0.7608149606299213
 20
-1.1998976377952757
 30
0.0
 10
0.7608149606299213
 20
-1.1998976377952757
 30
0.0
 10
0.7608149606299213
 20
-1.1998976377952757
 30
0.0
 10
0.8885708661417323
 20
-1.1998976377952757
 30
0.0
 10
0.8885708661417323
 20
-1.1998976377952757
 30
0.0
  0
SPLINE
  5
4F
100
AcDbEntity
  8
Layer 1
 62
     9
100
AcDbSpline
210
0.0
220
0.0
230
1.0
 70
     1
 71
     3
 72
    20
 73
    16
 74
     0
 42
0.0000000001
 43
0.0000000001
 40
0.0
 40
0.0
 40
0.0
 40
0.0
 40
0.25
 40
0.25
 40
0.25
 40
0.25
 40
0.5
 40
0.5
 40
0.5
 40
0.5
 40
0.75
 40
0.75
 40
0.75
 40
0.75
 40
1.0
 40
1.0
 40
1.0
 40
1.0
 10
0.7608149606299213
 20
-1.1998976377952757
 30
0.0
 10
0.7608149606299213
 20
-1.1998976377952757
 30
0.0
 10
1.4123188976377954
 20
-0.8187952755905512
 30
0.0
 10
1.4123188976377954
 20
-0.8187952755905512
 30
0.0
 10
1.4123188976377954
 20
-0.8187952755905512
 30
0.0
 10
1.4123188976377954
 20
-0.8187952755905512
 30
0.0
 10
1.4013503937007874
 20
-0.7492716535433072
 30
0.0
 10
1.4013503937007874
 20
-0.7492716535433072
 30
0.0
 10
1.4013503937007874
 20
-0.7492716535433072
 30
0.0
 10
1.4013503937007874
 20
-0.7492716535433072
 30
0.0
 10
0.7498464566929134
 20
-1.1303740157480315
 30
0.0
 10
0.7498464566929134
 20
-1.1303740157480315
 30
0.0
 10
0.7498464566929134
 20
-1.1303740157480315
 30
0.0
 10
0.7498464566929134
 20
-1.1303740157480315
 30
0.0
 10
0.7608149606299213
 20
-1.1998976377952757
 30
0.0
 10
0.7608149606299213
 20
-1.1998976377952757
 30
0.0
  0
SPLINE
  5
50
100
AcDbEntity
  8
Layer 1
370
     5
100
AcDbSpline
210
0.0
220
0.0
230
1.0
 70
     1
 71
     3
 72
    20
 73
    16
 74
     0
 42
0.0000000001
 43
0.0000000001
 40
0.0
 40
0.0
 40
0.0
 40
0.0
 40
0.25
 40
0.25
 40
0.25
 40
0.25
 40
0.5
 40
0.5
 40
0.5
 40
0.5
 40
0.75
 40
0.75
 40
0.75
 40
0.75
 40
1.0
 40
1.0
 40
1.0
 40
1.0
 10
0.7608149606299213
 20
-1.1998976377952757
 30
0.0
 10
0.7608149606299213
 20
-1.1998976377952757
 30
0.0
 10
1.4123188976377954
 20
-0.8187952755905512
 30
0.0
 10
1.4123188976377954
 20
-0.8187952755905512
 30
0.0
 10
1.4123188976377954
 20
-0.8187952755905512
 30
0.0
 10
1.4123188976377954
 20
-0.8187952755905512
 30
0.0
 10
1.4013503937007874
 20
-0.7492716535433072
 30
0.0
 10
1.4013503937007874
 20
-0.7492716535433072
 30
0.0
 10
1.4013503937007874
 20
-0.7492716535433072
 30
0.0
 10
1.4013503937007874
 20
-0.7492716535433072
 30
0.0
 10
0.7498464566929134
 20
-1.1303740157480315
 30
0.0
 10
0.7498464566929134
 20
-1.1303740157480315
 30
0.0
 10
0.7498464566929134
 20
-1.1303740157480315
 30
0.0
 10
0.7498464566929134
 20
-1.1303740157480315
 30
0.0
 10
0.7608149606299213
 20
-1.1998976377952757
 30
0.0
 10
0.7608149606299213
 20
-1.1998976377952757
 30
0.0
  0
SPLINE
  5
51
100
AcDbEntity
  8
Layer 1
 62
   252
100
AcDbSpline
210
0.0
220
0.0
230
1.0
 70
     1
 71
     3
 72
    20
 73
    16
 74
     0
 42
0.0000000001
 43
0.0000000001
 40
0.0
 40
0.0
 40
0.0
 40
0.0
 40
0.25
 40
0.25
 40
0.25
 40
0.25
 40
0.5
 40
0.5
 40
0.5
 40
0.5
 40
0.75
 40
0.75
 40
0.75
 40
0.75
 40
1.0
 40
1.0
 40
1.0
 40
1.0
 10
-0.3861023622047244
 20
-1.1999055118110236
 30
0.0
 10
-0.3861023622047244
 20
-1.1999055118110236
 30
0.0
 10
0.2654015748031496
 20
-0.8188031496062993
 30
0.0
 10
0.2654015748031496
 20
-0.8188031496062993
 30
0.0
 10
0.2654015748031496
 20
-0.8188031496062993
 30
0.0
 10
0.2654015748031496
 20
-0.8188031496062993
 30
0.0
 10
0.1376456692913386
 20
-0.8188031496062993
 30
0.0
 10
0.1376456692913386
 20
-0.8188031496062993
 30
0.0
 10
0.1376456692913386
 20
-0.8188031496062993
 30
0.0
 10
0.1376456692913386
 20
-0.8188031496062993
 30
0.0
 10
-0.5138582677165354
 20
-1.1999055118110236
 30
0.0
 10
-0.5138582677165354
 20
-1.1999055118110236
 30
0.0
 10
-0.5138582677165354
 20
-1.1999055118110236
 30
0.0
 10
-0.5138582677165354
 20
-1.1999055118110236
 30
0.0
 10
-0.3861023622047244
 20
-1.1999055118110236
 30
0.0
 10
-0.3861023622047244
 20
-1.1999055118110236
 30
0.0
  0
SPLINE
  5
52
100
AcDbEntity
  8
Layer 1
370
     5
100
AcDbSpline
210
0.0
220
0.0
230
1.0
 70
     1
 71
     3
 72
    20
 73
    16
 74
     0
 42
0.0000000001
 43
0.0000000001
 40
0.0
 40
0.0
 40
0.0
 40
0.0
 40
0.25
 40
0.25
 40
0.25
 40
0.25
 40
0.5
 40
0.5
 40
0.5
 40
0.5
 40
0.75
 40
0.75
 40
0.75
 40
0.75
 40
1.0
 40
1.0
 40
1.0
 40
1.0
 10
-0.3861023622047244
 20
-1.1999055118110236
 30
0.0
 10
-0.3861023622047244
 20
-1.1999055118110236
 30
0.0
 10
0.2654015748031496
 20
-0.8188031496062993
 30
0.0
 10
0.2654015748031496
 20
-0.8188031496062993
 30
0.0
 10
0.2654015748031496
 20
-0.8188031496062993
 30
0.0
 10
0.2654015748031496
 20
-0.8188031496062993
 30
0.0
 10
0.1376456692913386
 20
-0.8188031496062993
 30
0.0
 10
0.1376456692913386
 20
-0.8188031496062993
 30
0.0
 10
0.1376456692913386
 20
-0.8188031496062993
 30
0.0
 10
0.1376456692913386
 20
-0.8188031496062993
 30
0.0
 10
-0.5138582677165354
 20
-1.1999055118110236
 30
0.0
 10
-0.5138582677165354
 20
-1.1999055118110236
 30
0.0
 10
-0.5138582677165354
 20
-1.1999055118110236
 30
0.0
 10
-0.5138582677165354
 20
-1.1999055118110236
 30
0.0
 10
-0.3861023622047244
 20
-1.1999055118110236
 30
0.0
 10
-0.3861023622047244
 20
-1.1999055118110236
 30
0.0
  0
SPLINE
  5
53
100
AcDbEntity
  8
Layer 1
 62
   109
100
AcDbSpline
210
0.0
220
0.0
230
1.0
 70
     1
 71
     3
 72
    76
 73
    72
 74
     0
 42
0.0000000001
 43
0.0000000001
 40
0.0
 40
0.0
 40
0.0
 40
0.0
 40
0.0555555555555556
 40
0.0555555555555556
 40
0.0555555555555556
 40
0.0555555555555556
 40
0.1111111111111111
 40
0.1111111111111111
 40
0.1111111111111111
 40
0.1111111111111111
 40
0.1666666666666667
 40
0.1666666666666667
 40
0.1666666666666667
 40
0.1666666666666667
 40
0.2222222222222222
 40
0.2222222222222222
 40
0.2222222222222222
 40
0.2222222222222222
 40
0.2777777777777778
 40
0.2777777777777778
 40
0.2777777777777778
 40
0.2777777777777778
 40
0.3333333333333334
 40
0.3333333333333334
 40
0.3333333333333334
 40
0.3333333333333334
 40
0.388888888888889
 40
0.388888888888889
 40
0.388888888888889
 40
0.388888888888889
 40
0.4444444444444445
 40
0.4444444444444445
 40
0.4444444444444445
 40
0.4444444444444445
 40
0.5000000000000001
 40
0.5000000000000001
 40
0.5000000000000001
 40
0.5000000000000001
 40
0.5555555555555557
 40
0.5555555555555557
 40
0.5555555555555557
 40
0.5555555555555557
 40
0.6111111111111113
 40
0.6111111111111113
 40
0.6111111111111113
 40
0.6111111111111113
 40
0.6666666666666669
 40
0.6666666666666669
 40
0.6666666666666669
 40
0.6666666666666669
 40
0.7222222222222224
 40
0.7222222222222224
 40
0.7222222222222224
 40
0.7222222222222224
 40
0.777777777777778
 40
0.777777777777778
 40
0.777777777777778
 40
0.777777777777778
 40
0.8333333333333336
 40
0.8333333333333336
 40
0.8333333333333336
 40
0.8333333333333336
 40
0.8888888888888892
 40
0.8888888888888892
 40
0.8888888888888892
 40
0.8888888888888892
 40
0.9444444444444448
 40
0.9444444444444448
 40
0.9444444444444448
 40
0.9444444444444448
 40
1.0
 40
1.0
 40
1.0
 40
1.0
 10
-0.5836968503937008
 20
-1.3440354330708661
 30
0.0
 10
-0.5836968503937008
 20
-1.3440354330708661
 30
0.0
 10
0.0678070866141732
 20
-0.9629330708661418
 30
0.0
 10
0.0678070866141732
 20
-0.9629330708661418
 30
0.0
 10
0.0678070866141732
 20
-0.9629330708661418
 30
0.0
 10
0.0678070866141732
 20
-0.9629330708661418
 30
0.0
 10
0.062255905511811
 20
-0.9657677165354331
 30
0.0
 10
0.062255905511811
 20
-0.9657677165354331
 30
0.0
 10
0.062255905511811
 20
-0.9657677165354331
 30
0.0
 10
0.062255905511811
 20
-0.9657677165354331
 30
0.0
 10
0.0566850393700787
 20
-0.9682952755905512
 30
0.0
 10
0.0566850393700787
 20
-0.9682952755905512
 30
0.0
 10
0.0566850393700787
 20
-0.9682952755905512
 30
0.0
 10
0.0566850393700787
 20
-0.9682952755905512
 30
0.0
 10
0.0510984251968504
 20
-0.9705629921259843
 30
0.0
 10
0.0510984251968504
 20
-0.9705629921259843
 30
0.0
 10
0.0510984251968504
 20
-0.9705629921259843
 30
0.0
 10
0.0510984251968504
 20
-0.9705629921259843
 30
0.0
 10
0.0455314960629921
 20
-0.9725787401574804
 30
0.0
 10
0.0455314960629921
 20
-0.9725787401574804
 30
0.0
 10
0.0455314960629921
 20
-0.9725787401574804
 30
0.0
 10
0.0455314960629921
 20
-0.9725787401574804
 30
0.0
 10
0.039996062992126
 20
-0.9743779527559056
 30
0.0
 10
0.039996062992126
 20
-0.9743779527559056
 30
0.0
 10
0.039996062992126
 20
-0.9743779527559056
 30
0.0
 10
0.039996062992126
 20
-0.9743779527559056
 30
0.0
 10
0.0345275590551181
 20
-0.9759763779527559
 30
0.0
 10
0.0345275590551181
 20
-0.9759763779527559
 30
0.0
 10
0.0345275590551181
 20
-0.9759763779527559
 30
0.0
 10
0.0345275590551181
 20
-0.9759763779527559
 30
0.0
 10
0.0291377952755906
 20
-0.9774094488188977
 30
0.0
 10
0.0291377952755906
 20
-0.9774094488188977
 30
0.0
 10
0.0291377952755906
 20
-0.9774094488188977
 30
0.0
 10
0.0291377952755906
 20
-0.9774094488188977
 30
0.0
 10
0.0238582677165354
 20
-0.9787007874015749
 30
0.0
 10
0.0238582677165354
 20
-0.9787007874015749
 30
0.0
 10
0.0238582677165354
 20
-0.9787007874015749
 30
0.0
 10
0.0238582677165354
 20
-0.9787007874015749
 30
0.0
 10
-0.6276456692913386
 20
-1.3598031496062992
 30
0.0
 10
-0.6276456692913386
 20
-1.3598031496062992
 30
0.0
 10
-0.6276456692913386
 20
-1.3598031496062992
 30
0.0
 10
-0.6276456692913386
 20
-1.3598031496062992
 30
0.0
 10
-0.6223661417322834
 20
-1.3585118110236221
 30
0.0
 10
-0.6223661417322834
 20
-1.3585118110236221
 30
0.0
 10
-0.6223661417322834
 20
-1.3585118110236221
 30
0.0
 10
-0.6223661417322834
 20
-1.3585118110236221
 30
0.0
 10
-0.616976377952756
 20
-1.3570787401574804
 30
0.0
 10
-0.616976377952756
 20
-1.3570787401574804
 30
0.0
 10
-0.616976377952756
 20
-1.3570787401574804
 30
0.0
 10
-0.616976377952756
 20
-1.3570787401574804
 30
0.0
 10
-0.611507874015748
 20
-1.35548031496063
 30
0.0
 10
-0.611507874015748
 20
-1.35548031496063
 30
0.0
 10
-0.611507874015748
 20
-1.35548031496063
 30
0.0
 10
-0.611507874015748
 20
-1.35548031496063
 30
0.0
 10
-0.6059724409448819
 20
-1.3536811023622048
 30
0.0
 10
-0.6059724409448819
 20
-1.3536811023622048
 30
0.0
 10
-0.6059724409448819
 20
-1.3536811023622048
 30
0.0
 10
-0.6059724409448819
 20
-1.3536811023622048
 30
0.0
 10
-0.6004055118110236
 20
-1.3516653543307087
 30
0.0
 10
-0.6004055118110236
 20
-1.3516653543307087
 30
0.0
 10
-0.6004055118110236
 20
-1.3516653543307087
 30
0.0
 10
-0.6004055118110236
 20
-1.3516653543307087
 30
0.0
 10
-0.5948188976377953
 20
-1.3493976377952757
 30
0.0
 10
-0.5948188976377953
 20
-1.3493976377952757
 30
0.0
 10
-0.5948188976377953
 20
-1.3493976377952757
 30
0.0
 10
-0.5948188976377953
 20
-1.3493976377952757
 30
0.0
 10
-0.589248031496063
 20
-1.3468700787401575
 30
0.0
 10
-0.589248031496063
 20
-1.3468700787401575
 30
0.0
 10
-0.589248031496063
 20
-1.3468700787401575
 30
0.0
 10
-0.589248031496063
 20
-1.3468700787401575
 30
0.0
 10
-0.5836968503937008
 20
-1.3440354330708661
 30
0.0
 10
-0.5836968503937008
 20
-1.3440354330708661
 30
0.0
  0
SPLINE
  5
54
100
AcDbEntity
  8
Layer 1
 62
   251
100
AcDbSpline
210
0.0
220
0.0
230
1.0
 70
     1
 71
     3
 72
    52
 73
    48
 74
     0
 42
0.0000000001
 43
0.0000000001
 40
0.0
 40
0.0
 40
0.0
 40
0.0
 40
0.0833333333333333
 40
0.0833333333333333
 40
0.0833333333333333
 40
0.0833333333333333
 40
0.1666666666666667
 40
0.1666666666666667
 40
0.1666666666666667
 40
0.1666666666666667
 40
0.25
 40
0.25
 40
0.25
 40
0.25
 40
0.3333333333333333
 40
0.3333333333333333
 40
0.3333333333333333
 40
0.3333333333333333
 40
0.4166666666666666
 40
0.4166666666666666
 40
0.4166666666666666
 40
0.4166666666666666
 40
0.4999999999999999
 40
0.4999999999999999
 40
0.4999999999999999
 40
0.4999999999999999
 40
0.5833333333333333
 40
0.5833333333333333
 40
0.5833333333333333
 40
0.5833333333333333
 40
0.6666666666666666
 40
0.6666666666666666
 40
0.6666666666666666
 40
0.6666666666666666
 40
0.75
 40
0.75
 40
0.75
 40
0.75
 40
0.8333333333333334
 40
0.8333333333333334
 40
0.8333333333333334
 40
0.8333333333333334
 40
0.9166666666666667
 40
0.9166666666666667
 40
0.9166666666666667
 40
0.9166666666666667
 40
1.0
 40
1.0
 40
1.0
 40
1.0
 10
-0.6276456692913386
 20
-1.3598031496062992
 30
0.0
 10
-0.6276456692913386
 20
-1.3598031496062992
 30
0.0
 10
0.0238582677165354
 20
-0.9787007874015749
 30
0.0
 10
0.0238582677165354
 20
-0.9787007874015749
 30
0.0
 10
0.0238582677165354
 20
-0.9787007874015749
 30
0.0
 10
0.0238582677165354
 20
-0.9787007874015749
 30
0.0
 10
0.0186968503937008
 20
-0.9798740157480316
 30
0.0
 10
0.0186968503937008
 20
-0.9798740157480316
 30
0.0
 10
0.0186968503937008
 20
-0.9798740157480316
 30
0.0
 10
0.0186968503937008
 20
-0.9798740157480316
 30
0.0
 10
0.0136929133858268
 20
-0.9809527559055119
 30
0.0
 10
0.0136929133858268
 20
-0.9809527559055119
 30
0.0
 10
0.0136929133858268
 20
-0.9809527559055119
 30
0.0
 10
0.0136929133858268
 20
-0.9809527559055119
 30
0.0
 10
0.0088543307086614
 20
-0.9819645669291339
 30
0.0
 10
0.0088543307086614
 20
-0.9819645669291339
 30
0.0
 10
0.0088543307086614
 20
-0.9819645669291339
 30
0.0
 10
0.0088543307086614
 20
-0.9819645669291339
 30
0.0
 10
0.0042125984251969
 20
-0.9829370078740158
 30
0.0
 10
0.0042125984251969
 20
-0.9829370078740158
 30
0.0
 10
0.0042125984251969
 20
-0.9829370078740158
 30
0.0
 10
0.0042125984251969
 20
-0.9829370078740158
 30
0.0
 10
-0.0002204724409449
 20
-0.9839015748031497
 30
0.0
 10
-0.0002204724409449
 20
-0.9839015748031497
 30
0.0
 10
-0.0002204724409449
 20
-0.9839015748031497
 30
0.0
 10
-0.0002204724409449
 20
-0.9839015748031497
 30
0.0
 10
-0.6517244094488189
 20
-1.3650039370078741
 30
0.0
 10
-0.6517244094488189
 20
-1.3650039370078741
 30
0.0
 10
-0.6517244094488189
 20
-1.3650039370078741
 30
0.0
 10
-0.6517244094488189
 20
-1.3650039370078741
 30
0.0
 10
-0.6472913385826772
 20
-1.3640393700787401
 30
0.0
 10
-0.6472913385826772
 20
-1.3640393700787401
 30
0.0
 10
-0.6472913385826772
 20
-1.3640393700787401
 30
0.0
 10
-0.6472913385826772
 20
-1.3640393700787401
 30
0.0
 10
-0.6426496062992126
 20
-1.3630669291338584
 30
0.0
 10
-0.6426496062992126
 20
-1.3630669291338584
 30
0.0
 10
-0.6426496062992126
 20
-1.3630669291338584
 30
0.0
 10
-0.6426496062992126
 20
-1.3630669291338584
 30
0.0
 10
-0.6378110236220472
 20
-1.3620551181102363
 30
0.0
 10
-0.6378110236220472
 20
-1.3620551181102363
 30
0.0
 10
-0.6378110236220472
 20
-1.3620551181102363
 30
0.0
 10
-0.6378110236220472
 20
-1.3620551181102363
 30
0.0
 10
-0.6328070866141733
 20
-1.3609763779527559
 30
0.0
 10
-0.6328070866141733
 20
-1.3609763779527559
 30
0.0
 10
-0.6328070866141733
 20
-1.3609763779527559
 30
0.0
 10
-0.6328070866141733
 20
-1.3609763779527559
 30
0.0
 10
-0.6276456692913386
 20
-1.3598031496062992
 30
0.0
 10
-0.6276456692913386
 20
-1.3598031496062992
 30
0.0
  0
SPLINE
  5
55
100
AcDbEntity
  8
Layer 1
370
     5
100
AcDbSpline
210
0.0
220
0.0
230
1.0
 70
     1
 71
     3
 72
   116
 73
   112
 74
     0
 42
0.0000000001
 43
0.0000000001
 40
0.0
 40
0.0
 40
0.0
 40
0.0
 40
0.0357142857142857
 40
0.0357142857142857
 40
0.0357142857142857
 40
0.0357142857142857
 40
0.0714285714285714
 40
0.0714285714285714
 40
0.0714285714285714
 40
0.0714285714285714
 40
0.1071428571428571
 40
0.1071428571428571
 40
0.1071428571428571
 40
0.1071428571428571
 40
0.1428571428571429
 40
0.1428571428571429
 40
0.1428571428571429
 40
0.1428571428571429
 40
0.1785714285714286
 40
0.1785714285714286
 40
0.1785714285714286
 40
0.1785714285714286
 40
0.2142857142857143
 40
0.2142857142857143
 40
0.2142857142857143
 40
0.2142857142857143
 40
0.2499999999999999
 40
0.2499999999999999
 40
0.2499999999999999
 40
0.2499999999999999
 40
0.2857142857142856
 40
0.2857142857142856
 40
0.2857142857142856
 40
0.2857142857142856
 40
0.3214285714285713
 40
0.3214285714285713
 40
0.3214285714285713
 40
0.3214285714285713
 40
0.357142857142857
 40
0.357142857142857
 40
0.357142857142857
 40
0.357142857142857
 40
0.3928571428571427
 40
0.3928571428571427
 40
0.3928571428571427
 40
0.3928571428571427
 40
0.4285714285714284
 40
0.4285714285714284
 40
0.4285714285714284
 40
0.4285714285714284
 40
0.4642857142857141
 40
0.4642857142857141
 40
0.4642857142857141
 40
0.4642857142857141
 40
0.4999999999999998
 40
0.4999999999999998
 40
0.4999999999999998
 40
0.4999999999999998
 40
0.5357142857142856
 40
0.5357142857142856
 40
0.5357142857142856
 40
0.5357142857142856
 40
0.5714285714285713
 40
0.5714285714285713
 40
0.5714285714285713
 40
0.5714285714285713
 40
0.607142857142857
 40
0.607142857142857
 40
0.607142857142857
 40
0.607142857142857
 40
0.6428571428571427
 40
0.6428571428571427
 40
0.6428571428571427
 40
0.6428571428571427
 40
0.6785714285714284
 40
0.6785714285714284
 40
0.6785714285714284
 40
0.6785714285714284
 40
0.7142857142857141
 40
0.7142857142857141
 40
0.7142857142857141
 40
0.7142857142857141
 40
0.7499999999999998
 40
0.7499999999999998
 40
0.7499999999999998
 40
0.7499999999999998
 40
0.7857142857142855
 40
0.7857142857142855
 40
0.7857142857142855
 40
0.7857142857142855
 40
0.8214285714285712
 40
0.8214285714285712
 40
0.8214285714285712
 40
0.8214285714285712
 40
0.8571428571428569
 40
0.8571428571428569
 40
0.8571428571428569
 40
0.8571428571428569
 40
0.8928571428571426
 40
0.8928571428571426
 40
0.8928571428571426
 40
0.8928571428571426
 40
0.9285714285714283
 40
0.9285714285714283
 40
0.9285714285714283
 40
0.9285714285714283
 40
0.964285714285714
 40
0.964285714285714
 40
0.964285714285714
 40
0.964285714285714
 40
1.0
 40
1.0
 40
1.0
 40
1.0
 10
-0.5836968503937008
 20
-1.3440354330708661
 30
0.0
 10
-0.5836968503937008
 20
-1.3440354330708661
 30
0.0
 10
0.0678070866141732
 20
-0.9629330708661418
 30
0.0
 10
0.0678070866141732
 20
-0.9629330708661418
 30
0.0
 10
0.0678070866141732
 20
-0.9629330708661418
 30
0.0
 10
0.0678070866141732
 20
-0.9629330708661418
 30
0.0
 10
0.062255905511811
 20
-0.9657677165354331
 30
0.0
 10
0.062255905511811
 20
-0.9657677165354331
 30
0.0
 10
0.062255905511811
 20
-0.9657677165354331
 30
0.0
 10
0.062255905511811
 20
-0.9657677165354331
 30
0.0
 10
0.0566850393700787
 20
-0.9682952755905512
 30
0.0
 10
0.0566850393700787
 20
-0.9682952755905512
 30
0.0
 10
0.0566850393700787
 20
-0.9682952755905512
 30
0.0
 10
0.0566850393700787
 20
-0.9682952755905512
 30
0.0
 10
0.0510984251968504
 20
-0.9705629921259843
 30
0.0
 10
0.0510984251968504
 20
-0.9705629921259843
 30
0.0
 10
0.0510984251968504
 20
-0.9705629921259843
 30
0.0
 10
0.0510984251968504
 20
-0.9705629921259843
 30
0.0
 10
0.0455314960629921
 20
-0.9725787401574804
 30
0.0
 10
0.0455314960629921
 20
-0.9725787401574804
 30
0.0
 10
0.0455314960629921
 20
-0.9725787401574804
 30
0.0
 10
0.0455314960629921
 20
-0.9725787401574804
 30
0.0
 10
0.039996062992126
 20
-0.9743779527559056
 30
0.0
 10
0.039996062992126
 20
-0.9743779527559056
 30
0.0
 10
0.039996062992126
 20
-0.9743779527559056
 30
0.0
 10
0.039996062992126
 20
-0.9743779527559056
 30
0.0
 10
0.0345275590551181
 20
-0.9759763779527559
 30
0.0
 10
0.0345275590551181
 20
-0.9759763779527559
 30
0.0
 10
0.0345275590551181
 20
-0.9759763779527559
 30
0.0
 10
0.0345275590551181
 20
-0.9759763779527559
 30
0.0
 10
0.0291377952755906
 20
-0.9774094488188977
 30
0.0
 10
0.0291377952755906
 20
-0.9774094488188977
 30
0.0
 10
0.0291377952755906
 20
-0.9774094488188977
 30
0.0
 10
0.0291377952755906
 20
-0.9774094488188977
 30
0.0
 10
0.0238582677165354
 20
-0.9787007874015749
 30
0.0
 10
0.0238582677165354
 20
-0.9787007874015749
 30
0.0
 10
0.0238582677165354
 20
-0.9787007874015749
 30
0.0
 10
0.0238582677165354
 20
-0.9787007874015749
 30
0.0
 10
0.0186968503937008
 20
-0.9798740157480316
 30
0.0
 10
0.0186968503937008
 20
-0.9798740157480316
 30
0.0
 10
0.0186968503937008
 20
-0.9798740157480316
 30
0.0
 10
0.0186968503937008
 20
-0.9798740157480316
 30
0.0
 10
0.0136929133858268
 20
-0.9809527559055119
 30
0.0
 10
0.0136929133858268
 20
-0.9809527559055119
 30
0.0
 10
0.0136929133858268
 20
-0.9809527559055119
 30
0.0
 10
0.0136929133858268
 20
-0.9809527559055119
 30
0.0
 10
0.0088543307086614
 20
-0.9819645669291339
 30
0.0
 10
0.0088543307086614
 20
-0.9819645669291339
 30
0.0
 10
0.0088543307086614
 20
-0.9819645669291339
 30
0.0
 10
0.0088543307086614
 20
-0.9819645669291339
 30
0.0
 10
0.0042125984251969
 20
-0.9829370078740158
 30
0.0
 10
0.0042125984251969
 20
-0.9829370078740158
 30
0.0
 10
0.0042125984251969
 20
-0.9829370078740158
 30
0.0
 10
0.0042125984251969
 20
-0.9829370078740158
 30
0.0
 10
-0.0002204724409449
 20
-0.9839015748031497
 30
0.0
 10
-0.0002204724409449
 20
-0.9839015748031497
 30
0.0
 10
-0.0002204724409449
 20
-0.9839015748031497
 30
0.0
 10
-0.0002204724409449
 20
-0.9839015748031497
 30
0.0
 10
-0.6517244094488189
 20
-1.3650039370078741
 30
0.0
 10
-0.6517244094488189
 20
-1.3650039370078741
 30
0.0
 10
-0.6517244094488189
 20
-1.3650039370078741
 30
0.0
 10
-0.6517244094488189
 20
-1.3650039370078741
 30
0.0
 10
-0.6472913385826772
 20
-1.3640393700787401
 30
0.0
 10
-0.6472913385826772
 20
-1.3640393700787401
 30
0.0
 10
-0.6472913385826772
 20
-1.3640393700787401
 30
0.0
 10
-0.6472913385826772
 20
-1.3640393700787401
 30
0.0
 10
-0.6426496062992126
 20
-1.3630669291338584
 30
0.0
 10
-0.6426496062992126
 20
-1.3630669291338584
 30
0.0
 10
-0.6426496062992126
 20
-1.3630669291338584
 30
0.0
 10
-0.6426496062992126
 20
-1.3630669291338584
 30
0.0
 10
-0.6378110236220472
 20
-1.3620551181102363
 30
0.0
 10
-0.6378110236220472
 20
-1.3620551181102363
 30
0.0
 10
-0.6378110236220472
 20
-1.3620551181102363
 30
0.0
 10
-0.6378110236220472
 20
-1.3620551181102363
 30
0.0
 10
-0.6328070866141733
 20
-1.3609763779527559
 30
0.0
 10
-0.6328070866141733
 20
-1.3609763779527559
 30
0.0
 10
-0.6328070866141733
 20
-1.3609763779527559
 30
0.0
 10
-0.6328070866141733
 20
-1.3609763779527559
 30
0.0
 10
-0.6276456692913386
 20
-1.3598031496062992
 30
0.0
 10
-0.6276456692913386
 20
-1.3598031496062992
 30
0.0
 10
-0.6276456692913386
 20
-1.3598031496062992
 30
0.0
 10
-0.6276456692913386
 20
-1.3598031496062992
 30
0.0
 10
-0.6223661417322834
 20
-1.3585118110236221
 30
0.0
 10
-0.6223661417322834
 20
-1.3585118110236221
 30
0.0
 10
-0.6223661417322834
 20
-1.3585118110236221
 30
0.0
 10
-0.6223661417322834
 20
-1.3585118110236221
 30
0.0
 10
-0.616976377952756
 20
-1.3570787401574804
 30
0.0
 10
-0.616976377952756
 20
-1.3570787401574804
 30
0.0
 10
-0.616976377952756
 20
-1.3570787401574804
 30
0.0
 10
-0.616976377952756
 20
-1.3570787401574804
 30
0.0
 10
-0.611507874015748
 20
-1.35548031496063
 30
0.0
 10
-0.611507874015748
 20
-1.35548031496063
 30
0.0
 10
-0.611507874015748
 20
-1.35548031496063
 30
0.0
 10
-0.611507874015748
 20
-1.35548031496063
 30
0.0
 10
-0.6059724409448819
 20
-1.3536811023622048
 30
0.0
 10
-0.6059724409448819
 20
-1.3536811023622048
 30
0.0
 10
-0.6059724409448819
 20
-1.3536811023622048
 30
0.0
 10
-0.6059724409448819
 20
-1.3536811023622048
 30
0.0
 10
-0.6004055118110236
 20
-1.3516653543307087
 30
0.0
 10
-0.6004055118110236
 20
-1.3516653543307087
 30
0.0
 10
-0.6004055118110236
 20
-1.3516653543307087
 30
0.0
 10
-0.6004055118110236
 20
-1.3516653543307087
 30
0.0
 10
-0.5948188976377953
 20
-1.3493976377952757
 30
0.0
 10
-0.5948188976377953
 20
-1.3493976377952757
 30
0.0
 10
-0.5948188976377953
 20
-1.3493976377952757
 30
0.0
 10
-0.5948188976377953
 20
-1.3493976377952757
 30
0.0
 10
-0.589248031496063
 20
-1.3468700787401575
 30
0.0
 10
-0.589248031496063
 20
-1.3468700787401575
 30
0.0
 10
-0.589248031496063
 20
-1.3468700787401575
 30
0.0
 10
-0.589248031496063
 20
-1.3468700787401575
 30
0.0
 10
-0.5836968503937008
 20
-1.3440354330708661
 30
0.0
 10
-0.5836968503937008
 20
-1.3440354330708661
 30
0.0
  0
SPLINE
  5
56
100
AcDbEntity
  8
Layer 1
 62
   252
100
AcDbSpline
210
0.0
220
0.0
230
1.0
 70
     1
 71
     3
 72
    20
 73
    16
 74
     0
 42
0.0000000001
 43
0.0000000001
 40
0.0
 40
0.0
 40
0.0
 40
0.0
 40
0.25
 40
0.25
 40
0.25
 40
0.25
 40
0.5
 40
0.5
 40
0.5
 40
0.5
 40
0.75
 40
0.75
 40
0.75
 40
0.75
 40
1.0
 40
1.0
 40
1.0
 40
1.0
 10
-0.6517244094488189
 20
-1.438212598425197
 30
0.0
 10
-0.6517244094488189
 20
-1.438212598425197
 30
0.0
 10
-0.0002204724409449
 20
-1.0571102362204725
 30
0.0
 10
-0.0002204724409449
 20
-1.0571102362204725
 30
0.0
 10
-0.0002204724409449
 20
-1.0571102362204725
 30
0.0
 10
-0.0002204724409449
 20
-1.0571102362204725
 30
0.0
 10
-0.0614251968503937
 20
-1.0571102362204725
 30
0.0
 10
-0.0614251968503937
 20
-1.0571102362204725
 30
0.0
 10
-0.0614251968503937
 20
-1.0571102362204725
 30
0.0
 10
-0.0614251968503937
 20
-1.0571102362204725
 30
0.0
 10
-0.7129291338582677
 20
-1.438212598425197
 30
0.0
 10
-0.7129291338582677
 20
-1.438212598425197
 30
0.0
 10
-0.7129291338582677
 20
-1.438212598425197
 30
0.0
 10
-0.7129291338582677
 20
-1.438212598425197
 30
0.0
 10
-0.6517244094488189
 20
-1.438212598425197
 30
0.0
 10
-0.6517244094488189
 20
-1.438212598425197
 30
0.0
  0
SPLINE
  5
57
100
AcDbEntity
  8
Layer 1
370
     5
100
AcDbSpline
210
0.0
220
0.0
230
1.0
 70
     1
 71
     3
 72
    20
 73
    16
 74
     0
 42
0.0000000001
 43
0.0000000001
 40
0.0
 40
0.0
 40
0.0
 40
0.0
 40
0.25
 40
0.25
 40
0.25
 40
0.25
 40
0.5
 40
0.5
 40
0.5
 40
0.5
 40
0.75
 40
0.75
 40
0.75
 40
0.75
 40
1.0
 40
1.0
 40
1.0
 40
1.0
 10
-0.6517244094488189
 20
-1.438212598425197
 30
0.0
 10
-0.6517244094488189
 20
-1.438212598425197
 30
0.0
 10
-0.0002204724409449
 20
-1.0571102362204725
 30
0.0
 10
-0.0002204724409449
 20
-1.0571102362204725
 30
0.0
 10
-0.0002204724409449
 20
-1.0571102362204725
 30
0.0
 10
-0.0002204724409449
 20
-1.0571102362204725
 30
0.0
 10
-0.0614251968503937
 20
-1.0571102362204725
 30
0.0
 10
-0.0614251968503937
 20
-1.0571102362204725
 30
0.0
 10
-0.0614251968503937
 20
-1.0571102362204725
 30
0.0
 10
-0.0614251968503937
 20
-1.0571102362204725
 30
0.0
 10
-0.7129291338582677
 20
-1.438212598425197
 30
0.0
 10
-0.7129291338582677
 20
-1.438212598425197
 30
0.0
 10
-0.7129291338582677
 20
-1.438212598425197
 30
0.0
 10
-0.7129291338582677
 20
-1.438212598425197
 30
0.0
 10
-0.6517244094488189
 20
-1.438212598425197
 30
0.0
 10
-0.6517244094488189
 20
-1.438212598425197
 30
0.0
  0
SPLINE
  5
58
100
AcDbEntity
  8
Layer 1
 62
   252
100
AcDbSpline
210
0.0
220
0.0
230
1.0
 70
     1
 71
     3
 72
    20
 73
    16
 74
     0
 42
0.0000000001
 43
0.0000000001
 40
0.0
 40
0.0
 40
0.0
 40
0.0
 40
0.25
 40
0.25
 40
0.25
 40
0.25
 40
0.5
 40
0.5
 40
0.5
 40
0.5
 40
0.75
 40
0.75
 40
0.75
 40
0.75
 40
1.0
 40
1.0
 40
1.0
 40
1.0
 10
0.7498464566929134
 20
-1.1303740157480315
 30
0.0
 10
0.7498464566929134
 20
-1.1303740157480315
 30
0.0
 10
1.4013503937007874
 20
-0.7492716535433072
 30
0.0
 10
1.4013503937007874
 20
-0.7492716535433072
 30
0.0
 10
1.4013503937007874
 20
-0.7492716535433072
 30
0.0
 10
1.4013503937007874
 20
-0.7492716535433072
 30
0.0
 10
0.2763503937007874
 20
-0.7492716535433072
 30
0.0
 10
0.2763503937007874
 20
-0.7492716535433072
 30
0.0
 10
0.2763503937007874
 20
-0.7492716535433072
 30
0.0
 10
0.2763503937007874
 20
-0.7492716535433072
 30
0.0
 10
-0.3751535433070866
 20
-1.1303740157480315
 30
0.0
 10
-0.3751535433070866
 20
-1.1303740157480315
 30
0.0
 10
-0.3751535433070866
 20
-1.1303740157480315
 30
0.0
 10
-0.3751535433070866
 20
-1.1303740157480315
 30
0.0
 10
0.7498464566929134
 20
-1.1303740157480315
 30
0.0
 10
0.7498464566929134
 20
-1.1303740157480315
 30
0.0
  0
SPLINE
  5
59
100
AcDbEntity
  8
Layer 1
370
     5
100
AcDbSpline
210
0.0
220
0.0
230
1.0
 70
     1
 71
     3
 72
    20
 73
    16
 74
     0
 42
0.0000000001
 43
0.0000000001
 40
0.0
 40
0.0
 40
0.0
 40
0.0
 40
0.25
 40
0.25
 40
0.25
 40
0.25
 40
0.5
 40
0.5
 40
0.5
 40
0.5
 40
0.75
 40
0.75
 40
0.75
 40
0.75
 40
1.0
 40
1.0
 40
1.0
 40
1.0
 10
0.7498464566929134
 20
-1.1303740157480315
 30
0.0
 10
0.7498464566929134
 20
-1.1303740157480315
 30
0.0
 10
1.4013503937007874
 20
-0.7492716535433072
 30
0.0
 10
1.4013503937007874
 20
-0.7492716535433072
 30
0.0
 10
1.4013503937007874
 20
-0.7492716535433072
 30
0.0
 10
1.4013503937007874
 20
-0.7492716535433072
 30
0.0
 10
0.2763503937007874
 20
-0.7492716535433072
 30
0.0
 10
0.2763503937007874
 20
-0.7492716535433072
 30
0.0
 10
0.2763503937007874
 20
-0.7492716535433072
 30
0.0
 10
0.2763503937007874
 20
-0.7492716535433072
 30
0.0
 10
-0.3751535433070866
 20
-1.1303740157480315
 30
0.0
 10
-0.3751535433070866
 20
-1.1303740157480315
 30
0.0
 10
-0.3751535433070866
 20
-1.1303740157480315
 30
0.0
 10
-0.3751535433070866
 20
-1.1303740157480315
 30
0.0
 10
0.7498464566929134
 20
-1.1303740157480315
 30
0.0
 10
0.7498464566929134
 20
-1.1303740157480315
 30
0.0
  0
SPLINE
  5
5A
100
AcDbEntity
  8
Layer 1
370
     5
 62
     7
100
AcDbSpline
210
0.0
220
0.0
230
1.0
 70
     1
 71
     3
 72
    60
 73
    56
 74
     0
 42
0.0000000001
 43
0.0000000001
 40
0.0
 40
0.0
 40
0.0
 40
0.0
 40
0.0714285714285714
 40
0.0714285714285714
 40
0.0714285714285714
 40
0.0714285714285714
 40
0.1428571428571429
 40
0.1428571428571429
 40
0.1428571428571429
 40
0.1428571428571429
 40
0.2142857142857143
 40
0.2142857142857143
 40
0.2142857142857143
 40
0.2142857142857143
 40
0.2857142857142857
 40
0.2857142857142857
 40
0.2857142857142857
 40
0.2857142857142857
 40
0.3571428571428571
 40
0.3571428571428571
 40
0.3571428571428571
 40
0.3571428571428571
 40
0.4285714285714285
 40
0.4285714285714285
 40
0.4285714285714285
 40
0.4285714285714285
 40
0.4999999999999999
 40
0.4999999999999999
 40
0.4999999999999999
 40
0.4999999999999999
 40
0.5714285714285713
 40
0.5714285714285713
 40
0.5714285714285713
 40
0.5714285714285713
 40
0.6428571428571427
 40
0.6428571428571427
 40
0.6428571428571427
 40
0.6428571428571427
 40
0.7142857142857141
 40
0.7142857142857141
 40
0.7142857142857141
 40
0.7142857142857141
 40
0.7857142857142855
 40
0.7857142857142855
 40
0.7857142857142855
 40
0.7857142857142855
 40
0.8571428571428569
 40
0.8571428571428569
 40
0.8571428571428569
 40
0.8571428571428569
 40
0.9285714285714283
 40
0.9285714285714283
 40
0.9285714285714283
 40
0.9285714285714283
 40
1.0
 40
1.0
 40
1.0
 40
1.0
 10
-0.7129291338582677
 20
-1.7553740157480315
 30
0.0
 10
-0.7129291338582677
 20
-1.7553740157480315
 30
0.0
 10
1.0876417322834646
 20
-1.7553661417322834
 30
0.0
 10
1.0876417322834646
 20
-1.7553661417322834
 30
0.0
 10
1.0876417322834646
 20
-1.7553661417322834
 30
0.0
 10
1.0876417322834646
 20
-1.7553661417322834
 30
0.0
 10
1.0876417322834646
 20
-1.4382047244094489
 30
0.0
 10
1.0876417322834646
 20
-1.4382047244094489
 30
0.0
 10
1.0876417322834646
 20
-1.4382047244094489
 30
0.0
 10
1.0876417322834646
 20
-1.4382047244094489
 30
0.0
 10
1.0264370078740157
 20
-1.4382047244094489
 30
0.0
 10
1.0264370078740157
 20
-1.4382047244094489
 30
0.0
 10
1.0264370078740157
 20
-1.4382047244094489
 30
0.0
 10
1.0264370078740157
 20
-1.4382047244094489
 30
0.0
 10
1.0264370078740157
 20
-1.3649960629921261
 30
0.0
 10
1.0264370078740157
 20
-1.3649960629921261
 30
0.0
 10
1.0264370078740157
 20
-1.3649960629921261
 30
0.0
 10
0.9804803149606299
 20
-1.3547834645669292
 30
0.0
 10
0.8936771653543307
 20
-1.3462755905511812
 30
0.0
 10
0.8885708661417323
 20
-1.1998976377952757
 30
0.0
 10
0.8885708661417323
 20
-1.1998976377952757
 30
0.0
 10
0.8885708661417323
 20
-1.1998976377952757
 30
0.0
 10
0.7608149606299213
 20
-1.1998976377952757
 30
0.0
 10
0.7608149606299213
 20
-1.1998976377952757
 30
0.0
 10
0.7608149606299213
 20
-1.1998976377952757
 30
0.0
 10
0.7608149606299213
 20
-1.1998976377952757
 30
0.0
 10
0.7498464566929134
 20
-1.1303740157480315
 30
0.0
 10
0.7498464566929134
 20
-1.1303740157480315
 30
0.0
 10
0.7498464566929134
 20
-1.1303740157480315
 30
0.0
 10
0.7498464566929134
 20
-1.1303740157480315
 30
0.0
 10
-0.3751535433070866
 20
-1.1303740157480315
 30
0.0
 10
-0.3751535433070866
 20
-1.1303740157480315
 30
0.0
 10
-0.3751535433070866
 20
-1.1303740157480315
 30
0.0
 10
-0.3751535433070866
 20
-1.1303740157480315
 30
0.0
 10
-0.3861023622047244
 20
-1.1999055118110236
 30
0.0
 10
-0.3861023622047244
 20
-1.1999055118110236
 30
0.0
 10
-0.3861023622047244
 20
-1.1999055118110236
 30
0.0
 10
-0.3861023622047244
 20
-1.1999055118110236
 30
0.0
 10
-0.5138582677165354
 20
-1.1999055118110236
 30
0.0
 10
-0.5138582677165354
 20
-1.1999055118110236
 30
0.0
 10
-0.5138582677165354
 20
-1.1999055118110236
 30
0.0
 10
-0.5189645669291338
 20
-1.3462834645669293
 30
0.0
 10
-0.605767716535433
 20
-1.3547913385826773
 30
0.0
 10
-0.6517244094488189
 20
-1.3650039370078741
 30
0.0
 10
-0.6517244094488189
 20
-1.3650039370078741
 30
0.0
 10
-0.6517244094488189
 20
-1.3650039370078741
 30
0.0
 10
-0.6517244094488189
 20
-1.438212598425197
 30
0.0
 10
-0.6517244094488189
 20
-1.438212598425197
 30
0.0
 10
-0.6517244094488189
 20
-1.438212598425197
 30
0.0
 10
-0.6517244094488189
 20
-1.438212598425197
 30
0.0
 10
-0.7129291338582677
 20
-1.438212598425197
 30
0.0
 10
-0.7129291338582677
 20
-1.438212598425197
 30
0.0
 10
-0.7129291338582677
 20
-1.438212598425197
 30
0.0
 10
-0.7129291338582677
 20
-1.438212598425197
 30
0.0
 10
-0.7129291338582677
 20
-1.7553740157480315
 30
0.0
 10
-0.7129291338582677
 20
-1.7553740157480315
 30
0.0
  0
TEXT
  5
5C
100
AcDbEntity
  8
Layer 1
100
AcDbText
 10
0.137756
 20
-1.927484
 30
0.0
 40
0.119999
  1
BA  1518
 51
-0.000002
  7
Bookman Old Style
100
AcDbText
  0
TEXT
  5
5D
100
AcDbEntity
  8
Layer 1
100
AcDbText
 10
-0.145618
 20
-2.114984
 30
0.0
 40
0.119999
  1
5/8\u+201d x 1-13/16\u+201d
 51
-0.000002
  7
Bookman Old Style
100
AcDbText
  0
TEXT
  5
5E
100
AcDbEntity
  8
Layer 1
100
AcDbText
 10
-0.04402
 20
0.159972
 30
0.0
 40
0.119999
  1
BA  1518
 51
-0.000002
  7
Bookman Old Style
100
AcDbText
  0
TEXT
  5
5F
100
AcDbEntity
  8
Layer 1
100
AcDbText
 10
-0.327394
 20
-0.027528
 30
0.0
 40
0.119999
  1
5/8\u+201d x 1-13/16\u+201d
 51
-0.000002
  7
Bookman Old Style
100
AcDbText
  0
ENDSEC
  0
SECTION
  2
OBJECTS
  0
DICTIONARY
  5
19
100
AcDbDictionary
280
     0
281
     1
  3
ACAD_GROUP
350
1A
  3
ACAD_MLINESTYLE
350
1B
  3
ACAD_LAYOUT
350
1E
  3
ACAD_PLOTSETTINGS
350
22
  3
ACAD_PLOTSTYLENAME
350
1F
  3
ACAD_WIPEOUT_VARS
350
23
  0
DICTIONARY
  5
1A
102
{ACAD_REACTORS
330
19
102
}
100
AcDbDictionary
280
     0
281
     1
  0
DICTIONARY
  5
1B
102
{ACAD_REACTORS
330
19
102
}
100
AcDbDictionary
280
     0
281
     1
  3
Standard
350
1C
  0
MLINESTYLE
  5
1C
102
{ACAD_REACTORS
330
1B
102
}
100
AcDbMlineStyle
  2
Standard
 70
     0
  3

 62
     0
 51
90.0
 52
90.0
 71
     2
 49
0.5
 62
   256
  6
BYLAYER
 49
-0.5
 62
   256
  6
BYLAYER
  0
ACDBDICTIONARYWDFLT
  5
1F
102
{ACAD_REACTORS
330
19
102
}
100
AcDbDictionary
281
     1
  3
Normal
350
1D
100
AcDbDictionaryWithDefault
340
1D
  0
ACDBPLACEHOLDER
  5
1D
102
{ACAD_REACTORS
330
1F
102
}
  0
LAYOUT
  5
20
102
{ACAD_REACTORS
330
1E
102
}
100
AcDbPlotSettings
  1

  2

  4

  6

 40
0.0
 41
0.0
 42
0.0
 43
0.0
 44
0.0
 45
0.0
 46
0.0
 47
0.0
 48
0.0
 49
0.0
140
0.0
141
0.0
142
1.0
143
1.0
 70
  1024
 72
     0
 73
     0
 74
     0
  7

 75
     0
147
1.0
148
0.0
149
0.0
100
AcDbLayout
  1
Model
 70
     0
 71
     0
 10
0.0
 20
0.0
 11
0.0
 21
0.0
 12
0.0
 22
0.0
 32
0.0
 14
0.0
 24
0.0
 34
0.0
 15
0.0
 25
0.0
 35
0.0
146
0.0
 13
0.0
 23
0.0
 33
0.0
 16
0.0
 26
0.0
 36
0.0
 17
0.0
 27
0.0
 37
0.0
 76
     0
330
A
331
0
345
0
346
0
  0
LAYOUT
  5
21
102
{ACAD_REACTORS
330
1E
102
}
100
AcDbPlotSettings
  1

  2

  4

  6

 40
0.0
 41
0.0
 42
0.0
 43
0.0
 44
0.0
 45
0.0
 46
0.0
 47
0.0
 48
0.0
 49
0.0
140
0.0
141
0.0
142
1.0
143
1.0
 70
     0
 72
     0
 73
     0
 74
     0
  7

 75
     0
147
1.0
148
0.0
149
0.0
100
AcDbLayout
  1
Layout1
 70
     0
 71
     0
 10
0.0
 20
0.0
 11
0.0
 21
0.0
 12
0.0
 22
0.0
 32
0.0
 14
0.0
 24
0.0
 34
0.0
 15
0.0
 25
0.0
 35
0.0
146
0.0
 13
0.0
 23
0.0
 33
0.0
 16
0.0
 26
0.0
 36
0.0
 17
0.0
 27
0.0
 37
0.0
 76
     0
330
B
331
0
345
0
346
0
  0
DICTIONARY
  5
1E
102
{ACAD_REACTORS
330
19
102
}
100
AcDbDictionary
280
     0
281
     1
  3
Layout1
350
21
  3
Model
350
20
  0
DICTIONARY
  5
22
102
{ACAD_REACTORS
330
19
102
}
100
AcDbDictionary
280
     0
281
     1
  0
WIPEOUTVARIABLES
  5
23
100
AcDbWipeoutVariables
 70
     1
  0
ENDSEC
  0
EOF
