  0
SECTION
  2
HEADER
  9
$ACADVER
  1
AC1015
  9
$ACADMAINTVER
 70
     6
  9
$DWGCODEPAGE
  3
DOS850
  9
$INSBASE
 10
0.0
 20
0.0
 30
0.0
  9
$EXTMIN
 10
-1.768165
 20
-5.077063
 30
1.000000E+20
  9
$EXTMAX
 10
3.615413
 20
5.351126
 30
-1.000000E+20
  9
$LIMMIN
 10
0.0
 20
0.0
  9
$LIMMAX
 10
0.0
 20
0.0
  9
$ORTHOMODE
 70
     0
  9
$REGENMODE
 70
     1
  9
$FILLMODE
 70
     1
  9
$QTEXTMODE
 70
     0
  9
$MIRRTEXT
 70
     1
  9
$LTSCALE
 40
1.0
  9
$ATTMODE
 70
     1
  9
$TEXTSIZE
 40
0.2
  9
$TRACEWID
 40
0.05
  9
$TEXTSTYLE
  7
Standard
  9
$CLAYER
  8
0
  9
$CELTYPE
  6
Continuous
  9
$CECOLOR
 62
   256
  9
$CELTSCALE
 40
1.0
  9
$DISPSILH
 70
     0
  9
$DIMSCALE
 40
1.0
  9
$DIMASZ
 40
0.18
  9
$DIMEXO
 40
0.0625
  9
$DIMDLI
 40
0.38
  9
$DIMRND
 40
0.0
  9
$DIMDLE
 40
0.0
  9
$DIMEXE
 40
0.18
  9
$DIMTP
 40
0.0
  9
$DIMTM
 40
0.0
  9
$DIMTXT
 40
0.18
  9
$DIMCEN
 40
0.09
  9
$DIMTSZ
 40
0.0
  9
$DIMTOL
 70
     0
  9
$DIMLIM
 70
     0
  9
$DIMTIH
 70
     1
  9
$DIMTOH
 70
     1
  9
$DIMSE1
 70
     0
  9
$DIMSE2
 70
     0
  9
$DIMTAD
 70
     0
  9
$DIMZIN
 70
     0
  9
$DIMBLK
  1

  9
$DIMASO
 70
     1
  9
$DIMSHO
 70
     1
  9
$DIMPOST
  1

  9
$DIMAPOST
  1

  9
$DIMALT
 70
     0
  9
$DIMALTD
 70
     2
  9
$DIMALTF
 40
25.4
  9
$DIMLFAC
 40
1.0
  9
$DIMTOFL
 70
     0
  9
$DIMTVP
 40
0.0
  9
$DIMTIX
 70
     0
  9
$DIMSOXD
 70
     0
  9
$DIMSAH
 70
     0
  9
$DIMBLK1
  1

  9
$DIMBLK2
  1

  9
$DIMSTYLE
  2
Standard
  9
$DIMCLRD
 70
     0
  9
$DIMCLRE
 70
     0
  9
$DIMCLRT
 70
     0
  9
$DIMTFAC
 40
1.0
  9
$DIMGAP
 40
0.09
  9
$DIMJUST
 70
     0
  9
$DIMSD1
 70
     0
  9
$DIMSD2
 70
     0
  9
$DIMTOLJ
 70
     1
  9
$DIMTZIN
 70
     0
  9
$DIMALTZ
 70
     0
  9
$DIMALTTZ
 70
     0
  9
$DIMUPT
 70
     0
  9
$DIMDEC
 70
     4
  9
$DIMTDEC
 70
     4
  9
$DIMALTU
 70
     2
  9
$DIMALTTD
 70
     2
  9
$DIMTXSTY
  7
Standard
  9
$DIMAUNIT
 70
     0
  9
$DIMADEC
 70
     0
  9
$DIMALTRND
 40
0.0
  9
$DIMAZIN
 70
     0
  9
$DIMDSEP
 70
     0
  9
$DIMATFIT
 70
     3
  9
$DIMFRAC
 70
     0
  9
$DIMLDRBLK
  1

  9
$DIMLUNIT
 70
     2
  9
$DIMLWD
 70
     0
  9
$DIMLWE
 70
     0
  9
$DIMTMOVE
 70
     0
  9
$LUNITS
 70
     2
  9
$LUPREC
 70
     4
  9
$SKETCHINC
 40
0.1
  9
$FILLETRAD
 40
0.0
  9
$AUNITS
 70
     0
  9
$AUPREC
 70
     0
  9
$MENU
  1
acad
  9
$ELEVATION
 40
0.0
  9
$PELEVATION
 40
0.0
  9
$THICKNESS
 40
0.0
  9
$LIMCHECK
 70
     0
  9
$CHAMFERA
 40
0.0
  9
$CHAMFERB
 40
0.0
  9
$CHAMFERC
 40
0.0
  9
$CHAMFERD
 40
0.0
  9
$SKPOLY
 70
     0
  9
$TDCREATE
 40
0.000000000
  9
$TDUCREATE
 40
0.000000000
  9
$TDUPDATE
 40
0.000000000
  9
$TDUUPDATE
 40
0.000000000
  9
$TDINDWG
 40
0.0000000000
  9
$TDUSRTIMER
 40
0.0000000000
  9
$USRTIMER
 70
     1
  9
$ANGBASE
 50
0.0
  9
$ANGDIR
 70
     0
  9
$PDMODE
 70
     0
  9
$PDSIZE
 40
0.0
  9
$PLINEWID
 40
0.0
  9
$SPLFRAME
 70
     0
  9
$SPLINETYPE
 70
     6
  9
$SPLINESEGS
 70
     8
  9
$HANDSEED
  5
7A
  9
$SURFTAB1
 70
     6
  9
$SURFTAB2
 70
     6
  9
$SURFTYPE
 70
     6
  9
$SURFU
 70
     6
  9
$SURFV
 70
     6
  9
$UCSBASE
  2

  9
$UCSNAME
  2

  9
$UCSORG
 10
0.0
 20
0.0
 30
0.0
  9
$UCSXDIR
 10
1.0
 20
0.0
 30
0.0
  9
$UCSYDIR
 10
0.0
 20
1.0
 30
0.0
  9
$UCSORTHOREF
  2

  9
$UCSORTHOVIEW
 70
     0
  9
$UCSORGTOP
 10
0.0
 20
0.0
 30
0.0
  9
$UCSORGBOTTOM
 10
0.0
 20
0.0
 30
0.0
  9
$UCSORGLEFT
 10
0.0
 20
0.0
 30
0.0
  9
$UCSORGRIGHT
 10
0.0
 20
0.0
 30
0.0
  9
$UCSORGFRONT
 10
0.0
 20
0.0
 30
0.0
  9
$UCSORGBACK
 10
0.0
 20
0.0
 30
0.0
  9
$PUCSBASE
  2

  9
$PUCSNAME
  2

  9
$PUCSORG
 10
0.0
 20
0.0
 30
0.0
  9
$PUCSXDIR
 10
1.0
 20
0.0
 30
0.0
  9
$PUCSYDIR
 10
0.0
 20
1.0
 30
0.0
  9
$PUCSORTHOREF
  2

  9
$PUCSORTHOVIEW
 70
     0
  9
$PUCSORGTOP
 10
0.0
 20
0.0
 30
0.0
  9
$PUCSORGBOTTOM
 10
0.0
 20
0.0
 30
0.0
  9
$PUCSORGLEFT
 10
0.0
 20
0.0
 30
0.0
  9
$PUCSORGRIGHT
 10
0.0
 20
0.0
 30
0.0
  9
$PUCSORGFRONT
 10
0.0
 20
0.0
 30
0.0
  9
$PUCSORGBACK
 10
0.0
 20
0.0
 30
0.0
  9
$USERI1
 70
     0
  9
$USERI2
 70
     0
  9
$USERI3
 70
     0
  9
$USERI4
 70
     0
  9
$USERI5
 70
     0
  9
$USERR1
 40
0.0
  9
$USERR2
 40
0.0
  9
$USERR3
 40
0.0
  9
$USERR4
 40
0.0
  9
$USERR5
 40
0.0
  9
$WORLDVIEW
 70
     1
  9
$SHADEDGE
 70
     3
  9
$SHADEDIF
 70
    70
  9
$TILEMODE
 70
     1
  9
$MAXACTVP
 70
    16
  9
$PINSBASE
 10
0.0
 20
0.0
 30
0.0
  9
$PLIMCHECK
 70
     0
  9
$PEXTMIN
 10
1.000000E+20
 20
1.000000E+20
 30
1.000000E+20
  9
$PEXTMAX
 10
-1.000000E+20
 20
-1.000000E+20
 30
-1.000000E+20
  9
$PLIMMIN
 10
0.0
 20
0.0
  9
$PLIMMAX
 10
12.0
 20
9.0
  9
$UNITMODE
 70
     0
  9
$VISRETAIN
 70
     0
  9
$PLINEGEN
 70
     1
  9
$PSLTSCALE
 70
     0
  9
$TREEDEPTH
 70
  3020
  9
$CMLSTYLE
  2
Standard
  9
$CMLJUST
 70
     0
  9
$CMLSCALE
 40
1.0
  9
$PROXYGRAPHICS
 70
     0
  9
$MEASUREMENT
 70
     0
  9
$CELWEIGHT
370
     0
  9
$ENDCAPS
280
     0
  9
$JOINSTYLE
280
     0
  9
$LWDISPLAY
290
     0
  9
$INSUNITS
 70
     1
  9
$HYPERLINKBASE
  1

  9
$XEDIT
290
     1
  9
$CEPSNTYPE
380
     0
  9
$PSTYLEMODE
290
     1
  9
$FINGERPRINTGUID
  2

  9
$VERSIONGUID
  2

  9
$EXTNAMES
290
     1
  9
$PSVPSCALE
 40
0.0
  0
ENDSEC
  0
SECTION
  2
CLASSES
  0
CLASS
  1
LWPOLYLINE
  2
AcDbPolyline
  3
AutoCAD 2000
 90
    32768
280
     0
281
     1
  0
CLASS
  1
IMAGE
  2
AcDbRasterImage
  3
ISM
 90
    32895
280
     0
281
     1
  0
CLASS
  1
OLE2FRAME
  2
AcDbOle2Frame
  3
AutoCAD 2000
 90
    32768
280
     0
281
     1
  0
CLASS
  1
HATCH
  2
AcDbHatch
  3
AutoCAD 2000
 90
    32768
280
     0
281
     1
  0
CLASS
  1
DICTIONARYVAR
  2
AcDbDictionaryVar
  3
AutoCAD 2000
 90
    32768
280
     0
281
     0
  0
CLASS
  1
RASTERVARIABLES
  2
AcDbRasterVariables
  3
ISM
 90
    32768
280
     0
281
     0
  0
CLASS
  1
IMAGEDEF
  2
AcDbRasterImageDef
  3
ISM
 90
    32768
280
     0
281
     0
  0
CLASS
  1
IMAGEDEF_REACTOR
  2
AcDbRasterImageDefReactor
  3
ISM
 90
    32769
280
     0
281
     0
  0
CLASS
  1
IDBUFFER
  2
AcDbIdBuffer
  3
AutoCAD 2000
 90
    32768
280
     0
281
     0
  0
CLASS
  1
SPATIAL_FILTER
  2
AcDbSpatialFilter
  3
AutoCAD 2000
 90
    32768
280
     0
281
     0
  0
CLASS
  1
XRECORD
  2
AcDbXrecord
  3
AutoCAD 2000
 90
    32768
280
     0
281
     0
  0
CLASS
  1
SORTENTSTABLE
  2
AcDbSortentsTable
  3
AutoCAD 2000
 90
    32768
280
     0
281
     0
  0
CLASS
  1
LAYER_INDEX
  2
AcDbLayerIndex
  3
AutoCAD 2000
 90
    32768
280
     0
281
     0
  0
CLASS
  1
SPATIAL_INDEX
  2
AcDbSpatialIndex
  3
AutoCAD 2000
 90
    32768
280
     0
281
     0
  0
CLASS
  1
OBJECT_PTR
  2
CAseDLPNTableRecord
  3
"ASE-LPNTableRecord"
 90
    32769
280
     0
281
     0
  0
CLASS
  1
LAYOUT
  2
AcDbLayout
  3
AutoCAD 2000
 90
        0
280
     0
281
     0
  0
CLASS
  1
PLOTSETTINGS
  2
AcDbPlotSettings
  3
AutoCAD 2000
 90
    32768
280
     0
281
     0
  0
CLASS
  1
ACDBDICTIONARYWDFLT
  2
AcDbDictionaryWithDefault
  3
AutoCAD 2000
 90
        0
280
     0
281
     0
  0
CLASS
  1
ACDBPLACEHOLDER
  2
AcDbPlaceHolder
  3
AutoCAD 2000
 90
        0
280
     0
281
     0
  0
CLASS
  1
VBA_PROJECT
  2
AcDbVbaProject
  3
acadvba
 90
    32768
280
     0
281
     0
  0
CLASS
  1
WIPEOUT
  2
AcDbWipeout
  3
WipeOut|AutoCAD Express Tool|expresstools@autodesk.com
 90
    32895
280
     0
281
     1
  0
CLASS
  1
WIPEOUTVARIABLES
  2
AcDbWipeoutVariables
  3
WipeOut|AutoCAD Express Tool|expresstools@autodesk.com
 90
        0
280
     0
281
     0
  0
CLASS
  1
RTEXT
  2
RText
  3
RText|AutoCAD Express Tool|expresstools@autodesk.com
 90
    32768
280
     0
281
     1
  0
CLASS
  1
ARCALIGNEDTEXT
  2
AcDbArcAlignedText
  3
ATEXT|AutoCAD Express Tool|expresstools@autodesk.com
 90
    32768
280
     0
281
     1
  0
ENDSEC
  0
SECTION
  2
TABLES
  0
TABLE
  2
VPORT
  5
7
100
AcDbSymbolTable
 70
     1
  0
VPORT
  5
15
100
AcDbSymbolTableRecord
100
AcDbViewportTableRecord
  2
*ACTIVE
 70
     0
 10
0.0
 20
0.0
 11
1.0
 21
1.0
 12
6.591288
 22
4.579184
 13
0.0
 23
0.0
 14
1.0
 24
1.0
 15
0.0
 25
0.0
 16
0.0
 26
0.0
 36
1.0
 17
0.0
 27
0.0
 37
0.0
 40
9.158369
 41
0.688564
 42
50.0
 43
0.0
 44
0.0
 50
0.0
 51
0.0
 71
     0
 72
   100
 73
     1
 74
     1
 75
     0
 76
     0
 77
     0
 78
     0
281
     0
 65
     0
110
0.0
120
0.0
130
0.0
111
1.0
121
0.0
131
0.0
112
0.0
122
1.0
132
0.0
345
0
346
0
 79
     0
146
0.0
  0
ENDTAB
  0
TABLE
  2
LTYPE
  5
4
100
AcDbSymbolTable
 70
     3
  0
LTYPE
  5
11
100
AcDbSymbolTableRecord
100
AcDbLinetypeTableRecord
  2
ByBlock
 70
    64
  3

 72
    65
 73
     0
 40
0.0
  0
LTYPE
  5
12
100
AcDbSymbolTableRecord
100
AcDbLinetypeTableRecord
  2
ByLayer
 70
    64
  3

 72
    65
 73
     0
 40
0.0
  0
LTYPE
  5
13
100
AcDbSymbolTableRecord
100
AcDbLinetypeTableRecord
  2
Continuous
 70
    64
  3
Solid line
 72
    65
 73
     0
 40
0.0
  0
ENDTAB
  0
TABLE
  2
LAYER
  5
2
100
AcDbSymbolTable
 70
     2
  0
LAYER
  5
14
100
AcDbSymbolTableRecord
100
AcDbLayerTableRecord
  2
0
 70
     0
 62
     7
  6
Continuous
290
     1
370
    -3
390
1D
  0
LAYER
  5
24
100
AcDbSymbolTableRecord
100
AcDbLayerTableRecord
  2
Layer 1
 70
     0
 62
     7
  6
Continuous
290
     1
370
    -3
390
1F
  0
ENDTAB
  0
TABLE
  2
STYLE
  5
3
100
AcDbSymbolTable
 70
     2
  0
STYLE
  5
17
100
AcDbSymbolTableRecord
100
AcDbTextStyleTableRecord
  2
Standard
 70
     0
 40
0.0
 41
1.0
 50
0.0
 71
     0
 42
0.0
  3
txt
  4

  0
STYLE
  5
75
100
AcDbSymbolTableRecord
100
AcDbTextStyleTableRecord
  2
Bookman Old Style
 70
     0
 40
1.0
 41
1.0
 50
0.0
 71
     0
 42
1.0
  3
Bookman Old Style
  4

  0
ENDTAB
  0
TABLE
  2
VIEW
  5
5
100
AcDbSymbolTable
 70
     0
  0
ENDTAB
  0
TABLE
  2
UCS
  5
6
100
AcDbSymbolTable
 70
     0
  0
ENDTAB
  0
TABLE
  2
APPID
  5
8
100
AcDbSymbolTable
 70
     1
  0
APPID
  5
16
100
AcDbSymbolTableRecord
100
AcDbRegAppTableRecord
  2
ACAD
 70
     0
  0
ENDTAB
  0
TABLE
  2
DIMSTYLE
  5
9
100
AcDbSymbolTable
 70
     1
100
AcDbDimStyleTable
 71
     0
  0
DIMSTYLE
105
18
100
AcDbSymbolTableRecord
100
AcDbDimStyleTableRecord
  2
Standard
 70
     0
  3

  4

 40
1.0
 41
0.18
 42
0.0625
 43
0.38
 44
0.18
 45
0.0
 46
0.0
 47
0.0
 48
0.0
 71
     0
 72
     0
 73
     1
 74
     1
 75
     0
 76
     0
 77
     0
 78
     0
 79
     0
140
0.18
141
0.09
142
0.0
143
25.4
144
1.0
145
0.0
146
1.0
147
0.09
148
0.0
170
     0
171
     2
172
     0
173
     0
174
     0
175
     0
176
     0
177
     0
178
     0
179
     0
271
     4
272
     4
273
     2
274
     2
275
     0
276
     0
277
     2
278
    46
279
     0
280
     0
281
     0
282
     0
283
     1
284
     0
285
     0
286
     0
288
     0
340
17
341
0
342
0
343
0
344
0
371
    -2
372
    -2
  0
ENDTAB
  0
TABLE
  2
BLOCK_RECORD
  5
1
100
AcDbSymbolTable
 70
     0
  0
BLOCK_RECORD
  5
A
100
AcDbSymbolTableRecord
100
AcDbBlockTableRecord
  2
*MODEL_SPACE
340
20
  0
BLOCK_RECORD
  5
B
100
AcDbSymbolTableRecord
100
AcDbBlockTableRecord
  2
*PAPER_SPACE
340
21
  0
ENDTAB
  0
ENDSEC
  0
SECTION
  2
BLOCKS
  0
BLOCK
  5
D
100
AcDbEntity
  8
0
100
AcDbBlockBegin
  2
*MODEL_SPACE
 70
     0
 10
0.0
 20
0.0
 30
0.0
  3
*MODEL_SPACE
  1

  0
ENDBLK
  5
E
100
AcDbEntity
  8
0
100
AcDbBlockEnd
  0
BLOCK
  5
F
100
AcDbEntity
 67
     1
  8
0
100
AcDbBlockBegin
  2
*PAPER_SPACE
 70
     0
 10
0.0
 20
0.0
 30
0.0
  3
*PAPER_SPACE
  1

  0
ENDBLK
  5
10
100
AcDbEntity
 67
     1
  8
0
100
AcDbBlockEnd
  0
ENDSEC
  0
SECTION
  2
ENTITIES
  0
SPLINE
  5
25
100
AcDbEntity
  8
Layer 1
370
     5
100
AcDbSpline
210
0.0
220
0.0
230
1.0
 70
     1
 71
     3
 72
    32
 73
    28
 74
     0
 42
0.0000000001
 43
0.0000000001
 40
0.0
 40
0.0
 40
0.0
 40
0.0
 40
0.1428571428571429
 40
0.1428571428571429
 40
0.1428571428571429
 40
0.1428571428571429
 40
0.2857142857142857
 40
0.2857142857142857
 40
0.2857142857142857
 40
0.2857142857142857
 40
0.4285714285714286
 40
0.4285714285714286
 40
0.4285714285714286
 40
0.4285714285714286
 40
0.5714285714285714
 40
0.5714285714285714
 40
0.5714285714285714
 40
0.5714285714285714
 40
0.7142857142857142
 40
0.7142857142857142
 40
0.7142857142857142
 40
0.7142857142857142
 40
0.857142857142857
 40
0.857142857142857
 40
0.857142857142857
 40
0.857142857142857
 40
1.0
 40
1.0
 40
1.0
 40
1.0
 10
1.8953228346456694
 20
1.382755905511811
 30
0.0
 10
1.8953228346456694
 20
1.382755905511811
 30
0.0
 10
1.8953228346456694
 20
0.6327559055118111
 30
0.0
 10
1.8953228346456694
 20
0.6327559055118111
 30
0.0
 10
1.8953228346456694
 20
0.6327559055118111
 30
0.0
 10
1.8953228346456694
 20
0.6327559055118111
 30
0.0
 10
-1.7296732283464566
 20
0.6327559055118111
 30
0.0
 10
-1.7296732283464566
 20
0.6327559055118111
 30
0.0
 10
-1.7296732283464566
 20
0.6327559055118111
 30
0.0
 10
-1.7296732283464566
 20
0.6327559055118111
 30
0.0
 10
-1.7296732283464566
 20
5.3496299212598428
 30
0.0
 10
-1.7296732283464566
 20
5.3496299212598428
 30
0.0
 10
-1.7296732283464566
 20
5.3496299212598428
 30
0.0
 10
-1.7296732283464566
 20
5.3496299212598428
 30
0.0
 10
0.1583897637795276
 20
5.3496299212598428
 30
0.0
 10
0.1583897637795276
 20
5.3496299212598428
 30
0.0
 10
0.1583897637795276
 20
5.3496299212598428
 30
0.0
 10
0.1583897637795276
 20
5.3496299212598428
 30
0.0
 10
0.6670511811023623
 20
5.210708661417323
 30
0.0
 10
0.6670511811023623
 20
5.210708661417323
 30
0.0
 10
0.6670511811023623
 20
5.210708661417323
 30
0.0
 10
0.6670511811023623
 20
5.210708661417323
 30
0.0
 10
0.6670511811023623
 20
4.460708661417323
 30
0.0
 10
0.6670511811023623
 20
4.460708661417323
 30
0.0
 10
0.6670511811023623
 20
4.460708661417323
 30
0.0
 10
-0.8405078740157481
 20
4.081023622047244
 30
0.0
 10
-0.4181417322834646
 20
1.5244488188976379
 30
0.0
 10
1.8953228346456694
 20
1.382755905511811
 30
0.0
  0
SPLINE
  5
26
100
AcDbEntity
  8
Layer 1
 62
     9
100
AcDbSpline
210
0.0
220
0.0
230
1.0
 70
     1
 71
     3
 72
    20
 73
    16
 74
     0
 42
0.0000000001
 43
0.0000000001
 40
0.0
 40
0.0
 40
0.0
 40
0.0
 40
0.25
 40
0.25
 40
0.25
 40
0.25
 40
0.5
 40
0.5
 40
0.5
 40
0.5
 40
0.75
 40
0.75
 40
0.75
 40
0.75
 40
1.0
 40
1.0
 40
1.0
 40
1.0
 10
1.8583267716535434
 20
-3.9245314960629925
 30
0.0
 10
1.8583267716535434
 20
-3.9245314960629925
 30
0.0
 10
2.5123188976377953
 20
-3.5611574803149608
 30
0.0
 10
2.5123188976377953
 20
-3.5611574803149608
 30
0.0
 10
2.5123188976377953
 20
-3.5611574803149608
 30
0.0
 10
2.5123188976377953
 20
-3.5611574803149608
 30
0.0
 10
2.5123188976377953
 20
-4.3111574803149608
 30
0.0
 10
2.5123188976377953
 20
-4.3111574803149608
 30
0.0
 10
2.5123188976377953
 20
-4.3111574803149608
 30
0.0
 10
2.5123188976377953
 20
-4.3111574803149608
 30
0.0
 10
1.8583267716535434
 20
-4.6745314960629925
 30
0.0
 10
1.8583267716535434
 20
-4.6745314960629925
 30
0.0
 10
1.8583267716535434
 20
-4.6745314960629925
 30
0.0
 10
1.8583267716535434
 20
-4.6745314960629925
 30
0.0
 10
1.8583267716535434
 20
-3.9245314960629925
 30
0.0
 10
1.8583267716535434
 20
-3.9245314960629925
 30
0.0
  0
SPLINE
  5
27
100
AcDbEntity
  8
Layer 1
370
     5
100
AcDbSpline
210
0.0
220
0.0
230
1.0
 70
     1
 71
     3
 72
    20
 73
    16
 74
     0
 42
0.0000000001
 43
0.0000000001
 40
0.0
 40
0.0
 40
0.0
 40
0.0
 40
0.25
 40
0.25
 40
0.25
 40
0.25
 40
0.5
 40
0.5
 40
0.5
 40
0.5
 40
0.75
 40
0.75
 40
0.75
 40
0.75
 40
1.0
 40
1.0
 40
1.0
 40
1.0
 10
1.8583267716535434
 20
-3.9245314960629925
 30
0.0
 10
1.8583267716535434
 20
-3.9245314960629925
 30
0.0
 10
2.5123188976377953
 20
-3.5611574803149608
 30
0.0
 10
2.5123188976377953
 20
-3.5611574803149608
 30
0.0
 10
2.5123188976377953
 20
-3.5611574803149608
 30
0.0
 10
2.5123188976377953
 20
-3.5611574803149608
 30
0.0
 10
2.5123188976377953
 20
-4.3111574803149608
 30
0.0
 10
2.5123188976377953
 20
-4.3111574803149608
 30
0.0
 10
2.5123188976377953
 20
-4.3111574803149608
 30
0.0
 10
2.5123188976377953
 20
-4.3111574803149608
 30
0.0
 10
1.8583267716535434
 20
-4.6745314960629925
 30
0.0
 10
1.8583267716535434
 20
-4.6745314960629925
 30
0.0
 10
1.8583267716535434
 20
-4.6745314960629925
 30
0.0
 10
1.8583267716535434
 20
-4.6745314960629925
 30
0.0
 10
1.8583267716535434
 20
-3.9245314960629925
 30
0.0
 10
1.8583267716535434
 20
-3.9245314960629925
 30
0.0
  0
SPLINE
  5
28
100
AcDbEntity
  8
Layer 1
 62
   252
100
AcDbSpline
210
0.0
220
0.0
230
1.0
 70
     1
 71
     3
 72
    20
 73
    16
 74
     0
 42
0.0000000001
 43
0.0000000001
 40
0.0
 40
0.0
 40
0.0
 40
0.0
 40
0.25
 40
0.25
 40
0.25
 40
0.25
 40
0.5
 40
0.5
 40
0.5
 40
0.5
 40
0.75
 40
0.75
 40
0.75
 40
0.75
 40
1.0
 40
1.0
 40
1.0
 40
1.0
 10
-1.7666692913385826
 20
0.0423425196850394
 30
0.0
 10
-1.7666692913385826
 20
0.0423425196850394
 30
0.0
 10
-1.1126771653543308
 20
0.4057165354330709
 30
0.0
 10
-1.1126771653543308
 20
0.4057165354330709
 30
0.0
 10
-1.1126771653543308
 20
0.4057165354330709
 30
0.0
 10
-1.1126771653543308
 20
0.4057165354330709
 30
0.0
 10
0.7753858267716536
 20
0.4057165354330709
 30
0.0
 10
0.7753858267716536
 20
0.4057165354330709
 30
0.0
 10
0.7753858267716536
 20
0.4057165354330709
 30
0.0
 10
0.7753858267716536
 20
0.4057165354330709
 30
0.0
 10
0.1213937007874016
 20
0.0423425196850394
 30
0.0
 10
0.1213937007874016
 20
0.0423425196850394
 30
0.0
 10
0.1213937007874016
 20
0.0423425196850394
 30
0.0
 10
0.1213937007874016
 20
0.0423425196850394
 30
0.0
 10
-1.7666692913385826
 20
0.0423425196850394
 30
0.0
 10
-1.7666692913385826
 20
0.0423425196850394
 30
0.0
  0
SPLINE
  5
29
100
AcDbEntity
  8
Layer 1
370
     5
100
AcDbSpline
210
0.0
220
0.0
230
1.0
 70
     1
 71
     3
 72
    20
 73
    16
 74
     0
 42
0.0000000001
 43
0.0000000001
 40
0.0
 40
0.0
 40
0.0
 40
0.0
 40
0.25
 40
0.25
 40
0.25
 40
0.25
 40
0.5
 40
0.5
 40
0.5
 40
0.5
 40
0.75
 40
0.75
 40
0.75
 40
0.75
 40
1.0
 40
1.0
 40
1.0
 40
1.0
 10
-1.7666692913385826
 20
0.0423425196850394
 30
0.0
 10
-1.7666692913385826
 20
0.0423425196850394
 30
0.0
 10
-1.1126771653543308
 20
0.4057165354330709
 30
0.0
 10
-1.1126771653543308
 20
0.4057165354330709
 30
0.0
 10
-1.1126771653543308
 20
0.4057165354330709
 30
0.0
 10
-1.1126771653543308
 20
0.4057165354330709
 30
0.0
 10
0.7753858267716536
 20
0.4057165354330709
 30
0.0
 10
0.7753858267716536
 20
0.4057165354330709
 30
0.0
 10
0.7753858267716536
 20
0.4057165354330709
 30
0.0
 10
0.7753858267716536
 20
0.4057165354330709
 30
0.0
 10
0.1213937007874016
 20
0.0423425196850394
 30
0.0
 10
0.1213937007874016
 20
0.0423425196850394
 30
0.0
 10
0.1213937007874016
 20
0.0423425196850394
 30
0.0
 10
0.1213937007874016
 20
0.0423425196850394
 30
0.0
 10
-1.7666692913385826
 20
0.0423425196850394
 30
0.0
 10
-1.7666692913385826
 20
0.0423425196850394
 30
0.0
  0
SPLINE
  5
2A
100
AcDbEntity
  8
Layer 1
 62
   253
100
AcDbSpline
210
0.0
220
0.0
230
1.0
 70
     1
 71
     3
 72
    20
 73
    16
 74
     0
 42
0.0000000001
 43
0.0000000001
 40
0.0
 40
0.0
 40
0.0
 40
0.0
 40
0.25
 40
0.25
 40
0.25
 40
0.25
 40
0.5
 40
0.5
 40
0.5
 40
0.5
 40
0.75
 40
0.75
 40
0.75
 40
0.75
 40
1.0
 40
1.0
 40
1.0
 40
1.0
 10
0.1213937007874016
 20
0.0423425196850394
 30
0.0
 10
0.1213937007874016
 20
0.0423425196850394
 30
0.0
 10
0.7753858267716536
 20
0.4057165354330709
 30
0.0
 10
0.7753858267716536
 20
0.4057165354330709
 30
0.0
 10
0.7753858267716536
 20
0.4057165354330709
 30
0.0
 10
0.7753858267716536
 20
0.4057165354330709
 30
0.0
 10
1.2840472440944883
 20
0.2667952755905512
 30
0.0
 10
1.2840472440944883
 20
0.2667952755905512
 30
0.0
 10
1.2840472440944883
 20
0.2667952755905512
 30
0.0
 10
1.2840472440944883
 20
0.2667952755905512
 30
0.0
 10
0.6300551181102363
 20
-0.0965787401574803
 30
0.0
 10
0.6300551181102363
 20
-0.0965787401574803
 30
0.0
 10
0.6300551181102363
 20
-0.0965787401574803
 30
0.0
 10
0.6300551181102363
 20
-0.0965787401574803
 30
0.0
 10
0.1213937007874016
 20
0.0423425196850394
 30
0.0
 10
0.1213937007874016
 20
0.0423425196850394
 30
0.0
  0
SPLINE
  5
2B
100
AcDbEntity
  8
Layer 1
370
     5
100
AcDbSpline
210
0.0
220
0.0
230
1.0
 70
     1
 71
     3
 72
    20
 73
    16
 74
     0
 42
0.0000000001
 43
0.0000000001
 40
0.0
 40
0.0
 40
0.0
 40
0.0
 40
0.25
 40
0.25
 40
0.25
 40
0.25
 40
0.5
 40
0.5
 40
0.5
 40
0.5
 40
0.75
 40
0.75
 40
0.75
 40
0.75
 40
1.0
 40
1.0
 40
1.0
 40
1.0
 10
0.1213937007874016
 20
0.0423425196850394
 30
0.0
 10
0.1213937007874016
 20
0.0423425196850394
 30
0.0
 10
0.7753858267716536
 20
0.4057165354330709
 30
0.0
 10
0.7753858267716536
 20
0.4057165354330709
 30
0.0
 10
0.7753858267716536
 20
0.4057165354330709
 30
0.0
 10
0.7753858267716536
 20
0.4057165354330709
 30
0.0
 10
1.2840472440944883
 20
0.2667952755905512
 30
0.0
 10
1.2840472440944883
 20
0.2667952755905512
 30
0.0
 10
1.2840472440944883
 20
0.2667952755905512
 30
0.0
 10
1.2840472440944883
 20
0.2667952755905512
 30
0.0
 10
0.6300551181102363
 20
-0.0965787401574803
 30
0.0
 10
0.6300551181102363
 20
-0.0965787401574803
 30
0.0
 10
0.6300551181102363
 20
-0.0965787401574803
 30
0.0
 10
0.6300551181102363
 20
-0.0965787401574803
 30
0.0
 10
0.1213937007874016
 20
0.0423425196850394
 30
0.0
 10
0.1213937007874016
 20
0.0423425196850394
 30
0.0
  0
SPLINE
  5
2C
100
AcDbEntity
  8
Layer 1
 62
   253
100
AcDbSpline
210
0.0
220
0.0
230
1.0
 70
     1
 71
     3
 72
    20
 73
    16
 74
     0
 42
0.0000000001
 43
0.0000000001
 40
0.0
 40
0.0
 40
0.0
 40
0.0
 40
0.25
 40
0.25
 40
0.25
 40
0.25
 40
0.5
 40
0.5
 40
0.5
 40
0.5
 40
0.75
 40
0.75
 40
0.75
 40
0.75
 40
1.0
 40
1.0
 40
1.0
 40
1.0
 10
0.369992125984252
 20
-0.9421535433070867
 30
0.0
 10
0.369992125984252
 20
-0.9421535433070867
 30
0.0
 10
1.0239842519685041
 20
-0.5787795275590552
 30
0.0
 10
1.0239842519685041
 20
-0.5787795275590552
 30
0.0
 10
1.0239842519685041
 20
-0.5787795275590552
 30
0.0
 10
1.0239842519685041
 20
-0.5787795275590552
 30
0.0
 10
0.9108937007874016
 20
-0.6435984251968504
 30
0.0
 10
0.9108937007874016
 20
-0.6435984251968504
 30
0.0
 10
0.9108937007874016
 20
-0.6435984251968504
 30
0.0
 10
0.9108937007874016
 20
-0.6435984251968504
 30
0.0
 10
0.2569015748031496
 20
-1.0069724409448819
 30
0.0
 10
0.2569015748031496
 20
-1.0069724409448819
 30
0.0
 10
0.2569015748031496
 20
-1.0069724409448819
 30
0.0
 10
0.2569015748031496
 20
-1.0069724409448819
 30
0.0
 10
0.369992125984252
 20
-0.9421535433070867
 30
0.0
 10
0.369992125984252
 20
-0.9421535433070867
 30
0.0
  0
SPLINE
  5
2D
100
AcDbEntity
  8
Layer 1
 62
   253
100
AcDbSpline
210
0.0
220
0.0
230
1.0
 70
     1
 71
     3
 72
    20
 73
    16
 74
     0
 42
0.0000000001
 43
0.0000000001
 40
0.0
 40
0.0
 40
0.0
 40
0.0
 40
0.25
 40
0.25
 40
0.25
 40
0.25
 40
0.5
 40
0.5
 40
0.5
 40
0.5
 40
0.75
 40
0.75
 40
0.75
 40
0.75
 40
1.0
 40
1.0
 40
1.0
 40
1.0
 10
0.2569015748031496
 20
-1.0069724409448819
 30
0.0
 10
0.2569015748031496
 20
-1.0069724409448819
 30
0.0
 10
0.9108937007874016
 20
-0.6435984251968504
 30
0.0
 10
0.9108937007874016
 20
-0.6435984251968504
 30
0.0
 10
0.9108937007874016
 20
-0.6435984251968504
 30
0.0
 10
0.9108937007874016
 20
-0.6435984251968504
 30
0.0
 10
0.8091023622047244
 20
-0.7186574803149607
 30
0.0
 10
0.8091023622047244
 20
-0.7186574803149607
 30
0.0
 10
0.8091023622047244
 20
-0.7186574803149607
 30
0.0
 10
0.8091023622047244
 20
-0.7186574803149607
 30
0.0
 10
0.1551102362204725
 20
-1.0820314960629922
 30
0.0
 10
0.1551102362204725
 20
-1.0820314960629922
 30
0.0
 10
0.1551102362204725
 20
-1.0820314960629922
 30
0.0
 10
0.1551102362204725
 20
-1.0820314960629922
 30
0.0
 10
0.2569015748031496
 20
-1.0069724409448819
 30
0.0
 10
0.2569015748031496
 20
-1.0069724409448819
 30
0.0
  0
SPLINE
  5
2E
100
AcDbEntity
  8
Layer 1
 62
     9
100
AcDbSpline
210
0.0
220
0.0
230
1.0
 70
     1
 71
     3
 72
    20
 73
    16
 74
     0
 42
0.0000000001
 43
0.0000000001
 40
0.0
 40
0.0
 40
0.0
 40
0.0
 40
0.25
 40
0.25
 40
0.25
 40
0.25
 40
0.5
 40
0.5
 40
0.5
 40
0.5
 40
0.75
 40
0.75
 40
0.75
 40
0.75
 40
1.0
 40
1.0
 40
1.0
 40
1.0
 10
0.1551102362204725
 20
-1.0820314960629922
 30
0.0
 10
0.1551102362204725
 20
-1.0820314960629922
 30
0.0
 10
0.8091023622047244
 20
-0.7186574803149607
 30
0.0
 10
0.8091023622047244
 20
-0.7186574803149607
 30
0.0
 10
0.8091023622047244
 20
-0.7186574803149607
 30
0.0
 10
0.8091023622047244
 20
-0.7186574803149607
 30
0.0
 10
0.7185826771653544
 20
-0.8030984251968504
 30
0.0
 10
0.7185826771653544
 20
-0.8030984251968504
 30
0.0
 10
0.7185826771653544
 20
-0.8030984251968504
 30
0.0
 10
0.7185826771653544
 20
-0.8030984251968504
 30
0.0
 10
0.0645905511811024
 20
-1.1664724409448819
 30
0.0
 10
0.0645905511811024
 20
-1.1664724409448819
 30
0.0
 10
0.0645905511811024
 20
-1.1664724409448819
 30
0.0
 10
0.0645905511811024
 20
-1.1664724409448819
 30
0.0
 10
0.1551102362204725
 20
-1.0820314960629922
 30
0.0
 10
0.1551102362204725
 20
-1.0820314960629922
 30
0.0
  0
SPLINE
  5
2F
100
AcDbEntity
  8
Layer 1
 62
     9
100
AcDbSpline
210
0.0
220
0.0
230
1.0
 70
     1
 71
     3
 72
    20
 73
    16
 74
     0
 42
0.0000000001
 43
0.0000000001
 40
0.0
 40
0.0
 40
0.0
 40
0.0
 40
0.25
 40
0.25
 40
0.25
 40
0.25
 40
0.5
 40
0.5
 40
0.5
 40
0.5
 40
0.75
 40
0.75
 40
0.75
 40
0.75
 40
1.0
 40
1.0
 40
1.0
 40
1.0
 10
0.0645905511811024
 20
-1.1664724409448819
 30
0.0
 10
0.0645905511811024
 20
-1.1664724409448819
 30
0.0
 10
0.7185826771653544
 20
-0.8030984251968504
 30
0.0
 10
0.7185826771653544
 20
-0.8030984251968504
 30
0.0
 10
0.7185826771653544
 20
-0.8030984251968504
 30
0.0
 10
0.7185826771653544
 20
-0.8030984251968504
 30
0.0
 10
0.6393425196850394
 20
-0.8960984251968505
 30
0.0
 10
0.6393425196850394
 20
-0.8960984251968505
 30
0.0
 10
0.6393425196850394
 20
-0.8960984251968505
 30
0.0
 10
0.6393425196850394
 20
-0.8960984251968505
 30
0.0
 10
-0.0146496062992126
 20
-1.2594724409448819
 30
0.0
 10
-0.0146496062992126
 20
-1.2594724409448819
 30
0.0
 10
-0.0146496062992126
 20
-1.2594724409448819
 30
0.0
 10
-0.0146496062992126
 20
-1.2594724409448819
 30
0.0
 10
0.0645905511811024
 20
-1.1664724409448819
 30
0.0
 10
0.0645905511811024
 20
-1.1664724409448819
 30
0.0
  0
SPLINE
  5
30
100
AcDbEntity
  8
Layer 1
 62
     9
100
AcDbSpline
210
0.0
220
0.0
230
1.0
 70
     1
 71
     3
 72
    20
 73
    16
 74
     0
 42
0.0000000001
 43
0.0000000001
 40
0.0
 40
0.0
 40
0.0
 40
0.0
 40
0.25
 40
0.25
 40
0.25
 40
0.25
 40
0.5
 40
0.5
 40
0.5
 40
0.5
 40
0.75
 40
0.75
 40
0.75
 40
0.75
 40
1.0
 40
1.0
 40
1.0
 40
1.0
 10
-0.0146496062992126
 20
-1.2594724409448819
 30
0.0
 10
-0.0146496062992126
 20
-1.2594724409448819
 30
0.0
 10
0.6393425196850394
 20
-0.8960984251968505
 30
0.0
 10
0.6393425196850394
 20
-0.8960984251968505
 30
0.0
 10
0.6393425196850394
 20
-0.8960984251968505
 30
0.0
 10
0.6393425196850394
 20
-0.8960984251968505
 30
0.0
 10
0.5713622047244095
 20
-0.9968031496062992
 30
0.0
 10
0.5713622047244095
 20
-0.9968031496062992
 30
0.0
 10
0.5713622047244095
 20
-0.9968031496062992
 30
0.0
 10
0.5713622047244095
 20
-0.9968031496062992
 30
0.0
 10
-0.0826299212598425
 20
-1.3601771653543309
 30
0.0
 10
-0.0826299212598425
 20
-1.3601771653543309
 30
0.0
 10
-0.0826299212598425
 20
-1.3601771653543309
 30
0.0
 10
-0.0826299212598425
 20
-1.3601771653543309
 30
0.0
 10
-0.0146496062992126
 20
-1.2594724409448819
 30
0.0
 10
-0.0146496062992126
 20
-1.2594724409448819
 30
0.0
  0
SPLINE
  5
31
100
AcDbEntity
  8
Layer 1
 62
     9
100
AcDbSpline
210
0.0
220
0.0
230
1.0
 70
     1
 71
     3
 72
    20
 73
    16
 74
     0
 42
0.0000000001
 43
0.0000000001
 40
0.0
 40
0.0
 40
0.0
 40
0.0
 40
0.25
 40
0.25
 40
0.25
 40
0.25
 40
0.5
 40
0.5
 40
0.5
 40
0.5
 40
0.75
 40
0.75
 40
0.75
 40
0.75
 40
1.0
 40
1.0
 40
1.0
 40
1.0
 10
-0.0826299212598425
 20
-1.3601771653543309
 30
0.0
 10
-0.0826299212598425
 20
-1.3601771653543309
 30
0.0
 10
0.5713622047244095
 20
-0.9968031496062992
 30
0.0
 10
0.5713622047244095
 20
-0.9968031496062992
 30
0.0
 10
0.5713622047244095
 20
-0.9968031496062992
 30
0.0
 10
0.5713622047244095
 20
-0.9968031496062992
 30
0.0
 10
0.5146377952755906
 20
-1.1043858267716535
 30
0.0
 10
0.5146377952755906
 20
-1.1043858267716535
 30
0.0
 10
0.5146377952755906
 20
-1.1043858267716535
 30
0.0
 10
0.5146377952755906
 20
-1.1043858267716535
 30
0.0
 10
-0.1393543307086614
 20
-1.4677598425196852
 30
0.0
 10
-0.1393543307086614
 20
-1.4677598425196852
 30
0.0
 10
-0.1393543307086614
 20
-1.4677598425196852
 30
0.0
 10
-0.1393543307086614
 20
-1.4677598425196852
 30
0.0
 10
-0.0826299212598425
 20
-1.3601771653543309
 30
0.0
 10
-0.0826299212598425
 20
-1.3601771653543309
 30
0.0
  0
SPLINE
  5
32
100
AcDbEntity
  8
Layer 1
 62
     9
100
AcDbSpline
210
0.0
220
0.0
230
1.0
 70
     1
 71
     3
 72
    20
 73
    16
 74
     0
 42
0.0000000001
 43
0.0000000001
 40
0.0
 40
0.0
 40
0.0
 40
0.0
 40
0.25
 40
0.25
 40
0.25
 40
0.25
 40
0.5
 40
0.5
 40
0.5
 40
0.5
 40
0.75
 40
0.75
 40
0.75
 40
0.75
 40
1.0
 40
1.0
 40
1.0
 40
1.0
 10
-0.1393543307086614
 20
-1.4677598425196852
 30
0.0
 10
-0.1393543307086614
 20
-1.4677598425196852
 30
0.0
 10
0.5146377952755906
 20
-1.1043858267716535
 30
0.0
 10
0.5146377952755906
 20
-1.1043858267716535
 30
0.0
 10
0.5146377952755906
 20
-1.1043858267716535
 30
0.0
 10
0.5146377952755906
 20
-1.1043858267716535
 30
0.0
 10
0.4691692913385827
 20
-1.217988188976378
 30
0.0
 10
0.4691692913385827
 20
-1.217988188976378
 30
0.0
 10
0.4691692913385827
 20
-1.217988188976378
 30
0.0
 10
0.4691692913385827
 20
-1.217988188976378
 30
0.0
 10
-0.1848228346456693
 20
-1.5813622047244096
 30
0.0
 10
-0.1848228346456693
 20
-1.5813622047244096
 30
0.0
 10
-0.1848228346456693
 20
-1.5813622047244096
 30
0.0
 10
-0.1848228346456693
 20
-1.5813622047244096
 30
0.0
 10
-0.1393543307086614
 20
-1.4677598425196852
 30
0.0
 10
-0.1393543307086614
 20
-1.4677598425196852
 30
0.0
  0
SPLINE
  5
33
100
AcDbEntity
  8
Layer 1
 62
     9
100
AcDbSpline
210
0.0
220
0.0
230
1.0
 70
     1
 71
     3
 72
    20
 73
    16
 74
     0
 42
0.0000000001
 43
0.0000000001
 40
0.0
 40
0.0
 40
0.0
 40
0.0
 40
0.25
 40
0.25
 40
0.25
 40
0.25
 40
0.5
 40
0.5
 40
0.5
 40
0.5
 40
0.75
 40
0.75
 40
0.75
 40
0.75
 40
1.0
 40
1.0
 40
1.0
 40
1.0
 10
-0.1848228346456693
 20
-1.5813622047244096
 30
0.0
 10
-0.1848228346456693
 20
-1.5813622047244096
 30
0.0
 10
0.4691692913385827
 20
-1.217988188976378
 30
0.0
 10
0.4691692913385827
 20
-1.217988188976378
 30
0.0
 10
0.4691692913385827
 20
-1.217988188976378
 30
0.0
 10
0.4691692913385827
 20
-1.217988188976378
 30
0.0
 10
0.4349409448818898
 20
-1.3367834645669292
 30
0.0
 10
0.4349409448818898
 20
-1.3367834645669292
 30
0.0
 10
0.4349409448818898
 20
-1.3367834645669292
 30
0.0
 10
0.4349409448818898
 20
-1.3367834645669292
 30
0.0
 10
-0.2190511811023622
 20
-1.7001574803149606
 30
0.0
 10
-0.2190511811023622
 20
-1.7001574803149606
 30
0.0
 10
-0.2190511811023622
 20
-1.7001574803149606
 30
0.0
 10
-0.2190511811023622
 20
-1.7001574803149606
 30
0.0
 10
-0.1848228346456693
 20
-1.5813622047244096
 30
0.0
 10
-0.1848228346456693
 20
-1.5813622047244096
 30
0.0
  0
SPLINE
  5
34
100
AcDbEntity
  8
Layer 1
 62
     9
100
AcDbSpline
210
0.0
220
0.0
230
1.0
 70
     1
 71
     3
 72
    20
 73
    16
 74
     0
 42
0.0000000001
 43
0.0000000001
 40
0.0
 40
0.0
 40
0.0
 40
0.0
 40
0.25
 40
0.25
 40
0.25
 40
0.25
 40
0.5
 40
0.5
 40
0.5
 40
0.5
 40
0.75
 40
0.75
 40
0.75
 40
0.75
 40
1.0
 40
1.0
 40
1.0
 40
1.0
 10
-0.2190511811023622
 20
-1.7001574803149606
 30
0.0
 10
-0.2190511811023622
 20
-1.7001574803149606
 30
0.0
 10
0.4349409448818898
 20
-1.3367834645669292
 30
0.0
 10
0.4349409448818898
 20
-1.3367834645669292
 30
0.0
 10
0.4349409448818898
 20
-1.3367834645669292
 30
0.0
 10
0.4349409448818898
 20
-1.3367834645669292
 30
0.0
 10
0.4119527559055118
 20
-1.4599251968503937
 30
0.0
 10
0.4119527559055118
 20
-1.4599251968503937
 30
0.0
 10
0.4119527559055118
 20
-1.4599251968503937
 30
0.0
 10
0.4119527559055118
 20
-1.4599251968503937
 30
0.0
 10
-0.2420393700787402
 20
-1.8232992125984253
 30
0.0
 10
-0.2420393700787402
 20
-1.8232992125984253
 30
0.0
 10
-0.2420393700787402
 20
-1.8232992125984253
 30
0.0
 10
-0.2420393700787402
 20
-1.8232992125984253
 30
0.0
 10
-0.2190511811023622
 20
-1.7001574803149606
 30
0.0
 10
-0.2190511811023622
 20
-1.7001574803149606
 30
0.0
  0
SPLINE
  5
35
100
AcDbEntity
  8
Layer 1
 62
     9
100
AcDbSpline
210
0.0
220
0.0
230
1.0
 70
     1
 71
     3
 72
    20
 73
    16
 74
     0
 42
0.0000000001
 43
0.0000000001
 40
0.0
 40
0.0
 40
0.0
 40
0.0
 40
0.25
 40
0.25
 40
0.25
 40
0.25
 40
0.5
 40
0.5
 40
0.5
 40
0.5
 40
0.75
 40
0.75
 40
0.75
 40
0.75
 40
1.0
 40
1.0
 40
1.0
 40
1.0
 10
-0.2420393700787402
 20
-1.8232992125984253
 30
0.0
 10
-0.2420393700787402
 20
-1.8232992125984253
 30
0.0
 10
0.4119527559055118
 20
-1.4599251968503937
 30
0.0
 10
0.4119527559055118
 20
-1.4599251968503937
 30
0.0
 10
0.4119527559055118
 20
-1.4599251968503937
 30
0.0
 10
0.4119527559055118
 20
-1.4599251968503937
 30
0.0
 10
0.4001889763779528
 20
-1.5865748031496063
 30
0.0
 10
0.4001889763779528
 20
-1.5865748031496063
 30
0.0
 10
0.4001889763779528
 20
-1.5865748031496063
 30
0.0
 10
0.4001889763779528
 20
-1.5865748031496063
 30
0.0
 10
-0.2538031496062992
 20
-1.9499488188976379
 30
0.0
 10
-0.2538031496062992
 20
-1.9499488188976379
 30
0.0
 10
-0.2538031496062992
 20
-1.9499488188976379
 30
0.0
 10
-0.2538031496062992
 20
-1.9499488188976379
 30
0.0
 10
-0.2420393700787402
 20
-1.8232992125984253
 30
0.0
 10
-0.2420393700787402
 20
-1.8232992125984253
 30
0.0
  0
SPLINE
  5
36
100
AcDbEntity
  8
Layer 1
 62
     9
100
AcDbSpline
210
0.0
220
0.0
230
1.0
 70
     1
 71
     3
 72
    20
 73
    16
 74
     0
 42
0.0000000001
 43
0.0000000001
 40
0.0
 40
0.0
 40
0.0
 40
0.0
 40
0.25
 40
0.25
 40
0.25
 40
0.25
 40
0.5
 40
0.5
 40
0.5
 40
0.5
 40
0.75
 40
0.75
 40
0.75
 40
0.75
 40
1.0
 40
1.0
 40
1.0
 40
1.0
 10
-0.2538031496062992
 20
-1.9499488188976379
 30
0.0
 10
-0.2538031496062992
 20
-1.9499488188976379
 30
0.0
 10
0.4001889763779528
 20
-1.5865748031496063
 30
0.0
 10
0.4001889763779528
 20
-1.5865748031496063
 30
0.0
 10
0.4001889763779528
 20
-1.5865748031496063
 30
0.0
 10
0.4001889763779528
 20
-1.5865748031496063
 30
0.0
 10
0.3996574803149606
 20
-1.7158858267716537
 30
0.0
 10
0.3996574803149606
 20
-1.7158858267716537
 30
0.0
 10
0.3996574803149606
 20
-1.7158858267716537
 30
0.0
 10
0.3996574803149606
 20
-1.7158858267716537
 30
0.0
 10
-0.2543346456692914
 20
-2.0792598425196851
 30
0.0
 10
-0.2543346456692914
 20
-2.0792598425196851
 30
0.0
 10
-0.2543346456692914
 20
-2.0792598425196851
 30
0.0
 10
-0.2543346456692914
 20
-2.0792598425196851
 30
0.0
 10
-0.2538031496062992
 20
-1.9499488188976379
 30
0.0
 10
-0.2538031496062992
 20
-1.9499488188976379
 30
0.0
  0
SPLINE
  5
37
100
AcDbEntity
  8
Layer 1
 62
     9
100
AcDbSpline
210
0.0
220
0.0
230
1.0
 70
     1
 71
     3
 72
    20
 73
    16
 74
     0
 42
0.0000000001
 43
0.0000000001
 40
0.0
 40
0.0
 40
0.0
 40
0.0
 40
0.25
 40
0.25
 40
0.25
 40
0.25
 40
0.5
 40
0.5
 40
0.5
 40
0.5
 40
0.75
 40
0.75
 40
0.75
 40
0.75
 40
1.0
 40
1.0
 40
1.0
 40
1.0
 10
-0.2543346456692914
 20
-2.0792598425196851
 30
0.0
 10
-0.2543346456692914
 20
-2.0792598425196851
 30
0.0
 10
0.3996574803149606
 20
-1.7158858267716537
 30
0.0
 10
0.3996574803149606
 20
-1.7158858267716537
 30
0.0
 10
0.3996574803149606
 20
-1.7158858267716537
 30
0.0
 10
0.3996574803149606
 20
-1.7158858267716537
 30
0.0
 10
0.4103307086614174
 20
-1.8470275590551182
 30
0.0
 10
0.4103307086614174
 20
-1.8470275590551182
 30
0.0
 10
0.4103307086614174
 20
-1.8470275590551182
 30
0.0
 10
0.4103307086614174
 20
-1.8470275590551182
 30
0.0
 10
-0.2436614173228347
 20
-2.2104015748031496
 30
0.0
 10
-0.2436614173228347
 20
-2.2104015748031496
 30
0.0
 10
-0.2436614173228347
 20
-2.2104015748031496
 30
0.0
 10
-0.2436614173228347
 20
-2.2104015748031496
 30
0.0
 10
-0.2543346456692914
 20
-2.0792598425196851
 30
0.0
 10
-0.2543346456692914
 20
-2.0792598425196851
 30
0.0
  0
SPLINE
  5
38
100
AcDbEntity
  8
Layer 1
 62
     9
100
AcDbSpline
210
0.0
220
0.0
230
1.0
 70
     1
 71
     3
 72
    20
 73
    16
 74
     0
 42
0.0000000001
 43
0.0000000001
 40
0.0
 40
0.0
 40
0.0
 40
0.0
 40
0.25
 40
0.25
 40
0.25
 40
0.25
 40
0.5
 40
0.5
 40
0.5
 40
0.5
 40
0.75
 40
0.75
 40
0.75
 40
0.75
 40
1.0
 40
1.0
 40
1.0
 40
1.0
 10
-0.2436614173228347
 20
-2.2104015748031496
 30
0.0
 10
-0.2436614173228347
 20
-2.2104015748031496
 30
0.0
 10
0.4103307086614174
 20
-1.8470275590551182
 30
0.0
 10
0.4103307086614174
 20
-1.8470275590551182
 30
0.0
 10
0.4103307086614174
 20
-1.8470275590551182
 30
0.0
 10
0.4103307086614174
 20
-1.8470275590551182
 30
0.0
 10
0.4322204724409449
 20
-1.9791535433070866
 30
0.0
 10
0.4322204724409449
 20
-1.9791535433070866
 30
0.0
 10
0.4322204724409449
 20
-1.9791535433070866
 30
0.0
 10
0.4322204724409449
 20
-1.9791535433070866
 30
0.0
 10
-0.2217716535433071
 20
-2.3425275590551182
 30
0.0
 10
-0.2217716535433071
 20
-2.3425275590551182
 30
0.0
 10
-0.2217716535433071
 20
-2.3425275590551182
 30
0.0
 10
-0.2217716535433071
 20
-2.3425275590551182
 30
0.0
 10
-0.2436614173228347
 20
-2.2104015748031496
 30
0.0
 10
-0.2436614173228347
 20
-2.2104015748031496
 30
0.0
  0
SPLINE
  5
39
100
AcDbEntity
  8
Layer 1
 62
     9
100
AcDbSpline
210
0.0
220
0.0
230
1.0
 70
     1
 71
     3
 72
    20
 73
    16
 74
     0
 42
0.0000000001
 43
0.0000000001
 40
0.0
 40
0.0
 40
0.0
 40
0.0
 40
0.25
 40
0.25
 40
0.25
 40
0.25
 40
0.5
 40
0.5
 40
0.5
 40
0.5
 40
0.75
 40
0.75
 40
0.75
 40
0.75
 40
1.0
 40
1.0
 40
1.0
 40
1.0
 10
-0.2217716535433071
 20
-2.3425275590551182
 30
0.0
 10
-0.2217716535433071
 20
-2.3425275590551182
 30
0.0
 10
0.4322204724409449
 20
-1.9791535433070866
 30
0.0
 10
0.4322204724409449
 20
-1.9791535433070866
 30
0.0
 10
0.4322204724409449
 20
-1.9791535433070866
 30
0.0
 10
0.4322204724409449
 20
-1.9791535433070866
 30
0.0
 10
0.4653031496062992
 20
-2.1114251968503939
 30
0.0
 10
0.4653031496062992
 20
-2.1114251968503939
 30
0.0
 10
0.4653031496062992
 20
-2.1114251968503939
 30
0.0
 10
0.4653031496062992
 20
-2.1114251968503939
 30
0.0
 10
-0.1886889763779528
 20
-2.4747992125984255
 30
0.0
 10
-0.1886889763779528
 20
-2.4747992125984255
 30
0.0
 10
-0.1886889763779528
 20
-2.4747992125984255
 30
0.0
 10
-0.1886889763779528
 20
-2.4747992125984255
 30
0.0
 10
-0.2217716535433071
 20
-2.3425275590551182
 30
0.0
 10
-0.2217716535433071
 20
-2.3425275590551182
 30
0.0
  0
SPLINE
  5
3A
100
AcDbEntity
  8
Layer 1
 62
     9
100
AcDbSpline
210
0.0
220
0.0
230
1.0
 70
     1
 71
     3
 72
    20
 73
    16
 74
     0
 42
0.0000000001
 43
0.0000000001
 40
0.0
 40
0.0
 40
0.0
 40
0.0
 40
0.25
 40
0.25
 40
0.25
 40
0.25
 40
0.5
 40
0.5
 40
0.5
 40
0.5
 40
0.75
 40
0.75
 40
0.75
 40
0.75
 40
1.0
 40
1.0
 40
1.0
 40
1.0
 10
-0.1886889763779528
 20
-2.4747992125984255
 30
0.0
 10
-0.1886889763779528
 20
-2.4747992125984255
 30
0.0
 10
0.4653031496062992
 20
-2.1114251968503939
 30
0.0
 10
0.4653031496062992
 20
-2.1114251968503939
 30
0.0
 10
0.4653031496062992
 20
-2.1114251968503939
 30
0.0
 10
0.4653031496062992
 20
-2.1114251968503939
 30
0.0
 10
0.5095905511811024
 20
-2.242992125984252
 30
0.0
 10
0.5095905511811024
 20
-2.242992125984252
 30
0.0
 10
0.5095905511811024
 20
-2.242992125984252
 30
0.0
 10
0.5095905511811024
 20
-2.242992125984252
 30
0.0
 10
-0.1444015748031496
 20
-2.6063661417322836
 30
0.0
 10
-0.1444015748031496
 20
-2.6063661417322836
 30
0.0
 10
-0.1444015748031496
 20
-2.6063661417322836
 30
0.0
 10
-0.1444015748031496
 20
-2.6063661417322836
 30
0.0
 10
-0.1886889763779528
 20
-2.4747992125984255
 30
0.0
 10
-0.1886889763779528
 20
-2.4747992125984255
 30
0.0
  0
SPLINE
  5
3B
100
AcDbEntity
  8
Layer 1
 62
     9
100
AcDbSpline
210
0.0
220
0.0
230
1.0
 70
     1
 71
     3
 72
    20
 73
    16
 74
     0
 42
0.0000000001
 43
0.0000000001
 40
0.0
 40
0.0
 40
0.0
 40
0.0
 40
0.25
 40
0.25
 40
0.25
 40
0.25
 40
0.5
 40
0.5
 40
0.5
 40
0.5
 40
0.75
 40
0.75
 40
0.75
 40
0.75
 40
1.0
 40
1.0
 40
1.0
 40
1.0
 10
-0.1444015748031496
 20
-2.6063661417322836
 30
0.0
 10
-0.1444015748031496
 20
-2.6063661417322836
 30
0.0
 10
0.5095905511811024
 20
-2.242992125984252
 30
0.0
 10
0.5095905511811024
 20
-2.242992125984252
 30
0.0
 10
0.5095905511811024
 20
-2.242992125984252
 30
0.0
 10
0.5095905511811024
 20
-2.242992125984252
 30
0.0
 10
0.5650590551181103
 20
-2.3730236220472443
 30
0.0
 10
0.5650590551181103
 20
-2.3730236220472443
 30
0.0
 10
0.5650590551181103
 20
-2.3730236220472443
 30
0.0
 10
0.5650590551181103
 20
-2.3730236220472443
 30
0.0
 10
-0.0889330708661417
 20
-2.7363976377952759
 30
0.0
 10
-0.0889330708661417
 20
-2.7363976377952759
 30
0.0
 10
-0.0889330708661417
 20
-2.7363976377952759
 30
0.0
 10
-0.0889330708661417
 20
-2.7363976377952759
 30
0.0
 10
-0.1444015748031496
 20
-2.6063661417322836
 30
0.0
 10
-0.1444015748031496
 20
-2.6063661417322836
 30
0.0
  0
SPLINE
  5
3C
100
AcDbEntity
  8
Layer 1
 62
     9
100
AcDbSpline
210
0.0
220
0.0
230
1.0
 70
     1
 71
     3
 72
    20
 73
    16
 74
     0
 42
0.0000000001
 43
0.0000000001
 40
0.0
 40
0.0
 40
0.0
 40
0.0
 40
0.25
 40
0.25
 40
0.25
 40
0.25
 40
0.5
 40
0.5
 40
0.5
 40
0.5
 40
0.75
 40
0.75
 40
0.75
 40
0.75
 40
1.0
 40
1.0
 40
1.0
 40
1.0
 10
-0.0889330708661417
 20
-2.7363976377952759
 30
0.0
 10
-0.0889330708661417
 20
-2.7363976377952759
 30
0.0
 10
0.5650590551181103
 20
-2.3730236220472443
 30
0.0
 10
0.5650590551181103
 20
-2.3730236220472443
 30
0.0
 10
0.5650590551181103
 20
-2.3730236220472443
 30
0.0
 10
0.5650590551181103
 20
-2.3730236220472443
 30
0.0
 10
0.6317086614173229
 20
-2.5006732283464568
 30
0.0
 10
0.6317086614173229
 20
-2.5006732283464568
 30
0.0
 10
0.6317086614173229
 20
-2.5006732283464568
 30
0.0
 10
0.6317086614173229
 20
-2.5006732283464568
 30
0.0
 10
-0.0222834645669291
 20
-2.8640472440944884
 30
0.0
 10
-0.0222834645669291
 20
-2.8640472440944884
 30
0.0
 10
-0.0222834645669291
 20
-2.8640472440944884
 30
0.0
 10
-0.0222834645669291
 20
-2.8640472440944884
 30
0.0
 10
-0.0889330708661417
 20
-2.7363976377952759
 30
0.0
 10
-0.0889330708661417
 20
-2.7363976377952759
 30
0.0
  0
SPLINE
  5
3D
100
AcDbEntity
  8
Layer 1
 62
     9
100
AcDbSpline
210
0.0
220
0.0
230
1.0
 70
     1
 71
     3
 72
    20
 73
    16
 74
     0
 42
0.0000000001
 43
0.0000000001
 40
0.0
 40
0.0
 40
0.0
 40
0.0
 40
0.25
 40
0.25
 40
0.25
 40
0.25
 40
0.5
 40
0.5
 40
0.5
 40
0.5
 40
0.75
 40
0.75
 40
0.75
 40
0.75
 40
1.0
 40
1.0
 40
1.0
 40
1.0
 10
-0.0222834645669291
 20
-2.8640472440944884
 30
0.0
 10
-0.0222834645669291
 20
-2.8640472440944884
 30
0.0
 10
0.6317086614173229
 20
-2.5006732283464568
 30
0.0
 10
0.6317086614173229
 20
-2.5006732283464568
 30
0.0
 10
0.6317086614173229
 20
-2.5006732283464568
 30
0.0
 10
0.6317086614173229
 20
-2.5006732283464568
 30
0.0
 10
0.7095275590551181
 20
-2.6251102362204723
 30
0.0
 10
0.7095275590551181
 20
-2.6251102362204723
 30
0.0
 10
0.7095275590551181
 20
-2.6251102362204723
 30
0.0
 10
0.7095275590551181
 20
-2.6251102362204723
 30
0.0
 10
0.0555354330708661
 20
-2.988484251968504
 30
0.0
 10
0.0555354330708661
 20
-2.988484251968504
 30
0.0
 10
0.0555354330708661
 20
-2.988484251968504
 30
0.0
 10
0.0555354330708661
 20
-2.988484251968504
 30
0.0
 10
-0.0222834645669291
 20
-2.8640472440944884
 30
0.0
 10
-0.0222834645669291
 20
-2.8640472440944884
 30
0.0
  0
SPLINE
  5
3E
100
AcDbEntity
  8
Layer 1
 62
     9
100
AcDbSpline
210
0.0
220
0.0
230
1.0
 70
     1
 71
     3
 72
    20
 73
    16
 74
     0
 42
0.0000000001
 43
0.0000000001
 40
0.0
 40
0.0
 40
0.0
 40
0.0
 40
0.25
 40
0.25
 40
0.25
 40
0.25
 40
0.5
 40
0.5
 40
0.5
 40
0.5
 40
0.75
 40
0.75
 40
0.75
 40
0.75
 40
1.0
 40
1.0
 40
1.0
 40
1.0
 10
0.0555354330708661
 20
-2.988484251968504
 30
0.0
 10
0.0555354330708661
 20
-2.988484251968504
 30
0.0
 10
0.7095275590551181
 20
-2.6251102362204723
 30
0.0
 10
0.7095275590551181
 20
-2.6251102362204723
 30
0.0
 10
0.7095275590551181
 20
-2.6251102362204723
 30
0.0
 10
0.7095275590551181
 20
-2.6251102362204723
 30
0.0
 10
0.7985118110236221
 20
-2.7454803149606302
 30
0.0
 10
0.7985118110236221
 20
-2.7454803149606302
 30
0.0
 10
0.7985118110236221
 20
-2.7454803149606302
 30
0.0
 10
0.7985118110236221
 20
-2.7454803149606302
 30
0.0
 10
0.1445196850393701
 20
-3.1088543307086614
 30
0.0
 10
0.1445196850393701
 20
-3.1088543307086614
 30
0.0
 10
0.1445196850393701
 20
-3.1088543307086614
 30
0.0
 10
0.1445196850393701
 20
-3.1088543307086614
 30
0.0
 10
0.0555354330708661
 20
-2.988484251968504
 30
0.0
 10
0.0555354330708661
 20
-2.988484251968504
 30
0.0
  0
SPLINE
  5
3F
100
AcDbEntity
  8
Layer 1
 62
     9
100
AcDbSpline
210
0.0
220
0.0
230
1.0
 70
     1
 71
     3
 72
    20
 73
    16
 74
     0
 42
0.0000000001
 43
0.0000000001
 40
0.0
 40
0.0
 40
0.0
 40
0.0
 40
0.25
 40
0.25
 40
0.25
 40
0.25
 40
0.5
 40
0.5
 40
0.5
 40
0.5
 40
0.75
 40
0.75
 40
0.75
 40
0.75
 40
1.0
 40
1.0
 40
1.0
 40
1.0
 10
0.1445196850393701
 20
-3.1088543307086614
 30
0.0
 10
0.1445196850393701
 20
-3.1088543307086614
 30
0.0
 10
0.7985118110236221
 20
-2.7454803149606302
 30
0.0
 10
0.7985118110236221
 20
-2.7454803149606302
 30
0.0
 10
0.7985118110236221
 20
-2.7454803149606302
 30
0.0
 10
0.7985118110236221
 20
-2.7454803149606302
 30
0.0
 10
0.8986614173228347
 20
-2.8609566929133861
 30
0.0
 10
0.8986614173228347
 20
-2.8609566929133861
 30
0.0
 10
0.8986614173228347
 20
-2.8609566929133861
 30
0.0
 10
0.8986614173228347
 20
-2.8609566929133861
 30
0.0
 10
0.2446692913385827
 20
-3.2243307086614172
 30
0.0
 10
0.2446692913385827
 20
-3.2243307086614172
 30
0.0
 10
0.2446692913385827
 20
-3.2243307086614172
 30
0.0
 10
0.2446692913385827
 20
-3.2243307086614172
 30
0.0
 10
0.1445196850393701
 20
-3.1088543307086614
 30
0.0
 10
0.1445196850393701
 20
-3.1088543307086614
 30
0.0
  0
SPLINE
  5
40
100
AcDbEntity
  8
Layer 1
 62
     9
100
AcDbSpline
210
0.0
220
0.0
230
1.0
 70
     1
 71
     3
 72
    20
 73
    16
 74
     0
 42
0.0000000001
 43
0.0000000001
 40
0.0
 40
0.0
 40
0.0
 40
0.0
 40
0.25
 40
0.25
 40
0.25
 40
0.25
 40
0.5
 40
0.5
 40
0.5
 40
0.5
 40
0.75
 40
0.75
 40
0.75
 40
0.75
 40
1.0
 40
1.0
 40
1.0
 40
1.0
 10
0.2446692913385827
 20
-3.2243307086614172
 30
0.0
 10
0.2446692913385827
 20
-3.2243307086614172
 30
0.0
 10
0.8986614173228347
 20
-2.8609566929133861
 30
0.0
 10
0.8986614173228347
 20
-2.8609566929133861
 30
0.0
 10
0.8986614173228347
 20
-2.8609566929133861
 30
0.0
 10
0.8986614173228347
 20
-2.8609566929133861
 30
0.0
 10
1.0099566929133859
 20
-2.9706850393700788
 30
0.0
 10
1.0099566929133859
 20
-2.9706850393700788
 30
0.0
 10
1.0099566929133859
 20
-2.9706850393700788
 30
0.0
 10
1.0099566929133859
 20
-2.9706850393700788
 30
0.0
 10
0.3559645669291339
 20
-3.3340590551181104
 30
0.0
 10
0.3559645669291339
 20
-3.3340590551181104
 30
0.0
 10
0.3559645669291339
 20
-3.3340590551181104
 30
0.0
 10
0.3559645669291339
 20
-3.3340590551181104
 30
0.0
 10
0.2446692913385827
 20
-3.2243307086614172
 30
0.0
 10
0.2446692913385827
 20
-3.2243307086614172
 30
0.0
  0
SPLINE
  5
41
100
AcDbEntity
  8
Layer 1
 62
     9
100
AcDbSpline
210
0.0
220
0.0
230
1.0
 70
     1
 71
     3
 72
    20
 73
    16
 74
     0
 42
0.0000000001
 43
0.0000000001
 40
0.0
 40
0.0
 40
0.0
 40
0.0
 40
0.25
 40
0.25
 40
0.25
 40
0.25
 40
0.5
 40
0.5
 40
0.5
 40
0.5
 40
0.75
 40
0.75
 40
0.75
 40
0.75
 40
1.0
 40
1.0
 40
1.0
 40
1.0
 10
0.3559645669291339
 20
-3.3340590551181104
 30
0.0
 10
0.3559645669291339
 20
-3.3340590551181104
 30
0.0
 10
1.0099566929133859
 20
-2.9706850393700788
 30
0.0
 10
1.0099566929133859
 20
-2.9706850393700788
 30
0.0
 10
1.0099566929133859
 20
-2.9706850393700788
 30
0.0
 10
1.0099566929133859
 20
-2.9706850393700788
 30
0.0
 10
1.1324055118110237
 20
-3.0738385826771655
 30
0.0
 10
1.1324055118110237
 20
-3.0738385826771655
 30
0.0
 10
1.1324055118110237
 20
-3.0738385826771655
 30
0.0
 10
1.1324055118110237
 20
-3.0738385826771655
 30
0.0
 10
0.4784133858267717
 20
-3.4372125984251971
 30
0.0
 10
0.4784133858267717
 20
-3.4372125984251971
 30
0.0
 10
0.4784133858267717
 20
-3.4372125984251971
 30
0.0
 10
0.4784133858267717
 20
-3.4372125984251971
 30
0.0
 10
0.3559645669291339
 20
-3.3340590551181104
 30
0.0
 10
0.3559645669291339
 20
-3.3340590551181104
 30
0.0
  0
SPLINE
  5
42
100
AcDbEntity
  8
Layer 1
 62
     9
100
AcDbSpline
210
0.0
220
0.0
230
1.0
 70
     1
 71
     3
 72
    20
 73
    16
 74
     0
 42
0.0000000001
 43
0.0000000001
 40
0.0
 40
0.0
 40
0.0
 40
0.0
 40
0.25
 40
0.25
 40
0.25
 40
0.25
 40
0.5
 40
0.5
 40
0.5
 40
0.5
 40
0.75
 40
0.75
 40
0.75
 40
0.75
 40
1.0
 40
1.0
 40
1.0
 40
1.0
 10
0.4784133858267717
 20
-3.4372125984251971
 30
0.0
 10
0.4784133858267717
 20
-3.4372125984251971
 30
0.0
 10
1.1324055118110237
 20
-3.0738385826771655
 30
0.0
 10
1.1324055118110237
 20
-3.0738385826771655
 30
0.0
 10
1.1324055118110237
 20
-3.0738385826771655
 30
0.0
 10
1.1324055118110237
 20
-3.0738385826771655
 30
0.0
 10
1.2659842519685041
 20
-3.1695551181102362
 30
0.0
 10
1.2659842519685041
 20
-3.1695551181102362
 30
0.0
 10
1.2659842519685041
 20
-3.1695551181102362
 30
0.0
 10
1.2659842519685041
 20
-3.1695551181102362
 30
0.0
 10
0.611992125984252
 20
-3.5329291338582678
 30
0.0
 10
0.611992125984252
 20
-3.5329291338582678
 30
0.0
 10
0.611992125984252
 20
-3.5329291338582678
 30
0.0
 10
0.611992125984252
 20
-3.5329291338582678
 30
0.0
 10
0.4784133858267717
 20
-3.4372125984251971
 30
0.0
 10
0.4784133858267717
 20
-3.4372125984251971
 30
0.0
  0
SPLINE
  5
43
100
AcDbEntity
  8
Layer 1
 62
     9
100
AcDbSpline
210
0.0
220
0.0
230
1.0
 70
     1
 71
     3
 72
    20
 73
    16
 74
     0
 42
0.0000000001
 43
0.0000000001
 40
0.0
 40
0.0
 40
0.0
 40
0.0
 40
0.25
 40
0.25
 40
0.25
 40
0.25
 40
0.5
 40
0.5
 40
0.5
 40
0.5
 40
0.75
 40
0.75
 40
0.75
 40
0.75
 40
1.0
 40
1.0
 40
1.0
 40
1.0
 10
0.611992125984252
 20
-3.5329291338582678
 30
0.0
 10
0.611992125984252
 20
-3.5329291338582678
 30
0.0
 10
1.2659842519685041
 20
-3.1695551181102362
 30
0.0
 10
1.2659842519685041
 20
-3.1695551181102362
 30
0.0
 10
1.2659842519685041
 20
-3.1695551181102362
 30
0.0
 10
1.2659842519685041
 20
-3.1695551181102362
 30
0.0
 10
1.4106968503937007
 20
-3.2570196850393702
 30
0.0
 10
1.4106968503937007
 20
-3.2570196850393702
 30
0.0
 10
1.4106968503937007
 20
-3.2570196850393702
 30
0.0
 10
1.4106968503937007
 20
-3.2570196850393702
 30
0.0
 10
0.7567047244094488
 20
-3.6203937007874019
 30
0.0
 10
0.7567047244094488
 20
-3.6203937007874019
 30
0.0
 10
0.7567047244094488
 20
-3.6203937007874019
 30
0.0
 10
0.7567047244094488
 20
-3.6203937007874019
 30
0.0
 10
0.611992125984252
 20
-3.5329291338582678
 30
0.0
 10
0.611992125984252
 20
-3.5329291338582678
 30
0.0
  0
SPLINE
  5
44
100
AcDbEntity
  8
Layer 1
 62
   253
100
AcDbSpline
210
0.0
220
0.0
230
1.0
 70
     1
 71
     3
 72
    20
 73
    16
 74
     0
 42
0.0000000001
 43
0.0000000001
 40
0.0
 40
0.0
 40
0.0
 40
0.0
 40
0.25
 40
0.25
 40
0.25
 40
0.25
 40
0.5
 40
0.5
 40
0.5
 40
0.5
 40
0.75
 40
0.75
 40
0.75
 40
0.75
 40
1.0
 40
1.0
 40
1.0
 40
1.0
 10
0.7567047244094488
 20
-3.6203937007874019
 30
0.0
 10
0.7567047244094488
 20
-3.6203937007874019
 30
0.0
 10
1.4106968503937007
 20
-3.2570196850393702
 30
0.0
 10
1.4106968503937007
 20
-3.2570196850393702
 30
0.0
 10
1.4106968503937007
 20
-3.2570196850393702
 30
0.0
 10
1.4106968503937007
 20
-3.2570196850393702
 30
0.0
 10
1.5665314960629921
 20
-3.3353740157480316
 30
0.0
 10
1.5665314960629921
 20
-3.3353740157480316
 30
0.0
 10
1.5665314960629921
 20
-3.3353740157480316
 30
0.0
 10
1.5665314960629921
 20
-3.3353740157480316
 30
0.0
 10
0.9125393700787402
 20
-3.6987480314960632
 30
0.0
 10
0.9125393700787402
 20
-3.6987480314960632
 30
0.0
 10
0.9125393700787402
 20
-3.6987480314960632
 30
0.0
 10
0.9125393700787402
 20
-3.6987480314960632
 30
0.0
 10
0.7567047244094488
 20
-3.6203937007874019
 30
0.0
 10
0.7567047244094488
 20
-3.6203937007874019
 30
0.0
  0
SPLINE
  5
45
100
AcDbEntity
  8
Layer 1
 62
   253
100
AcDbSpline
210
0.0
220
0.0
230
1.0
 70
     1
 71
     3
 72
    20
 73
    16
 74
     0
 42
0.0000000001
 43
0.0000000001
 40
0.0
 40
0.0
 40
0.0
 40
0.0
 40
0.25
 40
0.25
 40
0.25
 40
0.25
 40
0.5
 40
0.5
 40
0.5
 40
0.5
 40
0.75
 40
0.75
 40
0.75
 40
0.75
 40
1.0
 40
1.0
 40
1.0
 40
1.0
 10
0.9125393700787402
 20
-3.6987480314960632
 30
0.0
 10
0.9125393700787402
 20
-3.6987480314960632
 30
0.0
 10
1.5665314960629921
 20
-3.3353740157480316
 30
0.0
 10
1.5665314960629921
 20
-3.3353740157480316
 30
0.0
 10
1.5665314960629921
 20
-3.3353740157480316
 30
0.0
 10
1.5665314960629921
 20
-3.3353740157480316
 30
0.0
 10
1.733488188976378
 20
-3.4037874015748031
 30
0.0
 10
1.733488188976378
 20
-3.4037874015748031
 30
0.0
 10
1.733488188976378
 20
-3.4037874015748031
 30
0.0
 10
1.733488188976378
 20
-3.4037874015748031
 30
0.0
 10
1.079496062992126
 20
-3.7671614173228347
 30
0.0
 10
1.079496062992126
 20
-3.7671614173228347
 30
0.0
 10
1.079496062992126
 20
-3.7671614173228347
 30
0.0
 10
1.079496062992126
 20
-3.7671614173228347
 30
0.0
 10
0.9125393700787402
 20
-3.6987480314960632
 30
0.0
 10
0.9125393700787402
 20
-3.6987480314960632
 30
0.0
  0
SPLINE
  5
46
100
AcDbEntity
  8
Layer 1
 62
   253
100
AcDbSpline
210
0.0
220
0.0
230
1.0
 70
     1
 71
     3
 72
    20
 73
    16
 74
     0
 42
0.0000000001
 43
0.0000000001
 40
0.0
 40
0.0
 40
0.0
 40
0.0
 40
0.25
 40
0.25
 40
0.25
 40
0.25
 40
0.5
 40
0.5
 40
0.5
 40
0.5
 40
0.75
 40
0.75
 40
0.75
 40
0.75
 40
1.0
 40
1.0
 40
1.0
 40
1.0
 10
1.079496062992126
 20
-3.7671614173228347
 30
0.0
 10
1.079496062992126
 20
-3.7671614173228347
 30
0.0
 10
1.733488188976378
 20
-3.4037874015748031
 30
0.0
 10
1.733488188976378
 20
-3.4037874015748031
 30
0.0
 10
1.733488188976378
 20
-3.4037874015748031
 30
0.0
 10
1.733488188976378
 20
-3.4037874015748031
 30
0.0
 10
1.9115433070866144
 20
-3.4614094488188978
 30
0.0
 10
1.9115433070866144
 20
-3.4614094488188978
 30
0.0
 10
1.9115433070866144
 20
-3.4614094488188978
 30
0.0
 10
1.9115433070866144
 20
-3.4614094488188978
 30
0.0
 10
1.2575511811023623
 20
-3.8247834645669294
 30
0.0
 10
1.2575511811023623
 20
-3.8247834645669294
 30
0.0
 10
1.2575511811023623
 20
-3.8247834645669294
 30
0.0
 10
1.2575511811023623
 20
-3.8247834645669294
 30
0.0
 10
1.079496062992126
 20
-3.7671614173228347
 30
0.0
 10
1.079496062992126
 20
-3.7671614173228347
 30
0.0
  0
SPLINE
  5
47
100
AcDbEntity
  8
Layer 1
 62
   253
100
AcDbSpline
210
0.0
220
0.0
230
1.0
 70
     1
 71
     3
 72
    20
 73
    16
 74
     0
 42
0.0000000001
 43
0.0000000001
 40
0.0
 40
0.0
 40
0.0
 40
0.0
 40
0.25
 40
0.25
 40
0.25
 40
0.25
 40
0.5
 40
0.5
 40
0.5
 40
0.5
 40
0.75
 40
0.75
 40
0.75
 40
0.75
 40
1.0
 40
1.0
 40
1.0
 40
1.0
 10
1.2575511811023623
 20
-3.8247834645669294
 30
0.0
 10
1.2575511811023623
 20
-3.8247834645669294
 30
0.0
 10
1.9115433070866144
 20
-3.4614094488188978
 30
0.0
 10
1.9115433070866144
 20
-3.4614094488188978
 30
0.0
 10
1.9115433070866144
 20
-3.4614094488188978
 30
0.0
 10
1.9115433070866144
 20
-3.4614094488188978
 30
0.0
 10
2.1007086614173227
 20
-3.5074055118110237
 30
0.0
 10
2.1007086614173227
 20
-3.5074055118110237
 30
0.0
 10
2.1007086614173227
 20
-3.5074055118110237
 30
0.0
 10
2.1007086614173227
 20
-3.5074055118110237
 30
0.0
 10
1.4467165354330709
 20
-3.8707795275590553
 30
0.0
 10
1.4467165354330709
 20
-3.8707795275590553
 30
0.0
 10
1.4467165354330709
 20
-3.8707795275590553
 30
0.0
 10
1.4467165354330709
 20
-3.8707795275590553
 30
0.0
 10
1.2575511811023623
 20
-3.8247834645669294
 30
0.0
 10
1.2575511811023623
 20
-3.8247834645669294
 30
0.0
  0
SPLINE
  5
48
100
AcDbEntity
  8
Layer 1
 62
   253
100
AcDbSpline
210
0.0
220
0.0
230
1.0
 70
     1
 71
     3
 72
    20
 73
    16
 74
     0
 42
0.0000000001
 43
0.0000000001
 40
0.0
 40
0.0
 40
0.0
 40
0.0
 40
0.25
 40
0.25
 40
0.25
 40
0.25
 40
0.5
 40
0.5
 40
0.5
 40
0.5
 40
0.75
 40
0.75
 40
0.75
 40
0.75
 40
1.0
 40
1.0
 40
1.0
 40
1.0
 10
1.4467165354330709
 20
-3.8707795275590553
 30
0.0
 10
1.4467165354330709
 20
-3.8707795275590553
 30
0.0
 10
2.1007086614173227
 20
-3.5074055118110237
 30
0.0
 10
2.1007086614173227
 20
-3.5074055118110237
 30
0.0
 10
2.1007086614173227
 20
-3.5074055118110237
 30
0.0
 10
2.1007086614173227
 20
-3.5074055118110237
 30
0.0
 10
2.3009685039370078
 20
-3.5409330708661417
 30
0.0
 10
2.3009685039370078
 20
-3.5409330708661417
 30
0.0
 10
2.3009685039370078
 20
-3.5409330708661417
 30
0.0
 10
2.3009685039370078
 20
-3.5409330708661417
 30
0.0
 10
1.646976377952756
 20
-3.9043070866141734
 30
0.0
 10
1.646976377952756
 20
-3.9043070866141734
 30
0.0
 10
1.646976377952756
 20
-3.9043070866141734
 30
0.0
 10
1.646976377952756
 20
-3.9043070866141734
 30
0.0
 10
1.4467165354330709
 20
-3.8707795275590553
 30
0.0
 10
1.4467165354330709
 20
-3.8707795275590553
 30
0.0
  0
SPLINE
  5
49
100
AcDbEntity
  8
Layer 1
 62
   253
100
AcDbSpline
210
0.0
220
0.0
230
1.0
 70
     1
 71
     3
 72
    20
 73
    16
 74
     0
 42
0.0000000001
 43
0.0000000001
 40
0.0
 40
0.0
 40
0.0
 40
0.0
 40
0.25
 40
0.25
 40
0.25
 40
0.25
 40
0.5
 40
0.5
 40
0.5
 40
0.5
 40
0.75
 40
0.75
 40
0.75
 40
0.75
 40
1.0
 40
1.0
 40
1.0
 40
1.0
 10
1.646976377952756
 20
-3.9043070866141734
 30
0.0
 10
1.646976377952756
 20
-3.9043070866141734
 30
0.0
 10
2.3009685039370078
 20
-3.5409330708661417
 30
0.0
 10
2.3009685039370078
 20
-3.5409330708661417
 30
0.0
 10
2.3009685039370078
 20
-3.5409330708661417
 30
0.0
 10
2.3009685039370078
 20
-3.5409330708661417
 30
0.0
 10
2.5123188976377953
 20
-3.5611574803149608
 30
0.0
 10
2.5123188976377953
 20
-3.5611574803149608
 30
0.0
 10
2.5123188976377953
 20
-3.5611574803149608
 30
0.0
 10
2.5123188976377953
 20
-3.5611574803149608
 30
0.0
 10
1.8583267716535434
 20
-3.9245314960629925
 30
0.0
 10
1.8583267716535434
 20
-3.9245314960629925
 30
0.0
 10
1.8583267716535434
 20
-3.9245314960629925
 30
0.0
 10
1.8583267716535434
 20
-3.9245314960629925
 30
0.0
 10
1.646976377952756
 20
-3.9043070866141734
 30
0.0
 10
1.646976377952756
 20
-3.9043070866141734
 30
0.0
  0
SPLINE
  5
4A
100
AcDbEntity
  8
Layer 1
370
     5
100
AcDbSpline
210
0.0
220
0.0
230
1.0
 70
     1
 71
     3
 72
   252
 73
   248
 74
     0
 42
0.0000000001
 43
0.0000000001
 40
0.0
 40
0.0
 40
0.0
 40
0.0
 40
0.0161290322580645
 40
0.0161290322580645
 40
0.0161290322580645
 40
0.0161290322580645
 40
0.032258064516129
 40
0.032258064516129
 40
0.032258064516129
 40
0.032258064516129
 40
0.0483870967741935
 40
0.0483870967741935
 40
0.0483870967741935
 40
0.0483870967741935
 40
0.0645161290322581
 40
0.0645161290322581
 40
0.0645161290322581
 40
0.0645161290322581
 40
0.0806451612903226
 40
0.0806451612903226
 40
0.0806451612903226
 40
0.0806451612903226
 40
0.0967741935483871
 40
0.0967741935483871
 40
0.0967741935483871
 40
0.0967741935483871
 40
0.1129032258064516
 40
0.1129032258064516
 40
0.1129032258064516
 40
0.1129032258064516
 40
0.1290322580645161
 40
0.1290322580645161
 40
0.1290322580645161
 40
0.1290322580645161
 40
0.1451612903225806
 40
0.1451612903225806
 40
0.1451612903225806
 40
0.1451612903225806
 40
0.1612903225806451
 40
0.1612903225806451
 40
0.1612903225806451
 40
0.1612903225806451
 40
0.1774193548387096
 40
0.1774193548387096
 40
0.1774193548387096
 40
0.1774193548387096
 40
0.1935483870967741
 40
0.1935483870967741
 40
0.1935483870967741
 40
0.1935483870967741
 40
0.2096774193548386
 40
0.2096774193548386
 40
0.2096774193548386
 40
0.2096774193548386
 40
0.2258064516129031
 40
0.2258064516129031
 40
0.2258064516129031
 40
0.2258064516129031
 40
0.2419354838709676
 40
0.2419354838709676
 40
0.2419354838709676
 40
0.2419354838709676
 40
0.2580645161290321
 40
0.2580645161290321
 40
0.2580645161290321
 40
0.2580645161290321
 40
0.2741935483870966
 40
0.2741935483870966
 40
0.2741935483870966
 40
0.2741935483870966
 40
0.2903225806451611
 40
0.2903225806451611
 40
0.2903225806451611
 40
0.2903225806451611
 40
0.3064516129032257
 40
0.3064516129032257
 40
0.3064516129032257
 40
0.3064516129032257
 40
0.3225806451612902
 40
0.3225806451612902
 40
0.3225806451612902
 40
0.3225806451612902
 40
0.3387096774193547
 40
0.3387096774193547
 40
0.3387096774193547
 40
0.3387096774193547
 40
0.3548387096774192
 40
0.3548387096774192
 40
0.3548387096774192
 40
0.3548387096774192
 40
0.3709677419354837
 40
0.3709677419354837
 40
0.3709677419354837
 40
0.3709677419354837
 40
0.3870967741935482
 40
0.3870967741935482
 40
0.3870967741935482
 40
0.3870967741935482
 40
0.4032258064516127
 40
0.4032258064516127
 40
0.4032258064516127
 40
0.4032258064516127
 40
0.4193548387096772
 40
0.4193548387096772
 40
0.4193548387096772
 40
0.4193548387096772
 40
0.4354838709677417
 40
0.4354838709677417
 40
0.4354838709677417
 40
0.4354838709677417
 40
0.4516129032258062
 40
0.4516129032258062
 40
0.4516129032258062
 40
0.4516129032258062
 40
0.4677419354838707
 40
0.4677419354838707
 40
0.4677419354838707
 40
0.4677419354838707
 40
0.4838709677419352
 40
0.4838709677419352
 40
0.4838709677419352
 40
0.4838709677419352
 40
0.4999999999999997
 40
0.4999999999999997
 40
0.4999999999999997
 40
0.4999999999999997
 40
0.5161290322580642
 40
0.5161290322580642
 40
0.5161290322580642
 40
0.5161290322580642
 40
0.5322580645161287
 40
0.5322580645161287
 40
0.5322580645161287
 40
0.5322580645161287
 40
0.5483870967741932
 40
0.5483870967741932
 40
0.5483870967741932
 40
0.5483870967741932
 40
0.5645161290322577
 40
0.5645161290322577
 40
0.5645161290322577
 40
0.5645161290322577
 40
0.5806451612903222
 40
0.5806451612903222
 40
0.5806451612903222
 40
0.5806451612903222
 40
0.5967741935483867
 40
0.5967741935483867
 40
0.5967741935483867
 40
0.5967741935483867
 40
0.6129032258064512
 40
0.6129032258064512
 40
0.6129032258064512
 40
0.6129032258064512
 40
0.6290322580645157
 40
0.6290322580645157
 40
0.6290322580645157
 40
0.6290322580645157
 40
0.6451612903225802
 40
0.6451612903225802
 40
0.6451612903225802
 40
0.6451612903225802
 40
0.6612903225806447
 40
0.6612903225806447
 40
0.6612903225806447
 40
0.6612903225806447
 40
0.6774193548387092
 40
0.6774193548387092
 40
0.6774193548387092
 40
0.6774193548387092
 40
0.6935483870967737
 40
0.6935483870967737
 40
0.6935483870967737
 40
0.6935483870967737
 40
0.7096774193548382
 40
0.7096774193548382
 40
0.7096774193548382
 40
0.7096774193548382
 40
0.7258064516129027
 40
0.7258064516129027
 40
0.7258064516129027
 40
0.7258064516129027
 40
0.7419354838709672
 40
0.7419354838709672
 40
0.7419354838709672
 40
0.7419354838709672
 40
0.7580645161290317
 40
0.7580645161290317
 40
0.7580645161290317
 40
0.7580645161290317
 40
0.7741935483870962
 40
0.7741935483870962
 40
0.7741935483870962
 40
0.7741935483870962
 40
0.7903225806451607
 40
0.7903225806451607
 40
0.7903225806451607
 40
0.7903225806451607
 40
0.8064516129032252
 40
0.8064516129032252
 40
0.8064516129032252
 40
0.8064516129032252
 40
0.8225806451612897
 40
0.8225806451612897
 40
0.8225806451612897
 40
0.8225806451612897
 40
0.8387096774193542
 40
0.8387096774193542
 40
0.8387096774193542
 40
0.8387096774193542
 40
0.8548387096774187
 40
0.8548387096774187
 40
0.8548387096774187
 40
0.8548387096774187
 40
0.8709677419354832
 40
0.8709677419354832
 40
0.8709677419354832
 40
0.8709677419354832
 40
0.8870967741935477
 40
0.8870967741935477
 40
0.8870967741935477
 40
0.8870967741935477
 40
0.9032258064516122
 40
0.9032258064516122
 40
0.9032258064516122
 40
0.9032258064516122
 40
0.9193548387096767
 40
0.9193548387096767
 40
0.9193548387096767
 40
0.9193548387096767
 40
0.9354838709677412
 40
0.9354838709677412
 40
0.9354838709677412
 40
0.9354838709677412
 40
0.9516129032258057
 40
0.9516129032258057
 40
0.9516129032258057
 40
0.9516129032258057
 40
0.9677419354838702
 40
0.9677419354838702
 40
0.9677419354838702
 40
0.9677419354838702
 40
0.9838709677419347
 40
0.9838709677419347
 40
0.9838709677419347
 40
0.9838709677419347
 40
1.0
 40
1.0
 40
1.0
 40
1.0
 10
0.369992125984252
 20
-0.9421535433070867
 30
0.0
 10
0.369992125984252
 20
-0.9421535433070867
 30
0.0
 10
1.0239842519685041
 20
-0.5787795275590552
 30
0.0
 10
1.0239842519685041
 20
-0.5787795275590552
 30
0.0
 10
1.0239842519685041
 20
-0.5787795275590552
 30
0.0
 10
1.0239842519685041
 20
-0.5787795275590552
 30
0.0
 10
0.9108937007874016
 20
-0.6435984251968504
 30
0.0
 10
0.9108937007874016
 20
-0.6435984251968504
 30
0.0
 10
0.9108937007874016
 20
-0.6435984251968504
 30
0.0
 10
0.9108937007874016
 20
-0.6435984251968504
 30
0.0
 10
0.8091023622047244
 20
-0.7186574803149607
 30
0.0
 10
0.8091023622047244
 20
-0.7186574803149607
 30
0.0
 10
0.8091023622047244
 20
-0.7186574803149607
 30
0.0
 10
0.8091023622047244
 20
-0.7186574803149607
 30
0.0
 10
0.7185826771653544
 20
-0.8030984251968504
 30
0.0
 10
0.7185826771653544
 20
-0.8030984251968504
 30
0.0
 10
0.7185826771653544
 20
-0.8030984251968504
 30
0.0
 10
0.7185826771653544
 20
-0.8030984251968504
 30
0.0
 10
0.6393425196850394
 20
-0.8960984251968505
 30
0.0
 10
0.6393425196850394
 20
-0.8960984251968505
 30
0.0
 10
0.6393425196850394
 20
-0.8960984251968505
 30
0.0
 10
0.6393425196850394
 20
-0.8960984251968505
 30
0.0
 10
0.5713622047244095
 20
-0.9968031496062992
 30
0.0
 10
0.5713622047244095
 20
-0.9968031496062992
 30
0.0
 10
0.5713622047244095
 20
-0.9968031496062992
 30
0.0
 10
0.5713622047244095
 20
-0.9968031496062992
 30
0.0
 10
0.5146377952755906
 20
-1.1043858267716535
 30
0.0
 10
0.5146377952755906
 20
-1.1043858267716535
 30
0.0
 10
0.5146377952755906
 20
-1.1043858267716535
 30
0.0
 10
0.5146377952755906
 20
-1.1043858267716535
 30
0.0
 10
0.4691692913385827
 20
-1.217988188976378
 30
0.0
 10
0.4691692913385827
 20
-1.217988188976378
 30
0.0
 10
0.4691692913385827
 20
-1.217988188976378
 30
0.0
 10
0.4691692913385827
 20
-1.217988188976378
 30
0.0
 10
0.4349409448818898
 20
-1.3367834645669292
 30
0.0
 10
0.4349409448818898
 20
-1.3367834645669292
 30
0.0
 10
0.4349409448818898
 20
-1.3367834645669292
 30
0.0
 10
0.4349409448818898
 20
-1.3367834645669292
 30
0.0
 10
0.4119527559055118
 20
-1.4599251968503937
 30
0.0
 10
0.4119527559055118
 20
-1.4599251968503937
 30
0.0
 10
0.4119527559055118
 20
-1.4599251968503937
 30
0.0
 10
0.4119527559055118
 20
-1.4599251968503937
 30
0.0
 10
0.4001889763779528
 20
-1.5865748031496063
 30
0.0
 10
0.4001889763779528
 20
-1.5865748031496063
 30
0.0
 10
0.4001889763779528
 20
-1.5865748031496063
 30
0.0
 10
0.4001889763779528
 20
-1.5865748031496063
 30
0.0
 10
0.3996574803149606
 20
-1.7158858267716537
 30
0.0
 10
0.3996574803149606
 20
-1.7158858267716537
 30
0.0
 10
0.3996574803149606
 20
-1.7158858267716537
 30
0.0
 10
0.3996574803149606
 20
-1.7158858267716537
 30
0.0
 10
0.4103307086614174
 20
-1.8470275590551182
 30
0.0
 10
0.4103307086614174
 20
-1.8470275590551182
 30
0.0
 10
0.4103307086614174
 20
-1.8470275590551182
 30
0.0
 10
0.4103307086614174
 20
-1.8470275590551182
 30
0.0
 10
0.4322204724409449
 20
-1.9791535433070866
 30
0.0
 10
0.4322204724409449
 20
-1.9791535433070866
 30
0.0
 10
0.4322204724409449
 20
-1.9791535433070866
 30
0.0
 10
0.4322204724409449
 20
-1.9791535433070866
 30
0.0
 10
0.4653031496062992
 20
-2.1114251968503939
 30
0.0
 10
0.4653031496062992
 20
-2.1114251968503939
 30
0.0
 10
0.4653031496062992
 20
-2.1114251968503939
 30
0.0
 10
0.4653031496062992
 20
-2.1114251968503939
 30
0.0
 10
0.5095905511811024
 20
-2.242992125984252
 30
0.0
 10
0.5095905511811024
 20
-2.242992125984252
 30
0.0
 10
0.5095905511811024
 20
-2.242992125984252
 30
0.0
 10
0.5095905511811024
 20
-2.242992125984252
 30
0.0
 10
0.5650590551181103
 20
-2.3730236220472443
 30
0.0
 10
0.5650590551181103
 20
-2.3730236220472443
 30
0.0
 10
0.5650590551181103
 20
-2.3730236220472443
 30
0.0
 10
0.5650590551181103
 20
-2.3730236220472443
 30
0.0
 10
0.6317086614173229
 20
-2.5006732283464568
 30
0.0
 10
0.6317086614173229
 20
-2.5006732283464568
 30
0.0
 10
0.6317086614173229
 20
-2.5006732283464568
 30
0.0
 10
0.6317086614173229
 20
-2.5006732283464568
 30
0.0
 10
0.7095275590551181
 20
-2.6251102362204723
 30
0.0
 10
0.7095275590551181
 20
-2.6251102362204723
 30
0.0
 10
0.7095275590551181
 20
-2.6251102362204723
 30
0.0
 10
0.7095275590551181
 20
-2.6251102362204723
 30
0.0
 10
0.7985118110236221
 20
-2.7454803149606302
 30
0.0
 10
0.7985118110236221
 20
-2.7454803149606302
 30
0.0
 10
0.7985118110236221
 20
-2.7454803149606302
 30
0.0
 10
0.7985118110236221
 20
-2.7454803149606302
 30
0.0
 10
0.8986614173228347
 20
-2.8609566929133861
 30
0.0
 10
0.8986614173228347
 20
-2.8609566929133861
 30
0.0
 10
0.8986614173228347
 20
-2.8609566929133861
 30
0.0
 10
0.8986614173228347
 20
-2.8609566929133861
 30
0.0
 10
1.0099566929133859
 20
-2.9706850393700788
 30
0.0
 10
1.0099566929133859
 20
-2.9706850393700788
 30
0.0
 10
1.0099566929133859
 20
-2.9706850393700788
 30
0.0
 10
1.0099566929133859
 20
-2.9706850393700788
 30
0.0
 10
1.1324055118110237
 20
-3.0738385826771655
 30
0.0
 10
1.1324055118110237
 20
-3.0738385826771655
 30
0.0
 10
1.1324055118110237
 20
-3.0738385826771655
 30
0.0
 10
1.1324055118110237
 20
-3.0738385826771655
 30
0.0
 10
1.2659842519685041
 20
-3.1695551181102362
 30
0.0
 10
1.2659842519685041
 20
-3.1695551181102362
 30
0.0
 10
1.2659842519685041
 20
-3.1695551181102362
 30
0.0
 10
1.2659842519685041
 20
-3.1695551181102362
 30
0.0
 10
1.4106968503937007
 20
-3.2570196850393702
 30
0.0
 10
1.4106968503937007
 20
-3.2570196850393702
 30
0.0
 10
1.4106968503937007
 20
-3.2570196850393702
 30
0.0
 10
1.4106968503937007
 20
-3.2570196850393702
 30
0.0
 10
1.5665314960629921
 20
-3.3353740157480316
 30
0.0
 10
1.5665314960629921
 20
-3.3353740157480316
 30
0.0
 10
1.5665314960629921
 20
-3.3353740157480316
 30
0.0
 10
1.5665314960629921
 20
-3.3353740157480316
 30
0.0
 10
1.733488188976378
 20
-3.4037874015748031
 30
0.0
 10
1.733488188976378
 20
-3.4037874015748031
 30
0.0
 10
1.733488188976378
 20
-3.4037874015748031
 30
0.0
 10
1.733488188976378
 20
-3.4037874015748031
 30
0.0
 10
1.9115433070866144
 20
-3.4614094488188978
 30
0.0
 10
1.9115433070866144
 20
-3.4614094488188978
 30
0.0
 10
1.9115433070866144
 20
-3.4614094488188978
 30
0.0
 10
1.9115433070866144
 20
-3.4614094488188978
 30
0.0
 10
2.1007086614173227
 20
-3.5074055118110237
 30
0.0
 10
2.1007086614173227
 20
-3.5074055118110237
 30
0.0
 10
2.1007086614173227
 20
-3.5074055118110237
 30
0.0
 10
2.1007086614173227
 20
-3.5074055118110237
 30
0.0
 10
2.3009685039370078
 20
-3.5409330708661417
 30
0.0
 10
2.3009685039370078
 20
-3.5409330708661417
 30
0.0
 10
2.3009685039370078
 20
-3.5409330708661417
 30
0.0
 10
2.3009685039370078
 20
-3.5409330708661417
 30
0.0
 10
2.5123188976377953
 20
-3.5611574803149608
 30
0.0
 10
2.5123188976377953
 20
-3.5611574803149608
 30
0.0
 10
2.5123188976377953
 20
-3.5611574803149608
 30
0.0
 10
2.5123188976377953
 20
-3.5611574803149608
 30
0.0
 10
1.8583267716535434
 20
-3.9245314960629925
 30
0.0
 10
1.8583267716535434
 20
-3.9245314960629925
 30
0.0
 10
1.8583267716535434
 20
-3.9245314960629925
 30
0.0
 10
1.8583267716535434
 20
-3.9245314960629925
 30
0.0
 10
1.646976377952756
 20
-3.9043070866141734
 30
0.0
 10
1.646976377952756
 20
-3.9043070866141734
 30
0.0
 10
1.646976377952756
 20
-3.9043070866141734
 30
0.0
 10
1.646976377952756
 20
-3.9043070866141734
 30
0.0
 10
1.4467165354330709
 20
-3.8707795275590553
 30
0.0
 10
1.4467165354330709
 20
-3.8707795275590553
 30
0.0
 10
1.4467165354330709
 20
-3.8707795275590553
 30
0.0
 10
1.4467165354330709
 20
-3.8707795275590553
 30
0.0
 10
1.2575511811023623
 20
-3.8247834645669294
 30
0.0
 10
1.2575511811023623
 20
-3.8247834645669294
 30
0.0
 10
1.2575511811023623
 20
-3.8247834645669294
 30
0.0
 10
1.2575511811023623
 20
-3.8247834645669294
 30
0.0
 10
1.079496062992126
 20
-3.7671614173228347
 30
0.0
 10
1.079496062992126
 20
-3.7671614173228347
 30
0.0
 10
1.079496062992126
 20
-3.7671614173228347
 30
0.0
 10
1.079496062992126
 20
-3.7671614173228347
 30
0.0
 10
0.9125393700787402
 20
-3.6987480314960632
 30
0.0
 10
0.9125393700787402
 20
-3.6987480314960632
 30
0.0
 10
0.9125393700787402
 20
-3.6987480314960632
 30
0.0
 10
0.9125393700787402
 20
-3.6987480314960632
 30
0.0
 10
0.7567047244094488
 20
-3.6203937007874019
 30
0.0
 10
0.7567047244094488
 20
-3.6203937007874019
 30
0.0
 10
0.7567047244094488
 20
-3.6203937007874019
 30
0.0
 10
0.7567047244094488
 20
-3.6203937007874019
 30
0.0
 10
0.611992125984252
 20
-3.5329291338582678
 30
0.0
 10
0.611992125984252
 20
-3.5329291338582678
 30
0.0
 10
0.611992125984252
 20
-3.5329291338582678
 30
0.0
 10
0.611992125984252
 20
-3.5329291338582678
 30
0.0
 10
0.4784133858267717
 20
-3.4372125984251971
 30
0.0
 10
0.4784133858267717
 20
-3.4372125984251971
 30
0.0
 10
0.4784133858267717
 20
-3.4372125984251971
 30
0.0
 10
0.4784133858267717
 20
-3.4372125984251971
 30
0.0
 10
0.3559645669291339
 20
-3.3340590551181104
 30
0.0
 10
0.3559645669291339
 20
-3.3340590551181104
 30
0.0
 10
0.3559645669291339
 20
-3.3340590551181104
 30
0.0
 10
0.3559645669291339
 20
-3.3340590551181104
 30
0.0
 10
0.2446692913385827
 20
-3.2243307086614172
 30
0.0
 10
0.2446692913385827
 20
-3.2243307086614172
 30
0.0
 10
0.2446692913385827
 20
-3.2243307086614172
 30
0.0
 10
0.2446692913385827
 20
-3.2243307086614172
 30
0.0
 10
0.1445196850393701
 20
-3.1088543307086614
 30
0.0
 10
0.1445196850393701
 20
-3.1088543307086614
 30
0.0
 10
0.1445196850393701
 20
-3.1088543307086614
 30
0.0
 10
0.1445196850393701
 20
-3.1088543307086614
 30
0.0
 10
0.0555354330708661
 20
-2.988484251968504
 30
0.0
 10
0.0555354330708661
 20
-2.988484251968504
 30
0.0
 10
0.0555354330708661
 20
-2.988484251968504
 30
0.0
 10
0.0555354330708661
 20
-2.988484251968504
 30
0.0
 10
-0.0222834645669291
 20
-2.8640472440944884
 30
0.0
 10
-0.0222834645669291
 20
-2.8640472440944884
 30
0.0
 10
-0.0222834645669291
 20
-2.8640472440944884
 30
0.0
 10
-0.0222834645669291
 20
-2.8640472440944884
 30
0.0
 10
-0.0889330708661417
 20
-2.7363976377952759
 30
0.0
 10
-0.0889330708661417
 20
-2.7363976377952759
 30
0.0
 10
-0.0889330708661417
 20
-2.7363976377952759
 30
0.0
 10
-0.0889330708661417
 20
-2.7363976377952759
 30
0.0
 10
-0.1444015748031496
 20
-2.6063661417322836
 30
0.0
 10
-0.1444015748031496
 20
-2.6063661417322836
 30
0.0
 10
-0.1444015748031496
 20
-2.6063661417322836
 30
0.0
 10
-0.1444015748031496
 20
-2.6063661417322836
 30
0.0
 10
-0.1886889763779528
 20
-2.4747992125984255
 30
0.0
 10
-0.1886889763779528
 20
-2.4747992125984255
 30
0.0
 10
-0.1886889763779528
 20
-2.4747992125984255
 30
0.0
 10
-0.1886889763779528
 20
-2.4747992125984255
 30
0.0
 10
-0.2217716535433071
 20
-2.3425275590551182
 30
0.0
 10
-0.2217716535433071
 20
-2.3425275590551182
 30
0.0
 10
-0.2217716535433071
 20
-2.3425275590551182
 30
0.0
 10
-0.2217716535433071
 20
-2.3425275590551182
 30
0.0
 10
-0.2436614173228347
 20
-2.2104015748031496
 30
0.0
 10
-0.2436614173228347
 20
-2.2104015748031496
 30
0.0
 10
-0.2436614173228347
 20
-2.2104015748031496
 30
0.0
 10
-0.2436614173228347
 20
-2.2104015748031496
 30
0.0
 10
-0.2543346456692914
 20
-2.0792598425196851
 30
0.0
 10
-0.2543346456692914
 20
-2.0792598425196851
 30
0.0
 10
-0.2543346456692914
 20
-2.0792598425196851
 30
0.0
 10
-0.2543346456692914
 20
-2.0792598425196851
 30
0.0
 10
-0.2538031496062992
 20
-1.9499488188976379
 30
0.0
 10
-0.2538031496062992
 20
-1.9499488188976379
 30
0.0
 10
-0.2538031496062992
 20
-1.9499488188976379
 30
0.0
 10
-0.2538031496062992
 20
-1.9499488188976379
 30
0.0
 10
-0.2420393700787402
 20
-1.8232992125984253
 30
0.0
 10
-0.2420393700787402
 20
-1.8232992125984253
 30
0.0
 10
-0.2420393700787402
 20
-1.8232992125984253
 30
0.0
 10
-0.2420393700787402
 20
-1.8232992125984253
 30
0.0
 10
-0.2190511811023622
 20
-1.7001574803149606
 30
0.0
 10
-0.2190511811023622
 20
-1.7001574803149606
 30
0.0
 10
-0.2190511811023622
 20
-1.7001574803149606
 30
0.0
 10
-0.2190511811023622
 20
-1.7001574803149606
 30
0.0
 10
-0.1848228346456693
 20
-1.5813622047244096
 30
0.0
 10
-0.1848228346456693
 20
-1.5813622047244096
 30
0.0
 10
-0.1848228346456693
 20
-1.5813622047244096
 30
0.0
 10
-0.1848228346456693
 20
-1.5813622047244096
 30
0.0
 10
-0.1393543307086614
 20
-1.4677598425196852
 30
0.0
 10
-0.1393543307086614
 20
-1.4677598425196852
 30
0.0
 10
-0.1393543307086614
 20
-1.4677598425196852
 30
0.0
 10
-0.1393543307086614
 20
-1.4677598425196852
 30
0.0
 10
-0.0826299212598425
 20
-1.3601771653543309
 30
0.0
 10
-0.0826299212598425
 20
-1.3601771653543309
 30
0.0
 10
-0.0826299212598425
 20
-1.3601771653543309
 30
0.0
 10
-0.0826299212598425
 20
-1.3601771653543309
 30
0.0
 10
-0.0146496062992126
 20
-1.2594724409448819
 30
0.0
 10
-0.0146496062992126
 20
-1.2594724409448819
 30
0.0
 10
-0.0146496062992126
 20
-1.2594724409448819
 30
0.0
 10
-0.0146496062992126
 20
-1.2594724409448819
 30
0.0
 10
0.0645905511811024
 20
-1.1664724409448819
 30
0.0
 10
0.0645905511811024
 20
-1.1664724409448819
 30
0.0
 10
0.0645905511811024
 20
-1.1664724409448819
 30
0.0
 10
0.0645905511811024
 20
-1.1664724409448819
 30
0.0
 10
0.1551102362204725
 20
-1.0820314960629922
 30
0.0
 10
0.1551102362204725
 20
-1.0820314960629922
 30
0.0
 10
0.1551102362204725
 20
-1.0820314960629922
 30
0.0
 10
0.1551102362204725
 20
-1.0820314960629922
 30
0.0
 10
0.2569015748031496
 20
-1.0069724409448819
 30
0.0
 10
0.2569015748031496
 20
-1.0069724409448819
 30
0.0
 10
0.2569015748031496
 20
-1.0069724409448819
 30
0.0
 10
0.2569015748031496
 20
-1.0069724409448819
 30
0.0
 10
0.369992125984252
 20
-0.9421535433070867
 30
0.0
 10
0.369992125984252
 20
-0.9421535433070867
 30
0.0
  0
SPLINE
  5
4B
100
AcDbEntity
  8
Layer 1
 62
     9
100
AcDbSpline
210
0.0
220
0.0
230
1.0
 70
     1
 71
     3
 72
    20
 73
    16
 74
     0
 42
0.0000000001
 43
0.0000000001
 40
0.0
 40
0.0
 40
0.0
 40
0.0
 40
0.25
 40
0.25
 40
0.25
 40
0.25
 40
0.5
 40
0.5
 40
0.5
 40
0.5
 40
0.75
 40
0.75
 40
0.75
 40
0.75
 40
1.0
 40
1.0
 40
1.0
 40
1.0
 10
0.6300551181102363
 20
-0.0965787401574803
 30
0.0
 10
0.6300551181102363
 20
-0.0965787401574803
 30
0.0
 10
1.2840472440944883
 20
0.2667952755905512
 30
0.0
 10
1.2840472440944883
 20
0.2667952755905512
 30
0.0
 10
1.2840472440944883
 20
0.2667952755905512
 30
0.0
 10
1.2840472440944883
 20
0.2667952755905512
 30
0.0
 10
1.2840472440944883
 20
-0.4832047244094488
 30
0.0
 10
1.2840472440944883
 20
-0.4832047244094488
 30
0.0
 10
1.2840472440944883
 20
-0.4832047244094488
 30
0.0
 10
1.2840472440944883
 20
-0.4832047244094488
 30
0.0
 10
0.6300551181102363
 20
-0.8465787401574804
 30
0.0
 10
0.6300551181102363
 20
-0.8465787401574804
 30
0.0
 10
0.6300551181102363
 20
-0.8465787401574804
 30
0.0
 10
0.6300551181102363
 20
-0.8465787401574804
 30
0.0
 10
0.6300551181102363
 20
-0.0965787401574803
 30
0.0
 10
0.6300551181102363
 20
-0.0965787401574803
 30
0.0
  0
SPLINE
  5
4C
100
AcDbEntity
  8
Layer 1
370
     5
100
AcDbSpline
210
0.0
220
0.0
230
1.0
 70
     1
 71
     3
 72
    20
 73
    16
 74
     0
 42
0.0000000001
 43
0.0000000001
 40
0.0
 40
0.0
 40
0.0
 40
0.0
 40
0.25
 40
0.25
 40
0.25
 40
0.25
 40
0.5
 40
0.5
 40
0.5
 40
0.5
 40
0.75
 40
0.75
 40
0.75
 40
0.75
 40
1.0
 40
1.0
 40
1.0
 40
1.0
 10
0.6300551181102363
 20
-0.0965787401574803
 30
0.0
 10
0.6300551181102363
 20
-0.0965787401574803
 30
0.0
 10
1.2840472440944883
 20
0.2667952755905512
 30
0.0
 10
1.2840472440944883
 20
0.2667952755905512
 30
0.0
 10
1.2840472440944883
 20
0.2667952755905512
 30
0.0
 10
1.2840472440944883
 20
0.2667952755905512
 30
0.0
 10
1.2840472440944883
 20
-0.4832047244094488
 30
0.0
 10
1.2840472440944883
 20
-0.4832047244094488
 30
0.0
 10
1.2840472440944883
 20
-0.4832047244094488
 30
0.0
 10
1.2840472440944883
 20
-0.4832047244094488
 30
0.0
 10
0.6300551181102363
 20
-0.8465787401574804
 30
0.0
 10
0.6300551181102363
 20
-0.8465787401574804
 30
0.0
 10
0.6300551181102363
 20
-0.8465787401574804
 30
0.0
 10
0.6300551181102363
 20
-0.8465787401574804
 30
0.0
 10
0.6300551181102363
 20
-0.0965787401574803
 30
0.0
 10
0.6300551181102363
 20
-0.0965787401574803
 30
0.0
  0
SPLINE
  5
4D
100
AcDbEntity
  8
Layer 1
 62
     9
100
AcDbSpline
210
0.0
220
0.0
230
1.0
 70
     1
 71
     3
 72
    20
 73
    16
 74
     0
 42
0.0000000001
 43
0.0000000001
 40
0.0
 40
0.0
 40
0.0
 40
0.0
 40
0.25
 40
0.25
 40
0.25
 40
0.25
 40
0.5
 40
0.5
 40
0.5
 40
0.5
 40
0.75
 40
0.75
 40
0.75
 40
0.75
 40
1.0
 40
1.0
 40
1.0
 40
1.0
 10
1.8583267716535434
 20
-3.9245314960629925
 30
0.0
 10
1.8583267716535434
 20
-3.9245314960629925
 30
0.0
 10
2.5123188976377953
 20
-3.5611574803149608
 30
0.0
 10
2.5123188976377953
 20
-3.5611574803149608
 30
0.0
 10
2.5123188976377953
 20
-3.5611574803149608
 30
0.0
 10
2.5123188976377953
 20
-3.5611574803149608
 30
0.0
 10
2.5123188976377953
 20
-4.3111574803149608
 30
0.0
 10
2.5123188976377953
 20
-4.3111574803149608
 30
0.0
 10
2.5123188976377953
 20
-4.3111574803149608
 30
0.0
 10
2.5123188976377953
 20
-4.3111574803149608
 30
0.0
 10
1.8583267716535434
 20
-4.6745314960629925
 30
0.0
 10
1.8583267716535434
 20
-4.6745314960629925
 30
0.0
 10
1.8583267716535434
 20
-4.6745314960629925
 30
0.0
 10
1.8583267716535434
 20
-4.6745314960629925
 30
0.0
 10
1.8583267716535434
 20
-3.9245314960629925
 30
0.0
 10
1.8583267716535434
 20
-3.9245314960629925
 30
0.0
  0
SPLINE
  5
4E
100
AcDbEntity
  8
Layer 1
370
     5
100
AcDbSpline
210
0.0
220
0.0
230
1.0
 70
     1
 71
     3
 72
    20
 73
    16
 74
     0
 42
0.0000000001
 43
0.0000000001
 40
0.0
 40
0.0
 40
0.0
 40
0.0
 40
0.25
 40
0.25
 40
0.25
 40
0.25
 40
0.5
 40
0.5
 40
0.5
 40
0.5
 40
0.75
 40
0.75
 40
0.75
 40
0.75
 40
1.0
 40
1.0
 40
1.0
 40
1.0
 10
1.8583267716535434
 20
-3.9245314960629925
 30
0.0
 10
1.8583267716535434
 20
-3.9245314960629925
 30
0.0
 10
2.5123188976377953
 20
-3.5611574803149608
 30
0.0
 10
2.5123188976377953
 20
-3.5611574803149608
 30
0.0
 10
2.5123188976377953
 20
-3.5611574803149608
 30
0.0
 10
2.5123188976377953
 20
-3.5611574803149608
 30
0.0
 10
2.5123188976377953
 20
-4.3111574803149608
 30
0.0
 10
2.5123188976377953
 20
-4.3111574803149608
 30
0.0
 10
2.5123188976377953
 20
-4.3111574803149608
 30
0.0
 10
2.5123188976377953
 20
-4.3111574803149608
 30
0.0
 10
1.8583267716535434
 20
-4.6745314960629925
 30
0.0
 10
1.8583267716535434
 20
-4.6745314960629925
 30
0.0
 10
1.8583267716535434
 20
-4.6745314960629925
 30
0.0
 10
1.8583267716535434
 20
-4.6745314960629925
 30
0.0
 10
1.8583267716535434
 20
-3.9245314960629925
 30
0.0
 10
1.8583267716535434
 20
-3.9245314960629925
 30
0.0
  0
SPLINE
  5
4F
100
AcDbEntity
  8
Layer 1
 62
   252
100
AcDbSpline
210
0.0
220
0.0
230
1.0
 70
     1
 71
     3
 72
    20
 73
    16
 74
     0
 42
0.0000000001
 43
0.0000000001
 40
0.0
 40
0.0
 40
0.0
 40
0.0
 40
0.25
 40
0.25
 40
0.25
 40
0.25
 40
0.5
 40
0.5
 40
0.5
 40
0.5
 40
0.75
 40
0.75
 40
0.75
 40
0.75
 40
1.0
 40
1.0
 40
1.0
 40
1.0
 10
-1.7666692913385826
 20
0.0423425196850394
 30
0.0
 10
-1.7666692913385826
 20
0.0423425196850394
 30
0.0
 10
-1.1126771653543308
 20
0.4057165354330709
 30
0.0
 10
-1.1126771653543308
 20
0.4057165354330709
 30
0.0
 10
-1.1126771653543308
 20
0.4057165354330709
 30
0.0
 10
-1.1126771653543308
 20
0.4057165354330709
 30
0.0
 10
0.7753858267716536
 20
0.4057165354330709
 30
0.0
 10
0.7753858267716536
 20
0.4057165354330709
 30
0.0
 10
0.7753858267716536
 20
0.4057165354330709
 30
0.0
 10
0.7753858267716536
 20
0.4057165354330709
 30
0.0
 10
0.1213937007874016
 20
0.0423425196850394
 30
0.0
 10
0.1213937007874016
 20
0.0423425196850394
 30
0.0
 10
0.1213937007874016
 20
0.0423425196850394
 30
0.0
 10
0.1213937007874016
 20
0.0423425196850394
 30
0.0
 10
-1.7666692913385826
 20
0.0423425196850394
 30
0.0
 10
-1.7666692913385826
 20
0.0423425196850394
 30
0.0
  0
SPLINE
  5
50
100
AcDbEntity
  8
Layer 1
370
     5
100
AcDbSpline
210
0.0
220
0.0
230
1.0
 70
     1
 71
     3
 72
    20
 73
    16
 74
     0
 42
0.0000000001
 43
0.0000000001
 40
0.0
 40
0.0
 40
0.0
 40
0.0
 40
0.25
 40
0.25
 40
0.25
 40
0.25
 40
0.5
 40
0.5
 40
0.5
 40
0.5
 40
0.75
 40
0.75
 40
0.75
 40
0.75
 40
1.0
 40
1.0
 40
1.0
 40
1.0
 10
-1.7666692913385826
 20
0.0423425196850394
 30
0.0
 10
-1.7666692913385826
 20
0.0423425196850394
 30
0.0
 10
-1.1126771653543308
 20
0.4057165354330709
 30
0.0
 10
-1.1126771653543308
 20
0.4057165354330709
 30
0.0
 10
-1.1126771653543308
 20
0.4057165354330709
 30
0.0
 10
-1.1126771653543308
 20
0.4057165354330709
 30
0.0
 10
0.7753858267716536
 20
0.4057165354330709
 30
0.0
 10
0.7753858267716536
 20
0.4057165354330709
 30
0.0
 10
0.7753858267716536
 20
0.4057165354330709
 30
0.0
 10
0.7753858267716536
 20
0.4057165354330709
 30
0.0
 10
0.1213937007874016
 20
0.0423425196850394
 30
0.0
 10
0.1213937007874016
 20
0.0423425196850394
 30
0.0
 10
0.1213937007874016
 20
0.0423425196850394
 30
0.0
 10
0.1213937007874016
 20
0.0423425196850394
 30
0.0
 10
-1.7666692913385826
 20
0.0423425196850394
 30
0.0
 10
-1.7666692913385826
 20
0.0423425196850394
 30
0.0
  0
SPLINE
  5
51
100
AcDbEntity
  8
Layer 1
 62
   253
100
AcDbSpline
210
0.0
220
0.0
230
1.0
 70
     1
 71
     3
 72
    20
 73
    16
 74
     0
 42
0.0000000001
 43
0.0000000001
 40
0.0
 40
0.0
 40
0.0
 40
0.0
 40
0.25
 40
0.25
 40
0.25
 40
0.25
 40
0.5
 40
0.5
 40
0.5
 40
0.5
 40
0.75
 40
0.75
 40
0.75
 40
0.75
 40
1.0
 40
1.0
 40
1.0
 40
1.0
 10
0.1213937007874016
 20
0.0423425196850394
 30
0.0
 10
0.1213937007874016
 20
0.0423425196850394
 30
0.0
 10
0.7753858267716536
 20
0.4057165354330709
 30
0.0
 10
0.7753858267716536
 20
0.4057165354330709
 30
0.0
 10
0.7753858267716536
 20
0.4057165354330709
 30
0.0
 10
0.7753858267716536
 20
0.4057165354330709
 30
0.0
 10
1.2840472440944883
 20
0.2667952755905512
 30
0.0
 10
1.2840472440944883
 20
0.2667952755905512
 30
0.0
 10
1.2840472440944883
 20
0.2667952755905512
 30
0.0
 10
1.2840472440944883
 20
0.2667952755905512
 30
0.0
 10
0.6300551181102363
 20
-0.0965787401574803
 30
0.0
 10
0.6300551181102363
 20
-0.0965787401574803
 30
0.0
 10
0.6300551181102363
 20
-0.0965787401574803
 30
0.0
 10
0.6300551181102363
 20
-0.0965787401574803
 30
0.0
 10
0.1213937007874016
 20
0.0423425196850394
 30
0.0
 10
0.1213937007874016
 20
0.0423425196850394
 30
0.0
  0
SPLINE
  5
52
100
AcDbEntity
  8
Layer 1
370
     5
100
AcDbSpline
210
0.0
220
0.0
230
1.0
 70
     1
 71
     3
 72
    20
 73
    16
 74
     0
 42
0.0000000001
 43
0.0000000001
 40
0.0
 40
0.0
 40
0.0
 40
0.0
 40
0.25
 40
0.25
 40
0.25
 40
0.25
 40
0.5
 40
0.5
 40
0.5
 40
0.5
 40
0.75
 40
0.75
 40
0.75
 40
0.75
 40
1.0
 40
1.0
 40
1.0
 40
1.0
 10
0.1213937007874016
 20
0.0423425196850394
 30
0.0
 10
0.1213937007874016
 20
0.0423425196850394
 30
0.0
 10
0.7753858267716536
 20
0.4057165354330709
 30
0.0
 10
0.7753858267716536
 20
0.4057165354330709
 30
0.0
 10
0.7753858267716536
 20
0.4057165354330709
 30
0.0
 10
0.7753858267716536
 20
0.4057165354330709
 30
0.0
 10
1.2840472440944883
 20
0.2667952755905512
 30
0.0
 10
1.2840472440944883
 20
0.2667952755905512
 30
0.0
 10
1.2840472440944883
 20
0.2667952755905512
 30
0.0
 10
1.2840472440944883
 20
0.2667952755905512
 30
0.0
 10
0.6300551181102363
 20
-0.0965787401574803
 30
0.0
 10
0.6300551181102363
 20
-0.0965787401574803
 30
0.0
 10
0.6300551181102363
 20
-0.0965787401574803
 30
0.0
 10
0.6300551181102363
 20
-0.0965787401574803
 30
0.0
 10
0.1213937007874016
 20
0.0423425196850394
 30
0.0
 10
0.1213937007874016
 20
0.0423425196850394
 30
0.0
  0
SPLINE
  5
53
100
AcDbEntity
  8
Layer 1
 62
   253
100
AcDbSpline
210
0.0
220
0.0
230
1.0
 70
     1
 71
     3
 72
    20
 73
    16
 74
     0
 42
0.0000000001
 43
0.0000000001
 40
0.0
 40
0.0
 40
0.0
 40
0.0
 40
0.25
 40
0.25
 40
0.25
 40
0.25
 40
0.5
 40
0.5
 40
0.5
 40
0.5
 40
0.75
 40
0.75
 40
0.75
 40
0.75
 40
1.0
 40
1.0
 40
1.0
 40
1.0
 10
0.369992125984252
 20
-0.9421535433070867
 30
0.0
 10
0.369992125984252
 20
-0.9421535433070867
 30
0.0
 10
1.0239842519685041
 20
-0.5787795275590552
 30
0.0
 10
1.0239842519685041
 20
-0.5787795275590552
 30
0.0
 10
1.0239842519685041
 20
-0.5787795275590552
 30
0.0
 10
1.0239842519685041
 20
-0.5787795275590552
 30
0.0
 10
0.9108937007874016
 20
-0.6435984251968504
 30
0.0
 10
0.9108937007874016
 20
-0.6435984251968504
 30
0.0
 10
0.9108937007874016
 20
-0.6435984251968504
 30
0.0
 10
0.9108937007874016
 20
-0.6435984251968504
 30
0.0
 10
0.2569015748031496
 20
-1.0069724409448819
 30
0.0
 10
0.2569015748031496
 20
-1.0069724409448819
 30
0.0
 10
0.2569015748031496
 20
-1.0069724409448819
 30
0.0
 10
0.2569015748031496
 20
-1.0069724409448819
 30
0.0
 10
0.369992125984252
 20
-0.9421535433070867
 30
0.0
 10
0.369992125984252
 20
-0.9421535433070867
 30
0.0
  0
SPLINE
  5
54
100
AcDbEntity
  8
Layer 1
 62
   253
100
AcDbSpline
210
0.0
220
0.0
230
1.0
 70
     1
 71
     3
 72
    20
 73
    16
 74
     0
 42
0.0000000001
 43
0.0000000001
 40
0.0
 40
0.0
 40
0.0
 40
0.0
 40
0.25
 40
0.25
 40
0.25
 40
0.25
 40
0.5
 40
0.5
 40
0.5
 40
0.5
 40
0.75
 40
0.75
 40
0.75
 40
0.75
 40
1.0
 40
1.0
 40
1.0
 40
1.0
 10
0.2569015748031496
 20
-1.0069724409448819
 30
0.0
 10
0.2569015748031496
 20
-1.0069724409448819
 30
0.0
 10
0.9108937007874016
 20
-0.6435984251968504
 30
0.0
 10
0.9108937007874016
 20
-0.6435984251968504
 30
0.0
 10
0.9108937007874016
 20
-0.6435984251968504
 30
0.0
 10
0.9108937007874016
 20
-0.6435984251968504
 30
0.0
 10
0.8091023622047244
 20
-0.7186574803149607
 30
0.0
 10
0.8091023622047244
 20
-0.7186574803149607
 30
0.0
 10
0.8091023622047244
 20
-0.7186574803149607
 30
0.0
 10
0.8091023622047244
 20
-0.7186574803149607
 30
0.0
 10
0.1551102362204725
 20
-1.0820314960629922
 30
0.0
 10
0.1551102362204725
 20
-1.0820314960629922
 30
0.0
 10
0.1551102362204725
 20
-1.0820314960629922
 30
0.0
 10
0.1551102362204725
 20
-1.0820314960629922
 30
0.0
 10
0.2569015748031496
 20
-1.0069724409448819
 30
0.0
 10
0.2569015748031496
 20
-1.0069724409448819
 30
0.0
  0
SPLINE
  5
55
100
AcDbEntity
  8
Layer 1
 62
     9
100
AcDbSpline
210
0.0
220
0.0
230
1.0
 70
     1
 71
     3
 72
    20
 73
    16
 74
     0
 42
0.0000000001
 43
0.0000000001
 40
0.0
 40
0.0
 40
0.0
 40
0.0
 40
0.25
 40
0.25
 40
0.25
 40
0.25
 40
0.5
 40
0.5
 40
0.5
 40
0.5
 40
0.75
 40
0.75
 40
0.75
 40
0.75
 40
1.0
 40
1.0
 40
1.0
 40
1.0
 10
0.1551102362204725
 20
-1.0820314960629922
 30
0.0
 10
0.1551102362204725
 20
-1.0820314960629922
 30
0.0
 10
0.8091023622047244
 20
-0.7186574803149607
 30
0.0
 10
0.8091023622047244
 20
-0.7186574803149607
 30
0.0
 10
0.8091023622047244
 20
-0.7186574803149607
 30
0.0
 10
0.8091023622047244
 20
-0.7186574803149607
 30
0.0
 10
0.7185826771653544
 20
-0.8030984251968504
 30
0.0
 10
0.7185826771653544
 20
-0.8030984251968504
 30
0.0
 10
0.7185826771653544
 20
-0.8030984251968504
 30
0.0
 10
0.7185826771653544
 20
-0.8030984251968504
 30
0.0
 10
0.0645905511811024
 20
-1.1664724409448819
 30
0.0
 10
0.0645905511811024
 20
-1.1664724409448819
 30
0.0
 10
0.0645905511811024
 20
-1.1664724409448819
 30
0.0
 10
0.0645905511811024
 20
-1.1664724409448819
 30
0.0
 10
0.1551102362204725
 20
-1.0820314960629922
 30
0.0
 10
0.1551102362204725
 20
-1.0820314960629922
 30
0.0
  0
SPLINE
  5
56
100
AcDbEntity
  8
Layer 1
 62
     9
100
AcDbSpline
210
0.0
220
0.0
230
1.0
 70
     1
 71
     3
 72
    20
 73
    16
 74
     0
 42
0.0000000001
 43
0.0000000001
 40
0.0
 40
0.0
 40
0.0
 40
0.0
 40
0.25
 40
0.25
 40
0.25
 40
0.25
 40
0.5
 40
0.5
 40
0.5
 40
0.5
 40
0.75
 40
0.75
 40
0.75
 40
0.75
 40
1.0
 40
1.0
 40
1.0
 40
1.0
 10
0.0645905511811024
 20
-1.1664724409448819
 30
0.0
 10
0.0645905511811024
 20
-1.1664724409448819
 30
0.0
 10
0.7185826771653544
 20
-0.8030984251968504
 30
0.0
 10
0.7185826771653544
 20
-0.8030984251968504
 30
0.0
 10
0.7185826771653544
 20
-0.8030984251968504
 30
0.0
 10
0.7185826771653544
 20
-0.8030984251968504
 30
0.0
 10
0.6393425196850394
 20
-0.8960984251968505
 30
0.0
 10
0.6393425196850394
 20
-0.8960984251968505
 30
0.0
 10
0.6393425196850394
 20
-0.8960984251968505
 30
0.0
 10
0.6393425196850394
 20
-0.8960984251968505
 30
0.0
 10
-0.0146496062992126
 20
-1.2594724409448819
 30
0.0
 10
-0.0146496062992126
 20
-1.2594724409448819
 30
0.0
 10
-0.0146496062992126
 20
-1.2594724409448819
 30
0.0
 10
-0.0146496062992126
 20
-1.2594724409448819
 30
0.0
 10
0.0645905511811024
 20
-1.1664724409448819
 30
0.0
 10
0.0645905511811024
 20
-1.1664724409448819
 30
0.0
  0
SPLINE
  5
57
100
AcDbEntity
  8
Layer 1
 62
     9
100
AcDbSpline
210
0.0
220
0.0
230
1.0
 70
     1
 71
     3
 72
    20
 73
    16
 74
     0
 42
0.0000000001
 43
0.0000000001
 40
0.0
 40
0.0
 40
0.0
 40
0.0
 40
0.25
 40
0.25
 40
0.25
 40
0.25
 40
0.5
 40
0.5
 40
0.5
 40
0.5
 40
0.75
 40
0.75
 40
0.75
 40
0.75
 40
1.0
 40
1.0
 40
1.0
 40
1.0
 10
-0.0146496062992126
 20
-1.2594724409448819
 30
0.0
 10
-0.0146496062992126
 20
-1.2594724409448819
 30
0.0
 10
0.6393425196850394
 20
-0.8960984251968505
 30
0.0
 10
0.6393425196850394
 20
-0.8960984251968505
 30
0.0
 10
0.6393425196850394
 20
-0.8960984251968505
 30
0.0
 10
0.6393425196850394
 20
-0.8960984251968505
 30
0.0
 10
0.5713622047244095
 20
-0.9968031496062992
 30
0.0
 10
0.5713622047244095
 20
-0.9968031496062992
 30
0.0
 10
0.5713622047244095
 20
-0.9968031496062992
 30
0.0
 10
0.5713622047244095
 20
-0.9968031496062992
 30
0.0
 10
-0.0826299212598425
 20
-1.3601771653543309
 30
0.0
 10
-0.0826299212598425
 20
-1.3601771653543309
 30
0.0
 10
-0.0826299212598425
 20
-1.3601771653543309
 30
0.0
 10
-0.0826299212598425
 20
-1.3601771653543309
 30
0.0
 10
-0.0146496062992126
 20
-1.2594724409448819
 30
0.0
 10
-0.0146496062992126
 20
-1.2594724409448819
 30
0.0
  0
SPLINE
  5
58
100
AcDbEntity
  8
Layer 1
 62
     9
100
AcDbSpline
210
0.0
220
0.0
230
1.0
 70
     1
 71
     3
 72
    20
 73
    16
 74
     0
 42
0.0000000001
 43
0.0000000001
 40
0.0
 40
0.0
 40
0.0
 40
0.0
 40
0.25
 40
0.25
 40
0.25
 40
0.25
 40
0.5
 40
0.5
 40
0.5
 40
0.5
 40
0.75
 40
0.75
 40
0.75
 40
0.75
 40
1.0
 40
1.0
 40
1.0
 40
1.0
 10
-0.0826299212598425
 20
-1.3601771653543309
 30
0.0
 10
-0.0826299212598425
 20
-1.3601771653543309
 30
0.0
 10
0.5713622047244095
 20
-0.9968031496062992
 30
0.0
 10
0.5713622047244095
 20
-0.9968031496062992
 30
0.0
 10
0.5713622047244095
 20
-0.9968031496062992
 30
0.0
 10
0.5713622047244095
 20
-0.9968031496062992
 30
0.0
 10
0.5146377952755906
 20
-1.1043858267716535
 30
0.0
 10
0.5146377952755906
 20
-1.1043858267716535
 30
0.0
 10
0.5146377952755906
 20
-1.1043858267716535
 30
0.0
 10
0.5146377952755906
 20
-1.1043858267716535
 30
0.0
 10
-0.1393543307086614
 20
-1.4677598425196852
 30
0.0
 10
-0.1393543307086614
 20
-1.4677598425196852
 30
0.0
 10
-0.1393543307086614
 20
-1.4677598425196852
 30
0.0
 10
-0.1393543307086614
 20
-1.4677598425196852
 30
0.0
 10
-0.0826299212598425
 20
-1.3601771653543309
 30
0.0
 10
-0.0826299212598425
 20
-1.3601771653543309
 30
0.0
  0
SPLINE
  5
59
100
AcDbEntity
  8
Layer 1
 62
     9
100
AcDbSpline
210
0.0
220
0.0
230
1.0
 70
     1
 71
     3
 72
    20
 73
    16
 74
     0
 42
0.0000000001
 43
0.0000000001
 40
0.0
 40
0.0
 40
0.0
 40
0.0
 40
0.25
 40
0.25
 40
0.25
 40
0.25
 40
0.5
 40
0.5
 40
0.5
 40
0.5
 40
0.75
 40
0.75
 40
0.75
 40
0.75
 40
1.0
 40
1.0
 40
1.0
 40
1.0
 10
-0.1393543307086614
 20
-1.4677598425196852
 30
0.0
 10
-0.1393543307086614
 20
-1.4677598425196852
 30
0.0
 10
0.5146377952755906
 20
-1.1043858267716535
 30
0.0
 10
0.5146377952755906
 20
-1.1043858267716535
 30
0.0
 10
0.5146377952755906
 20
-1.1043858267716535
 30
0.0
 10
0.5146377952755906
 20
-1.1043858267716535
 30
0.0
 10
0.4691692913385827
 20
-1.217988188976378
 30
0.0
 10
0.4691692913385827
 20
-1.217988188976378
 30
0.0
 10
0.4691692913385827
 20
-1.217988188976378
 30
0.0
 10
0.4691692913385827
 20
-1.217988188976378
 30
0.0
 10
-0.1848228346456693
 20
-1.5813622047244096
 30
0.0
 10
-0.1848228346456693
 20
-1.5813622047244096
 30
0.0
 10
-0.1848228346456693
 20
-1.5813622047244096
 30
0.0
 10
-0.1848228346456693
 20
-1.5813622047244096
 30
0.0
 10
-0.1393543307086614
 20
-1.4677598425196852
 30
0.0
 10
-0.1393543307086614
 20
-1.4677598425196852
 30
0.0
  0
SPLINE
  5
5A
100
AcDbEntity
  8
Layer 1
 62
     9
100
AcDbSpline
210
0.0
220
0.0
230
1.0
 70
     1
 71
     3
 72
    20
 73
    16
 74
     0
 42
0.0000000001
 43
0.0000000001
 40
0.0
 40
0.0
 40
0.0
 40
0.0
 40
0.25
 40
0.25
 40
0.25
 40
0.25
 40
0.5
 40
0.5
 40
0.5
 40
0.5
 40
0.75
 40
0.75
 40
0.75
 40
0.75
 40
1.0
 40
1.0
 40
1.0
 40
1.0
 10
-0.1848228346456693
 20
-1.5813622047244096
 30
0.0
 10
-0.1848228346456693
 20
-1.5813622047244096
 30
0.0
 10
0.4691692913385827
 20
-1.217988188976378
 30
0.0
 10
0.4691692913385827
 20
-1.217988188976378
 30
0.0
 10
0.4691692913385827
 20
-1.217988188976378
 30
0.0
 10
0.4691692913385827
 20
-1.217988188976378
 30
0.0
 10
0.4349409448818898
 20
-1.3367834645669292
 30
0.0
 10
0.4349409448818898
 20
-1.3367834645669292
 30
0.0
 10
0.4349409448818898
 20
-1.3367834645669292
 30
0.0
 10
0.4349409448818898
 20
-1.3367834645669292
 30
0.0
 10
-0.2190511811023622
 20
-1.7001574803149606
 30
0.0
 10
-0.2190511811023622
 20
-1.7001574803149606
 30
0.0
 10
-0.2190511811023622
 20
-1.7001574803149606
 30
0.0
 10
-0.2190511811023622
 20
-1.7001574803149606
 30
0.0
 10
-0.1848228346456693
 20
-1.5813622047244096
 30
0.0
 10
-0.1848228346456693
 20
-1.5813622047244096
 30
0.0
  0
SPLINE
  5
5B
100
AcDbEntity
  8
Layer 1
 62
     9
100
AcDbSpline
210
0.0
220
0.0
230
1.0
 70
     1
 71
     3
 72
    20
 73
    16
 74
     0
 42
0.0000000001
 43
0.0000000001
 40
0.0
 40
0.0
 40
0.0
 40
0.0
 40
0.25
 40
0.25
 40
0.25
 40
0.25
 40
0.5
 40
0.5
 40
0.5
 40
0.5
 40
0.75
 40
0.75
 40
0.75
 40
0.75
 40
1.0
 40
1.0
 40
1.0
 40
1.0
 10
-0.2190511811023622
 20
-1.7001574803149606
 30
0.0
 10
-0.2190511811023622
 20
-1.7001574803149606
 30
0.0
 10
0.4349409448818898
 20
-1.3367834645669292
 30
0.0
 10
0.4349409448818898
 20
-1.3367834645669292
 30
0.0
 10
0.4349409448818898
 20
-1.3367834645669292
 30
0.0
 10
0.4349409448818898
 20
-1.3367834645669292
 30
0.0
 10
0.4119527559055118
 20
-1.4599251968503937
 30
0.0
 10
0.4119527559055118
 20
-1.4599251968503937
 30
0.0
 10
0.4119527559055118
 20
-1.4599251968503937
 30
0.0
 10
0.4119527559055118
 20
-1.4599251968503937
 30
0.0
 10
-0.2420393700787402
 20
-1.8232992125984253
 30
0.0
 10
-0.2420393700787402
 20
-1.8232992125984253
 30
0.0
 10
-0.2420393700787402
 20
-1.8232992125984253
 30
0.0
 10
-0.2420393700787402
 20
-1.8232992125984253
 30
0.0
 10
-0.2190511811023622
 20
-1.7001574803149606
 30
0.0
 10
-0.2190511811023622
 20
-1.7001574803149606
 30
0.0
  0
SPLINE
  5
5C
100
AcDbEntity
  8
Layer 1
 62
     9
100
AcDbSpline
210
0.0
220
0.0
230
1.0
 70
     1
 71
     3
 72
    20
 73
    16
 74
     0
 42
0.0000000001
 43
0.0000000001
 40
0.0
 40
0.0
 40
0.0
 40
0.0
 40
0.25
 40
0.25
 40
0.25
 40
0.25
 40
0.5
 40
0.5
 40
0.5
 40
0.5
 40
0.75
 40
0.75
 40
0.75
 40
0.75
 40
1.0
 40
1.0
 40
1.0
 40
1.0
 10
-0.2420393700787402
 20
-1.8232992125984253
 30
0.0
 10
-0.2420393700787402
 20
-1.8232992125984253
 30
0.0
 10
0.4119527559055118
 20
-1.4599251968503937
 30
0.0
 10
0.4119527559055118
 20
-1.4599251968503937
 30
0.0
 10
0.4119527559055118
 20
-1.4599251968503937
 30
0.0
 10
0.4119527559055118
 20
-1.4599251968503937
 30
0.0
 10
0.4001889763779528
 20
-1.5865748031496063
 30
0.0
 10
0.4001889763779528
 20
-1.5865748031496063
 30
0.0
 10
0.4001889763779528
 20
-1.5865748031496063
 30
0.0
 10
0.4001889763779528
 20
-1.5865748031496063
 30
0.0
 10
-0.2538031496062992
 20
-1.9499488188976379
 30
0.0
 10
-0.2538031496062992
 20
-1.9499488188976379
 30
0.0
 10
-0.2538031496062992
 20
-1.9499488188976379
 30
0.0
 10
-0.2538031496062992
 20
-1.9499488188976379
 30
0.0
 10
-0.2420393700787402
 20
-1.8232992125984253
 30
0.0
 10
-0.2420393700787402
 20
-1.8232992125984253
 30
0.0
  0
SPLINE
  5
5D
100
AcDbEntity
  8
Layer 1
 62
     9
100
AcDbSpline
210
0.0
220
0.0
230
1.0
 70
     1
 71
     3
 72
    20
 73
    16
 74
     0
 42
0.0000000001
 43
0.0000000001
 40
0.0
 40
0.0
 40
0.0
 40
0.0
 40
0.25
 40
0.25
 40
0.25
 40
0.25
 40
0.5
 40
0.5
 40
0.5
 40
0.5
 40
0.75
 40
0.75
 40
0.75
 40
0.75
 40
1.0
 40
1.0
 40
1.0
 40
1.0
 10
-0.2538031496062992
 20
-1.9499488188976379
 30
0.0
 10
-0.2538031496062992
 20
-1.9499488188976379
 30
0.0
 10
0.4001889763779528
 20
-1.5865748031496063
 30
0.0
 10
0.4001889763779528
 20
-1.5865748031496063
 30
0.0
 10
0.4001889763779528
 20
-1.5865748031496063
 30
0.0
 10
0.4001889763779528
 20
-1.5865748031496063
 30
0.0
 10
0.3996574803149606
 20
-1.7158858267716537
 30
0.0
 10
0.3996574803149606
 20
-1.7158858267716537
 30
0.0
 10
0.3996574803149606
 20
-1.7158858267716537
 30
0.0
 10
0.3996574803149606
 20
-1.7158858267716537
 30
0.0
 10
-0.2543346456692914
 20
-2.0792598425196851
 30
0.0
 10
-0.2543346456692914
 20
-2.0792598425196851
 30
0.0
 10
-0.2543346456692914
 20
-2.0792598425196851
 30
0.0
 10
-0.2543346456692914
 20
-2.0792598425196851
 30
0.0
 10
-0.2538031496062992
 20
-1.9499488188976379
 30
0.0
 10
-0.2538031496062992
 20
-1.9499488188976379
 30
0.0
  0
SPLINE
  5
5E
100
AcDbEntity
  8
Layer 1
 62
     9
100
AcDbSpline
210
0.0
220
0.0
230
1.0
 70
     1
 71
     3
 72
    20
 73
    16
 74
     0
 42
0.0000000001
 43
0.0000000001
 40
0.0
 40
0.0
 40
0.0
 40
0.0
 40
0.25
 40
0.25
 40
0.25
 40
0.25
 40
0.5
 40
0.5
 40
0.5
 40
0.5
 40
0.75
 40
0.75
 40
0.75
 40
0.75
 40
1.0
 40
1.0
 40
1.0
 40
1.0
 10
-0.2543346456692914
 20
-2.0792598425196851
 30
0.0
 10
-0.2543346456692914
 20
-2.0792598425196851
 30
0.0
 10
0.3996574803149606
 20
-1.7158858267716537
 30
0.0
 10
0.3996574803149606
 20
-1.7158858267716537
 30
0.0
 10
0.3996574803149606
 20
-1.7158858267716537
 30
0.0
 10
0.3996574803149606
 20
-1.7158858267716537
 30
0.0
 10
0.4103307086614174
 20
-1.8470275590551182
 30
0.0
 10
0.4103307086614174
 20
-1.8470275590551182
 30
0.0
 10
0.4103307086614174
 20
-1.8470275590551182
 30
0.0
 10
0.4103307086614174
 20
-1.8470275590551182
 30
0.0
 10
-0.2436614173228347
 20
-2.2104015748031496
 30
0.0
 10
-0.2436614173228347
 20
-2.2104015748031496
 30
0.0
 10
-0.2436614173228347
 20
-2.2104015748031496
 30
0.0
 10
-0.2436614173228347
 20
-2.2104015748031496
 30
0.0
 10
-0.2543346456692914
 20
-2.0792598425196851
 30
0.0
 10
-0.2543346456692914
 20
-2.0792598425196851
 30
0.0
  0
SPLINE
  5
5F
100
AcDbEntity
  8
Layer 1
 62
     9
100
AcDbSpline
210
0.0
220
0.0
230
1.0
 70
     1
 71
     3
 72
    20
 73
    16
 74
     0
 42
0.0000000001
 43
0.0000000001
 40
0.0
 40
0.0
 40
0.0
 40
0.0
 40
0.25
 40
0.25
 40
0.25
 40
0.25
 40
0.5
 40
0.5
 40
0.5
 40
0.5
 40
0.75
 40
0.75
 40
0.75
 40
0.75
 40
1.0
 40
1.0
 40
1.0
 40
1.0
 10
-0.2436614173228347
 20
-2.2104015748031496
 30
0.0
 10
-0.2436614173228347
 20
-2.2104015748031496
 30
0.0
 10
0.4103307086614174
 20
-1.8470275590551182
 30
0.0
 10
0.4103307086614174
 20
-1.8470275590551182
 30
0.0
 10
0.4103307086614174
 20
-1.8470275590551182
 30
0.0
 10
0.4103307086614174
 20
-1.8470275590551182
 30
0.0
 10
0.4322204724409449
 20
-1.9791535433070866
 30
0.0
 10
0.4322204724409449
 20
-1.9791535433070866
 30
0.0
 10
0.4322204724409449
 20
-1.9791535433070866
 30
0.0
 10
0.4322204724409449
 20
-1.9791535433070866
 30
0.0
 10
-0.2217716535433071
 20
-2.3425275590551182
 30
0.0
 10
-0.2217716535433071
 20
-2.3425275590551182
 30
0.0
 10
-0.2217716535433071
 20
-2.3425275590551182
 30
0.0
 10
-0.2217716535433071
 20
-2.3425275590551182
 30
0.0
 10
-0.2436614173228347
 20
-2.2104015748031496
 30
0.0
 10
-0.2436614173228347
 20
-2.2104015748031496
 30
0.0
  0
SPLINE
  5
60
100
AcDbEntity
  8
Layer 1
 62
     9
100
AcDbSpline
210
0.0
220
0.0
230
1.0
 70
     1
 71
     3
 72
    20
 73
    16
 74
     0
 42
0.0000000001
 43
0.0000000001
 40
0.0
 40
0.0
 40
0.0
 40
0.0
 40
0.25
 40
0.25
 40
0.25
 40
0.25
 40
0.5
 40
0.5
 40
0.5
 40
0.5
 40
0.75
 40
0.75
 40
0.75
 40
0.75
 40
1.0
 40
1.0
 40
1.0
 40
1.0
 10
-0.2217716535433071
 20
-2.3425275590551182
 30
0.0
 10
-0.2217716535433071
 20
-2.3425275590551182
 30
0.0
 10
0.4322204724409449
 20
-1.9791535433070866
 30
0.0
 10
0.4322204724409449
 20
-1.9791535433070866
 30
0.0
 10
0.4322204724409449
 20
-1.9791535433070866
 30
0.0
 10
0.4322204724409449
 20
-1.9791535433070866
 30
0.0
 10
0.4653031496062992
 20
-2.1114251968503939
 30
0.0
 10
0.4653031496062992
 20
-2.1114251968503939
 30
0.0
 10
0.4653031496062992
 20
-2.1114251968503939
 30
0.0
 10
0.4653031496062992
 20
-2.1114251968503939
 30
0.0
 10
-0.1886889763779528
 20
-2.4747992125984255
 30
0.0
 10
-0.1886889763779528
 20
-2.4747992125984255
 30
0.0
 10
-0.1886889763779528
 20
-2.4747992125984255
 30
0.0
 10
-0.1886889763779528
 20
-2.4747992125984255
 30
0.0
 10
-0.2217716535433071
 20
-2.3425275590551182
 30
0.0
 10
-0.2217716535433071
 20
-2.3425275590551182
 30
0.0
  0
SPLINE
  5
61
100
AcDbEntity
  8
Layer 1
 62
     9
100
AcDbSpline
210
0.0
220
0.0
230
1.0
 70
     1
 71
     3
 72
    20
 73
    16
 74
     0
 42
0.0000000001
 43
0.0000000001
 40
0.0
 40
0.0
 40
0.0
 40
0.0
 40
0.25
 40
0.25
 40
0.25
 40
0.25
 40
0.5
 40
0.5
 40
0.5
 40
0.5
 40
0.75
 40
0.75
 40
0.75
 40
0.75
 40
1.0
 40
1.0
 40
1.0
 40
1.0
 10
-0.1886889763779528
 20
-2.4747992125984255
 30
0.0
 10
-0.1886889763779528
 20
-2.4747992125984255
 30
0.0
 10
0.4653031496062992
 20
-2.1114251968503939
 30
0.0
 10
0.4653031496062992
 20
-2.1114251968503939
 30
0.0
 10
0.4653031496062992
 20
-2.1114251968503939
 30
0.0
 10
0.4653031496062992
 20
-2.1114251968503939
 30
0.0
 10
0.5095905511811024
 20
-2.242992125984252
 30
0.0
 10
0.5095905511811024
 20
-2.242992125984252
 30
0.0
 10
0.5095905511811024
 20
-2.242992125984252
 30
0.0
 10
0.5095905511811024
 20
-2.242992125984252
 30
0.0
 10
-0.1444015748031496
 20
-2.6063661417322836
 30
0.0
 10
-0.1444015748031496
 20
-2.6063661417322836
 30
0.0
 10
-0.1444015748031496
 20
-2.6063661417322836
 30
0.0
 10
-0.1444015748031496
 20
-2.6063661417322836
 30
0.0
 10
-0.1886889763779528
 20
-2.4747992125984255
 30
0.0
 10
-0.1886889763779528
 20
-2.4747992125984255
 30
0.0
  0
SPLINE
  5
62
100
AcDbEntity
  8
Layer 1
 62
     9
100
AcDbSpline
210
0.0
220
0.0
230
1.0
 70
     1
 71
     3
 72
    20
 73
    16
 74
     0
 42
0.0000000001
 43
0.0000000001
 40
0.0
 40
0.0
 40
0.0
 40
0.0
 40
0.25
 40
0.25
 40
0.25
 40
0.25
 40
0.5
 40
0.5
 40
0.5
 40
0.5
 40
0.75
 40
0.75
 40
0.75
 40
0.75
 40
1.0
 40
1.0
 40
1.0
 40
1.0
 10
-0.1444015748031496
 20
-2.6063661417322836
 30
0.0
 10
-0.1444015748031496
 20
-2.6063661417322836
 30
0.0
 10
0.5095905511811024
 20
-2.242992125984252
 30
0.0
 10
0.5095905511811024
 20
-2.242992125984252
 30
0.0
 10
0.5095905511811024
 20
-2.242992125984252
 30
0.0
 10
0.5095905511811024
 20
-2.242992125984252
 30
0.0
 10
0.5650590551181103
 20
-2.3730236220472443
 30
0.0
 10
0.5650590551181103
 20
-2.3730236220472443
 30
0.0
 10
0.5650590551181103
 20
-2.3730236220472443
 30
0.0
 10
0.5650590551181103
 20
-2.3730236220472443
 30
0.0
 10
-0.0889330708661417
 20
-2.7363976377952759
 30
0.0
 10
-0.0889330708661417
 20
-2.7363976377952759
 30
0.0
 10
-0.0889330708661417
 20
-2.7363976377952759
 30
0.0
 10
-0.0889330708661417
 20
-2.7363976377952759
 30
0.0
 10
-0.1444015748031496
 20
-2.6063661417322836
 30
0.0
 10
-0.1444015748031496
 20
-2.6063661417322836
 30
0.0
  0
SPLINE
  5
63
100
AcDbEntity
  8
Layer 1
 62
     9
100
AcDbSpline
210
0.0
220
0.0
230
1.0
 70
     1
 71
     3
 72
    20
 73
    16
 74
     0
 42
0.0000000001
 43
0.0000000001
 40
0.0
 40
0.0
 40
0.0
 40
0.0
 40
0.25
 40
0.25
 40
0.25
 40
0.25
 40
0.5
 40
0.5
 40
0.5
 40
0.5
 40
0.75
 40
0.75
 40
0.75
 40
0.75
 40
1.0
 40
1.0
 40
1.0
 40
1.0
 10
-0.0889330708661417
 20
-2.7363976377952759
 30
0.0
 10
-0.0889330708661417
 20
-2.7363976377952759
 30
0.0
 10
0.5650590551181103
 20
-2.3730236220472443
 30
0.0
 10
0.5650590551181103
 20
-2.3730236220472443
 30
0.0
 10
0.5650590551181103
 20
-2.3730236220472443
 30
0.0
 10
0.5650590551181103
 20
-2.3730236220472443
 30
0.0
 10
0.6317086614173229
 20
-2.5006732283464568
 30
0.0
 10
0.6317086614173229
 20
-2.5006732283464568
 30
0.0
 10
0.6317086614173229
 20
-2.5006732283464568
 30
0.0
 10
0.6317086614173229
 20
-2.5006732283464568
 30
0.0
 10
-0.0222834645669291
 20
-2.8640472440944884
 30
0.0
 10
-0.0222834645669291
 20
-2.8640472440944884
 30
0.0
 10
-0.0222834645669291
 20
-2.8640472440944884
 30
0.0
 10
-0.0222834645669291
 20
-2.8640472440944884
 30
0.0
 10
-0.0889330708661417
 20
-2.7363976377952759
 30
0.0
 10
-0.0889330708661417
 20
-2.7363976377952759
 30
0.0
  0
SPLINE
  5
64
100
AcDbEntity
  8
Layer 1
 62
     9
100
AcDbSpline
210
0.0
220
0.0
230
1.0
 70
     1
 71
     3
 72
    20
 73
    16
 74
     0
 42
0.0000000001
 43
0.0000000001
 40
0.0
 40
0.0
 40
0.0
 40
0.0
 40
0.25
 40
0.25
 40
0.25
 40
0.25
 40
0.5
 40
0.5
 40
0.5
 40
0.5
 40
0.75
 40
0.75
 40
0.75
 40
0.75
 40
1.0
 40
1.0
 40
1.0
 40
1.0
 10
-0.0222834645669291
 20
-2.8640472440944884
 30
0.0
 10
-0.0222834645669291
 20
-2.8640472440944884
 30
0.0
 10
0.6317086614173229
 20
-2.5006732283464568
 30
0.0
 10
0.6317086614173229
 20
-2.5006732283464568
 30
0.0
 10
0.6317086614173229
 20
-2.5006732283464568
 30
0.0
 10
0.6317086614173229
 20
-2.5006732283464568
 30
0.0
 10
0.7095275590551181
 20
-2.6251102362204723
 30
0.0
 10
0.7095275590551181
 20
-2.6251102362204723
 30
0.0
 10
0.7095275590551181
 20
-2.6251102362204723
 30
0.0
 10
0.7095275590551181
 20
-2.6251102362204723
 30
0.0
 10
0.0555354330708661
 20
-2.988484251968504
 30
0.0
 10
0.0555354330708661
 20
-2.988484251968504
 30
0.0
 10
0.0555354330708661
 20
-2.988484251968504
 30
0.0
 10
0.0555354330708661
 20
-2.988484251968504
 30
0.0
 10
-0.0222834645669291
 20
-2.8640472440944884
 30
0.0
 10
-0.0222834645669291
 20
-2.8640472440944884
 30
0.0
  0
SPLINE
  5
65
100
AcDbEntity
  8
Layer 1
 62
     9
100
AcDbSpline
210
0.0
220
0.0
230
1.0
 70
     1
 71
     3
 72
    20
 73
    16
 74
     0
 42
0.0000000001
 43
0.0000000001
 40
0.0
 40
0.0
 40
0.0
 40
0.0
 40
0.25
 40
0.25
 40
0.25
 40
0.25
 40
0.5
 40
0.5
 40
0.5
 40
0.5
 40
0.75
 40
0.75
 40
0.75
 40
0.75
 40
1.0
 40
1.0
 40
1.0
 40
1.0
 10
0.0555354330708661
 20
-2.988484251968504
 30
0.0
 10
0.0555354330708661
 20
-2.988484251968504
 30
0.0
 10
0.7095275590551181
 20
-2.6251102362204723
 30
0.0
 10
0.7095275590551181
 20
-2.6251102362204723
 30
0.0
 10
0.7095275590551181
 20
-2.6251102362204723
 30
0.0
 10
0.7095275590551181
 20
-2.6251102362204723
 30
0.0
 10
0.7985118110236221
 20
-2.7454803149606302
 30
0.0
 10
0.7985118110236221
 20
-2.7454803149606302
 30
0.0
 10
0.7985118110236221
 20
-2.7454803149606302
 30
0.0
 10
0.7985118110236221
 20
-2.7454803149606302
 30
0.0
 10
0.1445196850393701
 20
-3.1088543307086614
 30
0.0
 10
0.1445196850393701
 20
-3.1088543307086614
 30
0.0
 10
0.1445196850393701
 20
-3.1088543307086614
 30
0.0
 10
0.1445196850393701
 20
-3.1088543307086614
 30
0.0
 10
0.0555354330708661
 20
-2.988484251968504
 30
0.0
 10
0.0555354330708661
 20
-2.988484251968504
 30
0.0
  0
SPLINE
  5
66
100
AcDbEntity
  8
Layer 1
 62
     9
100
AcDbSpline
210
0.0
220
0.0
230
1.0
 70
     1
 71
     3
 72
    20
 73
    16
 74
     0
 42
0.0000000001
 43
0.0000000001
 40
0.0
 40
0.0
 40
0.0
 40
0.0
 40
0.25
 40
0.25
 40
0.25
 40
0.25
 40
0.5
 40
0.5
 40
0.5
 40
0.5
 40
0.75
 40
0.75
 40
0.75
 40
0.75
 40
1.0
 40
1.0
 40
1.0
 40
1.0
 10
0.1445196850393701
 20
-3.1088543307086614
 30
0.0
 10
0.1445196850393701
 20
-3.1088543307086614
 30
0.0
 10
0.7985118110236221
 20
-2.7454803149606302
 30
0.0
 10
0.7985118110236221
 20
-2.7454803149606302
 30
0.0
 10
0.7985118110236221
 20
-2.7454803149606302
 30
0.0
 10
0.7985118110236221
 20
-2.7454803149606302
 30
0.0
 10
0.8986614173228347
 20
-2.8609566929133861
 30
0.0
 10
0.8986614173228347
 20
-2.8609566929133861
 30
0.0
 10
0.8986614173228347
 20
-2.8609566929133861
 30
0.0
 10
0.8986614173228347
 20
-2.8609566929133861
 30
0.0
 10
0.2446692913385827
 20
-3.2243307086614172
 30
0.0
 10
0.2446692913385827
 20
-3.2243307086614172
 30
0.0
 10
0.2446692913385827
 20
-3.2243307086614172
 30
0.0
 10
0.2446692913385827
 20
-3.2243307086614172
 30
0.0
 10
0.1445196850393701
 20
-3.1088543307086614
 30
0.0
 10
0.1445196850393701
 20
-3.1088543307086614
 30
0.0
  0
SPLINE
  5
67
100
AcDbEntity
  8
Layer 1
 62
     9
100
AcDbSpline
210
0.0
220
0.0
230
1.0
 70
     1
 71
     3
 72
    20
 73
    16
 74
     0
 42
0.0000000001
 43
0.0000000001
 40
0.0
 40
0.0
 40
0.0
 40
0.0
 40
0.25
 40
0.25
 40
0.25
 40
0.25
 40
0.5
 40
0.5
 40
0.5
 40
0.5
 40
0.75
 40
0.75
 40
0.75
 40
0.75
 40
1.0
 40
1.0
 40
1.0
 40
1.0
 10
0.2446692913385827
 20
-3.2243307086614172
 30
0.0
 10
0.2446692913385827
 20
-3.2243307086614172
 30
0.0
 10
0.8986614173228347
 20
-2.8609566929133861
 30
0.0
 10
0.8986614173228347
 20
-2.8609566929133861
 30
0.0
 10
0.8986614173228347
 20
-2.8609566929133861
 30
0.0
 10
0.8986614173228347
 20
-2.8609566929133861
 30
0.0
 10
1.0099566929133859
 20
-2.9706850393700788
 30
0.0
 10
1.0099566929133859
 20
-2.9706850393700788
 30
0.0
 10
1.0099566929133859
 20
-2.9706850393700788
 30
0.0
 10
1.0099566929133859
 20
-2.9706850393700788
 30
0.0
 10
0.3559645669291339
 20
-3.3340590551181104
 30
0.0
 10
0.3559645669291339
 20
-3.3340590551181104
 30
0.0
 10
0.3559645669291339
 20
-3.3340590551181104
 30
0.0
 10
0.3559645669291339
 20
-3.3340590551181104
 30
0.0
 10
0.2446692913385827
 20
-3.2243307086614172
 30
0.0
 10
0.2446692913385827
 20
-3.2243307086614172
 30
0.0
  0
SPLINE
  5
68
100
AcDbEntity
  8
Layer 1
 62
     9
100
AcDbSpline
210
0.0
220
0.0
230
1.0
 70
     1
 71
     3
 72
    20
 73
    16
 74
     0
 42
0.0000000001
 43
0.0000000001
 40
0.0
 40
0.0
 40
0.0
 40
0.0
 40
0.25
 40
0.25
 40
0.25
 40
0.25
 40
0.5
 40
0.5
 40
0.5
 40
0.5
 40
0.75
 40
0.75
 40
0.75
 40
0.75
 40
1.0
 40
1.0
 40
1.0
 40
1.0
 10
0.3559645669291339
 20
-3.3340590551181104
 30
0.0
 10
0.3559645669291339
 20
-3.3340590551181104
 30
0.0
 10
1.0099566929133859
 20
-2.9706850393700788
 30
0.0
 10
1.0099566929133859
 20
-2.9706850393700788
 30
0.0
 10
1.0099566929133859
 20
-2.9706850393700788
 30
0.0
 10
1.0099566929133859
 20
-2.9706850393700788
 30
0.0
 10
1.1324055118110237
 20
-3.0738385826771655
 30
0.0
 10
1.1324055118110237
 20
-3.0738385826771655
 30
0.0
 10
1.1324055118110237
 20
-3.0738385826771655
 30
0.0
 10
1.1324055118110237
 20
-3.0738385826771655
 30
0.0
 10
0.4784133858267717
 20
-3.4372125984251971
 30
0.0
 10
0.4784133858267717
 20
-3.4372125984251971
 30
0.0
 10
0.4784133858267717
 20
-3.4372125984251971
 30
0.0
 10
0.4784133858267717
 20
-3.4372125984251971
 30
0.0
 10
0.3559645669291339
 20
-3.3340590551181104
 30
0.0
 10
0.3559645669291339
 20
-3.3340590551181104
 30
0.0
  0
SPLINE
  5
69
100
AcDbEntity
  8
Layer 1
 62
     9
100
AcDbSpline
210
0.0
220
0.0
230
1.0
 70
     1
 71
     3
 72
    20
 73
    16
 74
     0
 42
0.0000000001
 43
0.0000000001
 40
0.0
 40
0.0
 40
0.0
 40
0.0
 40
0.25
 40
0.25
 40
0.25
 40
0.25
 40
0.5
 40
0.5
 40
0.5
 40
0.5
 40
0.75
 40
0.75
 40
0.75
 40
0.75
 40
1.0
 40
1.0
 40
1.0
 40
1.0
 10
0.4784133858267717
 20
-3.4372125984251971
 30
0.0
 10
0.4784133858267717
 20
-3.4372125984251971
 30
0.0
 10
1.1324055118110237
 20
-3.0738385826771655
 30
0.0
 10
1.1324055118110237
 20
-3.0738385826771655
 30
0.0
 10
1.1324055118110237
 20
-3.0738385826771655
 30
0.0
 10
1.1324055118110237
 20
-3.0738385826771655
 30
0.0
 10
1.2659842519685041
 20
-3.1695551181102362
 30
0.0
 10
1.2659842519685041
 20
-3.1695551181102362
 30
0.0
 10
1.2659842519685041
 20
-3.1695551181102362
 30
0.0
 10
1.2659842519685041
 20
-3.1695551181102362
 30
0.0
 10
0.611992125984252
 20
-3.5329291338582678
 30
0.0
 10
0.611992125984252
 20
-3.5329291338582678
 30
0.0
 10
0.611992125984252
 20
-3.5329291338582678
 30
0.0
 10
0.611992125984252
 20
-3.5329291338582678
 30
0.0
 10
0.4784133858267717
 20
-3.4372125984251971
 30
0.0
 10
0.4784133858267717
 20
-3.4372125984251971
 30
0.0
  0
SPLINE
  5
6A
100
AcDbEntity
  8
Layer 1
 62
     9
100
AcDbSpline
210
0.0
220
0.0
230
1.0
 70
     1
 71
     3
 72
    20
 73
    16
 74
     0
 42
0.0000000001
 43
0.0000000001
 40
0.0
 40
0.0
 40
0.0
 40
0.0
 40
0.25
 40
0.25
 40
0.25
 40
0.25
 40
0.5
 40
0.5
 40
0.5
 40
0.5
 40
0.75
 40
0.75
 40
0.75
 40
0.75
 40
1.0
 40
1.0
 40
1.0
 40
1.0
 10
0.611992125984252
 20
-3.5329291338582678
 30
0.0
 10
0.611992125984252
 20
-3.5329291338582678
 30
0.0
 10
1.2659842519685041
 20
-3.1695551181102362
 30
0.0
 10
1.2659842519685041
 20
-3.1695551181102362
 30
0.0
 10
1.2659842519685041
 20
-3.1695551181102362
 30
0.0
 10
1.2659842519685041
 20
-3.1695551181102362
 30
0.0
 10
1.4106968503937007
 20
-3.2570196850393702
 30
0.0
 10
1.4106968503937007
 20
-3.2570196850393702
 30
0.0
 10
1.4106968503937007
 20
-3.2570196850393702
 30
0.0
 10
1.4106968503937007
 20
-3.2570196850393702
 30
0.0
 10
0.7567047244094488
 20
-3.6203937007874019
 30
0.0
 10
0.7567047244094488
 20
-3.6203937007874019
 30
0.0
 10
0.7567047244094488
 20
-3.6203937007874019
 30
0.0
 10
0.7567047244094488
 20
-3.6203937007874019
 30
0.0
 10
0.611992125984252
 20
-3.5329291338582678
 30
0.0
 10
0.611992125984252
 20
-3.5329291338582678
 30
0.0
  0
SPLINE
  5
6B
100
AcDbEntity
  8
Layer 1
 62
   253
100
AcDbSpline
210
0.0
220
0.0
230
1.0
 70
     1
 71
     3
 72
    20
 73
    16
 74
     0
 42
0.0000000001
 43
0.0000000001
 40
0.0
 40
0.0
 40
0.0
 40
0.0
 40
0.25
 40
0.25
 40
0.25
 40
0.25
 40
0.5
 40
0.5
 40
0.5
 40
0.5
 40
0.75
 40
0.75
 40
0.75
 40
0.75
 40
1.0
 40
1.0
 40
1.0
 40
1.0
 10
0.7567047244094488
 20
-3.6203937007874019
 30
0.0
 10
0.7567047244094488
 20
-3.6203937007874019
 30
0.0
 10
1.4106968503937007
 20
-3.2570196850393702
 30
0.0
 10
1.4106968503937007
 20
-3.2570196850393702
 30
0.0
 10
1.4106968503937007
 20
-3.2570196850393702
 30
0.0
 10
1.4106968503937007
 20
-3.2570196850393702
 30
0.0
 10
1.5665314960629921
 20
-3.3353740157480316
 30
0.0
 10
1.5665314960629921
 20
-3.3353740157480316
 30
0.0
 10
1.5665314960629921
 20
-3.3353740157480316
 30
0.0
 10
1.5665314960629921
 20
-3.3353740157480316
 30
0.0
 10
0.9125393700787402
 20
-3.6987480314960632
 30
0.0
 10
0.9125393700787402
 20
-3.6987480314960632
 30
0.0
 10
0.9125393700787402
 20
-3.6987480314960632
 30
0.0
 10
0.9125393700787402
 20
-3.6987480314960632
 30
0.0
 10
0.7567047244094488
 20
-3.6203937007874019
 30
0.0
 10
0.7567047244094488
 20
-3.6203937007874019
 30
0.0
  0
SPLINE
  5
6C
100
AcDbEntity
  8
Layer 1
 62
   253
100
AcDbSpline
210
0.0
220
0.0
230
1.0
 70
     1
 71
     3
 72
    20
 73
    16
 74
     0
 42
0.0000000001
 43
0.0000000001
 40
0.0
 40
0.0
 40
0.0
 40
0.0
 40
0.25
 40
0.25
 40
0.25
 40
0.25
 40
0.5
 40
0.5
 40
0.5
 40
0.5
 40
0.75
 40
0.75
 40
0.75
 40
0.75
 40
1.0
 40
1.0
 40
1.0
 40
1.0
 10
0.9125393700787402
 20
-3.6987480314960632
 30
0.0
 10
0.9125393700787402
 20
-3.6987480314960632
 30
0.0
 10
1.5665314960629921
 20
-3.3353740157480316
 30
0.0
 10
1.5665314960629921
 20
-3.3353740157480316
 30
0.0
 10
1.5665314960629921
 20
-3.3353740157480316
 30
0.0
 10
1.5665314960629921
 20
-3.3353740157480316
 30
0.0
 10
1.733488188976378
 20
-3.4037874015748031
 30
0.0
 10
1.733488188976378
 20
-3.4037874015748031
 30
0.0
 10
1.733488188976378
 20
-3.4037874015748031
 30
0.0
 10
1.733488188976378
 20
-3.4037874015748031
 30
0.0
 10
1.079496062992126
 20
-3.7671614173228347
 30
0.0
 10
1.079496062992126
 20
-3.7671614173228347
 30
0.0
 10
1.079496062992126
 20
-3.7671614173228347
 30
0.0
 10
1.079496062992126
 20
-3.7671614173228347
 30
0.0
 10
0.9125393700787402
 20
-3.6987480314960632
 30
0.0
 10
0.9125393700787402
 20
-3.6987480314960632
 30
0.0
  0
SPLINE
  5
6D
100
AcDbEntity
  8
Layer 1
 62
   253
100
AcDbSpline
210
0.0
220
0.0
230
1.0
 70
     1
 71
     3
 72
    20
 73
    16
 74
     0
 42
0.0000000001
 43
0.0000000001
 40
0.0
 40
0.0
 40
0.0
 40
0.0
 40
0.25
 40
0.25
 40
0.25
 40
0.25
 40
0.5
 40
0.5
 40
0.5
 40
0.5
 40
0.75
 40
0.75
 40
0.75
 40
0.75
 40
1.0
 40
1.0
 40
1.0
 40
1.0
 10
1.079496062992126
 20
-3.7671614173228347
 30
0.0
 10
1.079496062992126
 20
-3.7671614173228347
 30
0.0
 10
1.733488188976378
 20
-3.4037874015748031
 30
0.0
 10
1.733488188976378
 20
-3.4037874015748031
 30
0.0
 10
1.733488188976378
 20
-3.4037874015748031
 30
0.0
 10
1.733488188976378
 20
-3.4037874015748031
 30
0.0
 10
1.9115433070866144
 20
-3.4614094488188978
 30
0.0
 10
1.9115433070866144
 20
-3.4614094488188978
 30
0.0
 10
1.9115433070866144
 20
-3.4614094488188978
 30
0.0
 10
1.9115433070866144
 20
-3.4614094488188978
 30
0.0
 10
1.2575511811023623
 20
-3.8247834645669294
 30
0.0
 10
1.2575511811023623
 20
-3.8247834645669294
 30
0.0
 10
1.2575511811023623
 20
-3.8247834645669294
 30
0.0
 10
1.2575511811023623
 20
-3.8247834645669294
 30
0.0
 10
1.079496062992126
 20
-3.7671614173228347
 30
0.0
 10
1.079496062992126
 20
-3.7671614173228347
 30
0.0
  0
SPLINE
  5
6E
100
AcDbEntity
  8
Layer 1
 62
   253
100
AcDbSpline
210
0.0
220
0.0
230
1.0
 70
     1
 71
     3
 72
    20
 73
    16
 74
     0
 42
0.0000000001
 43
0.0000000001
 40
0.0
 40
0.0
 40
0.0
 40
0.0
 40
0.25
 40
0.25
 40
0.25
 40
0.25
 40
0.5
 40
0.5
 40
0.5
 40
0.5
 40
0.75
 40
0.75
 40
0.75
 40
0.75
 40
1.0
 40
1.0
 40
1.0
 40
1.0
 10
1.2575511811023623
 20
-3.8247834645669294
 30
0.0
 10
1.2575511811023623
 20
-3.8247834645669294
 30
0.0
 10
1.9115433070866144
 20
-3.4614094488188978
 30
0.0
 10
1.9115433070866144
 20
-3.4614094488188978
 30
0.0
 10
1.9115433070866144
 20
-3.4614094488188978
 30
0.0
 10
1.9115433070866144
 20
-3.4614094488188978
 30
0.0
 10
2.1007086614173227
 20
-3.5074055118110237
 30
0.0
 10
2.1007086614173227
 20
-3.5074055118110237
 30
0.0
 10
2.1007086614173227
 20
-3.5074055118110237
 30
0.0
 10
2.1007086614173227
 20
-3.5074055118110237
 30
0.0
 10
1.4467165354330709
 20
-3.8707795275590553
 30
0.0
 10
1.4467165354330709
 20
-3.8707795275590553
 30
0.0
 10
1.4467165354330709
 20
-3.8707795275590553
 30
0.0
 10
1.4467165354330709
 20
-3.8707795275590553
 30
0.0
 10
1.2575511811023623
 20
-3.8247834645669294
 30
0.0
 10
1.2575511811023623
 20
-3.8247834645669294
 30
0.0
  0
SPLINE
  5
6F
100
AcDbEntity
  8
Layer 1
 62
   253
100
AcDbSpline
210
0.0
220
0.0
230
1.0
 70
     1
 71
     3
 72
    20
 73
    16
 74
     0
 42
0.0000000001
 43
0.0000000001
 40
0.0
 40
0.0
 40
0.0
 40
0.0
 40
0.25
 40
0.25
 40
0.25
 40
0.25
 40
0.5
 40
0.5
 40
0.5
 40
0.5
 40
0.75
 40
0.75
 40
0.75
 40
0.75
 40
1.0
 40
1.0
 40
1.0
 40
1.0
 10
1.4467165354330709
 20
-3.8707795275590553
 30
0.0
 10
1.4467165354330709
 20
-3.8707795275590553
 30
0.0
 10
2.1007086614173227
 20
-3.5074055118110237
 30
0.0
 10
2.1007086614173227
 20
-3.5074055118110237
 30
0.0
 10
2.1007086614173227
 20
-3.5074055118110237
 30
0.0
 10
2.1007086614173227
 20
-3.5074055118110237
 30
0.0
 10
2.3009685039370078
 20
-3.5409330708661417
 30
0.0
 10
2.3009685039370078
 20
-3.5409330708661417
 30
0.0
 10
2.3009685039370078
 20
-3.5409330708661417
 30
0.0
 10
2.3009685039370078
 20
-3.5409330708661417
 30
0.0
 10
1.646976377952756
 20
-3.9043070866141734
 30
0.0
 10
1.646976377952756
 20
-3.9043070866141734
 30
0.0
 10
1.646976377952756
 20
-3.9043070866141734
 30
0.0
 10
1.646976377952756
 20
-3.9043070866141734
 30
0.0
 10
1.4467165354330709
 20
-3.8707795275590553
 30
0.0
 10
1.4467165354330709
 20
-3.8707795275590553
 30
0.0
  0
SPLINE
  5
70
100
AcDbEntity
  8
Layer 1
 62
   253
100
AcDbSpline
210
0.0
220
0.0
230
1.0
 70
     1
 71
     3
 72
    20
 73
    16
 74
     0
 42
0.0000000001
 43
0.0000000001
 40
0.0
 40
0.0
 40
0.0
 40
0.0
 40
0.25
 40
0.25
 40
0.25
 40
0.25
 40
0.5
 40
0.5
 40
0.5
 40
0.5
 40
0.75
 40
0.75
 40
0.75
 40
0.75
 40
1.0
 40
1.0
 40
1.0
 40
1.0
 10
1.646976377952756
 20
-3.9043070866141734
 30
0.0
 10
1.646976377952756
 20
-3.9043070866141734
 30
0.0
 10
2.3009685039370078
 20
-3.5409330708661417
 30
0.0
 10
2.3009685039370078
 20
-3.5409330708661417
 30
0.0
 10
2.3009685039370078
 20
-3.5409330708661417
 30
0.0
 10
2.3009685039370078
 20
-3.5409330708661417
 30
0.0
 10
2.5123188976377953
 20
-3.5611574803149608
 30
0.0
 10
2.5123188976377953
 20
-3.5611574803149608
 30
0.0
 10
2.5123188976377953
 20
-3.5611574803149608
 30
0.0
 10
2.5123188976377953
 20
-3.5611574803149608
 30
0.0
 10
1.8583267716535434
 20
-3.9245314960629925
 30
0.0
 10
1.8583267716535434
 20
-3.9245314960629925
 30
0.0
 10
1.8583267716535434
 20
-3.9245314960629925
 30
0.0
 10
1.8583267716535434
 20
-3.9245314960629925
 30
0.0
 10
1.646976377952756
 20
-3.9043070866141734
 30
0.0
 10
1.646976377952756
 20
-3.9043070866141734
 30
0.0
  0
SPLINE
  5
71
100
AcDbEntity
  8
Layer 1
370
     5
100
AcDbSpline
210
0.0
220
0.0
230
1.0
 70
     1
 71
     3
 72
   252
 73
   248
 74
     0
 42
0.0000000001
 43
0.0000000001
 40
0.0
 40
0.0
 40
0.0
 40
0.0
 40
0.0161290322580645
 40
0.0161290322580645
 40
0.0161290322580645
 40
0.0161290322580645
 40
0.032258064516129
 40
0.032258064516129
 40
0.032258064516129
 40
0.032258064516129
 40
0.0483870967741935
 40
0.0483870967741935
 40
0.0483870967741935
 40
0.0483870967741935
 40
0.0645161290322581
 40
0.0645161290322581
 40
0.0645161290322581
 40
0.0645161290322581
 40
0.0806451612903226
 40
0.0806451612903226
 40
0.0806451612903226
 40
0.0806451612903226
 40
0.0967741935483871
 40
0.0967741935483871
 40
0.0967741935483871
 40
0.0967741935483871
 40
0.1129032258064516
 40
0.1129032258064516
 40
0.1129032258064516
 40
0.1129032258064516
 40
0.1290322580645161
 40
0.1290322580645161
 40
0.1290322580645161
 40
0.1290322580645161
 40
0.1451612903225806
 40
0.1451612903225806
 40
0.1451612903225806
 40
0.1451612903225806
 40
0.1612903225806451
 40
0.1612903225806451
 40
0.1612903225806451
 40
0.1612903225806451
 40
0.1774193548387096
 40
0.1774193548387096
 40
0.1774193548387096
 40
0.1774193548387096
 40
0.1935483870967741
 40
0.1935483870967741
 40
0.1935483870967741
 40
0.1935483870967741
 40
0.2096774193548386
 40
0.2096774193548386
 40
0.2096774193548386
 40
0.2096774193548386
 40
0.2258064516129031
 40
0.2258064516129031
 40
0.2258064516129031
 40
0.2258064516129031
 40
0.2419354838709676
 40
0.2419354838709676
 40
0.2419354838709676
 40
0.2419354838709676
 40
0.2580645161290321
 40
0.2580645161290321
 40
0.2580645161290321
 40
0.2580645161290321
 40
0.2741935483870966
 40
0.2741935483870966
 40
0.2741935483870966
 40
0.2741935483870966
 40
0.2903225806451611
 40
0.2903225806451611
 40
0.2903225806451611
 40
0.2903225806451611
 40
0.3064516129032257
 40
0.3064516129032257
 40
0.3064516129032257
 40
0.3064516129032257
 40
0.3225806451612902
 40
0.3225806451612902
 40
0.3225806451612902
 40
0.3225806451612902
 40
0.3387096774193547
 40
0.3387096774193547
 40
0.3387096774193547
 40
0.3387096774193547
 40
0.3548387096774192
 40
0.3548387096774192
 40
0.3548387096774192
 40
0.3548387096774192
 40
0.3709677419354837
 40
0.3709677419354837
 40
0.3709677419354837
 40
0.3709677419354837
 40
0.3870967741935482
 40
0.3870967741935482
 40
0.3870967741935482
 40
0.3870967741935482
 40
0.4032258064516127
 40
0.4032258064516127
 40
0.4032258064516127
 40
0.4032258064516127
 40
0.4193548387096772
 40
0.4193548387096772
 40
0.4193548387096772
 40
0.4193548387096772
 40
0.4354838709677417
 40
0.4354838709677417
 40
0.4354838709677417
 40
0.4354838709677417
 40
0.4516129032258062
 40
0.4516129032258062
 40
0.4516129032258062
 40
0.4516129032258062
 40
0.4677419354838707
 40
0.4677419354838707
 40
0.4677419354838707
 40
0.4677419354838707
 40
0.4838709677419352
 40
0.4838709677419352
 40
0.4838709677419352
 40
0.4838709677419352
 40
0.4999999999999997
 40
0.4999999999999997
 40
0.4999999999999997
 40
0.4999999999999997
 40
0.5161290322580642
 40
0.5161290322580642
 40
0.5161290322580642
 40
0.5161290322580642
 40
0.5322580645161287
 40
0.5322580645161287
 40
0.5322580645161287
 40
0.5322580645161287
 40
0.5483870967741932
 40
0.5483870967741932
 40
0.5483870967741932
 40
0.5483870967741932
 40
0.5645161290322577
 40
0.5645161290322577
 40
0.5645161290322577
 40
0.5645161290322577
 40
0.5806451612903222
 40
0.5806451612903222
 40
0.5806451612903222
 40
0.5806451612903222
 40
0.5967741935483867
 40
0.5967741935483867
 40
0.5967741935483867
 40
0.5967741935483867
 40
0.6129032258064512
 40
0.6129032258064512
 40
0.6129032258064512
 40
0.6129032258064512
 40
0.6290322580645157
 40
0.6290322580645157
 40
0.6290322580645157
 40
0.6290322580645157
 40
0.6451612903225802
 40
0.6451612903225802
 40
0.6451612903225802
 40
0.6451612903225802
 40
0.6612903225806447
 40
0.6612903225806447
 40
0.6612903225806447
 40
0.6612903225806447
 40
0.6774193548387092
 40
0.6774193548387092
 40
0.6774193548387092
 40
0.6774193548387092
 40
0.6935483870967737
 40
0.6935483870967737
 40
0.6935483870967737
 40
0.6935483870967737
 40
0.7096774193548382
 40
0.7096774193548382
 40
0.7096774193548382
 40
0.7096774193548382
 40
0.7258064516129027
 40
0.7258064516129027
 40
0.7258064516129027
 40
0.7258064516129027
 40
0.7419354838709672
 40
0.7419354838709672
 40
0.7419354838709672
 40
0.7419354838709672
 40
0.7580645161290317
 40
0.7580645161290317
 40
0.7580645161290317
 40
0.7580645161290317
 40
0.7741935483870962
 40
0.7741935483870962
 40
0.7741935483870962
 40
0.7741935483870962
 40
0.7903225806451607
 40
0.7903225806451607
 40
0.7903225806451607
 40
0.7903225806451607
 40
0.8064516129032252
 40
0.8064516129032252
 40
0.8064516129032252
 40
0.8064516129032252
 40
0.8225806451612897
 40
0.8225806451612897
 40
0.8225806451612897
 40
0.8225806451612897
 40
0.8387096774193542
 40
0.8387096774193542
 40
0.8387096774193542
 40
0.8387096774193542
 40
0.8548387096774187
 40
0.8548387096774187
 40
0.8548387096774187
 40
0.8548387096774187
 40
0.8709677419354832
 40
0.8709677419354832
 40
0.8709677419354832
 40
0.8709677419354832
 40
0.8870967741935477
 40
0.8870967741935477
 40
0.8870967741935477
 40
0.8870967741935477
 40
0.9032258064516122
 40
0.9032258064516122
 40
0.9032258064516122
 40
0.9032258064516122
 40
0.9193548387096767
 40
0.9193548387096767
 40
0.9193548387096767
 40
0.9193548387096767
 40
0.9354838709677412
 40
0.9354838709677412
 40
0.9354838709677412
 40
0.9354838709677412
 40
0.9516129032258057
 40
0.9516129032258057
 40
0.9516129032258057
 40
0.9516129032258057
 40
0.9677419354838702
 40
0.9677419354838702
 40
0.9677419354838702
 40
0.9677419354838702
 40
0.9838709677419347
 40
0.9838709677419347
 40
0.9838709677419347
 40
0.9838709677419347
 40
1.0
 40
1.0
 40
1.0
 40
1.0
 10
0.369992125984252
 20
-0.9421535433070867
 30
0.0
 10
0.369992125984252
 20
-0.9421535433070867
 30
0.0
 10
1.0239842519685041
 20
-0.5787795275590552
 30
0.0
 10
1.0239842519685041
 20
-0.5787795275590552
 30
0.0
 10
1.0239842519685041
 20
-0.5787795275590552
 30
0.0
 10
1.0239842519685041
 20
-0.5787795275590552
 30
0.0
 10
0.9108937007874016
 20
-0.6435984251968504
 30
0.0
 10
0.9108937007874016
 20
-0.6435984251968504
 30
0.0
 10
0.9108937007874016
 20
-0.6435984251968504
 30
0.0
 10
0.9108937007874016
 20
-0.6435984251968504
 30
0.0
 10
0.8091023622047244
 20
-0.7186574803149607
 30
0.0
 10
0.8091023622047244
 20
-0.7186574803149607
 30
0.0
 10
0.8091023622047244
 20
-0.7186574803149607
 30
0.0
 10
0.8091023622047244
 20
-0.7186574803149607
 30
0.0
 10
0.7185826771653544
 20
-0.8030984251968504
 30
0.0
 10
0.7185826771653544
 20
-0.8030984251968504
 30
0.0
 10
0.7185826771653544
 20
-0.8030984251968504
 30
0.0
 10
0.7185826771653544
 20
-0.8030984251968504
 30
0.0
 10
0.6393425196850394
 20
-0.8960984251968505
 30
0.0
 10
0.6393425196850394
 20
-0.8960984251968505
 30
0.0
 10
0.6393425196850394
 20
-0.8960984251968505
 30
0.0
 10
0.6393425196850394
 20
-0.8960984251968505
 30
0.0
 10
0.5713622047244095
 20
-0.9968031496062992
 30
0.0
 10
0.5713622047244095
 20
-0.9968031496062992
 30
0.0
 10
0.5713622047244095
 20
-0.9968031496062992
 30
0.0
 10
0.5713622047244095
 20
-0.9968031496062992
 30
0.0
 10
0.5146377952755906
 20
-1.1043858267716535
 30
0.0
 10
0.5146377952755906
 20
-1.1043858267716535
 30
0.0
 10
0.5146377952755906
 20
-1.1043858267716535
 30
0.0
 10
0.5146377952755906
 20
-1.1043858267716535
 30
0.0
 10
0.4691692913385827
 20
-1.217988188976378
 30
0.0
 10
0.4691692913385827
 20
-1.217988188976378
 30
0.0
 10
0.4691692913385827
 20
-1.217988188976378
 30
0.0
 10
0.4691692913385827
 20
-1.217988188976378
 30
0.0
 10
0.4349409448818898
 20
-1.3367834645669292
 30
0.0
 10
0.4349409448818898
 20
-1.3367834645669292
 30
0.0
 10
0.4349409448818898
 20
-1.3367834645669292
 30
0.0
 10
0.4349409448818898
 20
-1.3367834645669292
 30
0.0
 10
0.4119527559055118
 20
-1.4599251968503937
 30
0.0
 10
0.4119527559055118
 20
-1.4599251968503937
 30
0.0
 10
0.4119527559055118
 20
-1.4599251968503937
 30
0.0
 10
0.4119527559055118
 20
-1.4599251968503937
 30
0.0
 10
0.4001889763779528
 20
-1.5865748031496063
 30
0.0
 10
0.4001889763779528
 20
-1.5865748031496063
 30
0.0
 10
0.4001889763779528
 20
-1.5865748031496063
 30
0.0
 10
0.4001889763779528
 20
-1.5865748031496063
 30
0.0
 10
0.3996574803149606
 20
-1.7158858267716537
 30
0.0
 10
0.3996574803149606
 20
-1.7158858267716537
 30
0.0
 10
0.3996574803149606
 20
-1.7158858267716537
 30
0.0
 10
0.3996574803149606
 20
-1.7158858267716537
 30
0.0
 10
0.4103307086614174
 20
-1.8470275590551182
 30
0.0
 10
0.4103307086614174
 20
-1.8470275590551182
 30
0.0
 10
0.4103307086614174
 20
-1.8470275590551182
 30
0.0
 10
0.4103307086614174
 20
-1.8470275590551182
 30
0.0
 10
0.4322204724409449
 20
-1.9791535433070866
 30
0.0
 10
0.4322204724409449
 20
-1.9791535433070866
 30
0.0
 10
0.4322204724409449
 20
-1.9791535433070866
 30
0.0
 10
0.4322204724409449
 20
-1.9791535433070866
 30
0.0
 10
0.4653031496062992
 20
-2.1114251968503939
 30
0.0
 10
0.4653031496062992
 20
-2.1114251968503939
 30
0.0
 10
0.4653031496062992
 20
-2.1114251968503939
 30
0.0
 10
0.4653031496062992
 20
-2.1114251968503939
 30
0.0
 10
0.5095905511811024
 20
-2.242992125984252
 30
0.0
 10
0.5095905511811024
 20
-2.242992125984252
 30
0.0
 10
0.5095905511811024
 20
-2.242992125984252
 30
0.0
 10
0.5095905511811024
 20
-2.242992125984252
 30
0.0
 10
0.5650590551181103
 20
-2.3730236220472443
 30
0.0
 10
0.5650590551181103
 20
-2.3730236220472443
 30
0.0
 10
0.5650590551181103
 20
-2.3730236220472443
 30
0.0
 10
0.5650590551181103
 20
-2.3730236220472443
 30
0.0
 10
0.6317086614173229
 20
-2.5006732283464568
 30
0.0
 10
0.6317086614173229
 20
-2.5006732283464568
 30
0.0
 10
0.6317086614173229
 20
-2.5006732283464568
 30
0.0
 10
0.6317086614173229
 20
-2.5006732283464568
 30
0.0
 10
0.7095275590551181
 20
-2.6251102362204723
 30
0.0
 10
0.7095275590551181
 20
-2.6251102362204723
 30
0.0
 10
0.7095275590551181
 20
-2.6251102362204723
 30
0.0
 10
0.7095275590551181
 20
-2.6251102362204723
 30
0.0
 10
0.7985118110236221
 20
-2.7454803149606302
 30
0.0
 10
0.7985118110236221
 20
-2.7454803149606302
 30
0.0
 10
0.7985118110236221
 20
-2.7454803149606302
 30
0.0
 10
0.7985118110236221
 20
-2.7454803149606302
 30
0.0
 10
0.8986614173228347
 20
-2.8609566929133861
 30
0.0
 10
0.8986614173228347
 20
-2.8609566929133861
 30
0.0
 10
0.8986614173228347
 20
-2.8609566929133861
 30
0.0
 10
0.8986614173228347
 20
-2.8609566929133861
 30
0.0
 10
1.0099566929133859
 20
-2.9706850393700788
 30
0.0
 10
1.0099566929133859
 20
-2.9706850393700788
 30
0.0
 10
1.0099566929133859
 20
-2.9706850393700788
 30
0.0
 10
1.0099566929133859
 20
-2.9706850393700788
 30
0.0
 10
1.1324055118110237
 20
-3.0738385826771655
 30
0.0
 10
1.1324055118110237
 20
-3.0738385826771655
 30
0.0
 10
1.1324055118110237
 20
-3.0738385826771655
 30
0.0
 10
1.1324055118110237
 20
-3.0738385826771655
 30
0.0
 10
1.2659842519685041
 20
-3.1695551181102362
 30
0.0
 10
1.2659842519685041
 20
-3.1695551181102362
 30
0.0
 10
1.2659842519685041
 20
-3.1695551181102362
 30
0.0
 10
1.2659842519685041
 20
-3.1695551181102362
 30
0.0
 10
1.4106968503937007
 20
-3.2570196850393702
 30
0.0
 10
1.4106968503937007
 20
-3.2570196850393702
 30
0.0
 10
1.4106968503937007
 20
-3.2570196850393702
 30
0.0
 10
1.4106968503937007
 20
-3.2570196850393702
 30
0.0
 10
1.5665314960629921
 20
-3.3353740157480316
 30
0.0
 10
1.5665314960629921
 20
-3.3353740157480316
 30
0.0
 10
1.5665314960629921
 20
-3.3353740157480316
 30
0.0
 10
1.5665314960629921
 20
-3.3353740157480316
 30
0.0
 10
1.733488188976378
 20
-3.4037874015748031
 30
0.0
 10
1.733488188976378
 20
-3.4037874015748031
 30
0.0
 10
1.733488188976378
 20
-3.4037874015748031
 30
0.0
 10
1.733488188976378
 20
-3.4037874015748031
 30
0.0
 10
1.9115433070866144
 20
-3.4614094488188978
 30
0.0
 10
1.9115433070866144
 20
-3.4614094488188978
 30
0.0
 10
1.9115433070866144
 20
-3.4614094488188978
 30
0.0
 10
1.9115433070866144
 20
-3.4614094488188978
 30
0.0
 10
2.1007086614173227
 20
-3.5074055118110237
 30
0.0
 10
2.1007086614173227
 20
-3.5074055118110237
 30
0.0
 10
2.1007086614173227
 20
-3.5074055118110237
 30
0.0
 10
2.1007086614173227
 20
-3.5074055118110237
 30
0.0
 10
2.3009685039370078
 20
-3.5409330708661417
 30
0.0
 10
2.3009685039370078
 20
-3.5409330708661417
 30
0.0
 10
2.3009685039370078
 20
-3.5409330708661417
 30
0.0
 10
2.3009685039370078
 20
-3.5409330708661417
 30
0.0
 10
2.5123188976377953
 20
-3.5611574803149608
 30
0.0
 10
2.5123188976377953
 20
-3.5611574803149608
 30
0.0
 10
2.5123188976377953
 20
-3.5611574803149608
 30
0.0
 10
2.5123188976377953
 20
-3.5611574803149608
 30
0.0
 10
1.8583267716535434
 20
-3.9245314960629925
 30
0.0
 10
1.8583267716535434
 20
-3.9245314960629925
 30
0.0
 10
1.8583267716535434
 20
-3.9245314960629925
 30
0.0
 10
1.8583267716535434
 20
-3.9245314960629925
 30
0.0
 10
1.646976377952756
 20
-3.9043070866141734
 30
0.0
 10
1.646976377952756
 20
-3.9043070866141734
 30
0.0
 10
1.646976377952756
 20
-3.9043070866141734
 30
0.0
 10
1.646976377952756
 20
-3.9043070866141734
 30
0.0
 10
1.4467165354330709
 20
-3.8707795275590553
 30
0.0
 10
1.4467165354330709
 20
-3.8707795275590553
 30
0.0
 10
1.4467165354330709
 20
-3.8707795275590553
 30
0.0
 10
1.4467165354330709
 20
-3.8707795275590553
 30
0.0
 10
1.2575511811023623
 20
-3.8247834645669294
 30
0.0
 10
1.2575511811023623
 20
-3.8247834645669294
 30
0.0
 10
1.2575511811023623
 20
-3.8247834645669294
 30
0.0
 10
1.2575511811023623
 20
-3.8247834645669294
 30
0.0
 10
1.079496062992126
 20
-3.7671614173228347
 30
0.0
 10
1.079496062992126
 20
-3.7671614173228347
 30
0.0
 10
1.079496062992126
 20
-3.7671614173228347
 30
0.0
 10
1.079496062992126
 20
-3.7671614173228347
 30
0.0
 10
0.9125393700787402
 20
-3.6987480314960632
 30
0.0
 10
0.9125393700787402
 20
-3.6987480314960632
 30
0.0
 10
0.9125393700787402
 20
-3.6987480314960632
 30
0.0
 10
0.9125393700787402
 20
-3.6987480314960632
 30
0.0
 10
0.7567047244094488
 20
-3.6203937007874019
 30
0.0
 10
0.7567047244094488
 20
-3.6203937007874019
 30
0.0
 10
0.7567047244094488
 20
-3.6203937007874019
 30
0.0
 10
0.7567047244094488
 20
-3.6203937007874019
 30
0.0
 10
0.611992125984252
 20
-3.5329291338582678
 30
0.0
 10
0.611992125984252
 20
-3.5329291338582678
 30
0.0
 10
0.611992125984252
 20
-3.5329291338582678
 30
0.0
 10
0.611992125984252
 20
-3.5329291338582678
 30
0.0
 10
0.4784133858267717
 20
-3.4372125984251971
 30
0.0
 10
0.4784133858267717
 20
-3.4372125984251971
 30
0.0
 10
0.4784133858267717
 20
-3.4372125984251971
 30
0.0
 10
0.4784133858267717
 20
-3.4372125984251971
 30
0.0
 10
0.3559645669291339
 20
-3.3340590551181104
 30
0.0
 10
0.3559645669291339
 20
-3.3340590551181104
 30
0.0
 10
0.3559645669291339
 20
-3.3340590551181104
 30
0.0
 10
0.3559645669291339
 20
-3.3340590551181104
 30
0.0
 10
0.2446692913385827
 20
-3.2243307086614172
 30
0.0
 10
0.2446692913385827
 20
-3.2243307086614172
 30
0.0
 10
0.2446692913385827
 20
-3.2243307086614172
 30
0.0
 10
0.2446692913385827
 20
-3.2243307086614172
 30
0.0
 10
0.1445196850393701
 20
-3.1088543307086614
 30
0.0
 10
0.1445196850393701
 20
-3.1088543307086614
 30
0.0
 10
0.1445196850393701
 20
-3.1088543307086614
 30
0.0
 10
0.1445196850393701
 20
-3.1088543307086614
 30
0.0
 10
0.0555354330708661
 20
-2.988484251968504
 30
0.0
 10
0.0555354330708661
 20
-2.988484251968504
 30
0.0
 10
0.0555354330708661
 20
-2.988484251968504
 30
0.0
 10
0.0555354330708661
 20
-2.988484251968504
 30
0.0
 10
-0.0222834645669291
 20
-2.8640472440944884
 30
0.0
 10
-0.0222834645669291
 20
-2.8640472440944884
 30
0.0
 10
-0.0222834645669291
 20
-2.8640472440944884
 30
0.0
 10
-0.0222834645669291
 20
-2.8640472440944884
 30
0.0
 10
-0.0889330708661417
 20
-2.7363976377952759
 30
0.0
 10
-0.0889330708661417
 20
-2.7363976377952759
 30
0.0
 10
-0.0889330708661417
 20
-2.7363976377952759
 30
0.0
 10
-0.0889330708661417
 20
-2.7363976377952759
 30
0.0
 10
-0.1444015748031496
 20
-2.6063661417322836
 30
0.0
 10
-0.1444015748031496
 20
-2.6063661417322836
 30
0.0
 10
-0.1444015748031496
 20
-2.6063661417322836
 30
0.0
 10
-0.1444015748031496
 20
-2.6063661417322836
 30
0.0
 10
-0.1886889763779528
 20
-2.4747992125984255
 30
0.0
 10
-0.1886889763779528
 20
-2.4747992125984255
 30
0.0
 10
-0.1886889763779528
 20
-2.4747992125984255
 30
0.0
 10
-0.1886889763779528
 20
-2.4747992125984255
 30
0.0
 10
-0.2217716535433071
 20
-2.3425275590551182
 30
0.0
 10
-0.2217716535433071
 20
-2.3425275590551182
 30
0.0
 10
-0.2217716535433071
 20
-2.3425275590551182
 30
0.0
 10
-0.2217716535433071
 20
-2.3425275590551182
 30
0.0
 10
-0.2436614173228347
 20
-2.2104015748031496
 30
0.0
 10
-0.2436614173228347
 20
-2.2104015748031496
 30
0.0
 10
-0.2436614173228347
 20
-2.2104015748031496
 30
0.0
 10
-0.2436614173228347
 20
-2.2104015748031496
 30
0.0
 10
-0.2543346456692914
 20
-2.0792598425196851
 30
0.0
 10
-0.2543346456692914
 20
-2.0792598425196851
 30
0.0
 10
-0.2543346456692914
 20
-2.0792598425196851
 30
0.0
 10
-0.2543346456692914
 20
-2.0792598425196851
 30
0.0
 10
-0.2538031496062992
 20
-1.9499488188976379
 30
0.0
 10
-0.2538031496062992
 20
-1.9499488188976379
 30
0.0
 10
-0.2538031496062992
 20
-1.9499488188976379
 30
0.0
 10
-0.2538031496062992
 20
-1.9499488188976379
 30
0.0
 10
-0.2420393700787402
 20
-1.8232992125984253
 30
0.0
 10
-0.2420393700787402
 20
-1.8232992125984253
 30
0.0
 10
-0.2420393700787402
 20
-1.8232992125984253
 30
0.0
 10
-0.2420393700787402
 20
-1.8232992125984253
 30
0.0
 10
-0.2190511811023622
 20
-1.7001574803149606
 30
0.0
 10
-0.2190511811023622
 20
-1.7001574803149606
 30
0.0
 10
-0.2190511811023622
 20
-1.7001574803149606
 30
0.0
 10
-0.2190511811023622
 20
-1.7001574803149606
 30
0.0
 10
-0.1848228346456693
 20
-1.5813622047244096
 30
0.0
 10
-0.1848228346456693
 20
-1.5813622047244096
 30
0.0
 10
-0.1848228346456693
 20
-1.5813622047244096
 30
0.0
 10
-0.1848228346456693
 20
-1.5813622047244096
 30
0.0
 10
-0.1393543307086614
 20
-1.4677598425196852
 30
0.0
 10
-0.1393543307086614
 20
-1.4677598425196852
 30
0.0
 10
-0.1393543307086614
 20
-1.4677598425196852
 30
0.0
 10
-0.1393543307086614
 20
-1.4677598425196852
 30
0.0
 10
-0.0826299212598425
 20
-1.3601771653543309
 30
0.0
 10
-0.0826299212598425
 20
-1.3601771653543309
 30
0.0
 10
-0.0826299212598425
 20
-1.3601771653543309
 30
0.0
 10
-0.0826299212598425
 20
-1.3601771653543309
 30
0.0
 10
-0.0146496062992126
 20
-1.2594724409448819
 30
0.0
 10
-0.0146496062992126
 20
-1.2594724409448819
 30
0.0
 10
-0.0146496062992126
 20
-1.2594724409448819
 30
0.0
 10
-0.0146496062992126
 20
-1.2594724409448819
 30
0.0
 10
0.0645905511811024
 20
-1.1664724409448819
 30
0.0
 10
0.0645905511811024
 20
-1.1664724409448819
 30
0.0
 10
0.0645905511811024
 20
-1.1664724409448819
 30
0.0
 10
0.0645905511811024
 20
-1.1664724409448819
 30
0.0
 10
0.1551102362204725
 20
-1.0820314960629922
 30
0.0
 10
0.1551102362204725
 20
-1.0820314960629922
 30
0.0
 10
0.1551102362204725
 20
-1.0820314960629922
 30
0.0
 10
0.1551102362204725
 20
-1.0820314960629922
 30
0.0
 10
0.2569015748031496
 20
-1.0069724409448819
 30
0.0
 10
0.2569015748031496
 20
-1.0069724409448819
 30
0.0
 10
0.2569015748031496
 20
-1.0069724409448819
 30
0.0
 10
0.2569015748031496
 20
-1.0069724409448819
 30
0.0
 10
0.369992125984252
 20
-0.9421535433070867
 30
0.0
 10
0.369992125984252
 20
-0.9421535433070867
 30
0.0
  0
SPLINE
  5
72
100
AcDbEntity
  8
Layer 1
 62
     9
100
AcDbSpline
210
0.0
220
0.0
230
1.0
 70
     1
 71
     3
 72
    20
 73
    16
 74
     0
 42
0.0000000001
 43
0.0000000001
 40
0.0
 40
0.0
 40
0.0
 40
0.0
 40
0.25
 40
0.25
 40
0.25
 40
0.25
 40
0.5
 40
0.5
 40
0.5
 40
0.5
 40
0.75
 40
0.75
 40
0.75
 40
0.75
 40
1.0
 40
1.0
 40
1.0
 40
1.0
 10
0.6300551181102363
 20
-0.0965787401574803
 30
0.0
 10
0.6300551181102363
 20
-0.0965787401574803
 30
0.0
 10
1.2840472440944883
 20
0.2667952755905512
 30
0.0
 10
1.2840472440944883
 20
0.2667952755905512
 30
0.0
 10
1.2840472440944883
 20
0.2667952755905512
 30
0.0
 10
1.2840472440944883
 20
0.2667952755905512
 30
0.0
 10
1.2840472440944883
 20
-0.4832047244094488
 30
0.0
 10
1.2840472440944883
 20
-0.4832047244094488
 30
0.0
 10
1.2840472440944883
 20
-0.4832047244094488
 30
0.0
 10
1.2840472440944883
 20
-0.4832047244094488
 30
0.0
 10
0.6300551181102363
 20
-0.8465787401574804
 30
0.0
 10
0.6300551181102363
 20
-0.8465787401574804
 30
0.0
 10
0.6300551181102363
 20
-0.8465787401574804
 30
0.0
 10
0.6300551181102363
 20
-0.8465787401574804
 30
0.0
 10
0.6300551181102363
 20
-0.0965787401574803
 30
0.0
 10
0.6300551181102363
 20
-0.0965787401574803
 30
0.0
  0
SPLINE
  5
73
100
AcDbEntity
  8
Layer 1
370
     5
100
AcDbSpline
210
0.0
220
0.0
230
1.0
 70
     1
 71
     3
 72
    20
 73
    16
 74
     0
 42
0.0000000001
 43
0.0000000001
 40
0.0
 40
0.0
 40
0.0
 40
0.0
 40
0.25
 40
0.25
 40
0.25
 40
0.25
 40
0.5
 40
0.5
 40
0.5
 40
0.5
 40
0.75
 40
0.75
 40
0.75
 40
0.75
 40
1.0
 40
1.0
 40
1.0
 40
1.0
 10
0.6300551181102363
 20
-0.0965787401574803
 30
0.0
 10
0.6300551181102363
 20
-0.0965787401574803
 30
0.0
 10
1.2840472440944883
 20
0.2667952755905512
 30
0.0
 10
1.2840472440944883
 20
0.2667952755905512
 30
0.0
 10
1.2840472440944883
 20
0.2667952755905512
 30
0.0
 10
1.2840472440944883
 20
0.2667952755905512
 30
0.0
 10
1.2840472440944883
 20
-0.4832047244094488
 30
0.0
 10
1.2840472440944883
 20
-0.4832047244094488
 30
0.0
 10
1.2840472440944883
 20
-0.4832047244094488
 30
0.0
 10
1.2840472440944883
 20
-0.4832047244094488
 30
0.0
 10
0.6300551181102363
 20
-0.8465787401574804
 30
0.0
 10
0.6300551181102363
 20
-0.8465787401574804
 30
0.0
 10
0.6300551181102363
 20
-0.8465787401574804
 30
0.0
 10
0.6300551181102363
 20
-0.8465787401574804
 30
0.0
 10
0.6300551181102363
 20
-0.0965787401574803
 30
0.0
 10
0.6300551181102363
 20
-0.0965787401574803
 30
0.0
  0
SPLINE
  5
74
100
AcDbEntity
  8
Layer 1
370
     5
 62
     7
100
AcDbSpline
210
0.0
220
0.0
230
1.0
 70
     1
 71
     3
 72
    32
 73
    28
 74
     0
 42
0.0000000001
 43
0.0000000001
 40
0.0
 40
0.0
 40
0.0
 40
0.0
 40
0.1428571428571429
 40
0.1428571428571429
 40
0.1428571428571429
 40
0.1428571428571429
 40
0.2857142857142857
 40
0.2857142857142857
 40
0.2857142857142857
 40
0.2857142857142857
 40
0.4285714285714286
 40
0.4285714285714286
 40
0.4285714285714286
 40
0.4285714285714286
 40
0.5714285714285714
 40
0.5714285714285714
 40
0.5714285714285714
 40
0.5714285714285714
 40
0.7142857142857142
 40
0.7142857142857142
 40
0.7142857142857142
 40
0.7142857142857142
 40
0.857142857142857
 40
0.857142857142857
 40
0.857142857142857
 40
0.857142857142857
 40
1.0
 40
1.0
 40
1.0
 40
1.0
 10
1.8583267716535434
 20
-3.9245314960629925
 30
0.0
 10
1.8583267716535434
 20
-3.9245314960629925
 30
0.0
 10
1.8583267716535434
 20
-4.6745314960629925
 30
0.0
 10
1.8583267716535434
 20
-4.6745314960629925
 30
0.0
 10
1.8583267716535434
 20
-4.6745314960629925
 30
0.0
 10
1.8583267716535434
 20
-4.6745314960629925
 30
0.0
 10
-1.7666692913385826
 20
-4.6745314960629925
 30
0.0
 10
-1.7666692913385826
 20
-4.6745314960629925
 30
0.0
 10
-1.7666692913385826
 20
-4.6745314960629925
 30
0.0
 10
-1.7666692913385826
 20
-4.6745314960629925
 30
0.0
 10
-1.7666692913385826
 20
0.0423425196850394
 30
0.0
 10
-1.7666692913385826
 20
0.0423425196850394
 30
0.0
 10
-1.7666692913385826
 20
0.0423425196850394
 30
0.0
 10
-1.7666692913385826
 20
0.0423425196850394
 30
0.0
 10
0.1213937007874016
 20
0.0423425196850394
 30
0.0
 10
0.1213937007874016
 20
0.0423425196850394
 30
0.0
 10
0.1213937007874016
 20
0.0423425196850394
 30
0.0
 10
0.1213937007874016
 20
0.0423425196850394
 30
0.0
 10
0.6300551181102363
 20
-0.0965787401574803
 30
0.0
 10
0.6300551181102363
 20
-0.0965787401574803
 30
0.0
 10
0.6300551181102363
 20
-0.0965787401574803
 30
0.0
 10
0.6300551181102363
 20
-0.0965787401574803
 30
0.0
 10
0.6300551181102363
 20
-0.8465787401574804
 30
0.0
 10
0.6300551181102363
 20
-0.8465787401574804
 30
0.0
 10
0.6300551181102363
 20
-0.8465787401574804
 30
0.0
 10
-0.8775039370078741
 20
-1.2262637795275591
 30
0.0
 10
-0.4551377952755906
 20
-3.7828385826771656
 30
0.0
 10
1.8583267716535434
 20
-3.9245314960629925
 30
0.0
  0
TEXT
  5
76
100
AcDbEntity
  8
Layer 1
100
AcDbText
 10
-0.002528
 20
-4.853256
 30
0.0
 40
0.119999
  1
BA  1517
 51
-0.000002
  7
Bookman Old Style
100
AcDbText
  0
TEXT
  5
77
100
AcDbEntity
  8
Layer 1
100
AcDbText
 10
-0.370902
 20
-5.040756
 30
0.0
 40
0.119999
  1
3-5/8\u+201d x 4-11/16\u+201d
 51
-0.000002
  7
Bookman Old Style
100
AcDbText
  0
TEXT
  5
78
100
AcDbEntity
  8
Layer 1
100
AcDbText
 10
2.496339
 20
0.894079
 30
0.0
 40
0.119999
  1
BA  1517
 51
-0.000002
  7
Bookman Old Style
100
AcDbText
  0
TEXT
  5
79
100
AcDbEntity
  8
Layer 1
100
AcDbText
 10
2.127965
 20
0.706579
 30
0.0
 40
0.119999
  1
3-5/8\u+201d x 4-11/16\u+201d
 51
-0.000002
  7
Bookman Old Style
100
AcDbText
  0
ENDSEC
  0
SECTION
  2
OBJECTS
  0
DICTIONARY
  5
19
100
AcDbDictionary
280
     0
281
     1
  3
ACAD_GROUP
350
1A
  3
ACAD_MLINESTYLE
350
1B
  3
ACAD_LAYOUT
350
1E
  3
ACAD_PLOTSETTINGS
350
22
  3
ACAD_PLOTSTYLENAME
350
1F
  3
ACAD_WIPEOUT_VARS
350
23
  0
DICTIONARY
  5
1A
102
{ACAD_REACTORS
330
19
102
}
100
AcDbDictionary
280
     0
281
     1
  0
DICTIONARY
  5
1B
102
{ACAD_REACTORS
330
19
102
}
100
AcDbDictionary
280
     0
281
     1
  3
Standard
350
1C
  0
MLINESTYLE
  5
1C
102
{ACAD_REACTORS
330
1B
102
}
100
AcDbMlineStyle
  2
Standard
 70
     0
  3

 62
     0
 51
90.0
 52
90.0
 71
     2
 49
0.5
 62
   256
  6
BYLAYER
 49
-0.5
 62
   256
  6
BYLAYER
  0
ACDBDICTIONARYWDFLT
  5
1F
102
{ACAD_REACTORS
330
19
102
}
100
AcDbDictionary
281
     1
  3
Normal
350
1D
100
AcDbDictionaryWithDefault
340
1D
  0
ACDBPLACEHOLDER
  5
1D
102
{ACAD_REACTORS
330
1F
102
}
  0
LAYOUT
  5
20
102
{ACAD_REACTORS
330
1E
102
}
100
AcDbPlotSettings
  1

  2

  4

  6

 40
0.0
 41
0.0
 42
0.0
 43
0.0
 44
0.0
 45
0.0
 46
0.0
 47
0.0
 48
0.0
 49
0.0
140
0.0
141
0.0
142
1.0
143
1.0
 70
  1024
 72
     0
 73
     0
 74
     0
  7

 75
     0
147
1.0
148
0.0
149
0.0
100
AcDbLayout
  1
Model
 70
     0
 71
     0
 10
0.0
 20
0.0
 11
0.0
 21
0.0
 12
0.0
 22
0.0
 32
0.0
 14
0.0
 24
0.0
 34
0.0
 15
0.0
 25
0.0
 35
0.0
146
0.0
 13
0.0
 23
0.0
 33
0.0
 16
0.0
 26
0.0
 36
0.0
 17
0.0
 27
0.0
 37
0.0
 76
     0
330
A
331
0
345
0
346
0
  0
LAYOUT
  5
21
102
{ACAD_REACTORS
330
1E
102
}
100
AcDbPlotSettings
  1

  2

  4

  6

 40
0.0
 41
0.0
 42
0.0
 43
0.0
 44
0.0
 45
0.0
 46
0.0
 47
0.0
 48
0.0
 49
0.0
140
0.0
141
0.0
142
1.0
143
1.0
 70
     0
 72
     0
 73
     0
 74
     0
  7

 75
     0
147
1.0
148
0.0
149
0.0
100
AcDbLayout
  1
Layout1
 70
     0
 71
     0
 10
0.0
 20
0.0
 11
0.0
 21
0.0
 12
0.0
 22
0.0
 32
0.0
 14
0.0
 24
0.0
 34
0.0
 15
0.0
 25
0.0
 35
0.0
146
0.0
 13
0.0
 23
0.0
 33
0.0
 16
0.0
 26
0.0
 36
0.0
 17
0.0
 27
0.0
 37
0.0
 76
     0
330
B
331
0
345
0
346
0
  0
DICTIONARY
  5
1E
102
{ACAD_REACTORS
330
19
102
}
100
AcDbDictionary
280
     0
281
     1
  3
Layout1
350
21
  3
Model
350
20
  0
DICTIONARY
  5
22
102
{ACAD_REACTORS
330
19
102
}
100
AcDbDictionary
280
     0
281
     1
  0
WIPEOUTVARIABLES
  5
23
100
AcDbWipeoutVariables
 70
     1
  0
ENDSEC
  0
EOF
