  0
SECTION
  2
HEADER
  9
$ACADVER
  1
AC1015
  9
$ACADMAINTVER
 70
     6
  9
$DWGCODEPAGE
  3
DOS850
  9
$INSBASE
 10
0.0
 20
0.0
 30
0.0
  9
$EXTMIN
 10
-1.812937
 20
-3.371898
 30
1.000000E+20
  9
$EXTMAX
 10
1.977508
 20
5.028165
 30
-1.000000E+20
  9
$LIMMIN
 10
0.0
 20
0.0
  9
$LIMMAX
 10
0.0
 20
0.0
  9
$ORTHOMODE
 70
     0
  9
$REGENMODE
 70
     1
  9
$FILLMODE
 70
     1
  9
$QTEXTMODE
 70
     0
  9
$MIRRTEXT
 70
     1
  9
$LTSCALE
 40
1.0
  9
$ATTMODE
 70
     1
  9
$TEXTSIZE
 40
0.2
  9
$TRACEWID
 40
0.05
  9
$TEXTSTYLE
  7
Standard
  9
$CLAYER
  8
0
  9
$CELTYPE
  6
Continuous
  9
$CECOLOR
 62
   256
  9
$CELTSCALE
 40
1.0
  9
$DISPSILH
 70
     0
  9
$DIMSCALE
 40
1.0
  9
$DIMASZ
 40
0.18
  9
$DIMEXO
 40
0.0625
  9
$DIMDLI
 40
0.38
  9
$DIMRND
 40
0.0
  9
$DIMDLE
 40
0.0
  9
$DIMEXE
 40
0.18
  9
$DIMTP
 40
0.0
  9
$DIMTM
 40
0.0
  9
$DIMTXT
 40
0.18
  9
$DIMCEN
 40
0.09
  9
$DIMTSZ
 40
0.0
  9
$DIMTOL
 70
     0
  9
$DIMLIM
 70
     0
  9
$DIMTIH
 70
     1
  9
$DIMTOH
 70
     1
  9
$DIMSE1
 70
     0
  9
$DIMSE2
 70
     0
  9
$DIMTAD
 70
     0
  9
$DIMZIN
 70
     0
  9
$DIMBLK
  1

  9
$DIMASO
 70
     1
  9
$DIMSHO
 70
     1
  9
$DIMPOST
  1

  9
$DIMAPOST
  1

  9
$DIMALT
 70
     0
  9
$DIMALTD
 70
     2
  9
$DIMALTF
 40
25.4
  9
$DIMLFAC
 40
1.0
  9
$DIMTOFL
 70
     0
  9
$DIMTVP
 40
0.0
  9
$DIMTIX
 70
     0
  9
$DIMSOXD
 70
     0
  9
$DIMSAH
 70
     0
  9
$DIMBLK1
  1

  9
$DIMBLK2
  1

  9
$DIMSTYLE
  2
Standard
  9
$DIMCLRD
 70
     0
  9
$DIMCLRE
 70
     0
  9
$DIMCLRT
 70
     0
  9
$DIMTFAC
 40
1.0
  9
$DIMGAP
 40
0.09
  9
$DIMJUST
 70
     0
  9
$DIMSD1
 70
     0
  9
$DIMSD2
 70
     0
  9
$DIMTOLJ
 70
     1
  9
$DIMTZIN
 70
     0
  9
$DIMALTZ
 70
     0
  9
$DIMALTTZ
 70
     0
  9
$DIMUPT
 70
     0
  9
$DIMDEC
 70
     4
  9
$DIMTDEC
 70
     4
  9
$DIMALTU
 70
     2
  9
$DIMALTTD
 70
     2
  9
$DIMTXSTY
  7
Standard
  9
$DIMAUNIT
 70
     0
  9
$DIMADEC
 70
     0
  9
$DIMALTRND
 40
0.0
  9
$DIMAZIN
 70
     0
  9
$DIMDSEP
 70
     0
  9
$DIMATFIT
 70
     3
  9
$DIMFRAC
 70
     0
  9
$DIMLDRBLK
  1

  9
$DIMLUNIT
 70
     2
  9
$DIMLWD
 70
     0
  9
$DIMLWE
 70
     0
  9
$DIMTMOVE
 70
     0
  9
$LUNITS
 70
     2
  9
$LUPREC
 70
     4
  9
$SKETCHINC
 40
0.1
  9
$FILLETRAD
 40
0.0
  9
$AUNITS
 70
     0
  9
$AUPREC
 70
     0
  9
$MENU
  1
acad
  9
$ELEVATION
 40
0.0
  9
$PELEVATION
 40
0.0
  9
$THICKNESS
 40
0.0
  9
$LIMCHECK
 70
     0
  9
$CHAMFERA
 40
0.0
  9
$CHAMFERB
 40
0.0
  9
$CHAMFERC
 40
0.0
  9
$CHAMFERD
 40
0.0
  9
$SKPOLY
 70
     0
  9
$TDCREATE
 40
0.000000000
  9
$TDUCREATE
 40
0.000000000
  9
$TDUPDATE
 40
0.000000000
  9
$TDUUPDATE
 40
0.000000000
  9
$TDINDWG
 40
0.0000000000
  9
$TDUSRTIMER
 40
0.0000000000
  9
$USRTIMER
 70
     1
  9
$ANGBASE
 50
0.0
  9
$ANGDIR
 70
     0
  9
$PDMODE
 70
     0
  9
$PDSIZE
 40
0.0
  9
$PLINEWID
 40
0.0
  9
$SPLFRAME
 70
     0
  9
$SPLINETYPE
 70
     6
  9
$SPLINESEGS
 70
     8
  9
$HANDSEED
  5
68
  9
$SURFTAB1
 70
     6
  9
$SURFTAB2
 70
     6
  9
$SURFTYPE
 70
     6
  9
$SURFU
 70
     6
  9
$SURFV
 70
     6
  9
$UCSBASE
  2

  9
$UCSNAME
  2

  9
$UCSORG
 10
0.0
 20
0.0
 30
0.0
  9
$UCSXDIR
 10
1.0
 20
0.0
 30
0.0
  9
$UCSYDIR
 10
0.0
 20
1.0
 30
0.0
  9
$UCSORTHOREF
  2

  9
$UCSORTHOVIEW
 70
     0
  9
$UCSORGTOP
 10
0.0
 20
0.0
 30
0.0
  9
$UCSORGBOTTOM
 10
0.0
 20
0.0
 30
0.0
  9
$UCSORGLEFT
 10
0.0
 20
0.0
 30
0.0
  9
$UCSORGRIGHT
 10
0.0
 20
0.0
 30
0.0
  9
$UCSORGFRONT
 10
0.0
 20
0.0
 30
0.0
  9
$UCSORGBACK
 10
0.0
 20
0.0
 30
0.0
  9
$PUCSBASE
  2

  9
$PUCSNAME
  2

  9
$PUCSORG
 10
0.0
 20
0.0
 30
0.0
  9
$PUCSXDIR
 10
1.0
 20
0.0
 30
0.0
  9
$PUCSYDIR
 10
0.0
 20
1.0
 30
0.0
  9
$PUCSORTHOREF
  2

  9
$PUCSORTHOVIEW
 70
     0
  9
$PUCSORGTOP
 10
0.0
 20
0.0
 30
0.0
  9
$PUCSORGBOTTOM
 10
0.0
 20
0.0
 30
0.0
  9
$PUCSORGLEFT
 10
0.0
 20
0.0
 30
0.0
  9
$PUCSORGRIGHT
 10
0.0
 20
0.0
 30
0.0
  9
$PUCSORGFRONT
 10
0.0
 20
0.0
 30
0.0
  9
$PUCSORGBACK
 10
0.0
 20
0.0
 30
0.0
  9
$USERI1
 70
     0
  9
$USERI2
 70
     0
  9
$USERI3
 70
     0
  9
$USERI4
 70
     0
  9
$USERI5
 70
     0
  9
$USERR1
 40
0.0
  9
$USERR2
 40
0.0
  9
$USERR3
 40
0.0
  9
$USERR4
 40
0.0
  9
$USERR5
 40
0.0
  9
$WORLDVIEW
 70
     1
  9
$SHADEDGE
 70
     3
  9
$SHADEDIF
 70
    70
  9
$TILEMODE
 70
     1
  9
$MAXACTVP
 70
    16
  9
$PINSBASE
 10
0.0
 20
0.0
 30
0.0
  9
$PLIMCHECK
 70
     0
  9
$PEXTMIN
 10
1.000000E+20
 20
1.000000E+20
 30
1.000000E+20
  9
$PEXTMAX
 10
-1.000000E+20
 20
-1.000000E+20
 30
-1.000000E+20
  9
$PLIMMIN
 10
0.0
 20
0.0
  9
$PLIMMAX
 10
12.0
 20
9.0
  9
$UNITMODE
 70
     0
  9
$VISRETAIN
 70
     0
  9
$PLINEGEN
 70
     1
  9
$PSLTSCALE
 70
     0
  9
$TREEDEPTH
 70
  3020
  9
$CMLSTYLE
  2
Standard
  9
$CMLJUST
 70
     0
  9
$CMLSCALE
 40
1.0
  9
$PROXYGRAPHICS
 70
     0
  9
$MEASUREMENT
 70
     0
  9
$CELWEIGHT
370
     0
  9
$ENDCAPS
280
     0
  9
$JOINSTYLE
280
     0
  9
$LWDISPLAY
290
     0
  9
$INSUNITS
 70
     1
  9
$HYPERLINKBASE
  1

  9
$XEDIT
290
     1
  9
$CEPSNTYPE
380
     0
  9
$PSTYLEMODE
290
     1
  9
$FINGERPRINTGUID
  2

  9
$VERSIONGUID
  2

  9
$EXTNAMES
290
     1
  9
$PSVPSCALE
 40
0.0
  0
ENDSEC
  0
SECTION
  2
CLASSES
  0
CLASS
  1
LWPOLYLINE
  2
AcDbPolyline
  3
AutoCAD 2000
 90
    32768
280
     0
281
     1
  0
CLASS
  1
IMAGE
  2
AcDbRasterImage
  3
ISM
 90
    32895
280
     0
281
     1
  0
CLASS
  1
OLE2FRAME
  2
AcDbOle2Frame
  3
AutoCAD 2000
 90
    32768
280
     0
281
     1
  0
CLASS
  1
HATCH
  2
AcDbHatch
  3
AutoCAD 2000
 90
    32768
280
     0
281
     1
  0
CLASS
  1
DICTIONARYVAR
  2
AcDbDictionaryVar
  3
AutoCAD 2000
 90
    32768
280
     0
281
     0
  0
CLASS
  1
RASTERVARIABLES
  2
AcDbRasterVariables
  3
ISM
 90
    32768
280
     0
281
     0
  0
CLASS
  1
IMAGEDEF
  2
AcDbRasterImageDef
  3
ISM
 90
    32768
280
     0
281
     0
  0
CLASS
  1
IMAGEDEF_REACTOR
  2
AcDbRasterImageDefReactor
  3
ISM
 90
    32769
280
     0
281
     0
  0
CLASS
  1
IDBUFFER
  2
AcDbIdBuffer
  3
AutoCAD 2000
 90
    32768
280
     0
281
     0
  0
CLASS
  1
SPATIAL_FILTER
  2
AcDbSpatialFilter
  3
AutoCAD 2000
 90
    32768
280
     0
281
     0
  0
CLASS
  1
XRECORD
  2
AcDbXrecord
  3
AutoCAD 2000
 90
    32768
280
     0
281
     0
  0
CLASS
  1
SORTENTSTABLE
  2
AcDbSortentsTable
  3
AutoCAD 2000
 90
    32768
280
     0
281
     0
  0
CLASS
  1
LAYER_INDEX
  2
AcDbLayerIndex
  3
AutoCAD 2000
 90
    32768
280
     0
281
     0
  0
CLASS
  1
SPATIAL_INDEX
  2
AcDbSpatialIndex
  3
AutoCAD 2000
 90
    32768
280
     0
281
     0
  0
CLASS
  1
OBJECT_PTR
  2
CAseDLPNTableRecord
  3
"ASE-LPNTableRecord"
 90
    32769
280
     0
281
     0
  0
CLASS
  1
LAYOUT
  2
AcDbLayout
  3
AutoCAD 2000
 90
        0
280
     0
281
     0
  0
CLASS
  1
PLOTSETTINGS
  2
AcDbPlotSettings
  3
AutoCAD 2000
 90
    32768
280
     0
281
     0
  0
CLASS
  1
ACDBDICTIONARYWDFLT
  2
AcDbDictionaryWithDefault
  3
AutoCAD 2000
 90
        0
280
     0
281
     0
  0
CLASS
  1
ACDBPLACEHOLDER
  2
AcDbPlaceHolder
  3
AutoCAD 2000
 90
        0
280
     0
281
     0
  0
CLASS
  1
VBA_PROJECT
  2
AcDbVbaProject
  3
acadvba
 90
    32768
280
     0
281
     0
  0
CLASS
  1
WIPEOUT
  2
AcDbWipeout
  3
WipeOut|AutoCAD Express Tool|expresstools@autodesk.com
 90
    32895
280
     0
281
     1
  0
CLASS
  1
WIPEOUTVARIABLES
  2
AcDbWipeoutVariables
  3
WipeOut|AutoCAD Express Tool|expresstools@autodesk.com
 90
        0
280
     0
281
     0
  0
CLASS
  1
RTEXT
  2
RText
  3
RText|AutoCAD Express Tool|expresstools@autodesk.com
 90
    32768
280
     0
281
     1
  0
CLASS
  1
ARCALIGNEDTEXT
  2
AcDbArcAlignedText
  3
ATEXT|AutoCAD Express Tool|expresstools@autodesk.com
 90
    32768
280
     0
281
     1
  0
ENDSEC
  0
SECTION
  2
TABLES
  0
TABLE
  2
VPORT
  5
7
100
AcDbSymbolTable
 70
     1
  0
VPORT
  5
15
100
AcDbSymbolTableRecord
100
AcDbViewportTableRecord
  2
*ACTIVE
 70
     0
 10
0.0
 20
0.0
 11
1.0
 21
1.0
 12
6.591288
 22
4.579184
 13
0.0
 23
0.0
 14
1.0
 24
1.0
 15
0.0
 25
0.0
 16
0.0
 26
0.0
 36
1.0
 17
0.0
 27
0.0
 37
0.0
 40
9.158369
 41
0.688564
 42
50.0
 43
0.0
 44
0.0
 50
0.0
 51
0.0
 71
     0
 72
   100
 73
     1
 74
     1
 75
     0
 76
     0
 77
     0
 78
     0
281
     0
 65
     0
110
0.0
120
0.0
130
0.0
111
1.0
121
0.0
131
0.0
112
0.0
122
1.0
132
0.0
345
0
346
0
 79
     0
146
0.0
  0
ENDTAB
  0
TABLE
  2
LTYPE
  5
4
100
AcDbSymbolTable
 70
     3
  0
LTYPE
  5
11
100
AcDbSymbolTableRecord
100
AcDbLinetypeTableRecord
  2
ByBlock
 70
    64
  3

 72
    65
 73
     0
 40
0.0
  0
LTYPE
  5
12
100
AcDbSymbolTableRecord
100
AcDbLinetypeTableRecord
  2
ByLayer
 70
    64
  3

 72
    65
 73
     0
 40
0.0
  0
LTYPE
  5
13
100
AcDbSymbolTableRecord
100
AcDbLinetypeTableRecord
  2
Continuous
 70
    64
  3
Solid line
 72
    65
 73
     0
 40
0.0
  0
ENDTAB
  0
TABLE
  2
LAYER
  5
2
100
AcDbSymbolTable
 70
     2
  0
LAYER
  5
14
100
AcDbSymbolTableRecord
100
AcDbLayerTableRecord
  2
0
 70
     0
 62
     7
  6
Continuous
290
     1
370
    -3
390
1D
  0
LAYER
  5
24
100
AcDbSymbolTableRecord
100
AcDbLayerTableRecord
  2
Layer 1
 70
     0
 62
     7
  6
Continuous
290
     1
370
    -3
390
1F
  0
ENDTAB
  0
TABLE
  2
STYLE
  5
3
100
AcDbSymbolTable
 70
     2
  0
STYLE
  5
17
100
AcDbSymbolTableRecord
100
AcDbTextStyleTableRecord
  2
Standard
 70
     0
 40
0.0
 41
1.0
 50
0.0
 71
     0
 42
0.0
  3
txt
  4

  0
STYLE
  5
26
100
AcDbSymbolTableRecord
100
AcDbTextStyleTableRecord
  2
Bookman Old Style
 70
     0
 40
1.0
 41
1.0
 50
0.0
 71
     0
 42
1.0
  3
Bookman Old Style
  4

  0
ENDTAB
  0
TABLE
  2
VIEW
  5
5
100
AcDbSymbolTable
 70
     0
  0
ENDTAB
  0
TABLE
  2
UCS
  5
6
100
AcDbSymbolTable
 70
     0
  0
ENDTAB
  0
TABLE
  2
APPID
  5
8
100
AcDbSymbolTable
 70
     1
  0
APPID
  5
16
100
AcDbSymbolTableRecord
100
AcDbRegAppTableRecord
  2
ACAD
 70
     0
  0
ENDTAB
  0
TABLE
  2
DIMSTYLE
  5
9
100
AcDbSymbolTable
 70
     1
100
AcDbDimStyleTable
 71
     0
  0
DIMSTYLE
105
18
100
AcDbSymbolTableRecord
100
AcDbDimStyleTableRecord
  2
Standard
 70
     0
  3

  4

 40
1.0
 41
0.18
 42
0.0625
 43
0.38
 44
0.18
 45
0.0
 46
0.0
 47
0.0
 48
0.0
 71
     0
 72
     0
 73
     1
 74
     1
 75
     0
 76
     0
 77
     0
 78
     0
 79
     0
140
0.18
141
0.09
142
0.0
143
25.4
144
1.0
145
0.0
146
1.0
147
0.09
148
0.0
170
     0
171
     2
172
     0
173
     0
174
     0
175
     0
176
     0
177
     0
178
     0
179
     0
271
     4
272
     4
273
     2
274
     2
275
     0
276
     0
277
     2
278
    46
279
     0
280
     0
281
     0
282
     0
283
     1
284
     0
285
     0
286
     0
288
     0
340
17
341
0
342
0
343
0
344
0
371
    -2
372
    -2
  0
ENDTAB
  0
TABLE
  2
BLOCK_RECORD
  5
1
100
AcDbSymbolTable
 70
     0
  0
BLOCK_RECORD
  5
A
100
AcDbSymbolTableRecord
100
AcDbBlockTableRecord
  2
*MODEL_SPACE
340
20
  0
BLOCK_RECORD
  5
B
100
AcDbSymbolTableRecord
100
AcDbBlockTableRecord
  2
*PAPER_SPACE
340
21
  0
ENDTAB
  0
ENDSEC
  0
SECTION
  2
BLOCKS
  0
BLOCK
  5
D
100
AcDbEntity
  8
0
100
AcDbBlockBegin
  2
*MODEL_SPACE
 70
     0
 10
0.0
 20
0.0
 30
0.0
  3
*MODEL_SPACE
  1

  0
ENDBLK
  5
E
100
AcDbEntity
  8
0
100
AcDbBlockEnd
  0
BLOCK
  5
F
100
AcDbEntity
 67
     1
  8
0
100
AcDbBlockBegin
  2
*PAPER_SPACE
 70
     0
 10
0.0
 20
0.0
 30
0.0
  3
*PAPER_SPACE
  1

  0
ENDBLK
  5
10
100
AcDbEntity
 67
     1
  8
0
100
AcDbBlockEnd
  0
ENDSEC
  0
SECTION
  2
ENTITIES
  0
SPLINE
  5
25
100
AcDbEntity
  8
Layer 1
370
     5
100
AcDbSpline
210
0.0
220
0.0
230
1.0
 70
     1
 71
     3
 72
    20
 73
    16
 74
     0
 42
0.0000000001
 43
0.0000000001
 40
0.0
 40
0.0
 40
0.0
 40
0.0
 40
0.25
 40
0.25
 40
0.25
 40
0.25
 40
0.5
 40
0.5
 40
0.5
 40
0.5
 40
0.75
 40
0.75
 40
0.75
 40
0.75
 40
1.0
 40
1.0
 40
1.0
 40
1.0
 10
-1.6178976377952756
 20
1.652515748031496
 30
0.0
 10
-1.6178976377952756
 20
1.652515748031496
 30
0.0
 10
-0.0914566929133858
 20
1.6581692913385828
 30
0.0
 10
-0.0914566929133858
 20
1.6581692913385828
 30
0.0
 10
-0.0914566929133858
 20
1.6581692913385828
 30
0.0
 10
2.2480000000000002
 20
1.8671929133858269
 30
0.0
 10
1.8781889763779529
 20
5.0186259842519689
 30
0.0
 10
-0.2200866141732284
 20
5.0266653543307092
 30
0.0
 10
-0.2200866141732284
 20
5.0266653543307092
 30
0.0
 10
-0.2200866141732284
 20
5.0266653543307092
 30
0.0
 10
-1.6178976377952756
 20
5.0266653543307092
 30
0.0
 10
-1.6178976377952756
 20
5.0266653543307092
 30
0.0
 10
-1.6178976377952756
 20
5.0266653543307092
 30
0.0
 10
-1.6178976377952756
 20
5.0266653543307092
 30
0.0
 10
-1.6178976377952756
 20
1.652515748031496
 30
0.0
 10
-1.6178976377952756
 20
1.652515748031496
 30
0.0
  0
TEXT
  5
27
100
AcDbEntity
  8
Layer 1
100
AcDbText
 10
-1.160791
 20
1.454752
 30
0.0
 40
0.119999
  1
BA  1516
 51
-0.000002
  7
Bookman Old Style
100
AcDbText
  0
TEXT
  5
28
100
AcDbEntity
  8
Layer 1
100
AcDbText
 10
-1.054138
 20
1.267252
 30
0.0
 40
0.119999
  1
3-3/8\u+201d
 51
-0.000002
  7
Bookman Old Style
100
AcDbText
  0
SPLINE
  5
29
100
AcDbEntity
  8
Layer 1
 62
   253
100
AcDbSpline
210
0.0
220
0.0
230
1.0
 70
     1
 71
     3
 72
    20
 73
    16
 74
     0
 42
0.0000000001
 43
0.0000000001
 40
0.0
 40
0.0
 40
0.0
 40
0.0
 40
0.25
 40
0.25
 40
0.25
 40
0.25
 40
0.5
 40
0.5
 40
0.5
 40
0.5
 40
0.75
 40
0.75
 40
0.75
 40
0.75
 40
1.0
 40
1.0
 40
1.0
 40
1.0
 10
0.6169251968503937
 20
-2.6543897637795277
 30
0.0
 10
0.6169251968503937
 20
-2.6543897637795277
 30
0.0
 10
1.272956692913386
 20
-2.2917834645669291
 30
0.0
 10
1.272956692913386
 20
-2.2917834645669291
 30
0.0
 10
1.272956692913386
 20
-2.2917834645669291
 30
0.0
 10
1.272956692913386
 20
-2.2917834645669291
 30
0.0
 10
1.4076968503937008
 20
-2.1942677165354332
 30
0.0
 10
1.4076968503937008
 20
-2.1942677165354332
 30
0.0
 10
1.4076968503937008
 20
-2.1942677165354332
 30
0.0
 10
1.4076968503937008
 20
-2.1942677165354332
 30
0.0
 10
0.7516653543307087
 20
-2.5568740157480314
 30
0.0
 10
0.7516653543307087
 20
-2.5568740157480314
 30
0.0
 10
0.7516653543307087
 20
-2.5568740157480314
 30
0.0
 10
0.7516653543307087
 20
-2.5568740157480314
 30
0.0
 10
0.6169251968503937
 20
-2.6543897637795277
 30
0.0
 10
0.6169251968503937
 20
-2.6543897637795277
 30
0.0
  0
SPLINE
  5
2A
100
AcDbEntity
  8
Layer 1
 62
     9
100
AcDbSpline
210
0.0
220
0.0
230
1.0
 70
     1
 71
     3
 72
    20
 73
    16
 74
     0
 42
0.0000000001
 43
0.0000000001
 40
0.0
 40
0.0
 40
0.0
 40
0.0
 40
0.25
 40
0.25
 40
0.25
 40
0.25
 40
0.5
 40
0.5
 40
0.5
 40
0.5
 40
0.75
 40
0.75
 40
0.75
 40
0.75
 40
1.0
 40
1.0
 40
1.0
 40
1.0
 10
0.7516653543307087
 20
-2.5568740157480314
 30
0.0
 10
0.7516653543307087
 20
-2.5568740157480314
 30
0.0
 10
1.4076968503937008
 20
-2.1942677165354332
 30
0.0
 10
1.4076968503937008
 20
-2.1942677165354332
 30
0.0
 10
1.4076968503937008
 20
-2.1942677165354332
 30
0.0
 10
1.4076968503937008
 20
-2.1942677165354332
 30
0.0
 10
1.5276338582677167
 20
-2.086192913385827
 30
0.0
 10
1.5276338582677167
 20
-2.086192913385827
 30
0.0
 10
1.5276338582677167
 20
-2.086192913385827
 30
0.0
 10
1.5276338582677167
 20
-2.086192913385827
 30
0.0
 10
0.8716023622047244
 20
-2.4487992125984253
 30
0.0
 10
0.8716023622047244
 20
-2.4487992125984253
 30
0.0
 10
0.8716023622047244
 20
-2.4487992125984253
 30
0.0
 10
0.8716023622047244
 20
-2.4487992125984253
 30
0.0
 10
0.7516653543307087
 20
-2.5568740157480314
 30
0.0
 10
0.7516653543307087
 20
-2.5568740157480314
 30
0.0
  0
SPLINE
  5
2B
100
AcDbEntity
  8
Layer 1
 62
     9
100
AcDbSpline
210
0.0
220
0.0
230
1.0
 70
     1
 71
     3
 72
    20
 73
    16
 74
     0
 42
0.0000000001
 43
0.0000000001
 40
0.0
 40
0.0
 40
0.0
 40
0.0
 40
0.25
 40
0.25
 40
0.25
 40
0.25
 40
0.5
 40
0.5
 40
0.5
 40
0.5
 40
0.75
 40
0.75
 40
0.75
 40
0.75
 40
1.0
 40
1.0
 40
1.0
 40
1.0
 10
0.8716023622047244
 20
-2.4487992125984253
 30
0.0
 10
0.8716023622047244
 20
-2.4487992125984253
 30
0.0
 10
1.5276338582677167
 20
-2.086192913385827
 30
0.0
 10
1.5276338582677167
 20
-2.086192913385827
 30
0.0
 10
1.5276338582677167
 20
-2.086192913385827
 30
0.0
 10
1.5276338582677167
 20
-2.086192913385827
 30
0.0
 10
1.63296062992126
 20
-1.9686850393700788
 30
0.0
 10
1.63296062992126
 20
-1.9686850393700788
 30
0.0
 10
1.63296062992126
 20
-1.9686850393700788
 30
0.0
 10
1.63296062992126
 20
-1.9686850393700788
 30
0.0
 10
0.9769291338582677
 20
-2.3312913385826772
 30
0.0
 10
0.9769291338582677
 20
-2.3312913385826772
 30
0.0
 10
0.9769291338582677
 20
-2.3312913385826772
 30
0.0
 10
0.9769291338582677
 20
-2.3312913385826772
 30
0.0
 10
0.8716023622047244
 20
-2.4487992125984253
 30
0.0
 10
0.8716023622047244
 20
-2.4487992125984253
 30
0.0
  0
SPLINE
  5
2C
100
AcDbEntity
  8
Layer 1
 62
     9
100
AcDbSpline
210
0.0
220
0.0
230
1.0
 70
     1
 71
     3
 72
    20
 73
    16
 74
     0
 42
0.0000000001
 43
0.0000000001
 40
0.0
 40
0.0
 40
0.0
 40
0.0
 40
0.25
 40
0.25
 40
0.25
 40
0.25
 40
0.5
 40
0.5
 40
0.5
 40
0.5
 40
0.75
 40
0.75
 40
0.75
 40
0.75
 40
1.0
 40
1.0
 40
1.0
 40
1.0
 10
0.9769291338582677
 20
-2.3312913385826772
 30
0.0
 10
0.9769291338582677
 20
-2.3312913385826772
 30
0.0
 10
1.63296062992126
 20
-1.9686850393700788
 30
0.0
 10
1.63296062992126
 20
-1.9686850393700788
 30
0.0
 10
1.63296062992126
 20
-1.9686850393700788
 30
0.0
 10
1.63296062992126
 20
-1.9686850393700788
 30
0.0
 10
1.7238425196850395
 20
-1.8428385826771654
 30
0.0
 10
1.7238425196850395
 20
-1.8428385826771654
 30
0.0
 10
1.7238425196850395
 20
-1.8428385826771654
 30
0.0
 10
1.7238425196850395
 20
-1.8428385826771654
 30
0.0
 10
1.0678110236220473
 20
-2.2054448818897638
 30
0.0
 10
1.0678110236220473
 20
-2.2054448818897638
 30
0.0
 10
1.0678110236220473
 20
-2.2054448818897638
 30
0.0
 10
1.0678110236220473
 20
-2.2054448818897638
 30
0.0
 10
0.9769291338582677
 20
-2.3312913385826772
 30
0.0
 10
0.9769291338582677
 20
-2.3312913385826772
 30
0.0
  0
SPLINE
  5
2D
100
AcDbEntity
  8
Layer 1
 62
     9
100
AcDbSpline
210
0.0
220
0.0
230
1.0
 70
     1
 71
     3
 72
    20
 73
    16
 74
     0
 42
0.0000000001
 43
0.0000000001
 40
0.0
 40
0.0
 40
0.0
 40
0.0
 40
0.25
 40
0.25
 40
0.25
 40
0.25
 40
0.5
 40
0.5
 40
0.5
 40
0.5
 40
0.75
 40
0.75
 40
0.75
 40
0.75
 40
1.0
 40
1.0
 40
1.0
 40
1.0
 10
1.0678110236220473
 20
-2.2054448818897638
 30
0.0
 10
1.0678110236220473
 20
-2.2054448818897638
 30
0.0
 10
1.7238425196850395
 20
-1.8428385826771654
 30
0.0
 10
1.7238425196850395
 20
-1.8428385826771654
 30
0.0
 10
1.7238425196850395
 20
-1.8428385826771654
 30
0.0
 10
1.7238425196850395
 20
-1.8428385826771654
 30
0.0
 10
1.8004685039370079
 20
-1.7097913385826773
 30
0.0
 10
1.8004685039370079
 20
-1.7097913385826773
 30
0.0
 10
1.8004685039370079
 20
-1.7097913385826773
 30
0.0
 10
1.8004685039370079
 20
-1.7097913385826773
 30
0.0
 10
1.1444370078740158
 20
-2.0723976377952757
 30
0.0
 10
1.1444370078740158
 20
-2.0723976377952757
 30
0.0
 10
1.1444370078740158
 20
-2.0723976377952757
 30
0.0
 10
1.1444370078740158
 20
-2.0723976377952757
 30
0.0
 10
1.0678110236220473
 20
-2.2054448818897638
 30
0.0
 10
1.0678110236220473
 20
-2.2054448818897638
 30
0.0
  0
SPLINE
  5
2E
100
AcDbEntity
  8
Layer 1
 62
     9
100
AcDbSpline
210
0.0
220
0.0
230
1.0
 70
     1
 71
     3
 72
    20
 73
    16
 74
     0
 42
0.0000000001
 43
0.0000000001
 40
0.0
 40
0.0
 40
0.0
 40
0.0
 40
0.25
 40
0.25
 40
0.25
 40
0.25
 40
0.5
 40
0.5
 40
0.5
 40
0.5
 40
0.75
 40
0.75
 40
0.75
 40
0.75
 40
1.0
 40
1.0
 40
1.0
 40
1.0
 10
1.1444370078740158
 20
-2.0723976377952757
 30
0.0
 10
1.1444370078740158
 20
-2.0723976377952757
 30
0.0
 10
1.8004685039370079
 20
-1.7097913385826773
 30
0.0
 10
1.8004685039370079
 20
-1.7097913385826773
 30
0.0
 10
1.8004685039370079
 20
-1.7097913385826773
 30
0.0
 10
1.8004685039370079
 20
-1.7097913385826773
 30
0.0
 10
1.863011811023622
 20
-1.5706417322834647
 30
0.0
 10
1.863011811023622
 20
-1.5706417322834647
 30
0.0
 10
1.863011811023622
 20
-1.5706417322834647
 30
0.0
 10
1.863011811023622
 20
-1.5706417322834647
 30
0.0
 10
1.20698031496063
 20
-1.9332480314960632
 30
0.0
 10
1.20698031496063
 20
-1.9332480314960632
 30
0.0
 10
1.20698031496063
 20
-1.9332480314960632
 30
0.0
 10
1.20698031496063
 20
-1.9332480314960632
 30
0.0
 10
1.1444370078740158
 20
-2.0723976377952757
 30
0.0
 10
1.1444370078740158
 20
-2.0723976377952757
 30
0.0
  0
SPLINE
  5
2F
100
AcDbEntity
  8
Layer 1
 62
     9
100
AcDbSpline
210
0.0
220
0.0
230
1.0
 70
     1
 71
     3
 72
    20
 73
    16
 74
     0
 42
0.0000000001
 43
0.0000000001
 40
0.0
 40
0.0
 40
0.0
 40
0.0
 40
0.25
 40
0.25
 40
0.25
 40
0.25
 40
0.5
 40
0.5
 40
0.5
 40
0.5
 40
0.75
 40
0.75
 40
0.75
 40
0.75
 40
1.0
 40
1.0
 40
1.0
 40
1.0
 10
1.20698031496063
 20
-1.9332480314960632
 30
0.0
 10
1.20698031496063
 20
-1.9332480314960632
 30
0.0
 10
1.863011811023622
 20
-1.5706417322834647
 30
0.0
 10
1.863011811023622
 20
-1.5706417322834647
 30
0.0
 10
1.863011811023622
 20
-1.5706417322834647
 30
0.0
 10
1.863011811023622
 20
-1.5706417322834647
 30
0.0
 10
1.9116653543307087
 20
-1.4265118110236221
 30
0.0
 10
1.9116653543307087
 20
-1.4265118110236221
 30
0.0
 10
1.9116653543307087
 20
-1.4265118110236221
 30
0.0
 10
1.9116653543307087
 20
-1.4265118110236221
 30
0.0
 10
1.2556338582677167
 20
-1.7891181102362206
 30
0.0
 10
1.2556338582677167
 20
-1.7891181102362206
 30
0.0
 10
1.2556338582677167
 20
-1.7891181102362206
 30
0.0
 10
1.2556338582677167
 20
-1.7891181102362206
 30
0.0
 10
1.20698031496063
 20
-1.9332480314960632
 30
0.0
 10
1.20698031496063
 20
-1.9332480314960632
 30
0.0
  0
SPLINE
  5
30
100
AcDbEntity
  8
Layer 1
 62
     9
100
AcDbSpline
210
0.0
220
0.0
230
1.0
 70
     1
 71
     3
 72
    20
 73
    16
 74
     0
 42
0.0000000001
 43
0.0000000001
 40
0.0
 40
0.0
 40
0.0
 40
0.0
 40
0.25
 40
0.25
 40
0.25
 40
0.25
 40
0.5
 40
0.5
 40
0.5
 40
0.5
 40
0.75
 40
0.75
 40
0.75
 40
0.75
 40
1.0
 40
1.0
 40
1.0
 40
1.0
 10
1.2556338582677167
 20
-1.7891181102362206
 30
0.0
 10
1.2556338582677167
 20
-1.7891181102362206
 30
0.0
 10
1.9116653543307087
 20
-1.4265118110236221
 30
0.0
 10
1.9116653543307087
 20
-1.4265118110236221
 30
0.0
 10
1.9116653543307087
 20
-1.4265118110236221
 30
0.0
 10
1.9116653543307087
 20
-1.4265118110236221
 30
0.0
 10
1.9465905511811024
 20
-1.278511811023622
 30
0.0
 10
1.9465905511811024
 20
-1.278511811023622
 30
0.0
 10
1.9465905511811024
 20
-1.278511811023622
 30
0.0
 10
1.9465905511811024
 20
-1.278511811023622
 30
0.0
 10
1.2905590551181103
 20
-1.6411181102362205
 30
0.0
 10
1.2905590551181103
 20
-1.6411181102362205
 30
0.0
 10
1.2905590551181103
 20
-1.6411181102362205
 30
0.0
 10
1.2905590551181103
 20
-1.6411181102362205
 30
0.0
 10
1.2556338582677167
 20
-1.7891181102362206
 30
0.0
 10
1.2556338582677167
 20
-1.7891181102362206
 30
0.0
  0
SPLINE
  5
31
100
AcDbEntity
  8
Layer 1
 62
     9
100
AcDbSpline
210
0.0
220
0.0
230
1.0
 70
     1
 71
     3
 72
    20
 73
    16
 74
     0
 42
0.0000000001
 43
0.0000000001
 40
0.0
 40
0.0
 40
0.0
 40
0.0
 40
0.25
 40
0.25
 40
0.25
 40
0.25
 40
0.5
 40
0.5
 40
0.5
 40
0.5
 40
0.75
 40
0.75
 40
0.75
 40
0.75
 40
1.0
 40
1.0
 40
1.0
 40
1.0
 10
1.2905590551181103
 20
-1.6411181102362205
 30
0.0
 10
1.2905590551181103
 20
-1.6411181102362205
 30
0.0
 10
1.9465905511811024
 20
-1.278511811023622
 30
0.0
 10
1.9465905511811024
 20
-1.278511811023622
 30
0.0
 10
1.9465905511811024
 20
-1.278511811023622
 30
0.0
 10
1.9465905511811024
 20
-1.278511811023622
 30
0.0
 10
1.967984251968504
 20
-1.1277598425196851
 30
0.0
 10
1.967984251968504
 20
-1.1277598425196851
 30
0.0
 10
1.967984251968504
 20
-1.1277598425196851
 30
0.0
 10
1.967984251968504
 20
-1.1277598425196851
 30
0.0
 10
1.311952755905512
 20
-1.4903661417322835
 30
0.0
 10
1.311952755905512
 20
-1.4903661417322835
 30
0.0
 10
1.311952755905512
 20
-1.4903661417322835
 30
0.0
 10
1.311952755905512
 20
-1.4903661417322835
 30
0.0
 10
1.2905590551181103
 20
-1.6411181102362205
 30
0.0
 10
1.2905590551181103
 20
-1.6411181102362205
 30
0.0
  0
SPLINE
  5
32
100
AcDbEntity
  8
Layer 1
 62
     9
100
AcDbSpline
210
0.0
220
0.0
230
1.0
 70
     1
 71
     3
 72
    20
 73
    16
 74
     0
 42
0.0000000001
 43
0.0000000001
 40
0.0
 40
0.0
 40
0.0
 40
0.0
 40
0.25
 40
0.25
 40
0.25
 40
0.25
 40
0.5
 40
0.5
 40
0.5
 40
0.5
 40
0.75
 40
0.75
 40
0.75
 40
0.75
 40
1.0
 40
1.0
 40
1.0
 40
1.0
 10
1.311952755905512
 20
-1.4903661417322835
 30
0.0
 10
1.311952755905512
 20
-1.4903661417322835
 30
0.0
 10
1.967984251968504
 20
-1.1277598425196851
 30
0.0
 10
1.967984251968504
 20
-1.1277598425196851
 30
0.0
 10
1.967984251968504
 20
-1.1277598425196851
 30
0.0
 10
1.967984251968504
 20
-1.1277598425196851
 30
0.0
 10
1.9760118110236222
 20
-0.9753622047244095
 30
0.0
 10
1.9760118110236222
 20
-0.9753622047244095
 30
0.0
 10
1.9760118110236222
 20
-0.9753622047244095
 30
0.0
 10
1.9760118110236222
 20
-0.9753622047244095
 30
0.0
 10
1.31998031496063
 20
-1.3379685039370079
 30
0.0
 10
1.31998031496063
 20
-1.3379685039370079
 30
0.0
 10
1.31998031496063
 20
-1.3379685039370079
 30
0.0
 10
1.31998031496063
 20
-1.3379685039370079
 30
0.0
 10
1.311952755905512
 20
-1.4903661417322835
 30
0.0
 10
1.311952755905512
 20
-1.4903661417322835
 30
0.0
  0
SPLINE
  5
33
100
AcDbEntity
  8
Layer 1
 62
     9
100
AcDbSpline
210
0.0
220
0.0
230
1.0
 70
     1
 71
     3
 72
    20
 73
    16
 74
     0
 42
0.0000000001
 43
0.0000000001
 40
0.0
 40
0.0
 40
0.0
 40
0.0
 40
0.25
 40
0.25
 40
0.25
 40
0.25
 40
0.5
 40
0.5
 40
0.5
 40
0.5
 40
0.75
 40
0.75
 40
0.75
 40
0.75
 40
1.0
 40
1.0
 40
1.0
 40
1.0
 10
1.31998031496063
 20
-1.3379685039370079
 30
0.0
 10
1.31998031496063
 20
-1.3379685039370079
 30
0.0
 10
1.9760118110236222
 20
-0.9753622047244095
 30
0.0
 10
1.9760118110236222
 20
-0.9753622047244095
 30
0.0
 10
1.9760118110236222
 20
-0.9753622047244095
 30
0.0
 10
1.9760118110236222
 20
-0.9753622047244095
 30
0.0
 10
1.9708661417322835
 20
-0.8224488188976379
 30
0.0
 10
1.9708661417322835
 20
-0.8224488188976379
 30
0.0
 10
1.9708661417322835
 20
-0.8224488188976379
 30
0.0
 10
1.9708661417322835
 20
-0.8224488188976379
 30
0.0
 10
1.3148346456692914
 20
-1.1850551181102362
 30
0.0
 10
1.3148346456692914
 20
-1.1850551181102362
 30
0.0
 10
1.3148346456692914
 20
-1.1850551181102362
 30
0.0
 10
1.3148346456692914
 20
-1.1850551181102362
 30
0.0
 10
1.31998031496063
 20
-1.3379685039370079
 30
0.0
 10
1.31998031496063
 20
-1.3379685039370079
 30
0.0
  0
SPLINE
  5
34
100
AcDbEntity
  8
Layer 1
 62
     9
100
AcDbSpline
210
0.0
220
0.0
230
1.0
 70
     1
 71
     3
 72
    20
 73
    16
 74
     0
 42
0.0000000001
 43
0.0000000001
 40
0.0
 40
0.0
 40
0.0
 40
0.0
 40
0.25
 40
0.25
 40
0.25
 40
0.25
 40
0.5
 40
0.5
 40
0.5
 40
0.5
 40
0.75
 40
0.75
 40
0.75
 40
0.75
 40
1.0
 40
1.0
 40
1.0
 40
1.0
 10
1.3148346456692914
 20
-1.1850551181102362
 30
0.0
 10
1.3148346456692914
 20
-1.1850551181102362
 30
0.0
 10
1.9708661417322835
 20
-0.8224488188976379
 30
0.0
 10
1.9708661417322835
 20
-0.8224488188976379
 30
0.0
 10
1.9708661417322835
 20
-0.8224488188976379
 30
0.0
 10
1.9708661417322835
 20
-0.8224488188976379
 30
0.0
 10
1.9527047244094489
 20
-0.6701141732283464
 30
0.0
 10
1.9527047244094489
 20
-0.6701141732283464
 30
0.0
 10
1.9527047244094489
 20
-0.6701141732283464
 30
0.0
 10
1.9527047244094489
 20
-0.6701141732283464
 30
0.0
 10
1.2966732283464568
 20
-1.0327204724409449
 30
0.0
 10
1.2966732283464568
 20
-1.0327204724409449
 30
0.0
 10
1.2966732283464568
 20
-1.0327204724409449
 30
0.0
 10
1.2966732283464568
 20
-1.0327204724409449
 30
0.0
 10
1.3148346456692914
 20
-1.1850551181102362
 30
0.0
 10
1.3148346456692914
 20
-1.1850551181102362
 30
0.0
  0
SPLINE
  5
35
100
AcDbEntity
  8
Layer 1
 62
     9
100
AcDbSpline
210
0.0
220
0.0
230
1.0
 70
     1
 71
     3
 72
    20
 73
    16
 74
     0
 42
0.0000000001
 43
0.0000000001
 40
0.0
 40
0.0
 40
0.0
 40
0.0
 40
0.25
 40
0.25
 40
0.25
 40
0.25
 40
0.5
 40
0.5
 40
0.5
 40
0.5
 40
0.75
 40
0.75
 40
0.75
 40
0.75
 40
1.0
 40
1.0
 40
1.0
 40
1.0
 10
1.2966732283464568
 20
-1.0327204724409449
 30
0.0
 10
1.2966732283464568
 20
-1.0327204724409449
 30
0.0
 10
1.9527047244094489
 20
-0.6701141732283464
 30
0.0
 10
1.9527047244094489
 20
-0.6701141732283464
 30
0.0
 10
1.9527047244094489
 20
-0.6701141732283464
 30
0.0
 10
1.9527047244094489
 20
-0.6701141732283464
 30
0.0
 10
1.9217322834645669
 20
-0.519484251968504
 30
0.0
 10
1.9217322834645669
 20
-0.519484251968504
 30
0.0
 10
1.9217322834645669
 20
-0.519484251968504
 30
0.0
 10
1.9217322834645669
 20
-0.519484251968504
 30
0.0
 10
1.2657007874015749
 20
-0.8820905511811024
 30
0.0
 10
1.2657007874015749
 20
-0.8820905511811024
 30
0.0
 10
1.2657007874015749
 20
-0.8820905511811024
 30
0.0
 10
1.2657007874015749
 20
-0.8820905511811024
 30
0.0
 10
1.2966732283464568
 20
-1.0327204724409449
 30
0.0
 10
1.2966732283464568
 20
-1.0327204724409449
 30
0.0
  0
SPLINE
  5
36
100
AcDbEntity
  8
Layer 1
 62
     9
100
AcDbSpline
210
0.0
220
0.0
230
1.0
 70
     1
 71
     3
 72
    20
 73
    16
 74
     0
 42
0.0000000001
 43
0.0000000001
 40
0.0
 40
0.0
 40
0.0
 40
0.0
 40
0.25
 40
0.25
 40
0.25
 40
0.25
 40
0.5
 40
0.5
 40
0.5
 40
0.5
 40
0.75
 40
0.75
 40
0.75
 40
0.75
 40
1.0
 40
1.0
 40
1.0
 40
1.0
 10
1.2657007874015749
 20
-0.8820905511811024
 30
0.0
 10
1.2657007874015749
 20
-0.8820905511811024
 30
0.0
 10
1.9217322834645669
 20
-0.519484251968504
 30
0.0
 10
1.9217322834645669
 20
-0.519484251968504
 30
0.0
 10
1.9217322834645669
 20
-0.519484251968504
 30
0.0
 10
1.9217322834645669
 20
-0.519484251968504
 30
0.0
 10
1.8781141732283466
 20
-0.3716732283464567
 30
0.0
 10
1.8781141732283466
 20
-0.3716732283464567
 30
0.0
 10
1.8781141732283466
 20
-0.3716732283464567
 30
0.0
 10
1.8781141732283466
 20
-0.3716732283464567
 30
0.0
 10
1.2220826771653543
 20
-0.7342795275590551
 30
0.0
 10
1.2220826771653543
 20
-0.7342795275590551
 30
0.0
 10
1.2220826771653543
 20
-0.7342795275590551
 30
0.0
 10
1.2220826771653543
 20
-0.7342795275590551
 30
0.0
 10
1.2657007874015749
 20
-0.8820905511811024
 30
0.0
 10
1.2657007874015749
 20
-0.8820905511811024
 30
0.0
  0
SPLINE
  5
37
100
AcDbEntity
  8
Layer 1
 62
     9
100
AcDbSpline
210
0.0
220
0.0
230
1.0
 70
     1
 71
     3
 72
    20
 73
    16
 74
     0
 42
0.0000000001
 43
0.0000000001
 40
0.0
 40
0.0
 40
0.0
 40
0.0
 40
0.25
 40
0.25
 40
0.25
 40
0.25
 40
0.5
 40
0.5
 40
0.5
 40
0.5
 40
0.75
 40
0.75
 40
0.75
 40
0.75
 40
1.0
 40
1.0
 40
1.0
 40
1.0
 10
1.2220826771653543
 20
-0.7342795275590551
 30
0.0
 10
1.2220826771653543
 20
-0.7342795275590551
 30
0.0
 10
1.8781141732283466
 20
-0.3716732283464567
 30
0.0
 10
1.8781141732283466
 20
-0.3716732283464567
 30
0.0
 10
1.8781141732283466
 20
-0.3716732283464567
 30
0.0
 10
1.8781141732283466
 20
-0.3716732283464567
 30
0.0
 10
1.8220393700787403
 20
-0.2277992125984252
 30
0.0
 10
1.8220393700787403
 20
-0.2277992125984252
 30
0.0
 10
1.8220393700787403
 20
-0.2277992125984252
 30
0.0
 10
1.8220393700787403
 20
-0.2277992125984252
 30
0.0
 10
1.166007874015748
 20
-0.5904055118110236
 30
0.0
 10
1.166007874015748
 20
-0.5904055118110236
 30
0.0
 10
1.166007874015748
 20
-0.5904055118110236
 30
0.0
 10
1.166007874015748
 20
-0.5904055118110236
 30
0.0
 10
1.2220826771653543
 20
-0.7342795275590551
 30
0.0
 10
1.2220826771653543
 20
-0.7342795275590551
 30
0.0
  0
SPLINE
  5
38
100
AcDbEntity
  8
Layer 1
 62
     9
100
AcDbSpline
210
0.0
220
0.0
230
1.0
 70
     1
 71
     3
 72
    20
 73
    16
 74
     0
 42
0.0000000001
 43
0.0000000001
 40
0.0
 40
0.0
 40
0.0
 40
0.0
 40
0.25
 40
0.25
 40
0.25
 40
0.25
 40
0.5
 40
0.5
 40
0.5
 40
0.5
 40
0.75
 40
0.75
 40
0.75
 40
0.75
 40
1.0
 40
1.0
 40
1.0
 40
1.0
 10
1.166007874015748
 20
-0.5904055118110236
 30
0.0
 10
1.166007874015748
 20
-0.5904055118110236
 30
0.0
 10
1.8220393700787403
 20
-0.2277992125984252
 30
0.0
 10
1.8220393700787403
 20
-0.2277992125984252
 30
0.0
 10
1.8220393700787403
 20
-0.2277992125984252
 30
0.0
 10
1.8220393700787403
 20
-0.2277992125984252
 30
0.0
 10
1.7536732283464567
 20
-0.0889606299212598
 30
0.0
 10
1.7536732283464567
 20
-0.0889606299212598
 30
0.0
 10
1.7536732283464567
 20
-0.0889606299212598
 30
0.0
 10
1.7536732283464567
 20
-0.0889606299212598
 30
0.0
 10
1.0976417322834646
 20
-0.4515669291338583
 30
0.0
 10
1.0976417322834646
 20
-0.4515669291338583
 30
0.0
 10
1.0976417322834646
 20
-0.4515669291338583
 30
0.0
 10
1.0976417322834646
 20
-0.4515669291338583
 30
0.0
 10
1.166007874015748
 20
-0.5904055118110236
 30
0.0
 10
1.166007874015748
 20
-0.5904055118110236
 30
0.0
  0
SPLINE
  5
39
100
AcDbEntity
  8
Layer 1
 62
     9
100
AcDbSpline
210
0.0
220
0.0
230
1.0
 70
     1
 71
     3
 72
    20
 73
    16
 74
     0
 42
0.0000000001
 43
0.0000000001
 40
0.0
 40
0.0
 40
0.0
 40
0.0
 40
0.25
 40
0.25
 40
0.25
 40
0.25
 40
0.5
 40
0.5
 40
0.5
 40
0.5
 40
0.75
 40
0.75
 40
0.75
 40
0.75
 40
1.0
 40
1.0
 40
1.0
 40
1.0
 10
1.0976417322834646
 20
-0.4515669291338583
 30
0.0
 10
1.0976417322834646
 20
-0.4515669291338583
 30
0.0
 10
1.7536732283464567
 20
-0.0889606299212598
 30
0.0
 10
1.7536732283464567
 20
-0.0889606299212598
 30
0.0
 10
1.7536732283464567
 20
-0.0889606299212598
 30
0.0
 10
1.7536732283464567
 20
-0.0889606299212598
 30
0.0
 10
1.6732125984251969
 20
0.0437047244094488
 30
0.0
 10
1.6732125984251969
 20
0.0437047244094488
 30
0.0
 10
1.6732125984251969
 20
0.0437047244094488
 30
0.0
 10
1.6732125984251969
 20
0.0437047244094488
 30
0.0
 10
1.0171811023622048
 20
-0.3189015748031496
 30
0.0
 10
1.0171811023622048
 20
-0.3189015748031496
 30
0.0
 10
1.0171811023622048
 20
-0.3189015748031496
 30
0.0
 10
1.0171811023622048
 20
-0.3189015748031496
 30
0.0
 10
1.0976417322834646
 20
-0.4515669291338583
 30
0.0
 10
1.0976417322834646
 20
-0.4515669291338583
 30
0.0
  0
SPLINE
  5
3A
100
AcDbEntity
  8
Layer 1
 62
     9
100
AcDbSpline
210
0.0
220
0.0
230
1.0
 70
     1
 71
     3
 72
    20
 73
    16
 74
     0
 42
0.0000000001
 43
0.0000000001
 40
0.0
 40
0.0
 40
0.0
 40
0.0
 40
0.25
 40
0.25
 40
0.25
 40
0.25
 40
0.5
 40
0.5
 40
0.5
 40
0.5
 40
0.75
 40
0.75
 40
0.75
 40
0.75
 40
1.0
 40
1.0
 40
1.0
 40
1.0
 10
1.0171811023622048
 20
-0.3189015748031496
 30
0.0
 10
1.0171811023622048
 20
-0.3189015748031496
 30
0.0
 10
1.6732125984251969
 20
0.0437047244094488
 30
0.0
 10
1.6732125984251969
 20
0.0437047244094488
 30
0.0
 10
1.6732125984251969
 20
0.0437047244094488
 30
0.0
 10
1.6732125984251969
 20
0.0437047244094488
 30
0.0
 10
1.5808228346456694
 20
0.1690944881889764
 30
0.0
 10
1.5808228346456694
 20
0.1690944881889764
 30
0.0
 10
1.5808228346456694
 20
0.1690944881889764
 30
0.0
 10
1.5808228346456694
 20
0.1690944881889764
 30
0.0
 10
0.9247913385826772
 20
-0.1935118110236221
 30
0.0
 10
0.9247913385826772
 20
-0.1935118110236221
 30
0.0
 10
0.9247913385826772
 20
-0.1935118110236221
 30
0.0
 10
0.9247913385826772
 20
-0.1935118110236221
 30
0.0
 10
1.0171811023622048
 20
-0.3189015748031496
 30
0.0
 10
1.0171811023622048
 20
-0.3189015748031496
 30
0.0
  0
SPLINE
  5
3B
100
AcDbEntity
  8
Layer 1
 62
     9
100
AcDbSpline
210
0.0
220
0.0
230
1.0
 70
     1
 71
     3
 72
    20
 73
    16
 74
     0
 42
0.0000000001
 43
0.0000000001
 40
0.0
 40
0.0
 40
0.0
 40
0.0
 40
0.25
 40
0.25
 40
0.25
 40
0.25
 40
0.5
 40
0.5
 40
0.5
 40
0.5
 40
0.75
 40
0.75
 40
0.75
 40
0.75
 40
1.0
 40
1.0
 40
1.0
 40
1.0
 10
0.9247913385826772
 20
-0.1935118110236221
 30
0.0
 10
0.9247913385826772
 20
-0.1935118110236221
 30
0.0
 10
1.5808228346456694
 20
0.1690944881889764
 30
0.0
 10
1.5808228346456694
 20
0.1690944881889764
 30
0.0
 10
1.5808228346456694
 20
0.1690944881889764
 30
0.0
 10
1.5808228346456694
 20
0.1690944881889764
 30
0.0
 10
1.4766968503937008
 20
0.2861023622047244
 30
0.0
 10
1.4766968503937008
 20
0.2861023622047244
 30
0.0
 10
1.4766968503937008
 20
0.2861023622047244
 30
0.0
 10
1.4766968503937008
 20
0.2861023622047244
 30
0.0
 10
0.8206653543307086
 20
-0.076503937007874
 30
0.0
 10
0.8206653543307086
 20
-0.076503937007874
 30
0.0
 10
0.8206653543307086
 20
-0.076503937007874
 30
0.0
 10
0.8206653543307086
 20
-0.076503937007874
 30
0.0
 10
0.9247913385826772
 20
-0.1935118110236221
 30
0.0
 10
0.9247913385826772
 20
-0.1935118110236221
 30
0.0
  0
SPLINE
  5
3C
100
AcDbEntity
  8
Layer 1
 62
     9
100
AcDbSpline
210
0.0
220
0.0
230
1.0
 70
     1
 71
     3
 72
    20
 73
    16
 74
     0
 42
0.0000000001
 43
0.0000000001
 40
0.0
 40
0.0
 40
0.0
 40
0.0
 40
0.25
 40
0.25
 40
0.25
 40
0.25
 40
0.5
 40
0.5
 40
0.5
 40
0.5
 40
0.75
 40
0.75
 40
0.75
 40
0.75
 40
1.0
 40
1.0
 40
1.0
 40
1.0
 10
0.8206653543307086
 20
-0.076503937007874
 30
0.0
 10
0.8206653543307086
 20
-0.076503937007874
 30
0.0
 10
1.4766968503937008
 20
0.2861023622047244
 30
0.0
 10
1.4766968503937008
 20
0.2861023622047244
 30
0.0
 10
1.4766968503937008
 20
0.2861023622047244
 30
0.0
 10
1.4766968503937008
 20
0.2861023622047244
 30
0.0
 10
1.3609921259842521
 20
0.3936023622047244
 30
0.0
 10
1.3609921259842521
 20
0.3936023622047244
 30
0.0
 10
1.3609921259842521
 20
0.3936023622047244
 30
0.0
 10
1.3609921259842521
 20
0.3936023622047244
 30
0.0
 10
0.7049606299212599
 20
0.030996062992126
 30
0.0
 10
0.7049606299212599
 20
0.030996062992126
 30
0.0
 10
0.7049606299212599
 20
0.030996062992126
 30
0.0
 10
0.7049606299212599
 20
0.030996062992126
 30
0.0
 10
0.8206653543307086
 20
-0.076503937007874
 30
0.0
 10
0.8206653543307086
 20
-0.076503937007874
 30
0.0
  0
SPLINE
  5
3D
100
AcDbEntity
  8
Layer 1
 62
     9
100
AcDbSpline
210
0.0
220
0.0
230
1.0
 70
     1
 71
     3
 72
    20
 73
    16
 74
     0
 42
0.0000000001
 43
0.0000000001
 40
0.0
 40
0.0
 40
0.0
 40
0.0
 40
0.25
 40
0.25
 40
0.25
 40
0.25
 40
0.5
 40
0.5
 40
0.5
 40
0.5
 40
0.75
 40
0.75
 40
0.75
 40
0.75
 40
1.0
 40
1.0
 40
1.0
 40
1.0
 10
0.7049606299212599
 20
0.030996062992126
 30
0.0
 10
0.7049606299212599
 20
0.030996062992126
 30
0.0
 10
1.3609921259842521
 20
0.3936023622047244
 30
0.0
 10
1.3609921259842521
 20
0.3936023622047244
 30
0.0
 10
1.3609921259842521
 20
0.3936023622047244
 30
0.0
 10
1.3609921259842521
 20
0.3936023622047244
 30
0.0
 10
1.2339133858267717
 20
0.490488188976378
 30
0.0
 10
1.2339133858267717
 20
0.490488188976378
 30
0.0
 10
1.2339133858267717
 20
0.490488188976378
 30
0.0
 10
1.2339133858267717
 20
0.490488188976378
 30
0.0
 10
0.5778818897637795
 20
0.1278818897637795
 30
0.0
 10
0.5778818897637795
 20
0.1278818897637795
 30
0.0
 10
0.5778818897637795
 20
0.1278818897637795
 30
0.0
 10
0.5778818897637795
 20
0.1278818897637795
 30
0.0
 10
0.7049606299212599
 20
0.030996062992126
 30
0.0
 10
0.7049606299212599
 20
0.030996062992126
 30
0.0
  0
SPLINE
  5
3E
100
AcDbEntity
  8
Layer 1
 62
     9
100
AcDbSpline
210
0.0
220
0.0
230
1.0
 70
     1
 71
     3
 72
    20
 73
    16
 74
     0
 42
0.0000000001
 43
0.0000000001
 40
0.0
 40
0.0
 40
0.0
 40
0.0
 40
0.25
 40
0.25
 40
0.25
 40
0.25
 40
0.5
 40
0.5
 40
0.5
 40
0.5
 40
0.75
 40
0.75
 40
0.75
 40
0.75
 40
1.0
 40
1.0
 40
1.0
 40
1.0
 10
0.5778818897637795
 20
0.1278818897637795
 30
0.0
 10
0.5778818897637795
 20
0.1278818897637795
 30
0.0
 10
1.2339133858267717
 20
0.490488188976378
 30
0.0
 10
1.2339133858267717
 20
0.490488188976378
 30
0.0
 10
1.2339133858267717
 20
0.490488188976378
 30
0.0
 10
1.2339133858267717
 20
0.490488188976378
 30
0.0
 10
1.0956220472440945
 20
0.5756377952755906
 30
0.0
 10
1.0956220472440945
 20
0.5756377952755906
 30
0.0
 10
1.0956220472440945
 20
0.5756377952755906
 30
0.0
 10
1.0956220472440945
 20
0.5756377952755906
 30
0.0
 10
0.4395905511811024
 20
0.2130314960629921
 30
0.0
 10
0.4395905511811024
 20
0.2130314960629921
 30
0.0
 10
0.4395905511811024
 20
0.2130314960629921
 30
0.0
 10
0.4395905511811024
 20
0.2130314960629921
 30
0.0
 10
0.5778818897637795
 20
0.1278818897637795
 30
0.0
 10
0.5778818897637795
 20
0.1278818897637795
 30
0.0
  0
SPLINE
  5
3F
100
AcDbEntity
  8
Layer 1
 62
   253
100
AcDbSpline
210
0.0
220
0.0
230
1.0
 70
     1
 71
     3
 72
    20
 73
    16
 74
     0
 42
0.0000000001
 43
0.0000000001
 40
0.0
 40
0.0
 40
0.0
 40
0.0
 40
0.25
 40
0.25
 40
0.25
 40
0.25
 40
0.5
 40
0.5
 40
0.5
 40
0.5
 40
0.75
 40
0.75
 40
0.75
 40
0.75
 40
1.0
 40
1.0
 40
1.0
 40
1.0
 10
0.4395905511811024
 20
0.2130314960629921
 30
0.0
 10
0.4395905511811024
 20
0.2130314960629921
 30
0.0
 10
1.0956220472440945
 20
0.5756377952755906
 30
0.0
 10
1.0956220472440945
 20
0.5756377952755906
 30
0.0
 10
1.0956220472440945
 20
0.5756377952755906
 30
0.0
 10
1.0956220472440945
 20
0.5756377952755906
 30
0.0
 10
0.9463149606299213
 20
0.6479488188976378
 30
0.0
 10
0.9463149606299213
 20
0.6479488188976378
 30
0.0
 10
0.9463149606299213
 20
0.6479488188976378
 30
0.0
 10
0.9463149606299213
 20
0.6479488188976378
 30
0.0
 10
0.2902834645669292
 20
0.2853425196850394
 30
0.0
 10
0.2902834645669292
 20
0.2853425196850394
 30
0.0
 10
0.2902834645669292
 20
0.2853425196850394
 30
0.0
 10
0.2902834645669292
 20
0.2853425196850394
 30
0.0
 10
0.4395905511811024
 20
0.2130314960629921
 30
0.0
 10
0.4395905511811024
 20
0.2130314960629921
 30
0.0
  0
SPLINE
  5
40
100
AcDbEntity
  8
Layer 1
 62
   253
100
AcDbSpline
210
0.0
220
0.0
230
1.0
 70
     1
 71
     3
 72
    20
 73
    16
 74
     0
 42
0.0000000001
 43
0.0000000001
 40
0.0
 40
0.0
 40
0.0
 40
0.0
 40
0.25
 40
0.25
 40
0.25
 40
0.25
 40
0.5
 40
0.5
 40
0.5
 40
0.5
 40
0.75
 40
0.75
 40
0.75
 40
0.75
 40
1.0
 40
1.0
 40
1.0
 40
1.0
 10
0.2902834645669292
 20
0.2853425196850394
 30
0.0
 10
0.2902834645669292
 20
0.2853425196850394
 30
0.0
 10
0.9463149606299213
 20
0.6479488188976378
 30
0.0
 10
0.9463149606299213
 20
0.6479488188976378
 30
0.0
 10
0.9463149606299213
 20
0.6479488188976378
 30
0.0
 10
0.9463149606299213
 20
0.6479488188976378
 30
0.0
 10
0.7861535433070866
 20
0.7062874015748032
 30
0.0
 10
0.7861535433070866
 20
0.7062874015748032
 30
0.0
 10
0.7861535433070866
 20
0.7062874015748032
 30
0.0
 10
0.7861535433070866
 20
0.7062874015748032
 30
0.0
 10
0.1301220472440945
 20
0.3436811023622047
 30
0.0
 10
0.1301220472440945
 20
0.3436811023622047
 30
0.0
 10
0.1301220472440945
 20
0.3436811023622047
 30
0.0
 10
0.1301220472440945
 20
0.3436811023622047
 30
0.0
 10
0.2902834645669292
 20
0.2853425196850394
 30
0.0
 10
0.2902834645669292
 20
0.2853425196850394
 30
0.0
  0
SPLINE
  5
41
100
AcDbEntity
  8
Layer 1
 62
   253
100
AcDbSpline
210
0.0
220
0.0
230
1.0
 70
     1
 71
     3
 72
    20
 73
    16
 74
     0
 42
0.0000000001
 43
0.0000000001
 40
0.0
 40
0.0
 40
0.0
 40
0.0
 40
0.25
 40
0.25
 40
0.25
 40
0.25
 40
0.5
 40
0.5
 40
0.5
 40
0.5
 40
0.75
 40
0.75
 40
0.75
 40
0.75
 40
1.0
 40
1.0
 40
1.0
 40
1.0
 10
0.1301220472440945
 20
0.3436811023622047
 30
0.0
 10
0.1301220472440945
 20
0.3436811023622047
 30
0.0
 10
0.7861535433070866
 20
0.7062874015748032
 30
0.0
 10
0.7861535433070866
 20
0.7062874015748032
 30
0.0
 10
0.7861535433070866
 20
0.7062874015748032
 30
0.0
 10
0.7861535433070866
 20
0.7062874015748032
 30
0.0
 10
0.6153346456692914
 20
0.7495629921259843
 30
0.0
 10
0.6153346456692914
 20
0.7495629921259843
 30
0.0
 10
0.6153346456692914
 20
0.7495629921259843
 30
0.0
 10
0.6153346456692914
 20
0.7495629921259843
 30
0.0
 10
-0.0406968503937008
 20
0.3869566929133859
 30
0.0
 10
-0.0406968503937008
 20
0.3869566929133859
 30
0.0
 10
-0.0406968503937008
 20
0.3869566929133859
 30
0.0
 10
-0.0406968503937008
 20
0.3869566929133859
 30
0.0
 10
0.1301220472440945
 20
0.3436811023622047
 30
0.0
 10
0.1301220472440945
 20
0.3436811023622047
 30
0.0
  0
SPLINE
  5
42
100
AcDbEntity
  8
Layer 1
 62
   253
100
AcDbSpline
210
0.0
220
0.0
230
1.0
 70
     1
 71
     3
 72
    20
 73
    16
 74
     0
 42
0.0000000001
 43
0.0000000001
 40
0.0
 40
0.0
 40
0.0
 40
0.0
 40
0.25
 40
0.25
 40
0.25
 40
0.25
 40
0.5
 40
0.5
 40
0.5
 40
0.5
 40
0.75
 40
0.75
 40
0.75
 40
0.75
 40
1.0
 40
1.0
 40
1.0
 40
1.0
 10
-0.0406968503937008
 20
0.3869566929133859
 30
0.0
 10
-0.0406968503937008
 20
0.3869566929133859
 30
0.0
 10
0.6153346456692914
 20
0.7495629921259843
 30
0.0
 10
0.6153346456692914
 20
0.7495629921259843
 30
0.0
 10
0.6153346456692914
 20
0.7495629921259843
 30
0.0
 10
0.6153346456692914
 20
0.7495629921259843
 30
0.0
 10
0.4340275590551181
 20
0.7766456692913386
 30
0.0
 10
0.4340275590551181
 20
0.7766456692913386
 30
0.0
 10
0.4340275590551181
 20
0.7766456692913386
 30
0.0
 10
0.4340275590551181
 20
0.7766456692913386
 30
0.0
 10
-0.222003937007874
 20
0.4140393700787402
 30
0.0
 10
-0.222003937007874
 20
0.4140393700787402
 30
0.0
 10
-0.222003937007874
 20
0.4140393700787402
 30
0.0
 10
-0.222003937007874
 20
0.4140393700787402
 30
0.0
 10
-0.0406968503937008
 20
0.3869566929133859
 30
0.0
 10
-0.0406968503937008
 20
0.3869566929133859
 30
0.0
  0
SPLINE
  5
43
100
AcDbEntity
  8
Layer 1
 62
   253
100
AcDbSpline
210
0.0
220
0.0
230
1.0
 70
     1
 71
     3
 72
    20
 73
    16
 74
     0
 42
0.0000000001
 43
0.0000000001
 40
0.0
 40
0.0
 40
0.0
 40
0.0
 40
0.25
 40
0.25
 40
0.25
 40
0.25
 40
0.5
 40
0.5
 40
0.5
 40
0.5
 40
0.75
 40
0.75
 40
0.75
 40
0.75
 40
1.0
 40
1.0
 40
1.0
 40
1.0
 10
-0.222003937007874
 20
0.4140393700787402
 30
0.0
 10
-0.222003937007874
 20
0.4140393700787402
 30
0.0
 10
0.4340275590551181
 20
0.7766456692913386
 30
0.0
 10
0.4340275590551181
 20
0.7766456692913386
 30
0.0
 10
0.4340275590551181
 20
0.7766456692913386
 30
0.0
 10
0.4340275590551181
 20
0.7766456692913386
 30
0.0
 10
0.2424055118110236
 20
0.7864291338582677
 30
0.0
 10
0.2424055118110236
 20
0.7864291338582677
 30
0.0
 10
0.2424055118110236
 20
0.7864291338582677
 30
0.0
 10
0.2424055118110236
 20
0.7864291338582677
 30
0.0
 10
-0.4136259842519685
 20
0.4238228346456693
 30
0.0
 10
-0.4136259842519685
 20
0.4238228346456693
 30
0.0
 10
-0.4136259842519685
 20
0.4238228346456693
 30
0.0
 10
-0.4136259842519685
 20
0.4238228346456693
 30
0.0
 10
-0.222003937007874
 20
0.4140393700787402
 30
0.0
 10
-0.222003937007874
 20
0.4140393700787402
 30
0.0
  0
SPLINE
  5
44
100
AcDbEntity
  8
Layer 1
370
     5
100
AcDbSpline
210
0.0
220
0.0
230
1.0
 70
     1
 71
     3
 72
   228
 73
   224
 74
     0
 42
0.0000000001
 43
0.0000000001
 40
0.0
 40
0.0
 40
0.0
 40
0.0
 40
0.0178571428571429
 40
0.0178571428571429
 40
0.0178571428571429
 40
0.0178571428571429
 40
0.0357142857142857
 40
0.0357142857142857
 40
0.0357142857142857
 40
0.0357142857142857
 40
0.0535714285714286
 40
0.0535714285714286
 40
0.0535714285714286
 40
0.0535714285714286
 40
0.0714285714285714
 40
0.0714285714285714
 40
0.0714285714285714
 40
0.0714285714285714
 40
0.0892857142857143
 40
0.0892857142857143
 40
0.0892857142857143
 40
0.0892857142857143
 40
0.1071428571428571
 40
0.1071428571428571
 40
0.1071428571428571
 40
0.1071428571428571
 40
0.125
 40
0.125
 40
0.125
 40
0.125
 40
0.1428571428571428
 40
0.1428571428571428
 40
0.1428571428571428
 40
0.1428571428571428
 40
0.1607142857142857
 40
0.1607142857142857
 40
0.1607142857142857
 40
0.1607142857142857
 40
0.1785714285714285
 40
0.1785714285714285
 40
0.1785714285714285
 40
0.1785714285714285
 40
0.1964285714285714
 40
0.1964285714285714
 40
0.1964285714285714
 40
0.1964285714285714
 40
0.2142857142857142
 40
0.2142857142857142
 40
0.2142857142857142
 40
0.2142857142857142
 40
0.2321428571428571
 40
0.2321428571428571
 40
0.2321428571428571
 40
0.2321428571428571
 40
0.2499999999999999
 40
0.2499999999999999
 40
0.2499999999999999
 40
0.2499999999999999
 40
0.2678571428571428
 40
0.2678571428571428
 40
0.2678571428571428
 40
0.2678571428571428
 40
0.2857142857142856
 40
0.2857142857142856
 40
0.2857142857142856
 40
0.2857142857142856
 40
0.3035714285714285
 40
0.3035714285714285
 40
0.3035714285714285
 40
0.3035714285714285
 40
0.3214285714285713
 40
0.3214285714285713
 40
0.3214285714285713
 40
0.3214285714285713
 40
0.3392857142857142
 40
0.3392857142857142
 40
0.3392857142857142
 40
0.3392857142857142
 40
0.357142857142857
 40
0.357142857142857
 40
0.357142857142857
 40
0.357142857142857
 40
0.3749999999999999
 40
0.3749999999999999
 40
0.3749999999999999
 40
0.3749999999999999
 40
0.3928571428571427
 40
0.3928571428571427
 40
0.3928571428571427
 40
0.3928571428571427
 40
0.4107142857142856
 40
0.4107142857142856
 40
0.4107142857142856
 40
0.4107142857142856
 40
0.4285714285714284
 40
0.4285714285714284
 40
0.4285714285714284
 40
0.4285714285714284
 40
0.4464285714285713
 40
0.4464285714285713
 40
0.4464285714285713
 40
0.4464285714285713
 40
0.4642857142857141
 40
0.4642857142857141
 40
0.4642857142857141
 40
0.4642857142857141
 40
0.482142857142857
 40
0.482142857142857
 40
0.482142857142857
 40
0.482142857142857
 40
0.4999999999999998
 40
0.4999999999999998
 40
0.4999999999999998
 40
0.4999999999999998
 40
0.5178571428571427
 40
0.5178571428571427
 40
0.5178571428571427
 40
0.5178571428571427
 40
0.5357142857142856
 40
0.5357142857142856
 40
0.5357142857142856
 40
0.5357142857142856
 40
0.5535714285714285
 40
0.5535714285714285
 40
0.5535714285714285
 40
0.5535714285714285
 40
0.5714285714285714
 40
0.5714285714285714
 40
0.5714285714285714
 40
0.5714285714285714
 40
0.5892857142857143
 40
0.5892857142857143
 40
0.5892857142857143
 40
0.5892857142857143
 40
0.6071428571428572
 40
0.6071428571428572
 40
0.6071428571428572
 40
0.6071428571428572
 40
0.6250000000000001
 40
0.6250000000000001
 40
0.6250000000000001
 40
0.6250000000000001
 40
0.642857142857143
 40
0.642857142857143
 40
0.642857142857143
 40
0.642857142857143
 40
0.6607142857142859
 40
0.6607142857142859
 40
0.6607142857142859
 40
0.6607142857142859
 40
0.6785714285714288
 40
0.6785714285714288
 40
0.6785714285714288
 40
0.6785714285714288
 40
0.6964285714285717
 40
0.6964285714285717
 40
0.6964285714285717
 40
0.6964285714285717
 40
0.7142857142857146
 40
0.7142857142857146
 40
0.7142857142857146
 40
0.7142857142857146
 40
0.7321428571428575
 40
0.7321428571428575
 40
0.7321428571428575
 40
0.7321428571428575
 40
0.7500000000000004
 40
0.7500000000000004
 40
0.7500000000000004
 40
0.7500000000000004
 40
0.7678571428571434
 40
0.7678571428571434
 40
0.7678571428571434
 40
0.7678571428571434
 40
0.7857142857142863
 40
0.7857142857142863
 40
0.7857142857142863
 40
0.7857142857142863
 40
0.8035714285714292
 40
0.8035714285714292
 40
0.8035714285714292
 40
0.8035714285714292
 40
0.8214285714285721
 40
0.8214285714285721
 40
0.8214285714285721
 40
0.8214285714285721
 40
0.839285714285715
 40
0.839285714285715
 40
0.839285714285715
 40
0.839285714285715
 40
0.8571428571428579
 40
0.8571428571428579
 40
0.8571428571428579
 40
0.8571428571428579
 40
0.8750000000000008
 40
0.8750000000000008
 40
0.8750000000000008
 40
0.8750000000000008
 40
0.8928571428571437
 40
0.8928571428571437
 40
0.8928571428571437
 40
0.8928571428571437
 40
0.9107142857142866
 40
0.9107142857142866
 40
0.9107142857142866
 40
0.9107142857142866
 40
0.9285714285714295
 40
0.9285714285714295
 40
0.9285714285714295
 40
0.9285714285714295
 40
0.9464285714285724
 40
0.9464285714285724
 40
0.9464285714285724
 40
0.9464285714285724
 40
0.9642857142857153
 40
0.9642857142857153
 40
0.9642857142857153
 40
0.9642857142857153
 40
0.9821428571428582
 40
0.9821428571428582
 40
0.9821428571428582
 40
0.9821428571428582
 40
1.0
 40
1.0
 40
1.0
 40
1.0
 10
0.6169251968503937
 20
-2.6543897637795277
 30
0.0
 10
0.6169251968503937
 20
-2.6543897637795277
 30
0.0
 10
1.272956692913386
 20
-2.2917834645669291
 30
0.0
 10
1.272956692913386
 20
-2.2917834645669291
 30
0.0
 10
1.272956692913386
 20
-2.2917834645669291
 30
0.0
 10
1.272956692913386
 20
-2.2917834645669291
 30
0.0
 10
1.4076968503937008
 20
-2.1942677165354332
 30
0.0
 10
1.4076968503937008
 20
-2.1942677165354332
 30
0.0
 10
1.4076968503937008
 20
-2.1942677165354332
 30
0.0
 10
1.4076968503937008
 20
-2.1942677165354332
 30
0.0
 10
1.5276338582677167
 20
-2.086192913385827
 30
0.0
 10
1.5276338582677167
 20
-2.086192913385827
 30
0.0
 10
1.5276338582677167
 20
-2.086192913385827
 30
0.0
 10
1.5276338582677167
 20
-2.086192913385827
 30
0.0
 10
1.63296062992126
 20
-1.9686850393700788
 30
0.0
 10
1.63296062992126
 20
-1.9686850393700788
 30
0.0
 10
1.63296062992126
 20
-1.9686850393700788
 30
0.0
 10
1.63296062992126
 20
-1.9686850393700788
 30
0.0
 10
1.7238425196850395
 20
-1.8428385826771654
 30
0.0
 10
1.7238425196850395
 20
-1.8428385826771654
 30
0.0
 10
1.7238425196850395
 20
-1.8428385826771654
 30
0.0
 10
1.7238425196850395
 20
-1.8428385826771654
 30
0.0
 10
1.8004685039370079
 20
-1.7097913385826773
 30
0.0
 10
1.8004685039370079
 20
-1.7097913385826773
 30
0.0
 10
1.8004685039370079
 20
-1.7097913385826773
 30
0.0
 10
1.8004685039370079
 20
-1.7097913385826773
 30
0.0
 10
1.863011811023622
 20
-1.5706417322834647
 30
0.0
 10
1.863011811023622
 20
-1.5706417322834647
 30
0.0
 10
1.863011811023622
 20
-1.5706417322834647
 30
0.0
 10
1.863011811023622
 20
-1.5706417322834647
 30
0.0
 10
1.9116653543307087
 20
-1.4265118110236221
 30
0.0
 10
1.9116653543307087
 20
-1.4265118110236221
 30
0.0
 10
1.9116653543307087
 20
-1.4265118110236221
 30
0.0
 10
1.9116653543307087
 20
-1.4265118110236221
 30
0.0
 10
1.9465905511811024
 20
-1.278511811023622
 30
0.0
 10
1.9465905511811024
 20
-1.278511811023622
 30
0.0
 10
1.9465905511811024
 20
-1.278511811023622
 30
0.0
 10
1.9465905511811024
 20
-1.278511811023622
 30
0.0
 10
1.967984251968504
 20
-1.1277598425196851
 30
0.0
 10
1.967984251968504
 20
-1.1277598425196851
 30
0.0
 10
1.967984251968504
 20
-1.1277598425196851
 30
0.0
 10
1.967984251968504
 20
-1.1277598425196851
 30
0.0
 10
1.9760118110236222
 20
-0.9753622047244095
 30
0.0
 10
1.9760118110236222
 20
-0.9753622047244095
 30
0.0
 10
1.9760118110236222
 20
-0.9753622047244095
 30
0.0
 10
1.9760118110236222
 20
-0.9753622047244095
 30
0.0
 10
1.9708661417322835
 20
-0.8224488188976379
 30
0.0
 10
1.9708661417322835
 20
-0.8224488188976379
 30
0.0
 10
1.9708661417322835
 20
-0.8224488188976379
 30
0.0
 10
1.9708661417322835
 20
-0.8224488188976379
 30
0.0
 10
1.9527047244094489
 20
-0.6701141732283464
 30
0.0
 10
1.9527047244094489
 20
-0.6701141732283464
 30
0.0
 10
1.9527047244094489
 20
-0.6701141732283464
 30
0.0
 10
1.9527047244094489
 20
-0.6701141732283464
 30
0.0
 10
1.9217322834645669
 20
-0.519484251968504
 30
0.0
 10
1.9217322834645669
 20
-0.519484251968504
 30
0.0
 10
1.9217322834645669
 20
-0.519484251968504
 30
0.0
 10
1.9217322834645669
 20
-0.519484251968504
 30
0.0
 10
1.8781141732283466
 20
-0.3716732283464567
 30
0.0
 10
1.8781141732283466
 20
-0.3716732283464567
 30
0.0
 10
1.8781141732283466
 20
-0.3716732283464567
 30
0.0
 10
1.8781141732283466
 20
-0.3716732283464567
 30
0.0
 10
1.8220393700787403
 20
-0.2277992125984252
 30
0.0
 10
1.8220393700787403
 20
-0.2277992125984252
 30
0.0
 10
1.8220393700787403
 20
-0.2277992125984252
 30
0.0
 10
1.8220393700787403
 20
-0.2277992125984252
 30
0.0
 10
1.7536732283464567
 20
-0.0889606299212598
 30
0.0
 10
1.7536732283464567
 20
-0.0889606299212598
 30
0.0
 10
1.7536732283464567
 20
-0.0889606299212598
 30
0.0
 10
1.7536732283464567
 20
-0.0889606299212598
 30
0.0
 10
1.6732125984251969
 20
0.0437047244094488
 30
0.0
 10
1.6732125984251969
 20
0.0437047244094488
 30
0.0
 10
1.6732125984251969
 20
0.0437047244094488
 30
0.0
 10
1.6732125984251969
 20
0.0437047244094488
 30
0.0
 10
1.5808228346456694
 20
0.1690944881889764
 30
0.0
 10
1.5808228346456694
 20
0.1690944881889764
 30
0.0
 10
1.5808228346456694
 20
0.1690944881889764
 30
0.0
 10
1.5808228346456694
 20
0.1690944881889764
 30
0.0
 10
1.4766968503937008
 20
0.2861023622047244
 30
0.0
 10
1.4766968503937008
 20
0.2861023622047244
 30
0.0
 10
1.4766968503937008
 20
0.2861023622047244
 30
0.0
 10
1.4766968503937008
 20
0.2861023622047244
 30
0.0
 10
1.3609921259842521
 20
0.3936023622047244
 30
0.0
 10
1.3609921259842521
 20
0.3936023622047244
 30
0.0
 10
1.3609921259842521
 20
0.3936023622047244
 30
0.0
 10
1.3609921259842521
 20
0.3936023622047244
 30
0.0
 10
1.2339133858267717
 20
0.490488188976378
 30
0.0
 10
1.2339133858267717
 20
0.490488188976378
 30
0.0
 10
1.2339133858267717
 20
0.490488188976378
 30
0.0
 10
1.2339133858267717
 20
0.490488188976378
 30
0.0
 10
1.0956220472440945
 20
0.5756377952755906
 30
0.0
 10
1.0956220472440945
 20
0.5756377952755906
 30
0.0
 10
1.0956220472440945
 20
0.5756377952755906
 30
0.0
 10
1.0956220472440945
 20
0.5756377952755906
 30
0.0
 10
0.9463149606299213
 20
0.6479488188976378
 30
0.0
 10
0.9463149606299213
 20
0.6479488188976378
 30
0.0
 10
0.9463149606299213
 20
0.6479488188976378
 30
0.0
 10
0.9463149606299213
 20
0.6479488188976378
 30
0.0
 10
0.7861535433070866
 20
0.7062874015748032
 30
0.0
 10
0.7861535433070866
 20
0.7062874015748032
 30
0.0
 10
0.7861535433070866
 20
0.7062874015748032
 30
0.0
 10
0.7861535433070866
 20
0.7062874015748032
 30
0.0
 10
0.6153346456692914
 20
0.7495629921259843
 30
0.0
 10
0.6153346456692914
 20
0.7495629921259843
 30
0.0
 10
0.6153346456692914
 20
0.7495629921259843
 30
0.0
 10
0.6153346456692914
 20
0.7495629921259843
 30
0.0
 10
0.4340275590551181
 20
0.7766456692913386
 30
0.0
 10
0.4340275590551181
 20
0.7766456692913386
 30
0.0
 10
0.4340275590551181
 20
0.7766456692913386
 30
0.0
 10
0.4340275590551181
 20
0.7766456692913386
 30
0.0
 10
0.2424055118110236
 20
0.7864291338582677
 30
0.0
 10
0.2424055118110236
 20
0.7864291338582677
 30
0.0
 10
0.2424055118110236
 20
0.7864291338582677
 30
0.0
 10
0.2424055118110236
 20
0.7864291338582677
 30
0.0
 10
-0.4136259842519685
 20
0.4238228346456693
 30
0.0
 10
-0.4136259842519685
 20
0.4238228346456693
 30
0.0
 10
-0.4136259842519685
 20
0.4238228346456693
 30
0.0
 10
-0.4136259842519685
 20
0.4238228346456693
 30
0.0
 10
-0.222003937007874
 20
0.4140393700787402
 30
0.0
 10
-0.222003937007874
 20
0.4140393700787402
 30
0.0
 10
-0.222003937007874
 20
0.4140393700787402
 30
0.0
 10
-0.222003937007874
 20
0.4140393700787402
 30
0.0
 10
-0.0406968503937008
 20
0.3869566929133859
 30
0.0
 10
-0.0406968503937008
 20
0.3869566929133859
 30
0.0
 10
-0.0406968503937008
 20
0.3869566929133859
 30
0.0
 10
-0.0406968503937008
 20
0.3869566929133859
 30
0.0
 10
0.1301220472440945
 20
0.3436811023622047
 30
0.0
 10
0.1301220472440945
 20
0.3436811023622047
 30
0.0
 10
0.1301220472440945
 20
0.3436811023622047
 30
0.0
 10
0.1301220472440945
 20
0.3436811023622047
 30
0.0
 10
0.2902834645669292
 20
0.2853425196850394
 30
0.0
 10
0.2902834645669292
 20
0.2853425196850394
 30
0.0
 10
0.2902834645669292
 20
0.2853425196850394
 30
0.0
 10
0.2902834645669292
 20
0.2853425196850394
 30
0.0
 10
0.4395905511811024
 20
0.2130314960629921
 30
0.0
 10
0.4395905511811024
 20
0.2130314960629921
 30
0.0
 10
0.4395905511811024
 20
0.2130314960629921
 30
0.0
 10
0.4395905511811024
 20
0.2130314960629921
 30
0.0
 10
0.5778818897637795
 20
0.1278818897637795
 30
0.0
 10
0.5778818897637795
 20
0.1278818897637795
 30
0.0
 10
0.5778818897637795
 20
0.1278818897637795
 30
0.0
 10
0.5778818897637795
 20
0.1278818897637795
 30
0.0
 10
0.7049606299212599
 20
0.030996062992126
 30
0.0
 10
0.7049606299212599
 20
0.030996062992126
 30
0.0
 10
0.7049606299212599
 20
0.030996062992126
 30
0.0
 10
0.7049606299212599
 20
0.030996062992126
 30
0.0
 10
0.8206653543307086
 20
-0.076503937007874
 30
0.0
 10
0.8206653543307086
 20
-0.076503937007874
 30
0.0
 10
0.8206653543307086
 20
-0.076503937007874
 30
0.0
 10
0.8206653543307086
 20
-0.076503937007874
 30
0.0
 10
0.9247913385826772
 20
-0.1935118110236221
 30
0.0
 10
0.9247913385826772
 20
-0.1935118110236221
 30
0.0
 10
0.9247913385826772
 20
-0.1935118110236221
 30
0.0
 10
0.9247913385826772
 20
-0.1935118110236221
 30
0.0
 10
1.0171811023622048
 20
-0.3189015748031496
 30
0.0
 10
1.0171811023622048
 20
-0.3189015748031496
 30
0.0
 10
1.0171811023622048
 20
-0.3189015748031496
 30
0.0
 10
1.0171811023622048
 20
-0.3189015748031496
 30
0.0
 10
1.0976417322834646
 20
-0.4515669291338583
 30
0.0
 10
1.0976417322834646
 20
-0.4515669291338583
 30
0.0
 10
1.0976417322834646
 20
-0.4515669291338583
 30
0.0
 10
1.0976417322834646
 20
-0.4515669291338583
 30
0.0
 10
1.166007874015748
 20
-0.5904055118110236
 30
0.0
 10
1.166007874015748
 20
-0.5904055118110236
 30
0.0
 10
1.166007874015748
 20
-0.5904055118110236
 30
0.0
 10
1.166007874015748
 20
-0.5904055118110236
 30
0.0
 10
1.2220826771653543
 20
-0.7342795275590551
 30
0.0
 10
1.2220826771653543
 20
-0.7342795275590551
 30
0.0
 10
1.2220826771653543
 20
-0.7342795275590551
 30
0.0
 10
1.2220826771653543
 20
-0.7342795275590551
 30
0.0
 10
1.2657007874015749
 20
-0.8820905511811024
 30
0.0
 10
1.2657007874015749
 20
-0.8820905511811024
 30
0.0
 10
1.2657007874015749
 20
-0.8820905511811024
 30
0.0
 10
1.2657007874015749
 20
-0.8820905511811024
 30
0.0
 10
1.2966732283464568
 20
-1.0327204724409449
 30
0.0
 10
1.2966732283464568
 20
-1.0327204724409449
 30
0.0
 10
1.2966732283464568
 20
-1.0327204724409449
 30
0.0
 10
1.2966732283464568
 20
-1.0327204724409449
 30
0.0
 10
1.3148346456692914
 20
-1.1850551181102362
 30
0.0
 10
1.3148346456692914
 20
-1.1850551181102362
 30
0.0
 10
1.3148346456692914
 20
-1.1850551181102362
 30
0.0
 10
1.3148346456692914
 20
-1.1850551181102362
 30
0.0
 10
1.31998031496063
 20
-1.3379685039370079
 30
0.0
 10
1.31998031496063
 20
-1.3379685039370079
 30
0.0
 10
1.31998031496063
 20
-1.3379685039370079
 30
0.0
 10
1.31998031496063
 20
-1.3379685039370079
 30
0.0
 10
1.311952755905512
 20
-1.4903661417322835
 30
0.0
 10
1.311952755905512
 20
-1.4903661417322835
 30
0.0
 10
1.311952755905512
 20
-1.4903661417322835
 30
0.0
 10
1.311952755905512
 20
-1.4903661417322835
 30
0.0
 10
1.2905590551181103
 20
-1.6411181102362205
 30
0.0
 10
1.2905590551181103
 20
-1.6411181102362205
 30
0.0
 10
1.2905590551181103
 20
-1.6411181102362205
 30
0.0
 10
1.2905590551181103
 20
-1.6411181102362205
 30
0.0
 10
1.2556338582677167
 20
-1.7891181102362206
 30
0.0
 10
1.2556338582677167
 20
-1.7891181102362206
 30
0.0
 10
1.2556338582677167
 20
-1.7891181102362206
 30
0.0
 10
1.2556338582677167
 20
-1.7891181102362206
 30
0.0
 10
1.20698031496063
 20
-1.9332480314960632
 30
0.0
 10
1.20698031496063
 20
-1.9332480314960632
 30
0.0
 10
1.20698031496063
 20
-1.9332480314960632
 30
0.0
 10
1.20698031496063
 20
-1.9332480314960632
 30
0.0
 10
1.1444370078740158
 20
-2.0723976377952757
 30
0.0
 10
1.1444370078740158
 20
-2.0723976377952757
 30
0.0
 10
1.1444370078740158
 20
-2.0723976377952757
 30
0.0
 10
1.1444370078740158
 20
-2.0723976377952757
 30
0.0
 10
1.0678110236220473
 20
-2.2054448818897638
 30
0.0
 10
1.0678110236220473
 20
-2.2054448818897638
 30
0.0
 10
1.0678110236220473
 20
-2.2054448818897638
 30
0.0
 10
1.0678110236220473
 20
-2.2054448818897638
 30
0.0
 10
0.9769291338582677
 20
-2.3312913385826772
 30
0.0
 10
0.9769291338582677
 20
-2.3312913385826772
 30
0.0
 10
0.9769291338582677
 20
-2.3312913385826772
 30
0.0
 10
0.9769291338582677
 20
-2.3312913385826772
 30
0.0
 10
0.8716023622047244
 20
-2.4487992125984253
 30
0.0
 10
0.8716023622047244
 20
-2.4487992125984253
 30
0.0
 10
0.8716023622047244
 20
-2.4487992125984253
 30
0.0
 10
0.8716023622047244
 20
-2.4487992125984253
 30
0.0
 10
0.7516653543307087
 20
-2.5568740157480314
 30
0.0
 10
0.7516653543307087
 20
-2.5568740157480314
 30
0.0
 10
0.7516653543307087
 20
-2.5568740157480314
 30
0.0
 10
0.7516653543307087
 20
-2.5568740157480314
 30
0.0
 10
0.6169251968503937
 20
-2.6543897637795277
 30
0.0
 10
0.6169251968503937
 20
-2.6543897637795277
 30
0.0
  0
SPLINE
  5
45
100
AcDbEntity
  8
Layer 1
 62
   252
100
AcDbSpline
210
0.0
220
0.0
230
1.0
 70
     1
 71
     3
 72
    20
 73
    16
 74
     0
 42
0.0000000001
 43
0.0000000001
 40
0.0
 40
0.0
 40
0.0
 40
0.0
 40
0.25
 40
0.25
 40
0.25
 40
0.25
 40
0.5
 40
0.5
 40
0.5
 40
0.5
 40
0.75
 40
0.75
 40
0.75
 40
0.75
 40
1.0
 40
1.0
 40
1.0
 40
1.0
 10
-0.4136259842519685
 20
0.4238228346456693
 30
0.0
 10
-0.4136259842519685
 20
0.4238228346456693
 30
0.0
 10
0.2424055118110236
 20
0.7864291338582677
 30
0.0
 10
0.2424055118110236
 20
0.7864291338582677
 30
0.0
 10
0.2424055118110236
 20
0.7864291338582677
 30
0.0
 10
0.2424055118110236
 20
0.7864291338582677
 30
0.0
 10
-1.1554055118110236
 20
0.7864291338582677
 30
0.0
 10
-1.1554055118110236
 20
0.7864291338582677
 30
0.0
 10
-1.1554055118110236
 20
0.7864291338582677
 30
0.0
 10
-1.1554055118110236
 20
0.7864291338582677
 30
0.0
 10
-1.8114370078740158
 20
0.4238228346456693
 30
0.0
 10
-1.8114370078740158
 20
0.4238228346456693
 30
0.0
 10
-1.8114370078740158
 20
0.4238228346456693
 30
0.0
 10
-1.8114370078740158
 20
0.4238228346456693
 30
0.0
 10
-0.4136259842519685
 20
0.4238228346456693
 30
0.0
 10
-0.4136259842519685
 20
0.4238228346456693
 30
0.0
  0
SPLINE
  5
46
100
AcDbEntity
  8
Layer 1
370
     5
100
AcDbSpline
210
0.0
220
0.0
230
1.0
 70
     1
 71
     3
 72
    20
 73
    16
 74
     0
 42
0.0000000001
 43
0.0000000001
 40
0.0
 40
0.0
 40
0.0
 40
0.0
 40
0.25
 40
0.25
 40
0.25
 40
0.25
 40
0.5
 40
0.5
 40
0.5
 40
0.5
 40
0.75
 40
0.75
 40
0.75
 40
0.75
 40
1.0
 40
1.0
 40
1.0
 40
1.0
 10
-0.4136259842519685
 20
0.4238228346456693
 30
0.0
 10
-0.4136259842519685
 20
0.4238228346456693
 30
0.0
 10
0.2424055118110236
 20
0.7864291338582677
 30
0.0
 10
0.2424055118110236
 20
0.7864291338582677
 30
0.0
 10
0.2424055118110236
 20
0.7864291338582677
 30
0.0
 10
0.2424055118110236
 20
0.7864291338582677
 30
0.0
 10
-1.1554055118110236
 20
0.7864291338582677
 30
0.0
 10
-1.1554055118110236
 20
0.7864291338582677
 30
0.0
 10
-1.1554055118110236
 20
0.7864291338582677
 30
0.0
 10
-1.1554055118110236
 20
0.7864291338582677
 30
0.0
 10
-1.8114370078740158
 20
0.4238228346456693
 30
0.0
 10
-1.8114370078740158
 20
0.4238228346456693
 30
0.0
 10
-1.8114370078740158
 20
0.4238228346456693
 30
0.0
 10
-1.8114370078740158
 20
0.4238228346456693
 30
0.0
 10
-0.4136259842519685
 20
0.4238228346456693
 30
0.0
 10
-0.4136259842519685
 20
0.4238228346456693
 30
0.0
  0
SPLINE
  5
47
100
AcDbEntity
  8
Layer 1
 62
   253
100
AcDbSpline
210
0.0
220
0.0
230
1.0
 70
     1
 71
     3
 72
    20
 73
    16
 74
     0
 42
0.0000000001
 43
0.0000000001
 40
0.0
 40
0.0
 40
0.0
 40
0.0
 40
0.25
 40
0.25
 40
0.25
 40
0.25
 40
0.5
 40
0.5
 40
0.5
 40
0.5
 40
0.75
 40
0.75
 40
0.75
 40
0.75
 40
1.0
 40
1.0
 40
1.0
 40
1.0
 10
0.6169251968503937
 20
-2.6543897637795277
 30
0.0
 10
0.6169251968503937
 20
-2.6543897637795277
 30
0.0
 10
1.272956692913386
 20
-2.2917834645669291
 30
0.0
 10
1.272956692913386
 20
-2.2917834645669291
 30
0.0
 10
1.272956692913386
 20
-2.2917834645669291
 30
0.0
 10
1.272956692913386
 20
-2.2917834645669291
 30
0.0
 10
1.4076968503937008
 20
-2.1942677165354332
 30
0.0
 10
1.4076968503937008
 20
-2.1942677165354332
 30
0.0
 10
1.4076968503937008
 20
-2.1942677165354332
 30
0.0
 10
1.4076968503937008
 20
-2.1942677165354332
 30
0.0
 10
0.7516653543307087
 20
-2.5568740157480314
 30
0.0
 10
0.7516653543307087
 20
-2.5568740157480314
 30
0.0
 10
0.7516653543307087
 20
-2.5568740157480314
 30
0.0
 10
0.7516653543307087
 20
-2.5568740157480314
 30
0.0
 10
0.6169251968503937
 20
-2.6543897637795277
 30
0.0
 10
0.6169251968503937
 20
-2.6543897637795277
 30
0.0
  0
SPLINE
  5
48
100
AcDbEntity
  8
Layer 1
 62
     9
100
AcDbSpline
210
0.0
220
0.0
230
1.0
 70
     1
 71
     3
 72
    20
 73
    16
 74
     0
 42
0.0000000001
 43
0.0000000001
 40
0.0
 40
0.0
 40
0.0
 40
0.0
 40
0.25
 40
0.25
 40
0.25
 40
0.25
 40
0.5
 40
0.5
 40
0.5
 40
0.5
 40
0.75
 40
0.75
 40
0.75
 40
0.75
 40
1.0
 40
1.0
 40
1.0
 40
1.0
 10
0.7516653543307087
 20
-2.5568740157480314
 30
0.0
 10
0.7516653543307087
 20
-2.5568740157480314
 30
0.0
 10
1.4076968503937008
 20
-2.1942677165354332
 30
0.0
 10
1.4076968503937008
 20
-2.1942677165354332
 30
0.0
 10
1.4076968503937008
 20
-2.1942677165354332
 30
0.0
 10
1.4076968503937008
 20
-2.1942677165354332
 30
0.0
 10
1.5276338582677167
 20
-2.086192913385827
 30
0.0
 10
1.5276338582677167
 20
-2.086192913385827
 30
0.0
 10
1.5276338582677167
 20
-2.086192913385827
 30
0.0
 10
1.5276338582677167
 20
-2.086192913385827
 30
0.0
 10
0.8716023622047244
 20
-2.4487992125984253
 30
0.0
 10
0.8716023622047244
 20
-2.4487992125984253
 30
0.0
 10
0.8716023622047244
 20
-2.4487992125984253
 30
0.0
 10
0.8716023622047244
 20
-2.4487992125984253
 30
0.0
 10
0.7516653543307087
 20
-2.5568740157480314
 30
0.0
 10
0.7516653543307087
 20
-2.5568740157480314
 30
0.0
  0
SPLINE
  5
49
100
AcDbEntity
  8
Layer 1
 62
     9
100
AcDbSpline
210
0.0
220
0.0
230
1.0
 70
     1
 71
     3
 72
    20
 73
    16
 74
     0
 42
0.0000000001
 43
0.0000000001
 40
0.0
 40
0.0
 40
0.0
 40
0.0
 40
0.25
 40
0.25
 40
0.25
 40
0.25
 40
0.5
 40
0.5
 40
0.5
 40
0.5
 40
0.75
 40
0.75
 40
0.75
 40
0.75
 40
1.0
 40
1.0
 40
1.0
 40
1.0
 10
0.8716023622047244
 20
-2.4487992125984253
 30
0.0
 10
0.8716023622047244
 20
-2.4487992125984253
 30
0.0
 10
1.5276338582677167
 20
-2.086192913385827
 30
0.0
 10
1.5276338582677167
 20
-2.086192913385827
 30
0.0
 10
1.5276338582677167
 20
-2.086192913385827
 30
0.0
 10
1.5276338582677167
 20
-2.086192913385827
 30
0.0
 10
1.63296062992126
 20
-1.9686850393700788
 30
0.0
 10
1.63296062992126
 20
-1.9686850393700788
 30
0.0
 10
1.63296062992126
 20
-1.9686850393700788
 30
0.0
 10
1.63296062992126
 20
-1.9686850393700788
 30
0.0
 10
0.9769291338582677
 20
-2.3312913385826772
 30
0.0
 10
0.9769291338582677
 20
-2.3312913385826772
 30
0.0
 10
0.9769291338582677
 20
-2.3312913385826772
 30
0.0
 10
0.9769291338582677
 20
-2.3312913385826772
 30
0.0
 10
0.8716023622047244
 20
-2.4487992125984253
 30
0.0
 10
0.8716023622047244
 20
-2.4487992125984253
 30
0.0
  0
SPLINE
  5
4A
100
AcDbEntity
  8
Layer 1
 62
     9
100
AcDbSpline
210
0.0
220
0.0
230
1.0
 70
     1
 71
     3
 72
    20
 73
    16
 74
     0
 42
0.0000000001
 43
0.0000000001
 40
0.0
 40
0.0
 40
0.0
 40
0.0
 40
0.25
 40
0.25
 40
0.25
 40
0.25
 40
0.5
 40
0.5
 40
0.5
 40
0.5
 40
0.75
 40
0.75
 40
0.75
 40
0.75
 40
1.0
 40
1.0
 40
1.0
 40
1.0
 10
0.9769291338582677
 20
-2.3312913385826772
 30
0.0
 10
0.9769291338582677
 20
-2.3312913385826772
 30
0.0
 10
1.63296062992126
 20
-1.9686850393700788
 30
0.0
 10
1.63296062992126
 20
-1.9686850393700788
 30
0.0
 10
1.63296062992126
 20
-1.9686850393700788
 30
0.0
 10
1.63296062992126
 20
-1.9686850393700788
 30
0.0
 10
1.7238425196850395
 20
-1.8428385826771654
 30
0.0
 10
1.7238425196850395
 20
-1.8428385826771654
 30
0.0
 10
1.7238425196850395
 20
-1.8428385826771654
 30
0.0
 10
1.7238425196850395
 20
-1.8428385826771654
 30
0.0
 10
1.0678110236220473
 20
-2.2054448818897638
 30
0.0
 10
1.0678110236220473
 20
-2.2054448818897638
 30
0.0
 10
1.0678110236220473
 20
-2.2054448818897638
 30
0.0
 10
1.0678110236220473
 20
-2.2054448818897638
 30
0.0
 10
0.9769291338582677
 20
-2.3312913385826772
 30
0.0
 10
0.9769291338582677
 20
-2.3312913385826772
 30
0.0
  0
SPLINE
  5
4B
100
AcDbEntity
  8
Layer 1
 62
     9
100
AcDbSpline
210
0.0
220
0.0
230
1.0
 70
     1
 71
     3
 72
    20
 73
    16
 74
     0
 42
0.0000000001
 43
0.0000000001
 40
0.0
 40
0.0
 40
0.0
 40
0.0
 40
0.25
 40
0.25
 40
0.25
 40
0.25
 40
0.5
 40
0.5
 40
0.5
 40
0.5
 40
0.75
 40
0.75
 40
0.75
 40
0.75
 40
1.0
 40
1.0
 40
1.0
 40
1.0
 10
1.0678110236220473
 20
-2.2054448818897638
 30
0.0
 10
1.0678110236220473
 20
-2.2054448818897638
 30
0.0
 10
1.7238425196850395
 20
-1.8428385826771654
 30
0.0
 10
1.7238425196850395
 20
-1.8428385826771654
 30
0.0
 10
1.7238425196850395
 20
-1.8428385826771654
 30
0.0
 10
1.7238425196850395
 20
-1.8428385826771654
 30
0.0
 10
1.8004685039370079
 20
-1.7097913385826773
 30
0.0
 10
1.8004685039370079
 20
-1.7097913385826773
 30
0.0
 10
1.8004685039370079
 20
-1.7097913385826773
 30
0.0
 10
1.8004685039370079
 20
-1.7097913385826773
 30
0.0
 10
1.1444370078740158
 20
-2.0723976377952757
 30
0.0
 10
1.1444370078740158
 20
-2.0723976377952757
 30
0.0
 10
1.1444370078740158
 20
-2.0723976377952757
 30
0.0
 10
1.1444370078740158
 20
-2.0723976377952757
 30
0.0
 10
1.0678110236220473
 20
-2.2054448818897638
 30
0.0
 10
1.0678110236220473
 20
-2.2054448818897638
 30
0.0
  0
SPLINE
  5
4C
100
AcDbEntity
  8
Layer 1
 62
     9
100
AcDbSpline
210
0.0
220
0.0
230
1.0
 70
     1
 71
     3
 72
    20
 73
    16
 74
     0
 42
0.0000000001
 43
0.0000000001
 40
0.0
 40
0.0
 40
0.0
 40
0.0
 40
0.25
 40
0.25
 40
0.25
 40
0.25
 40
0.5
 40
0.5
 40
0.5
 40
0.5
 40
0.75
 40
0.75
 40
0.75
 40
0.75
 40
1.0
 40
1.0
 40
1.0
 40
1.0
 10
1.1444370078740158
 20
-2.0723976377952757
 30
0.0
 10
1.1444370078740158
 20
-2.0723976377952757
 30
0.0
 10
1.8004685039370079
 20
-1.7097913385826773
 30
0.0
 10
1.8004685039370079
 20
-1.7097913385826773
 30
0.0
 10
1.8004685039370079
 20
-1.7097913385826773
 30
0.0
 10
1.8004685039370079
 20
-1.7097913385826773
 30
0.0
 10
1.863011811023622
 20
-1.5706417322834647
 30
0.0
 10
1.863011811023622
 20
-1.5706417322834647
 30
0.0
 10
1.863011811023622
 20
-1.5706417322834647
 30
0.0
 10
1.863011811023622
 20
-1.5706417322834647
 30
0.0
 10
1.20698031496063
 20
-1.9332480314960632
 30
0.0
 10
1.20698031496063
 20
-1.9332480314960632
 30
0.0
 10
1.20698031496063
 20
-1.9332480314960632
 30
0.0
 10
1.20698031496063
 20
-1.9332480314960632
 30
0.0
 10
1.1444370078740158
 20
-2.0723976377952757
 30
0.0
 10
1.1444370078740158
 20
-2.0723976377952757
 30
0.0
  0
SPLINE
  5
4D
100
AcDbEntity
  8
Layer 1
 62
     9
100
AcDbSpline
210
0.0
220
0.0
230
1.0
 70
     1
 71
     3
 72
    20
 73
    16
 74
     0
 42
0.0000000001
 43
0.0000000001
 40
0.0
 40
0.0
 40
0.0
 40
0.0
 40
0.25
 40
0.25
 40
0.25
 40
0.25
 40
0.5
 40
0.5
 40
0.5
 40
0.5
 40
0.75
 40
0.75
 40
0.75
 40
0.75
 40
1.0
 40
1.0
 40
1.0
 40
1.0
 10
1.20698031496063
 20
-1.9332480314960632
 30
0.0
 10
1.20698031496063
 20
-1.9332480314960632
 30
0.0
 10
1.863011811023622
 20
-1.5706417322834647
 30
0.0
 10
1.863011811023622
 20
-1.5706417322834647
 30
0.0
 10
1.863011811023622
 20
-1.5706417322834647
 30
0.0
 10
1.863011811023622
 20
-1.5706417322834647
 30
0.0
 10
1.9116653543307087
 20
-1.4265118110236221
 30
0.0
 10
1.9116653543307087
 20
-1.4265118110236221
 30
0.0
 10
1.9116653543307087
 20
-1.4265118110236221
 30
0.0
 10
1.9116653543307087
 20
-1.4265118110236221
 30
0.0
 10
1.2556338582677167
 20
-1.7891181102362206
 30
0.0
 10
1.2556338582677167
 20
-1.7891181102362206
 30
0.0
 10
1.2556338582677167
 20
-1.7891181102362206
 30
0.0
 10
1.2556338582677167
 20
-1.7891181102362206
 30
0.0
 10
1.20698031496063
 20
-1.9332480314960632
 30
0.0
 10
1.20698031496063
 20
-1.9332480314960632
 30
0.0
  0
SPLINE
  5
4E
100
AcDbEntity
  8
Layer 1
 62
     9
100
AcDbSpline
210
0.0
220
0.0
230
1.0
 70
     1
 71
     3
 72
    20
 73
    16
 74
     0
 42
0.0000000001
 43
0.0000000001
 40
0.0
 40
0.0
 40
0.0
 40
0.0
 40
0.25
 40
0.25
 40
0.25
 40
0.25
 40
0.5
 40
0.5
 40
0.5
 40
0.5
 40
0.75
 40
0.75
 40
0.75
 40
0.75
 40
1.0
 40
1.0
 40
1.0
 40
1.0
 10
1.2556338582677167
 20
-1.7891181102362206
 30
0.0
 10
1.2556338582677167
 20
-1.7891181102362206
 30
0.0
 10
1.9116653543307087
 20
-1.4265118110236221
 30
0.0
 10
1.9116653543307087
 20
-1.4265118110236221
 30
0.0
 10
1.9116653543307087
 20
-1.4265118110236221
 30
0.0
 10
1.9116653543307087
 20
-1.4265118110236221
 30
0.0
 10
1.9465905511811024
 20
-1.278511811023622
 30
0.0
 10
1.9465905511811024
 20
-1.278511811023622
 30
0.0
 10
1.9465905511811024
 20
-1.278511811023622
 30
0.0
 10
1.9465905511811024
 20
-1.278511811023622
 30
0.0
 10
1.2905590551181103
 20
-1.6411181102362205
 30
0.0
 10
1.2905590551181103
 20
-1.6411181102362205
 30
0.0
 10
1.2905590551181103
 20
-1.6411181102362205
 30
0.0
 10
1.2905590551181103
 20
-1.6411181102362205
 30
0.0
 10
1.2556338582677167
 20
-1.7891181102362206
 30
0.0
 10
1.2556338582677167
 20
-1.7891181102362206
 30
0.0
  0
SPLINE
  5
4F
100
AcDbEntity
  8
Layer 1
 62
     9
100
AcDbSpline
210
0.0
220
0.0
230
1.0
 70
     1
 71
     3
 72
    20
 73
    16
 74
     0
 42
0.0000000001
 43
0.0000000001
 40
0.0
 40
0.0
 40
0.0
 40
0.0
 40
0.25
 40
0.25
 40
0.25
 40
0.25
 40
0.5
 40
0.5
 40
0.5
 40
0.5
 40
0.75
 40
0.75
 40
0.75
 40
0.75
 40
1.0
 40
1.0
 40
1.0
 40
1.0
 10
1.2905590551181103
 20
-1.6411181102362205
 30
0.0
 10
1.2905590551181103
 20
-1.6411181102362205
 30
0.0
 10
1.9465905511811024
 20
-1.278511811023622
 30
0.0
 10
1.9465905511811024
 20
-1.278511811023622
 30
0.0
 10
1.9465905511811024
 20
-1.278511811023622
 30
0.0
 10
1.9465905511811024
 20
-1.278511811023622
 30
0.0
 10
1.967984251968504
 20
-1.1277598425196851
 30
0.0
 10
1.967984251968504
 20
-1.1277598425196851
 30
0.0
 10
1.967984251968504
 20
-1.1277598425196851
 30
0.0
 10
1.967984251968504
 20
-1.1277598425196851
 30
0.0
 10
1.311952755905512
 20
-1.4903661417322835
 30
0.0
 10
1.311952755905512
 20
-1.4903661417322835
 30
0.0
 10
1.311952755905512
 20
-1.4903661417322835
 30
0.0
 10
1.311952755905512
 20
-1.4903661417322835
 30
0.0
 10
1.2905590551181103
 20
-1.6411181102362205
 30
0.0
 10
1.2905590551181103
 20
-1.6411181102362205
 30
0.0
  0
SPLINE
  5
50
100
AcDbEntity
  8
Layer 1
 62
     9
100
AcDbSpline
210
0.0
220
0.0
230
1.0
 70
     1
 71
     3
 72
    20
 73
    16
 74
     0
 42
0.0000000001
 43
0.0000000001
 40
0.0
 40
0.0
 40
0.0
 40
0.0
 40
0.25
 40
0.25
 40
0.25
 40
0.25
 40
0.5
 40
0.5
 40
0.5
 40
0.5
 40
0.75
 40
0.75
 40
0.75
 40
0.75
 40
1.0
 40
1.0
 40
1.0
 40
1.0
 10
1.311952755905512
 20
-1.4903661417322835
 30
0.0
 10
1.311952755905512
 20
-1.4903661417322835
 30
0.0
 10
1.967984251968504
 20
-1.1277598425196851
 30
0.0
 10
1.967984251968504
 20
-1.1277598425196851
 30
0.0
 10
1.967984251968504
 20
-1.1277598425196851
 30
0.0
 10
1.967984251968504
 20
-1.1277598425196851
 30
0.0
 10
1.9760118110236222
 20
-0.9753622047244095
 30
0.0
 10
1.9760118110236222
 20
-0.9753622047244095
 30
0.0
 10
1.9760118110236222
 20
-0.9753622047244095
 30
0.0
 10
1.9760118110236222
 20
-0.9753622047244095
 30
0.0
 10
1.31998031496063
 20
-1.3379685039370079
 30
0.0
 10
1.31998031496063
 20
-1.3379685039370079
 30
0.0
 10
1.31998031496063
 20
-1.3379685039370079
 30
0.0
 10
1.31998031496063
 20
-1.3379685039370079
 30
0.0
 10
1.311952755905512
 20
-1.4903661417322835
 30
0.0
 10
1.311952755905512
 20
-1.4903661417322835
 30
0.0
  0
SPLINE
  5
51
100
AcDbEntity
  8
Layer 1
 62
     9
100
AcDbSpline
210
0.0
220
0.0
230
1.0
 70
     1
 71
     3
 72
    20
 73
    16
 74
     0
 42
0.0000000001
 43
0.0000000001
 40
0.0
 40
0.0
 40
0.0
 40
0.0
 40
0.25
 40
0.25
 40
0.25
 40
0.25
 40
0.5
 40
0.5
 40
0.5
 40
0.5
 40
0.75
 40
0.75
 40
0.75
 40
0.75
 40
1.0
 40
1.0
 40
1.0
 40
1.0
 10
1.31998031496063
 20
-1.3379685039370079
 30
0.0
 10
1.31998031496063
 20
-1.3379685039370079
 30
0.0
 10
1.9760118110236222
 20
-0.9753622047244095
 30
0.0
 10
1.9760118110236222
 20
-0.9753622047244095
 30
0.0
 10
1.9760118110236222
 20
-0.9753622047244095
 30
0.0
 10
1.9760118110236222
 20
-0.9753622047244095
 30
0.0
 10
1.9708661417322835
 20
-0.8224488188976379
 30
0.0
 10
1.9708661417322835
 20
-0.8224488188976379
 30
0.0
 10
1.9708661417322835
 20
-0.8224488188976379
 30
0.0
 10
1.9708661417322835
 20
-0.8224488188976379
 30
0.0
 10
1.3148346456692914
 20
-1.1850551181102362
 30
0.0
 10
1.3148346456692914
 20
-1.1850551181102362
 30
0.0
 10
1.3148346456692914
 20
-1.1850551181102362
 30
0.0
 10
1.3148346456692914
 20
-1.1850551181102362
 30
0.0
 10
1.31998031496063
 20
-1.3379685039370079
 30
0.0
 10
1.31998031496063
 20
-1.3379685039370079
 30
0.0
  0
SPLINE
  5
52
100
AcDbEntity
  8
Layer 1
 62
     9
100
AcDbSpline
210
0.0
220
0.0
230
1.0
 70
     1
 71
     3
 72
    20
 73
    16
 74
     0
 42
0.0000000001
 43
0.0000000001
 40
0.0
 40
0.0
 40
0.0
 40
0.0
 40
0.25
 40
0.25
 40
0.25
 40
0.25
 40
0.5
 40
0.5
 40
0.5
 40
0.5
 40
0.75
 40
0.75
 40
0.75
 40
0.75
 40
1.0
 40
1.0
 40
1.0
 40
1.0
 10
1.3148346456692914
 20
-1.1850551181102362
 30
0.0
 10
1.3148346456692914
 20
-1.1850551181102362
 30
0.0
 10
1.9708661417322835
 20
-0.8224488188976379
 30
0.0
 10
1.9708661417322835
 20
-0.8224488188976379
 30
0.0
 10
1.9708661417322835
 20
-0.8224488188976379
 30
0.0
 10
1.9708661417322835
 20
-0.8224488188976379
 30
0.0
 10
1.9527047244094489
 20
-0.6701141732283464
 30
0.0
 10
1.9527047244094489
 20
-0.6701141732283464
 30
0.0
 10
1.9527047244094489
 20
-0.6701141732283464
 30
0.0
 10
1.9527047244094489
 20
-0.6701141732283464
 30
0.0
 10
1.2966732283464568
 20
-1.0327204724409449
 30
0.0
 10
1.2966732283464568
 20
-1.0327204724409449
 30
0.0
 10
1.2966732283464568
 20
-1.0327204724409449
 30
0.0
 10
1.2966732283464568
 20
-1.0327204724409449
 30
0.0
 10
1.3148346456692914
 20
-1.1850551181102362
 30
0.0
 10
1.3148346456692914
 20
-1.1850551181102362
 30
0.0
  0
SPLINE
  5
53
100
AcDbEntity
  8
Layer 1
 62
     9
100
AcDbSpline
210
0.0
220
0.0
230
1.0
 70
     1
 71
     3
 72
    20
 73
    16
 74
     0
 42
0.0000000001
 43
0.0000000001
 40
0.0
 40
0.0
 40
0.0
 40
0.0
 40
0.25
 40
0.25
 40
0.25
 40
0.25
 40
0.5
 40
0.5
 40
0.5
 40
0.5
 40
0.75
 40
0.75
 40
0.75
 40
0.75
 40
1.0
 40
1.0
 40
1.0
 40
1.0
 10
1.2966732283464568
 20
-1.0327204724409449
 30
0.0
 10
1.2966732283464568
 20
-1.0327204724409449
 30
0.0
 10
1.9527047244094489
 20
-0.6701141732283464
 30
0.0
 10
1.9527047244094489
 20
-0.6701141732283464
 30
0.0
 10
1.9527047244094489
 20
-0.6701141732283464
 30
0.0
 10
1.9527047244094489
 20
-0.6701141732283464
 30
0.0
 10
1.9217322834645669
 20
-0.519484251968504
 30
0.0
 10
1.9217322834645669
 20
-0.519484251968504
 30
0.0
 10
1.9217322834645669
 20
-0.519484251968504
 30
0.0
 10
1.9217322834645669
 20
-0.519484251968504
 30
0.0
 10
1.2657007874015749
 20
-0.8820905511811024
 30
0.0
 10
1.2657007874015749
 20
-0.8820905511811024
 30
0.0
 10
1.2657007874015749
 20
-0.8820905511811024
 30
0.0
 10
1.2657007874015749
 20
-0.8820905511811024
 30
0.0
 10
1.2966732283464568
 20
-1.0327204724409449
 30
0.0
 10
1.2966732283464568
 20
-1.0327204724409449
 30
0.0
  0
SPLINE
  5
54
100
AcDbEntity
  8
Layer 1
 62
     9
100
AcDbSpline
210
0.0
220
0.0
230
1.0
 70
     1
 71
     3
 72
    20
 73
    16
 74
     0
 42
0.0000000001
 43
0.0000000001
 40
0.0
 40
0.0
 40
0.0
 40
0.0
 40
0.25
 40
0.25
 40
0.25
 40
0.25
 40
0.5
 40
0.5
 40
0.5
 40
0.5
 40
0.75
 40
0.75
 40
0.75
 40
0.75
 40
1.0
 40
1.0
 40
1.0
 40
1.0
 10
1.2657007874015749
 20
-0.8820905511811024
 30
0.0
 10
1.2657007874015749
 20
-0.8820905511811024
 30
0.0
 10
1.9217322834645669
 20
-0.519484251968504
 30
0.0
 10
1.9217322834645669
 20
-0.519484251968504
 30
0.0
 10
1.9217322834645669
 20
-0.519484251968504
 30
0.0
 10
1.9217322834645669
 20
-0.519484251968504
 30
0.0
 10
1.8781141732283466
 20
-0.3716732283464567
 30
0.0
 10
1.8781141732283466
 20
-0.3716732283464567
 30
0.0
 10
1.8781141732283466
 20
-0.3716732283464567
 30
0.0
 10
1.8781141732283466
 20
-0.3716732283464567
 30
0.0
 10
1.2220826771653543
 20
-0.7342795275590551
 30
0.0
 10
1.2220826771653543
 20
-0.7342795275590551
 30
0.0
 10
1.2220826771653543
 20
-0.7342795275590551
 30
0.0
 10
1.2220826771653543
 20
-0.7342795275590551
 30
0.0
 10
1.2657007874015749
 20
-0.8820905511811024
 30
0.0
 10
1.2657007874015749
 20
-0.8820905511811024
 30
0.0
  0
SPLINE
  5
55
100
AcDbEntity
  8
Layer 1
 62
     9
100
AcDbSpline
210
0.0
220
0.0
230
1.0
 70
     1
 71
     3
 72
    20
 73
    16
 74
     0
 42
0.0000000001
 43
0.0000000001
 40
0.0
 40
0.0
 40
0.0
 40
0.0
 40
0.25
 40
0.25
 40
0.25
 40
0.25
 40
0.5
 40
0.5
 40
0.5
 40
0.5
 40
0.75
 40
0.75
 40
0.75
 40
0.75
 40
1.0
 40
1.0
 40
1.0
 40
1.0
 10
1.2220826771653543
 20
-0.7342795275590551
 30
0.0
 10
1.2220826771653543
 20
-0.7342795275590551
 30
0.0
 10
1.8781141732283466
 20
-0.3716732283464567
 30
0.0
 10
1.8781141732283466
 20
-0.3716732283464567
 30
0.0
 10
1.8781141732283466
 20
-0.3716732283464567
 30
0.0
 10
1.8781141732283466
 20
-0.3716732283464567
 30
0.0
 10
1.8220393700787403
 20
-0.2277992125984252
 30
0.0
 10
1.8220393700787403
 20
-0.2277992125984252
 30
0.0
 10
1.8220393700787403
 20
-0.2277992125984252
 30
0.0
 10
1.8220393700787403
 20
-0.2277992125984252
 30
0.0
 10
1.166007874015748
 20
-0.5904055118110236
 30
0.0
 10
1.166007874015748
 20
-0.5904055118110236
 30
0.0
 10
1.166007874015748
 20
-0.5904055118110236
 30
0.0
 10
1.166007874015748
 20
-0.5904055118110236
 30
0.0
 10
1.2220826771653543
 20
-0.7342795275590551
 30
0.0
 10
1.2220826771653543
 20
-0.7342795275590551
 30
0.0
  0
SPLINE
  5
56
100
AcDbEntity
  8
Layer 1
 62
     9
100
AcDbSpline
210
0.0
220
0.0
230
1.0
 70
     1
 71
     3
 72
    20
 73
    16
 74
     0
 42
0.0000000001
 43
0.0000000001
 40
0.0
 40
0.0
 40
0.0
 40
0.0
 40
0.25
 40
0.25
 40
0.25
 40
0.25
 40
0.5
 40
0.5
 40
0.5
 40
0.5
 40
0.75
 40
0.75
 40
0.75
 40
0.75
 40
1.0
 40
1.0
 40
1.0
 40
1.0
 10
1.166007874015748
 20
-0.5904055118110236
 30
0.0
 10
1.166007874015748
 20
-0.5904055118110236
 30
0.0
 10
1.8220393700787403
 20
-0.2277992125984252
 30
0.0
 10
1.8220393700787403
 20
-0.2277992125984252
 30
0.0
 10
1.8220393700787403
 20
-0.2277992125984252
 30
0.0
 10
1.8220393700787403
 20
-0.2277992125984252
 30
0.0
 10
1.7536732283464567
 20
-0.0889606299212598
 30
0.0
 10
1.7536732283464567
 20
-0.0889606299212598
 30
0.0
 10
1.7536732283464567
 20
-0.0889606299212598
 30
0.0
 10
1.7536732283464567
 20
-0.0889606299212598
 30
0.0
 10
1.0976417322834646
 20
-0.4515669291338583
 30
0.0
 10
1.0976417322834646
 20
-0.4515669291338583
 30
0.0
 10
1.0976417322834646
 20
-0.4515669291338583
 30
0.0
 10
1.0976417322834646
 20
-0.4515669291338583
 30
0.0
 10
1.166007874015748
 20
-0.5904055118110236
 30
0.0
 10
1.166007874015748
 20
-0.5904055118110236
 30
0.0
  0
SPLINE
  5
57
100
AcDbEntity
  8
Layer 1
 62
     9
100
AcDbSpline
210
0.0
220
0.0
230
1.0
 70
     1
 71
     3
 72
    20
 73
    16
 74
     0
 42
0.0000000001
 43
0.0000000001
 40
0.0
 40
0.0
 40
0.0
 40
0.0
 40
0.25
 40
0.25
 40
0.25
 40
0.25
 40
0.5
 40
0.5
 40
0.5
 40
0.5
 40
0.75
 40
0.75
 40
0.75
 40
0.75
 40
1.0
 40
1.0
 40
1.0
 40
1.0
 10
1.0976417322834646
 20
-0.4515669291338583
 30
0.0
 10
1.0976417322834646
 20
-0.4515669291338583
 30
0.0
 10
1.7536732283464567
 20
-0.0889606299212598
 30
0.0
 10
1.7536732283464567
 20
-0.0889606299212598
 30
0.0
 10
1.7536732283464567
 20
-0.0889606299212598
 30
0.0
 10
1.7536732283464567
 20
-0.0889606299212598
 30
0.0
 10
1.6732125984251969
 20
0.0437047244094488
 30
0.0
 10
1.6732125984251969
 20
0.0437047244094488
 30
0.0
 10
1.6732125984251969
 20
0.0437047244094488
 30
0.0
 10
1.6732125984251969
 20
0.0437047244094488
 30
0.0
 10
1.0171811023622048
 20
-0.3189015748031496
 30
0.0
 10
1.0171811023622048
 20
-0.3189015748031496
 30
0.0
 10
1.0171811023622048
 20
-0.3189015748031496
 30
0.0
 10
1.0171811023622048
 20
-0.3189015748031496
 30
0.0
 10
1.0976417322834646
 20
-0.4515669291338583
 30
0.0
 10
1.0976417322834646
 20
-0.4515669291338583
 30
0.0
  0
SPLINE
  5
58
100
AcDbEntity
  8
Layer 1
 62
     9
100
AcDbSpline
210
0.0
220
0.0
230
1.0
 70
     1
 71
     3
 72
    20
 73
    16
 74
     0
 42
0.0000000001
 43
0.0000000001
 40
0.0
 40
0.0
 40
0.0
 40
0.0
 40
0.25
 40
0.25
 40
0.25
 40
0.25
 40
0.5
 40
0.5
 40
0.5
 40
0.5
 40
0.75
 40
0.75
 40
0.75
 40
0.75
 40
1.0
 40
1.0
 40
1.0
 40
1.0
 10
1.0171811023622048
 20
-0.3189015748031496
 30
0.0
 10
1.0171811023622048
 20
-0.3189015748031496
 30
0.0
 10
1.6732125984251969
 20
0.0437047244094488
 30
0.0
 10
1.6732125984251969
 20
0.0437047244094488
 30
0.0
 10
1.6732125984251969
 20
0.0437047244094488
 30
0.0
 10
1.6732125984251969
 20
0.0437047244094488
 30
0.0
 10
1.5808228346456694
 20
0.1690944881889764
 30
0.0
 10
1.5808228346456694
 20
0.1690944881889764
 30
0.0
 10
1.5808228346456694
 20
0.1690944881889764
 30
0.0
 10
1.5808228346456694
 20
0.1690944881889764
 30
0.0
 10
0.9247913385826772
 20
-0.1935118110236221
 30
0.0
 10
0.9247913385826772
 20
-0.1935118110236221
 30
0.0
 10
0.9247913385826772
 20
-0.1935118110236221
 30
0.0
 10
0.9247913385826772
 20
-0.1935118110236221
 30
0.0
 10
1.0171811023622048
 20
-0.3189015748031496
 30
0.0
 10
1.0171811023622048
 20
-0.3189015748031496
 30
0.0
  0
SPLINE
  5
59
100
AcDbEntity
  8
Layer 1
 62
     9
100
AcDbSpline
210
0.0
220
0.0
230
1.0
 70
     1
 71
     3
 72
    20
 73
    16
 74
     0
 42
0.0000000001
 43
0.0000000001
 40
0.0
 40
0.0
 40
0.0
 40
0.0
 40
0.25
 40
0.25
 40
0.25
 40
0.25
 40
0.5
 40
0.5
 40
0.5
 40
0.5
 40
0.75
 40
0.75
 40
0.75
 40
0.75
 40
1.0
 40
1.0
 40
1.0
 40
1.0
 10
0.9247913385826772
 20
-0.1935118110236221
 30
0.0
 10
0.9247913385826772
 20
-0.1935118110236221
 30
0.0
 10
1.5808228346456694
 20
0.1690944881889764
 30
0.0
 10
1.5808228346456694
 20
0.1690944881889764
 30
0.0
 10
1.5808228346456694
 20
0.1690944881889764
 30
0.0
 10
1.5808228346456694
 20
0.1690944881889764
 30
0.0
 10
1.4766968503937008
 20
0.2861023622047244
 30
0.0
 10
1.4766968503937008
 20
0.2861023622047244
 30
0.0
 10
1.4766968503937008
 20
0.2861023622047244
 30
0.0
 10
1.4766968503937008
 20
0.2861023622047244
 30
0.0
 10
0.8206653543307086
 20
-0.076503937007874
 30
0.0
 10
0.8206653543307086
 20
-0.076503937007874
 30
0.0
 10
0.8206653543307086
 20
-0.076503937007874
 30
0.0
 10
0.8206653543307086
 20
-0.076503937007874
 30
0.0
 10
0.9247913385826772
 20
-0.1935118110236221
 30
0.0
 10
0.9247913385826772
 20
-0.1935118110236221
 30
0.0
  0
SPLINE
  5
5A
100
AcDbEntity
  8
Layer 1
 62
     9
100
AcDbSpline
210
0.0
220
0.0
230
1.0
 70
     1
 71
     3
 72
    20
 73
    16
 74
     0
 42
0.0000000001
 43
0.0000000001
 40
0.0
 40
0.0
 40
0.0
 40
0.0
 40
0.25
 40
0.25
 40
0.25
 40
0.25
 40
0.5
 40
0.5
 40
0.5
 40
0.5
 40
0.75
 40
0.75
 40
0.75
 40
0.75
 40
1.0
 40
1.0
 40
1.0
 40
1.0
 10
0.8206653543307086
 20
-0.076503937007874
 30
0.0
 10
0.8206653543307086
 20
-0.076503937007874
 30
0.0
 10
1.4766968503937008
 20
0.2861023622047244
 30
0.0
 10
1.4766968503937008
 20
0.2861023622047244
 30
0.0
 10
1.4766968503937008
 20
0.2861023622047244
 30
0.0
 10
1.4766968503937008
 20
0.2861023622047244
 30
0.0
 10
1.3609921259842521
 20
0.3936023622047244
 30
0.0
 10
1.3609921259842521
 20
0.3936023622047244
 30
0.0
 10
1.3609921259842521
 20
0.3936023622047244
 30
0.0
 10
1.3609921259842521
 20
0.3936023622047244
 30
0.0
 10
0.7049606299212599
 20
0.030996062992126
 30
0.0
 10
0.7049606299212599
 20
0.030996062992126
 30
0.0
 10
0.7049606299212599
 20
0.030996062992126
 30
0.0
 10
0.7049606299212599
 20
0.030996062992126
 30
0.0
 10
0.8206653543307086
 20
-0.076503937007874
 30
0.0
 10
0.8206653543307086
 20
-0.076503937007874
 30
0.0
  0
SPLINE
  5
5B
100
AcDbEntity
  8
Layer 1
 62
     9
100
AcDbSpline
210
0.0
220
0.0
230
1.0
 70
     1
 71
     3
 72
    20
 73
    16
 74
     0
 42
0.0000000001
 43
0.0000000001
 40
0.0
 40
0.0
 40
0.0
 40
0.0
 40
0.25
 40
0.25
 40
0.25
 40
0.25
 40
0.5
 40
0.5
 40
0.5
 40
0.5
 40
0.75
 40
0.75
 40
0.75
 40
0.75
 40
1.0
 40
1.0
 40
1.0
 40
1.0
 10
0.7049606299212599
 20
0.030996062992126
 30
0.0
 10
0.7049606299212599
 20
0.030996062992126
 30
0.0
 10
1.3609921259842521
 20
0.3936023622047244
 30
0.0
 10
1.3609921259842521
 20
0.3936023622047244
 30
0.0
 10
1.3609921259842521
 20
0.3936023622047244
 30
0.0
 10
1.3609921259842521
 20
0.3936023622047244
 30
0.0
 10
1.2339133858267717
 20
0.490488188976378
 30
0.0
 10
1.2339133858267717
 20
0.490488188976378
 30
0.0
 10
1.2339133858267717
 20
0.490488188976378
 30
0.0
 10
1.2339133858267717
 20
0.490488188976378
 30
0.0
 10
0.5778818897637795
 20
0.1278818897637795
 30
0.0
 10
0.5778818897637795
 20
0.1278818897637795
 30
0.0
 10
0.5778818897637795
 20
0.1278818897637795
 30
0.0
 10
0.5778818897637795
 20
0.1278818897637795
 30
0.0
 10
0.7049606299212599
 20
0.030996062992126
 30
0.0
 10
0.7049606299212599
 20
0.030996062992126
 30
0.0
  0
SPLINE
  5
5C
100
AcDbEntity
  8
Layer 1
 62
     9
100
AcDbSpline
210
0.0
220
0.0
230
1.0
 70
     1
 71
     3
 72
    20
 73
    16
 74
     0
 42
0.0000000001
 43
0.0000000001
 40
0.0
 40
0.0
 40
0.0
 40
0.0
 40
0.25
 40
0.25
 40
0.25
 40
0.25
 40
0.5
 40
0.5
 40
0.5
 40
0.5
 40
0.75
 40
0.75
 40
0.75
 40
0.75
 40
1.0
 40
1.0
 40
1.0
 40
1.0
 10
0.5778818897637795
 20
0.1278818897637795
 30
0.0
 10
0.5778818897637795
 20
0.1278818897637795
 30
0.0
 10
1.2339133858267717
 20
0.490488188976378
 30
0.0
 10
1.2339133858267717
 20
0.490488188976378
 30
0.0
 10
1.2339133858267717
 20
0.490488188976378
 30
0.0
 10
1.2339133858267717
 20
0.490488188976378
 30
0.0
 10
1.0956220472440945
 20
0.5756377952755906
 30
0.0
 10
1.0956220472440945
 20
0.5756377952755906
 30
0.0
 10
1.0956220472440945
 20
0.5756377952755906
 30
0.0
 10
1.0956220472440945
 20
0.5756377952755906
 30
0.0
 10
0.4395905511811024
 20
0.2130314960629921
 30
0.0
 10
0.4395905511811024
 20
0.2130314960629921
 30
0.0
 10
0.4395905511811024
 20
0.2130314960629921
 30
0.0
 10
0.4395905511811024
 20
0.2130314960629921
 30
0.0
 10
0.5778818897637795
 20
0.1278818897637795
 30
0.0
 10
0.5778818897637795
 20
0.1278818897637795
 30
0.0
  0
SPLINE
  5
5D
100
AcDbEntity
  8
Layer 1
 62
   253
100
AcDbSpline
210
0.0
220
0.0
230
1.0
 70
     1
 71
     3
 72
    20
 73
    16
 74
     0
 42
0.0000000001
 43
0.0000000001
 40
0.0
 40
0.0
 40
0.0
 40
0.0
 40
0.25
 40
0.25
 40
0.25
 40
0.25
 40
0.5
 40
0.5
 40
0.5
 40
0.5
 40
0.75
 40
0.75
 40
0.75
 40
0.75
 40
1.0
 40
1.0
 40
1.0
 40
1.0
 10
0.4395905511811024
 20
0.2130314960629921
 30
0.0
 10
0.4395905511811024
 20
0.2130314960629921
 30
0.0
 10
1.0956220472440945
 20
0.5756377952755906
 30
0.0
 10
1.0956220472440945
 20
0.5756377952755906
 30
0.0
 10
1.0956220472440945
 20
0.5756377952755906
 30
0.0
 10
1.0956220472440945
 20
0.5756377952755906
 30
0.0
 10
0.9463149606299213
 20
0.6479488188976378
 30
0.0
 10
0.9463149606299213
 20
0.6479488188976378
 30
0.0
 10
0.9463149606299213
 20
0.6479488188976378
 30
0.0
 10
0.9463149606299213
 20
0.6479488188976378
 30
0.0
 10
0.2902834645669292
 20
0.2853425196850394
 30
0.0
 10
0.2902834645669292
 20
0.2853425196850394
 30
0.0
 10
0.2902834645669292
 20
0.2853425196850394
 30
0.0
 10
0.2902834645669292
 20
0.2853425196850394
 30
0.0
 10
0.4395905511811024
 20
0.2130314960629921
 30
0.0
 10
0.4395905511811024
 20
0.2130314960629921
 30
0.0
  0
SPLINE
  5
5E
100
AcDbEntity
  8
Layer 1
 62
   253
100
AcDbSpline
210
0.0
220
0.0
230
1.0
 70
     1
 71
     3
 72
    20
 73
    16
 74
     0
 42
0.0000000001
 43
0.0000000001
 40
0.0
 40
0.0
 40
0.0
 40
0.0
 40
0.25
 40
0.25
 40
0.25
 40
0.25
 40
0.5
 40
0.5
 40
0.5
 40
0.5
 40
0.75
 40
0.75
 40
0.75
 40
0.75
 40
1.0
 40
1.0
 40
1.0
 40
1.0
 10
0.2902834645669292
 20
0.2853425196850394
 30
0.0
 10
0.2902834645669292
 20
0.2853425196850394
 30
0.0
 10
0.9463149606299213
 20
0.6479488188976378
 30
0.0
 10
0.9463149606299213
 20
0.6479488188976378
 30
0.0
 10
0.9463149606299213
 20
0.6479488188976378
 30
0.0
 10
0.9463149606299213
 20
0.6479488188976378
 30
0.0
 10
0.7861535433070866
 20
0.7062874015748032
 30
0.0
 10
0.7861535433070866
 20
0.7062874015748032
 30
0.0
 10
0.7861535433070866
 20
0.7062874015748032
 30
0.0
 10
0.7861535433070866
 20
0.7062874015748032
 30
0.0
 10
0.1301220472440945
 20
0.3436811023622047
 30
0.0
 10
0.1301220472440945
 20
0.3436811023622047
 30
0.0
 10
0.1301220472440945
 20
0.3436811023622047
 30
0.0
 10
0.1301220472440945
 20
0.3436811023622047
 30
0.0
 10
0.2902834645669292
 20
0.2853425196850394
 30
0.0
 10
0.2902834645669292
 20
0.2853425196850394
 30
0.0
  0
SPLINE
  5
5F
100
AcDbEntity
  8
Layer 1
 62
   253
100
AcDbSpline
210
0.0
220
0.0
230
1.0
 70
     1
 71
     3
 72
    20
 73
    16
 74
     0
 42
0.0000000001
 43
0.0000000001
 40
0.0
 40
0.0
 40
0.0
 40
0.0
 40
0.25
 40
0.25
 40
0.25
 40
0.25
 40
0.5
 40
0.5
 40
0.5
 40
0.5
 40
0.75
 40
0.75
 40
0.75
 40
0.75
 40
1.0
 40
1.0
 40
1.0
 40
1.0
 10
0.1301220472440945
 20
0.3436811023622047
 30
0.0
 10
0.1301220472440945
 20
0.3436811023622047
 30
0.0
 10
0.7861535433070866
 20
0.7062874015748032
 30
0.0
 10
0.7861535433070866
 20
0.7062874015748032
 30
0.0
 10
0.7861535433070866
 20
0.7062874015748032
 30
0.0
 10
0.7861535433070866
 20
0.7062874015748032
 30
0.0
 10
0.6153346456692914
 20
0.7495629921259843
 30
0.0
 10
0.6153346456692914
 20
0.7495629921259843
 30
0.0
 10
0.6153346456692914
 20
0.7495629921259843
 30
0.0
 10
0.6153346456692914
 20
0.7495629921259843
 30
0.0
 10
-0.0406968503937008
 20
0.3869566929133859
 30
0.0
 10
-0.0406968503937008
 20
0.3869566929133859
 30
0.0
 10
-0.0406968503937008
 20
0.3869566929133859
 30
0.0
 10
-0.0406968503937008
 20
0.3869566929133859
 30
0.0
 10
0.1301220472440945
 20
0.3436811023622047
 30
0.0
 10
0.1301220472440945
 20
0.3436811023622047
 30
0.0
  0
SPLINE
  5
60
100
AcDbEntity
  8
Layer 1
 62
   253
100
AcDbSpline
210
0.0
220
0.0
230
1.0
 70
     1
 71
     3
 72
    20
 73
    16
 74
     0
 42
0.0000000001
 43
0.0000000001
 40
0.0
 40
0.0
 40
0.0
 40
0.0
 40
0.25
 40
0.25
 40
0.25
 40
0.25
 40
0.5
 40
0.5
 40
0.5
 40
0.5
 40
0.75
 40
0.75
 40
0.75
 40
0.75
 40
1.0
 40
1.0
 40
1.0
 40
1.0
 10
-0.0406968503937008
 20
0.3869566929133859
 30
0.0
 10
-0.0406968503937008
 20
0.3869566929133859
 30
0.0
 10
0.6153346456692914
 20
0.7495629921259843
 30
0.0
 10
0.6153346456692914
 20
0.7495629921259843
 30
0.0
 10
0.6153346456692914
 20
0.7495629921259843
 30
0.0
 10
0.6153346456692914
 20
0.7495629921259843
 30
0.0
 10
0.4340275590551181
 20
0.7766456692913386
 30
0.0
 10
0.4340275590551181
 20
0.7766456692913386
 30
0.0
 10
0.4340275590551181
 20
0.7766456692913386
 30
0.0
 10
0.4340275590551181
 20
0.7766456692913386
 30
0.0
 10
-0.222003937007874
 20
0.4140393700787402
 30
0.0
 10
-0.222003937007874
 20
0.4140393700787402
 30
0.0
 10
-0.222003937007874
 20
0.4140393700787402
 30
0.0
 10
-0.222003937007874
 20
0.4140393700787402
 30
0.0
 10
-0.0406968503937008
 20
0.3869566929133859
 30
0.0
 10
-0.0406968503937008
 20
0.3869566929133859
 30
0.0
  0
SPLINE
  5
61
100
AcDbEntity
  8
Layer 1
 62
   253
100
AcDbSpline
210
0.0
220
0.0
230
1.0
 70
     1
 71
     3
 72
    20
 73
    16
 74
     0
 42
0.0000000001
 43
0.0000000001
 40
0.0
 40
0.0
 40
0.0
 40
0.0
 40
0.25
 40
0.25
 40
0.25
 40
0.25
 40
0.5
 40
0.5
 40
0.5
 40
0.5
 40
0.75
 40
0.75
 40
0.75
 40
0.75
 40
1.0
 40
1.0
 40
1.0
 40
1.0
 10
-0.222003937007874
 20
0.4140393700787402
 30
0.0
 10
-0.222003937007874
 20
0.4140393700787402
 30
0.0
 10
0.4340275590551181
 20
0.7766456692913386
 30
0.0
 10
0.4340275590551181
 20
0.7766456692913386
 30
0.0
 10
0.4340275590551181
 20
0.7766456692913386
 30
0.0
 10
0.4340275590551181
 20
0.7766456692913386
 30
0.0
 10
0.2424055118110236
 20
0.7864291338582677
 30
0.0
 10
0.2424055118110236
 20
0.7864291338582677
 30
0.0
 10
0.2424055118110236
 20
0.7864291338582677
 30
0.0
 10
0.2424055118110236
 20
0.7864291338582677
 30
0.0
 10
-0.4136259842519685
 20
0.4238228346456693
 30
0.0
 10
-0.4136259842519685
 20
0.4238228346456693
 30
0.0
 10
-0.4136259842519685
 20
0.4238228346456693
 30
0.0
 10
-0.4136259842519685
 20
0.4238228346456693
 30
0.0
 10
-0.222003937007874
 20
0.4140393700787402
 30
0.0
 10
-0.222003937007874
 20
0.4140393700787402
 30
0.0
  0
SPLINE
  5
62
100
AcDbEntity
  8
Layer 1
370
     5
100
AcDbSpline
210
0.0
220
0.0
230
1.0
 70
     1
 71
     3
 72
   228
 73
   224
 74
     0
 42
0.0000000001
 43
0.0000000001
 40
0.0
 40
0.0
 40
0.0
 40
0.0
 40
0.0178571428571429
 40
0.0178571428571429
 40
0.0178571428571429
 40
0.0178571428571429
 40
0.0357142857142857
 40
0.0357142857142857
 40
0.0357142857142857
 40
0.0357142857142857
 40
0.0535714285714286
 40
0.0535714285714286
 40
0.0535714285714286
 40
0.0535714285714286
 40
0.0714285714285714
 40
0.0714285714285714
 40
0.0714285714285714
 40
0.0714285714285714
 40
0.0892857142857143
 40
0.0892857142857143
 40
0.0892857142857143
 40
0.0892857142857143
 40
0.1071428571428571
 40
0.1071428571428571
 40
0.1071428571428571
 40
0.1071428571428571
 40
0.125
 40
0.125
 40
0.125
 40
0.125
 40
0.1428571428571428
 40
0.1428571428571428
 40
0.1428571428571428
 40
0.1428571428571428
 40
0.1607142857142857
 40
0.1607142857142857
 40
0.1607142857142857
 40
0.1607142857142857
 40
0.1785714285714285
 40
0.1785714285714285
 40
0.1785714285714285
 40
0.1785714285714285
 40
0.1964285714285714
 40
0.1964285714285714
 40
0.1964285714285714
 40
0.1964285714285714
 40
0.2142857142857142
 40
0.2142857142857142
 40
0.2142857142857142
 40
0.2142857142857142
 40
0.2321428571428571
 40
0.2321428571428571
 40
0.2321428571428571
 40
0.2321428571428571
 40
0.2499999999999999
 40
0.2499999999999999
 40
0.2499999999999999
 40
0.2499999999999999
 40
0.2678571428571428
 40
0.2678571428571428
 40
0.2678571428571428
 40
0.2678571428571428
 40
0.2857142857142856
 40
0.2857142857142856
 40
0.2857142857142856
 40
0.2857142857142856
 40
0.3035714285714285
 40
0.3035714285714285
 40
0.3035714285714285
 40
0.3035714285714285
 40
0.3214285714285713
 40
0.3214285714285713
 40
0.3214285714285713
 40
0.3214285714285713
 40
0.3392857142857142
 40
0.3392857142857142
 40
0.3392857142857142
 40
0.3392857142857142
 40
0.357142857142857
 40
0.357142857142857
 40
0.357142857142857
 40
0.357142857142857
 40
0.3749999999999999
 40
0.3749999999999999
 40
0.3749999999999999
 40
0.3749999999999999
 40
0.3928571428571427
 40
0.3928571428571427
 40
0.3928571428571427
 40
0.3928571428571427
 40
0.4107142857142856
 40
0.4107142857142856
 40
0.4107142857142856
 40
0.4107142857142856
 40
0.4285714285714284
 40
0.4285714285714284
 40
0.4285714285714284
 40
0.4285714285714284
 40
0.4464285714285713
 40
0.4464285714285713
 40
0.4464285714285713
 40
0.4464285714285713
 40
0.4642857142857141
 40
0.4642857142857141
 40
0.4642857142857141
 40
0.4642857142857141
 40
0.482142857142857
 40
0.482142857142857
 40
0.482142857142857
 40
0.482142857142857
 40
0.4999999999999998
 40
0.4999999999999998
 40
0.4999999999999998
 40
0.4999999999999998
 40
0.5178571428571427
 40
0.5178571428571427
 40
0.5178571428571427
 40
0.5178571428571427
 40
0.5357142857142856
 40
0.5357142857142856
 40
0.5357142857142856
 40
0.5357142857142856
 40
0.5535714285714285
 40
0.5535714285714285
 40
0.5535714285714285
 40
0.5535714285714285
 40
0.5714285714285714
 40
0.5714285714285714
 40
0.5714285714285714
 40
0.5714285714285714
 40
0.5892857142857143
 40
0.5892857142857143
 40
0.5892857142857143
 40
0.5892857142857143
 40
0.6071428571428572
 40
0.6071428571428572
 40
0.6071428571428572
 40
0.6071428571428572
 40
0.6250000000000001
 40
0.6250000000000001
 40
0.6250000000000001
 40
0.6250000000000001
 40
0.642857142857143
 40
0.642857142857143
 40
0.642857142857143
 40
0.642857142857143
 40
0.6607142857142859
 40
0.6607142857142859
 40
0.6607142857142859
 40
0.6607142857142859
 40
0.6785714285714288
 40
0.6785714285714288
 40
0.6785714285714288
 40
0.6785714285714288
 40
0.6964285714285717
 40
0.6964285714285717
 40
0.6964285714285717
 40
0.6964285714285717
 40
0.7142857142857146
 40
0.7142857142857146
 40
0.7142857142857146
 40
0.7142857142857146
 40
0.7321428571428575
 40
0.7321428571428575
 40
0.7321428571428575
 40
0.7321428571428575
 40
0.7500000000000004
 40
0.7500000000000004
 40
0.7500000000000004
 40
0.7500000000000004
 40
0.7678571428571434
 40
0.7678571428571434
 40
0.7678571428571434
 40
0.7678571428571434
 40
0.7857142857142863
 40
0.7857142857142863
 40
0.7857142857142863
 40
0.7857142857142863
 40
0.8035714285714292
 40
0.8035714285714292
 40
0.8035714285714292
 40
0.8035714285714292
 40
0.8214285714285721
 40
0.8214285714285721
 40
0.8214285714285721
 40
0.8214285714285721
 40
0.839285714285715
 40
0.839285714285715
 40
0.839285714285715
 40
0.839285714285715
 40
0.8571428571428579
 40
0.8571428571428579
 40
0.8571428571428579
 40
0.8571428571428579
 40
0.8750000000000008
 40
0.8750000000000008
 40
0.8750000000000008
 40
0.8750000000000008
 40
0.8928571428571437
 40
0.8928571428571437
 40
0.8928571428571437
 40
0.8928571428571437
 40
0.9107142857142866
 40
0.9107142857142866
 40
0.9107142857142866
 40
0.9107142857142866
 40
0.9285714285714295
 40
0.9285714285714295
 40
0.9285714285714295
 40
0.9285714285714295
 40
0.9464285714285724
 40
0.9464285714285724
 40
0.9464285714285724
 40
0.9464285714285724
 40
0.9642857142857153
 40
0.9642857142857153
 40
0.9642857142857153
 40
0.9642857142857153
 40
0.9821428571428582
 40
0.9821428571428582
 40
0.9821428571428582
 40
0.9821428571428582
 40
1.0
 40
1.0
 40
1.0
 40
1.0
 10
0.6169251968503937
 20
-2.6543897637795277
 30
0.0
 10
0.6169251968503937
 20
-2.6543897637795277
 30
0.0
 10
1.272956692913386
 20
-2.2917834645669291
 30
0.0
 10
1.272956692913386
 20
-2.2917834645669291
 30
0.0
 10
1.272956692913386
 20
-2.2917834645669291
 30
0.0
 10
1.272956692913386
 20
-2.2917834645669291
 30
0.0
 10
1.4076968503937008
 20
-2.1942677165354332
 30
0.0
 10
1.4076968503937008
 20
-2.1942677165354332
 30
0.0
 10
1.4076968503937008
 20
-2.1942677165354332
 30
0.0
 10
1.4076968503937008
 20
-2.1942677165354332
 30
0.0
 10
1.5276338582677167
 20
-2.086192913385827
 30
0.0
 10
1.5276338582677167
 20
-2.086192913385827
 30
0.0
 10
1.5276338582677167
 20
-2.086192913385827
 30
0.0
 10
1.5276338582677167
 20
-2.086192913385827
 30
0.0
 10
1.63296062992126
 20
-1.9686850393700788
 30
0.0
 10
1.63296062992126
 20
-1.9686850393700788
 30
0.0
 10
1.63296062992126
 20
-1.9686850393700788
 30
0.0
 10
1.63296062992126
 20
-1.9686850393700788
 30
0.0
 10
1.7238425196850395
 20
-1.8428385826771654
 30
0.0
 10
1.7238425196850395
 20
-1.8428385826771654
 30
0.0
 10
1.7238425196850395
 20
-1.8428385826771654
 30
0.0
 10
1.7238425196850395
 20
-1.8428385826771654
 30
0.0
 10
1.8004685039370079
 20
-1.7097913385826773
 30
0.0
 10
1.8004685039370079
 20
-1.7097913385826773
 30
0.0
 10
1.8004685039370079
 20
-1.7097913385826773
 30
0.0
 10
1.8004685039370079
 20
-1.7097913385826773
 30
0.0
 10
1.863011811023622
 20
-1.5706417322834647
 30
0.0
 10
1.863011811023622
 20
-1.5706417322834647
 30
0.0
 10
1.863011811023622
 20
-1.5706417322834647
 30
0.0
 10
1.863011811023622
 20
-1.5706417322834647
 30
0.0
 10
1.9116653543307087
 20
-1.4265118110236221
 30
0.0
 10
1.9116653543307087
 20
-1.4265118110236221
 30
0.0
 10
1.9116653543307087
 20
-1.4265118110236221
 30
0.0
 10
1.9116653543307087
 20
-1.4265118110236221
 30
0.0
 10
1.9465905511811024
 20
-1.278511811023622
 30
0.0
 10
1.9465905511811024
 20
-1.278511811023622
 30
0.0
 10
1.9465905511811024
 20
-1.278511811023622
 30
0.0
 10
1.9465905511811024
 20
-1.278511811023622
 30
0.0
 10
1.967984251968504
 20
-1.1277598425196851
 30
0.0
 10
1.967984251968504
 20
-1.1277598425196851
 30
0.0
 10
1.967984251968504
 20
-1.1277598425196851
 30
0.0
 10
1.967984251968504
 20
-1.1277598425196851
 30
0.0
 10
1.9760118110236222
 20
-0.9753622047244095
 30
0.0
 10
1.9760118110236222
 20
-0.9753622047244095
 30
0.0
 10
1.9760118110236222
 20
-0.9753622047244095
 30
0.0
 10
1.9760118110236222
 20
-0.9753622047244095
 30
0.0
 10
1.9708661417322835
 20
-0.8224488188976379
 30
0.0
 10
1.9708661417322835
 20
-0.8224488188976379
 30
0.0
 10
1.9708661417322835
 20
-0.8224488188976379
 30
0.0
 10
1.9708661417322835
 20
-0.8224488188976379
 30
0.0
 10
1.9527047244094489
 20
-0.6701141732283464
 30
0.0
 10
1.9527047244094489
 20
-0.6701141732283464
 30
0.0
 10
1.9527047244094489
 20
-0.6701141732283464
 30
0.0
 10
1.9527047244094489
 20
-0.6701141732283464
 30
0.0
 10
1.9217322834645669
 20
-0.519484251968504
 30
0.0
 10
1.9217322834645669
 20
-0.519484251968504
 30
0.0
 10
1.9217322834645669
 20
-0.519484251968504
 30
0.0
 10
1.9217322834645669
 20
-0.519484251968504
 30
0.0
 10
1.8781141732283466
 20
-0.3716732283464567
 30
0.0
 10
1.8781141732283466
 20
-0.3716732283464567
 30
0.0
 10
1.8781141732283466
 20
-0.3716732283464567
 30
0.0
 10
1.8781141732283466
 20
-0.3716732283464567
 30
0.0
 10
1.8220393700787403
 20
-0.2277992125984252
 30
0.0
 10
1.8220393700787403
 20
-0.2277992125984252
 30
0.0
 10
1.8220393700787403
 20
-0.2277992125984252
 30
0.0
 10
1.8220393700787403
 20
-0.2277992125984252
 30
0.0
 10
1.7536732283464567
 20
-0.0889606299212598
 30
0.0
 10
1.7536732283464567
 20
-0.0889606299212598
 30
0.0
 10
1.7536732283464567
 20
-0.0889606299212598
 30
0.0
 10
1.7536732283464567
 20
-0.0889606299212598
 30
0.0
 10
1.6732125984251969
 20
0.0437047244094488
 30
0.0
 10
1.6732125984251969
 20
0.0437047244094488
 30
0.0
 10
1.6732125984251969
 20
0.0437047244094488
 30
0.0
 10
1.6732125984251969
 20
0.0437047244094488
 30
0.0
 10
1.5808228346456694
 20
0.1690944881889764
 30
0.0
 10
1.5808228346456694
 20
0.1690944881889764
 30
0.0
 10
1.5808228346456694
 20
0.1690944881889764
 30
0.0
 10
1.5808228346456694
 20
0.1690944881889764
 30
0.0
 10
1.4766968503937008
 20
0.2861023622047244
 30
0.0
 10
1.4766968503937008
 20
0.2861023622047244
 30
0.0
 10
1.4766968503937008
 20
0.2861023622047244
 30
0.0
 10
1.4766968503937008
 20
0.2861023622047244
 30
0.0
 10
1.3609921259842521
 20
0.3936023622047244
 30
0.0
 10
1.3609921259842521
 20
0.3936023622047244
 30
0.0
 10
1.3609921259842521
 20
0.3936023622047244
 30
0.0
 10
1.3609921259842521
 20
0.3936023622047244
 30
0.0
 10
1.2339133858267717
 20
0.490488188976378
 30
0.0
 10
1.2339133858267717
 20
0.490488188976378
 30
0.0
 10
1.2339133858267717
 20
0.490488188976378
 30
0.0
 10
1.2339133858267717
 20
0.490488188976378
 30
0.0
 10
1.0956220472440945
 20
0.5756377952755906
 30
0.0
 10
1.0956220472440945
 20
0.5756377952755906
 30
0.0
 10
1.0956220472440945
 20
0.5756377952755906
 30
0.0
 10
1.0956220472440945
 20
0.5756377952755906
 30
0.0
 10
0.9463149606299213
 20
0.6479488188976378
 30
0.0
 10
0.9463149606299213
 20
0.6479488188976378
 30
0.0
 10
0.9463149606299213
 20
0.6479488188976378
 30
0.0
 10
0.9463149606299213
 20
0.6479488188976378
 30
0.0
 10
0.7861535433070866
 20
0.7062874015748032
 30
0.0
 10
0.7861535433070866
 20
0.7062874015748032
 30
0.0
 10
0.7861535433070866
 20
0.7062874015748032
 30
0.0
 10
0.7861535433070866
 20
0.7062874015748032
 30
0.0
 10
0.6153346456692914
 20
0.7495629921259843
 30
0.0
 10
0.6153346456692914
 20
0.7495629921259843
 30
0.0
 10
0.6153346456692914
 20
0.7495629921259843
 30
0.0
 10
0.6153346456692914
 20
0.7495629921259843
 30
0.0
 10
0.4340275590551181
 20
0.7766456692913386
 30
0.0
 10
0.4340275590551181
 20
0.7766456692913386
 30
0.0
 10
0.4340275590551181
 20
0.7766456692913386
 30
0.0
 10
0.4340275590551181
 20
0.7766456692913386
 30
0.0
 10
0.2424055118110236
 20
0.7864291338582677
 30
0.0
 10
0.2424055118110236
 20
0.7864291338582677
 30
0.0
 10
0.2424055118110236
 20
0.7864291338582677
 30
0.0
 10
0.2424055118110236
 20
0.7864291338582677
 30
0.0
 10
-0.4136259842519685
 20
0.4238228346456693
 30
0.0
 10
-0.4136259842519685
 20
0.4238228346456693
 30
0.0
 10
-0.4136259842519685
 20
0.4238228346456693
 30
0.0
 10
-0.4136259842519685
 20
0.4238228346456693
 30
0.0
 10
-0.222003937007874
 20
0.4140393700787402
 30
0.0
 10
-0.222003937007874
 20
0.4140393700787402
 30
0.0
 10
-0.222003937007874
 20
0.4140393700787402
 30
0.0
 10
-0.222003937007874
 20
0.4140393700787402
 30
0.0
 10
-0.0406968503937008
 20
0.3869566929133859
 30
0.0
 10
-0.0406968503937008
 20
0.3869566929133859
 30
0.0
 10
-0.0406968503937008
 20
0.3869566929133859
 30
0.0
 10
-0.0406968503937008
 20
0.3869566929133859
 30
0.0
 10
0.1301220472440945
 20
0.3436811023622047
 30
0.0
 10
0.1301220472440945
 20
0.3436811023622047
 30
0.0
 10
0.1301220472440945
 20
0.3436811023622047
 30
0.0
 10
0.1301220472440945
 20
0.3436811023622047
 30
0.0
 10
0.2902834645669292
 20
0.2853425196850394
 30
0.0
 10
0.2902834645669292
 20
0.2853425196850394
 30
0.0
 10
0.2902834645669292
 20
0.2853425196850394
 30
0.0
 10
0.2902834645669292
 20
0.2853425196850394
 30
0.0
 10
0.4395905511811024
 20
0.2130314960629921
 30
0.0
 10
0.4395905511811024
 20
0.2130314960629921
 30
0.0
 10
0.4395905511811024
 20
0.2130314960629921
 30
0.0
 10
0.4395905511811024
 20
0.2130314960629921
 30
0.0
 10
0.5778818897637795
 20
0.1278818897637795
 30
0.0
 10
0.5778818897637795
 20
0.1278818897637795
 30
0.0
 10
0.5778818897637795
 20
0.1278818897637795
 30
0.0
 10
0.5778818897637795
 20
0.1278818897637795
 30
0.0
 10
0.7049606299212599
 20
0.030996062992126
 30
0.0
 10
0.7049606299212599
 20
0.030996062992126
 30
0.0
 10
0.7049606299212599
 20
0.030996062992126
 30
0.0
 10
0.7049606299212599
 20
0.030996062992126
 30
0.0
 10
0.8206653543307086
 20
-0.076503937007874
 30
0.0
 10
0.8206653543307086
 20
-0.076503937007874
 30
0.0
 10
0.8206653543307086
 20
-0.076503937007874
 30
0.0
 10
0.8206653543307086
 20
-0.076503937007874
 30
0.0
 10
0.9247913385826772
 20
-0.1935118110236221
 30
0.0
 10
0.9247913385826772
 20
-0.1935118110236221
 30
0.0
 10
0.9247913385826772
 20
-0.1935118110236221
 30
0.0
 10
0.9247913385826772
 20
-0.1935118110236221
 30
0.0
 10
1.0171811023622048
 20
-0.3189015748031496
 30
0.0
 10
1.0171811023622048
 20
-0.3189015748031496
 30
0.0
 10
1.0171811023622048
 20
-0.3189015748031496
 30
0.0
 10
1.0171811023622048
 20
-0.3189015748031496
 30
0.0
 10
1.0976417322834646
 20
-0.4515669291338583
 30
0.0
 10
1.0976417322834646
 20
-0.4515669291338583
 30
0.0
 10
1.0976417322834646
 20
-0.4515669291338583
 30
0.0
 10
1.0976417322834646
 20
-0.4515669291338583
 30
0.0
 10
1.166007874015748
 20
-0.5904055118110236
 30
0.0
 10
1.166007874015748
 20
-0.5904055118110236
 30
0.0
 10
1.166007874015748
 20
-0.5904055118110236
 30
0.0
 10
1.166007874015748
 20
-0.5904055118110236
 30
0.0
 10
1.2220826771653543
 20
-0.7342795275590551
 30
0.0
 10
1.2220826771653543
 20
-0.7342795275590551
 30
0.0
 10
1.2220826771653543
 20
-0.7342795275590551
 30
0.0
 10
1.2220826771653543
 20
-0.7342795275590551
 30
0.0
 10
1.2657007874015749
 20
-0.8820905511811024
 30
0.0
 10
1.2657007874015749
 20
-0.8820905511811024
 30
0.0
 10
1.2657007874015749
 20
-0.8820905511811024
 30
0.0
 10
1.2657007874015749
 20
-0.8820905511811024
 30
0.0
 10
1.2966732283464568
 20
-1.0327204724409449
 30
0.0
 10
1.2966732283464568
 20
-1.0327204724409449
 30
0.0
 10
1.2966732283464568
 20
-1.0327204724409449
 30
0.0
 10
1.2966732283464568
 20
-1.0327204724409449
 30
0.0
 10
1.3148346456692914
 20
-1.1850551181102362
 30
0.0
 10
1.3148346456692914
 20
-1.1850551181102362
 30
0.0
 10
1.3148346456692914
 20
-1.1850551181102362
 30
0.0
 10
1.3148346456692914
 20
-1.1850551181102362
 30
0.0
 10
1.31998031496063
 20
-1.3379685039370079
 30
0.0
 10
1.31998031496063
 20
-1.3379685039370079
 30
0.0
 10
1.31998031496063
 20
-1.3379685039370079
 30
0.0
 10
1.31998031496063
 20
-1.3379685039370079
 30
0.0
 10
1.311952755905512
 20
-1.4903661417322835
 30
0.0
 10
1.311952755905512
 20
-1.4903661417322835
 30
0.0
 10
1.311952755905512
 20
-1.4903661417322835
 30
0.0
 10
1.311952755905512
 20
-1.4903661417322835
 30
0.0
 10
1.2905590551181103
 20
-1.6411181102362205
 30
0.0
 10
1.2905590551181103
 20
-1.6411181102362205
 30
0.0
 10
1.2905590551181103
 20
-1.6411181102362205
 30
0.0
 10
1.2905590551181103
 20
-1.6411181102362205
 30
0.0
 10
1.2556338582677167
 20
-1.7891181102362206
 30
0.0
 10
1.2556338582677167
 20
-1.7891181102362206
 30
0.0
 10
1.2556338582677167
 20
-1.7891181102362206
 30
0.0
 10
1.2556338582677167
 20
-1.7891181102362206
 30
0.0
 10
1.20698031496063
 20
-1.9332480314960632
 30
0.0
 10
1.20698031496063
 20
-1.9332480314960632
 30
0.0
 10
1.20698031496063
 20
-1.9332480314960632
 30
0.0
 10
1.20698031496063
 20
-1.9332480314960632
 30
0.0
 10
1.1444370078740158
 20
-2.0723976377952757
 30
0.0
 10
1.1444370078740158
 20
-2.0723976377952757
 30
0.0
 10
1.1444370078740158
 20
-2.0723976377952757
 30
0.0
 10
1.1444370078740158
 20
-2.0723976377952757
 30
0.0
 10
1.0678110236220473
 20
-2.2054448818897638
 30
0.0
 10
1.0678110236220473
 20
-2.2054448818897638
 30
0.0
 10
1.0678110236220473
 20
-2.2054448818897638
 30
0.0
 10
1.0678110236220473
 20
-2.2054448818897638
 30
0.0
 10
0.9769291338582677
 20
-2.3312913385826772
 30
0.0
 10
0.9769291338582677
 20
-2.3312913385826772
 30
0.0
 10
0.9769291338582677
 20
-2.3312913385826772
 30
0.0
 10
0.9769291338582677
 20
-2.3312913385826772
 30
0.0
 10
0.8716023622047244
 20
-2.4487992125984253
 30
0.0
 10
0.8716023622047244
 20
-2.4487992125984253
 30
0.0
 10
0.8716023622047244
 20
-2.4487992125984253
 30
0.0
 10
0.8716023622047244
 20
-2.4487992125984253
 30
0.0
 10
0.7516653543307087
 20
-2.5568740157480314
 30
0.0
 10
0.7516653543307087
 20
-2.5568740157480314
 30
0.0
 10
0.7516653543307087
 20
-2.5568740157480314
 30
0.0
 10
0.7516653543307087
 20
-2.5568740157480314
 30
0.0
 10
0.6169251968503937
 20
-2.6543897637795277
 30
0.0
 10
0.6169251968503937
 20
-2.6543897637795277
 30
0.0
  0
SPLINE
  5
63
100
AcDbEntity
  8
Layer 1
 62
   252
100
AcDbSpline
210
0.0
220
0.0
230
1.0
 70
     1
 71
     3
 72
    20
 73
    16
 74
     0
 42
0.0000000001
 43
0.0000000001
 40
0.0
 40
0.0
 40
0.0
 40
0.0
 40
0.25
 40
0.25
 40
0.25
 40
0.25
 40
0.5
 40
0.5
 40
0.5
 40
0.5
 40
0.75
 40
0.75
 40
0.75
 40
0.75
 40
1.0
 40
1.0
 40
1.0
 40
1.0
 10
-0.4136259842519685
 20
0.4238228346456693
 30
0.0
 10
-0.4136259842519685
 20
0.4238228346456693
 30
0.0
 10
0.2424055118110236
 20
0.7864291338582677
 30
0.0
 10
0.2424055118110236
 20
0.7864291338582677
 30
0.0
 10
0.2424055118110236
 20
0.7864291338582677
 30
0.0
 10
0.2424055118110236
 20
0.7864291338582677
 30
0.0
 10
-1.1554055118110236
 20
0.7864291338582677
 30
0.0
 10
-1.1554055118110236
 20
0.7864291338582677
 30
0.0
 10
-1.1554055118110236
 20
0.7864291338582677
 30
0.0
 10
-1.1554055118110236
 20
0.7864291338582677
 30
0.0
 10
-1.8114370078740158
 20
0.4238228346456693
 30
0.0
 10
-1.8114370078740158
 20
0.4238228346456693
 30
0.0
 10
-1.8114370078740158
 20
0.4238228346456693
 30
0.0
 10
-1.8114370078740158
 20
0.4238228346456693
 30
0.0
 10
-0.4136259842519685
 20
0.4238228346456693
 30
0.0
 10
-0.4136259842519685
 20
0.4238228346456693
 30
0.0
  0
SPLINE
  5
64
100
AcDbEntity
  8
Layer 1
370
     5
100
AcDbSpline
210
0.0
220
0.0
230
1.0
 70
     1
 71
     3
 72
    20
 73
    16
 74
     0
 42
0.0000000001
 43
0.0000000001
 40
0.0
 40
0.0
 40
0.0
 40
0.0
 40
0.25
 40
0.25
 40
0.25
 40
0.25
 40
0.5
 40
0.5
 40
0.5
 40
0.5
 40
0.75
 40
0.75
 40
0.75
 40
0.75
 40
1.0
 40
1.0
 40
1.0
 40
1.0
 10
-0.4136259842519685
 20
0.4238228346456693
 30
0.0
 10
-0.4136259842519685
 20
0.4238228346456693
 30
0.0
 10
0.2424055118110236
 20
0.7864291338582677
 30
0.0
 10
0.2424055118110236
 20
0.7864291338582677
 30
0.0
 10
0.2424055118110236
 20
0.7864291338582677
 30
0.0
 10
0.2424055118110236
 20
0.7864291338582677
 30
0.0
 10
-1.1554055118110236
 20
0.7864291338582677
 30
0.0
 10
-1.1554055118110236
 20
0.7864291338582677
 30
0.0
 10
-1.1554055118110236
 20
0.7864291338582677
 30
0.0
 10
-1.1554055118110236
 20
0.7864291338582677
 30
0.0
 10
-1.8114370078740158
 20
0.4238228346456693
 30
0.0
 10
-1.8114370078740158
 20
0.4238228346456693
 30
0.0
 10
-1.8114370078740158
 20
0.4238228346456693
 30
0.0
 10
-1.8114370078740158
 20
0.4238228346456693
 30
0.0
 10
-0.4136259842519685
 20
0.4238228346456693
 30
0.0
 10
-0.4136259842519685
 20
0.4238228346456693
 30
0.0
  0
SPLINE
  5
65
100
AcDbEntity
  8
Layer 1
370
     5
 62
     7
100
AcDbSpline
210
0.0
220
0.0
230
1.0
 70
     1
 71
     3
 72
    20
 73
    16
 74
     0
 42
0.0000000001
 43
0.0000000001
 40
0.0
 40
0.0
 40
0.0
 40
0.0
 40
0.25
 40
0.25
 40
0.25
 40
0.25
 40
0.5
 40
0.5
 40
0.5
 40
0.5
 40
0.75
 40
0.75
 40
0.75
 40
0.75
 40
1.0
 40
1.0
 40
1.0
 40
1.0
 10
-1.8114370078740158
 20
-2.9503267716535433
 30
0.0
 10
-1.8114370078740158
 20
-2.9503267716535433
 30
0.0
 10
-0.284996062992126
 20
-2.9446732283464567
 30
0.0
 10
-0.284996062992126
 20
-2.9446732283464567
 30
0.0
 10
-0.284996062992126
 20
-2.9446732283464567
 30
0.0
 10
2.0544606299212598
 20
-2.7356496062992126
 30
0.0
 10
1.6846496062992127
 20
0.4157834645669292
 30
0.0
 10
-0.4136259842519685
 20
0.4238228346456693
 30
0.0
 10
-0.4136259842519685
 20
0.4238228346456693
 30
0.0
 10
-0.4136259842519685
 20
0.4238228346456693
 30
0.0
 10
-1.8114370078740158
 20
0.4238228346456693
 30
0.0
 10
-1.8114370078740158
 20
0.4238228346456693
 30
0.0
 10
-1.8114370078740158
 20
0.4238228346456693
 30
0.0
 10
-1.8114370078740158
 20
0.4238228346456693
 30
0.0
 10
-1.8114370078740158
 20
-2.9503267716535433
 30
0.0
 10
-1.8114370078740158
 20
-2.9503267716535433
 30
0.0
  0
TEXT
  5
66
100
AcDbEntity
  8
Layer 1
100
AcDbText
 10
-0.29252
 20
-3.148091
 30
0.0
 40
0.119999
  1
BA  1516
 51
-0.000002
  7
Bookman Old Style
100
AcDbText
  0
TEXT
  5
67
100
AcDbEntity
  8
Layer 1
100
AcDbText
 10
-0.185866
 20
-3.335591
 30
0.0
 40
0.119999
  1
3-3/8\u+201d
 51
-0.000002
  7
Bookman Old Style
100
AcDbText
  0
ENDSEC
  0
SECTION
  2
OBJECTS
  0
DICTIONARY
  5
19
100
AcDbDictionary
280
     0
281
     1
  3
ACAD_GROUP
350
1A
  3
ACAD_MLINESTYLE
350
1B
  3
ACAD_LAYOUT
350
1E
  3
ACAD_PLOTSETTINGS
350
22
  3
ACAD_PLOTSTYLENAME
350
1F
  3
ACAD_WIPEOUT_VARS
350
23
  0
DICTIONARY
  5
1A
102
{ACAD_REACTORS
330
19
102
}
100
AcDbDictionary
280
     0
281
     1
  0
DICTIONARY
  5
1B
102
{ACAD_REACTORS
330
19
102
}
100
AcDbDictionary
280
     0
281
     1
  3
Standard
350
1C
  0
MLINESTYLE
  5
1C
102
{ACAD_REACTORS
330
1B
102
}
100
AcDbMlineStyle
  2
Standard
 70
     0
  3

 62
     0
 51
90.0
 52
90.0
 71
     2
 49
0.5
 62
   256
  6
BYLAYER
 49
-0.5
 62
   256
  6
BYLAYER
  0
ACDBDICTIONARYWDFLT
  5
1F
102
{ACAD_REACTORS
330
19
102
}
100
AcDbDictionary
281
     1
  3
Normal
350
1D
100
AcDbDictionaryWithDefault
340
1D
  0
ACDBPLACEHOLDER
  5
1D
102
{ACAD_REACTORS
330
1F
102
}
  0
LAYOUT
  5
20
102
{ACAD_REACTORS
330
1E
102
}
100
AcDbPlotSettings
  1

  2

  4

  6

 40
0.0
 41
0.0
 42
0.0
 43
0.0
 44
0.0
 45
0.0
 46
0.0
 47
0.0
 48
0.0
 49
0.0
140
0.0
141
0.0
142
1.0
143
1.0
 70
  1024
 72
     0
 73
     0
 74
     0
  7

 75
     0
147
1.0
148
0.0
149
0.0
100
AcDbLayout
  1
Model
 70
     0
 71
     0
 10
0.0
 20
0.0
 11
0.0
 21
0.0
 12
0.0
 22
0.0
 32
0.0
 14
0.0
 24
0.0
 34
0.0
 15
0.0
 25
0.0
 35
0.0
146
0.0
 13
0.0
 23
0.0
 33
0.0
 16
0.0
 26
0.0
 36
0.0
 17
0.0
 27
0.0
 37
0.0
 76
     0
330
A
331
0
345
0
346
0
  0
LAYOUT
  5
21
102
{ACAD_REACTORS
330
1E
102
}
100
AcDbPlotSettings
  1

  2

  4

  6

 40
0.0
 41
0.0
 42
0.0
 43
0.0
 44
0.0
 45
0.0
 46
0.0
 47
0.0
 48
0.0
 49
0.0
140
0.0
141
0.0
142
1.0
143
1.0
 70
     0
 72
     0
 73
     0
 74
     0
  7

 75
     0
147
1.0
148
0.0
149
0.0
100
AcDbLayout
  1
Layout1
 70
     0
 71
     0
 10
0.0
 20
0.0
 11
0.0
 21
0.0
 12
0.0
 22
0.0
 32
0.0
 14
0.0
 24
0.0
 34
0.0
 15
0.0
 25
0.0
 35
0.0
146
0.0
 13
0.0
 23
0.0
 33
0.0
 16
0.0
 26
0.0
 36
0.0
 17
0.0
 27
0.0
 37
0.0
 76
     0
330
B
331
0
345
0
346
0
  0
DICTIONARY
  5
1E
102
{ACAD_REACTORS
330
19
102
}
100
AcDbDictionary
280
     0
281
     1
  3
Layout1
350
21
  3
Model
350
20
  0
DICTIONARY
  5
22
102
{ACAD_REACTORS
330
19
102
}
100
AcDbDictionary
280
     0
281
     1
  0
WIPEOUTVARIABLES
  5
23
100
AcDbWipeoutVariables
 70
     1
  0
ENDSEC
  0
EOF
