  0
SECTION
  2
HEADER
  9
$ACADVER
  1
AC1015
  9
$ACADMAINTVER
 70
     6
  9
$DWGCODEPAGE
  3
DOS850
  9
$INSBASE
 10
0.0
 20
0.0
 30
0.0
  9
$EXTMIN
 10
-1.883846
 20
-5.155547
 30
1.000000E+20
  9
$EXTMAX
 10
2.649819
 20
4.694933
 30
-1.000000E+20
  9
$LIMMIN
 10
0.0
 20
0.0
  9
$LIMMAX
 10
0.0
 20
0.0
  9
$ORTHOMODE
 70
     0
  9
$REGENMODE
 70
     1
  9
$FILLMODE
 70
     1
  9
$QTEXTMODE
 70
     0
  9
$MIRRTEXT
 70
     1
  9
$LTSCALE
 40
1.0
  9
$ATTMODE
 70
     1
  9
$TEXTSIZE
 40
0.2
  9
$TRACEWID
 40
0.05
  9
$TEXTSTYLE
  7
Standard
  9
$CLAYER
  8
0
  9
$CELTYPE
  6
Continuous
  9
$CECOLOR
 62
   256
  9
$CELTSCALE
 40
1.0
  9
$DISPSILH
 70
     0
  9
$DIMSCALE
 40
1.0
  9
$DIMASZ
 40
0.18
  9
$DIMEXO
 40
0.0625
  9
$DIMDLI
 40
0.38
  9
$DIMRND
 40
0.0
  9
$DIMDLE
 40
0.0
  9
$DIMEXE
 40
0.18
  9
$DIMTP
 40
0.0
  9
$DIMTM
 40
0.0
  9
$DIMTXT
 40
0.18
  9
$DIMCEN
 40
0.09
  9
$DIMTSZ
 40
0.0
  9
$DIMTOL
 70
     0
  9
$DIMLIM
 70
     0
  9
$DIMTIH
 70
     1
  9
$DIMTOH
 70
     1
  9
$DIMSE1
 70
     0
  9
$DIMSE2
 70
     0
  9
$DIMTAD
 70
     0
  9
$DIMZIN
 70
     0
  9
$DIMBLK
  1

  9
$DIMASO
 70
     1
  9
$DIMSHO
 70
     1
  9
$DIMPOST
  1

  9
$DIMAPOST
  1

  9
$DIMALT
 70
     0
  9
$DIMALTD
 70
     2
  9
$DIMALTF
 40
25.4
  9
$DIMLFAC
 40
1.0
  9
$DIMTOFL
 70
     0
  9
$DIMTVP
 40
0.0
  9
$DIMTIX
 70
     0
  9
$DIMSOXD
 70
     0
  9
$DIMSAH
 70
     0
  9
$DIMBLK1
  1

  9
$DIMBLK2
  1

  9
$DIMSTYLE
  2
Standard
  9
$DIMCLRD
 70
     0
  9
$DIMCLRE
 70
     0
  9
$DIMCLRT
 70
     0
  9
$DIMTFAC
 40
1.0
  9
$DIMGAP
 40
0.09
  9
$DIMJUST
 70
     0
  9
$DIMSD1
 70
     0
  9
$DIMSD2
 70
     0
  9
$DIMTOLJ
 70
     1
  9
$DIMTZIN
 70
     0
  9
$DIMALTZ
 70
     0
  9
$DIMALTTZ
 70
     0
  9
$DIMUPT
 70
     0
  9
$DIMDEC
 70
     4
  9
$DIMTDEC
 70
     4
  9
$DIMALTU
 70
     2
  9
$DIMALTTD
 70
     2
  9
$DIMTXSTY
  7
Standard
  9
$DIMAUNIT
 70
     0
  9
$DIMADEC
 70
     0
  9
$DIMALTRND
 40
0.0
  9
$DIMAZIN
 70
     0
  9
$DIMDSEP
 70
     0
  9
$DIMATFIT
 70
     3
  9
$DIMFRAC
 70
     0
  9
$DIMLDRBLK
  1

  9
$DIMLUNIT
 70
     2
  9
$DIMLWD
 70
     0
  9
$DIMLWE
 70
     0
  9
$DIMTMOVE
 70
     0
  9
$LUNITS
 70
     2
  9
$LUPREC
 70
     4
  9
$SKETCHINC
 40
0.1
  9
$FILLETRAD
 40
0.0
  9
$AUNITS
 70
     0
  9
$AUPREC
 70
     0
  9
$MENU
  1
acad
  9
$ELEVATION
 40
0.0
  9
$PELEVATION
 40
0.0
  9
$THICKNESS
 40
0.0
  9
$LIMCHECK
 70
     0
  9
$CHAMFERA
 40
0.0
  9
$CHAMFERB
 40
0.0
  9
$CHAMFERC
 40
0.0
  9
$CHAMFERD
 40
0.0
  9
$SKPOLY
 70
     0
  9
$TDCREATE
 40
0.000000000
  9
$TDUCREATE
 40
0.000000000
  9
$TDUPDATE
 40
0.000000000
  9
$TDUUPDATE
 40
0.000000000
  9
$TDINDWG
 40
0.0000000000
  9
$TDUSRTIMER
 40
0.0000000000
  9
$USRTIMER
 70
     1
  9
$ANGBASE
 50
0.0
  9
$ANGDIR
 70
     0
  9
$PDMODE
 70
     0
  9
$PDSIZE
 40
0.0
  9
$PLINEWID
 40
0.0
  9
$SPLFRAME
 70
     0
  9
$SPLINETYPE
 70
     6
  9
$SPLINESEGS
 70
     8
  9
$HANDSEED
  5
66
  9
$SURFTAB1
 70
     6
  9
$SURFTAB2
 70
     6
  9
$SURFTYPE
 70
     6
  9
$SURFU
 70
     6
  9
$SURFV
 70
     6
  9
$UCSBASE
  2

  9
$UCSNAME
  2

  9
$UCSORG
 10
0.0
 20
0.0
 30
0.0
  9
$UCSXDIR
 10
1.0
 20
0.0
 30
0.0
  9
$UCSYDIR
 10
0.0
 20
1.0
 30
0.0
  9
$UCSORTHOREF
  2

  9
$UCSORTHOVIEW
 70
     0
  9
$UCSORGTOP
 10
0.0
 20
0.0
 30
0.0
  9
$UCSORGBOTTOM
 10
0.0
 20
0.0
 30
0.0
  9
$UCSORGLEFT
 10
0.0
 20
0.0
 30
0.0
  9
$UCSORGRIGHT
 10
0.0
 20
0.0
 30
0.0
  9
$UCSORGFRONT
 10
0.0
 20
0.0
 30
0.0
  9
$UCSORGBACK
 10
0.0
 20
0.0
 30
0.0
  9
$PUCSBASE
  2

  9
$PUCSNAME
  2

  9
$PUCSORG
 10
0.0
 20
0.0
 30
0.0
  9
$PUCSXDIR
 10
1.0
 20
0.0
 30
0.0
  9
$PUCSYDIR
 10
0.0
 20
1.0
 30
0.0
  9
$PUCSORTHOREF
  2

  9
$PUCSORTHOVIEW
 70
     0
  9
$PUCSORGTOP
 10
0.0
 20
0.0
 30
0.0
  9
$PUCSORGBOTTOM
 10
0.0
 20
0.0
 30
0.0
  9
$PUCSORGLEFT
 10
0.0
 20
0.0
 30
0.0
  9
$PUCSORGRIGHT
 10
0.0
 20
0.0
 30
0.0
  9
$PUCSORGFRONT
 10
0.0
 20
0.0
 30
0.0
  9
$PUCSORGBACK
 10
0.0
 20
0.0
 30
0.0
  9
$USERI1
 70
     0
  9
$USERI2
 70
     0
  9
$USERI3
 70
     0
  9
$USERI4
 70
     0
  9
$USERI5
 70
     0
  9
$USERR1
 40
0.0
  9
$USERR2
 40
0.0
  9
$USERR3
 40
0.0
  9
$USERR4
 40
0.0
  9
$USERR5
 40
0.0
  9
$WORLDVIEW
 70
     1
  9
$SHADEDGE
 70
     3
  9
$SHADEDIF
 70
    70
  9
$TILEMODE
 70
     1
  9
$MAXACTVP
 70
    16
  9
$PINSBASE
 10
0.0
 20
0.0
 30
0.0
  9
$PLIMCHECK
 70
     0
  9
$PEXTMIN
 10
1.000000E+20
 20
1.000000E+20
 30
1.000000E+20
  9
$PEXTMAX
 10
-1.000000E+20
 20
-1.000000E+20
 30
-1.000000E+20
  9
$PLIMMIN
 10
0.0
 20
0.0
  9
$PLIMMAX
 10
12.0
 20
9.0
  9
$UNITMODE
 70
     0
  9
$VISRETAIN
 70
     0
  9
$PLINEGEN
 70
     1
  9
$PSLTSCALE
 70
     0
  9
$TREEDEPTH
 70
  3020
  9
$CMLSTYLE
  2
Standard
  9
$CMLJUST
 70
     0
  9
$CMLSCALE
 40
1.0
  9
$PROXYGRAPHICS
 70
     0
  9
$MEASUREMENT
 70
     0
  9
$CELWEIGHT
370
     0
  9
$ENDCAPS
280
     0
  9
$JOINSTYLE
280
     0
  9
$LWDISPLAY
290
     0
  9
$INSUNITS
 70
     1
  9
$HYPERLINKBASE
  1

  9
$XEDIT
290
     1
  9
$CEPSNTYPE
380
     0
  9
$PSTYLEMODE
290
     1
  9
$FINGERPRINTGUID
  2

  9
$VERSIONGUID
  2

  9
$EXTNAMES
290
     1
  9
$PSVPSCALE
 40
0.0
  0
ENDSEC
  0
SECTION
  2
CLASSES
  0
CLASS
  1
LWPOLYLINE
  2
AcDbPolyline
  3
AutoCAD 2000
 90
    32768
280
     0
281
     1
  0
CLASS
  1
IMAGE
  2
AcDbRasterImage
  3
ISM
 90
    32895
280
     0
281
     1
  0
CLASS
  1
OLE2FRAME
  2
AcDbOle2Frame
  3
AutoCAD 2000
 90
    32768
280
     0
281
     1
  0
CLASS
  1
HATCH
  2
AcDbHatch
  3
AutoCAD 2000
 90
    32768
280
     0
281
     1
  0
CLASS
  1
DICTIONARYVAR
  2
AcDbDictionaryVar
  3
AutoCAD 2000
 90
    32768
280
     0
281
     0
  0
CLASS
  1
RASTERVARIABLES
  2
AcDbRasterVariables
  3
ISM
 90
    32768
280
     0
281
     0
  0
CLASS
  1
IMAGEDEF
  2
AcDbRasterImageDef
  3
ISM
 90
    32768
280
     0
281
     0
  0
CLASS
  1
IMAGEDEF_REACTOR
  2
AcDbRasterImageDefReactor
  3
ISM
 90
    32769
280
     0
281
     0
  0
CLASS
  1
IDBUFFER
  2
AcDbIdBuffer
  3
AutoCAD 2000
 90
    32768
280
     0
281
     0
  0
CLASS
  1
SPATIAL_FILTER
  2
AcDbSpatialFilter
  3
AutoCAD 2000
 90
    32768
280
     0
281
     0
  0
CLASS
  1
XRECORD
  2
AcDbXrecord
  3
AutoCAD 2000
 90
    32768
280
     0
281
     0
  0
CLASS
  1
SORTENTSTABLE
  2
AcDbSortentsTable
  3
AutoCAD 2000
 90
    32768
280
     0
281
     0
  0
CLASS
  1
LAYER_INDEX
  2
AcDbLayerIndex
  3
AutoCAD 2000
 90
    32768
280
     0
281
     0
  0
CLASS
  1
SPATIAL_INDEX
  2
AcDbSpatialIndex
  3
AutoCAD 2000
 90
    32768
280
     0
281
     0
  0
CLASS
  1
OBJECT_PTR
  2
CAseDLPNTableRecord
  3
"ASE-LPNTableRecord"
 90
    32769
280
     0
281
     0
  0
CLASS
  1
LAYOUT
  2
AcDbLayout
  3
AutoCAD 2000
 90
        0
280
     0
281
     0
  0
CLASS
  1
PLOTSETTINGS
  2
AcDbPlotSettings
  3
AutoCAD 2000
 90
    32768
280
     0
281
     0
  0
CLASS
  1
ACDBDICTIONARYWDFLT
  2
AcDbDictionaryWithDefault
  3
AutoCAD 2000
 90
        0
280
     0
281
     0
  0
CLASS
  1
ACDBPLACEHOLDER
  2
AcDbPlaceHolder
  3
AutoCAD 2000
 90
        0
280
     0
281
     0
  0
CLASS
  1
VBA_PROJECT
  2
AcDbVbaProject
  3
acadvba
 90
    32768
280
     0
281
     0
  0
CLASS
  1
WIPEOUT
  2
AcDbWipeout
  3
WipeOut|AutoCAD Express Tool|expresstools@autodesk.com
 90
    32895
280
     0
281
     1
  0
CLASS
  1
WIPEOUTVARIABLES
  2
AcDbWipeoutVariables
  3
WipeOut|AutoCAD Express Tool|expresstools@autodesk.com
 90
        0
280
     0
281
     0
  0
CLASS
  1
RTEXT
  2
RText
  3
RText|AutoCAD Express Tool|expresstools@autodesk.com
 90
    32768
280
     0
281
     1
  0
CLASS
  1
ARCALIGNEDTEXT
  2
AcDbArcAlignedText
  3
ATEXT|AutoCAD Express Tool|expresstools@autodesk.com
 90
    32768
280
     0
281
     1
  0
ENDSEC
  0
SECTION
  2
TABLES
  0
TABLE
  2
VPORT
  5
7
100
AcDbSymbolTable
 70
     1
  0
VPORT
  5
15
100
AcDbSymbolTableRecord
100
AcDbViewportTableRecord
  2
*ACTIVE
 70
     0
 10
0.0
 20
0.0
 11
1.0
 21
1.0
 12
6.591288
 22
4.579184
 13
0.0
 23
0.0
 14
1.0
 24
1.0
 15
0.0
 25
0.0
 16
0.0
 26
0.0
 36
1.0
 17
0.0
 27
0.0
 37
0.0
 40
9.158369
 41
0.688564
 42
50.0
 43
0.0
 44
0.0
 50
0.0
 51
0.0
 71
     0
 72
   100
 73
     1
 74
     1
 75
     0
 76
     0
 77
     0
 78
     0
281
     0
 65
     0
110
0.0
120
0.0
130
0.0
111
1.0
121
0.0
131
0.0
112
0.0
122
1.0
132
0.0
345
0
346
0
 79
     0
146
0.0
  0
ENDTAB
  0
TABLE
  2
LTYPE
  5
4
100
AcDbSymbolTable
 70
     3
  0
LTYPE
  5
11
100
AcDbSymbolTableRecord
100
AcDbLinetypeTableRecord
  2
ByBlock
 70
    64
  3

 72
    65
 73
     0
 40
0.0
  0
LTYPE
  5
12
100
AcDbSymbolTableRecord
100
AcDbLinetypeTableRecord
  2
ByLayer
 70
    64
  3

 72
    65
 73
     0
 40
0.0
  0
LTYPE
  5
13
100
AcDbSymbolTableRecord
100
AcDbLinetypeTableRecord
  2
Continuous
 70
    64
  3
Solid line
 72
    65
 73
     0
 40
0.0
  0
ENDTAB
  0
TABLE
  2
LAYER
  5
2
100
AcDbSymbolTable
 70
     2
  0
LAYER
  5
14
100
AcDbSymbolTableRecord
100
AcDbLayerTableRecord
  2
0
 70
     0
 62
     7
  6
Continuous
290
     1
370
    -3
390
1D
  0
LAYER
  5
24
100
AcDbSymbolTableRecord
100
AcDbLayerTableRecord
  2
Layer 1
 70
     0
 62
     7
  6
Continuous
290
     1
370
    -3
390
1F
  0
ENDTAB
  0
TABLE
  2
STYLE
  5
3
100
AcDbSymbolTable
 70
     2
  0
STYLE
  5
17
100
AcDbSymbolTableRecord
100
AcDbTextStyleTableRecord
  2
Standard
 70
     0
 40
0.0
 41
1.0
 50
0.0
 71
     0
 42
0.0
  3
txt
  4

  0
STYLE
  5
61
100
AcDbSymbolTableRecord
100
AcDbTextStyleTableRecord
  2
Bookman Old Style
 70
     0
 40
1.0
 41
1.0
 50
0.0
 71
     0
 42
1.0
  3
Bookman Old Style
  4

  0
ENDTAB
  0
TABLE
  2
VIEW
  5
5
100
AcDbSymbolTable
 70
     0
  0
ENDTAB
  0
TABLE
  2
UCS
  5
6
100
AcDbSymbolTable
 70
     0
  0
ENDTAB
  0
TABLE
  2
APPID
  5
8
100
AcDbSymbolTable
 70
     1
  0
APPID
  5
16
100
AcDbSymbolTableRecord
100
AcDbRegAppTableRecord
  2
ACAD
 70
     0
  0
ENDTAB
  0
TABLE
  2
DIMSTYLE
  5
9
100
AcDbSymbolTable
 70
     1
100
AcDbDimStyleTable
 71
     0
  0
DIMSTYLE
105
18
100
AcDbSymbolTableRecord
100
AcDbDimStyleTableRecord
  2
Standard
 70
     0
  3

  4

 40
1.0
 41
0.18
 42
0.0625
 43
0.38
 44
0.18
 45
0.0
 46
0.0
 47
0.0
 48
0.0
 71
     0
 72
     0
 73
     1
 74
     1
 75
     0
 76
     0
 77
     0
 78
     0
 79
     0
140
0.18
141
0.09
142
0.0
143
25.4
144
1.0
145
0.0
146
1.0
147
0.09
148
0.0
170
     0
171
     2
172
     0
173
     0
174
     0
175
     0
176
     0
177
     0
178
     0
179
     0
271
     4
272
     4
273
     2
274
     2
275
     0
276
     0
277
     2
278
    46
279
     0
280
     0
281
     0
282
     0
283
     1
284
     0
285
     0
286
     0
288
     0
340
17
341
0
342
0
343
0
344
0
371
    -2
372
    -2
  0
ENDTAB
  0
TABLE
  2
BLOCK_RECORD
  5
1
100
AcDbSymbolTable
 70
     0
  0
BLOCK_RECORD
  5
A
100
AcDbSymbolTableRecord
100
AcDbBlockTableRecord
  2
*MODEL_SPACE
340
20
  0
BLOCK_RECORD
  5
B
100
AcDbSymbolTableRecord
100
AcDbBlockTableRecord
  2
*PAPER_SPACE
340
21
  0
ENDTAB
  0
ENDSEC
  0
SECTION
  2
BLOCKS
  0
BLOCK
  5
D
100
AcDbEntity
  8
0
100
AcDbBlockBegin
  2
*MODEL_SPACE
 70
     0
 10
0.0
 20
0.0
 30
0.0
  3
*MODEL_SPACE
  1

  0
ENDBLK
  5
E
100
AcDbEntity
  8
0
100
AcDbBlockEnd
  0
BLOCK
  5
F
100
AcDbEntity
 67
     1
  8
0
100
AcDbBlockBegin
  2
*PAPER_SPACE
 70
     0
 10
0.0
 20
0.0
 30
0.0
  3
*PAPER_SPACE
  1

  0
ENDBLK
  5
10
100
AcDbEntity
 67
     1
  8
0
100
AcDbBlockEnd
  0
ENDSEC
  0
SECTION
  2
ENTITIES
  0
SPLINE
  5
25
100
AcDbEntity
  8
Layer 1
370
     5
100
AcDbSpline
210
0.0
220
0.0
230
1.0
 70
     1
 71
     3
 72
    20
 73
    16
 74
     0
 42
0.0000000001
 43
0.0000000001
 40
0.0
 40
0.0
 40
0.0
 40
0.0
 40
0.25
 40
0.25
 40
0.25
 40
0.25
 40
0.5
 40
0.5
 40
0.5
 40
0.5
 40
0.75
 40
0.75
 40
0.75
 40
0.75
 40
1.0
 40
1.0
 40
1.0
 40
1.0
 10
-0.1142244094488189
 20
4.6726023622047244
 30
0.0
 10
2.9588858267716538
 20
4.657968503937008
 30
0.0
 10
3.3979015748031496
 20
0.4580511811023622
 30
0.0
 10
0.4418622047244095
 20
0.4434173228346457
 30
0.0
 10
0.4418622047244095
 20
0.4434173228346457
 30
0.0
 10
0.4418622047244095
 20
0.4434173228346457
 30
0.0
 10
-1.4331377952755906
 20
0.4434173228346457
 30
0.0
 10
-1.4331377952755906
 20
0.4434173228346457
 30
0.0
 10
-1.4331377952755906
 20
0.4434173228346457
 30
0.0
 10
-1.4331377952755906
 20
0.4434173228346457
 30
0.0
 10
-1.4331377952755906
 20
4.6934133858267719
 30
0.0
 10
-1.4331377952755906
 20
4.6934133858267719
 30
0.0
 10
-1.4331377952755906
 20
4.6934133858267719
 30
0.0
 10
-1.4331377952755906
 20
4.6934133858267719
 30
0.0
 10
-0.1142244094488189
 20
4.6726023622047244
 30
0.0
 10
-0.1142244094488189
 20
4.6726023622047244
 30
0.0
  0
SPLINE
  5
26
100
AcDbEntity
  8
Layer 1
 62
   253
100
AcDbSpline
210
0.0
220
0.0
230
1.0
 70
     1
 71
     3
 72
    20
 73
    16
 74
     0
 42
0.0000000001
 43
0.0000000001
 40
0.0
 40
0.0
 40
0.0
 40
0.0
 40
0.25
 40
0.25
 40
0.25
 40
0.25
 40
0.5
 40
0.5
 40
0.5
 40
0.5
 40
0.75
 40
0.75
 40
0.75
 40
0.75
 40
1.0
 40
1.0
 40
1.0
 40
1.0
 10
-0.5634330708661418
 20
-0.5133779527559056
 30
0.0
 10
-0.5634330708661418
 20
-0.5133779527559056
 30
0.0
 10
0.0948858267716536
 20
-0.1424055118110236
 30
0.0
 10
0.0948858267716536
 20
-0.1424055118110236
 30
0.0
 10
0.0948858267716536
 20
-0.1424055118110236
 30
0.0
 10
0.0948858267716536
 20
-0.1424055118110236
 30
0.0
 10
0.375244094488189
 20
-0.1557913385826772
 30
0.0
 10
0.375244094488189
 20
-0.1557913385826772
 30
0.0
 10
0.375244094488189
 20
-0.1557913385826772
 30
0.0
 10
0.375244094488189
 20
-0.1557913385826772
 30
0.0
 10
-0.2830748031496063
 20
-0.526763779527559
 30
0.0
 10
-0.2830748031496063
 20
-0.526763779527559
 30
0.0
 10
-0.2830748031496063
 20
-0.526763779527559
 30
0.0
 10
-0.2830748031496063
 20
-0.526763779527559
 30
0.0
 10
-0.5634330708661418
 20
-0.5133779527559056
 30
0.0
 10
-0.5634330708661418
 20
-0.5133779527559056
 30
0.0
  0
SPLINE
  5
27
100
AcDbEntity
  8
Layer 1
 62
   253
100
AcDbSpline
210
0.0
220
0.0
230
1.0
 70
     1
 71
     3
 72
    20
 73
    16
 74
     0
 42
0.0000000001
 43
0.0000000001
 40
0.0
 40
0.0
 40
0.0
 40
0.0
 40
0.25
 40
0.25
 40
0.25
 40
0.25
 40
0.5
 40
0.5
 40
0.5
 40
0.5
 40
0.75
 40
0.75
 40
0.75
 40
0.75
 40
1.0
 40
1.0
 40
1.0
 40
1.0
 10
-0.2830748031496063
 20
-0.526763779527559
 30
0.0
 10
-0.2830748031496063
 20
-0.526763779527559
 30
0.0
 10
0.375244094488189
 20
-0.1557913385826772
 30
0.0
 10
0.375244094488189
 20
-0.1557913385826772
 30
0.0
 10
0.375244094488189
 20
-0.1557913385826772
 30
0.0
 10
0.375244094488189
 20
-0.1557913385826772
 30
0.0
 10
0.6400354330708662
 20
-0.1921574803149606
 30
0.0
 10
0.6400354330708662
 20
-0.1921574803149606
 30
0.0
 10
0.6400354330708662
 20
-0.1921574803149606
 30
0.0
 10
0.6400354330708662
 20
-0.1921574803149606
 30
0.0
 10
-0.0182834645669291
 20
-0.5631299212598425
 30
0.0
 10
-0.0182834645669291
 20
-0.5631299212598425
 30
0.0
 10
-0.0182834645669291
 20
-0.5631299212598425
 30
0.0
 10
-0.0182834645669291
 20
-0.5631299212598425
 30
0.0
 10
-0.2830748031496063
 20
-0.526763779527559
 30
0.0
 10
-0.2830748031496063
 20
-0.526763779527559
 30
0.0
  0
SPLINE
  5
28
100
AcDbEntity
  8
Layer 1
 62
   253
100
AcDbSpline
210
0.0
220
0.0
230
1.0
 70
     1
 71
     3
 72
    20
 73
    16
 74
     0
 42
0.0000000001
 43
0.0000000001
 40
0.0
 40
0.0
 40
0.0
 40
0.0
 40
0.25
 40
0.25
 40
0.25
 40
0.25
 40
0.5
 40
0.5
 40
0.5
 40
0.5
 40
0.75
 40
0.75
 40
0.75
 40
0.75
 40
1.0
 40
1.0
 40
1.0
 40
1.0
 10
-0.0182834645669291
 20
-0.5631299212598425
 30
0.0
 10
-0.0182834645669291
 20
-0.5631299212598425
 30
0.0
 10
0.6400354330708662
 20
-0.1921574803149606
 30
0.0
 10
0.6400354330708662
 20
-0.1921574803149606
 30
0.0
 10
0.6400354330708662
 20
-0.1921574803149606
 30
0.0
 10
0.6400354330708662
 20
-0.1921574803149606
 30
0.0
 10
0.8891062992125984
 20
-0.249988188976378
 30
0.0
 10
0.8891062992125984
 20
-0.249988188976378
 30
0.0
 10
0.8891062992125984
 20
-0.249988188976378
 30
0.0
 10
0.8891062992125984
 20
-0.249988188976378
 30
0.0
 10
0.2307874015748032
 20
-0.6209606299212599
 30
0.0
 10
0.2307874015748032
 20
-0.6209606299212599
 30
0.0
 10
0.2307874015748032
 20
-0.6209606299212599
 30
0.0
 10
0.2307874015748032
 20
-0.6209606299212599
 30
0.0
 10
-0.0182834645669291
 20
-0.5631299212598425
 30
0.0
 10
-0.0182834645669291
 20
-0.5631299212598425
 30
0.0
  0
SPLINE
  5
29
100
AcDbEntity
  8
Layer 1
 62
   253
100
AcDbSpline
210
0.0
220
0.0
230
1.0
 70
     1
 71
     3
 72
    20
 73
    16
 74
     0
 42
0.0000000001
 43
0.0000000001
 40
0.0
 40
0.0
 40
0.0
 40
0.0
 40
0.25
 40
0.25
 40
0.25
 40
0.25
 40
0.5
 40
0.5
 40
0.5
 40
0.5
 40
0.75
 40
0.75
 40
0.75
 40
0.75
 40
1.0
 40
1.0
 40
1.0
 40
1.0
 10
0.2307874015748032
 20
-0.6209606299212599
 30
0.0
 10
0.2307874015748032
 20
-0.6209606299212599
 30
0.0
 10
0.8891062992125984
 20
-0.249988188976378
 30
0.0
 10
0.8891062992125984
 20
-0.249988188976378
 30
0.0
 10
0.8891062992125984
 20
-0.249988188976378
 30
0.0
 10
0.8891062992125984
 20
-0.249988188976378
 30
0.0
 10
1.1223385826771655
 20
-0.3277362204724409
 30
0.0
 10
1.1223385826771655
 20
-0.3277362204724409
 30
0.0
 10
1.1223385826771655
 20
-0.3277362204724409
 30
0.0
 10
1.1223385826771655
 20
-0.3277362204724409
 30
0.0
 10
0.4640196850393701
 20
-0.6987086614173229
 30
0.0
 10
0.4640196850393701
 20
-0.6987086614173229
 30
0.0
 10
0.4640196850393701
 20
-0.6987086614173229
 30
0.0
 10
0.4640196850393701
 20
-0.6987086614173229
 30
0.0
 10
0.2307874015748032
 20
-0.6209606299212599
 30
0.0
 10
0.2307874015748032
 20
-0.6209606299212599
 30
0.0
  0
SPLINE
  5
2A
100
AcDbEntity
  8
Layer 1
 62
   253
100
AcDbSpline
210
0.0
220
0.0
230
1.0
 70
     1
 71
     3
 72
    20
 73
    16
 74
     0
 42
0.0000000001
 43
0.0000000001
 40
0.0
 40
0.0
 40
0.0
 40
0.0
 40
0.25
 40
0.25
 40
0.25
 40
0.25
 40
0.5
 40
0.5
 40
0.5
 40
0.5
 40
0.75
 40
0.75
 40
0.75
 40
0.75
 40
1.0
 40
1.0
 40
1.0
 40
1.0
 10
0.4640196850393701
 20
-0.6987086614173229
 30
0.0
 10
0.4640196850393701
 20
-0.6987086614173229
 30
0.0
 10
1.1223385826771655
 20
-0.3277362204724409
 30
0.0
 10
1.1223385826771655
 20
-0.3277362204724409
 30
0.0
 10
1.1223385826771655
 20
-0.3277362204724409
 30
0.0
 10
1.1223385826771655
 20
-0.3277362204724409
 30
0.0
 10
1.3395669291338583
 20
-0.4238858267716535
 30
0.0
 10
1.3395669291338583
 20
-0.4238858267716535
 30
0.0
 10
1.3395669291338583
 20
-0.4238858267716535
 30
0.0
 10
1.3395669291338583
 20
-0.4238858267716535
 30
0.0
 10
0.6812480314960631
 20
-0.7948582677165355
 30
0.0
 10
0.6812480314960631
 20
-0.7948582677165355
 30
0.0
 10
0.6812480314960631
 20
-0.7948582677165355
 30
0.0
 10
0.6812480314960631
 20
-0.7948582677165355
 30
0.0
 10
0.4640196850393701
 20
-0.6987086614173229
 30
0.0
 10
0.4640196850393701
 20
-0.6987086614173229
 30
0.0
  0
SPLINE
  5
2B
100
AcDbEntity
  8
Layer 1
 62
   253
100
AcDbSpline
210
0.0
220
0.0
230
1.0
 70
     1
 71
     3
 72
    20
 73
    16
 74
     0
 42
0.0000000001
 43
0.0000000001
 40
0.0
 40
0.0
 40
0.0
 40
0.0
 40
0.25
 40
0.25
 40
0.25
 40
0.25
 40
0.5
 40
0.5
 40
0.5
 40
0.5
 40
0.75
 40
0.75
 40
0.75
 40
0.75
 40
1.0
 40
1.0
 40
1.0
 40
1.0
 10
0.6812480314960631
 20
-0.7948582677165355
 30
0.0
 10
0.6812480314960631
 20
-0.7948582677165355
 30
0.0
 10
1.3395669291338583
 20
-0.4238858267716535
 30
0.0
 10
1.3395669291338583
 20
-0.4238858267716535
 30
0.0
 10
1.3395669291338583
 20
-0.4238858267716535
 30
0.0
 10
1.3395669291338583
 20
-0.4238858267716535
 30
0.0
 10
1.5406732283464568
 20
-0.5368858267716535
 30
0.0
 10
1.5406732283464568
 20
-0.5368858267716535
 30
0.0
 10
1.5406732283464568
 20
-0.5368858267716535
 30
0.0
 10
1.5406732283464568
 20
-0.5368858267716535
 30
0.0
 10
0.8823543307086614
 20
-0.9078582677165354
 30
0.0
 10
0.8823543307086614
 20
-0.9078582677165354
 30
0.0
 10
0.8823543307086614
 20
-0.9078582677165354
 30
0.0
 10
0.8823543307086614
 20
-0.9078582677165354
 30
0.0
 10
0.6812480314960631
 20
-0.7948582677165355
 30
0.0
 10
0.6812480314960631
 20
-0.7948582677165355
 30
0.0
  0
SPLINE
  5
2C
100
AcDbEntity
  8
Layer 1
 62
     9
100
AcDbSpline
210
0.0
220
0.0
230
1.0
 70
     1
 71
     3
 72
    20
 73
    16
 74
     0
 42
0.0000000001
 43
0.0000000001
 40
0.0
 40
0.0
 40
0.0
 40
0.0
 40
0.25
 40
0.25
 40
0.25
 40
0.25
 40
0.5
 40
0.5
 40
0.5
 40
0.5
 40
0.75
 40
0.75
 40
0.75
 40
0.75
 40
1.0
 40
1.0
 40
1.0
 40
1.0
 10
0.8823543307086614
 20
-0.9078582677165354
 30
0.0
 10
0.8823543307086614
 20
-0.9078582677165354
 30
0.0
 10
1.5406732283464568
 20
-0.5368858267716535
 30
0.0
 10
1.5406732283464568
 20
-0.5368858267716535
 30
0.0
 10
1.5406732283464568
 20
-0.5368858267716535
 30
0.0
 10
1.5406732283464568
 20
-0.5368858267716535
 30
0.0
 10
1.7255039370078742
 20
-0.6652165354330709
 30
0.0
 10
1.7255039370078742
 20
-0.6652165354330709
 30
0.0
 10
1.7255039370078742
 20
-0.6652165354330709
 30
0.0
 10
1.7255039370078742
 20
-0.6652165354330709
 30
0.0
 10
1.0671850393700788
 20
-1.0361889763779528
 30
0.0
 10
1.0671850393700788
 20
-1.0361889763779528
 30
0.0
 10
1.0671850393700788
 20
-1.0361889763779528
 30
0.0
 10
1.0671850393700788
 20
-1.0361889763779528
 30
0.0
 10
0.8823543307086614
 20
-0.9078582677165354
 30
0.0
 10
0.8823543307086614
 20
-0.9078582677165354
 30
0.0
  0
SPLINE
  5
2D
100
AcDbEntity
  8
Layer 1
 62
     9
100
AcDbSpline
210
0.0
220
0.0
230
1.0
 70
     1
 71
     3
 72
    20
 73
    16
 74
     0
 42
0.0000000001
 43
0.0000000001
 40
0.0
 40
0.0
 40
0.0
 40
0.0
 40
0.25
 40
0.25
 40
0.25
 40
0.25
 40
0.5
 40
0.5
 40
0.5
 40
0.5
 40
0.75
 40
0.75
 40
0.75
 40
0.75
 40
1.0
 40
1.0
 40
1.0
 40
1.0
 10
1.0671850393700788
 20
-1.0361889763779528
 30
0.0
 10
1.0671850393700788
 20
-1.0361889763779528
 30
0.0
 10
1.7255039370078742
 20
-0.6652165354330709
 30
0.0
 10
1.7255039370078742
 20
-0.6652165354330709
 30
0.0
 10
1.7255039370078742
 20
-0.6652165354330709
 30
0.0
 10
1.7255039370078742
 20
-0.6652165354330709
 30
0.0
 10
1.8939330708661417
 20
-0.8073346456692914
 30
0.0
 10
1.8939330708661417
 20
-0.8073346456692914
 30
0.0
 10
1.8939330708661417
 20
-0.8073346456692914
 30
0.0
 10
1.8939330708661417
 20
-0.8073346456692914
 30
0.0
 10
1.2356141732283465
 20
-1.1783070866141734
 30
0.0
 10
1.2356141732283465
 20
-1.1783070866141734
 30
0.0
 10
1.2356141732283465
 20
-1.1783070866141734
 30
0.0
 10
1.2356141732283465
 20
-1.1783070866141734
 30
0.0
 10
1.0671850393700788
 20
-1.0361889763779528
 30
0.0
 10
1.0671850393700788
 20
-1.0361889763779528
 30
0.0
  0
SPLINE
  5
2E
100
AcDbEntity
  8
Layer 1
 62
     9
100
AcDbSpline
210
0.0
220
0.0
230
1.0
 70
     1
 71
     3
 72
    20
 73
    16
 74
     0
 42
0.0000000001
 43
0.0000000001
 40
0.0
 40
0.0
 40
0.0
 40
0.0
 40
0.25
 40
0.25
 40
0.25
 40
0.25
 40
0.5
 40
0.5
 40
0.5
 40
0.5
 40
0.75
 40
0.75
 40
0.75
 40
0.75
 40
1.0
 40
1.0
 40
1.0
 40
1.0
 10
1.2356141732283465
 20
-1.1783070866141734
 30
0.0
 10
1.2356141732283465
 20
-1.1783070866141734
 30
0.0
 10
1.8939330708661417
 20
-0.8073346456692914
 30
0.0
 10
1.8939330708661417
 20
-0.8073346456692914
 30
0.0
 10
1.8939330708661417
 20
-0.8073346456692914
 30
0.0
 10
1.8939330708661417
 20
-0.8073346456692914
 30
0.0
 10
2.0458031496062992
 20
-0.9617283464566929
 30
0.0
 10
2.0458031496062992
 20
-0.9617283464566929
 30
0.0
 10
2.0458031496062992
 20
-0.9617283464566929
 30
0.0
 10
2.0458031496062992
 20
-0.9617283464566929
 30
0.0
 10
1.387484251968504
 20
-1.3327007874015748
 30
0.0
 10
1.387484251968504
 20
-1.3327007874015748
 30
0.0
 10
1.387484251968504
 20
-1.3327007874015748
 30
0.0
 10
1.387484251968504
 20
-1.3327007874015748
 30
0.0
 10
1.2356141732283465
 20
-1.1783070866141734
 30
0.0
 10
1.2356141732283465
 20
-1.1783070866141734
 30
0.0
  0
SPLINE
  5
2F
100
AcDbEntity
  8
Layer 1
 62
     9
100
AcDbSpline
210
0.0
220
0.0
230
1.0
 70
     1
 71
     3
 72
    20
 73
    16
 74
     0
 42
0.0000000001
 43
0.0000000001
 40
0.0
 40
0.0
 40
0.0
 40
0.0
 40
0.25
 40
0.25
 40
0.25
 40
0.25
 40
0.5
 40
0.5
 40
0.5
 40
0.5
 40
0.75
 40
0.75
 40
0.75
 40
0.75
 40
1.0
 40
1.0
 40
1.0
 40
1.0
 10
1.387484251968504
 20
-1.3327007874015748
 30
0.0
 10
1.387484251968504
 20
-1.3327007874015748
 30
0.0
 10
2.0458031496062992
 20
-0.9617283464566929
 30
0.0
 10
2.0458031496062992
 20
-0.9617283464566929
 30
0.0
 10
2.0458031496062992
 20
-0.9617283464566929
 30
0.0
 10
2.0458031496062992
 20
-0.9617283464566929
 30
0.0
 10
2.1809921259842522
 20
-1.1268425196850393
 30
0.0
 10
2.1809921259842522
 20
-1.1268425196850393
 30
0.0
 10
2.1809921259842522
 20
-1.1268425196850393
 30
0.0
 10
2.1809921259842522
 20
-1.1268425196850393
 30
0.0
 10
1.5226732283464568
 20
-1.4978149606299214
 30
0.0
 10
1.5226732283464568
 20
-1.4978149606299214
 30
0.0
 10
1.5226732283464568
 20
-1.4978149606299214
 30
0.0
 10
1.5226732283464568
 20
-1.4978149606299214
 30
0.0
 10
1.387484251968504
 20
-1.3327007874015748
 30
0.0
 10
1.387484251968504
 20
-1.3327007874015748
 30
0.0
  0
SPLINE
  5
30
100
AcDbEntity
  8
Layer 1
 62
     9
100
AcDbSpline
210
0.0
220
0.0
230
1.0
 70
     1
 71
     3
 72
    20
 73
    16
 74
     0
 42
0.0000000001
 43
0.0000000001
 40
0.0
 40
0.0
 40
0.0
 40
0.0
 40
0.25
 40
0.25
 40
0.25
 40
0.25
 40
0.5
 40
0.5
 40
0.5
 40
0.5
 40
0.75
 40
0.75
 40
0.75
 40
0.75
 40
1.0
 40
1.0
 40
1.0
 40
1.0
 10
1.5226732283464568
 20
-1.4978149606299214
 30
0.0
 10
1.5226732283464568
 20
-1.4978149606299214
 30
0.0
 10
2.1809921259842522
 20
-1.1268425196850393
 30
0.0
 10
2.1809921259842522
 20
-1.1268425196850393
 30
0.0
 10
2.1809921259842522
 20
-1.1268425196850393
 30
0.0
 10
2.1809921259842522
 20
-1.1268425196850393
 30
0.0
 10
2.2993464566929136
 20
-1.3011535433070867
 30
0.0
 10
2.2993464566929136
 20
-1.3011535433070867
 30
0.0
 10
2.2993464566929136
 20
-1.3011535433070867
 30
0.0
 10
2.2993464566929136
 20
-1.3011535433070867
 30
0.0
 10
1.6410275590551182
 20
-1.6721259842519687
 30
0.0
 10
1.6410275590551182
 20
-1.6721259842519687
 30
0.0
 10
1.6410275590551182
 20
-1.6721259842519687
 30
0.0
 10
1.6410275590551182
 20
-1.6721259842519687
 30
0.0
 10
1.5226732283464568
 20
-1.4978149606299214
 30
0.0
 10
1.5226732283464568
 20
-1.4978149606299214
 30
0.0
  0
SPLINE
  5
31
100
AcDbEntity
  8
Layer 1
 62
     9
100
AcDbSpline
210
0.0
220
0.0
230
1.0
 70
     1
 71
     3
 72
    20
 73
    16
 74
     0
 42
0.0000000001
 43
0.0000000001
 40
0.0
 40
0.0
 40
0.0
 40
0.0
 40
0.25
 40
0.25
 40
0.25
 40
0.25
 40
0.5
 40
0.5
 40
0.5
 40
0.5
 40
0.75
 40
0.75
 40
0.75
 40
0.75
 40
1.0
 40
1.0
 40
1.0
 40
1.0
 10
1.6410275590551182
 20
-1.6721259842519687
 30
0.0
 10
1.6410275590551182
 20
-1.6721259842519687
 30
0.0
 10
2.2993464566929136
 20
-1.3011535433070867
 30
0.0
 10
2.2993464566929136
 20
-1.3011535433070867
 30
0.0
 10
2.2993464566929136
 20
-1.3011535433070867
 30
0.0
 10
2.2993464566929136
 20
-1.3011535433070867
 30
0.0
 10
2.4007440944881893
 20
-1.4831220472440945
 30
0.0
 10
2.4007440944881893
 20
-1.4831220472440945
 30
0.0
 10
2.4007440944881893
 20
-1.4831220472440945
 30
0.0
 10
2.4007440944881893
 20
-1.4831220472440945
 30
0.0
 10
1.7424251968503939
 20
-1.8540944881889765
 30
0.0
 10
1.7424251968503939
 20
-1.8540944881889765
 30
0.0
 10
1.7424251968503939
 20
-1.8540944881889765
 30
0.0
 10
1.7424251968503939
 20
-1.8540944881889765
 30
0.0
 10
1.6410275590551182
 20
-1.6721259842519687
 30
0.0
 10
1.6410275590551182
 20
-1.6721259842519687
 30
0.0
  0
SPLINE
  5
32
100
AcDbEntity
  8
Layer 1
 62
     9
100
AcDbSpline
210
0.0
220
0.0
230
1.0
 70
     1
 71
     3
 72
    20
 73
    16
 74
     0
 42
0.0000000001
 43
0.0000000001
 40
0.0
 40
0.0
 40
0.0
 40
0.0
 40
0.25
 40
0.25
 40
0.25
 40
0.25
 40
0.5
 40
0.5
 40
0.5
 40
0.5
 40
0.75
 40
0.75
 40
0.75
 40
0.75
 40
1.0
 40
1.0
 40
1.0
 40
1.0
 10
1.7424251968503939
 20
-1.8540944881889765
 30
0.0
 10
1.7424251968503939
 20
-1.8540944881889765
 30
0.0
 10
2.4007440944881893
 20
-1.4831220472440945
 30
0.0
 10
2.4007440944881893
 20
-1.4831220472440945
 30
0.0
 10
2.4007440944881893
 20
-1.4831220472440945
 30
0.0
 10
2.4007440944881893
 20
-1.4831220472440945
 30
0.0
 10
2.4850275590551183
 20
-1.671232283464567
 30
0.0
 10
2.4850275590551183
 20
-1.671232283464567
 30
0.0
 10
2.4850275590551183
 20
-1.671232283464567
 30
0.0
 10
2.4850275590551183
 20
-1.671232283464567
 30
0.0
 10
1.8267086614173229
 20
-2.0422047244094488
 30
0.0
 10
1.8267086614173229
 20
-2.0422047244094488
 30
0.0
 10
1.8267086614173229
 20
-2.0422047244094488
 30
0.0
 10
1.8267086614173229
 20
-2.0422047244094488
 30
0.0
 10
1.7424251968503939
 20
-1.8540944881889765
 30
0.0
 10
1.7424251968503939
 20
-1.8540944881889765
 30
0.0
  0
SPLINE
  5
33
100
AcDbEntity
  8
Layer 1
 62
     9
100
AcDbSpline
210
0.0
220
0.0
230
1.0
 70
     1
 71
     3
 72
    20
 73
    16
 74
     0
 42
0.0000000001
 43
0.0000000001
 40
0.0
 40
0.0
 40
0.0
 40
0.0
 40
0.25
 40
0.25
 40
0.25
 40
0.25
 40
0.5
 40
0.5
 40
0.5
 40
0.5
 40
0.75
 40
0.75
 40
0.75
 40
0.75
 40
1.0
 40
1.0
 40
1.0
 40
1.0
 10
1.8267086614173229
 20
-2.0422047244094488
 30
0.0
 10
1.8267086614173229
 20
-2.0422047244094488
 30
0.0
 10
2.4850275590551183
 20
-1.671232283464567
 30
0.0
 10
2.4850275590551183
 20
-1.671232283464567
 30
0.0
 10
2.4850275590551183
 20
-1.671232283464567
 30
0.0
 10
2.4850275590551183
 20
-1.671232283464567
 30
0.0
 10
2.5520669291338582
 20
-1.8639330708661419
 30
0.0
 10
2.5520669291338582
 20
-1.8639330708661419
 30
0.0
 10
2.5520669291338582
 20
-1.8639330708661419
 30
0.0
 10
2.5520669291338582
 20
-1.8639330708661419
 30
0.0
 10
1.8937480314960631
 20
-2.2349055118110237
 30
0.0
 10
1.8937480314960631
 20
-2.2349055118110237
 30
0.0
 10
1.8937480314960631
 20
-2.2349055118110237
 30
0.0
 10
1.8937480314960631
 20
-2.2349055118110237
 30
0.0
 10
1.8267086614173229
 20
-2.0422047244094488
 30
0.0
 10
1.8267086614173229
 20
-2.0422047244094488
 30
0.0
  0
SPLINE
  5
34
100
AcDbEntity
  8
Layer 1
 62
     9
100
AcDbSpline
210
0.0
220
0.0
230
1.0
 70
     1
 71
     3
 72
    20
 73
    16
 74
     0
 42
0.0000000001
 43
0.0000000001
 40
0.0
 40
0.0
 40
0.0
 40
0.0
 40
0.25
 40
0.25
 40
0.25
 40
0.25
 40
0.5
 40
0.5
 40
0.5
 40
0.5
 40
0.75
 40
0.75
 40
0.75
 40
0.75
 40
1.0
 40
1.0
 40
1.0
 40
1.0
 10
1.8937480314960631
 20
-2.2349055118110237
 30
0.0
 10
1.8937480314960631
 20
-2.2349055118110237
 30
0.0
 10
2.5520669291338582
 20
-1.8639330708661419
 30
0.0
 10
2.5520669291338582
 20
-1.8639330708661419
 30
0.0
 10
2.5520669291338582
 20
-1.8639330708661419
 30
0.0
 10
2.5520669291338582
 20
-1.8639330708661419
 30
0.0
 10
2.6017204724409448
 20
-2.0597047244094489
 30
0.0
 10
2.6017204724409448
 20
-2.0597047244094489
 30
0.0
 10
2.6017204724409448
 20
-2.0597047244094489
 30
0.0
 10
2.6017204724409448
 20
-2.0597047244094489
 30
0.0
 10
1.9434015748031497
 20
-2.4306771653543309
 30
0.0
 10
1.9434015748031497
 20
-2.4306771653543309
 30
0.0
 10
1.9434015748031497
 20
-2.4306771653543309
 30
0.0
 10
1.9434015748031497
 20
-2.4306771653543309
 30
0.0
 10
1.8937480314960631
 20
-2.2349055118110237
 30
0.0
 10
1.8937480314960631
 20
-2.2349055118110237
 30
0.0
  0
SPLINE
  5
35
100
AcDbEntity
  8
Layer 1
 62
     9
100
AcDbSpline
210
0.0
220
0.0
230
1.0
 70
     1
 71
     3
 72
    20
 73
    16
 74
     0
 42
0.0000000001
 43
0.0000000001
 40
0.0
 40
0.0
 40
0.0
 40
0.0
 40
0.25
 40
0.25
 40
0.25
 40
0.25
 40
0.5
 40
0.5
 40
0.5
 40
0.5
 40
0.75
 40
0.75
 40
0.75
 40
0.75
 40
1.0
 40
1.0
 40
1.0
 40
1.0
 10
1.9434015748031497
 20
-2.4306771653543309
 30
0.0
 10
1.9434015748031497
 20
-2.4306771653543309
 30
0.0
 10
2.6017204724409448
 20
-2.0597047244094489
 30
0.0
 10
2.6017204724409448
 20
-2.0597047244094489
 30
0.0
 10
2.6017204724409448
 20
-2.0597047244094489
 30
0.0
 10
2.6017204724409448
 20
-2.0597047244094489
 30
0.0
 10
2.6338582677165356
 20
-2.2570000000000001
 30
0.0
 10
2.6338582677165356
 20
-2.2570000000000001
 30
0.0
 10
2.6338582677165356
 20
-2.2570000000000001
 30
0.0
 10
2.6338582677165356
 20
-2.2570000000000001
 30
0.0
 10
1.9755393700787403
 20
-2.6279724409448821
 30
0.0
 10
1.9755393700787403
 20
-2.6279724409448821
 30
0.0
 10
1.9755393700787403
 20
-2.6279724409448821
 30
0.0
 10
1.9755393700787403
 20
-2.6279724409448821
 30
0.0
 10
1.9434015748031497
 20
-2.4306771653543309
 30
0.0
 10
1.9434015748031497
 20
-2.4306771653543309
 30
0.0
  0
SPLINE
  5
36
100
AcDbEntity
  8
Layer 1
 62
     9
100
AcDbSpline
210
0.0
220
0.0
230
1.0
 70
     1
 71
     3
 72
    20
 73
    16
 74
     0
 42
0.0000000001
 43
0.0000000001
 40
0.0
 40
0.0
 40
0.0
 40
0.0
 40
0.25
 40
0.25
 40
0.25
 40
0.25
 40
0.5
 40
0.5
 40
0.5
 40
0.5
 40
0.75
 40
0.75
 40
0.75
 40
0.75
 40
1.0
 40
1.0
 40
1.0
 40
1.0
 10
1.9755393700787403
 20
-2.6279724409448821
 30
0.0
 10
1.9755393700787403
 20
-2.6279724409448821
 30
0.0
 10
2.6338582677165356
 20
-2.2570000000000001
 30
0.0
 10
2.6338582677165356
 20
-2.2570000000000001
 30
0.0
 10
2.6338582677165356
 20
-2.2570000000000001
 30
0.0
 10
2.6338582677165356
 20
-2.2570000000000001
 30
0.0
 10
2.6483228346456693
 20
-2.4543070866141732
 30
0.0
 10
2.6483228346456693
 20
-2.4543070866141732
 30
0.0
 10
2.6483228346456693
 20
-2.4543070866141732
 30
0.0
 10
2.6483228346456693
 20
-2.4543070866141732
 30
0.0
 10
1.9900039370078741
 20
-2.8252795275590552
 30
0.0
 10
1.9900039370078741
 20
-2.8252795275590552
 30
0.0
 10
1.9900039370078741
 20
-2.8252795275590552
 30
0.0
 10
1.9900039370078741
 20
-2.8252795275590552
 30
0.0
 10
1.9755393700787403
 20
-2.6279724409448821
 30
0.0
 10
1.9755393700787403
 20
-2.6279724409448821
 30
0.0
  0
SPLINE
  5
37
100
AcDbEntity
  8
Layer 1
 62
     9
100
AcDbSpline
210
0.0
220
0.0
230
1.0
 70
     1
 71
     3
 72
    20
 73
    16
 74
     0
 42
0.0000000001
 43
0.0000000001
 40
0.0
 40
0.0
 40
0.0
 40
0.0
 40
0.25
 40
0.25
 40
0.25
 40
0.25
 40
0.5
 40
0.5
 40
0.5
 40
0.5
 40
0.75
 40
0.75
 40
0.75
 40
0.75
 40
1.0
 40
1.0
 40
1.0
 40
1.0
 10
1.9900039370078741
 20
-2.8252795275590552
 30
0.0
 10
1.9900039370078741
 20
-2.8252795275590552
 30
0.0
 10
2.6483228346456693
 20
-2.4543070866141732
 30
0.0
 10
2.6483228346456693
 20
-2.4543070866141732
 30
0.0
 10
2.6483228346456693
 20
-2.4543070866141732
 30
0.0
 10
2.6483228346456693
 20
-2.4543070866141732
 30
0.0
 10
2.6449842519685038
 20
-2.6500708661417325
 30
0.0
 10
2.6449842519685038
 20
-2.6500708661417325
 30
0.0
 10
2.6449842519685038
 20
-2.6500708661417325
 30
0.0
 10
2.6449842519685038
 20
-2.6500708661417325
 30
0.0
 10
1.9866653543307087
 20
-3.0210433070866145
 30
0.0
 10
1.9866653543307087
 20
-3.0210433070866145
 30
0.0
 10
1.9866653543307087
 20
-3.0210433070866145
 30
0.0
 10
1.9866653543307087
 20
-3.0210433070866145
 30
0.0
 10
1.9900039370078741
 20
-2.8252795275590552
 30
0.0
 10
1.9900039370078741
 20
-2.8252795275590552
 30
0.0
  0
SPLINE
  5
38
100
AcDbEntity
  8
Layer 1
 62
     9
100
AcDbSpline
210
0.0
220
0.0
230
1.0
 70
     1
 71
     3
 72
    20
 73
    16
 74
     0
 42
0.0000000001
 43
0.0000000001
 40
0.0
 40
0.0
 40
0.0
 40
0.0
 40
0.25
 40
0.25
 40
0.25
 40
0.25
 40
0.5
 40
0.5
 40
0.5
 40
0.5
 40
0.75
 40
0.75
 40
0.75
 40
0.75
 40
1.0
 40
1.0
 40
1.0
 40
1.0
 10
1.9866653543307087
 20
-3.0210433070866145
 30
0.0
 10
1.9866653543307087
 20
-3.0210433070866145
 30
0.0
 10
2.6449842519685038
 20
-2.6500708661417325
 30
0.0
 10
2.6449842519685038
 20
-2.6500708661417325
 30
0.0
 10
2.6449842519685038
 20
-2.6500708661417325
 30
0.0
 10
2.6449842519685038
 20
-2.6500708661417325
 30
0.0
 10
2.6237047244094489
 20
-2.8427795275590553
 30
0.0
 10
2.6237047244094489
 20
-2.8427795275590553
 30
0.0
 10
2.6237047244094489
 20
-2.8427795275590553
 30
0.0
 10
2.6237047244094489
 20
-2.8427795275590553
 30
0.0
 10
1.9653858267716535
 20
-3.2137519685039373
 30
0.0
 10
1.9653858267716535
 20
-3.2137519685039373
 30
0.0
 10
1.9653858267716535
 20
-3.2137519685039373
 30
0.0
 10
1.9653858267716535
 20
-3.2137519685039373
 30
0.0
 10
1.9866653543307087
 20
-3.0210433070866145
 30
0.0
 10
1.9866653543307087
 20
-3.0210433070866145
 30
0.0
  0
SPLINE
  5
39
100
AcDbEntity
  8
Layer 1
 62
     9
100
AcDbSpline
210
0.0
220
0.0
230
1.0
 70
     1
 71
     3
 72
    20
 73
    16
 74
     0
 42
0.0000000001
 43
0.0000000001
 40
0.0
 40
0.0
 40
0.0
 40
0.0
 40
0.25
 40
0.25
 40
0.25
 40
0.25
 40
0.5
 40
0.5
 40
0.5
 40
0.5
 40
0.75
 40
0.75
 40
0.75
 40
0.75
 40
1.0
 40
1.0
 40
1.0
 40
1.0
 10
1.9653858267716535
 20
-3.2137519685039373
 30
0.0
 10
1.9653858267716535
 20
-3.2137519685039373
 30
0.0
 10
2.6237047244094489
 20
-2.8427795275590553
 30
0.0
 10
2.6237047244094489
 20
-2.8427795275590553
 30
0.0
 10
2.6237047244094489
 20
-2.8427795275590553
 30
0.0
 10
2.6237047244094489
 20
-2.8427795275590553
 30
0.0
 10
2.5843503937007877
 20
-3.0308818897637795
 30
0.0
 10
2.5843503937007877
 20
-3.0308818897637795
 30
0.0
 10
2.5843503937007877
 20
-3.0308818897637795
 30
0.0
 10
2.5843503937007877
 20
-3.0308818897637795
 30
0.0
 10
1.9260314960629923
 20
-3.4018543307086615
 30
0.0
 10
1.9260314960629923
 20
-3.4018543307086615
 30
0.0
 10
1.9260314960629923
 20
-3.4018543307086615
 30
0.0
 10
1.9260314960629923
 20
-3.4018543307086615
 30
0.0
 10
1.9653858267716535
 20
-3.2137519685039373
 30
0.0
 10
1.9653858267716535
 20
-3.2137519685039373
 30
0.0
  0
SPLINE
  5
3A
100
AcDbEntity
  8
Layer 1
 62
     9
100
AcDbSpline
210
0.0
220
0.0
230
1.0
 70
     1
 71
     3
 72
    20
 73
    16
 74
     0
 42
0.0000000001
 43
0.0000000001
 40
0.0
 40
0.0
 40
0.0
 40
0.0
 40
0.25
 40
0.25
 40
0.25
 40
0.25
 40
0.5
 40
0.5
 40
0.5
 40
0.5
 40
0.75
 40
0.75
 40
0.75
 40
0.75
 40
1.0
 40
1.0
 40
1.0
 40
1.0
 10
1.9260314960629923
 20
-3.4018543307086615
 30
0.0
 10
1.9260314960629923
 20
-3.4018543307086615
 30
0.0
 10
2.5843503937007877
 20
-3.0308818897637795
 30
0.0
 10
2.5843503937007877
 20
-3.0308818897637795
 30
0.0
 10
2.5843503937007877
 20
-3.0308818897637795
 30
0.0
 10
2.5843503937007877
 20
-3.0308818897637795
 30
0.0
 10
2.5267637795275593
 20
-3.2128622047244098
 30
0.0
 10
2.5267637795275593
 20
-3.2128622047244098
 30
0.0
 10
2.5267637795275593
 20
-3.2128622047244098
 30
0.0
 10
2.5267637795275593
 20
-3.2128622047244098
 30
0.0
 10
1.8684448818897639
 20
-3.5838346456692913
 30
0.0
 10
1.8684448818897639
 20
-3.5838346456692913
 30
0.0
 10
1.8684448818897639
 20
-3.5838346456692913
 30
0.0
 10
1.8684448818897639
 20
-3.5838346456692913
 30
0.0
 10
1.9260314960629923
 20
-3.4018543307086615
 30
0.0
 10
1.9260314960629923
 20
-3.4018543307086615
 30
0.0
  0
SPLINE
  5
3B
100
AcDbEntity
  8
Layer 1
 62
     9
100
AcDbSpline
210
0.0
220
0.0
230
1.0
 70
     1
 71
     3
 72
    20
 73
    16
 74
     0
 42
0.0000000001
 43
0.0000000001
 40
0.0
 40
0.0
 40
0.0
 40
0.0
 40
0.25
 40
0.25
 40
0.25
 40
0.25
 40
0.5
 40
0.5
 40
0.5
 40
0.5
 40
0.75
 40
0.75
 40
0.75
 40
0.75
 40
1.0
 40
1.0
 40
1.0
 40
1.0
 10
1.8684448818897639
 20
-3.5838346456692913
 30
0.0
 10
1.8684448818897639
 20
-3.5838346456692913
 30
0.0
 10
2.5267637795275593
 20
-3.2128622047244098
 30
0.0
 10
2.5267637795275593
 20
-3.2128622047244098
 30
0.0
 10
2.5267637795275593
 20
-3.2128622047244098
 30
0.0
 10
2.5267637795275593
 20
-3.2128622047244098
 30
0.0
 10
2.4508307086614174
 20
-3.3871692913385827
 30
0.0
 10
2.4508307086614174
 20
-3.3871692913385827
 30
0.0
 10
2.4508307086614174
 20
-3.3871692913385827
 30
0.0
 10
2.4508307086614174
 20
-3.3871692913385827
 30
0.0
 10
1.7925118110236222
 20
-3.7581417322834647
 30
0.0
 10
1.7925118110236222
 20
-3.7581417322834647
 30
0.0
 10
1.7925118110236222
 20
-3.7581417322834647
 30
0.0
 10
1.7925118110236222
 20
-3.7581417322834647
 30
0.0
 10
1.8684448818897639
 20
-3.5838346456692913
 30
0.0
 10
1.8684448818897639
 20
-3.5838346456692913
 30
0.0
  0
SPLINE
  5
3C
100
AcDbEntity
  8
Layer 1
 62
     9
100
AcDbSpline
210
0.0
220
0.0
230
1.0
 70
     1
 71
     3
 72
    20
 73
    16
 74
     0
 42
0.0000000001
 43
0.0000000001
 40
0.0
 40
0.0
 40
0.0
 40
0.0
 40
0.25
 40
0.25
 40
0.25
 40
0.25
 40
0.5
 40
0.5
 40
0.5
 40
0.5
 40
0.75
 40
0.75
 40
0.75
 40
0.75
 40
1.0
 40
1.0
 40
1.0
 40
1.0
 10
1.7925118110236222
 20
-3.7581417322834647
 30
0.0
 10
1.7925118110236222
 20
-3.7581417322834647
 30
0.0
 10
2.4508307086614174
 20
-3.3871692913385827
 30
0.0
 10
2.4508307086614174
 20
-3.3871692913385827
 30
0.0
 10
2.4508307086614174
 20
-3.3871692913385827
 30
0.0
 10
2.4508307086614174
 20
-3.3871692913385827
 30
0.0
 10
2.3563897637795277
 20
-3.5522834645669294
 30
0.0
 10
2.3563897637795277
 20
-3.5522834645669294
 30
0.0
 10
2.3563897637795277
 20
-3.5522834645669294
 30
0.0
 10
2.3563897637795277
 20
-3.5522834645669294
 30
0.0
 10
1.6980708661417323
 20
-3.923255905511811
 30
0.0
 10
1.6980708661417323
 20
-3.923255905511811
 30
0.0
 10
1.6980708661417323
 20
-3.923255905511811
 30
0.0
 10
1.6980708661417323
 20
-3.923255905511811
 30
0.0
 10
1.7925118110236222
 20
-3.7581417322834647
 30
0.0
 10
1.7925118110236222
 20
-3.7581417322834647
 30
0.0
  0
SPLINE
  5
3D
100
AcDbEntity
  8
Layer 1
 62
     9
100
AcDbSpline
210
0.0
220
0.0
230
1.0
 70
     1
 71
     3
 72
    20
 73
    16
 74
     0
 42
0.0000000001
 43
0.0000000001
 40
0.0
 40
0.0
 40
0.0
 40
0.0
 40
0.25
 40
0.25
 40
0.25
 40
0.25
 40
0.5
 40
0.5
 40
0.5
 40
0.5
 40
0.75
 40
0.75
 40
0.75
 40
0.75
 40
1.0
 40
1.0
 40
1.0
 40
1.0
 10
1.6980708661417323
 20
-3.923255905511811
 30
0.0
 10
1.6980708661417323
 20
-3.923255905511811
 30
0.0
 10
2.3563897637795277
 20
-3.5522834645669294
 30
0.0
 10
2.3563897637795277
 20
-3.5522834645669294
 30
0.0
 10
2.3563897637795277
 20
-3.5522834645669294
 30
0.0
 10
2.3563897637795277
 20
-3.5522834645669294
 30
0.0
 10
2.2433149606299212
 20
-3.7066653543307089
 30
0.0
 10
2.2433149606299212
 20
-3.7066653543307089
 30
0.0
 10
2.2433149606299212
 20
-3.7066653543307089
 30
0.0
 10
2.2433149606299212
 20
-3.7066653543307089
 30
0.0
 10
1.584996062992126
 20
-4.0776377952755904
 30
0.0
 10
1.584996062992126
 20
-4.0776377952755904
 30
0.0
 10
1.584996062992126
 20
-4.0776377952755904
 30
0.0
 10
1.584996062992126
 20
-4.0776377952755904
 30
0.0
 10
1.6980708661417323
 20
-3.923255905511811
 30
0.0
 10
1.6980708661417323
 20
-3.923255905511811
 30
0.0
  0
SPLINE
  5
3E
100
AcDbEntity
  8
Layer 1
 62
     9
100
AcDbSpline
210
0.0
220
0.0
230
1.0
 70
     1
 71
     3
 72
    20
 73
    16
 74
     0
 42
0.0000000001
 43
0.0000000001
 40
0.0
 40
0.0
 40
0.0
 40
0.0
 40
0.25
 40
0.25
 40
0.25
 40
0.25
 40
0.5
 40
0.5
 40
0.5
 40
0.5
 40
0.75
 40
0.75
 40
0.75
 40
0.75
 40
1.0
 40
1.0
 40
1.0
 40
1.0
 10
1.584996062992126
 20
-4.0776377952755904
 30
0.0
 10
1.584996062992126
 20
-4.0776377952755904
 30
0.0
 10
2.2433149606299212
 20
-3.7066653543307089
 30
0.0
 10
2.2433149606299212
 20
-3.7066653543307089
 30
0.0
 10
2.2433149606299212
 20
-3.7066653543307089
 30
0.0
 10
2.2433149606299212
 20
-3.7066653543307089
 30
0.0
 10
2.1114566929133858
 20
-3.8487913385826773
 30
0.0
 10
2.1114566929133858
 20
-3.8487913385826773
 30
0.0
 10
2.1114566929133858
 20
-3.8487913385826773
 30
0.0
 10
2.1114566929133858
 20
-3.8487913385826773
 30
0.0
 10
1.4531377952755906
 20
-4.2197637795275593
 30
0.0
 10
1.4531377952755906
 20
-4.2197637795275593
 30
0.0
 10
1.4531377952755906
 20
-4.2197637795275593
 30
0.0
 10
1.4531377952755906
 20
-4.2197637795275593
 30
0.0
 10
1.584996062992126
 20
-4.0776377952755904
 30
0.0
 10
1.584996062992126
 20
-4.0776377952755904
 30
0.0
  0
SPLINE
  5
3F
100
AcDbEntity
  8
Layer 1
 62
     9
100
AcDbSpline
210
0.0
220
0.0
230
1.0
 70
     1
 71
     3
 72
    20
 73
    16
 74
     0
 42
0.0000000001
 43
0.0000000001
 40
0.0
 40
0.0
 40
0.0
 40
0.0
 40
0.25
 40
0.25
 40
0.25
 40
0.25
 40
0.5
 40
0.5
 40
0.5
 40
0.5
 40
0.75
 40
0.75
 40
0.75
 40
0.75
 40
1.0
 40
1.0
 40
1.0
 40
1.0
 10
1.4531377952755906
 20
-4.2197637795275593
 30
0.0
 10
1.4531377952755906
 20
-4.2197637795275593
 30
0.0
 10
2.1114566929133858
 20
-3.8487913385826773
 30
0.0
 10
2.1114566929133858
 20
-3.8487913385826773
 30
0.0
 10
2.1114566929133858
 20
-3.8487913385826773
 30
0.0
 10
2.1114566929133858
 20
-3.8487913385826773
 30
0.0
 10
1.9606811023622048
 20
-3.9771141732283466
 30
0.0
 10
1.9606811023622048
 20
-3.9771141732283466
 30
0.0
 10
1.9606811023622048
 20
-3.9771141732283466
 30
0.0
 10
1.9606811023622048
 20
-3.9771141732283466
 30
0.0
 10
1.3023622047244094
 20
-4.3480866141732282
 30
0.0
 10
1.3023622047244094
 20
-4.3480866141732282
 30
0.0
 10
1.3023622047244094
 20
-4.3480866141732282
 30
0.0
 10
1.3023622047244094
 20
-4.3480866141732282
 30
0.0
 10
1.4531377952755906
 20
-4.2197637795275593
 30
0.0
 10
1.4531377952755906
 20
-4.2197637795275593
 30
0.0
  0
SPLINE
  5
40
100
AcDbEntity
  8
Layer 1
370
     5
100
AcDbSpline
210
0.0
220
0.0
230
1.0
 70
     1
 71
     3
 72
   220
 73
   216
 74
     0
 42
0.0000000001
 43
0.0000000001
 40
0.0
 40
0.0
 40
0.0
 40
0.0
 40
0.0185185185185185
 40
0.0185185185185185
 40
0.0185185185185185
 40
0.0185185185185185
 40
0.037037037037037
 40
0.037037037037037
 40
0.037037037037037
 40
0.037037037037037
 40
0.0555555555555556
 40
0.0555555555555556
 40
0.0555555555555556
 40
0.0555555555555556
 40
0.0740740740740741
 40
0.0740740740740741
 40
0.0740740740740741
 40
0.0740740740740741
 40
0.0925925925925926
 40
0.0925925925925926
 40
0.0925925925925926
 40
0.0925925925925926
 40
0.1111111111111111
 40
0.1111111111111111
 40
0.1111111111111111
 40
0.1111111111111111
 40
0.1296296296296296
 40
0.1296296296296296
 40
0.1296296296296296
 40
0.1296296296296296
 40
0.1481481481481481
 40
0.1481481481481481
 40
0.1481481481481481
 40
0.1481481481481481
 40
0.1666666666666667
 40
0.1666666666666667
 40
0.1666666666666667
 40
0.1666666666666667
 40
0.1851851851851852
 40
0.1851851851851852
 40
0.1851851851851852
 40
0.1851851851851852
 40
0.2037037037037037
 40
0.2037037037037037
 40
0.2037037037037037
 40
0.2037037037037037
 40
0.2222222222222222
 40
0.2222222222222222
 40
0.2222222222222222
 40
0.2222222222222222
 40
0.2407407407407407
 40
0.2407407407407407
 40
0.2407407407407407
 40
0.2407407407407407
 40
0.2592592592592592
 40
0.2592592592592592
 40
0.2592592592592592
 40
0.2592592592592592
 40
0.2777777777777778
 40
0.2777777777777778
 40
0.2777777777777778
 40
0.2777777777777778
 40
0.2962962962962963
 40
0.2962962962962963
 40
0.2962962962962963
 40
0.2962962962962963
 40
0.3148148148148148
 40
0.3148148148148148
 40
0.3148148148148148
 40
0.3148148148148148
 40
0.3333333333333333
 40
0.3333333333333333
 40
0.3333333333333333
 40
0.3333333333333333
 40
0.3518518518518518
 40
0.3518518518518518
 40
0.3518518518518518
 40
0.3518518518518518
 40
0.3703703703703702
 40
0.3703703703703702
 40
0.3703703703703702
 40
0.3703703703703702
 40
0.3888888888888887
 40
0.3888888888888887
 40
0.3888888888888887
 40
0.3888888888888887
 40
0.4074074074074072
 40
0.4074074074074072
 40
0.4074074074074072
 40
0.4074074074074072
 40
0.4259259259259257
 40
0.4259259259259257
 40
0.4259259259259257
 40
0.4259259259259257
 40
0.4444444444444442
 40
0.4444444444444442
 40
0.4444444444444442
 40
0.4444444444444442
 40
0.4629629629629627
 40
0.4629629629629627
 40
0.4629629629629627
 40
0.4629629629629627
 40
0.4814814814814812
 40
0.4814814814814812
 40
0.4814814814814812
 40
0.4814814814814812
 40
0.4999999999999997
 40
0.4999999999999997
 40
0.4999999999999997
 40
0.4999999999999997
 40
0.5185185185185182
 40
0.5185185185185182
 40
0.5185185185185182
 40
0.5185185185185182
 40
0.5370370370370367
 40
0.5370370370370367
 40
0.5370370370370367
 40
0.5370370370370367
 40
0.5555555555555551
 40
0.5555555555555551
 40
0.5555555555555551
 40
0.5555555555555551
 40
0.5740740740740736
 40
0.5740740740740736
 40
0.5740740740740736
 40
0.5740740740740736
 40
0.5925925925925921
 40
0.5925925925925921
 40
0.5925925925925921
 40
0.5925925925925921
 40
0.6111111111111106
 40
0.6111111111111106
 40
0.6111111111111106
 40
0.6111111111111106
 40
0.6296296296296291
 40
0.6296296296296291
 40
0.6296296296296291
 40
0.6296296296296291
 40
0.6481481481481476
 40
0.6481481481481476
 40
0.6481481481481476
 40
0.6481481481481476
 40
0.6666666666666661
 40
0.6666666666666661
 40
0.6666666666666661
 40
0.6666666666666661
 40
0.6851851851851846
 40
0.6851851851851846
 40
0.6851851851851846
 40
0.6851851851851846
 40
0.7037037037037031
 40
0.7037037037037031
 40
0.7037037037037031
 40
0.7037037037037031
 40
0.7222222222222215
 40
0.7222222222222215
 40
0.7222222222222215
 40
0.7222222222222215
 40
0.74074074074074
 40
0.74074074074074
 40
0.74074074074074
 40
0.74074074074074
 40
0.7592592592592585
 40
0.7592592592592585
 40
0.7592592592592585
 40
0.7592592592592585
 40
0.777777777777777
 40
0.777777777777777
 40
0.777777777777777
 40
0.777777777777777
 40
0.7962962962962955
 40
0.7962962962962955
 40
0.7962962962962955
 40
0.7962962962962955
 40
0.814814814814814
 40
0.814814814814814
 40
0.814814814814814
 40
0.814814814814814
 40
0.8333333333333325
 40
0.8333333333333325
 40
0.8333333333333325
 40
0.8333333333333325
 40
0.851851851851851
 40
0.851851851851851
 40
0.851851851851851
 40
0.851851851851851
 40
0.8703703703703695
 40
0.8703703703703695
 40
0.8703703703703695
 40
0.8703703703703695
 40
0.888888888888888
 40
0.888888888888888
 40
0.888888888888888
 40
0.888888888888888
 40
0.9074074074074064
 40
0.9074074074074064
 40
0.9074074074074064
 40
0.9074074074074064
 40
0.9259259259259249
 40
0.9259259259259249
 40
0.9259259259259249
 40
0.9259259259259249
 40
0.9444444444444434
 40
0.9444444444444434
 40
0.9444444444444434
 40
0.9444444444444434
 40
0.9629629629629619
 40
0.9629629629629619
 40
0.9629629629629619
 40
0.9629629629629619
 40
0.9814814814814804
 40
0.9814814814814804
 40
0.9814814814814804
 40
0.9814814814814804
 40
1.0
 40
1.0
 40
1.0
 40
1.0
 10
-0.5634330708661418
 20
-0.5133779527559056
 30
0.0
 10
-0.5634330708661418
 20
-0.5133779527559056
 30
0.0
 10
0.0948858267716536
 20
-0.1424055118110236
 30
0.0
 10
0.0948858267716536
 20
-0.1424055118110236
 30
0.0
 10
0.0948858267716536
 20
-0.1424055118110236
 30
0.0
 10
0.0948858267716536
 20
-0.1424055118110236
 30
0.0
 10
0.375244094488189
 20
-0.1557913385826772
 30
0.0
 10
0.375244094488189
 20
-0.1557913385826772
 30
0.0
 10
0.375244094488189
 20
-0.1557913385826772
 30
0.0
 10
0.375244094488189
 20
-0.1557913385826772
 30
0.0
 10
0.6400354330708662
 20
-0.1921574803149606
 30
0.0
 10
0.6400354330708662
 20
-0.1921574803149606
 30
0.0
 10
0.6400354330708662
 20
-0.1921574803149606
 30
0.0
 10
0.6400354330708662
 20
-0.1921574803149606
 30
0.0
 10
0.8891062992125984
 20
-0.249988188976378
 30
0.0
 10
0.8891062992125984
 20
-0.249988188976378
 30
0.0
 10
0.8891062992125984
 20
-0.249988188976378
 30
0.0
 10
0.8891062992125984
 20
-0.249988188976378
 30
0.0
 10
1.1223385826771655
 20
-0.3277362204724409
 30
0.0
 10
1.1223385826771655
 20
-0.3277362204724409
 30
0.0
 10
1.1223385826771655
 20
-0.3277362204724409
 30
0.0
 10
1.1223385826771655
 20
-0.3277362204724409
 30
0.0
 10
1.3395669291338583
 20
-0.4238858267716535
 30
0.0
 10
1.3395669291338583
 20
-0.4238858267716535
 30
0.0
 10
1.3395669291338583
 20
-0.4238858267716535
 30
0.0
 10
1.3395669291338583
 20
-0.4238858267716535
 30
0.0
 10
1.5406732283464568
 20
-0.5368858267716535
 30
0.0
 10
1.5406732283464568
 20
-0.5368858267716535
 30
0.0
 10
1.5406732283464568
 20
-0.5368858267716535
 30
0.0
 10
1.5406732283464568
 20
-0.5368858267716535
 30
0.0
 10
1.7255039370078742
 20
-0.6652165354330709
 30
0.0
 10
1.7255039370078742
 20
-0.6652165354330709
 30
0.0
 10
1.7255039370078742
 20
-0.6652165354330709
 30
0.0
 10
1.7255039370078742
 20
-0.6652165354330709
 30
0.0
 10
1.8939330708661417
 20
-0.8073346456692914
 30
0.0
 10
1.8939330708661417
 20
-0.8073346456692914
 30
0.0
 10
1.8939330708661417
 20
-0.8073346456692914
 30
0.0
 10
1.8939330708661417
 20
-0.8073346456692914
 30
0.0
 10
2.0458031496062992
 20
-0.9617283464566929
 30
0.0
 10
2.0458031496062992
 20
-0.9617283464566929
 30
0.0
 10
2.0458031496062992
 20
-0.9617283464566929
 30
0.0
 10
2.0458031496062992
 20
-0.9617283464566929
 30
0.0
 10
2.1809921259842522
 20
-1.1268425196850393
 30
0.0
 10
2.1809921259842522
 20
-1.1268425196850393
 30
0.0
 10
2.1809921259842522
 20
-1.1268425196850393
 30
0.0
 10
2.1809921259842522
 20
-1.1268425196850393
 30
0.0
 10
2.2993464566929136
 20
-1.3011535433070867
 30
0.0
 10
2.2993464566929136
 20
-1.3011535433070867
 30
0.0
 10
2.2993464566929136
 20
-1.3011535433070867
 30
0.0
 10
2.2993464566929136
 20
-1.3011535433070867
 30
0.0
 10
2.4007440944881893
 20
-1.4831220472440945
 30
0.0
 10
2.4007440944881893
 20
-1.4831220472440945
 30
0.0
 10
2.4007440944881893
 20
-1.4831220472440945
 30
0.0
 10
2.4007440944881893
 20
-1.4831220472440945
 30
0.0
 10
2.4850275590551183
 20
-1.671232283464567
 30
0.0
 10
2.4850275590551183
 20
-1.671232283464567
 30
0.0
 10
2.4850275590551183
 20
-1.671232283464567
 30
0.0
 10
2.4850275590551183
 20
-1.671232283464567
 30
0.0
 10
2.5520669291338582
 20
-1.8639330708661419
 30
0.0
 10
2.5520669291338582
 20
-1.8639330708661419
 30
0.0
 10
2.5520669291338582
 20
-1.8639330708661419
 30
0.0
 10
2.5520669291338582
 20
-1.8639330708661419
 30
0.0
 10
2.6017204724409448
 20
-2.0597047244094489
 30
0.0
 10
2.6017204724409448
 20
-2.0597047244094489
 30
0.0
 10
2.6017204724409448
 20
-2.0597047244094489
 30
0.0
 10
2.6017204724409448
 20
-2.0597047244094489
 30
0.0
 10
2.6338582677165356
 20
-2.2570000000000001
 30
0.0
 10
2.6338582677165356
 20
-2.2570000000000001
 30
0.0
 10
2.6338582677165356
 20
-2.2570000000000001
 30
0.0
 10
2.6338582677165356
 20
-2.2570000000000001
 30
0.0
 10
2.6483228346456693
 20
-2.4543070866141732
 30
0.0
 10
2.6483228346456693
 20
-2.4543070866141732
 30
0.0
 10
2.6483228346456693
 20
-2.4543070866141732
 30
0.0
 10
2.6483228346456693
 20
-2.4543070866141732
 30
0.0
 10
2.6449842519685038
 20
-2.6500708661417325
 30
0.0
 10
2.6449842519685038
 20
-2.6500708661417325
 30
0.0
 10
2.6449842519685038
 20
-2.6500708661417325
 30
0.0
 10
2.6449842519685038
 20
-2.6500708661417325
 30
0.0
 10
2.6237047244094489
 20
-2.8427795275590553
 30
0.0
 10
2.6237047244094489
 20
-2.8427795275590553
 30
0.0
 10
2.6237047244094489
 20
-2.8427795275590553
 30
0.0
 10
2.6237047244094489
 20
-2.8427795275590553
 30
0.0
 10
2.5843503937007877
 20
-3.0308818897637795
 30
0.0
 10
2.5843503937007877
 20
-3.0308818897637795
 30
0.0
 10
2.5843503937007877
 20
-3.0308818897637795
 30
0.0
 10
2.5843503937007877
 20
-3.0308818897637795
 30
0.0
 10
2.5267637795275593
 20
-3.2128622047244098
 30
0.0
 10
2.5267637795275593
 20
-3.2128622047244098
 30
0.0
 10
2.5267637795275593
 20
-3.2128622047244098
 30
0.0
 10
2.5267637795275593
 20
-3.2128622047244098
 30
0.0
 10
2.4508307086614174
 20
-3.3871692913385827
 30
0.0
 10
2.4508307086614174
 20
-3.3871692913385827
 30
0.0
 10
2.4508307086614174
 20
-3.3871692913385827
 30
0.0
 10
2.4508307086614174
 20
-3.3871692913385827
 30
0.0
 10
2.3563897637795277
 20
-3.5522834645669294
 30
0.0
 10
2.3563897637795277
 20
-3.5522834645669294
 30
0.0
 10
2.3563897637795277
 20
-3.5522834645669294
 30
0.0
 10
2.3563897637795277
 20
-3.5522834645669294
 30
0.0
 10
2.2433149606299212
 20
-3.7066653543307089
 30
0.0
 10
2.2433149606299212
 20
-3.7066653543307089
 30
0.0
 10
2.2433149606299212
 20
-3.7066653543307089
 30
0.0
 10
2.2433149606299212
 20
-3.7066653543307089
 30
0.0
 10
2.1114566929133858
 20
-3.8487913385826773
 30
0.0
 10
2.1114566929133858
 20
-3.8487913385826773
 30
0.0
 10
2.1114566929133858
 20
-3.8487913385826773
 30
0.0
 10
2.1114566929133858
 20
-3.8487913385826773
 30
0.0
 10
1.9606811023622048
 20
-3.9771141732283466
 30
0.0
 10
1.9606811023622048
 20
-3.9771141732283466
 30
0.0
 10
1.9606811023622048
 20
-3.9771141732283466
 30
0.0
 10
1.9606811023622048
 20
-3.9771141732283466
 30
0.0
 10
1.3023622047244094
 20
-4.3480866141732282
 30
0.0
 10
1.3023622047244094
 20
-4.3480866141732282
 30
0.0
 10
1.3023622047244094
 20
-4.3480866141732282
 30
0.0
 10
1.3023622047244094
 20
-4.3480866141732282
 30
0.0
 10
1.4531377952755906
 20
-4.2197637795275593
 30
0.0
 10
1.4531377952755906
 20
-4.2197637795275593
 30
0.0
 10
1.4531377952755906
 20
-4.2197637795275593
 30
0.0
 10
1.4531377952755906
 20
-4.2197637795275593
 30
0.0
 10
1.584996062992126
 20
-4.0776377952755904
 30
0.0
 10
1.584996062992126
 20
-4.0776377952755904
 30
0.0
 10
1.584996062992126
 20
-4.0776377952755904
 30
0.0
 10
1.584996062992126
 20
-4.0776377952755904
 30
0.0
 10
1.6980708661417323
 20
-3.923255905511811
 30
0.0
 10
1.6980708661417323
 20
-3.923255905511811
 30
0.0
 10
1.6980708661417323
 20
-3.923255905511811
 30
0.0
 10
1.6980708661417323
 20
-3.923255905511811
 30
0.0
 10
1.7925118110236222
 20
-3.7581417322834647
 30
0.0
 10
1.7925118110236222
 20
-3.7581417322834647
 30
0.0
 10
1.7925118110236222
 20
-3.7581417322834647
 30
0.0
 10
1.7925118110236222
 20
-3.7581417322834647
 30
0.0
 10
1.8684448818897639
 20
-3.5838346456692913
 30
0.0
 10
1.8684448818897639
 20
-3.5838346456692913
 30
0.0
 10
1.8684448818897639
 20
-3.5838346456692913
 30
0.0
 10
1.8684448818897639
 20
-3.5838346456692913
 30
0.0
 10
1.9260314960629923
 20
-3.4018543307086615
 30
0.0
 10
1.9260314960629923
 20
-3.4018543307086615
 30
0.0
 10
1.9260314960629923
 20
-3.4018543307086615
 30
0.0
 10
1.9260314960629923
 20
-3.4018543307086615
 30
0.0
 10
1.9653858267716535
 20
-3.2137519685039373
 30
0.0
 10
1.9653858267716535
 20
-3.2137519685039373
 30
0.0
 10
1.9653858267716535
 20
-3.2137519685039373
 30
0.0
 10
1.9653858267716535
 20
-3.2137519685039373
 30
0.0
 10
1.9866653543307087
 20
-3.0210433070866145
 30
0.0
 10
1.9866653543307087
 20
-3.0210433070866145
 30
0.0
 10
1.9866653543307087
 20
-3.0210433070866145
 30
0.0
 10
1.9866653543307087
 20
-3.0210433070866145
 30
0.0
 10
1.9900039370078741
 20
-2.8252795275590552
 30
0.0
 10
1.9900039370078741
 20
-2.8252795275590552
 30
0.0
 10
1.9900039370078741
 20
-2.8252795275590552
 30
0.0
 10
1.9900039370078741
 20
-2.8252795275590552
 30
0.0
 10
1.9755393700787403
 20
-2.6279724409448821
 30
0.0
 10
1.9755393700787403
 20
-2.6279724409448821
 30
0.0
 10
1.9755393700787403
 20
-2.6279724409448821
 30
0.0
 10
1.9755393700787403
 20
-2.6279724409448821
 30
0.0
 10
1.9434015748031497
 20
-2.4306771653543309
 30
0.0
 10
1.9434015748031497
 20
-2.4306771653543309
 30
0.0
 10
1.9434015748031497
 20
-2.4306771653543309
 30
0.0
 10
1.9434015748031497
 20
-2.4306771653543309
 30
0.0
 10
1.8937480314960631
 20
-2.2349055118110237
 30
0.0
 10
1.8937480314960631
 20
-2.2349055118110237
 30
0.0
 10
1.8937480314960631
 20
-2.2349055118110237
 30
0.0
 10
1.8937480314960631
 20
-2.2349055118110237
 30
0.0
 10
1.8267086614173229
 20
-2.0422047244094488
 30
0.0
 10
1.8267086614173229
 20
-2.0422047244094488
 30
0.0
 10
1.8267086614173229
 20
-2.0422047244094488
 30
0.0
 10
1.8267086614173229
 20
-2.0422047244094488
 30
0.0
 10
1.7424251968503939
 20
-1.8540944881889765
 30
0.0
 10
1.7424251968503939
 20
-1.8540944881889765
 30
0.0
 10
1.7424251968503939
 20
-1.8540944881889765
 30
0.0
 10
1.7424251968503939
 20
-1.8540944881889765
 30
0.0
 10
1.6410275590551182
 20
-1.6721259842519687
 30
0.0
 10
1.6410275590551182
 20
-1.6721259842519687
 30
0.0
 10
1.6410275590551182
 20
-1.6721259842519687
 30
0.0
 10
1.6410275590551182
 20
-1.6721259842519687
 30
0.0
 10
1.5226732283464568
 20
-1.4978149606299214
 30
0.0
 10
1.5226732283464568
 20
-1.4978149606299214
 30
0.0
 10
1.5226732283464568
 20
-1.4978149606299214
 30
0.0
 10
1.5226732283464568
 20
-1.4978149606299214
 30
0.0
 10
1.387484251968504
 20
-1.3327007874015748
 30
0.0
 10
1.387484251968504
 20
-1.3327007874015748
 30
0.0
 10
1.387484251968504
 20
-1.3327007874015748
 30
0.0
 10
1.387484251968504
 20
-1.3327007874015748
 30
0.0
 10
1.2356141732283465
 20
-1.1783070866141734
 30
0.0
 10
1.2356141732283465
 20
-1.1783070866141734
 30
0.0
 10
1.2356141732283465
 20
-1.1783070866141734
 30
0.0
 10
1.2356141732283465
 20
-1.1783070866141734
 30
0.0
 10
1.0671850393700788
 20
-1.0361889763779528
 30
0.0
 10
1.0671850393700788
 20
-1.0361889763779528
 30
0.0
 10
1.0671850393700788
 20
-1.0361889763779528
 30
0.0
 10
1.0671850393700788
 20
-1.0361889763779528
 30
0.0
 10
0.8823543307086614
 20
-0.9078582677165354
 30
0.0
 10
0.8823543307086614
 20
-0.9078582677165354
 30
0.0
 10
0.8823543307086614
 20
-0.9078582677165354
 30
0.0
 10
0.8823543307086614
 20
-0.9078582677165354
 30
0.0
 10
0.6812480314960631
 20
-0.7948582677165355
 30
0.0
 10
0.6812480314960631
 20
-0.7948582677165355
 30
0.0
 10
0.6812480314960631
 20
-0.7948582677165355
 30
0.0
 10
0.6812480314960631
 20
-0.7948582677165355
 30
0.0
 10
0.4640196850393701
 20
-0.6987086614173229
 30
0.0
 10
0.4640196850393701
 20
-0.6987086614173229
 30
0.0
 10
0.4640196850393701
 20
-0.6987086614173229
 30
0.0
 10
0.4640196850393701
 20
-0.6987086614173229
 30
0.0
 10
0.2307874015748032
 20
-0.6209606299212599
 30
0.0
 10
0.2307874015748032
 20
-0.6209606299212599
 30
0.0
 10
0.2307874015748032
 20
-0.6209606299212599
 30
0.0
 10
0.2307874015748032
 20
-0.6209606299212599
 30
0.0
 10
-0.0182834645669291
 20
-0.5631299212598425
 30
0.0
 10
-0.0182834645669291
 20
-0.5631299212598425
 30
0.0
 10
-0.0182834645669291
 20
-0.5631299212598425
 30
0.0
 10
-0.0182834645669291
 20
-0.5631299212598425
 30
0.0
 10
-0.2830748031496063
 20
-0.526763779527559
 30
0.0
 10
-0.2830748031496063
 20
-0.526763779527559
 30
0.0
 10
-0.2830748031496063
 20
-0.526763779527559
 30
0.0
 10
-0.2830748031496063
 20
-0.526763779527559
 30
0.0
 10
-0.5634330708661418
 20
-0.5133779527559056
 30
0.0
 10
-0.5634330708661418
 20
-0.5133779527559056
 30
0.0
  0
SPLINE
  5
41
100
AcDbEntity
  8
Layer 1
 62
   252
100
AcDbSpline
210
0.0
220
0.0
230
1.0
 70
     1
 71
     3
 72
    20
 73
    16
 74
     0
 42
0.0000000001
 43
0.0000000001
 40
0.0
 40
0.0
 40
0.0
 40
0.0
 40
0.25
 40
0.25
 40
0.25
 40
0.25
 40
0.5
 40
0.5
 40
0.5
 40
0.5
 40
0.75
 40
0.75
 40
0.75
 40
0.75
 40
1.0
 40
1.0
 40
1.0
 40
1.0
 10
-1.8823464566929136
 20
-0.4925669291338583
 30
0.0
 10
-1.8823464566929136
 20
-0.4925669291338583
 30
0.0
 10
-1.2240275590551182
 20
-0.1215944881889764
 30
0.0
 10
-1.2240275590551182
 20
-0.1215944881889764
 30
0.0
 10
-1.2240275590551182
 20
-0.1215944881889764
 30
0.0
 10
-1.2240275590551182
 20
-0.1215944881889764
 30
0.0
 10
0.0948858267716536
 20
-0.1424055118110236
 30
0.0
 10
0.0948858267716536
 20
-0.1424055118110236
 30
0.0
 10
0.0948858267716536
 20
-0.1424055118110236
 30
0.0
 10
0.0948858267716536
 20
-0.1424055118110236
 30
0.0
 10
-0.5634330708661418
 20
-0.5133779527559056
 30
0.0
 10
-0.5634330708661418
 20
-0.5133779527559056
 30
0.0
 10
-0.5634330708661418
 20
-0.5133779527559056
 30
0.0
 10
-0.5634330708661418
 20
-0.5133779527559056
 30
0.0
 10
-1.8823464566929136
 20
-0.4925669291338583
 30
0.0
 10
-1.8823464566929136
 20
-0.4925669291338583
 30
0.0
  0
SPLINE
  5
42
100
AcDbEntity
  8
Layer 1
370
     5
100
AcDbSpline
210
0.0
220
0.0
230
1.0
 70
     1
 71
     3
 72
    20
 73
    16
 74
     0
 42
0.0000000001
 43
0.0000000001
 40
0.0
 40
0.0
 40
0.0
 40
0.0
 40
0.25
 40
0.25
 40
0.25
 40
0.25
 40
0.5
 40
0.5
 40
0.5
 40
0.5
 40
0.75
 40
0.75
 40
0.75
 40
0.75
 40
1.0
 40
1.0
 40
1.0
 40
1.0
 10
-1.8823464566929136
 20
-0.4925669291338583
 30
0.0
 10
-1.8823464566929136
 20
-0.4925669291338583
 30
0.0
 10
-1.2240275590551182
 20
-0.1215944881889764
 30
0.0
 10
-1.2240275590551182
 20
-0.1215944881889764
 30
0.0
 10
-1.2240275590551182
 20
-0.1215944881889764
 30
0.0
 10
-1.2240275590551182
 20
-0.1215944881889764
 30
0.0
 10
0.0948858267716536
 20
-0.1424055118110236
 30
0.0
 10
0.0948858267716536
 20
-0.1424055118110236
 30
0.0
 10
0.0948858267716536
 20
-0.1424055118110236
 30
0.0
 10
0.0948858267716536
 20
-0.1424055118110236
 30
0.0
 10
-0.5634330708661418
 20
-0.5133779527559056
 30
0.0
 10
-0.5634330708661418
 20
-0.5133779527559056
 30
0.0
 10
-0.5634330708661418
 20
-0.5133779527559056
 30
0.0
 10
-0.5634330708661418
 20
-0.5133779527559056
 30
0.0
 10
-1.8823464566929136
 20
-0.4925669291338583
 30
0.0
 10
-1.8823464566929136
 20
-0.4925669291338583
 30
0.0
  0
SPLINE
  5
43
100
AcDbEntity
  8
Layer 1
 62
   253
100
AcDbSpline
210
0.0
220
0.0
230
1.0
 70
     1
 71
     3
 72
    20
 73
    16
 74
     0
 42
0.0000000001
 43
0.0000000001
 40
0.0
 40
0.0
 40
0.0
 40
0.0
 40
0.25
 40
0.25
 40
0.25
 40
0.25
 40
0.5
 40
0.5
 40
0.5
 40
0.5
 40
0.75
 40
0.75
 40
0.75
 40
0.75
 40
1.0
 40
1.0
 40
1.0
 40
1.0
 10
-0.5634330708661418
 20
-0.5133779527559056
 30
0.0
 10
-0.5634330708661418
 20
-0.5133779527559056
 30
0.0
 10
0.0948858267716536
 20
-0.1424055118110236
 30
0.0
 10
0.0948858267716536
 20
-0.1424055118110236
 30
0.0
 10
0.0948858267716536
 20
-0.1424055118110236
 30
0.0
 10
0.0948858267716536
 20
-0.1424055118110236
 30
0.0
 10
0.375244094488189
 20
-0.1557913385826772
 30
0.0
 10
0.375244094488189
 20
-0.1557913385826772
 30
0.0
 10
0.375244094488189
 20
-0.1557913385826772
 30
0.0
 10
0.375244094488189
 20
-0.1557913385826772
 30
0.0
 10
-0.2830748031496063
 20
-0.526763779527559
 30
0.0
 10
-0.2830748031496063
 20
-0.526763779527559
 30
0.0
 10
-0.2830748031496063
 20
-0.526763779527559
 30
0.0
 10
-0.2830748031496063
 20
-0.526763779527559
 30
0.0
 10
-0.5634330708661418
 20
-0.5133779527559056
 30
0.0
 10
-0.5634330708661418
 20
-0.5133779527559056
 30
0.0
  0
SPLINE
  5
44
100
AcDbEntity
  8
Layer 1
 62
   253
100
AcDbSpline
210
0.0
220
0.0
230
1.0
 70
     1
 71
     3
 72
    20
 73
    16
 74
     0
 42
0.0000000001
 43
0.0000000001
 40
0.0
 40
0.0
 40
0.0
 40
0.0
 40
0.25
 40
0.25
 40
0.25
 40
0.25
 40
0.5
 40
0.5
 40
0.5
 40
0.5
 40
0.75
 40
0.75
 40
0.75
 40
0.75
 40
1.0
 40
1.0
 40
1.0
 40
1.0
 10
-0.2830748031496063
 20
-0.526763779527559
 30
0.0
 10
-0.2830748031496063
 20
-0.526763779527559
 30
0.0
 10
0.375244094488189
 20
-0.1557913385826772
 30
0.0
 10
0.375244094488189
 20
-0.1557913385826772
 30
0.0
 10
0.375244094488189
 20
-0.1557913385826772
 30
0.0
 10
0.375244094488189
 20
-0.1557913385826772
 30
0.0
 10
0.6400354330708662
 20
-0.1921574803149606
 30
0.0
 10
0.6400354330708662
 20
-0.1921574803149606
 30
0.0
 10
0.6400354330708662
 20
-0.1921574803149606
 30
0.0
 10
0.6400354330708662
 20
-0.1921574803149606
 30
0.0
 10
-0.0182834645669291
 20
-0.5631299212598425
 30
0.0
 10
-0.0182834645669291
 20
-0.5631299212598425
 30
0.0
 10
-0.0182834645669291
 20
-0.5631299212598425
 30
0.0
 10
-0.0182834645669291
 20
-0.5631299212598425
 30
0.0
 10
-0.2830748031496063
 20
-0.526763779527559
 30
0.0
 10
-0.2830748031496063
 20
-0.526763779527559
 30
0.0
  0
SPLINE
  5
45
100
AcDbEntity
  8
Layer 1
 62
   253
100
AcDbSpline
210
0.0
220
0.0
230
1.0
 70
     1
 71
     3
 72
    20
 73
    16
 74
     0
 42
0.0000000001
 43
0.0000000001
 40
0.0
 40
0.0
 40
0.0
 40
0.0
 40
0.25
 40
0.25
 40
0.25
 40
0.25
 40
0.5
 40
0.5
 40
0.5
 40
0.5
 40
0.75
 40
0.75
 40
0.75
 40
0.75
 40
1.0
 40
1.0
 40
1.0
 40
1.0
 10
-0.0182834645669291
 20
-0.5631299212598425
 30
0.0
 10
-0.0182834645669291
 20
-0.5631299212598425
 30
0.0
 10
0.6400354330708662
 20
-0.1921574803149606
 30
0.0
 10
0.6400354330708662
 20
-0.1921574803149606
 30
0.0
 10
0.6400354330708662
 20
-0.1921574803149606
 30
0.0
 10
0.6400354330708662
 20
-0.1921574803149606
 30
0.0
 10
0.8891062992125984
 20
-0.249988188976378
 30
0.0
 10
0.8891062992125984
 20
-0.249988188976378
 30
0.0
 10
0.8891062992125984
 20
-0.249988188976378
 30
0.0
 10
0.8891062992125984
 20
-0.249988188976378
 30
0.0
 10
0.2307874015748032
 20
-0.6209606299212599
 30
0.0
 10
0.2307874015748032
 20
-0.6209606299212599
 30
0.0
 10
0.2307874015748032
 20
-0.6209606299212599
 30
0.0
 10
0.2307874015748032
 20
-0.6209606299212599
 30
0.0
 10
-0.0182834645669291
 20
-0.5631299212598425
 30
0.0
 10
-0.0182834645669291
 20
-0.5631299212598425
 30
0.0
  0
SPLINE
  5
46
100
AcDbEntity
  8
Layer 1
 62
   253
100
AcDbSpline
210
0.0
220
0.0
230
1.0
 70
     1
 71
     3
 72
    20
 73
    16
 74
     0
 42
0.0000000001
 43
0.0000000001
 40
0.0
 40
0.0
 40
0.0
 40
0.0
 40
0.25
 40
0.25
 40
0.25
 40
0.25
 40
0.5
 40
0.5
 40
0.5
 40
0.5
 40
0.75
 40
0.75
 40
0.75
 40
0.75
 40
1.0
 40
1.0
 40
1.0
 40
1.0
 10
0.2307874015748032
 20
-0.6209606299212599
 30
0.0
 10
0.2307874015748032
 20
-0.6209606299212599
 30
0.0
 10
0.8891062992125984
 20
-0.249988188976378
 30
0.0
 10
0.8891062992125984
 20
-0.249988188976378
 30
0.0
 10
0.8891062992125984
 20
-0.249988188976378
 30
0.0
 10
0.8891062992125984
 20
-0.249988188976378
 30
0.0
 10
1.1223385826771655
 20
-0.3277362204724409
 30
0.0
 10
1.1223385826771655
 20
-0.3277362204724409
 30
0.0
 10
1.1223385826771655
 20
-0.3277362204724409
 30
0.0
 10
1.1223385826771655
 20
-0.3277362204724409
 30
0.0
 10
0.4640196850393701
 20
-0.6987086614173229
 30
0.0
 10
0.4640196850393701
 20
-0.6987086614173229
 30
0.0
 10
0.4640196850393701
 20
-0.6987086614173229
 30
0.0
 10
0.4640196850393701
 20
-0.6987086614173229
 30
0.0
 10
0.2307874015748032
 20
-0.6209606299212599
 30
0.0
 10
0.2307874015748032
 20
-0.6209606299212599
 30
0.0
  0
SPLINE
  5
47
100
AcDbEntity
  8
Layer 1
 62
   253
100
AcDbSpline
210
0.0
220
0.0
230
1.0
 70
     1
 71
     3
 72
    20
 73
    16
 74
     0
 42
0.0000000001
 43
0.0000000001
 40
0.0
 40
0.0
 40
0.0
 40
0.0
 40
0.25
 40
0.25
 40
0.25
 40
0.25
 40
0.5
 40
0.5
 40
0.5
 40
0.5
 40
0.75
 40
0.75
 40
0.75
 40
0.75
 40
1.0
 40
1.0
 40
1.0
 40
1.0
 10
0.4640196850393701
 20
-0.6987086614173229
 30
0.0
 10
0.4640196850393701
 20
-0.6987086614173229
 30
0.0
 10
1.1223385826771655
 20
-0.3277362204724409
 30
0.0
 10
1.1223385826771655
 20
-0.3277362204724409
 30
0.0
 10
1.1223385826771655
 20
-0.3277362204724409
 30
0.0
 10
1.1223385826771655
 20
-0.3277362204724409
 30
0.0
 10
1.3395669291338583
 20
-0.4238858267716535
 30
0.0
 10
1.3395669291338583
 20
-0.4238858267716535
 30
0.0
 10
1.3395669291338583
 20
-0.4238858267716535
 30
0.0
 10
1.3395669291338583
 20
-0.4238858267716535
 30
0.0
 10
0.6812480314960631
 20
-0.7948582677165355
 30
0.0
 10
0.6812480314960631
 20
-0.7948582677165355
 30
0.0
 10
0.6812480314960631
 20
-0.7948582677165355
 30
0.0
 10
0.6812480314960631
 20
-0.7948582677165355
 30
0.0
 10
0.4640196850393701
 20
-0.6987086614173229
 30
0.0
 10
0.4640196850393701
 20
-0.6987086614173229
 30
0.0
  0
SPLINE
  5
48
100
AcDbEntity
  8
Layer 1
 62
   253
100
AcDbSpline
210
0.0
220
0.0
230
1.0
 70
     1
 71
     3
 72
    20
 73
    16
 74
     0
 42
0.0000000001
 43
0.0000000001
 40
0.0
 40
0.0
 40
0.0
 40
0.0
 40
0.25
 40
0.25
 40
0.25
 40
0.25
 40
0.5
 40
0.5
 40
0.5
 40
0.5
 40
0.75
 40
0.75
 40
0.75
 40
0.75
 40
1.0
 40
1.0
 40
1.0
 40
1.0
 10
0.6812480314960631
 20
-0.7948582677165355
 30
0.0
 10
0.6812480314960631
 20
-0.7948582677165355
 30
0.0
 10
1.3395669291338583
 20
-0.4238858267716535
 30
0.0
 10
1.3395669291338583
 20
-0.4238858267716535
 30
0.0
 10
1.3395669291338583
 20
-0.4238858267716535
 30
0.0
 10
1.3395669291338583
 20
-0.4238858267716535
 30
0.0
 10
1.5406732283464568
 20
-0.5368858267716535
 30
0.0
 10
1.5406732283464568
 20
-0.5368858267716535
 30
0.0
 10
1.5406732283464568
 20
-0.5368858267716535
 30
0.0
 10
1.5406732283464568
 20
-0.5368858267716535
 30
0.0
 10
0.8823543307086614
 20
-0.9078582677165354
 30
0.0
 10
0.8823543307086614
 20
-0.9078582677165354
 30
0.0
 10
0.8823543307086614
 20
-0.9078582677165354
 30
0.0
 10
0.8823543307086614
 20
-0.9078582677165354
 30
0.0
 10
0.6812480314960631
 20
-0.7948582677165355
 30
0.0
 10
0.6812480314960631
 20
-0.7948582677165355
 30
0.0
  0
SPLINE
  5
49
100
AcDbEntity
  8
Layer 1
 62
     9
100
AcDbSpline
210
0.0
220
0.0
230
1.0
 70
     1
 71
     3
 72
    20
 73
    16
 74
     0
 42
0.0000000001
 43
0.0000000001
 40
0.0
 40
0.0
 40
0.0
 40
0.0
 40
0.25
 40
0.25
 40
0.25
 40
0.25
 40
0.5
 40
0.5
 40
0.5
 40
0.5
 40
0.75
 40
0.75
 40
0.75
 40
0.75
 40
1.0
 40
1.0
 40
1.0
 40
1.0
 10
0.8823543307086614
 20
-0.9078582677165354
 30
0.0
 10
0.8823543307086614
 20
-0.9078582677165354
 30
0.0
 10
1.5406732283464568
 20
-0.5368858267716535
 30
0.0
 10
1.5406732283464568
 20
-0.5368858267716535
 30
0.0
 10
1.5406732283464568
 20
-0.5368858267716535
 30
0.0
 10
1.5406732283464568
 20
-0.5368858267716535
 30
0.0
 10
1.7255039370078742
 20
-0.6652165354330709
 30
0.0
 10
1.7255039370078742
 20
-0.6652165354330709
 30
0.0
 10
1.7255039370078742
 20
-0.6652165354330709
 30
0.0
 10
1.7255039370078742
 20
-0.6652165354330709
 30
0.0
 10
1.0671850393700788
 20
-1.0361889763779528
 30
0.0
 10
1.0671850393700788
 20
-1.0361889763779528
 30
0.0
 10
1.0671850393700788
 20
-1.0361889763779528
 30
0.0
 10
1.0671850393700788
 20
-1.0361889763779528
 30
0.0
 10
0.8823543307086614
 20
-0.9078582677165354
 30
0.0
 10
0.8823543307086614
 20
-0.9078582677165354
 30
0.0
  0
SPLINE
  5
4A
100
AcDbEntity
  8
Layer 1
 62
     9
100
AcDbSpline
210
0.0
220
0.0
230
1.0
 70
     1
 71
     3
 72
    20
 73
    16
 74
     0
 42
0.0000000001
 43
0.0000000001
 40
0.0
 40
0.0
 40
0.0
 40
0.0
 40
0.25
 40
0.25
 40
0.25
 40
0.25
 40
0.5
 40
0.5
 40
0.5
 40
0.5
 40
0.75
 40
0.75
 40
0.75
 40
0.75
 40
1.0
 40
1.0
 40
1.0
 40
1.0
 10
1.0671850393700788
 20
-1.0361889763779528
 30
0.0
 10
1.0671850393700788
 20
-1.0361889763779528
 30
0.0
 10
1.7255039370078742
 20
-0.6652165354330709
 30
0.0
 10
1.7255039370078742
 20
-0.6652165354330709
 30
0.0
 10
1.7255039370078742
 20
-0.6652165354330709
 30
0.0
 10
1.7255039370078742
 20
-0.6652165354330709
 30
0.0
 10
1.8939330708661417
 20
-0.8073346456692914
 30
0.0
 10
1.8939330708661417
 20
-0.8073346456692914
 30
0.0
 10
1.8939330708661417
 20
-0.8073346456692914
 30
0.0
 10
1.8939330708661417
 20
-0.8073346456692914
 30
0.0
 10
1.2356141732283465
 20
-1.1783070866141734
 30
0.0
 10
1.2356141732283465
 20
-1.1783070866141734
 30
0.0
 10
1.2356141732283465
 20
-1.1783070866141734
 30
0.0
 10
1.2356141732283465
 20
-1.1783070866141734
 30
0.0
 10
1.0671850393700788
 20
-1.0361889763779528
 30
0.0
 10
1.0671850393700788
 20
-1.0361889763779528
 30
0.0
  0
SPLINE
  5
4B
100
AcDbEntity
  8
Layer 1
 62
     9
100
AcDbSpline
210
0.0
220
0.0
230
1.0
 70
     1
 71
     3
 72
    20
 73
    16
 74
     0
 42
0.0000000001
 43
0.0000000001
 40
0.0
 40
0.0
 40
0.0
 40
0.0
 40
0.25
 40
0.25
 40
0.25
 40
0.25
 40
0.5
 40
0.5
 40
0.5
 40
0.5
 40
0.75
 40
0.75
 40
0.75
 40
0.75
 40
1.0
 40
1.0
 40
1.0
 40
1.0
 10
1.2356141732283465
 20
-1.1783070866141734
 30
0.0
 10
1.2356141732283465
 20
-1.1783070866141734
 30
0.0
 10
1.8939330708661417
 20
-0.8073346456692914
 30
0.0
 10
1.8939330708661417
 20
-0.8073346456692914
 30
0.0
 10
1.8939330708661417
 20
-0.8073346456692914
 30
0.0
 10
1.8939330708661417
 20
-0.8073346456692914
 30
0.0
 10
2.0458031496062992
 20
-0.9617283464566929
 30
0.0
 10
2.0458031496062992
 20
-0.9617283464566929
 30
0.0
 10
2.0458031496062992
 20
-0.9617283464566929
 30
0.0
 10
2.0458031496062992
 20
-0.9617283464566929
 30
0.0
 10
1.387484251968504
 20
-1.3327007874015748
 30
0.0
 10
1.387484251968504
 20
-1.3327007874015748
 30
0.0
 10
1.387484251968504
 20
-1.3327007874015748
 30
0.0
 10
1.387484251968504
 20
-1.3327007874015748
 30
0.0
 10
1.2356141732283465
 20
-1.1783070866141734
 30
0.0
 10
1.2356141732283465
 20
-1.1783070866141734
 30
0.0
  0
SPLINE
  5
4C
100
AcDbEntity
  8
Layer 1
 62
     9
100
AcDbSpline
210
0.0
220
0.0
230
1.0
 70
     1
 71
     3
 72
    20
 73
    16
 74
     0
 42
0.0000000001
 43
0.0000000001
 40
0.0
 40
0.0
 40
0.0
 40
0.0
 40
0.25
 40
0.25
 40
0.25
 40
0.25
 40
0.5
 40
0.5
 40
0.5
 40
0.5
 40
0.75
 40
0.75
 40
0.75
 40
0.75
 40
1.0
 40
1.0
 40
1.0
 40
1.0
 10
1.387484251968504
 20
-1.3327007874015748
 30
0.0
 10
1.387484251968504
 20
-1.3327007874015748
 30
0.0
 10
2.0458031496062992
 20
-0.9617283464566929
 30
0.0
 10
2.0458031496062992
 20
-0.9617283464566929
 30
0.0
 10
2.0458031496062992
 20
-0.9617283464566929
 30
0.0
 10
2.0458031496062992
 20
-0.9617283464566929
 30
0.0
 10
2.1809921259842522
 20
-1.1268425196850393
 30
0.0
 10
2.1809921259842522
 20
-1.1268425196850393
 30
0.0
 10
2.1809921259842522
 20
-1.1268425196850393
 30
0.0
 10
2.1809921259842522
 20
-1.1268425196850393
 30
0.0
 10
1.5226732283464568
 20
-1.4978149606299214
 30
0.0
 10
1.5226732283464568
 20
-1.4978149606299214
 30
0.0
 10
1.5226732283464568
 20
-1.4978149606299214
 30
0.0
 10
1.5226732283464568
 20
-1.4978149606299214
 30
0.0
 10
1.387484251968504
 20
-1.3327007874015748
 30
0.0
 10
1.387484251968504
 20
-1.3327007874015748
 30
0.0
  0
SPLINE
  5
4D
100
AcDbEntity
  8
Layer 1
 62
     9
100
AcDbSpline
210
0.0
220
0.0
230
1.0
 70
     1
 71
     3
 72
    20
 73
    16
 74
     0
 42
0.0000000001
 43
0.0000000001
 40
0.0
 40
0.0
 40
0.0
 40
0.0
 40
0.25
 40
0.25
 40
0.25
 40
0.25
 40
0.5
 40
0.5
 40
0.5
 40
0.5
 40
0.75
 40
0.75
 40
0.75
 40
0.75
 40
1.0
 40
1.0
 40
1.0
 40
1.0
 10
1.5226732283464568
 20
-1.4978149606299214
 30
0.0
 10
1.5226732283464568
 20
-1.4978149606299214
 30
0.0
 10
2.1809921259842522
 20
-1.1268425196850393
 30
0.0
 10
2.1809921259842522
 20
-1.1268425196850393
 30
0.0
 10
2.1809921259842522
 20
-1.1268425196850393
 30
0.0
 10
2.1809921259842522
 20
-1.1268425196850393
 30
0.0
 10
2.2993464566929136
 20
-1.3011535433070867
 30
0.0
 10
2.2993464566929136
 20
-1.3011535433070867
 30
0.0
 10
2.2993464566929136
 20
-1.3011535433070867
 30
0.0
 10
2.2993464566929136
 20
-1.3011535433070867
 30
0.0
 10
1.6410275590551182
 20
-1.6721259842519687
 30
0.0
 10
1.6410275590551182
 20
-1.6721259842519687
 30
0.0
 10
1.6410275590551182
 20
-1.6721259842519687
 30
0.0
 10
1.6410275590551182
 20
-1.6721259842519687
 30
0.0
 10
1.5226732283464568
 20
-1.4978149606299214
 30
0.0
 10
1.5226732283464568
 20
-1.4978149606299214
 30
0.0
  0
SPLINE
  5
4E
100
AcDbEntity
  8
Layer 1
 62
     9
100
AcDbSpline
210
0.0
220
0.0
230
1.0
 70
     1
 71
     3
 72
    20
 73
    16
 74
     0
 42
0.0000000001
 43
0.0000000001
 40
0.0
 40
0.0
 40
0.0
 40
0.0
 40
0.25
 40
0.25
 40
0.25
 40
0.25
 40
0.5
 40
0.5
 40
0.5
 40
0.5
 40
0.75
 40
0.75
 40
0.75
 40
0.75
 40
1.0
 40
1.0
 40
1.0
 40
1.0
 10
1.6410275590551182
 20
-1.6721259842519687
 30
0.0
 10
1.6410275590551182
 20
-1.6721259842519687
 30
0.0
 10
2.2993464566929136
 20
-1.3011535433070867
 30
0.0
 10
2.2993464566929136
 20
-1.3011535433070867
 30
0.0
 10
2.2993464566929136
 20
-1.3011535433070867
 30
0.0
 10
2.2993464566929136
 20
-1.3011535433070867
 30
0.0
 10
2.4007440944881893
 20
-1.4831220472440945
 30
0.0
 10
2.4007440944881893
 20
-1.4831220472440945
 30
0.0
 10
2.4007440944881893
 20
-1.4831220472440945
 30
0.0
 10
2.4007440944881893
 20
-1.4831220472440945
 30
0.0
 10
1.7424251968503939
 20
-1.8540944881889765
 30
0.0
 10
1.7424251968503939
 20
-1.8540944881889765
 30
0.0
 10
1.7424251968503939
 20
-1.8540944881889765
 30
0.0
 10
1.7424251968503939
 20
-1.8540944881889765
 30
0.0
 10
1.6410275590551182
 20
-1.6721259842519687
 30
0.0
 10
1.6410275590551182
 20
-1.6721259842519687
 30
0.0
  0
SPLINE
  5
4F
100
AcDbEntity
  8
Layer 1
 62
     9
100
AcDbSpline
210
0.0
220
0.0
230
1.0
 70
     1
 71
     3
 72
    20
 73
    16
 74
     0
 42
0.0000000001
 43
0.0000000001
 40
0.0
 40
0.0
 40
0.0
 40
0.0
 40
0.25
 40
0.25
 40
0.25
 40
0.25
 40
0.5
 40
0.5
 40
0.5
 40
0.5
 40
0.75
 40
0.75
 40
0.75
 40
0.75
 40
1.0
 40
1.0
 40
1.0
 40
1.0
 10
1.7424251968503939
 20
-1.8540944881889765
 30
0.0
 10
1.7424251968503939
 20
-1.8540944881889765
 30
0.0
 10
2.4007440944881893
 20
-1.4831220472440945
 30
0.0
 10
2.4007440944881893
 20
-1.4831220472440945
 30
0.0
 10
2.4007440944881893
 20
-1.4831220472440945
 30
0.0
 10
2.4007440944881893
 20
-1.4831220472440945
 30
0.0
 10
2.4850275590551183
 20
-1.671232283464567
 30
0.0
 10
2.4850275590551183
 20
-1.671232283464567
 30
0.0
 10
2.4850275590551183
 20
-1.671232283464567
 30
0.0
 10
2.4850275590551183
 20
-1.671232283464567
 30
0.0
 10
1.8267086614173229
 20
-2.0422047244094488
 30
0.0
 10
1.8267086614173229
 20
-2.0422047244094488
 30
0.0
 10
1.8267086614173229
 20
-2.0422047244094488
 30
0.0
 10
1.8267086614173229
 20
-2.0422047244094488
 30
0.0
 10
1.7424251968503939
 20
-1.8540944881889765
 30
0.0
 10
1.7424251968503939
 20
-1.8540944881889765
 30
0.0
  0
SPLINE
  5
50
100
AcDbEntity
  8
Layer 1
 62
     9
100
AcDbSpline
210
0.0
220
0.0
230
1.0
 70
     1
 71
     3
 72
    20
 73
    16
 74
     0
 42
0.0000000001
 43
0.0000000001
 40
0.0
 40
0.0
 40
0.0
 40
0.0
 40
0.25
 40
0.25
 40
0.25
 40
0.25
 40
0.5
 40
0.5
 40
0.5
 40
0.5
 40
0.75
 40
0.75
 40
0.75
 40
0.75
 40
1.0
 40
1.0
 40
1.0
 40
1.0
 10
1.8267086614173229
 20
-2.0422047244094488
 30
0.0
 10
1.8267086614173229
 20
-2.0422047244094488
 30
0.0
 10
2.4850275590551183
 20
-1.671232283464567
 30
0.0
 10
2.4850275590551183
 20
-1.671232283464567
 30
0.0
 10
2.4850275590551183
 20
-1.671232283464567
 30
0.0
 10
2.4850275590551183
 20
-1.671232283464567
 30
0.0
 10
2.5520669291338582
 20
-1.8639330708661419
 30
0.0
 10
2.5520669291338582
 20
-1.8639330708661419
 30
0.0
 10
2.5520669291338582
 20
-1.8639330708661419
 30
0.0
 10
2.5520669291338582
 20
-1.8639330708661419
 30
0.0
 10
1.8937480314960631
 20
-2.2349055118110237
 30
0.0
 10
1.8937480314960631
 20
-2.2349055118110237
 30
0.0
 10
1.8937480314960631
 20
-2.2349055118110237
 30
0.0
 10
1.8937480314960631
 20
-2.2349055118110237
 30
0.0
 10
1.8267086614173229
 20
-2.0422047244094488
 30
0.0
 10
1.8267086614173229
 20
-2.0422047244094488
 30
0.0
  0
SPLINE
  5
51
100
AcDbEntity
  8
Layer 1
 62
     9
100
AcDbSpline
210
0.0
220
0.0
230
1.0
 70
     1
 71
     3
 72
    20
 73
    16
 74
     0
 42
0.0000000001
 43
0.0000000001
 40
0.0
 40
0.0
 40
0.0
 40
0.0
 40
0.25
 40
0.25
 40
0.25
 40
0.25
 40
0.5
 40
0.5
 40
0.5
 40
0.5
 40
0.75
 40
0.75
 40
0.75
 40
0.75
 40
1.0
 40
1.0
 40
1.0
 40
1.0
 10
1.8937480314960631
 20
-2.2349055118110237
 30
0.0
 10
1.8937480314960631
 20
-2.2349055118110237
 30
0.0
 10
2.5520669291338582
 20
-1.8639330708661419
 30
0.0
 10
2.5520669291338582
 20
-1.8639330708661419
 30
0.0
 10
2.5520669291338582
 20
-1.8639330708661419
 30
0.0
 10
2.5520669291338582
 20
-1.8639330708661419
 30
0.0
 10
2.6017204724409448
 20
-2.0597047244094489
 30
0.0
 10
2.6017204724409448
 20
-2.0597047244094489
 30
0.0
 10
2.6017204724409448
 20
-2.0597047244094489
 30
0.0
 10
2.6017204724409448
 20
-2.0597047244094489
 30
0.0
 10
1.9434015748031497
 20
-2.4306771653543309
 30
0.0
 10
1.9434015748031497
 20
-2.4306771653543309
 30
0.0
 10
1.9434015748031497
 20
-2.4306771653543309
 30
0.0
 10
1.9434015748031497
 20
-2.4306771653543309
 30
0.0
 10
1.8937480314960631
 20
-2.2349055118110237
 30
0.0
 10
1.8937480314960631
 20
-2.2349055118110237
 30
0.0
  0
SPLINE
  5
52
100
AcDbEntity
  8
Layer 1
 62
     9
100
AcDbSpline
210
0.0
220
0.0
230
1.0
 70
     1
 71
     3
 72
    20
 73
    16
 74
     0
 42
0.0000000001
 43
0.0000000001
 40
0.0
 40
0.0
 40
0.0
 40
0.0
 40
0.25
 40
0.25
 40
0.25
 40
0.25
 40
0.5
 40
0.5
 40
0.5
 40
0.5
 40
0.75
 40
0.75
 40
0.75
 40
0.75
 40
1.0
 40
1.0
 40
1.0
 40
1.0
 10
1.9434015748031497
 20
-2.4306771653543309
 30
0.0
 10
1.9434015748031497
 20
-2.4306771653543309
 30
0.0
 10
2.6017204724409448
 20
-2.0597047244094489
 30
0.0
 10
2.6017204724409448
 20
-2.0597047244094489
 30
0.0
 10
2.6017204724409448
 20
-2.0597047244094489
 30
0.0
 10
2.6017204724409448
 20
-2.0597047244094489
 30
0.0
 10
2.6338582677165356
 20
-2.2570000000000001
 30
0.0
 10
2.6338582677165356
 20
-2.2570000000000001
 30
0.0
 10
2.6338582677165356
 20
-2.2570000000000001
 30
0.0
 10
2.6338582677165356
 20
-2.2570000000000001
 30
0.0
 10
1.9755393700787403
 20
-2.6279724409448821
 30
0.0
 10
1.9755393700787403
 20
-2.6279724409448821
 30
0.0
 10
1.9755393700787403
 20
-2.6279724409448821
 30
0.0
 10
1.9755393700787403
 20
-2.6279724409448821
 30
0.0
 10
1.9434015748031497
 20
-2.4306771653543309
 30
0.0
 10
1.9434015748031497
 20
-2.4306771653543309
 30
0.0
  0
SPLINE
  5
53
100
AcDbEntity
  8
Layer 1
 62
     9
100
AcDbSpline
210
0.0
220
0.0
230
1.0
 70
     1
 71
     3
 72
    20
 73
    16
 74
     0
 42
0.0000000001
 43
0.0000000001
 40
0.0
 40
0.0
 40
0.0
 40
0.0
 40
0.25
 40
0.25
 40
0.25
 40
0.25
 40
0.5
 40
0.5
 40
0.5
 40
0.5
 40
0.75
 40
0.75
 40
0.75
 40
0.75
 40
1.0
 40
1.0
 40
1.0
 40
1.0
 10
1.9755393700787403
 20
-2.6279724409448821
 30
0.0
 10
1.9755393700787403
 20
-2.6279724409448821
 30
0.0
 10
2.6338582677165356
 20
-2.2570000000000001
 30
0.0
 10
2.6338582677165356
 20
-2.2570000000000001
 30
0.0
 10
2.6338582677165356
 20
-2.2570000000000001
 30
0.0
 10
2.6338582677165356
 20
-2.2570000000000001
 30
0.0
 10
2.6483228346456693
 20
-2.4543070866141732
 30
0.0
 10
2.6483228346456693
 20
-2.4543070866141732
 30
0.0
 10
2.6483228346456693
 20
-2.4543070866141732
 30
0.0
 10
2.6483228346456693
 20
-2.4543070866141732
 30
0.0
 10
1.9900039370078741
 20
-2.8252795275590552
 30
0.0
 10
1.9900039370078741
 20
-2.8252795275590552
 30
0.0
 10
1.9900039370078741
 20
-2.8252795275590552
 30
0.0
 10
1.9900039370078741
 20
-2.8252795275590552
 30
0.0
 10
1.9755393700787403
 20
-2.6279724409448821
 30
0.0
 10
1.9755393700787403
 20
-2.6279724409448821
 30
0.0
  0
SPLINE
  5
54
100
AcDbEntity
  8
Layer 1
 62
     9
100
AcDbSpline
210
0.0
220
0.0
230
1.0
 70
     1
 71
     3
 72
    20
 73
    16
 74
     0
 42
0.0000000001
 43
0.0000000001
 40
0.0
 40
0.0
 40
0.0
 40
0.0
 40
0.25
 40
0.25
 40
0.25
 40
0.25
 40
0.5
 40
0.5
 40
0.5
 40
0.5
 40
0.75
 40
0.75
 40
0.75
 40
0.75
 40
1.0
 40
1.0
 40
1.0
 40
1.0
 10
1.9900039370078741
 20
-2.8252795275590552
 30
0.0
 10
1.9900039370078741
 20
-2.8252795275590552
 30
0.0
 10
2.6483228346456693
 20
-2.4543070866141732
 30
0.0
 10
2.6483228346456693
 20
-2.4543070866141732
 30
0.0
 10
2.6483228346456693
 20
-2.4543070866141732
 30
0.0
 10
2.6483228346456693
 20
-2.4543070866141732
 30
0.0
 10
2.6449842519685038
 20
-2.6500708661417325
 30
0.0
 10
2.6449842519685038
 20
-2.6500708661417325
 30
0.0
 10
2.6449842519685038
 20
-2.6500708661417325
 30
0.0
 10
2.6449842519685038
 20
-2.6500708661417325
 30
0.0
 10
1.9866653543307087
 20
-3.0210433070866145
 30
0.0
 10
1.9866653543307087
 20
-3.0210433070866145
 30
0.0
 10
1.9866653543307087
 20
-3.0210433070866145
 30
0.0
 10
1.9866653543307087
 20
-3.0210433070866145
 30
0.0
 10
1.9900039370078741
 20
-2.8252795275590552
 30
0.0
 10
1.9900039370078741
 20
-2.8252795275590552
 30
0.0
  0
SPLINE
  5
55
100
AcDbEntity
  8
Layer 1
 62
     9
100
AcDbSpline
210
0.0
220
0.0
230
1.0
 70
     1
 71
     3
 72
    20
 73
    16
 74
     0
 42
0.0000000001
 43
0.0000000001
 40
0.0
 40
0.0
 40
0.0
 40
0.0
 40
0.25
 40
0.25
 40
0.25
 40
0.25
 40
0.5
 40
0.5
 40
0.5
 40
0.5
 40
0.75
 40
0.75
 40
0.75
 40
0.75
 40
1.0
 40
1.0
 40
1.0
 40
1.0
 10
1.9866653543307087
 20
-3.0210433070866145
 30
0.0
 10
1.9866653543307087
 20
-3.0210433070866145
 30
0.0
 10
2.6449842519685038
 20
-2.6500708661417325
 30
0.0
 10
2.6449842519685038
 20
-2.6500708661417325
 30
0.0
 10
2.6449842519685038
 20
-2.6500708661417325
 30
0.0
 10
2.6449842519685038
 20
-2.6500708661417325
 30
0.0
 10
2.6237047244094489
 20
-2.8427795275590553
 30
0.0
 10
2.6237047244094489
 20
-2.8427795275590553
 30
0.0
 10
2.6237047244094489
 20
-2.8427795275590553
 30
0.0
 10
2.6237047244094489
 20
-2.8427795275590553
 30
0.0
 10
1.9653858267716535
 20
-3.2137519685039373
 30
0.0
 10
1.9653858267716535
 20
-3.2137519685039373
 30
0.0
 10
1.9653858267716535
 20
-3.2137519685039373
 30
0.0
 10
1.9653858267716535
 20
-3.2137519685039373
 30
0.0
 10
1.9866653543307087
 20
-3.0210433070866145
 30
0.0
 10
1.9866653543307087
 20
-3.0210433070866145
 30
0.0
  0
SPLINE
  5
56
100
AcDbEntity
  8
Layer 1
 62
     9
100
AcDbSpline
210
0.0
220
0.0
230
1.0
 70
     1
 71
     3
 72
    20
 73
    16
 74
     0
 42
0.0000000001
 43
0.0000000001
 40
0.0
 40
0.0
 40
0.0
 40
0.0
 40
0.25
 40
0.25
 40
0.25
 40
0.25
 40
0.5
 40
0.5
 40
0.5
 40
0.5
 40
0.75
 40
0.75
 40
0.75
 40
0.75
 40
1.0
 40
1.0
 40
1.0
 40
1.0
 10
1.9653858267716535
 20
-3.2137519685039373
 30
0.0
 10
1.9653858267716535
 20
-3.2137519685039373
 30
0.0
 10
2.6237047244094489
 20
-2.8427795275590553
 30
0.0
 10
2.6237047244094489
 20
-2.8427795275590553
 30
0.0
 10
2.6237047244094489
 20
-2.8427795275590553
 30
0.0
 10
2.6237047244094489
 20
-2.8427795275590553
 30
0.0
 10
2.5843503937007877
 20
-3.0308818897637795
 30
0.0
 10
2.5843503937007877
 20
-3.0308818897637795
 30
0.0
 10
2.5843503937007877
 20
-3.0308818897637795
 30
0.0
 10
2.5843503937007877
 20
-3.0308818897637795
 30
0.0
 10
1.9260314960629923
 20
-3.4018543307086615
 30
0.0
 10
1.9260314960629923
 20
-3.4018543307086615
 30
0.0
 10
1.9260314960629923
 20
-3.4018543307086615
 30
0.0
 10
1.9260314960629923
 20
-3.4018543307086615
 30
0.0
 10
1.9653858267716535
 20
-3.2137519685039373
 30
0.0
 10
1.9653858267716535
 20
-3.2137519685039373
 30
0.0
  0
SPLINE
  5
57
100
AcDbEntity
  8
Layer 1
 62
     9
100
AcDbSpline
210
0.0
220
0.0
230
1.0
 70
     1
 71
     3
 72
    20
 73
    16
 74
     0
 42
0.0000000001
 43
0.0000000001
 40
0.0
 40
0.0
 40
0.0
 40
0.0
 40
0.25
 40
0.25
 40
0.25
 40
0.25
 40
0.5
 40
0.5
 40
0.5
 40
0.5
 40
0.75
 40
0.75
 40
0.75
 40
0.75
 40
1.0
 40
1.0
 40
1.0
 40
1.0
 10
1.9260314960629923
 20
-3.4018543307086615
 30
0.0
 10
1.9260314960629923
 20
-3.4018543307086615
 30
0.0
 10
2.5843503937007877
 20
-3.0308818897637795
 30
0.0
 10
2.5843503937007877
 20
-3.0308818897637795
 30
0.0
 10
2.5843503937007877
 20
-3.0308818897637795
 30
0.0
 10
2.5843503937007877
 20
-3.0308818897637795
 30
0.0
 10
2.5267637795275593
 20
-3.2128622047244098
 30
0.0
 10
2.5267637795275593
 20
-3.2128622047244098
 30
0.0
 10
2.5267637795275593
 20
-3.2128622047244098
 30
0.0
 10
2.5267637795275593
 20
-3.2128622047244098
 30
0.0
 10
1.8684448818897639
 20
-3.5838346456692913
 30
0.0
 10
1.8684448818897639
 20
-3.5838346456692913
 30
0.0
 10
1.8684448818897639
 20
-3.5838346456692913
 30
0.0
 10
1.8684448818897639
 20
-3.5838346456692913
 30
0.0
 10
1.9260314960629923
 20
-3.4018543307086615
 30
0.0
 10
1.9260314960629923
 20
-3.4018543307086615
 30
0.0
  0
SPLINE
  5
58
100
AcDbEntity
  8
Layer 1
 62
     9
100
AcDbSpline
210
0.0
220
0.0
230
1.0
 70
     1
 71
     3
 72
    20
 73
    16
 74
     0
 42
0.0000000001
 43
0.0000000001
 40
0.0
 40
0.0
 40
0.0
 40
0.0
 40
0.25
 40
0.25
 40
0.25
 40
0.25
 40
0.5
 40
0.5
 40
0.5
 40
0.5
 40
0.75
 40
0.75
 40
0.75
 40
0.75
 40
1.0
 40
1.0
 40
1.0
 40
1.0
 10
1.8684448818897639
 20
-3.5838346456692913
 30
0.0
 10
1.8684448818897639
 20
-3.5838346456692913
 30
0.0
 10
2.5267637795275593
 20
-3.2128622047244098
 30
0.0
 10
2.5267637795275593
 20
-3.2128622047244098
 30
0.0
 10
2.5267637795275593
 20
-3.2128622047244098
 30
0.0
 10
2.5267637795275593
 20
-3.2128622047244098
 30
0.0
 10
2.4508307086614174
 20
-3.3871692913385827
 30
0.0
 10
2.4508307086614174
 20
-3.3871692913385827
 30
0.0
 10
2.4508307086614174
 20
-3.3871692913385827
 30
0.0
 10
2.4508307086614174
 20
-3.3871692913385827
 30
0.0
 10
1.7925118110236222
 20
-3.7581417322834647
 30
0.0
 10
1.7925118110236222
 20
-3.7581417322834647
 30
0.0
 10
1.7925118110236222
 20
-3.7581417322834647
 30
0.0
 10
1.7925118110236222
 20
-3.7581417322834647
 30
0.0
 10
1.8684448818897639
 20
-3.5838346456692913
 30
0.0
 10
1.8684448818897639
 20
-3.5838346456692913
 30
0.0
  0
SPLINE
  5
59
100
AcDbEntity
  8
Layer 1
 62
     9
100
AcDbSpline
210
0.0
220
0.0
230
1.0
 70
     1
 71
     3
 72
    20
 73
    16
 74
     0
 42
0.0000000001
 43
0.0000000001
 40
0.0
 40
0.0
 40
0.0
 40
0.0
 40
0.25
 40
0.25
 40
0.25
 40
0.25
 40
0.5
 40
0.5
 40
0.5
 40
0.5
 40
0.75
 40
0.75
 40
0.75
 40
0.75
 40
1.0
 40
1.0
 40
1.0
 40
1.0
 10
1.7925118110236222
 20
-3.7581417322834647
 30
0.0
 10
1.7925118110236222
 20
-3.7581417322834647
 30
0.0
 10
2.4508307086614174
 20
-3.3871692913385827
 30
0.0
 10
2.4508307086614174
 20
-3.3871692913385827
 30
0.0
 10
2.4508307086614174
 20
-3.3871692913385827
 30
0.0
 10
2.4508307086614174
 20
-3.3871692913385827
 30
0.0
 10
2.3563897637795277
 20
-3.5522834645669294
 30
0.0
 10
2.3563897637795277
 20
-3.5522834645669294
 30
0.0
 10
2.3563897637795277
 20
-3.5522834645669294
 30
0.0
 10
2.3563897637795277
 20
-3.5522834645669294
 30
0.0
 10
1.6980708661417323
 20
-3.923255905511811
 30
0.0
 10
1.6980708661417323
 20
-3.923255905511811
 30
0.0
 10
1.6980708661417323
 20
-3.923255905511811
 30
0.0
 10
1.6980708661417323
 20
-3.923255905511811
 30
0.0
 10
1.7925118110236222
 20
-3.7581417322834647
 30
0.0
 10
1.7925118110236222
 20
-3.7581417322834647
 30
0.0
  0
SPLINE
  5
5A
100
AcDbEntity
  8
Layer 1
 62
     9
100
AcDbSpline
210
0.0
220
0.0
230
1.0
 70
     1
 71
     3
 72
    20
 73
    16
 74
     0
 42
0.0000000001
 43
0.0000000001
 40
0.0
 40
0.0
 40
0.0
 40
0.0
 40
0.25
 40
0.25
 40
0.25
 40
0.25
 40
0.5
 40
0.5
 40
0.5
 40
0.5
 40
0.75
 40
0.75
 40
0.75
 40
0.75
 40
1.0
 40
1.0
 40
1.0
 40
1.0
 10
1.6980708661417323
 20
-3.923255905511811
 30
0.0
 10
1.6980708661417323
 20
-3.923255905511811
 30
0.0
 10
2.3563897637795277
 20
-3.5522834645669294
 30
0.0
 10
2.3563897637795277
 20
-3.5522834645669294
 30
0.0
 10
2.3563897637795277
 20
-3.5522834645669294
 30
0.0
 10
2.3563897637795277
 20
-3.5522834645669294
 30
0.0
 10
2.2433149606299212
 20
-3.7066653543307089
 30
0.0
 10
2.2433149606299212
 20
-3.7066653543307089
 30
0.0
 10
2.2433149606299212
 20
-3.7066653543307089
 30
0.0
 10
2.2433149606299212
 20
-3.7066653543307089
 30
0.0
 10
1.584996062992126
 20
-4.0776377952755904
 30
0.0
 10
1.584996062992126
 20
-4.0776377952755904
 30
0.0
 10
1.584996062992126
 20
-4.0776377952755904
 30
0.0
 10
1.584996062992126
 20
-4.0776377952755904
 30
0.0
 10
1.6980708661417323
 20
-3.923255905511811
 30
0.0
 10
1.6980708661417323
 20
-3.923255905511811
 30
0.0
  0
SPLINE
  5
5B
100
AcDbEntity
  8
Layer 1
 62
     9
100
AcDbSpline
210
0.0
220
0.0
230
1.0
 70
     1
 71
     3
 72
    20
 73
    16
 74
     0
 42
0.0000000001
 43
0.0000000001
 40
0.0
 40
0.0
 40
0.0
 40
0.0
 40
0.25
 40
0.25
 40
0.25
 40
0.25
 40
0.5
 40
0.5
 40
0.5
 40
0.5
 40
0.75
 40
0.75
 40
0.75
 40
0.75
 40
1.0
 40
1.0
 40
1.0
 40
1.0
 10
1.584996062992126
 20
-4.0776377952755904
 30
0.0
 10
1.584996062992126
 20
-4.0776377952755904
 30
0.0
 10
2.2433149606299212
 20
-3.7066653543307089
 30
0.0
 10
2.2433149606299212
 20
-3.7066653543307089
 30
0.0
 10
2.2433149606299212
 20
-3.7066653543307089
 30
0.0
 10
2.2433149606299212
 20
-3.7066653543307089
 30
0.0
 10
2.1114566929133858
 20
-3.8487913385826773
 30
0.0
 10
2.1114566929133858
 20
-3.8487913385826773
 30
0.0
 10
2.1114566929133858
 20
-3.8487913385826773
 30
0.0
 10
2.1114566929133858
 20
-3.8487913385826773
 30
0.0
 10
1.4531377952755906
 20
-4.2197637795275593
 30
0.0
 10
1.4531377952755906
 20
-4.2197637795275593
 30
0.0
 10
1.4531377952755906
 20
-4.2197637795275593
 30
0.0
 10
1.4531377952755906
 20
-4.2197637795275593
 30
0.0
 10
1.584996062992126
 20
-4.0776377952755904
 30
0.0
 10
1.584996062992126
 20
-4.0776377952755904
 30
0.0
  0
SPLINE
  5
5C
100
AcDbEntity
  8
Layer 1
 62
     9
100
AcDbSpline
210
0.0
220
0.0
230
1.0
 70
     1
 71
     3
 72
    20
 73
    16
 74
     0
 42
0.0000000001
 43
0.0000000001
 40
0.0
 40
0.0
 40
0.0
 40
0.0
 40
0.25
 40
0.25
 40
0.25
 40
0.25
 40
0.5
 40
0.5
 40
0.5
 40
0.5
 40
0.75
 40
0.75
 40
0.75
 40
0.75
 40
1.0
 40
1.0
 40
1.0
 40
1.0
 10
1.4531377952755906
 20
-4.2197637795275593
 30
0.0
 10
1.4531377952755906
 20
-4.2197637795275593
 30
0.0
 10
2.1114566929133858
 20
-3.8487913385826773
 30
0.0
 10
2.1114566929133858
 20
-3.8487913385826773
 30
0.0
 10
2.1114566929133858
 20
-3.8487913385826773
 30
0.0
 10
2.1114566929133858
 20
-3.8487913385826773
 30
0.0
 10
1.9606811023622048
 20
-3.9771141732283466
 30
0.0
 10
1.9606811023622048
 20
-3.9771141732283466
 30
0.0
 10
1.9606811023622048
 20
-3.9771141732283466
 30
0.0
 10
1.9606811023622048
 20
-3.9771141732283466
 30
0.0
 10
1.3023622047244094
 20
-4.3480866141732282
 30
0.0
 10
1.3023622047244094
 20
-4.3480866141732282
 30
0.0
 10
1.3023622047244094
 20
-4.3480866141732282
 30
0.0
 10
1.3023622047244094
 20
-4.3480866141732282
 30
0.0
 10
1.4531377952755906
 20
-4.2197637795275593
 30
0.0
 10
1.4531377952755906
 20
-4.2197637795275593
 30
0.0
  0
SPLINE
  5
5D
100
AcDbEntity
  8
Layer 1
370
     5
100
AcDbSpline
210
0.0
220
0.0
230
1.0
 70
     1
 71
     3
 72
   220
 73
   216
 74
     0
 42
0.0000000001
 43
0.0000000001
 40
0.0
 40
0.0
 40
0.0
 40
0.0
 40
0.0185185185185185
 40
0.0185185185185185
 40
0.0185185185185185
 40
0.0185185185185185
 40
0.037037037037037
 40
0.037037037037037
 40
0.037037037037037
 40
0.037037037037037
 40
0.0555555555555556
 40
0.0555555555555556
 40
0.0555555555555556
 40
0.0555555555555556
 40
0.0740740740740741
 40
0.0740740740740741
 40
0.0740740740740741
 40
0.0740740740740741
 40
0.0925925925925926
 40
0.0925925925925926
 40
0.0925925925925926
 40
0.0925925925925926
 40
0.1111111111111111
 40
0.1111111111111111
 40
0.1111111111111111
 40
0.1111111111111111
 40
0.1296296296296296
 40
0.1296296296296296
 40
0.1296296296296296
 40
0.1296296296296296
 40
0.1481481481481481
 40
0.1481481481481481
 40
0.1481481481481481
 40
0.1481481481481481
 40
0.1666666666666667
 40
0.1666666666666667
 40
0.1666666666666667
 40
0.1666666666666667
 40
0.1851851851851852
 40
0.1851851851851852
 40
0.1851851851851852
 40
0.1851851851851852
 40
0.2037037037037037
 40
0.2037037037037037
 40
0.2037037037037037
 40
0.2037037037037037
 40
0.2222222222222222
 40
0.2222222222222222
 40
0.2222222222222222
 40
0.2222222222222222
 40
0.2407407407407407
 40
0.2407407407407407
 40
0.2407407407407407
 40
0.2407407407407407
 40
0.2592592592592592
 40
0.2592592592592592
 40
0.2592592592592592
 40
0.2592592592592592
 40
0.2777777777777778
 40
0.2777777777777778
 40
0.2777777777777778
 40
0.2777777777777778
 40
0.2962962962962963
 40
0.2962962962962963
 40
0.2962962962962963
 40
0.2962962962962963
 40
0.3148148148148148
 40
0.3148148148148148
 40
0.3148148148148148
 40
0.3148148148148148
 40
0.3333333333333333
 40
0.3333333333333333
 40
0.3333333333333333
 40
0.3333333333333333
 40
0.3518518518518518
 40
0.3518518518518518
 40
0.3518518518518518
 40
0.3518518518518518
 40
0.3703703703703702
 40
0.3703703703703702
 40
0.3703703703703702
 40
0.3703703703703702
 40
0.3888888888888887
 40
0.3888888888888887
 40
0.3888888888888887
 40
0.3888888888888887
 40
0.4074074074074072
 40
0.4074074074074072
 40
0.4074074074074072
 40
0.4074074074074072
 40
0.4259259259259257
 40
0.4259259259259257
 40
0.4259259259259257
 40
0.4259259259259257
 40
0.4444444444444442
 40
0.4444444444444442
 40
0.4444444444444442
 40
0.4444444444444442
 40
0.4629629629629627
 40
0.4629629629629627
 40
0.4629629629629627
 40
0.4629629629629627
 40
0.4814814814814812
 40
0.4814814814814812
 40
0.4814814814814812
 40
0.4814814814814812
 40
0.4999999999999997
 40
0.4999999999999997
 40
0.4999999999999997
 40
0.4999999999999997
 40
0.5185185185185182
 40
0.5185185185185182
 40
0.5185185185185182
 40
0.5185185185185182
 40
0.5370370370370367
 40
0.5370370370370367
 40
0.5370370370370367
 40
0.5370370370370367
 40
0.5555555555555551
 40
0.5555555555555551
 40
0.5555555555555551
 40
0.5555555555555551
 40
0.5740740740740736
 40
0.5740740740740736
 40
0.5740740740740736
 40
0.5740740740740736
 40
0.5925925925925921
 40
0.5925925925925921
 40
0.5925925925925921
 40
0.5925925925925921
 40
0.6111111111111106
 40
0.6111111111111106
 40
0.6111111111111106
 40
0.6111111111111106
 40
0.6296296296296291
 40
0.6296296296296291
 40
0.6296296296296291
 40
0.6296296296296291
 40
0.6481481481481476
 40
0.6481481481481476
 40
0.6481481481481476
 40
0.6481481481481476
 40
0.6666666666666661
 40
0.6666666666666661
 40
0.6666666666666661
 40
0.6666666666666661
 40
0.6851851851851846
 40
0.6851851851851846
 40
0.6851851851851846
 40
0.6851851851851846
 40
0.7037037037037031
 40
0.7037037037037031
 40
0.7037037037037031
 40
0.7037037037037031
 40
0.7222222222222215
 40
0.7222222222222215
 40
0.7222222222222215
 40
0.7222222222222215
 40
0.74074074074074
 40
0.74074074074074
 40
0.74074074074074
 40
0.74074074074074
 40
0.7592592592592585
 40
0.7592592592592585
 40
0.7592592592592585
 40
0.7592592592592585
 40
0.777777777777777
 40
0.777777777777777
 40
0.777777777777777
 40
0.777777777777777
 40
0.7962962962962955
 40
0.7962962962962955
 40
0.7962962962962955
 40
0.7962962962962955
 40
0.814814814814814
 40
0.814814814814814
 40
0.814814814814814
 40
0.814814814814814
 40
0.8333333333333325
 40
0.8333333333333325
 40
0.8333333333333325
 40
0.8333333333333325
 40
0.851851851851851
 40
0.851851851851851
 40
0.851851851851851
 40
0.851851851851851
 40
0.8703703703703695
 40
0.8703703703703695
 40
0.8703703703703695
 40
0.8703703703703695
 40
0.888888888888888
 40
0.888888888888888
 40
0.888888888888888
 40
0.888888888888888
 40
0.9074074074074064
 40
0.9074074074074064
 40
0.9074074074074064
 40
0.9074074074074064
 40
0.9259259259259249
 40
0.9259259259259249
 40
0.9259259259259249
 40
0.9259259259259249
 40
0.9444444444444434
 40
0.9444444444444434
 40
0.9444444444444434
 40
0.9444444444444434
 40
0.9629629629629619
 40
0.9629629629629619
 40
0.9629629629629619
 40
0.9629629629629619
 40
0.9814814814814804
 40
0.9814814814814804
 40
0.9814814814814804
 40
0.9814814814814804
 40
1.0
 40
1.0
 40
1.0
 40
1.0
 10
-0.5634330708661418
 20
-0.5133779527559056
 30
0.0
 10
-0.5634330708661418
 20
-0.5133779527559056
 30
0.0
 10
0.0948858267716536
 20
-0.1424055118110236
 30
0.0
 10
0.0948858267716536
 20
-0.1424055118110236
 30
0.0
 10
0.0948858267716536
 20
-0.1424055118110236
 30
0.0
 10
0.0948858267716536
 20
-0.1424055118110236
 30
0.0
 10
0.375244094488189
 20
-0.1557913385826772
 30
0.0
 10
0.375244094488189
 20
-0.1557913385826772
 30
0.0
 10
0.375244094488189
 20
-0.1557913385826772
 30
0.0
 10
0.375244094488189
 20
-0.1557913385826772
 30
0.0
 10
0.6400354330708662
 20
-0.1921574803149606
 30
0.0
 10
0.6400354330708662
 20
-0.1921574803149606
 30
0.0
 10
0.6400354330708662
 20
-0.1921574803149606
 30
0.0
 10
0.6400354330708662
 20
-0.1921574803149606
 30
0.0
 10
0.8891062992125984
 20
-0.249988188976378
 30
0.0
 10
0.8891062992125984
 20
-0.249988188976378
 30
0.0
 10
0.8891062992125984
 20
-0.249988188976378
 30
0.0
 10
0.8891062992125984
 20
-0.249988188976378
 30
0.0
 10
1.1223385826771655
 20
-0.3277362204724409
 30
0.0
 10
1.1223385826771655
 20
-0.3277362204724409
 30
0.0
 10
1.1223385826771655
 20
-0.3277362204724409
 30
0.0
 10
1.1223385826771655
 20
-0.3277362204724409
 30
0.0
 10
1.3395669291338583
 20
-0.4238858267716535
 30
0.0
 10
1.3395669291338583
 20
-0.4238858267716535
 30
0.0
 10
1.3395669291338583
 20
-0.4238858267716535
 30
0.0
 10
1.3395669291338583
 20
-0.4238858267716535
 30
0.0
 10
1.5406732283464568
 20
-0.5368858267716535
 30
0.0
 10
1.5406732283464568
 20
-0.5368858267716535
 30
0.0
 10
1.5406732283464568
 20
-0.5368858267716535
 30
0.0
 10
1.5406732283464568
 20
-0.5368858267716535
 30
0.0
 10
1.7255039370078742
 20
-0.6652165354330709
 30
0.0
 10
1.7255039370078742
 20
-0.6652165354330709
 30
0.0
 10
1.7255039370078742
 20
-0.6652165354330709
 30
0.0
 10
1.7255039370078742
 20
-0.6652165354330709
 30
0.0
 10
1.8939330708661417
 20
-0.8073346456692914
 30
0.0
 10
1.8939330708661417
 20
-0.8073346456692914
 30
0.0
 10
1.8939330708661417
 20
-0.8073346456692914
 30
0.0
 10
1.8939330708661417
 20
-0.8073346456692914
 30
0.0
 10
2.0458031496062992
 20
-0.9617283464566929
 30
0.0
 10
2.0458031496062992
 20
-0.9617283464566929
 30
0.0
 10
2.0458031496062992
 20
-0.9617283464566929
 30
0.0
 10
2.0458031496062992
 20
-0.9617283464566929
 30
0.0
 10
2.1809921259842522
 20
-1.1268425196850393
 30
0.0
 10
2.1809921259842522
 20
-1.1268425196850393
 30
0.0
 10
2.1809921259842522
 20
-1.1268425196850393
 30
0.0
 10
2.1809921259842522
 20
-1.1268425196850393
 30
0.0
 10
2.2993464566929136
 20
-1.3011535433070867
 30
0.0
 10
2.2993464566929136
 20
-1.3011535433070867
 30
0.0
 10
2.2993464566929136
 20
-1.3011535433070867
 30
0.0
 10
2.2993464566929136
 20
-1.3011535433070867
 30
0.0
 10
2.4007440944881893
 20
-1.4831220472440945
 30
0.0
 10
2.4007440944881893
 20
-1.4831220472440945
 30
0.0
 10
2.4007440944881893
 20
-1.4831220472440945
 30
0.0
 10
2.4007440944881893
 20
-1.4831220472440945
 30
0.0
 10
2.4850275590551183
 20
-1.671232283464567
 30
0.0
 10
2.4850275590551183
 20
-1.671232283464567
 30
0.0
 10
2.4850275590551183
 20
-1.671232283464567
 30
0.0
 10
2.4850275590551183
 20
-1.671232283464567
 30
0.0
 10
2.5520669291338582
 20
-1.8639330708661419
 30
0.0
 10
2.5520669291338582
 20
-1.8639330708661419
 30
0.0
 10
2.5520669291338582
 20
-1.8639330708661419
 30
0.0
 10
2.5520669291338582
 20
-1.8639330708661419
 30
0.0
 10
2.6017204724409448
 20
-2.0597047244094489
 30
0.0
 10
2.6017204724409448
 20
-2.0597047244094489
 30
0.0
 10
2.6017204724409448
 20
-2.0597047244094489
 30
0.0
 10
2.6017204724409448
 20
-2.0597047244094489
 30
0.0
 10
2.6338582677165356
 20
-2.2570000000000001
 30
0.0
 10
2.6338582677165356
 20
-2.2570000000000001
 30
0.0
 10
2.6338582677165356
 20
-2.2570000000000001
 30
0.0
 10
2.6338582677165356
 20
-2.2570000000000001
 30
0.0
 10
2.6483228346456693
 20
-2.4543070866141732
 30
0.0
 10
2.6483228346456693
 20
-2.4543070866141732
 30
0.0
 10
2.6483228346456693
 20
-2.4543070866141732
 30
0.0
 10
2.6483228346456693
 20
-2.4543070866141732
 30
0.0
 10
2.6449842519685038
 20
-2.6500708661417325
 30
0.0
 10
2.6449842519685038
 20
-2.6500708661417325
 30
0.0
 10
2.6449842519685038
 20
-2.6500708661417325
 30
0.0
 10
2.6449842519685038
 20
-2.6500708661417325
 30
0.0
 10
2.6237047244094489
 20
-2.8427795275590553
 30
0.0
 10
2.6237047244094489
 20
-2.8427795275590553
 30
0.0
 10
2.6237047244094489
 20
-2.8427795275590553
 30
0.0
 10
2.6237047244094489
 20
-2.8427795275590553
 30
0.0
 10
2.5843503937007877
 20
-3.0308818897637795
 30
0.0
 10
2.5843503937007877
 20
-3.0308818897637795
 30
0.0
 10
2.5843503937007877
 20
-3.0308818897637795
 30
0.0
 10
2.5843503937007877
 20
-3.0308818897637795
 30
0.0
 10
2.5267637795275593
 20
-3.2128622047244098
 30
0.0
 10
2.5267637795275593
 20
-3.2128622047244098
 30
0.0
 10
2.5267637795275593
 20
-3.2128622047244098
 30
0.0
 10
2.5267637795275593
 20
-3.2128622047244098
 30
0.0
 10
2.4508307086614174
 20
-3.3871692913385827
 30
0.0
 10
2.4508307086614174
 20
-3.3871692913385827
 30
0.0
 10
2.4508307086614174
 20
-3.3871692913385827
 30
0.0
 10
2.4508307086614174
 20
-3.3871692913385827
 30
0.0
 10
2.3563897637795277
 20
-3.5522834645669294
 30
0.0
 10
2.3563897637795277
 20
-3.5522834645669294
 30
0.0
 10
2.3563897637795277
 20
-3.5522834645669294
 30
0.0
 10
2.3563897637795277
 20
-3.5522834645669294
 30
0.0
 10
2.2433149606299212
 20
-3.7066653543307089
 30
0.0
 10
2.2433149606299212
 20
-3.7066653543307089
 30
0.0
 10
2.2433149606299212
 20
-3.7066653543307089
 30
0.0
 10
2.2433149606299212
 20
-3.7066653543307089
 30
0.0
 10
2.1114566929133858
 20
-3.8487913385826773
 30
0.0
 10
2.1114566929133858
 20
-3.8487913385826773
 30
0.0
 10
2.1114566929133858
 20
-3.8487913385826773
 30
0.0
 10
2.1114566929133858
 20
-3.8487913385826773
 30
0.0
 10
1.9606811023622048
 20
-3.9771141732283466
 30
0.0
 10
1.9606811023622048
 20
-3.9771141732283466
 30
0.0
 10
1.9606811023622048
 20
-3.9771141732283466
 30
0.0
 10
1.9606811023622048
 20
-3.9771141732283466
 30
0.0
 10
1.3023622047244094
 20
-4.3480866141732282
 30
0.0
 10
1.3023622047244094
 20
-4.3480866141732282
 30
0.0
 10
1.3023622047244094
 20
-4.3480866141732282
 30
0.0
 10
1.3023622047244094
 20
-4.3480866141732282
 30
0.0
 10
1.4531377952755906
 20
-4.2197637795275593
 30
0.0
 10
1.4531377952755906
 20
-4.2197637795275593
 30
0.0
 10
1.4531377952755906
 20
-4.2197637795275593
 30
0.0
 10
1.4531377952755906
 20
-4.2197637795275593
 30
0.0
 10
1.584996062992126
 20
-4.0776377952755904
 30
0.0
 10
1.584996062992126
 20
-4.0776377952755904
 30
0.0
 10
1.584996062992126
 20
-4.0776377952755904
 30
0.0
 10
1.584996062992126
 20
-4.0776377952755904
 30
0.0
 10
1.6980708661417323
 20
-3.923255905511811
 30
0.0
 10
1.6980708661417323
 20
-3.923255905511811
 30
0.0
 10
1.6980708661417323
 20
-3.923255905511811
 30
0.0
 10
1.6980708661417323
 20
-3.923255905511811
 30
0.0
 10
1.7925118110236222
 20
-3.7581417322834647
 30
0.0
 10
1.7925118110236222
 20
-3.7581417322834647
 30
0.0
 10
1.7925118110236222
 20
-3.7581417322834647
 30
0.0
 10
1.7925118110236222
 20
-3.7581417322834647
 30
0.0
 10
1.8684448818897639
 20
-3.5838346456692913
 30
0.0
 10
1.8684448818897639
 20
-3.5838346456692913
 30
0.0
 10
1.8684448818897639
 20
-3.5838346456692913
 30
0.0
 10
1.8684448818897639
 20
-3.5838346456692913
 30
0.0
 10
1.9260314960629923
 20
-3.4018543307086615
 30
0.0
 10
1.9260314960629923
 20
-3.4018543307086615
 30
0.0
 10
1.9260314960629923
 20
-3.4018543307086615
 30
0.0
 10
1.9260314960629923
 20
-3.4018543307086615
 30
0.0
 10
1.9653858267716535
 20
-3.2137519685039373
 30
0.0
 10
1.9653858267716535
 20
-3.2137519685039373
 30
0.0
 10
1.9653858267716535
 20
-3.2137519685039373
 30
0.0
 10
1.9653858267716535
 20
-3.2137519685039373
 30
0.0
 10
1.9866653543307087
 20
-3.0210433070866145
 30
0.0
 10
1.9866653543307087
 20
-3.0210433070866145
 30
0.0
 10
1.9866653543307087
 20
-3.0210433070866145
 30
0.0
 10
1.9866653543307087
 20
-3.0210433070866145
 30
0.0
 10
1.9900039370078741
 20
-2.8252795275590552
 30
0.0
 10
1.9900039370078741
 20
-2.8252795275590552
 30
0.0
 10
1.9900039370078741
 20
-2.8252795275590552
 30
0.0
 10
1.9900039370078741
 20
-2.8252795275590552
 30
0.0
 10
1.9755393700787403
 20
-2.6279724409448821
 30
0.0
 10
1.9755393700787403
 20
-2.6279724409448821
 30
0.0
 10
1.9755393700787403
 20
-2.6279724409448821
 30
0.0
 10
1.9755393700787403
 20
-2.6279724409448821
 30
0.0
 10
1.9434015748031497
 20
-2.4306771653543309
 30
0.0
 10
1.9434015748031497
 20
-2.4306771653543309
 30
0.0
 10
1.9434015748031497
 20
-2.4306771653543309
 30
0.0
 10
1.9434015748031497
 20
-2.4306771653543309
 30
0.0
 10
1.8937480314960631
 20
-2.2349055118110237
 30
0.0
 10
1.8937480314960631
 20
-2.2349055118110237
 30
0.0
 10
1.8937480314960631
 20
-2.2349055118110237
 30
0.0
 10
1.8937480314960631
 20
-2.2349055118110237
 30
0.0
 10
1.8267086614173229
 20
-2.0422047244094488
 30
0.0
 10
1.8267086614173229
 20
-2.0422047244094488
 30
0.0
 10
1.8267086614173229
 20
-2.0422047244094488
 30
0.0
 10
1.8267086614173229
 20
-2.0422047244094488
 30
0.0
 10
1.7424251968503939
 20
-1.8540944881889765
 30
0.0
 10
1.7424251968503939
 20
-1.8540944881889765
 30
0.0
 10
1.7424251968503939
 20
-1.8540944881889765
 30
0.0
 10
1.7424251968503939
 20
-1.8540944881889765
 30
0.0
 10
1.6410275590551182
 20
-1.6721259842519687
 30
0.0
 10
1.6410275590551182
 20
-1.6721259842519687
 30
0.0
 10
1.6410275590551182
 20
-1.6721259842519687
 30
0.0
 10
1.6410275590551182
 20
-1.6721259842519687
 30
0.0
 10
1.5226732283464568
 20
-1.4978149606299214
 30
0.0
 10
1.5226732283464568
 20
-1.4978149606299214
 30
0.0
 10
1.5226732283464568
 20
-1.4978149606299214
 30
0.0
 10
1.5226732283464568
 20
-1.4978149606299214
 30
0.0
 10
1.387484251968504
 20
-1.3327007874015748
 30
0.0
 10
1.387484251968504
 20
-1.3327007874015748
 30
0.0
 10
1.387484251968504
 20
-1.3327007874015748
 30
0.0
 10
1.387484251968504
 20
-1.3327007874015748
 30
0.0
 10
1.2356141732283465
 20
-1.1783070866141734
 30
0.0
 10
1.2356141732283465
 20
-1.1783070866141734
 30
0.0
 10
1.2356141732283465
 20
-1.1783070866141734
 30
0.0
 10
1.2356141732283465
 20
-1.1783070866141734
 30
0.0
 10
1.0671850393700788
 20
-1.0361889763779528
 30
0.0
 10
1.0671850393700788
 20
-1.0361889763779528
 30
0.0
 10
1.0671850393700788
 20
-1.0361889763779528
 30
0.0
 10
1.0671850393700788
 20
-1.0361889763779528
 30
0.0
 10
0.8823543307086614
 20
-0.9078582677165354
 30
0.0
 10
0.8823543307086614
 20
-0.9078582677165354
 30
0.0
 10
0.8823543307086614
 20
-0.9078582677165354
 30
0.0
 10
0.8823543307086614
 20
-0.9078582677165354
 30
0.0
 10
0.6812480314960631
 20
-0.7948582677165355
 30
0.0
 10
0.6812480314960631
 20
-0.7948582677165355
 30
0.0
 10
0.6812480314960631
 20
-0.7948582677165355
 30
0.0
 10
0.6812480314960631
 20
-0.7948582677165355
 30
0.0
 10
0.4640196850393701
 20
-0.6987086614173229
 30
0.0
 10
0.4640196850393701
 20
-0.6987086614173229
 30
0.0
 10
0.4640196850393701
 20
-0.6987086614173229
 30
0.0
 10
0.4640196850393701
 20
-0.6987086614173229
 30
0.0
 10
0.2307874015748032
 20
-0.6209606299212599
 30
0.0
 10
0.2307874015748032
 20
-0.6209606299212599
 30
0.0
 10
0.2307874015748032
 20
-0.6209606299212599
 30
0.0
 10
0.2307874015748032
 20
-0.6209606299212599
 30
0.0
 10
-0.0182834645669291
 20
-0.5631299212598425
 30
0.0
 10
-0.0182834645669291
 20
-0.5631299212598425
 30
0.0
 10
-0.0182834645669291
 20
-0.5631299212598425
 30
0.0
 10
-0.0182834645669291
 20
-0.5631299212598425
 30
0.0
 10
-0.2830748031496063
 20
-0.526763779527559
 30
0.0
 10
-0.2830748031496063
 20
-0.526763779527559
 30
0.0
 10
-0.2830748031496063
 20
-0.526763779527559
 30
0.0
 10
-0.2830748031496063
 20
-0.526763779527559
 30
0.0
 10
-0.5634330708661418
 20
-0.5133779527559056
 30
0.0
 10
-0.5634330708661418
 20
-0.5133779527559056
 30
0.0
  0
SPLINE
  5
5E
100
AcDbEntity
  8
Layer 1
 62
   252
100
AcDbSpline
210
0.0
220
0.0
230
1.0
 70
     1
 71
     3
 72
    20
 73
    16
 74
     0
 42
0.0000000001
 43
0.0000000001
 40
0.0
 40
0.0
 40
0.0
 40
0.0
 40
0.25
 40
0.25
 40
0.25
 40
0.25
 40
0.5
 40
0.5
 40
0.5
 40
0.5
 40
0.75
 40
0.75
 40
0.75
 40
0.75
 40
1.0
 40
1.0
 40
1.0
 40
1.0
 10
-1.8823464566929136
 20
-0.4925669291338583
 30
0.0
 10
-1.8823464566929136
 20
-0.4925669291338583
 30
0.0
 10
-1.2240275590551182
 20
-0.1215944881889764
 30
0.0
 10
-1.2240275590551182
 20
-0.1215944881889764
 30
0.0
 10
-1.2240275590551182
 20
-0.1215944881889764
 30
0.0
 10
-1.2240275590551182
 20
-0.1215944881889764
 30
0.0
 10
0.0948858267716536
 20
-0.1424055118110236
 30
0.0
 10
0.0948858267716536
 20
-0.1424055118110236
 30
0.0
 10
0.0948858267716536
 20
-0.1424055118110236
 30
0.0
 10
0.0948858267716536
 20
-0.1424055118110236
 30
0.0
 10
-0.5634330708661418
 20
-0.5133779527559056
 30
0.0
 10
-0.5634330708661418
 20
-0.5133779527559056
 30
0.0
 10
-0.5634330708661418
 20
-0.5133779527559056
 30
0.0
 10
-0.5634330708661418
 20
-0.5133779527559056
 30
0.0
 10
-1.8823464566929136
 20
-0.4925669291338583
 30
0.0
 10
-1.8823464566929136
 20
-0.4925669291338583
 30
0.0
  0
SPLINE
  5
5F
100
AcDbEntity
  8
Layer 1
370
     5
100
AcDbSpline
210
0.0
220
0.0
230
1.0
 70
     1
 71
     3
 72
    20
 73
    16
 74
     0
 42
0.0000000001
 43
0.0000000001
 40
0.0
 40
0.0
 40
0.0
 40
0.0
 40
0.25
 40
0.25
 40
0.25
 40
0.25
 40
0.5
 40
0.5
 40
0.5
 40
0.5
 40
0.75
 40
0.75
 40
0.75
 40
0.75
 40
1.0
 40
1.0
 40
1.0
 40
1.0
 10
-1.8823464566929136
 20
-0.4925669291338583
 30
0.0
 10
-1.8823464566929136
 20
-0.4925669291338583
 30
0.0
 10
-1.2240275590551182
 20
-0.1215944881889764
 30
0.0
 10
-1.2240275590551182
 20
-0.1215944881889764
 30
0.0
 10
-1.2240275590551182
 20
-0.1215944881889764
 30
0.0
 10
-1.2240275590551182
 20
-0.1215944881889764
 30
0.0
 10
0.0948858267716536
 20
-0.1424055118110236
 30
0.0
 10
0.0948858267716536
 20
-0.1424055118110236
 30
0.0
 10
0.0948858267716536
 20
-0.1424055118110236
 30
0.0
 10
0.0948858267716536
 20
-0.1424055118110236
 30
0.0
 10
-0.5634330708661418
 20
-0.5133779527559056
 30
0.0
 10
-0.5634330708661418
 20
-0.5133779527559056
 30
0.0
 10
-0.5634330708661418
 20
-0.5133779527559056
 30
0.0
 10
-0.5634330708661418
 20
-0.5133779527559056
 30
0.0
 10
-1.8823464566929136
 20
-0.4925669291338583
 30
0.0
 10
-1.8823464566929136
 20
-0.4925669291338583
 30
0.0
  0
SPLINE
  5
60
100
AcDbEntity
  8
Layer 1
370
     5
 62
     7
100
AcDbSpline
210
0.0
220
0.0
230
1.0
 70
     1
 71
     3
 72
    20
 73
    16
 74
     0
 42
0.0000000001
 43
0.0000000001
 40
0.0
 40
0.0
 40
0.0
 40
0.0
 40
0.25
 40
0.25
 40
0.25
 40
0.25
 40
0.5
 40
0.5
 40
0.5
 40
0.5
 40
0.75
 40
0.75
 40
0.75
 40
0.75
 40
1.0
 40
1.0
 40
1.0
 40
1.0
 10
-0.5634330708661418
 20
-0.5133779527559056
 30
0.0
 10
2.5096771653543306
 20
-0.5280118110236221
 30
0.0
 10
2.9486929133858268
 20
-4.7279291338582681
 30
0.0
 10
-0.0073464566929134
 20
-4.7425629921259844
 30
0.0
 10
-0.0073464566929134
 20
-4.7425629921259844
 30
0.0
 10
-0.0073464566929134
 20
-4.7425629921259844
 30
0.0
 10
-1.8823464566929136
 20
-4.7425629921259844
 30
0.0
 10
-1.8823464566929136
 20
-4.7425629921259844
 30
0.0
 10
-1.8823464566929136
 20
-4.7425629921259844
 30
0.0
 10
-1.8823464566929136
 20
-4.7425629921259844
 30
0.0
 10
-1.8823464566929136
 20
-0.4925669291338583
 30
0.0
 10
-1.8823464566929136
 20
-0.4925669291338583
 30
0.0
 10
-1.8823464566929136
 20
-0.4925669291338583
 30
0.0
 10
-1.8823464566929136
 20
-0.4925669291338583
 30
0.0
 10
-0.5634330708661418
 20
-0.5133779527559056
 30
0.0
 10
-0.5634330708661418
 20
-0.5133779527559056
 30
0.0
  0
TEXT
  5
62
100
AcDbEntity
  8
Layer 1
100
AcDbText
 10
-0.230638
 20
-4.93174
 30
0.0
 40
0.119999
  1
BA  1515A & B
 51
-0.000002
  7
Bookman Old Style
100
AcDbText
  0
TEXT
  5
63
100
AcDbEntity
  8
Layer 1
100
AcDbText
 10
-0.257374
 20
-5.11924
 30
0.0
 40
0.119999
  1
3-7/8\u+201d x 4-1/4\u+201d
 51
-0.000002
  7
Bookman Old Style
100
AcDbText
  0
TEXT
  5
64
100
AcDbEntity
  8
Layer 1
100
AcDbText
 10
0.136575
 20
0.266465
 30
0.0
 40
0.119999
  1
BA  1515A & B
 51
-0.000002
  7
Bookman Old Style
100
AcDbText
  0
TEXT
  5
65
100
AcDbEntity
  8
Layer 1
100
AcDbText
 10
0.109839
 20
0.078965
 30
0.0
 40
0.119999
  1
3-7/8\u+201d x 4-1/4\u+201d
 51
-0.000002
  7
Bookman Old Style
100
AcDbText
  0
ENDSEC
  0
SECTION
  2
OBJECTS
  0
DICTIONARY
  5
19
100
AcDbDictionary
280
     0
281
     1
  3
ACAD_GROUP
350
1A
  3
ACAD_MLINESTYLE
350
1B
  3
ACAD_LAYOUT
350
1E
  3
ACAD_PLOTSETTINGS
350
22
  3
ACAD_PLOTSTYLENAME
350
1F
  3
ACAD_WIPEOUT_VARS
350
23
  0
DICTIONARY
  5
1A
102
{ACAD_REACTORS
330
19
102
}
100
AcDbDictionary
280
     0
281
     1
  0
DICTIONARY
  5
1B
102
{ACAD_REACTORS
330
19
102
}
100
AcDbDictionary
280
     0
281
     1
  3
Standard
350
1C
  0
MLINESTYLE
  5
1C
102
{ACAD_REACTORS
330
1B
102
}
100
AcDbMlineStyle
  2
Standard
 70
     0
  3

 62
     0
 51
90.0
 52
90.0
 71
     2
 49
0.5
 62
   256
  6
BYLAYER
 49
-0.5
 62
   256
  6
BYLAYER
  0
ACDBDICTIONARYWDFLT
  5
1F
102
{ACAD_REACTORS
330
19
102
}
100
AcDbDictionary
281
     1
  3
Normal
350
1D
100
AcDbDictionaryWithDefault
340
1D
  0
ACDBPLACEHOLDER
  5
1D
102
{ACAD_REACTORS
330
1F
102
}
  0
LAYOUT
  5
20
102
{ACAD_REACTORS
330
1E
102
}
100
AcDbPlotSettings
  1

  2

  4

  6

 40
0.0
 41
0.0
 42
0.0
 43
0.0
 44
0.0
 45
0.0
 46
0.0
 47
0.0
 48
0.0
 49
0.0
140
0.0
141
0.0
142
1.0
143
1.0
 70
  1024
 72
     0
 73
     0
 74
     0
  7

 75
     0
147
1.0
148
0.0
149
0.0
100
AcDbLayout
  1
Model
 70
     0
 71
     0
 10
0.0
 20
0.0
 11
0.0
 21
0.0
 12
0.0
 22
0.0
 32
0.0
 14
0.0
 24
0.0
 34
0.0
 15
0.0
 25
0.0
 35
0.0
146
0.0
 13
0.0
 23
0.0
 33
0.0
 16
0.0
 26
0.0
 36
0.0
 17
0.0
 27
0.0
 37
0.0
 76
     0
330
A
331
0
345
0
346
0
  0
LAYOUT
  5
21
102
{ACAD_REACTORS
330
1E
102
}
100
AcDbPlotSettings
  1

  2

  4

  6

 40
0.0
 41
0.0
 42
0.0
 43
0.0
 44
0.0
 45
0.0
 46
0.0
 47
0.0
 48
0.0
 49
0.0
140
0.0
141
0.0
142
1.0
143
1.0
 70
     0
 72
     0
 73
     0
 74
     0
  7

 75
     0
147
1.0
148
0.0
149
0.0
100
AcDbLayout
  1
Layout1
 70
     0
 71
     0
 10
0.0
 20
0.0
 11
0.0
 21
0.0
 12
0.0
 22
0.0
 32
0.0
 14
0.0
 24
0.0
 34
0.0
 15
0.0
 25
0.0
 35
0.0
146
0.0
 13
0.0
 23
0.0
 33
0.0
 16
0.0
 26
0.0
 36
0.0
 17
0.0
 27
0.0
 37
0.0
 76
     0
330
B
331
0
345
0
346
0
  0
DICTIONARY
  5
1E
102
{ACAD_REACTORS
330
19
102
}
100
AcDbDictionary
280
     0
281
     1
  3
Layout1
350
21
  3
Model
350
20
  0
DICTIONARY
  5
22
102
{ACAD_REACTORS
330
19
102
}
100
AcDbDictionary
280
     0
281
     1
  0
WIPEOUTVARIABLES
  5
23
100
AcDbWipeoutVariables
 70
     1
  0
ENDSEC
  0
EOF
