  0
SECTION
  2
HEADER
  9
$ACADVER
  1
AC1015
  9
$ACADMAINTVER
 70
     6
  9
$DWGCODEPAGE
  3
DOS850
  9
$INSBASE
 10
0.0
 20
0.0
 30
0.0
  9
$EXTMIN
 10
-1.245681
 20
-0.206299
 30
1.000000E+20
  9
$EXTMAX
 10
1.840394
 20
3.238386
 30
-1.000000E+20
  9
$LIMMIN
 10
0.0
 20
0.0
  9
$LIMMAX
 10
0.0
 20
0.0
  9
$ORTHOMODE
 70
     0
  9
$REGENMODE
 70
     1
  9
$FILLMODE
 70
     1
  9
$QTEXTMODE
 70
     0
  9
$MIRRTEXT
 70
     1
  9
$LTSCALE
 40
1.0
  9
$ATTMODE
 70
     1
  9
$TEXTSIZE
 40
0.2
  9
$TRACEWID
 40
0.05
  9
$TEXTSTYLE
  7
Standard
  9
$CLAYER
  8
0
  9
$CELTYPE
  6
Continuous
  9
$CECOLOR
 62
   256
  9
$CELTSCALE
 40
1.0
  9
$DISPSILH
 70
     0
  9
$DIMSCALE
 40
1.0
  9
$DIMASZ
 40
0.18
  9
$DIMEXO
 40
0.0625
  9
$DIMDLI
 40
0.38
  9
$DIMRND
 40
0.0
  9
$DIMDLE
 40
0.0
  9
$DIMEXE
 40
0.18
  9
$DIMTP
 40
0.0
  9
$DIMTM
 40
0.0
  9
$DIMTXT
 40
0.18
  9
$DIMCEN
 40
0.09
  9
$DIMTSZ
 40
0.0
  9
$DIMTOL
 70
     0
  9
$DIMLIM
 70
     0
  9
$DIMTIH
 70
     1
  9
$DIMTOH
 70
     1
  9
$DIMSE1
 70
     0
  9
$DIMSE2
 70
     0
  9
$DIMTAD
 70
     0
  9
$DIMZIN
 70
     0
  9
$DIMBLK
  1

  9
$DIMASO
 70
     1
  9
$DIMSHO
 70
     1
  9
$DIMPOST
  1

  9
$DIMAPOST
  1

  9
$DIMALT
 70
     0
  9
$DIMALTD
 70
     2
  9
$DIMALTF
 40
25.4
  9
$DIMLFAC
 40
1.0
  9
$DIMTOFL
 70
     0
  9
$DIMTVP
 40
0.0
  9
$DIMTIX
 70
     0
  9
$DIMSOXD
 70
     0
  9
$DIMSAH
 70
     0
  9
$DIMBLK1
  1

  9
$DIMBLK2
  1

  9
$DIMSTYLE
  2
Standard
  9
$DIMCLRD
 70
     0
  9
$DIMCLRE
 70
     0
  9
$DIMCLRT
 70
     0
  9
$DIMTFAC
 40
1.0
  9
$DIMGAP
 40
0.09
  9
$DIMJUST
 70
     0
  9
$DIMSD1
 70
     0
  9
$DIMSD2
 70
     0
  9
$DIMTOLJ
 70
     1
  9
$DIMTZIN
 70
     0
  9
$DIMALTZ
 70
     0
  9
$DIMALTTZ
 70
     0
  9
$DIMUPT
 70
     0
  9
$DIMDEC
 70
     4
  9
$DIMTDEC
 70
     4
  9
$DIMALTU
 70
     2
  9
$DIMALTTD
 70
     2
  9
$DIMTXSTY
  7
Standard
  9
$DIMAUNIT
 70
     0
  9
$DIMADEC
 70
     0
  9
$DIMALTRND
 40
0.0
  9
$DIMAZIN
 70
     0
  9
$DIMDSEP
 70
     0
  9
$DIMATFIT
 70
     3
  9
$DIMFRAC
 70
     0
  9
$DIMLDRBLK
  1

  9
$DIMLUNIT
 70
     2
  9
$DIMLWD
 70
     0
  9
$DIMLWE
 70
     0
  9
$DIMTMOVE
 70
     0
  9
$LUNITS
 70
     2
  9
$LUPREC
 70
     4
  9
$SKETCHINC
 40
0.1
  9
$FILLETRAD
 40
0.0
  9
$AUNITS
 70
     0
  9
$AUPREC
 70
     0
  9
$MENU
  1
acad
  9
$ELEVATION
 40
0.0
  9
$PELEVATION
 40
0.0
  9
$THICKNESS
 40
0.0
  9
$LIMCHECK
 70
     0
  9
$CHAMFERA
 40
0.0
  9
$CHAMFERB
 40
0.0
  9
$CHAMFERC
 40
0.0
  9
$CHAMFERD
 40
0.0
  9
$SKPOLY
 70
     0
  9
$TDCREATE
 40
0.000000000
  9
$TDUCREATE
 40
0.000000000
  9
$TDUPDATE
 40
0.000000000
  9
$TDUUPDATE
 40
0.000000000
  9
$TDINDWG
 40
0.0000000000
  9
$TDUSRTIMER
 40
0.0000000000
  9
$USRTIMER
 70
     1
  9
$ANGBASE
 50
0.0
  9
$ANGDIR
 70
     0
  9
$PDMODE
 70
     0
  9
$PDSIZE
 40
0.0
  9
$PLINEWID
 40
0.0
  9
$SPLFRAME
 70
     0
  9
$SPLINETYPE
 70
     6
  9
$SPLINESEGS
 70
     8
  9
$HANDSEED
  5
67
  9
$SURFTAB1
 70
     6
  9
$SURFTAB2
 70
     6
  9
$SURFTYPE
 70
     6
  9
$SURFU
 70
     6
  9
$SURFV
 70
     6
  9
$UCSBASE
  2

  9
$UCSNAME
  2

  9
$UCSORG
 10
0.0
 20
0.0
 30
0.0
  9
$UCSXDIR
 10
1.0
 20
0.0
 30
0.0
  9
$UCSYDIR
 10
0.0
 20
1.0
 30
0.0
  9
$UCSORTHOREF
  2

  9
$UCSORTHOVIEW
 70
     0
  9
$UCSORGTOP
 10
0.0
 20
0.0
 30
0.0
  9
$UCSORGBOTTOM
 10
0.0
 20
0.0
 30
0.0
  9
$UCSORGLEFT
 10
0.0
 20
0.0
 30
0.0
  9
$UCSORGRIGHT
 10
0.0
 20
0.0
 30
0.0
  9
$UCSORGFRONT
 10
0.0
 20
0.0
 30
0.0
  9
$UCSORGBACK
 10
0.0
 20
0.0
 30
0.0
  9
$PUCSBASE
  2

  9
$PUCSNAME
  2

  9
$PUCSORG
 10
0.0
 20
0.0
 30
0.0
  9
$PUCSXDIR
 10
1.0
 20
0.0
 30
0.0
  9
$PUCSYDIR
 10
0.0
 20
1.0
 30
0.0
  9
$PUCSORTHOREF
  2

  9
$PUCSORTHOVIEW
 70
     0
  9
$PUCSORGTOP
 10
0.0
 20
0.0
 30
0.0
  9
$PUCSORGBOTTOM
 10
0.0
 20
0.0
 30
0.0
  9
$PUCSORGLEFT
 10
0.0
 20
0.0
 30
0.0
  9
$PUCSORGRIGHT
 10
0.0
 20
0.0
 30
0.0
  9
$PUCSORGFRONT
 10
0.0
 20
0.0
 30
0.0
  9
$PUCSORGBACK
 10
0.0
 20
0.0
 30
0.0
  9
$USERI1
 70
     0
  9
$USERI2
 70
     0
  9
$USERI3
 70
     0
  9
$USERI4
 70
     0
  9
$USERI5
 70
     0
  9
$USERR1
 40
0.0
  9
$USERR2
 40
0.0
  9
$USERR3
 40
0.0
  9
$USERR4
 40
0.0
  9
$USERR5
 40
0.0
  9
$WORLDVIEW
 70
     1
  9
$SHADEDGE
 70
     3
  9
$SHADEDIF
 70
    70
  9
$TILEMODE
 70
     1
  9
$MAXACTVP
 70
    16
  9
$PINSBASE
 10
0.0
 20
0.0
 30
0.0
  9
$PLIMCHECK
 70
     0
  9
$PEXTMIN
 10
1.000000E+20
 20
1.000000E+20
 30
1.000000E+20
  9
$PEXTMAX
 10
-1.000000E+20
 20
-1.000000E+20
 30
-1.000000E+20
  9
$PLIMMIN
 10
0.0
 20
0.0
  9
$PLIMMAX
 10
12.0
 20
9.0
  9
$UNITMODE
 70
     0
  9
$VISRETAIN
 70
     0
  9
$PLINEGEN
 70
     1
  9
$PSLTSCALE
 70
     0
  9
$TREEDEPTH
 70
  3020
  9
$CMLSTYLE
  2
Standard
  9
$CMLJUST
 70
     0
  9
$CMLSCALE
 40
1.0
  9
$PROXYGRAPHICS
 70
     0
  9
$MEASUREMENT
 70
     0
  9
$CELWEIGHT
370
     0
  9
$ENDCAPS
280
     0
  9
$JOINSTYLE
280
     0
  9
$LWDISPLAY
290
     0
  9
$INSUNITS
 70
     1
  9
$HYPERLINKBASE
  1

  9
$XEDIT
290
     1
  9
$CEPSNTYPE
380
     0
  9
$PSTYLEMODE
290
     1
  9
$FINGERPRINTGUID
  2

  9
$VERSIONGUID
  2

  9
$EXTNAMES
290
     1
  9
$PSVPSCALE
 40
0.0
  0
ENDSEC
  0
SECTION
  2
CLASSES
  0
CLASS
  1
LWPOLYLINE
  2
AcDbPolyline
  3
AutoCAD 2000
 90
    32768
280
     0
281
     1
  0
CLASS
  1
IMAGE
  2
AcDbRasterImage
  3
ISM
 90
    32895
280
     0
281
     1
  0
CLASS
  1
OLE2FRAME
  2
AcDbOle2Frame
  3
AutoCAD 2000
 90
    32768
280
     0
281
     1
  0
CLASS
  1
HATCH
  2
AcDbHatch
  3
AutoCAD 2000
 90
    32768
280
     0
281
     1
  0
CLASS
  1
DICTIONARYVAR
  2
AcDbDictionaryVar
  3
AutoCAD 2000
 90
    32768
280
     0
281
     0
  0
CLASS
  1
RASTERVARIABLES
  2
AcDbRasterVariables
  3
ISM
 90
    32768
280
     0
281
     0
  0
CLASS
  1
IMAGEDEF
  2
AcDbRasterImageDef
  3
ISM
 90
    32768
280
     0
281
     0
  0
CLASS
  1
IMAGEDEF_REACTOR
  2
AcDbRasterImageDefReactor
  3
ISM
 90
    32769
280
     0
281
     0
  0
CLASS
  1
IDBUFFER
  2
AcDbIdBuffer
  3
AutoCAD 2000
 90
    32768
280
     0
281
     0
  0
CLASS
  1
SPATIAL_FILTER
  2
AcDbSpatialFilter
  3
AutoCAD 2000
 90
    32768
280
     0
281
     0
  0
CLASS
  1
XRECORD
  2
AcDbXrecord
  3
AutoCAD 2000
 90
    32768
280
     0
281
     0
  0
CLASS
  1
SORTENTSTABLE
  2
AcDbSortentsTable
  3
AutoCAD 2000
 90
    32768
280
     0
281
     0
  0
CLASS
  1
LAYER_INDEX
  2
AcDbLayerIndex
  3
AutoCAD 2000
 90
    32768
280
     0
281
     0
  0
CLASS
  1
SPATIAL_INDEX
  2
AcDbSpatialIndex
  3
AutoCAD 2000
 90
    32768
280
     0
281
     0
  0
CLASS
  1
OBJECT_PTR
  2
CAseDLPNTableRecord
  3
"ASE-LPNTableRecord"
 90
    32769
280
     0
281
     0
  0
CLASS
  1
LAYOUT
  2
AcDbLayout
  3
AutoCAD 2000
 90
        0
280
     0
281
     0
  0
CLASS
  1
PLOTSETTINGS
  2
AcDbPlotSettings
  3
AutoCAD 2000
 90
    32768
280
     0
281
     0
  0
CLASS
  1
ACDBDICTIONARYWDFLT
  2
AcDbDictionaryWithDefault
  3
AutoCAD 2000
 90
        0
280
     0
281
     0
  0
CLASS
  1
ACDBPLACEHOLDER
  2
AcDbPlaceHolder
  3
AutoCAD 2000
 90
        0
280
     0
281
     0
  0
CLASS
  1
VBA_PROJECT
  2
AcDbVbaProject
  3
acadvba
 90
    32768
280
     0
281
     0
  0
CLASS
  1
WIPEOUT
  2
AcDbWipeout
  3
WipeOut|AutoCAD Express Tool|expresstools@autodesk.com
 90
    32895
280
     0
281
     1
  0
CLASS
  1
WIPEOUTVARIABLES
  2
AcDbWipeoutVariables
  3
WipeOut|AutoCAD Express Tool|expresstools@autodesk.com
 90
        0
280
     0
281
     0
  0
CLASS
  1
RTEXT
  2
RText
  3
RText|AutoCAD Express Tool|expresstools@autodesk.com
 90
    32768
280
     0
281
     1
  0
CLASS
  1
ARCALIGNEDTEXT
  2
AcDbArcAlignedText
  3
ATEXT|AutoCAD Express Tool|expresstools@autodesk.com
 90
    32768
280
     0
281
     1
  0
ENDSEC
  0
SECTION
  2
TABLES
  0
TABLE
  2
VPORT
  5
7
100
AcDbSymbolTable
 70
     1
  0
VPORT
  5
15
100
AcDbSymbolTableRecord
100
AcDbViewportTableRecord
  2
*ACTIVE
 70
     0
 10
0.0
 20
0.0
 11
1.0
 21
1.0
 12
6.591288
 22
4.579184
 13
0.0
 23
0.0
 14
1.0
 24
1.0
 15
0.0
 25
0.0
 16
0.0
 26
0.0
 36
1.0
 17
0.0
 27
0.0
 37
0.0
 40
9.158369
 41
0.688564
 42
50.0
 43
0.0
 44
0.0
 50
0.0
 51
0.0
 71
     0
 72
   100
 73
     1
 74
     1
 75
     0
 76
     0
 77
     0
 78
     0
281
     0
 65
     0
110
0.0
120
0.0
130
0.0
111
1.0
121
0.0
131
0.0
112
0.0
122
1.0
132
0.0
345
0
346
0
 79
     0
146
0.0
  0
ENDTAB
  0
TABLE
  2
LTYPE
  5
4
100
AcDbSymbolTable
 70
     3
  0
LTYPE
  5
11
100
AcDbSymbolTableRecord
100
AcDbLinetypeTableRecord
  2
ByBlock
 70
    64
  3

 72
    65
 73
     0
 40
0.0
  0
LTYPE
  5
12
100
AcDbSymbolTableRecord
100
AcDbLinetypeTableRecord
  2
ByLayer
 70
    64
  3

 72
    65
 73
     0
 40
0.0
  0
LTYPE
  5
13
100
AcDbSymbolTableRecord
100
AcDbLinetypeTableRecord
  2
Continuous
 70
    64
  3
Solid line
 72
    65
 73
     0
 40
0.0
  0
ENDTAB
  0
TABLE
  2
LAYER
  5
2
100
AcDbSymbolTable
 70
     3
  0
LAYER
  5
14
100
AcDbSymbolTableRecord
100
AcDbLayerTableRecord
  2
0
 70
     0
 62
     7
  6
Continuous
290
     1
370
    -3
390
1D
  0
LAYER
  5
24
100
AcDbSymbolTableRecord
100
AcDbLayerTableRecord
  2
Layer 1
 70
     0
 62
     7
  6
Continuous
290
     1
370
    -3
390
1F
  0
LAYER
  5
29
100
AcDbSymbolTableRecord
100
AcDbLayerTableRecord
  2
P1-Layer 1
 70
     0
 62
     7
  6
Continuous
290
     1
370
    -3
390
1F
  0
ENDTAB
  0
TABLE
  2
STYLE
  5
3
100
AcDbSymbolTable
 70
     2
  0
STYLE
  5
17
100
AcDbSymbolTableRecord
100
AcDbTextStyleTableRecord
  2
Standard
 70
     0
 40
0.0
 41
1.0
 50
0.0
 71
     0
 42
0.0
  3
txt
  4

  0
STYLE
  5
26
100
AcDbSymbolTableRecord
100
AcDbTextStyleTableRecord
  2
Bookman Old Style
 70
     0
 40
1.0
 41
1.0
 50
0.0
 71
     0
 42
1.0
  3
Bookman Old Style
  4

  0
ENDTAB
  0
TABLE
  2
VIEW
  5
5
100
AcDbSymbolTable
 70
     0
  0
ENDTAB
  0
TABLE
  2
UCS
  5
6
100
AcDbSymbolTable
 70
     0
  0
ENDTAB
  0
TABLE
  2
APPID
  5
8
100
AcDbSymbolTable
 70
     1
  0
APPID
  5
16
100
AcDbSymbolTableRecord
100
AcDbRegAppTableRecord
  2
ACAD
 70
     0
  0
ENDTAB
  0
TABLE
  2
DIMSTYLE
  5
9
100
AcDbSymbolTable
 70
     1
100
AcDbDimStyleTable
 71
     0
  0
DIMSTYLE
105
18
100
AcDbSymbolTableRecord
100
AcDbDimStyleTableRecord
  2
Standard
 70
     0
  3

  4

 40
1.0
 41
0.18
 42
0.0625
 43
0.38
 44
0.18
 45
0.0
 46
0.0
 47
0.0
 48
0.0
 71
     0
 72
     0
 73
     1
 74
     1
 75
     0
 76
     0
 77
     0
 78
     0
 79
     0
140
0.18
141
0.09
142
0.0
143
25.4
144
1.0
145
0.0
146
1.0
147
0.09
148
0.0
170
     0
171
     2
172
     0
173
     0
174
     0
175
     0
176
     0
177
     0
178
     0
179
     0
271
     4
272
     4
273
     2
274
     2
275
     0
276
     0
277
     2
278
    46
279
     0
280
     0
281
     0
282
     0
283
     1
284
     0
285
     0
286
     0
288
     0
340
17
341
0
342
0
343
0
344
0
371
    -2
372
    -2
  0
ENDTAB
  0
TABLE
  2
BLOCK_RECORD
  5
1
100
AcDbSymbolTable
 70
     0
  0
BLOCK_RECORD
  5
A
100
AcDbSymbolTableRecord
100
AcDbBlockTableRecord
  2
*MODEL_SPACE
340
20
  0
BLOCK_RECORD
  5
B
100
AcDbSymbolTableRecord
100
AcDbBlockTableRecord
  2
*PAPER_SPACE
340
21
  0
ENDTAB
  0
ENDSEC
  0
SECTION
  2
BLOCKS
  0
BLOCK
  5
D
100
AcDbEntity
  8
0
100
AcDbBlockBegin
  2
*MODEL_SPACE
 70
     0
 10
0.0
 20
0.0
 30
0.0
  3
*MODEL_SPACE
  1

  0
ENDBLK
  5
E
100
AcDbEntity
  8
0
100
AcDbBlockEnd
  0
BLOCK
  5
F
100
AcDbEntity
 67
     1
  8
0
100
AcDbBlockBegin
  2
*PAPER_SPACE
 70
     0
 10
0.0
 20
0.0
 30
0.0
  3
*PAPER_SPACE
  1

  0
ENDBLK
  5
10
100
AcDbEntity
 67
     1
  8
0
100
AcDbBlockEnd
  0
ENDSEC
  0
SECTION
  2
ENTITIES
  0
SPLINE
  5
25
100
AcDbEntity
  8
Layer 1
370
    40
100
AcDbSpline
210
0.0
220
0.0
230
1.0
 70
     1
 71
     3
 72
    68
 73
    64
 74
     0
 42
0.0000000001
 43
0.0000000001
 40
0.0
 40
0.0
 40
0.0
 40
0.0
 40
0.0625
 40
0.0625
 40
0.0625
 40
0.0625
 40
0.125
 40
0.125
 40
0.125
 40
0.125
 40
0.1875
 40
0.1875
 40
0.1875
 40
0.1875
 40
0.25
 40
0.25
 40
0.25
 40
0.25
 40
0.3125
 40
0.3125
 40
0.3125
 40
0.3125
 40
0.375
 40
0.375
 40
0.375
 40
0.375
 40
0.4375
 40
0.4375
 40
0.4375
 40
0.4375
 40
0.5
 40
0.5
 40
0.5
 40
0.5
 40
0.5625
 40
0.5625
 40
0.5625
 40
0.5625
 40
0.625
 40
0.625
 40
0.625
 40
0.625
 40
0.6875
 40
0.6875
 40
0.6875
 40
0.6875
 40
0.75
 40
0.75
 40
0.75
 40
0.75
 40
0.8125
 40
0.8125
 40
0.8125
 40
0.8125
 40
0.875
 40
0.875
 40
0.875
 40
0.875
 40
0.9375
 40
0.9375
 40
0.9375
 40
0.9375
 40
1.0
 40
1.0
 40
1.0
 40
1.0
 10
1.2321574803149606
 20
2.9704370078740157
 30
0.0
 10
1.0889370078740157
 20
2.9754330708661421
 30
0.0
 10
1.0806102362204726
 20
3.0603661417322834
 30
0.0
 10
1.0706181102362204
 20
3.1053307086614175
 30
0.0
 10
1.0706181102362204
 20
3.1053307086614175
 30
0.0
 10
1.0706181102362204
 20
3.1053307086614175
 30
0.0
 10
0.998988188976378
 20
3.1053307086614175
 30
0.0
 10
0.998988188976378
 20
3.1053307086614175
 30
0.0
 10
0.998988188976378
 20
3.1053307086614175
 30
0.0
 10
0.998988188976378
 20
3.1053307086614175
 30
0.0
 10
0.9890157480314961
 20
3.1669488188976378
 30
0.0
 10
0.9890157480314961
 20
3.1669488188976378
 30
0.0
 10
0.9890157480314961
 20
3.1669488188976378
 30
0.0
 10
0.9856850393700788
 20
3.1669488188976378
 30
0.0
 10
0.9856850393700788
 20
3.1669488188976378
 30
0.0
 10
0.9890157480314961
 20
3.1669488188976378
 30
0.0
 10
0.9890157480314961
 20
3.1669488188976378
 30
0.0
 10
0.9890157480314961
 20
3.1669488188976378
 30
0.0
 10
0.6526141732283465
 20
3.1669488188976378
 30
0.0
 10
0.6526141732283465
 20
3.1669488188976378
 30
0.0
 10
0.6526141732283465
 20
3.1669488188976378
 30
0.0
 10
0.6526141732283465
 20
3.1669488188976378
 30
0.0
 10
0.646
 20
3.2314409448818897
 30
0.0
 10
0.646
 20
3.2314409448818897
 30
0.0
 10
0.646
 20
3.2314409448818897
 30
0.0
 10
0.646
 20
3.2314409448818897
 30
0.0
 10
-0.6059763779527559
 20
3.2314409448818897
 30
0.0
 10
-0.6059763779527559
 20
3.2314409448818897
 30
0.0
 10
-0.6059763779527559
 20
3.2314409448818897
 30
0.0
 10
-0.6059763779527559
 20
3.2314409448818897
 30
0.0
 10
-0.6125905511811024
 20
3.1669488188976378
 30
0.0
 10
-0.6125905511811024
 20
3.1669488188976378
 30
0.0
 10
-0.6125905511811024
 20
3.1669488188976378
 30
0.0
 10
-0.6125905511811024
 20
3.1669488188976378
 30
0.0
 10
-0.948992125984252
 20
3.1669488188976378
 30
0.0
 10
-0.948992125984252
 20
3.1669488188976378
 30
0.0
 10
-0.948992125984252
 20
3.1669488188976378
 30
0.0
 10
-0.9456614173228347
 20
3.1669488188976378
 30
0.0
 10
-0.9456614173228347
 20
3.1669488188976378
 30
0.0
 10
-0.948992125984252
 20
3.1669488188976378
 30
0.0
 10
-0.948992125984252
 20
3.1669488188976378
 30
0.0
 10
-0.948992125984252
 20
3.1669488188976378
 30
0.0
 10
-0.9589645669291339
 20
3.1053307086614175
 30
0.0
 10
-0.9589645669291339
 20
3.1053307086614175
 30
0.0
 10
-0.9589645669291339
 20
3.1053307086614175
 30
0.0
 10
-0.9589645669291339
 20
3.1053307086614175
 30
0.0
 10
-1.0305944881889764
 20
3.1053307086614175
 30
0.0
 10
-1.0305944881889764
 20
3.1053307086614175
 30
0.0
 10
-1.0305944881889764
 20
3.1053307086614175
 30
0.0
 10
-1.0405866141732283
 20
3.0603661417322834
 30
0.0
 10
-1.0489133858267716
 20
2.9754330708661421
 30
0.0
 10
-1.1921338582677166
 20
2.9704370078740157
 30
0.0
 10
-1.1921338582677166
 20
2.9704370078740157
 30
0.0
 10
-1.1921338582677166
 20
2.9704370078740157
 30
0.0
 10
-1.1921338582677166
 20
2.6046732283464569
 30
0.0
 10
-1.1921338582677166
 20
2.6046732283464569
 30
0.0
 10
-1.1921338582677166
 20
2.6046732283464569
 30
0.0
 10
-1.1921338582677166
 20
2.6046732283464569
 30
0.0
 10
1.2321574803149606
 20
2.6047322834645672
 30
0.0
 10
1.2321574803149606
 20
2.6047322834645672
 30
0.0
 10
1.2321574803149606
 20
2.6047322834645672
 30
0.0
 10
1.2321574803149606
 20
2.6047322834645672
 30
0.0
 10
1.2321574803149606
 20
2.9704370078740157
 30
0.0
 10
1.2321574803149606
 20
2.9704370078740157
 30
0.0
  0
TEXT
  5
27
100
AcDbEntity
  8
Layer 1
100
AcDbText
 10
-0.204402
 20
2.334909
 30
0.0
 40
0.119999
  1
BA  1513
 51
-0.000002
  7
Bookman Old Style
100
AcDbText
  0
TEXT
  5
28
100
AcDbEntity
  8
Layer 1
100
AcDbText
 10
-0.436094
 20
2.147409
 30
0.0
 40
0.119999
  1
5/8\u+201d x 2-7/16\u+201d
 51
-0.000002
  7
Bookman Old Style
100
AcDbText
  0
SPLINE
  5
2A
100
AcDbEntity
  8
P1-Layer 1
 62
   253
100
AcDbSpline
210
0.0
220
0.0
230
1.0
 70
     1
 71
     3
 72
    44
 73
    40
 74
     0
 42
0.0000000001
 43
0.0000000001
 40
0.0
 40
0.0
 40
0.0
 40
0.0
 40
0.1
 40
0.1
 40
0.1
 40
0.1
 40
0.2
 40
0.2
 40
0.2
 40
0.2
 40
0.3
 40
0.3
 40
0.3
 40
0.3
 40
0.4
 40
0.4
 40
0.4
 40
0.4
 40
0.5
 40
0.5
 40
0.5
 40
0.5
 40
0.6
 40
0.6
 40
0.6
 40
0.6
 40
0.7
 40
0.7
 40
0.7
 40
0.7
 40
0.7999999999999999
 40
0.7999999999999999
 40
0.7999999999999999
 40
0.7999999999999999
 40
0.8999999999999999
 40
0.8999999999999999
 40
0.8999999999999999
 40
0.8999999999999999
 40
1.0
 40
1.0
 40
1.0
 40
1.0
 10
1.1801102362204725
 20
0.5775236220472442
 30
0.0
 10
1.1801102362204725
 20
0.5775236220472442
 30
0.0
 10
1.8388937007874016
 20
0.950972440944882
 30
0.0
 10
1.8388937007874016
 20
0.950972440944882
 30
0.0
 10
1.8388937007874016
 20
0.950972440944882
 30
0.0
 10
1.8388937007874016
 20
0.950972440944882
 30
0.0
 10
1.8258543307086614
 20
0.9516653543307087
 30
0.0
 10
1.8258543307086614
 20
0.9516653543307087
 30
0.0
 10
1.8258543307086614
 20
0.9516653543307087
 30
0.0
 10
1.8258543307086614
 20
0.9516653543307087
 30
0.0
 10
1.8135826771653545
 20
0.9528110236220473
 30
0.0
 10
1.8135826771653545
 20
0.9528110236220473
 30
0.0
 10
1.8135826771653545
 20
0.9528110236220473
 30
0.0
 10
1.8135826771653545
 20
0.9528110236220473
 30
0.0
 10
1.8020472440944884
 20
0.9543779527559055
 30
0.0
 10
1.8020472440944884
 20
0.9543779527559055
 30
0.0
 10
1.8020472440944884
 20
0.9543779527559055
 30
0.0
 10
1.8020472440944884
 20
0.9543779527559055
 30
0.0
 10
1.791236220472441
 20
0.9563543307086615
 30
0.0
 10
1.791236220472441
 20
0.9563543307086615
 30
0.0
 10
1.791236220472441
 20
0.9563543307086615
 30
0.0
 10
1.791236220472441
 20
0.9563543307086615
 30
0.0
 10
1.1324527559055118
 20
0.5829055118110237
 30
0.0
 10
1.1324527559055118
 20
0.5829055118110237
 30
0.0
 10
1.1324527559055118
 20
0.5829055118110237
 30
0.0
 10
1.1324527559055118
 20
0.5829055118110237
 30
0.0
 10
1.1432637795275591
 20
0.5809291338582677
 30
0.0
 10
1.1432637795275591
 20
0.5809291338582677
 30
0.0
 10
1.1432637795275591
 20
0.5809291338582677
 30
0.0
 10
1.1432637795275591
 20
0.5809291338582677
 30
0.0
 10
1.1547992125984252
 20
0.5793622047244095
 30
0.0
 10
1.1547992125984252
 20
0.5793622047244095
 30
0.0
 10
1.1547992125984252
 20
0.5793622047244095
 30
0.0
 10
1.1547992125984252
 20
0.5793622047244095
 30
0.0
 10
1.1670708661417324
 20
0.5782165354330708
 30
0.0
 10
1.1670708661417324
 20
0.5782165354330708
 30
0.0
 10
1.1670708661417324
 20
0.5782165354330708
 30
0.0
 10
1.1670708661417324
 20
0.5782165354330708
 30
0.0
 10
1.1801102362204725
 20
0.5775236220472442
 30
0.0
 10
1.1801102362204725
 20
0.5775236220472442
 30
0.0
  0
SPLINE
  5
2B
100
AcDbEntity
  8
P1-Layer 1
 62
   253
100
AcDbSpline
210
0.0
220
0.0
230
1.0
 70
     1
 71
     3
 72
    52
 73
    48
 74
     0
 42
0.0000000001
 43
0.0000000001
 40
0.0
 40
0.0
 40
0.0
 40
0.0
 40
0.0833333333333333
 40
0.0833333333333333
 40
0.0833333333333333
 40
0.0833333333333333
 40
0.1666666666666667
 40
0.1666666666666667
 40
0.1666666666666667
 40
0.1666666666666667
 40
0.25
 40
0.25
 40
0.25
 40
0.25
 40
0.3333333333333333
 40
0.3333333333333333
 40
0.3333333333333333
 40
0.3333333333333333
 40
0.4166666666666666
 40
0.4166666666666666
 40
0.4166666666666666
 40
0.4166666666666666
 40
0.4999999999999999
 40
0.4999999999999999
 40
0.4999999999999999
 40
0.4999999999999999
 40
0.5833333333333333
 40
0.5833333333333333
 40
0.5833333333333333
 40
0.5833333333333333
 40
0.6666666666666666
 40
0.6666666666666666
 40
0.6666666666666666
 40
0.6666666666666666
 40
0.75
 40
0.75
 40
0.75
 40
0.75
 40
0.8333333333333334
 40
0.8333333333333334
 40
0.8333333333333334
 40
0.8333333333333334
 40
0.9166666666666667
 40
0.9166666666666667
 40
0.9166666666666667
 40
0.9166666666666667
 40
1.0
 40
1.0
 40
1.0
 40
1.0
 10
1.1324527559055118
 20
0.5829055118110237
 30
0.0
 10
1.1324527559055118
 20
0.5829055118110237
 30
0.0
 10
1.791236220472441
 20
0.9563543307086615
 30
0.0
 10
1.791236220472441
 20
0.9563543307086615
 30
0.0
 10
1.791236220472441
 20
0.9563543307086615
 30
0.0
 10
1.791236220472441
 20
0.9563543307086615
 30
0.0
 10
1.7811102362204725
 20
0.9587047244094489
 30
0.0
 10
1.7811102362204725
 20
0.9587047244094489
 30
0.0
 10
1.7811102362204725
 20
0.9587047244094489
 30
0.0
 10
1.7811102362204725
 20
0.9587047244094489
 30
0.0
 10
1.7716535433070866
 20
0.9614173228346458
 30
0.0
 10
1.7716535433070866
 20
0.9614173228346458
 30
0.0
 10
1.7716535433070866
 20
0.9614173228346458
 30
0.0
 10
1.7716535433070866
 20
0.9614173228346458
 30
0.0
 10
1.7628346456692914
 20
0.9644645669291339
 30
0.0
 10
1.7628346456692914
 20
0.9644645669291339
 30
0.0
 10
1.7628346456692914
 20
0.9644645669291339
 30
0.0
 10
1.7628346456692914
 20
0.9644645669291339
 30
0.0
 10
1.7546338582677166
 20
0.9678307086614174
 30
0.0
 10
1.7546338582677166
 20
0.9678307086614174
 30
0.0
 10
1.7546338582677166
 20
0.9678307086614174
 30
0.0
 10
1.7546338582677166
 20
0.9678307086614174
 30
0.0
 10
1.7470118110236221
 20
0.9714803149606299
 30
0.0
 10
1.7470118110236221
 20
0.9714803149606299
 30
0.0
 10
1.7470118110236221
 20
0.9714803149606299
 30
0.0
 10
1.7470118110236221
 20
0.9714803149606299
 30
0.0
 10
1.0882283464566929
 20
0.5980314960629921
 30
0.0
 10
1.0882283464566929
 20
0.5980314960629921
 30
0.0
 10
1.0882283464566929
 20
0.5980314960629921
 30
0.0
 10
1.0882283464566929
 20
0.5980314960629921
 30
0.0
 10
1.0958503937007875
 20
0.5943818897637796
 30
0.0
 10
1.0958503937007875
 20
0.5943818897637796
 30
0.0
 10
1.0958503937007875
 20
0.5943818897637796
 30
0.0
 10
1.0958503937007875
 20
0.5943818897637796
 30
0.0
 10
1.1040511811023623
 20
0.591015748031496
 30
0.0
 10
1.1040511811023623
 20
0.591015748031496
 30
0.0
 10
1.1040511811023623
 20
0.591015748031496
 30
0.0
 10
1.1040511811023623
 20
0.591015748031496
 30
0.0
 10
1.1128700787401575
 20
0.587968503937008
 30
0.0
 10
1.1128700787401575
 20
0.587968503937008
 30
0.0
 10
1.1128700787401575
 20
0.587968503937008
 30
0.0
 10
1.1128700787401575
 20
0.587968503937008
 30
0.0
 10
1.1223267716535434
 20
0.5852559055118111
 30
0.0
 10
1.1223267716535434
 20
0.5852559055118111
 30
0.0
 10
1.1223267716535434
 20
0.5852559055118111
 30
0.0
 10
1.1223267716535434
 20
0.5852559055118111
 30
0.0
 10
1.1324527559055118
 20
0.5829055118110237
 30
0.0
 10
1.1324527559055118
 20
0.5829055118110237
 30
0.0
  0
SPLINE
  5
2C
100
AcDbEntity
  8
P1-Layer 1
 62
     9
100
AcDbSpline
210
0.0
220
0.0
230
1.0
 70
     1
 71
     3
 72
    60
 73
    56
 74
     0
 42
0.0000000001
 43
0.0000000001
 40
0.0
 40
0.0
 40
0.0
 40
0.0
 40
0.0714285714285714
 40
0.0714285714285714
 40
0.0714285714285714
 40
0.0714285714285714
 40
0.1428571428571429
 40
0.1428571428571429
 40
0.1428571428571429
 40
0.1428571428571429
 40
0.2142857142857143
 40
0.2142857142857143
 40
0.2142857142857143
 40
0.2142857142857143
 40
0.2857142857142857
 40
0.2857142857142857
 40
0.2857142857142857
 40
0.2857142857142857
 40
0.3571428571428571
 40
0.3571428571428571
 40
0.3571428571428571
 40
0.3571428571428571
 40
0.4285714285714285
 40
0.4285714285714285
 40
0.4285714285714285
 40
0.4285714285714285
 40
0.4999999999999999
 40
0.4999999999999999
 40
0.4999999999999999
 40
0.4999999999999999
 40
0.5714285714285713
 40
0.5714285714285713
 40
0.5714285714285713
 40
0.5714285714285713
 40
0.6428571428571427
 40
0.6428571428571427
 40
0.6428571428571427
 40
0.6428571428571427
 40
0.7142857142857141
 40
0.7142857142857141
 40
0.7142857142857141
 40
0.7142857142857141
 40
0.7857142857142855
 40
0.7857142857142855
 40
0.7857142857142855
 40
0.7857142857142855
 40
0.8571428571428569
 40
0.8571428571428569
 40
0.8571428571428569
 40
0.8571428571428569
 40
0.9285714285714283
 40
0.9285714285714283
 40
0.9285714285714283
 40
0.9285714285714283
 40
1.0
 40
1.0
 40
1.0
 40
1.0
 10
1.0882283464566929
 20
0.5980314960629921
 30
0.0
 10
1.0882283464566929
 20
0.5980314960629921
 30
0.0
 10
1.7470118110236221
 20
0.9714803149606299
 30
0.0
 10
1.7470118110236221
 20
0.9714803149606299
 30
0.0
 10
1.7470118110236221
 20
0.9714803149606299
 30
0.0
 10
1.7470118110236221
 20
0.9714803149606299
 30
0.0
 10
1.7399685039370079
 20
0.9754055118110236
 30
0.0
 10
1.7399685039370079
 20
0.9754055118110236
 30
0.0
 10
1.7399685039370079
 20
0.9754055118110236
 30
0.0
 10
1.7399685039370079
 20
0.9754055118110236
 30
0.0
 10
1.7334566929133859
 20
0.9795787401574804
 30
0.0
 10
1.7334566929133859
 20
0.9795787401574804
 30
0.0
 10
1.7334566929133859
 20
0.9795787401574804
 30
0.0
 10
1.7334566929133859
 20
0.9795787401574804
 30
0.0
 10
1.7274724409448821
 20
0.9839842519685039
 30
0.0
 10
1.7274724409448821
 20
0.9839842519685039
 30
0.0
 10
1.7274724409448821
 20
0.9839842519685039
 30
0.0
 10
1.7274724409448821
 20
0.9839842519685039
 30
0.0
 10
1.7219645669291339
 20
0.9885866141732284
 30
0.0
 10
1.7219645669291339
 20
0.9885866141732284
 30
0.0
 10
1.7219645669291339
 20
0.9885866141732284
 30
0.0
 10
1.7219645669291339
 20
0.9885866141732284
 30
0.0
 10
1.7169330708661419
 20
0.9933779527559056
 30
0.0
 10
1.7169330708661419
 20
0.9933779527559056
 30
0.0
 10
1.7169330708661419
 20
0.9933779527559056
 30
0.0
 10
1.7169330708661419
 20
0.9933779527559056
 30
0.0
 10
1.7123385826771653
 20
0.9983267716535433
 30
0.0
 10
1.7123385826771653
 20
0.9983267716535433
 30
0.0
 10
1.7123385826771653
 20
0.9983267716535433
 30
0.0
 10
1.7123385826771653
 20
0.9983267716535433
 30
0.0
 10
1.0535551181102363
 20
0.6248779527559055
 30
0.0
 10
1.0535551181102363
 20
0.6248779527559055
 30
0.0
 10
1.0535551181102363
 20
0.6248779527559055
 30
0.0
 10
1.0535551181102363
 20
0.6248779527559055
 30
0.0
 10
1.0581496062992126
 20
0.6199291338582678
 30
0.0
 10
1.0581496062992126
 20
0.6199291338582678
 30
0.0
 10
1.0581496062992126
 20
0.6199291338582678
 30
0.0
 10
1.0581496062992126
 20
0.6199291338582678
 30
0.0
 10
1.0631811023622049
 20
0.6151377952755905
 30
0.0
 10
1.0631811023622049
 20
0.6151377952755905
 30
0.0
 10
1.0631811023622049
 20
0.6151377952755905
 30
0.0
 10
1.0631811023622049
 20
0.6151377952755905
 30
0.0
 10
1.0686889763779528
 20
0.6105354330708662
 30
0.0
 10
1.0686889763779528
 20
0.6105354330708662
 30
0.0
 10
1.0686889763779528
 20
0.6105354330708662
 30
0.0
 10
1.0686889763779528
 20
0.6105354330708662
 30
0.0
 10
1.0746732283464568
 20
0.6061299212598426
 30
0.0
 10
1.0746732283464568
 20
0.6061299212598426
 30
0.0
 10
1.0746732283464568
 20
0.6061299212598426
 30
0.0
 10
1.0746732283464568
 20
0.6061299212598426
 30
0.0
 10
1.0811850393700788
 20
0.6019566929133858
 30
0.0
 10
1.0811850393700788
 20
0.6019566929133858
 30
0.0
 10
1.0811850393700788
 20
0.6019566929133858
 30
0.0
 10
1.0811850393700788
 20
0.6019566929133858
 30
0.0
 10
1.0882283464566929
 20
0.5980314960629921
 30
0.0
 10
1.0882283464566929
 20
0.5980314960629921
 30
0.0
  0
SPLINE
  5
2D
100
AcDbEntity
  8
P1-Layer 1
 62
     9
100
AcDbSpline
210
0.0
220
0.0
230
1.0
 70
     1
 71
     3
 72
    76
 73
    72
 74
     0
 42
0.0000000001
 43
0.0000000001
 40
0.0
 40
0.0
 40
0.0
 40
0.0
 40
0.0555555555555556
 40
0.0555555555555556
 40
0.0555555555555556
 40
0.0555555555555556
 40
0.1111111111111111
 40
0.1111111111111111
 40
0.1111111111111111
 40
0.1111111111111111
 40
0.1666666666666667
 40
0.1666666666666667
 40
0.1666666666666667
 40
0.1666666666666667
 40
0.2222222222222222
 40
0.2222222222222222
 40
0.2222222222222222
 40
0.2222222222222222
 40
0.2777777777777778
 40
0.2777777777777778
 40
0.2777777777777778
 40
0.2777777777777778
 40
0.3333333333333334
 40
0.3333333333333334
 40
0.3333333333333334
 40
0.3333333333333334
 40
0.388888888888889
 40
0.388888888888889
 40
0.388888888888889
 40
0.388888888888889
 40
0.4444444444444445
 40
0.4444444444444445
 40
0.4444444444444445
 40
0.4444444444444445
 40
0.5000000000000001
 40
0.5000000000000001
 40
0.5000000000000001
 40
0.5000000000000001
 40
0.5555555555555557
 40
0.5555555555555557
 40
0.5555555555555557
 40
0.5555555555555557
 40
0.6111111111111113
 40
0.6111111111111113
 40
0.6111111111111113
 40
0.6111111111111113
 40
0.6666666666666669
 40
0.6666666666666669
 40
0.6666666666666669
 40
0.6666666666666669
 40
0.7222222222222224
 40
0.7222222222222224
 40
0.7222222222222224
 40
0.7222222222222224
 40
0.777777777777778
 40
0.777777777777778
 40
0.777777777777778
 40
0.777777777777778
 40
0.8333333333333336
 40
0.8333333333333336
 40
0.8333333333333336
 40
0.8333333333333336
 40
0.8888888888888892
 40
0.8888888888888892
 40
0.8888888888888892
 40
0.8888888888888892
 40
0.9444444444444448
 40
0.9444444444444448
 40
0.9444444444444448
 40
0.9444444444444448
 40
1.0
 40
1.0
 40
1.0
 40
1.0
 10
1.0535551181102363
 20
0.6248779527559055
 30
0.0
 10
1.0535551181102363
 20
0.6248779527559055
 30
0.0
 10
1.7123385826771653
 20
0.9983267716535433
 30
0.0
 10
1.7123385826771653
 20
0.9983267716535433
 30
0.0
 10
1.7123385826771653
 20
0.9983267716535433
 30
0.0
 10
1.7123385826771653
 20
0.9983267716535433
 30
0.0
 10
1.7081614173228348
 20
1.0034251968503938
 30
0.0
 10
1.7081614173228348
 20
1.0034251968503938
 30
0.0
 10
1.7081614173228348
 20
1.0034251968503938
 30
0.0
 10
1.7081614173228348
 20
1.0034251968503938
 30
0.0
 10
1.7043661417322835
 20
1.0086299212598426
 30
0.0
 10
1.7043661417322835
 20
1.0086299212598426
 30
0.0
 10
1.7043661417322835
 20
1.0086299212598426
 30
0.0
 10
1.7043661417322835
 20
1.0086299212598426
 30
0.0
 10
1.7009409448818897
 20
1.0139330708661418
 30
0.0
 10
1.7009409448818897
 20
1.0139330708661418
 30
0.0
 10
1.7009409448818897
 20
1.0139330708661418
 30
0.0
 10
1.7009409448818897
 20
1.0139330708661418
 30
0.0
 10
1.6978543307086615
 20
1.0193070866141734
 30
0.0
 10
1.6978543307086615
 20
1.0193070866141734
 30
0.0
 10
1.6978543307086615
 20
1.0193070866141734
 30
0.0
 10
1.6978543307086615
 20
1.0193070866141734
 30
0.0
 10
1.6950866141732284
 20
1.0247362204724411
 30
0.0
 10
1.6950866141732284
 20
1.0247362204724411
 30
0.0
 10
1.6950866141732284
 20
1.0247362204724411
 30
0.0
 10
1.6950866141732284
 20
1.0247362204724411
 30
0.0
 10
1.6926062992125985
 20
1.0301889763779528
 30
0.0
 10
1.6926062992125985
 20
1.0301889763779528
 30
0.0
 10
1.6926062992125985
 20
1.0301889763779528
 30
0.0
 10
1.6926062992125985
 20
1.0301889763779528
 30
0.0
 10
1.6903937007874017
 20
1.0356535433070866
 30
0.0
 10
1.6903937007874017
 20
1.0356535433070866
 30
0.0
 10
1.6903937007874017
 20
1.0356535433070866
 30
0.0
 10
1.6903937007874017
 20
1.0356535433070866
 30
0.0
 10
1.6884173228346457
 20
1.0411023622047244
 30
0.0
 10
1.6884173228346457
 20
1.0411023622047244
 30
0.0
 10
1.6884173228346457
 20
1.0411023622047244
 30
0.0
 10
1.6884173228346457
 20
1.0411023622047244
 30
0.0
 10
1.0296338582677165
 20
0.6676535433070866
 30
0.0
 10
1.0296338582677165
 20
0.6676535433070866
 30
0.0
 10
1.0296338582677165
 20
0.6676535433070866
 30
0.0
 10
1.0296338582677165
 20
0.6676535433070866
 30
0.0
 10
1.0316102362204724
 20
0.6622047244094489
 30
0.0
 10
1.0316102362204724
 20
0.6622047244094489
 30
0.0
 10
1.0316102362204724
 20
0.6622047244094489
 30
0.0
 10
1.0316102362204724
 20
0.6622047244094489
 30
0.0
 10
1.0338228346456693
 20
0.656740157480315
 30
0.0
 10
1.0338228346456693
 20
0.656740157480315
 30
0.0
 10
1.0338228346456693
 20
0.656740157480315
 30
0.0
 10
1.0338228346456693
 20
0.656740157480315
 30
0.0
 10
1.0363031496062993
 20
0.6512874015748031
 30
0.0
 10
1.0363031496062993
 20
0.6512874015748031
 30
0.0
 10
1.0363031496062993
 20
0.6512874015748031
 30
0.0
 10
1.0363031496062993
 20
0.6512874015748031
 30
0.0
 10
1.0390708661417323
 20
0.6458582677165354
 30
0.0
 10
1.0390708661417323
 20
0.6458582677165354
 30
0.0
 10
1.0390708661417323
 20
0.6458582677165354
 30
0.0
 10
1.0390708661417323
 20
0.6458582677165354
 30
0.0
 10
1.0421574803149607
 20
0.640484251968504
 30
0.0
 10
1.0421574803149607
 20
0.640484251968504
 30
0.0
 10
1.0421574803149607
 20
0.640484251968504
 30
0.0
 10
1.0421574803149607
 20
0.640484251968504
 30
0.0
 10
1.0455826771653545
 20
0.6351811023622047
 30
0.0
 10
1.0455826771653545
 20
0.6351811023622047
 30
0.0
 10
1.0455826771653545
 20
0.6351811023622047
 30
0.0
 10
1.0455826771653545
 20
0.6351811023622047
 30
0.0
 10
1.0493779527559055
 20
0.629976377952756
 30
0.0
 10
1.0493779527559055
 20
0.629976377952756
 30
0.0
 10
1.0493779527559055
 20
0.629976377952756
 30
0.0
 10
1.0493779527559055
 20
0.629976377952756
 30
0.0
 10
1.0535551181102363
 20
0.6248779527559055
 30
0.0
 10
1.0535551181102363
 20
0.6248779527559055
 30
0.0
  0
SPLINE
  5
2E
100
AcDbEntity
  8
P1-Layer 1
 62
     9
100
AcDbSpline
210
0.0
220
0.0
230
1.0
 70
     1
 71
     3
 72
    84
 73
    80
 74
     0
 42
0.0000000001
 43
0.0000000001
 40
0.0
 40
0.0
 40
0.0
 40
0.0
 40
0.05
 40
0.05
 40
0.05
 40
0.05
 40
0.1
 40
0.1
 40
0.1
 40
0.1
 40
0.15
 40
0.15
 40
0.15
 40
0.15
 40
0.2
 40
0.2
 40
0.2
 40
0.2
 40
0.25
 40
0.25
 40
0.25
 40
0.25
 40
0.3
 40
0.3
 40
0.3
 40
0.3
 40
0.35
 40
0.35
 40
0.35
 40
0.35
 40
0.4
 40
0.4
 40
0.4
 40
0.4
 40
0.45
 40
0.45
 40
0.45
 40
0.45
 40
0.4999999999999999
 40
0.4999999999999999
 40
0.4999999999999999
 40
0.4999999999999999
 40
0.5499999999999999
 40
0.5499999999999999
 40
0.5499999999999999
 40
0.5499999999999999
 40
0.6
 40
0.6
 40
0.6
 40
0.6
 40
0.65
 40
0.65
 40
0.65
 40
0.65
 40
0.7000000000000001
 40
0.7000000000000001
 40
0.7000000000000001
 40
0.7000000000000001
 40
0.7500000000000001
 40
0.7500000000000001
 40
0.7500000000000001
 40
0.7500000000000001
 40
0.8000000000000002
 40
0.8000000000000002
 40
0.8000000000000002
 40
0.8000000000000002
 40
0.8500000000000002
 40
0.8500000000000002
 40
0.8500000000000002
 40
0.8500000000000002
 40
0.9000000000000002
 40
0.9000000000000002
 40
0.9000000000000002
 40
0.9000000000000002
 40
0.9500000000000003
 40
0.9500000000000003
 40
0.9500000000000003
 40
0.9500000000000003
 40
1.0
 40
1.0
 40
1.0
 40
1.0
 10
1.0296338582677165
 20
0.6676535433070866
 30
0.0
 10
1.0296338582677165
 20
0.6676535433070866
 30
0.0
 10
1.6884173228346457
 20
1.0411023622047244
 30
0.0
 10
1.6884173228346457
 20
1.0411023622047244
 30
0.0
 10
1.6884173228346457
 20
1.0411023622047244
 30
0.0
 10
1.6884173228346457
 20
1.0411023622047244
 30
0.0
 10
1.6866653543307086
 20
1.0465157480314962
 30
0.0
 10
1.6866653543307086
 20
1.0465157480314962
 30
0.0
 10
1.6866653543307086
 20
1.0465157480314962
 30
0.0
 10
1.6866653543307086
 20
1.0465157480314962
 30
0.0
 10
1.6850905511811025
 20
1.0518661417322834
 30
0.0
 10
1.6850905511811025
 20
1.0518661417322834
 30
0.0
 10
1.6850905511811025
 20
1.0518661417322834
 30
0.0
 10
1.6850905511811025
 20
1.0518661417322834
 30
0.0
 10
1.6836929133858269
 20
1.0571377952755905
 30
0.0
 10
1.6836929133858269
 20
1.0571377952755905
 30
0.0
 10
1.6836929133858269
 20
1.0571377952755905
 30
0.0
 10
1.6836929133858269
 20
1.0571377952755905
 30
0.0
 10
1.6824251968503938
 20
1.0623070866141733
 30
0.0
 10
1.6824251968503938
 20
1.0623070866141733
 30
0.0
 10
1.6824251968503938
 20
1.0623070866141733
 30
0.0
 10
1.6824251968503938
 20
1.0623070866141733
 30
0.0
 10
1.6812834645669292
 20
1.0673582677165354
 30
0.0
 10
1.6812834645669292
 20
1.0673582677165354
 30
0.0
 10
1.6812834645669292
 20
1.0673582677165354
 30
0.0
 10
1.6812834645669292
 20
1.0673582677165354
 30
0.0
 10
1.680224409448819
 20
1.072255905511811
 30
0.0
 10
1.680224409448819
 20
1.072255905511811
 30
0.0
 10
1.680224409448819
 20
1.072255905511811
 30
0.0
 10
1.680224409448819
 20
1.072255905511811
 30
0.0
 10
1.6792362204724409
 20
1.0769921259842521
 30
0.0
 10
1.6792362204724409
 20
1.0769921259842521
 30
0.0
 10
1.6792362204724409
 20
1.0769921259842521
 30
0.0
 10
1.6792362204724409
 20
1.0769921259842521
 30
0.0
 10
1.6782834645669291
 20
1.0815354330708662
 30
0.0
 10
1.6782834645669291
 20
1.0815354330708662
 30
0.0
 10
1.6782834645669291
 20
1.0815354330708662
 30
0.0
 10
1.6782834645669291
 20
1.0815354330708662
 30
0.0
 10
1.6773543307086616
 20
1.0858661417322835
 30
0.0
 10
1.6773543307086616
 20
1.0858661417322835
 30
0.0
 10
1.6773543307086616
 20
1.0858661417322835
 30
0.0
 10
1.6773543307086616
 20
1.0858661417322835
 30
0.0
 10
1.0185708661417323
 20
0.7124173228346457
 30
0.0
 10
1.0185708661417323
 20
0.7124173228346457
 30
0.0
 10
1.0185708661417323
 20
0.7124173228346457
 30
0.0
 10
1.0185708661417323
 20
0.7124173228346457
 30
0.0
 10
1.0195000000000001
 20
0.7080866141732284
 30
0.0
 10
1.0195000000000001
 20
0.7080866141732284
 30
0.0
 10
1.0195000000000001
 20
0.7080866141732284
 30
0.0
 10
1.0195000000000001
 20
0.7080866141732284
 30
0.0
 10
1.0204527559055119
 20
0.7035433070866142
 30
0.0
 10
1.0204527559055119
 20
0.7035433070866142
 30
0.0
 10
1.0204527559055119
 20
0.7035433070866142
 30
0.0
 10
1.0204527559055119
 20
0.7035433070866142
 30
0.0
 10
1.0214409448818897
 20
0.6988070866141732
 30
0.0
 10
1.0214409448818897
 20
0.6988070866141732
 30
0.0
 10
1.0214409448818897
 20
0.6988070866141732
 30
0.0
 10
1.0214409448818897
 20
0.6988070866141732
 30
0.0
 10
1.0225
 20
0.6939094488188977
 30
0.0
 10
1.0225
 20
0.6939094488188977
 30
0.0
 10
1.0225
 20
0.6939094488188977
 30
0.0
 10
1.0225
 20
0.6939094488188977
 30
0.0
 10
1.0236417322834646
 20
0.6888582677165355
 30
0.0
 10
1.0236417322834646
 20
0.6888582677165355
 30
0.0
 10
1.0236417322834646
 20
0.6888582677165355
 30
0.0
 10
1.0236417322834646
 20
0.6888582677165355
 30
0.0
 10
1.0249094488188977
 20
0.6836889763779528
 30
0.0
 10
1.0249094488188977
 20
0.6836889763779528
 30
0.0
 10
1.0249094488188977
 20
0.6836889763779528
 30
0.0
 10
1.0249094488188977
 20
0.6836889763779528
 30
0.0
 10
1.0263070866141732
 20
0.6784173228346457
 30
0.0
 10
1.0263070866141732
 20
0.6784173228346457
 30
0.0
 10
1.0263070866141732
 20
0.6784173228346457
 30
0.0
 10
1.0263070866141732
 20
0.6784173228346457
 30
0.0
 10
1.0278818897637796
 20
0.6730669291338582
 30
0.0
 10
1.0278818897637796
 20
0.6730669291338582
 30
0.0
 10
1.0278818897637796
 20
0.6730669291338582
 30
0.0
 10
1.0278818897637796
 20
0.6730669291338582
 30
0.0
 10
1.0296338582677165
 20
0.6676535433070866
 30
0.0
 10
1.0296338582677165
 20
0.6676535433070866
 30
0.0
  0
SPLINE
  5
2F
100
AcDbEntity
  8
P1-Layer 1
370
     5
100
AcDbSpline
210
0.0
220
0.0
230
1.0
 70
     1
 71
     3
 72
   268
 73
   264
 74
     0
 42
0.0000000001
 43
0.0000000001
 40
0.0
 40
0.0
 40
0.0
 40
0.0
 40
0.0151515151515152
 40
0.0151515151515152
 40
0.0151515151515152
 40
0.0151515151515152
 40
0.0303030303030303
 40
0.0303030303030303
 40
0.0303030303030303
 40
0.0303030303030303
 40
0.0454545454545455
 40
0.0454545454545455
 40
0.0454545454545455
 40
0.0454545454545455
 40
0.0606060606060606
 40
0.0606060606060606
 40
0.0606060606060606
 40
0.0606060606060606
 40
0.0757575757575758
 40
0.0757575757575758
 40
0.0757575757575758
 40
0.0757575757575758
 40
0.0909090909090909
 40
0.0909090909090909
 40
0.0909090909090909
 40
0.0909090909090909
 40
0.1060606060606061
 40
0.1060606060606061
 40
0.1060606060606061
 40
0.1060606060606061
 40
0.1212121212121212
 40
0.1212121212121212
 40
0.1212121212121212
 40
0.1212121212121212
 40
0.1363636363636364
 40
0.1363636363636364
 40
0.1363636363636364
 40
0.1363636363636364
 40
0.1515151515151515
 40
0.1515151515151515
 40
0.1515151515151515
 40
0.1515151515151515
 40
0.1666666666666666
 40
0.1666666666666666
 40
0.1666666666666666
 40
0.1666666666666666
 40
0.1818181818181818
 40
0.1818181818181818
 40
0.1818181818181818
 40
0.1818181818181818
 40
0.1969696969696969
 40
0.1969696969696969
 40
0.1969696969696969
 40
0.1969696969696969
 40
0.212121212121212
 40
0.212121212121212
 40
0.212121212121212
 40
0.212121212121212
 40
0.2272727272727272
 40
0.2272727272727272
 40
0.2272727272727272
 40
0.2272727272727272
 40
0.2424242424242423
 40
0.2424242424242423
 40
0.2424242424242423
 40
0.2424242424242423
 40
0.2575757575757575
 40
0.2575757575757575
 40
0.2575757575757575
 40
0.2575757575757575
 40
0.2727272727272726
 40
0.2727272727272726
 40
0.2727272727272726
 40
0.2727272727272726
 40
0.2878787878787877
 40
0.2878787878787877
 40
0.2878787878787877
 40
0.2878787878787877
 40
0.3030303030303029
 40
0.3030303030303029
 40
0.3030303030303029
 40
0.3030303030303029
 40
0.318181818181818
 40
0.318181818181818
 40
0.318181818181818
 40
0.318181818181818
 40
0.3333333333333332
 40
0.3333333333333332
 40
0.3333333333333332
 40
0.3333333333333332
 40
0.3484848484848483
 40
0.3484848484848483
 40
0.3484848484848483
 40
0.3484848484848483
 40
0.3636363636363634
 40
0.3636363636363634
 40
0.3636363636363634
 40
0.3636363636363634
 40
0.3787878787878786
 40
0.3787878787878786
 40
0.3787878787878786
 40
0.3787878787878786
 40
0.3939393939393937
 40
0.3939393939393937
 40
0.3939393939393937
 40
0.3939393939393937
 40
0.4090909090909088
 40
0.4090909090909088
 40
0.4090909090909088
 40
0.4090909090909088
 40
0.424242424242424
 40
0.424242424242424
 40
0.424242424242424
 40
0.424242424242424
 40
0.4393939393939391
 40
0.4393939393939391
 40
0.4393939393939391
 40
0.4393939393939391
 40
0.4545454545454543
 40
0.4545454545454543
 40
0.4545454545454543
 40
0.4545454545454543
 40
0.4696969696969694
 40
0.4696969696969694
 40
0.4696969696969694
 40
0.4696969696969694
 40
0.4848484848484845
 40
0.4848484848484845
 40
0.4848484848484845
 40
0.4848484848484845
 40
0.4999999999999997
 40
0.4999999999999997
 40
0.4999999999999997
 40
0.4999999999999997
 40
0.5151515151515148
 40
0.5151515151515148
 40
0.5151515151515148
 40
0.5151515151515148
 40
0.5303030303030299
 40
0.5303030303030299
 40
0.5303030303030299
 40
0.5303030303030299
 40
0.5454545454545451
 40
0.5454545454545451
 40
0.5454545454545451
 40
0.5454545454545451
 40
0.5606060606060602
 40
0.5606060606060602
 40
0.5606060606060602
 40
0.5606060606060602
 40
0.5757575757575754
 40
0.5757575757575754
 40
0.5757575757575754
 40
0.5757575757575754
 40
0.5909090909090905
 40
0.5909090909090905
 40
0.5909090909090905
 40
0.5909090909090905
 40
0.6060606060606056
 40
0.6060606060606056
 40
0.6060606060606056
 40
0.6060606060606056
 40
0.6212121212121208
 40
0.6212121212121208
 40
0.6212121212121208
 40
0.6212121212121208
 40
0.6363636363636359
 40
0.6363636363636359
 40
0.6363636363636359
 40
0.6363636363636359
 40
0.6515151515151511
 40
0.6515151515151511
 40
0.6515151515151511
 40
0.6515151515151511
 40
0.6666666666666662
 40
0.6666666666666662
 40
0.6666666666666662
 40
0.6666666666666662
 40
0.6818181818181813
 40
0.6818181818181813
 40
0.6818181818181813
 40
0.6818181818181813
 40
0.6969696969696965
 40
0.6969696969696965
 40
0.6969696969696965
 40
0.6969696969696965
 40
0.7121212121212116
 40
0.7121212121212116
 40
0.7121212121212116
 40
0.7121212121212116
 40
0.7272727272727267
 40
0.7272727272727267
 40
0.7272727272727267
 40
0.7272727272727267
 40
0.7424242424242419
 40
0.7424242424242419
 40
0.7424242424242419
 40
0.7424242424242419
 40
0.757575757575757
 40
0.757575757575757
 40
0.757575757575757
 40
0.757575757575757
 40
0.7727272727272722
 40
0.7727272727272722
 40
0.7727272727272722
 40
0.7727272727272722
 40
0.7878787878787873
 40
0.7878787878787873
 40
0.7878787878787873
 40
0.7878787878787873
 40
0.8030303030303024
 40
0.8030303030303024
 40
0.8030303030303024
 40
0.8030303030303024
 40
0.8181818181818176
 40
0.8181818181818176
 40
0.8181818181818176
 40
0.8181818181818176
 40
0.8333333333333327
 40
0.8333333333333327
 40
0.8333333333333327
 40
0.8333333333333327
 40
0.8484848484848478
 40
0.8484848484848478
 40
0.8484848484848478
 40
0.8484848484848478
 40
0.863636363636363
 40
0.863636363636363
 40
0.863636363636363
 40
0.863636363636363
 40
0.8787878787878781
 40
0.8787878787878781
 40
0.8787878787878781
 40
0.8787878787878781
 40
0.8939393939393933
 40
0.8939393939393933
 40
0.8939393939393933
 40
0.8939393939393933
 40
0.9090909090909084
 40
0.9090909090909084
 40
0.9090909090909084
 40
0.9090909090909084
 40
0.9242424242424235
 40
0.9242424242424235
 40
0.9242424242424235
 40
0.9242424242424235
 40
0.9393939393939387
 40
0.9393939393939387
 40
0.9393939393939387
 40
0.9393939393939387
 40
0.9545454545454538
 40
0.9545454545454538
 40
0.9545454545454538
 40
0.9545454545454538
 40
0.969696969696969
 40
0.969696969696969
 40
0.969696969696969
 40
0.969696969696969
 40
0.9848484848484841
 40
0.9848484848484841
 40
0.9848484848484841
 40
0.9848484848484841
 40
1.0
 40
1.0
 40
1.0
 40
1.0
 10
1.1801102362204725
 20
0.5775236220472442
 30
0.0
 10
1.1801102362204725
 20
0.5775236220472442
 30
0.0
 10
1.8388937007874016
 20
0.950972440944882
 30
0.0
 10
1.8388937007874016
 20
0.950972440944882
 30
0.0
 10
1.8388937007874016
 20
0.950972440944882
 30
0.0
 10
1.8388937007874016
 20
0.950972440944882
 30
0.0
 10
1.8258543307086614
 20
0.9516653543307087
 30
0.0
 10
1.8258543307086614
 20
0.9516653543307087
 30
0.0
 10
1.8258543307086614
 20
0.9516653543307087
 30
0.0
 10
1.8258543307086614
 20
0.9516653543307087
 30
0.0
 10
1.8135826771653545
 20
0.9528110236220473
 30
0.0
 10
1.8135826771653545
 20
0.9528110236220473
 30
0.0
 10
1.8135826771653545
 20
0.9528110236220473
 30
0.0
 10
1.8135826771653545
 20
0.9528110236220473
 30
0.0
 10
1.8020472440944884
 20
0.9543779527559055
 30
0.0
 10
1.8020472440944884
 20
0.9543779527559055
 30
0.0
 10
1.8020472440944884
 20
0.9543779527559055
 30
0.0
 10
1.8020472440944884
 20
0.9543779527559055
 30
0.0
 10
1.791236220472441
 20
0.9563543307086615
 30
0.0
 10
1.791236220472441
 20
0.9563543307086615
 30
0.0
 10
1.791236220472441
 20
0.9563543307086615
 30
0.0
 10
1.791236220472441
 20
0.9563543307086615
 30
0.0
 10
1.7811102362204725
 20
0.9587047244094489
 30
0.0
 10
1.7811102362204725
 20
0.9587047244094489
 30
0.0
 10
1.7811102362204725
 20
0.9587047244094489
 30
0.0
 10
1.7811102362204725
 20
0.9587047244094489
 30
0.0
 10
1.7716535433070866
 20
0.9614173228346458
 30
0.0
 10
1.7716535433070866
 20
0.9614173228346458
 30
0.0
 10
1.7716535433070866
 20
0.9614173228346458
 30
0.0
 10
1.7716535433070866
 20
0.9614173228346458
 30
0.0
 10
1.7628346456692914
 20
0.9644645669291339
 30
0.0
 10
1.7628346456692914
 20
0.9644645669291339
 30
0.0
 10
1.7628346456692914
 20
0.9644645669291339
 30
0.0
 10
1.7628346456692914
 20
0.9644645669291339
 30
0.0
 10
1.7546338582677166
 20
0.9678307086614174
 30
0.0
 10
1.7546338582677166
 20
0.9678307086614174
 30
0.0
 10
1.7546338582677166
 20
0.9678307086614174
 30
0.0
 10
1.7546338582677166
 20
0.9678307086614174
 30
0.0
 10
1.7470118110236221
 20
0.9714803149606299
 30
0.0
 10
1.7470118110236221
 20
0.9714803149606299
 30
0.0
 10
1.7470118110236221
 20
0.9714803149606299
 30
0.0
 10
1.7470118110236221
 20
0.9714803149606299
 30
0.0
 10
1.7399685039370079
 20
0.9754055118110236
 30
0.0
 10
1.7399685039370079
 20
0.9754055118110236
 30
0.0
 10
1.7399685039370079
 20
0.9754055118110236
 30
0.0
 10
1.7399685039370079
 20
0.9754055118110236
 30
0.0
 10
1.7334566929133859
 20
0.9795787401574804
 30
0.0
 10
1.7334566929133859
 20
0.9795787401574804
 30
0.0
 10
1.7334566929133859
 20
0.9795787401574804
 30
0.0
 10
1.7334566929133859
 20
0.9795787401574804
 30
0.0
 10
1.7274724409448821
 20
0.9839842519685039
 30
0.0
 10
1.7274724409448821
 20
0.9839842519685039
 30
0.0
 10
1.7274724409448821
 20
0.9839842519685039
 30
0.0
 10
1.7274724409448821
 20
0.9839842519685039
 30
0.0
 10
1.7219645669291339
 20
0.9885866141732284
 30
0.0
 10
1.7219645669291339
 20
0.9885866141732284
 30
0.0
 10
1.7219645669291339
 20
0.9885866141732284
 30
0.0
 10
1.7219645669291339
 20
0.9885866141732284
 30
0.0
 10
1.7169330708661419
 20
0.9933779527559056
 30
0.0
 10
1.7169330708661419
 20
0.9933779527559056
 30
0.0
 10
1.7169330708661419
 20
0.9933779527559056
 30
0.0
 10
1.7169330708661419
 20
0.9933779527559056
 30
0.0
 10
1.7123385826771653
 20
0.9983267716535433
 30
0.0
 10
1.7123385826771653
 20
0.9983267716535433
 30
0.0
 10
1.7123385826771653
 20
0.9983267716535433
 30
0.0
 10
1.7123385826771653
 20
0.9983267716535433
 30
0.0
 10
1.7081614173228348
 20
1.0034251968503938
 30
0.0
 10
1.7081614173228348
 20
1.0034251968503938
 30
0.0
 10
1.7081614173228348
 20
1.0034251968503938
 30
0.0
 10
1.7081614173228348
 20
1.0034251968503938
 30
0.0
 10
1.7043661417322835
 20
1.0086299212598426
 30
0.0
 10
1.7043661417322835
 20
1.0086299212598426
 30
0.0
 10
1.7043661417322835
 20
1.0086299212598426
 30
0.0
 10
1.7043661417322835
 20
1.0086299212598426
 30
0.0
 10
1.7009409448818897
 20
1.0139330708661418
 30
0.0
 10
1.7009409448818897
 20
1.0139330708661418
 30
0.0
 10
1.7009409448818897
 20
1.0139330708661418
 30
0.0
 10
1.7009409448818897
 20
1.0139330708661418
 30
0.0
 10
1.6978543307086615
 20
1.0193070866141734
 30
0.0
 10
1.6978543307086615
 20
1.0193070866141734
 30
0.0
 10
1.6978543307086615
 20
1.0193070866141734
 30
0.0
 10
1.6978543307086615
 20
1.0193070866141734
 30
0.0
 10
1.6950866141732284
 20
1.0247362204724411
 30
0.0
 10
1.6950866141732284
 20
1.0247362204724411
 30
0.0
 10
1.6950866141732284
 20
1.0247362204724411
 30
0.0
 10
1.6950866141732284
 20
1.0247362204724411
 30
0.0
 10
1.6926062992125985
 20
1.0301889763779528
 30
0.0
 10
1.6926062992125985
 20
1.0301889763779528
 30
0.0
 10
1.6926062992125985
 20
1.0301889763779528
 30
0.0
 10
1.6926062992125985
 20
1.0301889763779528
 30
0.0
 10
1.6903937007874017
 20
1.0356535433070866
 30
0.0
 10
1.6903937007874017
 20
1.0356535433070866
 30
0.0
 10
1.6903937007874017
 20
1.0356535433070866
 30
0.0
 10
1.6903937007874017
 20
1.0356535433070866
 30
0.0
 10
1.6884173228346457
 20
1.0411023622047244
 30
0.0
 10
1.6884173228346457
 20
1.0411023622047244
 30
0.0
 10
1.6884173228346457
 20
1.0411023622047244
 30
0.0
 10
1.6884173228346457
 20
1.0411023622047244
 30
0.0
 10
1.6866653543307086
 20
1.0465157480314962
 30
0.0
 10
1.6866653543307086
 20
1.0465157480314962
 30
0.0
 10
1.6866653543307086
 20
1.0465157480314962
 30
0.0
 10
1.6866653543307086
 20
1.0465157480314962
 30
0.0
 10
1.6850905511811025
 20
1.0518661417322834
 30
0.0
 10
1.6850905511811025
 20
1.0518661417322834
 30
0.0
 10
1.6850905511811025
 20
1.0518661417322834
 30
0.0
 10
1.6850905511811025
 20
1.0518661417322834
 30
0.0
 10
1.6836929133858269
 20
1.0571377952755905
 30
0.0
 10
1.6836929133858269
 20
1.0571377952755905
 30
0.0
 10
1.6836929133858269
 20
1.0571377952755905
 30
0.0
 10
1.6836929133858269
 20
1.0571377952755905
 30
0.0
 10
1.6824251968503938
 20
1.0623070866141733
 30
0.0
 10
1.6824251968503938
 20
1.0623070866141733
 30
0.0
 10
1.6824251968503938
 20
1.0623070866141733
 30
0.0
 10
1.6824251968503938
 20
1.0623070866141733
 30
0.0
 10
1.6812834645669292
 20
1.0673582677165354
 30
0.0
 10
1.6812834645669292
 20
1.0673582677165354
 30
0.0
 10
1.6812834645669292
 20
1.0673582677165354
 30
0.0
 10
1.6812834645669292
 20
1.0673582677165354
 30
0.0
 10
1.680224409448819
 20
1.072255905511811
 30
0.0
 10
1.680224409448819
 20
1.072255905511811
 30
0.0
 10
1.680224409448819
 20
1.072255905511811
 30
0.0
 10
1.680224409448819
 20
1.072255905511811
 30
0.0
 10
1.6792362204724409
 20
1.0769921259842521
 30
0.0
 10
1.6792362204724409
 20
1.0769921259842521
 30
0.0
 10
1.6792362204724409
 20
1.0769921259842521
 30
0.0
 10
1.6792362204724409
 20
1.0769921259842521
 30
0.0
 10
1.6782834645669291
 20
1.0815354330708662
 30
0.0
 10
1.6782834645669291
 20
1.0815354330708662
 30
0.0
 10
1.6782834645669291
 20
1.0815354330708662
 30
0.0
 10
1.6782834645669291
 20
1.0815354330708662
 30
0.0
 10
1.6773543307086616
 20
1.0858661417322835
 30
0.0
 10
1.6773543307086616
 20
1.0858661417322835
 30
0.0
 10
1.6773543307086616
 20
1.0858661417322835
 30
0.0
 10
1.6773543307086616
 20
1.0858661417322835
 30
0.0
 10
1.0185708661417323
 20
0.7124173228346457
 30
0.0
 10
1.0185708661417323
 20
0.7124173228346457
 30
0.0
 10
1.0185708661417323
 20
0.7124173228346457
 30
0.0
 10
1.0185708661417323
 20
0.7124173228346457
 30
0.0
 10
1.0195000000000001
 20
0.7080866141732284
 30
0.0
 10
1.0195000000000001
 20
0.7080866141732284
 30
0.0
 10
1.0195000000000001
 20
0.7080866141732284
 30
0.0
 10
1.0195000000000001
 20
0.7080866141732284
 30
0.0
 10
1.0204527559055119
 20
0.7035433070866142
 30
0.0
 10
1.0204527559055119
 20
0.7035433070866142
 30
0.0
 10
1.0204527559055119
 20
0.7035433070866142
 30
0.0
 10
1.0204527559055119
 20
0.7035433070866142
 30
0.0
 10
1.0214409448818897
 20
0.6988070866141732
 30
0.0
 10
1.0214409448818897
 20
0.6988070866141732
 30
0.0
 10
1.0214409448818897
 20
0.6988070866141732
 30
0.0
 10
1.0214409448818897
 20
0.6988070866141732
 30
0.0
 10
1.0225
 20
0.6939094488188977
 30
0.0
 10
1.0225
 20
0.6939094488188977
 30
0.0
 10
1.0225
 20
0.6939094488188977
 30
0.0
 10
1.0225
 20
0.6939094488188977
 30
0.0
 10
1.0236417322834646
 20
0.6888582677165355
 30
0.0
 10
1.0236417322834646
 20
0.6888582677165355
 30
0.0
 10
1.0236417322834646
 20
0.6888582677165355
 30
0.0
 10
1.0236417322834646
 20
0.6888582677165355
 30
0.0
 10
1.0249094488188977
 20
0.6836889763779528
 30
0.0
 10
1.0249094488188977
 20
0.6836889763779528
 30
0.0
 10
1.0249094488188977
 20
0.6836889763779528
 30
0.0
 10
1.0249094488188977
 20
0.6836889763779528
 30
0.0
 10
1.0263070866141732
 20
0.6784173228346457
 30
0.0
 10
1.0263070866141732
 20
0.6784173228346457
 30
0.0
 10
1.0263070866141732
 20
0.6784173228346457
 30
0.0
 10
1.0263070866141732
 20
0.6784173228346457
 30
0.0
 10
1.0278818897637796
 20
0.6730669291338582
 30
0.0
 10
1.0278818897637796
 20
0.6730669291338582
 30
0.0
 10
1.0278818897637796
 20
0.6730669291338582
 30
0.0
 10
1.0278818897637796
 20
0.6730669291338582
 30
0.0
 10
1.0296338582677165
 20
0.6676535433070866
 30
0.0
 10
1.0296338582677165
 20
0.6676535433070866
 30
0.0
 10
1.0296338582677165
 20
0.6676535433070866
 30
0.0
 10
1.0296338582677165
 20
0.6676535433070866
 30
0.0
 10
1.0316102362204724
 20
0.6622047244094489
 30
0.0
 10
1.0316102362204724
 20
0.6622047244094489
 30
0.0
 10
1.0316102362204724
 20
0.6622047244094489
 30
0.0
 10
1.0316102362204724
 20
0.6622047244094489
 30
0.0
 10
1.0338228346456693
 20
0.656740157480315
 30
0.0
 10
1.0338228346456693
 20
0.656740157480315
 30
0.0
 10
1.0338228346456693
 20
0.656740157480315
 30
0.0
 10
1.0338228346456693
 20
0.656740157480315
 30
0.0
 10
1.0363031496062993
 20
0.6512874015748031
 30
0.0
 10
1.0363031496062993
 20
0.6512874015748031
 30
0.0
 10
1.0363031496062993
 20
0.6512874015748031
 30
0.0
 10
1.0363031496062993
 20
0.6512874015748031
 30
0.0
 10
1.0390708661417323
 20
0.6458582677165354
 30
0.0
 10
1.0390708661417323
 20
0.6458582677165354
 30
0.0
 10
1.0390708661417323
 20
0.6458582677165354
 30
0.0
 10
1.0390708661417323
 20
0.6458582677165354
 30
0.0
 10
1.0421574803149607
 20
0.640484251968504
 30
0.0
 10
1.0421574803149607
 20
0.640484251968504
 30
0.0
 10
1.0421574803149607
 20
0.640484251968504
 30
0.0
 10
1.0421574803149607
 20
0.640484251968504
 30
0.0
 10
1.0455826771653545
 20
0.6351811023622047
 30
0.0
 10
1.0455826771653545
 20
0.6351811023622047
 30
0.0
 10
1.0455826771653545
 20
0.6351811023622047
 30
0.0
 10
1.0455826771653545
 20
0.6351811023622047
 30
0.0
 10
1.0493779527559055
 20
0.629976377952756
 30
0.0
 10
1.0493779527559055
 20
0.629976377952756
 30
0.0
 10
1.0493779527559055
 20
0.629976377952756
 30
0.0
 10
1.0493779527559055
 20
0.629976377952756
 30
0.0
 10
1.0535551181102363
 20
0.6248779527559055
 30
0.0
 10
1.0535551181102363
 20
0.6248779527559055
 30
0.0
 10
1.0535551181102363
 20
0.6248779527559055
 30
0.0
 10
1.0535551181102363
 20
0.6248779527559055
 30
0.0
 10
1.0581496062992126
 20
0.6199291338582678
 30
0.0
 10
1.0581496062992126
 20
0.6199291338582678
 30
0.0
 10
1.0581496062992126
 20
0.6199291338582678
 30
0.0
 10
1.0581496062992126
 20
0.6199291338582678
 30
0.0
 10
1.0631811023622049
 20
0.6151377952755905
 30
0.0
 10
1.0631811023622049
 20
0.6151377952755905
 30
0.0
 10
1.0631811023622049
 20
0.6151377952755905
 30
0.0
 10
1.0631811023622049
 20
0.6151377952755905
 30
0.0
 10
1.0686889763779528
 20
0.6105354330708662
 30
0.0
 10
1.0686889763779528
 20
0.6105354330708662
 30
0.0
 10
1.0686889763779528
 20
0.6105354330708662
 30
0.0
 10
1.0686889763779528
 20
0.6105354330708662
 30
0.0
 10
1.0746732283464568
 20
0.6061299212598426
 30
0.0
 10
1.0746732283464568
 20
0.6061299212598426
 30
0.0
 10
1.0746732283464568
 20
0.6061299212598426
 30
0.0
 10
1.0746732283464568
 20
0.6061299212598426
 30
0.0
 10
1.0811850393700788
 20
0.6019566929133858
 30
0.0
 10
1.0811850393700788
 20
0.6019566929133858
 30
0.0
 10
1.0811850393700788
 20
0.6019566929133858
 30
0.0
 10
1.0811850393700788
 20
0.6019566929133858
 30
0.0
 10
1.0882283464566929
 20
0.5980314960629921
 30
0.0
 10
1.0882283464566929
 20
0.5980314960629921
 30
0.0
 10
1.0882283464566929
 20
0.5980314960629921
 30
0.0
 10
1.0882283464566929
 20
0.5980314960629921
 30
0.0
 10
1.0958503937007875
 20
0.5943818897637796
 30
0.0
 10
1.0958503937007875
 20
0.5943818897637796
 30
0.0
 10
1.0958503937007875
 20
0.5943818897637796
 30
0.0
 10
1.0958503937007875
 20
0.5943818897637796
 30
0.0
 10
1.1040511811023623
 20
0.591015748031496
 30
0.0
 10
1.1040511811023623
 20
0.591015748031496
 30
0.0
 10
1.1040511811023623
 20
0.591015748031496
 30
0.0
 10
1.1040511811023623
 20
0.591015748031496
 30
0.0
 10
1.1128700787401575
 20
0.587968503937008
 30
0.0
 10
1.1128700787401575
 20
0.587968503937008
 30
0.0
 10
1.1128700787401575
 20
0.587968503937008
 30
0.0
 10
1.1128700787401575
 20
0.587968503937008
 30
0.0
 10
1.1223267716535434
 20
0.5852559055118111
 30
0.0
 10
1.1223267716535434
 20
0.5852559055118111
 30
0.0
 10
1.1223267716535434
 20
0.5852559055118111
 30
0.0
 10
1.1223267716535434
 20
0.5852559055118111
 30
0.0
 10
1.1324527559055118
 20
0.5829055118110237
 30
0.0
 10
1.1324527559055118
 20
0.5829055118110237
 30
0.0
 10
1.1324527559055118
 20
0.5829055118110237
 30
0.0
 10
1.1324527559055118
 20
0.5829055118110237
 30
0.0
 10
1.1432637795275591
 20
0.5809291338582677
 30
0.0
 10
1.1432637795275591
 20
0.5809291338582677
 30
0.0
 10
1.1432637795275591
 20
0.5809291338582677
 30
0.0
 10
1.1432637795275591
 20
0.5809291338582677
 30
0.0
 10
1.1547992125984252
 20
0.5793622047244095
 30
0.0
 10
1.1547992125984252
 20
0.5793622047244095
 30
0.0
 10
1.1547992125984252
 20
0.5793622047244095
 30
0.0
 10
1.1547992125984252
 20
0.5793622047244095
 30
0.0
 10
1.1670708661417324
 20
0.5782165354330708
 30
0.0
 10
1.1670708661417324
 20
0.5782165354330708
 30
0.0
 10
1.1670708661417324
 20
0.5782165354330708
 30
0.0
 10
1.1670708661417324
 20
0.5782165354330708
 30
0.0
 10
1.1801102362204725
 20
0.5775236220472442
 30
0.0
 10
1.1801102362204725
 20
0.5775236220472442
 30
0.0
  0
SPLINE
  5
30
100
AcDbEntity
  8
P1-Layer 1
 62
   252
100
AcDbSpline
210
0.0
220
0.0
230
1.0
 70
     1
 71
     3
 72
    20
 73
    16
 74
     0
 42
0.0000000001
 43
0.0000000001
 40
0.0
 40
0.0
 40
0.0
 40
0.0
 40
0.25
 40
0.25
 40
0.25
 40
0.25
 40
0.5
 40
0.5
 40
0.5
 40
0.5
 40
0.75
 40
0.75
 40
0.75
 40
0.75
 40
1.0
 40
1.0
 40
1.0
 40
1.0
 10
1.0185708661417323
 20
0.7124173228346457
 30
0.0
 10
1.0185708661417323
 20
0.7124173228346457
 30
0.0
 10
1.6773543307086616
 20
1.0858661417322835
 30
0.0
 10
1.6773543307086616
 20
1.0858661417322835
 30
0.0
 10
1.6773543307086616
 20
1.0858661417322835
 30
0.0
 10
1.6773543307086616
 20
1.0858661417322835
 30
0.0
 10
1.605724409448819
 20
1.0858661417322835
 30
0.0
 10
1.605724409448819
 20
1.0858661417322835
 30
0.0
 10
1.605724409448819
 20
1.0858661417322835
 30
0.0
 10
1.605724409448819
 20
1.0858661417322835
 30
0.0
 10
0.9469409448818899
 20
0.7124173228346457
 30
0.0
 10
0.9469409448818899
 20
0.7124173228346457
 30
0.0
 10
0.9469409448818899
 20
0.7124173228346457
 30
0.0
 10
0.9469409448818899
 20
0.7124173228346457
 30
0.0
 10
1.0185708661417323
 20
0.7124173228346457
 30
0.0
 10
1.0185708661417323
 20
0.7124173228346457
 30
0.0
  0
SPLINE
  5
31
100
AcDbEntity
  8
P1-Layer 1
370
     5
100
AcDbSpline
210
0.0
220
0.0
230
1.0
 70
     1
 71
     3
 72
    20
 73
    16
 74
     0
 42
0.0000000001
 43
0.0000000001
 40
0.0
 40
0.0
 40
0.0
 40
0.0
 40
0.25
 40
0.25
 40
0.25
 40
0.25
 40
0.5
 40
0.5
 40
0.5
 40
0.5
 40
0.75
 40
0.75
 40
0.75
 40
0.75
 40
1.0
 40
1.0
 40
1.0
 40
1.0
 10
1.0185708661417323
 20
0.7124173228346457
 30
0.0
 10
1.0185708661417323
 20
0.7124173228346457
 30
0.0
 10
1.6773543307086616
 20
1.0858661417322835
 30
0.0
 10
1.6773543307086616
 20
1.0858661417322835
 30
0.0
 10
1.6773543307086616
 20
1.0858661417322835
 30
0.0
 10
1.6773543307086616
 20
1.0858661417322835
 30
0.0
 10
1.605724409448819
 20
1.0858661417322835
 30
0.0
 10
1.605724409448819
 20
1.0858661417322835
 30
0.0
 10
1.605724409448819
 20
1.0858661417322835
 30
0.0
 10
1.605724409448819
 20
1.0858661417322835
 30
0.0
 10
0.9469409448818899
 20
0.7124173228346457
 30
0.0
 10
0.9469409448818899
 20
0.7124173228346457
 30
0.0
 10
0.9469409448818899
 20
0.7124173228346457
 30
0.0
 10
0.9469409448818899
 20
0.7124173228346457
 30
0.0
 10
1.0185708661417323
 20
0.7124173228346457
 30
0.0
 10
1.0185708661417323
 20
0.7124173228346457
 30
0.0
  0
SPLINE
  5
32
100
AcDbEntity
  8
P1-Layer 1
 62
     9
100
AcDbSpline
210
0.0
220
0.0
230
1.0
 70
     1
 71
     3
 72
    20
 73
    16
 74
     0
 42
0.0000000001
 43
0.0000000001
 40
0.0
 40
0.0
 40
0.0
 40
0.0
 40
0.25
 40
0.25
 40
0.25
 40
0.25
 40
0.5
 40
0.5
 40
0.5
 40
0.5
 40
0.75
 40
0.75
 40
0.75
 40
0.75
 40
1.0
 40
1.0
 40
1.0
 40
1.0
 10
0.9469409448818899
 20
0.7124173228346457
 30
0.0
 10
0.9469409448818899
 20
0.7124173228346457
 30
0.0
 10
1.605724409448819
 20
1.0858661417322835
 30
0.0
 10
1.605724409448819
 20
1.0858661417322835
 30
0.0
 10
1.605724409448819
 20
1.0858661417322835
 30
0.0
 10
1.605724409448819
 20
1.0858661417322835
 30
0.0
 10
1.595751968503937
 20
1.147484251968504
 30
0.0
 10
1.595751968503937
 20
1.147484251968504
 30
0.0
 10
1.595751968503937
 20
1.147484251968504
 30
0.0
 10
1.595751968503937
 20
1.147484251968504
 30
0.0
 10
0.9369685039370079
 20
0.7740354330708662
 30
0.0
 10
0.9369685039370079
 20
0.7740354330708662
 30
0.0
 10
0.9369685039370079
 20
0.7740354330708662
 30
0.0
 10
0.9369685039370079
 20
0.7740354330708662
 30
0.0
 10
0.9469409448818899
 20
0.7124173228346457
 30
0.0
 10
0.9469409448818899
 20
0.7124173228346457
 30
0.0
  0
SPLINE
  5
33
100
AcDbEntity
  8
P1-Layer 1
370
     5
100
AcDbSpline
210
0.0
220
0.0
230
1.0
 70
     1
 71
     3
 72
    20
 73
    16
 74
     0
 42
0.0000000001
 43
0.0000000001
 40
0.0
 40
0.0
 40
0.0
 40
0.0
 40
0.25
 40
0.25
 40
0.25
 40
0.25
 40
0.5
 40
0.5
 40
0.5
 40
0.5
 40
0.75
 40
0.75
 40
0.75
 40
0.75
 40
1.0
 40
1.0
 40
1.0
 40
1.0
 10
0.9469409448818899
 20
0.7124173228346457
 30
0.0
 10
0.9469409448818899
 20
0.7124173228346457
 30
0.0
 10
1.605724409448819
 20
1.0858661417322835
 30
0.0
 10
1.605724409448819
 20
1.0858661417322835
 30
0.0
 10
1.605724409448819
 20
1.0858661417322835
 30
0.0
 10
1.605724409448819
 20
1.0858661417322835
 30
0.0
 10
1.595751968503937
 20
1.147484251968504
 30
0.0
 10
1.595751968503937
 20
1.147484251968504
 30
0.0
 10
1.595751968503937
 20
1.147484251968504
 30
0.0
 10
1.595751968503937
 20
1.147484251968504
 30
0.0
 10
0.9369685039370079
 20
0.7740354330708662
 30
0.0
 10
0.9369685039370079
 20
0.7740354330708662
 30
0.0
 10
0.9369685039370079
 20
0.7740354330708662
 30
0.0
 10
0.9369685039370079
 20
0.7740354330708662
 30
0.0
 10
0.9469409448818899
 20
0.7124173228346457
 30
0.0
 10
0.9469409448818899
 20
0.7124173228346457
 30
0.0
  0
SPLINE
  5
34
100
AcDbEntity
  8
P1-Layer 1
 62
   252
100
AcDbSpline
210
0.0
220
0.0
230
1.0
 70
     1
 71
     3
 72
    44
 73
    40
 74
     0
 42
0.0000000001
 43
0.0000000001
 40
0.0
 40
0.0
 40
0.0
 40
0.0
 40
0.1
 40
0.1
 40
0.1
 40
0.1
 40
0.2
 40
0.2
 40
0.2
 40
0.2
 40
0.3
 40
0.3
 40
0.3
 40
0.3
 40
0.4
 40
0.4
 40
0.4
 40
0.4
 40
0.5
 40
0.5
 40
0.5
 40
0.5
 40
0.6
 40
0.6
 40
0.6
 40
0.6
 40
0.7
 40
0.7
 40
0.7
 40
0.7
 40
0.7999999999999999
 40
0.7999999999999999
 40
0.7999999999999999
 40
0.7999999999999999
 40
0.8999999999999999
 40
0.8999999999999999
 40
0.8999999999999999
 40
0.8999999999999999
 40
1.0
 40
1.0
 40
1.0
 40
1.0
 10
0.9369685039370079
 20
0.7740354330708662
 30
0.0
 10
0.9369685039370079
 20
0.7740354330708662
 30
0.0
 10
1.595751968503937
 20
1.147484251968504
 30
0.0
 10
1.595751968503937
 20
1.147484251968504
 30
0.0
 10
1.595751968503937
 20
1.147484251968504
 30
0.0
 10
1.595751968503937
 20
1.147484251968504
 30
0.0
 10
1.5946535433070868
 20
1.147484251968504
 30
0.0
 10
1.5946535433070868
 20
1.147484251968504
 30
0.0
 10
1.5946535433070868
 20
1.147484251968504
 30
0.0
 10
1.5946535433070868
 20
1.147484251968504
 30
0.0
 10
1.5938740157480316
 20
1.147484251968504
 30
0.0
 10
1.5938740157480316
 20
1.147484251968504
 30
0.0
 10
1.5938740157480316
 20
1.147484251968504
 30
0.0
 10
1.5938740157480316
 20
1.147484251968504
 30
0.0
 10
1.5934055118110237
 20
1.147484251968504
 30
0.0
 10
1.5934055118110237
 20
1.147484251968504
 30
0.0
 10
1.5934055118110237
 20
1.147484251968504
 30
0.0
 10
1.5934055118110237
 20
1.147484251968504
 30
0.0
 10
1.593251968503937
 20
1.147484251968504
 30
0.0
 10
1.593251968503937
 20
1.147484251968504
 30
0.0
 10
1.593251968503937
 20
1.147484251968504
 30
0.0
 10
1.593251968503937
 20
1.147484251968504
 30
0.0
 10
0.9344685039370079
 20
0.7740354330708662
 30
0.0
 10
0.9344685039370079
 20
0.7740354330708662
 30
0.0
 10
0.9344685039370079
 20
0.7740354330708662
 30
0.0
 10
0.9344685039370079
 20
0.7740354330708662
 30
0.0
 10
0.9346220472440945
 20
0.7740354330708662
 30
0.0
 10
0.9346220472440945
 20
0.7740354330708662
 30
0.0
 10
0.9346220472440945
 20
0.7740354330708662
 30
0.0
 10
0.9346220472440945
 20
0.7740354330708662
 30
0.0
 10
0.9350905511811024
 20
0.7740354330708662
 30
0.0
 10
0.9350905511811024
 20
0.7740354330708662
 30
0.0
 10
0.9350905511811024
 20
0.7740354330708662
 30
0.0
 10
0.9350905511811024
 20
0.7740354330708662
 30
0.0
 10
0.9358700787401575
 20
0.7740354330708662
 30
0.0
 10
0.9358700787401575
 20
0.7740354330708662
 30
0.0
 10
0.9358700787401575
 20
0.7740354330708662
 30
0.0
 10
0.9358700787401575
 20
0.7740354330708662
 30
0.0
 10
0.9369685039370079
 20
0.7740354330708662
 30
0.0
 10
0.9369685039370079
 20
0.7740354330708662
 30
0.0
  0
SPLINE
  5
35
100
AcDbEntity
  8
P1-Layer 1
370
     5
100
AcDbSpline
210
0.0
220
0.0
230
1.0
 70
     1
 71
     3
 72
    44
 73
    40
 74
     0
 42
0.0000000001
 43
0.0000000001
 40
0.0
 40
0.0
 40
0.0
 40
0.0
 40
0.1
 40
0.1
 40
0.1
 40
0.1
 40
0.2
 40
0.2
 40
0.2
 40
0.2
 40
0.3
 40
0.3
 40
0.3
 40
0.3
 40
0.4
 40
0.4
 40
0.4
 40
0.4
 40
0.5
 40
0.5
 40
0.5
 40
0.5
 40
0.6
 40
0.6
 40
0.6
 40
0.6
 40
0.7
 40
0.7
 40
0.7
 40
0.7
 40
0.7999999999999999
 40
0.7999999999999999
 40
0.7999999999999999
 40
0.7999999999999999
 40
0.8999999999999999
 40
0.8999999999999999
 40
0.8999999999999999
 40
0.8999999999999999
 40
1.0
 40
1.0
 40
1.0
 40
1.0
 10
0.9369685039370079
 20
0.7740354330708662
 30
0.0
 10
0.9369685039370079
 20
0.7740354330708662
 30
0.0
 10
1.595751968503937
 20
1.147484251968504
 30
0.0
 10
1.595751968503937
 20
1.147484251968504
 30
0.0
 10
1.595751968503937
 20
1.147484251968504
 30
0.0
 10
1.595751968503937
 20
1.147484251968504
 30
0.0
 10
1.5946535433070868
 20
1.147484251968504
 30
0.0
 10
1.5946535433070868
 20
1.147484251968504
 30
0.0
 10
1.5946535433070868
 20
1.147484251968504
 30
0.0
 10
1.5946535433070868
 20
1.147484251968504
 30
0.0
 10
1.5938740157480316
 20
1.147484251968504
 30
0.0
 10
1.5938740157480316
 20
1.147484251968504
 30
0.0
 10
1.5938740157480316
 20
1.147484251968504
 30
0.0
 10
1.5938740157480316
 20
1.147484251968504
 30
0.0
 10
1.5934055118110237
 20
1.147484251968504
 30
0.0
 10
1.5934055118110237
 20
1.147484251968504
 30
0.0
 10
1.5934055118110237
 20
1.147484251968504
 30
0.0
 10
1.5934055118110237
 20
1.147484251968504
 30
0.0
 10
1.593251968503937
 20
1.147484251968504
 30
0.0
 10
1.593251968503937
 20
1.147484251968504
 30
0.0
 10
1.593251968503937
 20
1.147484251968504
 30
0.0
 10
1.593251968503937
 20
1.147484251968504
 30
0.0
 10
0.9344685039370079
 20
0.7740354330708662
 30
0.0
 10
0.9344685039370079
 20
0.7740354330708662
 30
0.0
 10
0.9344685039370079
 20
0.7740354330708662
 30
0.0
 10
0.9344685039370079
 20
0.7740354330708662
 30
0.0
 10
0.9346220472440945
 20
0.7740354330708662
 30
0.0
 10
0.9346220472440945
 20
0.7740354330708662
 30
0.0
 10
0.9346220472440945
 20
0.7740354330708662
 30
0.0
 10
0.9346220472440945
 20
0.7740354330708662
 30
0.0
 10
0.9350905511811024
 20
0.7740354330708662
 30
0.0
 10
0.9350905511811024
 20
0.7740354330708662
 30
0.0
 10
0.9350905511811024
 20
0.7740354330708662
 30
0.0
 10
0.9350905511811024
 20
0.7740354330708662
 30
0.0
 10
0.9358700787401575
 20
0.7740354330708662
 30
0.0
 10
0.9358700787401575
 20
0.7740354330708662
 30
0.0
 10
0.9358700787401575
 20
0.7740354330708662
 30
0.0
 10
0.9358700787401575
 20
0.7740354330708662
 30
0.0
 10
0.9369685039370079
 20
0.7740354330708662
 30
0.0
 10
0.9369685039370079
 20
0.7740354330708662
 30
0.0
  0
SPLINE
  5
36
100
AcDbEntity
  8
P1-Layer 1
 62
   252
100
AcDbSpline
210
0.0
220
0.0
230
1.0
 70
     1
 71
     3
 72
    20
 73
    16
 74
     0
 42
0.0000000001
 43
0.0000000001
 40
0.0
 40
0.0
 40
0.0
 40
0.0
 40
0.25
 40
0.25
 40
0.25
 40
0.25
 40
0.5
 40
0.5
 40
0.5
 40
0.5
 40
0.75
 40
0.75
 40
0.75
 40
0.75
 40
1.0
 40
1.0
 40
1.0
 40
1.0
 10
0.9369685039370079
 20
0.7740354330708662
 30
0.0
 10
0.9369685039370079
 20
0.7740354330708662
 30
0.0
 10
1.595751968503937
 20
1.147484251968504
 30
0.0
 10
1.595751968503937
 20
1.147484251968504
 30
0.0
 10
1.595751968503937
 20
1.147484251968504
 30
0.0
 10
1.595751968503937
 20
1.147484251968504
 30
0.0
 10
1.2593503937007875
 20
1.147484251968504
 30
0.0
 10
1.2593503937007875
 20
1.147484251968504
 30
0.0
 10
1.2593503937007875
 20
1.147484251968504
 30
0.0
 10
1.2593503937007875
 20
1.147484251968504
 30
0.0
 10
0.6005669291338583
 20
0.7740354330708662
 30
0.0
 10
0.6005669291338583
 20
0.7740354330708662
 30
0.0
 10
0.6005669291338583
 20
0.7740354330708662
 30
0.0
 10
0.6005669291338583
 20
0.7740354330708662
 30
0.0
 10
0.9369685039370079
 20
0.7740354330708662
 30
0.0
 10
0.9369685039370079
 20
0.7740354330708662
 30
0.0
  0
SPLINE
  5
37
100
AcDbEntity
  8
P1-Layer 1
370
     5
100
AcDbSpline
210
0.0
220
0.0
230
1.0
 70
     1
 71
     3
 72
    20
 73
    16
 74
     0
 42
0.0000000001
 43
0.0000000001
 40
0.0
 40
0.0
 40
0.0
 40
0.0
 40
0.25
 40
0.25
 40
0.25
 40
0.25
 40
0.5
 40
0.5
 40
0.5
 40
0.5
 40
0.75
 40
0.75
 40
0.75
 40
0.75
 40
1.0
 40
1.0
 40
1.0
 40
1.0
 10
0.9369685039370079
 20
0.7740354330708662
 30
0.0
 10
0.9369685039370079
 20
0.7740354330708662
 30
0.0
 10
1.595751968503937
 20
1.147484251968504
 30
0.0
 10
1.595751968503937
 20
1.147484251968504
 30
0.0
 10
1.595751968503937
 20
1.147484251968504
 30
0.0
 10
1.595751968503937
 20
1.147484251968504
 30
0.0
 10
1.2593503937007875
 20
1.147484251968504
 30
0.0
 10
1.2593503937007875
 20
1.147484251968504
 30
0.0
 10
1.2593503937007875
 20
1.147484251968504
 30
0.0
 10
1.2593503937007875
 20
1.147484251968504
 30
0.0
 10
0.6005669291338583
 20
0.7740354330708662
 30
0.0
 10
0.6005669291338583
 20
0.7740354330708662
 30
0.0
 10
0.6005669291338583
 20
0.7740354330708662
 30
0.0
 10
0.6005669291338583
 20
0.7740354330708662
 30
0.0
 10
0.9369685039370079
 20
0.7740354330708662
 30
0.0
 10
0.9369685039370079
 20
0.7740354330708662
 30
0.0
  0
SPLINE
  5
38
100
AcDbEntity
  8
P1-Layer 1
 62
     9
100
AcDbSpline
210
0.0
220
0.0
230
1.0
 70
     1
 71
     3
 72
    20
 73
    16
 74
     0
 42
0.0000000001
 43
0.0000000001
 40
0.0
 40
0.0
 40
0.0
 40
0.0
 40
0.25
 40
0.25
 40
0.25
 40
0.25
 40
0.5
 40
0.5
 40
0.5
 40
0.5
 40
0.75
 40
0.75
 40
0.75
 40
0.75
 40
1.0
 40
1.0
 40
1.0
 40
1.0
 10
0.6005669291338583
 20
0.7740354330708662
 30
0.0
 10
0.6005669291338583
 20
0.7740354330708662
 30
0.0
 10
1.2593503937007875
 20
1.147484251968504
 30
0.0
 10
1.2593503937007875
 20
1.147484251968504
 30
0.0
 10
1.2593503937007875
 20
1.147484251968504
 30
0.0
 10
1.2593503937007875
 20
1.147484251968504
 30
0.0
 10
1.252736220472441
 20
1.2119763779527559
 30
0.0
 10
1.252736220472441
 20
1.2119763779527559
 30
0.0
 10
1.252736220472441
 20
1.2119763779527559
 30
0.0
 10
1.252736220472441
 20
1.2119763779527559
 30
0.0
 10
0.5939527559055119
 20
0.8385275590551181
 30
0.0
 10
0.5939527559055119
 20
0.8385275590551181
 30
0.0
 10
0.5939527559055119
 20
0.8385275590551181
 30
0.0
 10
0.5939527559055119
 20
0.8385275590551181
 30
0.0
 10
0.6005669291338583
 20
0.7740354330708662
 30
0.0
 10
0.6005669291338583
 20
0.7740354330708662
 30
0.0
  0
SPLINE
  5
39
100
AcDbEntity
  8
P1-Layer 1
370
     5
100
AcDbSpline
210
0.0
220
0.0
230
1.0
 70
     1
 71
     3
 72
    20
 73
    16
 74
     0
 42
0.0000000001
 43
0.0000000001
 40
0.0
 40
0.0
 40
0.0
 40
0.0
 40
0.25
 40
0.25
 40
0.25
 40
0.25
 40
0.5
 40
0.5
 40
0.5
 40
0.5
 40
0.75
 40
0.75
 40
0.75
 40
0.75
 40
1.0
 40
1.0
 40
1.0
 40
1.0
 10
0.6005669291338583
 20
0.7740354330708662
 30
0.0
 10
0.6005669291338583
 20
0.7740354330708662
 30
0.0
 10
1.2593503937007875
 20
1.147484251968504
 30
0.0
 10
1.2593503937007875
 20
1.147484251968504
 30
0.0
 10
1.2593503937007875
 20
1.147484251968504
 30
0.0
 10
1.2593503937007875
 20
1.147484251968504
 30
0.0
 10
1.252736220472441
 20
1.2119763779527559
 30
0.0
 10
1.252736220472441
 20
1.2119763779527559
 30
0.0
 10
1.252736220472441
 20
1.2119763779527559
 30
0.0
 10
1.252736220472441
 20
1.2119763779527559
 30
0.0
 10
0.5939527559055119
 20
0.8385275590551181
 30
0.0
 10
0.5939527559055119
 20
0.8385275590551181
 30
0.0
 10
0.5939527559055119
 20
0.8385275590551181
 30
0.0
 10
0.5939527559055119
 20
0.8385275590551181
 30
0.0
 10
0.6005669291338583
 20
0.7740354330708662
 30
0.0
 10
0.6005669291338583
 20
0.7740354330708662
 30
0.0
  0
SPLINE
  5
3A
100
AcDbEntity
  8
P1-Layer 1
 62
   252
100
AcDbSpline
210
0.0
220
0.0
230
1.0
 70
     1
 71
     3
 72
    20
 73
    16
 74
     0
 42
0.0000000001
 43
0.0000000001
 40
0.0
 40
0.0
 40
0.0
 40
0.0
 40
0.25
 40
0.25
 40
0.25
 40
0.25
 40
0.5
 40
0.5
 40
0.5
 40
0.5
 40
0.75
 40
0.75
 40
0.75
 40
0.75
 40
1.0
 40
1.0
 40
1.0
 40
1.0
 10
-1.0110118110236221
 20
0.7124173228346457
 30
0.0
 10
-1.0110118110236221
 20
0.7124173228346457
 30
0.0
 10
-0.3522283464566929
 20
1.0858661417322835
 30
0.0
 10
-0.3522283464566929
 20
1.0858661417322835
 30
0.0
 10
-0.3522283464566929
 20
1.0858661417322835
 30
0.0
 10
-0.3522283464566929
 20
1.0858661417322835
 30
0.0
 10
-0.4238582677165355
 20
1.0858661417322835
 30
0.0
 10
-0.4238582677165355
 20
1.0858661417322835
 30
0.0
 10
-0.4238582677165355
 20
1.0858661417322835
 30
0.0
 10
-0.4238582677165355
 20
1.0858661417322835
 30
0.0
 10
-1.0826417322834645
 20
0.7124173228346457
 30
0.0
 10
-1.0826417322834645
 20
0.7124173228346457
 30
0.0
 10
-1.0826417322834645
 20
0.7124173228346457
 30
0.0
 10
-1.0826417322834645
 20
0.7124173228346457
 30
0.0
 10
-1.0110118110236221
 20
0.7124173228346457
 30
0.0
 10
-1.0110118110236221
 20
0.7124173228346457
 30
0.0
  0
SPLINE
  5
3B
100
AcDbEntity
  8
P1-Layer 1
370
     5
100
AcDbSpline
210
0.0
220
0.0
230
1.0
 70
     1
 71
     3
 72
    20
 73
    16
 74
     0
 42
0.0000000001
 43
0.0000000001
 40
0.0
 40
0.0
 40
0.0
 40
0.0
 40
0.25
 40
0.25
 40
0.25
 40
0.25
 40
0.5
 40
0.5
 40
0.5
 40
0.5
 40
0.75
 40
0.75
 40
0.75
 40
0.75
 40
1.0
 40
1.0
 40
1.0
 40
1.0
 10
-1.0110118110236221
 20
0.7124173228346457
 30
0.0
 10
-1.0110118110236221
 20
0.7124173228346457
 30
0.0
 10
-0.3522283464566929
 20
1.0858661417322835
 30
0.0
 10
-0.3522283464566929
 20
1.0858661417322835
 30
0.0
 10
-0.3522283464566929
 20
1.0858661417322835
 30
0.0
 10
-0.3522283464566929
 20
1.0858661417322835
 30
0.0
 10
-0.4238582677165355
 20
1.0858661417322835
 30
0.0
 10
-0.4238582677165355
 20
1.0858661417322835
 30
0.0
 10
-0.4238582677165355
 20
1.0858661417322835
 30
0.0
 10
-0.4238582677165355
 20
1.0858661417322835
 30
0.0
 10
-1.0826417322834645
 20
0.7124173228346457
 30
0.0
 10
-1.0826417322834645
 20
0.7124173228346457
 30
0.0
 10
-1.0826417322834645
 20
0.7124173228346457
 30
0.0
 10
-1.0826417322834645
 20
0.7124173228346457
 30
0.0
 10
-1.0110118110236221
 20
0.7124173228346457
 30
0.0
 10
-1.0110118110236221
 20
0.7124173228346457
 30
0.0
  0
SPLINE
  5
3C
100
AcDbEntity
  8
P1-Layer 1
 62
   118
100
AcDbSpline
210
0.0
220
0.0
230
1.0
 70
     1
 71
     3
 72
    52
 73
    48
 74
     0
 42
0.0000000001
 43
0.0000000001
 40
0.0
 40
0.0
 40
0.0
 40
0.0
 40
0.0833333333333333
 40
0.0833333333333333
 40
0.0833333333333333
 40
0.0833333333333333
 40
0.1666666666666667
 40
0.1666666666666667
 40
0.1666666666666667
 40
0.1666666666666667
 40
0.25
 40
0.25
 40
0.25
 40
0.25
 40
0.3333333333333333
 40
0.3333333333333333
 40
0.3333333333333333
 40
0.3333333333333333
 40
0.4166666666666666
 40
0.4166666666666666
 40
0.4166666666666666
 40
0.4166666666666666
 40
0.4999999999999999
 40
0.4999999999999999
 40
0.4999999999999999
 40
0.4999999999999999
 40
0.5833333333333333
 40
0.5833333333333333
 40
0.5833333333333333
 40
0.5833333333333333
 40
0.6666666666666666
 40
0.6666666666666666
 40
0.6666666666666666
 40
0.6666666666666666
 40
0.75
 40
0.75
 40
0.75
 40
0.75
 40
0.8333333333333334
 40
0.8333333333333334
 40
0.8333333333333334
 40
0.8333333333333334
 40
0.9166666666666667
 40
0.9166666666666667
 40
0.9166666666666667
 40
0.9166666666666667
 40
1.0
 40
1.0
 40
1.0
 40
1.0
 10
-1.1522992125984253
 20
0.5980314960629921
 30
0.0
 10
-1.1522992125984253
 20
0.5980314960629921
 30
0.0
 10
-0.4935157480314961
 20
0.9714803149606299
 30
0.0
 10
-0.4935157480314961
 20
0.9714803149606299
 30
0.0
 10
-0.4935157480314961
 20
0.9714803149606299
 30
0.0
 10
-0.4935157480314961
 20
0.9714803149606299
 30
0.0
 10
-0.5011377952755906
 20
0.9678307086614174
 30
0.0
 10
-0.5011377952755906
 20
0.9678307086614174
 30
0.0
 10
-0.5011377952755906
 20
0.9678307086614174
 30
0.0
 10
-0.5011377952755906
 20
0.9678307086614174
 30
0.0
 10
-0.5093385826771654
 20
0.9644645669291339
 30
0.0
 10
-0.5093385826771654
 20
0.9644645669291339
 30
0.0
 10
-0.5093385826771654
 20
0.9644645669291339
 30
0.0
 10
-0.5093385826771654
 20
0.9644645669291339
 30
0.0
 10
-0.5181574803149607
 20
0.9614173228346458
 30
0.0
 10
-0.5181574803149607
 20
0.9614173228346458
 30
0.0
 10
-0.5181574803149607
 20
0.9614173228346458
 30
0.0
 10
-0.5181574803149607
 20
0.9614173228346458
 30
0.0
 10
-0.5276141732283465
 20
0.9587047244094489
 30
0.0
 10
-0.5276141732283465
 20
0.9587047244094489
 30
0.0
 10
-0.5276141732283465
 20
0.9587047244094489
 30
0.0
 10
-0.5276141732283465
 20
0.9587047244094489
 30
0.0
 10
-0.537740157480315
 20
0.9563543307086615
 30
0.0
 10
-0.537740157480315
 20
0.9563543307086615
 30
0.0
 10
-0.537740157480315
 20
0.9563543307086615
 30
0.0
 10
-0.537740157480315
 20
0.9563543307086615
 30
0.0
 10
-1.1965236220472442
 20
0.5829055118110237
 30
0.0
 10
-1.1965236220472442
 20
0.5829055118110237
 30
0.0
 10
-1.1965236220472442
 20
0.5829055118110237
 30
0.0
 10
-1.1965236220472442
 20
0.5829055118110237
 30
0.0
 10
-1.1863976377952756
 20
0.5852559055118111
 30
0.0
 10
-1.1863976377952756
 20
0.5852559055118111
 30
0.0
 10
-1.1863976377952756
 20
0.5852559055118111
 30
0.0
 10
-1.1863976377952756
 20
0.5852559055118111
 30
0.0
 10
-1.1769409448818897
 20
0.587968503937008
 30
0.0
 10
-1.1769409448818897
 20
0.587968503937008
 30
0.0
 10
-1.1769409448818897
 20
0.587968503937008
 30
0.0
 10
-1.1769409448818897
 20
0.587968503937008
 30
0.0
 10
-1.1681220472440945
 20
0.591015748031496
 30
0.0
 10
-1.1681220472440945
 20
0.591015748031496
 30
0.0
 10
-1.1681220472440945
 20
0.591015748031496
 30
0.0
 10
-1.1681220472440945
 20
0.591015748031496
 30
0.0
 10
-1.1599212598425197
 20
0.5943818897637796
 30
0.0
 10
-1.1599212598425197
 20
0.5943818897637796
 30
0.0
 10
-1.1599212598425197
 20
0.5943818897637796
 30
0.0
 10
-1.1599212598425197
 20
0.5943818897637796
 30
0.0
 10
-1.1522992125984253
 20
0.5980314960629921
 30
0.0
 10
-1.1522992125984253
 20
0.5980314960629921
 30
0.0
  0
SPLINE
  5
3D
100
AcDbEntity
  8
P1-Layer 1
 62
     8
100
AcDbSpline
210
0.0
220
0.0
230
1.0
 70
     1
 71
     3
 72
    44
 73
    40
 74
     0
 42
0.0000000001
 43
0.0000000001
 40
0.0
 40
0.0
 40
0.0
 40
0.0
 40
0.1
 40
0.1
 40
0.1
 40
0.1
 40
0.2
 40
0.2
 40
0.2
 40
0.2
 40
0.3
 40
0.3
 40
0.3
 40
0.3
 40
0.4
 40
0.4
 40
0.4
 40
0.4
 40
0.5
 40
0.5
 40
0.5
 40
0.5
 40
0.6
 40
0.6
 40
0.6
 40
0.6
 40
0.7
 40
0.7
 40
0.7
 40
0.7
 40
0.7999999999999999
 40
0.7999999999999999
 40
0.7999999999999999
 40
0.7999999999999999
 40
0.8999999999999999
 40
0.8999999999999999
 40
0.8999999999999999
 40
0.8999999999999999
 40
1.0
 40
1.0
 40
1.0
 40
1.0
 10
-1.1965236220472442
 20
0.5829055118110237
 30
0.0
 10
-1.1965236220472442
 20
0.5829055118110237
 30
0.0
 10
-0.537740157480315
 20
0.9563543307086615
 30
0.0
 10
-0.537740157480315
 20
0.9563543307086615
 30
0.0
 10
-0.537740157480315
 20
0.9563543307086615
 30
0.0
 10
-0.537740157480315
 20
0.9563543307086615
 30
0.0
 10
-0.5485511811023622
 20
0.9543779527559055
 30
0.0
 10
-0.5485511811023622
 20
0.9543779527559055
 30
0.0
 10
-0.5485511811023622
 20
0.9543779527559055
 30
0.0
 10
-0.5485511811023622
 20
0.9543779527559055
 30
0.0
 10
-0.5600866141732284
 20
0.9528110236220473
 30
0.0
 10
-0.5600866141732284
 20
0.9528110236220473
 30
0.0
 10
-0.5600866141732284
 20
0.9528110236220473
 30
0.0
 10
-0.5600866141732284
 20
0.9528110236220473
 30
0.0
 10
-0.5723582677165354
 20
0.9516653543307087
 30
0.0
 10
-0.5723582677165354
 20
0.9516653543307087
 30
0.0
 10
-0.5723582677165354
 20
0.9516653543307087
 30
0.0
 10
-0.5723582677165354
 20
0.9516653543307087
 30
0.0
 10
-0.5853976377952757
 20
0.950972440944882
 30
0.0
 10
-0.5853976377952757
 20
0.950972440944882
 30
0.0
 10
-0.5853976377952757
 20
0.950972440944882
 30
0.0
 10
-0.5853976377952757
 20
0.950972440944882
 30
0.0
 10
-1.2441811023622047
 20
0.5775236220472442
 30
0.0
 10
-1.2441811023622047
 20
0.5775236220472442
 30
0.0
 10
-1.2441811023622047
 20
0.5775236220472442
 30
0.0
 10
-1.2441811023622047
 20
0.5775236220472442
 30
0.0
 10
-1.2311417322834646
 20
0.5782165354330708
 30
0.0
 10
-1.2311417322834646
 20
0.5782165354330708
 30
0.0
 10
-1.2311417322834646
 20
0.5782165354330708
 30
0.0
 10
-1.2311417322834646
 20
0.5782165354330708
 30
0.0
 10
-1.2188700787401576
 20
0.5793622047244095
 30
0.0
 10
-1.2188700787401576
 20
0.5793622047244095
 30
0.0
 10
-1.2188700787401576
 20
0.5793622047244095
 30
0.0
 10
-1.2188700787401576
 20
0.5793622047244095
 30
0.0
 10
-1.2073346456692913
 20
0.5809291338582677
 30
0.0
 10
-1.2073346456692913
 20
0.5809291338582677
 30
0.0
 10
-1.2073346456692913
 20
0.5809291338582677
 30
0.0
 10
-1.2073346456692913
 20
0.5809291338582677
 30
0.0
 10
-1.1965236220472442
 20
0.5829055118110237
 30
0.0
 10
-1.1965236220472442
 20
0.5829055118110237
 30
0.0
  0
SPLINE
  5
3E
100
AcDbEntity
  8
P1-Layer 1
370
     5
100
AcDbSpline
210
0.0
220
0.0
230
1.0
 70
     1
 71
     3
 72
    84
 73
    80
 74
     0
 42
0.0000000001
 43
0.0000000001
 40
0.0
 40
0.0
 40
0.0
 40
0.0
 40
0.05
 40
0.05
 40
0.05
 40
0.05
 40
0.1
 40
0.1
 40
0.1
 40
0.1
 40
0.15
 40
0.15
 40
0.15
 40
0.15
 40
0.2
 40
0.2
 40
0.2
 40
0.2
 40
0.25
 40
0.25
 40
0.25
 40
0.25
 40
0.3
 40
0.3
 40
0.3
 40
0.3
 40
0.35
 40
0.35
 40
0.35
 40
0.35
 40
0.4
 40
0.4
 40
0.4
 40
0.4
 40
0.45
 40
0.45
 40
0.45
 40
0.45
 40
0.4999999999999999
 40
0.4999999999999999
 40
0.4999999999999999
 40
0.4999999999999999
 40
0.5499999999999999
 40
0.5499999999999999
 40
0.5499999999999999
 40
0.5499999999999999
 40
0.6
 40
0.6
 40
0.6
 40
0.6
 40
0.65
 40
0.65
 40
0.65
 40
0.65
 40
0.7000000000000001
 40
0.7000000000000001
 40
0.7000000000000001
 40
0.7000000000000001
 40
0.7500000000000001
 40
0.7500000000000001
 40
0.7500000000000001
 40
0.7500000000000001
 40
0.8000000000000002
 40
0.8000000000000002
 40
0.8000000000000002
 40
0.8000000000000002
 40
0.8500000000000002
 40
0.8500000000000002
 40
0.8500000000000002
 40
0.8500000000000002
 40
0.9000000000000002
 40
0.9000000000000002
 40
0.9000000000000002
 40
0.9000000000000002
 40
0.9500000000000003
 40
0.9500000000000003
 40
0.9500000000000003
 40
0.9500000000000003
 40
1.0
 40
1.0
 40
1.0
 40
1.0
 10
-1.1522992125984253
 20
0.5980314960629921
 30
0.0
 10
-1.1522992125984253
 20
0.5980314960629921
 30
0.0
 10
-0.4935157480314961
 20
0.9714803149606299
 30
0.0
 10
-0.4935157480314961
 20
0.9714803149606299
 30
0.0
 10
-0.4935157480314961
 20
0.9714803149606299
 30
0.0
 10
-0.4935157480314961
 20
0.9714803149606299
 30
0.0
 10
-0.5011377952755906
 20
0.9678307086614174
 30
0.0
 10
-0.5011377952755906
 20
0.9678307086614174
 30
0.0
 10
-0.5011377952755906
 20
0.9678307086614174
 30
0.0
 10
-0.5011377952755906
 20
0.9678307086614174
 30
0.0
 10
-0.5093385826771654
 20
0.9644645669291339
 30
0.0
 10
-0.5093385826771654
 20
0.9644645669291339
 30
0.0
 10
-0.5093385826771654
 20
0.9644645669291339
 30
0.0
 10
-0.5093385826771654
 20
0.9644645669291339
 30
0.0
 10
-0.5181574803149607
 20
0.9614173228346458
 30
0.0
 10
-0.5181574803149607
 20
0.9614173228346458
 30
0.0
 10
-0.5181574803149607
 20
0.9614173228346458
 30
0.0
 10
-0.5181574803149607
 20
0.9614173228346458
 30
0.0
 10
-0.5276141732283465
 20
0.9587047244094489
 30
0.0
 10
-0.5276141732283465
 20
0.9587047244094489
 30
0.0
 10
-0.5276141732283465
 20
0.9587047244094489
 30
0.0
 10
-0.5276141732283465
 20
0.9587047244094489
 30
0.0
 10
-0.537740157480315
 20
0.9563543307086615
 30
0.0
 10
-0.537740157480315
 20
0.9563543307086615
 30
0.0
 10
-0.537740157480315
 20
0.9563543307086615
 30
0.0
 10
-0.537740157480315
 20
0.9563543307086615
 30
0.0
 10
-0.5485511811023622
 20
0.9543779527559055
 30
0.0
 10
-0.5485511811023622
 20
0.9543779527559055
 30
0.0
 10
-0.5485511811023622
 20
0.9543779527559055
 30
0.0
 10
-0.5485511811023622
 20
0.9543779527559055
 30
0.0
 10
-0.5600866141732284
 20
0.9528110236220473
 30
0.0
 10
-0.5600866141732284
 20
0.9528110236220473
 30
0.0
 10
-0.5600866141732284
 20
0.9528110236220473
 30
0.0
 10
-0.5600866141732284
 20
0.9528110236220473
 30
0.0
 10
-0.5723582677165354
 20
0.9516653543307087
 30
0.0
 10
-0.5723582677165354
 20
0.9516653543307087
 30
0.0
 10
-0.5723582677165354
 20
0.9516653543307087
 30
0.0
 10
-0.5723582677165354
 20
0.9516653543307087
 30
0.0
 10
-0.5853976377952757
 20
0.950972440944882
 30
0.0
 10
-0.5853976377952757
 20
0.950972440944882
 30
0.0
 10
-0.5853976377952757
 20
0.950972440944882
 30
0.0
 10
-0.5853976377952757
 20
0.950972440944882
 30
0.0
 10
-1.2441811023622047
 20
0.5775236220472442
 30
0.0
 10
-1.2441811023622047
 20
0.5775236220472442
 30
0.0
 10
-1.2441811023622047
 20
0.5775236220472442
 30
0.0
 10
-1.2441811023622047
 20
0.5775236220472442
 30
0.0
 10
-1.2311417322834646
 20
0.5782165354330708
 30
0.0
 10
-1.2311417322834646
 20
0.5782165354330708
 30
0.0
 10
-1.2311417322834646
 20
0.5782165354330708
 30
0.0
 10
-1.2311417322834646
 20
0.5782165354330708
 30
0.0
 10
-1.2188700787401576
 20
0.5793622047244095
 30
0.0
 10
-1.2188700787401576
 20
0.5793622047244095
 30
0.0
 10
-1.2188700787401576
 20
0.5793622047244095
 30
0.0
 10
-1.2188700787401576
 20
0.5793622047244095
 30
0.0
 10
-1.2073346456692913
 20
0.5809291338582677
 30
0.0
 10
-1.2073346456692913
 20
0.5809291338582677
 30
0.0
 10
-1.2073346456692913
 20
0.5809291338582677
 30
0.0
 10
-1.2073346456692913
 20
0.5809291338582677
 30
0.0
 10
-1.1965236220472442
 20
0.5829055118110237
 30
0.0
 10
-1.1965236220472442
 20
0.5829055118110237
 30
0.0
 10
-1.1965236220472442
 20
0.5829055118110237
 30
0.0
 10
-1.1965236220472442
 20
0.5829055118110237
 30
0.0
 10
-1.1863976377952756
 20
0.5852559055118111
 30
0.0
 10
-1.1863976377952756
 20
0.5852559055118111
 30
0.0
 10
-1.1863976377952756
 20
0.5852559055118111
 30
0.0
 10
-1.1863976377952756
 20
0.5852559055118111
 30
0.0
 10
-1.1769409448818897
 20
0.587968503937008
 30
0.0
 10
-1.1769409448818897
 20
0.587968503937008
 30
0.0
 10
-1.1769409448818897
 20
0.587968503937008
 30
0.0
 10
-1.1769409448818897
 20
0.587968503937008
 30
0.0
 10
-1.1681220472440945
 20
0.591015748031496
 30
0.0
 10
-1.1681220472440945
 20
0.591015748031496
 30
0.0
 10
-1.1681220472440945
 20
0.591015748031496
 30
0.0
 10
-1.1681220472440945
 20
0.591015748031496
 30
0.0
 10
-1.1599212598425197
 20
0.5943818897637796
 30
0.0
 10
-1.1599212598425197
 20
0.5943818897637796
 30
0.0
 10
-1.1599212598425197
 20
0.5943818897637796
 30
0.0
 10
-1.1599212598425197
 20
0.5943818897637796
 30
0.0
 10
-1.1522992125984253
 20
0.5980314960629921
 30
0.0
 10
-1.1522992125984253
 20
0.5980314960629921
 30
0.0
  0
SPLINE
  5
3F
100
AcDbEntity
  8
P1-Layer 1
 62
   252
100
AcDbSpline
210
0.0
220
0.0
230
1.0
 70
     1
 71
     3
 72
    44
 73
    40
 74
     0
 42
0.0000000001
 43
0.0000000001
 40
0.0
 40
0.0
 40
0.0
 40
0.0
 40
0.1
 40
0.1
 40
0.1
 40
0.1
 40
0.2
 40
0.2
 40
0.2
 40
0.2
 40
0.3
 40
0.3
 40
0.3
 40
0.3
 40
0.4
 40
0.4
 40
0.4
 40
0.4
 40
0.5
 40
0.5
 40
0.5
 40
0.5
 40
0.6
 40
0.6
 40
0.6
 40
0.6
 40
0.7
 40
0.7
 40
0.7
 40
0.7
 40
0.7999999999999999
 40
0.7999999999999999
 40
0.7999999999999999
 40
0.7999999999999999
 40
0.8999999999999999
 40
0.8999999999999999
 40
0.8999999999999999
 40
0.8999999999999999
 40
1.0
 40
1.0
 40
1.0
 40
1.0
 10
-0.9985393700787402
 20
0.7740354330708662
 30
0.0
 10
-0.9985393700787402
 20
0.7740354330708662
 30
0.0
 10
-0.3397559055118111
 20
1.147484251968504
 30
0.0
 10
-0.3397559055118111
 20
1.147484251968504
 30
0.0
 10
-0.3397559055118111
 20
1.147484251968504
 30
0.0
 10
-0.3397559055118111
 20
1.147484251968504
 30
0.0
 10
-0.3399094488188977
 20
1.147484251968504
 30
0.0
 10
-0.3399094488188977
 20
1.147484251968504
 30
0.0
 10
-0.3399094488188977
 20
1.147484251968504
 30
0.0
 10
-0.3399094488188977
 20
1.147484251968504
 30
0.0
 10
-0.3403779527559055
 20
1.147484251968504
 30
0.0
 10
-0.3403779527559055
 20
1.147484251968504
 30
0.0
 10
-0.3403779527559055
 20
1.147484251968504
 30
0.0
 10
-0.3403779527559055
 20
1.147484251968504
 30
0.0
 10
-0.3411574803149606
 20
1.147484251968504
 30
0.0
 10
-0.3411574803149606
 20
1.147484251968504
 30
0.0
 10
-0.3411574803149606
 20
1.147484251968504
 30
0.0
 10
-0.3411574803149606
 20
1.147484251968504
 30
0.0
 10
-0.342255905511811
 20
1.147484251968504
 30
0.0
 10
-0.342255905511811
 20
1.147484251968504
 30
0.0
 10
-0.342255905511811
 20
1.147484251968504
 30
0.0
 10
-0.342255905511811
 20
1.147484251968504
 30
0.0
 10
-1.0010393700787401
 20
0.7740354330708662
 30
0.0
 10
-1.0010393700787401
 20
0.7740354330708662
 30
0.0
 10
-1.0010393700787401
 20
0.7740354330708662
 30
0.0
 10
-1.0010393700787401
 20
0.7740354330708662
 30
0.0
 10
-0.9999409448818898
 20
0.7740354330708662
 30
0.0
 10
-0.9999409448818898
 20
0.7740354330708662
 30
0.0
 10
-0.9999409448818898
 20
0.7740354330708662
 30
0.0
 10
-0.9999409448818898
 20
0.7740354330708662
 30
0.0
 10
-0.9991614173228347
 20
0.7740354330708662
 30
0.0
 10
-0.9991614173228347
 20
0.7740354330708662
 30
0.0
 10
-0.9991614173228347
 20
0.7740354330708662
 30
0.0
 10
-0.9991614173228347
 20
0.7740354330708662
 30
0.0
 10
-0.9986929133858268
 20
0.7740354330708662
 30
0.0
 10
-0.9986929133858268
 20
0.7740354330708662
 30
0.0
 10
-0.9986929133858268
 20
0.7740354330708662
 30
0.0
 10
-0.9986929133858268
 20
0.7740354330708662
 30
0.0
 10
-0.9985393700787402
 20
0.7740354330708662
 30
0.0
 10
-0.9985393700787402
 20
0.7740354330708662
 30
0.0
  0
SPLINE
  5
40
100
AcDbEntity
  8
P1-Layer 1
370
     5
100
AcDbSpline
210
0.0
220
0.0
230
1.0
 70
     1
 71
     3
 72
    44
 73
    40
 74
     0
 42
0.0000000001
 43
0.0000000001
 40
0.0
 40
0.0
 40
0.0
 40
0.0
 40
0.1
 40
0.1
 40
0.1
 40
0.1
 40
0.2
 40
0.2
 40
0.2
 40
0.2
 40
0.3
 40
0.3
 40
0.3
 40
0.3
 40
0.4
 40
0.4
 40
0.4
 40
0.4
 40
0.5
 40
0.5
 40
0.5
 40
0.5
 40
0.6
 40
0.6
 40
0.6
 40
0.6
 40
0.7
 40
0.7
 40
0.7
 40
0.7
 40
0.7999999999999999
 40
0.7999999999999999
 40
0.7999999999999999
 40
0.7999999999999999
 40
0.8999999999999999
 40
0.8999999999999999
 40
0.8999999999999999
 40
0.8999999999999999
 40
1.0
 40
1.0
 40
1.0
 40
1.0
 10
-0.9985393700787402
 20
0.7740354330708662
 30
0.0
 10
-0.9985393700787402
 20
0.7740354330708662
 30
0.0
 10
-0.3397559055118111
 20
1.147484251968504
 30
0.0
 10
-0.3397559055118111
 20
1.147484251968504
 30
0.0
 10
-0.3397559055118111
 20
1.147484251968504
 30
0.0
 10
-0.3397559055118111
 20
1.147484251968504
 30
0.0
 10
-0.3399094488188977
 20
1.147484251968504
 30
0.0
 10
-0.3399094488188977
 20
1.147484251968504
 30
0.0
 10
-0.3399094488188977
 20
1.147484251968504
 30
0.0
 10
-0.3399094488188977
 20
1.147484251968504
 30
0.0
 10
-0.3403779527559055
 20
1.147484251968504
 30
0.0
 10
-0.3403779527559055
 20
1.147484251968504
 30
0.0
 10
-0.3403779527559055
 20
1.147484251968504
 30
0.0
 10
-0.3403779527559055
 20
1.147484251968504
 30
0.0
 10
-0.3411574803149606
 20
1.147484251968504
 30
0.0
 10
-0.3411574803149606
 20
1.147484251968504
 30
0.0
 10
-0.3411574803149606
 20
1.147484251968504
 30
0.0
 10
-0.3411574803149606
 20
1.147484251968504
 30
0.0
 10
-0.342255905511811
 20
1.147484251968504
 30
0.0
 10
-0.342255905511811
 20
1.147484251968504
 30
0.0
 10
-0.342255905511811
 20
1.147484251968504
 30
0.0
 10
-0.342255905511811
 20
1.147484251968504
 30
0.0
 10
-1.0010393700787401
 20
0.7740354330708662
 30
0.0
 10
-1.0010393700787401
 20
0.7740354330708662
 30
0.0
 10
-1.0010393700787401
 20
0.7740354330708662
 30
0.0
 10
-1.0010393700787401
 20
0.7740354330708662
 30
0.0
 10
-0.9999409448818898
 20
0.7740354330708662
 30
0.0
 10
-0.9999409448818898
 20
0.7740354330708662
 30
0.0
 10
-0.9999409448818898
 20
0.7740354330708662
 30
0.0
 10
-0.9999409448818898
 20
0.7740354330708662
 30
0.0
 10
-0.9991614173228347
 20
0.7740354330708662
 30
0.0
 10
-0.9991614173228347
 20
0.7740354330708662
 30
0.0
 10
-0.9991614173228347
 20
0.7740354330708662
 30
0.0
 10
-0.9991614173228347
 20
0.7740354330708662
 30
0.0
 10
-0.9986929133858268
 20
0.7740354330708662
 30
0.0
 10
-0.9986929133858268
 20
0.7740354330708662
 30
0.0
 10
-0.9986929133858268
 20
0.7740354330708662
 30
0.0
 10
-0.9986929133858268
 20
0.7740354330708662
 30
0.0
 10
-0.9985393700787402
 20
0.7740354330708662
 30
0.0
 10
-0.9985393700787402
 20
0.7740354330708662
 30
0.0
  0
SPLINE
  5
41
100
AcDbEntity
  8
P1-Layer 1
 62
   252
100
AcDbSpline
210
0.0
220
0.0
230
1.0
 70
     1
 71
     3
 72
    20
 73
    16
 74
     0
 42
0.0000000001
 43
0.0000000001
 40
0.0
 40
0.0
 40
0.0
 40
0.0
 40
0.25
 40
0.25
 40
0.25
 40
0.25
 40
0.5
 40
0.5
 40
0.5
 40
0.5
 40
0.75
 40
0.75
 40
0.75
 40
0.75
 40
1.0
 40
1.0
 40
1.0
 40
1.0
 10
-0.6646377952755905
 20
0.7740354330708662
 30
0.0
 10
-0.6646377952755905
 20
0.7740354330708662
 30
0.0
 10
-0.0058543307086614
 20
1.147484251968504
 30
0.0
 10
-0.0058543307086614
 20
1.147484251968504
 30
0.0
 10
-0.0058543307086614
 20
1.147484251968504
 30
0.0
 10
-0.0058543307086614
 20
1.147484251968504
 30
0.0
 10
-0.342255905511811
 20
1.147484251968504
 30
0.0
 10
-0.342255905511811
 20
1.147484251968504
 30
0.0
 10
-0.342255905511811
 20
1.147484251968504
 30
0.0
 10
-0.342255905511811
 20
1.147484251968504
 30
0.0
 10
-1.0010393700787401
 20
0.7740354330708662
 30
0.0
 10
-1.0010393700787401
 20
0.7740354330708662
 30
0.0
 10
-1.0010393700787401
 20
0.7740354330708662
 30
0.0
 10
-1.0010393700787401
 20
0.7740354330708662
 30
0.0
 10
-0.6646377952755905
 20
0.7740354330708662
 30
0.0
 10
-0.6646377952755905
 20
0.7740354330708662
 30
0.0
  0
SPLINE
  5
42
100
AcDbEntity
  8
P1-Layer 1
370
     5
100
AcDbSpline
210
0.0
220
0.0
230
1.0
 70
     1
 71
     3
 72
    20
 73
    16
 74
     0
 42
0.0000000001
 43
0.0000000001
 40
0.0
 40
0.0
 40
0.0
 40
0.0
 40
0.25
 40
0.25
 40
0.25
 40
0.25
 40
0.5
 40
0.5
 40
0.5
 40
0.5
 40
0.75
 40
0.75
 40
0.75
 40
0.75
 40
1.0
 40
1.0
 40
1.0
 40
1.0
 10
-0.6646377952755905
 20
0.7740354330708662
 30
0.0
 10
-0.6646377952755905
 20
0.7740354330708662
 30
0.0
 10
-0.0058543307086614
 20
1.147484251968504
 30
0.0
 10
-0.0058543307086614
 20
1.147484251968504
 30
0.0
 10
-0.0058543307086614
 20
1.147484251968504
 30
0.0
 10
-0.0058543307086614
 20
1.147484251968504
 30
0.0
 10
-0.342255905511811
 20
1.147484251968504
 30
0.0
 10
-0.342255905511811
 20
1.147484251968504
 30
0.0
 10
-0.342255905511811
 20
1.147484251968504
 30
0.0
 10
-0.342255905511811
 20
1.147484251968504
 30
0.0
 10
-1.0010393700787401
 20
0.7740354330708662
 30
0.0
 10
-1.0010393700787401
 20
0.7740354330708662
 30
0.0
 10
-1.0010393700787401
 20
0.7740354330708662
 30
0.0
 10
-1.0010393700787401
 20
0.7740354330708662
 30
0.0
 10
-0.6646377952755905
 20
0.7740354330708662
 30
0.0
 10
-0.6646377952755905
 20
0.7740354330708662
 30
0.0
  0
SPLINE
  5
43
100
AcDbEntity
  8
P1-Layer 1
 62
   252
100
AcDbSpline
210
0.0
220
0.0
230
1.0
 70
     1
 71
     3
 72
    20
 73
    16
 74
     0
 42
0.0000000001
 43
0.0000000001
 40
0.0
 40
0.0
 40
0.0
 40
0.0
 40
0.25
 40
0.25
 40
0.25
 40
0.25
 40
0.5
 40
0.5
 40
0.5
 40
0.5
 40
0.75
 40
0.75
 40
0.75
 40
0.75
 40
1.0
 40
1.0
 40
1.0
 40
1.0
 10
0.5939527559055119
 20
0.8385275590551181
 30
0.0
 10
0.5939527559055119
 20
0.8385275590551181
 30
0.0
 10
1.252736220472441
 20
1.2119763779527559
 30
0.0
 10
1.252736220472441
 20
1.2119763779527559
 30
0.0
 10
1.252736220472441
 20
1.2119763779527559
 30
0.0
 10
1.252736220472441
 20
1.2119763779527559
 30
0.0
 10
0.000759842519685
 20
1.2119763779527559
 30
0.0
 10
0.000759842519685
 20
1.2119763779527559
 30
0.0
 10
0.000759842519685
 20
1.2119763779527559
 30
0.0
 10
0.000759842519685
 20
1.2119763779527559
 30
0.0
 10
-0.6580236220472441
 20
0.8385275590551181
 30
0.0
 10
-0.6580236220472441
 20
0.8385275590551181
 30
0.0
 10
-0.6580236220472441
 20
0.8385275590551181
 30
0.0
 10
-0.6580236220472441
 20
0.8385275590551181
 30
0.0
 10
0.5939527559055119
 20
0.8385275590551181
 30
0.0
 10
0.5939527559055119
 20
0.8385275590551181
 30
0.0
  0
SPLINE
  5
44
100
AcDbEntity
  8
P1-Layer 1
370
     5
100
AcDbSpline
210
0.0
220
0.0
230
1.0
 70
     1
 71
     3
 72
    20
 73
    16
 74
     0
 42
0.0000000001
 43
0.0000000001
 40
0.0
 40
0.0
 40
0.0
 40
0.0
 40
0.25
 40
0.25
 40
0.25
 40
0.25
 40
0.5
 40
0.5
 40
0.5
 40
0.5
 40
0.75
 40
0.75
 40
0.75
 40
0.75
 40
1.0
 40
1.0
 40
1.0
 40
1.0
 10
0.5939527559055119
 20
0.8385275590551181
 30
0.0
 10
0.5939527559055119
 20
0.8385275590551181
 30
0.0
 10
1.252736220472441
 20
1.2119763779527559
 30
0.0
 10
1.252736220472441
 20
1.2119763779527559
 30
0.0
 10
1.252736220472441
 20
1.2119763779527559
 30
0.0
 10
1.252736220472441
 20
1.2119763779527559
 30
0.0
 10
0.000759842519685
 20
1.2119763779527559
 30
0.0
 10
0.000759842519685
 20
1.2119763779527559
 30
0.0
 10
0.000759842519685
 20
1.2119763779527559
 30
0.0
 10
0.000759842519685
 20
1.2119763779527559
 30
0.0
 10
-0.6580236220472441
 20
0.8385275590551181
 30
0.0
 10
-0.6580236220472441
 20
0.8385275590551181
 30
0.0
 10
-0.6580236220472441
 20
0.8385275590551181
 30
0.0
 10
-0.6580236220472441
 20
0.8385275590551181
 30
0.0
 10
0.5939527559055119
 20
0.8385275590551181
 30
0.0
 10
0.5939527559055119
 20
0.8385275590551181
 30
0.0
  0
SPLINE
  5
45
100
AcDbEntity
  8
P1-Layer 1
 62
     9
100
AcDbSpline
210
0.0
220
0.0
230
1.0
 70
     1
 71
     3
 72
    20
 73
    16
 74
     0
 42
0.0000000001
 43
0.0000000001
 40
0.0
 40
0.0
 40
0.0
 40
0.0
 40
0.25
 40
0.25
 40
0.25
 40
0.25
 40
0.5
 40
0.5
 40
0.5
 40
0.5
 40
0.75
 40
0.75
 40
0.75
 40
0.75
 40
1.0
 40
1.0
 40
1.0
 40
1.0
 10
1.1801102362204725
 20
0.2118188976377953
 30
0.0
 10
1.1801102362204725
 20
0.2118188976377953
 30
0.0
 10
1.8388937007874016
 20
0.5852677165354331
 30
0.0
 10
1.8388937007874016
 20
0.5852677165354331
 30
0.0
 10
1.8388937007874016
 20
0.5852677165354331
 30
0.0
 10
1.8388937007874016
 20
0.5852677165354331
 30
0.0
 10
1.8388937007874016
 20
0.950972440944882
 30
0.0
 10
1.8388937007874016
 20
0.950972440944882
 30
0.0
 10
1.8388937007874016
 20
0.950972440944882
 30
0.0
 10
1.8388937007874016
 20
0.950972440944882
 30
0.0
 10
1.1801102362204725
 20
0.5775236220472442
 30
0.0
 10
1.1801102362204725
 20
0.5775236220472442
 30
0.0
 10
1.1801102362204725
 20
0.5775236220472442
 30
0.0
 10
1.1801102362204725
 20
0.5775236220472442
 30
0.0
 10
1.1801102362204725
 20
0.2118188976377953
 30
0.0
 10
1.1801102362204725
 20
0.2118188976377953
 30
0.0
  0
SPLINE
  5
46
100
AcDbEntity
  8
P1-Layer 1
370
     5
100
AcDbSpline
210
0.0
220
0.0
230
1.0
 70
     1
 71
     3
 72
    20
 73
    16
 74
     0
 42
0.0000000001
 43
0.0000000001
 40
0.0
 40
0.0
 40
0.0
 40
0.0
 40
0.25
 40
0.25
 40
0.25
 40
0.25
 40
0.5
 40
0.5
 40
0.5
 40
0.5
 40
0.75
 40
0.75
 40
0.75
 40
0.75
 40
1.0
 40
1.0
 40
1.0
 40
1.0
 10
1.1801102362204725
 20
0.2118188976377953
 30
0.0
 10
1.1801102362204725
 20
0.2118188976377953
 30
0.0
 10
1.8388937007874016
 20
0.5852677165354331
 30
0.0
 10
1.8388937007874016
 20
0.5852677165354331
 30
0.0
 10
1.8388937007874016
 20
0.5852677165354331
 30
0.0
 10
1.8388937007874016
 20
0.5852677165354331
 30
0.0
 10
1.8388937007874016
 20
0.950972440944882
 30
0.0
 10
1.8388937007874016
 20
0.950972440944882
 30
0.0
 10
1.8388937007874016
 20
0.950972440944882
 30
0.0
 10
1.8388937007874016
 20
0.950972440944882
 30
0.0
 10
1.1801102362204725
 20
0.5775236220472442
 30
0.0
 10
1.1801102362204725
 20
0.5775236220472442
 30
0.0
 10
1.1801102362204725
 20
0.5775236220472442
 30
0.0
 10
1.1801102362204725
 20
0.5775236220472442
 30
0.0
 10
1.1801102362204725
 20
0.2118188976377953
 30
0.0
 10
1.1801102362204725
 20
0.2118188976377953
 30
0.0
  0
SPLINE
  5
47
100
AcDbEntity
  8
P1-Layer 1
 62
   253
100
AcDbSpline
210
0.0
220
0.0
230
1.0
 70
     1
 71
     3
 72
    44
 73
    40
 74
     0
 42
0.0000000001
 43
0.0000000001
 40
0.0
 40
0.0
 40
0.0
 40
0.0
 40
0.1
 40
0.1
 40
0.1
 40
0.1
 40
0.2
 40
0.2
 40
0.2
 40
0.2
 40
0.3
 40
0.3
 40
0.3
 40
0.3
 40
0.4
 40
0.4
 40
0.4
 40
0.4
 40
0.5
 40
0.5
 40
0.5
 40
0.5
 40
0.6
 40
0.6
 40
0.6
 40
0.6
 40
0.7
 40
0.7
 40
0.7
 40
0.7
 40
0.7999999999999999
 40
0.7999999999999999
 40
0.7999999999999999
 40
0.7999999999999999
 40
0.8999999999999999
 40
0.8999999999999999
 40
0.8999999999999999
 40
0.8999999999999999
 40
1.0
 40
1.0
 40
1.0
 40
1.0
 10
1.1801102362204725
 20
0.5775236220472442
 30
0.0
 10
1.1801102362204725
 20
0.5775236220472442
 30
0.0
 10
1.8388937007874016
 20
0.950972440944882
 30
0.0
 10
1.8388937007874016
 20
0.950972440944882
 30
0.0
 10
1.8388937007874016
 20
0.950972440944882
 30
0.0
 10
1.8388937007874016
 20
0.950972440944882
 30
0.0
 10
1.8258543307086614
 20
0.9516653543307087
 30
0.0
 10
1.8258543307086614
 20
0.9516653543307087
 30
0.0
 10
1.8258543307086614
 20
0.9516653543307087
 30
0.0
 10
1.8258543307086614
 20
0.9516653543307087
 30
0.0
 10
1.8135826771653545
 20
0.9528110236220473
 30
0.0
 10
1.8135826771653545
 20
0.9528110236220473
 30
0.0
 10
1.8135826771653545
 20
0.9528110236220473
 30
0.0
 10
1.8135826771653545
 20
0.9528110236220473
 30
0.0
 10
1.8020472440944884
 20
0.9543779527559055
 30
0.0
 10
1.8020472440944884
 20
0.9543779527559055
 30
0.0
 10
1.8020472440944884
 20
0.9543779527559055
 30
0.0
 10
1.8020472440944884
 20
0.9543779527559055
 30
0.0
 10
1.791236220472441
 20
0.9563543307086615
 30
0.0
 10
1.791236220472441
 20
0.9563543307086615
 30
0.0
 10
1.791236220472441
 20
0.9563543307086615
 30
0.0
 10
1.791236220472441
 20
0.9563543307086615
 30
0.0
 10
1.1324527559055118
 20
0.5829055118110237
 30
0.0
 10
1.1324527559055118
 20
0.5829055118110237
 30
0.0
 10
1.1324527559055118
 20
0.5829055118110237
 30
0.0
 10
1.1324527559055118
 20
0.5829055118110237
 30
0.0
 10
1.1432637795275591
 20
0.5809291338582677
 30
0.0
 10
1.1432637795275591
 20
0.5809291338582677
 30
0.0
 10
1.1432637795275591
 20
0.5809291338582677
 30
0.0
 10
1.1432637795275591
 20
0.5809291338582677
 30
0.0
 10
1.1547992125984252
 20
0.5793622047244095
 30
0.0
 10
1.1547992125984252
 20
0.5793622047244095
 30
0.0
 10
1.1547992125984252
 20
0.5793622047244095
 30
0.0
 10
1.1547992125984252
 20
0.5793622047244095
 30
0.0
 10
1.1670708661417324
 20
0.5782165354330708
 30
0.0
 10
1.1670708661417324
 20
0.5782165354330708
 30
0.0
 10
1.1670708661417324
 20
0.5782165354330708
 30
0.0
 10
1.1670708661417324
 20
0.5782165354330708
 30
0.0
 10
1.1801102362204725
 20
0.5775236220472442
 30
0.0
 10
1.1801102362204725
 20
0.5775236220472442
 30
0.0
  0
SPLINE
  5
48
100
AcDbEntity
  8
P1-Layer 1
 62
   253
100
AcDbSpline
210
0.0
220
0.0
230
1.0
 70
     1
 71
     3
 72
    52
 73
    48
 74
     0
 42
0.0000000001
 43
0.0000000001
 40
0.0
 40
0.0
 40
0.0
 40
0.0
 40
0.0833333333333333
 40
0.0833333333333333
 40
0.0833333333333333
 40
0.0833333333333333
 40
0.1666666666666667
 40
0.1666666666666667
 40
0.1666666666666667
 40
0.1666666666666667
 40
0.25
 40
0.25
 40
0.25
 40
0.25
 40
0.3333333333333333
 40
0.3333333333333333
 40
0.3333333333333333
 40
0.3333333333333333
 40
0.4166666666666666
 40
0.4166666666666666
 40
0.4166666666666666
 40
0.4166666666666666
 40
0.4999999999999999
 40
0.4999999999999999
 40
0.4999999999999999
 40
0.4999999999999999
 40
0.5833333333333333
 40
0.5833333333333333
 40
0.5833333333333333
 40
0.5833333333333333
 40
0.6666666666666666
 40
0.6666666666666666
 40
0.6666666666666666
 40
0.6666666666666666
 40
0.75
 40
0.75
 40
0.75
 40
0.75
 40
0.8333333333333334
 40
0.8333333333333334
 40
0.8333333333333334
 40
0.8333333333333334
 40
0.9166666666666667
 40
0.9166666666666667
 40
0.9166666666666667
 40
0.9166666666666667
 40
1.0
 40
1.0
 40
1.0
 40
1.0
 10
1.1324527559055118
 20
0.5829055118110237
 30
0.0
 10
1.1324527559055118
 20
0.5829055118110237
 30
0.0
 10
1.791236220472441
 20
0.9563543307086615
 30
0.0
 10
1.791236220472441
 20
0.9563543307086615
 30
0.0
 10
1.791236220472441
 20
0.9563543307086615
 30
0.0
 10
1.791236220472441
 20
0.9563543307086615
 30
0.0
 10
1.7811102362204725
 20
0.9587047244094489
 30
0.0
 10
1.7811102362204725
 20
0.9587047244094489
 30
0.0
 10
1.7811102362204725
 20
0.9587047244094489
 30
0.0
 10
1.7811102362204725
 20
0.9587047244094489
 30
0.0
 10
1.7716535433070866
 20
0.9614173228346458
 30
0.0
 10
1.7716535433070866
 20
0.9614173228346458
 30
0.0
 10
1.7716535433070866
 20
0.9614173228346458
 30
0.0
 10
1.7716535433070866
 20
0.9614173228346458
 30
0.0
 10
1.7628346456692914
 20
0.9644645669291339
 30
0.0
 10
1.7628346456692914
 20
0.9644645669291339
 30
0.0
 10
1.7628346456692914
 20
0.9644645669291339
 30
0.0
 10
1.7628346456692914
 20
0.9644645669291339
 30
0.0
 10
1.7546338582677166
 20
0.9678307086614174
 30
0.0
 10
1.7546338582677166
 20
0.9678307086614174
 30
0.0
 10
1.7546338582677166
 20
0.9678307086614174
 30
0.0
 10
1.7546338582677166
 20
0.9678307086614174
 30
0.0
 10
1.7470118110236221
 20
0.9714803149606299
 30
0.0
 10
1.7470118110236221
 20
0.9714803149606299
 30
0.0
 10
1.7470118110236221
 20
0.9714803149606299
 30
0.0
 10
1.7470118110236221
 20
0.9714803149606299
 30
0.0
 10
1.0882283464566929
 20
0.5980314960629921
 30
0.0
 10
1.0882283464566929
 20
0.5980314960629921
 30
0.0
 10
1.0882283464566929
 20
0.5980314960629921
 30
0.0
 10
1.0882283464566929
 20
0.5980314960629921
 30
0.0
 10
1.0958503937007875
 20
0.5943818897637796
 30
0.0
 10
1.0958503937007875
 20
0.5943818897637796
 30
0.0
 10
1.0958503937007875
 20
0.5943818897637796
 30
0.0
 10
1.0958503937007875
 20
0.5943818897637796
 30
0.0
 10
1.1040511811023623
 20
0.591015748031496
 30
0.0
 10
1.1040511811023623
 20
0.591015748031496
 30
0.0
 10
1.1040511811023623
 20
0.591015748031496
 30
0.0
 10
1.1040511811023623
 20
0.591015748031496
 30
0.0
 10
1.1128700787401575
 20
0.587968503937008
 30
0.0
 10
1.1128700787401575
 20
0.587968503937008
 30
0.0
 10
1.1128700787401575
 20
0.587968503937008
 30
0.0
 10
1.1128700787401575
 20
0.587968503937008
 30
0.0
 10
1.1223267716535434
 20
0.5852559055118111
 30
0.0
 10
1.1223267716535434
 20
0.5852559055118111
 30
0.0
 10
1.1223267716535434
 20
0.5852559055118111
 30
0.0
 10
1.1223267716535434
 20
0.5852559055118111
 30
0.0
 10
1.1324527559055118
 20
0.5829055118110237
 30
0.0
 10
1.1324527559055118
 20
0.5829055118110237
 30
0.0
  0
SPLINE
  5
49
100
AcDbEntity
  8
P1-Layer 1
 62
     9
100
AcDbSpline
210
0.0
220
0.0
230
1.0
 70
     1
 71
     3
 72
    60
 73
    56
 74
     0
 42
0.0000000001
 43
0.0000000001
 40
0.0
 40
0.0
 40
0.0
 40
0.0
 40
0.0714285714285714
 40
0.0714285714285714
 40
0.0714285714285714
 40
0.0714285714285714
 40
0.1428571428571429
 40
0.1428571428571429
 40
0.1428571428571429
 40
0.1428571428571429
 40
0.2142857142857143
 40
0.2142857142857143
 40
0.2142857142857143
 40
0.2142857142857143
 40
0.2857142857142857
 40
0.2857142857142857
 40
0.2857142857142857
 40
0.2857142857142857
 40
0.3571428571428571
 40
0.3571428571428571
 40
0.3571428571428571
 40
0.3571428571428571
 40
0.4285714285714285
 40
0.4285714285714285
 40
0.4285714285714285
 40
0.4285714285714285
 40
0.4999999999999999
 40
0.4999999999999999
 40
0.4999999999999999
 40
0.4999999999999999
 40
0.5714285714285713
 40
0.5714285714285713
 40
0.5714285714285713
 40
0.5714285714285713
 40
0.6428571428571427
 40
0.6428571428571427
 40
0.6428571428571427
 40
0.6428571428571427
 40
0.7142857142857141
 40
0.7142857142857141
 40
0.7142857142857141
 40
0.7142857142857141
 40
0.7857142857142855
 40
0.7857142857142855
 40
0.7857142857142855
 40
0.7857142857142855
 40
0.8571428571428569
 40
0.8571428571428569
 40
0.8571428571428569
 40
0.8571428571428569
 40
0.9285714285714283
 40
0.9285714285714283
 40
0.9285714285714283
 40
0.9285714285714283
 40
1.0
 40
1.0
 40
1.0
 40
1.0
 10
1.0882283464566929
 20
0.5980314960629921
 30
0.0
 10
1.0882283464566929
 20
0.5980314960629921
 30
0.0
 10
1.7470118110236221
 20
0.9714803149606299
 30
0.0
 10
1.7470118110236221
 20
0.9714803149606299
 30
0.0
 10
1.7470118110236221
 20
0.9714803149606299
 30
0.0
 10
1.7470118110236221
 20
0.9714803149606299
 30
0.0
 10
1.7399685039370079
 20
0.9754055118110236
 30
0.0
 10
1.7399685039370079
 20
0.9754055118110236
 30
0.0
 10
1.7399685039370079
 20
0.9754055118110236
 30
0.0
 10
1.7399685039370079
 20
0.9754055118110236
 30
0.0
 10
1.7334566929133859
 20
0.9795787401574804
 30
0.0
 10
1.7334566929133859
 20
0.9795787401574804
 30
0.0
 10
1.7334566929133859
 20
0.9795787401574804
 30
0.0
 10
1.7334566929133859
 20
0.9795787401574804
 30
0.0
 10
1.7274724409448821
 20
0.9839842519685039
 30
0.0
 10
1.7274724409448821
 20
0.9839842519685039
 30
0.0
 10
1.7274724409448821
 20
0.9839842519685039
 30
0.0
 10
1.7274724409448821
 20
0.9839842519685039
 30
0.0
 10
1.7219645669291339
 20
0.9885866141732284
 30
0.0
 10
1.7219645669291339
 20
0.9885866141732284
 30
0.0
 10
1.7219645669291339
 20
0.9885866141732284
 30
0.0
 10
1.7219645669291339
 20
0.9885866141732284
 30
0.0
 10
1.7169330708661419
 20
0.9933779527559056
 30
0.0
 10
1.7169330708661419
 20
0.9933779527559056
 30
0.0
 10
1.7169330708661419
 20
0.9933779527559056
 30
0.0
 10
1.7169330708661419
 20
0.9933779527559056
 30
0.0
 10
1.7123385826771653
 20
0.9983267716535433
 30
0.0
 10
1.7123385826771653
 20
0.9983267716535433
 30
0.0
 10
1.7123385826771653
 20
0.9983267716535433
 30
0.0
 10
1.7123385826771653
 20
0.9983267716535433
 30
0.0
 10
1.0535551181102363
 20
0.6248779527559055
 30
0.0
 10
1.0535551181102363
 20
0.6248779527559055
 30
0.0
 10
1.0535551181102363
 20
0.6248779527559055
 30
0.0
 10
1.0535551181102363
 20
0.6248779527559055
 30
0.0
 10
1.0581496062992126
 20
0.6199291338582678
 30
0.0
 10
1.0581496062992126
 20
0.6199291338582678
 30
0.0
 10
1.0581496062992126
 20
0.6199291338582678
 30
0.0
 10
1.0581496062992126
 20
0.6199291338582678
 30
0.0
 10
1.0631811023622049
 20
0.6151377952755905
 30
0.0
 10
1.0631811023622049
 20
0.6151377952755905
 30
0.0
 10
1.0631811023622049
 20
0.6151377952755905
 30
0.0
 10
1.0631811023622049
 20
0.6151377952755905
 30
0.0
 10
1.0686889763779528
 20
0.6105354330708662
 30
0.0
 10
1.0686889763779528
 20
0.6105354330708662
 30
0.0
 10
1.0686889763779528
 20
0.6105354330708662
 30
0.0
 10
1.0686889763779528
 20
0.6105354330708662
 30
0.0
 10
1.0746732283464568
 20
0.6061299212598426
 30
0.0
 10
1.0746732283464568
 20
0.6061299212598426
 30
0.0
 10
1.0746732283464568
 20
0.6061299212598426
 30
0.0
 10
1.0746732283464568
 20
0.6061299212598426
 30
0.0
 10
1.0811850393700788
 20
0.6019566929133858
 30
0.0
 10
1.0811850393700788
 20
0.6019566929133858
 30
0.0
 10
1.0811850393700788
 20
0.6019566929133858
 30
0.0
 10
1.0811850393700788
 20
0.6019566929133858
 30
0.0
 10
1.0882283464566929
 20
0.5980314960629921
 30
0.0
 10
1.0882283464566929
 20
0.5980314960629921
 30
0.0
  0
SPLINE
  5
4A
100
AcDbEntity
  8
P1-Layer 1
 62
     9
100
AcDbSpline
210
0.0
220
0.0
230
1.0
 70
     1
 71
     3
 72
    76
 73
    72
 74
     0
 42
0.0000000001
 43
0.0000000001
 40
0.0
 40
0.0
 40
0.0
 40
0.0
 40
0.0555555555555556
 40
0.0555555555555556
 40
0.0555555555555556
 40
0.0555555555555556
 40
0.1111111111111111
 40
0.1111111111111111
 40
0.1111111111111111
 40
0.1111111111111111
 40
0.1666666666666667
 40
0.1666666666666667
 40
0.1666666666666667
 40
0.1666666666666667
 40
0.2222222222222222
 40
0.2222222222222222
 40
0.2222222222222222
 40
0.2222222222222222
 40
0.2777777777777778
 40
0.2777777777777778
 40
0.2777777777777778
 40
0.2777777777777778
 40
0.3333333333333334
 40
0.3333333333333334
 40
0.3333333333333334
 40
0.3333333333333334
 40
0.388888888888889
 40
0.388888888888889
 40
0.388888888888889
 40
0.388888888888889
 40
0.4444444444444445
 40
0.4444444444444445
 40
0.4444444444444445
 40
0.4444444444444445
 40
0.5000000000000001
 40
0.5000000000000001
 40
0.5000000000000001
 40
0.5000000000000001
 40
0.5555555555555557
 40
0.5555555555555557
 40
0.5555555555555557
 40
0.5555555555555557
 40
0.6111111111111113
 40
0.6111111111111113
 40
0.6111111111111113
 40
0.6111111111111113
 40
0.6666666666666669
 40
0.6666666666666669
 40
0.6666666666666669
 40
0.6666666666666669
 40
0.7222222222222224
 40
0.7222222222222224
 40
0.7222222222222224
 40
0.7222222222222224
 40
0.777777777777778
 40
0.777777777777778
 40
0.777777777777778
 40
0.777777777777778
 40
0.8333333333333336
 40
0.8333333333333336
 40
0.8333333333333336
 40
0.8333333333333336
 40
0.8888888888888892
 40
0.8888888888888892
 40
0.8888888888888892
 40
0.8888888888888892
 40
0.9444444444444448
 40
0.9444444444444448
 40
0.9444444444444448
 40
0.9444444444444448
 40
1.0
 40
1.0
 40
1.0
 40
1.0
 10
1.0535551181102363
 20
0.6248779527559055
 30
0.0
 10
1.0535551181102363
 20
0.6248779527559055
 30
0.0
 10
1.7123385826771653
 20
0.9983267716535433
 30
0.0
 10
1.7123385826771653
 20
0.9983267716535433
 30
0.0
 10
1.7123385826771653
 20
0.9983267716535433
 30
0.0
 10
1.7123385826771653
 20
0.9983267716535433
 30
0.0
 10
1.7081614173228348
 20
1.0034251968503938
 30
0.0
 10
1.7081614173228348
 20
1.0034251968503938
 30
0.0
 10
1.7081614173228348
 20
1.0034251968503938
 30
0.0
 10
1.7081614173228348
 20
1.0034251968503938
 30
0.0
 10
1.7043661417322835
 20
1.0086299212598426
 30
0.0
 10
1.7043661417322835
 20
1.0086299212598426
 30
0.0
 10
1.7043661417322835
 20
1.0086299212598426
 30
0.0
 10
1.7043661417322835
 20
1.0086299212598426
 30
0.0
 10
1.7009409448818897
 20
1.0139330708661418
 30
0.0
 10
1.7009409448818897
 20
1.0139330708661418
 30
0.0
 10
1.7009409448818897
 20
1.0139330708661418
 30
0.0
 10
1.7009409448818897
 20
1.0139330708661418
 30
0.0
 10
1.6978543307086615
 20
1.0193070866141734
 30
0.0
 10
1.6978543307086615
 20
1.0193070866141734
 30
0.0
 10
1.6978543307086615
 20
1.0193070866141734
 30
0.0
 10
1.6978543307086615
 20
1.0193070866141734
 30
0.0
 10
1.6950866141732284
 20
1.0247362204724411
 30
0.0
 10
1.6950866141732284
 20
1.0247362204724411
 30
0.0
 10
1.6950866141732284
 20
1.0247362204724411
 30
0.0
 10
1.6950866141732284
 20
1.0247362204724411
 30
0.0
 10
1.6926062992125985
 20
1.0301889763779528
 30
0.0
 10
1.6926062992125985
 20
1.0301889763779528
 30
0.0
 10
1.6926062992125985
 20
1.0301889763779528
 30
0.0
 10
1.6926062992125985
 20
1.0301889763779528
 30
0.0
 10
1.6903937007874017
 20
1.0356535433070866
 30
0.0
 10
1.6903937007874017
 20
1.0356535433070866
 30
0.0
 10
1.6903937007874017
 20
1.0356535433070866
 30
0.0
 10
1.6903937007874017
 20
1.0356535433070866
 30
0.0
 10
1.6884173228346457
 20
1.0411023622047244
 30
0.0
 10
1.6884173228346457
 20
1.0411023622047244
 30
0.0
 10
1.6884173228346457
 20
1.0411023622047244
 30
0.0
 10
1.6884173228346457
 20
1.0411023622047244
 30
0.0
 10
1.0296338582677165
 20
0.6676535433070866
 30
0.0
 10
1.0296338582677165
 20
0.6676535433070866
 30
0.0
 10
1.0296338582677165
 20
0.6676535433070866
 30
0.0
 10
1.0296338582677165
 20
0.6676535433070866
 30
0.0
 10
1.0316102362204724
 20
0.6622047244094489
 30
0.0
 10
1.0316102362204724
 20
0.6622047244094489
 30
0.0
 10
1.0316102362204724
 20
0.6622047244094489
 30
0.0
 10
1.0316102362204724
 20
0.6622047244094489
 30
0.0
 10
1.0338228346456693
 20
0.656740157480315
 30
0.0
 10
1.0338228346456693
 20
0.656740157480315
 30
0.0
 10
1.0338228346456693
 20
0.656740157480315
 30
0.0
 10
1.0338228346456693
 20
0.656740157480315
 30
0.0
 10
1.0363031496062993
 20
0.6512874015748031
 30
0.0
 10
1.0363031496062993
 20
0.6512874015748031
 30
0.0
 10
1.0363031496062993
 20
0.6512874015748031
 30
0.0
 10
1.0363031496062993
 20
0.6512874015748031
 30
0.0
 10
1.0390708661417323
 20
0.6458582677165354
 30
0.0
 10
1.0390708661417323
 20
0.6458582677165354
 30
0.0
 10
1.0390708661417323
 20
0.6458582677165354
 30
0.0
 10
1.0390708661417323
 20
0.6458582677165354
 30
0.0
 10
1.0421574803149607
 20
0.640484251968504
 30
0.0
 10
1.0421574803149607
 20
0.640484251968504
 30
0.0
 10
1.0421574803149607
 20
0.640484251968504
 30
0.0
 10
1.0421574803149607
 20
0.640484251968504
 30
0.0
 10
1.0455826771653545
 20
0.6351811023622047
 30
0.0
 10
1.0455826771653545
 20
0.6351811023622047
 30
0.0
 10
1.0455826771653545
 20
0.6351811023622047
 30
0.0
 10
1.0455826771653545
 20
0.6351811023622047
 30
0.0
 10
1.0493779527559055
 20
0.629976377952756
 30
0.0
 10
1.0493779527559055
 20
0.629976377952756
 30
0.0
 10
1.0493779527559055
 20
0.629976377952756
 30
0.0
 10
1.0493779527559055
 20
0.629976377952756
 30
0.0
 10
1.0535551181102363
 20
0.6248779527559055
 30
0.0
 10
1.0535551181102363
 20
0.6248779527559055
 30
0.0
  0
SPLINE
  5
4B
100
AcDbEntity
  8
P1-Layer 1
 62
     9
100
AcDbSpline
210
0.0
220
0.0
230
1.0
 70
     1
 71
     3
 72
    84
 73
    80
 74
     0
 42
0.0000000001
 43
0.0000000001
 40
0.0
 40
0.0
 40
0.0
 40
0.0
 40
0.05
 40
0.05
 40
0.05
 40
0.05
 40
0.1
 40
0.1
 40
0.1
 40
0.1
 40
0.15
 40
0.15
 40
0.15
 40
0.15
 40
0.2
 40
0.2
 40
0.2
 40
0.2
 40
0.25
 40
0.25
 40
0.25
 40
0.25
 40
0.3
 40
0.3
 40
0.3
 40
0.3
 40
0.35
 40
0.35
 40
0.35
 40
0.35
 40
0.4
 40
0.4
 40
0.4
 40
0.4
 40
0.45
 40
0.45
 40
0.45
 40
0.45
 40
0.4999999999999999
 40
0.4999999999999999
 40
0.4999999999999999
 40
0.4999999999999999
 40
0.5499999999999999
 40
0.5499999999999999
 40
0.5499999999999999
 40
0.5499999999999999
 40
0.6
 40
0.6
 40
0.6
 40
0.6
 40
0.65
 40
0.65
 40
0.65
 40
0.65
 40
0.7000000000000001
 40
0.7000000000000001
 40
0.7000000000000001
 40
0.7000000000000001
 40
0.7500000000000001
 40
0.7500000000000001
 40
0.7500000000000001
 40
0.7500000000000001
 40
0.8000000000000002
 40
0.8000000000000002
 40
0.8000000000000002
 40
0.8000000000000002
 40
0.8500000000000002
 40
0.8500000000000002
 40
0.8500000000000002
 40
0.8500000000000002
 40
0.9000000000000002
 40
0.9000000000000002
 40
0.9000000000000002
 40
0.9000000000000002
 40
0.9500000000000003
 40
0.9500000000000003
 40
0.9500000000000003
 40
0.9500000000000003
 40
1.0
 40
1.0
 40
1.0
 40
1.0
 10
1.0296338582677165
 20
0.6676535433070866
 30
0.0
 10
1.0296338582677165
 20
0.6676535433070866
 30
0.0
 10
1.6884173228346457
 20
1.0411023622047244
 30
0.0
 10
1.6884173228346457
 20
1.0411023622047244
 30
0.0
 10
1.6884173228346457
 20
1.0411023622047244
 30
0.0
 10
1.6884173228346457
 20
1.0411023622047244
 30
0.0
 10
1.6866653543307086
 20
1.0465157480314962
 30
0.0
 10
1.6866653543307086
 20
1.0465157480314962
 30
0.0
 10
1.6866653543307086
 20
1.0465157480314962
 30
0.0
 10
1.6866653543307086
 20
1.0465157480314962
 30
0.0
 10
1.6850905511811025
 20
1.0518661417322834
 30
0.0
 10
1.6850905511811025
 20
1.0518661417322834
 30
0.0
 10
1.6850905511811025
 20
1.0518661417322834
 30
0.0
 10
1.6850905511811025
 20
1.0518661417322834
 30
0.0
 10
1.6836929133858269
 20
1.0571377952755905
 30
0.0
 10
1.6836929133858269
 20
1.0571377952755905
 30
0.0
 10
1.6836929133858269
 20
1.0571377952755905
 30
0.0
 10
1.6836929133858269
 20
1.0571377952755905
 30
0.0
 10
1.6824251968503938
 20
1.0623070866141733
 30
0.0
 10
1.6824251968503938
 20
1.0623070866141733
 30
0.0
 10
1.6824251968503938
 20
1.0623070866141733
 30
0.0
 10
1.6824251968503938
 20
1.0623070866141733
 30
0.0
 10
1.6812834645669292
 20
1.0673582677165354
 30
0.0
 10
1.6812834645669292
 20
1.0673582677165354
 30
0.0
 10
1.6812834645669292
 20
1.0673582677165354
 30
0.0
 10
1.6812834645669292
 20
1.0673582677165354
 30
0.0
 10
1.680224409448819
 20
1.072255905511811
 30
0.0
 10
1.680224409448819
 20
1.072255905511811
 30
0.0
 10
1.680224409448819
 20
1.072255905511811
 30
0.0
 10
1.680224409448819
 20
1.072255905511811
 30
0.0
 10
1.6792362204724409
 20
1.0769921259842521
 30
0.0
 10
1.6792362204724409
 20
1.0769921259842521
 30
0.0
 10
1.6792362204724409
 20
1.0769921259842521
 30
0.0
 10
1.6792362204724409
 20
1.0769921259842521
 30
0.0
 10
1.6782834645669291
 20
1.0815354330708662
 30
0.0
 10
1.6782834645669291
 20
1.0815354330708662
 30
0.0
 10
1.6782834645669291
 20
1.0815354330708662
 30
0.0
 10
1.6782834645669291
 20
1.0815354330708662
 30
0.0
 10
1.6773543307086616
 20
1.0858661417322835
 30
0.0
 10
1.6773543307086616
 20
1.0858661417322835
 30
0.0
 10
1.6773543307086616
 20
1.0858661417322835
 30
0.0
 10
1.6773543307086616
 20
1.0858661417322835
 30
0.0
 10
1.0185708661417323
 20
0.7124173228346457
 30
0.0
 10
1.0185708661417323
 20
0.7124173228346457
 30
0.0
 10
1.0185708661417323
 20
0.7124173228346457
 30
0.0
 10
1.0185708661417323
 20
0.7124173228346457
 30
0.0
 10
1.0195000000000001
 20
0.7080866141732284
 30
0.0
 10
1.0195000000000001
 20
0.7080866141732284
 30
0.0
 10
1.0195000000000001
 20
0.7080866141732284
 30
0.0
 10
1.0195000000000001
 20
0.7080866141732284
 30
0.0
 10
1.0204527559055119
 20
0.7035433070866142
 30
0.0
 10
1.0204527559055119
 20
0.7035433070866142
 30
0.0
 10
1.0204527559055119
 20
0.7035433070866142
 30
0.0
 10
1.0204527559055119
 20
0.7035433070866142
 30
0.0
 10
1.0214409448818897
 20
0.6988070866141732
 30
0.0
 10
1.0214409448818897
 20
0.6988070866141732
 30
0.0
 10
1.0214409448818897
 20
0.6988070866141732
 30
0.0
 10
1.0214409448818897
 20
0.6988070866141732
 30
0.0
 10
1.0225
 20
0.6939094488188977
 30
0.0
 10
1.0225
 20
0.6939094488188977
 30
0.0
 10
1.0225
 20
0.6939094488188977
 30
0.0
 10
1.0225
 20
0.6939094488188977
 30
0.0
 10
1.0236417322834646
 20
0.6888582677165355
 30
0.0
 10
1.0236417322834646
 20
0.6888582677165355
 30
0.0
 10
1.0236417322834646
 20
0.6888582677165355
 30
0.0
 10
1.0236417322834646
 20
0.6888582677165355
 30
0.0
 10
1.0249094488188977
 20
0.6836889763779528
 30
0.0
 10
1.0249094488188977
 20
0.6836889763779528
 30
0.0
 10
1.0249094488188977
 20
0.6836889763779528
 30
0.0
 10
1.0249094488188977
 20
0.6836889763779528
 30
0.0
 10
1.0263070866141732
 20
0.6784173228346457
 30
0.0
 10
1.0263070866141732
 20
0.6784173228346457
 30
0.0
 10
1.0263070866141732
 20
0.6784173228346457
 30
0.0
 10
1.0263070866141732
 20
0.6784173228346457
 30
0.0
 10
1.0278818897637796
 20
0.6730669291338582
 30
0.0
 10
1.0278818897637796
 20
0.6730669291338582
 30
0.0
 10
1.0278818897637796
 20
0.6730669291338582
 30
0.0
 10
1.0278818897637796
 20
0.6730669291338582
 30
0.0
 10
1.0296338582677165
 20
0.6676535433070866
 30
0.0
 10
1.0296338582677165
 20
0.6676535433070866
 30
0.0
  0
SPLINE
  5
4C
100
AcDbEntity
  8
P1-Layer 1
370
     5
100
AcDbSpline
210
0.0
220
0.0
230
1.0
 70
     1
 71
     3
 72
   268
 73
   264
 74
     0
 42
0.0000000001
 43
0.0000000001
 40
0.0
 40
0.0
 40
0.0
 40
0.0
 40
0.0151515151515152
 40
0.0151515151515152
 40
0.0151515151515152
 40
0.0151515151515152
 40
0.0303030303030303
 40
0.0303030303030303
 40
0.0303030303030303
 40
0.0303030303030303
 40
0.0454545454545455
 40
0.0454545454545455
 40
0.0454545454545455
 40
0.0454545454545455
 40
0.0606060606060606
 40
0.0606060606060606
 40
0.0606060606060606
 40
0.0606060606060606
 40
0.0757575757575758
 40
0.0757575757575758
 40
0.0757575757575758
 40
0.0757575757575758
 40
0.0909090909090909
 40
0.0909090909090909
 40
0.0909090909090909
 40
0.0909090909090909
 40
0.1060606060606061
 40
0.1060606060606061
 40
0.1060606060606061
 40
0.1060606060606061
 40
0.1212121212121212
 40
0.1212121212121212
 40
0.1212121212121212
 40
0.1212121212121212
 40
0.1363636363636364
 40
0.1363636363636364
 40
0.1363636363636364
 40
0.1363636363636364
 40
0.1515151515151515
 40
0.1515151515151515
 40
0.1515151515151515
 40
0.1515151515151515
 40
0.1666666666666666
 40
0.1666666666666666
 40
0.1666666666666666
 40
0.1666666666666666
 40
0.1818181818181818
 40
0.1818181818181818
 40
0.1818181818181818
 40
0.1818181818181818
 40
0.1969696969696969
 40
0.1969696969696969
 40
0.1969696969696969
 40
0.1969696969696969
 40
0.212121212121212
 40
0.212121212121212
 40
0.212121212121212
 40
0.212121212121212
 40
0.2272727272727272
 40
0.2272727272727272
 40
0.2272727272727272
 40
0.2272727272727272
 40
0.2424242424242423
 40
0.2424242424242423
 40
0.2424242424242423
 40
0.2424242424242423
 40
0.2575757575757575
 40
0.2575757575757575
 40
0.2575757575757575
 40
0.2575757575757575
 40
0.2727272727272726
 40
0.2727272727272726
 40
0.2727272727272726
 40
0.2727272727272726
 40
0.2878787878787877
 40
0.2878787878787877
 40
0.2878787878787877
 40
0.2878787878787877
 40
0.3030303030303029
 40
0.3030303030303029
 40
0.3030303030303029
 40
0.3030303030303029
 40
0.318181818181818
 40
0.318181818181818
 40
0.318181818181818
 40
0.318181818181818
 40
0.3333333333333332
 40
0.3333333333333332
 40
0.3333333333333332
 40
0.3333333333333332
 40
0.3484848484848483
 40
0.3484848484848483
 40
0.3484848484848483
 40
0.3484848484848483
 40
0.3636363636363634
 40
0.3636363636363634
 40
0.3636363636363634
 40
0.3636363636363634
 40
0.3787878787878786
 40
0.3787878787878786
 40
0.3787878787878786
 40
0.3787878787878786
 40
0.3939393939393937
 40
0.3939393939393937
 40
0.3939393939393937
 40
0.3939393939393937
 40
0.4090909090909088
 40
0.4090909090909088
 40
0.4090909090909088
 40
0.4090909090909088
 40
0.424242424242424
 40
0.424242424242424
 40
0.424242424242424
 40
0.424242424242424
 40
0.4393939393939391
 40
0.4393939393939391
 40
0.4393939393939391
 40
0.4393939393939391
 40
0.4545454545454543
 40
0.4545454545454543
 40
0.4545454545454543
 40
0.4545454545454543
 40
0.4696969696969694
 40
0.4696969696969694
 40
0.4696969696969694
 40
0.4696969696969694
 40
0.4848484848484845
 40
0.4848484848484845
 40
0.4848484848484845
 40
0.4848484848484845
 40
0.4999999999999997
 40
0.4999999999999997
 40
0.4999999999999997
 40
0.4999999999999997
 40
0.5151515151515148
 40
0.5151515151515148
 40
0.5151515151515148
 40
0.5151515151515148
 40
0.5303030303030299
 40
0.5303030303030299
 40
0.5303030303030299
 40
0.5303030303030299
 40
0.5454545454545451
 40
0.5454545454545451
 40
0.5454545454545451
 40
0.5454545454545451
 40
0.5606060606060602
 40
0.5606060606060602
 40
0.5606060606060602
 40
0.5606060606060602
 40
0.5757575757575754
 40
0.5757575757575754
 40
0.5757575757575754
 40
0.5757575757575754
 40
0.5909090909090905
 40
0.5909090909090905
 40
0.5909090909090905
 40
0.5909090909090905
 40
0.6060606060606056
 40
0.6060606060606056
 40
0.6060606060606056
 40
0.6060606060606056
 40
0.6212121212121208
 40
0.6212121212121208
 40
0.6212121212121208
 40
0.6212121212121208
 40
0.6363636363636359
 40
0.6363636363636359
 40
0.6363636363636359
 40
0.6363636363636359
 40
0.6515151515151511
 40
0.6515151515151511
 40
0.6515151515151511
 40
0.6515151515151511
 40
0.6666666666666662
 40
0.6666666666666662
 40
0.6666666666666662
 40
0.6666666666666662
 40
0.6818181818181813
 40
0.6818181818181813
 40
0.6818181818181813
 40
0.6818181818181813
 40
0.6969696969696965
 40
0.6969696969696965
 40
0.6969696969696965
 40
0.6969696969696965
 40
0.7121212121212116
 40
0.7121212121212116
 40
0.7121212121212116
 40
0.7121212121212116
 40
0.7272727272727267
 40
0.7272727272727267
 40
0.7272727272727267
 40
0.7272727272727267
 40
0.7424242424242419
 40
0.7424242424242419
 40
0.7424242424242419
 40
0.7424242424242419
 40
0.757575757575757
 40
0.757575757575757
 40
0.757575757575757
 40
0.757575757575757
 40
0.7727272727272722
 40
0.7727272727272722
 40
0.7727272727272722
 40
0.7727272727272722
 40
0.7878787878787873
 40
0.7878787878787873
 40
0.7878787878787873
 40
0.7878787878787873
 40
0.8030303030303024
 40
0.8030303030303024
 40
0.8030303030303024
 40
0.8030303030303024
 40
0.8181818181818176
 40
0.8181818181818176
 40
0.8181818181818176
 40
0.8181818181818176
 40
0.8333333333333327
 40
0.8333333333333327
 40
0.8333333333333327
 40
0.8333333333333327
 40
0.8484848484848478
 40
0.8484848484848478
 40
0.8484848484848478
 40
0.8484848484848478
 40
0.863636363636363
 40
0.863636363636363
 40
0.863636363636363
 40
0.863636363636363
 40
0.8787878787878781
 40
0.8787878787878781
 40
0.8787878787878781
 40
0.8787878787878781
 40
0.8939393939393933
 40
0.8939393939393933
 40
0.8939393939393933
 40
0.8939393939393933
 40
0.9090909090909084
 40
0.9090909090909084
 40
0.9090909090909084
 40
0.9090909090909084
 40
0.9242424242424235
 40
0.9242424242424235
 40
0.9242424242424235
 40
0.9242424242424235
 40
0.9393939393939387
 40
0.9393939393939387
 40
0.9393939393939387
 40
0.9393939393939387
 40
0.9545454545454538
 40
0.9545454545454538
 40
0.9545454545454538
 40
0.9545454545454538
 40
0.969696969696969
 40
0.969696969696969
 40
0.969696969696969
 40
0.969696969696969
 40
0.9848484848484841
 40
0.9848484848484841
 40
0.9848484848484841
 40
0.9848484848484841
 40
1.0
 40
1.0
 40
1.0
 40
1.0
 10
1.1801102362204725
 20
0.5775236220472442
 30
0.0
 10
1.1801102362204725
 20
0.5775236220472442
 30
0.0
 10
1.8388937007874016
 20
0.950972440944882
 30
0.0
 10
1.8388937007874016
 20
0.950972440944882
 30
0.0
 10
1.8388937007874016
 20
0.950972440944882
 30
0.0
 10
1.8388937007874016
 20
0.950972440944882
 30
0.0
 10
1.8258543307086614
 20
0.9516653543307087
 30
0.0
 10
1.8258543307086614
 20
0.9516653543307087
 30
0.0
 10
1.8258543307086614
 20
0.9516653543307087
 30
0.0
 10
1.8258543307086614
 20
0.9516653543307087
 30
0.0
 10
1.8135826771653545
 20
0.9528110236220473
 30
0.0
 10
1.8135826771653545
 20
0.9528110236220473
 30
0.0
 10
1.8135826771653545
 20
0.9528110236220473
 30
0.0
 10
1.8135826771653545
 20
0.9528110236220473
 30
0.0
 10
1.8020472440944884
 20
0.9543779527559055
 30
0.0
 10
1.8020472440944884
 20
0.9543779527559055
 30
0.0
 10
1.8020472440944884
 20
0.9543779527559055
 30
0.0
 10
1.8020472440944884
 20
0.9543779527559055
 30
0.0
 10
1.791236220472441
 20
0.9563543307086615
 30
0.0
 10
1.791236220472441
 20
0.9563543307086615
 30
0.0
 10
1.791236220472441
 20
0.9563543307086615
 30
0.0
 10
1.791236220472441
 20
0.9563543307086615
 30
0.0
 10
1.7811102362204725
 20
0.9587047244094489
 30
0.0
 10
1.7811102362204725
 20
0.9587047244094489
 30
0.0
 10
1.7811102362204725
 20
0.9587047244094489
 30
0.0
 10
1.7811102362204725
 20
0.9587047244094489
 30
0.0
 10
1.7716535433070866
 20
0.9614173228346458
 30
0.0
 10
1.7716535433070866
 20
0.9614173228346458
 30
0.0
 10
1.7716535433070866
 20
0.9614173228346458
 30
0.0
 10
1.7716535433070866
 20
0.9614173228346458
 30
0.0
 10
1.7628346456692914
 20
0.9644645669291339
 30
0.0
 10
1.7628346456692914
 20
0.9644645669291339
 30
0.0
 10
1.7628346456692914
 20
0.9644645669291339
 30
0.0
 10
1.7628346456692914
 20
0.9644645669291339
 30
0.0
 10
1.7546338582677166
 20
0.9678307086614174
 30
0.0
 10
1.7546338582677166
 20
0.9678307086614174
 30
0.0
 10
1.7546338582677166
 20
0.9678307086614174
 30
0.0
 10
1.7546338582677166
 20
0.9678307086614174
 30
0.0
 10
1.7470118110236221
 20
0.9714803149606299
 30
0.0
 10
1.7470118110236221
 20
0.9714803149606299
 30
0.0
 10
1.7470118110236221
 20
0.9714803149606299
 30
0.0
 10
1.7470118110236221
 20
0.9714803149606299
 30
0.0
 10
1.7399685039370079
 20
0.9754055118110236
 30
0.0
 10
1.7399685039370079
 20
0.9754055118110236
 30
0.0
 10
1.7399685039370079
 20
0.9754055118110236
 30
0.0
 10
1.7399685039370079
 20
0.9754055118110236
 30
0.0
 10
1.7334566929133859
 20
0.9795787401574804
 30
0.0
 10
1.7334566929133859
 20
0.9795787401574804
 30
0.0
 10
1.7334566929133859
 20
0.9795787401574804
 30
0.0
 10
1.7334566929133859
 20
0.9795787401574804
 30
0.0
 10
1.7274724409448821
 20
0.9839842519685039
 30
0.0
 10
1.7274724409448821
 20
0.9839842519685039
 30
0.0
 10
1.7274724409448821
 20
0.9839842519685039
 30
0.0
 10
1.7274724409448821
 20
0.9839842519685039
 30
0.0
 10
1.7219645669291339
 20
0.9885866141732284
 30
0.0
 10
1.7219645669291339
 20
0.9885866141732284
 30
0.0
 10
1.7219645669291339
 20
0.9885866141732284
 30
0.0
 10
1.7219645669291339
 20
0.9885866141732284
 30
0.0
 10
1.7169330708661419
 20
0.9933779527559056
 30
0.0
 10
1.7169330708661419
 20
0.9933779527559056
 30
0.0
 10
1.7169330708661419
 20
0.9933779527559056
 30
0.0
 10
1.7169330708661419
 20
0.9933779527559056
 30
0.0
 10
1.7123385826771653
 20
0.9983267716535433
 30
0.0
 10
1.7123385826771653
 20
0.9983267716535433
 30
0.0
 10
1.7123385826771653
 20
0.9983267716535433
 30
0.0
 10
1.7123385826771653
 20
0.9983267716535433
 30
0.0
 10
1.7081614173228348
 20
1.0034251968503938
 30
0.0
 10
1.7081614173228348
 20
1.0034251968503938
 30
0.0
 10
1.7081614173228348
 20
1.0034251968503938
 30
0.0
 10
1.7081614173228348
 20
1.0034251968503938
 30
0.0
 10
1.7043661417322835
 20
1.0086299212598426
 30
0.0
 10
1.7043661417322835
 20
1.0086299212598426
 30
0.0
 10
1.7043661417322835
 20
1.0086299212598426
 30
0.0
 10
1.7043661417322835
 20
1.0086299212598426
 30
0.0
 10
1.7009409448818897
 20
1.0139330708661418
 30
0.0
 10
1.7009409448818897
 20
1.0139330708661418
 30
0.0
 10
1.7009409448818897
 20
1.0139330708661418
 30
0.0
 10
1.7009409448818897
 20
1.0139330708661418
 30
0.0
 10
1.6978543307086615
 20
1.0193070866141734
 30
0.0
 10
1.6978543307086615
 20
1.0193070866141734
 30
0.0
 10
1.6978543307086615
 20
1.0193070866141734
 30
0.0
 10
1.6978543307086615
 20
1.0193070866141734
 30
0.0
 10
1.6950866141732284
 20
1.0247362204724411
 30
0.0
 10
1.6950866141732284
 20
1.0247362204724411
 30
0.0
 10
1.6950866141732284
 20
1.0247362204724411
 30
0.0
 10
1.6950866141732284
 20
1.0247362204724411
 30
0.0
 10
1.6926062992125985
 20
1.0301889763779528
 30
0.0
 10
1.6926062992125985
 20
1.0301889763779528
 30
0.0
 10
1.6926062992125985
 20
1.0301889763779528
 30
0.0
 10
1.6926062992125985
 20
1.0301889763779528
 30
0.0
 10
1.6903937007874017
 20
1.0356535433070866
 30
0.0
 10
1.6903937007874017
 20
1.0356535433070866
 30
0.0
 10
1.6903937007874017
 20
1.0356535433070866
 30
0.0
 10
1.6903937007874017
 20
1.0356535433070866
 30
0.0
 10
1.6884173228346457
 20
1.0411023622047244
 30
0.0
 10
1.6884173228346457
 20
1.0411023622047244
 30
0.0
 10
1.6884173228346457
 20
1.0411023622047244
 30
0.0
 10
1.6884173228346457
 20
1.0411023622047244
 30
0.0
 10
1.6866653543307086
 20
1.0465157480314962
 30
0.0
 10
1.6866653543307086
 20
1.0465157480314962
 30
0.0
 10
1.6866653543307086
 20
1.0465157480314962
 30
0.0
 10
1.6866653543307086
 20
1.0465157480314962
 30
0.0
 10
1.6850905511811025
 20
1.0518661417322834
 30
0.0
 10
1.6850905511811025
 20
1.0518661417322834
 30
0.0
 10
1.6850905511811025
 20
1.0518661417322834
 30
0.0
 10
1.6850905511811025
 20
1.0518661417322834
 30
0.0
 10
1.6836929133858269
 20
1.0571377952755905
 30
0.0
 10
1.6836929133858269
 20
1.0571377952755905
 30
0.0
 10
1.6836929133858269
 20
1.0571377952755905
 30
0.0
 10
1.6836929133858269
 20
1.0571377952755905
 30
0.0
 10
1.6824251968503938
 20
1.0623070866141733
 30
0.0
 10
1.6824251968503938
 20
1.0623070866141733
 30
0.0
 10
1.6824251968503938
 20
1.0623070866141733
 30
0.0
 10
1.6824251968503938
 20
1.0623070866141733
 30
0.0
 10
1.6812834645669292
 20
1.0673582677165354
 30
0.0
 10
1.6812834645669292
 20
1.0673582677165354
 30
0.0
 10
1.6812834645669292
 20
1.0673582677165354
 30
0.0
 10
1.6812834645669292
 20
1.0673582677165354
 30
0.0
 10
1.680224409448819
 20
1.072255905511811
 30
0.0
 10
1.680224409448819
 20
1.072255905511811
 30
0.0
 10
1.680224409448819
 20
1.072255905511811
 30
0.0
 10
1.680224409448819
 20
1.072255905511811
 30
0.0
 10
1.6792362204724409
 20
1.0769921259842521
 30
0.0
 10
1.6792362204724409
 20
1.0769921259842521
 30
0.0
 10
1.6792362204724409
 20
1.0769921259842521
 30
0.0
 10
1.6792362204724409
 20
1.0769921259842521
 30
0.0
 10
1.6782834645669291
 20
1.0815354330708662
 30
0.0
 10
1.6782834645669291
 20
1.0815354330708662
 30
0.0
 10
1.6782834645669291
 20
1.0815354330708662
 30
0.0
 10
1.6782834645669291
 20
1.0815354330708662
 30
0.0
 10
1.6773543307086616
 20
1.0858661417322835
 30
0.0
 10
1.6773543307086616
 20
1.0858661417322835
 30
0.0
 10
1.6773543307086616
 20
1.0858661417322835
 30
0.0
 10
1.6773543307086616
 20
1.0858661417322835
 30
0.0
 10
1.0185708661417323
 20
0.7124173228346457
 30
0.0
 10
1.0185708661417323
 20
0.7124173228346457
 30
0.0
 10
1.0185708661417323
 20
0.7124173228346457
 30
0.0
 10
1.0185708661417323
 20
0.7124173228346457
 30
0.0
 10
1.0195000000000001
 20
0.7080866141732284
 30
0.0
 10
1.0195000000000001
 20
0.7080866141732284
 30
0.0
 10
1.0195000000000001
 20
0.7080866141732284
 30
0.0
 10
1.0195000000000001
 20
0.7080866141732284
 30
0.0
 10
1.0204527559055119
 20
0.7035433070866142
 30
0.0
 10
1.0204527559055119
 20
0.7035433070866142
 30
0.0
 10
1.0204527559055119
 20
0.7035433070866142
 30
0.0
 10
1.0204527559055119
 20
0.7035433070866142
 30
0.0
 10
1.0214409448818897
 20
0.6988070866141732
 30
0.0
 10
1.0214409448818897
 20
0.6988070866141732
 30
0.0
 10
1.0214409448818897
 20
0.6988070866141732
 30
0.0
 10
1.0214409448818897
 20
0.6988070866141732
 30
0.0
 10
1.0225
 20
0.6939094488188977
 30
0.0
 10
1.0225
 20
0.6939094488188977
 30
0.0
 10
1.0225
 20
0.6939094488188977
 30
0.0
 10
1.0225
 20
0.6939094488188977
 30
0.0
 10
1.0236417322834646
 20
0.6888582677165355
 30
0.0
 10
1.0236417322834646
 20
0.6888582677165355
 30
0.0
 10
1.0236417322834646
 20
0.6888582677165355
 30
0.0
 10
1.0236417322834646
 20
0.6888582677165355
 30
0.0
 10
1.0249094488188977
 20
0.6836889763779528
 30
0.0
 10
1.0249094488188977
 20
0.6836889763779528
 30
0.0
 10
1.0249094488188977
 20
0.6836889763779528
 30
0.0
 10
1.0249094488188977
 20
0.6836889763779528
 30
0.0
 10
1.0263070866141732
 20
0.6784173228346457
 30
0.0
 10
1.0263070866141732
 20
0.6784173228346457
 30
0.0
 10
1.0263070866141732
 20
0.6784173228346457
 30
0.0
 10
1.0263070866141732
 20
0.6784173228346457
 30
0.0
 10
1.0278818897637796
 20
0.6730669291338582
 30
0.0
 10
1.0278818897637796
 20
0.6730669291338582
 30
0.0
 10
1.0278818897637796
 20
0.6730669291338582
 30
0.0
 10
1.0278818897637796
 20
0.6730669291338582
 30
0.0
 10
1.0296338582677165
 20
0.6676535433070866
 30
0.0
 10
1.0296338582677165
 20
0.6676535433070866
 30
0.0
 10
1.0296338582677165
 20
0.6676535433070866
 30
0.0
 10
1.0296338582677165
 20
0.6676535433070866
 30
0.0
 10
1.0316102362204724
 20
0.6622047244094489
 30
0.0
 10
1.0316102362204724
 20
0.6622047244094489
 30
0.0
 10
1.0316102362204724
 20
0.6622047244094489
 30
0.0
 10
1.0316102362204724
 20
0.6622047244094489
 30
0.0
 10
1.0338228346456693
 20
0.656740157480315
 30
0.0
 10
1.0338228346456693
 20
0.656740157480315
 30
0.0
 10
1.0338228346456693
 20
0.656740157480315
 30
0.0
 10
1.0338228346456693
 20
0.656740157480315
 30
0.0
 10
1.0363031496062993
 20
0.6512874015748031
 30
0.0
 10
1.0363031496062993
 20
0.6512874015748031
 30
0.0
 10
1.0363031496062993
 20
0.6512874015748031
 30
0.0
 10
1.0363031496062993
 20
0.6512874015748031
 30
0.0
 10
1.0390708661417323
 20
0.6458582677165354
 30
0.0
 10
1.0390708661417323
 20
0.6458582677165354
 30
0.0
 10
1.0390708661417323
 20
0.6458582677165354
 30
0.0
 10
1.0390708661417323
 20
0.6458582677165354
 30
0.0
 10
1.0421574803149607
 20
0.640484251968504
 30
0.0
 10
1.0421574803149607
 20
0.640484251968504
 30
0.0
 10
1.0421574803149607
 20
0.640484251968504
 30
0.0
 10
1.0421574803149607
 20
0.640484251968504
 30
0.0
 10
1.0455826771653545
 20
0.6351811023622047
 30
0.0
 10
1.0455826771653545
 20
0.6351811023622047
 30
0.0
 10
1.0455826771653545
 20
0.6351811023622047
 30
0.0
 10
1.0455826771653545
 20
0.6351811023622047
 30
0.0
 10
1.0493779527559055
 20
0.629976377952756
 30
0.0
 10
1.0493779527559055
 20
0.629976377952756
 30
0.0
 10
1.0493779527559055
 20
0.629976377952756
 30
0.0
 10
1.0493779527559055
 20
0.629976377952756
 30
0.0
 10
1.0535551181102363
 20
0.6248779527559055
 30
0.0
 10
1.0535551181102363
 20
0.6248779527559055
 30
0.0
 10
1.0535551181102363
 20
0.6248779527559055
 30
0.0
 10
1.0535551181102363
 20
0.6248779527559055
 30
0.0
 10
1.0581496062992126
 20
0.6199291338582678
 30
0.0
 10
1.0581496062992126
 20
0.6199291338582678
 30
0.0
 10
1.0581496062992126
 20
0.6199291338582678
 30
0.0
 10
1.0581496062992126
 20
0.6199291338582678
 30
0.0
 10
1.0631811023622049
 20
0.6151377952755905
 30
0.0
 10
1.0631811023622049
 20
0.6151377952755905
 30
0.0
 10
1.0631811023622049
 20
0.6151377952755905
 30
0.0
 10
1.0631811023622049
 20
0.6151377952755905
 30
0.0
 10
1.0686889763779528
 20
0.6105354330708662
 30
0.0
 10
1.0686889763779528
 20
0.6105354330708662
 30
0.0
 10
1.0686889763779528
 20
0.6105354330708662
 30
0.0
 10
1.0686889763779528
 20
0.6105354330708662
 30
0.0
 10
1.0746732283464568
 20
0.6061299212598426
 30
0.0
 10
1.0746732283464568
 20
0.6061299212598426
 30
0.0
 10
1.0746732283464568
 20
0.6061299212598426
 30
0.0
 10
1.0746732283464568
 20
0.6061299212598426
 30
0.0
 10
1.0811850393700788
 20
0.6019566929133858
 30
0.0
 10
1.0811850393700788
 20
0.6019566929133858
 30
0.0
 10
1.0811850393700788
 20
0.6019566929133858
 30
0.0
 10
1.0811850393700788
 20
0.6019566929133858
 30
0.0
 10
1.0882283464566929
 20
0.5980314960629921
 30
0.0
 10
1.0882283464566929
 20
0.5980314960629921
 30
0.0
 10
1.0882283464566929
 20
0.5980314960629921
 30
0.0
 10
1.0882283464566929
 20
0.5980314960629921
 30
0.0
 10
1.0958503937007875
 20
0.5943818897637796
 30
0.0
 10
1.0958503937007875
 20
0.5943818897637796
 30
0.0
 10
1.0958503937007875
 20
0.5943818897637796
 30
0.0
 10
1.0958503937007875
 20
0.5943818897637796
 30
0.0
 10
1.1040511811023623
 20
0.591015748031496
 30
0.0
 10
1.1040511811023623
 20
0.591015748031496
 30
0.0
 10
1.1040511811023623
 20
0.591015748031496
 30
0.0
 10
1.1040511811023623
 20
0.591015748031496
 30
0.0
 10
1.1128700787401575
 20
0.587968503937008
 30
0.0
 10
1.1128700787401575
 20
0.587968503937008
 30
0.0
 10
1.1128700787401575
 20
0.587968503937008
 30
0.0
 10
1.1128700787401575
 20
0.587968503937008
 30
0.0
 10
1.1223267716535434
 20
0.5852559055118111
 30
0.0
 10
1.1223267716535434
 20
0.5852559055118111
 30
0.0
 10
1.1223267716535434
 20
0.5852559055118111
 30
0.0
 10
1.1223267716535434
 20
0.5852559055118111
 30
0.0
 10
1.1324527559055118
 20
0.5829055118110237
 30
0.0
 10
1.1324527559055118
 20
0.5829055118110237
 30
0.0
 10
1.1324527559055118
 20
0.5829055118110237
 30
0.0
 10
1.1324527559055118
 20
0.5829055118110237
 30
0.0
 10
1.1432637795275591
 20
0.5809291338582677
 30
0.0
 10
1.1432637795275591
 20
0.5809291338582677
 30
0.0
 10
1.1432637795275591
 20
0.5809291338582677
 30
0.0
 10
1.1432637795275591
 20
0.5809291338582677
 30
0.0
 10
1.1547992125984252
 20
0.5793622047244095
 30
0.0
 10
1.1547992125984252
 20
0.5793622047244095
 30
0.0
 10
1.1547992125984252
 20
0.5793622047244095
 30
0.0
 10
1.1547992125984252
 20
0.5793622047244095
 30
0.0
 10
1.1670708661417324
 20
0.5782165354330708
 30
0.0
 10
1.1670708661417324
 20
0.5782165354330708
 30
0.0
 10
1.1670708661417324
 20
0.5782165354330708
 30
0.0
 10
1.1670708661417324
 20
0.5782165354330708
 30
0.0
 10
1.1801102362204725
 20
0.5775236220472442
 30
0.0
 10
1.1801102362204725
 20
0.5775236220472442
 30
0.0
  0
SPLINE
  5
4D
100
AcDbEntity
  8
P1-Layer 1
 62
   252
100
AcDbSpline
210
0.0
220
0.0
230
1.0
 70
     1
 71
     3
 72
    20
 73
    16
 74
     0
 42
0.0000000001
 43
0.0000000001
 40
0.0
 40
0.0
 40
0.0
 40
0.0
 40
0.25
 40
0.25
 40
0.25
 40
0.25
 40
0.5
 40
0.5
 40
0.5
 40
0.5
 40
0.75
 40
0.75
 40
0.75
 40
0.75
 40
1.0
 40
1.0
 40
1.0
 40
1.0
 10
1.0185708661417323
 20
0.7124173228346457
 30
0.0
 10
1.0185708661417323
 20
0.7124173228346457
 30
0.0
 10
1.6773543307086616
 20
1.0858661417322835
 30
0.0
 10
1.6773543307086616
 20
1.0858661417322835
 30
0.0
 10
1.6773543307086616
 20
1.0858661417322835
 30
0.0
 10
1.6773543307086616
 20
1.0858661417322835
 30
0.0
 10
1.605724409448819
 20
1.0858661417322835
 30
0.0
 10
1.605724409448819
 20
1.0858661417322835
 30
0.0
 10
1.605724409448819
 20
1.0858661417322835
 30
0.0
 10
1.605724409448819
 20
1.0858661417322835
 30
0.0
 10
0.9469409448818899
 20
0.7124173228346457
 30
0.0
 10
0.9469409448818899
 20
0.7124173228346457
 30
0.0
 10
0.9469409448818899
 20
0.7124173228346457
 30
0.0
 10
0.9469409448818899
 20
0.7124173228346457
 30
0.0
 10
1.0185708661417323
 20
0.7124173228346457
 30
0.0
 10
1.0185708661417323
 20
0.7124173228346457
 30
0.0
  0
SPLINE
  5
4E
100
AcDbEntity
  8
P1-Layer 1
370
     5
100
AcDbSpline
210
0.0
220
0.0
230
1.0
 70
     1
 71
     3
 72
    20
 73
    16
 74
     0
 42
0.0000000001
 43
0.0000000001
 40
0.0
 40
0.0
 40
0.0
 40
0.0
 40
0.25
 40
0.25
 40
0.25
 40
0.25
 40
0.5
 40
0.5
 40
0.5
 40
0.5
 40
0.75
 40
0.75
 40
0.75
 40
0.75
 40
1.0
 40
1.0
 40
1.0
 40
1.0
 10
1.0185708661417323
 20
0.7124173228346457
 30
0.0
 10
1.0185708661417323
 20
0.7124173228346457
 30
0.0
 10
1.6773543307086616
 20
1.0858661417322835
 30
0.0
 10
1.6773543307086616
 20
1.0858661417322835
 30
0.0
 10
1.6773543307086616
 20
1.0858661417322835
 30
0.0
 10
1.6773543307086616
 20
1.0858661417322835
 30
0.0
 10
1.605724409448819
 20
1.0858661417322835
 30
0.0
 10
1.605724409448819
 20
1.0858661417322835
 30
0.0
 10
1.605724409448819
 20
1.0858661417322835
 30
0.0
 10
1.605724409448819
 20
1.0858661417322835
 30
0.0
 10
0.9469409448818899
 20
0.7124173228346457
 30
0.0
 10
0.9469409448818899
 20
0.7124173228346457
 30
0.0
 10
0.9469409448818899
 20
0.7124173228346457
 30
0.0
 10
0.9469409448818899
 20
0.7124173228346457
 30
0.0
 10
1.0185708661417323
 20
0.7124173228346457
 30
0.0
 10
1.0185708661417323
 20
0.7124173228346457
 30
0.0
  0
SPLINE
  5
4F
100
AcDbEntity
  8
P1-Layer 1
 62
     9
100
AcDbSpline
210
0.0
220
0.0
230
1.0
 70
     1
 71
     3
 72
    20
 73
    16
 74
     0
 42
0.0000000001
 43
0.0000000001
 40
0.0
 40
0.0
 40
0.0
 40
0.0
 40
0.25
 40
0.25
 40
0.25
 40
0.25
 40
0.5
 40
0.5
 40
0.5
 40
0.5
 40
0.75
 40
0.75
 40
0.75
 40
0.75
 40
1.0
 40
1.0
 40
1.0
 40
1.0
 10
0.9469409448818899
 20
0.7124173228346457
 30
0.0
 10
0.9469409448818899
 20
0.7124173228346457
 30
0.0
 10
1.605724409448819
 20
1.0858661417322835
 30
0.0
 10
1.605724409448819
 20
1.0858661417322835
 30
0.0
 10
1.605724409448819
 20
1.0858661417322835
 30
0.0
 10
1.605724409448819
 20
1.0858661417322835
 30
0.0
 10
1.595751968503937
 20
1.147484251968504
 30
0.0
 10
1.595751968503937
 20
1.147484251968504
 30
0.0
 10
1.595751968503937
 20
1.147484251968504
 30
0.0
 10
1.595751968503937
 20
1.147484251968504
 30
0.0
 10
0.9369685039370079
 20
0.7740354330708662
 30
0.0
 10
0.9369685039370079
 20
0.7740354330708662
 30
0.0
 10
0.9369685039370079
 20
0.7740354330708662
 30
0.0
 10
0.9369685039370079
 20
0.7740354330708662
 30
0.0
 10
0.9469409448818899
 20
0.7124173228346457
 30
0.0
 10
0.9469409448818899
 20
0.7124173228346457
 30
0.0
  0
SPLINE
  5
50
100
AcDbEntity
  8
P1-Layer 1
370
     5
100
AcDbSpline
210
0.0
220
0.0
230
1.0
 70
     1
 71
     3
 72
    20
 73
    16
 74
     0
 42
0.0000000001
 43
0.0000000001
 40
0.0
 40
0.0
 40
0.0
 40
0.0
 40
0.25
 40
0.25
 40
0.25
 40
0.25
 40
0.5
 40
0.5
 40
0.5
 40
0.5
 40
0.75
 40
0.75
 40
0.75
 40
0.75
 40
1.0
 40
1.0
 40
1.0
 40
1.0
 10
0.9469409448818899
 20
0.7124173228346457
 30
0.0
 10
0.9469409448818899
 20
0.7124173228346457
 30
0.0
 10
1.605724409448819
 20
1.0858661417322835
 30
0.0
 10
1.605724409448819
 20
1.0858661417322835
 30
0.0
 10
1.605724409448819
 20
1.0858661417322835
 30
0.0
 10
1.605724409448819
 20
1.0858661417322835
 30
0.0
 10
1.595751968503937
 20
1.147484251968504
 30
0.0
 10
1.595751968503937
 20
1.147484251968504
 30
0.0
 10
1.595751968503937
 20
1.147484251968504
 30
0.0
 10
1.595751968503937
 20
1.147484251968504
 30
0.0
 10
0.9369685039370079
 20
0.7740354330708662
 30
0.0
 10
0.9369685039370079
 20
0.7740354330708662
 30
0.0
 10
0.9369685039370079
 20
0.7740354330708662
 30
0.0
 10
0.9369685039370079
 20
0.7740354330708662
 30
0.0
 10
0.9469409448818899
 20
0.7124173228346457
 30
0.0
 10
0.9469409448818899
 20
0.7124173228346457
 30
0.0
  0
SPLINE
  5
51
100
AcDbEntity
  8
P1-Layer 1
 62
   252
100
AcDbSpline
210
0.0
220
0.0
230
1.0
 70
     1
 71
     3
 72
    44
 73
    40
 74
     0
 42
0.0000000001
 43
0.0000000001
 40
0.0
 40
0.0
 40
0.0
 40
0.0
 40
0.1
 40
0.1
 40
0.1
 40
0.1
 40
0.2
 40
0.2
 40
0.2
 40
0.2
 40
0.3
 40
0.3
 40
0.3
 40
0.3
 40
0.4
 40
0.4
 40
0.4
 40
0.4
 40
0.5
 40
0.5
 40
0.5
 40
0.5
 40
0.6
 40
0.6
 40
0.6
 40
0.6
 40
0.7
 40
0.7
 40
0.7
 40
0.7
 40
0.7999999999999999
 40
0.7999999999999999
 40
0.7999999999999999
 40
0.7999999999999999
 40
0.8999999999999999
 40
0.8999999999999999
 40
0.8999999999999999
 40
0.8999999999999999
 40
1.0
 40
1.0
 40
1.0
 40
1.0
 10
0.9369685039370079
 20
0.7740354330708662
 30
0.0
 10
0.9369685039370079
 20
0.7740354330708662
 30
0.0
 10
1.595751968503937
 20
1.147484251968504
 30
0.0
 10
1.595751968503937
 20
1.147484251968504
 30
0.0
 10
1.595751968503937
 20
1.147484251968504
 30
0.0
 10
1.595751968503937
 20
1.147484251968504
 30
0.0
 10
1.5946535433070868
 20
1.147484251968504
 30
0.0
 10
1.5946535433070868
 20
1.147484251968504
 30
0.0
 10
1.5946535433070868
 20
1.147484251968504
 30
0.0
 10
1.5946535433070868
 20
1.147484251968504
 30
0.0
 10
1.5938740157480316
 20
1.147484251968504
 30
0.0
 10
1.5938740157480316
 20
1.147484251968504
 30
0.0
 10
1.5938740157480316
 20
1.147484251968504
 30
0.0
 10
1.5938740157480316
 20
1.147484251968504
 30
0.0
 10
1.5934055118110237
 20
1.147484251968504
 30
0.0
 10
1.5934055118110237
 20
1.147484251968504
 30
0.0
 10
1.5934055118110237
 20
1.147484251968504
 30
0.0
 10
1.5934055118110237
 20
1.147484251968504
 30
0.0
 10
1.593251968503937
 20
1.147484251968504
 30
0.0
 10
1.593251968503937
 20
1.147484251968504
 30
0.0
 10
1.593251968503937
 20
1.147484251968504
 30
0.0
 10
1.593251968503937
 20
1.147484251968504
 30
0.0
 10
0.9344685039370079
 20
0.7740354330708662
 30
0.0
 10
0.9344685039370079
 20
0.7740354330708662
 30
0.0
 10
0.9344685039370079
 20
0.7740354330708662
 30
0.0
 10
0.9344685039370079
 20
0.7740354330708662
 30
0.0
 10
0.9346220472440945
 20
0.7740354330708662
 30
0.0
 10
0.9346220472440945
 20
0.7740354330708662
 30
0.0
 10
0.9346220472440945
 20
0.7740354330708662
 30
0.0
 10
0.9346220472440945
 20
0.7740354330708662
 30
0.0
 10
0.9350905511811024
 20
0.7740354330708662
 30
0.0
 10
0.9350905511811024
 20
0.7740354330708662
 30
0.0
 10
0.9350905511811024
 20
0.7740354330708662
 30
0.0
 10
0.9350905511811024
 20
0.7740354330708662
 30
0.0
 10
0.9358700787401575
 20
0.7740354330708662
 30
0.0
 10
0.9358700787401575
 20
0.7740354330708662
 30
0.0
 10
0.9358700787401575
 20
0.7740354330708662
 30
0.0
 10
0.9358700787401575
 20
0.7740354330708662
 30
0.0
 10
0.9369685039370079
 20
0.7740354330708662
 30
0.0
 10
0.9369685039370079
 20
0.7740354330708662
 30
0.0
  0
SPLINE
  5
52
100
AcDbEntity
  8
P1-Layer 1
370
     5
100
AcDbSpline
210
0.0
220
0.0
230
1.0
 70
     1
 71
     3
 72
    44
 73
    40
 74
     0
 42
0.0000000001
 43
0.0000000001
 40
0.0
 40
0.0
 40
0.0
 40
0.0
 40
0.1
 40
0.1
 40
0.1
 40
0.1
 40
0.2
 40
0.2
 40
0.2
 40
0.2
 40
0.3
 40
0.3
 40
0.3
 40
0.3
 40
0.4
 40
0.4
 40
0.4
 40
0.4
 40
0.5
 40
0.5
 40
0.5
 40
0.5
 40
0.6
 40
0.6
 40
0.6
 40
0.6
 40
0.7
 40
0.7
 40
0.7
 40
0.7
 40
0.7999999999999999
 40
0.7999999999999999
 40
0.7999999999999999
 40
0.7999999999999999
 40
0.8999999999999999
 40
0.8999999999999999
 40
0.8999999999999999
 40
0.8999999999999999
 40
1.0
 40
1.0
 40
1.0
 40
1.0
 10
0.9369685039370079
 20
0.7740354330708662
 30
0.0
 10
0.9369685039370079
 20
0.7740354330708662
 30
0.0
 10
1.595751968503937
 20
1.147484251968504
 30
0.0
 10
1.595751968503937
 20
1.147484251968504
 30
0.0
 10
1.595751968503937
 20
1.147484251968504
 30
0.0
 10
1.595751968503937
 20
1.147484251968504
 30
0.0
 10
1.5946535433070868
 20
1.147484251968504
 30
0.0
 10
1.5946535433070868
 20
1.147484251968504
 30
0.0
 10
1.5946535433070868
 20
1.147484251968504
 30
0.0
 10
1.5946535433070868
 20
1.147484251968504
 30
0.0
 10
1.5938740157480316
 20
1.147484251968504
 30
0.0
 10
1.5938740157480316
 20
1.147484251968504
 30
0.0
 10
1.5938740157480316
 20
1.147484251968504
 30
0.0
 10
1.5938740157480316
 20
1.147484251968504
 30
0.0
 10
1.5934055118110237
 20
1.147484251968504
 30
0.0
 10
1.5934055118110237
 20
1.147484251968504
 30
0.0
 10
1.5934055118110237
 20
1.147484251968504
 30
0.0
 10
1.5934055118110237
 20
1.147484251968504
 30
0.0
 10
1.593251968503937
 20
1.147484251968504
 30
0.0
 10
1.593251968503937
 20
1.147484251968504
 30
0.0
 10
1.593251968503937
 20
1.147484251968504
 30
0.0
 10
1.593251968503937
 20
1.147484251968504
 30
0.0
 10
0.9344685039370079
 20
0.7740354330708662
 30
0.0
 10
0.9344685039370079
 20
0.7740354330708662
 30
0.0
 10
0.9344685039370079
 20
0.7740354330708662
 30
0.0
 10
0.9344685039370079
 20
0.7740354330708662
 30
0.0
 10
0.9346220472440945
 20
0.7740354330708662
 30
0.0
 10
0.9346220472440945
 20
0.7740354330708662
 30
0.0
 10
0.9346220472440945
 20
0.7740354330708662
 30
0.0
 10
0.9346220472440945
 20
0.7740354330708662
 30
0.0
 10
0.9350905511811024
 20
0.7740354330708662
 30
0.0
 10
0.9350905511811024
 20
0.7740354330708662
 30
0.0
 10
0.9350905511811024
 20
0.7740354330708662
 30
0.0
 10
0.9350905511811024
 20
0.7740354330708662
 30
0.0
 10
0.9358700787401575
 20
0.7740354330708662
 30
0.0
 10
0.9358700787401575
 20
0.7740354330708662
 30
0.0
 10
0.9358700787401575
 20
0.7740354330708662
 30
0.0
 10
0.9358700787401575
 20
0.7740354330708662
 30
0.0
 10
0.9369685039370079
 20
0.7740354330708662
 30
0.0
 10
0.9369685039370079
 20
0.7740354330708662
 30
0.0
  0
SPLINE
  5
53
100
AcDbEntity
  8
P1-Layer 1
 62
   252
100
AcDbSpline
210
0.0
220
0.0
230
1.0
 70
     1
 71
     3
 72
    20
 73
    16
 74
     0
 42
0.0000000001
 43
0.0000000001
 40
0.0
 40
0.0
 40
0.0
 40
0.0
 40
0.25
 40
0.25
 40
0.25
 40
0.25
 40
0.5
 40
0.5
 40
0.5
 40
0.5
 40
0.75
 40
0.75
 40
0.75
 40
0.75
 40
1.0
 40
1.0
 40
1.0
 40
1.0
 10
0.9369685039370079
 20
0.7740354330708662
 30
0.0
 10
0.9369685039370079
 20
0.7740354330708662
 30
0.0
 10
1.595751968503937
 20
1.147484251968504
 30
0.0
 10
1.595751968503937
 20
1.147484251968504
 30
0.0
 10
1.595751968503937
 20
1.147484251968504
 30
0.0
 10
1.595751968503937
 20
1.147484251968504
 30
0.0
 10
1.2593503937007875
 20
1.147484251968504
 30
0.0
 10
1.2593503937007875
 20
1.147484251968504
 30
0.0
 10
1.2593503937007875
 20
1.147484251968504
 30
0.0
 10
1.2593503937007875
 20
1.147484251968504
 30
0.0
 10
0.6005669291338583
 20
0.7740354330708662
 30
0.0
 10
0.6005669291338583
 20
0.7740354330708662
 30
0.0
 10
0.6005669291338583
 20
0.7740354330708662
 30
0.0
 10
0.6005669291338583
 20
0.7740354330708662
 30
0.0
 10
0.9369685039370079
 20
0.7740354330708662
 30
0.0
 10
0.9369685039370079
 20
0.7740354330708662
 30
0.0
  0
SPLINE
  5
54
100
AcDbEntity
  8
P1-Layer 1
370
     5
100
AcDbSpline
210
0.0
220
0.0
230
1.0
 70
     1
 71
     3
 72
    20
 73
    16
 74
     0
 42
0.0000000001
 43
0.0000000001
 40
0.0
 40
0.0
 40
0.0
 40
0.0
 40
0.25
 40
0.25
 40
0.25
 40
0.25
 40
0.5
 40
0.5
 40
0.5
 40
0.5
 40
0.75
 40
0.75
 40
0.75
 40
0.75
 40
1.0
 40
1.0
 40
1.0
 40
1.0
 10
0.9369685039370079
 20
0.7740354330708662
 30
0.0
 10
0.9369685039370079
 20
0.7740354330708662
 30
0.0
 10
1.595751968503937
 20
1.147484251968504
 30
0.0
 10
1.595751968503937
 20
1.147484251968504
 30
0.0
 10
1.595751968503937
 20
1.147484251968504
 30
0.0
 10
1.595751968503937
 20
1.147484251968504
 30
0.0
 10
1.2593503937007875
 20
1.147484251968504
 30
0.0
 10
1.2593503937007875
 20
1.147484251968504
 30
0.0
 10
1.2593503937007875
 20
1.147484251968504
 30
0.0
 10
1.2593503937007875
 20
1.147484251968504
 30
0.0
 10
0.6005669291338583
 20
0.7740354330708662
 30
0.0
 10
0.6005669291338583
 20
0.7740354330708662
 30
0.0
 10
0.6005669291338583
 20
0.7740354330708662
 30
0.0
 10
0.6005669291338583
 20
0.7740354330708662
 30
0.0
 10
0.9369685039370079
 20
0.7740354330708662
 30
0.0
 10
0.9369685039370079
 20
0.7740354330708662
 30
0.0
  0
SPLINE
  5
55
100
AcDbEntity
  8
P1-Layer 1
 62
     9
100
AcDbSpline
210
0.0
220
0.0
230
1.0
 70
     1
 71
     3
 72
    20
 73
    16
 74
     0
 42
0.0000000001
 43
0.0000000001
 40
0.0
 40
0.0
 40
0.0
 40
0.0
 40
0.25
 40
0.25
 40
0.25
 40
0.25
 40
0.5
 40
0.5
 40
0.5
 40
0.5
 40
0.75
 40
0.75
 40
0.75
 40
0.75
 40
1.0
 40
1.0
 40
1.0
 40
1.0
 10
0.6005669291338583
 20
0.7740354330708662
 30
0.0
 10
0.6005669291338583
 20
0.7740354330708662
 30
0.0
 10
1.2593503937007875
 20
1.147484251968504
 30
0.0
 10
1.2593503937007875
 20
1.147484251968504
 30
0.0
 10
1.2593503937007875
 20
1.147484251968504
 30
0.0
 10
1.2593503937007875
 20
1.147484251968504
 30
0.0
 10
1.252736220472441
 20
1.2119763779527559
 30
0.0
 10
1.252736220472441
 20
1.2119763779527559
 30
0.0
 10
1.252736220472441
 20
1.2119763779527559
 30
0.0
 10
1.252736220472441
 20
1.2119763779527559
 30
0.0
 10
0.5939527559055119
 20
0.8385275590551181
 30
0.0
 10
0.5939527559055119
 20
0.8385275590551181
 30
0.0
 10
0.5939527559055119
 20
0.8385275590551181
 30
0.0
 10
0.5939527559055119
 20
0.8385275590551181
 30
0.0
 10
0.6005669291338583
 20
0.7740354330708662
 30
0.0
 10
0.6005669291338583
 20
0.7740354330708662
 30
0.0
  0
SPLINE
  5
56
100
AcDbEntity
  8
P1-Layer 1
370
     5
100
AcDbSpline
210
0.0
220
0.0
230
1.0
 70
     1
 71
     3
 72
    20
 73
    16
 74
     0
 42
0.0000000001
 43
0.0000000001
 40
0.0
 40
0.0
 40
0.0
 40
0.0
 40
0.25
 40
0.25
 40
0.25
 40
0.25
 40
0.5
 40
0.5
 40
0.5
 40
0.5
 40
0.75
 40
0.75
 40
0.75
 40
0.75
 40
1.0
 40
1.0
 40
1.0
 40
1.0
 10
0.6005669291338583
 20
0.7740354330708662
 30
0.0
 10
0.6005669291338583
 20
0.7740354330708662
 30
0.0
 10
1.2593503937007875
 20
1.147484251968504
 30
0.0
 10
1.2593503937007875
 20
1.147484251968504
 30
0.0
 10
1.2593503937007875
 20
1.147484251968504
 30
0.0
 10
1.2593503937007875
 20
1.147484251968504
 30
0.0
 10
1.252736220472441
 20
1.2119763779527559
 30
0.0
 10
1.252736220472441
 20
1.2119763779527559
 30
0.0
 10
1.252736220472441
 20
1.2119763779527559
 30
0.0
 10
1.252736220472441
 20
1.2119763779527559
 30
0.0
 10
0.5939527559055119
 20
0.8385275590551181
 30
0.0
 10
0.5939527559055119
 20
0.8385275590551181
 30
0.0
 10
0.5939527559055119
 20
0.8385275590551181
 30
0.0
 10
0.5939527559055119
 20
0.8385275590551181
 30
0.0
 10
0.6005669291338583
 20
0.7740354330708662
 30
0.0
 10
0.6005669291338583
 20
0.7740354330708662
 30
0.0
  0
SPLINE
  5
57
100
AcDbEntity
  8
P1-Layer 1
 62
   252
100
AcDbSpline
210
0.0
220
0.0
230
1.0
 70
     1
 71
     3
 72
    20
 73
    16
 74
     0
 42
0.0000000001
 43
0.0000000001
 40
0.0
 40
0.0
 40
0.0
 40
0.0
 40
0.25
 40
0.25
 40
0.25
 40
0.25
 40
0.5
 40
0.5
 40
0.5
 40
0.5
 40
0.75
 40
0.75
 40
0.75
 40
0.75
 40
1.0
 40
1.0
 40
1.0
 40
1.0
 10
-1.0110118110236221
 20
0.7124173228346457
 30
0.0
 10
-1.0110118110236221
 20
0.7124173228346457
 30
0.0
 10
-0.3522283464566929
 20
1.0858661417322835
 30
0.0
 10
-0.3522283464566929
 20
1.0858661417322835
 30
0.0
 10
-0.3522283464566929
 20
1.0858661417322835
 30
0.0
 10
-0.3522283464566929
 20
1.0858661417322835
 30
0.0
 10
-0.4238582677165355
 20
1.0858661417322835
 30
0.0
 10
-0.4238582677165355
 20
1.0858661417322835
 30
0.0
 10
-0.4238582677165355
 20
1.0858661417322835
 30
0.0
 10
-0.4238582677165355
 20
1.0858661417322835
 30
0.0
 10
-1.0826417322834645
 20
0.7124173228346457
 30
0.0
 10
-1.0826417322834645
 20
0.7124173228346457
 30
0.0
 10
-1.0826417322834645
 20
0.7124173228346457
 30
0.0
 10
-1.0826417322834645
 20
0.7124173228346457
 30
0.0
 10
-1.0110118110236221
 20
0.7124173228346457
 30
0.0
 10
-1.0110118110236221
 20
0.7124173228346457
 30
0.0
  0
SPLINE
  5
58
100
AcDbEntity
  8
P1-Layer 1
370
     5
100
AcDbSpline
210
0.0
220
0.0
230
1.0
 70
     1
 71
     3
 72
    20
 73
    16
 74
     0
 42
0.0000000001
 43
0.0000000001
 40
0.0
 40
0.0
 40
0.0
 40
0.0
 40
0.25
 40
0.25
 40
0.25
 40
0.25
 40
0.5
 40
0.5
 40
0.5
 40
0.5
 40
0.75
 40
0.75
 40
0.75
 40
0.75
 40
1.0
 40
1.0
 40
1.0
 40
1.0
 10
-1.0110118110236221
 20
0.7124173228346457
 30
0.0
 10
-1.0110118110236221
 20
0.7124173228346457
 30
0.0
 10
-0.3522283464566929
 20
1.0858661417322835
 30
0.0
 10
-0.3522283464566929
 20
1.0858661417322835
 30
0.0
 10
-0.3522283464566929
 20
1.0858661417322835
 30
0.0
 10
-0.3522283464566929
 20
1.0858661417322835
 30
0.0
 10
-0.4238582677165355
 20
1.0858661417322835
 30
0.0
 10
-0.4238582677165355
 20
1.0858661417322835
 30
0.0
 10
-0.4238582677165355
 20
1.0858661417322835
 30
0.0
 10
-0.4238582677165355
 20
1.0858661417322835
 30
0.0
 10
-1.0826417322834645
 20
0.7124173228346457
 30
0.0
 10
-1.0826417322834645
 20
0.7124173228346457
 30
0.0
 10
-1.0826417322834645
 20
0.7124173228346457
 30
0.0
 10
-1.0826417322834645
 20
0.7124173228346457
 30
0.0
 10
-1.0110118110236221
 20
0.7124173228346457
 30
0.0
 10
-1.0110118110236221
 20
0.7124173228346457
 30
0.0
  0
SPLINE
  5
59
100
AcDbEntity
  8
P1-Layer 1
 62
   118
100
AcDbSpline
210
0.0
220
0.0
230
1.0
 70
     1
 71
     3
 72
    52
 73
    48
 74
     0
 42
0.0000000001
 43
0.0000000001
 40
0.0
 40
0.0
 40
0.0
 40
0.0
 40
0.0833333333333333
 40
0.0833333333333333
 40
0.0833333333333333
 40
0.0833333333333333
 40
0.1666666666666667
 40
0.1666666666666667
 40
0.1666666666666667
 40
0.1666666666666667
 40
0.25
 40
0.25
 40
0.25
 40
0.25
 40
0.3333333333333333
 40
0.3333333333333333
 40
0.3333333333333333
 40
0.3333333333333333
 40
0.4166666666666666
 40
0.4166666666666666
 40
0.4166666666666666
 40
0.4166666666666666
 40
0.4999999999999999
 40
0.4999999999999999
 40
0.4999999999999999
 40
0.4999999999999999
 40
0.5833333333333333
 40
0.5833333333333333
 40
0.5833333333333333
 40
0.5833333333333333
 40
0.6666666666666666
 40
0.6666666666666666
 40
0.6666666666666666
 40
0.6666666666666666
 40
0.75
 40
0.75
 40
0.75
 40
0.75
 40
0.8333333333333334
 40
0.8333333333333334
 40
0.8333333333333334
 40
0.8333333333333334
 40
0.9166666666666667
 40
0.9166666666666667
 40
0.9166666666666667
 40
0.9166666666666667
 40
1.0
 40
1.0
 40
1.0
 40
1.0
 10
-1.1522992125984253
 20
0.5980314960629921
 30
0.0
 10
-1.1522992125984253
 20
0.5980314960629921
 30
0.0
 10
-0.4935157480314961
 20
0.9714803149606299
 30
0.0
 10
-0.4935157480314961
 20
0.9714803149606299
 30
0.0
 10
-0.4935157480314961
 20
0.9714803149606299
 30
0.0
 10
-0.4935157480314961
 20
0.9714803149606299
 30
0.0
 10
-0.5011377952755906
 20
0.9678307086614174
 30
0.0
 10
-0.5011377952755906
 20
0.9678307086614174
 30
0.0
 10
-0.5011377952755906
 20
0.9678307086614174
 30
0.0
 10
-0.5011377952755906
 20
0.9678307086614174
 30
0.0
 10
-0.5093385826771654
 20
0.9644645669291339
 30
0.0
 10
-0.5093385826771654
 20
0.9644645669291339
 30
0.0
 10
-0.5093385826771654
 20
0.9644645669291339
 30
0.0
 10
-0.5093385826771654
 20
0.9644645669291339
 30
0.0
 10
-0.5181574803149607
 20
0.9614173228346458
 30
0.0
 10
-0.5181574803149607
 20
0.9614173228346458
 30
0.0
 10
-0.5181574803149607
 20
0.9614173228346458
 30
0.0
 10
-0.5181574803149607
 20
0.9614173228346458
 30
0.0
 10
-0.5276141732283465
 20
0.9587047244094489
 30
0.0
 10
-0.5276141732283465
 20
0.9587047244094489
 30
0.0
 10
-0.5276141732283465
 20
0.9587047244094489
 30
0.0
 10
-0.5276141732283465
 20
0.9587047244094489
 30
0.0
 10
-0.537740157480315
 20
0.9563543307086615
 30
0.0
 10
-0.537740157480315
 20
0.9563543307086615
 30
0.0
 10
-0.537740157480315
 20
0.9563543307086615
 30
0.0
 10
-0.537740157480315
 20
0.9563543307086615
 30
0.0
 10
-1.1965236220472442
 20
0.5829055118110237
 30
0.0
 10
-1.1965236220472442
 20
0.5829055118110237
 30
0.0
 10
-1.1965236220472442
 20
0.5829055118110237
 30
0.0
 10
-1.1965236220472442
 20
0.5829055118110237
 30
0.0
 10
-1.1863976377952756
 20
0.5852559055118111
 30
0.0
 10
-1.1863976377952756
 20
0.5852559055118111
 30
0.0
 10
-1.1863976377952756
 20
0.5852559055118111
 30
0.0
 10
-1.1863976377952756
 20
0.5852559055118111
 30
0.0
 10
-1.1769409448818897
 20
0.587968503937008
 30
0.0
 10
-1.1769409448818897
 20
0.587968503937008
 30
0.0
 10
-1.1769409448818897
 20
0.587968503937008
 30
0.0
 10
-1.1769409448818897
 20
0.587968503937008
 30
0.0
 10
-1.1681220472440945
 20
0.591015748031496
 30
0.0
 10
-1.1681220472440945
 20
0.591015748031496
 30
0.0
 10
-1.1681220472440945
 20
0.591015748031496
 30
0.0
 10
-1.1681220472440945
 20
0.591015748031496
 30
0.0
 10
-1.1599212598425197
 20
0.5943818897637796
 30
0.0
 10
-1.1599212598425197
 20
0.5943818897637796
 30
0.0
 10
-1.1599212598425197
 20
0.5943818897637796
 30
0.0
 10
-1.1599212598425197
 20
0.5943818897637796
 30
0.0
 10
-1.1522992125984253
 20
0.5980314960629921
 30
0.0
 10
-1.1522992125984253
 20
0.5980314960629921
 30
0.0
  0
SPLINE
  5
5A
100
AcDbEntity
  8
P1-Layer 1
 62
     8
100
AcDbSpline
210
0.0
220
0.0
230
1.0
 70
     1
 71
     3
 72
    44
 73
    40
 74
     0
 42
0.0000000001
 43
0.0000000001
 40
0.0
 40
0.0
 40
0.0
 40
0.0
 40
0.1
 40
0.1
 40
0.1
 40
0.1
 40
0.2
 40
0.2
 40
0.2
 40
0.2
 40
0.3
 40
0.3
 40
0.3
 40
0.3
 40
0.4
 40
0.4
 40
0.4
 40
0.4
 40
0.5
 40
0.5
 40
0.5
 40
0.5
 40
0.6
 40
0.6
 40
0.6
 40
0.6
 40
0.7
 40
0.7
 40
0.7
 40
0.7
 40
0.7999999999999999
 40
0.7999999999999999
 40
0.7999999999999999
 40
0.7999999999999999
 40
0.8999999999999999
 40
0.8999999999999999
 40
0.8999999999999999
 40
0.8999999999999999
 40
1.0
 40
1.0
 40
1.0
 40
1.0
 10
-1.1965236220472442
 20
0.5829055118110237
 30
0.0
 10
-1.1965236220472442
 20
0.5829055118110237
 30
0.0
 10
-0.537740157480315
 20
0.9563543307086615
 30
0.0
 10
-0.537740157480315
 20
0.9563543307086615
 30
0.0
 10
-0.537740157480315
 20
0.9563543307086615
 30
0.0
 10
-0.537740157480315
 20
0.9563543307086615
 30
0.0
 10
-0.5485511811023622
 20
0.9543779527559055
 30
0.0
 10
-0.5485511811023622
 20
0.9543779527559055
 30
0.0
 10
-0.5485511811023622
 20
0.9543779527559055
 30
0.0
 10
-0.5485511811023622
 20
0.9543779527559055
 30
0.0
 10
-0.5600866141732284
 20
0.9528110236220473
 30
0.0
 10
-0.5600866141732284
 20
0.9528110236220473
 30
0.0
 10
-0.5600866141732284
 20
0.9528110236220473
 30
0.0
 10
-0.5600866141732284
 20
0.9528110236220473
 30
0.0
 10
-0.5723582677165354
 20
0.9516653543307087
 30
0.0
 10
-0.5723582677165354
 20
0.9516653543307087
 30
0.0
 10
-0.5723582677165354
 20
0.9516653543307087
 30
0.0
 10
-0.5723582677165354
 20
0.9516653543307087
 30
0.0
 10
-0.5853976377952757
 20
0.950972440944882
 30
0.0
 10
-0.5853976377952757
 20
0.950972440944882
 30
0.0
 10
-0.5853976377952757
 20
0.950972440944882
 30
0.0
 10
-0.5853976377952757
 20
0.950972440944882
 30
0.0
 10
-1.2441811023622047
 20
0.5775236220472442
 30
0.0
 10
-1.2441811023622047
 20
0.5775236220472442
 30
0.0
 10
-1.2441811023622047
 20
0.5775236220472442
 30
0.0
 10
-1.2441811023622047
 20
0.5775236220472442
 30
0.0
 10
-1.2311417322834646
 20
0.5782165354330708
 30
0.0
 10
-1.2311417322834646
 20
0.5782165354330708
 30
0.0
 10
-1.2311417322834646
 20
0.5782165354330708
 30
0.0
 10
-1.2311417322834646
 20
0.5782165354330708
 30
0.0
 10
-1.2188700787401576
 20
0.5793622047244095
 30
0.0
 10
-1.2188700787401576
 20
0.5793622047244095
 30
0.0
 10
-1.2188700787401576
 20
0.5793622047244095
 30
0.0
 10
-1.2188700787401576
 20
0.5793622047244095
 30
0.0
 10
-1.2073346456692913
 20
0.5809291338582677
 30
0.0
 10
-1.2073346456692913
 20
0.5809291338582677
 30
0.0
 10
-1.2073346456692913
 20
0.5809291338582677
 30
0.0
 10
-1.2073346456692913
 20
0.5809291338582677
 30
0.0
 10
-1.1965236220472442
 20
0.5829055118110237
 30
0.0
 10
-1.1965236220472442
 20
0.5829055118110237
 30
0.0
  0
SPLINE
  5
5B
100
AcDbEntity
  8
P1-Layer 1
370
     5
100
AcDbSpline
210
0.0
220
0.0
230
1.0
 70
     1
 71
     3
 72
    84
 73
    80
 74
     0
 42
0.0000000001
 43
0.0000000001
 40
0.0
 40
0.0
 40
0.0
 40
0.0
 40
0.05
 40
0.05
 40
0.05
 40
0.05
 40
0.1
 40
0.1
 40
0.1
 40
0.1
 40
0.15
 40
0.15
 40
0.15
 40
0.15
 40
0.2
 40
0.2
 40
0.2
 40
0.2
 40
0.25
 40
0.25
 40
0.25
 40
0.25
 40
0.3
 40
0.3
 40
0.3
 40
0.3
 40
0.35
 40
0.35
 40
0.35
 40
0.35
 40
0.4
 40
0.4
 40
0.4
 40
0.4
 40
0.45
 40
0.45
 40
0.45
 40
0.45
 40
0.4999999999999999
 40
0.4999999999999999
 40
0.4999999999999999
 40
0.4999999999999999
 40
0.5499999999999999
 40
0.5499999999999999
 40
0.5499999999999999
 40
0.5499999999999999
 40
0.6
 40
0.6
 40
0.6
 40
0.6
 40
0.65
 40
0.65
 40
0.65
 40
0.65
 40
0.7000000000000001
 40
0.7000000000000001
 40
0.7000000000000001
 40
0.7000000000000001
 40
0.7500000000000001
 40
0.7500000000000001
 40
0.7500000000000001
 40
0.7500000000000001
 40
0.8000000000000002
 40
0.8000000000000002
 40
0.8000000000000002
 40
0.8000000000000002
 40
0.8500000000000002
 40
0.8500000000000002
 40
0.8500000000000002
 40
0.8500000000000002
 40
0.9000000000000002
 40
0.9000000000000002
 40
0.9000000000000002
 40
0.9000000000000002
 40
0.9500000000000003
 40
0.9500000000000003
 40
0.9500000000000003
 40
0.9500000000000003
 40
1.0
 40
1.0
 40
1.0
 40
1.0
 10
-1.1522992125984253
 20
0.5980314960629921
 30
0.0
 10
-1.1522992125984253
 20
0.5980314960629921
 30
0.0
 10
-0.4935157480314961
 20
0.9714803149606299
 30
0.0
 10
-0.4935157480314961
 20
0.9714803149606299
 30
0.0
 10
-0.4935157480314961
 20
0.9714803149606299
 30
0.0
 10
-0.4935157480314961
 20
0.9714803149606299
 30
0.0
 10
-0.5011377952755906
 20
0.9678307086614174
 30
0.0
 10
-0.5011377952755906
 20
0.9678307086614174
 30
0.0
 10
-0.5011377952755906
 20
0.9678307086614174
 30
0.0
 10
-0.5011377952755906
 20
0.9678307086614174
 30
0.0
 10
-0.5093385826771654
 20
0.9644645669291339
 30
0.0
 10
-0.5093385826771654
 20
0.9644645669291339
 30
0.0
 10
-0.5093385826771654
 20
0.9644645669291339
 30
0.0
 10
-0.5093385826771654
 20
0.9644645669291339
 30
0.0
 10
-0.5181574803149607
 20
0.9614173228346458
 30
0.0
 10
-0.5181574803149607
 20
0.9614173228346458
 30
0.0
 10
-0.5181574803149607
 20
0.9614173228346458
 30
0.0
 10
-0.5181574803149607
 20
0.9614173228346458
 30
0.0
 10
-0.5276141732283465
 20
0.9587047244094489
 30
0.0
 10
-0.5276141732283465
 20
0.9587047244094489
 30
0.0
 10
-0.5276141732283465
 20
0.9587047244094489
 30
0.0
 10
-0.5276141732283465
 20
0.9587047244094489
 30
0.0
 10
-0.537740157480315
 20
0.9563543307086615
 30
0.0
 10
-0.537740157480315
 20
0.9563543307086615
 30
0.0
 10
-0.537740157480315
 20
0.9563543307086615
 30
0.0
 10
-0.537740157480315
 20
0.9563543307086615
 30
0.0
 10
-0.5485511811023622
 20
0.9543779527559055
 30
0.0
 10
-0.5485511811023622
 20
0.9543779527559055
 30
0.0
 10
-0.5485511811023622
 20
0.9543779527559055
 30
0.0
 10
-0.5485511811023622
 20
0.9543779527559055
 30
0.0
 10
-0.5600866141732284
 20
0.9528110236220473
 30
0.0
 10
-0.5600866141732284
 20
0.9528110236220473
 30
0.0
 10
-0.5600866141732284
 20
0.9528110236220473
 30
0.0
 10
-0.5600866141732284
 20
0.9528110236220473
 30
0.0
 10
-0.5723582677165354
 20
0.9516653543307087
 30
0.0
 10
-0.5723582677165354
 20
0.9516653543307087
 30
0.0
 10
-0.5723582677165354
 20
0.9516653543307087
 30
0.0
 10
-0.5723582677165354
 20
0.9516653543307087
 30
0.0
 10
-0.5853976377952757
 20
0.950972440944882
 30
0.0
 10
-0.5853976377952757
 20
0.950972440944882
 30
0.0
 10
-0.5853976377952757
 20
0.950972440944882
 30
0.0
 10
-0.5853976377952757
 20
0.950972440944882
 30
0.0
 10
-1.2441811023622047
 20
0.5775236220472442
 30
0.0
 10
-1.2441811023622047
 20
0.5775236220472442
 30
0.0
 10
-1.2441811023622047
 20
0.5775236220472442
 30
0.0
 10
-1.2441811023622047
 20
0.5775236220472442
 30
0.0
 10
-1.2311417322834646
 20
0.5782165354330708
 30
0.0
 10
-1.2311417322834646
 20
0.5782165354330708
 30
0.0
 10
-1.2311417322834646
 20
0.5782165354330708
 30
0.0
 10
-1.2311417322834646
 20
0.5782165354330708
 30
0.0
 10
-1.2188700787401576
 20
0.5793622047244095
 30
0.0
 10
-1.2188700787401576
 20
0.5793622047244095
 30
0.0
 10
-1.2188700787401576
 20
0.5793622047244095
 30
0.0
 10
-1.2188700787401576
 20
0.5793622047244095
 30
0.0
 10
-1.2073346456692913
 20
0.5809291338582677
 30
0.0
 10
-1.2073346456692913
 20
0.5809291338582677
 30
0.0
 10
-1.2073346456692913
 20
0.5809291338582677
 30
0.0
 10
-1.2073346456692913
 20
0.5809291338582677
 30
0.0
 10
-1.1965236220472442
 20
0.5829055118110237
 30
0.0
 10
-1.1965236220472442
 20
0.5829055118110237
 30
0.0
 10
-1.1965236220472442
 20
0.5829055118110237
 30
0.0
 10
-1.1965236220472442
 20
0.5829055118110237
 30
0.0
 10
-1.1863976377952756
 20
0.5852559055118111
 30
0.0
 10
-1.1863976377952756
 20
0.5852559055118111
 30
0.0
 10
-1.1863976377952756
 20
0.5852559055118111
 30
0.0
 10
-1.1863976377952756
 20
0.5852559055118111
 30
0.0
 10
-1.1769409448818897
 20
0.587968503937008
 30
0.0
 10
-1.1769409448818897
 20
0.587968503937008
 30
0.0
 10
-1.1769409448818897
 20
0.587968503937008
 30
0.0
 10
-1.1769409448818897
 20
0.587968503937008
 30
0.0
 10
-1.1681220472440945
 20
0.591015748031496
 30
0.0
 10
-1.1681220472440945
 20
0.591015748031496
 30
0.0
 10
-1.1681220472440945
 20
0.591015748031496
 30
0.0
 10
-1.1681220472440945
 20
0.591015748031496
 30
0.0
 10
-1.1599212598425197
 20
0.5943818897637796
 30
0.0
 10
-1.1599212598425197
 20
0.5943818897637796
 30
0.0
 10
-1.1599212598425197
 20
0.5943818897637796
 30
0.0
 10
-1.1599212598425197
 20
0.5943818897637796
 30
0.0
 10
-1.1522992125984253
 20
0.5980314960629921
 30
0.0
 10
-1.1522992125984253
 20
0.5980314960629921
 30
0.0
  0
SPLINE
  5
5C
100
AcDbEntity
  8
P1-Layer 1
 62
   252
100
AcDbSpline
210
0.0
220
0.0
230
1.0
 70
     1
 71
     3
 72
    44
 73
    40
 74
     0
 42
0.0000000001
 43
0.0000000001
 40
0.0
 40
0.0
 40
0.0
 40
0.0
 40
0.1
 40
0.1
 40
0.1
 40
0.1
 40
0.2
 40
0.2
 40
0.2
 40
0.2
 40
0.3
 40
0.3
 40
0.3
 40
0.3
 40
0.4
 40
0.4
 40
0.4
 40
0.4
 40
0.5
 40
0.5
 40
0.5
 40
0.5
 40
0.6
 40
0.6
 40
0.6
 40
0.6
 40
0.7
 40
0.7
 40
0.7
 40
0.7
 40
0.7999999999999999
 40
0.7999999999999999
 40
0.7999999999999999
 40
0.7999999999999999
 40
0.8999999999999999
 40
0.8999999999999999
 40
0.8999999999999999
 40
0.8999999999999999
 40
1.0
 40
1.0
 40
1.0
 40
1.0
 10
-0.9985393700787402
 20
0.7740354330708662
 30
0.0
 10
-0.9985393700787402
 20
0.7740354330708662
 30
0.0
 10
-0.3397559055118111
 20
1.147484251968504
 30
0.0
 10
-0.3397559055118111
 20
1.147484251968504
 30
0.0
 10
-0.3397559055118111
 20
1.147484251968504
 30
0.0
 10
-0.3397559055118111
 20
1.147484251968504
 30
0.0
 10
-0.3399094488188977
 20
1.147484251968504
 30
0.0
 10
-0.3399094488188977
 20
1.147484251968504
 30
0.0
 10
-0.3399094488188977
 20
1.147484251968504
 30
0.0
 10
-0.3399094488188977
 20
1.147484251968504
 30
0.0
 10
-0.3403779527559055
 20
1.147484251968504
 30
0.0
 10
-0.3403779527559055
 20
1.147484251968504
 30
0.0
 10
-0.3403779527559055
 20
1.147484251968504
 30
0.0
 10
-0.3403779527559055
 20
1.147484251968504
 30
0.0
 10
-0.3411574803149606
 20
1.147484251968504
 30
0.0
 10
-0.3411574803149606
 20
1.147484251968504
 30
0.0
 10
-0.3411574803149606
 20
1.147484251968504
 30
0.0
 10
-0.3411574803149606
 20
1.147484251968504
 30
0.0
 10
-0.342255905511811
 20
1.147484251968504
 30
0.0
 10
-0.342255905511811
 20
1.147484251968504
 30
0.0
 10
-0.342255905511811
 20
1.147484251968504
 30
0.0
 10
-0.342255905511811
 20
1.147484251968504
 30
0.0
 10
-1.0010393700787401
 20
0.7740354330708662
 30
0.0
 10
-1.0010393700787401
 20
0.7740354330708662
 30
0.0
 10
-1.0010393700787401
 20
0.7740354330708662
 30
0.0
 10
-1.0010393700787401
 20
0.7740354330708662
 30
0.0
 10
-0.9999409448818898
 20
0.7740354330708662
 30
0.0
 10
-0.9999409448818898
 20
0.7740354330708662
 30
0.0
 10
-0.9999409448818898
 20
0.7740354330708662
 30
0.0
 10
-0.9999409448818898
 20
0.7740354330708662
 30
0.0
 10
-0.9991614173228347
 20
0.7740354330708662
 30
0.0
 10
-0.9991614173228347
 20
0.7740354330708662
 30
0.0
 10
-0.9991614173228347
 20
0.7740354330708662
 30
0.0
 10
-0.9991614173228347
 20
0.7740354330708662
 30
0.0
 10
-0.9986929133858268
 20
0.7740354330708662
 30
0.0
 10
-0.9986929133858268
 20
0.7740354330708662
 30
0.0
 10
-0.9986929133858268
 20
0.7740354330708662
 30
0.0
 10
-0.9986929133858268
 20
0.7740354330708662
 30
0.0
 10
-0.9985393700787402
 20
0.7740354330708662
 30
0.0
 10
-0.9985393700787402
 20
0.7740354330708662
 30
0.0
  0
SPLINE
  5
5D
100
AcDbEntity
  8
P1-Layer 1
370
     5
100
AcDbSpline
210
0.0
220
0.0
230
1.0
 70
     1
 71
     3
 72
    44
 73
    40
 74
     0
 42
0.0000000001
 43
0.0000000001
 40
0.0
 40
0.0
 40
0.0
 40
0.0
 40
0.1
 40
0.1
 40
0.1
 40
0.1
 40
0.2
 40
0.2
 40
0.2
 40
0.2
 40
0.3
 40
0.3
 40
0.3
 40
0.3
 40
0.4
 40
0.4
 40
0.4
 40
0.4
 40
0.5
 40
0.5
 40
0.5
 40
0.5
 40
0.6
 40
0.6
 40
0.6
 40
0.6
 40
0.7
 40
0.7
 40
0.7
 40
0.7
 40
0.7999999999999999
 40
0.7999999999999999
 40
0.7999999999999999
 40
0.7999999999999999
 40
0.8999999999999999
 40
0.8999999999999999
 40
0.8999999999999999
 40
0.8999999999999999
 40
1.0
 40
1.0
 40
1.0
 40
1.0
 10
-0.9985393700787402
 20
0.7740354330708662
 30
0.0
 10
-0.9985393700787402
 20
0.7740354330708662
 30
0.0
 10
-0.3397559055118111
 20
1.147484251968504
 30
0.0
 10
-0.3397559055118111
 20
1.147484251968504
 30
0.0
 10
-0.3397559055118111
 20
1.147484251968504
 30
0.0
 10
-0.3397559055118111
 20
1.147484251968504
 30
0.0
 10
-0.3399094488188977
 20
1.147484251968504
 30
0.0
 10
-0.3399094488188977
 20
1.147484251968504
 30
0.0
 10
-0.3399094488188977
 20
1.147484251968504
 30
0.0
 10
-0.3399094488188977
 20
1.147484251968504
 30
0.0
 10
-0.3403779527559055
 20
1.147484251968504
 30
0.0
 10
-0.3403779527559055
 20
1.147484251968504
 30
0.0
 10
-0.3403779527559055
 20
1.147484251968504
 30
0.0
 10
-0.3403779527559055
 20
1.147484251968504
 30
0.0
 10
-0.3411574803149606
 20
1.147484251968504
 30
0.0
 10
-0.3411574803149606
 20
1.147484251968504
 30
0.0
 10
-0.3411574803149606
 20
1.147484251968504
 30
0.0
 10
-0.3411574803149606
 20
1.147484251968504
 30
0.0
 10
-0.342255905511811
 20
1.147484251968504
 30
0.0
 10
-0.342255905511811
 20
1.147484251968504
 30
0.0
 10
-0.342255905511811
 20
1.147484251968504
 30
0.0
 10
-0.342255905511811
 20
1.147484251968504
 30
0.0
 10
-1.0010393700787401
 20
0.7740354330708662
 30
0.0
 10
-1.0010393700787401
 20
0.7740354330708662
 30
0.0
 10
-1.0010393700787401
 20
0.7740354330708662
 30
0.0
 10
-1.0010393700787401
 20
0.7740354330708662
 30
0.0
 10
-0.9999409448818898
 20
0.7740354330708662
 30
0.0
 10
-0.9999409448818898
 20
0.7740354330708662
 30
0.0
 10
-0.9999409448818898
 20
0.7740354330708662
 30
0.0
 10
-0.9999409448818898
 20
0.7740354330708662
 30
0.0
 10
-0.9991614173228347
 20
0.7740354330708662
 30
0.0
 10
-0.9991614173228347
 20
0.7740354330708662
 30
0.0
 10
-0.9991614173228347
 20
0.7740354330708662
 30
0.0
 10
-0.9991614173228347
 20
0.7740354330708662
 30
0.0
 10
-0.9986929133858268
 20
0.7740354330708662
 30
0.0
 10
-0.9986929133858268
 20
0.7740354330708662
 30
0.0
 10
-0.9986929133858268
 20
0.7740354330708662
 30
0.0
 10
-0.9986929133858268
 20
0.7740354330708662
 30
0.0
 10
-0.9985393700787402
 20
0.7740354330708662
 30
0.0
 10
-0.9985393700787402
 20
0.7740354330708662
 30
0.0
  0
SPLINE
  5
5E
100
AcDbEntity
  8
P1-Layer 1
 62
   252
100
AcDbSpline
210
0.0
220
0.0
230
1.0
 70
     1
 71
     3
 72
    20
 73
    16
 74
     0
 42
0.0000000001
 43
0.0000000001
 40
0.0
 40
0.0
 40
0.0
 40
0.0
 40
0.25
 40
0.25
 40
0.25
 40
0.25
 40
0.5
 40
0.5
 40
0.5
 40
0.5
 40
0.75
 40
0.75
 40
0.75
 40
0.75
 40
1.0
 40
1.0
 40
1.0
 40
1.0
 10
-0.6646377952755905
 20
0.7740354330708662
 30
0.0
 10
-0.6646377952755905
 20
0.7740354330708662
 30
0.0
 10
-0.0058543307086614
 20
1.147484251968504
 30
0.0
 10
-0.0058543307086614
 20
1.147484251968504
 30
0.0
 10
-0.0058543307086614
 20
1.147484251968504
 30
0.0
 10
-0.0058543307086614
 20
1.147484251968504
 30
0.0
 10
-0.342255905511811
 20
1.147484251968504
 30
0.0
 10
-0.342255905511811
 20
1.147484251968504
 30
0.0
 10
-0.342255905511811
 20
1.147484251968504
 30
0.0
 10
-0.342255905511811
 20
1.147484251968504
 30
0.0
 10
-1.0010393700787401
 20
0.7740354330708662
 30
0.0
 10
-1.0010393700787401
 20
0.7740354330708662
 30
0.0
 10
-1.0010393700787401
 20
0.7740354330708662
 30
0.0
 10
-1.0010393700787401
 20
0.7740354330708662
 30
0.0
 10
-0.6646377952755905
 20
0.7740354330708662
 30
0.0
 10
-0.6646377952755905
 20
0.7740354330708662
 30
0.0
  0
SPLINE
  5
5F
100
AcDbEntity
  8
P1-Layer 1
370
     5
100
AcDbSpline
210
0.0
220
0.0
230
1.0
 70
     1
 71
     3
 72
    20
 73
    16
 74
     0
 42
0.0000000001
 43
0.0000000001
 40
0.0
 40
0.0
 40
0.0
 40
0.0
 40
0.25
 40
0.25
 40
0.25
 40
0.25
 40
0.5
 40
0.5
 40
0.5
 40
0.5
 40
0.75
 40
0.75
 40
0.75
 40
0.75
 40
1.0
 40
1.0
 40
1.0
 40
1.0
 10
-0.6646377952755905
 20
0.7740354330708662
 30
0.0
 10
-0.6646377952755905
 20
0.7740354330708662
 30
0.0
 10
-0.0058543307086614
 20
1.147484251968504
 30
0.0
 10
-0.0058543307086614
 20
1.147484251968504
 30
0.0
 10
-0.0058543307086614
 20
1.147484251968504
 30
0.0
 10
-0.0058543307086614
 20
1.147484251968504
 30
0.0
 10
-0.342255905511811
 20
1.147484251968504
 30
0.0
 10
-0.342255905511811
 20
1.147484251968504
 30
0.0
 10
-0.342255905511811
 20
1.147484251968504
 30
0.0
 10
-0.342255905511811
 20
1.147484251968504
 30
0.0
 10
-1.0010393700787401
 20
0.7740354330708662
 30
0.0
 10
-1.0010393700787401
 20
0.7740354330708662
 30
0.0
 10
-1.0010393700787401
 20
0.7740354330708662
 30
0.0
 10
-1.0010393700787401
 20
0.7740354330708662
 30
0.0
 10
-0.6646377952755905
 20
0.7740354330708662
 30
0.0
 10
-0.6646377952755905
 20
0.7740354330708662
 30
0.0
  0
SPLINE
  5
60
100
AcDbEntity
  8
P1-Layer 1
 62
   252
100
AcDbSpline
210
0.0
220
0.0
230
1.0
 70
     1
 71
     3
 72
    20
 73
    16
 74
     0
 42
0.0000000001
 43
0.0000000001
 40
0.0
 40
0.0
 40
0.0
 40
0.0
 40
0.25
 40
0.25
 40
0.25
 40
0.25
 40
0.5
 40
0.5
 40
0.5
 40
0.5
 40
0.75
 40
0.75
 40
0.75
 40
0.75
 40
1.0
 40
1.0
 40
1.0
 40
1.0
 10
0.5939527559055119
 20
0.8385275590551181
 30
0.0
 10
0.5939527559055119
 20
0.8385275590551181
 30
0.0
 10
1.252736220472441
 20
1.2119763779527559
 30
0.0
 10
1.252736220472441
 20
1.2119763779527559
 30
0.0
 10
1.252736220472441
 20
1.2119763779527559
 30
0.0
 10
1.252736220472441
 20
1.2119763779527559
 30
0.0
 10
0.000759842519685
 20
1.2119763779527559
 30
0.0
 10
0.000759842519685
 20
1.2119763779527559
 30
0.0
 10
0.000759842519685
 20
1.2119763779527559
 30
0.0
 10
0.000759842519685
 20
1.2119763779527559
 30
0.0
 10
-0.6580236220472441
 20
0.8385275590551181
 30
0.0
 10
-0.6580236220472441
 20
0.8385275590551181
 30
0.0
 10
-0.6580236220472441
 20
0.8385275590551181
 30
0.0
 10
-0.6580236220472441
 20
0.8385275590551181
 30
0.0
 10
0.5939527559055119
 20
0.8385275590551181
 30
0.0
 10
0.5939527559055119
 20
0.8385275590551181
 30
0.0
  0
SPLINE
  5
61
100
AcDbEntity
  8
P1-Layer 1
370
     5
100
AcDbSpline
210
0.0
220
0.0
230
1.0
 70
     1
 71
     3
 72
    20
 73
    16
 74
     0
 42
0.0000000001
 43
0.0000000001
 40
0.0
 40
0.0
 40
0.0
 40
0.0
 40
0.25
 40
0.25
 40
0.25
 40
0.25
 40
0.5
 40
0.5
 40
0.5
 40
0.5
 40
0.75
 40
0.75
 40
0.75
 40
0.75
 40
1.0
 40
1.0
 40
1.0
 40
1.0
 10
0.5939527559055119
 20
0.8385275590551181
 30
0.0
 10
0.5939527559055119
 20
0.8385275590551181
 30
0.0
 10
1.252736220472441
 20
1.2119763779527559
 30
0.0
 10
1.252736220472441
 20
1.2119763779527559
 30
0.0
 10
1.252736220472441
 20
1.2119763779527559
 30
0.0
 10
1.252736220472441
 20
1.2119763779527559
 30
0.0
 10
0.000759842519685
 20
1.2119763779527559
 30
0.0
 10
0.000759842519685
 20
1.2119763779527559
 30
0.0
 10
0.000759842519685
 20
1.2119763779527559
 30
0.0
 10
0.000759842519685
 20
1.2119763779527559
 30
0.0
 10
-0.6580236220472441
 20
0.8385275590551181
 30
0.0
 10
-0.6580236220472441
 20
0.8385275590551181
 30
0.0
 10
-0.6580236220472441
 20
0.8385275590551181
 30
0.0
 10
-0.6580236220472441
 20
0.8385275590551181
 30
0.0
 10
0.5939527559055119
 20
0.8385275590551181
 30
0.0
 10
0.5939527559055119
 20
0.8385275590551181
 30
0.0
  0
SPLINE
  5
62
100
AcDbEntity
  8
P1-Layer 1
 62
     9
100
AcDbSpline
210
0.0
220
0.0
230
1.0
 70
     1
 71
     3
 72
    20
 73
    16
 74
     0
 42
0.0000000001
 43
0.0000000001
 40
0.0
 40
0.0
 40
0.0
 40
0.0
 40
0.25
 40
0.25
 40
0.25
 40
0.25
 40
0.5
 40
0.5
 40
0.5
 40
0.5
 40
0.75
 40
0.75
 40
0.75
 40
0.75
 40
1.0
 40
1.0
 40
1.0
 40
1.0
 10
1.1801102362204725
 20
0.2118188976377953
 30
0.0
 10
1.1801102362204725
 20
0.2118188976377953
 30
0.0
 10
1.8388937007874016
 20
0.5852677165354331
 30
0.0
 10
1.8388937007874016
 20
0.5852677165354331
 30
0.0
 10
1.8388937007874016
 20
0.5852677165354331
 30
0.0
 10
1.8388937007874016
 20
0.5852677165354331
 30
0.0
 10
1.8388937007874016
 20
0.950972440944882
 30
0.0
 10
1.8388937007874016
 20
0.950972440944882
 30
0.0
 10
1.8388937007874016
 20
0.950972440944882
 30
0.0
 10
1.8388937007874016
 20
0.950972440944882
 30
0.0
 10
1.1801102362204725
 20
0.5775236220472442
 30
0.0
 10
1.1801102362204725
 20
0.5775236220472442
 30
0.0
 10
1.1801102362204725
 20
0.5775236220472442
 30
0.0
 10
1.1801102362204725
 20
0.5775236220472442
 30
0.0
 10
1.1801102362204725
 20
0.2118188976377953
 30
0.0
 10
1.1801102362204725
 20
0.2118188976377953
 30
0.0
  0
SPLINE
  5
63
100
AcDbEntity
  8
P1-Layer 1
370
     5
100
AcDbSpline
210
0.0
220
0.0
230
1.0
 70
     1
 71
     3
 72
    20
 73
    16
 74
     0
 42
0.0000000001
 43
0.0000000001
 40
0.0
 40
0.0
 40
0.0
 40
0.0
 40
0.25
 40
0.25
 40
0.25
 40
0.25
 40
0.5
 40
0.5
 40
0.5
 40
0.5
 40
0.75
 40
0.75
 40
0.75
 40
0.75
 40
1.0
 40
1.0
 40
1.0
 40
1.0
 10
1.1801102362204725
 20
0.2118188976377953
 30
0.0
 10
1.1801102362204725
 20
0.2118188976377953
 30
0.0
 10
1.8388937007874016
 20
0.5852677165354331
 30
0.0
 10
1.8388937007874016
 20
0.5852677165354331
 30
0.0
 10
1.8388937007874016
 20
0.5852677165354331
 30
0.0
 10
1.8388937007874016
 20
0.5852677165354331
 30
0.0
 10
1.8388937007874016
 20
0.950972440944882
 30
0.0
 10
1.8388937007874016
 20
0.950972440944882
 30
0.0
 10
1.8388937007874016
 20
0.950972440944882
 30
0.0
 10
1.8388937007874016
 20
0.950972440944882
 30
0.0
 10
1.1801102362204725
 20
0.5775236220472442
 30
0.0
 10
1.1801102362204725
 20
0.5775236220472442
 30
0.0
 10
1.1801102362204725
 20
0.5775236220472442
 30
0.0
 10
1.1801102362204725
 20
0.5775236220472442
 30
0.0
 10
1.1801102362204725
 20
0.2118188976377953
 30
0.0
 10
1.1801102362204725
 20
0.2118188976377953
 30
0.0
  0
SPLINE
  5
64
100
AcDbEntity
  8
P1-Layer 1
370
     5
 62
     7
100
AcDbSpline
210
0.0
220
0.0
230
1.0
 70
     1
 71
     3
 72
    68
 73
    64
 74
     0
 42
0.0000000001
 43
0.0000000001
 40
0.0
 40
0.0
 40
0.0
 40
0.0
 40
0.0625
 40
0.0625
 40
0.0625
 40
0.0625
 40
0.125
 40
0.125
 40
0.125
 40
0.125
 40
0.1875
 40
0.1875
 40
0.1875
 40
0.1875
 40
0.25
 40
0.25
 40
0.25
 40
0.25
 40
0.3125
 40
0.3125
 40
0.3125
 40
0.3125
 40
0.375
 40
0.375
 40
0.375
 40
0.375
 40
0.4375
 40
0.4375
 40
0.4375
 40
0.4375
 40
0.5
 40
0.5
 40
0.5
 40
0.5
 40
0.5625
 40
0.5625
 40
0.5625
 40
0.5625
 40
0.625
 40
0.625
 40
0.625
 40
0.625
 40
0.6875
 40
0.6875
 40
0.6875
 40
0.6875
 40
0.75
 40
0.75
 40
0.75
 40
0.75
 40
0.8125
 40
0.8125
 40
0.8125
 40
0.8125
 40
0.875
 40
0.875
 40
0.875
 40
0.875
 40
0.9375
 40
0.9375
 40
0.9375
 40
0.9375
 40
1.0
 40
1.0
 40
1.0
 40
1.0
 10
1.1801102362204725
 20
0.5775236220472442
 30
0.0
 10
1.0368897637795276
 20
0.5825196850393701
 30
0.0
 10
1.0285629921259842
 20
0.6674527559055118
 30
0.0
 10
1.0185708661417323
 20
0.7124173228346457
 30
0.0
 10
1.0185708661417323
 20
0.7124173228346457
 30
0.0
 10
1.0185708661417323
 20
0.7124173228346457
 30
0.0
 10
0.9469409448818899
 20
0.7124173228346457
 30
0.0
 10
0.9469409448818899
 20
0.7124173228346457
 30
0.0
 10
0.9469409448818899
 20
0.7124173228346457
 30
0.0
 10
0.9469409448818899
 20
0.7124173228346457
 30
0.0
 10
0.9369685039370079
 20
0.7740354330708662
 30
0.0
 10
0.9369685039370079
 20
0.7740354330708662
 30
0.0
 10
0.9369685039370079
 20
0.7740354330708662
 30
0.0
 10
0.9336377952755905
 20
0.7740354330708662
 30
0.0
 10
0.9336377952755905
 20
0.7740354330708662
 30
0.0
 10
0.9369685039370079
 20
0.7740354330708662
 30
0.0
 10
0.9369685039370079
 20
0.7740354330708662
 30
0.0
 10
0.9369685039370079
 20
0.7740354330708662
 30
0.0
 10
0.6005669291338583
 20
0.7740354330708662
 30
0.0
 10
0.6005669291338583
 20
0.7740354330708662
 30
0.0
 10
0.6005669291338583
 20
0.7740354330708662
 30
0.0
 10
0.6005669291338583
 20
0.7740354330708662
 30
0.0
 10
0.5939527559055119
 20
0.8385275590551181
 30
0.0
 10
0.5939527559055119
 20
0.8385275590551181
 30
0.0
 10
0.5939527559055119
 20
0.8385275590551181
 30
0.0
 10
0.5939527559055119
 20
0.8385275590551181
 30
0.0
 10
-0.6580236220472441
 20
0.8385275590551181
 30
0.0
 10
-0.6580236220472441
 20
0.8385275590551181
 30
0.0
 10
-0.6580236220472441
 20
0.8385275590551181
 30
0.0
 10
-0.6580236220472441
 20
0.8385275590551181
 30
0.0
 10
-0.6646377952755905
 20
0.7740354330708662
 30
0.0
 10
-0.6646377952755905
 20
0.7740354330708662
 30
0.0
 10
-0.6646377952755905
 20
0.7740354330708662
 30
0.0
 10
-0.6646377952755905
 20
0.7740354330708662
 30
0.0
 10
-1.0010393700787401
 20
0.7740354330708662
 30
0.0
 10
-1.0010393700787401
 20
0.7740354330708662
 30
0.0
 10
-1.0010393700787401
 20
0.7740354330708662
 30
0.0
 10
-0.9977086614173228
 20
0.7740354330708662
 30
0.0
 10
-0.9977086614173228
 20
0.7740354330708662
 30
0.0
 10
-1.0010393700787401
 20
0.7740354330708662
 30
0.0
 10
-1.0010393700787401
 20
0.7740354330708662
 30
0.0
 10
-1.0010393700787401
 20
0.7740354330708662
 30
0.0
 10
-1.0110118110236221
 20
0.7124173228346457
 30
0.0
 10
-1.0110118110236221
 20
0.7124173228346457
 30
0.0
 10
-1.0110118110236221
 20
0.7124173228346457
 30
0.0
 10
-1.0110118110236221
 20
0.7124173228346457
 30
0.0
 10
-1.0826417322834645
 20
0.7124173228346457
 30
0.0
 10
-1.0826417322834645
 20
0.7124173228346457
 30
0.0
 10
-1.0826417322834645
 20
0.7124173228346457
 30
0.0
 10
-1.0926338582677166
 20
0.6674527559055118
 30
0.0
 10
-1.10096062992126
 20
0.5825196850393701
 30
0.0
 10
-1.2441811023622047
 20
0.5775236220472442
 30
0.0
 10
-1.2441811023622047
 20
0.5775236220472442
 30
0.0
 10
-1.2441811023622047
 20
0.5775236220472442
 30
0.0
 10
-1.2441811023622047
 20
0.2117598425196851
 30
0.0
 10
-1.2441811023622047
 20
0.2117598425196851
 30
0.0
 10
-1.2441811023622047
 20
0.2117598425196851
 30
0.0
 10
-1.2441811023622047
 20
0.2117598425196851
 30
0.0
 10
1.1801102362204725
 20
0.2118188976377953
 30
0.0
 10
1.1801102362204725
 20
0.2118188976377953
 30
0.0
 10
1.1801102362204725
 20
0.2118188976377953
 30
0.0
 10
1.1801102362204725
 20
0.2118188976377953
 30
0.0
 10
1.1801102362204725
 20
0.5775236220472442
 30
0.0
 10
1.1801102362204725
 20
0.5775236220472442
 30
0.0
  0
TEXT
  5
65
100
AcDbEntity
  8
P1-Layer 1
100
AcDbText
 10
-0.077996
 20
0.017508
 30
0.0
 40
0.119999
  1
BA  1513
 51
-0.000002
  7
Bookman Old Style
100
AcDbText
  0
TEXT
  5
66
100
AcDbEntity
  8
P1-Layer 1
100
AcDbText
 10
-0.309689
 20
-0.169992
 30
0.0
 40
0.119999
  1
5/8\u+201d x 2-7/16\u+201d
 51
-0.000002
  7
Bookman Old Style
100
AcDbText
  0
ENDSEC
  0
SECTION
  2
OBJECTS
  0
DICTIONARY
  5
19
100
AcDbDictionary
280
     0
281
     1
  3
ACAD_GROUP
350
1A
  3
ACAD_MLINESTYLE
350
1B
  3
ACAD_LAYOUT
350
1E
  3
ACAD_PLOTSETTINGS
350
22
  3
ACAD_PLOTSTYLENAME
350
1F
  3
ACAD_WIPEOUT_VARS
350
23
  0
DICTIONARY
  5
1A
102
{ACAD_REACTORS
330
19
102
}
100
AcDbDictionary
280
     0
281
     1
  0
DICTIONARY
  5
1B
102
{ACAD_REACTORS
330
19
102
}
100
AcDbDictionary
280
     0
281
     1
  3
Standard
350
1C
  0
MLINESTYLE
  5
1C
102
{ACAD_REACTORS
330
1B
102
}
100
AcDbMlineStyle
  2
Standard
 70
     0
  3

 62
     0
 51
90.0
 52
90.0
 71
     2
 49
0.5
 62
   256
  6
BYLAYER
 49
-0.5
 62
   256
  6
BYLAYER
  0
ACDBDICTIONARYWDFLT
  5
1F
102
{ACAD_REACTORS
330
19
102
}
100
AcDbDictionary
281
     1
  3
Normal
350
1D
100
AcDbDictionaryWithDefault
340
1D
  0
ACDBPLACEHOLDER
  5
1D
102
{ACAD_REACTORS
330
1F
102
}
  0
LAYOUT
  5
20
102
{ACAD_REACTORS
330
1E
102
}
100
AcDbPlotSettings
  1

  2

  4

  6

 40
0.0
 41
0.0
 42
0.0
 43
0.0
 44
0.0
 45
0.0
 46
0.0
 47
0.0
 48
0.0
 49
0.0
140
0.0
141
0.0
142
1.0
143
1.0
 70
  1024
 72
     0
 73
     0
 74
     0
  7

 75
     0
147
1.0
148
0.0
149
0.0
100
AcDbLayout
  1
Model
 70
     0
 71
     0
 10
0.0
 20
0.0
 11
0.0
 21
0.0
 12
0.0
 22
0.0
 32
0.0
 14
0.0
 24
0.0
 34
0.0
 15
0.0
 25
0.0
 35
0.0
146
0.0
 13
0.0
 23
0.0
 33
0.0
 16
0.0
 26
0.0
 36
0.0
 17
0.0
 27
0.0
 37
0.0
 76
     0
330
A
331
0
345
0
346
0
  0
LAYOUT
  5
21
102
{ACAD_REACTORS
330
1E
102
}
100
AcDbPlotSettings
  1

  2

  4

  6

 40
0.0
 41
0.0
 42
0.0
 43
0.0
 44
0.0
 45
0.0
 46
0.0
 47
0.0
 48
0.0
 49
0.0
140
0.0
141
0.0
142
1.0
143
1.0
 70
     0
 72
     0
 73
     0
 74
     0
  7

 75
     0
147
1.0
148
0.0
149
0.0
100
AcDbLayout
  1
Layout1
 70
     0
 71
     0
 10
0.0
 20
0.0
 11
0.0
 21
0.0
 12
0.0
 22
0.0
 32
0.0
 14
0.0
 24
0.0
 34
0.0
 15
0.0
 25
0.0
 35
0.0
146
0.0
 13
0.0
 23
0.0
 33
0.0
 16
0.0
 26
0.0
 36
0.0
 17
0.0
 27
0.0
 37
0.0
 76
     0
330
B
331
0
345
0
346
0
  0
DICTIONARY
  5
1E
102
{ACAD_REACTORS
330
19
102
}
100
AcDbDictionary
280
     0
281
     1
  3
Layout1
350
21
  3
Model
350
20
  0
DICTIONARY
  5
22
102
{ACAD_REACTORS
330
19
102
}
100
AcDbDictionary
280
     0
281
     1
  0
WIPEOUTVARIABLES
  5
23
100
AcDbWipeoutVariables
 70
     1
  0
ENDSEC
  0
EOF
