  0
SECTION
  2
HEADER
  9
$ACADVER
  1
AC1015
  9
$ACADMAINTVER
 70
     6
  9
$DWGCODEPAGE
  3
DOS850
  9
$INSBASE
 10
0.0
 20
0.0
 30
0.0
  9
$EXTMIN
 10
-1.209524
 20
-0.571732
 30
1.000000E+20
  9
$EXTMAX
 10
1.446882
 20
1.440209
 30
-1.000000E+20
  9
$LIMMIN
 10
0.0
 20
0.0
  9
$LIMMAX
 10
0.0
 20
0.0
  9
$ORTHOMODE
 70
     0
  9
$REGENMODE
 70
     1
  9
$FILLMODE
 70
     1
  9
$QTEXTMODE
 70
     0
  9
$MIRRTEXT
 70
     1
  9
$LTSCALE
 40
1.0
  9
$ATTMODE
 70
     1
  9
$TEXTSIZE
 40
0.2
  9
$TRACEWID
 40
0.05
  9
$TEXTSTYLE
  7
Standard
  9
$CLAYER
  8
0
  9
$CELTYPE
  6
Continuous
  9
$CECOLOR
 62
   256
  9
$CELTSCALE
 40
1.0
  9
$DISPSILH
 70
     0
  9
$DIMSCALE
 40
1.0
  9
$DIMASZ
 40
0.18
  9
$DIMEXO
 40
0.0625
  9
$DIMDLI
 40
0.38
  9
$DIMRND
 40
0.0
  9
$DIMDLE
 40
0.0
  9
$DIMEXE
 40
0.18
  9
$DIMTP
 40
0.0
  9
$DIMTM
 40
0.0
  9
$DIMTXT
 40
0.18
  9
$DIMCEN
 40
0.09
  9
$DIMTSZ
 40
0.0
  9
$DIMTOL
 70
     0
  9
$DIMLIM
 70
     0
  9
$DIMTIH
 70
     1
  9
$DIMTOH
 70
     1
  9
$DIMSE1
 70
     0
  9
$DIMSE2
 70
     0
  9
$DIMTAD
 70
     0
  9
$DIMZIN
 70
     0
  9
$DIMBLK
  1

  9
$DIMASO
 70
     1
  9
$DIMSHO
 70
     1
  9
$DIMPOST
  1

  9
$DIMAPOST
  1

  9
$DIMALT
 70
     0
  9
$DIMALTD
 70
     2
  9
$DIMALTF
 40
25.4
  9
$DIMLFAC
 40
1.0
  9
$DIMTOFL
 70
     0
  9
$DIMTVP
 40
0.0
  9
$DIMTIX
 70
     0
  9
$DIMSOXD
 70
     0
  9
$DIMSAH
 70
     0
  9
$DIMBLK1
  1

  9
$DIMBLK2
  1

  9
$DIMSTYLE
  2
Standard
  9
$DIMCLRD
 70
     0
  9
$DIMCLRE
 70
     0
  9
$DIMCLRT
 70
     0
  9
$DIMTFAC
 40
1.0
  9
$DIMGAP
 40
0.09
  9
$DIMJUST
 70
     0
  9
$DIMSD1
 70
     0
  9
$DIMSD2
 70
     0
  9
$DIMTOLJ
 70
     1
  9
$DIMTZIN
 70
     0
  9
$DIMALTZ
 70
     0
  9
$DIMALTTZ
 70
     0
  9
$DIMUPT
 70
     0
  9
$DIMDEC
 70
     4
  9
$DIMTDEC
 70
     4
  9
$DIMALTU
 70
     2
  9
$DIMALTTD
 70
     2
  9
$DIMTXSTY
  7
Standard
  9
$DIMAUNIT
 70
     0
  9
$DIMADEC
 70
     0
  9
$DIMALTRND
 40
0.0
  9
$DIMAZIN
 70
     0
  9
$DIMDSEP
 70
     0
  9
$DIMATFIT
 70
     3
  9
$DIMFRAC
 70
     0
  9
$DIMLDRBLK
  1

  9
$DIMLUNIT
 70
     2
  9
$DIMLWD
 70
     0
  9
$DIMLWE
 70
     0
  9
$DIMTMOVE
 70
     0
  9
$LUNITS
 70
     2
  9
$LUPREC
 70
     4
  9
$SKETCHINC
 40
0.1
  9
$FILLETRAD
 40
0.0
  9
$AUNITS
 70
     0
  9
$AUPREC
 70
     0
  9
$MENU
  1
acad
  9
$ELEVATION
 40
0.0
  9
$PELEVATION
 40
0.0
  9
$THICKNESS
 40
0.0
  9
$LIMCHECK
 70
     0
  9
$CHAMFERA
 40
0.0
  9
$CHAMFERB
 40
0.0
  9
$CHAMFERC
 40
0.0
  9
$CHAMFERD
 40
0.0
  9
$SKPOLY
 70
     0
  9
$TDCREATE
 40
0.000000000
  9
$TDUCREATE
 40
0.000000000
  9
$TDUPDATE
 40
0.000000000
  9
$TDUUPDATE
 40
0.000000000
  9
$TDINDWG
 40
0.0000000000
  9
$TDUSRTIMER
 40
0.0000000000
  9
$USRTIMER
 70
     1
  9
$ANGBASE
 50
0.0
  9
$ANGDIR
 70
     0
  9
$PDMODE
 70
     0
  9
$PDSIZE
 40
0.0
  9
$PLINEWID
 40
0.0
  9
$SPLFRAME
 70
     0
  9
$SPLINETYPE
 70
     6
  9
$SPLINESEGS
 70
     8
  9
$HANDSEED
  5
6D
  9
$SURFTAB1
 70
     6
  9
$SURFTAB2
 70
     6
  9
$SURFTYPE
 70
     6
  9
$SURFU
 70
     6
  9
$SURFV
 70
     6
  9
$UCSBASE
  2

  9
$UCSNAME
  2

  9
$UCSORG
 10
0.0
 20
0.0
 30
0.0
  9
$UCSXDIR
 10
1.0
 20
0.0
 30
0.0
  9
$UCSYDIR
 10
0.0
 20
1.0
 30
0.0
  9
$UCSORTHOREF
  2

  9
$UCSORTHOVIEW
 70
     0
  9
$UCSORGTOP
 10
0.0
 20
0.0
 30
0.0
  9
$UCSORGBOTTOM
 10
0.0
 20
0.0
 30
0.0
  9
$UCSORGLEFT
 10
0.0
 20
0.0
 30
0.0
  9
$UCSORGRIGHT
 10
0.0
 20
0.0
 30
0.0
  9
$UCSORGFRONT
 10
0.0
 20
0.0
 30
0.0
  9
$UCSORGBACK
 10
0.0
 20
0.0
 30
0.0
  9
$PUCSBASE
  2

  9
$PUCSNAME
  2

  9
$PUCSORG
 10
0.0
 20
0.0
 30
0.0
  9
$PUCSXDIR
 10
1.0
 20
0.0
 30
0.0
  9
$PUCSYDIR
 10
0.0
 20
1.0
 30
0.0
  9
$PUCSORTHOREF
  2

  9
$PUCSORTHOVIEW
 70
     0
  9
$PUCSORGTOP
 10
0.0
 20
0.0
 30
0.0
  9
$PUCSORGBOTTOM
 10
0.0
 20
0.0
 30
0.0
  9
$PUCSORGLEFT
 10
0.0
 20
0.0
 30
0.0
  9
$PUCSORGRIGHT
 10
0.0
 20
0.0
 30
0.0
  9
$PUCSORGFRONT
 10
0.0
 20
0.0
 30
0.0
  9
$PUCSORGBACK
 10
0.0
 20
0.0
 30
0.0
  9
$USERI1
 70
     0
  9
$USERI2
 70
     0
  9
$USERI3
 70
     0
  9
$USERI4
 70
     0
  9
$USERI5
 70
     0
  9
$USERR1
 40
0.0
  9
$USERR2
 40
0.0
  9
$USERR3
 40
0.0
  9
$USERR4
 40
0.0
  9
$USERR5
 40
0.0
  9
$WORLDVIEW
 70
     1
  9
$SHADEDGE
 70
     3
  9
$SHADEDIF
 70
    70
  9
$TILEMODE
 70
     1
  9
$MAXACTVP
 70
    16
  9
$PINSBASE
 10
0.0
 20
0.0
 30
0.0
  9
$PLIMCHECK
 70
     0
  9
$PEXTMIN
 10
1.000000E+20
 20
1.000000E+20
 30
1.000000E+20
  9
$PEXTMAX
 10
-1.000000E+20
 20
-1.000000E+20
 30
-1.000000E+20
  9
$PLIMMIN
 10
0.0
 20
0.0
  9
$PLIMMAX
 10
12.0
 20
9.0
  9
$UNITMODE
 70
     0
  9
$VISRETAIN
 70
     0
  9
$PLINEGEN
 70
     1
  9
$PSLTSCALE
 70
     0
  9
$TREEDEPTH
 70
  3020
  9
$CMLSTYLE
  2
Standard
  9
$CMLJUST
 70
     0
  9
$CMLSCALE
 40
1.0
  9
$PROXYGRAPHICS
 70
     0
  9
$MEASUREMENT
 70
     0
  9
$CELWEIGHT
370
     0
  9
$ENDCAPS
280
     0
  9
$JOINSTYLE
280
     0
  9
$LWDISPLAY
290
     0
  9
$INSUNITS
 70
     1
  9
$HYPERLINKBASE
  1

  9
$XEDIT
290
     1
  9
$CEPSNTYPE
380
     0
  9
$PSTYLEMODE
290
     1
  9
$FINGERPRINTGUID
  2

  9
$VERSIONGUID
  2

  9
$EXTNAMES
290
     1
  9
$PSVPSCALE
 40
0.0
  0
ENDSEC
  0
SECTION
  2
CLASSES
  0
CLASS
  1
LWPOLYLINE
  2
AcDbPolyline
  3
AutoCAD 2000
 90
    32768
280
     0
281
     1
  0
CLASS
  1
IMAGE
  2
AcDbRasterImage
  3
ISM
 90
    32895
280
     0
281
     1
  0
CLASS
  1
OLE2FRAME
  2
AcDbOle2Frame
  3
AutoCAD 2000
 90
    32768
280
     0
281
     1
  0
CLASS
  1
HATCH
  2
AcDbHatch
  3
AutoCAD 2000
 90
    32768
280
     0
281
     1
  0
CLASS
  1
DICTIONARYVAR
  2
AcDbDictionaryVar
  3
AutoCAD 2000
 90
    32768
280
     0
281
     0
  0
CLASS
  1
RASTERVARIABLES
  2
AcDbRasterVariables
  3
ISM
 90
    32768
280
     0
281
     0
  0
CLASS
  1
IMAGEDEF
  2
AcDbRasterImageDef
  3
ISM
 90
    32768
280
     0
281
     0
  0
CLASS
  1
IMAGEDEF_REACTOR
  2
AcDbRasterImageDefReactor
  3
ISM
 90
    32769
280
     0
281
     0
  0
CLASS
  1
IDBUFFER
  2
AcDbIdBuffer
  3
AutoCAD 2000
 90
    32768
280
     0
281
     0
  0
CLASS
  1
SPATIAL_FILTER
  2
AcDbSpatialFilter
  3
AutoCAD 2000
 90
    32768
280
     0
281
     0
  0
CLASS
  1
XRECORD
  2
AcDbXrecord
  3
AutoCAD 2000
 90
    32768
280
     0
281
     0
  0
CLASS
  1
SORTENTSTABLE
  2
AcDbSortentsTable
  3
AutoCAD 2000
 90
    32768
280
     0
281
     0
  0
CLASS
  1
LAYER_INDEX
  2
AcDbLayerIndex
  3
AutoCAD 2000
 90
    32768
280
     0
281
     0
  0
CLASS
  1
SPATIAL_INDEX
  2
AcDbSpatialIndex
  3
AutoCAD 2000
 90
    32768
280
     0
281
     0
  0
CLASS
  1
OBJECT_PTR
  2
CAseDLPNTableRecord
  3
"ASE-LPNTableRecord"
 90
    32769
280
     0
281
     0
  0
CLASS
  1
LAYOUT
  2
AcDbLayout
  3
AutoCAD 2000
 90
        0
280
     0
281
     0
  0
CLASS
  1
PLOTSETTINGS
  2
AcDbPlotSettings
  3
AutoCAD 2000
 90
    32768
280
     0
281
     0
  0
CLASS
  1
ACDBDICTIONARYWDFLT
  2
AcDbDictionaryWithDefault
  3
AutoCAD 2000
 90
        0
280
     0
281
     0
  0
CLASS
  1
ACDBPLACEHOLDER
  2
AcDbPlaceHolder
  3
AutoCAD 2000
 90
        0
280
     0
281
     0
  0
CLASS
  1
VBA_PROJECT
  2
AcDbVbaProject
  3
acadvba
 90
    32768
280
     0
281
     0
  0
CLASS
  1
WIPEOUT
  2
AcDbWipeout
  3
WipeOut|AutoCAD Express Tool|expresstools@autodesk.com
 90
    32895
280
     0
281
     1
  0
CLASS
  1
WIPEOUTVARIABLES
  2
AcDbWipeoutVariables
  3
WipeOut|AutoCAD Express Tool|expresstools@autodesk.com
 90
        0
280
     0
281
     0
  0
CLASS
  1
RTEXT
  2
RText
  3
RText|AutoCAD Express Tool|expresstools@autodesk.com
 90
    32768
280
     0
281
     1
  0
CLASS
  1
ARCALIGNEDTEXT
  2
AcDbArcAlignedText
  3
ATEXT|AutoCAD Express Tool|expresstools@autodesk.com
 90
    32768
280
     0
281
     1
  0
ENDSEC
  0
SECTION
  2
TABLES
  0
TABLE
  2
VPORT
  5
7
100
AcDbSymbolTable
 70
     1
  0
VPORT
  5
15
100
AcDbSymbolTableRecord
100
AcDbViewportTableRecord
  2
*ACTIVE
 70
     0
 10
0.0
 20
0.0
 11
1.0
 21
1.0
 12
6.591288
 22
4.579184
 13
0.0
 23
0.0
 14
1.0
 24
1.0
 15
0.0
 25
0.0
 16
0.0
 26
0.0
 36
1.0
 17
0.0
 27
0.0
 37
0.0
 40
9.158369
 41
0.688564
 42
50.0
 43
0.0
 44
0.0
 50
0.0
 51
0.0
 71
     0
 72
   100
 73
     1
 74
     1
 75
     0
 76
     0
 77
     0
 78
     0
281
     0
 65
     0
110
0.0
120
0.0
130
0.0
111
1.0
121
0.0
131
0.0
112
0.0
122
1.0
132
0.0
345
0
346
0
 79
     0
146
0.0
  0
ENDTAB
  0
TABLE
  2
LTYPE
  5
4
100
AcDbSymbolTable
 70
     3
  0
LTYPE
  5
11
100
AcDbSymbolTableRecord
100
AcDbLinetypeTableRecord
  2
ByBlock
 70
    64
  3

 72
    65
 73
     0
 40
0.0
  0
LTYPE
  5
12
100
AcDbSymbolTableRecord
100
AcDbLinetypeTableRecord
  2
ByLayer
 70
    64
  3

 72
    65
 73
     0
 40
0.0
  0
LTYPE
  5
13
100
AcDbSymbolTableRecord
100
AcDbLinetypeTableRecord
  2
Continuous
 70
    64
  3
Solid line
 72
    65
 73
     0
 40
0.0
  0
ENDTAB
  0
TABLE
  2
LAYER
  5
2
100
AcDbSymbolTable
 70
     3
  0
LAYER
  5
14
100
AcDbSymbolTableRecord
100
AcDbLayerTableRecord
  2
0
 70
     0
 62
     7
  6
Continuous
290
     1
370
    -3
390
1D
  0
LAYER
  5
24
100
AcDbSymbolTableRecord
100
AcDbLayerTableRecord
  2
Layer 1
 70
     0
 62
     7
  6
Continuous
290
     1
370
    -3
390
1F
  0
LAYER
  5
29
100
AcDbSymbolTableRecord
100
AcDbLayerTableRecord
  2
P1-Layer 1
 70
     0
 62
     7
  6
Continuous
290
     1
370
    -3
390
1F
  0
ENDTAB
  0
TABLE
  2
STYLE
  5
3
100
AcDbSymbolTable
 70
     2
  0
STYLE
  5
17
100
AcDbSymbolTableRecord
100
AcDbTextStyleTableRecord
  2
Standard
 70
     0
 40
0.0
 41
1.0
 50
0.0
 71
     0
 42
0.0
  3
txt
  4

  0
STYLE
  5
26
100
AcDbSymbolTableRecord
100
AcDbTextStyleTableRecord
  2
Bookman Old Style
 70
     0
 40
1.0
 41
1.0
 50
0.0
 71
     0
 42
1.0
  3
Bookman Old Style
  4

  0
ENDTAB
  0
TABLE
  2
VIEW
  5
5
100
AcDbSymbolTable
 70
     0
  0
ENDTAB
  0
TABLE
  2
UCS
  5
6
100
AcDbSymbolTable
 70
     0
  0
ENDTAB
  0
TABLE
  2
APPID
  5
8
100
AcDbSymbolTable
 70
     1
  0
APPID
  5
16
100
AcDbSymbolTableRecord
100
AcDbRegAppTableRecord
  2
ACAD
 70
     0
  0
ENDTAB
  0
TABLE
  2
DIMSTYLE
  5
9
100
AcDbSymbolTable
 70
     1
100
AcDbDimStyleTable
 71
     0
  0
DIMSTYLE
105
18
100
AcDbSymbolTableRecord
100
AcDbDimStyleTableRecord
  2
Standard
 70
     0
  3

  4

 40
1.0
 41
0.18
 42
0.0625
 43
0.38
 44
0.18
 45
0.0
 46
0.0
 47
0.0
 48
0.0
 71
     0
 72
     0
 73
     1
 74
     1
 75
     0
 76
     0
 77
     0
 78
     0
 79
     0
140
0.18
141
0.09
142
0.0
143
25.4
144
1.0
145
0.0
146
1.0
147
0.09
148
0.0
170
     0
171
     2
172
     0
173
     0
174
     0
175
     0
176
     0
177
     0
178
     0
179
     0
271
     4
272
     4
273
     2
274
     2
275
     0
276
     0
277
     2
278
    46
279
     0
280
     0
281
     0
282
     0
283
     1
284
     0
285
     0
286
     0
288
     0
340
17
341
0
342
0
343
0
344
0
371
    -2
372
    -2
  0
ENDTAB
  0
TABLE
  2
BLOCK_RECORD
  5
1
100
AcDbSymbolTable
 70
     0
  0
BLOCK_RECORD
  5
A
100
AcDbSymbolTableRecord
100
AcDbBlockTableRecord
  2
*MODEL_SPACE
340
20
  0
BLOCK_RECORD
  5
B
100
AcDbSymbolTableRecord
100
AcDbBlockTableRecord
  2
*PAPER_SPACE
340
21
  0
ENDTAB
  0
ENDSEC
  0
SECTION
  2
BLOCKS
  0
BLOCK
  5
D
100
AcDbEntity
  8
0
100
AcDbBlockBegin
  2
*MODEL_SPACE
 70
     0
 10
0.0
 20
0.0
 30
0.0
  3
*MODEL_SPACE
  1

  0
ENDBLK
  5
E
100
AcDbEntity
  8
0
100
AcDbBlockEnd
  0
BLOCK
  5
F
100
AcDbEntity
 67
     1
  8
0
100
AcDbBlockBegin
  2
*PAPER_SPACE
 70
     0
 10
0.0
 20
0.0
 30
0.0
  3
*PAPER_SPACE
  1

  0
ENDBLK
  5
10
100
AcDbEntity
 67
     1
  8
0
100
AcDbBlockEnd
  0
ENDSEC
  0
SECTION
  2
ENTITIES
  0
SPLINE
  5
25
100
AcDbEntity
  8
Layer 1
370
    40
100
AcDbSpline
210
0.0
220
0.0
230
1.0
 70
     1
 71
     3
 72
    56
 73
    52
 74
     0
 42
0.0000000001
 43
0.0000000001
 40
0.0
 40
0.0
 40
0.0
 40
0.0
 40
0.0769230769230769
 40
0.0769230769230769
 40
0.0769230769230769
 40
0.0769230769230769
 40
0.1538461538461539
 40
0.1538461538461539
 40
0.1538461538461539
 40
0.1538461538461539
 40
0.2307692307692308
 40
0.2307692307692308
 40
0.2307692307692308
 40
0.2307692307692308
 40
0.3076923076923077
 40
0.3076923076923077
 40
0.3076923076923077
 40
0.3076923076923077
 40
0.3846153846153846
 40
0.3846153846153846
 40
0.3846153846153846
 40
0.3846153846153846
 40
0.4615384615384616
 40
0.4615384615384616
 40
0.4615384615384616
 40
0.4615384615384616
 40
0.5384615384615386
 40
0.5384615384615386
 40
0.5384615384615386
 40
0.5384615384615386
 40
0.6153846153846154
 40
0.6153846153846154
 40
0.6153846153846154
 40
0.6153846153846154
 40
0.6923076923076923
 40
0.6923076923076923
 40
0.6923076923076923
 40
0.6923076923076923
 40
0.7692307692307692
 40
0.7692307692307692
 40
0.7692307692307692
 40
0.7692307692307692
 40
0.846153846153846
 40
0.846153846153846
 40
0.846153846153846
 40
0.846153846153846
 40
0.9230769230769229
 40
0.9230769230769229
 40
0.9230769230769229
 40
0.9230769230769229
 40
1.0
 40
1.0
 40
1.0
 40
1.0
 10
1.0260826771653544
 20
1.1863818897637797
 30
0.0
 10
1.0260826771653544
 20
1.1863818897637797
 30
0.0
 10
1.0260826771653544
 20
1.2717007874015749
 30
0.0
 10
1.0260826771653544
 20
1.2717007874015749
 30
0.0
 10
1.0260826771653544
 20
1.2717007874015749
 30
0.0
 10
1.0260826771653544
 20
1.2717007874015749
 30
0.0
 10
0.9112519685039371
 20
1.2606102362204725
 30
0.0
 10
0.8451338582677166
 20
1.3493346456692914
 30
0.0
 10
0.8451338582677166
 20
1.3493346456692914
 30
0.0
 10
0.7790157480314961
 20
1.4380590551181103
 30
0.0
 10
0.6761653543307087
 20
1.4664015748031496
 30
0.0
 10
0.6002874015748032
 20
1.3407086614173229
 30
0.0
 10
0.6002874015748032
 20
1.3407086614173229
 30
0.0
 10
0.6002874015748032
 20
1.3407086614173229
 30
0.0
 10
0.5782125984251969
 20
1.3407086614173229
 30
0.0
 10
0.5782125984251969
 20
1.3407086614173229
 30
0.0
 10
0.5782125984251969
 20
1.3407086614173229
 30
0.0
 10
0.5782125984251969
 20
1.3407086614173229
 30
0.0
 10
0.5671929133858268
 20
1.4332637795275591
 30
0.0
 10
0.5671929133858268
 20
1.4332637795275591
 30
0.0
 10
0.5671929133858268
 20
1.4332637795275591
 30
0.0
 10
0.5671929133858268
 20
1.4332637795275591
 30
0.0
 10
-0.5150275590551181
 20
1.4332637795275591
 30
0.0
 10
-0.5150275590551181
 20
1.4332637795275591
 30
0.0
 10
-0.5150275590551181
 20
1.4332637795275591
 30
0.0
 10
-0.5150275590551181
 20
1.4332637795275591
 30
0.0
 10
-0.5260472440944882
 20
1.3407086614173229
 30
0.0
 10
-0.5260472440944882
 20
1.3407086614173229
 30
0.0
 10
-0.5260472440944882
 20
1.3407086614173229
 30
0.0
 10
-0.5260472440944882
 20
1.3407086614173229
 30
0.0
 10
-0.5481220472440945
 20
1.3407086614173229
 30
0.0
 10
-0.5481220472440945
 20
1.3407086614173229
 30
0.0
 10
-0.5481220472440945
 20
1.3407086614173229
 30
0.0
 10
-0.624
 20
1.4664015748031496
 30
0.0
 10
-0.7268503937007874
 20
1.4380590551181103
 30
0.0
 10
-0.7929685039370079
 20
1.3493346456692914
 30
0.0
 10
-0.7929685039370079
 20
1.3493346456692914
 30
0.0
 10
-0.8590866141732284
 20
1.2606102362204725
 30
0.0
 10
-0.9739173228346457
 20
1.2717007874015749
 30
0.0
 10
-0.9739173228346457
 20
1.2717007874015749
 30
0.0
 10
-0.9739173228346457
 20
1.2717007874015749
 30
0.0
 10
-0.9739173228346457
 20
1.2717007874015749
 30
0.0
 10
-0.9739173228346457
 20
1.1863818897637797
 30
0.0
 10
-0.9739173228346457
 20
1.1863818897637797
 30
0.0
 10
-0.9739173228346457
 20
1.1863818897637797
 30
0.0
 10
-0.9739173228346457
 20
1.1863818897637797
 30
0.0
 10
-0.9753267716535433
 20
1.1866614173228347
 30
0.0
 10
-0.9753267716535433
 20
1.1866614173228347
 30
0.0
 10
-0.9753267716535433
 20
1.1866614173228347
 30
0.0
 10
-0.9753267716535433
 20
1.1866614173228347
 30
0.0
 10
1.0260826771653544
 20
1.1863818897637797
 30
0.0
 10
1.0260826771653544
 20
1.1863818897637797
 30
0.0
  0
TEXT
  5
27
100
AcDbEntity
  8
Layer 1
100
AcDbText
 10
-0.27078
 20
0.893051
 30
0.0
 40
0.119999
  1
BA  1512
 51
-0.000002
  7
Bookman Old Style
100
AcDbText
  0
TEXT
  5
28
100
AcDbEntity
  8
Layer 1
100
AcDbText
 10
-0.264098
 20
0.705551
 30
0.0
 40
0.119999
  1
1/4\u+201d x 2\u+201d
 51
-0.000002
  7
Bookman Old Style
100
AcDbText
  0
SPLINE
  5
2A
100
AcDbEntity
  8
P1-Layer 1
 62
     9
100
AcDbSpline
210
0.0
220
0.0
230
1.0
 70
     1
 71
     3
 72
    20
 73
    16
 74
     0
 42
0.0000000001
 43
0.0000000001
 40
0.0
 40
0.0
 40
0.0
 40
0.0
 40
0.25
 40
0.25
 40
0.25
 40
0.25
 40
0.5
 40
0.5
 40
0.5
 40
0.5
 40
0.75
 40
0.75
 40
0.75
 40
0.75
 40
1.0
 40
1.0
 40
1.0
 40
1.0
 10
0.7926377952755905
 20
-0.1552755905511811
 30
0.0
 10
0.7926377952755905
 20
-0.1552755905511811
 30
0.0
 10
1.4453818897637796
 20
0.2231456692913386
 30
0.0
 10
1.4453818897637796
 20
0.2231456692913386
 30
0.0
 10
1.4453818897637796
 20
0.2231456692913386
 30
0.0
 10
1.4453818897637796
 20
0.2231456692913386
 30
0.0
 10
1.4453818897637796
 20
0.3084645669291339
 30
0.0
 10
1.4453818897637796
 20
0.3084645669291339
 30
0.0
 10
1.4453818897637796
 20
0.3084645669291339
 30
0.0
 10
1.4453818897637796
 20
0.3084645669291339
 30
0.0
 10
0.7926377952755905
 20
-0.0699566929133858
 30
0.0
 10
0.7926377952755905
 20
-0.0699566929133858
 30
0.0
 10
0.7926377952755905
 20
-0.0699566929133858
 30
0.0
 10
0.7926377952755905
 20
-0.0699566929133858
 30
0.0
 10
0.7926377952755905
 20
-0.1552755905511811
 30
0.0
 10
0.7926377952755905
 20
-0.1552755905511811
 30
0.0
  0
SPLINE
  5
2B
100
AcDbEntity
  8
P1-Layer 1
370
     5
100
AcDbSpline
210
0.0
220
0.0
230
1.0
 70
     1
 71
     3
 72
    20
 73
    16
 74
     0
 42
0.0000000001
 43
0.0000000001
 40
0.0
 40
0.0
 40
0.0
 40
0.0
 40
0.25
 40
0.25
 40
0.25
 40
0.25
 40
0.5
 40
0.5
 40
0.5
 40
0.5
 40
0.75
 40
0.75
 40
0.75
 40
0.75
 40
1.0
 40
1.0
 40
1.0
 40
1.0
 10
0.7926377952755905
 20
-0.1552755905511811
 30
0.0
 10
0.7926377952755905
 20
-0.1552755905511811
 30
0.0
 10
1.4453818897637796
 20
0.2231456692913386
 30
0.0
 10
1.4453818897637796
 20
0.2231456692913386
 30
0.0
 10
1.4453818897637796
 20
0.2231456692913386
 30
0.0
 10
1.4453818897637796
 20
0.2231456692913386
 30
0.0
 10
1.4453818897637796
 20
0.3084645669291339
 30
0.0
 10
1.4453818897637796
 20
0.3084645669291339
 30
0.0
 10
1.4453818897637796
 20
0.3084645669291339
 30
0.0
 10
1.4453818897637796
 20
0.3084645669291339
 30
0.0
 10
0.7926377952755905
 20
-0.0699566929133858
 30
0.0
 10
0.7926377952755905
 20
-0.0699566929133858
 30
0.0
 10
0.7926377952755905
 20
-0.0699566929133858
 30
0.0
 10
0.7926377952755905
 20
-0.0699566929133858
 30
0.0
 10
0.7926377952755905
 20
-0.1552755905511811
 30
0.0
 10
0.7926377952755905
 20
-0.1552755905511811
 30
0.0
  0
SPLINE
  5
2C
100
AcDbEntity
  8
P1-Layer 1
 62
   252
100
AcDbSpline
210
0.0
220
0.0
230
1.0
 70
     1
 71
     3
 72
    20
 73
    16
 74
     0
 42
0.0000000001
 43
0.0000000001
 40
0.0
 40
0.0
 40
0.0
 40
0.0
 40
0.25
 40
0.25
 40
0.25
 40
0.25
 40
0.5
 40
0.5
 40
0.5
 40
0.5
 40
0.75
 40
0.75
 40
0.75
 40
0.75
 40
1.0
 40
1.0
 40
1.0
 40
1.0
 10
0.3668425196850394
 20
-0.0009488188976378
 30
0.0
 10
0.3668425196850394
 20
-0.0009488188976378
 30
0.0
 10
1.0195866141732284
 20
0.3774724409448819
 30
0.0
 10
1.0195866141732284
 20
0.3774724409448819
 30
0.0
 10
1.0195866141732284
 20
0.3774724409448819
 30
0.0
 10
1.0195866141732284
 20
0.3774724409448819
 30
0.0
 10
0.9975118110236221
 20
0.3774724409448819
 30
0.0
 10
0.9975118110236221
 20
0.3774724409448819
 30
0.0
 10
0.9975118110236221
 20
0.3774724409448819
 30
0.0
 10
0.9975118110236221
 20
0.3774724409448819
 30
0.0
 10
0.3447677165354331
 20
-0.0009488188976378
 30
0.0
 10
0.3447677165354331
 20
-0.0009488188976378
 30
0.0
 10
0.3447677165354331
 20
-0.0009488188976378
 30
0.0
 10
0.3447677165354331
 20
-0.0009488188976378
 30
0.0
 10
0.3668425196850394
 20
-0.0009488188976378
 30
0.0
 10
0.3668425196850394
 20
-0.0009488188976378
 30
0.0
  0
SPLINE
  5
2D
100
AcDbEntity
  8
P1-Layer 1
370
     5
100
AcDbSpline
210
0.0
220
0.0
230
1.0
 70
     1
 71
     3
 72
    20
 73
    16
 74
     0
 42
0.0000000001
 43
0.0000000001
 40
0.0
 40
0.0
 40
0.0
 40
0.0
 40
0.25
 40
0.25
 40
0.25
 40
0.25
 40
0.5
 40
0.5
 40
0.5
 40
0.5
 40
0.75
 40
0.75
 40
0.75
 40
0.75
 40
1.0
 40
1.0
 40
1.0
 40
1.0
 10
0.3668425196850394
 20
-0.0009488188976378
 30
0.0
 10
0.3668425196850394
 20
-0.0009488188976378
 30
0.0
 10
1.0195866141732284
 20
0.3774724409448819
 30
0.0
 10
1.0195866141732284
 20
0.3774724409448819
 30
0.0
 10
1.0195866141732284
 20
0.3774724409448819
 30
0.0
 10
1.0195866141732284
 20
0.3774724409448819
 30
0.0
 10
0.9975118110236221
 20
0.3774724409448819
 30
0.0
 10
0.9975118110236221
 20
0.3774724409448819
 30
0.0
 10
0.9975118110236221
 20
0.3774724409448819
 30
0.0
 10
0.9975118110236221
 20
0.3774724409448819
 30
0.0
 10
0.3447677165354331
 20
-0.0009488188976378
 30
0.0
 10
0.3447677165354331
 20
-0.0009488188976378
 30
0.0
 10
0.3447677165354331
 20
-0.0009488188976378
 30
0.0
 10
0.3447677165354331
 20
-0.0009488188976378
 30
0.0
 10
0.3668425196850394
 20
-0.0009488188976378
 30
0.0
 10
0.3668425196850394
 20
-0.0009488188976378
 30
0.0
  0
SPLINE
  5
2E
100
AcDbEntity
  8
P1-Layer 1
 62
     9
100
AcDbSpline
210
0.0
220
0.0
230
1.0
 70
     1
 71
     3
 72
    20
 73
    16
 74
     0
 42
0.0000000001
 43
0.0000000001
 40
0.0
 40
0.0
 40
0.0
 40
0.0
 40
0.25
 40
0.25
 40
0.25
 40
0.25
 40
0.5
 40
0.5
 40
0.5
 40
0.5
 40
0.75
 40
0.75
 40
0.75
 40
0.75
 40
1.0
 40
1.0
 40
1.0
 40
1.0
 10
0.3447677165354331
 20
-0.0009488188976378
 30
0.0
 10
0.3447677165354331
 20
-0.0009488188976378
 30
0.0
 10
0.9975118110236221
 20
0.3774724409448819
 30
0.0
 10
0.9975118110236221
 20
0.3774724409448819
 30
0.0
 10
0.9975118110236221
 20
0.3774724409448819
 30
0.0
 10
0.9975118110236221
 20
0.3774724409448819
 30
0.0
 10
0.986492125984252
 20
0.4700275590551181
 30
0.0
 10
0.986492125984252
 20
0.4700275590551181
 30
0.0
 10
0.986492125984252
 20
0.4700275590551181
 30
0.0
 10
0.986492125984252
 20
0.4700275590551181
 30
0.0
 10
0.333748031496063
 20
0.0916062992125984
 30
0.0
 10
0.333748031496063
 20
0.0916062992125984
 30
0.0
 10
0.333748031496063
 20
0.0916062992125984
 30
0.0
 10
0.333748031496063
 20
0.0916062992125984
 30
0.0
 10
0.3447677165354331
 20
-0.0009488188976378
 30
0.0
 10
0.3447677165354331
 20
-0.0009488188976378
 30
0.0
  0
SPLINE
  5
2F
100
AcDbEntity
  8
P1-Layer 1
370
     5
100
AcDbSpline
210
0.0
220
0.0
230
1.0
 70
     1
 71
     3
 72
    20
 73
    16
 74
     0
 42
0.0000000001
 43
0.0000000001
 40
0.0
 40
0.0
 40
0.0
 40
0.0
 40
0.25
 40
0.25
 40
0.25
 40
0.25
 40
0.5
 40
0.5
 40
0.5
 40
0.5
 40
0.75
 40
0.75
 40
0.75
 40
0.75
 40
1.0
 40
1.0
 40
1.0
 40
1.0
 10
0.3447677165354331
 20
-0.0009488188976378
 30
0.0
 10
0.3447677165354331
 20
-0.0009488188976378
 30
0.0
 10
0.9975118110236221
 20
0.3774724409448819
 30
0.0
 10
0.9975118110236221
 20
0.3774724409448819
 30
0.0
 10
0.9975118110236221
 20
0.3774724409448819
 30
0.0
 10
0.9975118110236221
 20
0.3774724409448819
 30
0.0
 10
0.986492125984252
 20
0.4700275590551181
 30
0.0
 10
0.986492125984252
 20
0.4700275590551181
 30
0.0
 10
0.986492125984252
 20
0.4700275590551181
 30
0.0
 10
0.986492125984252
 20
0.4700275590551181
 30
0.0
 10
0.333748031496063
 20
0.0916062992125984
 30
0.0
 10
0.333748031496063
 20
0.0916062992125984
 30
0.0
 10
0.333748031496063
 20
0.0916062992125984
 30
0.0
 10
0.333748031496063
 20
0.0916062992125984
 30
0.0
 10
0.3447677165354331
 20
-0.0009488188976378
 30
0.0
 10
0.3447677165354331
 20
-0.0009488188976378
 30
0.0
  0
SPLINE
  5
30
100
AcDbEntity
  8
P1-Layer 1
 62
   252
100
AcDbSpline
210
0.0
220
0.0
230
1.0
 70
     1
 71
     3
 72
   116
 73
   112
 74
     0
 42
0.0000000001
 43
0.0000000001
 40
0.0
 40
0.0
 40
0.0
 40
0.0
 40
0.0357142857142857
 40
0.0357142857142857
 40
0.0357142857142857
 40
0.0357142857142857
 40
0.0714285714285714
 40
0.0714285714285714
 40
0.0714285714285714
 40
0.0714285714285714
 40
0.1071428571428571
 40
0.1071428571428571
 40
0.1071428571428571
 40
0.1071428571428571
 40
0.1428571428571429
 40
0.1428571428571429
 40
0.1428571428571429
 40
0.1428571428571429
 40
0.1785714285714286
 40
0.1785714285714286
 40
0.1785714285714286
 40
0.1785714285714286
 40
0.2142857142857143
 40
0.2142857142857143
 40
0.2142857142857143
 40
0.2142857142857143
 40
0.2499999999999999
 40
0.2499999999999999
 40
0.2499999999999999
 40
0.2499999999999999
 40
0.2857142857142856
 40
0.2857142857142856
 40
0.2857142857142856
 40
0.2857142857142856
 40
0.3214285714285713
 40
0.3214285714285713
 40
0.3214285714285713
 40
0.3214285714285713
 40
0.357142857142857
 40
0.357142857142857
 40
0.357142857142857
 40
0.357142857142857
 40
0.3928571428571427
 40
0.3928571428571427
 40
0.3928571428571427
 40
0.3928571428571427
 40
0.4285714285714284
 40
0.4285714285714284
 40
0.4285714285714284
 40
0.4285714285714284
 40
0.4642857142857141
 40
0.4642857142857141
 40
0.4642857142857141
 40
0.4642857142857141
 40
0.4999999999999998
 40
0.4999999999999998
 40
0.4999999999999998
 40
0.4999999999999998
 40
0.5357142857142856
 40
0.5357142857142856
 40
0.5357142857142856
 40
0.5357142857142856
 40
0.5714285714285713
 40
0.5714285714285713
 40
0.5714285714285713
 40
0.5714285714285713
 40
0.607142857142857
 40
0.607142857142857
 40
0.607142857142857
 40
0.607142857142857
 40
0.6428571428571427
 40
0.6428571428571427
 40
0.6428571428571427
 40
0.6428571428571427
 40
0.6785714285714284
 40
0.6785714285714284
 40
0.6785714285714284
 40
0.6785714285714284
 40
0.7142857142857141
 40
0.7142857142857141
 40
0.7142857142857141
 40
0.7142857142857141
 40
0.7499999999999998
 40
0.7499999999999998
 40
0.7499999999999998
 40
0.7499999999999998
 40
0.7857142857142855
 40
0.7857142857142855
 40
0.7857142857142855
 40
0.7857142857142855
 40
0.8214285714285712
 40
0.8214285714285712
 40
0.8214285714285712
 40
0.8214285714285712
 40
0.8571428571428569
 40
0.8571428571428569
 40
0.8571428571428569
 40
0.8571428571428569
 40
0.8928571428571426
 40
0.8928571428571426
 40
0.8928571428571426
 40
0.8928571428571426
 40
0.9285714285714283
 40
0.9285714285714283
 40
0.9285714285714283
 40
0.9285714285714283
 40
0.964285714285714
 40
0.964285714285714
 40
0.964285714285714
 40
0.964285714285714
 40
1.0
 40
1.0
 40
1.0
 40
1.0
 10
0.7926377952755905
 20
-0.0699566929133858
 30
0.0
 10
0.7926377952755905
 20
-0.0699566929133858
 30
0.0
 10
1.4453818897637796
 20
0.3084645669291339
 30
0.0
 10
1.4453818897637796
 20
0.3084645669291339
 30
0.0
 10
1.4453818897637796
 20
0.3084645669291339
 30
0.0
 10
1.4453818897637796
 20
0.3084645669291339
 30
0.0
 10
1.4450472440944881
 20
0.3084409448818898
 30
0.0
 10
1.4450472440944881
 20
0.3084409448818898
 30
0.0
 10
1.4450472440944881
 20
0.3084409448818898
 30
0.0
 10
1.4450472440944881
 20
0.3084409448818898
 30
0.0
 10
1.4440748031496065
 20
0.3083622047244095
 30
0.0
 10
1.4440748031496065
 20
0.3083622047244095
 30
0.0
 10
1.4440748031496065
 20
0.3083622047244095
 30
0.0
 10
1.4440748031496065
 20
0.3083622047244095
 30
0.0
 10
1.4424842519685039
 20
0.3082677165354331
 30
0.0
 10
1.4424842519685039
 20
0.3082677165354331
 30
0.0
 10
1.4424842519685039
 20
0.3082677165354331
 30
0.0
 10
1.4424842519685039
 20
0.3082677165354331
 30
0.0
 10
1.4403149606299213
 20
0.3081653543307087
 30
0.0
 10
1.4403149606299213
 20
0.3081653543307087
 30
0.0
 10
1.4403149606299213
 20
0.3081653543307087
 30
0.0
 10
1.4403149606299213
 20
0.3081653543307087
 30
0.0
 10
1.4375866141732283
 20
0.3080826771653544
 30
0.0
 10
1.4375866141732283
 20
0.3080826771653544
 30
0.0
 10
1.4375866141732283
 20
0.3080826771653544
 30
0.0
 10
1.4375866141732283
 20
0.3080826771653544
 30
0.0
 10
1.4343425196850395
 20
0.3080314960629921
 30
0.0
 10
1.4343425196850395
 20
0.3080314960629921
 30
0.0
 10
1.4343425196850395
 20
0.3080314960629921
 30
0.0
 10
1.4343425196850395
 20
0.3080314960629921
 30
0.0
 10
1.4306023622047244
 20
0.3080433070866142
 30
0.0
 10
1.4306023622047244
 20
0.3080433070866142
 30
0.0
 10
1.4306023622047244
 20
0.3080433070866142
 30
0.0
 10
1.4306023622047244
 20
0.3080433070866142
 30
0.0
 10
1.4264055118110237
 20
0.3081220472440945
 30
0.0
 10
1.4264055118110237
 20
0.3081220472440945
 30
0.0
 10
1.4264055118110237
 20
0.3081220472440945
 30
0.0
 10
1.4264055118110237
 20
0.3081220472440945
 30
0.0
 10
1.4217637795275591
 20
0.3083070866141732
 30
0.0
 10
1.4217637795275591
 20
0.3083070866141732
 30
0.0
 10
1.4217637795275591
 20
0.3083070866141732
 30
0.0
 10
1.4217637795275591
 20
0.3083070866141732
 30
0.0
 10
1.4167244094488189
 20
0.3086062992125984
 30
0.0
 10
1.4167244094488189
 20
0.3086062992125984
 30
0.0
 10
1.4167244094488189
 20
0.3086062992125984
 30
0.0
 10
1.4167244094488189
 20
0.3086062992125984
 30
0.0
 10
1.4113070866141733
 20
0.3090472440944882
 30
0.0
 10
1.4113070866141733
 20
0.3090472440944882
 30
0.0
 10
1.4113070866141733
 20
0.3090472440944882
 30
0.0
 10
1.4113070866141733
 20
0.3090472440944882
 30
0.0
 10
1.4055551181102364
 20
0.3096377952755905
 30
0.0
 10
1.4055551181102364
 20
0.3096377952755905
 30
0.0
 10
1.4055551181102364
 20
0.3096377952755905
 30
0.0
 10
1.4055551181102364
 20
0.3096377952755905
 30
0.0
 10
1.399484251968504
 20
0.3104173228346457
 30
0.0
 10
1.399484251968504
 20
0.3104173228346457
 30
0.0
 10
1.399484251968504
 20
0.3104173228346457
 30
0.0
 10
1.399484251968504
 20
0.3104173228346457
 30
0.0
 10
0.746740157480315
 20
-0.068003937007874
 30
0.0
 10
0.746740157480315
 20
-0.068003937007874
 30
0.0
 10
0.746740157480315
 20
-0.068003937007874
 30
0.0
 10
0.746740157480315
 20
-0.068003937007874
 30
0.0
 10
0.7528110236220473
 20
-0.0687834645669291
 30
0.0
 10
0.7528110236220473
 20
-0.0687834645669291
 30
0.0
 10
0.7528110236220473
 20
-0.0687834645669291
 30
0.0
 10
0.7528110236220473
 20
-0.0687834645669291
 30
0.0
 10
0.7585629921259843
 20
-0.0693740157480315
 30
0.0
 10
0.7585629921259843
 20
-0.0693740157480315
 30
0.0
 10
0.7585629921259843
 20
-0.0693740157480315
 30
0.0
 10
0.7585629921259843
 20
-0.0693740157480315
 30
0.0
 10
0.7639803149606299
 20
-0.0698149606299213
 30
0.0
 10
0.7639803149606299
 20
-0.0698149606299213
 30
0.0
 10
0.7639803149606299
 20
-0.0698149606299213
 30
0.0
 10
0.7639803149606299
 20
-0.0698149606299213
 30
0.0
 10
0.7690196850393701
 20
-0.0701141732283465
 30
0.0
 10
0.7690196850393701
 20
-0.0701141732283465
 30
0.0
 10
0.7690196850393701
 20
-0.0701141732283465
 30
0.0
 10
0.7690196850393701
 20
-0.0701141732283465
 30
0.0
 10
0.7736614173228347
 20
-0.0702992125984252
 30
0.0
 10
0.7736614173228347
 20
-0.0702992125984252
 30
0.0
 10
0.7736614173228347
 20
-0.0702992125984252
 30
0.0
 10
0.7736614173228347
 20
-0.0702992125984252
 30
0.0
 10
0.7778582677165354
 20
-0.0703779527559055
 30
0.0
 10
0.7778582677165354
 20
-0.0703779527559055
 30
0.0
 10
0.7778582677165354
 20
-0.0703779527559055
 30
0.0
 10
0.7778582677165354
 20
-0.0703779527559055
 30
0.0
 10
0.7815984251968504
 20
-0.0703897637795276
 30
0.0
 10
0.7815984251968504
 20
-0.0703897637795276
 30
0.0
 10
0.7815984251968504
 20
-0.0703897637795276
 30
0.0
 10
0.7815984251968504
 20
-0.0703897637795276
 30
0.0
 10
0.7848425196850394
 20
-0.0703385826771654
 30
0.0
 10
0.7848425196850394
 20
-0.0703385826771654
 30
0.0
 10
0.7848425196850394
 20
-0.0703385826771654
 30
0.0
 10
0.7848425196850394
 20
-0.0703385826771654
 30
0.0
 10
0.7875708661417323
 20
-0.070255905511811
 30
0.0
 10
0.7875708661417323
 20
-0.070255905511811
 30
0.0
 10
0.7875708661417323
 20
-0.070255905511811
 30
0.0
 10
0.7875708661417323
 20
-0.070255905511811
 30
0.0
 10
0.789740157480315
 20
-0.0701535433070866
 30
0.0
 10
0.789740157480315
 20
-0.0701535433070866
 30
0.0
 10
0.789740157480315
 20
-0.0701535433070866
 30
0.0
 10
0.789740157480315
 20
-0.0701535433070866
 30
0.0
 10
0.7913307086614173
 20
-0.0700590551181102
 30
0.0
 10
0.7913307086614173
 20
-0.0700590551181102
 30
0.0
 10
0.7913307086614173
 20
-0.0700590551181102
 30
0.0
 10
0.7913307086614173
 20
-0.0700590551181102
 30
0.0
 10
0.7923031496062992
 20
-0.0699803149606299
 30
0.0
 10
0.7923031496062992
 20
-0.0699803149606299
 30
0.0
 10
0.7923031496062992
 20
-0.0699803149606299
 30
0.0
 10
0.7923031496062992
 20
-0.0699803149606299
 30
0.0
 10
0.7926377952755905
 20
-0.0699566929133858
 30
0.0
 10
0.7926377952755905
 20
-0.0699566929133858
 30
0.0
  0
SPLINE
  5
31
100
AcDbEntity
  8
P1-Layer 1
 62
   253
100
AcDbSpline
210
0.0
220
0.0
230
1.0
 70
     1
 71
     3
 72
    60
 73
    56
 74
     0
 42
0.0000000001
 43
0.0000000001
 40
0.0
 40
0.0
 40
0.0
 40
0.0
 40
0.0714285714285714
 40
0.0714285714285714
 40
0.0714285714285714
 40
0.0714285714285714
 40
0.1428571428571429
 40
0.1428571428571429
 40
0.1428571428571429
 40
0.1428571428571429
 40
0.2142857142857143
 40
0.2142857142857143
 40
0.2142857142857143
 40
0.2142857142857143
 40
0.2857142857142857
 40
0.2857142857142857
 40
0.2857142857142857
 40
0.2857142857142857
 40
0.3571428571428571
 40
0.3571428571428571
 40
0.3571428571428571
 40
0.3571428571428571
 40
0.4285714285714285
 40
0.4285714285714285
 40
0.4285714285714285
 40
0.4285714285714285
 40
0.4999999999999999
 40
0.4999999999999999
 40
0.4999999999999999
 40
0.4999999999999999
 40
0.5714285714285713
 40
0.5714285714285713
 40
0.5714285714285713
 40
0.5714285714285713
 40
0.6428571428571427
 40
0.6428571428571427
 40
0.6428571428571427
 40
0.6428571428571427
 40
0.7142857142857141
 40
0.7142857142857141
 40
0.7142857142857141
 40
0.7142857142857141
 40
0.7857142857142855
 40
0.7857142857142855
 40
0.7857142857142855
 40
0.7857142857142855
 40
0.8571428571428569
 40
0.8571428571428569
 40
0.8571428571428569
 40
0.8571428571428569
 40
0.9285714285714283
 40
0.9285714285714283
 40
0.9285714285714283
 40
0.9285714285714283
 40
1.0
 40
1.0
 40
1.0
 40
1.0
 10
0.746740157480315
 20
-0.068003937007874
 30
0.0
 10
0.746740157480315
 20
-0.068003937007874
 30
0.0
 10
1.399484251968504
 20
0.3104173228346457
 30
0.0
 10
1.399484251968504
 20
0.3104173228346457
 30
0.0
 10
1.399484251968504
 20
0.3104173228346457
 30
0.0
 10
1.399484251968504
 20
0.3104173228346457
 30
0.0
 10
1.3931338582677166
 20
0.3113897637795276
 30
0.0
 10
1.3931338582677166
 20
0.3113897637795276
 30
0.0
 10
1.3931338582677166
 20
0.3113897637795276
 30
0.0
 10
1.3931338582677166
 20
0.3113897637795276
 30
0.0
 10
1.3865236220472441
 20
0.3125826771653543
 30
0.0
 10
1.3865236220472441
 20
0.3125826771653543
 30
0.0
 10
1.3865236220472441
 20
0.3125826771653543
 30
0.0
 10
1.3865236220472441
 20
0.3125826771653543
 30
0.0
 10
1.3797007874015748
 20
0.3140118110236221
 30
0.0
 10
1.3797007874015748
 20
0.3140118110236221
 30
0.0
 10
1.3797007874015748
 20
0.3140118110236221
 30
0.0
 10
1.3797007874015748
 20
0.3140118110236221
 30
0.0
 10
1.3726732283464567
 20
0.3157125984251969
 30
0.0
 10
1.3726732283464567
 20
0.3157125984251969
 30
0.0
 10
1.3726732283464567
 20
0.3157125984251969
 30
0.0
 10
1.3726732283464567
 20
0.3157125984251969
 30
0.0
 10
1.365484251968504
 20
0.3176850393700788
 30
0.0
 10
1.365484251968504
 20
0.3176850393700788
 30
0.0
 10
1.365484251968504
 20
0.3176850393700788
 30
0.0
 10
1.365484251968504
 20
0.3176850393700788
 30
0.0
 10
1.3581614173228347
 20
0.3199606299212598
 30
0.0
 10
1.3581614173228347
 20
0.3199606299212598
 30
0.0
 10
1.3581614173228347
 20
0.3199606299212598
 30
0.0
 10
1.3581614173228347
 20
0.3199606299212598
 30
0.0
 10
0.7054173228346456
 20
-0.0584606299212598
 30
0.0
 10
0.7054173228346456
 20
-0.0584606299212598
 30
0.0
 10
0.7054173228346456
 20
-0.0584606299212598
 30
0.0
 10
0.7054173228346456
 20
-0.0584606299212598
 30
0.0
 10
0.7127401574803149
 20
-0.0607362204724409
 30
0.0
 10
0.7127401574803149
 20
-0.0607362204724409
 30
0.0
 10
0.7127401574803149
 20
-0.0607362204724409
 30
0.0
 10
0.7127401574803149
 20
-0.0607362204724409
 30
0.0
 10
0.7199291338582677
 20
-0.0627086614173228
 30
0.0
 10
0.7199291338582677
 20
-0.0627086614173228
 30
0.0
 10
0.7199291338582677
 20
-0.0627086614173228
 30
0.0
 10
0.7199291338582677
 20
-0.0627086614173228
 30
0.0
 10
0.7269566929133858
 20
-0.0644094488188976
 30
0.0
 10
0.7269566929133858
 20
-0.0644094488188976
 30
0.0
 10
0.7269566929133858
 20
-0.0644094488188976
 30
0.0
 10
0.7269566929133858
 20
-0.0644094488188976
 30
0.0
 10
0.7337795275590552
 20
-0.0658385826771654
 30
0.0
 10
0.7337795275590552
 20
-0.0658385826771654
 30
0.0
 10
0.7337795275590552
 20
-0.0658385826771654
 30
0.0
 10
0.7337795275590552
 20
-0.0658385826771654
 30
0.0
 10
0.7403897637795276
 20
-0.0670314960629921
 30
0.0
 10
0.7403897637795276
 20
-0.0670314960629921
 30
0.0
 10
0.7403897637795276
 20
-0.0670314960629921
 30
0.0
 10
0.7403897637795276
 20
-0.0670314960629921
 30
0.0
 10
0.746740157480315
 20
-0.068003937007874
 30
0.0
 10
0.746740157480315
 20
-0.068003937007874
 30
0.0
  0
SPLINE
  5
32
100
AcDbEntity
  8
P1-Layer 1
 62
   253
100
AcDbSpline
210
0.0
220
0.0
230
1.0
 70
     1
 71
     3
 72
    60
 73
    56
 74
     0
 42
0.0000000001
 43
0.0000000001
 40
0.0
 40
0.0
 40
0.0
 40
0.0
 40
0.0714285714285714
 40
0.0714285714285714
 40
0.0714285714285714
 40
0.0714285714285714
 40
0.1428571428571429
 40
0.1428571428571429
 40
0.1428571428571429
 40
0.1428571428571429
 40
0.2142857142857143
 40
0.2142857142857143
 40
0.2142857142857143
 40
0.2142857142857143
 40
0.2857142857142857
 40
0.2857142857142857
 40
0.2857142857142857
 40
0.2857142857142857
 40
0.3571428571428571
 40
0.3571428571428571
 40
0.3571428571428571
 40
0.3571428571428571
 40
0.4285714285714285
 40
0.4285714285714285
 40
0.4285714285714285
 40
0.4285714285714285
 40
0.4999999999999999
 40
0.4999999999999999
 40
0.4999999999999999
 40
0.4999999999999999
 40
0.5714285714285713
 40
0.5714285714285713
 40
0.5714285714285713
 40
0.5714285714285713
 40
0.6428571428571427
 40
0.6428571428571427
 40
0.6428571428571427
 40
0.6428571428571427
 40
0.7142857142857141
 40
0.7142857142857141
 40
0.7142857142857141
 40
0.7142857142857141
 40
0.7857142857142855
 40
0.7857142857142855
 40
0.7857142857142855
 40
0.7857142857142855
 40
0.8571428571428569
 40
0.8571428571428569
 40
0.8571428571428569
 40
0.8571428571428569
 40
0.9285714285714283
 40
0.9285714285714283
 40
0.9285714285714283
 40
0.9285714285714283
 40
1.0
 40
1.0
 40
1.0
 40
1.0
 10
0.7054173228346456
 20
-0.0584606299212598
 30
0.0
 10
0.7054173228346456
 20
-0.0584606299212598
 30
0.0
 10
1.3581614173228347
 20
0.3199606299212598
 30
0.0
 10
1.3581614173228347
 20
0.3199606299212598
 30
0.0
 10
1.3581614173228347
 20
0.3199606299212598
 30
0.0
 10
1.3581614173228347
 20
0.3199606299212598
 30
0.0
 10
1.3507401574803151
 20
0.3225551181102362
 30
0.0
 10
1.3507401574803151
 20
0.3225551181102362
 30
0.0
 10
1.3507401574803151
 20
0.3225551181102362
 30
0.0
 10
1.3507401574803151
 20
0.3225551181102362
 30
0.0
 10
1.3432362204724411
 20
0.325496062992126
 30
0.0
 10
1.3432362204724411
 20
0.325496062992126
 30
0.0
 10
1.3432362204724411
 20
0.325496062992126
 30
0.0
 10
1.3432362204724411
 20
0.325496062992126
 30
0.0
 10
1.3356929133858269
 20
0.3287874015748032
 30
0.0
 10
1.3356929133858269
 20
0.3287874015748032
 30
0.0
 10
1.3356929133858269
 20
0.3287874015748032
 30
0.0
 10
1.3356929133858269
 20
0.3287874015748032
 30
0.0
 10
1.3281338582677167
 20
0.3324645669291339
 30
0.0
 10
1.3281338582677167
 20
0.3324645669291339
 30
0.0
 10
1.3281338582677167
 20
0.3324645669291339
 30
0.0
 10
1.3281338582677167
 20
0.3324645669291339
 30
0.0
 10
1.3205984251968503
 20
0.3365433070866142
 30
0.0
 10
1.3205984251968503
 20
0.3365433070866142
 30
0.0
 10
1.3205984251968503
 20
0.3365433070866142
 30
0.0
 10
1.3205984251968503
 20
0.3365433070866142
 30
0.0
 10
1.3130984251968505
 20
0.3410472440944882
 30
0.0
 10
1.3130984251968505
 20
0.3410472440944882
 30
0.0
 10
1.3130984251968505
 20
0.3410472440944882
 30
0.0
 10
1.3130984251968505
 20
0.3410472440944882
 30
0.0
 10
0.6603543307086615
 20
-0.0373740157480315
 30
0.0
 10
0.6603543307086615
 20
-0.0373740157480315
 30
0.0
 10
0.6603543307086615
 20
-0.0373740157480315
 30
0.0
 10
0.6603543307086615
 20
-0.0373740157480315
 30
0.0
 10
0.6678543307086614
 20
-0.0418779527559055
 30
0.0
 10
0.6678543307086614
 20
-0.0418779527559055
 30
0.0
 10
0.6678543307086614
 20
-0.0418779527559055
 30
0.0
 10
0.6678543307086614
 20
-0.0418779527559055
 30
0.0
 10
0.6753897637795275
 20
-0.0459566929133858
 30
0.0
 10
0.6753897637795275
 20
-0.0459566929133858
 30
0.0
 10
0.6753897637795275
 20
-0.0459566929133858
 30
0.0
 10
0.6753897637795275
 20
-0.0459566929133858
 30
0.0
 10
0.6829488188976378
 20
-0.0496338582677165
 30
0.0
 10
0.6829488188976378
 20
-0.0496338582677165
 30
0.0
 10
0.6829488188976378
 20
-0.0496338582677165
 30
0.0
 10
0.6829488188976378
 20
-0.0496338582677165
 30
0.0
 10
0.690492125984252
 20
-0.0529251968503937
 30
0.0
 10
0.690492125984252
 20
-0.0529251968503937
 30
0.0
 10
0.690492125984252
 20
-0.0529251968503937
 30
0.0
 10
0.690492125984252
 20
-0.0529251968503937
 30
0.0
 10
0.697996062992126
 20
-0.0558661417322835
 30
0.0
 10
0.697996062992126
 20
-0.0558661417322835
 30
0.0
 10
0.697996062992126
 20
-0.0558661417322835
 30
0.0
 10
0.697996062992126
 20
-0.0558661417322835
 30
0.0
 10
0.7054173228346456
 20
-0.0584606299212598
 30
0.0
 10
0.7054173228346456
 20
-0.0584606299212598
 30
0.0
  0
SPLINE
  5
33
100
AcDbEntity
  8
P1-Layer 1
 62
     9
100
AcDbSpline
210
0.0
220
0.0
230
1.0
 70
     1
 71
     3
 72
    52
 73
    48
 74
     0
 42
0.0000000001
 43
0.0000000001
 40
0.0
 40
0.0
 40
0.0
 40
0.0
 40
0.0833333333333333
 40
0.0833333333333333
 40
0.0833333333333333
 40
0.0833333333333333
 40
0.1666666666666667
 40
0.1666666666666667
 40
0.1666666666666667
 40
0.1666666666666667
 40
0.25
 40
0.25
 40
0.25
 40
0.25
 40
0.3333333333333333
 40
0.3333333333333333
 40
0.3333333333333333
 40
0.3333333333333333
 40
0.4166666666666666
 40
0.4166666666666666
 40
0.4166666666666666
 40
0.4166666666666666
 40
0.4999999999999999
 40
0.4999999999999999
 40
0.4999999999999999
 40
0.4999999999999999
 40
0.5833333333333333
 40
0.5833333333333333
 40
0.5833333333333333
 40
0.5833333333333333
 40
0.6666666666666666
 40
0.6666666666666666
 40
0.6666666666666666
 40
0.6666666666666666
 40
0.75
 40
0.75
 40
0.75
 40
0.75
 40
0.8333333333333334
 40
0.8333333333333334
 40
0.8333333333333334
 40
0.8333333333333334
 40
0.9166666666666667
 40
0.9166666666666667
 40
0.9166666666666667
 40
0.9166666666666667
 40
1.0
 40
1.0
 40
1.0
 40
1.0
 10
0.6603543307086615
 20
-0.0373740157480315
 30
0.0
 10
0.6603543307086615
 20
-0.0373740157480315
 30
0.0
 10
1.3130984251968505
 20
0.3410472440944882
 30
0.0
 10
1.3130984251968505
 20
0.3410472440944882
 30
0.0
 10
1.3130984251968505
 20
0.3410472440944882
 30
0.0
 10
1.3130984251968505
 20
0.3410472440944882
 30
0.0
 10
1.3056771653543306
 20
0.345996062992126
 30
0.0
 10
1.3056771653543306
 20
0.345996062992126
 30
0.0
 10
1.3056771653543306
 20
0.345996062992126
 30
0.0
 10
1.3056771653543306
 20
0.345996062992126
 30
0.0
 10
1.2983622047244094
 20
0.3514055118110236
 30
0.0
 10
1.2983622047244094
 20
0.3514055118110236
 30
0.0
 10
1.2983622047244094
 20
0.3514055118110236
 30
0.0
 10
1.2983622047244094
 20
0.3514055118110236
 30
0.0
 10
1.2911889763779527
 20
0.3572952755905512
 30
0.0
 10
1.2911889763779527
 20
0.3572952755905512
 30
0.0
 10
1.2911889763779527
 20
0.3572952755905512
 30
0.0
 10
1.2911889763779527
 20
0.3572952755905512
 30
0.0
 10
1.2841732283464566
 20
0.3636968503937008
 30
0.0
 10
1.2841732283464566
 20
0.3636968503937008
 30
0.0
 10
1.2841732283464566
 20
0.3636968503937008
 30
0.0
 10
1.2841732283464566
 20
0.3636968503937008
 30
0.0
 10
1.2773582677165354
 20
0.3706102362204725
 30
0.0
 10
1.2773582677165354
 20
0.3706102362204725
 30
0.0
 10
1.2773582677165354
 20
0.3706102362204725
 30
0.0
 10
1.2773582677165354
 20
0.3706102362204725
 30
0.0
 10
0.6246141732283465
 20
-0.0078110236220472
 30
0.0
 10
0.6246141732283465
 20
-0.0078110236220472
 30
0.0
 10
0.6246141732283465
 20
-0.0078110236220472
 30
0.0
 10
0.6246141732283465
 20
-0.0078110236220472
 30
0.0
 10
0.6314291338582677
 20
-0.0147244094488189
 30
0.0
 10
0.6314291338582677
 20
-0.0147244094488189
 30
0.0
 10
0.6314291338582677
 20
-0.0147244094488189
 30
0.0
 10
0.6314291338582677
 20
-0.0147244094488189
 30
0.0
 10
0.6384448818897638
 20
-0.0211259842519685
 30
0.0
 10
0.6384448818897638
 20
-0.0211259842519685
 30
0.0
 10
0.6384448818897638
 20
-0.0211259842519685
 30
0.0
 10
0.6384448818897638
 20
-0.0211259842519685
 30
0.0
 10
0.6456181102362205
 20
-0.0270157480314961
 30
0.0
 10
0.6456181102362205
 20
-0.0270157480314961
 30
0.0
 10
0.6456181102362205
 20
-0.0270157480314961
 30
0.0
 10
0.6456181102362205
 20
-0.0270157480314961
 30
0.0
 10
0.6529330708661417
 20
-0.0324251968503937
 30
0.0
 10
0.6529330708661417
 20
-0.0324251968503937
 30
0.0
 10
0.6529330708661417
 20
-0.0324251968503937
 30
0.0
 10
0.6529330708661417
 20
-0.0324251968503937
 30
0.0
 10
0.6603543307086615
 20
-0.0373740157480315
 30
0.0
 10
0.6603543307086615
 20
-0.0373740157480315
 30
0.0
  0
SPLINE
  5
34
100
AcDbEntity
  8
P1-Layer 1
 62
     9
100
AcDbSpline
210
0.0
220
0.0
230
1.0
 70
     1
 71
     3
 72
    44
 73
    40
 74
     0
 42
0.0000000001
 43
0.0000000001
 40
0.0
 40
0.0
 40
0.0
 40
0.0
 40
0.1
 40
0.1
 40
0.1
 40
0.1
 40
0.2
 40
0.2
 40
0.2
 40
0.2
 40
0.3
 40
0.3
 40
0.3
 40
0.3
 40
0.4
 40
0.4
 40
0.4
 40
0.4
 40
0.5
 40
0.5
 40
0.5
 40
0.5
 40
0.6
 40
0.6
 40
0.6
 40
0.6
 40
0.7
 40
0.7
 40
0.7
 40
0.7
 40
0.7999999999999999
 40
0.7999999999999999
 40
0.7999999999999999
 40
0.7999999999999999
 40
0.8999999999999999
 40
0.8999999999999999
 40
0.8999999999999999
 40
0.8999999999999999
 40
1.0
 40
1.0
 40
1.0
 40
1.0
 10
0.6246141732283465
 20
-0.0078110236220472
 30
0.0
 10
0.6246141732283465
 20
-0.0078110236220472
 30
0.0
 10
1.2773582677165354
 20
0.3706102362204725
 30
0.0
 10
1.2773582677165354
 20
0.3706102362204725
 30
0.0
 10
1.2773582677165354
 20
0.3706102362204725
 30
0.0
 10
1.2773582677165354
 20
0.3706102362204725
 30
0.0
 10
1.270763779527559
 20
0.3780748031496063
 30
0.0
 10
1.270763779527559
 20
0.3780748031496063
 30
0.0
 10
1.270763779527559
 20
0.3780748031496063
 30
0.0
 10
1.270763779527559
 20
0.3780748031496063
 30
0.0
 10
1.2644330708661418
 20
0.3860984251968504
 30
0.0
 10
1.2644330708661418
 20
0.3860984251968504
 30
0.0
 10
1.2644330708661418
 20
0.3860984251968504
 30
0.0
 10
1.2644330708661418
 20
0.3860984251968504
 30
0.0
 10
1.2581220472440946
 20
0.394244094488189
 30
0.0
 10
1.2581220472440946
 20
0.394244094488189
 30
0.0
 10
1.2581220472440946
 20
0.394244094488189
 30
0.0
 10
1.2581220472440946
 20
0.394244094488189
 30
0.0
 10
1.2516141732283466
 20
0.4020078740157481
 30
0.0
 10
1.2516141732283466
 20
0.4020078740157481
 30
0.0
 10
1.2516141732283466
 20
0.4020078740157481
 30
0.0
 10
1.2516141732283466
 20
0.4020078740157481
 30
0.0
 10
0.5988700787401575
 20
0.0235866141732283
 30
0.0
 10
0.5988700787401575
 20
0.0235866141732283
 30
0.0
 10
0.5988700787401575
 20
0.0235866141732283
 30
0.0
 10
0.5988700787401575
 20
0.0235866141732283
 30
0.0
 10
0.6053779527559056
 20
0.0158228346456693
 30
0.0
 10
0.6053779527559056
 20
0.0158228346456693
 30
0.0
 10
0.6053779527559056
 20
0.0158228346456693
 30
0.0
 10
0.6053779527559056
 20
0.0158228346456693
 30
0.0
 10
0.6116889763779528
 20
0.0076771653543307
 30
0.0
 10
0.6116889763779528
 20
0.0076771653543307
 30
0.0
 10
0.6116889763779528
 20
0.0076771653543307
 30
0.0
 10
0.6116889763779528
 20
0.0076771653543307
 30
0.0
 10
0.6180196850393701
 20
-0.0003464566929134
 30
0.0
 10
0.6180196850393701
 20
-0.0003464566929134
 30
0.0
 10
0.6180196850393701
 20
-0.0003464566929134
 30
0.0
 10
0.6180196850393701
 20
-0.0003464566929134
 30
0.0
 10
0.6246141732283465
 20
-0.0078110236220472
 30
0.0
 10
0.6246141732283465
 20
-0.0078110236220472
 30
0.0
  0
SPLINE
  5
35
100
AcDbEntity
  8
P1-Layer 1
 62
     9
100
AcDbSpline
210
0.0
220
0.0
230
1.0
 70
     1
 71
     3
 72
    52
 73
    48
 74
     0
 42
0.0000000001
 43
0.0000000001
 40
0.0
 40
0.0
 40
0.0
 40
0.0
 40
0.0833333333333333
 40
0.0833333333333333
 40
0.0833333333333333
 40
0.0833333333333333
 40
0.1666666666666667
 40
0.1666666666666667
 40
0.1666666666666667
 40
0.1666666666666667
 40
0.25
 40
0.25
 40
0.25
 40
0.25
 40
0.3333333333333333
 40
0.3333333333333333
 40
0.3333333333333333
 40
0.3333333333333333
 40
0.4166666666666666
 40
0.4166666666666666
 40
0.4166666666666666
 40
0.4166666666666666
 40
0.4999999999999999
 40
0.4999999999999999
 40
0.4999999999999999
 40
0.4999999999999999
 40
0.5833333333333333
 40
0.5833333333333333
 40
0.5833333333333333
 40
0.5833333333333333
 40
0.6666666666666666
 40
0.6666666666666666
 40
0.6666666666666666
 40
0.6666666666666666
 40
0.75
 40
0.75
 40
0.75
 40
0.75
 40
0.8333333333333334
 40
0.8333333333333334
 40
0.8333333333333334
 40
0.8333333333333334
 40
0.9166666666666667
 40
0.9166666666666667
 40
0.9166666666666667
 40
0.9166666666666667
 40
1.0
 40
1.0
 40
1.0
 40
1.0
 10
0.5988700787401575
 20
0.0235866141732283
 30
0.0
 10
0.5988700787401575
 20
0.0235866141732283
 30
0.0
 10
1.2516141732283466
 20
0.4020078740157481
 30
0.0
 10
1.2516141732283466
 20
0.4020078740157481
 30
0.0
 10
1.2516141732283466
 20
0.4020078740157481
 30
0.0
 10
1.2516141732283466
 20
0.4020078740157481
 30
0.0
 10
1.2449133858267718
 20
0.4093897637795276
 30
0.0
 10
1.2449133858267718
 20
0.4093897637795276
 30
0.0
 10
1.2449133858267718
 20
0.4093897637795276
 30
0.0
 10
1.2449133858267718
 20
0.4093897637795276
 30
0.0
 10
1.2380354330708663
 20
0.4163622047244095
 30
0.0
 10
1.2380354330708663
 20
0.4163622047244095
 30
0.0
 10
1.2380354330708663
 20
0.4163622047244095
 30
0.0
 10
1.2380354330708663
 20
0.4163622047244095
 30
0.0
 10
1.2309842519685039
 20
0.4229173228346457
 30
0.0
 10
1.2309842519685039
 20
0.4229173228346457
 30
0.0
 10
1.2309842519685039
 20
0.4229173228346457
 30
0.0
 10
1.2309842519685039
 20
0.4229173228346457
 30
0.0
 10
1.2237795275590551
 20
0.4290275590551181
 30
0.0
 10
1.2237795275590551
 20
0.4290275590551181
 30
0.0
 10
1.2237795275590551
 20
0.4290275590551181
 30
0.0
 10
1.2237795275590551
 20
0.4290275590551181
 30
0.0
 10
1.2164291338582678
 20
0.4346811023622048
 30
0.0
 10
1.2164291338582678
 20
0.4346811023622048
 30
0.0
 10
1.2164291338582678
 20
0.4346811023622048
 30
0.0
 10
1.2164291338582678
 20
0.4346811023622048
 30
0.0
 10
0.5636850393700787
 20
0.056259842519685
 30
0.0
 10
0.5636850393700787
 20
0.056259842519685
 30
0.0
 10
0.5636850393700787
 20
0.056259842519685
 30
0.0
 10
0.5636850393700787
 20
0.056259842519685
 30
0.0
 10
0.5710354330708661
 20
0.0506062992125984
 30
0.0
 10
0.5710354330708661
 20
0.0506062992125984
 30
0.0
 10
0.5710354330708661
 20
0.0506062992125984
 30
0.0
 10
0.5710354330708661
 20
0.0506062992125984
 30
0.0
 10
0.578240157480315
 20
0.044496062992126
 30
0.0
 10
0.578240157480315
 20
0.044496062992126
 30
0.0
 10
0.578240157480315
 20
0.044496062992126
 30
0.0
 10
0.578240157480315
 20
0.044496062992126
 30
0.0
 10
0.5852913385826772
 20
0.0379409448818898
 30
0.0
 10
0.5852913385826772
 20
0.0379409448818898
 30
0.0
 10
0.5852913385826772
 20
0.0379409448818898
 30
0.0
 10
0.5852913385826772
 20
0.0379409448818898
 30
0.0
 10
0.5921692913385827
 20
0.0309685039370079
 30
0.0
 10
0.5921692913385827
 20
0.0309685039370079
 30
0.0
 10
0.5921692913385827
 20
0.0309685039370079
 30
0.0
 10
0.5921692913385827
 20
0.0309685039370079
 30
0.0
 10
0.5988700787401575
 20
0.0235866141732283
 30
0.0
 10
0.5988700787401575
 20
0.0235866141732283
 30
0.0
  0
SPLINE
  5
36
100
AcDbEntity
  8
P1-Layer 1
 62
   253
100
AcDbSpline
210
0.0
220
0.0
230
1.0
 70
     1
 71
     3
 72
    52
 73
    48
 74
     0
 42
0.0000000001
 43
0.0000000001
 40
0.0
 40
0.0
 40
0.0
 40
0.0
 40
0.0833333333333333
 40
0.0833333333333333
 40
0.0833333333333333
 40
0.0833333333333333
 40
0.1666666666666667
 40
0.1666666666666667
 40
0.1666666666666667
 40
0.1666666666666667
 40
0.25
 40
0.25
 40
0.25
 40
0.25
 40
0.3333333333333333
 40
0.3333333333333333
 40
0.3333333333333333
 40
0.3333333333333333
 40
0.4166666666666666
 40
0.4166666666666666
 40
0.4166666666666666
 40
0.4166666666666666
 40
0.4999999999999999
 40
0.4999999999999999
 40
0.4999999999999999
 40
0.4999999999999999
 40
0.5833333333333333
 40
0.5833333333333333
 40
0.5833333333333333
 40
0.5833333333333333
 40
0.6666666666666666
 40
0.6666666666666666
 40
0.6666666666666666
 40
0.6666666666666666
 40
0.75
 40
0.75
 40
0.75
 40
0.75
 40
0.8333333333333334
 40
0.8333333333333334
 40
0.8333333333333334
 40
0.8333333333333334
 40
0.9166666666666667
 40
0.9166666666666667
 40
0.9166666666666667
 40
0.9166666666666667
 40
1.0
 40
1.0
 40
1.0
 40
1.0
 10
0.5636850393700787
 20
0.056259842519685
 30
0.0
 10
0.5636850393700787
 20
0.056259842519685
 30
0.0
 10
1.2164291338582678
 20
0.4346811023622048
 30
0.0
 10
1.2164291338582678
 20
0.4346811023622048
 30
0.0
 10
1.2164291338582678
 20
0.4346811023622048
 30
0.0
 10
1.2164291338582678
 20
0.4346811023622048
 30
0.0
 10
1.2089488188976378
 20
0.4398582677165355
 30
0.0
 10
1.2089488188976378
 20
0.4398582677165355
 30
0.0
 10
1.2089488188976378
 20
0.4398582677165355
 30
0.0
 10
1.2089488188976378
 20
0.4398582677165355
 30
0.0
 10
1.2013385826771654
 20
0.4445551181102362
 30
0.0
 10
1.2013385826771654
 20
0.4445551181102362
 30
0.0
 10
1.2013385826771654
 20
0.4445551181102362
 30
0.0
 10
1.2013385826771654
 20
0.4445551181102362
 30
0.0
 10
1.1936220472440946
 20
0.4487362204724409
 30
0.0
 10
1.1936220472440946
 20
0.4487362204724409
 30
0.0
 10
1.1936220472440946
 20
0.4487362204724409
 30
0.0
 10
1.1936220472440946
 20
0.4487362204724409
 30
0.0
 10
1.1858031496062993
 20
0.4523937007874016
 30
0.0
 10
1.1858031496062993
 20
0.4523937007874016
 30
0.0
 10
1.1858031496062993
 20
0.4523937007874016
 30
0.0
 10
1.1858031496062993
 20
0.4523937007874016
 30
0.0
 10
1.1779055118110238
 20
0.4555039370078741
 30
0.0
 10
1.1779055118110238
 20
0.4555039370078741
 30
0.0
 10
1.1779055118110238
 20
0.4555039370078741
 30
0.0
 10
1.1779055118110238
 20
0.4555039370078741
 30
0.0
 10
0.5251614173228346
 20
0.0770826771653543
 30
0.0
 10
0.5251614173228346
 20
0.0770826771653543
 30
0.0
 10
0.5251614173228346
 20
0.0770826771653543
 30
0.0
 10
0.5251614173228346
 20
0.0770826771653543
 30
0.0
 10
0.5330590551181103
 20
0.0739724409448819
 30
0.0
 10
0.5330590551181103
 20
0.0739724409448819
 30
0.0
 10
0.5330590551181103
 20
0.0739724409448819
 30
0.0
 10
0.5330590551181103
 20
0.0739724409448819
 30
0.0
 10
0.5408779527559056
 20
0.0703149606299213
 30
0.0
 10
0.5408779527559056
 20
0.0703149606299213
 30
0.0
 10
0.5408779527559056
 20
0.0703149606299213
 30
0.0
 10
0.5408779527559056
 20
0.0703149606299213
 30
0.0
 10
0.5485944881889764
 20
0.0661338582677165
 30
0.0
 10
0.5485944881889764
 20
0.0661338582677165
 30
0.0
 10
0.5485944881889764
 20
0.0661338582677165
 30
0.0
 10
0.5485944881889764
 20
0.0661338582677165
 30
0.0
 10
0.5562047244094488
 20
0.0614370078740158
 30
0.0
 10
0.5562047244094488
 20
0.0614370078740158
 30
0.0
 10
0.5562047244094488
 20
0.0614370078740158
 30
0.0
 10
0.5562047244094488
 20
0.0614370078740158
 30
0.0
 10
0.5636850393700787
 20
0.056259842519685
 30
0.0
 10
0.5636850393700787
 20
0.056259842519685
 30
0.0
  0
SPLINE
  5
37
100
AcDbEntity
  8
P1-Layer 1
 62
   253
100
AcDbSpline
210
0.0
220
0.0
230
1.0
 70
     1
 71
     3
 72
    60
 73
    56
 74
     0
 42
0.0000000001
 43
0.0000000001
 40
0.0
 40
0.0
 40
0.0
 40
0.0
 40
0.0714285714285714
 40
0.0714285714285714
 40
0.0714285714285714
 40
0.0714285714285714
 40
0.1428571428571429
 40
0.1428571428571429
 40
0.1428571428571429
 40
0.1428571428571429
 40
0.2142857142857143
 40
0.2142857142857143
 40
0.2142857142857143
 40
0.2142857142857143
 40
0.2857142857142857
 40
0.2857142857142857
 40
0.2857142857142857
 40
0.2857142857142857
 40
0.3571428571428571
 40
0.3571428571428571
 40
0.3571428571428571
 40
0.3571428571428571
 40
0.4285714285714285
 40
0.4285714285714285
 40
0.4285714285714285
 40
0.4285714285714285
 40
0.4999999999999999
 40
0.4999999999999999
 40
0.4999999999999999
 40
0.4999999999999999
 40
0.5714285714285713
 40
0.5714285714285713
 40
0.5714285714285713
 40
0.5714285714285713
 40
0.6428571428571427
 40
0.6428571428571427
 40
0.6428571428571427
 40
0.6428571428571427
 40
0.7142857142857141
 40
0.7142857142857141
 40
0.7142857142857141
 40
0.7142857142857141
 40
0.7857142857142855
 40
0.7857142857142855
 40
0.7857142857142855
 40
0.7857142857142855
 40
0.8571428571428569
 40
0.8571428571428569
 40
0.8571428571428569
 40
0.8571428571428569
 40
0.9285714285714283
 40
0.9285714285714283
 40
0.9285714285714283
 40
0.9285714285714283
 40
1.0
 40
1.0
 40
1.0
 40
1.0
 10
0.5251614173228346
 20
0.0770826771653543
 30
0.0
 10
0.5251614173228346
 20
0.0770826771653543
 30
0.0
 10
1.1779055118110238
 20
0.4555039370078741
 30
0.0
 10
1.1779055118110238
 20
0.4555039370078741
 30
0.0
 10
1.1779055118110238
 20
0.4555039370078741
 30
0.0
 10
1.1779055118110238
 20
0.4555039370078741
 30
0.0
 10
1.1699251968503936
 20
0.4580629921259843
 30
0.0
 10
1.1699251968503936
 20
0.4580629921259843
 30
0.0
 10
1.1699251968503936
 20
0.4580629921259843
 30
0.0
 10
1.1699251968503936
 20
0.4580629921259843
 30
0.0
 10
1.1618897637795276
 20
0.4600393700787402
 30
0.0
 10
1.1618897637795276
 20
0.4600393700787402
 30
0.0
 10
1.1618897637795276
 20
0.4600393700787402
 30
0.0
 10
1.1618897637795276
 20
0.4600393700787402
 30
0.0
 10
1.1537952755905512
 20
0.4614251968503937
 30
0.0
 10
1.1537952755905512
 20
0.4614251968503937
 30
0.0
 10
1.1537952755905512
 20
0.4614251968503937
 30
0.0
 10
1.1537952755905512
 20
0.4614251968503937
 30
0.0
 10
1.1456653543307087
 20
0.4621929133858268
 30
0.0
 10
1.1456653543307087
 20
0.4621929133858268
 30
0.0
 10
1.1456653543307087
 20
0.4621929133858268
 30
0.0
 10
1.1456653543307087
 20
0.4621929133858268
 30
0.0
 10
1.1375
 20
0.4623425196850394
 30
0.0
 10
1.1375
 20
0.4623425196850394
 30
0.0
 10
1.1375
 20
0.4623425196850394
 30
0.0
 10
1.1375
 20
0.4623425196850394
 30
0.0
 10
1.1293228346456694
 20
0.4618425196850394
 30
0.0
 10
1.1293228346456694
 20
0.4618425196850394
 30
0.0
 10
1.1293228346456694
 20
0.4618425196850394
 30
0.0
 10
1.1293228346456694
 20
0.4618425196850394
 30
0.0
 10
0.4765787401574803
 20
0.0834212598425197
 30
0.0
 10
0.4765787401574803
 20
0.0834212598425197
 30
0.0
 10
0.4765787401574803
 20
0.0834212598425197
 30
0.0
 10
0.4765787401574803
 20
0.0834212598425197
 30
0.0
 10
0.484755905511811
 20
0.0839212598425197
 30
0.0
 10
0.484755905511811
 20
0.0839212598425197
 30
0.0
 10
0.484755905511811
 20
0.0839212598425197
 30
0.0
 10
0.484755905511811
 20
0.0839212598425197
 30
0.0
 10
0.4929212598425197
 20
0.0837716535433071
 30
0.0
 10
0.4929212598425197
 20
0.0837716535433071
 30
0.0
 10
0.4929212598425197
 20
0.0837716535433071
 30
0.0
 10
0.4929212598425197
 20
0.0837716535433071
 30
0.0
 10
0.5010511811023622
 20
0.083003937007874
 30
0.0
 10
0.5010511811023622
 20
0.083003937007874
 30
0.0
 10
0.5010511811023622
 20
0.083003937007874
 30
0.0
 10
0.5010511811023622
 20
0.083003937007874
 30
0.0
 10
0.5091456692913386
 20
0.0816181102362205
 30
0.0
 10
0.5091456692913386
 20
0.0816181102362205
 30
0.0
 10
0.5091456692913386
 20
0.0816181102362205
 30
0.0
 10
0.5091456692913386
 20
0.0816181102362205
 30
0.0
 10
0.5171811023622047
 20
0.0796417322834646
 30
0.0
 10
0.5171811023622047
 20
0.0796417322834646
 30
0.0
 10
0.5171811023622047
 20
0.0796417322834646
 30
0.0
 10
0.5171811023622047
 20
0.0796417322834646
 30
0.0
 10
0.5251614173228346
 20
0.0770826771653543
 30
0.0
 10
0.5251614173228346
 20
0.0770826771653543
 30
0.0
  0
SPLINE
  5
38
100
AcDbEntity
  8
P1-Layer 1
 62
   109
100
AcDbSpline
210
0.0
220
0.0
230
1.0
 70
     1
 71
     3
 72
    52
 73
    48
 74
     0
 42
0.0000000001
 43
0.0000000001
 40
0.0
 40
0.0
 40
0.0
 40
0.0
 40
0.0833333333333333
 40
0.0833333333333333
 40
0.0833333333333333
 40
0.0833333333333333
 40
0.1666666666666667
 40
0.1666666666666667
 40
0.1666666666666667
 40
0.1666666666666667
 40
0.25
 40
0.25
 40
0.25
 40
0.25
 40
0.3333333333333333
 40
0.3333333333333333
 40
0.3333333333333333
 40
0.3333333333333333
 40
0.4166666666666666
 40
0.4166666666666666
 40
0.4166666666666666
 40
0.4166666666666666
 40
0.4999999999999999
 40
0.4999999999999999
 40
0.4999999999999999
 40
0.4999999999999999
 40
0.5833333333333333
 40
0.5833333333333333
 40
0.5833333333333333
 40
0.5833333333333333
 40
0.6666666666666666
 40
0.6666666666666666
 40
0.6666666666666666
 40
0.6666666666666666
 40
0.75
 40
0.75
 40
0.75
 40
0.75
 40
0.8333333333333334
 40
0.8333333333333334
 40
0.8333333333333334
 40
0.8333333333333334
 40
0.9166666666666667
 40
0.9166666666666667
 40
0.9166666666666667
 40
0.9166666666666667
 40
1.0
 40
1.0
 40
1.0
 40
1.0
 10
0.4765787401574803
 20
0.0834212598425197
 30
0.0
 10
0.4765787401574803
 20
0.0834212598425197
 30
0.0
 10
1.1293228346456694
 20
0.4618425196850394
 30
0.0
 10
1.1293228346456694
 20
0.4618425196850394
 30
0.0
 10
1.1293228346456694
 20
0.4618425196850394
 30
0.0
 10
1.1293228346456694
 20
0.4618425196850394
 30
0.0
 10
1.1211338582677166
 20
0.4606811023622047
 30
0.0
 10
1.1211338582677166
 20
0.4606811023622047
 30
0.0
 10
1.1211338582677166
 20
0.4606811023622047
 30
0.0
 10
1.1211338582677166
 20
0.4606811023622047
 30
0.0
 10
1.11296062992126
 20
0.4588346456692913
 30
0.0
 10
1.11296062992126
 20
0.4588346456692913
 30
0.0
 10
1.11296062992126
 20
0.4588346456692913
 30
0.0
 10
1.11296062992126
 20
0.4588346456692913
 30
0.0
 10
1.1047992125984252
 20
0.4562992125984252
 30
0.0
 10
1.1047992125984252
 20
0.4562992125984252
 30
0.0
 10
1.1047992125984252
 20
0.4562992125984252
 30
0.0
 10
1.1047992125984252
 20
0.4562992125984252
 30
0.0
 10
1.0966692913385827
 20
0.4530472440944882
 30
0.0
 10
1.0966692913385827
 20
0.4530472440944882
 30
0.0
 10
1.0966692913385827
 20
0.4530472440944882
 30
0.0
 10
1.0966692913385827
 20
0.4530472440944882
 30
0.0
 10
1.0885787401574805
 20
0.4490629921259843
 30
0.0
 10
1.0885787401574805
 20
0.4490629921259843
 30
0.0
 10
1.0885787401574805
 20
0.4490629921259843
 30
0.0
 10
1.0885787401574805
 20
0.4490629921259843
 30
0.0
 10
0.4358346456692914
 20
0.0706417322834646
 30
0.0
 10
0.4358346456692914
 20
0.0706417322834646
 30
0.0
 10
0.4358346456692914
 20
0.0706417322834646
 30
0.0
 10
0.4358346456692914
 20
0.0706417322834646
 30
0.0
 10
0.4439251968503937
 20
0.0746259842519685
 30
0.0
 10
0.4439251968503937
 20
0.0746259842519685
 30
0.0
 10
0.4439251968503937
 20
0.0746259842519685
 30
0.0
 10
0.4439251968503937
 20
0.0746259842519685
 30
0.0
 10
0.4520551181102362
 20
0.0778779527559055
 30
0.0
 10
0.4520551181102362
 20
0.0778779527559055
 30
0.0
 10
0.4520551181102362
 20
0.0778779527559055
 30
0.0
 10
0.4520551181102362
 20
0.0778779527559055
 30
0.0
 10
0.4602165354330709
 20
0.0804133858267717
 30
0.0
 10
0.4602165354330709
 20
0.0804133858267717
 30
0.0
 10
0.4602165354330709
 20
0.0804133858267717
 30
0.0
 10
0.4602165354330709
 20
0.0804133858267717
 30
0.0
 10
0.4683897637795276
 20
0.082259842519685
 30
0.0
 10
0.4683897637795276
 20
0.082259842519685
 30
0.0
 10
0.4683897637795276
 20
0.082259842519685
 30
0.0
 10
0.4683897637795276
 20
0.082259842519685
 30
0.0
 10
0.4765787401574803
 20
0.0834212598425197
 30
0.0
 10
0.4765787401574803
 20
0.0834212598425197
 30
0.0
  0
SPLINE
  5
39
100
AcDbEntity
  8
P1-Layer 1
100
AcDbSpline
210
0.0
220
0.0
230
1.0
 70
     1
 71
     3
 72
    20
 73
    16
 74
     0
 42
0.0000000001
 43
0.0000000001
 40
0.0
 40
0.0
 40
0.0
 40
0.0
 40
0.25
 40
0.25
 40
0.25
 40
0.25
 40
0.5
 40
0.5
 40
0.5
 40
0.5
 40
0.75
 40
0.75
 40
0.75
 40
0.75
 40
1.0
 40
1.0
 40
1.0
 40
1.0
 10
0.4358346456692914
 20
0.0706417322834646
 30
0.0
 10
0.4358346456692914
 20
0.0706417322834646
 30
0.0
 10
1.0885787401574805
 20
0.4490629921259843
 30
0.0
 10
1.0885787401574805
 20
0.4490629921259843
 30
0.0
 10
1.0885787401574805
 20
0.4490629921259843
 30
0.0
 10
1.0885787401574805
 20
0.4490629921259843
 30
0.0
 10
1.0805511811023623
 20
0.4443267716535433
 30
0.0
 10
1.0805511811023623
 20
0.4443267716535433
 30
0.0
 10
1.0805511811023623
 20
0.4443267716535433
 30
0.0
 10
1.0805511811023623
 20
0.4443267716535433
 30
0.0
 10
0.4278070866141733
 20
0.0659055118110236
 30
0.0
 10
0.4278070866141733
 20
0.0659055118110236
 30
0.0
 10
0.4278070866141733
 20
0.0659055118110236
 30
0.0
 10
0.4278070866141733
 20
0.0659055118110236
 30
0.0
 10
0.4358346456692914
 20
0.0706417322834646
 30
0.0
 10
0.4358346456692914
 20
0.0706417322834646
 30
0.0
  0
SPLINE
  5
3A
100
AcDbEntity
  8
P1-Layer 1
370
     5
100
AcDbSpline
210
0.0
220
0.0
230
1.0
 70
     1
 71
     3
 72
   460
 73
   456
 74
     0
 42
0.0000000001
 43
0.0000000001
 40
0.0
 40
0.0
 40
0.0
 40
0.0
 40
0.0087719298245614
 40
0.0087719298245614
 40
0.0087719298245614
 40
0.0087719298245614
 40
0.0175438596491228
 40
0.0175438596491228
 40
0.0175438596491228
 40
0.0175438596491228
 40
0.0263157894736842
 40
0.0263157894736842
 40
0.0263157894736842
 40
0.0263157894736842
 40
0.0350877192982456
 40
0.0350877192982456
 40
0.0350877192982456
 40
0.0350877192982456
 40
0.043859649122807
 40
0.043859649122807
 40
0.043859649122807
 40
0.043859649122807
 40
0.0526315789473684
 40
0.0526315789473684
 40
0.0526315789473684
 40
0.0526315789473684
 40
0.0614035087719298
 40
0.0614035087719298
 40
0.0614035087719298
 40
0.0614035087719298
 40
0.0701754385964912
 40
0.0701754385964912
 40
0.0701754385964912
 40
0.0701754385964912
 40
0.0789473684210526
 40
0.0789473684210526
 40
0.0789473684210526
 40
0.0789473684210526
 40
0.087719298245614
 40
0.087719298245614
 40
0.087719298245614
 40
0.087719298245614
 40
0.0964912280701754
 40
0.0964912280701754
 40
0.0964912280701754
 40
0.0964912280701754
 40
0.1052631578947368
 40
0.1052631578947368
 40
0.1052631578947368
 40
0.1052631578947368
 40
0.1140350877192982
 40
0.1140350877192982
 40
0.1140350877192982
 40
0.1140350877192982
 40
0.1228070175438596
 40
0.1228070175438596
 40
0.1228070175438596
 40
0.1228070175438596
 40
0.1315789473684211
 40
0.1315789473684211
 40
0.1315789473684211
 40
0.1315789473684211
 40
0.1403508771929825
 40
0.1403508771929825
 40
0.1403508771929825
 40
0.1403508771929825
 40
0.1491228070175439
 40
0.1491228070175439
 40
0.1491228070175439
 40
0.1491228070175439
 40
0.1578947368421053
 40
0.1578947368421053
 40
0.1578947368421053
 40
0.1578947368421053
 40
0.1666666666666667
 40
0.1666666666666667
 40
0.1666666666666667
 40
0.1666666666666667
 40
0.1754385964912281
 40
0.1754385964912281
 40
0.1754385964912281
 40
0.1754385964912281
 40
0.1842105263157895
 40
0.1842105263157895
 40
0.1842105263157895
 40
0.1842105263157895
 40
0.1929824561403509
 40
0.1929824561403509
 40
0.1929824561403509
 40
0.1929824561403509
 40
0.2017543859649123
 40
0.2017543859649123
 40
0.2017543859649123
 40
0.2017543859649123
 40
0.2105263157894737
 40
0.2105263157894737
 40
0.2105263157894737
 40
0.2105263157894737
 40
0.2192982456140351
 40
0.2192982456140351
 40
0.2192982456140351
 40
0.2192982456140351
 40
0.2280701754385965
 40
0.2280701754385965
 40
0.2280701754385965
 40
0.2280701754385965
 40
0.2368421052631579
 40
0.2368421052631579
 40
0.2368421052631579
 40
0.2368421052631579
 40
0.2456140350877193
 40
0.2456140350877193
 40
0.2456140350877193
 40
0.2456140350877193
 40
0.2543859649122807
 40
0.2543859649122807
 40
0.2543859649122807
 40
0.2543859649122807
 40
0.2631578947368422
 40
0.2631578947368422
 40
0.2631578947368422
 40
0.2631578947368422
 40
0.2719298245614036
 40
0.2719298245614036
 40
0.2719298245614036
 40
0.2719298245614036
 40
0.280701754385965
 40
0.280701754385965
 40
0.280701754385965
 40
0.280701754385965
 40
0.2894736842105264
 40
0.2894736842105264
 40
0.2894736842105264
 40
0.2894736842105264
 40
0.2982456140350879
 40
0.2982456140350879
 40
0.2982456140350879
 40
0.2982456140350879
 40
0.3070175438596493
 40
0.3070175438596493
 40
0.3070175438596493
 40
0.3070175438596493
 40
0.3157894736842107
 40
0.3157894736842107
 40
0.3157894736842107
 40
0.3157894736842107
 40
0.3245614035087722
 40
0.3245614035087722
 40
0.3245614035087722
 40
0.3245614035087722
 40
0.3333333333333336
 40
0.3333333333333336
 40
0.3333333333333336
 40
0.3333333333333336
 40
0.342105263157895
 40
0.342105263157895
 40
0.342105263157895
 40
0.342105263157895
 40
0.3508771929824565
 40
0.3508771929824565
 40
0.3508771929824565
 40
0.3508771929824565
 40
0.3596491228070179
 40
0.3596491228070179
 40
0.3596491228070179
 40
0.3596491228070179
 40
0.3684210526315793
 40
0.3684210526315793
 40
0.3684210526315793
 40
0.3684210526315793
 40
0.3771929824561408
 40
0.3771929824561408
 40
0.3771929824561408
 40
0.3771929824561408
 40
0.3859649122807022
 40
0.3859649122807022
 40
0.3859649122807022
 40
0.3859649122807022
 40
0.3947368421052636
 40
0.3947368421052636
 40
0.3947368421052636
 40
0.3947368421052636
 40
0.403508771929825
 40
0.403508771929825
 40
0.403508771929825
 40
0.403508771929825
 40
0.4122807017543865
 40
0.4122807017543865
 40
0.4122807017543865
 40
0.4122807017543865
 40
0.4210526315789479
 40
0.4210526315789479
 40
0.4210526315789479
 40
0.4210526315789479
 40
0.4298245614035093
 40
0.4298245614035093
 40
0.4298245614035093
 40
0.4298245614035093
 40
0.4385964912280708
 40
0.4385964912280708
 40
0.4385964912280708
 40
0.4385964912280708
 40
0.4473684210526322
 40
0.4473684210526322
 40
0.4473684210526322
 40
0.4473684210526322
 40
0.4561403508771936
 40
0.4561403508771936
 40
0.4561403508771936
 40
0.4561403508771936
 40
0.4649122807017551
 40
0.4649122807017551
 40
0.4649122807017551
 40
0.4649122807017551
 40
0.4736842105263165
 40
0.4736842105263165
 40
0.4736842105263165
 40
0.4736842105263165
 40
0.4824561403508779
 40
0.4824561403508779
 40
0.4824561403508779
 40
0.4824561403508779
 40
0.4912280701754394
 40
0.4912280701754394
 40
0.4912280701754394
 40
0.4912280701754394
 40
0.5000000000000008
 40
0.5000000000000008
 40
0.5000000000000008
 40
0.5000000000000008
 40
0.5087719298245622
 40
0.5087719298245622
 40
0.5087719298245622
 40
0.5087719298245622
 40
0.5175438596491236
 40
0.5175438596491236
 40
0.5175438596491236
 40
0.5175438596491236
 40
0.5263157894736851
 40
0.5263157894736851
 40
0.5263157894736851
 40
0.5263157894736851
 40
0.5350877192982465
 40
0.5350877192982465
 40
0.5350877192982465
 40
0.5350877192982465
 40
0.5438596491228079
 40
0.5438596491228079
 40
0.5438596491228079
 40
0.5438596491228079
 40
0.5526315789473694
 40
0.5526315789473694
 40
0.5526315789473694
 40
0.5526315789473694
 40
0.5614035087719308
 40
0.5614035087719308
 40
0.5614035087719308
 40
0.5614035087719308
 40
0.5701754385964922
 40
0.5701754385964922
 40
0.5701754385964922
 40
0.5701754385964922
 40
0.5789473684210537
 40
0.5789473684210537
 40
0.5789473684210537
 40
0.5789473684210537
 40
0.5877192982456151
 40
0.5877192982456151
 40
0.5877192982456151
 40
0.5877192982456151
 40
0.5964912280701765
 40
0.5964912280701765
 40
0.5964912280701765
 40
0.5964912280701765
 40
0.605263157894738
 40
0.605263157894738
 40
0.605263157894738
 40
0.605263157894738
 40
0.6140350877192994
 40
0.6140350877192994
 40
0.6140350877192994
 40
0.6140350877192994
 40
0.6228070175438608
 40
0.6228070175438608
 40
0.6228070175438608
 40
0.6228070175438608
 40
0.6315789473684222
 40
0.6315789473684222
 40
0.6315789473684222
 40
0.6315789473684222
 40
0.6403508771929837
 40
0.6403508771929837
 40
0.6403508771929837
 40
0.6403508771929837
 40
0.6491228070175451
 40
0.6491228070175451
 40
0.6491228070175451
 40
0.6491228070175451
 40
0.6578947368421065
 40
0.6578947368421065
 40
0.6578947368421065
 40
0.6578947368421065
 40
0.666666666666668
 40
0.666666666666668
 40
0.666666666666668
 40
0.666666666666668
 40
0.6754385964912294
 40
0.6754385964912294
 40
0.6754385964912294
 40
0.6754385964912294
 40
0.6842105263157908
 40
0.6842105263157908
 40
0.6842105263157908
 40
0.6842105263157908
 40
0.6929824561403523
 40
0.6929824561403523
 40
0.6929824561403523
 40
0.6929824561403523
 40
0.7017543859649137
 40
0.7017543859649137
 40
0.7017543859649137
 40
0.7017543859649137
 40
0.7105263157894751
 40
0.7105263157894751
 40
0.7105263157894751
 40
0.7105263157894751
 40
0.7192982456140366
 40
0.7192982456140366
 40
0.7192982456140366
 40
0.7192982456140366
 40
0.728070175438598
 40
0.728070175438598
 40
0.728070175438598
 40
0.728070175438598
 40
0.7368421052631594
 40
0.7368421052631594
 40
0.7368421052631594
 40
0.7368421052631594
 40
0.7456140350877208
 40
0.7456140350877208
 40
0.7456140350877208
 40
0.7456140350877208
 40
0.7543859649122823
 40
0.7543859649122823
 40
0.7543859649122823
 40
0.7543859649122823
 40
0.7631578947368437
 40
0.7631578947368437
 40
0.7631578947368437
 40
0.7631578947368437
 40
0.7719298245614051
 40
0.7719298245614051
 40
0.7719298245614051
 40
0.7719298245614051
 40
0.7807017543859666
 40
0.7807017543859666
 40
0.7807017543859666
 40
0.7807017543859666
 40
0.789473684210528
 40
0.789473684210528
 40
0.789473684210528
 40
0.789473684210528
 40
0.7982456140350894
 40
0.7982456140350894
 40
0.7982456140350894
 40
0.7982456140350894
 40
0.8070175438596509
 40
0.8070175438596509
 40
0.8070175438596509
 40
0.8070175438596509
 40
0.8157894736842123
 40
0.8157894736842123
 40
0.8157894736842123
 40
0.8157894736842123
 40
0.8245614035087737
 40
0.8245614035087737
 40
0.8245614035087737
 40
0.8245614035087737
 40
0.8333333333333352
 40
0.8333333333333352
 40
0.8333333333333352
 40
0.8333333333333352
 40
0.8421052631578966
 40
0.8421052631578966
 40
0.8421052631578966
 40
0.8421052631578966
 40
0.850877192982458
 40
0.850877192982458
 40
0.850877192982458
 40
0.850877192982458
 40
0.8596491228070194
 40
0.8596491228070194
 40
0.8596491228070194
 40
0.8596491228070194
 40
0.8684210526315809
 40
0.8684210526315809
 40
0.8684210526315809
 40
0.8684210526315809
 40
0.8771929824561423
 40
0.8771929824561423
 40
0.8771929824561423
 40
0.8771929824561423
 40
0.8859649122807037
 40
0.8859649122807037
 40
0.8859649122807037
 40
0.8859649122807037
 40
0.8947368421052652
 40
0.8947368421052652
 40
0.8947368421052652
 40
0.8947368421052652
 40
0.9035087719298266
 40
0.9035087719298266
 40
0.9035087719298266
 40
0.9035087719298266
 40
0.912280701754388
 40
0.912280701754388
 40
0.912280701754388
 40
0.912280701754388
 40
0.9210526315789495
 40
0.9210526315789495
 40
0.9210526315789495
 40
0.9210526315789495
 40
0.9298245614035109
 40
0.9298245614035109
 40
0.9298245614035109
 40
0.9298245614035109
 40
0.9385964912280723
 40
0.9385964912280723
 40
0.9385964912280723
 40
0.9385964912280723
 40
0.9473684210526338
 40
0.9473684210526338
 40
0.9473684210526338
 40
0.9473684210526338
 40
0.9561403508771952
 40
0.9561403508771952
 40
0.9561403508771952
 40
0.9561403508771952
 40
0.9649122807017566
 40
0.9649122807017566
 40
0.9649122807017566
 40
0.9649122807017566
 40
0.973684210526318
 40
0.973684210526318
 40
0.973684210526318
 40
0.973684210526318
 40
0.9824561403508795
 40
0.9824561403508795
 40
0.9824561403508795
 40
0.9824561403508795
 40
0.9912280701754409
 40
0.9912280701754409
 40
0.9912280701754409
 40
0.9912280701754409
 40
1.0
 40
1.0
 40
1.0
 40
1.0
 10
0.7926377952755905
 20
-0.0699566929133858
 30
0.0
 10
0.7926377952755905
 20
-0.0699566929133858
 30
0.0
 10
1.4453818897637796
 20
0.3084645669291339
 30
0.0
 10
1.4453818897637796
 20
0.3084645669291339
 30
0.0
 10
1.4453818897637796
 20
0.3084645669291339
 30
0.0
 10
1.4453818897637796
 20
0.3084645669291339
 30
0.0
 10
1.4450472440944881
 20
0.3084409448818898
 30
0.0
 10
1.4450472440944881
 20
0.3084409448818898
 30
0.0
 10
1.4450472440944881
 20
0.3084409448818898
 30
0.0
 10
1.4450472440944881
 20
0.3084409448818898
 30
0.0
 10
1.4440748031496065
 20
0.3083622047244095
 30
0.0
 10
1.4440748031496065
 20
0.3083622047244095
 30
0.0
 10
1.4440748031496065
 20
0.3083622047244095
 30
0.0
 10
1.4440748031496065
 20
0.3083622047244095
 30
0.0
 10
1.4424842519685039
 20
0.3082677165354331
 30
0.0
 10
1.4424842519685039
 20
0.3082677165354331
 30
0.0
 10
1.4424842519685039
 20
0.3082677165354331
 30
0.0
 10
1.4424842519685039
 20
0.3082677165354331
 30
0.0
 10
1.4403149606299213
 20
0.3081653543307087
 30
0.0
 10
1.4403149606299213
 20
0.3081653543307087
 30
0.0
 10
1.4403149606299213
 20
0.3081653543307087
 30
0.0
 10
1.4403149606299213
 20
0.3081653543307087
 30
0.0
 10
1.4375866141732283
 20
0.3080826771653544
 30
0.0
 10
1.4375866141732283
 20
0.3080826771653544
 30
0.0
 10
1.4375866141732283
 20
0.3080826771653544
 30
0.0
 10
1.4375866141732283
 20
0.3080826771653544
 30
0.0
 10
1.4343425196850395
 20
0.3080314960629921
 30
0.0
 10
1.4343425196850395
 20
0.3080314960629921
 30
0.0
 10
1.4343425196850395
 20
0.3080314960629921
 30
0.0
 10
1.4343425196850395
 20
0.3080314960629921
 30
0.0
 10
1.4306023622047244
 20
0.3080433070866142
 30
0.0
 10
1.4306023622047244
 20
0.3080433070866142
 30
0.0
 10
1.4306023622047244
 20
0.3080433070866142
 30
0.0
 10
1.4306023622047244
 20
0.3080433070866142
 30
0.0
 10
1.4264055118110237
 20
0.3081220472440945
 30
0.0
 10
1.4264055118110237
 20
0.3081220472440945
 30
0.0
 10
1.4264055118110237
 20
0.3081220472440945
 30
0.0
 10
1.4264055118110237
 20
0.3081220472440945
 30
0.0
 10
1.4217637795275591
 20
0.3083070866141732
 30
0.0
 10
1.4217637795275591
 20
0.3083070866141732
 30
0.0
 10
1.4217637795275591
 20
0.3083070866141732
 30
0.0
 10
1.4217637795275591
 20
0.3083070866141732
 30
0.0
 10
1.4167244094488189
 20
0.3086062992125984
 30
0.0
 10
1.4167244094488189
 20
0.3086062992125984
 30
0.0
 10
1.4167244094488189
 20
0.3086062992125984
 30
0.0
 10
1.4167244094488189
 20
0.3086062992125984
 30
0.0
 10
1.4113070866141733
 20
0.3090472440944882
 30
0.0
 10
1.4113070866141733
 20
0.3090472440944882
 30
0.0
 10
1.4113070866141733
 20
0.3090472440944882
 30
0.0
 10
1.4113070866141733
 20
0.3090472440944882
 30
0.0
 10
1.4055551181102364
 20
0.3096377952755905
 30
0.0
 10
1.4055551181102364
 20
0.3096377952755905
 30
0.0
 10
1.4055551181102364
 20
0.3096377952755905
 30
0.0
 10
1.4055551181102364
 20
0.3096377952755905
 30
0.0
 10
1.399484251968504
 20
0.3104173228346457
 30
0.0
 10
1.399484251968504
 20
0.3104173228346457
 30
0.0
 10
1.399484251968504
 20
0.3104173228346457
 30
0.0
 10
1.399484251968504
 20
0.3104173228346457
 30
0.0
 10
1.3931338582677166
 20
0.3113897637795276
 30
0.0
 10
1.3931338582677166
 20
0.3113897637795276
 30
0.0
 10
1.3931338582677166
 20
0.3113897637795276
 30
0.0
 10
1.3931338582677166
 20
0.3113897637795276
 30
0.0
 10
1.3865236220472441
 20
0.3125826771653543
 30
0.0
 10
1.3865236220472441
 20
0.3125826771653543
 30
0.0
 10
1.3865236220472441
 20
0.3125826771653543
 30
0.0
 10
1.3865236220472441
 20
0.3125826771653543
 30
0.0
 10
1.3797007874015748
 20
0.3140118110236221
 30
0.0
 10
1.3797007874015748
 20
0.3140118110236221
 30
0.0
 10
1.3797007874015748
 20
0.3140118110236221
 30
0.0
 10
1.3797007874015748
 20
0.3140118110236221
 30
0.0
 10
1.3726732283464567
 20
0.3157125984251969
 30
0.0
 10
1.3726732283464567
 20
0.3157125984251969
 30
0.0
 10
1.3726732283464567
 20
0.3157125984251969
 30
0.0
 10
1.3726732283464567
 20
0.3157125984251969
 30
0.0
 10
1.365484251968504
 20
0.3176850393700788
 30
0.0
 10
1.365484251968504
 20
0.3176850393700788
 30
0.0
 10
1.365484251968504
 20
0.3176850393700788
 30
0.0
 10
1.365484251968504
 20
0.3176850393700788
 30
0.0
 10
1.3581614173228347
 20
0.3199606299212598
 30
0.0
 10
1.3581614173228347
 20
0.3199606299212598
 30
0.0
 10
1.3581614173228347
 20
0.3199606299212598
 30
0.0
 10
1.3581614173228347
 20
0.3199606299212598
 30
0.0
 10
1.3507401574803151
 20
0.3225551181102362
 30
0.0
 10
1.3507401574803151
 20
0.3225551181102362
 30
0.0
 10
1.3507401574803151
 20
0.3225551181102362
 30
0.0
 10
1.3507401574803151
 20
0.3225551181102362
 30
0.0
 10
1.3432362204724411
 20
0.325496062992126
 30
0.0
 10
1.3432362204724411
 20
0.325496062992126
 30
0.0
 10
1.3432362204724411
 20
0.325496062992126
 30
0.0
 10
1.3432362204724411
 20
0.325496062992126
 30
0.0
 10
1.3356929133858269
 20
0.3287874015748032
 30
0.0
 10
1.3356929133858269
 20
0.3287874015748032
 30
0.0
 10
1.3356929133858269
 20
0.3287874015748032
 30
0.0
 10
1.3356929133858269
 20
0.3287874015748032
 30
0.0
 10
1.3281338582677167
 20
0.3324645669291339
 30
0.0
 10
1.3281338582677167
 20
0.3324645669291339
 30
0.0
 10
1.3281338582677167
 20
0.3324645669291339
 30
0.0
 10
1.3281338582677167
 20
0.3324645669291339
 30
0.0
 10
1.3205984251968503
 20
0.3365433070866142
 30
0.0
 10
1.3205984251968503
 20
0.3365433070866142
 30
0.0
 10
1.3205984251968503
 20
0.3365433070866142
 30
0.0
 10
1.3205984251968503
 20
0.3365433070866142
 30
0.0
 10
1.3130984251968505
 20
0.3410472440944882
 30
0.0
 10
1.3130984251968505
 20
0.3410472440944882
 30
0.0
 10
1.3130984251968505
 20
0.3410472440944882
 30
0.0
 10
1.3130984251968505
 20
0.3410472440944882
 30
0.0
 10
1.3056771653543306
 20
0.345996062992126
 30
0.0
 10
1.3056771653543306
 20
0.345996062992126
 30
0.0
 10
1.3056771653543306
 20
0.345996062992126
 30
0.0
 10
1.3056771653543306
 20
0.345996062992126
 30
0.0
 10
1.2983622047244094
 20
0.3514055118110236
 30
0.0
 10
1.2983622047244094
 20
0.3514055118110236
 30
0.0
 10
1.2983622047244094
 20
0.3514055118110236
 30
0.0
 10
1.2983622047244094
 20
0.3514055118110236
 30
0.0
 10
1.2911889763779527
 20
0.3572952755905512
 30
0.0
 10
1.2911889763779527
 20
0.3572952755905512
 30
0.0
 10
1.2911889763779527
 20
0.3572952755905512
 30
0.0
 10
1.2911889763779527
 20
0.3572952755905512
 30
0.0
 10
1.2841732283464566
 20
0.3636968503937008
 30
0.0
 10
1.2841732283464566
 20
0.3636968503937008
 30
0.0
 10
1.2841732283464566
 20
0.3636968503937008
 30
0.0
 10
1.2841732283464566
 20
0.3636968503937008
 30
0.0
 10
1.2773582677165354
 20
0.3706102362204725
 30
0.0
 10
1.2773582677165354
 20
0.3706102362204725
 30
0.0
 10
1.2773582677165354
 20
0.3706102362204725
 30
0.0
 10
1.2773582677165354
 20
0.3706102362204725
 30
0.0
 10
1.270763779527559
 20
0.3780748031496063
 30
0.0
 10
1.270763779527559
 20
0.3780748031496063
 30
0.0
 10
1.270763779527559
 20
0.3780748031496063
 30
0.0
 10
1.270763779527559
 20
0.3780748031496063
 30
0.0
 10
1.2644330708661418
 20
0.3860984251968504
 30
0.0
 10
1.2644330708661418
 20
0.3860984251968504
 30
0.0
 10
1.2644330708661418
 20
0.3860984251968504
 30
0.0
 10
1.2644330708661418
 20
0.3860984251968504
 30
0.0
 10
1.2581220472440946
 20
0.394244094488189
 30
0.0
 10
1.2581220472440946
 20
0.394244094488189
 30
0.0
 10
1.2581220472440946
 20
0.394244094488189
 30
0.0
 10
1.2581220472440946
 20
0.394244094488189
 30
0.0
 10
1.2516141732283466
 20
0.4020078740157481
 30
0.0
 10
1.2516141732283466
 20
0.4020078740157481
 30
0.0
 10
1.2516141732283466
 20
0.4020078740157481
 30
0.0
 10
1.2516141732283466
 20
0.4020078740157481
 30
0.0
 10
1.2449133858267718
 20
0.4093897637795276
 30
0.0
 10
1.2449133858267718
 20
0.4093897637795276
 30
0.0
 10
1.2449133858267718
 20
0.4093897637795276
 30
0.0
 10
1.2449133858267718
 20
0.4093897637795276
 30
0.0
 10
1.2380354330708663
 20
0.4163622047244095
 30
0.0
 10
1.2380354330708663
 20
0.4163622047244095
 30
0.0
 10
1.2380354330708663
 20
0.4163622047244095
 30
0.0
 10
1.2380354330708663
 20
0.4163622047244095
 30
0.0
 10
1.2309842519685039
 20
0.4229173228346457
 30
0.0
 10
1.2309842519685039
 20
0.4229173228346457
 30
0.0
 10
1.2309842519685039
 20
0.4229173228346457
 30
0.0
 10
1.2309842519685039
 20
0.4229173228346457
 30
0.0
 10
1.2237795275590551
 20
0.4290275590551181
 30
0.0
 10
1.2237795275590551
 20
0.4290275590551181
 30
0.0
 10
1.2237795275590551
 20
0.4290275590551181
 30
0.0
 10
1.2237795275590551
 20
0.4290275590551181
 30
0.0
 10
1.2164291338582678
 20
0.4346811023622048
 30
0.0
 10
1.2164291338582678
 20
0.4346811023622048
 30
0.0
 10
1.2164291338582678
 20
0.4346811023622048
 30
0.0
 10
1.2164291338582678
 20
0.4346811023622048
 30
0.0
 10
1.2089488188976378
 20
0.4398582677165355
 30
0.0
 10
1.2089488188976378
 20
0.4398582677165355
 30
0.0
 10
1.2089488188976378
 20
0.4398582677165355
 30
0.0
 10
1.2089488188976378
 20
0.4398582677165355
 30
0.0
 10
1.2013385826771654
 20
0.4445551181102362
 30
0.0
 10
1.2013385826771654
 20
0.4445551181102362
 30
0.0
 10
1.2013385826771654
 20
0.4445551181102362
 30
0.0
 10
1.2013385826771654
 20
0.4445551181102362
 30
0.0
 10
1.1936220472440946
 20
0.4487362204724409
 30
0.0
 10
1.1936220472440946
 20
0.4487362204724409
 30
0.0
 10
1.1936220472440946
 20
0.4487362204724409
 30
0.0
 10
1.1936220472440946
 20
0.4487362204724409
 30
0.0
 10
1.1858031496062993
 20
0.4523937007874016
 30
0.0
 10
1.1858031496062993
 20
0.4523937007874016
 30
0.0
 10
1.1858031496062993
 20
0.4523937007874016
 30
0.0
 10
1.1858031496062993
 20
0.4523937007874016
 30
0.0
 10
1.1779055118110238
 20
0.4555039370078741
 30
0.0
 10
1.1779055118110238
 20
0.4555039370078741
 30
0.0
 10
1.1779055118110238
 20
0.4555039370078741
 30
0.0
 10
1.1779055118110238
 20
0.4555039370078741
 30
0.0
 10
1.1699251968503936
 20
0.4580629921259843
 30
0.0
 10
1.1699251968503936
 20
0.4580629921259843
 30
0.0
 10
1.1699251968503936
 20
0.4580629921259843
 30
0.0
 10
1.1699251968503936
 20
0.4580629921259843
 30
0.0
 10
1.1618897637795276
 20
0.4600393700787402
 30
0.0
 10
1.1618897637795276
 20
0.4600393700787402
 30
0.0
 10
1.1618897637795276
 20
0.4600393700787402
 30
0.0
 10
1.1618897637795276
 20
0.4600393700787402
 30
0.0
 10
1.1537952755905512
 20
0.4614251968503937
 30
0.0
 10
1.1537952755905512
 20
0.4614251968503937
 30
0.0
 10
1.1537952755905512
 20
0.4614251968503937
 30
0.0
 10
1.1537952755905512
 20
0.4614251968503937
 30
0.0
 10
1.1456653543307087
 20
0.4621929133858268
 30
0.0
 10
1.1456653543307087
 20
0.4621929133858268
 30
0.0
 10
1.1456653543307087
 20
0.4621929133858268
 30
0.0
 10
1.1456653543307087
 20
0.4621929133858268
 30
0.0
 10
1.1375
 20
0.4623425196850394
 30
0.0
 10
1.1375
 20
0.4623425196850394
 30
0.0
 10
1.1375
 20
0.4623425196850394
 30
0.0
 10
1.1375
 20
0.4623425196850394
 30
0.0
 10
1.1293228346456694
 20
0.4618425196850394
 30
0.0
 10
1.1293228346456694
 20
0.4618425196850394
 30
0.0
 10
1.1293228346456694
 20
0.4618425196850394
 30
0.0
 10
1.1293228346456694
 20
0.4618425196850394
 30
0.0
 10
1.1211338582677166
 20
0.4606811023622047
 30
0.0
 10
1.1211338582677166
 20
0.4606811023622047
 30
0.0
 10
1.1211338582677166
 20
0.4606811023622047
 30
0.0
 10
1.1211338582677166
 20
0.4606811023622047
 30
0.0
 10
1.11296062992126
 20
0.4588346456692913
 30
0.0
 10
1.11296062992126
 20
0.4588346456692913
 30
0.0
 10
1.11296062992126
 20
0.4588346456692913
 30
0.0
 10
1.11296062992126
 20
0.4588346456692913
 30
0.0
 10
1.1047992125984252
 20
0.4562992125984252
 30
0.0
 10
1.1047992125984252
 20
0.4562992125984252
 30
0.0
 10
1.1047992125984252
 20
0.4562992125984252
 30
0.0
 10
1.1047992125984252
 20
0.4562992125984252
 30
0.0
 10
1.0966692913385827
 20
0.4530472440944882
 30
0.0
 10
1.0966692913385827
 20
0.4530472440944882
 30
0.0
 10
1.0966692913385827
 20
0.4530472440944882
 30
0.0
 10
1.0966692913385827
 20
0.4530472440944882
 30
0.0
 10
1.0885787401574805
 20
0.4490629921259843
 30
0.0
 10
1.0885787401574805
 20
0.4490629921259843
 30
0.0
 10
1.0885787401574805
 20
0.4490629921259843
 30
0.0
 10
1.0885787401574805
 20
0.4490629921259843
 30
0.0
 10
1.0805511811023623
 20
0.4443267716535433
 30
0.0
 10
1.0805511811023623
 20
0.4443267716535433
 30
0.0
 10
1.0805511811023623
 20
0.4443267716535433
 30
0.0
 10
1.0805511811023623
 20
0.4443267716535433
 30
0.0
 10
0.4278070866141733
 20
0.0659055118110236
 30
0.0
 10
0.4278070866141733
 20
0.0659055118110236
 30
0.0
 10
0.4278070866141733
 20
0.0659055118110236
 30
0.0
 10
0.4278070866141733
 20
0.0659055118110236
 30
0.0
 10
0.4358346456692914
 20
0.0706417322834646
 30
0.0
 10
0.4358346456692914
 20
0.0706417322834646
 30
0.0
 10
0.4358346456692914
 20
0.0706417322834646
 30
0.0
 10
0.4358346456692914
 20
0.0706417322834646
 30
0.0
 10
0.4439251968503937
 20
0.0746259842519685
 30
0.0
 10
0.4439251968503937
 20
0.0746259842519685
 30
0.0
 10
0.4439251968503937
 20
0.0746259842519685
 30
0.0
 10
0.4439251968503937
 20
0.0746259842519685
 30
0.0
 10
0.4520551181102362
 20
0.0778779527559055
 30
0.0
 10
0.4520551181102362
 20
0.0778779527559055
 30
0.0
 10
0.4520551181102362
 20
0.0778779527559055
 30
0.0
 10
0.4520551181102362
 20
0.0778779527559055
 30
0.0
 10
0.4602165354330709
 20
0.0804133858267717
 30
0.0
 10
0.4602165354330709
 20
0.0804133858267717
 30
0.0
 10
0.4602165354330709
 20
0.0804133858267717
 30
0.0
 10
0.4602165354330709
 20
0.0804133858267717
 30
0.0
 10
0.4683897637795276
 20
0.082259842519685
 30
0.0
 10
0.4683897637795276
 20
0.082259842519685
 30
0.0
 10
0.4683897637795276
 20
0.082259842519685
 30
0.0
 10
0.4683897637795276
 20
0.082259842519685
 30
0.0
 10
0.4765787401574803
 20
0.0834212598425197
 30
0.0
 10
0.4765787401574803
 20
0.0834212598425197
 30
0.0
 10
0.4765787401574803
 20
0.0834212598425197
 30
0.0
 10
0.4765787401574803
 20
0.0834212598425197
 30
0.0
 10
0.484755905511811
 20
0.0839212598425197
 30
0.0
 10
0.484755905511811
 20
0.0839212598425197
 30
0.0
 10
0.484755905511811
 20
0.0839212598425197
 30
0.0
 10
0.484755905511811
 20
0.0839212598425197
 30
0.0
 10
0.4929212598425197
 20
0.0837716535433071
 30
0.0
 10
0.4929212598425197
 20
0.0837716535433071
 30
0.0
 10
0.4929212598425197
 20
0.0837716535433071
 30
0.0
 10
0.4929212598425197
 20
0.0837716535433071
 30
0.0
 10
0.5010511811023622
 20
0.083003937007874
 30
0.0
 10
0.5010511811023622
 20
0.083003937007874
 30
0.0
 10
0.5010511811023622
 20
0.083003937007874
 30
0.0
 10
0.5010511811023622
 20
0.083003937007874
 30
0.0
 10
0.5091456692913386
 20
0.0816181102362205
 30
0.0
 10
0.5091456692913386
 20
0.0816181102362205
 30
0.0
 10
0.5091456692913386
 20
0.0816181102362205
 30
0.0
 10
0.5091456692913386
 20
0.0816181102362205
 30
0.0
 10
0.5171811023622047
 20
0.0796417322834646
 30
0.0
 10
0.5171811023622047
 20
0.0796417322834646
 30
0.0
 10
0.5171811023622047
 20
0.0796417322834646
 30
0.0
 10
0.5171811023622047
 20
0.0796417322834646
 30
0.0
 10
0.5251614173228346
 20
0.0770826771653543
 30
0.0
 10
0.5251614173228346
 20
0.0770826771653543
 30
0.0
 10
0.5251614173228346
 20
0.0770826771653543
 30
0.0
 10
0.5251614173228346
 20
0.0770826771653543
 30
0.0
 10
0.5330590551181103
 20
0.0739724409448819
 30
0.0
 10
0.5330590551181103
 20
0.0739724409448819
 30
0.0
 10
0.5330590551181103
 20
0.0739724409448819
 30
0.0
 10
0.5330590551181103
 20
0.0739724409448819
 30
0.0
 10
0.5408779527559056
 20
0.0703149606299213
 30
0.0
 10
0.5408779527559056
 20
0.0703149606299213
 30
0.0
 10
0.5408779527559056
 20
0.0703149606299213
 30
0.0
 10
0.5408779527559056
 20
0.0703149606299213
 30
0.0
 10
0.5485944881889764
 20
0.0661338582677165
 30
0.0
 10
0.5485944881889764
 20
0.0661338582677165
 30
0.0
 10
0.5485944881889764
 20
0.0661338582677165
 30
0.0
 10
0.5485944881889764
 20
0.0661338582677165
 30
0.0
 10
0.5562047244094488
 20
0.0614370078740158
 30
0.0
 10
0.5562047244094488
 20
0.0614370078740158
 30
0.0
 10
0.5562047244094488
 20
0.0614370078740158
 30
0.0
 10
0.5562047244094488
 20
0.0614370078740158
 30
0.0
 10
0.5636850393700787
 20
0.056259842519685
 30
0.0
 10
0.5636850393700787
 20
0.056259842519685
 30
0.0
 10
0.5636850393700787
 20
0.056259842519685
 30
0.0
 10
0.5636850393700787
 20
0.056259842519685
 30
0.0
 10
0.5710354330708661
 20
0.0506062992125984
 30
0.0
 10
0.5710354330708661
 20
0.0506062992125984
 30
0.0
 10
0.5710354330708661
 20
0.0506062992125984
 30
0.0
 10
0.5710354330708661
 20
0.0506062992125984
 30
0.0
 10
0.578240157480315
 20
0.044496062992126
 30
0.0
 10
0.578240157480315
 20
0.044496062992126
 30
0.0
 10
0.578240157480315
 20
0.044496062992126
 30
0.0
 10
0.578240157480315
 20
0.044496062992126
 30
0.0
 10
0.5852913385826772
 20
0.0379409448818898
 30
0.0
 10
0.5852913385826772
 20
0.0379409448818898
 30
0.0
 10
0.5852913385826772
 20
0.0379409448818898
 30
0.0
 10
0.5852913385826772
 20
0.0379409448818898
 30
0.0
 10
0.5921692913385827
 20
0.0309685039370079
 30
0.0
 10
0.5921692913385827
 20
0.0309685039370079
 30
0.0
 10
0.5921692913385827
 20
0.0309685039370079
 30
0.0
 10
0.5921692913385827
 20
0.0309685039370079
 30
0.0
 10
0.5988700787401575
 20
0.0235866141732283
 30
0.0
 10
0.5988700787401575
 20
0.0235866141732283
 30
0.0
 10
0.5988700787401575
 20
0.0235866141732283
 30
0.0
 10
0.5988700787401575
 20
0.0235866141732283
 30
0.0
 10
0.6053779527559056
 20
0.0158228346456693
 30
0.0
 10
0.6053779527559056
 20
0.0158228346456693
 30
0.0
 10
0.6053779527559056
 20
0.0158228346456693
 30
0.0
 10
0.6053779527559056
 20
0.0158228346456693
 30
0.0
 10
0.6116889763779528
 20
0.0076771653543307
 30
0.0
 10
0.6116889763779528
 20
0.0076771653543307
 30
0.0
 10
0.6116889763779528
 20
0.0076771653543307
 30
0.0
 10
0.6116889763779528
 20
0.0076771653543307
 30
0.0
 10
0.6180196850393701
 20
-0.0003464566929134
 30
0.0
 10
0.6180196850393701
 20
-0.0003464566929134
 30
0.0
 10
0.6180196850393701
 20
-0.0003464566929134
 30
0.0
 10
0.6180196850393701
 20
-0.0003464566929134
 30
0.0
 10
0.6246141732283465
 20
-0.0078110236220472
 30
0.0
 10
0.6246141732283465
 20
-0.0078110236220472
 30
0.0
 10
0.6246141732283465
 20
-0.0078110236220472
 30
0.0
 10
0.6246141732283465
 20
-0.0078110236220472
 30
0.0
 10
0.6314291338582677
 20
-0.0147244094488189
 30
0.0
 10
0.6314291338582677
 20
-0.0147244094488189
 30
0.0
 10
0.6314291338582677
 20
-0.0147244094488189
 30
0.0
 10
0.6314291338582677
 20
-0.0147244094488189
 30
0.0
 10
0.6384448818897638
 20
-0.0211259842519685
 30
0.0
 10
0.6384448818897638
 20
-0.0211259842519685
 30
0.0
 10
0.6384448818897638
 20
-0.0211259842519685
 30
0.0
 10
0.6384448818897638
 20
-0.0211259842519685
 30
0.0
 10
0.6456181102362205
 20
-0.0270157480314961
 30
0.0
 10
0.6456181102362205
 20
-0.0270157480314961
 30
0.0
 10
0.6456181102362205
 20
-0.0270157480314961
 30
0.0
 10
0.6456181102362205
 20
-0.0270157480314961
 30
0.0
 10
0.6529330708661417
 20
-0.0324251968503937
 30
0.0
 10
0.6529330708661417
 20
-0.0324251968503937
 30
0.0
 10
0.6529330708661417
 20
-0.0324251968503937
 30
0.0
 10
0.6529330708661417
 20
-0.0324251968503937
 30
0.0
 10
0.6603543307086615
 20
-0.0373740157480315
 30
0.0
 10
0.6603543307086615
 20
-0.0373740157480315
 30
0.0
 10
0.6603543307086615
 20
-0.0373740157480315
 30
0.0
 10
0.6603543307086615
 20
-0.0373740157480315
 30
0.0
 10
0.6678543307086614
 20
-0.0418779527559055
 30
0.0
 10
0.6678543307086614
 20
-0.0418779527559055
 30
0.0
 10
0.6678543307086614
 20
-0.0418779527559055
 30
0.0
 10
0.6678543307086614
 20
-0.0418779527559055
 30
0.0
 10
0.6753897637795275
 20
-0.0459566929133858
 30
0.0
 10
0.6753897637795275
 20
-0.0459566929133858
 30
0.0
 10
0.6753897637795275
 20
-0.0459566929133858
 30
0.0
 10
0.6753897637795275
 20
-0.0459566929133858
 30
0.0
 10
0.6829488188976378
 20
-0.0496338582677165
 30
0.0
 10
0.6829488188976378
 20
-0.0496338582677165
 30
0.0
 10
0.6829488188976378
 20
-0.0496338582677165
 30
0.0
 10
0.6829488188976378
 20
-0.0496338582677165
 30
0.0
 10
0.690492125984252
 20
-0.0529251968503937
 30
0.0
 10
0.690492125984252
 20
-0.0529251968503937
 30
0.0
 10
0.690492125984252
 20
-0.0529251968503937
 30
0.0
 10
0.690492125984252
 20
-0.0529251968503937
 30
0.0
 10
0.697996062992126
 20
-0.0558661417322835
 30
0.0
 10
0.697996062992126
 20
-0.0558661417322835
 30
0.0
 10
0.697996062992126
 20
-0.0558661417322835
 30
0.0
 10
0.697996062992126
 20
-0.0558661417322835
 30
0.0
 10
0.7054173228346456
 20
-0.0584606299212598
 30
0.0
 10
0.7054173228346456
 20
-0.0584606299212598
 30
0.0
 10
0.7054173228346456
 20
-0.0584606299212598
 30
0.0
 10
0.7054173228346456
 20
-0.0584606299212598
 30
0.0
 10
0.7127401574803149
 20
-0.0607362204724409
 30
0.0
 10
0.7127401574803149
 20
-0.0607362204724409
 30
0.0
 10
0.7127401574803149
 20
-0.0607362204724409
 30
0.0
 10
0.7127401574803149
 20
-0.0607362204724409
 30
0.0
 10
0.7199291338582677
 20
-0.0627086614173228
 30
0.0
 10
0.7199291338582677
 20
-0.0627086614173228
 30
0.0
 10
0.7199291338582677
 20
-0.0627086614173228
 30
0.0
 10
0.7199291338582677
 20
-0.0627086614173228
 30
0.0
 10
0.7269566929133858
 20
-0.0644094488188976
 30
0.0
 10
0.7269566929133858
 20
-0.0644094488188976
 30
0.0
 10
0.7269566929133858
 20
-0.0644094488188976
 30
0.0
 10
0.7269566929133858
 20
-0.0644094488188976
 30
0.0
 10
0.7337795275590552
 20
-0.0658385826771654
 30
0.0
 10
0.7337795275590552
 20
-0.0658385826771654
 30
0.0
 10
0.7337795275590552
 20
-0.0658385826771654
 30
0.0
 10
0.7337795275590552
 20
-0.0658385826771654
 30
0.0
 10
0.7403897637795276
 20
-0.0670314960629921
 30
0.0
 10
0.7403897637795276
 20
-0.0670314960629921
 30
0.0
 10
0.7403897637795276
 20
-0.0670314960629921
 30
0.0
 10
0.7403897637795276
 20
-0.0670314960629921
 30
0.0
 10
0.746740157480315
 20
-0.068003937007874
 30
0.0
 10
0.746740157480315
 20
-0.068003937007874
 30
0.0
 10
0.746740157480315
 20
-0.068003937007874
 30
0.0
 10
0.746740157480315
 20
-0.068003937007874
 30
0.0
 10
0.7528110236220473
 20
-0.0687834645669291
 30
0.0
 10
0.7528110236220473
 20
-0.0687834645669291
 30
0.0
 10
0.7528110236220473
 20
-0.0687834645669291
 30
0.0
 10
0.7528110236220473
 20
-0.0687834645669291
 30
0.0
 10
0.7585629921259843
 20
-0.0693740157480315
 30
0.0
 10
0.7585629921259843
 20
-0.0693740157480315
 30
0.0
 10
0.7585629921259843
 20
-0.0693740157480315
 30
0.0
 10
0.7585629921259843
 20
-0.0693740157480315
 30
0.0
 10
0.7639803149606299
 20
-0.0698149606299213
 30
0.0
 10
0.7639803149606299
 20
-0.0698149606299213
 30
0.0
 10
0.7639803149606299
 20
-0.0698149606299213
 30
0.0
 10
0.7639803149606299
 20
-0.0698149606299213
 30
0.0
 10
0.7690196850393701
 20
-0.0701141732283465
 30
0.0
 10
0.7690196850393701
 20
-0.0701141732283465
 30
0.0
 10
0.7690196850393701
 20
-0.0701141732283465
 30
0.0
 10
0.7690196850393701
 20
-0.0701141732283465
 30
0.0
 10
0.7736614173228347
 20
-0.0702992125984252
 30
0.0
 10
0.7736614173228347
 20
-0.0702992125984252
 30
0.0
 10
0.7736614173228347
 20
-0.0702992125984252
 30
0.0
 10
0.7736614173228347
 20
-0.0702992125984252
 30
0.0
 10
0.7778582677165354
 20
-0.0703779527559055
 30
0.0
 10
0.7778582677165354
 20
-0.0703779527559055
 30
0.0
 10
0.7778582677165354
 20
-0.0703779527559055
 30
0.0
 10
0.7778582677165354
 20
-0.0703779527559055
 30
0.0
 10
0.7815984251968504
 20
-0.0703897637795276
 30
0.0
 10
0.7815984251968504
 20
-0.0703897637795276
 30
0.0
 10
0.7815984251968504
 20
-0.0703897637795276
 30
0.0
 10
0.7815984251968504
 20
-0.0703897637795276
 30
0.0
 10
0.7848425196850394
 20
-0.0703385826771654
 30
0.0
 10
0.7848425196850394
 20
-0.0703385826771654
 30
0.0
 10
0.7848425196850394
 20
-0.0703385826771654
 30
0.0
 10
0.7848425196850394
 20
-0.0703385826771654
 30
0.0
 10
0.7875708661417323
 20
-0.070255905511811
 30
0.0
 10
0.7875708661417323
 20
-0.070255905511811
 30
0.0
 10
0.7875708661417323
 20
-0.070255905511811
 30
0.0
 10
0.7875708661417323
 20
-0.070255905511811
 30
0.0
 10
0.789740157480315
 20
-0.0701535433070866
 30
0.0
 10
0.789740157480315
 20
-0.0701535433070866
 30
0.0
 10
0.789740157480315
 20
-0.0701535433070866
 30
0.0
 10
0.789740157480315
 20
-0.0701535433070866
 30
0.0
 10
0.7913307086614173
 20
-0.0700590551181102
 30
0.0
 10
0.7913307086614173
 20
-0.0700590551181102
 30
0.0
 10
0.7913307086614173
 20
-0.0700590551181102
 30
0.0
 10
0.7913307086614173
 20
-0.0700590551181102
 30
0.0
 10
0.7923031496062992
 20
-0.0699803149606299
 30
0.0
 10
0.7923031496062992
 20
-0.0699803149606299
 30
0.0
 10
0.7923031496062992
 20
-0.0699803149606299
 30
0.0
 10
0.7923031496062992
 20
-0.0699803149606299
 30
0.0
 10
0.7926377952755905
 20
-0.0699566929133858
 30
0.0
 10
0.7926377952755905
 20
-0.0699566929133858
 30
0.0
  0
SPLINE
  5
3B
100
AcDbEntity
  8
P1-Layer 1
100
AcDbSpline
210
0.0
220
0.0
230
1.0
 70
     1
 71
     3
 72
    60
 73
    56
 74
     0
 42
0.0000000001
 43
0.0000000001
 40
0.0
 40
0.0
 40
0.0
 40
0.0
 40
0.0714285714285714
 40
0.0714285714285714
 40
0.0714285714285714
 40
0.0714285714285714
 40
0.1428571428571429
 40
0.1428571428571429
 40
0.1428571428571429
 40
0.1428571428571429
 40
0.2142857142857143
 40
0.2142857142857143
 40
0.2142857142857143
 40
0.2142857142857143
 40
0.2857142857142857
 40
0.2857142857142857
 40
0.2857142857142857
 40
0.2857142857142857
 40
0.3571428571428571
 40
0.3571428571428571
 40
0.3571428571428571
 40
0.3571428571428571
 40
0.4285714285714285
 40
0.4285714285714285
 40
0.4285714285714285
 40
0.4285714285714285
 40
0.4999999999999999
 40
0.4999999999999999
 40
0.4999999999999999
 40
0.4999999999999999
 40
0.5714285714285713
 40
0.5714285714285713
 40
0.5714285714285713
 40
0.5714285714285713
 40
0.6428571428571427
 40
0.6428571428571427
 40
0.6428571428571427
 40
0.6428571428571427
 40
0.7142857142857141
 40
0.7142857142857141
 40
0.7142857142857141
 40
0.7142857142857141
 40
0.7857142857142855
 40
0.7857142857142855
 40
0.7857142857142855
 40
0.7857142857142855
 40
0.8571428571428569
 40
0.8571428571428569
 40
0.8571428571428569
 40
0.8571428571428569
 40
0.9285714285714283
 40
0.9285714285714283
 40
0.9285714285714283
 40
0.9285714285714283
 40
1.0
 40
1.0
 40
1.0
 40
1.0
 10
-1.0825787401574805
 20
-0.0418779527559055
 30
0.0
 10
-1.0825787401574805
 20
-0.0418779527559055
 30
0.0
 10
-0.4298346456692914
 20
0.3365433070866142
 30
0.0
 10
-0.4298346456692914
 20
0.3365433070866142
 30
0.0
 10
-0.4298346456692914
 20
0.3365433070866142
 30
0.0
 10
-0.4298346456692914
 20
0.3365433070866142
 30
0.0
 10
-0.4373700787401575
 20
0.3324645669291339
 30
0.0
 10
-0.4373700787401575
 20
0.3324645669291339
 30
0.0
 10
-0.4373700787401575
 20
0.3324645669291339
 30
0.0
 10
-0.4373700787401575
 20
0.3324645669291339
 30
0.0
 10
-0.4449291338582677
 20
0.3287874015748032
 30
0.0
 10
-0.4449291338582677
 20
0.3287874015748032
 30
0.0
 10
-0.4449291338582677
 20
0.3287874015748032
 30
0.0
 10
-0.4449291338582677
 20
0.3287874015748032
 30
0.0
 10
-0.4524724409448819
 20
0.325496062992126
 30
0.0
 10
-0.4524724409448819
 20
0.325496062992126
 30
0.0
 10
-0.4524724409448819
 20
0.325496062992126
 30
0.0
 10
-0.4524724409448819
 20
0.325496062992126
 30
0.0
 10
-0.4599763779527559
 20
0.3225551181102362
 30
0.0
 10
-0.4599763779527559
 20
0.3225551181102362
 30
0.0
 10
-0.4599763779527559
 20
0.3225551181102362
 30
0.0
 10
-0.4599763779527559
 20
0.3225551181102362
 30
0.0
 10
-0.4673976377952756
 20
0.3199606299212598
 30
0.0
 10
-0.4673976377952756
 20
0.3199606299212598
 30
0.0
 10
-0.4673976377952756
 20
0.3199606299212598
 30
0.0
 10
-0.4673976377952756
 20
0.3199606299212598
 30
0.0
 10
-0.4747204724409449
 20
0.3176850393700788
 30
0.0
 10
-0.4747204724409449
 20
0.3176850393700788
 30
0.0
 10
-0.4747204724409449
 20
0.3176850393700788
 30
0.0
 10
-0.4747204724409449
 20
0.3176850393700788
 30
0.0
 10
-1.1274645669291339
 20
-0.0607362204724409
 30
0.0
 10
-1.1274645669291339
 20
-0.0607362204724409
 30
0.0
 10
-1.1274645669291339
 20
-0.0607362204724409
 30
0.0
 10
-1.1274645669291339
 20
-0.0607362204724409
 30
0.0
 10
-1.1201417322834646
 20
-0.0584606299212598
 30
0.0
 10
-1.1201417322834646
 20
-0.0584606299212598
 30
0.0
 10
-1.1201417322834646
 20
-0.0584606299212598
 30
0.0
 10
-1.1201417322834646
 20
-0.0584606299212598
 30
0.0
 10
-1.112720472440945
 20
-0.0558661417322835
 30
0.0
 10
-1.112720472440945
 20
-0.0558661417322835
 30
0.0
 10
-1.112720472440945
 20
-0.0558661417322835
 30
0.0
 10
-1.112720472440945
 20
-0.0558661417322835
 30
0.0
 10
-1.105216535433071
 20
-0.0529251968503937
 30
0.0
 10
-1.105216535433071
 20
-0.0529251968503937
 30
0.0
 10
-1.105216535433071
 20
-0.0529251968503937
 30
0.0
 10
-1.105216535433071
 20
-0.0529251968503937
 30
0.0
 10
-1.0976732283464568
 20
-0.0496338582677165
 30
0.0
 10
-1.0976732283464568
 20
-0.0496338582677165
 30
0.0
 10
-1.0976732283464568
 20
-0.0496338582677165
 30
0.0
 10
-1.0976732283464568
 20
-0.0496338582677165
 30
0.0
 10
-1.0901141732283466
 20
-0.0459566929133858
 30
0.0
 10
-1.0901141732283466
 20
-0.0459566929133858
 30
0.0
 10
-1.0901141732283466
 20
-0.0459566929133858
 30
0.0
 10
-1.0901141732283466
 20
-0.0459566929133858
 30
0.0
 10
-1.0825787401574805
 20
-0.0418779527559055
 30
0.0
 10
-1.0825787401574805
 20
-0.0418779527559055
 30
0.0
  0
SPLINE
  5
3C
100
AcDbEntity
  8
P1-Layer 1
 62
   127
100
AcDbSpline
210
0.0
220
0.0
230
1.0
 70
     1
 71
     3
 72
    68
 73
    64
 74
     0
 42
0.0000000001
 43
0.0000000001
 40
0.0
 40
0.0
 40
0.0
 40
0.0
 40
0.0625
 40
0.0625
 40
0.0625
 40
0.0625
 40
0.125
 40
0.125
 40
0.125
 40
0.125
 40
0.1875
 40
0.1875
 40
0.1875
 40
0.1875
 40
0.25
 40
0.25
 40
0.25
 40
0.25
 40
0.3125
 40
0.3125
 40
0.3125
 40
0.3125
 40
0.375
 40
0.375
 40
0.375
 40
0.375
 40
0.4375
 40
0.4375
 40
0.4375
 40
0.4375
 40
0.5
 40
0.5
 40
0.5
 40
0.5
 40
0.5625
 40
0.5625
 40
0.5625
 40
0.5625
 40
0.625
 40
0.625
 40
0.625
 40
0.625
 40
0.6875
 40
0.6875
 40
0.6875
 40
0.6875
 40
0.75
 40
0.75
 40
0.75
 40
0.75
 40
0.8125
 40
0.8125
 40
0.8125
 40
0.8125
 40
0.875
 40
0.875
 40
0.875
 40
0.875
 40
0.9375
 40
0.9375
 40
0.9375
 40
0.9375
 40
1.0
 40
1.0
 40
1.0
 40
1.0
 10
-1.1274645669291339
 20
-0.0607362204724409
 30
0.0
 10
-1.1274645669291339
 20
-0.0607362204724409
 30
0.0
 10
-0.4747204724409449
 20
0.3176850393700788
 30
0.0
 10
-0.4747204724409449
 20
0.3176850393700788
 30
0.0
 10
-0.4747204724409449
 20
0.3176850393700788
 30
0.0
 10
-0.4747204724409449
 20
0.3176850393700788
 30
0.0
 10
-0.4819094488188976
 20
0.3157125984251969
 30
0.0
 10
-0.4819094488188976
 20
0.3157125984251969
 30
0.0
 10
-0.4819094488188976
 20
0.3157125984251969
 30
0.0
 10
-0.4819094488188976
 20
0.3157125984251969
 30
0.0
 10
-0.4889370078740158
 20
0.3140118110236221
 30
0.0
 10
-0.4889370078740158
 20
0.3140118110236221
 30
0.0
 10
-0.4889370078740158
 20
0.3140118110236221
 30
0.0
 10
-0.4889370078740158
 20
0.3140118110236221
 30
0.0
 10
-0.4957598425196851
 20
0.3125826771653543
 30
0.0
 10
-0.4957598425196851
 20
0.3125826771653543
 30
0.0
 10
-0.4957598425196851
 20
0.3125826771653543
 30
0.0
 10
-0.4957598425196851
 20
0.3125826771653543
 30
0.0
 10
-0.5023700787401575
 20
0.3113897637795276
 30
0.0
 10
-0.5023700787401575
 20
0.3113897637795276
 30
0.0
 10
-0.5023700787401575
 20
0.3113897637795276
 30
0.0
 10
-0.5023700787401575
 20
0.3113897637795276
 30
0.0
 10
-0.5087204724409449
 20
0.3104173228346457
 30
0.0
 10
-0.5087204724409449
 20
0.3104173228346457
 30
0.0
 10
-0.5087204724409449
 20
0.3104173228346457
 30
0.0
 10
-0.5087204724409449
 20
0.3104173228346457
 30
0.0
 10
-0.5147913385826772
 20
0.3096377952755905
 30
0.0
 10
-0.5147913385826772
 20
0.3096377952755905
 30
0.0
 10
-0.5147913385826772
 20
0.3096377952755905
 30
0.0
 10
-0.5147913385826772
 20
0.3096377952755905
 30
0.0
 10
-0.5205433070866142
 20
0.3090472440944882
 30
0.0
 10
-0.5205433070866142
 20
0.3090472440944882
 30
0.0
 10
-0.5205433070866142
 20
0.3090472440944882
 30
0.0
 10
-0.5205433070866142
 20
0.3090472440944882
 30
0.0
 10
-1.1732874015748032
 20
-0.0693740157480315
 30
0.0
 10
-1.1732874015748032
 20
-0.0693740157480315
 30
0.0
 10
-1.1732874015748032
 20
-0.0693740157480315
 30
0.0
 10
-1.1732874015748032
 20
-0.0693740157480315
 30
0.0
 10
-1.1675354330708663
 20
-0.0687834645669291
 30
0.0
 10
-1.1675354330708663
 20
-0.0687834645669291
 30
0.0
 10
-1.1675354330708663
 20
-0.0687834645669291
 30
0.0
 10
-1.1675354330708663
 20
-0.0687834645669291
 30
0.0
 10
-1.1614645669291339
 20
-0.068003937007874
 30
0.0
 10
-1.1614645669291339
 20
-0.068003937007874
 30
0.0
 10
-1.1614645669291339
 20
-0.068003937007874
 30
0.0
 10
-1.1614645669291339
 20
-0.068003937007874
 30
0.0
 10
-1.1551141732283465
 20
-0.0670314960629921
 30
0.0
 10
-1.1551141732283465
 20
-0.0670314960629921
 30
0.0
 10
-1.1551141732283465
 20
-0.0670314960629921
 30
0.0
 10
-1.1551141732283465
 20
-0.0670314960629921
 30
0.0
 10
-1.148503937007874
 20
-0.0658385826771654
 30
0.0
 10
-1.148503937007874
 20
-0.0658385826771654
 30
0.0
 10
-1.148503937007874
 20
-0.0658385826771654
 30
0.0
 10
-1.148503937007874
 20
-0.0658385826771654
 30
0.0
 10
-1.1416811023622047
 20
-0.0644094488188976
 30
0.0
 10
-1.1416811023622047
 20
-0.0644094488188976
 30
0.0
 10
-1.1416811023622047
 20
-0.0644094488188976
 30
0.0
 10
-1.1416811023622047
 20
-0.0644094488188976
 30
0.0
 10
-1.1346535433070866
 20
-0.0627086614173228
 30
0.0
 10
-1.1346535433070866
 20
-0.0627086614173228
 30
0.0
 10
-1.1346535433070866
 20
-0.0627086614173228
 30
0.0
 10
-1.1346535433070866
 20
-0.0627086614173228
 30
0.0
 10
-1.1274645669291339
 20
-0.0607362204724409
 30
0.0
 10
-1.1274645669291339
 20
-0.0607362204724409
 30
0.0
  0
SPLINE
  5
3D
100
AcDbEntity
  8
P1-Layer 1
 62
   252
100
AcDbSpline
210
0.0
220
0.0
230
1.0
 70
     1
 71
     3
 72
   100
 73
    96
 74
     0
 42
0.0000000001
 43
0.0000000001
 40
0.0
 40
0.0
 40
0.0
 40
0.0
 40
0.0416666666666667
 40
0.0416666666666667
 40
0.0416666666666667
 40
0.0416666666666667
 40
0.0833333333333333
 40
0.0833333333333333
 40
0.0833333333333333
 40
0.0833333333333333
 40
0.125
 40
0.125
 40
0.125
 40
0.125
 40
0.1666666666666667
 40
0.1666666666666667
 40
0.1666666666666667
 40
0.1666666666666667
 40
0.2083333333333333
 40
0.2083333333333333
 40
0.2083333333333333
 40
0.2083333333333333
 40
0.25
 40
0.25
 40
0.25
 40
0.25
 40
0.2916666666666666
 40
0.2916666666666666
 40
0.2916666666666666
 40
0.2916666666666666
 40
0.3333333333333333
 40
0.3333333333333333
 40
0.3333333333333333
 40
0.3333333333333333
 40
0.375
 40
0.375
 40
0.375
 40
0.375
 40
0.4166666666666667
 40
0.4166666666666667
 40
0.4166666666666667
 40
0.4166666666666667
 40
0.4583333333333334
 40
0.4583333333333334
 40
0.4583333333333334
 40
0.4583333333333334
 40
0.5
 40
0.5
 40
0.5
 40
0.5
 40
0.5416666666666666
 40
0.5416666666666666
 40
0.5416666666666666
 40
0.5416666666666666
 40
0.5833333333333333
 40
0.5833333333333333
 40
0.5833333333333333
 40
0.5833333333333333
 40
0.6249999999999999
 40
0.6249999999999999
 40
0.6249999999999999
 40
0.6249999999999999
 40
0.6666666666666665
 40
0.6666666666666665
 40
0.6666666666666665
 40
0.6666666666666665
 40
0.7083333333333332
 40
0.7083333333333332
 40
0.7083333333333332
 40
0.7083333333333332
 40
0.7499999999999998
 40
0.7499999999999998
 40
0.7499999999999998
 40
0.7499999999999998
 40
0.7916666666666664
 40
0.7916666666666664
 40
0.7916666666666664
 40
0.7916666666666664
 40
0.833333333333333
 40
0.833333333333333
 40
0.833333333333333
 40
0.833333333333333
 40
0.8749999999999997
 40
0.8749999999999997
 40
0.8749999999999997
 40
0.8749999999999997
 40
0.9166666666666663
 40
0.9166666666666663
 40
0.9166666666666663
 40
0.9166666666666663
 40
0.9583333333333329
 40
0.9583333333333329
 40
0.9583333333333329
 40
0.9583333333333329
 40
1.0
 40
1.0
 40
1.0
 40
1.0
 10
-1.1732874015748032
 20
-0.0693740157480315
 30
0.0
 10
-1.1732874015748032
 20
-0.0693740157480315
 30
0.0
 10
-0.5205433070866142
 20
0.3090472440944882
 30
0.0
 10
-0.5205433070866142
 20
0.3090472440944882
 30
0.0
 10
-0.5205433070866142
 20
0.3090472440944882
 30
0.0
 10
-0.5205433070866142
 20
0.3090472440944882
 30
0.0
 10
-0.5259606299212599
 20
0.3086062992125984
 30
0.0
 10
-0.5259606299212599
 20
0.3086062992125984
 30
0.0
 10
-0.5259606299212599
 20
0.3086062992125984
 30
0.0
 10
-0.5259606299212599
 20
0.3086062992125984
 30
0.0
 10
-0.531
 20
0.3083070866141732
 30
0.0
 10
-0.531
 20
0.3083070866141732
 30
0.0
 10
-0.531
 20
0.3083070866141732
 30
0.0
 10
-0.531
 20
0.3083070866141732
 30
0.0
 10
-0.5356417322834646
 20
0.3081220472440945
 30
0.0
 10
-0.5356417322834646
 20
0.3081220472440945
 30
0.0
 10
-0.5356417322834646
 20
0.3081220472440945
 30
0.0
 10
-0.5356417322834646
 20
0.3081220472440945
 30
0.0
 10
-0.5398385826771653
 20
0.3080433070866142
 30
0.0
 10
-0.5398385826771653
 20
0.3080433070866142
 30
0.0
 10
-0.5398385826771653
 20
0.3080433070866142
 30
0.0
 10
-0.5398385826771653
 20
0.3080433070866142
 30
0.0
 10
-0.5435787401574803
 20
0.3080314960629921
 30
0.0
 10
-0.5435787401574803
 20
0.3080314960629921
 30
0.0
 10
-0.5435787401574803
 20
0.3080314960629921
 30
0.0
 10
-0.5435787401574803
 20
0.3080314960629921
 30
0.0
 10
-0.5468228346456693
 20
0.3080826771653544
 30
0.0
 10
-0.5468228346456693
 20
0.3080826771653544
 30
0.0
 10
-0.5468228346456693
 20
0.3080826771653544
 30
0.0
 10
-0.5468228346456693
 20
0.3080826771653544
 30
0.0
 10
-0.5495511811023622
 20
0.3081653543307087
 30
0.0
 10
-0.5495511811023622
 20
0.3081653543307087
 30
0.0
 10
-0.5495511811023622
 20
0.3081653543307087
 30
0.0
 10
-0.5495511811023622
 20
0.3081653543307087
 30
0.0
 10
-0.5517204724409449
 20
0.3082677165354331
 30
0.0
 10
-0.5517204724409449
 20
0.3082677165354331
 30
0.0
 10
-0.5517204724409449
 20
0.3082677165354331
 30
0.0
 10
-0.5517204724409449
 20
0.3082677165354331
 30
0.0
 10
-0.5533110236220473
 20
0.3083622047244095
 30
0.0
 10
-0.5533110236220473
 20
0.3083622047244095
 30
0.0
 10
-0.5533110236220473
 20
0.3083622047244095
 30
0.0
 10
-0.5533110236220473
 20
0.3083622047244095
 30
0.0
 10
-0.5542834645669291
 20
0.3084409448818898
 30
0.0
 10
-0.5542834645669291
 20
0.3084409448818898
 30
0.0
 10
-0.5542834645669291
 20
0.3084409448818898
 30
0.0
 10
-0.5542834645669291
 20
0.3084409448818898
 30
0.0
 10
-0.5546181102362205
 20
0.3084645669291339
 30
0.0
 10
-0.5546181102362205
 20
0.3084645669291339
 30
0.0
 10
-0.5546181102362205
 20
0.3084645669291339
 30
0.0
 10
-0.5546181102362205
 20
0.3084645669291339
 30
0.0
 10
-1.2073622047244095
 20
-0.0699566929133858
 30
0.0
 10
-1.2073622047244095
 20
-0.0699566929133858
 30
0.0
 10
-1.2073622047244095
 20
-0.0699566929133858
 30
0.0
 10
-1.2073622047244095
 20
-0.0699566929133858
 30
0.0
 10
-1.207027559055118
 20
-0.0699803149606299
 30
0.0
 10
-1.207027559055118
 20
-0.0699803149606299
 30
0.0
 10
-1.207027559055118
 20
-0.0699803149606299
 30
0.0
 10
-1.207027559055118
 20
-0.0699803149606299
 30
0.0
 10
-1.2060551181102364
 20
-0.0700590551181102
 30
0.0
 10
-1.2060551181102364
 20
-0.0700590551181102
 30
0.0
 10
-1.2060551181102364
 20
-0.0700590551181102
 30
0.0
 10
-1.2060551181102364
 20
-0.0700590551181102
 30
0.0
 10
-1.2044645669291338
 20
-0.0701535433070866
 30
0.0
 10
-1.2044645669291338
 20
-0.0701535433070866
 30
0.0
 10
-1.2044645669291338
 20
-0.0701535433070866
 30
0.0
 10
-1.2044645669291338
 20
-0.0701535433070866
 30
0.0
 10
-1.2022952755905512
 20
-0.070255905511811
 30
0.0
 10
-1.2022952755905512
 20
-0.070255905511811
 30
0.0
 10
-1.2022952755905512
 20
-0.070255905511811
 30
0.0
 10
-1.2022952755905512
 20
-0.070255905511811
 30
0.0
 10
-1.1995669291338582
 20
-0.0703385826771654
 30
0.0
 10
-1.1995669291338582
 20
-0.0703385826771654
 30
0.0
 10
-1.1995669291338582
 20
-0.0703385826771654
 30
0.0
 10
-1.1995669291338582
 20
-0.0703385826771654
 30
0.0
 10
-1.1963228346456694
 20
-0.0703897637795276
 30
0.0
 10
-1.1963228346456694
 20
-0.0703897637795276
 30
0.0
 10
-1.1963228346456694
 20
-0.0703897637795276
 30
0.0
 10
-1.1963228346456694
 20
-0.0703897637795276
 30
0.0
 10
-1.1925826771653543
 20
-0.0703779527559055
 30
0.0
 10
-1.1925826771653543
 20
-0.0703779527559055
 30
0.0
 10
-1.1925826771653543
 20
-0.0703779527559055
 30
0.0
 10
-1.1925826771653543
 20
-0.0703779527559055
 30
0.0
 10
-1.1883858267716536
 20
-0.0702992125984252
 30
0.0
 10
-1.1883858267716536
 20
-0.0702992125984252
 30
0.0
 10
-1.1883858267716536
 20
-0.0702992125984252
 30
0.0
 10
-1.1883858267716536
 20
-0.0702992125984252
 30
0.0
 10
-1.183744094488189
 20
-0.0701141732283465
 30
0.0
 10
-1.183744094488189
 20
-0.0701141732283465
 30
0.0
 10
-1.183744094488189
 20
-0.0701141732283465
 30
0.0
 10
-1.183744094488189
 20
-0.0701141732283465
 30
0.0
 10
-1.1787047244094488
 20
-0.0698149606299213
 30
0.0
 10
-1.1787047244094488
 20
-0.0698149606299213
 30
0.0
 10
-1.1787047244094488
 20
-0.0698149606299213
 30
0.0
 10
-1.1787047244094488
 20
-0.0698149606299213
 30
0.0
 10
-1.1732874015748032
 20
-0.0693740157480315
 30
0.0
 10
-1.1732874015748032
 20
-0.0693740157480315
 30
0.0
  0
SPLINE
  5
3E
100
AcDbEntity
  8
P1-Layer 1
370
     5
100
AcDbSpline
210
0.0
220
0.0
230
1.0
 70
     1
 71
     3
 72
   204
 73
   200
 74
     0
 42
0.0000000001
 43
0.0000000001
 40
0.0
 40
0.0
 40
0.0
 40
0.0
 40
0.02
 40
0.02
 40
0.02
 40
0.02
 40
0.04
 40
0.04
 40
0.04
 40
0.04
 40
0.06
 40
0.06
 40
0.06
 40
0.06
 40
0.08
 40
0.08
 40
0.08
 40
0.08
 40
0.1
 40
0.1
 40
0.1
 40
0.1
 40
0.12
 40
0.12
 40
0.12
 40
0.12
 40
0.14
 40
0.14
 40
0.14
 40
0.14
 40
0.16
 40
0.16
 40
0.16
 40
0.16
 40
0.18
 40
0.18
 40
0.18
 40
0.18
 40
0.2
 40
0.2
 40
0.2
 40
0.2
 40
0.22
 40
0.22
 40
0.22
 40
0.22
 40
0.24
 40
0.24
 40
0.24
 40
0.24
 40
0.26
 40
0.26
 40
0.26
 40
0.26
 40
0.28
 40
0.28
 40
0.28
 40
0.28
 40
0.3
 40
0.3
 40
0.3
 40
0.3
 40
0.32
 40
0.32
 40
0.32
 40
0.32
 40
0.34
 40
0.34
 40
0.34
 40
0.34
 40
0.36
 40
0.36
 40
0.36
 40
0.36
 40
0.3800000000000001
 40
0.3800000000000001
 40
0.3800000000000001
 40
0.3800000000000001
 40
0.4000000000000001
 40
0.4000000000000001
 40
0.4000000000000001
 40
0.4000000000000001
 40
0.4200000000000001
 40
0.4200000000000001
 40
0.4200000000000001
 40
0.4200000000000001
 40
0.4400000000000001
 40
0.4400000000000001
 40
0.4400000000000001
 40
0.4400000000000001
 40
0.4600000000000001
 40
0.4600000000000001
 40
0.4600000000000001
 40
0.4600000000000001
 40
0.4800000000000002
 40
0.4800000000000002
 40
0.4800000000000002
 40
0.4800000000000002
 40
0.5000000000000001
 40
0.5000000000000001
 40
0.5000000000000001
 40
0.5000000000000001
 40
0.5200000000000001
 40
0.5200000000000001
 40
0.5200000000000001
 40
0.5200000000000001
 40
0.5400000000000002
 40
0.5400000000000002
 40
0.5400000000000002
 40
0.5400000000000002
 40
0.5600000000000002
 40
0.5600000000000002
 40
0.5600000000000002
 40
0.5600000000000002
 40
0.5800000000000002
 40
0.5800000000000002
 40
0.5800000000000002
 40
0.5800000000000002
 40
0.6000000000000002
 40
0.6000000000000002
 40
0.6000000000000002
 40
0.6000000000000002
 40
0.6200000000000002
 40
0.6200000000000002
 40
0.6200000000000002
 40
0.6200000000000002
 40
0.6400000000000002
 40
0.6400000000000002
 40
0.6400000000000002
 40
0.6400000000000002
 40
0.6600000000000003
 40
0.6600000000000003
 40
0.6600000000000003
 40
0.6600000000000003
 40
0.6800000000000003
 40
0.6800000000000003
 40
0.6800000000000003
 40
0.6800000000000003
 40
0.7000000000000003
 40
0.7000000000000003
 40
0.7000000000000003
 40
0.7000000000000003
 40
0.7200000000000003
 40
0.7200000000000003
 40
0.7200000000000003
 40
0.7200000000000003
 40
0.7400000000000003
 40
0.7400000000000003
 40
0.7400000000000003
 40
0.7400000000000003
 40
0.7600000000000003
 40
0.7600000000000003
 40
0.7600000000000003
 40
0.7600000000000003
 40
0.7800000000000004
 40
0.7800000000000004
 40
0.7800000000000004
 40
0.7800000000000004
 40
0.8000000000000004
 40
0.8000000000000004
 40
0.8000000000000004
 40
0.8000000000000004
 40
0.8200000000000004
 40
0.8200000000000004
 40
0.8200000000000004
 40
0.8200000000000004
 40
0.8400000000000004
 40
0.8400000000000004
 40
0.8400000000000004
 40
0.8400000000000004
 40
0.8600000000000004
 40
0.8600000000000004
 40
0.8600000000000004
 40
0.8600000000000004
 40
0.8800000000000005
 40
0.8800000000000005
 40
0.8800000000000005
 40
0.8800000000000005
 40
0.9000000000000005
 40
0.9000000000000005
 40
0.9000000000000005
 40
0.9000000000000005
 40
0.9200000000000005
 40
0.9200000000000005
 40
0.9200000000000005
 40
0.9200000000000005
 40
0.9400000000000005
 40
0.9400000000000005
 40
0.9400000000000005
 40
0.9400000000000005
 40
0.9600000000000005
 40
0.9600000000000005
 40
0.9600000000000005
 40
0.9600000000000005
 40
0.9800000000000005
 40
0.9800000000000005
 40
0.9800000000000005
 40
0.9800000000000005
 40
1.0
 40
1.0
 40
1.0
 40
1.0
 10
-1.0825787401574805
 20
-0.0418779527559055
 30
0.0
 10
-1.0825787401574805
 20
-0.0418779527559055
 30
0.0
 10
-0.4298346456692914
 20
0.3365433070866142
 30
0.0
 10
-0.4298346456692914
 20
0.3365433070866142
 30
0.0
 10
-0.4298346456692914
 20
0.3365433070866142
 30
0.0
 10
-0.4298346456692914
 20
0.3365433070866142
 30
0.0
 10
-0.4373700787401575
 20
0.3324645669291339
 30
0.0
 10
-0.4373700787401575
 20
0.3324645669291339
 30
0.0
 10
-0.4373700787401575
 20
0.3324645669291339
 30
0.0
 10
-0.4373700787401575
 20
0.3324645669291339
 30
0.0
 10
-0.4449291338582677
 20
0.3287874015748032
 30
0.0
 10
-0.4449291338582677
 20
0.3287874015748032
 30
0.0
 10
-0.4449291338582677
 20
0.3287874015748032
 30
0.0
 10
-0.4449291338582677
 20
0.3287874015748032
 30
0.0
 10
-0.4524724409448819
 20
0.325496062992126
 30
0.0
 10
-0.4524724409448819
 20
0.325496062992126
 30
0.0
 10
-0.4524724409448819
 20
0.325496062992126
 30
0.0
 10
-0.4524724409448819
 20
0.325496062992126
 30
0.0
 10
-0.4599763779527559
 20
0.3225551181102362
 30
0.0
 10
-0.4599763779527559
 20
0.3225551181102362
 30
0.0
 10
-0.4599763779527559
 20
0.3225551181102362
 30
0.0
 10
-0.4599763779527559
 20
0.3225551181102362
 30
0.0
 10
-0.4673976377952756
 20
0.3199606299212598
 30
0.0
 10
-0.4673976377952756
 20
0.3199606299212598
 30
0.0
 10
-0.4673976377952756
 20
0.3199606299212598
 30
0.0
 10
-0.4673976377952756
 20
0.3199606299212598
 30
0.0
 10
-0.4747204724409449
 20
0.3176850393700788
 30
0.0
 10
-0.4747204724409449
 20
0.3176850393700788
 30
0.0
 10
-0.4747204724409449
 20
0.3176850393700788
 30
0.0
 10
-0.4747204724409449
 20
0.3176850393700788
 30
0.0
 10
-0.4819094488188976
 20
0.3157125984251969
 30
0.0
 10
-0.4819094488188976
 20
0.3157125984251969
 30
0.0
 10
-0.4819094488188976
 20
0.3157125984251969
 30
0.0
 10
-0.4819094488188976
 20
0.3157125984251969
 30
0.0
 10
-0.4889370078740158
 20
0.3140118110236221
 30
0.0
 10
-0.4889370078740158
 20
0.3140118110236221
 30
0.0
 10
-0.4889370078740158
 20
0.3140118110236221
 30
0.0
 10
-0.4889370078740158
 20
0.3140118110236221
 30
0.0
 10
-0.4957598425196851
 20
0.3125826771653543
 30
0.0
 10
-0.4957598425196851
 20
0.3125826771653543
 30
0.0
 10
-0.4957598425196851
 20
0.3125826771653543
 30
0.0
 10
-0.4957598425196851
 20
0.3125826771653543
 30
0.0
 10
-0.5023700787401575
 20
0.3113897637795276
 30
0.0
 10
-0.5023700787401575
 20
0.3113897637795276
 30
0.0
 10
-0.5023700787401575
 20
0.3113897637795276
 30
0.0
 10
-0.5023700787401575
 20
0.3113897637795276
 30
0.0
 10
-0.5087204724409449
 20
0.3104173228346457
 30
0.0
 10
-0.5087204724409449
 20
0.3104173228346457
 30
0.0
 10
-0.5087204724409449
 20
0.3104173228346457
 30
0.0
 10
-0.5087204724409449
 20
0.3104173228346457
 30
0.0
 10
-0.5147913385826772
 20
0.3096377952755905
 30
0.0
 10
-0.5147913385826772
 20
0.3096377952755905
 30
0.0
 10
-0.5147913385826772
 20
0.3096377952755905
 30
0.0
 10
-0.5147913385826772
 20
0.3096377952755905
 30
0.0
 10
-0.5205433070866142
 20
0.3090472440944882
 30
0.0
 10
-0.5205433070866142
 20
0.3090472440944882
 30
0.0
 10
-0.5205433070866142
 20
0.3090472440944882
 30
0.0
 10
-0.5205433070866142
 20
0.3090472440944882
 30
0.0
 10
-0.5259606299212599
 20
0.3086062992125984
 30
0.0
 10
-0.5259606299212599
 20
0.3086062992125984
 30
0.0
 10
-0.5259606299212599
 20
0.3086062992125984
 30
0.0
 10
-0.5259606299212599
 20
0.3086062992125984
 30
0.0
 10
-0.531
 20
0.3083070866141732
 30
0.0
 10
-0.531
 20
0.3083070866141732
 30
0.0
 10
-0.531
 20
0.3083070866141732
 30
0.0
 10
-0.531
 20
0.3083070866141732
 30
0.0
 10
-0.5356417322834646
 20
0.3081220472440945
 30
0.0
 10
-0.5356417322834646
 20
0.3081220472440945
 30
0.0
 10
-0.5356417322834646
 20
0.3081220472440945
 30
0.0
 10
-0.5356417322834646
 20
0.3081220472440945
 30
0.0
 10
-0.5398385826771653
 20
0.3080433070866142
 30
0.0
 10
-0.5398385826771653
 20
0.3080433070866142
 30
0.0
 10
-0.5398385826771653
 20
0.3080433070866142
 30
0.0
 10
-0.5398385826771653
 20
0.3080433070866142
 30
0.0
 10
-0.5435787401574803
 20
0.3080314960629921
 30
0.0
 10
-0.5435787401574803
 20
0.3080314960629921
 30
0.0
 10
-0.5435787401574803
 20
0.3080314960629921
 30
0.0
 10
-0.5435787401574803
 20
0.3080314960629921
 30
0.0
 10
-0.5468228346456693
 20
0.3080826771653544
 30
0.0
 10
-0.5468228346456693
 20
0.3080826771653544
 30
0.0
 10
-0.5468228346456693
 20
0.3080826771653544
 30
0.0
 10
-0.5468228346456693
 20
0.3080826771653544
 30
0.0
 10
-0.5495511811023622
 20
0.3081653543307087
 30
0.0
 10
-0.5495511811023622
 20
0.3081653543307087
 30
0.0
 10
-0.5495511811023622
 20
0.3081653543307087
 30
0.0
 10
-0.5495511811023622
 20
0.3081653543307087
 30
0.0
 10
-0.5517204724409449
 20
0.3082677165354331
 30
0.0
 10
-0.5517204724409449
 20
0.3082677165354331
 30
0.0
 10
-0.5517204724409449
 20
0.3082677165354331
 30
0.0
 10
-0.5517204724409449
 20
0.3082677165354331
 30
0.0
 10
-0.5533110236220473
 20
0.3083622047244095
 30
0.0
 10
-0.5533110236220473
 20
0.3083622047244095
 30
0.0
 10
-0.5533110236220473
 20
0.3083622047244095
 30
0.0
 10
-0.5533110236220473
 20
0.3083622047244095
 30
0.0
 10
-0.5542834645669291
 20
0.3084409448818898
 30
0.0
 10
-0.5542834645669291
 20
0.3084409448818898
 30
0.0
 10
-0.5542834645669291
 20
0.3084409448818898
 30
0.0
 10
-0.5542834645669291
 20
0.3084409448818898
 30
0.0
 10
-0.5546181102362205
 20
0.3084645669291339
 30
0.0
 10
-0.5546181102362205
 20
0.3084645669291339
 30
0.0
 10
-0.5546181102362205
 20
0.3084645669291339
 30
0.0
 10
-0.5546181102362205
 20
0.3084645669291339
 30
0.0
 10
-1.2073622047244095
 20
-0.0699566929133858
 30
0.0
 10
-1.2073622047244095
 20
-0.0699566929133858
 30
0.0
 10
-1.2073622047244095
 20
-0.0699566929133858
 30
0.0
 10
-1.2073622047244095
 20
-0.0699566929133858
 30
0.0
 10
-1.207027559055118
 20
-0.0699803149606299
 30
0.0
 10
-1.207027559055118
 20
-0.0699803149606299
 30
0.0
 10
-1.207027559055118
 20
-0.0699803149606299
 30
0.0
 10
-1.207027559055118
 20
-0.0699803149606299
 30
0.0
 10
-1.2060551181102364
 20
-0.0700590551181102
 30
0.0
 10
-1.2060551181102364
 20
-0.0700590551181102
 30
0.0
 10
-1.2060551181102364
 20
-0.0700590551181102
 30
0.0
 10
-1.2060551181102364
 20
-0.0700590551181102
 30
0.0
 10
-1.2044645669291338
 20
-0.0701535433070866
 30
0.0
 10
-1.2044645669291338
 20
-0.0701535433070866
 30
0.0
 10
-1.2044645669291338
 20
-0.0701535433070866
 30
0.0
 10
-1.2044645669291338
 20
-0.0701535433070866
 30
0.0
 10
-1.2022952755905512
 20
-0.070255905511811
 30
0.0
 10
-1.2022952755905512
 20
-0.070255905511811
 30
0.0
 10
-1.2022952755905512
 20
-0.070255905511811
 30
0.0
 10
-1.2022952755905512
 20
-0.070255905511811
 30
0.0
 10
-1.1995669291338582
 20
-0.0703385826771654
 30
0.0
 10
-1.1995669291338582
 20
-0.0703385826771654
 30
0.0
 10
-1.1995669291338582
 20
-0.0703385826771654
 30
0.0
 10
-1.1995669291338582
 20
-0.0703385826771654
 30
0.0
 10
-1.1963228346456694
 20
-0.0703897637795276
 30
0.0
 10
-1.1963228346456694
 20
-0.0703897637795276
 30
0.0
 10
-1.1963228346456694
 20
-0.0703897637795276
 30
0.0
 10
-1.1963228346456694
 20
-0.0703897637795276
 30
0.0
 10
-1.1925826771653543
 20
-0.0703779527559055
 30
0.0
 10
-1.1925826771653543
 20
-0.0703779527559055
 30
0.0
 10
-1.1925826771653543
 20
-0.0703779527559055
 30
0.0
 10
-1.1925826771653543
 20
-0.0703779527559055
 30
0.0
 10
-1.1883858267716536
 20
-0.0702992125984252
 30
0.0
 10
-1.1883858267716536
 20
-0.0702992125984252
 30
0.0
 10
-1.1883858267716536
 20
-0.0702992125984252
 30
0.0
 10
-1.1883858267716536
 20
-0.0702992125984252
 30
0.0
 10
-1.183744094488189
 20
-0.0701141732283465
 30
0.0
 10
-1.183744094488189
 20
-0.0701141732283465
 30
0.0
 10
-1.183744094488189
 20
-0.0701141732283465
 30
0.0
 10
-1.183744094488189
 20
-0.0701141732283465
 30
0.0
 10
-1.1787047244094488
 20
-0.0698149606299213
 30
0.0
 10
-1.1787047244094488
 20
-0.0698149606299213
 30
0.0
 10
-1.1787047244094488
 20
-0.0698149606299213
 30
0.0
 10
-1.1787047244094488
 20
-0.0698149606299213
 30
0.0
 10
-1.1732874015748032
 20
-0.0693740157480315
 30
0.0
 10
-1.1732874015748032
 20
-0.0693740157480315
 30
0.0
 10
-1.1732874015748032
 20
-0.0693740157480315
 30
0.0
 10
-1.1732874015748032
 20
-0.0693740157480315
 30
0.0
 10
-1.1675354330708663
 20
-0.0687834645669291
 30
0.0
 10
-1.1675354330708663
 20
-0.0687834645669291
 30
0.0
 10
-1.1675354330708663
 20
-0.0687834645669291
 30
0.0
 10
-1.1675354330708663
 20
-0.0687834645669291
 30
0.0
 10
-1.1614645669291339
 20
-0.068003937007874
 30
0.0
 10
-1.1614645669291339
 20
-0.068003937007874
 30
0.0
 10
-1.1614645669291339
 20
-0.068003937007874
 30
0.0
 10
-1.1614645669291339
 20
-0.068003937007874
 30
0.0
 10
-1.1551141732283465
 20
-0.0670314960629921
 30
0.0
 10
-1.1551141732283465
 20
-0.0670314960629921
 30
0.0
 10
-1.1551141732283465
 20
-0.0670314960629921
 30
0.0
 10
-1.1551141732283465
 20
-0.0670314960629921
 30
0.0
 10
-1.148503937007874
 20
-0.0658385826771654
 30
0.0
 10
-1.148503937007874
 20
-0.0658385826771654
 30
0.0
 10
-1.148503937007874
 20
-0.0658385826771654
 30
0.0
 10
-1.148503937007874
 20
-0.0658385826771654
 30
0.0
 10
-1.1416811023622047
 20
-0.0644094488188976
 30
0.0
 10
-1.1416811023622047
 20
-0.0644094488188976
 30
0.0
 10
-1.1416811023622047
 20
-0.0644094488188976
 30
0.0
 10
-1.1416811023622047
 20
-0.0644094488188976
 30
0.0
 10
-1.1346535433070866
 20
-0.0627086614173228
 30
0.0
 10
-1.1346535433070866
 20
-0.0627086614173228
 30
0.0
 10
-1.1346535433070866
 20
-0.0627086614173228
 30
0.0
 10
-1.1346535433070866
 20
-0.0627086614173228
 30
0.0
 10
-1.1274645669291339
 20
-0.0607362204724409
 30
0.0
 10
-1.1274645669291339
 20
-0.0607362204724409
 30
0.0
 10
-1.1274645669291339
 20
-0.0607362204724409
 30
0.0
 10
-1.1274645669291339
 20
-0.0607362204724409
 30
0.0
 10
-1.1201417322834646
 20
-0.0584606299212598
 30
0.0
 10
-1.1201417322834646
 20
-0.0584606299212598
 30
0.0
 10
-1.1201417322834646
 20
-0.0584606299212598
 30
0.0
 10
-1.1201417322834646
 20
-0.0584606299212598
 30
0.0
 10
-1.112720472440945
 20
-0.0558661417322835
 30
0.0
 10
-1.112720472440945
 20
-0.0558661417322835
 30
0.0
 10
-1.112720472440945
 20
-0.0558661417322835
 30
0.0
 10
-1.112720472440945
 20
-0.0558661417322835
 30
0.0
 10
-1.105216535433071
 20
-0.0529251968503937
 30
0.0
 10
-1.105216535433071
 20
-0.0529251968503937
 30
0.0
 10
-1.105216535433071
 20
-0.0529251968503937
 30
0.0
 10
-1.105216535433071
 20
-0.0529251968503937
 30
0.0
 10
-1.0976732283464568
 20
-0.0496338582677165
 30
0.0
 10
-1.0976732283464568
 20
-0.0496338582677165
 30
0.0
 10
-1.0976732283464568
 20
-0.0496338582677165
 30
0.0
 10
-1.0976732283464568
 20
-0.0496338582677165
 30
0.0
 10
-1.0901141732283466
 20
-0.0459566929133858
 30
0.0
 10
-1.0901141732283466
 20
-0.0459566929133858
 30
0.0
 10
-1.0901141732283466
 20
-0.0459566929133858
 30
0.0
 10
-1.0901141732283466
 20
-0.0459566929133858
 30
0.0
 10
-1.0825787401574805
 20
-0.0418779527559055
 30
0.0
 10
-1.0825787401574805
 20
-0.0418779527559055
 30
0.0
  0
SPLINE
  5
3F
100
AcDbEntity
  8
P1-Layer 1
 62
   253
100
AcDbSpline
210
0.0
220
0.0
230
1.0
 70
     1
 71
     3
 72
    20
 73
    16
 74
     0
 42
0.0000000001
 43
0.0000000001
 40
0.0
 40
0.0
 40
0.0
 40
0.0
 40
0.25
 40
0.25
 40
0.25
 40
0.25
 40
0.5
 40
0.5
 40
0.5
 40
0.5
 40
0.75
 40
0.75
 40
0.75
 40
0.75
 40
1.0
 40
1.0
 40
1.0
 40
1.0
 10
-1.2073622047244095
 20
-0.1552755905511811
 30
0.0
 10
-1.2073622047244095
 20
-0.1552755905511811
 30
0.0
 10
-0.5546181102362205
 20
0.2231456692913386
 30
0.0
 10
-0.5546181102362205
 20
0.2231456692913386
 30
0.0
 10
-0.5546181102362205
 20
0.2231456692913386
 30
0.0
 10
-0.5546181102362205
 20
0.2231456692913386
 30
0.0
 10
-0.5560275590551181
 20
0.2234251968503937
 30
0.0
 10
-0.5560275590551181
 20
0.2234251968503937
 30
0.0
 10
-0.5560275590551181
 20
0.2234251968503937
 30
0.0
 10
-0.5560275590551181
 20
0.2234251968503937
 30
0.0
 10
-1.2087716535433071
 20
-0.154996062992126
 30
0.0
 10
-1.2087716535433071
 20
-0.154996062992126
 30
0.0
 10
-1.2087716535433071
 20
-0.154996062992126
 30
0.0
 10
-1.2087716535433071
 20
-0.154996062992126
 30
0.0
 10
-1.2073622047244095
 20
-0.1552755905511811
 30
0.0
 10
-1.2073622047244095
 20
-0.1552755905511811
 30
0.0
  0
SPLINE
  5
40
100
AcDbEntity
  8
P1-Layer 1
370
     5
100
AcDbSpline
210
0.0
220
0.0
230
1.0
 70
     1
 71
     3
 72
    20
 73
    16
 74
     0
 42
0.0000000001
 43
0.0000000001
 40
0.0
 40
0.0
 40
0.0
 40
0.0
 40
0.25
 40
0.25
 40
0.25
 40
0.25
 40
0.5
 40
0.5
 40
0.5
 40
0.5
 40
0.75
 40
0.75
 40
0.75
 40
0.75
 40
1.0
 40
1.0
 40
1.0
 40
1.0
 10
-1.2073622047244095
 20
-0.1552755905511811
 30
0.0
 10
-1.2073622047244095
 20
-0.1552755905511811
 30
0.0
 10
-0.5546181102362205
 20
0.2231456692913386
 30
0.0
 10
-0.5546181102362205
 20
0.2231456692913386
 30
0.0
 10
-0.5546181102362205
 20
0.2231456692913386
 30
0.0
 10
-0.5546181102362205
 20
0.2231456692913386
 30
0.0
 10
-0.5560275590551181
 20
0.2234251968503937
 30
0.0
 10
-0.5560275590551181
 20
0.2234251968503937
 30
0.0
 10
-0.5560275590551181
 20
0.2234251968503937
 30
0.0
 10
-0.5560275590551181
 20
0.2234251968503937
 30
0.0
 10
-1.2087716535433071
 20
-0.154996062992126
 30
0.0
 10
-1.2087716535433071
 20
-0.154996062992126
 30
0.0
 10
-1.2087716535433071
 20
-0.154996062992126
 30
0.0
 10
-1.2087716535433071
 20
-0.154996062992126
 30
0.0
 10
-1.2073622047244095
 20
-0.1552755905511811
 30
0.0
 10
-1.2073622047244095
 20
-0.1552755905511811
 30
0.0
  0
SPLINE
  5
41
100
AcDbEntity
  8
P1-Layer 1
 62
     9
100
AcDbSpline
210
0.0
220
0.0
230
1.0
 70
     1
 71
     3
 72
    36
 73
    32
 74
     0
 42
0.0000000001
 43
0.0000000001
 40
0.0
 40
0.0
 40
0.0
 40
0.0
 40
0.125
 40
0.125
 40
0.125
 40
0.125
 40
0.25
 40
0.25
 40
0.25
 40
0.25
 40
0.375
 40
0.375
 40
0.375
 40
0.375
 40
0.5
 40
0.5
 40
0.5
 40
0.5
 40
0.625
 40
0.625
 40
0.625
 40
0.625
 40
0.75
 40
0.75
 40
0.75
 40
0.75
 40
0.875
 40
0.875
 40
0.875
 40
0.875
 40
1.0
 40
1.0
 40
1.0
 40
1.0
 10
-0.759492125984252
 20
-0.0009488188976378
 30
0.0
 10
-0.759492125984252
 20
-0.0009488188976378
 30
0.0
 10
-0.106748031496063
 20
0.3774724409448819
 30
0.0
 10
-0.106748031496063
 20
0.3774724409448819
 30
0.0
 10
-0.106748031496063
 20
0.3774724409448819
 30
0.0
 10
-0.106748031496063
 20
0.3774724409448819
 30
0.0
 10
-0.1288228346456693
 20
0.3774724409448819
 30
0.0
 10
-0.1288228346456693
 20
0.3774724409448819
 30
0.0
 10
-0.1288228346456693
 20
0.3774724409448819
 30
0.0
 10
-0.1288228346456693
 20
0.3774724409448819
 30
0.0
 10
-0.136007874015748
 20
0.3888149606299213
 30
0.0
 10
-0.136007874015748
 20
0.3888149606299213
 30
0.0
 10
-0.136007874015748
 20
0.3888149606299213
 30
0.0
 10
-0.136007874015748
 20
0.3888149606299213
 30
0.0
 10
-0.1433464566929134
 20
0.3992637795275591
 30
0.0
 10
-0.1433464566929134
 20
0.3992637795275591
 30
0.0
 10
-0.1433464566929134
 20
0.3992637795275591
 30
0.0
 10
-0.1433464566929134
 20
0.3992637795275591
 30
0.0
 10
-0.7960905511811024
 20
0.0208425196850394
 30
0.0
 10
-0.7960905511811024
 20
0.0208425196850394
 30
0.0
 10
-0.7960905511811024
 20
0.0208425196850394
 30
0.0
 10
-0.7960905511811024
 20
0.0208425196850394
 30
0.0
 10
-0.788751968503937
 20
0.0103937007874016
 30
0.0
 10
-0.788751968503937
 20
0.0103937007874016
 30
0.0
 10
-0.788751968503937
 20
0.0103937007874016
 30
0.0
 10
-0.788751968503937
 20
0.0103937007874016
 30
0.0
 10
-0.7815669291338583
 20
-0.0009488188976378
 30
0.0
 10
-0.7815669291338583
 20
-0.0009488188976378
 30
0.0
 10
-0.7815669291338583
 20
-0.0009488188976378
 30
0.0
 10
-0.7815669291338583
 20
-0.0009488188976378
 30
0.0
 10
-0.759492125984252
 20
-0.0009488188976378
 30
0.0
 10
-0.759492125984252
 20
-0.0009488188976378
 30
0.0
  0
SPLINE
  5
42
100
AcDbEntity
  8
P1-Layer 1
 62
     9
100
AcDbSpline
210
0.0
220
0.0
230
1.0
 70
     1
 71
     3
 72
    44
 73
    40
 74
     0
 42
0.0000000001
 43
0.0000000001
 40
0.0
 40
0.0
 40
0.0
 40
0.0
 40
0.1
 40
0.1
 40
0.1
 40
0.1
 40
0.2
 40
0.2
 40
0.2
 40
0.2
 40
0.3
 40
0.3
 40
0.3
 40
0.3
 40
0.4
 40
0.4
 40
0.4
 40
0.4
 40
0.5
 40
0.5
 40
0.5
 40
0.5
 40
0.6
 40
0.6
 40
0.6
 40
0.6
 40
0.7
 40
0.7
 40
0.7
 40
0.7
 40
0.7999999999999999
 40
0.7999999999999999
 40
0.7999999999999999
 40
0.7999999999999999
 40
0.8999999999999999
 40
0.8999999999999999
 40
0.8999999999999999
 40
0.8999999999999999
 40
1.0
 40
1.0
 40
1.0
 40
1.0
 10
-0.7960905511811024
 20
0.0208425196850394
 30
0.0
 10
-0.7960905511811024
 20
0.0208425196850394
 30
0.0
 10
-0.1433464566929134
 20
0.3992637795275591
 30
0.0
 10
-0.1433464566929134
 20
0.3992637795275591
 30
0.0
 10
-0.1433464566929134
 20
0.3992637795275591
 30
0.0
 10
-0.1433464566929134
 20
0.3992637795275591
 30
0.0
 10
-0.1508149606299213
 20
0.4088464566929134
 30
0.0
 10
-0.1508149606299213
 20
0.4088464566929134
 30
0.0
 10
-0.1508149606299213
 20
0.4088464566929134
 30
0.0
 10
-0.1508149606299213
 20
0.4088464566929134
 30
0.0
 10
-0.1584133858267717
 20
0.4175748031496063
 30
0.0
 10
-0.1584133858267717
 20
0.4175748031496063
 30
0.0
 10
-0.1584133858267717
 20
0.4175748031496063
 30
0.0
 10
-0.1584133858267717
 20
0.4175748031496063
 30
0.0
 10
-0.1661102362204724
 20
0.4254724409448819
 30
0.0
 10
-0.1661102362204724
 20
0.4254724409448819
 30
0.0
 10
-0.1661102362204724
 20
0.4254724409448819
 30
0.0
 10
-0.1661102362204724
 20
0.4254724409448819
 30
0.0
 10
-0.1739173228346457
 20
0.4325511811023622
 30
0.0
 10
-0.1739173228346457
 20
0.4325511811023622
 30
0.0
 10
-0.1739173228346457
 20
0.4325511811023622
 30
0.0
 10
-0.1739173228346457
 20
0.4325511811023622
 30
0.0
 10
-0.8266614173228347
 20
0.0541299212598425
 30
0.0
 10
-0.8266614173228347
 20
0.0541299212598425
 30
0.0
 10
-0.8266614173228347
 20
0.0541299212598425
 30
0.0
 10
-0.8266614173228347
 20
0.0541299212598425
 30
0.0
 10
-0.8188543307086614
 20
0.0470511811023622
 30
0.0
 10
-0.8188543307086614
 20
0.0470511811023622
 30
0.0
 10
-0.8188543307086614
 20
0.0470511811023622
 30
0.0
 10
-0.8188543307086614
 20
0.0470511811023622
 30
0.0
 10
-0.8111574803149607
 20
0.0391535433070866
 30
0.0
 10
-0.8111574803149607
 20
0.0391535433070866
 30
0.0
 10
-0.8111574803149607
 20
0.0391535433070866
 30
0.0
 10
-0.8111574803149607
 20
0.0391535433070866
 30
0.0
 10
-0.8035590551181103
 20
0.0304251968503937
 30
0.0
 10
-0.8035590551181103
 20
0.0304251968503937
 30
0.0
 10
-0.8035590551181103
 20
0.0304251968503937
 30
0.0
 10
-0.8035590551181103
 20
0.0304251968503937
 30
0.0
 10
-0.7960905511811024
 20
0.0208425196850394
 30
0.0
 10
-0.7960905511811024
 20
0.0208425196850394
 30
0.0
  0
SPLINE
  5
43
100
AcDbEntity
  8
P1-Layer 1
 62
     9
100
AcDbSpline
210
0.0
220
0.0
230
1.0
 70
     1
 71
     3
 72
    52
 73
    48
 74
     0
 42
0.0000000001
 43
0.0000000001
 40
0.0
 40
0.0
 40
0.0
 40
0.0
 40
0.0833333333333333
 40
0.0833333333333333
 40
0.0833333333333333
 40
0.0833333333333333
 40
0.1666666666666667
 40
0.1666666666666667
 40
0.1666666666666667
 40
0.1666666666666667
 40
0.25
 40
0.25
 40
0.25
 40
0.25
 40
0.3333333333333333
 40
0.3333333333333333
 40
0.3333333333333333
 40
0.3333333333333333
 40
0.4166666666666666
 40
0.4166666666666666
 40
0.4166666666666666
 40
0.4166666666666666
 40
0.4999999999999999
 40
0.4999999999999999
 40
0.4999999999999999
 40
0.4999999999999999
 40
0.5833333333333333
 40
0.5833333333333333
 40
0.5833333333333333
 40
0.5833333333333333
 40
0.6666666666666666
 40
0.6666666666666666
 40
0.6666666666666666
 40
0.6666666666666666
 40
0.75
 40
0.75
 40
0.75
 40
0.75
 40
0.8333333333333334
 40
0.8333333333333334
 40
0.8333333333333334
 40
0.8333333333333334
 40
0.9166666666666667
 40
0.9166666666666667
 40
0.9166666666666667
 40
0.9166666666666667
 40
1.0
 40
1.0
 40
1.0
 40
1.0
 10
-0.8266614173228347
 20
0.0541299212598425
 30
0.0
 10
-0.8266614173228347
 20
0.0541299212598425
 30
0.0
 10
-0.1739173228346457
 20
0.4325511811023622
 30
0.0
 10
-0.1739173228346457
 20
0.4325511811023622
 30
0.0
 10
-0.1739173228346457
 20
0.4325511811023622
 30
0.0
 10
-0.1739173228346457
 20
0.4325511811023622
 30
0.0
 10
-0.1818110236220473
 20
0.4388346456692914
 30
0.0
 10
-0.1818110236220473
 20
0.4388346456692914
 30
0.0
 10
-0.1818110236220473
 20
0.4388346456692914
 30
0.0
 10
-0.1818110236220473
 20
0.4388346456692914
 30
0.0
 10
-0.1897874015748031
 20
0.4443267716535433
 30
0.0
 10
-0.1897874015748031
 20
0.4443267716535433
 30
0.0
 10
-0.1897874015748031
 20
0.4443267716535433
 30
0.0
 10
-0.1897874015748031
 20
0.4443267716535433
 30
0.0
 10
-0.1978149606299213
 20
0.4490629921259843
 30
0.0
 10
-0.1978149606299213
 20
0.4490629921259843
 30
0.0
 10
-0.1978149606299213
 20
0.4490629921259843
 30
0.0
 10
-0.1978149606299213
 20
0.4490629921259843
 30
0.0
 10
-0.2059055118110236
 20
0.4530472440944882
 30
0.0
 10
-0.2059055118110236
 20
0.4530472440944882
 30
0.0
 10
-0.2059055118110236
 20
0.4530472440944882
 30
0.0
 10
-0.2059055118110236
 20
0.4530472440944882
 30
0.0
 10
-0.2140354330708661
 20
0.4562992125984252
 30
0.0
 10
-0.2140354330708661
 20
0.4562992125984252
 30
0.0
 10
-0.2140354330708661
 20
0.4562992125984252
 30
0.0
 10
-0.2140354330708661
 20
0.4562992125984252
 30
0.0
 10
-0.8667795275590552
 20
0.0778779527559055
 30
0.0
 10
-0.8667795275590552
 20
0.0778779527559055
 30
0.0
 10
-0.8667795275590552
 20
0.0778779527559055
 30
0.0
 10
-0.8667795275590552
 20
0.0778779527559055
 30
0.0
 10
-0.8586496062992126
 20
0.0746259842519685
 30
0.0
 10
-0.8586496062992126
 20
0.0746259842519685
 30
0.0
 10
-0.8586496062992126
 20
0.0746259842519685
 30
0.0
 10
-0.8586496062992126
 20
0.0746259842519685
 30
0.0
 10
-0.8505590551181103
 20
0.0706417322834646
 30
0.0
 10
-0.8505590551181103
 20
0.0706417322834646
 30
0.0
 10
-0.8505590551181103
 20
0.0706417322834646
 30
0.0
 10
-0.8505590551181103
 20
0.0706417322834646
 30
0.0
 10
-0.8425314960629922
 20
0.0659055118110236
 30
0.0
 10
-0.8425314960629922
 20
0.0659055118110236
 30
0.0
 10
-0.8425314960629922
 20
0.0659055118110236
 30
0.0
 10
-0.8425314960629922
 20
0.0659055118110236
 30
0.0
 10
-0.8345551181102363
 20
0.0604133858267717
 30
0.0
 10
-0.8345551181102363
 20
0.0604133858267717
 30
0.0
 10
-0.8345551181102363
 20
0.0604133858267717
 30
0.0
 10
-0.8345551181102363
 20
0.0604133858267717
 30
0.0
 10
-0.8266614173228347
 20
0.0541299212598425
 30
0.0
 10
-0.8266614173228347
 20
0.0541299212598425
 30
0.0
  0
SPLINE
  5
44
100
AcDbEntity
  8
P1-Layer 1
 62
   253
100
AcDbSpline
210
0.0
220
0.0
230
1.0
 70
     1
 71
     3
 72
    60
 73
    56
 74
     0
 42
0.0000000001
 43
0.0000000001
 40
0.0
 40
0.0
 40
0.0
 40
0.0
 40
0.0714285714285714
 40
0.0714285714285714
 40
0.0714285714285714
 40
0.0714285714285714
 40
0.1428571428571429
 40
0.1428571428571429
 40
0.1428571428571429
 40
0.1428571428571429
 40
0.2142857142857143
 40
0.2142857142857143
 40
0.2142857142857143
 40
0.2142857142857143
 40
0.2857142857142857
 40
0.2857142857142857
 40
0.2857142857142857
 40
0.2857142857142857
 40
0.3571428571428571
 40
0.3571428571428571
 40
0.3571428571428571
 40
0.3571428571428571
 40
0.4285714285714285
 40
0.4285714285714285
 40
0.4285714285714285
 40
0.4285714285714285
 40
0.4999999999999999
 40
0.4999999999999999
 40
0.4999999999999999
 40
0.4999999999999999
 40
0.5714285714285713
 40
0.5714285714285713
 40
0.5714285714285713
 40
0.5714285714285713
 40
0.6428571428571427
 40
0.6428571428571427
 40
0.6428571428571427
 40
0.6428571428571427
 40
0.7142857142857141
 40
0.7142857142857141
 40
0.7142857142857141
 40
0.7142857142857141
 40
0.7857142857142855
 40
0.7857142857142855
 40
0.7857142857142855
 40
0.7857142857142855
 40
0.8571428571428569
 40
0.8571428571428569
 40
0.8571428571428569
 40
0.8571428571428569
 40
0.9285714285714283
 40
0.9285714285714283
 40
0.9285714285714283
 40
0.9285714285714283
 40
1.0
 40
1.0
 40
1.0
 40
1.0
 10
-0.8667795275590552
 20
0.0778779527559055
 30
0.0
 10
-0.8667795275590552
 20
0.0778779527559055
 30
0.0
 10
-0.2140354330708661
 20
0.4562992125984252
 30
0.0
 10
-0.2140354330708661
 20
0.4562992125984252
 30
0.0
 10
-0.2140354330708661
 20
0.4562992125984252
 30
0.0
 10
-0.2140354330708661
 20
0.4562992125984252
 30
0.0
 10
-0.2221968503937008
 20
0.4588346456692913
 30
0.0
 10
-0.2221968503937008
 20
0.4588346456692913
 30
0.0
 10
-0.2221968503937008
 20
0.4588346456692913
 30
0.0
 10
-0.2221968503937008
 20
0.4588346456692913
 30
0.0
 10
-0.2303700787401575
 20
0.4606811023622047
 30
0.0
 10
-0.2303700787401575
 20
0.4606811023622047
 30
0.0
 10
-0.2303700787401575
 20
0.4606811023622047
 30
0.0
 10
-0.2303700787401575
 20
0.4606811023622047
 30
0.0
 10
-0.2385590551181102
 20
0.4618425196850394
 30
0.0
 10
-0.2385590551181102
 20
0.4618425196850394
 30
0.0
 10
-0.2385590551181102
 20
0.4618425196850394
 30
0.0
 10
-0.2385590551181102
 20
0.4618425196850394
 30
0.0
 10
-0.246736220472441
 20
0.4623425196850394
 30
0.0
 10
-0.246736220472441
 20
0.4623425196850394
 30
0.0
 10
-0.246736220472441
 20
0.4623425196850394
 30
0.0
 10
-0.246736220472441
 20
0.4623425196850394
 30
0.0
 10
-0.2549015748031496
 20
0.4621929133858268
 30
0.0
 10
-0.2549015748031496
 20
0.4621929133858268
 30
0.0
 10
-0.2549015748031496
 20
0.4621929133858268
 30
0.0
 10
-0.2549015748031496
 20
0.4621929133858268
 30
0.0
 10
-0.2630314960629921
 20
0.4614251968503937
 30
0.0
 10
-0.2630314960629921
 20
0.4614251968503937
 30
0.0
 10
-0.2630314960629921
 20
0.4614251968503937
 30
0.0
 10
-0.2630314960629921
 20
0.4614251968503937
 30
0.0
 10
-0.9157755905511812
 20
0.083003937007874
 30
0.0
 10
-0.9157755905511812
 20
0.083003937007874
 30
0.0
 10
-0.9157755905511812
 20
0.083003937007874
 30
0.0
 10
-0.9157755905511812
 20
0.083003937007874
 30
0.0
 10
-0.9076456692913386
 20
0.0837716535433071
 30
0.0
 10
-0.9076456692913386
 20
0.0837716535433071
 30
0.0
 10
-0.9076456692913386
 20
0.0837716535433071
 30
0.0
 10
-0.9076456692913386
 20
0.0837716535433071
 30
0.0
 10
-0.89948031496063
 20
0.0839212598425197
 30
0.0
 10
-0.89948031496063
 20
0.0839212598425197
 30
0.0
 10
-0.89948031496063
 20
0.0839212598425197
 30
0.0
 10
-0.89948031496063
 20
0.0839212598425197
 30
0.0
 10
-0.8913031496062992
 20
0.0834212598425197
 30
0.0
 10
-0.8913031496062992
 20
0.0834212598425197
 30
0.0
 10
-0.8913031496062992
 20
0.0834212598425197
 30
0.0
 10
-0.8913031496062992
 20
0.0834212598425197
 30
0.0
 10
-0.8831141732283465
 20
0.082259842519685
 30
0.0
 10
-0.8831141732283465
 20
0.082259842519685
 30
0.0
 10
-0.8831141732283465
 20
0.082259842519685
 30
0.0
 10
-0.8831141732283465
 20
0.082259842519685
 30
0.0
 10
-0.8749409448818898
 20
0.0804133858267717
 30
0.0
 10
-0.8749409448818898
 20
0.0804133858267717
 30
0.0
 10
-0.8749409448818898
 20
0.0804133858267717
 30
0.0
 10
-0.8749409448818898
 20
0.0804133858267717
 30
0.0
 10
-0.8667795275590552
 20
0.0778779527559055
 30
0.0
 10
-0.8667795275590552
 20
0.0778779527559055
 30
0.0
  0
SPLINE
  5
45
100
AcDbEntity
  8
P1-Layer 1
 62
   109
100
AcDbSpline
210
0.0
220
0.0
230
1.0
 70
     1
 71
     3
 72
    52
 73
    48
 74
     0
 42
0.0000000001
 43
0.0000000001
 40
0.0
 40
0.0
 40
0.0
 40
0.0
 40
0.0833333333333333
 40
0.0833333333333333
 40
0.0833333333333333
 40
0.0833333333333333
 40
0.1666666666666667
 40
0.1666666666666667
 40
0.1666666666666667
 40
0.1666666666666667
 40
0.25
 40
0.25
 40
0.25
 40
0.25
 40
0.3333333333333333
 40
0.3333333333333333
 40
0.3333333333333333
 40
0.3333333333333333
 40
0.4166666666666666
 40
0.4166666666666666
 40
0.4166666666666666
 40
0.4166666666666666
 40
0.4999999999999999
 40
0.4999999999999999
 40
0.4999999999999999
 40
0.4999999999999999
 40
0.5833333333333333
 40
0.5833333333333333
 40
0.5833333333333333
 40
0.5833333333333333
 40
0.6666666666666666
 40
0.6666666666666666
 40
0.6666666666666666
 40
0.6666666666666666
 40
0.75
 40
0.75
 40
0.75
 40
0.75
 40
0.8333333333333334
 40
0.8333333333333334
 40
0.8333333333333334
 40
0.8333333333333334
 40
0.9166666666666667
 40
0.9166666666666667
 40
0.9166666666666667
 40
0.9166666666666667
 40
1.0
 40
1.0
 40
1.0
 40
1.0
 10
-0.9157755905511812
 20
0.083003937007874
 30
0.0
 10
-0.9157755905511812
 20
0.083003937007874
 30
0.0
 10
-0.2630314960629921
 20
0.4614251968503937
 30
0.0
 10
-0.2630314960629921
 20
0.4614251968503937
 30
0.0
 10
-0.2630314960629921
 20
0.4614251968503937
 30
0.0
 10
-0.2630314960629921
 20
0.4614251968503937
 30
0.0
 10
-0.2711259842519685
 20
0.4600393700787402
 30
0.0
 10
-0.2711259842519685
 20
0.4600393700787402
 30
0.0
 10
-0.2711259842519685
 20
0.4600393700787402
 30
0.0
 10
-0.2711259842519685
 20
0.4600393700787402
 30
0.0
 10
-0.2791614173228347
 20
0.4580629921259843
 30
0.0
 10
-0.2791614173228347
 20
0.4580629921259843
 30
0.0
 10
-0.2791614173228347
 20
0.4580629921259843
 30
0.0
 10
-0.2791614173228347
 20
0.4580629921259843
 30
0.0
 10
-0.2871417322834646
 20
0.4555039370078741
 30
0.0
 10
-0.2871417322834646
 20
0.4555039370078741
 30
0.0
 10
-0.2871417322834646
 20
0.4555039370078741
 30
0.0
 10
-0.2871417322834646
 20
0.4555039370078741
 30
0.0
 10
-0.2950393700787402
 20
0.4523937007874016
 30
0.0
 10
-0.2950393700787402
 20
0.4523937007874016
 30
0.0
 10
-0.2950393700787402
 20
0.4523937007874016
 30
0.0
 10
-0.2950393700787402
 20
0.4523937007874016
 30
0.0
 10
-0.3028582677165355
 20
0.4487362204724409
 30
0.0
 10
-0.3028582677165355
 20
0.4487362204724409
 30
0.0
 10
-0.3028582677165355
 20
0.4487362204724409
 30
0.0
 10
-0.3028582677165355
 20
0.4487362204724409
 30
0.0
 10
-0.9556023622047245
 20
0.0703149606299213
 30
0.0
 10
-0.9556023622047245
 20
0.0703149606299213
 30
0.0
 10
-0.9556023622047245
 20
0.0703149606299213
 30
0.0
 10
-0.9556023622047245
 20
0.0703149606299213
 30
0.0
 10
-0.9477834645669292
 20
0.0739724409448819
 30
0.0
 10
-0.9477834645669292
 20
0.0739724409448819
 30
0.0
 10
-0.9477834645669292
 20
0.0739724409448819
 30
0.0
 10
-0.9477834645669292
 20
0.0739724409448819
 30
0.0
 10
-0.9398858267716536
 20
0.0770826771653543
 30
0.0
 10
-0.9398858267716536
 20
0.0770826771653543
 30
0.0
 10
-0.9398858267716536
 20
0.0770826771653543
 30
0.0
 10
-0.9398858267716536
 20
0.0770826771653543
 30
0.0
 10
-0.9319055118110237
 20
0.0796417322834646
 30
0.0
 10
-0.9319055118110237
 20
0.0796417322834646
 30
0.0
 10
-0.9319055118110237
 20
0.0796417322834646
 30
0.0
 10
-0.9319055118110237
 20
0.0796417322834646
 30
0.0
 10
-0.9238700787401575
 20
0.0816181102362205
 30
0.0
 10
-0.9238700787401575
 20
0.0816181102362205
 30
0.0
 10
-0.9238700787401575
 20
0.0816181102362205
 30
0.0
 10
-0.9238700787401575
 20
0.0816181102362205
 30
0.0
 10
-0.9157755905511812
 20
0.083003937007874
 30
0.0
 10
-0.9157755905511812
 20
0.083003937007874
 30
0.0
  0
SPLINE
  5
46
100
AcDbEntity
  8
P1-Layer 1
100
AcDbSpline
210
0.0
220
0.0
230
1.0
 70
     1
 71
     3
 72
    20
 73
    16
 74
     0
 42
0.0000000001
 43
0.0000000001
 40
0.0
 40
0.0
 40
0.0
 40
0.0
 40
0.25
 40
0.25
 40
0.25
 40
0.25
 40
0.5
 40
0.5
 40
0.5
 40
0.5
 40
0.75
 40
0.75
 40
0.75
 40
0.75
 40
1.0
 40
1.0
 40
1.0
 40
1.0
 10
-0.9556023622047245
 20
0.0703149606299213
 30
0.0
 10
-0.9556023622047245
 20
0.0703149606299213
 30
0.0
 10
-0.3028582677165355
 20
0.4487362204724409
 30
0.0
 10
-0.3028582677165355
 20
0.4487362204724409
 30
0.0
 10
-0.3028582677165355
 20
0.4487362204724409
 30
0.0
 10
-0.3028582677165355
 20
0.4487362204724409
 30
0.0
 10
-0.3105748031496063
 20
0.4445551181102362
 30
0.0
 10
-0.3105748031496063
 20
0.4445551181102362
 30
0.0
 10
-0.3105748031496063
 20
0.4445551181102362
 30
0.0
 10
-0.3105748031496063
 20
0.4445551181102362
 30
0.0
 10
-0.9633188976377953
 20
0.0661338582677165
 30
0.0
 10
-0.9633188976377953
 20
0.0661338582677165
 30
0.0
 10
-0.9633188976377953
 20
0.0661338582677165
 30
0.0
 10
-0.9633188976377953
 20
0.0661338582677165
 30
0.0
 10
-0.9556023622047245
 20
0.0703149606299213
 30
0.0
 10
-0.9556023622047245
 20
0.0703149606299213
 30
0.0
  0
SPLINE
  5
47
100
AcDbEntity
  8
P1-Layer 1
370
     5
100
AcDbSpline
210
0.0
220
0.0
230
1.0
 70
     1
 71
     3
 72
   204
 73
   200
 74
     0
 42
0.0000000001
 43
0.0000000001
 40
0.0
 40
0.0
 40
0.0
 40
0.0
 40
0.02
 40
0.02
 40
0.02
 40
0.02
 40
0.04
 40
0.04
 40
0.04
 40
0.04
 40
0.06
 40
0.06
 40
0.06
 40
0.06
 40
0.08
 40
0.08
 40
0.08
 40
0.08
 40
0.1
 40
0.1
 40
0.1
 40
0.1
 40
0.12
 40
0.12
 40
0.12
 40
0.12
 40
0.14
 40
0.14
 40
0.14
 40
0.14
 40
0.16
 40
0.16
 40
0.16
 40
0.16
 40
0.18
 40
0.18
 40
0.18
 40
0.18
 40
0.2
 40
0.2
 40
0.2
 40
0.2
 40
0.22
 40
0.22
 40
0.22
 40
0.22
 40
0.24
 40
0.24
 40
0.24
 40
0.24
 40
0.26
 40
0.26
 40
0.26
 40
0.26
 40
0.28
 40
0.28
 40
0.28
 40
0.28
 40
0.3
 40
0.3
 40
0.3
 40
0.3
 40
0.32
 40
0.32
 40
0.32
 40
0.32
 40
0.34
 40
0.34
 40
0.34
 40
0.34
 40
0.36
 40
0.36
 40
0.36
 40
0.36
 40
0.3800000000000001
 40
0.3800000000000001
 40
0.3800000000000001
 40
0.3800000000000001
 40
0.4000000000000001
 40
0.4000000000000001
 40
0.4000000000000001
 40
0.4000000000000001
 40
0.4200000000000001
 40
0.4200000000000001
 40
0.4200000000000001
 40
0.4200000000000001
 40
0.4400000000000001
 40
0.4400000000000001
 40
0.4400000000000001
 40
0.4400000000000001
 40
0.4600000000000001
 40
0.4600000000000001
 40
0.4600000000000001
 40
0.4600000000000001
 40
0.4800000000000002
 40
0.4800000000000002
 40
0.4800000000000002
 40
0.4800000000000002
 40
0.5000000000000001
 40
0.5000000000000001
 40
0.5000000000000001
 40
0.5000000000000001
 40
0.5200000000000001
 40
0.5200000000000001
 40
0.5200000000000001
 40
0.5200000000000001
 40
0.5400000000000002
 40
0.5400000000000002
 40
0.5400000000000002
 40
0.5400000000000002
 40
0.5600000000000002
 40
0.5600000000000002
 40
0.5600000000000002
 40
0.5600000000000002
 40
0.5800000000000002
 40
0.5800000000000002
 40
0.5800000000000002
 40
0.5800000000000002
 40
0.6000000000000002
 40
0.6000000000000002
 40
0.6000000000000002
 40
0.6000000000000002
 40
0.6200000000000002
 40
0.6200000000000002
 40
0.6200000000000002
 40
0.6200000000000002
 40
0.6400000000000002
 40
0.6400000000000002
 40
0.6400000000000002
 40
0.6400000000000002
 40
0.6600000000000003
 40
0.6600000000000003
 40
0.6600000000000003
 40
0.6600000000000003
 40
0.6800000000000003
 40
0.6800000000000003
 40
0.6800000000000003
 40
0.6800000000000003
 40
0.7000000000000003
 40
0.7000000000000003
 40
0.7000000000000003
 40
0.7000000000000003
 40
0.7200000000000003
 40
0.7200000000000003
 40
0.7200000000000003
 40
0.7200000000000003
 40
0.7400000000000003
 40
0.7400000000000003
 40
0.7400000000000003
 40
0.7400000000000003
 40
0.7600000000000003
 40
0.7600000000000003
 40
0.7600000000000003
 40
0.7600000000000003
 40
0.7800000000000004
 40
0.7800000000000004
 40
0.7800000000000004
 40
0.7800000000000004
 40
0.8000000000000004
 40
0.8000000000000004
 40
0.8000000000000004
 40
0.8000000000000004
 40
0.8200000000000004
 40
0.8200000000000004
 40
0.8200000000000004
 40
0.8200000000000004
 40
0.8400000000000004
 40
0.8400000000000004
 40
0.8400000000000004
 40
0.8400000000000004
 40
0.8600000000000004
 40
0.8600000000000004
 40
0.8600000000000004
 40
0.8600000000000004
 40
0.8800000000000005
 40
0.8800000000000005
 40
0.8800000000000005
 40
0.8800000000000005
 40
0.9000000000000005
 40
0.9000000000000005
 40
0.9000000000000005
 40
0.9000000000000005
 40
0.9200000000000005
 40
0.9200000000000005
 40
0.9200000000000005
 40
0.9200000000000005
 40
0.9400000000000005
 40
0.9400000000000005
 40
0.9400000000000005
 40
0.9400000000000005
 40
0.9600000000000005
 40
0.9600000000000005
 40
0.9600000000000005
 40
0.9600000000000005
 40
0.9800000000000005
 40
0.9800000000000005
 40
0.9800000000000005
 40
0.9800000000000005
 40
1.0
 40
1.0
 40
1.0
 40
1.0
 10
-0.759492125984252
 20
-0.0009488188976378
 30
0.0
 10
-0.759492125984252
 20
-0.0009488188976378
 30
0.0
 10
-0.106748031496063
 20
0.3774724409448819
 30
0.0
 10
-0.106748031496063
 20
0.3774724409448819
 30
0.0
 10
-0.106748031496063
 20
0.3774724409448819
 30
0.0
 10
-0.106748031496063
 20
0.3774724409448819
 30
0.0
 10
-0.1288228346456693
 20
0.3774724409448819
 30
0.0
 10
-0.1288228346456693
 20
0.3774724409448819
 30
0.0
 10
-0.1288228346456693
 20
0.3774724409448819
 30
0.0
 10
-0.1288228346456693
 20
0.3774724409448819
 30
0.0
 10
-0.136007874015748
 20
0.3888149606299213
 30
0.0
 10
-0.136007874015748
 20
0.3888149606299213
 30
0.0
 10
-0.136007874015748
 20
0.3888149606299213
 30
0.0
 10
-0.136007874015748
 20
0.3888149606299213
 30
0.0
 10
-0.1433464566929134
 20
0.3992637795275591
 30
0.0
 10
-0.1433464566929134
 20
0.3992637795275591
 30
0.0
 10
-0.1433464566929134
 20
0.3992637795275591
 30
0.0
 10
-0.1433464566929134
 20
0.3992637795275591
 30
0.0
 10
-0.1508149606299213
 20
0.4088464566929134
 30
0.0
 10
-0.1508149606299213
 20
0.4088464566929134
 30
0.0
 10
-0.1508149606299213
 20
0.4088464566929134
 30
0.0
 10
-0.1508149606299213
 20
0.4088464566929134
 30
0.0
 10
-0.1584133858267717
 20
0.4175748031496063
 30
0.0
 10
-0.1584133858267717
 20
0.4175748031496063
 30
0.0
 10
-0.1584133858267717
 20
0.4175748031496063
 30
0.0
 10
-0.1584133858267717
 20
0.4175748031496063
 30
0.0
 10
-0.1661102362204724
 20
0.4254724409448819
 30
0.0
 10
-0.1661102362204724
 20
0.4254724409448819
 30
0.0
 10
-0.1661102362204724
 20
0.4254724409448819
 30
0.0
 10
-0.1661102362204724
 20
0.4254724409448819
 30
0.0
 10
-0.1739173228346457
 20
0.4325511811023622
 30
0.0
 10
-0.1739173228346457
 20
0.4325511811023622
 30
0.0
 10
-0.1739173228346457
 20
0.4325511811023622
 30
0.0
 10
-0.1739173228346457
 20
0.4325511811023622
 30
0.0
 10
-0.1818110236220473
 20
0.4388346456692914
 30
0.0
 10
-0.1818110236220473
 20
0.4388346456692914
 30
0.0
 10
-0.1818110236220473
 20
0.4388346456692914
 30
0.0
 10
-0.1818110236220473
 20
0.4388346456692914
 30
0.0
 10
-0.1897874015748031
 20
0.4443267716535433
 30
0.0
 10
-0.1897874015748031
 20
0.4443267716535433
 30
0.0
 10
-0.1897874015748031
 20
0.4443267716535433
 30
0.0
 10
-0.1897874015748031
 20
0.4443267716535433
 30
0.0
 10
-0.1978149606299213
 20
0.4490629921259843
 30
0.0
 10
-0.1978149606299213
 20
0.4490629921259843
 30
0.0
 10
-0.1978149606299213
 20
0.4490629921259843
 30
0.0
 10
-0.1978149606299213
 20
0.4490629921259843
 30
0.0
 10
-0.2059055118110236
 20
0.4530472440944882
 30
0.0
 10
-0.2059055118110236
 20
0.4530472440944882
 30
0.0
 10
-0.2059055118110236
 20
0.4530472440944882
 30
0.0
 10
-0.2059055118110236
 20
0.4530472440944882
 30
0.0
 10
-0.2140354330708661
 20
0.4562992125984252
 30
0.0
 10
-0.2140354330708661
 20
0.4562992125984252
 30
0.0
 10
-0.2140354330708661
 20
0.4562992125984252
 30
0.0
 10
-0.2140354330708661
 20
0.4562992125984252
 30
0.0
 10
-0.2221968503937008
 20
0.4588346456692913
 30
0.0
 10
-0.2221968503937008
 20
0.4588346456692913
 30
0.0
 10
-0.2221968503937008
 20
0.4588346456692913
 30
0.0
 10
-0.2221968503937008
 20
0.4588346456692913
 30
0.0
 10
-0.2303700787401575
 20
0.4606811023622047
 30
0.0
 10
-0.2303700787401575
 20
0.4606811023622047
 30
0.0
 10
-0.2303700787401575
 20
0.4606811023622047
 30
0.0
 10
-0.2303700787401575
 20
0.4606811023622047
 30
0.0
 10
-0.2385590551181102
 20
0.4618425196850394
 30
0.0
 10
-0.2385590551181102
 20
0.4618425196850394
 30
0.0
 10
-0.2385590551181102
 20
0.4618425196850394
 30
0.0
 10
-0.2385590551181102
 20
0.4618425196850394
 30
0.0
 10
-0.246736220472441
 20
0.4623425196850394
 30
0.0
 10
-0.246736220472441
 20
0.4623425196850394
 30
0.0
 10
-0.246736220472441
 20
0.4623425196850394
 30
0.0
 10
-0.246736220472441
 20
0.4623425196850394
 30
0.0
 10
-0.2549015748031496
 20
0.4621929133858268
 30
0.0
 10
-0.2549015748031496
 20
0.4621929133858268
 30
0.0
 10
-0.2549015748031496
 20
0.4621929133858268
 30
0.0
 10
-0.2549015748031496
 20
0.4621929133858268
 30
0.0
 10
-0.2630314960629921
 20
0.4614251968503937
 30
0.0
 10
-0.2630314960629921
 20
0.4614251968503937
 30
0.0
 10
-0.2630314960629921
 20
0.4614251968503937
 30
0.0
 10
-0.2630314960629921
 20
0.4614251968503937
 30
0.0
 10
-0.2711259842519685
 20
0.4600393700787402
 30
0.0
 10
-0.2711259842519685
 20
0.4600393700787402
 30
0.0
 10
-0.2711259842519685
 20
0.4600393700787402
 30
0.0
 10
-0.2711259842519685
 20
0.4600393700787402
 30
0.0
 10
-0.2791614173228347
 20
0.4580629921259843
 30
0.0
 10
-0.2791614173228347
 20
0.4580629921259843
 30
0.0
 10
-0.2791614173228347
 20
0.4580629921259843
 30
0.0
 10
-0.2791614173228347
 20
0.4580629921259843
 30
0.0
 10
-0.2871417322834646
 20
0.4555039370078741
 30
0.0
 10
-0.2871417322834646
 20
0.4555039370078741
 30
0.0
 10
-0.2871417322834646
 20
0.4555039370078741
 30
0.0
 10
-0.2871417322834646
 20
0.4555039370078741
 30
0.0
 10
-0.2950393700787402
 20
0.4523937007874016
 30
0.0
 10
-0.2950393700787402
 20
0.4523937007874016
 30
0.0
 10
-0.2950393700787402
 20
0.4523937007874016
 30
0.0
 10
-0.2950393700787402
 20
0.4523937007874016
 30
0.0
 10
-0.3028582677165355
 20
0.4487362204724409
 30
0.0
 10
-0.3028582677165355
 20
0.4487362204724409
 30
0.0
 10
-0.3028582677165355
 20
0.4487362204724409
 30
0.0
 10
-0.3028582677165355
 20
0.4487362204724409
 30
0.0
 10
-0.3105748031496063
 20
0.4445551181102362
 30
0.0
 10
-0.3105748031496063
 20
0.4445551181102362
 30
0.0
 10
-0.3105748031496063
 20
0.4445551181102362
 30
0.0
 10
-0.3105748031496063
 20
0.4445551181102362
 30
0.0
 10
-0.9633188976377953
 20
0.0661338582677165
 30
0.0
 10
-0.9633188976377953
 20
0.0661338582677165
 30
0.0
 10
-0.9633188976377953
 20
0.0661338582677165
 30
0.0
 10
-0.9633188976377953
 20
0.0661338582677165
 30
0.0
 10
-0.9556023622047245
 20
0.0703149606299213
 30
0.0
 10
-0.9556023622047245
 20
0.0703149606299213
 30
0.0
 10
-0.9556023622047245
 20
0.0703149606299213
 30
0.0
 10
-0.9556023622047245
 20
0.0703149606299213
 30
0.0
 10
-0.9477834645669292
 20
0.0739724409448819
 30
0.0
 10
-0.9477834645669292
 20
0.0739724409448819
 30
0.0
 10
-0.9477834645669292
 20
0.0739724409448819
 30
0.0
 10
-0.9477834645669292
 20
0.0739724409448819
 30
0.0
 10
-0.9398858267716536
 20
0.0770826771653543
 30
0.0
 10
-0.9398858267716536
 20
0.0770826771653543
 30
0.0
 10
-0.9398858267716536
 20
0.0770826771653543
 30
0.0
 10
-0.9398858267716536
 20
0.0770826771653543
 30
0.0
 10
-0.9319055118110237
 20
0.0796417322834646
 30
0.0
 10
-0.9319055118110237
 20
0.0796417322834646
 30
0.0
 10
-0.9319055118110237
 20
0.0796417322834646
 30
0.0
 10
-0.9319055118110237
 20
0.0796417322834646
 30
0.0
 10
-0.9238700787401575
 20
0.0816181102362205
 30
0.0
 10
-0.9238700787401575
 20
0.0816181102362205
 30
0.0
 10
-0.9238700787401575
 20
0.0816181102362205
 30
0.0
 10
-0.9238700787401575
 20
0.0816181102362205
 30
0.0
 10
-0.9157755905511812
 20
0.083003937007874
 30
0.0
 10
-0.9157755905511812
 20
0.083003937007874
 30
0.0
 10
-0.9157755905511812
 20
0.083003937007874
 30
0.0
 10
-0.9157755905511812
 20
0.083003937007874
 30
0.0
 10
-0.9076456692913386
 20
0.0837716535433071
 30
0.0
 10
-0.9076456692913386
 20
0.0837716535433071
 30
0.0
 10
-0.9076456692913386
 20
0.0837716535433071
 30
0.0
 10
-0.9076456692913386
 20
0.0837716535433071
 30
0.0
 10
-0.89948031496063
 20
0.0839212598425197
 30
0.0
 10
-0.89948031496063
 20
0.0839212598425197
 30
0.0
 10
-0.89948031496063
 20
0.0839212598425197
 30
0.0
 10
-0.89948031496063
 20
0.0839212598425197
 30
0.0
 10
-0.8913031496062992
 20
0.0834212598425197
 30
0.0
 10
-0.8913031496062992
 20
0.0834212598425197
 30
0.0
 10
-0.8913031496062992
 20
0.0834212598425197
 30
0.0
 10
-0.8913031496062992
 20
0.0834212598425197
 30
0.0
 10
-0.8831141732283465
 20
0.082259842519685
 30
0.0
 10
-0.8831141732283465
 20
0.082259842519685
 30
0.0
 10
-0.8831141732283465
 20
0.082259842519685
 30
0.0
 10
-0.8831141732283465
 20
0.082259842519685
 30
0.0
 10
-0.8749409448818898
 20
0.0804133858267717
 30
0.0
 10
-0.8749409448818898
 20
0.0804133858267717
 30
0.0
 10
-0.8749409448818898
 20
0.0804133858267717
 30
0.0
 10
-0.8749409448818898
 20
0.0804133858267717
 30
0.0
 10
-0.8667795275590552
 20
0.0778779527559055
 30
0.0
 10
-0.8667795275590552
 20
0.0778779527559055
 30
0.0
 10
-0.8667795275590552
 20
0.0778779527559055
 30
0.0
 10
-0.8667795275590552
 20
0.0778779527559055
 30
0.0
 10
-0.8586496062992126
 20
0.0746259842519685
 30
0.0
 10
-0.8586496062992126
 20
0.0746259842519685
 30
0.0
 10
-0.8586496062992126
 20
0.0746259842519685
 30
0.0
 10
-0.8586496062992126
 20
0.0746259842519685
 30
0.0
 10
-0.8505590551181103
 20
0.0706417322834646
 30
0.0
 10
-0.8505590551181103
 20
0.0706417322834646
 30
0.0
 10
-0.8505590551181103
 20
0.0706417322834646
 30
0.0
 10
-0.8505590551181103
 20
0.0706417322834646
 30
0.0
 10
-0.8425314960629922
 20
0.0659055118110236
 30
0.0
 10
-0.8425314960629922
 20
0.0659055118110236
 30
0.0
 10
-0.8425314960629922
 20
0.0659055118110236
 30
0.0
 10
-0.8425314960629922
 20
0.0659055118110236
 30
0.0
 10
-0.8345551181102363
 20
0.0604133858267717
 30
0.0
 10
-0.8345551181102363
 20
0.0604133858267717
 30
0.0
 10
-0.8345551181102363
 20
0.0604133858267717
 30
0.0
 10
-0.8345551181102363
 20
0.0604133858267717
 30
0.0
 10
-0.8266614173228347
 20
0.0541299212598425
 30
0.0
 10
-0.8266614173228347
 20
0.0541299212598425
 30
0.0
 10
-0.8266614173228347
 20
0.0541299212598425
 30
0.0
 10
-0.8266614173228347
 20
0.0541299212598425
 30
0.0
 10
-0.8188543307086614
 20
0.0470511811023622
 30
0.0
 10
-0.8188543307086614
 20
0.0470511811023622
 30
0.0
 10
-0.8188543307086614
 20
0.0470511811023622
 30
0.0
 10
-0.8188543307086614
 20
0.0470511811023622
 30
0.0
 10
-0.8111574803149607
 20
0.0391535433070866
 30
0.0
 10
-0.8111574803149607
 20
0.0391535433070866
 30
0.0
 10
-0.8111574803149607
 20
0.0391535433070866
 30
0.0
 10
-0.8111574803149607
 20
0.0391535433070866
 30
0.0
 10
-0.8035590551181103
 20
0.0304251968503937
 30
0.0
 10
-0.8035590551181103
 20
0.0304251968503937
 30
0.0
 10
-0.8035590551181103
 20
0.0304251968503937
 30
0.0
 10
-0.8035590551181103
 20
0.0304251968503937
 30
0.0
 10
-0.7960905511811024
 20
0.0208425196850394
 30
0.0
 10
-0.7960905511811024
 20
0.0208425196850394
 30
0.0
 10
-0.7960905511811024
 20
0.0208425196850394
 30
0.0
 10
-0.7960905511811024
 20
0.0208425196850394
 30
0.0
 10
-0.788751968503937
 20
0.0103937007874016
 30
0.0
 10
-0.788751968503937
 20
0.0103937007874016
 30
0.0
 10
-0.788751968503937
 20
0.0103937007874016
 30
0.0
 10
-0.788751968503937
 20
0.0103937007874016
 30
0.0
 10
-0.7815669291338583
 20
-0.0009488188976378
 30
0.0
 10
-0.7815669291338583
 20
-0.0009488188976378
 30
0.0
 10
-0.7815669291338583
 20
-0.0009488188976378
 30
0.0
 10
-0.7815669291338583
 20
-0.0009488188976378
 30
0.0
 10
-0.759492125984252
 20
-0.0009488188976378
 30
0.0
 10
-0.759492125984252
 20
-0.0009488188976378
 30
0.0
  0
SPLINE
  5
48
100
AcDbEntity
  8
P1-Layer 1
 62
   252
100
AcDbSpline
210
0.0
220
0.0
230
1.0
 70
     1
 71
     3
 72
    20
 73
    16
 74
     0
 42
0.0000000001
 43
0.0000000001
 40
0.0
 40
0.0
 40
0.0
 40
0.0
 40
0.25
 40
0.25
 40
0.25
 40
0.25
 40
0.5
 40
0.5
 40
0.5
 40
0.5
 40
0.75
 40
0.75
 40
0.75
 40
0.75
 40
1.0
 40
1.0
 40
1.0
 40
1.0
 10
0.333748031496063
 20
0.0916062992125984
 30
0.0
 10
0.333748031496063
 20
0.0916062992125984
 30
0.0
 10
0.986492125984252
 20
0.4700275590551181
 30
0.0
 10
0.986492125984252
 20
0.4700275590551181
 30
0.0
 10
0.986492125984252
 20
0.4700275590551181
 30
0.0
 10
0.986492125984252
 20
0.4700275590551181
 30
0.0
 10
-0.0957283464566929
 20
0.4700275590551181
 30
0.0
 10
-0.0957283464566929
 20
0.4700275590551181
 30
0.0
 10
-0.0957283464566929
 20
0.4700275590551181
 30
0.0
 10
-0.0957283464566929
 20
0.4700275590551181
 30
0.0
 10
-0.748472440944882
 20
0.0916062992125984
 30
0.0
 10
-0.748472440944882
 20
0.0916062992125984
 30
0.0
 10
-0.748472440944882
 20
0.0916062992125984
 30
0.0
 10
-0.748472440944882
 20
0.0916062992125984
 30
0.0
 10
0.333748031496063
 20
0.0916062992125984
 30
0.0
 10
0.333748031496063
 20
0.0916062992125984
 30
0.0
  0
SPLINE
  5
49
100
AcDbEntity
  8
P1-Layer 1
370
     5
100
AcDbSpline
210
0.0
220
0.0
230
1.0
 70
     1
 71
     3
 72
    20
 73
    16
 74
     0
 42
0.0000000001
 43
0.0000000001
 40
0.0
 40
0.0
 40
0.0
 40
0.0
 40
0.25
 40
0.25
 40
0.25
 40
0.25
 40
0.5
 40
0.5
 40
0.5
 40
0.5
 40
0.75
 40
0.75
 40
0.75
 40
0.75
 40
1.0
 40
1.0
 40
1.0
 40
1.0
 10
0.333748031496063
 20
0.0916062992125984
 30
0.0
 10
0.333748031496063
 20
0.0916062992125984
 30
0.0
 10
0.986492125984252
 20
0.4700275590551181
 30
0.0
 10
0.986492125984252
 20
0.4700275590551181
 30
0.0
 10
0.986492125984252
 20
0.4700275590551181
 30
0.0
 10
0.986492125984252
 20
0.4700275590551181
 30
0.0
 10
-0.0957283464566929
 20
0.4700275590551181
 30
0.0
 10
-0.0957283464566929
 20
0.4700275590551181
 30
0.0
 10
-0.0957283464566929
 20
0.4700275590551181
 30
0.0
 10
-0.0957283464566929
 20
0.4700275590551181
 30
0.0
 10
-0.748472440944882
 20
0.0916062992125984
 30
0.0
 10
-0.748472440944882
 20
0.0916062992125984
 30
0.0
 10
-0.748472440944882
 20
0.0916062992125984
 30
0.0
 10
-0.748472440944882
 20
0.0916062992125984
 30
0.0
 10
0.333748031496063
 20
0.0916062992125984
 30
0.0
 10
0.333748031496063
 20
0.0916062992125984
 30
0.0
  0
SPLINE
  5
4A
100
AcDbEntity
  8
P1-Layer 1
 62
     9
100
AcDbSpline
210
0.0
220
0.0
230
1.0
 70
     1
 71
     3
 72
    20
 73
    16
 74
     0
 42
0.0000000001
 43
0.0000000001
 40
0.0
 40
0.0
 40
0.0
 40
0.0
 40
0.25
 40
0.25
 40
0.25
 40
0.25
 40
0.5
 40
0.5
 40
0.5
 40
0.5
 40
0.75
 40
0.75
 40
0.75
 40
0.75
 40
1.0
 40
1.0
 40
1.0
 40
1.0
 10
0.7926377952755905
 20
-0.1552755905511811
 30
0.0
 10
0.7926377952755905
 20
-0.1552755905511811
 30
0.0
 10
1.4453818897637796
 20
0.2231456692913386
 30
0.0
 10
1.4453818897637796
 20
0.2231456692913386
 30
0.0
 10
1.4453818897637796
 20
0.2231456692913386
 30
0.0
 10
1.4453818897637796
 20
0.2231456692913386
 30
0.0
 10
1.4453818897637796
 20
0.3084645669291339
 30
0.0
 10
1.4453818897637796
 20
0.3084645669291339
 30
0.0
 10
1.4453818897637796
 20
0.3084645669291339
 30
0.0
 10
1.4453818897637796
 20
0.3084645669291339
 30
0.0
 10
0.7926377952755905
 20
-0.0699566929133858
 30
0.0
 10
0.7926377952755905
 20
-0.0699566929133858
 30
0.0
 10
0.7926377952755905
 20
-0.0699566929133858
 30
0.0
 10
0.7926377952755905
 20
-0.0699566929133858
 30
0.0
 10
0.7926377952755905
 20
-0.1552755905511811
 30
0.0
 10
0.7926377952755905
 20
-0.1552755905511811
 30
0.0
  0
SPLINE
  5
4B
100
AcDbEntity
  8
P1-Layer 1
370
     5
100
AcDbSpline
210
0.0
220
0.0
230
1.0
 70
     1
 71
     3
 72
    20
 73
    16
 74
     0
 42
0.0000000001
 43
0.0000000001
 40
0.0
 40
0.0
 40
0.0
 40
0.0
 40
0.25
 40
0.25
 40
0.25
 40
0.25
 40
0.5
 40
0.5
 40
0.5
 40
0.5
 40
0.75
 40
0.75
 40
0.75
 40
0.75
 40
1.0
 40
1.0
 40
1.0
 40
1.0
 10
0.7926377952755905
 20
-0.1552755905511811
 30
0.0
 10
0.7926377952755905
 20
-0.1552755905511811
 30
0.0
 10
1.4453818897637796
 20
0.2231456692913386
 30
0.0
 10
1.4453818897637796
 20
0.2231456692913386
 30
0.0
 10
1.4453818897637796
 20
0.2231456692913386
 30
0.0
 10
1.4453818897637796
 20
0.2231456692913386
 30
0.0
 10
1.4453818897637796
 20
0.3084645669291339
 30
0.0
 10
1.4453818897637796
 20
0.3084645669291339
 30
0.0
 10
1.4453818897637796
 20
0.3084645669291339
 30
0.0
 10
1.4453818897637796
 20
0.3084645669291339
 30
0.0
 10
0.7926377952755905
 20
-0.0699566929133858
 30
0.0
 10
0.7926377952755905
 20
-0.0699566929133858
 30
0.0
 10
0.7926377952755905
 20
-0.0699566929133858
 30
0.0
 10
0.7926377952755905
 20
-0.0699566929133858
 30
0.0
 10
0.7926377952755905
 20
-0.1552755905511811
 30
0.0
 10
0.7926377952755905
 20
-0.1552755905511811
 30
0.0
  0
SPLINE
  5
4C
100
AcDbEntity
  8
P1-Layer 1
 62
   252
100
AcDbSpline
210
0.0
220
0.0
230
1.0
 70
     1
 71
     3
 72
    20
 73
    16
 74
     0
 42
0.0000000001
 43
0.0000000001
 40
0.0
 40
0.0
 40
0.0
 40
0.0
 40
0.25
 40
0.25
 40
0.25
 40
0.25
 40
0.5
 40
0.5
 40
0.5
 40
0.5
 40
0.75
 40
0.75
 40
0.75
 40
0.75
 40
1.0
 40
1.0
 40
1.0
 40
1.0
 10
0.3668425196850394
 20
-0.0009488188976378
 30
0.0
 10
0.3668425196850394
 20
-0.0009488188976378
 30
0.0
 10
1.0195866141732284
 20
0.3774724409448819
 30
0.0
 10
1.0195866141732284
 20
0.3774724409448819
 30
0.0
 10
1.0195866141732284
 20
0.3774724409448819
 30
0.0
 10
1.0195866141732284
 20
0.3774724409448819
 30
0.0
 10
0.9975118110236221
 20
0.3774724409448819
 30
0.0
 10
0.9975118110236221
 20
0.3774724409448819
 30
0.0
 10
0.9975118110236221
 20
0.3774724409448819
 30
0.0
 10
0.9975118110236221
 20
0.3774724409448819
 30
0.0
 10
0.3447677165354331
 20
-0.0009488188976378
 30
0.0
 10
0.3447677165354331
 20
-0.0009488188976378
 30
0.0
 10
0.3447677165354331
 20
-0.0009488188976378
 30
0.0
 10
0.3447677165354331
 20
-0.0009488188976378
 30
0.0
 10
0.3668425196850394
 20
-0.0009488188976378
 30
0.0
 10
0.3668425196850394
 20
-0.0009488188976378
 30
0.0
  0
SPLINE
  5
4D
100
AcDbEntity
  8
P1-Layer 1
370
     5
100
AcDbSpline
210
0.0
220
0.0
230
1.0
 70
     1
 71
     3
 72
    20
 73
    16
 74
     0
 42
0.0000000001
 43
0.0000000001
 40
0.0
 40
0.0
 40
0.0
 40
0.0
 40
0.25
 40
0.25
 40
0.25
 40
0.25
 40
0.5
 40
0.5
 40
0.5
 40
0.5
 40
0.75
 40
0.75
 40
0.75
 40
0.75
 40
1.0
 40
1.0
 40
1.0
 40
1.0
 10
0.3668425196850394
 20
-0.0009488188976378
 30
0.0
 10
0.3668425196850394
 20
-0.0009488188976378
 30
0.0
 10
1.0195866141732284
 20
0.3774724409448819
 30
0.0
 10
1.0195866141732284
 20
0.3774724409448819
 30
0.0
 10
1.0195866141732284
 20
0.3774724409448819
 30
0.0
 10
1.0195866141732284
 20
0.3774724409448819
 30
0.0
 10
0.9975118110236221
 20
0.3774724409448819
 30
0.0
 10
0.9975118110236221
 20
0.3774724409448819
 30
0.0
 10
0.9975118110236221
 20
0.3774724409448819
 30
0.0
 10
0.9975118110236221
 20
0.3774724409448819
 30
0.0
 10
0.3447677165354331
 20
-0.0009488188976378
 30
0.0
 10
0.3447677165354331
 20
-0.0009488188976378
 30
0.0
 10
0.3447677165354331
 20
-0.0009488188976378
 30
0.0
 10
0.3447677165354331
 20
-0.0009488188976378
 30
0.0
 10
0.3668425196850394
 20
-0.0009488188976378
 30
0.0
 10
0.3668425196850394
 20
-0.0009488188976378
 30
0.0
  0
SPLINE
  5
4E
100
AcDbEntity
  8
P1-Layer 1
 62
     9
100
AcDbSpline
210
0.0
220
0.0
230
1.0
 70
     1
 71
     3
 72
    20
 73
    16
 74
     0
 42
0.0000000001
 43
0.0000000001
 40
0.0
 40
0.0
 40
0.0
 40
0.0
 40
0.25
 40
0.25
 40
0.25
 40
0.25
 40
0.5
 40
0.5
 40
0.5
 40
0.5
 40
0.75
 40
0.75
 40
0.75
 40
0.75
 40
1.0
 40
1.0
 40
1.0
 40
1.0
 10
0.3447677165354331
 20
-0.0009488188976378
 30
0.0
 10
0.3447677165354331
 20
-0.0009488188976378
 30
0.0
 10
0.9975118110236221
 20
0.3774724409448819
 30
0.0
 10
0.9975118110236221
 20
0.3774724409448819
 30
0.0
 10
0.9975118110236221
 20
0.3774724409448819
 30
0.0
 10
0.9975118110236221
 20
0.3774724409448819
 30
0.0
 10
0.986492125984252
 20
0.4700275590551181
 30
0.0
 10
0.986492125984252
 20
0.4700275590551181
 30
0.0
 10
0.986492125984252
 20
0.4700275590551181
 30
0.0
 10
0.986492125984252
 20
0.4700275590551181
 30
0.0
 10
0.333748031496063
 20
0.0916062992125984
 30
0.0
 10
0.333748031496063
 20
0.0916062992125984
 30
0.0
 10
0.333748031496063
 20
0.0916062992125984
 30
0.0
 10
0.333748031496063
 20
0.0916062992125984
 30
0.0
 10
0.3447677165354331
 20
-0.0009488188976378
 30
0.0
 10
0.3447677165354331
 20
-0.0009488188976378
 30
0.0
  0
SPLINE
  5
4F
100
AcDbEntity
  8
P1-Layer 1
370
     5
100
AcDbSpline
210
0.0
220
0.0
230
1.0
 70
     1
 71
     3
 72
    20
 73
    16
 74
     0
 42
0.0000000001
 43
0.0000000001
 40
0.0
 40
0.0
 40
0.0
 40
0.0
 40
0.25
 40
0.25
 40
0.25
 40
0.25
 40
0.5
 40
0.5
 40
0.5
 40
0.5
 40
0.75
 40
0.75
 40
0.75
 40
0.75
 40
1.0
 40
1.0
 40
1.0
 40
1.0
 10
0.3447677165354331
 20
-0.0009488188976378
 30
0.0
 10
0.3447677165354331
 20
-0.0009488188976378
 30
0.0
 10
0.9975118110236221
 20
0.3774724409448819
 30
0.0
 10
0.9975118110236221
 20
0.3774724409448819
 30
0.0
 10
0.9975118110236221
 20
0.3774724409448819
 30
0.0
 10
0.9975118110236221
 20
0.3774724409448819
 30
0.0
 10
0.986492125984252
 20
0.4700275590551181
 30
0.0
 10
0.986492125984252
 20
0.4700275590551181
 30
0.0
 10
0.986492125984252
 20
0.4700275590551181
 30
0.0
 10
0.986492125984252
 20
0.4700275590551181
 30
0.0
 10
0.333748031496063
 20
0.0916062992125984
 30
0.0
 10
0.333748031496063
 20
0.0916062992125984
 30
0.0
 10
0.333748031496063
 20
0.0916062992125984
 30
0.0
 10
0.333748031496063
 20
0.0916062992125984
 30
0.0
 10
0.3447677165354331
 20
-0.0009488188976378
 30
0.0
 10
0.3447677165354331
 20
-0.0009488188976378
 30
0.0
  0
SPLINE
  5
50
100
AcDbEntity
  8
P1-Layer 1
 62
   252
100
AcDbSpline
210
0.0
220
0.0
230
1.0
 70
     1
 71
     3
 72
   116
 73
   112
 74
     0
 42
0.0000000001
 43
0.0000000001
 40
0.0
 40
0.0
 40
0.0
 40
0.0
 40
0.0357142857142857
 40
0.0357142857142857
 40
0.0357142857142857
 40
0.0357142857142857
 40
0.0714285714285714
 40
0.0714285714285714
 40
0.0714285714285714
 40
0.0714285714285714
 40
0.1071428571428571
 40
0.1071428571428571
 40
0.1071428571428571
 40
0.1071428571428571
 40
0.1428571428571429
 40
0.1428571428571429
 40
0.1428571428571429
 40
0.1428571428571429
 40
0.1785714285714286
 40
0.1785714285714286
 40
0.1785714285714286
 40
0.1785714285714286
 40
0.2142857142857143
 40
0.2142857142857143
 40
0.2142857142857143
 40
0.2142857142857143
 40
0.2499999999999999
 40
0.2499999999999999
 40
0.2499999999999999
 40
0.2499999999999999
 40
0.2857142857142856
 40
0.2857142857142856
 40
0.2857142857142856
 40
0.2857142857142856
 40
0.3214285714285713
 40
0.3214285714285713
 40
0.3214285714285713
 40
0.3214285714285713
 40
0.357142857142857
 40
0.357142857142857
 40
0.357142857142857
 40
0.357142857142857
 40
0.3928571428571427
 40
0.3928571428571427
 40
0.3928571428571427
 40
0.3928571428571427
 40
0.4285714285714284
 40
0.4285714285714284
 40
0.4285714285714284
 40
0.4285714285714284
 40
0.4642857142857141
 40
0.4642857142857141
 40
0.4642857142857141
 40
0.4642857142857141
 40
0.4999999999999998
 40
0.4999999999999998
 40
0.4999999999999998
 40
0.4999999999999998
 40
0.5357142857142856
 40
0.5357142857142856
 40
0.5357142857142856
 40
0.5357142857142856
 40
0.5714285714285713
 40
0.5714285714285713
 40
0.5714285714285713
 40
0.5714285714285713
 40
0.607142857142857
 40
0.607142857142857
 40
0.607142857142857
 40
0.607142857142857
 40
0.6428571428571427
 40
0.6428571428571427
 40
0.6428571428571427
 40
0.6428571428571427
 40
0.6785714285714284
 40
0.6785714285714284
 40
0.6785714285714284
 40
0.6785714285714284
 40
0.7142857142857141
 40
0.7142857142857141
 40
0.7142857142857141
 40
0.7142857142857141
 40
0.7499999999999998
 40
0.7499999999999998
 40
0.7499999999999998
 40
0.7499999999999998
 40
0.7857142857142855
 40
0.7857142857142855
 40
0.7857142857142855
 40
0.7857142857142855
 40
0.8214285714285712
 40
0.8214285714285712
 40
0.8214285714285712
 40
0.8214285714285712
 40
0.8571428571428569
 40
0.8571428571428569
 40
0.8571428571428569
 40
0.8571428571428569
 40
0.8928571428571426
 40
0.8928571428571426
 40
0.8928571428571426
 40
0.8928571428571426
 40
0.9285714285714283
 40
0.9285714285714283
 40
0.9285714285714283
 40
0.9285714285714283
 40
0.964285714285714
 40
0.964285714285714
 40
0.964285714285714
 40
0.964285714285714
 40
1.0
 40
1.0
 40
1.0
 40
1.0
 10
0.7926377952755905
 20
-0.0699566929133858
 30
0.0
 10
0.7926377952755905
 20
-0.0699566929133858
 30
0.0
 10
1.4453818897637796
 20
0.3084645669291339
 30
0.0
 10
1.4453818897637796
 20
0.3084645669291339
 30
0.0
 10
1.4453818897637796
 20
0.3084645669291339
 30
0.0
 10
1.4453818897637796
 20
0.3084645669291339
 30
0.0
 10
1.4450472440944881
 20
0.3084409448818898
 30
0.0
 10
1.4450472440944881
 20
0.3084409448818898
 30
0.0
 10
1.4450472440944881
 20
0.3084409448818898
 30
0.0
 10
1.4450472440944881
 20
0.3084409448818898
 30
0.0
 10
1.4440748031496065
 20
0.3083622047244095
 30
0.0
 10
1.4440748031496065
 20
0.3083622047244095
 30
0.0
 10
1.4440748031496065
 20
0.3083622047244095
 30
0.0
 10
1.4440748031496065
 20
0.3083622047244095
 30
0.0
 10
1.4424842519685039
 20
0.3082677165354331
 30
0.0
 10
1.4424842519685039
 20
0.3082677165354331
 30
0.0
 10
1.4424842519685039
 20
0.3082677165354331
 30
0.0
 10
1.4424842519685039
 20
0.3082677165354331
 30
0.0
 10
1.4403149606299213
 20
0.3081653543307087
 30
0.0
 10
1.4403149606299213
 20
0.3081653543307087
 30
0.0
 10
1.4403149606299213
 20
0.3081653543307087
 30
0.0
 10
1.4403149606299213
 20
0.3081653543307087
 30
0.0
 10
1.4375866141732283
 20
0.3080826771653544
 30
0.0
 10
1.4375866141732283
 20
0.3080826771653544
 30
0.0
 10
1.4375866141732283
 20
0.3080826771653544
 30
0.0
 10
1.4375866141732283
 20
0.3080826771653544
 30
0.0
 10
1.4343425196850395
 20
0.3080314960629921
 30
0.0
 10
1.4343425196850395
 20
0.3080314960629921
 30
0.0
 10
1.4343425196850395
 20
0.3080314960629921
 30
0.0
 10
1.4343425196850395
 20
0.3080314960629921
 30
0.0
 10
1.4306023622047244
 20
0.3080433070866142
 30
0.0
 10
1.4306023622047244
 20
0.3080433070866142
 30
0.0
 10
1.4306023622047244
 20
0.3080433070866142
 30
0.0
 10
1.4306023622047244
 20
0.3080433070866142
 30
0.0
 10
1.4264055118110237
 20
0.3081220472440945
 30
0.0
 10
1.4264055118110237
 20
0.3081220472440945
 30
0.0
 10
1.4264055118110237
 20
0.3081220472440945
 30
0.0
 10
1.4264055118110237
 20
0.3081220472440945
 30
0.0
 10
1.4217637795275591
 20
0.3083070866141732
 30
0.0
 10
1.4217637795275591
 20
0.3083070866141732
 30
0.0
 10
1.4217637795275591
 20
0.3083070866141732
 30
0.0
 10
1.4217637795275591
 20
0.3083070866141732
 30
0.0
 10
1.4167244094488189
 20
0.3086062992125984
 30
0.0
 10
1.4167244094488189
 20
0.3086062992125984
 30
0.0
 10
1.4167244094488189
 20
0.3086062992125984
 30
0.0
 10
1.4167244094488189
 20
0.3086062992125984
 30
0.0
 10
1.4113070866141733
 20
0.3090472440944882
 30
0.0
 10
1.4113070866141733
 20
0.3090472440944882
 30
0.0
 10
1.4113070866141733
 20
0.3090472440944882
 30
0.0
 10
1.4113070866141733
 20
0.3090472440944882
 30
0.0
 10
1.4055551181102364
 20
0.3096377952755905
 30
0.0
 10
1.4055551181102364
 20
0.3096377952755905
 30
0.0
 10
1.4055551181102364
 20
0.3096377952755905
 30
0.0
 10
1.4055551181102364
 20
0.3096377952755905
 30
0.0
 10
1.399484251968504
 20
0.3104173228346457
 30
0.0
 10
1.399484251968504
 20
0.3104173228346457
 30
0.0
 10
1.399484251968504
 20
0.3104173228346457
 30
0.0
 10
1.399484251968504
 20
0.3104173228346457
 30
0.0
 10
0.746740157480315
 20
-0.068003937007874
 30
0.0
 10
0.746740157480315
 20
-0.068003937007874
 30
0.0
 10
0.746740157480315
 20
-0.068003937007874
 30
0.0
 10
0.746740157480315
 20
-0.068003937007874
 30
0.0
 10
0.7528110236220473
 20
-0.0687834645669291
 30
0.0
 10
0.7528110236220473
 20
-0.0687834645669291
 30
0.0
 10
0.7528110236220473
 20
-0.0687834645669291
 30
0.0
 10
0.7528110236220473
 20
-0.0687834645669291
 30
0.0
 10
0.7585629921259843
 20
-0.0693740157480315
 30
0.0
 10
0.7585629921259843
 20
-0.0693740157480315
 30
0.0
 10
0.7585629921259843
 20
-0.0693740157480315
 30
0.0
 10
0.7585629921259843
 20
-0.0693740157480315
 30
0.0
 10
0.7639803149606299
 20
-0.0698149606299213
 30
0.0
 10
0.7639803149606299
 20
-0.0698149606299213
 30
0.0
 10
0.7639803149606299
 20
-0.0698149606299213
 30
0.0
 10
0.7639803149606299
 20
-0.0698149606299213
 30
0.0
 10
0.7690196850393701
 20
-0.0701141732283465
 30
0.0
 10
0.7690196850393701
 20
-0.0701141732283465
 30
0.0
 10
0.7690196850393701
 20
-0.0701141732283465
 30
0.0
 10
0.7690196850393701
 20
-0.0701141732283465
 30
0.0
 10
0.7736614173228347
 20
-0.0702992125984252
 30
0.0
 10
0.7736614173228347
 20
-0.0702992125984252
 30
0.0
 10
0.7736614173228347
 20
-0.0702992125984252
 30
0.0
 10
0.7736614173228347
 20
-0.0702992125984252
 30
0.0
 10
0.7778582677165354
 20
-0.0703779527559055
 30
0.0
 10
0.7778582677165354
 20
-0.0703779527559055
 30
0.0
 10
0.7778582677165354
 20
-0.0703779527559055
 30
0.0
 10
0.7778582677165354
 20
-0.0703779527559055
 30
0.0
 10
0.7815984251968504
 20
-0.0703897637795276
 30
0.0
 10
0.7815984251968504
 20
-0.0703897637795276
 30
0.0
 10
0.7815984251968504
 20
-0.0703897637795276
 30
0.0
 10
0.7815984251968504
 20
-0.0703897637795276
 30
0.0
 10
0.7848425196850394
 20
-0.0703385826771654
 30
0.0
 10
0.7848425196850394
 20
-0.0703385826771654
 30
0.0
 10
0.7848425196850394
 20
-0.0703385826771654
 30
0.0
 10
0.7848425196850394
 20
-0.0703385826771654
 30
0.0
 10
0.7875708661417323
 20
-0.070255905511811
 30
0.0
 10
0.7875708661417323
 20
-0.070255905511811
 30
0.0
 10
0.7875708661417323
 20
-0.070255905511811
 30
0.0
 10
0.7875708661417323
 20
-0.070255905511811
 30
0.0
 10
0.789740157480315
 20
-0.0701535433070866
 30
0.0
 10
0.789740157480315
 20
-0.0701535433070866
 30
0.0
 10
0.789740157480315
 20
-0.0701535433070866
 30
0.0
 10
0.789740157480315
 20
-0.0701535433070866
 30
0.0
 10
0.7913307086614173
 20
-0.0700590551181102
 30
0.0
 10
0.7913307086614173
 20
-0.0700590551181102
 30
0.0
 10
0.7913307086614173
 20
-0.0700590551181102
 30
0.0
 10
0.7913307086614173
 20
-0.0700590551181102
 30
0.0
 10
0.7923031496062992
 20
-0.0699803149606299
 30
0.0
 10
0.7923031496062992
 20
-0.0699803149606299
 30
0.0
 10
0.7923031496062992
 20
-0.0699803149606299
 30
0.0
 10
0.7923031496062992
 20
-0.0699803149606299
 30
0.0
 10
0.7926377952755905
 20
-0.0699566929133858
 30
0.0
 10
0.7926377952755905
 20
-0.0699566929133858
 30
0.0
  0
SPLINE
  5
51
100
AcDbEntity
  8
P1-Layer 1
 62
   253
100
AcDbSpline
210
0.0
220
0.0
230
1.0
 70
     1
 71
     3
 72
    60
 73
    56
 74
     0
 42
0.0000000001
 43
0.0000000001
 40
0.0
 40
0.0
 40
0.0
 40
0.0
 40
0.0714285714285714
 40
0.0714285714285714
 40
0.0714285714285714
 40
0.0714285714285714
 40
0.1428571428571429
 40
0.1428571428571429
 40
0.1428571428571429
 40
0.1428571428571429
 40
0.2142857142857143
 40
0.2142857142857143
 40
0.2142857142857143
 40
0.2142857142857143
 40
0.2857142857142857
 40
0.2857142857142857
 40
0.2857142857142857
 40
0.2857142857142857
 40
0.3571428571428571
 40
0.3571428571428571
 40
0.3571428571428571
 40
0.3571428571428571
 40
0.4285714285714285
 40
0.4285714285714285
 40
0.4285714285714285
 40
0.4285714285714285
 40
0.4999999999999999
 40
0.4999999999999999
 40
0.4999999999999999
 40
0.4999999999999999
 40
0.5714285714285713
 40
0.5714285714285713
 40
0.5714285714285713
 40
0.5714285714285713
 40
0.6428571428571427
 40
0.6428571428571427
 40
0.6428571428571427
 40
0.6428571428571427
 40
0.7142857142857141
 40
0.7142857142857141
 40
0.7142857142857141
 40
0.7142857142857141
 40
0.7857142857142855
 40
0.7857142857142855
 40
0.7857142857142855
 40
0.7857142857142855
 40
0.8571428571428569
 40
0.8571428571428569
 40
0.8571428571428569
 40
0.8571428571428569
 40
0.9285714285714283
 40
0.9285714285714283
 40
0.9285714285714283
 40
0.9285714285714283
 40
1.0
 40
1.0
 40
1.0
 40
1.0
 10
0.746740157480315
 20
-0.068003937007874
 30
0.0
 10
0.746740157480315
 20
-0.068003937007874
 30
0.0
 10
1.399484251968504
 20
0.3104173228346457
 30
0.0
 10
1.399484251968504
 20
0.3104173228346457
 30
0.0
 10
1.399484251968504
 20
0.3104173228346457
 30
0.0
 10
1.399484251968504
 20
0.3104173228346457
 30
0.0
 10
1.3931338582677166
 20
0.3113897637795276
 30
0.0
 10
1.3931338582677166
 20
0.3113897637795276
 30
0.0
 10
1.3931338582677166
 20
0.3113897637795276
 30
0.0
 10
1.3931338582677166
 20
0.3113897637795276
 30
0.0
 10
1.3865236220472441
 20
0.3125826771653543
 30
0.0
 10
1.3865236220472441
 20
0.3125826771653543
 30
0.0
 10
1.3865236220472441
 20
0.3125826771653543
 30
0.0
 10
1.3865236220472441
 20
0.3125826771653543
 30
0.0
 10
1.3797007874015748
 20
0.3140118110236221
 30
0.0
 10
1.3797007874015748
 20
0.3140118110236221
 30
0.0
 10
1.3797007874015748
 20
0.3140118110236221
 30
0.0
 10
1.3797007874015748
 20
0.3140118110236221
 30
0.0
 10
1.3726732283464567
 20
0.3157125984251969
 30
0.0
 10
1.3726732283464567
 20
0.3157125984251969
 30
0.0
 10
1.3726732283464567
 20
0.3157125984251969
 30
0.0
 10
1.3726732283464567
 20
0.3157125984251969
 30
0.0
 10
1.365484251968504
 20
0.3176850393700788
 30
0.0
 10
1.365484251968504
 20
0.3176850393700788
 30
0.0
 10
1.365484251968504
 20
0.3176850393700788
 30
0.0
 10
1.365484251968504
 20
0.3176850393700788
 30
0.0
 10
1.3581614173228347
 20
0.3199606299212598
 30
0.0
 10
1.3581614173228347
 20
0.3199606299212598
 30
0.0
 10
1.3581614173228347
 20
0.3199606299212598
 30
0.0
 10
1.3581614173228347
 20
0.3199606299212598
 30
0.0
 10
0.7054173228346456
 20
-0.0584606299212598
 30
0.0
 10
0.7054173228346456
 20
-0.0584606299212598
 30
0.0
 10
0.7054173228346456
 20
-0.0584606299212598
 30
0.0
 10
0.7054173228346456
 20
-0.0584606299212598
 30
0.0
 10
0.7127401574803149
 20
-0.0607362204724409
 30
0.0
 10
0.7127401574803149
 20
-0.0607362204724409
 30
0.0
 10
0.7127401574803149
 20
-0.0607362204724409
 30
0.0
 10
0.7127401574803149
 20
-0.0607362204724409
 30
0.0
 10
0.7199291338582677
 20
-0.0627086614173228
 30
0.0
 10
0.7199291338582677
 20
-0.0627086614173228
 30
0.0
 10
0.7199291338582677
 20
-0.0627086614173228
 30
0.0
 10
0.7199291338582677
 20
-0.0627086614173228
 30
0.0
 10
0.7269566929133858
 20
-0.0644094488188976
 30
0.0
 10
0.7269566929133858
 20
-0.0644094488188976
 30
0.0
 10
0.7269566929133858
 20
-0.0644094488188976
 30
0.0
 10
0.7269566929133858
 20
-0.0644094488188976
 30
0.0
 10
0.7337795275590552
 20
-0.0658385826771654
 30
0.0
 10
0.7337795275590552
 20
-0.0658385826771654
 30
0.0
 10
0.7337795275590552
 20
-0.0658385826771654
 30
0.0
 10
0.7337795275590552
 20
-0.0658385826771654
 30
0.0
 10
0.7403897637795276
 20
-0.0670314960629921
 30
0.0
 10
0.7403897637795276
 20
-0.0670314960629921
 30
0.0
 10
0.7403897637795276
 20
-0.0670314960629921
 30
0.0
 10
0.7403897637795276
 20
-0.0670314960629921
 30
0.0
 10
0.746740157480315
 20
-0.068003937007874
 30
0.0
 10
0.746740157480315
 20
-0.068003937007874
 30
0.0
  0
SPLINE
  5
52
100
AcDbEntity
  8
P1-Layer 1
 62
   253
100
AcDbSpline
210
0.0
220
0.0
230
1.0
 70
     1
 71
     3
 72
    60
 73
    56
 74
     0
 42
0.0000000001
 43
0.0000000001
 40
0.0
 40
0.0
 40
0.0
 40
0.0
 40
0.0714285714285714
 40
0.0714285714285714
 40
0.0714285714285714
 40
0.0714285714285714
 40
0.1428571428571429
 40
0.1428571428571429
 40
0.1428571428571429
 40
0.1428571428571429
 40
0.2142857142857143
 40
0.2142857142857143
 40
0.2142857142857143
 40
0.2142857142857143
 40
0.2857142857142857
 40
0.2857142857142857
 40
0.2857142857142857
 40
0.2857142857142857
 40
0.3571428571428571
 40
0.3571428571428571
 40
0.3571428571428571
 40
0.3571428571428571
 40
0.4285714285714285
 40
0.4285714285714285
 40
0.4285714285714285
 40
0.4285714285714285
 40
0.4999999999999999
 40
0.4999999999999999
 40
0.4999999999999999
 40
0.4999999999999999
 40
0.5714285714285713
 40
0.5714285714285713
 40
0.5714285714285713
 40
0.5714285714285713
 40
0.6428571428571427
 40
0.6428571428571427
 40
0.6428571428571427
 40
0.6428571428571427
 40
0.7142857142857141
 40
0.7142857142857141
 40
0.7142857142857141
 40
0.7142857142857141
 40
0.7857142857142855
 40
0.7857142857142855
 40
0.7857142857142855
 40
0.7857142857142855
 40
0.8571428571428569
 40
0.8571428571428569
 40
0.8571428571428569
 40
0.8571428571428569
 40
0.9285714285714283
 40
0.9285714285714283
 40
0.9285714285714283
 40
0.9285714285714283
 40
1.0
 40
1.0
 40
1.0
 40
1.0
 10
0.7054173228346456
 20
-0.0584606299212598
 30
0.0
 10
0.7054173228346456
 20
-0.0584606299212598
 30
0.0
 10
1.3581614173228347
 20
0.3199606299212598
 30
0.0
 10
1.3581614173228347
 20
0.3199606299212598
 30
0.0
 10
1.3581614173228347
 20
0.3199606299212598
 30
0.0
 10
1.3581614173228347
 20
0.3199606299212598
 30
0.0
 10
1.3507401574803151
 20
0.3225551181102362
 30
0.0
 10
1.3507401574803151
 20
0.3225551181102362
 30
0.0
 10
1.3507401574803151
 20
0.3225551181102362
 30
0.0
 10
1.3507401574803151
 20
0.3225551181102362
 30
0.0
 10
1.3432362204724411
 20
0.325496062992126
 30
0.0
 10
1.3432362204724411
 20
0.325496062992126
 30
0.0
 10
1.3432362204724411
 20
0.325496062992126
 30
0.0
 10
1.3432362204724411
 20
0.325496062992126
 30
0.0
 10
1.3356929133858269
 20
0.3287874015748032
 30
0.0
 10
1.3356929133858269
 20
0.3287874015748032
 30
0.0
 10
1.3356929133858269
 20
0.3287874015748032
 30
0.0
 10
1.3356929133858269
 20
0.3287874015748032
 30
0.0
 10
1.3281338582677167
 20
0.3324645669291339
 30
0.0
 10
1.3281338582677167
 20
0.3324645669291339
 30
0.0
 10
1.3281338582677167
 20
0.3324645669291339
 30
0.0
 10
1.3281338582677167
 20
0.3324645669291339
 30
0.0
 10
1.3205984251968503
 20
0.3365433070866142
 30
0.0
 10
1.3205984251968503
 20
0.3365433070866142
 30
0.0
 10
1.3205984251968503
 20
0.3365433070866142
 30
0.0
 10
1.3205984251968503
 20
0.3365433070866142
 30
0.0
 10
1.3130984251968505
 20
0.3410472440944882
 30
0.0
 10
1.3130984251968505
 20
0.3410472440944882
 30
0.0
 10
1.3130984251968505
 20
0.3410472440944882
 30
0.0
 10
1.3130984251968505
 20
0.3410472440944882
 30
0.0
 10
0.6603543307086615
 20
-0.0373740157480315
 30
0.0
 10
0.6603543307086615
 20
-0.0373740157480315
 30
0.0
 10
0.6603543307086615
 20
-0.0373740157480315
 30
0.0
 10
0.6603543307086615
 20
-0.0373740157480315
 30
0.0
 10
0.6678543307086614
 20
-0.0418779527559055
 30
0.0
 10
0.6678543307086614
 20
-0.0418779527559055
 30
0.0
 10
0.6678543307086614
 20
-0.0418779527559055
 30
0.0
 10
0.6678543307086614
 20
-0.0418779527559055
 30
0.0
 10
0.6753897637795275
 20
-0.0459566929133858
 30
0.0
 10
0.6753897637795275
 20
-0.0459566929133858
 30
0.0
 10
0.6753897637795275
 20
-0.0459566929133858
 30
0.0
 10
0.6753897637795275
 20
-0.0459566929133858
 30
0.0
 10
0.6829488188976378
 20
-0.0496338582677165
 30
0.0
 10
0.6829488188976378
 20
-0.0496338582677165
 30
0.0
 10
0.6829488188976378
 20
-0.0496338582677165
 30
0.0
 10
0.6829488188976378
 20
-0.0496338582677165
 30
0.0
 10
0.690492125984252
 20
-0.0529251968503937
 30
0.0
 10
0.690492125984252
 20
-0.0529251968503937
 30
0.0
 10
0.690492125984252
 20
-0.0529251968503937
 30
0.0
 10
0.690492125984252
 20
-0.0529251968503937
 30
0.0
 10
0.697996062992126
 20
-0.0558661417322835
 30
0.0
 10
0.697996062992126
 20
-0.0558661417322835
 30
0.0
 10
0.697996062992126
 20
-0.0558661417322835
 30
0.0
 10
0.697996062992126
 20
-0.0558661417322835
 30
0.0
 10
0.7054173228346456
 20
-0.0584606299212598
 30
0.0
 10
0.7054173228346456
 20
-0.0584606299212598
 30
0.0
  0
SPLINE
  5
53
100
AcDbEntity
  8
P1-Layer 1
 62
     9
100
AcDbSpline
210
0.0
220
0.0
230
1.0
 70
     1
 71
     3
 72
    52
 73
    48
 74
     0
 42
0.0000000001
 43
0.0000000001
 40
0.0
 40
0.0
 40
0.0
 40
0.0
 40
0.0833333333333333
 40
0.0833333333333333
 40
0.0833333333333333
 40
0.0833333333333333
 40
0.1666666666666667
 40
0.1666666666666667
 40
0.1666666666666667
 40
0.1666666666666667
 40
0.25
 40
0.25
 40
0.25
 40
0.25
 40
0.3333333333333333
 40
0.3333333333333333
 40
0.3333333333333333
 40
0.3333333333333333
 40
0.4166666666666666
 40
0.4166666666666666
 40
0.4166666666666666
 40
0.4166666666666666
 40
0.4999999999999999
 40
0.4999999999999999
 40
0.4999999999999999
 40
0.4999999999999999
 40
0.5833333333333333
 40
0.5833333333333333
 40
0.5833333333333333
 40
0.5833333333333333
 40
0.6666666666666666
 40
0.6666666666666666
 40
0.6666666666666666
 40
0.6666666666666666
 40
0.75
 40
0.75
 40
0.75
 40
0.75
 40
0.8333333333333334
 40
0.8333333333333334
 40
0.8333333333333334
 40
0.8333333333333334
 40
0.9166666666666667
 40
0.9166666666666667
 40
0.9166666666666667
 40
0.9166666666666667
 40
1.0
 40
1.0
 40
1.0
 40
1.0
 10
0.6603543307086615
 20
-0.0373740157480315
 30
0.0
 10
0.6603543307086615
 20
-0.0373740157480315
 30
0.0
 10
1.3130984251968505
 20
0.3410472440944882
 30
0.0
 10
1.3130984251968505
 20
0.3410472440944882
 30
0.0
 10
1.3130984251968505
 20
0.3410472440944882
 30
0.0
 10
1.3130984251968505
 20
0.3410472440944882
 30
0.0
 10
1.3056771653543306
 20
0.345996062992126
 30
0.0
 10
1.3056771653543306
 20
0.345996062992126
 30
0.0
 10
1.3056771653543306
 20
0.345996062992126
 30
0.0
 10
1.3056771653543306
 20
0.345996062992126
 30
0.0
 10
1.2983622047244094
 20
0.3514055118110236
 30
0.0
 10
1.2983622047244094
 20
0.3514055118110236
 30
0.0
 10
1.2983622047244094
 20
0.3514055118110236
 30
0.0
 10
1.2983622047244094
 20
0.3514055118110236
 30
0.0
 10
1.2911889763779527
 20
0.3572952755905512
 30
0.0
 10
1.2911889763779527
 20
0.3572952755905512
 30
0.0
 10
1.2911889763779527
 20
0.3572952755905512
 30
0.0
 10
1.2911889763779527
 20
0.3572952755905512
 30
0.0
 10
1.2841732283464566
 20
0.3636968503937008
 30
0.0
 10
1.2841732283464566
 20
0.3636968503937008
 30
0.0
 10
1.2841732283464566
 20
0.3636968503937008
 30
0.0
 10
1.2841732283464566
 20
0.3636968503937008
 30
0.0
 10
1.2773582677165354
 20
0.3706102362204725
 30
0.0
 10
1.2773582677165354
 20
0.3706102362204725
 30
0.0
 10
1.2773582677165354
 20
0.3706102362204725
 30
0.0
 10
1.2773582677165354
 20
0.3706102362204725
 30
0.0
 10
0.6246141732283465
 20
-0.0078110236220472
 30
0.0
 10
0.6246141732283465
 20
-0.0078110236220472
 30
0.0
 10
0.6246141732283465
 20
-0.0078110236220472
 30
0.0
 10
0.6246141732283465
 20
-0.0078110236220472
 30
0.0
 10
0.6314291338582677
 20
-0.0147244094488189
 30
0.0
 10
0.6314291338582677
 20
-0.0147244094488189
 30
0.0
 10
0.6314291338582677
 20
-0.0147244094488189
 30
0.0
 10
0.6314291338582677
 20
-0.0147244094488189
 30
0.0
 10
0.6384448818897638
 20
-0.0211259842519685
 30
0.0
 10
0.6384448818897638
 20
-0.0211259842519685
 30
0.0
 10
0.6384448818897638
 20
-0.0211259842519685
 30
0.0
 10
0.6384448818897638
 20
-0.0211259842519685
 30
0.0
 10
0.6456181102362205
 20
-0.0270157480314961
 30
0.0
 10
0.6456181102362205
 20
-0.0270157480314961
 30
0.0
 10
0.6456181102362205
 20
-0.0270157480314961
 30
0.0
 10
0.6456181102362205
 20
-0.0270157480314961
 30
0.0
 10
0.6529330708661417
 20
-0.0324251968503937
 30
0.0
 10
0.6529330708661417
 20
-0.0324251968503937
 30
0.0
 10
0.6529330708661417
 20
-0.0324251968503937
 30
0.0
 10
0.6529330708661417
 20
-0.0324251968503937
 30
0.0
 10
0.6603543307086615
 20
-0.0373740157480315
 30
0.0
 10
0.6603543307086615
 20
-0.0373740157480315
 30
0.0
  0
SPLINE
  5
54
100
AcDbEntity
  8
P1-Layer 1
 62
     9
100
AcDbSpline
210
0.0
220
0.0
230
1.0
 70
     1
 71
     3
 72
    44
 73
    40
 74
     0
 42
0.0000000001
 43
0.0000000001
 40
0.0
 40
0.0
 40
0.0
 40
0.0
 40
0.1
 40
0.1
 40
0.1
 40
0.1
 40
0.2
 40
0.2
 40
0.2
 40
0.2
 40
0.3
 40
0.3
 40
0.3
 40
0.3
 40
0.4
 40
0.4
 40
0.4
 40
0.4
 40
0.5
 40
0.5
 40
0.5
 40
0.5
 40
0.6
 40
0.6
 40
0.6
 40
0.6
 40
0.7
 40
0.7
 40
0.7
 40
0.7
 40
0.7999999999999999
 40
0.7999999999999999
 40
0.7999999999999999
 40
0.7999999999999999
 40
0.8999999999999999
 40
0.8999999999999999
 40
0.8999999999999999
 40
0.8999999999999999
 40
1.0
 40
1.0
 40
1.0
 40
1.0
 10
0.6246141732283465
 20
-0.0078110236220472
 30
0.0
 10
0.6246141732283465
 20
-0.0078110236220472
 30
0.0
 10
1.2773582677165354
 20
0.3706102362204725
 30
0.0
 10
1.2773582677165354
 20
0.3706102362204725
 30
0.0
 10
1.2773582677165354
 20
0.3706102362204725
 30
0.0
 10
1.2773582677165354
 20
0.3706102362204725
 30
0.0
 10
1.270763779527559
 20
0.3780748031496063
 30
0.0
 10
1.270763779527559
 20
0.3780748031496063
 30
0.0
 10
1.270763779527559
 20
0.3780748031496063
 30
0.0
 10
1.270763779527559
 20
0.3780748031496063
 30
0.0
 10
1.2644330708661418
 20
0.3860984251968504
 30
0.0
 10
1.2644330708661418
 20
0.3860984251968504
 30
0.0
 10
1.2644330708661418
 20
0.3860984251968504
 30
0.0
 10
1.2644330708661418
 20
0.3860984251968504
 30
0.0
 10
1.2581220472440946
 20
0.394244094488189
 30
0.0
 10
1.2581220472440946
 20
0.394244094488189
 30
0.0
 10
1.2581220472440946
 20
0.394244094488189
 30
0.0
 10
1.2581220472440946
 20
0.394244094488189
 30
0.0
 10
1.2516141732283466
 20
0.4020078740157481
 30
0.0
 10
1.2516141732283466
 20
0.4020078740157481
 30
0.0
 10
1.2516141732283466
 20
0.4020078740157481
 30
0.0
 10
1.2516141732283466
 20
0.4020078740157481
 30
0.0
 10
0.5988700787401575
 20
0.0235866141732283
 30
0.0
 10
0.5988700787401575
 20
0.0235866141732283
 30
0.0
 10
0.5988700787401575
 20
0.0235866141732283
 30
0.0
 10
0.5988700787401575
 20
0.0235866141732283
 30
0.0
 10
0.6053779527559056
 20
0.0158228346456693
 30
0.0
 10
0.6053779527559056
 20
0.0158228346456693
 30
0.0
 10
0.6053779527559056
 20
0.0158228346456693
 30
0.0
 10
0.6053779527559056
 20
0.0158228346456693
 30
0.0
 10
0.6116889763779528
 20
0.0076771653543307
 30
0.0
 10
0.6116889763779528
 20
0.0076771653543307
 30
0.0
 10
0.6116889763779528
 20
0.0076771653543307
 30
0.0
 10
0.6116889763779528
 20
0.0076771653543307
 30
0.0
 10
0.6180196850393701
 20
-0.0003464566929134
 30
0.0
 10
0.6180196850393701
 20
-0.0003464566929134
 30
0.0
 10
0.6180196850393701
 20
-0.0003464566929134
 30
0.0
 10
0.6180196850393701
 20
-0.0003464566929134
 30
0.0
 10
0.6246141732283465
 20
-0.0078110236220472
 30
0.0
 10
0.6246141732283465
 20
-0.0078110236220472
 30
0.0
  0
SPLINE
  5
55
100
AcDbEntity
  8
P1-Layer 1
 62
     9
100
AcDbSpline
210
0.0
220
0.0
230
1.0
 70
     1
 71
     3
 72
    52
 73
    48
 74
     0
 42
0.0000000001
 43
0.0000000001
 40
0.0
 40
0.0
 40
0.0
 40
0.0
 40
0.0833333333333333
 40
0.0833333333333333
 40
0.0833333333333333
 40
0.0833333333333333
 40
0.1666666666666667
 40
0.1666666666666667
 40
0.1666666666666667
 40
0.1666666666666667
 40
0.25
 40
0.25
 40
0.25
 40
0.25
 40
0.3333333333333333
 40
0.3333333333333333
 40
0.3333333333333333
 40
0.3333333333333333
 40
0.4166666666666666
 40
0.4166666666666666
 40
0.4166666666666666
 40
0.4166666666666666
 40
0.4999999999999999
 40
0.4999999999999999
 40
0.4999999999999999
 40
0.4999999999999999
 40
0.5833333333333333
 40
0.5833333333333333
 40
0.5833333333333333
 40
0.5833333333333333
 40
0.6666666666666666
 40
0.6666666666666666
 40
0.6666666666666666
 40
0.6666666666666666
 40
0.75
 40
0.75
 40
0.75
 40
0.75
 40
0.8333333333333334
 40
0.8333333333333334
 40
0.8333333333333334
 40
0.8333333333333334
 40
0.9166666666666667
 40
0.9166666666666667
 40
0.9166666666666667
 40
0.9166666666666667
 40
1.0
 40
1.0
 40
1.0
 40
1.0
 10
0.5988700787401575
 20
0.0235866141732283
 30
0.0
 10
0.5988700787401575
 20
0.0235866141732283
 30
0.0
 10
1.2516141732283466
 20
0.4020078740157481
 30
0.0
 10
1.2516141732283466
 20
0.4020078740157481
 30
0.0
 10
1.2516141732283466
 20
0.4020078740157481
 30
0.0
 10
1.2516141732283466
 20
0.4020078740157481
 30
0.0
 10
1.2449133858267718
 20
0.4093897637795276
 30
0.0
 10
1.2449133858267718
 20
0.4093897637795276
 30
0.0
 10
1.2449133858267718
 20
0.4093897637795276
 30
0.0
 10
1.2449133858267718
 20
0.4093897637795276
 30
0.0
 10
1.2380354330708663
 20
0.4163622047244095
 30
0.0
 10
1.2380354330708663
 20
0.4163622047244095
 30
0.0
 10
1.2380354330708663
 20
0.4163622047244095
 30
0.0
 10
1.2380354330708663
 20
0.4163622047244095
 30
0.0
 10
1.2309842519685039
 20
0.4229173228346457
 30
0.0
 10
1.2309842519685039
 20
0.4229173228346457
 30
0.0
 10
1.2309842519685039
 20
0.4229173228346457
 30
0.0
 10
1.2309842519685039
 20
0.4229173228346457
 30
0.0
 10
1.2237795275590551
 20
0.4290275590551181
 30
0.0
 10
1.2237795275590551
 20
0.4290275590551181
 30
0.0
 10
1.2237795275590551
 20
0.4290275590551181
 30
0.0
 10
1.2237795275590551
 20
0.4290275590551181
 30
0.0
 10
1.2164291338582678
 20
0.4346811023622048
 30
0.0
 10
1.2164291338582678
 20
0.4346811023622048
 30
0.0
 10
1.2164291338582678
 20
0.4346811023622048
 30
0.0
 10
1.2164291338582678
 20
0.4346811023622048
 30
0.0
 10
0.5636850393700787
 20
0.056259842519685
 30
0.0
 10
0.5636850393700787
 20
0.056259842519685
 30
0.0
 10
0.5636850393700787
 20
0.056259842519685
 30
0.0
 10
0.5636850393700787
 20
0.056259842519685
 30
0.0
 10
0.5710354330708661
 20
0.0506062992125984
 30
0.0
 10
0.5710354330708661
 20
0.0506062992125984
 30
0.0
 10
0.5710354330708661
 20
0.0506062992125984
 30
0.0
 10
0.5710354330708661
 20
0.0506062992125984
 30
0.0
 10
0.578240157480315
 20
0.044496062992126
 30
0.0
 10
0.578240157480315
 20
0.044496062992126
 30
0.0
 10
0.578240157480315
 20
0.044496062992126
 30
0.0
 10
0.578240157480315
 20
0.044496062992126
 30
0.0
 10
0.5852913385826772
 20
0.0379409448818898
 30
0.0
 10
0.5852913385826772
 20
0.0379409448818898
 30
0.0
 10
0.5852913385826772
 20
0.0379409448818898
 30
0.0
 10
0.5852913385826772
 20
0.0379409448818898
 30
0.0
 10
0.5921692913385827
 20
0.0309685039370079
 30
0.0
 10
0.5921692913385827
 20
0.0309685039370079
 30
0.0
 10
0.5921692913385827
 20
0.0309685039370079
 30
0.0
 10
0.5921692913385827
 20
0.0309685039370079
 30
0.0
 10
0.5988700787401575
 20
0.0235866141732283
 30
0.0
 10
0.5988700787401575
 20
0.0235866141732283
 30
0.0
  0
SPLINE
  5
56
100
AcDbEntity
  8
P1-Layer 1
 62
   253
100
AcDbSpline
210
0.0
220
0.0
230
1.0
 70
     1
 71
     3
 72
    52
 73
    48
 74
     0
 42
0.0000000001
 43
0.0000000001
 40
0.0
 40
0.0
 40
0.0
 40
0.0
 40
0.0833333333333333
 40
0.0833333333333333
 40
0.0833333333333333
 40
0.0833333333333333
 40
0.1666666666666667
 40
0.1666666666666667
 40
0.1666666666666667
 40
0.1666666666666667
 40
0.25
 40
0.25
 40
0.25
 40
0.25
 40
0.3333333333333333
 40
0.3333333333333333
 40
0.3333333333333333
 40
0.3333333333333333
 40
0.4166666666666666
 40
0.4166666666666666
 40
0.4166666666666666
 40
0.4166666666666666
 40
0.4999999999999999
 40
0.4999999999999999
 40
0.4999999999999999
 40
0.4999999999999999
 40
0.5833333333333333
 40
0.5833333333333333
 40
0.5833333333333333
 40
0.5833333333333333
 40
0.6666666666666666
 40
0.6666666666666666
 40
0.6666666666666666
 40
0.6666666666666666
 40
0.75
 40
0.75
 40
0.75
 40
0.75
 40
0.8333333333333334
 40
0.8333333333333334
 40
0.8333333333333334
 40
0.8333333333333334
 40
0.9166666666666667
 40
0.9166666666666667
 40
0.9166666666666667
 40
0.9166666666666667
 40
1.0
 40
1.0
 40
1.0
 40
1.0
 10
0.5636850393700787
 20
0.056259842519685
 30
0.0
 10
0.5636850393700787
 20
0.056259842519685
 30
0.0
 10
1.2164291338582678
 20
0.4346811023622048
 30
0.0
 10
1.2164291338582678
 20
0.4346811023622048
 30
0.0
 10
1.2164291338582678
 20
0.4346811023622048
 30
0.0
 10
1.2164291338582678
 20
0.4346811023622048
 30
0.0
 10
1.2089488188976378
 20
0.4398582677165355
 30
0.0
 10
1.2089488188976378
 20
0.4398582677165355
 30
0.0
 10
1.2089488188976378
 20
0.4398582677165355
 30
0.0
 10
1.2089488188976378
 20
0.4398582677165355
 30
0.0
 10
1.2013385826771654
 20
0.4445551181102362
 30
0.0
 10
1.2013385826771654
 20
0.4445551181102362
 30
0.0
 10
1.2013385826771654
 20
0.4445551181102362
 30
0.0
 10
1.2013385826771654
 20
0.4445551181102362
 30
0.0
 10
1.1936220472440946
 20
0.4487362204724409
 30
0.0
 10
1.1936220472440946
 20
0.4487362204724409
 30
0.0
 10
1.1936220472440946
 20
0.4487362204724409
 30
0.0
 10
1.1936220472440946
 20
0.4487362204724409
 30
0.0
 10
1.1858031496062993
 20
0.4523937007874016
 30
0.0
 10
1.1858031496062993
 20
0.4523937007874016
 30
0.0
 10
1.1858031496062993
 20
0.4523937007874016
 30
0.0
 10
1.1858031496062993
 20
0.4523937007874016
 30
0.0
 10
1.1779055118110238
 20
0.4555039370078741
 30
0.0
 10
1.1779055118110238
 20
0.4555039370078741
 30
0.0
 10
1.1779055118110238
 20
0.4555039370078741
 30
0.0
 10
1.1779055118110238
 20
0.4555039370078741
 30
0.0
 10
0.5251614173228346
 20
0.0770826771653543
 30
0.0
 10
0.5251614173228346
 20
0.0770826771653543
 30
0.0
 10
0.5251614173228346
 20
0.0770826771653543
 30
0.0
 10
0.5251614173228346
 20
0.0770826771653543
 30
0.0
 10
0.5330590551181103
 20
0.0739724409448819
 30
0.0
 10
0.5330590551181103
 20
0.0739724409448819
 30
0.0
 10
0.5330590551181103
 20
0.0739724409448819
 30
0.0
 10
0.5330590551181103
 20
0.0739724409448819
 30
0.0
 10
0.5408779527559056
 20
0.0703149606299213
 30
0.0
 10
0.5408779527559056
 20
0.0703149606299213
 30
0.0
 10
0.5408779527559056
 20
0.0703149606299213
 30
0.0
 10
0.5408779527559056
 20
0.0703149606299213
 30
0.0
 10
0.5485944881889764
 20
0.0661338582677165
 30
0.0
 10
0.5485944881889764
 20
0.0661338582677165
 30
0.0
 10
0.5485944881889764
 20
0.0661338582677165
 30
0.0
 10
0.5485944881889764
 20
0.0661338582677165
 30
0.0
 10
0.5562047244094488
 20
0.0614370078740158
 30
0.0
 10
0.5562047244094488
 20
0.0614370078740158
 30
0.0
 10
0.5562047244094488
 20
0.0614370078740158
 30
0.0
 10
0.5562047244094488
 20
0.0614370078740158
 30
0.0
 10
0.5636850393700787
 20
0.056259842519685
 30
0.0
 10
0.5636850393700787
 20
0.056259842519685
 30
0.0
  0
SPLINE
  5
57
100
AcDbEntity
  8
P1-Layer 1
 62
   253
100
AcDbSpline
210
0.0
220
0.0
230
1.0
 70
     1
 71
     3
 72
    60
 73
    56
 74
     0
 42
0.0000000001
 43
0.0000000001
 40
0.0
 40
0.0
 40
0.0
 40
0.0
 40
0.0714285714285714
 40
0.0714285714285714
 40
0.0714285714285714
 40
0.0714285714285714
 40
0.1428571428571429
 40
0.1428571428571429
 40
0.1428571428571429
 40
0.1428571428571429
 40
0.2142857142857143
 40
0.2142857142857143
 40
0.2142857142857143
 40
0.2142857142857143
 40
0.2857142857142857
 40
0.2857142857142857
 40
0.2857142857142857
 40
0.2857142857142857
 40
0.3571428571428571
 40
0.3571428571428571
 40
0.3571428571428571
 40
0.3571428571428571
 40
0.4285714285714285
 40
0.4285714285714285
 40
0.4285714285714285
 40
0.4285714285714285
 40
0.4999999999999999
 40
0.4999999999999999
 40
0.4999999999999999
 40
0.4999999999999999
 40
0.5714285714285713
 40
0.5714285714285713
 40
0.5714285714285713
 40
0.5714285714285713
 40
0.6428571428571427
 40
0.6428571428571427
 40
0.6428571428571427
 40
0.6428571428571427
 40
0.7142857142857141
 40
0.7142857142857141
 40
0.7142857142857141
 40
0.7142857142857141
 40
0.7857142857142855
 40
0.7857142857142855
 40
0.7857142857142855
 40
0.7857142857142855
 40
0.8571428571428569
 40
0.8571428571428569
 40
0.8571428571428569
 40
0.8571428571428569
 40
0.9285714285714283
 40
0.9285714285714283
 40
0.9285714285714283
 40
0.9285714285714283
 40
1.0
 40
1.0
 40
1.0
 40
1.0
 10
0.5251614173228346
 20
0.0770826771653543
 30
0.0
 10
0.5251614173228346
 20
0.0770826771653543
 30
0.0
 10
1.1779055118110238
 20
0.4555039370078741
 30
0.0
 10
1.1779055118110238
 20
0.4555039370078741
 30
0.0
 10
1.1779055118110238
 20
0.4555039370078741
 30
0.0
 10
1.1779055118110238
 20
0.4555039370078741
 30
0.0
 10
1.1699251968503936
 20
0.4580629921259843
 30
0.0
 10
1.1699251968503936
 20
0.4580629921259843
 30
0.0
 10
1.1699251968503936
 20
0.4580629921259843
 30
0.0
 10
1.1699251968503936
 20
0.4580629921259843
 30
0.0
 10
1.1618897637795276
 20
0.4600393700787402
 30
0.0
 10
1.1618897637795276
 20
0.4600393700787402
 30
0.0
 10
1.1618897637795276
 20
0.4600393700787402
 30
0.0
 10
1.1618897637795276
 20
0.4600393700787402
 30
0.0
 10
1.1537952755905512
 20
0.4614251968503937
 30
0.0
 10
1.1537952755905512
 20
0.4614251968503937
 30
0.0
 10
1.1537952755905512
 20
0.4614251968503937
 30
0.0
 10
1.1537952755905512
 20
0.4614251968503937
 30
0.0
 10
1.1456653543307087
 20
0.4621929133858268
 30
0.0
 10
1.1456653543307087
 20
0.4621929133858268
 30
0.0
 10
1.1456653543307087
 20
0.4621929133858268
 30
0.0
 10
1.1456653543307087
 20
0.4621929133858268
 30
0.0
 10
1.1375
 20
0.4623425196850394
 30
0.0
 10
1.1375
 20
0.4623425196850394
 30
0.0
 10
1.1375
 20
0.4623425196850394
 30
0.0
 10
1.1375
 20
0.4623425196850394
 30
0.0
 10
1.1293228346456694
 20
0.4618425196850394
 30
0.0
 10
1.1293228346456694
 20
0.4618425196850394
 30
0.0
 10
1.1293228346456694
 20
0.4618425196850394
 30
0.0
 10
1.1293228346456694
 20
0.4618425196850394
 30
0.0
 10
0.4765787401574803
 20
0.0834212598425197
 30
0.0
 10
0.4765787401574803
 20
0.0834212598425197
 30
0.0
 10
0.4765787401574803
 20
0.0834212598425197
 30
0.0
 10
0.4765787401574803
 20
0.0834212598425197
 30
0.0
 10
0.484755905511811
 20
0.0839212598425197
 30
0.0
 10
0.484755905511811
 20
0.0839212598425197
 30
0.0
 10
0.484755905511811
 20
0.0839212598425197
 30
0.0
 10
0.484755905511811
 20
0.0839212598425197
 30
0.0
 10
0.4929212598425197
 20
0.0837716535433071
 30
0.0
 10
0.4929212598425197
 20
0.0837716535433071
 30
0.0
 10
0.4929212598425197
 20
0.0837716535433071
 30
0.0
 10
0.4929212598425197
 20
0.0837716535433071
 30
0.0
 10
0.5010511811023622
 20
0.083003937007874
 30
0.0
 10
0.5010511811023622
 20
0.083003937007874
 30
0.0
 10
0.5010511811023622
 20
0.083003937007874
 30
0.0
 10
0.5010511811023622
 20
0.083003937007874
 30
0.0
 10
0.5091456692913386
 20
0.0816181102362205
 30
0.0
 10
0.5091456692913386
 20
0.0816181102362205
 30
0.0
 10
0.5091456692913386
 20
0.0816181102362205
 30
0.0
 10
0.5091456692913386
 20
0.0816181102362205
 30
0.0
 10
0.5171811023622047
 20
0.0796417322834646
 30
0.0
 10
0.5171811023622047
 20
0.0796417322834646
 30
0.0
 10
0.5171811023622047
 20
0.0796417322834646
 30
0.0
 10
0.5171811023622047
 20
0.0796417322834646
 30
0.0
 10
0.5251614173228346
 20
0.0770826771653543
 30
0.0
 10
0.5251614173228346
 20
0.0770826771653543
 30
0.0
  0
SPLINE
  5
58
100
AcDbEntity
  8
P1-Layer 1
 62
   109
100
AcDbSpline
210
0.0
220
0.0
230
1.0
 70
     1
 71
     3
 72
    52
 73
    48
 74
     0
 42
0.0000000001
 43
0.0000000001
 40
0.0
 40
0.0
 40
0.0
 40
0.0
 40
0.0833333333333333
 40
0.0833333333333333
 40
0.0833333333333333
 40
0.0833333333333333
 40
0.1666666666666667
 40
0.1666666666666667
 40
0.1666666666666667
 40
0.1666666666666667
 40
0.25
 40
0.25
 40
0.25
 40
0.25
 40
0.3333333333333333
 40
0.3333333333333333
 40
0.3333333333333333
 40
0.3333333333333333
 40
0.4166666666666666
 40
0.4166666666666666
 40
0.4166666666666666
 40
0.4166666666666666
 40
0.4999999999999999
 40
0.4999999999999999
 40
0.4999999999999999
 40
0.4999999999999999
 40
0.5833333333333333
 40
0.5833333333333333
 40
0.5833333333333333
 40
0.5833333333333333
 40
0.6666666666666666
 40
0.6666666666666666
 40
0.6666666666666666
 40
0.6666666666666666
 40
0.75
 40
0.75
 40
0.75
 40
0.75
 40
0.8333333333333334
 40
0.8333333333333334
 40
0.8333333333333334
 40
0.8333333333333334
 40
0.9166666666666667
 40
0.9166666666666667
 40
0.9166666666666667
 40
0.9166666666666667
 40
1.0
 40
1.0
 40
1.0
 40
1.0
 10
0.4765787401574803
 20
0.0834212598425197
 30
0.0
 10
0.4765787401574803
 20
0.0834212598425197
 30
0.0
 10
1.1293228346456694
 20
0.4618425196850394
 30
0.0
 10
1.1293228346456694
 20
0.4618425196850394
 30
0.0
 10
1.1293228346456694
 20
0.4618425196850394
 30
0.0
 10
1.1293228346456694
 20
0.4618425196850394
 30
0.0
 10
1.1211338582677166
 20
0.4606811023622047
 30
0.0
 10
1.1211338582677166
 20
0.4606811023622047
 30
0.0
 10
1.1211338582677166
 20
0.4606811023622047
 30
0.0
 10
1.1211338582677166
 20
0.4606811023622047
 30
0.0
 10
1.11296062992126
 20
0.4588346456692913
 30
0.0
 10
1.11296062992126
 20
0.4588346456692913
 30
0.0
 10
1.11296062992126
 20
0.4588346456692913
 30
0.0
 10
1.11296062992126
 20
0.4588346456692913
 30
0.0
 10
1.1047992125984252
 20
0.4562992125984252
 30
0.0
 10
1.1047992125984252
 20
0.4562992125984252
 30
0.0
 10
1.1047992125984252
 20
0.4562992125984252
 30
0.0
 10
1.1047992125984252
 20
0.4562992125984252
 30
0.0
 10
1.0966692913385827
 20
0.4530472440944882
 30
0.0
 10
1.0966692913385827
 20
0.4530472440944882
 30
0.0
 10
1.0966692913385827
 20
0.4530472440944882
 30
0.0
 10
1.0966692913385827
 20
0.4530472440944882
 30
0.0
 10
1.0885787401574805
 20
0.4490629921259843
 30
0.0
 10
1.0885787401574805
 20
0.4490629921259843
 30
0.0
 10
1.0885787401574805
 20
0.4490629921259843
 30
0.0
 10
1.0885787401574805
 20
0.4490629921259843
 30
0.0
 10
0.4358346456692914
 20
0.0706417322834646
 30
0.0
 10
0.4358346456692914
 20
0.0706417322834646
 30
0.0
 10
0.4358346456692914
 20
0.0706417322834646
 30
0.0
 10
0.4358346456692914
 20
0.0706417322834646
 30
0.0
 10
0.4439251968503937
 20
0.0746259842519685
 30
0.0
 10
0.4439251968503937
 20
0.0746259842519685
 30
0.0
 10
0.4439251968503937
 20
0.0746259842519685
 30
0.0
 10
0.4439251968503937
 20
0.0746259842519685
 30
0.0
 10
0.4520551181102362
 20
0.0778779527559055
 30
0.0
 10
0.4520551181102362
 20
0.0778779527559055
 30
0.0
 10
0.4520551181102362
 20
0.0778779527559055
 30
0.0
 10
0.4520551181102362
 20
0.0778779527559055
 30
0.0
 10
0.4602165354330709
 20
0.0804133858267717
 30
0.0
 10
0.4602165354330709
 20
0.0804133858267717
 30
0.0
 10
0.4602165354330709
 20
0.0804133858267717
 30
0.0
 10
0.4602165354330709
 20
0.0804133858267717
 30
0.0
 10
0.4683897637795276
 20
0.082259842519685
 30
0.0
 10
0.4683897637795276
 20
0.082259842519685
 30
0.0
 10
0.4683897637795276
 20
0.082259842519685
 30
0.0
 10
0.4683897637795276
 20
0.082259842519685
 30
0.0
 10
0.4765787401574803
 20
0.0834212598425197
 30
0.0
 10
0.4765787401574803
 20
0.0834212598425197
 30
0.0
  0
SPLINE
  5
59
100
AcDbEntity
  8
P1-Layer 1
100
AcDbSpline
210
0.0
220
0.0
230
1.0
 70
     1
 71
     3
 72
    20
 73
    16
 74
     0
 42
0.0000000001
 43
0.0000000001
 40
0.0
 40
0.0
 40
0.0
 40
0.0
 40
0.25
 40
0.25
 40
0.25
 40
0.25
 40
0.5
 40
0.5
 40
0.5
 40
0.5
 40
0.75
 40
0.75
 40
0.75
 40
0.75
 40
1.0
 40
1.0
 40
1.0
 40
1.0
 10
0.4358346456692914
 20
0.0706417322834646
 30
0.0
 10
0.4358346456692914
 20
0.0706417322834646
 30
0.0
 10
1.0885787401574805
 20
0.4490629921259843
 30
0.0
 10
1.0885787401574805
 20
0.4490629921259843
 30
0.0
 10
1.0885787401574805
 20
0.4490629921259843
 30
0.0
 10
1.0885787401574805
 20
0.4490629921259843
 30
0.0
 10
1.0805511811023623
 20
0.4443267716535433
 30
0.0
 10
1.0805511811023623
 20
0.4443267716535433
 30
0.0
 10
1.0805511811023623
 20
0.4443267716535433
 30
0.0
 10
1.0805511811023623
 20
0.4443267716535433
 30
0.0
 10
0.4278070866141733
 20
0.0659055118110236
 30
0.0
 10
0.4278070866141733
 20
0.0659055118110236
 30
0.0
 10
0.4278070866141733
 20
0.0659055118110236
 30
0.0
 10
0.4278070866141733
 20
0.0659055118110236
 30
0.0
 10
0.4358346456692914
 20
0.0706417322834646
 30
0.0
 10
0.4358346456692914
 20
0.0706417322834646
 30
0.0
  0
SPLINE
  5
5A
100
AcDbEntity
  8
P1-Layer 1
370
     5
100
AcDbSpline
210
0.0
220
0.0
230
1.0
 70
     1
 71
     3
 72
   460
 73
   456
 74
     0
 42
0.0000000001
 43
0.0000000001
 40
0.0
 40
0.0
 40
0.0
 40
0.0
 40
0.0087719298245614
 40
0.0087719298245614
 40
0.0087719298245614
 40
0.0087719298245614
 40
0.0175438596491228
 40
0.0175438596491228
 40
0.0175438596491228
 40
0.0175438596491228
 40
0.0263157894736842
 40
0.0263157894736842
 40
0.0263157894736842
 40
0.0263157894736842
 40
0.0350877192982456
 40
0.0350877192982456
 40
0.0350877192982456
 40
0.0350877192982456
 40
0.043859649122807
 40
0.043859649122807
 40
0.043859649122807
 40
0.043859649122807
 40
0.0526315789473684
 40
0.0526315789473684
 40
0.0526315789473684
 40
0.0526315789473684
 40
0.0614035087719298
 40
0.0614035087719298
 40
0.0614035087719298
 40
0.0614035087719298
 40
0.0701754385964912
 40
0.0701754385964912
 40
0.0701754385964912
 40
0.0701754385964912
 40
0.0789473684210526
 40
0.0789473684210526
 40
0.0789473684210526
 40
0.0789473684210526
 40
0.087719298245614
 40
0.087719298245614
 40
0.087719298245614
 40
0.087719298245614
 40
0.0964912280701754
 40
0.0964912280701754
 40
0.0964912280701754
 40
0.0964912280701754
 40
0.1052631578947368
 40
0.1052631578947368
 40
0.1052631578947368
 40
0.1052631578947368
 40
0.1140350877192982
 40
0.1140350877192982
 40
0.1140350877192982
 40
0.1140350877192982
 40
0.1228070175438596
 40
0.1228070175438596
 40
0.1228070175438596
 40
0.1228070175438596
 40
0.1315789473684211
 40
0.1315789473684211
 40
0.1315789473684211
 40
0.1315789473684211
 40
0.1403508771929825
 40
0.1403508771929825
 40
0.1403508771929825
 40
0.1403508771929825
 40
0.1491228070175439
 40
0.1491228070175439
 40
0.1491228070175439
 40
0.1491228070175439
 40
0.1578947368421053
 40
0.1578947368421053
 40
0.1578947368421053
 40
0.1578947368421053
 40
0.1666666666666667
 40
0.1666666666666667
 40
0.1666666666666667
 40
0.1666666666666667
 40
0.1754385964912281
 40
0.1754385964912281
 40
0.1754385964912281
 40
0.1754385964912281
 40
0.1842105263157895
 40
0.1842105263157895
 40
0.1842105263157895
 40
0.1842105263157895
 40
0.1929824561403509
 40
0.1929824561403509
 40
0.1929824561403509
 40
0.1929824561403509
 40
0.2017543859649123
 40
0.2017543859649123
 40
0.2017543859649123
 40
0.2017543859649123
 40
0.2105263157894737
 40
0.2105263157894737
 40
0.2105263157894737
 40
0.2105263157894737
 40
0.2192982456140351
 40
0.2192982456140351
 40
0.2192982456140351
 40
0.2192982456140351
 40
0.2280701754385965
 40
0.2280701754385965
 40
0.2280701754385965
 40
0.2280701754385965
 40
0.2368421052631579
 40
0.2368421052631579
 40
0.2368421052631579
 40
0.2368421052631579
 40
0.2456140350877193
 40
0.2456140350877193
 40
0.2456140350877193
 40
0.2456140350877193
 40
0.2543859649122807
 40
0.2543859649122807
 40
0.2543859649122807
 40
0.2543859649122807
 40
0.2631578947368422
 40
0.2631578947368422
 40
0.2631578947368422
 40
0.2631578947368422
 40
0.2719298245614036
 40
0.2719298245614036
 40
0.2719298245614036
 40
0.2719298245614036
 40
0.280701754385965
 40
0.280701754385965
 40
0.280701754385965
 40
0.280701754385965
 40
0.2894736842105264
 40
0.2894736842105264
 40
0.2894736842105264
 40
0.2894736842105264
 40
0.2982456140350879
 40
0.2982456140350879
 40
0.2982456140350879
 40
0.2982456140350879
 40
0.3070175438596493
 40
0.3070175438596493
 40
0.3070175438596493
 40
0.3070175438596493
 40
0.3157894736842107
 40
0.3157894736842107
 40
0.3157894736842107
 40
0.3157894736842107
 40
0.3245614035087722
 40
0.3245614035087722
 40
0.3245614035087722
 40
0.3245614035087722
 40
0.3333333333333336
 40
0.3333333333333336
 40
0.3333333333333336
 40
0.3333333333333336
 40
0.342105263157895
 40
0.342105263157895
 40
0.342105263157895
 40
0.342105263157895
 40
0.3508771929824565
 40
0.3508771929824565
 40
0.3508771929824565
 40
0.3508771929824565
 40
0.3596491228070179
 40
0.3596491228070179
 40
0.3596491228070179
 40
0.3596491228070179
 40
0.3684210526315793
 40
0.3684210526315793
 40
0.3684210526315793
 40
0.3684210526315793
 40
0.3771929824561408
 40
0.3771929824561408
 40
0.3771929824561408
 40
0.3771929824561408
 40
0.3859649122807022
 40
0.3859649122807022
 40
0.3859649122807022
 40
0.3859649122807022
 40
0.3947368421052636
 40
0.3947368421052636
 40
0.3947368421052636
 40
0.3947368421052636
 40
0.403508771929825
 40
0.403508771929825
 40
0.403508771929825
 40
0.403508771929825
 40
0.4122807017543865
 40
0.4122807017543865
 40
0.4122807017543865
 40
0.4122807017543865
 40
0.4210526315789479
 40
0.4210526315789479
 40
0.4210526315789479
 40
0.4210526315789479
 40
0.4298245614035093
 40
0.4298245614035093
 40
0.4298245614035093
 40
0.4298245614035093
 40
0.4385964912280708
 40
0.4385964912280708
 40
0.4385964912280708
 40
0.4385964912280708
 40
0.4473684210526322
 40
0.4473684210526322
 40
0.4473684210526322
 40
0.4473684210526322
 40
0.4561403508771936
 40
0.4561403508771936
 40
0.4561403508771936
 40
0.4561403508771936
 40
0.4649122807017551
 40
0.4649122807017551
 40
0.4649122807017551
 40
0.4649122807017551
 40
0.4736842105263165
 40
0.4736842105263165
 40
0.4736842105263165
 40
0.4736842105263165
 40
0.4824561403508779
 40
0.4824561403508779
 40
0.4824561403508779
 40
0.4824561403508779
 40
0.4912280701754394
 40
0.4912280701754394
 40
0.4912280701754394
 40
0.4912280701754394
 40
0.5000000000000008
 40
0.5000000000000008
 40
0.5000000000000008
 40
0.5000000000000008
 40
0.5087719298245622
 40
0.5087719298245622
 40
0.5087719298245622
 40
0.5087719298245622
 40
0.5175438596491236
 40
0.5175438596491236
 40
0.5175438596491236
 40
0.5175438596491236
 40
0.5263157894736851
 40
0.5263157894736851
 40
0.5263157894736851
 40
0.5263157894736851
 40
0.5350877192982465
 40
0.5350877192982465
 40
0.5350877192982465
 40
0.5350877192982465
 40
0.5438596491228079
 40
0.5438596491228079
 40
0.5438596491228079
 40
0.5438596491228079
 40
0.5526315789473694
 40
0.5526315789473694
 40
0.5526315789473694
 40
0.5526315789473694
 40
0.5614035087719308
 40
0.5614035087719308
 40
0.5614035087719308
 40
0.5614035087719308
 40
0.5701754385964922
 40
0.5701754385964922
 40
0.5701754385964922
 40
0.5701754385964922
 40
0.5789473684210537
 40
0.5789473684210537
 40
0.5789473684210537
 40
0.5789473684210537
 40
0.5877192982456151
 40
0.5877192982456151
 40
0.5877192982456151
 40
0.5877192982456151
 40
0.5964912280701765
 40
0.5964912280701765
 40
0.5964912280701765
 40
0.5964912280701765
 40
0.605263157894738
 40
0.605263157894738
 40
0.605263157894738
 40
0.605263157894738
 40
0.6140350877192994
 40
0.6140350877192994
 40
0.6140350877192994
 40
0.6140350877192994
 40
0.6228070175438608
 40
0.6228070175438608
 40
0.6228070175438608
 40
0.6228070175438608
 40
0.6315789473684222
 40
0.6315789473684222
 40
0.6315789473684222
 40
0.6315789473684222
 40
0.6403508771929837
 40
0.6403508771929837
 40
0.6403508771929837
 40
0.6403508771929837
 40
0.6491228070175451
 40
0.6491228070175451
 40
0.6491228070175451
 40
0.6491228070175451
 40
0.6578947368421065
 40
0.6578947368421065
 40
0.6578947368421065
 40
0.6578947368421065
 40
0.666666666666668
 40
0.666666666666668
 40
0.666666666666668
 40
0.666666666666668
 40
0.6754385964912294
 40
0.6754385964912294
 40
0.6754385964912294
 40
0.6754385964912294
 40
0.6842105263157908
 40
0.6842105263157908
 40
0.6842105263157908
 40
0.6842105263157908
 40
0.6929824561403523
 40
0.6929824561403523
 40
0.6929824561403523
 40
0.6929824561403523
 40
0.7017543859649137
 40
0.7017543859649137
 40
0.7017543859649137
 40
0.7017543859649137
 40
0.7105263157894751
 40
0.7105263157894751
 40
0.7105263157894751
 40
0.7105263157894751
 40
0.7192982456140366
 40
0.7192982456140366
 40
0.7192982456140366
 40
0.7192982456140366
 40
0.728070175438598
 40
0.728070175438598
 40
0.728070175438598
 40
0.728070175438598
 40
0.7368421052631594
 40
0.7368421052631594
 40
0.7368421052631594
 40
0.7368421052631594
 40
0.7456140350877208
 40
0.7456140350877208
 40
0.7456140350877208
 40
0.7456140350877208
 40
0.7543859649122823
 40
0.7543859649122823
 40
0.7543859649122823
 40
0.7543859649122823
 40
0.7631578947368437
 40
0.7631578947368437
 40
0.7631578947368437
 40
0.7631578947368437
 40
0.7719298245614051
 40
0.7719298245614051
 40
0.7719298245614051
 40
0.7719298245614051
 40
0.7807017543859666
 40
0.7807017543859666
 40
0.7807017543859666
 40
0.7807017543859666
 40
0.789473684210528
 40
0.789473684210528
 40
0.789473684210528
 40
0.789473684210528
 40
0.7982456140350894
 40
0.7982456140350894
 40
0.7982456140350894
 40
0.7982456140350894
 40
0.8070175438596509
 40
0.8070175438596509
 40
0.8070175438596509
 40
0.8070175438596509
 40
0.8157894736842123
 40
0.8157894736842123
 40
0.8157894736842123
 40
0.8157894736842123
 40
0.8245614035087737
 40
0.8245614035087737
 40
0.8245614035087737
 40
0.8245614035087737
 40
0.8333333333333352
 40
0.8333333333333352
 40
0.8333333333333352
 40
0.8333333333333352
 40
0.8421052631578966
 40
0.8421052631578966
 40
0.8421052631578966
 40
0.8421052631578966
 40
0.850877192982458
 40
0.850877192982458
 40
0.850877192982458
 40
0.850877192982458
 40
0.8596491228070194
 40
0.8596491228070194
 40
0.8596491228070194
 40
0.8596491228070194
 40
0.8684210526315809
 40
0.8684210526315809
 40
0.8684210526315809
 40
0.8684210526315809
 40
0.8771929824561423
 40
0.8771929824561423
 40
0.8771929824561423
 40
0.8771929824561423
 40
0.8859649122807037
 40
0.8859649122807037
 40
0.8859649122807037
 40
0.8859649122807037
 40
0.8947368421052652
 40
0.8947368421052652
 40
0.8947368421052652
 40
0.8947368421052652
 40
0.9035087719298266
 40
0.9035087719298266
 40
0.9035087719298266
 40
0.9035087719298266
 40
0.912280701754388
 40
0.912280701754388
 40
0.912280701754388
 40
0.912280701754388
 40
0.9210526315789495
 40
0.9210526315789495
 40
0.9210526315789495
 40
0.9210526315789495
 40
0.9298245614035109
 40
0.9298245614035109
 40
0.9298245614035109
 40
0.9298245614035109
 40
0.9385964912280723
 40
0.9385964912280723
 40
0.9385964912280723
 40
0.9385964912280723
 40
0.9473684210526338
 40
0.9473684210526338
 40
0.9473684210526338
 40
0.9473684210526338
 40
0.9561403508771952
 40
0.9561403508771952
 40
0.9561403508771952
 40
0.9561403508771952
 40
0.9649122807017566
 40
0.9649122807017566
 40
0.9649122807017566
 40
0.9649122807017566
 40
0.973684210526318
 40
0.973684210526318
 40
0.973684210526318
 40
0.973684210526318
 40
0.9824561403508795
 40
0.9824561403508795
 40
0.9824561403508795
 40
0.9824561403508795
 40
0.9912280701754409
 40
0.9912280701754409
 40
0.9912280701754409
 40
0.9912280701754409
 40
1.0
 40
1.0
 40
1.0
 40
1.0
 10
0.7926377952755905
 20
-0.0699566929133858
 30
0.0
 10
0.7926377952755905
 20
-0.0699566929133858
 30
0.0
 10
1.4453818897637796
 20
0.3084645669291339
 30
0.0
 10
1.4453818897637796
 20
0.3084645669291339
 30
0.0
 10
1.4453818897637796
 20
0.3084645669291339
 30
0.0
 10
1.4453818897637796
 20
0.3084645669291339
 30
0.0
 10
1.4450472440944881
 20
0.3084409448818898
 30
0.0
 10
1.4450472440944881
 20
0.3084409448818898
 30
0.0
 10
1.4450472440944881
 20
0.3084409448818898
 30
0.0
 10
1.4450472440944881
 20
0.3084409448818898
 30
0.0
 10
1.4440748031496065
 20
0.3083622047244095
 30
0.0
 10
1.4440748031496065
 20
0.3083622047244095
 30
0.0
 10
1.4440748031496065
 20
0.3083622047244095
 30
0.0
 10
1.4440748031496065
 20
0.3083622047244095
 30
0.0
 10
1.4424842519685039
 20
0.3082677165354331
 30
0.0
 10
1.4424842519685039
 20
0.3082677165354331
 30
0.0
 10
1.4424842519685039
 20
0.3082677165354331
 30
0.0
 10
1.4424842519685039
 20
0.3082677165354331
 30
0.0
 10
1.4403149606299213
 20
0.3081653543307087
 30
0.0
 10
1.4403149606299213
 20
0.3081653543307087
 30
0.0
 10
1.4403149606299213
 20
0.3081653543307087
 30
0.0
 10
1.4403149606299213
 20
0.3081653543307087
 30
0.0
 10
1.4375866141732283
 20
0.3080826771653544
 30
0.0
 10
1.4375866141732283
 20
0.3080826771653544
 30
0.0
 10
1.4375866141732283
 20
0.3080826771653544
 30
0.0
 10
1.4375866141732283
 20
0.3080826771653544
 30
0.0
 10
1.4343425196850395
 20
0.3080314960629921
 30
0.0
 10
1.4343425196850395
 20
0.3080314960629921
 30
0.0
 10
1.4343425196850395
 20
0.3080314960629921
 30
0.0
 10
1.4343425196850395
 20
0.3080314960629921
 30
0.0
 10
1.4306023622047244
 20
0.3080433070866142
 30
0.0
 10
1.4306023622047244
 20
0.3080433070866142
 30
0.0
 10
1.4306023622047244
 20
0.3080433070866142
 30
0.0
 10
1.4306023622047244
 20
0.3080433070866142
 30
0.0
 10
1.4264055118110237
 20
0.3081220472440945
 30
0.0
 10
1.4264055118110237
 20
0.3081220472440945
 30
0.0
 10
1.4264055118110237
 20
0.3081220472440945
 30
0.0
 10
1.4264055118110237
 20
0.3081220472440945
 30
0.0
 10
1.4217637795275591
 20
0.3083070866141732
 30
0.0
 10
1.4217637795275591
 20
0.3083070866141732
 30
0.0
 10
1.4217637795275591
 20
0.3083070866141732
 30
0.0
 10
1.4217637795275591
 20
0.3083070866141732
 30
0.0
 10
1.4167244094488189
 20
0.3086062992125984
 30
0.0
 10
1.4167244094488189
 20
0.3086062992125984
 30
0.0
 10
1.4167244094488189
 20
0.3086062992125984
 30
0.0
 10
1.4167244094488189
 20
0.3086062992125984
 30
0.0
 10
1.4113070866141733
 20
0.3090472440944882
 30
0.0
 10
1.4113070866141733
 20
0.3090472440944882
 30
0.0
 10
1.4113070866141733
 20
0.3090472440944882
 30
0.0
 10
1.4113070866141733
 20
0.3090472440944882
 30
0.0
 10
1.4055551181102364
 20
0.3096377952755905
 30
0.0
 10
1.4055551181102364
 20
0.3096377952755905
 30
0.0
 10
1.4055551181102364
 20
0.3096377952755905
 30
0.0
 10
1.4055551181102364
 20
0.3096377952755905
 30
0.0
 10
1.399484251968504
 20
0.3104173228346457
 30
0.0
 10
1.399484251968504
 20
0.3104173228346457
 30
0.0
 10
1.399484251968504
 20
0.3104173228346457
 30
0.0
 10
1.399484251968504
 20
0.3104173228346457
 30
0.0
 10
1.3931338582677166
 20
0.3113897637795276
 30
0.0
 10
1.3931338582677166
 20
0.3113897637795276
 30
0.0
 10
1.3931338582677166
 20
0.3113897637795276
 30
0.0
 10
1.3931338582677166
 20
0.3113897637795276
 30
0.0
 10
1.3865236220472441
 20
0.3125826771653543
 30
0.0
 10
1.3865236220472441
 20
0.3125826771653543
 30
0.0
 10
1.3865236220472441
 20
0.3125826771653543
 30
0.0
 10
1.3865236220472441
 20
0.3125826771653543
 30
0.0
 10
1.3797007874015748
 20
0.3140118110236221
 30
0.0
 10
1.3797007874015748
 20
0.3140118110236221
 30
0.0
 10
1.3797007874015748
 20
0.3140118110236221
 30
0.0
 10
1.3797007874015748
 20
0.3140118110236221
 30
0.0
 10
1.3726732283464567
 20
0.3157125984251969
 30
0.0
 10
1.3726732283464567
 20
0.3157125984251969
 30
0.0
 10
1.3726732283464567
 20
0.3157125984251969
 30
0.0
 10
1.3726732283464567
 20
0.3157125984251969
 30
0.0
 10
1.365484251968504
 20
0.3176850393700788
 30
0.0
 10
1.365484251968504
 20
0.3176850393700788
 30
0.0
 10
1.365484251968504
 20
0.3176850393700788
 30
0.0
 10
1.365484251968504
 20
0.3176850393700788
 30
0.0
 10
1.3581614173228347
 20
0.3199606299212598
 30
0.0
 10
1.3581614173228347
 20
0.3199606299212598
 30
0.0
 10
1.3581614173228347
 20
0.3199606299212598
 30
0.0
 10
1.3581614173228347
 20
0.3199606299212598
 30
0.0
 10
1.3507401574803151
 20
0.3225551181102362
 30
0.0
 10
1.3507401574803151
 20
0.3225551181102362
 30
0.0
 10
1.3507401574803151
 20
0.3225551181102362
 30
0.0
 10
1.3507401574803151
 20
0.3225551181102362
 30
0.0
 10
1.3432362204724411
 20
0.325496062992126
 30
0.0
 10
1.3432362204724411
 20
0.325496062992126
 30
0.0
 10
1.3432362204724411
 20
0.325496062992126
 30
0.0
 10
1.3432362204724411
 20
0.325496062992126
 30
0.0
 10
1.3356929133858269
 20
0.3287874015748032
 30
0.0
 10
1.3356929133858269
 20
0.3287874015748032
 30
0.0
 10
1.3356929133858269
 20
0.3287874015748032
 30
0.0
 10
1.3356929133858269
 20
0.3287874015748032
 30
0.0
 10
1.3281338582677167
 20
0.3324645669291339
 30
0.0
 10
1.3281338582677167
 20
0.3324645669291339
 30
0.0
 10
1.3281338582677167
 20
0.3324645669291339
 30
0.0
 10
1.3281338582677167
 20
0.3324645669291339
 30
0.0
 10
1.3205984251968503
 20
0.3365433070866142
 30
0.0
 10
1.3205984251968503
 20
0.3365433070866142
 30
0.0
 10
1.3205984251968503
 20
0.3365433070866142
 30
0.0
 10
1.3205984251968503
 20
0.3365433070866142
 30
0.0
 10
1.3130984251968505
 20
0.3410472440944882
 30
0.0
 10
1.3130984251968505
 20
0.3410472440944882
 30
0.0
 10
1.3130984251968505
 20
0.3410472440944882
 30
0.0
 10
1.3130984251968505
 20
0.3410472440944882
 30
0.0
 10
1.3056771653543306
 20
0.345996062992126
 30
0.0
 10
1.3056771653543306
 20
0.345996062992126
 30
0.0
 10
1.3056771653543306
 20
0.345996062992126
 30
0.0
 10
1.3056771653543306
 20
0.345996062992126
 30
0.0
 10
1.2983622047244094
 20
0.3514055118110236
 30
0.0
 10
1.2983622047244094
 20
0.3514055118110236
 30
0.0
 10
1.2983622047244094
 20
0.3514055118110236
 30
0.0
 10
1.2983622047244094
 20
0.3514055118110236
 30
0.0
 10
1.2911889763779527
 20
0.3572952755905512
 30
0.0
 10
1.2911889763779527
 20
0.3572952755905512
 30
0.0
 10
1.2911889763779527
 20
0.3572952755905512
 30
0.0
 10
1.2911889763779527
 20
0.3572952755905512
 30
0.0
 10
1.2841732283464566
 20
0.3636968503937008
 30
0.0
 10
1.2841732283464566
 20
0.3636968503937008
 30
0.0
 10
1.2841732283464566
 20
0.3636968503937008
 30
0.0
 10
1.2841732283464566
 20
0.3636968503937008
 30
0.0
 10
1.2773582677165354
 20
0.3706102362204725
 30
0.0
 10
1.2773582677165354
 20
0.3706102362204725
 30
0.0
 10
1.2773582677165354
 20
0.3706102362204725
 30
0.0
 10
1.2773582677165354
 20
0.3706102362204725
 30
0.0
 10
1.270763779527559
 20
0.3780748031496063
 30
0.0
 10
1.270763779527559
 20
0.3780748031496063
 30
0.0
 10
1.270763779527559
 20
0.3780748031496063
 30
0.0
 10
1.270763779527559
 20
0.3780748031496063
 30
0.0
 10
1.2644330708661418
 20
0.3860984251968504
 30
0.0
 10
1.2644330708661418
 20
0.3860984251968504
 30
0.0
 10
1.2644330708661418
 20
0.3860984251968504
 30
0.0
 10
1.2644330708661418
 20
0.3860984251968504
 30
0.0
 10
1.2581220472440946
 20
0.394244094488189
 30
0.0
 10
1.2581220472440946
 20
0.394244094488189
 30
0.0
 10
1.2581220472440946
 20
0.394244094488189
 30
0.0
 10
1.2581220472440946
 20
0.394244094488189
 30
0.0
 10
1.2516141732283466
 20
0.4020078740157481
 30
0.0
 10
1.2516141732283466
 20
0.4020078740157481
 30
0.0
 10
1.2516141732283466
 20
0.4020078740157481
 30
0.0
 10
1.2516141732283466
 20
0.4020078740157481
 30
0.0
 10
1.2449133858267718
 20
0.4093897637795276
 30
0.0
 10
1.2449133858267718
 20
0.4093897637795276
 30
0.0
 10
1.2449133858267718
 20
0.4093897637795276
 30
0.0
 10
1.2449133858267718
 20
0.4093897637795276
 30
0.0
 10
1.2380354330708663
 20
0.4163622047244095
 30
0.0
 10
1.2380354330708663
 20
0.4163622047244095
 30
0.0
 10
1.2380354330708663
 20
0.4163622047244095
 30
0.0
 10
1.2380354330708663
 20
0.4163622047244095
 30
0.0
 10
1.2309842519685039
 20
0.4229173228346457
 30
0.0
 10
1.2309842519685039
 20
0.4229173228346457
 30
0.0
 10
1.2309842519685039
 20
0.4229173228346457
 30
0.0
 10
1.2309842519685039
 20
0.4229173228346457
 30
0.0
 10
1.2237795275590551
 20
0.4290275590551181
 30
0.0
 10
1.2237795275590551
 20
0.4290275590551181
 30
0.0
 10
1.2237795275590551
 20
0.4290275590551181
 30
0.0
 10
1.2237795275590551
 20
0.4290275590551181
 30
0.0
 10
1.2164291338582678
 20
0.4346811023622048
 30
0.0
 10
1.2164291338582678
 20
0.4346811023622048
 30
0.0
 10
1.2164291338582678
 20
0.4346811023622048
 30
0.0
 10
1.2164291338582678
 20
0.4346811023622048
 30
0.0
 10
1.2089488188976378
 20
0.4398582677165355
 30
0.0
 10
1.2089488188976378
 20
0.4398582677165355
 30
0.0
 10
1.2089488188976378
 20
0.4398582677165355
 30
0.0
 10
1.2089488188976378
 20
0.4398582677165355
 30
0.0
 10
1.2013385826771654
 20
0.4445551181102362
 30
0.0
 10
1.2013385826771654
 20
0.4445551181102362
 30
0.0
 10
1.2013385826771654
 20
0.4445551181102362
 30
0.0
 10
1.2013385826771654
 20
0.4445551181102362
 30
0.0
 10
1.1936220472440946
 20
0.4487362204724409
 30
0.0
 10
1.1936220472440946
 20
0.4487362204724409
 30
0.0
 10
1.1936220472440946
 20
0.4487362204724409
 30
0.0
 10
1.1936220472440946
 20
0.4487362204724409
 30
0.0
 10
1.1858031496062993
 20
0.4523937007874016
 30
0.0
 10
1.1858031496062993
 20
0.4523937007874016
 30
0.0
 10
1.1858031496062993
 20
0.4523937007874016
 30
0.0
 10
1.1858031496062993
 20
0.4523937007874016
 30
0.0
 10
1.1779055118110238
 20
0.4555039370078741
 30
0.0
 10
1.1779055118110238
 20
0.4555039370078741
 30
0.0
 10
1.1779055118110238
 20
0.4555039370078741
 30
0.0
 10
1.1779055118110238
 20
0.4555039370078741
 30
0.0
 10
1.1699251968503936
 20
0.4580629921259843
 30
0.0
 10
1.1699251968503936
 20
0.4580629921259843
 30
0.0
 10
1.1699251968503936
 20
0.4580629921259843
 30
0.0
 10
1.1699251968503936
 20
0.4580629921259843
 30
0.0
 10
1.1618897637795276
 20
0.4600393700787402
 30
0.0
 10
1.1618897637795276
 20
0.4600393700787402
 30
0.0
 10
1.1618897637795276
 20
0.4600393700787402
 30
0.0
 10
1.1618897637795276
 20
0.4600393700787402
 30
0.0
 10
1.1537952755905512
 20
0.4614251968503937
 30
0.0
 10
1.1537952755905512
 20
0.4614251968503937
 30
0.0
 10
1.1537952755905512
 20
0.4614251968503937
 30
0.0
 10
1.1537952755905512
 20
0.4614251968503937
 30
0.0
 10
1.1456653543307087
 20
0.4621929133858268
 30
0.0
 10
1.1456653543307087
 20
0.4621929133858268
 30
0.0
 10
1.1456653543307087
 20
0.4621929133858268
 30
0.0
 10
1.1456653543307087
 20
0.4621929133858268
 30
0.0
 10
1.1375
 20
0.4623425196850394
 30
0.0
 10
1.1375
 20
0.4623425196850394
 30
0.0
 10
1.1375
 20
0.4623425196850394
 30
0.0
 10
1.1375
 20
0.4623425196850394
 30
0.0
 10
1.1293228346456694
 20
0.4618425196850394
 30
0.0
 10
1.1293228346456694
 20
0.4618425196850394
 30
0.0
 10
1.1293228346456694
 20
0.4618425196850394
 30
0.0
 10
1.1293228346456694
 20
0.4618425196850394
 30
0.0
 10
1.1211338582677166
 20
0.4606811023622047
 30
0.0
 10
1.1211338582677166
 20
0.4606811023622047
 30
0.0
 10
1.1211338582677166
 20
0.4606811023622047
 30
0.0
 10
1.1211338582677166
 20
0.4606811023622047
 30
0.0
 10
1.11296062992126
 20
0.4588346456692913
 30
0.0
 10
1.11296062992126
 20
0.4588346456692913
 30
0.0
 10
1.11296062992126
 20
0.4588346456692913
 30
0.0
 10
1.11296062992126
 20
0.4588346456692913
 30
0.0
 10
1.1047992125984252
 20
0.4562992125984252
 30
0.0
 10
1.1047992125984252
 20
0.4562992125984252
 30
0.0
 10
1.1047992125984252
 20
0.4562992125984252
 30
0.0
 10
1.1047992125984252
 20
0.4562992125984252
 30
0.0
 10
1.0966692913385827
 20
0.4530472440944882
 30
0.0
 10
1.0966692913385827
 20
0.4530472440944882
 30
0.0
 10
1.0966692913385827
 20
0.4530472440944882
 30
0.0
 10
1.0966692913385827
 20
0.4530472440944882
 30
0.0
 10
1.0885787401574805
 20
0.4490629921259843
 30
0.0
 10
1.0885787401574805
 20
0.4490629921259843
 30
0.0
 10
1.0885787401574805
 20
0.4490629921259843
 30
0.0
 10
1.0885787401574805
 20
0.4490629921259843
 30
0.0
 10
1.0805511811023623
 20
0.4443267716535433
 30
0.0
 10
1.0805511811023623
 20
0.4443267716535433
 30
0.0
 10
1.0805511811023623
 20
0.4443267716535433
 30
0.0
 10
1.0805511811023623
 20
0.4443267716535433
 30
0.0
 10
0.4278070866141733
 20
0.0659055118110236
 30
0.0
 10
0.4278070866141733
 20
0.0659055118110236
 30
0.0
 10
0.4278070866141733
 20
0.0659055118110236
 30
0.0
 10
0.4278070866141733
 20
0.0659055118110236
 30
0.0
 10
0.4358346456692914
 20
0.0706417322834646
 30
0.0
 10
0.4358346456692914
 20
0.0706417322834646
 30
0.0
 10
0.4358346456692914
 20
0.0706417322834646
 30
0.0
 10
0.4358346456692914
 20
0.0706417322834646
 30
0.0
 10
0.4439251968503937
 20
0.0746259842519685
 30
0.0
 10
0.4439251968503937
 20
0.0746259842519685
 30
0.0
 10
0.4439251968503937
 20
0.0746259842519685
 30
0.0
 10
0.4439251968503937
 20
0.0746259842519685
 30
0.0
 10
0.4520551181102362
 20
0.0778779527559055
 30
0.0
 10
0.4520551181102362
 20
0.0778779527559055
 30
0.0
 10
0.4520551181102362
 20
0.0778779527559055
 30
0.0
 10
0.4520551181102362
 20
0.0778779527559055
 30
0.0
 10
0.4602165354330709
 20
0.0804133858267717
 30
0.0
 10
0.4602165354330709
 20
0.0804133858267717
 30
0.0
 10
0.4602165354330709
 20
0.0804133858267717
 30
0.0
 10
0.4602165354330709
 20
0.0804133858267717
 30
0.0
 10
0.4683897637795276
 20
0.082259842519685
 30
0.0
 10
0.4683897637795276
 20
0.082259842519685
 30
0.0
 10
0.4683897637795276
 20
0.082259842519685
 30
0.0
 10
0.4683897637795276
 20
0.082259842519685
 30
0.0
 10
0.4765787401574803
 20
0.0834212598425197
 30
0.0
 10
0.4765787401574803
 20
0.0834212598425197
 30
0.0
 10
0.4765787401574803
 20
0.0834212598425197
 30
0.0
 10
0.4765787401574803
 20
0.0834212598425197
 30
0.0
 10
0.484755905511811
 20
0.0839212598425197
 30
0.0
 10
0.484755905511811
 20
0.0839212598425197
 30
0.0
 10
0.484755905511811
 20
0.0839212598425197
 30
0.0
 10
0.484755905511811
 20
0.0839212598425197
 30
0.0
 10
0.4929212598425197
 20
0.0837716535433071
 30
0.0
 10
0.4929212598425197
 20
0.0837716535433071
 30
0.0
 10
0.4929212598425197
 20
0.0837716535433071
 30
0.0
 10
0.4929212598425197
 20
0.0837716535433071
 30
0.0
 10
0.5010511811023622
 20
0.083003937007874
 30
0.0
 10
0.5010511811023622
 20
0.083003937007874
 30
0.0
 10
0.5010511811023622
 20
0.083003937007874
 30
0.0
 10
0.5010511811023622
 20
0.083003937007874
 30
0.0
 10
0.5091456692913386
 20
0.0816181102362205
 30
0.0
 10
0.5091456692913386
 20
0.0816181102362205
 30
0.0
 10
0.5091456692913386
 20
0.0816181102362205
 30
0.0
 10
0.5091456692913386
 20
0.0816181102362205
 30
0.0
 10
0.5171811023622047
 20
0.0796417322834646
 30
0.0
 10
0.5171811023622047
 20
0.0796417322834646
 30
0.0
 10
0.5171811023622047
 20
0.0796417322834646
 30
0.0
 10
0.5171811023622047
 20
0.0796417322834646
 30
0.0
 10
0.5251614173228346
 20
0.0770826771653543
 30
0.0
 10
0.5251614173228346
 20
0.0770826771653543
 30
0.0
 10
0.5251614173228346
 20
0.0770826771653543
 30
0.0
 10
0.5251614173228346
 20
0.0770826771653543
 30
0.0
 10
0.5330590551181103
 20
0.0739724409448819
 30
0.0
 10
0.5330590551181103
 20
0.0739724409448819
 30
0.0
 10
0.5330590551181103
 20
0.0739724409448819
 30
0.0
 10
0.5330590551181103
 20
0.0739724409448819
 30
0.0
 10
0.5408779527559056
 20
0.0703149606299213
 30
0.0
 10
0.5408779527559056
 20
0.0703149606299213
 30
0.0
 10
0.5408779527559056
 20
0.0703149606299213
 30
0.0
 10
0.5408779527559056
 20
0.0703149606299213
 30
0.0
 10
0.5485944881889764
 20
0.0661338582677165
 30
0.0
 10
0.5485944881889764
 20
0.0661338582677165
 30
0.0
 10
0.5485944881889764
 20
0.0661338582677165
 30
0.0
 10
0.5485944881889764
 20
0.0661338582677165
 30
0.0
 10
0.5562047244094488
 20
0.0614370078740158
 30
0.0
 10
0.5562047244094488
 20
0.0614370078740158
 30
0.0
 10
0.5562047244094488
 20
0.0614370078740158
 30
0.0
 10
0.5562047244094488
 20
0.0614370078740158
 30
0.0
 10
0.5636850393700787
 20
0.056259842519685
 30
0.0
 10
0.5636850393700787
 20
0.056259842519685
 30
0.0
 10
0.5636850393700787
 20
0.056259842519685
 30
0.0
 10
0.5636850393700787
 20
0.056259842519685
 30
0.0
 10
0.5710354330708661
 20
0.0506062992125984
 30
0.0
 10
0.5710354330708661
 20
0.0506062992125984
 30
0.0
 10
0.5710354330708661
 20
0.0506062992125984
 30
0.0
 10
0.5710354330708661
 20
0.0506062992125984
 30
0.0
 10
0.578240157480315
 20
0.044496062992126
 30
0.0
 10
0.578240157480315
 20
0.044496062992126
 30
0.0
 10
0.578240157480315
 20
0.044496062992126
 30
0.0
 10
0.578240157480315
 20
0.044496062992126
 30
0.0
 10
0.5852913385826772
 20
0.0379409448818898
 30
0.0
 10
0.5852913385826772
 20
0.0379409448818898
 30
0.0
 10
0.5852913385826772
 20
0.0379409448818898
 30
0.0
 10
0.5852913385826772
 20
0.0379409448818898
 30
0.0
 10
0.5921692913385827
 20
0.0309685039370079
 30
0.0
 10
0.5921692913385827
 20
0.0309685039370079
 30
0.0
 10
0.5921692913385827
 20
0.0309685039370079
 30
0.0
 10
0.5921692913385827
 20
0.0309685039370079
 30
0.0
 10
0.5988700787401575
 20
0.0235866141732283
 30
0.0
 10
0.5988700787401575
 20
0.0235866141732283
 30
0.0
 10
0.5988700787401575
 20
0.0235866141732283
 30
0.0
 10
0.5988700787401575
 20
0.0235866141732283
 30
0.0
 10
0.6053779527559056
 20
0.0158228346456693
 30
0.0
 10
0.6053779527559056
 20
0.0158228346456693
 30
0.0
 10
0.6053779527559056
 20
0.0158228346456693
 30
0.0
 10
0.6053779527559056
 20
0.0158228346456693
 30
0.0
 10
0.6116889763779528
 20
0.0076771653543307
 30
0.0
 10
0.6116889763779528
 20
0.0076771653543307
 30
0.0
 10
0.6116889763779528
 20
0.0076771653543307
 30
0.0
 10
0.6116889763779528
 20
0.0076771653543307
 30
0.0
 10
0.6180196850393701
 20
-0.0003464566929134
 30
0.0
 10
0.6180196850393701
 20
-0.0003464566929134
 30
0.0
 10
0.6180196850393701
 20
-0.0003464566929134
 30
0.0
 10
0.6180196850393701
 20
-0.0003464566929134
 30
0.0
 10
0.6246141732283465
 20
-0.0078110236220472
 30
0.0
 10
0.6246141732283465
 20
-0.0078110236220472
 30
0.0
 10
0.6246141732283465
 20
-0.0078110236220472
 30
0.0
 10
0.6246141732283465
 20
-0.0078110236220472
 30
0.0
 10
0.6314291338582677
 20
-0.0147244094488189
 30
0.0
 10
0.6314291338582677
 20
-0.0147244094488189
 30
0.0
 10
0.6314291338582677
 20
-0.0147244094488189
 30
0.0
 10
0.6314291338582677
 20
-0.0147244094488189
 30
0.0
 10
0.6384448818897638
 20
-0.0211259842519685
 30
0.0
 10
0.6384448818897638
 20
-0.0211259842519685
 30
0.0
 10
0.6384448818897638
 20
-0.0211259842519685
 30
0.0
 10
0.6384448818897638
 20
-0.0211259842519685
 30
0.0
 10
0.6456181102362205
 20
-0.0270157480314961
 30
0.0
 10
0.6456181102362205
 20
-0.0270157480314961
 30
0.0
 10
0.6456181102362205
 20
-0.0270157480314961
 30
0.0
 10
0.6456181102362205
 20
-0.0270157480314961
 30
0.0
 10
0.6529330708661417
 20
-0.0324251968503937
 30
0.0
 10
0.6529330708661417
 20
-0.0324251968503937
 30
0.0
 10
0.6529330708661417
 20
-0.0324251968503937
 30
0.0
 10
0.6529330708661417
 20
-0.0324251968503937
 30
0.0
 10
0.6603543307086615
 20
-0.0373740157480315
 30
0.0
 10
0.6603543307086615
 20
-0.0373740157480315
 30
0.0
 10
0.6603543307086615
 20
-0.0373740157480315
 30
0.0
 10
0.6603543307086615
 20
-0.0373740157480315
 30
0.0
 10
0.6678543307086614
 20
-0.0418779527559055
 30
0.0
 10
0.6678543307086614
 20
-0.0418779527559055
 30
0.0
 10
0.6678543307086614
 20
-0.0418779527559055
 30
0.0
 10
0.6678543307086614
 20
-0.0418779527559055
 30
0.0
 10
0.6753897637795275
 20
-0.0459566929133858
 30
0.0
 10
0.6753897637795275
 20
-0.0459566929133858
 30
0.0
 10
0.6753897637795275
 20
-0.0459566929133858
 30
0.0
 10
0.6753897637795275
 20
-0.0459566929133858
 30
0.0
 10
0.6829488188976378
 20
-0.0496338582677165
 30
0.0
 10
0.6829488188976378
 20
-0.0496338582677165
 30
0.0
 10
0.6829488188976378
 20
-0.0496338582677165
 30
0.0
 10
0.6829488188976378
 20
-0.0496338582677165
 30
0.0
 10
0.690492125984252
 20
-0.0529251968503937
 30
0.0
 10
0.690492125984252
 20
-0.0529251968503937
 30
0.0
 10
0.690492125984252
 20
-0.0529251968503937
 30
0.0
 10
0.690492125984252
 20
-0.0529251968503937
 30
0.0
 10
0.697996062992126
 20
-0.0558661417322835
 30
0.0
 10
0.697996062992126
 20
-0.0558661417322835
 30
0.0
 10
0.697996062992126
 20
-0.0558661417322835
 30
0.0
 10
0.697996062992126
 20
-0.0558661417322835
 30
0.0
 10
0.7054173228346456
 20
-0.0584606299212598
 30
0.0
 10
0.7054173228346456
 20
-0.0584606299212598
 30
0.0
 10
0.7054173228346456
 20
-0.0584606299212598
 30
0.0
 10
0.7054173228346456
 20
-0.0584606299212598
 30
0.0
 10
0.7127401574803149
 20
-0.0607362204724409
 30
0.0
 10
0.7127401574803149
 20
-0.0607362204724409
 30
0.0
 10
0.7127401574803149
 20
-0.0607362204724409
 30
0.0
 10
0.7127401574803149
 20
-0.0607362204724409
 30
0.0
 10
0.7199291338582677
 20
-0.0627086614173228
 30
0.0
 10
0.7199291338582677
 20
-0.0627086614173228
 30
0.0
 10
0.7199291338582677
 20
-0.0627086614173228
 30
0.0
 10
0.7199291338582677
 20
-0.0627086614173228
 30
0.0
 10
0.7269566929133858
 20
-0.0644094488188976
 30
0.0
 10
0.7269566929133858
 20
-0.0644094488188976
 30
0.0
 10
0.7269566929133858
 20
-0.0644094488188976
 30
0.0
 10
0.7269566929133858
 20
-0.0644094488188976
 30
0.0
 10
0.7337795275590552
 20
-0.0658385826771654
 30
0.0
 10
0.7337795275590552
 20
-0.0658385826771654
 30
0.0
 10
0.7337795275590552
 20
-0.0658385826771654
 30
0.0
 10
0.7337795275590552
 20
-0.0658385826771654
 30
0.0
 10
0.7403897637795276
 20
-0.0670314960629921
 30
0.0
 10
0.7403897637795276
 20
-0.0670314960629921
 30
0.0
 10
0.7403897637795276
 20
-0.0670314960629921
 30
0.0
 10
0.7403897637795276
 20
-0.0670314960629921
 30
0.0
 10
0.746740157480315
 20
-0.068003937007874
 30
0.0
 10
0.746740157480315
 20
-0.068003937007874
 30
0.0
 10
0.746740157480315
 20
-0.068003937007874
 30
0.0
 10
0.746740157480315
 20
-0.068003937007874
 30
0.0
 10
0.7528110236220473
 20
-0.0687834645669291
 30
0.0
 10
0.7528110236220473
 20
-0.0687834645669291
 30
0.0
 10
0.7528110236220473
 20
-0.0687834645669291
 30
0.0
 10
0.7528110236220473
 20
-0.0687834645669291
 30
0.0
 10
0.7585629921259843
 20
-0.0693740157480315
 30
0.0
 10
0.7585629921259843
 20
-0.0693740157480315
 30
0.0
 10
0.7585629921259843
 20
-0.0693740157480315
 30
0.0
 10
0.7585629921259843
 20
-0.0693740157480315
 30
0.0
 10
0.7639803149606299
 20
-0.0698149606299213
 30
0.0
 10
0.7639803149606299
 20
-0.0698149606299213
 30
0.0
 10
0.7639803149606299
 20
-0.0698149606299213
 30
0.0
 10
0.7639803149606299
 20
-0.0698149606299213
 30
0.0
 10
0.7690196850393701
 20
-0.0701141732283465
 30
0.0
 10
0.7690196850393701
 20
-0.0701141732283465
 30
0.0
 10
0.7690196850393701
 20
-0.0701141732283465
 30
0.0
 10
0.7690196850393701
 20
-0.0701141732283465
 30
0.0
 10
0.7736614173228347
 20
-0.0702992125984252
 30
0.0
 10
0.7736614173228347
 20
-0.0702992125984252
 30
0.0
 10
0.7736614173228347
 20
-0.0702992125984252
 30
0.0
 10
0.7736614173228347
 20
-0.0702992125984252
 30
0.0
 10
0.7778582677165354
 20
-0.0703779527559055
 30
0.0
 10
0.7778582677165354
 20
-0.0703779527559055
 30
0.0
 10
0.7778582677165354
 20
-0.0703779527559055
 30
0.0
 10
0.7778582677165354
 20
-0.0703779527559055
 30
0.0
 10
0.7815984251968504
 20
-0.0703897637795276
 30
0.0
 10
0.7815984251968504
 20
-0.0703897637795276
 30
0.0
 10
0.7815984251968504
 20
-0.0703897637795276
 30
0.0
 10
0.7815984251968504
 20
-0.0703897637795276
 30
0.0
 10
0.7848425196850394
 20
-0.0703385826771654
 30
0.0
 10
0.7848425196850394
 20
-0.0703385826771654
 30
0.0
 10
0.7848425196850394
 20
-0.0703385826771654
 30
0.0
 10
0.7848425196850394
 20
-0.0703385826771654
 30
0.0
 10
0.7875708661417323
 20
-0.070255905511811
 30
0.0
 10
0.7875708661417323
 20
-0.070255905511811
 30
0.0
 10
0.7875708661417323
 20
-0.070255905511811
 30
0.0
 10
0.7875708661417323
 20
-0.070255905511811
 30
0.0
 10
0.789740157480315
 20
-0.0701535433070866
 30
0.0
 10
0.789740157480315
 20
-0.0701535433070866
 30
0.0
 10
0.789740157480315
 20
-0.0701535433070866
 30
0.0
 10
0.789740157480315
 20
-0.0701535433070866
 30
0.0
 10
0.7913307086614173
 20
-0.0700590551181102
 30
0.0
 10
0.7913307086614173
 20
-0.0700590551181102
 30
0.0
 10
0.7913307086614173
 20
-0.0700590551181102
 30
0.0
 10
0.7913307086614173
 20
-0.0700590551181102
 30
0.0
 10
0.7923031496062992
 20
-0.0699803149606299
 30
0.0
 10
0.7923031496062992
 20
-0.0699803149606299
 30
0.0
 10
0.7923031496062992
 20
-0.0699803149606299
 30
0.0
 10
0.7923031496062992
 20
-0.0699803149606299
 30
0.0
 10
0.7926377952755905
 20
-0.0699566929133858
 30
0.0
 10
0.7926377952755905
 20
-0.0699566929133858
 30
0.0
  0
SPLINE
  5
5B
100
AcDbEntity
  8
P1-Layer 1
100
AcDbSpline
210
0.0
220
0.0
230
1.0
 70
     1
 71
     3
 72
    60
 73
    56
 74
     0
 42
0.0000000001
 43
0.0000000001
 40
0.0
 40
0.0
 40
0.0
 40
0.0
 40
0.0714285714285714
 40
0.0714285714285714
 40
0.0714285714285714
 40
0.0714285714285714
 40
0.1428571428571429
 40
0.1428571428571429
 40
0.1428571428571429
 40
0.1428571428571429
 40
0.2142857142857143
 40
0.2142857142857143
 40
0.2142857142857143
 40
0.2142857142857143
 40
0.2857142857142857
 40
0.2857142857142857
 40
0.2857142857142857
 40
0.2857142857142857
 40
0.3571428571428571
 40
0.3571428571428571
 40
0.3571428571428571
 40
0.3571428571428571
 40
0.4285714285714285
 40
0.4285714285714285
 40
0.4285714285714285
 40
0.4285714285714285
 40
0.4999999999999999
 40
0.4999999999999999
 40
0.4999999999999999
 40
0.4999999999999999
 40
0.5714285714285713
 40
0.5714285714285713
 40
0.5714285714285713
 40
0.5714285714285713
 40
0.6428571428571427
 40
0.6428571428571427
 40
0.6428571428571427
 40
0.6428571428571427
 40
0.7142857142857141
 40
0.7142857142857141
 40
0.7142857142857141
 40
0.7142857142857141
 40
0.7857142857142855
 40
0.7857142857142855
 40
0.7857142857142855
 40
0.7857142857142855
 40
0.8571428571428569
 40
0.8571428571428569
 40
0.8571428571428569
 40
0.8571428571428569
 40
0.9285714285714283
 40
0.9285714285714283
 40
0.9285714285714283
 40
0.9285714285714283
 40
1.0
 40
1.0
 40
1.0
 40
1.0
 10
-1.0825787401574805
 20
-0.0418779527559055
 30
0.0
 10
-1.0825787401574805
 20
-0.0418779527559055
 30
0.0
 10
-0.4298346456692914
 20
0.3365433070866142
 30
0.0
 10
-0.4298346456692914
 20
0.3365433070866142
 30
0.0
 10
-0.4298346456692914
 20
0.3365433070866142
 30
0.0
 10
-0.4298346456692914
 20
0.3365433070866142
 30
0.0
 10
-0.4373700787401575
 20
0.3324645669291339
 30
0.0
 10
-0.4373700787401575
 20
0.3324645669291339
 30
0.0
 10
-0.4373700787401575
 20
0.3324645669291339
 30
0.0
 10
-0.4373700787401575
 20
0.3324645669291339
 30
0.0
 10
-0.4449291338582677
 20
0.3287874015748032
 30
0.0
 10
-0.4449291338582677
 20
0.3287874015748032
 30
0.0
 10
-0.4449291338582677
 20
0.3287874015748032
 30
0.0
 10
-0.4449291338582677
 20
0.3287874015748032
 30
0.0
 10
-0.4524724409448819
 20
0.325496062992126
 30
0.0
 10
-0.4524724409448819
 20
0.325496062992126
 30
0.0
 10
-0.4524724409448819
 20
0.325496062992126
 30
0.0
 10
-0.4524724409448819
 20
0.325496062992126
 30
0.0
 10
-0.4599763779527559
 20
0.3225551181102362
 30
0.0
 10
-0.4599763779527559
 20
0.3225551181102362
 30
0.0
 10
-0.4599763779527559
 20
0.3225551181102362
 30
0.0
 10
-0.4599763779527559
 20
0.3225551181102362
 30
0.0
 10
-0.4673976377952756
 20
0.3199606299212598
 30
0.0
 10
-0.4673976377952756
 20
0.3199606299212598
 30
0.0
 10
-0.4673976377952756
 20
0.3199606299212598
 30
0.0
 10
-0.4673976377952756
 20
0.3199606299212598
 30
0.0
 10
-0.4747204724409449
 20
0.3176850393700788
 30
0.0
 10
-0.4747204724409449
 20
0.3176850393700788
 30
0.0
 10
-0.4747204724409449
 20
0.3176850393700788
 30
0.0
 10
-0.4747204724409449
 20
0.3176850393700788
 30
0.0
 10
-1.1274645669291339
 20
-0.0607362204724409
 30
0.0
 10
-1.1274645669291339
 20
-0.0607362204724409
 30
0.0
 10
-1.1274645669291339
 20
-0.0607362204724409
 30
0.0
 10
-1.1274645669291339
 20
-0.0607362204724409
 30
0.0
 10
-1.1201417322834646
 20
-0.0584606299212598
 30
0.0
 10
-1.1201417322834646
 20
-0.0584606299212598
 30
0.0
 10
-1.1201417322834646
 20
-0.0584606299212598
 30
0.0
 10
-1.1201417322834646
 20
-0.0584606299212598
 30
0.0
 10
-1.112720472440945
 20
-0.0558661417322835
 30
0.0
 10
-1.112720472440945
 20
-0.0558661417322835
 30
0.0
 10
-1.112720472440945
 20
-0.0558661417322835
 30
0.0
 10
-1.112720472440945
 20
-0.0558661417322835
 30
0.0
 10
-1.105216535433071
 20
-0.0529251968503937
 30
0.0
 10
-1.105216535433071
 20
-0.0529251968503937
 30
0.0
 10
-1.105216535433071
 20
-0.0529251968503937
 30
0.0
 10
-1.105216535433071
 20
-0.0529251968503937
 30
0.0
 10
-1.0976732283464568
 20
-0.0496338582677165
 30
0.0
 10
-1.0976732283464568
 20
-0.0496338582677165
 30
0.0
 10
-1.0976732283464568
 20
-0.0496338582677165
 30
0.0
 10
-1.0976732283464568
 20
-0.0496338582677165
 30
0.0
 10
-1.0901141732283466
 20
-0.0459566929133858
 30
0.0
 10
-1.0901141732283466
 20
-0.0459566929133858
 30
0.0
 10
-1.0901141732283466
 20
-0.0459566929133858
 30
0.0
 10
-1.0901141732283466
 20
-0.0459566929133858
 30
0.0
 10
-1.0825787401574805
 20
-0.0418779527559055
 30
0.0
 10
-1.0825787401574805
 20
-0.0418779527559055
 30
0.0
  0
SPLINE
  5
5C
100
AcDbEntity
  8
P1-Layer 1
 62
   127
100
AcDbSpline
210
0.0
220
0.0
230
1.0
 70
     1
 71
     3
 72
    68
 73
    64
 74
     0
 42
0.0000000001
 43
0.0000000001
 40
0.0
 40
0.0
 40
0.0
 40
0.0
 40
0.0625
 40
0.0625
 40
0.0625
 40
0.0625
 40
0.125
 40
0.125
 40
0.125
 40
0.125
 40
0.1875
 40
0.1875
 40
0.1875
 40
0.1875
 40
0.25
 40
0.25
 40
0.25
 40
0.25
 40
0.3125
 40
0.3125
 40
0.3125
 40
0.3125
 40
0.375
 40
0.375
 40
0.375
 40
0.375
 40
0.4375
 40
0.4375
 40
0.4375
 40
0.4375
 40
0.5
 40
0.5
 40
0.5
 40
0.5
 40
0.5625
 40
0.5625
 40
0.5625
 40
0.5625
 40
0.625
 40
0.625
 40
0.625
 40
0.625
 40
0.6875
 40
0.6875
 40
0.6875
 40
0.6875
 40
0.75
 40
0.75
 40
0.75
 40
0.75
 40
0.8125
 40
0.8125
 40
0.8125
 40
0.8125
 40
0.875
 40
0.875
 40
0.875
 40
0.875
 40
0.9375
 40
0.9375
 40
0.9375
 40
0.9375
 40
1.0
 40
1.0
 40
1.0
 40
1.0
 10
-1.1274645669291339
 20
-0.0607362204724409
 30
0.0
 10
-1.1274645669291339
 20
-0.0607362204724409
 30
0.0
 10
-0.4747204724409449
 20
0.3176850393700788
 30
0.0
 10
-0.4747204724409449
 20
0.3176850393700788
 30
0.0
 10
-0.4747204724409449
 20
0.3176850393700788
 30
0.0
 10
-0.4747204724409449
 20
0.3176850393700788
 30
0.0
 10
-0.4819094488188976
 20
0.3157125984251969
 30
0.0
 10
-0.4819094488188976
 20
0.3157125984251969
 30
0.0
 10
-0.4819094488188976
 20
0.3157125984251969
 30
0.0
 10
-0.4819094488188976
 20
0.3157125984251969
 30
0.0
 10
-0.4889370078740158
 20
0.3140118110236221
 30
0.0
 10
-0.4889370078740158
 20
0.3140118110236221
 30
0.0
 10
-0.4889370078740158
 20
0.3140118110236221
 30
0.0
 10
-0.4889370078740158
 20
0.3140118110236221
 30
0.0
 10
-0.4957598425196851
 20
0.3125826771653543
 30
0.0
 10
-0.4957598425196851
 20
0.3125826771653543
 30
0.0
 10
-0.4957598425196851
 20
0.3125826771653543
 30
0.0
 10
-0.4957598425196851
 20
0.3125826771653543
 30
0.0
 10
-0.5023700787401575
 20
0.3113897637795276
 30
0.0
 10
-0.5023700787401575
 20
0.3113897637795276
 30
0.0
 10
-0.5023700787401575
 20
0.3113897637795276
 30
0.0
 10
-0.5023700787401575
 20
0.3113897637795276
 30
0.0
 10
-0.5087204724409449
 20
0.3104173228346457
 30
0.0
 10
-0.5087204724409449
 20
0.3104173228346457
 30
0.0
 10
-0.5087204724409449
 20
0.3104173228346457
 30
0.0
 10
-0.5087204724409449
 20
0.3104173228346457
 30
0.0
 10
-0.5147913385826772
 20
0.3096377952755905
 30
0.0
 10
-0.5147913385826772
 20
0.3096377952755905
 30
0.0
 10
-0.5147913385826772
 20
0.3096377952755905
 30
0.0
 10
-0.5147913385826772
 20
0.3096377952755905
 30
0.0
 10
-0.5205433070866142
 20
0.3090472440944882
 30
0.0
 10
-0.5205433070866142
 20
0.3090472440944882
 30
0.0
 10
-0.5205433070866142
 20
0.3090472440944882
 30
0.0
 10
-0.5205433070866142
 20
0.3090472440944882
 30
0.0
 10
-1.1732874015748032
 20
-0.0693740157480315
 30
0.0
 10
-1.1732874015748032
 20
-0.0693740157480315
 30
0.0
 10
-1.1732874015748032
 20
-0.0693740157480315
 30
0.0
 10
-1.1732874015748032
 20
-0.0693740157480315
 30
0.0
 10
-1.1675354330708663
 20
-0.0687834645669291
 30
0.0
 10
-1.1675354330708663
 20
-0.0687834645669291
 30
0.0
 10
-1.1675354330708663
 20
-0.0687834645669291
 30
0.0
 10
-1.1675354330708663
 20
-0.0687834645669291
 30
0.0
 10
-1.1614645669291339
 20
-0.068003937007874
 30
0.0
 10
-1.1614645669291339
 20
-0.068003937007874
 30
0.0
 10
-1.1614645669291339
 20
-0.068003937007874
 30
0.0
 10
-1.1614645669291339
 20
-0.068003937007874
 30
0.0
 10
-1.1551141732283465
 20
-0.0670314960629921
 30
0.0
 10
-1.1551141732283465
 20
-0.0670314960629921
 30
0.0
 10
-1.1551141732283465
 20
-0.0670314960629921
 30
0.0
 10
-1.1551141732283465
 20
-0.0670314960629921
 30
0.0
 10
-1.148503937007874
 20
-0.0658385826771654
 30
0.0
 10
-1.148503937007874
 20
-0.0658385826771654
 30
0.0
 10
-1.148503937007874
 20
-0.0658385826771654
 30
0.0
 10
-1.148503937007874
 20
-0.0658385826771654
 30
0.0
 10
-1.1416811023622047
 20
-0.0644094488188976
 30
0.0
 10
-1.1416811023622047
 20
-0.0644094488188976
 30
0.0
 10
-1.1416811023622047
 20
-0.0644094488188976
 30
0.0
 10
-1.1416811023622047
 20
-0.0644094488188976
 30
0.0
 10
-1.1346535433070866
 20
-0.0627086614173228
 30
0.0
 10
-1.1346535433070866
 20
-0.0627086614173228
 30
0.0
 10
-1.1346535433070866
 20
-0.0627086614173228
 30
0.0
 10
-1.1346535433070866
 20
-0.0627086614173228
 30
0.0
 10
-1.1274645669291339
 20
-0.0607362204724409
 30
0.0
 10
-1.1274645669291339
 20
-0.0607362204724409
 30
0.0
  0
SPLINE
  5
5D
100
AcDbEntity
  8
P1-Layer 1
 62
   252
100
AcDbSpline
210
0.0
220
0.0
230
1.0
 70
     1
 71
     3
 72
   100
 73
    96
 74
     0
 42
0.0000000001
 43
0.0000000001
 40
0.0
 40
0.0
 40
0.0
 40
0.0
 40
0.0416666666666667
 40
0.0416666666666667
 40
0.0416666666666667
 40
0.0416666666666667
 40
0.0833333333333333
 40
0.0833333333333333
 40
0.0833333333333333
 40
0.0833333333333333
 40
0.125
 40
0.125
 40
0.125
 40
0.125
 40
0.1666666666666667
 40
0.1666666666666667
 40
0.1666666666666667
 40
0.1666666666666667
 40
0.2083333333333333
 40
0.2083333333333333
 40
0.2083333333333333
 40
0.2083333333333333
 40
0.25
 40
0.25
 40
0.25
 40
0.25
 40
0.2916666666666666
 40
0.2916666666666666
 40
0.2916666666666666
 40
0.2916666666666666
 40
0.3333333333333333
 40
0.3333333333333333
 40
0.3333333333333333
 40
0.3333333333333333
 40
0.375
 40
0.375
 40
0.375
 40
0.375
 40
0.4166666666666667
 40
0.4166666666666667
 40
0.4166666666666667
 40
0.4166666666666667
 40
0.4583333333333334
 40
0.4583333333333334
 40
0.4583333333333334
 40
0.4583333333333334
 40
0.5
 40
0.5
 40
0.5
 40
0.5
 40
0.5416666666666666
 40
0.5416666666666666
 40
0.5416666666666666
 40
0.5416666666666666
 40
0.5833333333333333
 40
0.5833333333333333
 40
0.5833333333333333
 40
0.5833333333333333
 40
0.6249999999999999
 40
0.6249999999999999
 40
0.6249999999999999
 40
0.6249999999999999
 40
0.6666666666666665
 40
0.6666666666666665
 40
0.6666666666666665
 40
0.6666666666666665
 40
0.7083333333333332
 40
0.7083333333333332
 40
0.7083333333333332
 40
0.7083333333333332
 40
0.7499999999999998
 40
0.7499999999999998
 40
0.7499999999999998
 40
0.7499999999999998
 40
0.7916666666666664
 40
0.7916666666666664
 40
0.7916666666666664
 40
0.7916666666666664
 40
0.833333333333333
 40
0.833333333333333
 40
0.833333333333333
 40
0.833333333333333
 40
0.8749999999999997
 40
0.8749999999999997
 40
0.8749999999999997
 40
0.8749999999999997
 40
0.9166666666666663
 40
0.9166666666666663
 40
0.9166666666666663
 40
0.9166666666666663
 40
0.9583333333333329
 40
0.9583333333333329
 40
0.9583333333333329
 40
0.9583333333333329
 40
1.0
 40
1.0
 40
1.0
 40
1.0
 10
-1.1732874015748032
 20
-0.0693740157480315
 30
0.0
 10
-1.1732874015748032
 20
-0.0693740157480315
 30
0.0
 10
-0.5205433070866142
 20
0.3090472440944882
 30
0.0
 10
-0.5205433070866142
 20
0.3090472440944882
 30
0.0
 10
-0.5205433070866142
 20
0.3090472440944882
 30
0.0
 10
-0.5205433070866142
 20
0.3090472440944882
 30
0.0
 10
-0.5259606299212599
 20
0.3086062992125984
 30
0.0
 10
-0.5259606299212599
 20
0.3086062992125984
 30
0.0
 10
-0.5259606299212599
 20
0.3086062992125984
 30
0.0
 10
-0.5259606299212599
 20
0.3086062992125984
 30
0.0
 10
-0.531
 20
0.3083070866141732
 30
0.0
 10
-0.531
 20
0.3083070866141732
 30
0.0
 10
-0.531
 20
0.3083070866141732
 30
0.0
 10
-0.531
 20
0.3083070866141732
 30
0.0
 10
-0.5356417322834646
 20
0.3081220472440945
 30
0.0
 10
-0.5356417322834646
 20
0.3081220472440945
 30
0.0
 10
-0.5356417322834646
 20
0.3081220472440945
 30
0.0
 10
-0.5356417322834646
 20
0.3081220472440945
 30
0.0
 10
-0.5398385826771653
 20
0.3080433070866142
 30
0.0
 10
-0.5398385826771653
 20
0.3080433070866142
 30
0.0
 10
-0.5398385826771653
 20
0.3080433070866142
 30
0.0
 10
-0.5398385826771653
 20
0.3080433070866142
 30
0.0
 10
-0.5435787401574803
 20
0.3080314960629921
 30
0.0
 10
-0.5435787401574803
 20
0.3080314960629921
 30
0.0
 10
-0.5435787401574803
 20
0.3080314960629921
 30
0.0
 10
-0.5435787401574803
 20
0.3080314960629921
 30
0.0
 10
-0.5468228346456693
 20
0.3080826771653544
 30
0.0
 10
-0.5468228346456693
 20
0.3080826771653544
 30
0.0
 10
-0.5468228346456693
 20
0.3080826771653544
 30
0.0
 10
-0.5468228346456693
 20
0.3080826771653544
 30
0.0
 10
-0.5495511811023622
 20
0.3081653543307087
 30
0.0
 10
-0.5495511811023622
 20
0.3081653543307087
 30
0.0
 10
-0.5495511811023622
 20
0.3081653543307087
 30
0.0
 10
-0.5495511811023622
 20
0.3081653543307087
 30
0.0
 10
-0.5517204724409449
 20
0.3082677165354331
 30
0.0
 10
-0.5517204724409449
 20
0.3082677165354331
 30
0.0
 10
-0.5517204724409449
 20
0.3082677165354331
 30
0.0
 10
-0.5517204724409449
 20
0.3082677165354331
 30
0.0
 10
-0.5533110236220473
 20
0.3083622047244095
 30
0.0
 10
-0.5533110236220473
 20
0.3083622047244095
 30
0.0
 10
-0.5533110236220473
 20
0.3083622047244095
 30
0.0
 10
-0.5533110236220473
 20
0.3083622047244095
 30
0.0
 10
-0.5542834645669291
 20
0.3084409448818898
 30
0.0
 10
-0.5542834645669291
 20
0.3084409448818898
 30
0.0
 10
-0.5542834645669291
 20
0.3084409448818898
 30
0.0
 10
-0.5542834645669291
 20
0.3084409448818898
 30
0.0
 10
-0.5546181102362205
 20
0.3084645669291339
 30
0.0
 10
-0.5546181102362205
 20
0.3084645669291339
 30
0.0
 10
-0.5546181102362205
 20
0.3084645669291339
 30
0.0
 10
-0.5546181102362205
 20
0.3084645669291339
 30
0.0
 10
-1.2073622047244095
 20
-0.0699566929133858
 30
0.0
 10
-1.2073622047244095
 20
-0.0699566929133858
 30
0.0
 10
-1.2073622047244095
 20
-0.0699566929133858
 30
0.0
 10
-1.2073622047244095
 20
-0.0699566929133858
 30
0.0
 10
-1.207027559055118
 20
-0.0699803149606299
 30
0.0
 10
-1.207027559055118
 20
-0.0699803149606299
 30
0.0
 10
-1.207027559055118
 20
-0.0699803149606299
 30
0.0
 10
-1.207027559055118
 20
-0.0699803149606299
 30
0.0
 10
-1.2060551181102364
 20
-0.0700590551181102
 30
0.0
 10
-1.2060551181102364
 20
-0.0700590551181102
 30
0.0
 10
-1.2060551181102364
 20
-0.0700590551181102
 30
0.0
 10
-1.2060551181102364
 20
-0.0700590551181102
 30
0.0
 10
-1.2044645669291338
 20
-0.0701535433070866
 30
0.0
 10
-1.2044645669291338
 20
-0.0701535433070866
 30
0.0
 10
-1.2044645669291338
 20
-0.0701535433070866
 30
0.0
 10
-1.2044645669291338
 20
-0.0701535433070866
 30
0.0
 10
-1.2022952755905512
 20
-0.070255905511811
 30
0.0
 10
-1.2022952755905512
 20
-0.070255905511811
 30
0.0
 10
-1.2022952755905512
 20
-0.070255905511811
 30
0.0
 10
-1.2022952755905512
 20
-0.070255905511811
 30
0.0
 10
-1.1995669291338582
 20
-0.0703385826771654
 30
0.0
 10
-1.1995669291338582
 20
-0.0703385826771654
 30
0.0
 10
-1.1995669291338582
 20
-0.0703385826771654
 30
0.0
 10
-1.1995669291338582
 20
-0.0703385826771654
 30
0.0
 10
-1.1963228346456694
 20
-0.0703897637795276
 30
0.0
 10
-1.1963228346456694
 20
-0.0703897637795276
 30
0.0
 10
-1.1963228346456694
 20
-0.0703897637795276
 30
0.0
 10
-1.1963228346456694
 20
-0.0703897637795276
 30
0.0
 10
-1.1925826771653543
 20
-0.0703779527559055
 30
0.0
 10
-1.1925826771653543
 20
-0.0703779527559055
 30
0.0
 10
-1.1925826771653543
 20
-0.0703779527559055
 30
0.0
 10
-1.1925826771653543
 20
-0.0703779527559055
 30
0.0
 10
-1.1883858267716536
 20
-0.0702992125984252
 30
0.0
 10
-1.1883858267716536
 20
-0.0702992125984252
 30
0.0
 10
-1.1883858267716536
 20
-0.0702992125984252
 30
0.0
 10
-1.1883858267716536
 20
-0.0702992125984252
 30
0.0
 10
-1.183744094488189
 20
-0.0701141732283465
 30
0.0
 10
-1.183744094488189
 20
-0.0701141732283465
 30
0.0
 10
-1.183744094488189
 20
-0.0701141732283465
 30
0.0
 10
-1.183744094488189
 20
-0.0701141732283465
 30
0.0
 10
-1.1787047244094488
 20
-0.0698149606299213
 30
0.0
 10
-1.1787047244094488
 20
-0.0698149606299213
 30
0.0
 10
-1.1787047244094488
 20
-0.0698149606299213
 30
0.0
 10
-1.1787047244094488
 20
-0.0698149606299213
 30
0.0
 10
-1.1732874015748032
 20
-0.0693740157480315
 30
0.0
 10
-1.1732874015748032
 20
-0.0693740157480315
 30
0.0
  0
SPLINE
  5
5E
100
AcDbEntity
  8
P1-Layer 1
370
     5
100
AcDbSpline
210
0.0
220
0.0
230
1.0
 70
     1
 71
     3
 72
   204
 73
   200
 74
     0
 42
0.0000000001
 43
0.0000000001
 40
0.0
 40
0.0
 40
0.0
 40
0.0
 40
0.02
 40
0.02
 40
0.02
 40
0.02
 40
0.04
 40
0.04
 40
0.04
 40
0.04
 40
0.06
 40
0.06
 40
0.06
 40
0.06
 40
0.08
 40
0.08
 40
0.08
 40
0.08
 40
0.1
 40
0.1
 40
0.1
 40
0.1
 40
0.12
 40
0.12
 40
0.12
 40
0.12
 40
0.14
 40
0.14
 40
0.14
 40
0.14
 40
0.16
 40
0.16
 40
0.16
 40
0.16
 40
0.18
 40
0.18
 40
0.18
 40
0.18
 40
0.2
 40
0.2
 40
0.2
 40
0.2
 40
0.22
 40
0.22
 40
0.22
 40
0.22
 40
0.24
 40
0.24
 40
0.24
 40
0.24
 40
0.26
 40
0.26
 40
0.26
 40
0.26
 40
0.28
 40
0.28
 40
0.28
 40
0.28
 40
0.3
 40
0.3
 40
0.3
 40
0.3
 40
0.32
 40
0.32
 40
0.32
 40
0.32
 40
0.34
 40
0.34
 40
0.34
 40
0.34
 40
0.36
 40
0.36
 40
0.36
 40
0.36
 40
0.3800000000000001
 40
0.3800000000000001
 40
0.3800000000000001
 40
0.3800000000000001
 40
0.4000000000000001
 40
0.4000000000000001
 40
0.4000000000000001
 40
0.4000000000000001
 40
0.4200000000000001
 40
0.4200000000000001
 40
0.4200000000000001
 40
0.4200000000000001
 40
0.4400000000000001
 40
0.4400000000000001
 40
0.4400000000000001
 40
0.4400000000000001
 40
0.4600000000000001
 40
0.4600000000000001
 40
0.4600000000000001
 40
0.4600000000000001
 40
0.4800000000000002
 40
0.4800000000000002
 40
0.4800000000000002
 40
0.4800000000000002
 40
0.5000000000000001
 40
0.5000000000000001
 40
0.5000000000000001
 40
0.5000000000000001
 40
0.5200000000000001
 40
0.5200000000000001
 40
0.5200000000000001
 40
0.5200000000000001
 40
0.5400000000000002
 40
0.5400000000000002
 40
0.5400000000000002
 40
0.5400000000000002
 40
0.5600000000000002
 40
0.5600000000000002
 40
0.5600000000000002
 40
0.5600000000000002
 40
0.5800000000000002
 40
0.5800000000000002
 40
0.5800000000000002
 40
0.5800000000000002
 40
0.6000000000000002
 40
0.6000000000000002
 40
0.6000000000000002
 40
0.6000000000000002
 40
0.6200000000000002
 40
0.6200000000000002
 40
0.6200000000000002
 40
0.6200000000000002
 40
0.6400000000000002
 40
0.6400000000000002
 40
0.6400000000000002
 40
0.6400000000000002
 40
0.6600000000000003
 40
0.6600000000000003
 40
0.6600000000000003
 40
0.6600000000000003
 40
0.6800000000000003
 40
0.6800000000000003
 40
0.6800000000000003
 40
0.6800000000000003
 40
0.7000000000000003
 40
0.7000000000000003
 40
0.7000000000000003
 40
0.7000000000000003
 40
0.7200000000000003
 40
0.7200000000000003
 40
0.7200000000000003
 40
0.7200000000000003
 40
0.7400000000000003
 40
0.7400000000000003
 40
0.7400000000000003
 40
0.7400000000000003
 40
0.7600000000000003
 40
0.7600000000000003
 40
0.7600000000000003
 40
0.7600000000000003
 40
0.7800000000000004
 40
0.7800000000000004
 40
0.7800000000000004
 40
0.7800000000000004
 40
0.8000000000000004
 40
0.8000000000000004
 40
0.8000000000000004
 40
0.8000000000000004
 40
0.8200000000000004
 40
0.8200000000000004
 40
0.8200000000000004
 40
0.8200000000000004
 40
0.8400000000000004
 40
0.8400000000000004
 40
0.8400000000000004
 40
0.8400000000000004
 40
0.8600000000000004
 40
0.8600000000000004
 40
0.8600000000000004
 40
0.8600000000000004
 40
0.8800000000000005
 40
0.8800000000000005
 40
0.8800000000000005
 40
0.8800000000000005
 40
0.9000000000000005
 40
0.9000000000000005
 40
0.9000000000000005
 40
0.9000000000000005
 40
0.9200000000000005
 40
0.9200000000000005
 40
0.9200000000000005
 40
0.9200000000000005
 40
0.9400000000000005
 40
0.9400000000000005
 40
0.9400000000000005
 40
0.9400000000000005
 40
0.9600000000000005
 40
0.9600000000000005
 40
0.9600000000000005
 40
0.9600000000000005
 40
0.9800000000000005
 40
0.9800000000000005
 40
0.9800000000000005
 40
0.9800000000000005
 40
1.0
 40
1.0
 40
1.0
 40
1.0
 10
-1.0825787401574805
 20
-0.0418779527559055
 30
0.0
 10
-1.0825787401574805
 20
-0.0418779527559055
 30
0.0
 10
-0.4298346456692914
 20
0.3365433070866142
 30
0.0
 10
-0.4298346456692914
 20
0.3365433070866142
 30
0.0
 10
-0.4298346456692914
 20
0.3365433070866142
 30
0.0
 10
-0.4298346456692914
 20
0.3365433070866142
 30
0.0
 10
-0.4373700787401575
 20
0.3324645669291339
 30
0.0
 10
-0.4373700787401575
 20
0.3324645669291339
 30
0.0
 10
-0.4373700787401575
 20
0.3324645669291339
 30
0.0
 10
-0.4373700787401575
 20
0.3324645669291339
 30
0.0
 10
-0.4449291338582677
 20
0.3287874015748032
 30
0.0
 10
-0.4449291338582677
 20
0.3287874015748032
 30
0.0
 10
-0.4449291338582677
 20
0.3287874015748032
 30
0.0
 10
-0.4449291338582677
 20
0.3287874015748032
 30
0.0
 10
-0.4524724409448819
 20
0.325496062992126
 30
0.0
 10
-0.4524724409448819
 20
0.325496062992126
 30
0.0
 10
-0.4524724409448819
 20
0.325496062992126
 30
0.0
 10
-0.4524724409448819
 20
0.325496062992126
 30
0.0
 10
-0.4599763779527559
 20
0.3225551181102362
 30
0.0
 10
-0.4599763779527559
 20
0.3225551181102362
 30
0.0
 10
-0.4599763779527559
 20
0.3225551181102362
 30
0.0
 10
-0.4599763779527559
 20
0.3225551181102362
 30
0.0
 10
-0.4673976377952756
 20
0.3199606299212598
 30
0.0
 10
-0.4673976377952756
 20
0.3199606299212598
 30
0.0
 10
-0.4673976377952756
 20
0.3199606299212598
 30
0.0
 10
-0.4673976377952756
 20
0.3199606299212598
 30
0.0
 10
-0.4747204724409449
 20
0.3176850393700788
 30
0.0
 10
-0.4747204724409449
 20
0.3176850393700788
 30
0.0
 10
-0.4747204724409449
 20
0.3176850393700788
 30
0.0
 10
-0.4747204724409449
 20
0.3176850393700788
 30
0.0
 10
-0.4819094488188976
 20
0.3157125984251969
 30
0.0
 10
-0.4819094488188976
 20
0.3157125984251969
 30
0.0
 10
-0.4819094488188976
 20
0.3157125984251969
 30
0.0
 10
-0.4819094488188976
 20
0.3157125984251969
 30
0.0
 10
-0.4889370078740158
 20
0.3140118110236221
 30
0.0
 10
-0.4889370078740158
 20
0.3140118110236221
 30
0.0
 10
-0.4889370078740158
 20
0.3140118110236221
 30
0.0
 10
-0.4889370078740158
 20
0.3140118110236221
 30
0.0
 10
-0.4957598425196851
 20
0.3125826771653543
 30
0.0
 10
-0.4957598425196851
 20
0.3125826771653543
 30
0.0
 10
-0.4957598425196851
 20
0.3125826771653543
 30
0.0
 10
-0.4957598425196851
 20
0.3125826771653543
 30
0.0
 10
-0.5023700787401575
 20
0.3113897637795276
 30
0.0
 10
-0.5023700787401575
 20
0.3113897637795276
 30
0.0
 10
-0.5023700787401575
 20
0.3113897637795276
 30
0.0
 10
-0.5023700787401575
 20
0.3113897637795276
 30
0.0
 10
-0.5087204724409449
 20
0.3104173228346457
 30
0.0
 10
-0.5087204724409449
 20
0.3104173228346457
 30
0.0
 10
-0.5087204724409449
 20
0.3104173228346457
 30
0.0
 10
-0.5087204724409449
 20
0.3104173228346457
 30
0.0
 10
-0.5147913385826772
 20
0.3096377952755905
 30
0.0
 10
-0.5147913385826772
 20
0.3096377952755905
 30
0.0
 10
-0.5147913385826772
 20
0.3096377952755905
 30
0.0
 10
-0.5147913385826772
 20
0.3096377952755905
 30
0.0
 10
-0.5205433070866142
 20
0.3090472440944882
 30
0.0
 10
-0.5205433070866142
 20
0.3090472440944882
 30
0.0
 10
-0.5205433070866142
 20
0.3090472440944882
 30
0.0
 10
-0.5205433070866142
 20
0.3090472440944882
 30
0.0
 10
-0.5259606299212599
 20
0.3086062992125984
 30
0.0
 10
-0.5259606299212599
 20
0.3086062992125984
 30
0.0
 10
-0.5259606299212599
 20
0.3086062992125984
 30
0.0
 10
-0.5259606299212599
 20
0.3086062992125984
 30
0.0
 10
-0.531
 20
0.3083070866141732
 30
0.0
 10
-0.531
 20
0.3083070866141732
 30
0.0
 10
-0.531
 20
0.3083070866141732
 30
0.0
 10
-0.531
 20
0.3083070866141732
 30
0.0
 10
-0.5356417322834646
 20
0.3081220472440945
 30
0.0
 10
-0.5356417322834646
 20
0.3081220472440945
 30
0.0
 10
-0.5356417322834646
 20
0.3081220472440945
 30
0.0
 10
-0.5356417322834646
 20
0.3081220472440945
 30
0.0
 10
-0.5398385826771653
 20
0.3080433070866142
 30
0.0
 10
-0.5398385826771653
 20
0.3080433070866142
 30
0.0
 10
-0.5398385826771653
 20
0.3080433070866142
 30
0.0
 10
-0.5398385826771653
 20
0.3080433070866142
 30
0.0
 10
-0.5435787401574803
 20
0.3080314960629921
 30
0.0
 10
-0.5435787401574803
 20
0.3080314960629921
 30
0.0
 10
-0.5435787401574803
 20
0.3080314960629921
 30
0.0
 10
-0.5435787401574803
 20
0.3080314960629921
 30
0.0
 10
-0.5468228346456693
 20
0.3080826771653544
 30
0.0
 10
-0.5468228346456693
 20
0.3080826771653544
 30
0.0
 10
-0.5468228346456693
 20
0.3080826771653544
 30
0.0
 10
-0.5468228346456693
 20
0.3080826771653544
 30
0.0
 10
-0.5495511811023622
 20
0.3081653543307087
 30
0.0
 10
-0.5495511811023622
 20
0.3081653543307087
 30
0.0
 10
-0.5495511811023622
 20
0.3081653543307087
 30
0.0
 10
-0.5495511811023622
 20
0.3081653543307087
 30
0.0
 10
-0.5517204724409449
 20
0.3082677165354331
 30
0.0
 10
-0.5517204724409449
 20
0.3082677165354331
 30
0.0
 10
-0.5517204724409449
 20
0.3082677165354331
 30
0.0
 10
-0.5517204724409449
 20
0.3082677165354331
 30
0.0
 10
-0.5533110236220473
 20
0.3083622047244095
 30
0.0
 10
-0.5533110236220473
 20
0.3083622047244095
 30
0.0
 10
-0.5533110236220473
 20
0.3083622047244095
 30
0.0
 10
-0.5533110236220473
 20
0.3083622047244095
 30
0.0
 10
-0.5542834645669291
 20
0.3084409448818898
 30
0.0
 10
-0.5542834645669291
 20
0.3084409448818898
 30
0.0
 10
-0.5542834645669291
 20
0.3084409448818898
 30
0.0
 10
-0.5542834645669291
 20
0.3084409448818898
 30
0.0
 10
-0.5546181102362205
 20
0.3084645669291339
 30
0.0
 10
-0.5546181102362205
 20
0.3084645669291339
 30
0.0
 10
-0.5546181102362205
 20
0.3084645669291339
 30
0.0
 10
-0.5546181102362205
 20
0.3084645669291339
 30
0.0
 10
-1.2073622047244095
 20
-0.0699566929133858
 30
0.0
 10
-1.2073622047244095
 20
-0.0699566929133858
 30
0.0
 10
-1.2073622047244095
 20
-0.0699566929133858
 30
0.0
 10
-1.2073622047244095
 20
-0.0699566929133858
 30
0.0
 10
-1.207027559055118
 20
-0.0699803149606299
 30
0.0
 10
-1.207027559055118
 20
-0.0699803149606299
 30
0.0
 10
-1.207027559055118
 20
-0.0699803149606299
 30
0.0
 10
-1.207027559055118
 20
-0.0699803149606299
 30
0.0
 10
-1.2060551181102364
 20
-0.0700590551181102
 30
0.0
 10
-1.2060551181102364
 20
-0.0700590551181102
 30
0.0
 10
-1.2060551181102364
 20
-0.0700590551181102
 30
0.0
 10
-1.2060551181102364
 20
-0.0700590551181102
 30
0.0
 10
-1.2044645669291338
 20
-0.0701535433070866
 30
0.0
 10
-1.2044645669291338
 20
-0.0701535433070866
 30
0.0
 10
-1.2044645669291338
 20
-0.0701535433070866
 30
0.0
 10
-1.2044645669291338
 20
-0.0701535433070866
 30
0.0
 10
-1.2022952755905512
 20
-0.070255905511811
 30
0.0
 10
-1.2022952755905512
 20
-0.070255905511811
 30
0.0
 10
-1.2022952755905512
 20
-0.070255905511811
 30
0.0
 10
-1.2022952755905512
 20
-0.070255905511811
 30
0.0
 10
-1.1995669291338582
 20
-0.0703385826771654
 30
0.0
 10
-1.1995669291338582
 20
-0.0703385826771654
 30
0.0
 10
-1.1995669291338582
 20
-0.0703385826771654
 30
0.0
 10
-1.1995669291338582
 20
-0.0703385826771654
 30
0.0
 10
-1.1963228346456694
 20
-0.0703897637795276
 30
0.0
 10
-1.1963228346456694
 20
-0.0703897637795276
 30
0.0
 10
-1.1963228346456694
 20
-0.0703897637795276
 30
0.0
 10
-1.1963228346456694
 20
-0.0703897637795276
 30
0.0
 10
-1.1925826771653543
 20
-0.0703779527559055
 30
0.0
 10
-1.1925826771653543
 20
-0.0703779527559055
 30
0.0
 10
-1.1925826771653543
 20
-0.0703779527559055
 30
0.0
 10
-1.1925826771653543
 20
-0.0703779527559055
 30
0.0
 10
-1.1883858267716536
 20
-0.0702992125984252
 30
0.0
 10
-1.1883858267716536
 20
-0.0702992125984252
 30
0.0
 10
-1.1883858267716536
 20
-0.0702992125984252
 30
0.0
 10
-1.1883858267716536
 20
-0.0702992125984252
 30
0.0
 10
-1.183744094488189
 20
-0.0701141732283465
 30
0.0
 10
-1.183744094488189
 20
-0.0701141732283465
 30
0.0
 10
-1.183744094488189
 20
-0.0701141732283465
 30
0.0
 10
-1.183744094488189
 20
-0.0701141732283465
 30
0.0
 10
-1.1787047244094488
 20
-0.0698149606299213
 30
0.0
 10
-1.1787047244094488
 20
-0.0698149606299213
 30
0.0
 10
-1.1787047244094488
 20
-0.0698149606299213
 30
0.0
 10
-1.1787047244094488
 20
-0.0698149606299213
 30
0.0
 10
-1.1732874015748032
 20
-0.0693740157480315
 30
0.0
 10
-1.1732874015748032
 20
-0.0693740157480315
 30
0.0
 10
-1.1732874015748032
 20
-0.0693740157480315
 30
0.0
 10
-1.1732874015748032
 20
-0.0693740157480315
 30
0.0
 10
-1.1675354330708663
 20
-0.0687834645669291
 30
0.0
 10
-1.1675354330708663
 20
-0.0687834645669291
 30
0.0
 10
-1.1675354330708663
 20
-0.0687834645669291
 30
0.0
 10
-1.1675354330708663
 20
-0.0687834645669291
 30
0.0
 10
-1.1614645669291339
 20
-0.068003937007874
 30
0.0
 10
-1.1614645669291339
 20
-0.068003937007874
 30
0.0
 10
-1.1614645669291339
 20
-0.068003937007874
 30
0.0
 10
-1.1614645669291339
 20
-0.068003937007874
 30
0.0
 10
-1.1551141732283465
 20
-0.0670314960629921
 30
0.0
 10
-1.1551141732283465
 20
-0.0670314960629921
 30
0.0
 10
-1.1551141732283465
 20
-0.0670314960629921
 30
0.0
 10
-1.1551141732283465
 20
-0.0670314960629921
 30
0.0
 10
-1.148503937007874
 20
-0.0658385826771654
 30
0.0
 10
-1.148503937007874
 20
-0.0658385826771654
 30
0.0
 10
-1.148503937007874
 20
-0.0658385826771654
 30
0.0
 10
-1.148503937007874
 20
-0.0658385826771654
 30
0.0
 10
-1.1416811023622047
 20
-0.0644094488188976
 30
0.0
 10
-1.1416811023622047
 20
-0.0644094488188976
 30
0.0
 10
-1.1416811023622047
 20
-0.0644094488188976
 30
0.0
 10
-1.1416811023622047
 20
-0.0644094488188976
 30
0.0
 10
-1.1346535433070866
 20
-0.0627086614173228
 30
0.0
 10
-1.1346535433070866
 20
-0.0627086614173228
 30
0.0
 10
-1.1346535433070866
 20
-0.0627086614173228
 30
0.0
 10
-1.1346535433070866
 20
-0.0627086614173228
 30
0.0
 10
-1.1274645669291339
 20
-0.0607362204724409
 30
0.0
 10
-1.1274645669291339
 20
-0.0607362204724409
 30
0.0
 10
-1.1274645669291339
 20
-0.0607362204724409
 30
0.0
 10
-1.1274645669291339
 20
-0.0607362204724409
 30
0.0
 10
-1.1201417322834646
 20
-0.0584606299212598
 30
0.0
 10
-1.1201417322834646
 20
-0.0584606299212598
 30
0.0
 10
-1.1201417322834646
 20
-0.0584606299212598
 30
0.0
 10
-1.1201417322834646
 20
-0.0584606299212598
 30
0.0
 10
-1.112720472440945
 20
-0.0558661417322835
 30
0.0
 10
-1.112720472440945
 20
-0.0558661417322835
 30
0.0
 10
-1.112720472440945
 20
-0.0558661417322835
 30
0.0
 10
-1.112720472440945
 20
-0.0558661417322835
 30
0.0
 10
-1.105216535433071
 20
-0.0529251968503937
 30
0.0
 10
-1.105216535433071
 20
-0.0529251968503937
 30
0.0
 10
-1.105216535433071
 20
-0.0529251968503937
 30
0.0
 10
-1.105216535433071
 20
-0.0529251968503937
 30
0.0
 10
-1.0976732283464568
 20
-0.0496338582677165
 30
0.0
 10
-1.0976732283464568
 20
-0.0496338582677165
 30
0.0
 10
-1.0976732283464568
 20
-0.0496338582677165
 30
0.0
 10
-1.0976732283464568
 20
-0.0496338582677165
 30
0.0
 10
-1.0901141732283466
 20
-0.0459566929133858
 30
0.0
 10
-1.0901141732283466
 20
-0.0459566929133858
 30
0.0
 10
-1.0901141732283466
 20
-0.0459566929133858
 30
0.0
 10
-1.0901141732283466
 20
-0.0459566929133858
 30
0.0
 10
-1.0825787401574805
 20
-0.0418779527559055
 30
0.0
 10
-1.0825787401574805
 20
-0.0418779527559055
 30
0.0
  0
SPLINE
  5
5F
100
AcDbEntity
  8
P1-Layer 1
 62
   253
100
AcDbSpline
210
0.0
220
0.0
230
1.0
 70
     1
 71
     3
 72
    20
 73
    16
 74
     0
 42
0.0000000001
 43
0.0000000001
 40
0.0
 40
0.0
 40
0.0
 40
0.0
 40
0.25
 40
0.25
 40
0.25
 40
0.25
 40
0.5
 40
0.5
 40
0.5
 40
0.5
 40
0.75
 40
0.75
 40
0.75
 40
0.75
 40
1.0
 40
1.0
 40
1.0
 40
1.0
 10
-1.2073622047244095
 20
-0.1552755905511811
 30
0.0
 10
-1.2073622047244095
 20
-0.1552755905511811
 30
0.0
 10
-0.5546181102362205
 20
0.2231456692913386
 30
0.0
 10
-0.5546181102362205
 20
0.2231456692913386
 30
0.0
 10
-0.5546181102362205
 20
0.2231456692913386
 30
0.0
 10
-0.5546181102362205
 20
0.2231456692913386
 30
0.0
 10
-0.5560275590551181
 20
0.2234251968503937
 30
0.0
 10
-0.5560275590551181
 20
0.2234251968503937
 30
0.0
 10
-0.5560275590551181
 20
0.2234251968503937
 30
0.0
 10
-0.5560275590551181
 20
0.2234251968503937
 30
0.0
 10
-1.2087716535433071
 20
-0.154996062992126
 30
0.0
 10
-1.2087716535433071
 20
-0.154996062992126
 30
0.0
 10
-1.2087716535433071
 20
-0.154996062992126
 30
0.0
 10
-1.2087716535433071
 20
-0.154996062992126
 30
0.0
 10
-1.2073622047244095
 20
-0.1552755905511811
 30
0.0
 10
-1.2073622047244095
 20
-0.1552755905511811
 30
0.0
  0
SPLINE
  5
60
100
AcDbEntity
  8
P1-Layer 1
370
     5
100
AcDbSpline
210
0.0
220
0.0
230
1.0
 70
     1
 71
     3
 72
    20
 73
    16
 74
     0
 42
0.0000000001
 43
0.0000000001
 40
0.0
 40
0.0
 40
0.0
 40
0.0
 40
0.25
 40
0.25
 40
0.25
 40
0.25
 40
0.5
 40
0.5
 40
0.5
 40
0.5
 40
0.75
 40
0.75
 40
0.75
 40
0.75
 40
1.0
 40
1.0
 40
1.0
 40
1.0
 10
-1.2073622047244095
 20
-0.1552755905511811
 30
0.0
 10
-1.2073622047244095
 20
-0.1552755905511811
 30
0.0
 10
-0.5546181102362205
 20
0.2231456692913386
 30
0.0
 10
-0.5546181102362205
 20
0.2231456692913386
 30
0.0
 10
-0.5546181102362205
 20
0.2231456692913386
 30
0.0
 10
-0.5546181102362205
 20
0.2231456692913386
 30
0.0
 10
-0.5560275590551181
 20
0.2234251968503937
 30
0.0
 10
-0.5560275590551181
 20
0.2234251968503937
 30
0.0
 10
-0.5560275590551181
 20
0.2234251968503937
 30
0.0
 10
-0.5560275590551181
 20
0.2234251968503937
 30
0.0
 10
-1.2087716535433071
 20
-0.154996062992126
 30
0.0
 10
-1.2087716535433071
 20
-0.154996062992126
 30
0.0
 10
-1.2087716535433071
 20
-0.154996062992126
 30
0.0
 10
-1.2087716535433071
 20
-0.154996062992126
 30
0.0
 10
-1.2073622047244095
 20
-0.1552755905511811
 30
0.0
 10
-1.2073622047244095
 20
-0.1552755905511811
 30
0.0
  0
SPLINE
  5
61
100
AcDbEntity
  8
P1-Layer 1
 62
     9
100
AcDbSpline
210
0.0
220
0.0
230
1.0
 70
     1
 71
     3
 72
    36
 73
    32
 74
     0
 42
0.0000000001
 43
0.0000000001
 40
0.0
 40
0.0
 40
0.0
 40
0.0
 40
0.125
 40
0.125
 40
0.125
 40
0.125
 40
0.25
 40
0.25
 40
0.25
 40
0.25
 40
0.375
 40
0.375
 40
0.375
 40
0.375
 40
0.5
 40
0.5
 40
0.5
 40
0.5
 40
0.625
 40
0.625
 40
0.625
 40
0.625
 40
0.75
 40
0.75
 40
0.75
 40
0.75
 40
0.875
 40
0.875
 40
0.875
 40
0.875
 40
1.0
 40
1.0
 40
1.0
 40
1.0
 10
-0.759492125984252
 20
-0.0009488188976378
 30
0.0
 10
-0.759492125984252
 20
-0.0009488188976378
 30
0.0
 10
-0.106748031496063
 20
0.3774724409448819
 30
0.0
 10
-0.106748031496063
 20
0.3774724409448819
 30
0.0
 10
-0.106748031496063
 20
0.3774724409448819
 30
0.0
 10
-0.106748031496063
 20
0.3774724409448819
 30
0.0
 10
-0.1288228346456693
 20
0.3774724409448819
 30
0.0
 10
-0.1288228346456693
 20
0.3774724409448819
 30
0.0
 10
-0.1288228346456693
 20
0.3774724409448819
 30
0.0
 10
-0.1288228346456693
 20
0.3774724409448819
 30
0.0
 10
-0.136007874015748
 20
0.3888149606299213
 30
0.0
 10
-0.136007874015748
 20
0.3888149606299213
 30
0.0
 10
-0.136007874015748
 20
0.3888149606299213
 30
0.0
 10
-0.136007874015748
 20
0.3888149606299213
 30
0.0
 10
-0.1433464566929134
 20
0.3992637795275591
 30
0.0
 10
-0.1433464566929134
 20
0.3992637795275591
 30
0.0
 10
-0.1433464566929134
 20
0.3992637795275591
 30
0.0
 10
-0.1433464566929134
 20
0.3992637795275591
 30
0.0
 10
-0.7960905511811024
 20
0.0208425196850394
 30
0.0
 10
-0.7960905511811024
 20
0.0208425196850394
 30
0.0
 10
-0.7960905511811024
 20
0.0208425196850394
 30
0.0
 10
-0.7960905511811024
 20
0.0208425196850394
 30
0.0
 10
-0.788751968503937
 20
0.0103937007874016
 30
0.0
 10
-0.788751968503937
 20
0.0103937007874016
 30
0.0
 10
-0.788751968503937
 20
0.0103937007874016
 30
0.0
 10
-0.788751968503937
 20
0.0103937007874016
 30
0.0
 10
-0.7815669291338583
 20
-0.0009488188976378
 30
0.0
 10
-0.7815669291338583
 20
-0.0009488188976378
 30
0.0
 10
-0.7815669291338583
 20
-0.0009488188976378
 30
0.0
 10
-0.7815669291338583
 20
-0.0009488188976378
 30
0.0
 10
-0.759492125984252
 20
-0.0009488188976378
 30
0.0
 10
-0.759492125984252
 20
-0.0009488188976378
 30
0.0
  0
SPLINE
  5
62
100
AcDbEntity
  8
P1-Layer 1
 62
     9
100
AcDbSpline
210
0.0
220
0.0
230
1.0
 70
     1
 71
     3
 72
    44
 73
    40
 74
     0
 42
0.0000000001
 43
0.0000000001
 40
0.0
 40
0.0
 40
0.0
 40
0.0
 40
0.1
 40
0.1
 40
0.1
 40
0.1
 40
0.2
 40
0.2
 40
0.2
 40
0.2
 40
0.3
 40
0.3
 40
0.3
 40
0.3
 40
0.4
 40
0.4
 40
0.4
 40
0.4
 40
0.5
 40
0.5
 40
0.5
 40
0.5
 40
0.6
 40
0.6
 40
0.6
 40
0.6
 40
0.7
 40
0.7
 40
0.7
 40
0.7
 40
0.7999999999999999
 40
0.7999999999999999
 40
0.7999999999999999
 40
0.7999999999999999
 40
0.8999999999999999
 40
0.8999999999999999
 40
0.8999999999999999
 40
0.8999999999999999
 40
1.0
 40
1.0
 40
1.0
 40
1.0
 10
-0.7960905511811024
 20
0.0208425196850394
 30
0.0
 10
-0.7960905511811024
 20
0.0208425196850394
 30
0.0
 10
-0.1433464566929134
 20
0.3992637795275591
 30
0.0
 10
-0.1433464566929134
 20
0.3992637795275591
 30
0.0
 10
-0.1433464566929134
 20
0.3992637795275591
 30
0.0
 10
-0.1433464566929134
 20
0.3992637795275591
 30
0.0
 10
-0.1508149606299213
 20
0.4088464566929134
 30
0.0
 10
-0.1508149606299213
 20
0.4088464566929134
 30
0.0
 10
-0.1508149606299213
 20
0.4088464566929134
 30
0.0
 10
-0.1508149606299213
 20
0.4088464566929134
 30
0.0
 10
-0.1584133858267717
 20
0.4175748031496063
 30
0.0
 10
-0.1584133858267717
 20
0.4175748031496063
 30
0.0
 10
-0.1584133858267717
 20
0.4175748031496063
 30
0.0
 10
-0.1584133858267717
 20
0.4175748031496063
 30
0.0
 10
-0.1661102362204724
 20
0.4254724409448819
 30
0.0
 10
-0.1661102362204724
 20
0.4254724409448819
 30
0.0
 10
-0.1661102362204724
 20
0.4254724409448819
 30
0.0
 10
-0.1661102362204724
 20
0.4254724409448819
 30
0.0
 10
-0.1739173228346457
 20
0.4325511811023622
 30
0.0
 10
-0.1739173228346457
 20
0.4325511811023622
 30
0.0
 10
-0.1739173228346457
 20
0.4325511811023622
 30
0.0
 10
-0.1739173228346457
 20
0.4325511811023622
 30
0.0
 10
-0.8266614173228347
 20
0.0541299212598425
 30
0.0
 10
-0.8266614173228347
 20
0.0541299212598425
 30
0.0
 10
-0.8266614173228347
 20
0.0541299212598425
 30
0.0
 10
-0.8266614173228347
 20
0.0541299212598425
 30
0.0
 10
-0.8188543307086614
 20
0.0470511811023622
 30
0.0
 10
-0.8188543307086614
 20
0.0470511811023622
 30
0.0
 10
-0.8188543307086614
 20
0.0470511811023622
 30
0.0
 10
-0.8188543307086614
 20
0.0470511811023622
 30
0.0
 10
-0.8111574803149607
 20
0.0391535433070866
 30
0.0
 10
-0.8111574803149607
 20
0.0391535433070866
 30
0.0
 10
-0.8111574803149607
 20
0.0391535433070866
 30
0.0
 10
-0.8111574803149607
 20
0.0391535433070866
 30
0.0
 10
-0.8035590551181103
 20
0.0304251968503937
 30
0.0
 10
-0.8035590551181103
 20
0.0304251968503937
 30
0.0
 10
-0.8035590551181103
 20
0.0304251968503937
 30
0.0
 10
-0.8035590551181103
 20
0.0304251968503937
 30
0.0
 10
-0.7960905511811024
 20
0.0208425196850394
 30
0.0
 10
-0.7960905511811024
 20
0.0208425196850394
 30
0.0
  0
SPLINE
  5
63
100
AcDbEntity
  8
P1-Layer 1
 62
     9
100
AcDbSpline
210
0.0
220
0.0
230
1.0
 70
     1
 71
     3
 72
    52
 73
    48
 74
     0
 42
0.0000000001
 43
0.0000000001
 40
0.0
 40
0.0
 40
0.0
 40
0.0
 40
0.0833333333333333
 40
0.0833333333333333
 40
0.0833333333333333
 40
0.0833333333333333
 40
0.1666666666666667
 40
0.1666666666666667
 40
0.1666666666666667
 40
0.1666666666666667
 40
0.25
 40
0.25
 40
0.25
 40
0.25
 40
0.3333333333333333
 40
0.3333333333333333
 40
0.3333333333333333
 40
0.3333333333333333
 40
0.4166666666666666
 40
0.4166666666666666
 40
0.4166666666666666
 40
0.4166666666666666
 40
0.4999999999999999
 40
0.4999999999999999
 40
0.4999999999999999
 40
0.4999999999999999
 40
0.5833333333333333
 40
0.5833333333333333
 40
0.5833333333333333
 40
0.5833333333333333
 40
0.6666666666666666
 40
0.6666666666666666
 40
0.6666666666666666
 40
0.6666666666666666
 40
0.75
 40
0.75
 40
0.75
 40
0.75
 40
0.8333333333333334
 40
0.8333333333333334
 40
0.8333333333333334
 40
0.8333333333333334
 40
0.9166666666666667
 40
0.9166666666666667
 40
0.9166666666666667
 40
0.9166666666666667
 40
1.0
 40
1.0
 40
1.0
 40
1.0
 10
-0.8266614173228347
 20
0.0541299212598425
 30
0.0
 10
-0.8266614173228347
 20
0.0541299212598425
 30
0.0
 10
-0.1739173228346457
 20
0.4325511811023622
 30
0.0
 10
-0.1739173228346457
 20
0.4325511811023622
 30
0.0
 10
-0.1739173228346457
 20
0.4325511811023622
 30
0.0
 10
-0.1739173228346457
 20
0.4325511811023622
 30
0.0
 10
-0.1818110236220473
 20
0.4388346456692914
 30
0.0
 10
-0.1818110236220473
 20
0.4388346456692914
 30
0.0
 10
-0.1818110236220473
 20
0.4388346456692914
 30
0.0
 10
-0.1818110236220473
 20
0.4388346456692914
 30
0.0
 10
-0.1897874015748031
 20
0.4443267716535433
 30
0.0
 10
-0.1897874015748031
 20
0.4443267716535433
 30
0.0
 10
-0.1897874015748031
 20
0.4443267716535433
 30
0.0
 10
-0.1897874015748031
 20
0.4443267716535433
 30
0.0
 10
-0.1978149606299213
 20
0.4490629921259843
 30
0.0
 10
-0.1978149606299213
 20
0.4490629921259843
 30
0.0
 10
-0.1978149606299213
 20
0.4490629921259843
 30
0.0
 10
-0.1978149606299213
 20
0.4490629921259843
 30
0.0
 10
-0.2059055118110236
 20
0.4530472440944882
 30
0.0
 10
-0.2059055118110236
 20
0.4530472440944882
 30
0.0
 10
-0.2059055118110236
 20
0.4530472440944882
 30
0.0
 10
-0.2059055118110236
 20
0.4530472440944882
 30
0.0
 10
-0.2140354330708661
 20
0.4562992125984252
 30
0.0
 10
-0.2140354330708661
 20
0.4562992125984252
 30
0.0
 10
-0.2140354330708661
 20
0.4562992125984252
 30
0.0
 10
-0.2140354330708661
 20
0.4562992125984252
 30
0.0
 10
-0.8667795275590552
 20
0.0778779527559055
 30
0.0
 10
-0.8667795275590552
 20
0.0778779527559055
 30
0.0
 10
-0.8667795275590552
 20
0.0778779527559055
 30
0.0
 10
-0.8667795275590552
 20
0.0778779527559055
 30
0.0
 10
-0.8586496062992126
 20
0.0746259842519685
 30
0.0
 10
-0.8586496062992126
 20
0.0746259842519685
 30
0.0
 10
-0.8586496062992126
 20
0.0746259842519685
 30
0.0
 10
-0.8586496062992126
 20
0.0746259842519685
 30
0.0
 10
-0.8505590551181103
 20
0.0706417322834646
 30
0.0
 10
-0.8505590551181103
 20
0.0706417322834646
 30
0.0
 10
-0.8505590551181103
 20
0.0706417322834646
 30
0.0
 10
-0.8505590551181103
 20
0.0706417322834646
 30
0.0
 10
-0.8425314960629922
 20
0.0659055118110236
 30
0.0
 10
-0.8425314960629922
 20
0.0659055118110236
 30
0.0
 10
-0.8425314960629922
 20
0.0659055118110236
 30
0.0
 10
-0.8425314960629922
 20
0.0659055118110236
 30
0.0
 10
-0.8345551181102363
 20
0.0604133858267717
 30
0.0
 10
-0.8345551181102363
 20
0.0604133858267717
 30
0.0
 10
-0.8345551181102363
 20
0.0604133858267717
 30
0.0
 10
-0.8345551181102363
 20
0.0604133858267717
 30
0.0
 10
-0.8266614173228347
 20
0.0541299212598425
 30
0.0
 10
-0.8266614173228347
 20
0.0541299212598425
 30
0.0
  0
SPLINE
  5
64
100
AcDbEntity
  8
P1-Layer 1
 62
   253
100
AcDbSpline
210
0.0
220
0.0
230
1.0
 70
     1
 71
     3
 72
    60
 73
    56
 74
     0
 42
0.0000000001
 43
0.0000000001
 40
0.0
 40
0.0
 40
0.0
 40
0.0
 40
0.0714285714285714
 40
0.0714285714285714
 40
0.0714285714285714
 40
0.0714285714285714
 40
0.1428571428571429
 40
0.1428571428571429
 40
0.1428571428571429
 40
0.1428571428571429
 40
0.2142857142857143
 40
0.2142857142857143
 40
0.2142857142857143
 40
0.2142857142857143
 40
0.2857142857142857
 40
0.2857142857142857
 40
0.2857142857142857
 40
0.2857142857142857
 40
0.3571428571428571
 40
0.3571428571428571
 40
0.3571428571428571
 40
0.3571428571428571
 40
0.4285714285714285
 40
0.4285714285714285
 40
0.4285714285714285
 40
0.4285714285714285
 40
0.4999999999999999
 40
0.4999999999999999
 40
0.4999999999999999
 40
0.4999999999999999
 40
0.5714285714285713
 40
0.5714285714285713
 40
0.5714285714285713
 40
0.5714285714285713
 40
0.6428571428571427
 40
0.6428571428571427
 40
0.6428571428571427
 40
0.6428571428571427
 40
0.7142857142857141
 40
0.7142857142857141
 40
0.7142857142857141
 40
0.7142857142857141
 40
0.7857142857142855
 40
0.7857142857142855
 40
0.7857142857142855
 40
0.7857142857142855
 40
0.8571428571428569
 40
0.8571428571428569
 40
0.8571428571428569
 40
0.8571428571428569
 40
0.9285714285714283
 40
0.9285714285714283
 40
0.9285714285714283
 40
0.9285714285714283
 40
1.0
 40
1.0
 40
1.0
 40
1.0
 10
-0.8667795275590552
 20
0.0778779527559055
 30
0.0
 10
-0.8667795275590552
 20
0.0778779527559055
 30
0.0
 10
-0.2140354330708661
 20
0.4562992125984252
 30
0.0
 10
-0.2140354330708661
 20
0.4562992125984252
 30
0.0
 10
-0.2140354330708661
 20
0.4562992125984252
 30
0.0
 10
-0.2140354330708661
 20
0.4562992125984252
 30
0.0
 10
-0.2221968503937008
 20
0.4588346456692913
 30
0.0
 10
-0.2221968503937008
 20
0.4588346456692913
 30
0.0
 10
-0.2221968503937008
 20
0.4588346456692913
 30
0.0
 10
-0.2221968503937008
 20
0.4588346456692913
 30
0.0
 10
-0.2303700787401575
 20
0.4606811023622047
 30
0.0
 10
-0.2303700787401575
 20
0.4606811023622047
 30
0.0
 10
-0.2303700787401575
 20
0.4606811023622047
 30
0.0
 10
-0.2303700787401575
 20
0.4606811023622047
 30
0.0
 10
-0.2385590551181102
 20
0.4618425196850394
 30
0.0
 10
-0.2385590551181102
 20
0.4618425196850394
 30
0.0
 10
-0.2385590551181102
 20
0.4618425196850394
 30
0.0
 10
-0.2385590551181102
 20
0.4618425196850394
 30
0.0
 10
-0.246736220472441
 20
0.4623425196850394
 30
0.0
 10
-0.246736220472441
 20
0.4623425196850394
 30
0.0
 10
-0.246736220472441
 20
0.4623425196850394
 30
0.0
 10
-0.246736220472441
 20
0.4623425196850394
 30
0.0
 10
-0.2549015748031496
 20
0.4621929133858268
 30
0.0
 10
-0.2549015748031496
 20
0.4621929133858268
 30
0.0
 10
-0.2549015748031496
 20
0.4621929133858268
 30
0.0
 10
-0.2549015748031496
 20
0.4621929133858268
 30
0.0
 10
-0.2630314960629921
 20
0.4614251968503937
 30
0.0
 10
-0.2630314960629921
 20
0.4614251968503937
 30
0.0
 10
-0.2630314960629921
 20
0.4614251968503937
 30
0.0
 10
-0.2630314960629921
 20
0.4614251968503937
 30
0.0
 10
-0.9157755905511812
 20
0.083003937007874
 30
0.0
 10
-0.9157755905511812
 20
0.083003937007874
 30
0.0
 10
-0.9157755905511812
 20
0.083003937007874
 30
0.0
 10
-0.9157755905511812
 20
0.083003937007874
 30
0.0
 10
-0.9076456692913386
 20
0.0837716535433071
 30
0.0
 10
-0.9076456692913386
 20
0.0837716535433071
 30
0.0
 10
-0.9076456692913386
 20
0.0837716535433071
 30
0.0
 10
-0.9076456692913386
 20
0.0837716535433071
 30
0.0
 10
-0.89948031496063
 20
0.0839212598425197
 30
0.0
 10
-0.89948031496063
 20
0.0839212598425197
 30
0.0
 10
-0.89948031496063
 20
0.0839212598425197
 30
0.0
 10
-0.89948031496063
 20
0.0839212598425197
 30
0.0
 10
-0.8913031496062992
 20
0.0834212598425197
 30
0.0
 10
-0.8913031496062992
 20
0.0834212598425197
 30
0.0
 10
-0.8913031496062992
 20
0.0834212598425197
 30
0.0
 10
-0.8913031496062992
 20
0.0834212598425197
 30
0.0
 10
-0.8831141732283465
 20
0.082259842519685
 30
0.0
 10
-0.8831141732283465
 20
0.082259842519685
 30
0.0
 10
-0.8831141732283465
 20
0.082259842519685
 30
0.0
 10
-0.8831141732283465
 20
0.082259842519685
 30
0.0
 10
-0.8749409448818898
 20
0.0804133858267717
 30
0.0
 10
-0.8749409448818898
 20
0.0804133858267717
 30
0.0
 10
-0.8749409448818898
 20
0.0804133858267717
 30
0.0
 10
-0.8749409448818898
 20
0.0804133858267717
 30
0.0
 10
-0.8667795275590552
 20
0.0778779527559055
 30
0.0
 10
-0.8667795275590552
 20
0.0778779527559055
 30
0.0
  0
SPLINE
  5
65
100
AcDbEntity
  8
P1-Layer 1
 62
   109
100
AcDbSpline
210
0.0
220
0.0
230
1.0
 70
     1
 71
     3
 72
    52
 73
    48
 74
     0
 42
0.0000000001
 43
0.0000000001
 40
0.0
 40
0.0
 40
0.0
 40
0.0
 40
0.0833333333333333
 40
0.0833333333333333
 40
0.0833333333333333
 40
0.0833333333333333
 40
0.1666666666666667
 40
0.1666666666666667
 40
0.1666666666666667
 40
0.1666666666666667
 40
0.25
 40
0.25
 40
0.25
 40
0.25
 40
0.3333333333333333
 40
0.3333333333333333
 40
0.3333333333333333
 40
0.3333333333333333
 40
0.4166666666666666
 40
0.4166666666666666
 40
0.4166666666666666
 40
0.4166666666666666
 40
0.4999999999999999
 40
0.4999999999999999
 40
0.4999999999999999
 40
0.4999999999999999
 40
0.5833333333333333
 40
0.5833333333333333
 40
0.5833333333333333
 40
0.5833333333333333
 40
0.6666666666666666
 40
0.6666666666666666
 40
0.6666666666666666
 40
0.6666666666666666
 40
0.75
 40
0.75
 40
0.75
 40
0.75
 40
0.8333333333333334
 40
0.8333333333333334
 40
0.8333333333333334
 40
0.8333333333333334
 40
0.9166666666666667
 40
0.9166666666666667
 40
0.9166666666666667
 40
0.9166666666666667
 40
1.0
 40
1.0
 40
1.0
 40
1.0
 10
-0.9157755905511812
 20
0.083003937007874
 30
0.0
 10
-0.9157755905511812
 20
0.083003937007874
 30
0.0
 10
-0.2630314960629921
 20
0.4614251968503937
 30
0.0
 10
-0.2630314960629921
 20
0.4614251968503937
 30
0.0
 10
-0.2630314960629921
 20
0.4614251968503937
 30
0.0
 10
-0.2630314960629921
 20
0.4614251968503937
 30
0.0
 10
-0.2711259842519685
 20
0.4600393700787402
 30
0.0
 10
-0.2711259842519685
 20
0.4600393700787402
 30
0.0
 10
-0.2711259842519685
 20
0.4600393700787402
 30
0.0
 10
-0.2711259842519685
 20
0.4600393700787402
 30
0.0
 10
-0.2791614173228347
 20
0.4580629921259843
 30
0.0
 10
-0.2791614173228347
 20
0.4580629921259843
 30
0.0
 10
-0.2791614173228347
 20
0.4580629921259843
 30
0.0
 10
-0.2791614173228347
 20
0.4580629921259843
 30
0.0
 10
-0.2871417322834646
 20
0.4555039370078741
 30
0.0
 10
-0.2871417322834646
 20
0.4555039370078741
 30
0.0
 10
-0.2871417322834646
 20
0.4555039370078741
 30
0.0
 10
-0.2871417322834646
 20
0.4555039370078741
 30
0.0
 10
-0.2950393700787402
 20
0.4523937007874016
 30
0.0
 10
-0.2950393700787402
 20
0.4523937007874016
 30
0.0
 10
-0.2950393700787402
 20
0.4523937007874016
 30
0.0
 10
-0.2950393700787402
 20
0.4523937007874016
 30
0.0
 10
-0.3028582677165355
 20
0.4487362204724409
 30
0.0
 10
-0.3028582677165355
 20
0.4487362204724409
 30
0.0
 10
-0.3028582677165355
 20
0.4487362204724409
 30
0.0
 10
-0.3028582677165355
 20
0.4487362204724409
 30
0.0
 10
-0.9556023622047245
 20
0.0703149606299213
 30
0.0
 10
-0.9556023622047245
 20
0.0703149606299213
 30
0.0
 10
-0.9556023622047245
 20
0.0703149606299213
 30
0.0
 10
-0.9556023622047245
 20
0.0703149606299213
 30
0.0
 10
-0.9477834645669292
 20
0.0739724409448819
 30
0.0
 10
-0.9477834645669292
 20
0.0739724409448819
 30
0.0
 10
-0.9477834645669292
 20
0.0739724409448819
 30
0.0
 10
-0.9477834645669292
 20
0.0739724409448819
 30
0.0
 10
-0.9398858267716536
 20
0.0770826771653543
 30
0.0
 10
-0.9398858267716536
 20
0.0770826771653543
 30
0.0
 10
-0.9398858267716536
 20
0.0770826771653543
 30
0.0
 10
-0.9398858267716536
 20
0.0770826771653543
 30
0.0
 10
-0.9319055118110237
 20
0.0796417322834646
 30
0.0
 10
-0.9319055118110237
 20
0.0796417322834646
 30
0.0
 10
-0.9319055118110237
 20
0.0796417322834646
 30
0.0
 10
-0.9319055118110237
 20
0.0796417322834646
 30
0.0
 10
-0.9238700787401575
 20
0.0816181102362205
 30
0.0
 10
-0.9238700787401575
 20
0.0816181102362205
 30
0.0
 10
-0.9238700787401575
 20
0.0816181102362205
 30
0.0
 10
-0.9238700787401575
 20
0.0816181102362205
 30
0.0
 10
-0.9157755905511812
 20
0.083003937007874
 30
0.0
 10
-0.9157755905511812
 20
0.083003937007874
 30
0.0
  0
SPLINE
  5
66
100
AcDbEntity
  8
P1-Layer 1
100
AcDbSpline
210
0.0
220
0.0
230
1.0
 70
     1
 71
     3
 72
    20
 73
    16
 74
     0
 42
0.0000000001
 43
0.0000000001
 40
0.0
 40
0.0
 40
0.0
 40
0.0
 40
0.25
 40
0.25
 40
0.25
 40
0.25
 40
0.5
 40
0.5
 40
0.5
 40
0.5
 40
0.75
 40
0.75
 40
0.75
 40
0.75
 40
1.0
 40
1.0
 40
1.0
 40
1.0
 10
-0.9556023622047245
 20
0.0703149606299213
 30
0.0
 10
-0.9556023622047245
 20
0.0703149606299213
 30
0.0
 10
-0.3028582677165355
 20
0.4487362204724409
 30
0.0
 10
-0.3028582677165355
 20
0.4487362204724409
 30
0.0
 10
-0.3028582677165355
 20
0.4487362204724409
 30
0.0
 10
-0.3028582677165355
 20
0.4487362204724409
 30
0.0
 10
-0.3105748031496063
 20
0.4445551181102362
 30
0.0
 10
-0.3105748031496063
 20
0.4445551181102362
 30
0.0
 10
-0.3105748031496063
 20
0.4445551181102362
 30
0.0
 10
-0.3105748031496063
 20
0.4445551181102362
 30
0.0
 10
-0.9633188976377953
 20
0.0661338582677165
 30
0.0
 10
-0.9633188976377953
 20
0.0661338582677165
 30
0.0
 10
-0.9633188976377953
 20
0.0661338582677165
 30
0.0
 10
-0.9633188976377953
 20
0.0661338582677165
 30
0.0
 10
-0.9556023622047245
 20
0.0703149606299213
 30
0.0
 10
-0.9556023622047245
 20
0.0703149606299213
 30
0.0
  0
SPLINE
  5
67
100
AcDbEntity
  8
P1-Layer 1
370
     5
100
AcDbSpline
210
0.0
220
0.0
230
1.0
 70
     1
 71
     3
 72
   204
 73
   200
 74
     0
 42
0.0000000001
 43
0.0000000001
 40
0.0
 40
0.0
 40
0.0
 40
0.0
 40
0.02
 40
0.02
 40
0.02
 40
0.02
 40
0.04
 40
0.04
 40
0.04
 40
0.04
 40
0.06
 40
0.06
 40
0.06
 40
0.06
 40
0.08
 40
0.08
 40
0.08
 40
0.08
 40
0.1
 40
0.1
 40
0.1
 40
0.1
 40
0.12
 40
0.12
 40
0.12
 40
0.12
 40
0.14
 40
0.14
 40
0.14
 40
0.14
 40
0.16
 40
0.16
 40
0.16
 40
0.16
 40
0.18
 40
0.18
 40
0.18
 40
0.18
 40
0.2
 40
0.2
 40
0.2
 40
0.2
 40
0.22
 40
0.22
 40
0.22
 40
0.22
 40
0.24
 40
0.24
 40
0.24
 40
0.24
 40
0.26
 40
0.26
 40
0.26
 40
0.26
 40
0.28
 40
0.28
 40
0.28
 40
0.28
 40
0.3
 40
0.3
 40
0.3
 40
0.3
 40
0.32
 40
0.32
 40
0.32
 40
0.32
 40
0.34
 40
0.34
 40
0.34
 40
0.34
 40
0.36
 40
0.36
 40
0.36
 40
0.36
 40
0.3800000000000001
 40
0.3800000000000001
 40
0.3800000000000001
 40
0.3800000000000001
 40
0.4000000000000001
 40
0.4000000000000001
 40
0.4000000000000001
 40
0.4000000000000001
 40
0.4200000000000001
 40
0.4200000000000001
 40
0.4200000000000001
 40
0.4200000000000001
 40
0.4400000000000001
 40
0.4400000000000001
 40
0.4400000000000001
 40
0.4400000000000001
 40
0.4600000000000001
 40
0.4600000000000001
 40
0.4600000000000001
 40
0.4600000000000001
 40
0.4800000000000002
 40
0.4800000000000002
 40
0.4800000000000002
 40
0.4800000000000002
 40
0.5000000000000001
 40
0.5000000000000001
 40
0.5000000000000001
 40
0.5000000000000001
 40
0.5200000000000001
 40
0.5200000000000001
 40
0.5200000000000001
 40
0.5200000000000001
 40
0.5400000000000002
 40
0.5400000000000002
 40
0.5400000000000002
 40
0.5400000000000002
 40
0.5600000000000002
 40
0.5600000000000002
 40
0.5600000000000002
 40
0.5600000000000002
 40
0.5800000000000002
 40
0.5800000000000002
 40
0.5800000000000002
 40
0.5800000000000002
 40
0.6000000000000002
 40
0.6000000000000002
 40
0.6000000000000002
 40
0.6000000000000002
 40
0.6200000000000002
 40
0.6200000000000002
 40
0.6200000000000002
 40
0.6200000000000002
 40
0.6400000000000002
 40
0.6400000000000002
 40
0.6400000000000002
 40
0.6400000000000002
 40
0.6600000000000003
 40
0.6600000000000003
 40
0.6600000000000003
 40
0.6600000000000003
 40
0.6800000000000003
 40
0.6800000000000003
 40
0.6800000000000003
 40
0.6800000000000003
 40
0.7000000000000003
 40
0.7000000000000003
 40
0.7000000000000003
 40
0.7000000000000003
 40
0.7200000000000003
 40
0.7200000000000003
 40
0.7200000000000003
 40
0.7200000000000003
 40
0.7400000000000003
 40
0.7400000000000003
 40
0.7400000000000003
 40
0.7400000000000003
 40
0.7600000000000003
 40
0.7600000000000003
 40
0.7600000000000003
 40
0.7600000000000003
 40
0.7800000000000004
 40
0.7800000000000004
 40
0.7800000000000004
 40
0.7800000000000004
 40
0.8000000000000004
 40
0.8000000000000004
 40
0.8000000000000004
 40
0.8000000000000004
 40
0.8200000000000004
 40
0.8200000000000004
 40
0.8200000000000004
 40
0.8200000000000004
 40
0.8400000000000004
 40
0.8400000000000004
 40
0.8400000000000004
 40
0.8400000000000004
 40
0.8600000000000004
 40
0.8600000000000004
 40
0.8600000000000004
 40
0.8600000000000004
 40
0.8800000000000005
 40
0.8800000000000005
 40
0.8800000000000005
 40
0.8800000000000005
 40
0.9000000000000005
 40
0.9000000000000005
 40
0.9000000000000005
 40
0.9000000000000005
 40
0.9200000000000005
 40
0.9200000000000005
 40
0.9200000000000005
 40
0.9200000000000005
 40
0.9400000000000005
 40
0.9400000000000005
 40
0.9400000000000005
 40
0.9400000000000005
 40
0.9600000000000005
 40
0.9600000000000005
 40
0.9600000000000005
 40
0.9600000000000005
 40
0.9800000000000005
 40
0.9800000000000005
 40
0.9800000000000005
 40
0.9800000000000005
 40
1.0
 40
1.0
 40
1.0
 40
1.0
 10
-0.759492125984252
 20
-0.0009488188976378
 30
0.0
 10
-0.759492125984252
 20
-0.0009488188976378
 30
0.0
 10
-0.106748031496063
 20
0.3774724409448819
 30
0.0
 10
-0.106748031496063
 20
0.3774724409448819
 30
0.0
 10
-0.106748031496063
 20
0.3774724409448819
 30
0.0
 10
-0.106748031496063
 20
0.3774724409448819
 30
0.0
 10
-0.1288228346456693
 20
0.3774724409448819
 30
0.0
 10
-0.1288228346456693
 20
0.3774724409448819
 30
0.0
 10
-0.1288228346456693
 20
0.3774724409448819
 30
0.0
 10
-0.1288228346456693
 20
0.3774724409448819
 30
0.0
 10
-0.136007874015748
 20
0.3888149606299213
 30
0.0
 10
-0.136007874015748
 20
0.3888149606299213
 30
0.0
 10
-0.136007874015748
 20
0.3888149606299213
 30
0.0
 10
-0.136007874015748
 20
0.3888149606299213
 30
0.0
 10
-0.1433464566929134
 20
0.3992637795275591
 30
0.0
 10
-0.1433464566929134
 20
0.3992637795275591
 30
0.0
 10
-0.1433464566929134
 20
0.3992637795275591
 30
0.0
 10
-0.1433464566929134
 20
0.3992637795275591
 30
0.0
 10
-0.1508149606299213
 20
0.4088464566929134
 30
0.0
 10
-0.1508149606299213
 20
0.4088464566929134
 30
0.0
 10
-0.1508149606299213
 20
0.4088464566929134
 30
0.0
 10
-0.1508149606299213
 20
0.4088464566929134
 30
0.0
 10
-0.1584133858267717
 20
0.4175748031496063
 30
0.0
 10
-0.1584133858267717
 20
0.4175748031496063
 30
0.0
 10
-0.1584133858267717
 20
0.4175748031496063
 30
0.0
 10
-0.1584133858267717
 20
0.4175748031496063
 30
0.0
 10
-0.1661102362204724
 20
0.4254724409448819
 30
0.0
 10
-0.1661102362204724
 20
0.4254724409448819
 30
0.0
 10
-0.1661102362204724
 20
0.4254724409448819
 30
0.0
 10
-0.1661102362204724
 20
0.4254724409448819
 30
0.0
 10
-0.1739173228346457
 20
0.4325511811023622
 30
0.0
 10
-0.1739173228346457
 20
0.4325511811023622
 30
0.0
 10
-0.1739173228346457
 20
0.4325511811023622
 30
0.0
 10
-0.1739173228346457
 20
0.4325511811023622
 30
0.0
 10
-0.1818110236220473
 20
0.4388346456692914
 30
0.0
 10
-0.1818110236220473
 20
0.4388346456692914
 30
0.0
 10
-0.1818110236220473
 20
0.4388346456692914
 30
0.0
 10
-0.1818110236220473
 20
0.4388346456692914
 30
0.0
 10
-0.1897874015748031
 20
0.4443267716535433
 30
0.0
 10
-0.1897874015748031
 20
0.4443267716535433
 30
0.0
 10
-0.1897874015748031
 20
0.4443267716535433
 30
0.0
 10
-0.1897874015748031
 20
0.4443267716535433
 30
0.0
 10
-0.1978149606299213
 20
0.4490629921259843
 30
0.0
 10
-0.1978149606299213
 20
0.4490629921259843
 30
0.0
 10
-0.1978149606299213
 20
0.4490629921259843
 30
0.0
 10
-0.1978149606299213
 20
0.4490629921259843
 30
0.0
 10
-0.2059055118110236
 20
0.4530472440944882
 30
0.0
 10
-0.2059055118110236
 20
0.4530472440944882
 30
0.0
 10
-0.2059055118110236
 20
0.4530472440944882
 30
0.0
 10
-0.2059055118110236
 20
0.4530472440944882
 30
0.0
 10
-0.2140354330708661
 20
0.4562992125984252
 30
0.0
 10
-0.2140354330708661
 20
0.4562992125984252
 30
0.0
 10
-0.2140354330708661
 20
0.4562992125984252
 30
0.0
 10
-0.2140354330708661
 20
0.4562992125984252
 30
0.0
 10
-0.2221968503937008
 20
0.4588346456692913
 30
0.0
 10
-0.2221968503937008
 20
0.4588346456692913
 30
0.0
 10
-0.2221968503937008
 20
0.4588346456692913
 30
0.0
 10
-0.2221968503937008
 20
0.4588346456692913
 30
0.0
 10
-0.2303700787401575
 20
0.4606811023622047
 30
0.0
 10
-0.2303700787401575
 20
0.4606811023622047
 30
0.0
 10
-0.2303700787401575
 20
0.4606811023622047
 30
0.0
 10
-0.2303700787401575
 20
0.4606811023622047
 30
0.0
 10
-0.2385590551181102
 20
0.4618425196850394
 30
0.0
 10
-0.2385590551181102
 20
0.4618425196850394
 30
0.0
 10
-0.2385590551181102
 20
0.4618425196850394
 30
0.0
 10
-0.2385590551181102
 20
0.4618425196850394
 30
0.0
 10
-0.246736220472441
 20
0.4623425196850394
 30
0.0
 10
-0.246736220472441
 20
0.4623425196850394
 30
0.0
 10
-0.246736220472441
 20
0.4623425196850394
 30
0.0
 10
-0.246736220472441
 20
0.4623425196850394
 30
0.0
 10
-0.2549015748031496
 20
0.4621929133858268
 30
0.0
 10
-0.2549015748031496
 20
0.4621929133858268
 30
0.0
 10
-0.2549015748031496
 20
0.4621929133858268
 30
0.0
 10
-0.2549015748031496
 20
0.4621929133858268
 30
0.0
 10
-0.2630314960629921
 20
0.4614251968503937
 30
0.0
 10
-0.2630314960629921
 20
0.4614251968503937
 30
0.0
 10
-0.2630314960629921
 20
0.4614251968503937
 30
0.0
 10
-0.2630314960629921
 20
0.4614251968503937
 30
0.0
 10
-0.2711259842519685
 20
0.4600393700787402
 30
0.0
 10
-0.2711259842519685
 20
0.4600393700787402
 30
0.0
 10
-0.2711259842519685
 20
0.4600393700787402
 30
0.0
 10
-0.2711259842519685
 20
0.4600393700787402
 30
0.0
 10
-0.2791614173228347
 20
0.4580629921259843
 30
0.0
 10
-0.2791614173228347
 20
0.4580629921259843
 30
0.0
 10
-0.2791614173228347
 20
0.4580629921259843
 30
0.0
 10
-0.2791614173228347
 20
0.4580629921259843
 30
0.0
 10
-0.2871417322834646
 20
0.4555039370078741
 30
0.0
 10
-0.2871417322834646
 20
0.4555039370078741
 30
0.0
 10
-0.2871417322834646
 20
0.4555039370078741
 30
0.0
 10
-0.2871417322834646
 20
0.4555039370078741
 30
0.0
 10
-0.2950393700787402
 20
0.4523937007874016
 30
0.0
 10
-0.2950393700787402
 20
0.4523937007874016
 30
0.0
 10
-0.2950393700787402
 20
0.4523937007874016
 30
0.0
 10
-0.2950393700787402
 20
0.4523937007874016
 30
0.0
 10
-0.3028582677165355
 20
0.4487362204724409
 30
0.0
 10
-0.3028582677165355
 20
0.4487362204724409
 30
0.0
 10
-0.3028582677165355
 20
0.4487362204724409
 30
0.0
 10
-0.3028582677165355
 20
0.4487362204724409
 30
0.0
 10
-0.3105748031496063
 20
0.4445551181102362
 30
0.0
 10
-0.3105748031496063
 20
0.4445551181102362
 30
0.0
 10
-0.3105748031496063
 20
0.4445551181102362
 30
0.0
 10
-0.3105748031496063
 20
0.4445551181102362
 30
0.0
 10
-0.9633188976377953
 20
0.0661338582677165
 30
0.0
 10
-0.9633188976377953
 20
0.0661338582677165
 30
0.0
 10
-0.9633188976377953
 20
0.0661338582677165
 30
0.0
 10
-0.9633188976377953
 20
0.0661338582677165
 30
0.0
 10
-0.9556023622047245
 20
0.0703149606299213
 30
0.0
 10
-0.9556023622047245
 20
0.0703149606299213
 30
0.0
 10
-0.9556023622047245
 20
0.0703149606299213
 30
0.0
 10
-0.9556023622047245
 20
0.0703149606299213
 30
0.0
 10
-0.9477834645669292
 20
0.0739724409448819
 30
0.0
 10
-0.9477834645669292
 20
0.0739724409448819
 30
0.0
 10
-0.9477834645669292
 20
0.0739724409448819
 30
0.0
 10
-0.9477834645669292
 20
0.0739724409448819
 30
0.0
 10
-0.9398858267716536
 20
0.0770826771653543
 30
0.0
 10
-0.9398858267716536
 20
0.0770826771653543
 30
0.0
 10
-0.9398858267716536
 20
0.0770826771653543
 30
0.0
 10
-0.9398858267716536
 20
0.0770826771653543
 30
0.0
 10
-0.9319055118110237
 20
0.0796417322834646
 30
0.0
 10
-0.9319055118110237
 20
0.0796417322834646
 30
0.0
 10
-0.9319055118110237
 20
0.0796417322834646
 30
0.0
 10
-0.9319055118110237
 20
0.0796417322834646
 30
0.0
 10
-0.9238700787401575
 20
0.0816181102362205
 30
0.0
 10
-0.9238700787401575
 20
0.0816181102362205
 30
0.0
 10
-0.9238700787401575
 20
0.0816181102362205
 30
0.0
 10
-0.9238700787401575
 20
0.0816181102362205
 30
0.0
 10
-0.9157755905511812
 20
0.083003937007874
 30
0.0
 10
-0.9157755905511812
 20
0.083003937007874
 30
0.0
 10
-0.9157755905511812
 20
0.083003937007874
 30
0.0
 10
-0.9157755905511812
 20
0.083003937007874
 30
0.0
 10
-0.9076456692913386
 20
0.0837716535433071
 30
0.0
 10
-0.9076456692913386
 20
0.0837716535433071
 30
0.0
 10
-0.9076456692913386
 20
0.0837716535433071
 30
0.0
 10
-0.9076456692913386
 20
0.0837716535433071
 30
0.0
 10
-0.89948031496063
 20
0.0839212598425197
 30
0.0
 10
-0.89948031496063
 20
0.0839212598425197
 30
0.0
 10
-0.89948031496063
 20
0.0839212598425197
 30
0.0
 10
-0.89948031496063
 20
0.0839212598425197
 30
0.0
 10
-0.8913031496062992
 20
0.0834212598425197
 30
0.0
 10
-0.8913031496062992
 20
0.0834212598425197
 30
0.0
 10
-0.8913031496062992
 20
0.0834212598425197
 30
0.0
 10
-0.8913031496062992
 20
0.0834212598425197
 30
0.0
 10
-0.8831141732283465
 20
0.082259842519685
 30
0.0
 10
-0.8831141732283465
 20
0.082259842519685
 30
0.0
 10
-0.8831141732283465
 20
0.082259842519685
 30
0.0
 10
-0.8831141732283465
 20
0.082259842519685
 30
0.0
 10
-0.8749409448818898
 20
0.0804133858267717
 30
0.0
 10
-0.8749409448818898
 20
0.0804133858267717
 30
0.0
 10
-0.8749409448818898
 20
0.0804133858267717
 30
0.0
 10
-0.8749409448818898
 20
0.0804133858267717
 30
0.0
 10
-0.8667795275590552
 20
0.0778779527559055
 30
0.0
 10
-0.8667795275590552
 20
0.0778779527559055
 30
0.0
 10
-0.8667795275590552
 20
0.0778779527559055
 30
0.0
 10
-0.8667795275590552
 20
0.0778779527559055
 30
0.0
 10
-0.8586496062992126
 20
0.0746259842519685
 30
0.0
 10
-0.8586496062992126
 20
0.0746259842519685
 30
0.0
 10
-0.8586496062992126
 20
0.0746259842519685
 30
0.0
 10
-0.8586496062992126
 20
0.0746259842519685
 30
0.0
 10
-0.8505590551181103
 20
0.0706417322834646
 30
0.0
 10
-0.8505590551181103
 20
0.0706417322834646
 30
0.0
 10
-0.8505590551181103
 20
0.0706417322834646
 30
0.0
 10
-0.8505590551181103
 20
0.0706417322834646
 30
0.0
 10
-0.8425314960629922
 20
0.0659055118110236
 30
0.0
 10
-0.8425314960629922
 20
0.0659055118110236
 30
0.0
 10
-0.8425314960629922
 20
0.0659055118110236
 30
0.0
 10
-0.8425314960629922
 20
0.0659055118110236
 30
0.0
 10
-0.8345551181102363
 20
0.0604133858267717
 30
0.0
 10
-0.8345551181102363
 20
0.0604133858267717
 30
0.0
 10
-0.8345551181102363
 20
0.0604133858267717
 30
0.0
 10
-0.8345551181102363
 20
0.0604133858267717
 30
0.0
 10
-0.8266614173228347
 20
0.0541299212598425
 30
0.0
 10
-0.8266614173228347
 20
0.0541299212598425
 30
0.0
 10
-0.8266614173228347
 20
0.0541299212598425
 30
0.0
 10
-0.8266614173228347
 20
0.0541299212598425
 30
0.0
 10
-0.8188543307086614
 20
0.0470511811023622
 30
0.0
 10
-0.8188543307086614
 20
0.0470511811023622
 30
0.0
 10
-0.8188543307086614
 20
0.0470511811023622
 30
0.0
 10
-0.8188543307086614
 20
0.0470511811023622
 30
0.0
 10
-0.8111574803149607
 20
0.0391535433070866
 30
0.0
 10
-0.8111574803149607
 20
0.0391535433070866
 30
0.0
 10
-0.8111574803149607
 20
0.0391535433070866
 30
0.0
 10
-0.8111574803149607
 20
0.0391535433070866
 30
0.0
 10
-0.8035590551181103
 20
0.0304251968503937
 30
0.0
 10
-0.8035590551181103
 20
0.0304251968503937
 30
0.0
 10
-0.8035590551181103
 20
0.0304251968503937
 30
0.0
 10
-0.8035590551181103
 20
0.0304251968503937
 30
0.0
 10
-0.7960905511811024
 20
0.0208425196850394
 30
0.0
 10
-0.7960905511811024
 20
0.0208425196850394
 30
0.0
 10
-0.7960905511811024
 20
0.0208425196850394
 30
0.0
 10
-0.7960905511811024
 20
0.0208425196850394
 30
0.0
 10
-0.788751968503937
 20
0.0103937007874016
 30
0.0
 10
-0.788751968503937
 20
0.0103937007874016
 30
0.0
 10
-0.788751968503937
 20
0.0103937007874016
 30
0.0
 10
-0.788751968503937
 20
0.0103937007874016
 30
0.0
 10
-0.7815669291338583
 20
-0.0009488188976378
 30
0.0
 10
-0.7815669291338583
 20
-0.0009488188976378
 30
0.0
 10
-0.7815669291338583
 20
-0.0009488188976378
 30
0.0
 10
-0.7815669291338583
 20
-0.0009488188976378
 30
0.0
 10
-0.759492125984252
 20
-0.0009488188976378
 30
0.0
 10
-0.759492125984252
 20
-0.0009488188976378
 30
0.0
  0
SPLINE
  5
68
100
AcDbEntity
  8
P1-Layer 1
 62
   252
100
AcDbSpline
210
0.0
220
0.0
230
1.0
 70
     1
 71
     3
 72
    20
 73
    16
 74
     0
 42
0.0000000001
 43
0.0000000001
 40
0.0
 40
0.0
 40
0.0
 40
0.0
 40
0.25
 40
0.25
 40
0.25
 40
0.25
 40
0.5
 40
0.5
 40
0.5
 40
0.5
 40
0.75
 40
0.75
 40
0.75
 40
0.75
 40
1.0
 40
1.0
 40
1.0
 40
1.0
 10
0.333748031496063
 20
0.0916062992125984
 30
0.0
 10
0.333748031496063
 20
0.0916062992125984
 30
0.0
 10
0.986492125984252
 20
0.4700275590551181
 30
0.0
 10
0.986492125984252
 20
0.4700275590551181
 30
0.0
 10
0.986492125984252
 20
0.4700275590551181
 30
0.0
 10
0.986492125984252
 20
0.4700275590551181
 30
0.0
 10
-0.0957283464566929
 20
0.4700275590551181
 30
0.0
 10
-0.0957283464566929
 20
0.4700275590551181
 30
0.0
 10
-0.0957283464566929
 20
0.4700275590551181
 30
0.0
 10
-0.0957283464566929
 20
0.4700275590551181
 30
0.0
 10
-0.748472440944882
 20
0.0916062992125984
 30
0.0
 10
-0.748472440944882
 20
0.0916062992125984
 30
0.0
 10
-0.748472440944882
 20
0.0916062992125984
 30
0.0
 10
-0.748472440944882
 20
0.0916062992125984
 30
0.0
 10
0.333748031496063
 20
0.0916062992125984
 30
0.0
 10
0.333748031496063
 20
0.0916062992125984
 30
0.0
  0
SPLINE
  5
69
100
AcDbEntity
  8
P1-Layer 1
370
     5
100
AcDbSpline
210
0.0
220
0.0
230
1.0
 70
     1
 71
     3
 72
    20
 73
    16
 74
     0
 42
0.0000000001
 43
0.0000000001
 40
0.0
 40
0.0
 40
0.0
 40
0.0
 40
0.25
 40
0.25
 40
0.25
 40
0.25
 40
0.5
 40
0.5
 40
0.5
 40
0.5
 40
0.75
 40
0.75
 40
0.75
 40
0.75
 40
1.0
 40
1.0
 40
1.0
 40
1.0
 10
0.333748031496063
 20
0.0916062992125984
 30
0.0
 10
0.333748031496063
 20
0.0916062992125984
 30
0.0
 10
0.986492125984252
 20
0.4700275590551181
 30
0.0
 10
0.986492125984252
 20
0.4700275590551181
 30
0.0
 10
0.986492125984252
 20
0.4700275590551181
 30
0.0
 10
0.986492125984252
 20
0.4700275590551181
 30
0.0
 10
-0.0957283464566929
 20
0.4700275590551181
 30
0.0
 10
-0.0957283464566929
 20
0.4700275590551181
 30
0.0
 10
-0.0957283464566929
 20
0.4700275590551181
 30
0.0
 10
-0.0957283464566929
 20
0.4700275590551181
 30
0.0
 10
-0.748472440944882
 20
0.0916062992125984
 30
0.0
 10
-0.748472440944882
 20
0.0916062992125984
 30
0.0
 10
-0.748472440944882
 20
0.0916062992125984
 30
0.0
 10
-0.748472440944882
 20
0.0916062992125984
 30
0.0
 10
0.333748031496063
 20
0.0916062992125984
 30
0.0
 10
0.333748031496063
 20
0.0916062992125984
 30
0.0
  0
SPLINE
  5
6A
100
AcDbEntity
  8
P1-Layer 1
370
     5
 62
     7
100
AcDbSpline
210
0.0
220
0.0
230
1.0
 70
     1
 71
     3
 72
    56
 73
    52
 74
     0
 42
0.0000000001
 43
0.0000000001
 40
0.0
 40
0.0
 40
0.0
 40
0.0
 40
0.0769230769230769
 40
0.0769230769230769
 40
0.0769230769230769
 40
0.0769230769230769
 40
0.1538461538461539
 40
0.1538461538461539
 40
0.1538461538461539
 40
0.1538461538461539
 40
0.2307692307692308
 40
0.2307692307692308
 40
0.2307692307692308
 40
0.2307692307692308
 40
0.3076923076923077
 40
0.3076923076923077
 40
0.3076923076923077
 40
0.3076923076923077
 40
0.3846153846153846
 40
0.3846153846153846
 40
0.3846153846153846
 40
0.3846153846153846
 40
0.4615384615384616
 40
0.4615384615384616
 40
0.4615384615384616
 40
0.4615384615384616
 40
0.5384615384615386
 40
0.5384615384615386
 40
0.5384615384615386
 40
0.5384615384615386
 40
0.6153846153846154
 40
0.6153846153846154
 40
0.6153846153846154
 40
0.6153846153846154
 40
0.6923076923076923
 40
0.6923076923076923
 40
0.6923076923076923
 40
0.6923076923076923
 40
0.7692307692307692
 40
0.7692307692307692
 40
0.7692307692307692
 40
0.7692307692307692
 40
0.846153846153846
 40
0.846153846153846
 40
0.846153846153846
 40
0.846153846153846
 40
0.9230769230769229
 40
0.9230769230769229
 40
0.9230769230769229
 40
0.9230769230769229
 40
1.0
 40
1.0
 40
1.0
 40
1.0
 10
0.7926377952755905
 20
-0.1552755905511811
 30
0.0
 10
0.7926377952755905
 20
-0.1552755905511811
 30
0.0
 10
0.7926377952755905
 20
-0.0699566929133858
 30
0.0
 10
0.7926377952755905
 20
-0.0699566929133858
 30
0.0
 10
0.7926377952755905
 20
-0.0699566929133858
 30
0.0
 10
0.7926377952755905
 20
-0.0699566929133858
 30
0.0
 10
0.6778070866141732
 20
-0.0810472440944882
 30
0.0
 10
0.6116889763779528
 20
0.0076771653543307
 30
0.0
 10
0.6116889763779528
 20
0.0076771653543307
 30
0.0
 10
0.5455708661417323
 20
0.0964015748031496
 30
0.0
 10
0.4427204724409449
 20
0.124744094488189
 30
0.0
 10
0.3668425196850394
 20
-0.0009488188976378
 30
0.0
 10
0.3668425196850394
 20
-0.0009488188976378
 30
0.0
 10
0.3668425196850394
 20
-0.0009488188976378
 30
0.0
 10
0.3447677165354331
 20
-0.0009488188976378
 30
0.0
 10
0.3447677165354331
 20
-0.0009488188976378
 30
0.0
 10
0.3447677165354331
 20
-0.0009488188976378
 30
0.0
 10
0.3447677165354331
 20
-0.0009488188976378
 30
0.0
 10
0.333748031496063
 20
0.0916062992125984
 30
0.0
 10
0.333748031496063
 20
0.0916062992125984
 30
0.0
 10
0.333748031496063
 20
0.0916062992125984
 30
0.0
 10
0.333748031496063
 20
0.0916062992125984
 30
0.0
 10
-0.748472440944882
 20
0.0916062992125984
 30
0.0
 10
-0.748472440944882
 20
0.0916062992125984
 30
0.0
 10
-0.748472440944882
 20
0.0916062992125984
 30
0.0
 10
-0.748472440944882
 20
0.0916062992125984
 30
0.0
 10
-0.759492125984252
 20
-0.0009488188976378
 30
0.0
 10
-0.759492125984252
 20
-0.0009488188976378
 30
0.0
 10
-0.759492125984252
 20
-0.0009488188976378
 30
0.0
 10
-0.759492125984252
 20
-0.0009488188976378
 30
0.0
 10
-0.7815669291338583
 20
-0.0009488188976378
 30
0.0
 10
-0.7815669291338583
 20
-0.0009488188976378
 30
0.0
 10
-0.7815669291338583
 20
-0.0009488188976378
 30
0.0
 10
-0.8574448818897639
 20
0.124744094488189
 30
0.0
 10
-0.9602952755905512
 20
0.0964015748031496
 30
0.0
 10
-1.0264133858267717
 20
0.0076771653543307
 30
0.0
 10
-1.0264133858267717
 20
0.0076771653543307
 30
0.0
 10
-1.0925314960629922
 20
-0.0810472440944882
 30
0.0
 10
-1.2073622047244095
 20
-0.0699566929133858
 30
0.0
 10
-1.2073622047244095
 20
-0.0699566929133858
 30
0.0
 10
-1.2073622047244095
 20
-0.0699566929133858
 30
0.0
 10
-1.2073622047244095
 20
-0.0699566929133858
 30
0.0
 10
-1.2073622047244095
 20
-0.1552755905511811
 30
0.0
 10
-1.2073622047244095
 20
-0.1552755905511811
 30
0.0
 10
-1.2073622047244095
 20
-0.1552755905511811
 30
0.0
 10
-1.2073622047244095
 20
-0.1552755905511811
 30
0.0
 10
-1.2087716535433071
 20
-0.154996062992126
 30
0.0
 10
-1.2087716535433071
 20
-0.154996062992126
 30
0.0
 10
-1.2087716535433071
 20
-0.154996062992126
 30
0.0
 10
-1.2087716535433071
 20
-0.154996062992126
 30
0.0
 10
0.7926377952755905
 20
-0.1552755905511811
 30
0.0
 10
0.7926377952755905
 20
-0.1552755905511811
 30
0.0
  0
TEXT
  5
6B
100
AcDbEntity
  8
P1-Layer 1
100
AcDbText
 10
-0.25389
 20
-0.347925
 30
0.0
 40
0.119999
  1
BA  1512
 51
-0.000002
  7
Bookman Old Style
100
AcDbText
  0
TEXT
  5
6C
100
AcDbEntity
  8
P1-Layer 1
100
AcDbText
 10
-0.247209
 20
-0.535425
 30
0.0
 40
0.119999
  1
1/4\u+201d x 2\u+201d
 51
-0.000002
  7
Bookman Old Style
100
AcDbText
  0
ENDSEC
  0
SECTION
  2
OBJECTS
  0
DICTIONARY
  5
19
100
AcDbDictionary
280
     0
281
     1
  3
ACAD_GROUP
350
1A
  3
ACAD_MLINESTYLE
350
1B
  3
ACAD_LAYOUT
350
1E
  3
ACAD_PLOTSETTINGS
350
22
  3
ACAD_PLOTSTYLENAME
350
1F
  3
ACAD_WIPEOUT_VARS
350
23
  0
DICTIONARY
  5
1A
102
{ACAD_REACTORS
330
19
102
}
100
AcDbDictionary
280
     0
281
     1
  0
DICTIONARY
  5
1B
102
{ACAD_REACTORS
330
19
102
}
100
AcDbDictionary
280
     0
281
     1
  3
Standard
350
1C
  0
MLINESTYLE
  5
1C
102
{ACAD_REACTORS
330
1B
102
}
100
AcDbMlineStyle
  2
Standard
 70
     0
  3

 62
     0
 51
90.0
 52
90.0
 71
     2
 49
0.5
 62
   256
  6
BYLAYER
 49
-0.5
 62
   256
  6
BYLAYER
  0
ACDBDICTIONARYWDFLT
  5
1F
102
{ACAD_REACTORS
330
19
102
}
100
AcDbDictionary
281
     1
  3
Normal
350
1D
100
AcDbDictionaryWithDefault
340
1D
  0
ACDBPLACEHOLDER
  5
1D
102
{ACAD_REACTORS
330
1F
102
}
  0
LAYOUT
  5
20
102
{ACAD_REACTORS
330
1E
102
}
100
AcDbPlotSettings
  1

  2

  4

  6

 40
0.0
 41
0.0
 42
0.0
 43
0.0
 44
0.0
 45
0.0
 46
0.0
 47
0.0
 48
0.0
 49
0.0
140
0.0
141
0.0
142
1.0
143
1.0
 70
  1024
 72
     0
 73
     0
 74
     0
  7

 75
     0
147
1.0
148
0.0
149
0.0
100
AcDbLayout
  1
Model
 70
     0
 71
     0
 10
0.0
 20
0.0
 11
0.0
 21
0.0
 12
0.0
 22
0.0
 32
0.0
 14
0.0
 24
0.0
 34
0.0
 15
0.0
 25
0.0
 35
0.0
146
0.0
 13
0.0
 23
0.0
 33
0.0
 16
0.0
 26
0.0
 36
0.0
 17
0.0
 27
0.0
 37
0.0
 76
     0
330
A
331
0
345
0
346
0
  0
LAYOUT
  5
21
102
{ACAD_REACTORS
330
1E
102
}
100
AcDbPlotSettings
  1

  2

  4

  6

 40
0.0
 41
0.0
 42
0.0
 43
0.0
 44
0.0
 45
0.0
 46
0.0
 47
0.0
 48
0.0
 49
0.0
140
0.0
141
0.0
142
1.0
143
1.0
 70
     0
 72
     0
 73
     0
 74
     0
  7

 75
     0
147
1.0
148
0.0
149
0.0
100
AcDbLayout
  1
Layout1
 70
     0
 71
     0
 10
0.0
 20
0.0
 11
0.0
 21
0.0
 12
0.0
 22
0.0
 32
0.0
 14
0.0
 24
0.0
 34
0.0
 15
0.0
 25
0.0
 35
0.0
146
0.0
 13
0.0
 23
0.0
 33
0.0
 16
0.0
 26
0.0
 36
0.0
 17
0.0
 27
0.0
 37
0.0
 76
     0
330
B
331
0
345
0
346
0
  0
DICTIONARY
  5
1E
102
{ACAD_REACTORS
330
19
102
}
100
AcDbDictionary
280
     0
281
     1
  3
Layout1
350
21
  3
Model
350
20
  0
DICTIONARY
  5
22
102
{ACAD_REACTORS
330
19
102
}
100
AcDbDictionary
280
     0
281
     1
  0
WIPEOUTVARIABLES
  5
23
100
AcDbWipeoutVariables
 70
     1
  0
ENDSEC
  0
EOF
