  0
SECTION
  2
HEADER
  9
$ACADVER
  1
AC1015
  9
$ACADMAINTVER
 70
     6
  9
$DWGCODEPAGE
  3
DOS850
  9
$INSBASE
 10
0.0
 20
0.0
 30
0.0
  9
$EXTMIN
 10
-0.809189
 20
-2.021142
 30
1.000000E+20
  9
$EXTMAX
 10
0.35013
 20
1.074661
 30
-1.000000E+20
  9
$LIMMIN
 10
0.0
 20
0.0
  9
$LIMMAX
 10
0.0
 20
0.0
  9
$ORTHOMODE
 70
     0
  9
$REGENMODE
 70
     1
  9
$FILLMODE
 70
     1
  9
$QTEXTMODE
 70
     0
  9
$MIRRTEXT
 70
     1
  9
$LTSCALE
 40
1.0
  9
$ATTMODE
 70
     1
  9
$TEXTSIZE
 40
0.2
  9
$TRACEWID
 40
0.05
  9
$TEXTSTYLE
  7
Standard
  9
$CLAYER
  8
0
  9
$CELTYPE
  6
Continuous
  9
$CECOLOR
 62
   256
  9
$CELTSCALE
 40
1.0
  9
$DISPSILH
 70
     0
  9
$DIMSCALE
 40
1.0
  9
$DIMASZ
 40
0.18
  9
$DIMEXO
 40
0.0625
  9
$DIMDLI
 40
0.38
  9
$DIMRND
 40
0.0
  9
$DIMDLE
 40
0.0
  9
$DIMEXE
 40
0.18
  9
$DIMTP
 40
0.0
  9
$DIMTM
 40
0.0
  9
$DIMTXT
 40
0.18
  9
$DIMCEN
 40
0.09
  9
$DIMTSZ
 40
0.0
  9
$DIMTOL
 70
     0
  9
$DIMLIM
 70
     0
  9
$DIMTIH
 70
     1
  9
$DIMTOH
 70
     1
  9
$DIMSE1
 70
     0
  9
$DIMSE2
 70
     0
  9
$DIMTAD
 70
     0
  9
$DIMZIN
 70
     0
  9
$DIMBLK
  1

  9
$DIMASO
 70
     1
  9
$DIMSHO
 70
     1
  9
$DIMPOST
  1

  9
$DIMAPOST
  1

  9
$DIMALT
 70
     0
  9
$DIMALTD
 70
     2
  9
$DIMALTF
 40
25.4
  9
$DIMLFAC
 40
1.0
  9
$DIMTOFL
 70
     0
  9
$DIMTVP
 40
0.0
  9
$DIMTIX
 70
     0
  9
$DIMSOXD
 70
     0
  9
$DIMSAH
 70
     0
  9
$DIMBLK1
  1

  9
$DIMBLK2
  1

  9
$DIMSTYLE
  2
Standard
  9
$DIMCLRD
 70
     0
  9
$DIMCLRE
 70
     0
  9
$DIMCLRT
 70
     0
  9
$DIMTFAC
 40
1.0
  9
$DIMGAP
 40
0.09
  9
$DIMJUST
 70
     0
  9
$DIMSD1
 70
     0
  9
$DIMSD2
 70
     0
  9
$DIMTOLJ
 70
     1
  9
$DIMTZIN
 70
     0
  9
$DIMALTZ
 70
     0
  9
$DIMALTTZ
 70
     0
  9
$DIMUPT
 70
     0
  9
$DIMDEC
 70
     4
  9
$DIMTDEC
 70
     4
  9
$DIMALTU
 70
     2
  9
$DIMALTTD
 70
     2
  9
$DIMTXSTY
  7
Standard
  9
$DIMAUNIT
 70
     0
  9
$DIMADEC
 70
     0
  9
$DIMALTRND
 40
0.0
  9
$DIMAZIN
 70
     0
  9
$DIMDSEP
 70
     0
  9
$DIMATFIT
 70
     3
  9
$DIMFRAC
 70
     0
  9
$DIMLDRBLK
  1

  9
$DIMLUNIT
 70
     2
  9
$DIMLWD
 70
     0
  9
$DIMLWE
 70
     0
  9
$DIMTMOVE
 70
     0
  9
$LUNITS
 70
     2
  9
$LUPREC
 70
     4
  9
$SKETCHINC
 40
0.1
  9
$FILLETRAD
 40
0.0
  9
$AUNITS
 70
     0
  9
$AUPREC
 70
     0
  9
$MENU
  1
acad
  9
$ELEVATION
 40
0.0
  9
$PELEVATION
 40
0.0
  9
$THICKNESS
 40
0.0
  9
$LIMCHECK
 70
     0
  9
$CHAMFERA
 40
0.0
  9
$CHAMFERB
 40
0.0
  9
$CHAMFERC
 40
0.0
  9
$CHAMFERD
 40
0.0
  9
$SKPOLY
 70
     0
  9
$TDCREATE
 40
0.000000000
  9
$TDUCREATE
 40
0.000000000
  9
$TDUPDATE
 40
0.000000000
  9
$TDUUPDATE
 40
0.000000000
  9
$TDINDWG
 40
0.0000000000
  9
$TDUSRTIMER
 40
0.0000000000
  9
$USRTIMER
 70
     1
  9
$ANGBASE
 50
0.0
  9
$ANGDIR
 70
     0
  9
$PDMODE
 70
     0
  9
$PDSIZE
 40
0.0
  9
$PLINEWID
 40
0.0
  9
$SPLFRAME
 70
     0
  9
$SPLINETYPE
 70
     6
  9
$SPLINESEGS
 70
     8
  9
$HANDSEED
  5
5D
  9
$SURFTAB1
 70
     6
  9
$SURFTAB2
 70
     6
  9
$SURFTYPE
 70
     6
  9
$SURFU
 70
     6
  9
$SURFV
 70
     6
  9
$UCSBASE
  2

  9
$UCSNAME
  2

  9
$UCSORG
 10
0.0
 20
0.0
 30
0.0
  9
$UCSXDIR
 10
1.0
 20
0.0
 30
0.0
  9
$UCSYDIR
 10
0.0
 20
1.0
 30
0.0
  9
$UCSORTHOREF
  2

  9
$UCSORTHOVIEW
 70
     0
  9
$UCSORGTOP
 10
0.0
 20
0.0
 30
0.0
  9
$UCSORGBOTTOM
 10
0.0
 20
0.0
 30
0.0
  9
$UCSORGLEFT
 10
0.0
 20
0.0
 30
0.0
  9
$UCSORGRIGHT
 10
0.0
 20
0.0
 30
0.0
  9
$UCSORGFRONT
 10
0.0
 20
0.0
 30
0.0
  9
$UCSORGBACK
 10
0.0
 20
0.0
 30
0.0
  9
$PUCSBASE
  2

  9
$PUCSNAME
  2

  9
$PUCSORG
 10
0.0
 20
0.0
 30
0.0
  9
$PUCSXDIR
 10
1.0
 20
0.0
 30
0.0
  9
$PUCSYDIR
 10
0.0
 20
1.0
 30
0.0
  9
$PUCSORTHOREF
  2

  9
$PUCSORTHOVIEW
 70
     0
  9
$PUCSORGTOP
 10
0.0
 20
0.0
 30
0.0
  9
$PUCSORGBOTTOM
 10
0.0
 20
0.0
 30
0.0
  9
$PUCSORGLEFT
 10
0.0
 20
0.0
 30
0.0
  9
$PUCSORGRIGHT
 10
0.0
 20
0.0
 30
0.0
  9
$PUCSORGFRONT
 10
0.0
 20
0.0
 30
0.0
  9
$PUCSORGBACK
 10
0.0
 20
0.0
 30
0.0
  9
$USERI1
 70
     0
  9
$USERI2
 70
     0
  9
$USERI3
 70
     0
  9
$USERI4
 70
     0
  9
$USERI5
 70
     0
  9
$USERR1
 40
0.0
  9
$USERR2
 40
0.0
  9
$USERR3
 40
0.0
  9
$USERR4
 40
0.0
  9
$USERR5
 40
0.0
  9
$WORLDVIEW
 70
     1
  9
$SHADEDGE
 70
     3
  9
$SHADEDIF
 70
    70
  9
$TILEMODE
 70
     1
  9
$MAXACTVP
 70
    16
  9
$PINSBASE
 10
0.0
 20
0.0
 30
0.0
  9
$PLIMCHECK
 70
     0
  9
$PEXTMIN
 10
1.000000E+20
 20
1.000000E+20
 30
1.000000E+20
  9
$PEXTMAX
 10
-1.000000E+20
 20
-1.000000E+20
 30
-1.000000E+20
  9
$PLIMMIN
 10
0.0
 20
0.0
  9
$PLIMMAX
 10
12.0
 20
9.0
  9
$UNITMODE
 70
     0
  9
$VISRETAIN
 70
     0
  9
$PLINEGEN
 70
     1
  9
$PSLTSCALE
 70
     0
  9
$TREEDEPTH
 70
  3020
  9
$CMLSTYLE
  2
Standard
  9
$CMLJUST
 70
     0
  9
$CMLSCALE
 40
1.0
  9
$PROXYGRAPHICS
 70
     0
  9
$MEASUREMENT
 70
     0
  9
$CELWEIGHT
370
     0
  9
$ENDCAPS
280
     0
  9
$JOINSTYLE
280
     0
  9
$LWDISPLAY
290
     0
  9
$INSUNITS
 70
     1
  9
$HYPERLINKBASE
  1

  9
$XEDIT
290
     1
  9
$CEPSNTYPE
380
     0
  9
$PSTYLEMODE
290
     1
  9
$FINGERPRINTGUID
  2

  9
$VERSIONGUID
  2

  9
$EXTNAMES
290
     1
  9
$PSVPSCALE
 40
0.0
  0
ENDSEC
  0
SECTION
  2
CLASSES
  0
CLASS
  1
LWPOLYLINE
  2
AcDbPolyline
  3
AutoCAD 2000
 90
    32768
280
     0
281
     1
  0
CLASS
  1
IMAGE
  2
AcDbRasterImage
  3
ISM
 90
    32895
280
     0
281
     1
  0
CLASS
  1
OLE2FRAME
  2
AcDbOle2Frame
  3
AutoCAD 2000
 90
    32768
280
     0
281
     1
  0
CLASS
  1
HATCH
  2
AcDbHatch
  3
AutoCAD 2000
 90
    32768
280
     0
281
     1
  0
CLASS
  1
DICTIONARYVAR
  2
AcDbDictionaryVar
  3
AutoCAD 2000
 90
    32768
280
     0
281
     0
  0
CLASS
  1
RASTERVARIABLES
  2
AcDbRasterVariables
  3
ISM
 90
    32768
280
     0
281
     0
  0
CLASS
  1
IMAGEDEF
  2
AcDbRasterImageDef
  3
ISM
 90
    32768
280
     0
281
     0
  0
CLASS
  1
IMAGEDEF_REACTOR
  2
AcDbRasterImageDefReactor
  3
ISM
 90
    32769
280
     0
281
     0
  0
CLASS
  1
IDBUFFER
  2
AcDbIdBuffer
  3
AutoCAD 2000
 90
    32768
280
     0
281
     0
  0
CLASS
  1
SPATIAL_FILTER
  2
AcDbSpatialFilter
  3
AutoCAD 2000
 90
    32768
280
     0
281
     0
  0
CLASS
  1
XRECORD
  2
AcDbXrecord
  3
AutoCAD 2000
 90
    32768
280
     0
281
     0
  0
CLASS
  1
SORTENTSTABLE
  2
AcDbSortentsTable
  3
AutoCAD 2000
 90
    32768
280
     0
281
     0
  0
CLASS
  1
LAYER_INDEX
  2
AcDbLayerIndex
  3
AutoCAD 2000
 90
    32768
280
     0
281
     0
  0
CLASS
  1
SPATIAL_INDEX
  2
AcDbSpatialIndex
  3
AutoCAD 2000
 90
    32768
280
     0
281
     0
  0
CLASS
  1
OBJECT_PTR
  2
CAseDLPNTableRecord
  3
"ASE-LPNTableRecord"
 90
    32769
280
     0
281
     0
  0
CLASS
  1
LAYOUT
  2
AcDbLayout
  3
AutoCAD 2000
 90
        0
280
     0
281
     0
  0
CLASS
  1
PLOTSETTINGS
  2
AcDbPlotSettings
  3
AutoCAD 2000
 90
    32768
280
     0
281
     0
  0
CLASS
  1
ACDBDICTIONARYWDFLT
  2
AcDbDictionaryWithDefault
  3
AutoCAD 2000
 90
        0
280
     0
281
     0
  0
CLASS
  1
ACDBPLACEHOLDER
  2
AcDbPlaceHolder
  3
AutoCAD 2000
 90
        0
280
     0
281
     0
  0
CLASS
  1
VBA_PROJECT
  2
AcDbVbaProject
  3
acadvba
 90
    32768
280
     0
281
     0
  0
CLASS
  1
WIPEOUT
  2
AcDbWipeout
  3
WipeOut|AutoCAD Express Tool|expresstools@autodesk.com
 90
    32895
280
     0
281
     1
  0
CLASS
  1
WIPEOUTVARIABLES
  2
AcDbWipeoutVariables
  3
WipeOut|AutoCAD Express Tool|expresstools@autodesk.com
 90
        0
280
     0
281
     0
  0
CLASS
  1
RTEXT
  2
RText
  3
RText|AutoCAD Express Tool|expresstools@autodesk.com
 90
    32768
280
     0
281
     1
  0
CLASS
  1
ARCALIGNEDTEXT
  2
AcDbArcAlignedText
  3
ATEXT|AutoCAD Express Tool|expresstools@autodesk.com
 90
    32768
280
     0
281
     1
  0
ENDSEC
  0
SECTION
  2
TABLES
  0
TABLE
  2
VPORT
  5
7
100
AcDbSymbolTable
 70
     1
  0
VPORT
  5
15
100
AcDbSymbolTableRecord
100
AcDbViewportTableRecord
  2
*ACTIVE
 70
     0
 10
0.0
 20
0.0
 11
1.0
 21
1.0
 12
6.591288
 22
4.579184
 13
0.0
 23
0.0
 14
1.0
 24
1.0
 15
0.0
 25
0.0
 16
0.0
 26
0.0
 36
1.0
 17
0.0
 27
0.0
 37
0.0
 40
9.158369
 41
0.688564
 42
50.0
 43
0.0
 44
0.0
 50
0.0
 51
0.0
 71
     0
 72
   100
 73
     1
 74
     1
 75
     0
 76
     0
 77
     0
 78
     0
281
     0
 65
     0
110
0.0
120
0.0
130
0.0
111
1.0
121
0.0
131
0.0
112
0.0
122
1.0
132
0.0
345
0
346
0
 79
     0
146
0.0
  0
ENDTAB
  0
TABLE
  2
LTYPE
  5
4
100
AcDbSymbolTable
 70
     3
  0
LTYPE
  5
11
100
AcDbSymbolTableRecord
100
AcDbLinetypeTableRecord
  2
ByBlock
 70
    64
  3

 72
    65
 73
     0
 40
0.0
  0
LTYPE
  5
12
100
AcDbSymbolTableRecord
100
AcDbLinetypeTableRecord
  2
ByLayer
 70
    64
  3

 72
    65
 73
     0
 40
0.0
  0
LTYPE
  5
13
100
AcDbSymbolTableRecord
100
AcDbLinetypeTableRecord
  2
Continuous
 70
    64
  3
Solid line
 72
    65
 73
     0
 40
0.0
  0
ENDTAB
  0
TABLE
  2
LAYER
  5
2
100
AcDbSymbolTable
 70
     3
  0
LAYER
  5
14
100
AcDbSymbolTableRecord
100
AcDbLayerTableRecord
  2
0
 70
     0
 62
     7
  6
Continuous
290
     1
370
    -3
390
1D
  0
LAYER
  5
24
100
AcDbSymbolTableRecord
100
AcDbLayerTableRecord
  2
Layer 1
 70
     0
 62
     7
  6
Continuous
290
     1
370
    -3
390
1F
  0
LAYER
  5
29
100
AcDbSymbolTableRecord
100
AcDbLayerTableRecord
  2
P1-Layer 1
 70
     0
 62
     7
  6
Continuous
290
     1
370
    -3
390
1F
  0
ENDTAB
  0
TABLE
  2
STYLE
  5
3
100
AcDbSymbolTable
 70
     2
  0
STYLE
  5
17
100
AcDbSymbolTableRecord
100
AcDbTextStyleTableRecord
  2
Standard
 70
     0
 40
0.0
 41
1.0
 50
0.0
 71
     0
 42
0.0
  3
txt
  4

  0
STYLE
  5
26
100
AcDbSymbolTableRecord
100
AcDbTextStyleTableRecord
  2
Bookman Old Style
 70
     0
 40
1.0
 41
1.0
 50
0.0
 71
     0
 42
1.0
  3
Bookman Old Style
  4

  0
ENDTAB
  0
TABLE
  2
VIEW
  5
5
100
AcDbSymbolTable
 70
     0
  0
ENDTAB
  0
TABLE
  2
UCS
  5
6
100
AcDbSymbolTable
 70
     0
  0
ENDTAB
  0
TABLE
  2
APPID
  5
8
100
AcDbSymbolTable
 70
     1
  0
APPID
  5
16
100
AcDbSymbolTableRecord
100
AcDbRegAppTableRecord
  2
ACAD
 70
     0
  0
ENDTAB
  0
TABLE
  2
DIMSTYLE
  5
9
100
AcDbSymbolTable
 70
     1
100
AcDbDimStyleTable
 71
     0
  0
DIMSTYLE
105
18
100
AcDbSymbolTableRecord
100
AcDbDimStyleTableRecord
  2
Standard
 70
     0
  3

  4

 40
1.0
 41
0.18
 42
0.0625
 43
0.38
 44
0.18
 45
0.0
 46
0.0
 47
0.0
 48
0.0
 71
     0
 72
     0
 73
     1
 74
     1
 75
     0
 76
     0
 77
     0
 78
     0
 79
     0
140
0.18
141
0.09
142
0.0
143
25.4
144
1.0
145
0.0
146
1.0
147
0.09
148
0.0
170
     0
171
     2
172
     0
173
     0
174
     0
175
     0
176
     0
177
     0
178
     0
179
     0
271
     4
272
     4
273
     2
274
     2
275
     0
276
     0
277
     2
278
    46
279
     0
280
     0
281
     0
282
     0
283
     1
284
     0
285
     0
286
     0
288
     0
340
17
341
0
342
0
343
0
344
0
371
    -2
372
    -2
  0
ENDTAB
  0
TABLE
  2
BLOCK_RECORD
  5
1
100
AcDbSymbolTable
 70
     0
  0
BLOCK_RECORD
  5
A
100
AcDbSymbolTableRecord
100
AcDbBlockTableRecord
  2
*MODEL_SPACE
340
20
  0
BLOCK_RECORD
  5
B
100
AcDbSymbolTableRecord
100
AcDbBlockTableRecord
  2
*PAPER_SPACE
340
21
  0
ENDTAB
  0
ENDSEC
  0
SECTION
  2
BLOCKS
  0
BLOCK
  5
D
100
AcDbEntity
  8
0
100
AcDbBlockBegin
  2
*MODEL_SPACE
 70
     0
 10
0.0
 20
0.0
 30
0.0
  3
*MODEL_SPACE
  1

  0
ENDBLK
  5
E
100
AcDbEntity
  8
0
100
AcDbBlockEnd
  0
BLOCK
  5
F
100
AcDbEntity
 67
     1
  8
0
100
AcDbBlockBegin
  2
*PAPER_SPACE
 70
     0
 10
0.0
 20
0.0
 30
0.0
  3
*PAPER_SPACE
  1

  0
ENDBLK
  5
10
100
AcDbEntity
 67
     1
  8
0
100
AcDbBlockEnd
  0
ENDSEC
  0
SECTION
  2
ENTITIES
  0
SPLINE
  5
25
100
AcDbEntity
  8
Layer 1
370
     5
 62
     7
100
AcDbSpline
210
0.0
220
0.0
230
1.0
 70
     1
 71
     3
 72
    24
 73
    20
 74
     0
 42
0.0000000001
 43
0.0000000001
 40
0.0
 40
0.0
 40
0.0
 40
0.0
 40
0.2
 40
0.2
 40
0.2
 40
0.2
 40
0.4
 40
0.4
 40
0.4
 40
0.4
 40
0.6000000000000001
 40
0.6000000000000001
 40
0.6000000000000001
 40
0.6000000000000001
 40
0.8
 40
0.8
 40
0.8
 40
0.8
 40
1.0
 40
1.0
 40
1.0
 40
1.0
 10
-0.2937637795275591
 20
0.2719409448818898
 30
0.0
 10
-0.0823779527559055
 20
0.2872834645669292
 30
0.0
 10
-0.0492125984251969
 20
0.5157165354330708
 30
0.0
 10
-0.2213897637795276
 20
0.6776653543307087
 30
0.0
 10
-0.2213897637795276
 20
0.6776653543307087
 30
0.0
 10
-0.3935669291338583
 20
0.8396141732283465
 30
0.0
 10
-0.4157283464566929
 20
0.8856417322834647
 30
0.0
 10
-0.4140236220472441
 20
1.0731614173228348
 30
0.0
 10
-0.4140236220472441
 20
1.0731614173228348
 30
0.0
 10
-0.4140236220472441
 20
1.0731614173228348
 30
0.0
 10
-0.5401850393700788
 20
1.0731614173228348
 30
0.0
 10
-0.5401850393700788
 20
1.0731614173228348
 30
0.0
 10
-0.5401850393700788
 20
1.0731614173228348
 30
0.0
 10
-0.5401850393700788
 20
1.0731614173228348
 30
0.0
 10
-0.540728346456693
 20
0.2719409448818898
 30
0.0
 10
-0.540728346456693
 20
0.2719409448818898
 30
0.0
 10
-0.540728346456693
 20
0.2719409448818898
 30
0.0
 10
-0.540728346456693
 20
0.2719409448818898
 30
0.0
 10
-0.2937637795275591
 20
0.2719409448818898
 30
0.0
 10
-0.2937637795275591
 20
0.2719409448818898
 30
0.0
  0
TEXT
  5
27
100
AcDbEntity
  8
Layer 1
100
AcDbText
 10
-0.662496
 20
-0.040465
 30
0.0
 40
0.119999
  1
BA  1511
 51
-0.000002
  7
Bookman Old Style
100
AcDbText
  0
TEXT
  5
28
100
AcDbEntity
  8
Layer 1
100
AcDbText
 10
-0.809189
 20
-0.227965
 30
0.0
 40
0.119999
  1
7/16\u+201d x 3/4\u+201d
 51
-0.000002
  7
Bookman Old Style
100
AcDbText
  0
SPLINE
  5
2A
100
AcDbEntity
  8
P1-Layer 1
 62
   253
100
AcDbSpline
210
0.0
220
0.0
230
1.0
 70
     1
 71
     3
 72
    36
 73
    32
 74
     0
 42
0.0000000001
 43
0.0000000001
 40
0.0
 40
0.0
 40
0.0
 40
0.0
 40
0.125
 40
0.125
 40
0.125
 40
0.125
 40
0.25
 40
0.25
 40
0.25
 40
0.25
 40
0.375
 40
0.375
 40
0.375
 40
0.375
 40
0.5
 40
0.5
 40
0.5
 40
0.5
 40
0.625
 40
0.625
 40
0.625
 40
0.625
 40
0.75
 40
0.75
 40
0.75
 40
0.75
 40
0.875
 40
0.875
 40
0.875
 40
0.875
 40
1.0
 40
1.0
 40
1.0
 40
1.0
 10
-0.3924212598425197
 20
-1.5579685039370079
 30
0.0
 10
-0.3924212598425197
 20
-1.5579685039370079
 30
0.0
 10
0.2658503937007874
 20
-1.1819566929133858
 30
0.0
 10
0.2658503937007874
 20
-1.1819566929133858
 30
0.0
 10
0.2658503937007874
 20
-1.1819566929133858
 30
0.0
 10
0.2658503937007874
 20
-1.1819566929133858
 30
0.0
 10
0.2787755905511811
 20
-1.173484251968504
 30
0.0
 10
0.2787755905511811
 20
-1.173484251968504
 30
0.0
 10
0.2787755905511811
 20
-1.173484251968504
 30
0.0
 10
0.2787755905511811
 20
-1.173484251968504
 30
0.0
 10
0.2906141732283465
 20
-1.1641299212598426
 30
0.0
 10
0.2906141732283465
 20
-1.1641299212598426
 30
0.0
 10
0.2906141732283465
 20
-1.1641299212598426
 30
0.0
 10
0.2906141732283465
 20
-1.1641299212598426
 30
0.0
 10
0.3013818897637796
 20
-1.1539251968503939
 30
0.0
 10
0.3013818897637796
 20
-1.1539251968503939
 30
0.0
 10
0.3013818897637796
 20
-1.1539251968503939
 30
0.0
 10
0.3013818897637796
 20
-1.1539251968503939
 30
0.0
 10
-0.3568897637795276
 20
-1.5299370078740158
 30
0.0
 10
-0.3568897637795276
 20
-1.5299370078740158
 30
0.0
 10
-0.3568897637795276
 20
-1.5299370078740158
 30
0.0
 10
-0.3568897637795276
 20
-1.5299370078740158
 30
0.0
 10
-0.3676574803149607
 20
-1.5401417322834645
 30
0.0
 10
-0.3676574803149607
 20
-1.5401417322834645
 30
0.0
 10
-0.3676574803149607
 20
-1.5401417322834645
 30
0.0
 10
-0.3676574803149607
 20
-1.5401417322834645
 30
0.0
 10
-0.379496062992126
 20
-1.5494960629921259
 30
0.0
 10
-0.379496062992126
 20
-1.5494960629921259
 30
0.0
 10
-0.379496062992126
 20
-1.5494960629921259
 30
0.0
 10
-0.379496062992126
 20
-1.5494960629921259
 30
0.0
 10
-0.3924212598425197
 20
-1.5579685039370079
 30
0.0
 10
-0.3924212598425197
 20
-1.5579685039370079
 30
0.0
  0
SPLINE
  5
2B
100
AcDbEntity
  8
P1-Layer 1
 62
     9
100
AcDbSpline
210
0.0
220
0.0
230
1.0
 70
     1
 71
     3
 72
    36
 73
    32
 74
     0
 42
0.0000000001
 43
0.0000000001
 40
0.0
 40
0.0
 40
0.0
 40
0.0
 40
0.125
 40
0.125
 40
0.125
 40
0.125
 40
0.25
 40
0.25
 40
0.25
 40
0.25
 40
0.375
 40
0.375
 40
0.375
 40
0.375
 40
0.5
 40
0.5
 40
0.5
 40
0.5
 40
0.625
 40
0.625
 40
0.625
 40
0.625
 40
0.75
 40
0.75
 40
0.75
 40
0.75
 40
0.875
 40
0.875
 40
0.875
 40
0.875
 40
1.0
 40
1.0
 40
1.0
 40
1.0
 10
-0.3568897637795276
 20
-1.5299370078740158
 30
0.0
 10
-0.3568897637795276
 20
-1.5299370078740158
 30
0.0
 10
0.3013818897637796
 20
-1.1539251968503939
 30
0.0
 10
0.3013818897637796
 20
-1.1539251968503939
 30
0.0
 10
0.3013818897637796
 20
-1.1539251968503939
 30
0.0
 10
0.3013818897637796
 20
-1.1539251968503939
 30
0.0
 10
0.3110551181102362
 20
-1.1429370078740158
 30
0.0
 10
0.3110551181102362
 20
-1.1429370078740158
 30
0.0
 10
0.3110551181102362
 20
-1.1429370078740158
 30
0.0
 10
0.3110551181102362
 20
-1.1429370078740158
 30
0.0
 10
0.3196338582677166
 20
-1.1312125984251968
 30
0.0
 10
0.3196338582677166
 20
-1.1312125984251968
 30
0.0
 10
0.3196338582677166
 20
-1.1312125984251968
 30
0.0
 10
0.3196338582677166
 20
-1.1312125984251968
 30
0.0
 10
0.3271102362204725
 20
-1.1188070866141733
 30
0.0
 10
0.3271102362204725
 20
-1.1188070866141733
 30
0.0
 10
0.3271102362204725
 20
-1.1188070866141733
 30
0.0
 10
0.3271102362204725
 20
-1.1188070866141733
 30
0.0
 10
-0.3311614173228347
 20
-1.4948188976377954
 30
0.0
 10
-0.3311614173228347
 20
-1.4948188976377954
 30
0.0
 10
-0.3311614173228347
 20
-1.4948188976377954
 30
0.0
 10
-0.3311614173228347
 20
-1.4948188976377954
 30
0.0
 10
-0.3386377952755906
 20
-1.507224409448819
 30
0.0
 10
-0.3386377952755906
 20
-1.507224409448819
 30
0.0
 10
-0.3386377952755906
 20
-1.507224409448819
 30
0.0
 10
-0.3386377952755906
 20
-1.507224409448819
 30
0.0
 10
-0.3472165354330709
 20
-1.5189488188976379
 30
0.0
 10
-0.3472165354330709
 20
-1.5189488188976379
 30
0.0
 10
-0.3472165354330709
 20
-1.5189488188976379
 30
0.0
 10
-0.3472165354330709
 20
-1.5189488188976379
 30
0.0
 10
-0.3568897637795276
 20
-1.5299370078740158
 30
0.0
 10
-0.3568897637795276
 20
-1.5299370078740158
 30
0.0
  0
SPLINE
  5
2C
100
AcDbEntity
  8
P1-Layer 1
 62
     9
100
AcDbSpline
210
0.0
220
0.0
230
1.0
 70
     1
 71
     3
 72
    36
 73
    32
 74
     0
 42
0.0000000001
 43
0.0000000001
 40
0.0
 40
0.0
 40
0.0
 40
0.0
 40
0.125
 40
0.125
 40
0.125
 40
0.125
 40
0.25
 40
0.25
 40
0.25
 40
0.25
 40
0.375
 40
0.375
 40
0.375
 40
0.375
 40
0.5
 40
0.5
 40
0.5
 40
0.5
 40
0.625
 40
0.625
 40
0.625
 40
0.625
 40
0.75
 40
0.75
 40
0.75
 40
0.75
 40
0.875
 40
0.875
 40
0.875
 40
0.875
 40
1.0
 40
1.0
 40
1.0
 40
1.0
 10
-0.3311614173228347
 20
-1.4948188976377954
 30
0.0
 10
-0.3311614173228347
 20
-1.4948188976377954
 30
0.0
 10
0.3271102362204725
 20
-1.1188070866141733
 30
0.0
 10
0.3271102362204725
 20
-1.1188070866141733
 30
0.0
 10
0.3271102362204725
 20
-1.1188070866141733
 30
0.0
 10
0.3271102362204725
 20
-1.1188070866141733
 30
0.0
 10
0.3334881889763779
 20
-1.1057598425196851
 30
0.0
 10
0.3334881889763779
 20
-1.1057598425196851
 30
0.0
 10
0.3334881889763779
 20
-1.1057598425196851
 30
0.0
 10
0.3334881889763779
 20
-1.1057598425196851
 30
0.0
 10
0.3387559055118111
 20
-1.0921338582677165
 30
0.0
 10
0.3387559055118111
 20
-1.0921338582677165
 30
0.0
 10
0.3387559055118111
 20
-1.0921338582677165
 30
0.0
 10
0.3387559055118111
 20
-1.0921338582677165
 30
0.0
 10
0.3429094488188977
 20
-1.0779724409448819
 30
0.0
 10
0.3429094488188977
 20
-1.0779724409448819
 30
0.0
 10
0.3429094488188977
 20
-1.0779724409448819
 30
0.0
 10
0.3429094488188977
 20
-1.0779724409448819
 30
0.0
 10
-0.3153622047244095
 20
-1.453984251968504
 30
0.0
 10
-0.3153622047244095
 20
-1.453984251968504
 30
0.0
 10
-0.3153622047244095
 20
-1.453984251968504
 30
0.0
 10
-0.3153622047244095
 20
-1.453984251968504
 30
0.0
 10
-0.3195157480314961
 20
-1.4681456692913386
 30
0.0
 10
-0.3195157480314961
 20
-1.4681456692913386
 30
0.0
 10
-0.3195157480314961
 20
-1.4681456692913386
 30
0.0
 10
-0.3195157480314961
 20
-1.4681456692913386
 30
0.0
 10
-0.3247834645669291
 20
-1.4817716535433072
 30
0.0
 10
-0.3247834645669291
 20
-1.4817716535433072
 30
0.0
 10
-0.3247834645669291
 20
-1.4817716535433072
 30
0.0
 10
-0.3247834645669291
 20
-1.4817716535433072
 30
0.0
 10
-0.3311614173228347
 20
-1.4948188976377954
 30
0.0
 10
-0.3311614173228347
 20
-1.4948188976377954
 30
0.0
  0
SPLINE
  5
2D
100
AcDbEntity
  8
P1-Layer 1
 62
     9
100
AcDbSpline
210
0.0
220
0.0
230
1.0
 70
     1
 71
     3
 72
    36
 73
    32
 74
     0
 42
0.0000000001
 43
0.0000000001
 40
0.0
 40
0.0
 40
0.0
 40
0.0
 40
0.125
 40
0.125
 40
0.125
 40
0.125
 40
0.25
 40
0.25
 40
0.25
 40
0.25
 40
0.375
 40
0.375
 40
0.375
 40
0.375
 40
0.5
 40
0.5
 40
0.5
 40
0.5
 40
0.625
 40
0.625
 40
0.625
 40
0.625
 40
0.75
 40
0.75
 40
0.75
 40
0.75
 40
0.875
 40
0.875
 40
0.875
 40
0.875
 40
1.0
 40
1.0
 40
1.0
 40
1.0
 10
-0.3153622047244095
 20
-1.453984251968504
 30
0.0
 10
-0.3153622047244095
 20
-1.453984251968504
 30
0.0
 10
0.3429094488188977
 20
-1.0779724409448819
 30
0.0
 10
0.3429094488188977
 20
-1.0779724409448819
 30
0.0
 10
0.3429094488188977
 20
-1.0779724409448819
 30
0.0
 10
0.3429094488188977
 20
-1.0779724409448819
 30
0.0
 10
0.3459370078740158
 20
-1.0633385826771653
 30
0.0
 10
0.3459370078740158
 20
-1.0633385826771653
 30
0.0
 10
0.3459370078740158
 20
-1.0633385826771653
 30
0.0
 10
0.3459370078740158
 20
-1.0633385826771653
 30
0.0
 10
0.3478543307086615
 20
-1.0482637795275591
 30
0.0
 10
0.3478543307086615
 20
-1.0482637795275591
 30
0.0
 10
0.3478543307086615
 20
-1.0482637795275591
 30
0.0
 10
0.3478543307086615
 20
-1.0482637795275591
 30
0.0
 10
0.3486338582677165
 20
-1.0328149606299213
 30
0.0
 10
0.3486338582677165
 20
-1.0328149606299213
 30
0.0
 10
0.3486338582677165
 20
-1.0328149606299213
 30
0.0
 10
0.3486338582677165
 20
-1.0328149606299213
 30
0.0
 10
-0.3096377952755905
 20
-1.4088267716535434
 30
0.0
 10
-0.3096377952755905
 20
-1.4088267716535434
 30
0.0
 10
-0.3096377952755905
 20
-1.4088267716535434
 30
0.0
 10
-0.3096377952755905
 20
-1.4088267716535434
 30
0.0
 10
-0.3104173228346457
 20
-1.4242755905511812
 30
0.0
 10
-0.3104173228346457
 20
-1.4242755905511812
 30
0.0
 10
-0.3104173228346457
 20
-1.4242755905511812
 30
0.0
 10
-0.3104173228346457
 20
-1.4242755905511812
 30
0.0
 10
-0.3123346456692914
 20
-1.4393503937007874
 30
0.0
 10
-0.3123346456692914
 20
-1.4393503937007874
 30
0.0
 10
-0.3123346456692914
 20
-1.4393503937007874
 30
0.0
 10
-0.3123346456692914
 20
-1.4393503937007874
 30
0.0
 10
-0.3153622047244095
 20
-1.453984251968504
 30
0.0
 10
-0.3153622047244095
 20
-1.453984251968504
 30
0.0
  0
SPLINE
  5
2E
100
AcDbEntity
  8
P1-Layer 1
 62
     9
100
AcDbSpline
210
0.0
220
0.0
230
1.0
 70
     1
 71
     3
 72
    36
 73
    32
 74
     0
 42
0.0000000001
 43
0.0000000001
 40
0.0
 40
0.0
 40
0.0
 40
0.0
 40
0.125
 40
0.125
 40
0.125
 40
0.125
 40
0.25
 40
0.25
 40
0.25
 40
0.25
 40
0.375
 40
0.375
 40
0.375
 40
0.375
 40
0.5
 40
0.5
 40
0.5
 40
0.5
 40
0.625
 40
0.625
 40
0.625
 40
0.625
 40
0.75
 40
0.75
 40
0.75
 40
0.75
 40
0.875
 40
0.875
 40
0.875
 40
0.875
 40
1.0
 40
1.0
 40
1.0
 40
1.0
 10
-0.3096377952755905
 20
-1.4088267716535434
 30
0.0
 10
-0.3096377952755905
 20
-1.4088267716535434
 30
0.0
 10
0.3486338582677165
 20
-1.0328149606299213
 30
0.0
 10
0.3486338582677165
 20
-1.0328149606299213
 30
0.0
 10
0.3486338582677165
 20
-1.0328149606299213
 30
0.0
 10
0.3486338582677165
 20
-1.0328149606299213
 30
0.0
 10
0.3482874015748032
 20
-1.0170393700787401
 30
0.0
 10
0.3482874015748032
 20
-1.0170393700787401
 30
0.0
 10
0.3482874015748032
 20
-1.0170393700787401
 30
0.0
 10
0.3482874015748032
 20
-1.0170393700787401
 30
0.0
 10
0.3467952755905512
 20
-1.000992125984252
 30
0.0
 10
0.3467952755905512
 20
-1.000992125984252
 30
0.0
 10
0.3467952755905512
 20
-1.000992125984252
 30
0.0
 10
0.3467952755905512
 20
-1.000992125984252
 30
0.0
 10
0.3441653543307087
 20
-0.9847125984251969
 30
0.0
 10
0.3441653543307087
 20
-0.9847125984251969
 30
0.0
 10
0.3441653543307087
 20
-0.9847125984251969
 30
0.0
 10
0.3441653543307087
 20
-0.9847125984251969
 30
0.0
 10
-0.3141062992125984
 20
-1.3607244094488189
 30
0.0
 10
-0.3141062992125984
 20
-1.3607244094488189
 30
0.0
 10
-0.3141062992125984
 20
-1.3607244094488189
 30
0.0
 10
-0.3141062992125984
 20
-1.3607244094488189
 30
0.0
 10
-0.3114763779527559
 20
-1.3770039370078742
 30
0.0
 10
-0.3114763779527559
 20
-1.3770039370078742
 30
0.0
 10
-0.3114763779527559
 20
-1.3770039370078742
 30
0.0
 10
-0.3114763779527559
 20
-1.3770039370078742
 30
0.0
 10
-0.3099842519685039
 20
-1.3930511811023623
 30
0.0
 10
-0.3099842519685039
 20
-1.3930511811023623
 30
0.0
 10
-0.3099842519685039
 20
-1.3930511811023623
 30
0.0
 10
-0.3099842519685039
 20
-1.3930511811023623
 30
0.0
 10
-0.3096377952755905
 20
-1.4088267716535434
 30
0.0
 10
-0.3096377952755905
 20
-1.4088267716535434
 30
0.0
  0
SPLINE
  5
2F
100
AcDbEntity
  8
P1-Layer 1
 62
     9
100
AcDbSpline
210
0.0
220
0.0
230
1.0
 70
     1
 71
     3
 72
    28
 73
    24
 74
     0
 42
0.0000000001
 43
0.0000000001
 40
0.0
 40
0.0
 40
0.0
 40
0.0
 40
0.1666666666666667
 40
0.1666666666666667
 40
0.1666666666666667
 40
0.1666666666666667
 40
0.3333333333333333
 40
0.3333333333333333
 40
0.3333333333333333
 40
0.3333333333333333
 40
0.5
 40
0.5
 40
0.5
 40
0.5
 40
0.6666666666666666
 40
0.6666666666666666
 40
0.6666666666666666
 40
0.6666666666666666
 40
0.8333333333333333
 40
0.8333333333333333
 40
0.8333333333333333
 40
0.8333333333333333
 40
1.0
 40
1.0
 40
1.0
 40
1.0
 10
-0.3141062992125984
 20
-1.3607244094488189
 30
0.0
 10
-0.3141062992125984
 20
-1.3607244094488189
 30
0.0
 10
0.3441653543307087
 20
-0.9847125984251969
 30
0.0
 10
0.3441653543307087
 20
-0.9847125984251969
 30
0.0
 10
0.3441653543307087
 20
-0.9847125984251969
 30
0.0
 10
0.3441653543307087
 20
-0.9847125984251969
 30
0.0
 10
0.3403818897637795
 20
-0.9682677165354331
 30
0.0
 10
0.3403818897637795
 20
-0.9682677165354331
 30
0.0
 10
0.3403818897637795
 20
-0.9682677165354331
 30
0.0
 10
0.3403818897637795
 20
-0.9682677165354331
 30
0.0
 10
0.3354448818897638
 20
-0.9516929133858268
 30
0.0
 10
0.3354448818897638
 20
-0.9516929133858268
 30
0.0
 10
0.3354448818897638
 20
-0.9516929133858268
 30
0.0
 10
0.3354448818897638
 20
-0.9516929133858268
 30
0.0
 10
-0.3228267716535433
 20
-1.3277047244094489
 30
0.0
 10
-0.3228267716535433
 20
-1.3277047244094489
 30
0.0
 10
-0.3228267716535433
 20
-1.3277047244094489
 30
0.0
 10
-0.3228267716535433
 20
-1.3277047244094489
 30
0.0
 10
-0.3178897637795276
 20
-1.3442795275590551
 30
0.0
 10
-0.3178897637795276
 20
-1.3442795275590551
 30
0.0
 10
-0.3178897637795276
 20
-1.3442795275590551
 30
0.0
 10
-0.3178897637795276
 20
-1.3442795275590551
 30
0.0
 10
-0.3141062992125984
 20
-1.3607244094488189
 30
0.0
 10
-0.3141062992125984
 20
-1.3607244094488189
 30
0.0
  0
SPLINE
  5
30
100
AcDbEntity
  8
P1-Layer 1
 62
     9
100
AcDbSpline
210
0.0
220
0.0
230
1.0
 70
     1
 71
     3
 72
    28
 73
    24
 74
     0
 42
0.0000000001
 43
0.0000000001
 40
0.0
 40
0.0
 40
0.0
 40
0.0
 40
0.1666666666666667
 40
0.1666666666666667
 40
0.1666666666666667
 40
0.1666666666666667
 40
0.3333333333333333
 40
0.3333333333333333
 40
0.3333333333333333
 40
0.3333333333333333
 40
0.5
 40
0.5
 40
0.5
 40
0.5
 40
0.6666666666666666
 40
0.6666666666666666
 40
0.6666666666666666
 40
0.6666666666666666
 40
0.8333333333333333
 40
0.8333333333333333
 40
0.8333333333333333
 40
0.8333333333333333
 40
1.0
 40
1.0
 40
1.0
 40
1.0
 10
-0.3228267716535433
 20
-1.3277047244094489
 30
0.0
 10
-0.3228267716535433
 20
-1.3277047244094489
 30
0.0
 10
0.3354448818897638
 20
-0.9516929133858268
 30
0.0
 10
0.3354448818897638
 20
-0.9516929133858268
 30
0.0
 10
0.3354448818897638
 20
-0.9516929133858268
 30
0.0
 10
0.3354448818897638
 20
-0.9516929133858268
 30
0.0
 10
0.3293464566929134
 20
-0.9350590551181103
 30
0.0
 10
0.3293464566929134
 20
-0.9350590551181103
 30
0.0
 10
0.3293464566929134
 20
-0.9350590551181103
 30
0.0
 10
0.3293464566929134
 20
-0.9350590551181103
 30
0.0
 10
0.3220944881889764
 20
-0.9183897637795276
 30
0.0
 10
0.3220944881889764
 20
-0.9183897637795276
 30
0.0
 10
0.3220944881889764
 20
-0.9183897637795276
 30
0.0
 10
0.3220944881889764
 20
-0.9183897637795276
 30
0.0
 10
-0.3361771653543307
 20
-1.2944015748031497
 30
0.0
 10
-0.3361771653543307
 20
-1.2944015748031497
 30
0.0
 10
-0.3361771653543307
 20
-1.2944015748031497
 30
0.0
 10
-0.3361771653543307
 20
-1.2944015748031497
 30
0.0
 10
-0.3289251968503937
 20
-1.3110708661417323
 30
0.0
 10
-0.3289251968503937
 20
-1.3110708661417323
 30
0.0
 10
-0.3289251968503937
 20
-1.3110708661417323
 30
0.0
 10
-0.3289251968503937
 20
-1.3110708661417323
 30
0.0
 10
-0.3228267716535433
 20
-1.3277047244094489
 30
0.0
 10
-0.3228267716535433
 20
-1.3277047244094489
 30
0.0
  0
SPLINE
  5
31
100
AcDbEntity
  8
P1-Layer 1
 62
     9
100
AcDbSpline
210
0.0
220
0.0
230
1.0
 70
     1
 71
     3
 72
    28
 73
    24
 74
     0
 42
0.0000000001
 43
0.0000000001
 40
0.0
 40
0.0
 40
0.0
 40
0.0
 40
0.1666666666666667
 40
0.1666666666666667
 40
0.1666666666666667
 40
0.1666666666666667
 40
0.3333333333333333
 40
0.3333333333333333
 40
0.3333333333333333
 40
0.3333333333333333
 40
0.5
 40
0.5
 40
0.5
 40
0.5
 40
0.6666666666666666
 40
0.6666666666666666
 40
0.6666666666666666
 40
0.6666666666666666
 40
0.8333333333333333
 40
0.8333333333333333
 40
0.8333333333333333
 40
0.8333333333333333
 40
1.0
 40
1.0
 40
1.0
 40
1.0
 10
-0.3361771653543307
 20
-1.2944015748031497
 30
0.0
 10
-0.3361771653543307
 20
-1.2944015748031497
 30
0.0
 10
0.3220944881889764
 20
-0.9183897637795276
 30
0.0
 10
0.3220944881889764
 20
-0.9183897637795276
 30
0.0
 10
0.3220944881889764
 20
-0.9183897637795276
 30
0.0
 10
0.3220944881889764
 20
-0.9183897637795276
 30
0.0
 10
0.3136653543307087
 20
-0.9017598425196851
 30
0.0
 10
0.3136653543307087
 20
-0.9017598425196851
 30
0.0
 10
0.3136653543307087
 20
-0.9017598425196851
 30
0.0
 10
0.3136653543307087
 20
-0.9017598425196851
 30
0.0
 10
0.3040708661417323
 20
-0.8852086614173229
 30
0.0
 10
0.3040708661417323
 20
-0.8852086614173229
 30
0.0
 10
0.3040708661417323
 20
-0.8852086614173229
 30
0.0
 10
0.3040708661417323
 20
-0.8852086614173229
 30
0.0
 10
-0.3542007874015748
 20
-1.261220472440945
 30
0.0
 10
-0.3542007874015748
 20
-1.261220472440945
 30
0.0
 10
-0.3542007874015748
 20
-1.261220472440945
 30
0.0
 10
-0.3542007874015748
 20
-1.261220472440945
 30
0.0
 10
-0.3446062992125984
 20
-1.2777716535433072
 30
0.0
 10
-0.3446062992125984
 20
-1.2777716535433072
 30
0.0
 10
-0.3446062992125984
 20
-1.2777716535433072
 30
0.0
 10
-0.3446062992125984
 20
-1.2777716535433072
 30
0.0
 10
-0.3361771653543307
 20
-1.2944015748031497
 30
0.0
 10
-0.3361771653543307
 20
-1.2944015748031497
 30
0.0
  0
SPLINE
  5
32
100
AcDbEntity
  8
P1-Layer 1
 62
     9
100
AcDbSpline
210
0.0
220
0.0
230
1.0
 70
     1
 71
     3
 72
    28
 73
    24
 74
     0
 42
0.0000000001
 43
0.0000000001
 40
0.0
 40
0.0
 40
0.0
 40
0.0
 40
0.1666666666666667
 40
0.1666666666666667
 40
0.1666666666666667
 40
0.1666666666666667
 40
0.3333333333333333
 40
0.3333333333333333
 40
0.3333333333333333
 40
0.3333333333333333
 40
0.5
 40
0.5
 40
0.5
 40
0.5
 40
0.6666666666666666
 40
0.6666666666666666
 40
0.6666666666666666
 40
0.6666666666666666
 40
0.8333333333333333
 40
0.8333333333333333
 40
0.8333333333333333
 40
0.8333333333333333
 40
1.0
 40
1.0
 40
1.0
 40
1.0
 10
-0.3542007874015748
 20
-1.261220472440945
 30
0.0
 10
-0.3542007874015748
 20
-1.261220472440945
 30
0.0
 10
0.3040708661417323
 20
-0.8852086614173229
 30
0.0
 10
0.3040708661417323
 20
-0.8852086614173229
 30
0.0
 10
0.3040708661417323
 20
-0.8852086614173229
 30
0.0
 10
0.3040708661417323
 20
-0.8852086614173229
 30
0.0
 10
0.2932874015748032
 20
-0.8687992125984252
 30
0.0
 10
0.2932874015748032
 20
-0.8687992125984252
 30
0.0
 10
0.2932874015748032
 20
-0.8687992125984252
 30
0.0
 10
0.2932874015748032
 20
-0.8687992125984252
 30
0.0
 10
0.2813267716535433
 20
-0.8525669291338583
 30
0.0
 10
0.2813267716535433
 20
-0.8525669291338583
 30
0.0
 10
0.2813267716535433
 20
-0.8525669291338583
 30
0.0
 10
0.2813267716535433
 20
-0.8525669291338583
 30
0.0
 10
-0.3769448818897638
 20
-1.2285787401574804
 30
0.0
 10
-0.3769448818897638
 20
-1.2285787401574804
 30
0.0
 10
-0.3769448818897638
 20
-1.2285787401574804
 30
0.0
 10
-0.3769448818897638
 20
-1.2285787401574804
 30
0.0
 10
-0.3649842519685039
 20
-1.2448110236220473
 30
0.0
 10
-0.3649842519685039
 20
-1.2448110236220473
 30
0.0
 10
-0.3649842519685039
 20
-1.2448110236220473
 30
0.0
 10
-0.3649842519685039
 20
-1.2448110236220473
 30
0.0
 10
-0.3542007874015748
 20
-1.261220472440945
 30
0.0
 10
-0.3542007874015748
 20
-1.261220472440945
 30
0.0
  0
SPLINE
  5
33
100
AcDbEntity
  8
P1-Layer 1
 62
     9
100
AcDbSpline
210
0.0
220
0.0
230
1.0
 70
     1
 71
     3
 72
    28
 73
    24
 74
     0
 42
0.0000000001
 43
0.0000000001
 40
0.0
 40
0.0
 40
0.0
 40
0.0
 40
0.1666666666666667
 40
0.1666666666666667
 40
0.1666666666666667
 40
0.1666666666666667
 40
0.3333333333333333
 40
0.3333333333333333
 40
0.3333333333333333
 40
0.3333333333333333
 40
0.5
 40
0.5
 40
0.5
 40
0.5
 40
0.6666666666666666
 40
0.6666666666666666
 40
0.6666666666666666
 40
0.6666666666666666
 40
0.8333333333333333
 40
0.8333333333333333
 40
0.8333333333333333
 40
0.8333333333333333
 40
1.0
 40
1.0
 40
1.0
 40
1.0
 10
-0.3769448818897638
 20
-1.2285787401574804
 30
0.0
 10
-0.3769448818897638
 20
-1.2285787401574804
 30
0.0
 10
0.2813267716535433
 20
-0.8525669291338583
 30
0.0
 10
0.2813267716535433
 20
-0.8525669291338583
 30
0.0
 10
0.2813267716535433
 20
-0.8525669291338583
 30
0.0
 10
0.2813267716535433
 20
-0.8525669291338583
 30
0.0
 10
0.2681771653543307
 20
-0.8365708661417323
 30
0.0
 10
0.2681771653543307
 20
-0.8365708661417323
 30
0.0
 10
0.2681771653543307
 20
-0.8365708661417323
 30
0.0
 10
0.2681771653543307
 20
-0.8365708661417323
 30
0.0
 10
0.2538346456692914
 20
-0.8208661417322835
 30
0.0
 10
0.2538346456692914
 20
-0.8208661417322835
 30
0.0
 10
0.2538346456692914
 20
-0.8208661417322835
 30
0.0
 10
0.2538346456692914
 20
-0.8208661417322835
 30
0.0
 10
-0.4044370078740158
 20
-1.1968779527559055
 30
0.0
 10
-0.4044370078740158
 20
-1.1968779527559055
 30
0.0
 10
-0.4044370078740158
 20
-1.1968779527559055
 30
0.0
 10
-0.4044370078740158
 20
-1.1968779527559055
 30
0.0
 10
-0.3900944881889764
 20
-1.2125826771653543
 30
0.0
 10
-0.3900944881889764
 20
-1.2125826771653543
 30
0.0
 10
-0.3900944881889764
 20
-1.2125826771653543
 30
0.0
 10
-0.3900944881889764
 20
-1.2125826771653543
 30
0.0
 10
-0.3769448818897638
 20
-1.2285787401574804
 30
0.0
 10
-0.3769448818897638
 20
-1.2285787401574804
 30
0.0
  0
SPLINE
  5
34
100
AcDbEntity
  8
P1-Layer 1
 62
     9
100
AcDbSpline
210
0.0
220
0.0
230
1.0
 70
     1
 71
     3
 72
    28
 73
    24
 74
     0
 42
0.0000000001
 43
0.0000000001
 40
0.0
 40
0.0
 40
0.0
 40
0.0
 40
0.1666666666666667
 40
0.1666666666666667
 40
0.1666666666666667
 40
0.1666666666666667
 40
0.3333333333333333
 40
0.3333333333333333
 40
0.3333333333333333
 40
0.3333333333333333
 40
0.5
 40
0.5
 40
0.5
 40
0.5
 40
0.6666666666666666
 40
0.6666666666666666
 40
0.6666666666666666
 40
0.6666666666666666
 40
0.8333333333333333
 40
0.8333333333333333
 40
0.8333333333333333
 40
0.8333333333333333
 40
1.0
 40
1.0
 40
1.0
 40
1.0
 10
-0.4044370078740158
 20
-1.1968779527559055
 30
0.0
 10
-0.4044370078740158
 20
-1.1968779527559055
 30
0.0
 10
0.2538346456692914
 20
-0.8208661417322835
 30
0.0
 10
0.2538346456692914
 20
-0.8208661417322835
 30
0.0
 10
0.2538346456692914
 20
-0.8208661417322835
 30
0.0
 10
0.2538346456692914
 20
-0.8208661417322835
 30
0.0
 10
0.2382874015748032
 20
-0.805503937007874
 30
0.0
 10
0.2382874015748032
 20
-0.805503937007874
 30
0.0
 10
0.2382874015748032
 20
-0.805503937007874
 30
0.0
 10
0.2382874015748032
 20
-0.805503937007874
 30
0.0
 10
0.2225866141732284
 20
-0.7906496062992127
 30
0.0
 10
0.2225866141732284
 20
-0.7906496062992127
 30
0.0
 10
0.2225866141732284
 20
-0.7906496062992127
 30
0.0
 10
0.2225866141732284
 20
-0.7906496062992127
 30
0.0
 10
-0.4356850393700787
 20
-1.1666614173228347
 30
0.0
 10
-0.4356850393700787
 20
-1.1666614173228347
 30
0.0
 10
-0.4356850393700787
 20
-1.1666614173228347
 30
0.0
 10
-0.4356850393700787
 20
-1.1666614173228347
 30
0.0
 10
-0.419984251968504
 20
-1.1815157480314962
 30
0.0
 10
-0.419984251968504
 20
-1.1815157480314962
 30
0.0
 10
-0.419984251968504
 20
-1.1815157480314962
 30
0.0
 10
-0.419984251968504
 20
-1.1815157480314962
 30
0.0
 10
-0.4044370078740158
 20
-1.1968779527559055
 30
0.0
 10
-0.4044370078740158
 20
-1.1968779527559055
 30
0.0
  0
SPLINE
  5
35
100
AcDbEntity
  8
P1-Layer 1
 62
     9
100
AcDbSpline
210
0.0
220
0.0
230
1.0
 70
     1
 71
     3
 72
    28
 73
    24
 74
     0
 42
0.0000000001
 43
0.0000000001
 40
0.0
 40
0.0
 40
0.0
 40
0.0
 40
0.1666666666666667
 40
0.1666666666666667
 40
0.1666666666666667
 40
0.1666666666666667
 40
0.3333333333333333
 40
0.3333333333333333
 40
0.3333333333333333
 40
0.3333333333333333
 40
0.5
 40
0.5
 40
0.5
 40
0.5
 40
0.6666666666666666
 40
0.6666666666666666
 40
0.6666666666666666
 40
0.6666666666666666
 40
0.8333333333333333
 40
0.8333333333333333
 40
0.8333333333333333
 40
0.8333333333333333
 40
1.0
 40
1.0
 40
1.0
 40
1.0
 10
-0.4356850393700787
 20
-1.1666614173228347
 30
0.0
 10
-0.4356850393700787
 20
-1.1666614173228347
 30
0.0
 10
0.2225866141732284
 20
-0.7906496062992127
 30
0.0
 10
0.2225866141732284
 20
-0.7906496062992127
 30
0.0
 10
0.2225866141732284
 20
-0.7906496062992127
 30
0.0
 10
0.2225866141732284
 20
-0.7906496062992127
 30
0.0
 10
0.207736220472441
 20
-0.7764330708661418
 30
0.0
 10
0.207736220472441
 20
-0.7764330708661418
 30
0.0
 10
0.207736220472441
 20
-0.7764330708661418
 30
0.0
 10
0.207736220472441
 20
-0.7764330708661418
 30
0.0
 10
0.1937244094488189
 20
-0.7627952755905512
 30
0.0
 10
0.1937244094488189
 20
-0.7627952755905512
 30
0.0
 10
0.1937244094488189
 20
-0.7627952755905512
 30
0.0
 10
0.1937244094488189
 20
-0.7627952755905512
 30
0.0
 10
-0.4645472440944882
 20
-1.1388070866141733
 30
0.0
 10
-0.4645472440944882
 20
-1.1388070866141733
 30
0.0
 10
-0.4645472440944882
 20
-1.1388070866141733
 30
0.0
 10
-0.4645472440944882
 20
-1.1388070866141733
 30
0.0
 10
-0.4505354330708661
 20
-1.1524448818897639
 30
0.0
 10
-0.4505354330708661
 20
-1.1524448818897639
 30
0.0
 10
-0.4505354330708661
 20
-1.1524448818897639
 30
0.0
 10
-0.4505354330708661
 20
-1.1524448818897639
 30
0.0
 10
-0.4356850393700787
 20
-1.1666614173228347
 30
0.0
 10
-0.4356850393700787
 20
-1.1666614173228347
 30
0.0
  0
SPLINE
  5
36
100
AcDbEntity
  8
P1-Layer 1
 62
     9
100
AcDbSpline
210
0.0
220
0.0
230
1.0
 70
     1
 71
     3
 72
    28
 73
    24
 74
     0
 42
0.0000000001
 43
0.0000000001
 40
0.0
 40
0.0
 40
0.0
 40
0.0
 40
0.1666666666666667
 40
0.1666666666666667
 40
0.1666666666666667
 40
0.1666666666666667
 40
0.3333333333333333
 40
0.3333333333333333
 40
0.3333333333333333
 40
0.3333333333333333
 40
0.5
 40
0.5
 40
0.5
 40
0.5
 40
0.6666666666666666
 40
0.6666666666666666
 40
0.6666666666666666
 40
0.6666666666666666
 40
0.8333333333333333
 40
0.8333333333333333
 40
0.8333333333333333
 40
0.8333333333333333
 40
1.0
 40
1.0
 40
1.0
 40
1.0
 10
-0.4645472440944882
 20
-1.1388070866141733
 30
0.0
 10
-0.4645472440944882
 20
-1.1388070866141733
 30
0.0
 10
0.1937244094488189
 20
-0.7627952755905512
 30
0.0
 10
0.1937244094488189
 20
-0.7627952755905512
 30
0.0
 10
0.1937244094488189
 20
-0.7627952755905512
 30
0.0
 10
0.1937244094488189
 20
-0.7627952755905512
 30
0.0
 10
0.180511811023622
 20
-0.7497007874015749
 30
0.0
 10
0.180511811023622
 20
-0.7497007874015749
 30
0.0
 10
0.180511811023622
 20
-0.7497007874015749
 30
0.0
 10
0.180511811023622
 20
-0.7497007874015749
 30
0.0
 10
0.1680944881889764
 20
-0.7370905511811023
 30
0.0
 10
0.1680944881889764
 20
-0.7370905511811023
 30
0.0
 10
0.1680944881889764
 20
-0.7370905511811023
 30
0.0
 10
0.1680944881889764
 20
-0.7370905511811023
 30
0.0
 10
-0.4901771653543307
 20
-1.1131023622047245
 30
0.0
 10
-0.4901771653543307
 20
-1.1131023622047245
 30
0.0
 10
-0.4901771653543307
 20
-1.1131023622047245
 30
0.0
 10
-0.4901771653543307
 20
-1.1131023622047245
 30
0.0
 10
-0.4777598425196851
 20
-1.125712598425197
 30
0.0
 10
-0.4777598425196851
 20
-1.125712598425197
 30
0.0
 10
-0.4777598425196851
 20
-1.125712598425197
 30
0.0
 10
-0.4777598425196851
 20
-1.125712598425197
 30
0.0
 10
-0.4645472440944882
 20
-1.1388070866141733
 30
0.0
 10
-0.4645472440944882
 20
-1.1388070866141733
 30
0.0
  0
SPLINE
  5
37
100
AcDbEntity
  8
P1-Layer 1
 62
     9
100
AcDbSpline
210
0.0
220
0.0
230
1.0
 70
     1
 71
     3
 72
    36
 73
    32
 74
     0
 42
0.0000000001
 43
0.0000000001
 40
0.0
 40
0.0
 40
0.0
 40
0.0
 40
0.125
 40
0.125
 40
0.125
 40
0.125
 40
0.25
 40
0.25
 40
0.25
 40
0.25
 40
0.375
 40
0.375
 40
0.375
 40
0.375
 40
0.5
 40
0.5
 40
0.5
 40
0.5
 40
0.625
 40
0.625
 40
0.625
 40
0.625
 40
0.75
 40
0.75
 40
0.75
 40
0.75
 40
0.875
 40
0.875
 40
0.875
 40
0.875
 40
1.0
 40
1.0
 40
1.0
 40
1.0
 10
-0.4901771653543307
 20
-1.1131023622047245
 30
0.0
 10
-0.4901771653543307
 20
-1.1131023622047245
 30
0.0
 10
0.1680944881889764
 20
-0.7370905511811023
 30
0.0
 10
0.1680944881889764
 20
-0.7370905511811023
 30
0.0
 10
0.1680944881889764
 20
-0.7370905511811023
 30
0.0
 10
0.1680944881889764
 20
-0.7370905511811023
 30
0.0
 10
0.1564370078740158
 20
-0.7249291338582677
 30
0.0
 10
0.1564370078740158
 20
-0.7249291338582677
 30
0.0
 10
0.1564370078740158
 20
-0.7249291338582677
 30
0.0
 10
0.1564370078740158
 20
-0.7249291338582677
 30
0.0
 10
0.1455196850393701
 20
-0.7131614173228347
 30
0.0
 10
0.1455196850393701
 20
-0.7131614173228347
 30
0.0
 10
0.1455196850393701
 20
-0.7131614173228347
 30
0.0
 10
0.1455196850393701
 20
-0.7131614173228347
 30
0.0
 10
0.1353149606299213
 20
-0.7017519685039371
 30
0.0
 10
0.1353149606299213
 20
-0.7017519685039371
 30
0.0
 10
0.1353149606299213
 20
-0.7017519685039371
 30
0.0
 10
0.1353149606299213
 20
-0.7017519685039371
 30
0.0
 10
-0.5229566929133859
 20
-1.0777637795275592
 30
0.0
 10
-0.5229566929133859
 20
-1.0777637795275592
 30
0.0
 10
-0.5229566929133859
 20
-1.0777637795275592
 30
0.0
 10
-0.5229566929133859
 20
-1.0777637795275592
 30
0.0
 10
-0.512751968503937
 20
-1.0891732283464568
 30
0.0
 10
-0.512751968503937
 20
-1.0891732283464568
 30
0.0
 10
-0.512751968503937
 20
-1.0891732283464568
 30
0.0
 10
-0.512751968503937
 20
-1.0891732283464568
 30
0.0
 10
-0.5018346456692914
 20
-1.1009409448818899
 30
0.0
 10
-0.5018346456692914
 20
-1.1009409448818899
 30
0.0
 10
-0.5018346456692914
 20
-1.1009409448818899
 30
0.0
 10
-0.5018346456692914
 20
-1.1009409448818899
 30
0.0
 10
-0.4901771653543307
 20
-1.1131023622047245
 30
0.0
 10
-0.4901771653543307
 20
-1.1131023622047245
 30
0.0
  0
SPLINE
  5
38
100
AcDbEntity
  8
P1-Layer 1
 62
     9
100
AcDbSpline
210
0.0
220
0.0
230
1.0
 70
     1
 71
     3
 72
    36
 73
    32
 74
     0
 42
0.0000000001
 43
0.0000000001
 40
0.0
 40
0.0
 40
0.0
 40
0.0
 40
0.125
 40
0.125
 40
0.125
 40
0.125
 40
0.25
 40
0.25
 40
0.25
 40
0.25
 40
0.375
 40
0.375
 40
0.375
 40
0.375
 40
0.5
 40
0.5
 40
0.5
 40
0.5
 40
0.625
 40
0.625
 40
0.625
 40
0.625
 40
0.75
 40
0.75
 40
0.75
 40
0.75
 40
0.875
 40
0.875
 40
0.875
 40
0.875
 40
1.0
 40
1.0
 40
1.0
 40
1.0
 10
-0.5229566929133859
 20
-1.0777637795275592
 30
0.0
 10
-0.5229566929133859
 20
-1.0777637795275592
 30
0.0
 10
0.1353149606299213
 20
-0.7017519685039371
 30
0.0
 10
0.1353149606299213
 20
-0.7017519685039371
 30
0.0
 10
0.1353149606299213
 20
-0.7017519685039371
 30
0.0
 10
0.1353149606299213
 20
-0.7017519685039371
 30
0.0
 10
0.1258149606299213
 20
-0.6906299212598426
 30
0.0
 10
0.1258149606299213
 20
-0.6906299212598426
 30
0.0
 10
0.1258149606299213
 20
-0.6906299212598426
 30
0.0
 10
0.1258149606299213
 20
-0.6906299212598426
 30
0.0
 10
0.1169803149606299
 20
-0.6797755905511811
 30
0.0
 10
0.1169803149606299
 20
-0.6797755905511811
 30
0.0
 10
0.1169803149606299
 20
-0.6797755905511811
 30
0.0
 10
0.1169803149606299
 20
-0.6797755905511811
 30
0.0
 10
0.1087952755905512
 20
-0.6691181102362205
 30
0.0
 10
0.1087952755905512
 20
-0.6691181102362205
 30
0.0
 10
0.1087952755905512
 20
-0.6691181102362205
 30
0.0
 10
0.1087952755905512
 20
-0.6691181102362205
 30
0.0
 10
-0.549476377952756
 20
-1.0451299212598426
 30
0.0
 10
-0.549476377952756
 20
-1.0451299212598426
 30
0.0
 10
-0.549476377952756
 20
-1.0451299212598426
 30
0.0
 10
-0.549476377952756
 20
-1.0451299212598426
 30
0.0
 10
-0.5412913385826772
 20
-1.0557874015748032
 30
0.0
 10
-0.5412913385826772
 20
-1.0557874015748032
 30
0.0
 10
-0.5412913385826772
 20
-1.0557874015748032
 30
0.0
 10
-0.5412913385826772
 20
-1.0557874015748032
 30
0.0
 10
-0.5324566929133858
 20
-1.0666417322834647
 30
0.0
 10
-0.5324566929133858
 20
-1.0666417322834647
 30
0.0
 10
-0.5324566929133858
 20
-1.0666417322834647
 30
0.0
 10
-0.5324566929133858
 20
-1.0666417322834647
 30
0.0
 10
-0.5229566929133859
 20
-1.0777637795275592
 30
0.0
 10
-0.5229566929133859
 20
-1.0777637795275592
 30
0.0
  0
SPLINE
  5
39
100
AcDbEntity
  8
P1-Layer 1
 62
     9
100
AcDbSpline
210
0.0
220
0.0
230
1.0
 70
     1
 71
     3
 72
    44
 73
    40
 74
     0
 42
0.0000000001
 43
0.0000000001
 40
0.0
 40
0.0
 40
0.0
 40
0.0
 40
0.1
 40
0.1
 40
0.1
 40
0.1
 40
0.2
 40
0.2
 40
0.2
 40
0.2
 40
0.3
 40
0.3
 40
0.3
 40
0.3
 40
0.4
 40
0.4
 40
0.4
 40
0.4
 40
0.5
 40
0.5
 40
0.5
 40
0.5
 40
0.6
 40
0.6
 40
0.6
 40
0.6
 40
0.7
 40
0.7
 40
0.7
 40
0.7
 40
0.7999999999999999
 40
0.7999999999999999
 40
0.7999999999999999
 40
0.7999999999999999
 40
0.8999999999999999
 40
0.8999999999999999
 40
0.8999999999999999
 40
0.8999999999999999
 40
1.0
 40
1.0
 40
1.0
 40
1.0
 10
-0.549476377952756
 20
-1.0451299212598426
 30
0.0
 10
-0.549476377952756
 20
-1.0451299212598426
 30
0.0
 10
0.1087952755905512
 20
-0.6691181102362205
 30
0.0
 10
0.1087952755905512
 20
-0.6691181102362205
 30
0.0
 10
0.1087952755905512
 20
-0.6691181102362205
 30
0.0
 10
0.1087952755905512
 20
-0.6691181102362205
 30
0.0
 10
0.1012283464566929
 20
-0.6586338582677166
 30
0.0
 10
0.1012283464566929
 20
-0.6586338582677166
 30
0.0
 10
0.1012283464566929
 20
-0.6586338582677166
 30
0.0
 10
0.1012283464566929
 20
-0.6586338582677166
 30
0.0
 10
0.0942716535433071
 20
-0.648255905511811
 30
0.0
 10
0.0942716535433071
 20
-0.648255905511811
 30
0.0
 10
0.0942716535433071
 20
-0.648255905511811
 30
0.0
 10
0.0942716535433071
 20
-0.648255905511811
 30
0.0
 10
0.0878897637795276
 20
-0.6379488188976378
 30
0.0
 10
0.0878897637795276
 20
-0.6379488188976378
 30
0.0
 10
0.0878897637795276
 20
-0.6379488188976378
 30
0.0
 10
0.0878897637795276
 20
-0.6379488188976378
 30
0.0
 10
0.0820669291338583
 20
-0.6276535433070867
 30
0.0
 10
0.0820669291338583
 20
-0.6276535433070867
 30
0.0
 10
0.0820669291338583
 20
-0.6276535433070867
 30
0.0
 10
0.0820669291338583
 20
-0.6276535433070867
 30
0.0
 10
-0.5762047244094488
 20
-1.0036653543307088
 30
0.0
 10
-0.5762047244094488
 20
-1.0036653543307088
 30
0.0
 10
-0.5762047244094488
 20
-1.0036653543307088
 30
0.0
 10
-0.5762047244094488
 20
-1.0036653543307088
 30
0.0
 10
-0.5703818897637796
 20
-1.0139606299212598
 30
0.0
 10
-0.5703818897637796
 20
-1.0139606299212598
 30
0.0
 10
-0.5703818897637796
 20
-1.0139606299212598
 30
0.0
 10
-0.5703818897637796
 20
-1.0139606299212598
 30
0.0
 10
-0.5640000000000001
 20
-1.024267716535433
 30
0.0
 10
-0.5640000000000001
 20
-1.024267716535433
 30
0.0
 10
-0.5640000000000001
 20
-1.024267716535433
 30
0.0
 10
-0.5640000000000001
 20
-1.024267716535433
 30
0.0
 10
-0.5570433070866142
 20
-1.0346456692913386
 30
0.0
 10
-0.5570433070866142
 20
-1.0346456692913386
 30
0.0
 10
-0.5570433070866142
 20
-1.0346456692913386
 30
0.0
 10
-0.5570433070866142
 20
-1.0346456692913386
 30
0.0
 10
-0.549476377952756
 20
-1.0451299212598426
 30
0.0
 10
-0.549476377952756
 20
-1.0451299212598426
 30
0.0
  0
SPLINE
  5
3A
100
AcDbEntity
  8
P1-Layer 1
 62
     9
100
AcDbSpline
210
0.0
220
0.0
230
1.0
 70
     1
 71
     3
 72
    44
 73
    40
 74
     0
 42
0.0000000001
 43
0.0000000001
 40
0.0
 40
0.0
 40
0.0
 40
0.0
 40
0.1
 40
0.1
 40
0.1
 40
0.1
 40
0.2
 40
0.2
 40
0.2
 40
0.2
 40
0.3
 40
0.3
 40
0.3
 40
0.3
 40
0.4
 40
0.4
 40
0.4
 40
0.4
 40
0.5
 40
0.5
 40
0.5
 40
0.5
 40
0.6
 40
0.6
 40
0.6
 40
0.6
 40
0.7
 40
0.7
 40
0.7
 40
0.7
 40
0.7999999999999999
 40
0.7999999999999999
 40
0.7999999999999999
 40
0.7999999999999999
 40
0.8999999999999999
 40
0.8999999999999999
 40
0.8999999999999999
 40
0.8999999999999999
 40
1.0
 40
1.0
 40
1.0
 40
1.0
 10
-0.5762047244094488
 20
-1.0036653543307088
 30
0.0
 10
-0.5762047244094488
 20
-1.0036653543307088
 30
0.0
 10
0.0820669291338583
 20
-0.6276535433070867
 30
0.0
 10
0.0820669291338583
 20
-0.6276535433070867
 30
0.0
 10
0.0820669291338583
 20
-0.6276535433070867
 30
0.0
 10
0.0820669291338583
 20
-0.6276535433070867
 30
0.0
 10
0.0767677165354331
 20
-0.6173425196850394
 30
0.0
 10
0.0767677165354331
 20
-0.6173425196850394
 30
0.0
 10
0.0767677165354331
 20
-0.6173425196850394
 30
0.0
 10
0.0767677165354331
 20
-0.6173425196850394
 30
0.0
 10
0.071988188976378
 20
-0.6069409448818898
 30
0.0
 10
0.071988188976378
 20
-0.6069409448818898
 30
0.0
 10
0.071988188976378
 20
-0.6069409448818898
 30
0.0
 10
0.071988188976378
 20
-0.6069409448818898
 30
0.0
 10
0.0676929133858268
 20
-0.5964291338582678
 30
0.0
 10
0.0676929133858268
 20
-0.5964291338582678
 30
0.0
 10
0.0676929133858268
 20
-0.5964291338582678
 30
0.0
 10
0.0676929133858268
 20
-0.5964291338582678
 30
0.0
 10
0.0638622047244095
 20
-0.585744094488189
 30
0.0
 10
0.0638622047244095
 20
-0.585744094488189
 30
0.0
 10
0.0638622047244095
 20
-0.585744094488189
 30
0.0
 10
0.0638622047244095
 20
-0.585744094488189
 30
0.0
 10
-0.5944094488188977
 20
-0.961755905511811
 30
0.0
 10
-0.5944094488188977
 20
-0.961755905511811
 30
0.0
 10
-0.5944094488188977
 20
-0.961755905511811
 30
0.0
 10
-0.5944094488188977
 20
-0.961755905511811
 30
0.0
 10
-0.5905787401574804
 20
-0.9724409448818898
 30
0.0
 10
-0.5905787401574804
 20
-0.9724409448818898
 30
0.0
 10
-0.5905787401574804
 20
-0.9724409448818898
 30
0.0
 10
-0.5905787401574804
 20
-0.9724409448818898
 30
0.0
 10
-0.5862834645669292
 20
-0.9829527559055119
 30
0.0
 10
-0.5862834645669292
 20
-0.9829527559055119
 30
0.0
 10
-0.5862834645669292
 20
-0.9829527559055119
 30
0.0
 10
-0.5862834645669292
 20
-0.9829527559055119
 30
0.0
 10
-0.5815039370078741
 20
-0.9933543307086614
 30
0.0
 10
-0.5815039370078741
 20
-0.9933543307086614
 30
0.0
 10
-0.5815039370078741
 20
-0.9933543307086614
 30
0.0
 10
-0.5815039370078741
 20
-0.9933543307086614
 30
0.0
 10
-0.5762047244094488
 20
-1.0036653543307088
 30
0.0
 10
-0.5762047244094488
 20
-1.0036653543307088
 30
0.0
  0
SPLINE
  5
3B
100
AcDbEntity
  8
P1-Layer 1
 62
     9
100
AcDbSpline
210
0.0
220
0.0
230
1.0
 70
     1
 71
     3
 72
    44
 73
    40
 74
     0
 42
0.0000000001
 43
0.0000000001
 40
0.0
 40
0.0
 40
0.0
 40
0.0
 40
0.1
 40
0.1
 40
0.1
 40
0.1
 40
0.2
 40
0.2
 40
0.2
 40
0.2
 40
0.3
 40
0.3
 40
0.3
 40
0.3
 40
0.4
 40
0.4
 40
0.4
 40
0.4
 40
0.5
 40
0.5
 40
0.5
 40
0.5
 40
0.6
 40
0.6
 40
0.6
 40
0.6
 40
0.7
 40
0.7
 40
0.7
 40
0.7
 40
0.7999999999999999
 40
0.7999999999999999
 40
0.7999999999999999
 40
0.7999999999999999
 40
0.8999999999999999
 40
0.8999999999999999
 40
0.8999999999999999
 40
0.8999999999999999
 40
1.0
 40
1.0
 40
1.0
 40
1.0
 10
-0.5944094488188977
 20
-0.961755905511811
 30
0.0
 10
-0.5944094488188977
 20
-0.961755905511811
 30
0.0
 10
0.0638622047244095
 20
-0.585744094488189
 30
0.0
 10
0.0638622047244095
 20
-0.585744094488189
 30
0.0
 10
0.0638622047244095
 20
-0.585744094488189
 30
0.0
 10
0.0638622047244095
 20
-0.585744094488189
 30
0.0
 10
0.0604645669291339
 20
-0.5748464566929135
 30
0.0
 10
0.0604645669291339
 20
-0.5748464566929135
 30
0.0
 10
0.0604645669291339
 20
-0.5748464566929135
 30
0.0
 10
0.0604645669291339
 20
-0.5748464566929135
 30
0.0
 10
0.057488188976378
 20
-0.5636771653543308
 30
0.0
 10
0.057488188976378
 20
-0.5636771653543308
 30
0.0
 10
0.057488188976378
 20
-0.5636771653543308
 30
0.0
 10
0.057488188976378
 20
-0.5636771653543308
 30
0.0
 10
0.0549055118110236
 20
-0.5522047244094488
 30
0.0
 10
0.0549055118110236
 20
-0.5522047244094488
 30
0.0
 10
0.0549055118110236
 20
-0.5522047244094488
 30
0.0
 10
0.0549055118110236
 20
-0.5522047244094488
 30
0.0
 10
0.0526968503937008
 20
-0.5403700787401575
 30
0.0
 10
0.0526968503937008
 20
-0.5403700787401575
 30
0.0
 10
0.0526968503937008
 20
-0.5403700787401575
 30
0.0
 10
0.0526968503937008
 20
-0.5403700787401575
 30
0.0
 10
-0.6055748031496063
 20
-0.9163818897637795
 30
0.0
 10
-0.6055748031496063
 20
-0.9163818897637795
 30
0.0
 10
-0.6055748031496063
 20
-0.9163818897637795
 30
0.0
 10
-0.6055748031496063
 20
-0.9163818897637795
 30
0.0
 10
-0.6033661417322835
 20
-0.9282165354330709
 30
0.0
 10
-0.6033661417322835
 20
-0.9282165354330709
 30
0.0
 10
-0.6033661417322835
 20
-0.9282165354330709
 30
0.0
 10
-0.6033661417322835
 20
-0.9282165354330709
 30
0.0
 10
-0.6007834645669291
 20
-0.9396889763779528
 30
0.0
 10
-0.6007834645669291
 20
-0.9396889763779528
 30
0.0
 10
-0.6007834645669291
 20
-0.9396889763779528
 30
0.0
 10
-0.6007834645669291
 20
-0.9396889763779528
 30
0.0
 10
-0.5978070866141733
 20
-0.9508582677165355
 30
0.0
 10
-0.5978070866141733
 20
-0.9508582677165355
 30
0.0
 10
-0.5978070866141733
 20
-0.9508582677165355
 30
0.0
 10
-0.5978070866141733
 20
-0.9508582677165355
 30
0.0
 10
-0.5944094488188977
 20
-0.961755905511811
 30
0.0
 10
-0.5944094488188977
 20
-0.961755905511811
 30
0.0
  0
SPLINE
  5
3C
100
AcDbEntity
  8
P1-Layer 1
 62
     9
100
AcDbSpline
210
0.0
220
0.0
230
1.0
 70
     1
 71
     3
 72
    36
 73
    32
 74
     0
 42
0.0000000001
 43
0.0000000001
 40
0.0
 40
0.0
 40
0.0
 40
0.0
 40
0.125
 40
0.125
 40
0.125
 40
0.125
 40
0.25
 40
0.25
 40
0.25
 40
0.25
 40
0.375
 40
0.375
 40
0.375
 40
0.375
 40
0.5
 40
0.5
 40
0.5
 40
0.5
 40
0.625
 40
0.625
 40
0.625
 40
0.625
 40
0.75
 40
0.75
 40
0.75
 40
0.75
 40
0.875
 40
0.875
 40
0.875
 40
0.875
 40
1.0
 40
1.0
 40
1.0
 40
1.0
 10
-0.6055748031496063
 20
-0.9163818897637795
 30
0.0
 10
-0.6055748031496063
 20
-0.9163818897637795
 30
0.0
 10
0.0526968503937008
 20
-0.5403700787401575
 30
0.0
 10
0.0526968503937008
 20
-0.5403700787401575
 30
0.0
 10
0.0526968503937008
 20
-0.5403700787401575
 30
0.0
 10
0.0526968503937008
 20
-0.5403700787401575
 30
0.0
 10
0.0508267716535433
 20
-0.5281377952755906
 30
0.0
 10
0.0508267716535433
 20
-0.5281377952755906
 30
0.0
 10
0.0508267716535433
 20
-0.5281377952755906
 30
0.0
 10
0.0508267716535433
 20
-0.5281377952755906
 30
0.0
 10
0.0492913385826772
 20
-0.5154409448818897
 30
0.0
 10
0.0492913385826772
 20
-0.5154409448818897
 30
0.0
 10
0.0492913385826772
 20
-0.5154409448818897
 30
0.0
 10
0.0492913385826772
 20
-0.5154409448818897
 30
0.0
 10
0.0480551181102362
 20
-0.5022519685039371
 30
0.0
 10
0.0480551181102362
 20
-0.5022519685039371
 30
0.0
 10
0.0480551181102362
 20
-0.5022519685039371
 30
0.0
 10
0.0480551181102362
 20
-0.5022519685039371
 30
0.0
 10
-0.6102165354330709
 20
-0.8782637795275591
 30
0.0
 10
-0.6102165354330709
 20
-0.8782637795275591
 30
0.0
 10
-0.6102165354330709
 20
-0.8782637795275591
 30
0.0
 10
-0.6102165354330709
 20
-0.8782637795275591
 30
0.0
 10
-0.60898031496063
 20
-0.8914527559055119
 30
0.0
 10
-0.60898031496063
 20
-0.8914527559055119
 30
0.0
 10
-0.60898031496063
 20
-0.8914527559055119
 30
0.0
 10
-0.60898031496063
 20
-0.8914527559055119
 30
0.0
 10
-0.6074448818897638
 20
-0.9041496062992126
 30
0.0
 10
-0.6074448818897638
 20
-0.9041496062992126
 30
0.0
 10
-0.6074448818897638
 20
-0.9041496062992126
 30
0.0
 10
-0.6074448818897638
 20
-0.9041496062992126
 30
0.0
 10
-0.6055748031496063
 20
-0.9163818897637795
 30
0.0
 10
-0.6055748031496063
 20
-0.9163818897637795
 30
0.0
  0
SPLINE
  5
3D
100
AcDbEntity
  8
P1-Layer 1
 62
     9
100
AcDbSpline
210
0.0
220
0.0
230
1.0
 70
     1
 71
     3
 72
    36
 73
    32
 74
     0
 42
0.0000000001
 43
0.0000000001
 40
0.0
 40
0.0
 40
0.0
 40
0.0
 40
0.125
 40
0.125
 40
0.125
 40
0.125
 40
0.25
 40
0.25
 40
0.25
 40
0.25
 40
0.375
 40
0.375
 40
0.375
 40
0.375
 40
0.5
 40
0.5
 40
0.5
 40
0.5
 40
0.625
 40
0.625
 40
0.625
 40
0.625
 40
0.75
 40
0.75
 40
0.75
 40
0.75
 40
0.875
 40
0.875
 40
0.875
 40
0.875
 40
1.0
 40
1.0
 40
1.0
 40
1.0
 10
-0.6102165354330709
 20
-0.8782637795275591
 30
0.0
 10
-0.6102165354330709
 20
-0.8782637795275591
 30
0.0
 10
0.0480551181102362
 20
-0.5022519685039371
 30
0.0
 10
0.0480551181102362
 20
-0.5022519685039371
 30
0.0
 10
0.0480551181102362
 20
-0.5022519685039371
 30
0.0
 10
0.0480551181102362
 20
-0.5022519685039371
 30
0.0
 10
0.0470944881889764
 20
-0.4885157480314961
 30
0.0
 10
0.0470944881889764
 20
-0.4885157480314961
 30
0.0
 10
0.0470944881889764
 20
-0.4885157480314961
 30
0.0
 10
0.0470944881889764
 20
-0.4885157480314961
 30
0.0
 10
0.0463858267716535
 20
-0.4741929133858268
 30
0.0
 10
0.0463858267716535
 20
-0.4741929133858268
 30
0.0
 10
0.0463858267716535
 20
-0.4741929133858268
 30
0.0
 10
0.0463858267716535
 20
-0.4741929133858268
 30
0.0
 10
0.0459133858267717
 20
-0.4592204724409449
 30
0.0
 10
0.0459133858267717
 20
-0.4592204724409449
 30
0.0
 10
0.0459133858267717
 20
-0.4592204724409449
 30
0.0
 10
0.0459133858267717
 20
-0.4592204724409449
 30
0.0
 10
-0.6123582677165355
 20
-0.835232283464567
 30
0.0
 10
-0.6123582677165355
 20
-0.835232283464567
 30
0.0
 10
-0.6123582677165355
 20
-0.835232283464567
 30
0.0
 10
-0.6123582677165355
 20
-0.835232283464567
 30
0.0
 10
-0.6118858267716536
 20
-0.8502047244094488
 30
0.0
 10
-0.6118858267716536
 20
-0.8502047244094488
 30
0.0
 10
-0.6118858267716536
 20
-0.8502047244094488
 30
0.0
 10
-0.6118858267716536
 20
-0.8502047244094488
 30
0.0
 10
-0.6111771653543308
 20
-0.8645275590551181
 30
0.0
 10
-0.6111771653543308
 20
-0.8645275590551181
 30
0.0
 10
-0.6111771653543308
 20
-0.8645275590551181
 30
0.0
 10
-0.6111771653543308
 20
-0.8645275590551181
 30
0.0
 10
-0.6102165354330709
 20
-0.8782637795275591
 30
0.0
 10
-0.6102165354330709
 20
-0.8782637795275591
 30
0.0
  0
SPLINE
  5
3E
100
AcDbEntity
  8
P1-Layer 1
 62
     9
100
AcDbSpline
210
0.0
220
0.0
230
1.0
 70
     1
 71
     3
 72
    36
 73
    32
 74
     0
 42
0.0000000001
 43
0.0000000001
 40
0.0
 40
0.0
 40
0.0
 40
0.0
 40
0.125
 40
0.125
 40
0.125
 40
0.125
 40
0.25
 40
0.25
 40
0.25
 40
0.25
 40
0.375
 40
0.375
 40
0.375
 40
0.375
 40
0.5
 40
0.5
 40
0.5
 40
0.5
 40
0.625
 40
0.625
 40
0.625
 40
0.625
 40
0.75
 40
0.75
 40
0.75
 40
0.75
 40
0.875
 40
0.875
 40
0.875
 40
0.875
 40
1.0
 40
1.0
 40
1.0
 40
1.0
 10
-0.6123582677165355
 20
-0.835232283464567
 30
0.0
 10
-0.6123582677165355
 20
-0.835232283464567
 30
0.0
 10
0.0459133858267717
 20
-0.4592204724409449
 30
0.0
 10
0.0459133858267717
 20
-0.4592204724409449
 30
0.0
 10
0.0459133858267717
 20
-0.4592204724409449
 30
0.0
 10
0.0459133858267717
 20
-0.4592204724409449
 30
0.0
 10
0.0456496062992126
 20
-0.4435669291338583
 30
0.0
 10
0.0456496062992126
 20
-0.4435669291338583
 30
0.0
 10
0.0456496062992126
 20
-0.4435669291338583
 30
0.0
 10
0.0456496062992126
 20
-0.4435669291338583
 30
0.0
 10
0.0455748031496063
 20
-0.4271771653543307
 30
0.0
 10
0.0455748031496063
 20
-0.4271771653543307
 30
0.0
 10
0.0455748031496063
 20
-0.4271771653543307
 30
0.0
 10
0.0455748031496063
 20
-0.4271771653543307
 30
0.0
 10
0.0456535433070866
 20
-0.4100078740157481
 30
0.0
 10
0.0456535433070866
 20
-0.4100078740157481
 30
0.0
 10
0.0456535433070866
 20
-0.4100078740157481
 30
0.0
 10
0.0456535433070866
 20
-0.4100078740157481
 30
0.0
 10
-0.6126181102362205
 20
-0.7860196850393701
 30
0.0
 10
-0.6126181102362205
 20
-0.7860196850393701
 30
0.0
 10
-0.6126181102362205
 20
-0.7860196850393701
 30
0.0
 10
-0.6126181102362205
 20
-0.7860196850393701
 30
0.0
 10
-0.6126968503937008
 20
-0.8031889763779528
 30
0.0
 10
-0.6126968503937008
 20
-0.8031889763779528
 30
0.0
 10
-0.6126968503937008
 20
-0.8031889763779528
 30
0.0
 10
-0.6126968503937008
 20
-0.8031889763779528
 30
0.0
 10
-0.6126220472440945
 20
-0.8195787401574803
 30
0.0
 10
-0.6126220472440945
 20
-0.8195787401574803
 30
0.0
 10
-0.6126220472440945
 20
-0.8195787401574803
 30
0.0
 10
-0.6126220472440945
 20
-0.8195787401574803
 30
0.0
 10
-0.6123582677165355
 20
-0.835232283464567
 30
0.0
 10
-0.6123582677165355
 20
-0.835232283464567
 30
0.0
  0
SPLINE
  5
3F
100
AcDbEntity
  8
P1-Layer 1
370
     5
100
AcDbSpline
210
0.0
220
0.0
230
1.0
 70
     1
 71
     3
 72
   476
 73
   472
 74
     0
 42
0.0000000001
 43
0.0000000001
 40
0.0
 40
0.0
 40
0.0
 40
0.0
 40
0.0084745762711864
 40
0.0084745762711864
 40
0.0084745762711864
 40
0.0084745762711864
 40
0.0169491525423729
 40
0.0169491525423729
 40
0.0169491525423729
 40
0.0169491525423729
 40
0.0254237288135593
 40
0.0254237288135593
 40
0.0254237288135593
 40
0.0254237288135593
 40
0.0338983050847458
 40
0.0338983050847458
 40
0.0338983050847458
 40
0.0338983050847458
 40
0.0423728813559322
 40
0.0423728813559322
 40
0.0423728813559322
 40
0.0423728813559322
 40
0.0508474576271186
 40
0.0508474576271186
 40
0.0508474576271186
 40
0.0508474576271186
 40
0.0593220338983051
 40
0.0593220338983051
 40
0.0593220338983051
 40
0.0593220338983051
 40
0.0677966101694915
 40
0.0677966101694915
 40
0.0677966101694915
 40
0.0677966101694915
 40
0.076271186440678
 40
0.076271186440678
 40
0.076271186440678
 40
0.076271186440678
 40
0.0847457627118644
 40
0.0847457627118644
 40
0.0847457627118644
 40
0.0847457627118644
 40
0.0932203389830509
 40
0.0932203389830509
 40
0.0932203389830509
 40
0.0932203389830509
 40
0.1016949152542373
 40
0.1016949152542373
 40
0.1016949152542373
 40
0.1016949152542373
 40
0.1101694915254238
 40
0.1101694915254238
 40
0.1101694915254238
 40
0.1101694915254238
 40
0.1186440677966102
 40
0.1186440677966102
 40
0.1186440677966102
 40
0.1186440677966102
 40
0.1271186440677966
 40
0.1271186440677966
 40
0.1271186440677966
 40
0.1271186440677966
 40
0.1355932203389831
 40
0.1355932203389831
 40
0.1355932203389831
 40
0.1355932203389831
 40
0.1440677966101695
 40
0.1440677966101695
 40
0.1440677966101695
 40
0.1440677966101695
 40
0.152542372881356
 40
0.152542372881356
 40
0.152542372881356
 40
0.152542372881356
 40
0.1610169491525424
 40
0.1610169491525424
 40
0.1610169491525424
 40
0.1610169491525424
 40
0.1694915254237289
 40
0.1694915254237289
 40
0.1694915254237289
 40
0.1694915254237289
 40
0.1779661016949153
 40
0.1779661016949153
 40
0.1779661016949153
 40
0.1779661016949153
 40
0.1864406779661018
 40
0.1864406779661018
 40
0.1864406779661018
 40
0.1864406779661018
 40
0.1949152542372882
 40
0.1949152542372882
 40
0.1949152542372882
 40
0.1949152542372882
 40
0.2033898305084746
 40
0.2033898305084746
 40
0.2033898305084746
 40
0.2033898305084746
 40
0.2118644067796611
 40
0.2118644067796611
 40
0.2118644067796611
 40
0.2118644067796611
 40
0.2203389830508475
 40
0.2203389830508475
 40
0.2203389830508475
 40
0.2203389830508475
 40
0.228813559322034
 40
0.228813559322034
 40
0.228813559322034
 40
0.228813559322034
 40
0.2372881355932204
 40
0.2372881355932204
 40
0.2372881355932204
 40
0.2372881355932204
 40
0.2457627118644069
 40
0.2457627118644069
 40
0.2457627118644069
 40
0.2457627118644069
 40
0.2542372881355933
 40
0.2542372881355933
 40
0.2542372881355933
 40
0.2542372881355933
 40
0.2627118644067797
 40
0.2627118644067797
 40
0.2627118644067797
 40
0.2627118644067797
 40
0.2711864406779662
 40
0.2711864406779662
 40
0.2711864406779662
 40
0.2711864406779662
 40
0.2796610169491526
 40
0.2796610169491526
 40
0.2796610169491526
 40
0.2796610169491526
 40
0.288135593220339
 40
0.288135593220339
 40
0.288135593220339
 40
0.288135593220339
 40
0.2966101694915254
 40
0.2966101694915254
 40
0.2966101694915254
 40
0.2966101694915254
 40
0.3050847457627118
 40
0.3050847457627118
 40
0.3050847457627118
 40
0.3050847457627118
 40
0.3135593220338983
 40
0.3135593220338983
 40
0.3135593220338983
 40
0.3135593220338983
 40
0.3220338983050847
 40
0.3220338983050847
 40
0.3220338983050847
 40
0.3220338983050847
 40
0.3305084745762711
 40
0.3305084745762711
 40
0.3305084745762711
 40
0.3305084745762711
 40
0.3389830508474575
 40
0.3389830508474575
 40
0.3389830508474575
 40
0.3389830508474575
 40
0.3474576271186439
 40
0.3474576271186439
 40
0.3474576271186439
 40
0.3474576271186439
 40
0.3559322033898303
 40
0.3559322033898303
 40
0.3559322033898303
 40
0.3559322033898303
 40
0.3644067796610168
 40
0.3644067796610168
 40
0.3644067796610168
 40
0.3644067796610168
 40
0.3728813559322032
 40
0.3728813559322032
 40
0.3728813559322032
 40
0.3728813559322032
 40
0.3813559322033896
 40
0.3813559322033896
 40
0.3813559322033896
 40
0.3813559322033896
 40
0.389830508474576
 40
0.389830508474576
 40
0.389830508474576
 40
0.389830508474576
 40
0.3983050847457624
 40
0.3983050847457624
 40
0.3983050847457624
 40
0.3983050847457624
 40
0.4067796610169489
 40
0.4067796610169489
 40
0.4067796610169489
 40
0.4067796610169489
 40
0.4152542372881353
 40
0.4152542372881353
 40
0.4152542372881353
 40
0.4152542372881353
 40
0.4237288135593217
 40
0.4237288135593217
 40
0.4237288135593217
 40
0.4237288135593217
 40
0.4322033898305081
 40
0.4322033898305081
 40
0.4322033898305081
 40
0.4322033898305081
 40
0.4406779661016945
 40
0.4406779661016945
 40
0.4406779661016945
 40
0.4406779661016945
 40
0.4491525423728809
 40
0.4491525423728809
 40
0.4491525423728809
 40
0.4491525423728809
 40
0.4576271186440674
 40
0.4576271186440674
 40
0.4576271186440674
 40
0.4576271186440674
 40
0.4661016949152538
 40
0.4661016949152538
 40
0.4661016949152538
 40
0.4661016949152538
 40
0.4745762711864402
 40
0.4745762711864402
 40
0.4745762711864402
 40
0.4745762711864402
 40
0.4830508474576266
 40
0.4830508474576266
 40
0.4830508474576266
 40
0.4830508474576266
 40
0.491525423728813
 40
0.491525423728813
 40
0.491525423728813
 40
0.491525423728813
 40
0.4999999999999994
 40
0.4999999999999994
 40
0.4999999999999994
 40
0.4999999999999994
 40
0.5084745762711859
 40
0.5084745762711859
 40
0.5084745762711859
 40
0.5084745762711859
 40
0.5169491525423723
 40
0.5169491525423723
 40
0.5169491525423723
 40
0.5169491525423723
 40
0.5254237288135587
 40
0.5254237288135587
 40
0.5254237288135587
 40
0.5254237288135587
 40
0.5338983050847451
 40
0.5338983050847451
 40
0.5338983050847451
 40
0.5338983050847451
 40
0.5423728813559315
 40
0.5423728813559315
 40
0.5423728813559315
 40
0.5423728813559315
 40
0.550847457627118
 40
0.550847457627118
 40
0.550847457627118
 40
0.550847457627118
 40
0.5593220338983044
 40
0.5593220338983044
 40
0.5593220338983044
 40
0.5593220338983044
 40
0.5677966101694908
 40
0.5677966101694908
 40
0.5677966101694908
 40
0.5677966101694908
 40
0.5762711864406772
 40
0.5762711864406772
 40
0.5762711864406772
 40
0.5762711864406772
 40
0.5847457627118636
 40
0.5847457627118636
 40
0.5847457627118636
 40
0.5847457627118636
 40
0.59322033898305
 40
0.59322033898305
 40
0.59322033898305
 40
0.59322033898305
 40
0.6016949152542365
 40
0.6016949152542365
 40
0.6016949152542365
 40
0.6016949152542365
 40
0.6101694915254229
 40
0.6101694915254229
 40
0.6101694915254229
 40
0.6101694915254229
 40
0.6186440677966093
 40
0.6186440677966093
 40
0.6186440677966093
 40
0.6186440677966093
 40
0.6271186440677957
 40
0.6271186440677957
 40
0.6271186440677957
 40
0.6271186440677957
 40
0.6355932203389821
 40
0.6355932203389821
 40
0.6355932203389821
 40
0.6355932203389821
 40
0.6440677966101686
 40
0.6440677966101686
 40
0.6440677966101686
 40
0.6440677966101686
 40
0.652542372881355
 40
0.652542372881355
 40
0.652542372881355
 40
0.652542372881355
 40
0.6610169491525414
 40
0.6610169491525414
 40
0.6610169491525414
 40
0.6610169491525414
 40
0.6694915254237278
 40
0.6694915254237278
 40
0.6694915254237278
 40
0.6694915254237278
 40
0.6779661016949142
 40
0.6779661016949142
 40
0.6779661016949142
 40
0.6779661016949142
 40
0.6864406779661006
 40
0.6864406779661006
 40
0.6864406779661006
 40
0.6864406779661006
 40
0.6949152542372871
 40
0.6949152542372871
 40
0.6949152542372871
 40
0.6949152542372871
 40
0.7033898305084735
 40
0.7033898305084735
 40
0.7033898305084735
 40
0.7033898305084735
 40
0.7118644067796599
 40
0.7118644067796599
 40
0.7118644067796599
 40
0.7118644067796599
 40
0.7203389830508463
 40
0.7203389830508463
 40
0.7203389830508463
 40
0.7203389830508463
 40
0.7288135593220327
 40
0.7288135593220327
 40
0.7288135593220327
 40
0.7288135593220327
 40
0.7372881355932192
 40
0.7372881355932192
 40
0.7372881355932192
 40
0.7372881355932192
 40
0.7457627118644056
 40
0.7457627118644056
 40
0.7457627118644056
 40
0.7457627118644056
 40
0.754237288135592
 40
0.754237288135592
 40
0.754237288135592
 40
0.754237288135592
 40
0.7627118644067784
 40
0.7627118644067784
 40
0.7627118644067784
 40
0.7627118644067784
 40
0.7711864406779648
 40
0.7711864406779648
 40
0.7711864406779648
 40
0.7711864406779648
 40
0.7796610169491512
 40
0.7796610169491512
 40
0.7796610169491512
 40
0.7796610169491512
 40
0.7881355932203377
 40
0.7881355932203377
 40
0.7881355932203377
 40
0.7881355932203377
 40
0.7966101694915241
 40
0.7966101694915241
 40
0.7966101694915241
 40
0.7966101694915241
 40
0.8050847457627105
 40
0.8050847457627105
 40
0.8050847457627105
 40
0.8050847457627105
 40
0.8135593220338969
 40
0.8135593220338969
 40
0.8135593220338969
 40
0.8135593220338969
 40
0.8220338983050833
 40
0.8220338983050833
 40
0.8220338983050833
 40
0.8220338983050833
 40
0.8305084745762698
 40
0.8305084745762698
 40
0.8305084745762698
 40
0.8305084745762698
 40
0.8389830508474562
 40
0.8389830508474562
 40
0.8389830508474562
 40
0.8389830508474562
 40
0.8474576271186426
 40
0.8474576271186426
 40
0.8474576271186426
 40
0.8474576271186426
 40
0.855932203389829
 40
0.855932203389829
 40
0.855932203389829
 40
0.855932203389829
 40
0.8644067796610154
 40
0.8644067796610154
 40
0.8644067796610154
 40
0.8644067796610154
 40
0.8728813559322018
 40
0.8728813559322018
 40
0.8728813559322018
 40
0.8728813559322018
 40
0.8813559322033883
 40
0.8813559322033883
 40
0.8813559322033883
 40
0.8813559322033883
 40
0.8898305084745747
 40
0.8898305084745747
 40
0.8898305084745747
 40
0.8898305084745747
 40
0.8983050847457611
 40
0.8983050847457611
 40
0.8983050847457611
 40
0.8983050847457611
 40
0.9067796610169475
 40
0.9067796610169475
 40
0.9067796610169475
 40
0.9067796610169475
 40
0.9152542372881339
 40
0.9152542372881339
 40
0.9152542372881339
 40
0.9152542372881339
 40
0.9237288135593204
 40
0.9237288135593204
 40
0.9237288135593204
 40
0.9237288135593204
 40
0.9322033898305068
 40
0.9322033898305068
 40
0.9322033898305068
 40
0.9322033898305068
 40
0.9406779661016932
 40
0.9406779661016932
 40
0.9406779661016932
 40
0.9406779661016932
 40
0.9491525423728796
 40
0.9491525423728796
 40
0.9491525423728796
 40
0.9491525423728796
 40
0.957627118644066
 40
0.957627118644066
 40
0.957627118644066
 40
0.957627118644066
 40
0.9661016949152524
 40
0.9661016949152524
 40
0.9661016949152524
 40
0.9661016949152524
 40
0.9745762711864389
 40
0.9745762711864389
 40
0.9745762711864389
 40
0.9745762711864389
 40
0.9830508474576253
 40
0.9830508474576253
 40
0.9830508474576253
 40
0.9830508474576253
 40
0.9915254237288117
 40
0.9915254237288117
 40
0.9915254237288117
 40
0.9915254237288117
 40
1.0
 40
1.0
 40
1.0
 40
1.0
 10
-0.3924212598425197
 20
-1.5579685039370079
 30
0.0
 10
-0.3924212598425197
 20
-1.5579685039370079
 30
0.0
 10
0.2658503937007874
 20
-1.1819566929133858
 30
0.0
 10
0.2658503937007874
 20
-1.1819566929133858
 30
0.0
 10
0.2658503937007874
 20
-1.1819566929133858
 30
0.0
 10
0.2658503937007874
 20
-1.1819566929133858
 30
0.0
 10
0.2787755905511811
 20
-1.173484251968504
 30
0.0
 10
0.2787755905511811
 20
-1.173484251968504
 30
0.0
 10
0.2787755905511811
 20
-1.173484251968504
 30
0.0
 10
0.2787755905511811
 20
-1.173484251968504
 30
0.0
 10
0.2906141732283465
 20
-1.1641299212598426
 30
0.0
 10
0.2906141732283465
 20
-1.1641299212598426
 30
0.0
 10
0.2906141732283465
 20
-1.1641299212598426
 30
0.0
 10
0.2906141732283465
 20
-1.1641299212598426
 30
0.0
 10
0.3013818897637796
 20
-1.1539251968503939
 30
0.0
 10
0.3013818897637796
 20
-1.1539251968503939
 30
0.0
 10
0.3013818897637796
 20
-1.1539251968503939
 30
0.0
 10
0.3013818897637796
 20
-1.1539251968503939
 30
0.0
 10
0.3110551181102362
 20
-1.1429370078740158
 30
0.0
 10
0.3110551181102362
 20
-1.1429370078740158
 30
0.0
 10
0.3110551181102362
 20
-1.1429370078740158
 30
0.0
 10
0.3110551181102362
 20
-1.1429370078740158
 30
0.0
 10
0.3196338582677166
 20
-1.1312125984251968
 30
0.0
 10
0.3196338582677166
 20
-1.1312125984251968
 30
0.0
 10
0.3196338582677166
 20
-1.1312125984251968
 30
0.0
 10
0.3196338582677166
 20
-1.1312125984251968
 30
0.0
 10
0.3271102362204725
 20
-1.1188070866141733
 30
0.0
 10
0.3271102362204725
 20
-1.1188070866141733
 30
0.0
 10
0.3271102362204725
 20
-1.1188070866141733
 30
0.0
 10
0.3271102362204725
 20
-1.1188070866141733
 30
0.0
 10
0.3334881889763779
 20
-1.1057598425196851
 30
0.0
 10
0.3334881889763779
 20
-1.1057598425196851
 30
0.0
 10
0.3334881889763779
 20
-1.1057598425196851
 30
0.0
 10
0.3334881889763779
 20
-1.1057598425196851
 30
0.0
 10
0.3387559055118111
 20
-1.0921338582677165
 30
0.0
 10
0.3387559055118111
 20
-1.0921338582677165
 30
0.0
 10
0.3387559055118111
 20
-1.0921338582677165
 30
0.0
 10
0.3387559055118111
 20
-1.0921338582677165
 30
0.0
 10
0.3429094488188977
 20
-1.0779724409448819
 30
0.0
 10
0.3429094488188977
 20
-1.0779724409448819
 30
0.0
 10
0.3429094488188977
 20
-1.0779724409448819
 30
0.0
 10
0.3429094488188977
 20
-1.0779724409448819
 30
0.0
 10
0.3459370078740158
 20
-1.0633385826771653
 30
0.0
 10
0.3459370078740158
 20
-1.0633385826771653
 30
0.0
 10
0.3459370078740158
 20
-1.0633385826771653
 30
0.0
 10
0.3459370078740158
 20
-1.0633385826771653
 30
0.0
 10
0.3478543307086615
 20
-1.0482637795275591
 30
0.0
 10
0.3478543307086615
 20
-1.0482637795275591
 30
0.0
 10
0.3478543307086615
 20
-1.0482637795275591
 30
0.0
 10
0.3478543307086615
 20
-1.0482637795275591
 30
0.0
 10
0.3486338582677165
 20
-1.0328149606299213
 30
0.0
 10
0.3486338582677165
 20
-1.0328149606299213
 30
0.0
 10
0.3486338582677165
 20
-1.0328149606299213
 30
0.0
 10
0.3486338582677165
 20
-1.0328149606299213
 30
0.0
 10
0.3482874015748032
 20
-1.0170393700787401
 30
0.0
 10
0.3482874015748032
 20
-1.0170393700787401
 30
0.0
 10
0.3482874015748032
 20
-1.0170393700787401
 30
0.0
 10
0.3482874015748032
 20
-1.0170393700787401
 30
0.0
 10
0.3467952755905512
 20
-1.000992125984252
 30
0.0
 10
0.3467952755905512
 20
-1.000992125984252
 30
0.0
 10
0.3467952755905512
 20
-1.000992125984252
 30
0.0
 10
0.3467952755905512
 20
-1.000992125984252
 30
0.0
 10
0.3441653543307087
 20
-0.9847125984251969
 30
0.0
 10
0.3441653543307087
 20
-0.9847125984251969
 30
0.0
 10
0.3441653543307087
 20
-0.9847125984251969
 30
0.0
 10
0.3441653543307087
 20
-0.9847125984251969
 30
0.0
 10
0.3403818897637795
 20
-0.9682677165354331
 30
0.0
 10
0.3403818897637795
 20
-0.9682677165354331
 30
0.0
 10
0.3403818897637795
 20
-0.9682677165354331
 30
0.0
 10
0.3403818897637795
 20
-0.9682677165354331
 30
0.0
 10
0.3354448818897638
 20
-0.9516929133858268
 30
0.0
 10
0.3354448818897638
 20
-0.9516929133858268
 30
0.0
 10
0.3354448818897638
 20
-0.9516929133858268
 30
0.0
 10
0.3354448818897638
 20
-0.9516929133858268
 30
0.0
 10
0.3293464566929134
 20
-0.9350590551181103
 30
0.0
 10
0.3293464566929134
 20
-0.9350590551181103
 30
0.0
 10
0.3293464566929134
 20
-0.9350590551181103
 30
0.0
 10
0.3293464566929134
 20
-0.9350590551181103
 30
0.0
 10
0.3220944881889764
 20
-0.9183897637795276
 30
0.0
 10
0.3220944881889764
 20
-0.9183897637795276
 30
0.0
 10
0.3220944881889764
 20
-0.9183897637795276
 30
0.0
 10
0.3220944881889764
 20
-0.9183897637795276
 30
0.0
 10
0.3136653543307087
 20
-0.9017598425196851
 30
0.0
 10
0.3136653543307087
 20
-0.9017598425196851
 30
0.0
 10
0.3136653543307087
 20
-0.9017598425196851
 30
0.0
 10
0.3136653543307087
 20
-0.9017598425196851
 30
0.0
 10
0.3040708661417323
 20
-0.8852086614173229
 30
0.0
 10
0.3040708661417323
 20
-0.8852086614173229
 30
0.0
 10
0.3040708661417323
 20
-0.8852086614173229
 30
0.0
 10
0.3040708661417323
 20
-0.8852086614173229
 30
0.0
 10
0.2932874015748032
 20
-0.8687992125984252
 30
0.0
 10
0.2932874015748032
 20
-0.8687992125984252
 30
0.0
 10
0.2932874015748032
 20
-0.8687992125984252
 30
0.0
 10
0.2932874015748032
 20
-0.8687992125984252
 30
0.0
 10
0.2813267716535433
 20
-0.8525669291338583
 30
0.0
 10
0.2813267716535433
 20
-0.8525669291338583
 30
0.0
 10
0.2813267716535433
 20
-0.8525669291338583
 30
0.0
 10
0.2813267716535433
 20
-0.8525669291338583
 30
0.0
 10
0.2681771653543307
 20
-0.8365708661417323
 30
0.0
 10
0.2681771653543307
 20
-0.8365708661417323
 30
0.0
 10
0.2681771653543307
 20
-0.8365708661417323
 30
0.0
 10
0.2681771653543307
 20
-0.8365708661417323
 30
0.0
 10
0.2538346456692914
 20
-0.8208661417322835
 30
0.0
 10
0.2538346456692914
 20
-0.8208661417322835
 30
0.0
 10
0.2538346456692914
 20
-0.8208661417322835
 30
0.0
 10
0.2538346456692914
 20
-0.8208661417322835
 30
0.0
 10
0.2382874015748032
 20
-0.805503937007874
 30
0.0
 10
0.2382874015748032
 20
-0.805503937007874
 30
0.0
 10
0.2382874015748032
 20
-0.805503937007874
 30
0.0
 10
0.2382874015748032
 20
-0.805503937007874
 30
0.0
 10
0.2225866141732284
 20
-0.7906496062992127
 30
0.0
 10
0.2225866141732284
 20
-0.7906496062992127
 30
0.0
 10
0.2225866141732284
 20
-0.7906496062992127
 30
0.0
 10
0.2225866141732284
 20
-0.7906496062992127
 30
0.0
 10
0.207736220472441
 20
-0.7764330708661418
 30
0.0
 10
0.207736220472441
 20
-0.7764330708661418
 30
0.0
 10
0.207736220472441
 20
-0.7764330708661418
 30
0.0
 10
0.207736220472441
 20
-0.7764330708661418
 30
0.0
 10
0.1937244094488189
 20
-0.7627952755905512
 30
0.0
 10
0.1937244094488189
 20
-0.7627952755905512
 30
0.0
 10
0.1937244094488189
 20
-0.7627952755905512
 30
0.0
 10
0.1937244094488189
 20
-0.7627952755905512
 30
0.0
 10
0.180511811023622
 20
-0.7497007874015749
 30
0.0
 10
0.180511811023622
 20
-0.7497007874015749
 30
0.0
 10
0.180511811023622
 20
-0.7497007874015749
 30
0.0
 10
0.180511811023622
 20
-0.7497007874015749
 30
0.0
 10
0.1680944881889764
 20
-0.7370905511811023
 30
0.0
 10
0.1680944881889764
 20
-0.7370905511811023
 30
0.0
 10
0.1680944881889764
 20
-0.7370905511811023
 30
0.0
 10
0.1680944881889764
 20
-0.7370905511811023
 30
0.0
 10
0.1564370078740158
 20
-0.7249291338582677
 30
0.0
 10
0.1564370078740158
 20
-0.7249291338582677
 30
0.0
 10
0.1564370078740158
 20
-0.7249291338582677
 30
0.0
 10
0.1564370078740158
 20
-0.7249291338582677
 30
0.0
 10
0.1455196850393701
 20
-0.7131614173228347
 30
0.0
 10
0.1455196850393701
 20
-0.7131614173228347
 30
0.0
 10
0.1455196850393701
 20
-0.7131614173228347
 30
0.0
 10
0.1455196850393701
 20
-0.7131614173228347
 30
0.0
 10
0.1353149606299213
 20
-0.7017519685039371
 30
0.0
 10
0.1353149606299213
 20
-0.7017519685039371
 30
0.0
 10
0.1353149606299213
 20
-0.7017519685039371
 30
0.0
 10
0.1353149606299213
 20
-0.7017519685039371
 30
0.0
 10
0.1258149606299213
 20
-0.6906299212598426
 30
0.0
 10
0.1258149606299213
 20
-0.6906299212598426
 30
0.0
 10
0.1258149606299213
 20
-0.6906299212598426
 30
0.0
 10
0.1258149606299213
 20
-0.6906299212598426
 30
0.0
 10
0.1169803149606299
 20
-0.6797755905511811
 30
0.0
 10
0.1169803149606299
 20
-0.6797755905511811
 30
0.0
 10
0.1169803149606299
 20
-0.6797755905511811
 30
0.0
 10
0.1169803149606299
 20
-0.6797755905511811
 30
0.0
 10
0.1087952755905512
 20
-0.6691181102362205
 30
0.0
 10
0.1087952755905512
 20
-0.6691181102362205
 30
0.0
 10
0.1087952755905512
 20
-0.6691181102362205
 30
0.0
 10
0.1087952755905512
 20
-0.6691181102362205
 30
0.0
 10
0.1012283464566929
 20
-0.6586338582677166
 30
0.0
 10
0.1012283464566929
 20
-0.6586338582677166
 30
0.0
 10
0.1012283464566929
 20
-0.6586338582677166
 30
0.0
 10
0.1012283464566929
 20
-0.6586338582677166
 30
0.0
 10
0.0942716535433071
 20
-0.648255905511811
 30
0.0
 10
0.0942716535433071
 20
-0.648255905511811
 30
0.0
 10
0.0942716535433071
 20
-0.648255905511811
 30
0.0
 10
0.0942716535433071
 20
-0.648255905511811
 30
0.0
 10
0.0878897637795276
 20
-0.6379488188976378
 30
0.0
 10
0.0878897637795276
 20
-0.6379488188976378
 30
0.0
 10
0.0878897637795276
 20
-0.6379488188976378
 30
0.0
 10
0.0878897637795276
 20
-0.6379488188976378
 30
0.0
 10
0.0820669291338583
 20
-0.6276535433070867
 30
0.0
 10
0.0820669291338583
 20
-0.6276535433070867
 30
0.0
 10
0.0820669291338583
 20
-0.6276535433070867
 30
0.0
 10
0.0820669291338583
 20
-0.6276535433070867
 30
0.0
 10
0.0767677165354331
 20
-0.6173425196850394
 30
0.0
 10
0.0767677165354331
 20
-0.6173425196850394
 30
0.0
 10
0.0767677165354331
 20
-0.6173425196850394
 30
0.0
 10
0.0767677165354331
 20
-0.6173425196850394
 30
0.0
 10
0.071988188976378
 20
-0.6069409448818898
 30
0.0
 10
0.071988188976378
 20
-0.6069409448818898
 30
0.0
 10
0.071988188976378
 20
-0.6069409448818898
 30
0.0
 10
0.071988188976378
 20
-0.6069409448818898
 30
0.0
 10
0.0676929133858268
 20
-0.5964291338582678
 30
0.0
 10
0.0676929133858268
 20
-0.5964291338582678
 30
0.0
 10
0.0676929133858268
 20
-0.5964291338582678
 30
0.0
 10
0.0676929133858268
 20
-0.5964291338582678
 30
0.0
 10
0.0638622047244095
 20
-0.585744094488189
 30
0.0
 10
0.0638622047244095
 20
-0.585744094488189
 30
0.0
 10
0.0638622047244095
 20
-0.585744094488189
 30
0.0
 10
0.0638622047244095
 20
-0.585744094488189
 30
0.0
 10
0.0604645669291339
 20
-0.5748464566929135
 30
0.0
 10
0.0604645669291339
 20
-0.5748464566929135
 30
0.0
 10
0.0604645669291339
 20
-0.5748464566929135
 30
0.0
 10
0.0604645669291339
 20
-0.5748464566929135
 30
0.0
 10
0.057488188976378
 20
-0.5636771653543308
 30
0.0
 10
0.057488188976378
 20
-0.5636771653543308
 30
0.0
 10
0.057488188976378
 20
-0.5636771653543308
 30
0.0
 10
0.057488188976378
 20
-0.5636771653543308
 30
0.0
 10
0.0549055118110236
 20
-0.5522047244094488
 30
0.0
 10
0.0549055118110236
 20
-0.5522047244094488
 30
0.0
 10
0.0549055118110236
 20
-0.5522047244094488
 30
0.0
 10
0.0549055118110236
 20
-0.5522047244094488
 30
0.0
 10
0.0526968503937008
 20
-0.5403700787401575
 30
0.0
 10
0.0526968503937008
 20
-0.5403700787401575
 30
0.0
 10
0.0526968503937008
 20
-0.5403700787401575
 30
0.0
 10
0.0526968503937008
 20
-0.5403700787401575
 30
0.0
 10
0.0508267716535433
 20
-0.5281377952755906
 30
0.0
 10
0.0508267716535433
 20
-0.5281377952755906
 30
0.0
 10
0.0508267716535433
 20
-0.5281377952755906
 30
0.0
 10
0.0508267716535433
 20
-0.5281377952755906
 30
0.0
 10
0.0492913385826772
 20
-0.5154409448818897
 30
0.0
 10
0.0492913385826772
 20
-0.5154409448818897
 30
0.0
 10
0.0492913385826772
 20
-0.5154409448818897
 30
0.0
 10
0.0492913385826772
 20
-0.5154409448818897
 30
0.0
 10
0.0480551181102362
 20
-0.5022519685039371
 30
0.0
 10
0.0480551181102362
 20
-0.5022519685039371
 30
0.0
 10
0.0480551181102362
 20
-0.5022519685039371
 30
0.0
 10
0.0480551181102362
 20
-0.5022519685039371
 30
0.0
 10
0.0470944881889764
 20
-0.4885157480314961
 30
0.0
 10
0.0470944881889764
 20
-0.4885157480314961
 30
0.0
 10
0.0470944881889764
 20
-0.4885157480314961
 30
0.0
 10
0.0470944881889764
 20
-0.4885157480314961
 30
0.0
 10
0.0463858267716535
 20
-0.4741929133858268
 30
0.0
 10
0.0463858267716535
 20
-0.4741929133858268
 30
0.0
 10
0.0463858267716535
 20
-0.4741929133858268
 30
0.0
 10
0.0463858267716535
 20
-0.4741929133858268
 30
0.0
 10
0.0459133858267717
 20
-0.4592204724409449
 30
0.0
 10
0.0459133858267717
 20
-0.4592204724409449
 30
0.0
 10
0.0459133858267717
 20
-0.4592204724409449
 30
0.0
 10
0.0459133858267717
 20
-0.4592204724409449
 30
0.0
 10
0.0456496062992126
 20
-0.4435669291338583
 30
0.0
 10
0.0456496062992126
 20
-0.4435669291338583
 30
0.0
 10
0.0456496062992126
 20
-0.4435669291338583
 30
0.0
 10
0.0456496062992126
 20
-0.4435669291338583
 30
0.0
 10
0.0455748031496063
 20
-0.4271771653543307
 30
0.0
 10
0.0455748031496063
 20
-0.4271771653543307
 30
0.0
 10
0.0455748031496063
 20
-0.4271771653543307
 30
0.0
 10
0.0455748031496063
 20
-0.4271771653543307
 30
0.0
 10
0.0456535433070866
 20
-0.4100078740157481
 30
0.0
 10
0.0456535433070866
 20
-0.4100078740157481
 30
0.0
 10
0.0456535433070866
 20
-0.4100078740157481
 30
0.0
 10
0.0456535433070866
 20
-0.4100078740157481
 30
0.0
 10
-0.6126181102362205
 20
-0.7860196850393701
 30
0.0
 10
-0.6126181102362205
 20
-0.7860196850393701
 30
0.0
 10
-0.6126181102362205
 20
-0.7860196850393701
 30
0.0
 10
-0.6126181102362205
 20
-0.7860196850393701
 30
0.0
 10
-0.6126968503937008
 20
-0.8031889763779528
 30
0.0
 10
-0.6126968503937008
 20
-0.8031889763779528
 30
0.0
 10
-0.6126968503937008
 20
-0.8031889763779528
 30
0.0
 10
-0.6126968503937008
 20
-0.8031889763779528
 30
0.0
 10
-0.6126220472440945
 20
-0.8195787401574803
 30
0.0
 10
-0.6126220472440945
 20
-0.8195787401574803
 30
0.0
 10
-0.6126220472440945
 20
-0.8195787401574803
 30
0.0
 10
-0.6126220472440945
 20
-0.8195787401574803
 30
0.0
 10
-0.6123582677165355
 20
-0.835232283464567
 30
0.0
 10
-0.6123582677165355
 20
-0.835232283464567
 30
0.0
 10
-0.6123582677165355
 20
-0.835232283464567
 30
0.0
 10
-0.6123582677165355
 20
-0.835232283464567
 30
0.0
 10
-0.6118858267716536
 20
-0.8502047244094488
 30
0.0
 10
-0.6118858267716536
 20
-0.8502047244094488
 30
0.0
 10
-0.6118858267716536
 20
-0.8502047244094488
 30
0.0
 10
-0.6118858267716536
 20
-0.8502047244094488
 30
0.0
 10
-0.6111771653543308
 20
-0.8645275590551181
 30
0.0
 10
-0.6111771653543308
 20
-0.8645275590551181
 30
0.0
 10
-0.6111771653543308
 20
-0.8645275590551181
 30
0.0
 10
-0.6111771653543308
 20
-0.8645275590551181
 30
0.0
 10
-0.6102165354330709
 20
-0.8782637795275591
 30
0.0
 10
-0.6102165354330709
 20
-0.8782637795275591
 30
0.0
 10
-0.6102165354330709
 20
-0.8782637795275591
 30
0.0
 10
-0.6102165354330709
 20
-0.8782637795275591
 30
0.0
 10
-0.60898031496063
 20
-0.8914527559055119
 30
0.0
 10
-0.60898031496063
 20
-0.8914527559055119
 30
0.0
 10
-0.60898031496063
 20
-0.8914527559055119
 30
0.0
 10
-0.60898031496063
 20
-0.8914527559055119
 30
0.0
 10
-0.6074448818897638
 20
-0.9041496062992126
 30
0.0
 10
-0.6074448818897638
 20
-0.9041496062992126
 30
0.0
 10
-0.6074448818897638
 20
-0.9041496062992126
 30
0.0
 10
-0.6074448818897638
 20
-0.9041496062992126
 30
0.0
 10
-0.6055748031496063
 20
-0.9163818897637795
 30
0.0
 10
-0.6055748031496063
 20
-0.9163818897637795
 30
0.0
 10
-0.6055748031496063
 20
-0.9163818897637795
 30
0.0
 10
-0.6055748031496063
 20
-0.9163818897637795
 30
0.0
 10
-0.6033661417322835
 20
-0.9282165354330709
 30
0.0
 10
-0.6033661417322835
 20
-0.9282165354330709
 30
0.0
 10
-0.6033661417322835
 20
-0.9282165354330709
 30
0.0
 10
-0.6033661417322835
 20
-0.9282165354330709
 30
0.0
 10
-0.6007834645669291
 20
-0.9396889763779528
 30
0.0
 10
-0.6007834645669291
 20
-0.9396889763779528
 30
0.0
 10
-0.6007834645669291
 20
-0.9396889763779528
 30
0.0
 10
-0.6007834645669291
 20
-0.9396889763779528
 30
0.0
 10
-0.5978070866141733
 20
-0.9508582677165355
 30
0.0
 10
-0.5978070866141733
 20
-0.9508582677165355
 30
0.0
 10
-0.5978070866141733
 20
-0.9508582677165355
 30
0.0
 10
-0.5978070866141733
 20
-0.9508582677165355
 30
0.0
 10
-0.5944094488188977
 20
-0.961755905511811
 30
0.0
 10
-0.5944094488188977
 20
-0.961755905511811
 30
0.0
 10
-0.5944094488188977
 20
-0.961755905511811
 30
0.0
 10
-0.5944094488188977
 20
-0.961755905511811
 30
0.0
 10
-0.5905787401574804
 20
-0.9724409448818898
 30
0.0
 10
-0.5905787401574804
 20
-0.9724409448818898
 30
0.0
 10
-0.5905787401574804
 20
-0.9724409448818898
 30
0.0
 10
-0.5905787401574804
 20
-0.9724409448818898
 30
0.0
 10
-0.5862834645669292
 20
-0.9829527559055119
 30
0.0
 10
-0.5862834645669292
 20
-0.9829527559055119
 30
0.0
 10
-0.5862834645669292
 20
-0.9829527559055119
 30
0.0
 10
-0.5862834645669292
 20
-0.9829527559055119
 30
0.0
 10
-0.5815039370078741
 20
-0.9933543307086614
 30
0.0
 10
-0.5815039370078741
 20
-0.9933543307086614
 30
0.0
 10
-0.5815039370078741
 20
-0.9933543307086614
 30
0.0
 10
-0.5815039370078741
 20
-0.9933543307086614
 30
0.0
 10
-0.5762047244094488
 20
-1.0036653543307088
 30
0.0
 10
-0.5762047244094488
 20
-1.0036653543307088
 30
0.0
 10
-0.5762047244094488
 20
-1.0036653543307088
 30
0.0
 10
-0.5762047244094488
 20
-1.0036653543307088
 30
0.0
 10
-0.5703818897637796
 20
-1.0139606299212598
 30
0.0
 10
-0.5703818897637796
 20
-1.0139606299212598
 30
0.0
 10
-0.5703818897637796
 20
-1.0139606299212598
 30
0.0
 10
-0.5703818897637796
 20
-1.0139606299212598
 30
0.0
 10
-0.5640000000000001
 20
-1.024267716535433
 30
0.0
 10
-0.5640000000000001
 20
-1.024267716535433
 30
0.0
 10
-0.5640000000000001
 20
-1.024267716535433
 30
0.0
 10
-0.5640000000000001
 20
-1.024267716535433
 30
0.0
 10
-0.5570433070866142
 20
-1.0346456692913386
 30
0.0
 10
-0.5570433070866142
 20
-1.0346456692913386
 30
0.0
 10
-0.5570433070866142
 20
-1.0346456692913386
 30
0.0
 10
-0.5570433070866142
 20
-1.0346456692913386
 30
0.0
 10
-0.549476377952756
 20
-1.0451299212598426
 30
0.0
 10
-0.549476377952756
 20
-1.0451299212598426
 30
0.0
 10
-0.549476377952756
 20
-1.0451299212598426
 30
0.0
 10
-0.549476377952756
 20
-1.0451299212598426
 30
0.0
 10
-0.5412913385826772
 20
-1.0557874015748032
 30
0.0
 10
-0.5412913385826772
 20
-1.0557874015748032
 30
0.0
 10
-0.5412913385826772
 20
-1.0557874015748032
 30
0.0
 10
-0.5412913385826772
 20
-1.0557874015748032
 30
0.0
 10
-0.5324566929133858
 20
-1.0666417322834647
 30
0.0
 10
-0.5324566929133858
 20
-1.0666417322834647
 30
0.0
 10
-0.5324566929133858
 20
-1.0666417322834647
 30
0.0
 10
-0.5324566929133858
 20
-1.0666417322834647
 30
0.0
 10
-0.5229566929133859
 20
-1.0777637795275592
 30
0.0
 10
-0.5229566929133859
 20
-1.0777637795275592
 30
0.0
 10
-0.5229566929133859
 20
-1.0777637795275592
 30
0.0
 10
-0.5229566929133859
 20
-1.0777637795275592
 30
0.0
 10
-0.512751968503937
 20
-1.0891732283464568
 30
0.0
 10
-0.512751968503937
 20
-1.0891732283464568
 30
0.0
 10
-0.512751968503937
 20
-1.0891732283464568
 30
0.0
 10
-0.512751968503937
 20
-1.0891732283464568
 30
0.0
 10
-0.5018346456692914
 20
-1.1009409448818899
 30
0.0
 10
-0.5018346456692914
 20
-1.1009409448818899
 30
0.0
 10
-0.5018346456692914
 20
-1.1009409448818899
 30
0.0
 10
-0.5018346456692914
 20
-1.1009409448818899
 30
0.0
 10
-0.4901771653543307
 20
-1.1131023622047245
 30
0.0
 10
-0.4901771653543307
 20
-1.1131023622047245
 30
0.0
 10
-0.4901771653543307
 20
-1.1131023622047245
 30
0.0
 10
-0.4901771653543307
 20
-1.1131023622047245
 30
0.0
 10
-0.4777598425196851
 20
-1.125712598425197
 30
0.0
 10
-0.4777598425196851
 20
-1.125712598425197
 30
0.0
 10
-0.4777598425196851
 20
-1.125712598425197
 30
0.0
 10
-0.4777598425196851
 20
-1.125712598425197
 30
0.0
 10
-0.4645472440944882
 20
-1.1388070866141733
 30
0.0
 10
-0.4645472440944882
 20
-1.1388070866141733
 30
0.0
 10
-0.4645472440944882
 20
-1.1388070866141733
 30
0.0
 10
-0.4645472440944882
 20
-1.1388070866141733
 30
0.0
 10
-0.4505354330708661
 20
-1.1524448818897639
 30
0.0
 10
-0.4505354330708661
 20
-1.1524448818897639
 30
0.0
 10
-0.4505354330708661
 20
-1.1524448818897639
 30
0.0
 10
-0.4505354330708661
 20
-1.1524448818897639
 30
0.0
 10
-0.4356850393700787
 20
-1.1666614173228347
 30
0.0
 10
-0.4356850393700787
 20
-1.1666614173228347
 30
0.0
 10
-0.4356850393700787
 20
-1.1666614173228347
 30
0.0
 10
-0.4356850393700787
 20
-1.1666614173228347
 30
0.0
 10
-0.419984251968504
 20
-1.1815157480314962
 30
0.0
 10
-0.419984251968504
 20
-1.1815157480314962
 30
0.0
 10
-0.419984251968504
 20
-1.1815157480314962
 30
0.0
 10
-0.419984251968504
 20
-1.1815157480314962
 30
0.0
 10
-0.4044370078740158
 20
-1.1968779527559055
 30
0.0
 10
-0.4044370078740158
 20
-1.1968779527559055
 30
0.0
 10
-0.4044370078740158
 20
-1.1968779527559055
 30
0.0
 10
-0.4044370078740158
 20
-1.1968779527559055
 30
0.0
 10
-0.3900944881889764
 20
-1.2125826771653543
 30
0.0
 10
-0.3900944881889764
 20
-1.2125826771653543
 30
0.0
 10
-0.3900944881889764
 20
-1.2125826771653543
 30
0.0
 10
-0.3900944881889764
 20
-1.2125826771653543
 30
0.0
 10
-0.3769448818897638
 20
-1.2285787401574804
 30
0.0
 10
-0.3769448818897638
 20
-1.2285787401574804
 30
0.0
 10
-0.3769448818897638
 20
-1.2285787401574804
 30
0.0
 10
-0.3769448818897638
 20
-1.2285787401574804
 30
0.0
 10
-0.3649842519685039
 20
-1.2448110236220473
 30
0.0
 10
-0.3649842519685039
 20
-1.2448110236220473
 30
0.0
 10
-0.3649842519685039
 20
-1.2448110236220473
 30
0.0
 10
-0.3649842519685039
 20
-1.2448110236220473
 30
0.0
 10
-0.3542007874015748
 20
-1.261220472440945
 30
0.0
 10
-0.3542007874015748
 20
-1.261220472440945
 30
0.0
 10
-0.3542007874015748
 20
-1.261220472440945
 30
0.0
 10
-0.3542007874015748
 20
-1.261220472440945
 30
0.0
 10
-0.3446062992125984
 20
-1.2777716535433072
 30
0.0
 10
-0.3446062992125984
 20
-1.2777716535433072
 30
0.0
 10
-0.3446062992125984
 20
-1.2777716535433072
 30
0.0
 10
-0.3446062992125984
 20
-1.2777716535433072
 30
0.0
 10
-0.3361771653543307
 20
-1.2944015748031497
 30
0.0
 10
-0.3361771653543307
 20
-1.2944015748031497
 30
0.0
 10
-0.3361771653543307
 20
-1.2944015748031497
 30
0.0
 10
-0.3361771653543307
 20
-1.2944015748031497
 30
0.0
 10
-0.3289251968503937
 20
-1.3110708661417323
 30
0.0
 10
-0.3289251968503937
 20
-1.3110708661417323
 30
0.0
 10
-0.3289251968503937
 20
-1.3110708661417323
 30
0.0
 10
-0.3289251968503937
 20
-1.3110708661417323
 30
0.0
 10
-0.3228267716535433
 20
-1.3277047244094489
 30
0.0
 10
-0.3228267716535433
 20
-1.3277047244094489
 30
0.0
 10
-0.3228267716535433
 20
-1.3277047244094489
 30
0.0
 10
-0.3228267716535433
 20
-1.3277047244094489
 30
0.0
 10
-0.3178897637795276
 20
-1.3442795275590551
 30
0.0
 10
-0.3178897637795276
 20
-1.3442795275590551
 30
0.0
 10
-0.3178897637795276
 20
-1.3442795275590551
 30
0.0
 10
-0.3178897637795276
 20
-1.3442795275590551
 30
0.0
 10
-0.3141062992125984
 20
-1.3607244094488189
 30
0.0
 10
-0.3141062992125984
 20
-1.3607244094488189
 30
0.0
 10
-0.3141062992125984
 20
-1.3607244094488189
 30
0.0
 10
-0.3141062992125984
 20
-1.3607244094488189
 30
0.0
 10
-0.3114763779527559
 20
-1.3770039370078742
 30
0.0
 10
-0.3114763779527559
 20
-1.3770039370078742
 30
0.0
 10
-0.3114763779527559
 20
-1.3770039370078742
 30
0.0
 10
-0.3114763779527559
 20
-1.3770039370078742
 30
0.0
 10
-0.3099842519685039
 20
-1.3930511811023623
 30
0.0
 10
-0.3099842519685039
 20
-1.3930511811023623
 30
0.0
 10
-0.3099842519685039
 20
-1.3930511811023623
 30
0.0
 10
-0.3099842519685039
 20
-1.3930511811023623
 30
0.0
 10
-0.3096377952755905
 20
-1.4088267716535434
 30
0.0
 10
-0.3096377952755905
 20
-1.4088267716535434
 30
0.0
 10
-0.3096377952755905
 20
-1.4088267716535434
 30
0.0
 10
-0.3096377952755905
 20
-1.4088267716535434
 30
0.0
 10
-0.3104173228346457
 20
-1.4242755905511812
 30
0.0
 10
-0.3104173228346457
 20
-1.4242755905511812
 30
0.0
 10
-0.3104173228346457
 20
-1.4242755905511812
 30
0.0
 10
-0.3104173228346457
 20
-1.4242755905511812
 30
0.0
 10
-0.3123346456692914
 20
-1.4393503937007874
 30
0.0
 10
-0.3123346456692914
 20
-1.4393503937007874
 30
0.0
 10
-0.3123346456692914
 20
-1.4393503937007874
 30
0.0
 10
-0.3123346456692914
 20
-1.4393503937007874
 30
0.0
 10
-0.3153622047244095
 20
-1.453984251968504
 30
0.0
 10
-0.3153622047244095
 20
-1.453984251968504
 30
0.0
 10
-0.3153622047244095
 20
-1.453984251968504
 30
0.0
 10
-0.3153622047244095
 20
-1.453984251968504
 30
0.0
 10
-0.3195157480314961
 20
-1.4681456692913386
 30
0.0
 10
-0.3195157480314961
 20
-1.4681456692913386
 30
0.0
 10
-0.3195157480314961
 20
-1.4681456692913386
 30
0.0
 10
-0.3195157480314961
 20
-1.4681456692913386
 30
0.0
 10
-0.3247834645669291
 20
-1.4817716535433072
 30
0.0
 10
-0.3247834645669291
 20
-1.4817716535433072
 30
0.0
 10
-0.3247834645669291
 20
-1.4817716535433072
 30
0.0
 10
-0.3247834645669291
 20
-1.4817716535433072
 30
0.0
 10
-0.3311614173228347
 20
-1.4948188976377954
 30
0.0
 10
-0.3311614173228347
 20
-1.4948188976377954
 30
0.0
 10
-0.3311614173228347
 20
-1.4948188976377954
 30
0.0
 10
-0.3311614173228347
 20
-1.4948188976377954
 30
0.0
 10
-0.3386377952755906
 20
-1.507224409448819
 30
0.0
 10
-0.3386377952755906
 20
-1.507224409448819
 30
0.0
 10
-0.3386377952755906
 20
-1.507224409448819
 30
0.0
 10
-0.3386377952755906
 20
-1.507224409448819
 30
0.0
 10
-0.3472165354330709
 20
-1.5189488188976379
 30
0.0
 10
-0.3472165354330709
 20
-1.5189488188976379
 30
0.0
 10
-0.3472165354330709
 20
-1.5189488188976379
 30
0.0
 10
-0.3472165354330709
 20
-1.5189488188976379
 30
0.0
 10
-0.3568897637795276
 20
-1.5299370078740158
 30
0.0
 10
-0.3568897637795276
 20
-1.5299370078740158
 30
0.0
 10
-0.3568897637795276
 20
-1.5299370078740158
 30
0.0
 10
-0.3568897637795276
 20
-1.5299370078740158
 30
0.0
 10
-0.3676574803149607
 20
-1.5401417322834645
 30
0.0
 10
-0.3676574803149607
 20
-1.5401417322834645
 30
0.0
 10
-0.3676574803149607
 20
-1.5401417322834645
 30
0.0
 10
-0.3676574803149607
 20
-1.5401417322834645
 30
0.0
 10
-0.379496062992126
 20
-1.5494960629921259
 30
0.0
 10
-0.379496062992126
 20
-1.5494960629921259
 30
0.0
 10
-0.379496062992126
 20
-1.5494960629921259
 30
0.0
 10
-0.379496062992126
 20
-1.5494960629921259
 30
0.0
 10
-0.3924212598425197
 20
-1.5579685039370079
 30
0.0
 10
-0.3924212598425197
 20
-1.5579685039370079
 30
0.0
  0
SPLINE
  5
40
100
AcDbEntity
  8
P1-Layer 1
 62
   252
100
AcDbSpline
210
0.0
220
0.0
230
1.0
 70
     1
 71
     3
 72
    20
 73
    16
 74
     0
 42
0.0000000001
 43
0.0000000001
 40
0.0
 40
0.0
 40
0.0
 40
0.0
 40
0.25
 40
0.25
 40
0.25
 40
0.25
 40
0.5
 40
0.5
 40
0.5
 40
0.5
 40
0.75
 40
0.75
 40
0.75
 40
0.75
 40
1.0
 40
1.0
 40
1.0
 40
1.0
 10
-0.6126181102362205
 20
-0.7860196850393701
 30
0.0
 10
-0.6126181102362205
 20
-0.7860196850393701
 30
0.0
 10
0.0456535433070866
 20
-0.4100078740157481
 30
0.0
 10
0.0456535433070866
 20
-0.4100078740157481
 30
0.0
 10
0.0456535433070866
 20
-0.4100078740157481
 30
0.0
 10
0.0456535433070866
 20
-0.4100078740157481
 30
0.0
 10
-0.080507874015748
 20
-0.4100078740157481
 30
0.0
 10
-0.080507874015748
 20
-0.4100078740157481
 30
0.0
 10
-0.080507874015748
 20
-0.4100078740157481
 30
0.0
 10
-0.080507874015748
 20
-0.4100078740157481
 30
0.0
 10
-0.7387795275590552
 20
-0.7860196850393701
 30
0.0
 10
-0.7387795275590552
 20
-0.7860196850393701
 30
0.0
 10
-0.7387795275590552
 20
-0.7860196850393701
 30
0.0
 10
-0.7387795275590552
 20
-0.7860196850393701
 30
0.0
 10
-0.6126181102362205
 20
-0.7860196850393701
 30
0.0
 10
-0.6126181102362205
 20
-0.7860196850393701
 30
0.0
  0
SPLINE
  5
41
100
AcDbEntity
  8
P1-Layer 1
370
     5
100
AcDbSpline
210
0.0
220
0.0
230
1.0
 70
     1
 71
     3
 72
    20
 73
    16
 74
     0
 42
0.0000000001
 43
0.0000000001
 40
0.0
 40
0.0
 40
0.0
 40
0.0
 40
0.25
 40
0.25
 40
0.25
 40
0.25
 40
0.5
 40
0.5
 40
0.5
 40
0.5
 40
0.75
 40
0.75
 40
0.75
 40
0.75
 40
1.0
 40
1.0
 40
1.0
 40
1.0
 10
-0.6126181102362205
 20
-0.7860196850393701
 30
0.0
 10
-0.6126181102362205
 20
-0.7860196850393701
 30
0.0
 10
0.0456535433070866
 20
-0.4100078740157481
 30
0.0
 10
0.0456535433070866
 20
-0.4100078740157481
 30
0.0
 10
0.0456535433070866
 20
-0.4100078740157481
 30
0.0
 10
0.0456535433070866
 20
-0.4100078740157481
 30
0.0
 10
-0.080507874015748
 20
-0.4100078740157481
 30
0.0
 10
-0.080507874015748
 20
-0.4100078740157481
 30
0.0
 10
-0.080507874015748
 20
-0.4100078740157481
 30
0.0
 10
-0.080507874015748
 20
-0.4100078740157481
 30
0.0
 10
-0.7387795275590552
 20
-0.7860196850393701
 30
0.0
 10
-0.7387795275590552
 20
-0.7860196850393701
 30
0.0
 10
-0.7387795275590552
 20
-0.7860196850393701
 30
0.0
 10
-0.7387795275590552
 20
-0.7860196850393701
 30
0.0
 10
-0.6126181102362205
 20
-0.7860196850393701
 30
0.0
 10
-0.6126181102362205
 20
-0.7860196850393701
 30
0.0
  0
SPLINE
  5
42
100
AcDbEntity
  8
P1-Layer 1
 62
   253
100
AcDbSpline
210
0.0
220
0.0
230
1.0
 70
     1
 71
     3
 72
    36
 73
    32
 74
     0
 42
0.0000000001
 43
0.0000000001
 40
0.0
 40
0.0
 40
0.0
 40
0.0
 40
0.125
 40
0.125
 40
0.125
 40
0.125
 40
0.25
 40
0.25
 40
0.25
 40
0.25
 40
0.375
 40
0.375
 40
0.375
 40
0.375
 40
0.5
 40
0.5
 40
0.5
 40
0.5
 40
0.625
 40
0.625
 40
0.625
 40
0.625
 40
0.75
 40
0.75
 40
0.75
 40
0.75
 40
0.875
 40
0.875
 40
0.875
 40
0.875
 40
1.0
 40
1.0
 40
1.0
 40
1.0
 10
-0.3924212598425197
 20
-1.5579685039370079
 30
0.0
 10
-0.3924212598425197
 20
-1.5579685039370079
 30
0.0
 10
0.2658503937007874
 20
-1.1819566929133858
 30
0.0
 10
0.2658503937007874
 20
-1.1819566929133858
 30
0.0
 10
0.2658503937007874
 20
-1.1819566929133858
 30
0.0
 10
0.2658503937007874
 20
-1.1819566929133858
 30
0.0
 10
0.2787755905511811
 20
-1.173484251968504
 30
0.0
 10
0.2787755905511811
 20
-1.173484251968504
 30
0.0
 10
0.2787755905511811
 20
-1.173484251968504
 30
0.0
 10
0.2787755905511811
 20
-1.173484251968504
 30
0.0
 10
0.2906141732283465
 20
-1.1641299212598426
 30
0.0
 10
0.2906141732283465
 20
-1.1641299212598426
 30
0.0
 10
0.2906141732283465
 20
-1.1641299212598426
 30
0.0
 10
0.2906141732283465
 20
-1.1641299212598426
 30
0.0
 10
0.3013818897637796
 20
-1.1539251968503939
 30
0.0
 10
0.3013818897637796
 20
-1.1539251968503939
 30
0.0
 10
0.3013818897637796
 20
-1.1539251968503939
 30
0.0
 10
0.3013818897637796
 20
-1.1539251968503939
 30
0.0
 10
-0.3568897637795276
 20
-1.5299370078740158
 30
0.0
 10
-0.3568897637795276
 20
-1.5299370078740158
 30
0.0
 10
-0.3568897637795276
 20
-1.5299370078740158
 30
0.0
 10
-0.3568897637795276
 20
-1.5299370078740158
 30
0.0
 10
-0.3676574803149607
 20
-1.5401417322834645
 30
0.0
 10
-0.3676574803149607
 20
-1.5401417322834645
 30
0.0
 10
-0.3676574803149607
 20
-1.5401417322834645
 30
0.0
 10
-0.3676574803149607
 20
-1.5401417322834645
 30
0.0
 10
-0.379496062992126
 20
-1.5494960629921259
 30
0.0
 10
-0.379496062992126
 20
-1.5494960629921259
 30
0.0
 10
-0.379496062992126
 20
-1.5494960629921259
 30
0.0
 10
-0.379496062992126
 20
-1.5494960629921259
 30
0.0
 10
-0.3924212598425197
 20
-1.5579685039370079
 30
0.0
 10
-0.3924212598425197
 20
-1.5579685039370079
 30
0.0
  0
SPLINE
  5
43
100
AcDbEntity
  8
P1-Layer 1
 62
     9
100
AcDbSpline
210
0.0
220
0.0
230
1.0
 70
     1
 71
     3
 72
    36
 73
    32
 74
     0
 42
0.0000000001
 43
0.0000000001
 40
0.0
 40
0.0
 40
0.0
 40
0.0
 40
0.125
 40
0.125
 40
0.125
 40
0.125
 40
0.25
 40
0.25
 40
0.25
 40
0.25
 40
0.375
 40
0.375
 40
0.375
 40
0.375
 40
0.5
 40
0.5
 40
0.5
 40
0.5
 40
0.625
 40
0.625
 40
0.625
 40
0.625
 40
0.75
 40
0.75
 40
0.75
 40
0.75
 40
0.875
 40
0.875
 40
0.875
 40
0.875
 40
1.0
 40
1.0
 40
1.0
 40
1.0
 10
-0.3568897637795276
 20
-1.5299370078740158
 30
0.0
 10
-0.3568897637795276
 20
-1.5299370078740158
 30
0.0
 10
0.3013818897637796
 20
-1.1539251968503939
 30
0.0
 10
0.3013818897637796
 20
-1.1539251968503939
 30
0.0
 10
0.3013818897637796
 20
-1.1539251968503939
 30
0.0
 10
0.3013818897637796
 20
-1.1539251968503939
 30
0.0
 10
0.3110551181102362
 20
-1.1429370078740158
 30
0.0
 10
0.3110551181102362
 20
-1.1429370078740158
 30
0.0
 10
0.3110551181102362
 20
-1.1429370078740158
 30
0.0
 10
0.3110551181102362
 20
-1.1429370078740158
 30
0.0
 10
0.3196338582677166
 20
-1.1312125984251968
 30
0.0
 10
0.3196338582677166
 20
-1.1312125984251968
 30
0.0
 10
0.3196338582677166
 20
-1.1312125984251968
 30
0.0
 10
0.3196338582677166
 20
-1.1312125984251968
 30
0.0
 10
0.3271102362204725
 20
-1.1188070866141733
 30
0.0
 10
0.3271102362204725
 20
-1.1188070866141733
 30
0.0
 10
0.3271102362204725
 20
-1.1188070866141733
 30
0.0
 10
0.3271102362204725
 20
-1.1188070866141733
 30
0.0
 10
-0.3311614173228347
 20
-1.4948188976377954
 30
0.0
 10
-0.3311614173228347
 20
-1.4948188976377954
 30
0.0
 10
-0.3311614173228347
 20
-1.4948188976377954
 30
0.0
 10
-0.3311614173228347
 20
-1.4948188976377954
 30
0.0
 10
-0.3386377952755906
 20
-1.507224409448819
 30
0.0
 10
-0.3386377952755906
 20
-1.507224409448819
 30
0.0
 10
-0.3386377952755906
 20
-1.507224409448819
 30
0.0
 10
-0.3386377952755906
 20
-1.507224409448819
 30
0.0
 10
-0.3472165354330709
 20
-1.5189488188976379
 30
0.0
 10
-0.3472165354330709
 20
-1.5189488188976379
 30
0.0
 10
-0.3472165354330709
 20
-1.5189488188976379
 30
0.0
 10
-0.3472165354330709
 20
-1.5189488188976379
 30
0.0
 10
-0.3568897637795276
 20
-1.5299370078740158
 30
0.0
 10
-0.3568897637795276
 20
-1.5299370078740158
 30
0.0
  0
SPLINE
  5
44
100
AcDbEntity
  8
P1-Layer 1
 62
     9
100
AcDbSpline
210
0.0
220
0.0
230
1.0
 70
     1
 71
     3
 72
    36
 73
    32
 74
     0
 42
0.0000000001
 43
0.0000000001
 40
0.0
 40
0.0
 40
0.0
 40
0.0
 40
0.125
 40
0.125
 40
0.125
 40
0.125
 40
0.25
 40
0.25
 40
0.25
 40
0.25
 40
0.375
 40
0.375
 40
0.375
 40
0.375
 40
0.5
 40
0.5
 40
0.5
 40
0.5
 40
0.625
 40
0.625
 40
0.625
 40
0.625
 40
0.75
 40
0.75
 40
0.75
 40
0.75
 40
0.875
 40
0.875
 40
0.875
 40
0.875
 40
1.0
 40
1.0
 40
1.0
 40
1.0
 10
-0.3311614173228347
 20
-1.4948188976377954
 30
0.0
 10
-0.3311614173228347
 20
-1.4948188976377954
 30
0.0
 10
0.3271102362204725
 20
-1.1188070866141733
 30
0.0
 10
0.3271102362204725
 20
-1.1188070866141733
 30
0.0
 10
0.3271102362204725
 20
-1.1188070866141733
 30
0.0
 10
0.3271102362204725
 20
-1.1188070866141733
 30
0.0
 10
0.3334881889763779
 20
-1.1057598425196851
 30
0.0
 10
0.3334881889763779
 20
-1.1057598425196851
 30
0.0
 10
0.3334881889763779
 20
-1.1057598425196851
 30
0.0
 10
0.3334881889763779
 20
-1.1057598425196851
 30
0.0
 10
0.3387559055118111
 20
-1.0921338582677165
 30
0.0
 10
0.3387559055118111
 20
-1.0921338582677165
 30
0.0
 10
0.3387559055118111
 20
-1.0921338582677165
 30
0.0
 10
0.3387559055118111
 20
-1.0921338582677165
 30
0.0
 10
0.3429094488188977
 20
-1.0779724409448819
 30
0.0
 10
0.3429094488188977
 20
-1.0779724409448819
 30
0.0
 10
0.3429094488188977
 20
-1.0779724409448819
 30
0.0
 10
0.3429094488188977
 20
-1.0779724409448819
 30
0.0
 10
-0.3153622047244095
 20
-1.453984251968504
 30
0.0
 10
-0.3153622047244095
 20
-1.453984251968504
 30
0.0
 10
-0.3153622047244095
 20
-1.453984251968504
 30
0.0
 10
-0.3153622047244095
 20
-1.453984251968504
 30
0.0
 10
-0.3195157480314961
 20
-1.4681456692913386
 30
0.0
 10
-0.3195157480314961
 20
-1.4681456692913386
 30
0.0
 10
-0.3195157480314961
 20
-1.4681456692913386
 30
0.0
 10
-0.3195157480314961
 20
-1.4681456692913386
 30
0.0
 10
-0.3247834645669291
 20
-1.4817716535433072
 30
0.0
 10
-0.3247834645669291
 20
-1.4817716535433072
 30
0.0
 10
-0.3247834645669291
 20
-1.4817716535433072
 30
0.0
 10
-0.3247834645669291
 20
-1.4817716535433072
 30
0.0
 10
-0.3311614173228347
 20
-1.4948188976377954
 30
0.0
 10
-0.3311614173228347
 20
-1.4948188976377954
 30
0.0
  0
SPLINE
  5
45
100
AcDbEntity
  8
P1-Layer 1
 62
     9
100
AcDbSpline
210
0.0
220
0.0
230
1.0
 70
     1
 71
     3
 72
    36
 73
    32
 74
     0
 42
0.0000000001
 43
0.0000000001
 40
0.0
 40
0.0
 40
0.0
 40
0.0
 40
0.125
 40
0.125
 40
0.125
 40
0.125
 40
0.25
 40
0.25
 40
0.25
 40
0.25
 40
0.375
 40
0.375
 40
0.375
 40
0.375
 40
0.5
 40
0.5
 40
0.5
 40
0.5
 40
0.625
 40
0.625
 40
0.625
 40
0.625
 40
0.75
 40
0.75
 40
0.75
 40
0.75
 40
0.875
 40
0.875
 40
0.875
 40
0.875
 40
1.0
 40
1.0
 40
1.0
 40
1.0
 10
-0.3153622047244095
 20
-1.453984251968504
 30
0.0
 10
-0.3153622047244095
 20
-1.453984251968504
 30
0.0
 10
0.3429094488188977
 20
-1.0779724409448819
 30
0.0
 10
0.3429094488188977
 20
-1.0779724409448819
 30
0.0
 10
0.3429094488188977
 20
-1.0779724409448819
 30
0.0
 10
0.3429094488188977
 20
-1.0779724409448819
 30
0.0
 10
0.3459370078740158
 20
-1.0633385826771653
 30
0.0
 10
0.3459370078740158
 20
-1.0633385826771653
 30
0.0
 10
0.3459370078740158
 20
-1.0633385826771653
 30
0.0
 10
0.3459370078740158
 20
-1.0633385826771653
 30
0.0
 10
0.3478543307086615
 20
-1.0482637795275591
 30
0.0
 10
0.3478543307086615
 20
-1.0482637795275591
 30
0.0
 10
0.3478543307086615
 20
-1.0482637795275591
 30
0.0
 10
0.3478543307086615
 20
-1.0482637795275591
 30
0.0
 10
0.3486338582677165
 20
-1.0328149606299213
 30
0.0
 10
0.3486338582677165
 20
-1.0328149606299213
 30
0.0
 10
0.3486338582677165
 20
-1.0328149606299213
 30
0.0
 10
0.3486338582677165
 20
-1.0328149606299213
 30
0.0
 10
-0.3096377952755905
 20
-1.4088267716535434
 30
0.0
 10
-0.3096377952755905
 20
-1.4088267716535434
 30
0.0
 10
-0.3096377952755905
 20
-1.4088267716535434
 30
0.0
 10
-0.3096377952755905
 20
-1.4088267716535434
 30
0.0
 10
-0.3104173228346457
 20
-1.4242755905511812
 30
0.0
 10
-0.3104173228346457
 20
-1.4242755905511812
 30
0.0
 10
-0.3104173228346457
 20
-1.4242755905511812
 30
0.0
 10
-0.3104173228346457
 20
-1.4242755905511812
 30
0.0
 10
-0.3123346456692914
 20
-1.4393503937007874
 30
0.0
 10
-0.3123346456692914
 20
-1.4393503937007874
 30
0.0
 10
-0.3123346456692914
 20
-1.4393503937007874
 30
0.0
 10
-0.3123346456692914
 20
-1.4393503937007874
 30
0.0
 10
-0.3153622047244095
 20
-1.453984251968504
 30
0.0
 10
-0.3153622047244095
 20
-1.453984251968504
 30
0.0
  0
SPLINE
  5
46
100
AcDbEntity
  8
P1-Layer 1
 62
     9
100
AcDbSpline
210
0.0
220
0.0
230
1.0
 70
     1
 71
     3
 72
    36
 73
    32
 74
     0
 42
0.0000000001
 43
0.0000000001
 40
0.0
 40
0.0
 40
0.0
 40
0.0
 40
0.125
 40
0.125
 40
0.125
 40
0.125
 40
0.25
 40
0.25
 40
0.25
 40
0.25
 40
0.375
 40
0.375
 40
0.375
 40
0.375
 40
0.5
 40
0.5
 40
0.5
 40
0.5
 40
0.625
 40
0.625
 40
0.625
 40
0.625
 40
0.75
 40
0.75
 40
0.75
 40
0.75
 40
0.875
 40
0.875
 40
0.875
 40
0.875
 40
1.0
 40
1.0
 40
1.0
 40
1.0
 10
-0.3096377952755905
 20
-1.4088267716535434
 30
0.0
 10
-0.3096377952755905
 20
-1.4088267716535434
 30
0.0
 10
0.3486338582677165
 20
-1.0328149606299213
 30
0.0
 10
0.3486338582677165
 20
-1.0328149606299213
 30
0.0
 10
0.3486338582677165
 20
-1.0328149606299213
 30
0.0
 10
0.3486338582677165
 20
-1.0328149606299213
 30
0.0
 10
0.3482874015748032
 20
-1.0170393700787401
 30
0.0
 10
0.3482874015748032
 20
-1.0170393700787401
 30
0.0
 10
0.3482874015748032
 20
-1.0170393700787401
 30
0.0
 10
0.3482874015748032
 20
-1.0170393700787401
 30
0.0
 10
0.3467952755905512
 20
-1.000992125984252
 30
0.0
 10
0.3467952755905512
 20
-1.000992125984252
 30
0.0
 10
0.3467952755905512
 20
-1.000992125984252
 30
0.0
 10
0.3467952755905512
 20
-1.000992125984252
 30
0.0
 10
0.3441653543307087
 20
-0.9847125984251969
 30
0.0
 10
0.3441653543307087
 20
-0.9847125984251969
 30
0.0
 10
0.3441653543307087
 20
-0.9847125984251969
 30
0.0
 10
0.3441653543307087
 20
-0.9847125984251969
 30
0.0
 10
-0.3141062992125984
 20
-1.3607244094488189
 30
0.0
 10
-0.3141062992125984
 20
-1.3607244094488189
 30
0.0
 10
-0.3141062992125984
 20
-1.3607244094488189
 30
0.0
 10
-0.3141062992125984
 20
-1.3607244094488189
 30
0.0
 10
-0.3114763779527559
 20
-1.3770039370078742
 30
0.0
 10
-0.3114763779527559
 20
-1.3770039370078742
 30
0.0
 10
-0.3114763779527559
 20
-1.3770039370078742
 30
0.0
 10
-0.3114763779527559
 20
-1.3770039370078742
 30
0.0
 10
-0.3099842519685039
 20
-1.3930511811023623
 30
0.0
 10
-0.3099842519685039
 20
-1.3930511811023623
 30
0.0
 10
-0.3099842519685039
 20
-1.3930511811023623
 30
0.0
 10
-0.3099842519685039
 20
-1.3930511811023623
 30
0.0
 10
-0.3096377952755905
 20
-1.4088267716535434
 30
0.0
 10
-0.3096377952755905
 20
-1.4088267716535434
 30
0.0
  0
SPLINE
  5
47
100
AcDbEntity
  8
P1-Layer 1
 62
     9
100
AcDbSpline
210
0.0
220
0.0
230
1.0
 70
     1
 71
     3
 72
    28
 73
    24
 74
     0
 42
0.0000000001
 43
0.0000000001
 40
0.0
 40
0.0
 40
0.0
 40
0.0
 40
0.1666666666666667
 40
0.1666666666666667
 40
0.1666666666666667
 40
0.1666666666666667
 40
0.3333333333333333
 40
0.3333333333333333
 40
0.3333333333333333
 40
0.3333333333333333
 40
0.5
 40
0.5
 40
0.5
 40
0.5
 40
0.6666666666666666
 40
0.6666666666666666
 40
0.6666666666666666
 40
0.6666666666666666
 40
0.8333333333333333
 40
0.8333333333333333
 40
0.8333333333333333
 40
0.8333333333333333
 40
1.0
 40
1.0
 40
1.0
 40
1.0
 10
-0.3141062992125984
 20
-1.3607244094488189
 30
0.0
 10
-0.3141062992125984
 20
-1.3607244094488189
 30
0.0
 10
0.3441653543307087
 20
-0.9847125984251969
 30
0.0
 10
0.3441653543307087
 20
-0.9847125984251969
 30
0.0
 10
0.3441653543307087
 20
-0.9847125984251969
 30
0.0
 10
0.3441653543307087
 20
-0.9847125984251969
 30
0.0
 10
0.3403818897637795
 20
-0.9682677165354331
 30
0.0
 10
0.3403818897637795
 20
-0.9682677165354331
 30
0.0
 10
0.3403818897637795
 20
-0.9682677165354331
 30
0.0
 10
0.3403818897637795
 20
-0.9682677165354331
 30
0.0
 10
0.3354448818897638
 20
-0.9516929133858268
 30
0.0
 10
0.3354448818897638
 20
-0.9516929133858268
 30
0.0
 10
0.3354448818897638
 20
-0.9516929133858268
 30
0.0
 10
0.3354448818897638
 20
-0.9516929133858268
 30
0.0
 10
-0.3228267716535433
 20
-1.3277047244094489
 30
0.0
 10
-0.3228267716535433
 20
-1.3277047244094489
 30
0.0
 10
-0.3228267716535433
 20
-1.3277047244094489
 30
0.0
 10
-0.3228267716535433
 20
-1.3277047244094489
 30
0.0
 10
-0.3178897637795276
 20
-1.3442795275590551
 30
0.0
 10
-0.3178897637795276
 20
-1.3442795275590551
 30
0.0
 10
-0.3178897637795276
 20
-1.3442795275590551
 30
0.0
 10
-0.3178897637795276
 20
-1.3442795275590551
 30
0.0
 10
-0.3141062992125984
 20
-1.3607244094488189
 30
0.0
 10
-0.3141062992125984
 20
-1.3607244094488189
 30
0.0
  0
SPLINE
  5
48
100
AcDbEntity
  8
P1-Layer 1
 62
     9
100
AcDbSpline
210
0.0
220
0.0
230
1.0
 70
     1
 71
     3
 72
    28
 73
    24
 74
     0
 42
0.0000000001
 43
0.0000000001
 40
0.0
 40
0.0
 40
0.0
 40
0.0
 40
0.1666666666666667
 40
0.1666666666666667
 40
0.1666666666666667
 40
0.1666666666666667
 40
0.3333333333333333
 40
0.3333333333333333
 40
0.3333333333333333
 40
0.3333333333333333
 40
0.5
 40
0.5
 40
0.5
 40
0.5
 40
0.6666666666666666
 40
0.6666666666666666
 40
0.6666666666666666
 40
0.6666666666666666
 40
0.8333333333333333
 40
0.8333333333333333
 40
0.8333333333333333
 40
0.8333333333333333
 40
1.0
 40
1.0
 40
1.0
 40
1.0
 10
-0.3228267716535433
 20
-1.3277047244094489
 30
0.0
 10
-0.3228267716535433
 20
-1.3277047244094489
 30
0.0
 10
0.3354448818897638
 20
-0.9516929133858268
 30
0.0
 10
0.3354448818897638
 20
-0.9516929133858268
 30
0.0
 10
0.3354448818897638
 20
-0.9516929133858268
 30
0.0
 10
0.3354448818897638
 20
-0.9516929133858268
 30
0.0
 10
0.3293464566929134
 20
-0.9350590551181103
 30
0.0
 10
0.3293464566929134
 20
-0.9350590551181103
 30
0.0
 10
0.3293464566929134
 20
-0.9350590551181103
 30
0.0
 10
0.3293464566929134
 20
-0.9350590551181103
 30
0.0
 10
0.3220944881889764
 20
-0.9183897637795276
 30
0.0
 10
0.3220944881889764
 20
-0.9183897637795276
 30
0.0
 10
0.3220944881889764
 20
-0.9183897637795276
 30
0.0
 10
0.3220944881889764
 20
-0.9183897637795276
 30
0.0
 10
-0.3361771653543307
 20
-1.2944015748031497
 30
0.0
 10
-0.3361771653543307
 20
-1.2944015748031497
 30
0.0
 10
-0.3361771653543307
 20
-1.2944015748031497
 30
0.0
 10
-0.3361771653543307
 20
-1.2944015748031497
 30
0.0
 10
-0.3289251968503937
 20
-1.3110708661417323
 30
0.0
 10
-0.3289251968503937
 20
-1.3110708661417323
 30
0.0
 10
-0.3289251968503937
 20
-1.3110708661417323
 30
0.0
 10
-0.3289251968503937
 20
-1.3110708661417323
 30
0.0
 10
-0.3228267716535433
 20
-1.3277047244094489
 30
0.0
 10
-0.3228267716535433
 20
-1.3277047244094489
 30
0.0
  0
SPLINE
  5
49
100
AcDbEntity
  8
P1-Layer 1
 62
     9
100
AcDbSpline
210
0.0
220
0.0
230
1.0
 70
     1
 71
     3
 72
    28
 73
    24
 74
     0
 42
0.0000000001
 43
0.0000000001
 40
0.0
 40
0.0
 40
0.0
 40
0.0
 40
0.1666666666666667
 40
0.1666666666666667
 40
0.1666666666666667
 40
0.1666666666666667
 40
0.3333333333333333
 40
0.3333333333333333
 40
0.3333333333333333
 40
0.3333333333333333
 40
0.5
 40
0.5
 40
0.5
 40
0.5
 40
0.6666666666666666
 40
0.6666666666666666
 40
0.6666666666666666
 40
0.6666666666666666
 40
0.8333333333333333
 40
0.8333333333333333
 40
0.8333333333333333
 40
0.8333333333333333
 40
1.0
 40
1.0
 40
1.0
 40
1.0
 10
-0.3361771653543307
 20
-1.2944015748031497
 30
0.0
 10
-0.3361771653543307
 20
-1.2944015748031497
 30
0.0
 10
0.3220944881889764
 20
-0.9183897637795276
 30
0.0
 10
0.3220944881889764
 20
-0.9183897637795276
 30
0.0
 10
0.3220944881889764
 20
-0.9183897637795276
 30
0.0
 10
0.3220944881889764
 20
-0.9183897637795276
 30
0.0
 10
0.3136653543307087
 20
-0.9017598425196851
 30
0.0
 10
0.3136653543307087
 20
-0.9017598425196851
 30
0.0
 10
0.3136653543307087
 20
-0.9017598425196851
 30
0.0
 10
0.3136653543307087
 20
-0.9017598425196851
 30
0.0
 10
0.3040708661417323
 20
-0.8852086614173229
 30
0.0
 10
0.3040708661417323
 20
-0.8852086614173229
 30
0.0
 10
0.3040708661417323
 20
-0.8852086614173229
 30
0.0
 10
0.3040708661417323
 20
-0.8852086614173229
 30
0.0
 10
-0.3542007874015748
 20
-1.261220472440945
 30
0.0
 10
-0.3542007874015748
 20
-1.261220472440945
 30
0.0
 10
-0.3542007874015748
 20
-1.261220472440945
 30
0.0
 10
-0.3542007874015748
 20
-1.261220472440945
 30
0.0
 10
-0.3446062992125984
 20
-1.2777716535433072
 30
0.0
 10
-0.3446062992125984
 20
-1.2777716535433072
 30
0.0
 10
-0.3446062992125984
 20
-1.2777716535433072
 30
0.0
 10
-0.3446062992125984
 20
-1.2777716535433072
 30
0.0
 10
-0.3361771653543307
 20
-1.2944015748031497
 30
0.0
 10
-0.3361771653543307
 20
-1.2944015748031497
 30
0.0
  0
SPLINE
  5
4A
100
AcDbEntity
  8
P1-Layer 1
 62
     9
100
AcDbSpline
210
0.0
220
0.0
230
1.0
 70
     1
 71
     3
 72
    28
 73
    24
 74
     0
 42
0.0000000001
 43
0.0000000001
 40
0.0
 40
0.0
 40
0.0
 40
0.0
 40
0.1666666666666667
 40
0.1666666666666667
 40
0.1666666666666667
 40
0.1666666666666667
 40
0.3333333333333333
 40
0.3333333333333333
 40
0.3333333333333333
 40
0.3333333333333333
 40
0.5
 40
0.5
 40
0.5
 40
0.5
 40
0.6666666666666666
 40
0.6666666666666666
 40
0.6666666666666666
 40
0.6666666666666666
 40
0.8333333333333333
 40
0.8333333333333333
 40
0.8333333333333333
 40
0.8333333333333333
 40
1.0
 40
1.0
 40
1.0
 40
1.0
 10
-0.3542007874015748
 20
-1.261220472440945
 30
0.0
 10
-0.3542007874015748
 20
-1.261220472440945
 30
0.0
 10
0.3040708661417323
 20
-0.8852086614173229
 30
0.0
 10
0.3040708661417323
 20
-0.8852086614173229
 30
0.0
 10
0.3040708661417323
 20
-0.8852086614173229
 30
0.0
 10
0.3040708661417323
 20
-0.8852086614173229
 30
0.0
 10
0.2932874015748032
 20
-0.8687992125984252
 30
0.0
 10
0.2932874015748032
 20
-0.8687992125984252
 30
0.0
 10
0.2932874015748032
 20
-0.8687992125984252
 30
0.0
 10
0.2932874015748032
 20
-0.8687992125984252
 30
0.0
 10
0.2813267716535433
 20
-0.8525669291338583
 30
0.0
 10
0.2813267716535433
 20
-0.8525669291338583
 30
0.0
 10
0.2813267716535433
 20
-0.8525669291338583
 30
0.0
 10
0.2813267716535433
 20
-0.8525669291338583
 30
0.0
 10
-0.3769448818897638
 20
-1.2285787401574804
 30
0.0
 10
-0.3769448818897638
 20
-1.2285787401574804
 30
0.0
 10
-0.3769448818897638
 20
-1.2285787401574804
 30
0.0
 10
-0.3769448818897638
 20
-1.2285787401574804
 30
0.0
 10
-0.3649842519685039
 20
-1.2448110236220473
 30
0.0
 10
-0.3649842519685039
 20
-1.2448110236220473
 30
0.0
 10
-0.3649842519685039
 20
-1.2448110236220473
 30
0.0
 10
-0.3649842519685039
 20
-1.2448110236220473
 30
0.0
 10
-0.3542007874015748
 20
-1.261220472440945
 30
0.0
 10
-0.3542007874015748
 20
-1.261220472440945
 30
0.0
  0
SPLINE
  5
4B
100
AcDbEntity
  8
P1-Layer 1
 62
     9
100
AcDbSpline
210
0.0
220
0.0
230
1.0
 70
     1
 71
     3
 72
    28
 73
    24
 74
     0
 42
0.0000000001
 43
0.0000000001
 40
0.0
 40
0.0
 40
0.0
 40
0.0
 40
0.1666666666666667
 40
0.1666666666666667
 40
0.1666666666666667
 40
0.1666666666666667
 40
0.3333333333333333
 40
0.3333333333333333
 40
0.3333333333333333
 40
0.3333333333333333
 40
0.5
 40
0.5
 40
0.5
 40
0.5
 40
0.6666666666666666
 40
0.6666666666666666
 40
0.6666666666666666
 40
0.6666666666666666
 40
0.8333333333333333
 40
0.8333333333333333
 40
0.8333333333333333
 40
0.8333333333333333
 40
1.0
 40
1.0
 40
1.0
 40
1.0
 10
-0.3769448818897638
 20
-1.2285787401574804
 30
0.0
 10
-0.3769448818897638
 20
-1.2285787401574804
 30
0.0
 10
0.2813267716535433
 20
-0.8525669291338583
 30
0.0
 10
0.2813267716535433
 20
-0.8525669291338583
 30
0.0
 10
0.2813267716535433
 20
-0.8525669291338583
 30
0.0
 10
0.2813267716535433
 20
-0.8525669291338583
 30
0.0
 10
0.2681771653543307
 20
-0.8365708661417323
 30
0.0
 10
0.2681771653543307
 20
-0.8365708661417323
 30
0.0
 10
0.2681771653543307
 20
-0.8365708661417323
 30
0.0
 10
0.2681771653543307
 20
-0.8365708661417323
 30
0.0
 10
0.2538346456692914
 20
-0.8208661417322835
 30
0.0
 10
0.2538346456692914
 20
-0.8208661417322835
 30
0.0
 10
0.2538346456692914
 20
-0.8208661417322835
 30
0.0
 10
0.2538346456692914
 20
-0.8208661417322835
 30
0.0
 10
-0.4044370078740158
 20
-1.1968779527559055
 30
0.0
 10
-0.4044370078740158
 20
-1.1968779527559055
 30
0.0
 10
-0.4044370078740158
 20
-1.1968779527559055
 30
0.0
 10
-0.4044370078740158
 20
-1.1968779527559055
 30
0.0
 10
-0.3900944881889764
 20
-1.2125826771653543
 30
0.0
 10
-0.3900944881889764
 20
-1.2125826771653543
 30
0.0
 10
-0.3900944881889764
 20
-1.2125826771653543
 30
0.0
 10
-0.3900944881889764
 20
-1.2125826771653543
 30
0.0
 10
-0.3769448818897638
 20
-1.2285787401574804
 30
0.0
 10
-0.3769448818897638
 20
-1.2285787401574804
 30
0.0
  0
SPLINE
  5
4C
100
AcDbEntity
  8
P1-Layer 1
 62
     9
100
AcDbSpline
210
0.0
220
0.0
230
1.0
 70
     1
 71
     3
 72
    28
 73
    24
 74
     0
 42
0.0000000001
 43
0.0000000001
 40
0.0
 40
0.0
 40
0.0
 40
0.0
 40
0.1666666666666667
 40
0.1666666666666667
 40
0.1666666666666667
 40
0.1666666666666667
 40
0.3333333333333333
 40
0.3333333333333333
 40
0.3333333333333333
 40
0.3333333333333333
 40
0.5
 40
0.5
 40
0.5
 40
0.5
 40
0.6666666666666666
 40
0.6666666666666666
 40
0.6666666666666666
 40
0.6666666666666666
 40
0.8333333333333333
 40
0.8333333333333333
 40
0.8333333333333333
 40
0.8333333333333333
 40
1.0
 40
1.0
 40
1.0
 40
1.0
 10
-0.4044370078740158
 20
-1.1968779527559055
 30
0.0
 10
-0.4044370078740158
 20
-1.1968779527559055
 30
0.0
 10
0.2538346456692914
 20
-0.8208661417322835
 30
0.0
 10
0.2538346456692914
 20
-0.8208661417322835
 30
0.0
 10
0.2538346456692914
 20
-0.8208661417322835
 30
0.0
 10
0.2538346456692914
 20
-0.8208661417322835
 30
0.0
 10
0.2382874015748032
 20
-0.805503937007874
 30
0.0
 10
0.2382874015748032
 20
-0.805503937007874
 30
0.0
 10
0.2382874015748032
 20
-0.805503937007874
 30
0.0
 10
0.2382874015748032
 20
-0.805503937007874
 30
0.0
 10
0.2225866141732284
 20
-0.7906496062992127
 30
0.0
 10
0.2225866141732284
 20
-0.7906496062992127
 30
0.0
 10
0.2225866141732284
 20
-0.7906496062992127
 30
0.0
 10
0.2225866141732284
 20
-0.7906496062992127
 30
0.0
 10
-0.4356850393700787
 20
-1.1666614173228347
 30
0.0
 10
-0.4356850393700787
 20
-1.1666614173228347
 30
0.0
 10
-0.4356850393700787
 20
-1.1666614173228347
 30
0.0
 10
-0.4356850393700787
 20
-1.1666614173228347
 30
0.0
 10
-0.419984251968504
 20
-1.1815157480314962
 30
0.0
 10
-0.419984251968504
 20
-1.1815157480314962
 30
0.0
 10
-0.419984251968504
 20
-1.1815157480314962
 30
0.0
 10
-0.419984251968504
 20
-1.1815157480314962
 30
0.0
 10
-0.4044370078740158
 20
-1.1968779527559055
 30
0.0
 10
-0.4044370078740158
 20
-1.1968779527559055
 30
0.0
  0
SPLINE
  5
4D
100
AcDbEntity
  8
P1-Layer 1
 62
     9
100
AcDbSpline
210
0.0
220
0.0
230
1.0
 70
     1
 71
     3
 72
    28
 73
    24
 74
     0
 42
0.0000000001
 43
0.0000000001
 40
0.0
 40
0.0
 40
0.0
 40
0.0
 40
0.1666666666666667
 40
0.1666666666666667
 40
0.1666666666666667
 40
0.1666666666666667
 40
0.3333333333333333
 40
0.3333333333333333
 40
0.3333333333333333
 40
0.3333333333333333
 40
0.5
 40
0.5
 40
0.5
 40
0.5
 40
0.6666666666666666
 40
0.6666666666666666
 40
0.6666666666666666
 40
0.6666666666666666
 40
0.8333333333333333
 40
0.8333333333333333
 40
0.8333333333333333
 40
0.8333333333333333
 40
1.0
 40
1.0
 40
1.0
 40
1.0
 10
-0.4356850393700787
 20
-1.1666614173228347
 30
0.0
 10
-0.4356850393700787
 20
-1.1666614173228347
 30
0.0
 10
0.2225866141732284
 20
-0.7906496062992127
 30
0.0
 10
0.2225866141732284
 20
-0.7906496062992127
 30
0.0
 10
0.2225866141732284
 20
-0.7906496062992127
 30
0.0
 10
0.2225866141732284
 20
-0.7906496062992127
 30
0.0
 10
0.207736220472441
 20
-0.7764330708661418
 30
0.0
 10
0.207736220472441
 20
-0.7764330708661418
 30
0.0
 10
0.207736220472441
 20
-0.7764330708661418
 30
0.0
 10
0.207736220472441
 20
-0.7764330708661418
 30
0.0
 10
0.1937244094488189
 20
-0.7627952755905512
 30
0.0
 10
0.1937244094488189
 20
-0.7627952755905512
 30
0.0
 10
0.1937244094488189
 20
-0.7627952755905512
 30
0.0
 10
0.1937244094488189
 20
-0.7627952755905512
 30
0.0
 10
-0.4645472440944882
 20
-1.1388070866141733
 30
0.0
 10
-0.4645472440944882
 20
-1.1388070866141733
 30
0.0
 10
-0.4645472440944882
 20
-1.1388070866141733
 30
0.0
 10
-0.4645472440944882
 20
-1.1388070866141733
 30
0.0
 10
-0.4505354330708661
 20
-1.1524448818897639
 30
0.0
 10
-0.4505354330708661
 20
-1.1524448818897639
 30
0.0
 10
-0.4505354330708661
 20
-1.1524448818897639
 30
0.0
 10
-0.4505354330708661
 20
-1.1524448818897639
 30
0.0
 10
-0.4356850393700787
 20
-1.1666614173228347
 30
0.0
 10
-0.4356850393700787
 20
-1.1666614173228347
 30
0.0
  0
SPLINE
  5
4E
100
AcDbEntity
  8
P1-Layer 1
 62
     9
100
AcDbSpline
210
0.0
220
0.0
230
1.0
 70
     1
 71
     3
 72
    28
 73
    24
 74
     0
 42
0.0000000001
 43
0.0000000001
 40
0.0
 40
0.0
 40
0.0
 40
0.0
 40
0.1666666666666667
 40
0.1666666666666667
 40
0.1666666666666667
 40
0.1666666666666667
 40
0.3333333333333333
 40
0.3333333333333333
 40
0.3333333333333333
 40
0.3333333333333333
 40
0.5
 40
0.5
 40
0.5
 40
0.5
 40
0.6666666666666666
 40
0.6666666666666666
 40
0.6666666666666666
 40
0.6666666666666666
 40
0.8333333333333333
 40
0.8333333333333333
 40
0.8333333333333333
 40
0.8333333333333333
 40
1.0
 40
1.0
 40
1.0
 40
1.0
 10
-0.4645472440944882
 20
-1.1388070866141733
 30
0.0
 10
-0.4645472440944882
 20
-1.1388070866141733
 30
0.0
 10
0.1937244094488189
 20
-0.7627952755905512
 30
0.0
 10
0.1937244094488189
 20
-0.7627952755905512
 30
0.0
 10
0.1937244094488189
 20
-0.7627952755905512
 30
0.0
 10
0.1937244094488189
 20
-0.7627952755905512
 30
0.0
 10
0.180511811023622
 20
-0.7497007874015749
 30
0.0
 10
0.180511811023622
 20
-0.7497007874015749
 30
0.0
 10
0.180511811023622
 20
-0.7497007874015749
 30
0.0
 10
0.180511811023622
 20
-0.7497007874015749
 30
0.0
 10
0.1680944881889764
 20
-0.7370905511811023
 30
0.0
 10
0.1680944881889764
 20
-0.7370905511811023
 30
0.0
 10
0.1680944881889764
 20
-0.7370905511811023
 30
0.0
 10
0.1680944881889764
 20
-0.7370905511811023
 30
0.0
 10
-0.4901771653543307
 20
-1.1131023622047245
 30
0.0
 10
-0.4901771653543307
 20
-1.1131023622047245
 30
0.0
 10
-0.4901771653543307
 20
-1.1131023622047245
 30
0.0
 10
-0.4901771653543307
 20
-1.1131023622047245
 30
0.0
 10
-0.4777598425196851
 20
-1.125712598425197
 30
0.0
 10
-0.4777598425196851
 20
-1.125712598425197
 30
0.0
 10
-0.4777598425196851
 20
-1.125712598425197
 30
0.0
 10
-0.4777598425196851
 20
-1.125712598425197
 30
0.0
 10
-0.4645472440944882
 20
-1.1388070866141733
 30
0.0
 10
-0.4645472440944882
 20
-1.1388070866141733
 30
0.0
  0
SPLINE
  5
4F
100
AcDbEntity
  8
P1-Layer 1
 62
     9
100
AcDbSpline
210
0.0
220
0.0
230
1.0
 70
     1
 71
     3
 72
    36
 73
    32
 74
     0
 42
0.0000000001
 43
0.0000000001
 40
0.0
 40
0.0
 40
0.0
 40
0.0
 40
0.125
 40
0.125
 40
0.125
 40
0.125
 40
0.25
 40
0.25
 40
0.25
 40
0.25
 40
0.375
 40
0.375
 40
0.375
 40
0.375
 40
0.5
 40
0.5
 40
0.5
 40
0.5
 40
0.625
 40
0.625
 40
0.625
 40
0.625
 40
0.75
 40
0.75
 40
0.75
 40
0.75
 40
0.875
 40
0.875
 40
0.875
 40
0.875
 40
1.0
 40
1.0
 40
1.0
 40
1.0
 10
-0.4901771653543307
 20
-1.1131023622047245
 30
0.0
 10
-0.4901771653543307
 20
-1.1131023622047245
 30
0.0
 10
0.1680944881889764
 20
-0.7370905511811023
 30
0.0
 10
0.1680944881889764
 20
-0.7370905511811023
 30
0.0
 10
0.1680944881889764
 20
-0.7370905511811023
 30
0.0
 10
0.1680944881889764
 20
-0.7370905511811023
 30
0.0
 10
0.1564370078740158
 20
-0.7249291338582677
 30
0.0
 10
0.1564370078740158
 20
-0.7249291338582677
 30
0.0
 10
0.1564370078740158
 20
-0.7249291338582677
 30
0.0
 10
0.1564370078740158
 20
-0.7249291338582677
 30
0.0
 10
0.1455196850393701
 20
-0.7131614173228347
 30
0.0
 10
0.1455196850393701
 20
-0.7131614173228347
 30
0.0
 10
0.1455196850393701
 20
-0.7131614173228347
 30
0.0
 10
0.1455196850393701
 20
-0.7131614173228347
 30
0.0
 10
0.1353149606299213
 20
-0.7017519685039371
 30
0.0
 10
0.1353149606299213
 20
-0.7017519685039371
 30
0.0
 10
0.1353149606299213
 20
-0.7017519685039371
 30
0.0
 10
0.1353149606299213
 20
-0.7017519685039371
 30
0.0
 10
-0.5229566929133859
 20
-1.0777637795275592
 30
0.0
 10
-0.5229566929133859
 20
-1.0777637795275592
 30
0.0
 10
-0.5229566929133859
 20
-1.0777637795275592
 30
0.0
 10
-0.5229566929133859
 20
-1.0777637795275592
 30
0.0
 10
-0.512751968503937
 20
-1.0891732283464568
 30
0.0
 10
-0.512751968503937
 20
-1.0891732283464568
 30
0.0
 10
-0.512751968503937
 20
-1.0891732283464568
 30
0.0
 10
-0.512751968503937
 20
-1.0891732283464568
 30
0.0
 10
-0.5018346456692914
 20
-1.1009409448818899
 30
0.0
 10
-0.5018346456692914
 20
-1.1009409448818899
 30
0.0
 10
-0.5018346456692914
 20
-1.1009409448818899
 30
0.0
 10
-0.5018346456692914
 20
-1.1009409448818899
 30
0.0
 10
-0.4901771653543307
 20
-1.1131023622047245
 30
0.0
 10
-0.4901771653543307
 20
-1.1131023622047245
 30
0.0
  0
SPLINE
  5
50
100
AcDbEntity
  8
P1-Layer 1
 62
     9
100
AcDbSpline
210
0.0
220
0.0
230
1.0
 70
     1
 71
     3
 72
    36
 73
    32
 74
     0
 42
0.0000000001
 43
0.0000000001
 40
0.0
 40
0.0
 40
0.0
 40
0.0
 40
0.125
 40
0.125
 40
0.125
 40
0.125
 40
0.25
 40
0.25
 40
0.25
 40
0.25
 40
0.375
 40
0.375
 40
0.375
 40
0.375
 40
0.5
 40
0.5
 40
0.5
 40
0.5
 40
0.625
 40
0.625
 40
0.625
 40
0.625
 40
0.75
 40
0.75
 40
0.75
 40
0.75
 40
0.875
 40
0.875
 40
0.875
 40
0.875
 40
1.0
 40
1.0
 40
1.0
 40
1.0
 10
-0.5229566929133859
 20
-1.0777637795275592
 30
0.0
 10
-0.5229566929133859
 20
-1.0777637795275592
 30
0.0
 10
0.1353149606299213
 20
-0.7017519685039371
 30
0.0
 10
0.1353149606299213
 20
-0.7017519685039371
 30
0.0
 10
0.1353149606299213
 20
-0.7017519685039371
 30
0.0
 10
0.1353149606299213
 20
-0.7017519685039371
 30
0.0
 10
0.1258149606299213
 20
-0.6906299212598426
 30
0.0
 10
0.1258149606299213
 20
-0.6906299212598426
 30
0.0
 10
0.1258149606299213
 20
-0.6906299212598426
 30
0.0
 10
0.1258149606299213
 20
-0.6906299212598426
 30
0.0
 10
0.1169803149606299
 20
-0.6797755905511811
 30
0.0
 10
0.1169803149606299
 20
-0.6797755905511811
 30
0.0
 10
0.1169803149606299
 20
-0.6797755905511811
 30
0.0
 10
0.1169803149606299
 20
-0.6797755905511811
 30
0.0
 10
0.1087952755905512
 20
-0.6691181102362205
 30
0.0
 10
0.1087952755905512
 20
-0.6691181102362205
 30
0.0
 10
0.1087952755905512
 20
-0.6691181102362205
 30
0.0
 10
0.1087952755905512
 20
-0.6691181102362205
 30
0.0
 10
-0.549476377952756
 20
-1.0451299212598426
 30
0.0
 10
-0.549476377952756
 20
-1.0451299212598426
 30
0.0
 10
-0.549476377952756
 20
-1.0451299212598426
 30
0.0
 10
-0.549476377952756
 20
-1.0451299212598426
 30
0.0
 10
-0.5412913385826772
 20
-1.0557874015748032
 30
0.0
 10
-0.5412913385826772
 20
-1.0557874015748032
 30
0.0
 10
-0.5412913385826772
 20
-1.0557874015748032
 30
0.0
 10
-0.5412913385826772
 20
-1.0557874015748032
 30
0.0
 10
-0.5324566929133858
 20
-1.0666417322834647
 30
0.0
 10
-0.5324566929133858
 20
-1.0666417322834647
 30
0.0
 10
-0.5324566929133858
 20
-1.0666417322834647
 30
0.0
 10
-0.5324566929133858
 20
-1.0666417322834647
 30
0.0
 10
-0.5229566929133859
 20
-1.0777637795275592
 30
0.0
 10
-0.5229566929133859
 20
-1.0777637795275592
 30
0.0
  0
SPLINE
  5
51
100
AcDbEntity
  8
P1-Layer 1
 62
     9
100
AcDbSpline
210
0.0
220
0.0
230
1.0
 70
     1
 71
     3
 72
    44
 73
    40
 74
     0
 42
0.0000000001
 43
0.0000000001
 40
0.0
 40
0.0
 40
0.0
 40
0.0
 40
0.1
 40
0.1
 40
0.1
 40
0.1
 40
0.2
 40
0.2
 40
0.2
 40
0.2
 40
0.3
 40
0.3
 40
0.3
 40
0.3
 40
0.4
 40
0.4
 40
0.4
 40
0.4
 40
0.5
 40
0.5
 40
0.5
 40
0.5
 40
0.6
 40
0.6
 40
0.6
 40
0.6
 40
0.7
 40
0.7
 40
0.7
 40
0.7
 40
0.7999999999999999
 40
0.7999999999999999
 40
0.7999999999999999
 40
0.7999999999999999
 40
0.8999999999999999
 40
0.8999999999999999
 40
0.8999999999999999
 40
0.8999999999999999
 40
1.0
 40
1.0
 40
1.0
 40
1.0
 10
-0.549476377952756
 20
-1.0451299212598426
 30
0.0
 10
-0.549476377952756
 20
-1.0451299212598426
 30
0.0
 10
0.1087952755905512
 20
-0.6691181102362205
 30
0.0
 10
0.1087952755905512
 20
-0.6691181102362205
 30
0.0
 10
0.1087952755905512
 20
-0.6691181102362205
 30
0.0
 10
0.1087952755905512
 20
-0.6691181102362205
 30
0.0
 10
0.1012283464566929
 20
-0.6586338582677166
 30
0.0
 10
0.1012283464566929
 20
-0.6586338582677166
 30
0.0
 10
0.1012283464566929
 20
-0.6586338582677166
 30
0.0
 10
0.1012283464566929
 20
-0.6586338582677166
 30
0.0
 10
0.0942716535433071
 20
-0.648255905511811
 30
0.0
 10
0.0942716535433071
 20
-0.648255905511811
 30
0.0
 10
0.0942716535433071
 20
-0.648255905511811
 30
0.0
 10
0.0942716535433071
 20
-0.648255905511811
 30
0.0
 10
0.0878897637795276
 20
-0.6379488188976378
 30
0.0
 10
0.0878897637795276
 20
-0.6379488188976378
 30
0.0
 10
0.0878897637795276
 20
-0.6379488188976378
 30
0.0
 10
0.0878897637795276
 20
-0.6379488188976378
 30
0.0
 10
0.0820669291338583
 20
-0.6276535433070867
 30
0.0
 10
0.0820669291338583
 20
-0.6276535433070867
 30
0.0
 10
0.0820669291338583
 20
-0.6276535433070867
 30
0.0
 10
0.0820669291338583
 20
-0.6276535433070867
 30
0.0
 10
-0.5762047244094488
 20
-1.0036653543307088
 30
0.0
 10
-0.5762047244094488
 20
-1.0036653543307088
 30
0.0
 10
-0.5762047244094488
 20
-1.0036653543307088
 30
0.0
 10
-0.5762047244094488
 20
-1.0036653543307088
 30
0.0
 10
-0.5703818897637796
 20
-1.0139606299212598
 30
0.0
 10
-0.5703818897637796
 20
-1.0139606299212598
 30
0.0
 10
-0.5703818897637796
 20
-1.0139606299212598
 30
0.0
 10
-0.5703818897637796
 20
-1.0139606299212598
 30
0.0
 10
-0.5640000000000001
 20
-1.024267716535433
 30
0.0
 10
-0.5640000000000001
 20
-1.024267716535433
 30
0.0
 10
-0.5640000000000001
 20
-1.024267716535433
 30
0.0
 10
-0.5640000000000001
 20
-1.024267716535433
 30
0.0
 10
-0.5570433070866142
 20
-1.0346456692913386
 30
0.0
 10
-0.5570433070866142
 20
-1.0346456692913386
 30
0.0
 10
-0.5570433070866142
 20
-1.0346456692913386
 30
0.0
 10
-0.5570433070866142
 20
-1.0346456692913386
 30
0.0
 10
-0.549476377952756
 20
-1.0451299212598426
 30
0.0
 10
-0.549476377952756
 20
-1.0451299212598426
 30
0.0
  0
SPLINE
  5
52
100
AcDbEntity
  8
P1-Layer 1
 62
     9
100
AcDbSpline
210
0.0
220
0.0
230
1.0
 70
     1
 71
     3
 72
    44
 73
    40
 74
     0
 42
0.0000000001
 43
0.0000000001
 40
0.0
 40
0.0
 40
0.0
 40
0.0
 40
0.1
 40
0.1
 40
0.1
 40
0.1
 40
0.2
 40
0.2
 40
0.2
 40
0.2
 40
0.3
 40
0.3
 40
0.3
 40
0.3
 40
0.4
 40
0.4
 40
0.4
 40
0.4
 40
0.5
 40
0.5
 40
0.5
 40
0.5
 40
0.6
 40
0.6
 40
0.6
 40
0.6
 40
0.7
 40
0.7
 40
0.7
 40
0.7
 40
0.7999999999999999
 40
0.7999999999999999
 40
0.7999999999999999
 40
0.7999999999999999
 40
0.8999999999999999
 40
0.8999999999999999
 40
0.8999999999999999
 40
0.8999999999999999
 40
1.0
 40
1.0
 40
1.0
 40
1.0
 10
-0.5762047244094488
 20
-1.0036653543307088
 30
0.0
 10
-0.5762047244094488
 20
-1.0036653543307088
 30
0.0
 10
0.0820669291338583
 20
-0.6276535433070867
 30
0.0
 10
0.0820669291338583
 20
-0.6276535433070867
 30
0.0
 10
0.0820669291338583
 20
-0.6276535433070867
 30
0.0
 10
0.0820669291338583
 20
-0.6276535433070867
 30
0.0
 10
0.0767677165354331
 20
-0.6173425196850394
 30
0.0
 10
0.0767677165354331
 20
-0.6173425196850394
 30
0.0
 10
0.0767677165354331
 20
-0.6173425196850394
 30
0.0
 10
0.0767677165354331
 20
-0.6173425196850394
 30
0.0
 10
0.071988188976378
 20
-0.6069409448818898
 30
0.0
 10
0.071988188976378
 20
-0.6069409448818898
 30
0.0
 10
0.071988188976378
 20
-0.6069409448818898
 30
0.0
 10
0.071988188976378
 20
-0.6069409448818898
 30
0.0
 10
0.0676929133858268
 20
-0.5964291338582678
 30
0.0
 10
0.0676929133858268
 20
-0.5964291338582678
 30
0.0
 10
0.0676929133858268
 20
-0.5964291338582678
 30
0.0
 10
0.0676929133858268
 20
-0.5964291338582678
 30
0.0
 10
0.0638622047244095
 20
-0.585744094488189
 30
0.0
 10
0.0638622047244095
 20
-0.585744094488189
 30
0.0
 10
0.0638622047244095
 20
-0.585744094488189
 30
0.0
 10
0.0638622047244095
 20
-0.585744094488189
 30
0.0
 10
-0.5944094488188977
 20
-0.961755905511811
 30
0.0
 10
-0.5944094488188977
 20
-0.961755905511811
 30
0.0
 10
-0.5944094488188977
 20
-0.961755905511811
 30
0.0
 10
-0.5944094488188977
 20
-0.961755905511811
 30
0.0
 10
-0.5905787401574804
 20
-0.9724409448818898
 30
0.0
 10
-0.5905787401574804
 20
-0.9724409448818898
 30
0.0
 10
-0.5905787401574804
 20
-0.9724409448818898
 30
0.0
 10
-0.5905787401574804
 20
-0.9724409448818898
 30
0.0
 10
-0.5862834645669292
 20
-0.9829527559055119
 30
0.0
 10
-0.5862834645669292
 20
-0.9829527559055119
 30
0.0
 10
-0.5862834645669292
 20
-0.9829527559055119
 30
0.0
 10
-0.5862834645669292
 20
-0.9829527559055119
 30
0.0
 10
-0.5815039370078741
 20
-0.9933543307086614
 30
0.0
 10
-0.5815039370078741
 20
-0.9933543307086614
 30
0.0
 10
-0.5815039370078741
 20
-0.9933543307086614
 30
0.0
 10
-0.5815039370078741
 20
-0.9933543307086614
 30
0.0
 10
-0.5762047244094488
 20
-1.0036653543307088
 30
0.0
 10
-0.5762047244094488
 20
-1.0036653543307088
 30
0.0
  0
SPLINE
  5
53
100
AcDbEntity
  8
P1-Layer 1
 62
     9
100
AcDbSpline
210
0.0
220
0.0
230
1.0
 70
     1
 71
     3
 72
    44
 73
    40
 74
     0
 42
0.0000000001
 43
0.0000000001
 40
0.0
 40
0.0
 40
0.0
 40
0.0
 40
0.1
 40
0.1
 40
0.1
 40
0.1
 40
0.2
 40
0.2
 40
0.2
 40
0.2
 40
0.3
 40
0.3
 40
0.3
 40
0.3
 40
0.4
 40
0.4
 40
0.4
 40
0.4
 40
0.5
 40
0.5
 40
0.5
 40
0.5
 40
0.6
 40
0.6
 40
0.6
 40
0.6
 40
0.7
 40
0.7
 40
0.7
 40
0.7
 40
0.7999999999999999
 40
0.7999999999999999
 40
0.7999999999999999
 40
0.7999999999999999
 40
0.8999999999999999
 40
0.8999999999999999
 40
0.8999999999999999
 40
0.8999999999999999
 40
1.0
 40
1.0
 40
1.0
 40
1.0
 10
-0.5944094488188977
 20
-0.961755905511811
 30
0.0
 10
-0.5944094488188977
 20
-0.961755905511811
 30
0.0
 10
0.0638622047244095
 20
-0.585744094488189
 30
0.0
 10
0.0638622047244095
 20
-0.585744094488189
 30
0.0
 10
0.0638622047244095
 20
-0.585744094488189
 30
0.0
 10
0.0638622047244095
 20
-0.585744094488189
 30
0.0
 10
0.0604645669291339
 20
-0.5748464566929135
 30
0.0
 10
0.0604645669291339
 20
-0.5748464566929135
 30
0.0
 10
0.0604645669291339
 20
-0.5748464566929135
 30
0.0
 10
0.0604645669291339
 20
-0.5748464566929135
 30
0.0
 10
0.057488188976378
 20
-0.5636771653543308
 30
0.0
 10
0.057488188976378
 20
-0.5636771653543308
 30
0.0
 10
0.057488188976378
 20
-0.5636771653543308
 30
0.0
 10
0.057488188976378
 20
-0.5636771653543308
 30
0.0
 10
0.0549055118110236
 20
-0.5522047244094488
 30
0.0
 10
0.0549055118110236
 20
-0.5522047244094488
 30
0.0
 10
0.0549055118110236
 20
-0.5522047244094488
 30
0.0
 10
0.0549055118110236
 20
-0.5522047244094488
 30
0.0
 10
0.0526968503937008
 20
-0.5403700787401575
 30
0.0
 10
0.0526968503937008
 20
-0.5403700787401575
 30
0.0
 10
0.0526968503937008
 20
-0.5403700787401575
 30
0.0
 10
0.0526968503937008
 20
-0.5403700787401575
 30
0.0
 10
-0.6055748031496063
 20
-0.9163818897637795
 30
0.0
 10
-0.6055748031496063
 20
-0.9163818897637795
 30
0.0
 10
-0.6055748031496063
 20
-0.9163818897637795
 30
0.0
 10
-0.6055748031496063
 20
-0.9163818897637795
 30
0.0
 10
-0.6033661417322835
 20
-0.9282165354330709
 30
0.0
 10
-0.6033661417322835
 20
-0.9282165354330709
 30
0.0
 10
-0.6033661417322835
 20
-0.9282165354330709
 30
0.0
 10
-0.6033661417322835
 20
-0.9282165354330709
 30
0.0
 10
-0.6007834645669291
 20
-0.9396889763779528
 30
0.0
 10
-0.6007834645669291
 20
-0.9396889763779528
 30
0.0
 10
-0.6007834645669291
 20
-0.9396889763779528
 30
0.0
 10
-0.6007834645669291
 20
-0.9396889763779528
 30
0.0
 10
-0.5978070866141733
 20
-0.9508582677165355
 30
0.0
 10
-0.5978070866141733
 20
-0.9508582677165355
 30
0.0
 10
-0.5978070866141733
 20
-0.9508582677165355
 30
0.0
 10
-0.5978070866141733
 20
-0.9508582677165355
 30
0.0
 10
-0.5944094488188977
 20
-0.961755905511811
 30
0.0
 10
-0.5944094488188977
 20
-0.961755905511811
 30
0.0
  0
SPLINE
  5
54
100
AcDbEntity
  8
P1-Layer 1
 62
     9
100
AcDbSpline
210
0.0
220
0.0
230
1.0
 70
     1
 71
     3
 72
    36
 73
    32
 74
     0
 42
0.0000000001
 43
0.0000000001
 40
0.0
 40
0.0
 40
0.0
 40
0.0
 40
0.125
 40
0.125
 40
0.125
 40
0.125
 40
0.25
 40
0.25
 40
0.25
 40
0.25
 40
0.375
 40
0.375
 40
0.375
 40
0.375
 40
0.5
 40
0.5
 40
0.5
 40
0.5
 40
0.625
 40
0.625
 40
0.625
 40
0.625
 40
0.75
 40
0.75
 40
0.75
 40
0.75
 40
0.875
 40
0.875
 40
0.875
 40
0.875
 40
1.0
 40
1.0
 40
1.0
 40
1.0
 10
-0.6055748031496063
 20
-0.9163818897637795
 30
0.0
 10
-0.6055748031496063
 20
-0.9163818897637795
 30
0.0
 10
0.0526968503937008
 20
-0.5403700787401575
 30
0.0
 10
0.0526968503937008
 20
-0.5403700787401575
 30
0.0
 10
0.0526968503937008
 20
-0.5403700787401575
 30
0.0
 10
0.0526968503937008
 20
-0.5403700787401575
 30
0.0
 10
0.0508267716535433
 20
-0.5281377952755906
 30
0.0
 10
0.0508267716535433
 20
-0.5281377952755906
 30
0.0
 10
0.0508267716535433
 20
-0.5281377952755906
 30
0.0
 10
0.0508267716535433
 20
-0.5281377952755906
 30
0.0
 10
0.0492913385826772
 20
-0.5154409448818897
 30
0.0
 10
0.0492913385826772
 20
-0.5154409448818897
 30
0.0
 10
0.0492913385826772
 20
-0.5154409448818897
 30
0.0
 10
0.0492913385826772
 20
-0.5154409448818897
 30
0.0
 10
0.0480551181102362
 20
-0.5022519685039371
 30
0.0
 10
0.0480551181102362
 20
-0.5022519685039371
 30
0.0
 10
0.0480551181102362
 20
-0.5022519685039371
 30
0.0
 10
0.0480551181102362
 20
-0.5022519685039371
 30
0.0
 10
-0.6102165354330709
 20
-0.8782637795275591
 30
0.0
 10
-0.6102165354330709
 20
-0.8782637795275591
 30
0.0
 10
-0.6102165354330709
 20
-0.8782637795275591
 30
0.0
 10
-0.6102165354330709
 20
-0.8782637795275591
 30
0.0
 10
-0.60898031496063
 20
-0.8914527559055119
 30
0.0
 10
-0.60898031496063
 20
-0.8914527559055119
 30
0.0
 10
-0.60898031496063
 20
-0.8914527559055119
 30
0.0
 10
-0.60898031496063
 20
-0.8914527559055119
 30
0.0
 10
-0.6074448818897638
 20
-0.9041496062992126
 30
0.0
 10
-0.6074448818897638
 20
-0.9041496062992126
 30
0.0
 10
-0.6074448818897638
 20
-0.9041496062992126
 30
0.0
 10
-0.6074448818897638
 20
-0.9041496062992126
 30
0.0
 10
-0.6055748031496063
 20
-0.9163818897637795
 30
0.0
 10
-0.6055748031496063
 20
-0.9163818897637795
 30
0.0
  0
SPLINE
  5
55
100
AcDbEntity
  8
P1-Layer 1
 62
     9
100
AcDbSpline
210
0.0
220
0.0
230
1.0
 70
     1
 71
     3
 72
    36
 73
    32
 74
     0
 42
0.0000000001
 43
0.0000000001
 40
0.0
 40
0.0
 40
0.0
 40
0.0
 40
0.125
 40
0.125
 40
0.125
 40
0.125
 40
0.25
 40
0.25
 40
0.25
 40
0.25
 40
0.375
 40
0.375
 40
0.375
 40
0.375
 40
0.5
 40
0.5
 40
0.5
 40
0.5
 40
0.625
 40
0.625
 40
0.625
 40
0.625
 40
0.75
 40
0.75
 40
0.75
 40
0.75
 40
0.875
 40
0.875
 40
0.875
 40
0.875
 40
1.0
 40
1.0
 40
1.0
 40
1.0
 10
-0.6102165354330709
 20
-0.8782637795275591
 30
0.0
 10
-0.6102165354330709
 20
-0.8782637795275591
 30
0.0
 10
0.0480551181102362
 20
-0.5022519685039371
 30
0.0
 10
0.0480551181102362
 20
-0.5022519685039371
 30
0.0
 10
0.0480551181102362
 20
-0.5022519685039371
 30
0.0
 10
0.0480551181102362
 20
-0.5022519685039371
 30
0.0
 10
0.0470944881889764
 20
-0.4885157480314961
 30
0.0
 10
0.0470944881889764
 20
-0.4885157480314961
 30
0.0
 10
0.0470944881889764
 20
-0.4885157480314961
 30
0.0
 10
0.0470944881889764
 20
-0.4885157480314961
 30
0.0
 10
0.0463858267716535
 20
-0.4741929133858268
 30
0.0
 10
0.0463858267716535
 20
-0.4741929133858268
 30
0.0
 10
0.0463858267716535
 20
-0.4741929133858268
 30
0.0
 10
0.0463858267716535
 20
-0.4741929133858268
 30
0.0
 10
0.0459133858267717
 20
-0.4592204724409449
 30
0.0
 10
0.0459133858267717
 20
-0.4592204724409449
 30
0.0
 10
0.0459133858267717
 20
-0.4592204724409449
 30
0.0
 10
0.0459133858267717
 20
-0.4592204724409449
 30
0.0
 10
-0.6123582677165355
 20
-0.835232283464567
 30
0.0
 10
-0.6123582677165355
 20
-0.835232283464567
 30
0.0
 10
-0.6123582677165355
 20
-0.835232283464567
 30
0.0
 10
-0.6123582677165355
 20
-0.835232283464567
 30
0.0
 10
-0.6118858267716536
 20
-0.8502047244094488
 30
0.0
 10
-0.6118858267716536
 20
-0.8502047244094488
 30
0.0
 10
-0.6118858267716536
 20
-0.8502047244094488
 30
0.0
 10
-0.6118858267716536
 20
-0.8502047244094488
 30
0.0
 10
-0.6111771653543308
 20
-0.8645275590551181
 30
0.0
 10
-0.6111771653543308
 20
-0.8645275590551181
 30
0.0
 10
-0.6111771653543308
 20
-0.8645275590551181
 30
0.0
 10
-0.6111771653543308
 20
-0.8645275590551181
 30
0.0
 10
-0.6102165354330709
 20
-0.8782637795275591
 30
0.0
 10
-0.6102165354330709
 20
-0.8782637795275591
 30
0.0
  0
SPLINE
  5
56
100
AcDbEntity
  8
P1-Layer 1
 62
     9
100
AcDbSpline
210
0.0
220
0.0
230
1.0
 70
     1
 71
     3
 72
    36
 73
    32
 74
     0
 42
0.0000000001
 43
0.0000000001
 40
0.0
 40
0.0
 40
0.0
 40
0.0
 40
0.125
 40
0.125
 40
0.125
 40
0.125
 40
0.25
 40
0.25
 40
0.25
 40
0.25
 40
0.375
 40
0.375
 40
0.375
 40
0.375
 40
0.5
 40
0.5
 40
0.5
 40
0.5
 40
0.625
 40
0.625
 40
0.625
 40
0.625
 40
0.75
 40
0.75
 40
0.75
 40
0.75
 40
0.875
 40
0.875
 40
0.875
 40
0.875
 40
1.0
 40
1.0
 40
1.0
 40
1.0
 10
-0.6123582677165355
 20
-0.835232283464567
 30
0.0
 10
-0.6123582677165355
 20
-0.835232283464567
 30
0.0
 10
0.0459133858267717
 20
-0.4592204724409449
 30
0.0
 10
0.0459133858267717
 20
-0.4592204724409449
 30
0.0
 10
0.0459133858267717
 20
-0.4592204724409449
 30
0.0
 10
0.0459133858267717
 20
-0.4592204724409449
 30
0.0
 10
0.0456496062992126
 20
-0.4435669291338583
 30
0.0
 10
0.0456496062992126
 20
-0.4435669291338583
 30
0.0
 10
0.0456496062992126
 20
-0.4435669291338583
 30
0.0
 10
0.0456496062992126
 20
-0.4435669291338583
 30
0.0
 10
0.0455748031496063
 20
-0.4271771653543307
 30
0.0
 10
0.0455748031496063
 20
-0.4271771653543307
 30
0.0
 10
0.0455748031496063
 20
-0.4271771653543307
 30
0.0
 10
0.0455748031496063
 20
-0.4271771653543307
 30
0.0
 10
0.0456535433070866
 20
-0.4100078740157481
 30
0.0
 10
0.0456535433070866
 20
-0.4100078740157481
 30
0.0
 10
0.0456535433070866
 20
-0.4100078740157481
 30
0.0
 10
0.0456535433070866
 20
-0.4100078740157481
 30
0.0
 10
-0.6126181102362205
 20
-0.7860196850393701
 30
0.0
 10
-0.6126181102362205
 20
-0.7860196850393701
 30
0.0
 10
-0.6126181102362205
 20
-0.7860196850393701
 30
0.0
 10
-0.6126181102362205
 20
-0.7860196850393701
 30
0.0
 10
-0.6126968503937008
 20
-0.8031889763779528
 30
0.0
 10
-0.6126968503937008
 20
-0.8031889763779528
 30
0.0
 10
-0.6126968503937008
 20
-0.8031889763779528
 30
0.0
 10
-0.6126968503937008
 20
-0.8031889763779528
 30
0.0
 10
-0.6126220472440945
 20
-0.8195787401574803
 30
0.0
 10
-0.6126220472440945
 20
-0.8195787401574803
 30
0.0
 10
-0.6126220472440945
 20
-0.8195787401574803
 30
0.0
 10
-0.6126220472440945
 20
-0.8195787401574803
 30
0.0
 10
-0.6123582677165355
 20
-0.835232283464567
 30
0.0
 10
-0.6123582677165355
 20
-0.835232283464567
 30
0.0
  0
SPLINE
  5
57
100
AcDbEntity
  8
P1-Layer 1
370
     5
100
AcDbSpline
210
0.0
220
0.0
230
1.0
 70
     1
 71
     3
 72
   476
 73
   472
 74
     0
 42
0.0000000001
 43
0.0000000001
 40
0.0
 40
0.0
 40
0.0
 40
0.0
 40
0.0084745762711864
 40
0.0084745762711864
 40
0.0084745762711864
 40
0.0084745762711864
 40
0.0169491525423729
 40
0.0169491525423729
 40
0.0169491525423729
 40
0.0169491525423729
 40
0.0254237288135593
 40
0.0254237288135593
 40
0.0254237288135593
 40
0.0254237288135593
 40
0.0338983050847458
 40
0.0338983050847458
 40
0.0338983050847458
 40
0.0338983050847458
 40
0.0423728813559322
 40
0.0423728813559322
 40
0.0423728813559322
 40
0.0423728813559322
 40
0.0508474576271186
 40
0.0508474576271186
 40
0.0508474576271186
 40
0.0508474576271186
 40
0.0593220338983051
 40
0.0593220338983051
 40
0.0593220338983051
 40
0.0593220338983051
 40
0.0677966101694915
 40
0.0677966101694915
 40
0.0677966101694915
 40
0.0677966101694915
 40
0.076271186440678
 40
0.076271186440678
 40
0.076271186440678
 40
0.076271186440678
 40
0.0847457627118644
 40
0.0847457627118644
 40
0.0847457627118644
 40
0.0847457627118644
 40
0.0932203389830509
 40
0.0932203389830509
 40
0.0932203389830509
 40
0.0932203389830509
 40
0.1016949152542373
 40
0.1016949152542373
 40
0.1016949152542373
 40
0.1016949152542373
 40
0.1101694915254238
 40
0.1101694915254238
 40
0.1101694915254238
 40
0.1101694915254238
 40
0.1186440677966102
 40
0.1186440677966102
 40
0.1186440677966102
 40
0.1186440677966102
 40
0.1271186440677966
 40
0.1271186440677966
 40
0.1271186440677966
 40
0.1271186440677966
 40
0.1355932203389831
 40
0.1355932203389831
 40
0.1355932203389831
 40
0.1355932203389831
 40
0.1440677966101695
 40
0.1440677966101695
 40
0.1440677966101695
 40
0.1440677966101695
 40
0.152542372881356
 40
0.152542372881356
 40
0.152542372881356
 40
0.152542372881356
 40
0.1610169491525424
 40
0.1610169491525424
 40
0.1610169491525424
 40
0.1610169491525424
 40
0.1694915254237289
 40
0.1694915254237289
 40
0.1694915254237289
 40
0.1694915254237289
 40
0.1779661016949153
 40
0.1779661016949153
 40
0.1779661016949153
 40
0.1779661016949153
 40
0.1864406779661018
 40
0.1864406779661018
 40
0.1864406779661018
 40
0.1864406779661018
 40
0.1949152542372882
 40
0.1949152542372882
 40
0.1949152542372882
 40
0.1949152542372882
 40
0.2033898305084746
 40
0.2033898305084746
 40
0.2033898305084746
 40
0.2033898305084746
 40
0.2118644067796611
 40
0.2118644067796611
 40
0.2118644067796611
 40
0.2118644067796611
 40
0.2203389830508475
 40
0.2203389830508475
 40
0.2203389830508475
 40
0.2203389830508475
 40
0.228813559322034
 40
0.228813559322034
 40
0.228813559322034
 40
0.228813559322034
 40
0.2372881355932204
 40
0.2372881355932204
 40
0.2372881355932204
 40
0.2372881355932204
 40
0.2457627118644069
 40
0.2457627118644069
 40
0.2457627118644069
 40
0.2457627118644069
 40
0.2542372881355933
 40
0.2542372881355933
 40
0.2542372881355933
 40
0.2542372881355933
 40
0.2627118644067797
 40
0.2627118644067797
 40
0.2627118644067797
 40
0.2627118644067797
 40
0.2711864406779662
 40
0.2711864406779662
 40
0.2711864406779662
 40
0.2711864406779662
 40
0.2796610169491526
 40
0.2796610169491526
 40
0.2796610169491526
 40
0.2796610169491526
 40
0.288135593220339
 40
0.288135593220339
 40
0.288135593220339
 40
0.288135593220339
 40
0.2966101694915254
 40
0.2966101694915254
 40
0.2966101694915254
 40
0.2966101694915254
 40
0.3050847457627118
 40
0.3050847457627118
 40
0.3050847457627118
 40
0.3050847457627118
 40
0.3135593220338983
 40
0.3135593220338983
 40
0.3135593220338983
 40
0.3135593220338983
 40
0.3220338983050847
 40
0.3220338983050847
 40
0.3220338983050847
 40
0.3220338983050847
 40
0.3305084745762711
 40
0.3305084745762711
 40
0.3305084745762711
 40
0.3305084745762711
 40
0.3389830508474575
 40
0.3389830508474575
 40
0.3389830508474575
 40
0.3389830508474575
 40
0.3474576271186439
 40
0.3474576271186439
 40
0.3474576271186439
 40
0.3474576271186439
 40
0.3559322033898303
 40
0.3559322033898303
 40
0.3559322033898303
 40
0.3559322033898303
 40
0.3644067796610168
 40
0.3644067796610168
 40
0.3644067796610168
 40
0.3644067796610168
 40
0.3728813559322032
 40
0.3728813559322032
 40
0.3728813559322032
 40
0.3728813559322032
 40
0.3813559322033896
 40
0.3813559322033896
 40
0.3813559322033896
 40
0.3813559322033896
 40
0.389830508474576
 40
0.389830508474576
 40
0.389830508474576
 40
0.389830508474576
 40
0.3983050847457624
 40
0.3983050847457624
 40
0.3983050847457624
 40
0.3983050847457624
 40
0.4067796610169489
 40
0.4067796610169489
 40
0.4067796610169489
 40
0.4067796610169489
 40
0.4152542372881353
 40
0.4152542372881353
 40
0.4152542372881353
 40
0.4152542372881353
 40
0.4237288135593217
 40
0.4237288135593217
 40
0.4237288135593217
 40
0.4237288135593217
 40
0.4322033898305081
 40
0.4322033898305081
 40
0.4322033898305081
 40
0.4322033898305081
 40
0.4406779661016945
 40
0.4406779661016945
 40
0.4406779661016945
 40
0.4406779661016945
 40
0.4491525423728809
 40
0.4491525423728809
 40
0.4491525423728809
 40
0.4491525423728809
 40
0.4576271186440674
 40
0.4576271186440674
 40
0.4576271186440674
 40
0.4576271186440674
 40
0.4661016949152538
 40
0.4661016949152538
 40
0.4661016949152538
 40
0.4661016949152538
 40
0.4745762711864402
 40
0.4745762711864402
 40
0.4745762711864402
 40
0.4745762711864402
 40
0.4830508474576266
 40
0.4830508474576266
 40
0.4830508474576266
 40
0.4830508474576266
 40
0.491525423728813
 40
0.491525423728813
 40
0.491525423728813
 40
0.491525423728813
 40
0.4999999999999994
 40
0.4999999999999994
 40
0.4999999999999994
 40
0.4999999999999994
 40
0.5084745762711859
 40
0.5084745762711859
 40
0.5084745762711859
 40
0.5084745762711859
 40
0.5169491525423723
 40
0.5169491525423723
 40
0.5169491525423723
 40
0.5169491525423723
 40
0.5254237288135587
 40
0.5254237288135587
 40
0.5254237288135587
 40
0.5254237288135587
 40
0.5338983050847451
 40
0.5338983050847451
 40
0.5338983050847451
 40
0.5338983050847451
 40
0.5423728813559315
 40
0.5423728813559315
 40
0.5423728813559315
 40
0.5423728813559315
 40
0.550847457627118
 40
0.550847457627118
 40
0.550847457627118
 40
0.550847457627118
 40
0.5593220338983044
 40
0.5593220338983044
 40
0.5593220338983044
 40
0.5593220338983044
 40
0.5677966101694908
 40
0.5677966101694908
 40
0.5677966101694908
 40
0.5677966101694908
 40
0.5762711864406772
 40
0.5762711864406772
 40
0.5762711864406772
 40
0.5762711864406772
 40
0.5847457627118636
 40
0.5847457627118636
 40
0.5847457627118636
 40
0.5847457627118636
 40
0.59322033898305
 40
0.59322033898305
 40
0.59322033898305
 40
0.59322033898305
 40
0.6016949152542365
 40
0.6016949152542365
 40
0.6016949152542365
 40
0.6016949152542365
 40
0.6101694915254229
 40
0.6101694915254229
 40
0.6101694915254229
 40
0.6101694915254229
 40
0.6186440677966093
 40
0.6186440677966093
 40
0.6186440677966093
 40
0.6186440677966093
 40
0.6271186440677957
 40
0.6271186440677957
 40
0.6271186440677957
 40
0.6271186440677957
 40
0.6355932203389821
 40
0.6355932203389821
 40
0.6355932203389821
 40
0.6355932203389821
 40
0.6440677966101686
 40
0.6440677966101686
 40
0.6440677966101686
 40
0.6440677966101686
 40
0.652542372881355
 40
0.652542372881355
 40
0.652542372881355
 40
0.652542372881355
 40
0.6610169491525414
 40
0.6610169491525414
 40
0.6610169491525414
 40
0.6610169491525414
 40
0.6694915254237278
 40
0.6694915254237278
 40
0.6694915254237278
 40
0.6694915254237278
 40
0.6779661016949142
 40
0.6779661016949142
 40
0.6779661016949142
 40
0.6779661016949142
 40
0.6864406779661006
 40
0.6864406779661006
 40
0.6864406779661006
 40
0.6864406779661006
 40
0.6949152542372871
 40
0.6949152542372871
 40
0.6949152542372871
 40
0.6949152542372871
 40
0.7033898305084735
 40
0.7033898305084735
 40
0.7033898305084735
 40
0.7033898305084735
 40
0.7118644067796599
 40
0.7118644067796599
 40
0.7118644067796599
 40
0.7118644067796599
 40
0.7203389830508463
 40
0.7203389830508463
 40
0.7203389830508463
 40
0.7203389830508463
 40
0.7288135593220327
 40
0.7288135593220327
 40
0.7288135593220327
 40
0.7288135593220327
 40
0.7372881355932192
 40
0.7372881355932192
 40
0.7372881355932192
 40
0.7372881355932192
 40
0.7457627118644056
 40
0.7457627118644056
 40
0.7457627118644056
 40
0.7457627118644056
 40
0.754237288135592
 40
0.754237288135592
 40
0.754237288135592
 40
0.754237288135592
 40
0.7627118644067784
 40
0.7627118644067784
 40
0.7627118644067784
 40
0.7627118644067784
 40
0.7711864406779648
 40
0.7711864406779648
 40
0.7711864406779648
 40
0.7711864406779648
 40
0.7796610169491512
 40
0.7796610169491512
 40
0.7796610169491512
 40
0.7796610169491512
 40
0.7881355932203377
 40
0.7881355932203377
 40
0.7881355932203377
 40
0.7881355932203377
 40
0.7966101694915241
 40
0.7966101694915241
 40
0.7966101694915241
 40
0.7966101694915241
 40
0.8050847457627105
 40
0.8050847457627105
 40
0.8050847457627105
 40
0.8050847457627105
 40
0.8135593220338969
 40
0.8135593220338969
 40
0.8135593220338969
 40
0.8135593220338969
 40
0.8220338983050833
 40
0.8220338983050833
 40
0.8220338983050833
 40
0.8220338983050833
 40
0.8305084745762698
 40
0.8305084745762698
 40
0.8305084745762698
 40
0.8305084745762698
 40
0.8389830508474562
 40
0.8389830508474562
 40
0.8389830508474562
 40
0.8389830508474562
 40
0.8474576271186426
 40
0.8474576271186426
 40
0.8474576271186426
 40
0.8474576271186426
 40
0.855932203389829
 40
0.855932203389829
 40
0.855932203389829
 40
0.855932203389829
 40
0.8644067796610154
 40
0.8644067796610154
 40
0.8644067796610154
 40
0.8644067796610154
 40
0.8728813559322018
 40
0.8728813559322018
 40
0.8728813559322018
 40
0.8728813559322018
 40
0.8813559322033883
 40
0.8813559322033883
 40
0.8813559322033883
 40
0.8813559322033883
 40
0.8898305084745747
 40
0.8898305084745747
 40
0.8898305084745747
 40
0.8898305084745747
 40
0.8983050847457611
 40
0.8983050847457611
 40
0.8983050847457611
 40
0.8983050847457611
 40
0.9067796610169475
 40
0.9067796610169475
 40
0.9067796610169475
 40
0.9067796610169475
 40
0.9152542372881339
 40
0.9152542372881339
 40
0.9152542372881339
 40
0.9152542372881339
 40
0.9237288135593204
 40
0.9237288135593204
 40
0.9237288135593204
 40
0.9237288135593204
 40
0.9322033898305068
 40
0.9322033898305068
 40
0.9322033898305068
 40
0.9322033898305068
 40
0.9406779661016932
 40
0.9406779661016932
 40
0.9406779661016932
 40
0.9406779661016932
 40
0.9491525423728796
 40
0.9491525423728796
 40
0.9491525423728796
 40
0.9491525423728796
 40
0.957627118644066
 40
0.957627118644066
 40
0.957627118644066
 40
0.957627118644066
 40
0.9661016949152524
 40
0.9661016949152524
 40
0.9661016949152524
 40
0.9661016949152524
 40
0.9745762711864389
 40
0.9745762711864389
 40
0.9745762711864389
 40
0.9745762711864389
 40
0.9830508474576253
 40
0.9830508474576253
 40
0.9830508474576253
 40
0.9830508474576253
 40
0.9915254237288117
 40
0.9915254237288117
 40
0.9915254237288117
 40
0.9915254237288117
 40
1.0
 40
1.0
 40
1.0
 40
1.0
 10
-0.3924212598425197
 20
-1.5579685039370079
 30
0.0
 10
-0.3924212598425197
 20
-1.5579685039370079
 30
0.0
 10
0.2658503937007874
 20
-1.1819566929133858
 30
0.0
 10
0.2658503937007874
 20
-1.1819566929133858
 30
0.0
 10
0.2658503937007874
 20
-1.1819566929133858
 30
0.0
 10
0.2658503937007874
 20
-1.1819566929133858
 30
0.0
 10
0.2787755905511811
 20
-1.173484251968504
 30
0.0
 10
0.2787755905511811
 20
-1.173484251968504
 30
0.0
 10
0.2787755905511811
 20
-1.173484251968504
 30
0.0
 10
0.2787755905511811
 20
-1.173484251968504
 30
0.0
 10
0.2906141732283465
 20
-1.1641299212598426
 30
0.0
 10
0.2906141732283465
 20
-1.1641299212598426
 30
0.0
 10
0.2906141732283465
 20
-1.1641299212598426
 30
0.0
 10
0.2906141732283465
 20
-1.1641299212598426
 30
0.0
 10
0.3013818897637796
 20
-1.1539251968503939
 30
0.0
 10
0.3013818897637796
 20
-1.1539251968503939
 30
0.0
 10
0.3013818897637796
 20
-1.1539251968503939
 30
0.0
 10
0.3013818897637796
 20
-1.1539251968503939
 30
0.0
 10
0.3110551181102362
 20
-1.1429370078740158
 30
0.0
 10
0.3110551181102362
 20
-1.1429370078740158
 30
0.0
 10
0.3110551181102362
 20
-1.1429370078740158
 30
0.0
 10
0.3110551181102362
 20
-1.1429370078740158
 30
0.0
 10
0.3196338582677166
 20
-1.1312125984251968
 30
0.0
 10
0.3196338582677166
 20
-1.1312125984251968
 30
0.0
 10
0.3196338582677166
 20
-1.1312125984251968
 30
0.0
 10
0.3196338582677166
 20
-1.1312125984251968
 30
0.0
 10
0.3271102362204725
 20
-1.1188070866141733
 30
0.0
 10
0.3271102362204725
 20
-1.1188070866141733
 30
0.0
 10
0.3271102362204725
 20
-1.1188070866141733
 30
0.0
 10
0.3271102362204725
 20
-1.1188070866141733
 30
0.0
 10
0.3334881889763779
 20
-1.1057598425196851
 30
0.0
 10
0.3334881889763779
 20
-1.1057598425196851
 30
0.0
 10
0.3334881889763779
 20
-1.1057598425196851
 30
0.0
 10
0.3334881889763779
 20
-1.1057598425196851
 30
0.0
 10
0.3387559055118111
 20
-1.0921338582677165
 30
0.0
 10
0.3387559055118111
 20
-1.0921338582677165
 30
0.0
 10
0.3387559055118111
 20
-1.0921338582677165
 30
0.0
 10
0.3387559055118111
 20
-1.0921338582677165
 30
0.0
 10
0.3429094488188977
 20
-1.0779724409448819
 30
0.0
 10
0.3429094488188977
 20
-1.0779724409448819
 30
0.0
 10
0.3429094488188977
 20
-1.0779724409448819
 30
0.0
 10
0.3429094488188977
 20
-1.0779724409448819
 30
0.0
 10
0.3459370078740158
 20
-1.0633385826771653
 30
0.0
 10
0.3459370078740158
 20
-1.0633385826771653
 30
0.0
 10
0.3459370078740158
 20
-1.0633385826771653
 30
0.0
 10
0.3459370078740158
 20
-1.0633385826771653
 30
0.0
 10
0.3478543307086615
 20
-1.0482637795275591
 30
0.0
 10
0.3478543307086615
 20
-1.0482637795275591
 30
0.0
 10
0.3478543307086615
 20
-1.0482637795275591
 30
0.0
 10
0.3478543307086615
 20
-1.0482637795275591
 30
0.0
 10
0.3486338582677165
 20
-1.0328149606299213
 30
0.0
 10
0.3486338582677165
 20
-1.0328149606299213
 30
0.0
 10
0.3486338582677165
 20
-1.0328149606299213
 30
0.0
 10
0.3486338582677165
 20
-1.0328149606299213
 30
0.0
 10
0.3482874015748032
 20
-1.0170393700787401
 30
0.0
 10
0.3482874015748032
 20
-1.0170393700787401
 30
0.0
 10
0.3482874015748032
 20
-1.0170393700787401
 30
0.0
 10
0.3482874015748032
 20
-1.0170393700787401
 30
0.0
 10
0.3467952755905512
 20
-1.000992125984252
 30
0.0
 10
0.3467952755905512
 20
-1.000992125984252
 30
0.0
 10
0.3467952755905512
 20
-1.000992125984252
 30
0.0
 10
0.3467952755905512
 20
-1.000992125984252
 30
0.0
 10
0.3441653543307087
 20
-0.9847125984251969
 30
0.0
 10
0.3441653543307087
 20
-0.9847125984251969
 30
0.0
 10
0.3441653543307087
 20
-0.9847125984251969
 30
0.0
 10
0.3441653543307087
 20
-0.9847125984251969
 30
0.0
 10
0.3403818897637795
 20
-0.9682677165354331
 30
0.0
 10
0.3403818897637795
 20
-0.9682677165354331
 30
0.0
 10
0.3403818897637795
 20
-0.9682677165354331
 30
0.0
 10
0.3403818897637795
 20
-0.9682677165354331
 30
0.0
 10
0.3354448818897638
 20
-0.9516929133858268
 30
0.0
 10
0.3354448818897638
 20
-0.9516929133858268
 30
0.0
 10
0.3354448818897638
 20
-0.9516929133858268
 30
0.0
 10
0.3354448818897638
 20
-0.9516929133858268
 30
0.0
 10
0.3293464566929134
 20
-0.9350590551181103
 30
0.0
 10
0.3293464566929134
 20
-0.9350590551181103
 30
0.0
 10
0.3293464566929134
 20
-0.9350590551181103
 30
0.0
 10
0.3293464566929134
 20
-0.9350590551181103
 30
0.0
 10
0.3220944881889764
 20
-0.9183897637795276
 30
0.0
 10
0.3220944881889764
 20
-0.9183897637795276
 30
0.0
 10
0.3220944881889764
 20
-0.9183897637795276
 30
0.0
 10
0.3220944881889764
 20
-0.9183897637795276
 30
0.0
 10
0.3136653543307087
 20
-0.9017598425196851
 30
0.0
 10
0.3136653543307087
 20
-0.9017598425196851
 30
0.0
 10
0.3136653543307087
 20
-0.9017598425196851
 30
0.0
 10
0.3136653543307087
 20
-0.9017598425196851
 30
0.0
 10
0.3040708661417323
 20
-0.8852086614173229
 30
0.0
 10
0.3040708661417323
 20
-0.8852086614173229
 30
0.0
 10
0.3040708661417323
 20
-0.8852086614173229
 30
0.0
 10
0.3040708661417323
 20
-0.8852086614173229
 30
0.0
 10
0.2932874015748032
 20
-0.8687992125984252
 30
0.0
 10
0.2932874015748032
 20
-0.8687992125984252
 30
0.0
 10
0.2932874015748032
 20
-0.8687992125984252
 30
0.0
 10
0.2932874015748032
 20
-0.8687992125984252
 30
0.0
 10
0.2813267716535433
 20
-0.8525669291338583
 30
0.0
 10
0.2813267716535433
 20
-0.8525669291338583
 30
0.0
 10
0.2813267716535433
 20
-0.8525669291338583
 30
0.0
 10
0.2813267716535433
 20
-0.8525669291338583
 30
0.0
 10
0.2681771653543307
 20
-0.8365708661417323
 30
0.0
 10
0.2681771653543307
 20
-0.8365708661417323
 30
0.0
 10
0.2681771653543307
 20
-0.8365708661417323
 30
0.0
 10
0.2681771653543307
 20
-0.8365708661417323
 30
0.0
 10
0.2538346456692914
 20
-0.8208661417322835
 30
0.0
 10
0.2538346456692914
 20
-0.8208661417322835
 30
0.0
 10
0.2538346456692914
 20
-0.8208661417322835
 30
0.0
 10
0.2538346456692914
 20
-0.8208661417322835
 30
0.0
 10
0.2382874015748032
 20
-0.805503937007874
 30
0.0
 10
0.2382874015748032
 20
-0.805503937007874
 30
0.0
 10
0.2382874015748032
 20
-0.805503937007874
 30
0.0
 10
0.2382874015748032
 20
-0.805503937007874
 30
0.0
 10
0.2225866141732284
 20
-0.7906496062992127
 30
0.0
 10
0.2225866141732284
 20
-0.7906496062992127
 30
0.0
 10
0.2225866141732284
 20
-0.7906496062992127
 30
0.0
 10
0.2225866141732284
 20
-0.7906496062992127
 30
0.0
 10
0.207736220472441
 20
-0.7764330708661418
 30
0.0
 10
0.207736220472441
 20
-0.7764330708661418
 30
0.0
 10
0.207736220472441
 20
-0.7764330708661418
 30
0.0
 10
0.207736220472441
 20
-0.7764330708661418
 30
0.0
 10
0.1937244094488189
 20
-0.7627952755905512
 30
0.0
 10
0.1937244094488189
 20
-0.7627952755905512
 30
0.0
 10
0.1937244094488189
 20
-0.7627952755905512
 30
0.0
 10
0.1937244094488189
 20
-0.7627952755905512
 30
0.0
 10
0.180511811023622
 20
-0.7497007874015749
 30
0.0
 10
0.180511811023622
 20
-0.7497007874015749
 30
0.0
 10
0.180511811023622
 20
-0.7497007874015749
 30
0.0
 10
0.180511811023622
 20
-0.7497007874015749
 30
0.0
 10
0.1680944881889764
 20
-0.7370905511811023
 30
0.0
 10
0.1680944881889764
 20
-0.7370905511811023
 30
0.0
 10
0.1680944881889764
 20
-0.7370905511811023
 30
0.0
 10
0.1680944881889764
 20
-0.7370905511811023
 30
0.0
 10
0.1564370078740158
 20
-0.7249291338582677
 30
0.0
 10
0.1564370078740158
 20
-0.7249291338582677
 30
0.0
 10
0.1564370078740158
 20
-0.7249291338582677
 30
0.0
 10
0.1564370078740158
 20
-0.7249291338582677
 30
0.0
 10
0.1455196850393701
 20
-0.7131614173228347
 30
0.0
 10
0.1455196850393701
 20
-0.7131614173228347
 30
0.0
 10
0.1455196850393701
 20
-0.7131614173228347
 30
0.0
 10
0.1455196850393701
 20
-0.7131614173228347
 30
0.0
 10
0.1353149606299213
 20
-0.7017519685039371
 30
0.0
 10
0.1353149606299213
 20
-0.7017519685039371
 30
0.0
 10
0.1353149606299213
 20
-0.7017519685039371
 30
0.0
 10
0.1353149606299213
 20
-0.7017519685039371
 30
0.0
 10
0.1258149606299213
 20
-0.6906299212598426
 30
0.0
 10
0.1258149606299213
 20
-0.6906299212598426
 30
0.0
 10
0.1258149606299213
 20
-0.6906299212598426
 30
0.0
 10
0.1258149606299213
 20
-0.6906299212598426
 30
0.0
 10
0.1169803149606299
 20
-0.6797755905511811
 30
0.0
 10
0.1169803149606299
 20
-0.6797755905511811
 30
0.0
 10
0.1169803149606299
 20
-0.6797755905511811
 30
0.0
 10
0.1169803149606299
 20
-0.6797755905511811
 30
0.0
 10
0.1087952755905512
 20
-0.6691181102362205
 30
0.0
 10
0.1087952755905512
 20
-0.6691181102362205
 30
0.0
 10
0.1087952755905512
 20
-0.6691181102362205
 30
0.0
 10
0.1087952755905512
 20
-0.6691181102362205
 30
0.0
 10
0.1012283464566929
 20
-0.6586338582677166
 30
0.0
 10
0.1012283464566929
 20
-0.6586338582677166
 30
0.0
 10
0.1012283464566929
 20
-0.6586338582677166
 30
0.0
 10
0.1012283464566929
 20
-0.6586338582677166
 30
0.0
 10
0.0942716535433071
 20
-0.648255905511811
 30
0.0
 10
0.0942716535433071
 20
-0.648255905511811
 30
0.0
 10
0.0942716535433071
 20
-0.648255905511811
 30
0.0
 10
0.0942716535433071
 20
-0.648255905511811
 30
0.0
 10
0.0878897637795276
 20
-0.6379488188976378
 30
0.0
 10
0.0878897637795276
 20
-0.6379488188976378
 30
0.0
 10
0.0878897637795276
 20
-0.6379488188976378
 30
0.0
 10
0.0878897637795276
 20
-0.6379488188976378
 30
0.0
 10
0.0820669291338583
 20
-0.6276535433070867
 30
0.0
 10
0.0820669291338583
 20
-0.6276535433070867
 30
0.0
 10
0.0820669291338583
 20
-0.6276535433070867
 30
0.0
 10
0.0820669291338583
 20
-0.6276535433070867
 30
0.0
 10
0.0767677165354331
 20
-0.6173425196850394
 30
0.0
 10
0.0767677165354331
 20
-0.6173425196850394
 30
0.0
 10
0.0767677165354331
 20
-0.6173425196850394
 30
0.0
 10
0.0767677165354331
 20
-0.6173425196850394
 30
0.0
 10
0.071988188976378
 20
-0.6069409448818898
 30
0.0
 10
0.071988188976378
 20
-0.6069409448818898
 30
0.0
 10
0.071988188976378
 20
-0.6069409448818898
 30
0.0
 10
0.071988188976378
 20
-0.6069409448818898
 30
0.0
 10
0.0676929133858268
 20
-0.5964291338582678
 30
0.0
 10
0.0676929133858268
 20
-0.5964291338582678
 30
0.0
 10
0.0676929133858268
 20
-0.5964291338582678
 30
0.0
 10
0.0676929133858268
 20
-0.5964291338582678
 30
0.0
 10
0.0638622047244095
 20
-0.585744094488189
 30
0.0
 10
0.0638622047244095
 20
-0.585744094488189
 30
0.0
 10
0.0638622047244095
 20
-0.585744094488189
 30
0.0
 10
0.0638622047244095
 20
-0.585744094488189
 30
0.0
 10
0.0604645669291339
 20
-0.5748464566929135
 30
0.0
 10
0.0604645669291339
 20
-0.5748464566929135
 30
0.0
 10
0.0604645669291339
 20
-0.5748464566929135
 30
0.0
 10
0.0604645669291339
 20
-0.5748464566929135
 30
0.0
 10
0.057488188976378
 20
-0.5636771653543308
 30
0.0
 10
0.057488188976378
 20
-0.5636771653543308
 30
0.0
 10
0.057488188976378
 20
-0.5636771653543308
 30
0.0
 10
0.057488188976378
 20
-0.5636771653543308
 30
0.0
 10
0.0549055118110236
 20
-0.5522047244094488
 30
0.0
 10
0.0549055118110236
 20
-0.5522047244094488
 30
0.0
 10
0.0549055118110236
 20
-0.5522047244094488
 30
0.0
 10
0.0549055118110236
 20
-0.5522047244094488
 30
0.0
 10
0.0526968503937008
 20
-0.5403700787401575
 30
0.0
 10
0.0526968503937008
 20
-0.5403700787401575
 30
0.0
 10
0.0526968503937008
 20
-0.5403700787401575
 30
0.0
 10
0.0526968503937008
 20
-0.5403700787401575
 30
0.0
 10
0.0508267716535433
 20
-0.5281377952755906
 30
0.0
 10
0.0508267716535433
 20
-0.5281377952755906
 30
0.0
 10
0.0508267716535433
 20
-0.5281377952755906
 30
0.0
 10
0.0508267716535433
 20
-0.5281377952755906
 30
0.0
 10
0.0492913385826772
 20
-0.5154409448818897
 30
0.0
 10
0.0492913385826772
 20
-0.5154409448818897
 30
0.0
 10
0.0492913385826772
 20
-0.5154409448818897
 30
0.0
 10
0.0492913385826772
 20
-0.5154409448818897
 30
0.0
 10
0.0480551181102362
 20
-0.5022519685039371
 30
0.0
 10
0.0480551181102362
 20
-0.5022519685039371
 30
0.0
 10
0.0480551181102362
 20
-0.5022519685039371
 30
0.0
 10
0.0480551181102362
 20
-0.5022519685039371
 30
0.0
 10
0.0470944881889764
 20
-0.4885157480314961
 30
0.0
 10
0.0470944881889764
 20
-0.4885157480314961
 30
0.0
 10
0.0470944881889764
 20
-0.4885157480314961
 30
0.0
 10
0.0470944881889764
 20
-0.4885157480314961
 30
0.0
 10
0.0463858267716535
 20
-0.4741929133858268
 30
0.0
 10
0.0463858267716535
 20
-0.4741929133858268
 30
0.0
 10
0.0463858267716535
 20
-0.4741929133858268
 30
0.0
 10
0.0463858267716535
 20
-0.4741929133858268
 30
0.0
 10
0.0459133858267717
 20
-0.4592204724409449
 30
0.0
 10
0.0459133858267717
 20
-0.4592204724409449
 30
0.0
 10
0.0459133858267717
 20
-0.4592204724409449
 30
0.0
 10
0.0459133858267717
 20
-0.4592204724409449
 30
0.0
 10
0.0456496062992126
 20
-0.4435669291338583
 30
0.0
 10
0.0456496062992126
 20
-0.4435669291338583
 30
0.0
 10
0.0456496062992126
 20
-0.4435669291338583
 30
0.0
 10
0.0456496062992126
 20
-0.4435669291338583
 30
0.0
 10
0.0455748031496063
 20
-0.4271771653543307
 30
0.0
 10
0.0455748031496063
 20
-0.4271771653543307
 30
0.0
 10
0.0455748031496063
 20
-0.4271771653543307
 30
0.0
 10
0.0455748031496063
 20
-0.4271771653543307
 30
0.0
 10
0.0456535433070866
 20
-0.4100078740157481
 30
0.0
 10
0.0456535433070866
 20
-0.4100078740157481
 30
0.0
 10
0.0456535433070866
 20
-0.4100078740157481
 30
0.0
 10
0.0456535433070866
 20
-0.4100078740157481
 30
0.0
 10
-0.6126181102362205
 20
-0.7860196850393701
 30
0.0
 10
-0.6126181102362205
 20
-0.7860196850393701
 30
0.0
 10
-0.6126181102362205
 20
-0.7860196850393701
 30
0.0
 10
-0.6126181102362205
 20
-0.7860196850393701
 30
0.0
 10
-0.6126968503937008
 20
-0.8031889763779528
 30
0.0
 10
-0.6126968503937008
 20
-0.8031889763779528
 30
0.0
 10
-0.6126968503937008
 20
-0.8031889763779528
 30
0.0
 10
-0.6126968503937008
 20
-0.8031889763779528
 30
0.0
 10
-0.6126220472440945
 20
-0.8195787401574803
 30
0.0
 10
-0.6126220472440945
 20
-0.8195787401574803
 30
0.0
 10
-0.6126220472440945
 20
-0.8195787401574803
 30
0.0
 10
-0.6126220472440945
 20
-0.8195787401574803
 30
0.0
 10
-0.6123582677165355
 20
-0.835232283464567
 30
0.0
 10
-0.6123582677165355
 20
-0.835232283464567
 30
0.0
 10
-0.6123582677165355
 20
-0.835232283464567
 30
0.0
 10
-0.6123582677165355
 20
-0.835232283464567
 30
0.0
 10
-0.6118858267716536
 20
-0.8502047244094488
 30
0.0
 10
-0.6118858267716536
 20
-0.8502047244094488
 30
0.0
 10
-0.6118858267716536
 20
-0.8502047244094488
 30
0.0
 10
-0.6118858267716536
 20
-0.8502047244094488
 30
0.0
 10
-0.6111771653543308
 20
-0.8645275590551181
 30
0.0
 10
-0.6111771653543308
 20
-0.8645275590551181
 30
0.0
 10
-0.6111771653543308
 20
-0.8645275590551181
 30
0.0
 10
-0.6111771653543308
 20
-0.8645275590551181
 30
0.0
 10
-0.6102165354330709
 20
-0.8782637795275591
 30
0.0
 10
-0.6102165354330709
 20
-0.8782637795275591
 30
0.0
 10
-0.6102165354330709
 20
-0.8782637795275591
 30
0.0
 10
-0.6102165354330709
 20
-0.8782637795275591
 30
0.0
 10
-0.60898031496063
 20
-0.8914527559055119
 30
0.0
 10
-0.60898031496063
 20
-0.8914527559055119
 30
0.0
 10
-0.60898031496063
 20
-0.8914527559055119
 30
0.0
 10
-0.60898031496063
 20
-0.8914527559055119
 30
0.0
 10
-0.6074448818897638
 20
-0.9041496062992126
 30
0.0
 10
-0.6074448818897638
 20
-0.9041496062992126
 30
0.0
 10
-0.6074448818897638
 20
-0.9041496062992126
 30
0.0
 10
-0.6074448818897638
 20
-0.9041496062992126
 30
0.0
 10
-0.6055748031496063
 20
-0.9163818897637795
 30
0.0
 10
-0.6055748031496063
 20
-0.9163818897637795
 30
0.0
 10
-0.6055748031496063
 20
-0.9163818897637795
 30
0.0
 10
-0.6055748031496063
 20
-0.9163818897637795
 30
0.0
 10
-0.6033661417322835
 20
-0.9282165354330709
 30
0.0
 10
-0.6033661417322835
 20
-0.9282165354330709
 30
0.0
 10
-0.6033661417322835
 20
-0.9282165354330709
 30
0.0
 10
-0.6033661417322835
 20
-0.9282165354330709
 30
0.0
 10
-0.6007834645669291
 20
-0.9396889763779528
 30
0.0
 10
-0.6007834645669291
 20
-0.9396889763779528
 30
0.0
 10
-0.6007834645669291
 20
-0.9396889763779528
 30
0.0
 10
-0.6007834645669291
 20
-0.9396889763779528
 30
0.0
 10
-0.5978070866141733
 20
-0.9508582677165355
 30
0.0
 10
-0.5978070866141733
 20
-0.9508582677165355
 30
0.0
 10
-0.5978070866141733
 20
-0.9508582677165355
 30
0.0
 10
-0.5978070866141733
 20
-0.9508582677165355
 30
0.0
 10
-0.5944094488188977
 20
-0.961755905511811
 30
0.0
 10
-0.5944094488188977
 20
-0.961755905511811
 30
0.0
 10
-0.5944094488188977
 20
-0.961755905511811
 30
0.0
 10
-0.5944094488188977
 20
-0.961755905511811
 30
0.0
 10
-0.5905787401574804
 20
-0.9724409448818898
 30
0.0
 10
-0.5905787401574804
 20
-0.9724409448818898
 30
0.0
 10
-0.5905787401574804
 20
-0.9724409448818898
 30
0.0
 10
-0.5905787401574804
 20
-0.9724409448818898
 30
0.0
 10
-0.5862834645669292
 20
-0.9829527559055119
 30
0.0
 10
-0.5862834645669292
 20
-0.9829527559055119
 30
0.0
 10
-0.5862834645669292
 20
-0.9829527559055119
 30
0.0
 10
-0.5862834645669292
 20
-0.9829527559055119
 30
0.0
 10
-0.5815039370078741
 20
-0.9933543307086614
 30
0.0
 10
-0.5815039370078741
 20
-0.9933543307086614
 30
0.0
 10
-0.5815039370078741
 20
-0.9933543307086614
 30
0.0
 10
-0.5815039370078741
 20
-0.9933543307086614
 30
0.0
 10
-0.5762047244094488
 20
-1.0036653543307088
 30
0.0
 10
-0.5762047244094488
 20
-1.0036653543307088
 30
0.0
 10
-0.5762047244094488
 20
-1.0036653543307088
 30
0.0
 10
-0.5762047244094488
 20
-1.0036653543307088
 30
0.0
 10
-0.5703818897637796
 20
-1.0139606299212598
 30
0.0
 10
-0.5703818897637796
 20
-1.0139606299212598
 30
0.0
 10
-0.5703818897637796
 20
-1.0139606299212598
 30
0.0
 10
-0.5703818897637796
 20
-1.0139606299212598
 30
0.0
 10
-0.5640000000000001
 20
-1.024267716535433
 30
0.0
 10
-0.5640000000000001
 20
-1.024267716535433
 30
0.0
 10
-0.5640000000000001
 20
-1.024267716535433
 30
0.0
 10
-0.5640000000000001
 20
-1.024267716535433
 30
0.0
 10
-0.5570433070866142
 20
-1.0346456692913386
 30
0.0
 10
-0.5570433070866142
 20
-1.0346456692913386
 30
0.0
 10
-0.5570433070866142
 20
-1.0346456692913386
 30
0.0
 10
-0.5570433070866142
 20
-1.0346456692913386
 30
0.0
 10
-0.549476377952756
 20
-1.0451299212598426
 30
0.0
 10
-0.549476377952756
 20
-1.0451299212598426
 30
0.0
 10
-0.549476377952756
 20
-1.0451299212598426
 30
0.0
 10
-0.549476377952756
 20
-1.0451299212598426
 30
0.0
 10
-0.5412913385826772
 20
-1.0557874015748032
 30
0.0
 10
-0.5412913385826772
 20
-1.0557874015748032
 30
0.0
 10
-0.5412913385826772
 20
-1.0557874015748032
 30
0.0
 10
-0.5412913385826772
 20
-1.0557874015748032
 30
0.0
 10
-0.5324566929133858
 20
-1.0666417322834647
 30
0.0
 10
-0.5324566929133858
 20
-1.0666417322834647
 30
0.0
 10
-0.5324566929133858
 20
-1.0666417322834647
 30
0.0
 10
-0.5324566929133858
 20
-1.0666417322834647
 30
0.0
 10
-0.5229566929133859
 20
-1.0777637795275592
 30
0.0
 10
-0.5229566929133859
 20
-1.0777637795275592
 30
0.0
 10
-0.5229566929133859
 20
-1.0777637795275592
 30
0.0
 10
-0.5229566929133859
 20
-1.0777637795275592
 30
0.0
 10
-0.512751968503937
 20
-1.0891732283464568
 30
0.0
 10
-0.512751968503937
 20
-1.0891732283464568
 30
0.0
 10
-0.512751968503937
 20
-1.0891732283464568
 30
0.0
 10
-0.512751968503937
 20
-1.0891732283464568
 30
0.0
 10
-0.5018346456692914
 20
-1.1009409448818899
 30
0.0
 10
-0.5018346456692914
 20
-1.1009409448818899
 30
0.0
 10
-0.5018346456692914
 20
-1.1009409448818899
 30
0.0
 10
-0.5018346456692914
 20
-1.1009409448818899
 30
0.0
 10
-0.4901771653543307
 20
-1.1131023622047245
 30
0.0
 10
-0.4901771653543307
 20
-1.1131023622047245
 30
0.0
 10
-0.4901771653543307
 20
-1.1131023622047245
 30
0.0
 10
-0.4901771653543307
 20
-1.1131023622047245
 30
0.0
 10
-0.4777598425196851
 20
-1.125712598425197
 30
0.0
 10
-0.4777598425196851
 20
-1.125712598425197
 30
0.0
 10
-0.4777598425196851
 20
-1.125712598425197
 30
0.0
 10
-0.4777598425196851
 20
-1.125712598425197
 30
0.0
 10
-0.4645472440944882
 20
-1.1388070866141733
 30
0.0
 10
-0.4645472440944882
 20
-1.1388070866141733
 30
0.0
 10
-0.4645472440944882
 20
-1.1388070866141733
 30
0.0
 10
-0.4645472440944882
 20
-1.1388070866141733
 30
0.0
 10
-0.4505354330708661
 20
-1.1524448818897639
 30
0.0
 10
-0.4505354330708661
 20
-1.1524448818897639
 30
0.0
 10
-0.4505354330708661
 20
-1.1524448818897639
 30
0.0
 10
-0.4505354330708661
 20
-1.1524448818897639
 30
0.0
 10
-0.4356850393700787
 20
-1.1666614173228347
 30
0.0
 10
-0.4356850393700787
 20
-1.1666614173228347
 30
0.0
 10
-0.4356850393700787
 20
-1.1666614173228347
 30
0.0
 10
-0.4356850393700787
 20
-1.1666614173228347
 30
0.0
 10
-0.419984251968504
 20
-1.1815157480314962
 30
0.0
 10
-0.419984251968504
 20
-1.1815157480314962
 30
0.0
 10
-0.419984251968504
 20
-1.1815157480314962
 30
0.0
 10
-0.419984251968504
 20
-1.1815157480314962
 30
0.0
 10
-0.4044370078740158
 20
-1.1968779527559055
 30
0.0
 10
-0.4044370078740158
 20
-1.1968779527559055
 30
0.0
 10
-0.4044370078740158
 20
-1.1968779527559055
 30
0.0
 10
-0.4044370078740158
 20
-1.1968779527559055
 30
0.0
 10
-0.3900944881889764
 20
-1.2125826771653543
 30
0.0
 10
-0.3900944881889764
 20
-1.2125826771653543
 30
0.0
 10
-0.3900944881889764
 20
-1.2125826771653543
 30
0.0
 10
-0.3900944881889764
 20
-1.2125826771653543
 30
0.0
 10
-0.3769448818897638
 20
-1.2285787401574804
 30
0.0
 10
-0.3769448818897638
 20
-1.2285787401574804
 30
0.0
 10
-0.3769448818897638
 20
-1.2285787401574804
 30
0.0
 10
-0.3769448818897638
 20
-1.2285787401574804
 30
0.0
 10
-0.3649842519685039
 20
-1.2448110236220473
 30
0.0
 10
-0.3649842519685039
 20
-1.2448110236220473
 30
0.0
 10
-0.3649842519685039
 20
-1.2448110236220473
 30
0.0
 10
-0.3649842519685039
 20
-1.2448110236220473
 30
0.0
 10
-0.3542007874015748
 20
-1.261220472440945
 30
0.0
 10
-0.3542007874015748
 20
-1.261220472440945
 30
0.0
 10
-0.3542007874015748
 20
-1.261220472440945
 30
0.0
 10
-0.3542007874015748
 20
-1.261220472440945
 30
0.0
 10
-0.3446062992125984
 20
-1.2777716535433072
 30
0.0
 10
-0.3446062992125984
 20
-1.2777716535433072
 30
0.0
 10
-0.3446062992125984
 20
-1.2777716535433072
 30
0.0
 10
-0.3446062992125984
 20
-1.2777716535433072
 30
0.0
 10
-0.3361771653543307
 20
-1.2944015748031497
 30
0.0
 10
-0.3361771653543307
 20
-1.2944015748031497
 30
0.0
 10
-0.3361771653543307
 20
-1.2944015748031497
 30
0.0
 10
-0.3361771653543307
 20
-1.2944015748031497
 30
0.0
 10
-0.3289251968503937
 20
-1.3110708661417323
 30
0.0
 10
-0.3289251968503937
 20
-1.3110708661417323
 30
0.0
 10
-0.3289251968503937
 20
-1.3110708661417323
 30
0.0
 10
-0.3289251968503937
 20
-1.3110708661417323
 30
0.0
 10
-0.3228267716535433
 20
-1.3277047244094489
 30
0.0
 10
-0.3228267716535433
 20
-1.3277047244094489
 30
0.0
 10
-0.3228267716535433
 20
-1.3277047244094489
 30
0.0
 10
-0.3228267716535433
 20
-1.3277047244094489
 30
0.0
 10
-0.3178897637795276
 20
-1.3442795275590551
 30
0.0
 10
-0.3178897637795276
 20
-1.3442795275590551
 30
0.0
 10
-0.3178897637795276
 20
-1.3442795275590551
 30
0.0
 10
-0.3178897637795276
 20
-1.3442795275590551
 30
0.0
 10
-0.3141062992125984
 20
-1.3607244094488189
 30
0.0
 10
-0.3141062992125984
 20
-1.3607244094488189
 30
0.0
 10
-0.3141062992125984
 20
-1.3607244094488189
 30
0.0
 10
-0.3141062992125984
 20
-1.3607244094488189
 30
0.0
 10
-0.3114763779527559
 20
-1.3770039370078742
 30
0.0
 10
-0.3114763779527559
 20
-1.3770039370078742
 30
0.0
 10
-0.3114763779527559
 20
-1.3770039370078742
 30
0.0
 10
-0.3114763779527559
 20
-1.3770039370078742
 30
0.0
 10
-0.3099842519685039
 20
-1.3930511811023623
 30
0.0
 10
-0.3099842519685039
 20
-1.3930511811023623
 30
0.0
 10
-0.3099842519685039
 20
-1.3930511811023623
 30
0.0
 10
-0.3099842519685039
 20
-1.3930511811023623
 30
0.0
 10
-0.3096377952755905
 20
-1.4088267716535434
 30
0.0
 10
-0.3096377952755905
 20
-1.4088267716535434
 30
0.0
 10
-0.3096377952755905
 20
-1.4088267716535434
 30
0.0
 10
-0.3096377952755905
 20
-1.4088267716535434
 30
0.0
 10
-0.3104173228346457
 20
-1.4242755905511812
 30
0.0
 10
-0.3104173228346457
 20
-1.4242755905511812
 30
0.0
 10
-0.3104173228346457
 20
-1.4242755905511812
 30
0.0
 10
-0.3104173228346457
 20
-1.4242755905511812
 30
0.0
 10
-0.3123346456692914
 20
-1.4393503937007874
 30
0.0
 10
-0.3123346456692914
 20
-1.4393503937007874
 30
0.0
 10
-0.3123346456692914
 20
-1.4393503937007874
 30
0.0
 10
-0.3123346456692914
 20
-1.4393503937007874
 30
0.0
 10
-0.3153622047244095
 20
-1.453984251968504
 30
0.0
 10
-0.3153622047244095
 20
-1.453984251968504
 30
0.0
 10
-0.3153622047244095
 20
-1.453984251968504
 30
0.0
 10
-0.3153622047244095
 20
-1.453984251968504
 30
0.0
 10
-0.3195157480314961
 20
-1.4681456692913386
 30
0.0
 10
-0.3195157480314961
 20
-1.4681456692913386
 30
0.0
 10
-0.3195157480314961
 20
-1.4681456692913386
 30
0.0
 10
-0.3195157480314961
 20
-1.4681456692913386
 30
0.0
 10
-0.3247834645669291
 20
-1.4817716535433072
 30
0.0
 10
-0.3247834645669291
 20
-1.4817716535433072
 30
0.0
 10
-0.3247834645669291
 20
-1.4817716535433072
 30
0.0
 10
-0.3247834645669291
 20
-1.4817716535433072
 30
0.0
 10
-0.3311614173228347
 20
-1.4948188976377954
 30
0.0
 10
-0.3311614173228347
 20
-1.4948188976377954
 30
0.0
 10
-0.3311614173228347
 20
-1.4948188976377954
 30
0.0
 10
-0.3311614173228347
 20
-1.4948188976377954
 30
0.0
 10
-0.3386377952755906
 20
-1.507224409448819
 30
0.0
 10
-0.3386377952755906
 20
-1.507224409448819
 30
0.0
 10
-0.3386377952755906
 20
-1.507224409448819
 30
0.0
 10
-0.3386377952755906
 20
-1.507224409448819
 30
0.0
 10
-0.3472165354330709
 20
-1.5189488188976379
 30
0.0
 10
-0.3472165354330709
 20
-1.5189488188976379
 30
0.0
 10
-0.3472165354330709
 20
-1.5189488188976379
 30
0.0
 10
-0.3472165354330709
 20
-1.5189488188976379
 30
0.0
 10
-0.3568897637795276
 20
-1.5299370078740158
 30
0.0
 10
-0.3568897637795276
 20
-1.5299370078740158
 30
0.0
 10
-0.3568897637795276
 20
-1.5299370078740158
 30
0.0
 10
-0.3568897637795276
 20
-1.5299370078740158
 30
0.0
 10
-0.3676574803149607
 20
-1.5401417322834645
 30
0.0
 10
-0.3676574803149607
 20
-1.5401417322834645
 30
0.0
 10
-0.3676574803149607
 20
-1.5401417322834645
 30
0.0
 10
-0.3676574803149607
 20
-1.5401417322834645
 30
0.0
 10
-0.379496062992126
 20
-1.5494960629921259
 30
0.0
 10
-0.379496062992126
 20
-1.5494960629921259
 30
0.0
 10
-0.379496062992126
 20
-1.5494960629921259
 30
0.0
 10
-0.379496062992126
 20
-1.5494960629921259
 30
0.0
 10
-0.3924212598425197
 20
-1.5579685039370079
 30
0.0
 10
-0.3924212598425197
 20
-1.5579685039370079
 30
0.0
  0
SPLINE
  5
58
100
AcDbEntity
  8
P1-Layer 1
 62
   252
100
AcDbSpline
210
0.0
220
0.0
230
1.0
 70
     1
 71
     3
 72
    20
 73
    16
 74
     0
 42
0.0000000001
 43
0.0000000001
 40
0.0
 40
0.0
 40
0.0
 40
0.0
 40
0.25
 40
0.25
 40
0.25
 40
0.25
 40
0.5
 40
0.5
 40
0.5
 40
0.5
 40
0.75
 40
0.75
 40
0.75
 40
0.75
 40
1.0
 40
1.0
 40
1.0
 40
1.0
 10
-0.6126181102362205
 20
-0.7860196850393701
 30
0.0
 10
-0.6126181102362205
 20
-0.7860196850393701
 30
0.0
 10
0.0456535433070866
 20
-0.4100078740157481
 30
0.0
 10
0.0456535433070866
 20
-0.4100078740157481
 30
0.0
 10
0.0456535433070866
 20
-0.4100078740157481
 30
0.0
 10
0.0456535433070866
 20
-0.4100078740157481
 30
0.0
 10
-0.080507874015748
 20
-0.4100078740157481
 30
0.0
 10
-0.080507874015748
 20
-0.4100078740157481
 30
0.0
 10
-0.080507874015748
 20
-0.4100078740157481
 30
0.0
 10
-0.080507874015748
 20
-0.4100078740157481
 30
0.0
 10
-0.7387795275590552
 20
-0.7860196850393701
 30
0.0
 10
-0.7387795275590552
 20
-0.7860196850393701
 30
0.0
 10
-0.7387795275590552
 20
-0.7860196850393701
 30
0.0
 10
-0.7387795275590552
 20
-0.7860196850393701
 30
0.0
 10
-0.6126181102362205
 20
-0.7860196850393701
 30
0.0
 10
-0.6126181102362205
 20
-0.7860196850393701
 30
0.0
  0
SPLINE
  5
59
100
AcDbEntity
  8
P1-Layer 1
370
     5
100
AcDbSpline
210
0.0
220
0.0
230
1.0
 70
     1
 71
     3
 72
    20
 73
    16
 74
     0
 42
0.0000000001
 43
0.0000000001
 40
0.0
 40
0.0
 40
0.0
 40
0.0
 40
0.25
 40
0.25
 40
0.25
 40
0.25
 40
0.5
 40
0.5
 40
0.5
 40
0.5
 40
0.75
 40
0.75
 40
0.75
 40
0.75
 40
1.0
 40
1.0
 40
1.0
 40
1.0
 10
-0.6126181102362205
 20
-0.7860196850393701
 30
0.0
 10
-0.6126181102362205
 20
-0.7860196850393701
 30
0.0
 10
0.0456535433070866
 20
-0.4100078740157481
 30
0.0
 10
0.0456535433070866
 20
-0.4100078740157481
 30
0.0
 10
0.0456535433070866
 20
-0.4100078740157481
 30
0.0
 10
0.0456535433070866
 20
-0.4100078740157481
 30
0.0
 10
-0.080507874015748
 20
-0.4100078740157481
 30
0.0
 10
-0.080507874015748
 20
-0.4100078740157481
 30
0.0
 10
-0.080507874015748
 20
-0.4100078740157481
 30
0.0
 10
-0.080507874015748
 20
-0.4100078740157481
 30
0.0
 10
-0.7387795275590552
 20
-0.7860196850393701
 30
0.0
 10
-0.7387795275590552
 20
-0.7860196850393701
 30
0.0
 10
-0.7387795275590552
 20
-0.7860196850393701
 30
0.0
 10
-0.7387795275590552
 20
-0.7860196850393701
 30
0.0
 10
-0.6126181102362205
 20
-0.7860196850393701
 30
0.0
 10
-0.6126181102362205
 20
-0.7860196850393701
 30
0.0
  0
SPLINE
  5
5A
100
AcDbEntity
  8
P1-Layer 1
370
     5
 62
     7
100
AcDbSpline
210
0.0
220
0.0
230
1.0
 70
     1
 71
     3
 72
    24
 73
    20
 74
     0
 42
0.0000000001
 43
0.0000000001
 40
0.0
 40
0.0
 40
0.0
 40
0.0
 40
0.2
 40
0.2
 40
0.2
 40
0.2
 40
0.4
 40
0.4
 40
0.4
 40
0.4
 40
0.6000000000000001
 40
0.6000000000000001
 40
0.6000000000000001
 40
0.6000000000000001
 40
0.8
 40
0.8
 40
0.8
 40
0.8
 40
1.0
 40
1.0
 40
1.0
 40
1.0
 10
-0.4923582677165355
 20
-1.587240157480315
 30
0.0
 10
-0.2809724409448819
 20
-1.5718976377952756
 30
0.0
 10
-0.2478070866141733
 20
-1.3434645669291339
 30
0.0
 10
-0.419984251968504
 20
-1.1815157480314962
 30
0.0
 10
-0.419984251968504
 20
-1.1815157480314962
 30
0.0
 10
-0.5921614173228347
 20
-1.0195669291338583
 30
0.0
 10
-0.6143228346456693
 20
-0.9735393700787401
 30
0.0
 10
-0.6126181102362205
 20
-0.7860196850393701
 30
0.0
 10
-0.6126181102362205
 20
-0.7860196850393701
 30
0.0
 10
-0.6126181102362205
 20
-0.7860196850393701
 30
0.0
 10
-0.7387795275590552
 20
-0.7860196850393701
 30
0.0
 10
-0.7387795275590552
 20
-0.7860196850393701
 30
0.0
 10
-0.7387795275590552
 20
-0.7860196850393701
 30
0.0
 10
-0.7387795275590552
 20
-0.7860196850393701
 30
0.0
 10
-0.7393228346456693
 20
-1.587240157480315
 30
0.0
 10
-0.7393228346456693
 20
-1.587240157480315
 30
0.0
 10
-0.7393228346456693
 20
-1.587240157480315
 30
0.0
 10
-0.7393228346456693
 20
-1.587240157480315
 30
0.0
 10
-0.4923582677165355
 20
-1.587240157480315
 30
0.0
 10
-0.4923582677165355
 20
-1.587240157480315
 30
0.0
  0
TEXT
  5
5B
100
AcDbEntity
  8
P1-Layer 1
100
AcDbText
 10
-0.578567
 20
-1.797335
 30
0.0
 40
0.119999
  1
BA  1511
 51
-0.000002
  7
Bookman Old Style
100
AcDbText
  0
TEXT
  5
5C
100
AcDbEntity
  8
P1-Layer 1
100
AcDbText
 10
-0.72526
 20
-1.984835
 30
0.0
 40
0.119999
  1
7/16\u+201d x 3/4\u+201d
 51
-0.000002
  7
Bookman Old Style
100
AcDbText
  0
ENDSEC
  0
SECTION
  2
OBJECTS
  0
DICTIONARY
  5
19
100
AcDbDictionary
280
     0
281
     1
  3
ACAD_GROUP
350
1A
  3
ACAD_MLINESTYLE
350
1B
  3
ACAD_LAYOUT
350
1E
  3
ACAD_PLOTSETTINGS
350
22
  3
ACAD_PLOTSTYLENAME
350
1F
  3
ACAD_WIPEOUT_VARS
350
23
  0
DICTIONARY
  5
1A
102
{ACAD_REACTORS
330
19
102
}
100
AcDbDictionary
280
     0
281
     1
  0
DICTIONARY
  5
1B
102
{ACAD_REACTORS
330
19
102
}
100
AcDbDictionary
280
     0
281
     1
  3
Standard
350
1C
  0
MLINESTYLE
  5
1C
102
{ACAD_REACTORS
330
1B
102
}
100
AcDbMlineStyle
  2
Standard
 70
     0
  3

 62
     0
 51
90.0
 52
90.0
 71
     2
 49
0.5
 62
   256
  6
BYLAYER
 49
-0.5
 62
   256
  6
BYLAYER
  0
ACDBDICTIONARYWDFLT
  5
1F
102
{ACAD_REACTORS
330
19
102
}
100
AcDbDictionary
281
     1
  3
Normal
350
1D
100
AcDbDictionaryWithDefault
340
1D
  0
ACDBPLACEHOLDER
  5
1D
102
{ACAD_REACTORS
330
1F
102
}
  0
LAYOUT
  5
20
102
{ACAD_REACTORS
330
1E
102
}
100
AcDbPlotSettings
  1

  2

  4

  6

 40
0.0
 41
0.0
 42
0.0
 43
0.0
 44
0.0
 45
0.0
 46
0.0
 47
0.0
 48
0.0
 49
0.0
140
0.0
141
0.0
142
1.0
143
1.0
 70
  1024
 72
     0
 73
     0
 74
     0
  7

 75
     0
147
1.0
148
0.0
149
0.0
100
AcDbLayout
  1
Model
 70
     0
 71
     0
 10
0.0
 20
0.0
 11
0.0
 21
0.0
 12
0.0
 22
0.0
 32
0.0
 14
0.0
 24
0.0
 34
0.0
 15
0.0
 25
0.0
 35
0.0
146
0.0
 13
0.0
 23
0.0
 33
0.0
 16
0.0
 26
0.0
 36
0.0
 17
0.0
 27
0.0
 37
0.0
 76
     0
330
A
331
0
345
0
346
0
  0
LAYOUT
  5
21
102
{ACAD_REACTORS
330
1E
102
}
100
AcDbPlotSettings
  1

  2

  4

  6

 40
0.0
 41
0.0
 42
0.0
 43
0.0
 44
0.0
 45
0.0
 46
0.0
 47
0.0
 48
0.0
 49
0.0
140
0.0
141
0.0
142
1.0
143
1.0
 70
     0
 72
     0
 73
     0
 74
     0
  7

 75
     0
147
1.0
148
0.0
149
0.0
100
AcDbLayout
  1
Layout1
 70
     0
 71
     0
 10
0.0
 20
0.0
 11
0.0
 21
0.0
 12
0.0
 22
0.0
 32
0.0
 14
0.0
 24
0.0
 34
0.0
 15
0.0
 25
0.0
 35
0.0
146
0.0
 13
0.0
 23
0.0
 33
0.0
 16
0.0
 26
0.0
 36
0.0
 17
0.0
 27
0.0
 37
0.0
 76
     0
330
B
331
0
345
0
346
0
  0
DICTIONARY
  5
1E
102
{ACAD_REACTORS
330
19
102
}
100
AcDbDictionary
280
     0
281
     1
  3
Layout1
350
21
  3
Model
350
20
  0
DICTIONARY
  5
22
102
{ACAD_REACTORS
330
19
102
}
100
AcDbDictionary
280
     0
281
     1
  0
WIPEOUTVARIABLES
  5
23
100
AcDbWipeoutVariables
 70
     1
  0
ENDSEC
  0
EOF
