  0
SECTION
  2
HEADER
  9
$ACADVER
  1
AC1015
  9
$ACADMAINTVER
 70
     6
  9
$DWGCODEPAGE
  3
DOS850
  9
$INSBASE
 10
0.0
 20
0.0
 30
0.0
  9
$EXTMIN
 10
-0.692472
 20
-2.876803
 30
1.000000E+20
  9
$EXTMAX
 10
0.919098
 20
1.876717
 30
-1.000000E+20
  9
$LIMMIN
 10
0.0
 20
0.0
  9
$LIMMAX
 10
0.0
 20
0.0
  9
$ORTHOMODE
 70
     0
  9
$REGENMODE
 70
     1
  9
$FILLMODE
 70
     1
  9
$QTEXTMODE
 70
     0
  9
$MIRRTEXT
 70
     1
  9
$LTSCALE
 40
1.0
  9
$ATTMODE
 70
     1
  9
$TEXTSIZE
 40
0.2
  9
$TRACEWID
 40
0.05
  9
$TEXTSTYLE
  7
Standard
  9
$CLAYER
  8
0
  9
$CELTYPE
  6
Continuous
  9
$CECOLOR
 62
   256
  9
$CELTSCALE
 40
1.0
  9
$DISPSILH
 70
     0
  9
$DIMSCALE
 40
1.0
  9
$DIMASZ
 40
0.18
  9
$DIMEXO
 40
0.0625
  9
$DIMDLI
 40
0.38
  9
$DIMRND
 40
0.0
  9
$DIMDLE
 40
0.0
  9
$DIMEXE
 40
0.18
  9
$DIMTP
 40
0.0
  9
$DIMTM
 40
0.0
  9
$DIMTXT
 40
0.18
  9
$DIMCEN
 40
0.09
  9
$DIMTSZ
 40
0.0
  9
$DIMTOL
 70
     0
  9
$DIMLIM
 70
     0
  9
$DIMTIH
 70
     1
  9
$DIMTOH
 70
     1
  9
$DIMSE1
 70
     0
  9
$DIMSE2
 70
     0
  9
$DIMTAD
 70
     0
  9
$DIMZIN
 70
     0
  9
$DIMBLK
  1

  9
$DIMASO
 70
     1
  9
$DIMSHO
 70
     1
  9
$DIMPOST
  1

  9
$DIMAPOST
  1

  9
$DIMALT
 70
     0
  9
$DIMALTD
 70
     2
  9
$DIMALTF
 40
25.4
  9
$DIMLFAC
 40
1.0
  9
$DIMTOFL
 70
     0
  9
$DIMTVP
 40
0.0
  9
$DIMTIX
 70
     0
  9
$DIMSOXD
 70
     0
  9
$DIMSAH
 70
     0
  9
$DIMBLK1
  1

  9
$DIMBLK2
  1

  9
$DIMSTYLE
  2
Standard
  9
$DIMCLRD
 70
     0
  9
$DIMCLRE
 70
     0
  9
$DIMCLRT
 70
     0
  9
$DIMTFAC
 40
1.0
  9
$DIMGAP
 40
0.09
  9
$DIMJUST
 70
     0
  9
$DIMSD1
 70
     0
  9
$DIMSD2
 70
     0
  9
$DIMTOLJ
 70
     1
  9
$DIMTZIN
 70
     0
  9
$DIMALTZ
 70
     0
  9
$DIMALTTZ
 70
     0
  9
$DIMUPT
 70
     0
  9
$DIMDEC
 70
     4
  9
$DIMTDEC
 70
     4
  9
$DIMALTU
 70
     2
  9
$DIMALTTD
 70
     2
  9
$DIMTXSTY
  7
Standard
  9
$DIMAUNIT
 70
     0
  9
$DIMADEC
 70
     0
  9
$DIMALTRND
 40
0.0
  9
$DIMAZIN
 70
     0
  9
$DIMDSEP
 70
     0
  9
$DIMATFIT
 70
     3
  9
$DIMFRAC
 70
     0
  9
$DIMLDRBLK
  1

  9
$DIMLUNIT
 70
     2
  9
$DIMLWD
 70
     0
  9
$DIMLWE
 70
     0
  9
$DIMTMOVE
 70
     0
  9
$LUNITS
 70
     2
  9
$LUPREC
 70
     4
  9
$SKETCHINC
 40
0.1
  9
$FILLETRAD
 40
0.0
  9
$AUNITS
 70
     0
  9
$AUPREC
 70
     0
  9
$MENU
  1
acad
  9
$ELEVATION
 40
0.0
  9
$PELEVATION
 40
0.0
  9
$THICKNESS
 40
0.0
  9
$LIMCHECK
 70
     0
  9
$CHAMFERA
 40
0.0
  9
$CHAMFERB
 40
0.0
  9
$CHAMFERC
 40
0.0
  9
$CHAMFERD
 40
0.0
  9
$SKPOLY
 70
     0
  9
$TDCREATE
 40
0.000000000
  9
$TDUCREATE
 40
0.000000000
  9
$TDUPDATE
 40
0.000000000
  9
$TDUUPDATE
 40
0.000000000
  9
$TDINDWG
 40
0.0000000000
  9
$TDUSRTIMER
 40
0.0000000000
  9
$USRTIMER
 70
     1
  9
$ANGBASE
 50
0.0
  9
$ANGDIR
 70
     0
  9
$PDMODE
 70
     0
  9
$PDSIZE
 40
0.0
  9
$PLINEWID
 40
0.0
  9
$SPLFRAME
 70
     0
  9
$SPLINETYPE
 70
     6
  9
$SPLINESEGS
 70
     8
  9
$HANDSEED
  5
6F
  9
$SURFTAB1
 70
     6
  9
$SURFTAB2
 70
     6
  9
$SURFTYPE
 70
     6
  9
$SURFU
 70
     6
  9
$SURFV
 70
     6
  9
$UCSBASE
  2

  9
$UCSNAME
  2

  9
$UCSORG
 10
0.0
 20
0.0
 30
0.0
  9
$UCSXDIR
 10
1.0
 20
0.0
 30
0.0
  9
$UCSYDIR
 10
0.0
 20
1.0
 30
0.0
  9
$UCSORTHOREF
  2

  9
$UCSORTHOVIEW
 70
     0
  9
$UCSORGTOP
 10
0.0
 20
0.0
 30
0.0
  9
$UCSORGBOTTOM
 10
0.0
 20
0.0
 30
0.0
  9
$UCSORGLEFT
 10
0.0
 20
0.0
 30
0.0
  9
$UCSORGRIGHT
 10
0.0
 20
0.0
 30
0.0
  9
$UCSORGFRONT
 10
0.0
 20
0.0
 30
0.0
  9
$UCSORGBACK
 10
0.0
 20
0.0
 30
0.0
  9
$PUCSBASE
  2

  9
$PUCSNAME
  2

  9
$PUCSORG
 10
0.0
 20
0.0
 30
0.0
  9
$PUCSXDIR
 10
1.0
 20
0.0
 30
0.0
  9
$PUCSYDIR
 10
0.0
 20
1.0
 30
0.0
  9
$PUCSORTHOREF
  2

  9
$PUCSORTHOVIEW
 70
     0
  9
$PUCSORGTOP
 10
0.0
 20
0.0
 30
0.0
  9
$PUCSORGBOTTOM
 10
0.0
 20
0.0
 30
0.0
  9
$PUCSORGLEFT
 10
0.0
 20
0.0
 30
0.0
  9
$PUCSORGRIGHT
 10
0.0
 20
0.0
 30
0.0
  9
$PUCSORGFRONT
 10
0.0
 20
0.0
 30
0.0
  9
$PUCSORGBACK
 10
0.0
 20
0.0
 30
0.0
  9
$USERI1
 70
     0
  9
$USERI2
 70
     0
  9
$USERI3
 70
     0
  9
$USERI4
 70
     0
  9
$USERI5
 70
     0
  9
$USERR1
 40
0.0
  9
$USERR2
 40
0.0
  9
$USERR3
 40
0.0
  9
$USERR4
 40
0.0
  9
$USERR5
 40
0.0
  9
$WORLDVIEW
 70
     1
  9
$SHADEDGE
 70
     3
  9
$SHADEDIF
 70
    70
  9
$TILEMODE
 70
     1
  9
$MAXACTVP
 70
    16
  9
$PINSBASE
 10
0.0
 20
0.0
 30
0.0
  9
$PLIMCHECK
 70
     0
  9
$PEXTMIN
 10
1.000000E+20
 20
1.000000E+20
 30
1.000000E+20
  9
$PEXTMAX
 10
-1.000000E+20
 20
-1.000000E+20
 30
-1.000000E+20
  9
$PLIMMIN
 10
0.0
 20
0.0
  9
$PLIMMAX
 10
12.0
 20
9.0
  9
$UNITMODE
 70
     0
  9
$VISRETAIN
 70
     0
  9
$PLINEGEN
 70
     1
  9
$PSLTSCALE
 70
     0
  9
$TREEDEPTH
 70
  3020
  9
$CMLSTYLE
  2
Standard
  9
$CMLJUST
 70
     0
  9
$CMLSCALE
 40
1.0
  9
$PROXYGRAPHICS
 70
     0
  9
$MEASUREMENT
 70
     0
  9
$CELWEIGHT
370
     0
  9
$ENDCAPS
280
     0
  9
$JOINSTYLE
280
     0
  9
$LWDISPLAY
290
     0
  9
$INSUNITS
 70
     1
  9
$HYPERLINKBASE
  1

  9
$XEDIT
290
     1
  9
$CEPSNTYPE
380
     0
  9
$PSTYLEMODE
290
     1
  9
$FINGERPRINTGUID
  2

  9
$VERSIONGUID
  2

  9
$EXTNAMES
290
     1
  9
$PSVPSCALE
 40
0.0
  0
ENDSEC
  0
SECTION
  2
CLASSES
  0
CLASS
  1
LWPOLYLINE
  2
AcDbPolyline
  3
AutoCAD 2000
 90
    32768
280
     0
281
     1
  0
CLASS
  1
IMAGE
  2
AcDbRasterImage
  3
ISM
 90
    32895
280
     0
281
     1
  0
CLASS
  1
OLE2FRAME
  2
AcDbOle2Frame
  3
AutoCAD 2000
 90
    32768
280
     0
281
     1
  0
CLASS
  1
HATCH
  2
AcDbHatch
  3
AutoCAD 2000
 90
    32768
280
     0
281
     1
  0
CLASS
  1
DICTIONARYVAR
  2
AcDbDictionaryVar
  3
AutoCAD 2000
 90
    32768
280
     0
281
     0
  0
CLASS
  1
RASTERVARIABLES
  2
AcDbRasterVariables
  3
ISM
 90
    32768
280
     0
281
     0
  0
CLASS
  1
IMAGEDEF
  2
AcDbRasterImageDef
  3
ISM
 90
    32768
280
     0
281
     0
  0
CLASS
  1
IMAGEDEF_REACTOR
  2
AcDbRasterImageDefReactor
  3
ISM
 90
    32769
280
     0
281
     0
  0
CLASS
  1
IDBUFFER
  2
AcDbIdBuffer
  3
AutoCAD 2000
 90
    32768
280
     0
281
     0
  0
CLASS
  1
SPATIAL_FILTER
  2
AcDbSpatialFilter
  3
AutoCAD 2000
 90
    32768
280
     0
281
     0
  0
CLASS
  1
XRECORD
  2
AcDbXrecord
  3
AutoCAD 2000
 90
    32768
280
     0
281
     0
  0
CLASS
  1
SORTENTSTABLE
  2
AcDbSortentsTable
  3
AutoCAD 2000
 90
    32768
280
     0
281
     0
  0
CLASS
  1
LAYER_INDEX
  2
AcDbLayerIndex
  3
AutoCAD 2000
 90
    32768
280
     0
281
     0
  0
CLASS
  1
SPATIAL_INDEX
  2
AcDbSpatialIndex
  3
AutoCAD 2000
 90
    32768
280
     0
281
     0
  0
CLASS
  1
OBJECT_PTR
  2
CAseDLPNTableRecord
  3
"ASE-LPNTableRecord"
 90
    32769
280
     0
281
     0
  0
CLASS
  1
LAYOUT
  2
AcDbLayout
  3
AutoCAD 2000
 90
        0
280
     0
281
     0
  0
CLASS
  1
PLOTSETTINGS
  2
AcDbPlotSettings
  3
AutoCAD 2000
 90
    32768
280
     0
281
     0
  0
CLASS
  1
ACDBDICTIONARYWDFLT
  2
AcDbDictionaryWithDefault
  3
AutoCAD 2000
 90
        0
280
     0
281
     0
  0
CLASS
  1
ACDBPLACEHOLDER
  2
AcDbPlaceHolder
  3
AutoCAD 2000
 90
        0
280
     0
281
     0
  0
CLASS
  1
VBA_PROJECT
  2
AcDbVbaProject
  3
acadvba
 90
    32768
280
     0
281
     0
  0
CLASS
  1
WIPEOUT
  2
AcDbWipeout
  3
WipeOut|AutoCAD Express Tool|expresstools@autodesk.com
 90
    32895
280
     0
281
     1
  0
CLASS
  1
WIPEOUTVARIABLES
  2
AcDbWipeoutVariables
  3
WipeOut|AutoCAD Express Tool|expresstools@autodesk.com
 90
        0
280
     0
281
     0
  0
CLASS
  1
RTEXT
  2
RText
  3
RText|AutoCAD Express Tool|expresstools@autodesk.com
 90
    32768
280
     0
281
     1
  0
CLASS
  1
ARCALIGNEDTEXT
  2
AcDbArcAlignedText
  3
ATEXT|AutoCAD Express Tool|expresstools@autodesk.com
 90
    32768
280
     0
281
     1
  0
ENDSEC
  0
SECTION
  2
TABLES
  0
TABLE
  2
VPORT
  5
7
100
AcDbSymbolTable
 70
     1
  0
VPORT
  5
15
100
AcDbSymbolTableRecord
100
AcDbViewportTableRecord
  2
*ACTIVE
 70
     0
 10
0.0
 20
0.0
 11
1.0
 21
1.0
 12
6.591288
 22
4.579184
 13
0.0
 23
0.0
 14
1.0
 24
1.0
 15
0.0
 25
0.0
 16
0.0
 26
0.0
 36
1.0
 17
0.0
 27
0.0
 37
0.0
 40
9.158369
 41
0.688564
 42
50.0
 43
0.0
 44
0.0
 50
0.0
 51
0.0
 71
     0
 72
   100
 73
     1
 74
     1
 75
     0
 76
     0
 77
     0
 78
     0
281
     0
 65
     0
110
0.0
120
0.0
130
0.0
111
1.0
121
0.0
131
0.0
112
0.0
122
1.0
132
0.0
345
0
346
0
 79
     0
146
0.0
  0
ENDTAB
  0
TABLE
  2
LTYPE
  5
4
100
AcDbSymbolTable
 70
     3
  0
LTYPE
  5
11
100
AcDbSymbolTableRecord
100
AcDbLinetypeTableRecord
  2
ByBlock
 70
    64
  3

 72
    65
 73
     0
 40
0.0
  0
LTYPE
  5
12
100
AcDbSymbolTableRecord
100
AcDbLinetypeTableRecord
  2
ByLayer
 70
    64
  3

 72
    65
 73
     0
 40
0.0
  0
LTYPE
  5
13
100
AcDbSymbolTableRecord
100
AcDbLinetypeTableRecord
  2
Continuous
 70
    64
  3
Solid line
 72
    65
 73
     0
 40
0.0
  0
ENDTAB
  0
TABLE
  2
LAYER
  5
2
100
AcDbSymbolTable
 70
     3
  0
LAYER
  5
14
100
AcDbSymbolTableRecord
100
AcDbLayerTableRecord
  2
0
 70
     0
 62
     7
  6
Continuous
290
     1
370
    -3
390
1D
  0
LAYER
  5
24
100
AcDbSymbolTableRecord
100
AcDbLayerTableRecord
  2
Layer 1
 70
     0
 62
     7
  6
Continuous
290
     1
370
    -3
390
1F
  0
LAYER
  5
29
100
AcDbSymbolTableRecord
100
AcDbLayerTableRecord
  2
P1-Layer 1
 70
     0
 62
     7
  6
Continuous
290
     1
370
    -3
390
1F
  0
ENDTAB
  0
TABLE
  2
STYLE
  5
3
100
AcDbSymbolTable
 70
     2
  0
STYLE
  5
17
100
AcDbSymbolTableRecord
100
AcDbTextStyleTableRecord
  2
Standard
 70
     0
 40
0.0
 41
1.0
 50
0.0
 71
     0
 42
0.0
  3
txt
  4

  0
STYLE
  5
26
100
AcDbSymbolTableRecord
100
AcDbTextStyleTableRecord
  2
Bookman Old Style
 70
     0
 40
1.0
 41
1.0
 50
0.0
 71
     0
 42
1.0
  3
Bookman Old Style
  4

  0
ENDTAB
  0
TABLE
  2
VIEW
  5
5
100
AcDbSymbolTable
 70
     0
  0
ENDTAB
  0
TABLE
  2
UCS
  5
6
100
AcDbSymbolTable
 70
     0
  0
ENDTAB
  0
TABLE
  2
APPID
  5
8
100
AcDbSymbolTable
 70
     1
  0
APPID
  5
16
100
AcDbSymbolTableRecord
100
AcDbRegAppTableRecord
  2
ACAD
 70
     0
  0
ENDTAB
  0
TABLE
  2
DIMSTYLE
  5
9
100
AcDbSymbolTable
 70
     1
100
AcDbDimStyleTable
 71
     0
  0
DIMSTYLE
105
18
100
AcDbSymbolTableRecord
100
AcDbDimStyleTableRecord
  2
Standard
 70
     0
  3

  4

 40
1.0
 41
0.18
 42
0.0625
 43
0.38
 44
0.18
 45
0.0
 46
0.0
 47
0.0
 48
0.0
 71
     0
 72
     0
 73
     1
 74
     1
 75
     0
 76
     0
 77
     0
 78
     0
 79
     0
140
0.18
141
0.09
142
0.0
143
25.4
144
1.0
145
0.0
146
1.0
147
0.09
148
0.0
170
     0
171
     2
172
     0
173
     0
174
     0
175
     0
176
     0
177
     0
178
     0
179
     0
271
     4
272
     4
273
     2
274
     2
275
     0
276
     0
277
     2
278
    46
279
     0
280
     0
281
     0
282
     0
283
     1
284
     0
285
     0
286
     0
288
     0
340
17
341
0
342
0
343
0
344
0
371
    -2
372
    -2
  0
ENDTAB
  0
TABLE
  2
BLOCK_RECORD
  5
1
100
AcDbSymbolTable
 70
     0
  0
BLOCK_RECORD
  5
A
100
AcDbSymbolTableRecord
100
AcDbBlockTableRecord
  2
*MODEL_SPACE
340
20
  0
BLOCK_RECORD
  5
B
100
AcDbSymbolTableRecord
100
AcDbBlockTableRecord
  2
*PAPER_SPACE
340
21
  0
ENDTAB
  0
ENDSEC
  0
SECTION
  2
BLOCKS
  0
BLOCK
  5
D
100
AcDbEntity
  8
0
100
AcDbBlockBegin
  2
*MODEL_SPACE
 70
     0
 10
0.0
 20
0.0
 30
0.0
  3
*MODEL_SPACE
  1

  0
ENDBLK
  5
E
100
AcDbEntity
  8
0
100
AcDbBlockEnd
  0
BLOCK
  5
F
100
AcDbEntity
 67
     1
  8
0
100
AcDbBlockBegin
  2
*PAPER_SPACE
 70
     0
 10
0.0
 20
0.0
 30
0.0
  3
*PAPER_SPACE
  1

  0
ENDBLK
  5
10
100
AcDbEntity
 67
     1
  8
0
100
AcDbBlockEnd
  0
ENDSEC
  0
SECTION
  2
ENTITIES
  0
SPLINE
  5
25
100
AcDbEntity
  8
Layer 1
370
    40
100
AcDbSpline
210
0.0
220
0.0
230
1.0
 70
     1
 71
     3
 72
    44
 73
    40
 74
     0
 42
0.0000000001
 43
0.0000000001
 40
0.0
 40
0.0
 40
0.0
 40
0.0
 40
0.1
 40
0.1
 40
0.1
 40
0.1
 40
0.2
 40
0.2
 40
0.2
 40
0.2
 40
0.3
 40
0.3
 40
0.3
 40
0.3
 40
0.4
 40
0.4
 40
0.4
 40
0.4
 40
0.5
 40
0.5
 40
0.5
 40
0.5
 40
0.6
 40
0.6
 40
0.6
 40
0.6
 40
0.7
 40
0.7
 40
0.7
 40
0.7
 40
0.7999999999999999
 40
0.7999999999999999
 40
0.7999999999999999
 40
0.7999999999999999
 40
0.8999999999999999
 40
0.8999999999999999
 40
0.8999999999999999
 40
0.8999999999999999
 40
1.0
 40
1.0
 40
1.0
 40
1.0
 10
0.8615944881889764
 20
1.2285472440944882
 30
0.0
 10
0.8615944881889764
 20
1.2285472440944882
 30
0.0
 10
0.8615944881889764
 20
1.4048307086614173
 30
0.0
 10
0.8615944881889764
 20
1.4048307086614173
 30
0.0
 10
0.8615944881889764
 20
1.4048307086614173
 30
0.0
 10
0.6334015748031496
 20
1.4128110236220472
 30
0.0
 10
0.5757992125984253
 20
1.491488188976378
 30
0.0
 10
0.5728070866141732
 20
1.6086102362204726
 30
0.0
 10
0.5728070866141732
 20
1.6086102362204726
 30
0.0
 10
0.5728070866141732
 20
1.6086102362204726
 30
0.0
 10
0.4222874015748032
 20
1.6086102362204726
 30
0.0
 10
0.4222874015748032
 20
1.6086102362204726
 30
0.0
 10
0.4222874015748032
 20
1.6086102362204726
 30
0.0
 10
0.3596968503937008
 20
1.8061732283464567
 30
0.0
 10
0.2164645669291339
 20
1.755708661417323
 30
0.0
 10
0.0654527559055118
 20
1.7116102362204726
 30
0.0
 10
0.0654527559055118
 20
1.7116102362204726
 30
0.0
 10
-0.0855590551181102
 20
1.667511811023622
 30
0.0
 10
-0.2132795275590551
 20
1.7820590551181104
 30
0.0
 10
-0.2178740157480315
 20
1.8540393700787403
 30
0.0
 10
-0.2178740157480315
 20
1.8540393700787403
 30
0.0
 10
-0.2178740157480315
 20
1.8540393700787403
 30
0.0
 10
-0.4696496062992126
 20
1.8693543307086615
 30
0.0
 10
-0.4696496062992126
 20
1.8693543307086615
 30
0.0
 10
-0.4696496062992126
 20
1.8693543307086615
 30
0.0
 10
-0.4696496062992126
 20
1.8693543307086615
 30
0.0
 10
-0.4696496062992126
 20
0.5750826771653543
 30
0.0
 10
-0.4696496062992126
 20
0.5750826771653543
 30
0.0
 10
-0.4696496062992126
 20
0.5750826771653543
 30
0.0
 10
-0.4696496062992126
 20
0.5750826771653543
 30
0.0
 10
0.5424606299212599
 20
0.5750826771653543
 30
0.0
 10
0.5424606299212599
 20
0.5750826771653543
 30
0.0
 10
0.5424606299212599
 20
0.5750826771653543
 30
0.0
 10
0.5424606299212599
 20
0.5750826771653543
 30
0.0
 10
0.5424606299212599
 20
1.2285472440944882
 30
0.0
 10
0.5424606299212599
 20
1.2285472440944882
 30
0.0
 10
0.5424606299212599
 20
1.2285472440944882
 30
0.0
 10
0.5424606299212599
 20
1.2285472440944882
 30
0.0
 10
0.8615944881889764
 20
1.2285472440944882
 30
0.0
 10
0.8615944881889764
 20
1.2285472440944882
 30
0.0
  0
TEXT
  5
27
100
AcDbEntity
  8
Layer 1
100
AcDbText
 10
-0.324098
 20
0.346272
 30
0.0
 40
0.119999
  1
BA  1509
 51
-0.000002
  7
Bookman Old Style
100
AcDbText
  0
TEXT
  5
28
100
AcDbEntity
  8
Layer 1
100
AcDbText
 10
-0.692472
 20
0.158772
 30
0.0
 40
0.119999
  1
1-5/16\u+201d x 1-5/16\u+201d
 51
-0.000002
  7
Bookman Old Style
100
AcDbText
  0
SPLINE
  5
2A
100
AcDbEntity
  8
P1-Layer 1
 62
   253
100
AcDbSpline
210
0.0
220
0.0
230
1.0
 70
     1
 71
     3
 72
    28
 73
    24
 74
     0
 42
0.0000000001
 43
0.0000000001
 40
0.0
 40
0.0
 40
0.0
 40
0.0
 40
0.1666666666666667
 40
0.1666666666666667
 40
0.1666666666666667
 40
0.1666666666666667
 40
0.3333333333333333
 40
0.3333333333333333
 40
0.3333333333333333
 40
0.3333333333333333
 40
0.5
 40
0.5
 40
0.5
 40
0.5
 40
0.6666666666666666
 40
0.6666666666666666
 40
0.6666666666666666
 40
0.6666666666666666
 40
0.8333333333333333
 40
0.8333333333333333
 40
0.8333333333333333
 40
0.8333333333333333
 40
1.0
 40
1.0
 40
1.0
 40
1.0
 10
0.841484251968504
 20
-1.6292795275590553
 30
0.0
 10
0.841484251968504
 20
-1.6292795275590553
 30
0.0
 10
0.8405118110236221
 20
-0.8759330708661418
 30
0.0
 10
0.8405118110236221
 20
-0.8759330708661418
 30
0.0
 10
0.8405118110236221
 20
-0.8759330708661418
 30
0.0
 10
0.8405118110236221
 20
-0.8759330708661418
 30
0.0
 10
0.8196102362204725
 20
-0.8749724409448819
 30
0.0
 10
0.8196102362204725
 20
-0.8749724409448819
 30
0.0
 10
0.8196102362204725
 20
-0.8749724409448819
 30
0.0
 10
0.8196102362204725
 20
-0.8749724409448819
 30
0.0
 10
0.7996889763779528
 20
-0.8736102362204725
 30
0.0
 10
0.7996889763779528
 20
-0.8736102362204725
 30
0.0
 10
0.7996889763779528
 20
-0.8736102362204725
 30
0.0
 10
0.7996889763779528
 20
-0.8736102362204725
 30
0.0
 10
0.8006614173228347
 20
-1.6269566929133858
 30
0.0
 10
0.8006614173228347
 20
-1.6269566929133858
 30
0.0
 10
0.8006614173228347
 20
-1.6269566929133858
 30
0.0
 10
0.8006614173228347
 20
-1.6269566929133858
 30
0.0
 10
0.8205826771653544
 20
-1.6283188976377954
 30
0.0
 10
0.8205826771653544
 20
-1.6283188976377954
 30
0.0
 10
0.8205826771653544
 20
-1.6283188976377954
 30
0.0
 10
0.8205826771653544
 20
-1.6283188976377954
 30
0.0
 10
0.841484251968504
 20
-1.6292795275590553
 30
0.0
 10
0.841484251968504
 20
-1.6292795275590553
 30
0.0
  0
SPLINE
  5
2B
100
AcDbEntity
  8
P1-Layer 1
 62
   253
100
AcDbSpline
210
0.0
220
0.0
230
1.0
 70
     1
 71
     3
 72
    28
 73
    24
 74
     0
 42
0.0000000001
 43
0.0000000001
 40
0.0
 40
0.0
 40
0.0
 40
0.0
 40
0.1666666666666667
 40
0.1666666666666667
 40
0.1666666666666667
 40
0.1666666666666667
 40
0.3333333333333333
 40
0.3333333333333333
 40
0.3333333333333333
 40
0.3333333333333333
 40
0.5
 40
0.5
 40
0.5
 40
0.5
 40
0.6666666666666666
 40
0.6666666666666666
 40
0.6666666666666666
 40
0.6666666666666666
 40
0.8333333333333333
 40
0.8333333333333333
 40
0.8333333333333333
 40
0.8333333333333333
 40
1.0
 40
1.0
 40
1.0
 40
1.0
 10
0.8006614173228347
 20
-1.6269566929133858
 30
0.0
 10
0.8006614173228347
 20
-1.6269566929133858
 30
0.0
 10
0.7996889763779528
 20
-0.8736102362204725
 30
0.0
 10
0.7996889763779528
 20
-0.8736102362204725
 30
0.0
 10
0.7996889763779528
 20
-0.8736102362204725
 30
0.0
 10
0.7996889763779528
 20
-0.8736102362204725
 30
0.0
 10
0.7807244094488189
 20
-0.8718425196850395
 30
0.0
 10
0.7807244094488189
 20
-0.8718425196850395
 30
0.0
 10
0.7807244094488189
 20
-0.8718425196850395
 30
0.0
 10
0.7807244094488189
 20
-0.8718425196850395
 30
0.0
 10
0.7627047244094488
 20
-0.8696850393700788
 30
0.0
 10
0.7627047244094488
 20
-0.8696850393700788
 30
0.0
 10
0.7627047244094488
 20
-0.8696850393700788
 30
0.0
 10
0.7627047244094488
 20
-0.8696850393700788
 30
0.0
 10
0.7636771653543307
 20
-1.6230314960629921
 30
0.0
 10
0.7636771653543307
 20
-1.6230314960629921
 30
0.0
 10
0.7636771653543307
 20
-1.6230314960629921
 30
0.0
 10
0.7636771653543307
 20
-1.6230314960629921
 30
0.0
 10
0.7816968503937009
 20
-1.6251889763779528
 30
0.0
 10
0.7816968503937009
 20
-1.6251889763779528
 30
0.0
 10
0.7816968503937009
 20
-1.6251889763779528
 30
0.0
 10
0.7816968503937009
 20
-1.6251889763779528
 30
0.0
 10
0.8006614173228347
 20
-1.6269566929133858
 30
0.0
 10
0.8006614173228347
 20
-1.6269566929133858
 30
0.0
  0
SPLINE
  5
2C
100
AcDbEntity
  8
P1-Layer 1
 62
   253
100
AcDbSpline
210
0.0
220
0.0
230
1.0
 70
     1
 71
     3
 72
    36
 73
    32
 74
     0
 42
0.0000000001
 43
0.0000000001
 40
0.0
 40
0.0
 40
0.0
 40
0.0
 40
0.125
 40
0.125
 40
0.125
 40
0.125
 40
0.25
 40
0.25
 40
0.25
 40
0.25
 40
0.375
 40
0.375
 40
0.375
 40
0.375
 40
0.5
 40
0.5
 40
0.5
 40
0.5
 40
0.625
 40
0.625
 40
0.625
 40
0.625
 40
0.75
 40
0.75
 40
0.75
 40
0.75
 40
0.875
 40
0.875
 40
0.875
 40
0.875
 40
1.0
 40
1.0
 40
1.0
 40
1.0
 10
0.7636771653543307
 20
-1.6230314960629921
 30
0.0
 10
0.7636771653543307
 20
-1.6230314960629921
 30
0.0
 10
0.7627047244094488
 20
-0.8696850393700788
 30
0.0
 10
0.7627047244094488
 20
-0.8696850393700788
 30
0.0
 10
0.7627047244094488
 20
-0.8696850393700788
 30
0.0
 10
0.7627047244094488
 20
-0.8696850393700788
 30
0.0
 10
0.7455866141732284
 20
-0.8671259842519685
 30
0.0
 10
0.7455866141732284
 20
-0.8671259842519685
 30
0.0
 10
0.7455866141732284
 20
-0.8671259842519685
 30
0.0
 10
0.7455866141732284
 20
-0.8671259842519685
 30
0.0
 10
0.7293700787401575
 20
-0.8641889763779528
 30
0.0
 10
0.7293700787401575
 20
-0.8641889763779528
 30
0.0
 10
0.7293700787401575
 20
-0.8641889763779528
 30
0.0
 10
0.7293700787401575
 20
-0.8641889763779528
 30
0.0
 10
0.7140236220472441
 20
-0.8608740157480316
 30
0.0
 10
0.7140236220472441
 20
-0.8608740157480316
 30
0.0
 10
0.7140236220472441
 20
-0.8608740157480316
 30
0.0
 10
0.7140236220472441
 20
-0.8608740157480316
 30
0.0
 10
0.714996062992126
 20
-1.614220472440945
 30
0.0
 10
0.714996062992126
 20
-1.614220472440945
 30
0.0
 10
0.714996062992126
 20
-1.614220472440945
 30
0.0
 10
0.714996062992126
 20
-1.614220472440945
 30
0.0
 10
0.7303425196850394
 20
-1.6175354330708662
 30
0.0
 10
0.7303425196850394
 20
-1.6175354330708662
 30
0.0
 10
0.7303425196850394
 20
-1.6175354330708662
 30
0.0
 10
0.7303425196850394
 20
-1.6175354330708662
 30
0.0
 10
0.7465590551181103
 20
-1.6204724409448819
 30
0.0
 10
0.7465590551181103
 20
-1.6204724409448819
 30
0.0
 10
0.7465590551181103
 20
-1.6204724409448819
 30
0.0
 10
0.7465590551181103
 20
-1.6204724409448819
 30
0.0
 10
0.7636771653543307
 20
-1.6230314960629921
 30
0.0
 10
0.7636771653543307
 20
-1.6230314960629921
 30
0.0
  0
SPLINE
  5
2D
100
AcDbEntity
  8
P1-Layer 1
 62
   253
100
AcDbSpline
210
0.0
220
0.0
230
1.0
 70
     1
 71
     3
 72
    36
 73
    32
 74
     0
 42
0.0000000001
 43
0.0000000001
 40
0.0
 40
0.0
 40
0.0
 40
0.0
 40
0.125
 40
0.125
 40
0.125
 40
0.125
 40
0.25
 40
0.25
 40
0.25
 40
0.25
 40
0.375
 40
0.375
 40
0.375
 40
0.375
 40
0.5
 40
0.5
 40
0.5
 40
0.5
 40
0.625
 40
0.625
 40
0.625
 40
0.625
 40
0.75
 40
0.75
 40
0.75
 40
0.75
 40
0.875
 40
0.875
 40
0.875
 40
0.875
 40
1.0
 40
1.0
 40
1.0
 40
1.0
 10
0.714996062992126
 20
-1.614220472440945
 30
0.0
 10
0.714996062992126
 20
-1.614220472440945
 30
0.0
 10
0.7140236220472441
 20
-0.8608740157480316
 30
0.0
 10
0.7140236220472441
 20
-0.8608740157480316
 30
0.0
 10
0.7140236220472441
 20
-0.8608740157480316
 30
0.0
 10
0.7140236220472441
 20
-0.8608740157480316
 30
0.0
 10
0.6995354330708662
 20
-0.8571889763779528
 30
0.0
 10
0.6995354330708662
 20
-0.8571889763779528
 30
0.0
 10
0.6995354330708662
 20
-0.8571889763779528
 30
0.0
 10
0.6995354330708662
 20
-0.8571889763779528
 30
0.0
 10
0.6858661417322834
 20
-0.8531299212598426
 30
0.0
 10
0.6858661417322834
 20
-0.8531299212598426
 30
0.0
 10
0.6858661417322834
 20
-0.8531299212598426
 30
0.0
 10
0.6858661417322834
 20
-0.8531299212598426
 30
0.0
 10
0.6730118110236221
 20
-0.8487125984251969
 30
0.0
 10
0.6730118110236221
 20
-0.8487125984251969
 30
0.0
 10
0.6730118110236221
 20
-0.8487125984251969
 30
0.0
 10
0.6730118110236221
 20
-0.8487125984251969
 30
0.0
 10
0.673984251968504
 20
-1.6020590551181102
 30
0.0
 10
0.673984251968504
 20
-1.6020590551181102
 30
0.0
 10
0.673984251968504
 20
-1.6020590551181102
 30
0.0
 10
0.673984251968504
 20
-1.6020590551181102
 30
0.0
 10
0.6868385826771654
 20
-1.606476377952756
 30
0.0
 10
0.6868385826771654
 20
-1.606476377952756
 30
0.0
 10
0.6868385826771654
 20
-1.606476377952756
 30
0.0
 10
0.6868385826771654
 20
-1.606476377952756
 30
0.0
 10
0.7005078740157481
 20
-1.6105354330708661
 30
0.0
 10
0.7005078740157481
 20
-1.6105354330708661
 30
0.0
 10
0.7005078740157481
 20
-1.6105354330708661
 30
0.0
 10
0.7005078740157481
 20
-1.6105354330708661
 30
0.0
 10
0.714996062992126
 20
-1.614220472440945
 30
0.0
 10
0.714996062992126
 20
-1.614220472440945
 30
0.0
  0
SPLINE
  5
2E
100
AcDbEntity
  8
P1-Layer 1
 62
   253
100
AcDbSpline
210
0.0
220
0.0
230
1.0
 70
     1
 71
     3
 72
    44
 73
    40
 74
     0
 42
0.0000000001
 43
0.0000000001
 40
0.0
 40
0.0
 40
0.0
 40
0.0
 40
0.1
 40
0.1
 40
0.1
 40
0.1
 40
0.2
 40
0.2
 40
0.2
 40
0.2
 40
0.3
 40
0.3
 40
0.3
 40
0.3
 40
0.4
 40
0.4
 40
0.4
 40
0.4
 40
0.5
 40
0.5
 40
0.5
 40
0.5
 40
0.6
 40
0.6
 40
0.6
 40
0.6
 40
0.7
 40
0.7
 40
0.7
 40
0.7
 40
0.7999999999999999
 40
0.7999999999999999
 40
0.7999999999999999
 40
0.7999999999999999
 40
0.8999999999999999
 40
0.8999999999999999
 40
0.8999999999999999
 40
0.8999999999999999
 40
1.0
 40
1.0
 40
1.0
 40
1.0
 10
0.673984251968504
 20
-1.6020590551181102
 30
0.0
 10
0.673984251968504
 20
-1.6020590551181102
 30
0.0
 10
0.6730118110236221
 20
-0.8487125984251969
 30
0.0
 10
0.6730118110236221
 20
-0.8487125984251969
 30
0.0
 10
0.6730118110236221
 20
-0.8487125984251969
 30
0.0
 10
0.6730118110236221
 20
-0.8487125984251969
 30
0.0
 10
0.6609409448818898
 20
-0.8439409448818898
 30
0.0
 10
0.6609409448818898
 20
-0.8439409448818898
 30
0.0
 10
0.6609409448818898
 20
-0.8439409448818898
 30
0.0
 10
0.6609409448818898
 20
-0.8439409448818898
 30
0.0
 10
0.6496417322834646
 20
-0.8388228346456693
 30
0.0
 10
0.6496417322834646
 20
-0.8388228346456693
 30
0.0
 10
0.6496417322834646
 20
-0.8388228346456693
 30
0.0
 10
0.6496417322834646
 20
-0.8388228346456693
 30
0.0
 10
0.6390787401574803
 20
-0.8333543307086615
 30
0.0
 10
0.6390787401574803
 20
-0.8333543307086615
 30
0.0
 10
0.6390787401574803
 20
-0.8333543307086615
 30
0.0
 10
0.6390787401574803
 20
-0.8333543307086615
 30
0.0
 10
0.629244094488189
 20
-0.8275551181102363
 30
0.0
 10
0.629244094488189
 20
-0.8275551181102363
 30
0.0
 10
0.629244094488189
 20
-0.8275551181102363
 30
0.0
 10
0.629244094488189
 20
-0.8275551181102363
 30
0.0
 10
0.6302165354330709
 20
-1.5809015748031496
 30
0.0
 10
0.6302165354330709
 20
-1.5809015748031496
 30
0.0
 10
0.6302165354330709
 20
-1.5809015748031496
 30
0.0
 10
0.6302165354330709
 20
-1.5809015748031496
 30
0.0
 10
0.6400511811023623
 20
-1.5867007874015748
 30
0.0
 10
0.6400511811023623
 20
-1.5867007874015748
 30
0.0
 10
0.6400511811023623
 20
-1.5867007874015748
 30
0.0
 10
0.6400511811023623
 20
-1.5867007874015748
 30
0.0
 10
0.6506141732283465
 20
-1.5921692913385828
 30
0.0
 10
0.6506141732283465
 20
-1.5921692913385828
 30
0.0
 10
0.6506141732283465
 20
-1.5921692913385828
 30
0.0
 10
0.6506141732283465
 20
-1.5921692913385828
 30
0.0
 10
0.6619133858267717
 20
-1.5972874015748033
 30
0.0
 10
0.6619133858267717
 20
-1.5972874015748033
 30
0.0
 10
0.6619133858267717
 20
-1.5972874015748033
 30
0.0
 10
0.6619133858267717
 20
-1.5972874015748033
 30
0.0
 10
0.673984251968504
 20
-1.6020590551181102
 30
0.0
 10
0.673984251968504
 20
-1.6020590551181102
 30
0.0
  0
SPLINE
  5
2F
100
AcDbEntity
  8
P1-Layer 1
 62
     9
100
AcDbSpline
210
0.0
220
0.0
230
1.0
 70
     1
 71
     3
 72
    44
 73
    40
 74
     0
 42
0.0000000001
 43
0.0000000001
 40
0.0
 40
0.0
 40
0.0
 40
0.0
 40
0.1
 40
0.1
 40
0.1
 40
0.1
 40
0.2
 40
0.2
 40
0.2
 40
0.2
 40
0.3
 40
0.3
 40
0.3
 40
0.3
 40
0.4
 40
0.4
 40
0.4
 40
0.4
 40
0.5
 40
0.5
 40
0.5
 40
0.5
 40
0.6
 40
0.6
 40
0.6
 40
0.6
 40
0.7
 40
0.7
 40
0.7
 40
0.7
 40
0.7999999999999999
 40
0.7999999999999999
 40
0.7999999999999999
 40
0.7999999999999999
 40
0.8999999999999999
 40
0.8999999999999999
 40
0.8999999999999999
 40
0.8999999999999999
 40
1.0
 40
1.0
 40
1.0
 40
1.0
 10
0.6302165354330709
 20
-1.5809015748031496
 30
0.0
 10
0.6302165354330709
 20
-1.5809015748031496
 30
0.0
 10
0.629244094488189
 20
-0.8275551181102363
 30
0.0
 10
0.629244094488189
 20
-0.8275551181102363
 30
0.0
 10
0.629244094488189
 20
-0.8275551181102363
 30
0.0
 10
0.629244094488189
 20
-0.8275551181102363
 30
0.0
 10
0.6201102362204725
 20
-0.8214251968503937
 30
0.0
 10
0.6201102362204725
 20
-0.8214251968503937
 30
0.0
 10
0.6201102362204725
 20
-0.8214251968503937
 30
0.0
 10
0.6201102362204725
 20
-0.8214251968503937
 30
0.0
 10
0.6116653543307087
 20
-0.8149685039370079
 30
0.0
 10
0.6116653543307087
 20
-0.8149685039370079
 30
0.0
 10
0.6116653543307087
 20
-0.8149685039370079
 30
0.0
 10
0.6116653543307087
 20
-0.8149685039370079
 30
0.0
 10
0.6038661417322835
 20
-0.8081850393700788
 30
0.0
 10
0.6038661417322835
 20
-0.8081850393700788
 30
0.0
 10
0.6038661417322835
 20
-0.8081850393700788
 30
0.0
 10
0.6038661417322835
 20
-0.8081850393700788
 30
0.0
 10
0.5967125984251969
 20
-0.8010905511811024
 30
0.0
 10
0.5967125984251969
 20
-0.8010905511811024
 30
0.0
 10
0.5967125984251969
 20
-0.8010905511811024
 30
0.0
 10
0.5967125984251969
 20
-0.8010905511811024
 30
0.0
 10
0.5976850393700788
 20
-1.5544370078740157
 30
0.0
 10
0.5976850393700788
 20
-1.5544370078740157
 30
0.0
 10
0.5976850393700788
 20
-1.5544370078740157
 30
0.0
 10
0.5976850393700788
 20
-1.5544370078740157
 30
0.0
 10
0.6048385826771654
 20
-1.5615314960629922
 30
0.0
 10
0.6048385826771654
 20
-1.5615314960629922
 30
0.0
 10
0.6048385826771654
 20
-1.5615314960629922
 30
0.0
 10
0.6048385826771654
 20
-1.5615314960629922
 30
0.0
 10
0.6126377952755906
 20
-1.5683149606299214
 30
0.0
 10
0.6126377952755906
 20
-1.5683149606299214
 30
0.0
 10
0.6126377952755906
 20
-1.5683149606299214
 30
0.0
 10
0.6126377952755906
 20
-1.5683149606299214
 30
0.0
 10
0.6210826771653544
 20
-1.5747716535433072
 30
0.0
 10
0.6210826771653544
 20
-1.5747716535433072
 30
0.0
 10
0.6210826771653544
 20
-1.5747716535433072
 30
0.0
 10
0.6210826771653544
 20
-1.5747716535433072
 30
0.0
 10
0.6302165354330709
 20
-1.5809015748031496
 30
0.0
 10
0.6302165354330709
 20
-1.5809015748031496
 30
0.0
  0
SPLINE
  5
30
100
AcDbEntity
  8
P1-Layer 1
 62
     9
100
AcDbSpline
210
0.0
220
0.0
230
1.0
 70
     1
 71
     3
 72
    52
 73
    48
 74
     0
 42
0.0000000001
 43
0.0000000001
 40
0.0
 40
0.0
 40
0.0
 40
0.0
 40
0.0833333333333333
 40
0.0833333333333333
 40
0.0833333333333333
 40
0.0833333333333333
 40
0.1666666666666667
 40
0.1666666666666667
 40
0.1666666666666667
 40
0.1666666666666667
 40
0.25
 40
0.25
 40
0.25
 40
0.25
 40
0.3333333333333333
 40
0.3333333333333333
 40
0.3333333333333333
 40
0.3333333333333333
 40
0.4166666666666666
 40
0.4166666666666666
 40
0.4166666666666666
 40
0.4166666666666666
 40
0.4999999999999999
 40
0.4999999999999999
 40
0.4999999999999999
 40
0.4999999999999999
 40
0.5833333333333333
 40
0.5833333333333333
 40
0.5833333333333333
 40
0.5833333333333333
 40
0.6666666666666666
 40
0.6666666666666666
 40
0.6666666666666666
 40
0.6666666666666666
 40
0.75
 40
0.75
 40
0.75
 40
0.75
 40
0.8333333333333334
 40
0.8333333333333334
 40
0.8333333333333334
 40
0.8333333333333334
 40
0.9166666666666667
 40
0.9166666666666667
 40
0.9166666666666667
 40
0.9166666666666667
 40
1.0
 40
1.0
 40
1.0
 40
1.0
 10
0.5976850393700788
 20
-1.5544370078740157
 30
0.0
 10
0.5976850393700788
 20
-1.5544370078740157
 30
0.0
 10
0.5967125984251969
 20
-0.8010905511811024
 30
0.0
 10
0.5967125984251969
 20
-0.8010905511811024
 30
0.0
 10
0.5967125984251969
 20
-0.8010905511811024
 30
0.0
 10
0.5967125984251969
 20
-0.8010905511811024
 30
0.0
 10
0.5901771653543307
 20
-0.7936889763779528
 30
0.0
 10
0.5901771653543307
 20
-0.7936889763779528
 30
0.0
 10
0.5901771653543307
 20
-0.7936889763779528
 30
0.0
 10
0.5901771653543307
 20
-0.7936889763779528
 30
0.0
 10
0.584240157480315
 20
-0.785988188976378
 30
0.0
 10
0.584240157480315
 20
-0.785988188976378
 30
0.0
 10
0.584240157480315
 20
-0.785988188976378
 30
0.0
 10
0.584240157480315
 20
-0.785988188976378
 30
0.0
 10
0.5788700787401575
 20
-0.777984251968504
 30
0.0
 10
0.5788700787401575
 20
-0.777984251968504
 30
0.0
 10
0.5788700787401575
 20
-0.777984251968504
 30
0.0
 10
0.5788700787401575
 20
-0.777984251968504
 30
0.0
 10
0.5740629921259843
 20
-0.7696968503937008
 30
0.0
 10
0.5740629921259843
 20
-0.7696968503937008
 30
0.0
 10
0.5740629921259843
 20
-0.7696968503937008
 30
0.0
 10
0.5740629921259843
 20
-0.7696968503937008
 30
0.0
 10
0.5697795275590551
 20
-0.7611220472440945
 30
0.0
 10
0.5697795275590551
 20
-0.7611220472440945
 30
0.0
 10
0.5697795275590551
 20
-0.7611220472440945
 30
0.0
 10
0.5697795275590551
 20
-0.7611220472440945
 30
0.0
 10
0.5707519685039371
 20
-1.5144685039370078
 30
0.0
 10
0.5707519685039371
 20
-1.5144685039370078
 30
0.0
 10
0.5707519685039371
 20
-1.5144685039370078
 30
0.0
 10
0.5707519685039371
 20
-1.5144685039370078
 30
0.0
 10
0.5750354330708661
 20
-1.5230433070866143
 30
0.0
 10
0.5750354330708661
 20
-1.5230433070866143
 30
0.0
 10
0.5750354330708661
 20
-1.5230433070866143
 30
0.0
 10
0.5750354330708661
 20
-1.5230433070866143
 30
0.0
 10
0.5798425196850394
 20
-1.5313307086614174
 30
0.0
 10
0.5798425196850394
 20
-1.5313307086614174
 30
0.0
 10
0.5798425196850394
 20
-1.5313307086614174
 30
0.0
 10
0.5798425196850394
 20
-1.5313307086614174
 30
0.0
 10
0.5852125984251969
 20
-1.5393346456692913
 30
0.0
 10
0.5852125984251969
 20
-1.5393346456692913
 30
0.0
 10
0.5852125984251969
 20
-1.5393346456692913
 30
0.0
 10
0.5852125984251969
 20
-1.5393346456692913
 30
0.0
 10
0.5911496062992127
 20
-1.5470354330708662
 30
0.0
 10
0.5911496062992127
 20
-1.5470354330708662
 30
0.0
 10
0.5911496062992127
 20
-1.5470354330708662
 30
0.0
 10
0.5911496062992127
 20
-1.5470354330708662
 30
0.0
 10
0.5976850393700788
 20
-1.5544370078740157
 30
0.0
 10
0.5976850393700788
 20
-1.5544370078740157
 30
0.0
  0
SPLINE
  5
31
100
AcDbEntity
  8
P1-Layer 1
 62
     9
100
AcDbSpline
210
0.0
220
0.0
230
1.0
 70
     1
 71
     3
 72
    52
 73
    48
 74
     0
 42
0.0000000001
 43
0.0000000001
 40
0.0
 40
0.0
 40
0.0
 40
0.0
 40
0.0833333333333333
 40
0.0833333333333333
 40
0.0833333333333333
 40
0.0833333333333333
 40
0.1666666666666667
 40
0.1666666666666667
 40
0.1666666666666667
 40
0.1666666666666667
 40
0.25
 40
0.25
 40
0.25
 40
0.25
 40
0.3333333333333333
 40
0.3333333333333333
 40
0.3333333333333333
 40
0.3333333333333333
 40
0.4166666666666666
 40
0.4166666666666666
 40
0.4166666666666666
 40
0.4166666666666666
 40
0.4999999999999999
 40
0.4999999999999999
 40
0.4999999999999999
 40
0.4999999999999999
 40
0.5833333333333333
 40
0.5833333333333333
 40
0.5833333333333333
 40
0.5833333333333333
 40
0.6666666666666666
 40
0.6666666666666666
 40
0.6666666666666666
 40
0.6666666666666666
 40
0.75
 40
0.75
 40
0.75
 40
0.75
 40
0.8333333333333334
 40
0.8333333333333334
 40
0.8333333333333334
 40
0.8333333333333334
 40
0.9166666666666667
 40
0.9166666666666667
 40
0.9166666666666667
 40
0.9166666666666667
 40
1.0
 40
1.0
 40
1.0
 40
1.0
 10
0.5707519685039371
 20
-1.5144685039370078
 30
0.0
 10
0.5707519685039371
 20
-1.5144685039370078
 30
0.0
 10
0.5697795275590551
 20
-0.7611220472440945
 30
0.0
 10
0.5697795275590551
 20
-0.7611220472440945
 30
0.0
 10
0.5697795275590551
 20
-0.7611220472440945
 30
0.0
 10
0.5697795275590551
 20
-0.7611220472440945
 30
0.0
 10
0.5660157480314961
 20
-0.7522755905511811
 30
0.0
 10
0.5660157480314961
 20
-0.7522755905511811
 30
0.0
 10
0.5660157480314961
 20
-0.7522755905511811
 30
0.0
 10
0.5660157480314961
 20
-0.7522755905511811
 30
0.0
 10
0.5627322834645669
 20
-0.7431456692913386
 30
0.0
 10
0.5627322834645669
 20
-0.7431456692913386
 30
0.0
 10
0.5627322834645669
 20
-0.7431456692913386
 30
0.0
 10
0.5627322834645669
 20
-0.7431456692913386
 30
0.0
 10
0.5599251968503938
 20
-0.733755905511811
 30
0.0
 10
0.5599251968503938
 20
-0.733755905511811
 30
0.0
 10
0.5599251968503938
 20
-0.733755905511811
 30
0.0
 10
0.5599251968503938
 20
-0.733755905511811
 30
0.0
 10
0.5575590551181102
 20
-0.7241062992125985
 30
0.0
 10
0.5575590551181102
 20
-0.7241062992125985
 30
0.0
 10
0.5575590551181102
 20
-0.7241062992125985
 30
0.0
 10
0.5575590551181102
 20
-0.7241062992125985
 30
0.0
 10
0.5556299212598426
 20
-0.7142047244094488
 30
0.0
 10
0.5556299212598426
 20
-0.7142047244094488
 30
0.0
 10
0.5556299212598426
 20
-0.7142047244094488
 30
0.0
 10
0.5556299212598426
 20
-0.7142047244094488
 30
0.0
 10
0.5566023622047245
 20
-1.4675511811023623
 30
0.0
 10
0.5566023622047245
 20
-1.4675511811023623
 30
0.0
 10
0.5566023622047245
 20
-1.4675511811023623
 30
0.0
 10
0.5566023622047245
 20
-1.4675511811023623
 30
0.0
 10
0.5585314960629921
 20
-1.4774527559055119
 30
0.0
 10
0.5585314960629921
 20
-1.4774527559055119
 30
0.0
 10
0.5585314960629921
 20
-1.4774527559055119
 30
0.0
 10
0.5585314960629921
 20
-1.4774527559055119
 30
0.0
 10
0.5608976377952756
 20
-1.4871023622047244
 30
0.0
 10
0.5608976377952756
 20
-1.4871023622047244
 30
0.0
 10
0.5608976377952756
 20
-1.4871023622047244
 30
0.0
 10
0.5608976377952756
 20
-1.4871023622047244
 30
0.0
 10
0.5637047244094489
 20
-1.4964921259842521
 30
0.0
 10
0.5637047244094489
 20
-1.4964921259842521
 30
0.0
 10
0.5637047244094489
 20
-1.4964921259842521
 30
0.0
 10
0.5637047244094489
 20
-1.4964921259842521
 30
0.0
 10
0.5669881889763779
 20
-1.5056220472440947
 30
0.0
 10
0.5669881889763779
 20
-1.5056220472440947
 30
0.0
 10
0.5669881889763779
 20
-1.5056220472440947
 30
0.0
 10
0.5669881889763779
 20
-1.5056220472440947
 30
0.0
 10
0.5707519685039371
 20
-1.5144685039370078
 30
0.0
 10
0.5707519685039371
 20
-1.5144685039370078
 30
0.0
  0
SPLINE
  5
32
100
AcDbEntity
  8
P1-Layer 1
 62
   253
100
AcDbSpline
210
0.0
220
0.0
230
1.0
 70
     1
 71
     3
 72
    44
 73
    40
 74
     0
 42
0.0000000001
 43
0.0000000001
 40
0.0
 40
0.0
 40
0.0
 40
0.0
 40
0.1
 40
0.1
 40
0.1
 40
0.1
 40
0.2
 40
0.2
 40
0.2
 40
0.2
 40
0.3
 40
0.3
 40
0.3
 40
0.3
 40
0.4
 40
0.4
 40
0.4
 40
0.4
 40
0.5
 40
0.5
 40
0.5
 40
0.5
 40
0.6
 40
0.6
 40
0.6
 40
0.6
 40
0.7
 40
0.7
 40
0.7
 40
0.7
 40
0.7999999999999999
 40
0.7999999999999999
 40
0.7999999999999999
 40
0.7999999999999999
 40
0.8999999999999999
 40
0.8999999999999999
 40
0.8999999999999999
 40
0.8999999999999999
 40
1.0
 40
1.0
 40
1.0
 40
1.0
 10
0.5566023622047245
 20
-1.4675511811023623
 30
0.0
 10
0.5566023622047245
 20
-1.4675511811023623
 30
0.0
 10
0.5556299212598426
 20
-0.7142047244094488
 30
0.0
 10
0.5556299212598426
 20
-0.7142047244094488
 30
0.0
 10
0.5556299212598426
 20
-0.7142047244094488
 30
0.0
 10
0.5556299212598426
 20
-0.7142047244094488
 30
0.0
 10
0.5540944881889764
 20
-0.7040433070866142
 30
0.0
 10
0.5540944881889764
 20
-0.7040433070866142
 30
0.0
 10
0.5540944881889764
 20
-0.7040433070866142
 30
0.0
 10
0.5540944881889764
 20
-0.7040433070866142
 30
0.0
 10
0.5529488188976378
 20
-0.6936496062992126
 30
0.0
 10
0.5529488188976378
 20
-0.6936496062992126
 30
0.0
 10
0.5529488188976378
 20
-0.6936496062992126
 30
0.0
 10
0.5529488188976378
 20
-0.6936496062992126
 30
0.0
 10
0.5521614173228346
 20
-0.6830157480314961
 30
0.0
 10
0.5521614173228346
 20
-0.6830157480314961
 30
0.0
 10
0.5521614173228346
 20
-0.6830157480314961
 30
0.0
 10
0.5521614173228346
 20
-0.6830157480314961
 30
0.0
 10
0.551724409448819
 20
-0.6721535433070867
 30
0.0
 10
0.551724409448819
 20
-0.6721535433070867
 30
0.0
 10
0.551724409448819
 20
-0.6721535433070867
 30
0.0
 10
0.551724409448819
 20
-0.6721535433070867
 30
0.0
 10
0.5526968503937008
 20
-1.4255
 30
0.0
 10
0.5526968503937008
 20
-1.4255
 30
0.0
 10
0.5526968503937008
 20
-1.4255
 30
0.0
 10
0.5526968503937008
 20
-1.4255
 30
0.0
 10
0.5531338582677166
 20
-1.4363622047244096
 30
0.0
 10
0.5531338582677166
 20
-1.4363622047244096
 30
0.0
 10
0.5531338582677166
 20
-1.4363622047244096
 30
0.0
 10
0.5531338582677166
 20
-1.4363622047244096
 30
0.0
 10
0.5539212598425197
 20
-1.4469960629921261
 30
0.0
 10
0.5539212598425197
 20
-1.4469960629921261
 30
0.0
 10
0.5539212598425197
 20
-1.4469960629921261
 30
0.0
 10
0.5539212598425197
 20
-1.4469960629921261
 30
0.0
 10
0.5550669291338582
 20
-1.4573897637795277
 30
0.0
 10
0.5550669291338582
 20
-1.4573897637795277
 30
0.0
 10
0.5550669291338582
 20
-1.4573897637795277
 30
0.0
 10
0.5550669291338582
 20
-1.4573897637795277
 30
0.0
 10
0.5566023622047245
 20
-1.4675511811023623
 30
0.0
 10
0.5566023622047245
 20
-1.4675511811023623
 30
0.0
  0
SPLINE
  5
33
100
AcDbEntity
  8
P1-Layer 1
370
     5
100
AcDbSpline
210
0.0
220
0.0
230
1.0
 70
     1
 71
     3
 72
   268
 73
   264
 74
     0
 42
0.0000000001
 43
0.0000000001
 40
0.0
 40
0.0
 40
0.0
 40
0.0
 40
0.0151515151515152
 40
0.0151515151515152
 40
0.0151515151515152
 40
0.0151515151515152
 40
0.0303030303030303
 40
0.0303030303030303
 40
0.0303030303030303
 40
0.0303030303030303
 40
0.0454545454545455
 40
0.0454545454545455
 40
0.0454545454545455
 40
0.0454545454545455
 40
0.0606060606060606
 40
0.0606060606060606
 40
0.0606060606060606
 40
0.0606060606060606
 40
0.0757575757575758
 40
0.0757575757575758
 40
0.0757575757575758
 40
0.0757575757575758
 40
0.0909090909090909
 40
0.0909090909090909
 40
0.0909090909090909
 40
0.0909090909090909
 40
0.1060606060606061
 40
0.1060606060606061
 40
0.1060606060606061
 40
0.1060606060606061
 40
0.1212121212121212
 40
0.1212121212121212
 40
0.1212121212121212
 40
0.1212121212121212
 40
0.1363636363636364
 40
0.1363636363636364
 40
0.1363636363636364
 40
0.1363636363636364
 40
0.1515151515151515
 40
0.1515151515151515
 40
0.1515151515151515
 40
0.1515151515151515
 40
0.1666666666666666
 40
0.1666666666666666
 40
0.1666666666666666
 40
0.1666666666666666
 40
0.1818181818181818
 40
0.1818181818181818
 40
0.1818181818181818
 40
0.1818181818181818
 40
0.1969696969696969
 40
0.1969696969696969
 40
0.1969696969696969
 40
0.1969696969696969
 40
0.212121212121212
 40
0.212121212121212
 40
0.212121212121212
 40
0.212121212121212
 40
0.2272727272727272
 40
0.2272727272727272
 40
0.2272727272727272
 40
0.2272727272727272
 40
0.2424242424242423
 40
0.2424242424242423
 40
0.2424242424242423
 40
0.2424242424242423
 40
0.2575757575757575
 40
0.2575757575757575
 40
0.2575757575757575
 40
0.2575757575757575
 40
0.2727272727272726
 40
0.2727272727272726
 40
0.2727272727272726
 40
0.2727272727272726
 40
0.2878787878787877
 40
0.2878787878787877
 40
0.2878787878787877
 40
0.2878787878787877
 40
0.3030303030303029
 40
0.3030303030303029
 40
0.3030303030303029
 40
0.3030303030303029
 40
0.318181818181818
 40
0.318181818181818
 40
0.318181818181818
 40
0.318181818181818
 40
0.3333333333333332
 40
0.3333333333333332
 40
0.3333333333333332
 40
0.3333333333333332
 40
0.3484848484848483
 40
0.3484848484848483
 40
0.3484848484848483
 40
0.3484848484848483
 40
0.3636363636363634
 40
0.3636363636363634
 40
0.3636363636363634
 40
0.3636363636363634
 40
0.3787878787878786
 40
0.3787878787878786
 40
0.3787878787878786
 40
0.3787878787878786
 40
0.3939393939393937
 40
0.3939393939393937
 40
0.3939393939393937
 40
0.3939393939393937
 40
0.4090909090909088
 40
0.4090909090909088
 40
0.4090909090909088
 40
0.4090909090909088
 40
0.424242424242424
 40
0.424242424242424
 40
0.424242424242424
 40
0.424242424242424
 40
0.4393939393939391
 40
0.4393939393939391
 40
0.4393939393939391
 40
0.4393939393939391
 40
0.4545454545454543
 40
0.4545454545454543
 40
0.4545454545454543
 40
0.4545454545454543
 40
0.4696969696969694
 40
0.4696969696969694
 40
0.4696969696969694
 40
0.4696969696969694
 40
0.4848484848484845
 40
0.4848484848484845
 40
0.4848484848484845
 40
0.4848484848484845
 40
0.4999999999999997
 40
0.4999999999999997
 40
0.4999999999999997
 40
0.4999999999999997
 40
0.5151515151515148
 40
0.5151515151515148
 40
0.5151515151515148
 40
0.5151515151515148
 40
0.5303030303030299
 40
0.5303030303030299
 40
0.5303030303030299
 40
0.5303030303030299
 40
0.5454545454545451
 40
0.5454545454545451
 40
0.5454545454545451
 40
0.5454545454545451
 40
0.5606060606060602
 40
0.5606060606060602
 40
0.5606060606060602
 40
0.5606060606060602
 40
0.5757575757575754
 40
0.5757575757575754
 40
0.5757575757575754
 40
0.5757575757575754
 40
0.5909090909090905
 40
0.5909090909090905
 40
0.5909090909090905
 40
0.5909090909090905
 40
0.6060606060606056
 40
0.6060606060606056
 40
0.6060606060606056
 40
0.6060606060606056
 40
0.6212121212121208
 40
0.6212121212121208
 40
0.6212121212121208
 40
0.6212121212121208
 40
0.6363636363636359
 40
0.6363636363636359
 40
0.6363636363636359
 40
0.6363636363636359
 40
0.6515151515151511
 40
0.6515151515151511
 40
0.6515151515151511
 40
0.6515151515151511
 40
0.6666666666666662
 40
0.6666666666666662
 40
0.6666666666666662
 40
0.6666666666666662
 40
0.6818181818181813
 40
0.6818181818181813
 40
0.6818181818181813
 40
0.6818181818181813
 40
0.6969696969696965
 40
0.6969696969696965
 40
0.6969696969696965
 40
0.6969696969696965
 40
0.7121212121212116
 40
0.7121212121212116
 40
0.7121212121212116
 40
0.7121212121212116
 40
0.7272727272727267
 40
0.7272727272727267
 40
0.7272727272727267
 40
0.7272727272727267
 40
0.7424242424242419
 40
0.7424242424242419
 40
0.7424242424242419
 40
0.7424242424242419
 40
0.757575757575757
 40
0.757575757575757
 40
0.757575757575757
 40
0.757575757575757
 40
0.7727272727272722
 40
0.7727272727272722
 40
0.7727272727272722
 40
0.7727272727272722
 40
0.7878787878787873
 40
0.7878787878787873
 40
0.7878787878787873
 40
0.7878787878787873
 40
0.8030303030303024
 40
0.8030303030303024
 40
0.8030303030303024
 40
0.8030303030303024
 40
0.8181818181818176
 40
0.8181818181818176
 40
0.8181818181818176
 40
0.8181818181818176
 40
0.8333333333333327
 40
0.8333333333333327
 40
0.8333333333333327
 40
0.8333333333333327
 40
0.8484848484848478
 40
0.8484848484848478
 40
0.8484848484848478
 40
0.8484848484848478
 40
0.863636363636363
 40
0.863636363636363
 40
0.863636363636363
 40
0.863636363636363
 40
0.8787878787878781
 40
0.8787878787878781
 40
0.8787878787878781
 40
0.8787878787878781
 40
0.8939393939393933
 40
0.8939393939393933
 40
0.8939393939393933
 40
0.8939393939393933
 40
0.9090909090909084
 40
0.9090909090909084
 40
0.9090909090909084
 40
0.9090909090909084
 40
0.9242424242424235
 40
0.9242424242424235
 40
0.9242424242424235
 40
0.9242424242424235
 40
0.9393939393939387
 40
0.9393939393939387
 40
0.9393939393939387
 40
0.9393939393939387
 40
0.9545454545454538
 40
0.9545454545454538
 40
0.9545454545454538
 40
0.9545454545454538
 40
0.969696969696969
 40
0.969696969696969
 40
0.969696969696969
 40
0.969696969696969
 40
0.9848484848484841
 40
0.9848484848484841
 40
0.9848484848484841
 40
0.9848484848484841
 40
1.0
 40
1.0
 40
1.0
 40
1.0
 10
0.841484251968504
 20
-1.6292795275590553
 30
0.0
 10
0.841484251968504
 20
-1.6292795275590553
 30
0.0
 10
0.8405118110236221
 20
-0.8759330708661418
 30
0.0
 10
0.8405118110236221
 20
-0.8759330708661418
 30
0.0
 10
0.8405118110236221
 20
-0.8759330708661418
 30
0.0
 10
0.8405118110236221
 20
-0.8759330708661418
 30
0.0
 10
0.8196102362204725
 20
-0.8749724409448819
 30
0.0
 10
0.8196102362204725
 20
-0.8749724409448819
 30
0.0
 10
0.8196102362204725
 20
-0.8749724409448819
 30
0.0
 10
0.8196102362204725
 20
-0.8749724409448819
 30
0.0
 10
0.7996889763779528
 20
-0.8736102362204725
 30
0.0
 10
0.7996889763779528
 20
-0.8736102362204725
 30
0.0
 10
0.7996889763779528
 20
-0.8736102362204725
 30
0.0
 10
0.7996889763779528
 20
-0.8736102362204725
 30
0.0
 10
0.7807244094488189
 20
-0.8718425196850395
 30
0.0
 10
0.7807244094488189
 20
-0.8718425196850395
 30
0.0
 10
0.7807244094488189
 20
-0.8718425196850395
 30
0.0
 10
0.7807244094488189
 20
-0.8718425196850395
 30
0.0
 10
0.7627047244094488
 20
-0.8696850393700788
 30
0.0
 10
0.7627047244094488
 20
-0.8696850393700788
 30
0.0
 10
0.7627047244094488
 20
-0.8696850393700788
 30
0.0
 10
0.7627047244094488
 20
-0.8696850393700788
 30
0.0
 10
0.7455866141732284
 20
-0.8671259842519685
 30
0.0
 10
0.7455866141732284
 20
-0.8671259842519685
 30
0.0
 10
0.7455866141732284
 20
-0.8671259842519685
 30
0.0
 10
0.7455866141732284
 20
-0.8671259842519685
 30
0.0
 10
0.7293700787401575
 20
-0.8641889763779528
 30
0.0
 10
0.7293700787401575
 20
-0.8641889763779528
 30
0.0
 10
0.7293700787401575
 20
-0.8641889763779528
 30
0.0
 10
0.7293700787401575
 20
-0.8641889763779528
 30
0.0
 10
0.7140236220472441
 20
-0.8608740157480316
 30
0.0
 10
0.7140236220472441
 20
-0.8608740157480316
 30
0.0
 10
0.7140236220472441
 20
-0.8608740157480316
 30
0.0
 10
0.7140236220472441
 20
-0.8608740157480316
 30
0.0
 10
0.6995354330708662
 20
-0.8571889763779528
 30
0.0
 10
0.6995354330708662
 20
-0.8571889763779528
 30
0.0
 10
0.6995354330708662
 20
-0.8571889763779528
 30
0.0
 10
0.6995354330708662
 20
-0.8571889763779528
 30
0.0
 10
0.6858661417322834
 20
-0.8531299212598426
 30
0.0
 10
0.6858661417322834
 20
-0.8531299212598426
 30
0.0
 10
0.6858661417322834
 20
-0.8531299212598426
 30
0.0
 10
0.6858661417322834
 20
-0.8531299212598426
 30
0.0
 10
0.6730118110236221
 20
-0.8487125984251969
 30
0.0
 10
0.6730118110236221
 20
-0.8487125984251969
 30
0.0
 10
0.6730118110236221
 20
-0.8487125984251969
 30
0.0
 10
0.6730118110236221
 20
-0.8487125984251969
 30
0.0
 10
0.6609409448818898
 20
-0.8439409448818898
 30
0.0
 10
0.6609409448818898
 20
-0.8439409448818898
 30
0.0
 10
0.6609409448818898
 20
-0.8439409448818898
 30
0.0
 10
0.6609409448818898
 20
-0.8439409448818898
 30
0.0
 10
0.6496417322834646
 20
-0.8388228346456693
 30
0.0
 10
0.6496417322834646
 20
-0.8388228346456693
 30
0.0
 10
0.6496417322834646
 20
-0.8388228346456693
 30
0.0
 10
0.6496417322834646
 20
-0.8388228346456693
 30
0.0
 10
0.6390787401574803
 20
-0.8333543307086615
 30
0.0
 10
0.6390787401574803
 20
-0.8333543307086615
 30
0.0
 10
0.6390787401574803
 20
-0.8333543307086615
 30
0.0
 10
0.6390787401574803
 20
-0.8333543307086615
 30
0.0
 10
0.629244094488189
 20
-0.8275551181102363
 30
0.0
 10
0.629244094488189
 20
-0.8275551181102363
 30
0.0
 10
0.629244094488189
 20
-0.8275551181102363
 30
0.0
 10
0.629244094488189
 20
-0.8275551181102363
 30
0.0
 10
0.6201102362204725
 20
-0.8214251968503937
 30
0.0
 10
0.6201102362204725
 20
-0.8214251968503937
 30
0.0
 10
0.6201102362204725
 20
-0.8214251968503937
 30
0.0
 10
0.6201102362204725
 20
-0.8214251968503937
 30
0.0
 10
0.6116653543307087
 20
-0.8149685039370079
 30
0.0
 10
0.6116653543307087
 20
-0.8149685039370079
 30
0.0
 10
0.6116653543307087
 20
-0.8149685039370079
 30
0.0
 10
0.6116653543307087
 20
-0.8149685039370079
 30
0.0
 10
0.6038661417322835
 20
-0.8081850393700788
 30
0.0
 10
0.6038661417322835
 20
-0.8081850393700788
 30
0.0
 10
0.6038661417322835
 20
-0.8081850393700788
 30
0.0
 10
0.6038661417322835
 20
-0.8081850393700788
 30
0.0
 10
0.5967125984251969
 20
-0.8010905511811024
 30
0.0
 10
0.5967125984251969
 20
-0.8010905511811024
 30
0.0
 10
0.5967125984251969
 20
-0.8010905511811024
 30
0.0
 10
0.5967125984251969
 20
-0.8010905511811024
 30
0.0
 10
0.5901771653543307
 20
-0.7936889763779528
 30
0.0
 10
0.5901771653543307
 20
-0.7936889763779528
 30
0.0
 10
0.5901771653543307
 20
-0.7936889763779528
 30
0.0
 10
0.5901771653543307
 20
-0.7936889763779528
 30
0.0
 10
0.584240157480315
 20
-0.785988188976378
 30
0.0
 10
0.584240157480315
 20
-0.785988188976378
 30
0.0
 10
0.584240157480315
 20
-0.785988188976378
 30
0.0
 10
0.584240157480315
 20
-0.785988188976378
 30
0.0
 10
0.5788700787401575
 20
-0.777984251968504
 30
0.0
 10
0.5788700787401575
 20
-0.777984251968504
 30
0.0
 10
0.5788700787401575
 20
-0.777984251968504
 30
0.0
 10
0.5788700787401575
 20
-0.777984251968504
 30
0.0
 10
0.5740629921259843
 20
-0.7696968503937008
 30
0.0
 10
0.5740629921259843
 20
-0.7696968503937008
 30
0.0
 10
0.5740629921259843
 20
-0.7696968503937008
 30
0.0
 10
0.5740629921259843
 20
-0.7696968503937008
 30
0.0
 10
0.5697795275590551
 20
-0.7611220472440945
 30
0.0
 10
0.5697795275590551
 20
-0.7611220472440945
 30
0.0
 10
0.5697795275590551
 20
-0.7611220472440945
 30
0.0
 10
0.5697795275590551
 20
-0.7611220472440945
 30
0.0
 10
0.5660157480314961
 20
-0.7522755905511811
 30
0.0
 10
0.5660157480314961
 20
-0.7522755905511811
 30
0.0
 10
0.5660157480314961
 20
-0.7522755905511811
 30
0.0
 10
0.5660157480314961
 20
-0.7522755905511811
 30
0.0
 10
0.5627322834645669
 20
-0.7431456692913386
 30
0.0
 10
0.5627322834645669
 20
-0.7431456692913386
 30
0.0
 10
0.5627322834645669
 20
-0.7431456692913386
 30
0.0
 10
0.5627322834645669
 20
-0.7431456692913386
 30
0.0
 10
0.5599251968503938
 20
-0.733755905511811
 30
0.0
 10
0.5599251968503938
 20
-0.733755905511811
 30
0.0
 10
0.5599251968503938
 20
-0.733755905511811
 30
0.0
 10
0.5599251968503938
 20
-0.733755905511811
 30
0.0
 10
0.5575590551181102
 20
-0.7241062992125985
 30
0.0
 10
0.5575590551181102
 20
-0.7241062992125985
 30
0.0
 10
0.5575590551181102
 20
-0.7241062992125985
 30
0.0
 10
0.5575590551181102
 20
-0.7241062992125985
 30
0.0
 10
0.5556299212598426
 20
-0.7142047244094488
 30
0.0
 10
0.5556299212598426
 20
-0.7142047244094488
 30
0.0
 10
0.5556299212598426
 20
-0.7142047244094488
 30
0.0
 10
0.5556299212598426
 20
-0.7142047244094488
 30
0.0
 10
0.5540944881889764
 20
-0.7040433070866142
 30
0.0
 10
0.5540944881889764
 20
-0.7040433070866142
 30
0.0
 10
0.5540944881889764
 20
-0.7040433070866142
 30
0.0
 10
0.5540944881889764
 20
-0.7040433070866142
 30
0.0
 10
0.5529488188976378
 20
-0.6936496062992126
 30
0.0
 10
0.5529488188976378
 20
-0.6936496062992126
 30
0.0
 10
0.5529488188976378
 20
-0.6936496062992126
 30
0.0
 10
0.5529488188976378
 20
-0.6936496062992126
 30
0.0
 10
0.5521614173228346
 20
-0.6830157480314961
 30
0.0
 10
0.5521614173228346
 20
-0.6830157480314961
 30
0.0
 10
0.5521614173228346
 20
-0.6830157480314961
 30
0.0
 10
0.5521614173228346
 20
-0.6830157480314961
 30
0.0
 10
0.551724409448819
 20
-0.6721535433070867
 30
0.0
 10
0.551724409448819
 20
-0.6721535433070867
 30
0.0
 10
0.551724409448819
 20
-0.6721535433070867
 30
0.0
 10
0.551724409448819
 20
-0.6721535433070867
 30
0.0
 10
0.5526968503937008
 20
-1.4255
 30
0.0
 10
0.5526968503937008
 20
-1.4255
 30
0.0
 10
0.5526968503937008
 20
-1.4255
 30
0.0
 10
0.5526968503937008
 20
-1.4255
 30
0.0
 10
0.5531338582677166
 20
-1.4363622047244096
 30
0.0
 10
0.5531338582677166
 20
-1.4363622047244096
 30
0.0
 10
0.5531338582677166
 20
-1.4363622047244096
 30
0.0
 10
0.5531338582677166
 20
-1.4363622047244096
 30
0.0
 10
0.5539212598425197
 20
-1.4469960629921261
 30
0.0
 10
0.5539212598425197
 20
-1.4469960629921261
 30
0.0
 10
0.5539212598425197
 20
-1.4469960629921261
 30
0.0
 10
0.5539212598425197
 20
-1.4469960629921261
 30
0.0
 10
0.5550669291338582
 20
-1.4573897637795277
 30
0.0
 10
0.5550669291338582
 20
-1.4573897637795277
 30
0.0
 10
0.5550669291338582
 20
-1.4573897637795277
 30
0.0
 10
0.5550669291338582
 20
-1.4573897637795277
 30
0.0
 10
0.5566023622047245
 20
-1.4675511811023623
 30
0.0
 10
0.5566023622047245
 20
-1.4675511811023623
 30
0.0
 10
0.5566023622047245
 20
-1.4675511811023623
 30
0.0
 10
0.5566023622047245
 20
-1.4675511811023623
 30
0.0
 10
0.5585314960629921
 20
-1.4774527559055119
 30
0.0
 10
0.5585314960629921
 20
-1.4774527559055119
 30
0.0
 10
0.5585314960629921
 20
-1.4774527559055119
 30
0.0
 10
0.5585314960629921
 20
-1.4774527559055119
 30
0.0
 10
0.5608976377952756
 20
-1.4871023622047244
 30
0.0
 10
0.5608976377952756
 20
-1.4871023622047244
 30
0.0
 10
0.5608976377952756
 20
-1.4871023622047244
 30
0.0
 10
0.5608976377952756
 20
-1.4871023622047244
 30
0.0
 10
0.5637047244094489
 20
-1.4964921259842521
 30
0.0
 10
0.5637047244094489
 20
-1.4964921259842521
 30
0.0
 10
0.5637047244094489
 20
-1.4964921259842521
 30
0.0
 10
0.5637047244094489
 20
-1.4964921259842521
 30
0.0
 10
0.5669881889763779
 20
-1.5056220472440947
 30
0.0
 10
0.5669881889763779
 20
-1.5056220472440947
 30
0.0
 10
0.5669881889763779
 20
-1.5056220472440947
 30
0.0
 10
0.5669881889763779
 20
-1.5056220472440947
 30
0.0
 10
0.5707519685039371
 20
-1.5144685039370078
 30
0.0
 10
0.5707519685039371
 20
-1.5144685039370078
 30
0.0
 10
0.5707519685039371
 20
-1.5144685039370078
 30
0.0
 10
0.5707519685039371
 20
-1.5144685039370078
 30
0.0
 10
0.5750354330708661
 20
-1.5230433070866143
 30
0.0
 10
0.5750354330708661
 20
-1.5230433070866143
 30
0.0
 10
0.5750354330708661
 20
-1.5230433070866143
 30
0.0
 10
0.5750354330708661
 20
-1.5230433070866143
 30
0.0
 10
0.5798425196850394
 20
-1.5313307086614174
 30
0.0
 10
0.5798425196850394
 20
-1.5313307086614174
 30
0.0
 10
0.5798425196850394
 20
-1.5313307086614174
 30
0.0
 10
0.5798425196850394
 20
-1.5313307086614174
 30
0.0
 10
0.5852125984251969
 20
-1.5393346456692913
 30
0.0
 10
0.5852125984251969
 20
-1.5393346456692913
 30
0.0
 10
0.5852125984251969
 20
-1.5393346456692913
 30
0.0
 10
0.5852125984251969
 20
-1.5393346456692913
 30
0.0
 10
0.5911496062992127
 20
-1.5470354330708662
 30
0.0
 10
0.5911496062992127
 20
-1.5470354330708662
 30
0.0
 10
0.5911496062992127
 20
-1.5470354330708662
 30
0.0
 10
0.5911496062992127
 20
-1.5470354330708662
 30
0.0
 10
0.5976850393700788
 20
-1.5544370078740157
 30
0.0
 10
0.5976850393700788
 20
-1.5544370078740157
 30
0.0
 10
0.5976850393700788
 20
-1.5544370078740157
 30
0.0
 10
0.5976850393700788
 20
-1.5544370078740157
 30
0.0
 10
0.6048385826771654
 20
-1.5615314960629922
 30
0.0
 10
0.6048385826771654
 20
-1.5615314960629922
 30
0.0
 10
0.6048385826771654
 20
-1.5615314960629922
 30
0.0
 10
0.6048385826771654
 20
-1.5615314960629922
 30
0.0
 10
0.6126377952755906
 20
-1.5683149606299214
 30
0.0
 10
0.6126377952755906
 20
-1.5683149606299214
 30
0.0
 10
0.6126377952755906
 20
-1.5683149606299214
 30
0.0
 10
0.6126377952755906
 20
-1.5683149606299214
 30
0.0
 10
0.6210826771653544
 20
-1.5747716535433072
 30
0.0
 10
0.6210826771653544
 20
-1.5747716535433072
 30
0.0
 10
0.6210826771653544
 20
-1.5747716535433072
 30
0.0
 10
0.6210826771653544
 20
-1.5747716535433072
 30
0.0
 10
0.6302165354330709
 20
-1.5809015748031496
 30
0.0
 10
0.6302165354330709
 20
-1.5809015748031496
 30
0.0
 10
0.6302165354330709
 20
-1.5809015748031496
 30
0.0
 10
0.6302165354330709
 20
-1.5809015748031496
 30
0.0
 10
0.6400511811023623
 20
-1.5867007874015748
 30
0.0
 10
0.6400511811023623
 20
-1.5867007874015748
 30
0.0
 10
0.6400511811023623
 20
-1.5867007874015748
 30
0.0
 10
0.6400511811023623
 20
-1.5867007874015748
 30
0.0
 10
0.6506141732283465
 20
-1.5921692913385828
 30
0.0
 10
0.6506141732283465
 20
-1.5921692913385828
 30
0.0
 10
0.6506141732283465
 20
-1.5921692913385828
 30
0.0
 10
0.6506141732283465
 20
-1.5921692913385828
 30
0.0
 10
0.6619133858267717
 20
-1.5972874015748033
 30
0.0
 10
0.6619133858267717
 20
-1.5972874015748033
 30
0.0
 10
0.6619133858267717
 20
-1.5972874015748033
 30
0.0
 10
0.6619133858267717
 20
-1.5972874015748033
 30
0.0
 10
0.673984251968504
 20
-1.6020590551181102
 30
0.0
 10
0.673984251968504
 20
-1.6020590551181102
 30
0.0
 10
0.673984251968504
 20
-1.6020590551181102
 30
0.0
 10
0.673984251968504
 20
-1.6020590551181102
 30
0.0
 10
0.6868385826771654
 20
-1.606476377952756
 30
0.0
 10
0.6868385826771654
 20
-1.606476377952756
 30
0.0
 10
0.6868385826771654
 20
-1.606476377952756
 30
0.0
 10
0.6868385826771654
 20
-1.606476377952756
 30
0.0
 10
0.7005078740157481
 20
-1.6105354330708661
 30
0.0
 10
0.7005078740157481
 20
-1.6105354330708661
 30
0.0
 10
0.7005078740157481
 20
-1.6105354330708661
 30
0.0
 10
0.7005078740157481
 20
-1.6105354330708661
 30
0.0
 10
0.714996062992126
 20
-1.614220472440945
 30
0.0
 10
0.714996062992126
 20
-1.614220472440945
 30
0.0
 10
0.714996062992126
 20
-1.614220472440945
 30
0.0
 10
0.714996062992126
 20
-1.614220472440945
 30
0.0
 10
0.7303425196850394
 20
-1.6175354330708662
 30
0.0
 10
0.7303425196850394
 20
-1.6175354330708662
 30
0.0
 10
0.7303425196850394
 20
-1.6175354330708662
 30
0.0
 10
0.7303425196850394
 20
-1.6175354330708662
 30
0.0
 10
0.7465590551181103
 20
-1.6204724409448819
 30
0.0
 10
0.7465590551181103
 20
-1.6204724409448819
 30
0.0
 10
0.7465590551181103
 20
-1.6204724409448819
 30
0.0
 10
0.7465590551181103
 20
-1.6204724409448819
 30
0.0
 10
0.7636771653543307
 20
-1.6230314960629921
 30
0.0
 10
0.7636771653543307
 20
-1.6230314960629921
 30
0.0
 10
0.7636771653543307
 20
-1.6230314960629921
 30
0.0
 10
0.7636771653543307
 20
-1.6230314960629921
 30
0.0
 10
0.7816968503937009
 20
-1.6251889763779528
 30
0.0
 10
0.7816968503937009
 20
-1.6251889763779528
 30
0.0
 10
0.7816968503937009
 20
-1.6251889763779528
 30
0.0
 10
0.7816968503937009
 20
-1.6251889763779528
 30
0.0
 10
0.8006614173228347
 20
-1.6269566929133858
 30
0.0
 10
0.8006614173228347
 20
-1.6269566929133858
 30
0.0
 10
0.8006614173228347
 20
-1.6269566929133858
 30
0.0
 10
0.8006614173228347
 20
-1.6269566929133858
 30
0.0
 10
0.8205826771653544
 20
-1.6283188976377954
 30
0.0
 10
0.8205826771653544
 20
-1.6283188976377954
 30
0.0
 10
0.8205826771653544
 20
-1.6283188976377954
 30
0.0
 10
0.8205826771653544
 20
-1.6283188976377954
 30
0.0
 10
0.841484251968504
 20
-1.6292795275590553
 30
0.0
 10
0.841484251968504
 20
-1.6292795275590553
 30
0.0
  0
SPLINE
  5
34
100
AcDbEntity
  8
P1-Layer 1
 62
   253
100
AcDbSpline
210
0.0
220
0.0
230
1.0
 70
     1
 71
     3
 72
    20
 73
    16
 74
     0
 42
0.0000000001
 43
0.0000000001
 40
0.0
 40
0.0
 40
0.0
 40
0.0
 40
0.25
 40
0.25
 40
0.25
 40
0.25
 40
0.5
 40
0.5
 40
0.5
 40
0.5
 40
0.75
 40
0.75
 40
0.75
 40
0.75
 40
1.0
 40
1.0
 40
1.0
 40
1.0
 10
0.5526968503937008
 20
-1.4255
 30
0.0
 10
0.5526968503937008
 20
-1.4255
 30
0.0
 10
0.551724409448819
 20
-0.6721535433070867
 30
0.0
 10
0.551724409448819
 20
-0.6721535433070867
 30
0.0
 10
0.551724409448819
 20
-0.6721535433070867
 30
0.0
 10
0.551724409448819
 20
-0.6721535433070867
 30
0.0
 10
0.4012047244094488
 20
-0.6721535433070867
 30
0.0
 10
0.4012047244094488
 20
-0.6721535433070867
 30
0.0
 10
0.4012047244094488
 20
-0.6721535433070867
 30
0.0
 10
0.4012047244094488
 20
-0.6721535433070867
 30
0.0
 10
0.4021771653543307
 20
-1.4255
 30
0.0
 10
0.4021771653543307
 20
-1.4255
 30
0.0
 10
0.4021771653543307
 20
-1.4255
 30
0.0
 10
0.4021771653543307
 20
-1.4255
 30
0.0
 10
0.5526968503937008
 20
-1.4255
 30
0.0
 10
0.5526968503937008
 20
-1.4255
 30
0.0
  0
SPLINE
  5
35
100
AcDbEntity
  8
P1-Layer 1
370
     5
100
AcDbSpline
210
0.0
220
0.0
230
1.0
 70
     1
 71
     3
 72
    20
 73
    16
 74
     0
 42
0.0000000001
 43
0.0000000001
 40
0.0
 40
0.0
 40
0.0
 40
0.0
 40
0.25
 40
0.25
 40
0.25
 40
0.25
 40
0.5
 40
0.5
 40
0.5
 40
0.5
 40
0.75
 40
0.75
 40
0.75
 40
0.75
 40
1.0
 40
1.0
 40
1.0
 40
1.0
 10
0.5526968503937008
 20
-1.4255
 30
0.0
 10
0.5526968503937008
 20
-1.4255
 30
0.0
 10
0.551724409448819
 20
-0.6721535433070867
 30
0.0
 10
0.551724409448819
 20
-0.6721535433070867
 30
0.0
 10
0.551724409448819
 20
-0.6721535433070867
 30
0.0
 10
0.551724409448819
 20
-0.6721535433070867
 30
0.0
 10
0.4012047244094488
 20
-0.6721535433070867
 30
0.0
 10
0.4012047244094488
 20
-0.6721535433070867
 30
0.0
 10
0.4012047244094488
 20
-0.6721535433070867
 30
0.0
 10
0.4012047244094488
 20
-0.6721535433070867
 30
0.0
 10
0.4021771653543307
 20
-1.4255
 30
0.0
 10
0.4021771653543307
 20
-1.4255
 30
0.0
 10
0.4021771653543307
 20
-1.4255
 30
0.0
 10
0.4021771653543307
 20
-1.4255
 30
0.0
 10
0.5526968503937008
 20
-1.4255
 30
0.0
 10
0.5526968503937008
 20
-1.4255
 30
0.0
  0
SPLINE
  5
36
100
AcDbEntity
  8
P1-Layer 1
 62
     9
100
AcDbSpline
210
0.0
220
0.0
230
1.0
 70
     1
 71
     3
 72
    28
 73
    24
 74
     0
 42
0.0000000001
 43
0.0000000001
 40
0.0
 40
0.0
 40
0.0
 40
0.0
 40
0.1666666666666667
 40
0.1666666666666667
 40
0.1666666666666667
 40
0.1666666666666667
 40
0.3333333333333333
 40
0.3333333333333333
 40
0.3333333333333333
 40
0.3333333333333333
 40
0.5
 40
0.5
 40
0.5
 40
0.5
 40
0.6666666666666666
 40
0.6666666666666666
 40
0.6666666666666666
 40
0.6666666666666666
 40
0.8333333333333333
 40
0.8333333333333333
 40
0.8333333333333333
 40
0.8333333333333333
 40
1.0
 40
1.0
 40
1.0
 40
1.0
 10
0.4021771653543307
 20
-1.4255
 30
0.0
 10
0.4021771653543307
 20
-1.4255
 30
0.0
 10
0.4012047244094488
 20
-0.6721535433070867
 30
0.0
 10
0.4012047244094488
 20
-0.6721535433070867
 30
0.0
 10
0.4012047244094488
 20
-0.6721535433070867
 30
0.0
 10
0.4012047244094488
 20
-0.6721535433070867
 30
0.0
 10
0.3950984251968504
 20
-0.6543425196850394
 30
0.0
 10
0.3950984251968504
 20
-0.6543425196850394
 30
0.0
 10
0.3950984251968504
 20
-0.6543425196850394
 30
0.0
 10
0.3950984251968504
 20
-0.6543425196850394
 30
0.0
 10
0.3885354330708661
 20
-0.6379488188976378
 30
0.0
 10
0.3885354330708661
 20
-0.6379488188976378
 30
0.0
 10
0.3885354330708661
 20
-0.6379488188976378
 30
0.0
 10
0.3885354330708661
 20
-0.6379488188976378
 30
0.0
 10
0.3895078740157481
 20
-1.3912952755905512
 30
0.0
 10
0.3895078740157481
 20
-1.3912952755905512
 30
0.0
 10
0.3895078740157481
 20
-1.3912952755905512
 30
0.0
 10
0.3895078740157481
 20
-1.3912952755905512
 30
0.0
 10
0.3960708661417323
 20
-1.4076889763779528
 30
0.0
 10
0.3960708661417323
 20
-1.4076889763779528
 30
0.0
 10
0.3960708661417323
 20
-1.4076889763779528
 30
0.0
 10
0.3960708661417323
 20
-1.4076889763779528
 30
0.0
 10
0.4021771653543307
 20
-1.4255
 30
0.0
 10
0.4021771653543307
 20
-1.4255
 30
0.0
  0
SPLINE
  5
37
100
AcDbEntity
  8
P1-Layer 1
 62
     9
100
AcDbSpline
210
0.0
220
0.0
230
1.0
 70
     1
 71
     3
 72
    36
 73
    32
 74
     0
 42
0.0000000001
 43
0.0000000001
 40
0.0
 40
0.0
 40
0.0
 40
0.0
 40
0.125
 40
0.125
 40
0.125
 40
0.125
 40
0.25
 40
0.25
 40
0.25
 40
0.25
 40
0.375
 40
0.375
 40
0.375
 40
0.375
 40
0.5
 40
0.5
 40
0.5
 40
0.5
 40
0.625
 40
0.625
 40
0.625
 40
0.625
 40
0.75
 40
0.75
 40
0.75
 40
0.75
 40
0.875
 40
0.875
 40
0.875
 40
0.875
 40
1.0
 40
1.0
 40
1.0
 40
1.0
 10
0.3895078740157481
 20
-1.3912952755905512
 30
0.0
 10
0.3895078740157481
 20
-1.3912952755905512
 30
0.0
 10
0.3885354330708661
 20
-0.6379488188976378
 30
0.0
 10
0.3885354330708661
 20
-0.6379488188976378
 30
0.0
 10
0.3885354330708661
 20
-0.6379488188976378
 30
0.0
 10
0.3885354330708661
 20
-0.6379488188976378
 30
0.0
 10
0.3815236220472441
 20
-0.6229094488188977
 30
0.0
 10
0.3815236220472441
 20
-0.6229094488188977
 30
0.0
 10
0.3815236220472441
 20
-0.6229094488188977
 30
0.0
 10
0.3815236220472441
 20
-0.6229094488188977
 30
0.0
 10
0.3740905511811024
 20
-0.6091929133858268
 30
0.0
 10
0.3740905511811024
 20
-0.6091929133858268
 30
0.0
 10
0.3740905511811024
 20
-0.6091929133858268
 30
0.0
 10
0.3740905511811024
 20
-0.6091929133858268
 30
0.0
 10
0.3662283464566929
 20
-0.596732283464567
 30
0.0
 10
0.3662283464566929
 20
-0.596732283464567
 30
0.0
 10
0.3662283464566929
 20
-0.596732283464567
 30
0.0
 10
0.3662283464566929
 20
-0.596732283464567
 30
0.0
 10
0.3672007874015748
 20
-1.3500787401574803
 30
0.0
 10
0.3672007874015748
 20
-1.3500787401574803
 30
0.0
 10
0.3672007874015748
 20
-1.3500787401574803
 30
0.0
 10
0.3672007874015748
 20
-1.3500787401574803
 30
0.0
 10
0.3750629921259843
 20
-1.3625393700787403
 30
0.0
 10
0.3750629921259843
 20
-1.3625393700787403
 30
0.0
 10
0.3750629921259843
 20
-1.3625393700787403
 30
0.0
 10
0.3750629921259843
 20
-1.3625393700787403
 30
0.0
 10
0.382496062992126
 20
-1.3762559055118111
 30
0.0
 10
0.382496062992126
 20
-1.3762559055118111
 30
0.0
 10
0.382496062992126
 20
-1.3762559055118111
 30
0.0
 10
0.382496062992126
 20
-1.3762559055118111
 30
0.0
 10
0.3895078740157481
 20
-1.3912952755905512
 30
0.0
 10
0.3895078740157481
 20
-1.3912952755905512
 30
0.0
  0
SPLINE
  5
38
100
AcDbEntity
  8
P1-Layer 1
 62
     9
100
AcDbSpline
210
0.0
220
0.0
230
1.0
 70
     1
 71
     3
 72
    36
 73
    32
 74
     0
 42
0.0000000001
 43
0.0000000001
 40
0.0
 40
0.0
 40
0.0
 40
0.0
 40
0.125
 40
0.125
 40
0.125
 40
0.125
 40
0.25
 40
0.25
 40
0.25
 40
0.25
 40
0.375
 40
0.375
 40
0.375
 40
0.375
 40
0.5
 40
0.5
 40
0.5
 40
0.5
 40
0.625
 40
0.625
 40
0.625
 40
0.625
 40
0.75
 40
0.75
 40
0.75
 40
0.75
 40
0.875
 40
0.875
 40
0.875
 40
0.875
 40
1.0
 40
1.0
 40
1.0
 40
1.0
 10
0.3672007874015748
 20
-1.3500787401574803
 30
0.0
 10
0.3672007874015748
 20
-1.3500787401574803
 30
0.0
 10
0.3662283464566929
 20
-0.596732283464567
 30
0.0
 10
0.3662283464566929
 20
-0.596732283464567
 30
0.0
 10
0.3662283464566929
 20
-0.596732283464567
 30
0.0
 10
0.3662283464566929
 20
-0.596732283464567
 30
0.0
 10
0.3579645669291339
 20
-0.5855
 30
0.0
 10
0.3579645669291339
 20
-0.5855
 30
0.0
 10
0.3579645669291339
 20
-0.5855
 30
0.0
 10
0.3579645669291339
 20
-0.5855
 30
0.0
 10
0.3493070866141733
 20
-0.5754370078740158
 30
0.0
 10
0.3493070866141733
 20
-0.5754370078740158
 30
0.0
 10
0.3493070866141733
 20
-0.5754370078740158
 30
0.0
 10
0.3493070866141733
 20
-0.5754370078740158
 30
0.0
 10
0.3402755905511811
 20
-0.5665078740157481
 30
0.0
 10
0.3402755905511811
 20
-0.5665078740157481
 30
0.0
 10
0.3402755905511811
 20
-0.5665078740157481
 30
0.0
 10
0.3402755905511811
 20
-0.5665078740157481
 30
0.0
 10
0.341248031496063
 20
-1.3198543307086614
 30
0.0
 10
0.341248031496063
 20
-1.3198543307086614
 30
0.0
 10
0.341248031496063
 20
-1.3198543307086614
 30
0.0
 10
0.341248031496063
 20
-1.3198543307086614
 30
0.0
 10
0.3502795275590551
 20
-1.3287834645669292
 30
0.0
 10
0.3502795275590551
 20
-1.3287834645669292
 30
0.0
 10
0.3502795275590551
 20
-1.3287834645669292
 30
0.0
 10
0.3502795275590551
 20
-1.3287834645669292
 30
0.0
 10
0.3589370078740158
 20
-1.3388464566929135
 30
0.0
 10
0.3589370078740158
 20
-1.3388464566929135
 30
0.0
 10
0.3589370078740158
 20
-1.3388464566929135
 30
0.0
 10
0.3589370078740158
 20
-1.3388464566929135
 30
0.0
 10
0.3672007874015748
 20
-1.3500787401574803
 30
0.0
 10
0.3672007874015748
 20
-1.3500787401574803
 30
0.0
  0
SPLINE
  5
39
100
AcDbEntity
  8
P1-Layer 1
 62
   253
100
AcDbSpline
210
0.0
220
0.0
230
1.0
 70
     1
 71
     3
 72
    44
 73
    40
 74
     0
 42
0.0000000001
 43
0.0000000001
 40
0.0
 40
0.0
 40
0.0
 40
0.0
 40
0.1
 40
0.1
 40
0.1
 40
0.1
 40
0.2
 40
0.2
 40
0.2
 40
0.2
 40
0.3
 40
0.3
 40
0.3
 40
0.3
 40
0.4
 40
0.4
 40
0.4
 40
0.4
 40
0.5
 40
0.5
 40
0.5
 40
0.5
 40
0.6
 40
0.6
 40
0.6
 40
0.6
 40
0.7
 40
0.7
 40
0.7
 40
0.7
 40
0.7999999999999999
 40
0.7999999999999999
 40
0.7999999999999999
 40
0.7999999999999999
 40
0.8999999999999999
 40
0.8999999999999999
 40
0.8999999999999999
 40
0.8999999999999999
 40
1.0
 40
1.0
 40
1.0
 40
1.0
 10
0.341248031496063
 20
-1.3198543307086614
 30
0.0
 10
0.341248031496063
 20
-1.3198543307086614
 30
0.0
 10
0.3402755905511811
 20
-0.5665078740157481
 30
0.0
 10
0.3402755905511811
 20
-0.5665078740157481
 30
0.0
 10
0.3402755905511811
 20
-0.5665078740157481
 30
0.0
 10
0.3402755905511811
 20
-0.5665078740157481
 30
0.0
 10
0.3308661417322835
 20
-0.5586496062992126
 30
0.0
 10
0.3308661417322835
 20
-0.5586496062992126
 30
0.0
 10
0.3308661417322835
 20
-0.5586496062992126
 30
0.0
 10
0.3308661417322835
 20
-0.5586496062992126
 30
0.0
 10
0.3211141732283465
 20
-0.5518346456692914
 30
0.0
 10
0.3211141732283465
 20
-0.5518346456692914
 30
0.0
 10
0.3211141732283465
 20
-0.5518346456692914
 30
0.0
 10
0.3211141732283465
 20
-0.5518346456692914
 30
0.0
 10
0.3110196850393701
 20
-0.545996062992126
 30
0.0
 10
0.3110196850393701
 20
-0.545996062992126
 30
0.0
 10
0.3110196850393701
 20
-0.545996062992126
 30
0.0
 10
0.3110196850393701
 20
-0.545996062992126
 30
0.0
 10
0.3006062992125985
 20
-0.5411102362204725
 30
0.0
 10
0.3006062992125985
 20
-0.5411102362204725
 30
0.0
 10
0.3006062992125985
 20
-0.5411102362204725
 30
0.0
 10
0.3006062992125985
 20
-0.5411102362204725
 30
0.0
 10
0.3015787401574803
 20
-1.2944566929133858
 30
0.0
 10
0.3015787401574803
 20
-1.2944566929133858
 30
0.0
 10
0.3015787401574803
 20
-1.2944566929133858
 30
0.0
 10
0.3015787401574803
 20
-1.2944566929133858
 30
0.0
 10
0.311992125984252
 20
-1.2993425196850394
 30
0.0
 10
0.311992125984252
 20
-1.2993425196850394
 30
0.0
 10
0.311992125984252
 20
-1.2993425196850394
 30
0.0
 10
0.311992125984252
 20
-1.2993425196850394
 30
0.0
 10
0.3220866141732284
 20
-1.3051811023622049
 30
0.0
 10
0.3220866141732284
 20
-1.3051811023622049
 30
0.0
 10
0.3220866141732284
 20
-1.3051811023622049
 30
0.0
 10
0.3220866141732284
 20
-1.3051811023622049
 30
0.0
 10
0.3318385826771654
 20
-1.3119960629921261
 30
0.0
 10
0.3318385826771654
 20
-1.3119960629921261
 30
0.0
 10
0.3318385826771654
 20
-1.3119960629921261
 30
0.0
 10
0.3318385826771654
 20
-1.3119960629921261
 30
0.0
 10
0.341248031496063
 20
-1.3198543307086614
 30
0.0
 10
0.341248031496063
 20
-1.3198543307086614
 30
0.0
  0
SPLINE
  5
3A
100
AcDbEntity
  8
P1-Layer 1
 62
   253
100
AcDbSpline
210
0.0
220
0.0
230
1.0
 70
     1
 71
     3
 72
    44
 73
    40
 74
     0
 42
0.0000000001
 43
0.0000000001
 40
0.0
 40
0.0
 40
0.0
 40
0.0
 40
0.1
 40
0.1
 40
0.1
 40
0.1
 40
0.2
 40
0.2
 40
0.2
 40
0.2
 40
0.3
 40
0.3
 40
0.3
 40
0.3
 40
0.4
 40
0.4
 40
0.4
 40
0.4
 40
0.5
 40
0.5
 40
0.5
 40
0.5
 40
0.6
 40
0.6
 40
0.6
 40
0.6
 40
0.7
 40
0.7
 40
0.7
 40
0.7
 40
0.7999999999999999
 40
0.7999999999999999
 40
0.7999999999999999
 40
0.7999999999999999
 40
0.8999999999999999
 40
0.8999999999999999
 40
0.8999999999999999
 40
0.8999999999999999
 40
1.0
 40
1.0
 40
1.0
 40
1.0
 10
0.3015787401574803
 20
-1.2944566929133858
 30
0.0
 10
0.3015787401574803
 20
-1.2944566929133858
 30
0.0
 10
0.3006062992125985
 20
-0.5411102362204725
 30
0.0
 10
0.3006062992125985
 20
-0.5411102362204725
 30
0.0
 10
0.3006062992125985
 20
-0.5411102362204725
 30
0.0
 10
0.3006062992125985
 20
-0.5411102362204725
 30
0.0
 10
0.2898700787401575
 20
-0.5371102362204725
 30
0.0
 10
0.2898700787401575
 20
-0.5371102362204725
 30
0.0
 10
0.2898700787401575
 20
-0.5371102362204725
 30
0.0
 10
0.2898700787401575
 20
-0.5371102362204725
 30
0.0
 10
0.2788425196850394
 20
-0.5339645669291339
 30
0.0
 10
0.2788425196850394
 20
-0.5339645669291339
 30
0.0
 10
0.2788425196850394
 20
-0.5339645669291339
 30
0.0
 10
0.2788425196850394
 20
-0.5339645669291339
 30
0.0
 10
0.2675236220472441
 20
-0.5316181102362205
 30
0.0
 10
0.2675236220472441
 20
-0.5316181102362205
 30
0.0
 10
0.2675236220472441
 20
-0.5316181102362205
 30
0.0
 10
0.2675236220472441
 20
-0.5316181102362205
 30
0.0
 10
0.2559409448818898
 20
-0.5300275590551181
 30
0.0
 10
0.2559409448818898
 20
-0.5300275590551181
 30
0.0
 10
0.2559409448818898
 20
-0.5300275590551181
 30
0.0
 10
0.2559409448818898
 20
-0.5300275590551181
 30
0.0
 10
0.2569133858267717
 20
-1.2833740157480316
 30
0.0
 10
0.2569133858267717
 20
-1.2833740157480316
 30
0.0
 10
0.2569133858267717
 20
-1.2833740157480316
 30
0.0
 10
0.2569133858267717
 20
-1.2833740157480316
 30
0.0
 10
0.268496062992126
 20
-1.2849645669291339
 30
0.0
 10
0.268496062992126
 20
-1.2849645669291339
 30
0.0
 10
0.268496062992126
 20
-1.2849645669291339
 30
0.0
 10
0.268496062992126
 20
-1.2849645669291339
 30
0.0
 10
0.2798149606299213
 20
-1.2873110236220473
 30
0.0
 10
0.2798149606299213
 20
-1.2873110236220473
 30
0.0
 10
0.2798149606299213
 20
-1.2873110236220473
 30
0.0
 10
0.2798149606299213
 20
-1.2873110236220473
 30
0.0
 10
0.2908425196850394
 20
-1.2904566929133858
 30
0.0
 10
0.2908425196850394
 20
-1.2904566929133858
 30
0.0
 10
0.2908425196850394
 20
-1.2904566929133858
 30
0.0
 10
0.2908425196850394
 20
-1.2904566929133858
 30
0.0
 10
0.3015787401574803
 20
-1.2944566929133858
 30
0.0
 10
0.3015787401574803
 20
-1.2944566929133858
 30
0.0
  0
SPLINE
  5
3B
100
AcDbEntity
  8
P1-Layer 1
 62
   253
100
AcDbSpline
210
0.0
220
0.0
230
1.0
 70
     1
 71
     3
 72
    44
 73
    40
 74
     0
 42
0.0000000001
 43
0.0000000001
 40
0.0
 40
0.0
 40
0.0
 40
0.0
 40
0.1
 40
0.1
 40
0.1
 40
0.1
 40
0.2
 40
0.2
 40
0.2
 40
0.2
 40
0.3
 40
0.3
 40
0.3
 40
0.3
 40
0.4
 40
0.4
 40
0.4
 40
0.4
 40
0.5
 40
0.5
 40
0.5
 40
0.5
 40
0.6
 40
0.6
 40
0.6
 40
0.6
 40
0.7
 40
0.7
 40
0.7
 40
0.7
 40
0.7999999999999999
 40
0.7999999999999999
 40
0.7999999999999999
 40
0.7999999999999999
 40
0.8999999999999999
 40
0.8999999999999999
 40
0.8999999999999999
 40
0.8999999999999999
 40
1.0
 40
1.0
 40
1.0
 40
1.0
 10
0.2569133858267717
 20
-1.2833740157480316
 30
0.0
 10
0.2569133858267717
 20
-1.2833740157480316
 30
0.0
 10
0.2559409448818898
 20
-0.5300275590551181
 30
0.0
 10
0.2559409448818898
 20
-0.5300275590551181
 30
0.0
 10
0.2559409448818898
 20
-0.5300275590551181
 30
0.0
 10
0.2559409448818898
 20
-0.5300275590551181
 30
0.0
 10
0.2440866141732284
 20
-0.5291338582677165
 30
0.0
 10
0.2440866141732284
 20
-0.5291338582677165
 30
0.0
 10
0.2440866141732284
 20
-0.5291338582677165
 30
0.0
 10
0.2440866141732284
 20
-0.5291338582677165
 30
0.0
 10
0.231996062992126
 20
-0.5289133858267717
 30
0.0
 10
0.231996062992126
 20
-0.5289133858267717
 30
0.0
 10
0.231996062992126
 20
-0.5289133858267717
 30
0.0
 10
0.231996062992126
 20
-0.5289133858267717
 30
0.0
 10
0.2196692913385827
 20
-0.5293070866141733
 30
0.0
 10
0.2196692913385827
 20
-0.5293070866141733
 30
0.0
 10
0.2196692913385827
 20
-0.5293070866141733
 30
0.0
 10
0.2196692913385827
 20
-0.5293070866141733
 30
0.0
 10
0.2071259842519685
 20
-0.5302677165354331
 30
0.0
 10
0.2071259842519685
 20
-0.5302677165354331
 30
0.0
 10
0.2071259842519685
 20
-0.5302677165354331
 30
0.0
 10
0.2071259842519685
 20
-0.5302677165354331
 30
0.0
 10
0.2080984251968504
 20
-1.2836141732283466
 30
0.0
 10
0.2080984251968504
 20
-1.2836141732283466
 30
0.0
 10
0.2080984251968504
 20
-1.2836141732283466
 30
0.0
 10
0.2080984251968504
 20
-1.2836141732283466
 30
0.0
 10
0.2206417322834646
 20
-1.2826535433070867
 30
0.0
 10
0.2206417322834646
 20
-1.2826535433070867
 30
0.0
 10
0.2206417322834646
 20
-1.2826535433070867
 30
0.0
 10
0.2206417322834646
 20
-1.2826535433070867
 30
0.0
 10
0.2329685039370079
 20
-1.2822598425196852
 30
0.0
 10
0.2329685039370079
 20
-1.2822598425196852
 30
0.0
 10
0.2329685039370079
 20
-1.2822598425196852
 30
0.0
 10
0.2329685039370079
 20
-1.2822598425196852
 30
0.0
 10
0.2450590551181102
 20
-1.2824803149606299
 30
0.0
 10
0.2450590551181102
 20
-1.2824803149606299
 30
0.0
 10
0.2450590551181102
 20
-1.2824803149606299
 30
0.0
 10
0.2450590551181102
 20
-1.2824803149606299
 30
0.0
 10
0.2569133858267717
 20
-1.2833740157480316
 30
0.0
 10
0.2569133858267717
 20
-1.2833740157480316
 30
0.0
  0
SPLINE
  5
3C
100
AcDbEntity
  8
P1-Layer 1
 62
   253
100
AcDbSpline
210
0.0
220
0.0
230
1.0
 70
     1
 71
     3
 72
    36
 73
    32
 74
     0
 42
0.0000000001
 43
0.0000000001
 40
0.0
 40
0.0
 40
0.0
 40
0.0
 40
0.125
 40
0.125
 40
0.125
 40
0.125
 40
0.25
 40
0.25
 40
0.25
 40
0.25
 40
0.375
 40
0.375
 40
0.375
 40
0.375
 40
0.5
 40
0.5
 40
0.5
 40
0.5
 40
0.625
 40
0.625
 40
0.625
 40
0.625
 40
0.75
 40
0.75
 40
0.75
 40
0.75
 40
0.875
 40
0.875
 40
0.875
 40
0.875
 40
1.0
 40
1.0
 40
1.0
 40
1.0
 10
0.2080984251968504
 20
-1.2836141732283466
 30
0.0
 10
0.2080984251968504
 20
-1.2836141732283466
 30
0.0
 10
0.2071259842519685
 20
-0.5302677165354331
 30
0.0
 10
0.2071259842519685
 20
-0.5302677165354331
 30
0.0
 10
0.2071259842519685
 20
-0.5302677165354331
 30
0.0
 10
0.2071259842519685
 20
-0.5302677165354331
 30
0.0
 10
0.1943740157480315
 20
-0.531748031496063
 30
0.0
 10
0.1943740157480315
 20
-0.531748031496063
 30
0.0
 10
0.1943740157480315
 20
-0.531748031496063
 30
0.0
 10
0.1943740157480315
 20
-0.531748031496063
 30
0.0
 10
0.1814330708661417
 20
-0.5337007874015748
 30
0.0
 10
0.1814330708661417
 20
-0.5337007874015748
 30
0.0
 10
0.1814330708661417
 20
-0.5337007874015748
 30
0.0
 10
0.1814330708661417
 20
-0.5337007874015748
 30
0.0
 10
0.1683110236220473
 20
-0.5360866141732283
 30
0.0
 10
0.1683110236220473
 20
-0.5360866141732283
 30
0.0
 10
0.1683110236220473
 20
-0.5360866141732283
 30
0.0
 10
0.1683110236220473
 20
-0.5360866141732283
 30
0.0
 10
0.1692834645669291
 20
-1.2894330708661417
 30
0.0
 10
0.1692834645669291
 20
-1.2894330708661417
 30
0.0
 10
0.1692834645669291
 20
-1.2894330708661417
 30
0.0
 10
0.1692834645669291
 20
-1.2894330708661417
 30
0.0
 10
0.1824055118110236
 20
-1.2870472440944882
 30
0.0
 10
0.1824055118110236
 20
-1.2870472440944882
 30
0.0
 10
0.1824055118110236
 20
-1.2870472440944882
 30
0.0
 10
0.1824055118110236
 20
-1.2870472440944882
 30
0.0
 10
0.1953464566929134
 20
-1.2850944881889765
 30
0.0
 10
0.1953464566929134
 20
-1.2850944881889765
 30
0.0
 10
0.1953464566929134
 20
-1.2850944881889765
 30
0.0
 10
0.1953464566929134
 20
-1.2850944881889765
 30
0.0
 10
0.2080984251968504
 20
-1.2836141732283466
 30
0.0
 10
0.2080984251968504
 20
-1.2836141732283466
 30
0.0
  0
SPLINE
  5
3D
100
AcDbEntity
  8
P1-Layer 1
 62
   253
100
AcDbSpline
210
0.0
220
0.0
230
1.0
 70
     1
 71
     3
 72
    36
 73
    32
 74
     0
 42
0.0000000001
 43
0.0000000001
 40
0.0
 40
0.0
 40
0.0
 40
0.0
 40
0.125
 40
0.125
 40
0.125
 40
0.125
 40
0.25
 40
0.25
 40
0.25
 40
0.25
 40
0.375
 40
0.375
 40
0.375
 40
0.375
 40
0.5
 40
0.5
 40
0.5
 40
0.5
 40
0.625
 40
0.625
 40
0.625
 40
0.625
 40
0.75
 40
0.75
 40
0.75
 40
0.75
 40
0.875
 40
0.875
 40
0.875
 40
0.875
 40
1.0
 40
1.0
 40
1.0
 40
1.0
 10
0.1692834645669291
 20
-1.2894330708661417
 30
0.0
 10
0.1692834645669291
 20
-1.2894330708661417
 30
0.0
 10
0.1683110236220473
 20
-0.5360866141732283
 30
0.0
 10
0.1683110236220473
 20
-0.5360866141732283
 30
0.0
 10
0.1683110236220473
 20
-0.5360866141732283
 30
0.0
 10
0.1683110236220473
 20
-0.5360866141732283
 30
0.0
 10
0.1550275590551181
 20
-0.5388543307086614
 30
0.0
 10
0.1550275590551181
 20
-0.5388543307086614
 30
0.0
 10
0.1550275590551181
 20
-0.5388543307086614
 30
0.0
 10
0.1550275590551181
 20
-0.5388543307086614
 30
0.0
 10
0.1415826771653543
 20
-0.5419527559055118
 30
0.0
 10
0.1415826771653543
 20
-0.5419527559055118
 30
0.0
 10
0.1415826771653543
 20
-0.5419527559055118
 30
0.0
 10
0.1415826771653543
 20
-0.5419527559055118
 30
0.0
 10
0.128003937007874
 20
-0.5453464566929134
 30
0.0
 10
0.128003937007874
 20
-0.5453464566929134
 30
0.0
 10
0.128003937007874
 20
-0.5453464566929134
 30
0.0
 10
0.128003937007874
 20
-0.5453464566929134
 30
0.0
 10
0.1289763779527559
 20
-1.2986929133858269
 30
0.0
 10
0.1289763779527559
 20
-1.2986929133858269
 30
0.0
 10
0.1289763779527559
 20
-1.2986929133858269
 30
0.0
 10
0.1289763779527559
 20
-1.2986929133858269
 30
0.0
 10
0.1425551181102362
 20
-1.2952992125984253
 30
0.0
 10
0.1425551181102362
 20
-1.2952992125984253
 30
0.0
 10
0.1425551181102362
 20
-1.2952992125984253
 30
0.0
 10
0.1425551181102362
 20
-1.2952992125984253
 30
0.0
 10
0.156
 20
-1.2922007874015748
 30
0.0
 10
0.156
 20
-1.2922007874015748
 30
0.0
 10
0.156
 20
-1.2922007874015748
 30
0.0
 10
0.156
 20
-1.2922007874015748
 30
0.0
 10
0.1692834645669291
 20
-1.2894330708661417
 30
0.0
 10
0.1692834645669291
 20
-1.2894330708661417
 30
0.0
  0
SPLINE
  5
3E
100
AcDbEntity
  8
P1-Layer 1
 62
   253
100
AcDbSpline
210
0.0
220
0.0
230
1.0
 70
     1
 71
     3
 72
    36
 73
    32
 74
     0
 42
0.0000000001
 43
0.0000000001
 40
0.0
 40
0.0
 40
0.0
 40
0.0
 40
0.125
 40
0.125
 40
0.125
 40
0.125
 40
0.25
 40
0.25
 40
0.25
 40
0.25
 40
0.375
 40
0.375
 40
0.375
 40
0.375
 40
0.5
 40
0.5
 40
0.5
 40
0.5
 40
0.625
 40
0.625
 40
0.625
 40
0.625
 40
0.75
 40
0.75
 40
0.75
 40
0.75
 40
0.875
 40
0.875
 40
0.875
 40
0.875
 40
1.0
 40
1.0
 40
1.0
 40
1.0
 10
0.1289763779527559
 20
-1.2986929133858269
 30
0.0
 10
0.1289763779527559
 20
-1.2986929133858269
 30
0.0
 10
0.128003937007874
 20
-0.5453464566929134
 30
0.0
 10
0.128003937007874
 20
-0.5453464566929134
 30
0.0
 10
0.128003937007874
 20
-0.5453464566929134
 30
0.0
 10
0.128003937007874
 20
-0.5453464566929134
 30
0.0
 10
0.1142992125984252
 20
-0.5489763779527559
 30
0.0
 10
0.1142992125984252
 20
-0.5489763779527559
 30
0.0
 10
0.1142992125984252
 20
-0.5489763779527559
 30
0.0
 10
0.1142992125984252
 20
-0.5489763779527559
 30
0.0
 10
0.1004842519685039
 20
-0.5528070866141732
 30
0.0
 10
0.1004842519685039
 20
-0.5528070866141732
 30
0.0
 10
0.1004842519685039
 20
-0.5528070866141732
 30
0.0
 10
0.1004842519685039
 20
-0.5528070866141732
 30
0.0
 10
0.0865669291338583
 20
-0.5567834645669292
 30
0.0
 10
0.0865669291338583
 20
-0.5567834645669292
 30
0.0
 10
0.0865669291338583
 20
-0.5567834645669292
 30
0.0
 10
0.0865669291338583
 20
-0.5567834645669292
 30
0.0
 10
0.0875393700787402
 20
-1.3101299212598425
 30
0.0
 10
0.0875393700787402
 20
-1.3101299212598425
 30
0.0
 10
0.0875393700787402
 20
-1.3101299212598425
 30
0.0
 10
0.0875393700787402
 20
-1.3101299212598425
 30
0.0
 10
0.1014566929133858
 20
-1.3061535433070868
 30
0.0
 10
0.1014566929133858
 20
-1.3061535433070868
 30
0.0
 10
0.1014566929133858
 20
-1.3061535433070868
 30
0.0
 10
0.1014566929133858
 20
-1.3061535433070868
 30
0.0
 10
0.1152716535433071
 20
-1.3023228346456694
 30
0.0
 10
0.1152716535433071
 20
-1.3023228346456694
 30
0.0
 10
0.1152716535433071
 20
-1.3023228346456694
 30
0.0
 10
0.1152716535433071
 20
-1.3023228346456694
 30
0.0
 10
0.1289763779527559
 20
-1.2986929133858269
 30
0.0
 10
0.1289763779527559
 20
-1.2986929133858269
 30
0.0
  0
SPLINE
  5
3F
100
AcDbEntity
  8
P1-Layer 1
 62
   253
100
AcDbSpline
210
0.0
220
0.0
230
1.0
 70
     1
 71
     3
 72
    36
 73
    32
 74
     0
 42
0.0000000001
 43
0.0000000001
 40
0.0
 40
0.0
 40
0.0
 40
0.0
 40
0.125
 40
0.125
 40
0.125
 40
0.125
 40
0.25
 40
0.25
 40
0.25
 40
0.25
 40
0.375
 40
0.375
 40
0.375
 40
0.375
 40
0.5
 40
0.5
 40
0.5
 40
0.5
 40
0.625
 40
0.625
 40
0.625
 40
0.625
 40
0.75
 40
0.75
 40
0.75
 40
0.75
 40
0.875
 40
0.875
 40
0.875
 40
0.875
 40
1.0
 40
1.0
 40
1.0
 40
1.0
 10
0.0875393700787402
 20
-1.3101299212598425
 30
0.0
 10
0.0875393700787402
 20
-1.3101299212598425
 30
0.0
 10
0.0865669291338583
 20
-0.5567834645669292
 30
0.0
 10
0.0865669291338583
 20
-0.5567834645669292
 30
0.0
 10
0.0865669291338583
 20
-0.5567834645669292
 30
0.0
 10
0.0865669291338583
 20
-0.5567834645669292
 30
0.0
 10
0.0725708661417323
 20
-0.5608661417322834
 30
0.0
 10
0.0725708661417323
 20
-0.5608661417322834
 30
0.0
 10
0.0725708661417323
 20
-0.5608661417322834
 30
0.0
 10
0.0725708661417323
 20
-0.5608661417322834
 30
0.0
 10
0.058496062992126
 20
-0.5650000000000001
 30
0.0
 10
0.058496062992126
 20
-0.5650000000000001
 30
0.0
 10
0.058496062992126
 20
-0.5650000000000001
 30
0.0
 10
0.058496062992126
 20
-0.5650000000000001
 30
0.0
 10
0.0443700787401575
 20
-0.5691535433070867
 30
0.0
 10
0.0443700787401575
 20
-0.5691535433070867
 30
0.0
 10
0.0443700787401575
 20
-0.5691535433070867
 30
0.0
 10
0.0443700787401575
 20
-0.5691535433070867
 30
0.0
 10
0.0453425196850394
 20
-1.3225
 30
0.0
 10
0.0453425196850394
 20
-1.3225
 30
0.0
 10
0.0453425196850394
 20
-1.3225
 30
0.0
 10
0.0453425196850394
 20
-1.3225
 30
0.0
 10
0.0594685039370079
 20
-1.3183464566929135
 30
0.0
 10
0.0594685039370079
 20
-1.3183464566929135
 30
0.0
 10
0.0594685039370079
 20
-1.3183464566929135
 30
0.0
 10
0.0594685039370079
 20
-1.3183464566929135
 30
0.0
 10
0.0735433070866142
 20
-1.3142125984251969
 30
0.0
 10
0.0735433070866142
 20
-1.3142125984251969
 30
0.0
 10
0.0735433070866142
 20
-1.3142125984251969
 30
0.0
 10
0.0735433070866142
 20
-1.3142125984251969
 30
0.0
 10
0.0875393700787402
 20
-1.3101299212598425
 30
0.0
 10
0.0875393700787402
 20
-1.3101299212598425
 30
0.0
  0
SPLINE
  5
40
100
AcDbEntity
  8
P1-Layer 1
 62
   253
100
AcDbSpline
210
0.0
220
0.0
230
1.0
 70
     1
 71
     3
 72
    36
 73
    32
 74
     0
 42
0.0000000001
 43
0.0000000001
 40
0.0
 40
0.0
 40
0.0
 40
0.0
 40
0.125
 40
0.125
 40
0.125
 40
0.125
 40
0.25
 40
0.25
 40
0.25
 40
0.25
 40
0.375
 40
0.375
 40
0.375
 40
0.375
 40
0.5
 40
0.5
 40
0.5
 40
0.5
 40
0.625
 40
0.625
 40
0.625
 40
0.625
 40
0.75
 40
0.75
 40
0.75
 40
0.75
 40
0.875
 40
0.875
 40
0.875
 40
0.875
 40
1.0
 40
1.0
 40
1.0
 40
1.0
 10
0.0453425196850394
 20
-1.3225
 30
0.0
 10
0.0453425196850394
 20
-1.3225
 30
0.0
 10
0.0443700787401575
 20
-0.5691535433070867
 30
0.0
 10
0.0443700787401575
 20
-0.5691535433070867
 30
0.0
 10
0.0443700787401575
 20
-0.5691535433070867
 30
0.0
 10
0.0443700787401575
 20
-0.5691535433070867
 30
0.0
 10
0.0302795275590551
 20
-0.5728228346456693
 30
0.0
 10
0.0302795275590551
 20
-0.5728228346456693
 30
0.0
 10
0.0302795275590551
 20
-0.5728228346456693
 30
0.0
 10
0.0302795275590551
 20
-0.5728228346456693
 30
0.0
 10
0.0163503937007874
 20
-0.5756062992125984
 30
0.0
 10
0.0163503937007874
 20
-0.5756062992125984
 30
0.0
 10
0.0163503937007874
 20
-0.5756062992125984
 30
0.0
 10
0.0163503937007874
 20
-0.5756062992125984
 30
0.0
 10
0.0025905511811024
 20
-0.5775314960629921
 30
0.0
 10
0.0025905511811024
 20
-0.5775314960629921
 30
0.0
 10
0.0025905511811024
 20
-0.5775314960629921
 30
0.0
 10
0.0025905511811024
 20
-0.5775314960629921
 30
0.0
 10
0.0035629921259843
 20
-1.3308779527559056
 30
0.0
 10
0.0035629921259843
 20
-1.3308779527559056
 30
0.0
 10
0.0035629921259843
 20
-1.3308779527559056
 30
0.0
 10
0.0035629921259843
 20
-1.3308779527559056
 30
0.0
 10
0.0173228346456693
 20
-1.3289527559055119
 30
0.0
 10
0.0173228346456693
 20
-1.3289527559055119
 30
0.0
 10
0.0173228346456693
 20
-1.3289527559055119
 30
0.0
 10
0.0173228346456693
 20
-1.3289527559055119
 30
0.0
 10
0.031251968503937
 20
-1.3261692913385827
 30
0.0
 10
0.031251968503937
 20
-1.3261692913385827
 30
0.0
 10
0.031251968503937
 20
-1.3261692913385827
 30
0.0
 10
0.031251968503937
 20
-1.3261692913385827
 30
0.0
 10
0.0453425196850394
 20
-1.3225
 30
0.0
 10
0.0453425196850394
 20
-1.3225
 30
0.0
  0
SPLINE
  5
41
100
AcDbEntity
  8
P1-Layer 1
 62
   253
100
AcDbSpline
210
0.0
220
0.0
230
1.0
 70
     1
 71
     3
 72
    36
 73
    32
 74
     0
 42
0.0000000001
 43
0.0000000001
 40
0.0
 40
0.0
 40
0.0
 40
0.0
 40
0.125
 40
0.125
 40
0.125
 40
0.125
 40
0.25
 40
0.25
 40
0.25
 40
0.25
 40
0.375
 40
0.375
 40
0.375
 40
0.375
 40
0.5
 40
0.5
 40
0.5
 40
0.5
 40
0.625
 40
0.625
 40
0.625
 40
0.625
 40
0.75
 40
0.75
 40
0.75
 40
0.75
 40
0.875
 40
0.875
 40
0.875
 40
0.875
 40
1.0
 40
1.0
 40
1.0
 40
1.0
 10
0.0035629921259843
 20
-1.3308779527559056
 30
0.0
 10
0.0035629921259843
 20
-1.3308779527559056
 30
0.0
 10
0.0025905511811024
 20
-0.5775314960629921
 30
0.0
 10
0.0025905511811024
 20
-0.5775314960629921
 30
0.0
 10
0.0025905511811024
 20
-0.5775314960629921
 30
0.0
 10
0.0025905511811024
 20
-0.5775314960629921
 30
0.0
 10
-0.0109685039370079
 20
-0.5786417322834646
 30
0.0
 10
-0.0109685039370079
 20
-0.5786417322834646
 30
0.0
 10
-0.0109685039370079
 20
-0.5786417322834646
 30
0.0
 10
-0.0109685039370079
 20
-0.5786417322834646
 30
0.0
 10
-0.0243228346456693
 20
-0.5789606299212599
 30
0.0
 10
-0.0243228346456693
 20
-0.5789606299212599
 30
0.0
 10
-0.0243228346456693
 20
-0.5789606299212599
 30
0.0
 10
-0.0243228346456693
 20
-0.5789606299212599
 30
0.0
 10
-0.0374527559055118
 20
-0.5785433070866142
 30
0.0
 10
-0.0374527559055118
 20
-0.5785433070866142
 30
0.0
 10
-0.0374527559055118
 20
-0.5785433070866142
 30
0.0
 10
-0.0374527559055118
 20
-0.5785433070866142
 30
0.0
 10
-0.0364803149606299
 20
-1.3318897637795275
 30
0.0
 10
-0.0364803149606299
 20
-1.3318897637795275
 30
0.0
 10
-0.0364803149606299
 20
-1.3318897637795275
 30
0.0
 10
-0.0364803149606299
 20
-1.3318897637795275
 30
0.0
 10
-0.0233503937007874
 20
-1.3323070866141733
 30
0.0
 10
-0.0233503937007874
 20
-1.3323070866141733
 30
0.0
 10
-0.0233503937007874
 20
-1.3323070866141733
 30
0.0
 10
-0.0233503937007874
 20
-1.3323070866141733
 30
0.0
 10
-0.009996062992126
 20
-1.3319881889763781
 30
0.0
 10
-0.009996062992126
 20
-1.3319881889763781
 30
0.0
 10
-0.009996062992126
 20
-1.3319881889763781
 30
0.0
 10
-0.009996062992126
 20
-1.3319881889763781
 30
0.0
 10
0.0035629921259843
 20
-1.3308779527559056
 30
0.0
 10
0.0035629921259843
 20
-1.3308779527559056
 30
0.0
  0
SPLINE
  5
42
100
AcDbEntity
  8
P1-Layer 1
 62
   253
100
AcDbSpline
210
0.0
220
0.0
230
1.0
 70
     1
 71
     3
 72
    36
 73
    32
 74
     0
 42
0.0000000001
 43
0.0000000001
 40
0.0
 40
0.0
 40
0.0
 40
0.0
 40
0.125
 40
0.125
 40
0.125
 40
0.125
 40
0.25
 40
0.25
 40
0.25
 40
0.25
 40
0.375
 40
0.375
 40
0.375
 40
0.375
 40
0.5
 40
0.5
 40
0.5
 40
0.5
 40
0.625
 40
0.625
 40
0.625
 40
0.625
 40
0.75
 40
0.75
 40
0.75
 40
0.75
 40
0.875
 40
0.875
 40
0.875
 40
0.875
 40
1.0
 40
1.0
 40
1.0
 40
1.0
 10
-0.0364803149606299
 20
-1.3318897637795275
 30
0.0
 10
-0.0364803149606299
 20
-1.3318897637795275
 30
0.0
 10
-0.0374527559055118
 20
-0.5785433070866142
 30
0.0
 10
-0.0374527559055118
 20
-0.5785433070866142
 30
0.0
 10
-0.0374527559055118
 20
-0.5785433070866142
 30
0.0
 10
-0.0374527559055118
 20
-0.5785433070866142
 30
0.0
 10
-0.0503346456692913
 20
-0.5774133858267717
 30
0.0
 10
-0.0503346456692913
 20
-0.5774133858267717
 30
0.0
 10
-0.0503346456692913
 20
-0.5774133858267717
 30
0.0
 10
-0.0503346456692913
 20
-0.5774133858267717
 30
0.0
 10
-0.0629566929133858
 20
-0.5756181102362205
 30
0.0
 10
-0.0629566929133858
 20
-0.5756181102362205
 30
0.0
 10
-0.0629566929133858
 20
-0.5756181102362205
 30
0.0
 10
-0.0629566929133858
 20
-0.5756181102362205
 30
0.0
 10
-0.0752874015748032
 20
-0.5731811023622048
 30
0.0
 10
-0.0752874015748032
 20
-0.5731811023622048
 30
0.0
 10
-0.0752874015748032
 20
-0.5731811023622048
 30
0.0
 10
-0.0752874015748032
 20
-0.5731811023622048
 30
0.0
 10
-0.0743149606299213
 20
-1.3265275590551182
 30
0.0
 10
-0.0743149606299213
 20
-1.3265275590551182
 30
0.0
 10
-0.0743149606299213
 20
-1.3265275590551182
 30
0.0
 10
-0.0743149606299213
 20
-1.3265275590551182
 30
0.0
 10
-0.0619842519685039
 20
-1.3289645669291339
 30
0.0
 10
-0.0619842519685039
 20
-1.3289645669291339
 30
0.0
 10
-0.0619842519685039
 20
-1.3289645669291339
 30
0.0
 10
-0.0619842519685039
 20
-1.3289645669291339
 30
0.0
 10
-0.0493622047244094
 20
-1.3307598425196852
 30
0.0
 10
-0.0493622047244094
 20
-1.3307598425196852
 30
0.0
 10
-0.0493622047244094
 20
-1.3307598425196852
 30
0.0
 10
-0.0493622047244094
 20
-1.3307598425196852
 30
0.0
 10
-0.0364803149606299
 20
-1.3318897637795275
 30
0.0
 10
-0.0364803149606299
 20
-1.3318897637795275
 30
0.0
  0
SPLINE
  5
43
100
AcDbEntity
  8
P1-Layer 1
 62
   253
100
AcDbSpline
210
0.0
220
0.0
230
1.0
 70
     1
 71
     3
 72
    44
 73
    40
 74
     0
 42
0.0000000001
 43
0.0000000001
 40
0.0
 40
0.0
 40
0.0
 40
0.0
 40
0.1
 40
0.1
 40
0.1
 40
0.1
 40
0.2
 40
0.2
 40
0.2
 40
0.2
 40
0.3
 40
0.3
 40
0.3
 40
0.3
 40
0.4
 40
0.4
 40
0.4
 40
0.4
 40
0.5
 40
0.5
 40
0.5
 40
0.5
 40
0.6
 40
0.6
 40
0.6
 40
0.6
 40
0.7
 40
0.7
 40
0.7
 40
0.7
 40
0.7999999999999999
 40
0.7999999999999999
 40
0.7999999999999999
 40
0.7999999999999999
 40
0.8999999999999999
 40
0.8999999999999999
 40
0.8999999999999999
 40
0.8999999999999999
 40
1.0
 40
1.0
 40
1.0
 40
1.0
 10
-0.0743149606299213
 20
-1.3265275590551182
 30
0.0
 10
-0.0743149606299213
 20
-1.3265275590551182
 30
0.0
 10
-0.0752874015748032
 20
-0.5731811023622048
 30
0.0
 10
-0.0752874015748032
 20
-0.5731811023622048
 30
0.0
 10
-0.0752874015748032
 20
-0.5731811023622048
 30
0.0
 10
-0.0752874015748032
 20
-0.5731811023622048
 30
0.0
 10
-0.0873228346456693
 20
-0.5701496062992126
 30
0.0
 10
-0.0873228346456693
 20
-0.5701496062992126
 30
0.0
 10
-0.0873228346456693
 20
-0.5701496062992126
 30
0.0
 10
-0.0873228346456693
 20
-0.5701496062992126
 30
0.0
 10
-0.0990354330708662
 20
-0.5665551181102363
 30
0.0
 10
-0.0990354330708662
 20
-0.5665551181102363
 30
0.0
 10
-0.0990354330708662
 20
-0.5665551181102363
 30
0.0
 10
-0.0990354330708662
 20
-0.5665551181102363
 30
0.0
 10
-0.1104173228346457
 20
-0.5624370078740157
 30
0.0
 10
-0.1104173228346457
 20
-0.5624370078740157
 30
0.0
 10
-0.1104173228346457
 20
-0.5624370078740157
 30
0.0
 10
-0.1104173228346457
 20
-0.5624370078740157
 30
0.0
 10
-0.1214370078740158
 20
-0.5578267716535433
 30
0.0
 10
-0.1214370078740158
 20
-0.5578267716535433
 30
0.0
 10
-0.1214370078740158
 20
-0.5578267716535433
 30
0.0
 10
-0.1214370078740158
 20
-0.5578267716535433
 30
0.0
 10
-0.1204645669291339
 20
-1.3111732283464568
 30
0.0
 10
-0.1204645669291339
 20
-1.3111732283464568
 30
0.0
 10
-0.1204645669291339
 20
-1.3111732283464568
 30
0.0
 10
-0.1204645669291339
 20
-1.3111732283464568
 30
0.0
 10
-0.1094448818897638
 20
-1.3157834645669291
 30
0.0
 10
-0.1094448818897638
 20
-1.3157834645669291
 30
0.0
 10
-0.1094448818897638
 20
-1.3157834645669291
 30
0.0
 10
-0.1094448818897638
 20
-1.3157834645669291
 30
0.0
 10
-0.0980629921259843
 20
-1.3199015748031497
 30
0.0
 10
-0.0980629921259843
 20
-1.3199015748031497
 30
0.0
 10
-0.0980629921259843
 20
-1.3199015748031497
 30
0.0
 10
-0.0980629921259843
 20
-1.3199015748031497
 30
0.0
 10
-0.0863503937007874
 20
-1.323496062992126
 30
0.0
 10
-0.0863503937007874
 20
-1.323496062992126
 30
0.0
 10
-0.0863503937007874
 20
-1.323496062992126
 30
0.0
 10
-0.0863503937007874
 20
-1.323496062992126
 30
0.0
 10
-0.0743149606299213
 20
-1.3265275590551182
 30
0.0
 10
-0.0743149606299213
 20
-1.3265275590551182
 30
0.0
  0
SPLINE
  5
44
100
AcDbEntity
  8
P1-Layer 1
 62
   253
100
AcDbSpline
210
0.0
220
0.0
230
1.0
 70
     1
 71
     3
 72
    44
 73
    40
 74
     0
 42
0.0000000001
 43
0.0000000001
 40
0.0
 40
0.0
 40
0.0
 40
0.0
 40
0.1
 40
0.1
 40
0.1
 40
0.1
 40
0.2
 40
0.2
 40
0.2
 40
0.2
 40
0.3
 40
0.3
 40
0.3
 40
0.3
 40
0.4
 40
0.4
 40
0.4
 40
0.4
 40
0.5
 40
0.5
 40
0.5
 40
0.5
 40
0.6
 40
0.6
 40
0.6
 40
0.6
 40
0.7
 40
0.7
 40
0.7
 40
0.7
 40
0.7999999999999999
 40
0.7999999999999999
 40
0.7999999999999999
 40
0.7999999999999999
 40
0.8999999999999999
 40
0.8999999999999999
 40
0.8999999999999999
 40
0.8999999999999999
 40
1.0
 40
1.0
 40
1.0
 40
1.0
 10
-0.1204645669291339
 20
-1.3111732283464568
 30
0.0
 10
-0.1204645669291339
 20
-1.3111732283464568
 30
0.0
 10
-0.1214370078740158
 20
-0.5578267716535433
 30
0.0
 10
-0.1214370078740158
 20
-0.5578267716535433
 30
0.0
 10
-0.1214370078740158
 20
-0.5578267716535433
 30
0.0
 10
-0.1214370078740158
 20
-0.5578267716535433
 30
0.0
 10
-0.1320905511811024
 20
-0.5527755905511811
 30
0.0
 10
-0.1320905511811024
 20
-0.5527755905511811
 30
0.0
 10
-0.1320905511811024
 20
-0.5527755905511811
 30
0.0
 10
-0.1320905511811024
 20
-0.5527755905511811
 30
0.0
 10
-0.1423464566929134
 20
-0.5473031496062992
 30
0.0
 10
-0.1423464566929134
 20
-0.5473031496062992
 30
0.0
 10
-0.1423464566929134
 20
-0.5473031496062992
 30
0.0
 10
-0.1423464566929134
 20
-0.5473031496062992
 30
0.0
 10
-0.1521968503937008
 20
-0.5414645669291339
 30
0.0
 10
-0.1521968503937008
 20
-0.5414645669291339
 30
0.0
 10
-0.1521968503937008
 20
-0.5414645669291339
 30
0.0
 10
-0.1521968503937008
 20
-0.5414645669291339
 30
0.0
 10
-0.1616062992125984
 20
-0.5352716535433071
 30
0.0
 10
-0.1616062992125984
 20
-0.5352716535433071
 30
0.0
 10
-0.1616062992125984
 20
-0.5352716535433071
 30
0.0
 10
-0.1616062992125984
 20
-0.5352716535433071
 30
0.0
 10
-0.1606338582677165
 20
-1.2886181102362204
 30
0.0
 10
-0.1606338582677165
 20
-1.2886181102362204
 30
0.0
 10
-0.1606338582677165
 20
-1.2886181102362204
 30
0.0
 10
-0.1606338582677165
 20
-1.2886181102362204
 30
0.0
 10
-0.1512244094488189
 20
-1.2948110236220474
 30
0.0
 10
-0.1512244094488189
 20
-1.2948110236220474
 30
0.0
 10
-0.1512244094488189
 20
-1.2948110236220474
 30
0.0
 10
-0.1512244094488189
 20
-1.2948110236220474
 30
0.0
 10
-0.1413740157480315
 20
-1.3006496062992126
 30
0.0
 10
-0.1413740157480315
 20
-1.3006496062992126
 30
0.0
 10
-0.1413740157480315
 20
-1.3006496062992126
 30
0.0
 10
-0.1413740157480315
 20
-1.3006496062992126
 30
0.0
 10
-0.1311181102362205
 20
-1.3061220472440946
 30
0.0
 10
-0.1311181102362205
 20
-1.3061220472440946
 30
0.0
 10
-0.1311181102362205
 20
-1.3061220472440946
 30
0.0
 10
-0.1311181102362205
 20
-1.3061220472440946
 30
0.0
 10
-0.1204645669291339
 20
-1.3111732283464568
 30
0.0
 10
-0.1204645669291339
 20
-1.3111732283464568
 30
0.0
  0
SPLINE
  5
45
100
AcDbEntity
  8
P1-Layer 1
 62
     9
100
AcDbSpline
210
0.0
220
0.0
230
1.0
 70
     1
 71
     3
 72
    44
 73
    40
 74
     0
 42
0.0000000001
 43
0.0000000001
 40
0.0
 40
0.0
 40
0.0
 40
0.0
 40
0.1
 40
0.1
 40
0.1
 40
0.1
 40
0.2
 40
0.2
 40
0.2
 40
0.2
 40
0.3
 40
0.3
 40
0.3
 40
0.3
 40
0.4
 40
0.4
 40
0.4
 40
0.4
 40
0.5
 40
0.5
 40
0.5
 40
0.5
 40
0.6
 40
0.6
 40
0.6
 40
0.6
 40
0.7
 40
0.7
 40
0.7
 40
0.7
 40
0.7999999999999999
 40
0.7999999999999999
 40
0.7999999999999999
 40
0.7999999999999999
 40
0.8999999999999999
 40
0.8999999999999999
 40
0.8999999999999999
 40
0.8999999999999999
 40
1.0
 40
1.0
 40
1.0
 40
1.0
 10
-0.1606338582677165
 20
-1.2886181102362204
 30
0.0
 10
-0.1606338582677165
 20
-1.2886181102362204
 30
0.0
 10
-0.1616062992125984
 20
-0.5352716535433071
 30
0.0
 10
-0.1616062992125984
 20
-0.5352716535433071
 30
0.0
 10
-0.1616062992125984
 20
-0.5352716535433071
 30
0.0
 10
-0.1616062992125984
 20
-0.5352716535433071
 30
0.0
 10
-0.1705787401574803
 20
-0.5287834645669292
 30
0.0
 10
-0.1705787401574803
 20
-0.5287834645669292
 30
0.0
 10
-0.1705787401574803
 20
-0.5287834645669292
 30
0.0
 10
-0.1705787401574803
 20
-0.5287834645669292
 30
0.0
 10
-0.1790787401574803
 20
-0.5220236220472441
 30
0.0
 10
-0.1790787401574803
 20
-0.5220236220472441
 30
0.0
 10
-0.1790787401574803
 20
-0.5220236220472441
 30
0.0
 10
-0.1790787401574803
 20
-0.5220236220472441
 30
0.0
 10
-0.1871023622047244
 20
-0.5150393700787401
 30
0.0
 10
-0.1871023622047244
 20
-0.5150393700787401
 30
0.0
 10
-0.1871023622047244
 20
-0.5150393700787401
 30
0.0
 10
-0.1871023622047244
 20
-0.5150393700787401
 30
0.0
 10
-0.1946141732283465
 20
-0.5078582677165354
 30
0.0
 10
-0.1946141732283465
 20
-0.5078582677165354
 30
0.0
 10
-0.1946141732283465
 20
-0.5078582677165354
 30
0.0
 10
-0.1946141732283465
 20
-0.5078582677165354
 30
0.0
 10
-0.1936417322834646
 20
-1.2612047244094489
 30
0.0
 10
-0.1936417322834646
 20
-1.2612047244094489
 30
0.0
 10
-0.1936417322834646
 20
-1.2612047244094489
 30
0.0
 10
-0.1936417322834646
 20
-1.2612047244094489
 30
0.0
 10
-0.1861299212598425
 20
-1.2683858267716537
 30
0.0
 10
-0.1861299212598425
 20
-1.2683858267716537
 30
0.0
 10
-0.1861299212598425
 20
-1.2683858267716537
 30
0.0
 10
-0.1861299212598425
 20
-1.2683858267716537
 30
0.0
 10
-0.1781062992125984
 20
-1.2753700787401576
 30
0.0
 10
-0.1781062992125984
 20
-1.2753700787401576
 30
0.0
 10
-0.1781062992125984
 20
-1.2753700787401576
 30
0.0
 10
-0.1781062992125984
 20
-1.2753700787401576
 30
0.0
 10
-0.1696062992125984
 20
-1.2821299212598425
 30
0.0
 10
-0.1696062992125984
 20
-1.2821299212598425
 30
0.0
 10
-0.1696062992125984
 20
-1.2821299212598425
 30
0.0
 10
-0.1696062992125984
 20
-1.2821299212598425
 30
0.0
 10
-0.1606338582677165
 20
-1.2886181102362204
 30
0.0
 10
-0.1606338582677165
 20
-1.2886181102362204
 30
0.0
  0
SPLINE
  5
46
100
AcDbEntity
  8
P1-Layer 1
 62
     9
100
AcDbSpline
210
0.0
220
0.0
230
1.0
 70
     1
 71
     3
 72
    52
 73
    48
 74
     0
 42
0.0000000001
 43
0.0000000001
 40
0.0
 40
0.0
 40
0.0
 40
0.0
 40
0.0833333333333333
 40
0.0833333333333333
 40
0.0833333333333333
 40
0.0833333333333333
 40
0.1666666666666667
 40
0.1666666666666667
 40
0.1666666666666667
 40
0.1666666666666667
 40
0.25
 40
0.25
 40
0.25
 40
0.25
 40
0.3333333333333333
 40
0.3333333333333333
 40
0.3333333333333333
 40
0.3333333333333333
 40
0.4166666666666666
 40
0.4166666666666666
 40
0.4166666666666666
 40
0.4166666666666666
 40
0.4999999999999999
 40
0.4999999999999999
 40
0.4999999999999999
 40
0.4999999999999999
 40
0.5833333333333333
 40
0.5833333333333333
 40
0.5833333333333333
 40
0.5833333333333333
 40
0.6666666666666666
 40
0.6666666666666666
 40
0.6666666666666666
 40
0.6666666666666666
 40
0.75
 40
0.75
 40
0.75
 40
0.75
 40
0.8333333333333334
 40
0.8333333333333334
 40
0.8333333333333334
 40
0.8333333333333334
 40
0.9166666666666667
 40
0.9166666666666667
 40
0.9166666666666667
 40
0.9166666666666667
 40
1.0
 40
1.0
 40
1.0
 40
1.0
 10
-0.1936417322834646
 20
-1.2612047244094489
 30
0.0
 10
-0.1936417322834646
 20
-1.2612047244094489
 30
0.0
 10
-0.1946141732283465
 20
-0.5078582677165354
 30
0.0
 10
-0.1946141732283465
 20
-0.5078582677165354
 30
0.0
 10
-0.1946141732283465
 20
-0.5078582677165354
 30
0.0
 10
-0.1946141732283465
 20
-0.5078582677165354
 30
0.0
 10
-0.2016141732283465
 20
-0.5005275590551181
 30
0.0
 10
-0.2016141732283465
 20
-0.5005275590551181
 30
0.0
 10
-0.2016141732283465
 20
-0.5005275590551181
 30
0.0
 10
-0.2016141732283465
 20
-0.5005275590551181
 30
0.0
 10
-0.2080708661417323
 20
-0.4930708661417323
 30
0.0
 10
-0.2080708661417323
 20
-0.4930708661417323
 30
0.0
 10
-0.2080708661417323
 20
-0.4930708661417323
 30
0.0
 10
-0.2080708661417323
 20
-0.4930708661417323
 30
0.0
 10
-0.2139803149606299
 20
-0.4855393700787402
 30
0.0
 10
-0.2139803149606299
 20
-0.4855393700787402
 30
0.0
 10
-0.2139803149606299
 20
-0.4855393700787402
 30
0.0
 10
-0.2139803149606299
 20
-0.4855393700787402
 30
0.0
 10
-0.2193031496062992
 20
-0.4779527559055118
 30
0.0
 10
-0.2193031496062992
 20
-0.4779527559055118
 30
0.0
 10
-0.2193031496062992
 20
-0.4779527559055118
 30
0.0
 10
-0.2193031496062992
 20
-0.4779527559055118
 30
0.0
 10
-0.2240354330708662
 20
-0.4703661417322835
 30
0.0
 10
-0.2240354330708662
 20
-0.4703661417322835
 30
0.0
 10
-0.2240354330708662
 20
-0.4703661417322835
 30
0.0
 10
-0.2240354330708662
 20
-0.4703661417322835
 30
0.0
 10
-0.2230629921259843
 20
-1.2237125984251969
 30
0.0
 10
-0.2230629921259843
 20
-1.2237125984251969
 30
0.0
 10
-0.2230629921259843
 20
-1.2237125984251969
 30
0.0
 10
-0.2230629921259843
 20
-1.2237125984251969
 30
0.0
 10
-0.2183307086614173
 20
-1.2312992125984252
 30
0.0
 10
-0.2183307086614173
 20
-1.2312992125984252
 30
0.0
 10
-0.2183307086614173
 20
-1.2312992125984252
 30
0.0
 10
-0.2183307086614173
 20
-1.2312992125984252
 30
0.0
 10
-0.213007874015748
 20
-1.2388858267716536
 30
0.0
 10
-0.213007874015748
 20
-1.2388858267716536
 30
0.0
 10
-0.213007874015748
 20
-1.2388858267716536
 30
0.0
 10
-0.213007874015748
 20
-1.2388858267716536
 30
0.0
 10
-0.2070984251968504
 20
-1.2464173228346458
 30
0.0
 10
-0.2070984251968504
 20
-1.2464173228346458
 30
0.0
 10
-0.2070984251968504
 20
-1.2464173228346458
 30
0.0
 10
-0.2070984251968504
 20
-1.2464173228346458
 30
0.0
 10
-0.2006417322834646
 20
-1.2538740157480315
 30
0.0
 10
-0.2006417322834646
 20
-1.2538740157480315
 30
0.0
 10
-0.2006417322834646
 20
-1.2538740157480315
 30
0.0
 10
-0.2006417322834646
 20
-1.2538740157480315
 30
0.0
 10
-0.1936417322834646
 20
-1.2612047244094489
 30
0.0
 10
-0.1936417322834646
 20
-1.2612047244094489
 30
0.0
  0
SPLINE
  5
47
100
AcDbEntity
  8
P1-Layer 1
 62
     9
100
AcDbSpline
210
0.0
220
0.0
230
1.0
 70
     1
 71
     3
 72
    60
 73
    56
 74
     0
 42
0.0000000001
 43
0.0000000001
 40
0.0
 40
0.0
 40
0.0
 40
0.0
 40
0.0714285714285714
 40
0.0714285714285714
 40
0.0714285714285714
 40
0.0714285714285714
 40
0.1428571428571429
 40
0.1428571428571429
 40
0.1428571428571429
 40
0.1428571428571429
 40
0.2142857142857143
 40
0.2142857142857143
 40
0.2142857142857143
 40
0.2142857142857143
 40
0.2857142857142857
 40
0.2857142857142857
 40
0.2857142857142857
 40
0.2857142857142857
 40
0.3571428571428571
 40
0.3571428571428571
 40
0.3571428571428571
 40
0.3571428571428571
 40
0.4285714285714285
 40
0.4285714285714285
 40
0.4285714285714285
 40
0.4285714285714285
 40
0.4999999999999999
 40
0.4999999999999999
 40
0.4999999999999999
 40
0.4999999999999999
 40
0.5714285714285713
 40
0.5714285714285713
 40
0.5714285714285713
 40
0.5714285714285713
 40
0.6428571428571427
 40
0.6428571428571427
 40
0.6428571428571427
 40
0.6428571428571427
 40
0.7142857142857141
 40
0.7142857142857141
 40
0.7142857142857141
 40
0.7142857142857141
 40
0.7857142857142855
 40
0.7857142857142855
 40
0.7857142857142855
 40
0.7857142857142855
 40
0.8571428571428569
 40
0.8571428571428569
 40
0.8571428571428569
 40
0.8571428571428569
 40
0.9285714285714283
 40
0.9285714285714283
 40
0.9285714285714283
 40
0.9285714285714283
 40
1.0
 40
1.0
 40
1.0
 40
1.0
 10
-0.2230629921259843
 20
-1.2237125984251969
 30
0.0
 10
-0.2230629921259843
 20
-1.2237125984251969
 30
0.0
 10
-0.2240354330708662
 20
-0.4703661417322835
 30
0.0
 10
-0.2240354330708662
 20
-0.4703661417322835
 30
0.0
 10
-0.2240354330708662
 20
-0.4703661417322835
 30
0.0
 10
-0.2240354330708662
 20
-0.4703661417322835
 30
0.0
 10
-0.2281574803149606
 20
-0.4628031496062993
 30
0.0
 10
-0.2281574803149606
 20
-0.4628031496062993
 30
0.0
 10
-0.2281574803149606
 20
-0.4628031496062993
 30
0.0
 10
-0.2281574803149606
 20
-0.4628031496062993
 30
0.0
 10
-0.2316535433070866
 20
-0.4553149606299213
 30
0.0
 10
-0.2316535433070866
 20
-0.4553149606299213
 30
0.0
 10
-0.2316535433070866
 20
-0.4553149606299213
 30
0.0
 10
-0.2316535433070866
 20
-0.4553149606299213
 30
0.0
 10
-0.234492125984252
 20
-0.4479173228346457
 30
0.0
 10
-0.234492125984252
 20
-0.4479173228346457
 30
0.0
 10
-0.234492125984252
 20
-0.4479173228346457
 30
0.0
 10
-0.234492125984252
 20
-0.4479173228346457
 30
0.0
 10
-0.2366732283464567
 20
-0.4406653543307087
 30
0.0
 10
-0.2366732283464567
 20
-0.4406653543307087
 30
0.0
 10
-0.2366732283464567
 20
-0.4406653543307087
 30
0.0
 10
-0.2366732283464567
 20
-0.4406653543307087
 30
0.0
 10
-0.2381653543307087
 20
-0.4335866141732284
 30
0.0
 10
-0.2381653543307087
 20
-0.4335866141732284
 30
0.0
 10
-0.2381653543307087
 20
-0.4335866141732284
 30
0.0
 10
-0.2381653543307087
 20
-0.4335866141732284
 30
0.0
 10
-0.2389566929133858
 20
-0.4267244094488189
 30
0.0
 10
-0.2389566929133858
 20
-0.4267244094488189
 30
0.0
 10
-0.2389566929133858
 20
-0.4267244094488189
 30
0.0
 10
-0.2389566929133858
 20
-0.4267244094488189
 30
0.0
 10
-0.237984251968504
 20
-1.1800708661417323
 30
0.0
 10
-0.237984251968504
 20
-1.1800708661417323
 30
0.0
 10
-0.237984251968504
 20
-1.1800708661417323
 30
0.0
 10
-0.237984251968504
 20
-1.1800708661417323
 30
0.0
 10
-0.2371929133858268
 20
-1.1869330708661419
 30
0.0
 10
-0.2371929133858268
 20
-1.1869330708661419
 30
0.0
 10
-0.2371929133858268
 20
-1.1869330708661419
 30
0.0
 10
-0.2371929133858268
 20
-1.1869330708661419
 30
0.0
 10
-0.2357007874015748
 20
-1.1940118110236222
 30
0.0
 10
-0.2357007874015748
 20
-1.1940118110236222
 30
0.0
 10
-0.2357007874015748
 20
-1.1940118110236222
 30
0.0
 10
-0.2357007874015748
 20
-1.1940118110236222
 30
0.0
 10
-0.2335196850393701
 20
-1.2012637795275591
 30
0.0
 10
-0.2335196850393701
 20
-1.2012637795275591
 30
0.0
 10
-0.2335196850393701
 20
-1.2012637795275591
 30
0.0
 10
-0.2335196850393701
 20
-1.2012637795275591
 30
0.0
 10
-0.2306811023622047
 20
-1.2086614173228347
 30
0.0
 10
-0.2306811023622047
 20
-1.2086614173228347
 30
0.0
 10
-0.2306811023622047
 20
-1.2086614173228347
 30
0.0
 10
-0.2306811023622047
 20
-1.2086614173228347
 30
0.0
 10
-0.2271850393700788
 20
-1.2161496062992125
 30
0.0
 10
-0.2271850393700788
 20
-1.2161496062992125
 30
0.0
 10
-0.2271850393700788
 20
-1.2161496062992125
 30
0.0
 10
-0.2271850393700788
 20
-1.2161496062992125
 30
0.0
 10
-0.2230629921259843
 20
-1.2237125984251969
 30
0.0
 10
-0.2230629921259843
 20
-1.2237125984251969
 30
0.0
  0
SPLINE
  5
48
100
AcDbEntity
  8
P1-Layer 1
370
     5
100
AcDbSpline
210
0.0
220
0.0
230
1.0
 70
     1
 71
     3
 72
   524
 73
   520
 74
     0
 42
0.0000000001
 43
0.0000000001
 40
0.0
 40
0.0
 40
0.0
 40
0.0
 40
0.0076923076923077
 40
0.0076923076923077
 40
0.0076923076923077
 40
0.0076923076923077
 40
0.0153846153846154
 40
0.0153846153846154
 40
0.0153846153846154
 40
0.0153846153846154
 40
0.0230769230769231
 40
0.0230769230769231
 40
0.0230769230769231
 40
0.0230769230769231
 40
0.0307692307692308
 40
0.0307692307692308
 40
0.0307692307692308
 40
0.0307692307692308
 40
0.0384615384615385
 40
0.0384615384615385
 40
0.0384615384615385
 40
0.0384615384615385
 40
0.0461538461538462
 40
0.0461538461538462
 40
0.0461538461538462
 40
0.0461538461538462
 40
0.0538461538461538
 40
0.0538461538461538
 40
0.0538461538461538
 40
0.0538461538461538
 40
0.0615384615384615
 40
0.0615384615384615
 40
0.0615384615384615
 40
0.0615384615384615
 40
0.0692307692307692
 40
0.0692307692307692
 40
0.0692307692307692
 40
0.0692307692307692
 40
0.0769230769230769
 40
0.0769230769230769
 40
0.0769230769230769
 40
0.0769230769230769
 40
0.0846153846153846
 40
0.0846153846153846
 40
0.0846153846153846
 40
0.0846153846153846
 40
0.0923076923076923
 40
0.0923076923076923
 40
0.0923076923076923
 40
0.0923076923076923
 40
0.1
 40
0.1
 40
0.1
 40
0.1
 40
0.1076923076923077
 40
0.1076923076923077
 40
0.1076923076923077
 40
0.1076923076923077
 40
0.1153846153846154
 40
0.1153846153846154
 40
0.1153846153846154
 40
0.1153846153846154
 40
0.1230769230769231
 40
0.1230769230769231
 40
0.1230769230769231
 40
0.1230769230769231
 40
0.1307692307692308
 40
0.1307692307692308
 40
0.1307692307692308
 40
0.1307692307692308
 40
0.1384615384615385
 40
0.1384615384615385
 40
0.1384615384615385
 40
0.1384615384615385
 40
0.1461538461538462
 40
0.1461538461538462
 40
0.1461538461538462
 40
0.1461538461538462
 40
0.1538461538461539
 40
0.1538461538461539
 40
0.1538461538461539
 40
0.1538461538461539
 40
0.1615384615384616
 40
0.1615384615384616
 40
0.1615384615384616
 40
0.1615384615384616
 40
0.1692307692307692
 40
0.1692307692307692
 40
0.1692307692307692
 40
0.1692307692307692
 40
0.1769230769230769
 40
0.1769230769230769
 40
0.1769230769230769
 40
0.1769230769230769
 40
0.1846153846153846
 40
0.1846153846153846
 40
0.1846153846153846
 40
0.1846153846153846
 40
0.1923076923076923
 40
0.1923076923076923
 40
0.1923076923076923
 40
0.1923076923076923
 40
0.2
 40
0.2
 40
0.2
 40
0.2
 40
0.2076923076923077
 40
0.2076923076923077
 40
0.2076923076923077
 40
0.2076923076923077
 40
0.2153846153846154
 40
0.2153846153846154
 40
0.2153846153846154
 40
0.2153846153846154
 40
0.2230769230769231
 40
0.2230769230769231
 40
0.2230769230769231
 40
0.2230769230769231
 40
0.2307692307692308
 40
0.2307692307692308
 40
0.2307692307692308
 40
0.2307692307692308
 40
0.2384615384615385
 40
0.2384615384615385
 40
0.2384615384615385
 40
0.2384615384615385
 40
0.2461538461538462
 40
0.2461538461538462
 40
0.2461538461538462
 40
0.2461538461538462
 40
0.2538461538461538
 40
0.2538461538461538
 40
0.2538461538461538
 40
0.2538461538461538
 40
0.2615384615384615
 40
0.2615384615384615
 40
0.2615384615384615
 40
0.2615384615384615
 40
0.2692307692307692
 40
0.2692307692307692
 40
0.2692307692307692
 40
0.2692307692307692
 40
0.2769230769230768
 40
0.2769230769230768
 40
0.2769230769230768
 40
0.2769230769230768
 40
0.2846153846153845
 40
0.2846153846153845
 40
0.2846153846153845
 40
0.2846153846153845
 40
0.2923076923076922
 40
0.2923076923076922
 40
0.2923076923076922
 40
0.2923076923076922
 40
0.2999999999999998
 40
0.2999999999999998
 40
0.2999999999999998
 40
0.2999999999999998
 40
0.3076923076923075
 40
0.3076923076923075
 40
0.3076923076923075
 40
0.3076923076923075
 40
0.3153846153846152
 40
0.3153846153846152
 40
0.3153846153846152
 40
0.3153846153846152
 40
0.3230769230769228
 40
0.3230769230769228
 40
0.3230769230769228
 40
0.3230769230769228
 40
0.3307692307692305
 40
0.3307692307692305
 40
0.3307692307692305
 40
0.3307692307692305
 40
0.3384615384615382
 40
0.3384615384615382
 40
0.3384615384615382
 40
0.3384615384615382
 40
0.3461538461538458
 40
0.3461538461538458
 40
0.3461538461538458
 40
0.3461538461538458
 40
0.3538461538461535
 40
0.3538461538461535
 40
0.3538461538461535
 40
0.3538461538461535
 40
0.3615384615384611
 40
0.3615384615384611
 40
0.3615384615384611
 40
0.3615384615384611
 40
0.3692307692307688
 40
0.3692307692307688
 40
0.3692307692307688
 40
0.3692307692307688
 40
0.3769230769230765
 40
0.3769230769230765
 40
0.3769230769230765
 40
0.3769230769230765
 40
0.3846153846153841
 40
0.3846153846153841
 40
0.3846153846153841
 40
0.3846153846153841
 40
0.3923076923076918
 40
0.3923076923076918
 40
0.3923076923076918
 40
0.3923076923076918
 40
0.3999999999999995
 40
0.3999999999999995
 40
0.3999999999999995
 40
0.3999999999999995
 40
0.4076923076923071
 40
0.4076923076923071
 40
0.4076923076923071
 40
0.4076923076923071
 40
0.4153846153846148
 40
0.4153846153846148
 40
0.4153846153846148
 40
0.4153846153846148
 40
0.4230769230769225
 40
0.4230769230769225
 40
0.4230769230769225
 40
0.4230769230769225
 40
0.4307692307692301
 40
0.4307692307692301
 40
0.4307692307692301
 40
0.4307692307692301
 40
0.4384615384615378
 40
0.4384615384615378
 40
0.4384615384615378
 40
0.4384615384615378
 40
0.4461538461538455
 40
0.4461538461538455
 40
0.4461538461538455
 40
0.4461538461538455
 40
0.4538461538461531
 40
0.4538461538461531
 40
0.4538461538461531
 40
0.4538461538461531
 40
0.4615384615384608
 40
0.4615384615384608
 40
0.4615384615384608
 40
0.4615384615384608
 40
0.4692307692307685
 40
0.4692307692307685
 40
0.4692307692307685
 40
0.4692307692307685
 40
0.4769230769230761
 40
0.4769230769230761
 40
0.4769230769230761
 40
0.4769230769230761
 40
0.4846153846153838
 40
0.4846153846153838
 40
0.4846153846153838
 40
0.4846153846153838
 40
0.4923076923076915
 40
0.4923076923076915
 40
0.4923076923076915
 40
0.4923076923076915
 40
0.4999999999999991
 40
0.4999999999999991
 40
0.4999999999999991
 40
0.4999999999999991
 40
0.5076923076923068
 40
0.5076923076923068
 40
0.5076923076923068
 40
0.5076923076923068
 40
0.5153846153846144
 40
0.5153846153846144
 40
0.5153846153846144
 40
0.5153846153846144
 40
0.5230769230769221
 40
0.5230769230769221
 40
0.5230769230769221
 40
0.5230769230769221
 40
0.5307692307692298
 40
0.5307692307692298
 40
0.5307692307692298
 40
0.5307692307692298
 40
0.5384615384615374
 40
0.5384615384615374
 40
0.5384615384615374
 40
0.5384615384615374
 40
0.5461538461538451
 40
0.5461538461538451
 40
0.5461538461538451
 40
0.5461538461538451
 40
0.5538461538461528
 40
0.5538461538461528
 40
0.5538461538461528
 40
0.5538461538461528
 40
0.5615384615384604
 40
0.5615384615384604
 40
0.5615384615384604
 40
0.5615384615384604
 40
0.5692307692307681
 40
0.5692307692307681
 40
0.5692307692307681
 40
0.5692307692307681
 40
0.5769230769230758
 40
0.5769230769230758
 40
0.5769230769230758
 40
0.5769230769230758
 40
0.5846153846153834
 40
0.5846153846153834
 40
0.5846153846153834
 40
0.5846153846153834
 40
0.5923076923076911
 40
0.5923076923076911
 40
0.5923076923076911
 40
0.5923076923076911
 40
0.5999999999999988
 40
0.5999999999999988
 40
0.5999999999999988
 40
0.5999999999999988
 40
0.6076923076923064
 40
0.6076923076923064
 40
0.6076923076923064
 40
0.6076923076923064
 40
0.6153846153846141
 40
0.6153846153846141
 40
0.6153846153846141
 40
0.6153846153846141
 40
0.6230769230769218
 40
0.6230769230769218
 40
0.6230769230769218
 40
0.6230769230769218
 40
0.6307692307692294
 40
0.6307692307692294
 40
0.6307692307692294
 40
0.6307692307692294
 40
0.6384615384615371
 40
0.6384615384615371
 40
0.6384615384615371
 40
0.6384615384615371
 40
0.6461538461538448
 40
0.6461538461538448
 40
0.6461538461538448
 40
0.6461538461538448
 40
0.6538461538461524
 40
0.6538461538461524
 40
0.6538461538461524
 40
0.6538461538461524
 40
0.6615384615384601
 40
0.6615384615384601
 40
0.6615384615384601
 40
0.6615384615384601
 40
0.6692307692307677
 40
0.6692307692307677
 40
0.6692307692307677
 40
0.6692307692307677
 40
0.6769230769230754
 40
0.6769230769230754
 40
0.6769230769230754
 40
0.6769230769230754
 40
0.6846153846153831
 40
0.6846153846153831
 40
0.6846153846153831
 40
0.6846153846153831
 40
0.6923076923076907
 40
0.6923076923076907
 40
0.6923076923076907
 40
0.6923076923076907
 40
0.6999999999999984
 40
0.6999999999999984
 40
0.6999999999999984
 40
0.6999999999999984
 40
0.7076923076923061
 40
0.7076923076923061
 40
0.7076923076923061
 40
0.7076923076923061
 40
0.7153846153846137
 40
0.7153846153846137
 40
0.7153846153846137
 40
0.7153846153846137
 40
0.7230769230769214
 40
0.7230769230769214
 40
0.7230769230769214
 40
0.7230769230769214
 40
0.7307692307692291
 40
0.7307692307692291
 40
0.7307692307692291
 40
0.7307692307692291
 40
0.7384615384615367
 40
0.7384615384615367
 40
0.7384615384615367
 40
0.7384615384615367
 40
0.7461538461538444
 40
0.7461538461538444
 40
0.7461538461538444
 40
0.7461538461538444
 40
0.7538461538461521
 40
0.7538461538461521
 40
0.7538461538461521
 40
0.7538461538461521
 40
0.7615384615384597
 40
0.7615384615384597
 40
0.7615384615384597
 40
0.7615384615384597
 40
0.7692307692307674
 40
0.7692307692307674
 40
0.7692307692307674
 40
0.7692307692307674
 40
0.7769230769230751
 40
0.7769230769230751
 40
0.7769230769230751
 40
0.7769230769230751
 40
0.7846153846153827
 40
0.7846153846153827
 40
0.7846153846153827
 40
0.7846153846153827
 40
0.7923076923076904
 40
0.7923076923076904
 40
0.7923076923076904
 40
0.7923076923076904
 40
0.7999999999999981
 40
0.7999999999999981
 40
0.7999999999999981
 40
0.7999999999999981
 40
0.8076923076923057
 40
0.8076923076923057
 40
0.8076923076923057
 40
0.8076923076923057
 40
0.8153846153846134
 40
0.8153846153846134
 40
0.8153846153846134
 40
0.8153846153846134
 40
0.823076923076921
 40
0.823076923076921
 40
0.823076923076921
 40
0.823076923076921
 40
0.8307692307692287
 40
0.8307692307692287
 40
0.8307692307692287
 40
0.8307692307692287
 40
0.8384615384615364
 40
0.8384615384615364
 40
0.8384615384615364
 40
0.8384615384615364
 40
0.846153846153844
 40
0.846153846153844
 40
0.846153846153844
 40
0.846153846153844
 40
0.8538461538461517
 40
0.8538461538461517
 40
0.8538461538461517
 40
0.8538461538461517
 40
0.8615384615384594
 40
0.8615384615384594
 40
0.8615384615384594
 40
0.8615384615384594
 40
0.869230769230767
 40
0.869230769230767
 40
0.869230769230767
 40
0.869230769230767
 40
0.8769230769230747
 40
0.8769230769230747
 40
0.8769230769230747
 40
0.8769230769230747
 40
0.8846153846153824
 40
0.8846153846153824
 40
0.8846153846153824
 40
0.8846153846153824
 40
0.89230769230769
 40
0.89230769230769
 40
0.89230769230769
 40
0.89230769230769
 40
0.8999999999999977
 40
0.8999999999999977
 40
0.8999999999999977
 40
0.8999999999999977
 40
0.9076923076923054
 40
0.9076923076923054
 40
0.9076923076923054
 40
0.9076923076923054
 40
0.915384615384613
 40
0.915384615384613
 40
0.915384615384613
 40
0.915384615384613
 40
0.9230769230769207
 40
0.9230769230769207
 40
0.9230769230769207
 40
0.9230769230769207
 40
0.9307692307692284
 40
0.9307692307692284
 40
0.9307692307692284
 40
0.9307692307692284
 40
0.938461538461536
 40
0.938461538461536
 40
0.938461538461536
 40
0.938461538461536
 40
0.9461538461538437
 40
0.9461538461538437
 40
0.9461538461538437
 40
0.9461538461538437
 40
0.9538461538461514
 40
0.9538461538461514
 40
0.9538461538461514
 40
0.9538461538461514
 40
0.961538461538459
 40
0.961538461538459
 40
0.961538461538459
 40
0.961538461538459
 40
0.9692307692307667
 40
0.9692307692307667
 40
0.9692307692307667
 40
0.9692307692307667
 40
0.9769230769230743
 40
0.9769230769230743
 40
0.9769230769230743
 40
0.9769230769230743
 40
0.984615384615382
 40
0.984615384615382
 40
0.984615384615382
 40
0.984615384615382
 40
0.9923076923076897
 40
0.9923076923076897
 40
0.9923076923076897
 40
0.9923076923076897
 40
1.0
 40
1.0
 40
1.0
 40
1.0
 10
0.4021771653543307
 20
-1.4255
 30
0.0
 10
0.4021771653543307
 20
-1.4255
 30
0.0
 10
0.4012047244094488
 20
-0.6721535433070867
 30
0.0
 10
0.4012047244094488
 20
-0.6721535433070867
 30
0.0
 10
0.4012047244094488
 20
-0.6721535433070867
 30
0.0
 10
0.4012047244094488
 20
-0.6721535433070867
 30
0.0
 10
0.3950984251968504
 20
-0.6543425196850394
 30
0.0
 10
0.3950984251968504
 20
-0.6543425196850394
 30
0.0
 10
0.3950984251968504
 20
-0.6543425196850394
 30
0.0
 10
0.3950984251968504
 20
-0.6543425196850394
 30
0.0
 10
0.3885354330708661
 20
-0.6379488188976378
 30
0.0
 10
0.3885354330708661
 20
-0.6379488188976378
 30
0.0
 10
0.3885354330708661
 20
-0.6379488188976378
 30
0.0
 10
0.3885354330708661
 20
-0.6379488188976378
 30
0.0
 10
0.3815236220472441
 20
-0.6229094488188977
 30
0.0
 10
0.3815236220472441
 20
-0.6229094488188977
 30
0.0
 10
0.3815236220472441
 20
-0.6229094488188977
 30
0.0
 10
0.3815236220472441
 20
-0.6229094488188977
 30
0.0
 10
0.3740905511811024
 20
-0.6091929133858268
 30
0.0
 10
0.3740905511811024
 20
-0.6091929133858268
 30
0.0
 10
0.3740905511811024
 20
-0.6091929133858268
 30
0.0
 10
0.3740905511811024
 20
-0.6091929133858268
 30
0.0
 10
0.3662283464566929
 20
-0.596732283464567
 30
0.0
 10
0.3662283464566929
 20
-0.596732283464567
 30
0.0
 10
0.3662283464566929
 20
-0.596732283464567
 30
0.0
 10
0.3662283464566929
 20
-0.596732283464567
 30
0.0
 10
0.3579645669291339
 20
-0.5855
 30
0.0
 10
0.3579645669291339
 20
-0.5855
 30
0.0
 10
0.3579645669291339
 20
-0.5855
 30
0.0
 10
0.3579645669291339
 20
-0.5855
 30
0.0
 10
0.3493070866141733
 20
-0.5754370078740158
 30
0.0
 10
0.3493070866141733
 20
-0.5754370078740158
 30
0.0
 10
0.3493070866141733
 20
-0.5754370078740158
 30
0.0
 10
0.3493070866141733
 20
-0.5754370078740158
 30
0.0
 10
0.3402755905511811
 20
-0.5665078740157481
 30
0.0
 10
0.3402755905511811
 20
-0.5665078740157481
 30
0.0
 10
0.3402755905511811
 20
-0.5665078740157481
 30
0.0
 10
0.3402755905511811
 20
-0.5665078740157481
 30
0.0
 10
0.3308661417322835
 20
-0.5586496062992126
 30
0.0
 10
0.3308661417322835
 20
-0.5586496062992126
 30
0.0
 10
0.3308661417322835
 20
-0.5586496062992126
 30
0.0
 10
0.3308661417322835
 20
-0.5586496062992126
 30
0.0
 10
0.3211141732283465
 20
-0.5518346456692914
 30
0.0
 10
0.3211141732283465
 20
-0.5518346456692914
 30
0.0
 10
0.3211141732283465
 20
-0.5518346456692914
 30
0.0
 10
0.3211141732283465
 20
-0.5518346456692914
 30
0.0
 10
0.3110196850393701
 20
-0.545996062992126
 30
0.0
 10
0.3110196850393701
 20
-0.545996062992126
 30
0.0
 10
0.3110196850393701
 20
-0.545996062992126
 30
0.0
 10
0.3110196850393701
 20
-0.545996062992126
 30
0.0
 10
0.3006062992125985
 20
-0.5411102362204725
 30
0.0
 10
0.3006062992125985
 20
-0.5411102362204725
 30
0.0
 10
0.3006062992125985
 20
-0.5411102362204725
 30
0.0
 10
0.3006062992125985
 20
-0.5411102362204725
 30
0.0
 10
0.2898700787401575
 20
-0.5371102362204725
 30
0.0
 10
0.2898700787401575
 20
-0.5371102362204725
 30
0.0
 10
0.2898700787401575
 20
-0.5371102362204725
 30
0.0
 10
0.2898700787401575
 20
-0.5371102362204725
 30
0.0
 10
0.2788425196850394
 20
-0.5339645669291339
 30
0.0
 10
0.2788425196850394
 20
-0.5339645669291339
 30
0.0
 10
0.2788425196850394
 20
-0.5339645669291339
 30
0.0
 10
0.2788425196850394
 20
-0.5339645669291339
 30
0.0
 10
0.2675236220472441
 20
-0.5316181102362205
 30
0.0
 10
0.2675236220472441
 20
-0.5316181102362205
 30
0.0
 10
0.2675236220472441
 20
-0.5316181102362205
 30
0.0
 10
0.2675236220472441
 20
-0.5316181102362205
 30
0.0
 10
0.2559409448818898
 20
-0.5300275590551181
 30
0.0
 10
0.2559409448818898
 20
-0.5300275590551181
 30
0.0
 10
0.2559409448818898
 20
-0.5300275590551181
 30
0.0
 10
0.2559409448818898
 20
-0.5300275590551181
 30
0.0
 10
0.2440866141732284
 20
-0.5291338582677165
 30
0.0
 10
0.2440866141732284
 20
-0.5291338582677165
 30
0.0
 10
0.2440866141732284
 20
-0.5291338582677165
 30
0.0
 10
0.2440866141732284
 20
-0.5291338582677165
 30
0.0
 10
0.231996062992126
 20
-0.5289133858267717
 30
0.0
 10
0.231996062992126
 20
-0.5289133858267717
 30
0.0
 10
0.231996062992126
 20
-0.5289133858267717
 30
0.0
 10
0.231996062992126
 20
-0.5289133858267717
 30
0.0
 10
0.2196692913385827
 20
-0.5293070866141733
 30
0.0
 10
0.2196692913385827
 20
-0.5293070866141733
 30
0.0
 10
0.2196692913385827
 20
-0.5293070866141733
 30
0.0
 10
0.2196692913385827
 20
-0.5293070866141733
 30
0.0
 10
0.2071259842519685
 20
-0.5302677165354331
 30
0.0
 10
0.2071259842519685
 20
-0.5302677165354331
 30
0.0
 10
0.2071259842519685
 20
-0.5302677165354331
 30
0.0
 10
0.2071259842519685
 20
-0.5302677165354331
 30
0.0
 10
0.1943740157480315
 20
-0.531748031496063
 30
0.0
 10
0.1943740157480315
 20
-0.531748031496063
 30
0.0
 10
0.1943740157480315
 20
-0.531748031496063
 30
0.0
 10
0.1943740157480315
 20
-0.531748031496063
 30
0.0
 10
0.1814330708661417
 20
-0.5337007874015748
 30
0.0
 10
0.1814330708661417
 20
-0.5337007874015748
 30
0.0
 10
0.1814330708661417
 20
-0.5337007874015748
 30
0.0
 10
0.1814330708661417
 20
-0.5337007874015748
 30
0.0
 10
0.1683110236220473
 20
-0.5360866141732283
 30
0.0
 10
0.1683110236220473
 20
-0.5360866141732283
 30
0.0
 10
0.1683110236220473
 20
-0.5360866141732283
 30
0.0
 10
0.1683110236220473
 20
-0.5360866141732283
 30
0.0
 10
0.1550275590551181
 20
-0.5388543307086614
 30
0.0
 10
0.1550275590551181
 20
-0.5388543307086614
 30
0.0
 10
0.1550275590551181
 20
-0.5388543307086614
 30
0.0
 10
0.1550275590551181
 20
-0.5388543307086614
 30
0.0
 10
0.1415826771653543
 20
-0.5419527559055118
 30
0.0
 10
0.1415826771653543
 20
-0.5419527559055118
 30
0.0
 10
0.1415826771653543
 20
-0.5419527559055118
 30
0.0
 10
0.1415826771653543
 20
-0.5419527559055118
 30
0.0
 10
0.128003937007874
 20
-0.5453464566929134
 30
0.0
 10
0.128003937007874
 20
-0.5453464566929134
 30
0.0
 10
0.128003937007874
 20
-0.5453464566929134
 30
0.0
 10
0.128003937007874
 20
-0.5453464566929134
 30
0.0
 10
0.1142992125984252
 20
-0.5489763779527559
 30
0.0
 10
0.1142992125984252
 20
-0.5489763779527559
 30
0.0
 10
0.1142992125984252
 20
-0.5489763779527559
 30
0.0
 10
0.1142992125984252
 20
-0.5489763779527559
 30
0.0
 10
0.1004842519685039
 20
-0.5528070866141732
 30
0.0
 10
0.1004842519685039
 20
-0.5528070866141732
 30
0.0
 10
0.1004842519685039
 20
-0.5528070866141732
 30
0.0
 10
0.1004842519685039
 20
-0.5528070866141732
 30
0.0
 10
0.0865669291338583
 20
-0.5567834645669292
 30
0.0
 10
0.0865669291338583
 20
-0.5567834645669292
 30
0.0
 10
0.0865669291338583
 20
-0.5567834645669292
 30
0.0
 10
0.0865669291338583
 20
-0.5567834645669292
 30
0.0
 10
0.0725708661417323
 20
-0.5608661417322834
 30
0.0
 10
0.0725708661417323
 20
-0.5608661417322834
 30
0.0
 10
0.0725708661417323
 20
-0.5608661417322834
 30
0.0
 10
0.0725708661417323
 20
-0.5608661417322834
 30
0.0
 10
0.058496062992126
 20
-0.5650000000000001
 30
0.0
 10
0.058496062992126
 20
-0.5650000000000001
 30
0.0
 10
0.058496062992126
 20
-0.5650000000000001
 30
0.0
 10
0.058496062992126
 20
-0.5650000000000001
 30
0.0
 10
0.0443700787401575
 20
-0.5691535433070867
 30
0.0
 10
0.0443700787401575
 20
-0.5691535433070867
 30
0.0
 10
0.0443700787401575
 20
-0.5691535433070867
 30
0.0
 10
0.0443700787401575
 20
-0.5691535433070867
 30
0.0
 10
0.0302795275590551
 20
-0.5728228346456693
 30
0.0
 10
0.0302795275590551
 20
-0.5728228346456693
 30
0.0
 10
0.0302795275590551
 20
-0.5728228346456693
 30
0.0
 10
0.0302795275590551
 20
-0.5728228346456693
 30
0.0
 10
0.0163503937007874
 20
-0.5756062992125984
 30
0.0
 10
0.0163503937007874
 20
-0.5756062992125984
 30
0.0
 10
0.0163503937007874
 20
-0.5756062992125984
 30
0.0
 10
0.0163503937007874
 20
-0.5756062992125984
 30
0.0
 10
0.0025905511811024
 20
-0.5775314960629921
 30
0.0
 10
0.0025905511811024
 20
-0.5775314960629921
 30
0.0
 10
0.0025905511811024
 20
-0.5775314960629921
 30
0.0
 10
0.0025905511811024
 20
-0.5775314960629921
 30
0.0
 10
-0.0109685039370079
 20
-0.5786417322834646
 30
0.0
 10
-0.0109685039370079
 20
-0.5786417322834646
 30
0.0
 10
-0.0109685039370079
 20
-0.5786417322834646
 30
0.0
 10
-0.0109685039370079
 20
-0.5786417322834646
 30
0.0
 10
-0.0243228346456693
 20
-0.5789606299212599
 30
0.0
 10
-0.0243228346456693
 20
-0.5789606299212599
 30
0.0
 10
-0.0243228346456693
 20
-0.5789606299212599
 30
0.0
 10
-0.0243228346456693
 20
-0.5789606299212599
 30
0.0
 10
-0.0374527559055118
 20
-0.5785433070866142
 30
0.0
 10
-0.0374527559055118
 20
-0.5785433070866142
 30
0.0
 10
-0.0374527559055118
 20
-0.5785433070866142
 30
0.0
 10
-0.0374527559055118
 20
-0.5785433070866142
 30
0.0
 10
-0.0503346456692913
 20
-0.5774133858267717
 30
0.0
 10
-0.0503346456692913
 20
-0.5774133858267717
 30
0.0
 10
-0.0503346456692913
 20
-0.5774133858267717
 30
0.0
 10
-0.0503346456692913
 20
-0.5774133858267717
 30
0.0
 10
-0.0629566929133858
 20
-0.5756181102362205
 30
0.0
 10
-0.0629566929133858
 20
-0.5756181102362205
 30
0.0
 10
-0.0629566929133858
 20
-0.5756181102362205
 30
0.0
 10
-0.0629566929133858
 20
-0.5756181102362205
 30
0.0
 10
-0.0752874015748032
 20
-0.5731811023622048
 30
0.0
 10
-0.0752874015748032
 20
-0.5731811023622048
 30
0.0
 10
-0.0752874015748032
 20
-0.5731811023622048
 30
0.0
 10
-0.0752874015748032
 20
-0.5731811023622048
 30
0.0
 10
-0.0873228346456693
 20
-0.5701496062992126
 30
0.0
 10
-0.0873228346456693
 20
-0.5701496062992126
 30
0.0
 10
-0.0873228346456693
 20
-0.5701496062992126
 30
0.0
 10
-0.0873228346456693
 20
-0.5701496062992126
 30
0.0
 10
-0.0990354330708662
 20
-0.5665551181102363
 30
0.0
 10
-0.0990354330708662
 20
-0.5665551181102363
 30
0.0
 10
-0.0990354330708662
 20
-0.5665551181102363
 30
0.0
 10
-0.0990354330708662
 20
-0.5665551181102363
 30
0.0
 10
-0.1104173228346457
 20
-0.5624370078740157
 30
0.0
 10
-0.1104173228346457
 20
-0.5624370078740157
 30
0.0
 10
-0.1104173228346457
 20
-0.5624370078740157
 30
0.0
 10
-0.1104173228346457
 20
-0.5624370078740157
 30
0.0
 10
-0.1214370078740158
 20
-0.5578267716535433
 30
0.0
 10
-0.1214370078740158
 20
-0.5578267716535433
 30
0.0
 10
-0.1214370078740158
 20
-0.5578267716535433
 30
0.0
 10
-0.1214370078740158
 20
-0.5578267716535433
 30
0.0
 10
-0.1320905511811024
 20
-0.5527755905511811
 30
0.0
 10
-0.1320905511811024
 20
-0.5527755905511811
 30
0.0
 10
-0.1320905511811024
 20
-0.5527755905511811
 30
0.0
 10
-0.1320905511811024
 20
-0.5527755905511811
 30
0.0
 10
-0.1423464566929134
 20
-0.5473031496062992
 30
0.0
 10
-0.1423464566929134
 20
-0.5473031496062992
 30
0.0
 10
-0.1423464566929134
 20
-0.5473031496062992
 30
0.0
 10
-0.1423464566929134
 20
-0.5473031496062992
 30
0.0
 10
-0.1521968503937008
 20
-0.5414645669291339
 30
0.0
 10
-0.1521968503937008
 20
-0.5414645669291339
 30
0.0
 10
-0.1521968503937008
 20
-0.5414645669291339
 30
0.0
 10
-0.1521968503937008
 20
-0.5414645669291339
 30
0.0
 10
-0.1616062992125984
 20
-0.5352716535433071
 30
0.0
 10
-0.1616062992125984
 20
-0.5352716535433071
 30
0.0
 10
-0.1616062992125984
 20
-0.5352716535433071
 30
0.0
 10
-0.1616062992125984
 20
-0.5352716535433071
 30
0.0
 10
-0.1705787401574803
 20
-0.5287834645669292
 30
0.0
 10
-0.1705787401574803
 20
-0.5287834645669292
 30
0.0
 10
-0.1705787401574803
 20
-0.5287834645669292
 30
0.0
 10
-0.1705787401574803
 20
-0.5287834645669292
 30
0.0
 10
-0.1790787401574803
 20
-0.5220236220472441
 30
0.0
 10
-0.1790787401574803
 20
-0.5220236220472441
 30
0.0
 10
-0.1790787401574803
 20
-0.5220236220472441
 30
0.0
 10
-0.1790787401574803
 20
-0.5220236220472441
 30
0.0
 10
-0.1871023622047244
 20
-0.5150393700787401
 30
0.0
 10
-0.1871023622047244
 20
-0.5150393700787401
 30
0.0
 10
-0.1871023622047244
 20
-0.5150393700787401
 30
0.0
 10
-0.1871023622047244
 20
-0.5150393700787401
 30
0.0
 10
-0.1946141732283465
 20
-0.5078582677165354
 30
0.0
 10
-0.1946141732283465
 20
-0.5078582677165354
 30
0.0
 10
-0.1946141732283465
 20
-0.5078582677165354
 30
0.0
 10
-0.1946141732283465
 20
-0.5078582677165354
 30
0.0
 10
-0.2016141732283465
 20
-0.5005275590551181
 30
0.0
 10
-0.2016141732283465
 20
-0.5005275590551181
 30
0.0
 10
-0.2016141732283465
 20
-0.5005275590551181
 30
0.0
 10
-0.2016141732283465
 20
-0.5005275590551181
 30
0.0
 10
-0.2080708661417323
 20
-0.4930708661417323
 30
0.0
 10
-0.2080708661417323
 20
-0.4930708661417323
 30
0.0
 10
-0.2080708661417323
 20
-0.4930708661417323
 30
0.0
 10
-0.2080708661417323
 20
-0.4930708661417323
 30
0.0
 10
-0.2139803149606299
 20
-0.4855393700787402
 30
0.0
 10
-0.2139803149606299
 20
-0.4855393700787402
 30
0.0
 10
-0.2139803149606299
 20
-0.4855393700787402
 30
0.0
 10
-0.2139803149606299
 20
-0.4855393700787402
 30
0.0
 10
-0.2193031496062992
 20
-0.4779527559055118
 30
0.0
 10
-0.2193031496062992
 20
-0.4779527559055118
 30
0.0
 10
-0.2193031496062992
 20
-0.4779527559055118
 30
0.0
 10
-0.2193031496062992
 20
-0.4779527559055118
 30
0.0
 10
-0.2240354330708662
 20
-0.4703661417322835
 30
0.0
 10
-0.2240354330708662
 20
-0.4703661417322835
 30
0.0
 10
-0.2240354330708662
 20
-0.4703661417322835
 30
0.0
 10
-0.2240354330708662
 20
-0.4703661417322835
 30
0.0
 10
-0.2281574803149606
 20
-0.4628031496062993
 30
0.0
 10
-0.2281574803149606
 20
-0.4628031496062993
 30
0.0
 10
-0.2281574803149606
 20
-0.4628031496062993
 30
0.0
 10
-0.2281574803149606
 20
-0.4628031496062993
 30
0.0
 10
-0.2316535433070866
 20
-0.4553149606299213
 30
0.0
 10
-0.2316535433070866
 20
-0.4553149606299213
 30
0.0
 10
-0.2316535433070866
 20
-0.4553149606299213
 30
0.0
 10
-0.2316535433070866
 20
-0.4553149606299213
 30
0.0
 10
-0.234492125984252
 20
-0.4479173228346457
 30
0.0
 10
-0.234492125984252
 20
-0.4479173228346457
 30
0.0
 10
-0.234492125984252
 20
-0.4479173228346457
 30
0.0
 10
-0.234492125984252
 20
-0.4479173228346457
 30
0.0
 10
-0.2366732283464567
 20
-0.4406653543307087
 30
0.0
 10
-0.2366732283464567
 20
-0.4406653543307087
 30
0.0
 10
-0.2366732283464567
 20
-0.4406653543307087
 30
0.0
 10
-0.2366732283464567
 20
-0.4406653543307087
 30
0.0
 10
-0.2381653543307087
 20
-0.4335866141732284
 30
0.0
 10
-0.2381653543307087
 20
-0.4335866141732284
 30
0.0
 10
-0.2381653543307087
 20
-0.4335866141732284
 30
0.0
 10
-0.2381653543307087
 20
-0.4335866141732284
 30
0.0
 10
-0.2389566929133858
 20
-0.4267244094488189
 30
0.0
 10
-0.2389566929133858
 20
-0.4267244094488189
 30
0.0
 10
-0.2389566929133858
 20
-0.4267244094488189
 30
0.0
 10
-0.2389566929133858
 20
-0.4267244094488189
 30
0.0
 10
-0.237984251968504
 20
-1.1800708661417323
 30
0.0
 10
-0.237984251968504
 20
-1.1800708661417323
 30
0.0
 10
-0.237984251968504
 20
-1.1800708661417323
 30
0.0
 10
-0.237984251968504
 20
-1.1800708661417323
 30
0.0
 10
-0.2371929133858268
 20
-1.1869330708661419
 30
0.0
 10
-0.2371929133858268
 20
-1.1869330708661419
 30
0.0
 10
-0.2371929133858268
 20
-1.1869330708661419
 30
0.0
 10
-0.2371929133858268
 20
-1.1869330708661419
 30
0.0
 10
-0.2357007874015748
 20
-1.1940118110236222
 30
0.0
 10
-0.2357007874015748
 20
-1.1940118110236222
 30
0.0
 10
-0.2357007874015748
 20
-1.1940118110236222
 30
0.0
 10
-0.2357007874015748
 20
-1.1940118110236222
 30
0.0
 10
-0.2335196850393701
 20
-1.2012637795275591
 30
0.0
 10
-0.2335196850393701
 20
-1.2012637795275591
 30
0.0
 10
-0.2335196850393701
 20
-1.2012637795275591
 30
0.0
 10
-0.2335196850393701
 20
-1.2012637795275591
 30
0.0
 10
-0.2306811023622047
 20
-1.2086614173228347
 30
0.0
 10
-0.2306811023622047
 20
-1.2086614173228347
 30
0.0
 10
-0.2306811023622047
 20
-1.2086614173228347
 30
0.0
 10
-0.2306811023622047
 20
-1.2086614173228347
 30
0.0
 10
-0.2271850393700788
 20
-1.2161496062992125
 30
0.0
 10
-0.2271850393700788
 20
-1.2161496062992125
 30
0.0
 10
-0.2271850393700788
 20
-1.2161496062992125
 30
0.0
 10
-0.2271850393700788
 20
-1.2161496062992125
 30
0.0
 10
-0.2230629921259843
 20
-1.2237125984251969
 30
0.0
 10
-0.2230629921259843
 20
-1.2237125984251969
 30
0.0
 10
-0.2230629921259843
 20
-1.2237125984251969
 30
0.0
 10
-0.2230629921259843
 20
-1.2237125984251969
 30
0.0
 10
-0.2183307086614173
 20
-1.2312992125984252
 30
0.0
 10
-0.2183307086614173
 20
-1.2312992125984252
 30
0.0
 10
-0.2183307086614173
 20
-1.2312992125984252
 30
0.0
 10
-0.2183307086614173
 20
-1.2312992125984252
 30
0.0
 10
-0.213007874015748
 20
-1.2388858267716536
 30
0.0
 10
-0.213007874015748
 20
-1.2388858267716536
 30
0.0
 10
-0.213007874015748
 20
-1.2388858267716536
 30
0.0
 10
-0.213007874015748
 20
-1.2388858267716536
 30
0.0
 10
-0.2070984251968504
 20
-1.2464173228346458
 30
0.0
 10
-0.2070984251968504
 20
-1.2464173228346458
 30
0.0
 10
-0.2070984251968504
 20
-1.2464173228346458
 30
0.0
 10
-0.2070984251968504
 20
-1.2464173228346458
 30
0.0
 10
-0.2006417322834646
 20
-1.2538740157480315
 30
0.0
 10
-0.2006417322834646
 20
-1.2538740157480315
 30
0.0
 10
-0.2006417322834646
 20
-1.2538740157480315
 30
0.0
 10
-0.2006417322834646
 20
-1.2538740157480315
 30
0.0
 10
-0.1936417322834646
 20
-1.2612047244094489
 30
0.0
 10
-0.1936417322834646
 20
-1.2612047244094489
 30
0.0
 10
-0.1936417322834646
 20
-1.2612047244094489
 30
0.0
 10
-0.1936417322834646
 20
-1.2612047244094489
 30
0.0
 10
-0.1861299212598425
 20
-1.2683858267716537
 30
0.0
 10
-0.1861299212598425
 20
-1.2683858267716537
 30
0.0
 10
-0.1861299212598425
 20
-1.2683858267716537
 30
0.0
 10
-0.1861299212598425
 20
-1.2683858267716537
 30
0.0
 10
-0.1781062992125984
 20
-1.2753700787401576
 30
0.0
 10
-0.1781062992125984
 20
-1.2753700787401576
 30
0.0
 10
-0.1781062992125984
 20
-1.2753700787401576
 30
0.0
 10
-0.1781062992125984
 20
-1.2753700787401576
 30
0.0
 10
-0.1696062992125984
 20
-1.2821299212598425
 30
0.0
 10
-0.1696062992125984
 20
-1.2821299212598425
 30
0.0
 10
-0.1696062992125984
 20
-1.2821299212598425
 30
0.0
 10
-0.1696062992125984
 20
-1.2821299212598425
 30
0.0
 10
-0.1606338582677165
 20
-1.2886181102362204
 30
0.0
 10
-0.1606338582677165
 20
-1.2886181102362204
 30
0.0
 10
-0.1606338582677165
 20
-1.2886181102362204
 30
0.0
 10
-0.1606338582677165
 20
-1.2886181102362204
 30
0.0
 10
-0.1512244094488189
 20
-1.2948110236220474
 30
0.0
 10
-0.1512244094488189
 20
-1.2948110236220474
 30
0.0
 10
-0.1512244094488189
 20
-1.2948110236220474
 30
0.0
 10
-0.1512244094488189
 20
-1.2948110236220474
 30
0.0
 10
-0.1413740157480315
 20
-1.3006496062992126
 30
0.0
 10
-0.1413740157480315
 20
-1.3006496062992126
 30
0.0
 10
-0.1413740157480315
 20
-1.3006496062992126
 30
0.0
 10
-0.1413740157480315
 20
-1.3006496062992126
 30
0.0
 10
-0.1311181102362205
 20
-1.3061220472440946
 30
0.0
 10
-0.1311181102362205
 20
-1.3061220472440946
 30
0.0
 10
-0.1311181102362205
 20
-1.3061220472440946
 30
0.0
 10
-0.1311181102362205
 20
-1.3061220472440946
 30
0.0
 10
-0.1204645669291339
 20
-1.3111732283464568
 30
0.0
 10
-0.1204645669291339
 20
-1.3111732283464568
 30
0.0
 10
-0.1204645669291339
 20
-1.3111732283464568
 30
0.0
 10
-0.1204645669291339
 20
-1.3111732283464568
 30
0.0
 10
-0.1094448818897638
 20
-1.3157834645669291
 30
0.0
 10
-0.1094448818897638
 20
-1.3157834645669291
 30
0.0
 10
-0.1094448818897638
 20
-1.3157834645669291
 30
0.0
 10
-0.1094448818897638
 20
-1.3157834645669291
 30
0.0
 10
-0.0980629921259843
 20
-1.3199015748031497
 30
0.0
 10
-0.0980629921259843
 20
-1.3199015748031497
 30
0.0
 10
-0.0980629921259843
 20
-1.3199015748031497
 30
0.0
 10
-0.0980629921259843
 20
-1.3199015748031497
 30
0.0
 10
-0.0863503937007874
 20
-1.323496062992126
 30
0.0
 10
-0.0863503937007874
 20
-1.323496062992126
 30
0.0
 10
-0.0863503937007874
 20
-1.323496062992126
 30
0.0
 10
-0.0863503937007874
 20
-1.323496062992126
 30
0.0
 10
-0.0743149606299213
 20
-1.3265275590551182
 30
0.0
 10
-0.0743149606299213
 20
-1.3265275590551182
 30
0.0
 10
-0.0743149606299213
 20
-1.3265275590551182
 30
0.0
 10
-0.0743149606299213
 20
-1.3265275590551182
 30
0.0
 10
-0.0619842519685039
 20
-1.3289645669291339
 30
0.0
 10
-0.0619842519685039
 20
-1.3289645669291339
 30
0.0
 10
-0.0619842519685039
 20
-1.3289645669291339
 30
0.0
 10
-0.0619842519685039
 20
-1.3289645669291339
 30
0.0
 10
-0.0493622047244094
 20
-1.3307598425196852
 30
0.0
 10
-0.0493622047244094
 20
-1.3307598425196852
 30
0.0
 10
-0.0493622047244094
 20
-1.3307598425196852
 30
0.0
 10
-0.0493622047244094
 20
-1.3307598425196852
 30
0.0
 10
-0.0364803149606299
 20
-1.3318897637795275
 30
0.0
 10
-0.0364803149606299
 20
-1.3318897637795275
 30
0.0
 10
-0.0364803149606299
 20
-1.3318897637795275
 30
0.0
 10
-0.0364803149606299
 20
-1.3318897637795275
 30
0.0
 10
-0.0233503937007874
 20
-1.3323070866141733
 30
0.0
 10
-0.0233503937007874
 20
-1.3323070866141733
 30
0.0
 10
-0.0233503937007874
 20
-1.3323070866141733
 30
0.0
 10
-0.0233503937007874
 20
-1.3323070866141733
 30
0.0
 10
-0.009996062992126
 20
-1.3319881889763781
 30
0.0
 10
-0.009996062992126
 20
-1.3319881889763781
 30
0.0
 10
-0.009996062992126
 20
-1.3319881889763781
 30
0.0
 10
-0.009996062992126
 20
-1.3319881889763781
 30
0.0
 10
0.0035629921259843
 20
-1.3308779527559056
 30
0.0
 10
0.0035629921259843
 20
-1.3308779527559056
 30
0.0
 10
0.0035629921259843
 20
-1.3308779527559056
 30
0.0
 10
0.0035629921259843
 20
-1.3308779527559056
 30
0.0
 10
0.0173228346456693
 20
-1.3289527559055119
 30
0.0
 10
0.0173228346456693
 20
-1.3289527559055119
 30
0.0
 10
0.0173228346456693
 20
-1.3289527559055119
 30
0.0
 10
0.0173228346456693
 20
-1.3289527559055119
 30
0.0
 10
0.031251968503937
 20
-1.3261692913385827
 30
0.0
 10
0.031251968503937
 20
-1.3261692913385827
 30
0.0
 10
0.031251968503937
 20
-1.3261692913385827
 30
0.0
 10
0.031251968503937
 20
-1.3261692913385827
 30
0.0
 10
0.0453425196850394
 20
-1.3225
 30
0.0
 10
0.0453425196850394
 20
-1.3225
 30
0.0
 10
0.0453425196850394
 20
-1.3225
 30
0.0
 10
0.0453425196850394
 20
-1.3225
 30
0.0
 10
0.0594685039370079
 20
-1.3183464566929135
 30
0.0
 10
0.0594685039370079
 20
-1.3183464566929135
 30
0.0
 10
0.0594685039370079
 20
-1.3183464566929135
 30
0.0
 10
0.0594685039370079
 20
-1.3183464566929135
 30
0.0
 10
0.0735433070866142
 20
-1.3142125984251969
 30
0.0
 10
0.0735433070866142
 20
-1.3142125984251969
 30
0.0
 10
0.0735433070866142
 20
-1.3142125984251969
 30
0.0
 10
0.0735433070866142
 20
-1.3142125984251969
 30
0.0
 10
0.0875393700787402
 20
-1.3101299212598425
 30
0.0
 10
0.0875393700787402
 20
-1.3101299212598425
 30
0.0
 10
0.0875393700787402
 20
-1.3101299212598425
 30
0.0
 10
0.0875393700787402
 20
-1.3101299212598425
 30
0.0
 10
0.1014566929133858
 20
-1.3061535433070868
 30
0.0
 10
0.1014566929133858
 20
-1.3061535433070868
 30
0.0
 10
0.1014566929133858
 20
-1.3061535433070868
 30
0.0
 10
0.1014566929133858
 20
-1.3061535433070868
 30
0.0
 10
0.1152716535433071
 20
-1.3023228346456694
 30
0.0
 10
0.1152716535433071
 20
-1.3023228346456694
 30
0.0
 10
0.1152716535433071
 20
-1.3023228346456694
 30
0.0
 10
0.1152716535433071
 20
-1.3023228346456694
 30
0.0
 10
0.1289763779527559
 20
-1.2986929133858269
 30
0.0
 10
0.1289763779527559
 20
-1.2986929133858269
 30
0.0
 10
0.1289763779527559
 20
-1.2986929133858269
 30
0.0
 10
0.1289763779527559
 20
-1.2986929133858269
 30
0.0
 10
0.1425551181102362
 20
-1.2952992125984253
 30
0.0
 10
0.1425551181102362
 20
-1.2952992125984253
 30
0.0
 10
0.1425551181102362
 20
-1.2952992125984253
 30
0.0
 10
0.1425551181102362
 20
-1.2952992125984253
 30
0.0
 10
0.156
 20
-1.2922007874015748
 30
0.0
 10
0.156
 20
-1.2922007874015748
 30
0.0
 10
0.156
 20
-1.2922007874015748
 30
0.0
 10
0.156
 20
-1.2922007874015748
 30
0.0
 10
0.1692834645669291
 20
-1.2894330708661417
 30
0.0
 10
0.1692834645669291
 20
-1.2894330708661417
 30
0.0
 10
0.1692834645669291
 20
-1.2894330708661417
 30
0.0
 10
0.1692834645669291
 20
-1.2894330708661417
 30
0.0
 10
0.1824055118110236
 20
-1.2870472440944882
 30
0.0
 10
0.1824055118110236
 20
-1.2870472440944882
 30
0.0
 10
0.1824055118110236
 20
-1.2870472440944882
 30
0.0
 10
0.1824055118110236
 20
-1.2870472440944882
 30
0.0
 10
0.1953464566929134
 20
-1.2850944881889765
 30
0.0
 10
0.1953464566929134
 20
-1.2850944881889765
 30
0.0
 10
0.1953464566929134
 20
-1.2850944881889765
 30
0.0
 10
0.1953464566929134
 20
-1.2850944881889765
 30
0.0
 10
0.2080984251968504
 20
-1.2836141732283466
 30
0.0
 10
0.2080984251968504
 20
-1.2836141732283466
 30
0.0
 10
0.2080984251968504
 20
-1.2836141732283466
 30
0.0
 10
0.2080984251968504
 20
-1.2836141732283466
 30
0.0
 10
0.2206417322834646
 20
-1.2826535433070867
 30
0.0
 10
0.2206417322834646
 20
-1.2826535433070867
 30
0.0
 10
0.2206417322834646
 20
-1.2826535433070867
 30
0.0
 10
0.2206417322834646
 20
-1.2826535433070867
 30
0.0
 10
0.2329685039370079
 20
-1.2822598425196852
 30
0.0
 10
0.2329685039370079
 20
-1.2822598425196852
 30
0.0
 10
0.2329685039370079
 20
-1.2822598425196852
 30
0.0
 10
0.2329685039370079
 20
-1.2822598425196852
 30
0.0
 10
0.2450590551181102
 20
-1.2824803149606299
 30
0.0
 10
0.2450590551181102
 20
-1.2824803149606299
 30
0.0
 10
0.2450590551181102
 20
-1.2824803149606299
 30
0.0
 10
0.2450590551181102
 20
-1.2824803149606299
 30
0.0
 10
0.2569133858267717
 20
-1.2833740157480316
 30
0.0
 10
0.2569133858267717
 20
-1.2833740157480316
 30
0.0
 10
0.2569133858267717
 20
-1.2833740157480316
 30
0.0
 10
0.2569133858267717
 20
-1.2833740157480316
 30
0.0
 10
0.268496062992126
 20
-1.2849645669291339
 30
0.0
 10
0.268496062992126
 20
-1.2849645669291339
 30
0.0
 10
0.268496062992126
 20
-1.2849645669291339
 30
0.0
 10
0.268496062992126
 20
-1.2849645669291339
 30
0.0
 10
0.2798149606299213
 20
-1.2873110236220473
 30
0.0
 10
0.2798149606299213
 20
-1.2873110236220473
 30
0.0
 10
0.2798149606299213
 20
-1.2873110236220473
 30
0.0
 10
0.2798149606299213
 20
-1.2873110236220473
 30
0.0
 10
0.2908425196850394
 20
-1.2904566929133858
 30
0.0
 10
0.2908425196850394
 20
-1.2904566929133858
 30
0.0
 10
0.2908425196850394
 20
-1.2904566929133858
 30
0.0
 10
0.2908425196850394
 20
-1.2904566929133858
 30
0.0
 10
0.3015787401574803
 20
-1.2944566929133858
 30
0.0
 10
0.3015787401574803
 20
-1.2944566929133858
 30
0.0
 10
0.3015787401574803
 20
-1.2944566929133858
 30
0.0
 10
0.3015787401574803
 20
-1.2944566929133858
 30
0.0
 10
0.311992125984252
 20
-1.2993425196850394
 30
0.0
 10
0.311992125984252
 20
-1.2993425196850394
 30
0.0
 10
0.311992125984252
 20
-1.2993425196850394
 30
0.0
 10
0.311992125984252
 20
-1.2993425196850394
 30
0.0
 10
0.3220866141732284
 20
-1.3051811023622049
 30
0.0
 10
0.3220866141732284
 20
-1.3051811023622049
 30
0.0
 10
0.3220866141732284
 20
-1.3051811023622049
 30
0.0
 10
0.3220866141732284
 20
-1.3051811023622049
 30
0.0
 10
0.3318385826771654
 20
-1.3119960629921261
 30
0.0
 10
0.3318385826771654
 20
-1.3119960629921261
 30
0.0
 10
0.3318385826771654
 20
-1.3119960629921261
 30
0.0
 10
0.3318385826771654
 20
-1.3119960629921261
 30
0.0
 10
0.341248031496063
 20
-1.3198543307086614
 30
0.0
 10
0.341248031496063
 20
-1.3198543307086614
 30
0.0
 10
0.341248031496063
 20
-1.3198543307086614
 30
0.0
 10
0.341248031496063
 20
-1.3198543307086614
 30
0.0
 10
0.3502795275590551
 20
-1.3287834645669292
 30
0.0
 10
0.3502795275590551
 20
-1.3287834645669292
 30
0.0
 10
0.3502795275590551
 20
-1.3287834645669292
 30
0.0
 10
0.3502795275590551
 20
-1.3287834645669292
 30
0.0
 10
0.3589370078740158
 20
-1.3388464566929135
 30
0.0
 10
0.3589370078740158
 20
-1.3388464566929135
 30
0.0
 10
0.3589370078740158
 20
-1.3388464566929135
 30
0.0
 10
0.3589370078740158
 20
-1.3388464566929135
 30
0.0
 10
0.3672007874015748
 20
-1.3500787401574803
 30
0.0
 10
0.3672007874015748
 20
-1.3500787401574803
 30
0.0
 10
0.3672007874015748
 20
-1.3500787401574803
 30
0.0
 10
0.3672007874015748
 20
-1.3500787401574803
 30
0.0
 10
0.3750629921259843
 20
-1.3625393700787403
 30
0.0
 10
0.3750629921259843
 20
-1.3625393700787403
 30
0.0
 10
0.3750629921259843
 20
-1.3625393700787403
 30
0.0
 10
0.3750629921259843
 20
-1.3625393700787403
 30
0.0
 10
0.382496062992126
 20
-1.3762559055118111
 30
0.0
 10
0.382496062992126
 20
-1.3762559055118111
 30
0.0
 10
0.382496062992126
 20
-1.3762559055118111
 30
0.0
 10
0.382496062992126
 20
-1.3762559055118111
 30
0.0
 10
0.3895078740157481
 20
-1.3912952755905512
 30
0.0
 10
0.3895078740157481
 20
-1.3912952755905512
 30
0.0
 10
0.3895078740157481
 20
-1.3912952755905512
 30
0.0
 10
0.3895078740157481
 20
-1.3912952755905512
 30
0.0
 10
0.3960708661417323
 20
-1.4076889763779528
 30
0.0
 10
0.3960708661417323
 20
-1.4076889763779528
 30
0.0
 10
0.3960708661417323
 20
-1.4076889763779528
 30
0.0
 10
0.3960708661417323
 20
-1.4076889763779528
 30
0.0
 10
0.4021771653543307
 20
-1.4255
 30
0.0
 10
0.4021771653543307
 20
-1.4255
 30
0.0
  0
SPLINE
  5
49
100
AcDbEntity
  8
P1-Layer 1
 62
   253
100
AcDbSpline
210
0.0
220
0.0
230
1.0
 70
     1
 71
     3
 72
    20
 73
    16
 74
     0
 42
0.0000000001
 43
0.0000000001
 40
0.0
 40
0.0
 40
0.0
 40
0.0
 40
0.25
 40
0.25
 40
0.25
 40
0.25
 40
0.5
 40
0.5
 40
0.5
 40
0.5
 40
0.75
 40
0.75
 40
0.75
 40
0.75
 40
1.0
 40
1.0
 40
1.0
 40
1.0
 10
-0.237984251968504
 20
-1.1800708661417323
 30
0.0
 10
-0.237984251968504
 20
-1.1800708661417323
 30
0.0
 10
-0.2389566929133858
 20
-0.4267244094488189
 30
0.0
 10
-0.2389566929133858
 20
-0.4267244094488189
 30
0.0
 10
-0.2389566929133858
 20
-0.4267244094488189
 30
0.0
 10
-0.2389566929133858
 20
-0.4267244094488189
 30
0.0
 10
-0.4907322834645669
 20
-0.4114094488188976
 30
0.0
 10
-0.4907322834645669
 20
-0.4114094488188976
 30
0.0
 10
-0.4907322834645669
 20
-0.4114094488188976
 30
0.0
 10
-0.4907322834645669
 20
-0.4114094488188976
 30
0.0
 10
-0.4897598425196851
 20
-1.1647559055118111
 30
0.0
 10
-0.4897598425196851
 20
-1.1647559055118111
 30
0.0
 10
-0.4897598425196851
 20
-1.1647559055118111
 30
0.0
 10
-0.4897598425196851
 20
-1.1647559055118111
 30
0.0
 10
-0.237984251968504
 20
-1.1800708661417323
 30
0.0
 10
-0.237984251968504
 20
-1.1800708661417323
 30
0.0
  0
SPLINE
  5
4A
100
AcDbEntity
  8
P1-Layer 1
370
     5
100
AcDbSpline
210
0.0
220
0.0
230
1.0
 70
     1
 71
     3
 72
    20
 73
    16
 74
     0
 42
0.0000000001
 43
0.0000000001
 40
0.0
 40
0.0
 40
0.0
 40
0.0
 40
0.25
 40
0.25
 40
0.25
 40
0.25
 40
0.5
 40
0.5
 40
0.5
 40
0.5
 40
0.75
 40
0.75
 40
0.75
 40
0.75
 40
1.0
 40
1.0
 40
1.0
 40
1.0
 10
-0.237984251968504
 20
-1.1800708661417323
 30
0.0
 10
-0.237984251968504
 20
-1.1800708661417323
 30
0.0
 10
-0.2389566929133858
 20
-0.4267244094488189
 30
0.0
 10
-0.2389566929133858
 20
-0.4267244094488189
 30
0.0
 10
-0.2389566929133858
 20
-0.4267244094488189
 30
0.0
 10
-0.2389566929133858
 20
-0.4267244094488189
 30
0.0
 10
-0.4907322834645669
 20
-0.4114094488188976
 30
0.0
 10
-0.4907322834645669
 20
-0.4114094488188976
 30
0.0
 10
-0.4907322834645669
 20
-0.4114094488188976
 30
0.0
 10
-0.4907322834645669
 20
-0.4114094488188976
 30
0.0
 10
-0.4897598425196851
 20
-1.1647559055118111
 30
0.0
 10
-0.4897598425196851
 20
-1.1647559055118111
 30
0.0
 10
-0.4897598425196851
 20
-1.1647559055118111
 30
0.0
 10
-0.4897598425196851
 20
-1.1647559055118111
 30
0.0
 10
-0.237984251968504
 20
-1.1800708661417323
 30
0.0
 10
-0.237984251968504
 20
-1.1800708661417323
 30
0.0
  0
SPLINE
  5
4B
100
AcDbEntity
  8
P1-Layer 1
 62
   253
100
AcDbSpline
210
0.0
220
0.0
230
1.0
 70
     1
 71
     3
 72
    28
 73
    24
 74
     0
 42
0.0000000001
 43
0.0000000001
 40
0.0
 40
0.0
 40
0.0
 40
0.0
 40
0.1666666666666667
 40
0.1666666666666667
 40
0.1666666666666667
 40
0.1666666666666667
 40
0.3333333333333333
 40
0.3333333333333333
 40
0.3333333333333333
 40
0.3333333333333333
 40
0.5
 40
0.5
 40
0.5
 40
0.5
 40
0.6666666666666666
 40
0.6666666666666666
 40
0.6666666666666666
 40
0.6666666666666666
 40
0.8333333333333333
 40
0.8333333333333333
 40
0.8333333333333333
 40
0.8333333333333333
 40
1.0
 40
1.0
 40
1.0
 40
1.0
 10
0.841484251968504
 20
-1.6292795275590553
 30
0.0
 10
0.841484251968504
 20
-1.6292795275590553
 30
0.0
 10
0.8405118110236221
 20
-0.8759330708661418
 30
0.0
 10
0.8405118110236221
 20
-0.8759330708661418
 30
0.0
 10
0.8405118110236221
 20
-0.8759330708661418
 30
0.0
 10
0.8405118110236221
 20
-0.8759330708661418
 30
0.0
 10
0.8196102362204725
 20
-0.8749724409448819
 30
0.0
 10
0.8196102362204725
 20
-0.8749724409448819
 30
0.0
 10
0.8196102362204725
 20
-0.8749724409448819
 30
0.0
 10
0.8196102362204725
 20
-0.8749724409448819
 30
0.0
 10
0.7996889763779528
 20
-0.8736102362204725
 30
0.0
 10
0.7996889763779528
 20
-0.8736102362204725
 30
0.0
 10
0.7996889763779528
 20
-0.8736102362204725
 30
0.0
 10
0.7996889763779528
 20
-0.8736102362204725
 30
0.0
 10
0.8006614173228347
 20
-1.6269566929133858
 30
0.0
 10
0.8006614173228347
 20
-1.6269566929133858
 30
0.0
 10
0.8006614173228347
 20
-1.6269566929133858
 30
0.0
 10
0.8006614173228347
 20
-1.6269566929133858
 30
0.0
 10
0.8205826771653544
 20
-1.6283188976377954
 30
0.0
 10
0.8205826771653544
 20
-1.6283188976377954
 30
0.0
 10
0.8205826771653544
 20
-1.6283188976377954
 30
0.0
 10
0.8205826771653544
 20
-1.6283188976377954
 30
0.0
 10
0.841484251968504
 20
-1.6292795275590553
 30
0.0
 10
0.841484251968504
 20
-1.6292795275590553
 30
0.0
  0
SPLINE
  5
4C
100
AcDbEntity
  8
P1-Layer 1
 62
   253
100
AcDbSpline
210
0.0
220
0.0
230
1.0
 70
     1
 71
     3
 72
    28
 73
    24
 74
     0
 42
0.0000000001
 43
0.0000000001
 40
0.0
 40
0.0
 40
0.0
 40
0.0
 40
0.1666666666666667
 40
0.1666666666666667
 40
0.1666666666666667
 40
0.1666666666666667
 40
0.3333333333333333
 40
0.3333333333333333
 40
0.3333333333333333
 40
0.3333333333333333
 40
0.5
 40
0.5
 40
0.5
 40
0.5
 40
0.6666666666666666
 40
0.6666666666666666
 40
0.6666666666666666
 40
0.6666666666666666
 40
0.8333333333333333
 40
0.8333333333333333
 40
0.8333333333333333
 40
0.8333333333333333
 40
1.0
 40
1.0
 40
1.0
 40
1.0
 10
0.8006614173228347
 20
-1.6269566929133858
 30
0.0
 10
0.8006614173228347
 20
-1.6269566929133858
 30
0.0
 10
0.7996889763779528
 20
-0.8736102362204725
 30
0.0
 10
0.7996889763779528
 20
-0.8736102362204725
 30
0.0
 10
0.7996889763779528
 20
-0.8736102362204725
 30
0.0
 10
0.7996889763779528
 20
-0.8736102362204725
 30
0.0
 10
0.7807244094488189
 20
-0.8718425196850395
 30
0.0
 10
0.7807244094488189
 20
-0.8718425196850395
 30
0.0
 10
0.7807244094488189
 20
-0.8718425196850395
 30
0.0
 10
0.7807244094488189
 20
-0.8718425196850395
 30
0.0
 10
0.7627047244094488
 20
-0.8696850393700788
 30
0.0
 10
0.7627047244094488
 20
-0.8696850393700788
 30
0.0
 10
0.7627047244094488
 20
-0.8696850393700788
 30
0.0
 10
0.7627047244094488
 20
-0.8696850393700788
 30
0.0
 10
0.7636771653543307
 20
-1.6230314960629921
 30
0.0
 10
0.7636771653543307
 20
-1.6230314960629921
 30
0.0
 10
0.7636771653543307
 20
-1.6230314960629921
 30
0.0
 10
0.7636771653543307
 20
-1.6230314960629921
 30
0.0
 10
0.7816968503937009
 20
-1.6251889763779528
 30
0.0
 10
0.7816968503937009
 20
-1.6251889763779528
 30
0.0
 10
0.7816968503937009
 20
-1.6251889763779528
 30
0.0
 10
0.7816968503937009
 20
-1.6251889763779528
 30
0.0
 10
0.8006614173228347
 20
-1.6269566929133858
 30
0.0
 10
0.8006614173228347
 20
-1.6269566929133858
 30
0.0
  0
SPLINE
  5
4D
100
AcDbEntity
  8
P1-Layer 1
 62
   253
100
AcDbSpline
210
0.0
220
0.0
230
1.0
 70
     1
 71
     3
 72
    36
 73
    32
 74
     0
 42
0.0000000001
 43
0.0000000001
 40
0.0
 40
0.0
 40
0.0
 40
0.0
 40
0.125
 40
0.125
 40
0.125
 40
0.125
 40
0.25
 40
0.25
 40
0.25
 40
0.25
 40
0.375
 40
0.375
 40
0.375
 40
0.375
 40
0.5
 40
0.5
 40
0.5
 40
0.5
 40
0.625
 40
0.625
 40
0.625
 40
0.625
 40
0.75
 40
0.75
 40
0.75
 40
0.75
 40
0.875
 40
0.875
 40
0.875
 40
0.875
 40
1.0
 40
1.0
 40
1.0
 40
1.0
 10
0.7636771653543307
 20
-1.6230314960629921
 30
0.0
 10
0.7636771653543307
 20
-1.6230314960629921
 30
0.0
 10
0.7627047244094488
 20
-0.8696850393700788
 30
0.0
 10
0.7627047244094488
 20
-0.8696850393700788
 30
0.0
 10
0.7627047244094488
 20
-0.8696850393700788
 30
0.0
 10
0.7627047244094488
 20
-0.8696850393700788
 30
0.0
 10
0.7455866141732284
 20
-0.8671259842519685
 30
0.0
 10
0.7455866141732284
 20
-0.8671259842519685
 30
0.0
 10
0.7455866141732284
 20
-0.8671259842519685
 30
0.0
 10
0.7455866141732284
 20
-0.8671259842519685
 30
0.0
 10
0.7293700787401575
 20
-0.8641889763779528
 30
0.0
 10
0.7293700787401575
 20
-0.8641889763779528
 30
0.0
 10
0.7293700787401575
 20
-0.8641889763779528
 30
0.0
 10
0.7293700787401575
 20
-0.8641889763779528
 30
0.0
 10
0.7140236220472441
 20
-0.8608740157480316
 30
0.0
 10
0.7140236220472441
 20
-0.8608740157480316
 30
0.0
 10
0.7140236220472441
 20
-0.8608740157480316
 30
0.0
 10
0.7140236220472441
 20
-0.8608740157480316
 30
0.0
 10
0.714996062992126
 20
-1.614220472440945
 30
0.0
 10
0.714996062992126
 20
-1.614220472440945
 30
0.0
 10
0.714996062992126
 20
-1.614220472440945
 30
0.0
 10
0.714996062992126
 20
-1.614220472440945
 30
0.0
 10
0.7303425196850394
 20
-1.6175354330708662
 30
0.0
 10
0.7303425196850394
 20
-1.6175354330708662
 30
0.0
 10
0.7303425196850394
 20
-1.6175354330708662
 30
0.0
 10
0.7303425196850394
 20
-1.6175354330708662
 30
0.0
 10
0.7465590551181103
 20
-1.6204724409448819
 30
0.0
 10
0.7465590551181103
 20
-1.6204724409448819
 30
0.0
 10
0.7465590551181103
 20
-1.6204724409448819
 30
0.0
 10
0.7465590551181103
 20
-1.6204724409448819
 30
0.0
 10
0.7636771653543307
 20
-1.6230314960629921
 30
0.0
 10
0.7636771653543307
 20
-1.6230314960629921
 30
0.0
  0
SPLINE
  5
4E
100
AcDbEntity
  8
P1-Layer 1
 62
   253
100
AcDbSpline
210
0.0
220
0.0
230
1.0
 70
     1
 71
     3
 72
    36
 73
    32
 74
     0
 42
0.0000000001
 43
0.0000000001
 40
0.0
 40
0.0
 40
0.0
 40
0.0
 40
0.125
 40
0.125
 40
0.125
 40
0.125
 40
0.25
 40
0.25
 40
0.25
 40
0.25
 40
0.375
 40
0.375
 40
0.375
 40
0.375
 40
0.5
 40
0.5
 40
0.5
 40
0.5
 40
0.625
 40
0.625
 40
0.625
 40
0.625
 40
0.75
 40
0.75
 40
0.75
 40
0.75
 40
0.875
 40
0.875
 40
0.875
 40
0.875
 40
1.0
 40
1.0
 40
1.0
 40
1.0
 10
0.714996062992126
 20
-1.614220472440945
 30
0.0
 10
0.714996062992126
 20
-1.614220472440945
 30
0.0
 10
0.7140236220472441
 20
-0.8608740157480316
 30
0.0
 10
0.7140236220472441
 20
-0.8608740157480316
 30
0.0
 10
0.7140236220472441
 20
-0.8608740157480316
 30
0.0
 10
0.7140236220472441
 20
-0.8608740157480316
 30
0.0
 10
0.6995354330708662
 20
-0.8571889763779528
 30
0.0
 10
0.6995354330708662
 20
-0.8571889763779528
 30
0.0
 10
0.6995354330708662
 20
-0.8571889763779528
 30
0.0
 10
0.6995354330708662
 20
-0.8571889763779528
 30
0.0
 10
0.6858661417322834
 20
-0.8531299212598426
 30
0.0
 10
0.6858661417322834
 20
-0.8531299212598426
 30
0.0
 10
0.6858661417322834
 20
-0.8531299212598426
 30
0.0
 10
0.6858661417322834
 20
-0.8531299212598426
 30
0.0
 10
0.6730118110236221
 20
-0.8487125984251969
 30
0.0
 10
0.6730118110236221
 20
-0.8487125984251969
 30
0.0
 10
0.6730118110236221
 20
-0.8487125984251969
 30
0.0
 10
0.6730118110236221
 20
-0.8487125984251969
 30
0.0
 10
0.673984251968504
 20
-1.6020590551181102
 30
0.0
 10
0.673984251968504
 20
-1.6020590551181102
 30
0.0
 10
0.673984251968504
 20
-1.6020590551181102
 30
0.0
 10
0.673984251968504
 20
-1.6020590551181102
 30
0.0
 10
0.6868385826771654
 20
-1.606476377952756
 30
0.0
 10
0.6868385826771654
 20
-1.606476377952756
 30
0.0
 10
0.6868385826771654
 20
-1.606476377952756
 30
0.0
 10
0.6868385826771654
 20
-1.606476377952756
 30
0.0
 10
0.7005078740157481
 20
-1.6105354330708661
 30
0.0
 10
0.7005078740157481
 20
-1.6105354330708661
 30
0.0
 10
0.7005078740157481
 20
-1.6105354330708661
 30
0.0
 10
0.7005078740157481
 20
-1.6105354330708661
 30
0.0
 10
0.714996062992126
 20
-1.614220472440945
 30
0.0
 10
0.714996062992126
 20
-1.614220472440945
 30
0.0
  0
SPLINE
  5
4F
100
AcDbEntity
  8
P1-Layer 1
 62
   253
100
AcDbSpline
210
0.0
220
0.0
230
1.0
 70
     1
 71
     3
 72
    44
 73
    40
 74
     0
 42
0.0000000001
 43
0.0000000001
 40
0.0
 40
0.0
 40
0.0
 40
0.0
 40
0.1
 40
0.1
 40
0.1
 40
0.1
 40
0.2
 40
0.2
 40
0.2
 40
0.2
 40
0.3
 40
0.3
 40
0.3
 40
0.3
 40
0.4
 40
0.4
 40
0.4
 40
0.4
 40
0.5
 40
0.5
 40
0.5
 40
0.5
 40
0.6
 40
0.6
 40
0.6
 40
0.6
 40
0.7
 40
0.7
 40
0.7
 40
0.7
 40
0.7999999999999999
 40
0.7999999999999999
 40
0.7999999999999999
 40
0.7999999999999999
 40
0.8999999999999999
 40
0.8999999999999999
 40
0.8999999999999999
 40
0.8999999999999999
 40
1.0
 40
1.0
 40
1.0
 40
1.0
 10
0.673984251968504
 20
-1.6020590551181102
 30
0.0
 10
0.673984251968504
 20
-1.6020590551181102
 30
0.0
 10
0.6730118110236221
 20
-0.8487125984251969
 30
0.0
 10
0.6730118110236221
 20
-0.8487125984251969
 30
0.0
 10
0.6730118110236221
 20
-0.8487125984251969
 30
0.0
 10
0.6730118110236221
 20
-0.8487125984251969
 30
0.0
 10
0.6609409448818898
 20
-0.8439409448818898
 30
0.0
 10
0.6609409448818898
 20
-0.8439409448818898
 30
0.0
 10
0.6609409448818898
 20
-0.8439409448818898
 30
0.0
 10
0.6609409448818898
 20
-0.8439409448818898
 30
0.0
 10
0.6496417322834646
 20
-0.8388228346456693
 30
0.0
 10
0.6496417322834646
 20
-0.8388228346456693
 30
0.0
 10
0.6496417322834646
 20
-0.8388228346456693
 30
0.0
 10
0.6496417322834646
 20
-0.8388228346456693
 30
0.0
 10
0.6390787401574803
 20
-0.8333543307086615
 30
0.0
 10
0.6390787401574803
 20
-0.8333543307086615
 30
0.0
 10
0.6390787401574803
 20
-0.8333543307086615
 30
0.0
 10
0.6390787401574803
 20
-0.8333543307086615
 30
0.0
 10
0.629244094488189
 20
-0.8275551181102363
 30
0.0
 10
0.629244094488189
 20
-0.8275551181102363
 30
0.0
 10
0.629244094488189
 20
-0.8275551181102363
 30
0.0
 10
0.629244094488189
 20
-0.8275551181102363
 30
0.0
 10
0.6302165354330709
 20
-1.5809015748031496
 30
0.0
 10
0.6302165354330709
 20
-1.5809015748031496
 30
0.0
 10
0.6302165354330709
 20
-1.5809015748031496
 30
0.0
 10
0.6302165354330709
 20
-1.5809015748031496
 30
0.0
 10
0.6400511811023623
 20
-1.5867007874015748
 30
0.0
 10
0.6400511811023623
 20
-1.5867007874015748
 30
0.0
 10
0.6400511811023623
 20
-1.5867007874015748
 30
0.0
 10
0.6400511811023623
 20
-1.5867007874015748
 30
0.0
 10
0.6506141732283465
 20
-1.5921692913385828
 30
0.0
 10
0.6506141732283465
 20
-1.5921692913385828
 30
0.0
 10
0.6506141732283465
 20
-1.5921692913385828
 30
0.0
 10
0.6506141732283465
 20
-1.5921692913385828
 30
0.0
 10
0.6619133858267717
 20
-1.5972874015748033
 30
0.0
 10
0.6619133858267717
 20
-1.5972874015748033
 30
0.0
 10
0.6619133858267717
 20
-1.5972874015748033
 30
0.0
 10
0.6619133858267717
 20
-1.5972874015748033
 30
0.0
 10
0.673984251968504
 20
-1.6020590551181102
 30
0.0
 10
0.673984251968504
 20
-1.6020590551181102
 30
0.0
  0
SPLINE
  5
50
100
AcDbEntity
  8
P1-Layer 1
 62
     9
100
AcDbSpline
210
0.0
220
0.0
230
1.0
 70
     1
 71
     3
 72
    44
 73
    40
 74
     0
 42
0.0000000001
 43
0.0000000001
 40
0.0
 40
0.0
 40
0.0
 40
0.0
 40
0.1
 40
0.1
 40
0.1
 40
0.1
 40
0.2
 40
0.2
 40
0.2
 40
0.2
 40
0.3
 40
0.3
 40
0.3
 40
0.3
 40
0.4
 40
0.4
 40
0.4
 40
0.4
 40
0.5
 40
0.5
 40
0.5
 40
0.5
 40
0.6
 40
0.6
 40
0.6
 40
0.6
 40
0.7
 40
0.7
 40
0.7
 40
0.7
 40
0.7999999999999999
 40
0.7999999999999999
 40
0.7999999999999999
 40
0.7999999999999999
 40
0.8999999999999999
 40
0.8999999999999999
 40
0.8999999999999999
 40
0.8999999999999999
 40
1.0
 40
1.0
 40
1.0
 40
1.0
 10
0.6302165354330709
 20
-1.5809015748031496
 30
0.0
 10
0.6302165354330709
 20
-1.5809015748031496
 30
0.0
 10
0.629244094488189
 20
-0.8275551181102363
 30
0.0
 10
0.629244094488189
 20
-0.8275551181102363
 30
0.0
 10
0.629244094488189
 20
-0.8275551181102363
 30
0.0
 10
0.629244094488189
 20
-0.8275551181102363
 30
0.0
 10
0.6201102362204725
 20
-0.8214251968503937
 30
0.0
 10
0.6201102362204725
 20
-0.8214251968503937
 30
0.0
 10
0.6201102362204725
 20
-0.8214251968503937
 30
0.0
 10
0.6201102362204725
 20
-0.8214251968503937
 30
0.0
 10
0.6116653543307087
 20
-0.8149685039370079
 30
0.0
 10
0.6116653543307087
 20
-0.8149685039370079
 30
0.0
 10
0.6116653543307087
 20
-0.8149685039370079
 30
0.0
 10
0.6116653543307087
 20
-0.8149685039370079
 30
0.0
 10
0.6038661417322835
 20
-0.8081850393700788
 30
0.0
 10
0.6038661417322835
 20
-0.8081850393700788
 30
0.0
 10
0.6038661417322835
 20
-0.8081850393700788
 30
0.0
 10
0.6038661417322835
 20
-0.8081850393700788
 30
0.0
 10
0.5967125984251969
 20
-0.8010905511811024
 30
0.0
 10
0.5967125984251969
 20
-0.8010905511811024
 30
0.0
 10
0.5967125984251969
 20
-0.8010905511811024
 30
0.0
 10
0.5967125984251969
 20
-0.8010905511811024
 30
0.0
 10
0.5976850393700788
 20
-1.5544370078740157
 30
0.0
 10
0.5976850393700788
 20
-1.5544370078740157
 30
0.0
 10
0.5976850393700788
 20
-1.5544370078740157
 30
0.0
 10
0.5976850393700788
 20
-1.5544370078740157
 30
0.0
 10
0.6048385826771654
 20
-1.5615314960629922
 30
0.0
 10
0.6048385826771654
 20
-1.5615314960629922
 30
0.0
 10
0.6048385826771654
 20
-1.5615314960629922
 30
0.0
 10
0.6048385826771654
 20
-1.5615314960629922
 30
0.0
 10
0.6126377952755906
 20
-1.5683149606299214
 30
0.0
 10
0.6126377952755906
 20
-1.5683149606299214
 30
0.0
 10
0.6126377952755906
 20
-1.5683149606299214
 30
0.0
 10
0.6126377952755906
 20
-1.5683149606299214
 30
0.0
 10
0.6210826771653544
 20
-1.5747716535433072
 30
0.0
 10
0.6210826771653544
 20
-1.5747716535433072
 30
0.0
 10
0.6210826771653544
 20
-1.5747716535433072
 30
0.0
 10
0.6210826771653544
 20
-1.5747716535433072
 30
0.0
 10
0.6302165354330709
 20
-1.5809015748031496
 30
0.0
 10
0.6302165354330709
 20
-1.5809015748031496
 30
0.0
  0
SPLINE
  5
51
100
AcDbEntity
  8
P1-Layer 1
 62
     9
100
AcDbSpline
210
0.0
220
0.0
230
1.0
 70
     1
 71
     3
 72
    52
 73
    48
 74
     0
 42
0.0000000001
 43
0.0000000001
 40
0.0
 40
0.0
 40
0.0
 40
0.0
 40
0.0833333333333333
 40
0.0833333333333333
 40
0.0833333333333333
 40
0.0833333333333333
 40
0.1666666666666667
 40
0.1666666666666667
 40
0.1666666666666667
 40
0.1666666666666667
 40
0.25
 40
0.25
 40
0.25
 40
0.25
 40
0.3333333333333333
 40
0.3333333333333333
 40
0.3333333333333333
 40
0.3333333333333333
 40
0.4166666666666666
 40
0.4166666666666666
 40
0.4166666666666666
 40
0.4166666666666666
 40
0.4999999999999999
 40
0.4999999999999999
 40
0.4999999999999999
 40
0.4999999999999999
 40
0.5833333333333333
 40
0.5833333333333333
 40
0.5833333333333333
 40
0.5833333333333333
 40
0.6666666666666666
 40
0.6666666666666666
 40
0.6666666666666666
 40
0.6666666666666666
 40
0.75
 40
0.75
 40
0.75
 40
0.75
 40
0.8333333333333334
 40
0.8333333333333334
 40
0.8333333333333334
 40
0.8333333333333334
 40
0.9166666666666667
 40
0.9166666666666667
 40
0.9166666666666667
 40
0.9166666666666667
 40
1.0
 40
1.0
 40
1.0
 40
1.0
 10
0.5976850393700788
 20
-1.5544370078740157
 30
0.0
 10
0.5976850393700788
 20
-1.5544370078740157
 30
0.0
 10
0.5967125984251969
 20
-0.8010905511811024
 30
0.0
 10
0.5967125984251969
 20
-0.8010905511811024
 30
0.0
 10
0.5967125984251969
 20
-0.8010905511811024
 30
0.0
 10
0.5967125984251969
 20
-0.8010905511811024
 30
0.0
 10
0.5901771653543307
 20
-0.7936889763779528
 30
0.0
 10
0.5901771653543307
 20
-0.7936889763779528
 30
0.0
 10
0.5901771653543307
 20
-0.7936889763779528
 30
0.0
 10
0.5901771653543307
 20
-0.7936889763779528
 30
0.0
 10
0.584240157480315
 20
-0.785988188976378
 30
0.0
 10
0.584240157480315
 20
-0.785988188976378
 30
0.0
 10
0.584240157480315
 20
-0.785988188976378
 30
0.0
 10
0.584240157480315
 20
-0.785988188976378
 30
0.0
 10
0.5788700787401575
 20
-0.777984251968504
 30
0.0
 10
0.5788700787401575
 20
-0.777984251968504
 30
0.0
 10
0.5788700787401575
 20
-0.777984251968504
 30
0.0
 10
0.5788700787401575
 20
-0.777984251968504
 30
0.0
 10
0.5740629921259843
 20
-0.7696968503937008
 30
0.0
 10
0.5740629921259843
 20
-0.7696968503937008
 30
0.0
 10
0.5740629921259843
 20
-0.7696968503937008
 30
0.0
 10
0.5740629921259843
 20
-0.7696968503937008
 30
0.0
 10
0.5697795275590551
 20
-0.7611220472440945
 30
0.0
 10
0.5697795275590551
 20
-0.7611220472440945
 30
0.0
 10
0.5697795275590551
 20
-0.7611220472440945
 30
0.0
 10
0.5697795275590551
 20
-0.7611220472440945
 30
0.0
 10
0.5707519685039371
 20
-1.5144685039370078
 30
0.0
 10
0.5707519685039371
 20
-1.5144685039370078
 30
0.0
 10
0.5707519685039371
 20
-1.5144685039370078
 30
0.0
 10
0.5707519685039371
 20
-1.5144685039370078
 30
0.0
 10
0.5750354330708661
 20
-1.5230433070866143
 30
0.0
 10
0.5750354330708661
 20
-1.5230433070866143
 30
0.0
 10
0.5750354330708661
 20
-1.5230433070866143
 30
0.0
 10
0.5750354330708661
 20
-1.5230433070866143
 30
0.0
 10
0.5798425196850394
 20
-1.5313307086614174
 30
0.0
 10
0.5798425196850394
 20
-1.5313307086614174
 30
0.0
 10
0.5798425196850394
 20
-1.5313307086614174
 30
0.0
 10
0.5798425196850394
 20
-1.5313307086614174
 30
0.0
 10
0.5852125984251969
 20
-1.5393346456692913
 30
0.0
 10
0.5852125984251969
 20
-1.5393346456692913
 30
0.0
 10
0.5852125984251969
 20
-1.5393346456692913
 30
0.0
 10
0.5852125984251969
 20
-1.5393346456692913
 30
0.0
 10
0.5911496062992127
 20
-1.5470354330708662
 30
0.0
 10
0.5911496062992127
 20
-1.5470354330708662
 30
0.0
 10
0.5911496062992127
 20
-1.5470354330708662
 30
0.0
 10
0.5911496062992127
 20
-1.5470354330708662
 30
0.0
 10
0.5976850393700788
 20
-1.5544370078740157
 30
0.0
 10
0.5976850393700788
 20
-1.5544370078740157
 30
0.0
  0
SPLINE
  5
52
100
AcDbEntity
  8
P1-Layer 1
 62
     9
100
AcDbSpline
210
0.0
220
0.0
230
1.0
 70
     1
 71
     3
 72
    52
 73
    48
 74
     0
 42
0.0000000001
 43
0.0000000001
 40
0.0
 40
0.0
 40
0.0
 40
0.0
 40
0.0833333333333333
 40
0.0833333333333333
 40
0.0833333333333333
 40
0.0833333333333333
 40
0.1666666666666667
 40
0.1666666666666667
 40
0.1666666666666667
 40
0.1666666666666667
 40
0.25
 40
0.25
 40
0.25
 40
0.25
 40
0.3333333333333333
 40
0.3333333333333333
 40
0.3333333333333333
 40
0.3333333333333333
 40
0.4166666666666666
 40
0.4166666666666666
 40
0.4166666666666666
 40
0.4166666666666666
 40
0.4999999999999999
 40
0.4999999999999999
 40
0.4999999999999999
 40
0.4999999999999999
 40
0.5833333333333333
 40
0.5833333333333333
 40
0.5833333333333333
 40
0.5833333333333333
 40
0.6666666666666666
 40
0.6666666666666666
 40
0.6666666666666666
 40
0.6666666666666666
 40
0.75
 40
0.75
 40
0.75
 40
0.75
 40
0.8333333333333334
 40
0.8333333333333334
 40
0.8333333333333334
 40
0.8333333333333334
 40
0.9166666666666667
 40
0.9166666666666667
 40
0.9166666666666667
 40
0.9166666666666667
 40
1.0
 40
1.0
 40
1.0
 40
1.0
 10
0.5707519685039371
 20
-1.5144685039370078
 30
0.0
 10
0.5707519685039371
 20
-1.5144685039370078
 30
0.0
 10
0.5697795275590551
 20
-0.7611220472440945
 30
0.0
 10
0.5697795275590551
 20
-0.7611220472440945
 30
0.0
 10
0.5697795275590551
 20
-0.7611220472440945
 30
0.0
 10
0.5697795275590551
 20
-0.7611220472440945
 30
0.0
 10
0.5660157480314961
 20
-0.7522755905511811
 30
0.0
 10
0.5660157480314961
 20
-0.7522755905511811
 30
0.0
 10
0.5660157480314961
 20
-0.7522755905511811
 30
0.0
 10
0.5660157480314961
 20
-0.7522755905511811
 30
0.0
 10
0.5627322834645669
 20
-0.7431456692913386
 30
0.0
 10
0.5627322834645669
 20
-0.7431456692913386
 30
0.0
 10
0.5627322834645669
 20
-0.7431456692913386
 30
0.0
 10
0.5627322834645669
 20
-0.7431456692913386
 30
0.0
 10
0.5599251968503938
 20
-0.733755905511811
 30
0.0
 10
0.5599251968503938
 20
-0.733755905511811
 30
0.0
 10
0.5599251968503938
 20
-0.733755905511811
 30
0.0
 10
0.5599251968503938
 20
-0.733755905511811
 30
0.0
 10
0.5575590551181102
 20
-0.7241062992125985
 30
0.0
 10
0.5575590551181102
 20
-0.7241062992125985
 30
0.0
 10
0.5575590551181102
 20
-0.7241062992125985
 30
0.0
 10
0.5575590551181102
 20
-0.7241062992125985
 30
0.0
 10
0.5556299212598426
 20
-0.7142047244094488
 30
0.0
 10
0.5556299212598426
 20
-0.7142047244094488
 30
0.0
 10
0.5556299212598426
 20
-0.7142047244094488
 30
0.0
 10
0.5556299212598426
 20
-0.7142047244094488
 30
0.0
 10
0.5566023622047245
 20
-1.4675511811023623
 30
0.0
 10
0.5566023622047245
 20
-1.4675511811023623
 30
0.0
 10
0.5566023622047245
 20
-1.4675511811023623
 30
0.0
 10
0.5566023622047245
 20
-1.4675511811023623
 30
0.0
 10
0.5585314960629921
 20
-1.4774527559055119
 30
0.0
 10
0.5585314960629921
 20
-1.4774527559055119
 30
0.0
 10
0.5585314960629921
 20
-1.4774527559055119
 30
0.0
 10
0.5585314960629921
 20
-1.4774527559055119
 30
0.0
 10
0.5608976377952756
 20
-1.4871023622047244
 30
0.0
 10
0.5608976377952756
 20
-1.4871023622047244
 30
0.0
 10
0.5608976377952756
 20
-1.4871023622047244
 30
0.0
 10
0.5608976377952756
 20
-1.4871023622047244
 30
0.0
 10
0.5637047244094489
 20
-1.4964921259842521
 30
0.0
 10
0.5637047244094489
 20
-1.4964921259842521
 30
0.0
 10
0.5637047244094489
 20
-1.4964921259842521
 30
0.0
 10
0.5637047244094489
 20
-1.4964921259842521
 30
0.0
 10
0.5669881889763779
 20
-1.5056220472440947
 30
0.0
 10
0.5669881889763779
 20
-1.5056220472440947
 30
0.0
 10
0.5669881889763779
 20
-1.5056220472440947
 30
0.0
 10
0.5669881889763779
 20
-1.5056220472440947
 30
0.0
 10
0.5707519685039371
 20
-1.5144685039370078
 30
0.0
 10
0.5707519685039371
 20
-1.5144685039370078
 30
0.0
  0
SPLINE
  5
53
100
AcDbEntity
  8
P1-Layer 1
 62
   253
100
AcDbSpline
210
0.0
220
0.0
230
1.0
 70
     1
 71
     3
 72
    44
 73
    40
 74
     0
 42
0.0000000001
 43
0.0000000001
 40
0.0
 40
0.0
 40
0.0
 40
0.0
 40
0.1
 40
0.1
 40
0.1
 40
0.1
 40
0.2
 40
0.2
 40
0.2
 40
0.2
 40
0.3
 40
0.3
 40
0.3
 40
0.3
 40
0.4
 40
0.4
 40
0.4
 40
0.4
 40
0.5
 40
0.5
 40
0.5
 40
0.5
 40
0.6
 40
0.6
 40
0.6
 40
0.6
 40
0.7
 40
0.7
 40
0.7
 40
0.7
 40
0.7999999999999999
 40
0.7999999999999999
 40
0.7999999999999999
 40
0.7999999999999999
 40
0.8999999999999999
 40
0.8999999999999999
 40
0.8999999999999999
 40
0.8999999999999999
 40
1.0
 40
1.0
 40
1.0
 40
1.0
 10
0.5566023622047245
 20
-1.4675511811023623
 30
0.0
 10
0.5566023622047245
 20
-1.4675511811023623
 30
0.0
 10
0.5556299212598426
 20
-0.7142047244094488
 30
0.0
 10
0.5556299212598426
 20
-0.7142047244094488
 30
0.0
 10
0.5556299212598426
 20
-0.7142047244094488
 30
0.0
 10
0.5556299212598426
 20
-0.7142047244094488
 30
0.0
 10
0.5540944881889764
 20
-0.7040433070866142
 30
0.0
 10
0.5540944881889764
 20
-0.7040433070866142
 30
0.0
 10
0.5540944881889764
 20
-0.7040433070866142
 30
0.0
 10
0.5540944881889764
 20
-0.7040433070866142
 30
0.0
 10
0.5529488188976378
 20
-0.6936496062992126
 30
0.0
 10
0.5529488188976378
 20
-0.6936496062992126
 30
0.0
 10
0.5529488188976378
 20
-0.6936496062992126
 30
0.0
 10
0.5529488188976378
 20
-0.6936496062992126
 30
0.0
 10
0.5521614173228346
 20
-0.6830157480314961
 30
0.0
 10
0.5521614173228346
 20
-0.6830157480314961
 30
0.0
 10
0.5521614173228346
 20
-0.6830157480314961
 30
0.0
 10
0.5521614173228346
 20
-0.6830157480314961
 30
0.0
 10
0.551724409448819
 20
-0.6721535433070867
 30
0.0
 10
0.551724409448819
 20
-0.6721535433070867
 30
0.0
 10
0.551724409448819
 20
-0.6721535433070867
 30
0.0
 10
0.551724409448819
 20
-0.6721535433070867
 30
0.0
 10
0.5526968503937008
 20
-1.4255
 30
0.0
 10
0.5526968503937008
 20
-1.4255
 30
0.0
 10
0.5526968503937008
 20
-1.4255
 30
0.0
 10
0.5526968503937008
 20
-1.4255
 30
0.0
 10
0.5531338582677166
 20
-1.4363622047244096
 30
0.0
 10
0.5531338582677166
 20
-1.4363622047244096
 30
0.0
 10
0.5531338582677166
 20
-1.4363622047244096
 30
0.0
 10
0.5531338582677166
 20
-1.4363622047244096
 30
0.0
 10
0.5539212598425197
 20
-1.4469960629921261
 30
0.0
 10
0.5539212598425197
 20
-1.4469960629921261
 30
0.0
 10
0.5539212598425197
 20
-1.4469960629921261
 30
0.0
 10
0.5539212598425197
 20
-1.4469960629921261
 30
0.0
 10
0.5550669291338582
 20
-1.4573897637795277
 30
0.0
 10
0.5550669291338582
 20
-1.4573897637795277
 30
0.0
 10
0.5550669291338582
 20
-1.4573897637795277
 30
0.0
 10
0.5550669291338582
 20
-1.4573897637795277
 30
0.0
 10
0.5566023622047245
 20
-1.4675511811023623
 30
0.0
 10
0.5566023622047245
 20
-1.4675511811023623
 30
0.0
  0
SPLINE
  5
54
100
AcDbEntity
  8
P1-Layer 1
370
     5
100
AcDbSpline
210
0.0
220
0.0
230
1.0
 70
     1
 71
     3
 72
   268
 73
   264
 74
     0
 42
0.0000000001
 43
0.0000000001
 40
0.0
 40
0.0
 40
0.0
 40
0.0
 40
0.0151515151515152
 40
0.0151515151515152
 40
0.0151515151515152
 40
0.0151515151515152
 40
0.0303030303030303
 40
0.0303030303030303
 40
0.0303030303030303
 40
0.0303030303030303
 40
0.0454545454545455
 40
0.0454545454545455
 40
0.0454545454545455
 40
0.0454545454545455
 40
0.0606060606060606
 40
0.0606060606060606
 40
0.0606060606060606
 40
0.0606060606060606
 40
0.0757575757575758
 40
0.0757575757575758
 40
0.0757575757575758
 40
0.0757575757575758
 40
0.0909090909090909
 40
0.0909090909090909
 40
0.0909090909090909
 40
0.0909090909090909
 40
0.1060606060606061
 40
0.1060606060606061
 40
0.1060606060606061
 40
0.1060606060606061
 40
0.1212121212121212
 40
0.1212121212121212
 40
0.1212121212121212
 40
0.1212121212121212
 40
0.1363636363636364
 40
0.1363636363636364
 40
0.1363636363636364
 40
0.1363636363636364
 40
0.1515151515151515
 40
0.1515151515151515
 40
0.1515151515151515
 40
0.1515151515151515
 40
0.1666666666666666
 40
0.1666666666666666
 40
0.1666666666666666
 40
0.1666666666666666
 40
0.1818181818181818
 40
0.1818181818181818
 40
0.1818181818181818
 40
0.1818181818181818
 40
0.1969696969696969
 40
0.1969696969696969
 40
0.1969696969696969
 40
0.1969696969696969
 40
0.212121212121212
 40
0.212121212121212
 40
0.212121212121212
 40
0.212121212121212
 40
0.2272727272727272
 40
0.2272727272727272
 40
0.2272727272727272
 40
0.2272727272727272
 40
0.2424242424242423
 40
0.2424242424242423
 40
0.2424242424242423
 40
0.2424242424242423
 40
0.2575757575757575
 40
0.2575757575757575
 40
0.2575757575757575
 40
0.2575757575757575
 40
0.2727272727272726
 40
0.2727272727272726
 40
0.2727272727272726
 40
0.2727272727272726
 40
0.2878787878787877
 40
0.2878787878787877
 40
0.2878787878787877
 40
0.2878787878787877
 40
0.3030303030303029
 40
0.3030303030303029
 40
0.3030303030303029
 40
0.3030303030303029
 40
0.318181818181818
 40
0.318181818181818
 40
0.318181818181818
 40
0.318181818181818
 40
0.3333333333333332
 40
0.3333333333333332
 40
0.3333333333333332
 40
0.3333333333333332
 40
0.3484848484848483
 40
0.3484848484848483
 40
0.3484848484848483
 40
0.3484848484848483
 40
0.3636363636363634
 40
0.3636363636363634
 40
0.3636363636363634
 40
0.3636363636363634
 40
0.3787878787878786
 40
0.3787878787878786
 40
0.3787878787878786
 40
0.3787878787878786
 40
0.3939393939393937
 40
0.3939393939393937
 40
0.3939393939393937
 40
0.3939393939393937
 40
0.4090909090909088
 40
0.4090909090909088
 40
0.4090909090909088
 40
0.4090909090909088
 40
0.424242424242424
 40
0.424242424242424
 40
0.424242424242424
 40
0.424242424242424
 40
0.4393939393939391
 40
0.4393939393939391
 40
0.4393939393939391
 40
0.4393939393939391
 40
0.4545454545454543
 40
0.4545454545454543
 40
0.4545454545454543
 40
0.4545454545454543
 40
0.4696969696969694
 40
0.4696969696969694
 40
0.4696969696969694
 40
0.4696969696969694
 40
0.4848484848484845
 40
0.4848484848484845
 40
0.4848484848484845
 40
0.4848484848484845
 40
0.4999999999999997
 40
0.4999999999999997
 40
0.4999999999999997
 40
0.4999999999999997
 40
0.5151515151515148
 40
0.5151515151515148
 40
0.5151515151515148
 40
0.5151515151515148
 40
0.5303030303030299
 40
0.5303030303030299
 40
0.5303030303030299
 40
0.5303030303030299
 40
0.5454545454545451
 40
0.5454545454545451
 40
0.5454545454545451
 40
0.5454545454545451
 40
0.5606060606060602
 40
0.5606060606060602
 40
0.5606060606060602
 40
0.5606060606060602
 40
0.5757575757575754
 40
0.5757575757575754
 40
0.5757575757575754
 40
0.5757575757575754
 40
0.5909090909090905
 40
0.5909090909090905
 40
0.5909090909090905
 40
0.5909090909090905
 40
0.6060606060606056
 40
0.6060606060606056
 40
0.6060606060606056
 40
0.6060606060606056
 40
0.6212121212121208
 40
0.6212121212121208
 40
0.6212121212121208
 40
0.6212121212121208
 40
0.6363636363636359
 40
0.6363636363636359
 40
0.6363636363636359
 40
0.6363636363636359
 40
0.6515151515151511
 40
0.6515151515151511
 40
0.6515151515151511
 40
0.6515151515151511
 40
0.6666666666666662
 40
0.6666666666666662
 40
0.6666666666666662
 40
0.6666666666666662
 40
0.6818181818181813
 40
0.6818181818181813
 40
0.6818181818181813
 40
0.6818181818181813
 40
0.6969696969696965
 40
0.6969696969696965
 40
0.6969696969696965
 40
0.6969696969696965
 40
0.7121212121212116
 40
0.7121212121212116
 40
0.7121212121212116
 40
0.7121212121212116
 40
0.7272727272727267
 40
0.7272727272727267
 40
0.7272727272727267
 40
0.7272727272727267
 40
0.7424242424242419
 40
0.7424242424242419
 40
0.7424242424242419
 40
0.7424242424242419
 40
0.757575757575757
 40
0.757575757575757
 40
0.757575757575757
 40
0.757575757575757
 40
0.7727272727272722
 40
0.7727272727272722
 40
0.7727272727272722
 40
0.7727272727272722
 40
0.7878787878787873
 40
0.7878787878787873
 40
0.7878787878787873
 40
0.7878787878787873
 40
0.8030303030303024
 40
0.8030303030303024
 40
0.8030303030303024
 40
0.8030303030303024
 40
0.8181818181818176
 40
0.8181818181818176
 40
0.8181818181818176
 40
0.8181818181818176
 40
0.8333333333333327
 40
0.8333333333333327
 40
0.8333333333333327
 40
0.8333333333333327
 40
0.8484848484848478
 40
0.8484848484848478
 40
0.8484848484848478
 40
0.8484848484848478
 40
0.863636363636363
 40
0.863636363636363
 40
0.863636363636363
 40
0.863636363636363
 40
0.8787878787878781
 40
0.8787878787878781
 40
0.8787878787878781
 40
0.8787878787878781
 40
0.8939393939393933
 40
0.8939393939393933
 40
0.8939393939393933
 40
0.8939393939393933
 40
0.9090909090909084
 40
0.9090909090909084
 40
0.9090909090909084
 40
0.9090909090909084
 40
0.9242424242424235
 40
0.9242424242424235
 40
0.9242424242424235
 40
0.9242424242424235
 40
0.9393939393939387
 40
0.9393939393939387
 40
0.9393939393939387
 40
0.9393939393939387
 40
0.9545454545454538
 40
0.9545454545454538
 40
0.9545454545454538
 40
0.9545454545454538
 40
0.969696969696969
 40
0.969696969696969
 40
0.969696969696969
 40
0.969696969696969
 40
0.9848484848484841
 40
0.9848484848484841
 40
0.9848484848484841
 40
0.9848484848484841
 40
1.0
 40
1.0
 40
1.0
 40
1.0
 10
0.841484251968504
 20
-1.6292795275590553
 30
0.0
 10
0.841484251968504
 20
-1.6292795275590553
 30
0.0
 10
0.8405118110236221
 20
-0.8759330708661418
 30
0.0
 10
0.8405118110236221
 20
-0.8759330708661418
 30
0.0
 10
0.8405118110236221
 20
-0.8759330708661418
 30
0.0
 10
0.8405118110236221
 20
-0.8759330708661418
 30
0.0
 10
0.8196102362204725
 20
-0.8749724409448819
 30
0.0
 10
0.8196102362204725
 20
-0.8749724409448819
 30
0.0
 10
0.8196102362204725
 20
-0.8749724409448819
 30
0.0
 10
0.8196102362204725
 20
-0.8749724409448819
 30
0.0
 10
0.7996889763779528
 20
-0.8736102362204725
 30
0.0
 10
0.7996889763779528
 20
-0.8736102362204725
 30
0.0
 10
0.7996889763779528
 20
-0.8736102362204725
 30
0.0
 10
0.7996889763779528
 20
-0.8736102362204725
 30
0.0
 10
0.7807244094488189
 20
-0.8718425196850395
 30
0.0
 10
0.7807244094488189
 20
-0.8718425196850395
 30
0.0
 10
0.7807244094488189
 20
-0.8718425196850395
 30
0.0
 10
0.7807244094488189
 20
-0.8718425196850395
 30
0.0
 10
0.7627047244094488
 20
-0.8696850393700788
 30
0.0
 10
0.7627047244094488
 20
-0.8696850393700788
 30
0.0
 10
0.7627047244094488
 20
-0.8696850393700788
 30
0.0
 10
0.7627047244094488
 20
-0.8696850393700788
 30
0.0
 10
0.7455866141732284
 20
-0.8671259842519685
 30
0.0
 10
0.7455866141732284
 20
-0.8671259842519685
 30
0.0
 10
0.7455866141732284
 20
-0.8671259842519685
 30
0.0
 10
0.7455866141732284
 20
-0.8671259842519685
 30
0.0
 10
0.7293700787401575
 20
-0.8641889763779528
 30
0.0
 10
0.7293700787401575
 20
-0.8641889763779528
 30
0.0
 10
0.7293700787401575
 20
-0.8641889763779528
 30
0.0
 10
0.7293700787401575
 20
-0.8641889763779528
 30
0.0
 10
0.7140236220472441
 20
-0.8608740157480316
 30
0.0
 10
0.7140236220472441
 20
-0.8608740157480316
 30
0.0
 10
0.7140236220472441
 20
-0.8608740157480316
 30
0.0
 10
0.7140236220472441
 20
-0.8608740157480316
 30
0.0
 10
0.6995354330708662
 20
-0.8571889763779528
 30
0.0
 10
0.6995354330708662
 20
-0.8571889763779528
 30
0.0
 10
0.6995354330708662
 20
-0.8571889763779528
 30
0.0
 10
0.6995354330708662
 20
-0.8571889763779528
 30
0.0
 10
0.6858661417322834
 20
-0.8531299212598426
 30
0.0
 10
0.6858661417322834
 20
-0.8531299212598426
 30
0.0
 10
0.6858661417322834
 20
-0.8531299212598426
 30
0.0
 10
0.6858661417322834
 20
-0.8531299212598426
 30
0.0
 10
0.6730118110236221
 20
-0.8487125984251969
 30
0.0
 10
0.6730118110236221
 20
-0.8487125984251969
 30
0.0
 10
0.6730118110236221
 20
-0.8487125984251969
 30
0.0
 10
0.6730118110236221
 20
-0.8487125984251969
 30
0.0
 10
0.6609409448818898
 20
-0.8439409448818898
 30
0.0
 10
0.6609409448818898
 20
-0.8439409448818898
 30
0.0
 10
0.6609409448818898
 20
-0.8439409448818898
 30
0.0
 10
0.6609409448818898
 20
-0.8439409448818898
 30
0.0
 10
0.6496417322834646
 20
-0.8388228346456693
 30
0.0
 10
0.6496417322834646
 20
-0.8388228346456693
 30
0.0
 10
0.6496417322834646
 20
-0.8388228346456693
 30
0.0
 10
0.6496417322834646
 20
-0.8388228346456693
 30
0.0
 10
0.6390787401574803
 20
-0.8333543307086615
 30
0.0
 10
0.6390787401574803
 20
-0.8333543307086615
 30
0.0
 10
0.6390787401574803
 20
-0.8333543307086615
 30
0.0
 10
0.6390787401574803
 20
-0.8333543307086615
 30
0.0
 10
0.629244094488189
 20
-0.8275551181102363
 30
0.0
 10
0.629244094488189
 20
-0.8275551181102363
 30
0.0
 10
0.629244094488189
 20
-0.8275551181102363
 30
0.0
 10
0.629244094488189
 20
-0.8275551181102363
 30
0.0
 10
0.6201102362204725
 20
-0.8214251968503937
 30
0.0
 10
0.6201102362204725
 20
-0.8214251968503937
 30
0.0
 10
0.6201102362204725
 20
-0.8214251968503937
 30
0.0
 10
0.6201102362204725
 20
-0.8214251968503937
 30
0.0
 10
0.6116653543307087
 20
-0.8149685039370079
 30
0.0
 10
0.6116653543307087
 20
-0.8149685039370079
 30
0.0
 10
0.6116653543307087
 20
-0.8149685039370079
 30
0.0
 10
0.6116653543307087
 20
-0.8149685039370079
 30
0.0
 10
0.6038661417322835
 20
-0.8081850393700788
 30
0.0
 10
0.6038661417322835
 20
-0.8081850393700788
 30
0.0
 10
0.6038661417322835
 20
-0.8081850393700788
 30
0.0
 10
0.6038661417322835
 20
-0.8081850393700788
 30
0.0
 10
0.5967125984251969
 20
-0.8010905511811024
 30
0.0
 10
0.5967125984251969
 20
-0.8010905511811024
 30
0.0
 10
0.5967125984251969
 20
-0.8010905511811024
 30
0.0
 10
0.5967125984251969
 20
-0.8010905511811024
 30
0.0
 10
0.5901771653543307
 20
-0.7936889763779528
 30
0.0
 10
0.5901771653543307
 20
-0.7936889763779528
 30
0.0
 10
0.5901771653543307
 20
-0.7936889763779528
 30
0.0
 10
0.5901771653543307
 20
-0.7936889763779528
 30
0.0
 10
0.584240157480315
 20
-0.785988188976378
 30
0.0
 10
0.584240157480315
 20
-0.785988188976378
 30
0.0
 10
0.584240157480315
 20
-0.785988188976378
 30
0.0
 10
0.584240157480315
 20
-0.785988188976378
 30
0.0
 10
0.5788700787401575
 20
-0.777984251968504
 30
0.0
 10
0.5788700787401575
 20
-0.777984251968504
 30
0.0
 10
0.5788700787401575
 20
-0.777984251968504
 30
0.0
 10
0.5788700787401575
 20
-0.777984251968504
 30
0.0
 10
0.5740629921259843
 20
-0.7696968503937008
 30
0.0
 10
0.5740629921259843
 20
-0.7696968503937008
 30
0.0
 10
0.5740629921259843
 20
-0.7696968503937008
 30
0.0
 10
0.5740629921259843
 20
-0.7696968503937008
 30
0.0
 10
0.5697795275590551
 20
-0.7611220472440945
 30
0.0
 10
0.5697795275590551
 20
-0.7611220472440945
 30
0.0
 10
0.5697795275590551
 20
-0.7611220472440945
 30
0.0
 10
0.5697795275590551
 20
-0.7611220472440945
 30
0.0
 10
0.5660157480314961
 20
-0.7522755905511811
 30
0.0
 10
0.5660157480314961
 20
-0.7522755905511811
 30
0.0
 10
0.5660157480314961
 20
-0.7522755905511811
 30
0.0
 10
0.5660157480314961
 20
-0.7522755905511811
 30
0.0
 10
0.5627322834645669
 20
-0.7431456692913386
 30
0.0
 10
0.5627322834645669
 20
-0.7431456692913386
 30
0.0
 10
0.5627322834645669
 20
-0.7431456692913386
 30
0.0
 10
0.5627322834645669
 20
-0.7431456692913386
 30
0.0
 10
0.5599251968503938
 20
-0.733755905511811
 30
0.0
 10
0.5599251968503938
 20
-0.733755905511811
 30
0.0
 10
0.5599251968503938
 20
-0.733755905511811
 30
0.0
 10
0.5599251968503938
 20
-0.733755905511811
 30
0.0
 10
0.5575590551181102
 20
-0.7241062992125985
 30
0.0
 10
0.5575590551181102
 20
-0.7241062992125985
 30
0.0
 10
0.5575590551181102
 20
-0.7241062992125985
 30
0.0
 10
0.5575590551181102
 20
-0.7241062992125985
 30
0.0
 10
0.5556299212598426
 20
-0.7142047244094488
 30
0.0
 10
0.5556299212598426
 20
-0.7142047244094488
 30
0.0
 10
0.5556299212598426
 20
-0.7142047244094488
 30
0.0
 10
0.5556299212598426
 20
-0.7142047244094488
 30
0.0
 10
0.5540944881889764
 20
-0.7040433070866142
 30
0.0
 10
0.5540944881889764
 20
-0.7040433070866142
 30
0.0
 10
0.5540944881889764
 20
-0.7040433070866142
 30
0.0
 10
0.5540944881889764
 20
-0.7040433070866142
 30
0.0
 10
0.5529488188976378
 20
-0.6936496062992126
 30
0.0
 10
0.5529488188976378
 20
-0.6936496062992126
 30
0.0
 10
0.5529488188976378
 20
-0.6936496062992126
 30
0.0
 10
0.5529488188976378
 20
-0.6936496062992126
 30
0.0
 10
0.5521614173228346
 20
-0.6830157480314961
 30
0.0
 10
0.5521614173228346
 20
-0.6830157480314961
 30
0.0
 10
0.5521614173228346
 20
-0.6830157480314961
 30
0.0
 10
0.5521614173228346
 20
-0.6830157480314961
 30
0.0
 10
0.551724409448819
 20
-0.6721535433070867
 30
0.0
 10
0.551724409448819
 20
-0.6721535433070867
 30
0.0
 10
0.551724409448819
 20
-0.6721535433070867
 30
0.0
 10
0.551724409448819
 20
-0.6721535433070867
 30
0.0
 10
0.5526968503937008
 20
-1.4255
 30
0.0
 10
0.5526968503937008
 20
-1.4255
 30
0.0
 10
0.5526968503937008
 20
-1.4255
 30
0.0
 10
0.5526968503937008
 20
-1.4255
 30
0.0
 10
0.5531338582677166
 20
-1.4363622047244096
 30
0.0
 10
0.5531338582677166
 20
-1.4363622047244096
 30
0.0
 10
0.5531338582677166
 20
-1.4363622047244096
 30
0.0
 10
0.5531338582677166
 20
-1.4363622047244096
 30
0.0
 10
0.5539212598425197
 20
-1.4469960629921261
 30
0.0
 10
0.5539212598425197
 20
-1.4469960629921261
 30
0.0
 10
0.5539212598425197
 20
-1.4469960629921261
 30
0.0
 10
0.5539212598425197
 20
-1.4469960629921261
 30
0.0
 10
0.5550669291338582
 20
-1.4573897637795277
 30
0.0
 10
0.5550669291338582
 20
-1.4573897637795277
 30
0.0
 10
0.5550669291338582
 20
-1.4573897637795277
 30
0.0
 10
0.5550669291338582
 20
-1.4573897637795277
 30
0.0
 10
0.5566023622047245
 20
-1.4675511811023623
 30
0.0
 10
0.5566023622047245
 20
-1.4675511811023623
 30
0.0
 10
0.5566023622047245
 20
-1.4675511811023623
 30
0.0
 10
0.5566023622047245
 20
-1.4675511811023623
 30
0.0
 10
0.5585314960629921
 20
-1.4774527559055119
 30
0.0
 10
0.5585314960629921
 20
-1.4774527559055119
 30
0.0
 10
0.5585314960629921
 20
-1.4774527559055119
 30
0.0
 10
0.5585314960629921
 20
-1.4774527559055119
 30
0.0
 10
0.5608976377952756
 20
-1.4871023622047244
 30
0.0
 10
0.5608976377952756
 20
-1.4871023622047244
 30
0.0
 10
0.5608976377952756
 20
-1.4871023622047244
 30
0.0
 10
0.5608976377952756
 20
-1.4871023622047244
 30
0.0
 10
0.5637047244094489
 20
-1.4964921259842521
 30
0.0
 10
0.5637047244094489
 20
-1.4964921259842521
 30
0.0
 10
0.5637047244094489
 20
-1.4964921259842521
 30
0.0
 10
0.5637047244094489
 20
-1.4964921259842521
 30
0.0
 10
0.5669881889763779
 20
-1.5056220472440947
 30
0.0
 10
0.5669881889763779
 20
-1.5056220472440947
 30
0.0
 10
0.5669881889763779
 20
-1.5056220472440947
 30
0.0
 10
0.5669881889763779
 20
-1.5056220472440947
 30
0.0
 10
0.5707519685039371
 20
-1.5144685039370078
 30
0.0
 10
0.5707519685039371
 20
-1.5144685039370078
 30
0.0
 10
0.5707519685039371
 20
-1.5144685039370078
 30
0.0
 10
0.5707519685039371
 20
-1.5144685039370078
 30
0.0
 10
0.5750354330708661
 20
-1.5230433070866143
 30
0.0
 10
0.5750354330708661
 20
-1.5230433070866143
 30
0.0
 10
0.5750354330708661
 20
-1.5230433070866143
 30
0.0
 10
0.5750354330708661
 20
-1.5230433070866143
 30
0.0
 10
0.5798425196850394
 20
-1.5313307086614174
 30
0.0
 10
0.5798425196850394
 20
-1.5313307086614174
 30
0.0
 10
0.5798425196850394
 20
-1.5313307086614174
 30
0.0
 10
0.5798425196850394
 20
-1.5313307086614174
 30
0.0
 10
0.5852125984251969
 20
-1.5393346456692913
 30
0.0
 10
0.5852125984251969
 20
-1.5393346456692913
 30
0.0
 10
0.5852125984251969
 20
-1.5393346456692913
 30
0.0
 10
0.5852125984251969
 20
-1.5393346456692913
 30
0.0
 10
0.5911496062992127
 20
-1.5470354330708662
 30
0.0
 10
0.5911496062992127
 20
-1.5470354330708662
 30
0.0
 10
0.5911496062992127
 20
-1.5470354330708662
 30
0.0
 10
0.5911496062992127
 20
-1.5470354330708662
 30
0.0
 10
0.5976850393700788
 20
-1.5544370078740157
 30
0.0
 10
0.5976850393700788
 20
-1.5544370078740157
 30
0.0
 10
0.5976850393700788
 20
-1.5544370078740157
 30
0.0
 10
0.5976850393700788
 20
-1.5544370078740157
 30
0.0
 10
0.6048385826771654
 20
-1.5615314960629922
 30
0.0
 10
0.6048385826771654
 20
-1.5615314960629922
 30
0.0
 10
0.6048385826771654
 20
-1.5615314960629922
 30
0.0
 10
0.6048385826771654
 20
-1.5615314960629922
 30
0.0
 10
0.6126377952755906
 20
-1.5683149606299214
 30
0.0
 10
0.6126377952755906
 20
-1.5683149606299214
 30
0.0
 10
0.6126377952755906
 20
-1.5683149606299214
 30
0.0
 10
0.6126377952755906
 20
-1.5683149606299214
 30
0.0
 10
0.6210826771653544
 20
-1.5747716535433072
 30
0.0
 10
0.6210826771653544
 20
-1.5747716535433072
 30
0.0
 10
0.6210826771653544
 20
-1.5747716535433072
 30
0.0
 10
0.6210826771653544
 20
-1.5747716535433072
 30
0.0
 10
0.6302165354330709
 20
-1.5809015748031496
 30
0.0
 10
0.6302165354330709
 20
-1.5809015748031496
 30
0.0
 10
0.6302165354330709
 20
-1.5809015748031496
 30
0.0
 10
0.6302165354330709
 20
-1.5809015748031496
 30
0.0
 10
0.6400511811023623
 20
-1.5867007874015748
 30
0.0
 10
0.6400511811023623
 20
-1.5867007874015748
 30
0.0
 10
0.6400511811023623
 20
-1.5867007874015748
 30
0.0
 10
0.6400511811023623
 20
-1.5867007874015748
 30
0.0
 10
0.6506141732283465
 20
-1.5921692913385828
 30
0.0
 10
0.6506141732283465
 20
-1.5921692913385828
 30
0.0
 10
0.6506141732283465
 20
-1.5921692913385828
 30
0.0
 10
0.6506141732283465
 20
-1.5921692913385828
 30
0.0
 10
0.6619133858267717
 20
-1.5972874015748033
 30
0.0
 10
0.6619133858267717
 20
-1.5972874015748033
 30
0.0
 10
0.6619133858267717
 20
-1.5972874015748033
 30
0.0
 10
0.6619133858267717
 20
-1.5972874015748033
 30
0.0
 10
0.673984251968504
 20
-1.6020590551181102
 30
0.0
 10
0.673984251968504
 20
-1.6020590551181102
 30
0.0
 10
0.673984251968504
 20
-1.6020590551181102
 30
0.0
 10
0.673984251968504
 20
-1.6020590551181102
 30
0.0
 10
0.6868385826771654
 20
-1.606476377952756
 30
0.0
 10
0.6868385826771654
 20
-1.606476377952756
 30
0.0
 10
0.6868385826771654
 20
-1.606476377952756
 30
0.0
 10
0.6868385826771654
 20
-1.606476377952756
 30
0.0
 10
0.7005078740157481
 20
-1.6105354330708661
 30
0.0
 10
0.7005078740157481
 20
-1.6105354330708661
 30
0.0
 10
0.7005078740157481
 20
-1.6105354330708661
 30
0.0
 10
0.7005078740157481
 20
-1.6105354330708661
 30
0.0
 10
0.714996062992126
 20
-1.614220472440945
 30
0.0
 10
0.714996062992126
 20
-1.614220472440945
 30
0.0
 10
0.714996062992126
 20
-1.614220472440945
 30
0.0
 10
0.714996062992126
 20
-1.614220472440945
 30
0.0
 10
0.7303425196850394
 20
-1.6175354330708662
 30
0.0
 10
0.7303425196850394
 20
-1.6175354330708662
 30
0.0
 10
0.7303425196850394
 20
-1.6175354330708662
 30
0.0
 10
0.7303425196850394
 20
-1.6175354330708662
 30
0.0
 10
0.7465590551181103
 20
-1.6204724409448819
 30
0.0
 10
0.7465590551181103
 20
-1.6204724409448819
 30
0.0
 10
0.7465590551181103
 20
-1.6204724409448819
 30
0.0
 10
0.7465590551181103
 20
-1.6204724409448819
 30
0.0
 10
0.7636771653543307
 20
-1.6230314960629921
 30
0.0
 10
0.7636771653543307
 20
-1.6230314960629921
 30
0.0
 10
0.7636771653543307
 20
-1.6230314960629921
 30
0.0
 10
0.7636771653543307
 20
-1.6230314960629921
 30
0.0
 10
0.7816968503937009
 20
-1.6251889763779528
 30
0.0
 10
0.7816968503937009
 20
-1.6251889763779528
 30
0.0
 10
0.7816968503937009
 20
-1.6251889763779528
 30
0.0
 10
0.7816968503937009
 20
-1.6251889763779528
 30
0.0
 10
0.8006614173228347
 20
-1.6269566929133858
 30
0.0
 10
0.8006614173228347
 20
-1.6269566929133858
 30
0.0
 10
0.8006614173228347
 20
-1.6269566929133858
 30
0.0
 10
0.8006614173228347
 20
-1.6269566929133858
 30
0.0
 10
0.8205826771653544
 20
-1.6283188976377954
 30
0.0
 10
0.8205826771653544
 20
-1.6283188976377954
 30
0.0
 10
0.8205826771653544
 20
-1.6283188976377954
 30
0.0
 10
0.8205826771653544
 20
-1.6283188976377954
 30
0.0
 10
0.841484251968504
 20
-1.6292795275590553
 30
0.0
 10
0.841484251968504
 20
-1.6292795275590553
 30
0.0
  0
SPLINE
  5
55
100
AcDbEntity
  8
P1-Layer 1
 62
   253
100
AcDbSpline
210
0.0
220
0.0
230
1.0
 70
     1
 71
     3
 72
    20
 73
    16
 74
     0
 42
0.0000000001
 43
0.0000000001
 40
0.0
 40
0.0
 40
0.0
 40
0.0
 40
0.25
 40
0.25
 40
0.25
 40
0.25
 40
0.5
 40
0.5
 40
0.5
 40
0.5
 40
0.75
 40
0.75
 40
0.75
 40
0.75
 40
1.0
 40
1.0
 40
1.0
 40
1.0
 10
0.5526968503937008
 20
-1.4255
 30
0.0
 10
0.5526968503937008
 20
-1.4255
 30
0.0
 10
0.551724409448819
 20
-0.6721535433070867
 30
0.0
 10
0.551724409448819
 20
-0.6721535433070867
 30
0.0
 10
0.551724409448819
 20
-0.6721535433070867
 30
0.0
 10
0.551724409448819
 20
-0.6721535433070867
 30
0.0
 10
0.4012047244094488
 20
-0.6721535433070867
 30
0.0
 10
0.4012047244094488
 20
-0.6721535433070867
 30
0.0
 10
0.4012047244094488
 20
-0.6721535433070867
 30
0.0
 10
0.4012047244094488
 20
-0.6721535433070867
 30
0.0
 10
0.4021771653543307
 20
-1.4255
 30
0.0
 10
0.4021771653543307
 20
-1.4255
 30
0.0
 10
0.4021771653543307
 20
-1.4255
 30
0.0
 10
0.4021771653543307
 20
-1.4255
 30
0.0
 10
0.5526968503937008
 20
-1.4255
 30
0.0
 10
0.5526968503937008
 20
-1.4255
 30
0.0
  0
SPLINE
  5
56
100
AcDbEntity
  8
P1-Layer 1
370
     5
100
AcDbSpline
210
0.0
220
0.0
230
1.0
 70
     1
 71
     3
 72
    20
 73
    16
 74
     0
 42
0.0000000001
 43
0.0000000001
 40
0.0
 40
0.0
 40
0.0
 40
0.0
 40
0.25
 40
0.25
 40
0.25
 40
0.25
 40
0.5
 40
0.5
 40
0.5
 40
0.5
 40
0.75
 40
0.75
 40
0.75
 40
0.75
 40
1.0
 40
1.0
 40
1.0
 40
1.0
 10
0.5526968503937008
 20
-1.4255
 30
0.0
 10
0.5526968503937008
 20
-1.4255
 30
0.0
 10
0.551724409448819
 20
-0.6721535433070867
 30
0.0
 10
0.551724409448819
 20
-0.6721535433070867
 30
0.0
 10
0.551724409448819
 20
-0.6721535433070867
 30
0.0
 10
0.551724409448819
 20
-0.6721535433070867
 30
0.0
 10
0.4012047244094488
 20
-0.6721535433070867
 30
0.0
 10
0.4012047244094488
 20
-0.6721535433070867
 30
0.0
 10
0.4012047244094488
 20
-0.6721535433070867
 30
0.0
 10
0.4012047244094488
 20
-0.6721535433070867
 30
0.0
 10
0.4021771653543307
 20
-1.4255
 30
0.0
 10
0.4021771653543307
 20
-1.4255
 30
0.0
 10
0.4021771653543307
 20
-1.4255
 30
0.0
 10
0.4021771653543307
 20
-1.4255
 30
0.0
 10
0.5526968503937008
 20
-1.4255
 30
0.0
 10
0.5526968503937008
 20
-1.4255
 30
0.0
  0
SPLINE
  5
57
100
AcDbEntity
  8
P1-Layer 1
 62
     9
100
AcDbSpline
210
0.0
220
0.0
230
1.0
 70
     1
 71
     3
 72
    28
 73
    24
 74
     0
 42
0.0000000001
 43
0.0000000001
 40
0.0
 40
0.0
 40
0.0
 40
0.0
 40
0.1666666666666667
 40
0.1666666666666667
 40
0.1666666666666667
 40
0.1666666666666667
 40
0.3333333333333333
 40
0.3333333333333333
 40
0.3333333333333333
 40
0.3333333333333333
 40
0.5
 40
0.5
 40
0.5
 40
0.5
 40
0.6666666666666666
 40
0.6666666666666666
 40
0.6666666666666666
 40
0.6666666666666666
 40
0.8333333333333333
 40
0.8333333333333333
 40
0.8333333333333333
 40
0.8333333333333333
 40
1.0
 40
1.0
 40
1.0
 40
1.0
 10
0.4021771653543307
 20
-1.4255
 30
0.0
 10
0.4021771653543307
 20
-1.4255
 30
0.0
 10
0.4012047244094488
 20
-0.6721535433070867
 30
0.0
 10
0.4012047244094488
 20
-0.6721535433070867
 30
0.0
 10
0.4012047244094488
 20
-0.6721535433070867
 30
0.0
 10
0.4012047244094488
 20
-0.6721535433070867
 30
0.0
 10
0.3950984251968504
 20
-0.6543425196850394
 30
0.0
 10
0.3950984251968504
 20
-0.6543425196850394
 30
0.0
 10
0.3950984251968504
 20
-0.6543425196850394
 30
0.0
 10
0.3950984251968504
 20
-0.6543425196850394
 30
0.0
 10
0.3885354330708661
 20
-0.6379488188976378
 30
0.0
 10
0.3885354330708661
 20
-0.6379488188976378
 30
0.0
 10
0.3885354330708661
 20
-0.6379488188976378
 30
0.0
 10
0.3885354330708661
 20
-0.6379488188976378
 30
0.0
 10
0.3895078740157481
 20
-1.3912952755905512
 30
0.0
 10
0.3895078740157481
 20
-1.3912952755905512
 30
0.0
 10
0.3895078740157481
 20
-1.3912952755905512
 30
0.0
 10
0.3895078740157481
 20
-1.3912952755905512
 30
0.0
 10
0.3960708661417323
 20
-1.4076889763779528
 30
0.0
 10
0.3960708661417323
 20
-1.4076889763779528
 30
0.0
 10
0.3960708661417323
 20
-1.4076889763779528
 30
0.0
 10
0.3960708661417323
 20
-1.4076889763779528
 30
0.0
 10
0.4021771653543307
 20
-1.4255
 30
0.0
 10
0.4021771653543307
 20
-1.4255
 30
0.0
  0
SPLINE
  5
58
100
AcDbEntity
  8
P1-Layer 1
 62
     9
100
AcDbSpline
210
0.0
220
0.0
230
1.0
 70
     1
 71
     3
 72
    36
 73
    32
 74
     0
 42
0.0000000001
 43
0.0000000001
 40
0.0
 40
0.0
 40
0.0
 40
0.0
 40
0.125
 40
0.125
 40
0.125
 40
0.125
 40
0.25
 40
0.25
 40
0.25
 40
0.25
 40
0.375
 40
0.375
 40
0.375
 40
0.375
 40
0.5
 40
0.5
 40
0.5
 40
0.5
 40
0.625
 40
0.625
 40
0.625
 40
0.625
 40
0.75
 40
0.75
 40
0.75
 40
0.75
 40
0.875
 40
0.875
 40
0.875
 40
0.875
 40
1.0
 40
1.0
 40
1.0
 40
1.0
 10
0.3895078740157481
 20
-1.3912952755905512
 30
0.0
 10
0.3895078740157481
 20
-1.3912952755905512
 30
0.0
 10
0.3885354330708661
 20
-0.6379488188976378
 30
0.0
 10
0.3885354330708661
 20
-0.6379488188976378
 30
0.0
 10
0.3885354330708661
 20
-0.6379488188976378
 30
0.0
 10
0.3885354330708661
 20
-0.6379488188976378
 30
0.0
 10
0.3815236220472441
 20
-0.6229094488188977
 30
0.0
 10
0.3815236220472441
 20
-0.6229094488188977
 30
0.0
 10
0.3815236220472441
 20
-0.6229094488188977
 30
0.0
 10
0.3815236220472441
 20
-0.6229094488188977
 30
0.0
 10
0.3740905511811024
 20
-0.6091929133858268
 30
0.0
 10
0.3740905511811024
 20
-0.6091929133858268
 30
0.0
 10
0.3740905511811024
 20
-0.6091929133858268
 30
0.0
 10
0.3740905511811024
 20
-0.6091929133858268
 30
0.0
 10
0.3662283464566929
 20
-0.596732283464567
 30
0.0
 10
0.3662283464566929
 20
-0.596732283464567
 30
0.0
 10
0.3662283464566929
 20
-0.596732283464567
 30
0.0
 10
0.3662283464566929
 20
-0.596732283464567
 30
0.0
 10
0.3672007874015748
 20
-1.3500787401574803
 30
0.0
 10
0.3672007874015748
 20
-1.3500787401574803
 30
0.0
 10
0.3672007874015748
 20
-1.3500787401574803
 30
0.0
 10
0.3672007874015748
 20
-1.3500787401574803
 30
0.0
 10
0.3750629921259843
 20
-1.3625393700787403
 30
0.0
 10
0.3750629921259843
 20
-1.3625393700787403
 30
0.0
 10
0.3750629921259843
 20
-1.3625393700787403
 30
0.0
 10
0.3750629921259843
 20
-1.3625393700787403
 30
0.0
 10
0.382496062992126
 20
-1.3762559055118111
 30
0.0
 10
0.382496062992126
 20
-1.3762559055118111
 30
0.0
 10
0.382496062992126
 20
-1.3762559055118111
 30
0.0
 10
0.382496062992126
 20
-1.3762559055118111
 30
0.0
 10
0.3895078740157481
 20
-1.3912952755905512
 30
0.0
 10
0.3895078740157481
 20
-1.3912952755905512
 30
0.0
  0
SPLINE
  5
59
100
AcDbEntity
  8
P1-Layer 1
 62
     9
100
AcDbSpline
210
0.0
220
0.0
230
1.0
 70
     1
 71
     3
 72
    36
 73
    32
 74
     0
 42
0.0000000001
 43
0.0000000001
 40
0.0
 40
0.0
 40
0.0
 40
0.0
 40
0.125
 40
0.125
 40
0.125
 40
0.125
 40
0.25
 40
0.25
 40
0.25
 40
0.25
 40
0.375
 40
0.375
 40
0.375
 40
0.375
 40
0.5
 40
0.5
 40
0.5
 40
0.5
 40
0.625
 40
0.625
 40
0.625
 40
0.625
 40
0.75
 40
0.75
 40
0.75
 40
0.75
 40
0.875
 40
0.875
 40
0.875
 40
0.875
 40
1.0
 40
1.0
 40
1.0
 40
1.0
 10
0.3672007874015748
 20
-1.3500787401574803
 30
0.0
 10
0.3672007874015748
 20
-1.3500787401574803
 30
0.0
 10
0.3662283464566929
 20
-0.596732283464567
 30
0.0
 10
0.3662283464566929
 20
-0.596732283464567
 30
0.0
 10
0.3662283464566929
 20
-0.596732283464567
 30
0.0
 10
0.3662283464566929
 20
-0.596732283464567
 30
0.0
 10
0.3579645669291339
 20
-0.5855
 30
0.0
 10
0.3579645669291339
 20
-0.5855
 30
0.0
 10
0.3579645669291339
 20
-0.5855
 30
0.0
 10
0.3579645669291339
 20
-0.5855
 30
0.0
 10
0.3493070866141733
 20
-0.5754370078740158
 30
0.0
 10
0.3493070866141733
 20
-0.5754370078740158
 30
0.0
 10
0.3493070866141733
 20
-0.5754370078740158
 30
0.0
 10
0.3493070866141733
 20
-0.5754370078740158
 30
0.0
 10
0.3402755905511811
 20
-0.5665078740157481
 30
0.0
 10
0.3402755905511811
 20
-0.5665078740157481
 30
0.0
 10
0.3402755905511811
 20
-0.5665078740157481
 30
0.0
 10
0.3402755905511811
 20
-0.5665078740157481
 30
0.0
 10
0.341248031496063
 20
-1.3198543307086614
 30
0.0
 10
0.341248031496063
 20
-1.3198543307086614
 30
0.0
 10
0.341248031496063
 20
-1.3198543307086614
 30
0.0
 10
0.341248031496063
 20
-1.3198543307086614
 30
0.0
 10
0.3502795275590551
 20
-1.3287834645669292
 30
0.0
 10
0.3502795275590551
 20
-1.3287834645669292
 30
0.0
 10
0.3502795275590551
 20
-1.3287834645669292
 30
0.0
 10
0.3502795275590551
 20
-1.3287834645669292
 30
0.0
 10
0.3589370078740158
 20
-1.3388464566929135
 30
0.0
 10
0.3589370078740158
 20
-1.3388464566929135
 30
0.0
 10
0.3589370078740158
 20
-1.3388464566929135
 30
0.0
 10
0.3589370078740158
 20
-1.3388464566929135
 30
0.0
 10
0.3672007874015748
 20
-1.3500787401574803
 30
0.0
 10
0.3672007874015748
 20
-1.3500787401574803
 30
0.0
  0
SPLINE
  5
5A
100
AcDbEntity
  8
P1-Layer 1
 62
   253
100
AcDbSpline
210
0.0
220
0.0
230
1.0
 70
     1
 71
     3
 72
    44
 73
    40
 74
     0
 42
0.0000000001
 43
0.0000000001
 40
0.0
 40
0.0
 40
0.0
 40
0.0
 40
0.1
 40
0.1
 40
0.1
 40
0.1
 40
0.2
 40
0.2
 40
0.2
 40
0.2
 40
0.3
 40
0.3
 40
0.3
 40
0.3
 40
0.4
 40
0.4
 40
0.4
 40
0.4
 40
0.5
 40
0.5
 40
0.5
 40
0.5
 40
0.6
 40
0.6
 40
0.6
 40
0.6
 40
0.7
 40
0.7
 40
0.7
 40
0.7
 40
0.7999999999999999
 40
0.7999999999999999
 40
0.7999999999999999
 40
0.7999999999999999
 40
0.8999999999999999
 40
0.8999999999999999
 40
0.8999999999999999
 40
0.8999999999999999
 40
1.0
 40
1.0
 40
1.0
 40
1.0
 10
0.341248031496063
 20
-1.3198543307086614
 30
0.0
 10
0.341248031496063
 20
-1.3198543307086614
 30
0.0
 10
0.3402755905511811
 20
-0.5665078740157481
 30
0.0
 10
0.3402755905511811
 20
-0.5665078740157481
 30
0.0
 10
0.3402755905511811
 20
-0.5665078740157481
 30
0.0
 10
0.3402755905511811
 20
-0.5665078740157481
 30
0.0
 10
0.3308661417322835
 20
-0.5586496062992126
 30
0.0
 10
0.3308661417322835
 20
-0.5586496062992126
 30
0.0
 10
0.3308661417322835
 20
-0.5586496062992126
 30
0.0
 10
0.3308661417322835
 20
-0.5586496062992126
 30
0.0
 10
0.3211141732283465
 20
-0.5518346456692914
 30
0.0
 10
0.3211141732283465
 20
-0.5518346456692914
 30
0.0
 10
0.3211141732283465
 20
-0.5518346456692914
 30
0.0
 10
0.3211141732283465
 20
-0.5518346456692914
 30
0.0
 10
0.3110196850393701
 20
-0.545996062992126
 30
0.0
 10
0.3110196850393701
 20
-0.545996062992126
 30
0.0
 10
0.3110196850393701
 20
-0.545996062992126
 30
0.0
 10
0.3110196850393701
 20
-0.545996062992126
 30
0.0
 10
0.3006062992125985
 20
-0.5411102362204725
 30
0.0
 10
0.3006062992125985
 20
-0.5411102362204725
 30
0.0
 10
0.3006062992125985
 20
-0.5411102362204725
 30
0.0
 10
0.3006062992125985
 20
-0.5411102362204725
 30
0.0
 10
0.3015787401574803
 20
-1.2944566929133858
 30
0.0
 10
0.3015787401574803
 20
-1.2944566929133858
 30
0.0
 10
0.3015787401574803
 20
-1.2944566929133858
 30
0.0
 10
0.3015787401574803
 20
-1.2944566929133858
 30
0.0
 10
0.311992125984252
 20
-1.2993425196850394
 30
0.0
 10
0.311992125984252
 20
-1.2993425196850394
 30
0.0
 10
0.311992125984252
 20
-1.2993425196850394
 30
0.0
 10
0.311992125984252
 20
-1.2993425196850394
 30
0.0
 10
0.3220866141732284
 20
-1.3051811023622049
 30
0.0
 10
0.3220866141732284
 20
-1.3051811023622049
 30
0.0
 10
0.3220866141732284
 20
-1.3051811023622049
 30
0.0
 10
0.3220866141732284
 20
-1.3051811023622049
 30
0.0
 10
0.3318385826771654
 20
-1.3119960629921261
 30
0.0
 10
0.3318385826771654
 20
-1.3119960629921261
 30
0.0
 10
0.3318385826771654
 20
-1.3119960629921261
 30
0.0
 10
0.3318385826771654
 20
-1.3119960629921261
 30
0.0
 10
0.341248031496063
 20
-1.3198543307086614
 30
0.0
 10
0.341248031496063
 20
-1.3198543307086614
 30
0.0
  0
SPLINE
  5
5B
100
AcDbEntity
  8
P1-Layer 1
 62
   253
100
AcDbSpline
210
0.0
220
0.0
230
1.0
 70
     1
 71
     3
 72
    44
 73
    40
 74
     0
 42
0.0000000001
 43
0.0000000001
 40
0.0
 40
0.0
 40
0.0
 40
0.0
 40
0.1
 40
0.1
 40
0.1
 40
0.1
 40
0.2
 40
0.2
 40
0.2
 40
0.2
 40
0.3
 40
0.3
 40
0.3
 40
0.3
 40
0.4
 40
0.4
 40
0.4
 40
0.4
 40
0.5
 40
0.5
 40
0.5
 40
0.5
 40
0.6
 40
0.6
 40
0.6
 40
0.6
 40
0.7
 40
0.7
 40
0.7
 40
0.7
 40
0.7999999999999999
 40
0.7999999999999999
 40
0.7999999999999999
 40
0.7999999999999999
 40
0.8999999999999999
 40
0.8999999999999999
 40
0.8999999999999999
 40
0.8999999999999999
 40
1.0
 40
1.0
 40
1.0
 40
1.0
 10
0.3015787401574803
 20
-1.2944566929133858
 30
0.0
 10
0.3015787401574803
 20
-1.2944566929133858
 30
0.0
 10
0.3006062992125985
 20
-0.5411102362204725
 30
0.0
 10
0.3006062992125985
 20
-0.5411102362204725
 30
0.0
 10
0.3006062992125985
 20
-0.5411102362204725
 30
0.0
 10
0.3006062992125985
 20
-0.5411102362204725
 30
0.0
 10
0.2898700787401575
 20
-0.5371102362204725
 30
0.0
 10
0.2898700787401575
 20
-0.5371102362204725
 30
0.0
 10
0.2898700787401575
 20
-0.5371102362204725
 30
0.0
 10
0.2898700787401575
 20
-0.5371102362204725
 30
0.0
 10
0.2788425196850394
 20
-0.5339645669291339
 30
0.0
 10
0.2788425196850394
 20
-0.5339645669291339
 30
0.0
 10
0.2788425196850394
 20
-0.5339645669291339
 30
0.0
 10
0.2788425196850394
 20
-0.5339645669291339
 30
0.0
 10
0.2675236220472441
 20
-0.5316181102362205
 30
0.0
 10
0.2675236220472441
 20
-0.5316181102362205
 30
0.0
 10
0.2675236220472441
 20
-0.5316181102362205
 30
0.0
 10
0.2675236220472441
 20
-0.5316181102362205
 30
0.0
 10
0.2559409448818898
 20
-0.5300275590551181
 30
0.0
 10
0.2559409448818898
 20
-0.5300275590551181
 30
0.0
 10
0.2559409448818898
 20
-0.5300275590551181
 30
0.0
 10
0.2559409448818898
 20
-0.5300275590551181
 30
0.0
 10
0.2569133858267717
 20
-1.2833740157480316
 30
0.0
 10
0.2569133858267717
 20
-1.2833740157480316
 30
0.0
 10
0.2569133858267717
 20
-1.2833740157480316
 30
0.0
 10
0.2569133858267717
 20
-1.2833740157480316
 30
0.0
 10
0.268496062992126
 20
-1.2849645669291339
 30
0.0
 10
0.268496062992126
 20
-1.2849645669291339
 30
0.0
 10
0.268496062992126
 20
-1.2849645669291339
 30
0.0
 10
0.268496062992126
 20
-1.2849645669291339
 30
0.0
 10
0.2798149606299213
 20
-1.2873110236220473
 30
0.0
 10
0.2798149606299213
 20
-1.2873110236220473
 30
0.0
 10
0.2798149606299213
 20
-1.2873110236220473
 30
0.0
 10
0.2798149606299213
 20
-1.2873110236220473
 30
0.0
 10
0.2908425196850394
 20
-1.2904566929133858
 30
0.0
 10
0.2908425196850394
 20
-1.2904566929133858
 30
0.0
 10
0.2908425196850394
 20
-1.2904566929133858
 30
0.0
 10
0.2908425196850394
 20
-1.2904566929133858
 30
0.0
 10
0.3015787401574803
 20
-1.2944566929133858
 30
0.0
 10
0.3015787401574803
 20
-1.2944566929133858
 30
0.0
  0
SPLINE
  5
5C
100
AcDbEntity
  8
P1-Layer 1
 62
   253
100
AcDbSpline
210
0.0
220
0.0
230
1.0
 70
     1
 71
     3
 72
    44
 73
    40
 74
     0
 42
0.0000000001
 43
0.0000000001
 40
0.0
 40
0.0
 40
0.0
 40
0.0
 40
0.1
 40
0.1
 40
0.1
 40
0.1
 40
0.2
 40
0.2
 40
0.2
 40
0.2
 40
0.3
 40
0.3
 40
0.3
 40
0.3
 40
0.4
 40
0.4
 40
0.4
 40
0.4
 40
0.5
 40
0.5
 40
0.5
 40
0.5
 40
0.6
 40
0.6
 40
0.6
 40
0.6
 40
0.7
 40
0.7
 40
0.7
 40
0.7
 40
0.7999999999999999
 40
0.7999999999999999
 40
0.7999999999999999
 40
0.7999999999999999
 40
0.8999999999999999
 40
0.8999999999999999
 40
0.8999999999999999
 40
0.8999999999999999
 40
1.0
 40
1.0
 40
1.0
 40
1.0
 10
0.2569133858267717
 20
-1.2833740157480316
 30
0.0
 10
0.2569133858267717
 20
-1.2833740157480316
 30
0.0
 10
0.2559409448818898
 20
-0.5300275590551181
 30
0.0
 10
0.2559409448818898
 20
-0.5300275590551181
 30
0.0
 10
0.2559409448818898
 20
-0.5300275590551181
 30
0.0
 10
0.2559409448818898
 20
-0.5300275590551181
 30
0.0
 10
0.2440866141732284
 20
-0.5291338582677165
 30
0.0
 10
0.2440866141732284
 20
-0.5291338582677165
 30
0.0
 10
0.2440866141732284
 20
-0.5291338582677165
 30
0.0
 10
0.2440866141732284
 20
-0.5291338582677165
 30
0.0
 10
0.231996062992126
 20
-0.5289133858267717
 30
0.0
 10
0.231996062992126
 20
-0.5289133858267717
 30
0.0
 10
0.231996062992126
 20
-0.5289133858267717
 30
0.0
 10
0.231996062992126
 20
-0.5289133858267717
 30
0.0
 10
0.2196692913385827
 20
-0.5293070866141733
 30
0.0
 10
0.2196692913385827
 20
-0.5293070866141733
 30
0.0
 10
0.2196692913385827
 20
-0.5293070866141733
 30
0.0
 10
0.2196692913385827
 20
-0.5293070866141733
 30
0.0
 10
0.2071259842519685
 20
-0.5302677165354331
 30
0.0
 10
0.2071259842519685
 20
-0.5302677165354331
 30
0.0
 10
0.2071259842519685
 20
-0.5302677165354331
 30
0.0
 10
0.2071259842519685
 20
-0.5302677165354331
 30
0.0
 10
0.2080984251968504
 20
-1.2836141732283466
 30
0.0
 10
0.2080984251968504
 20
-1.2836141732283466
 30
0.0
 10
0.2080984251968504
 20
-1.2836141732283466
 30
0.0
 10
0.2080984251968504
 20
-1.2836141732283466
 30
0.0
 10
0.2206417322834646
 20
-1.2826535433070867
 30
0.0
 10
0.2206417322834646
 20
-1.2826535433070867
 30
0.0
 10
0.2206417322834646
 20
-1.2826535433070867
 30
0.0
 10
0.2206417322834646
 20
-1.2826535433070867
 30
0.0
 10
0.2329685039370079
 20
-1.2822598425196852
 30
0.0
 10
0.2329685039370079
 20
-1.2822598425196852
 30
0.0
 10
0.2329685039370079
 20
-1.2822598425196852
 30
0.0
 10
0.2329685039370079
 20
-1.2822598425196852
 30
0.0
 10
0.2450590551181102
 20
-1.2824803149606299
 30
0.0
 10
0.2450590551181102
 20
-1.2824803149606299
 30
0.0
 10
0.2450590551181102
 20
-1.2824803149606299
 30
0.0
 10
0.2450590551181102
 20
-1.2824803149606299
 30
0.0
 10
0.2569133858267717
 20
-1.2833740157480316
 30
0.0
 10
0.2569133858267717
 20
-1.2833740157480316
 30
0.0
  0
SPLINE
  5
5D
100
AcDbEntity
  8
P1-Layer 1
 62
   253
100
AcDbSpline
210
0.0
220
0.0
230
1.0
 70
     1
 71
     3
 72
    36
 73
    32
 74
     0
 42
0.0000000001
 43
0.0000000001
 40
0.0
 40
0.0
 40
0.0
 40
0.0
 40
0.125
 40
0.125
 40
0.125
 40
0.125
 40
0.25
 40
0.25
 40
0.25
 40
0.25
 40
0.375
 40
0.375
 40
0.375
 40
0.375
 40
0.5
 40
0.5
 40
0.5
 40
0.5
 40
0.625
 40
0.625
 40
0.625
 40
0.625
 40
0.75
 40
0.75
 40
0.75
 40
0.75
 40
0.875
 40
0.875
 40
0.875
 40
0.875
 40
1.0
 40
1.0
 40
1.0
 40
1.0
 10
0.2080984251968504
 20
-1.2836141732283466
 30
0.0
 10
0.2080984251968504
 20
-1.2836141732283466
 30
0.0
 10
0.2071259842519685
 20
-0.5302677165354331
 30
0.0
 10
0.2071259842519685
 20
-0.5302677165354331
 30
0.0
 10
0.2071259842519685
 20
-0.5302677165354331
 30
0.0
 10
0.2071259842519685
 20
-0.5302677165354331
 30
0.0
 10
0.1943740157480315
 20
-0.531748031496063
 30
0.0
 10
0.1943740157480315
 20
-0.531748031496063
 30
0.0
 10
0.1943740157480315
 20
-0.531748031496063
 30
0.0
 10
0.1943740157480315
 20
-0.531748031496063
 30
0.0
 10
0.1814330708661417
 20
-0.5337007874015748
 30
0.0
 10
0.1814330708661417
 20
-0.5337007874015748
 30
0.0
 10
0.1814330708661417
 20
-0.5337007874015748
 30
0.0
 10
0.1814330708661417
 20
-0.5337007874015748
 30
0.0
 10
0.1683110236220473
 20
-0.5360866141732283
 30
0.0
 10
0.1683110236220473
 20
-0.5360866141732283
 30
0.0
 10
0.1683110236220473
 20
-0.5360866141732283
 30
0.0
 10
0.1683110236220473
 20
-0.5360866141732283
 30
0.0
 10
0.1692834645669291
 20
-1.2894330708661417
 30
0.0
 10
0.1692834645669291
 20
-1.2894330708661417
 30
0.0
 10
0.1692834645669291
 20
-1.2894330708661417
 30
0.0
 10
0.1692834645669291
 20
-1.2894330708661417
 30
0.0
 10
0.1824055118110236
 20
-1.2870472440944882
 30
0.0
 10
0.1824055118110236
 20
-1.2870472440944882
 30
0.0
 10
0.1824055118110236
 20
-1.2870472440944882
 30
0.0
 10
0.1824055118110236
 20
-1.2870472440944882
 30
0.0
 10
0.1953464566929134
 20
-1.2850944881889765
 30
0.0
 10
0.1953464566929134
 20
-1.2850944881889765
 30
0.0
 10
0.1953464566929134
 20
-1.2850944881889765
 30
0.0
 10
0.1953464566929134
 20
-1.2850944881889765
 30
0.0
 10
0.2080984251968504
 20
-1.2836141732283466
 30
0.0
 10
0.2080984251968504
 20
-1.2836141732283466
 30
0.0
  0
SPLINE
  5
5E
100
AcDbEntity
  8
P1-Layer 1
 62
   253
100
AcDbSpline
210
0.0
220
0.0
230
1.0
 70
     1
 71
     3
 72
    36
 73
    32
 74
     0
 42
0.0000000001
 43
0.0000000001
 40
0.0
 40
0.0
 40
0.0
 40
0.0
 40
0.125
 40
0.125
 40
0.125
 40
0.125
 40
0.25
 40
0.25
 40
0.25
 40
0.25
 40
0.375
 40
0.375
 40
0.375
 40
0.375
 40
0.5
 40
0.5
 40
0.5
 40
0.5
 40
0.625
 40
0.625
 40
0.625
 40
0.625
 40
0.75
 40
0.75
 40
0.75
 40
0.75
 40
0.875
 40
0.875
 40
0.875
 40
0.875
 40
1.0
 40
1.0
 40
1.0
 40
1.0
 10
0.1692834645669291
 20
-1.2894330708661417
 30
0.0
 10
0.1692834645669291
 20
-1.2894330708661417
 30
0.0
 10
0.1683110236220473
 20
-0.5360866141732283
 30
0.0
 10
0.1683110236220473
 20
-0.5360866141732283
 30
0.0
 10
0.1683110236220473
 20
-0.5360866141732283
 30
0.0
 10
0.1683110236220473
 20
-0.5360866141732283
 30
0.0
 10
0.1550275590551181
 20
-0.5388543307086614
 30
0.0
 10
0.1550275590551181
 20
-0.5388543307086614
 30
0.0
 10
0.1550275590551181
 20
-0.5388543307086614
 30
0.0
 10
0.1550275590551181
 20
-0.5388543307086614
 30
0.0
 10
0.1415826771653543
 20
-0.5419527559055118
 30
0.0
 10
0.1415826771653543
 20
-0.5419527559055118
 30
0.0
 10
0.1415826771653543
 20
-0.5419527559055118
 30
0.0
 10
0.1415826771653543
 20
-0.5419527559055118
 30
0.0
 10
0.128003937007874
 20
-0.5453464566929134
 30
0.0
 10
0.128003937007874
 20
-0.5453464566929134
 30
0.0
 10
0.128003937007874
 20
-0.5453464566929134
 30
0.0
 10
0.128003937007874
 20
-0.5453464566929134
 30
0.0
 10
0.1289763779527559
 20
-1.2986929133858269
 30
0.0
 10
0.1289763779527559
 20
-1.2986929133858269
 30
0.0
 10
0.1289763779527559
 20
-1.2986929133858269
 30
0.0
 10
0.1289763779527559
 20
-1.2986929133858269
 30
0.0
 10
0.1425551181102362
 20
-1.2952992125984253
 30
0.0
 10
0.1425551181102362
 20
-1.2952992125984253
 30
0.0
 10
0.1425551181102362
 20
-1.2952992125984253
 30
0.0
 10
0.1425551181102362
 20
-1.2952992125984253
 30
0.0
 10
0.156
 20
-1.2922007874015748
 30
0.0
 10
0.156
 20
-1.2922007874015748
 30
0.0
 10
0.156
 20
-1.2922007874015748
 30
0.0
 10
0.156
 20
-1.2922007874015748
 30
0.0
 10
0.1692834645669291
 20
-1.2894330708661417
 30
0.0
 10
0.1692834645669291
 20
-1.2894330708661417
 30
0.0
  0
SPLINE
  5
5F
100
AcDbEntity
  8
P1-Layer 1
 62
   253
100
AcDbSpline
210
0.0
220
0.0
230
1.0
 70
     1
 71
     3
 72
    36
 73
    32
 74
     0
 42
0.0000000001
 43
0.0000000001
 40
0.0
 40
0.0
 40
0.0
 40
0.0
 40
0.125
 40
0.125
 40
0.125
 40
0.125
 40
0.25
 40
0.25
 40
0.25
 40
0.25
 40
0.375
 40
0.375
 40
0.375
 40
0.375
 40
0.5
 40
0.5
 40
0.5
 40
0.5
 40
0.625
 40
0.625
 40
0.625
 40
0.625
 40
0.75
 40
0.75
 40
0.75
 40
0.75
 40
0.875
 40
0.875
 40
0.875
 40
0.875
 40
1.0
 40
1.0
 40
1.0
 40
1.0
 10
0.1289763779527559
 20
-1.2986929133858269
 30
0.0
 10
0.1289763779527559
 20
-1.2986929133858269
 30
0.0
 10
0.128003937007874
 20
-0.5453464566929134
 30
0.0
 10
0.128003937007874
 20
-0.5453464566929134
 30
0.0
 10
0.128003937007874
 20
-0.5453464566929134
 30
0.0
 10
0.128003937007874
 20
-0.5453464566929134
 30
0.0
 10
0.1142992125984252
 20
-0.5489763779527559
 30
0.0
 10
0.1142992125984252
 20
-0.5489763779527559
 30
0.0
 10
0.1142992125984252
 20
-0.5489763779527559
 30
0.0
 10
0.1142992125984252
 20
-0.5489763779527559
 30
0.0
 10
0.1004842519685039
 20
-0.5528070866141732
 30
0.0
 10
0.1004842519685039
 20
-0.5528070866141732
 30
0.0
 10
0.1004842519685039
 20
-0.5528070866141732
 30
0.0
 10
0.1004842519685039
 20
-0.5528070866141732
 30
0.0
 10
0.0865669291338583
 20
-0.5567834645669292
 30
0.0
 10
0.0865669291338583
 20
-0.5567834645669292
 30
0.0
 10
0.0865669291338583
 20
-0.5567834645669292
 30
0.0
 10
0.0865669291338583
 20
-0.5567834645669292
 30
0.0
 10
0.0875393700787402
 20
-1.3101299212598425
 30
0.0
 10
0.0875393700787402
 20
-1.3101299212598425
 30
0.0
 10
0.0875393700787402
 20
-1.3101299212598425
 30
0.0
 10
0.0875393700787402
 20
-1.3101299212598425
 30
0.0
 10
0.1014566929133858
 20
-1.3061535433070868
 30
0.0
 10
0.1014566929133858
 20
-1.3061535433070868
 30
0.0
 10
0.1014566929133858
 20
-1.3061535433070868
 30
0.0
 10
0.1014566929133858
 20
-1.3061535433070868
 30
0.0
 10
0.1152716535433071
 20
-1.3023228346456694
 30
0.0
 10
0.1152716535433071
 20
-1.3023228346456694
 30
0.0
 10
0.1152716535433071
 20
-1.3023228346456694
 30
0.0
 10
0.1152716535433071
 20
-1.3023228346456694
 30
0.0
 10
0.1289763779527559
 20
-1.2986929133858269
 30
0.0
 10
0.1289763779527559
 20
-1.2986929133858269
 30
0.0
  0
SPLINE
  5
60
100
AcDbEntity
  8
P1-Layer 1
 62
   253
100
AcDbSpline
210
0.0
220
0.0
230
1.0
 70
     1
 71
     3
 72
    36
 73
    32
 74
     0
 42
0.0000000001
 43
0.0000000001
 40
0.0
 40
0.0
 40
0.0
 40
0.0
 40
0.125
 40
0.125
 40
0.125
 40
0.125
 40
0.25
 40
0.25
 40
0.25
 40
0.25
 40
0.375
 40
0.375
 40
0.375
 40
0.375
 40
0.5
 40
0.5
 40
0.5
 40
0.5
 40
0.625
 40
0.625
 40
0.625
 40
0.625
 40
0.75
 40
0.75
 40
0.75
 40
0.75
 40
0.875
 40
0.875
 40
0.875
 40
0.875
 40
1.0
 40
1.0
 40
1.0
 40
1.0
 10
0.0875393700787402
 20
-1.3101299212598425
 30
0.0
 10
0.0875393700787402
 20
-1.3101299212598425
 30
0.0
 10
0.0865669291338583
 20
-0.5567834645669292
 30
0.0
 10
0.0865669291338583
 20
-0.5567834645669292
 30
0.0
 10
0.0865669291338583
 20
-0.5567834645669292
 30
0.0
 10
0.0865669291338583
 20
-0.5567834645669292
 30
0.0
 10
0.0725708661417323
 20
-0.5608661417322834
 30
0.0
 10
0.0725708661417323
 20
-0.5608661417322834
 30
0.0
 10
0.0725708661417323
 20
-0.5608661417322834
 30
0.0
 10
0.0725708661417323
 20
-0.5608661417322834
 30
0.0
 10
0.058496062992126
 20
-0.5650000000000001
 30
0.0
 10
0.058496062992126
 20
-0.5650000000000001
 30
0.0
 10
0.058496062992126
 20
-0.5650000000000001
 30
0.0
 10
0.058496062992126
 20
-0.5650000000000001
 30
0.0
 10
0.0443700787401575
 20
-0.5691535433070867
 30
0.0
 10
0.0443700787401575
 20
-0.5691535433070867
 30
0.0
 10
0.0443700787401575
 20
-0.5691535433070867
 30
0.0
 10
0.0443700787401575
 20
-0.5691535433070867
 30
0.0
 10
0.0453425196850394
 20
-1.3225
 30
0.0
 10
0.0453425196850394
 20
-1.3225
 30
0.0
 10
0.0453425196850394
 20
-1.3225
 30
0.0
 10
0.0453425196850394
 20
-1.3225
 30
0.0
 10
0.0594685039370079
 20
-1.3183464566929135
 30
0.0
 10
0.0594685039370079
 20
-1.3183464566929135
 30
0.0
 10
0.0594685039370079
 20
-1.3183464566929135
 30
0.0
 10
0.0594685039370079
 20
-1.3183464566929135
 30
0.0
 10
0.0735433070866142
 20
-1.3142125984251969
 30
0.0
 10
0.0735433070866142
 20
-1.3142125984251969
 30
0.0
 10
0.0735433070866142
 20
-1.3142125984251969
 30
0.0
 10
0.0735433070866142
 20
-1.3142125984251969
 30
0.0
 10
0.0875393700787402
 20
-1.3101299212598425
 30
0.0
 10
0.0875393700787402
 20
-1.3101299212598425
 30
0.0
  0
SPLINE
  5
61
100
AcDbEntity
  8
P1-Layer 1
 62
   253
100
AcDbSpline
210
0.0
220
0.0
230
1.0
 70
     1
 71
     3
 72
    36
 73
    32
 74
     0
 42
0.0000000001
 43
0.0000000001
 40
0.0
 40
0.0
 40
0.0
 40
0.0
 40
0.125
 40
0.125
 40
0.125
 40
0.125
 40
0.25
 40
0.25
 40
0.25
 40
0.25
 40
0.375
 40
0.375
 40
0.375
 40
0.375
 40
0.5
 40
0.5
 40
0.5
 40
0.5
 40
0.625
 40
0.625
 40
0.625
 40
0.625
 40
0.75
 40
0.75
 40
0.75
 40
0.75
 40
0.875
 40
0.875
 40
0.875
 40
0.875
 40
1.0
 40
1.0
 40
1.0
 40
1.0
 10
0.0453425196850394
 20
-1.3225
 30
0.0
 10
0.0453425196850394
 20
-1.3225
 30
0.0
 10
0.0443700787401575
 20
-0.5691535433070867
 30
0.0
 10
0.0443700787401575
 20
-0.5691535433070867
 30
0.0
 10
0.0443700787401575
 20
-0.5691535433070867
 30
0.0
 10
0.0443700787401575
 20
-0.5691535433070867
 30
0.0
 10
0.0302795275590551
 20
-0.5728228346456693
 30
0.0
 10
0.0302795275590551
 20
-0.5728228346456693
 30
0.0
 10
0.0302795275590551
 20
-0.5728228346456693
 30
0.0
 10
0.0302795275590551
 20
-0.5728228346456693
 30
0.0
 10
0.0163503937007874
 20
-0.5756062992125984
 30
0.0
 10
0.0163503937007874
 20
-0.5756062992125984
 30
0.0
 10
0.0163503937007874
 20
-0.5756062992125984
 30
0.0
 10
0.0163503937007874
 20
-0.5756062992125984
 30
0.0
 10
0.0025905511811024
 20
-0.5775314960629921
 30
0.0
 10
0.0025905511811024
 20
-0.5775314960629921
 30
0.0
 10
0.0025905511811024
 20
-0.5775314960629921
 30
0.0
 10
0.0025905511811024
 20
-0.5775314960629921
 30
0.0
 10
0.0035629921259843
 20
-1.3308779527559056
 30
0.0
 10
0.0035629921259843
 20
-1.3308779527559056
 30
0.0
 10
0.0035629921259843
 20
-1.3308779527559056
 30
0.0
 10
0.0035629921259843
 20
-1.3308779527559056
 30
0.0
 10
0.0173228346456693
 20
-1.3289527559055119
 30
0.0
 10
0.0173228346456693
 20
-1.3289527559055119
 30
0.0
 10
0.0173228346456693
 20
-1.3289527559055119
 30
0.0
 10
0.0173228346456693
 20
-1.3289527559055119
 30
0.0
 10
0.031251968503937
 20
-1.3261692913385827
 30
0.0
 10
0.031251968503937
 20
-1.3261692913385827
 30
0.0
 10
0.031251968503937
 20
-1.3261692913385827
 30
0.0
 10
0.031251968503937
 20
-1.3261692913385827
 30
0.0
 10
0.0453425196850394
 20
-1.3225
 30
0.0
 10
0.0453425196850394
 20
-1.3225
 30
0.0
  0
SPLINE
  5
62
100
AcDbEntity
  8
P1-Layer 1
 62
   253
100
AcDbSpline
210
0.0
220
0.0
230
1.0
 70
     1
 71
     3
 72
    36
 73
    32
 74
     0
 42
0.0000000001
 43
0.0000000001
 40
0.0
 40
0.0
 40
0.0
 40
0.0
 40
0.125
 40
0.125
 40
0.125
 40
0.125
 40
0.25
 40
0.25
 40
0.25
 40
0.25
 40
0.375
 40
0.375
 40
0.375
 40
0.375
 40
0.5
 40
0.5
 40
0.5
 40
0.5
 40
0.625
 40
0.625
 40
0.625
 40
0.625
 40
0.75
 40
0.75
 40
0.75
 40
0.75
 40
0.875
 40
0.875
 40
0.875
 40
0.875
 40
1.0
 40
1.0
 40
1.0
 40
1.0
 10
0.0035629921259843
 20
-1.3308779527559056
 30
0.0
 10
0.0035629921259843
 20
-1.3308779527559056
 30
0.0
 10
0.0025905511811024
 20
-0.5775314960629921
 30
0.0
 10
0.0025905511811024
 20
-0.5775314960629921
 30
0.0
 10
0.0025905511811024
 20
-0.5775314960629921
 30
0.0
 10
0.0025905511811024
 20
-0.5775314960629921
 30
0.0
 10
-0.0109685039370079
 20
-0.5786417322834646
 30
0.0
 10
-0.0109685039370079
 20
-0.5786417322834646
 30
0.0
 10
-0.0109685039370079
 20
-0.5786417322834646
 30
0.0
 10
-0.0109685039370079
 20
-0.5786417322834646
 30
0.0
 10
-0.0243228346456693
 20
-0.5789606299212599
 30
0.0
 10
-0.0243228346456693
 20
-0.5789606299212599
 30
0.0
 10
-0.0243228346456693
 20
-0.5789606299212599
 30
0.0
 10
-0.0243228346456693
 20
-0.5789606299212599
 30
0.0
 10
-0.0374527559055118
 20
-0.5785433070866142
 30
0.0
 10
-0.0374527559055118
 20
-0.5785433070866142
 30
0.0
 10
-0.0374527559055118
 20
-0.5785433070866142
 30
0.0
 10
-0.0374527559055118
 20
-0.5785433070866142
 30
0.0
 10
-0.0364803149606299
 20
-1.3318897637795275
 30
0.0
 10
-0.0364803149606299
 20
-1.3318897637795275
 30
0.0
 10
-0.0364803149606299
 20
-1.3318897637795275
 30
0.0
 10
-0.0364803149606299
 20
-1.3318897637795275
 30
0.0
 10
-0.0233503937007874
 20
-1.3323070866141733
 30
0.0
 10
-0.0233503937007874
 20
-1.3323070866141733
 30
0.0
 10
-0.0233503937007874
 20
-1.3323070866141733
 30
0.0
 10
-0.0233503937007874
 20
-1.3323070866141733
 30
0.0
 10
-0.009996062992126
 20
-1.3319881889763781
 30
0.0
 10
-0.009996062992126
 20
-1.3319881889763781
 30
0.0
 10
-0.009996062992126
 20
-1.3319881889763781
 30
0.0
 10
-0.009996062992126
 20
-1.3319881889763781
 30
0.0
 10
0.0035629921259843
 20
-1.3308779527559056
 30
0.0
 10
0.0035629921259843
 20
-1.3308779527559056
 30
0.0
  0
SPLINE
  5
63
100
AcDbEntity
  8
P1-Layer 1
 62
   253
100
AcDbSpline
210
0.0
220
0.0
230
1.0
 70
     1
 71
     3
 72
    36
 73
    32
 74
     0
 42
0.0000000001
 43
0.0000000001
 40
0.0
 40
0.0
 40
0.0
 40
0.0
 40
0.125
 40
0.125
 40
0.125
 40
0.125
 40
0.25
 40
0.25
 40
0.25
 40
0.25
 40
0.375
 40
0.375
 40
0.375
 40
0.375
 40
0.5
 40
0.5
 40
0.5
 40
0.5
 40
0.625
 40
0.625
 40
0.625
 40
0.625
 40
0.75
 40
0.75
 40
0.75
 40
0.75
 40
0.875
 40
0.875
 40
0.875
 40
0.875
 40
1.0
 40
1.0
 40
1.0
 40
1.0
 10
-0.0364803149606299
 20
-1.3318897637795275
 30
0.0
 10
-0.0364803149606299
 20
-1.3318897637795275
 30
0.0
 10
-0.0374527559055118
 20
-0.5785433070866142
 30
0.0
 10
-0.0374527559055118
 20
-0.5785433070866142
 30
0.0
 10
-0.0374527559055118
 20
-0.5785433070866142
 30
0.0
 10
-0.0374527559055118
 20
-0.5785433070866142
 30
0.0
 10
-0.0503346456692913
 20
-0.5774133858267717
 30
0.0
 10
-0.0503346456692913
 20
-0.5774133858267717
 30
0.0
 10
-0.0503346456692913
 20
-0.5774133858267717
 30
0.0
 10
-0.0503346456692913
 20
-0.5774133858267717
 30
0.0
 10
-0.0629566929133858
 20
-0.5756181102362205
 30
0.0
 10
-0.0629566929133858
 20
-0.5756181102362205
 30
0.0
 10
-0.0629566929133858
 20
-0.5756181102362205
 30
0.0
 10
-0.0629566929133858
 20
-0.5756181102362205
 30
0.0
 10
-0.0752874015748032
 20
-0.5731811023622048
 30
0.0
 10
-0.0752874015748032
 20
-0.5731811023622048
 30
0.0
 10
-0.0752874015748032
 20
-0.5731811023622048
 30
0.0
 10
-0.0752874015748032
 20
-0.5731811023622048
 30
0.0
 10
-0.0743149606299213
 20
-1.3265275590551182
 30
0.0
 10
-0.0743149606299213
 20
-1.3265275590551182
 30
0.0
 10
-0.0743149606299213
 20
-1.3265275590551182
 30
0.0
 10
-0.0743149606299213
 20
-1.3265275590551182
 30
0.0
 10
-0.0619842519685039
 20
-1.3289645669291339
 30
0.0
 10
-0.0619842519685039
 20
-1.3289645669291339
 30
0.0
 10
-0.0619842519685039
 20
-1.3289645669291339
 30
0.0
 10
-0.0619842519685039
 20
-1.3289645669291339
 30
0.0
 10
-0.0493622047244094
 20
-1.3307598425196852
 30
0.0
 10
-0.0493622047244094
 20
-1.3307598425196852
 30
0.0
 10
-0.0493622047244094
 20
-1.3307598425196852
 30
0.0
 10
-0.0493622047244094
 20
-1.3307598425196852
 30
0.0
 10
-0.0364803149606299
 20
-1.3318897637795275
 30
0.0
 10
-0.0364803149606299
 20
-1.3318897637795275
 30
0.0
  0
SPLINE
  5
64
100
AcDbEntity
  8
P1-Layer 1
 62
   253
100
AcDbSpline
210
0.0
220
0.0
230
1.0
 70
     1
 71
     3
 72
    44
 73
    40
 74
     0
 42
0.0000000001
 43
0.0000000001
 40
0.0
 40
0.0
 40
0.0
 40
0.0
 40
0.1
 40
0.1
 40
0.1
 40
0.1
 40
0.2
 40
0.2
 40
0.2
 40
0.2
 40
0.3
 40
0.3
 40
0.3
 40
0.3
 40
0.4
 40
0.4
 40
0.4
 40
0.4
 40
0.5
 40
0.5
 40
0.5
 40
0.5
 40
0.6
 40
0.6
 40
0.6
 40
0.6
 40
0.7
 40
0.7
 40
0.7
 40
0.7
 40
0.7999999999999999
 40
0.7999999999999999
 40
0.7999999999999999
 40
0.7999999999999999
 40
0.8999999999999999
 40
0.8999999999999999
 40
0.8999999999999999
 40
0.8999999999999999
 40
1.0
 40
1.0
 40
1.0
 40
1.0
 10
-0.0743149606299213
 20
-1.3265275590551182
 30
0.0
 10
-0.0743149606299213
 20
-1.3265275590551182
 30
0.0
 10
-0.0752874015748032
 20
-0.5731811023622048
 30
0.0
 10
-0.0752874015748032
 20
-0.5731811023622048
 30
0.0
 10
-0.0752874015748032
 20
-0.5731811023622048
 30
0.0
 10
-0.0752874015748032
 20
-0.5731811023622048
 30
0.0
 10
-0.0873228346456693
 20
-0.5701496062992126
 30
0.0
 10
-0.0873228346456693
 20
-0.5701496062992126
 30
0.0
 10
-0.0873228346456693
 20
-0.5701496062992126
 30
0.0
 10
-0.0873228346456693
 20
-0.5701496062992126
 30
0.0
 10
-0.0990354330708662
 20
-0.5665551181102363
 30
0.0
 10
-0.0990354330708662
 20
-0.5665551181102363
 30
0.0
 10
-0.0990354330708662
 20
-0.5665551181102363
 30
0.0
 10
-0.0990354330708662
 20
-0.5665551181102363
 30
0.0
 10
-0.1104173228346457
 20
-0.5624370078740157
 30
0.0
 10
-0.1104173228346457
 20
-0.5624370078740157
 30
0.0
 10
-0.1104173228346457
 20
-0.5624370078740157
 30
0.0
 10
-0.1104173228346457
 20
-0.5624370078740157
 30
0.0
 10
-0.1214370078740158
 20
-0.5578267716535433
 30
0.0
 10
-0.1214370078740158
 20
-0.5578267716535433
 30
0.0
 10
-0.1214370078740158
 20
-0.5578267716535433
 30
0.0
 10
-0.1214370078740158
 20
-0.5578267716535433
 30
0.0
 10
-0.1204645669291339
 20
-1.3111732283464568
 30
0.0
 10
-0.1204645669291339
 20
-1.3111732283464568
 30
0.0
 10
-0.1204645669291339
 20
-1.3111732283464568
 30
0.0
 10
-0.1204645669291339
 20
-1.3111732283464568
 30
0.0
 10
-0.1094448818897638
 20
-1.3157834645669291
 30
0.0
 10
-0.1094448818897638
 20
-1.3157834645669291
 30
0.0
 10
-0.1094448818897638
 20
-1.3157834645669291
 30
0.0
 10
-0.1094448818897638
 20
-1.3157834645669291
 30
0.0
 10
-0.0980629921259843
 20
-1.3199015748031497
 30
0.0
 10
-0.0980629921259843
 20
-1.3199015748031497
 30
0.0
 10
-0.0980629921259843
 20
-1.3199015748031497
 30
0.0
 10
-0.0980629921259843
 20
-1.3199015748031497
 30
0.0
 10
-0.0863503937007874
 20
-1.323496062992126
 30
0.0
 10
-0.0863503937007874
 20
-1.323496062992126
 30
0.0
 10
-0.0863503937007874
 20
-1.323496062992126
 30
0.0
 10
-0.0863503937007874
 20
-1.323496062992126
 30
0.0
 10
-0.0743149606299213
 20
-1.3265275590551182
 30
0.0
 10
-0.0743149606299213
 20
-1.3265275590551182
 30
0.0
  0
SPLINE
  5
65
100
AcDbEntity
  8
P1-Layer 1
 62
   253
100
AcDbSpline
210
0.0
220
0.0
230
1.0
 70
     1
 71
     3
 72
    44
 73
    40
 74
     0
 42
0.0000000001
 43
0.0000000001
 40
0.0
 40
0.0
 40
0.0
 40
0.0
 40
0.1
 40
0.1
 40
0.1
 40
0.1
 40
0.2
 40
0.2
 40
0.2
 40
0.2
 40
0.3
 40
0.3
 40
0.3
 40
0.3
 40
0.4
 40
0.4
 40
0.4
 40
0.4
 40
0.5
 40
0.5
 40
0.5
 40
0.5
 40
0.6
 40
0.6
 40
0.6
 40
0.6
 40
0.7
 40
0.7
 40
0.7
 40
0.7
 40
0.7999999999999999
 40
0.7999999999999999
 40
0.7999999999999999
 40
0.7999999999999999
 40
0.8999999999999999
 40
0.8999999999999999
 40
0.8999999999999999
 40
0.8999999999999999
 40
1.0
 40
1.0
 40
1.0
 40
1.0
 10
-0.1204645669291339
 20
-1.3111732283464568
 30
0.0
 10
-0.1204645669291339
 20
-1.3111732283464568
 30
0.0
 10
-0.1214370078740158
 20
-0.5578267716535433
 30
0.0
 10
-0.1214370078740158
 20
-0.5578267716535433
 30
0.0
 10
-0.1214370078740158
 20
-0.5578267716535433
 30
0.0
 10
-0.1214370078740158
 20
-0.5578267716535433
 30
0.0
 10
-0.1320905511811024
 20
-0.5527755905511811
 30
0.0
 10
-0.1320905511811024
 20
-0.5527755905511811
 30
0.0
 10
-0.1320905511811024
 20
-0.5527755905511811
 30
0.0
 10
-0.1320905511811024
 20
-0.5527755905511811
 30
0.0
 10
-0.1423464566929134
 20
-0.5473031496062992
 30
0.0
 10
-0.1423464566929134
 20
-0.5473031496062992
 30
0.0
 10
-0.1423464566929134
 20
-0.5473031496062992
 30
0.0
 10
-0.1423464566929134
 20
-0.5473031496062992
 30
0.0
 10
-0.1521968503937008
 20
-0.5414645669291339
 30
0.0
 10
-0.1521968503937008
 20
-0.5414645669291339
 30
0.0
 10
-0.1521968503937008
 20
-0.5414645669291339
 30
0.0
 10
-0.1521968503937008
 20
-0.5414645669291339
 30
0.0
 10
-0.1616062992125984
 20
-0.5352716535433071
 30
0.0
 10
-0.1616062992125984
 20
-0.5352716535433071
 30
0.0
 10
-0.1616062992125984
 20
-0.5352716535433071
 30
0.0
 10
-0.1616062992125984
 20
-0.5352716535433071
 30
0.0
 10
-0.1606338582677165
 20
-1.2886181102362204
 30
0.0
 10
-0.1606338582677165
 20
-1.2886181102362204
 30
0.0
 10
-0.1606338582677165
 20
-1.2886181102362204
 30
0.0
 10
-0.1606338582677165
 20
-1.2886181102362204
 30
0.0
 10
-0.1512244094488189
 20
-1.2948110236220474
 30
0.0
 10
-0.1512244094488189
 20
-1.2948110236220474
 30
0.0
 10
-0.1512244094488189
 20
-1.2948110236220474
 30
0.0
 10
-0.1512244094488189
 20
-1.2948110236220474
 30
0.0
 10
-0.1413740157480315
 20
-1.3006496062992126
 30
0.0
 10
-0.1413740157480315
 20
-1.3006496062992126
 30
0.0
 10
-0.1413740157480315
 20
-1.3006496062992126
 30
0.0
 10
-0.1413740157480315
 20
-1.3006496062992126
 30
0.0
 10
-0.1311181102362205
 20
-1.3061220472440946
 30
0.0
 10
-0.1311181102362205
 20
-1.3061220472440946
 30
0.0
 10
-0.1311181102362205
 20
-1.3061220472440946
 30
0.0
 10
-0.1311181102362205
 20
-1.3061220472440946
 30
0.0
 10
-0.1204645669291339
 20
-1.3111732283464568
 30
0.0
 10
-0.1204645669291339
 20
-1.3111732283464568
 30
0.0
  0
SPLINE
  5
66
100
AcDbEntity
  8
P1-Layer 1
 62
     9
100
AcDbSpline
210
0.0
220
0.0
230
1.0
 70
     1
 71
     3
 72
    44
 73
    40
 74
     0
 42
0.0000000001
 43
0.0000000001
 40
0.0
 40
0.0
 40
0.0
 40
0.0
 40
0.1
 40
0.1
 40
0.1
 40
0.1
 40
0.2
 40
0.2
 40
0.2
 40
0.2
 40
0.3
 40
0.3
 40
0.3
 40
0.3
 40
0.4
 40
0.4
 40
0.4
 40
0.4
 40
0.5
 40
0.5
 40
0.5
 40
0.5
 40
0.6
 40
0.6
 40
0.6
 40
0.6
 40
0.7
 40
0.7
 40
0.7
 40
0.7
 40
0.7999999999999999
 40
0.7999999999999999
 40
0.7999999999999999
 40
0.7999999999999999
 40
0.8999999999999999
 40
0.8999999999999999
 40
0.8999999999999999
 40
0.8999999999999999
 40
1.0
 40
1.0
 40
1.0
 40
1.0
 10
-0.1606338582677165
 20
-1.2886181102362204
 30
0.0
 10
-0.1606338582677165
 20
-1.2886181102362204
 30
0.0
 10
-0.1616062992125984
 20
-0.5352716535433071
 30
0.0
 10
-0.1616062992125984
 20
-0.5352716535433071
 30
0.0
 10
-0.1616062992125984
 20
-0.5352716535433071
 30
0.0
 10
-0.1616062992125984
 20
-0.5352716535433071
 30
0.0
 10
-0.1705787401574803
 20
-0.5287834645669292
 30
0.0
 10
-0.1705787401574803
 20
-0.5287834645669292
 30
0.0
 10
-0.1705787401574803
 20
-0.5287834645669292
 30
0.0
 10
-0.1705787401574803
 20
-0.5287834645669292
 30
0.0
 10
-0.1790787401574803
 20
-0.5220236220472441
 30
0.0
 10
-0.1790787401574803
 20
-0.5220236220472441
 30
0.0
 10
-0.1790787401574803
 20
-0.5220236220472441
 30
0.0
 10
-0.1790787401574803
 20
-0.5220236220472441
 30
0.0
 10
-0.1871023622047244
 20
-0.5150393700787401
 30
0.0
 10
-0.1871023622047244
 20
-0.5150393700787401
 30
0.0
 10
-0.1871023622047244
 20
-0.5150393700787401
 30
0.0
 10
-0.1871023622047244
 20
-0.5150393700787401
 30
0.0
 10
-0.1946141732283465
 20
-0.5078582677165354
 30
0.0
 10
-0.1946141732283465
 20
-0.5078582677165354
 30
0.0
 10
-0.1946141732283465
 20
-0.5078582677165354
 30
0.0
 10
-0.1946141732283465
 20
-0.5078582677165354
 30
0.0
 10
-0.1936417322834646
 20
-1.2612047244094489
 30
0.0
 10
-0.1936417322834646
 20
-1.2612047244094489
 30
0.0
 10
-0.1936417322834646
 20
-1.2612047244094489
 30
0.0
 10
-0.1936417322834646
 20
-1.2612047244094489
 30
0.0
 10
-0.1861299212598425
 20
-1.2683858267716537
 30
0.0
 10
-0.1861299212598425
 20
-1.2683858267716537
 30
0.0
 10
-0.1861299212598425
 20
-1.2683858267716537
 30
0.0
 10
-0.1861299212598425
 20
-1.2683858267716537
 30
0.0
 10
-0.1781062992125984
 20
-1.2753700787401576
 30
0.0
 10
-0.1781062992125984
 20
-1.2753700787401576
 30
0.0
 10
-0.1781062992125984
 20
-1.2753700787401576
 30
0.0
 10
-0.1781062992125984
 20
-1.2753700787401576
 30
0.0
 10
-0.1696062992125984
 20
-1.2821299212598425
 30
0.0
 10
-0.1696062992125984
 20
-1.2821299212598425
 30
0.0
 10
-0.1696062992125984
 20
-1.2821299212598425
 30
0.0
 10
-0.1696062992125984
 20
-1.2821299212598425
 30
0.0
 10
-0.1606338582677165
 20
-1.2886181102362204
 30
0.0
 10
-0.1606338582677165
 20
-1.2886181102362204
 30
0.0
  0
SPLINE
  5
67
100
AcDbEntity
  8
P1-Layer 1
 62
     9
100
AcDbSpline
210
0.0
220
0.0
230
1.0
 70
     1
 71
     3
 72
    52
 73
    48
 74
     0
 42
0.0000000001
 43
0.0000000001
 40
0.0
 40
0.0
 40
0.0
 40
0.0
 40
0.0833333333333333
 40
0.0833333333333333
 40
0.0833333333333333
 40
0.0833333333333333
 40
0.1666666666666667
 40
0.1666666666666667
 40
0.1666666666666667
 40
0.1666666666666667
 40
0.25
 40
0.25
 40
0.25
 40
0.25
 40
0.3333333333333333
 40
0.3333333333333333
 40
0.3333333333333333
 40
0.3333333333333333
 40
0.4166666666666666
 40
0.4166666666666666
 40
0.4166666666666666
 40
0.4166666666666666
 40
0.4999999999999999
 40
0.4999999999999999
 40
0.4999999999999999
 40
0.4999999999999999
 40
0.5833333333333333
 40
0.5833333333333333
 40
0.5833333333333333
 40
0.5833333333333333
 40
0.6666666666666666
 40
0.6666666666666666
 40
0.6666666666666666
 40
0.6666666666666666
 40
0.75
 40
0.75
 40
0.75
 40
0.75
 40
0.8333333333333334
 40
0.8333333333333334
 40
0.8333333333333334
 40
0.8333333333333334
 40
0.9166666666666667
 40
0.9166666666666667
 40
0.9166666666666667
 40
0.9166666666666667
 40
1.0
 40
1.0
 40
1.0
 40
1.0
 10
-0.1936417322834646
 20
-1.2612047244094489
 30
0.0
 10
-0.1936417322834646
 20
-1.2612047244094489
 30
0.0
 10
-0.1946141732283465
 20
-0.5078582677165354
 30
0.0
 10
-0.1946141732283465
 20
-0.5078582677165354
 30
0.0
 10
-0.1946141732283465
 20
-0.5078582677165354
 30
0.0
 10
-0.1946141732283465
 20
-0.5078582677165354
 30
0.0
 10
-0.2016141732283465
 20
-0.5005275590551181
 30
0.0
 10
-0.2016141732283465
 20
-0.5005275590551181
 30
0.0
 10
-0.2016141732283465
 20
-0.5005275590551181
 30
0.0
 10
-0.2016141732283465
 20
-0.5005275590551181
 30
0.0
 10
-0.2080708661417323
 20
-0.4930708661417323
 30
0.0
 10
-0.2080708661417323
 20
-0.4930708661417323
 30
0.0
 10
-0.2080708661417323
 20
-0.4930708661417323
 30
0.0
 10
-0.2080708661417323
 20
-0.4930708661417323
 30
0.0
 10
-0.2139803149606299
 20
-0.4855393700787402
 30
0.0
 10
-0.2139803149606299
 20
-0.4855393700787402
 30
0.0
 10
-0.2139803149606299
 20
-0.4855393700787402
 30
0.0
 10
-0.2139803149606299
 20
-0.4855393700787402
 30
0.0
 10
-0.2193031496062992
 20
-0.4779527559055118
 30
0.0
 10
-0.2193031496062992
 20
-0.4779527559055118
 30
0.0
 10
-0.2193031496062992
 20
-0.4779527559055118
 30
0.0
 10
-0.2193031496062992
 20
-0.4779527559055118
 30
0.0
 10
-0.2240354330708662
 20
-0.4703661417322835
 30
0.0
 10
-0.2240354330708662
 20
-0.4703661417322835
 30
0.0
 10
-0.2240354330708662
 20
-0.4703661417322835
 30
0.0
 10
-0.2240354330708662
 20
-0.4703661417322835
 30
0.0
 10
-0.2230629921259843
 20
-1.2237125984251969
 30
0.0
 10
-0.2230629921259843
 20
-1.2237125984251969
 30
0.0
 10
-0.2230629921259843
 20
-1.2237125984251969
 30
0.0
 10
-0.2230629921259843
 20
-1.2237125984251969
 30
0.0
 10
-0.2183307086614173
 20
-1.2312992125984252
 30
0.0
 10
-0.2183307086614173
 20
-1.2312992125984252
 30
0.0
 10
-0.2183307086614173
 20
-1.2312992125984252
 30
0.0
 10
-0.2183307086614173
 20
-1.2312992125984252
 30
0.0
 10
-0.213007874015748
 20
-1.2388858267716536
 30
0.0
 10
-0.213007874015748
 20
-1.2388858267716536
 30
0.0
 10
-0.213007874015748
 20
-1.2388858267716536
 30
0.0
 10
-0.213007874015748
 20
-1.2388858267716536
 30
0.0
 10
-0.2070984251968504
 20
-1.2464173228346458
 30
0.0
 10
-0.2070984251968504
 20
-1.2464173228346458
 30
0.0
 10
-0.2070984251968504
 20
-1.2464173228346458
 30
0.0
 10
-0.2070984251968504
 20
-1.2464173228346458
 30
0.0
 10
-0.2006417322834646
 20
-1.2538740157480315
 30
0.0
 10
-0.2006417322834646
 20
-1.2538740157480315
 30
0.0
 10
-0.2006417322834646
 20
-1.2538740157480315
 30
0.0
 10
-0.2006417322834646
 20
-1.2538740157480315
 30
0.0
 10
-0.1936417322834646
 20
-1.2612047244094489
 30
0.0
 10
-0.1936417322834646
 20
-1.2612047244094489
 30
0.0
  0
SPLINE
  5
68
100
AcDbEntity
  8
P1-Layer 1
 62
     9
100
AcDbSpline
210
0.0
220
0.0
230
1.0
 70
     1
 71
     3
 72
    60
 73
    56
 74
     0
 42
0.0000000001
 43
0.0000000001
 40
0.0
 40
0.0
 40
0.0
 40
0.0
 40
0.0714285714285714
 40
0.0714285714285714
 40
0.0714285714285714
 40
0.0714285714285714
 40
0.1428571428571429
 40
0.1428571428571429
 40
0.1428571428571429
 40
0.1428571428571429
 40
0.2142857142857143
 40
0.2142857142857143
 40
0.2142857142857143
 40
0.2142857142857143
 40
0.2857142857142857
 40
0.2857142857142857
 40
0.2857142857142857
 40
0.2857142857142857
 40
0.3571428571428571
 40
0.3571428571428571
 40
0.3571428571428571
 40
0.3571428571428571
 40
0.4285714285714285
 40
0.4285714285714285
 40
0.4285714285714285
 40
0.4285714285714285
 40
0.4999999999999999
 40
0.4999999999999999
 40
0.4999999999999999
 40
0.4999999999999999
 40
0.5714285714285713
 40
0.5714285714285713
 40
0.5714285714285713
 40
0.5714285714285713
 40
0.6428571428571427
 40
0.6428571428571427
 40
0.6428571428571427
 40
0.6428571428571427
 40
0.7142857142857141
 40
0.7142857142857141
 40
0.7142857142857141
 40
0.7142857142857141
 40
0.7857142857142855
 40
0.7857142857142855
 40
0.7857142857142855
 40
0.7857142857142855
 40
0.8571428571428569
 40
0.8571428571428569
 40
0.8571428571428569
 40
0.8571428571428569
 40
0.9285714285714283
 40
0.9285714285714283
 40
0.9285714285714283
 40
0.9285714285714283
 40
1.0
 40
1.0
 40
1.0
 40
1.0
 10
-0.2230629921259843
 20
-1.2237125984251969
 30
0.0
 10
-0.2230629921259843
 20
-1.2237125984251969
 30
0.0
 10
-0.2240354330708662
 20
-0.4703661417322835
 30
0.0
 10
-0.2240354330708662
 20
-0.4703661417322835
 30
0.0
 10
-0.2240354330708662
 20
-0.4703661417322835
 30
0.0
 10
-0.2240354330708662
 20
-0.4703661417322835
 30
0.0
 10
-0.2281574803149606
 20
-0.4628031496062993
 30
0.0
 10
-0.2281574803149606
 20
-0.4628031496062993
 30
0.0
 10
-0.2281574803149606
 20
-0.4628031496062993
 30
0.0
 10
-0.2281574803149606
 20
-0.4628031496062993
 30
0.0
 10
-0.2316535433070866
 20
-0.4553149606299213
 30
0.0
 10
-0.2316535433070866
 20
-0.4553149606299213
 30
0.0
 10
-0.2316535433070866
 20
-0.4553149606299213
 30
0.0
 10
-0.2316535433070866
 20
-0.4553149606299213
 30
0.0
 10
-0.234492125984252
 20
-0.4479173228346457
 30
0.0
 10
-0.234492125984252
 20
-0.4479173228346457
 30
0.0
 10
-0.234492125984252
 20
-0.4479173228346457
 30
0.0
 10
-0.234492125984252
 20
-0.4479173228346457
 30
0.0
 10
-0.2366732283464567
 20
-0.4406653543307087
 30
0.0
 10
-0.2366732283464567
 20
-0.4406653543307087
 30
0.0
 10
-0.2366732283464567
 20
-0.4406653543307087
 30
0.0
 10
-0.2366732283464567
 20
-0.4406653543307087
 30
0.0
 10
-0.2381653543307087
 20
-0.4335866141732284
 30
0.0
 10
-0.2381653543307087
 20
-0.4335866141732284
 30
0.0
 10
-0.2381653543307087
 20
-0.4335866141732284
 30
0.0
 10
-0.2381653543307087
 20
-0.4335866141732284
 30
0.0
 10
-0.2389566929133858
 20
-0.4267244094488189
 30
0.0
 10
-0.2389566929133858
 20
-0.4267244094488189
 30
0.0
 10
-0.2389566929133858
 20
-0.4267244094488189
 30
0.0
 10
-0.2389566929133858
 20
-0.4267244094488189
 30
0.0
 10
-0.237984251968504
 20
-1.1800708661417323
 30
0.0
 10
-0.237984251968504
 20
-1.1800708661417323
 30
0.0
 10
-0.237984251968504
 20
-1.1800708661417323
 30
0.0
 10
-0.237984251968504
 20
-1.1800708661417323
 30
0.0
 10
-0.2371929133858268
 20
-1.1869330708661419
 30
0.0
 10
-0.2371929133858268
 20
-1.1869330708661419
 30
0.0
 10
-0.2371929133858268
 20
-1.1869330708661419
 30
0.0
 10
-0.2371929133858268
 20
-1.1869330708661419
 30
0.0
 10
-0.2357007874015748
 20
-1.1940118110236222
 30
0.0
 10
-0.2357007874015748
 20
-1.1940118110236222
 30
0.0
 10
-0.2357007874015748
 20
-1.1940118110236222
 30
0.0
 10
-0.2357007874015748
 20
-1.1940118110236222
 30
0.0
 10
-0.2335196850393701
 20
-1.2012637795275591
 30
0.0
 10
-0.2335196850393701
 20
-1.2012637795275591
 30
0.0
 10
-0.2335196850393701
 20
-1.2012637795275591
 30
0.0
 10
-0.2335196850393701
 20
-1.2012637795275591
 30
0.0
 10
-0.2306811023622047
 20
-1.2086614173228347
 30
0.0
 10
-0.2306811023622047
 20
-1.2086614173228347
 30
0.0
 10
-0.2306811023622047
 20
-1.2086614173228347
 30
0.0
 10
-0.2306811023622047
 20
-1.2086614173228347
 30
0.0
 10
-0.2271850393700788
 20
-1.2161496062992125
 30
0.0
 10
-0.2271850393700788
 20
-1.2161496062992125
 30
0.0
 10
-0.2271850393700788
 20
-1.2161496062992125
 30
0.0
 10
-0.2271850393700788
 20
-1.2161496062992125
 30
0.0
 10
-0.2230629921259843
 20
-1.2237125984251969
 30
0.0
 10
-0.2230629921259843
 20
-1.2237125984251969
 30
0.0
  0
SPLINE
  5
69
100
AcDbEntity
  8
P1-Layer 1
370
     5
100
AcDbSpline
210
0.0
220
0.0
230
1.0
 70
     1
 71
     3
 72
   524
 73
   520
 74
     0
 42
0.0000000001
 43
0.0000000001
 40
0.0
 40
0.0
 40
0.0
 40
0.0
 40
0.0076923076923077
 40
0.0076923076923077
 40
0.0076923076923077
 40
0.0076923076923077
 40
0.0153846153846154
 40
0.0153846153846154
 40
0.0153846153846154
 40
0.0153846153846154
 40
0.0230769230769231
 40
0.0230769230769231
 40
0.0230769230769231
 40
0.0230769230769231
 40
0.0307692307692308
 40
0.0307692307692308
 40
0.0307692307692308
 40
0.0307692307692308
 40
0.0384615384615385
 40
0.0384615384615385
 40
0.0384615384615385
 40
0.0384615384615385
 40
0.0461538461538462
 40
0.0461538461538462
 40
0.0461538461538462
 40
0.0461538461538462
 40
0.0538461538461538
 40
0.0538461538461538
 40
0.0538461538461538
 40
0.0538461538461538
 40
0.0615384615384615
 40
0.0615384615384615
 40
0.0615384615384615
 40
0.0615384615384615
 40
0.0692307692307692
 40
0.0692307692307692
 40
0.0692307692307692
 40
0.0692307692307692
 40
0.0769230769230769
 40
0.0769230769230769
 40
0.0769230769230769
 40
0.0769230769230769
 40
0.0846153846153846
 40
0.0846153846153846
 40
0.0846153846153846
 40
0.0846153846153846
 40
0.0923076923076923
 40
0.0923076923076923
 40
0.0923076923076923
 40
0.0923076923076923
 40
0.1
 40
0.1
 40
0.1
 40
0.1
 40
0.1076923076923077
 40
0.1076923076923077
 40
0.1076923076923077
 40
0.1076923076923077
 40
0.1153846153846154
 40
0.1153846153846154
 40
0.1153846153846154
 40
0.1153846153846154
 40
0.1230769230769231
 40
0.1230769230769231
 40
0.1230769230769231
 40
0.1230769230769231
 40
0.1307692307692308
 40
0.1307692307692308
 40
0.1307692307692308
 40
0.1307692307692308
 40
0.1384615384615385
 40
0.1384615384615385
 40
0.1384615384615385
 40
0.1384615384615385
 40
0.1461538461538462
 40
0.1461538461538462
 40
0.1461538461538462
 40
0.1461538461538462
 40
0.1538461538461539
 40
0.1538461538461539
 40
0.1538461538461539
 40
0.1538461538461539
 40
0.1615384615384616
 40
0.1615384615384616
 40
0.1615384615384616
 40
0.1615384615384616
 40
0.1692307692307692
 40
0.1692307692307692
 40
0.1692307692307692
 40
0.1692307692307692
 40
0.1769230769230769
 40
0.1769230769230769
 40
0.1769230769230769
 40
0.1769230769230769
 40
0.1846153846153846
 40
0.1846153846153846
 40
0.1846153846153846
 40
0.1846153846153846
 40
0.1923076923076923
 40
0.1923076923076923
 40
0.1923076923076923
 40
0.1923076923076923
 40
0.2
 40
0.2
 40
0.2
 40
0.2
 40
0.2076923076923077
 40
0.2076923076923077
 40
0.2076923076923077
 40
0.2076923076923077
 40
0.2153846153846154
 40
0.2153846153846154
 40
0.2153846153846154
 40
0.2153846153846154
 40
0.2230769230769231
 40
0.2230769230769231
 40
0.2230769230769231
 40
0.2230769230769231
 40
0.2307692307692308
 40
0.2307692307692308
 40
0.2307692307692308
 40
0.2307692307692308
 40
0.2384615384615385
 40
0.2384615384615385
 40
0.2384615384615385
 40
0.2384615384615385
 40
0.2461538461538462
 40
0.2461538461538462
 40
0.2461538461538462
 40
0.2461538461538462
 40
0.2538461538461538
 40
0.2538461538461538
 40
0.2538461538461538
 40
0.2538461538461538
 40
0.2615384615384615
 40
0.2615384615384615
 40
0.2615384615384615
 40
0.2615384615384615
 40
0.2692307692307692
 40
0.2692307692307692
 40
0.2692307692307692
 40
0.2692307692307692
 40
0.2769230769230768
 40
0.2769230769230768
 40
0.2769230769230768
 40
0.2769230769230768
 40
0.2846153846153845
 40
0.2846153846153845
 40
0.2846153846153845
 40
0.2846153846153845
 40
0.2923076923076922
 40
0.2923076923076922
 40
0.2923076923076922
 40
0.2923076923076922
 40
0.2999999999999998
 40
0.2999999999999998
 40
0.2999999999999998
 40
0.2999999999999998
 40
0.3076923076923075
 40
0.3076923076923075
 40
0.3076923076923075
 40
0.3076923076923075
 40
0.3153846153846152
 40
0.3153846153846152
 40
0.3153846153846152
 40
0.3153846153846152
 40
0.3230769230769228
 40
0.3230769230769228
 40
0.3230769230769228
 40
0.3230769230769228
 40
0.3307692307692305
 40
0.3307692307692305
 40
0.3307692307692305
 40
0.3307692307692305
 40
0.3384615384615382
 40
0.3384615384615382
 40
0.3384615384615382
 40
0.3384615384615382
 40
0.3461538461538458
 40
0.3461538461538458
 40
0.3461538461538458
 40
0.3461538461538458
 40
0.3538461538461535
 40
0.3538461538461535
 40
0.3538461538461535
 40
0.3538461538461535
 40
0.3615384615384611
 40
0.3615384615384611
 40
0.3615384615384611
 40
0.3615384615384611
 40
0.3692307692307688
 40
0.3692307692307688
 40
0.3692307692307688
 40
0.3692307692307688
 40
0.3769230769230765
 40
0.3769230769230765
 40
0.3769230769230765
 40
0.3769230769230765
 40
0.3846153846153841
 40
0.3846153846153841
 40
0.3846153846153841
 40
0.3846153846153841
 40
0.3923076923076918
 40
0.3923076923076918
 40
0.3923076923076918
 40
0.3923076923076918
 40
0.3999999999999995
 40
0.3999999999999995
 40
0.3999999999999995
 40
0.3999999999999995
 40
0.4076923076923071
 40
0.4076923076923071
 40
0.4076923076923071
 40
0.4076923076923071
 40
0.4153846153846148
 40
0.4153846153846148
 40
0.4153846153846148
 40
0.4153846153846148
 40
0.4230769230769225
 40
0.4230769230769225
 40
0.4230769230769225
 40
0.4230769230769225
 40
0.4307692307692301
 40
0.4307692307692301
 40
0.4307692307692301
 40
0.4307692307692301
 40
0.4384615384615378
 40
0.4384615384615378
 40
0.4384615384615378
 40
0.4384615384615378
 40
0.4461538461538455
 40
0.4461538461538455
 40
0.4461538461538455
 40
0.4461538461538455
 40
0.4538461538461531
 40
0.4538461538461531
 40
0.4538461538461531
 40
0.4538461538461531
 40
0.4615384615384608
 40
0.4615384615384608
 40
0.4615384615384608
 40
0.4615384615384608
 40
0.4692307692307685
 40
0.4692307692307685
 40
0.4692307692307685
 40
0.4692307692307685
 40
0.4769230769230761
 40
0.4769230769230761
 40
0.4769230769230761
 40
0.4769230769230761
 40
0.4846153846153838
 40
0.4846153846153838
 40
0.4846153846153838
 40
0.4846153846153838
 40
0.4923076923076915
 40
0.4923076923076915
 40
0.4923076923076915
 40
0.4923076923076915
 40
0.4999999999999991
 40
0.4999999999999991
 40
0.4999999999999991
 40
0.4999999999999991
 40
0.5076923076923068
 40
0.5076923076923068
 40
0.5076923076923068
 40
0.5076923076923068
 40
0.5153846153846144
 40
0.5153846153846144
 40
0.5153846153846144
 40
0.5153846153846144
 40
0.5230769230769221
 40
0.5230769230769221
 40
0.5230769230769221
 40
0.5230769230769221
 40
0.5307692307692298
 40
0.5307692307692298
 40
0.5307692307692298
 40
0.5307692307692298
 40
0.5384615384615374
 40
0.5384615384615374
 40
0.5384615384615374
 40
0.5384615384615374
 40
0.5461538461538451
 40
0.5461538461538451
 40
0.5461538461538451
 40
0.5461538461538451
 40
0.5538461538461528
 40
0.5538461538461528
 40
0.5538461538461528
 40
0.5538461538461528
 40
0.5615384615384604
 40
0.5615384615384604
 40
0.5615384615384604
 40
0.5615384615384604
 40
0.5692307692307681
 40
0.5692307692307681
 40
0.5692307692307681
 40
0.5692307692307681
 40
0.5769230769230758
 40
0.5769230769230758
 40
0.5769230769230758
 40
0.5769230769230758
 40
0.5846153846153834
 40
0.5846153846153834
 40
0.5846153846153834
 40
0.5846153846153834
 40
0.5923076923076911
 40
0.5923076923076911
 40
0.5923076923076911
 40
0.5923076923076911
 40
0.5999999999999988
 40
0.5999999999999988
 40
0.5999999999999988
 40
0.5999999999999988
 40
0.6076923076923064
 40
0.6076923076923064
 40
0.6076923076923064
 40
0.6076923076923064
 40
0.6153846153846141
 40
0.6153846153846141
 40
0.6153846153846141
 40
0.6153846153846141
 40
0.6230769230769218
 40
0.6230769230769218
 40
0.6230769230769218
 40
0.6230769230769218
 40
0.6307692307692294
 40
0.6307692307692294
 40
0.6307692307692294
 40
0.6307692307692294
 40
0.6384615384615371
 40
0.6384615384615371
 40
0.6384615384615371
 40
0.6384615384615371
 40
0.6461538461538448
 40
0.6461538461538448
 40
0.6461538461538448
 40
0.6461538461538448
 40
0.6538461538461524
 40
0.6538461538461524
 40
0.6538461538461524
 40
0.6538461538461524
 40
0.6615384615384601
 40
0.6615384615384601
 40
0.6615384615384601
 40
0.6615384615384601
 40
0.6692307692307677
 40
0.6692307692307677
 40
0.6692307692307677
 40
0.6692307692307677
 40
0.6769230769230754
 40
0.6769230769230754
 40
0.6769230769230754
 40
0.6769230769230754
 40
0.6846153846153831
 40
0.6846153846153831
 40
0.6846153846153831
 40
0.6846153846153831
 40
0.6923076923076907
 40
0.6923076923076907
 40
0.6923076923076907
 40
0.6923076923076907
 40
0.6999999999999984
 40
0.6999999999999984
 40
0.6999999999999984
 40
0.6999999999999984
 40
0.7076923076923061
 40
0.7076923076923061
 40
0.7076923076923061
 40
0.7076923076923061
 40
0.7153846153846137
 40
0.7153846153846137
 40
0.7153846153846137
 40
0.7153846153846137
 40
0.7230769230769214
 40
0.7230769230769214
 40
0.7230769230769214
 40
0.7230769230769214
 40
0.7307692307692291
 40
0.7307692307692291
 40
0.7307692307692291
 40
0.7307692307692291
 40
0.7384615384615367
 40
0.7384615384615367
 40
0.7384615384615367
 40
0.7384615384615367
 40
0.7461538461538444
 40
0.7461538461538444
 40
0.7461538461538444
 40
0.7461538461538444
 40
0.7538461538461521
 40
0.7538461538461521
 40
0.7538461538461521
 40
0.7538461538461521
 40
0.7615384615384597
 40
0.7615384615384597
 40
0.7615384615384597
 40
0.7615384615384597
 40
0.7692307692307674
 40
0.7692307692307674
 40
0.7692307692307674
 40
0.7692307692307674
 40
0.7769230769230751
 40
0.7769230769230751
 40
0.7769230769230751
 40
0.7769230769230751
 40
0.7846153846153827
 40
0.7846153846153827
 40
0.7846153846153827
 40
0.7846153846153827
 40
0.7923076923076904
 40
0.7923076923076904
 40
0.7923076923076904
 40
0.7923076923076904
 40
0.7999999999999981
 40
0.7999999999999981
 40
0.7999999999999981
 40
0.7999999999999981
 40
0.8076923076923057
 40
0.8076923076923057
 40
0.8076923076923057
 40
0.8076923076923057
 40
0.8153846153846134
 40
0.8153846153846134
 40
0.8153846153846134
 40
0.8153846153846134
 40
0.823076923076921
 40
0.823076923076921
 40
0.823076923076921
 40
0.823076923076921
 40
0.8307692307692287
 40
0.8307692307692287
 40
0.8307692307692287
 40
0.8307692307692287
 40
0.8384615384615364
 40
0.8384615384615364
 40
0.8384615384615364
 40
0.8384615384615364
 40
0.846153846153844
 40
0.846153846153844
 40
0.846153846153844
 40
0.846153846153844
 40
0.8538461538461517
 40
0.8538461538461517
 40
0.8538461538461517
 40
0.8538461538461517
 40
0.8615384615384594
 40
0.8615384615384594
 40
0.8615384615384594
 40
0.8615384615384594
 40
0.869230769230767
 40
0.869230769230767
 40
0.869230769230767
 40
0.869230769230767
 40
0.8769230769230747
 40
0.8769230769230747
 40
0.8769230769230747
 40
0.8769230769230747
 40
0.8846153846153824
 40
0.8846153846153824
 40
0.8846153846153824
 40
0.8846153846153824
 40
0.89230769230769
 40
0.89230769230769
 40
0.89230769230769
 40
0.89230769230769
 40
0.8999999999999977
 40
0.8999999999999977
 40
0.8999999999999977
 40
0.8999999999999977
 40
0.9076923076923054
 40
0.9076923076923054
 40
0.9076923076923054
 40
0.9076923076923054
 40
0.915384615384613
 40
0.915384615384613
 40
0.915384615384613
 40
0.915384615384613
 40
0.9230769230769207
 40
0.9230769230769207
 40
0.9230769230769207
 40
0.9230769230769207
 40
0.9307692307692284
 40
0.9307692307692284
 40
0.9307692307692284
 40
0.9307692307692284
 40
0.938461538461536
 40
0.938461538461536
 40
0.938461538461536
 40
0.938461538461536
 40
0.9461538461538437
 40
0.9461538461538437
 40
0.9461538461538437
 40
0.9461538461538437
 40
0.9538461538461514
 40
0.9538461538461514
 40
0.9538461538461514
 40
0.9538461538461514
 40
0.961538461538459
 40
0.961538461538459
 40
0.961538461538459
 40
0.961538461538459
 40
0.9692307692307667
 40
0.9692307692307667
 40
0.9692307692307667
 40
0.9692307692307667
 40
0.9769230769230743
 40
0.9769230769230743
 40
0.9769230769230743
 40
0.9769230769230743
 40
0.984615384615382
 40
0.984615384615382
 40
0.984615384615382
 40
0.984615384615382
 40
0.9923076923076897
 40
0.9923076923076897
 40
0.9923076923076897
 40
0.9923076923076897
 40
1.0
 40
1.0
 40
1.0
 40
1.0
 10
0.4021771653543307
 20
-1.4255
 30
0.0
 10
0.4021771653543307
 20
-1.4255
 30
0.0
 10
0.4012047244094488
 20
-0.6721535433070867
 30
0.0
 10
0.4012047244094488
 20
-0.6721535433070867
 30
0.0
 10
0.4012047244094488
 20
-0.6721535433070867
 30
0.0
 10
0.4012047244094488
 20
-0.6721535433070867
 30
0.0
 10
0.3950984251968504
 20
-0.6543425196850394
 30
0.0
 10
0.3950984251968504
 20
-0.6543425196850394
 30
0.0
 10
0.3950984251968504
 20
-0.6543425196850394
 30
0.0
 10
0.3950984251968504
 20
-0.6543425196850394
 30
0.0
 10
0.3885354330708661
 20
-0.6379488188976378
 30
0.0
 10
0.3885354330708661
 20
-0.6379488188976378
 30
0.0
 10
0.3885354330708661
 20
-0.6379488188976378
 30
0.0
 10
0.3885354330708661
 20
-0.6379488188976378
 30
0.0
 10
0.3815236220472441
 20
-0.6229094488188977
 30
0.0
 10
0.3815236220472441
 20
-0.6229094488188977
 30
0.0
 10
0.3815236220472441
 20
-0.6229094488188977
 30
0.0
 10
0.3815236220472441
 20
-0.6229094488188977
 30
0.0
 10
0.3740905511811024
 20
-0.6091929133858268
 30
0.0
 10
0.3740905511811024
 20
-0.6091929133858268
 30
0.0
 10
0.3740905511811024
 20
-0.6091929133858268
 30
0.0
 10
0.3740905511811024
 20
-0.6091929133858268
 30
0.0
 10
0.3662283464566929
 20
-0.596732283464567
 30
0.0
 10
0.3662283464566929
 20
-0.596732283464567
 30
0.0
 10
0.3662283464566929
 20
-0.596732283464567
 30
0.0
 10
0.3662283464566929
 20
-0.596732283464567
 30
0.0
 10
0.3579645669291339
 20
-0.5855
 30
0.0
 10
0.3579645669291339
 20
-0.5855
 30
0.0
 10
0.3579645669291339
 20
-0.5855
 30
0.0
 10
0.3579645669291339
 20
-0.5855
 30
0.0
 10
0.3493070866141733
 20
-0.5754370078740158
 30
0.0
 10
0.3493070866141733
 20
-0.5754370078740158
 30
0.0
 10
0.3493070866141733
 20
-0.5754370078740158
 30
0.0
 10
0.3493070866141733
 20
-0.5754370078740158
 30
0.0
 10
0.3402755905511811
 20
-0.5665078740157481
 30
0.0
 10
0.3402755905511811
 20
-0.5665078740157481
 30
0.0
 10
0.3402755905511811
 20
-0.5665078740157481
 30
0.0
 10
0.3402755905511811
 20
-0.5665078740157481
 30
0.0
 10
0.3308661417322835
 20
-0.5586496062992126
 30
0.0
 10
0.3308661417322835
 20
-0.5586496062992126
 30
0.0
 10
0.3308661417322835
 20
-0.5586496062992126
 30
0.0
 10
0.3308661417322835
 20
-0.5586496062992126
 30
0.0
 10
0.3211141732283465
 20
-0.5518346456692914
 30
0.0
 10
0.3211141732283465
 20
-0.5518346456692914
 30
0.0
 10
0.3211141732283465
 20
-0.5518346456692914
 30
0.0
 10
0.3211141732283465
 20
-0.5518346456692914
 30
0.0
 10
0.3110196850393701
 20
-0.545996062992126
 30
0.0
 10
0.3110196850393701
 20
-0.545996062992126
 30
0.0
 10
0.3110196850393701
 20
-0.545996062992126
 30
0.0
 10
0.3110196850393701
 20
-0.545996062992126
 30
0.0
 10
0.3006062992125985
 20
-0.5411102362204725
 30
0.0
 10
0.3006062992125985
 20
-0.5411102362204725
 30
0.0
 10
0.3006062992125985
 20
-0.5411102362204725
 30
0.0
 10
0.3006062992125985
 20
-0.5411102362204725
 30
0.0
 10
0.2898700787401575
 20
-0.5371102362204725
 30
0.0
 10
0.2898700787401575
 20
-0.5371102362204725
 30
0.0
 10
0.2898700787401575
 20
-0.5371102362204725
 30
0.0
 10
0.2898700787401575
 20
-0.5371102362204725
 30
0.0
 10
0.2788425196850394
 20
-0.5339645669291339
 30
0.0
 10
0.2788425196850394
 20
-0.5339645669291339
 30
0.0
 10
0.2788425196850394
 20
-0.5339645669291339
 30
0.0
 10
0.2788425196850394
 20
-0.5339645669291339
 30
0.0
 10
0.2675236220472441
 20
-0.5316181102362205
 30
0.0
 10
0.2675236220472441
 20
-0.5316181102362205
 30
0.0
 10
0.2675236220472441
 20
-0.5316181102362205
 30
0.0
 10
0.2675236220472441
 20
-0.5316181102362205
 30
0.0
 10
0.2559409448818898
 20
-0.5300275590551181
 30
0.0
 10
0.2559409448818898
 20
-0.5300275590551181
 30
0.0
 10
0.2559409448818898
 20
-0.5300275590551181
 30
0.0
 10
0.2559409448818898
 20
-0.5300275590551181
 30
0.0
 10
0.2440866141732284
 20
-0.5291338582677165
 30
0.0
 10
0.2440866141732284
 20
-0.5291338582677165
 30
0.0
 10
0.2440866141732284
 20
-0.5291338582677165
 30
0.0
 10
0.2440866141732284
 20
-0.5291338582677165
 30
0.0
 10
0.231996062992126
 20
-0.5289133858267717
 30
0.0
 10
0.231996062992126
 20
-0.5289133858267717
 30
0.0
 10
0.231996062992126
 20
-0.5289133858267717
 30
0.0
 10
0.231996062992126
 20
-0.5289133858267717
 30
0.0
 10
0.2196692913385827
 20
-0.5293070866141733
 30
0.0
 10
0.2196692913385827
 20
-0.5293070866141733
 30
0.0
 10
0.2196692913385827
 20
-0.5293070866141733
 30
0.0
 10
0.2196692913385827
 20
-0.5293070866141733
 30
0.0
 10
0.2071259842519685
 20
-0.5302677165354331
 30
0.0
 10
0.2071259842519685
 20
-0.5302677165354331
 30
0.0
 10
0.2071259842519685
 20
-0.5302677165354331
 30
0.0
 10
0.2071259842519685
 20
-0.5302677165354331
 30
0.0
 10
0.1943740157480315
 20
-0.531748031496063
 30
0.0
 10
0.1943740157480315
 20
-0.531748031496063
 30
0.0
 10
0.1943740157480315
 20
-0.531748031496063
 30
0.0
 10
0.1943740157480315
 20
-0.531748031496063
 30
0.0
 10
0.1814330708661417
 20
-0.5337007874015748
 30
0.0
 10
0.1814330708661417
 20
-0.5337007874015748
 30
0.0
 10
0.1814330708661417
 20
-0.5337007874015748
 30
0.0
 10
0.1814330708661417
 20
-0.5337007874015748
 30
0.0
 10
0.1683110236220473
 20
-0.5360866141732283
 30
0.0
 10
0.1683110236220473
 20
-0.5360866141732283
 30
0.0
 10
0.1683110236220473
 20
-0.5360866141732283
 30
0.0
 10
0.1683110236220473
 20
-0.5360866141732283
 30
0.0
 10
0.1550275590551181
 20
-0.5388543307086614
 30
0.0
 10
0.1550275590551181
 20
-0.5388543307086614
 30
0.0
 10
0.1550275590551181
 20
-0.5388543307086614
 30
0.0
 10
0.1550275590551181
 20
-0.5388543307086614
 30
0.0
 10
0.1415826771653543
 20
-0.5419527559055118
 30
0.0
 10
0.1415826771653543
 20
-0.5419527559055118
 30
0.0
 10
0.1415826771653543
 20
-0.5419527559055118
 30
0.0
 10
0.1415826771653543
 20
-0.5419527559055118
 30
0.0
 10
0.128003937007874
 20
-0.5453464566929134
 30
0.0
 10
0.128003937007874
 20
-0.5453464566929134
 30
0.0
 10
0.128003937007874
 20
-0.5453464566929134
 30
0.0
 10
0.128003937007874
 20
-0.5453464566929134
 30
0.0
 10
0.1142992125984252
 20
-0.5489763779527559
 30
0.0
 10
0.1142992125984252
 20
-0.5489763779527559
 30
0.0
 10
0.1142992125984252
 20
-0.5489763779527559
 30
0.0
 10
0.1142992125984252
 20
-0.5489763779527559
 30
0.0
 10
0.1004842519685039
 20
-0.5528070866141732
 30
0.0
 10
0.1004842519685039
 20
-0.5528070866141732
 30
0.0
 10
0.1004842519685039
 20
-0.5528070866141732
 30
0.0
 10
0.1004842519685039
 20
-0.5528070866141732
 30
0.0
 10
0.0865669291338583
 20
-0.5567834645669292
 30
0.0
 10
0.0865669291338583
 20
-0.5567834645669292
 30
0.0
 10
0.0865669291338583
 20
-0.5567834645669292
 30
0.0
 10
0.0865669291338583
 20
-0.5567834645669292
 30
0.0
 10
0.0725708661417323
 20
-0.5608661417322834
 30
0.0
 10
0.0725708661417323
 20
-0.5608661417322834
 30
0.0
 10
0.0725708661417323
 20
-0.5608661417322834
 30
0.0
 10
0.0725708661417323
 20
-0.5608661417322834
 30
0.0
 10
0.058496062992126
 20
-0.5650000000000001
 30
0.0
 10
0.058496062992126
 20
-0.5650000000000001
 30
0.0
 10
0.058496062992126
 20
-0.5650000000000001
 30
0.0
 10
0.058496062992126
 20
-0.5650000000000001
 30
0.0
 10
0.0443700787401575
 20
-0.5691535433070867
 30
0.0
 10
0.0443700787401575
 20
-0.5691535433070867
 30
0.0
 10
0.0443700787401575
 20
-0.5691535433070867
 30
0.0
 10
0.0443700787401575
 20
-0.5691535433070867
 30
0.0
 10
0.0302795275590551
 20
-0.5728228346456693
 30
0.0
 10
0.0302795275590551
 20
-0.5728228346456693
 30
0.0
 10
0.0302795275590551
 20
-0.5728228346456693
 30
0.0
 10
0.0302795275590551
 20
-0.5728228346456693
 30
0.0
 10
0.0163503937007874
 20
-0.5756062992125984
 30
0.0
 10
0.0163503937007874
 20
-0.5756062992125984
 30
0.0
 10
0.0163503937007874
 20
-0.5756062992125984
 30
0.0
 10
0.0163503937007874
 20
-0.5756062992125984
 30
0.0
 10
0.0025905511811024
 20
-0.5775314960629921
 30
0.0
 10
0.0025905511811024
 20
-0.5775314960629921
 30
0.0
 10
0.0025905511811024
 20
-0.5775314960629921
 30
0.0
 10
0.0025905511811024
 20
-0.5775314960629921
 30
0.0
 10
-0.0109685039370079
 20
-0.5786417322834646
 30
0.0
 10
-0.0109685039370079
 20
-0.5786417322834646
 30
0.0
 10
-0.0109685039370079
 20
-0.5786417322834646
 30
0.0
 10
-0.0109685039370079
 20
-0.5786417322834646
 30
0.0
 10
-0.0243228346456693
 20
-0.5789606299212599
 30
0.0
 10
-0.0243228346456693
 20
-0.5789606299212599
 30
0.0
 10
-0.0243228346456693
 20
-0.5789606299212599
 30
0.0
 10
-0.0243228346456693
 20
-0.5789606299212599
 30
0.0
 10
-0.0374527559055118
 20
-0.5785433070866142
 30
0.0
 10
-0.0374527559055118
 20
-0.5785433070866142
 30
0.0
 10
-0.0374527559055118
 20
-0.5785433070866142
 30
0.0
 10
-0.0374527559055118
 20
-0.5785433070866142
 30
0.0
 10
-0.0503346456692913
 20
-0.5774133858267717
 30
0.0
 10
-0.0503346456692913
 20
-0.5774133858267717
 30
0.0
 10
-0.0503346456692913
 20
-0.5774133858267717
 30
0.0
 10
-0.0503346456692913
 20
-0.5774133858267717
 30
0.0
 10
-0.0629566929133858
 20
-0.5756181102362205
 30
0.0
 10
-0.0629566929133858
 20
-0.5756181102362205
 30
0.0
 10
-0.0629566929133858
 20
-0.5756181102362205
 30
0.0
 10
-0.0629566929133858
 20
-0.5756181102362205
 30
0.0
 10
-0.0752874015748032
 20
-0.5731811023622048
 30
0.0
 10
-0.0752874015748032
 20
-0.5731811023622048
 30
0.0
 10
-0.0752874015748032
 20
-0.5731811023622048
 30
0.0
 10
-0.0752874015748032
 20
-0.5731811023622048
 30
0.0
 10
-0.0873228346456693
 20
-0.5701496062992126
 30
0.0
 10
-0.0873228346456693
 20
-0.5701496062992126
 30
0.0
 10
-0.0873228346456693
 20
-0.5701496062992126
 30
0.0
 10
-0.0873228346456693
 20
-0.5701496062992126
 30
0.0
 10
-0.0990354330708662
 20
-0.5665551181102363
 30
0.0
 10
-0.0990354330708662
 20
-0.5665551181102363
 30
0.0
 10
-0.0990354330708662
 20
-0.5665551181102363
 30
0.0
 10
-0.0990354330708662
 20
-0.5665551181102363
 30
0.0
 10
-0.1104173228346457
 20
-0.5624370078740157
 30
0.0
 10
-0.1104173228346457
 20
-0.5624370078740157
 30
0.0
 10
-0.1104173228346457
 20
-0.5624370078740157
 30
0.0
 10
-0.1104173228346457
 20
-0.5624370078740157
 30
0.0
 10
-0.1214370078740158
 20
-0.5578267716535433
 30
0.0
 10
-0.1214370078740158
 20
-0.5578267716535433
 30
0.0
 10
-0.1214370078740158
 20
-0.5578267716535433
 30
0.0
 10
-0.1214370078740158
 20
-0.5578267716535433
 30
0.0
 10
-0.1320905511811024
 20
-0.5527755905511811
 30
0.0
 10
-0.1320905511811024
 20
-0.5527755905511811
 30
0.0
 10
-0.1320905511811024
 20
-0.5527755905511811
 30
0.0
 10
-0.1320905511811024
 20
-0.5527755905511811
 30
0.0
 10
-0.1423464566929134
 20
-0.5473031496062992
 30
0.0
 10
-0.1423464566929134
 20
-0.5473031496062992
 30
0.0
 10
-0.1423464566929134
 20
-0.5473031496062992
 30
0.0
 10
-0.1423464566929134
 20
-0.5473031496062992
 30
0.0
 10
-0.1521968503937008
 20
-0.5414645669291339
 30
0.0
 10
-0.1521968503937008
 20
-0.5414645669291339
 30
0.0
 10
-0.1521968503937008
 20
-0.5414645669291339
 30
0.0
 10
-0.1521968503937008
 20
-0.5414645669291339
 30
0.0
 10
-0.1616062992125984
 20
-0.5352716535433071
 30
0.0
 10
-0.1616062992125984
 20
-0.5352716535433071
 30
0.0
 10
-0.1616062992125984
 20
-0.5352716535433071
 30
0.0
 10
-0.1616062992125984
 20
-0.5352716535433071
 30
0.0
 10
-0.1705787401574803
 20
-0.5287834645669292
 30
0.0
 10
-0.1705787401574803
 20
-0.5287834645669292
 30
0.0
 10
-0.1705787401574803
 20
-0.5287834645669292
 30
0.0
 10
-0.1705787401574803
 20
-0.5287834645669292
 30
0.0
 10
-0.1790787401574803
 20
-0.5220236220472441
 30
0.0
 10
-0.1790787401574803
 20
-0.5220236220472441
 30
0.0
 10
-0.1790787401574803
 20
-0.5220236220472441
 30
0.0
 10
-0.1790787401574803
 20
-0.5220236220472441
 30
0.0
 10
-0.1871023622047244
 20
-0.5150393700787401
 30
0.0
 10
-0.1871023622047244
 20
-0.5150393700787401
 30
0.0
 10
-0.1871023622047244
 20
-0.5150393700787401
 30
0.0
 10
-0.1871023622047244
 20
-0.5150393700787401
 30
0.0
 10
-0.1946141732283465
 20
-0.5078582677165354
 30
0.0
 10
-0.1946141732283465
 20
-0.5078582677165354
 30
0.0
 10
-0.1946141732283465
 20
-0.5078582677165354
 30
0.0
 10
-0.1946141732283465
 20
-0.5078582677165354
 30
0.0
 10
-0.2016141732283465
 20
-0.5005275590551181
 30
0.0
 10
-0.2016141732283465
 20
-0.5005275590551181
 30
0.0
 10
-0.2016141732283465
 20
-0.5005275590551181
 30
0.0
 10
-0.2016141732283465
 20
-0.5005275590551181
 30
0.0
 10
-0.2080708661417323
 20
-0.4930708661417323
 30
0.0
 10
-0.2080708661417323
 20
-0.4930708661417323
 30
0.0
 10
-0.2080708661417323
 20
-0.4930708661417323
 30
0.0
 10
-0.2080708661417323
 20
-0.4930708661417323
 30
0.0
 10
-0.2139803149606299
 20
-0.4855393700787402
 30
0.0
 10
-0.2139803149606299
 20
-0.4855393700787402
 30
0.0
 10
-0.2139803149606299
 20
-0.4855393700787402
 30
0.0
 10
-0.2139803149606299
 20
-0.4855393700787402
 30
0.0
 10
-0.2193031496062992
 20
-0.4779527559055118
 30
0.0
 10
-0.2193031496062992
 20
-0.4779527559055118
 30
0.0
 10
-0.2193031496062992
 20
-0.4779527559055118
 30
0.0
 10
-0.2193031496062992
 20
-0.4779527559055118
 30
0.0
 10
-0.2240354330708662
 20
-0.4703661417322835
 30
0.0
 10
-0.2240354330708662
 20
-0.4703661417322835
 30
0.0
 10
-0.2240354330708662
 20
-0.4703661417322835
 30
0.0
 10
-0.2240354330708662
 20
-0.4703661417322835
 30
0.0
 10
-0.2281574803149606
 20
-0.4628031496062993
 30
0.0
 10
-0.2281574803149606
 20
-0.4628031496062993
 30
0.0
 10
-0.2281574803149606
 20
-0.4628031496062993
 30
0.0
 10
-0.2281574803149606
 20
-0.4628031496062993
 30
0.0
 10
-0.2316535433070866
 20
-0.4553149606299213
 30
0.0
 10
-0.2316535433070866
 20
-0.4553149606299213
 30
0.0
 10
-0.2316535433070866
 20
-0.4553149606299213
 30
0.0
 10
-0.2316535433070866
 20
-0.4553149606299213
 30
0.0
 10
-0.234492125984252
 20
-0.4479173228346457
 30
0.0
 10
-0.234492125984252
 20
-0.4479173228346457
 30
0.0
 10
-0.234492125984252
 20
-0.4479173228346457
 30
0.0
 10
-0.234492125984252
 20
-0.4479173228346457
 30
0.0
 10
-0.2366732283464567
 20
-0.4406653543307087
 30
0.0
 10
-0.2366732283464567
 20
-0.4406653543307087
 30
0.0
 10
-0.2366732283464567
 20
-0.4406653543307087
 30
0.0
 10
-0.2366732283464567
 20
-0.4406653543307087
 30
0.0
 10
-0.2381653543307087
 20
-0.4335866141732284
 30
0.0
 10
-0.2381653543307087
 20
-0.4335866141732284
 30
0.0
 10
-0.2381653543307087
 20
-0.4335866141732284
 30
0.0
 10
-0.2381653543307087
 20
-0.4335866141732284
 30
0.0
 10
-0.2389566929133858
 20
-0.4267244094488189
 30
0.0
 10
-0.2389566929133858
 20
-0.4267244094488189
 30
0.0
 10
-0.2389566929133858
 20
-0.4267244094488189
 30
0.0
 10
-0.2389566929133858
 20
-0.4267244094488189
 30
0.0
 10
-0.237984251968504
 20
-1.1800708661417323
 30
0.0
 10
-0.237984251968504
 20
-1.1800708661417323
 30
0.0
 10
-0.237984251968504
 20
-1.1800708661417323
 30
0.0
 10
-0.237984251968504
 20
-1.1800708661417323
 30
0.0
 10
-0.2371929133858268
 20
-1.1869330708661419
 30
0.0
 10
-0.2371929133858268
 20
-1.1869330708661419
 30
0.0
 10
-0.2371929133858268
 20
-1.1869330708661419
 30
0.0
 10
-0.2371929133858268
 20
-1.1869330708661419
 30
0.0
 10
-0.2357007874015748
 20
-1.1940118110236222
 30
0.0
 10
-0.2357007874015748
 20
-1.1940118110236222
 30
0.0
 10
-0.2357007874015748
 20
-1.1940118110236222
 30
0.0
 10
-0.2357007874015748
 20
-1.1940118110236222
 30
0.0
 10
-0.2335196850393701
 20
-1.2012637795275591
 30
0.0
 10
-0.2335196850393701
 20
-1.2012637795275591
 30
0.0
 10
-0.2335196850393701
 20
-1.2012637795275591
 30
0.0
 10
-0.2335196850393701
 20
-1.2012637795275591
 30
0.0
 10
-0.2306811023622047
 20
-1.2086614173228347
 30
0.0
 10
-0.2306811023622047
 20
-1.2086614173228347
 30
0.0
 10
-0.2306811023622047
 20
-1.2086614173228347
 30
0.0
 10
-0.2306811023622047
 20
-1.2086614173228347
 30
0.0
 10
-0.2271850393700788
 20
-1.2161496062992125
 30
0.0
 10
-0.2271850393700788
 20
-1.2161496062992125
 30
0.0
 10
-0.2271850393700788
 20
-1.2161496062992125
 30
0.0
 10
-0.2271850393700788
 20
-1.2161496062992125
 30
0.0
 10
-0.2230629921259843
 20
-1.2237125984251969
 30
0.0
 10
-0.2230629921259843
 20
-1.2237125984251969
 30
0.0
 10
-0.2230629921259843
 20
-1.2237125984251969
 30
0.0
 10
-0.2230629921259843
 20
-1.2237125984251969
 30
0.0
 10
-0.2183307086614173
 20
-1.2312992125984252
 30
0.0
 10
-0.2183307086614173
 20
-1.2312992125984252
 30
0.0
 10
-0.2183307086614173
 20
-1.2312992125984252
 30
0.0
 10
-0.2183307086614173
 20
-1.2312992125984252
 30
0.0
 10
-0.213007874015748
 20
-1.2388858267716536
 30
0.0
 10
-0.213007874015748
 20
-1.2388858267716536
 30
0.0
 10
-0.213007874015748
 20
-1.2388858267716536
 30
0.0
 10
-0.213007874015748
 20
-1.2388858267716536
 30
0.0
 10
-0.2070984251968504
 20
-1.2464173228346458
 30
0.0
 10
-0.2070984251968504
 20
-1.2464173228346458
 30
0.0
 10
-0.2070984251968504
 20
-1.2464173228346458
 30
0.0
 10
-0.2070984251968504
 20
-1.2464173228346458
 30
0.0
 10
-0.2006417322834646
 20
-1.2538740157480315
 30
0.0
 10
-0.2006417322834646
 20
-1.2538740157480315
 30
0.0
 10
-0.2006417322834646
 20
-1.2538740157480315
 30
0.0
 10
-0.2006417322834646
 20
-1.2538740157480315
 30
0.0
 10
-0.1936417322834646
 20
-1.2612047244094489
 30
0.0
 10
-0.1936417322834646
 20
-1.2612047244094489
 30
0.0
 10
-0.1936417322834646
 20
-1.2612047244094489
 30
0.0
 10
-0.1936417322834646
 20
-1.2612047244094489
 30
0.0
 10
-0.1861299212598425
 20
-1.2683858267716537
 30
0.0
 10
-0.1861299212598425
 20
-1.2683858267716537
 30
0.0
 10
-0.1861299212598425
 20
-1.2683858267716537
 30
0.0
 10
-0.1861299212598425
 20
-1.2683858267716537
 30
0.0
 10
-0.1781062992125984
 20
-1.2753700787401576
 30
0.0
 10
-0.1781062992125984
 20
-1.2753700787401576
 30
0.0
 10
-0.1781062992125984
 20
-1.2753700787401576
 30
0.0
 10
-0.1781062992125984
 20
-1.2753700787401576
 30
0.0
 10
-0.1696062992125984
 20
-1.2821299212598425
 30
0.0
 10
-0.1696062992125984
 20
-1.2821299212598425
 30
0.0
 10
-0.1696062992125984
 20
-1.2821299212598425
 30
0.0
 10
-0.1696062992125984
 20
-1.2821299212598425
 30
0.0
 10
-0.1606338582677165
 20
-1.2886181102362204
 30
0.0
 10
-0.1606338582677165
 20
-1.2886181102362204
 30
0.0
 10
-0.1606338582677165
 20
-1.2886181102362204
 30
0.0
 10
-0.1606338582677165
 20
-1.2886181102362204
 30
0.0
 10
-0.1512244094488189
 20
-1.2948110236220474
 30
0.0
 10
-0.1512244094488189
 20
-1.2948110236220474
 30
0.0
 10
-0.1512244094488189
 20
-1.2948110236220474
 30
0.0
 10
-0.1512244094488189
 20
-1.2948110236220474
 30
0.0
 10
-0.1413740157480315
 20
-1.3006496062992126
 30
0.0
 10
-0.1413740157480315
 20
-1.3006496062992126
 30
0.0
 10
-0.1413740157480315
 20
-1.3006496062992126
 30
0.0
 10
-0.1413740157480315
 20
-1.3006496062992126
 30
0.0
 10
-0.1311181102362205
 20
-1.3061220472440946
 30
0.0
 10
-0.1311181102362205
 20
-1.3061220472440946
 30
0.0
 10
-0.1311181102362205
 20
-1.3061220472440946
 30
0.0
 10
-0.1311181102362205
 20
-1.3061220472440946
 30
0.0
 10
-0.1204645669291339
 20
-1.3111732283464568
 30
0.0
 10
-0.1204645669291339
 20
-1.3111732283464568
 30
0.0
 10
-0.1204645669291339
 20
-1.3111732283464568
 30
0.0
 10
-0.1204645669291339
 20
-1.3111732283464568
 30
0.0
 10
-0.1094448818897638
 20
-1.3157834645669291
 30
0.0
 10
-0.1094448818897638
 20
-1.3157834645669291
 30
0.0
 10
-0.1094448818897638
 20
-1.3157834645669291
 30
0.0
 10
-0.1094448818897638
 20
-1.3157834645669291
 30
0.0
 10
-0.0980629921259843
 20
-1.3199015748031497
 30
0.0
 10
-0.0980629921259843
 20
-1.3199015748031497
 30
0.0
 10
-0.0980629921259843
 20
-1.3199015748031497
 30
0.0
 10
-0.0980629921259843
 20
-1.3199015748031497
 30
0.0
 10
-0.0863503937007874
 20
-1.323496062992126
 30
0.0
 10
-0.0863503937007874
 20
-1.323496062992126
 30
0.0
 10
-0.0863503937007874
 20
-1.323496062992126
 30
0.0
 10
-0.0863503937007874
 20
-1.323496062992126
 30
0.0
 10
-0.0743149606299213
 20
-1.3265275590551182
 30
0.0
 10
-0.0743149606299213
 20
-1.3265275590551182
 30
0.0
 10
-0.0743149606299213
 20
-1.3265275590551182
 30
0.0
 10
-0.0743149606299213
 20
-1.3265275590551182
 30
0.0
 10
-0.0619842519685039
 20
-1.3289645669291339
 30
0.0
 10
-0.0619842519685039
 20
-1.3289645669291339
 30
0.0
 10
-0.0619842519685039
 20
-1.3289645669291339
 30
0.0
 10
-0.0619842519685039
 20
-1.3289645669291339
 30
0.0
 10
-0.0493622047244094
 20
-1.3307598425196852
 30
0.0
 10
-0.0493622047244094
 20
-1.3307598425196852
 30
0.0
 10
-0.0493622047244094
 20
-1.3307598425196852
 30
0.0
 10
-0.0493622047244094
 20
-1.3307598425196852
 30
0.0
 10
-0.0364803149606299
 20
-1.3318897637795275
 30
0.0
 10
-0.0364803149606299
 20
-1.3318897637795275
 30
0.0
 10
-0.0364803149606299
 20
-1.3318897637795275
 30
0.0
 10
-0.0364803149606299
 20
-1.3318897637795275
 30
0.0
 10
-0.0233503937007874
 20
-1.3323070866141733
 30
0.0
 10
-0.0233503937007874
 20
-1.3323070866141733
 30
0.0
 10
-0.0233503937007874
 20
-1.3323070866141733
 30
0.0
 10
-0.0233503937007874
 20
-1.3323070866141733
 30
0.0
 10
-0.009996062992126
 20
-1.3319881889763781
 30
0.0
 10
-0.009996062992126
 20
-1.3319881889763781
 30
0.0
 10
-0.009996062992126
 20
-1.3319881889763781
 30
0.0
 10
-0.009996062992126
 20
-1.3319881889763781
 30
0.0
 10
0.0035629921259843
 20
-1.3308779527559056
 30
0.0
 10
0.0035629921259843
 20
-1.3308779527559056
 30
0.0
 10
0.0035629921259843
 20
-1.3308779527559056
 30
0.0
 10
0.0035629921259843
 20
-1.3308779527559056
 30
0.0
 10
0.0173228346456693
 20
-1.3289527559055119
 30
0.0
 10
0.0173228346456693
 20
-1.3289527559055119
 30
0.0
 10
0.0173228346456693
 20
-1.3289527559055119
 30
0.0
 10
0.0173228346456693
 20
-1.3289527559055119
 30
0.0
 10
0.031251968503937
 20
-1.3261692913385827
 30
0.0
 10
0.031251968503937
 20
-1.3261692913385827
 30
0.0
 10
0.031251968503937
 20
-1.3261692913385827
 30
0.0
 10
0.031251968503937
 20
-1.3261692913385827
 30
0.0
 10
0.0453425196850394
 20
-1.3225
 30
0.0
 10
0.0453425196850394
 20
-1.3225
 30
0.0
 10
0.0453425196850394
 20
-1.3225
 30
0.0
 10
0.0453425196850394
 20
-1.3225
 30
0.0
 10
0.0594685039370079
 20
-1.3183464566929135
 30
0.0
 10
0.0594685039370079
 20
-1.3183464566929135
 30
0.0
 10
0.0594685039370079
 20
-1.3183464566929135
 30
0.0
 10
0.0594685039370079
 20
-1.3183464566929135
 30
0.0
 10
0.0735433070866142
 20
-1.3142125984251969
 30
0.0
 10
0.0735433070866142
 20
-1.3142125984251969
 30
0.0
 10
0.0735433070866142
 20
-1.3142125984251969
 30
0.0
 10
0.0735433070866142
 20
-1.3142125984251969
 30
0.0
 10
0.0875393700787402
 20
-1.3101299212598425
 30
0.0
 10
0.0875393700787402
 20
-1.3101299212598425
 30
0.0
 10
0.0875393700787402
 20
-1.3101299212598425
 30
0.0
 10
0.0875393700787402
 20
-1.3101299212598425
 30
0.0
 10
0.1014566929133858
 20
-1.3061535433070868
 30
0.0
 10
0.1014566929133858
 20
-1.3061535433070868
 30
0.0
 10
0.1014566929133858
 20
-1.3061535433070868
 30
0.0
 10
0.1014566929133858
 20
-1.3061535433070868
 30
0.0
 10
0.1152716535433071
 20
-1.3023228346456694
 30
0.0
 10
0.1152716535433071
 20
-1.3023228346456694
 30
0.0
 10
0.1152716535433071
 20
-1.3023228346456694
 30
0.0
 10
0.1152716535433071
 20
-1.3023228346456694
 30
0.0
 10
0.1289763779527559
 20
-1.2986929133858269
 30
0.0
 10
0.1289763779527559
 20
-1.2986929133858269
 30
0.0
 10
0.1289763779527559
 20
-1.2986929133858269
 30
0.0
 10
0.1289763779527559
 20
-1.2986929133858269
 30
0.0
 10
0.1425551181102362
 20
-1.2952992125984253
 30
0.0
 10
0.1425551181102362
 20
-1.2952992125984253
 30
0.0
 10
0.1425551181102362
 20
-1.2952992125984253
 30
0.0
 10
0.1425551181102362
 20
-1.2952992125984253
 30
0.0
 10
0.156
 20
-1.2922007874015748
 30
0.0
 10
0.156
 20
-1.2922007874015748
 30
0.0
 10
0.156
 20
-1.2922007874015748
 30
0.0
 10
0.156
 20
-1.2922007874015748
 30
0.0
 10
0.1692834645669291
 20
-1.2894330708661417
 30
0.0
 10
0.1692834645669291
 20
-1.2894330708661417
 30
0.0
 10
0.1692834645669291
 20
-1.2894330708661417
 30
0.0
 10
0.1692834645669291
 20
-1.2894330708661417
 30
0.0
 10
0.1824055118110236
 20
-1.2870472440944882
 30
0.0
 10
0.1824055118110236
 20
-1.2870472440944882
 30
0.0
 10
0.1824055118110236
 20
-1.2870472440944882
 30
0.0
 10
0.1824055118110236
 20
-1.2870472440944882
 30
0.0
 10
0.1953464566929134
 20
-1.2850944881889765
 30
0.0
 10
0.1953464566929134
 20
-1.2850944881889765
 30
0.0
 10
0.1953464566929134
 20
-1.2850944881889765
 30
0.0
 10
0.1953464566929134
 20
-1.2850944881889765
 30
0.0
 10
0.2080984251968504
 20
-1.2836141732283466
 30
0.0
 10
0.2080984251968504
 20
-1.2836141732283466
 30
0.0
 10
0.2080984251968504
 20
-1.2836141732283466
 30
0.0
 10
0.2080984251968504
 20
-1.2836141732283466
 30
0.0
 10
0.2206417322834646
 20
-1.2826535433070867
 30
0.0
 10
0.2206417322834646
 20
-1.2826535433070867
 30
0.0
 10
0.2206417322834646
 20
-1.2826535433070867
 30
0.0
 10
0.2206417322834646
 20
-1.2826535433070867
 30
0.0
 10
0.2329685039370079
 20
-1.2822598425196852
 30
0.0
 10
0.2329685039370079
 20
-1.2822598425196852
 30
0.0
 10
0.2329685039370079
 20
-1.2822598425196852
 30
0.0
 10
0.2329685039370079
 20
-1.2822598425196852
 30
0.0
 10
0.2450590551181102
 20
-1.2824803149606299
 30
0.0
 10
0.2450590551181102
 20
-1.2824803149606299
 30
0.0
 10
0.2450590551181102
 20
-1.2824803149606299
 30
0.0
 10
0.2450590551181102
 20
-1.2824803149606299
 30
0.0
 10
0.2569133858267717
 20
-1.2833740157480316
 30
0.0
 10
0.2569133858267717
 20
-1.2833740157480316
 30
0.0
 10
0.2569133858267717
 20
-1.2833740157480316
 30
0.0
 10
0.2569133858267717
 20
-1.2833740157480316
 30
0.0
 10
0.268496062992126
 20
-1.2849645669291339
 30
0.0
 10
0.268496062992126
 20
-1.2849645669291339
 30
0.0
 10
0.268496062992126
 20
-1.2849645669291339
 30
0.0
 10
0.268496062992126
 20
-1.2849645669291339
 30
0.0
 10
0.2798149606299213
 20
-1.2873110236220473
 30
0.0
 10
0.2798149606299213
 20
-1.2873110236220473
 30
0.0
 10
0.2798149606299213
 20
-1.2873110236220473
 30
0.0
 10
0.2798149606299213
 20
-1.2873110236220473
 30
0.0
 10
0.2908425196850394
 20
-1.2904566929133858
 30
0.0
 10
0.2908425196850394
 20
-1.2904566929133858
 30
0.0
 10
0.2908425196850394
 20
-1.2904566929133858
 30
0.0
 10
0.2908425196850394
 20
-1.2904566929133858
 30
0.0
 10
0.3015787401574803
 20
-1.2944566929133858
 30
0.0
 10
0.3015787401574803
 20
-1.2944566929133858
 30
0.0
 10
0.3015787401574803
 20
-1.2944566929133858
 30
0.0
 10
0.3015787401574803
 20
-1.2944566929133858
 30
0.0
 10
0.311992125984252
 20
-1.2993425196850394
 30
0.0
 10
0.311992125984252
 20
-1.2993425196850394
 30
0.0
 10
0.311992125984252
 20
-1.2993425196850394
 30
0.0
 10
0.311992125984252
 20
-1.2993425196850394
 30
0.0
 10
0.3220866141732284
 20
-1.3051811023622049
 30
0.0
 10
0.3220866141732284
 20
-1.3051811023622049
 30
0.0
 10
0.3220866141732284
 20
-1.3051811023622049
 30
0.0
 10
0.3220866141732284
 20
-1.3051811023622049
 30
0.0
 10
0.3318385826771654
 20
-1.3119960629921261
 30
0.0
 10
0.3318385826771654
 20
-1.3119960629921261
 30
0.0
 10
0.3318385826771654
 20
-1.3119960629921261
 30
0.0
 10
0.3318385826771654
 20
-1.3119960629921261
 30
0.0
 10
0.341248031496063
 20
-1.3198543307086614
 30
0.0
 10
0.341248031496063
 20
-1.3198543307086614
 30
0.0
 10
0.341248031496063
 20
-1.3198543307086614
 30
0.0
 10
0.341248031496063
 20
-1.3198543307086614
 30
0.0
 10
0.3502795275590551
 20
-1.3287834645669292
 30
0.0
 10
0.3502795275590551
 20
-1.3287834645669292
 30
0.0
 10
0.3502795275590551
 20
-1.3287834645669292
 30
0.0
 10
0.3502795275590551
 20
-1.3287834645669292
 30
0.0
 10
0.3589370078740158
 20
-1.3388464566929135
 30
0.0
 10
0.3589370078740158
 20
-1.3388464566929135
 30
0.0
 10
0.3589370078740158
 20
-1.3388464566929135
 30
0.0
 10
0.3589370078740158
 20
-1.3388464566929135
 30
0.0
 10
0.3672007874015748
 20
-1.3500787401574803
 30
0.0
 10
0.3672007874015748
 20
-1.3500787401574803
 30
0.0
 10
0.3672007874015748
 20
-1.3500787401574803
 30
0.0
 10
0.3672007874015748
 20
-1.3500787401574803
 30
0.0
 10
0.3750629921259843
 20
-1.3625393700787403
 30
0.0
 10
0.3750629921259843
 20
-1.3625393700787403
 30
0.0
 10
0.3750629921259843
 20
-1.3625393700787403
 30
0.0
 10
0.3750629921259843
 20
-1.3625393700787403
 30
0.0
 10
0.382496062992126
 20
-1.3762559055118111
 30
0.0
 10
0.382496062992126
 20
-1.3762559055118111
 30
0.0
 10
0.382496062992126
 20
-1.3762559055118111
 30
0.0
 10
0.382496062992126
 20
-1.3762559055118111
 30
0.0
 10
0.3895078740157481
 20
-1.3912952755905512
 30
0.0
 10
0.3895078740157481
 20
-1.3912952755905512
 30
0.0
 10
0.3895078740157481
 20
-1.3912952755905512
 30
0.0
 10
0.3895078740157481
 20
-1.3912952755905512
 30
0.0
 10
0.3960708661417323
 20
-1.4076889763779528
 30
0.0
 10
0.3960708661417323
 20
-1.4076889763779528
 30
0.0
 10
0.3960708661417323
 20
-1.4076889763779528
 30
0.0
 10
0.3960708661417323
 20
-1.4076889763779528
 30
0.0
 10
0.4021771653543307
 20
-1.4255
 30
0.0
 10
0.4021771653543307
 20
-1.4255
 30
0.0
  0
SPLINE
  5
6A
100
AcDbEntity
  8
P1-Layer 1
 62
   253
100
AcDbSpline
210
0.0
220
0.0
230
1.0
 70
     1
 71
     3
 72
    20
 73
    16
 74
     0
 42
0.0000000001
 43
0.0000000001
 40
0.0
 40
0.0
 40
0.0
 40
0.0
 40
0.25
 40
0.25
 40
0.25
 40
0.25
 40
0.5
 40
0.5
 40
0.5
 40
0.5
 40
0.75
 40
0.75
 40
0.75
 40
0.75
 40
1.0
 40
1.0
 40
1.0
 40
1.0
 10
-0.237984251968504
 20
-1.1800708661417323
 30
0.0
 10
-0.237984251968504
 20
-1.1800708661417323
 30
0.0
 10
-0.2389566929133858
 20
-0.4267244094488189
 30
0.0
 10
-0.2389566929133858
 20
-0.4267244094488189
 30
0.0
 10
-0.2389566929133858
 20
-0.4267244094488189
 30
0.0
 10
-0.2389566929133858
 20
-0.4267244094488189
 30
0.0
 10
-0.4907322834645669
 20
-0.4114094488188976
 30
0.0
 10
-0.4907322834645669
 20
-0.4114094488188976
 30
0.0
 10
-0.4907322834645669
 20
-0.4114094488188976
 30
0.0
 10
-0.4907322834645669
 20
-0.4114094488188976
 30
0.0
 10
-0.4897598425196851
 20
-1.1647559055118111
 30
0.0
 10
-0.4897598425196851
 20
-1.1647559055118111
 30
0.0
 10
-0.4897598425196851
 20
-1.1647559055118111
 30
0.0
 10
-0.4897598425196851
 20
-1.1647559055118111
 30
0.0
 10
-0.237984251968504
 20
-1.1800708661417323
 30
0.0
 10
-0.237984251968504
 20
-1.1800708661417323
 30
0.0
  0
SPLINE
  5
6B
100
AcDbEntity
  8
P1-Layer 1
370
     5
100
AcDbSpline
210
0.0
220
0.0
230
1.0
 70
     1
 71
     3
 72
    20
 73
    16
 74
     0
 42
0.0000000001
 43
0.0000000001
 40
0.0
 40
0.0
 40
0.0
 40
0.0
 40
0.25
 40
0.25
 40
0.25
 40
0.25
 40
0.5
 40
0.5
 40
0.5
 40
0.5
 40
0.75
 40
0.75
 40
0.75
 40
0.75
 40
1.0
 40
1.0
 40
1.0
 40
1.0
 10
-0.237984251968504
 20
-1.1800708661417323
 30
0.0
 10
-0.237984251968504
 20
-1.1800708661417323
 30
0.0
 10
-0.2389566929133858
 20
-0.4267244094488189
 30
0.0
 10
-0.2389566929133858
 20
-0.4267244094488189
 30
0.0
 10
-0.2389566929133858
 20
-0.4267244094488189
 30
0.0
 10
-0.2389566929133858
 20
-0.4267244094488189
 30
0.0
 10
-0.4907322834645669
 20
-0.4114094488188976
 30
0.0
 10
-0.4907322834645669
 20
-0.4114094488188976
 30
0.0
 10
-0.4907322834645669
 20
-0.4114094488188976
 30
0.0
 10
-0.4907322834645669
 20
-0.4114094488188976
 30
0.0
 10
-0.4897598425196851
 20
-1.1647559055118111
 30
0.0
 10
-0.4897598425196851
 20
-1.1647559055118111
 30
0.0
 10
-0.4897598425196851
 20
-1.1647559055118111
 30
0.0
 10
-0.4897598425196851
 20
-1.1647559055118111
 30
0.0
 10
-0.237984251968504
 20
-1.1800708661417323
 30
0.0
 10
-0.237984251968504
 20
-1.1800708661417323
 30
0.0
  0
SPLINE
  5
6C
100
AcDbEntity
  8
P1-Layer 1
370
     5
 62
     7
100
AcDbSpline
210
0.0
220
0.0
230
1.0
 70
     1
 71
     3
 72
    44
 73
    40
 74
     0
 42
0.0000000001
 43
0.0000000001
 40
0.0
 40
0.0
 40
0.0
 40
0.0
 40
0.1
 40
0.1
 40
0.1
 40
0.1
 40
0.2
 40
0.2
 40
0.2
 40
0.2
 40
0.3
 40
0.3
 40
0.3
 40
0.3
 40
0.4
 40
0.4
 40
0.4
 40
0.4
 40
0.5
 40
0.5
 40
0.5
 40
0.5
 40
0.6
 40
0.6
 40
0.6
 40
0.6
 40
0.7
 40
0.7
 40
0.7
 40
0.7
 40
0.7999999999999999
 40
0.7999999999999999
 40
0.7999999999999999
 40
0.7999999999999999
 40
0.8999999999999999
 40
0.8999999999999999
 40
0.8999999999999999
 40
0.8999999999999999
 40
1.0
 40
1.0
 40
1.0
 40
1.0
 10
0.841484251968504
 20
-1.8055629921259844
 30
0.0
 10
0.841484251968504
 20
-1.8055629921259844
 30
0.0
 10
0.841484251968504
 20
-1.6292795275590553
 30
0.0
 10
0.841484251968504
 20
-1.6292795275590553
 30
0.0
 10
0.841484251968504
 20
-1.6292795275590553
 30
0.0
 10
0.6132913385826772
 20
-1.6212992125984254
 30
0.0
 10
0.5556889763779528
 20
-1.5426220472440946
 30
0.0
 10
0.5526968503937008
 20
-1.4255
 30
0.0
 10
0.5526968503937008
 20
-1.4255
 30
0.0
 10
0.5526968503937008
 20
-1.4255
 30
0.0
 10
0.4021771653543307
 20
-1.4255
 30
0.0
 10
0.4021771653543307
 20
-1.4255
 30
0.0
 10
0.4021771653543307
 20
-1.4255
 30
0.0
 10
0.3395866141732284
 20
-1.2279370078740157
 30
0.0
 10
0.1963543307086614
 20
-1.2784015748031496
 30
0.0
 10
0.0453425196850394
 20
-1.3225
 30
0.0
 10
0.0453425196850394
 20
-1.3225
 30
0.0
 10
-0.1056692913385827
 20
-1.3665984251968504
 30
0.0
 10
-0.2333897637795276
 20
-1.2520511811023622
 30
0.0
 10
-0.237984251968504
 20
-1.1800708661417323
 30
0.0
 10
-0.237984251968504
 20
-1.1800708661417323
 30
0.0
 10
-0.237984251968504
 20
-1.1800708661417323
 30
0.0
 10
-0.4897598425196851
 20
-1.1647559055118111
 30
0.0
 10
-0.4897598425196851
 20
-1.1647559055118111
 30
0.0
 10
-0.4897598425196851
 20
-1.1647559055118111
 30
0.0
 10
-0.4897598425196851
 20
-1.1647559055118111
 30
0.0
 10
-0.4897598425196851
 20
-2.4590275590551181
 30
0.0
 10
-0.4897598425196851
 20
-2.4590275590551181
 30
0.0
 10
-0.4897598425196851
 20
-2.4590275590551181
 30
0.0
 10
-0.4897598425196851
 20
-2.4590275590551181
 30
0.0
 10
0.5223503937007874
 20
-2.4590275590551181
 30
0.0
 10
0.5223503937007874
 20
-2.4590275590551181
 30
0.0
 10
0.5223503937007874
 20
-2.4590275590551181
 30
0.0
 10
0.5223503937007874
 20
-2.4590275590551181
 30
0.0
 10
0.5223503937007874
 20
-1.8055629921259844
 30
0.0
 10
0.5223503937007874
 20
-1.8055629921259844
 30
0.0
 10
0.5223503937007874
 20
-1.8055629921259844
 30
0.0
 10
0.5223503937007874
 20
-1.8055629921259844
 30
0.0
 10
0.841484251968504
 20
-1.8055629921259844
 30
0.0
 10
0.841484251968504
 20
-1.8055629921259844
 30
0.0
  0
TEXT
  5
6D
100
AcDbEntity
  8
P1-Layer 1
100
AcDbText
 10
-0.199976
 20
-2.652996
 30
0.0
 40
0.119999
  1
BA  1509
 51
-0.000002
  7
Bookman Old Style
100
AcDbText
  0
TEXT
  5
6E
100
AcDbEntity
  8
P1-Layer 1
100
AcDbText
 10
-0.56835
 20
-2.840496
 30
0.0
 40
0.119999
  1
1-5/16\u+201d x 1-5/16\u+201d
 51
-0.000002
  7
Bookman Old Style
100
AcDbText
  0
ENDSEC
  0
SECTION
  2
OBJECTS
  0
DICTIONARY
  5
19
100
AcDbDictionary
280
     0
281
     1
  3
ACAD_GROUP
350
1A
  3
ACAD_MLINESTYLE
350
1B
  3
ACAD_LAYOUT
350
1E
  3
ACAD_PLOTSETTINGS
350
22
  3
ACAD_PLOTSTYLENAME
350
1F
  3
ACAD_WIPEOUT_VARS
350
23
  0
DICTIONARY
  5
1A
102
{ACAD_REACTORS
330
19
102
}
100
AcDbDictionary
280
     0
281
     1
  0
DICTIONARY
  5
1B
102
{ACAD_REACTORS
330
19
102
}
100
AcDbDictionary
280
     0
281
     1
  3
Standard
350
1C
  0
MLINESTYLE
  5
1C
102
{ACAD_REACTORS
330
1B
102
}
100
AcDbMlineStyle
  2
Standard
 70
     0
  3

 62
     0
 51
90.0
 52
90.0
 71
     2
 49
0.5
 62
   256
  6
BYLAYER
 49
-0.5
 62
   256
  6
BYLAYER
  0
ACDBDICTIONARYWDFLT
  5
1F
102
{ACAD_REACTORS
330
19
102
}
100
AcDbDictionary
281
     1
  3
Normal
350
1D
100
AcDbDictionaryWithDefault
340
1D
  0
ACDBPLACEHOLDER
  5
1D
102
{ACAD_REACTORS
330
1F
102
}
  0
LAYOUT
  5
20
102
{ACAD_REACTORS
330
1E
102
}
100
AcDbPlotSettings
  1

  2

  4

  6

 40
0.0
 41
0.0
 42
0.0
 43
0.0
 44
0.0
 45
0.0
 46
0.0
 47
0.0
 48
0.0
 49
0.0
140
0.0
141
0.0
142
1.0
143
1.0
 70
  1024
 72
     0
 73
     0
 74
     0
  7

 75
     0
147
1.0
148
0.0
149
0.0
100
AcDbLayout
  1
Model
 70
     0
 71
     0
 10
0.0
 20
0.0
 11
0.0
 21
0.0
 12
0.0
 22
0.0
 32
0.0
 14
0.0
 24
0.0
 34
0.0
 15
0.0
 25
0.0
 35
0.0
146
0.0
 13
0.0
 23
0.0
 33
0.0
 16
0.0
 26
0.0
 36
0.0
 17
0.0
 27
0.0
 37
0.0
 76
     0
330
A
331
0
345
0
346
0
  0
LAYOUT
  5
21
102
{ACAD_REACTORS
330
1E
102
}
100
AcDbPlotSettings
  1

  2

  4

  6

 40
0.0
 41
0.0
 42
0.0
 43
0.0
 44
0.0
 45
0.0
 46
0.0
 47
0.0
 48
0.0
 49
0.0
140
0.0
141
0.0
142
1.0
143
1.0
 70
     0
 72
     0
 73
     0
 74
     0
  7

 75
     0
147
1.0
148
0.0
149
0.0
100
AcDbLayout
  1
Layout1
 70
     0
 71
     0
 10
0.0
 20
0.0
 11
0.0
 21
0.0
 12
0.0
 22
0.0
 32
0.0
 14
0.0
 24
0.0
 34
0.0
 15
0.0
 25
0.0
 35
0.0
146
0.0
 13
0.0
 23
0.0
 33
0.0
 16
0.0
 26
0.0
 36
0.0
 17
0.0
 27
0.0
 37
0.0
 76
     0
330
B
331
0
345
0
346
0
  0
DICTIONARY
  5
1E
102
{ACAD_REACTORS
330
19
102
}
100
AcDbDictionary
280
     0
281
     1
  3
Layout1
350
21
  3
Model
350
20
  0
DICTIONARY
  5
22
102
{ACAD_REACTORS
330
19
102
}
100
AcDbDictionary
280
     0
281
     1
  0
WIPEOUTVARIABLES
  5
23
100
AcDbWipeoutVariables
 70
     1
  0
ENDSEC
  0
EOF
