  0
SECTION
  2
HEADER
  9
$ACADVER
  1
AC1015
  9
$ACADMAINTVER
 70
     6
  9
$DWGCODEPAGE
  3
DOS850
  9
$INSBASE
 10
0.0
 20
0.0
 30
0.0
  9
$EXTMIN
 10
-1.377898
 20
-1.887791
 30
1.000000E+20
  9
$EXTMAX
 10
1.169476
 20
2.95161
 30
-1.000000E+20
  9
$LIMMIN
 10
0.0
 20
0.0
  9
$LIMMAX
 10
0.0
 20
0.0
  9
$ORTHOMODE
 70
     0
  9
$REGENMODE
 70
     1
  9
$FILLMODE
 70
     1
  9
$QTEXTMODE
 70
     0
  9
$MIRRTEXT
 70
     1
  9
$LTSCALE
 40
1.0
  9
$ATTMODE
 70
     1
  9
$TEXTSIZE
 40
0.2
  9
$TRACEWID
 40
0.05
  9
$TEXTSTYLE
  7
Standard
  9
$CLAYER
  8
0
  9
$CELTYPE
  6
Continuous
  9
$CECOLOR
 62
   256
  9
$CELTSCALE
 40
1.0
  9
$DISPSILH
 70
     0
  9
$DIMSCALE
 40
1.0
  9
$DIMASZ
 40
0.18
  9
$DIMEXO
 40
0.0625
  9
$DIMDLI
 40
0.38
  9
$DIMRND
 40
0.0
  9
$DIMDLE
 40
0.0
  9
$DIMEXE
 40
0.18
  9
$DIMTP
 40
0.0
  9
$DIMTM
 40
0.0
  9
$DIMTXT
 40
0.18
  9
$DIMCEN
 40
0.09
  9
$DIMTSZ
 40
0.0
  9
$DIMTOL
 70
     0
  9
$DIMLIM
 70
     0
  9
$DIMTIH
 70
     1
  9
$DIMTOH
 70
     1
  9
$DIMSE1
 70
     0
  9
$DIMSE2
 70
     0
  9
$DIMTAD
 70
     0
  9
$DIMZIN
 70
     0
  9
$DIMBLK
  1

  9
$DIMASO
 70
     1
  9
$DIMSHO
 70
     1
  9
$DIMPOST
  1

  9
$DIMAPOST
  1

  9
$DIMALT
 70
     0
  9
$DIMALTD
 70
     2
  9
$DIMALTF
 40
25.4
  9
$DIMLFAC
 40
1.0
  9
$DIMTOFL
 70
     0
  9
$DIMTVP
 40
0.0
  9
$DIMTIX
 70
     0
  9
$DIMSOXD
 70
     0
  9
$DIMSAH
 70
     0
  9
$DIMBLK1
  1

  9
$DIMBLK2
  1

  9
$DIMSTYLE
  2
Standard
  9
$DIMCLRD
 70
     0
  9
$DIMCLRE
 70
     0
  9
$DIMCLRT
 70
     0
  9
$DIMTFAC
 40
1.0
  9
$DIMGAP
 40
0.09
  9
$DIMJUST
 70
     0
  9
$DIMSD1
 70
     0
  9
$DIMSD2
 70
     0
  9
$DIMTOLJ
 70
     1
  9
$DIMTZIN
 70
     0
  9
$DIMALTZ
 70
     0
  9
$DIMALTTZ
 70
     0
  9
$DIMUPT
 70
     0
  9
$DIMDEC
 70
     4
  9
$DIMTDEC
 70
     4
  9
$DIMALTU
 70
     2
  9
$DIMALTTD
 70
     2
  9
$DIMTXSTY
  7
Standard
  9
$DIMAUNIT
 70
     0
  9
$DIMADEC
 70
     0
  9
$DIMALTRND
 40
0.0
  9
$DIMAZIN
 70
     0
  9
$DIMDSEP
 70
     0
  9
$DIMATFIT
 70
     3
  9
$DIMFRAC
 70
     0
  9
$DIMLDRBLK
  1

  9
$DIMLUNIT
 70
     2
  9
$DIMLWD
 70
     0
  9
$DIMLWE
 70
     0
  9
$DIMTMOVE
 70
     0
  9
$LUNITS
 70
     2
  9
$LUPREC
 70
     4
  9
$SKETCHINC
 40
0.1
  9
$FILLETRAD
 40
0.0
  9
$AUNITS
 70
     0
  9
$AUPREC
 70
     0
  9
$MENU
  1
acad
  9
$ELEVATION
 40
0.0
  9
$PELEVATION
 40
0.0
  9
$THICKNESS
 40
0.0
  9
$LIMCHECK
 70
     0
  9
$CHAMFERA
 40
0.0
  9
$CHAMFERB
 40
0.0
  9
$CHAMFERC
 40
0.0
  9
$CHAMFERD
 40
0.0
  9
$SKPOLY
 70
     0
  9
$TDCREATE
 40
0.000000000
  9
$TDUCREATE
 40
0.000000000
  9
$TDUPDATE
 40
0.000000000
  9
$TDUUPDATE
 40
0.000000000
  9
$TDINDWG
 40
0.0000000000
  9
$TDUSRTIMER
 40
0.0000000000
  9
$USRTIMER
 70
     1
  9
$ANGBASE
 50
0.0
  9
$ANGDIR
 70
     0
  9
$PDMODE
 70
     0
  9
$PDSIZE
 40
0.0
  9
$PLINEWID
 40
0.0
  9
$SPLFRAME
 70
     0
  9
$SPLINETYPE
 70
     6
  9
$SPLINESEGS
 70
     8
  9
$HANDSEED
  5
B5
  9
$SURFTAB1
 70
     6
  9
$SURFTAB2
 70
     6
  9
$SURFTYPE
 70
     6
  9
$SURFU
 70
     6
  9
$SURFV
 70
     6
  9
$UCSBASE
  2

  9
$UCSNAME
  2

  9
$UCSORG
 10
0.0
 20
0.0
 30
0.0
  9
$UCSXDIR
 10
1.0
 20
0.0
 30
0.0
  9
$UCSYDIR
 10
0.0
 20
1.0
 30
0.0
  9
$UCSORTHOREF
  2

  9
$UCSORTHOVIEW
 70
     0
  9
$UCSORGTOP
 10
0.0
 20
0.0
 30
0.0
  9
$UCSORGBOTTOM
 10
0.0
 20
0.0
 30
0.0
  9
$UCSORGLEFT
 10
0.0
 20
0.0
 30
0.0
  9
$UCSORGRIGHT
 10
0.0
 20
0.0
 30
0.0
  9
$UCSORGFRONT
 10
0.0
 20
0.0
 30
0.0
  9
$UCSORGBACK
 10
0.0
 20
0.0
 30
0.0
  9
$PUCSBASE
  2

  9
$PUCSNAME
  2

  9
$PUCSORG
 10
0.0
 20
0.0
 30
0.0
  9
$PUCSXDIR
 10
1.0
 20
0.0
 30
0.0
  9
$PUCSYDIR
 10
0.0
 20
1.0
 30
0.0
  9
$PUCSORTHOREF
  2

  9
$PUCSORTHOVIEW
 70
     0
  9
$PUCSORGTOP
 10
0.0
 20
0.0
 30
0.0
  9
$PUCSORGBOTTOM
 10
0.0
 20
0.0
 30
0.0
  9
$PUCSORGLEFT
 10
0.0
 20
0.0
 30
0.0
  9
$PUCSORGRIGHT
 10
0.0
 20
0.0
 30
0.0
  9
$PUCSORGFRONT
 10
0.0
 20
0.0
 30
0.0
  9
$PUCSORGBACK
 10
0.0
 20
0.0
 30
0.0
  9
$USERI1
 70
     0
  9
$USERI2
 70
     0
  9
$USERI3
 70
     0
  9
$USERI4
 70
     0
  9
$USERI5
 70
     0
  9
$USERR1
 40
0.0
  9
$USERR2
 40
0.0
  9
$USERR3
 40
0.0
  9
$USERR4
 40
0.0
  9
$USERR5
 40
0.0
  9
$WORLDVIEW
 70
     1
  9
$SHADEDGE
 70
     3
  9
$SHADEDIF
 70
    70
  9
$TILEMODE
 70
     1
  9
$MAXACTVP
 70
    16
  9
$PINSBASE
 10
0.0
 20
0.0
 30
0.0
  9
$PLIMCHECK
 70
     0
  9
$PEXTMIN
 10
1.000000E+20
 20
1.000000E+20
 30
1.000000E+20
  9
$PEXTMAX
 10
-1.000000E+20
 20
-1.000000E+20
 30
-1.000000E+20
  9
$PLIMMIN
 10
0.0
 20
0.0
  9
$PLIMMAX
 10
12.0
 20
9.0
  9
$UNITMODE
 70
     0
  9
$VISRETAIN
 70
     0
  9
$PLINEGEN
 70
     1
  9
$PSLTSCALE
 70
     0
  9
$TREEDEPTH
 70
  3020
  9
$CMLSTYLE
  2
Standard
  9
$CMLJUST
 70
     0
  9
$CMLSCALE
 40
1.0
  9
$PROXYGRAPHICS
 70
     0
  9
$MEASUREMENT
 70
     0
  9
$CELWEIGHT
370
     0
  9
$ENDCAPS
280
     0
  9
$JOINSTYLE
280
     0
  9
$LWDISPLAY
290
     0
  9
$INSUNITS
 70
     1
  9
$HYPERLINKBASE
  1

  9
$XEDIT
290
     1
  9
$CEPSNTYPE
380
     0
  9
$PSTYLEMODE
290
     1
  9
$FINGERPRINTGUID
  2

  9
$VERSIONGUID
  2

  9
$EXTNAMES
290
     1
  9
$PSVPSCALE
 40
0.0
  0
ENDSEC
  0
SECTION
  2
CLASSES
  0
CLASS
  1
LWPOLYLINE
  2
AcDbPolyline
  3
AutoCAD 2000
 90
    32768
280
     0
281
     1
  0
CLASS
  1
IMAGE
  2
AcDbRasterImage
  3
ISM
 90
    32895
280
     0
281
     1
  0
CLASS
  1
OLE2FRAME
  2
AcDbOle2Frame
  3
AutoCAD 2000
 90
    32768
280
     0
281
     1
  0
CLASS
  1
HATCH
  2
AcDbHatch
  3
AutoCAD 2000
 90
    32768
280
     0
281
     1
  0
CLASS
  1
DICTIONARYVAR
  2
AcDbDictionaryVar
  3
AutoCAD 2000
 90
    32768
280
     0
281
     0
  0
CLASS
  1
RASTERVARIABLES
  2
AcDbRasterVariables
  3
ISM
 90
    32768
280
     0
281
     0
  0
CLASS
  1
IMAGEDEF
  2
AcDbRasterImageDef
  3
ISM
 90
    32768
280
     0
281
     0
  0
CLASS
  1
IMAGEDEF_REACTOR
  2
AcDbRasterImageDefReactor
  3
ISM
 90
    32769
280
     0
281
     0
  0
CLASS
  1
IDBUFFER
  2
AcDbIdBuffer
  3
AutoCAD 2000
 90
    32768
280
     0
281
     0
  0
CLASS
  1
SPATIAL_FILTER
  2
AcDbSpatialFilter
  3
AutoCAD 2000
 90
    32768
280
     0
281
     0
  0
CLASS
  1
XRECORD
  2
AcDbXrecord
  3
AutoCAD 2000
 90
    32768
280
     0
281
     0
  0
CLASS
  1
SORTENTSTABLE
  2
AcDbSortentsTable
  3
AutoCAD 2000
 90
    32768
280
     0
281
     0
  0
CLASS
  1
LAYER_INDEX
  2
AcDbLayerIndex
  3
AutoCAD 2000
 90
    32768
280
     0
281
     0
  0
CLASS
  1
SPATIAL_INDEX
  2
AcDbSpatialIndex
  3
AutoCAD 2000
 90
    32768
280
     0
281
     0
  0
CLASS
  1
OBJECT_PTR
  2
CAseDLPNTableRecord
  3
"ASE-LPNTableRecord"
 90
    32769
280
     0
281
     0
  0
CLASS
  1
LAYOUT
  2
AcDbLayout
  3
AutoCAD 2000
 90
        0
280
     0
281
     0
  0
CLASS
  1
PLOTSETTINGS
  2
AcDbPlotSettings
  3
AutoCAD 2000
 90
    32768
280
     0
281
     0
  0
CLASS
  1
ACDBDICTIONARYWDFLT
  2
AcDbDictionaryWithDefault
  3
AutoCAD 2000
 90
        0
280
     0
281
     0
  0
CLASS
  1
ACDBPLACEHOLDER
  2
AcDbPlaceHolder
  3
AutoCAD 2000
 90
        0
280
     0
281
     0
  0
CLASS
  1
VBA_PROJECT
  2
AcDbVbaProject
  3
acadvba
 90
    32768
280
     0
281
     0
  0
CLASS
  1
WIPEOUT
  2
AcDbWipeout
  3
WipeOut|AutoCAD Express Tool|expresstools@autodesk.com
 90
    32895
280
     0
281
     1
  0
CLASS
  1
WIPEOUTVARIABLES
  2
AcDbWipeoutVariables
  3
WipeOut|AutoCAD Express Tool|expresstools@autodesk.com
 90
        0
280
     0
281
     0
  0
CLASS
  1
RTEXT
  2
RText
  3
RText|AutoCAD Express Tool|expresstools@autodesk.com
 90
    32768
280
     0
281
     1
  0
CLASS
  1
ARCALIGNEDTEXT
  2
AcDbArcAlignedText
  3
ATEXT|AutoCAD Express Tool|expresstools@autodesk.com
 90
    32768
280
     0
281
     1
  0
ENDSEC
  0
SECTION
  2
TABLES
  0
TABLE
  2
VPORT
  5
7
100
AcDbSymbolTable
 70
     1
  0
VPORT
  5
15
100
AcDbSymbolTableRecord
100
AcDbViewportTableRecord
  2
*ACTIVE
 70
     0
 10
0.0
 20
0.0
 11
1.0
 21
1.0
 12
6.591288
 22
4.579184
 13
0.0
 23
0.0
 14
1.0
 24
1.0
 15
0.0
 25
0.0
 16
0.0
 26
0.0
 36
1.0
 17
0.0
 27
0.0
 37
0.0
 40
9.158369
 41
0.688564
 42
50.0
 43
0.0
 44
0.0
 50
0.0
 51
0.0
 71
     0
 72
   100
 73
     1
 74
     1
 75
     0
 76
     0
 77
     0
 78
     0
281
     0
 65
     0
110
0.0
120
0.0
130
0.0
111
1.0
121
0.0
131
0.0
112
0.0
122
1.0
132
0.0
345
0
346
0
 79
     0
146
0.0
  0
ENDTAB
  0
TABLE
  2
LTYPE
  5
4
100
AcDbSymbolTable
 70
     3
  0
LTYPE
  5
11
100
AcDbSymbolTableRecord
100
AcDbLinetypeTableRecord
  2
ByBlock
 70
    64
  3

 72
    65
 73
     0
 40
0.0
  0
LTYPE
  5
12
100
AcDbSymbolTableRecord
100
AcDbLinetypeTableRecord
  2
ByLayer
 70
    64
  3

 72
    65
 73
     0
 40
0.0
  0
LTYPE
  5
13
100
AcDbSymbolTableRecord
100
AcDbLinetypeTableRecord
  2
Continuous
 70
    64
  3
Solid line
 72
    65
 73
     0
 40
0.0
  0
ENDTAB
  0
TABLE
  2
LAYER
  5
2
100
AcDbSymbolTable
 70
     2
  0
LAYER
  5
14
100
AcDbSymbolTableRecord
100
AcDbLayerTableRecord
  2
0
 70
     0
 62
     7
  6
Continuous
290
     1
370
    -3
390
1D
  0
LAYER
  5
24
100
AcDbSymbolTableRecord
100
AcDbLayerTableRecord
  2
Layer 1
 70
     0
 62
     7
  6
Continuous
290
     1
370
    -3
390
1F
  0
ENDTAB
  0
TABLE
  2
STYLE
  5
3
100
AcDbSymbolTable
 70
     2
  0
STYLE
  5
17
100
AcDbSymbolTableRecord
100
AcDbTextStyleTableRecord
  2
Standard
 70
     0
 40
0.0
 41
1.0
 50
0.0
 71
     0
 42
0.0
  3
txt
  4

  0
STYLE
  5
26
100
AcDbSymbolTableRecord
100
AcDbTextStyleTableRecord
  2
Bookman Old Style
 70
     0
 40
1.0
 41
1.0
 50
0.0
 71
     0
 42
1.0
  3
Bookman Old Style
  4

  0
ENDTAB
  0
TABLE
  2
VIEW
  5
5
100
AcDbSymbolTable
 70
     0
  0
ENDTAB
  0
TABLE
  2
UCS
  5
6
100
AcDbSymbolTable
 70
     0
  0
ENDTAB
  0
TABLE
  2
APPID
  5
8
100
AcDbSymbolTable
 70
     1
  0
APPID
  5
16
100
AcDbSymbolTableRecord
100
AcDbRegAppTableRecord
  2
ACAD
 70
     0
  0
ENDTAB
  0
TABLE
  2
DIMSTYLE
  5
9
100
AcDbSymbolTable
 70
     1
100
AcDbDimStyleTable
 71
     0
  0
DIMSTYLE
105
18
100
AcDbSymbolTableRecord
100
AcDbDimStyleTableRecord
  2
Standard
 70
     0
  3

  4

 40
1.0
 41
0.18
 42
0.0625
 43
0.38
 44
0.18
 45
0.0
 46
0.0
 47
0.0
 48
0.0
 71
     0
 72
     0
 73
     1
 74
     1
 75
     0
 76
     0
 77
     0
 78
     0
 79
     0
140
0.18
141
0.09
142
0.0
143
25.4
144
1.0
145
0.0
146
1.0
147
0.09
148
0.0
170
     0
171
     2
172
     0
173
     0
174
     0
175
     0
176
     0
177
     0
178
     0
179
     0
271
     4
272
     4
273
     2
274
     2
275
     0
276
     0
277
     2
278
    46
279
     0
280
     0
281
     0
282
     0
283
     1
284
     0
285
     0
286
     0
288
     0
340
17
341
0
342
0
343
0
344
0
371
    -2
372
    -2
  0
ENDTAB
  0
TABLE
  2
BLOCK_RECORD
  5
1
100
AcDbSymbolTable
 70
     0
  0
BLOCK_RECORD
  5
A
100
AcDbSymbolTableRecord
100
AcDbBlockTableRecord
  2
*MODEL_SPACE
340
20
  0
BLOCK_RECORD
  5
B
100
AcDbSymbolTableRecord
100
AcDbBlockTableRecord
  2
*PAPER_SPACE
340
21
  0
ENDTAB
  0
ENDSEC
  0
SECTION
  2
BLOCKS
  0
BLOCK
  5
D
100
AcDbEntity
  8
0
100
AcDbBlockBegin
  2
*MODEL_SPACE
 70
     0
 10
0.0
 20
0.0
 30
0.0
  3
*MODEL_SPACE
  1

  0
ENDBLK
  5
E
100
AcDbEntity
  8
0
100
AcDbBlockEnd
  0
BLOCK
  5
F
100
AcDbEntity
 67
     1
  8
0
100
AcDbBlockBegin
  2
*PAPER_SPACE
 70
     0
 10
0.0
 20
0.0
 30
0.0
  3
*PAPER_SPACE
  1

  0
ENDBLK
  5
10
100
AcDbEntity
 67
     1
  8
0
100
AcDbBlockEnd
  0
ENDSEC
  0
SECTION
  2
ENTITIES
  0
SPLINE
  5
25
100
AcDbEntity
  8
Layer 1
370
     5
100
AcDbSpline
210
0.0
220
0.0
230
1.0
 70
     1
 71
     3
 72
    28
 73
    24
 74
     0
 42
0.0000000001
 43
0.0000000001
 40
0.0
 40
0.0
 40
0.0
 40
0.0
 40
0.1666666666666667
 40
0.1666666666666667
 40
0.1666666666666667
 40
0.1666666666666667
 40
0.3333333333333333
 40
0.3333333333333333
 40
0.3333333333333333
 40
0.3333333333333333
 40
0.5
 40
0.5
 40
0.5
 40
0.5
 40
0.6666666666666666
 40
0.6666666666666666
 40
0.6666666666666666
 40
0.6666666666666666
 40
0.8333333333333333
 40
0.8333333333333333
 40
0.8333333333333333
 40
0.8333333333333333
 40
1.0
 40
1.0
 40
1.0
 40
1.0
 10
-1.3764015748031497
 20
2.0520944881889767
 30
0.0
 10
-1.3809370078740157
 20
2.5509921259842518
 30
0.0
 10
-0.8276141732283465
 20
2.6961259842519687
 30
0.0
 10
-0.587236220472441
 20
2.4512125984251969
 30
0.0
 10
-0.587236220472441
 20
2.4512125984251969
 30
0.0
 10
-0.587236220472441
 20
2.4512125984251969
 30
0.0
 10
-0.4647795275590552
 20
2.5827401574803153
 30
0.0
 10
-0.4647795275590552
 20
2.5827401574803153
 30
0.0
 10
-0.4647795275590552
 20
2.5827401574803153
 30
0.0
 10
-0.0520551181102362
 20
2.4602834645669294
 30
0.0
 10
0.2744881889763779
 20
2.6825196850393702
 30
0.0
 10
0.2971692913385827
 20
2.9501102362204725
 30
0.0
 10
0.2971692913385827
 20
2.9501102362204725
 30
0.0
 10
0.2971692913385827
 20
2.9501102362204725
 30
0.0
 10
1.1679763779527559
 20
2.9501102362204725
 30
0.0
 10
1.1679763779527559
 20
2.9501102362204725
 30
0.0
 10
1.1679763779527559
 20
2.9501102362204725
 30
0.0
 10
1.1679763779527559
 20
2.9501102362204725
 30
0.0
 10
1.1679763779527559
 20
2.0520944881889767
 30
0.0
 10
1.1679763779527559
 20
2.0520944881889767
 30
0.0
 10
1.1679763779527559
 20
2.0520944881889767
 30
0.0
 10
1.1679763779527559
 20
2.0520944881889767
 30
0.0
 10
-1.3764015748031497
 20
2.0520944881889767
 30
0.0
 10
-1.3764015748031497
 20
2.0520944881889767
 30
0.0
  0
TEXT
  5
27
100
AcDbEntity
  8
Layer 1
100
AcDbText
 10
-0.194996
 20
1.795173
 30
0.0
 40
0.119999
  1
BA  1503
 51
-0.000002
  7
Bookman Old Style
100
AcDbText
  0
TEXT
  5
28
100
AcDbEntity
  8
Layer 1
100
AcDbText
 10
-0.375008
 20
1.607673
 30
0.0
 40
0.119999
  1
7/8\u+201d x 2-1/2\u+201d
 51
-0.000002
  7
Bookman Old Style
100
AcDbText
  0
TEXT
  5
29
100
AcDbEntity
  8
Layer 1
100
AcDbText
 10
-0.214453
 20
-1.663984
 30
0.0
 40
0.119999
  1
BA  1503
 51
-0.000002
  7
Bookman Old Style
100
AcDbText
  0
TEXT
  5
2A
100
AcDbEntity
  8
Layer 1
100
AcDbText
 10
-0.394465
 20
-1.851484
 30
0.0
 40
0.119999
  1
7/8\u+201d x 2-1/2\u+201d
 51
-0.000002
  7
Bookman Old Style
100
AcDbText
  0
SPLINE
  5
2B
100
AcDbEntity
  8
Layer 1
 62
   253
100
AcDbSpline
210
0.0
220
0.0
230
1.0
 70
     1
 71
     3
 72
    20
 73
    16
 74
     0
 42
0.0000000001
 43
0.0000000001
 40
0.0
 40
0.0
 40
0.0
 40
0.0
 40
0.25
 40
0.25
 40
0.25
 40
0.25
 40
0.5
 40
0.5
 40
0.5
 40
0.5
 40
0.75
 40
0.75
 40
0.75
 40
0.75
 40
1.0
 40
1.0
 40
1.0
 40
1.0
 10
-0.6146811023622048
 20
-1.4681338582677166
 30
0.0
 10
-0.6146811023622048
 20
-1.4681338582677166
 30
0.0
 10
0.1299370078740157
 20
-1.4795157480314962
 30
0.0
 10
0.1299370078740157
 20
-1.4795157480314962
 30
0.0
 10
0.1299370078740157
 20
-1.4795157480314962
 30
0.0
 10
0.1299370078740157
 20
-1.4795157480314962
 30
0.0
 10
0.1735905511811024
 20
-1.4752244094488189
 30
0.0
 10
0.1735905511811024
 20
-1.4752244094488189
 30
0.0
 10
0.1735905511811024
 20
-1.4752244094488189
 30
0.0
 10
0.1735905511811024
 20
-1.4752244094488189
 30
0.0
 10
-0.5710275590551182
 20
-1.4638425196850395
 30
0.0
 10
-0.5710275590551182
 20
-1.4638425196850395
 30
0.0
 10
-0.5710275590551182
 20
-1.4638425196850395
 30
0.0
 10
-0.5710275590551182
 20
-1.4638425196850395
 30
0.0
 10
-0.6146811023622048
 20
-1.4681338582677166
 30
0.0
 10
-0.6146811023622048
 20
-1.4681338582677166
 30
0.0
  0
SPLINE
  5
2C
100
AcDbEntity
  8
Layer 1
 62
   253
100
AcDbSpline
210
0.0
220
0.0
230
1.0
 70
     1
 71
     3
 72
    20
 73
    16
 74
     0
 42
0.0000000001
 43
0.0000000001
 40
0.0
 40
0.0
 40
0.0
 40
0.0
 40
0.25
 40
0.25
 40
0.25
 40
0.25
 40
0.5
 40
0.5
 40
0.5
 40
0.5
 40
0.75
 40
0.75
 40
0.75
 40
0.75
 40
1.0
 40
1.0
 40
1.0
 40
1.0
 10
-0.5710275590551182
 20
-1.4638425196850395
 30
0.0
 10
-0.5710275590551182
 20
-1.4638425196850395
 30
0.0
 10
0.1735905511811024
 20
-1.4752244094488189
 30
0.0
 10
0.1735905511811024
 20
-1.4752244094488189
 30
0.0
 10
0.1735905511811024
 20
-1.4752244094488189
 30
0.0
 10
0.1735905511811024
 20
-1.4752244094488189
 30
0.0
 10
0.2151614173228346
 20
-1.4679803149606301
 30
0.0
 10
0.2151614173228346
 20
-1.4679803149606301
 30
0.0
 10
0.2151614173228346
 20
-1.4679803149606301
 30
0.0
 10
0.2151614173228346
 20
-1.4679803149606301
 30
0.0
 10
-0.5294566929133858
 20
-1.4565984251968505
 30
0.0
 10
-0.5294566929133858
 20
-1.4565984251968505
 30
0.0
 10
-0.5294566929133858
 20
-1.4565984251968505
 30
0.0
 10
-0.5294566929133858
 20
-1.4565984251968505
 30
0.0
 10
-0.5710275590551182
 20
-1.4638425196850395
 30
0.0
 10
-0.5710275590551182
 20
-1.4638425196850395
 30
0.0
  0
SPLINE
  5
2D
100
AcDbEntity
  8
Layer 1
 62
   253
100
AcDbSpline
210
0.0
220
0.0
230
1.0
 70
     1
 71
     3
 72
    20
 73
    16
 74
     0
 42
0.0000000001
 43
0.0000000001
 40
0.0
 40
0.0
 40
0.0
 40
0.0
 40
0.25
 40
0.25
 40
0.25
 40
0.25
 40
0.5
 40
0.5
 40
0.5
 40
0.5
 40
0.75
 40
0.75
 40
0.75
 40
0.75
 40
1.0
 40
1.0
 40
1.0
 40
1.0
 10
-0.5294566929133858
 20
-1.4565984251968505
 30
0.0
 10
-0.5294566929133858
 20
-1.4565984251968505
 30
0.0
 10
0.2151614173228346
 20
-1.4679803149606301
 30
0.0
 10
0.2151614173228346
 20
-1.4679803149606301
 30
0.0
 10
0.2151614173228346
 20
-1.4679803149606301
 30
0.0
 10
0.2151614173228346
 20
-1.4679803149606301
 30
0.0
 10
0.2546338582677166
 20
-1.4579527559055119
 30
0.0
 10
0.2546338582677166
 20
-1.4579527559055119
 30
0.0
 10
0.2546338582677166
 20
-1.4579527559055119
 30
0.0
 10
0.2546338582677166
 20
-1.4579527559055119
 30
0.0
 10
-0.489984251968504
 20
-1.4465708661417322
 30
0.0
 10
-0.489984251968504
 20
-1.4465708661417322
 30
0.0
 10
-0.489984251968504
 20
-1.4465708661417322
 30
0.0
 10
-0.489984251968504
 20
-1.4465708661417322
 30
0.0
 10
-0.5294566929133858
 20
-1.4565984251968505
 30
0.0
 10
-0.5294566929133858
 20
-1.4565984251968505
 30
0.0
  0
SPLINE
  5
2E
100
AcDbEntity
  8
Layer 1
 62
     9
100
AcDbSpline
210
0.0
220
0.0
230
1.0
 70
     1
 71
     3
 72
    20
 73
    16
 74
     0
 42
0.0000000001
 43
0.0000000001
 40
0.0
 40
0.0
 40
0.0
 40
0.0
 40
0.25
 40
0.25
 40
0.25
 40
0.25
 40
0.5
 40
0.5
 40
0.5
 40
0.5
 40
0.75
 40
0.75
 40
0.75
 40
0.75
 40
1.0
 40
1.0
 40
1.0
 40
1.0
 10
-0.489984251968504
 20
-1.4465708661417322
 30
0.0
 10
-0.489984251968504
 20
-1.4465708661417322
 30
0.0
 10
0.2546338582677166
 20
-1.4579527559055119
 30
0.0
 10
0.2546338582677166
 20
-1.4579527559055119
 30
0.0
 10
0.2546338582677166
 20
-1.4579527559055119
 30
0.0
 10
0.2546338582677166
 20
-1.4579527559055119
 30
0.0
 10
0.2920157480314961
 20
-1.4452874015748032
 30
0.0
 10
0.2920157480314961
 20
-1.4452874015748032
 30
0.0
 10
0.2920157480314961
 20
-1.4452874015748032
 30
0.0
 10
0.2920157480314961
 20
-1.4452874015748032
 30
0.0
 10
-0.4526023622047244
 20
-1.4339055118110238
 30
0.0
 10
-0.4526023622047244
 20
-1.4339055118110238
 30
0.0
 10
-0.4526023622047244
 20
-1.4339055118110238
 30
0.0
 10
-0.4526023622047244
 20
-1.4339055118110238
 30
0.0
 10
-0.489984251968504
 20
-1.4465708661417322
 30
0.0
 10
-0.489984251968504
 20
-1.4465708661417322
 30
0.0
  0
SPLINE
  5
2F
100
AcDbEntity
  8
Layer 1
 62
     9
100
AcDbSpline
210
0.0
220
0.0
230
1.0
 70
     1
 71
     3
 72
    20
 73
    16
 74
     0
 42
0.0000000001
 43
0.0000000001
 40
0.0
 40
0.0
 40
0.0
 40
0.0
 40
0.25
 40
0.25
 40
0.25
 40
0.25
 40
0.5
 40
0.5
 40
0.5
 40
0.5
 40
0.75
 40
0.75
 40
0.75
 40
0.75
 40
1.0
 40
1.0
 40
1.0
 40
1.0
 10
-0.4526023622047244
 20
-1.4339055118110238
 30
0.0
 10
-0.4526023622047244
 20
-1.4339055118110238
 30
0.0
 10
0.2920157480314961
 20
-1.4452874015748032
 30
0.0
 10
0.2920157480314961
 20
-1.4452874015748032
 30
0.0
 10
0.2920157480314961
 20
-1.4452874015748032
 30
0.0
 10
0.2920157480314961
 20
-1.4452874015748032
 30
0.0
 10
0.3272834645669291
 20
-1.4301535433070867
 30
0.0
 10
0.3272834645669291
 20
-1.4301535433070867
 30
0.0
 10
0.3272834645669291
 20
-1.4301535433070867
 30
0.0
 10
0.3272834645669291
 20
-1.4301535433070867
 30
0.0
 10
-0.4173346456692914
 20
-1.418771653543307
 30
0.0
 10
-0.4173346456692914
 20
-1.418771653543307
 30
0.0
 10
-0.4173346456692914
 20
-1.418771653543307
 30
0.0
 10
-0.4173346456692914
 20
-1.418771653543307
 30
0.0
 10
-0.4526023622047244
 20
-1.4339055118110238
 30
0.0
 10
-0.4526023622047244
 20
-1.4339055118110238
 30
0.0
  0
SPLINE
  5
30
100
AcDbEntity
  8
Layer 1
 62
     9
100
AcDbSpline
210
0.0
220
0.0
230
1.0
 70
     1
 71
     3
 72
    20
 73
    16
 74
     0
 42
0.0000000001
 43
0.0000000001
 40
0.0
 40
0.0
 40
0.0
 40
0.0
 40
0.25
 40
0.25
 40
0.25
 40
0.25
 40
0.5
 40
0.5
 40
0.5
 40
0.5
 40
0.75
 40
0.75
 40
0.75
 40
0.75
 40
1.0
 40
1.0
 40
1.0
 40
1.0
 10
-0.4173346456692914
 20
-1.418771653543307
 30
0.0
 10
-0.4173346456692914
 20
-1.418771653543307
 30
0.0
 10
0.3272834645669291
 20
-1.4301535433070867
 30
0.0
 10
0.3272834645669291
 20
-1.4301535433070867
 30
0.0
 10
0.3272834645669291
 20
-1.4301535433070867
 30
0.0
 10
0.3272834645669291
 20
-1.4301535433070867
 30
0.0
 10
0.3604409448818898
 20
-1.4127047244094488
 30
0.0
 10
0.3604409448818898
 20
-1.4127047244094488
 30
0.0
 10
0.3604409448818898
 20
-1.4127047244094488
 30
0.0
 10
0.3604409448818898
 20
-1.4127047244094488
 30
0.0
 10
-0.3841771653543307
 20
-1.4013228346456694
 30
0.0
 10
-0.3841771653543307
 20
-1.4013228346456694
 30
0.0
 10
-0.3841771653543307
 20
-1.4013228346456694
 30
0.0
 10
-0.3841771653543307
 20
-1.4013228346456694
 30
0.0
 10
-0.4173346456692914
 20
-1.418771653543307
 30
0.0
 10
-0.4173346456692914
 20
-1.418771653543307
 30
0.0
  0
SPLINE
  5
31
100
AcDbEntity
  8
Layer 1
 62
     9
100
AcDbSpline
210
0.0
220
0.0
230
1.0
 70
     1
 71
     3
 72
    20
 73
    16
 74
     0
 42
0.0000000001
 43
0.0000000001
 40
0.0
 40
0.0
 40
0.0
 40
0.0
 40
0.25
 40
0.25
 40
0.25
 40
0.25
 40
0.5
 40
0.5
 40
0.5
 40
0.5
 40
0.75
 40
0.75
 40
0.75
 40
0.75
 40
1.0
 40
1.0
 40
1.0
 40
1.0
 10
-0.3841771653543307
 20
-1.4013228346456694
 30
0.0
 10
-0.3841771653543307
 20
-1.4013228346456694
 30
0.0
 10
0.3604409448818898
 20
-1.4127047244094488
 30
0.0
 10
0.3604409448818898
 20
-1.4127047244094488
 30
0.0
 10
0.3604409448818898
 20
-1.4127047244094488
 30
0.0
 10
0.3604409448818898
 20
-1.4127047244094488
 30
0.0
 10
0.3914763779527559
 20
-1.3931102362204726
 30
0.0
 10
0.3914763779527559
 20
-1.3931102362204726
 30
0.0
 10
0.3914763779527559
 20
-1.3931102362204726
 30
0.0
 10
0.3914763779527559
 20
-1.3931102362204726
 30
0.0
 10
-0.3531417322834646
 20
-1.381728346456693
 30
0.0
 10
-0.3531417322834646
 20
-1.381728346456693
 30
0.0
 10
-0.3531417322834646
 20
-1.381728346456693
 30
0.0
 10
-0.3531417322834646
 20
-1.381728346456693
 30
0.0
 10
-0.3841771653543307
 20
-1.4013228346456694
 30
0.0
 10
-0.3841771653543307
 20
-1.4013228346456694
 30
0.0
  0
SPLINE
  5
32
100
AcDbEntity
  8
Layer 1
 62
     9
100
AcDbSpline
210
0.0
220
0.0
230
1.0
 70
     1
 71
     3
 72
    20
 73
    16
 74
     0
 42
0.0000000001
 43
0.0000000001
 40
0.0
 40
0.0
 40
0.0
 40
0.0
 40
0.25
 40
0.25
 40
0.25
 40
0.25
 40
0.5
 40
0.5
 40
0.5
 40
0.5
 40
0.75
 40
0.75
 40
0.75
 40
0.75
 40
1.0
 40
1.0
 40
1.0
 40
1.0
 10
-0.3531417322834646
 20
-1.381728346456693
 30
0.0
 10
-0.3531417322834646
 20
-1.381728346456693
 30
0.0
 10
0.3914763779527559
 20
-1.3931102362204726
 30
0.0
 10
0.3914763779527559
 20
-1.3931102362204726
 30
0.0
 10
0.3914763779527559
 20
-1.3931102362204726
 30
0.0
 10
0.3914763779527559
 20
-1.3931102362204726
 30
0.0
 10
0.4203897637795276
 20
-1.3715157480314961
 30
0.0
 10
0.4203897637795276
 20
-1.3715157480314961
 30
0.0
 10
0.4203897637795276
 20
-1.3715157480314961
 30
0.0
 10
0.4203897637795276
 20
-1.3715157480314961
 30
0.0
 10
-0.3242283464566929
 20
-1.3601338582677165
 30
0.0
 10
-0.3242283464566929
 20
-1.3601338582677165
 30
0.0
 10
-0.3242283464566929
 20
-1.3601338582677165
 30
0.0
 10
-0.3242283464566929
 20
-1.3601338582677165
 30
0.0
 10
-0.3531417322834646
 20
-1.381728346456693
 30
0.0
 10
-0.3531417322834646
 20
-1.381728346456693
 30
0.0
  0
SPLINE
  5
33
100
AcDbEntity
  8
Layer 1
 62
     9
100
AcDbSpline
210
0.0
220
0.0
230
1.0
 70
     1
 71
     3
 72
    20
 73
    16
 74
     0
 42
0.0000000001
 43
0.0000000001
 40
0.0
 40
0.0
 40
0.0
 40
0.0
 40
0.25
 40
0.25
 40
0.25
 40
0.25
 40
0.5
 40
0.5
 40
0.5
 40
0.5
 40
0.75
 40
0.75
 40
0.75
 40
0.75
 40
1.0
 40
1.0
 40
1.0
 40
1.0
 10
-0.3242283464566929
 20
-1.3601338582677165
 30
0.0
 10
-0.3242283464566929
 20
-1.3601338582677165
 30
0.0
 10
0.4203897637795276
 20
-1.3715157480314961
 30
0.0
 10
0.4203897637795276
 20
-1.3715157480314961
 30
0.0
 10
0.4203897637795276
 20
-1.3715157480314961
 30
0.0
 10
0.4203897637795276
 20
-1.3715157480314961
 30
0.0
 10
0.4471692913385827
 20
-1.3480905511811023
 30
0.0
 10
0.4471692913385827
 20
-1.3480905511811023
 30
0.0
 10
0.4471692913385827
 20
-1.3480905511811023
 30
0.0
 10
0.4471692913385827
 20
-1.3480905511811023
 30
0.0
 10
-0.2974488188976378
 20
-1.3367086614173229
 30
0.0
 10
-0.2974488188976378
 20
-1.3367086614173229
 30
0.0
 10
-0.2974488188976378
 20
-1.3367086614173229
 30
0.0
 10
-0.2974488188976378
 20
-1.3367086614173229
 30
0.0
 10
-0.3242283464566929
 20
-1.3601338582677165
 30
0.0
 10
-0.3242283464566929
 20
-1.3601338582677165
 30
0.0
  0
SPLINE
  5
34
100
AcDbEntity
  8
Layer 1
 62
     9
100
AcDbSpline
210
0.0
220
0.0
230
1.0
 70
     1
 71
     3
 72
    20
 73
    16
 74
     0
 42
0.0000000001
 43
0.0000000001
 40
0.0
 40
0.0
 40
0.0
 40
0.0
 40
0.25
 40
0.25
 40
0.25
 40
0.25
 40
0.5
 40
0.5
 40
0.5
 40
0.5
 40
0.75
 40
0.75
 40
0.75
 40
0.75
 40
1.0
 40
1.0
 40
1.0
 40
1.0
 10
-0.2974488188976378
 20
-1.3367086614173229
 30
0.0
 10
-0.2974488188976378
 20
-1.3367086614173229
 30
0.0
 10
0.4471692913385827
 20
-1.3480905511811023
 30
0.0
 10
0.4471692913385827
 20
-1.3480905511811023
 30
0.0
 10
0.4471692913385827
 20
-1.3480905511811023
 30
0.0
 10
0.4471692913385827
 20
-1.3480905511811023
 30
0.0
 10
0.4718149606299213
 20
-1.3229881889763779
 30
0.0
 10
0.4718149606299213
 20
-1.3229881889763779
 30
0.0
 10
0.4718149606299213
 20
-1.3229881889763779
 30
0.0
 10
0.4718149606299213
 20
-1.3229881889763779
 30
0.0
 10
-0.2728031496062992
 20
-1.3116062992125985
 30
0.0
 10
-0.2728031496062992
 20
-1.3116062992125985
 30
0.0
 10
-0.2728031496062992
 20
-1.3116062992125985
 30
0.0
 10
-0.2728031496062992
 20
-1.3116062992125985
 30
0.0
 10
-0.2974488188976378
 20
-1.3367086614173229
 30
0.0
 10
-0.2974488188976378
 20
-1.3367086614173229
 30
0.0
  0
SPLINE
  5
35
100
AcDbEntity
  8
Layer 1
 62
     9
100
AcDbSpline
210
0.0
220
0.0
230
1.0
 70
     1
 71
     3
 72
    20
 73
    16
 74
     0
 42
0.0000000001
 43
0.0000000001
 40
0.0
 40
0.0
 40
0.0
 40
0.0
 40
0.25
 40
0.25
 40
0.25
 40
0.25
 40
0.5
 40
0.5
 40
0.5
 40
0.5
 40
0.75
 40
0.75
 40
0.75
 40
0.75
 40
1.0
 40
1.0
 40
1.0
 40
1.0
 10
-0.2728031496062992
 20
-1.3116062992125985
 30
0.0
 10
-0.2728031496062992
 20
-1.3116062992125985
 30
0.0
 10
0.4718149606299213
 20
-1.3229881889763779
 30
0.0
 10
0.4718149606299213
 20
-1.3229881889763779
 30
0.0
 10
0.4718149606299213
 20
-1.3229881889763779
 30
0.0
 10
0.4718149606299213
 20
-1.3229881889763779
 30
0.0
 10
0.4943031496062992
 20
-1.2963779527559056
 30
0.0
 10
0.4943031496062992
 20
-1.2963779527559056
 30
0.0
 10
0.4943031496062992
 20
-1.2963779527559056
 30
0.0
 10
0.4943031496062992
 20
-1.2963779527559056
 30
0.0
 10
-0.2503149606299213
 20
-1.284996062992126
 30
0.0
 10
-0.2503149606299213
 20
-1.284996062992126
 30
0.0
 10
-0.2503149606299213
 20
-1.284996062992126
 30
0.0
 10
-0.2503149606299213
 20
-1.284996062992126
 30
0.0
 10
-0.2728031496062992
 20
-1.3116062992125985
 30
0.0
 10
-0.2728031496062992
 20
-1.3116062992125985
 30
0.0
  0
SPLINE
  5
36
100
AcDbEntity
  8
Layer 1
 62
     9
100
AcDbSpline
210
0.0
220
0.0
230
1.0
 70
     1
 71
     3
 72
    20
 73
    16
 74
     0
 42
0.0000000001
 43
0.0000000001
 40
0.0
 40
0.0
 40
0.0
 40
0.0
 40
0.25
 40
0.25
 40
0.25
 40
0.25
 40
0.5
 40
0.5
 40
0.5
 40
0.5
 40
0.75
 40
0.75
 40
0.75
 40
0.75
 40
1.0
 40
1.0
 40
1.0
 40
1.0
 10
-0.2503149606299213
 20
-1.284996062992126
 30
0.0
 10
-0.2503149606299213
 20
-1.284996062992126
 30
0.0
 10
0.4943031496062992
 20
-1.2963779527559056
 30
0.0
 10
0.4943031496062992
 20
-1.2963779527559056
 30
0.0
 10
0.4943031496062992
 20
-1.2963779527559056
 30
0.0
 10
0.4943031496062992
 20
-1.2963779527559056
 30
0.0
 10
0.5146496062992126
 20
-1.2684055118110236
 30
0.0
 10
0.5146496062992126
 20
-1.2684055118110236
 30
0.0
 10
0.5146496062992126
 20
-1.2684055118110236
 30
0.0
 10
0.5146496062992126
 20
-1.2684055118110236
 30
0.0
 10
-0.2299685039370079
 20
-1.2570236220472442
 30
0.0
 10
-0.2299685039370079
 20
-1.2570236220472442
 30
0.0
 10
-0.2299685039370079
 20
-1.2570236220472442
 30
0.0
 10
-0.2299685039370079
 20
-1.2570236220472442
 30
0.0
 10
-0.2503149606299213
 20
-1.284996062992126
 30
0.0
 10
-0.2503149606299213
 20
-1.284996062992126
 30
0.0
  0
SPLINE
  5
37
100
AcDbEntity
  8
Layer 1
 62
     9
100
AcDbSpline
210
0.0
220
0.0
230
1.0
 70
     1
 71
     3
 72
    20
 73
    16
 74
     0
 42
0.0000000001
 43
0.0000000001
 40
0.0
 40
0.0
 40
0.0
 40
0.0
 40
0.25
 40
0.25
 40
0.25
 40
0.25
 40
0.5
 40
0.5
 40
0.5
 40
0.5
 40
0.75
 40
0.75
 40
0.75
 40
0.75
 40
1.0
 40
1.0
 40
1.0
 40
1.0
 10
-0.2299685039370079
 20
-1.2570236220472442
 30
0.0
 10
-0.2299685039370079
 20
-1.2570236220472442
 30
0.0
 10
0.5146496062992126
 20
-1.2684055118110236
 30
0.0
 10
0.5146496062992126
 20
-1.2684055118110236
 30
0.0
 10
0.5146496062992126
 20
-1.2684055118110236
 30
0.0
 10
0.5146496062992126
 20
-1.2684055118110236
 30
0.0
 10
0.5328307086614174
 20
-1.2392401574803149
 30
0.0
 10
0.5328307086614174
 20
-1.2392401574803149
 30
0.0
 10
0.5328307086614174
 20
-1.2392401574803149
 30
0.0
 10
0.5328307086614174
 20
-1.2392401574803149
 30
0.0
 10
-0.2117874015748032
 20
-1.2278582677165355
 30
0.0
 10
-0.2117874015748032
 20
-1.2278582677165355
 30
0.0
 10
-0.2117874015748032
 20
-1.2278582677165355
 30
0.0
 10
-0.2117874015748032
 20
-1.2278582677165355
 30
0.0
 10
-0.2299685039370079
 20
-1.2570236220472442
 30
0.0
 10
-0.2299685039370079
 20
-1.2570236220472442
 30
0.0
  0
SPLINE
  5
38
100
AcDbEntity
  8
Layer 1
 62
     9
100
AcDbSpline
210
0.0
220
0.0
230
1.0
 70
     1
 71
     3
 72
    20
 73
    16
 74
     0
 42
0.0000000001
 43
0.0000000001
 40
0.0
 40
0.0
 40
0.0
 40
0.0
 40
0.25
 40
0.25
 40
0.25
 40
0.25
 40
0.5
 40
0.5
 40
0.5
 40
0.5
 40
0.75
 40
0.75
 40
0.75
 40
0.75
 40
1.0
 40
1.0
 40
1.0
 40
1.0
 10
-0.2117874015748032
 20
-1.2278582677165355
 30
0.0
 10
-0.2117874015748032
 20
-1.2278582677165355
 30
0.0
 10
0.5328307086614174
 20
-1.2392401574803149
 30
0.0
 10
0.5328307086614174
 20
-1.2392401574803149
 30
0.0
 10
0.5328307086614174
 20
-1.2392401574803149
 30
0.0
 10
0.5328307086614174
 20
-1.2392401574803149
 30
0.0
 10
0.5488464566929134
 20
-1.2090354330708661
 30
0.0
 10
0.5488464566929134
 20
-1.2090354330708661
 30
0.0
 10
0.5488464566929134
 20
-1.2090354330708661
 30
0.0
 10
0.5488464566929134
 20
-1.2090354330708661
 30
0.0
 10
-0.1957716535433071
 20
-1.1976535433070867
 30
0.0
 10
-0.1957716535433071
 20
-1.1976535433070867
 30
0.0
 10
-0.1957716535433071
 20
-1.1976535433070867
 30
0.0
 10
-0.1957716535433071
 20
-1.1976535433070867
 30
0.0
 10
-0.2117874015748032
 20
-1.2278582677165355
 30
0.0
 10
-0.2117874015748032
 20
-1.2278582677165355
 30
0.0
  0
SPLINE
  5
39
100
AcDbEntity
  8
Layer 1
 62
     9
100
AcDbSpline
210
0.0
220
0.0
230
1.0
 70
     1
 71
     3
 72
    20
 73
    16
 74
     0
 42
0.0000000001
 43
0.0000000001
 40
0.0
 40
0.0
 40
0.0
 40
0.0
 40
0.25
 40
0.25
 40
0.25
 40
0.25
 40
0.5
 40
0.5
 40
0.5
 40
0.5
 40
0.75
 40
0.75
 40
0.75
 40
0.75
 40
1.0
 40
1.0
 40
1.0
 40
1.0
 10
-0.1957716535433071
 20
-1.1976535433070867
 30
0.0
 10
-0.1957716535433071
 20
-1.1976535433070867
 30
0.0
 10
0.5488464566929134
 20
-1.2090354330708661
 30
0.0
 10
0.5488464566929134
 20
-1.2090354330708661
 30
0.0
 10
0.5488464566929134
 20
-1.2090354330708661
 30
0.0
 10
0.5488464566929134
 20
-1.2090354330708661
 30
0.0
 10
0.5626889763779528
 20
-1.1779606299212599
 30
0.0
 10
0.5626889763779528
 20
-1.1779606299212599
 30
0.0
 10
0.5626889763779528
 20
-1.1779606299212599
 30
0.0
 10
0.5626889763779528
 20
-1.1779606299212599
 30
0.0
 10
-0.1819291338582677
 20
-1.1665787401574803
 30
0.0
 10
-0.1819291338582677
 20
-1.1665787401574803
 30
0.0
 10
-0.1819291338582677
 20
-1.1665787401574803
 30
0.0
 10
-0.1819291338582677
 20
-1.1665787401574803
 30
0.0
 10
-0.1957716535433071
 20
-1.1976535433070867
 30
0.0
 10
-0.1957716535433071
 20
-1.1976535433070867
 30
0.0
  0
SPLINE
  5
3A
100
AcDbEntity
  8
Layer 1
 62
     9
100
AcDbSpline
210
0.0
220
0.0
230
1.0
 70
     1
 71
     3
 72
    20
 73
    16
 74
     0
 42
0.0000000001
 43
0.0000000001
 40
0.0
 40
0.0
 40
0.0
 40
0.0
 40
0.25
 40
0.25
 40
0.25
 40
0.25
 40
0.5
 40
0.5
 40
0.5
 40
0.5
 40
0.75
 40
0.75
 40
0.75
 40
0.75
 40
1.0
 40
1.0
 40
1.0
 40
1.0
 10
-0.1819291338582677
 20
-1.1665787401574803
 30
0.0
 10
-0.1819291338582677
 20
-1.1665787401574803
 30
0.0
 10
0.5626889763779528
 20
-1.1779606299212599
 30
0.0
 10
0.5626889763779528
 20
-1.1779606299212599
 30
0.0
 10
0.5626889763779528
 20
-1.1779606299212599
 30
0.0
 10
0.5626889763779528
 20
-1.1779606299212599
 30
0.0
 10
0.5743582677165354
 20
-1.1461614173228347
 30
0.0
 10
0.5743582677165354
 20
-1.1461614173228347
 30
0.0
 10
0.5743582677165354
 20
-1.1461614173228347
 30
0.0
 10
0.5743582677165354
 20
-1.1461614173228347
 30
0.0
 10
-0.170259842519685
 20
-1.1347795275590551
 30
0.0
 10
-0.170259842519685
 20
-1.1347795275590551
 30
0.0
 10
-0.170259842519685
 20
-1.1347795275590551
 30
0.0
 10
-0.170259842519685
 20
-1.1347795275590551
 30
0.0
 10
-0.1819291338582677
 20
-1.1665787401574803
 30
0.0
 10
-0.1819291338582677
 20
-1.1665787401574803
 30
0.0
  0
SPLINE
  5
3B
100
AcDbEntity
  8
Layer 1
 62
     9
100
AcDbSpline
210
0.0
220
0.0
230
1.0
 70
     1
 71
     3
 72
    20
 73
    16
 74
     0
 42
0.0000000001
 43
0.0000000001
 40
0.0
 40
0.0
 40
0.0
 40
0.0
 40
0.25
 40
0.25
 40
0.25
 40
0.25
 40
0.5
 40
0.5
 40
0.5
 40
0.5
 40
0.75
 40
0.75
 40
0.75
 40
0.75
 40
1.0
 40
1.0
 40
1.0
 40
1.0
 10
-0.170259842519685
 20
-1.1347795275590551
 30
0.0
 10
-0.170259842519685
 20
-1.1347795275590551
 30
0.0
 10
0.5743582677165354
 20
-1.1461614173228347
 30
0.0
 10
0.5743582677165354
 20
-1.1461614173228347
 30
0.0
 10
0.5743582677165354
 20
-1.1461614173228347
 30
0.0
 10
0.5743582677165354
 20
-1.1461614173228347
 30
0.0
 10
0.5838346456692913
 20
-1.1138070866141734
 30
0.0
 10
0.5838346456692913
 20
-1.1138070866141734
 30
0.0
 10
0.5838346456692913
 20
-1.1138070866141734
 30
0.0
 10
0.5838346456692913
 20
-1.1138070866141734
 30
0.0
 10
-0.1607834645669291
 20
-1.1024251968503938
 30
0.0
 10
-0.1607834645669291
 20
-1.1024251968503938
 30
0.0
 10
-0.1607834645669291
 20
-1.1024251968503938
 30
0.0
 10
-0.1607834645669291
 20
-1.1024251968503938
 30
0.0
 10
-0.170259842519685
 20
-1.1347795275590551
 30
0.0
 10
-0.170259842519685
 20
-1.1347795275590551
 30
0.0
  0
SPLINE
  5
3C
100
AcDbEntity
  8
Layer 1
 62
     9
100
AcDbSpline
210
0.0
220
0.0
230
1.0
 70
     1
 71
     3
 72
    20
 73
    16
 74
     0
 42
0.0000000001
 43
0.0000000001
 40
0.0
 40
0.0
 40
0.0
 40
0.0
 40
0.25
 40
0.25
 40
0.25
 40
0.25
 40
0.5
 40
0.5
 40
0.5
 40
0.5
 40
0.75
 40
0.75
 40
0.75
 40
0.75
 40
1.0
 40
1.0
 40
1.0
 40
1.0
 10
-0.1607834645669291
 20
-1.1024251968503938
 30
0.0
 10
-0.1607834645669291
 20
-1.1024251968503938
 30
0.0
 10
0.5838346456692913
 20
-1.1138070866141734
 30
0.0
 10
0.5838346456692913
 20
-1.1138070866141734
 30
0.0
 10
0.5838346456692913
 20
-1.1138070866141734
 30
0.0
 10
0.5838346456692913
 20
-1.1138070866141734
 30
0.0
 10
0.5911220472440946
 20
-1.0810511811023622
 30
0.0
 10
0.5911220472440946
 20
-1.0810511811023622
 30
0.0
 10
0.5911220472440946
 20
-1.0810511811023622
 30
0.0
 10
0.5911220472440946
 20
-1.0810511811023622
 30
0.0
 10
-0.153496062992126
 20
-1.0696692913385828
 30
0.0
 10
-0.153496062992126
 20
-1.0696692913385828
 30
0.0
 10
-0.153496062992126
 20
-1.0696692913385828
 30
0.0
 10
-0.153496062992126
 20
-1.0696692913385828
 30
0.0
 10
-0.1607834645669291
 20
-1.1024251968503938
 30
0.0
 10
-0.1607834645669291
 20
-1.1024251968503938
 30
0.0
  0
SPLINE
  5
3D
100
AcDbEntity
  8
Layer 1
 62
     9
100
AcDbSpline
210
0.0
220
0.0
230
1.0
 70
     1
 71
     3
 72
    20
 73
    16
 74
     0
 42
0.0000000001
 43
0.0000000001
 40
0.0
 40
0.0
 40
0.0
 40
0.0
 40
0.25
 40
0.25
 40
0.25
 40
0.25
 40
0.5
 40
0.5
 40
0.5
 40
0.5
 40
0.75
 40
0.75
 40
0.75
 40
0.75
 40
1.0
 40
1.0
 40
1.0
 40
1.0
 10
-0.153496062992126
 20
-1.0696692913385828
 30
0.0
 10
-0.153496062992126
 20
-1.0696692913385828
 30
0.0
 10
0.5911220472440946
 20
-1.0810511811023622
 30
0.0
 10
0.5911220472440946
 20
-1.0810511811023622
 30
0.0
 10
0.5911220472440946
 20
-1.0810511811023622
 30
0.0
 10
0.5911220472440946
 20
-1.0810511811023622
 30
0.0
 10
0.5962086614173229
 20
-1.0480629921259843
 30
0.0
 10
0.5962086614173229
 20
-1.0480629921259843
 30
0.0
 10
0.5962086614173229
 20
-1.0480629921259843
 30
0.0
 10
0.5962086614173229
 20
-1.0480629921259843
 30
0.0
 10
-0.1484094488188976
 20
-1.0366811023622047
 30
0.0
 10
-0.1484094488188976
 20
-1.0366811023622047
 30
0.0
 10
-0.1484094488188976
 20
-1.0366811023622047
 30
0.0
 10
-0.1484094488188976
 20
-1.0366811023622047
 30
0.0
 10
-0.153496062992126
 20
-1.0696692913385828
 30
0.0
 10
-0.153496062992126
 20
-1.0696692913385828
 30
0.0
  0
SPLINE
  5
3E
100
AcDbEntity
  8
Layer 1
 62
     9
100
AcDbSpline
210
0.0
220
0.0
230
1.0
 70
     1
 71
     3
 72
    20
 73
    16
 74
     0
 42
0.0000000001
 43
0.0000000001
 40
0.0
 40
0.0
 40
0.0
 40
0.0
 40
0.25
 40
0.25
 40
0.25
 40
0.25
 40
0.5
 40
0.5
 40
0.5
 40
0.5
 40
0.75
 40
0.75
 40
0.75
 40
0.75
 40
1.0
 40
1.0
 40
1.0
 40
1.0
 10
-0.1484094488188976
 20
-1.0366811023622047
 30
0.0
 10
-0.1484094488188976
 20
-1.0366811023622047
 30
0.0
 10
0.5962086614173229
 20
-1.0480629921259843
 30
0.0
 10
0.5962086614173229
 20
-1.0480629921259843
 30
0.0
 10
0.5962086614173229
 20
-1.0480629921259843
 30
0.0
 10
0.5962086614173229
 20
-1.0480629921259843
 30
0.0
 10
0.5990866141732284
 20
-1.0149881889763779
 30
0.0
 10
0.5990866141732284
 20
-1.0149881889763779
 30
0.0
 10
0.5990866141732284
 20
-1.0149881889763779
 30
0.0
 10
0.5990866141732284
 20
-1.0149881889763779
 30
0.0
 10
-0.1455314960629921
 20
-1.0036062992125985
 30
0.0
 10
-0.1455314960629921
 20
-1.0036062992125985
 30
0.0
 10
-0.1455314960629921
 20
-1.0036062992125985
 30
0.0
 10
-0.1455314960629921
 20
-1.0036062992125985
 30
0.0
 10
-0.1484094488188976
 20
-1.0366811023622047
 30
0.0
 10
-0.1484094488188976
 20
-1.0366811023622047
 30
0.0
  0
SPLINE
  5
3F
100
AcDbEntity
  8
Layer 1
 62
     9
100
AcDbSpline
210
0.0
220
0.0
230
1.0
 70
     1
 71
     3
 72
    20
 73
    16
 74
     0
 42
0.0000000001
 43
0.0000000001
 40
0.0
 40
0.0
 40
0.0
 40
0.0
 40
0.25
 40
0.25
 40
0.25
 40
0.25
 40
0.5
 40
0.5
 40
0.5
 40
0.5
 40
0.75
 40
0.75
 40
0.75
 40
0.75
 40
1.0
 40
1.0
 40
1.0
 40
1.0
 10
-0.1455314960629921
 20
-1.0036062992125985
 30
0.0
 10
-0.1455314960629921
 20
-1.0036062992125985
 30
0.0
 10
0.5990866141732284
 20
-1.0149881889763779
 30
0.0
 10
0.5990866141732284
 20
-1.0149881889763779
 30
0.0
 10
0.5990866141732284
 20
-1.0149881889763779
 30
0.0
 10
0.5990866141732284
 20
-1.0149881889763779
 30
0.0
 10
0.5997598425196851
 20
-0.9819960629921261
 30
0.0
 10
0.5997598425196851
 20
-0.9819960629921261
 30
0.0
 10
0.5997598425196851
 20
-0.9819960629921261
 30
0.0
 10
0.5997598425196851
 20
-0.9819960629921261
 30
0.0
 10
-0.1448582677165354
 20
-0.9706141732283465
 30
0.0
 10
-0.1448582677165354
 20
-0.9706141732283465
 30
0.0
 10
-0.1448582677165354
 20
-0.9706141732283465
 30
0.0
 10
-0.1448582677165354
 20
-0.9706141732283465
 30
0.0
 10
-0.1455314960629921
 20
-1.0036062992125985
 30
0.0
 10
-0.1455314960629921
 20
-1.0036062992125985
 30
0.0
  0
SPLINE
  5
40
100
AcDbEntity
  8
Layer 1
 62
     9
100
AcDbSpline
210
0.0
220
0.0
230
1.0
 70
     1
 71
     3
 72
    20
 73
    16
 74
     0
 42
0.0000000001
 43
0.0000000001
 40
0.0
 40
0.0
 40
0.0
 40
0.0
 40
0.25
 40
0.25
 40
0.25
 40
0.25
 40
0.5
 40
0.5
 40
0.5
 40
0.5
 40
0.75
 40
0.75
 40
0.75
 40
0.75
 40
1.0
 40
1.0
 40
1.0
 40
1.0
 10
-0.1448582677165354
 20
-0.9706141732283465
 30
0.0
 10
-0.1448582677165354
 20
-0.9706141732283465
 30
0.0
 10
0.5997598425196851
 20
-0.9819960629921261
 30
0.0
 10
0.5997598425196851
 20
-0.9819960629921261
 30
0.0
 10
0.5997598425196851
 20
-0.9819960629921261
 30
0.0
 10
0.5997598425196851
 20
-0.9819960629921261
 30
0.0
 10
0.5982086614173229
 20
-0.949240157480315
 30
0.0
 10
0.5982086614173229
 20
-0.949240157480315
 30
0.0
 10
0.5982086614173229
 20
-0.949240157480315
 30
0.0
 10
0.5982086614173229
 20
-0.949240157480315
 30
0.0
 10
-0.1464094488188976
 20
-0.9378582677165355
 30
0.0
 10
-0.1464094488188976
 20
-0.9378582677165355
 30
0.0
 10
-0.1464094488188976
 20
-0.9378582677165355
 30
0.0
 10
-0.1464094488188976
 20
-0.9378582677165355
 30
0.0
 10
-0.1448582677165354
 20
-0.9706141732283465
 30
0.0
 10
-0.1448582677165354
 20
-0.9706141732283465
 30
0.0
  0
SPLINE
  5
41
100
AcDbEntity
  8
Layer 1
 62
     9
100
AcDbSpline
210
0.0
220
0.0
230
1.0
 70
     1
 71
     3
 72
    20
 73
    16
 74
     0
 42
0.0000000001
 43
0.0000000001
 40
0.0
 40
0.0
 40
0.0
 40
0.0
 40
0.25
 40
0.25
 40
0.25
 40
0.25
 40
0.5
 40
0.5
 40
0.5
 40
0.5
 40
0.75
 40
0.75
 40
0.75
 40
0.75
 40
1.0
 40
1.0
 40
1.0
 40
1.0
 10
-0.1464094488188976
 20
-0.9378582677165355
 30
0.0
 10
-0.1464094488188976
 20
-0.9378582677165355
 30
0.0
 10
0.5982086614173229
 20
-0.949240157480315
 30
0.0
 10
0.5982086614173229
 20
-0.949240157480315
 30
0.0
 10
0.5982086614173229
 20
-0.949240157480315
 30
0.0
 10
0.5982086614173229
 20
-0.949240157480315
 30
0.0
 10
0.5944370078740158
 20
-0.9168897637795276
 30
0.0
 10
0.5944370078740158
 20
-0.9168897637795276
 30
0.0
 10
0.5944370078740158
 20
-0.9168897637795276
 30
0.0
 10
0.5944370078740158
 20
-0.9168897637795276
 30
0.0
 10
-0.1501811023622047
 20
-0.9055078740157481
 30
0.0
 10
-0.1501811023622047
 20
-0.9055078740157481
 30
0.0
 10
-0.1501811023622047
 20
-0.9055078740157481
 30
0.0
 10
-0.1501811023622047
 20
-0.9055078740157481
 30
0.0
 10
-0.1464094488188976
 20
-0.9378582677165355
 30
0.0
 10
-0.1464094488188976
 20
-0.9378582677165355
 30
0.0
  0
SPLINE
  5
42
100
AcDbEntity
  8
Layer 1
 62
     9
100
AcDbSpline
210
0.0
220
0.0
230
1.0
 70
     1
 71
     3
 72
    20
 73
    16
 74
     0
 42
0.0000000001
 43
0.0000000001
 40
0.0
 40
0.0
 40
0.0
 40
0.0
 40
0.25
 40
0.25
 40
0.25
 40
0.25
 40
0.5
 40
0.5
 40
0.5
 40
0.5
 40
0.75
 40
0.75
 40
0.75
 40
0.75
 40
1.0
 40
1.0
 40
1.0
 40
1.0
 10
-0.1501811023622047
 20
-0.9055078740157481
 30
0.0
 10
-0.1501811023622047
 20
-0.9055078740157481
 30
0.0
 10
0.5944370078740158
 20
-0.9168897637795276
 30
0.0
 10
0.5944370078740158
 20
-0.9168897637795276
 30
0.0
 10
0.5944370078740158
 20
-0.9168897637795276
 30
0.0
 10
0.5944370078740158
 20
-0.9168897637795276
 30
0.0
 10
0.5884330708661417
 20
-0.8850905511811024
 30
0.0
 10
0.5884330708661417
 20
-0.8850905511811024
 30
0.0
 10
0.5884330708661417
 20
-0.8850905511811024
 30
0.0
 10
0.5884330708661417
 20
-0.8850905511811024
 30
0.0
 10
-0.1561850393700787
 20
-0.8737086614173228
 30
0.0
 10
-0.1561850393700787
 20
-0.8737086614173228
 30
0.0
 10
-0.1561850393700787
 20
-0.8737086614173228
 30
0.0
 10
-0.1561850393700787
 20
-0.8737086614173228
 30
0.0
 10
-0.1501811023622047
 20
-0.9055078740157481
 30
0.0
 10
-0.1501811023622047
 20
-0.9055078740157481
 30
0.0
  0
SPLINE
  5
43
100
AcDbEntity
  8
Layer 1
 62
     9
100
AcDbSpline
210
0.0
220
0.0
230
1.0
 70
     1
 71
     3
 72
    20
 73
    16
 74
     0
 42
0.0000000001
 43
0.0000000001
 40
0.0
 40
0.0
 40
0.0
 40
0.0
 40
0.25
 40
0.25
 40
0.25
 40
0.25
 40
0.5
 40
0.5
 40
0.5
 40
0.5
 40
0.75
 40
0.75
 40
0.75
 40
0.75
 40
1.0
 40
1.0
 40
1.0
 40
1.0
 10
-0.1561850393700787
 20
-0.8737086614173228
 30
0.0
 10
-0.1561850393700787
 20
-0.8737086614173228
 30
0.0
 10
0.5884330708661417
 20
-0.8850905511811024
 30
0.0
 10
0.5884330708661417
 20
-0.8850905511811024
 30
0.0
 10
0.5884330708661417
 20
-0.8850905511811024
 30
0.0
 10
0.5884330708661417
 20
-0.8850905511811024
 30
0.0
 10
0.5801850393700788
 20
-0.8540118110236221
 30
0.0
 10
0.5801850393700788
 20
-0.8540118110236221
 30
0.0
 10
0.5801850393700788
 20
-0.8540118110236221
 30
0.0
 10
0.5801850393700788
 20
-0.8540118110236221
 30
0.0
 10
-0.1644330708661417
 20
-0.8426299212598426
 30
0.0
 10
-0.1644330708661417
 20
-0.8426299212598426
 30
0.0
 10
-0.1644330708661417
 20
-0.8426299212598426
 30
0.0
 10
-0.1644330708661417
 20
-0.8426299212598426
 30
0.0
 10
-0.1561850393700787
 20
-0.8737086614173228
 30
0.0
 10
-0.1561850393700787
 20
-0.8737086614173228
 30
0.0
  0
SPLINE
  5
44
100
AcDbEntity
  8
Layer 1
 62
     9
100
AcDbSpline
210
0.0
220
0.0
230
1.0
 70
     1
 71
     3
 72
    20
 73
    16
 74
     0
 42
0.0000000001
 43
0.0000000001
 40
0.0
 40
0.0
 40
0.0
 40
0.0
 40
0.25
 40
0.25
 40
0.25
 40
0.25
 40
0.5
 40
0.5
 40
0.5
 40
0.5
 40
0.75
 40
0.75
 40
0.75
 40
0.75
 40
1.0
 40
1.0
 40
1.0
 40
1.0
 10
-0.1644330708661417
 20
-0.8426299212598426
 30
0.0
 10
-0.1644330708661417
 20
-0.8426299212598426
 30
0.0
 10
0.5801850393700788
 20
-0.8540118110236221
 30
0.0
 10
0.5801850393700788
 20
-0.8540118110236221
 30
0.0
 10
0.5801850393700788
 20
-0.8540118110236221
 30
0.0
 10
0.5801850393700788
 20
-0.8540118110236221
 30
0.0
 10
0.5696968503937008
 20
-0.8238070866141732
 30
0.0
 10
0.5696968503937008
 20
-0.8238070866141732
 30
0.0
 10
0.5696968503937008
 20
-0.8238070866141732
 30
0.0
 10
0.5696968503937008
 20
-0.8238070866141732
 30
0.0
 10
-0.1749212598425197
 20
-0.8124251968503937
 30
0.0
 10
-0.1749212598425197
 20
-0.8124251968503937
 30
0.0
 10
-0.1749212598425197
 20
-0.8124251968503937
 30
0.0
 10
-0.1749212598425197
 20
-0.8124251968503937
 30
0.0
 10
-0.1644330708661417
 20
-0.8426299212598426
 30
0.0
 10
-0.1644330708661417
 20
-0.8426299212598426
 30
0.0
  0
SPLINE
  5
45
100
AcDbEntity
  8
Layer 1
 62
     9
100
AcDbSpline
210
0.0
220
0.0
230
1.0
 70
     1
 71
     3
 72
    20
 73
    16
 74
     0
 42
0.0000000001
 43
0.0000000001
 40
0.0
 40
0.0
 40
0.0
 40
0.0
 40
0.25
 40
0.25
 40
0.25
 40
0.25
 40
0.5
 40
0.5
 40
0.5
 40
0.5
 40
0.75
 40
0.75
 40
0.75
 40
0.75
 40
1.0
 40
1.0
 40
1.0
 40
1.0
 10
-0.1749212598425197
 20
-0.8124251968503937
 30
0.0
 10
-0.1749212598425197
 20
-0.8124251968503937
 30
0.0
 10
0.5696968503937008
 20
-0.8238070866141732
 30
0.0
 10
0.5696968503937008
 20
-0.8238070866141732
 30
0.0
 10
0.5696968503937008
 20
-0.8238070866141732
 30
0.0
 10
0.5696968503937008
 20
-0.8238070866141732
 30
0.0
 10
0.5569488188976378
 20
-0.7946456692913386
 30
0.0
 10
0.5569488188976378
 20
-0.7946456692913386
 30
0.0
 10
0.5569488188976378
 20
-0.7946456692913386
 30
0.0
 10
0.5569488188976378
 20
-0.7946456692913386
 30
0.0
 10
-0.1876692913385827
 20
-0.7832637795275591
 30
0.0
 10
-0.1876692913385827
 20
-0.7832637795275591
 30
0.0
 10
-0.1876692913385827
 20
-0.7832637795275591
 30
0.0
 10
-0.1876692913385827
 20
-0.7832637795275591
 30
0.0
 10
-0.1749212598425197
 20
-0.8124251968503937
 30
0.0
 10
-0.1749212598425197
 20
-0.8124251968503937
 30
0.0
  0
SPLINE
  5
46
100
AcDbEntity
  8
Layer 1
 62
     9
100
AcDbSpline
210
0.0
220
0.0
230
1.0
 70
     1
 71
     3
 72
    20
 73
    16
 74
     0
 42
0.0000000001
 43
0.0000000001
 40
0.0
 40
0.0
 40
0.0
 40
0.0
 40
0.25
 40
0.25
 40
0.25
 40
0.25
 40
0.5
 40
0.5
 40
0.5
 40
0.5
 40
0.75
 40
0.75
 40
0.75
 40
0.75
 40
1.0
 40
1.0
 40
1.0
 40
1.0
 10
-0.1876692913385827
 20
-0.7832637795275591
 30
0.0
 10
-0.1876692913385827
 20
-0.7832637795275591
 30
0.0
 10
0.5569488188976378
 20
-0.7946456692913386
 30
0.0
 10
0.5569488188976378
 20
-0.7946456692913386
 30
0.0
 10
0.5569488188976378
 20
-0.7946456692913386
 30
0.0
 10
0.5569488188976378
 20
-0.7946456692913386
 30
0.0
 10
0.5419488188976378
 20
-0.7666732283464567
 30
0.0
 10
0.5419488188976378
 20
-0.7666732283464567
 30
0.0
 10
0.5419488188976378
 20
-0.7666732283464567
 30
0.0
 10
0.5419488188976378
 20
-0.7666732283464567
 30
0.0
 10
-0.2026692913385827
 20
-0.7552913385826772
 30
0.0
 10
-0.2026692913385827
 20
-0.7552913385826772
 30
0.0
 10
-0.2026692913385827
 20
-0.7552913385826772
 30
0.0
 10
-0.2026692913385827
 20
-0.7552913385826772
 30
0.0
 10
-0.1876692913385827
 20
-0.7832637795275591
 30
0.0
 10
-0.1876692913385827
 20
-0.7832637795275591
 30
0.0
  0
SPLINE
  5
47
100
AcDbEntity
  8
Layer 1
 62
     9
100
AcDbSpline
210
0.0
220
0.0
230
1.0
 70
     1
 71
     3
 72
    20
 73
    16
 74
     0
 42
0.0000000001
 43
0.0000000001
 40
0.0
 40
0.0
 40
0.0
 40
0.0
 40
0.25
 40
0.25
 40
0.25
 40
0.25
 40
0.5
 40
0.5
 40
0.5
 40
0.5
 40
0.75
 40
0.75
 40
0.75
 40
0.75
 40
1.0
 40
1.0
 40
1.0
 40
1.0
 10
-0.2026692913385827
 20
-0.7552913385826772
 30
0.0
 10
-0.2026692913385827
 20
-0.7552913385826772
 30
0.0
 10
0.5419488188976378
 20
-0.7666732283464567
 30
0.0
 10
0.5419488188976378
 20
-0.7666732283464567
 30
0.0
 10
0.5419488188976378
 20
-0.7666732283464567
 30
0.0
 10
0.5419488188976378
 20
-0.7666732283464567
 30
0.0
 10
0.5246811023622048
 20
-0.7400590551181102
 30
0.0
 10
0.5246811023622048
 20
-0.7400590551181102
 30
0.0
 10
0.5246811023622048
 20
-0.7400590551181102
 30
0.0
 10
0.5246811023622048
 20
-0.7400590551181102
 30
0.0
 10
-0.2199370078740158
 20
-0.7286771653543307
 30
0.0
 10
-0.2199370078740158
 20
-0.7286771653543307
 30
0.0
 10
-0.2199370078740158
 20
-0.7286771653543307
 30
0.0
 10
-0.2199370078740158
 20
-0.7286771653543307
 30
0.0
 10
-0.2026692913385827
 20
-0.7552913385826772
 30
0.0
 10
-0.2026692913385827
 20
-0.7552913385826772
 30
0.0
  0
SPLINE
  5
48
100
AcDbEntity
  8
Layer 1
 62
     9
100
AcDbSpline
210
0.0
220
0.0
230
1.0
 70
     1
 71
     3
 72
    20
 73
    16
 74
     0
 42
0.0000000001
 43
0.0000000001
 40
0.0
 40
0.0
 40
0.0
 40
0.0
 40
0.25
 40
0.25
 40
0.25
 40
0.25
 40
0.5
 40
0.5
 40
0.5
 40
0.5
 40
0.75
 40
0.75
 40
0.75
 40
0.75
 40
1.0
 40
1.0
 40
1.0
 40
1.0
 10
-0.2199370078740158
 20
-0.7286771653543307
 30
0.0
 10
-0.2199370078740158
 20
-0.7286771653543307
 30
0.0
 10
0.5246811023622048
 20
-0.7400590551181102
 30
0.0
 10
0.5246811023622048
 20
-0.7400590551181102
 30
0.0
 10
0.5246811023622048
 20
-0.7400590551181102
 30
0.0
 10
0.5246811023622048
 20
-0.7400590551181102
 30
0.0
 10
0.5051417322834646
 20
-0.7149566929133858
 30
0.0
 10
0.5051417322834646
 20
-0.7149566929133858
 30
0.0
 10
0.5051417322834646
 20
-0.7149566929133858
 30
0.0
 10
0.5051417322834646
 20
-0.7149566929133858
 30
0.0
 10
-0.2394763779527559
 20
-0.7035748031496063
 30
0.0
 10
-0.2394763779527559
 20
-0.7035748031496063
 30
0.0
 10
-0.2394763779527559
 20
-0.7035748031496063
 30
0.0
 10
-0.2394763779527559
 20
-0.7035748031496063
 30
0.0
 10
-0.2199370078740158
 20
-0.7286771653543307
 30
0.0
 10
-0.2199370078740158
 20
-0.7286771653543307
 30
0.0
  0
SPLINE
  5
49
100
AcDbEntity
  8
Layer 1
 62
     9
100
AcDbSpline
210
0.0
220
0.0
230
1.0
 70
     1
 71
     3
 72
    20
 73
    16
 74
     0
 42
0.0000000001
 43
0.0000000001
 40
0.0
 40
0.0
 40
0.0
 40
0.0
 40
0.25
 40
0.25
 40
0.25
 40
0.25
 40
0.5
 40
0.5
 40
0.5
 40
0.5
 40
0.75
 40
0.75
 40
0.75
 40
0.75
 40
1.0
 40
1.0
 40
1.0
 40
1.0
 10
-0.2394763779527559
 20
-0.7035748031496063
 30
0.0
 10
-0.2394763779527559
 20
-0.7035748031496063
 30
0.0
 10
0.5051417322834646
 20
-0.7149566929133858
 30
0.0
 10
0.5051417322834646
 20
-0.7149566929133858
 30
0.0
 10
0.5051417322834646
 20
-0.7149566929133858
 30
0.0
 10
0.5051417322834646
 20
-0.7149566929133858
 30
0.0
 10
0.4833188976377953
 20
-0.6915354330708662
 30
0.0
 10
0.4833188976377953
 20
-0.6915354330708662
 30
0.0
 10
0.4833188976377953
 20
-0.6915354330708662
 30
0.0
 10
0.4833188976377953
 20
-0.6915354330708662
 30
0.0
 10
-0.2612992125984252
 20
-0.6801535433070867
 30
0.0
 10
-0.2612992125984252
 20
-0.6801535433070867
 30
0.0
 10
-0.2612992125984252
 20
-0.6801535433070867
 30
0.0
 10
-0.2612992125984252
 20
-0.6801535433070867
 30
0.0
 10
-0.2394763779527559
 20
-0.7035748031496063
 30
0.0
 10
-0.2394763779527559
 20
-0.7035748031496063
 30
0.0
  0
SPLINE
  5
4A
100
AcDbEntity
  8
Layer 1
370
     5
100
AcDbSpline
210
0.0
220
0.0
230
1.0
 70
     1
 71
     3
 72
   260
 73
   256
 74
     0
 42
0.0000000001
 43
0.0000000001
 40
0.0
 40
0.0
 40
0.0
 40
0.0
 40
0.015625
 40
0.015625
 40
0.015625
 40
0.015625
 40
0.03125
 40
0.03125
 40
0.03125
 40
0.03125
 40
0.046875
 40
0.046875
 40
0.046875
 40
0.046875
 40
0.0625
 40
0.0625
 40
0.0625
 40
0.0625
 40
0.078125
 40
0.078125
 40
0.078125
 40
0.078125
 40
0.09375
 40
0.09375
 40
0.09375
 40
0.09375
 40
0.109375
 40
0.109375
 40
0.109375
 40
0.109375
 40
0.125
 40
0.125
 40
0.125
 40
0.125
 40
0.140625
 40
0.140625
 40
0.140625
 40
0.140625
 40
0.15625
 40
0.15625
 40
0.15625
 40
0.15625
 40
0.171875
 40
0.171875
 40
0.171875
 40
0.171875
 40
0.1875
 40
0.1875
 40
0.1875
 40
0.1875
 40
0.203125
 40
0.203125
 40
0.203125
 40
0.203125
 40
0.21875
 40
0.21875
 40
0.21875
 40
0.21875
 40
0.234375
 40
0.234375
 40
0.234375
 40
0.234375
 40
0.25
 40
0.25
 40
0.25
 40
0.25
 40
0.265625
 40
0.265625
 40
0.265625
 40
0.265625
 40
0.28125
 40
0.28125
 40
0.28125
 40
0.28125
 40
0.296875
 40
0.296875
 40
0.296875
 40
0.296875
 40
0.3125
 40
0.3125
 40
0.3125
 40
0.3125
 40
0.328125
 40
0.328125
 40
0.328125
 40
0.328125
 40
0.34375
 40
0.34375
 40
0.34375
 40
0.34375
 40
0.359375
 40
0.359375
 40
0.359375
 40
0.359375
 40
0.375
 40
0.375
 40
0.375
 40
0.375
 40
0.390625
 40
0.390625
 40
0.390625
 40
0.390625
 40
0.40625
 40
0.40625
 40
0.40625
 40
0.40625
 40
0.421875
 40
0.421875
 40
0.421875
 40
0.421875
 40
0.4375
 40
0.4375
 40
0.4375
 40
0.4375
 40
0.453125
 40
0.453125
 40
0.453125
 40
0.453125
 40
0.46875
 40
0.46875
 40
0.46875
 40
0.46875
 40
0.484375
 40
0.484375
 40
0.484375
 40
0.484375
 40
0.5
 40
0.5
 40
0.5
 40
0.5
 40
0.515625
 40
0.515625
 40
0.515625
 40
0.515625
 40
0.53125
 40
0.53125
 40
0.53125
 40
0.53125
 40
0.546875
 40
0.546875
 40
0.546875
 40
0.546875
 40
0.5625
 40
0.5625
 40
0.5625
 40
0.5625
 40
0.578125
 40
0.578125
 40
0.578125
 40
0.578125
 40
0.59375
 40
0.59375
 40
0.59375
 40
0.59375
 40
0.609375
 40
0.609375
 40
0.609375
 40
0.609375
 40
0.625
 40
0.625
 40
0.625
 40
0.625
 40
0.640625
 40
0.640625
 40
0.640625
 40
0.640625
 40
0.65625
 40
0.65625
 40
0.65625
 40
0.65625
 40
0.671875
 40
0.671875
 40
0.671875
 40
0.671875
 40
0.6875
 40
0.6875
 40
0.6875
 40
0.6875
 40
0.703125
 40
0.703125
 40
0.703125
 40
0.703125
 40
0.71875
 40
0.71875
 40
0.71875
 40
0.71875
 40
0.734375
 40
0.734375
 40
0.734375
 40
0.734375
 40
0.75
 40
0.75
 40
0.75
 40
0.75
 40
0.765625
 40
0.765625
 40
0.765625
 40
0.765625
 40
0.78125
 40
0.78125
 40
0.78125
 40
0.78125
 40
0.796875
 40
0.796875
 40
0.796875
 40
0.796875
 40
0.8125
 40
0.8125
 40
0.8125
 40
0.8125
 40
0.828125
 40
0.828125
 40
0.828125
 40
0.828125
 40
0.84375
 40
0.84375
 40
0.84375
 40
0.84375
 40
0.859375
 40
0.859375
 40
0.859375
 40
0.859375
 40
0.875
 40
0.875
 40
0.875
 40
0.875
 40
0.890625
 40
0.890625
 40
0.890625
 40
0.890625
 40
0.90625
 40
0.90625
 40
0.90625
 40
0.90625
 40
0.921875
 40
0.921875
 40
0.921875
 40
0.921875
 40
0.9375
 40
0.9375
 40
0.9375
 40
0.9375
 40
0.953125
 40
0.953125
 40
0.953125
 40
0.953125
 40
0.96875
 40
0.96875
 40
0.96875
 40
0.96875
 40
0.984375
 40
0.984375
 40
0.984375
 40
0.984375
 40
1.0
 40
1.0
 40
1.0
 40
1.0
 10
-0.6146811023622048
 20
-1.4681338582677166
 30
0.0
 10
-0.6146811023622048
 20
-1.4681338582677166
 30
0.0
 10
0.1299370078740157
 20
-1.4795157480314962
 30
0.0
 10
0.1299370078740157
 20
-1.4795157480314962
 30
0.0
 10
0.1299370078740157
 20
-1.4795157480314962
 30
0.0
 10
0.1299370078740157
 20
-1.4795157480314962
 30
0.0
 10
0.1735905511811024
 20
-1.4752244094488189
 30
0.0
 10
0.1735905511811024
 20
-1.4752244094488189
 30
0.0
 10
0.1735905511811024
 20
-1.4752244094488189
 30
0.0
 10
0.1735905511811024
 20
-1.4752244094488189
 30
0.0
 10
0.2151614173228346
 20
-1.4679803149606301
 30
0.0
 10
0.2151614173228346
 20
-1.4679803149606301
 30
0.0
 10
0.2151614173228346
 20
-1.4679803149606301
 30
0.0
 10
0.2151614173228346
 20
-1.4679803149606301
 30
0.0
 10
0.2546338582677166
 20
-1.4579527559055119
 30
0.0
 10
0.2546338582677166
 20
-1.4579527559055119
 30
0.0
 10
0.2546338582677166
 20
-1.4579527559055119
 30
0.0
 10
0.2546338582677166
 20
-1.4579527559055119
 30
0.0
 10
0.2920157480314961
 20
-1.4452874015748032
 30
0.0
 10
0.2920157480314961
 20
-1.4452874015748032
 30
0.0
 10
0.2920157480314961
 20
-1.4452874015748032
 30
0.0
 10
0.2920157480314961
 20
-1.4452874015748032
 30
0.0
 10
0.3272834645669291
 20
-1.4301535433070867
 30
0.0
 10
0.3272834645669291
 20
-1.4301535433070867
 30
0.0
 10
0.3272834645669291
 20
-1.4301535433070867
 30
0.0
 10
0.3272834645669291
 20
-1.4301535433070867
 30
0.0
 10
0.3604409448818898
 20
-1.4127047244094488
 30
0.0
 10
0.3604409448818898
 20
-1.4127047244094488
 30
0.0
 10
0.3604409448818898
 20
-1.4127047244094488
 30
0.0
 10
0.3604409448818898
 20
-1.4127047244094488
 30
0.0
 10
0.3914763779527559
 20
-1.3931102362204726
 30
0.0
 10
0.3914763779527559
 20
-1.3931102362204726
 30
0.0
 10
0.3914763779527559
 20
-1.3931102362204726
 30
0.0
 10
0.3914763779527559
 20
-1.3931102362204726
 30
0.0
 10
0.4203897637795276
 20
-1.3715157480314961
 30
0.0
 10
0.4203897637795276
 20
-1.3715157480314961
 30
0.0
 10
0.4203897637795276
 20
-1.3715157480314961
 30
0.0
 10
0.4203897637795276
 20
-1.3715157480314961
 30
0.0
 10
0.4471692913385827
 20
-1.3480905511811023
 30
0.0
 10
0.4471692913385827
 20
-1.3480905511811023
 30
0.0
 10
0.4471692913385827
 20
-1.3480905511811023
 30
0.0
 10
0.4471692913385827
 20
-1.3480905511811023
 30
0.0
 10
0.4718149606299213
 20
-1.3229881889763779
 30
0.0
 10
0.4718149606299213
 20
-1.3229881889763779
 30
0.0
 10
0.4718149606299213
 20
-1.3229881889763779
 30
0.0
 10
0.4718149606299213
 20
-1.3229881889763779
 30
0.0
 10
0.4943031496062992
 20
-1.2963779527559056
 30
0.0
 10
0.4943031496062992
 20
-1.2963779527559056
 30
0.0
 10
0.4943031496062992
 20
-1.2963779527559056
 30
0.0
 10
0.4943031496062992
 20
-1.2963779527559056
 30
0.0
 10
0.5146496062992126
 20
-1.2684055118110236
 30
0.0
 10
0.5146496062992126
 20
-1.2684055118110236
 30
0.0
 10
0.5146496062992126
 20
-1.2684055118110236
 30
0.0
 10
0.5146496062992126
 20
-1.2684055118110236
 30
0.0
 10
0.5328307086614174
 20
-1.2392401574803149
 30
0.0
 10
0.5328307086614174
 20
-1.2392401574803149
 30
0.0
 10
0.5328307086614174
 20
-1.2392401574803149
 30
0.0
 10
0.5328307086614174
 20
-1.2392401574803149
 30
0.0
 10
0.5488464566929134
 20
-1.2090354330708661
 30
0.0
 10
0.5488464566929134
 20
-1.2090354330708661
 30
0.0
 10
0.5488464566929134
 20
-1.2090354330708661
 30
0.0
 10
0.5488464566929134
 20
-1.2090354330708661
 30
0.0
 10
0.5626889763779528
 20
-1.1779606299212599
 30
0.0
 10
0.5626889763779528
 20
-1.1779606299212599
 30
0.0
 10
0.5626889763779528
 20
-1.1779606299212599
 30
0.0
 10
0.5626889763779528
 20
-1.1779606299212599
 30
0.0
 10
0.5743582677165354
 20
-1.1461614173228347
 30
0.0
 10
0.5743582677165354
 20
-1.1461614173228347
 30
0.0
 10
0.5743582677165354
 20
-1.1461614173228347
 30
0.0
 10
0.5743582677165354
 20
-1.1461614173228347
 30
0.0
 10
0.5838346456692913
 20
-1.1138070866141734
 30
0.0
 10
0.5838346456692913
 20
-1.1138070866141734
 30
0.0
 10
0.5838346456692913
 20
-1.1138070866141734
 30
0.0
 10
0.5838346456692913
 20
-1.1138070866141734
 30
0.0
 10
0.5911220472440946
 20
-1.0810511811023622
 30
0.0
 10
0.5911220472440946
 20
-1.0810511811023622
 30
0.0
 10
0.5911220472440946
 20
-1.0810511811023622
 30
0.0
 10
0.5911220472440946
 20
-1.0810511811023622
 30
0.0
 10
0.5962086614173229
 20
-1.0480629921259843
 30
0.0
 10
0.5962086614173229
 20
-1.0480629921259843
 30
0.0
 10
0.5962086614173229
 20
-1.0480629921259843
 30
0.0
 10
0.5962086614173229
 20
-1.0480629921259843
 30
0.0
 10
0.5990866141732284
 20
-1.0149881889763779
 30
0.0
 10
0.5990866141732284
 20
-1.0149881889763779
 30
0.0
 10
0.5990866141732284
 20
-1.0149881889763779
 30
0.0
 10
0.5990866141732284
 20
-1.0149881889763779
 30
0.0
 10
0.5997598425196851
 20
-0.9819960629921261
 30
0.0
 10
0.5997598425196851
 20
-0.9819960629921261
 30
0.0
 10
0.5997598425196851
 20
-0.9819960629921261
 30
0.0
 10
0.5997598425196851
 20
-0.9819960629921261
 30
0.0
 10
0.5982086614173229
 20
-0.949240157480315
 30
0.0
 10
0.5982086614173229
 20
-0.949240157480315
 30
0.0
 10
0.5982086614173229
 20
-0.949240157480315
 30
0.0
 10
0.5982086614173229
 20
-0.949240157480315
 30
0.0
 10
0.5944370078740158
 20
-0.9168897637795276
 30
0.0
 10
0.5944370078740158
 20
-0.9168897637795276
 30
0.0
 10
0.5944370078740158
 20
-0.9168897637795276
 30
0.0
 10
0.5944370078740158
 20
-0.9168897637795276
 30
0.0
 10
0.5884330708661417
 20
-0.8850905511811024
 30
0.0
 10
0.5884330708661417
 20
-0.8850905511811024
 30
0.0
 10
0.5884330708661417
 20
-0.8850905511811024
 30
0.0
 10
0.5884330708661417
 20
-0.8850905511811024
 30
0.0
 10
0.5801850393700788
 20
-0.8540118110236221
 30
0.0
 10
0.5801850393700788
 20
-0.8540118110236221
 30
0.0
 10
0.5801850393700788
 20
-0.8540118110236221
 30
0.0
 10
0.5801850393700788
 20
-0.8540118110236221
 30
0.0
 10
0.5696968503937008
 20
-0.8238070866141732
 30
0.0
 10
0.5696968503937008
 20
-0.8238070866141732
 30
0.0
 10
0.5696968503937008
 20
-0.8238070866141732
 30
0.0
 10
0.5696968503937008
 20
-0.8238070866141732
 30
0.0
 10
0.5569488188976378
 20
-0.7946456692913386
 30
0.0
 10
0.5569488188976378
 20
-0.7946456692913386
 30
0.0
 10
0.5569488188976378
 20
-0.7946456692913386
 30
0.0
 10
0.5569488188976378
 20
-0.7946456692913386
 30
0.0
 10
0.5419488188976378
 20
-0.7666732283464567
 30
0.0
 10
0.5419488188976378
 20
-0.7666732283464567
 30
0.0
 10
0.5419488188976378
 20
-0.7666732283464567
 30
0.0
 10
0.5419488188976378
 20
-0.7666732283464567
 30
0.0
 10
0.5246811023622048
 20
-0.7400590551181102
 30
0.0
 10
0.5246811023622048
 20
-0.7400590551181102
 30
0.0
 10
0.5246811023622048
 20
-0.7400590551181102
 30
0.0
 10
0.5246811023622048
 20
-0.7400590551181102
 30
0.0
 10
0.5051417322834646
 20
-0.7149566929133858
 30
0.0
 10
0.5051417322834646
 20
-0.7149566929133858
 30
0.0
 10
0.5051417322834646
 20
-0.7149566929133858
 30
0.0
 10
0.5051417322834646
 20
-0.7149566929133858
 30
0.0
 10
0.4833188976377953
 20
-0.6915354330708662
 30
0.0
 10
0.4833188976377953
 20
-0.6915354330708662
 30
0.0
 10
0.4833188976377953
 20
-0.6915354330708662
 30
0.0
 10
0.4833188976377953
 20
-0.6915354330708662
 30
0.0
 10
-0.2612992125984252
 20
-0.6801535433070867
 30
0.0
 10
-0.2612992125984252
 20
-0.6801535433070867
 30
0.0
 10
-0.2612992125984252
 20
-0.6801535433070867
 30
0.0
 10
-0.2612992125984252
 20
-0.6801535433070867
 30
0.0
 10
-0.2394763779527559
 20
-0.7035748031496063
 30
0.0
 10
-0.2394763779527559
 20
-0.7035748031496063
 30
0.0
 10
-0.2394763779527559
 20
-0.7035748031496063
 30
0.0
 10
-0.2394763779527559
 20
-0.7035748031496063
 30
0.0
 10
-0.2199370078740158
 20
-0.7286771653543307
 30
0.0
 10
-0.2199370078740158
 20
-0.7286771653543307
 30
0.0
 10
-0.2199370078740158
 20
-0.7286771653543307
 30
0.0
 10
-0.2199370078740158
 20
-0.7286771653543307
 30
0.0
 10
-0.2026692913385827
 20
-0.7552913385826772
 30
0.0
 10
-0.2026692913385827
 20
-0.7552913385826772
 30
0.0
 10
-0.2026692913385827
 20
-0.7552913385826772
 30
0.0
 10
-0.2026692913385827
 20
-0.7552913385826772
 30
0.0
 10
-0.1876692913385827
 20
-0.7832637795275591
 30
0.0
 10
-0.1876692913385827
 20
-0.7832637795275591
 30
0.0
 10
-0.1876692913385827
 20
-0.7832637795275591
 30
0.0
 10
-0.1876692913385827
 20
-0.7832637795275591
 30
0.0
 10
-0.1749212598425197
 20
-0.8124251968503937
 30
0.0
 10
-0.1749212598425197
 20
-0.8124251968503937
 30
0.0
 10
-0.1749212598425197
 20
-0.8124251968503937
 30
0.0
 10
-0.1749212598425197
 20
-0.8124251968503937
 30
0.0
 10
-0.1644330708661417
 20
-0.8426299212598426
 30
0.0
 10
-0.1644330708661417
 20
-0.8426299212598426
 30
0.0
 10
-0.1644330708661417
 20
-0.8426299212598426
 30
0.0
 10
-0.1644330708661417
 20
-0.8426299212598426
 30
0.0
 10
-0.1561850393700787
 20
-0.8737086614173228
 30
0.0
 10
-0.1561850393700787
 20
-0.8737086614173228
 30
0.0
 10
-0.1561850393700787
 20
-0.8737086614173228
 30
0.0
 10
-0.1561850393700787
 20
-0.8737086614173228
 30
0.0
 10
-0.1501811023622047
 20
-0.9055078740157481
 30
0.0
 10
-0.1501811023622047
 20
-0.9055078740157481
 30
0.0
 10
-0.1501811023622047
 20
-0.9055078740157481
 30
0.0
 10
-0.1501811023622047
 20
-0.9055078740157481
 30
0.0
 10
-0.1464094488188976
 20
-0.9378582677165355
 30
0.0
 10
-0.1464094488188976
 20
-0.9378582677165355
 30
0.0
 10
-0.1464094488188976
 20
-0.9378582677165355
 30
0.0
 10
-0.1464094488188976
 20
-0.9378582677165355
 30
0.0
 10
-0.1448582677165354
 20
-0.9706141732283465
 30
0.0
 10
-0.1448582677165354
 20
-0.9706141732283465
 30
0.0
 10
-0.1448582677165354
 20
-0.9706141732283465
 30
0.0
 10
-0.1448582677165354
 20
-0.9706141732283465
 30
0.0
 10
-0.1455314960629921
 20
-1.0036062992125985
 30
0.0
 10
-0.1455314960629921
 20
-1.0036062992125985
 30
0.0
 10
-0.1455314960629921
 20
-1.0036062992125985
 30
0.0
 10
-0.1455314960629921
 20
-1.0036062992125985
 30
0.0
 10
-0.1484094488188976
 20
-1.0366811023622047
 30
0.0
 10
-0.1484094488188976
 20
-1.0366811023622047
 30
0.0
 10
-0.1484094488188976
 20
-1.0366811023622047
 30
0.0
 10
-0.1484094488188976
 20
-1.0366811023622047
 30
0.0
 10
-0.153496062992126
 20
-1.0696692913385828
 30
0.0
 10
-0.153496062992126
 20
-1.0696692913385828
 30
0.0
 10
-0.153496062992126
 20
-1.0696692913385828
 30
0.0
 10
-0.153496062992126
 20
-1.0696692913385828
 30
0.0
 10
-0.1607834645669291
 20
-1.1024251968503938
 30
0.0
 10
-0.1607834645669291
 20
-1.1024251968503938
 30
0.0
 10
-0.1607834645669291
 20
-1.1024251968503938
 30
0.0
 10
-0.1607834645669291
 20
-1.1024251968503938
 30
0.0
 10
-0.170259842519685
 20
-1.1347795275590551
 30
0.0
 10
-0.170259842519685
 20
-1.1347795275590551
 30
0.0
 10
-0.170259842519685
 20
-1.1347795275590551
 30
0.0
 10
-0.170259842519685
 20
-1.1347795275590551
 30
0.0
 10
-0.1819291338582677
 20
-1.1665787401574803
 30
0.0
 10
-0.1819291338582677
 20
-1.1665787401574803
 30
0.0
 10
-0.1819291338582677
 20
-1.1665787401574803
 30
0.0
 10
-0.1819291338582677
 20
-1.1665787401574803
 30
0.0
 10
-0.1957716535433071
 20
-1.1976535433070867
 30
0.0
 10
-0.1957716535433071
 20
-1.1976535433070867
 30
0.0
 10
-0.1957716535433071
 20
-1.1976535433070867
 30
0.0
 10
-0.1957716535433071
 20
-1.1976535433070867
 30
0.0
 10
-0.2117874015748032
 20
-1.2278582677165355
 30
0.0
 10
-0.2117874015748032
 20
-1.2278582677165355
 30
0.0
 10
-0.2117874015748032
 20
-1.2278582677165355
 30
0.0
 10
-0.2117874015748032
 20
-1.2278582677165355
 30
0.0
 10
-0.2299685039370079
 20
-1.2570236220472442
 30
0.0
 10
-0.2299685039370079
 20
-1.2570236220472442
 30
0.0
 10
-0.2299685039370079
 20
-1.2570236220472442
 30
0.0
 10
-0.2299685039370079
 20
-1.2570236220472442
 30
0.0
 10
-0.2503149606299213
 20
-1.284996062992126
 30
0.0
 10
-0.2503149606299213
 20
-1.284996062992126
 30
0.0
 10
-0.2503149606299213
 20
-1.284996062992126
 30
0.0
 10
-0.2503149606299213
 20
-1.284996062992126
 30
0.0
 10
-0.2728031496062992
 20
-1.3116062992125985
 30
0.0
 10
-0.2728031496062992
 20
-1.3116062992125985
 30
0.0
 10
-0.2728031496062992
 20
-1.3116062992125985
 30
0.0
 10
-0.2728031496062992
 20
-1.3116062992125985
 30
0.0
 10
-0.2974488188976378
 20
-1.3367086614173229
 30
0.0
 10
-0.2974488188976378
 20
-1.3367086614173229
 30
0.0
 10
-0.2974488188976378
 20
-1.3367086614173229
 30
0.0
 10
-0.2974488188976378
 20
-1.3367086614173229
 30
0.0
 10
-0.3242283464566929
 20
-1.3601338582677165
 30
0.0
 10
-0.3242283464566929
 20
-1.3601338582677165
 30
0.0
 10
-0.3242283464566929
 20
-1.3601338582677165
 30
0.0
 10
-0.3242283464566929
 20
-1.3601338582677165
 30
0.0
 10
-0.3531417322834646
 20
-1.381728346456693
 30
0.0
 10
-0.3531417322834646
 20
-1.381728346456693
 30
0.0
 10
-0.3531417322834646
 20
-1.381728346456693
 30
0.0
 10
-0.3531417322834646
 20
-1.381728346456693
 30
0.0
 10
-0.3841771653543307
 20
-1.4013228346456694
 30
0.0
 10
-0.3841771653543307
 20
-1.4013228346456694
 30
0.0
 10
-0.3841771653543307
 20
-1.4013228346456694
 30
0.0
 10
-0.3841771653543307
 20
-1.4013228346456694
 30
0.0
 10
-0.4173346456692914
 20
-1.418771653543307
 30
0.0
 10
-0.4173346456692914
 20
-1.418771653543307
 30
0.0
 10
-0.4173346456692914
 20
-1.418771653543307
 30
0.0
 10
-0.4173346456692914
 20
-1.418771653543307
 30
0.0
 10
-0.4526023622047244
 20
-1.4339055118110238
 30
0.0
 10
-0.4526023622047244
 20
-1.4339055118110238
 30
0.0
 10
-0.4526023622047244
 20
-1.4339055118110238
 30
0.0
 10
-0.4526023622047244
 20
-1.4339055118110238
 30
0.0
 10
-0.489984251968504
 20
-1.4465708661417322
 30
0.0
 10
-0.489984251968504
 20
-1.4465708661417322
 30
0.0
 10
-0.489984251968504
 20
-1.4465708661417322
 30
0.0
 10
-0.489984251968504
 20
-1.4465708661417322
 30
0.0
 10
-0.5294566929133858
 20
-1.4565984251968505
 30
0.0
 10
-0.5294566929133858
 20
-1.4565984251968505
 30
0.0
 10
-0.5294566929133858
 20
-1.4565984251968505
 30
0.0
 10
-0.5294566929133858
 20
-1.4565984251968505
 30
0.0
 10
-0.5710275590551182
 20
-1.4638425196850395
 30
0.0
 10
-0.5710275590551182
 20
-1.4638425196850395
 30
0.0
 10
-0.5710275590551182
 20
-1.4638425196850395
 30
0.0
 10
-0.5710275590551182
 20
-1.4638425196850395
 30
0.0
 10
-0.6146811023622048
 20
-1.4681338582677166
 30
0.0
 10
-0.6146811023622048
 20
-1.4681338582677166
 30
0.0
  0
SPLINE
  5
4B
100
AcDbEntity
  8
Layer 1
 62
     9
100
AcDbSpline
210
0.0
220
0.0
230
1.0
 70
     1
 71
     3
 72
    20
 73
    16
 74
     0
 42
0.0000000001
 43
0.0000000001
 40
0.0
 40
0.0
 40
0.0
 40
0.0
 40
0.25
 40
0.25
 40
0.25
 40
0.25
 40
0.5
 40
0.5
 40
0.5
 40
0.5
 40
0.75
 40
0.75
 40
0.75
 40
0.75
 40
1.0
 40
1.0
 40
1.0
 40
1.0
 10
-0.2612992125984252
 20
-0.6801535433070867
 30
0.0
 10
-0.2612992125984252
 20
-0.6801535433070867
 30
0.0
 10
0.4833188976377953
 20
-0.6915354330708662
 30
0.0
 10
0.4833188976377953
 20
-0.6915354330708662
 30
0.0
 10
0.4833188976377953
 20
-0.6915354330708662
 30
0.0
 10
0.4833188976377953
 20
-0.6915354330708662
 30
0.0
 10
0.6148464566929134
 20
-0.5690787401574804
 30
0.0
 10
0.6148464566929134
 20
-0.5690787401574804
 30
0.0
 10
0.6148464566929134
 20
-0.5690787401574804
 30
0.0
 10
0.6148464566929134
 20
-0.5690787401574804
 30
0.0
 10
-0.1297716535433071
 20
-0.5576968503937008
 30
0.0
 10
-0.1297716535433071
 20
-0.5576968503937008
 30
0.0
 10
-0.1297716535433071
 20
-0.5576968503937008
 30
0.0
 10
-0.1297716535433071
 20
-0.5576968503937008
 30
0.0
 10
-0.2612992125984252
 20
-0.6801535433070867
 30
0.0
 10
-0.2612992125984252
 20
-0.6801535433070867
 30
0.0
  0
SPLINE
  5
4C
100
AcDbEntity
  8
Layer 1
 62
     9
100
AcDbSpline
210
0.0
220
0.0
230
1.0
 70
     1
 71
     3
 72
    20
 73
    16
 74
     0
 42
0.0000000001
 43
0.0000000001
 40
0.0
 40
0.0
 40
0.0
 40
0.0
 40
0.25
 40
0.25
 40
0.25
 40
0.25
 40
0.5
 40
0.5
 40
0.5
 40
0.5
 40
0.75
 40
0.75
 40
0.75
 40
0.75
 40
1.0
 40
1.0
 40
1.0
 40
1.0
 10
-0.1297716535433071
 20
-0.5576968503937008
 30
0.0
 10
-0.1297716535433071
 20
-0.5576968503937008
 30
0.0
 10
0.6148464566929134
 20
-0.5690787401574804
 30
0.0
 10
0.6148464566929134
 20
-0.5690787401574804
 30
0.0
 10
0.6148464566929134
 20
-0.5690787401574804
 30
0.0
 10
0.6148464566929134
 20
-0.5690787401574804
 30
0.0
 10
0.6043661417322835
 20
-0.5306417322834646
 30
0.0
 10
0.6043661417322835
 20
-0.5306417322834646
 30
0.0
 10
0.6043661417322835
 20
-0.5306417322834646
 30
0.0
 10
0.6043661417322835
 20
-0.5306417322834646
 30
0.0
 10
-0.140251968503937
 20
-0.519259842519685
 30
0.0
 10
-0.140251968503937
 20
-0.519259842519685
 30
0.0
 10
-0.140251968503937
 20
-0.519259842519685
 30
0.0
 10
-0.140251968503937
 20
-0.519259842519685
 30
0.0
 10
-0.1297716535433071
 20
-0.5576968503937008
 30
0.0
 10
-0.1297716535433071
 20
-0.5576968503937008
 30
0.0
  0
SPLINE
  5
4D
100
AcDbEntity
  8
Layer 1
 62
     9
100
AcDbSpline
210
0.0
220
0.0
230
1.0
 70
     1
 71
     3
 72
    20
 73
    16
 74
     0
 42
0.0000000001
 43
0.0000000001
 40
0.0
 40
0.0
 40
0.0
 40
0.0
 40
0.25
 40
0.25
 40
0.25
 40
0.25
 40
0.5
 40
0.5
 40
0.5
 40
0.5
 40
0.75
 40
0.75
 40
0.75
 40
0.75
 40
1.0
 40
1.0
 40
1.0
 40
1.0
 10
-0.140251968503937
 20
-0.519259842519685
 30
0.0
 10
-0.140251968503937
 20
-0.519259842519685
 30
0.0
 10
0.6043661417322835
 20
-0.5306417322834646
 30
0.0
 10
0.6043661417322835
 20
-0.5306417322834646
 30
0.0
 10
0.6043661417322835
 20
-0.5306417322834646
 30
0.0
 10
0.6043661417322835
 20
-0.5306417322834646
 30
0.0
 10
0.5958543307086615
 20
-0.492751968503937
 30
0.0
 10
0.5958543307086615
 20
-0.492751968503937
 30
0.0
 10
0.5958543307086615
 20
-0.492751968503937
 30
0.0
 10
0.5958543307086615
 20
-0.492751968503937
 30
0.0
 10
-0.1487637795275591
 20
-0.4813700787401575
 30
0.0
 10
-0.1487637795275591
 20
-0.4813700787401575
 30
0.0
 10
-0.1487637795275591
 20
-0.4813700787401575
 30
0.0
 10
-0.1487637795275591
 20
-0.4813700787401575
 30
0.0
 10
-0.140251968503937
 20
-0.519259842519685
 30
0.0
 10
-0.140251968503937
 20
-0.519259842519685
 30
0.0
  0
SPLINE
  5
4E
100
AcDbEntity
  8
Layer 1
 62
     9
100
AcDbSpline
210
0.0
220
0.0
230
1.0
 70
     1
 71
     3
 72
    20
 73
    16
 74
     0
 42
0.0000000001
 43
0.0000000001
 40
0.0
 40
0.0
 40
0.0
 40
0.0
 40
0.25
 40
0.25
 40
0.25
 40
0.25
 40
0.5
 40
0.5
 40
0.5
 40
0.5
 40
0.75
 40
0.75
 40
0.75
 40
0.75
 40
1.0
 40
1.0
 40
1.0
 40
1.0
 10
-0.1487637795275591
 20
-0.4813700787401575
 30
0.0
 10
-0.1487637795275591
 20
-0.4813700787401575
 30
0.0
 10
0.5958543307086615
 20
-0.492751968503937
 30
0.0
 10
0.5958543307086615
 20
-0.492751968503937
 30
0.0
 10
0.5958543307086615
 20
-0.492751968503937
 30
0.0
 10
0.5958543307086615
 20
-0.492751968503937
 30
0.0
 10
0.589251968503937
 20
-0.4554488188976378
 30
0.0
 10
0.589251968503937
 20
-0.4554488188976378
 30
0.0
 10
0.589251968503937
 20
-0.4554488188976378
 30
0.0
 10
0.589251968503937
 20
-0.4554488188976378
 30
0.0
 10
-0.1553661417322835
 20
-0.4440669291338583
 30
0.0
 10
-0.1553661417322835
 20
-0.4440669291338583
 30
0.0
 10
-0.1553661417322835
 20
-0.4440669291338583
 30
0.0
 10
-0.1553661417322835
 20
-0.4440669291338583
 30
0.0
 10
-0.1487637795275591
 20
-0.4813700787401575
 30
0.0
 10
-0.1487637795275591
 20
-0.4813700787401575
 30
0.0
  0
SPLINE
  5
4F
100
AcDbEntity
  8
Layer 1
 62
     9
100
AcDbSpline
210
0.0
220
0.0
230
1.0
 70
     1
 71
     3
 72
    20
 73
    16
 74
     0
 42
0.0000000001
 43
0.0000000001
 40
0.0
 40
0.0
 40
0.0
 40
0.0
 40
0.25
 40
0.25
 40
0.25
 40
0.25
 40
0.5
 40
0.5
 40
0.5
 40
0.5
 40
0.75
 40
0.75
 40
0.75
 40
0.75
 40
1.0
 40
1.0
 40
1.0
 40
1.0
 10
-0.1553661417322835
 20
-0.4440669291338583
 30
0.0
 10
-0.1553661417322835
 20
-0.4440669291338583
 30
0.0
 10
0.589251968503937
 20
-0.4554488188976378
 30
0.0
 10
0.589251968503937
 20
-0.4554488188976378
 30
0.0
 10
0.589251968503937
 20
-0.4554488188976378
 30
0.0
 10
0.589251968503937
 20
-0.4554488188976378
 30
0.0
 10
0.5845
 20
-0.4187716535433071
 30
0.0
 10
0.5845
 20
-0.4187716535433071
 30
0.0
 10
0.5845
 20
-0.4187716535433071
 30
0.0
 10
0.5845
 20
-0.4187716535433071
 30
0.0
 10
-0.1601181102362205
 20
-0.4073897637795276
 30
0.0
 10
-0.1601181102362205
 20
-0.4073897637795276
 30
0.0
 10
-0.1601181102362205
 20
-0.4073897637795276
 30
0.0
 10
-0.1601181102362205
 20
-0.4073897637795276
 30
0.0
 10
-0.1553661417322835
 20
-0.4440669291338583
 30
0.0
 10
-0.1553661417322835
 20
-0.4440669291338583
 30
0.0
  0
SPLINE
  5
50
100
AcDbEntity
  8
Layer 1
 62
     9
100
AcDbSpline
210
0.0
220
0.0
230
1.0
 70
     1
 71
     3
 72
    20
 73
    16
 74
     0
 42
0.0000000001
 43
0.0000000001
 40
0.0
 40
0.0
 40
0.0
 40
0.0
 40
0.25
 40
0.25
 40
0.25
 40
0.25
 40
0.5
 40
0.5
 40
0.5
 40
0.5
 40
0.75
 40
0.75
 40
0.75
 40
0.75
 40
1.0
 40
1.0
 40
1.0
 40
1.0
 10
-0.1601181102362205
 20
-0.4073897637795276
 30
0.0
 10
-0.1601181102362205
 20
-0.4073897637795276
 30
0.0
 10
0.5845
 20
-0.4187716535433071
 30
0.0
 10
0.5845
 20
-0.4187716535433071
 30
0.0
 10
0.5845
 20
-0.4187716535433071
 30
0.0
 10
0.5845
 20
-0.4187716535433071
 30
0.0
 10
0.5815551181102362
 20
-0.382751968503937
 30
0.0
 10
0.5815551181102362
 20
-0.382751968503937
 30
0.0
 10
0.5815551181102362
 20
-0.382751968503937
 30
0.0
 10
0.5815551181102362
 20
-0.382751968503937
 30
0.0
 10
-0.1630629921259843
 20
-0.3713700787401575
 30
0.0
 10
-0.1630629921259843
 20
-0.3713700787401575
 30
0.0
 10
-0.1630629921259843
 20
-0.3713700787401575
 30
0.0
 10
-0.1630629921259843
 20
-0.3713700787401575
 30
0.0
 10
-0.1601181102362205
 20
-0.4073897637795276
 30
0.0
 10
-0.1601181102362205
 20
-0.4073897637795276
 30
0.0
  0
SPLINE
  5
51
100
AcDbEntity
  8
Layer 1
 62
     9
100
AcDbSpline
210
0.0
220
0.0
230
1.0
 70
     1
 71
     3
 72
    20
 73
    16
 74
     0
 42
0.0000000001
 43
0.0000000001
 40
0.0
 40
0.0
 40
0.0
 40
0.0
 40
0.25
 40
0.25
 40
0.25
 40
0.25
 40
0.5
 40
0.5
 40
0.5
 40
0.5
 40
0.75
 40
0.75
 40
0.75
 40
0.75
 40
1.0
 40
1.0
 40
1.0
 40
1.0
 10
-0.1630629921259843
 20
-0.3713700787401575
 30
0.0
 10
-0.1630629921259843
 20
-0.3713700787401575
 30
0.0
 10
0.5815551181102362
 20
-0.382751968503937
 30
0.0
 10
0.5815551181102362
 20
-0.382751968503937
 30
0.0
 10
0.5815551181102362
 20
-0.382751968503937
 30
0.0
 10
0.5815551181102362
 20
-0.382751968503937
 30
0.0
 10
0.5803503937007875
 20
-0.3474409448818898
 30
0.0
 10
0.5803503937007875
 20
-0.3474409448818898
 30
0.0
 10
0.5803503937007875
 20
-0.3474409448818898
 30
0.0
 10
0.5803503937007875
 20
-0.3474409448818898
 30
0.0
 10
-0.1642677165354331
 20
-0.3360590551181102
 30
0.0
 10
-0.1642677165354331
 20
-0.3360590551181102
 30
0.0
 10
-0.1642677165354331
 20
-0.3360590551181102
 30
0.0
 10
-0.1642677165354331
 20
-0.3360590551181102
 30
0.0
 10
-0.1630629921259843
 20
-0.3713700787401575
 30
0.0
 10
-0.1630629921259843
 20
-0.3713700787401575
 30
0.0
  0
SPLINE
  5
52
100
AcDbEntity
  8
Layer 1
 62
     9
100
AcDbSpline
210
0.0
220
0.0
230
1.0
 70
     1
 71
     3
 72
    20
 73
    16
 74
     0
 42
0.0000000001
 43
0.0000000001
 40
0.0
 40
0.0
 40
0.0
 40
0.0
 40
0.25
 40
0.25
 40
0.25
 40
0.25
 40
0.5
 40
0.5
 40
0.5
 40
0.5
 40
0.75
 40
0.75
 40
0.75
 40
0.75
 40
1.0
 40
1.0
 40
1.0
 40
1.0
 10
-0.1642677165354331
 20
-0.3360590551181102
 30
0.0
 10
-0.1642677165354331
 20
-0.3360590551181102
 30
0.0
 10
0.5803503937007875
 20
-0.3474409448818898
 30
0.0
 10
0.5803503937007875
 20
-0.3474409448818898
 30
0.0
 10
0.5803503937007875
 20
-0.3474409448818898
 30
0.0
 10
0.5803503937007875
 20
-0.3474409448818898
 30
0.0
 10
0.5808385826771654
 20
-0.3128740157480315
 30
0.0
 10
0.5808385826771654
 20
-0.3128740157480315
 30
0.0
 10
0.5808385826771654
 20
-0.3128740157480315
 30
0.0
 10
0.5808385826771654
 20
-0.3128740157480315
 30
0.0
 10
-0.1637795275590551
 20
-0.301492125984252
 30
0.0
 10
-0.1637795275590551
 20
-0.301492125984252
 30
0.0
 10
-0.1637795275590551
 20
-0.301492125984252
 30
0.0
 10
-0.1637795275590551
 20
-0.301492125984252
 30
0.0
 10
-0.1642677165354331
 20
-0.3360590551181102
 30
0.0
 10
-0.1642677165354331
 20
-0.3360590551181102
 30
0.0
  0
SPLINE
  5
53
100
AcDbEntity
  8
Layer 1
 62
     9
100
AcDbSpline
210
0.0
220
0.0
230
1.0
 70
     1
 71
     3
 72
    20
 73
    16
 74
     0
 42
0.0000000001
 43
0.0000000001
 40
0.0
 40
0.0
 40
0.0
 40
0.0
 40
0.25
 40
0.25
 40
0.25
 40
0.25
 40
0.5
 40
0.5
 40
0.5
 40
0.5
 40
0.75
 40
0.75
 40
0.75
 40
0.75
 40
1.0
 40
1.0
 40
1.0
 40
1.0
 10
-0.1637795275590551
 20
-0.301492125984252
 30
0.0
 10
-0.1637795275590551
 20
-0.301492125984252
 30
0.0
 10
0.5808385826771654
 20
-0.3128740157480315
 30
0.0
 10
0.5808385826771654
 20
-0.3128740157480315
 30
0.0
 10
0.5808385826771654
 20
-0.3128740157480315
 30
0.0
 10
0.5808385826771654
 20
-0.3128740157480315
 30
0.0
 10
0.5829566929133858
 20
-0.2790944881889764
 30
0.0
 10
0.5829566929133858
 20
-0.2790944881889764
 30
0.0
 10
0.5829566929133858
 20
-0.2790944881889764
 30
0.0
 10
0.5829566929133858
 20
-0.2790944881889764
 30
0.0
 10
-0.1616614173228347
 20
-0.2677125984251969
 30
0.0
 10
-0.1616614173228347
 20
-0.2677125984251969
 30
0.0
 10
-0.1616614173228347
 20
-0.2677125984251969
 30
0.0
 10
-0.1616614173228347
 20
-0.2677125984251969
 30
0.0
 10
-0.1637795275590551
 20
-0.301492125984252
 30
0.0
 10
-0.1637795275590551
 20
-0.301492125984252
 30
0.0
  0
SPLINE
  5
54
100
AcDbEntity
  8
Layer 1
 62
     9
100
AcDbSpline
210
0.0
220
0.0
230
1.0
 70
     1
 71
     3
 72
    20
 73
    16
 74
     0
 42
0.0000000001
 43
0.0000000001
 40
0.0
 40
0.0
 40
0.0
 40
0.0
 40
0.25
 40
0.25
 40
0.25
 40
0.25
 40
0.5
 40
0.5
 40
0.5
 40
0.5
 40
0.75
 40
0.75
 40
0.75
 40
0.75
 40
1.0
 40
1.0
 40
1.0
 40
1.0
 10
-0.1616614173228347
 20
-0.2677125984251969
 30
0.0
 10
-0.1616614173228347
 20
-0.2677125984251969
 30
0.0
 10
0.5829566929133858
 20
-0.2790944881889764
 30
0.0
 10
0.5829566929133858
 20
-0.2790944881889764
 30
0.0
 10
0.5829566929133858
 20
-0.2790944881889764
 30
0.0
 10
0.5829566929133858
 20
-0.2790944881889764
 30
0.0
 10
0.5866653543307087
 20
-0.2461299212598425
 30
0.0
 10
0.5866653543307087
 20
-0.2461299212598425
 30
0.0
 10
0.5866653543307087
 20
-0.2461299212598425
 30
0.0
 10
0.5866653543307087
 20
-0.2461299212598425
 30
0.0
 10
-0.1579527559055118
 20
-0.234748031496063
 30
0.0
 10
-0.1579527559055118
 20
-0.234748031496063
 30
0.0
 10
-0.1579527559055118
 20
-0.234748031496063
 30
0.0
 10
-0.1579527559055118
 20
-0.234748031496063
 30
0.0
 10
-0.1616614173228347
 20
-0.2677125984251969
 30
0.0
 10
-0.1616614173228347
 20
-0.2677125984251969
 30
0.0
  0
SPLINE
  5
55
100
AcDbEntity
  8
Layer 1
 62
     9
100
AcDbSpline
210
0.0
220
0.0
230
1.0
 70
     1
 71
     3
 72
    20
 73
    16
 74
     0
 42
0.0000000001
 43
0.0000000001
 40
0.0
 40
0.0
 40
0.0
 40
0.0
 40
0.25
 40
0.25
 40
0.25
 40
0.25
 40
0.5
 40
0.5
 40
0.5
 40
0.5
 40
0.75
 40
0.75
 40
0.75
 40
0.75
 40
1.0
 40
1.0
 40
1.0
 40
1.0
 10
-0.1579527559055118
 20
-0.234748031496063
 30
0.0
 10
-0.1579527559055118
 20
-0.234748031496063
 30
0.0
 10
0.5866653543307087
 20
-0.2461299212598425
 30
0.0
 10
0.5866653543307087
 20
-0.2461299212598425
 30
0.0
 10
0.5866653543307087
 20
-0.2461299212598425
 30
0.0
 10
0.5866653543307087
 20
-0.2461299212598425
 30
0.0
 10
0.5918937007874016
 20
-0.2140354330708661
 30
0.0
 10
0.5918937007874016
 20
-0.2140354330708661
 30
0.0
 10
0.5918937007874016
 20
-0.2140354330708661
 30
0.0
 10
0.5918937007874016
 20
-0.2140354330708661
 30
0.0
 10
-0.1527244094488189
 20
-0.2026535433070866
 30
0.0
 10
-0.1527244094488189
 20
-0.2026535433070866
 30
0.0
 10
-0.1527244094488189
 20
-0.2026535433070866
 30
0.0
 10
-0.1527244094488189
 20
-0.2026535433070866
 30
0.0
 10
-0.1579527559055118
 20
-0.234748031496063
 30
0.0
 10
-0.1579527559055118
 20
-0.234748031496063
 30
0.0
  0
SPLINE
  5
56
100
AcDbEntity
  8
Layer 1
 62
     9
100
AcDbSpline
210
0.0
220
0.0
230
1.0
 70
     1
 71
     3
 72
    20
 73
    16
 74
     0
 42
0.0000000001
 43
0.0000000001
 40
0.0
 40
0.0
 40
0.0
 40
0.0
 40
0.25
 40
0.25
 40
0.25
 40
0.25
 40
0.5
 40
0.5
 40
0.5
 40
0.5
 40
0.75
 40
0.75
 40
0.75
 40
0.75
 40
1.0
 40
1.0
 40
1.0
 40
1.0
 10
-0.1527244094488189
 20
-0.2026535433070866
 30
0.0
 10
-0.1527244094488189
 20
-0.2026535433070866
 30
0.0
 10
0.5918937007874016
 20
-0.2140354330708661
 30
0.0
 10
0.5918937007874016
 20
-0.2140354330708661
 30
0.0
 10
0.5918937007874016
 20
-0.2140354330708661
 30
0.0
 10
0.5918937007874016
 20
-0.2140354330708661
 30
0.0
 10
0.5985944881889764
 20
-0.1828425196850394
 30
0.0
 10
0.5985944881889764
 20
-0.1828425196850394
 30
0.0
 10
0.5985944881889764
 20
-0.1828425196850394
 30
0.0
 10
0.5985944881889764
 20
-0.1828425196850394
 30
0.0
 10
-0.1460236220472441
 20
-0.1714606299212599
 30
0.0
 10
-0.1460236220472441
 20
-0.1714606299212599
 30
0.0
 10
-0.1460236220472441
 20
-0.1714606299212599
 30
0.0
 10
-0.1460236220472441
 20
-0.1714606299212599
 30
0.0
 10
-0.1527244094488189
 20
-0.2026535433070866
 30
0.0
 10
-0.1527244094488189
 20
-0.2026535433070866
 30
0.0
  0
SPLINE
  5
57
100
AcDbEntity
  8
Layer 1
 62
     9
100
AcDbSpline
210
0.0
220
0.0
230
1.0
 70
     1
 71
     3
 72
    20
 73
    16
 74
     0
 42
0.0000000001
 43
0.0000000001
 40
0.0
 40
0.0
 40
0.0
 40
0.0
 40
0.25
 40
0.25
 40
0.25
 40
0.25
 40
0.5
 40
0.5
 40
0.5
 40
0.5
 40
0.75
 40
0.75
 40
0.75
 40
0.75
 40
1.0
 40
1.0
 40
1.0
 40
1.0
 10
-0.1460236220472441
 20
-0.1714606299212599
 30
0.0
 10
-0.1460236220472441
 20
-0.1714606299212599
 30
0.0
 10
0.5985944881889764
 20
-0.1828425196850394
 30
0.0
 10
0.5985944881889764
 20
-0.1828425196850394
 30
0.0
 10
0.5985944881889764
 20
-0.1828425196850394
 30
0.0
 10
0.5985944881889764
 20
-0.1828425196850394
 30
0.0
 10
0.6067125984251969
 20
-0.1525984251968504
 30
0.0
 10
0.6067125984251969
 20
-0.1525984251968504
 30
0.0
 10
0.6067125984251969
 20
-0.1525984251968504
 30
0.0
 10
0.6067125984251969
 20
-0.1525984251968504
 30
0.0
 10
-0.1379055118110236
 20
-0.1412165354330709
 30
0.0
 10
-0.1379055118110236
 20
-0.1412165354330709
 30
0.0
 10
-0.1379055118110236
 20
-0.1412165354330709
 30
0.0
 10
-0.1379055118110236
 20
-0.1412165354330709
 30
0.0
 10
-0.1460236220472441
 20
-0.1714606299212599
 30
0.0
 10
-0.1460236220472441
 20
-0.1714606299212599
 30
0.0
  0
SPLINE
  5
58
100
AcDbEntity
  8
Layer 1
 62
     9
100
AcDbSpline
210
0.0
220
0.0
230
1.0
 70
     1
 71
     3
 72
    20
 73
    16
 74
     0
 42
0.0000000001
 43
0.0000000001
 40
0.0
 40
0.0
 40
0.0
 40
0.0
 40
0.25
 40
0.25
 40
0.25
 40
0.25
 40
0.5
 40
0.5
 40
0.5
 40
0.5
 40
0.75
 40
0.75
 40
0.75
 40
0.75
 40
1.0
 40
1.0
 40
1.0
 40
1.0
 10
-0.1379055118110236
 20
-0.1412165354330709
 30
0.0
 10
-0.1379055118110236
 20
-0.1412165354330709
 30
0.0
 10
0.6067125984251969
 20
-0.1525984251968504
 30
0.0
 10
0.6067125984251969
 20
-0.1525984251968504
 30
0.0
 10
0.6067125984251969
 20
-0.1525984251968504
 30
0.0
 10
0.6067125984251969
 20
-0.1525984251968504
 30
0.0
 10
0.6161929133858268
 20
-0.1233307086614173
 30
0.0
 10
0.6161929133858268
 20
-0.1233307086614173
 30
0.0
 10
0.6161929133858268
 20
-0.1233307086614173
 30
0.0
 10
0.6161929133858268
 20
-0.1233307086614173
 30
0.0
 10
-0.1284251968503937
 20
-0.1119488188976378
 30
0.0
 10
-0.1284251968503937
 20
-0.1119488188976378
 30
0.0
 10
-0.1284251968503937
 20
-0.1119488188976378
 30
0.0
 10
-0.1284251968503937
 20
-0.1119488188976378
 30
0.0
 10
-0.1379055118110236
 20
-0.1412165354330709
 30
0.0
 10
-0.1379055118110236
 20
-0.1412165354330709
 30
0.0
  0
SPLINE
  5
59
100
AcDbEntity
  8
Layer 1
 62
     9
100
AcDbSpline
210
0.0
220
0.0
230
1.0
 70
     1
 71
     3
 72
    20
 73
    16
 74
     0
 42
0.0000000001
 43
0.0000000001
 40
0.0
 40
0.0
 40
0.0
 40
0.0
 40
0.25
 40
0.25
 40
0.25
 40
0.25
 40
0.5
 40
0.5
 40
0.5
 40
0.5
 40
0.75
 40
0.75
 40
0.75
 40
0.75
 40
1.0
 40
1.0
 40
1.0
 40
1.0
 10
-0.1284251968503937
 20
-0.1119488188976378
 30
0.0
 10
-0.1284251968503937
 20
-0.1119488188976378
 30
0.0
 10
0.6161929133858268
 20
-0.1233307086614173
 30
0.0
 10
0.6161929133858268
 20
-0.1233307086614173
 30
0.0
 10
0.6161929133858268
 20
-0.1233307086614173
 30
0.0
 10
0.6161929133858268
 20
-0.1233307086614173
 30
0.0
 10
0.6269803149606299
 20
-0.0950866141732283
 30
0.0
 10
0.6269803149606299
 20
-0.0950866141732283
 30
0.0
 10
0.6269803149606299
 20
-0.0950866141732283
 30
0.0
 10
0.6269803149606299
 20
-0.0950866141732283
 30
0.0
 10
-0.1176377952755906
 20
-0.0837047244094488
 30
0.0
 10
-0.1176377952755906
 20
-0.0837047244094488
 30
0.0
 10
-0.1176377952755906
 20
-0.0837047244094488
 30
0.0
 10
-0.1176377952755906
 20
-0.0837047244094488
 30
0.0
 10
-0.1284251968503937
 20
-0.1119488188976378
 30
0.0
 10
-0.1284251968503937
 20
-0.1119488188976378
 30
0.0
  0
SPLINE
  5
5A
100
AcDbEntity
  8
Layer 1
 62
     9
100
AcDbSpline
210
0.0
220
0.0
230
1.0
 70
     1
 71
     3
 72
    20
 73
    16
 74
     0
 42
0.0000000001
 43
0.0000000001
 40
0.0
 40
0.0
 40
0.0
 40
0.0
 40
0.25
 40
0.25
 40
0.25
 40
0.25
 40
0.5
 40
0.5
 40
0.5
 40
0.5
 40
0.75
 40
0.75
 40
0.75
 40
0.75
 40
1.0
 40
1.0
 40
1.0
 40
1.0
 10
-0.1176377952755906
 20
-0.0837047244094488
 30
0.0
 10
-0.1176377952755906
 20
-0.0837047244094488
 30
0.0
 10
0.6269803149606299
 20
-0.0950866141732283
 30
0.0
 10
0.6269803149606299
 20
-0.0950866141732283
 30
0.0
 10
0.6269803149606299
 20
-0.0950866141732283
 30
0.0
 10
0.6269803149606299
 20
-0.0950866141732283
 30
0.0
 10
0.6390196850393701
 20
-0.0679055118110236
 30
0.0
 10
0.6390196850393701
 20
-0.0679055118110236
 30
0.0
 10
0.6390196850393701
 20
-0.0679055118110236
 30
0.0
 10
0.6390196850393701
 20
-0.0679055118110236
 30
0.0
 10
-0.1055984251968504
 20
-0.0565236220472441
 30
0.0
 10
-0.1055984251968504
 20
-0.0565236220472441
 30
0.0
 10
-0.1055984251968504
 20
-0.0565236220472441
 30
0.0
 10
-0.1055984251968504
 20
-0.0565236220472441
 30
0.0
 10
-0.1176377952755906
 20
-0.0837047244094488
 30
0.0
 10
-0.1176377952755906
 20
-0.0837047244094488
 30
0.0
  0
SPLINE
  5
5B
100
AcDbEntity
  8
Layer 1
 62
     9
100
AcDbSpline
210
0.0
220
0.0
230
1.0
 70
     1
 71
     3
 72
    20
 73
    16
 74
     0
 42
0.0000000001
 43
0.0000000001
 40
0.0
 40
0.0
 40
0.0
 40
0.0
 40
0.25
 40
0.25
 40
0.25
 40
0.25
 40
0.5
 40
0.5
 40
0.5
 40
0.5
 40
0.75
 40
0.75
 40
0.75
 40
0.75
 40
1.0
 40
1.0
 40
1.0
 40
1.0
 10
-0.1055984251968504
 20
-0.0565236220472441
 30
0.0
 10
-0.1055984251968504
 20
-0.0565236220472441
 30
0.0
 10
0.6390196850393701
 20
-0.0679055118110236
 30
0.0
 10
0.6390196850393701
 20
-0.0679055118110236
 30
0.0
 10
0.6390196850393701
 20
-0.0679055118110236
 30
0.0
 10
0.6390196850393701
 20
-0.0679055118110236
 30
0.0
 10
0.6522637795275591
 20
-0.0418385826771654
 30
0.0
 10
0.6522637795275591
 20
-0.0418385826771654
 30
0.0
 10
0.6522637795275591
 20
-0.0418385826771654
 30
0.0
 10
0.6522637795275591
 20
-0.0418385826771654
 30
0.0
 10
-0.0923543307086614
 20
-0.0304566929133858
 30
0.0
 10
-0.0923543307086614
 20
-0.0304566929133858
 30
0.0
 10
-0.0923543307086614
 20
-0.0304566929133858
 30
0.0
 10
-0.0923543307086614
 20
-0.0304566929133858
 30
0.0
 10
-0.1055984251968504
 20
-0.0565236220472441
 30
0.0
 10
-0.1055984251968504
 20
-0.0565236220472441
 30
0.0
  0
SPLINE
  5
5C
100
AcDbEntity
  8
Layer 1
 62
     9
100
AcDbSpline
210
0.0
220
0.0
230
1.0
 70
     1
 71
     3
 72
    20
 73
    16
 74
     0
 42
0.0000000001
 43
0.0000000001
 40
0.0
 40
0.0
 40
0.0
 40
0.0
 40
0.25
 40
0.25
 40
0.25
 40
0.25
 40
0.5
 40
0.5
 40
0.5
 40
0.5
 40
0.75
 40
0.75
 40
0.75
 40
0.75
 40
1.0
 40
1.0
 40
1.0
 40
1.0
 10
-0.0923543307086614
 20
-0.0304566929133858
 30
0.0
 10
-0.0923543307086614
 20
-0.0304566929133858
 30
0.0
 10
0.6522637795275591
 20
-0.0418385826771654
 30
0.0
 10
0.6522637795275591
 20
-0.0418385826771654
 30
0.0
 10
0.6522637795275591
 20
-0.0418385826771654
 30
0.0
 10
0.6522637795275591
 20
-0.0418385826771654
 30
0.0
 10
0.6666417322834646
 20
-0.0169055118110236
 30
0.0
 10
0.6666417322834646
 20
-0.0169055118110236
 30
0.0
 10
0.6666417322834646
 20
-0.0169055118110236
 30
0.0
 10
0.6666417322834646
 20
-0.0169055118110236
 30
0.0
 10
-0.0779763779527559
 20
-0.0055236220472441
 30
0.0
 10
-0.0779763779527559
 20
-0.0055236220472441
 30
0.0
 10
-0.0779763779527559
 20
-0.0055236220472441
 30
0.0
 10
-0.0779763779527559
 20
-0.0055236220472441
 30
0.0
 10
-0.0923543307086614
 20
-0.0304566929133858
 30
0.0
 10
-0.0923543307086614
 20
-0.0304566929133858
 30
0.0
  0
SPLINE
  5
5D
100
AcDbEntity
  8
Layer 1
 62
     9
100
AcDbSpline
210
0.0
220
0.0
230
1.0
 70
     1
 71
     3
 72
    20
 73
    16
 74
     0
 42
0.0000000001
 43
0.0000000001
 40
0.0
 40
0.0
 40
0.0
 40
0.0
 40
0.25
 40
0.25
 40
0.25
 40
0.25
 40
0.5
 40
0.5
 40
0.5
 40
0.5
 40
0.75
 40
0.75
 40
0.75
 40
0.75
 40
1.0
 40
1.0
 40
1.0
 40
1.0
 10
-0.0779763779527559
 20
-0.0055236220472441
 30
0.0
 10
-0.0779763779527559
 20
-0.0055236220472441
 30
0.0
 10
0.6666417322834646
 20
-0.0169055118110236
 30
0.0
 10
0.6666417322834646
 20
-0.0169055118110236
 30
0.0
 10
0.6666417322834646
 20
-0.0169055118110236
 30
0.0
 10
0.6666417322834646
 20
-0.0169055118110236
 30
0.0
 10
0.6821102362204725
 20
0.0068425196850394
 30
0.0
 10
0.6821102362204725
 20
0.0068425196850394
 30
0.0
 10
0.6821102362204725
 20
0.0068425196850394
 30
0.0
 10
0.6821102362204725
 20
0.0068425196850394
 30
0.0
 10
-0.062507874015748
 20
0.0182244094488189
 30
0.0
 10
-0.062507874015748
 20
0.0182244094488189
 30
0.0
 10
-0.062507874015748
 20
0.0182244094488189
 30
0.0
 10
-0.062507874015748
 20
0.0182244094488189
 30
0.0
 10
-0.0779763779527559
 20
-0.0055236220472441
 30
0.0
 10
-0.0779763779527559
 20
-0.0055236220472441
 30
0.0
  0
SPLINE
  5
5E
100
AcDbEntity
  8
Layer 1
 62
     9
100
AcDbSpline
210
0.0
220
0.0
230
1.0
 70
     1
 71
     3
 72
    20
 73
    16
 74
     0
 42
0.0000000001
 43
0.0000000001
 40
0.0
 40
0.0
 40
0.0
 40
0.0
 40
0.25
 40
0.25
 40
0.25
 40
0.25
 40
0.5
 40
0.5
 40
0.5
 40
0.5
 40
0.75
 40
0.75
 40
0.75
 40
0.75
 40
1.0
 40
1.0
 40
1.0
 40
1.0
 10
-0.062507874015748
 20
0.0182244094488189
 30
0.0
 10
-0.062507874015748
 20
0.0182244094488189
 30
0.0
 10
0.6821102362204725
 20
0.0068425196850394
 30
0.0
 10
0.6821102362204725
 20
0.0068425196850394
 30
0.0
 10
0.6821102362204725
 20
0.0068425196850394
 30
0.0
 10
0.6821102362204725
 20
0.0068425196850394
 30
0.0
 10
0.6986102362204725
 20
0.0293661417322835
 30
0.0
 10
0.6986102362204725
 20
0.0293661417322835
 30
0.0
 10
0.6986102362204725
 20
0.0293661417322835
 30
0.0
 10
0.6986102362204725
 20
0.0293661417322835
 30
0.0
 10
-0.046007874015748
 20
0.040748031496063
 30
0.0
 10
-0.046007874015748
 20
0.040748031496063
 30
0.0
 10
-0.046007874015748
 20
0.040748031496063
 30
0.0
 10
-0.046007874015748
 20
0.040748031496063
 30
0.0
 10
-0.062507874015748
 20
0.0182244094488189
 30
0.0
 10
-0.062507874015748
 20
0.0182244094488189
 30
0.0
  0
SPLINE
  5
5F
100
AcDbEntity
  8
Layer 1
 62
     9
100
AcDbSpline
210
0.0
220
0.0
230
1.0
 70
     1
 71
     3
 72
    20
 73
    16
 74
     0
 42
0.0000000001
 43
0.0000000001
 40
0.0
 40
0.0
 40
0.0
 40
0.0
 40
0.25
 40
0.25
 40
0.25
 40
0.25
 40
0.5
 40
0.5
 40
0.5
 40
0.5
 40
0.75
 40
0.75
 40
0.75
 40
0.75
 40
1.0
 40
1.0
 40
1.0
 40
1.0
 10
-0.046007874015748
 20
0.040748031496063
 30
0.0
 10
-0.046007874015748
 20
0.040748031496063
 30
0.0
 10
0.6986102362204725
 20
0.0293661417322835
 30
0.0
 10
0.6986102362204725
 20
0.0293661417322835
 30
0.0
 10
0.6986102362204725
 20
0.0293661417322835
 30
0.0
 10
0.6986102362204725
 20
0.0293661417322835
 30
0.0
 10
0.7160944881889764
 20
0.0506377952755906
 30
0.0
 10
0.7160944881889764
 20
0.0506377952755906
 30
0.0
 10
0.7160944881889764
 20
0.0506377952755906
 30
0.0
 10
0.7160944881889764
 20
0.0506377952755906
 30
0.0
 10
-0.0285236220472441
 20
0.0620196850393701
 30
0.0
 10
-0.0285236220472441
 20
0.0620196850393701
 30
0.0
 10
-0.0285236220472441
 20
0.0620196850393701
 30
0.0
 10
-0.0285236220472441
 20
0.0620196850393701
 30
0.0
 10
-0.046007874015748
 20
0.040748031496063
 30
0.0
 10
-0.046007874015748
 20
0.040748031496063
 30
0.0
  0
SPLINE
  5
60
100
AcDbEntity
  8
Layer 1
 62
     9
100
AcDbSpline
210
0.0
220
0.0
230
1.0
 70
     1
 71
     3
 72
    20
 73
    16
 74
     0
 42
0.0000000001
 43
0.0000000001
 40
0.0
 40
0.0
 40
0.0
 40
0.0
 40
0.25
 40
0.25
 40
0.25
 40
0.25
 40
0.5
 40
0.5
 40
0.5
 40
0.5
 40
0.75
 40
0.75
 40
0.75
 40
0.75
 40
1.0
 40
1.0
 40
1.0
 40
1.0
 10
-0.0285236220472441
 20
0.0620196850393701
 30
0.0
 10
-0.0285236220472441
 20
0.0620196850393701
 30
0.0
 10
0.7160944881889764
 20
0.0506377952755906
 30
0.0
 10
0.7160944881889764
 20
0.0506377952755906
 30
0.0
 10
0.7160944881889764
 20
0.0506377952755906
 30
0.0
 10
0.7160944881889764
 20
0.0506377952755906
 30
0.0
 10
0.734496062992126
 20
0.0705984251968504
 30
0.0
 10
0.734496062992126
 20
0.0705984251968504
 30
0.0
 10
0.734496062992126
 20
0.0705984251968504
 30
0.0
 10
0.734496062992126
 20
0.0705984251968504
 30
0.0
 10
-0.0101220472440945
 20
0.0819803149606299
 30
0.0
 10
-0.0101220472440945
 20
0.0819803149606299
 30
0.0
 10
-0.0101220472440945
 20
0.0819803149606299
 30
0.0
 10
-0.0101220472440945
 20
0.0819803149606299
 30
0.0
 10
-0.0285236220472441
 20
0.0620196850393701
 30
0.0
 10
-0.0285236220472441
 20
0.0620196850393701
 30
0.0
  0
SPLINE
  5
61
100
AcDbEntity
  8
Layer 1
 62
     9
100
AcDbSpline
210
0.0
220
0.0
230
1.0
 70
     1
 71
     3
 72
    20
 73
    16
 74
     0
 42
0.0000000001
 43
0.0000000001
 40
0.0
 40
0.0
 40
0.0
 40
0.0
 40
0.25
 40
0.25
 40
0.25
 40
0.25
 40
0.5
 40
0.5
 40
0.5
 40
0.5
 40
0.75
 40
0.75
 40
0.75
 40
0.75
 40
1.0
 40
1.0
 40
1.0
 40
1.0
 10
-0.0101220472440945
 20
0.0819803149606299
 30
0.0
 10
-0.0101220472440945
 20
0.0819803149606299
 30
0.0
 10
0.734496062992126
 20
0.0705984251968504
 30
0.0
 10
0.734496062992126
 20
0.0705984251968504
 30
0.0
 10
0.734496062992126
 20
0.0705984251968504
 30
0.0
 10
0.734496062992126
 20
0.0705984251968504
 30
0.0
 10
0.7537716535433071
 20
0.0892204724409449
 30
0.0
 10
0.7537716535433071
 20
0.0892204724409449
 30
0.0
 10
0.7537716535433071
 20
0.0892204724409449
 30
0.0
 10
0.7537716535433071
 20
0.0892204724409449
 30
0.0
 10
0.0091535433070866
 20
0.1006023622047244
 30
0.0
 10
0.0091535433070866
 20
0.1006023622047244
 30
0.0
 10
0.0091535433070866
 20
0.1006023622047244
 30
0.0
 10
0.0091535433070866
 20
0.1006023622047244
 30
0.0
 10
-0.0101220472440945
 20
0.0819803149606299
 30
0.0
 10
-0.0101220472440945
 20
0.0819803149606299
 30
0.0
  0
SPLINE
  5
62
100
AcDbEntity
  8
Layer 1
 62
     9
100
AcDbSpline
210
0.0
220
0.0
230
1.0
 70
     1
 71
     3
 72
    20
 73
    16
 74
     0
 42
0.0000000001
 43
0.0000000001
 40
0.0
 40
0.0
 40
0.0
 40
0.0
 40
0.25
 40
0.25
 40
0.25
 40
0.25
 40
0.5
 40
0.5
 40
0.5
 40
0.5
 40
0.75
 40
0.75
 40
0.75
 40
0.75
 40
1.0
 40
1.0
 40
1.0
 40
1.0
 10
0.0091535433070866
 20
0.1006023622047244
 30
0.0
 10
0.0091535433070866
 20
0.1006023622047244
 30
0.0
 10
0.7537716535433071
 20
0.0892204724409449
 30
0.0
 10
0.7537716535433071
 20
0.0892204724409449
 30
0.0
 10
0.7537716535433071
 20
0.0892204724409449
 30
0.0
 10
0.7537716535433071
 20
0.0892204724409449
 30
0.0
 10
0.7738543307086615
 20
0.1064606299212599
 30
0.0
 10
0.7738543307086615
 20
0.1064606299212599
 30
0.0
 10
0.7738543307086615
 20
0.1064606299212599
 30
0.0
 10
0.7738543307086615
 20
0.1064606299212599
 30
0.0
 10
0.0292362204724409
 20
0.1178425196850394
 30
0.0
 10
0.0292362204724409
 20
0.1178425196850394
 30
0.0
 10
0.0292362204724409
 20
0.1178425196850394
 30
0.0
 10
0.0292362204724409
 20
0.1178425196850394
 30
0.0
 10
0.0091535433070866
 20
0.1006023622047244
 30
0.0
 10
0.0091535433070866
 20
0.1006023622047244
 30
0.0
  0
SPLINE
  5
63
100
AcDbEntity
  8
Layer 1
 62
     9
100
AcDbSpline
210
0.0
220
0.0
230
1.0
 70
     1
 71
     3
 72
    20
 73
    16
 74
     0
 42
0.0000000001
 43
0.0000000001
 40
0.0
 40
0.0
 40
0.0
 40
0.0
 40
0.25
 40
0.25
 40
0.25
 40
0.25
 40
0.5
 40
0.5
 40
0.5
 40
0.5
 40
0.75
 40
0.75
 40
0.75
 40
0.75
 40
1.0
 40
1.0
 40
1.0
 40
1.0
 10
0.0292362204724409
 20
0.1178425196850394
 30
0.0
 10
0.0292362204724409
 20
0.1178425196850394
 30
0.0
 10
0.7738543307086615
 20
0.1064606299212599
 30
0.0
 10
0.7738543307086615
 20
0.1064606299212599
 30
0.0
 10
0.7738543307086615
 20
0.1064606299212599
 30
0.0
 10
0.7738543307086615
 20
0.1064606299212599
 30
0.0
 10
0.7947047244094488
 20
0.1222834645669291
 30
0.0
 10
0.7947047244094488
 20
0.1222834645669291
 30
0.0
 10
0.7947047244094488
 20
0.1222834645669291
 30
0.0
 10
0.7947047244094488
 20
0.1222834645669291
 30
0.0
 10
0.0500866141732284
 20
0.1336653543307087
 30
0.0
 10
0.0500866141732284
 20
0.1336653543307087
 30
0.0
 10
0.0500866141732284
 20
0.1336653543307087
 30
0.0
 10
0.0500866141732284
 20
0.1336653543307087
 30
0.0
 10
0.0292362204724409
 20
0.1178425196850394
 30
0.0
 10
0.0292362204724409
 20
0.1178425196850394
 30
0.0
  0
SPLINE
  5
64
100
AcDbEntity
  8
Layer 1
 62
     9
100
AcDbSpline
210
0.0
220
0.0
230
1.0
 70
     1
 71
     3
 72
    20
 73
    16
 74
     0
 42
0.0000000001
 43
0.0000000001
 40
0.0
 40
0.0
 40
0.0
 40
0.0
 40
0.25
 40
0.25
 40
0.25
 40
0.25
 40
0.5
 40
0.5
 40
0.5
 40
0.5
 40
0.75
 40
0.75
 40
0.75
 40
0.75
 40
1.0
 40
1.0
 40
1.0
 40
1.0
 10
0.0500866141732284
 20
0.1336653543307087
 30
0.0
 10
0.0500866141732284
 20
0.1336653543307087
 30
0.0
 10
0.7947047244094488
 20
0.1222834645669291
 30
0.0
 10
0.7947047244094488
 20
0.1222834645669291
 30
0.0
 10
0.7947047244094488
 20
0.1222834645669291
 30
0.0
 10
0.7947047244094488
 20
0.1222834645669291
 30
0.0
 10
0.816251968503937
 20
0.1366377952755906
 30
0.0
 10
0.816251968503937
 20
0.1366377952755906
 30
0.0
 10
0.816251968503937
 20
0.1366377952755906
 30
0.0
 10
0.816251968503937
 20
0.1366377952755906
 30
0.0
 10
0.0716338582677165
 20
0.1480196850393701
 30
0.0
 10
0.0716338582677165
 20
0.1480196850393701
 30
0.0
 10
0.0716338582677165
 20
0.1480196850393701
 30
0.0
 10
0.0716338582677165
 20
0.1480196850393701
 30
0.0
 10
0.0500866141732284
 20
0.1336653543307087
 30
0.0
 10
0.0500866141732284
 20
0.1336653543307087
 30
0.0
  0
SPLINE
  5
65
100
AcDbEntity
  8
Layer 1
 62
     9
100
AcDbSpline
210
0.0
220
0.0
230
1.0
 70
     1
 71
     3
 72
    20
 73
    16
 74
     0
 42
0.0000000001
 43
0.0000000001
 40
0.0
 40
0.0
 40
0.0
 40
0.0
 40
0.25
 40
0.25
 40
0.25
 40
0.25
 40
0.5
 40
0.5
 40
0.5
 40
0.5
 40
0.75
 40
0.75
 40
0.75
 40
0.75
 40
1.0
 40
1.0
 40
1.0
 40
1.0
 10
0.0716338582677165
 20
0.1480196850393701
 30
0.0
 10
0.0716338582677165
 20
0.1480196850393701
 30
0.0
 10
0.816251968503937
 20
0.1366377952755906
 30
0.0
 10
0.816251968503937
 20
0.1366377952755906
 30
0.0
 10
0.816251968503937
 20
0.1366377952755906
 30
0.0
 10
0.816251968503937
 20
0.1366377952755906
 30
0.0
 10
0.8384488188976378
 20
0.149492125984252
 30
0.0
 10
0.8384488188976378
 20
0.149492125984252
 30
0.0
 10
0.8384488188976378
 20
0.149492125984252
 30
0.0
 10
0.8384488188976378
 20
0.149492125984252
 30
0.0
 10
0.0938307086614173
 20
0.1608740157480315
 30
0.0
 10
0.0938307086614173
 20
0.1608740157480315
 30
0.0
 10
0.0938307086614173
 20
0.1608740157480315
 30
0.0
 10
0.0938307086614173
 20
0.1608740157480315
 30
0.0
 10
0.0716338582677165
 20
0.1480196850393701
 30
0.0
 10
0.0716338582677165
 20
0.1480196850393701
 30
0.0
  0
SPLINE
  5
66
100
AcDbEntity
  8
Layer 1
 62
     9
100
AcDbSpline
210
0.0
220
0.0
230
1.0
 70
     1
 71
     3
 72
    20
 73
    16
 74
     0
 42
0.0000000001
 43
0.0000000001
 40
0.0
 40
0.0
 40
0.0
 40
0.0
 40
0.25
 40
0.25
 40
0.25
 40
0.25
 40
0.5
 40
0.5
 40
0.5
 40
0.5
 40
0.75
 40
0.75
 40
0.75
 40
0.75
 40
1.0
 40
1.0
 40
1.0
 40
1.0
 10
0.0938307086614173
 20
0.1608740157480315
 30
0.0
 10
0.0938307086614173
 20
0.1608740157480315
 30
0.0
 10
0.8384488188976378
 20
0.149492125984252
 30
0.0
 10
0.8384488188976378
 20
0.149492125984252
 30
0.0
 10
0.8384488188976378
 20
0.149492125984252
 30
0.0
 10
0.8384488188976378
 20
0.149492125984252
 30
0.0
 10
0.861240157480315
 20
0.1608070866141732
 30
0.0
 10
0.861240157480315
 20
0.1608070866141732
 30
0.0
 10
0.861240157480315
 20
0.1608070866141732
 30
0.0
 10
0.861240157480315
 20
0.1608070866141732
 30
0.0
 10
0.1166220472440945
 20
0.1721889763779528
 30
0.0
 10
0.1166220472440945
 20
0.1721889763779528
 30
0.0
 10
0.1166220472440945
 20
0.1721889763779528
 30
0.0
 10
0.1166220472440945
 20
0.1721889763779528
 30
0.0
 10
0.0938307086614173
 20
0.1608740157480315
 30
0.0
 10
0.0938307086614173
 20
0.1608740157480315
 30
0.0
  0
SPLINE
  5
67
100
AcDbEntity
  8
Layer 1
 62
     9
100
AcDbSpline
210
0.0
220
0.0
230
1.0
 70
     1
 71
     3
 72
    20
 73
    16
 74
     0
 42
0.0000000001
 43
0.0000000001
 40
0.0
 40
0.0
 40
0.0
 40
0.0
 40
0.25
 40
0.25
 40
0.25
 40
0.25
 40
0.5
 40
0.5
 40
0.5
 40
0.5
 40
0.75
 40
0.75
 40
0.75
 40
0.75
 40
1.0
 40
1.0
 40
1.0
 40
1.0
 10
0.1166220472440945
 20
0.1721889763779528
 30
0.0
 10
0.1166220472440945
 20
0.1721889763779528
 30
0.0
 10
0.861240157480315
 20
0.1608070866141732
 30
0.0
 10
0.861240157480315
 20
0.1608070866141732
 30
0.0
 10
0.861240157480315
 20
0.1608070866141732
 30
0.0
 10
0.861240157480315
 20
0.1608070866141732
 30
0.0
 10
0.8845787401574804
 20
0.1705433070866142
 30
0.0
 10
0.8845787401574804
 20
0.1705433070866142
 30
0.0
 10
0.8845787401574804
 20
0.1705433070866142
 30
0.0
 10
0.8845787401574804
 20
0.1705433070866142
 30
0.0
 10
0.1399606299212599
 20
0.1819251968503937
 30
0.0
 10
0.1399606299212599
 20
0.1819251968503937
 30
0.0
 10
0.1399606299212599
 20
0.1819251968503937
 30
0.0
 10
0.1399606299212599
 20
0.1819251968503937
 30
0.0
 10
0.1166220472440945
 20
0.1721889763779528
 30
0.0
 10
0.1166220472440945
 20
0.1721889763779528
 30
0.0
  0
SPLINE
  5
68
100
AcDbEntity
  8
Layer 1
 62
     9
100
AcDbSpline
210
0.0
220
0.0
230
1.0
 70
     1
 71
     3
 72
    20
 73
    16
 74
     0
 42
0.0000000001
 43
0.0000000001
 40
0.0
 40
0.0
 40
0.0
 40
0.0
 40
0.25
 40
0.25
 40
0.25
 40
0.25
 40
0.5
 40
0.5
 40
0.5
 40
0.5
 40
0.75
 40
0.75
 40
0.75
 40
0.75
 40
1.0
 40
1.0
 40
1.0
 40
1.0
 10
0.1399606299212599
 20
0.1819251968503937
 30
0.0
 10
0.1399606299212599
 20
0.1819251968503937
 30
0.0
 10
0.8845787401574804
 20
0.1705433070866142
 30
0.0
 10
0.8845787401574804
 20
0.1705433070866142
 30
0.0
 10
0.8845787401574804
 20
0.1705433070866142
 30
0.0
 10
0.8845787401574804
 20
0.1705433070866142
 30
0.0
 10
0.9083937007874016
 20
0.1786496062992126
 30
0.0
 10
0.9083937007874016
 20
0.1786496062992126
 30
0.0
 10
0.9083937007874016
 20
0.1786496062992126
 30
0.0
 10
0.9083937007874016
 20
0.1786496062992126
 30
0.0
 10
0.1637755905511811
 20
0.1900314960629921
 30
0.0
 10
0.1637755905511811
 20
0.1900314960629921
 30
0.0
 10
0.1637755905511811
 20
0.1900314960629921
 30
0.0
 10
0.1637755905511811
 20
0.1900314960629921
 30
0.0
 10
0.1399606299212599
 20
0.1819251968503937
 30
0.0
 10
0.1399606299212599
 20
0.1819251968503937
 30
0.0
  0
SPLINE
  5
69
100
AcDbEntity
  8
Layer 1
 62
   253
100
AcDbSpline
210
0.0
220
0.0
230
1.0
 70
     1
 71
     3
 72
    20
 73
    16
 74
     0
 42
0.0000000001
 43
0.0000000001
 40
0.0
 40
0.0
 40
0.0
 40
0.0
 40
0.25
 40
0.25
 40
0.25
 40
0.25
 40
0.5
 40
0.5
 40
0.5
 40
0.5
 40
0.75
 40
0.75
 40
0.75
 40
0.75
 40
1.0
 40
1.0
 40
1.0
 40
1.0
 10
0.1637755905511811
 20
0.1900314960629921
 30
0.0
 10
0.1637755905511811
 20
0.1900314960629921
 30
0.0
 10
0.9083937007874016
 20
0.1786496062992126
 30
0.0
 10
0.9083937007874016
 20
0.1786496062992126
 30
0.0
 10
0.9083937007874016
 20
0.1786496062992126
 30
0.0
 10
0.9083937007874016
 20
0.1786496062992126
 30
0.0
 10
0.9326456692913386
 20
0.1851023622047244
 30
0.0
 10
0.9326456692913386
 20
0.1851023622047244
 30
0.0
 10
0.9326456692913386
 20
0.1851023622047244
 30
0.0
 10
0.9326456692913386
 20
0.1851023622047244
 30
0.0
 10
0.1880275590551181
 20
0.1964842519685039
 30
0.0
 10
0.1880275590551181
 20
0.1964842519685039
 30
0.0
 10
0.1880275590551181
 20
0.1964842519685039
 30
0.0
 10
0.1880275590551181
 20
0.1964842519685039
 30
0.0
 10
0.1637755905511811
 20
0.1900314960629921
 30
0.0
 10
0.1637755905511811
 20
0.1900314960629921
 30
0.0
  0
SPLINE
  5
6A
100
AcDbEntity
  8
Layer 1
 62
   253
100
AcDbSpline
210
0.0
220
0.0
230
1.0
 70
     1
 71
     3
 72
    20
 73
    16
 74
     0
 42
0.0000000001
 43
0.0000000001
 40
0.0
 40
0.0
 40
0.0
 40
0.0
 40
0.25
 40
0.25
 40
0.25
 40
0.25
 40
0.5
 40
0.5
 40
0.5
 40
0.5
 40
0.75
 40
0.75
 40
0.75
 40
0.75
 40
1.0
 40
1.0
 40
1.0
 40
1.0
 10
0.1880275590551181
 20
0.1964842519685039
 30
0.0
 10
0.1880275590551181
 20
0.1964842519685039
 30
0.0
 10
0.9326456692913386
 20
0.1851023622047244
 30
0.0
 10
0.9326456692913386
 20
0.1851023622047244
 30
0.0
 10
0.9326456692913386
 20
0.1851023622047244
 30
0.0
 10
0.9326456692913386
 20
0.1851023622047244
 30
0.0
 10
0.9572677165354331
 20
0.1898543307086614
 30
0.0
 10
0.9572677165354331
 20
0.1898543307086614
 30
0.0
 10
0.9572677165354331
 20
0.1898543307086614
 30
0.0
 10
0.9572677165354331
 20
0.1898543307086614
 30
0.0
 10
0.2126496062992126
 20
0.2012362204724409
 30
0.0
 10
0.2126496062992126
 20
0.2012362204724409
 30
0.0
 10
0.2126496062992126
 20
0.2012362204724409
 30
0.0
 10
0.2126496062992126
 20
0.2012362204724409
 30
0.0
 10
0.1880275590551181
 20
0.1964842519685039
 30
0.0
 10
0.1880275590551181
 20
0.1964842519685039
 30
0.0
  0
SPLINE
  5
6B
100
AcDbEntity
  8
Layer 1
 62
   253
100
AcDbSpline
210
0.0
220
0.0
230
1.0
 70
     1
 71
     3
 72
    20
 73
    16
 74
     0
 42
0.0000000001
 43
0.0000000001
 40
0.0
 40
0.0
 40
0.0
 40
0.0
 40
0.25
 40
0.25
 40
0.25
 40
0.25
 40
0.5
 40
0.5
 40
0.5
 40
0.5
 40
0.75
 40
0.75
 40
0.75
 40
0.75
 40
1.0
 40
1.0
 40
1.0
 40
1.0
 10
0.2126496062992126
 20
0.2012362204724409
 30
0.0
 10
0.2126496062992126
 20
0.2012362204724409
 30
0.0
 10
0.9572677165354331
 20
0.1898543307086614
 30
0.0
 10
0.9572677165354331
 20
0.1898543307086614
 30
0.0
 10
0.9572677165354331
 20
0.1898543307086614
 30
0.0
 10
0.9572677165354331
 20
0.1898543307086614
 30
0.0
 10
0.9822165354330709
 20
0.1928700787401575
 30
0.0
 10
0.9822165354330709
 20
0.1928700787401575
 30
0.0
 10
0.9822165354330709
 20
0.1928700787401575
 30
0.0
 10
0.9822165354330709
 20
0.1928700787401575
 30
0.0
 10
0.2375984251968504
 20
0.204251968503937
 30
0.0
 10
0.2375984251968504
 20
0.204251968503937
 30
0.0
 10
0.2375984251968504
 20
0.204251968503937
 30
0.0
 10
0.2375984251968504
 20
0.204251968503937
 30
0.0
 10
0.2126496062992126
 20
0.2012362204724409
 30
0.0
 10
0.2126496062992126
 20
0.2012362204724409
 30
0.0
  0
SPLINE
  5
6C
100
AcDbEntity
  8
Layer 1
370
     5
100
AcDbSpline
210
0.0
220
0.0
230
1.0
 70
     1
 71
     3
 72
   276
 73
   272
 74
     0
 42
0.0000000001
 43
0.0000000001
 40
0.0
 40
0.0
 40
0.0
 40
0.0
 40
0.0147058823529412
 40
0.0147058823529412
 40
0.0147058823529412
 40
0.0147058823529412
 40
0.0294117647058824
 40
0.0294117647058824
 40
0.0294117647058824
 40
0.0294117647058824
 40
0.0441176470588235
 40
0.0441176470588235
 40
0.0441176470588235
 40
0.0441176470588235
 40
0.0588235294117647
 40
0.0588235294117647
 40
0.0588235294117647
 40
0.0588235294117647
 40
0.0735294117647059
 40
0.0735294117647059
 40
0.0735294117647059
 40
0.0735294117647059
 40
0.0882352941176471
 40
0.0882352941176471
 40
0.0882352941176471
 40
0.0882352941176471
 40
0.1029411764705882
 40
0.1029411764705882
 40
0.1029411764705882
 40
0.1029411764705882
 40
0.1176470588235294
 40
0.1176470588235294
 40
0.1176470588235294
 40
0.1176470588235294
 40
0.1323529411764706
 40
0.1323529411764706
 40
0.1323529411764706
 40
0.1323529411764706
 40
0.1470588235294118
 40
0.1470588235294118
 40
0.1470588235294118
 40
0.1470588235294118
 40
0.161764705882353
 40
0.161764705882353
 40
0.161764705882353
 40
0.161764705882353
 40
0.1764705882352941
 40
0.1764705882352941
 40
0.1764705882352941
 40
0.1764705882352941
 40
0.1911764705882353
 40
0.1911764705882353
 40
0.1911764705882353
 40
0.1911764705882353
 40
0.2058823529411765
 40
0.2058823529411765
 40
0.2058823529411765
 40
0.2058823529411765
 40
0.2205882352941177
 40
0.2205882352941177
 40
0.2205882352941177
 40
0.2205882352941177
 40
0.2352941176470589
 40
0.2352941176470589
 40
0.2352941176470589
 40
0.2352941176470589
 40
0.25
 40
0.25
 40
0.25
 40
0.25
 40
0.2647058823529412
 40
0.2647058823529412
 40
0.2647058823529412
 40
0.2647058823529412
 40
0.2794117647058824
 40
0.2794117647058824
 40
0.2794117647058824
 40
0.2794117647058824
 40
0.2941176470588235
 40
0.2941176470588235
 40
0.2941176470588235
 40
0.2941176470588235
 40
0.3088235294117647
 40
0.3088235294117647
 40
0.3088235294117647
 40
0.3088235294117647
 40
0.3235294117647059
 40
0.3235294117647059
 40
0.3235294117647059
 40
0.3235294117647059
 40
0.3382352941176471
 40
0.3382352941176471
 40
0.3382352941176471
 40
0.3382352941176471
 40
0.3529411764705883
 40
0.3529411764705883
 40
0.3529411764705883
 40
0.3529411764705883
 40
0.3676470588235294
 40
0.3676470588235294
 40
0.3676470588235294
 40
0.3676470588235294
 40
0.3823529411764706
 40
0.3823529411764706
 40
0.3823529411764706
 40
0.3823529411764706
 40
0.3970588235294118
 40
0.3970588235294118
 40
0.3970588235294118
 40
0.3970588235294118
 40
0.411764705882353
 40
0.411764705882353
 40
0.411764705882353
 40
0.411764705882353
 40
0.4264705882352942
 40
0.4264705882352942
 40
0.4264705882352942
 40
0.4264705882352942
 40
0.4411764705882353
 40
0.4411764705882353
 40
0.4411764705882353
 40
0.4411764705882353
 40
0.4558823529411765
 40
0.4558823529411765
 40
0.4558823529411765
 40
0.4558823529411765
 40
0.4705882352941177
 40
0.4705882352941177
 40
0.4705882352941177
 40
0.4705882352941177
 40
0.4852941176470589
 40
0.4852941176470589
 40
0.4852941176470589
 40
0.4852941176470589
 40
0.5
 40
0.5
 40
0.5
 40
0.5
 40
0.5147058823529411
 40
0.5147058823529411
 40
0.5147058823529411
 40
0.5147058823529411
 40
0.5294117647058823
 40
0.5294117647058823
 40
0.5294117647058823
 40
0.5294117647058823
 40
0.5441176470588234
 40
0.5441176470588234
 40
0.5441176470588234
 40
0.5441176470588234
 40
0.5588235294117645
 40
0.5588235294117645
 40
0.5588235294117645
 40
0.5588235294117645
 40
0.5735294117647056
 40
0.5735294117647056
 40
0.5735294117647056
 40
0.5735294117647056
 40
0.5882352941176468
 40
0.5882352941176468
 40
0.5882352941176468
 40
0.5882352941176468
 40
0.6029411764705879
 40
0.6029411764705879
 40
0.6029411764705879
 40
0.6029411764705879
 40
0.617647058823529
 40
0.617647058823529
 40
0.617647058823529
 40
0.617647058823529
 40
0.6323529411764701
 40
0.6323529411764701
 40
0.6323529411764701
 40
0.6323529411764701
 40
0.6470588235294112
 40
0.6470588235294112
 40
0.6470588235294112
 40
0.6470588235294112
 40
0.6617647058823524
 40
0.6617647058823524
 40
0.6617647058823524
 40
0.6617647058823524
 40
0.6764705882352935
 40
0.6764705882352935
 40
0.6764705882352935
 40
0.6764705882352935
 40
0.6911764705882346
 40
0.6911764705882346
 40
0.6911764705882346
 40
0.6911764705882346
 40
0.7058823529411757
 40
0.7058823529411757
 40
0.7058823529411757
 40
0.7058823529411757
 40
0.7205882352941169
 40
0.7205882352941169
 40
0.7205882352941169
 40
0.7205882352941169
 40
0.735294117647058
 40
0.735294117647058
 40
0.735294117647058
 40
0.735294117647058
 40
0.7499999999999991
 40
0.7499999999999991
 40
0.7499999999999991
 40
0.7499999999999991
 40
0.7647058823529402
 40
0.7647058823529402
 40
0.7647058823529402
 40
0.7647058823529402
 40
0.7794117647058814
 40
0.7794117647058814
 40
0.7794117647058814
 40
0.7794117647058814
 40
0.7941176470588225
 40
0.7941176470588225
 40
0.7941176470588225
 40
0.7941176470588225
 40
0.8088235294117636
 40
0.8088235294117636
 40
0.8088235294117636
 40
0.8088235294117636
 40
0.8235294117647047
 40
0.8235294117647047
 40
0.8235294117647047
 40
0.8235294117647047
 40
0.8382352941176459
 40
0.8382352941176459
 40
0.8382352941176459
 40
0.8382352941176459
 40
0.852941176470587
 40
0.852941176470587
 40
0.852941176470587
 40
0.852941176470587
 40
0.8676470588235281
 40
0.8676470588235281
 40
0.8676470588235281
 40
0.8676470588235281
 40
0.8823529411764692
 40
0.8823529411764692
 40
0.8823529411764692
 40
0.8823529411764692
 40
0.8970588235294104
 40
0.8970588235294104
 40
0.8970588235294104
 40
0.8970588235294104
 40
0.9117647058823515
 40
0.9117647058823515
 40
0.9117647058823515
 40
0.9117647058823515
 40
0.9264705882352926
 40
0.9264705882352926
 40
0.9264705882352926
 40
0.9264705882352926
 40
0.9411764705882337
 40
0.9411764705882337
 40
0.9411764705882337
 40
0.9411764705882337
 40
0.9558823529411749
 40
0.9558823529411749
 40
0.9558823529411749
 40
0.9558823529411749
 40
0.970588235294116
 40
0.970588235294116
 40
0.970588235294116
 40
0.970588235294116
 40
0.9852941176470571
 40
0.9852941176470571
 40
0.9852941176470571
 40
0.9852941176470571
 40
1.0
 40
1.0
 40
1.0
 40
1.0
 10
-0.2612992125984252
 20
-0.6801535433070867
 30
0.0
 10
-0.2612992125984252
 20
-0.6801535433070867
 30
0.0
 10
0.4833188976377953
 20
-0.6915354330708662
 30
0.0
 10
0.4833188976377953
 20
-0.6915354330708662
 30
0.0
 10
0.4833188976377953
 20
-0.6915354330708662
 30
0.0
 10
0.4833188976377953
 20
-0.6915354330708662
 30
0.0
 10
0.6148464566929134
 20
-0.5690787401574804
 30
0.0
 10
0.6148464566929134
 20
-0.5690787401574804
 30
0.0
 10
0.6148464566929134
 20
-0.5690787401574804
 30
0.0
 10
0.6148464566929134
 20
-0.5690787401574804
 30
0.0
 10
0.6043661417322835
 20
-0.5306417322834646
 30
0.0
 10
0.6043661417322835
 20
-0.5306417322834646
 30
0.0
 10
0.6043661417322835
 20
-0.5306417322834646
 30
0.0
 10
0.6043661417322835
 20
-0.5306417322834646
 30
0.0
 10
0.5958543307086615
 20
-0.492751968503937
 30
0.0
 10
0.5958543307086615
 20
-0.492751968503937
 30
0.0
 10
0.5958543307086615
 20
-0.492751968503937
 30
0.0
 10
0.5958543307086615
 20
-0.492751968503937
 30
0.0
 10
0.589251968503937
 20
-0.4554488188976378
 30
0.0
 10
0.589251968503937
 20
-0.4554488188976378
 30
0.0
 10
0.589251968503937
 20
-0.4554488188976378
 30
0.0
 10
0.589251968503937
 20
-0.4554488188976378
 30
0.0
 10
0.5845
 20
-0.4187716535433071
 30
0.0
 10
0.5845
 20
-0.4187716535433071
 30
0.0
 10
0.5845
 20
-0.4187716535433071
 30
0.0
 10
0.5845
 20
-0.4187716535433071
 30
0.0
 10
0.5815551181102362
 20
-0.382751968503937
 30
0.0
 10
0.5815551181102362
 20
-0.382751968503937
 30
0.0
 10
0.5815551181102362
 20
-0.382751968503937
 30
0.0
 10
0.5815551181102362
 20
-0.382751968503937
 30
0.0
 10
0.5803503937007875
 20
-0.3474409448818898
 30
0.0
 10
0.5803503937007875
 20
-0.3474409448818898
 30
0.0
 10
0.5803503937007875
 20
-0.3474409448818898
 30
0.0
 10
0.5803503937007875
 20
-0.3474409448818898
 30
0.0
 10
0.5808385826771654
 20
-0.3128740157480315
 30
0.0
 10
0.5808385826771654
 20
-0.3128740157480315
 30
0.0
 10
0.5808385826771654
 20
-0.3128740157480315
 30
0.0
 10
0.5808385826771654
 20
-0.3128740157480315
 30
0.0
 10
0.5829566929133858
 20
-0.2790944881889764
 30
0.0
 10
0.5829566929133858
 20
-0.2790944881889764
 30
0.0
 10
0.5829566929133858
 20
-0.2790944881889764
 30
0.0
 10
0.5829566929133858
 20
-0.2790944881889764
 30
0.0
 10
0.5866653543307087
 20
-0.2461299212598425
 30
0.0
 10
0.5866653543307087
 20
-0.2461299212598425
 30
0.0
 10
0.5866653543307087
 20
-0.2461299212598425
 30
0.0
 10
0.5866653543307087
 20
-0.2461299212598425
 30
0.0
 10
0.5918937007874016
 20
-0.2140354330708661
 30
0.0
 10
0.5918937007874016
 20
-0.2140354330708661
 30
0.0
 10
0.5918937007874016
 20
-0.2140354330708661
 30
0.0
 10
0.5918937007874016
 20
-0.2140354330708661
 30
0.0
 10
0.5985944881889764
 20
-0.1828425196850394
 30
0.0
 10
0.5985944881889764
 20
-0.1828425196850394
 30
0.0
 10
0.5985944881889764
 20
-0.1828425196850394
 30
0.0
 10
0.5985944881889764
 20
-0.1828425196850394
 30
0.0
 10
0.6067125984251969
 20
-0.1525984251968504
 30
0.0
 10
0.6067125984251969
 20
-0.1525984251968504
 30
0.0
 10
0.6067125984251969
 20
-0.1525984251968504
 30
0.0
 10
0.6067125984251969
 20
-0.1525984251968504
 30
0.0
 10
0.6161929133858268
 20
-0.1233307086614173
 30
0.0
 10
0.6161929133858268
 20
-0.1233307086614173
 30
0.0
 10
0.6161929133858268
 20
-0.1233307086614173
 30
0.0
 10
0.6161929133858268
 20
-0.1233307086614173
 30
0.0
 10
0.6269803149606299
 20
-0.0950866141732283
 30
0.0
 10
0.6269803149606299
 20
-0.0950866141732283
 30
0.0
 10
0.6269803149606299
 20
-0.0950866141732283
 30
0.0
 10
0.6269803149606299
 20
-0.0950866141732283
 30
0.0
 10
0.6390196850393701
 20
-0.0679055118110236
 30
0.0
 10
0.6390196850393701
 20
-0.0679055118110236
 30
0.0
 10
0.6390196850393701
 20
-0.0679055118110236
 30
0.0
 10
0.6390196850393701
 20
-0.0679055118110236
 30
0.0
 10
0.6522637795275591
 20
-0.0418385826771654
 30
0.0
 10
0.6522637795275591
 20
-0.0418385826771654
 30
0.0
 10
0.6522637795275591
 20
-0.0418385826771654
 30
0.0
 10
0.6522637795275591
 20
-0.0418385826771654
 30
0.0
 10
0.6666417322834646
 20
-0.0169055118110236
 30
0.0
 10
0.6666417322834646
 20
-0.0169055118110236
 30
0.0
 10
0.6666417322834646
 20
-0.0169055118110236
 30
0.0
 10
0.6666417322834646
 20
-0.0169055118110236
 30
0.0
 10
0.6821102362204725
 20
0.0068425196850394
 30
0.0
 10
0.6821102362204725
 20
0.0068425196850394
 30
0.0
 10
0.6821102362204725
 20
0.0068425196850394
 30
0.0
 10
0.6821102362204725
 20
0.0068425196850394
 30
0.0
 10
0.6986102362204725
 20
0.0293661417322835
 30
0.0
 10
0.6986102362204725
 20
0.0293661417322835
 30
0.0
 10
0.6986102362204725
 20
0.0293661417322835
 30
0.0
 10
0.6986102362204725
 20
0.0293661417322835
 30
0.0
 10
0.7160944881889764
 20
0.0506377952755906
 30
0.0
 10
0.7160944881889764
 20
0.0506377952755906
 30
0.0
 10
0.7160944881889764
 20
0.0506377952755906
 30
0.0
 10
0.7160944881889764
 20
0.0506377952755906
 30
0.0
 10
0.734496062992126
 20
0.0705984251968504
 30
0.0
 10
0.734496062992126
 20
0.0705984251968504
 30
0.0
 10
0.734496062992126
 20
0.0705984251968504
 30
0.0
 10
0.734496062992126
 20
0.0705984251968504
 30
0.0
 10
0.7537716535433071
 20
0.0892204724409449
 30
0.0
 10
0.7537716535433071
 20
0.0892204724409449
 30
0.0
 10
0.7537716535433071
 20
0.0892204724409449
 30
0.0
 10
0.7537716535433071
 20
0.0892204724409449
 30
0.0
 10
0.7738543307086615
 20
0.1064606299212599
 30
0.0
 10
0.7738543307086615
 20
0.1064606299212599
 30
0.0
 10
0.7738543307086615
 20
0.1064606299212599
 30
0.0
 10
0.7738543307086615
 20
0.1064606299212599
 30
0.0
 10
0.7947047244094488
 20
0.1222834645669291
 30
0.0
 10
0.7947047244094488
 20
0.1222834645669291
 30
0.0
 10
0.7947047244094488
 20
0.1222834645669291
 30
0.0
 10
0.7947047244094488
 20
0.1222834645669291
 30
0.0
 10
0.816251968503937
 20
0.1366377952755906
 30
0.0
 10
0.816251968503937
 20
0.1366377952755906
 30
0.0
 10
0.816251968503937
 20
0.1366377952755906
 30
0.0
 10
0.816251968503937
 20
0.1366377952755906
 30
0.0
 10
0.8384488188976378
 20
0.149492125984252
 30
0.0
 10
0.8384488188976378
 20
0.149492125984252
 30
0.0
 10
0.8384488188976378
 20
0.149492125984252
 30
0.0
 10
0.8384488188976378
 20
0.149492125984252
 30
0.0
 10
0.861240157480315
 20
0.1608070866141732
 30
0.0
 10
0.861240157480315
 20
0.1608070866141732
 30
0.0
 10
0.861240157480315
 20
0.1608070866141732
 30
0.0
 10
0.861240157480315
 20
0.1608070866141732
 30
0.0
 10
0.8845787401574804
 20
0.1705433070866142
 30
0.0
 10
0.8845787401574804
 20
0.1705433070866142
 30
0.0
 10
0.8845787401574804
 20
0.1705433070866142
 30
0.0
 10
0.8845787401574804
 20
0.1705433070866142
 30
0.0
 10
0.9083937007874016
 20
0.1786496062992126
 30
0.0
 10
0.9083937007874016
 20
0.1786496062992126
 30
0.0
 10
0.9083937007874016
 20
0.1786496062992126
 30
0.0
 10
0.9083937007874016
 20
0.1786496062992126
 30
0.0
 10
0.9326456692913386
 20
0.1851023622047244
 30
0.0
 10
0.9326456692913386
 20
0.1851023622047244
 30
0.0
 10
0.9326456692913386
 20
0.1851023622047244
 30
0.0
 10
0.9326456692913386
 20
0.1851023622047244
 30
0.0
 10
0.9572677165354331
 20
0.1898543307086614
 30
0.0
 10
0.9572677165354331
 20
0.1898543307086614
 30
0.0
 10
0.9572677165354331
 20
0.1898543307086614
 30
0.0
 10
0.9572677165354331
 20
0.1898543307086614
 30
0.0
 10
0.9822165354330709
 20
0.1928700787401575
 30
0.0
 10
0.9822165354330709
 20
0.1928700787401575
 30
0.0
 10
0.9822165354330709
 20
0.1928700787401575
 30
0.0
 10
0.9822165354330709
 20
0.1928700787401575
 30
0.0
 10
0.2375984251968504
 20
0.204251968503937
 30
0.0
 10
0.2375984251968504
 20
0.204251968503937
 30
0.0
 10
0.2375984251968504
 20
0.204251968503937
 30
0.0
 10
0.2375984251968504
 20
0.204251968503937
 30
0.0
 10
0.2126496062992126
 20
0.2012362204724409
 30
0.0
 10
0.2126496062992126
 20
0.2012362204724409
 30
0.0
 10
0.2126496062992126
 20
0.2012362204724409
 30
0.0
 10
0.2126496062992126
 20
0.2012362204724409
 30
0.0
 10
0.1880275590551181
 20
0.1964842519685039
 30
0.0
 10
0.1880275590551181
 20
0.1964842519685039
 30
0.0
 10
0.1880275590551181
 20
0.1964842519685039
 30
0.0
 10
0.1880275590551181
 20
0.1964842519685039
 30
0.0
 10
0.1637755905511811
 20
0.1900314960629921
 30
0.0
 10
0.1637755905511811
 20
0.1900314960629921
 30
0.0
 10
0.1637755905511811
 20
0.1900314960629921
 30
0.0
 10
0.1637755905511811
 20
0.1900314960629921
 30
0.0
 10
0.1399606299212599
 20
0.1819251968503937
 30
0.0
 10
0.1399606299212599
 20
0.1819251968503937
 30
0.0
 10
0.1399606299212599
 20
0.1819251968503937
 30
0.0
 10
0.1399606299212599
 20
0.1819251968503937
 30
0.0
 10
0.1166220472440945
 20
0.1721889763779528
 30
0.0
 10
0.1166220472440945
 20
0.1721889763779528
 30
0.0
 10
0.1166220472440945
 20
0.1721889763779528
 30
0.0
 10
0.1166220472440945
 20
0.1721889763779528
 30
0.0
 10
0.0938307086614173
 20
0.1608740157480315
 30
0.0
 10
0.0938307086614173
 20
0.1608740157480315
 30
0.0
 10
0.0938307086614173
 20
0.1608740157480315
 30
0.0
 10
0.0938307086614173
 20
0.1608740157480315
 30
0.0
 10
0.0716338582677165
 20
0.1480196850393701
 30
0.0
 10
0.0716338582677165
 20
0.1480196850393701
 30
0.0
 10
0.0716338582677165
 20
0.1480196850393701
 30
0.0
 10
0.0716338582677165
 20
0.1480196850393701
 30
0.0
 10
0.0500866141732284
 20
0.1336653543307087
 30
0.0
 10
0.0500866141732284
 20
0.1336653543307087
 30
0.0
 10
0.0500866141732284
 20
0.1336653543307087
 30
0.0
 10
0.0500866141732284
 20
0.1336653543307087
 30
0.0
 10
0.0292362204724409
 20
0.1178425196850394
 30
0.0
 10
0.0292362204724409
 20
0.1178425196850394
 30
0.0
 10
0.0292362204724409
 20
0.1178425196850394
 30
0.0
 10
0.0292362204724409
 20
0.1178425196850394
 30
0.0
 10
0.0091535433070866
 20
0.1006023622047244
 30
0.0
 10
0.0091535433070866
 20
0.1006023622047244
 30
0.0
 10
0.0091535433070866
 20
0.1006023622047244
 30
0.0
 10
0.0091535433070866
 20
0.1006023622047244
 30
0.0
 10
-0.0101220472440945
 20
0.0819803149606299
 30
0.0
 10
-0.0101220472440945
 20
0.0819803149606299
 30
0.0
 10
-0.0101220472440945
 20
0.0819803149606299
 30
0.0
 10
-0.0101220472440945
 20
0.0819803149606299
 30
0.0
 10
-0.0285236220472441
 20
0.0620196850393701
 30
0.0
 10
-0.0285236220472441
 20
0.0620196850393701
 30
0.0
 10
-0.0285236220472441
 20
0.0620196850393701
 30
0.0
 10
-0.0285236220472441
 20
0.0620196850393701
 30
0.0
 10
-0.046007874015748
 20
0.040748031496063
 30
0.0
 10
-0.046007874015748
 20
0.040748031496063
 30
0.0
 10
-0.046007874015748
 20
0.040748031496063
 30
0.0
 10
-0.046007874015748
 20
0.040748031496063
 30
0.0
 10
-0.062507874015748
 20
0.0182244094488189
 30
0.0
 10
-0.062507874015748
 20
0.0182244094488189
 30
0.0
 10
-0.062507874015748
 20
0.0182244094488189
 30
0.0
 10
-0.062507874015748
 20
0.0182244094488189
 30
0.0
 10
-0.0779763779527559
 20
-0.0055236220472441
 30
0.0
 10
-0.0779763779527559
 20
-0.0055236220472441
 30
0.0
 10
-0.0779763779527559
 20
-0.0055236220472441
 30
0.0
 10
-0.0779763779527559
 20
-0.0055236220472441
 30
0.0
 10
-0.0923543307086614
 20
-0.0304566929133858
 30
0.0
 10
-0.0923543307086614
 20
-0.0304566929133858
 30
0.0
 10
-0.0923543307086614
 20
-0.0304566929133858
 30
0.0
 10
-0.0923543307086614
 20
-0.0304566929133858
 30
0.0
 10
-0.1055984251968504
 20
-0.0565236220472441
 30
0.0
 10
-0.1055984251968504
 20
-0.0565236220472441
 30
0.0
 10
-0.1055984251968504
 20
-0.0565236220472441
 30
0.0
 10
-0.1055984251968504
 20
-0.0565236220472441
 30
0.0
 10
-0.1176377952755906
 20
-0.0837047244094488
 30
0.0
 10
-0.1176377952755906
 20
-0.0837047244094488
 30
0.0
 10
-0.1176377952755906
 20
-0.0837047244094488
 30
0.0
 10
-0.1176377952755906
 20
-0.0837047244094488
 30
0.0
 10
-0.1284251968503937
 20
-0.1119488188976378
 30
0.0
 10
-0.1284251968503937
 20
-0.1119488188976378
 30
0.0
 10
-0.1284251968503937
 20
-0.1119488188976378
 30
0.0
 10
-0.1284251968503937
 20
-0.1119488188976378
 30
0.0
 10
-0.1379055118110236
 20
-0.1412165354330709
 30
0.0
 10
-0.1379055118110236
 20
-0.1412165354330709
 30
0.0
 10
-0.1379055118110236
 20
-0.1412165354330709
 30
0.0
 10
-0.1379055118110236
 20
-0.1412165354330709
 30
0.0
 10
-0.1460236220472441
 20
-0.1714606299212599
 30
0.0
 10
-0.1460236220472441
 20
-0.1714606299212599
 30
0.0
 10
-0.1460236220472441
 20
-0.1714606299212599
 30
0.0
 10
-0.1460236220472441
 20
-0.1714606299212599
 30
0.0
 10
-0.1527244094488189
 20
-0.2026535433070866
 30
0.0
 10
-0.1527244094488189
 20
-0.2026535433070866
 30
0.0
 10
-0.1527244094488189
 20
-0.2026535433070866
 30
0.0
 10
-0.1527244094488189
 20
-0.2026535433070866
 30
0.0
 10
-0.1579527559055118
 20
-0.234748031496063
 30
0.0
 10
-0.1579527559055118
 20
-0.234748031496063
 30
0.0
 10
-0.1579527559055118
 20
-0.234748031496063
 30
0.0
 10
-0.1579527559055118
 20
-0.234748031496063
 30
0.0
 10
-0.1616614173228347
 20
-0.2677125984251969
 30
0.0
 10
-0.1616614173228347
 20
-0.2677125984251969
 30
0.0
 10
-0.1616614173228347
 20
-0.2677125984251969
 30
0.0
 10
-0.1616614173228347
 20
-0.2677125984251969
 30
0.0
 10
-0.1637795275590551
 20
-0.301492125984252
 30
0.0
 10
-0.1637795275590551
 20
-0.301492125984252
 30
0.0
 10
-0.1637795275590551
 20
-0.301492125984252
 30
0.0
 10
-0.1637795275590551
 20
-0.301492125984252
 30
0.0
 10
-0.1642677165354331
 20
-0.3360590551181102
 30
0.0
 10
-0.1642677165354331
 20
-0.3360590551181102
 30
0.0
 10
-0.1642677165354331
 20
-0.3360590551181102
 30
0.0
 10
-0.1642677165354331
 20
-0.3360590551181102
 30
0.0
 10
-0.1630629921259843
 20
-0.3713700787401575
 30
0.0
 10
-0.1630629921259843
 20
-0.3713700787401575
 30
0.0
 10
-0.1630629921259843
 20
-0.3713700787401575
 30
0.0
 10
-0.1630629921259843
 20
-0.3713700787401575
 30
0.0
 10
-0.1601181102362205
 20
-0.4073897637795276
 30
0.0
 10
-0.1601181102362205
 20
-0.4073897637795276
 30
0.0
 10
-0.1601181102362205
 20
-0.4073897637795276
 30
0.0
 10
-0.1601181102362205
 20
-0.4073897637795276
 30
0.0
 10
-0.1553661417322835
 20
-0.4440669291338583
 30
0.0
 10
-0.1553661417322835
 20
-0.4440669291338583
 30
0.0
 10
-0.1553661417322835
 20
-0.4440669291338583
 30
0.0
 10
-0.1553661417322835
 20
-0.4440669291338583
 30
0.0
 10
-0.1487637795275591
 20
-0.4813700787401575
 30
0.0
 10
-0.1487637795275591
 20
-0.4813700787401575
 30
0.0
 10
-0.1487637795275591
 20
-0.4813700787401575
 30
0.0
 10
-0.1487637795275591
 20
-0.4813700787401575
 30
0.0
 10
-0.140251968503937
 20
-0.519259842519685
 30
0.0
 10
-0.140251968503937
 20
-0.519259842519685
 30
0.0
 10
-0.140251968503937
 20
-0.519259842519685
 30
0.0
 10
-0.140251968503937
 20
-0.519259842519685
 30
0.0
 10
-0.1297716535433071
 20
-0.5576968503937008
 30
0.0
 10
-0.1297716535433071
 20
-0.5576968503937008
 30
0.0
 10
-0.1297716535433071
 20
-0.5576968503937008
 30
0.0
 10
-0.1297716535433071
 20
-0.5576968503937008
 30
0.0
 10
-0.2612992125984252
 20
-0.6801535433070867
 30
0.0
 10
-0.2612992125984252
 20
-0.6801535433070867
 30
0.0
  0
SPLINE
  5
6D
100
AcDbEntity
  8
Layer 1
 62
     9
100
AcDbSpline
210
0.0
220
0.0
230
1.0
 70
     1
 71
     3
 72
    20
 73
    16
 74
     0
 42
0.0000000001
 43
0.0000000001
 40
0.0
 40
0.0
 40
0.0
 40
0.0
 40
0.25
 40
0.25
 40
0.25
 40
0.25
 40
0.5
 40
0.5
 40
0.5
 40
0.5
 40
0.75
 40
0.75
 40
0.75
 40
0.75
 40
1.0
 40
1.0
 40
1.0
 40
1.0
 10
0.2375984251968504
 20
0.204251968503937
 30
0.0
 10
0.2375984251968504
 20
0.204251968503937
 30
0.0
 10
0.9822165354330709
 20
0.1928700787401575
 30
0.0
 10
0.9822165354330709
 20
0.1928700787401575
 30
0.0
 10
0.9822165354330709
 20
0.1928700787401575
 30
0.0
 10
0.9822165354330709
 20
0.1928700787401575
 30
0.0
 10
0.9822165354330709
 20
1.0636771653543307
 30
0.0
 10
0.9822165354330709
 20
1.0636771653543307
 30
0.0
 10
0.9822165354330709
 20
1.0636771653543307
 30
0.0
 10
0.9822165354330709
 20
1.0636771653543307
 30
0.0
 10
0.2375984251968504
 20
1.0750590551181103
 30
0.0
 10
0.2375984251968504
 20
1.0750590551181103
 30
0.0
 10
0.2375984251968504
 20
1.0750590551181103
 30
0.0
 10
0.2375984251968504
 20
1.0750590551181103
 30
0.0
 10
0.2375984251968504
 20
0.204251968503937
 30
0.0
 10
0.2375984251968504
 20
0.204251968503937
 30
0.0
  0
SPLINE
  5
6E
100
AcDbEntity
  8
Layer 1
370
     5
100
AcDbSpline
210
0.0
220
0.0
230
1.0
 70
     1
 71
     3
 72
    20
 73
    16
 74
     0
 42
0.0000000001
 43
0.0000000001
 40
0.0
 40
0.0
 40
0.0
 40
0.0
 40
0.25
 40
0.25
 40
0.25
 40
0.25
 40
0.5
 40
0.5
 40
0.5
 40
0.5
 40
0.75
 40
0.75
 40
0.75
 40
0.75
 40
1.0
 40
1.0
 40
1.0
 40
1.0
 10
0.2375984251968504
 20
0.204251968503937
 30
0.0
 10
0.2375984251968504
 20
0.204251968503937
 30
0.0
 10
0.9822165354330709
 20
0.1928700787401575
 30
0.0
 10
0.9822165354330709
 20
0.1928700787401575
 30
0.0
 10
0.9822165354330709
 20
0.1928700787401575
 30
0.0
 10
0.9822165354330709
 20
0.1928700787401575
 30
0.0
 10
0.9822165354330709
 20
1.0636771653543307
 30
0.0
 10
0.9822165354330709
 20
1.0636771653543307
 30
0.0
 10
0.9822165354330709
 20
1.0636771653543307
 30
0.0
 10
0.9822165354330709
 20
1.0636771653543307
 30
0.0
 10
0.2375984251968504
 20
1.0750590551181103
 30
0.0
 10
0.2375984251968504
 20
1.0750590551181103
 30
0.0
 10
0.2375984251968504
 20
1.0750590551181103
 30
0.0
 10
0.2375984251968504
 20
1.0750590551181103
 30
0.0
 10
0.2375984251968504
 20
0.204251968503937
 30
0.0
 10
0.2375984251968504
 20
0.204251968503937
 30
0.0
  0
SPLINE
  5
6F
100
AcDbEntity
  8
Layer 1
 62
   253
100
AcDbSpline
210
0.0
220
0.0
230
1.0
 70
     1
 71
     3
 72
    20
 73
    16
 74
     0
 42
0.0000000001
 43
0.0000000001
 40
0.0
 40
0.0
 40
0.0
 40
0.0
 40
0.25
 40
0.25
 40
0.25
 40
0.25
 40
0.5
 40
0.5
 40
0.5
 40
0.5
 40
0.75
 40
0.75
 40
0.75
 40
0.75
 40
1.0
 40
1.0
 40
1.0
 40
1.0
 10
-0.6146811023622048
 20
-1.4681338582677166
 30
0.0
 10
-0.6146811023622048
 20
-1.4681338582677166
 30
0.0
 10
0.1299370078740157
 20
-1.4795157480314962
 30
0.0
 10
0.1299370078740157
 20
-1.4795157480314962
 30
0.0
 10
0.1299370078740157
 20
-1.4795157480314962
 30
0.0
 10
0.1299370078740157
 20
-1.4795157480314962
 30
0.0
 10
0.1735905511811024
 20
-1.4752244094488189
 30
0.0
 10
0.1735905511811024
 20
-1.4752244094488189
 30
0.0
 10
0.1735905511811024
 20
-1.4752244094488189
 30
0.0
 10
0.1735905511811024
 20
-1.4752244094488189
 30
0.0
 10
-0.5710275590551182
 20
-1.4638425196850395
 30
0.0
 10
-0.5710275590551182
 20
-1.4638425196850395
 30
0.0
 10
-0.5710275590551182
 20
-1.4638425196850395
 30
0.0
 10
-0.5710275590551182
 20
-1.4638425196850395
 30
0.0
 10
-0.6146811023622048
 20
-1.4681338582677166
 30
0.0
 10
-0.6146811023622048
 20
-1.4681338582677166
 30
0.0
  0
SPLINE
  5
70
100
AcDbEntity
  8
Layer 1
 62
   253
100
AcDbSpline
210
0.0
220
0.0
230
1.0
 70
     1
 71
     3
 72
    20
 73
    16
 74
     0
 42
0.0000000001
 43
0.0000000001
 40
0.0
 40
0.0
 40
0.0
 40
0.0
 40
0.25
 40
0.25
 40
0.25
 40
0.25
 40
0.5
 40
0.5
 40
0.5
 40
0.5
 40
0.75
 40
0.75
 40
0.75
 40
0.75
 40
1.0
 40
1.0
 40
1.0
 40
1.0
 10
-0.5710275590551182
 20
-1.4638425196850395
 30
0.0
 10
-0.5710275590551182
 20
-1.4638425196850395
 30
0.0
 10
0.1735905511811024
 20
-1.4752244094488189
 30
0.0
 10
0.1735905511811024
 20
-1.4752244094488189
 30
0.0
 10
0.1735905511811024
 20
-1.4752244094488189
 30
0.0
 10
0.1735905511811024
 20
-1.4752244094488189
 30
0.0
 10
0.2151614173228346
 20
-1.4679803149606301
 30
0.0
 10
0.2151614173228346
 20
-1.4679803149606301
 30
0.0
 10
0.2151614173228346
 20
-1.4679803149606301
 30
0.0
 10
0.2151614173228346
 20
-1.4679803149606301
 30
0.0
 10
-0.5294566929133858
 20
-1.4565984251968505
 30
0.0
 10
-0.5294566929133858
 20
-1.4565984251968505
 30
0.0
 10
-0.5294566929133858
 20
-1.4565984251968505
 30
0.0
 10
-0.5294566929133858
 20
-1.4565984251968505
 30
0.0
 10
-0.5710275590551182
 20
-1.4638425196850395
 30
0.0
 10
-0.5710275590551182
 20
-1.4638425196850395
 30
0.0
  0
SPLINE
  5
71
100
AcDbEntity
  8
Layer 1
 62
   253
100
AcDbSpline
210
0.0
220
0.0
230
1.0
 70
     1
 71
     3
 72
    20
 73
    16
 74
     0
 42
0.0000000001
 43
0.0000000001
 40
0.0
 40
0.0
 40
0.0
 40
0.0
 40
0.25
 40
0.25
 40
0.25
 40
0.25
 40
0.5
 40
0.5
 40
0.5
 40
0.5
 40
0.75
 40
0.75
 40
0.75
 40
0.75
 40
1.0
 40
1.0
 40
1.0
 40
1.0
 10
-0.5294566929133858
 20
-1.4565984251968505
 30
0.0
 10
-0.5294566929133858
 20
-1.4565984251968505
 30
0.0
 10
0.2151614173228346
 20
-1.4679803149606301
 30
0.0
 10
0.2151614173228346
 20
-1.4679803149606301
 30
0.0
 10
0.2151614173228346
 20
-1.4679803149606301
 30
0.0
 10
0.2151614173228346
 20
-1.4679803149606301
 30
0.0
 10
0.2546338582677166
 20
-1.4579527559055119
 30
0.0
 10
0.2546338582677166
 20
-1.4579527559055119
 30
0.0
 10
0.2546338582677166
 20
-1.4579527559055119
 30
0.0
 10
0.2546338582677166
 20
-1.4579527559055119
 30
0.0
 10
-0.489984251968504
 20
-1.4465708661417322
 30
0.0
 10
-0.489984251968504
 20
-1.4465708661417322
 30
0.0
 10
-0.489984251968504
 20
-1.4465708661417322
 30
0.0
 10
-0.489984251968504
 20
-1.4465708661417322
 30
0.0
 10
-0.5294566929133858
 20
-1.4565984251968505
 30
0.0
 10
-0.5294566929133858
 20
-1.4565984251968505
 30
0.0
  0
SPLINE
  5
72
100
AcDbEntity
  8
Layer 1
 62
     9
100
AcDbSpline
210
0.0
220
0.0
230
1.0
 70
     1
 71
     3
 72
    20
 73
    16
 74
     0
 42
0.0000000001
 43
0.0000000001
 40
0.0
 40
0.0
 40
0.0
 40
0.0
 40
0.25
 40
0.25
 40
0.25
 40
0.25
 40
0.5
 40
0.5
 40
0.5
 40
0.5
 40
0.75
 40
0.75
 40
0.75
 40
0.75
 40
1.0
 40
1.0
 40
1.0
 40
1.0
 10
-0.489984251968504
 20
-1.4465708661417322
 30
0.0
 10
-0.489984251968504
 20
-1.4465708661417322
 30
0.0
 10
0.2546338582677166
 20
-1.4579527559055119
 30
0.0
 10
0.2546338582677166
 20
-1.4579527559055119
 30
0.0
 10
0.2546338582677166
 20
-1.4579527559055119
 30
0.0
 10
0.2546338582677166
 20
-1.4579527559055119
 30
0.0
 10
0.2920157480314961
 20
-1.4452874015748032
 30
0.0
 10
0.2920157480314961
 20
-1.4452874015748032
 30
0.0
 10
0.2920157480314961
 20
-1.4452874015748032
 30
0.0
 10
0.2920157480314961
 20
-1.4452874015748032
 30
0.0
 10
-0.4526023622047244
 20
-1.4339055118110238
 30
0.0
 10
-0.4526023622047244
 20
-1.4339055118110238
 30
0.0
 10
-0.4526023622047244
 20
-1.4339055118110238
 30
0.0
 10
-0.4526023622047244
 20
-1.4339055118110238
 30
0.0
 10
-0.489984251968504
 20
-1.4465708661417322
 30
0.0
 10
-0.489984251968504
 20
-1.4465708661417322
 30
0.0
  0
SPLINE
  5
73
100
AcDbEntity
  8
Layer 1
 62
     9
100
AcDbSpline
210
0.0
220
0.0
230
1.0
 70
     1
 71
     3
 72
    20
 73
    16
 74
     0
 42
0.0000000001
 43
0.0000000001
 40
0.0
 40
0.0
 40
0.0
 40
0.0
 40
0.25
 40
0.25
 40
0.25
 40
0.25
 40
0.5
 40
0.5
 40
0.5
 40
0.5
 40
0.75
 40
0.75
 40
0.75
 40
0.75
 40
1.0
 40
1.0
 40
1.0
 40
1.0
 10
-0.4526023622047244
 20
-1.4339055118110238
 30
0.0
 10
-0.4526023622047244
 20
-1.4339055118110238
 30
0.0
 10
0.2920157480314961
 20
-1.4452874015748032
 30
0.0
 10
0.2920157480314961
 20
-1.4452874015748032
 30
0.0
 10
0.2920157480314961
 20
-1.4452874015748032
 30
0.0
 10
0.2920157480314961
 20
-1.4452874015748032
 30
0.0
 10
0.3272834645669291
 20
-1.4301535433070867
 30
0.0
 10
0.3272834645669291
 20
-1.4301535433070867
 30
0.0
 10
0.3272834645669291
 20
-1.4301535433070867
 30
0.0
 10
0.3272834645669291
 20
-1.4301535433070867
 30
0.0
 10
-0.4173346456692914
 20
-1.418771653543307
 30
0.0
 10
-0.4173346456692914
 20
-1.418771653543307
 30
0.0
 10
-0.4173346456692914
 20
-1.418771653543307
 30
0.0
 10
-0.4173346456692914
 20
-1.418771653543307
 30
0.0
 10
-0.4526023622047244
 20
-1.4339055118110238
 30
0.0
 10
-0.4526023622047244
 20
-1.4339055118110238
 30
0.0
  0
SPLINE
  5
74
100
AcDbEntity
  8
Layer 1
 62
     9
100
AcDbSpline
210
0.0
220
0.0
230
1.0
 70
     1
 71
     3
 72
    20
 73
    16
 74
     0
 42
0.0000000001
 43
0.0000000001
 40
0.0
 40
0.0
 40
0.0
 40
0.0
 40
0.25
 40
0.25
 40
0.25
 40
0.25
 40
0.5
 40
0.5
 40
0.5
 40
0.5
 40
0.75
 40
0.75
 40
0.75
 40
0.75
 40
1.0
 40
1.0
 40
1.0
 40
1.0
 10
-0.4173346456692914
 20
-1.418771653543307
 30
0.0
 10
-0.4173346456692914
 20
-1.418771653543307
 30
0.0
 10
0.3272834645669291
 20
-1.4301535433070867
 30
0.0
 10
0.3272834645669291
 20
-1.4301535433070867
 30
0.0
 10
0.3272834645669291
 20
-1.4301535433070867
 30
0.0
 10
0.3272834645669291
 20
-1.4301535433070867
 30
0.0
 10
0.3604409448818898
 20
-1.4127047244094488
 30
0.0
 10
0.3604409448818898
 20
-1.4127047244094488
 30
0.0
 10
0.3604409448818898
 20
-1.4127047244094488
 30
0.0
 10
0.3604409448818898
 20
-1.4127047244094488
 30
0.0
 10
-0.3841771653543307
 20
-1.4013228346456694
 30
0.0
 10
-0.3841771653543307
 20
-1.4013228346456694
 30
0.0
 10
-0.3841771653543307
 20
-1.4013228346456694
 30
0.0
 10
-0.3841771653543307
 20
-1.4013228346456694
 30
0.0
 10
-0.4173346456692914
 20
-1.418771653543307
 30
0.0
 10
-0.4173346456692914
 20
-1.418771653543307
 30
0.0
  0
SPLINE
  5
75
100
AcDbEntity
  8
Layer 1
 62
     9
100
AcDbSpline
210
0.0
220
0.0
230
1.0
 70
     1
 71
     3
 72
    20
 73
    16
 74
     0
 42
0.0000000001
 43
0.0000000001
 40
0.0
 40
0.0
 40
0.0
 40
0.0
 40
0.25
 40
0.25
 40
0.25
 40
0.25
 40
0.5
 40
0.5
 40
0.5
 40
0.5
 40
0.75
 40
0.75
 40
0.75
 40
0.75
 40
1.0
 40
1.0
 40
1.0
 40
1.0
 10
-0.3841771653543307
 20
-1.4013228346456694
 30
0.0
 10
-0.3841771653543307
 20
-1.4013228346456694
 30
0.0
 10
0.3604409448818898
 20
-1.4127047244094488
 30
0.0
 10
0.3604409448818898
 20
-1.4127047244094488
 30
0.0
 10
0.3604409448818898
 20
-1.4127047244094488
 30
0.0
 10
0.3604409448818898
 20
-1.4127047244094488
 30
0.0
 10
0.3914763779527559
 20
-1.3931102362204726
 30
0.0
 10
0.3914763779527559
 20
-1.3931102362204726
 30
0.0
 10
0.3914763779527559
 20
-1.3931102362204726
 30
0.0
 10
0.3914763779527559
 20
-1.3931102362204726
 30
0.0
 10
-0.3531417322834646
 20
-1.381728346456693
 30
0.0
 10
-0.3531417322834646
 20
-1.381728346456693
 30
0.0
 10
-0.3531417322834646
 20
-1.381728346456693
 30
0.0
 10
-0.3531417322834646
 20
-1.381728346456693
 30
0.0
 10
-0.3841771653543307
 20
-1.4013228346456694
 30
0.0
 10
-0.3841771653543307
 20
-1.4013228346456694
 30
0.0
  0
SPLINE
  5
76
100
AcDbEntity
  8
Layer 1
 62
     9
100
AcDbSpline
210
0.0
220
0.0
230
1.0
 70
     1
 71
     3
 72
    20
 73
    16
 74
     0
 42
0.0000000001
 43
0.0000000001
 40
0.0
 40
0.0
 40
0.0
 40
0.0
 40
0.25
 40
0.25
 40
0.25
 40
0.25
 40
0.5
 40
0.5
 40
0.5
 40
0.5
 40
0.75
 40
0.75
 40
0.75
 40
0.75
 40
1.0
 40
1.0
 40
1.0
 40
1.0
 10
-0.3531417322834646
 20
-1.381728346456693
 30
0.0
 10
-0.3531417322834646
 20
-1.381728346456693
 30
0.0
 10
0.3914763779527559
 20
-1.3931102362204726
 30
0.0
 10
0.3914763779527559
 20
-1.3931102362204726
 30
0.0
 10
0.3914763779527559
 20
-1.3931102362204726
 30
0.0
 10
0.3914763779527559
 20
-1.3931102362204726
 30
0.0
 10
0.4203897637795276
 20
-1.3715157480314961
 30
0.0
 10
0.4203897637795276
 20
-1.3715157480314961
 30
0.0
 10
0.4203897637795276
 20
-1.3715157480314961
 30
0.0
 10
0.4203897637795276
 20
-1.3715157480314961
 30
0.0
 10
-0.3242283464566929
 20
-1.3601338582677165
 30
0.0
 10
-0.3242283464566929
 20
-1.3601338582677165
 30
0.0
 10
-0.3242283464566929
 20
-1.3601338582677165
 30
0.0
 10
-0.3242283464566929
 20
-1.3601338582677165
 30
0.0
 10
-0.3531417322834646
 20
-1.381728346456693
 30
0.0
 10
-0.3531417322834646
 20
-1.381728346456693
 30
0.0
  0
SPLINE
  5
77
100
AcDbEntity
  8
Layer 1
 62
     9
100
AcDbSpline
210
0.0
220
0.0
230
1.0
 70
     1
 71
     3
 72
    20
 73
    16
 74
     0
 42
0.0000000001
 43
0.0000000001
 40
0.0
 40
0.0
 40
0.0
 40
0.0
 40
0.25
 40
0.25
 40
0.25
 40
0.25
 40
0.5
 40
0.5
 40
0.5
 40
0.5
 40
0.75
 40
0.75
 40
0.75
 40
0.75
 40
1.0
 40
1.0
 40
1.0
 40
1.0
 10
-0.3242283464566929
 20
-1.3601338582677165
 30
0.0
 10
-0.3242283464566929
 20
-1.3601338582677165
 30
0.0
 10
0.4203897637795276
 20
-1.3715157480314961
 30
0.0
 10
0.4203897637795276
 20
-1.3715157480314961
 30
0.0
 10
0.4203897637795276
 20
-1.3715157480314961
 30
0.0
 10
0.4203897637795276
 20
-1.3715157480314961
 30
0.0
 10
0.4471692913385827
 20
-1.3480905511811023
 30
0.0
 10
0.4471692913385827
 20
-1.3480905511811023
 30
0.0
 10
0.4471692913385827
 20
-1.3480905511811023
 30
0.0
 10
0.4471692913385827
 20
-1.3480905511811023
 30
0.0
 10
-0.2974488188976378
 20
-1.3367086614173229
 30
0.0
 10
-0.2974488188976378
 20
-1.3367086614173229
 30
0.0
 10
-0.2974488188976378
 20
-1.3367086614173229
 30
0.0
 10
-0.2974488188976378
 20
-1.3367086614173229
 30
0.0
 10
-0.3242283464566929
 20
-1.3601338582677165
 30
0.0
 10
-0.3242283464566929
 20
-1.3601338582677165
 30
0.0
  0
SPLINE
  5
78
100
AcDbEntity
  8
Layer 1
 62
     9
100
AcDbSpline
210
0.0
220
0.0
230
1.0
 70
     1
 71
     3
 72
    20
 73
    16
 74
     0
 42
0.0000000001
 43
0.0000000001
 40
0.0
 40
0.0
 40
0.0
 40
0.0
 40
0.25
 40
0.25
 40
0.25
 40
0.25
 40
0.5
 40
0.5
 40
0.5
 40
0.5
 40
0.75
 40
0.75
 40
0.75
 40
0.75
 40
1.0
 40
1.0
 40
1.0
 40
1.0
 10
-0.2974488188976378
 20
-1.3367086614173229
 30
0.0
 10
-0.2974488188976378
 20
-1.3367086614173229
 30
0.0
 10
0.4471692913385827
 20
-1.3480905511811023
 30
0.0
 10
0.4471692913385827
 20
-1.3480905511811023
 30
0.0
 10
0.4471692913385827
 20
-1.3480905511811023
 30
0.0
 10
0.4471692913385827
 20
-1.3480905511811023
 30
0.0
 10
0.4718149606299213
 20
-1.3229881889763779
 30
0.0
 10
0.4718149606299213
 20
-1.3229881889763779
 30
0.0
 10
0.4718149606299213
 20
-1.3229881889763779
 30
0.0
 10
0.4718149606299213
 20
-1.3229881889763779
 30
0.0
 10
-0.2728031496062992
 20
-1.3116062992125985
 30
0.0
 10
-0.2728031496062992
 20
-1.3116062992125985
 30
0.0
 10
-0.2728031496062992
 20
-1.3116062992125985
 30
0.0
 10
-0.2728031496062992
 20
-1.3116062992125985
 30
0.0
 10
-0.2974488188976378
 20
-1.3367086614173229
 30
0.0
 10
-0.2974488188976378
 20
-1.3367086614173229
 30
0.0
  0
SPLINE
  5
79
100
AcDbEntity
  8
Layer 1
 62
     9
100
AcDbSpline
210
0.0
220
0.0
230
1.0
 70
     1
 71
     3
 72
    20
 73
    16
 74
     0
 42
0.0000000001
 43
0.0000000001
 40
0.0
 40
0.0
 40
0.0
 40
0.0
 40
0.25
 40
0.25
 40
0.25
 40
0.25
 40
0.5
 40
0.5
 40
0.5
 40
0.5
 40
0.75
 40
0.75
 40
0.75
 40
0.75
 40
1.0
 40
1.0
 40
1.0
 40
1.0
 10
-0.2728031496062992
 20
-1.3116062992125985
 30
0.0
 10
-0.2728031496062992
 20
-1.3116062992125985
 30
0.0
 10
0.4718149606299213
 20
-1.3229881889763779
 30
0.0
 10
0.4718149606299213
 20
-1.3229881889763779
 30
0.0
 10
0.4718149606299213
 20
-1.3229881889763779
 30
0.0
 10
0.4718149606299213
 20
-1.3229881889763779
 30
0.0
 10
0.4943031496062992
 20
-1.2963779527559056
 30
0.0
 10
0.4943031496062992
 20
-1.2963779527559056
 30
0.0
 10
0.4943031496062992
 20
-1.2963779527559056
 30
0.0
 10
0.4943031496062992
 20
-1.2963779527559056
 30
0.0
 10
-0.2503149606299213
 20
-1.284996062992126
 30
0.0
 10
-0.2503149606299213
 20
-1.284996062992126
 30
0.0
 10
-0.2503149606299213
 20
-1.284996062992126
 30
0.0
 10
-0.2503149606299213
 20
-1.284996062992126
 30
0.0
 10
-0.2728031496062992
 20
-1.3116062992125985
 30
0.0
 10
-0.2728031496062992
 20
-1.3116062992125985
 30
0.0
  0
SPLINE
  5
7A
100
AcDbEntity
  8
Layer 1
 62
     9
100
AcDbSpline
210
0.0
220
0.0
230
1.0
 70
     1
 71
     3
 72
    20
 73
    16
 74
     0
 42
0.0000000001
 43
0.0000000001
 40
0.0
 40
0.0
 40
0.0
 40
0.0
 40
0.25
 40
0.25
 40
0.25
 40
0.25
 40
0.5
 40
0.5
 40
0.5
 40
0.5
 40
0.75
 40
0.75
 40
0.75
 40
0.75
 40
1.0
 40
1.0
 40
1.0
 40
1.0
 10
-0.2503149606299213
 20
-1.284996062992126
 30
0.0
 10
-0.2503149606299213
 20
-1.284996062992126
 30
0.0
 10
0.4943031496062992
 20
-1.2963779527559056
 30
0.0
 10
0.4943031496062992
 20
-1.2963779527559056
 30
0.0
 10
0.4943031496062992
 20
-1.2963779527559056
 30
0.0
 10
0.4943031496062992
 20
-1.2963779527559056
 30
0.0
 10
0.5146496062992126
 20
-1.2684055118110236
 30
0.0
 10
0.5146496062992126
 20
-1.2684055118110236
 30
0.0
 10
0.5146496062992126
 20
-1.2684055118110236
 30
0.0
 10
0.5146496062992126
 20
-1.2684055118110236
 30
0.0
 10
-0.2299685039370079
 20
-1.2570236220472442
 30
0.0
 10
-0.2299685039370079
 20
-1.2570236220472442
 30
0.0
 10
-0.2299685039370079
 20
-1.2570236220472442
 30
0.0
 10
-0.2299685039370079
 20
-1.2570236220472442
 30
0.0
 10
-0.2503149606299213
 20
-1.284996062992126
 30
0.0
 10
-0.2503149606299213
 20
-1.284996062992126
 30
0.0
  0
SPLINE
  5
7B
100
AcDbEntity
  8
Layer 1
 62
     9
100
AcDbSpline
210
0.0
220
0.0
230
1.0
 70
     1
 71
     3
 72
    20
 73
    16
 74
     0
 42
0.0000000001
 43
0.0000000001
 40
0.0
 40
0.0
 40
0.0
 40
0.0
 40
0.25
 40
0.25
 40
0.25
 40
0.25
 40
0.5
 40
0.5
 40
0.5
 40
0.5
 40
0.75
 40
0.75
 40
0.75
 40
0.75
 40
1.0
 40
1.0
 40
1.0
 40
1.0
 10
-0.2299685039370079
 20
-1.2570236220472442
 30
0.0
 10
-0.2299685039370079
 20
-1.2570236220472442
 30
0.0
 10
0.5146496062992126
 20
-1.2684055118110236
 30
0.0
 10
0.5146496062992126
 20
-1.2684055118110236
 30
0.0
 10
0.5146496062992126
 20
-1.2684055118110236
 30
0.0
 10
0.5146496062992126
 20
-1.2684055118110236
 30
0.0
 10
0.5328307086614174
 20
-1.2392401574803149
 30
0.0
 10
0.5328307086614174
 20
-1.2392401574803149
 30
0.0
 10
0.5328307086614174
 20
-1.2392401574803149
 30
0.0
 10
0.5328307086614174
 20
-1.2392401574803149
 30
0.0
 10
-0.2117874015748032
 20
-1.2278582677165355
 30
0.0
 10
-0.2117874015748032
 20
-1.2278582677165355
 30
0.0
 10
-0.2117874015748032
 20
-1.2278582677165355
 30
0.0
 10
-0.2117874015748032
 20
-1.2278582677165355
 30
0.0
 10
-0.2299685039370079
 20
-1.2570236220472442
 30
0.0
 10
-0.2299685039370079
 20
-1.2570236220472442
 30
0.0
  0
SPLINE
  5
7C
100
AcDbEntity
  8
Layer 1
 62
     9
100
AcDbSpline
210
0.0
220
0.0
230
1.0
 70
     1
 71
     3
 72
    20
 73
    16
 74
     0
 42
0.0000000001
 43
0.0000000001
 40
0.0
 40
0.0
 40
0.0
 40
0.0
 40
0.25
 40
0.25
 40
0.25
 40
0.25
 40
0.5
 40
0.5
 40
0.5
 40
0.5
 40
0.75
 40
0.75
 40
0.75
 40
0.75
 40
1.0
 40
1.0
 40
1.0
 40
1.0
 10
-0.2117874015748032
 20
-1.2278582677165355
 30
0.0
 10
-0.2117874015748032
 20
-1.2278582677165355
 30
0.0
 10
0.5328307086614174
 20
-1.2392401574803149
 30
0.0
 10
0.5328307086614174
 20
-1.2392401574803149
 30
0.0
 10
0.5328307086614174
 20
-1.2392401574803149
 30
0.0
 10
0.5328307086614174
 20
-1.2392401574803149
 30
0.0
 10
0.5488464566929134
 20
-1.2090354330708661
 30
0.0
 10
0.5488464566929134
 20
-1.2090354330708661
 30
0.0
 10
0.5488464566929134
 20
-1.2090354330708661
 30
0.0
 10
0.5488464566929134
 20
-1.2090354330708661
 30
0.0
 10
-0.1957716535433071
 20
-1.1976535433070867
 30
0.0
 10
-0.1957716535433071
 20
-1.1976535433070867
 30
0.0
 10
-0.1957716535433071
 20
-1.1976535433070867
 30
0.0
 10
-0.1957716535433071
 20
-1.1976535433070867
 30
0.0
 10
-0.2117874015748032
 20
-1.2278582677165355
 30
0.0
 10
-0.2117874015748032
 20
-1.2278582677165355
 30
0.0
  0
SPLINE
  5
7D
100
AcDbEntity
  8
Layer 1
 62
     9
100
AcDbSpline
210
0.0
220
0.0
230
1.0
 70
     1
 71
     3
 72
    20
 73
    16
 74
     0
 42
0.0000000001
 43
0.0000000001
 40
0.0
 40
0.0
 40
0.0
 40
0.0
 40
0.25
 40
0.25
 40
0.25
 40
0.25
 40
0.5
 40
0.5
 40
0.5
 40
0.5
 40
0.75
 40
0.75
 40
0.75
 40
0.75
 40
1.0
 40
1.0
 40
1.0
 40
1.0
 10
-0.1957716535433071
 20
-1.1976535433070867
 30
0.0
 10
-0.1957716535433071
 20
-1.1976535433070867
 30
0.0
 10
0.5488464566929134
 20
-1.2090354330708661
 30
0.0
 10
0.5488464566929134
 20
-1.2090354330708661
 30
0.0
 10
0.5488464566929134
 20
-1.2090354330708661
 30
0.0
 10
0.5488464566929134
 20
-1.2090354330708661
 30
0.0
 10
0.5626889763779528
 20
-1.1779606299212599
 30
0.0
 10
0.5626889763779528
 20
-1.1779606299212599
 30
0.0
 10
0.5626889763779528
 20
-1.1779606299212599
 30
0.0
 10
0.5626889763779528
 20
-1.1779606299212599
 30
0.0
 10
-0.1819291338582677
 20
-1.1665787401574803
 30
0.0
 10
-0.1819291338582677
 20
-1.1665787401574803
 30
0.0
 10
-0.1819291338582677
 20
-1.1665787401574803
 30
0.0
 10
-0.1819291338582677
 20
-1.1665787401574803
 30
0.0
 10
-0.1957716535433071
 20
-1.1976535433070867
 30
0.0
 10
-0.1957716535433071
 20
-1.1976535433070867
 30
0.0
  0
SPLINE
  5
7E
100
AcDbEntity
  8
Layer 1
 62
     9
100
AcDbSpline
210
0.0
220
0.0
230
1.0
 70
     1
 71
     3
 72
    20
 73
    16
 74
     0
 42
0.0000000001
 43
0.0000000001
 40
0.0
 40
0.0
 40
0.0
 40
0.0
 40
0.25
 40
0.25
 40
0.25
 40
0.25
 40
0.5
 40
0.5
 40
0.5
 40
0.5
 40
0.75
 40
0.75
 40
0.75
 40
0.75
 40
1.0
 40
1.0
 40
1.0
 40
1.0
 10
-0.1819291338582677
 20
-1.1665787401574803
 30
0.0
 10
-0.1819291338582677
 20
-1.1665787401574803
 30
0.0
 10
0.5626889763779528
 20
-1.1779606299212599
 30
0.0
 10
0.5626889763779528
 20
-1.1779606299212599
 30
0.0
 10
0.5626889763779528
 20
-1.1779606299212599
 30
0.0
 10
0.5626889763779528
 20
-1.1779606299212599
 30
0.0
 10
0.5743582677165354
 20
-1.1461614173228347
 30
0.0
 10
0.5743582677165354
 20
-1.1461614173228347
 30
0.0
 10
0.5743582677165354
 20
-1.1461614173228347
 30
0.0
 10
0.5743582677165354
 20
-1.1461614173228347
 30
0.0
 10
-0.170259842519685
 20
-1.1347795275590551
 30
0.0
 10
-0.170259842519685
 20
-1.1347795275590551
 30
0.0
 10
-0.170259842519685
 20
-1.1347795275590551
 30
0.0
 10
-0.170259842519685
 20
-1.1347795275590551
 30
0.0
 10
-0.1819291338582677
 20
-1.1665787401574803
 30
0.0
 10
-0.1819291338582677
 20
-1.1665787401574803
 30
0.0
  0
SPLINE
  5
7F
100
AcDbEntity
  8
Layer 1
 62
     9
100
AcDbSpline
210
0.0
220
0.0
230
1.0
 70
     1
 71
     3
 72
    20
 73
    16
 74
     0
 42
0.0000000001
 43
0.0000000001
 40
0.0
 40
0.0
 40
0.0
 40
0.0
 40
0.25
 40
0.25
 40
0.25
 40
0.25
 40
0.5
 40
0.5
 40
0.5
 40
0.5
 40
0.75
 40
0.75
 40
0.75
 40
0.75
 40
1.0
 40
1.0
 40
1.0
 40
1.0
 10
-0.170259842519685
 20
-1.1347795275590551
 30
0.0
 10
-0.170259842519685
 20
-1.1347795275590551
 30
0.0
 10
0.5743582677165354
 20
-1.1461614173228347
 30
0.0
 10
0.5743582677165354
 20
-1.1461614173228347
 30
0.0
 10
0.5743582677165354
 20
-1.1461614173228347
 30
0.0
 10
0.5743582677165354
 20
-1.1461614173228347
 30
0.0
 10
0.5838346456692913
 20
-1.1138070866141734
 30
0.0
 10
0.5838346456692913
 20
-1.1138070866141734
 30
0.0
 10
0.5838346456692913
 20
-1.1138070866141734
 30
0.0
 10
0.5838346456692913
 20
-1.1138070866141734
 30
0.0
 10
-0.1607834645669291
 20
-1.1024251968503938
 30
0.0
 10
-0.1607834645669291
 20
-1.1024251968503938
 30
0.0
 10
-0.1607834645669291
 20
-1.1024251968503938
 30
0.0
 10
-0.1607834645669291
 20
-1.1024251968503938
 30
0.0
 10
-0.170259842519685
 20
-1.1347795275590551
 30
0.0
 10
-0.170259842519685
 20
-1.1347795275590551
 30
0.0
  0
SPLINE
  5
80
100
AcDbEntity
  8
Layer 1
 62
     9
100
AcDbSpline
210
0.0
220
0.0
230
1.0
 70
     1
 71
     3
 72
    20
 73
    16
 74
     0
 42
0.0000000001
 43
0.0000000001
 40
0.0
 40
0.0
 40
0.0
 40
0.0
 40
0.25
 40
0.25
 40
0.25
 40
0.25
 40
0.5
 40
0.5
 40
0.5
 40
0.5
 40
0.75
 40
0.75
 40
0.75
 40
0.75
 40
1.0
 40
1.0
 40
1.0
 40
1.0
 10
-0.1607834645669291
 20
-1.1024251968503938
 30
0.0
 10
-0.1607834645669291
 20
-1.1024251968503938
 30
0.0
 10
0.5838346456692913
 20
-1.1138070866141734
 30
0.0
 10
0.5838346456692913
 20
-1.1138070866141734
 30
0.0
 10
0.5838346456692913
 20
-1.1138070866141734
 30
0.0
 10
0.5838346456692913
 20
-1.1138070866141734
 30
0.0
 10
0.5911220472440946
 20
-1.0810511811023622
 30
0.0
 10
0.5911220472440946
 20
-1.0810511811023622
 30
0.0
 10
0.5911220472440946
 20
-1.0810511811023622
 30
0.0
 10
0.5911220472440946
 20
-1.0810511811023622
 30
0.0
 10
-0.153496062992126
 20
-1.0696692913385828
 30
0.0
 10
-0.153496062992126
 20
-1.0696692913385828
 30
0.0
 10
-0.153496062992126
 20
-1.0696692913385828
 30
0.0
 10
-0.153496062992126
 20
-1.0696692913385828
 30
0.0
 10
-0.1607834645669291
 20
-1.1024251968503938
 30
0.0
 10
-0.1607834645669291
 20
-1.1024251968503938
 30
0.0
  0
SPLINE
  5
81
100
AcDbEntity
  8
Layer 1
 62
     9
100
AcDbSpline
210
0.0
220
0.0
230
1.0
 70
     1
 71
     3
 72
    20
 73
    16
 74
     0
 42
0.0000000001
 43
0.0000000001
 40
0.0
 40
0.0
 40
0.0
 40
0.0
 40
0.25
 40
0.25
 40
0.25
 40
0.25
 40
0.5
 40
0.5
 40
0.5
 40
0.5
 40
0.75
 40
0.75
 40
0.75
 40
0.75
 40
1.0
 40
1.0
 40
1.0
 40
1.0
 10
-0.153496062992126
 20
-1.0696692913385828
 30
0.0
 10
-0.153496062992126
 20
-1.0696692913385828
 30
0.0
 10
0.5911220472440946
 20
-1.0810511811023622
 30
0.0
 10
0.5911220472440946
 20
-1.0810511811023622
 30
0.0
 10
0.5911220472440946
 20
-1.0810511811023622
 30
0.0
 10
0.5911220472440946
 20
-1.0810511811023622
 30
0.0
 10
0.5962086614173229
 20
-1.0480629921259843
 30
0.0
 10
0.5962086614173229
 20
-1.0480629921259843
 30
0.0
 10
0.5962086614173229
 20
-1.0480629921259843
 30
0.0
 10
0.5962086614173229
 20
-1.0480629921259843
 30
0.0
 10
-0.1484094488188976
 20
-1.0366811023622047
 30
0.0
 10
-0.1484094488188976
 20
-1.0366811023622047
 30
0.0
 10
-0.1484094488188976
 20
-1.0366811023622047
 30
0.0
 10
-0.1484094488188976
 20
-1.0366811023622047
 30
0.0
 10
-0.153496062992126
 20
-1.0696692913385828
 30
0.0
 10
-0.153496062992126
 20
-1.0696692913385828
 30
0.0
  0
SPLINE
  5
82
100
AcDbEntity
  8
Layer 1
 62
     9
100
AcDbSpline
210
0.0
220
0.0
230
1.0
 70
     1
 71
     3
 72
    20
 73
    16
 74
     0
 42
0.0000000001
 43
0.0000000001
 40
0.0
 40
0.0
 40
0.0
 40
0.0
 40
0.25
 40
0.25
 40
0.25
 40
0.25
 40
0.5
 40
0.5
 40
0.5
 40
0.5
 40
0.75
 40
0.75
 40
0.75
 40
0.75
 40
1.0
 40
1.0
 40
1.0
 40
1.0
 10
-0.1484094488188976
 20
-1.0366811023622047
 30
0.0
 10
-0.1484094488188976
 20
-1.0366811023622047
 30
0.0
 10
0.5962086614173229
 20
-1.0480629921259843
 30
0.0
 10
0.5962086614173229
 20
-1.0480629921259843
 30
0.0
 10
0.5962086614173229
 20
-1.0480629921259843
 30
0.0
 10
0.5962086614173229
 20
-1.0480629921259843
 30
0.0
 10
0.5990866141732284
 20
-1.0149881889763779
 30
0.0
 10
0.5990866141732284
 20
-1.0149881889763779
 30
0.0
 10
0.5990866141732284
 20
-1.0149881889763779
 30
0.0
 10
0.5990866141732284
 20
-1.0149881889763779
 30
0.0
 10
-0.1455314960629921
 20
-1.0036062992125985
 30
0.0
 10
-0.1455314960629921
 20
-1.0036062992125985
 30
0.0
 10
-0.1455314960629921
 20
-1.0036062992125985
 30
0.0
 10
-0.1455314960629921
 20
-1.0036062992125985
 30
0.0
 10
-0.1484094488188976
 20
-1.0366811023622047
 30
0.0
 10
-0.1484094488188976
 20
-1.0366811023622047
 30
0.0
  0
SPLINE
  5
83
100
AcDbEntity
  8
Layer 1
 62
     9
100
AcDbSpline
210
0.0
220
0.0
230
1.0
 70
     1
 71
     3
 72
    20
 73
    16
 74
     0
 42
0.0000000001
 43
0.0000000001
 40
0.0
 40
0.0
 40
0.0
 40
0.0
 40
0.25
 40
0.25
 40
0.25
 40
0.25
 40
0.5
 40
0.5
 40
0.5
 40
0.5
 40
0.75
 40
0.75
 40
0.75
 40
0.75
 40
1.0
 40
1.0
 40
1.0
 40
1.0
 10
-0.1455314960629921
 20
-1.0036062992125985
 30
0.0
 10
-0.1455314960629921
 20
-1.0036062992125985
 30
0.0
 10
0.5990866141732284
 20
-1.0149881889763779
 30
0.0
 10
0.5990866141732284
 20
-1.0149881889763779
 30
0.0
 10
0.5990866141732284
 20
-1.0149881889763779
 30
0.0
 10
0.5990866141732284
 20
-1.0149881889763779
 30
0.0
 10
0.5997598425196851
 20
-0.9819960629921261
 30
0.0
 10
0.5997598425196851
 20
-0.9819960629921261
 30
0.0
 10
0.5997598425196851
 20
-0.9819960629921261
 30
0.0
 10
0.5997598425196851
 20
-0.9819960629921261
 30
0.0
 10
-0.1448582677165354
 20
-0.9706141732283465
 30
0.0
 10
-0.1448582677165354
 20
-0.9706141732283465
 30
0.0
 10
-0.1448582677165354
 20
-0.9706141732283465
 30
0.0
 10
-0.1448582677165354
 20
-0.9706141732283465
 30
0.0
 10
-0.1455314960629921
 20
-1.0036062992125985
 30
0.0
 10
-0.1455314960629921
 20
-1.0036062992125985
 30
0.0
  0
SPLINE
  5
84
100
AcDbEntity
  8
Layer 1
 62
     9
100
AcDbSpline
210
0.0
220
0.0
230
1.0
 70
     1
 71
     3
 72
    20
 73
    16
 74
     0
 42
0.0000000001
 43
0.0000000001
 40
0.0
 40
0.0
 40
0.0
 40
0.0
 40
0.25
 40
0.25
 40
0.25
 40
0.25
 40
0.5
 40
0.5
 40
0.5
 40
0.5
 40
0.75
 40
0.75
 40
0.75
 40
0.75
 40
1.0
 40
1.0
 40
1.0
 40
1.0
 10
-0.1448582677165354
 20
-0.9706141732283465
 30
0.0
 10
-0.1448582677165354
 20
-0.9706141732283465
 30
0.0
 10
0.5997598425196851
 20
-0.9819960629921261
 30
0.0
 10
0.5997598425196851
 20
-0.9819960629921261
 30
0.0
 10
0.5997598425196851
 20
-0.9819960629921261
 30
0.0
 10
0.5997598425196851
 20
-0.9819960629921261
 30
0.0
 10
0.5982086614173229
 20
-0.949240157480315
 30
0.0
 10
0.5982086614173229
 20
-0.949240157480315
 30
0.0
 10
0.5982086614173229
 20
-0.949240157480315
 30
0.0
 10
0.5982086614173229
 20
-0.949240157480315
 30
0.0
 10
-0.1464094488188976
 20
-0.9378582677165355
 30
0.0
 10
-0.1464094488188976
 20
-0.9378582677165355
 30
0.0
 10
-0.1464094488188976
 20
-0.9378582677165355
 30
0.0
 10
-0.1464094488188976
 20
-0.9378582677165355
 30
0.0
 10
-0.1448582677165354
 20
-0.9706141732283465
 30
0.0
 10
-0.1448582677165354
 20
-0.9706141732283465
 30
0.0
  0
SPLINE
  5
85
100
AcDbEntity
  8
Layer 1
 62
     9
100
AcDbSpline
210
0.0
220
0.0
230
1.0
 70
     1
 71
     3
 72
    20
 73
    16
 74
     0
 42
0.0000000001
 43
0.0000000001
 40
0.0
 40
0.0
 40
0.0
 40
0.0
 40
0.25
 40
0.25
 40
0.25
 40
0.25
 40
0.5
 40
0.5
 40
0.5
 40
0.5
 40
0.75
 40
0.75
 40
0.75
 40
0.75
 40
1.0
 40
1.0
 40
1.0
 40
1.0
 10
-0.1464094488188976
 20
-0.9378582677165355
 30
0.0
 10
-0.1464094488188976
 20
-0.9378582677165355
 30
0.0
 10
0.5982086614173229
 20
-0.949240157480315
 30
0.0
 10
0.5982086614173229
 20
-0.949240157480315
 30
0.0
 10
0.5982086614173229
 20
-0.949240157480315
 30
0.0
 10
0.5982086614173229
 20
-0.949240157480315
 30
0.0
 10
0.5944370078740158
 20
-0.9168897637795276
 30
0.0
 10
0.5944370078740158
 20
-0.9168897637795276
 30
0.0
 10
0.5944370078740158
 20
-0.9168897637795276
 30
0.0
 10
0.5944370078740158
 20
-0.9168897637795276
 30
0.0
 10
-0.1501811023622047
 20
-0.9055078740157481
 30
0.0
 10
-0.1501811023622047
 20
-0.9055078740157481
 30
0.0
 10
-0.1501811023622047
 20
-0.9055078740157481
 30
0.0
 10
-0.1501811023622047
 20
-0.9055078740157481
 30
0.0
 10
-0.1464094488188976
 20
-0.9378582677165355
 30
0.0
 10
-0.1464094488188976
 20
-0.9378582677165355
 30
0.0
  0
SPLINE
  5
86
100
AcDbEntity
  8
Layer 1
 62
     9
100
AcDbSpline
210
0.0
220
0.0
230
1.0
 70
     1
 71
     3
 72
    20
 73
    16
 74
     0
 42
0.0000000001
 43
0.0000000001
 40
0.0
 40
0.0
 40
0.0
 40
0.0
 40
0.25
 40
0.25
 40
0.25
 40
0.25
 40
0.5
 40
0.5
 40
0.5
 40
0.5
 40
0.75
 40
0.75
 40
0.75
 40
0.75
 40
1.0
 40
1.0
 40
1.0
 40
1.0
 10
-0.1501811023622047
 20
-0.9055078740157481
 30
0.0
 10
-0.1501811023622047
 20
-0.9055078740157481
 30
0.0
 10
0.5944370078740158
 20
-0.9168897637795276
 30
0.0
 10
0.5944370078740158
 20
-0.9168897637795276
 30
0.0
 10
0.5944370078740158
 20
-0.9168897637795276
 30
0.0
 10
0.5944370078740158
 20
-0.9168897637795276
 30
0.0
 10
0.5884330708661417
 20
-0.8850905511811024
 30
0.0
 10
0.5884330708661417
 20
-0.8850905511811024
 30
0.0
 10
0.5884330708661417
 20
-0.8850905511811024
 30
0.0
 10
0.5884330708661417
 20
-0.8850905511811024
 30
0.0
 10
-0.1561850393700787
 20
-0.8737086614173228
 30
0.0
 10
-0.1561850393700787
 20
-0.8737086614173228
 30
0.0
 10
-0.1561850393700787
 20
-0.8737086614173228
 30
0.0
 10
-0.1561850393700787
 20
-0.8737086614173228
 30
0.0
 10
-0.1501811023622047
 20
-0.9055078740157481
 30
0.0
 10
-0.1501811023622047
 20
-0.9055078740157481
 30
0.0
  0
SPLINE
  5
87
100
AcDbEntity
  8
Layer 1
 62
     9
100
AcDbSpline
210
0.0
220
0.0
230
1.0
 70
     1
 71
     3
 72
    20
 73
    16
 74
     0
 42
0.0000000001
 43
0.0000000001
 40
0.0
 40
0.0
 40
0.0
 40
0.0
 40
0.25
 40
0.25
 40
0.25
 40
0.25
 40
0.5
 40
0.5
 40
0.5
 40
0.5
 40
0.75
 40
0.75
 40
0.75
 40
0.75
 40
1.0
 40
1.0
 40
1.0
 40
1.0
 10
-0.1561850393700787
 20
-0.8737086614173228
 30
0.0
 10
-0.1561850393700787
 20
-0.8737086614173228
 30
0.0
 10
0.5884330708661417
 20
-0.8850905511811024
 30
0.0
 10
0.5884330708661417
 20
-0.8850905511811024
 30
0.0
 10
0.5884330708661417
 20
-0.8850905511811024
 30
0.0
 10
0.5884330708661417
 20
-0.8850905511811024
 30
0.0
 10
0.5801850393700788
 20
-0.8540118110236221
 30
0.0
 10
0.5801850393700788
 20
-0.8540118110236221
 30
0.0
 10
0.5801850393700788
 20
-0.8540118110236221
 30
0.0
 10
0.5801850393700788
 20
-0.8540118110236221
 30
0.0
 10
-0.1644330708661417
 20
-0.8426299212598426
 30
0.0
 10
-0.1644330708661417
 20
-0.8426299212598426
 30
0.0
 10
-0.1644330708661417
 20
-0.8426299212598426
 30
0.0
 10
-0.1644330708661417
 20
-0.8426299212598426
 30
0.0
 10
-0.1561850393700787
 20
-0.8737086614173228
 30
0.0
 10
-0.1561850393700787
 20
-0.8737086614173228
 30
0.0
  0
SPLINE
  5
88
100
AcDbEntity
  8
Layer 1
 62
     9
100
AcDbSpline
210
0.0
220
0.0
230
1.0
 70
     1
 71
     3
 72
    20
 73
    16
 74
     0
 42
0.0000000001
 43
0.0000000001
 40
0.0
 40
0.0
 40
0.0
 40
0.0
 40
0.25
 40
0.25
 40
0.25
 40
0.25
 40
0.5
 40
0.5
 40
0.5
 40
0.5
 40
0.75
 40
0.75
 40
0.75
 40
0.75
 40
1.0
 40
1.0
 40
1.0
 40
1.0
 10
-0.1644330708661417
 20
-0.8426299212598426
 30
0.0
 10
-0.1644330708661417
 20
-0.8426299212598426
 30
0.0
 10
0.5801850393700788
 20
-0.8540118110236221
 30
0.0
 10
0.5801850393700788
 20
-0.8540118110236221
 30
0.0
 10
0.5801850393700788
 20
-0.8540118110236221
 30
0.0
 10
0.5801850393700788
 20
-0.8540118110236221
 30
0.0
 10
0.5696968503937008
 20
-0.8238070866141732
 30
0.0
 10
0.5696968503937008
 20
-0.8238070866141732
 30
0.0
 10
0.5696968503937008
 20
-0.8238070866141732
 30
0.0
 10
0.5696968503937008
 20
-0.8238070866141732
 30
0.0
 10
-0.1749212598425197
 20
-0.8124251968503937
 30
0.0
 10
-0.1749212598425197
 20
-0.8124251968503937
 30
0.0
 10
-0.1749212598425197
 20
-0.8124251968503937
 30
0.0
 10
-0.1749212598425197
 20
-0.8124251968503937
 30
0.0
 10
-0.1644330708661417
 20
-0.8426299212598426
 30
0.0
 10
-0.1644330708661417
 20
-0.8426299212598426
 30
0.0
  0
SPLINE
  5
89
100
AcDbEntity
  8
Layer 1
 62
     9
100
AcDbSpline
210
0.0
220
0.0
230
1.0
 70
     1
 71
     3
 72
    20
 73
    16
 74
     0
 42
0.0000000001
 43
0.0000000001
 40
0.0
 40
0.0
 40
0.0
 40
0.0
 40
0.25
 40
0.25
 40
0.25
 40
0.25
 40
0.5
 40
0.5
 40
0.5
 40
0.5
 40
0.75
 40
0.75
 40
0.75
 40
0.75
 40
1.0
 40
1.0
 40
1.0
 40
1.0
 10
-0.1749212598425197
 20
-0.8124251968503937
 30
0.0
 10
-0.1749212598425197
 20
-0.8124251968503937
 30
0.0
 10
0.5696968503937008
 20
-0.8238070866141732
 30
0.0
 10
0.5696968503937008
 20
-0.8238070866141732
 30
0.0
 10
0.5696968503937008
 20
-0.8238070866141732
 30
0.0
 10
0.5696968503937008
 20
-0.8238070866141732
 30
0.0
 10
0.5569488188976378
 20
-0.7946456692913386
 30
0.0
 10
0.5569488188976378
 20
-0.7946456692913386
 30
0.0
 10
0.5569488188976378
 20
-0.7946456692913386
 30
0.0
 10
0.5569488188976378
 20
-0.7946456692913386
 30
0.0
 10
-0.1876692913385827
 20
-0.7832637795275591
 30
0.0
 10
-0.1876692913385827
 20
-0.7832637795275591
 30
0.0
 10
-0.1876692913385827
 20
-0.7832637795275591
 30
0.0
 10
-0.1876692913385827
 20
-0.7832637795275591
 30
0.0
 10
-0.1749212598425197
 20
-0.8124251968503937
 30
0.0
 10
-0.1749212598425197
 20
-0.8124251968503937
 30
0.0
  0
SPLINE
  5
8A
100
AcDbEntity
  8
Layer 1
 62
     9
100
AcDbSpline
210
0.0
220
0.0
230
1.0
 70
     1
 71
     3
 72
    20
 73
    16
 74
     0
 42
0.0000000001
 43
0.0000000001
 40
0.0
 40
0.0
 40
0.0
 40
0.0
 40
0.25
 40
0.25
 40
0.25
 40
0.25
 40
0.5
 40
0.5
 40
0.5
 40
0.5
 40
0.75
 40
0.75
 40
0.75
 40
0.75
 40
1.0
 40
1.0
 40
1.0
 40
1.0
 10
-0.1876692913385827
 20
-0.7832637795275591
 30
0.0
 10
-0.1876692913385827
 20
-0.7832637795275591
 30
0.0
 10
0.5569488188976378
 20
-0.7946456692913386
 30
0.0
 10
0.5569488188976378
 20
-0.7946456692913386
 30
0.0
 10
0.5569488188976378
 20
-0.7946456692913386
 30
0.0
 10
0.5569488188976378
 20
-0.7946456692913386
 30
0.0
 10
0.5419488188976378
 20
-0.7666732283464567
 30
0.0
 10
0.5419488188976378
 20
-0.7666732283464567
 30
0.0
 10
0.5419488188976378
 20
-0.7666732283464567
 30
0.0
 10
0.5419488188976378
 20
-0.7666732283464567
 30
0.0
 10
-0.2026692913385827
 20
-0.7552913385826772
 30
0.0
 10
-0.2026692913385827
 20
-0.7552913385826772
 30
0.0
 10
-0.2026692913385827
 20
-0.7552913385826772
 30
0.0
 10
-0.2026692913385827
 20
-0.7552913385826772
 30
0.0
 10
-0.1876692913385827
 20
-0.7832637795275591
 30
0.0
 10
-0.1876692913385827
 20
-0.7832637795275591
 30
0.0
  0
SPLINE
  5
8B
100
AcDbEntity
  8
Layer 1
 62
     9
100
AcDbSpline
210
0.0
220
0.0
230
1.0
 70
     1
 71
     3
 72
    20
 73
    16
 74
     0
 42
0.0000000001
 43
0.0000000001
 40
0.0
 40
0.0
 40
0.0
 40
0.0
 40
0.25
 40
0.25
 40
0.25
 40
0.25
 40
0.5
 40
0.5
 40
0.5
 40
0.5
 40
0.75
 40
0.75
 40
0.75
 40
0.75
 40
1.0
 40
1.0
 40
1.0
 40
1.0
 10
-0.2026692913385827
 20
-0.7552913385826772
 30
0.0
 10
-0.2026692913385827
 20
-0.7552913385826772
 30
0.0
 10
0.5419488188976378
 20
-0.7666732283464567
 30
0.0
 10
0.5419488188976378
 20
-0.7666732283464567
 30
0.0
 10
0.5419488188976378
 20
-0.7666732283464567
 30
0.0
 10
0.5419488188976378
 20
-0.7666732283464567
 30
0.0
 10
0.5246811023622048
 20
-0.7400590551181102
 30
0.0
 10
0.5246811023622048
 20
-0.7400590551181102
 30
0.0
 10
0.5246811023622048
 20
-0.7400590551181102
 30
0.0
 10
0.5246811023622048
 20
-0.7400590551181102
 30
0.0
 10
-0.2199370078740158
 20
-0.7286771653543307
 30
0.0
 10
-0.2199370078740158
 20
-0.7286771653543307
 30
0.0
 10
-0.2199370078740158
 20
-0.7286771653543307
 30
0.0
 10
-0.2199370078740158
 20
-0.7286771653543307
 30
0.0
 10
-0.2026692913385827
 20
-0.7552913385826772
 30
0.0
 10
-0.2026692913385827
 20
-0.7552913385826772
 30
0.0
  0
SPLINE
  5
8C
100
AcDbEntity
  8
Layer 1
 62
     9
100
AcDbSpline
210
0.0
220
0.0
230
1.0
 70
     1
 71
     3
 72
    20
 73
    16
 74
     0
 42
0.0000000001
 43
0.0000000001
 40
0.0
 40
0.0
 40
0.0
 40
0.0
 40
0.25
 40
0.25
 40
0.25
 40
0.25
 40
0.5
 40
0.5
 40
0.5
 40
0.5
 40
0.75
 40
0.75
 40
0.75
 40
0.75
 40
1.0
 40
1.0
 40
1.0
 40
1.0
 10
-0.2199370078740158
 20
-0.7286771653543307
 30
0.0
 10
-0.2199370078740158
 20
-0.7286771653543307
 30
0.0
 10
0.5246811023622048
 20
-0.7400590551181102
 30
0.0
 10
0.5246811023622048
 20
-0.7400590551181102
 30
0.0
 10
0.5246811023622048
 20
-0.7400590551181102
 30
0.0
 10
0.5246811023622048
 20
-0.7400590551181102
 30
0.0
 10
0.5051417322834646
 20
-0.7149566929133858
 30
0.0
 10
0.5051417322834646
 20
-0.7149566929133858
 30
0.0
 10
0.5051417322834646
 20
-0.7149566929133858
 30
0.0
 10
0.5051417322834646
 20
-0.7149566929133858
 30
0.0
 10
-0.2394763779527559
 20
-0.7035748031496063
 30
0.0
 10
-0.2394763779527559
 20
-0.7035748031496063
 30
0.0
 10
-0.2394763779527559
 20
-0.7035748031496063
 30
0.0
 10
-0.2394763779527559
 20
-0.7035748031496063
 30
0.0
 10
-0.2199370078740158
 20
-0.7286771653543307
 30
0.0
 10
-0.2199370078740158
 20
-0.7286771653543307
 30
0.0
  0
SPLINE
  5
8D
100
AcDbEntity
  8
Layer 1
 62
     9
100
AcDbSpline
210
0.0
220
0.0
230
1.0
 70
     1
 71
     3
 72
    20
 73
    16
 74
     0
 42
0.0000000001
 43
0.0000000001
 40
0.0
 40
0.0
 40
0.0
 40
0.0
 40
0.25
 40
0.25
 40
0.25
 40
0.25
 40
0.5
 40
0.5
 40
0.5
 40
0.5
 40
0.75
 40
0.75
 40
0.75
 40
0.75
 40
1.0
 40
1.0
 40
1.0
 40
1.0
 10
-0.2394763779527559
 20
-0.7035748031496063
 30
0.0
 10
-0.2394763779527559
 20
-0.7035748031496063
 30
0.0
 10
0.5051417322834646
 20
-0.7149566929133858
 30
0.0
 10
0.5051417322834646
 20
-0.7149566929133858
 30
0.0
 10
0.5051417322834646
 20
-0.7149566929133858
 30
0.0
 10
0.5051417322834646
 20
-0.7149566929133858
 30
0.0
 10
0.4833188976377953
 20
-0.6915354330708662
 30
0.0
 10
0.4833188976377953
 20
-0.6915354330708662
 30
0.0
 10
0.4833188976377953
 20
-0.6915354330708662
 30
0.0
 10
0.4833188976377953
 20
-0.6915354330708662
 30
0.0
 10
-0.2612992125984252
 20
-0.6801535433070867
 30
0.0
 10
-0.2612992125984252
 20
-0.6801535433070867
 30
0.0
 10
-0.2612992125984252
 20
-0.6801535433070867
 30
0.0
 10
-0.2612992125984252
 20
-0.6801535433070867
 30
0.0
 10
-0.2394763779527559
 20
-0.7035748031496063
 30
0.0
 10
-0.2394763779527559
 20
-0.7035748031496063
 30
0.0
  0
SPLINE
  5
8E
100
AcDbEntity
  8
Layer 1
370
     5
100
AcDbSpline
210
0.0
220
0.0
230
1.0
 70
     1
 71
     3
 72
   260
 73
   256
 74
     0
 42
0.0000000001
 43
0.0000000001
 40
0.0
 40
0.0
 40
0.0
 40
0.0
 40
0.015625
 40
0.015625
 40
0.015625
 40
0.015625
 40
0.03125
 40
0.03125
 40
0.03125
 40
0.03125
 40
0.046875
 40
0.046875
 40
0.046875
 40
0.046875
 40
0.0625
 40
0.0625
 40
0.0625
 40
0.0625
 40
0.078125
 40
0.078125
 40
0.078125
 40
0.078125
 40
0.09375
 40
0.09375
 40
0.09375
 40
0.09375
 40
0.109375
 40
0.109375
 40
0.109375
 40
0.109375
 40
0.125
 40
0.125
 40
0.125
 40
0.125
 40
0.140625
 40
0.140625
 40
0.140625
 40
0.140625
 40
0.15625
 40
0.15625
 40
0.15625
 40
0.15625
 40
0.171875
 40
0.171875
 40
0.171875
 40
0.171875
 40
0.1875
 40
0.1875
 40
0.1875
 40
0.1875
 40
0.203125
 40
0.203125
 40
0.203125
 40
0.203125
 40
0.21875
 40
0.21875
 40
0.21875
 40
0.21875
 40
0.234375
 40
0.234375
 40
0.234375
 40
0.234375
 40
0.25
 40
0.25
 40
0.25
 40
0.25
 40
0.265625
 40
0.265625
 40
0.265625
 40
0.265625
 40
0.28125
 40
0.28125
 40
0.28125
 40
0.28125
 40
0.296875
 40
0.296875
 40
0.296875
 40
0.296875
 40
0.3125
 40
0.3125
 40
0.3125
 40
0.3125
 40
0.328125
 40
0.328125
 40
0.328125
 40
0.328125
 40
0.34375
 40
0.34375
 40
0.34375
 40
0.34375
 40
0.359375
 40
0.359375
 40
0.359375
 40
0.359375
 40
0.375
 40
0.375
 40
0.375
 40
0.375
 40
0.390625
 40
0.390625
 40
0.390625
 40
0.390625
 40
0.40625
 40
0.40625
 40
0.40625
 40
0.40625
 40
0.421875
 40
0.421875
 40
0.421875
 40
0.421875
 40
0.4375
 40
0.4375
 40
0.4375
 40
0.4375
 40
0.453125
 40
0.453125
 40
0.453125
 40
0.453125
 40
0.46875
 40
0.46875
 40
0.46875
 40
0.46875
 40
0.484375
 40
0.484375
 40
0.484375
 40
0.484375
 40
0.5
 40
0.5
 40
0.5
 40
0.5
 40
0.515625
 40
0.515625
 40
0.515625
 40
0.515625
 40
0.53125
 40
0.53125
 40
0.53125
 40
0.53125
 40
0.546875
 40
0.546875
 40
0.546875
 40
0.546875
 40
0.5625
 40
0.5625
 40
0.5625
 40
0.5625
 40
0.578125
 40
0.578125
 40
0.578125
 40
0.578125
 40
0.59375
 40
0.59375
 40
0.59375
 40
0.59375
 40
0.609375
 40
0.609375
 40
0.609375
 40
0.609375
 40
0.625
 40
0.625
 40
0.625
 40
0.625
 40
0.640625
 40
0.640625
 40
0.640625
 40
0.640625
 40
0.65625
 40
0.65625
 40
0.65625
 40
0.65625
 40
0.671875
 40
0.671875
 40
0.671875
 40
0.671875
 40
0.6875
 40
0.6875
 40
0.6875
 40
0.6875
 40
0.703125
 40
0.703125
 40
0.703125
 40
0.703125
 40
0.71875
 40
0.71875
 40
0.71875
 40
0.71875
 40
0.734375
 40
0.734375
 40
0.734375
 40
0.734375
 40
0.75
 40
0.75
 40
0.75
 40
0.75
 40
0.765625
 40
0.765625
 40
0.765625
 40
0.765625
 40
0.78125
 40
0.78125
 40
0.78125
 40
0.78125
 40
0.796875
 40
0.796875
 40
0.796875
 40
0.796875
 40
0.8125
 40
0.8125
 40
0.8125
 40
0.8125
 40
0.828125
 40
0.828125
 40
0.828125
 40
0.828125
 40
0.84375
 40
0.84375
 40
0.84375
 40
0.84375
 40
0.859375
 40
0.859375
 40
0.859375
 40
0.859375
 40
0.875
 40
0.875
 40
0.875
 40
0.875
 40
0.890625
 40
0.890625
 40
0.890625
 40
0.890625
 40
0.90625
 40
0.90625
 40
0.90625
 40
0.90625
 40
0.921875
 40
0.921875
 40
0.921875
 40
0.921875
 40
0.9375
 40
0.9375
 40
0.9375
 40
0.9375
 40
0.953125
 40
0.953125
 40
0.953125
 40
0.953125
 40
0.96875
 40
0.96875
 40
0.96875
 40
0.96875
 40
0.984375
 40
0.984375
 40
0.984375
 40
0.984375
 40
1.0
 40
1.0
 40
1.0
 40
1.0
 10
-0.6146811023622048
 20
-1.4681338582677166
 30
0.0
 10
-0.6146811023622048
 20
-1.4681338582677166
 30
0.0
 10
0.1299370078740157
 20
-1.4795157480314962
 30
0.0
 10
0.1299370078740157
 20
-1.4795157480314962
 30
0.0
 10
0.1299370078740157
 20
-1.4795157480314962
 30
0.0
 10
0.1299370078740157
 20
-1.4795157480314962
 30
0.0
 10
0.1735905511811024
 20
-1.4752244094488189
 30
0.0
 10
0.1735905511811024
 20
-1.4752244094488189
 30
0.0
 10
0.1735905511811024
 20
-1.4752244094488189
 30
0.0
 10
0.1735905511811024
 20
-1.4752244094488189
 30
0.0
 10
0.2151614173228346
 20
-1.4679803149606301
 30
0.0
 10
0.2151614173228346
 20
-1.4679803149606301
 30
0.0
 10
0.2151614173228346
 20
-1.4679803149606301
 30
0.0
 10
0.2151614173228346
 20
-1.4679803149606301
 30
0.0
 10
0.2546338582677166
 20
-1.4579527559055119
 30
0.0
 10
0.2546338582677166
 20
-1.4579527559055119
 30
0.0
 10
0.2546338582677166
 20
-1.4579527559055119
 30
0.0
 10
0.2546338582677166
 20
-1.4579527559055119
 30
0.0
 10
0.2920157480314961
 20
-1.4452874015748032
 30
0.0
 10
0.2920157480314961
 20
-1.4452874015748032
 30
0.0
 10
0.2920157480314961
 20
-1.4452874015748032
 30
0.0
 10
0.2920157480314961
 20
-1.4452874015748032
 30
0.0
 10
0.3272834645669291
 20
-1.4301535433070867
 30
0.0
 10
0.3272834645669291
 20
-1.4301535433070867
 30
0.0
 10
0.3272834645669291
 20
-1.4301535433070867
 30
0.0
 10
0.3272834645669291
 20
-1.4301535433070867
 30
0.0
 10
0.3604409448818898
 20
-1.4127047244094488
 30
0.0
 10
0.3604409448818898
 20
-1.4127047244094488
 30
0.0
 10
0.3604409448818898
 20
-1.4127047244094488
 30
0.0
 10
0.3604409448818898
 20
-1.4127047244094488
 30
0.0
 10
0.3914763779527559
 20
-1.3931102362204726
 30
0.0
 10
0.3914763779527559
 20
-1.3931102362204726
 30
0.0
 10
0.3914763779527559
 20
-1.3931102362204726
 30
0.0
 10
0.3914763779527559
 20
-1.3931102362204726
 30
0.0
 10
0.4203897637795276
 20
-1.3715157480314961
 30
0.0
 10
0.4203897637795276
 20
-1.3715157480314961
 30
0.0
 10
0.4203897637795276
 20
-1.3715157480314961
 30
0.0
 10
0.4203897637795276
 20
-1.3715157480314961
 30
0.0
 10
0.4471692913385827
 20
-1.3480905511811023
 30
0.0
 10
0.4471692913385827
 20
-1.3480905511811023
 30
0.0
 10
0.4471692913385827
 20
-1.3480905511811023
 30
0.0
 10
0.4471692913385827
 20
-1.3480905511811023
 30
0.0
 10
0.4718149606299213
 20
-1.3229881889763779
 30
0.0
 10
0.4718149606299213
 20
-1.3229881889763779
 30
0.0
 10
0.4718149606299213
 20
-1.3229881889763779
 30
0.0
 10
0.4718149606299213
 20
-1.3229881889763779
 30
0.0
 10
0.4943031496062992
 20
-1.2963779527559056
 30
0.0
 10
0.4943031496062992
 20
-1.2963779527559056
 30
0.0
 10
0.4943031496062992
 20
-1.2963779527559056
 30
0.0
 10
0.4943031496062992
 20
-1.2963779527559056
 30
0.0
 10
0.5146496062992126
 20
-1.2684055118110236
 30
0.0
 10
0.5146496062992126
 20
-1.2684055118110236
 30
0.0
 10
0.5146496062992126
 20
-1.2684055118110236
 30
0.0
 10
0.5146496062992126
 20
-1.2684055118110236
 30
0.0
 10
0.5328307086614174
 20
-1.2392401574803149
 30
0.0
 10
0.5328307086614174
 20
-1.2392401574803149
 30
0.0
 10
0.5328307086614174
 20
-1.2392401574803149
 30
0.0
 10
0.5328307086614174
 20
-1.2392401574803149
 30
0.0
 10
0.5488464566929134
 20
-1.2090354330708661
 30
0.0
 10
0.5488464566929134
 20
-1.2090354330708661
 30
0.0
 10
0.5488464566929134
 20
-1.2090354330708661
 30
0.0
 10
0.5488464566929134
 20
-1.2090354330708661
 30
0.0
 10
0.5626889763779528
 20
-1.1779606299212599
 30
0.0
 10
0.5626889763779528
 20
-1.1779606299212599
 30
0.0
 10
0.5626889763779528
 20
-1.1779606299212599
 30
0.0
 10
0.5626889763779528
 20
-1.1779606299212599
 30
0.0
 10
0.5743582677165354
 20
-1.1461614173228347
 30
0.0
 10
0.5743582677165354
 20
-1.1461614173228347
 30
0.0
 10
0.5743582677165354
 20
-1.1461614173228347
 30
0.0
 10
0.5743582677165354
 20
-1.1461614173228347
 30
0.0
 10
0.5838346456692913
 20
-1.1138070866141734
 30
0.0
 10
0.5838346456692913
 20
-1.1138070866141734
 30
0.0
 10
0.5838346456692913
 20
-1.1138070866141734
 30
0.0
 10
0.5838346456692913
 20
-1.1138070866141734
 30
0.0
 10
0.5911220472440946
 20
-1.0810511811023622
 30
0.0
 10
0.5911220472440946
 20
-1.0810511811023622
 30
0.0
 10
0.5911220472440946
 20
-1.0810511811023622
 30
0.0
 10
0.5911220472440946
 20
-1.0810511811023622
 30
0.0
 10
0.5962086614173229
 20
-1.0480629921259843
 30
0.0
 10
0.5962086614173229
 20
-1.0480629921259843
 30
0.0
 10
0.5962086614173229
 20
-1.0480629921259843
 30
0.0
 10
0.5962086614173229
 20
-1.0480629921259843
 30
0.0
 10
0.5990866141732284
 20
-1.0149881889763779
 30
0.0
 10
0.5990866141732284
 20
-1.0149881889763779
 30
0.0
 10
0.5990866141732284
 20
-1.0149881889763779
 30
0.0
 10
0.5990866141732284
 20
-1.0149881889763779
 30
0.0
 10
0.5997598425196851
 20
-0.9819960629921261
 30
0.0
 10
0.5997598425196851
 20
-0.9819960629921261
 30
0.0
 10
0.5997598425196851
 20
-0.9819960629921261
 30
0.0
 10
0.5997598425196851
 20
-0.9819960629921261
 30
0.0
 10
0.5982086614173229
 20
-0.949240157480315
 30
0.0
 10
0.5982086614173229
 20
-0.949240157480315
 30
0.0
 10
0.5982086614173229
 20
-0.949240157480315
 30
0.0
 10
0.5982086614173229
 20
-0.949240157480315
 30
0.0
 10
0.5944370078740158
 20
-0.9168897637795276
 30
0.0
 10
0.5944370078740158
 20
-0.9168897637795276
 30
0.0
 10
0.5944370078740158
 20
-0.9168897637795276
 30
0.0
 10
0.5944370078740158
 20
-0.9168897637795276
 30
0.0
 10
0.5884330708661417
 20
-0.8850905511811024
 30
0.0
 10
0.5884330708661417
 20
-0.8850905511811024
 30
0.0
 10
0.5884330708661417
 20
-0.8850905511811024
 30
0.0
 10
0.5884330708661417
 20
-0.8850905511811024
 30
0.0
 10
0.5801850393700788
 20
-0.8540118110236221
 30
0.0
 10
0.5801850393700788
 20
-0.8540118110236221
 30
0.0
 10
0.5801850393700788
 20
-0.8540118110236221
 30
0.0
 10
0.5801850393700788
 20
-0.8540118110236221
 30
0.0
 10
0.5696968503937008
 20
-0.8238070866141732
 30
0.0
 10
0.5696968503937008
 20
-0.8238070866141732
 30
0.0
 10
0.5696968503937008
 20
-0.8238070866141732
 30
0.0
 10
0.5696968503937008
 20
-0.8238070866141732
 30
0.0
 10
0.5569488188976378
 20
-0.7946456692913386
 30
0.0
 10
0.5569488188976378
 20
-0.7946456692913386
 30
0.0
 10
0.5569488188976378
 20
-0.7946456692913386
 30
0.0
 10
0.5569488188976378
 20
-0.7946456692913386
 30
0.0
 10
0.5419488188976378
 20
-0.7666732283464567
 30
0.0
 10
0.5419488188976378
 20
-0.7666732283464567
 30
0.0
 10
0.5419488188976378
 20
-0.7666732283464567
 30
0.0
 10
0.5419488188976378
 20
-0.7666732283464567
 30
0.0
 10
0.5246811023622048
 20
-0.7400590551181102
 30
0.0
 10
0.5246811023622048
 20
-0.7400590551181102
 30
0.0
 10
0.5246811023622048
 20
-0.7400590551181102
 30
0.0
 10
0.5246811023622048
 20
-0.7400590551181102
 30
0.0
 10
0.5051417322834646
 20
-0.7149566929133858
 30
0.0
 10
0.5051417322834646
 20
-0.7149566929133858
 30
0.0
 10
0.5051417322834646
 20
-0.7149566929133858
 30
0.0
 10
0.5051417322834646
 20
-0.7149566929133858
 30
0.0
 10
0.4833188976377953
 20
-0.6915354330708662
 30
0.0
 10
0.4833188976377953
 20
-0.6915354330708662
 30
0.0
 10
0.4833188976377953
 20
-0.6915354330708662
 30
0.0
 10
0.4833188976377953
 20
-0.6915354330708662
 30
0.0
 10
-0.2612992125984252
 20
-0.6801535433070867
 30
0.0
 10
-0.2612992125984252
 20
-0.6801535433070867
 30
0.0
 10
-0.2612992125984252
 20
-0.6801535433070867
 30
0.0
 10
-0.2612992125984252
 20
-0.6801535433070867
 30
0.0
 10
-0.2394763779527559
 20
-0.7035748031496063
 30
0.0
 10
-0.2394763779527559
 20
-0.7035748031496063
 30
0.0
 10
-0.2394763779527559
 20
-0.7035748031496063
 30
0.0
 10
-0.2394763779527559
 20
-0.7035748031496063
 30
0.0
 10
-0.2199370078740158
 20
-0.7286771653543307
 30
0.0
 10
-0.2199370078740158
 20
-0.7286771653543307
 30
0.0
 10
-0.2199370078740158
 20
-0.7286771653543307
 30
0.0
 10
-0.2199370078740158
 20
-0.7286771653543307
 30
0.0
 10
-0.2026692913385827
 20
-0.7552913385826772
 30
0.0
 10
-0.2026692913385827
 20
-0.7552913385826772
 30
0.0
 10
-0.2026692913385827
 20
-0.7552913385826772
 30
0.0
 10
-0.2026692913385827
 20
-0.7552913385826772
 30
0.0
 10
-0.1876692913385827
 20
-0.7832637795275591
 30
0.0
 10
-0.1876692913385827
 20
-0.7832637795275591
 30
0.0
 10
-0.1876692913385827
 20
-0.7832637795275591
 30
0.0
 10
-0.1876692913385827
 20
-0.7832637795275591
 30
0.0
 10
-0.1749212598425197
 20
-0.8124251968503937
 30
0.0
 10
-0.1749212598425197
 20
-0.8124251968503937
 30
0.0
 10
-0.1749212598425197
 20
-0.8124251968503937
 30
0.0
 10
-0.1749212598425197
 20
-0.8124251968503937
 30
0.0
 10
-0.1644330708661417
 20
-0.8426299212598426
 30
0.0
 10
-0.1644330708661417
 20
-0.8426299212598426
 30
0.0
 10
-0.1644330708661417
 20
-0.8426299212598426
 30
0.0
 10
-0.1644330708661417
 20
-0.8426299212598426
 30
0.0
 10
-0.1561850393700787
 20
-0.8737086614173228
 30
0.0
 10
-0.1561850393700787
 20
-0.8737086614173228
 30
0.0
 10
-0.1561850393700787
 20
-0.8737086614173228
 30
0.0
 10
-0.1561850393700787
 20
-0.8737086614173228
 30
0.0
 10
-0.1501811023622047
 20
-0.9055078740157481
 30
0.0
 10
-0.1501811023622047
 20
-0.9055078740157481
 30
0.0
 10
-0.1501811023622047
 20
-0.9055078740157481
 30
0.0
 10
-0.1501811023622047
 20
-0.9055078740157481
 30
0.0
 10
-0.1464094488188976
 20
-0.9378582677165355
 30
0.0
 10
-0.1464094488188976
 20
-0.9378582677165355
 30
0.0
 10
-0.1464094488188976
 20
-0.9378582677165355
 30
0.0
 10
-0.1464094488188976
 20
-0.9378582677165355
 30
0.0
 10
-0.1448582677165354
 20
-0.9706141732283465
 30
0.0
 10
-0.1448582677165354
 20
-0.9706141732283465
 30
0.0
 10
-0.1448582677165354
 20
-0.9706141732283465
 30
0.0
 10
-0.1448582677165354
 20
-0.9706141732283465
 30
0.0
 10
-0.1455314960629921
 20
-1.0036062992125985
 30
0.0
 10
-0.1455314960629921
 20
-1.0036062992125985
 30
0.0
 10
-0.1455314960629921
 20
-1.0036062992125985
 30
0.0
 10
-0.1455314960629921
 20
-1.0036062992125985
 30
0.0
 10
-0.1484094488188976
 20
-1.0366811023622047
 30
0.0
 10
-0.1484094488188976
 20
-1.0366811023622047
 30
0.0
 10
-0.1484094488188976
 20
-1.0366811023622047
 30
0.0
 10
-0.1484094488188976
 20
-1.0366811023622047
 30
0.0
 10
-0.153496062992126
 20
-1.0696692913385828
 30
0.0
 10
-0.153496062992126
 20
-1.0696692913385828
 30
0.0
 10
-0.153496062992126
 20
-1.0696692913385828
 30
0.0
 10
-0.153496062992126
 20
-1.0696692913385828
 30
0.0
 10
-0.1607834645669291
 20
-1.1024251968503938
 30
0.0
 10
-0.1607834645669291
 20
-1.1024251968503938
 30
0.0
 10
-0.1607834645669291
 20
-1.1024251968503938
 30
0.0
 10
-0.1607834645669291
 20
-1.1024251968503938
 30
0.0
 10
-0.170259842519685
 20
-1.1347795275590551
 30
0.0
 10
-0.170259842519685
 20
-1.1347795275590551
 30
0.0
 10
-0.170259842519685
 20
-1.1347795275590551
 30
0.0
 10
-0.170259842519685
 20
-1.1347795275590551
 30
0.0
 10
-0.1819291338582677
 20
-1.1665787401574803
 30
0.0
 10
-0.1819291338582677
 20
-1.1665787401574803
 30
0.0
 10
-0.1819291338582677
 20
-1.1665787401574803
 30
0.0
 10
-0.1819291338582677
 20
-1.1665787401574803
 30
0.0
 10
-0.1957716535433071
 20
-1.1976535433070867
 30
0.0
 10
-0.1957716535433071
 20
-1.1976535433070867
 30
0.0
 10
-0.1957716535433071
 20
-1.1976535433070867
 30
0.0
 10
-0.1957716535433071
 20
-1.1976535433070867
 30
0.0
 10
-0.2117874015748032
 20
-1.2278582677165355
 30
0.0
 10
-0.2117874015748032
 20
-1.2278582677165355
 30
0.0
 10
-0.2117874015748032
 20
-1.2278582677165355
 30
0.0
 10
-0.2117874015748032
 20
-1.2278582677165355
 30
0.0
 10
-0.2299685039370079
 20
-1.2570236220472442
 30
0.0
 10
-0.2299685039370079
 20
-1.2570236220472442
 30
0.0
 10
-0.2299685039370079
 20
-1.2570236220472442
 30
0.0
 10
-0.2299685039370079
 20
-1.2570236220472442
 30
0.0
 10
-0.2503149606299213
 20
-1.284996062992126
 30
0.0
 10
-0.2503149606299213
 20
-1.284996062992126
 30
0.0
 10
-0.2503149606299213
 20
-1.284996062992126
 30
0.0
 10
-0.2503149606299213
 20
-1.284996062992126
 30
0.0
 10
-0.2728031496062992
 20
-1.3116062992125985
 30
0.0
 10
-0.2728031496062992
 20
-1.3116062992125985
 30
0.0
 10
-0.2728031496062992
 20
-1.3116062992125985
 30
0.0
 10
-0.2728031496062992
 20
-1.3116062992125985
 30
0.0
 10
-0.2974488188976378
 20
-1.3367086614173229
 30
0.0
 10
-0.2974488188976378
 20
-1.3367086614173229
 30
0.0
 10
-0.2974488188976378
 20
-1.3367086614173229
 30
0.0
 10
-0.2974488188976378
 20
-1.3367086614173229
 30
0.0
 10
-0.3242283464566929
 20
-1.3601338582677165
 30
0.0
 10
-0.3242283464566929
 20
-1.3601338582677165
 30
0.0
 10
-0.3242283464566929
 20
-1.3601338582677165
 30
0.0
 10
-0.3242283464566929
 20
-1.3601338582677165
 30
0.0
 10
-0.3531417322834646
 20
-1.381728346456693
 30
0.0
 10
-0.3531417322834646
 20
-1.381728346456693
 30
0.0
 10
-0.3531417322834646
 20
-1.381728346456693
 30
0.0
 10
-0.3531417322834646
 20
-1.381728346456693
 30
0.0
 10
-0.3841771653543307
 20
-1.4013228346456694
 30
0.0
 10
-0.3841771653543307
 20
-1.4013228346456694
 30
0.0
 10
-0.3841771653543307
 20
-1.4013228346456694
 30
0.0
 10
-0.3841771653543307
 20
-1.4013228346456694
 30
0.0
 10
-0.4173346456692914
 20
-1.418771653543307
 30
0.0
 10
-0.4173346456692914
 20
-1.418771653543307
 30
0.0
 10
-0.4173346456692914
 20
-1.418771653543307
 30
0.0
 10
-0.4173346456692914
 20
-1.418771653543307
 30
0.0
 10
-0.4526023622047244
 20
-1.4339055118110238
 30
0.0
 10
-0.4526023622047244
 20
-1.4339055118110238
 30
0.0
 10
-0.4526023622047244
 20
-1.4339055118110238
 30
0.0
 10
-0.4526023622047244
 20
-1.4339055118110238
 30
0.0
 10
-0.489984251968504
 20
-1.4465708661417322
 30
0.0
 10
-0.489984251968504
 20
-1.4465708661417322
 30
0.0
 10
-0.489984251968504
 20
-1.4465708661417322
 30
0.0
 10
-0.489984251968504
 20
-1.4465708661417322
 30
0.0
 10
-0.5294566929133858
 20
-1.4565984251968505
 30
0.0
 10
-0.5294566929133858
 20
-1.4565984251968505
 30
0.0
 10
-0.5294566929133858
 20
-1.4565984251968505
 30
0.0
 10
-0.5294566929133858
 20
-1.4565984251968505
 30
0.0
 10
-0.5710275590551182
 20
-1.4638425196850395
 30
0.0
 10
-0.5710275590551182
 20
-1.4638425196850395
 30
0.0
 10
-0.5710275590551182
 20
-1.4638425196850395
 30
0.0
 10
-0.5710275590551182
 20
-1.4638425196850395
 30
0.0
 10
-0.6146811023622048
 20
-1.4681338582677166
 30
0.0
 10
-0.6146811023622048
 20
-1.4681338582677166
 30
0.0
  0
SPLINE
  5
8F
100
AcDbEntity
  8
Layer 1
 62
     9
100
AcDbSpline
210
0.0
220
0.0
230
1.0
 70
     1
 71
     3
 72
    20
 73
    16
 74
     0
 42
0.0000000001
 43
0.0000000001
 40
0.0
 40
0.0
 40
0.0
 40
0.0
 40
0.25
 40
0.25
 40
0.25
 40
0.25
 40
0.5
 40
0.5
 40
0.5
 40
0.5
 40
0.75
 40
0.75
 40
0.75
 40
0.75
 40
1.0
 40
1.0
 40
1.0
 40
1.0
 10
-0.2612992125984252
 20
-0.6801535433070867
 30
0.0
 10
-0.2612992125984252
 20
-0.6801535433070867
 30
0.0
 10
0.4833188976377953
 20
-0.6915354330708662
 30
0.0
 10
0.4833188976377953
 20
-0.6915354330708662
 30
0.0
 10
0.4833188976377953
 20
-0.6915354330708662
 30
0.0
 10
0.4833188976377953
 20
-0.6915354330708662
 30
0.0
 10
0.6148464566929134
 20
-0.5690787401574804
 30
0.0
 10
0.6148464566929134
 20
-0.5690787401574804
 30
0.0
 10
0.6148464566929134
 20
-0.5690787401574804
 30
0.0
 10
0.6148464566929134
 20
-0.5690787401574804
 30
0.0
 10
-0.1297716535433071
 20
-0.5576968503937008
 30
0.0
 10
-0.1297716535433071
 20
-0.5576968503937008
 30
0.0
 10
-0.1297716535433071
 20
-0.5576968503937008
 30
0.0
 10
-0.1297716535433071
 20
-0.5576968503937008
 30
0.0
 10
-0.2612992125984252
 20
-0.6801535433070867
 30
0.0
 10
-0.2612992125984252
 20
-0.6801535433070867
 30
0.0
  0
SPLINE
  5
90
100
AcDbEntity
  8
Layer 1
 62
     9
100
AcDbSpline
210
0.0
220
0.0
230
1.0
 70
     1
 71
     3
 72
    20
 73
    16
 74
     0
 42
0.0000000001
 43
0.0000000001
 40
0.0
 40
0.0
 40
0.0
 40
0.0
 40
0.25
 40
0.25
 40
0.25
 40
0.25
 40
0.5
 40
0.5
 40
0.5
 40
0.5
 40
0.75
 40
0.75
 40
0.75
 40
0.75
 40
1.0
 40
1.0
 40
1.0
 40
1.0
 10
-0.1297716535433071
 20
-0.5576968503937008
 30
0.0
 10
-0.1297716535433071
 20
-0.5576968503937008
 30
0.0
 10
0.6148464566929134
 20
-0.5690787401574804
 30
0.0
 10
0.6148464566929134
 20
-0.5690787401574804
 30
0.0
 10
0.6148464566929134
 20
-0.5690787401574804
 30
0.0
 10
0.6148464566929134
 20
-0.5690787401574804
 30
0.0
 10
0.6043661417322835
 20
-0.5306417322834646
 30
0.0
 10
0.6043661417322835
 20
-0.5306417322834646
 30
0.0
 10
0.6043661417322835
 20
-0.5306417322834646
 30
0.0
 10
0.6043661417322835
 20
-0.5306417322834646
 30
0.0
 10
-0.140251968503937
 20
-0.519259842519685
 30
0.0
 10
-0.140251968503937
 20
-0.519259842519685
 30
0.0
 10
-0.140251968503937
 20
-0.519259842519685
 30
0.0
 10
-0.140251968503937
 20
-0.519259842519685
 30
0.0
 10
-0.1297716535433071
 20
-0.5576968503937008
 30
0.0
 10
-0.1297716535433071
 20
-0.5576968503937008
 30
0.0
  0
SPLINE
  5
91
100
AcDbEntity
  8
Layer 1
 62
     9
100
AcDbSpline
210
0.0
220
0.0
230
1.0
 70
     1
 71
     3
 72
    20
 73
    16
 74
     0
 42
0.0000000001
 43
0.0000000001
 40
0.0
 40
0.0
 40
0.0
 40
0.0
 40
0.25
 40
0.25
 40
0.25
 40
0.25
 40
0.5
 40
0.5
 40
0.5
 40
0.5
 40
0.75
 40
0.75
 40
0.75
 40
0.75
 40
1.0
 40
1.0
 40
1.0
 40
1.0
 10
-0.140251968503937
 20
-0.519259842519685
 30
0.0
 10
-0.140251968503937
 20
-0.519259842519685
 30
0.0
 10
0.6043661417322835
 20
-0.5306417322834646
 30
0.0
 10
0.6043661417322835
 20
-0.5306417322834646
 30
0.0
 10
0.6043661417322835
 20
-0.5306417322834646
 30
0.0
 10
0.6043661417322835
 20
-0.5306417322834646
 30
0.0
 10
0.5958543307086615
 20
-0.492751968503937
 30
0.0
 10
0.5958543307086615
 20
-0.492751968503937
 30
0.0
 10
0.5958543307086615
 20
-0.492751968503937
 30
0.0
 10
0.5958543307086615
 20
-0.492751968503937
 30
0.0
 10
-0.1487637795275591
 20
-0.4813700787401575
 30
0.0
 10
-0.1487637795275591
 20
-0.4813700787401575
 30
0.0
 10
-0.1487637795275591
 20
-0.4813700787401575
 30
0.0
 10
-0.1487637795275591
 20
-0.4813700787401575
 30
0.0
 10
-0.140251968503937
 20
-0.519259842519685
 30
0.0
 10
-0.140251968503937
 20
-0.519259842519685
 30
0.0
  0
SPLINE
  5
92
100
AcDbEntity
  8
Layer 1
 62
     9
100
AcDbSpline
210
0.0
220
0.0
230
1.0
 70
     1
 71
     3
 72
    20
 73
    16
 74
     0
 42
0.0000000001
 43
0.0000000001
 40
0.0
 40
0.0
 40
0.0
 40
0.0
 40
0.25
 40
0.25
 40
0.25
 40
0.25
 40
0.5
 40
0.5
 40
0.5
 40
0.5
 40
0.75
 40
0.75
 40
0.75
 40
0.75
 40
1.0
 40
1.0
 40
1.0
 40
1.0
 10
-0.1487637795275591
 20
-0.4813700787401575
 30
0.0
 10
-0.1487637795275591
 20
-0.4813700787401575
 30
0.0
 10
0.5958543307086615
 20
-0.492751968503937
 30
0.0
 10
0.5958543307086615
 20
-0.492751968503937
 30
0.0
 10
0.5958543307086615
 20
-0.492751968503937
 30
0.0
 10
0.5958543307086615
 20
-0.492751968503937
 30
0.0
 10
0.589251968503937
 20
-0.4554488188976378
 30
0.0
 10
0.589251968503937
 20
-0.4554488188976378
 30
0.0
 10
0.589251968503937
 20
-0.4554488188976378
 30
0.0
 10
0.589251968503937
 20
-0.4554488188976378
 30
0.0
 10
-0.1553661417322835
 20
-0.4440669291338583
 30
0.0
 10
-0.1553661417322835
 20
-0.4440669291338583
 30
0.0
 10
-0.1553661417322835
 20
-0.4440669291338583
 30
0.0
 10
-0.1553661417322835
 20
-0.4440669291338583
 30
0.0
 10
-0.1487637795275591
 20
-0.4813700787401575
 30
0.0
 10
-0.1487637795275591
 20
-0.4813700787401575
 30
0.0
  0
SPLINE
  5
93
100
AcDbEntity
  8
Layer 1
 62
     9
100
AcDbSpline
210
0.0
220
0.0
230
1.0
 70
     1
 71
     3
 72
    20
 73
    16
 74
     0
 42
0.0000000001
 43
0.0000000001
 40
0.0
 40
0.0
 40
0.0
 40
0.0
 40
0.25
 40
0.25
 40
0.25
 40
0.25
 40
0.5
 40
0.5
 40
0.5
 40
0.5
 40
0.75
 40
0.75
 40
0.75
 40
0.75
 40
1.0
 40
1.0
 40
1.0
 40
1.0
 10
-0.1553661417322835
 20
-0.4440669291338583
 30
0.0
 10
-0.1553661417322835
 20
-0.4440669291338583
 30
0.0
 10
0.589251968503937
 20
-0.4554488188976378
 30
0.0
 10
0.589251968503937
 20
-0.4554488188976378
 30
0.0
 10
0.589251968503937
 20
-0.4554488188976378
 30
0.0
 10
0.589251968503937
 20
-0.4554488188976378
 30
0.0
 10
0.5845
 20
-0.4187716535433071
 30
0.0
 10
0.5845
 20
-0.4187716535433071
 30
0.0
 10
0.5845
 20
-0.4187716535433071
 30
0.0
 10
0.5845
 20
-0.4187716535433071
 30
0.0
 10
-0.1601181102362205
 20
-0.4073897637795276
 30
0.0
 10
-0.1601181102362205
 20
-0.4073897637795276
 30
0.0
 10
-0.1601181102362205
 20
-0.4073897637795276
 30
0.0
 10
-0.1601181102362205
 20
-0.4073897637795276
 30
0.0
 10
-0.1553661417322835
 20
-0.4440669291338583
 30
0.0
 10
-0.1553661417322835
 20
-0.4440669291338583
 30
0.0
  0
SPLINE
  5
94
100
AcDbEntity
  8
Layer 1
 62
     9
100
AcDbSpline
210
0.0
220
0.0
230
1.0
 70
     1
 71
     3
 72
    20
 73
    16
 74
     0
 42
0.0000000001
 43
0.0000000001
 40
0.0
 40
0.0
 40
0.0
 40
0.0
 40
0.25
 40
0.25
 40
0.25
 40
0.25
 40
0.5
 40
0.5
 40
0.5
 40
0.5
 40
0.75
 40
0.75
 40
0.75
 40
0.75
 40
1.0
 40
1.0
 40
1.0
 40
1.0
 10
-0.1601181102362205
 20
-0.4073897637795276
 30
0.0
 10
-0.1601181102362205
 20
-0.4073897637795276
 30
0.0
 10
0.5845
 20
-0.4187716535433071
 30
0.0
 10
0.5845
 20
-0.4187716535433071
 30
0.0
 10
0.5845
 20
-0.4187716535433071
 30
0.0
 10
0.5845
 20
-0.4187716535433071
 30
0.0
 10
0.5815551181102362
 20
-0.382751968503937
 30
0.0
 10
0.5815551181102362
 20
-0.382751968503937
 30
0.0
 10
0.5815551181102362
 20
-0.382751968503937
 30
0.0
 10
0.5815551181102362
 20
-0.382751968503937
 30
0.0
 10
-0.1630629921259843
 20
-0.3713700787401575
 30
0.0
 10
-0.1630629921259843
 20
-0.3713700787401575
 30
0.0
 10
-0.1630629921259843
 20
-0.3713700787401575
 30
0.0
 10
-0.1630629921259843
 20
-0.3713700787401575
 30
0.0
 10
-0.1601181102362205
 20
-0.4073897637795276
 30
0.0
 10
-0.1601181102362205
 20
-0.4073897637795276
 30
0.0
  0
SPLINE
  5
95
100
AcDbEntity
  8
Layer 1
 62
     9
100
AcDbSpline
210
0.0
220
0.0
230
1.0
 70
     1
 71
     3
 72
    20
 73
    16
 74
     0
 42
0.0000000001
 43
0.0000000001
 40
0.0
 40
0.0
 40
0.0
 40
0.0
 40
0.25
 40
0.25
 40
0.25
 40
0.25
 40
0.5
 40
0.5
 40
0.5
 40
0.5
 40
0.75
 40
0.75
 40
0.75
 40
0.75
 40
1.0
 40
1.0
 40
1.0
 40
1.0
 10
-0.1630629921259843
 20
-0.3713700787401575
 30
0.0
 10
-0.1630629921259843
 20
-0.3713700787401575
 30
0.0
 10
0.5815551181102362
 20
-0.382751968503937
 30
0.0
 10
0.5815551181102362
 20
-0.382751968503937
 30
0.0
 10
0.5815551181102362
 20
-0.382751968503937
 30
0.0
 10
0.5815551181102362
 20
-0.382751968503937
 30
0.0
 10
0.5803503937007875
 20
-0.3474409448818898
 30
0.0
 10
0.5803503937007875
 20
-0.3474409448818898
 30
0.0
 10
0.5803503937007875
 20
-0.3474409448818898
 30
0.0
 10
0.5803503937007875
 20
-0.3474409448818898
 30
0.0
 10
-0.1642677165354331
 20
-0.3360590551181102
 30
0.0
 10
-0.1642677165354331
 20
-0.3360590551181102
 30
0.0
 10
-0.1642677165354331
 20
-0.3360590551181102
 30
0.0
 10
-0.1642677165354331
 20
-0.3360590551181102
 30
0.0
 10
-0.1630629921259843
 20
-0.3713700787401575
 30
0.0
 10
-0.1630629921259843
 20
-0.3713700787401575
 30
0.0
  0
SPLINE
  5
96
100
AcDbEntity
  8
Layer 1
 62
     9
100
AcDbSpline
210
0.0
220
0.0
230
1.0
 70
     1
 71
     3
 72
    20
 73
    16
 74
     0
 42
0.0000000001
 43
0.0000000001
 40
0.0
 40
0.0
 40
0.0
 40
0.0
 40
0.25
 40
0.25
 40
0.25
 40
0.25
 40
0.5
 40
0.5
 40
0.5
 40
0.5
 40
0.75
 40
0.75
 40
0.75
 40
0.75
 40
1.0
 40
1.0
 40
1.0
 40
1.0
 10
-0.1642677165354331
 20
-0.3360590551181102
 30
0.0
 10
-0.1642677165354331
 20
-0.3360590551181102
 30
0.0
 10
0.5803503937007875
 20
-0.3474409448818898
 30
0.0
 10
0.5803503937007875
 20
-0.3474409448818898
 30
0.0
 10
0.5803503937007875
 20
-0.3474409448818898
 30
0.0
 10
0.5803503937007875
 20
-0.3474409448818898
 30
0.0
 10
0.5808385826771654
 20
-0.3128740157480315
 30
0.0
 10
0.5808385826771654
 20
-0.3128740157480315
 30
0.0
 10
0.5808385826771654
 20
-0.3128740157480315
 30
0.0
 10
0.5808385826771654
 20
-0.3128740157480315
 30
0.0
 10
-0.1637795275590551
 20
-0.301492125984252
 30
0.0
 10
-0.1637795275590551
 20
-0.301492125984252
 30
0.0
 10
-0.1637795275590551
 20
-0.301492125984252
 30
0.0
 10
-0.1637795275590551
 20
-0.301492125984252
 30
0.0
 10
-0.1642677165354331
 20
-0.3360590551181102
 30
0.0
 10
-0.1642677165354331
 20
-0.3360590551181102
 30
0.0
  0
SPLINE
  5
97
100
AcDbEntity
  8
Layer 1
 62
     9
100
AcDbSpline
210
0.0
220
0.0
230
1.0
 70
     1
 71
     3
 72
    20
 73
    16
 74
     0
 42
0.0000000001
 43
0.0000000001
 40
0.0
 40
0.0
 40
0.0
 40
0.0
 40
0.25
 40
0.25
 40
0.25
 40
0.25
 40
0.5
 40
0.5
 40
0.5
 40
0.5
 40
0.75
 40
0.75
 40
0.75
 40
0.75
 40
1.0
 40
1.0
 40
1.0
 40
1.0
 10
-0.1637795275590551
 20
-0.301492125984252
 30
0.0
 10
-0.1637795275590551
 20
-0.301492125984252
 30
0.0
 10
0.5808385826771654
 20
-0.3128740157480315
 30
0.0
 10
0.5808385826771654
 20
-0.3128740157480315
 30
0.0
 10
0.5808385826771654
 20
-0.3128740157480315
 30
0.0
 10
0.5808385826771654
 20
-0.3128740157480315
 30
0.0
 10
0.5829566929133858
 20
-0.2790944881889764
 30
0.0
 10
0.5829566929133858
 20
-0.2790944881889764
 30
0.0
 10
0.5829566929133858
 20
-0.2790944881889764
 30
0.0
 10
0.5829566929133858
 20
-0.2790944881889764
 30
0.0
 10
-0.1616614173228347
 20
-0.2677125984251969
 30
0.0
 10
-0.1616614173228347
 20
-0.2677125984251969
 30
0.0
 10
-0.1616614173228347
 20
-0.2677125984251969
 30
0.0
 10
-0.1616614173228347
 20
-0.2677125984251969
 30
0.0
 10
-0.1637795275590551
 20
-0.301492125984252
 30
0.0
 10
-0.1637795275590551
 20
-0.301492125984252
 30
0.0
  0
SPLINE
  5
98
100
AcDbEntity
  8
Layer 1
 62
     9
100
AcDbSpline
210
0.0
220
0.0
230
1.0
 70
     1
 71
     3
 72
    20
 73
    16
 74
     0
 42
0.0000000001
 43
0.0000000001
 40
0.0
 40
0.0
 40
0.0
 40
0.0
 40
0.25
 40
0.25
 40
0.25
 40
0.25
 40
0.5
 40
0.5
 40
0.5
 40
0.5
 40
0.75
 40
0.75
 40
0.75
 40
0.75
 40
1.0
 40
1.0
 40
1.0
 40
1.0
 10
-0.1616614173228347
 20
-0.2677125984251969
 30
0.0
 10
-0.1616614173228347
 20
-0.2677125984251969
 30
0.0
 10
0.5829566929133858
 20
-0.2790944881889764
 30
0.0
 10
0.5829566929133858
 20
-0.2790944881889764
 30
0.0
 10
0.5829566929133858
 20
-0.2790944881889764
 30
0.0
 10
0.5829566929133858
 20
-0.2790944881889764
 30
0.0
 10
0.5866653543307087
 20
-0.2461299212598425
 30
0.0
 10
0.5866653543307087
 20
-0.2461299212598425
 30
0.0
 10
0.5866653543307087
 20
-0.2461299212598425
 30
0.0
 10
0.5866653543307087
 20
-0.2461299212598425
 30
0.0
 10
-0.1579527559055118
 20
-0.234748031496063
 30
0.0
 10
-0.1579527559055118
 20
-0.234748031496063
 30
0.0
 10
-0.1579527559055118
 20
-0.234748031496063
 30
0.0
 10
-0.1579527559055118
 20
-0.234748031496063
 30
0.0
 10
-0.1616614173228347
 20
-0.2677125984251969
 30
0.0
 10
-0.1616614173228347
 20
-0.2677125984251969
 30
0.0
  0
SPLINE
  5
99
100
AcDbEntity
  8
Layer 1
 62
     9
100
AcDbSpline
210
0.0
220
0.0
230
1.0
 70
     1
 71
     3
 72
    20
 73
    16
 74
     0
 42
0.0000000001
 43
0.0000000001
 40
0.0
 40
0.0
 40
0.0
 40
0.0
 40
0.25
 40
0.25
 40
0.25
 40
0.25
 40
0.5
 40
0.5
 40
0.5
 40
0.5
 40
0.75
 40
0.75
 40
0.75
 40
0.75
 40
1.0
 40
1.0
 40
1.0
 40
1.0
 10
-0.1579527559055118
 20
-0.234748031496063
 30
0.0
 10
-0.1579527559055118
 20
-0.234748031496063
 30
0.0
 10
0.5866653543307087
 20
-0.2461299212598425
 30
0.0
 10
0.5866653543307087
 20
-0.2461299212598425
 30
0.0
 10
0.5866653543307087
 20
-0.2461299212598425
 30
0.0
 10
0.5866653543307087
 20
-0.2461299212598425
 30
0.0
 10
0.5918937007874016
 20
-0.2140354330708661
 30
0.0
 10
0.5918937007874016
 20
-0.2140354330708661
 30
0.0
 10
0.5918937007874016
 20
-0.2140354330708661
 30
0.0
 10
0.5918937007874016
 20
-0.2140354330708661
 30
0.0
 10
-0.1527244094488189
 20
-0.2026535433070866
 30
0.0
 10
-0.1527244094488189
 20
-0.2026535433070866
 30
0.0
 10
-0.1527244094488189
 20
-0.2026535433070866
 30
0.0
 10
-0.1527244094488189
 20
-0.2026535433070866
 30
0.0
 10
-0.1579527559055118
 20
-0.234748031496063
 30
0.0
 10
-0.1579527559055118
 20
-0.234748031496063
 30
0.0
  0
SPLINE
  5
9A
100
AcDbEntity
  8
Layer 1
 62
     9
100
AcDbSpline
210
0.0
220
0.0
230
1.0
 70
     1
 71
     3
 72
    20
 73
    16
 74
     0
 42
0.0000000001
 43
0.0000000001
 40
0.0
 40
0.0
 40
0.0
 40
0.0
 40
0.25
 40
0.25
 40
0.25
 40
0.25
 40
0.5
 40
0.5
 40
0.5
 40
0.5
 40
0.75
 40
0.75
 40
0.75
 40
0.75
 40
1.0
 40
1.0
 40
1.0
 40
1.0
 10
-0.1527244094488189
 20
-0.2026535433070866
 30
0.0
 10
-0.1527244094488189
 20
-0.2026535433070866
 30
0.0
 10
0.5918937007874016
 20
-0.2140354330708661
 30
0.0
 10
0.5918937007874016
 20
-0.2140354330708661
 30
0.0
 10
0.5918937007874016
 20
-0.2140354330708661
 30
0.0
 10
0.5918937007874016
 20
-0.2140354330708661
 30
0.0
 10
0.5985944881889764
 20
-0.1828425196850394
 30
0.0
 10
0.5985944881889764
 20
-0.1828425196850394
 30
0.0
 10
0.5985944881889764
 20
-0.1828425196850394
 30
0.0
 10
0.5985944881889764
 20
-0.1828425196850394
 30
0.0
 10
-0.1460236220472441
 20
-0.1714606299212599
 30
0.0
 10
-0.1460236220472441
 20
-0.1714606299212599
 30
0.0
 10
-0.1460236220472441
 20
-0.1714606299212599
 30
0.0
 10
-0.1460236220472441
 20
-0.1714606299212599
 30
0.0
 10
-0.1527244094488189
 20
-0.2026535433070866
 30
0.0
 10
-0.1527244094488189
 20
-0.2026535433070866
 30
0.0
  0
SPLINE
  5
9B
100
AcDbEntity
  8
Layer 1
 62
     9
100
AcDbSpline
210
0.0
220
0.0
230
1.0
 70
     1
 71
     3
 72
    20
 73
    16
 74
     0
 42
0.0000000001
 43
0.0000000001
 40
0.0
 40
0.0
 40
0.0
 40
0.0
 40
0.25
 40
0.25
 40
0.25
 40
0.25
 40
0.5
 40
0.5
 40
0.5
 40
0.5
 40
0.75
 40
0.75
 40
0.75
 40
0.75
 40
1.0
 40
1.0
 40
1.0
 40
1.0
 10
-0.1460236220472441
 20
-0.1714606299212599
 30
0.0
 10
-0.1460236220472441
 20
-0.1714606299212599
 30
0.0
 10
0.5985944881889764
 20
-0.1828425196850394
 30
0.0
 10
0.5985944881889764
 20
-0.1828425196850394
 30
0.0
 10
0.5985944881889764
 20
-0.1828425196850394
 30
0.0
 10
0.5985944881889764
 20
-0.1828425196850394
 30
0.0
 10
0.6067125984251969
 20
-0.1525984251968504
 30
0.0
 10
0.6067125984251969
 20
-0.1525984251968504
 30
0.0
 10
0.6067125984251969
 20
-0.1525984251968504
 30
0.0
 10
0.6067125984251969
 20
-0.1525984251968504
 30
0.0
 10
-0.1379055118110236
 20
-0.1412165354330709
 30
0.0
 10
-0.1379055118110236
 20
-0.1412165354330709
 30
0.0
 10
-0.1379055118110236
 20
-0.1412165354330709
 30
0.0
 10
-0.1379055118110236
 20
-0.1412165354330709
 30
0.0
 10
-0.1460236220472441
 20
-0.1714606299212599
 30
0.0
 10
-0.1460236220472441
 20
-0.1714606299212599
 30
0.0
  0
SPLINE
  5
9C
100
AcDbEntity
  8
Layer 1
 62
     9
100
AcDbSpline
210
0.0
220
0.0
230
1.0
 70
     1
 71
     3
 72
    20
 73
    16
 74
     0
 42
0.0000000001
 43
0.0000000001
 40
0.0
 40
0.0
 40
0.0
 40
0.0
 40
0.25
 40
0.25
 40
0.25
 40
0.25
 40
0.5
 40
0.5
 40
0.5
 40
0.5
 40
0.75
 40
0.75
 40
0.75
 40
0.75
 40
1.0
 40
1.0
 40
1.0
 40
1.0
 10
-0.1379055118110236
 20
-0.1412165354330709
 30
0.0
 10
-0.1379055118110236
 20
-0.1412165354330709
 30
0.0
 10
0.6067125984251969
 20
-0.1525984251968504
 30
0.0
 10
0.6067125984251969
 20
-0.1525984251968504
 30
0.0
 10
0.6067125984251969
 20
-0.1525984251968504
 30
0.0
 10
0.6067125984251969
 20
-0.1525984251968504
 30
0.0
 10
0.6161929133858268
 20
-0.1233307086614173
 30
0.0
 10
0.6161929133858268
 20
-0.1233307086614173
 30
0.0
 10
0.6161929133858268
 20
-0.1233307086614173
 30
0.0
 10
0.6161929133858268
 20
-0.1233307086614173
 30
0.0
 10
-0.1284251968503937
 20
-0.1119488188976378
 30
0.0
 10
-0.1284251968503937
 20
-0.1119488188976378
 30
0.0
 10
-0.1284251968503937
 20
-0.1119488188976378
 30
0.0
 10
-0.1284251968503937
 20
-0.1119488188976378
 30
0.0
 10
-0.1379055118110236
 20
-0.1412165354330709
 30
0.0
 10
-0.1379055118110236
 20
-0.1412165354330709
 30
0.0
  0
SPLINE
  5
9D
100
AcDbEntity
  8
Layer 1
 62
     9
100
AcDbSpline
210
0.0
220
0.0
230
1.0
 70
     1
 71
     3
 72
    20
 73
    16
 74
     0
 42
0.0000000001
 43
0.0000000001
 40
0.0
 40
0.0
 40
0.0
 40
0.0
 40
0.25
 40
0.25
 40
0.25
 40
0.25
 40
0.5
 40
0.5
 40
0.5
 40
0.5
 40
0.75
 40
0.75
 40
0.75
 40
0.75
 40
1.0
 40
1.0
 40
1.0
 40
1.0
 10
-0.1284251968503937
 20
-0.1119488188976378
 30
0.0
 10
-0.1284251968503937
 20
-0.1119488188976378
 30
0.0
 10
0.6161929133858268
 20
-0.1233307086614173
 30
0.0
 10
0.6161929133858268
 20
-0.1233307086614173
 30
0.0
 10
0.6161929133858268
 20
-0.1233307086614173
 30
0.0
 10
0.6161929133858268
 20
-0.1233307086614173
 30
0.0
 10
0.6269803149606299
 20
-0.0950866141732283
 30
0.0
 10
0.6269803149606299
 20
-0.0950866141732283
 30
0.0
 10
0.6269803149606299
 20
-0.0950866141732283
 30
0.0
 10
0.6269803149606299
 20
-0.0950866141732283
 30
0.0
 10
-0.1176377952755906
 20
-0.0837047244094488
 30
0.0
 10
-0.1176377952755906
 20
-0.0837047244094488
 30
0.0
 10
-0.1176377952755906
 20
-0.0837047244094488
 30
0.0
 10
-0.1176377952755906
 20
-0.0837047244094488
 30
0.0
 10
-0.1284251968503937
 20
-0.1119488188976378
 30
0.0
 10
-0.1284251968503937
 20
-0.1119488188976378
 30
0.0
  0
SPLINE
  5
9E
100
AcDbEntity
  8
Layer 1
 62
     9
100
AcDbSpline
210
0.0
220
0.0
230
1.0
 70
     1
 71
     3
 72
    20
 73
    16
 74
     0
 42
0.0000000001
 43
0.0000000001
 40
0.0
 40
0.0
 40
0.0
 40
0.0
 40
0.25
 40
0.25
 40
0.25
 40
0.25
 40
0.5
 40
0.5
 40
0.5
 40
0.5
 40
0.75
 40
0.75
 40
0.75
 40
0.75
 40
1.0
 40
1.0
 40
1.0
 40
1.0
 10
-0.1176377952755906
 20
-0.0837047244094488
 30
0.0
 10
-0.1176377952755906
 20
-0.0837047244094488
 30
0.0
 10
0.6269803149606299
 20
-0.0950866141732283
 30
0.0
 10
0.6269803149606299
 20
-0.0950866141732283
 30
0.0
 10
0.6269803149606299
 20
-0.0950866141732283
 30
0.0
 10
0.6269803149606299
 20
-0.0950866141732283
 30
0.0
 10
0.6390196850393701
 20
-0.0679055118110236
 30
0.0
 10
0.6390196850393701
 20
-0.0679055118110236
 30
0.0
 10
0.6390196850393701
 20
-0.0679055118110236
 30
0.0
 10
0.6390196850393701
 20
-0.0679055118110236
 30
0.0
 10
-0.1055984251968504
 20
-0.0565236220472441
 30
0.0
 10
-0.1055984251968504
 20
-0.0565236220472441
 30
0.0
 10
-0.1055984251968504
 20
-0.0565236220472441
 30
0.0
 10
-0.1055984251968504
 20
-0.0565236220472441
 30
0.0
 10
-0.1176377952755906
 20
-0.0837047244094488
 30
0.0
 10
-0.1176377952755906
 20
-0.0837047244094488
 30
0.0
  0
SPLINE
  5
9F
100
AcDbEntity
  8
Layer 1
 62
     9
100
AcDbSpline
210
0.0
220
0.0
230
1.0
 70
     1
 71
     3
 72
    20
 73
    16
 74
     0
 42
0.0000000001
 43
0.0000000001
 40
0.0
 40
0.0
 40
0.0
 40
0.0
 40
0.25
 40
0.25
 40
0.25
 40
0.25
 40
0.5
 40
0.5
 40
0.5
 40
0.5
 40
0.75
 40
0.75
 40
0.75
 40
0.75
 40
1.0
 40
1.0
 40
1.0
 40
1.0
 10
-0.1055984251968504
 20
-0.0565236220472441
 30
0.0
 10
-0.1055984251968504
 20
-0.0565236220472441
 30
0.0
 10
0.6390196850393701
 20
-0.0679055118110236
 30
0.0
 10
0.6390196850393701
 20
-0.0679055118110236
 30
0.0
 10
0.6390196850393701
 20
-0.0679055118110236
 30
0.0
 10
0.6390196850393701
 20
-0.0679055118110236
 30
0.0
 10
0.6522637795275591
 20
-0.0418385826771654
 30
0.0
 10
0.6522637795275591
 20
-0.0418385826771654
 30
0.0
 10
0.6522637795275591
 20
-0.0418385826771654
 30
0.0
 10
0.6522637795275591
 20
-0.0418385826771654
 30
0.0
 10
-0.0923543307086614
 20
-0.0304566929133858
 30
0.0
 10
-0.0923543307086614
 20
-0.0304566929133858
 30
0.0
 10
-0.0923543307086614
 20
-0.0304566929133858
 30
0.0
 10
-0.0923543307086614
 20
-0.0304566929133858
 30
0.0
 10
-0.1055984251968504
 20
-0.0565236220472441
 30
0.0
 10
-0.1055984251968504
 20
-0.0565236220472441
 30
0.0
  0
SPLINE
  5
A0
100
AcDbEntity
  8
Layer 1
 62
     9
100
AcDbSpline
210
0.0
220
0.0
230
1.0
 70
     1
 71
     3
 72
    20
 73
    16
 74
     0
 42
0.0000000001
 43
0.0000000001
 40
0.0
 40
0.0
 40
0.0
 40
0.0
 40
0.25
 40
0.25
 40
0.25
 40
0.25
 40
0.5
 40
0.5
 40
0.5
 40
0.5
 40
0.75
 40
0.75
 40
0.75
 40
0.75
 40
1.0
 40
1.0
 40
1.0
 40
1.0
 10
-0.0923543307086614
 20
-0.0304566929133858
 30
0.0
 10
-0.0923543307086614
 20
-0.0304566929133858
 30
0.0
 10
0.6522637795275591
 20
-0.0418385826771654
 30
0.0
 10
0.6522637795275591
 20
-0.0418385826771654
 30
0.0
 10
0.6522637795275591
 20
-0.0418385826771654
 30
0.0
 10
0.6522637795275591
 20
-0.0418385826771654
 30
0.0
 10
0.6666417322834646
 20
-0.0169055118110236
 30
0.0
 10
0.6666417322834646
 20
-0.0169055118110236
 30
0.0
 10
0.6666417322834646
 20
-0.0169055118110236
 30
0.0
 10
0.6666417322834646
 20
-0.0169055118110236
 30
0.0
 10
-0.0779763779527559
 20
-0.0055236220472441
 30
0.0
 10
-0.0779763779527559
 20
-0.0055236220472441
 30
0.0
 10
-0.0779763779527559
 20
-0.0055236220472441
 30
0.0
 10
-0.0779763779527559
 20
-0.0055236220472441
 30
0.0
 10
-0.0923543307086614
 20
-0.0304566929133858
 30
0.0
 10
-0.0923543307086614
 20
-0.0304566929133858
 30
0.0
  0
SPLINE
  5
A1
100
AcDbEntity
  8
Layer 1
 62
     9
100
AcDbSpline
210
0.0
220
0.0
230
1.0
 70
     1
 71
     3
 72
    20
 73
    16
 74
     0
 42
0.0000000001
 43
0.0000000001
 40
0.0
 40
0.0
 40
0.0
 40
0.0
 40
0.25
 40
0.25
 40
0.25
 40
0.25
 40
0.5
 40
0.5
 40
0.5
 40
0.5
 40
0.75
 40
0.75
 40
0.75
 40
0.75
 40
1.0
 40
1.0
 40
1.0
 40
1.0
 10
-0.0779763779527559
 20
-0.0055236220472441
 30
0.0
 10
-0.0779763779527559
 20
-0.0055236220472441
 30
0.0
 10
0.6666417322834646
 20
-0.0169055118110236
 30
0.0
 10
0.6666417322834646
 20
-0.0169055118110236
 30
0.0
 10
0.6666417322834646
 20
-0.0169055118110236
 30
0.0
 10
0.6666417322834646
 20
-0.0169055118110236
 30
0.0
 10
0.6821102362204725
 20
0.0068425196850394
 30
0.0
 10
0.6821102362204725
 20
0.0068425196850394
 30
0.0
 10
0.6821102362204725
 20
0.0068425196850394
 30
0.0
 10
0.6821102362204725
 20
0.0068425196850394
 30
0.0
 10
-0.062507874015748
 20
0.0182244094488189
 30
0.0
 10
-0.062507874015748
 20
0.0182244094488189
 30
0.0
 10
-0.062507874015748
 20
0.0182244094488189
 30
0.0
 10
-0.062507874015748
 20
0.0182244094488189
 30
0.0
 10
-0.0779763779527559
 20
-0.0055236220472441
 30
0.0
 10
-0.0779763779527559
 20
-0.0055236220472441
 30
0.0
  0
SPLINE
  5
A2
100
AcDbEntity
  8
Layer 1
 62
     9
100
AcDbSpline
210
0.0
220
0.0
230
1.0
 70
     1
 71
     3
 72
    20
 73
    16
 74
     0
 42
0.0000000001
 43
0.0000000001
 40
0.0
 40
0.0
 40
0.0
 40
0.0
 40
0.25
 40
0.25
 40
0.25
 40
0.25
 40
0.5
 40
0.5
 40
0.5
 40
0.5
 40
0.75
 40
0.75
 40
0.75
 40
0.75
 40
1.0
 40
1.0
 40
1.0
 40
1.0
 10
-0.062507874015748
 20
0.0182244094488189
 30
0.0
 10
-0.062507874015748
 20
0.0182244094488189
 30
0.0
 10
0.6821102362204725
 20
0.0068425196850394
 30
0.0
 10
0.6821102362204725
 20
0.0068425196850394
 30
0.0
 10
0.6821102362204725
 20
0.0068425196850394
 30
0.0
 10
0.6821102362204725
 20
0.0068425196850394
 30
0.0
 10
0.6986102362204725
 20
0.0293661417322835
 30
0.0
 10
0.6986102362204725
 20
0.0293661417322835
 30
0.0
 10
0.6986102362204725
 20
0.0293661417322835
 30
0.0
 10
0.6986102362204725
 20
0.0293661417322835
 30
0.0
 10
-0.046007874015748
 20
0.040748031496063
 30
0.0
 10
-0.046007874015748
 20
0.040748031496063
 30
0.0
 10
-0.046007874015748
 20
0.040748031496063
 30
0.0
 10
-0.046007874015748
 20
0.040748031496063
 30
0.0
 10
-0.062507874015748
 20
0.0182244094488189
 30
0.0
 10
-0.062507874015748
 20
0.0182244094488189
 30
0.0
  0
SPLINE
  5
A3
100
AcDbEntity
  8
Layer 1
 62
     9
100
AcDbSpline
210
0.0
220
0.0
230
1.0
 70
     1
 71
     3
 72
    20
 73
    16
 74
     0
 42
0.0000000001
 43
0.0000000001
 40
0.0
 40
0.0
 40
0.0
 40
0.0
 40
0.25
 40
0.25
 40
0.25
 40
0.25
 40
0.5
 40
0.5
 40
0.5
 40
0.5
 40
0.75
 40
0.75
 40
0.75
 40
0.75
 40
1.0
 40
1.0
 40
1.0
 40
1.0
 10
-0.046007874015748
 20
0.040748031496063
 30
0.0
 10
-0.046007874015748
 20
0.040748031496063
 30
0.0
 10
0.6986102362204725
 20
0.0293661417322835
 30
0.0
 10
0.6986102362204725
 20
0.0293661417322835
 30
0.0
 10
0.6986102362204725
 20
0.0293661417322835
 30
0.0
 10
0.6986102362204725
 20
0.0293661417322835
 30
0.0
 10
0.7160944881889764
 20
0.0506377952755906
 30
0.0
 10
0.7160944881889764
 20
0.0506377952755906
 30
0.0
 10
0.7160944881889764
 20
0.0506377952755906
 30
0.0
 10
0.7160944881889764
 20
0.0506377952755906
 30
0.0
 10
-0.0285236220472441
 20
0.0620196850393701
 30
0.0
 10
-0.0285236220472441
 20
0.0620196850393701
 30
0.0
 10
-0.0285236220472441
 20
0.0620196850393701
 30
0.0
 10
-0.0285236220472441
 20
0.0620196850393701
 30
0.0
 10
-0.046007874015748
 20
0.040748031496063
 30
0.0
 10
-0.046007874015748
 20
0.040748031496063
 30
0.0
  0
SPLINE
  5
A4
100
AcDbEntity
  8
Layer 1
 62
     9
100
AcDbSpline
210
0.0
220
0.0
230
1.0
 70
     1
 71
     3
 72
    20
 73
    16
 74
     0
 42
0.0000000001
 43
0.0000000001
 40
0.0
 40
0.0
 40
0.0
 40
0.0
 40
0.25
 40
0.25
 40
0.25
 40
0.25
 40
0.5
 40
0.5
 40
0.5
 40
0.5
 40
0.75
 40
0.75
 40
0.75
 40
0.75
 40
1.0
 40
1.0
 40
1.0
 40
1.0
 10
-0.0285236220472441
 20
0.0620196850393701
 30
0.0
 10
-0.0285236220472441
 20
0.0620196850393701
 30
0.0
 10
0.7160944881889764
 20
0.0506377952755906
 30
0.0
 10
0.7160944881889764
 20
0.0506377952755906
 30
0.0
 10
0.7160944881889764
 20
0.0506377952755906
 30
0.0
 10
0.7160944881889764
 20
0.0506377952755906
 30
0.0
 10
0.734496062992126
 20
0.0705984251968504
 30
0.0
 10
0.734496062992126
 20
0.0705984251968504
 30
0.0
 10
0.734496062992126
 20
0.0705984251968504
 30
0.0
 10
0.734496062992126
 20
0.0705984251968504
 30
0.0
 10
-0.0101220472440945
 20
0.0819803149606299
 30
0.0
 10
-0.0101220472440945
 20
0.0819803149606299
 30
0.0
 10
-0.0101220472440945
 20
0.0819803149606299
 30
0.0
 10
-0.0101220472440945
 20
0.0819803149606299
 30
0.0
 10
-0.0285236220472441
 20
0.0620196850393701
 30
0.0
 10
-0.0285236220472441
 20
0.0620196850393701
 30
0.0
  0
SPLINE
  5
A5
100
AcDbEntity
  8
Layer 1
 62
     9
100
AcDbSpline
210
0.0
220
0.0
230
1.0
 70
     1
 71
     3
 72
    20
 73
    16
 74
     0
 42
0.0000000001
 43
0.0000000001
 40
0.0
 40
0.0
 40
0.0
 40
0.0
 40
0.25
 40
0.25
 40
0.25
 40
0.25
 40
0.5
 40
0.5
 40
0.5
 40
0.5
 40
0.75
 40
0.75
 40
0.75
 40
0.75
 40
1.0
 40
1.0
 40
1.0
 40
1.0
 10
-0.0101220472440945
 20
0.0819803149606299
 30
0.0
 10
-0.0101220472440945
 20
0.0819803149606299
 30
0.0
 10
0.734496062992126
 20
0.0705984251968504
 30
0.0
 10
0.734496062992126
 20
0.0705984251968504
 30
0.0
 10
0.734496062992126
 20
0.0705984251968504
 30
0.0
 10
0.734496062992126
 20
0.0705984251968504
 30
0.0
 10
0.7537716535433071
 20
0.0892204724409449
 30
0.0
 10
0.7537716535433071
 20
0.0892204724409449
 30
0.0
 10
0.7537716535433071
 20
0.0892204724409449
 30
0.0
 10
0.7537716535433071
 20
0.0892204724409449
 30
0.0
 10
0.0091535433070866
 20
0.1006023622047244
 30
0.0
 10
0.0091535433070866
 20
0.1006023622047244
 30
0.0
 10
0.0091535433070866
 20
0.1006023622047244
 30
0.0
 10
0.0091535433070866
 20
0.1006023622047244
 30
0.0
 10
-0.0101220472440945
 20
0.0819803149606299
 30
0.0
 10
-0.0101220472440945
 20
0.0819803149606299
 30
0.0
  0
SPLINE
  5
A6
100
AcDbEntity
  8
Layer 1
 62
     9
100
AcDbSpline
210
0.0
220
0.0
230
1.0
 70
     1
 71
     3
 72
    20
 73
    16
 74
     0
 42
0.0000000001
 43
0.0000000001
 40
0.0
 40
0.0
 40
0.0
 40
0.0
 40
0.25
 40
0.25
 40
0.25
 40
0.25
 40
0.5
 40
0.5
 40
0.5
 40
0.5
 40
0.75
 40
0.75
 40
0.75
 40
0.75
 40
1.0
 40
1.0
 40
1.0
 40
1.0
 10
0.0091535433070866
 20
0.1006023622047244
 30
0.0
 10
0.0091535433070866
 20
0.1006023622047244
 30
0.0
 10
0.7537716535433071
 20
0.0892204724409449
 30
0.0
 10
0.7537716535433071
 20
0.0892204724409449
 30
0.0
 10
0.7537716535433071
 20
0.0892204724409449
 30
0.0
 10
0.7537716535433071
 20
0.0892204724409449
 30
0.0
 10
0.7738543307086615
 20
0.1064606299212599
 30
0.0
 10
0.7738543307086615
 20
0.1064606299212599
 30
0.0
 10
0.7738543307086615
 20
0.1064606299212599
 30
0.0
 10
0.7738543307086615
 20
0.1064606299212599
 30
0.0
 10
0.0292362204724409
 20
0.1178425196850394
 30
0.0
 10
0.0292362204724409
 20
0.1178425196850394
 30
0.0
 10
0.0292362204724409
 20
0.1178425196850394
 30
0.0
 10
0.0292362204724409
 20
0.1178425196850394
 30
0.0
 10
0.0091535433070866
 20
0.1006023622047244
 30
0.0
 10
0.0091535433070866
 20
0.1006023622047244
 30
0.0
  0
SPLINE
  5
A7
100
AcDbEntity
  8
Layer 1
 62
     9
100
AcDbSpline
210
0.0
220
0.0
230
1.0
 70
     1
 71
     3
 72
    20
 73
    16
 74
     0
 42
0.0000000001
 43
0.0000000001
 40
0.0
 40
0.0
 40
0.0
 40
0.0
 40
0.25
 40
0.25
 40
0.25
 40
0.25
 40
0.5
 40
0.5
 40
0.5
 40
0.5
 40
0.75
 40
0.75
 40
0.75
 40
0.75
 40
1.0
 40
1.0
 40
1.0
 40
1.0
 10
0.0292362204724409
 20
0.1178425196850394
 30
0.0
 10
0.0292362204724409
 20
0.1178425196850394
 30
0.0
 10
0.7738543307086615
 20
0.1064606299212599
 30
0.0
 10
0.7738543307086615
 20
0.1064606299212599
 30
0.0
 10
0.7738543307086615
 20
0.1064606299212599
 30
0.0
 10
0.7738543307086615
 20
0.1064606299212599
 30
0.0
 10
0.7947047244094488
 20
0.1222834645669291
 30
0.0
 10
0.7947047244094488
 20
0.1222834645669291
 30
0.0
 10
0.7947047244094488
 20
0.1222834645669291
 30
0.0
 10
0.7947047244094488
 20
0.1222834645669291
 30
0.0
 10
0.0500866141732284
 20
0.1336653543307087
 30
0.0
 10
0.0500866141732284
 20
0.1336653543307087
 30
0.0
 10
0.0500866141732284
 20
0.1336653543307087
 30
0.0
 10
0.0500866141732284
 20
0.1336653543307087
 30
0.0
 10
0.0292362204724409
 20
0.1178425196850394
 30
0.0
 10
0.0292362204724409
 20
0.1178425196850394
 30
0.0
  0
SPLINE
  5
A8
100
AcDbEntity
  8
Layer 1
 62
     9
100
AcDbSpline
210
0.0
220
0.0
230
1.0
 70
     1
 71
     3
 72
    20
 73
    16
 74
     0
 42
0.0000000001
 43
0.0000000001
 40
0.0
 40
0.0
 40
0.0
 40
0.0
 40
0.25
 40
0.25
 40
0.25
 40
0.25
 40
0.5
 40
0.5
 40
0.5
 40
0.5
 40
0.75
 40
0.75
 40
0.75
 40
0.75
 40
1.0
 40
1.0
 40
1.0
 40
1.0
 10
0.0500866141732284
 20
0.1336653543307087
 30
0.0
 10
0.0500866141732284
 20
0.1336653543307087
 30
0.0
 10
0.7947047244094488
 20
0.1222834645669291
 30
0.0
 10
0.7947047244094488
 20
0.1222834645669291
 30
0.0
 10
0.7947047244094488
 20
0.1222834645669291
 30
0.0
 10
0.7947047244094488
 20
0.1222834645669291
 30
0.0
 10
0.816251968503937
 20
0.1366377952755906
 30
0.0
 10
0.816251968503937
 20
0.1366377952755906
 30
0.0
 10
0.816251968503937
 20
0.1366377952755906
 30
0.0
 10
0.816251968503937
 20
0.1366377952755906
 30
0.0
 10
0.0716338582677165
 20
0.1480196850393701
 30
0.0
 10
0.0716338582677165
 20
0.1480196850393701
 30
0.0
 10
0.0716338582677165
 20
0.1480196850393701
 30
0.0
 10
0.0716338582677165
 20
0.1480196850393701
 30
0.0
 10
0.0500866141732284
 20
0.1336653543307087
 30
0.0
 10
0.0500866141732284
 20
0.1336653543307087
 30
0.0
  0
SPLINE
  5
A9
100
AcDbEntity
  8
Layer 1
 62
     9
100
AcDbSpline
210
0.0
220
0.0
230
1.0
 70
     1
 71
     3
 72
    20
 73
    16
 74
     0
 42
0.0000000001
 43
0.0000000001
 40
0.0
 40
0.0
 40
0.0
 40
0.0
 40
0.25
 40
0.25
 40
0.25
 40
0.25
 40
0.5
 40
0.5
 40
0.5
 40
0.5
 40
0.75
 40
0.75
 40
0.75
 40
0.75
 40
1.0
 40
1.0
 40
1.0
 40
1.0
 10
0.0716338582677165
 20
0.1480196850393701
 30
0.0
 10
0.0716338582677165
 20
0.1480196850393701
 30
0.0
 10
0.816251968503937
 20
0.1366377952755906
 30
0.0
 10
0.816251968503937
 20
0.1366377952755906
 30
0.0
 10
0.816251968503937
 20
0.1366377952755906
 30
0.0
 10
0.816251968503937
 20
0.1366377952755906
 30
0.0
 10
0.8384488188976378
 20
0.149492125984252
 30
0.0
 10
0.8384488188976378
 20
0.149492125984252
 30
0.0
 10
0.8384488188976378
 20
0.149492125984252
 30
0.0
 10
0.8384488188976378
 20
0.149492125984252
 30
0.0
 10
0.0938307086614173
 20
0.1608740157480315
 30
0.0
 10
0.0938307086614173
 20
0.1608740157480315
 30
0.0
 10
0.0938307086614173
 20
0.1608740157480315
 30
0.0
 10
0.0938307086614173
 20
0.1608740157480315
 30
0.0
 10
0.0716338582677165
 20
0.1480196850393701
 30
0.0
 10
0.0716338582677165
 20
0.1480196850393701
 30
0.0
  0
SPLINE
  5
AA
100
AcDbEntity
  8
Layer 1
 62
     9
100
AcDbSpline
210
0.0
220
0.0
230
1.0
 70
     1
 71
     3
 72
    20
 73
    16
 74
     0
 42
0.0000000001
 43
0.0000000001
 40
0.0
 40
0.0
 40
0.0
 40
0.0
 40
0.25
 40
0.25
 40
0.25
 40
0.25
 40
0.5
 40
0.5
 40
0.5
 40
0.5
 40
0.75
 40
0.75
 40
0.75
 40
0.75
 40
1.0
 40
1.0
 40
1.0
 40
1.0
 10
0.0938307086614173
 20
0.1608740157480315
 30
0.0
 10
0.0938307086614173
 20
0.1608740157480315
 30
0.0
 10
0.8384488188976378
 20
0.149492125984252
 30
0.0
 10
0.8384488188976378
 20
0.149492125984252
 30
0.0
 10
0.8384488188976378
 20
0.149492125984252
 30
0.0
 10
0.8384488188976378
 20
0.149492125984252
 30
0.0
 10
0.861240157480315
 20
0.1608070866141732
 30
0.0
 10
0.861240157480315
 20
0.1608070866141732
 30
0.0
 10
0.861240157480315
 20
0.1608070866141732
 30
0.0
 10
0.861240157480315
 20
0.1608070866141732
 30
0.0
 10
0.1166220472440945
 20
0.1721889763779528
 30
0.0
 10
0.1166220472440945
 20
0.1721889763779528
 30
0.0
 10
0.1166220472440945
 20
0.1721889763779528
 30
0.0
 10
0.1166220472440945
 20
0.1721889763779528
 30
0.0
 10
0.0938307086614173
 20
0.1608740157480315
 30
0.0
 10
0.0938307086614173
 20
0.1608740157480315
 30
0.0
  0
SPLINE
  5
AB
100
AcDbEntity
  8
Layer 1
 62
     9
100
AcDbSpline
210
0.0
220
0.0
230
1.0
 70
     1
 71
     3
 72
    20
 73
    16
 74
     0
 42
0.0000000001
 43
0.0000000001
 40
0.0
 40
0.0
 40
0.0
 40
0.0
 40
0.25
 40
0.25
 40
0.25
 40
0.25
 40
0.5
 40
0.5
 40
0.5
 40
0.5
 40
0.75
 40
0.75
 40
0.75
 40
0.75
 40
1.0
 40
1.0
 40
1.0
 40
1.0
 10
0.1166220472440945
 20
0.1721889763779528
 30
0.0
 10
0.1166220472440945
 20
0.1721889763779528
 30
0.0
 10
0.861240157480315
 20
0.1608070866141732
 30
0.0
 10
0.861240157480315
 20
0.1608070866141732
 30
0.0
 10
0.861240157480315
 20
0.1608070866141732
 30
0.0
 10
0.861240157480315
 20
0.1608070866141732
 30
0.0
 10
0.8845787401574804
 20
0.1705433070866142
 30
0.0
 10
0.8845787401574804
 20
0.1705433070866142
 30
0.0
 10
0.8845787401574804
 20
0.1705433070866142
 30
0.0
 10
0.8845787401574804
 20
0.1705433070866142
 30
0.0
 10
0.1399606299212599
 20
0.1819251968503937
 30
0.0
 10
0.1399606299212599
 20
0.1819251968503937
 30
0.0
 10
0.1399606299212599
 20
0.1819251968503937
 30
0.0
 10
0.1399606299212599
 20
0.1819251968503937
 30
0.0
 10
0.1166220472440945
 20
0.1721889763779528
 30
0.0
 10
0.1166220472440945
 20
0.1721889763779528
 30
0.0
  0
SPLINE
  5
AC
100
AcDbEntity
  8
Layer 1
 62
     9
100
AcDbSpline
210
0.0
220
0.0
230
1.0
 70
     1
 71
     3
 72
    20
 73
    16
 74
     0
 42
0.0000000001
 43
0.0000000001
 40
0.0
 40
0.0
 40
0.0
 40
0.0
 40
0.25
 40
0.25
 40
0.25
 40
0.25
 40
0.5
 40
0.5
 40
0.5
 40
0.5
 40
0.75
 40
0.75
 40
0.75
 40
0.75
 40
1.0
 40
1.0
 40
1.0
 40
1.0
 10
0.1399606299212599
 20
0.1819251968503937
 30
0.0
 10
0.1399606299212599
 20
0.1819251968503937
 30
0.0
 10
0.8845787401574804
 20
0.1705433070866142
 30
0.0
 10
0.8845787401574804
 20
0.1705433070866142
 30
0.0
 10
0.8845787401574804
 20
0.1705433070866142
 30
0.0
 10
0.8845787401574804
 20
0.1705433070866142
 30
0.0
 10
0.9083937007874016
 20
0.1786496062992126
 30
0.0
 10
0.9083937007874016
 20
0.1786496062992126
 30
0.0
 10
0.9083937007874016
 20
0.1786496062992126
 30
0.0
 10
0.9083937007874016
 20
0.1786496062992126
 30
0.0
 10
0.1637755905511811
 20
0.1900314960629921
 30
0.0
 10
0.1637755905511811
 20
0.1900314960629921
 30
0.0
 10
0.1637755905511811
 20
0.1900314960629921
 30
0.0
 10
0.1637755905511811
 20
0.1900314960629921
 30
0.0
 10
0.1399606299212599
 20
0.1819251968503937
 30
0.0
 10
0.1399606299212599
 20
0.1819251968503937
 30
0.0
  0
SPLINE
  5
AD
100
AcDbEntity
  8
Layer 1
 62
   253
100
AcDbSpline
210
0.0
220
0.0
230
1.0
 70
     1
 71
     3
 72
    20
 73
    16
 74
     0
 42
0.0000000001
 43
0.0000000001
 40
0.0
 40
0.0
 40
0.0
 40
0.0
 40
0.25
 40
0.25
 40
0.25
 40
0.25
 40
0.5
 40
0.5
 40
0.5
 40
0.5
 40
0.75
 40
0.75
 40
0.75
 40
0.75
 40
1.0
 40
1.0
 40
1.0
 40
1.0
 10
0.1637755905511811
 20
0.1900314960629921
 30
0.0
 10
0.1637755905511811
 20
0.1900314960629921
 30
0.0
 10
0.9083937007874016
 20
0.1786496062992126
 30
0.0
 10
0.9083937007874016
 20
0.1786496062992126
 30
0.0
 10
0.9083937007874016
 20
0.1786496062992126
 30
0.0
 10
0.9083937007874016
 20
0.1786496062992126
 30
0.0
 10
0.9326456692913386
 20
0.1851023622047244
 30
0.0
 10
0.9326456692913386
 20
0.1851023622047244
 30
0.0
 10
0.9326456692913386
 20
0.1851023622047244
 30
0.0
 10
0.9326456692913386
 20
0.1851023622047244
 30
0.0
 10
0.1880275590551181
 20
0.1964842519685039
 30
0.0
 10
0.1880275590551181
 20
0.1964842519685039
 30
0.0
 10
0.1880275590551181
 20
0.1964842519685039
 30
0.0
 10
0.1880275590551181
 20
0.1964842519685039
 30
0.0
 10
0.1637755905511811
 20
0.1900314960629921
 30
0.0
 10
0.1637755905511811
 20
0.1900314960629921
 30
0.0
  0
SPLINE
  5
AE
100
AcDbEntity
  8
Layer 1
 62
   253
100
AcDbSpline
210
0.0
220
0.0
230
1.0
 70
     1
 71
     3
 72
    20
 73
    16
 74
     0
 42
0.0000000001
 43
0.0000000001
 40
0.0
 40
0.0
 40
0.0
 40
0.0
 40
0.25
 40
0.25
 40
0.25
 40
0.25
 40
0.5
 40
0.5
 40
0.5
 40
0.5
 40
0.75
 40
0.75
 40
0.75
 40
0.75
 40
1.0
 40
1.0
 40
1.0
 40
1.0
 10
0.1880275590551181
 20
0.1964842519685039
 30
0.0
 10
0.1880275590551181
 20
0.1964842519685039
 30
0.0
 10
0.9326456692913386
 20
0.1851023622047244
 30
0.0
 10
0.9326456692913386
 20
0.1851023622047244
 30
0.0
 10
0.9326456692913386
 20
0.1851023622047244
 30
0.0
 10
0.9326456692913386
 20
0.1851023622047244
 30
0.0
 10
0.9572677165354331
 20
0.1898543307086614
 30
0.0
 10
0.9572677165354331
 20
0.1898543307086614
 30
0.0
 10
0.9572677165354331
 20
0.1898543307086614
 30
0.0
 10
0.9572677165354331
 20
0.1898543307086614
 30
0.0
 10
0.2126496062992126
 20
0.2012362204724409
 30
0.0
 10
0.2126496062992126
 20
0.2012362204724409
 30
0.0
 10
0.2126496062992126
 20
0.2012362204724409
 30
0.0
 10
0.2126496062992126
 20
0.2012362204724409
 30
0.0
 10
0.1880275590551181
 20
0.1964842519685039
 30
0.0
 10
0.1880275590551181
 20
0.1964842519685039
 30
0.0
  0
SPLINE
  5
AF
100
AcDbEntity
  8
Layer 1
 62
   253
100
AcDbSpline
210
0.0
220
0.0
230
1.0
 70
     1
 71
     3
 72
    20
 73
    16
 74
     0
 42
0.0000000001
 43
0.0000000001
 40
0.0
 40
0.0
 40
0.0
 40
0.0
 40
0.25
 40
0.25
 40
0.25
 40
0.25
 40
0.5
 40
0.5
 40
0.5
 40
0.5
 40
0.75
 40
0.75
 40
0.75
 40
0.75
 40
1.0
 40
1.0
 40
1.0
 40
1.0
 10
0.2126496062992126
 20
0.2012362204724409
 30
0.0
 10
0.2126496062992126
 20
0.2012362204724409
 30
0.0
 10
0.9572677165354331
 20
0.1898543307086614
 30
0.0
 10
0.9572677165354331
 20
0.1898543307086614
 30
0.0
 10
0.9572677165354331
 20
0.1898543307086614
 30
0.0
 10
0.9572677165354331
 20
0.1898543307086614
 30
0.0
 10
0.9822165354330709
 20
0.1928700787401575
 30
0.0
 10
0.9822165354330709
 20
0.1928700787401575
 30
0.0
 10
0.9822165354330709
 20
0.1928700787401575
 30
0.0
 10
0.9822165354330709
 20
0.1928700787401575
 30
0.0
 10
0.2375984251968504
 20
0.204251968503937
 30
0.0
 10
0.2375984251968504
 20
0.204251968503937
 30
0.0
 10
0.2375984251968504
 20
0.204251968503937
 30
0.0
 10
0.2375984251968504
 20
0.204251968503937
 30
0.0
 10
0.2126496062992126
 20
0.2012362204724409
 30
0.0
 10
0.2126496062992126
 20
0.2012362204724409
 30
0.0
  0
SPLINE
  5
B0
100
AcDbEntity
  8
Layer 1
370
     5
100
AcDbSpline
210
0.0
220
0.0
230
1.0
 70
     1
 71
     3
 72
   276
 73
   272
 74
     0
 42
0.0000000001
 43
0.0000000001
 40
0.0
 40
0.0
 40
0.0
 40
0.0
 40
0.0147058823529412
 40
0.0147058823529412
 40
0.0147058823529412
 40
0.0147058823529412
 40
0.0294117647058824
 40
0.0294117647058824
 40
0.0294117647058824
 40
0.0294117647058824
 40
0.0441176470588235
 40
0.0441176470588235
 40
0.0441176470588235
 40
0.0441176470588235
 40
0.0588235294117647
 40
0.0588235294117647
 40
0.0588235294117647
 40
0.0588235294117647
 40
0.0735294117647059
 40
0.0735294117647059
 40
0.0735294117647059
 40
0.0735294117647059
 40
0.0882352941176471
 40
0.0882352941176471
 40
0.0882352941176471
 40
0.0882352941176471
 40
0.1029411764705882
 40
0.1029411764705882
 40
0.1029411764705882
 40
0.1029411764705882
 40
0.1176470588235294
 40
0.1176470588235294
 40
0.1176470588235294
 40
0.1176470588235294
 40
0.1323529411764706
 40
0.1323529411764706
 40
0.1323529411764706
 40
0.1323529411764706
 40
0.1470588235294118
 40
0.1470588235294118
 40
0.1470588235294118
 40
0.1470588235294118
 40
0.161764705882353
 40
0.161764705882353
 40
0.161764705882353
 40
0.161764705882353
 40
0.1764705882352941
 40
0.1764705882352941
 40
0.1764705882352941
 40
0.1764705882352941
 40
0.1911764705882353
 40
0.1911764705882353
 40
0.1911764705882353
 40
0.1911764705882353
 40
0.2058823529411765
 40
0.2058823529411765
 40
0.2058823529411765
 40
0.2058823529411765
 40
0.2205882352941177
 40
0.2205882352941177
 40
0.2205882352941177
 40
0.2205882352941177
 40
0.2352941176470589
 40
0.2352941176470589
 40
0.2352941176470589
 40
0.2352941176470589
 40
0.25
 40
0.25
 40
0.25
 40
0.25
 40
0.2647058823529412
 40
0.2647058823529412
 40
0.2647058823529412
 40
0.2647058823529412
 40
0.2794117647058824
 40
0.2794117647058824
 40
0.2794117647058824
 40
0.2794117647058824
 40
0.2941176470588235
 40
0.2941176470588235
 40
0.2941176470588235
 40
0.2941176470588235
 40
0.3088235294117647
 40
0.3088235294117647
 40
0.3088235294117647
 40
0.3088235294117647
 40
0.3235294117647059
 40
0.3235294117647059
 40
0.3235294117647059
 40
0.3235294117647059
 40
0.3382352941176471
 40
0.3382352941176471
 40
0.3382352941176471
 40
0.3382352941176471
 40
0.3529411764705883
 40
0.3529411764705883
 40
0.3529411764705883
 40
0.3529411764705883
 40
0.3676470588235294
 40
0.3676470588235294
 40
0.3676470588235294
 40
0.3676470588235294
 40
0.3823529411764706
 40
0.3823529411764706
 40
0.3823529411764706
 40
0.3823529411764706
 40
0.3970588235294118
 40
0.3970588235294118
 40
0.3970588235294118
 40
0.3970588235294118
 40
0.411764705882353
 40
0.411764705882353
 40
0.411764705882353
 40
0.411764705882353
 40
0.4264705882352942
 40
0.4264705882352942
 40
0.4264705882352942
 40
0.4264705882352942
 40
0.4411764705882353
 40
0.4411764705882353
 40
0.4411764705882353
 40
0.4411764705882353
 40
0.4558823529411765
 40
0.4558823529411765
 40
0.4558823529411765
 40
0.4558823529411765
 40
0.4705882352941177
 40
0.4705882352941177
 40
0.4705882352941177
 40
0.4705882352941177
 40
0.4852941176470589
 40
0.4852941176470589
 40
0.4852941176470589
 40
0.4852941176470589
 40
0.5
 40
0.5
 40
0.5
 40
0.5
 40
0.5147058823529411
 40
0.5147058823529411
 40
0.5147058823529411
 40
0.5147058823529411
 40
0.5294117647058823
 40
0.5294117647058823
 40
0.5294117647058823
 40
0.5294117647058823
 40
0.5441176470588234
 40
0.5441176470588234
 40
0.5441176470588234
 40
0.5441176470588234
 40
0.5588235294117645
 40
0.5588235294117645
 40
0.5588235294117645
 40
0.5588235294117645
 40
0.5735294117647056
 40
0.5735294117647056
 40
0.5735294117647056
 40
0.5735294117647056
 40
0.5882352941176468
 40
0.5882352941176468
 40
0.5882352941176468
 40
0.5882352941176468
 40
0.6029411764705879
 40
0.6029411764705879
 40
0.6029411764705879
 40
0.6029411764705879
 40
0.617647058823529
 40
0.617647058823529
 40
0.617647058823529
 40
0.617647058823529
 40
0.6323529411764701
 40
0.6323529411764701
 40
0.6323529411764701
 40
0.6323529411764701
 40
0.6470588235294112
 40
0.6470588235294112
 40
0.6470588235294112
 40
0.6470588235294112
 40
0.6617647058823524
 40
0.6617647058823524
 40
0.6617647058823524
 40
0.6617647058823524
 40
0.6764705882352935
 40
0.6764705882352935
 40
0.6764705882352935
 40
0.6764705882352935
 40
0.6911764705882346
 40
0.6911764705882346
 40
0.6911764705882346
 40
0.6911764705882346
 40
0.7058823529411757
 40
0.7058823529411757
 40
0.7058823529411757
 40
0.7058823529411757
 40
0.7205882352941169
 40
0.7205882352941169
 40
0.7205882352941169
 40
0.7205882352941169
 40
0.735294117647058
 40
0.735294117647058
 40
0.735294117647058
 40
0.735294117647058
 40
0.7499999999999991
 40
0.7499999999999991
 40
0.7499999999999991
 40
0.7499999999999991
 40
0.7647058823529402
 40
0.7647058823529402
 40
0.7647058823529402
 40
0.7647058823529402
 40
0.7794117647058814
 40
0.7794117647058814
 40
0.7794117647058814
 40
0.7794117647058814
 40
0.7941176470588225
 40
0.7941176470588225
 40
0.7941176470588225
 40
0.7941176470588225
 40
0.8088235294117636
 40
0.8088235294117636
 40
0.8088235294117636
 40
0.8088235294117636
 40
0.8235294117647047
 40
0.8235294117647047
 40
0.8235294117647047
 40
0.8235294117647047
 40
0.8382352941176459
 40
0.8382352941176459
 40
0.8382352941176459
 40
0.8382352941176459
 40
0.852941176470587
 40
0.852941176470587
 40
0.852941176470587
 40
0.852941176470587
 40
0.8676470588235281
 40
0.8676470588235281
 40
0.8676470588235281
 40
0.8676470588235281
 40
0.8823529411764692
 40
0.8823529411764692
 40
0.8823529411764692
 40
0.8823529411764692
 40
0.8970588235294104
 40
0.8970588235294104
 40
0.8970588235294104
 40
0.8970588235294104
 40
0.9117647058823515
 40
0.9117647058823515
 40
0.9117647058823515
 40
0.9117647058823515
 40
0.9264705882352926
 40
0.9264705882352926
 40
0.9264705882352926
 40
0.9264705882352926
 40
0.9411764705882337
 40
0.9411764705882337
 40
0.9411764705882337
 40
0.9411764705882337
 40
0.9558823529411749
 40
0.9558823529411749
 40
0.9558823529411749
 40
0.9558823529411749
 40
0.970588235294116
 40
0.970588235294116
 40
0.970588235294116
 40
0.970588235294116
 40
0.9852941176470571
 40
0.9852941176470571
 40
0.9852941176470571
 40
0.9852941176470571
 40
1.0
 40
1.0
 40
1.0
 40
1.0
 10
-0.2612992125984252
 20
-0.6801535433070867
 30
0.0
 10
-0.2612992125984252
 20
-0.6801535433070867
 30
0.0
 10
0.4833188976377953
 20
-0.6915354330708662
 30
0.0
 10
0.4833188976377953
 20
-0.6915354330708662
 30
0.0
 10
0.4833188976377953
 20
-0.6915354330708662
 30
0.0
 10
0.4833188976377953
 20
-0.6915354330708662
 30
0.0
 10
0.6148464566929134
 20
-0.5690787401574804
 30
0.0
 10
0.6148464566929134
 20
-0.5690787401574804
 30
0.0
 10
0.6148464566929134
 20
-0.5690787401574804
 30
0.0
 10
0.6148464566929134
 20
-0.5690787401574804
 30
0.0
 10
0.6043661417322835
 20
-0.5306417322834646
 30
0.0
 10
0.6043661417322835
 20
-0.5306417322834646
 30
0.0
 10
0.6043661417322835
 20
-0.5306417322834646
 30
0.0
 10
0.6043661417322835
 20
-0.5306417322834646
 30
0.0
 10
0.5958543307086615
 20
-0.492751968503937
 30
0.0
 10
0.5958543307086615
 20
-0.492751968503937
 30
0.0
 10
0.5958543307086615
 20
-0.492751968503937
 30
0.0
 10
0.5958543307086615
 20
-0.492751968503937
 30
0.0
 10
0.589251968503937
 20
-0.4554488188976378
 30
0.0
 10
0.589251968503937
 20
-0.4554488188976378
 30
0.0
 10
0.589251968503937
 20
-0.4554488188976378
 30
0.0
 10
0.589251968503937
 20
-0.4554488188976378
 30
0.0
 10
0.5845
 20
-0.4187716535433071
 30
0.0
 10
0.5845
 20
-0.4187716535433071
 30
0.0
 10
0.5845
 20
-0.4187716535433071
 30
0.0
 10
0.5845
 20
-0.4187716535433071
 30
0.0
 10
0.5815551181102362
 20
-0.382751968503937
 30
0.0
 10
0.5815551181102362
 20
-0.382751968503937
 30
0.0
 10
0.5815551181102362
 20
-0.382751968503937
 30
0.0
 10
0.5815551181102362
 20
-0.382751968503937
 30
0.0
 10
0.5803503937007875
 20
-0.3474409448818898
 30
0.0
 10
0.5803503937007875
 20
-0.3474409448818898
 30
0.0
 10
0.5803503937007875
 20
-0.3474409448818898
 30
0.0
 10
0.5803503937007875
 20
-0.3474409448818898
 30
0.0
 10
0.5808385826771654
 20
-0.3128740157480315
 30
0.0
 10
0.5808385826771654
 20
-0.3128740157480315
 30
0.0
 10
0.5808385826771654
 20
-0.3128740157480315
 30
0.0
 10
0.5808385826771654
 20
-0.3128740157480315
 30
0.0
 10
0.5829566929133858
 20
-0.2790944881889764
 30
0.0
 10
0.5829566929133858
 20
-0.2790944881889764
 30
0.0
 10
0.5829566929133858
 20
-0.2790944881889764
 30
0.0
 10
0.5829566929133858
 20
-0.2790944881889764
 30
0.0
 10
0.5866653543307087
 20
-0.2461299212598425
 30
0.0
 10
0.5866653543307087
 20
-0.2461299212598425
 30
0.0
 10
0.5866653543307087
 20
-0.2461299212598425
 30
0.0
 10
0.5866653543307087
 20
-0.2461299212598425
 30
0.0
 10
0.5918937007874016
 20
-0.2140354330708661
 30
0.0
 10
0.5918937007874016
 20
-0.2140354330708661
 30
0.0
 10
0.5918937007874016
 20
-0.2140354330708661
 30
0.0
 10
0.5918937007874016
 20
-0.2140354330708661
 30
0.0
 10
0.5985944881889764
 20
-0.1828425196850394
 30
0.0
 10
0.5985944881889764
 20
-0.1828425196850394
 30
0.0
 10
0.5985944881889764
 20
-0.1828425196850394
 30
0.0
 10
0.5985944881889764
 20
-0.1828425196850394
 30
0.0
 10
0.6067125984251969
 20
-0.1525984251968504
 30
0.0
 10
0.6067125984251969
 20
-0.1525984251968504
 30
0.0
 10
0.6067125984251969
 20
-0.1525984251968504
 30
0.0
 10
0.6067125984251969
 20
-0.1525984251968504
 30
0.0
 10
0.6161929133858268
 20
-0.1233307086614173
 30
0.0
 10
0.6161929133858268
 20
-0.1233307086614173
 30
0.0
 10
0.6161929133858268
 20
-0.1233307086614173
 30
0.0
 10
0.6161929133858268
 20
-0.1233307086614173
 30
0.0
 10
0.6269803149606299
 20
-0.0950866141732283
 30
0.0
 10
0.6269803149606299
 20
-0.0950866141732283
 30
0.0
 10
0.6269803149606299
 20
-0.0950866141732283
 30
0.0
 10
0.6269803149606299
 20
-0.0950866141732283
 30
0.0
 10
0.6390196850393701
 20
-0.0679055118110236
 30
0.0
 10
0.6390196850393701
 20
-0.0679055118110236
 30
0.0
 10
0.6390196850393701
 20
-0.0679055118110236
 30
0.0
 10
0.6390196850393701
 20
-0.0679055118110236
 30
0.0
 10
0.6522637795275591
 20
-0.0418385826771654
 30
0.0
 10
0.6522637795275591
 20
-0.0418385826771654
 30
0.0
 10
0.6522637795275591
 20
-0.0418385826771654
 30
0.0
 10
0.6522637795275591
 20
-0.0418385826771654
 30
0.0
 10
0.6666417322834646
 20
-0.0169055118110236
 30
0.0
 10
0.6666417322834646
 20
-0.0169055118110236
 30
0.0
 10
0.6666417322834646
 20
-0.0169055118110236
 30
0.0
 10
0.6666417322834646
 20
-0.0169055118110236
 30
0.0
 10
0.6821102362204725
 20
0.0068425196850394
 30
0.0
 10
0.6821102362204725
 20
0.0068425196850394
 30
0.0
 10
0.6821102362204725
 20
0.0068425196850394
 30
0.0
 10
0.6821102362204725
 20
0.0068425196850394
 30
0.0
 10
0.6986102362204725
 20
0.0293661417322835
 30
0.0
 10
0.6986102362204725
 20
0.0293661417322835
 30
0.0
 10
0.6986102362204725
 20
0.0293661417322835
 30
0.0
 10
0.6986102362204725
 20
0.0293661417322835
 30
0.0
 10
0.7160944881889764
 20
0.0506377952755906
 30
0.0
 10
0.7160944881889764
 20
0.0506377952755906
 30
0.0
 10
0.7160944881889764
 20
0.0506377952755906
 30
0.0
 10
0.7160944881889764
 20
0.0506377952755906
 30
0.0
 10
0.734496062992126
 20
0.0705984251968504
 30
0.0
 10
0.734496062992126
 20
0.0705984251968504
 30
0.0
 10
0.734496062992126
 20
0.0705984251968504
 30
0.0
 10
0.734496062992126
 20
0.0705984251968504
 30
0.0
 10
0.7537716535433071
 20
0.0892204724409449
 30
0.0
 10
0.7537716535433071
 20
0.0892204724409449
 30
0.0
 10
0.7537716535433071
 20
0.0892204724409449
 30
0.0
 10
0.7537716535433071
 20
0.0892204724409449
 30
0.0
 10
0.7738543307086615
 20
0.1064606299212599
 30
0.0
 10
0.7738543307086615
 20
0.1064606299212599
 30
0.0
 10
0.7738543307086615
 20
0.1064606299212599
 30
0.0
 10
0.7738543307086615
 20
0.1064606299212599
 30
0.0
 10
0.7947047244094488
 20
0.1222834645669291
 30
0.0
 10
0.7947047244094488
 20
0.1222834645669291
 30
0.0
 10
0.7947047244094488
 20
0.1222834645669291
 30
0.0
 10
0.7947047244094488
 20
0.1222834645669291
 30
0.0
 10
0.816251968503937
 20
0.1366377952755906
 30
0.0
 10
0.816251968503937
 20
0.1366377952755906
 30
0.0
 10
0.816251968503937
 20
0.1366377952755906
 30
0.0
 10
0.816251968503937
 20
0.1366377952755906
 30
0.0
 10
0.8384488188976378
 20
0.149492125984252
 30
0.0
 10
0.8384488188976378
 20
0.149492125984252
 30
0.0
 10
0.8384488188976378
 20
0.149492125984252
 30
0.0
 10
0.8384488188976378
 20
0.149492125984252
 30
0.0
 10
0.861240157480315
 20
0.1608070866141732
 30
0.0
 10
0.861240157480315
 20
0.1608070866141732
 30
0.0
 10
0.861240157480315
 20
0.1608070866141732
 30
0.0
 10
0.861240157480315
 20
0.1608070866141732
 30
0.0
 10
0.8845787401574804
 20
0.1705433070866142
 30
0.0
 10
0.8845787401574804
 20
0.1705433070866142
 30
0.0
 10
0.8845787401574804
 20
0.1705433070866142
 30
0.0
 10
0.8845787401574804
 20
0.1705433070866142
 30
0.0
 10
0.9083937007874016
 20
0.1786496062992126
 30
0.0
 10
0.9083937007874016
 20
0.1786496062992126
 30
0.0
 10
0.9083937007874016
 20
0.1786496062992126
 30
0.0
 10
0.9083937007874016
 20
0.1786496062992126
 30
0.0
 10
0.9326456692913386
 20
0.1851023622047244
 30
0.0
 10
0.9326456692913386
 20
0.1851023622047244
 30
0.0
 10
0.9326456692913386
 20
0.1851023622047244
 30
0.0
 10
0.9326456692913386
 20
0.1851023622047244
 30
0.0
 10
0.9572677165354331
 20
0.1898543307086614
 30
0.0
 10
0.9572677165354331
 20
0.1898543307086614
 30
0.0
 10
0.9572677165354331
 20
0.1898543307086614
 30
0.0
 10
0.9572677165354331
 20
0.1898543307086614
 30
0.0
 10
0.9822165354330709
 20
0.1928700787401575
 30
0.0
 10
0.9822165354330709
 20
0.1928700787401575
 30
0.0
 10
0.9822165354330709
 20
0.1928700787401575
 30
0.0
 10
0.9822165354330709
 20
0.1928700787401575
 30
0.0
 10
0.2375984251968504
 20
0.204251968503937
 30
0.0
 10
0.2375984251968504
 20
0.204251968503937
 30
0.0
 10
0.2375984251968504
 20
0.204251968503937
 30
0.0
 10
0.2375984251968504
 20
0.204251968503937
 30
0.0
 10
0.2126496062992126
 20
0.2012362204724409
 30
0.0
 10
0.2126496062992126
 20
0.2012362204724409
 30
0.0
 10
0.2126496062992126
 20
0.2012362204724409
 30
0.0
 10
0.2126496062992126
 20
0.2012362204724409
 30
0.0
 10
0.1880275590551181
 20
0.1964842519685039
 30
0.0
 10
0.1880275590551181
 20
0.1964842519685039
 30
0.0
 10
0.1880275590551181
 20
0.1964842519685039
 30
0.0
 10
0.1880275590551181
 20
0.1964842519685039
 30
0.0
 10
0.1637755905511811
 20
0.1900314960629921
 30
0.0
 10
0.1637755905511811
 20
0.1900314960629921
 30
0.0
 10
0.1637755905511811
 20
0.1900314960629921
 30
0.0
 10
0.1637755905511811
 20
0.1900314960629921
 30
0.0
 10
0.1399606299212599
 20
0.1819251968503937
 30
0.0
 10
0.1399606299212599
 20
0.1819251968503937
 30
0.0
 10
0.1399606299212599
 20
0.1819251968503937
 30
0.0
 10
0.1399606299212599
 20
0.1819251968503937
 30
0.0
 10
0.1166220472440945
 20
0.1721889763779528
 30
0.0
 10
0.1166220472440945
 20
0.1721889763779528
 30
0.0
 10
0.1166220472440945
 20
0.1721889763779528
 30
0.0
 10
0.1166220472440945
 20
0.1721889763779528
 30
0.0
 10
0.0938307086614173
 20
0.1608740157480315
 30
0.0
 10
0.0938307086614173
 20
0.1608740157480315
 30
0.0
 10
0.0938307086614173
 20
0.1608740157480315
 30
0.0
 10
0.0938307086614173
 20
0.1608740157480315
 30
0.0
 10
0.0716338582677165
 20
0.1480196850393701
 30
0.0
 10
0.0716338582677165
 20
0.1480196850393701
 30
0.0
 10
0.0716338582677165
 20
0.1480196850393701
 30
0.0
 10
0.0716338582677165
 20
0.1480196850393701
 30
0.0
 10
0.0500866141732284
 20
0.1336653543307087
 30
0.0
 10
0.0500866141732284
 20
0.1336653543307087
 30
0.0
 10
0.0500866141732284
 20
0.1336653543307087
 30
0.0
 10
0.0500866141732284
 20
0.1336653543307087
 30
0.0
 10
0.0292362204724409
 20
0.1178425196850394
 30
0.0
 10
0.0292362204724409
 20
0.1178425196850394
 30
0.0
 10
0.0292362204724409
 20
0.1178425196850394
 30
0.0
 10
0.0292362204724409
 20
0.1178425196850394
 30
0.0
 10
0.0091535433070866
 20
0.1006023622047244
 30
0.0
 10
0.0091535433070866
 20
0.1006023622047244
 30
0.0
 10
0.0091535433070866
 20
0.1006023622047244
 30
0.0
 10
0.0091535433070866
 20
0.1006023622047244
 30
0.0
 10
-0.0101220472440945
 20
0.0819803149606299
 30
0.0
 10
-0.0101220472440945
 20
0.0819803149606299
 30
0.0
 10
-0.0101220472440945
 20
0.0819803149606299
 30
0.0
 10
-0.0101220472440945
 20
0.0819803149606299
 30
0.0
 10
-0.0285236220472441
 20
0.0620196850393701
 30
0.0
 10
-0.0285236220472441
 20
0.0620196850393701
 30
0.0
 10
-0.0285236220472441
 20
0.0620196850393701
 30
0.0
 10
-0.0285236220472441
 20
0.0620196850393701
 30
0.0
 10
-0.046007874015748
 20
0.040748031496063
 30
0.0
 10
-0.046007874015748
 20
0.040748031496063
 30
0.0
 10
-0.046007874015748
 20
0.040748031496063
 30
0.0
 10
-0.046007874015748
 20
0.040748031496063
 30
0.0
 10
-0.062507874015748
 20
0.0182244094488189
 30
0.0
 10
-0.062507874015748
 20
0.0182244094488189
 30
0.0
 10
-0.062507874015748
 20
0.0182244094488189
 30
0.0
 10
-0.062507874015748
 20
0.0182244094488189
 30
0.0
 10
-0.0779763779527559
 20
-0.0055236220472441
 30
0.0
 10
-0.0779763779527559
 20
-0.0055236220472441
 30
0.0
 10
-0.0779763779527559
 20
-0.0055236220472441
 30
0.0
 10
-0.0779763779527559
 20
-0.0055236220472441
 30
0.0
 10
-0.0923543307086614
 20
-0.0304566929133858
 30
0.0
 10
-0.0923543307086614
 20
-0.0304566929133858
 30
0.0
 10
-0.0923543307086614
 20
-0.0304566929133858
 30
0.0
 10
-0.0923543307086614
 20
-0.0304566929133858
 30
0.0
 10
-0.1055984251968504
 20
-0.0565236220472441
 30
0.0
 10
-0.1055984251968504
 20
-0.0565236220472441
 30
0.0
 10
-0.1055984251968504
 20
-0.0565236220472441
 30
0.0
 10
-0.1055984251968504
 20
-0.0565236220472441
 30
0.0
 10
-0.1176377952755906
 20
-0.0837047244094488
 30
0.0
 10
-0.1176377952755906
 20
-0.0837047244094488
 30
0.0
 10
-0.1176377952755906
 20
-0.0837047244094488
 30
0.0
 10
-0.1176377952755906
 20
-0.0837047244094488
 30
0.0
 10
-0.1284251968503937
 20
-0.1119488188976378
 30
0.0
 10
-0.1284251968503937
 20
-0.1119488188976378
 30
0.0
 10
-0.1284251968503937
 20
-0.1119488188976378
 30
0.0
 10
-0.1284251968503937
 20
-0.1119488188976378
 30
0.0
 10
-0.1379055118110236
 20
-0.1412165354330709
 30
0.0
 10
-0.1379055118110236
 20
-0.1412165354330709
 30
0.0
 10
-0.1379055118110236
 20
-0.1412165354330709
 30
0.0
 10
-0.1379055118110236
 20
-0.1412165354330709
 30
0.0
 10
-0.1460236220472441
 20
-0.1714606299212599
 30
0.0
 10
-0.1460236220472441
 20
-0.1714606299212599
 30
0.0
 10
-0.1460236220472441
 20
-0.1714606299212599
 30
0.0
 10
-0.1460236220472441
 20
-0.1714606299212599
 30
0.0
 10
-0.1527244094488189
 20
-0.2026535433070866
 30
0.0
 10
-0.1527244094488189
 20
-0.2026535433070866
 30
0.0
 10
-0.1527244094488189
 20
-0.2026535433070866
 30
0.0
 10
-0.1527244094488189
 20
-0.2026535433070866
 30
0.0
 10
-0.1579527559055118
 20
-0.234748031496063
 30
0.0
 10
-0.1579527559055118
 20
-0.234748031496063
 30
0.0
 10
-0.1579527559055118
 20
-0.234748031496063
 30
0.0
 10
-0.1579527559055118
 20
-0.234748031496063
 30
0.0
 10
-0.1616614173228347
 20
-0.2677125984251969
 30
0.0
 10
-0.1616614173228347
 20
-0.2677125984251969
 30
0.0
 10
-0.1616614173228347
 20
-0.2677125984251969
 30
0.0
 10
-0.1616614173228347
 20
-0.2677125984251969
 30
0.0
 10
-0.1637795275590551
 20
-0.301492125984252
 30
0.0
 10
-0.1637795275590551
 20
-0.301492125984252
 30
0.0
 10
-0.1637795275590551
 20
-0.301492125984252
 30
0.0
 10
-0.1637795275590551
 20
-0.301492125984252
 30
0.0
 10
-0.1642677165354331
 20
-0.3360590551181102
 30
0.0
 10
-0.1642677165354331
 20
-0.3360590551181102
 30
0.0
 10
-0.1642677165354331
 20
-0.3360590551181102
 30
0.0
 10
-0.1642677165354331
 20
-0.3360590551181102
 30
0.0
 10
-0.1630629921259843
 20
-0.3713700787401575
 30
0.0
 10
-0.1630629921259843
 20
-0.3713700787401575
 30
0.0
 10
-0.1630629921259843
 20
-0.3713700787401575
 30
0.0
 10
-0.1630629921259843
 20
-0.3713700787401575
 30
0.0
 10
-0.1601181102362205
 20
-0.4073897637795276
 30
0.0
 10
-0.1601181102362205
 20
-0.4073897637795276
 30
0.0
 10
-0.1601181102362205
 20
-0.4073897637795276
 30
0.0
 10
-0.1601181102362205
 20
-0.4073897637795276
 30
0.0
 10
-0.1553661417322835
 20
-0.4440669291338583
 30
0.0
 10
-0.1553661417322835
 20
-0.4440669291338583
 30
0.0
 10
-0.1553661417322835
 20
-0.4440669291338583
 30
0.0
 10
-0.1553661417322835
 20
-0.4440669291338583
 30
0.0
 10
-0.1487637795275591
 20
-0.4813700787401575
 30
0.0
 10
-0.1487637795275591
 20
-0.4813700787401575
 30
0.0
 10
-0.1487637795275591
 20
-0.4813700787401575
 30
0.0
 10
-0.1487637795275591
 20
-0.4813700787401575
 30
0.0
 10
-0.140251968503937
 20
-0.519259842519685
 30
0.0
 10
-0.140251968503937
 20
-0.519259842519685
 30
0.0
 10
-0.140251968503937
 20
-0.519259842519685
 30
0.0
 10
-0.140251968503937
 20
-0.519259842519685
 30
0.0
 10
-0.1297716535433071
 20
-0.5576968503937008
 30
0.0
 10
-0.1297716535433071
 20
-0.5576968503937008
 30
0.0
 10
-0.1297716535433071
 20
-0.5576968503937008
 30
0.0
 10
-0.1297716535433071
 20
-0.5576968503937008
 30
0.0
 10
-0.2612992125984252
 20
-0.6801535433070867
 30
0.0
 10
-0.2612992125984252
 20
-0.6801535433070867
 30
0.0
  0
SPLINE
  5
B1
100
AcDbEntity
  8
Layer 1
 62
     9
100
AcDbSpline
210
0.0
220
0.0
230
1.0
 70
     1
 71
     3
 72
    20
 73
    16
 74
     0
 42
0.0000000001
 43
0.0000000001
 40
0.0
 40
0.0
 40
0.0
 40
0.0
 40
0.25
 40
0.25
 40
0.25
 40
0.25
 40
0.5
 40
0.5
 40
0.5
 40
0.5
 40
0.75
 40
0.75
 40
0.75
 40
0.75
 40
1.0
 40
1.0
 40
1.0
 40
1.0
 10
0.2375984251968504
 20
0.204251968503937
 30
0.0
 10
0.2375984251968504
 20
0.204251968503937
 30
0.0
 10
0.9822165354330709
 20
0.1928700787401575
 30
0.0
 10
0.9822165354330709
 20
0.1928700787401575
 30
0.0
 10
0.9822165354330709
 20
0.1928700787401575
 30
0.0
 10
0.9822165354330709
 20
0.1928700787401575
 30
0.0
 10
0.9822165354330709
 20
1.0636771653543307
 30
0.0
 10
0.9822165354330709
 20
1.0636771653543307
 30
0.0
 10
0.9822165354330709
 20
1.0636771653543307
 30
0.0
 10
0.9822165354330709
 20
1.0636771653543307
 30
0.0
 10
0.2375984251968504
 20
1.0750590551181103
 30
0.0
 10
0.2375984251968504
 20
1.0750590551181103
 30
0.0
 10
0.2375984251968504
 20
1.0750590551181103
 30
0.0
 10
0.2375984251968504
 20
1.0750590551181103
 30
0.0
 10
0.2375984251968504
 20
0.204251968503937
 30
0.0
 10
0.2375984251968504
 20
0.204251968503937
 30
0.0
  0
SPLINE
  5
B2
100
AcDbEntity
  8
Layer 1
370
     5
100
AcDbSpline
210
0.0
220
0.0
230
1.0
 70
     1
 71
     3
 72
    20
 73
    16
 74
     0
 42
0.0000000001
 43
0.0000000001
 40
0.0
 40
0.0
 40
0.0
 40
0.0
 40
0.25
 40
0.25
 40
0.25
 40
0.25
 40
0.5
 40
0.5
 40
0.5
 40
0.5
 40
0.75
 40
0.75
 40
0.75
 40
0.75
 40
1.0
 40
1.0
 40
1.0
 40
1.0
 10
0.2375984251968504
 20
0.204251968503937
 30
0.0
 10
0.2375984251968504
 20
0.204251968503937
 30
0.0
 10
0.9822165354330709
 20
0.1928700787401575
 30
0.0
 10
0.9822165354330709
 20
0.1928700787401575
 30
0.0
 10
0.9822165354330709
 20
0.1928700787401575
 30
0.0
 10
0.9822165354330709
 20
0.1928700787401575
 30
0.0
 10
0.9822165354330709
 20
1.0636771653543307
 30
0.0
 10
0.9822165354330709
 20
1.0636771653543307
 30
0.0
 10
0.9822165354330709
 20
1.0636771653543307
 30
0.0
 10
0.9822165354330709
 20
1.0636771653543307
 30
0.0
 10
0.2375984251968504
 20
1.0750590551181103
 30
0.0
 10
0.2375984251968504
 20
1.0750590551181103
 30
0.0
 10
0.2375984251968504
 20
1.0750590551181103
 30
0.0
 10
0.2375984251968504
 20
1.0750590551181103
 30
0.0
 10
0.2375984251968504
 20
0.204251968503937
 30
0.0
 10
0.2375984251968504
 20
0.204251968503937
 30
0.0
  0
SPLINE
  5
B3
100
AcDbEntity
  8
Layer 1
370
     5
 62
     7
100
AcDbSpline
210
0.0
220
0.0
230
1.0
 70
     1
 71
     3
 72
    28
 73
    24
 74
     0
 42
0.0000000001
 43
0.0000000001
 40
0.0
 40
0.0
 40
0.0
 40
0.0
 40
0.1666666666666667
 40
0.1666666666666667
 40
0.1666666666666667
 40
0.1666666666666667
 40
0.3333333333333333
 40
0.3333333333333333
 40
0.3333333333333333
 40
0.3333333333333333
 40
0.5
 40
0.5
 40
0.5
 40
0.5
 40
0.6666666666666666
 40
0.6666666666666666
 40
0.6666666666666666
 40
0.6666666666666666
 40
0.8333333333333333
 40
0.8333333333333333
 40
0.8333333333333333
 40
0.8333333333333333
 40
1.0
 40
1.0
 40
1.0
 40
1.0
 10
-0.6604173228346457
 20
-1.4693188976377953
 30
0.0
 10
-0.1615196850393701
 20
-1.4738543307086616
 30
0.0
 10
-0.0163858267716535
 20
-0.9205314960629921
 30
0.0
 10
-0.2612992125984252
 20
-0.6801535433070867
 30
0.0
 10
-0.2612992125984252
 20
-0.6801535433070867
 30
0.0
 10
-0.2612992125984252
 20
-0.6801535433070867
 30
0.0
 10
-0.1297716535433071
 20
-0.5576968503937008
 30
0.0
 10
-0.1297716535433071
 20
-0.5576968503937008
 30
0.0
 10
-0.1297716535433071
 20
-0.5576968503937008
 30
0.0
 10
-0.2522283464566929
 20
-0.1449724409448819
 30
0.0
 10
-0.029992125984252
 20
0.1815708661417323
 30
0.0
 10
0.2375984251968504
 20
0.204251968503937
 30
0.0
 10
0.2375984251968504
 20
0.204251968503937
 30
0.0
 10
0.2375984251968504
 20
0.204251968503937
 30
0.0
 10
0.2375984251968504
 20
1.0750590551181103
 30
0.0
 10
0.2375984251968504
 20
1.0750590551181103
 30
0.0
 10
0.2375984251968504
 20
1.0750590551181103
 30
0.0
 10
0.2375984251968504
 20
1.0750590551181103
 30
0.0
 10
-0.6604173228346457
 20
1.0750590551181103
 30
0.0
 10
-0.6604173228346457
 20
1.0750590551181103
 30
0.0
 10
-0.6604173228346457
 20
1.0750590551181103
 30
0.0
 10
-0.6604173228346457
 20
1.0750590551181103
 30
0.0
 10
-0.6604173228346457
 20
-1.4693188976377953
 30
0.0
 10
-0.6604173228346457
 20
-1.4693188976377953
 30
0.0
  0
SPLINE
  5
B4
100
AcDbEntity
  8
Layer 1
370
     5
100
AcDbSpline
210
0.0
220
0.0
230
1.0
 70
     0
 71
     3
 72
     8
 73
     4
 74
     0
 42
0.0000000001
 43
0.0000000001
 40
0.0
 40
0.0
 40
0.0
 40
0.0
 40
1.0
 40
1.0
 40
1.0
 40
1.0
 10
-0.1287716535433071
 20
-0.557736220472441
 30
0.0
 10
-0.1287716535433071
 20
-0.557736220472441
 30
0.0
 10
0.615472440944882
 20
-0.5687086614173229
 30
0.0
 10
0.615472440944882
 20
-0.5687086614173229
 30
0.0
  0
ENDSEC
  0
SECTION
  2
OBJECTS
  0
DICTIONARY
  5
19
100
AcDbDictionary
280
     0
281
     1
  3
ACAD_GROUP
350
1A
  3
ACAD_MLINESTYLE
350
1B
  3
ACAD_LAYOUT
350
1E
  3
ACAD_PLOTSETTINGS
350
22
  3
ACAD_PLOTSTYLENAME
350
1F
  3
ACAD_WIPEOUT_VARS
350
23
  0
DICTIONARY
  5
1A
102
{ACAD_REACTORS
330
19
102
}
100
AcDbDictionary
280
     0
281
     1
  0
DICTIONARY
  5
1B
102
{ACAD_REACTORS
330
19
102
}
100
AcDbDictionary
280
     0
281
     1
  3
Standard
350
1C
  0
MLINESTYLE
  5
1C
102
{ACAD_REACTORS
330
1B
102
}
100
AcDbMlineStyle
  2
Standard
 70
     0
  3

 62
     0
 51
90.0
 52
90.0
 71
     2
 49
0.5
 62
   256
  6
BYLAYER
 49
-0.5
 62
   256
  6
BYLAYER
  0
ACDBDICTIONARYWDFLT
  5
1F
102
{ACAD_REACTORS
330
19
102
}
100
AcDbDictionary
281
     1
  3
Normal
350
1D
100
AcDbDictionaryWithDefault
340
1D
  0
ACDBPLACEHOLDER
  5
1D
102
{ACAD_REACTORS
330
1F
102
}
  0
LAYOUT
  5
20
102
{ACAD_REACTORS
330
1E
102
}
100
AcDbPlotSettings
  1

  2

  4

  6

 40
0.0
 41
0.0
 42
0.0
 43
0.0
 44
0.0
 45
0.0
 46
0.0
 47
0.0
 48
0.0
 49
0.0
140
0.0
141
0.0
142
1.0
143
1.0
 70
  1024
 72
     0
 73
     0
 74
     0
  7

 75
     0
147
1.0
148
0.0
149
0.0
100
AcDbLayout
  1
Model
 70
     0
 71
     0
 10
0.0
 20
0.0
 11
0.0
 21
0.0
 12
0.0
 22
0.0
 32
0.0
 14
0.0
 24
0.0
 34
0.0
 15
0.0
 25
0.0
 35
0.0
146
0.0
 13
0.0
 23
0.0
 33
0.0
 16
0.0
 26
0.0
 36
0.0
 17
0.0
 27
0.0
 37
0.0
 76
     0
330
A
331
0
345
0
346
0
  0
LAYOUT
  5
21
102
{ACAD_REACTORS
330
1E
102
}
100
AcDbPlotSettings
  1

  2

  4

  6

 40
0.0
 41
0.0
 42
0.0
 43
0.0
 44
0.0
 45
0.0
 46
0.0
 47
0.0
 48
0.0
 49
0.0
140
0.0
141
0.0
142
1.0
143
1.0
 70
     0
 72
     0
 73
     0
 74
     0
  7

 75
     0
147
1.0
148
0.0
149
0.0
100
AcDbLayout
  1
Layout1
 70
     0
 71
     0
 10
0.0
 20
0.0
 11
0.0
 21
0.0
 12
0.0
 22
0.0
 32
0.0
 14
0.0
 24
0.0
 34
0.0
 15
0.0
 25
0.0
 35
0.0
146
0.0
 13
0.0
 23
0.0
 33
0.0
 16
0.0
 26
0.0
 36
0.0
 17
0.0
 27
0.0
 37
0.0
 76
     0
330
B
331
0
345
0
346
0
  0
DICTIONARY
  5
1E
102
{ACAD_REACTORS
330
19
102
}
100
AcDbDictionary
280
     0
281
     1
  3
Layout1
350
21
  3
Model
350
20
  0
DICTIONARY
  5
22
102
{ACAD_REACTORS
330
19
102
}
100
AcDbDictionary
280
     0
281
     1
  0
WIPEOUTVARIABLES
  5
23
100
AcDbWipeoutVariables
 70
     1
  0
ENDSEC
  0
EOF
