  0
SECTION
  2
HEADER
  9
$ACADVER
  1
AC1015
  9
$ACADMAINTVER
 70
     6
  9
$DWGCODEPAGE
  3
DOS850
  9
$INSBASE
 10
0.0
 20
0.0
 30
0.0
  9
$EXTMIN
 10
-2.735988
 20
-3.863571
 30
1.000000E+20
  9
$EXTMAX
 10
3.027327
 20
3.090705
 30
-1.000000E+20
  9
$LIMMIN
 10
0.0
 20
0.0
  9
$LIMMAX
 10
0.0
 20
0.0
  9
$ORTHOMODE
 70
     0
  9
$REGENMODE
 70
     1
  9
$FILLMODE
 70
     1
  9
$QTEXTMODE
 70
     0
  9
$MIRRTEXT
 70
     1
  9
$LTSCALE
 40
1.0
  9
$ATTMODE
 70
     1
  9
$TEXTSIZE
 40
0.2
  9
$TRACEWID
 40
0.05
  9
$TEXTSTYLE
  7
Standard
  9
$CLAYER
  8
0
  9
$CELTYPE
  6
Continuous
  9
$CECOLOR
 62
   256
  9
$CELTSCALE
 40
1.0
  9
$DISPSILH
 70
     0
  9
$DIMSCALE
 40
1.0
  9
$DIMASZ
 40
0.18
  9
$DIMEXO
 40
0.0625
  9
$DIMDLI
 40
0.38
  9
$DIMRND
 40
0.0
  9
$DIMDLE
 40
0.0
  9
$DIMEXE
 40
0.18
  9
$DIMTP
 40
0.0
  9
$DIMTM
 40
0.0
  9
$DIMTXT
 40
0.18
  9
$DIMCEN
 40
0.09
  9
$DIMTSZ
 40
0.0
  9
$DIMTOL
 70
     0
  9
$DIMLIM
 70
     0
  9
$DIMTIH
 70
     1
  9
$DIMTOH
 70
     1
  9
$DIMSE1
 70
     0
  9
$DIMSE2
 70
     0
  9
$DIMTAD
 70
     0
  9
$DIMZIN
 70
     0
  9
$DIMBLK
  1

  9
$DIMASO
 70
     1
  9
$DIMSHO
 70
     1
  9
$DIMPOST
  1

  9
$DIMAPOST
  1

  9
$DIMALT
 70
     0
  9
$DIMALTD
 70
     2
  9
$DIMALTF
 40
25.4
  9
$DIMLFAC
 40
1.0
  9
$DIMTOFL
 70
     0
  9
$DIMTVP
 40
0.0
  9
$DIMTIX
 70
     0
  9
$DIMSOXD
 70
     0
  9
$DIMSAH
 70
     0
  9
$DIMBLK1
  1

  9
$DIMBLK2
  1

  9
$DIMSTYLE
  2
Standard
  9
$DIMCLRD
 70
     0
  9
$DIMCLRE
 70
     0
  9
$DIMCLRT
 70
     0
  9
$DIMTFAC
 40
1.0
  9
$DIMGAP
 40
0.09
  9
$DIMJUST
 70
     0
  9
$DIMSD1
 70
     0
  9
$DIMSD2
 70
     0
  9
$DIMTOLJ
 70
     1
  9
$DIMTZIN
 70
     0
  9
$DIMALTZ
 70
     0
  9
$DIMALTTZ
 70
     0
  9
$DIMUPT
 70
     0
  9
$DIMDEC
 70
     4
  9
$DIMTDEC
 70
     4
  9
$DIMALTU
 70
     2
  9
$DIMALTTD
 70
     2
  9
$DIMTXSTY
  7
Standard
  9
$DIMAUNIT
 70
     0
  9
$DIMADEC
 70
     0
  9
$DIMALTRND
 40
0.0
  9
$DIMAZIN
 70
     0
  9
$DIMDSEP
 70
     0
  9
$DIMATFIT
 70
     3
  9
$DIMFRAC
 70
     0
  9
$DIMLDRBLK
  1

  9
$DIMLUNIT
 70
     2
  9
$DIMLWD
 70
     0
  9
$DIMLWE
 70
     0
  9
$DIMTMOVE
 70
     0
  9
$LUNITS
 70
     2
  9
$LUPREC
 70
     4
  9
$SKETCHINC
 40
0.1
  9
$FILLETRAD
 40
0.0
  9
$AUNITS
 70
     0
  9
$AUPREC
 70
     0
  9
$MENU
  1
acad
  9
$ELEVATION
 40
0.0
  9
$PELEVATION
 40
0.0
  9
$THICKNESS
 40
0.0
  9
$LIMCHECK
 70
     0
  9
$CHAMFERA
 40
0.0
  9
$CHAMFERB
 40
0.0
  9
$CHAMFERC
 40
0.0
  9
$CHAMFERD
 40
0.0
  9
$SKPOLY
 70
     0
  9
$TDCREATE
 40
0.000000000
  9
$TDUCREATE
 40
0.000000000
  9
$TDUPDATE
 40
0.000000000
  9
$TDUUPDATE
 40
0.000000000
  9
$TDINDWG
 40
0.0000000000
  9
$TDUSRTIMER
 40
0.0000000000
  9
$USRTIMER
 70
     1
  9
$ANGBASE
 50
0.0
  9
$ANGDIR
 70
     0
  9
$PDMODE
 70
     0
  9
$PDSIZE
 40
0.0
  9
$PLINEWID
 40
0.0
  9
$SPLFRAME
 70
     0
  9
$SPLINETYPE
 70
     6
  9
$SPLINESEGS
 70
     8
  9
$HANDSEED
  5
76
  9
$SURFTAB1
 70
     6
  9
$SURFTAB2
 70
     6
  9
$SURFTYPE
 70
     6
  9
$SURFU
 70
     6
  9
$SURFV
 70
     6
  9
$UCSBASE
  2

  9
$UCSNAME
  2

  9
$UCSORG
 10
0.0
 20
0.0
 30
0.0
  9
$UCSXDIR
 10
1.0
 20
0.0
 30
0.0
  9
$UCSYDIR
 10
0.0
 20
1.0
 30
0.0
  9
$UCSORTHOREF
  2

  9
$UCSORTHOVIEW
 70
     0
  9
$UCSORGTOP
 10
0.0
 20
0.0
 30
0.0
  9
$UCSORGBOTTOM
 10
0.0
 20
0.0
 30
0.0
  9
$UCSORGLEFT
 10
0.0
 20
0.0
 30
0.0
  9
$UCSORGRIGHT
 10
0.0
 20
0.0
 30
0.0
  9
$UCSORGFRONT
 10
0.0
 20
0.0
 30
0.0
  9
$UCSORGBACK
 10
0.0
 20
0.0
 30
0.0
  9
$PUCSBASE
  2

  9
$PUCSNAME
  2

  9
$PUCSORG
 10
0.0
 20
0.0
 30
0.0
  9
$PUCSXDIR
 10
1.0
 20
0.0
 30
0.0
  9
$PUCSYDIR
 10
0.0
 20
1.0
 30
0.0
  9
$PUCSORTHOREF
  2

  9
$PUCSORTHOVIEW
 70
     0
  9
$PUCSORGTOP
 10
0.0
 20
0.0
 30
0.0
  9
$PUCSORGBOTTOM
 10
0.0
 20
0.0
 30
0.0
  9
$PUCSORGLEFT
 10
0.0
 20
0.0
 30
0.0
  9
$PUCSORGRIGHT
 10
0.0
 20
0.0
 30
0.0
  9
$PUCSORGFRONT
 10
0.0
 20
0.0
 30
0.0
  9
$PUCSORGBACK
 10
0.0
 20
0.0
 30
0.0
  9
$USERI1
 70
     0
  9
$USERI2
 70
     0
  9
$USERI3
 70
     0
  9
$USERI4
 70
     0
  9
$USERI5
 70
     0
  9
$USERR1
 40
0.0
  9
$USERR2
 40
0.0
  9
$USERR3
 40
0.0
  9
$USERR4
 40
0.0
  9
$USERR5
 40
0.0
  9
$WORLDVIEW
 70
     1
  9
$SHADEDGE
 70
     3
  9
$SHADEDIF
 70
    70
  9
$TILEMODE
 70
     1
  9
$MAXACTVP
 70
    16
  9
$PINSBASE
 10
0.0
 20
0.0
 30
0.0
  9
$PLIMCHECK
 70
     0
  9
$PEXTMIN
 10
1.000000E+20
 20
1.000000E+20
 30
1.000000E+20
  9
$PEXTMAX
 10
-1.000000E+20
 20
-1.000000E+20
 30
-1.000000E+20
  9
$PLIMMIN
 10
0.0
 20
0.0
  9
$PLIMMAX
 10
12.0
 20
9.0
  9
$UNITMODE
 70
     0
  9
$VISRETAIN
 70
     0
  9
$PLINEGEN
 70
     1
  9
$PSLTSCALE
 70
     0
  9
$TREEDEPTH
 70
  3020
  9
$CMLSTYLE
  2
Standard
  9
$CMLJUST
 70
     0
  9
$CMLSCALE
 40
1.0
  9
$PROXYGRAPHICS
 70
     0
  9
$MEASUREMENT
 70
     0
  9
$CELWEIGHT
370
     0
  9
$ENDCAPS
280
     0
  9
$JOINSTYLE
280
     0
  9
$LWDISPLAY
290
     0
  9
$INSUNITS
 70
     1
  9
$HYPERLINKBASE
  1

  9
$XEDIT
290
     1
  9
$CEPSNTYPE
380
     0
  9
$PSTYLEMODE
290
     1
  9
$FINGERPRINTGUID
  2

  9
$VERSIONGUID
  2

  9
$EXTNAMES
290
     1
  9
$PSVPSCALE
 40
0.0
  0
ENDSEC
  0
SECTION
  2
CLASSES
  0
CLASS
  1
LWPOLYLINE
  2
AcDbPolyline
  3
AutoCAD 2000
 90
    32768
280
     0
281
     1
  0
CLASS
  1
IMAGE
  2
AcDbRasterImage
  3
ISM
 90
    32895
280
     0
281
     1
  0
CLASS
  1
OLE2FRAME
  2
AcDbOle2Frame
  3
AutoCAD 2000
 90
    32768
280
     0
281
     1
  0
CLASS
  1
HATCH
  2
AcDbHatch
  3
AutoCAD 2000
 90
    32768
280
     0
281
     1
  0
CLASS
  1
DICTIONARYVAR
  2
AcDbDictionaryVar
  3
AutoCAD 2000
 90
    32768
280
     0
281
     0
  0
CLASS
  1
RASTERVARIABLES
  2
AcDbRasterVariables
  3
ISM
 90
    32768
280
     0
281
     0
  0
CLASS
  1
IMAGEDEF
  2
AcDbRasterImageDef
  3
ISM
 90
    32768
280
     0
281
     0
  0
CLASS
  1
IMAGEDEF_REACTOR
  2
AcDbRasterImageDefReactor
  3
ISM
 90
    32769
280
     0
281
     0
  0
CLASS
  1
IDBUFFER
  2
AcDbIdBuffer
  3
AutoCAD 2000
 90
    32768
280
     0
281
     0
  0
CLASS
  1
SPATIAL_FILTER
  2
AcDbSpatialFilter
  3
AutoCAD 2000
 90
    32768
280
     0
281
     0
  0
CLASS
  1
XRECORD
  2
AcDbXrecord
  3
AutoCAD 2000
 90
    32768
280
     0
281
     0
  0
CLASS
  1
SORTENTSTABLE
  2
AcDbSortentsTable
  3
AutoCAD 2000
 90
    32768
280
     0
281
     0
  0
CLASS
  1
LAYER_INDEX
  2
AcDbLayerIndex
  3
AutoCAD 2000
 90
    32768
280
     0
281
     0
  0
CLASS
  1
SPATIAL_INDEX
  2
AcDbSpatialIndex
  3
AutoCAD 2000
 90
    32768
280
     0
281
     0
  0
CLASS
  1
OBJECT_PTR
  2
CAseDLPNTableRecord
  3
"ASE-LPNTableRecord"
 90
    32769
280
     0
281
     0
  0
CLASS
  1
LAYOUT
  2
AcDbLayout
  3
AutoCAD 2000
 90
        0
280
     0
281
     0
  0
CLASS
  1
PLOTSETTINGS
  2
AcDbPlotSettings
  3
AutoCAD 2000
 90
    32768
280
     0
281
     0
  0
CLASS
  1
ACDBDICTIONARYWDFLT
  2
AcDbDictionaryWithDefault
  3
AutoCAD 2000
 90
        0
280
     0
281
     0
  0
CLASS
  1
ACDBPLACEHOLDER
  2
AcDbPlaceHolder
  3
AutoCAD 2000
 90
        0
280
     0
281
     0
  0
CLASS
  1
VBA_PROJECT
  2
AcDbVbaProject
  3
acadvba
 90
    32768
280
     0
281
     0
  0
CLASS
  1
WIPEOUT
  2
AcDbWipeout
  3
WipeOut|AutoCAD Express Tool|expresstools@autodesk.com
 90
    32895
280
     0
281
     1
  0
CLASS
  1
WIPEOUTVARIABLES
  2
AcDbWipeoutVariables
  3
WipeOut|AutoCAD Express Tool|expresstools@autodesk.com
 90
        0
280
     0
281
     0
  0
CLASS
  1
RTEXT
  2
RText
  3
RText|AutoCAD Express Tool|expresstools@autodesk.com
 90
    32768
280
     0
281
     1
  0
CLASS
  1
ARCALIGNEDTEXT
  2
AcDbArcAlignedText
  3
ATEXT|AutoCAD Express Tool|expresstools@autodesk.com
 90
    32768
280
     0
281
     1
  0
ENDSEC
  0
SECTION
  2
TABLES
  0
TABLE
  2
VPORT
  5
7
100
AcDbSymbolTable
 70
     1
  0
VPORT
  5
15
100
AcDbSymbolTableRecord
100
AcDbViewportTableRecord
  2
*ACTIVE
 70
     0
 10
0.0
 20
0.0
 11
1.0
 21
1.0
 12
6.591288
 22
4.579184
 13
0.0
 23
0.0
 14
1.0
 24
1.0
 15
0.0
 25
0.0
 16
0.0
 26
0.0
 36
1.0
 17
0.0
 27
0.0
 37
0.0
 40
9.158369
 41
0.688564
 42
50.0
 43
0.0
 44
0.0
 50
0.0
 51
0.0
 71
     0
 72
   100
 73
     1
 74
     1
 75
     0
 76
     0
 77
     0
 78
     0
281
     0
 65
     0
110
0.0
120
0.0
130
0.0
111
1.0
121
0.0
131
0.0
112
0.0
122
1.0
132
0.0
345
0
346
0
 79
     0
146
0.0
  0
ENDTAB
  0
TABLE
  2
LTYPE
  5
4
100
AcDbSymbolTable
 70
     3
  0
LTYPE
  5
11
100
AcDbSymbolTableRecord
100
AcDbLinetypeTableRecord
  2
ByBlock
 70
    64
  3

 72
    65
 73
     0
 40
0.0
  0
LTYPE
  5
12
100
AcDbSymbolTableRecord
100
AcDbLinetypeTableRecord
  2
ByLayer
 70
    64
  3

 72
    65
 73
     0
 40
0.0
  0
LTYPE
  5
13
100
AcDbSymbolTableRecord
100
AcDbLinetypeTableRecord
  2
Continuous
 70
    64
  3
Solid line
 72
    65
 73
     0
 40
0.0
  0
ENDTAB
  0
TABLE
  2
LAYER
  5
2
100
AcDbSymbolTable
 70
     2
  0
LAYER
  5
14
100
AcDbSymbolTableRecord
100
AcDbLayerTableRecord
  2
0
 70
     0
 62
     7
  6
Continuous
290
     1
370
    -3
390
1D
  0
LAYER
  5
24
100
AcDbSymbolTableRecord
100
AcDbLayerTableRecord
  2
Layer 1
 70
     0
 62
     7
  6
Continuous
290
     1
370
    -3
390
1F
  0
ENDTAB
  0
TABLE
  2
STYLE
  5
3
100
AcDbSymbolTable
 70
     2
  0
STYLE
  5
17
100
AcDbSymbolTableRecord
100
AcDbTextStyleTableRecord
  2
Standard
 70
     0
 40
0.0
 41
1.0
 50
0.0
 71
     0
 42
0.0
  3
txt
  4

  0
STYLE
  5
71
100
AcDbSymbolTableRecord
100
AcDbTextStyleTableRecord
  2
Bookman Old Style
 70
     0
 40
1.0
 41
1.0
 50
0.0
 71
     0
 42
1.0
  3
Bookman Old Style
  4

  0
ENDTAB
  0
TABLE
  2
VIEW
  5
5
100
AcDbSymbolTable
 70
     0
  0
ENDTAB
  0
TABLE
  2
UCS
  5
6
100
AcDbSymbolTable
 70
     0
  0
ENDTAB
  0
TABLE
  2
APPID
  5
8
100
AcDbSymbolTable
 70
     1
  0
APPID
  5
16
100
AcDbSymbolTableRecord
100
AcDbRegAppTableRecord
  2
ACAD
 70
     0
  0
ENDTAB
  0
TABLE
  2
DIMSTYLE
  5
9
100
AcDbSymbolTable
 70
     1
100
AcDbDimStyleTable
 71
     0
  0
DIMSTYLE
105
18
100
AcDbSymbolTableRecord
100
AcDbDimStyleTableRecord
  2
Standard
 70
     0
  3

  4

 40
1.0
 41
0.18
 42
0.0625
 43
0.38
 44
0.18
 45
0.0
 46
0.0
 47
0.0
 48
0.0
 71
     0
 72
     0
 73
     1
 74
     1
 75
     0
 76
     0
 77
     0
 78
     0
 79
     0
140
0.18
141
0.09
142
0.0
143
25.4
144
1.0
145
0.0
146
1.0
147
0.09
148
0.0
170
     0
171
     2
172
     0
173
     0
174
     0
175
     0
176
     0
177
     0
178
     0
179
     0
271
     4
272
     4
273
     2
274
     2
275
     0
276
     0
277
     2
278
    46
279
     0
280
     0
281
     0
282
     0
283
     1
284
     0
285
     0
286
     0
288
     0
340
17
341
0
342
0
343
0
344
0
371
    -2
372
    -2
  0
ENDTAB
  0
TABLE
  2
BLOCK_RECORD
  5
1
100
AcDbSymbolTable
 70
     0
  0
BLOCK_RECORD
  5
A
100
AcDbSymbolTableRecord
100
AcDbBlockTableRecord
  2
*MODEL_SPACE
340
20
  0
BLOCK_RECORD
  5
B
100
AcDbSymbolTableRecord
100
AcDbBlockTableRecord
  2
*PAPER_SPACE
340
21
  0
ENDTAB
  0
ENDSEC
  0
SECTION
  2
BLOCKS
  0
BLOCK
  5
D
100
AcDbEntity
  8
0
100
AcDbBlockBegin
  2
*MODEL_SPACE
 70
     0
 10
0.0
 20
0.0
 30
0.0
  3
*MODEL_SPACE
  1

  0
ENDBLK
  5
E
100
AcDbEntity
  8
0
100
AcDbBlockEnd
  0
BLOCK
  5
F
100
AcDbEntity
 67
     1
  8
0
100
AcDbBlockBegin
  2
*PAPER_SPACE
 70
     0
 10
0.0
 20
0.0
 30
0.0
  3
*PAPER_SPACE
  1

  0
ENDBLK
  5
10
100
AcDbEntity
 67
     1
  8
0
100
AcDbBlockEnd
  0
ENDSEC
  0
SECTION
  2
ENTITIES
  0
SPLINE
  5
25
100
AcDbEntity
  8
Layer 1
370
     5
100
AcDbSpline
210
0.0
220
0.0
230
1.0
 70
     1
 71
     3
 72
    24
 73
    20
 74
     0
 42
0.0000000001
 43
0.0000000001
 40
0.0
 40
0.0
 40
0.0
 40
0.0
 40
0.2
 40
0.2
 40
0.2
 40
0.2
 40
0.4
 40
0.4
 40
0.4
 40
0.4
 40
0.6000000000000001
 40
0.6000000000000001
 40
0.6000000000000001
 40
0.6000000000000001
 40
0.8
 40
0.8
 40
0.8
 40
0.8
 40
1.0
 40
1.0
 40
1.0
 40
1.0
 10
-1.5536614173228347
 20
-0.893732283464567
 30
0.0
 10
-1.5748858267716537
 20
0.7320314960629921
 30
0.0
 10
-0.8190511811023622
 20
1.6163818897637796
 30
0.0
 10
-0.3692165354330709
 20
1.8498503937007875
 30
0.0
 10
-0.3692165354330709
 20
1.8498503937007875
 30
0.0
 10
-0.3692165354330709
 20
1.8498503937007875
 30
0.0
 10
-0.3692165354330709
 20
3.0892047244094489
 30
0.0
 10
-0.3692165354330709
 20
3.0892047244094489
 30
0.0
 10
-0.3692165354330709
 20
3.0892047244094489
 30
0.0
 10
-0.3692165354330709
 20
3.0892047244094489
 30
0.0
 10
-2.7344881889763779
 20
3.0892047244094489
 30
0.0
 10
-2.7344881889763779
 20
3.0892047244094489
 30
0.0
 10
-2.7344881889763779
 20
3.0892047244094489
 30
0.0
 10
-2.7344881889763779
 20
3.0892047244094489
 30
0.0
 10
-2.7344881889763779
 20
-0.893732283464567
 30
0.0
 10
-2.7344881889763779
 20
-0.893732283464567
 30
0.0
 10
-2.7344881889763779
 20
-0.893732283464567
 30
0.0
 10
-2.7344881889763779
 20
-0.893732283464567
 30
0.0
 10
-1.5536614173228347
 20
-0.893732283464567
 30
0.0
 10
-1.5536614173228347
 20
-0.893732283464567
 30
0.0
  0
SPLINE
  5
26
100
AcDbEntity
  8
Layer 1
 62
     9
100
AcDbSpline
210
0.0
220
0.0
230
1.0
 70
     1
 71
     3
 72
    20
 73
    16
 74
     0
 42
0.0000000001
 43
0.0000000001
 40
0.0
 40
0.0
 40
0.0
 40
0.0
 40
0.25
 40
0.25
 40
0.25
 40
0.25
 40
0.5
 40
0.5
 40
0.5
 40
0.5
 40
0.75
 40
0.75
 40
0.75
 40
0.75
 40
1.0
 40
1.0
 40
1.0
 40
1.0
 10
1.1967519685039369
 20
-3.4657913385826773
 30
0.0
 10
1.1967519685039369
 20
-3.4657913385826773
 30
0.0
 10
1.8413818897637797
 20
-3.8534724409448819
 30
0.0
 10
1.8413818897637797
 20
-3.8534724409448819
 30
0.0
 10
1.8413818897637797
 20
-3.8534724409448819
 30
0.0
 10
1.8413818897637797
 20
-3.8534724409448819
 30
0.0
 10
1.8416299212598426
 20
-3.703220472440945
 30
0.0
 10
1.8416299212598426
 20
-3.703220472440945
 30
0.0
 10
1.8416299212598426
 20
-3.703220472440945
 30
0.0
 10
1.8416299212598426
 20
-3.703220472440945
 30
0.0
 10
1.1970000000000001
 20
-3.3155393700787403
 30
0.0
 10
1.1970000000000001
 20
-3.3155393700787403
 30
0.0
 10
1.1970000000000001
 20
-3.3155393700787403
 30
0.0
 10
1.1970000000000001
 20
-3.3155393700787403
 30
0.0
 10
1.1967519685039369
 20
-3.4657913385826773
 30
0.0
 10
1.1967519685039369
 20
-3.4657913385826773
 30
0.0
  0
SPLINE
  5
27
100
AcDbEntity
  8
Layer 1
 62
     9
100
AcDbSpline
210
0.0
220
0.0
230
1.0
 70
     1
 71
     3
 72
    20
 73
    16
 74
     0
 42
0.0000000001
 43
0.0000000001
 40
0.0
 40
0.0
 40
0.0
 40
0.0
 40
0.25
 40
0.25
 40
0.25
 40
0.25
 40
0.5
 40
0.5
 40
0.5
 40
0.5
 40
0.75
 40
0.75
 40
0.75
 40
0.75
 40
1.0
 40
1.0
 40
1.0
 40
1.0
 10
1.1970000000000001
 20
-3.3155393700787403
 30
0.0
 10
1.1970000000000001
 20
-3.3155393700787403
 30
0.0
 10
1.8416299212598426
 20
-3.703220472440945
 30
0.0
 10
1.8416299212598426
 20
-3.703220472440945
 30
0.0
 10
1.8416299212598426
 20
-3.703220472440945
 30
0.0
 10
1.8416299212598426
 20
-3.703220472440945
 30
0.0
 10
1.8462401574803151
 20
-3.5573031496062995
 30
0.0
 10
1.8462401574803151
 20
-3.5573031496062995
 30
0.0
 10
1.8462401574803151
 20
-3.5573031496062995
 30
0.0
 10
1.8462401574803151
 20
-3.5573031496062995
 30
0.0
 10
1.2016102362204726
 20
-3.1696220472440948
 30
0.0
 10
1.2016102362204726
 20
-3.1696220472440948
 30
0.0
 10
1.2016102362204726
 20
-3.1696220472440948
 30
0.0
 10
1.2016102362204726
 20
-3.1696220472440948
 30
0.0
 10
1.1970000000000001
 20
-3.3155393700787403
 30
0.0
 10
1.1970000000000001
 20
-3.3155393700787403
 30
0.0
  0
SPLINE
  5
28
100
AcDbEntity
  8
Layer 1
 62
     9
100
AcDbSpline
210
0.0
220
0.0
230
1.0
 70
     1
 71
     3
 72
    20
 73
    16
 74
     0
 42
0.0000000001
 43
0.0000000001
 40
0.0
 40
0.0
 40
0.0
 40
0.0
 40
0.25
 40
0.25
 40
0.25
 40
0.25
 40
0.5
 40
0.5
 40
0.5
 40
0.5
 40
0.75
 40
0.75
 40
0.75
 40
0.75
 40
1.0
 40
1.0
 40
1.0
 40
1.0
 10
1.2016102362204726
 20
-3.1696220472440948
 30
0.0
 10
1.2016102362204726
 20
-3.1696220472440948
 30
0.0
 10
1.8462401574803151
 20
-3.5573031496062995
 30
0.0
 10
1.8462401574803151
 20
-3.5573031496062995
 30
0.0
 10
1.8462401574803151
 20
-3.5573031496062995
 30
0.0
 10
1.8462401574803151
 20
-3.5573031496062995
 30
0.0
 10
1.8550039370078741
 20
-3.4156929133858269
 30
0.0
 10
1.8550039370078741
 20
-3.4156929133858269
 30
0.0
 10
1.8550039370078741
 20
-3.4156929133858269
 30
0.0
 10
1.8550039370078741
 20
-3.4156929133858269
 30
0.0
 10
1.2103740157480316
 20
-3.0280118110236223
 30
0.0
 10
1.2103740157480316
 20
-3.0280118110236223
 30
0.0
 10
1.2103740157480316
 20
-3.0280118110236223
 30
0.0
 10
1.2103740157480316
 20
-3.0280118110236223
 30
0.0
 10
1.2016102362204726
 20
-3.1696220472440948
 30
0.0
 10
1.2016102362204726
 20
-3.1696220472440948
 30
0.0
  0
SPLINE
  5
29
100
AcDbEntity
  8
Layer 1
 62
     9
100
AcDbSpline
210
0.0
220
0.0
230
1.0
 70
     1
 71
     3
 72
    20
 73
    16
 74
     0
 42
0.0000000001
 43
0.0000000001
 40
0.0
 40
0.0
 40
0.0
 40
0.0
 40
0.25
 40
0.25
 40
0.25
 40
0.25
 40
0.5
 40
0.5
 40
0.5
 40
0.5
 40
0.75
 40
0.75
 40
0.75
 40
0.75
 40
1.0
 40
1.0
 40
1.0
 40
1.0
 10
1.2103740157480316
 20
-3.0280118110236223
 30
0.0
 10
1.2103740157480316
 20
-3.0280118110236223
 30
0.0
 10
1.8550039370078741
 20
-3.4156929133858269
 30
0.0
 10
1.8550039370078741
 20
-3.4156929133858269
 30
0.0
 10
1.8550039370078741
 20
-3.4156929133858269
 30
0.0
 10
1.8550039370078741
 20
-3.4156929133858269
 30
0.0
 10
1.8677283464566929
 20
-3.2783858267716535
 30
0.0
 10
1.8677283464566929
 20
-3.2783858267716535
 30
0.0
 10
1.8677283464566929
 20
-3.2783858267716535
 30
0.0
 10
1.8677283464566929
 20
-3.2783858267716535
 30
0.0
 10
1.2230984251968504
 20
-2.8907047244094488
 30
0.0
 10
1.2230984251968504
 20
-2.8907047244094488
 30
0.0
 10
1.2230984251968504
 20
-2.8907047244094488
 30
0.0
 10
1.2230984251968504
 20
-2.8907047244094488
 30
0.0
 10
1.2103740157480316
 20
-3.0280118110236223
 30
0.0
 10
1.2103740157480316
 20
-3.0280118110236223
 30
0.0
  0
SPLINE
  5
2A
100
AcDbEntity
  8
Layer 1
 62
     9
100
AcDbSpline
210
0.0
220
0.0
230
1.0
 70
     1
 71
     3
 72
    20
 73
    16
 74
     0
 42
0.0000000001
 43
0.0000000001
 40
0.0
 40
0.0
 40
0.0
 40
0.0
 40
0.25
 40
0.25
 40
0.25
 40
0.25
 40
0.5
 40
0.5
 40
0.5
 40
0.5
 40
0.75
 40
0.75
 40
0.75
 40
0.75
 40
1.0
 40
1.0
 40
1.0
 40
1.0
 10
1.2230984251968504
 20
-2.8907047244094488
 30
0.0
 10
1.2230984251968504
 20
-2.8907047244094488
 30
0.0
 10
1.8677283464566929
 20
-3.2783858267716535
 30
0.0
 10
1.8677283464566929
 20
-3.2783858267716535
 30
0.0
 10
1.8677283464566929
 20
-3.2783858267716535
 30
0.0
 10
1.8677283464566929
 20
-3.2783858267716535
 30
0.0
 10
1.884208661417323
 20
-3.1453464566929137
 30
0.0
 10
1.884208661417323
 20
-3.1453464566929137
 30
0.0
 10
1.884208661417323
 20
-3.1453464566929137
 30
0.0
 10
1.884208661417323
 20
-3.1453464566929137
 30
0.0
 10
1.2395787401574803
 20
-2.7576653543307086
 30
0.0
 10
1.2395787401574803
 20
-2.7576653543307086
 30
0.0
 10
1.2395787401574803
 20
-2.7576653543307086
 30
0.0
 10
1.2395787401574803
 20
-2.7576653543307086
 30
0.0
 10
1.2230984251968504
 20
-2.8907047244094488
 30
0.0
 10
1.2230984251968504
 20
-2.8907047244094488
 30
0.0
  0
SPLINE
  5
2B
100
AcDbEntity
  8
Layer 1
 62
     9
100
AcDbSpline
210
0.0
220
0.0
230
1.0
 70
     1
 71
     3
 72
    20
 73
    16
 74
     0
 42
0.0000000001
 43
0.0000000001
 40
0.0
 40
0.0
 40
0.0
 40
0.0
 40
0.25
 40
0.25
 40
0.25
 40
0.25
 40
0.5
 40
0.5
 40
0.5
 40
0.5
 40
0.75
 40
0.75
 40
0.75
 40
0.75
 40
1.0
 40
1.0
 40
1.0
 40
1.0
 10
1.2395787401574803
 20
-2.7576653543307086
 30
0.0
 10
1.2395787401574803
 20
-2.7576653543307086
 30
0.0
 10
1.884208661417323
 20
-3.1453464566929137
 30
0.0
 10
1.884208661417323
 20
-3.1453464566929137
 30
0.0
 10
1.884208661417323
 20
-3.1453464566929137
 30
0.0
 10
1.884208661417323
 20
-3.1453464566929137
 30
0.0
 10
1.9042519685039372
 20
-3.0165748031496062
 30
0.0
 10
1.9042519685039372
 20
-3.0165748031496062
 30
0.0
 10
1.9042519685039372
 20
-3.0165748031496062
 30
0.0
 10
1.9042519685039372
 20
-3.0165748031496062
 30
0.0
 10
1.2596220472440944
 20
-2.6288937007874016
 30
0.0
 10
1.2596220472440944
 20
-2.6288937007874016
 30
0.0
 10
1.2596220472440944
 20
-2.6288937007874016
 30
0.0
 10
1.2596220472440944
 20
-2.6288937007874016
 30
0.0
 10
1.2395787401574803
 20
-2.7576653543307086
 30
0.0
 10
1.2395787401574803
 20
-2.7576653543307086
 30
0.0
  0
SPLINE
  5
2C
100
AcDbEntity
  8
Layer 1
 62
     9
100
AcDbSpline
210
0.0
220
0.0
230
1.0
 70
     1
 71
     3
 72
    20
 73
    16
 74
     0
 42
0.0000000001
 43
0.0000000001
 40
0.0
 40
0.0
 40
0.0
 40
0.0
 40
0.25
 40
0.25
 40
0.25
 40
0.25
 40
0.5
 40
0.5
 40
0.5
 40
0.5
 40
0.75
 40
0.75
 40
0.75
 40
0.75
 40
1.0
 40
1.0
 40
1.0
 40
1.0
 10
1.2596220472440944
 20
-2.6288937007874016
 30
0.0
 10
1.2596220472440944
 20
-2.6288937007874016
 30
0.0
 10
1.9042519685039372
 20
-3.0165748031496062
 30
0.0
 10
1.9042519685039372
 20
-3.0165748031496062
 30
0.0
 10
1.9042519685039372
 20
-3.0165748031496062
 30
0.0
 10
1.9042519685039372
 20
-3.0165748031496062
 30
0.0
 10
1.9276574803149606
 20
-2.8920472440944884
 30
0.0
 10
1.9276574803149606
 20
-2.8920472440944884
 30
0.0
 10
1.9276574803149606
 20
-2.8920472440944884
 30
0.0
 10
1.9276574803149606
 20
-2.8920472440944884
 30
0.0
 10
1.2830275590551181
 20
-2.5043661417322838
 30
0.0
 10
1.2830275590551181
 20
-2.5043661417322838
 30
0.0
 10
1.2830275590551181
 20
-2.5043661417322838
 30
0.0
 10
1.2830275590551181
 20
-2.5043661417322838
 30
0.0
 10
1.2596220472440944
 20
-2.6288937007874016
 30
0.0
 10
1.2596220472440944
 20
-2.6288937007874016
 30
0.0
  0
SPLINE
  5
2D
100
AcDbEntity
  8
Layer 1
 62
     9
100
AcDbSpline
210
0.0
220
0.0
230
1.0
 70
     1
 71
     3
 72
    20
 73
    16
 74
     0
 42
0.0000000001
 43
0.0000000001
 40
0.0
 40
0.0
 40
0.0
 40
0.0
 40
0.25
 40
0.25
 40
0.25
 40
0.25
 40
0.5
 40
0.5
 40
0.5
 40
0.5
 40
0.75
 40
0.75
 40
0.75
 40
0.75
 40
1.0
 40
1.0
 40
1.0
 40
1.0
 10
1.2830275590551181
 20
-2.5043661417322838
 30
0.0
 10
1.2830275590551181
 20
-2.5043661417322838
 30
0.0
 10
1.9276574803149606
 20
-2.8920472440944884
 30
0.0
 10
1.9276574803149606
 20
-2.8920472440944884
 30
0.0
 10
1.9276574803149606
 20
-2.8920472440944884
 30
0.0
 10
1.9276574803149606
 20
-2.8920472440944884
 30
0.0
 10
1.9542362204724411
 20
-2.7717519685039371
 30
0.0
 10
1.9542362204724411
 20
-2.7717519685039371
 30
0.0
 10
1.9542362204724411
 20
-2.7717519685039371
 30
0.0
 10
1.9542362204724411
 20
-2.7717519685039371
 30
0.0
 10
1.3096062992125985
 20
-2.3840708661417325
 30
0.0
 10
1.3096062992125985
 20
-2.3840708661417325
 30
0.0
 10
1.3096062992125985
 20
-2.3840708661417325
 30
0.0
 10
1.3096062992125985
 20
-2.3840708661417325
 30
0.0
 10
1.2830275590551181
 20
-2.5043661417322838
 30
0.0
 10
1.2830275590551181
 20
-2.5043661417322838
 30
0.0
  0
SPLINE
  5
2E
100
AcDbEntity
  8
Layer 1
 62
     9
100
AcDbSpline
210
0.0
220
0.0
230
1.0
 70
     1
 71
     3
 72
    20
 73
    16
 74
     0
 42
0.0000000001
 43
0.0000000001
 40
0.0
 40
0.0
 40
0.0
 40
0.0
 40
0.25
 40
0.25
 40
0.25
 40
0.25
 40
0.5
 40
0.5
 40
0.5
 40
0.5
 40
0.75
 40
0.75
 40
0.75
 40
0.75
 40
1.0
 40
1.0
 40
1.0
 40
1.0
 10
1.3096062992125985
 20
-2.3840708661417325
 30
0.0
 10
1.3096062992125985
 20
-2.3840708661417325
 30
0.0
 10
1.9542362204724411
 20
-2.7717519685039371
 30
0.0
 10
1.9542362204724411
 20
-2.7717519685039371
 30
0.0
 10
1.9542362204724411
 20
-2.7717519685039371
 30
0.0
 10
1.9542362204724411
 20
-2.7717519685039371
 30
0.0
 10
1.9837716535433072
 20
-2.6556653543307087
 30
0.0
 10
1.9837716535433072
 20
-2.6556653543307087
 30
0.0
 10
1.9837716535433072
 20
-2.6556653543307087
 30
0.0
 10
1.9837716535433072
 20
-2.6556653543307087
 30
0.0
 10
1.3391417322834647
 20
-2.2679842519685041
 30
0.0
 10
1.3391417322834647
 20
-2.2679842519685041
 30
0.0
 10
1.3391417322834647
 20
-2.2679842519685041
 30
0.0
 10
1.3391417322834647
 20
-2.2679842519685041
 30
0.0
 10
1.3096062992125985
 20
-2.3840708661417325
 30
0.0
 10
1.3096062992125985
 20
-2.3840708661417325
 30
0.0
  0
SPLINE
  5
2F
100
AcDbEntity
  8
Layer 1
 62
     9
100
AcDbSpline
210
0.0
220
0.0
230
1.0
 70
     1
 71
     3
 72
    20
 73
    16
 74
     0
 42
0.0000000001
 43
0.0000000001
 40
0.0
 40
0.0
 40
0.0
 40
0.0
 40
0.25
 40
0.25
 40
0.25
 40
0.25
 40
0.5
 40
0.5
 40
0.5
 40
0.5
 40
0.75
 40
0.75
 40
0.75
 40
0.75
 40
1.0
 40
1.0
 40
1.0
 40
1.0
 10
1.3391417322834647
 20
-2.2679842519685041
 30
0.0
 10
1.3391417322834647
 20
-2.2679842519685041
 30
0.0
 10
1.9837716535433072
 20
-2.6556653543307087
 30
0.0
 10
1.9837716535433072
 20
-2.6556653543307087
 30
0.0
 10
1.9837716535433072
 20
-2.6556653543307087
 30
0.0
 10
1.9837716535433072
 20
-2.6556653543307087
 30
0.0
 10
2.0160826771653544
 20
-2.5437755905511814
 30
0.0
 10
2.0160826771653544
 20
-2.5437755905511814
 30
0.0
 10
2.0160826771653544
 20
-2.5437755905511814
 30
0.0
 10
2.0160826771653544
 20
-2.5437755905511814
 30
0.0
 10
1.3714527559055119
 20
-2.1560944881889763
 30
0.0
 10
1.3714527559055119
 20
-2.1560944881889763
 30
0.0
 10
1.3714527559055119
 20
-2.1560944881889763
 30
0.0
 10
1.3714527559055119
 20
-2.1560944881889763
 30
0.0
 10
1.3391417322834647
 20
-2.2679842519685041
 30
0.0
 10
1.3391417322834647
 20
-2.2679842519685041
 30
0.0
  0
SPLINE
  5
30
100
AcDbEntity
  8
Layer 1
 62
     9
100
AcDbSpline
210
0.0
220
0.0
230
1.0
 70
     1
 71
     3
 72
    20
 73
    16
 74
     0
 42
0.0000000001
 43
0.0000000001
 40
0.0
 40
0.0
 40
0.0
 40
0.0
 40
0.25
 40
0.25
 40
0.25
 40
0.25
 40
0.5
 40
0.5
 40
0.5
 40
0.5
 40
0.75
 40
0.75
 40
0.75
 40
0.75
 40
1.0
 40
1.0
 40
1.0
 40
1.0
 10
1.3714527559055119
 20
-2.1560944881889763
 30
0.0
 10
1.3714527559055119
 20
-2.1560944881889763
 30
0.0
 10
2.0160826771653544
 20
-2.5437755905511814
 30
0.0
 10
2.0160826771653544
 20
-2.5437755905511814
 30
0.0
 10
2.0160826771653544
 20
-2.5437755905511814
 30
0.0
 10
2.0160826771653544
 20
-2.5437755905511814
 30
0.0
 10
2.050956692913386
 20
-2.4360629921259842
 30
0.0
 10
2.050956692913386
 20
-2.4360629921259842
 30
0.0
 10
2.050956692913386
 20
-2.4360629921259842
 30
0.0
 10
2.050956692913386
 20
-2.4360629921259842
 30
0.0
 10
1.4063267716535433
 20
-2.0483818897637796
 30
0.0
 10
1.4063267716535433
 20
-2.0483818897637796
 30
0.0
 10
1.4063267716535433
 20
-2.0483818897637796
 30
0.0
 10
1.4063267716535433
 20
-2.0483818897637796
 30
0.0
 10
1.3714527559055119
 20
-2.1560944881889763
 30
0.0
 10
1.3714527559055119
 20
-2.1560944881889763
 30
0.0
  0
SPLINE
  5
31
100
AcDbEntity
  8
Layer 1
 62
     9
100
AcDbSpline
210
0.0
220
0.0
230
1.0
 70
     1
 71
     3
 72
    20
 73
    16
 74
     0
 42
0.0000000001
 43
0.0000000001
 40
0.0
 40
0.0
 40
0.0
 40
0.0
 40
0.25
 40
0.25
 40
0.25
 40
0.25
 40
0.5
 40
0.5
 40
0.5
 40
0.5
 40
0.75
 40
0.75
 40
0.75
 40
0.75
 40
1.0
 40
1.0
 40
1.0
 40
1.0
 10
1.4063267716535433
 20
-2.0483818897637796
 30
0.0
 10
1.4063267716535433
 20
-2.0483818897637796
 30
0.0
 10
2.050956692913386
 20
-2.4360629921259842
 30
0.0
 10
2.050956692913386
 20
-2.4360629921259842
 30
0.0
 10
2.050956692913386
 20
-2.4360629921259842
 30
0.0
 10
2.050956692913386
 20
-2.4360629921259842
 30
0.0
 10
2.088208661417323
 20
-2.332503937007874
 30
0.0
 10
2.088208661417323
 20
-2.332503937007874
 30
0.0
 10
2.088208661417323
 20
-2.332503937007874
 30
0.0
 10
2.088208661417323
 20
-2.332503937007874
 30
0.0
 10
1.4435787401574804
 20
-1.9448228346456693
 30
0.0
 10
1.4435787401574804
 20
-1.9448228346456693
 30
0.0
 10
1.4435787401574804
 20
-1.9448228346456693
 30
0.0
 10
1.4435787401574804
 20
-1.9448228346456693
 30
0.0
 10
1.4063267716535433
 20
-2.0483818897637796
 30
0.0
 10
1.4063267716535433
 20
-2.0483818897637796
 30
0.0
  0
SPLINE
  5
32
100
AcDbEntity
  8
Layer 1
 62
     9
100
AcDbSpline
210
0.0
220
0.0
230
1.0
 70
     1
 71
     3
 72
    20
 73
    16
 74
     0
 42
0.0000000001
 43
0.0000000001
 40
0.0
 40
0.0
 40
0.0
 40
0.0
 40
0.25
 40
0.25
 40
0.25
 40
0.25
 40
0.5
 40
0.5
 40
0.5
 40
0.5
 40
0.75
 40
0.75
 40
0.75
 40
0.75
 40
1.0
 40
1.0
 40
1.0
 40
1.0
 10
1.4435787401574804
 20
-1.9448228346456693
 30
0.0
 10
1.4435787401574804
 20
-1.9448228346456693
 30
0.0
 10
2.088208661417323
 20
-2.332503937007874
 30
0.0
 10
2.088208661417323
 20
-2.332503937007874
 30
0.0
 10
2.088208661417323
 20
-2.332503937007874
 30
0.0
 10
2.088208661417323
 20
-2.332503937007874
 30
0.0
 10
2.1276259842519685
 20
-2.2331023622047246
 30
0.0
 10
2.1276259842519685
 20
-2.2331023622047246
 30
0.0
 10
2.1276259842519685
 20
-2.2331023622047246
 30
0.0
 10
2.1276259842519685
 20
-2.2331023622047246
 30
0.0
 10
1.4829960629921259
 20
-1.8454212598425197
 30
0.0
 10
1.4829960629921259
 20
-1.8454212598425197
 30
0.0
 10
1.4829960629921259
 20
-1.8454212598425197
 30
0.0
 10
1.4829960629921259
 20
-1.8454212598425197
 30
0.0
 10
1.4435787401574804
 20
-1.9448228346456693
 30
0.0
 10
1.4435787401574804
 20
-1.9448228346456693
 30
0.0
  0
SPLINE
  5
33
100
AcDbEntity
  8
Layer 1
 62
     9
100
AcDbSpline
210
0.0
220
0.0
230
1.0
 70
     1
 71
     3
 72
    20
 73
    16
 74
     0
 42
0.0000000001
 43
0.0000000001
 40
0.0
 40
0.0
 40
0.0
 40
0.0
 40
0.25
 40
0.25
 40
0.25
 40
0.25
 40
0.5
 40
0.5
 40
0.5
 40
0.5
 40
0.75
 40
0.75
 40
0.75
 40
0.75
 40
1.0
 40
1.0
 40
1.0
 40
1.0
 10
1.4829960629921259
 20
-1.8454212598425197
 30
0.0
 10
1.4829960629921259
 20
-1.8454212598425197
 30
0.0
 10
2.1276259842519685
 20
-2.2331023622047246
 30
0.0
 10
2.1276259842519685
 20
-2.2331023622047246
 30
0.0
 10
2.1276259842519685
 20
-2.2331023622047246
 30
0.0
 10
2.1276259842519685
 20
-2.2331023622047246
 30
0.0
 10
2.169027559055118
 20
-2.1378188976377954
 30
0.0
 10
2.169027559055118
 20
-2.1378188976377954
 30
0.0
 10
2.169027559055118
 20
-2.1378188976377954
 30
0.0
 10
2.169027559055118
 20
-2.1378188976377954
 30
0.0
 10
1.5243976377952757
 20
-1.7501377952755905
 30
0.0
 10
1.5243976377952757
 20
-1.7501377952755905
 30
0.0
 10
1.5243976377952757
 20
-1.7501377952755905
 30
0.0
 10
1.5243976377952757
 20
-1.7501377952755905
 30
0.0
 10
1.4829960629921259
 20
-1.8454212598425197
 30
0.0
 10
1.4829960629921259
 20
-1.8454212598425197
 30
0.0
  0
SPLINE
  5
34
100
AcDbEntity
  8
Layer 1
 62
     9
100
AcDbSpline
210
0.0
220
0.0
230
1.0
 70
     1
 71
     3
 72
    20
 73
    16
 74
     0
 42
0.0000000001
 43
0.0000000001
 40
0.0
 40
0.0
 40
0.0
 40
0.0
 40
0.25
 40
0.25
 40
0.25
 40
0.25
 40
0.5
 40
0.5
 40
0.5
 40
0.5
 40
0.75
 40
0.75
 40
0.75
 40
0.75
 40
1.0
 40
1.0
 40
1.0
 40
1.0
 10
1.5243976377952757
 20
-1.7501377952755905
 30
0.0
 10
1.5243976377952757
 20
-1.7501377952755905
 30
0.0
 10
2.169027559055118
 20
-2.1378188976377954
 30
0.0
 10
2.169027559055118
 20
-2.1378188976377954
 30
0.0
 10
2.169027559055118
 20
-2.1378188976377954
 30
0.0
 10
2.169027559055118
 20
-2.1378188976377954
 30
0.0
 10
2.2122007874015748
 20
-2.0466535433070865
 30
0.0
 10
2.2122007874015748
 20
-2.0466535433070865
 30
0.0
 10
2.2122007874015748
 20
-2.0466535433070865
 30
0.0
 10
2.2122007874015748
 20
-2.0466535433070865
 30
0.0
 10
1.5675708661417322
 20
-1.6589724409448821
 30
0.0
 10
1.5675708661417322
 20
-1.6589724409448821
 30
0.0
 10
1.5675708661417322
 20
-1.6589724409448821
 30
0.0
 10
1.5675708661417322
 20
-1.6589724409448821
 30
0.0
 10
1.5243976377952757
 20
-1.7501377952755905
 30
0.0
 10
1.5243976377952757
 20
-1.7501377952755905
 30
0.0
  0
SPLINE
  5
35
100
AcDbEntity
  8
Layer 1
 62
     9
100
AcDbSpline
210
0.0
220
0.0
230
1.0
 70
     1
 71
     3
 72
    20
 73
    16
 74
     0
 42
0.0000000001
 43
0.0000000001
 40
0.0
 40
0.0
 40
0.0
 40
0.0
 40
0.25
 40
0.25
 40
0.25
 40
0.25
 40
0.5
 40
0.5
 40
0.5
 40
0.5
 40
0.75
 40
0.75
 40
0.75
 40
0.75
 40
1.0
 40
1.0
 40
1.0
 40
1.0
 10
1.5675708661417322
 20
-1.6589724409448821
 30
0.0
 10
1.5675708661417322
 20
-1.6589724409448821
 30
0.0
 10
2.2122007874015748
 20
-2.0466535433070865
 30
0.0
 10
2.2122007874015748
 20
-2.0466535433070865
 30
0.0
 10
2.2122007874015748
 20
-2.0466535433070865
 30
0.0
 10
2.2122007874015748
 20
-2.0466535433070865
 30
0.0
 10
2.256956692913386
 20
-1.9595748031496063
 30
0.0
 10
2.256956692913386
 20
-1.9595748031496063
 30
0.0
 10
2.256956692913386
 20
-1.9595748031496063
 30
0.0
 10
2.256956692913386
 20
-1.9595748031496063
 30
0.0
 10
1.6123267716535434
 20
-1.5718937007874016
 30
0.0
 10
1.6123267716535434
 20
-1.5718937007874016
 30
0.0
 10
1.6123267716535434
 20
-1.5718937007874016
 30
0.0
 10
1.6123267716535434
 20
-1.5718937007874016
 30
0.0
 10
1.5675708661417322
 20
-1.6589724409448821
 30
0.0
 10
1.5675708661417322
 20
-1.6589724409448821
 30
0.0
  0
SPLINE
  5
36
100
AcDbEntity
  8
Layer 1
 62
     9
100
AcDbSpline
210
0.0
220
0.0
230
1.0
 70
     1
 71
     3
 72
    20
 73
    16
 74
     0
 42
0.0000000001
 43
0.0000000001
 40
0.0
 40
0.0
 40
0.0
 40
0.0
 40
0.25
 40
0.25
 40
0.25
 40
0.25
 40
0.5
 40
0.5
 40
0.5
 40
0.5
 40
0.75
 40
0.75
 40
0.75
 40
0.75
 40
1.0
 40
1.0
 40
1.0
 40
1.0
 10
1.6123267716535434
 20
-1.5718937007874016
 30
0.0
 10
1.6123267716535434
 20
-1.5718937007874016
 30
0.0
 10
2.256956692913386
 20
-1.9595748031496063
 30
0.0
 10
2.256956692913386
 20
-1.9595748031496063
 30
0.0
 10
2.256956692913386
 20
-1.9595748031496063
 30
0.0
 10
2.256956692913386
 20
-1.9595748031496063
 30
0.0
 10
2.3030826771653543
 20
-1.8765866141732284
 30
0.0
 10
2.3030826771653543
 20
-1.8765866141732284
 30
0.0
 10
2.3030826771653543
 20
-1.8765866141732284
 30
0.0
 10
2.3030826771653543
 20
-1.8765866141732284
 30
0.0
 10
1.6584527559055118
 20
-1.4889055118110237
 30
0.0
 10
1.6584527559055118
 20
-1.4889055118110237
 30
0.0
 10
1.6584527559055118
 20
-1.4889055118110237
 30
0.0
 10
1.6584527559055118
 20
-1.4889055118110237
 30
0.0
 10
1.6123267716535434
 20
-1.5718937007874016
 30
0.0
 10
1.6123267716535434
 20
-1.5718937007874016
 30
0.0
  0
SPLINE
  5
37
100
AcDbEntity
  8
Layer 1
 62
     9
100
AcDbSpline
210
0.0
220
0.0
230
1.0
 70
     1
 71
     3
 72
    20
 73
    16
 74
     0
 42
0.0000000001
 43
0.0000000001
 40
0.0
 40
0.0
 40
0.0
 40
0.0
 40
0.25
 40
0.25
 40
0.25
 40
0.25
 40
0.5
 40
0.5
 40
0.5
 40
0.5
 40
0.75
 40
0.75
 40
0.75
 40
0.75
 40
1.0
 40
1.0
 40
1.0
 40
1.0
 10
1.6584527559055118
 20
-1.4889055118110237
 30
0.0
 10
1.6584527559055118
 20
-1.4889055118110237
 30
0.0
 10
2.3030826771653543
 20
-1.8765866141732284
 30
0.0
 10
2.3030826771653543
 20
-1.8765866141732284
 30
0.0
 10
2.3030826771653543
 20
-1.8765866141732284
 30
0.0
 10
2.3030826771653543
 20
-1.8765866141732284
 30
0.0
 10
2.3503976377952758
 20
-1.7976574803149608
 30
0.0
 10
2.3503976377952758
 20
-1.7976574803149608
 30
0.0
 10
2.3503976377952758
 20
-1.7976574803149608
 30
0.0
 10
2.3503976377952758
 20
-1.7976574803149608
 30
0.0
 10
1.7057677165354332
 20
-1.4099763779527559
 30
0.0
 10
1.7057677165354332
 20
-1.4099763779527559
 30
0.0
 10
1.7057677165354332
 20
-1.4099763779527559
 30
0.0
 10
1.7057677165354332
 20
-1.4099763779527559
 30
0.0
 10
1.6584527559055118
 20
-1.4889055118110237
 30
0.0
 10
1.6584527559055118
 20
-1.4889055118110237
 30
0.0
  0
SPLINE
  5
38
100
AcDbEntity
  8
Layer 1
 62
     9
100
AcDbSpline
210
0.0
220
0.0
230
1.0
 70
     1
 71
     3
 72
    20
 73
    16
 74
     0
 42
0.0000000001
 43
0.0000000001
 40
0.0
 40
0.0
 40
0.0
 40
0.0
 40
0.25
 40
0.25
 40
0.25
 40
0.25
 40
0.5
 40
0.5
 40
0.5
 40
0.5
 40
0.75
 40
0.75
 40
0.75
 40
0.75
 40
1.0
 40
1.0
 40
1.0
 40
1.0
 10
1.7057677165354332
 20
-1.4099763779527559
 30
0.0
 10
1.7057677165354332
 20
-1.4099763779527559
 30
0.0
 10
2.3503976377952758
 20
-1.7976574803149608
 30
0.0
 10
2.3503976377952758
 20
-1.7976574803149608
 30
0.0
 10
2.3503976377952758
 20
-1.7976574803149608
 30
0.0
 10
2.3503976377952758
 20
-1.7976574803149608
 30
0.0
 10
2.398692913385827
 20
-1.7227716535433071
 30
0.0
 10
2.398692913385827
 20
-1.7227716535433071
 30
0.0
 10
2.398692913385827
 20
-1.7227716535433071
 30
0.0
 10
2.398692913385827
 20
-1.7227716535433071
 30
0.0
 10
1.7540629921259843
 20
-1.3350905511811024
 30
0.0
 10
1.7540629921259843
 20
-1.3350905511811024
 30
0.0
 10
1.7540629921259843
 20
-1.3350905511811024
 30
0.0
 10
1.7540629921259843
 20
-1.3350905511811024
 30
0.0
 10
1.7057677165354332
 20
-1.4099763779527559
 30
0.0
 10
1.7057677165354332
 20
-1.4099763779527559
 30
0.0
  0
SPLINE
  5
39
100
AcDbEntity
  8
Layer 1
 62
     9
100
AcDbSpline
210
0.0
220
0.0
230
1.0
 70
     1
 71
     3
 72
    20
 73
    16
 74
     0
 42
0.0000000001
 43
0.0000000001
 40
0.0
 40
0.0
 40
0.0
 40
0.0
 40
0.25
 40
0.25
 40
0.25
 40
0.25
 40
0.5
 40
0.5
 40
0.5
 40
0.5
 40
0.75
 40
0.75
 40
0.75
 40
0.75
 40
1.0
 40
1.0
 40
1.0
 40
1.0
 10
1.7540629921259843
 20
-1.3350905511811024
 30
0.0
 10
1.7540629921259843
 20
-1.3350905511811024
 30
0.0
 10
2.398692913385827
 20
-1.7227716535433071
 30
0.0
 10
2.398692913385827
 20
-1.7227716535433071
 30
0.0
 10
2.398692913385827
 20
-1.7227716535433071
 30
0.0
 10
2.398692913385827
 20
-1.7227716535433071
 30
0.0
 10
2.4477795275590553
 20
-1.6519133858267716
 30
0.0
 10
2.4477795275590553
 20
-1.6519133858267716
 30
0.0
 10
2.4477795275590553
 20
-1.6519133858267716
 30
0.0
 10
2.4477795275590553
 20
-1.6519133858267716
 30
0.0
 10
1.8031496062992127
 20
-1.264232283464567
 30
0.0
 10
1.8031496062992127
 20
-1.264232283464567
 30
0.0
 10
1.8031496062992127
 20
-1.264232283464567
 30
0.0
 10
1.8031496062992127
 20
-1.264232283464567
 30
0.0
 10
1.7540629921259843
 20
-1.3350905511811024
 30
0.0
 10
1.7540629921259843
 20
-1.3350905511811024
 30
0.0
  0
SPLINE
  5
3A
100
AcDbEntity
  8
Layer 1
 62
     9
100
AcDbSpline
210
0.0
220
0.0
230
1.0
 70
     1
 71
     3
 72
    20
 73
    16
 74
     0
 42
0.0000000001
 43
0.0000000001
 40
0.0
 40
0.0
 40
0.0
 40
0.0
 40
0.25
 40
0.25
 40
0.25
 40
0.25
 40
0.5
 40
0.5
 40
0.5
 40
0.5
 40
0.75
 40
0.75
 40
0.75
 40
0.75
 40
1.0
 40
1.0
 40
1.0
 40
1.0
 10
1.8031496062992127
 20
-1.264232283464567
 30
0.0
 10
1.8031496062992127
 20
-1.264232283464567
 30
0.0
 10
2.4477795275590553
 20
-1.6519133858267716
 30
0.0
 10
2.4477795275590553
 20
-1.6519133858267716
 30
0.0
 10
2.4477795275590553
 20
-1.6519133858267716
 30
0.0
 10
2.4477795275590553
 20
-1.6519133858267716
 30
0.0
 10
2.4974448818897637
 20
-1.5850748031496062
 30
0.0
 10
2.4974448818897637
 20
-1.5850748031496062
 30
0.0
 10
2.4974448818897637
 20
-1.5850748031496062
 30
0.0
 10
2.4974448818897637
 20
-1.5850748031496062
 30
0.0
 10
1.8528149606299213
 20
-1.1973937007874016
 30
0.0
 10
1.8528149606299213
 20
-1.1973937007874016
 30
0.0
 10
1.8528149606299213
 20
-1.1973937007874016
 30
0.0
 10
1.8528149606299213
 20
-1.1973937007874016
 30
0.0
 10
1.8031496062992127
 20
-1.264232283464567
 30
0.0
 10
1.8031496062992127
 20
-1.264232283464567
 30
0.0
  0
SPLINE
  5
3B
100
AcDbEntity
  8
Layer 1
 62
     9
100
AcDbSpline
210
0.0
220
0.0
230
1.0
 70
     1
 71
     3
 72
    20
 73
    16
 74
     0
 42
0.0000000001
 43
0.0000000001
 40
0.0
 40
0.0
 40
0.0
 40
0.0
 40
0.25
 40
0.25
 40
0.25
 40
0.25
 40
0.5
 40
0.5
 40
0.5
 40
0.5
 40
0.75
 40
0.75
 40
0.75
 40
0.75
 40
1.0
 40
1.0
 40
1.0
 40
1.0
 10
1.8528149606299213
 20
-1.1973937007874016
 30
0.0
 10
1.8528149606299213
 20
-1.1973937007874016
 30
0.0
 10
2.4974448818897637
 20
-1.5850748031496062
 30
0.0
 10
2.4974448818897637
 20
-1.5850748031496062
 30
0.0
 10
2.4974448818897637
 20
-1.5850748031496062
 30
0.0
 10
2.4974448818897637
 20
-1.5850748031496062
 30
0.0
 10
2.5475039370078743
 20
-1.522228346456693
 30
0.0
 10
2.5475039370078743
 20
-1.522228346456693
 30
0.0
 10
2.5475039370078743
 20
-1.522228346456693
 30
0.0
 10
2.5475039370078743
 20
-1.522228346456693
 30
0.0
 10
1.9028740157480315
 20
-1.1345472440944881
 30
0.0
 10
1.9028740157480315
 20
-1.1345472440944881
 30
0.0
 10
1.9028740157480315
 20
-1.1345472440944881
 30
0.0
 10
1.9028740157480315
 20
-1.1345472440944881
 30
0.0
 10
1.8528149606299213
 20
-1.1973937007874016
 30
0.0
 10
1.8528149606299213
 20
-1.1973937007874016
 30
0.0
  0
SPLINE
  5
3C
100
AcDbEntity
  8
Layer 1
 62
     9
100
AcDbSpline
210
0.0
220
0.0
230
1.0
 70
     1
 71
     3
 72
    20
 73
    16
 74
     0
 42
0.0000000001
 43
0.0000000001
 40
0.0
 40
0.0
 40
0.0
 40
0.0
 40
0.25
 40
0.25
 40
0.25
 40
0.25
 40
0.5
 40
0.5
 40
0.5
 40
0.5
 40
0.75
 40
0.75
 40
0.75
 40
0.75
 40
1.0
 40
1.0
 40
1.0
 40
1.0
 10
1.9028740157480315
 20
-1.1345472440944881
 30
0.0
 10
1.9028740157480315
 20
-1.1345472440944881
 30
0.0
 10
2.5475039370078743
 20
-1.522228346456693
 30
0.0
 10
2.5475039370078743
 20
-1.522228346456693
 30
0.0
 10
2.5475039370078743
 20
-1.522228346456693
 30
0.0
 10
2.5475039370078743
 20
-1.522228346456693
 30
0.0
 10
2.5977519685039372
 20
-1.4633622047244095
 30
0.0
 10
2.5977519685039372
 20
-1.4633622047244095
 30
0.0
 10
2.5977519685039372
 20
-1.4633622047244095
 30
0.0
 10
2.5977519685039372
 20
-1.4633622047244095
 30
0.0
 10
1.9531220472440947
 20
-1.0756811023622048
 30
0.0
 10
1.9531220472440947
 20
-1.0756811023622048
 30
0.0
 10
1.9531220472440947
 20
-1.0756811023622048
 30
0.0
 10
1.9531220472440947
 20
-1.0756811023622048
 30
0.0
 10
1.9028740157480315
 20
-1.1345472440944881
 30
0.0
 10
1.9028740157480315
 20
-1.1345472440944881
 30
0.0
  0
SPLINE
  5
3D
100
AcDbEntity
  8
Layer 1
 62
     9
100
AcDbSpline
210
0.0
220
0.0
230
1.0
 70
     1
 71
     3
 72
    20
 73
    16
 74
     0
 42
0.0000000001
 43
0.0000000001
 40
0.0
 40
0.0
 40
0.0
 40
0.0
 40
0.25
 40
0.25
 40
0.25
 40
0.25
 40
0.5
 40
0.5
 40
0.5
 40
0.5
 40
0.75
 40
0.75
 40
0.75
 40
0.75
 40
1.0
 40
1.0
 40
1.0
 40
1.0
 10
1.9531220472440947
 20
-1.0756811023622048
 30
0.0
 10
1.9531220472440947
 20
-1.0756811023622048
 30
0.0
 10
2.5977519685039372
 20
-1.4633622047244095
 30
0.0
 10
2.5977519685039372
 20
-1.4633622047244095
 30
0.0
 10
2.5977519685039372
 20
-1.4633622047244095
 30
0.0
 10
2.5977519685039372
 20
-1.4633622047244095
 30
0.0
 10
2.6479960629921262
 20
-1.4084527559055118
 30
0.0
 10
2.6479960629921262
 20
-1.4084527559055118
 30
0.0
 10
2.6479960629921262
 20
-1.4084527559055118
 30
0.0
 10
2.6479960629921262
 20
-1.4084527559055118
 30
0.0
 10
2.0033661417322834
 20
-1.0207716535433071
 30
0.0
 10
2.0033661417322834
 20
-1.0207716535433071
 30
0.0
 10
2.0033661417322834
 20
-1.0207716535433071
 30
0.0
 10
2.0033661417322834
 20
-1.0207716535433071
 30
0.0
 10
1.9531220472440947
 20
-1.0756811023622048
 30
0.0
 10
1.9531220472440947
 20
-1.0756811023622048
 30
0.0
  0
SPLINE
  5
3E
100
AcDbEntity
  8
Layer 1
 62
     9
100
AcDbSpline
210
0.0
220
0.0
230
1.0
 70
     1
 71
     3
 72
    20
 73
    16
 74
     0
 42
0.0000000001
 43
0.0000000001
 40
0.0
 40
0.0
 40
0.0
 40
0.0
 40
0.25
 40
0.25
 40
0.25
 40
0.25
 40
0.5
 40
0.5
 40
0.5
 40
0.5
 40
0.75
 40
0.75
 40
0.75
 40
0.75
 40
1.0
 40
1.0
 40
1.0
 40
1.0
 10
2.0033661417322834
 20
-1.0207716535433071
 30
0.0
 10
2.0033661417322834
 20
-1.0207716535433071
 30
0.0
 10
2.6479960629921262
 20
-1.4084527559055118
 30
0.0
 10
2.6479960629921262
 20
-1.4084527559055118
 30
0.0
 10
2.6479960629921262
 20
-1.4084527559055118
 30
0.0
 10
2.6479960629921262
 20
-1.4084527559055118
 30
0.0
 10
2.698023622047244
 20
-1.3575000000000002
 30
0.0
 10
2.698023622047244
 20
-1.3575000000000002
 30
0.0
 10
2.698023622047244
 20
-1.3575000000000002
 30
0.0
 10
2.698023622047244
 20
-1.3575000000000002
 30
0.0
 10
2.0533937007874017
 20
-0.9698188976377953
 30
0.0
 10
2.0533937007874017
 20
-0.9698188976377953
 30
0.0
 10
2.0533937007874017
 20
-0.9698188976377953
 30
0.0
 10
2.0533937007874017
 20
-0.9698188976377953
 30
0.0
 10
2.0033661417322834
 20
-1.0207716535433071
 30
0.0
 10
2.0033661417322834
 20
-1.0207716535433071
 30
0.0
  0
SPLINE
  5
3F
100
AcDbEntity
  8
Layer 1
 62
     9
100
AcDbSpline
210
0.0
220
0.0
230
1.0
 70
     1
 71
     3
 72
    20
 73
    16
 74
     0
 42
0.0000000001
 43
0.0000000001
 40
0.0
 40
0.0
 40
0.0
 40
0.0
 40
0.25
 40
0.25
 40
0.25
 40
0.25
 40
0.5
 40
0.5
 40
0.5
 40
0.5
 40
0.75
 40
0.75
 40
0.75
 40
0.75
 40
1.0
 40
1.0
 40
1.0
 40
1.0
 10
2.0533937007874017
 20
-0.9698188976377953
 30
0.0
 10
2.0533937007874017
 20
-0.9698188976377953
 30
0.0
 10
2.698023622047244
 20
-1.3575000000000002
 30
0.0
 10
2.698023622047244
 20
-1.3575000000000002
 30
0.0
 10
2.698023622047244
 20
-1.3575000000000002
 30
0.0
 10
2.698023622047244
 20
-1.3575000000000002
 30
0.0
 10
2.7476535433070866
 20
-1.3104685039370079
 30
0.0
 10
2.7476535433070866
 20
-1.3104685039370079
 30
0.0
 10
2.7476535433070866
 20
-1.3104685039370079
 30
0.0
 10
2.7476535433070866
 20
-1.3104685039370079
 30
0.0
 10
2.1030236220472442
 20
-0.9227874015748032
 30
0.0
 10
2.1030236220472442
 20
-0.9227874015748032
 30
0.0
 10
2.1030236220472442
 20
-0.9227874015748032
 30
0.0
 10
2.1030236220472442
 20
-0.9227874015748032
 30
0.0
 10
2.0533937007874017
 20
-0.9698188976377953
 30
0.0
 10
2.0533937007874017
 20
-0.9698188976377953
 30
0.0
  0
SPLINE
  5
40
100
AcDbEntity
  8
Layer 1
 62
     9
100
AcDbSpline
210
0.0
220
0.0
230
1.0
 70
     1
 71
     3
 72
    20
 73
    16
 74
     0
 42
0.0000000001
 43
0.0000000001
 40
0.0
 40
0.0
 40
0.0
 40
0.0
 40
0.25
 40
0.25
 40
0.25
 40
0.25
 40
0.5
 40
0.5
 40
0.5
 40
0.5
 40
0.75
 40
0.75
 40
0.75
 40
0.75
 40
1.0
 40
1.0
 40
1.0
 40
1.0
 10
2.1030236220472442
 20
-0.9227874015748032
 30
0.0
 10
2.1030236220472442
 20
-0.9227874015748032
 30
0.0
 10
2.7476535433070866
 20
-1.3104685039370079
 30
0.0
 10
2.7476535433070866
 20
-1.3104685039370079
 30
0.0
 10
2.7476535433070866
 20
-1.3104685039370079
 30
0.0
 10
2.7476535433070866
 20
-1.3104685039370079
 30
0.0
 10
2.796677165354331
 20
-1.2673543307086614
 30
0.0
 10
2.796677165354331
 20
-1.2673543307086614
 30
0.0
 10
2.796677165354331
 20
-1.2673543307086614
 30
0.0
 10
2.796677165354331
 20
-1.2673543307086614
 30
0.0
 10
2.1520472440944882
 20
-0.8796732283464568
 30
0.0
 10
2.1520472440944882
 20
-0.8796732283464568
 30
0.0
 10
2.1520472440944882
 20
-0.8796732283464568
 30
0.0
 10
2.1520472440944882
 20
-0.8796732283464568
 30
0.0
 10
2.1030236220472442
 20
-0.9227874015748032
 30
0.0
 10
2.1030236220472442
 20
-0.9227874015748032
 30
0.0
  0
SPLINE
  5
41
100
AcDbEntity
  8
Layer 1
 62
     9
100
AcDbSpline
210
0.0
220
0.0
230
1.0
 70
     1
 71
     3
 72
    20
 73
    16
 74
     0
 42
0.0000000001
 43
0.0000000001
 40
0.0
 40
0.0
 40
0.0
 40
0.0
 40
0.25
 40
0.25
 40
0.25
 40
0.25
 40
0.5
 40
0.5
 40
0.5
 40
0.5
 40
0.75
 40
0.75
 40
0.75
 40
0.75
 40
1.0
 40
1.0
 40
1.0
 40
1.0
 10
2.1520472440944882
 20
-0.8796732283464568
 30
0.0
 10
2.1520472440944882
 20
-0.8796732283464568
 30
0.0
 10
2.796677165354331
 20
-1.2673543307086614
 30
0.0
 10
2.796677165354331
 20
-1.2673543307086614
 30
0.0
 10
2.796677165354331
 20
-1.2673543307086614
 30
0.0
 10
2.796677165354331
 20
-1.2673543307086614
 30
0.0
 10
2.8449055118110236
 20
-1.2281338582677166
 30
0.0
 10
2.8449055118110236
 20
-1.2281338582677166
 30
0.0
 10
2.8449055118110236
 20
-1.2281338582677166
 30
0.0
 10
2.8449055118110236
 20
-1.2281338582677166
 30
0.0
 10
2.2002755905511813
 20
-0.8404527559055118
 30
0.0
 10
2.2002755905511813
 20
-0.8404527559055118
 30
0.0
 10
2.2002755905511813
 20
-0.8404527559055118
 30
0.0
 10
2.2002755905511813
 20
-0.8404527559055118
 30
0.0
 10
2.1520472440944882
 20
-0.8796732283464568
 30
0.0
 10
2.1520472440944882
 20
-0.8796732283464568
 30
0.0
  0
SPLINE
  5
42
100
AcDbEntity
  8
Layer 1
 62
     9
100
AcDbSpline
210
0.0
220
0.0
230
1.0
 70
     1
 71
     3
 72
    20
 73
    16
 74
     0
 42
0.0000000001
 43
0.0000000001
 40
0.0
 40
0.0
 40
0.0
 40
0.0
 40
0.25
 40
0.25
 40
0.25
 40
0.25
 40
0.5
 40
0.5
 40
0.5
 40
0.5
 40
0.75
 40
0.75
 40
0.75
 40
0.75
 40
1.0
 40
1.0
 40
1.0
 40
1.0
 10
2.2002755905511813
 20
-0.8404527559055118
 30
0.0
 10
2.2002755905511813
 20
-0.8404527559055118
 30
0.0
 10
2.8449055118110236
 20
-1.2281338582677166
 30
0.0
 10
2.8449055118110236
 20
-1.2281338582677166
 30
0.0
 10
2.8449055118110236
 20
-1.2281338582677166
 30
0.0
 10
2.8449055118110236
 20
-1.2281338582677166
 30
0.0
 10
2.8921259842519684
 20
-1.1927992125984253
 30
0.0
 10
2.8921259842519684
 20
-1.1927992125984253
 30
0.0
 10
2.8921259842519684
 20
-1.1927992125984253
 30
0.0
 10
2.8921259842519684
 20
-1.1927992125984253
 30
0.0
 10
2.2474960629921261
 20
-0.8051181102362205
 30
0.0
 10
2.2474960629921261
 20
-0.8051181102362205
 30
0.0
 10
2.2474960629921261
 20
-0.8051181102362205
 30
0.0
 10
2.2474960629921261
 20
-0.8051181102362205
 30
0.0
 10
2.2002755905511813
 20
-0.8404527559055118
 30
0.0
 10
2.2002755905511813
 20
-0.8404527559055118
 30
0.0
  0
SPLINE
  5
43
100
AcDbEntity
  8
Layer 1
 62
     9
100
AcDbSpline
210
0.0
220
0.0
230
1.0
 70
     1
 71
     3
 72
    20
 73
    16
 74
     0
 42
0.0000000001
 43
0.0000000001
 40
0.0
 40
0.0
 40
0.0
 40
0.0
 40
0.25
 40
0.25
 40
0.25
 40
0.25
 40
0.5
 40
0.5
 40
0.5
 40
0.5
 40
0.75
 40
0.75
 40
0.75
 40
0.75
 40
1.0
 40
1.0
 40
1.0
 40
1.0
 10
2.2474960629921261
 20
-0.8051181102362205
 30
0.0
 10
2.2474960629921261
 20
-0.8051181102362205
 30
0.0
 10
2.8921259842519684
 20
-1.1927992125984253
 30
0.0
 10
2.8921259842519684
 20
-1.1927992125984253
 30
0.0
 10
2.8921259842519684
 20
-1.1927992125984253
 30
0.0
 10
2.8921259842519684
 20
-1.1927992125984253
 30
0.0
 10
2.9381535433070867
 20
-1.1613188976377953
 30
0.0
 10
2.9381535433070867
 20
-1.1613188976377953
 30
0.0
 10
2.9381535433070867
 20
-1.1613188976377953
 30
0.0
 10
2.9381535433070867
 20
-1.1613188976377953
 30
0.0
 10
2.2935236220472444
 20
-0.7736377952755906
 30
0.0
 10
2.2935236220472444
 20
-0.7736377952755906
 30
0.0
 10
2.2935236220472444
 20
-0.7736377952755906
 30
0.0
 10
2.2935236220472444
 20
-0.7736377952755906
 30
0.0
 10
2.2474960629921261
 20
-0.8051181102362205
 30
0.0
 10
2.2474960629921261
 20
-0.8051181102362205
 30
0.0
  0
SPLINE
  5
44
100
AcDbEntity
  8
Layer 1
 62
     9
100
AcDbSpline
210
0.0
220
0.0
230
1.0
 70
     1
 71
     3
 72
    20
 73
    16
 74
     0
 42
0.0000000001
 43
0.0000000001
 40
0.0
 40
0.0
 40
0.0
 40
0.0
 40
0.25
 40
0.25
 40
0.25
 40
0.25
 40
0.5
 40
0.5
 40
0.5
 40
0.5
 40
0.75
 40
0.75
 40
0.75
 40
0.75
 40
1.0
 40
1.0
 40
1.0
 40
1.0
 10
2.2935236220472444
 20
-0.7736377952755906
 30
0.0
 10
2.2935236220472444
 20
-0.7736377952755906
 30
0.0
 10
2.9381535433070867
 20
-1.1613188976377953
 30
0.0
 10
2.9381535433070867
 20
-1.1613188976377953
 30
0.0
 10
2.9381535433070867
 20
-1.1613188976377953
 30
0.0
 10
2.9381535433070867
 20
-1.1613188976377953
 30
0.0
 10
2.9827834645669293
 20
-1.1336929133858269
 30
0.0
 10
2.9827834645669293
 20
-1.1336929133858269
 30
0.0
 10
2.9827834645669293
 20
-1.1336929133858269
 30
0.0
 10
2.9827834645669293
 20
-1.1336929133858269
 30
0.0
 10
2.3381535433070866
 20
-0.7460118110236221
 30
0.0
 10
2.3381535433070866
 20
-0.7460118110236221
 30
0.0
 10
2.3381535433070866
 20
-0.7460118110236221
 30
0.0
 10
2.3381535433070866
 20
-0.7460118110236221
 30
0.0
 10
2.2935236220472444
 20
-0.7736377952755906
 30
0.0
 10
2.2935236220472444
 20
-0.7736377952755906
 30
0.0
  0
SPLINE
  5
45
100
AcDbEntity
  8
Layer 1
 62
     9
100
AcDbSpline
210
0.0
220
0.0
230
1.0
 70
     1
 71
     3
 72
    20
 73
    16
 74
     0
 42
0.0000000001
 43
0.0000000001
 40
0.0
 40
0.0
 40
0.0
 40
0.0
 40
0.25
 40
0.25
 40
0.25
 40
0.25
 40
0.5
 40
0.5
 40
0.5
 40
0.5
 40
0.75
 40
0.75
 40
0.75
 40
0.75
 40
1.0
 40
1.0
 40
1.0
 40
1.0
 10
2.3381535433070866
 20
-0.7460118110236221
 30
0.0
 10
2.3381535433070866
 20
-0.7460118110236221
 30
0.0
 10
2.9827834645669293
 20
-1.1336929133858269
 30
0.0
 10
2.9827834645669293
 20
-1.1336929133858269
 30
0.0
 10
2.9827834645669293
 20
-1.1336929133858269
 30
0.0
 10
2.9827834645669293
 20
-1.1336929133858269
 30
0.0
 10
3.0258267716535436
 20
-1.1098897637795275
 30
0.0
 10
3.0258267716535436
 20
-1.1098897637795275
 30
0.0
 10
3.0258267716535436
 20
-1.1098897637795275
 30
0.0
 10
3.0258267716535436
 20
-1.1098897637795275
 30
0.0
 10
2.3811968503937009
 20
-0.7222086614173229
 30
0.0
 10
2.3811968503937009
 20
-0.7222086614173229
 30
0.0
 10
2.3811968503937009
 20
-0.7222086614173229
 30
0.0
 10
2.3811968503937009
 20
-0.7222086614173229
 30
0.0
 10
2.3381535433070866
 20
-0.7460118110236221
 30
0.0
 10
2.3381535433070866
 20
-0.7460118110236221
 30
0.0
  0
SPLINE
  5
46
100
AcDbEntity
  8
Layer 1
370
     5
100
AcDbSpline
210
0.0
220
0.0
230
1.0
 70
     1
 71
     3
 72
   268
 73
   264
 74
     0
 42
0.0000000001
 43
0.0000000001
 40
0.0
 40
0.0
 40
0.0
 40
0.0
 40
0.0151515151515152
 40
0.0151515151515152
 40
0.0151515151515152
 40
0.0151515151515152
 40
0.0303030303030303
 40
0.0303030303030303
 40
0.0303030303030303
 40
0.0303030303030303
 40
0.0454545454545455
 40
0.0454545454545455
 40
0.0454545454545455
 40
0.0454545454545455
 40
0.0606060606060606
 40
0.0606060606060606
 40
0.0606060606060606
 40
0.0606060606060606
 40
0.0757575757575758
 40
0.0757575757575758
 40
0.0757575757575758
 40
0.0757575757575758
 40
0.0909090909090909
 40
0.0909090909090909
 40
0.0909090909090909
 40
0.0909090909090909
 40
0.1060606060606061
 40
0.1060606060606061
 40
0.1060606060606061
 40
0.1060606060606061
 40
0.1212121212121212
 40
0.1212121212121212
 40
0.1212121212121212
 40
0.1212121212121212
 40
0.1363636363636364
 40
0.1363636363636364
 40
0.1363636363636364
 40
0.1363636363636364
 40
0.1515151515151515
 40
0.1515151515151515
 40
0.1515151515151515
 40
0.1515151515151515
 40
0.1666666666666666
 40
0.1666666666666666
 40
0.1666666666666666
 40
0.1666666666666666
 40
0.1818181818181818
 40
0.1818181818181818
 40
0.1818181818181818
 40
0.1818181818181818
 40
0.1969696969696969
 40
0.1969696969696969
 40
0.1969696969696969
 40
0.1969696969696969
 40
0.212121212121212
 40
0.212121212121212
 40
0.212121212121212
 40
0.212121212121212
 40
0.2272727272727272
 40
0.2272727272727272
 40
0.2272727272727272
 40
0.2272727272727272
 40
0.2424242424242423
 40
0.2424242424242423
 40
0.2424242424242423
 40
0.2424242424242423
 40
0.2575757575757575
 40
0.2575757575757575
 40
0.2575757575757575
 40
0.2575757575757575
 40
0.2727272727272726
 40
0.2727272727272726
 40
0.2727272727272726
 40
0.2727272727272726
 40
0.2878787878787877
 40
0.2878787878787877
 40
0.2878787878787877
 40
0.2878787878787877
 40
0.3030303030303029
 40
0.3030303030303029
 40
0.3030303030303029
 40
0.3030303030303029
 40
0.318181818181818
 40
0.318181818181818
 40
0.318181818181818
 40
0.318181818181818
 40
0.3333333333333332
 40
0.3333333333333332
 40
0.3333333333333332
 40
0.3333333333333332
 40
0.3484848484848483
 40
0.3484848484848483
 40
0.3484848484848483
 40
0.3484848484848483
 40
0.3636363636363634
 40
0.3636363636363634
 40
0.3636363636363634
 40
0.3636363636363634
 40
0.3787878787878786
 40
0.3787878787878786
 40
0.3787878787878786
 40
0.3787878787878786
 40
0.3939393939393937
 40
0.3939393939393937
 40
0.3939393939393937
 40
0.3939393939393937
 40
0.4090909090909088
 40
0.4090909090909088
 40
0.4090909090909088
 40
0.4090909090909088
 40
0.424242424242424
 40
0.424242424242424
 40
0.424242424242424
 40
0.424242424242424
 40
0.4393939393939391
 40
0.4393939393939391
 40
0.4393939393939391
 40
0.4393939393939391
 40
0.4545454545454543
 40
0.4545454545454543
 40
0.4545454545454543
 40
0.4545454545454543
 40
0.4696969696969694
 40
0.4696969696969694
 40
0.4696969696969694
 40
0.4696969696969694
 40
0.4848484848484845
 40
0.4848484848484845
 40
0.4848484848484845
 40
0.4848484848484845
 40
0.4999999999999997
 40
0.4999999999999997
 40
0.4999999999999997
 40
0.4999999999999997
 40
0.5151515151515148
 40
0.5151515151515148
 40
0.5151515151515148
 40
0.5151515151515148
 40
0.5303030303030299
 40
0.5303030303030299
 40
0.5303030303030299
 40
0.5303030303030299
 40
0.5454545454545451
 40
0.5454545454545451
 40
0.5454545454545451
 40
0.5454545454545451
 40
0.5606060606060602
 40
0.5606060606060602
 40
0.5606060606060602
 40
0.5606060606060602
 40
0.5757575757575754
 40
0.5757575757575754
 40
0.5757575757575754
 40
0.5757575757575754
 40
0.5909090909090905
 40
0.5909090909090905
 40
0.5909090909090905
 40
0.5909090909090905
 40
0.6060606060606056
 40
0.6060606060606056
 40
0.6060606060606056
 40
0.6060606060606056
 40
0.6212121212121208
 40
0.6212121212121208
 40
0.6212121212121208
 40
0.6212121212121208
 40
0.6363636363636359
 40
0.6363636363636359
 40
0.6363636363636359
 40
0.6363636363636359
 40
0.6515151515151511
 40
0.6515151515151511
 40
0.6515151515151511
 40
0.6515151515151511
 40
0.6666666666666662
 40
0.6666666666666662
 40
0.6666666666666662
 40
0.6666666666666662
 40
0.6818181818181813
 40
0.6818181818181813
 40
0.6818181818181813
 40
0.6818181818181813
 40
0.6969696969696965
 40
0.6969696969696965
 40
0.6969696969696965
 40
0.6969696969696965
 40
0.7121212121212116
 40
0.7121212121212116
 40
0.7121212121212116
 40
0.7121212121212116
 40
0.7272727272727267
 40
0.7272727272727267
 40
0.7272727272727267
 40
0.7272727272727267
 40
0.7424242424242419
 40
0.7424242424242419
 40
0.7424242424242419
 40
0.7424242424242419
 40
0.757575757575757
 40
0.757575757575757
 40
0.757575757575757
 40
0.757575757575757
 40
0.7727272727272722
 40
0.7727272727272722
 40
0.7727272727272722
 40
0.7727272727272722
 40
0.7878787878787873
 40
0.7878787878787873
 40
0.7878787878787873
 40
0.7878787878787873
 40
0.8030303030303024
 40
0.8030303030303024
 40
0.8030303030303024
 40
0.8030303030303024
 40
0.8181818181818176
 40
0.8181818181818176
 40
0.8181818181818176
 40
0.8181818181818176
 40
0.8333333333333327
 40
0.8333333333333327
 40
0.8333333333333327
 40
0.8333333333333327
 40
0.8484848484848478
 40
0.8484848484848478
 40
0.8484848484848478
 40
0.8484848484848478
 40
0.863636363636363
 40
0.863636363636363
 40
0.863636363636363
 40
0.863636363636363
 40
0.8787878787878781
 40
0.8787878787878781
 40
0.8787878787878781
 40
0.8787878787878781
 40
0.8939393939393933
 40
0.8939393939393933
 40
0.8939393939393933
 40
0.8939393939393933
 40
0.9090909090909084
 40
0.9090909090909084
 40
0.9090909090909084
 40
0.9090909090909084
 40
0.9242424242424235
 40
0.9242424242424235
 40
0.9242424242424235
 40
0.9242424242424235
 40
0.9393939393939387
 40
0.9393939393939387
 40
0.9393939393939387
 40
0.9393939393939387
 40
0.9545454545454538
 40
0.9545454545454538
 40
0.9545454545454538
 40
0.9545454545454538
 40
0.969696969696969
 40
0.969696969696969
 40
0.969696969696969
 40
0.969696969696969
 40
0.9848484848484841
 40
0.9848484848484841
 40
0.9848484848484841
 40
0.9848484848484841
 40
1.0
 40
1.0
 40
1.0
 40
1.0
 10
1.1967519685039369
 20
-3.4657913385826773
 30
0.0
 10
1.1967519685039369
 20
-3.4657913385826773
 30
0.0
 10
1.8413818897637797
 20
-3.8534724409448819
 30
0.0
 10
1.8413818897637797
 20
-3.8534724409448819
 30
0.0
 10
1.8413818897637797
 20
-3.8534724409448819
 30
0.0
 10
1.8413818897637797
 20
-3.8534724409448819
 30
0.0
 10
1.8416299212598426
 20
-3.703220472440945
 30
0.0
 10
1.8416299212598426
 20
-3.703220472440945
 30
0.0
 10
1.8416299212598426
 20
-3.703220472440945
 30
0.0
 10
1.8416299212598426
 20
-3.703220472440945
 30
0.0
 10
1.8462401574803151
 20
-3.5573031496062995
 30
0.0
 10
1.8462401574803151
 20
-3.5573031496062995
 30
0.0
 10
1.8462401574803151
 20
-3.5573031496062995
 30
0.0
 10
1.8462401574803151
 20
-3.5573031496062995
 30
0.0
 10
1.8550039370078741
 20
-3.4156929133858269
 30
0.0
 10
1.8550039370078741
 20
-3.4156929133858269
 30
0.0
 10
1.8550039370078741
 20
-3.4156929133858269
 30
0.0
 10
1.8550039370078741
 20
-3.4156929133858269
 30
0.0
 10
1.8677283464566929
 20
-3.2783858267716535
 30
0.0
 10
1.8677283464566929
 20
-3.2783858267716535
 30
0.0
 10
1.8677283464566929
 20
-3.2783858267716535
 30
0.0
 10
1.8677283464566929
 20
-3.2783858267716535
 30
0.0
 10
1.884208661417323
 20
-3.1453464566929137
 30
0.0
 10
1.884208661417323
 20
-3.1453464566929137
 30
0.0
 10
1.884208661417323
 20
-3.1453464566929137
 30
0.0
 10
1.884208661417323
 20
-3.1453464566929137
 30
0.0
 10
1.9042519685039372
 20
-3.0165748031496062
 30
0.0
 10
1.9042519685039372
 20
-3.0165748031496062
 30
0.0
 10
1.9042519685039372
 20
-3.0165748031496062
 30
0.0
 10
1.9042519685039372
 20
-3.0165748031496062
 30
0.0
 10
1.9276574803149606
 20
-2.8920472440944884
 30
0.0
 10
1.9276574803149606
 20
-2.8920472440944884
 30
0.0
 10
1.9276574803149606
 20
-2.8920472440944884
 30
0.0
 10
1.9276574803149606
 20
-2.8920472440944884
 30
0.0
 10
1.9542362204724411
 20
-2.7717519685039371
 30
0.0
 10
1.9542362204724411
 20
-2.7717519685039371
 30
0.0
 10
1.9542362204724411
 20
-2.7717519685039371
 30
0.0
 10
1.9542362204724411
 20
-2.7717519685039371
 30
0.0
 10
1.9837716535433072
 20
-2.6556653543307087
 30
0.0
 10
1.9837716535433072
 20
-2.6556653543307087
 30
0.0
 10
1.9837716535433072
 20
-2.6556653543307087
 30
0.0
 10
1.9837716535433072
 20
-2.6556653543307087
 30
0.0
 10
2.0160826771653544
 20
-2.5437755905511814
 30
0.0
 10
2.0160826771653544
 20
-2.5437755905511814
 30
0.0
 10
2.0160826771653544
 20
-2.5437755905511814
 30
0.0
 10
2.0160826771653544
 20
-2.5437755905511814
 30
0.0
 10
2.050956692913386
 20
-2.4360629921259842
 30
0.0
 10
2.050956692913386
 20
-2.4360629921259842
 30
0.0
 10
2.050956692913386
 20
-2.4360629921259842
 30
0.0
 10
2.050956692913386
 20
-2.4360629921259842
 30
0.0
 10
2.088208661417323
 20
-2.332503937007874
 30
0.0
 10
2.088208661417323
 20
-2.332503937007874
 30
0.0
 10
2.088208661417323
 20
-2.332503937007874
 30
0.0
 10
2.088208661417323
 20
-2.332503937007874
 30
0.0
 10
2.1276259842519685
 20
-2.2331023622047246
 30
0.0
 10
2.1276259842519685
 20
-2.2331023622047246
 30
0.0
 10
2.1276259842519685
 20
-2.2331023622047246
 30
0.0
 10
2.1276259842519685
 20
-2.2331023622047246
 30
0.0
 10
2.169027559055118
 20
-2.1378188976377954
 30
0.0
 10
2.169027559055118
 20
-2.1378188976377954
 30
0.0
 10
2.169027559055118
 20
-2.1378188976377954
 30
0.0
 10
2.169027559055118
 20
-2.1378188976377954
 30
0.0
 10
2.2122007874015748
 20
-2.0466535433070865
 30
0.0
 10
2.2122007874015748
 20
-2.0466535433070865
 30
0.0
 10
2.2122007874015748
 20
-2.0466535433070865
 30
0.0
 10
2.2122007874015748
 20
-2.0466535433070865
 30
0.0
 10
2.256956692913386
 20
-1.9595748031496063
 30
0.0
 10
2.256956692913386
 20
-1.9595748031496063
 30
0.0
 10
2.256956692913386
 20
-1.9595748031496063
 30
0.0
 10
2.256956692913386
 20
-1.9595748031496063
 30
0.0
 10
2.3030826771653543
 20
-1.8765866141732284
 30
0.0
 10
2.3030826771653543
 20
-1.8765866141732284
 30
0.0
 10
2.3030826771653543
 20
-1.8765866141732284
 30
0.0
 10
2.3030826771653543
 20
-1.8765866141732284
 30
0.0
 10
2.3503976377952758
 20
-1.7976574803149608
 30
0.0
 10
2.3503976377952758
 20
-1.7976574803149608
 30
0.0
 10
2.3503976377952758
 20
-1.7976574803149608
 30
0.0
 10
2.3503976377952758
 20
-1.7976574803149608
 30
0.0
 10
2.398692913385827
 20
-1.7227716535433071
 30
0.0
 10
2.398692913385827
 20
-1.7227716535433071
 30
0.0
 10
2.398692913385827
 20
-1.7227716535433071
 30
0.0
 10
2.398692913385827
 20
-1.7227716535433071
 30
0.0
 10
2.4477795275590553
 20
-1.6519133858267716
 30
0.0
 10
2.4477795275590553
 20
-1.6519133858267716
 30
0.0
 10
2.4477795275590553
 20
-1.6519133858267716
 30
0.0
 10
2.4477795275590553
 20
-1.6519133858267716
 30
0.0
 10
2.4974448818897637
 20
-1.5850748031496062
 30
0.0
 10
2.4974448818897637
 20
-1.5850748031496062
 30
0.0
 10
2.4974448818897637
 20
-1.5850748031496062
 30
0.0
 10
2.4974448818897637
 20
-1.5850748031496062
 30
0.0
 10
2.5475039370078743
 20
-1.522228346456693
 30
0.0
 10
2.5475039370078743
 20
-1.522228346456693
 30
0.0
 10
2.5475039370078743
 20
-1.522228346456693
 30
0.0
 10
2.5475039370078743
 20
-1.522228346456693
 30
0.0
 10
2.5977519685039372
 20
-1.4633622047244095
 30
0.0
 10
2.5977519685039372
 20
-1.4633622047244095
 30
0.0
 10
2.5977519685039372
 20
-1.4633622047244095
 30
0.0
 10
2.5977519685039372
 20
-1.4633622047244095
 30
0.0
 10
2.6479960629921262
 20
-1.4084527559055118
 30
0.0
 10
2.6479960629921262
 20
-1.4084527559055118
 30
0.0
 10
2.6479960629921262
 20
-1.4084527559055118
 30
0.0
 10
2.6479960629921262
 20
-1.4084527559055118
 30
0.0
 10
2.698023622047244
 20
-1.3575000000000002
 30
0.0
 10
2.698023622047244
 20
-1.3575000000000002
 30
0.0
 10
2.698023622047244
 20
-1.3575000000000002
 30
0.0
 10
2.698023622047244
 20
-1.3575000000000002
 30
0.0
 10
2.7476535433070866
 20
-1.3104685039370079
 30
0.0
 10
2.7476535433070866
 20
-1.3104685039370079
 30
0.0
 10
2.7476535433070866
 20
-1.3104685039370079
 30
0.0
 10
2.7476535433070866
 20
-1.3104685039370079
 30
0.0
 10
2.796677165354331
 20
-1.2673543307086614
 30
0.0
 10
2.796677165354331
 20
-1.2673543307086614
 30
0.0
 10
2.796677165354331
 20
-1.2673543307086614
 30
0.0
 10
2.796677165354331
 20
-1.2673543307086614
 30
0.0
 10
2.8449055118110236
 20
-1.2281338582677166
 30
0.0
 10
2.8449055118110236
 20
-1.2281338582677166
 30
0.0
 10
2.8449055118110236
 20
-1.2281338582677166
 30
0.0
 10
2.8449055118110236
 20
-1.2281338582677166
 30
0.0
 10
2.8921259842519684
 20
-1.1927992125984253
 30
0.0
 10
2.8921259842519684
 20
-1.1927992125984253
 30
0.0
 10
2.8921259842519684
 20
-1.1927992125984253
 30
0.0
 10
2.8921259842519684
 20
-1.1927992125984253
 30
0.0
 10
2.9381535433070867
 20
-1.1613188976377953
 30
0.0
 10
2.9381535433070867
 20
-1.1613188976377953
 30
0.0
 10
2.9381535433070867
 20
-1.1613188976377953
 30
0.0
 10
2.9381535433070867
 20
-1.1613188976377953
 30
0.0
 10
2.9827834645669293
 20
-1.1336929133858269
 30
0.0
 10
2.9827834645669293
 20
-1.1336929133858269
 30
0.0
 10
2.9827834645669293
 20
-1.1336929133858269
 30
0.0
 10
2.9827834645669293
 20
-1.1336929133858269
 30
0.0
 10
3.0258267716535436
 20
-1.1098897637795275
 30
0.0
 10
3.0258267716535436
 20
-1.1098897637795275
 30
0.0
 10
3.0258267716535436
 20
-1.1098897637795275
 30
0.0
 10
3.0258267716535436
 20
-1.1098897637795275
 30
0.0
 10
2.3811968503937009
 20
-0.7222086614173229
 30
0.0
 10
2.3811968503937009
 20
-0.7222086614173229
 30
0.0
 10
2.3811968503937009
 20
-0.7222086614173229
 30
0.0
 10
2.3811968503937009
 20
-0.7222086614173229
 30
0.0
 10
2.3381535433070866
 20
-0.7460118110236221
 30
0.0
 10
2.3381535433070866
 20
-0.7460118110236221
 30
0.0
 10
2.3381535433070866
 20
-0.7460118110236221
 30
0.0
 10
2.3381535433070866
 20
-0.7460118110236221
 30
0.0
 10
2.2935236220472444
 20
-0.7736377952755906
 30
0.0
 10
2.2935236220472444
 20
-0.7736377952755906
 30
0.0
 10
2.2935236220472444
 20
-0.7736377952755906
 30
0.0
 10
2.2935236220472444
 20
-0.7736377952755906
 30
0.0
 10
2.2474960629921261
 20
-0.8051181102362205
 30
0.0
 10
2.2474960629921261
 20
-0.8051181102362205
 30
0.0
 10
2.2474960629921261
 20
-0.8051181102362205
 30
0.0
 10
2.2474960629921261
 20
-0.8051181102362205
 30
0.0
 10
2.2002755905511813
 20
-0.8404527559055118
 30
0.0
 10
2.2002755905511813
 20
-0.8404527559055118
 30
0.0
 10
2.2002755905511813
 20
-0.8404527559055118
 30
0.0
 10
2.2002755905511813
 20
-0.8404527559055118
 30
0.0
 10
2.1520472440944882
 20
-0.8796732283464568
 30
0.0
 10
2.1520472440944882
 20
-0.8796732283464568
 30
0.0
 10
2.1520472440944882
 20
-0.8796732283464568
 30
0.0
 10
2.1520472440944882
 20
-0.8796732283464568
 30
0.0
 10
2.1030236220472442
 20
-0.9227874015748032
 30
0.0
 10
2.1030236220472442
 20
-0.9227874015748032
 30
0.0
 10
2.1030236220472442
 20
-0.9227874015748032
 30
0.0
 10
2.1030236220472442
 20
-0.9227874015748032
 30
0.0
 10
2.0533937007874017
 20
-0.9698188976377953
 30
0.0
 10
2.0533937007874017
 20
-0.9698188976377953
 30
0.0
 10
2.0533937007874017
 20
-0.9698188976377953
 30
0.0
 10
2.0533937007874017
 20
-0.9698188976377953
 30
0.0
 10
2.0033661417322834
 20
-1.0207716535433071
 30
0.0
 10
2.0033661417322834
 20
-1.0207716535433071
 30
0.0
 10
2.0033661417322834
 20
-1.0207716535433071
 30
0.0
 10
2.0033661417322834
 20
-1.0207716535433071
 30
0.0
 10
1.9531220472440947
 20
-1.0756811023622048
 30
0.0
 10
1.9531220472440947
 20
-1.0756811023622048
 30
0.0
 10
1.9531220472440947
 20
-1.0756811023622048
 30
0.0
 10
1.9531220472440947
 20
-1.0756811023622048
 30
0.0
 10
1.9028740157480315
 20
-1.1345472440944881
 30
0.0
 10
1.9028740157480315
 20
-1.1345472440944881
 30
0.0
 10
1.9028740157480315
 20
-1.1345472440944881
 30
0.0
 10
1.9028740157480315
 20
-1.1345472440944881
 30
0.0
 10
1.8528149606299213
 20
-1.1973937007874016
 30
0.0
 10
1.8528149606299213
 20
-1.1973937007874016
 30
0.0
 10
1.8528149606299213
 20
-1.1973937007874016
 30
0.0
 10
1.8528149606299213
 20
-1.1973937007874016
 30
0.0
 10
1.8031496062992127
 20
-1.264232283464567
 30
0.0
 10
1.8031496062992127
 20
-1.264232283464567
 30
0.0
 10
1.8031496062992127
 20
-1.264232283464567
 30
0.0
 10
1.8031496062992127
 20
-1.264232283464567
 30
0.0
 10
1.7540629921259843
 20
-1.3350905511811024
 30
0.0
 10
1.7540629921259843
 20
-1.3350905511811024
 30
0.0
 10
1.7540629921259843
 20
-1.3350905511811024
 30
0.0
 10
1.7540629921259843
 20
-1.3350905511811024
 30
0.0
 10
1.7057677165354332
 20
-1.4099763779527559
 30
0.0
 10
1.7057677165354332
 20
-1.4099763779527559
 30
0.0
 10
1.7057677165354332
 20
-1.4099763779527559
 30
0.0
 10
1.7057677165354332
 20
-1.4099763779527559
 30
0.0
 10
1.6584527559055118
 20
-1.4889055118110237
 30
0.0
 10
1.6584527559055118
 20
-1.4889055118110237
 30
0.0
 10
1.6584527559055118
 20
-1.4889055118110237
 30
0.0
 10
1.6584527559055118
 20
-1.4889055118110237
 30
0.0
 10
1.6123267716535434
 20
-1.5718937007874016
 30
0.0
 10
1.6123267716535434
 20
-1.5718937007874016
 30
0.0
 10
1.6123267716535434
 20
-1.5718937007874016
 30
0.0
 10
1.6123267716535434
 20
-1.5718937007874016
 30
0.0
 10
1.5675708661417322
 20
-1.6589724409448821
 30
0.0
 10
1.5675708661417322
 20
-1.6589724409448821
 30
0.0
 10
1.5675708661417322
 20
-1.6589724409448821
 30
0.0
 10
1.5675708661417322
 20
-1.6589724409448821
 30
0.0
 10
1.5243976377952757
 20
-1.7501377952755905
 30
0.0
 10
1.5243976377952757
 20
-1.7501377952755905
 30
0.0
 10
1.5243976377952757
 20
-1.7501377952755905
 30
0.0
 10
1.5243976377952757
 20
-1.7501377952755905
 30
0.0
 10
1.4829960629921259
 20
-1.8454212598425197
 30
0.0
 10
1.4829960629921259
 20
-1.8454212598425197
 30
0.0
 10
1.4829960629921259
 20
-1.8454212598425197
 30
0.0
 10
1.4829960629921259
 20
-1.8454212598425197
 30
0.0
 10
1.4435787401574804
 20
-1.9448228346456693
 30
0.0
 10
1.4435787401574804
 20
-1.9448228346456693
 30
0.0
 10
1.4435787401574804
 20
-1.9448228346456693
 30
0.0
 10
1.4435787401574804
 20
-1.9448228346456693
 30
0.0
 10
1.4063267716535433
 20
-2.0483818897637796
 30
0.0
 10
1.4063267716535433
 20
-2.0483818897637796
 30
0.0
 10
1.4063267716535433
 20
-2.0483818897637796
 30
0.0
 10
1.4063267716535433
 20
-2.0483818897637796
 30
0.0
 10
1.3714527559055119
 20
-2.1560944881889763
 30
0.0
 10
1.3714527559055119
 20
-2.1560944881889763
 30
0.0
 10
1.3714527559055119
 20
-2.1560944881889763
 30
0.0
 10
1.3714527559055119
 20
-2.1560944881889763
 30
0.0
 10
1.3391417322834647
 20
-2.2679842519685041
 30
0.0
 10
1.3391417322834647
 20
-2.2679842519685041
 30
0.0
 10
1.3391417322834647
 20
-2.2679842519685041
 30
0.0
 10
1.3391417322834647
 20
-2.2679842519685041
 30
0.0
 10
1.3096062992125985
 20
-2.3840708661417325
 30
0.0
 10
1.3096062992125985
 20
-2.3840708661417325
 30
0.0
 10
1.3096062992125985
 20
-2.3840708661417325
 30
0.0
 10
1.3096062992125985
 20
-2.3840708661417325
 30
0.0
 10
1.2830275590551181
 20
-2.5043661417322838
 30
0.0
 10
1.2830275590551181
 20
-2.5043661417322838
 30
0.0
 10
1.2830275590551181
 20
-2.5043661417322838
 30
0.0
 10
1.2830275590551181
 20
-2.5043661417322838
 30
0.0
 10
1.2596220472440944
 20
-2.6288937007874016
 30
0.0
 10
1.2596220472440944
 20
-2.6288937007874016
 30
0.0
 10
1.2596220472440944
 20
-2.6288937007874016
 30
0.0
 10
1.2596220472440944
 20
-2.6288937007874016
 30
0.0
 10
1.2395787401574803
 20
-2.7576653543307086
 30
0.0
 10
1.2395787401574803
 20
-2.7576653543307086
 30
0.0
 10
1.2395787401574803
 20
-2.7576653543307086
 30
0.0
 10
1.2395787401574803
 20
-2.7576653543307086
 30
0.0
 10
1.2230984251968504
 20
-2.8907047244094488
 30
0.0
 10
1.2230984251968504
 20
-2.8907047244094488
 30
0.0
 10
1.2230984251968504
 20
-2.8907047244094488
 30
0.0
 10
1.2230984251968504
 20
-2.8907047244094488
 30
0.0
 10
1.2103740157480316
 20
-3.0280118110236223
 30
0.0
 10
1.2103740157480316
 20
-3.0280118110236223
 30
0.0
 10
1.2103740157480316
 20
-3.0280118110236223
 30
0.0
 10
1.2103740157480316
 20
-3.0280118110236223
 30
0.0
 10
1.2016102362204726
 20
-3.1696220472440948
 30
0.0
 10
1.2016102362204726
 20
-3.1696220472440948
 30
0.0
 10
1.2016102362204726
 20
-3.1696220472440948
 30
0.0
 10
1.2016102362204726
 20
-3.1696220472440948
 30
0.0
 10
1.1970000000000001
 20
-3.3155393700787403
 30
0.0
 10
1.1970000000000001
 20
-3.3155393700787403
 30
0.0
 10
1.1970000000000001
 20
-3.3155393700787403
 30
0.0
 10
1.1970000000000001
 20
-3.3155393700787403
 30
0.0
 10
1.1967519685039369
 20
-3.4657913385826773
 30
0.0
 10
1.1967519685039369
 20
-3.4657913385826773
 30
0.0
  0
SPLINE
  5
47
100
AcDbEntity
  8
Layer 1
 62
     9
100
AcDbSpline
210
0.0
220
0.0
230
1.0
 70
     1
 71
     3
 72
    20
 73
    16
 74
     0
 42
0.0000000001
 43
0.0000000001
 40
0.0
 40
0.0
 40
0.0
 40
0.0
 40
0.25
 40
0.25
 40
0.25
 40
0.25
 40
0.5
 40
0.5
 40
0.5
 40
0.5
 40
0.75
 40
0.75
 40
0.75
 40
0.75
 40
1.0
 40
1.0
 40
1.0
 40
1.0
 10
2.3811968503937009
 20
-0.7222086614173229
 30
0.0
 10
2.3811968503937009
 20
-0.7222086614173229
 30
0.0
 10
3.0258267716535436
 20
-1.1098897637795275
 30
0.0
 10
3.0258267716535436
 20
-1.1098897637795275
 30
0.0
 10
3.0258267716535436
 20
-1.1098897637795275
 30
0.0
 10
3.0258267716535436
 20
-1.1098897637795275
 30
0.0
 10
3.0258267716535436
 20
0.1294645669291339
 30
0.0
 10
3.0258267716535436
 20
0.1294645669291339
 30
0.0
 10
3.0258267716535436
 20
0.1294645669291339
 30
0.0
 10
3.0258267716535436
 20
0.1294645669291339
 30
0.0
 10
2.3811968503937009
 20
0.5171456692913387
 30
0.0
 10
2.3811968503937009
 20
0.5171456692913387
 30
0.0
 10
2.3811968503937009
 20
0.5171456692913387
 30
0.0
 10
2.3811968503937009
 20
0.5171456692913387
 30
0.0
 10
2.3811968503937009
 20
-0.7222086614173229
 30
0.0
 10
2.3811968503937009
 20
-0.7222086614173229
 30
0.0
  0
SPLINE
  5
48
100
AcDbEntity
  8
Layer 1
370
     5
100
AcDbSpline
210
0.0
220
0.0
230
1.0
 70
     1
 71
     3
 72
    20
 73
    16
 74
     0
 42
0.0000000001
 43
0.0000000001
 40
0.0
 40
0.0
 40
0.0
 40
0.0
 40
0.25
 40
0.25
 40
0.25
 40
0.25
 40
0.5
 40
0.5
 40
0.5
 40
0.5
 40
0.75
 40
0.75
 40
0.75
 40
0.75
 40
1.0
 40
1.0
 40
1.0
 40
1.0
 10
2.3811968503937009
 20
-0.7222086614173229
 30
0.0
 10
2.3811968503937009
 20
-0.7222086614173229
 30
0.0
 10
3.0258267716535436
 20
-1.1098897637795275
 30
0.0
 10
3.0258267716535436
 20
-1.1098897637795275
 30
0.0
 10
3.0258267716535436
 20
-1.1098897637795275
 30
0.0
 10
3.0258267716535436
 20
-1.1098897637795275
 30
0.0
 10
3.0258267716535436
 20
0.1294645669291339
 30
0.0
 10
3.0258267716535436
 20
0.1294645669291339
 30
0.0
 10
3.0258267716535436
 20
0.1294645669291339
 30
0.0
 10
3.0258267716535436
 20
0.1294645669291339
 30
0.0
 10
2.3811968503937009
 20
0.5171456692913387
 30
0.0
 10
2.3811968503937009
 20
0.5171456692913387
 30
0.0
 10
2.3811968503937009
 20
0.5171456692913387
 30
0.0
 10
2.3811968503937009
 20
0.5171456692913387
 30
0.0
 10
2.3811968503937009
 20
-0.7222086614173229
 30
0.0
 10
2.3811968503937009
 20
-0.7222086614173229
 30
0.0
  0
SPLINE
  5
49
100
AcDbEntity
  8
Layer 1
 62
     9
100
AcDbSpline
210
0.0
220
0.0
230
1.0
 70
     1
 71
     3
 72
    20
 73
    16
 74
     0
 42
0.0000000001
 43
0.0000000001
 40
0.0
 40
0.0
 40
0.0
 40
0.0
 40
0.25
 40
0.25
 40
0.25
 40
0.25
 40
0.5
 40
0.5
 40
0.5
 40
0.5
 40
0.75
 40
0.75
 40
0.75
 40
0.75
 40
1.0
 40
1.0
 40
1.0
 40
1.0
 10
0.0159251968503937
 20
-3.4657913385826773
 30
0.0
 10
0.0159251968503937
 20
-3.4657913385826773
 30
0.0
 10
0.6605551181102363
 20
-3.8534724409448819
 30
0.0
 10
0.6605551181102363
 20
-3.8534724409448819
 30
0.0
 10
0.6605551181102363
 20
-3.8534724409448819
 30
0.0
 10
0.6605551181102363
 20
-3.8534724409448819
 30
0.0
 10
1.8413818897637797
 20
-3.8534724409448819
 30
0.0
 10
1.8413818897637797
 20
-3.8534724409448819
 30
0.0
 10
1.8413818897637797
 20
-3.8534724409448819
 30
0.0
 10
1.8413818897637797
 20
-3.8534724409448819
 30
0.0
 10
1.1967519685039369
 20
-3.4657913385826773
 30
0.0
 10
1.1967519685039369
 20
-3.4657913385826773
 30
0.0
 10
1.1967519685039369
 20
-3.4657913385826773
 30
0.0
 10
1.1967519685039369
 20
-3.4657913385826773
 30
0.0
 10
0.0159251968503937
 20
-3.4657913385826773
 30
0.0
 10
0.0159251968503937
 20
-3.4657913385826773
 30
0.0
  0
SPLINE
  5
4A
100
AcDbEntity
  8
Layer 1
370
     5
100
AcDbSpline
210
0.0
220
0.0
230
1.0
 70
     1
 71
     3
 72
    20
 73
    16
 74
     0
 42
0.0000000001
 43
0.0000000001
 40
0.0
 40
0.0
 40
0.0
 40
0.0
 40
0.25
 40
0.25
 40
0.25
 40
0.25
 40
0.5
 40
0.5
 40
0.5
 40
0.5
 40
0.75
 40
0.75
 40
0.75
 40
0.75
 40
1.0
 40
1.0
 40
1.0
 40
1.0
 10
0.0159251968503937
 20
-3.4657913385826773
 30
0.0
 10
0.0159251968503937
 20
-3.4657913385826773
 30
0.0
 10
0.6605551181102363
 20
-3.8534724409448819
 30
0.0
 10
0.6605551181102363
 20
-3.8534724409448819
 30
0.0
 10
0.6605551181102363
 20
-3.8534724409448819
 30
0.0
 10
0.6605551181102363
 20
-3.8534724409448819
 30
0.0
 10
1.8413818897637797
 20
-3.8534724409448819
 30
0.0
 10
1.8413818897637797
 20
-3.8534724409448819
 30
0.0
 10
1.8413818897637797
 20
-3.8534724409448819
 30
0.0
 10
1.8413818897637797
 20
-3.8534724409448819
 30
0.0
 10
1.1967519685039369
 20
-3.4657913385826773
 30
0.0
 10
1.1967519685039369
 20
-3.4657913385826773
 30
0.0
 10
1.1967519685039369
 20
-3.4657913385826773
 30
0.0
 10
1.1967519685039369
 20
-3.4657913385826773
 30
0.0
 10
0.0159251968503937
 20
-3.4657913385826773
 30
0.0
 10
0.0159251968503937
 20
-3.4657913385826773
 30
0.0
  0
SPLINE
  5
4B
100
AcDbEntity
  8
Layer 1
 62
     9
100
AcDbSpline
210
0.0
220
0.0
230
1.0
 70
     1
 71
     3
 72
    20
 73
    16
 74
     0
 42
0.0000000001
 43
0.0000000001
 40
0.0
 40
0.0
 40
0.0
 40
0.0
 40
0.25
 40
0.25
 40
0.25
 40
0.25
 40
0.5
 40
0.5
 40
0.5
 40
0.5
 40
0.75
 40
0.75
 40
0.75
 40
0.75
 40
1.0
 40
1.0
 40
1.0
 40
1.0
 10
1.1967519685039369
 20
-3.4657913385826773
 30
0.0
 10
1.1967519685039369
 20
-3.4657913385826773
 30
0.0
 10
1.8413818897637797
 20
-3.8534724409448819
 30
0.0
 10
1.8413818897637797
 20
-3.8534724409448819
 30
0.0
 10
1.8413818897637797
 20
-3.8534724409448819
 30
0.0
 10
1.8413818897637797
 20
-3.8534724409448819
 30
0.0
 10
1.8416299212598426
 20
-3.703220472440945
 30
0.0
 10
1.8416299212598426
 20
-3.703220472440945
 30
0.0
 10
1.8416299212598426
 20
-3.703220472440945
 30
0.0
 10
1.8416299212598426
 20
-3.703220472440945
 30
0.0
 10
1.1970000000000001
 20
-3.3155393700787403
 30
0.0
 10
1.1970000000000001
 20
-3.3155393700787403
 30
0.0
 10
1.1970000000000001
 20
-3.3155393700787403
 30
0.0
 10
1.1970000000000001
 20
-3.3155393700787403
 30
0.0
 10
1.1967519685039369
 20
-3.4657913385826773
 30
0.0
 10
1.1967519685039369
 20
-3.4657913385826773
 30
0.0
  0
SPLINE
  5
4C
100
AcDbEntity
  8
Layer 1
 62
     9
100
AcDbSpline
210
0.0
220
0.0
230
1.0
 70
     1
 71
     3
 72
    20
 73
    16
 74
     0
 42
0.0000000001
 43
0.0000000001
 40
0.0
 40
0.0
 40
0.0
 40
0.0
 40
0.25
 40
0.25
 40
0.25
 40
0.25
 40
0.5
 40
0.5
 40
0.5
 40
0.5
 40
0.75
 40
0.75
 40
0.75
 40
0.75
 40
1.0
 40
1.0
 40
1.0
 40
1.0
 10
1.1970000000000001
 20
-3.3155393700787403
 30
0.0
 10
1.1970000000000001
 20
-3.3155393700787403
 30
0.0
 10
1.8416299212598426
 20
-3.703220472440945
 30
0.0
 10
1.8416299212598426
 20
-3.703220472440945
 30
0.0
 10
1.8416299212598426
 20
-3.703220472440945
 30
0.0
 10
1.8416299212598426
 20
-3.703220472440945
 30
0.0
 10
1.8462401574803151
 20
-3.5573031496062995
 30
0.0
 10
1.8462401574803151
 20
-3.5573031496062995
 30
0.0
 10
1.8462401574803151
 20
-3.5573031496062995
 30
0.0
 10
1.8462401574803151
 20
-3.5573031496062995
 30
0.0
 10
1.2016102362204726
 20
-3.1696220472440948
 30
0.0
 10
1.2016102362204726
 20
-3.1696220472440948
 30
0.0
 10
1.2016102362204726
 20
-3.1696220472440948
 30
0.0
 10
1.2016102362204726
 20
-3.1696220472440948
 30
0.0
 10
1.1970000000000001
 20
-3.3155393700787403
 30
0.0
 10
1.1970000000000001
 20
-3.3155393700787403
 30
0.0
  0
SPLINE
  5
4D
100
AcDbEntity
  8
Layer 1
 62
     9
100
AcDbSpline
210
0.0
220
0.0
230
1.0
 70
     1
 71
     3
 72
    20
 73
    16
 74
     0
 42
0.0000000001
 43
0.0000000001
 40
0.0
 40
0.0
 40
0.0
 40
0.0
 40
0.25
 40
0.25
 40
0.25
 40
0.25
 40
0.5
 40
0.5
 40
0.5
 40
0.5
 40
0.75
 40
0.75
 40
0.75
 40
0.75
 40
1.0
 40
1.0
 40
1.0
 40
1.0
 10
1.2016102362204726
 20
-3.1696220472440948
 30
0.0
 10
1.2016102362204726
 20
-3.1696220472440948
 30
0.0
 10
1.8462401574803151
 20
-3.5573031496062995
 30
0.0
 10
1.8462401574803151
 20
-3.5573031496062995
 30
0.0
 10
1.8462401574803151
 20
-3.5573031496062995
 30
0.0
 10
1.8462401574803151
 20
-3.5573031496062995
 30
0.0
 10
1.8550039370078741
 20
-3.4156929133858269
 30
0.0
 10
1.8550039370078741
 20
-3.4156929133858269
 30
0.0
 10
1.8550039370078741
 20
-3.4156929133858269
 30
0.0
 10
1.8550039370078741
 20
-3.4156929133858269
 30
0.0
 10
1.2103740157480316
 20
-3.0280118110236223
 30
0.0
 10
1.2103740157480316
 20
-3.0280118110236223
 30
0.0
 10
1.2103740157480316
 20
-3.0280118110236223
 30
0.0
 10
1.2103740157480316
 20
-3.0280118110236223
 30
0.0
 10
1.2016102362204726
 20
-3.1696220472440948
 30
0.0
 10
1.2016102362204726
 20
-3.1696220472440948
 30
0.0
  0
SPLINE
  5
4E
100
AcDbEntity
  8
Layer 1
 62
     9
100
AcDbSpline
210
0.0
220
0.0
230
1.0
 70
     1
 71
     3
 72
    20
 73
    16
 74
     0
 42
0.0000000001
 43
0.0000000001
 40
0.0
 40
0.0
 40
0.0
 40
0.0
 40
0.25
 40
0.25
 40
0.25
 40
0.25
 40
0.5
 40
0.5
 40
0.5
 40
0.5
 40
0.75
 40
0.75
 40
0.75
 40
0.75
 40
1.0
 40
1.0
 40
1.0
 40
1.0
 10
1.2103740157480316
 20
-3.0280118110236223
 30
0.0
 10
1.2103740157480316
 20
-3.0280118110236223
 30
0.0
 10
1.8550039370078741
 20
-3.4156929133858269
 30
0.0
 10
1.8550039370078741
 20
-3.4156929133858269
 30
0.0
 10
1.8550039370078741
 20
-3.4156929133858269
 30
0.0
 10
1.8550039370078741
 20
-3.4156929133858269
 30
0.0
 10
1.8677283464566929
 20
-3.2783858267716535
 30
0.0
 10
1.8677283464566929
 20
-3.2783858267716535
 30
0.0
 10
1.8677283464566929
 20
-3.2783858267716535
 30
0.0
 10
1.8677283464566929
 20
-3.2783858267716535
 30
0.0
 10
1.2230984251968504
 20
-2.8907047244094488
 30
0.0
 10
1.2230984251968504
 20
-2.8907047244094488
 30
0.0
 10
1.2230984251968504
 20
-2.8907047244094488
 30
0.0
 10
1.2230984251968504
 20
-2.8907047244094488
 30
0.0
 10
1.2103740157480316
 20
-3.0280118110236223
 30
0.0
 10
1.2103740157480316
 20
-3.0280118110236223
 30
0.0
  0
SPLINE
  5
4F
100
AcDbEntity
  8
Layer 1
 62
     9
100
AcDbSpline
210
0.0
220
0.0
230
1.0
 70
     1
 71
     3
 72
    20
 73
    16
 74
     0
 42
0.0000000001
 43
0.0000000001
 40
0.0
 40
0.0
 40
0.0
 40
0.0
 40
0.25
 40
0.25
 40
0.25
 40
0.25
 40
0.5
 40
0.5
 40
0.5
 40
0.5
 40
0.75
 40
0.75
 40
0.75
 40
0.75
 40
1.0
 40
1.0
 40
1.0
 40
1.0
 10
1.2230984251968504
 20
-2.8907047244094488
 30
0.0
 10
1.2230984251968504
 20
-2.8907047244094488
 30
0.0
 10
1.8677283464566929
 20
-3.2783858267716535
 30
0.0
 10
1.8677283464566929
 20
-3.2783858267716535
 30
0.0
 10
1.8677283464566929
 20
-3.2783858267716535
 30
0.0
 10
1.8677283464566929
 20
-3.2783858267716535
 30
0.0
 10
1.884208661417323
 20
-3.1453464566929137
 30
0.0
 10
1.884208661417323
 20
-3.1453464566929137
 30
0.0
 10
1.884208661417323
 20
-3.1453464566929137
 30
0.0
 10
1.884208661417323
 20
-3.1453464566929137
 30
0.0
 10
1.2395787401574803
 20
-2.7576653543307086
 30
0.0
 10
1.2395787401574803
 20
-2.7576653543307086
 30
0.0
 10
1.2395787401574803
 20
-2.7576653543307086
 30
0.0
 10
1.2395787401574803
 20
-2.7576653543307086
 30
0.0
 10
1.2230984251968504
 20
-2.8907047244094488
 30
0.0
 10
1.2230984251968504
 20
-2.8907047244094488
 30
0.0
  0
SPLINE
  5
50
100
AcDbEntity
  8
Layer 1
 62
     9
100
AcDbSpline
210
0.0
220
0.0
230
1.0
 70
     1
 71
     3
 72
    20
 73
    16
 74
     0
 42
0.0000000001
 43
0.0000000001
 40
0.0
 40
0.0
 40
0.0
 40
0.0
 40
0.25
 40
0.25
 40
0.25
 40
0.25
 40
0.5
 40
0.5
 40
0.5
 40
0.5
 40
0.75
 40
0.75
 40
0.75
 40
0.75
 40
1.0
 40
1.0
 40
1.0
 40
1.0
 10
1.2395787401574803
 20
-2.7576653543307086
 30
0.0
 10
1.2395787401574803
 20
-2.7576653543307086
 30
0.0
 10
1.884208661417323
 20
-3.1453464566929137
 30
0.0
 10
1.884208661417323
 20
-3.1453464566929137
 30
0.0
 10
1.884208661417323
 20
-3.1453464566929137
 30
0.0
 10
1.884208661417323
 20
-3.1453464566929137
 30
0.0
 10
1.9042519685039372
 20
-3.0165748031496062
 30
0.0
 10
1.9042519685039372
 20
-3.0165748031496062
 30
0.0
 10
1.9042519685039372
 20
-3.0165748031496062
 30
0.0
 10
1.9042519685039372
 20
-3.0165748031496062
 30
0.0
 10
1.2596220472440944
 20
-2.6288937007874016
 30
0.0
 10
1.2596220472440944
 20
-2.6288937007874016
 30
0.0
 10
1.2596220472440944
 20
-2.6288937007874016
 30
0.0
 10
1.2596220472440944
 20
-2.6288937007874016
 30
0.0
 10
1.2395787401574803
 20
-2.7576653543307086
 30
0.0
 10
1.2395787401574803
 20
-2.7576653543307086
 30
0.0
  0
SPLINE
  5
51
100
AcDbEntity
  8
Layer 1
 62
     9
100
AcDbSpline
210
0.0
220
0.0
230
1.0
 70
     1
 71
     3
 72
    20
 73
    16
 74
     0
 42
0.0000000001
 43
0.0000000001
 40
0.0
 40
0.0
 40
0.0
 40
0.0
 40
0.25
 40
0.25
 40
0.25
 40
0.25
 40
0.5
 40
0.5
 40
0.5
 40
0.5
 40
0.75
 40
0.75
 40
0.75
 40
0.75
 40
1.0
 40
1.0
 40
1.0
 40
1.0
 10
1.2596220472440944
 20
-2.6288937007874016
 30
0.0
 10
1.2596220472440944
 20
-2.6288937007874016
 30
0.0
 10
1.9042519685039372
 20
-3.0165748031496062
 30
0.0
 10
1.9042519685039372
 20
-3.0165748031496062
 30
0.0
 10
1.9042519685039372
 20
-3.0165748031496062
 30
0.0
 10
1.9042519685039372
 20
-3.0165748031496062
 30
0.0
 10
1.9276574803149606
 20
-2.8920472440944884
 30
0.0
 10
1.9276574803149606
 20
-2.8920472440944884
 30
0.0
 10
1.9276574803149606
 20
-2.8920472440944884
 30
0.0
 10
1.9276574803149606
 20
-2.8920472440944884
 30
0.0
 10
1.2830275590551181
 20
-2.5043661417322838
 30
0.0
 10
1.2830275590551181
 20
-2.5043661417322838
 30
0.0
 10
1.2830275590551181
 20
-2.5043661417322838
 30
0.0
 10
1.2830275590551181
 20
-2.5043661417322838
 30
0.0
 10
1.2596220472440944
 20
-2.6288937007874016
 30
0.0
 10
1.2596220472440944
 20
-2.6288937007874016
 30
0.0
  0
SPLINE
  5
52
100
AcDbEntity
  8
Layer 1
 62
     9
100
AcDbSpline
210
0.0
220
0.0
230
1.0
 70
     1
 71
     3
 72
    20
 73
    16
 74
     0
 42
0.0000000001
 43
0.0000000001
 40
0.0
 40
0.0
 40
0.0
 40
0.0
 40
0.25
 40
0.25
 40
0.25
 40
0.25
 40
0.5
 40
0.5
 40
0.5
 40
0.5
 40
0.75
 40
0.75
 40
0.75
 40
0.75
 40
1.0
 40
1.0
 40
1.0
 40
1.0
 10
1.2830275590551181
 20
-2.5043661417322838
 30
0.0
 10
1.2830275590551181
 20
-2.5043661417322838
 30
0.0
 10
1.9276574803149606
 20
-2.8920472440944884
 30
0.0
 10
1.9276574803149606
 20
-2.8920472440944884
 30
0.0
 10
1.9276574803149606
 20
-2.8920472440944884
 30
0.0
 10
1.9276574803149606
 20
-2.8920472440944884
 30
0.0
 10
1.9542362204724411
 20
-2.7717519685039371
 30
0.0
 10
1.9542362204724411
 20
-2.7717519685039371
 30
0.0
 10
1.9542362204724411
 20
-2.7717519685039371
 30
0.0
 10
1.9542362204724411
 20
-2.7717519685039371
 30
0.0
 10
1.3096062992125985
 20
-2.3840708661417325
 30
0.0
 10
1.3096062992125985
 20
-2.3840708661417325
 30
0.0
 10
1.3096062992125985
 20
-2.3840708661417325
 30
0.0
 10
1.3096062992125985
 20
-2.3840708661417325
 30
0.0
 10
1.2830275590551181
 20
-2.5043661417322838
 30
0.0
 10
1.2830275590551181
 20
-2.5043661417322838
 30
0.0
  0
SPLINE
  5
53
100
AcDbEntity
  8
Layer 1
 62
     9
100
AcDbSpline
210
0.0
220
0.0
230
1.0
 70
     1
 71
     3
 72
    20
 73
    16
 74
     0
 42
0.0000000001
 43
0.0000000001
 40
0.0
 40
0.0
 40
0.0
 40
0.0
 40
0.25
 40
0.25
 40
0.25
 40
0.25
 40
0.5
 40
0.5
 40
0.5
 40
0.5
 40
0.75
 40
0.75
 40
0.75
 40
0.75
 40
1.0
 40
1.0
 40
1.0
 40
1.0
 10
1.3096062992125985
 20
-2.3840708661417325
 30
0.0
 10
1.3096062992125985
 20
-2.3840708661417325
 30
0.0
 10
1.9542362204724411
 20
-2.7717519685039371
 30
0.0
 10
1.9542362204724411
 20
-2.7717519685039371
 30
0.0
 10
1.9542362204724411
 20
-2.7717519685039371
 30
0.0
 10
1.9542362204724411
 20
-2.7717519685039371
 30
0.0
 10
1.9837716535433072
 20
-2.6556653543307087
 30
0.0
 10
1.9837716535433072
 20
-2.6556653543307087
 30
0.0
 10
1.9837716535433072
 20
-2.6556653543307087
 30
0.0
 10
1.9837716535433072
 20
-2.6556653543307087
 30
0.0
 10
1.3391417322834647
 20
-2.2679842519685041
 30
0.0
 10
1.3391417322834647
 20
-2.2679842519685041
 30
0.0
 10
1.3391417322834647
 20
-2.2679842519685041
 30
0.0
 10
1.3391417322834647
 20
-2.2679842519685041
 30
0.0
 10
1.3096062992125985
 20
-2.3840708661417325
 30
0.0
 10
1.3096062992125985
 20
-2.3840708661417325
 30
0.0
  0
SPLINE
  5
54
100
AcDbEntity
  8
Layer 1
 62
     9
100
AcDbSpline
210
0.0
220
0.0
230
1.0
 70
     1
 71
     3
 72
    20
 73
    16
 74
     0
 42
0.0000000001
 43
0.0000000001
 40
0.0
 40
0.0
 40
0.0
 40
0.0
 40
0.25
 40
0.25
 40
0.25
 40
0.25
 40
0.5
 40
0.5
 40
0.5
 40
0.5
 40
0.75
 40
0.75
 40
0.75
 40
0.75
 40
1.0
 40
1.0
 40
1.0
 40
1.0
 10
1.3391417322834647
 20
-2.2679842519685041
 30
0.0
 10
1.3391417322834647
 20
-2.2679842519685041
 30
0.0
 10
1.9837716535433072
 20
-2.6556653543307087
 30
0.0
 10
1.9837716535433072
 20
-2.6556653543307087
 30
0.0
 10
1.9837716535433072
 20
-2.6556653543307087
 30
0.0
 10
1.9837716535433072
 20
-2.6556653543307087
 30
0.0
 10
2.0160826771653544
 20
-2.5437755905511814
 30
0.0
 10
2.0160826771653544
 20
-2.5437755905511814
 30
0.0
 10
2.0160826771653544
 20
-2.5437755905511814
 30
0.0
 10
2.0160826771653544
 20
-2.5437755905511814
 30
0.0
 10
1.3714527559055119
 20
-2.1560944881889763
 30
0.0
 10
1.3714527559055119
 20
-2.1560944881889763
 30
0.0
 10
1.3714527559055119
 20
-2.1560944881889763
 30
0.0
 10
1.3714527559055119
 20
-2.1560944881889763
 30
0.0
 10
1.3391417322834647
 20
-2.2679842519685041
 30
0.0
 10
1.3391417322834647
 20
-2.2679842519685041
 30
0.0
  0
SPLINE
  5
55
100
AcDbEntity
  8
Layer 1
 62
     9
100
AcDbSpline
210
0.0
220
0.0
230
1.0
 70
     1
 71
     3
 72
    20
 73
    16
 74
     0
 42
0.0000000001
 43
0.0000000001
 40
0.0
 40
0.0
 40
0.0
 40
0.0
 40
0.25
 40
0.25
 40
0.25
 40
0.25
 40
0.5
 40
0.5
 40
0.5
 40
0.5
 40
0.75
 40
0.75
 40
0.75
 40
0.75
 40
1.0
 40
1.0
 40
1.0
 40
1.0
 10
1.3714527559055119
 20
-2.1560944881889763
 30
0.0
 10
1.3714527559055119
 20
-2.1560944881889763
 30
0.0
 10
2.0160826771653544
 20
-2.5437755905511814
 30
0.0
 10
2.0160826771653544
 20
-2.5437755905511814
 30
0.0
 10
2.0160826771653544
 20
-2.5437755905511814
 30
0.0
 10
2.0160826771653544
 20
-2.5437755905511814
 30
0.0
 10
2.050956692913386
 20
-2.4360629921259842
 30
0.0
 10
2.050956692913386
 20
-2.4360629921259842
 30
0.0
 10
2.050956692913386
 20
-2.4360629921259842
 30
0.0
 10
2.050956692913386
 20
-2.4360629921259842
 30
0.0
 10
1.4063267716535433
 20
-2.0483818897637796
 30
0.0
 10
1.4063267716535433
 20
-2.0483818897637796
 30
0.0
 10
1.4063267716535433
 20
-2.0483818897637796
 30
0.0
 10
1.4063267716535433
 20
-2.0483818897637796
 30
0.0
 10
1.3714527559055119
 20
-2.1560944881889763
 30
0.0
 10
1.3714527559055119
 20
-2.1560944881889763
 30
0.0
  0
SPLINE
  5
56
100
AcDbEntity
  8
Layer 1
 62
     9
100
AcDbSpline
210
0.0
220
0.0
230
1.0
 70
     1
 71
     3
 72
    20
 73
    16
 74
     0
 42
0.0000000001
 43
0.0000000001
 40
0.0
 40
0.0
 40
0.0
 40
0.0
 40
0.25
 40
0.25
 40
0.25
 40
0.25
 40
0.5
 40
0.5
 40
0.5
 40
0.5
 40
0.75
 40
0.75
 40
0.75
 40
0.75
 40
1.0
 40
1.0
 40
1.0
 40
1.0
 10
1.4063267716535433
 20
-2.0483818897637796
 30
0.0
 10
1.4063267716535433
 20
-2.0483818897637796
 30
0.0
 10
2.050956692913386
 20
-2.4360629921259842
 30
0.0
 10
2.050956692913386
 20
-2.4360629921259842
 30
0.0
 10
2.050956692913386
 20
-2.4360629921259842
 30
0.0
 10
2.050956692913386
 20
-2.4360629921259842
 30
0.0
 10
2.088208661417323
 20
-2.332503937007874
 30
0.0
 10
2.088208661417323
 20
-2.332503937007874
 30
0.0
 10
2.088208661417323
 20
-2.332503937007874
 30
0.0
 10
2.088208661417323
 20
-2.332503937007874
 30
0.0
 10
1.4435787401574804
 20
-1.9448228346456693
 30
0.0
 10
1.4435787401574804
 20
-1.9448228346456693
 30
0.0
 10
1.4435787401574804
 20
-1.9448228346456693
 30
0.0
 10
1.4435787401574804
 20
-1.9448228346456693
 30
0.0
 10
1.4063267716535433
 20
-2.0483818897637796
 30
0.0
 10
1.4063267716535433
 20
-2.0483818897637796
 30
0.0
  0
SPLINE
  5
57
100
AcDbEntity
  8
Layer 1
 62
     9
100
AcDbSpline
210
0.0
220
0.0
230
1.0
 70
     1
 71
     3
 72
    20
 73
    16
 74
     0
 42
0.0000000001
 43
0.0000000001
 40
0.0
 40
0.0
 40
0.0
 40
0.0
 40
0.25
 40
0.25
 40
0.25
 40
0.25
 40
0.5
 40
0.5
 40
0.5
 40
0.5
 40
0.75
 40
0.75
 40
0.75
 40
0.75
 40
1.0
 40
1.0
 40
1.0
 40
1.0
 10
1.4435787401574804
 20
-1.9448228346456693
 30
0.0
 10
1.4435787401574804
 20
-1.9448228346456693
 30
0.0
 10
2.088208661417323
 20
-2.332503937007874
 30
0.0
 10
2.088208661417323
 20
-2.332503937007874
 30
0.0
 10
2.088208661417323
 20
-2.332503937007874
 30
0.0
 10
2.088208661417323
 20
-2.332503937007874
 30
0.0
 10
2.1276259842519685
 20
-2.2331023622047246
 30
0.0
 10
2.1276259842519685
 20
-2.2331023622047246
 30
0.0
 10
2.1276259842519685
 20
-2.2331023622047246
 30
0.0
 10
2.1276259842519685
 20
-2.2331023622047246
 30
0.0
 10
1.4829960629921259
 20
-1.8454212598425197
 30
0.0
 10
1.4829960629921259
 20
-1.8454212598425197
 30
0.0
 10
1.4829960629921259
 20
-1.8454212598425197
 30
0.0
 10
1.4829960629921259
 20
-1.8454212598425197
 30
0.0
 10
1.4435787401574804
 20
-1.9448228346456693
 30
0.0
 10
1.4435787401574804
 20
-1.9448228346456693
 30
0.0
  0
SPLINE
  5
58
100
AcDbEntity
  8
Layer 1
 62
     9
100
AcDbSpline
210
0.0
220
0.0
230
1.0
 70
     1
 71
     3
 72
    20
 73
    16
 74
     0
 42
0.0000000001
 43
0.0000000001
 40
0.0
 40
0.0
 40
0.0
 40
0.0
 40
0.25
 40
0.25
 40
0.25
 40
0.25
 40
0.5
 40
0.5
 40
0.5
 40
0.5
 40
0.75
 40
0.75
 40
0.75
 40
0.75
 40
1.0
 40
1.0
 40
1.0
 40
1.0
 10
1.4829960629921259
 20
-1.8454212598425197
 30
0.0
 10
1.4829960629921259
 20
-1.8454212598425197
 30
0.0
 10
2.1276259842519685
 20
-2.2331023622047246
 30
0.0
 10
2.1276259842519685
 20
-2.2331023622047246
 30
0.0
 10
2.1276259842519685
 20
-2.2331023622047246
 30
0.0
 10
2.1276259842519685
 20
-2.2331023622047246
 30
0.0
 10
2.169027559055118
 20
-2.1378188976377954
 30
0.0
 10
2.169027559055118
 20
-2.1378188976377954
 30
0.0
 10
2.169027559055118
 20
-2.1378188976377954
 30
0.0
 10
2.169027559055118
 20
-2.1378188976377954
 30
0.0
 10
1.5243976377952757
 20
-1.7501377952755905
 30
0.0
 10
1.5243976377952757
 20
-1.7501377952755905
 30
0.0
 10
1.5243976377952757
 20
-1.7501377952755905
 30
0.0
 10
1.5243976377952757
 20
-1.7501377952755905
 30
0.0
 10
1.4829960629921259
 20
-1.8454212598425197
 30
0.0
 10
1.4829960629921259
 20
-1.8454212598425197
 30
0.0
  0
SPLINE
  5
59
100
AcDbEntity
  8
Layer 1
 62
     9
100
AcDbSpline
210
0.0
220
0.0
230
1.0
 70
     1
 71
     3
 72
    20
 73
    16
 74
     0
 42
0.0000000001
 43
0.0000000001
 40
0.0
 40
0.0
 40
0.0
 40
0.0
 40
0.25
 40
0.25
 40
0.25
 40
0.25
 40
0.5
 40
0.5
 40
0.5
 40
0.5
 40
0.75
 40
0.75
 40
0.75
 40
0.75
 40
1.0
 40
1.0
 40
1.0
 40
1.0
 10
1.5243976377952757
 20
-1.7501377952755905
 30
0.0
 10
1.5243976377952757
 20
-1.7501377952755905
 30
0.0
 10
2.169027559055118
 20
-2.1378188976377954
 30
0.0
 10
2.169027559055118
 20
-2.1378188976377954
 30
0.0
 10
2.169027559055118
 20
-2.1378188976377954
 30
0.0
 10
2.169027559055118
 20
-2.1378188976377954
 30
0.0
 10
2.2122007874015748
 20
-2.0466535433070865
 30
0.0
 10
2.2122007874015748
 20
-2.0466535433070865
 30
0.0
 10
2.2122007874015748
 20
-2.0466535433070865
 30
0.0
 10
2.2122007874015748
 20
-2.0466535433070865
 30
0.0
 10
1.5675708661417322
 20
-1.6589724409448821
 30
0.0
 10
1.5675708661417322
 20
-1.6589724409448821
 30
0.0
 10
1.5675708661417322
 20
-1.6589724409448821
 30
0.0
 10
1.5675708661417322
 20
-1.6589724409448821
 30
0.0
 10
1.5243976377952757
 20
-1.7501377952755905
 30
0.0
 10
1.5243976377952757
 20
-1.7501377952755905
 30
0.0
  0
SPLINE
  5
5A
100
AcDbEntity
  8
Layer 1
 62
     9
100
AcDbSpline
210
0.0
220
0.0
230
1.0
 70
     1
 71
     3
 72
    20
 73
    16
 74
     0
 42
0.0000000001
 43
0.0000000001
 40
0.0
 40
0.0
 40
0.0
 40
0.0
 40
0.25
 40
0.25
 40
0.25
 40
0.25
 40
0.5
 40
0.5
 40
0.5
 40
0.5
 40
0.75
 40
0.75
 40
0.75
 40
0.75
 40
1.0
 40
1.0
 40
1.0
 40
1.0
 10
1.5675708661417322
 20
-1.6589724409448821
 30
0.0
 10
1.5675708661417322
 20
-1.6589724409448821
 30
0.0
 10
2.2122007874015748
 20
-2.0466535433070865
 30
0.0
 10
2.2122007874015748
 20
-2.0466535433070865
 30
0.0
 10
2.2122007874015748
 20
-2.0466535433070865
 30
0.0
 10
2.2122007874015748
 20
-2.0466535433070865
 30
0.0
 10
2.256956692913386
 20
-1.9595748031496063
 30
0.0
 10
2.256956692913386
 20
-1.9595748031496063
 30
0.0
 10
2.256956692913386
 20
-1.9595748031496063
 30
0.0
 10
2.256956692913386
 20
-1.9595748031496063
 30
0.0
 10
1.6123267716535434
 20
-1.5718937007874016
 30
0.0
 10
1.6123267716535434
 20
-1.5718937007874016
 30
0.0
 10
1.6123267716535434
 20
-1.5718937007874016
 30
0.0
 10
1.6123267716535434
 20
-1.5718937007874016
 30
0.0
 10
1.5675708661417322
 20
-1.6589724409448821
 30
0.0
 10
1.5675708661417322
 20
-1.6589724409448821
 30
0.0
  0
SPLINE
  5
5B
100
AcDbEntity
  8
Layer 1
 62
     9
100
AcDbSpline
210
0.0
220
0.0
230
1.0
 70
     1
 71
     3
 72
    20
 73
    16
 74
     0
 42
0.0000000001
 43
0.0000000001
 40
0.0
 40
0.0
 40
0.0
 40
0.0
 40
0.25
 40
0.25
 40
0.25
 40
0.25
 40
0.5
 40
0.5
 40
0.5
 40
0.5
 40
0.75
 40
0.75
 40
0.75
 40
0.75
 40
1.0
 40
1.0
 40
1.0
 40
1.0
 10
1.6123267716535434
 20
-1.5718937007874016
 30
0.0
 10
1.6123267716535434
 20
-1.5718937007874016
 30
0.0
 10
2.256956692913386
 20
-1.9595748031496063
 30
0.0
 10
2.256956692913386
 20
-1.9595748031496063
 30
0.0
 10
2.256956692913386
 20
-1.9595748031496063
 30
0.0
 10
2.256956692913386
 20
-1.9595748031496063
 30
0.0
 10
2.3030826771653543
 20
-1.8765866141732284
 30
0.0
 10
2.3030826771653543
 20
-1.8765866141732284
 30
0.0
 10
2.3030826771653543
 20
-1.8765866141732284
 30
0.0
 10
2.3030826771653543
 20
-1.8765866141732284
 30
0.0
 10
1.6584527559055118
 20
-1.4889055118110237
 30
0.0
 10
1.6584527559055118
 20
-1.4889055118110237
 30
0.0
 10
1.6584527559055118
 20
-1.4889055118110237
 30
0.0
 10
1.6584527559055118
 20
-1.4889055118110237
 30
0.0
 10
1.6123267716535434
 20
-1.5718937007874016
 30
0.0
 10
1.6123267716535434
 20
-1.5718937007874016
 30
0.0
  0
SPLINE
  5
5C
100
AcDbEntity
  8
Layer 1
 62
     9
100
AcDbSpline
210
0.0
220
0.0
230
1.0
 70
     1
 71
     3
 72
    20
 73
    16
 74
     0
 42
0.0000000001
 43
0.0000000001
 40
0.0
 40
0.0
 40
0.0
 40
0.0
 40
0.25
 40
0.25
 40
0.25
 40
0.25
 40
0.5
 40
0.5
 40
0.5
 40
0.5
 40
0.75
 40
0.75
 40
0.75
 40
0.75
 40
1.0
 40
1.0
 40
1.0
 40
1.0
 10
1.6584527559055118
 20
-1.4889055118110237
 30
0.0
 10
1.6584527559055118
 20
-1.4889055118110237
 30
0.0
 10
2.3030826771653543
 20
-1.8765866141732284
 30
0.0
 10
2.3030826771653543
 20
-1.8765866141732284
 30
0.0
 10
2.3030826771653543
 20
-1.8765866141732284
 30
0.0
 10
2.3030826771653543
 20
-1.8765866141732284
 30
0.0
 10
2.3503976377952758
 20
-1.7976574803149608
 30
0.0
 10
2.3503976377952758
 20
-1.7976574803149608
 30
0.0
 10
2.3503976377952758
 20
-1.7976574803149608
 30
0.0
 10
2.3503976377952758
 20
-1.7976574803149608
 30
0.0
 10
1.7057677165354332
 20
-1.4099763779527559
 30
0.0
 10
1.7057677165354332
 20
-1.4099763779527559
 30
0.0
 10
1.7057677165354332
 20
-1.4099763779527559
 30
0.0
 10
1.7057677165354332
 20
-1.4099763779527559
 30
0.0
 10
1.6584527559055118
 20
-1.4889055118110237
 30
0.0
 10
1.6584527559055118
 20
-1.4889055118110237
 30
0.0
  0
SPLINE
  5
5D
100
AcDbEntity
  8
Layer 1
 62
     9
100
AcDbSpline
210
0.0
220
0.0
230
1.0
 70
     1
 71
     3
 72
    20
 73
    16
 74
     0
 42
0.0000000001
 43
0.0000000001
 40
0.0
 40
0.0
 40
0.0
 40
0.0
 40
0.25
 40
0.25
 40
0.25
 40
0.25
 40
0.5
 40
0.5
 40
0.5
 40
0.5
 40
0.75
 40
0.75
 40
0.75
 40
0.75
 40
1.0
 40
1.0
 40
1.0
 40
1.0
 10
1.7057677165354332
 20
-1.4099763779527559
 30
0.0
 10
1.7057677165354332
 20
-1.4099763779527559
 30
0.0
 10
2.3503976377952758
 20
-1.7976574803149608
 30
0.0
 10
2.3503976377952758
 20
-1.7976574803149608
 30
0.0
 10
2.3503976377952758
 20
-1.7976574803149608
 30
0.0
 10
2.3503976377952758
 20
-1.7976574803149608
 30
0.0
 10
2.398692913385827
 20
-1.7227716535433071
 30
0.0
 10
2.398692913385827
 20
-1.7227716535433071
 30
0.0
 10
2.398692913385827
 20
-1.7227716535433071
 30
0.0
 10
2.398692913385827
 20
-1.7227716535433071
 30
0.0
 10
1.7540629921259843
 20
-1.3350905511811024
 30
0.0
 10
1.7540629921259843
 20
-1.3350905511811024
 30
0.0
 10
1.7540629921259843
 20
-1.3350905511811024
 30
0.0
 10
1.7540629921259843
 20
-1.3350905511811024
 30
0.0
 10
1.7057677165354332
 20
-1.4099763779527559
 30
0.0
 10
1.7057677165354332
 20
-1.4099763779527559
 30
0.0
  0
SPLINE
  5
5E
100
AcDbEntity
  8
Layer 1
 62
     9
100
AcDbSpline
210
0.0
220
0.0
230
1.0
 70
     1
 71
     3
 72
    20
 73
    16
 74
     0
 42
0.0000000001
 43
0.0000000001
 40
0.0
 40
0.0
 40
0.0
 40
0.0
 40
0.25
 40
0.25
 40
0.25
 40
0.25
 40
0.5
 40
0.5
 40
0.5
 40
0.5
 40
0.75
 40
0.75
 40
0.75
 40
0.75
 40
1.0
 40
1.0
 40
1.0
 40
1.0
 10
1.7540629921259843
 20
-1.3350905511811024
 30
0.0
 10
1.7540629921259843
 20
-1.3350905511811024
 30
0.0
 10
2.398692913385827
 20
-1.7227716535433071
 30
0.0
 10
2.398692913385827
 20
-1.7227716535433071
 30
0.0
 10
2.398692913385827
 20
-1.7227716535433071
 30
0.0
 10
2.398692913385827
 20
-1.7227716535433071
 30
0.0
 10
2.4477795275590553
 20
-1.6519133858267716
 30
0.0
 10
2.4477795275590553
 20
-1.6519133858267716
 30
0.0
 10
2.4477795275590553
 20
-1.6519133858267716
 30
0.0
 10
2.4477795275590553
 20
-1.6519133858267716
 30
0.0
 10
1.8031496062992127
 20
-1.264232283464567
 30
0.0
 10
1.8031496062992127
 20
-1.264232283464567
 30
0.0
 10
1.8031496062992127
 20
-1.264232283464567
 30
0.0
 10
1.8031496062992127
 20
-1.264232283464567
 30
0.0
 10
1.7540629921259843
 20
-1.3350905511811024
 30
0.0
 10
1.7540629921259843
 20
-1.3350905511811024
 30
0.0
  0
SPLINE
  5
5F
100
AcDbEntity
  8
Layer 1
 62
     9
100
AcDbSpline
210
0.0
220
0.0
230
1.0
 70
     1
 71
     3
 72
    20
 73
    16
 74
     0
 42
0.0000000001
 43
0.0000000001
 40
0.0
 40
0.0
 40
0.0
 40
0.0
 40
0.25
 40
0.25
 40
0.25
 40
0.25
 40
0.5
 40
0.5
 40
0.5
 40
0.5
 40
0.75
 40
0.75
 40
0.75
 40
0.75
 40
1.0
 40
1.0
 40
1.0
 40
1.0
 10
1.8031496062992127
 20
-1.264232283464567
 30
0.0
 10
1.8031496062992127
 20
-1.264232283464567
 30
0.0
 10
2.4477795275590553
 20
-1.6519133858267716
 30
0.0
 10
2.4477795275590553
 20
-1.6519133858267716
 30
0.0
 10
2.4477795275590553
 20
-1.6519133858267716
 30
0.0
 10
2.4477795275590553
 20
-1.6519133858267716
 30
0.0
 10
2.4974448818897637
 20
-1.5850748031496062
 30
0.0
 10
2.4974448818897637
 20
-1.5850748031496062
 30
0.0
 10
2.4974448818897637
 20
-1.5850748031496062
 30
0.0
 10
2.4974448818897637
 20
-1.5850748031496062
 30
0.0
 10
1.8528149606299213
 20
-1.1973937007874016
 30
0.0
 10
1.8528149606299213
 20
-1.1973937007874016
 30
0.0
 10
1.8528149606299213
 20
-1.1973937007874016
 30
0.0
 10
1.8528149606299213
 20
-1.1973937007874016
 30
0.0
 10
1.8031496062992127
 20
-1.264232283464567
 30
0.0
 10
1.8031496062992127
 20
-1.264232283464567
 30
0.0
  0
SPLINE
  5
60
100
AcDbEntity
  8
Layer 1
 62
     9
100
AcDbSpline
210
0.0
220
0.0
230
1.0
 70
     1
 71
     3
 72
    20
 73
    16
 74
     0
 42
0.0000000001
 43
0.0000000001
 40
0.0
 40
0.0
 40
0.0
 40
0.0
 40
0.25
 40
0.25
 40
0.25
 40
0.25
 40
0.5
 40
0.5
 40
0.5
 40
0.5
 40
0.75
 40
0.75
 40
0.75
 40
0.75
 40
1.0
 40
1.0
 40
1.0
 40
1.0
 10
1.8528149606299213
 20
-1.1973937007874016
 30
0.0
 10
1.8528149606299213
 20
-1.1973937007874016
 30
0.0
 10
2.4974448818897637
 20
-1.5850748031496062
 30
0.0
 10
2.4974448818897637
 20
-1.5850748031496062
 30
0.0
 10
2.4974448818897637
 20
-1.5850748031496062
 30
0.0
 10
2.4974448818897637
 20
-1.5850748031496062
 30
0.0
 10
2.5475039370078743
 20
-1.522228346456693
 30
0.0
 10
2.5475039370078743
 20
-1.522228346456693
 30
0.0
 10
2.5475039370078743
 20
-1.522228346456693
 30
0.0
 10
2.5475039370078743
 20
-1.522228346456693
 30
0.0
 10
1.9028740157480315
 20
-1.1345472440944881
 30
0.0
 10
1.9028740157480315
 20
-1.1345472440944881
 30
0.0
 10
1.9028740157480315
 20
-1.1345472440944881
 30
0.0
 10
1.9028740157480315
 20
-1.1345472440944881
 30
0.0
 10
1.8528149606299213
 20
-1.1973937007874016
 30
0.0
 10
1.8528149606299213
 20
-1.1973937007874016
 30
0.0
  0
SPLINE
  5
61
100
AcDbEntity
  8
Layer 1
 62
     9
100
AcDbSpline
210
0.0
220
0.0
230
1.0
 70
     1
 71
     3
 72
    20
 73
    16
 74
     0
 42
0.0000000001
 43
0.0000000001
 40
0.0
 40
0.0
 40
0.0
 40
0.0
 40
0.25
 40
0.25
 40
0.25
 40
0.25
 40
0.5
 40
0.5
 40
0.5
 40
0.5
 40
0.75
 40
0.75
 40
0.75
 40
0.75
 40
1.0
 40
1.0
 40
1.0
 40
1.0
 10
1.9028740157480315
 20
-1.1345472440944881
 30
0.0
 10
1.9028740157480315
 20
-1.1345472440944881
 30
0.0
 10
2.5475039370078743
 20
-1.522228346456693
 30
0.0
 10
2.5475039370078743
 20
-1.522228346456693
 30
0.0
 10
2.5475039370078743
 20
-1.522228346456693
 30
0.0
 10
2.5475039370078743
 20
-1.522228346456693
 30
0.0
 10
2.5977519685039372
 20
-1.4633622047244095
 30
0.0
 10
2.5977519685039372
 20
-1.4633622047244095
 30
0.0
 10
2.5977519685039372
 20
-1.4633622047244095
 30
0.0
 10
2.5977519685039372
 20
-1.4633622047244095
 30
0.0
 10
1.9531220472440947
 20
-1.0756811023622048
 30
0.0
 10
1.9531220472440947
 20
-1.0756811023622048
 30
0.0
 10
1.9531220472440947
 20
-1.0756811023622048
 30
0.0
 10
1.9531220472440947
 20
-1.0756811023622048
 30
0.0
 10
1.9028740157480315
 20
-1.1345472440944881
 30
0.0
 10
1.9028740157480315
 20
-1.1345472440944881
 30
0.0
  0
SPLINE
  5
62
100
AcDbEntity
  8
Layer 1
 62
     9
100
AcDbSpline
210
0.0
220
0.0
230
1.0
 70
     1
 71
     3
 72
    20
 73
    16
 74
     0
 42
0.0000000001
 43
0.0000000001
 40
0.0
 40
0.0
 40
0.0
 40
0.0
 40
0.25
 40
0.25
 40
0.25
 40
0.25
 40
0.5
 40
0.5
 40
0.5
 40
0.5
 40
0.75
 40
0.75
 40
0.75
 40
0.75
 40
1.0
 40
1.0
 40
1.0
 40
1.0
 10
1.9531220472440947
 20
-1.0756811023622048
 30
0.0
 10
1.9531220472440947
 20
-1.0756811023622048
 30
0.0
 10
2.5977519685039372
 20
-1.4633622047244095
 30
0.0
 10
2.5977519685039372
 20
-1.4633622047244095
 30
0.0
 10
2.5977519685039372
 20
-1.4633622047244095
 30
0.0
 10
2.5977519685039372
 20
-1.4633622047244095
 30
0.0
 10
2.6479960629921262
 20
-1.4084527559055118
 30
0.0
 10
2.6479960629921262
 20
-1.4084527559055118
 30
0.0
 10
2.6479960629921262
 20
-1.4084527559055118
 30
0.0
 10
2.6479960629921262
 20
-1.4084527559055118
 30
0.0
 10
2.0033661417322834
 20
-1.0207716535433071
 30
0.0
 10
2.0033661417322834
 20
-1.0207716535433071
 30
0.0
 10
2.0033661417322834
 20
-1.0207716535433071
 30
0.0
 10
2.0033661417322834
 20
-1.0207716535433071
 30
0.0
 10
1.9531220472440947
 20
-1.0756811023622048
 30
0.0
 10
1.9531220472440947
 20
-1.0756811023622048
 30
0.0
  0
SPLINE
  5
63
100
AcDbEntity
  8
Layer 1
 62
     9
100
AcDbSpline
210
0.0
220
0.0
230
1.0
 70
     1
 71
     3
 72
    20
 73
    16
 74
     0
 42
0.0000000001
 43
0.0000000001
 40
0.0
 40
0.0
 40
0.0
 40
0.0
 40
0.25
 40
0.25
 40
0.25
 40
0.25
 40
0.5
 40
0.5
 40
0.5
 40
0.5
 40
0.75
 40
0.75
 40
0.75
 40
0.75
 40
1.0
 40
1.0
 40
1.0
 40
1.0
 10
2.0033661417322834
 20
-1.0207716535433071
 30
0.0
 10
2.0033661417322834
 20
-1.0207716535433071
 30
0.0
 10
2.6479960629921262
 20
-1.4084527559055118
 30
0.0
 10
2.6479960629921262
 20
-1.4084527559055118
 30
0.0
 10
2.6479960629921262
 20
-1.4084527559055118
 30
0.0
 10
2.6479960629921262
 20
-1.4084527559055118
 30
0.0
 10
2.698023622047244
 20
-1.3575000000000002
 30
0.0
 10
2.698023622047244
 20
-1.3575000000000002
 30
0.0
 10
2.698023622047244
 20
-1.3575000000000002
 30
0.0
 10
2.698023622047244
 20
-1.3575000000000002
 30
0.0
 10
2.0533937007874017
 20
-0.9698188976377953
 30
0.0
 10
2.0533937007874017
 20
-0.9698188976377953
 30
0.0
 10
2.0533937007874017
 20
-0.9698188976377953
 30
0.0
 10
2.0533937007874017
 20
-0.9698188976377953
 30
0.0
 10
2.0033661417322834
 20
-1.0207716535433071
 30
0.0
 10
2.0033661417322834
 20
-1.0207716535433071
 30
0.0
  0
SPLINE
  5
64
100
AcDbEntity
  8
Layer 1
 62
     9
100
AcDbSpline
210
0.0
220
0.0
230
1.0
 70
     1
 71
     3
 72
    20
 73
    16
 74
     0
 42
0.0000000001
 43
0.0000000001
 40
0.0
 40
0.0
 40
0.0
 40
0.0
 40
0.25
 40
0.25
 40
0.25
 40
0.25
 40
0.5
 40
0.5
 40
0.5
 40
0.5
 40
0.75
 40
0.75
 40
0.75
 40
0.75
 40
1.0
 40
1.0
 40
1.0
 40
1.0
 10
2.0533937007874017
 20
-0.9698188976377953
 30
0.0
 10
2.0533937007874017
 20
-0.9698188976377953
 30
0.0
 10
2.698023622047244
 20
-1.3575000000000002
 30
0.0
 10
2.698023622047244
 20
-1.3575000000000002
 30
0.0
 10
2.698023622047244
 20
-1.3575000000000002
 30
0.0
 10
2.698023622047244
 20
-1.3575000000000002
 30
0.0
 10
2.7476535433070866
 20
-1.3104685039370079
 30
0.0
 10
2.7476535433070866
 20
-1.3104685039370079
 30
0.0
 10
2.7476535433070866
 20
-1.3104685039370079
 30
0.0
 10
2.7476535433070866
 20
-1.3104685039370079
 30
0.0
 10
2.1030236220472442
 20
-0.9227874015748032
 30
0.0
 10
2.1030236220472442
 20
-0.9227874015748032
 30
0.0
 10
2.1030236220472442
 20
-0.9227874015748032
 30
0.0
 10
2.1030236220472442
 20
-0.9227874015748032
 30
0.0
 10
2.0533937007874017
 20
-0.9698188976377953
 30
0.0
 10
2.0533937007874017
 20
-0.9698188976377953
 30
0.0
  0
SPLINE
  5
65
100
AcDbEntity
  8
Layer 1
 62
     9
100
AcDbSpline
210
0.0
220
0.0
230
1.0
 70
     1
 71
     3
 72
    20
 73
    16
 74
     0
 42
0.0000000001
 43
0.0000000001
 40
0.0
 40
0.0
 40
0.0
 40
0.0
 40
0.25
 40
0.25
 40
0.25
 40
0.25
 40
0.5
 40
0.5
 40
0.5
 40
0.5
 40
0.75
 40
0.75
 40
0.75
 40
0.75
 40
1.0
 40
1.0
 40
1.0
 40
1.0
 10
2.1030236220472442
 20
-0.9227874015748032
 30
0.0
 10
2.1030236220472442
 20
-0.9227874015748032
 30
0.0
 10
2.7476535433070866
 20
-1.3104685039370079
 30
0.0
 10
2.7476535433070866
 20
-1.3104685039370079
 30
0.0
 10
2.7476535433070866
 20
-1.3104685039370079
 30
0.0
 10
2.7476535433070866
 20
-1.3104685039370079
 30
0.0
 10
2.796677165354331
 20
-1.2673543307086614
 30
0.0
 10
2.796677165354331
 20
-1.2673543307086614
 30
0.0
 10
2.796677165354331
 20
-1.2673543307086614
 30
0.0
 10
2.796677165354331
 20
-1.2673543307086614
 30
0.0
 10
2.1520472440944882
 20
-0.8796732283464568
 30
0.0
 10
2.1520472440944882
 20
-0.8796732283464568
 30
0.0
 10
2.1520472440944882
 20
-0.8796732283464568
 30
0.0
 10
2.1520472440944882
 20
-0.8796732283464568
 30
0.0
 10
2.1030236220472442
 20
-0.9227874015748032
 30
0.0
 10
2.1030236220472442
 20
-0.9227874015748032
 30
0.0
  0
SPLINE
  5
66
100
AcDbEntity
  8
Layer 1
 62
     9
100
AcDbSpline
210
0.0
220
0.0
230
1.0
 70
     1
 71
     3
 72
    20
 73
    16
 74
     0
 42
0.0000000001
 43
0.0000000001
 40
0.0
 40
0.0
 40
0.0
 40
0.0
 40
0.25
 40
0.25
 40
0.25
 40
0.25
 40
0.5
 40
0.5
 40
0.5
 40
0.5
 40
0.75
 40
0.75
 40
0.75
 40
0.75
 40
1.0
 40
1.0
 40
1.0
 40
1.0
 10
2.1520472440944882
 20
-0.8796732283464568
 30
0.0
 10
2.1520472440944882
 20
-0.8796732283464568
 30
0.0
 10
2.796677165354331
 20
-1.2673543307086614
 30
0.0
 10
2.796677165354331
 20
-1.2673543307086614
 30
0.0
 10
2.796677165354331
 20
-1.2673543307086614
 30
0.0
 10
2.796677165354331
 20
-1.2673543307086614
 30
0.0
 10
2.8449055118110236
 20
-1.2281338582677166
 30
0.0
 10
2.8449055118110236
 20
-1.2281338582677166
 30
0.0
 10
2.8449055118110236
 20
-1.2281338582677166
 30
0.0
 10
2.8449055118110236
 20
-1.2281338582677166
 30
0.0
 10
2.2002755905511813
 20
-0.8404527559055118
 30
0.0
 10
2.2002755905511813
 20
-0.8404527559055118
 30
0.0
 10
2.2002755905511813
 20
-0.8404527559055118
 30
0.0
 10
2.2002755905511813
 20
-0.8404527559055118
 30
0.0
 10
2.1520472440944882
 20
-0.8796732283464568
 30
0.0
 10
2.1520472440944882
 20
-0.8796732283464568
 30
0.0
  0
SPLINE
  5
67
100
AcDbEntity
  8
Layer 1
 62
     9
100
AcDbSpline
210
0.0
220
0.0
230
1.0
 70
     1
 71
     3
 72
    20
 73
    16
 74
     0
 42
0.0000000001
 43
0.0000000001
 40
0.0
 40
0.0
 40
0.0
 40
0.0
 40
0.25
 40
0.25
 40
0.25
 40
0.25
 40
0.5
 40
0.5
 40
0.5
 40
0.5
 40
0.75
 40
0.75
 40
0.75
 40
0.75
 40
1.0
 40
1.0
 40
1.0
 40
1.0
 10
2.2002755905511813
 20
-0.8404527559055118
 30
0.0
 10
2.2002755905511813
 20
-0.8404527559055118
 30
0.0
 10
2.8449055118110236
 20
-1.2281338582677166
 30
0.0
 10
2.8449055118110236
 20
-1.2281338582677166
 30
0.0
 10
2.8449055118110236
 20
-1.2281338582677166
 30
0.0
 10
2.8449055118110236
 20
-1.2281338582677166
 30
0.0
 10
2.8921259842519684
 20
-1.1927992125984253
 30
0.0
 10
2.8921259842519684
 20
-1.1927992125984253
 30
0.0
 10
2.8921259842519684
 20
-1.1927992125984253
 30
0.0
 10
2.8921259842519684
 20
-1.1927992125984253
 30
0.0
 10
2.2474960629921261
 20
-0.8051181102362205
 30
0.0
 10
2.2474960629921261
 20
-0.8051181102362205
 30
0.0
 10
2.2474960629921261
 20
-0.8051181102362205
 30
0.0
 10
2.2474960629921261
 20
-0.8051181102362205
 30
0.0
 10
2.2002755905511813
 20
-0.8404527559055118
 30
0.0
 10
2.2002755905511813
 20
-0.8404527559055118
 30
0.0
  0
SPLINE
  5
68
100
AcDbEntity
  8
Layer 1
 62
     9
100
AcDbSpline
210
0.0
220
0.0
230
1.0
 70
     1
 71
     3
 72
    20
 73
    16
 74
     0
 42
0.0000000001
 43
0.0000000001
 40
0.0
 40
0.0
 40
0.0
 40
0.0
 40
0.25
 40
0.25
 40
0.25
 40
0.25
 40
0.5
 40
0.5
 40
0.5
 40
0.5
 40
0.75
 40
0.75
 40
0.75
 40
0.75
 40
1.0
 40
1.0
 40
1.0
 40
1.0
 10
2.2474960629921261
 20
-0.8051181102362205
 30
0.0
 10
2.2474960629921261
 20
-0.8051181102362205
 30
0.0
 10
2.8921259842519684
 20
-1.1927992125984253
 30
0.0
 10
2.8921259842519684
 20
-1.1927992125984253
 30
0.0
 10
2.8921259842519684
 20
-1.1927992125984253
 30
0.0
 10
2.8921259842519684
 20
-1.1927992125984253
 30
0.0
 10
2.9381535433070867
 20
-1.1613188976377953
 30
0.0
 10
2.9381535433070867
 20
-1.1613188976377953
 30
0.0
 10
2.9381535433070867
 20
-1.1613188976377953
 30
0.0
 10
2.9381535433070867
 20
-1.1613188976377953
 30
0.0
 10
2.2935236220472444
 20
-0.7736377952755906
 30
0.0
 10
2.2935236220472444
 20
-0.7736377952755906
 30
0.0
 10
2.2935236220472444
 20
-0.7736377952755906
 30
0.0
 10
2.2935236220472444
 20
-0.7736377952755906
 30
0.0
 10
2.2474960629921261
 20
-0.8051181102362205
 30
0.0
 10
2.2474960629921261
 20
-0.8051181102362205
 30
0.0
  0
SPLINE
  5
69
100
AcDbEntity
  8
Layer 1
 62
     9
100
AcDbSpline
210
0.0
220
0.0
230
1.0
 70
     1
 71
     3
 72
    20
 73
    16
 74
     0
 42
0.0000000001
 43
0.0000000001
 40
0.0
 40
0.0
 40
0.0
 40
0.0
 40
0.25
 40
0.25
 40
0.25
 40
0.25
 40
0.5
 40
0.5
 40
0.5
 40
0.5
 40
0.75
 40
0.75
 40
0.75
 40
0.75
 40
1.0
 40
1.0
 40
1.0
 40
1.0
 10
2.2935236220472444
 20
-0.7736377952755906
 30
0.0
 10
2.2935236220472444
 20
-0.7736377952755906
 30
0.0
 10
2.9381535433070867
 20
-1.1613188976377953
 30
0.0
 10
2.9381535433070867
 20
-1.1613188976377953
 30
0.0
 10
2.9381535433070867
 20
-1.1613188976377953
 30
0.0
 10
2.9381535433070867
 20
-1.1613188976377953
 30
0.0
 10
2.9827834645669293
 20
-1.1336929133858269
 30
0.0
 10
2.9827834645669293
 20
-1.1336929133858269
 30
0.0
 10
2.9827834645669293
 20
-1.1336929133858269
 30
0.0
 10
2.9827834645669293
 20
-1.1336929133858269
 30
0.0
 10
2.3381535433070866
 20
-0.7460118110236221
 30
0.0
 10
2.3381535433070866
 20
-0.7460118110236221
 30
0.0
 10
2.3381535433070866
 20
-0.7460118110236221
 30
0.0
 10
2.3381535433070866
 20
-0.7460118110236221
 30
0.0
 10
2.2935236220472444
 20
-0.7736377952755906
 30
0.0
 10
2.2935236220472444
 20
-0.7736377952755906
 30
0.0
  0
SPLINE
  5
6A
100
AcDbEntity
  8
Layer 1
 62
     9
100
AcDbSpline
210
0.0
220
0.0
230
1.0
 70
     1
 71
     3
 72
    20
 73
    16
 74
     0
 42
0.0000000001
 43
0.0000000001
 40
0.0
 40
0.0
 40
0.0
 40
0.0
 40
0.25
 40
0.25
 40
0.25
 40
0.25
 40
0.5
 40
0.5
 40
0.5
 40
0.5
 40
0.75
 40
0.75
 40
0.75
 40
0.75
 40
1.0
 40
1.0
 40
1.0
 40
1.0
 10
2.3381535433070866
 20
-0.7460118110236221
 30
0.0
 10
2.3381535433070866
 20
-0.7460118110236221
 30
0.0
 10
2.9827834645669293
 20
-1.1336929133858269
 30
0.0
 10
2.9827834645669293
 20
-1.1336929133858269
 30
0.0
 10
2.9827834645669293
 20
-1.1336929133858269
 30
0.0
 10
2.9827834645669293
 20
-1.1336929133858269
 30
0.0
 10
3.0258267716535436
 20
-1.1098897637795275
 30
0.0
 10
3.0258267716535436
 20
-1.1098897637795275
 30
0.0
 10
3.0258267716535436
 20
-1.1098897637795275
 30
0.0
 10
3.0258267716535436
 20
-1.1098897637795275
 30
0.0
 10
2.3811968503937009
 20
-0.7222086614173229
 30
0.0
 10
2.3811968503937009
 20
-0.7222086614173229
 30
0.0
 10
2.3811968503937009
 20
-0.7222086614173229
 30
0.0
 10
2.3811968503937009
 20
-0.7222086614173229
 30
0.0
 10
2.3381535433070866
 20
-0.7460118110236221
 30
0.0
 10
2.3381535433070866
 20
-0.7460118110236221
 30
0.0
  0
SPLINE
  5
6B
100
AcDbEntity
  8
Layer 1
370
     5
100
AcDbSpline
210
0.0
220
0.0
230
1.0
 70
     1
 71
     3
 72
   268
 73
   264
 74
     0
 42
0.0000000001
 43
0.0000000001
 40
0.0
 40
0.0
 40
0.0
 40
0.0
 40
0.0151515151515152
 40
0.0151515151515152
 40
0.0151515151515152
 40
0.0151515151515152
 40
0.0303030303030303
 40
0.0303030303030303
 40
0.0303030303030303
 40
0.0303030303030303
 40
0.0454545454545455
 40
0.0454545454545455
 40
0.0454545454545455
 40
0.0454545454545455
 40
0.0606060606060606
 40
0.0606060606060606
 40
0.0606060606060606
 40
0.0606060606060606
 40
0.0757575757575758
 40
0.0757575757575758
 40
0.0757575757575758
 40
0.0757575757575758
 40
0.0909090909090909
 40
0.0909090909090909
 40
0.0909090909090909
 40
0.0909090909090909
 40
0.1060606060606061
 40
0.1060606060606061
 40
0.1060606060606061
 40
0.1060606060606061
 40
0.1212121212121212
 40
0.1212121212121212
 40
0.1212121212121212
 40
0.1212121212121212
 40
0.1363636363636364
 40
0.1363636363636364
 40
0.1363636363636364
 40
0.1363636363636364
 40
0.1515151515151515
 40
0.1515151515151515
 40
0.1515151515151515
 40
0.1515151515151515
 40
0.1666666666666666
 40
0.1666666666666666
 40
0.1666666666666666
 40
0.1666666666666666
 40
0.1818181818181818
 40
0.1818181818181818
 40
0.1818181818181818
 40
0.1818181818181818
 40
0.1969696969696969
 40
0.1969696969696969
 40
0.1969696969696969
 40
0.1969696969696969
 40
0.212121212121212
 40
0.212121212121212
 40
0.212121212121212
 40
0.212121212121212
 40
0.2272727272727272
 40
0.2272727272727272
 40
0.2272727272727272
 40
0.2272727272727272
 40
0.2424242424242423
 40
0.2424242424242423
 40
0.2424242424242423
 40
0.2424242424242423
 40
0.2575757575757575
 40
0.2575757575757575
 40
0.2575757575757575
 40
0.2575757575757575
 40
0.2727272727272726
 40
0.2727272727272726
 40
0.2727272727272726
 40
0.2727272727272726
 40
0.2878787878787877
 40
0.2878787878787877
 40
0.2878787878787877
 40
0.2878787878787877
 40
0.3030303030303029
 40
0.3030303030303029
 40
0.3030303030303029
 40
0.3030303030303029
 40
0.318181818181818
 40
0.318181818181818
 40
0.318181818181818
 40
0.318181818181818
 40
0.3333333333333332
 40
0.3333333333333332
 40
0.3333333333333332
 40
0.3333333333333332
 40
0.3484848484848483
 40
0.3484848484848483
 40
0.3484848484848483
 40
0.3484848484848483
 40
0.3636363636363634
 40
0.3636363636363634
 40
0.3636363636363634
 40
0.3636363636363634
 40
0.3787878787878786
 40
0.3787878787878786
 40
0.3787878787878786
 40
0.3787878787878786
 40
0.3939393939393937
 40
0.3939393939393937
 40
0.3939393939393937
 40
0.3939393939393937
 40
0.4090909090909088
 40
0.4090909090909088
 40
0.4090909090909088
 40
0.4090909090909088
 40
0.424242424242424
 40
0.424242424242424
 40
0.424242424242424
 40
0.424242424242424
 40
0.4393939393939391
 40
0.4393939393939391
 40
0.4393939393939391
 40
0.4393939393939391
 40
0.4545454545454543
 40
0.4545454545454543
 40
0.4545454545454543
 40
0.4545454545454543
 40
0.4696969696969694
 40
0.4696969696969694
 40
0.4696969696969694
 40
0.4696969696969694
 40
0.4848484848484845
 40
0.4848484848484845
 40
0.4848484848484845
 40
0.4848484848484845
 40
0.4999999999999997
 40
0.4999999999999997
 40
0.4999999999999997
 40
0.4999999999999997
 40
0.5151515151515148
 40
0.5151515151515148
 40
0.5151515151515148
 40
0.5151515151515148
 40
0.5303030303030299
 40
0.5303030303030299
 40
0.5303030303030299
 40
0.5303030303030299
 40
0.5454545454545451
 40
0.5454545454545451
 40
0.5454545454545451
 40
0.5454545454545451
 40
0.5606060606060602
 40
0.5606060606060602
 40
0.5606060606060602
 40
0.5606060606060602
 40
0.5757575757575754
 40
0.5757575757575754
 40
0.5757575757575754
 40
0.5757575757575754
 40
0.5909090909090905
 40
0.5909090909090905
 40
0.5909090909090905
 40
0.5909090909090905
 40
0.6060606060606056
 40
0.6060606060606056
 40
0.6060606060606056
 40
0.6060606060606056
 40
0.6212121212121208
 40
0.6212121212121208
 40
0.6212121212121208
 40
0.6212121212121208
 40
0.6363636363636359
 40
0.6363636363636359
 40
0.6363636363636359
 40
0.6363636363636359
 40
0.6515151515151511
 40
0.6515151515151511
 40
0.6515151515151511
 40
0.6515151515151511
 40
0.6666666666666662
 40
0.6666666666666662
 40
0.6666666666666662
 40
0.6666666666666662
 40
0.6818181818181813
 40
0.6818181818181813
 40
0.6818181818181813
 40
0.6818181818181813
 40
0.6969696969696965
 40
0.6969696969696965
 40
0.6969696969696965
 40
0.6969696969696965
 40
0.7121212121212116
 40
0.7121212121212116
 40
0.7121212121212116
 40
0.7121212121212116
 40
0.7272727272727267
 40
0.7272727272727267
 40
0.7272727272727267
 40
0.7272727272727267
 40
0.7424242424242419
 40
0.7424242424242419
 40
0.7424242424242419
 40
0.7424242424242419
 40
0.757575757575757
 40
0.757575757575757
 40
0.757575757575757
 40
0.757575757575757
 40
0.7727272727272722
 40
0.7727272727272722
 40
0.7727272727272722
 40
0.7727272727272722
 40
0.7878787878787873
 40
0.7878787878787873
 40
0.7878787878787873
 40
0.7878787878787873
 40
0.8030303030303024
 40
0.8030303030303024
 40
0.8030303030303024
 40
0.8030303030303024
 40
0.8181818181818176
 40
0.8181818181818176
 40
0.8181818181818176
 40
0.8181818181818176
 40
0.8333333333333327
 40
0.8333333333333327
 40
0.8333333333333327
 40
0.8333333333333327
 40
0.8484848484848478
 40
0.8484848484848478
 40
0.8484848484848478
 40
0.8484848484848478
 40
0.863636363636363
 40
0.863636363636363
 40
0.863636363636363
 40
0.863636363636363
 40
0.8787878787878781
 40
0.8787878787878781
 40
0.8787878787878781
 40
0.8787878787878781
 40
0.8939393939393933
 40
0.8939393939393933
 40
0.8939393939393933
 40
0.8939393939393933
 40
0.9090909090909084
 40
0.9090909090909084
 40
0.9090909090909084
 40
0.9090909090909084
 40
0.9242424242424235
 40
0.9242424242424235
 40
0.9242424242424235
 40
0.9242424242424235
 40
0.9393939393939387
 40
0.9393939393939387
 40
0.9393939393939387
 40
0.9393939393939387
 40
0.9545454545454538
 40
0.9545454545454538
 40
0.9545454545454538
 40
0.9545454545454538
 40
0.969696969696969
 40
0.969696969696969
 40
0.969696969696969
 40
0.969696969696969
 40
0.9848484848484841
 40
0.9848484848484841
 40
0.9848484848484841
 40
0.9848484848484841
 40
1.0
 40
1.0
 40
1.0
 40
1.0
 10
1.1967519685039369
 20
-3.4657913385826773
 30
0.0
 10
1.1967519685039369
 20
-3.4657913385826773
 30
0.0
 10
1.8413818897637797
 20
-3.8534724409448819
 30
0.0
 10
1.8413818897637797
 20
-3.8534724409448819
 30
0.0
 10
1.8413818897637797
 20
-3.8534724409448819
 30
0.0
 10
1.8413818897637797
 20
-3.8534724409448819
 30
0.0
 10
1.8416299212598426
 20
-3.703220472440945
 30
0.0
 10
1.8416299212598426
 20
-3.703220472440945
 30
0.0
 10
1.8416299212598426
 20
-3.703220472440945
 30
0.0
 10
1.8416299212598426
 20
-3.703220472440945
 30
0.0
 10
1.8462401574803151
 20
-3.5573031496062995
 30
0.0
 10
1.8462401574803151
 20
-3.5573031496062995
 30
0.0
 10
1.8462401574803151
 20
-3.5573031496062995
 30
0.0
 10
1.8462401574803151
 20
-3.5573031496062995
 30
0.0
 10
1.8550039370078741
 20
-3.4156929133858269
 30
0.0
 10
1.8550039370078741
 20
-3.4156929133858269
 30
0.0
 10
1.8550039370078741
 20
-3.4156929133858269
 30
0.0
 10
1.8550039370078741
 20
-3.4156929133858269
 30
0.0
 10
1.8677283464566929
 20
-3.2783858267716535
 30
0.0
 10
1.8677283464566929
 20
-3.2783858267716535
 30
0.0
 10
1.8677283464566929
 20
-3.2783858267716535
 30
0.0
 10
1.8677283464566929
 20
-3.2783858267716535
 30
0.0
 10
1.884208661417323
 20
-3.1453464566929137
 30
0.0
 10
1.884208661417323
 20
-3.1453464566929137
 30
0.0
 10
1.884208661417323
 20
-3.1453464566929137
 30
0.0
 10
1.884208661417323
 20
-3.1453464566929137
 30
0.0
 10
1.9042519685039372
 20
-3.0165748031496062
 30
0.0
 10
1.9042519685039372
 20
-3.0165748031496062
 30
0.0
 10
1.9042519685039372
 20
-3.0165748031496062
 30
0.0
 10
1.9042519685039372
 20
-3.0165748031496062
 30
0.0
 10
1.9276574803149606
 20
-2.8920472440944884
 30
0.0
 10
1.9276574803149606
 20
-2.8920472440944884
 30
0.0
 10
1.9276574803149606
 20
-2.8920472440944884
 30
0.0
 10
1.9276574803149606
 20
-2.8920472440944884
 30
0.0
 10
1.9542362204724411
 20
-2.7717519685039371
 30
0.0
 10
1.9542362204724411
 20
-2.7717519685039371
 30
0.0
 10
1.9542362204724411
 20
-2.7717519685039371
 30
0.0
 10
1.9542362204724411
 20
-2.7717519685039371
 30
0.0
 10
1.9837716535433072
 20
-2.6556653543307087
 30
0.0
 10
1.9837716535433072
 20
-2.6556653543307087
 30
0.0
 10
1.9837716535433072
 20
-2.6556653543307087
 30
0.0
 10
1.9837716535433072
 20
-2.6556653543307087
 30
0.0
 10
2.0160826771653544
 20
-2.5437755905511814
 30
0.0
 10
2.0160826771653544
 20
-2.5437755905511814
 30
0.0
 10
2.0160826771653544
 20
-2.5437755905511814
 30
0.0
 10
2.0160826771653544
 20
-2.5437755905511814
 30
0.0
 10
2.050956692913386
 20
-2.4360629921259842
 30
0.0
 10
2.050956692913386
 20
-2.4360629921259842
 30
0.0
 10
2.050956692913386
 20
-2.4360629921259842
 30
0.0
 10
2.050956692913386
 20
-2.4360629921259842
 30
0.0
 10
2.088208661417323
 20
-2.332503937007874
 30
0.0
 10
2.088208661417323
 20
-2.332503937007874
 30
0.0
 10
2.088208661417323
 20
-2.332503937007874
 30
0.0
 10
2.088208661417323
 20
-2.332503937007874
 30
0.0
 10
2.1276259842519685
 20
-2.2331023622047246
 30
0.0
 10
2.1276259842519685
 20
-2.2331023622047246
 30
0.0
 10
2.1276259842519685
 20
-2.2331023622047246
 30
0.0
 10
2.1276259842519685
 20
-2.2331023622047246
 30
0.0
 10
2.169027559055118
 20
-2.1378188976377954
 30
0.0
 10
2.169027559055118
 20
-2.1378188976377954
 30
0.0
 10
2.169027559055118
 20
-2.1378188976377954
 30
0.0
 10
2.169027559055118
 20
-2.1378188976377954
 30
0.0
 10
2.2122007874015748
 20
-2.0466535433070865
 30
0.0
 10
2.2122007874015748
 20
-2.0466535433070865
 30
0.0
 10
2.2122007874015748
 20
-2.0466535433070865
 30
0.0
 10
2.2122007874015748
 20
-2.0466535433070865
 30
0.0
 10
2.256956692913386
 20
-1.9595748031496063
 30
0.0
 10
2.256956692913386
 20
-1.9595748031496063
 30
0.0
 10
2.256956692913386
 20
-1.9595748031496063
 30
0.0
 10
2.256956692913386
 20
-1.9595748031496063
 30
0.0
 10
2.3030826771653543
 20
-1.8765866141732284
 30
0.0
 10
2.3030826771653543
 20
-1.8765866141732284
 30
0.0
 10
2.3030826771653543
 20
-1.8765866141732284
 30
0.0
 10
2.3030826771653543
 20
-1.8765866141732284
 30
0.0
 10
2.3503976377952758
 20
-1.7976574803149608
 30
0.0
 10
2.3503976377952758
 20
-1.7976574803149608
 30
0.0
 10
2.3503976377952758
 20
-1.7976574803149608
 30
0.0
 10
2.3503976377952758
 20
-1.7976574803149608
 30
0.0
 10
2.398692913385827
 20
-1.7227716535433071
 30
0.0
 10
2.398692913385827
 20
-1.7227716535433071
 30
0.0
 10
2.398692913385827
 20
-1.7227716535433071
 30
0.0
 10
2.398692913385827
 20
-1.7227716535433071
 30
0.0
 10
2.4477795275590553
 20
-1.6519133858267716
 30
0.0
 10
2.4477795275590553
 20
-1.6519133858267716
 30
0.0
 10
2.4477795275590553
 20
-1.6519133858267716
 30
0.0
 10
2.4477795275590553
 20
-1.6519133858267716
 30
0.0
 10
2.4974448818897637
 20
-1.5850748031496062
 30
0.0
 10
2.4974448818897637
 20
-1.5850748031496062
 30
0.0
 10
2.4974448818897637
 20
-1.5850748031496062
 30
0.0
 10
2.4974448818897637
 20
-1.5850748031496062
 30
0.0
 10
2.5475039370078743
 20
-1.522228346456693
 30
0.0
 10
2.5475039370078743
 20
-1.522228346456693
 30
0.0
 10
2.5475039370078743
 20
-1.522228346456693
 30
0.0
 10
2.5475039370078743
 20
-1.522228346456693
 30
0.0
 10
2.5977519685039372
 20
-1.4633622047244095
 30
0.0
 10
2.5977519685039372
 20
-1.4633622047244095
 30
0.0
 10
2.5977519685039372
 20
-1.4633622047244095
 30
0.0
 10
2.5977519685039372
 20
-1.4633622047244095
 30
0.0
 10
2.6479960629921262
 20
-1.4084527559055118
 30
0.0
 10
2.6479960629921262
 20
-1.4084527559055118
 30
0.0
 10
2.6479960629921262
 20
-1.4084527559055118
 30
0.0
 10
2.6479960629921262
 20
-1.4084527559055118
 30
0.0
 10
2.698023622047244
 20
-1.3575000000000002
 30
0.0
 10
2.698023622047244
 20
-1.3575000000000002
 30
0.0
 10
2.698023622047244
 20
-1.3575000000000002
 30
0.0
 10
2.698023622047244
 20
-1.3575000000000002
 30
0.0
 10
2.7476535433070866
 20
-1.3104685039370079
 30
0.0
 10
2.7476535433070866
 20
-1.3104685039370079
 30
0.0
 10
2.7476535433070866
 20
-1.3104685039370079
 30
0.0
 10
2.7476535433070866
 20
-1.3104685039370079
 30
0.0
 10
2.796677165354331
 20
-1.2673543307086614
 30
0.0
 10
2.796677165354331
 20
-1.2673543307086614
 30
0.0
 10
2.796677165354331
 20
-1.2673543307086614
 30
0.0
 10
2.796677165354331
 20
-1.2673543307086614
 30
0.0
 10
2.8449055118110236
 20
-1.2281338582677166
 30
0.0
 10
2.8449055118110236
 20
-1.2281338582677166
 30
0.0
 10
2.8449055118110236
 20
-1.2281338582677166
 30
0.0
 10
2.8449055118110236
 20
-1.2281338582677166
 30
0.0
 10
2.8921259842519684
 20
-1.1927992125984253
 30
0.0
 10
2.8921259842519684
 20
-1.1927992125984253
 30
0.0
 10
2.8921259842519684
 20
-1.1927992125984253
 30
0.0
 10
2.8921259842519684
 20
-1.1927992125984253
 30
0.0
 10
2.9381535433070867
 20
-1.1613188976377953
 30
0.0
 10
2.9381535433070867
 20
-1.1613188976377953
 30
0.0
 10
2.9381535433070867
 20
-1.1613188976377953
 30
0.0
 10
2.9381535433070867
 20
-1.1613188976377953
 30
0.0
 10
2.9827834645669293
 20
-1.1336929133858269
 30
0.0
 10
2.9827834645669293
 20
-1.1336929133858269
 30
0.0
 10
2.9827834645669293
 20
-1.1336929133858269
 30
0.0
 10
2.9827834645669293
 20
-1.1336929133858269
 30
0.0
 10
3.0258267716535436
 20
-1.1098897637795275
 30
0.0
 10
3.0258267716535436
 20
-1.1098897637795275
 30
0.0
 10
3.0258267716535436
 20
-1.1098897637795275
 30
0.0
 10
3.0258267716535436
 20
-1.1098897637795275
 30
0.0
 10
2.3811968503937009
 20
-0.7222086614173229
 30
0.0
 10
2.3811968503937009
 20
-0.7222086614173229
 30
0.0
 10
2.3811968503937009
 20
-0.7222086614173229
 30
0.0
 10
2.3811968503937009
 20
-0.7222086614173229
 30
0.0
 10
2.3381535433070866
 20
-0.7460118110236221
 30
0.0
 10
2.3381535433070866
 20
-0.7460118110236221
 30
0.0
 10
2.3381535433070866
 20
-0.7460118110236221
 30
0.0
 10
2.3381535433070866
 20
-0.7460118110236221
 30
0.0
 10
2.2935236220472444
 20
-0.7736377952755906
 30
0.0
 10
2.2935236220472444
 20
-0.7736377952755906
 30
0.0
 10
2.2935236220472444
 20
-0.7736377952755906
 30
0.0
 10
2.2935236220472444
 20
-0.7736377952755906
 30
0.0
 10
2.2474960629921261
 20
-0.8051181102362205
 30
0.0
 10
2.2474960629921261
 20
-0.8051181102362205
 30
0.0
 10
2.2474960629921261
 20
-0.8051181102362205
 30
0.0
 10
2.2474960629921261
 20
-0.8051181102362205
 30
0.0
 10
2.2002755905511813
 20
-0.8404527559055118
 30
0.0
 10
2.2002755905511813
 20
-0.8404527559055118
 30
0.0
 10
2.2002755905511813
 20
-0.8404527559055118
 30
0.0
 10
2.2002755905511813
 20
-0.8404527559055118
 30
0.0
 10
2.1520472440944882
 20
-0.8796732283464568
 30
0.0
 10
2.1520472440944882
 20
-0.8796732283464568
 30
0.0
 10
2.1520472440944882
 20
-0.8796732283464568
 30
0.0
 10
2.1520472440944882
 20
-0.8796732283464568
 30
0.0
 10
2.1030236220472442
 20
-0.9227874015748032
 30
0.0
 10
2.1030236220472442
 20
-0.9227874015748032
 30
0.0
 10
2.1030236220472442
 20
-0.9227874015748032
 30
0.0
 10
2.1030236220472442
 20
-0.9227874015748032
 30
0.0
 10
2.0533937007874017
 20
-0.9698188976377953
 30
0.0
 10
2.0533937007874017
 20
-0.9698188976377953
 30
0.0
 10
2.0533937007874017
 20
-0.9698188976377953
 30
0.0
 10
2.0533937007874017
 20
-0.9698188976377953
 30
0.0
 10
2.0033661417322834
 20
-1.0207716535433071
 30
0.0
 10
2.0033661417322834
 20
-1.0207716535433071
 30
0.0
 10
2.0033661417322834
 20
-1.0207716535433071
 30
0.0
 10
2.0033661417322834
 20
-1.0207716535433071
 30
0.0
 10
1.9531220472440947
 20
-1.0756811023622048
 30
0.0
 10
1.9531220472440947
 20
-1.0756811023622048
 30
0.0
 10
1.9531220472440947
 20
-1.0756811023622048
 30
0.0
 10
1.9531220472440947
 20
-1.0756811023622048
 30
0.0
 10
1.9028740157480315
 20
-1.1345472440944881
 30
0.0
 10
1.9028740157480315
 20
-1.1345472440944881
 30
0.0
 10
1.9028740157480315
 20
-1.1345472440944881
 30
0.0
 10
1.9028740157480315
 20
-1.1345472440944881
 30
0.0
 10
1.8528149606299213
 20
-1.1973937007874016
 30
0.0
 10
1.8528149606299213
 20
-1.1973937007874016
 30
0.0
 10
1.8528149606299213
 20
-1.1973937007874016
 30
0.0
 10
1.8528149606299213
 20
-1.1973937007874016
 30
0.0
 10
1.8031496062992127
 20
-1.264232283464567
 30
0.0
 10
1.8031496062992127
 20
-1.264232283464567
 30
0.0
 10
1.8031496062992127
 20
-1.264232283464567
 30
0.0
 10
1.8031496062992127
 20
-1.264232283464567
 30
0.0
 10
1.7540629921259843
 20
-1.3350905511811024
 30
0.0
 10
1.7540629921259843
 20
-1.3350905511811024
 30
0.0
 10
1.7540629921259843
 20
-1.3350905511811024
 30
0.0
 10
1.7540629921259843
 20
-1.3350905511811024
 30
0.0
 10
1.7057677165354332
 20
-1.4099763779527559
 30
0.0
 10
1.7057677165354332
 20
-1.4099763779527559
 30
0.0
 10
1.7057677165354332
 20
-1.4099763779527559
 30
0.0
 10
1.7057677165354332
 20
-1.4099763779527559
 30
0.0
 10
1.6584527559055118
 20
-1.4889055118110237
 30
0.0
 10
1.6584527559055118
 20
-1.4889055118110237
 30
0.0
 10
1.6584527559055118
 20
-1.4889055118110237
 30
0.0
 10
1.6584527559055118
 20
-1.4889055118110237
 30
0.0
 10
1.6123267716535434
 20
-1.5718937007874016
 30
0.0
 10
1.6123267716535434
 20
-1.5718937007874016
 30
0.0
 10
1.6123267716535434
 20
-1.5718937007874016
 30
0.0
 10
1.6123267716535434
 20
-1.5718937007874016
 30
0.0
 10
1.5675708661417322
 20
-1.6589724409448821
 30
0.0
 10
1.5675708661417322
 20
-1.6589724409448821
 30
0.0
 10
1.5675708661417322
 20
-1.6589724409448821
 30
0.0
 10
1.5675708661417322
 20
-1.6589724409448821
 30
0.0
 10
1.5243976377952757
 20
-1.7501377952755905
 30
0.0
 10
1.5243976377952757
 20
-1.7501377952755905
 30
0.0
 10
1.5243976377952757
 20
-1.7501377952755905
 30
0.0
 10
1.5243976377952757
 20
-1.7501377952755905
 30
0.0
 10
1.4829960629921259
 20
-1.8454212598425197
 30
0.0
 10
1.4829960629921259
 20
-1.8454212598425197
 30
0.0
 10
1.4829960629921259
 20
-1.8454212598425197
 30
0.0
 10
1.4829960629921259
 20
-1.8454212598425197
 30
0.0
 10
1.4435787401574804
 20
-1.9448228346456693
 30
0.0
 10
1.4435787401574804
 20
-1.9448228346456693
 30
0.0
 10
1.4435787401574804
 20
-1.9448228346456693
 30
0.0
 10
1.4435787401574804
 20
-1.9448228346456693
 30
0.0
 10
1.4063267716535433
 20
-2.0483818897637796
 30
0.0
 10
1.4063267716535433
 20
-2.0483818897637796
 30
0.0
 10
1.4063267716535433
 20
-2.0483818897637796
 30
0.0
 10
1.4063267716535433
 20
-2.0483818897637796
 30
0.0
 10
1.3714527559055119
 20
-2.1560944881889763
 30
0.0
 10
1.3714527559055119
 20
-2.1560944881889763
 30
0.0
 10
1.3714527559055119
 20
-2.1560944881889763
 30
0.0
 10
1.3714527559055119
 20
-2.1560944881889763
 30
0.0
 10
1.3391417322834647
 20
-2.2679842519685041
 30
0.0
 10
1.3391417322834647
 20
-2.2679842519685041
 30
0.0
 10
1.3391417322834647
 20
-2.2679842519685041
 30
0.0
 10
1.3391417322834647
 20
-2.2679842519685041
 30
0.0
 10
1.3096062992125985
 20
-2.3840708661417325
 30
0.0
 10
1.3096062992125985
 20
-2.3840708661417325
 30
0.0
 10
1.3096062992125985
 20
-2.3840708661417325
 30
0.0
 10
1.3096062992125985
 20
-2.3840708661417325
 30
0.0
 10
1.2830275590551181
 20
-2.5043661417322838
 30
0.0
 10
1.2830275590551181
 20
-2.5043661417322838
 30
0.0
 10
1.2830275590551181
 20
-2.5043661417322838
 30
0.0
 10
1.2830275590551181
 20
-2.5043661417322838
 30
0.0
 10
1.2596220472440944
 20
-2.6288937007874016
 30
0.0
 10
1.2596220472440944
 20
-2.6288937007874016
 30
0.0
 10
1.2596220472440944
 20
-2.6288937007874016
 30
0.0
 10
1.2596220472440944
 20
-2.6288937007874016
 30
0.0
 10
1.2395787401574803
 20
-2.7576653543307086
 30
0.0
 10
1.2395787401574803
 20
-2.7576653543307086
 30
0.0
 10
1.2395787401574803
 20
-2.7576653543307086
 30
0.0
 10
1.2395787401574803
 20
-2.7576653543307086
 30
0.0
 10
1.2230984251968504
 20
-2.8907047244094488
 30
0.0
 10
1.2230984251968504
 20
-2.8907047244094488
 30
0.0
 10
1.2230984251968504
 20
-2.8907047244094488
 30
0.0
 10
1.2230984251968504
 20
-2.8907047244094488
 30
0.0
 10
1.2103740157480316
 20
-3.0280118110236223
 30
0.0
 10
1.2103740157480316
 20
-3.0280118110236223
 30
0.0
 10
1.2103740157480316
 20
-3.0280118110236223
 30
0.0
 10
1.2103740157480316
 20
-3.0280118110236223
 30
0.0
 10
1.2016102362204726
 20
-3.1696220472440948
 30
0.0
 10
1.2016102362204726
 20
-3.1696220472440948
 30
0.0
 10
1.2016102362204726
 20
-3.1696220472440948
 30
0.0
 10
1.2016102362204726
 20
-3.1696220472440948
 30
0.0
 10
1.1970000000000001
 20
-3.3155393700787403
 30
0.0
 10
1.1970000000000001
 20
-3.3155393700787403
 30
0.0
 10
1.1970000000000001
 20
-3.3155393700787403
 30
0.0
 10
1.1970000000000001
 20
-3.3155393700787403
 30
0.0
 10
1.1967519685039369
 20
-3.4657913385826773
 30
0.0
 10
1.1967519685039369
 20
-3.4657913385826773
 30
0.0
  0
SPLINE
  5
6C
100
AcDbEntity
  8
Layer 1
 62
     9
100
AcDbSpline
210
0.0
220
0.0
230
1.0
 70
     1
 71
     3
 72
    20
 73
    16
 74
     0
 42
0.0000000001
 43
0.0000000001
 40
0.0
 40
0.0
 40
0.0
 40
0.0
 40
0.25
 40
0.25
 40
0.25
 40
0.25
 40
0.5
 40
0.5
 40
0.5
 40
0.5
 40
0.75
 40
0.75
 40
0.75
 40
0.75
 40
1.0
 40
1.0
 40
1.0
 40
1.0
 10
2.3811968503937009
 20
-0.7222086614173229
 30
0.0
 10
2.3811968503937009
 20
-0.7222086614173229
 30
0.0
 10
3.0258267716535436
 20
-1.1098897637795275
 30
0.0
 10
3.0258267716535436
 20
-1.1098897637795275
 30
0.0
 10
3.0258267716535436
 20
-1.1098897637795275
 30
0.0
 10
3.0258267716535436
 20
-1.1098897637795275
 30
0.0
 10
3.0258267716535436
 20
0.1294645669291339
 30
0.0
 10
3.0258267716535436
 20
0.1294645669291339
 30
0.0
 10
3.0258267716535436
 20
0.1294645669291339
 30
0.0
 10
3.0258267716535436
 20
0.1294645669291339
 30
0.0
 10
2.3811968503937009
 20
0.5171456692913387
 30
0.0
 10
2.3811968503937009
 20
0.5171456692913387
 30
0.0
 10
2.3811968503937009
 20
0.5171456692913387
 30
0.0
 10
2.3811968503937009
 20
0.5171456692913387
 30
0.0
 10
2.3811968503937009
 20
-0.7222086614173229
 30
0.0
 10
2.3811968503937009
 20
-0.7222086614173229
 30
0.0
  0
SPLINE
  5
6D
100
AcDbEntity
  8
Layer 1
370
     5
100
AcDbSpline
210
0.0
220
0.0
230
1.0
 70
     1
 71
     3
 72
    20
 73
    16
 74
     0
 42
0.0000000001
 43
0.0000000001
 40
0.0
 40
0.0
 40
0.0
 40
0.0
 40
0.25
 40
0.25
 40
0.25
 40
0.25
 40
0.5
 40
0.5
 40
0.5
 40
0.5
 40
0.75
 40
0.75
 40
0.75
 40
0.75
 40
1.0
 40
1.0
 40
1.0
 40
1.0
 10
2.3811968503937009
 20
-0.7222086614173229
 30
0.0
 10
2.3811968503937009
 20
-0.7222086614173229
 30
0.0
 10
3.0258267716535436
 20
-1.1098897637795275
 30
0.0
 10
3.0258267716535436
 20
-1.1098897637795275
 30
0.0
 10
3.0258267716535436
 20
-1.1098897637795275
 30
0.0
 10
3.0258267716535436
 20
-1.1098897637795275
 30
0.0
 10
3.0258267716535436
 20
0.1294645669291339
 30
0.0
 10
3.0258267716535436
 20
0.1294645669291339
 30
0.0
 10
3.0258267716535436
 20
0.1294645669291339
 30
0.0
 10
3.0258267716535436
 20
0.1294645669291339
 30
0.0
 10
2.3811968503937009
 20
0.5171456692913387
 30
0.0
 10
2.3811968503937009
 20
0.5171456692913387
 30
0.0
 10
2.3811968503937009
 20
0.5171456692913387
 30
0.0
 10
2.3811968503937009
 20
0.5171456692913387
 30
0.0
 10
2.3811968503937009
 20
-0.7222086614173229
 30
0.0
 10
2.3811968503937009
 20
-0.7222086614173229
 30
0.0
  0
SPLINE
  5
6E
100
AcDbEntity
  8
Layer 1
 62
     9
100
AcDbSpline
210
0.0
220
0.0
230
1.0
 70
     1
 71
     3
 72
    20
 73
    16
 74
     0
 42
0.0000000001
 43
0.0000000001
 40
0.0
 40
0.0
 40
0.0
 40
0.0
 40
0.25
 40
0.25
 40
0.25
 40
0.25
 40
0.5
 40
0.5
 40
0.5
 40
0.5
 40
0.75
 40
0.75
 40
0.75
 40
0.75
 40
1.0
 40
1.0
 40
1.0
 40
1.0
 10
0.0159251968503937
 20
-3.4657913385826773
 30
0.0
 10
0.0159251968503937
 20
-3.4657913385826773
 30
0.0
 10
0.6605551181102363
 20
-3.8534724409448819
 30
0.0
 10
0.6605551181102363
 20
-3.8534724409448819
 30
0.0
 10
0.6605551181102363
 20
-3.8534724409448819
 30
0.0
 10
0.6605551181102363
 20
-3.8534724409448819
 30
0.0
 10
1.8413818897637797
 20
-3.8534724409448819
 30
0.0
 10
1.8413818897637797
 20
-3.8534724409448819
 30
0.0
 10
1.8413818897637797
 20
-3.8534724409448819
 30
0.0
 10
1.8413818897637797
 20
-3.8534724409448819
 30
0.0
 10
1.1967519685039369
 20
-3.4657913385826773
 30
0.0
 10
1.1967519685039369
 20
-3.4657913385826773
 30
0.0
 10
1.1967519685039369
 20
-3.4657913385826773
 30
0.0
 10
1.1967519685039369
 20
-3.4657913385826773
 30
0.0
 10
0.0159251968503937
 20
-3.4657913385826773
 30
0.0
 10
0.0159251968503937
 20
-3.4657913385826773
 30
0.0
  0
SPLINE
  5
6F
100
AcDbEntity
  8
Layer 1
370
     5
100
AcDbSpline
210
0.0
220
0.0
230
1.0
 70
     1
 71
     3
 72
    20
 73
    16
 74
     0
 42
0.0000000001
 43
0.0000000001
 40
0.0
 40
0.0
 40
0.0
 40
0.0
 40
0.25
 40
0.25
 40
0.25
 40
0.25
 40
0.5
 40
0.5
 40
0.5
 40
0.5
 40
0.75
 40
0.75
 40
0.75
 40
0.75
 40
1.0
 40
1.0
 40
1.0
 40
1.0
 10
0.0159251968503937
 20
-3.4657913385826773
 30
0.0
 10
0.0159251968503937
 20
-3.4657913385826773
 30
0.0
 10
0.6605551181102363
 20
-3.8534724409448819
 30
0.0
 10
0.6605551181102363
 20
-3.8534724409448819
 30
0.0
 10
0.6605551181102363
 20
-3.8534724409448819
 30
0.0
 10
0.6605551181102363
 20
-3.8534724409448819
 30
0.0
 10
1.8413818897637797
 20
-3.8534724409448819
 30
0.0
 10
1.8413818897637797
 20
-3.8534724409448819
 30
0.0
 10
1.8413818897637797
 20
-3.8534724409448819
 30
0.0
 10
1.8413818897637797
 20
-3.8534724409448819
 30
0.0
 10
1.1967519685039369
 20
-3.4657913385826773
 30
0.0
 10
1.1967519685039369
 20
-3.4657913385826773
 30
0.0
 10
1.1967519685039369
 20
-3.4657913385826773
 30
0.0
 10
1.1967519685039369
 20
-3.4657913385826773
 30
0.0
 10
0.0159251968503937
 20
-3.4657913385826773
 30
0.0
 10
0.0159251968503937
 20
-3.4657913385826773
 30
0.0
  0
SPLINE
  5
70
100
AcDbEntity
  8
Layer 1
370
     5
 62
     7
100
AcDbSpline
210
0.0
220
0.0
230
1.0
 70
     1
 71
     3
 72
    24
 73
    20
 74
     0
 42
0.0000000001
 43
0.0000000001
 40
0.0
 40
0.0
 40
0.0
 40
0.0
 40
0.2
 40
0.2
 40
0.2
 40
0.2
 40
0.4
 40
0.4
 40
0.4
 40
0.4
 40
0.6000000000000001
 40
0.6000000000000001
 40
0.6000000000000001
 40
0.6000000000000001
 40
0.8
 40
0.8
 40
0.8
 40
0.8
 40
1.0
 40
1.0
 40
1.0
 40
1.0
 10
1.1967519685039369
 20
-3.4657913385826773
 30
0.0
 10
1.1755275590551182
 20
-1.8400275590551183
 30
0.0
 10
1.9313622047244094
 20
-0.9556771653543308
 30
0.0
 10
2.3811968503937009
 20
-0.7222086614173229
 30
0.0
 10
2.3811968503937009
 20
-0.7222086614173229
 30
0.0
 10
2.3811968503937009
 20
-0.7222086614173229
 30
0.0
 10
2.3811968503937009
 20
0.5171456692913387
 30
0.0
 10
2.3811968503937009
 20
0.5171456692913387
 30
0.0
 10
2.3811968503937009
 20
0.5171456692913387
 30
0.0
 10
2.3811968503937009
 20
0.5171456692913387
 30
0.0
 10
0.0159251968503937
 20
0.5171456692913387
 30
0.0
 10
0.0159251968503937
 20
0.5171456692913387
 30
0.0
 10
0.0159251968503937
 20
0.5171456692913387
 30
0.0
 10
0.0159251968503937
 20
0.5171456692913387
 30
0.0
 10
0.0159251968503937
 20
-3.4657913385826773
 30
0.0
 10
0.0159251968503937
 20
-3.4657913385826773
 30
0.0
 10
0.0159251968503937
 20
-3.4657913385826773
 30
0.0
 10
0.0159251968503937
 20
-3.4657913385826773
 30
0.0
 10
1.1967519685039369
 20
-3.4657913385826773
 30
0.0
 10
1.1967519685039369
 20
-3.4657913385826773
 30
0.0
  0
TEXT
  5
72
100
AcDbEntity
  8
Layer 1
100
AcDbText
 10
2.070772
 20
-3.639764
 30
0.0
 40
0.119999
  1
BA  1502
 51
-0.000002
  7
Bookman Old Style
100
AcDbText
  0
TEXT
  5
73
100
AcDbEntity
  8
Layer 1
100
AcDbText
 10
1.992453
 20
-3.827264
 30
0.0
 40
0.119999
  1
2-3/8\u+201d x 4\u+201d
 51
-0.000002
  7
Bookman Old Style
100
AcDbText
  0
TEXT
  5
74
100
AcDbEntity
  8
Layer 1
100
AcDbText
 10
-1.212748
 20
-0.703492
 30
0.0
 40
0.119999
  1
BA  1502
 51
-0.000002
  7
Bookman Old Style
100
AcDbText
  0
TEXT
  5
75
100
AcDbEntity
  8
Layer 1
100
AcDbText
 10
-1.291067
 20
-0.890992
 30
0.0
 40
0.119999
  1
2-3/8\u+201d x 4\u+201d
 51
-0.000002
  7
Bookman Old Style
100
AcDbText
  0
ENDSEC
  0
SECTION
  2
OBJECTS
  0
DICTIONARY
  5
19
100
AcDbDictionary
280
     0
281
     1
  3
ACAD_GROUP
350
1A
  3
ACAD_MLINESTYLE
350
1B
  3
ACAD_LAYOUT
350
1E
  3
ACAD_PLOTSETTINGS
350
22
  3
ACAD_PLOTSTYLENAME
350
1F
  3
ACAD_WIPEOUT_VARS
350
23
  0
DICTIONARY
  5
1A
102
{ACAD_REACTORS
330
19
102
}
100
AcDbDictionary
280
     0
281
     1
  0
DICTIONARY
  5
1B
102
{ACAD_REACTORS
330
19
102
}
100
AcDbDictionary
280
     0
281
     1
  3
Standard
350
1C
  0
MLINESTYLE
  5
1C
102
{ACAD_REACTORS
330
1B
102
}
100
AcDbMlineStyle
  2
Standard
 70
     0
  3

 62
     0
 51
90.0
 52
90.0
 71
     2
 49
0.5
 62
   256
  6
BYLAYER
 49
-0.5
 62
   256
  6
BYLAYER
  0
ACDBDICTIONARYWDFLT
  5
1F
102
{ACAD_REACTORS
330
19
102
}
100
AcDbDictionary
281
     1
  3
Normal
350
1D
100
AcDbDictionaryWithDefault
340
1D
  0
ACDBPLACEHOLDER
  5
1D
102
{ACAD_REACTORS
330
1F
102
}
  0
LAYOUT
  5
20
102
{ACAD_REACTORS
330
1E
102
}
100
AcDbPlotSettings
  1

  2

  4

  6

 40
0.0
 41
0.0
 42
0.0
 43
0.0
 44
0.0
 45
0.0
 46
0.0
 47
0.0
 48
0.0
 49
0.0
140
0.0
141
0.0
142
1.0
143
1.0
 70
  1024
 72
     0
 73
     0
 74
     0
  7

 75
     0
147
1.0
148
0.0
149
0.0
100
AcDbLayout
  1
Model
 70
     0
 71
     0
 10
0.0
 20
0.0
 11
0.0
 21
0.0
 12
0.0
 22
0.0
 32
0.0
 14
0.0
 24
0.0
 34
0.0
 15
0.0
 25
0.0
 35
0.0
146
0.0
 13
0.0
 23
0.0
 33
0.0
 16
0.0
 26
0.0
 36
0.0
 17
0.0
 27
0.0
 37
0.0
 76
     0
330
A
331
0
345
0
346
0
  0
LAYOUT
  5
21
102
{ACAD_REACTORS
330
1E
102
}
100
AcDbPlotSettings
  1

  2

  4

  6

 40
0.0
 41
0.0
 42
0.0
 43
0.0
 44
0.0
 45
0.0
 46
0.0
 47
0.0
 48
0.0
 49
0.0
140
0.0
141
0.0
142
1.0
143
1.0
 70
     0
 72
     0
 73
     0
 74
     0
  7

 75
     0
147
1.0
148
0.0
149
0.0
100
AcDbLayout
  1
Layout1
 70
     0
 71
     0
 10
0.0
 20
0.0
 11
0.0
 21
0.0
 12
0.0
 22
0.0
 32
0.0
 14
0.0
 24
0.0
 34
0.0
 15
0.0
 25
0.0
 35
0.0
146
0.0
 13
0.0
 23
0.0
 33
0.0
 16
0.0
 26
0.0
 36
0.0
 17
0.0
 27
0.0
 37
0.0
 76
     0
330
B
331
0
345
0
346
0
  0
DICTIONARY
  5
1E
102
{ACAD_REACTORS
330
19
102
}
100
AcDbDictionary
280
     0
281
     1
  3
Layout1
350
21
  3
Model
350
20
  0
DICTIONARY
  5
22
102
{ACAD_REACTORS
330
19
102
}
100
AcDbDictionary
280
     0
281
     1
  0
WIPEOUTVARIABLES
  5
23
100
AcDbWipeoutVariables
 70
     1
  0
ENDSEC
  0
EOF
