  0
SECTION
  2
HEADER
  9
$ACADVER
  1
AC1015
  9
$ACADMAINTVER
 70
     6
  9
$DWGCODEPAGE
  3
DOS850
  9
$INSBASE
 10
0.0
 20
0.0
 30
0.0
  9
$EXTMIN
 10
-0.780811
 20
-1.261346
 30
1.000000E+20
  9
$EXTMAX
 10
0.954441
 20
3.045606
 30
-1.000000E+20
  9
$LIMMIN
 10
0.0
 20
0.0
  9
$LIMMAX
 10
0.0
 20
0.0
  9
$ORTHOMODE
 70
     0
  9
$REGENMODE
 70
     1
  9
$FILLMODE
 70
     1
  9
$QTEXTMODE
 70
     0
  9
$MIRRTEXT
 70
     1
  9
$LTSCALE
 40
1.0
  9
$ATTMODE
 70
     1
  9
$TEXTSIZE
 40
0.2
  9
$TRACEWID
 40
0.05
  9
$TEXTSTYLE
  7
Standard
  9
$CLAYER
  8
0
  9
$CELTYPE
  6
Continuous
  9
$CECOLOR
 62
   256
  9
$CELTSCALE
 40
1.0
  9
$DISPSILH
 70
     0
  9
$DIMSCALE
 40
1.0
  9
$DIMASZ
 40
0.18
  9
$DIMEXO
 40
0.0625
  9
$DIMDLI
 40
0.38
  9
$DIMRND
 40
0.0
  9
$DIMDLE
 40
0.0
  9
$DIMEXE
 40
0.18
  9
$DIMTP
 40
0.0
  9
$DIMTM
 40
0.0
  9
$DIMTXT
 40
0.18
  9
$DIMCEN
 40
0.09
  9
$DIMTSZ
 40
0.0
  9
$DIMTOL
 70
     0
  9
$DIMLIM
 70
     0
  9
$DIMTIH
 70
     1
  9
$DIMTOH
 70
     1
  9
$DIMSE1
 70
     0
  9
$DIMSE2
 70
     0
  9
$DIMTAD
 70
     0
  9
$DIMZIN
 70
     0
  9
$DIMBLK
  1

  9
$DIMASO
 70
     1
  9
$DIMSHO
 70
     1
  9
$DIMPOST
  1

  9
$DIMAPOST
  1

  9
$DIMALT
 70
     0
  9
$DIMALTD
 70
     2
  9
$DIMALTF
 40
25.4
  9
$DIMLFAC
 40
1.0
  9
$DIMTOFL
 70
     0
  9
$DIMTVP
 40
0.0
  9
$DIMTIX
 70
     0
  9
$DIMSOXD
 70
     0
  9
$DIMSAH
 70
     0
  9
$DIMBLK1
  1

  9
$DIMBLK2
  1

  9
$DIMSTYLE
  2
Standard
  9
$DIMCLRD
 70
     0
  9
$DIMCLRE
 70
     0
  9
$DIMCLRT
 70
     0
  9
$DIMTFAC
 40
1.0
  9
$DIMGAP
 40
0.09
  9
$DIMJUST
 70
     0
  9
$DIMSD1
 70
     0
  9
$DIMSD2
 70
     0
  9
$DIMTOLJ
 70
     1
  9
$DIMTZIN
 70
     0
  9
$DIMALTZ
 70
     0
  9
$DIMALTTZ
 70
     0
  9
$DIMUPT
 70
     0
  9
$DIMDEC
 70
     4
  9
$DIMTDEC
 70
     4
  9
$DIMALTU
 70
     2
  9
$DIMALTTD
 70
     2
  9
$DIMTXSTY
  7
Standard
  9
$DIMAUNIT
 70
     0
  9
$DIMADEC
 70
     0
  9
$DIMALTRND
 40
0.0
  9
$DIMAZIN
 70
     0
  9
$DIMDSEP
 70
     0
  9
$DIMATFIT
 70
     3
  9
$DIMFRAC
 70
     0
  9
$DIMLDRBLK
  1

  9
$DIMLUNIT
 70
     2
  9
$DIMLWD
 70
     0
  9
$DIMLWE
 70
     0
  9
$DIMTMOVE
 70
     0
  9
$LUNITS
 70
     2
  9
$LUPREC
 70
     4
  9
$SKETCHINC
 40
0.1
  9
$FILLETRAD
 40
0.0
  9
$AUNITS
 70
     0
  9
$AUPREC
 70
     0
  9
$MENU
  1
acad
  9
$ELEVATION
 40
0.0
  9
$PELEVATION
 40
0.0
  9
$THICKNESS
 40
0.0
  9
$LIMCHECK
 70
     0
  9
$CHAMFERA
 40
0.0
  9
$CHAMFERB
 40
0.0
  9
$CHAMFERC
 40
0.0
  9
$CHAMFERD
 40
0.0
  9
$SKPOLY
 70
     0
  9
$TDCREATE
 40
0.000000000
  9
$TDUCREATE
 40
0.000000000
  9
$TDUPDATE
 40
0.000000000
  9
$TDUUPDATE
 40
0.000000000
  9
$TDINDWG
 40
0.0000000000
  9
$TDUSRTIMER
 40
0.0000000000
  9
$USRTIMER
 70
     1
  9
$ANGBASE
 50
0.0
  9
$ANGDIR
 70
     0
  9
$PDMODE
 70
     0
  9
$PDSIZE
 40
0.0
  9
$PLINEWID
 40
0.0
  9
$SPLFRAME
 70
     0
  9
$SPLINETYPE
 70
     6
  9
$SPLINESEGS
 70
     8
  9
$HANDSEED
  5
95
  9
$SURFTAB1
 70
     6
  9
$SURFTAB2
 70
     6
  9
$SURFTYPE
 70
     6
  9
$SURFU
 70
     6
  9
$SURFV
 70
     6
  9
$UCSBASE
  2

  9
$UCSNAME
  2

  9
$UCSORG
 10
0.0
 20
0.0
 30
0.0
  9
$UCSXDIR
 10
1.0
 20
0.0
 30
0.0
  9
$UCSYDIR
 10
0.0
 20
1.0
 30
0.0
  9
$UCSORTHOREF
  2

  9
$UCSORTHOVIEW
 70
     0
  9
$UCSORGTOP
 10
0.0
 20
0.0
 30
0.0
  9
$UCSORGBOTTOM
 10
0.0
 20
0.0
 30
0.0
  9
$UCSORGLEFT
 10
0.0
 20
0.0
 30
0.0
  9
$UCSORGRIGHT
 10
0.0
 20
0.0
 30
0.0
  9
$UCSORGFRONT
 10
0.0
 20
0.0
 30
0.0
  9
$UCSORGBACK
 10
0.0
 20
0.0
 30
0.0
  9
$PUCSBASE
  2

  9
$PUCSNAME
  2

  9
$PUCSORG
 10
0.0
 20
0.0
 30
0.0
  9
$PUCSXDIR
 10
1.0
 20
0.0
 30
0.0
  9
$PUCSYDIR
 10
0.0
 20
1.0
 30
0.0
  9
$PUCSORTHOREF
  2

  9
$PUCSORTHOVIEW
 70
     0
  9
$PUCSORGTOP
 10
0.0
 20
0.0
 30
0.0
  9
$PUCSORGBOTTOM
 10
0.0
 20
0.0
 30
0.0
  9
$PUCSORGLEFT
 10
0.0
 20
0.0
 30
0.0
  9
$PUCSORGRIGHT
 10
0.0
 20
0.0
 30
0.0
  9
$PUCSORGFRONT
 10
0.0
 20
0.0
 30
0.0
  9
$PUCSORGBACK
 10
0.0
 20
0.0
 30
0.0
  9
$USERI1
 70
     0
  9
$USERI2
 70
     0
  9
$USERI3
 70
     0
  9
$USERI4
 70
     0
  9
$USERI5
 70
     0
  9
$USERR1
 40
0.0
  9
$USERR2
 40
0.0
  9
$USERR3
 40
0.0
  9
$USERR4
 40
0.0
  9
$USERR5
 40
0.0
  9
$WORLDVIEW
 70
     1
  9
$SHADEDGE
 70
     3
  9
$SHADEDIF
 70
    70
  9
$TILEMODE
 70
     1
  9
$MAXACTVP
 70
    16
  9
$PINSBASE
 10
0.0
 20
0.0
 30
0.0
  9
$PLIMCHECK
 70
     0
  9
$PEXTMIN
 10
1.000000E+20
 20
1.000000E+20
 30
1.000000E+20
  9
$PEXTMAX
 10
-1.000000E+20
 20
-1.000000E+20
 30
-1.000000E+20
  9
$PLIMMIN
 10
0.0
 20
0.0
  9
$PLIMMAX
 10
12.0
 20
9.0
  9
$UNITMODE
 70
     0
  9
$VISRETAIN
 70
     0
  9
$PLINEGEN
 70
     1
  9
$PSLTSCALE
 70
     0
  9
$TREEDEPTH
 70
  3020
  9
$CMLSTYLE
  2
Standard
  9
$CMLJUST
 70
     0
  9
$CMLSCALE
 40
1.0
  9
$PROXYGRAPHICS
 70
     0
  9
$MEASUREMENT
 70
     0
  9
$CELWEIGHT
370
     0
  9
$ENDCAPS
280
     0
  9
$JOINSTYLE
280
     0
  9
$LWDISPLAY
290
     0
  9
$INSUNITS
 70
     1
  9
$HYPERLINKBASE
  1

  9
$XEDIT
290
     1
  9
$CEPSNTYPE
380
     0
  9
$PSTYLEMODE
290
     1
  9
$FINGERPRINTGUID
  2

  9
$VERSIONGUID
  2

  9
$EXTNAMES
290
     1
  9
$PSVPSCALE
 40
0.0
  0
ENDSEC
  0
SECTION
  2
CLASSES
  0
CLASS
  1
LWPOLYLINE
  2
AcDbPolyline
  3
AutoCAD 2000
 90
    32768
280
     0
281
     1
  0
CLASS
  1
IMAGE
  2
AcDbRasterImage
  3
ISM
 90
    32895
280
     0
281
     1
  0
CLASS
  1
OLE2FRAME
  2
AcDbOle2Frame
  3
AutoCAD 2000
 90
    32768
280
     0
281
     1
  0
CLASS
  1
HATCH
  2
AcDbHatch
  3
AutoCAD 2000
 90
    32768
280
     0
281
     1
  0
CLASS
  1
DICTIONARYVAR
  2
AcDbDictionaryVar
  3
AutoCAD 2000
 90
    32768
280
     0
281
     0
  0
CLASS
  1
RASTERVARIABLES
  2
AcDbRasterVariables
  3
ISM
 90
    32768
280
     0
281
     0
  0
CLASS
  1
IMAGEDEF
  2
AcDbRasterImageDef
  3
ISM
 90
    32768
280
     0
281
     0
  0
CLASS
  1
IMAGEDEF_REACTOR
  2
AcDbRasterImageDefReactor
  3
ISM
 90
    32769
280
     0
281
     0
  0
CLASS
  1
IDBUFFER
  2
AcDbIdBuffer
  3
AutoCAD 2000
 90
    32768
280
     0
281
     0
  0
CLASS
  1
SPATIAL_FILTER
  2
AcDbSpatialFilter
  3
AutoCAD 2000
 90
    32768
280
     0
281
     0
  0
CLASS
  1
XRECORD
  2
AcDbXrecord
  3
AutoCAD 2000
 90
    32768
280
     0
281
     0
  0
CLASS
  1
SORTENTSTABLE
  2
AcDbSortentsTable
  3
AutoCAD 2000
 90
    32768
280
     0
281
     0
  0
CLASS
  1
LAYER_INDEX
  2
AcDbLayerIndex
  3
AutoCAD 2000
 90
    32768
280
     0
281
     0
  0
CLASS
  1
SPATIAL_INDEX
  2
AcDbSpatialIndex
  3
AutoCAD 2000
 90
    32768
280
     0
281
     0
  0
CLASS
  1
OBJECT_PTR
  2
CAseDLPNTableRecord
  3
"ASE-LPNTableRecord"
 90
    32769
280
     0
281
     0
  0
CLASS
  1
LAYOUT
  2
AcDbLayout
  3
AutoCAD 2000
 90
        0
280
     0
281
     0
  0
CLASS
  1
PLOTSETTINGS
  2
AcDbPlotSettings
  3
AutoCAD 2000
 90
    32768
280
     0
281
     0
  0
CLASS
  1
ACDBDICTIONARYWDFLT
  2
AcDbDictionaryWithDefault
  3
AutoCAD 2000
 90
        0
280
     0
281
     0
  0
CLASS
  1
ACDBPLACEHOLDER
  2
AcDbPlaceHolder
  3
AutoCAD 2000
 90
        0
280
     0
281
     0
  0
CLASS
  1
VBA_PROJECT
  2
AcDbVbaProject
  3
acadvba
 90
    32768
280
     0
281
     0
  0
CLASS
  1
WIPEOUT
  2
AcDbWipeout
  3
WipeOut|AutoCAD Express Tool|expresstools@autodesk.com
 90
    32895
280
     0
281
     1
  0
CLASS
  1
WIPEOUTVARIABLES
  2
AcDbWipeoutVariables
  3
WipeOut|AutoCAD Express Tool|expresstools@autodesk.com
 90
        0
280
     0
281
     0
  0
CLASS
  1
RTEXT
  2
RText
  3
RText|AutoCAD Express Tool|expresstools@autodesk.com
 90
    32768
280
     0
281
     1
  0
CLASS
  1
ARCALIGNEDTEXT
  2
AcDbArcAlignedText
  3
ATEXT|AutoCAD Express Tool|expresstools@autodesk.com
 90
    32768
280
     0
281
     1
  0
ENDSEC
  0
SECTION
  2
TABLES
  0
TABLE
  2
VPORT
  5
7
100
AcDbSymbolTable
 70
     1
  0
VPORT
  5
15
100
AcDbSymbolTableRecord
100
AcDbViewportTableRecord
  2
*ACTIVE
 70
     0
 10
0.0
 20
0.0
 11
1.0
 21
1.0
 12
6.591288
 22
4.579184
 13
0.0
 23
0.0
 14
1.0
 24
1.0
 15
0.0
 25
0.0
 16
0.0
 26
0.0
 36
1.0
 17
0.0
 27
0.0
 37
0.0
 40
9.158369
 41
0.688564
 42
50.0
 43
0.0
 44
0.0
 50
0.0
 51
0.0
 71
     0
 72
   100
 73
     1
 74
     1
 75
     0
 76
     0
 77
     0
 78
     0
281
     0
 65
     0
110
0.0
120
0.0
130
0.0
111
1.0
121
0.0
131
0.0
112
0.0
122
1.0
132
0.0
345
0
346
0
 79
     0
146
0.0
  0
ENDTAB
  0
TABLE
  2
LTYPE
  5
4
100
AcDbSymbolTable
 70
     3
  0
LTYPE
  5
11
100
AcDbSymbolTableRecord
100
AcDbLinetypeTableRecord
  2
ByBlock
 70
    64
  3

 72
    65
 73
     0
 40
0.0
  0
LTYPE
  5
12
100
AcDbSymbolTableRecord
100
AcDbLinetypeTableRecord
  2
ByLayer
 70
    64
  3

 72
    65
 73
     0
 40
0.0
  0
LTYPE
  5
13
100
AcDbSymbolTableRecord
100
AcDbLinetypeTableRecord
  2
Continuous
 70
    64
  3
Solid line
 72
    65
 73
     0
 40
0.0
  0
ENDTAB
  0
TABLE
  2
LAYER
  5
2
100
AcDbSymbolTable
 70
     3
  0
LAYER
  5
14
100
AcDbSymbolTableRecord
100
AcDbLayerTableRecord
  2
0
 70
     0
 62
     7
  6
Continuous
290
     1
370
    -3
390
1D
  0
LAYER
  5
24
100
AcDbSymbolTableRecord
100
AcDbLayerTableRecord
  2
Layer 1
 70
     0
 62
     7
  6
Continuous
290
     1
370
    -3
390
1F
  0
LAYER
  5
29
100
AcDbSymbolTableRecord
100
AcDbLayerTableRecord
  2
P1-Layer 1
 70
     0
 62
     7
  6
Continuous
290
     1
370
    -3
390
1F
  0
ENDTAB
  0
TABLE
  2
STYLE
  5
3
100
AcDbSymbolTable
 70
     2
  0
STYLE
  5
17
100
AcDbSymbolTableRecord
100
AcDbTextStyleTableRecord
  2
Standard
 70
     0
 40
0.0
 41
1.0
 50
0.0
 71
     0
 42
0.0
  3
txt
  4

  0
STYLE
  5
26
100
AcDbSymbolTableRecord
100
AcDbTextStyleTableRecord
  2
Bookman Old Style
 70
     0
 40
1.0
 41
1.0
 50
0.0
 71
     0
 42
1.0
  3
Bookman Old Style
  4

  0
ENDTAB
  0
TABLE
  2
VIEW
  5
5
100
AcDbSymbolTable
 70
     0
  0
ENDTAB
  0
TABLE
  2
UCS
  5
6
100
AcDbSymbolTable
 70
     0
  0
ENDTAB
  0
TABLE
  2
APPID
  5
8
100
AcDbSymbolTable
 70
     1
  0
APPID
  5
16
100
AcDbSymbolTableRecord
100
AcDbRegAppTableRecord
  2
ACAD
 70
     0
  0
ENDTAB
  0
TABLE
  2
DIMSTYLE
  5
9
100
AcDbSymbolTable
 70
     1
100
AcDbDimStyleTable
 71
     0
  0
DIMSTYLE
105
18
100
AcDbSymbolTableRecord
100
AcDbDimStyleTableRecord
  2
Standard
 70
     0
  3

  4

 40
1.0
 41
0.18
 42
0.0625
 43
0.38
 44
0.18
 45
0.0
 46
0.0
 47
0.0
 48
0.0
 71
     0
 72
     0
 73
     1
 74
     1
 75
     0
 76
     0
 77
     0
 78
     0
 79
     0
140
0.18
141
0.09
142
0.0
143
25.4
144
1.0
145
0.0
146
1.0
147
0.09
148
0.0
170
     0
171
     2
172
     0
173
     0
174
     0
175
     0
176
     0
177
     0
178
     0
179
     0
271
     4
272
     4
273
     2
274
     2
275
     0
276
     0
277
     2
278
    46
279
     0
280
     0
281
     0
282
     0
283
     1
284
     0
285
     0
286
     0
288
     0
340
17
341
0
342
0
343
0
344
0
371
    -2
372
    -2
  0
ENDTAB
  0
TABLE
  2
BLOCK_RECORD
  5
1
100
AcDbSymbolTable
 70
     0
  0
BLOCK_RECORD
  5
A
100
AcDbSymbolTableRecord
100
AcDbBlockTableRecord
  2
*MODEL_SPACE
340
20
  0
BLOCK_RECORD
  5
B
100
AcDbSymbolTableRecord
100
AcDbBlockTableRecord
  2
*PAPER_SPACE
340
21
  0
ENDTAB
  0
ENDSEC
  0
SECTION
  2
BLOCKS
  0
BLOCK
  5
D
100
AcDbEntity
  8
0
100
AcDbBlockBegin
  2
*MODEL_SPACE
 70
     0
 10
0.0
 20
0.0
 30
0.0
  3
*MODEL_SPACE
  1

  0
ENDBLK
  5
E
100
AcDbEntity
  8
0
100
AcDbBlockEnd
  0
BLOCK
  5
F
100
AcDbEntity
 67
     1
  8
0
100
AcDbBlockBegin
  2
*PAPER_SPACE
 70
     0
 10
0.0
 20
0.0
 30
0.0
  3
*PAPER_SPACE
  1

  0
ENDBLK
  5
10
100
AcDbEntity
 67
     1
  8
0
100
AcDbBlockEnd
  0
ENDSEC
  0
SECTION
  2
ENTITIES
  0
SPLINE
  5
25
100
AcDbEntity
  8
Layer 1
370
     5
100
AcDbSpline
210
0.0
220
0.0
230
1.0
 70
     1
 71
     3
 72
    36
 73
    32
 74
     0
 42
0.0000000001
 43
0.0000000001
 40
0.0
 40
0.0
 40
0.0
 40
0.0
 40
0.125
 40
0.125
 40
0.125
 40
0.125
 40
0.25
 40
0.25
 40
0.25
 40
0.25
 40
0.375
 40
0.375
 40
0.375
 40
0.375
 40
0.5
 40
0.5
 40
0.5
 40
0.5
 40
0.625
 40
0.625
 40
0.625
 40
0.625
 40
0.75
 40
0.75
 40
0.75
 40
0.75
 40
0.875
 40
0.875
 40
0.875
 40
0.875
 40
1.0
 40
1.0
 40
1.0
 40
1.0
 10
-0.7793110236220473
 20
2.2941102362204724
 30
0.0
 10
-0.7793110236220473
 20
2.2941102362204724
 30
0.0
 10
0.7206889763779528
 20
2.2941102362204724
 30
0.0
 10
0.7206889763779528
 20
2.2941102362204724
 30
0.0
 10
0.7206889763779528
 20
2.2941102362204724
 30
0.0
 10
0.7206889763779528
 20
2.2941102362204724
 30
0.0
 10
0.7206889763779528
 20
2.8378307086614174
 30
0.0
 10
0.7206889763779528
 20
2.8378307086614174
 30
0.0
 10
0.7206889763779528
 20
2.8378307086614174
 30
0.0
 10
0.7206889763779528
 20
2.8378307086614174
 30
0.0
 10
0.6421141732283465
 20
2.8389370078740157
 30
0.0
 10
0.6421141732283465
 20
2.8389370078740157
 30
0.0
 10
0.6421141732283465
 20
2.8389370078740157
 30
0.0
 10
0.6325472440944883
 20
3.0784055118110238
 30
0.0
 10
0.3508937007874016
 20
3.1430314960629921
 30
0.0
 10
0.1435944881889764
 20
2.8431023622047245
 30
0.0
 10
0.1435944881889764
 20
2.8431023622047245
 30
0.0
 10
-0.0637086614173228
 20
2.5431732283464568
 30
0.0
 10
-0.2750472440944882
 20
2.5588661417322838
 30
0.0
 10
-0.3869055118110236
 20
2.5614960629921262
 30
0.0
 10
-0.3869055118110236
 20
2.5614960629921262
 30
0.0
 10
-0.3953385826771654
 20
2.6946220472440947
 30
0.0
 10
-0.6353937007874017
 20
2.7706023622047247
 30
0.0
 10
-0.6697677165354331
 20
2.4789921259842522
 30
0.0
 10
-0.6697677165354331
 20
2.4789921259842522
 30
0.0
 10
-0.6697677165354331
 20
2.4789921259842522
 30
0.0
 10
-0.7793110236220473
 20
2.4605708661417323
 30
0.0
 10
-0.7793110236220473
 20
2.4605708661417323
 30
0.0
 10
-0.7793110236220473
 20
2.4605708661417323
 30
0.0
 10
-0.7793110236220473
 20
2.4605708661417323
 30
0.0
 10
-0.7793110236220473
 20
2.2941102362204724
 30
0.0
 10
-0.7793110236220473
 20
2.2941102362204724
 30
0.0
  0
TEXT
  5
27
100
AcDbEntity
  8
Layer 1
100
AcDbText
 10
-0.22552
 20
2.057406
 30
0.0
 40
0.119999
  1
BA  1498
 51
-0.000002
  7
Bookman Old Style
100
AcDbText
  0
TEXT
  5
28
100
AcDbEntity
  8
Layer 1
100
AcDbText
 10
-0.405531
 20
1.869906
 30
0.0
 40
0.119999
  1
3/4\u+201d x 1-1/2\u+201d
 51
-0.000002
  7
Bookman Old Style
100
AcDbText
  0
SPLINE
  5
2A
100
AcDbEntity
  8
P1-Layer 1
 62
     9
100
AcDbSpline
210
0.0
220
0.0
230
1.0
 70
     1
 71
     3
 72
    20
 73
    16
 74
     0
 42
0.0000000001
 43
0.0000000001
 40
0.0
 40
0.0
 40
0.0
 40
0.0
 40
0.25
 40
0.25
 40
0.25
 40
0.25
 40
0.5
 40
0.5
 40
0.5
 40
0.5
 40
0.75
 40
0.75
 40
0.75
 40
0.75
 40
1.0
 40
1.0
 40
1.0
 40
1.0
 10
0.1024133858267717
 20
-0.8573937007874016
 30
0.0
 10
0.1024133858267717
 20
-0.8573937007874016
 30
0.0
 10
0.7466732283464568
 20
-0.4754724409448819
 30
0.0
 10
0.7466732283464568
 20
-0.4754724409448819
 30
0.0
 10
0.7466732283464568
 20
-0.4754724409448819
 30
0.0
 10
0.7466732283464568
 20
-0.4754724409448819
 30
0.0
 10
0.7477795275590552
 20
-0.3968976377952756
 30
0.0
 10
0.7477795275590552
 20
-0.3968976377952756
 30
0.0
 10
0.7477795275590552
 20
-0.3968976377952756
 30
0.0
 10
0.7477795275590552
 20
-0.3968976377952756
 30
0.0
 10
0.1035196850393701
 20
-0.7788188976377953
 30
0.0
 10
0.1035196850393701
 20
-0.7788188976377953
 30
0.0
 10
0.1035196850393701
 20
-0.7788188976377953
 30
0.0
 10
0.1035196850393701
 20
-0.7788188976377953
 30
0.0
 10
0.1024133858267717
 20
-0.8573937007874016
 30
0.0
 10
0.1024133858267717
 20
-0.8573937007874016
 30
0.0
  0
SPLINE
  5
2B
100
AcDbEntity
  8
P1-Layer 1
370
     5
100
AcDbSpline
210
0.0
220
0.0
230
1.0
 70
     1
 71
     3
 72
    20
 73
    16
 74
     0
 42
0.0000000001
 43
0.0000000001
 40
0.0
 40
0.0
 40
0.0
 40
0.0
 40
0.25
 40
0.25
 40
0.25
 40
0.25
 40
0.5
 40
0.5
 40
0.5
 40
0.5
 40
0.75
 40
0.75
 40
0.75
 40
0.75
 40
1.0
 40
1.0
 40
1.0
 40
1.0
 10
0.1024133858267717
 20
-0.8573937007874016
 30
0.0
 10
0.1024133858267717
 20
-0.8573937007874016
 30
0.0
 10
0.7466732283464568
 20
-0.4754724409448819
 30
0.0
 10
0.7466732283464568
 20
-0.4754724409448819
 30
0.0
 10
0.7466732283464568
 20
-0.4754724409448819
 30
0.0
 10
0.7466732283464568
 20
-0.4754724409448819
 30
0.0
 10
0.7477795275590552
 20
-0.3968976377952756
 30
0.0
 10
0.7477795275590552
 20
-0.3968976377952756
 30
0.0
 10
0.7477795275590552
 20
-0.3968976377952756
 30
0.0
 10
0.7477795275590552
 20
-0.3968976377952756
 30
0.0
 10
0.1035196850393701
 20
-0.7788188976377953
 30
0.0
 10
0.1035196850393701
 20
-0.7788188976377953
 30
0.0
 10
0.1035196850393701
 20
-0.7788188976377953
 30
0.0
 10
0.1035196850393701
 20
-0.7788188976377953
 30
0.0
 10
0.1024133858267717
 20
-0.8573937007874016
 30
0.0
 10
0.1024133858267717
 20
-0.8573937007874016
 30
0.0
  0
SPLINE
  5
2C
100
AcDbEntity
  8
P1-Layer 1
 62
   253
100
AcDbSpline
210
0.0
220
0.0
230
1.0
 70
     1
 71
     3
 72
    28
 73
    24
 74
     0
 42
0.0000000001
 43
0.0000000001
 40
0.0
 40
0.0
 40
0.0
 40
0.0
 40
0.1666666666666667
 40
0.1666666666666667
 40
0.1666666666666667
 40
0.1666666666666667
 40
0.3333333333333333
 40
0.3333333333333333
 40
0.3333333333333333
 40
0.3333333333333333
 40
0.5
 40
0.5
 40
0.5
 40
0.5
 40
0.6666666666666666
 40
0.6666666666666666
 40
0.6666666666666666
 40
0.6666666666666666
 40
0.8333333333333333
 40
0.8333333333333333
 40
0.8333333333333333
 40
0.8333333333333333
 40
1.0
 40
1.0
 40
1.0
 40
1.0
 10
0.2185236220472441
 20
-0.7470157480314961
 30
0.0
 10
0.2185236220472441
 20
-0.7470157480314961
 30
0.0
 10
0.8627834645669291
 20
-0.3650944881889764
 30
0.0
 10
0.8627834645669291
 20
-0.3650944881889764
 30
0.0
 10
0.8627834645669291
 20
-0.3650944881889764
 30
0.0
 10
0.8627834645669291
 20
-0.3650944881889764
 30
0.0
 10
0.8778385826771654
 20
-0.3551771653543308
 30
0.0
 10
0.8778385826771654
 20
-0.3551771653543308
 30
0.0
 10
0.8778385826771654
 20
-0.3551771653543308
 30
0.0
 10
0.8778385826771654
 20
-0.3551771653543308
 30
0.0
 10
0.8916299212598425
 20
-0.3441141732283465
 30
0.0
 10
0.8916299212598425
 20
-0.3441141732283465
 30
0.0
 10
0.8916299212598425
 20
-0.3441141732283465
 30
0.0
 10
0.8916299212598425
 20
-0.3441141732283465
 30
0.0
 10
0.2473700787401575
 20
-0.7260354330708662
 30
0.0
 10
0.2473700787401575
 20
-0.7260354330708662
 30
0.0
 10
0.2473700787401575
 20
-0.7260354330708662
 30
0.0
 10
0.2473700787401575
 20
-0.7260354330708662
 30
0.0
 10
0.2335787401574803
 20
-0.7370984251968504
 30
0.0
 10
0.2335787401574803
 20
-0.7370984251968504
 30
0.0
 10
0.2335787401574803
 20
-0.7370984251968504
 30
0.0
 10
0.2335787401574803
 20
-0.7370984251968504
 30
0.0
 10
0.2185236220472441
 20
-0.7470157480314961
 30
0.0
 10
0.2185236220472441
 20
-0.7470157480314961
 30
0.0
  0
SPLINE
  5
2D
100
AcDbEntity
  8
P1-Layer 1
 62
     9
100
AcDbSpline
210
0.0
220
0.0
230
1.0
 70
     1
 71
     3
 72
    28
 73
    24
 74
     0
 42
0.0000000001
 43
0.0000000001
 40
0.0
 40
0.0
 40
0.0
 40
0.0
 40
0.1666666666666667
 40
0.1666666666666667
 40
0.1666666666666667
 40
0.1666666666666667
 40
0.3333333333333333
 40
0.3333333333333333
 40
0.3333333333333333
 40
0.3333333333333333
 40
0.5
 40
0.5
 40
0.5
 40
0.5
 40
0.6666666666666666
 40
0.6666666666666666
 40
0.6666666666666666
 40
0.6666666666666666
 40
0.8333333333333333
 40
0.8333333333333333
 40
0.8333333333333333
 40
0.8333333333333333
 40
1.0
 40
1.0
 40
1.0
 40
1.0
 10
0.2473700787401575
 20
-0.7260354330708662
 30
0.0
 10
0.2473700787401575
 20
-0.7260354330708662
 30
0.0
 10
0.8916299212598425
 20
-0.3441141732283465
 30
0.0
 10
0.8916299212598425
 20
-0.3441141732283465
 30
0.0
 10
0.8916299212598425
 20
-0.3441141732283465
 30
0.0
 10
0.8916299212598425
 20
-0.3441141732283465
 30
0.0
 10
0.9041102362204725
 20
-0.3319566929133859
 30
0.0
 10
0.9041102362204725
 20
-0.3319566929133859
 30
0.0
 10
0.9041102362204725
 20
-0.3319566929133859
 30
0.0
 10
0.9041102362204725
 20
-0.3319566929133859
 30
0.0
 10
0.9152598425196851
 20
-0.3187795275590551
 30
0.0
 10
0.9152598425196851
 20
-0.3187795275590551
 30
0.0
 10
0.9152598425196851
 20
-0.3187795275590551
 30
0.0
 10
0.9152598425196851
 20
-0.3187795275590551
 30
0.0
 10
0.271
 20
-0.7007007874015748
 30
0.0
 10
0.271
 20
-0.7007007874015748
 30
0.0
 10
0.271
 20
-0.7007007874015748
 30
0.0
 10
0.271
 20
-0.7007007874015748
 30
0.0
 10
0.2598503937007874
 20
-0.7138779527559055
 30
0.0
 10
0.2598503937007874
 20
-0.7138779527559055
 30
0.0
 10
0.2598503937007874
 20
-0.7138779527559055
 30
0.0
 10
0.2598503937007874
 20
-0.7138779527559055
 30
0.0
 10
0.2473700787401575
 20
-0.7260354330708662
 30
0.0
 10
0.2473700787401575
 20
-0.7260354330708662
 30
0.0
  0
SPLINE
  5
2E
100
AcDbEntity
  8
P1-Layer 1
 62
     9
100
AcDbSpline
210
0.0
220
0.0
230
1.0
 70
     1
 71
     3
 72
    28
 73
    24
 74
     0
 42
0.0000000001
 43
0.0000000001
 40
0.0
 40
0.0
 40
0.0
 40
0.0
 40
0.1666666666666667
 40
0.1666666666666667
 40
0.1666666666666667
 40
0.1666666666666667
 40
0.3333333333333333
 40
0.3333333333333333
 40
0.3333333333333333
 40
0.3333333333333333
 40
0.5
 40
0.5
 40
0.5
 40
0.5
 40
0.6666666666666666
 40
0.6666666666666666
 40
0.6666666666666666
 40
0.6666666666666666
 40
0.8333333333333333
 40
0.8333333333333333
 40
0.8333333333333333
 40
0.8333333333333333
 40
1.0
 40
1.0
 40
1.0
 40
1.0
 10
0.271
 20
-0.7007007874015748
 30
0.0
 10
0.271
 20
-0.7007007874015748
 30
0.0
 10
0.9152598425196851
 20
-0.3187795275590551
 30
0.0
 10
0.9152598425196851
 20
-0.3187795275590551
 30
0.0
 10
0.9152598425196851
 20
-0.3187795275590551
 30
0.0
 10
0.9152598425196851
 20
-0.3187795275590551
 30
0.0
 10
0.9250354330708662
 20
-0.3046417322834646
 30
0.0
 10
0.9250354330708662
 20
-0.3046417322834646
 30
0.0
 10
0.9250354330708662
 20
-0.3046417322834646
 30
0.0
 10
0.9250354330708662
 20
-0.3046417322834646
 30
0.0
 10
0.9334094488188977
 20
-0.2896102362204724
 30
0.0
 10
0.9334094488188977
 20
-0.2896102362204724
 30
0.0
 10
0.9334094488188977
 20
-0.2896102362204724
 30
0.0
 10
0.9334094488188977
 20
-0.2896102362204724
 30
0.0
 10
0.2891496062992126
 20
-0.6715314960629921
 30
0.0
 10
0.2891496062992126
 20
-0.6715314960629921
 30
0.0
 10
0.2891496062992126
 20
-0.6715314960629921
 30
0.0
 10
0.2891496062992126
 20
-0.6715314960629921
 30
0.0
 10
0.2807755905511811
 20
-0.6865629921259843
 30
0.0
 10
0.2807755905511811
 20
-0.6865629921259843
 30
0.0
 10
0.2807755905511811
 20
-0.6865629921259843
 30
0.0
 10
0.2807755905511811
 20
-0.6865629921259843
 30
0.0
 10
0.271
 20
-0.7007007874015748
 30
0.0
 10
0.271
 20
-0.7007007874015748
 30
0.0
  0
SPLINE
  5
2F
100
AcDbEntity
  8
P1-Layer 1
 62
     9
100
AcDbSpline
210
0.0
220
0.0
230
1.0
 70
     1
 71
     3
 72
    28
 73
    24
 74
     0
 42
0.0000000001
 43
0.0000000001
 40
0.0
 40
0.0
 40
0.0
 40
0.0
 40
0.1666666666666667
 40
0.1666666666666667
 40
0.1666666666666667
 40
0.1666666666666667
 40
0.3333333333333333
 40
0.3333333333333333
 40
0.3333333333333333
 40
0.3333333333333333
 40
0.5
 40
0.5
 40
0.5
 40
0.5
 40
0.6666666666666666
 40
0.6666666666666666
 40
0.6666666666666666
 40
0.6666666666666666
 40
0.8333333333333333
 40
0.8333333333333333
 40
0.8333333333333333
 40
0.8333333333333333
 40
1.0
 40
1.0
 40
1.0
 40
1.0
 10
0.2891496062992126
 20
-0.6715314960629921
 30
0.0
 10
0.2891496062992126
 20
-0.6715314960629921
 30
0.0
 10
0.9334094488188977
 20
-0.2896102362204724
 30
0.0
 10
0.9334094488188977
 20
-0.2896102362204724
 30
0.0
 10
0.9334094488188977
 20
-0.2896102362204724
 30
0.0
 10
0.9334094488188977
 20
-0.2896102362204724
 30
0.0
 10
0.9403346456692914
 20
-0.273740157480315
 30
0.0
 10
0.9403346456692914
 20
-0.273740157480315
 30
0.0
 10
0.9403346456692914
 20
-0.273740157480315
 30
0.0
 10
0.9403346456692914
 20
-0.273740157480315
 30
0.0
 10
0.9457913385826772
 20
-0.2571062992125984
 30
0.0
 10
0.9457913385826772
 20
-0.2571062992125984
 30
0.0
 10
0.9457913385826772
 20
-0.2571062992125984
 30
0.0
 10
0.9457913385826772
 20
-0.2571062992125984
 30
0.0
 10
0.3015314960629921
 20
-0.6390275590551181
 30
0.0
 10
0.3015314960629921
 20
-0.6390275590551181
 30
0.0
 10
0.3015314960629921
 20
-0.6390275590551181
 30
0.0
 10
0.3015314960629921
 20
-0.6390275590551181
 30
0.0
 10
0.2960748031496063
 20
-0.6556614173228347
 30
0.0
 10
0.2960748031496063
 20
-0.6556614173228347
 30
0.0
 10
0.2960748031496063
 20
-0.6556614173228347
 30
0.0
 10
0.2960748031496063
 20
-0.6556614173228347
 30
0.0
 10
0.2891496062992126
 20
-0.6715314960629921
 30
0.0
 10
0.2891496062992126
 20
-0.6715314960629921
 30
0.0
  0
SPLINE
  5
30
100
AcDbEntity
  8
P1-Layer 1
 62
     9
100
AcDbSpline
210
0.0
220
0.0
230
1.0
 70
     1
 71
     3
 72
    28
 73
    24
 74
     0
 42
0.0000000001
 43
0.0000000001
 40
0.0
 40
0.0
 40
0.0
 40
0.0
 40
0.1666666666666667
 40
0.1666666666666667
 40
0.1666666666666667
 40
0.1666666666666667
 40
0.3333333333333333
 40
0.3333333333333333
 40
0.3333333333333333
 40
0.3333333333333333
 40
0.5
 40
0.5
 40
0.5
 40
0.5
 40
0.6666666666666666
 40
0.6666666666666666
 40
0.6666666666666666
 40
0.6666666666666666
 40
0.8333333333333333
 40
0.8333333333333333
 40
0.8333333333333333
 40
0.8333333333333333
 40
1.0
 40
1.0
 40
1.0
 40
1.0
 10
0.3015314960629921
 20
-0.6390275590551181
 30
0.0
 10
0.3015314960629921
 20
-0.6390275590551181
 30
0.0
 10
0.9457913385826772
 20
-0.2571062992125984
 30
0.0
 10
0.9457913385826772
 20
-0.2571062992125984
 30
0.0
 10
0.9457913385826772
 20
-0.2571062992125984
 30
0.0
 10
0.9457913385826772
 20
-0.2571062992125984
 30
0.0
 10
0.949732283464567
 20
-0.2397637795275591
 30
0.0
 10
0.949732283464567
 20
-0.2397637795275591
 30
0.0
 10
0.949732283464567
 20
-0.2397637795275591
 30
0.0
 10
0.949732283464567
 20
-0.2397637795275591
 30
0.0
 10
0.9521338582677166
 20
-0.2217834645669292
 30
0.0
 10
0.9521338582677166
 20
-0.2217834645669292
 30
0.0
 10
0.9521338582677166
 20
-0.2217834645669292
 30
0.0
 10
0.9521338582677166
 20
-0.2217834645669292
 30
0.0
 10
0.3078740157480315
 20
-0.6037047244094489
 30
0.0
 10
0.3078740157480315
 20
-0.6037047244094489
 30
0.0
 10
0.3078740157480315
 20
-0.6037047244094489
 30
0.0
 10
0.3078740157480315
 20
-0.6037047244094489
 30
0.0
 10
0.3054724409448819
 20
-0.6216850393700788
 30
0.0
 10
0.3054724409448819
 20
-0.6216850393700788
 30
0.0
 10
0.3054724409448819
 20
-0.6216850393700788
 30
0.0
 10
0.3054724409448819
 20
-0.6216850393700788
 30
0.0
 10
0.3015314960629921
 20
-0.6390275590551181
 30
0.0
 10
0.3015314960629921
 20
-0.6390275590551181
 30
0.0
  0
SPLINE
  5
31
100
AcDbEntity
  8
P1-Layer 1
 62
     9
100
AcDbSpline
210
0.0
220
0.0
230
1.0
 70
     1
 71
     3
 72
    28
 73
    24
 74
     0
 42
0.0000000001
 43
0.0000000001
 40
0.0
 40
0.0
 40
0.0
 40
0.0
 40
0.1666666666666667
 40
0.1666666666666667
 40
0.1666666666666667
 40
0.1666666666666667
 40
0.3333333333333333
 40
0.3333333333333333
 40
0.3333333333333333
 40
0.3333333333333333
 40
0.5
 40
0.5
 40
0.5
 40
0.5
 40
0.6666666666666666
 40
0.6666666666666666
 40
0.6666666666666666
 40
0.6666666666666666
 40
0.8333333333333333
 40
0.8333333333333333
 40
0.8333333333333333
 40
0.8333333333333333
 40
1.0
 40
1.0
 40
1.0
 40
1.0
 10
0.3078740157480315
 20
-0.6037047244094489
 30
0.0
 10
0.3078740157480315
 20
-0.6037047244094489
 30
0.0
 10
0.9521338582677166
 20
-0.2217834645669292
 30
0.0
 10
0.9521338582677166
 20
-0.2217834645669292
 30
0.0
 10
0.9521338582677166
 20
-0.2217834645669292
 30
0.0
 10
0.9521338582677166
 20
-0.2217834645669292
 30
0.0
 10
0.9529448818897638
 20
-0.2032125984251968
 30
0.0
 10
0.9529448818897638
 20
-0.2032125984251968
 30
0.0
 10
0.9529448818897638
 20
-0.2032125984251968
 30
0.0
 10
0.9529448818897638
 20
-0.2032125984251968
 30
0.0
 10
0.9521456692913386
 20
-0.1841338582677166
 30
0.0
 10
0.9521456692913386
 20
-0.1841338582677166
 30
0.0
 10
0.9521456692913386
 20
-0.1841338582677166
 30
0.0
 10
0.9521456692913386
 20
-0.1841338582677166
 30
0.0
 10
0.3078858267716536
 20
-0.5660551181102362
 30
0.0
 10
0.3078858267716536
 20
-0.5660551181102362
 30
0.0
 10
0.3078858267716536
 20
-0.5660551181102362
 30
0.0
 10
0.3078858267716536
 20
-0.5660551181102362
 30
0.0
 10
0.3086850393700787
 20
-0.5851338582677166
 30
0.0
 10
0.3086850393700787
 20
-0.5851338582677166
 30
0.0
 10
0.3086850393700787
 20
-0.5851338582677166
 30
0.0
 10
0.3086850393700787
 20
-0.5851338582677166
 30
0.0
 10
0.3078740157480315
 20
-0.6037047244094489
 30
0.0
 10
0.3078740157480315
 20
-0.6037047244094489
 30
0.0
  0
SPLINE
  5
32
100
AcDbEntity
  8
P1-Layer 1
 62
     9
100
AcDbSpline
210
0.0
220
0.0
230
1.0
 70
     1
 71
     3
 72
    28
 73
    24
 74
     0
 42
0.0000000001
 43
0.0000000001
 40
0.0
 40
0.0
 40
0.0
 40
0.0
 40
0.1666666666666667
 40
0.1666666666666667
 40
0.1666666666666667
 40
0.1666666666666667
 40
0.3333333333333333
 40
0.3333333333333333
 40
0.3333333333333333
 40
0.3333333333333333
 40
0.5
 40
0.5
 40
0.5
 40
0.5
 40
0.6666666666666666
 40
0.6666666666666666
 40
0.6666666666666666
 40
0.6666666666666666
 40
0.8333333333333333
 40
0.8333333333333333
 40
0.8333333333333333
 40
0.8333333333333333
 40
1.0
 40
1.0
 40
1.0
 40
1.0
 10
0.3078858267716536
 20
-0.5660551181102362
 30
0.0
 10
0.3078858267716536
 20
-0.5660551181102362
 30
0.0
 10
0.9521456692913386
 20
-0.1841338582677166
 30
0.0
 10
0.9521456692913386
 20
-0.1841338582677166
 30
0.0
 10
0.9521456692913386
 20
-0.1841338582677166
 30
0.0
 10
0.9521456692913386
 20
-0.1841338582677166
 30
0.0
 10
0.9496968503937008
 20
-0.1645984251968504
 30
0.0
 10
0.9496968503937008
 20
-0.1645984251968504
 30
0.0
 10
0.9496968503937008
 20
-0.1645984251968504
 30
0.0
 10
0.9496968503937008
 20
-0.1645984251968504
 30
0.0
 10
0.9455669291338583
 20
-0.1446811023622047
 30
0.0
 10
0.9455669291338583
 20
-0.1446811023622047
 30
0.0
 10
0.9455669291338583
 20
-0.1446811023622047
 30
0.0
 10
0.9455669291338583
 20
-0.1446811023622047
 30
0.0
 10
0.3013070866141732
 20
-0.5266023622047245
 30
0.0
 10
0.3013070866141732
 20
-0.5266023622047245
 30
0.0
 10
0.3013070866141732
 20
-0.5266023622047245
 30
0.0
 10
0.3013070866141732
 20
-0.5266023622047245
 30
0.0
 10
0.3054370078740158
 20
-0.5465196850393701
 30
0.0
 10
0.3054370078740158
 20
-0.5465196850393701
 30
0.0
 10
0.3054370078740158
 20
-0.5465196850393701
 30
0.0
 10
0.3054370078740158
 20
-0.5465196850393701
 30
0.0
 10
0.3078858267716536
 20
-0.5660551181102362
 30
0.0
 10
0.3078858267716536
 20
-0.5660551181102362
 30
0.0
  0
SPLINE
  5
33
100
AcDbEntity
  8
P1-Layer 1
 62
     9
100
AcDbSpline
210
0.0
220
0.0
230
1.0
 70
     1
 71
     3
 72
    28
 73
    24
 74
     0
 42
0.0000000001
 43
0.0000000001
 40
0.0
 40
0.0
 40
0.0
 40
0.0
 40
0.1666666666666667
 40
0.1666666666666667
 40
0.1666666666666667
 40
0.1666666666666667
 40
0.3333333333333333
 40
0.3333333333333333
 40
0.3333333333333333
 40
0.3333333333333333
 40
0.5
 40
0.5
 40
0.5
 40
0.5
 40
0.6666666666666666
 40
0.6666666666666666
 40
0.6666666666666666
 40
0.6666666666666666
 40
0.8333333333333333
 40
0.8333333333333333
 40
0.8333333333333333
 40
0.8333333333333333
 40
1.0
 40
1.0
 40
1.0
 40
1.0
 10
0.3013070866141732
 20
-0.5266023622047245
 30
0.0
 10
0.3013070866141732
 20
-0.5266023622047245
 30
0.0
 10
0.9455669291338583
 20
-0.1446811023622047
 30
0.0
 10
0.9455669291338583
 20
-0.1446811023622047
 30
0.0
 10
0.9455669291338583
 20
-0.1446811023622047
 30
0.0
 10
0.9455669291338583
 20
-0.1446811023622047
 30
0.0
 10
0.9397086614173229
 20
-0.1244291338582677
 30
0.0
 10
0.9397086614173229
 20
-0.1244291338582677
 30
0.0
 10
0.9397086614173229
 20
-0.1244291338582677
 30
0.0
 10
0.9397086614173229
 20
-0.1244291338582677
 30
0.0
 10
0.9321062992125985
 20
-0.1039251968503937
 30
0.0
 10
0.9321062992125985
 20
-0.1039251968503937
 30
0.0
 10
0.9321062992125985
 20
-0.1039251968503937
 30
0.0
 10
0.9321062992125985
 20
-0.1039251968503937
 30
0.0
 10
0.2878464566929134
 20
-0.4858464566929134
 30
0.0
 10
0.2878464566929134
 20
-0.4858464566929134
 30
0.0
 10
0.2878464566929134
 20
-0.4858464566929134
 30
0.0
 10
0.2878464566929134
 20
-0.4858464566929134
 30
0.0
 10
0.2954488188976378
 20
-0.5063503937007874
 30
0.0
 10
0.2954488188976378
 20
-0.5063503937007874
 30
0.0
 10
0.2954488188976378
 20
-0.5063503937007874
 30
0.0
 10
0.2954488188976378
 20
-0.5063503937007874
 30
0.0
 10
0.3013070866141732
 20
-0.5266023622047245
 30
0.0
 10
0.3013070866141732
 20
-0.5266023622047245
 30
0.0
  0
SPLINE
  5
34
100
AcDbEntity
  8
P1-Layer 1
 62
     9
100
AcDbSpline
210
0.0
220
0.0
230
1.0
 70
     1
 71
     3
 72
    28
 73
    24
 74
     0
 42
0.0000000001
 43
0.0000000001
 40
0.0
 40
0.0
 40
0.0
 40
0.0
 40
0.1666666666666667
 40
0.1666666666666667
 40
0.1666666666666667
 40
0.1666666666666667
 40
0.3333333333333333
 40
0.3333333333333333
 40
0.3333333333333333
 40
0.3333333333333333
 40
0.5
 40
0.5
 40
0.5
 40
0.5
 40
0.6666666666666666
 40
0.6666666666666666
 40
0.6666666666666666
 40
0.6666666666666666
 40
0.8333333333333333
 40
0.8333333333333333
 40
0.8333333333333333
 40
0.8333333333333333
 40
1.0
 40
1.0
 40
1.0
 40
1.0
 10
0.2878464566929134
 20
-0.4858464566929134
 30
0.0
 10
0.2878464566929134
 20
-0.4858464566929134
 30
0.0
 10
0.9321062992125985
 20
-0.1039251968503937
 30
0.0
 10
0.9321062992125985
 20
-0.1039251968503937
 30
0.0
 10
0.9321062992125985
 20
-0.1039251968503937
 30
0.0
 10
0.9321062992125985
 20
-0.1039251968503937
 30
0.0
 10
0.9227125984251969
 20
-0.0832165354330709
 30
0.0
 10
0.9227125984251969
 20
-0.0832165354330709
 30
0.0
 10
0.9227125984251969
 20
-0.0832165354330709
 30
0.0
 10
0.9227125984251969
 20
-0.0832165354330709
 30
0.0
 10
0.911496062992126
 20
-0.0623779527559055
 30
0.0
 10
0.911496062992126
 20
-0.0623779527559055
 30
0.0
 10
0.911496062992126
 20
-0.0623779527559055
 30
0.0
 10
0.911496062992126
 20
-0.0623779527559055
 30
0.0
 10
0.2672362204724409
 20
-0.4442992125984252
 30
0.0
 10
0.2672362204724409
 20
-0.4442992125984252
 30
0.0
 10
0.2672362204724409
 20
-0.4442992125984252
 30
0.0
 10
0.2672362204724409
 20
-0.4442992125984252
 30
0.0
 10
0.2784527559055118
 20
-0.4651377952755906
 30
0.0
 10
0.2784527559055118
 20
-0.4651377952755906
 30
0.0
 10
0.2784527559055118
 20
-0.4651377952755906
 30
0.0
 10
0.2784527559055118
 20
-0.4651377952755906
 30
0.0
 10
0.2878464566929134
 20
-0.4858464566929134
 30
0.0
 10
0.2878464566929134
 20
-0.4858464566929134
 30
0.0
  0
SPLINE
  5
35
100
AcDbEntity
  8
P1-Layer 1
 62
     9
100
AcDbSpline
210
0.0
220
0.0
230
1.0
 70
     1
 71
     3
 72
    20
 73
    16
 74
     0
 42
0.0000000001
 43
0.0000000001
 40
0.0
 40
0.0
 40
0.0
 40
0.0
 40
0.25
 40
0.25
 40
0.25
 40
0.25
 40
0.5
 40
0.5
 40
0.5
 40
0.5
 40
0.75
 40
0.75
 40
0.75
 40
0.75
 40
1.0
 40
1.0
 40
1.0
 40
1.0
 10
0.2672362204724409
 20
-0.4442992125984252
 30
0.0
 10
0.2672362204724409
 20
-0.4442992125984252
 30
0.0
 10
0.911496062992126
 20
-0.0623779527559055
 30
0.0
 10
0.911496062992126
 20
-0.0623779527559055
 30
0.0
 10
0.911496062992126
 20
-0.0623779527559055
 30
0.0
 10
0.911496062992126
 20
-0.0623779527559055
 30
0.0
 10
0.8984173228346457
 20
-0.0414566929133858
 30
0.0
 10
0.8984173228346457
 20
-0.0414566929133858
 30
0.0
 10
0.8984173228346457
 20
-0.0414566929133858
 30
0.0
 10
0.8984173228346457
 20
-0.0414566929133858
 30
0.0
 10
0.2541574803149607
 20
-0.4233779527559055
 30
0.0
 10
0.2541574803149607
 20
-0.4233779527559055
 30
0.0
 10
0.2541574803149607
 20
-0.4233779527559055
 30
0.0
 10
0.2541574803149607
 20
-0.4233779527559055
 30
0.0
 10
0.2672362204724409
 20
-0.4442992125984252
 30
0.0
 10
0.2672362204724409
 20
-0.4442992125984252
 30
0.0
  0
SPLINE
  5
36
100
AcDbEntity
  8
P1-Layer 1
 62
     9
100
AcDbSpline
210
0.0
220
0.0
230
1.0
 70
     1
 71
     3
 72
    20
 73
    16
 74
     0
 42
0.0000000001
 43
0.0000000001
 40
0.0
 40
0.0
 40
0.0
 40
0.0
 40
0.25
 40
0.25
 40
0.25
 40
0.25
 40
0.5
 40
0.5
 40
0.5
 40
0.5
 40
0.75
 40
0.75
 40
0.75
 40
0.75
 40
1.0
 40
1.0
 40
1.0
 40
1.0
 10
0.2541574803149607
 20
-0.4233779527559055
 30
0.0
 10
0.2541574803149607
 20
-0.4233779527559055
 30
0.0
 10
0.8984173228346457
 20
-0.0414566929133858
 30
0.0
 10
0.8984173228346457
 20
-0.0414566929133858
 30
0.0
 10
0.8984173228346457
 20
-0.0414566929133858
 30
0.0
 10
0.8984173228346457
 20
-0.0414566929133858
 30
0.0
 10
0.8834488188976378
 20
-0.0205354330708661
 30
0.0
 10
0.8834488188976378
 20
-0.0205354330708661
 30
0.0
 10
0.8834488188976378
 20
-0.0205354330708661
 30
0.0
 10
0.8834488188976378
 20
-0.0205354330708661
 30
0.0
 10
0.2391889763779528
 20
-0.4024566929133858
 30
0.0
 10
0.2391889763779528
 20
-0.4024566929133858
 30
0.0
 10
0.2391889763779528
 20
-0.4024566929133858
 30
0.0
 10
0.2391889763779528
 20
-0.4024566929133858
 30
0.0
 10
0.2541574803149607
 20
-0.4233779527559055
 30
0.0
 10
0.2541574803149607
 20
-0.4233779527559055
 30
0.0
  0
SPLINE
  5
37
100
AcDbEntity
  8
P1-Layer 1
 62
     9
100
AcDbSpline
210
0.0
220
0.0
230
1.0
 70
     1
 71
     3
 72
    20
 73
    16
 74
     0
 42
0.0000000001
 43
0.0000000001
 40
0.0
 40
0.0
 40
0.0
 40
0.0
 40
0.25
 40
0.25
 40
0.25
 40
0.25
 40
0.5
 40
0.5
 40
0.5
 40
0.5
 40
0.75
 40
0.75
 40
0.75
 40
0.75
 40
1.0
 40
1.0
 40
1.0
 40
1.0
 10
0.2391889763779528
 20
-0.4024566929133858
 30
0.0
 10
0.2391889763779528
 20
-0.4024566929133858
 30
0.0
 10
0.8834488188976378
 20
-0.0205354330708661
 30
0.0
 10
0.8834488188976378
 20
-0.0205354330708661
 30
0.0
 10
0.8834488188976378
 20
-0.0205354330708661
 30
0.0
 10
0.8834488188976378
 20
-0.0205354330708661
 30
0.0
 10
0.8665511811023623
 20
0.0003346456692913
 30
0.0
 10
0.8665511811023623
 20
0.0003346456692913
 30
0.0
 10
0.8665511811023623
 20
0.0003346456692913
 30
0.0
 10
0.8665511811023623
 20
0.0003346456692913
 30
0.0
 10
0.2222913385826772
 20
-0.3815866141732284
 30
0.0
 10
0.2222913385826772
 20
-0.3815866141732284
 30
0.0
 10
0.2222913385826772
 20
-0.3815866141732284
 30
0.0
 10
0.2222913385826772
 20
-0.3815866141732284
 30
0.0
 10
0.2391889763779528
 20
-0.4024566929133858
 30
0.0
 10
0.2391889763779528
 20
-0.4024566929133858
 30
0.0
  0
SPLINE
  5
38
100
AcDbEntity
  8
P1-Layer 1
 62
     9
100
AcDbSpline
210
0.0
220
0.0
230
1.0
 70
     1
 71
     3
 72
    20
 73
    16
 74
     0
 42
0.0000000001
 43
0.0000000001
 40
0.0
 40
0.0
 40
0.0
 40
0.0
 40
0.25
 40
0.25
 40
0.25
 40
0.25
 40
0.5
 40
0.5
 40
0.5
 40
0.5
 40
0.75
 40
0.75
 40
0.75
 40
0.75
 40
1.0
 40
1.0
 40
1.0
 40
1.0
 10
0.2222913385826772
 20
-0.3815866141732284
 30
0.0
 10
0.2222913385826772
 20
-0.3815866141732284
 30
0.0
 10
0.8665511811023623
 20
0.0003346456692913
 30
0.0
 10
0.8665511811023623
 20
0.0003346456692913
 30
0.0
 10
0.8665511811023623
 20
0.0003346456692913
 30
0.0
 10
0.8665511811023623
 20
0.0003346456692913
 30
0.0
 10
0.8476968503937008
 20
0.0210787401574803
 30
0.0
 10
0.8476968503937008
 20
0.0210787401574803
 30
0.0
 10
0.8476968503937008
 20
0.0210787401574803
 30
0.0
 10
0.8476968503937008
 20
0.0210787401574803
 30
0.0
 10
0.2034370078740158
 20
-0.3608425196850394
 30
0.0
 10
0.2034370078740158
 20
-0.3608425196850394
 30
0.0
 10
0.2034370078740158
 20
-0.3608425196850394
 30
0.0
 10
0.2034370078740158
 20
-0.3608425196850394
 30
0.0
 10
0.2222913385826772
 20
-0.3815866141732284
 30
0.0
 10
0.2222913385826772
 20
-0.3815866141732284
 30
0.0
  0
SPLINE
  5
39
100
AcDbEntity
  8
P1-Layer 1
 62
     9
100
AcDbSpline
210
0.0
220
0.0
230
1.0
 70
     1
 71
     3
 72
    20
 73
    16
 74
     0
 42
0.0000000001
 43
0.0000000001
 40
0.0
 40
0.0
 40
0.0
 40
0.0
 40
0.25
 40
0.25
 40
0.25
 40
0.25
 40
0.5
 40
0.5
 40
0.5
 40
0.5
 40
0.75
 40
0.75
 40
0.75
 40
0.75
 40
1.0
 40
1.0
 40
1.0
 40
1.0
 10
0.2034370078740158
 20
-0.3608425196850394
 30
0.0
 10
0.2034370078740158
 20
-0.3608425196850394
 30
0.0
 10
0.8476968503937008
 20
0.0210787401574803
 30
0.0
 10
0.8476968503937008
 20
0.0210787401574803
 30
0.0
 10
0.8476968503937008
 20
0.0210787401574803
 30
0.0
 10
0.8476968503937008
 20
0.0210787401574803
 30
0.0
 10
0.8268346456692913
 20
0.0416496062992126
 30
0.0
 10
0.8268346456692913
 20
0.0416496062992126
 30
0.0
 10
0.8268346456692913
 20
0.0416496062992126
 30
0.0
 10
0.8268346456692913
 20
0.0416496062992126
 30
0.0
 10
0.1825748031496063
 20
-0.3402716535433071
 30
0.0
 10
0.1825748031496063
 20
-0.3402716535433071
 30
0.0
 10
0.1825748031496063
 20
-0.3402716535433071
 30
0.0
 10
0.1825748031496063
 20
-0.3402716535433071
 30
0.0
 10
0.2034370078740158
 20
-0.3608425196850394
 30
0.0
 10
0.2034370078740158
 20
-0.3608425196850394
 30
0.0
  0
SPLINE
  5
3A
100
AcDbEntity
  8
P1-Layer 1
 62
     9
100
AcDbSpline
210
0.0
220
0.0
230
1.0
 70
     1
 71
     3
 72
    20
 73
    16
 74
     0
 42
0.0000000001
 43
0.0000000001
 40
0.0
 40
0.0
 40
0.0
 40
0.0
 40
0.25
 40
0.25
 40
0.25
 40
0.25
 40
0.5
 40
0.5
 40
0.5
 40
0.5
 40
0.75
 40
0.75
 40
0.75
 40
0.75
 40
1.0
 40
1.0
 40
1.0
 40
1.0
 10
0.1825748031496063
 20
-0.3402716535433071
 30
0.0
 10
0.1825748031496063
 20
-0.3402716535433071
 30
0.0
 10
0.8268346456692913
 20
0.0416496062992126
 30
0.0
 10
0.8268346456692913
 20
0.0416496062992126
 30
0.0
 10
0.8268346456692913
 20
0.0416496062992126
 30
0.0
 10
0.8268346456692913
 20
0.0416496062992126
 30
0.0
 10
0.8039488188976378
 20
0.0619724409448819
 30
0.0
 10
0.8039488188976378
 20
0.0619724409448819
 30
0.0
 10
0.8039488188976378
 20
0.0619724409448819
 30
0.0
 10
0.8039488188976378
 20
0.0619724409448819
 30
0.0
 10
0.1596889763779528
 20
-0.3199488188976378
 30
0.0
 10
0.1596889763779528
 20
-0.3199488188976378
 30
0.0
 10
0.1596889763779528
 20
-0.3199488188976378
 30
0.0
 10
0.1596889763779528
 20
-0.3199488188976378
 30
0.0
 10
0.1825748031496063
 20
-0.3402716535433071
 30
0.0
 10
0.1825748031496063
 20
-0.3402716535433071
 30
0.0
  0
SPLINE
  5
3B
100
AcDbEntity
  8
P1-Layer 1
 62
     9
100
AcDbSpline
210
0.0
220
0.0
230
1.0
 70
     1
 71
     3
 72
    20
 73
    16
 74
     0
 42
0.0000000001
 43
0.0000000001
 40
0.0
 40
0.0
 40
0.0
 40
0.0
 40
0.25
 40
0.25
 40
0.25
 40
0.25
 40
0.5
 40
0.5
 40
0.5
 40
0.5
 40
0.75
 40
0.75
 40
0.75
 40
0.75
 40
1.0
 40
1.0
 40
1.0
 40
1.0
 10
0.1596889763779528
 20
-0.3199488188976378
 30
0.0
 10
0.1596889763779528
 20
-0.3199488188976378
 30
0.0
 10
0.8039488188976378
 20
0.0619724409448819
 30
0.0
 10
0.8039488188976378
 20
0.0619724409448819
 30
0.0
 10
0.8039488188976378
 20
0.0619724409448819
 30
0.0
 10
0.8039488188976378
 20
0.0619724409448819
 30
0.0
 10
0.778996062992126
 20
0.081988188976378
 30
0.0
 10
0.778996062992126
 20
0.081988188976378
 30
0.0
 10
0.778996062992126
 20
0.081988188976378
 30
0.0
 10
0.778996062992126
 20
0.081988188976378
 30
0.0
 10
0.1347362204724409
 20
-0.2999330708661417
 30
0.0
 10
0.1347362204724409
 20
-0.2999330708661417
 30
0.0
 10
0.1347362204724409
 20
-0.2999330708661417
 30
0.0
 10
0.1347362204724409
 20
-0.2999330708661417
 30
0.0
 10
0.1596889763779528
 20
-0.3199488188976378
 30
0.0
 10
0.1596889763779528
 20
-0.3199488188976378
 30
0.0
  0
SPLINE
  5
3C
100
AcDbEntity
  8
P1-Layer 1
 62
     9
100
AcDbSpline
210
0.0
220
0.0
230
1.0
 70
     1
 71
     3
 72
    20
 73
    16
 74
     0
 42
0.0000000001
 43
0.0000000001
 40
0.0
 40
0.0
 40
0.0
 40
0.0
 40
0.25
 40
0.25
 40
0.25
 40
0.25
 40
0.5
 40
0.5
 40
0.5
 40
0.5
 40
0.75
 40
0.75
 40
0.75
 40
0.75
 40
1.0
 40
1.0
 40
1.0
 40
1.0
 10
0.1347362204724409
 20
-0.2999330708661417
 30
0.0
 10
0.1347362204724409
 20
-0.2999330708661417
 30
0.0
 10
0.778996062992126
 20
0.081988188976378
 30
0.0
 10
0.778996062992126
 20
0.081988188976378
 30
0.0
 10
0.778996062992126
 20
0.081988188976378
 30
0.0
 10
0.778996062992126
 20
0.081988188976378
 30
0.0
 10
0.7519448818897638
 20
0.1016220472440945
 30
0.0
 10
0.7519448818897638
 20
0.1016220472440945
 30
0.0
 10
0.7519448818897638
 20
0.1016220472440945
 30
0.0
 10
0.7519448818897638
 20
0.1016220472440945
 30
0.0
 10
0.1076850393700787
 20
-0.2802992125984252
 30
0.0
 10
0.1076850393700787
 20
-0.2802992125984252
 30
0.0
 10
0.1076850393700787
 20
-0.2802992125984252
 30
0.0
 10
0.1076850393700787
 20
-0.2802992125984252
 30
0.0
 10
0.1347362204724409
 20
-0.2999330708661417
 30
0.0
 10
0.1347362204724409
 20
-0.2999330708661417
 30
0.0
  0
SPLINE
  5
3D
100
AcDbEntity
  8
P1-Layer 1
 62
     9
100
AcDbSpline
210
0.0
220
0.0
230
1.0
 70
     1
 71
     3
 72
    20
 73
    16
 74
     0
 42
0.0000000001
 43
0.0000000001
 40
0.0
 40
0.0
 40
0.0
 40
0.0
 40
0.25
 40
0.25
 40
0.25
 40
0.25
 40
0.5
 40
0.5
 40
0.5
 40
0.5
 40
0.75
 40
0.75
 40
0.75
 40
0.75
 40
1.0
 40
1.0
 40
1.0
 40
1.0
 10
0.1076850393700787
 20
-0.2802992125984252
 30
0.0
 10
0.1076850393700787
 20
-0.2802992125984252
 30
0.0
 10
0.7519448818897638
 20
0.1016220472440945
 30
0.0
 10
0.7519448818897638
 20
0.1016220472440945
 30
0.0
 10
0.7519448818897638
 20
0.1016220472440945
 30
0.0
 10
0.7519448818897638
 20
0.1016220472440945
 30
0.0
 10
0.724736220472441
 20
0.1210708661417323
 30
0.0
 10
0.724736220472441
 20
0.1210708661417323
 30
0.0
 10
0.724736220472441
 20
0.1210708661417323
 30
0.0
 10
0.724736220472441
 20
0.1210708661417323
 30
0.0
 10
0.0804763779527559
 20
-0.2608503937007874
 30
0.0
 10
0.0804763779527559
 20
-0.2608503937007874
 30
0.0
 10
0.0804763779527559
 20
-0.2608503937007874
 30
0.0
 10
0.0804763779527559
 20
-0.2608503937007874
 30
0.0
 10
0.1076850393700787
 20
-0.2802992125984252
 30
0.0
 10
0.1076850393700787
 20
-0.2802992125984252
 30
0.0
  0
SPLINE
  5
3E
100
AcDbEntity
  8
P1-Layer 1
 62
     9
100
AcDbSpline
210
0.0
220
0.0
230
1.0
 70
     1
 71
     3
 72
    20
 73
    16
 74
     0
 42
0.0000000001
 43
0.0000000001
 40
0.0
 40
0.0
 40
0.0
 40
0.0
 40
0.25
 40
0.25
 40
0.25
 40
0.25
 40
0.5
 40
0.5
 40
0.5
 40
0.5
 40
0.75
 40
0.75
 40
0.75
 40
0.75
 40
1.0
 40
1.0
 40
1.0
 40
1.0
 10
0.0804763779527559
 20
-0.2608503937007874
 30
0.0
 10
0.0804763779527559
 20
-0.2608503937007874
 30
0.0
 10
0.724736220472441
 20
0.1210708661417323
 30
0.0
 10
0.724736220472441
 20
0.1210708661417323
 30
0.0
 10
0.724736220472441
 20
0.1210708661417323
 30
0.0
 10
0.724736220472441
 20
0.1210708661417323
 30
0.0
 10
0.6993228346456694
 20
0.1405157480314961
 30
0.0
 10
0.6993228346456694
 20
0.1405157480314961
 30
0.0
 10
0.6993228346456694
 20
0.1405157480314961
 30
0.0
 10
0.6993228346456694
 20
0.1405157480314961
 30
0.0
 10
0.0550629921259843
 20
-0.2414055118110236
 30
0.0
 10
0.0550629921259843
 20
-0.2414055118110236
 30
0.0
 10
0.0550629921259843
 20
-0.2414055118110236
 30
0.0
 10
0.0550629921259843
 20
-0.2414055118110236
 30
0.0
 10
0.0804763779527559
 20
-0.2608503937007874
 30
0.0
 10
0.0804763779527559
 20
-0.2608503937007874
 30
0.0
  0
SPLINE
  5
3F
100
AcDbEntity
  8
P1-Layer 1
 62
     9
100
AcDbSpline
210
0.0
220
0.0
230
1.0
 70
     1
 71
     3
 72
    20
 73
    16
 74
     0
 42
0.0000000001
 43
0.0000000001
 40
0.0
 40
0.0
 40
0.0
 40
0.0
 40
0.25
 40
0.25
 40
0.25
 40
0.25
 40
0.5
 40
0.5
 40
0.5
 40
0.5
 40
0.75
 40
0.75
 40
0.75
 40
0.75
 40
1.0
 40
1.0
 40
1.0
 40
1.0
 10
0.0550629921259843
 20
-0.2414055118110236
 30
0.0
 10
0.0550629921259843
 20
-0.2414055118110236
 30
0.0
 10
0.6993228346456694
 20
0.1405157480314961
 30
0.0
 10
0.6993228346456694
 20
0.1405157480314961
 30
0.0
 10
0.6993228346456694
 20
0.1405157480314961
 30
0.0
 10
0.6993228346456694
 20
0.1405157480314961
 30
0.0
 10
0.6756377952755905
 20
0.1599527559055118
 30
0.0
 10
0.6756377952755905
 20
0.1599527559055118
 30
0.0
 10
0.6756377952755905
 20
0.1599527559055118
 30
0.0
 10
0.6756377952755905
 20
0.1599527559055118
 30
0.0
 10
0.0313779527559055
 20
-0.2219685039370079
 30
0.0
 10
0.0313779527559055
 20
-0.2219685039370079
 30
0.0
 10
0.0313779527559055
 20
-0.2219685039370079
 30
0.0
 10
0.0313779527559055
 20
-0.2219685039370079
 30
0.0
 10
0.0550629921259843
 20
-0.2414055118110236
 30
0.0
 10
0.0550629921259843
 20
-0.2414055118110236
 30
0.0
  0
SPLINE
  5
40
100
AcDbEntity
  8
P1-Layer 1
 62
     9
100
AcDbSpline
210
0.0
220
0.0
230
1.0
 70
     1
 71
     3
 72
    20
 73
    16
 74
     0
 42
0.0000000001
 43
0.0000000001
 40
0.0
 40
0.0
 40
0.0
 40
0.0
 40
0.25
 40
0.25
 40
0.25
 40
0.25
 40
0.5
 40
0.5
 40
0.5
 40
0.5
 40
0.75
 40
0.75
 40
0.75
 40
0.75
 40
1.0
 40
1.0
 40
1.0
 40
1.0
 10
0.0313779527559055
 20
-0.2219685039370079
 30
0.0
 10
0.0313779527559055
 20
-0.2219685039370079
 30
0.0
 10
0.6756377952755905
 20
0.1599527559055118
 30
0.0
 10
0.6756377952755905
 20
0.1599527559055118
 30
0.0
 10
0.6756377952755905
 20
0.1599527559055118
 30
0.0
 10
0.6756377952755905
 20
0.1599527559055118
 30
0.0
 10
0.6536259842519685
 20
0.1793503937007874
 30
0.0
 10
0.6536259842519685
 20
0.1793503937007874
 30
0.0
 10
0.6536259842519685
 20
0.1793503937007874
 30
0.0
 10
0.6536259842519685
 20
0.1793503937007874
 30
0.0
 10
0.0093661417322835
 20
-0.2025708661417323
 30
0.0
 10
0.0093661417322835
 20
-0.2025708661417323
 30
0.0
 10
0.0093661417322835
 20
-0.2025708661417323
 30
0.0
 10
0.0093661417322835
 20
-0.2025708661417323
 30
0.0
 10
0.0313779527559055
 20
-0.2219685039370079
 30
0.0
 10
0.0313779527559055
 20
-0.2219685039370079
 30
0.0
  0
SPLINE
  5
41
100
AcDbEntity
  8
P1-Layer 1
 62
     9
100
AcDbSpline
210
0.0
220
0.0
230
1.0
 70
     1
 71
     3
 72
    20
 73
    16
 74
     0
 42
0.0000000001
 43
0.0000000001
 40
0.0
 40
0.0
 40
0.0
 40
0.0
 40
0.25
 40
0.25
 40
0.25
 40
0.25
 40
0.5
 40
0.5
 40
0.5
 40
0.5
 40
0.75
 40
0.75
 40
0.75
 40
0.75
 40
1.0
 40
1.0
 40
1.0
 40
1.0
 10
0.0093661417322835
 20
-0.2025708661417323
 30
0.0
 10
0.0093661417322835
 20
-0.2025708661417323
 30
0.0
 10
0.6536259842519685
 20
0.1793503937007874
 30
0.0
 10
0.6536259842519685
 20
0.1793503937007874
 30
0.0
 10
0.6536259842519685
 20
0.1793503937007874
 30
0.0
 10
0.6536259842519685
 20
0.1793503937007874
 30
0.0
 10
0.633224409448819
 20
0.1987047244094488
 30
0.0
 10
0.633224409448819
 20
0.1987047244094488
 30
0.0
 10
0.633224409448819
 20
0.1987047244094488
 30
0.0
 10
0.633224409448819
 20
0.1987047244094488
 30
0.0
 10
-0.0110354330708661
 20
-0.1832165354330709
 30
0.0
 10
-0.0110354330708661
 20
-0.1832165354330709
 30
0.0
 10
-0.0110354330708661
 20
-0.1832165354330709
 30
0.0
 10
-0.0110354330708661
 20
-0.1832165354330709
 30
0.0
 10
0.0093661417322835
 20
-0.2025708661417323
 30
0.0
 10
0.0093661417322835
 20
-0.2025708661417323
 30
0.0
  0
SPLINE
  5
42
100
AcDbEntity
  8
P1-Layer 1
 62
     9
100
AcDbSpline
210
0.0
220
0.0
230
1.0
 70
     1
 71
     3
 72
    20
 73
    16
 74
     0
 42
0.0000000001
 43
0.0000000001
 40
0.0
 40
0.0
 40
0.0
 40
0.0
 40
0.25
 40
0.25
 40
0.25
 40
0.25
 40
0.5
 40
0.5
 40
0.5
 40
0.5
 40
0.75
 40
0.75
 40
0.75
 40
0.75
 40
1.0
 40
1.0
 40
1.0
 40
1.0
 10
-0.0110354330708661
 20
-0.1832165354330709
 30
0.0
 10
-0.0110354330708661
 20
-0.1832165354330709
 30
0.0
 10
0.633224409448819
 20
0.1987047244094488
 30
0.0
 10
0.633224409448819
 20
0.1987047244094488
 30
0.0
 10
0.633224409448819
 20
0.1987047244094488
 30
0.0
 10
0.633224409448819
 20
0.1987047244094488
 30
0.0
 10
0.6143622047244095
 20
0.2179803149606299
 30
0.0
 10
0.6143622047244095
 20
0.2179803149606299
 30
0.0
 10
0.6143622047244095
 20
0.2179803149606299
 30
0.0
 10
0.6143622047244095
 20
0.2179803149606299
 30
0.0
 10
-0.0298976377952756
 20
-0.1639409448818898
 30
0.0
 10
-0.0298976377952756
 20
-0.1639409448818898
 30
0.0
 10
-0.0298976377952756
 20
-0.1639409448818898
 30
0.0
 10
-0.0298976377952756
 20
-0.1639409448818898
 30
0.0
 10
-0.0110354330708661
 20
-0.1832165354330709
 30
0.0
 10
-0.0110354330708661
 20
-0.1832165354330709
 30
0.0
  0
SPLINE
  5
43
100
AcDbEntity
  8
P1-Layer 1
 62
     9
100
AcDbSpline
210
0.0
220
0.0
230
1.0
 70
     1
 71
     3
 72
    20
 73
    16
 74
     0
 42
0.0000000001
 43
0.0000000001
 40
0.0
 40
0.0
 40
0.0
 40
0.0
 40
0.25
 40
0.25
 40
0.25
 40
0.25
 40
0.5
 40
0.5
 40
0.5
 40
0.5
 40
0.75
 40
0.75
 40
0.75
 40
0.75
 40
1.0
 40
1.0
 40
1.0
 40
1.0
 10
-0.0298976377952756
 20
-0.1639409448818898
 30
0.0
 10
-0.0298976377952756
 20
-0.1639409448818898
 30
0.0
 10
0.6143622047244095
 20
0.2179803149606299
 30
0.0
 10
0.6143622047244095
 20
0.2179803149606299
 30
0.0
 10
0.6143622047244095
 20
0.2179803149606299
 30
0.0
 10
0.6143622047244095
 20
0.2179803149606299
 30
0.0
 10
0.596992125984252
 20
0.2371692913385827
 30
0.0
 10
0.596992125984252
 20
0.2371692913385827
 30
0.0
 10
0.596992125984252
 20
0.2371692913385827
 30
0.0
 10
0.596992125984252
 20
0.2371692913385827
 30
0.0
 10
-0.0472677165354331
 20
-0.144751968503937
 30
0.0
 10
-0.0472677165354331
 20
-0.144751968503937
 30
0.0
 10
-0.0472677165354331
 20
-0.144751968503937
 30
0.0
 10
-0.0472677165354331
 20
-0.144751968503937
 30
0.0
 10
-0.0298976377952756
 20
-0.1639409448818898
 30
0.0
 10
-0.0298976377952756
 20
-0.1639409448818898
 30
0.0
  0
SPLINE
  5
44
100
AcDbEntity
  8
P1-Layer 1
 62
     9
100
AcDbSpline
210
0.0
220
0.0
230
1.0
 70
     1
 71
     3
 72
    28
 73
    24
 74
     0
 42
0.0000000001
 43
0.0000000001
 40
0.0
 40
0.0
 40
0.0
 40
0.0
 40
0.1666666666666667
 40
0.1666666666666667
 40
0.1666666666666667
 40
0.1666666666666667
 40
0.3333333333333333
 40
0.3333333333333333
 40
0.3333333333333333
 40
0.3333333333333333
 40
0.5
 40
0.5
 40
0.5
 40
0.5
 40
0.6666666666666666
 40
0.6666666666666666
 40
0.6666666666666666
 40
0.6666666666666666
 40
0.8333333333333333
 40
0.8333333333333333
 40
0.8333333333333333
 40
0.8333333333333333
 40
1.0
 40
1.0
 40
1.0
 40
1.0
 10
-0.0472677165354331
 20
-0.144751968503937
 30
0.0
 10
-0.0472677165354331
 20
-0.144751968503937
 30
0.0
 10
0.596992125984252
 20
0.2371692913385827
 30
0.0
 10
0.596992125984252
 20
0.2371692913385827
 30
0.0
 10
0.596992125984252
 20
0.2371692913385827
 30
0.0
 10
0.596992125984252
 20
0.2371692913385827
 30
0.0
 10
0.5810433070866142
 20
0.256244094488189
 30
0.0
 10
0.5810433070866142
 20
0.256244094488189
 30
0.0
 10
0.5810433070866142
 20
0.256244094488189
 30
0.0
 10
0.5810433070866142
 20
0.256244094488189
 30
0.0
 10
0.5664724409448819
 20
0.2752007874015748
 30
0.0
 10
0.5664724409448819
 20
0.2752007874015748
 30
0.0
 10
0.5664724409448819
 20
0.2752007874015748
 30
0.0
 10
0.5664724409448819
 20
0.2752007874015748
 30
0.0
 10
-0.0777874015748032
 20
-0.1067204724409449
 30
0.0
 10
-0.0777874015748032
 20
-0.1067204724409449
 30
0.0
 10
-0.0777874015748032
 20
-0.1067204724409449
 30
0.0
 10
-0.0777874015748032
 20
-0.1067204724409449
 30
0.0
 10
-0.0632165354330709
 20
-0.1256771653543307
 30
0.0
 10
-0.0632165354330709
 20
-0.1256771653543307
 30
0.0
 10
-0.0632165354330709
 20
-0.1256771653543307
 30
0.0
 10
-0.0632165354330709
 20
-0.1256771653543307
 30
0.0
 10
-0.0472677165354331
 20
-0.144751968503937
 30
0.0
 10
-0.0472677165354331
 20
-0.144751968503937
 30
0.0
  0
SPLINE
  5
45
100
AcDbEntity
  8
P1-Layer 1
 62
     9
100
AcDbSpline
210
0.0
220
0.0
230
1.0
 70
     1
 71
     3
 72
    28
 73
    24
 74
     0
 42
0.0000000001
 43
0.0000000001
 40
0.0
 40
0.0
 40
0.0
 40
0.0
 40
0.1666666666666667
 40
0.1666666666666667
 40
0.1666666666666667
 40
0.1666666666666667
 40
0.3333333333333333
 40
0.3333333333333333
 40
0.3333333333333333
 40
0.3333333333333333
 40
0.5
 40
0.5
 40
0.5
 40
0.5
 40
0.6666666666666666
 40
0.6666666666666666
 40
0.6666666666666666
 40
0.6666666666666666
 40
0.8333333333333333
 40
0.8333333333333333
 40
0.8333333333333333
 40
0.8333333333333333
 40
1.0
 40
1.0
 40
1.0
 40
1.0
 10
-0.0777874015748032
 20
-0.1067204724409449
 30
0.0
 10
-0.0777874015748032
 20
-0.1067204724409449
 30
0.0
 10
0.5664724409448819
 20
0.2752007874015748
 30
0.0
 10
0.5664724409448819
 20
0.2752007874015748
 30
0.0
 10
0.5664724409448819
 20
0.2752007874015748
 30
0.0
 10
0.5664724409448819
 20
0.2752007874015748
 30
0.0
 10
0.5532047244094488
 20
0.294003937007874
 30
0.0
 10
0.5532047244094488
 20
0.294003937007874
 30
0.0
 10
0.5532047244094488
 20
0.294003937007874
 30
0.0
 10
0.5532047244094488
 20
0.294003937007874
 30
0.0
 10
0.5411850393700788
 20
0.3126417322834646
 30
0.0
 10
0.5411850393700788
 20
0.3126417322834646
 30
0.0
 10
0.5411850393700788
 20
0.3126417322834646
 30
0.0
 10
0.5411850393700788
 20
0.3126417322834646
 30
0.0
 10
-0.1030748031496063
 20
-0.0692795275590551
 30
0.0
 10
-0.1030748031496063
 20
-0.0692795275590551
 30
0.0
 10
-0.1030748031496063
 20
-0.0692795275590551
 30
0.0
 10
-0.1030748031496063
 20
-0.0692795275590551
 30
0.0
 10
-0.0910551181102362
 20
-0.0879173228346457
 30
0.0
 10
-0.0910551181102362
 20
-0.0879173228346457
 30
0.0
 10
-0.0910551181102362
 20
-0.0879173228346457
 30
0.0
 10
-0.0910551181102362
 20
-0.0879173228346457
 30
0.0
 10
-0.0777874015748032
 20
-0.1067204724409449
 30
0.0
 10
-0.0777874015748032
 20
-0.1067204724409449
 30
0.0
  0
SPLINE
  5
46
100
AcDbEntity
  8
P1-Layer 1
 62
     9
100
AcDbSpline
210
0.0
220
0.0
230
1.0
 70
     1
 71
     3
 72
    28
 73
    24
 74
     0
 42
0.0000000001
 43
0.0000000001
 40
0.0
 40
0.0
 40
0.0
 40
0.0
 40
0.1666666666666667
 40
0.1666666666666667
 40
0.1666666666666667
 40
0.1666666666666667
 40
0.3333333333333333
 40
0.3333333333333333
 40
0.3333333333333333
 40
0.3333333333333333
 40
0.5
 40
0.5
 40
0.5
 40
0.5
 40
0.6666666666666666
 40
0.6666666666666666
 40
0.6666666666666666
 40
0.6666666666666666
 40
0.8333333333333333
 40
0.8333333333333333
 40
0.8333333333333333
 40
0.8333333333333333
 40
1.0
 40
1.0
 40
1.0
 40
1.0
 10
-0.1030748031496063
 20
-0.0692795275590551
 30
0.0
 10
-0.1030748031496063
 20
-0.0692795275590551
 30
0.0
 10
0.5411850393700788
 20
0.3126417322834646
 30
0.0
 10
0.5411850393700788
 20
0.3126417322834646
 30
0.0
 10
0.5411850393700788
 20
0.3126417322834646
 30
0.0
 10
0.5411850393700788
 20
0.3126417322834646
 30
0.0
 10
0.5303503937007874
 20
0.3310905511811024
 30
0.0
 10
0.5303503937007874
 20
0.3310905511811024
 30
0.0
 10
0.5303503937007874
 20
0.3310905511811024
 30
0.0
 10
0.5303503937007874
 20
0.3310905511811024
 30
0.0
 10
0.5206496062992126
 20
0.3493425196850394
 30
0.0
 10
0.5206496062992126
 20
0.3493425196850394
 30
0.0
 10
0.5206496062992126
 20
0.3493425196850394
 30
0.0
 10
0.5206496062992126
 20
0.3493425196850394
 30
0.0
 10
-0.1236102362204724
 20
-0.0325787401574803
 30
0.0
 10
-0.1236102362204724
 20
-0.0325787401574803
 30
0.0
 10
-0.1236102362204724
 20
-0.0325787401574803
 30
0.0
 10
-0.1236102362204724
 20
-0.0325787401574803
 30
0.0
 10
-0.1139094488188976
 20
-0.0508307086614173
 30
0.0
 10
-0.1139094488188976
 20
-0.0508307086614173
 30
0.0
 10
-0.1139094488188976
 20
-0.0508307086614173
 30
0.0
 10
-0.1139094488188976
 20
-0.0508307086614173
 30
0.0
 10
-0.1030748031496063
 20
-0.0692795275590551
 30
0.0
 10
-0.1030748031496063
 20
-0.0692795275590551
 30
0.0
  0
SPLINE
  5
47
100
AcDbEntity
  8
P1-Layer 1
 62
     9
100
AcDbSpline
210
0.0
220
0.0
230
1.0
 70
     1
 71
     3
 72
    28
 73
    24
 74
     0
 42
0.0000000001
 43
0.0000000001
 40
0.0
 40
0.0
 40
0.0
 40
0.0
 40
0.1666666666666667
 40
0.1666666666666667
 40
0.1666666666666667
 40
0.1666666666666667
 40
0.3333333333333333
 40
0.3333333333333333
 40
0.3333333333333333
 40
0.3333333333333333
 40
0.5
 40
0.5
 40
0.5
 40
0.5
 40
0.6666666666666666
 40
0.6666666666666666
 40
0.6666666666666666
 40
0.6666666666666666
 40
0.8333333333333333
 40
0.8333333333333333
 40
0.8333333333333333
 40
0.8333333333333333
 40
1.0
 40
1.0
 40
1.0
 40
1.0
 10
-0.1236102362204724
 20
-0.0325787401574803
 30
0.0
 10
-0.1236102362204724
 20
-0.0325787401574803
 30
0.0
 10
0.5206496062992126
 20
0.3493425196850394
 30
0.0
 10
0.5206496062992126
 20
0.3493425196850394
 30
0.0
 10
0.5206496062992126
 20
0.3493425196850394
 30
0.0
 10
0.5206496062992126
 20
0.3493425196850394
 30
0.0
 10
0.5120078740157481
 20
0.3673622047244095
 30
0.0
 10
0.5120078740157481
 20
0.3673622047244095
 30
0.0
 10
0.5120078740157481
 20
0.3673622047244095
 30
0.0
 10
0.5120078740157481
 20
0.3673622047244095
 30
0.0
 10
0.5043779527559056
 20
0.3851417322834646
 30
0.0
 10
0.5043779527559056
 20
0.3851417322834646
 30
0.0
 10
0.5043779527559056
 20
0.3851417322834646
 30
0.0
 10
0.5043779527559056
 20
0.3851417322834646
 30
0.0
 10
-0.1398818897637795
 20
0.0032204724409449
 30
0.0
 10
-0.1398818897637795
 20
0.0032204724409449
 30
0.0
 10
-0.1398818897637795
 20
0.0032204724409449
 30
0.0
 10
-0.1398818897637795
 20
0.0032204724409449
 30
0.0
 10
-0.132251968503937
 20
-0.0145590551181102
 30
0.0
 10
-0.132251968503937
 20
-0.0145590551181102
 30
0.0
 10
-0.132251968503937
 20
-0.0145590551181102
 30
0.0
 10
-0.132251968503937
 20
-0.0145590551181102
 30
0.0
 10
-0.1236102362204724
 20
-0.0325787401574803
 30
0.0
 10
-0.1236102362204724
 20
-0.0325787401574803
 30
0.0
  0
SPLINE
  5
48
100
AcDbEntity
  8
P1-Layer 1
 62
     9
100
AcDbSpline
210
0.0
220
0.0
230
1.0
 70
     1
 71
     3
 72
    28
 73
    24
 74
     0
 42
0.0000000001
 43
0.0000000001
 40
0.0
 40
0.0
 40
0.0
 40
0.0
 40
0.1666666666666667
 40
0.1666666666666667
 40
0.1666666666666667
 40
0.1666666666666667
 40
0.3333333333333333
 40
0.3333333333333333
 40
0.3333333333333333
 40
0.3333333333333333
 40
0.5
 40
0.5
 40
0.5
 40
0.5
 40
0.6666666666666666
 40
0.6666666666666666
 40
0.6666666666666666
 40
0.6666666666666666
 40
0.8333333333333333
 40
0.8333333333333333
 40
0.8333333333333333
 40
0.8333333333333333
 40
1.0
 40
1.0
 40
1.0
 40
1.0
 10
-0.1398818897637795
 20
0.0032204724409449
 30
0.0
 10
-0.1398818897637795
 20
0.0032204724409449
 30
0.0
 10
0.5043779527559056
 20
0.3851417322834646
 30
0.0
 10
0.5043779527559056
 20
0.3851417322834646
 30
0.0
 10
0.5043779527559056
 20
0.3851417322834646
 30
0.0
 10
0.5043779527559056
 20
0.3851417322834646
 30
0.0
 10
0.4976850393700787
 20
0.4026653543307087
 30
0.0
 10
0.4976850393700787
 20
0.4026653543307087
 30
0.0
 10
0.4976850393700787
 20
0.4026653543307087
 30
0.0
 10
0.4976850393700787
 20
0.4026653543307087
 30
0.0
 10
0.4918897637795276
 20
0.4199055118110237
 30
0.0
 10
0.4918897637795276
 20
0.4199055118110237
 30
0.0
 10
0.4918897637795276
 20
0.4199055118110237
 30
0.0
 10
0.4918897637795276
 20
0.4199055118110237
 30
0.0
 10
-0.1523700787401575
 20
0.0379842519685039
 30
0.0
 10
-0.1523700787401575
 20
0.0379842519685039
 30
0.0
 10
-0.1523700787401575
 20
0.0379842519685039
 30
0.0
 10
-0.1523700787401575
 20
0.0379842519685039
 30
0.0
 10
-0.1465748031496063
 20
0.020744094488189
 30
0.0
 10
-0.1465748031496063
 20
0.020744094488189
 30
0.0
 10
-0.1465748031496063
 20
0.020744094488189
 30
0.0
 10
-0.1465748031496063
 20
0.020744094488189
 30
0.0
 10
-0.1398818897637795
 20
0.0032204724409449
 30
0.0
 10
-0.1398818897637795
 20
0.0032204724409449
 30
0.0
  0
SPLINE
  5
49
100
AcDbEntity
  8
P1-Layer 1
 62
     9
100
AcDbSpline
210
0.0
220
0.0
230
1.0
 70
     1
 71
     3
 72
    28
 73
    24
 74
     0
 42
0.0000000001
 43
0.0000000001
 40
0.0
 40
0.0
 40
0.0
 40
0.0
 40
0.1666666666666667
 40
0.1666666666666667
 40
0.1666666666666667
 40
0.1666666666666667
 40
0.3333333333333333
 40
0.3333333333333333
 40
0.3333333333333333
 40
0.3333333333333333
 40
0.5
 40
0.5
 40
0.5
 40
0.5
 40
0.6666666666666666
 40
0.6666666666666666
 40
0.6666666666666666
 40
0.6666666666666666
 40
0.8333333333333333
 40
0.8333333333333333
 40
0.8333333333333333
 40
0.8333333333333333
 40
1.0
 40
1.0
 40
1.0
 40
1.0
 10
-0.1523700787401575
 20
0.0379842519685039
 30
0.0
 10
-0.1523700787401575
 20
0.0379842519685039
 30
0.0
 10
0.4918897637795276
 20
0.4199055118110237
 30
0.0
 10
0.4918897637795276
 20
0.4199055118110237
 30
0.0
 10
0.4918897637795276
 20
0.4199055118110237
 30
0.0
 10
0.4918897637795276
 20
0.4199055118110237
 30
0.0
 10
0.4869173228346457
 20
0.4368503937007874
 30
0.0
 10
0.4869173228346457
 20
0.4368503937007874
 30
0.0
 10
0.4869173228346457
 20
0.4368503937007874
 30
0.0
 10
0.4869173228346457
 20
0.4368503937007874
 30
0.0
 10
0.4827165354330709
 20
0.4534724409448819
 30
0.0
 10
0.4827165354330709
 20
0.4534724409448819
 30
0.0
 10
0.4827165354330709
 20
0.4534724409448819
 30
0.0
 10
0.4827165354330709
 20
0.4534724409448819
 30
0.0
 10
-0.1615433070866142
 20
0.0715511811023622
 30
0.0
 10
-0.1615433070866142
 20
0.0715511811023622
 30
0.0
 10
-0.1615433070866142
 20
0.0715511811023622
 30
0.0
 10
-0.1615433070866142
 20
0.0715511811023622
 30
0.0
 10
-0.1573425196850394
 20
0.0549291338582677
 30
0.0
 10
-0.1573425196850394
 20
0.0549291338582677
 30
0.0
 10
-0.1573425196850394
 20
0.0549291338582677
 30
0.0
 10
-0.1573425196850394
 20
0.0549291338582677
 30
0.0
 10
-0.1523700787401575
 20
0.0379842519685039
 30
0.0
 10
-0.1523700787401575
 20
0.0379842519685039
 30
0.0
  0
SPLINE
  5
4A
100
AcDbEntity
  8
P1-Layer 1
 62
     9
100
AcDbSpline
210
0.0
220
0.0
230
1.0
 70
     1
 71
     3
 72
    36
 73
    32
 74
     0
 42
0.0000000001
 43
0.0000000001
 40
0.0
 40
0.0
 40
0.0
 40
0.0
 40
0.125
 40
0.125
 40
0.125
 40
0.125
 40
0.25
 40
0.25
 40
0.25
 40
0.25
 40
0.375
 40
0.375
 40
0.375
 40
0.375
 40
0.5
 40
0.5
 40
0.5
 40
0.5
 40
0.625
 40
0.625
 40
0.625
 40
0.625
 40
0.75
 40
0.75
 40
0.75
 40
0.75
 40
0.875
 40
0.875
 40
0.875
 40
0.875
 40
1.0
 40
1.0
 40
1.0
 40
1.0
 10
-0.1615433070866142
 20
0.0715511811023622
 30
0.0
 10
-0.1615433070866142
 20
0.0715511811023622
 30
0.0
 10
0.4827165354330709
 20
0.4534724409448819
 30
0.0
 10
0.4827165354330709
 20
0.4534724409448819
 30
0.0
 10
0.4827165354330709
 20
0.4534724409448819
 30
0.0
 10
0.4827165354330709
 20
0.4534724409448819
 30
0.0
 10
0.4792086614173229
 20
0.4697677165354331
 30
0.0
 10
0.4792086614173229
 20
0.4697677165354331
 30
0.0
 10
0.4792086614173229
 20
0.4697677165354331
 30
0.0
 10
0.4792086614173229
 20
0.4697677165354331
 30
0.0
 10
0.4763582677165354
 20
0.4857007874015748
 30
0.0
 10
0.4763582677165354
 20
0.4857007874015748
 30
0.0
 10
0.4763582677165354
 20
0.4857007874015748
 30
0.0
 10
0.4763582677165354
 20
0.4857007874015748
 30
0.0
 10
0.4740866141732283
 20
0.5012637795275591
 30
0.0
 10
0.4740866141732283
 20
0.5012637795275591
 30
0.0
 10
0.4740866141732283
 20
0.5012637795275591
 30
0.0
 10
0.4740866141732283
 20
0.5012637795275591
 30
0.0
 10
-0.1701732283464567
 20
0.1193425196850394
 30
0.0
 10
-0.1701732283464567
 20
0.1193425196850394
 30
0.0
 10
-0.1701732283464567
 20
0.1193425196850394
 30
0.0
 10
-0.1701732283464567
 20
0.1193425196850394
 30
0.0
 10
-0.1679015748031496
 20
0.1037795275590551
 30
0.0
 10
-0.1679015748031496
 20
0.1037795275590551
 30
0.0
 10
-0.1679015748031496
 20
0.1037795275590551
 30
0.0
 10
-0.1679015748031496
 20
0.1037795275590551
 30
0.0
 10
-0.1650511811023622
 20
0.0878464566929134
 30
0.0
 10
-0.1650511811023622
 20
0.0878464566929134
 30
0.0
 10
-0.1650511811023622
 20
0.0878464566929134
 30
0.0
 10
-0.1650511811023622
 20
0.0878464566929134
 30
0.0
 10
-0.1615433070866142
 20
0.0715511811023622
 30
0.0
 10
-0.1615433070866142
 20
0.0715511811023622
 30
0.0
  0
SPLINE
  5
4B
100
AcDbEntity
  8
P1-Layer 1
 62
     9
100
AcDbSpline
210
0.0
220
0.0
230
1.0
 70
     1
 71
     3
 72
    36
 73
    32
 74
     0
 42
0.0000000001
 43
0.0000000001
 40
0.0
 40
0.0
 40
0.0
 40
0.0
 40
0.125
 40
0.125
 40
0.125
 40
0.125
 40
0.25
 40
0.25
 40
0.25
 40
0.25
 40
0.375
 40
0.375
 40
0.375
 40
0.375
 40
0.5
 40
0.5
 40
0.5
 40
0.5
 40
0.625
 40
0.625
 40
0.625
 40
0.625
 40
0.75
 40
0.75
 40
0.75
 40
0.75
 40
0.875
 40
0.875
 40
0.875
 40
0.875
 40
1.0
 40
1.0
 40
1.0
 40
1.0
 10
-0.1701732283464567
 20
0.1193425196850394
 30
0.0
 10
-0.1701732283464567
 20
0.1193425196850394
 30
0.0
 10
0.4740866141732283
 20
0.5012637795275591
 30
0.0
 10
0.4740866141732283
 20
0.5012637795275591
 30
0.0
 10
0.4740866141732283
 20
0.5012637795275591
 30
0.0
 10
0.4740866141732283
 20
0.5012637795275591
 30
0.0
 10
0.4723425196850394
 20
0.5164291338582677
 30
0.0
 10
0.4723425196850394
 20
0.5164291338582677
 30
0.0
 10
0.4723425196850394
 20
0.5164291338582677
 30
0.0
 10
0.4723425196850394
 20
0.5164291338582677
 30
0.0
 10
0.4710551181102363
 20
0.5311889763779528
 30
0.0
 10
0.4710551181102363
 20
0.5311889763779528
 30
0.0
 10
0.4710551181102363
 20
0.5311889763779528
 30
0.0
 10
0.4710551181102363
 20
0.5311889763779528
 30
0.0
 10
0.4701850393700788
 20
0.5455078740157481
 30
0.0
 10
0.4701850393700788
 20
0.5455078740157481
 30
0.0
 10
0.4701850393700788
 20
0.5455078740157481
 30
0.0
 10
0.4701850393700788
 20
0.5455078740157481
 30
0.0
 10
-0.1740748031496063
 20
0.1635866141732283
 30
0.0
 10
-0.1740748031496063
 20
0.1635866141732283
 30
0.0
 10
-0.1740748031496063
 20
0.1635866141732283
 30
0.0
 10
-0.1740748031496063
 20
0.1635866141732283
 30
0.0
 10
-0.1732047244094488
 20
0.1492677165354331
 30
0.0
 10
-0.1732047244094488
 20
0.1492677165354331
 30
0.0
 10
-0.1732047244094488
 20
0.1492677165354331
 30
0.0
 10
-0.1732047244094488
 20
0.1492677165354331
 30
0.0
 10
-0.1719173228346457
 20
0.134507874015748
 30
0.0
 10
-0.1719173228346457
 20
0.134507874015748
 30
0.0
 10
-0.1719173228346457
 20
0.134507874015748
 30
0.0
 10
-0.1719173228346457
 20
0.134507874015748
 30
0.0
 10
-0.1701732283464567
 20
0.1193425196850394
 30
0.0
 10
-0.1701732283464567
 20
0.1193425196850394
 30
0.0
  0
SPLINE
  5
4C
100
AcDbEntity
  8
P1-Layer 1
 62
     9
100
AcDbSpline
210
0.0
220
0.0
230
1.0
 70
     1
 71
     3
 72
    36
 73
    32
 74
     0
 42
0.0000000001
 43
0.0000000001
 40
0.0
 40
0.0
 40
0.0
 40
0.0
 40
0.125
 40
0.125
 40
0.125
 40
0.125
 40
0.25
 40
0.25
 40
0.25
 40
0.25
 40
0.375
 40
0.375
 40
0.375
 40
0.375
 40
0.5
 40
0.5
 40
0.5
 40
0.5
 40
0.625
 40
0.625
 40
0.625
 40
0.625
 40
0.75
 40
0.75
 40
0.75
 40
0.75
 40
0.875
 40
0.875
 40
0.875
 40
0.875
 40
1.0
 40
1.0
 40
1.0
 40
1.0
 10
-0.1740748031496063
 20
0.1635866141732283
 30
0.0
 10
-0.1740748031496063
 20
0.1635866141732283
 30
0.0
 10
0.4701850393700788
 20
0.5455078740157481
 30
0.0
 10
0.4701850393700788
 20
0.5455078740157481
 30
0.0
 10
0.4701850393700788
 20
0.5455078740157481
 30
0.0
 10
0.4701850393700788
 20
0.5455078740157481
 30
0.0
 10
0.4696535433070866
 20
0.5593818897637796
 30
0.0
 10
0.4696535433070866
 20
0.5593818897637796
 30
0.0
 10
0.4696535433070866
 20
0.5593818897637796
 30
0.0
 10
0.4696535433070866
 20
0.5593818897637796
 30
0.0
 10
0.4694094488188977
 20
0.5727874015748031
 30
0.0
 10
0.4694094488188977
 20
0.5727874015748031
 30
0.0
 10
0.4694094488188977
 20
0.5727874015748031
 30
0.0
 10
0.4694094488188977
 20
0.5727874015748031
 30
0.0
 10
0.4693858267716536
 20
0.5857086614173228
 30
0.0
 10
0.4693858267716536
 20
0.5857086614173228
 30
0.0
 10
0.4693858267716536
 20
0.5857086614173228
 30
0.0
 10
0.4693858267716536
 20
0.5857086614173228
 30
0.0
 10
-0.1748740157480315
 20
0.2037874015748032
 30
0.0
 10
-0.1748740157480315
 20
0.2037874015748032
 30
0.0
 10
-0.1748740157480315
 20
0.2037874015748032
 30
0.0
 10
-0.1748740157480315
 20
0.2037874015748032
 30
0.0
 10
-0.1748503937007874
 20
0.1908661417322835
 30
0.0
 10
-0.1748503937007874
 20
0.1908661417322835
 30
0.0
 10
-0.1748503937007874
 20
0.1908661417322835
 30
0.0
 10
-0.1748503937007874
 20
0.1908661417322835
 30
0.0
 10
-0.1746062992125984
 20
0.1774606299212599
 30
0.0
 10
-0.1746062992125984
 20
0.1774606299212599
 30
0.0
 10
-0.1746062992125984
 20
0.1774606299212599
 30
0.0
 10
-0.1746062992125984
 20
0.1774606299212599
 30
0.0
 10
-0.1740748031496063
 20
0.1635866141732283
 30
0.0
 10
-0.1740748031496063
 20
0.1635866141732283
 30
0.0
  0
SPLINE
  5
4D
100
AcDbEntity
  8
P1-Layer 1
 62
     9
100
AcDbSpline
210
0.0
220
0.0
230
1.0
 70
     1
 71
     3
 72
    44
 73
    40
 74
     0
 42
0.0000000001
 43
0.0000000001
 40
0.0
 40
0.0
 40
0.0
 40
0.0
 40
0.1
 40
0.1
 40
0.1
 40
0.1
 40
0.2
 40
0.2
 40
0.2
 40
0.2
 40
0.3
 40
0.3
 40
0.3
 40
0.3
 40
0.4
 40
0.4
 40
0.4
 40
0.4
 40
0.5
 40
0.5
 40
0.5
 40
0.5
 40
0.6
 40
0.6
 40
0.6
 40
0.6
 40
0.7
 40
0.7
 40
0.7
 40
0.7
 40
0.7999999999999999
 40
0.7999999999999999
 40
0.7999999999999999
 40
0.7999999999999999
 40
0.8999999999999999
 40
0.8999999999999999
 40
0.8999999999999999
 40
0.8999999999999999
 40
1.0
 40
1.0
 40
1.0
 40
1.0
 10
-0.1748740157480315
 20
0.2037874015748032
 30
0.0
 10
-0.1748740157480315
 20
0.2037874015748032
 30
0.0
 10
0.4693858267716536
 20
0.5857086614173228
 30
0.0
 10
0.4693858267716536
 20
0.5857086614173228
 30
0.0
 10
0.4693858267716536
 20
0.5857086614173228
 30
0.0
 10
0.4693858267716536
 20
0.5857086614173228
 30
0.0
 10
0.4695314960629922
 20
0.5981141732283465
 30
0.0
 10
0.4695314960629922
 20
0.5981141732283465
 30
0.0
 10
0.4695314960629922
 20
0.5981141732283465
 30
0.0
 10
0.4695314960629922
 20
0.5981141732283465
 30
0.0
 10
0.4697795275590551
 20
0.610003937007874
 30
0.0
 10
0.4697795275590551
 20
0.610003937007874
 30
0.0
 10
0.4697795275590551
 20
0.610003937007874
 30
0.0
 10
0.4697795275590551
 20
0.610003937007874
 30
0.0
 10
0.4700708661417323
 20
0.6213425196850394
 30
0.0
 10
0.4700708661417323
 20
0.6213425196850394
 30
0.0
 10
0.4700708661417323
 20
0.6213425196850394
 30
0.0
 10
0.4700708661417323
 20
0.6213425196850394
 30
0.0
 10
0.4703385826771654
 20
0.6321220472440945
 30
0.0
 10
0.4703385826771654
 20
0.6321220472440945
 30
0.0
 10
0.4703385826771654
 20
0.6321220472440945
 30
0.0
 10
0.4703385826771654
 20
0.6321220472440945
 30
0.0
 10
-0.1739212598425197
 20
0.2502007874015748
 30
0.0
 10
-0.1739212598425197
 20
0.2502007874015748
 30
0.0
 10
-0.1739212598425197
 20
0.2502007874015748
 30
0.0
 10
-0.1739212598425197
 20
0.2502007874015748
 30
0.0
 10
-0.1741889763779528
 20
0.2394212598425197
 30
0.0
 10
-0.1741889763779528
 20
0.2394212598425197
 30
0.0
 10
-0.1741889763779528
 20
0.2394212598425197
 30
0.0
 10
-0.1741889763779528
 20
0.2394212598425197
 30
0.0
 10
-0.1744803149606299
 20
0.2280826771653544
 30
0.0
 10
-0.1744803149606299
 20
0.2280826771653544
 30
0.0
 10
-0.1744803149606299
 20
0.2280826771653544
 30
0.0
 10
-0.1744803149606299
 20
0.2280826771653544
 30
0.0
 10
-0.1747283464566929
 20
0.2161929133858268
 30
0.0
 10
-0.1747283464566929
 20
0.2161929133858268
 30
0.0
 10
-0.1747283464566929
 20
0.2161929133858268
 30
0.0
 10
-0.1747283464566929
 20
0.2161929133858268
 30
0.0
 10
-0.1748740157480315
 20
0.2037874015748032
 30
0.0
 10
-0.1748740157480315
 20
0.2037874015748032
 30
0.0
  0
SPLINE
  5
4E
100
AcDbEntity
  8
P1-Layer 1
370
     5
100
AcDbSpline
210
0.0
220
0.0
230
1.0
 70
     1
 71
     3
 72
   476
 73
   472
 74
     0
 42
0.0000000001
 43
0.0000000001
 40
0.0
 40
0.0
 40
0.0
 40
0.0
 40
0.0084745762711864
 40
0.0084745762711864
 40
0.0084745762711864
 40
0.0084745762711864
 40
0.0169491525423729
 40
0.0169491525423729
 40
0.0169491525423729
 40
0.0169491525423729
 40
0.0254237288135593
 40
0.0254237288135593
 40
0.0254237288135593
 40
0.0254237288135593
 40
0.0338983050847458
 40
0.0338983050847458
 40
0.0338983050847458
 40
0.0338983050847458
 40
0.0423728813559322
 40
0.0423728813559322
 40
0.0423728813559322
 40
0.0423728813559322
 40
0.0508474576271186
 40
0.0508474576271186
 40
0.0508474576271186
 40
0.0508474576271186
 40
0.0593220338983051
 40
0.0593220338983051
 40
0.0593220338983051
 40
0.0593220338983051
 40
0.0677966101694915
 40
0.0677966101694915
 40
0.0677966101694915
 40
0.0677966101694915
 40
0.076271186440678
 40
0.076271186440678
 40
0.076271186440678
 40
0.076271186440678
 40
0.0847457627118644
 40
0.0847457627118644
 40
0.0847457627118644
 40
0.0847457627118644
 40
0.0932203389830509
 40
0.0932203389830509
 40
0.0932203389830509
 40
0.0932203389830509
 40
0.1016949152542373
 40
0.1016949152542373
 40
0.1016949152542373
 40
0.1016949152542373
 40
0.1101694915254238
 40
0.1101694915254238
 40
0.1101694915254238
 40
0.1101694915254238
 40
0.1186440677966102
 40
0.1186440677966102
 40
0.1186440677966102
 40
0.1186440677966102
 40
0.1271186440677966
 40
0.1271186440677966
 40
0.1271186440677966
 40
0.1271186440677966
 40
0.1355932203389831
 40
0.1355932203389831
 40
0.1355932203389831
 40
0.1355932203389831
 40
0.1440677966101695
 40
0.1440677966101695
 40
0.1440677966101695
 40
0.1440677966101695
 40
0.152542372881356
 40
0.152542372881356
 40
0.152542372881356
 40
0.152542372881356
 40
0.1610169491525424
 40
0.1610169491525424
 40
0.1610169491525424
 40
0.1610169491525424
 40
0.1694915254237289
 40
0.1694915254237289
 40
0.1694915254237289
 40
0.1694915254237289
 40
0.1779661016949153
 40
0.1779661016949153
 40
0.1779661016949153
 40
0.1779661016949153
 40
0.1864406779661018
 40
0.1864406779661018
 40
0.1864406779661018
 40
0.1864406779661018
 40
0.1949152542372882
 40
0.1949152542372882
 40
0.1949152542372882
 40
0.1949152542372882
 40
0.2033898305084746
 40
0.2033898305084746
 40
0.2033898305084746
 40
0.2033898305084746
 40
0.2118644067796611
 40
0.2118644067796611
 40
0.2118644067796611
 40
0.2118644067796611
 40
0.2203389830508475
 40
0.2203389830508475
 40
0.2203389830508475
 40
0.2203389830508475
 40
0.228813559322034
 40
0.228813559322034
 40
0.228813559322034
 40
0.228813559322034
 40
0.2372881355932204
 40
0.2372881355932204
 40
0.2372881355932204
 40
0.2372881355932204
 40
0.2457627118644069
 40
0.2457627118644069
 40
0.2457627118644069
 40
0.2457627118644069
 40
0.2542372881355933
 40
0.2542372881355933
 40
0.2542372881355933
 40
0.2542372881355933
 40
0.2627118644067797
 40
0.2627118644067797
 40
0.2627118644067797
 40
0.2627118644067797
 40
0.2711864406779662
 40
0.2711864406779662
 40
0.2711864406779662
 40
0.2711864406779662
 40
0.2796610169491526
 40
0.2796610169491526
 40
0.2796610169491526
 40
0.2796610169491526
 40
0.288135593220339
 40
0.288135593220339
 40
0.288135593220339
 40
0.288135593220339
 40
0.2966101694915254
 40
0.2966101694915254
 40
0.2966101694915254
 40
0.2966101694915254
 40
0.3050847457627118
 40
0.3050847457627118
 40
0.3050847457627118
 40
0.3050847457627118
 40
0.3135593220338983
 40
0.3135593220338983
 40
0.3135593220338983
 40
0.3135593220338983
 40
0.3220338983050847
 40
0.3220338983050847
 40
0.3220338983050847
 40
0.3220338983050847
 40
0.3305084745762711
 40
0.3305084745762711
 40
0.3305084745762711
 40
0.3305084745762711
 40
0.3389830508474575
 40
0.3389830508474575
 40
0.3389830508474575
 40
0.3389830508474575
 40
0.3474576271186439
 40
0.3474576271186439
 40
0.3474576271186439
 40
0.3474576271186439
 40
0.3559322033898303
 40
0.3559322033898303
 40
0.3559322033898303
 40
0.3559322033898303
 40
0.3644067796610168
 40
0.3644067796610168
 40
0.3644067796610168
 40
0.3644067796610168
 40
0.3728813559322032
 40
0.3728813559322032
 40
0.3728813559322032
 40
0.3728813559322032
 40
0.3813559322033896
 40
0.3813559322033896
 40
0.3813559322033896
 40
0.3813559322033896
 40
0.389830508474576
 40
0.389830508474576
 40
0.389830508474576
 40
0.389830508474576
 40
0.3983050847457624
 40
0.3983050847457624
 40
0.3983050847457624
 40
0.3983050847457624
 40
0.4067796610169489
 40
0.4067796610169489
 40
0.4067796610169489
 40
0.4067796610169489
 40
0.4152542372881353
 40
0.4152542372881353
 40
0.4152542372881353
 40
0.4152542372881353
 40
0.4237288135593217
 40
0.4237288135593217
 40
0.4237288135593217
 40
0.4237288135593217
 40
0.4322033898305081
 40
0.4322033898305081
 40
0.4322033898305081
 40
0.4322033898305081
 40
0.4406779661016945
 40
0.4406779661016945
 40
0.4406779661016945
 40
0.4406779661016945
 40
0.4491525423728809
 40
0.4491525423728809
 40
0.4491525423728809
 40
0.4491525423728809
 40
0.4576271186440674
 40
0.4576271186440674
 40
0.4576271186440674
 40
0.4576271186440674
 40
0.4661016949152538
 40
0.4661016949152538
 40
0.4661016949152538
 40
0.4661016949152538
 40
0.4745762711864402
 40
0.4745762711864402
 40
0.4745762711864402
 40
0.4745762711864402
 40
0.4830508474576266
 40
0.4830508474576266
 40
0.4830508474576266
 40
0.4830508474576266
 40
0.491525423728813
 40
0.491525423728813
 40
0.491525423728813
 40
0.491525423728813
 40
0.4999999999999994
 40
0.4999999999999994
 40
0.4999999999999994
 40
0.4999999999999994
 40
0.5084745762711859
 40
0.5084745762711859
 40
0.5084745762711859
 40
0.5084745762711859
 40
0.5169491525423723
 40
0.5169491525423723
 40
0.5169491525423723
 40
0.5169491525423723
 40
0.5254237288135587
 40
0.5254237288135587
 40
0.5254237288135587
 40
0.5254237288135587
 40
0.5338983050847451
 40
0.5338983050847451
 40
0.5338983050847451
 40
0.5338983050847451
 40
0.5423728813559315
 40
0.5423728813559315
 40
0.5423728813559315
 40
0.5423728813559315
 40
0.550847457627118
 40
0.550847457627118
 40
0.550847457627118
 40
0.550847457627118
 40
0.5593220338983044
 40
0.5593220338983044
 40
0.5593220338983044
 40
0.5593220338983044
 40
0.5677966101694908
 40
0.5677966101694908
 40
0.5677966101694908
 40
0.5677966101694908
 40
0.5762711864406772
 40
0.5762711864406772
 40
0.5762711864406772
 40
0.5762711864406772
 40
0.5847457627118636
 40
0.5847457627118636
 40
0.5847457627118636
 40
0.5847457627118636
 40
0.59322033898305
 40
0.59322033898305
 40
0.59322033898305
 40
0.59322033898305
 40
0.6016949152542365
 40
0.6016949152542365
 40
0.6016949152542365
 40
0.6016949152542365
 40
0.6101694915254229
 40
0.6101694915254229
 40
0.6101694915254229
 40
0.6101694915254229
 40
0.6186440677966093
 40
0.6186440677966093
 40
0.6186440677966093
 40
0.6186440677966093
 40
0.6271186440677957
 40
0.6271186440677957
 40
0.6271186440677957
 40
0.6271186440677957
 40
0.6355932203389821
 40
0.6355932203389821
 40
0.6355932203389821
 40
0.6355932203389821
 40
0.6440677966101686
 40
0.6440677966101686
 40
0.6440677966101686
 40
0.6440677966101686
 40
0.652542372881355
 40
0.652542372881355
 40
0.652542372881355
 40
0.652542372881355
 40
0.6610169491525414
 40
0.6610169491525414
 40
0.6610169491525414
 40
0.6610169491525414
 40
0.6694915254237278
 40
0.6694915254237278
 40
0.6694915254237278
 40
0.6694915254237278
 40
0.6779661016949142
 40
0.6779661016949142
 40
0.6779661016949142
 40
0.6779661016949142
 40
0.6864406779661006
 40
0.6864406779661006
 40
0.6864406779661006
 40
0.6864406779661006
 40
0.6949152542372871
 40
0.6949152542372871
 40
0.6949152542372871
 40
0.6949152542372871
 40
0.7033898305084735
 40
0.7033898305084735
 40
0.7033898305084735
 40
0.7033898305084735
 40
0.7118644067796599
 40
0.7118644067796599
 40
0.7118644067796599
 40
0.7118644067796599
 40
0.7203389830508463
 40
0.7203389830508463
 40
0.7203389830508463
 40
0.7203389830508463
 40
0.7288135593220327
 40
0.7288135593220327
 40
0.7288135593220327
 40
0.7288135593220327
 40
0.7372881355932192
 40
0.7372881355932192
 40
0.7372881355932192
 40
0.7372881355932192
 40
0.7457627118644056
 40
0.7457627118644056
 40
0.7457627118644056
 40
0.7457627118644056
 40
0.754237288135592
 40
0.754237288135592
 40
0.754237288135592
 40
0.754237288135592
 40
0.7627118644067784
 40
0.7627118644067784
 40
0.7627118644067784
 40
0.7627118644067784
 40
0.7711864406779648
 40
0.7711864406779648
 40
0.7711864406779648
 40
0.7711864406779648
 40
0.7796610169491512
 40
0.7796610169491512
 40
0.7796610169491512
 40
0.7796610169491512
 40
0.7881355932203377
 40
0.7881355932203377
 40
0.7881355932203377
 40
0.7881355932203377
 40
0.7966101694915241
 40
0.7966101694915241
 40
0.7966101694915241
 40
0.7966101694915241
 40
0.8050847457627105
 40
0.8050847457627105
 40
0.8050847457627105
 40
0.8050847457627105
 40
0.8135593220338969
 40
0.8135593220338969
 40
0.8135593220338969
 40
0.8135593220338969
 40
0.8220338983050833
 40
0.8220338983050833
 40
0.8220338983050833
 40
0.8220338983050833
 40
0.8305084745762698
 40
0.8305084745762698
 40
0.8305084745762698
 40
0.8305084745762698
 40
0.8389830508474562
 40
0.8389830508474562
 40
0.8389830508474562
 40
0.8389830508474562
 40
0.8474576271186426
 40
0.8474576271186426
 40
0.8474576271186426
 40
0.8474576271186426
 40
0.855932203389829
 40
0.855932203389829
 40
0.855932203389829
 40
0.855932203389829
 40
0.8644067796610154
 40
0.8644067796610154
 40
0.8644067796610154
 40
0.8644067796610154
 40
0.8728813559322018
 40
0.8728813559322018
 40
0.8728813559322018
 40
0.8728813559322018
 40
0.8813559322033883
 40
0.8813559322033883
 40
0.8813559322033883
 40
0.8813559322033883
 40
0.8898305084745747
 40
0.8898305084745747
 40
0.8898305084745747
 40
0.8898305084745747
 40
0.8983050847457611
 40
0.8983050847457611
 40
0.8983050847457611
 40
0.8983050847457611
 40
0.9067796610169475
 40
0.9067796610169475
 40
0.9067796610169475
 40
0.9067796610169475
 40
0.9152542372881339
 40
0.9152542372881339
 40
0.9152542372881339
 40
0.9152542372881339
 40
0.9237288135593204
 40
0.9237288135593204
 40
0.9237288135593204
 40
0.9237288135593204
 40
0.9322033898305068
 40
0.9322033898305068
 40
0.9322033898305068
 40
0.9322033898305068
 40
0.9406779661016932
 40
0.9406779661016932
 40
0.9406779661016932
 40
0.9406779661016932
 40
0.9491525423728796
 40
0.9491525423728796
 40
0.9491525423728796
 40
0.9491525423728796
 40
0.957627118644066
 40
0.957627118644066
 40
0.957627118644066
 40
0.957627118644066
 40
0.9661016949152524
 40
0.9661016949152524
 40
0.9661016949152524
 40
0.9661016949152524
 40
0.9745762711864389
 40
0.9745762711864389
 40
0.9745762711864389
 40
0.9745762711864389
 40
0.9830508474576253
 40
0.9830508474576253
 40
0.9830508474576253
 40
0.9830508474576253
 40
0.9915254237288117
 40
0.9915254237288117
 40
0.9915254237288117
 40
0.9915254237288117
 40
1.0
 40
1.0
 40
1.0
 40
1.0
 10
0.2185236220472441
 20
-0.7470157480314961
 30
0.0
 10
0.2185236220472441
 20
-0.7470157480314961
 30
0.0
 10
0.8627834645669291
 20
-0.3650944881889764
 30
0.0
 10
0.8627834645669291
 20
-0.3650944881889764
 30
0.0
 10
0.8627834645669291
 20
-0.3650944881889764
 30
0.0
 10
0.8627834645669291
 20
-0.3650944881889764
 30
0.0
 10
0.8778385826771654
 20
-0.3551771653543308
 30
0.0
 10
0.8778385826771654
 20
-0.3551771653543308
 30
0.0
 10
0.8778385826771654
 20
-0.3551771653543308
 30
0.0
 10
0.8778385826771654
 20
-0.3551771653543308
 30
0.0
 10
0.8916299212598425
 20
-0.3441141732283465
 30
0.0
 10
0.8916299212598425
 20
-0.3441141732283465
 30
0.0
 10
0.8916299212598425
 20
-0.3441141732283465
 30
0.0
 10
0.8916299212598425
 20
-0.3441141732283465
 30
0.0
 10
0.9041102362204725
 20
-0.3319566929133859
 30
0.0
 10
0.9041102362204725
 20
-0.3319566929133859
 30
0.0
 10
0.9041102362204725
 20
-0.3319566929133859
 30
0.0
 10
0.9041102362204725
 20
-0.3319566929133859
 30
0.0
 10
0.9152598425196851
 20
-0.3187795275590551
 30
0.0
 10
0.9152598425196851
 20
-0.3187795275590551
 30
0.0
 10
0.9152598425196851
 20
-0.3187795275590551
 30
0.0
 10
0.9152598425196851
 20
-0.3187795275590551
 30
0.0
 10
0.9250354330708662
 20
-0.3046417322834646
 30
0.0
 10
0.9250354330708662
 20
-0.3046417322834646
 30
0.0
 10
0.9250354330708662
 20
-0.3046417322834646
 30
0.0
 10
0.9250354330708662
 20
-0.3046417322834646
 30
0.0
 10
0.9334094488188977
 20
-0.2896102362204724
 30
0.0
 10
0.9334094488188977
 20
-0.2896102362204724
 30
0.0
 10
0.9334094488188977
 20
-0.2896102362204724
 30
0.0
 10
0.9334094488188977
 20
-0.2896102362204724
 30
0.0
 10
0.9403346456692914
 20
-0.273740157480315
 30
0.0
 10
0.9403346456692914
 20
-0.273740157480315
 30
0.0
 10
0.9403346456692914
 20
-0.273740157480315
 30
0.0
 10
0.9403346456692914
 20
-0.273740157480315
 30
0.0
 10
0.9457913385826772
 20
-0.2571062992125984
 30
0.0
 10
0.9457913385826772
 20
-0.2571062992125984
 30
0.0
 10
0.9457913385826772
 20
-0.2571062992125984
 30
0.0
 10
0.9457913385826772
 20
-0.2571062992125984
 30
0.0
 10
0.949732283464567
 20
-0.2397637795275591
 30
0.0
 10
0.949732283464567
 20
-0.2397637795275591
 30
0.0
 10
0.949732283464567
 20
-0.2397637795275591
 30
0.0
 10
0.949732283464567
 20
-0.2397637795275591
 30
0.0
 10
0.9521338582677166
 20
-0.2217834645669292
 30
0.0
 10
0.9521338582677166
 20
-0.2217834645669292
 30
0.0
 10
0.9521338582677166
 20
-0.2217834645669292
 30
0.0
 10
0.9521338582677166
 20
-0.2217834645669292
 30
0.0
 10
0.9529448818897638
 20
-0.2032125984251968
 30
0.0
 10
0.9529448818897638
 20
-0.2032125984251968
 30
0.0
 10
0.9529448818897638
 20
-0.2032125984251968
 30
0.0
 10
0.9529448818897638
 20
-0.2032125984251968
 30
0.0
 10
0.9521456692913386
 20
-0.1841338582677166
 30
0.0
 10
0.9521456692913386
 20
-0.1841338582677166
 30
0.0
 10
0.9521456692913386
 20
-0.1841338582677166
 30
0.0
 10
0.9521456692913386
 20
-0.1841338582677166
 30
0.0
 10
0.9496968503937008
 20
-0.1645984251968504
 30
0.0
 10
0.9496968503937008
 20
-0.1645984251968504
 30
0.0
 10
0.9496968503937008
 20
-0.1645984251968504
 30
0.0
 10
0.9496968503937008
 20
-0.1645984251968504
 30
0.0
 10
0.9455669291338583
 20
-0.1446811023622047
 30
0.0
 10
0.9455669291338583
 20
-0.1446811023622047
 30
0.0
 10
0.9455669291338583
 20
-0.1446811023622047
 30
0.0
 10
0.9455669291338583
 20
-0.1446811023622047
 30
0.0
 10
0.9397086614173229
 20
-0.1244291338582677
 30
0.0
 10
0.9397086614173229
 20
-0.1244291338582677
 30
0.0
 10
0.9397086614173229
 20
-0.1244291338582677
 30
0.0
 10
0.9397086614173229
 20
-0.1244291338582677
 30
0.0
 10
0.9321062992125985
 20
-0.1039251968503937
 30
0.0
 10
0.9321062992125985
 20
-0.1039251968503937
 30
0.0
 10
0.9321062992125985
 20
-0.1039251968503937
 30
0.0
 10
0.9321062992125985
 20
-0.1039251968503937
 30
0.0
 10
0.9227125984251969
 20
-0.0832165354330709
 30
0.0
 10
0.9227125984251969
 20
-0.0832165354330709
 30
0.0
 10
0.9227125984251969
 20
-0.0832165354330709
 30
0.0
 10
0.9227125984251969
 20
-0.0832165354330709
 30
0.0
 10
0.911496062992126
 20
-0.0623779527559055
 30
0.0
 10
0.911496062992126
 20
-0.0623779527559055
 30
0.0
 10
0.911496062992126
 20
-0.0623779527559055
 30
0.0
 10
0.911496062992126
 20
-0.0623779527559055
 30
0.0
 10
0.8984173228346457
 20
-0.0414566929133858
 30
0.0
 10
0.8984173228346457
 20
-0.0414566929133858
 30
0.0
 10
0.8984173228346457
 20
-0.0414566929133858
 30
0.0
 10
0.8984173228346457
 20
-0.0414566929133858
 30
0.0
 10
0.8834488188976378
 20
-0.0205354330708661
 30
0.0
 10
0.8834488188976378
 20
-0.0205354330708661
 30
0.0
 10
0.8834488188976378
 20
-0.0205354330708661
 30
0.0
 10
0.8834488188976378
 20
-0.0205354330708661
 30
0.0
 10
0.8665511811023623
 20
0.0003346456692913
 30
0.0
 10
0.8665511811023623
 20
0.0003346456692913
 30
0.0
 10
0.8665511811023623
 20
0.0003346456692913
 30
0.0
 10
0.8665511811023623
 20
0.0003346456692913
 30
0.0
 10
0.8476968503937008
 20
0.0210787401574803
 30
0.0
 10
0.8476968503937008
 20
0.0210787401574803
 30
0.0
 10
0.8476968503937008
 20
0.0210787401574803
 30
0.0
 10
0.8476968503937008
 20
0.0210787401574803
 30
0.0
 10
0.8268346456692913
 20
0.0416496062992126
 30
0.0
 10
0.8268346456692913
 20
0.0416496062992126
 30
0.0
 10
0.8268346456692913
 20
0.0416496062992126
 30
0.0
 10
0.8268346456692913
 20
0.0416496062992126
 30
0.0
 10
0.8039488188976378
 20
0.0619724409448819
 30
0.0
 10
0.8039488188976378
 20
0.0619724409448819
 30
0.0
 10
0.8039488188976378
 20
0.0619724409448819
 30
0.0
 10
0.8039488188976378
 20
0.0619724409448819
 30
0.0
 10
0.778996062992126
 20
0.081988188976378
 30
0.0
 10
0.778996062992126
 20
0.081988188976378
 30
0.0
 10
0.778996062992126
 20
0.081988188976378
 30
0.0
 10
0.778996062992126
 20
0.081988188976378
 30
0.0
 10
0.7519448818897638
 20
0.1016220472440945
 30
0.0
 10
0.7519448818897638
 20
0.1016220472440945
 30
0.0
 10
0.7519448818897638
 20
0.1016220472440945
 30
0.0
 10
0.7519448818897638
 20
0.1016220472440945
 30
0.0
 10
0.724736220472441
 20
0.1210708661417323
 30
0.0
 10
0.724736220472441
 20
0.1210708661417323
 30
0.0
 10
0.724736220472441
 20
0.1210708661417323
 30
0.0
 10
0.724736220472441
 20
0.1210708661417323
 30
0.0
 10
0.6993228346456694
 20
0.1405157480314961
 30
0.0
 10
0.6993228346456694
 20
0.1405157480314961
 30
0.0
 10
0.6993228346456694
 20
0.1405157480314961
 30
0.0
 10
0.6993228346456694
 20
0.1405157480314961
 30
0.0
 10
0.6756377952755905
 20
0.1599527559055118
 30
0.0
 10
0.6756377952755905
 20
0.1599527559055118
 30
0.0
 10
0.6756377952755905
 20
0.1599527559055118
 30
0.0
 10
0.6756377952755905
 20
0.1599527559055118
 30
0.0
 10
0.6536259842519685
 20
0.1793503937007874
 30
0.0
 10
0.6536259842519685
 20
0.1793503937007874
 30
0.0
 10
0.6536259842519685
 20
0.1793503937007874
 30
0.0
 10
0.6536259842519685
 20
0.1793503937007874
 30
0.0
 10
0.633224409448819
 20
0.1987047244094488
 30
0.0
 10
0.633224409448819
 20
0.1987047244094488
 30
0.0
 10
0.633224409448819
 20
0.1987047244094488
 30
0.0
 10
0.633224409448819
 20
0.1987047244094488
 30
0.0
 10
0.6143622047244095
 20
0.2179803149606299
 30
0.0
 10
0.6143622047244095
 20
0.2179803149606299
 30
0.0
 10
0.6143622047244095
 20
0.2179803149606299
 30
0.0
 10
0.6143622047244095
 20
0.2179803149606299
 30
0.0
 10
0.596992125984252
 20
0.2371692913385827
 30
0.0
 10
0.596992125984252
 20
0.2371692913385827
 30
0.0
 10
0.596992125984252
 20
0.2371692913385827
 30
0.0
 10
0.596992125984252
 20
0.2371692913385827
 30
0.0
 10
0.5810433070866142
 20
0.256244094488189
 30
0.0
 10
0.5810433070866142
 20
0.256244094488189
 30
0.0
 10
0.5810433070866142
 20
0.256244094488189
 30
0.0
 10
0.5810433070866142
 20
0.256244094488189
 30
0.0
 10
0.5664724409448819
 20
0.2752007874015748
 30
0.0
 10
0.5664724409448819
 20
0.2752007874015748
 30
0.0
 10
0.5664724409448819
 20
0.2752007874015748
 30
0.0
 10
0.5664724409448819
 20
0.2752007874015748
 30
0.0
 10
0.5532047244094488
 20
0.294003937007874
 30
0.0
 10
0.5532047244094488
 20
0.294003937007874
 30
0.0
 10
0.5532047244094488
 20
0.294003937007874
 30
0.0
 10
0.5532047244094488
 20
0.294003937007874
 30
0.0
 10
0.5411850393700788
 20
0.3126417322834646
 30
0.0
 10
0.5411850393700788
 20
0.3126417322834646
 30
0.0
 10
0.5411850393700788
 20
0.3126417322834646
 30
0.0
 10
0.5411850393700788
 20
0.3126417322834646
 30
0.0
 10
0.5303503937007874
 20
0.3310905511811024
 30
0.0
 10
0.5303503937007874
 20
0.3310905511811024
 30
0.0
 10
0.5303503937007874
 20
0.3310905511811024
 30
0.0
 10
0.5303503937007874
 20
0.3310905511811024
 30
0.0
 10
0.5206496062992126
 20
0.3493425196850394
 30
0.0
 10
0.5206496062992126
 20
0.3493425196850394
 30
0.0
 10
0.5206496062992126
 20
0.3493425196850394
 30
0.0
 10
0.5206496062992126
 20
0.3493425196850394
 30
0.0
 10
0.5120078740157481
 20
0.3673622047244095
 30
0.0
 10
0.5120078740157481
 20
0.3673622047244095
 30
0.0
 10
0.5120078740157481
 20
0.3673622047244095
 30
0.0
 10
0.5120078740157481
 20
0.3673622047244095
 30
0.0
 10
0.5043779527559056
 20
0.3851417322834646
 30
0.0
 10
0.5043779527559056
 20
0.3851417322834646
 30
0.0
 10
0.5043779527559056
 20
0.3851417322834646
 30
0.0
 10
0.5043779527559056
 20
0.3851417322834646
 30
0.0
 10
0.4976850393700787
 20
0.4026653543307087
 30
0.0
 10
0.4976850393700787
 20
0.4026653543307087
 30
0.0
 10
0.4976850393700787
 20
0.4026653543307087
 30
0.0
 10
0.4976850393700787
 20
0.4026653543307087
 30
0.0
 10
0.4918897637795276
 20
0.4199055118110237
 30
0.0
 10
0.4918897637795276
 20
0.4199055118110237
 30
0.0
 10
0.4918897637795276
 20
0.4199055118110237
 30
0.0
 10
0.4918897637795276
 20
0.4199055118110237
 30
0.0
 10
0.4869173228346457
 20
0.4368503937007874
 30
0.0
 10
0.4869173228346457
 20
0.4368503937007874
 30
0.0
 10
0.4869173228346457
 20
0.4368503937007874
 30
0.0
 10
0.4869173228346457
 20
0.4368503937007874
 30
0.0
 10
0.4827165354330709
 20
0.4534724409448819
 30
0.0
 10
0.4827165354330709
 20
0.4534724409448819
 30
0.0
 10
0.4827165354330709
 20
0.4534724409448819
 30
0.0
 10
0.4827165354330709
 20
0.4534724409448819
 30
0.0
 10
0.4792086614173229
 20
0.4697677165354331
 30
0.0
 10
0.4792086614173229
 20
0.4697677165354331
 30
0.0
 10
0.4792086614173229
 20
0.4697677165354331
 30
0.0
 10
0.4792086614173229
 20
0.4697677165354331
 30
0.0
 10
0.4763582677165354
 20
0.4857007874015748
 30
0.0
 10
0.4763582677165354
 20
0.4857007874015748
 30
0.0
 10
0.4763582677165354
 20
0.4857007874015748
 30
0.0
 10
0.4763582677165354
 20
0.4857007874015748
 30
0.0
 10
0.4740866141732283
 20
0.5012637795275591
 30
0.0
 10
0.4740866141732283
 20
0.5012637795275591
 30
0.0
 10
0.4740866141732283
 20
0.5012637795275591
 30
0.0
 10
0.4740866141732283
 20
0.5012637795275591
 30
0.0
 10
0.4723425196850394
 20
0.5164291338582677
 30
0.0
 10
0.4723425196850394
 20
0.5164291338582677
 30
0.0
 10
0.4723425196850394
 20
0.5164291338582677
 30
0.0
 10
0.4723425196850394
 20
0.5164291338582677
 30
0.0
 10
0.4710551181102363
 20
0.5311889763779528
 30
0.0
 10
0.4710551181102363
 20
0.5311889763779528
 30
0.0
 10
0.4710551181102363
 20
0.5311889763779528
 30
0.0
 10
0.4710551181102363
 20
0.5311889763779528
 30
0.0
 10
0.4701850393700788
 20
0.5455078740157481
 30
0.0
 10
0.4701850393700788
 20
0.5455078740157481
 30
0.0
 10
0.4701850393700788
 20
0.5455078740157481
 30
0.0
 10
0.4701850393700788
 20
0.5455078740157481
 30
0.0
 10
0.4696535433070866
 20
0.5593818897637796
 30
0.0
 10
0.4696535433070866
 20
0.5593818897637796
 30
0.0
 10
0.4696535433070866
 20
0.5593818897637796
 30
0.0
 10
0.4696535433070866
 20
0.5593818897637796
 30
0.0
 10
0.4694094488188977
 20
0.5727874015748031
 30
0.0
 10
0.4694094488188977
 20
0.5727874015748031
 30
0.0
 10
0.4694094488188977
 20
0.5727874015748031
 30
0.0
 10
0.4694094488188977
 20
0.5727874015748031
 30
0.0
 10
0.4693858267716536
 20
0.5857086614173228
 30
0.0
 10
0.4693858267716536
 20
0.5857086614173228
 30
0.0
 10
0.4693858267716536
 20
0.5857086614173228
 30
0.0
 10
0.4693858267716536
 20
0.5857086614173228
 30
0.0
 10
0.4695314960629922
 20
0.5981141732283465
 30
0.0
 10
0.4695314960629922
 20
0.5981141732283465
 30
0.0
 10
0.4695314960629922
 20
0.5981141732283465
 30
0.0
 10
0.4695314960629922
 20
0.5981141732283465
 30
0.0
 10
0.4697795275590551
 20
0.610003937007874
 30
0.0
 10
0.4697795275590551
 20
0.610003937007874
 30
0.0
 10
0.4697795275590551
 20
0.610003937007874
 30
0.0
 10
0.4697795275590551
 20
0.610003937007874
 30
0.0
 10
0.4700708661417323
 20
0.6213425196850394
 30
0.0
 10
0.4700708661417323
 20
0.6213425196850394
 30
0.0
 10
0.4700708661417323
 20
0.6213425196850394
 30
0.0
 10
0.4700708661417323
 20
0.6213425196850394
 30
0.0
 10
0.4703385826771654
 20
0.6321220472440945
 30
0.0
 10
0.4703385826771654
 20
0.6321220472440945
 30
0.0
 10
0.4703385826771654
 20
0.6321220472440945
 30
0.0
 10
0.4703385826771654
 20
0.6321220472440945
 30
0.0
 10
-0.1739212598425197
 20
0.2502007874015748
 30
0.0
 10
-0.1739212598425197
 20
0.2502007874015748
 30
0.0
 10
-0.1739212598425197
 20
0.2502007874015748
 30
0.0
 10
-0.1739212598425197
 20
0.2502007874015748
 30
0.0
 10
-0.1741889763779528
 20
0.2394212598425197
 30
0.0
 10
-0.1741889763779528
 20
0.2394212598425197
 30
0.0
 10
-0.1741889763779528
 20
0.2394212598425197
 30
0.0
 10
-0.1741889763779528
 20
0.2394212598425197
 30
0.0
 10
-0.1744803149606299
 20
0.2280826771653544
 30
0.0
 10
-0.1744803149606299
 20
0.2280826771653544
 30
0.0
 10
-0.1744803149606299
 20
0.2280826771653544
 30
0.0
 10
-0.1744803149606299
 20
0.2280826771653544
 30
0.0
 10
-0.1747283464566929
 20
0.2161929133858268
 30
0.0
 10
-0.1747283464566929
 20
0.2161929133858268
 30
0.0
 10
-0.1747283464566929
 20
0.2161929133858268
 30
0.0
 10
-0.1747283464566929
 20
0.2161929133858268
 30
0.0
 10
-0.1748740157480315
 20
0.2037874015748032
 30
0.0
 10
-0.1748740157480315
 20
0.2037874015748032
 30
0.0
 10
-0.1748740157480315
 20
0.2037874015748032
 30
0.0
 10
-0.1748740157480315
 20
0.2037874015748032
 30
0.0
 10
-0.1748503937007874
 20
0.1908661417322835
 30
0.0
 10
-0.1748503937007874
 20
0.1908661417322835
 30
0.0
 10
-0.1748503937007874
 20
0.1908661417322835
 30
0.0
 10
-0.1748503937007874
 20
0.1908661417322835
 30
0.0
 10
-0.1746062992125984
 20
0.1774606299212599
 30
0.0
 10
-0.1746062992125984
 20
0.1774606299212599
 30
0.0
 10
-0.1746062992125984
 20
0.1774606299212599
 30
0.0
 10
-0.1746062992125984
 20
0.1774606299212599
 30
0.0
 10
-0.1740748031496063
 20
0.1635866141732283
 30
0.0
 10
-0.1740748031496063
 20
0.1635866141732283
 30
0.0
 10
-0.1740748031496063
 20
0.1635866141732283
 30
0.0
 10
-0.1740748031496063
 20
0.1635866141732283
 30
0.0
 10
-0.1732047244094488
 20
0.1492677165354331
 30
0.0
 10
-0.1732047244094488
 20
0.1492677165354331
 30
0.0
 10
-0.1732047244094488
 20
0.1492677165354331
 30
0.0
 10
-0.1732047244094488
 20
0.1492677165354331
 30
0.0
 10
-0.1719173228346457
 20
0.134507874015748
 30
0.0
 10
-0.1719173228346457
 20
0.134507874015748
 30
0.0
 10
-0.1719173228346457
 20
0.134507874015748
 30
0.0
 10
-0.1719173228346457
 20
0.134507874015748
 30
0.0
 10
-0.1701732283464567
 20
0.1193425196850394
 30
0.0
 10
-0.1701732283464567
 20
0.1193425196850394
 30
0.0
 10
-0.1701732283464567
 20
0.1193425196850394
 30
0.0
 10
-0.1701732283464567
 20
0.1193425196850394
 30
0.0
 10
-0.1679015748031496
 20
0.1037795275590551
 30
0.0
 10
-0.1679015748031496
 20
0.1037795275590551
 30
0.0
 10
-0.1679015748031496
 20
0.1037795275590551
 30
0.0
 10
-0.1679015748031496
 20
0.1037795275590551
 30
0.0
 10
-0.1650511811023622
 20
0.0878464566929134
 30
0.0
 10
-0.1650511811023622
 20
0.0878464566929134
 30
0.0
 10
-0.1650511811023622
 20
0.0878464566929134
 30
0.0
 10
-0.1650511811023622
 20
0.0878464566929134
 30
0.0
 10
-0.1615433070866142
 20
0.0715511811023622
 30
0.0
 10
-0.1615433070866142
 20
0.0715511811023622
 30
0.0
 10
-0.1615433070866142
 20
0.0715511811023622
 30
0.0
 10
-0.1615433070866142
 20
0.0715511811023622
 30
0.0
 10
-0.1573425196850394
 20
0.0549291338582677
 30
0.0
 10
-0.1573425196850394
 20
0.0549291338582677
 30
0.0
 10
-0.1573425196850394
 20
0.0549291338582677
 30
0.0
 10
-0.1573425196850394
 20
0.0549291338582677
 30
0.0
 10
-0.1523700787401575
 20
0.0379842519685039
 30
0.0
 10
-0.1523700787401575
 20
0.0379842519685039
 30
0.0
 10
-0.1523700787401575
 20
0.0379842519685039
 30
0.0
 10
-0.1523700787401575
 20
0.0379842519685039
 30
0.0
 10
-0.1465748031496063
 20
0.020744094488189
 30
0.0
 10
-0.1465748031496063
 20
0.020744094488189
 30
0.0
 10
-0.1465748031496063
 20
0.020744094488189
 30
0.0
 10
-0.1465748031496063
 20
0.020744094488189
 30
0.0
 10
-0.1398818897637795
 20
0.0032204724409449
 30
0.0
 10
-0.1398818897637795
 20
0.0032204724409449
 30
0.0
 10
-0.1398818897637795
 20
0.0032204724409449
 30
0.0
 10
-0.1398818897637795
 20
0.0032204724409449
 30
0.0
 10
-0.132251968503937
 20
-0.0145590551181102
 30
0.0
 10
-0.132251968503937
 20
-0.0145590551181102
 30
0.0
 10
-0.132251968503937
 20
-0.0145590551181102
 30
0.0
 10
-0.132251968503937
 20
-0.0145590551181102
 30
0.0
 10
-0.1236102362204724
 20
-0.0325787401574803
 30
0.0
 10
-0.1236102362204724
 20
-0.0325787401574803
 30
0.0
 10
-0.1236102362204724
 20
-0.0325787401574803
 30
0.0
 10
-0.1236102362204724
 20
-0.0325787401574803
 30
0.0
 10
-0.1139094488188976
 20
-0.0508307086614173
 30
0.0
 10
-0.1139094488188976
 20
-0.0508307086614173
 30
0.0
 10
-0.1139094488188976
 20
-0.0508307086614173
 30
0.0
 10
-0.1139094488188976
 20
-0.0508307086614173
 30
0.0
 10
-0.1030748031496063
 20
-0.0692795275590551
 30
0.0
 10
-0.1030748031496063
 20
-0.0692795275590551
 30
0.0
 10
-0.1030748031496063
 20
-0.0692795275590551
 30
0.0
 10
-0.1030748031496063
 20
-0.0692795275590551
 30
0.0
 10
-0.0910551181102362
 20
-0.0879173228346457
 30
0.0
 10
-0.0910551181102362
 20
-0.0879173228346457
 30
0.0
 10
-0.0910551181102362
 20
-0.0879173228346457
 30
0.0
 10
-0.0910551181102362
 20
-0.0879173228346457
 30
0.0
 10
-0.0777874015748032
 20
-0.1067204724409449
 30
0.0
 10
-0.0777874015748032
 20
-0.1067204724409449
 30
0.0
 10
-0.0777874015748032
 20
-0.1067204724409449
 30
0.0
 10
-0.0777874015748032
 20
-0.1067204724409449
 30
0.0
 10
-0.0632165354330709
 20
-0.1256771653543307
 30
0.0
 10
-0.0632165354330709
 20
-0.1256771653543307
 30
0.0
 10
-0.0632165354330709
 20
-0.1256771653543307
 30
0.0
 10
-0.0632165354330709
 20
-0.1256771653543307
 30
0.0
 10
-0.0472677165354331
 20
-0.144751968503937
 30
0.0
 10
-0.0472677165354331
 20
-0.144751968503937
 30
0.0
 10
-0.0472677165354331
 20
-0.144751968503937
 30
0.0
 10
-0.0472677165354331
 20
-0.144751968503937
 30
0.0
 10
-0.0298976377952756
 20
-0.1639409448818898
 30
0.0
 10
-0.0298976377952756
 20
-0.1639409448818898
 30
0.0
 10
-0.0298976377952756
 20
-0.1639409448818898
 30
0.0
 10
-0.0298976377952756
 20
-0.1639409448818898
 30
0.0
 10
-0.0110354330708661
 20
-0.1832165354330709
 30
0.0
 10
-0.0110354330708661
 20
-0.1832165354330709
 30
0.0
 10
-0.0110354330708661
 20
-0.1832165354330709
 30
0.0
 10
-0.0110354330708661
 20
-0.1832165354330709
 30
0.0
 10
0.0093661417322835
 20
-0.2025708661417323
 30
0.0
 10
0.0093661417322835
 20
-0.2025708661417323
 30
0.0
 10
0.0093661417322835
 20
-0.2025708661417323
 30
0.0
 10
0.0093661417322835
 20
-0.2025708661417323
 30
0.0
 10
0.0313779527559055
 20
-0.2219685039370079
 30
0.0
 10
0.0313779527559055
 20
-0.2219685039370079
 30
0.0
 10
0.0313779527559055
 20
-0.2219685039370079
 30
0.0
 10
0.0313779527559055
 20
-0.2219685039370079
 30
0.0
 10
0.0550629921259843
 20
-0.2414055118110236
 30
0.0
 10
0.0550629921259843
 20
-0.2414055118110236
 30
0.0
 10
0.0550629921259843
 20
-0.2414055118110236
 30
0.0
 10
0.0550629921259843
 20
-0.2414055118110236
 30
0.0
 10
0.0804763779527559
 20
-0.2608503937007874
 30
0.0
 10
0.0804763779527559
 20
-0.2608503937007874
 30
0.0
 10
0.0804763779527559
 20
-0.2608503937007874
 30
0.0
 10
0.0804763779527559
 20
-0.2608503937007874
 30
0.0
 10
0.1076850393700787
 20
-0.2802992125984252
 30
0.0
 10
0.1076850393700787
 20
-0.2802992125984252
 30
0.0
 10
0.1076850393700787
 20
-0.2802992125984252
 30
0.0
 10
0.1076850393700787
 20
-0.2802992125984252
 30
0.0
 10
0.1347362204724409
 20
-0.2999330708661417
 30
0.0
 10
0.1347362204724409
 20
-0.2999330708661417
 30
0.0
 10
0.1347362204724409
 20
-0.2999330708661417
 30
0.0
 10
0.1347362204724409
 20
-0.2999330708661417
 30
0.0
 10
0.1596889763779528
 20
-0.3199488188976378
 30
0.0
 10
0.1596889763779528
 20
-0.3199488188976378
 30
0.0
 10
0.1596889763779528
 20
-0.3199488188976378
 30
0.0
 10
0.1596889763779528
 20
-0.3199488188976378
 30
0.0
 10
0.1825748031496063
 20
-0.3402716535433071
 30
0.0
 10
0.1825748031496063
 20
-0.3402716535433071
 30
0.0
 10
0.1825748031496063
 20
-0.3402716535433071
 30
0.0
 10
0.1825748031496063
 20
-0.3402716535433071
 30
0.0
 10
0.2034370078740158
 20
-0.3608425196850394
 30
0.0
 10
0.2034370078740158
 20
-0.3608425196850394
 30
0.0
 10
0.2034370078740158
 20
-0.3608425196850394
 30
0.0
 10
0.2034370078740158
 20
-0.3608425196850394
 30
0.0
 10
0.2222913385826772
 20
-0.3815866141732284
 30
0.0
 10
0.2222913385826772
 20
-0.3815866141732284
 30
0.0
 10
0.2222913385826772
 20
-0.3815866141732284
 30
0.0
 10
0.2222913385826772
 20
-0.3815866141732284
 30
0.0
 10
0.2391889763779528
 20
-0.4024566929133858
 30
0.0
 10
0.2391889763779528
 20
-0.4024566929133858
 30
0.0
 10
0.2391889763779528
 20
-0.4024566929133858
 30
0.0
 10
0.2391889763779528
 20
-0.4024566929133858
 30
0.0
 10
0.2541574803149607
 20
-0.4233779527559055
 30
0.0
 10
0.2541574803149607
 20
-0.4233779527559055
 30
0.0
 10
0.2541574803149607
 20
-0.4233779527559055
 30
0.0
 10
0.2541574803149607
 20
-0.4233779527559055
 30
0.0
 10
0.2672362204724409
 20
-0.4442992125984252
 30
0.0
 10
0.2672362204724409
 20
-0.4442992125984252
 30
0.0
 10
0.2672362204724409
 20
-0.4442992125984252
 30
0.0
 10
0.2672362204724409
 20
-0.4442992125984252
 30
0.0
 10
0.2784527559055118
 20
-0.4651377952755906
 30
0.0
 10
0.2784527559055118
 20
-0.4651377952755906
 30
0.0
 10
0.2784527559055118
 20
-0.4651377952755906
 30
0.0
 10
0.2784527559055118
 20
-0.4651377952755906
 30
0.0
 10
0.2878464566929134
 20
-0.4858464566929134
 30
0.0
 10
0.2878464566929134
 20
-0.4858464566929134
 30
0.0
 10
0.2878464566929134
 20
-0.4858464566929134
 30
0.0
 10
0.2878464566929134
 20
-0.4858464566929134
 30
0.0
 10
0.2954488188976378
 20
-0.5063503937007874
 30
0.0
 10
0.2954488188976378
 20
-0.5063503937007874
 30
0.0
 10
0.2954488188976378
 20
-0.5063503937007874
 30
0.0
 10
0.2954488188976378
 20
-0.5063503937007874
 30
0.0
 10
0.3013070866141732
 20
-0.5266023622047245
 30
0.0
 10
0.3013070866141732
 20
-0.5266023622047245
 30
0.0
 10
0.3013070866141732
 20
-0.5266023622047245
 30
0.0
 10
0.3013070866141732
 20
-0.5266023622047245
 30
0.0
 10
0.3054370078740158
 20
-0.5465196850393701
 30
0.0
 10
0.3054370078740158
 20
-0.5465196850393701
 30
0.0
 10
0.3054370078740158
 20
-0.5465196850393701
 30
0.0
 10
0.3054370078740158
 20
-0.5465196850393701
 30
0.0
 10
0.3078858267716536
 20
-0.5660551181102362
 30
0.0
 10
0.3078858267716536
 20
-0.5660551181102362
 30
0.0
 10
0.3078858267716536
 20
-0.5660551181102362
 30
0.0
 10
0.3078858267716536
 20
-0.5660551181102362
 30
0.0
 10
0.3086850393700787
 20
-0.5851338582677166
 30
0.0
 10
0.3086850393700787
 20
-0.5851338582677166
 30
0.0
 10
0.3086850393700787
 20
-0.5851338582677166
 30
0.0
 10
0.3086850393700787
 20
-0.5851338582677166
 30
0.0
 10
0.3078740157480315
 20
-0.6037047244094489
 30
0.0
 10
0.3078740157480315
 20
-0.6037047244094489
 30
0.0
 10
0.3078740157480315
 20
-0.6037047244094489
 30
0.0
 10
0.3078740157480315
 20
-0.6037047244094489
 30
0.0
 10
0.3054724409448819
 20
-0.6216850393700788
 30
0.0
 10
0.3054724409448819
 20
-0.6216850393700788
 30
0.0
 10
0.3054724409448819
 20
-0.6216850393700788
 30
0.0
 10
0.3054724409448819
 20
-0.6216850393700788
 30
0.0
 10
0.3015314960629921
 20
-0.6390275590551181
 30
0.0
 10
0.3015314960629921
 20
-0.6390275590551181
 30
0.0
 10
0.3015314960629921
 20
-0.6390275590551181
 30
0.0
 10
0.3015314960629921
 20
-0.6390275590551181
 30
0.0
 10
0.2960748031496063
 20
-0.6556614173228347
 30
0.0
 10
0.2960748031496063
 20
-0.6556614173228347
 30
0.0
 10
0.2960748031496063
 20
-0.6556614173228347
 30
0.0
 10
0.2960748031496063
 20
-0.6556614173228347
 30
0.0
 10
0.2891496062992126
 20
-0.6715314960629921
 30
0.0
 10
0.2891496062992126
 20
-0.6715314960629921
 30
0.0
 10
0.2891496062992126
 20
-0.6715314960629921
 30
0.0
 10
0.2891496062992126
 20
-0.6715314960629921
 30
0.0
 10
0.2807755905511811
 20
-0.6865629921259843
 30
0.0
 10
0.2807755905511811
 20
-0.6865629921259843
 30
0.0
 10
0.2807755905511811
 20
-0.6865629921259843
 30
0.0
 10
0.2807755905511811
 20
-0.6865629921259843
 30
0.0
 10
0.271
 20
-0.7007007874015748
 30
0.0
 10
0.271
 20
-0.7007007874015748
 30
0.0
 10
0.271
 20
-0.7007007874015748
 30
0.0
 10
0.271
 20
-0.7007007874015748
 30
0.0
 10
0.2598503937007874
 20
-0.7138779527559055
 30
0.0
 10
0.2598503937007874
 20
-0.7138779527559055
 30
0.0
 10
0.2598503937007874
 20
-0.7138779527559055
 30
0.0
 10
0.2598503937007874
 20
-0.7138779527559055
 30
0.0
 10
0.2473700787401575
 20
-0.7260354330708662
 30
0.0
 10
0.2473700787401575
 20
-0.7260354330708662
 30
0.0
 10
0.2473700787401575
 20
-0.7260354330708662
 30
0.0
 10
0.2473700787401575
 20
-0.7260354330708662
 30
0.0
 10
0.2335787401574803
 20
-0.7370984251968504
 30
0.0
 10
0.2335787401574803
 20
-0.7370984251968504
 30
0.0
 10
0.2335787401574803
 20
-0.7370984251968504
 30
0.0
 10
0.2335787401574803
 20
-0.7370984251968504
 30
0.0
 10
0.2185236220472441
 20
-0.7470157480314961
 30
0.0
 10
0.2185236220472441
 20
-0.7470157480314961
 30
0.0
  0
SPLINE
  5
4F
100
AcDbEntity
  8
P1-Layer 1
 62
     9
100
AcDbSpline
210
0.0
220
0.0
230
1.0
 70
     1
 71
     3
 72
    44
 73
    40
 74
     0
 42
0.0000000001
 43
0.0000000001
 40
0.0
 40
0.0
 40
0.0
 40
0.0
 40
0.1
 40
0.1
 40
0.1
 40
0.1
 40
0.2
 40
0.2
 40
0.2
 40
0.2
 40
0.3
 40
0.3
 40
0.3
 40
0.3
 40
0.4
 40
0.4
 40
0.4
 40
0.4
 40
0.5
 40
0.5
 40
0.5
 40
0.5
 40
0.6
 40
0.6
 40
0.6
 40
0.6
 40
0.7
 40
0.7
 40
0.7
 40
0.7
 40
0.7999999999999999
 40
0.7999999999999999
 40
0.7999999999999999
 40
0.7999999999999999
 40
0.8999999999999999
 40
0.8999999999999999
 40
0.8999999999999999
 40
0.8999999999999999
 40
1.0
 40
1.0
 40
1.0
 40
1.0
 10
-0.1272755905511811
 20
0.2633622047244095
 30
0.0
 10
-0.1272755905511811
 20
0.2633622047244095
 30
0.0
 10
0.516984251968504
 20
0.6452834645669292
 30
0.0
 10
0.516984251968504
 20
0.6452834645669292
 30
0.0
 10
0.516984251968504
 20
0.6452834645669292
 30
0.0
 10
0.516984251968504
 20
0.6452834645669292
 30
0.0
 10
0.5273818897637795
 20
0.6513622047244094
 30
0.0
 10
0.5273818897637795
 20
0.6513622047244094
 30
0.0
 10
0.5273818897637795
 20
0.6513622047244094
 30
0.0
 10
0.5273818897637795
 20
0.6513622047244094
 30
0.0
 10
0.5371574803149607
 20
0.6584055118110237
 30
0.0
 10
0.5371574803149607
 20
0.6584055118110237
 30
0.0
 10
0.5371574803149607
 20
0.6584055118110237
 30
0.0
 10
0.5371574803149607
 20
0.6584055118110237
 30
0.0
 10
0.5462598425196851
 20
0.6663188976377953
 30
0.0
 10
0.5462598425196851
 20
0.6663188976377953
 30
0.0
 10
0.5462598425196851
 20
0.6663188976377953
 30
0.0
 10
0.5462598425196851
 20
0.6663188976377953
 30
0.0
 10
0.5546220472440945
 20
0.6750393700787402
 30
0.0
 10
0.5546220472440945
 20
0.6750393700787402
 30
0.0
 10
0.5546220472440945
 20
0.6750393700787402
 30
0.0
 10
0.5546220472440945
 20
0.6750393700787402
 30
0.0
 10
-0.0896377952755906
 20
0.2931181102362205
 30
0.0
 10
-0.0896377952755906
 20
0.2931181102362205
 30
0.0
 10
-0.0896377952755906
 20
0.2931181102362205
 30
0.0
 10
-0.0896377952755906
 20
0.2931181102362205
 30
0.0
 10
-0.098
 20
0.2843976377952756
 30
0.0
 10
-0.098
 20
0.2843976377952756
 30
0.0
 10
-0.098
 20
0.2843976377952756
 30
0.0
 10
-0.098
 20
0.2843976377952756
 30
0.0
 10
-0.1071023622047244
 20
0.276484251968504
 30
0.0
 10
-0.1071023622047244
 20
0.276484251968504
 30
0.0
 10
-0.1071023622047244
 20
0.276484251968504
 30
0.0
 10
-0.1071023622047244
 20
0.276484251968504
 30
0.0
 10
-0.1168779527559055
 20
0.2694409448818898
 30
0.0
 10
-0.1168779527559055
 20
0.2694409448818898
 30
0.0
 10
-0.1168779527559055
 20
0.2694409448818898
 30
0.0
 10
-0.1168779527559055
 20
0.2694409448818898
 30
0.0
 10
-0.1272755905511811
 20
0.2633622047244095
 30
0.0
 10
-0.1272755905511811
 20
0.2633622047244095
 30
0.0
  0
SPLINE
  5
50
100
AcDbEntity
  8
P1-Layer 1
 62
     9
100
AcDbSpline
210
0.0
220
0.0
230
1.0
 70
     1
 71
     3
 72
    44
 73
    40
 74
     0
 42
0.0000000001
 43
0.0000000001
 40
0.0
 40
0.0
 40
0.0
 40
0.0
 40
0.1
 40
0.1
 40
0.1
 40
0.1
 40
0.2
 40
0.2
 40
0.2
 40
0.2
 40
0.3
 40
0.3
 40
0.3
 40
0.3
 40
0.4
 40
0.4
 40
0.4
 40
0.4
 40
0.5
 40
0.5
 40
0.5
 40
0.5
 40
0.6
 40
0.6
 40
0.6
 40
0.6
 40
0.7
 40
0.7
 40
0.7
 40
0.7
 40
0.7999999999999999
 40
0.7999999999999999
 40
0.7999999999999999
 40
0.7999999999999999
 40
0.8999999999999999
 40
0.8999999999999999
 40
0.8999999999999999
 40
0.8999999999999999
 40
1.0
 40
1.0
 40
1.0
 40
1.0
 10
-0.0896377952755906
 20
0.2931181102362205
 30
0.0
 10
-0.0896377952755906
 20
0.2931181102362205
 30
0.0
 10
0.5546220472440945
 20
0.6750393700787402
 30
0.0
 10
0.5546220472440945
 20
0.6750393700787402
 30
0.0
 10
0.5546220472440945
 20
0.6750393700787402
 30
0.0
 10
0.5546220472440945
 20
0.6750393700787402
 30
0.0
 10
0.5622047244094488
 20
0.6844645669291339
 30
0.0
 10
0.5622047244094488
 20
0.6844645669291339
 30
0.0
 10
0.5622047244094488
 20
0.6844645669291339
 30
0.0
 10
0.5622047244094488
 20
0.6844645669291339
 30
0.0
 10
0.5689370078740158
 20
0.6945354330708662
 30
0.0
 10
0.5689370078740158
 20
0.6945354330708662
 30
0.0
 10
0.5689370078740158
 20
0.6945354330708662
 30
0.0
 10
0.5689370078740158
 20
0.6945354330708662
 30
0.0
 10
0.5747677165354331
 20
0.7051574803149606
 30
0.0
 10
0.5747677165354331
 20
0.7051574803149606
 30
0.0
 10
0.5747677165354331
 20
0.7051574803149606
 30
0.0
 10
0.5747677165354331
 20
0.7051574803149606
 30
0.0
 10
0.5796338582677165
 20
0.7162598425196851
 30
0.0
 10
0.5796338582677165
 20
0.7162598425196851
 30
0.0
 10
0.5796338582677165
 20
0.7162598425196851
 30
0.0
 10
0.5796338582677165
 20
0.7162598425196851
 30
0.0
 10
-0.0646259842519685
 20
0.3343385826771654
 30
0.0
 10
-0.0646259842519685
 20
0.3343385826771654
 30
0.0
 10
-0.0646259842519685
 20
0.3343385826771654
 30
0.0
 10
-0.0646259842519685
 20
0.3343385826771654
 30
0.0
 10
-0.069492125984252
 20
0.3232362204724409
 30
0.0
 10
-0.069492125984252
 20
0.3232362204724409
 30
0.0
 10
-0.069492125984252
 20
0.3232362204724409
 30
0.0
 10
-0.069492125984252
 20
0.3232362204724409
 30
0.0
 10
-0.0753228346456693
 20
0.3126141732283465
 30
0.0
 10
-0.0753228346456693
 20
0.3126141732283465
 30
0.0
 10
-0.0753228346456693
 20
0.3126141732283465
 30
0.0
 10
-0.0753228346456693
 20
0.3126141732283465
 30
0.0
 10
-0.0820551181102362
 20
0.3025433070866142
 30
0.0
 10
-0.0820551181102362
 20
0.3025433070866142
 30
0.0
 10
-0.0820551181102362
 20
0.3025433070866142
 30
0.0
 10
-0.0820551181102362
 20
0.3025433070866142
 30
0.0
 10
-0.0896377952755906
 20
0.2931181102362205
 30
0.0
 10
-0.0896377952755906
 20
0.2931181102362205
 30
0.0
  0
SPLINE
  5
51
100
AcDbEntity
  8
P1-Layer 1
 62
     9
100
AcDbSpline
210
0.0
220
0.0
230
1.0
 70
     1
 71
     3
 72
    44
 73
    40
 74
     0
 42
0.0000000001
 43
0.0000000001
 40
0.0
 40
0.0
 40
0.0
 40
0.0
 40
0.1
 40
0.1
 40
0.1
 40
0.1
 40
0.2
 40
0.2
 40
0.2
 40
0.2
 40
0.3
 40
0.3
 40
0.3
 40
0.3
 40
0.4
 40
0.4
 40
0.4
 40
0.4
 40
0.5
 40
0.5
 40
0.5
 40
0.5
 40
0.6
 40
0.6
 40
0.6
 40
0.6
 40
0.7
 40
0.7
 40
0.7
 40
0.7
 40
0.7999999999999999
 40
0.7999999999999999
 40
0.7999999999999999
 40
0.7999999999999999
 40
0.8999999999999999
 40
0.8999999999999999
 40
0.8999999999999999
 40
0.8999999999999999
 40
1.0
 40
1.0
 40
1.0
 40
1.0
 10
-0.0646259842519685
 20
0.3343385826771654
 30
0.0
 10
-0.0646259842519685
 20
0.3343385826771654
 30
0.0
 10
0.5796338582677165
 20
0.7162598425196851
 30
0.0
 10
0.5796338582677165
 20
0.7162598425196851
 30
0.0
 10
0.5796338582677165
 20
0.7162598425196851
 30
0.0
 10
0.5796338582677165
 20
0.7162598425196851
 30
0.0
 10
0.583488188976378
 20
0.7277519685039371
 30
0.0
 10
0.583488188976378
 20
0.7277519685039371
 30
0.0
 10
0.583488188976378
 20
0.7277519685039371
 30
0.0
 10
0.583488188976378
 20
0.7277519685039371
 30
0.0
 10
0.586263779527559
 20
0.7395629921259843
 30
0.0
 10
0.586263779527559
 20
0.7395629921259843
 30
0.0
 10
0.586263779527559
 20
0.7395629921259843
 30
0.0
 10
0.586263779527559
 20
0.7395629921259843
 30
0.0
 10
0.5879094488188976
 20
0.7516102362204725
 30
0.0
 10
0.5879094488188976
 20
0.7516102362204725
 30
0.0
 10
0.5879094488188976
 20
0.7516102362204725
 30
0.0
 10
0.5879094488188976
 20
0.7516102362204725
 30
0.0
 10
0.5883661417322835
 20
0.7638228346456694
 30
0.0
 10
0.5883661417322835
 20
0.7638228346456694
 30
0.0
 10
0.5883661417322835
 20
0.7638228346456694
 30
0.0
 10
0.5883661417322835
 20
0.7638228346456694
 30
0.0
 10
-0.0558937007874016
 20
0.3819015748031496
 30
0.0
 10
-0.0558937007874016
 20
0.3819015748031496
 30
0.0
 10
-0.0558937007874016
 20
0.3819015748031496
 30
0.0
 10
-0.0558937007874016
 20
0.3819015748031496
 30
0.0
 10
-0.0563503937007874
 20
0.3696889763779528
 30
0.0
 10
-0.0563503937007874
 20
0.3696889763779528
 30
0.0
 10
-0.0563503937007874
 20
0.3696889763779528
 30
0.0
 10
-0.0563503937007874
 20
0.3696889763779528
 30
0.0
 10
-0.057996062992126
 20
0.3576417322834646
 30
0.0
 10
-0.057996062992126
 20
0.3576417322834646
 30
0.0
 10
-0.057996062992126
 20
0.3576417322834646
 30
0.0
 10
-0.057996062992126
 20
0.3576417322834646
 30
0.0
 10
-0.0607716535433071
 20
0.3458307086614174
 30
0.0
 10
-0.0607716535433071
 20
0.3458307086614174
 30
0.0
 10
-0.0607716535433071
 20
0.3458307086614174
 30
0.0
 10
-0.0607716535433071
 20
0.3458307086614174
 30
0.0
 10
-0.0646259842519685
 20
0.3343385826771654
 30
0.0
 10
-0.0646259842519685
 20
0.3343385826771654
 30
0.0
  0
SPLINE
  5
52
100
AcDbEntity
  8
P1-Layer 1
 62
     9
100
AcDbSpline
210
0.0
220
0.0
230
1.0
 70
     1
 71
     3
 72
    36
 73
    32
 74
     0
 42
0.0000000001
 43
0.0000000001
 40
0.0
 40
0.0
 40
0.0
 40
0.0
 40
0.125
 40
0.125
 40
0.125
 40
0.125
 40
0.25
 40
0.25
 40
0.25
 40
0.25
 40
0.375
 40
0.375
 40
0.375
 40
0.375
 40
0.5
 40
0.5
 40
0.5
 40
0.5
 40
0.625
 40
0.625
 40
0.625
 40
0.625
 40
0.75
 40
0.75
 40
0.75
 40
0.75
 40
0.875
 40
0.875
 40
0.875
 40
0.875
 40
1.0
 40
1.0
 40
1.0
 40
1.0
 10
-0.0558937007874016
 20
0.3819015748031496
 30
0.0
 10
-0.0558937007874016
 20
0.3819015748031496
 30
0.0
 10
0.5883661417322835
 20
0.7638228346456694
 30
0.0
 10
0.5883661417322835
 20
0.7638228346456694
 30
0.0
 10
0.5883661417322835
 20
0.7638228346456694
 30
0.0
 10
0.5883661417322835
 20
0.7638228346456694
 30
0.0
 10
0.5875905511811024
 20
0.7760984251968505
 30
0.0
 10
0.5875905511811024
 20
0.7760984251968505
 30
0.0
 10
0.5875905511811024
 20
0.7760984251968505
 30
0.0
 10
0.5875905511811024
 20
0.7760984251968505
 30
0.0
 10
0.5855039370078741
 20
0.7883740157480316
 30
0.0
 10
0.5855039370078741
 20
0.7883740157480316
 30
0.0
 10
0.5855039370078741
 20
0.7883740157480316
 30
0.0
 10
0.5855039370078741
 20
0.7883740157480316
 30
0.0
 10
0.5820629921259842
 20
0.8005629921259843
 30
0.0
 10
0.5820629921259842
 20
0.8005629921259843
 30
0.0
 10
0.5820629921259842
 20
0.8005629921259843
 30
0.0
 10
0.5820629921259842
 20
0.8005629921259843
 30
0.0
 10
-0.0621968503937008
 20
0.4186417322834646
 30
0.0
 10
-0.0621968503937008
 20
0.4186417322834646
 30
0.0
 10
-0.0621968503937008
 20
0.4186417322834646
 30
0.0
 10
-0.0621968503937008
 20
0.4186417322834646
 30
0.0
 10
-0.058755905511811
 20
0.4064527559055118
 30
0.0
 10
-0.058755905511811
 20
0.4064527559055118
 30
0.0
 10
-0.058755905511811
 20
0.4064527559055118
 30
0.0
 10
-0.058755905511811
 20
0.4064527559055118
 30
0.0
 10
-0.0566692913385827
 20
0.3941771653543307
 30
0.0
 10
-0.0566692913385827
 20
0.3941771653543307
 30
0.0
 10
-0.0566692913385827
 20
0.3941771653543307
 30
0.0
 10
-0.0566692913385827
 20
0.3941771653543307
 30
0.0
 10
-0.0558937007874016
 20
0.3819015748031496
 30
0.0
 10
-0.0558937007874016
 20
0.3819015748031496
 30
0.0
  0
SPLINE
  5
53
100
AcDbEntity
  8
P1-Layer 1
 62
     9
100
AcDbSpline
210
0.0
220
0.0
230
1.0
 70
     1
 71
     3
 72
    36
 73
    32
 74
     0
 42
0.0000000001
 43
0.0000000001
 40
0.0
 40
0.0
 40
0.0
 40
0.0
 40
0.125
 40
0.125
 40
0.125
 40
0.125
 40
0.25
 40
0.25
 40
0.25
 40
0.25
 40
0.375
 40
0.375
 40
0.375
 40
0.375
 40
0.5
 40
0.5
 40
0.5
 40
0.5
 40
0.625
 40
0.625
 40
0.625
 40
0.625
 40
0.75
 40
0.75
 40
0.75
 40
0.75
 40
0.875
 40
0.875
 40
0.875
 40
0.875
 40
1.0
 40
1.0
 40
1.0
 40
1.0
 10
-0.0621968503937008
 20
0.4186417322834646
 30
0.0
 10
-0.0621968503937008
 20
0.4186417322834646
 30
0.0
 10
0.5820629921259842
 20
0.8005629921259843
 30
0.0
 10
0.5820629921259842
 20
0.8005629921259843
 30
0.0
 10
0.5820629921259842
 20
0.8005629921259843
 30
0.0
 10
0.5820629921259842
 20
0.8005629921259843
 30
0.0
 10
0.5772007874015749
 20
0.8125944881889764
 30
0.0
 10
0.5772007874015749
 20
0.8125944881889764
 30
0.0
 10
0.5772007874015749
 20
0.8125944881889764
 30
0.0
 10
0.5772007874015749
 20
0.8125944881889764
 30
0.0
 10
0.5708740157480315
 20
0.8243740157480315
 30
0.0
 10
0.5708740157480315
 20
0.8243740157480315
 30
0.0
 10
0.5708740157480315
 20
0.8243740157480315
 30
0.0
 10
0.5708740157480315
 20
0.8243740157480315
 30
0.0
 10
0.5630118110236221
 20
0.8358385826771654
 30
0.0
 10
0.5630118110236221
 20
0.8358385826771654
 30
0.0
 10
0.5630118110236221
 20
0.8358385826771654
 30
0.0
 10
0.5630118110236221
 20
0.8358385826771654
 30
0.0
 10
-0.081248031496063
 20
0.4539173228346457
 30
0.0
 10
-0.081248031496063
 20
0.4539173228346457
 30
0.0
 10
-0.081248031496063
 20
0.4539173228346457
 30
0.0
 10
-0.081248031496063
 20
0.4539173228346457
 30
0.0
 10
-0.0733858267716535
 20
0.4424527559055118
 30
0.0
 10
-0.0733858267716535
 20
0.4424527559055118
 30
0.0
 10
-0.0733858267716535
 20
0.4424527559055118
 30
0.0
 10
-0.0733858267716535
 20
0.4424527559055118
 30
0.0
 10
-0.0670590551181102
 20
0.4306732283464567
 30
0.0
 10
-0.0670590551181102
 20
0.4306732283464567
 30
0.0
 10
-0.0670590551181102
 20
0.4306732283464567
 30
0.0
 10
-0.0670590551181102
 20
0.4306732283464567
 30
0.0
 10
-0.0621968503937008
 20
0.4186417322834646
 30
0.0
 10
-0.0621968503937008
 20
0.4186417322834646
 30
0.0
  0
SPLINE
  5
54
100
AcDbEntity
  8
P1-Layer 1
 62
     9
100
AcDbSpline
210
0.0
220
0.0
230
1.0
 70
     1
 71
     3
 72
    36
 73
    32
 74
     0
 42
0.0000000001
 43
0.0000000001
 40
0.0
 40
0.0
 40
0.0
 40
0.0
 40
0.125
 40
0.125
 40
0.125
 40
0.125
 40
0.25
 40
0.25
 40
0.25
 40
0.25
 40
0.375
 40
0.375
 40
0.375
 40
0.375
 40
0.5
 40
0.5
 40
0.5
 40
0.5
 40
0.625
 40
0.625
 40
0.625
 40
0.625
 40
0.75
 40
0.75
 40
0.75
 40
0.75
 40
0.875
 40
0.875
 40
0.875
 40
0.875
 40
1.0
 40
1.0
 40
1.0
 40
1.0
 10
-0.081248031496063
 20
0.4539173228346457
 30
0.0
 10
-0.081248031496063
 20
0.4539173228346457
 30
0.0
 10
0.5630118110236221
 20
0.8358385826771654
 30
0.0
 10
0.5630118110236221
 20
0.8358385826771654
 30
0.0
 10
0.5630118110236221
 20
0.8358385826771654
 30
0.0
 10
0.5630118110236221
 20
0.8358385826771654
 30
0.0
 10
0.5535669291338583
 20
0.8468937007874016
 30
0.0
 10
0.5535669291338583
 20
0.8468937007874016
 30
0.0
 10
0.5535669291338583
 20
0.8468937007874016
 30
0.0
 10
0.5535669291338583
 20
0.8468937007874016
 30
0.0
 10
0.5424763779527559
 20
0.8574685039370079
 30
0.0
 10
0.5424763779527559
 20
0.8574685039370079
 30
0.0
 10
0.5424763779527559
 20
0.8574685039370079
 30
0.0
 10
0.5424763779527559
 20
0.8574685039370079
 30
0.0
 10
0.5296968503937009
 20
0.867472440944882
 30
0.0
 10
0.5296968503937009
 20
0.867472440944882
 30
0.0
 10
0.5296968503937009
 20
0.867472440944882
 30
0.0
 10
0.5296968503937009
 20
0.867472440944882
 30
0.0
 10
-0.1145629921259843
 20
0.4855511811023622
 30
0.0
 10
-0.1145629921259843
 20
0.4855511811023622
 30
0.0
 10
-0.1145629921259843
 20
0.4855511811023622
 30
0.0
 10
-0.1145629921259843
 20
0.4855511811023622
 30
0.0
 10
-0.1017834645669291
 20
0.4755472440944882
 30
0.0
 10
-0.1017834645669291
 20
0.4755472440944882
 30
0.0
 10
-0.1017834645669291
 20
0.4755472440944882
 30
0.0
 10
-0.1017834645669291
 20
0.4755472440944882
 30
0.0
 10
-0.0906929133858268
 20
0.4649724409448819
 30
0.0
 10
-0.0906929133858268
 20
0.4649724409448819
 30
0.0
 10
-0.0906929133858268
 20
0.4649724409448819
 30
0.0
 10
-0.0906929133858268
 20
0.4649724409448819
 30
0.0
 10
-0.081248031496063
 20
0.4539173228346457
 30
0.0
 10
-0.081248031496063
 20
0.4539173228346457
 30
0.0
  0
SPLINE
  5
55
100
AcDbEntity
  8
P1-Layer 1
 62
   253
100
AcDbSpline
210
0.0
220
0.0
230
1.0
 70
     1
 71
     3
 72
    28
 73
    24
 74
     0
 42
0.0000000001
 43
0.0000000001
 40
0.0
 40
0.0
 40
0.0
 40
0.0
 40
0.1666666666666667
 40
0.1666666666666667
 40
0.1666666666666667
 40
0.1666666666666667
 40
0.3333333333333333
 40
0.3333333333333333
 40
0.3333333333333333
 40
0.3333333333333333
 40
0.5
 40
0.5
 40
0.5
 40
0.5
 40
0.6666666666666666
 40
0.6666666666666666
 40
0.6666666666666666
 40
0.6666666666666666
 40
0.8333333333333333
 40
0.8333333333333333
 40
0.8333333333333333
 40
0.8333333333333333
 40
1.0
 40
1.0
 40
1.0
 40
1.0
 10
-0.1145629921259843
 20
0.4855511811023622
 30
0.0
 10
-0.1145629921259843
 20
0.4855511811023622
 30
0.0
 10
0.5296968503937009
 20
0.867472440944882
 30
0.0
 10
0.5296968503937009
 20
0.867472440944882
 30
0.0
 10
0.5296968503937009
 20
0.867472440944882
 30
0.0
 10
0.5296968503937009
 20
0.867472440944882
 30
0.0
 10
0.5151535433070866
 20
0.8768346456692914
 30
0.0
 10
0.5151535433070866
 20
0.8768346456692914
 30
0.0
 10
0.5151535433070866
 20
0.8768346456692914
 30
0.0
 10
0.5151535433070866
 20
0.8768346456692914
 30
0.0
 10
0.4987992125984252
 20
0.8854685039370079
 30
0.0
 10
0.4987992125984252
 20
0.8854685039370079
 30
0.0
 10
0.4987992125984252
 20
0.8854685039370079
 30
0.0
 10
0.4987992125984252
 20
0.8854685039370079
 30
0.0
 10
-0.1454606299212599
 20
0.5035472440944883
 30
0.0
 10
-0.1454606299212599
 20
0.5035472440944883
 30
0.0
 10
-0.1454606299212599
 20
0.5035472440944883
 30
0.0
 10
-0.1454606299212599
 20
0.5035472440944883
 30
0.0
 10
-0.1291062992125984
 20
0.4949133858267717
 30
0.0
 10
-0.1291062992125984
 20
0.4949133858267717
 30
0.0
 10
-0.1291062992125984
 20
0.4949133858267717
 30
0.0
 10
-0.1291062992125984
 20
0.4949133858267717
 30
0.0
 10
-0.1145629921259843
 20
0.4855511811023622
 30
0.0
 10
-0.1145629921259843
 20
0.4855511811023622
 30
0.0
  0
SPLINE
  5
56
100
AcDbEntity
  8
P1-Layer 1
 62
   253
100
AcDbSpline
210
0.0
220
0.0
230
1.0
 70
     1
 71
     3
 72
    28
 73
    24
 74
     0
 42
0.0000000001
 43
0.0000000001
 40
0.0
 40
0.0
 40
0.0
 40
0.0
 40
0.1666666666666667
 40
0.1666666666666667
 40
0.1666666666666667
 40
0.1666666666666667
 40
0.3333333333333333
 40
0.3333333333333333
 40
0.3333333333333333
 40
0.3333333333333333
 40
0.5
 40
0.5
 40
0.5
 40
0.5
 40
0.6666666666666666
 40
0.6666666666666666
 40
0.6666666666666666
 40
0.6666666666666666
 40
0.8333333333333333
 40
0.8333333333333333
 40
0.8333333333333333
 40
0.8333333333333333
 40
1.0
 40
1.0
 40
1.0
 40
1.0
 10
-0.1454606299212599
 20
0.5035472440944883
 30
0.0
 10
-0.1454606299212599
 20
0.5035472440944883
 30
0.0
 10
0.4987992125984252
 20
0.8854685039370079
 30
0.0
 10
0.4987992125984252
 20
0.8854685039370079
 30
0.0
 10
0.4987992125984252
 20
0.8854685039370079
 30
0.0
 10
0.4987992125984252
 20
0.8854685039370079
 30
0.0
 10
0.4805708661417323
 20
0.8933031496062992
 30
0.0
 10
0.4805708661417323
 20
0.8933031496062992
 30
0.0
 10
0.4805708661417323
 20
0.8933031496062992
 30
0.0
 10
0.4805708661417323
 20
0.8933031496062992
 30
0.0
 10
0.4604212598425197
 20
0.900244094488189
 30
0.0
 10
0.4604212598425197
 20
0.900244094488189
 30
0.0
 10
0.4604212598425197
 20
0.900244094488189
 30
0.0
 10
0.4604212598425197
 20
0.900244094488189
 30
0.0
 10
-0.1838385826771654
 20
0.5183228346456693
 30
0.0
 10
-0.1838385826771654
 20
0.5183228346456693
 30
0.0
 10
-0.1838385826771654
 20
0.5183228346456693
 30
0.0
 10
-0.1838385826771654
 20
0.5183228346456693
 30
0.0
 10
-0.1636889763779528
 20
0.5113818897637795
 30
0.0
 10
-0.1636889763779528
 20
0.5113818897637795
 30
0.0
 10
-0.1636889763779528
 20
0.5113818897637795
 30
0.0
 10
-0.1636889763779528
 20
0.5113818897637795
 30
0.0
 10
-0.1454606299212599
 20
0.5035472440944883
 30
0.0
 10
-0.1454606299212599
 20
0.5035472440944883
 30
0.0
  0
SPLINE
  5
57
100
AcDbEntity
  8
P1-Layer 1
 62
   253
100
AcDbSpline
210
0.0
220
0.0
230
1.0
 70
     1
 71
     3
 72
    28
 73
    24
 74
     0
 42
0.0000000001
 43
0.0000000001
 40
0.0
 40
0.0
 40
0.0
 40
0.0
 40
0.1666666666666667
 40
0.1666666666666667
 40
0.1666666666666667
 40
0.1666666666666667
 40
0.3333333333333333
 40
0.3333333333333333
 40
0.3333333333333333
 40
0.3333333333333333
 40
0.5
 40
0.5
 40
0.5
 40
0.5
 40
0.6666666666666666
 40
0.6666666666666666
 40
0.6666666666666666
 40
0.6666666666666666
 40
0.8333333333333333
 40
0.8333333333333333
 40
0.8333333333333333
 40
0.8333333333333333
 40
1.0
 40
1.0
 40
1.0
 40
1.0
 10
-0.1838385826771654
 20
0.5183228346456693
 30
0.0
 10
-0.1838385826771654
 20
0.5183228346456693
 30
0.0
 10
0.4604212598425197
 20
0.900244094488189
 30
0.0
 10
0.4604212598425197
 20
0.900244094488189
 30
0.0
 10
0.4604212598425197
 20
0.900244094488189
 30
0.0
 10
0.4604212598425197
 20
0.900244094488189
 30
0.0
 10
0.4382834645669291
 20
0.906232283464567
 30
0.0
 10
0.4382834645669291
 20
0.906232283464567
 30
0.0
 10
0.4382834645669291
 20
0.906232283464567
 30
0.0
 10
0.4382834645669291
 20
0.906232283464567
 30
0.0
 10
0.4141102362204724
 20
0.9111692913385827
 30
0.0
 10
0.4141102362204724
 20
0.9111692913385827
 30
0.0
 10
0.4141102362204724
 20
0.9111692913385827
 30
0.0
 10
0.4141102362204724
 20
0.9111692913385827
 30
0.0
 10
-0.2301496062992126
 20
0.529248031496063
 30
0.0
 10
-0.2301496062992126
 20
0.529248031496063
 30
0.0
 10
-0.2301496062992126
 20
0.529248031496063
 30
0.0
 10
-0.2301496062992126
 20
0.529248031496063
 30
0.0
 10
-0.2059763779527559
 20
0.5243110236220473
 30
0.0
 10
-0.2059763779527559
 20
0.5243110236220473
 30
0.0
 10
-0.2059763779527559
 20
0.5243110236220473
 30
0.0
 10
-0.2059763779527559
 20
0.5243110236220473
 30
0.0
 10
-0.1838385826771654
 20
0.5183228346456693
 30
0.0
 10
-0.1838385826771654
 20
0.5183228346456693
 30
0.0
  0
SPLINE
  5
58
100
AcDbEntity
  8
P1-Layer 1
 62
   253
100
AcDbSpline
210
0.0
220
0.0
230
1.0
 70
     1
 71
     3
 72
    20
 73
    16
 74
     0
 42
0.0000000001
 43
0.0000000001
 40
0.0
 40
0.0
 40
0.0
 40
0.0
 40
0.25
 40
0.25
 40
0.25
 40
0.25
 40
0.5
 40
0.5
 40
0.5
 40
0.5
 40
0.75
 40
0.75
 40
0.75
 40
0.75
 40
1.0
 40
1.0
 40
1.0
 40
1.0
 10
-0.2301496062992126
 20
0.529248031496063
 30
0.0
 10
-0.2301496062992126
 20
0.529248031496063
 30
0.0
 10
0.4141102362204724
 20
0.9111692913385827
 30
0.0
 10
0.4141102362204724
 20
0.9111692913385827
 30
0.0
 10
0.4141102362204724
 20
0.9111692913385827
 30
0.0
 10
0.4141102362204724
 20
0.9111692913385827
 30
0.0
 10
0.3878346456692914
 20
0.914984251968504
 30
0.0
 10
0.3878346456692914
 20
0.914984251968504
 30
0.0
 10
0.3878346456692914
 20
0.914984251968504
 30
0.0
 10
0.3878346456692914
 20
0.914984251968504
 30
0.0
 10
-0.2564251968503937
 20
0.5330629921259843
 30
0.0
 10
-0.2564251968503937
 20
0.5330629921259843
 30
0.0
 10
-0.2564251968503937
 20
0.5330629921259843
 30
0.0
 10
-0.2564251968503937
 20
0.5330629921259843
 30
0.0
 10
-0.2301496062992126
 20
0.529248031496063
 30
0.0
 10
-0.2301496062992126
 20
0.529248031496063
 30
0.0
  0
SPLINE
  5
59
100
AcDbEntity
  8
P1-Layer 1
370
     5
100
AcDbSpline
210
0.0
220
0.0
230
1.0
 70
     1
 71
     3
 72
   236
 73
   232
 74
     0
 42
0.0000000001
 43
0.0000000001
 40
0.0
 40
0.0
 40
0.0
 40
0.0
 40
0.0172413793103448
 40
0.0172413793103448
 40
0.0172413793103448
 40
0.0172413793103448
 40
0.0344827586206897
 40
0.0344827586206897
 40
0.0344827586206897
 40
0.0344827586206897
 40
0.0517241379310345
 40
0.0517241379310345
 40
0.0517241379310345
 40
0.0517241379310345
 40
0.0689655172413793
 40
0.0689655172413793
 40
0.0689655172413793
 40
0.0689655172413793
 40
0.0862068965517241
 40
0.0862068965517241
 40
0.0862068965517241
 40
0.0862068965517241
 40
0.103448275862069
 40
0.103448275862069
 40
0.103448275862069
 40
0.103448275862069
 40
0.1206896551724138
 40
0.1206896551724138
 40
0.1206896551724138
 40
0.1206896551724138
 40
0.1379310344827587
 40
0.1379310344827587
 40
0.1379310344827587
 40
0.1379310344827587
 40
0.1551724137931035
 40
0.1551724137931035
 40
0.1551724137931035
 40
0.1551724137931035
 40
0.1724137931034483
 40
0.1724137931034483
 40
0.1724137931034483
 40
0.1724137931034483
 40
0.1896551724137932
 40
0.1896551724137932
 40
0.1896551724137932
 40
0.1896551724137932
 40
0.206896551724138
 40
0.206896551724138
 40
0.206896551724138
 40
0.206896551724138
 40
0.2241379310344828
 40
0.2241379310344828
 40
0.2241379310344828
 40
0.2241379310344828
 40
0.2413793103448277
 40
0.2413793103448277
 40
0.2413793103448277
 40
0.2413793103448277
 40
0.2586206896551725
 40
0.2586206896551725
 40
0.2586206896551725
 40
0.2586206896551725
 40
0.2758620689655173
 40
0.2758620689655173
 40
0.2758620689655173
 40
0.2758620689655173
 40
0.2931034482758621
 40
0.2931034482758621
 40
0.2931034482758621
 40
0.2931034482758621
 40
0.3103448275862069
 40
0.3103448275862069
 40
0.3103448275862069
 40
0.3103448275862069
 40
0.3275862068965517
 40
0.3275862068965517
 40
0.3275862068965517
 40
0.3275862068965517
 40
0.3448275862068965
 40
0.3448275862068965
 40
0.3448275862068965
 40
0.3448275862068965
 40
0.3620689655172413
 40
0.3620689655172413
 40
0.3620689655172413
 40
0.3620689655172413
 40
0.3793103448275861
 40
0.3793103448275861
 40
0.3793103448275861
 40
0.3793103448275861
 40
0.3965517241379309
 40
0.3965517241379309
 40
0.3965517241379309
 40
0.3965517241379309
 40
0.4137931034482758
 40
0.4137931034482758
 40
0.4137931034482758
 40
0.4137931034482758
 40
0.4310344827586206
 40
0.4310344827586206
 40
0.4310344827586206
 40
0.4310344827586206
 40
0.4482758620689654
 40
0.4482758620689654
 40
0.4482758620689654
 40
0.4482758620689654
 40
0.4655172413793102
 40
0.4655172413793102
 40
0.4655172413793102
 40
0.4655172413793102
 40
0.482758620689655
 40
0.482758620689655
 40
0.482758620689655
 40
0.482758620689655
 40
0.4999999999999998
 40
0.4999999999999998
 40
0.4999999999999998
 40
0.4999999999999998
 40
0.5172413793103446
 40
0.5172413793103446
 40
0.5172413793103446
 40
0.5172413793103446
 40
0.5344827586206895
 40
0.5344827586206895
 40
0.5344827586206895
 40
0.5344827586206895
 40
0.5517241379310344
 40
0.5517241379310344
 40
0.5517241379310344
 40
0.5517241379310344
 40
0.5689655172413792
 40
0.5689655172413792
 40
0.5689655172413792
 40
0.5689655172413792
 40
0.5862068965517241
 40
0.5862068965517241
 40
0.5862068965517241
 40
0.5862068965517241
 40
0.603448275862069
 40
0.603448275862069
 40
0.603448275862069
 40
0.603448275862069
 40
0.6206896551724138
 40
0.6206896551724138
 40
0.6206896551724138
 40
0.6206896551724138
 40
0.6379310344827587
 40
0.6379310344827587
 40
0.6379310344827587
 40
0.6379310344827587
 40
0.6551724137931035
 40
0.6551724137931035
 40
0.6551724137931035
 40
0.6551724137931035
 40
0.6724137931034484
 40
0.6724137931034484
 40
0.6724137931034484
 40
0.6724137931034484
 40
0.6896551724137933
 40
0.6896551724137933
 40
0.6896551724137933
 40
0.6896551724137933
 40
0.7068965517241381
 40
0.7068965517241381
 40
0.7068965517241381
 40
0.7068965517241381
 40
0.724137931034483
 40
0.724137931034483
 40
0.724137931034483
 40
0.724137931034483
 40
0.7413793103448279
 40
0.7413793103448279
 40
0.7413793103448279
 40
0.7413793103448279
 40
0.7586206896551727
 40
0.7586206896551727
 40
0.7586206896551727
 40
0.7586206896551727
 40
0.7758620689655176
 40
0.7758620689655176
 40
0.7758620689655176
 40
0.7758620689655176
 40
0.7931034482758624
 40
0.7931034482758624
 40
0.7931034482758624
 40
0.7931034482758624
 40
0.8103448275862073
 40
0.8103448275862073
 40
0.8103448275862073
 40
0.8103448275862073
 40
0.8275862068965522
 40
0.8275862068965522
 40
0.8275862068965522
 40
0.8275862068965522
 40
0.844827586206897
 40
0.844827586206897
 40
0.844827586206897
 40
0.844827586206897
 40
0.8620689655172419
 40
0.8620689655172419
 40
0.8620689655172419
 40
0.8620689655172419
 40
0.8793103448275867
 40
0.8793103448275867
 40
0.8793103448275867
 40
0.8793103448275867
 40
0.8965517241379316
 40
0.8965517241379316
 40
0.8965517241379316
 40
0.8965517241379316
 40
0.9137931034482765
 40
0.9137931034482765
 40
0.9137931034482765
 40
0.9137931034482765
 40
0.9310344827586213
 40
0.9310344827586213
 40
0.9310344827586213
 40
0.9310344827586213
 40
0.9482758620689662
 40
0.9482758620689662
 40
0.9482758620689662
 40
0.9482758620689662
 40
0.9655172413793111
 40
0.9655172413793111
 40
0.9655172413793111
 40
0.9655172413793111
 40
0.9827586206896559
 40
0.9827586206896559
 40
0.9827586206896559
 40
0.9827586206896559
 40
1.0
 40
1.0
 40
1.0
 40
1.0
 10
-0.1272755905511811
 20
0.2633622047244095
 30
0.0
 10
-0.1272755905511811
 20
0.2633622047244095
 30
0.0
 10
0.516984251968504
 20
0.6452834645669292
 30
0.0
 10
0.516984251968504
 20
0.6452834645669292
 30
0.0
 10
0.516984251968504
 20
0.6452834645669292
 30
0.0
 10
0.516984251968504
 20
0.6452834645669292
 30
0.0
 10
0.5273818897637795
 20
0.6513622047244094
 30
0.0
 10
0.5273818897637795
 20
0.6513622047244094
 30
0.0
 10
0.5273818897637795
 20
0.6513622047244094
 30
0.0
 10
0.5273818897637795
 20
0.6513622047244094
 30
0.0
 10
0.5371574803149607
 20
0.6584055118110237
 30
0.0
 10
0.5371574803149607
 20
0.6584055118110237
 30
0.0
 10
0.5371574803149607
 20
0.6584055118110237
 30
0.0
 10
0.5371574803149607
 20
0.6584055118110237
 30
0.0
 10
0.5462598425196851
 20
0.6663188976377953
 30
0.0
 10
0.5462598425196851
 20
0.6663188976377953
 30
0.0
 10
0.5462598425196851
 20
0.6663188976377953
 30
0.0
 10
0.5462598425196851
 20
0.6663188976377953
 30
0.0
 10
0.5546220472440945
 20
0.6750393700787402
 30
0.0
 10
0.5546220472440945
 20
0.6750393700787402
 30
0.0
 10
0.5546220472440945
 20
0.6750393700787402
 30
0.0
 10
0.5546220472440945
 20
0.6750393700787402
 30
0.0
 10
0.5622047244094488
 20
0.6844645669291339
 30
0.0
 10
0.5622047244094488
 20
0.6844645669291339
 30
0.0
 10
0.5622047244094488
 20
0.6844645669291339
 30
0.0
 10
0.5622047244094488
 20
0.6844645669291339
 30
0.0
 10
0.5689370078740158
 20
0.6945354330708662
 30
0.0
 10
0.5689370078740158
 20
0.6945354330708662
 30
0.0
 10
0.5689370078740158
 20
0.6945354330708662
 30
0.0
 10
0.5689370078740158
 20
0.6945354330708662
 30
0.0
 10
0.5747677165354331
 20
0.7051574803149606
 30
0.0
 10
0.5747677165354331
 20
0.7051574803149606
 30
0.0
 10
0.5747677165354331
 20
0.7051574803149606
 30
0.0
 10
0.5747677165354331
 20
0.7051574803149606
 30
0.0
 10
0.5796338582677165
 20
0.7162598425196851
 30
0.0
 10
0.5796338582677165
 20
0.7162598425196851
 30
0.0
 10
0.5796338582677165
 20
0.7162598425196851
 30
0.0
 10
0.5796338582677165
 20
0.7162598425196851
 30
0.0
 10
0.583488188976378
 20
0.7277519685039371
 30
0.0
 10
0.583488188976378
 20
0.7277519685039371
 30
0.0
 10
0.583488188976378
 20
0.7277519685039371
 30
0.0
 10
0.583488188976378
 20
0.7277519685039371
 30
0.0
 10
0.586263779527559
 20
0.7395629921259843
 30
0.0
 10
0.586263779527559
 20
0.7395629921259843
 30
0.0
 10
0.586263779527559
 20
0.7395629921259843
 30
0.0
 10
0.586263779527559
 20
0.7395629921259843
 30
0.0
 10
0.5879094488188976
 20
0.7516102362204725
 30
0.0
 10
0.5879094488188976
 20
0.7516102362204725
 30
0.0
 10
0.5879094488188976
 20
0.7516102362204725
 30
0.0
 10
0.5879094488188976
 20
0.7516102362204725
 30
0.0
 10
0.5883661417322835
 20
0.7638228346456694
 30
0.0
 10
0.5883661417322835
 20
0.7638228346456694
 30
0.0
 10
0.5883661417322835
 20
0.7638228346456694
 30
0.0
 10
0.5883661417322835
 20
0.7638228346456694
 30
0.0
 10
0.5875905511811024
 20
0.7760984251968505
 30
0.0
 10
0.5875905511811024
 20
0.7760984251968505
 30
0.0
 10
0.5875905511811024
 20
0.7760984251968505
 30
0.0
 10
0.5875905511811024
 20
0.7760984251968505
 30
0.0
 10
0.5855039370078741
 20
0.7883740157480316
 30
0.0
 10
0.5855039370078741
 20
0.7883740157480316
 30
0.0
 10
0.5855039370078741
 20
0.7883740157480316
 30
0.0
 10
0.5855039370078741
 20
0.7883740157480316
 30
0.0
 10
0.5820629921259842
 20
0.8005629921259843
 30
0.0
 10
0.5820629921259842
 20
0.8005629921259843
 30
0.0
 10
0.5820629921259842
 20
0.8005629921259843
 30
0.0
 10
0.5820629921259842
 20
0.8005629921259843
 30
0.0
 10
0.5772007874015749
 20
0.8125944881889764
 30
0.0
 10
0.5772007874015749
 20
0.8125944881889764
 30
0.0
 10
0.5772007874015749
 20
0.8125944881889764
 30
0.0
 10
0.5772007874015749
 20
0.8125944881889764
 30
0.0
 10
0.5708740157480315
 20
0.8243740157480315
 30
0.0
 10
0.5708740157480315
 20
0.8243740157480315
 30
0.0
 10
0.5708740157480315
 20
0.8243740157480315
 30
0.0
 10
0.5708740157480315
 20
0.8243740157480315
 30
0.0
 10
0.5630118110236221
 20
0.8358385826771654
 30
0.0
 10
0.5630118110236221
 20
0.8358385826771654
 30
0.0
 10
0.5630118110236221
 20
0.8358385826771654
 30
0.0
 10
0.5630118110236221
 20
0.8358385826771654
 30
0.0
 10
0.5535669291338583
 20
0.8468937007874016
 30
0.0
 10
0.5535669291338583
 20
0.8468937007874016
 30
0.0
 10
0.5535669291338583
 20
0.8468937007874016
 30
0.0
 10
0.5535669291338583
 20
0.8468937007874016
 30
0.0
 10
0.5424763779527559
 20
0.8574685039370079
 30
0.0
 10
0.5424763779527559
 20
0.8574685039370079
 30
0.0
 10
0.5424763779527559
 20
0.8574685039370079
 30
0.0
 10
0.5424763779527559
 20
0.8574685039370079
 30
0.0
 10
0.5296968503937009
 20
0.867472440944882
 30
0.0
 10
0.5296968503937009
 20
0.867472440944882
 30
0.0
 10
0.5296968503937009
 20
0.867472440944882
 30
0.0
 10
0.5296968503937009
 20
0.867472440944882
 30
0.0
 10
0.5151535433070866
 20
0.8768346456692914
 30
0.0
 10
0.5151535433070866
 20
0.8768346456692914
 30
0.0
 10
0.5151535433070866
 20
0.8768346456692914
 30
0.0
 10
0.5151535433070866
 20
0.8768346456692914
 30
0.0
 10
0.4987992125984252
 20
0.8854685039370079
 30
0.0
 10
0.4987992125984252
 20
0.8854685039370079
 30
0.0
 10
0.4987992125984252
 20
0.8854685039370079
 30
0.0
 10
0.4987992125984252
 20
0.8854685039370079
 30
0.0
 10
0.4805708661417323
 20
0.8933031496062992
 30
0.0
 10
0.4805708661417323
 20
0.8933031496062992
 30
0.0
 10
0.4805708661417323
 20
0.8933031496062992
 30
0.0
 10
0.4805708661417323
 20
0.8933031496062992
 30
0.0
 10
0.4604212598425197
 20
0.900244094488189
 30
0.0
 10
0.4604212598425197
 20
0.900244094488189
 30
0.0
 10
0.4604212598425197
 20
0.900244094488189
 30
0.0
 10
0.4604212598425197
 20
0.900244094488189
 30
0.0
 10
0.4382834645669291
 20
0.906232283464567
 30
0.0
 10
0.4382834645669291
 20
0.906232283464567
 30
0.0
 10
0.4382834645669291
 20
0.906232283464567
 30
0.0
 10
0.4382834645669291
 20
0.906232283464567
 30
0.0
 10
0.4141102362204724
 20
0.9111692913385827
 30
0.0
 10
0.4141102362204724
 20
0.9111692913385827
 30
0.0
 10
0.4141102362204724
 20
0.9111692913385827
 30
0.0
 10
0.4141102362204724
 20
0.9111692913385827
 30
0.0
 10
0.3878346456692914
 20
0.914984251968504
 30
0.0
 10
0.3878346456692914
 20
0.914984251968504
 30
0.0
 10
0.3878346456692914
 20
0.914984251968504
 30
0.0
 10
0.3878346456692914
 20
0.914984251968504
 30
0.0
 10
-0.2564251968503937
 20
0.5330629921259843
 30
0.0
 10
-0.2564251968503937
 20
0.5330629921259843
 30
0.0
 10
-0.2564251968503937
 20
0.5330629921259843
 30
0.0
 10
-0.2564251968503937
 20
0.5330629921259843
 30
0.0
 10
-0.2301496062992126
 20
0.529248031496063
 30
0.0
 10
-0.2301496062992126
 20
0.529248031496063
 30
0.0
 10
-0.2301496062992126
 20
0.529248031496063
 30
0.0
 10
-0.2301496062992126
 20
0.529248031496063
 30
0.0
 10
-0.2059763779527559
 20
0.5243110236220473
 30
0.0
 10
-0.2059763779527559
 20
0.5243110236220473
 30
0.0
 10
-0.2059763779527559
 20
0.5243110236220473
 30
0.0
 10
-0.2059763779527559
 20
0.5243110236220473
 30
0.0
 10
-0.1838385826771654
 20
0.5183228346456693
 30
0.0
 10
-0.1838385826771654
 20
0.5183228346456693
 30
0.0
 10
-0.1838385826771654
 20
0.5183228346456693
 30
0.0
 10
-0.1838385826771654
 20
0.5183228346456693
 30
0.0
 10
-0.1636889763779528
 20
0.5113818897637795
 30
0.0
 10
-0.1636889763779528
 20
0.5113818897637795
 30
0.0
 10
-0.1636889763779528
 20
0.5113818897637795
 30
0.0
 10
-0.1636889763779528
 20
0.5113818897637795
 30
0.0
 10
-0.1454606299212599
 20
0.5035472440944883
 30
0.0
 10
-0.1454606299212599
 20
0.5035472440944883
 30
0.0
 10
-0.1454606299212599
 20
0.5035472440944883
 30
0.0
 10
-0.1454606299212599
 20
0.5035472440944883
 30
0.0
 10
-0.1291062992125984
 20
0.4949133858267717
 30
0.0
 10
-0.1291062992125984
 20
0.4949133858267717
 30
0.0
 10
-0.1291062992125984
 20
0.4949133858267717
 30
0.0
 10
-0.1291062992125984
 20
0.4949133858267717
 30
0.0
 10
-0.1145629921259843
 20
0.4855511811023622
 30
0.0
 10
-0.1145629921259843
 20
0.4855511811023622
 30
0.0
 10
-0.1145629921259843
 20
0.4855511811023622
 30
0.0
 10
-0.1145629921259843
 20
0.4855511811023622
 30
0.0
 10
-0.1017834645669291
 20
0.4755472440944882
 30
0.0
 10
-0.1017834645669291
 20
0.4755472440944882
 30
0.0
 10
-0.1017834645669291
 20
0.4755472440944882
 30
0.0
 10
-0.1017834645669291
 20
0.4755472440944882
 30
0.0
 10
-0.0906929133858268
 20
0.4649724409448819
 30
0.0
 10
-0.0906929133858268
 20
0.4649724409448819
 30
0.0
 10
-0.0906929133858268
 20
0.4649724409448819
 30
0.0
 10
-0.0906929133858268
 20
0.4649724409448819
 30
0.0
 10
-0.081248031496063
 20
0.4539173228346457
 30
0.0
 10
-0.081248031496063
 20
0.4539173228346457
 30
0.0
 10
-0.081248031496063
 20
0.4539173228346457
 30
0.0
 10
-0.081248031496063
 20
0.4539173228346457
 30
0.0
 10
-0.0733858267716535
 20
0.4424527559055118
 30
0.0
 10
-0.0733858267716535
 20
0.4424527559055118
 30
0.0
 10
-0.0733858267716535
 20
0.4424527559055118
 30
0.0
 10
-0.0733858267716535
 20
0.4424527559055118
 30
0.0
 10
-0.0670590551181102
 20
0.4306732283464567
 30
0.0
 10
-0.0670590551181102
 20
0.4306732283464567
 30
0.0
 10
-0.0670590551181102
 20
0.4306732283464567
 30
0.0
 10
-0.0670590551181102
 20
0.4306732283464567
 30
0.0
 10
-0.0621968503937008
 20
0.4186417322834646
 30
0.0
 10
-0.0621968503937008
 20
0.4186417322834646
 30
0.0
 10
-0.0621968503937008
 20
0.4186417322834646
 30
0.0
 10
-0.0621968503937008
 20
0.4186417322834646
 30
0.0
 10
-0.058755905511811
 20
0.4064527559055118
 30
0.0
 10
-0.058755905511811
 20
0.4064527559055118
 30
0.0
 10
-0.058755905511811
 20
0.4064527559055118
 30
0.0
 10
-0.058755905511811
 20
0.4064527559055118
 30
0.0
 10
-0.0566692913385827
 20
0.3941771653543307
 30
0.0
 10
-0.0566692913385827
 20
0.3941771653543307
 30
0.0
 10
-0.0566692913385827
 20
0.3941771653543307
 30
0.0
 10
-0.0566692913385827
 20
0.3941771653543307
 30
0.0
 10
-0.0558937007874016
 20
0.3819015748031496
 30
0.0
 10
-0.0558937007874016
 20
0.3819015748031496
 30
0.0
 10
-0.0558937007874016
 20
0.3819015748031496
 30
0.0
 10
-0.0558937007874016
 20
0.3819015748031496
 30
0.0
 10
-0.0563503937007874
 20
0.3696889763779528
 30
0.0
 10
-0.0563503937007874
 20
0.3696889763779528
 30
0.0
 10
-0.0563503937007874
 20
0.3696889763779528
 30
0.0
 10
-0.0563503937007874
 20
0.3696889763779528
 30
0.0
 10
-0.057996062992126
 20
0.3576417322834646
 30
0.0
 10
-0.057996062992126
 20
0.3576417322834646
 30
0.0
 10
-0.057996062992126
 20
0.3576417322834646
 30
0.0
 10
-0.057996062992126
 20
0.3576417322834646
 30
0.0
 10
-0.0607716535433071
 20
0.3458307086614174
 30
0.0
 10
-0.0607716535433071
 20
0.3458307086614174
 30
0.0
 10
-0.0607716535433071
 20
0.3458307086614174
 30
0.0
 10
-0.0607716535433071
 20
0.3458307086614174
 30
0.0
 10
-0.0646259842519685
 20
0.3343385826771654
 30
0.0
 10
-0.0646259842519685
 20
0.3343385826771654
 30
0.0
 10
-0.0646259842519685
 20
0.3343385826771654
 30
0.0
 10
-0.0646259842519685
 20
0.3343385826771654
 30
0.0
 10
-0.069492125984252
 20
0.3232362204724409
 30
0.0
 10
-0.069492125984252
 20
0.3232362204724409
 30
0.0
 10
-0.069492125984252
 20
0.3232362204724409
 30
0.0
 10
-0.069492125984252
 20
0.3232362204724409
 30
0.0
 10
-0.0753228346456693
 20
0.3126141732283465
 30
0.0
 10
-0.0753228346456693
 20
0.3126141732283465
 30
0.0
 10
-0.0753228346456693
 20
0.3126141732283465
 30
0.0
 10
-0.0753228346456693
 20
0.3126141732283465
 30
0.0
 10
-0.0820551181102362
 20
0.3025433070866142
 30
0.0
 10
-0.0820551181102362
 20
0.3025433070866142
 30
0.0
 10
-0.0820551181102362
 20
0.3025433070866142
 30
0.0
 10
-0.0820551181102362
 20
0.3025433070866142
 30
0.0
 10
-0.0896377952755906
 20
0.2931181102362205
 30
0.0
 10
-0.0896377952755906
 20
0.2931181102362205
 30
0.0
 10
-0.0896377952755906
 20
0.2931181102362205
 30
0.0
 10
-0.0896377952755906
 20
0.2931181102362205
 30
0.0
 10
-0.098
 20
0.2843976377952756
 30
0.0
 10
-0.098
 20
0.2843976377952756
 30
0.0
 10
-0.098
 20
0.2843976377952756
 30
0.0
 10
-0.098
 20
0.2843976377952756
 30
0.0
 10
-0.1071023622047244
 20
0.276484251968504
 30
0.0
 10
-0.1071023622047244
 20
0.276484251968504
 30
0.0
 10
-0.1071023622047244
 20
0.276484251968504
 30
0.0
 10
-0.1071023622047244
 20
0.276484251968504
 30
0.0
 10
-0.1168779527559055
 20
0.2694409448818898
 30
0.0
 10
-0.1168779527559055
 20
0.2694409448818898
 30
0.0
 10
-0.1168779527559055
 20
0.2694409448818898
 30
0.0
 10
-0.1168779527559055
 20
0.2694409448818898
 30
0.0
 10
-0.1272755905511811
 20
0.2633622047244095
 30
0.0
 10
-0.1272755905511811
 20
0.2633622047244095
 30
0.0
  0
SPLINE
  5
5A
100
AcDbEntity
  8
P1-Layer 1
 62
     9
100
AcDbSpline
210
0.0
220
0.0
230
1.0
 70
     1
 71
     3
 72
    20
 73
    16
 74
     0
 42
0.0000000001
 43
0.0000000001
 40
0.0
 40
0.0
 40
0.0
 40
0.0
 40
0.25
 40
0.25
 40
0.25
 40
0.25
 40
0.5
 40
0.5
 40
0.5
 40
0.5
 40
0.75
 40
0.75
 40
0.75
 40
0.75
 40
1.0
 40
1.0
 40
1.0
 40
1.0
 10
-0.2564251968503937
 20
0.5330629921259843
 30
0.0
 10
-0.2564251968503937
 20
0.5330629921259843
 30
0.0
 10
0.3878346456692914
 20
0.914984251968504
 30
0.0
 10
0.3878346456692914
 20
0.914984251968504
 30
0.0
 10
0.3878346456692914
 20
0.914984251968504
 30
0.0
 10
0.3878346456692914
 20
0.914984251968504
 30
0.0
 10
0.3694133858267717
 20
1.0245275590551182
 30
0.0
 10
0.3694133858267717
 20
1.0245275590551182
 30
0.0
 10
0.3694133858267717
 20
1.0245275590551182
 30
0.0
 10
0.3694133858267717
 20
1.0245275590551182
 30
0.0
 10
-0.2748464566929134
 20
0.6426062992125985
 30
0.0
 10
-0.2748464566929134
 20
0.6426062992125985
 30
0.0
 10
-0.2748464566929134
 20
0.6426062992125985
 30
0.0
 10
-0.2748464566929134
 20
0.6426062992125985
 30
0.0
 10
-0.2564251968503937
 20
0.5330629921259843
 30
0.0
 10
-0.2564251968503937
 20
0.5330629921259843
 30
0.0
  0
SPLINE
  5
5B
100
AcDbEntity
  8
P1-Layer 1
370
     5
100
AcDbSpline
210
0.0
220
0.0
230
1.0
 70
     1
 71
     3
 72
    20
 73
    16
 74
     0
 42
0.0000000001
 43
0.0000000001
 40
0.0
 40
0.0
 40
0.0
 40
0.0
 40
0.25
 40
0.25
 40
0.25
 40
0.25
 40
0.5
 40
0.5
 40
0.5
 40
0.5
 40
0.75
 40
0.75
 40
0.75
 40
0.75
 40
1.0
 40
1.0
 40
1.0
 40
1.0
 10
-0.2564251968503937
 20
0.5330629921259843
 30
0.0
 10
-0.2564251968503937
 20
0.5330629921259843
 30
0.0
 10
0.3878346456692914
 20
0.914984251968504
 30
0.0
 10
0.3878346456692914
 20
0.914984251968504
 30
0.0
 10
0.3878346456692914
 20
0.914984251968504
 30
0.0
 10
0.3878346456692914
 20
0.914984251968504
 30
0.0
 10
0.3694133858267717
 20
1.0245275590551182
 30
0.0
 10
0.3694133858267717
 20
1.0245275590551182
 30
0.0
 10
0.3694133858267717
 20
1.0245275590551182
 30
0.0
 10
0.3694133858267717
 20
1.0245275590551182
 30
0.0
 10
-0.2748464566929134
 20
0.6426062992125985
 30
0.0
 10
-0.2748464566929134
 20
0.6426062992125985
 30
0.0
 10
-0.2748464566929134
 20
0.6426062992125985
 30
0.0
 10
-0.2748464566929134
 20
0.6426062992125985
 30
0.0
 10
-0.2564251968503937
 20
0.5330629921259843
 30
0.0
 10
-0.2564251968503937
 20
0.5330629921259843
 30
0.0
  0
SPLINE
  5
5C
100
AcDbEntity
  8
P1-Layer 1
 62
   252
100
AcDbSpline
210
0.0
220
0.0
230
1.0
 70
     1
 71
     3
 72
    20
 73
    16
 74
     0
 42
0.0000000001
 43
0.0000000001
 40
0.0
 40
0.0
 40
0.0
 40
0.0
 40
0.25
 40
0.25
 40
0.25
 40
0.25
 40
0.5
 40
0.5
 40
0.5
 40
0.5
 40
0.75
 40
0.75
 40
0.75
 40
0.75
 40
1.0
 40
1.0
 40
1.0
 40
1.0
 10
-0.2748464566929134
 20
0.6426062992125985
 30
0.0
 10
-0.2748464566929134
 20
0.6426062992125985
 30
0.0
 10
0.3694133858267717
 20
1.0245275590551182
 30
0.0
 10
0.3694133858267717
 20
1.0245275590551182
 30
0.0
 10
0.3694133858267717
 20
1.0245275590551182
 30
0.0
 10
0.3694133858267717
 20
1.0245275590551182
 30
0.0
 10
0.2029527559055118
 20
1.0245275590551182
 30
0.0
 10
0.2029527559055118
 20
1.0245275590551182
 30
0.0
 10
0.2029527559055118
 20
1.0245275590551182
 30
0.0
 10
0.2029527559055118
 20
1.0245275590551182
 30
0.0
 10
-0.4413070866141732
 20
0.6426062992125985
 30
0.0
 10
-0.4413070866141732
 20
0.6426062992125985
 30
0.0
 10
-0.4413070866141732
 20
0.6426062992125985
 30
0.0
 10
-0.4413070866141732
 20
0.6426062992125985
 30
0.0
 10
-0.2748464566929134
 20
0.6426062992125985
 30
0.0
 10
-0.2748464566929134
 20
0.6426062992125985
 30
0.0
  0
SPLINE
  5
5D
100
AcDbEntity
  8
P1-Layer 1
370
     5
100
AcDbSpline
210
0.0
220
0.0
230
1.0
 70
     1
 71
     3
 72
    20
 73
    16
 74
     0
 42
0.0000000001
 43
0.0000000001
 40
0.0
 40
0.0
 40
0.0
 40
0.0
 40
0.25
 40
0.25
 40
0.25
 40
0.25
 40
0.5
 40
0.5
 40
0.5
 40
0.5
 40
0.75
 40
0.75
 40
0.75
 40
0.75
 40
1.0
 40
1.0
 40
1.0
 40
1.0
 10
-0.2748464566929134
 20
0.6426062992125985
 30
0.0
 10
-0.2748464566929134
 20
0.6426062992125985
 30
0.0
 10
0.3694133858267717
 20
1.0245275590551182
 30
0.0
 10
0.3694133858267717
 20
1.0245275590551182
 30
0.0
 10
0.3694133858267717
 20
1.0245275590551182
 30
0.0
 10
0.3694133858267717
 20
1.0245275590551182
 30
0.0
 10
0.2029527559055118
 20
1.0245275590551182
 30
0.0
 10
0.2029527559055118
 20
1.0245275590551182
 30
0.0
 10
0.2029527559055118
 20
1.0245275590551182
 30
0.0
 10
0.2029527559055118
 20
1.0245275590551182
 30
0.0
 10
-0.4413070866141732
 20
0.6426062992125985
 30
0.0
 10
-0.4413070866141732
 20
0.6426062992125985
 30
0.0
 10
-0.4413070866141732
 20
0.6426062992125985
 30
0.0
 10
-0.4413070866141732
 20
0.6426062992125985
 30
0.0
 10
-0.2748464566929134
 20
0.6426062992125985
 30
0.0
 10
-0.2748464566929134
 20
0.6426062992125985
 30
0.0
  0
SPLINE
  5
5E
100
AcDbEntity
  8
P1-Layer 1
 62
     9
100
AcDbSpline
210
0.0
220
0.0
230
1.0
 70
     1
 71
     3
 72
    20
 73
    16
 74
     0
 42
0.0000000001
 43
0.0000000001
 40
0.0
 40
0.0
 40
0.0
 40
0.0
 40
0.25
 40
0.25
 40
0.25
 40
0.25
 40
0.5
 40
0.5
 40
0.5
 40
0.5
 40
0.75
 40
0.75
 40
0.75
 40
0.75
 40
1.0
 40
1.0
 40
1.0
 40
1.0
 10
0.1024133858267717
 20
-0.8573937007874016
 30
0.0
 10
0.1024133858267717
 20
-0.8573937007874016
 30
0.0
 10
0.7466732283464568
 20
-0.4754724409448819
 30
0.0
 10
0.7466732283464568
 20
-0.4754724409448819
 30
0.0
 10
0.7466732283464568
 20
-0.4754724409448819
 30
0.0
 10
0.7466732283464568
 20
-0.4754724409448819
 30
0.0
 10
0.7477795275590552
 20
-0.3968976377952756
 30
0.0
 10
0.7477795275590552
 20
-0.3968976377952756
 30
0.0
 10
0.7477795275590552
 20
-0.3968976377952756
 30
0.0
 10
0.7477795275590552
 20
-0.3968976377952756
 30
0.0
 10
0.1035196850393701
 20
-0.7788188976377953
 30
0.0
 10
0.1035196850393701
 20
-0.7788188976377953
 30
0.0
 10
0.1035196850393701
 20
-0.7788188976377953
 30
0.0
 10
0.1035196850393701
 20
-0.7788188976377953
 30
0.0
 10
0.1024133858267717
 20
-0.8573937007874016
 30
0.0
 10
0.1024133858267717
 20
-0.8573937007874016
 30
0.0
  0
SPLINE
  5
5F
100
AcDbEntity
  8
P1-Layer 1
370
     5
100
AcDbSpline
210
0.0
220
0.0
230
1.0
 70
     1
 71
     3
 72
    20
 73
    16
 74
     0
 42
0.0000000001
 43
0.0000000001
 40
0.0
 40
0.0
 40
0.0
 40
0.0
 40
0.25
 40
0.25
 40
0.25
 40
0.25
 40
0.5
 40
0.5
 40
0.5
 40
0.5
 40
0.75
 40
0.75
 40
0.75
 40
0.75
 40
1.0
 40
1.0
 40
1.0
 40
1.0
 10
0.1024133858267717
 20
-0.8573937007874016
 30
0.0
 10
0.1024133858267717
 20
-0.8573937007874016
 30
0.0
 10
0.7466732283464568
 20
-0.4754724409448819
 30
0.0
 10
0.7466732283464568
 20
-0.4754724409448819
 30
0.0
 10
0.7466732283464568
 20
-0.4754724409448819
 30
0.0
 10
0.7466732283464568
 20
-0.4754724409448819
 30
0.0
 10
0.7477795275590552
 20
-0.3968976377952756
 30
0.0
 10
0.7477795275590552
 20
-0.3968976377952756
 30
0.0
 10
0.7477795275590552
 20
-0.3968976377952756
 30
0.0
 10
0.7477795275590552
 20
-0.3968976377952756
 30
0.0
 10
0.1035196850393701
 20
-0.7788188976377953
 30
0.0
 10
0.1035196850393701
 20
-0.7788188976377953
 30
0.0
 10
0.1035196850393701
 20
-0.7788188976377953
 30
0.0
 10
0.1035196850393701
 20
-0.7788188976377953
 30
0.0
 10
0.1024133858267717
 20
-0.8573937007874016
 30
0.0
 10
0.1024133858267717
 20
-0.8573937007874016
 30
0.0
  0
SPLINE
  5
60
100
AcDbEntity
  8
P1-Layer 1
 62
   253
100
AcDbSpline
210
0.0
220
0.0
230
1.0
 70
     1
 71
     3
 72
    28
 73
    24
 74
     0
 42
0.0000000001
 43
0.0000000001
 40
0.0
 40
0.0
 40
0.0
 40
0.0
 40
0.1666666666666667
 40
0.1666666666666667
 40
0.1666666666666667
 40
0.1666666666666667
 40
0.3333333333333333
 40
0.3333333333333333
 40
0.3333333333333333
 40
0.3333333333333333
 40
0.5
 40
0.5
 40
0.5
 40
0.5
 40
0.6666666666666666
 40
0.6666666666666666
 40
0.6666666666666666
 40
0.6666666666666666
 40
0.8333333333333333
 40
0.8333333333333333
 40
0.8333333333333333
 40
0.8333333333333333
 40
1.0
 40
1.0
 40
1.0
 40
1.0
 10
0.2185236220472441
 20
-0.7470157480314961
 30
0.0
 10
0.2185236220472441
 20
-0.7470157480314961
 30
0.0
 10
0.8627834645669291
 20
-0.3650944881889764
 30
0.0
 10
0.8627834645669291
 20
-0.3650944881889764
 30
0.0
 10
0.8627834645669291
 20
-0.3650944881889764
 30
0.0
 10
0.8627834645669291
 20
-0.3650944881889764
 30
0.0
 10
0.8778385826771654
 20
-0.3551771653543308
 30
0.0
 10
0.8778385826771654
 20
-0.3551771653543308
 30
0.0
 10
0.8778385826771654
 20
-0.3551771653543308
 30
0.0
 10
0.8778385826771654
 20
-0.3551771653543308
 30
0.0
 10
0.8916299212598425
 20
-0.3441141732283465
 30
0.0
 10
0.8916299212598425
 20
-0.3441141732283465
 30
0.0
 10
0.8916299212598425
 20
-0.3441141732283465
 30
0.0
 10
0.8916299212598425
 20
-0.3441141732283465
 30
0.0
 10
0.2473700787401575
 20
-0.7260354330708662
 30
0.0
 10
0.2473700787401575
 20
-0.7260354330708662
 30
0.0
 10
0.2473700787401575
 20
-0.7260354330708662
 30
0.0
 10
0.2473700787401575
 20
-0.7260354330708662
 30
0.0
 10
0.2335787401574803
 20
-0.7370984251968504
 30
0.0
 10
0.2335787401574803
 20
-0.7370984251968504
 30
0.0
 10
0.2335787401574803
 20
-0.7370984251968504
 30
0.0
 10
0.2335787401574803
 20
-0.7370984251968504
 30
0.0
 10
0.2185236220472441
 20
-0.7470157480314961
 30
0.0
 10
0.2185236220472441
 20
-0.7470157480314961
 30
0.0
  0
SPLINE
  5
61
100
AcDbEntity
  8
P1-Layer 1
 62
     9
100
AcDbSpline
210
0.0
220
0.0
230
1.0
 70
     1
 71
     3
 72
    28
 73
    24
 74
     0
 42
0.0000000001
 43
0.0000000001
 40
0.0
 40
0.0
 40
0.0
 40
0.0
 40
0.1666666666666667
 40
0.1666666666666667
 40
0.1666666666666667
 40
0.1666666666666667
 40
0.3333333333333333
 40
0.3333333333333333
 40
0.3333333333333333
 40
0.3333333333333333
 40
0.5
 40
0.5
 40
0.5
 40
0.5
 40
0.6666666666666666
 40
0.6666666666666666
 40
0.6666666666666666
 40
0.6666666666666666
 40
0.8333333333333333
 40
0.8333333333333333
 40
0.8333333333333333
 40
0.8333333333333333
 40
1.0
 40
1.0
 40
1.0
 40
1.0
 10
0.2473700787401575
 20
-0.7260354330708662
 30
0.0
 10
0.2473700787401575
 20
-0.7260354330708662
 30
0.0
 10
0.8916299212598425
 20
-0.3441141732283465
 30
0.0
 10
0.8916299212598425
 20
-0.3441141732283465
 30
0.0
 10
0.8916299212598425
 20
-0.3441141732283465
 30
0.0
 10
0.8916299212598425
 20
-0.3441141732283465
 30
0.0
 10
0.9041102362204725
 20
-0.3319566929133859
 30
0.0
 10
0.9041102362204725
 20
-0.3319566929133859
 30
0.0
 10
0.9041102362204725
 20
-0.3319566929133859
 30
0.0
 10
0.9041102362204725
 20
-0.3319566929133859
 30
0.0
 10
0.9152598425196851
 20
-0.3187795275590551
 30
0.0
 10
0.9152598425196851
 20
-0.3187795275590551
 30
0.0
 10
0.9152598425196851
 20
-0.3187795275590551
 30
0.0
 10
0.9152598425196851
 20
-0.3187795275590551
 30
0.0
 10
0.271
 20
-0.7007007874015748
 30
0.0
 10
0.271
 20
-0.7007007874015748
 30
0.0
 10
0.271
 20
-0.7007007874015748
 30
0.0
 10
0.271
 20
-0.7007007874015748
 30
0.0
 10
0.2598503937007874
 20
-0.7138779527559055
 30
0.0
 10
0.2598503937007874
 20
-0.7138779527559055
 30
0.0
 10
0.2598503937007874
 20
-0.7138779527559055
 30
0.0
 10
0.2598503937007874
 20
-0.7138779527559055
 30
0.0
 10
0.2473700787401575
 20
-0.7260354330708662
 30
0.0
 10
0.2473700787401575
 20
-0.7260354330708662
 30
0.0
  0
SPLINE
  5
62
100
AcDbEntity
  8
P1-Layer 1
 62
     9
100
AcDbSpline
210
0.0
220
0.0
230
1.0
 70
     1
 71
     3
 72
    28
 73
    24
 74
     0
 42
0.0000000001
 43
0.0000000001
 40
0.0
 40
0.0
 40
0.0
 40
0.0
 40
0.1666666666666667
 40
0.1666666666666667
 40
0.1666666666666667
 40
0.1666666666666667
 40
0.3333333333333333
 40
0.3333333333333333
 40
0.3333333333333333
 40
0.3333333333333333
 40
0.5
 40
0.5
 40
0.5
 40
0.5
 40
0.6666666666666666
 40
0.6666666666666666
 40
0.6666666666666666
 40
0.6666666666666666
 40
0.8333333333333333
 40
0.8333333333333333
 40
0.8333333333333333
 40
0.8333333333333333
 40
1.0
 40
1.0
 40
1.0
 40
1.0
 10
0.271
 20
-0.7007007874015748
 30
0.0
 10
0.271
 20
-0.7007007874015748
 30
0.0
 10
0.9152598425196851
 20
-0.3187795275590551
 30
0.0
 10
0.9152598425196851
 20
-0.3187795275590551
 30
0.0
 10
0.9152598425196851
 20
-0.3187795275590551
 30
0.0
 10
0.9152598425196851
 20
-0.3187795275590551
 30
0.0
 10
0.9250354330708662
 20
-0.3046417322834646
 30
0.0
 10
0.9250354330708662
 20
-0.3046417322834646
 30
0.0
 10
0.9250354330708662
 20
-0.3046417322834646
 30
0.0
 10
0.9250354330708662
 20
-0.3046417322834646
 30
0.0
 10
0.9334094488188977
 20
-0.2896102362204724
 30
0.0
 10
0.9334094488188977
 20
-0.2896102362204724
 30
0.0
 10
0.9334094488188977
 20
-0.2896102362204724
 30
0.0
 10
0.9334094488188977
 20
-0.2896102362204724
 30
0.0
 10
0.2891496062992126
 20
-0.6715314960629921
 30
0.0
 10
0.2891496062992126
 20
-0.6715314960629921
 30
0.0
 10
0.2891496062992126
 20
-0.6715314960629921
 30
0.0
 10
0.2891496062992126
 20
-0.6715314960629921
 30
0.0
 10
0.2807755905511811
 20
-0.6865629921259843
 30
0.0
 10
0.2807755905511811
 20
-0.6865629921259843
 30
0.0
 10
0.2807755905511811
 20
-0.6865629921259843
 30
0.0
 10
0.2807755905511811
 20
-0.6865629921259843
 30
0.0
 10
0.271
 20
-0.7007007874015748
 30
0.0
 10
0.271
 20
-0.7007007874015748
 30
0.0
  0
SPLINE
  5
63
100
AcDbEntity
  8
P1-Layer 1
 62
     9
100
AcDbSpline
210
0.0
220
0.0
230
1.0
 70
     1
 71
     3
 72
    28
 73
    24
 74
     0
 42
0.0000000001
 43
0.0000000001
 40
0.0
 40
0.0
 40
0.0
 40
0.0
 40
0.1666666666666667
 40
0.1666666666666667
 40
0.1666666666666667
 40
0.1666666666666667
 40
0.3333333333333333
 40
0.3333333333333333
 40
0.3333333333333333
 40
0.3333333333333333
 40
0.5
 40
0.5
 40
0.5
 40
0.5
 40
0.6666666666666666
 40
0.6666666666666666
 40
0.6666666666666666
 40
0.6666666666666666
 40
0.8333333333333333
 40
0.8333333333333333
 40
0.8333333333333333
 40
0.8333333333333333
 40
1.0
 40
1.0
 40
1.0
 40
1.0
 10
0.2891496062992126
 20
-0.6715314960629921
 30
0.0
 10
0.2891496062992126
 20
-0.6715314960629921
 30
0.0
 10
0.9334094488188977
 20
-0.2896102362204724
 30
0.0
 10
0.9334094488188977
 20
-0.2896102362204724
 30
0.0
 10
0.9334094488188977
 20
-0.2896102362204724
 30
0.0
 10
0.9334094488188977
 20
-0.2896102362204724
 30
0.0
 10
0.9403346456692914
 20
-0.273740157480315
 30
0.0
 10
0.9403346456692914
 20
-0.273740157480315
 30
0.0
 10
0.9403346456692914
 20
-0.273740157480315
 30
0.0
 10
0.9403346456692914
 20
-0.273740157480315
 30
0.0
 10
0.9457913385826772
 20
-0.2571062992125984
 30
0.0
 10
0.9457913385826772
 20
-0.2571062992125984
 30
0.0
 10
0.9457913385826772
 20
-0.2571062992125984
 30
0.0
 10
0.9457913385826772
 20
-0.2571062992125984
 30
0.0
 10
0.3015314960629921
 20
-0.6390275590551181
 30
0.0
 10
0.3015314960629921
 20
-0.6390275590551181
 30
0.0
 10
0.3015314960629921
 20
-0.6390275590551181
 30
0.0
 10
0.3015314960629921
 20
-0.6390275590551181
 30
0.0
 10
0.2960748031496063
 20
-0.6556614173228347
 30
0.0
 10
0.2960748031496063
 20
-0.6556614173228347
 30
0.0
 10
0.2960748031496063
 20
-0.6556614173228347
 30
0.0
 10
0.2960748031496063
 20
-0.6556614173228347
 30
0.0
 10
0.2891496062992126
 20
-0.6715314960629921
 30
0.0
 10
0.2891496062992126
 20
-0.6715314960629921
 30
0.0
  0
SPLINE
  5
64
100
AcDbEntity
  8
P1-Layer 1
 62
     9
100
AcDbSpline
210
0.0
220
0.0
230
1.0
 70
     1
 71
     3
 72
    28
 73
    24
 74
     0
 42
0.0000000001
 43
0.0000000001
 40
0.0
 40
0.0
 40
0.0
 40
0.0
 40
0.1666666666666667
 40
0.1666666666666667
 40
0.1666666666666667
 40
0.1666666666666667
 40
0.3333333333333333
 40
0.3333333333333333
 40
0.3333333333333333
 40
0.3333333333333333
 40
0.5
 40
0.5
 40
0.5
 40
0.5
 40
0.6666666666666666
 40
0.6666666666666666
 40
0.6666666666666666
 40
0.6666666666666666
 40
0.8333333333333333
 40
0.8333333333333333
 40
0.8333333333333333
 40
0.8333333333333333
 40
1.0
 40
1.0
 40
1.0
 40
1.0
 10
0.3015314960629921
 20
-0.6390275590551181
 30
0.0
 10
0.3015314960629921
 20
-0.6390275590551181
 30
0.0
 10
0.9457913385826772
 20
-0.2571062992125984
 30
0.0
 10
0.9457913385826772
 20
-0.2571062992125984
 30
0.0
 10
0.9457913385826772
 20
-0.2571062992125984
 30
0.0
 10
0.9457913385826772
 20
-0.2571062992125984
 30
0.0
 10
0.949732283464567
 20
-0.2397637795275591
 30
0.0
 10
0.949732283464567
 20
-0.2397637795275591
 30
0.0
 10
0.949732283464567
 20
-0.2397637795275591
 30
0.0
 10
0.949732283464567
 20
-0.2397637795275591
 30
0.0
 10
0.9521338582677166
 20
-0.2217834645669292
 30
0.0
 10
0.9521338582677166
 20
-0.2217834645669292
 30
0.0
 10
0.9521338582677166
 20
-0.2217834645669292
 30
0.0
 10
0.9521338582677166
 20
-0.2217834645669292
 30
0.0
 10
0.3078740157480315
 20
-0.6037047244094489
 30
0.0
 10
0.3078740157480315
 20
-0.6037047244094489
 30
0.0
 10
0.3078740157480315
 20
-0.6037047244094489
 30
0.0
 10
0.3078740157480315
 20
-0.6037047244094489
 30
0.0
 10
0.3054724409448819
 20
-0.6216850393700788
 30
0.0
 10
0.3054724409448819
 20
-0.6216850393700788
 30
0.0
 10
0.3054724409448819
 20
-0.6216850393700788
 30
0.0
 10
0.3054724409448819
 20
-0.6216850393700788
 30
0.0
 10
0.3015314960629921
 20
-0.6390275590551181
 30
0.0
 10
0.3015314960629921
 20
-0.6390275590551181
 30
0.0
  0
SPLINE
  5
65
100
AcDbEntity
  8
P1-Layer 1
 62
     9
100
AcDbSpline
210
0.0
220
0.0
230
1.0
 70
     1
 71
     3
 72
    28
 73
    24
 74
     0
 42
0.0000000001
 43
0.0000000001
 40
0.0
 40
0.0
 40
0.0
 40
0.0
 40
0.1666666666666667
 40
0.1666666666666667
 40
0.1666666666666667
 40
0.1666666666666667
 40
0.3333333333333333
 40
0.3333333333333333
 40
0.3333333333333333
 40
0.3333333333333333
 40
0.5
 40
0.5
 40
0.5
 40
0.5
 40
0.6666666666666666
 40
0.6666666666666666
 40
0.6666666666666666
 40
0.6666666666666666
 40
0.8333333333333333
 40
0.8333333333333333
 40
0.8333333333333333
 40
0.8333333333333333
 40
1.0
 40
1.0
 40
1.0
 40
1.0
 10
0.3078740157480315
 20
-0.6037047244094489
 30
0.0
 10
0.3078740157480315
 20
-0.6037047244094489
 30
0.0
 10
0.9521338582677166
 20
-0.2217834645669292
 30
0.0
 10
0.9521338582677166
 20
-0.2217834645669292
 30
0.0
 10
0.9521338582677166
 20
-0.2217834645669292
 30
0.0
 10
0.9521338582677166
 20
-0.2217834645669292
 30
0.0
 10
0.9529448818897638
 20
-0.2032125984251968
 30
0.0
 10
0.9529448818897638
 20
-0.2032125984251968
 30
0.0
 10
0.9529448818897638
 20
-0.2032125984251968
 30
0.0
 10
0.9529448818897638
 20
-0.2032125984251968
 30
0.0
 10
0.9521456692913386
 20
-0.1841338582677166
 30
0.0
 10
0.9521456692913386
 20
-0.1841338582677166
 30
0.0
 10
0.9521456692913386
 20
-0.1841338582677166
 30
0.0
 10
0.9521456692913386
 20
-0.1841338582677166
 30
0.0
 10
0.3078858267716536
 20
-0.5660551181102362
 30
0.0
 10
0.3078858267716536
 20
-0.5660551181102362
 30
0.0
 10
0.3078858267716536
 20
-0.5660551181102362
 30
0.0
 10
0.3078858267716536
 20
-0.5660551181102362
 30
0.0
 10
0.3086850393700787
 20
-0.5851338582677166
 30
0.0
 10
0.3086850393700787
 20
-0.5851338582677166
 30
0.0
 10
0.3086850393700787
 20
-0.5851338582677166
 30
0.0
 10
0.3086850393700787
 20
-0.5851338582677166
 30
0.0
 10
0.3078740157480315
 20
-0.6037047244094489
 30
0.0
 10
0.3078740157480315
 20
-0.6037047244094489
 30
0.0
  0
SPLINE
  5
66
100
AcDbEntity
  8
P1-Layer 1
 62
     9
100
AcDbSpline
210
0.0
220
0.0
230
1.0
 70
     1
 71
     3
 72
    28
 73
    24
 74
     0
 42
0.0000000001
 43
0.0000000001
 40
0.0
 40
0.0
 40
0.0
 40
0.0
 40
0.1666666666666667
 40
0.1666666666666667
 40
0.1666666666666667
 40
0.1666666666666667
 40
0.3333333333333333
 40
0.3333333333333333
 40
0.3333333333333333
 40
0.3333333333333333
 40
0.5
 40
0.5
 40
0.5
 40
0.5
 40
0.6666666666666666
 40
0.6666666666666666
 40
0.6666666666666666
 40
0.6666666666666666
 40
0.8333333333333333
 40
0.8333333333333333
 40
0.8333333333333333
 40
0.8333333333333333
 40
1.0
 40
1.0
 40
1.0
 40
1.0
 10
0.3078858267716536
 20
-0.5660551181102362
 30
0.0
 10
0.3078858267716536
 20
-0.5660551181102362
 30
0.0
 10
0.9521456692913386
 20
-0.1841338582677166
 30
0.0
 10
0.9521456692913386
 20
-0.1841338582677166
 30
0.0
 10
0.9521456692913386
 20
-0.1841338582677166
 30
0.0
 10
0.9521456692913386
 20
-0.1841338582677166
 30
0.0
 10
0.9496968503937008
 20
-0.1645984251968504
 30
0.0
 10
0.9496968503937008
 20
-0.1645984251968504
 30
0.0
 10
0.9496968503937008
 20
-0.1645984251968504
 30
0.0
 10
0.9496968503937008
 20
-0.1645984251968504
 30
0.0
 10
0.9455669291338583
 20
-0.1446811023622047
 30
0.0
 10
0.9455669291338583
 20
-0.1446811023622047
 30
0.0
 10
0.9455669291338583
 20
-0.1446811023622047
 30
0.0
 10
0.9455669291338583
 20
-0.1446811023622047
 30
0.0
 10
0.3013070866141732
 20
-0.5266023622047245
 30
0.0
 10
0.3013070866141732
 20
-0.5266023622047245
 30
0.0
 10
0.3013070866141732
 20
-0.5266023622047245
 30
0.0
 10
0.3013070866141732
 20
-0.5266023622047245
 30
0.0
 10
0.3054370078740158
 20
-0.5465196850393701
 30
0.0
 10
0.3054370078740158
 20
-0.5465196850393701
 30
0.0
 10
0.3054370078740158
 20
-0.5465196850393701
 30
0.0
 10
0.3054370078740158
 20
-0.5465196850393701
 30
0.0
 10
0.3078858267716536
 20
-0.5660551181102362
 30
0.0
 10
0.3078858267716536
 20
-0.5660551181102362
 30
0.0
  0
SPLINE
  5
67
100
AcDbEntity
  8
P1-Layer 1
 62
     9
100
AcDbSpline
210
0.0
220
0.0
230
1.0
 70
     1
 71
     3
 72
    28
 73
    24
 74
     0
 42
0.0000000001
 43
0.0000000001
 40
0.0
 40
0.0
 40
0.0
 40
0.0
 40
0.1666666666666667
 40
0.1666666666666667
 40
0.1666666666666667
 40
0.1666666666666667
 40
0.3333333333333333
 40
0.3333333333333333
 40
0.3333333333333333
 40
0.3333333333333333
 40
0.5
 40
0.5
 40
0.5
 40
0.5
 40
0.6666666666666666
 40
0.6666666666666666
 40
0.6666666666666666
 40
0.6666666666666666
 40
0.8333333333333333
 40
0.8333333333333333
 40
0.8333333333333333
 40
0.8333333333333333
 40
1.0
 40
1.0
 40
1.0
 40
1.0
 10
0.3013070866141732
 20
-0.5266023622047245
 30
0.0
 10
0.3013070866141732
 20
-0.5266023622047245
 30
0.0
 10
0.9455669291338583
 20
-0.1446811023622047
 30
0.0
 10
0.9455669291338583
 20
-0.1446811023622047
 30
0.0
 10
0.9455669291338583
 20
-0.1446811023622047
 30
0.0
 10
0.9455669291338583
 20
-0.1446811023622047
 30
0.0
 10
0.9397086614173229
 20
-0.1244291338582677
 30
0.0
 10
0.9397086614173229
 20
-0.1244291338582677
 30
0.0
 10
0.9397086614173229
 20
-0.1244291338582677
 30
0.0
 10
0.9397086614173229
 20
-0.1244291338582677
 30
0.0
 10
0.9321062992125985
 20
-0.1039251968503937
 30
0.0
 10
0.9321062992125985
 20
-0.1039251968503937
 30
0.0
 10
0.9321062992125985
 20
-0.1039251968503937
 30
0.0
 10
0.9321062992125985
 20
-0.1039251968503937
 30
0.0
 10
0.2878464566929134
 20
-0.4858464566929134
 30
0.0
 10
0.2878464566929134
 20
-0.4858464566929134
 30
0.0
 10
0.2878464566929134
 20
-0.4858464566929134
 30
0.0
 10
0.2878464566929134
 20
-0.4858464566929134
 30
0.0
 10
0.2954488188976378
 20
-0.5063503937007874
 30
0.0
 10
0.2954488188976378
 20
-0.5063503937007874
 30
0.0
 10
0.2954488188976378
 20
-0.5063503937007874
 30
0.0
 10
0.2954488188976378
 20
-0.5063503937007874
 30
0.0
 10
0.3013070866141732
 20
-0.5266023622047245
 30
0.0
 10
0.3013070866141732
 20
-0.5266023622047245
 30
0.0
  0
SPLINE
  5
68
100
AcDbEntity
  8
P1-Layer 1
 62
     9
100
AcDbSpline
210
0.0
220
0.0
230
1.0
 70
     1
 71
     3
 72
    28
 73
    24
 74
     0
 42
0.0000000001
 43
0.0000000001
 40
0.0
 40
0.0
 40
0.0
 40
0.0
 40
0.1666666666666667
 40
0.1666666666666667
 40
0.1666666666666667
 40
0.1666666666666667
 40
0.3333333333333333
 40
0.3333333333333333
 40
0.3333333333333333
 40
0.3333333333333333
 40
0.5
 40
0.5
 40
0.5
 40
0.5
 40
0.6666666666666666
 40
0.6666666666666666
 40
0.6666666666666666
 40
0.6666666666666666
 40
0.8333333333333333
 40
0.8333333333333333
 40
0.8333333333333333
 40
0.8333333333333333
 40
1.0
 40
1.0
 40
1.0
 40
1.0
 10
0.2878464566929134
 20
-0.4858464566929134
 30
0.0
 10
0.2878464566929134
 20
-0.4858464566929134
 30
0.0
 10
0.9321062992125985
 20
-0.1039251968503937
 30
0.0
 10
0.9321062992125985
 20
-0.1039251968503937
 30
0.0
 10
0.9321062992125985
 20
-0.1039251968503937
 30
0.0
 10
0.9321062992125985
 20
-0.1039251968503937
 30
0.0
 10
0.9227125984251969
 20
-0.0832165354330709
 30
0.0
 10
0.9227125984251969
 20
-0.0832165354330709
 30
0.0
 10
0.9227125984251969
 20
-0.0832165354330709
 30
0.0
 10
0.9227125984251969
 20
-0.0832165354330709
 30
0.0
 10
0.911496062992126
 20
-0.0623779527559055
 30
0.0
 10
0.911496062992126
 20
-0.0623779527559055
 30
0.0
 10
0.911496062992126
 20
-0.0623779527559055
 30
0.0
 10
0.911496062992126
 20
-0.0623779527559055
 30
0.0
 10
0.2672362204724409
 20
-0.4442992125984252
 30
0.0
 10
0.2672362204724409
 20
-0.4442992125984252
 30
0.0
 10
0.2672362204724409
 20
-0.4442992125984252
 30
0.0
 10
0.2672362204724409
 20
-0.4442992125984252
 30
0.0
 10
0.2784527559055118
 20
-0.4651377952755906
 30
0.0
 10
0.2784527559055118
 20
-0.4651377952755906
 30
0.0
 10
0.2784527559055118
 20
-0.4651377952755906
 30
0.0
 10
0.2784527559055118
 20
-0.4651377952755906
 30
0.0
 10
0.2878464566929134
 20
-0.4858464566929134
 30
0.0
 10
0.2878464566929134
 20
-0.4858464566929134
 30
0.0
  0
SPLINE
  5
69
100
AcDbEntity
  8
P1-Layer 1
 62
     9
100
AcDbSpline
210
0.0
220
0.0
230
1.0
 70
     1
 71
     3
 72
    20
 73
    16
 74
     0
 42
0.0000000001
 43
0.0000000001
 40
0.0
 40
0.0
 40
0.0
 40
0.0
 40
0.25
 40
0.25
 40
0.25
 40
0.25
 40
0.5
 40
0.5
 40
0.5
 40
0.5
 40
0.75
 40
0.75
 40
0.75
 40
0.75
 40
1.0
 40
1.0
 40
1.0
 40
1.0
 10
0.2672362204724409
 20
-0.4442992125984252
 30
0.0
 10
0.2672362204724409
 20
-0.4442992125984252
 30
0.0
 10
0.911496062992126
 20
-0.0623779527559055
 30
0.0
 10
0.911496062992126
 20
-0.0623779527559055
 30
0.0
 10
0.911496062992126
 20
-0.0623779527559055
 30
0.0
 10
0.911496062992126
 20
-0.0623779527559055
 30
0.0
 10
0.8984173228346457
 20
-0.0414566929133858
 30
0.0
 10
0.8984173228346457
 20
-0.0414566929133858
 30
0.0
 10
0.8984173228346457
 20
-0.0414566929133858
 30
0.0
 10
0.8984173228346457
 20
-0.0414566929133858
 30
0.0
 10
0.2541574803149607
 20
-0.4233779527559055
 30
0.0
 10
0.2541574803149607
 20
-0.4233779527559055
 30
0.0
 10
0.2541574803149607
 20
-0.4233779527559055
 30
0.0
 10
0.2541574803149607
 20
-0.4233779527559055
 30
0.0
 10
0.2672362204724409
 20
-0.4442992125984252
 30
0.0
 10
0.2672362204724409
 20
-0.4442992125984252
 30
0.0
  0
SPLINE
  5
6A
100
AcDbEntity
  8
P1-Layer 1
 62
     9
100
AcDbSpline
210
0.0
220
0.0
230
1.0
 70
     1
 71
     3
 72
    20
 73
    16
 74
     0
 42
0.0000000001
 43
0.0000000001
 40
0.0
 40
0.0
 40
0.0
 40
0.0
 40
0.25
 40
0.25
 40
0.25
 40
0.25
 40
0.5
 40
0.5
 40
0.5
 40
0.5
 40
0.75
 40
0.75
 40
0.75
 40
0.75
 40
1.0
 40
1.0
 40
1.0
 40
1.0
 10
0.2541574803149607
 20
-0.4233779527559055
 30
0.0
 10
0.2541574803149607
 20
-0.4233779527559055
 30
0.0
 10
0.8984173228346457
 20
-0.0414566929133858
 30
0.0
 10
0.8984173228346457
 20
-0.0414566929133858
 30
0.0
 10
0.8984173228346457
 20
-0.0414566929133858
 30
0.0
 10
0.8984173228346457
 20
-0.0414566929133858
 30
0.0
 10
0.8834488188976378
 20
-0.0205354330708661
 30
0.0
 10
0.8834488188976378
 20
-0.0205354330708661
 30
0.0
 10
0.8834488188976378
 20
-0.0205354330708661
 30
0.0
 10
0.8834488188976378
 20
-0.0205354330708661
 30
0.0
 10
0.2391889763779528
 20
-0.4024566929133858
 30
0.0
 10
0.2391889763779528
 20
-0.4024566929133858
 30
0.0
 10
0.2391889763779528
 20
-0.4024566929133858
 30
0.0
 10
0.2391889763779528
 20
-0.4024566929133858
 30
0.0
 10
0.2541574803149607
 20
-0.4233779527559055
 30
0.0
 10
0.2541574803149607
 20
-0.4233779527559055
 30
0.0
  0
SPLINE
  5
6B
100
AcDbEntity
  8
P1-Layer 1
 62
     9
100
AcDbSpline
210
0.0
220
0.0
230
1.0
 70
     1
 71
     3
 72
    20
 73
    16
 74
     0
 42
0.0000000001
 43
0.0000000001
 40
0.0
 40
0.0
 40
0.0
 40
0.0
 40
0.25
 40
0.25
 40
0.25
 40
0.25
 40
0.5
 40
0.5
 40
0.5
 40
0.5
 40
0.75
 40
0.75
 40
0.75
 40
0.75
 40
1.0
 40
1.0
 40
1.0
 40
1.0
 10
0.2391889763779528
 20
-0.4024566929133858
 30
0.0
 10
0.2391889763779528
 20
-0.4024566929133858
 30
0.0
 10
0.8834488188976378
 20
-0.0205354330708661
 30
0.0
 10
0.8834488188976378
 20
-0.0205354330708661
 30
0.0
 10
0.8834488188976378
 20
-0.0205354330708661
 30
0.0
 10
0.8834488188976378
 20
-0.0205354330708661
 30
0.0
 10
0.8665511811023623
 20
0.0003346456692913
 30
0.0
 10
0.8665511811023623
 20
0.0003346456692913
 30
0.0
 10
0.8665511811023623
 20
0.0003346456692913
 30
0.0
 10
0.8665511811023623
 20
0.0003346456692913
 30
0.0
 10
0.2222913385826772
 20
-0.3815866141732284
 30
0.0
 10
0.2222913385826772
 20
-0.3815866141732284
 30
0.0
 10
0.2222913385826772
 20
-0.3815866141732284
 30
0.0
 10
0.2222913385826772
 20
-0.3815866141732284
 30
0.0
 10
0.2391889763779528
 20
-0.4024566929133858
 30
0.0
 10
0.2391889763779528
 20
-0.4024566929133858
 30
0.0
  0
SPLINE
  5
6C
100
AcDbEntity
  8
P1-Layer 1
 62
     9
100
AcDbSpline
210
0.0
220
0.0
230
1.0
 70
     1
 71
     3
 72
    20
 73
    16
 74
     0
 42
0.0000000001
 43
0.0000000001
 40
0.0
 40
0.0
 40
0.0
 40
0.0
 40
0.25
 40
0.25
 40
0.25
 40
0.25
 40
0.5
 40
0.5
 40
0.5
 40
0.5
 40
0.75
 40
0.75
 40
0.75
 40
0.75
 40
1.0
 40
1.0
 40
1.0
 40
1.0
 10
0.2222913385826772
 20
-0.3815866141732284
 30
0.0
 10
0.2222913385826772
 20
-0.3815866141732284
 30
0.0
 10
0.8665511811023623
 20
0.0003346456692913
 30
0.0
 10
0.8665511811023623
 20
0.0003346456692913
 30
0.0
 10
0.8665511811023623
 20
0.0003346456692913
 30
0.0
 10
0.8665511811023623
 20
0.0003346456692913
 30
0.0
 10
0.8476968503937008
 20
0.0210787401574803
 30
0.0
 10
0.8476968503937008
 20
0.0210787401574803
 30
0.0
 10
0.8476968503937008
 20
0.0210787401574803
 30
0.0
 10
0.8476968503937008
 20
0.0210787401574803
 30
0.0
 10
0.2034370078740158
 20
-0.3608425196850394
 30
0.0
 10
0.2034370078740158
 20
-0.3608425196850394
 30
0.0
 10
0.2034370078740158
 20
-0.3608425196850394
 30
0.0
 10
0.2034370078740158
 20
-0.3608425196850394
 30
0.0
 10
0.2222913385826772
 20
-0.3815866141732284
 30
0.0
 10
0.2222913385826772
 20
-0.3815866141732284
 30
0.0
  0
SPLINE
  5
6D
100
AcDbEntity
  8
P1-Layer 1
 62
     9
100
AcDbSpline
210
0.0
220
0.0
230
1.0
 70
     1
 71
     3
 72
    20
 73
    16
 74
     0
 42
0.0000000001
 43
0.0000000001
 40
0.0
 40
0.0
 40
0.0
 40
0.0
 40
0.25
 40
0.25
 40
0.25
 40
0.25
 40
0.5
 40
0.5
 40
0.5
 40
0.5
 40
0.75
 40
0.75
 40
0.75
 40
0.75
 40
1.0
 40
1.0
 40
1.0
 40
1.0
 10
0.2034370078740158
 20
-0.3608425196850394
 30
0.0
 10
0.2034370078740158
 20
-0.3608425196850394
 30
0.0
 10
0.8476968503937008
 20
0.0210787401574803
 30
0.0
 10
0.8476968503937008
 20
0.0210787401574803
 30
0.0
 10
0.8476968503937008
 20
0.0210787401574803
 30
0.0
 10
0.8476968503937008
 20
0.0210787401574803
 30
0.0
 10
0.8268346456692913
 20
0.0416496062992126
 30
0.0
 10
0.8268346456692913
 20
0.0416496062992126
 30
0.0
 10
0.8268346456692913
 20
0.0416496062992126
 30
0.0
 10
0.8268346456692913
 20
0.0416496062992126
 30
0.0
 10
0.1825748031496063
 20
-0.3402716535433071
 30
0.0
 10
0.1825748031496063
 20
-0.3402716535433071
 30
0.0
 10
0.1825748031496063
 20
-0.3402716535433071
 30
0.0
 10
0.1825748031496063
 20
-0.3402716535433071
 30
0.0
 10
0.2034370078740158
 20
-0.3608425196850394
 30
0.0
 10
0.2034370078740158
 20
-0.3608425196850394
 30
0.0
  0
SPLINE
  5
6E
100
AcDbEntity
  8
P1-Layer 1
 62
     9
100
AcDbSpline
210
0.0
220
0.0
230
1.0
 70
     1
 71
     3
 72
    20
 73
    16
 74
     0
 42
0.0000000001
 43
0.0000000001
 40
0.0
 40
0.0
 40
0.0
 40
0.0
 40
0.25
 40
0.25
 40
0.25
 40
0.25
 40
0.5
 40
0.5
 40
0.5
 40
0.5
 40
0.75
 40
0.75
 40
0.75
 40
0.75
 40
1.0
 40
1.0
 40
1.0
 40
1.0
 10
0.1825748031496063
 20
-0.3402716535433071
 30
0.0
 10
0.1825748031496063
 20
-0.3402716535433071
 30
0.0
 10
0.8268346456692913
 20
0.0416496062992126
 30
0.0
 10
0.8268346456692913
 20
0.0416496062992126
 30
0.0
 10
0.8268346456692913
 20
0.0416496062992126
 30
0.0
 10
0.8268346456692913
 20
0.0416496062992126
 30
0.0
 10
0.8039488188976378
 20
0.0619724409448819
 30
0.0
 10
0.8039488188976378
 20
0.0619724409448819
 30
0.0
 10
0.8039488188976378
 20
0.0619724409448819
 30
0.0
 10
0.8039488188976378
 20
0.0619724409448819
 30
0.0
 10
0.1596889763779528
 20
-0.3199488188976378
 30
0.0
 10
0.1596889763779528
 20
-0.3199488188976378
 30
0.0
 10
0.1596889763779528
 20
-0.3199488188976378
 30
0.0
 10
0.1596889763779528
 20
-0.3199488188976378
 30
0.0
 10
0.1825748031496063
 20
-0.3402716535433071
 30
0.0
 10
0.1825748031496063
 20
-0.3402716535433071
 30
0.0
  0
SPLINE
  5
6F
100
AcDbEntity
  8
P1-Layer 1
 62
     9
100
AcDbSpline
210
0.0
220
0.0
230
1.0
 70
     1
 71
     3
 72
    20
 73
    16
 74
     0
 42
0.0000000001
 43
0.0000000001
 40
0.0
 40
0.0
 40
0.0
 40
0.0
 40
0.25
 40
0.25
 40
0.25
 40
0.25
 40
0.5
 40
0.5
 40
0.5
 40
0.5
 40
0.75
 40
0.75
 40
0.75
 40
0.75
 40
1.0
 40
1.0
 40
1.0
 40
1.0
 10
0.1596889763779528
 20
-0.3199488188976378
 30
0.0
 10
0.1596889763779528
 20
-0.3199488188976378
 30
0.0
 10
0.8039488188976378
 20
0.0619724409448819
 30
0.0
 10
0.8039488188976378
 20
0.0619724409448819
 30
0.0
 10
0.8039488188976378
 20
0.0619724409448819
 30
0.0
 10
0.8039488188976378
 20
0.0619724409448819
 30
0.0
 10
0.778996062992126
 20
0.081988188976378
 30
0.0
 10
0.778996062992126
 20
0.081988188976378
 30
0.0
 10
0.778996062992126
 20
0.081988188976378
 30
0.0
 10
0.778996062992126
 20
0.081988188976378
 30
0.0
 10
0.1347362204724409
 20
-0.2999330708661417
 30
0.0
 10
0.1347362204724409
 20
-0.2999330708661417
 30
0.0
 10
0.1347362204724409
 20
-0.2999330708661417
 30
0.0
 10
0.1347362204724409
 20
-0.2999330708661417
 30
0.0
 10
0.1596889763779528
 20
-0.3199488188976378
 30
0.0
 10
0.1596889763779528
 20
-0.3199488188976378
 30
0.0
  0
SPLINE
  5
70
100
AcDbEntity
  8
P1-Layer 1
 62
     9
100
AcDbSpline
210
0.0
220
0.0
230
1.0
 70
     1
 71
     3
 72
    20
 73
    16
 74
     0
 42
0.0000000001
 43
0.0000000001
 40
0.0
 40
0.0
 40
0.0
 40
0.0
 40
0.25
 40
0.25
 40
0.25
 40
0.25
 40
0.5
 40
0.5
 40
0.5
 40
0.5
 40
0.75
 40
0.75
 40
0.75
 40
0.75
 40
1.0
 40
1.0
 40
1.0
 40
1.0
 10
0.1347362204724409
 20
-0.2999330708661417
 30
0.0
 10
0.1347362204724409
 20
-0.2999330708661417
 30
0.0
 10
0.778996062992126
 20
0.081988188976378
 30
0.0
 10
0.778996062992126
 20
0.081988188976378
 30
0.0
 10
0.778996062992126
 20
0.081988188976378
 30
0.0
 10
0.778996062992126
 20
0.081988188976378
 30
0.0
 10
0.7519448818897638
 20
0.1016220472440945
 30
0.0
 10
0.7519448818897638
 20
0.1016220472440945
 30
0.0
 10
0.7519448818897638
 20
0.1016220472440945
 30
0.0
 10
0.7519448818897638
 20
0.1016220472440945
 30
0.0
 10
0.1076850393700787
 20
-0.2802992125984252
 30
0.0
 10
0.1076850393700787
 20
-0.2802992125984252
 30
0.0
 10
0.1076850393700787
 20
-0.2802992125984252
 30
0.0
 10
0.1076850393700787
 20
-0.2802992125984252
 30
0.0
 10
0.1347362204724409
 20
-0.2999330708661417
 30
0.0
 10
0.1347362204724409
 20
-0.2999330708661417
 30
0.0
  0
SPLINE
  5
71
100
AcDbEntity
  8
P1-Layer 1
 62
     9
100
AcDbSpline
210
0.0
220
0.0
230
1.0
 70
     1
 71
     3
 72
    20
 73
    16
 74
     0
 42
0.0000000001
 43
0.0000000001
 40
0.0
 40
0.0
 40
0.0
 40
0.0
 40
0.25
 40
0.25
 40
0.25
 40
0.25
 40
0.5
 40
0.5
 40
0.5
 40
0.5
 40
0.75
 40
0.75
 40
0.75
 40
0.75
 40
1.0
 40
1.0
 40
1.0
 40
1.0
 10
0.1076850393700787
 20
-0.2802992125984252
 30
0.0
 10
0.1076850393700787
 20
-0.2802992125984252
 30
0.0
 10
0.7519448818897638
 20
0.1016220472440945
 30
0.0
 10
0.7519448818897638
 20
0.1016220472440945
 30
0.0
 10
0.7519448818897638
 20
0.1016220472440945
 30
0.0
 10
0.7519448818897638
 20
0.1016220472440945
 30
0.0
 10
0.724736220472441
 20
0.1210708661417323
 30
0.0
 10
0.724736220472441
 20
0.1210708661417323
 30
0.0
 10
0.724736220472441
 20
0.1210708661417323
 30
0.0
 10
0.724736220472441
 20
0.1210708661417323
 30
0.0
 10
0.0804763779527559
 20
-0.2608503937007874
 30
0.0
 10
0.0804763779527559
 20
-0.2608503937007874
 30
0.0
 10
0.0804763779527559
 20
-0.2608503937007874
 30
0.0
 10
0.0804763779527559
 20
-0.2608503937007874
 30
0.0
 10
0.1076850393700787
 20
-0.2802992125984252
 30
0.0
 10
0.1076850393700787
 20
-0.2802992125984252
 30
0.0
  0
SPLINE
  5
72
100
AcDbEntity
  8
P1-Layer 1
 62
     9
100
AcDbSpline
210
0.0
220
0.0
230
1.0
 70
     1
 71
     3
 72
    20
 73
    16
 74
     0
 42
0.0000000001
 43
0.0000000001
 40
0.0
 40
0.0
 40
0.0
 40
0.0
 40
0.25
 40
0.25
 40
0.25
 40
0.25
 40
0.5
 40
0.5
 40
0.5
 40
0.5
 40
0.75
 40
0.75
 40
0.75
 40
0.75
 40
1.0
 40
1.0
 40
1.0
 40
1.0
 10
0.0804763779527559
 20
-0.2608503937007874
 30
0.0
 10
0.0804763779527559
 20
-0.2608503937007874
 30
0.0
 10
0.724736220472441
 20
0.1210708661417323
 30
0.0
 10
0.724736220472441
 20
0.1210708661417323
 30
0.0
 10
0.724736220472441
 20
0.1210708661417323
 30
0.0
 10
0.724736220472441
 20
0.1210708661417323
 30
0.0
 10
0.6993228346456694
 20
0.1405157480314961
 30
0.0
 10
0.6993228346456694
 20
0.1405157480314961
 30
0.0
 10
0.6993228346456694
 20
0.1405157480314961
 30
0.0
 10
0.6993228346456694
 20
0.1405157480314961
 30
0.0
 10
0.0550629921259843
 20
-0.2414055118110236
 30
0.0
 10
0.0550629921259843
 20
-0.2414055118110236
 30
0.0
 10
0.0550629921259843
 20
-0.2414055118110236
 30
0.0
 10
0.0550629921259843
 20
-0.2414055118110236
 30
0.0
 10
0.0804763779527559
 20
-0.2608503937007874
 30
0.0
 10
0.0804763779527559
 20
-0.2608503937007874
 30
0.0
  0
SPLINE
  5
73
100
AcDbEntity
  8
P1-Layer 1
 62
     9
100
AcDbSpline
210
0.0
220
0.0
230
1.0
 70
     1
 71
     3
 72
    20
 73
    16
 74
     0
 42
0.0000000001
 43
0.0000000001
 40
0.0
 40
0.0
 40
0.0
 40
0.0
 40
0.25
 40
0.25
 40
0.25
 40
0.25
 40
0.5
 40
0.5
 40
0.5
 40
0.5
 40
0.75
 40
0.75
 40
0.75
 40
0.75
 40
1.0
 40
1.0
 40
1.0
 40
1.0
 10
0.0550629921259843
 20
-0.2414055118110236
 30
0.0
 10
0.0550629921259843
 20
-0.2414055118110236
 30
0.0
 10
0.6993228346456694
 20
0.1405157480314961
 30
0.0
 10
0.6993228346456694
 20
0.1405157480314961
 30
0.0
 10
0.6993228346456694
 20
0.1405157480314961
 30
0.0
 10
0.6993228346456694
 20
0.1405157480314961
 30
0.0
 10
0.6756377952755905
 20
0.1599527559055118
 30
0.0
 10
0.6756377952755905
 20
0.1599527559055118
 30
0.0
 10
0.6756377952755905
 20
0.1599527559055118
 30
0.0
 10
0.6756377952755905
 20
0.1599527559055118
 30
0.0
 10
0.0313779527559055
 20
-0.2219685039370079
 30
0.0
 10
0.0313779527559055
 20
-0.2219685039370079
 30
0.0
 10
0.0313779527559055
 20
-0.2219685039370079
 30
0.0
 10
0.0313779527559055
 20
-0.2219685039370079
 30
0.0
 10
0.0550629921259843
 20
-0.2414055118110236
 30
0.0
 10
0.0550629921259843
 20
-0.2414055118110236
 30
0.0
  0
SPLINE
  5
74
100
AcDbEntity
  8
P1-Layer 1
 62
     9
100
AcDbSpline
210
0.0
220
0.0
230
1.0
 70
     1
 71
     3
 72
    20
 73
    16
 74
     0
 42
0.0000000001
 43
0.0000000001
 40
0.0
 40
0.0
 40
0.0
 40
0.0
 40
0.25
 40
0.25
 40
0.25
 40
0.25
 40
0.5
 40
0.5
 40
0.5
 40
0.5
 40
0.75
 40
0.75
 40
0.75
 40
0.75
 40
1.0
 40
1.0
 40
1.0
 40
1.0
 10
0.0313779527559055
 20
-0.2219685039370079
 30
0.0
 10
0.0313779527559055
 20
-0.2219685039370079
 30
0.0
 10
0.6756377952755905
 20
0.1599527559055118
 30
0.0
 10
0.6756377952755905
 20
0.1599527559055118
 30
0.0
 10
0.6756377952755905
 20
0.1599527559055118
 30
0.0
 10
0.6756377952755905
 20
0.1599527559055118
 30
0.0
 10
0.6536259842519685
 20
0.1793503937007874
 30
0.0
 10
0.6536259842519685
 20
0.1793503937007874
 30
0.0
 10
0.6536259842519685
 20
0.1793503937007874
 30
0.0
 10
0.6536259842519685
 20
0.1793503937007874
 30
0.0
 10
0.0093661417322835
 20
-0.2025708661417323
 30
0.0
 10
0.0093661417322835
 20
-0.2025708661417323
 30
0.0
 10
0.0093661417322835
 20
-0.2025708661417323
 30
0.0
 10
0.0093661417322835
 20
-0.2025708661417323
 30
0.0
 10
0.0313779527559055
 20
-0.2219685039370079
 30
0.0
 10
0.0313779527559055
 20
-0.2219685039370079
 30
0.0
  0
SPLINE
  5
75
100
AcDbEntity
  8
P1-Layer 1
 62
     9
100
AcDbSpline
210
0.0
220
0.0
230
1.0
 70
     1
 71
     3
 72
    20
 73
    16
 74
     0
 42
0.0000000001
 43
0.0000000001
 40
0.0
 40
0.0
 40
0.0
 40
0.0
 40
0.25
 40
0.25
 40
0.25
 40
0.25
 40
0.5
 40
0.5
 40
0.5
 40
0.5
 40
0.75
 40
0.75
 40
0.75
 40
0.75
 40
1.0
 40
1.0
 40
1.0
 40
1.0
 10
0.0093661417322835
 20
-0.2025708661417323
 30
0.0
 10
0.0093661417322835
 20
-0.2025708661417323
 30
0.0
 10
0.6536259842519685
 20
0.1793503937007874
 30
0.0
 10
0.6536259842519685
 20
0.1793503937007874
 30
0.0
 10
0.6536259842519685
 20
0.1793503937007874
 30
0.0
 10
0.6536259842519685
 20
0.1793503937007874
 30
0.0
 10
0.633224409448819
 20
0.1987047244094488
 30
0.0
 10
0.633224409448819
 20
0.1987047244094488
 30
0.0
 10
0.633224409448819
 20
0.1987047244094488
 30
0.0
 10
0.633224409448819
 20
0.1987047244094488
 30
0.0
 10
-0.0110354330708661
 20
-0.1832165354330709
 30
0.0
 10
-0.0110354330708661
 20
-0.1832165354330709
 30
0.0
 10
-0.0110354330708661
 20
-0.1832165354330709
 30
0.0
 10
-0.0110354330708661
 20
-0.1832165354330709
 30
0.0
 10
0.0093661417322835
 20
-0.2025708661417323
 30
0.0
 10
0.0093661417322835
 20
-0.2025708661417323
 30
0.0
  0
SPLINE
  5
76
100
AcDbEntity
  8
P1-Layer 1
 62
     9
100
AcDbSpline
210
0.0
220
0.0
230
1.0
 70
     1
 71
     3
 72
    20
 73
    16
 74
     0
 42
0.0000000001
 43
0.0000000001
 40
0.0
 40
0.0
 40
0.0
 40
0.0
 40
0.25
 40
0.25
 40
0.25
 40
0.25
 40
0.5
 40
0.5
 40
0.5
 40
0.5
 40
0.75
 40
0.75
 40
0.75
 40
0.75
 40
1.0
 40
1.0
 40
1.0
 40
1.0
 10
-0.0110354330708661
 20
-0.1832165354330709
 30
0.0
 10
-0.0110354330708661
 20
-0.1832165354330709
 30
0.0
 10
0.633224409448819
 20
0.1987047244094488
 30
0.0
 10
0.633224409448819
 20
0.1987047244094488
 30
0.0
 10
0.633224409448819
 20
0.1987047244094488
 30
0.0
 10
0.633224409448819
 20
0.1987047244094488
 30
0.0
 10
0.6143622047244095
 20
0.2179803149606299
 30
0.0
 10
0.6143622047244095
 20
0.2179803149606299
 30
0.0
 10
0.6143622047244095
 20
0.2179803149606299
 30
0.0
 10
0.6143622047244095
 20
0.2179803149606299
 30
0.0
 10
-0.0298976377952756
 20
-0.1639409448818898
 30
0.0
 10
-0.0298976377952756
 20
-0.1639409448818898
 30
0.0
 10
-0.0298976377952756
 20
-0.1639409448818898
 30
0.0
 10
-0.0298976377952756
 20
-0.1639409448818898
 30
0.0
 10
-0.0110354330708661
 20
-0.1832165354330709
 30
0.0
 10
-0.0110354330708661
 20
-0.1832165354330709
 30
0.0
  0
SPLINE
  5
77
100
AcDbEntity
  8
P1-Layer 1
 62
     9
100
AcDbSpline
210
0.0
220
0.0
230
1.0
 70
     1
 71
     3
 72
    20
 73
    16
 74
     0
 42
0.0000000001
 43
0.0000000001
 40
0.0
 40
0.0
 40
0.0
 40
0.0
 40
0.25
 40
0.25
 40
0.25
 40
0.25
 40
0.5
 40
0.5
 40
0.5
 40
0.5
 40
0.75
 40
0.75
 40
0.75
 40
0.75
 40
1.0
 40
1.0
 40
1.0
 40
1.0
 10
-0.0298976377952756
 20
-0.1639409448818898
 30
0.0
 10
-0.0298976377952756
 20
-0.1639409448818898
 30
0.0
 10
0.6143622047244095
 20
0.2179803149606299
 30
0.0
 10
0.6143622047244095
 20
0.2179803149606299
 30
0.0
 10
0.6143622047244095
 20
0.2179803149606299
 30
0.0
 10
0.6143622047244095
 20
0.2179803149606299
 30
0.0
 10
0.596992125984252
 20
0.2371692913385827
 30
0.0
 10
0.596992125984252
 20
0.2371692913385827
 30
0.0
 10
0.596992125984252
 20
0.2371692913385827
 30
0.0
 10
0.596992125984252
 20
0.2371692913385827
 30
0.0
 10
-0.0472677165354331
 20
-0.144751968503937
 30
0.0
 10
-0.0472677165354331
 20
-0.144751968503937
 30
0.0
 10
-0.0472677165354331
 20
-0.144751968503937
 30
0.0
 10
-0.0472677165354331
 20
-0.144751968503937
 30
0.0
 10
-0.0298976377952756
 20
-0.1639409448818898
 30
0.0
 10
-0.0298976377952756
 20
-0.1639409448818898
 30
0.0
  0
SPLINE
  5
78
100
AcDbEntity
  8
P1-Layer 1
 62
     9
100
AcDbSpline
210
0.0
220
0.0
230
1.0
 70
     1
 71
     3
 72
    28
 73
    24
 74
     0
 42
0.0000000001
 43
0.0000000001
 40
0.0
 40
0.0
 40
0.0
 40
0.0
 40
0.1666666666666667
 40
0.1666666666666667
 40
0.1666666666666667
 40
0.1666666666666667
 40
0.3333333333333333
 40
0.3333333333333333
 40
0.3333333333333333
 40
0.3333333333333333
 40
0.5
 40
0.5
 40
0.5
 40
0.5
 40
0.6666666666666666
 40
0.6666666666666666
 40
0.6666666666666666
 40
0.6666666666666666
 40
0.8333333333333333
 40
0.8333333333333333
 40
0.8333333333333333
 40
0.8333333333333333
 40
1.0
 40
1.0
 40
1.0
 40
1.0
 10
-0.0472677165354331
 20
-0.144751968503937
 30
0.0
 10
-0.0472677165354331
 20
-0.144751968503937
 30
0.0
 10
0.596992125984252
 20
0.2371692913385827
 30
0.0
 10
0.596992125984252
 20
0.2371692913385827
 30
0.0
 10
0.596992125984252
 20
0.2371692913385827
 30
0.0
 10
0.596992125984252
 20
0.2371692913385827
 30
0.0
 10
0.5810433070866142
 20
0.256244094488189
 30
0.0
 10
0.5810433070866142
 20
0.256244094488189
 30
0.0
 10
0.5810433070866142
 20
0.256244094488189
 30
0.0
 10
0.5810433070866142
 20
0.256244094488189
 30
0.0
 10
0.5664724409448819
 20
0.2752007874015748
 30
0.0
 10
0.5664724409448819
 20
0.2752007874015748
 30
0.0
 10
0.5664724409448819
 20
0.2752007874015748
 30
0.0
 10
0.5664724409448819
 20
0.2752007874015748
 30
0.0
 10
-0.0777874015748032
 20
-0.1067204724409449
 30
0.0
 10
-0.0777874015748032
 20
-0.1067204724409449
 30
0.0
 10
-0.0777874015748032
 20
-0.1067204724409449
 30
0.0
 10
-0.0777874015748032
 20
-0.1067204724409449
 30
0.0
 10
-0.0632165354330709
 20
-0.1256771653543307
 30
0.0
 10
-0.0632165354330709
 20
-0.1256771653543307
 30
0.0
 10
-0.0632165354330709
 20
-0.1256771653543307
 30
0.0
 10
-0.0632165354330709
 20
-0.1256771653543307
 30
0.0
 10
-0.0472677165354331
 20
-0.144751968503937
 30
0.0
 10
-0.0472677165354331
 20
-0.144751968503937
 30
0.0
  0
SPLINE
  5
79
100
AcDbEntity
  8
P1-Layer 1
 62
     9
100
AcDbSpline
210
0.0
220
0.0
230
1.0
 70
     1
 71
     3
 72
    28
 73
    24
 74
     0
 42
0.0000000001
 43
0.0000000001
 40
0.0
 40
0.0
 40
0.0
 40
0.0
 40
0.1666666666666667
 40
0.1666666666666667
 40
0.1666666666666667
 40
0.1666666666666667
 40
0.3333333333333333
 40
0.3333333333333333
 40
0.3333333333333333
 40
0.3333333333333333
 40
0.5
 40
0.5
 40
0.5
 40
0.5
 40
0.6666666666666666
 40
0.6666666666666666
 40
0.6666666666666666
 40
0.6666666666666666
 40
0.8333333333333333
 40
0.8333333333333333
 40
0.8333333333333333
 40
0.8333333333333333
 40
1.0
 40
1.0
 40
1.0
 40
1.0
 10
-0.0777874015748032
 20
-0.1067204724409449
 30
0.0
 10
-0.0777874015748032
 20
-0.1067204724409449
 30
0.0
 10
0.5664724409448819
 20
0.2752007874015748
 30
0.0
 10
0.5664724409448819
 20
0.2752007874015748
 30
0.0
 10
0.5664724409448819
 20
0.2752007874015748
 30
0.0
 10
0.5664724409448819
 20
0.2752007874015748
 30
0.0
 10
0.5532047244094488
 20
0.294003937007874
 30
0.0
 10
0.5532047244094488
 20
0.294003937007874
 30
0.0
 10
0.5532047244094488
 20
0.294003937007874
 30
0.0
 10
0.5532047244094488
 20
0.294003937007874
 30
0.0
 10
0.5411850393700788
 20
0.3126417322834646
 30
0.0
 10
0.5411850393700788
 20
0.3126417322834646
 30
0.0
 10
0.5411850393700788
 20
0.3126417322834646
 30
0.0
 10
0.5411850393700788
 20
0.3126417322834646
 30
0.0
 10
-0.1030748031496063
 20
-0.0692795275590551
 30
0.0
 10
-0.1030748031496063
 20
-0.0692795275590551
 30
0.0
 10
-0.1030748031496063
 20
-0.0692795275590551
 30
0.0
 10
-0.1030748031496063
 20
-0.0692795275590551
 30
0.0
 10
-0.0910551181102362
 20
-0.0879173228346457
 30
0.0
 10
-0.0910551181102362
 20
-0.0879173228346457
 30
0.0
 10
-0.0910551181102362
 20
-0.0879173228346457
 30
0.0
 10
-0.0910551181102362
 20
-0.0879173228346457
 30
0.0
 10
-0.0777874015748032
 20
-0.1067204724409449
 30
0.0
 10
-0.0777874015748032
 20
-0.1067204724409449
 30
0.0
  0
SPLINE
  5
7A
100
AcDbEntity
  8
P1-Layer 1
 62
     9
100
AcDbSpline
210
0.0
220
0.0
230
1.0
 70
     1
 71
     3
 72
    28
 73
    24
 74
     0
 42
0.0000000001
 43
0.0000000001
 40
0.0
 40
0.0
 40
0.0
 40
0.0
 40
0.1666666666666667
 40
0.1666666666666667
 40
0.1666666666666667
 40
0.1666666666666667
 40
0.3333333333333333
 40
0.3333333333333333
 40
0.3333333333333333
 40
0.3333333333333333
 40
0.5
 40
0.5
 40
0.5
 40
0.5
 40
0.6666666666666666
 40
0.6666666666666666
 40
0.6666666666666666
 40
0.6666666666666666
 40
0.8333333333333333
 40
0.8333333333333333
 40
0.8333333333333333
 40
0.8333333333333333
 40
1.0
 40
1.0
 40
1.0
 40
1.0
 10
-0.1030748031496063
 20
-0.0692795275590551
 30
0.0
 10
-0.1030748031496063
 20
-0.0692795275590551
 30
0.0
 10
0.5411850393700788
 20
0.3126417322834646
 30
0.0
 10
0.5411850393700788
 20
0.3126417322834646
 30
0.0
 10
0.5411850393700788
 20
0.3126417322834646
 30
0.0
 10
0.5411850393700788
 20
0.3126417322834646
 30
0.0
 10
0.5303503937007874
 20
0.3310905511811024
 30
0.0
 10
0.5303503937007874
 20
0.3310905511811024
 30
0.0
 10
0.5303503937007874
 20
0.3310905511811024
 30
0.0
 10
0.5303503937007874
 20
0.3310905511811024
 30
0.0
 10
0.5206496062992126
 20
0.3493425196850394
 30
0.0
 10
0.5206496062992126
 20
0.3493425196850394
 30
0.0
 10
0.5206496062992126
 20
0.3493425196850394
 30
0.0
 10
0.5206496062992126
 20
0.3493425196850394
 30
0.0
 10
-0.1236102362204724
 20
-0.0325787401574803
 30
0.0
 10
-0.1236102362204724
 20
-0.0325787401574803
 30
0.0
 10
-0.1236102362204724
 20
-0.0325787401574803
 30
0.0
 10
-0.1236102362204724
 20
-0.0325787401574803
 30
0.0
 10
-0.1139094488188976
 20
-0.0508307086614173
 30
0.0
 10
-0.1139094488188976
 20
-0.0508307086614173
 30
0.0
 10
-0.1139094488188976
 20
-0.0508307086614173
 30
0.0
 10
-0.1139094488188976
 20
-0.0508307086614173
 30
0.0
 10
-0.1030748031496063
 20
-0.0692795275590551
 30
0.0
 10
-0.1030748031496063
 20
-0.0692795275590551
 30
0.0
  0
SPLINE
  5
7B
100
AcDbEntity
  8
P1-Layer 1
 62
     9
100
AcDbSpline
210
0.0
220
0.0
230
1.0
 70
     1
 71
     3
 72
    28
 73
    24
 74
     0
 42
0.0000000001
 43
0.0000000001
 40
0.0
 40
0.0
 40
0.0
 40
0.0
 40
0.1666666666666667
 40
0.1666666666666667
 40
0.1666666666666667
 40
0.1666666666666667
 40
0.3333333333333333
 40
0.3333333333333333
 40
0.3333333333333333
 40
0.3333333333333333
 40
0.5
 40
0.5
 40
0.5
 40
0.5
 40
0.6666666666666666
 40
0.6666666666666666
 40
0.6666666666666666
 40
0.6666666666666666
 40
0.8333333333333333
 40
0.8333333333333333
 40
0.8333333333333333
 40
0.8333333333333333
 40
1.0
 40
1.0
 40
1.0
 40
1.0
 10
-0.1236102362204724
 20
-0.0325787401574803
 30
0.0
 10
-0.1236102362204724
 20
-0.0325787401574803
 30
0.0
 10
0.5206496062992126
 20
0.3493425196850394
 30
0.0
 10
0.5206496062992126
 20
0.3493425196850394
 30
0.0
 10
0.5206496062992126
 20
0.3493425196850394
 30
0.0
 10
0.5206496062992126
 20
0.3493425196850394
 30
0.0
 10
0.5120078740157481
 20
0.3673622047244095
 30
0.0
 10
0.5120078740157481
 20
0.3673622047244095
 30
0.0
 10
0.5120078740157481
 20
0.3673622047244095
 30
0.0
 10
0.5120078740157481
 20
0.3673622047244095
 30
0.0
 10
0.5043779527559056
 20
0.3851417322834646
 30
0.0
 10
0.5043779527559056
 20
0.3851417322834646
 30
0.0
 10
0.5043779527559056
 20
0.3851417322834646
 30
0.0
 10
0.5043779527559056
 20
0.3851417322834646
 30
0.0
 10
-0.1398818897637795
 20
0.0032204724409449
 30
0.0
 10
-0.1398818897637795
 20
0.0032204724409449
 30
0.0
 10
-0.1398818897637795
 20
0.0032204724409449
 30
0.0
 10
-0.1398818897637795
 20
0.0032204724409449
 30
0.0
 10
-0.132251968503937
 20
-0.0145590551181102
 30
0.0
 10
-0.132251968503937
 20
-0.0145590551181102
 30
0.0
 10
-0.132251968503937
 20
-0.0145590551181102
 30
0.0
 10
-0.132251968503937
 20
-0.0145590551181102
 30
0.0
 10
-0.1236102362204724
 20
-0.0325787401574803
 30
0.0
 10
-0.1236102362204724
 20
-0.0325787401574803
 30
0.0
  0
SPLINE
  5
7C
100
AcDbEntity
  8
P1-Layer 1
 62
     9
100
AcDbSpline
210
0.0
220
0.0
230
1.0
 70
     1
 71
     3
 72
    28
 73
    24
 74
     0
 42
0.0000000001
 43
0.0000000001
 40
0.0
 40
0.0
 40
0.0
 40
0.0
 40
0.1666666666666667
 40
0.1666666666666667
 40
0.1666666666666667
 40
0.1666666666666667
 40
0.3333333333333333
 40
0.3333333333333333
 40
0.3333333333333333
 40
0.3333333333333333
 40
0.5
 40
0.5
 40
0.5
 40
0.5
 40
0.6666666666666666
 40
0.6666666666666666
 40
0.6666666666666666
 40
0.6666666666666666
 40
0.8333333333333333
 40
0.8333333333333333
 40
0.8333333333333333
 40
0.8333333333333333
 40
1.0
 40
1.0
 40
1.0
 40
1.0
 10
-0.1398818897637795
 20
0.0032204724409449
 30
0.0
 10
-0.1398818897637795
 20
0.0032204724409449
 30
0.0
 10
0.5043779527559056
 20
0.3851417322834646
 30
0.0
 10
0.5043779527559056
 20
0.3851417322834646
 30
0.0
 10
0.5043779527559056
 20
0.3851417322834646
 30
0.0
 10
0.5043779527559056
 20
0.3851417322834646
 30
0.0
 10
0.4976850393700787
 20
0.4026653543307087
 30
0.0
 10
0.4976850393700787
 20
0.4026653543307087
 30
0.0
 10
0.4976850393700787
 20
0.4026653543307087
 30
0.0
 10
0.4976850393700787
 20
0.4026653543307087
 30
0.0
 10
0.4918897637795276
 20
0.4199055118110237
 30
0.0
 10
0.4918897637795276
 20
0.4199055118110237
 30
0.0
 10
0.4918897637795276
 20
0.4199055118110237
 30
0.0
 10
0.4918897637795276
 20
0.4199055118110237
 30
0.0
 10
-0.1523700787401575
 20
0.0379842519685039
 30
0.0
 10
-0.1523700787401575
 20
0.0379842519685039
 30
0.0
 10
-0.1523700787401575
 20
0.0379842519685039
 30
0.0
 10
-0.1523700787401575
 20
0.0379842519685039
 30
0.0
 10
-0.1465748031496063
 20
0.020744094488189
 30
0.0
 10
-0.1465748031496063
 20
0.020744094488189
 30
0.0
 10
-0.1465748031496063
 20
0.020744094488189
 30
0.0
 10
-0.1465748031496063
 20
0.020744094488189
 30
0.0
 10
-0.1398818897637795
 20
0.0032204724409449
 30
0.0
 10
-0.1398818897637795
 20
0.0032204724409449
 30
0.0
  0
SPLINE
  5
7D
100
AcDbEntity
  8
P1-Layer 1
 62
     9
100
AcDbSpline
210
0.0
220
0.0
230
1.0
 70
     1
 71
     3
 72
    28
 73
    24
 74
     0
 42
0.0000000001
 43
0.0000000001
 40
0.0
 40
0.0
 40
0.0
 40
0.0
 40
0.1666666666666667
 40
0.1666666666666667
 40
0.1666666666666667
 40
0.1666666666666667
 40
0.3333333333333333
 40
0.3333333333333333
 40
0.3333333333333333
 40
0.3333333333333333
 40
0.5
 40
0.5
 40
0.5
 40
0.5
 40
0.6666666666666666
 40
0.6666666666666666
 40
0.6666666666666666
 40
0.6666666666666666
 40
0.8333333333333333
 40
0.8333333333333333
 40
0.8333333333333333
 40
0.8333333333333333
 40
1.0
 40
1.0
 40
1.0
 40
1.0
 10
-0.1523700787401575
 20
0.0379842519685039
 30
0.0
 10
-0.1523700787401575
 20
0.0379842519685039
 30
0.0
 10
0.4918897637795276
 20
0.4199055118110237
 30
0.0
 10
0.4918897637795276
 20
0.4199055118110237
 30
0.0
 10
0.4918897637795276
 20
0.4199055118110237
 30
0.0
 10
0.4918897637795276
 20
0.4199055118110237
 30
0.0
 10
0.4869173228346457
 20
0.4368503937007874
 30
0.0
 10
0.4869173228346457
 20
0.4368503937007874
 30
0.0
 10
0.4869173228346457
 20
0.4368503937007874
 30
0.0
 10
0.4869173228346457
 20
0.4368503937007874
 30
0.0
 10
0.4827165354330709
 20
0.4534724409448819
 30
0.0
 10
0.4827165354330709
 20
0.4534724409448819
 30
0.0
 10
0.4827165354330709
 20
0.4534724409448819
 30
0.0
 10
0.4827165354330709
 20
0.4534724409448819
 30
0.0
 10
-0.1615433070866142
 20
0.0715511811023622
 30
0.0
 10
-0.1615433070866142
 20
0.0715511811023622
 30
0.0
 10
-0.1615433070866142
 20
0.0715511811023622
 30
0.0
 10
-0.1615433070866142
 20
0.0715511811023622
 30
0.0
 10
-0.1573425196850394
 20
0.0549291338582677
 30
0.0
 10
-0.1573425196850394
 20
0.0549291338582677
 30
0.0
 10
-0.1573425196850394
 20
0.0549291338582677
 30
0.0
 10
-0.1573425196850394
 20
0.0549291338582677
 30
0.0
 10
-0.1523700787401575
 20
0.0379842519685039
 30
0.0
 10
-0.1523700787401575
 20
0.0379842519685039
 30
0.0
  0
SPLINE
  5
7E
100
AcDbEntity
  8
P1-Layer 1
 62
     9
100
AcDbSpline
210
0.0
220
0.0
230
1.0
 70
     1
 71
     3
 72
    36
 73
    32
 74
     0
 42
0.0000000001
 43
0.0000000001
 40
0.0
 40
0.0
 40
0.0
 40
0.0
 40
0.125
 40
0.125
 40
0.125
 40
0.125
 40
0.25
 40
0.25
 40
0.25
 40
0.25
 40
0.375
 40
0.375
 40
0.375
 40
0.375
 40
0.5
 40
0.5
 40
0.5
 40
0.5
 40
0.625
 40
0.625
 40
0.625
 40
0.625
 40
0.75
 40
0.75
 40
0.75
 40
0.75
 40
0.875
 40
0.875
 40
0.875
 40
0.875
 40
1.0
 40
1.0
 40
1.0
 40
1.0
 10
-0.1615433070866142
 20
0.0715511811023622
 30
0.0
 10
-0.1615433070866142
 20
0.0715511811023622
 30
0.0
 10
0.4827165354330709
 20
0.4534724409448819
 30
0.0
 10
0.4827165354330709
 20
0.4534724409448819
 30
0.0
 10
0.4827165354330709
 20
0.4534724409448819
 30
0.0
 10
0.4827165354330709
 20
0.4534724409448819
 30
0.0
 10
0.4792086614173229
 20
0.4697677165354331
 30
0.0
 10
0.4792086614173229
 20
0.4697677165354331
 30
0.0
 10
0.4792086614173229
 20
0.4697677165354331
 30
0.0
 10
0.4792086614173229
 20
0.4697677165354331
 30
0.0
 10
0.4763582677165354
 20
0.4857007874015748
 30
0.0
 10
0.4763582677165354
 20
0.4857007874015748
 30
0.0
 10
0.4763582677165354
 20
0.4857007874015748
 30
0.0
 10
0.4763582677165354
 20
0.4857007874015748
 30
0.0
 10
0.4740866141732283
 20
0.5012637795275591
 30
0.0
 10
0.4740866141732283
 20
0.5012637795275591
 30
0.0
 10
0.4740866141732283
 20
0.5012637795275591
 30
0.0
 10
0.4740866141732283
 20
0.5012637795275591
 30
0.0
 10
-0.1701732283464567
 20
0.1193425196850394
 30
0.0
 10
-0.1701732283464567
 20
0.1193425196850394
 30
0.0
 10
-0.1701732283464567
 20
0.1193425196850394
 30
0.0
 10
-0.1701732283464567
 20
0.1193425196850394
 30
0.0
 10
-0.1679015748031496
 20
0.1037795275590551
 30
0.0
 10
-0.1679015748031496
 20
0.1037795275590551
 30
0.0
 10
-0.1679015748031496
 20
0.1037795275590551
 30
0.0
 10
-0.1679015748031496
 20
0.1037795275590551
 30
0.0
 10
-0.1650511811023622
 20
0.0878464566929134
 30
0.0
 10
-0.1650511811023622
 20
0.0878464566929134
 30
0.0
 10
-0.1650511811023622
 20
0.0878464566929134
 30
0.0
 10
-0.1650511811023622
 20
0.0878464566929134
 30
0.0
 10
-0.1615433070866142
 20
0.0715511811023622
 30
0.0
 10
-0.1615433070866142
 20
0.0715511811023622
 30
0.0
  0
SPLINE
  5
7F
100
AcDbEntity
  8
P1-Layer 1
 62
     9
100
AcDbSpline
210
0.0
220
0.0
230
1.0
 70
     1
 71
     3
 72
    36
 73
    32
 74
     0
 42
0.0000000001
 43
0.0000000001
 40
0.0
 40
0.0
 40
0.0
 40
0.0
 40
0.125
 40
0.125
 40
0.125
 40
0.125
 40
0.25
 40
0.25
 40
0.25
 40
0.25
 40
0.375
 40
0.375
 40
0.375
 40
0.375
 40
0.5
 40
0.5
 40
0.5
 40
0.5
 40
0.625
 40
0.625
 40
0.625
 40
0.625
 40
0.75
 40
0.75
 40
0.75
 40
0.75
 40
0.875
 40
0.875
 40
0.875
 40
0.875
 40
1.0
 40
1.0
 40
1.0
 40
1.0
 10
-0.1701732283464567
 20
0.1193425196850394
 30
0.0
 10
-0.1701732283464567
 20
0.1193425196850394
 30
0.0
 10
0.4740866141732283
 20
0.5012637795275591
 30
0.0
 10
0.4740866141732283
 20
0.5012637795275591
 30
0.0
 10
0.4740866141732283
 20
0.5012637795275591
 30
0.0
 10
0.4740866141732283
 20
0.5012637795275591
 30
0.0
 10
0.4723425196850394
 20
0.5164291338582677
 30
0.0
 10
0.4723425196850394
 20
0.5164291338582677
 30
0.0
 10
0.4723425196850394
 20
0.5164291338582677
 30
0.0
 10
0.4723425196850394
 20
0.5164291338582677
 30
0.0
 10
0.4710551181102363
 20
0.5311889763779528
 30
0.0
 10
0.4710551181102363
 20
0.5311889763779528
 30
0.0
 10
0.4710551181102363
 20
0.5311889763779528
 30
0.0
 10
0.4710551181102363
 20
0.5311889763779528
 30
0.0
 10
0.4701850393700788
 20
0.5455078740157481
 30
0.0
 10
0.4701850393700788
 20
0.5455078740157481
 30
0.0
 10
0.4701850393700788
 20
0.5455078740157481
 30
0.0
 10
0.4701850393700788
 20
0.5455078740157481
 30
0.0
 10
-0.1740748031496063
 20
0.1635866141732283
 30
0.0
 10
-0.1740748031496063
 20
0.1635866141732283
 30
0.0
 10
-0.1740748031496063
 20
0.1635866141732283
 30
0.0
 10
-0.1740748031496063
 20
0.1635866141732283
 30
0.0
 10
-0.1732047244094488
 20
0.1492677165354331
 30
0.0
 10
-0.1732047244094488
 20
0.1492677165354331
 30
0.0
 10
-0.1732047244094488
 20
0.1492677165354331
 30
0.0
 10
-0.1732047244094488
 20
0.1492677165354331
 30
0.0
 10
-0.1719173228346457
 20
0.134507874015748
 30
0.0
 10
-0.1719173228346457
 20
0.134507874015748
 30
0.0
 10
-0.1719173228346457
 20
0.134507874015748
 30
0.0
 10
-0.1719173228346457
 20
0.134507874015748
 30
0.0
 10
-0.1701732283464567
 20
0.1193425196850394
 30
0.0
 10
-0.1701732283464567
 20
0.1193425196850394
 30
0.0
  0
SPLINE
  5
80
100
AcDbEntity
  8
P1-Layer 1
 62
     9
100
AcDbSpline
210
0.0
220
0.0
230
1.0
 70
     1
 71
     3
 72
    36
 73
    32
 74
     0
 42
0.0000000001
 43
0.0000000001
 40
0.0
 40
0.0
 40
0.0
 40
0.0
 40
0.125
 40
0.125
 40
0.125
 40
0.125
 40
0.25
 40
0.25
 40
0.25
 40
0.25
 40
0.375
 40
0.375
 40
0.375
 40
0.375
 40
0.5
 40
0.5
 40
0.5
 40
0.5
 40
0.625
 40
0.625
 40
0.625
 40
0.625
 40
0.75
 40
0.75
 40
0.75
 40
0.75
 40
0.875
 40
0.875
 40
0.875
 40
0.875
 40
1.0
 40
1.0
 40
1.0
 40
1.0
 10
-0.1740748031496063
 20
0.1635866141732283
 30
0.0
 10
-0.1740748031496063
 20
0.1635866141732283
 30
0.0
 10
0.4701850393700788
 20
0.5455078740157481
 30
0.0
 10
0.4701850393700788
 20
0.5455078740157481
 30
0.0
 10
0.4701850393700788
 20
0.5455078740157481
 30
0.0
 10
0.4701850393700788
 20
0.5455078740157481
 30
0.0
 10
0.4696535433070866
 20
0.5593818897637796
 30
0.0
 10
0.4696535433070866
 20
0.5593818897637796
 30
0.0
 10
0.4696535433070866
 20
0.5593818897637796
 30
0.0
 10
0.4696535433070866
 20
0.5593818897637796
 30
0.0
 10
0.4694094488188977
 20
0.5727874015748031
 30
0.0
 10
0.4694094488188977
 20
0.5727874015748031
 30
0.0
 10
0.4694094488188977
 20
0.5727874015748031
 30
0.0
 10
0.4694094488188977
 20
0.5727874015748031
 30
0.0
 10
0.4693858267716536
 20
0.5857086614173228
 30
0.0
 10
0.4693858267716536
 20
0.5857086614173228
 30
0.0
 10
0.4693858267716536
 20
0.5857086614173228
 30
0.0
 10
0.4693858267716536
 20
0.5857086614173228
 30
0.0
 10
-0.1748740157480315
 20
0.2037874015748032
 30
0.0
 10
-0.1748740157480315
 20
0.2037874015748032
 30
0.0
 10
-0.1748740157480315
 20
0.2037874015748032
 30
0.0
 10
-0.1748740157480315
 20
0.2037874015748032
 30
0.0
 10
-0.1748503937007874
 20
0.1908661417322835
 30
0.0
 10
-0.1748503937007874
 20
0.1908661417322835
 30
0.0
 10
-0.1748503937007874
 20
0.1908661417322835
 30
0.0
 10
-0.1748503937007874
 20
0.1908661417322835
 30
0.0
 10
-0.1746062992125984
 20
0.1774606299212599
 30
0.0
 10
-0.1746062992125984
 20
0.1774606299212599
 30
0.0
 10
-0.1746062992125984
 20
0.1774606299212599
 30
0.0
 10
-0.1746062992125984
 20
0.1774606299212599
 30
0.0
 10
-0.1740748031496063
 20
0.1635866141732283
 30
0.0
 10
-0.1740748031496063
 20
0.1635866141732283
 30
0.0
  0
SPLINE
  5
81
100
AcDbEntity
  8
P1-Layer 1
 62
     9
100
AcDbSpline
210
0.0
220
0.0
230
1.0
 70
     1
 71
     3
 72
    44
 73
    40
 74
     0
 42
0.0000000001
 43
0.0000000001
 40
0.0
 40
0.0
 40
0.0
 40
0.0
 40
0.1
 40
0.1
 40
0.1
 40
0.1
 40
0.2
 40
0.2
 40
0.2
 40
0.2
 40
0.3
 40
0.3
 40
0.3
 40
0.3
 40
0.4
 40
0.4
 40
0.4
 40
0.4
 40
0.5
 40
0.5
 40
0.5
 40
0.5
 40
0.6
 40
0.6
 40
0.6
 40
0.6
 40
0.7
 40
0.7
 40
0.7
 40
0.7
 40
0.7999999999999999
 40
0.7999999999999999
 40
0.7999999999999999
 40
0.7999999999999999
 40
0.8999999999999999
 40
0.8999999999999999
 40
0.8999999999999999
 40
0.8999999999999999
 40
1.0
 40
1.0
 40
1.0
 40
1.0
 10
-0.1748740157480315
 20
0.2037874015748032
 30
0.0
 10
-0.1748740157480315
 20
0.2037874015748032
 30
0.0
 10
0.4693858267716536
 20
0.5857086614173228
 30
0.0
 10
0.4693858267716536
 20
0.5857086614173228
 30
0.0
 10
0.4693858267716536
 20
0.5857086614173228
 30
0.0
 10
0.4693858267716536
 20
0.5857086614173228
 30
0.0
 10
0.4695314960629922
 20
0.5981141732283465
 30
0.0
 10
0.4695314960629922
 20
0.5981141732283465
 30
0.0
 10
0.4695314960629922
 20
0.5981141732283465
 30
0.0
 10
0.4695314960629922
 20
0.5981141732283465
 30
0.0
 10
0.4697795275590551
 20
0.610003937007874
 30
0.0
 10
0.4697795275590551
 20
0.610003937007874
 30
0.0
 10
0.4697795275590551
 20
0.610003937007874
 30
0.0
 10
0.4697795275590551
 20
0.610003937007874
 30
0.0
 10
0.4700708661417323
 20
0.6213425196850394
 30
0.0
 10
0.4700708661417323
 20
0.6213425196850394
 30
0.0
 10
0.4700708661417323
 20
0.6213425196850394
 30
0.0
 10
0.4700708661417323
 20
0.6213425196850394
 30
0.0
 10
0.4703385826771654
 20
0.6321220472440945
 30
0.0
 10
0.4703385826771654
 20
0.6321220472440945
 30
0.0
 10
0.4703385826771654
 20
0.6321220472440945
 30
0.0
 10
0.4703385826771654
 20
0.6321220472440945
 30
0.0
 10
-0.1739212598425197
 20
0.2502007874015748
 30
0.0
 10
-0.1739212598425197
 20
0.2502007874015748
 30
0.0
 10
-0.1739212598425197
 20
0.2502007874015748
 30
0.0
 10
-0.1739212598425197
 20
0.2502007874015748
 30
0.0
 10
-0.1741889763779528
 20
0.2394212598425197
 30
0.0
 10
-0.1741889763779528
 20
0.2394212598425197
 30
0.0
 10
-0.1741889763779528
 20
0.2394212598425197
 30
0.0
 10
-0.1741889763779528
 20
0.2394212598425197
 30
0.0
 10
-0.1744803149606299
 20
0.2280826771653544
 30
0.0
 10
-0.1744803149606299
 20
0.2280826771653544
 30
0.0
 10
-0.1744803149606299
 20
0.2280826771653544
 30
0.0
 10
-0.1744803149606299
 20
0.2280826771653544
 30
0.0
 10
-0.1747283464566929
 20
0.2161929133858268
 30
0.0
 10
-0.1747283464566929
 20
0.2161929133858268
 30
0.0
 10
-0.1747283464566929
 20
0.2161929133858268
 30
0.0
 10
-0.1747283464566929
 20
0.2161929133858268
 30
0.0
 10
-0.1748740157480315
 20
0.2037874015748032
 30
0.0
 10
-0.1748740157480315
 20
0.2037874015748032
 30
0.0
  0
SPLINE
  5
82
100
AcDbEntity
  8
P1-Layer 1
370
     5
100
AcDbSpline
210
0.0
220
0.0
230
1.0
 70
     1
 71
     3
 72
   476
 73
   472
 74
     0
 42
0.0000000001
 43
0.0000000001
 40
0.0
 40
0.0
 40
0.0
 40
0.0
 40
0.0084745762711864
 40
0.0084745762711864
 40
0.0084745762711864
 40
0.0084745762711864
 40
0.0169491525423729
 40
0.0169491525423729
 40
0.0169491525423729
 40
0.0169491525423729
 40
0.0254237288135593
 40
0.0254237288135593
 40
0.0254237288135593
 40
0.0254237288135593
 40
0.0338983050847458
 40
0.0338983050847458
 40
0.0338983050847458
 40
0.0338983050847458
 40
0.0423728813559322
 40
0.0423728813559322
 40
0.0423728813559322
 40
0.0423728813559322
 40
0.0508474576271186
 40
0.0508474576271186
 40
0.0508474576271186
 40
0.0508474576271186
 40
0.0593220338983051
 40
0.0593220338983051
 40
0.0593220338983051
 40
0.0593220338983051
 40
0.0677966101694915
 40
0.0677966101694915
 40
0.0677966101694915
 40
0.0677966101694915
 40
0.076271186440678
 40
0.076271186440678
 40
0.076271186440678
 40
0.076271186440678
 40
0.0847457627118644
 40
0.0847457627118644
 40
0.0847457627118644
 40
0.0847457627118644
 40
0.0932203389830509
 40
0.0932203389830509
 40
0.0932203389830509
 40
0.0932203389830509
 40
0.1016949152542373
 40
0.1016949152542373
 40
0.1016949152542373
 40
0.1016949152542373
 40
0.1101694915254238
 40
0.1101694915254238
 40
0.1101694915254238
 40
0.1101694915254238
 40
0.1186440677966102
 40
0.1186440677966102
 40
0.1186440677966102
 40
0.1186440677966102
 40
0.1271186440677966
 40
0.1271186440677966
 40
0.1271186440677966
 40
0.1271186440677966
 40
0.1355932203389831
 40
0.1355932203389831
 40
0.1355932203389831
 40
0.1355932203389831
 40
0.1440677966101695
 40
0.1440677966101695
 40
0.1440677966101695
 40
0.1440677966101695
 40
0.152542372881356
 40
0.152542372881356
 40
0.152542372881356
 40
0.152542372881356
 40
0.1610169491525424
 40
0.1610169491525424
 40
0.1610169491525424
 40
0.1610169491525424
 40
0.1694915254237289
 40
0.1694915254237289
 40
0.1694915254237289
 40
0.1694915254237289
 40
0.1779661016949153
 40
0.1779661016949153
 40
0.1779661016949153
 40
0.1779661016949153
 40
0.1864406779661018
 40
0.1864406779661018
 40
0.1864406779661018
 40
0.1864406779661018
 40
0.1949152542372882
 40
0.1949152542372882
 40
0.1949152542372882
 40
0.1949152542372882
 40
0.2033898305084746
 40
0.2033898305084746
 40
0.2033898305084746
 40
0.2033898305084746
 40
0.2118644067796611
 40
0.2118644067796611
 40
0.2118644067796611
 40
0.2118644067796611
 40
0.2203389830508475
 40
0.2203389830508475
 40
0.2203389830508475
 40
0.2203389830508475
 40
0.228813559322034
 40
0.228813559322034
 40
0.228813559322034
 40
0.228813559322034
 40
0.2372881355932204
 40
0.2372881355932204
 40
0.2372881355932204
 40
0.2372881355932204
 40
0.2457627118644069
 40
0.2457627118644069
 40
0.2457627118644069
 40
0.2457627118644069
 40
0.2542372881355933
 40
0.2542372881355933
 40
0.2542372881355933
 40
0.2542372881355933
 40
0.2627118644067797
 40
0.2627118644067797
 40
0.2627118644067797
 40
0.2627118644067797
 40
0.2711864406779662
 40
0.2711864406779662
 40
0.2711864406779662
 40
0.2711864406779662
 40
0.2796610169491526
 40
0.2796610169491526
 40
0.2796610169491526
 40
0.2796610169491526
 40
0.288135593220339
 40
0.288135593220339
 40
0.288135593220339
 40
0.288135593220339
 40
0.2966101694915254
 40
0.2966101694915254
 40
0.2966101694915254
 40
0.2966101694915254
 40
0.3050847457627118
 40
0.3050847457627118
 40
0.3050847457627118
 40
0.3050847457627118
 40
0.3135593220338983
 40
0.3135593220338983
 40
0.3135593220338983
 40
0.3135593220338983
 40
0.3220338983050847
 40
0.3220338983050847
 40
0.3220338983050847
 40
0.3220338983050847
 40
0.3305084745762711
 40
0.3305084745762711
 40
0.3305084745762711
 40
0.3305084745762711
 40
0.3389830508474575
 40
0.3389830508474575
 40
0.3389830508474575
 40
0.3389830508474575
 40
0.3474576271186439
 40
0.3474576271186439
 40
0.3474576271186439
 40
0.3474576271186439
 40
0.3559322033898303
 40
0.3559322033898303
 40
0.3559322033898303
 40
0.3559322033898303
 40
0.3644067796610168
 40
0.3644067796610168
 40
0.3644067796610168
 40
0.3644067796610168
 40
0.3728813559322032
 40
0.3728813559322032
 40
0.3728813559322032
 40
0.3728813559322032
 40
0.3813559322033896
 40
0.3813559322033896
 40
0.3813559322033896
 40
0.3813559322033896
 40
0.389830508474576
 40
0.389830508474576
 40
0.389830508474576
 40
0.389830508474576
 40
0.3983050847457624
 40
0.3983050847457624
 40
0.3983050847457624
 40
0.3983050847457624
 40
0.4067796610169489
 40
0.4067796610169489
 40
0.4067796610169489
 40
0.4067796610169489
 40
0.4152542372881353
 40
0.4152542372881353
 40
0.4152542372881353
 40
0.4152542372881353
 40
0.4237288135593217
 40
0.4237288135593217
 40
0.4237288135593217
 40
0.4237288135593217
 40
0.4322033898305081
 40
0.4322033898305081
 40
0.4322033898305081
 40
0.4322033898305081
 40
0.4406779661016945
 40
0.4406779661016945
 40
0.4406779661016945
 40
0.4406779661016945
 40
0.4491525423728809
 40
0.4491525423728809
 40
0.4491525423728809
 40
0.4491525423728809
 40
0.4576271186440674
 40
0.4576271186440674
 40
0.4576271186440674
 40
0.4576271186440674
 40
0.4661016949152538
 40
0.4661016949152538
 40
0.4661016949152538
 40
0.4661016949152538
 40
0.4745762711864402
 40
0.4745762711864402
 40
0.4745762711864402
 40
0.4745762711864402
 40
0.4830508474576266
 40
0.4830508474576266
 40
0.4830508474576266
 40
0.4830508474576266
 40
0.491525423728813
 40
0.491525423728813
 40
0.491525423728813
 40
0.491525423728813
 40
0.4999999999999994
 40
0.4999999999999994
 40
0.4999999999999994
 40
0.4999999999999994
 40
0.5084745762711859
 40
0.5084745762711859
 40
0.5084745762711859
 40
0.5084745762711859
 40
0.5169491525423723
 40
0.5169491525423723
 40
0.5169491525423723
 40
0.5169491525423723
 40
0.5254237288135587
 40
0.5254237288135587
 40
0.5254237288135587
 40
0.5254237288135587
 40
0.5338983050847451
 40
0.5338983050847451
 40
0.5338983050847451
 40
0.5338983050847451
 40
0.5423728813559315
 40
0.5423728813559315
 40
0.5423728813559315
 40
0.5423728813559315
 40
0.550847457627118
 40
0.550847457627118
 40
0.550847457627118
 40
0.550847457627118
 40
0.5593220338983044
 40
0.5593220338983044
 40
0.5593220338983044
 40
0.5593220338983044
 40
0.5677966101694908
 40
0.5677966101694908
 40
0.5677966101694908
 40
0.5677966101694908
 40
0.5762711864406772
 40
0.5762711864406772
 40
0.5762711864406772
 40
0.5762711864406772
 40
0.5847457627118636
 40
0.5847457627118636
 40
0.5847457627118636
 40
0.5847457627118636
 40
0.59322033898305
 40
0.59322033898305
 40
0.59322033898305
 40
0.59322033898305
 40
0.6016949152542365
 40
0.6016949152542365
 40
0.6016949152542365
 40
0.6016949152542365
 40
0.6101694915254229
 40
0.6101694915254229
 40
0.6101694915254229
 40
0.6101694915254229
 40
0.6186440677966093
 40
0.6186440677966093
 40
0.6186440677966093
 40
0.6186440677966093
 40
0.6271186440677957
 40
0.6271186440677957
 40
0.6271186440677957
 40
0.6271186440677957
 40
0.6355932203389821
 40
0.6355932203389821
 40
0.6355932203389821
 40
0.6355932203389821
 40
0.6440677966101686
 40
0.6440677966101686
 40
0.6440677966101686
 40
0.6440677966101686
 40
0.652542372881355
 40
0.652542372881355
 40
0.652542372881355
 40
0.652542372881355
 40
0.6610169491525414
 40
0.6610169491525414
 40
0.6610169491525414
 40
0.6610169491525414
 40
0.6694915254237278
 40
0.6694915254237278
 40
0.6694915254237278
 40
0.6694915254237278
 40
0.6779661016949142
 40
0.6779661016949142
 40
0.6779661016949142
 40
0.6779661016949142
 40
0.6864406779661006
 40
0.6864406779661006
 40
0.6864406779661006
 40
0.6864406779661006
 40
0.6949152542372871
 40
0.6949152542372871
 40
0.6949152542372871
 40
0.6949152542372871
 40
0.7033898305084735
 40
0.7033898305084735
 40
0.7033898305084735
 40
0.7033898305084735
 40
0.7118644067796599
 40
0.7118644067796599
 40
0.7118644067796599
 40
0.7118644067796599
 40
0.7203389830508463
 40
0.7203389830508463
 40
0.7203389830508463
 40
0.7203389830508463
 40
0.7288135593220327
 40
0.7288135593220327
 40
0.7288135593220327
 40
0.7288135593220327
 40
0.7372881355932192
 40
0.7372881355932192
 40
0.7372881355932192
 40
0.7372881355932192
 40
0.7457627118644056
 40
0.7457627118644056
 40
0.7457627118644056
 40
0.7457627118644056
 40
0.754237288135592
 40
0.754237288135592
 40
0.754237288135592
 40
0.754237288135592
 40
0.7627118644067784
 40
0.7627118644067784
 40
0.7627118644067784
 40
0.7627118644067784
 40
0.7711864406779648
 40
0.7711864406779648
 40
0.7711864406779648
 40
0.7711864406779648
 40
0.7796610169491512
 40
0.7796610169491512
 40
0.7796610169491512
 40
0.7796610169491512
 40
0.7881355932203377
 40
0.7881355932203377
 40
0.7881355932203377
 40
0.7881355932203377
 40
0.7966101694915241
 40
0.7966101694915241
 40
0.7966101694915241
 40
0.7966101694915241
 40
0.8050847457627105
 40
0.8050847457627105
 40
0.8050847457627105
 40
0.8050847457627105
 40
0.8135593220338969
 40
0.8135593220338969
 40
0.8135593220338969
 40
0.8135593220338969
 40
0.8220338983050833
 40
0.8220338983050833
 40
0.8220338983050833
 40
0.8220338983050833
 40
0.8305084745762698
 40
0.8305084745762698
 40
0.8305084745762698
 40
0.8305084745762698
 40
0.8389830508474562
 40
0.8389830508474562
 40
0.8389830508474562
 40
0.8389830508474562
 40
0.8474576271186426
 40
0.8474576271186426
 40
0.8474576271186426
 40
0.8474576271186426
 40
0.855932203389829
 40
0.855932203389829
 40
0.855932203389829
 40
0.855932203389829
 40
0.8644067796610154
 40
0.8644067796610154
 40
0.8644067796610154
 40
0.8644067796610154
 40
0.8728813559322018
 40
0.8728813559322018
 40
0.8728813559322018
 40
0.8728813559322018
 40
0.8813559322033883
 40
0.8813559322033883
 40
0.8813559322033883
 40
0.8813559322033883
 40
0.8898305084745747
 40
0.8898305084745747
 40
0.8898305084745747
 40
0.8898305084745747
 40
0.8983050847457611
 40
0.8983050847457611
 40
0.8983050847457611
 40
0.8983050847457611
 40
0.9067796610169475
 40
0.9067796610169475
 40
0.9067796610169475
 40
0.9067796610169475
 40
0.9152542372881339
 40
0.9152542372881339
 40
0.9152542372881339
 40
0.9152542372881339
 40
0.9237288135593204
 40
0.9237288135593204
 40
0.9237288135593204
 40
0.9237288135593204
 40
0.9322033898305068
 40
0.9322033898305068
 40
0.9322033898305068
 40
0.9322033898305068
 40
0.9406779661016932
 40
0.9406779661016932
 40
0.9406779661016932
 40
0.9406779661016932
 40
0.9491525423728796
 40
0.9491525423728796
 40
0.9491525423728796
 40
0.9491525423728796
 40
0.957627118644066
 40
0.957627118644066
 40
0.957627118644066
 40
0.957627118644066
 40
0.9661016949152524
 40
0.9661016949152524
 40
0.9661016949152524
 40
0.9661016949152524
 40
0.9745762711864389
 40
0.9745762711864389
 40
0.9745762711864389
 40
0.9745762711864389
 40
0.9830508474576253
 40
0.9830508474576253
 40
0.9830508474576253
 40
0.9830508474576253
 40
0.9915254237288117
 40
0.9915254237288117
 40
0.9915254237288117
 40
0.9915254237288117
 40
1.0
 40
1.0
 40
1.0
 40
1.0
 10
0.2185236220472441
 20
-0.7470157480314961
 30
0.0
 10
0.2185236220472441
 20
-0.7470157480314961
 30
0.0
 10
0.8627834645669291
 20
-0.3650944881889764
 30
0.0
 10
0.8627834645669291
 20
-0.3650944881889764
 30
0.0
 10
0.8627834645669291
 20
-0.3650944881889764
 30
0.0
 10
0.8627834645669291
 20
-0.3650944881889764
 30
0.0
 10
0.8778385826771654
 20
-0.3551771653543308
 30
0.0
 10
0.8778385826771654
 20
-0.3551771653543308
 30
0.0
 10
0.8778385826771654
 20
-0.3551771653543308
 30
0.0
 10
0.8778385826771654
 20
-0.3551771653543308
 30
0.0
 10
0.8916299212598425
 20
-0.3441141732283465
 30
0.0
 10
0.8916299212598425
 20
-0.3441141732283465
 30
0.0
 10
0.8916299212598425
 20
-0.3441141732283465
 30
0.0
 10
0.8916299212598425
 20
-0.3441141732283465
 30
0.0
 10
0.9041102362204725
 20
-0.3319566929133859
 30
0.0
 10
0.9041102362204725
 20
-0.3319566929133859
 30
0.0
 10
0.9041102362204725
 20
-0.3319566929133859
 30
0.0
 10
0.9041102362204725
 20
-0.3319566929133859
 30
0.0
 10
0.9152598425196851
 20
-0.3187795275590551
 30
0.0
 10
0.9152598425196851
 20
-0.3187795275590551
 30
0.0
 10
0.9152598425196851
 20
-0.3187795275590551
 30
0.0
 10
0.9152598425196851
 20
-0.3187795275590551
 30
0.0
 10
0.9250354330708662
 20
-0.3046417322834646
 30
0.0
 10
0.9250354330708662
 20
-0.3046417322834646
 30
0.0
 10
0.9250354330708662
 20
-0.3046417322834646
 30
0.0
 10
0.9250354330708662
 20
-0.3046417322834646
 30
0.0
 10
0.9334094488188977
 20
-0.2896102362204724
 30
0.0
 10
0.9334094488188977
 20
-0.2896102362204724
 30
0.0
 10
0.9334094488188977
 20
-0.2896102362204724
 30
0.0
 10
0.9334094488188977
 20
-0.2896102362204724
 30
0.0
 10
0.9403346456692914
 20
-0.273740157480315
 30
0.0
 10
0.9403346456692914
 20
-0.273740157480315
 30
0.0
 10
0.9403346456692914
 20
-0.273740157480315
 30
0.0
 10
0.9403346456692914
 20
-0.273740157480315
 30
0.0
 10
0.9457913385826772
 20
-0.2571062992125984
 30
0.0
 10
0.9457913385826772
 20
-0.2571062992125984
 30
0.0
 10
0.9457913385826772
 20
-0.2571062992125984
 30
0.0
 10
0.9457913385826772
 20
-0.2571062992125984
 30
0.0
 10
0.949732283464567
 20
-0.2397637795275591
 30
0.0
 10
0.949732283464567
 20
-0.2397637795275591
 30
0.0
 10
0.949732283464567
 20
-0.2397637795275591
 30
0.0
 10
0.949732283464567
 20
-0.2397637795275591
 30
0.0
 10
0.9521338582677166
 20
-0.2217834645669292
 30
0.0
 10
0.9521338582677166
 20
-0.2217834645669292
 30
0.0
 10
0.9521338582677166
 20
-0.2217834645669292
 30
0.0
 10
0.9521338582677166
 20
-0.2217834645669292
 30
0.0
 10
0.9529448818897638
 20
-0.2032125984251968
 30
0.0
 10
0.9529448818897638
 20
-0.2032125984251968
 30
0.0
 10
0.9529448818897638
 20
-0.2032125984251968
 30
0.0
 10
0.9529448818897638
 20
-0.2032125984251968
 30
0.0
 10
0.9521456692913386
 20
-0.1841338582677166
 30
0.0
 10
0.9521456692913386
 20
-0.1841338582677166
 30
0.0
 10
0.9521456692913386
 20
-0.1841338582677166
 30
0.0
 10
0.9521456692913386
 20
-0.1841338582677166
 30
0.0
 10
0.9496968503937008
 20
-0.1645984251968504
 30
0.0
 10
0.9496968503937008
 20
-0.1645984251968504
 30
0.0
 10
0.9496968503937008
 20
-0.1645984251968504
 30
0.0
 10
0.9496968503937008
 20
-0.1645984251968504
 30
0.0
 10
0.9455669291338583
 20
-0.1446811023622047
 30
0.0
 10
0.9455669291338583
 20
-0.1446811023622047
 30
0.0
 10
0.9455669291338583
 20
-0.1446811023622047
 30
0.0
 10
0.9455669291338583
 20
-0.1446811023622047
 30
0.0
 10
0.9397086614173229
 20
-0.1244291338582677
 30
0.0
 10
0.9397086614173229
 20
-0.1244291338582677
 30
0.0
 10
0.9397086614173229
 20
-0.1244291338582677
 30
0.0
 10
0.9397086614173229
 20
-0.1244291338582677
 30
0.0
 10
0.9321062992125985
 20
-0.1039251968503937
 30
0.0
 10
0.9321062992125985
 20
-0.1039251968503937
 30
0.0
 10
0.9321062992125985
 20
-0.1039251968503937
 30
0.0
 10
0.9321062992125985
 20
-0.1039251968503937
 30
0.0
 10
0.9227125984251969
 20
-0.0832165354330709
 30
0.0
 10
0.9227125984251969
 20
-0.0832165354330709
 30
0.0
 10
0.9227125984251969
 20
-0.0832165354330709
 30
0.0
 10
0.9227125984251969
 20
-0.0832165354330709
 30
0.0
 10
0.911496062992126
 20
-0.0623779527559055
 30
0.0
 10
0.911496062992126
 20
-0.0623779527559055
 30
0.0
 10
0.911496062992126
 20
-0.0623779527559055
 30
0.0
 10
0.911496062992126
 20
-0.0623779527559055
 30
0.0
 10
0.8984173228346457
 20
-0.0414566929133858
 30
0.0
 10
0.8984173228346457
 20
-0.0414566929133858
 30
0.0
 10
0.8984173228346457
 20
-0.0414566929133858
 30
0.0
 10
0.8984173228346457
 20
-0.0414566929133858
 30
0.0
 10
0.8834488188976378
 20
-0.0205354330708661
 30
0.0
 10
0.8834488188976378
 20
-0.0205354330708661
 30
0.0
 10
0.8834488188976378
 20
-0.0205354330708661
 30
0.0
 10
0.8834488188976378
 20
-0.0205354330708661
 30
0.0
 10
0.8665511811023623
 20
0.0003346456692913
 30
0.0
 10
0.8665511811023623
 20
0.0003346456692913
 30
0.0
 10
0.8665511811023623
 20
0.0003346456692913
 30
0.0
 10
0.8665511811023623
 20
0.0003346456692913
 30
0.0
 10
0.8476968503937008
 20
0.0210787401574803
 30
0.0
 10
0.8476968503937008
 20
0.0210787401574803
 30
0.0
 10
0.8476968503937008
 20
0.0210787401574803
 30
0.0
 10
0.8476968503937008
 20
0.0210787401574803
 30
0.0
 10
0.8268346456692913
 20
0.0416496062992126
 30
0.0
 10
0.8268346456692913
 20
0.0416496062992126
 30
0.0
 10
0.8268346456692913
 20
0.0416496062992126
 30
0.0
 10
0.8268346456692913
 20
0.0416496062992126
 30
0.0
 10
0.8039488188976378
 20
0.0619724409448819
 30
0.0
 10
0.8039488188976378
 20
0.0619724409448819
 30
0.0
 10
0.8039488188976378
 20
0.0619724409448819
 30
0.0
 10
0.8039488188976378
 20
0.0619724409448819
 30
0.0
 10
0.778996062992126
 20
0.081988188976378
 30
0.0
 10
0.778996062992126
 20
0.081988188976378
 30
0.0
 10
0.778996062992126
 20
0.081988188976378
 30
0.0
 10
0.778996062992126
 20
0.081988188976378
 30
0.0
 10
0.7519448818897638
 20
0.1016220472440945
 30
0.0
 10
0.7519448818897638
 20
0.1016220472440945
 30
0.0
 10
0.7519448818897638
 20
0.1016220472440945
 30
0.0
 10
0.7519448818897638
 20
0.1016220472440945
 30
0.0
 10
0.724736220472441
 20
0.1210708661417323
 30
0.0
 10
0.724736220472441
 20
0.1210708661417323
 30
0.0
 10
0.724736220472441
 20
0.1210708661417323
 30
0.0
 10
0.724736220472441
 20
0.1210708661417323
 30
0.0
 10
0.6993228346456694
 20
0.1405157480314961
 30
0.0
 10
0.6993228346456694
 20
0.1405157480314961
 30
0.0
 10
0.6993228346456694
 20
0.1405157480314961
 30
0.0
 10
0.6993228346456694
 20
0.1405157480314961
 30
0.0
 10
0.6756377952755905
 20
0.1599527559055118
 30
0.0
 10
0.6756377952755905
 20
0.1599527559055118
 30
0.0
 10
0.6756377952755905
 20
0.1599527559055118
 30
0.0
 10
0.6756377952755905
 20
0.1599527559055118
 30
0.0
 10
0.6536259842519685
 20
0.1793503937007874
 30
0.0
 10
0.6536259842519685
 20
0.1793503937007874
 30
0.0
 10
0.6536259842519685
 20
0.1793503937007874
 30
0.0
 10
0.6536259842519685
 20
0.1793503937007874
 30
0.0
 10
0.633224409448819
 20
0.1987047244094488
 30
0.0
 10
0.633224409448819
 20
0.1987047244094488
 30
0.0
 10
0.633224409448819
 20
0.1987047244094488
 30
0.0
 10
0.633224409448819
 20
0.1987047244094488
 30
0.0
 10
0.6143622047244095
 20
0.2179803149606299
 30
0.0
 10
0.6143622047244095
 20
0.2179803149606299
 30
0.0
 10
0.6143622047244095
 20
0.2179803149606299
 30
0.0
 10
0.6143622047244095
 20
0.2179803149606299
 30
0.0
 10
0.596992125984252
 20
0.2371692913385827
 30
0.0
 10
0.596992125984252
 20
0.2371692913385827
 30
0.0
 10
0.596992125984252
 20
0.2371692913385827
 30
0.0
 10
0.596992125984252
 20
0.2371692913385827
 30
0.0
 10
0.5810433070866142
 20
0.256244094488189
 30
0.0
 10
0.5810433070866142
 20
0.256244094488189
 30
0.0
 10
0.5810433070866142
 20
0.256244094488189
 30
0.0
 10
0.5810433070866142
 20
0.256244094488189
 30
0.0
 10
0.5664724409448819
 20
0.2752007874015748
 30
0.0
 10
0.5664724409448819
 20
0.2752007874015748
 30
0.0
 10
0.5664724409448819
 20
0.2752007874015748
 30
0.0
 10
0.5664724409448819
 20
0.2752007874015748
 30
0.0
 10
0.5532047244094488
 20
0.294003937007874
 30
0.0
 10
0.5532047244094488
 20
0.294003937007874
 30
0.0
 10
0.5532047244094488
 20
0.294003937007874
 30
0.0
 10
0.5532047244094488
 20
0.294003937007874
 30
0.0
 10
0.5411850393700788
 20
0.3126417322834646
 30
0.0
 10
0.5411850393700788
 20
0.3126417322834646
 30
0.0
 10
0.5411850393700788
 20
0.3126417322834646
 30
0.0
 10
0.5411850393700788
 20
0.3126417322834646
 30
0.0
 10
0.5303503937007874
 20
0.3310905511811024
 30
0.0
 10
0.5303503937007874
 20
0.3310905511811024
 30
0.0
 10
0.5303503937007874
 20
0.3310905511811024
 30
0.0
 10
0.5303503937007874
 20
0.3310905511811024
 30
0.0
 10
0.5206496062992126
 20
0.3493425196850394
 30
0.0
 10
0.5206496062992126
 20
0.3493425196850394
 30
0.0
 10
0.5206496062992126
 20
0.3493425196850394
 30
0.0
 10
0.5206496062992126
 20
0.3493425196850394
 30
0.0
 10
0.5120078740157481
 20
0.3673622047244095
 30
0.0
 10
0.5120078740157481
 20
0.3673622047244095
 30
0.0
 10
0.5120078740157481
 20
0.3673622047244095
 30
0.0
 10
0.5120078740157481
 20
0.3673622047244095
 30
0.0
 10
0.5043779527559056
 20
0.3851417322834646
 30
0.0
 10
0.5043779527559056
 20
0.3851417322834646
 30
0.0
 10
0.5043779527559056
 20
0.3851417322834646
 30
0.0
 10
0.5043779527559056
 20
0.3851417322834646
 30
0.0
 10
0.4976850393700787
 20
0.4026653543307087
 30
0.0
 10
0.4976850393700787
 20
0.4026653543307087
 30
0.0
 10
0.4976850393700787
 20
0.4026653543307087
 30
0.0
 10
0.4976850393700787
 20
0.4026653543307087
 30
0.0
 10
0.4918897637795276
 20
0.4199055118110237
 30
0.0
 10
0.4918897637795276
 20
0.4199055118110237
 30
0.0
 10
0.4918897637795276
 20
0.4199055118110237
 30
0.0
 10
0.4918897637795276
 20
0.4199055118110237
 30
0.0
 10
0.4869173228346457
 20
0.4368503937007874
 30
0.0
 10
0.4869173228346457
 20
0.4368503937007874
 30
0.0
 10
0.4869173228346457
 20
0.4368503937007874
 30
0.0
 10
0.4869173228346457
 20
0.4368503937007874
 30
0.0
 10
0.4827165354330709
 20
0.4534724409448819
 30
0.0
 10
0.4827165354330709
 20
0.4534724409448819
 30
0.0
 10
0.4827165354330709
 20
0.4534724409448819
 30
0.0
 10
0.4827165354330709
 20
0.4534724409448819
 30
0.0
 10
0.4792086614173229
 20
0.4697677165354331
 30
0.0
 10
0.4792086614173229
 20
0.4697677165354331
 30
0.0
 10
0.4792086614173229
 20
0.4697677165354331
 30
0.0
 10
0.4792086614173229
 20
0.4697677165354331
 30
0.0
 10
0.4763582677165354
 20
0.4857007874015748
 30
0.0
 10
0.4763582677165354
 20
0.4857007874015748
 30
0.0
 10
0.4763582677165354
 20
0.4857007874015748
 30
0.0
 10
0.4763582677165354
 20
0.4857007874015748
 30
0.0
 10
0.4740866141732283
 20
0.5012637795275591
 30
0.0
 10
0.4740866141732283
 20
0.5012637795275591
 30
0.0
 10
0.4740866141732283
 20
0.5012637795275591
 30
0.0
 10
0.4740866141732283
 20
0.5012637795275591
 30
0.0
 10
0.4723425196850394
 20
0.5164291338582677
 30
0.0
 10
0.4723425196850394
 20
0.5164291338582677
 30
0.0
 10
0.4723425196850394
 20
0.5164291338582677
 30
0.0
 10
0.4723425196850394
 20
0.5164291338582677
 30
0.0
 10
0.4710551181102363
 20
0.5311889763779528
 30
0.0
 10
0.4710551181102363
 20
0.5311889763779528
 30
0.0
 10
0.4710551181102363
 20
0.5311889763779528
 30
0.0
 10
0.4710551181102363
 20
0.5311889763779528
 30
0.0
 10
0.4701850393700788
 20
0.5455078740157481
 30
0.0
 10
0.4701850393700788
 20
0.5455078740157481
 30
0.0
 10
0.4701850393700788
 20
0.5455078740157481
 30
0.0
 10
0.4701850393700788
 20
0.5455078740157481
 30
0.0
 10
0.4696535433070866
 20
0.5593818897637796
 30
0.0
 10
0.4696535433070866
 20
0.5593818897637796
 30
0.0
 10
0.4696535433070866
 20
0.5593818897637796
 30
0.0
 10
0.4696535433070866
 20
0.5593818897637796
 30
0.0
 10
0.4694094488188977
 20
0.5727874015748031
 30
0.0
 10
0.4694094488188977
 20
0.5727874015748031
 30
0.0
 10
0.4694094488188977
 20
0.5727874015748031
 30
0.0
 10
0.4694094488188977
 20
0.5727874015748031
 30
0.0
 10
0.4693858267716536
 20
0.5857086614173228
 30
0.0
 10
0.4693858267716536
 20
0.5857086614173228
 30
0.0
 10
0.4693858267716536
 20
0.5857086614173228
 30
0.0
 10
0.4693858267716536
 20
0.5857086614173228
 30
0.0
 10
0.4695314960629922
 20
0.5981141732283465
 30
0.0
 10
0.4695314960629922
 20
0.5981141732283465
 30
0.0
 10
0.4695314960629922
 20
0.5981141732283465
 30
0.0
 10
0.4695314960629922
 20
0.5981141732283465
 30
0.0
 10
0.4697795275590551
 20
0.610003937007874
 30
0.0
 10
0.4697795275590551
 20
0.610003937007874
 30
0.0
 10
0.4697795275590551
 20
0.610003937007874
 30
0.0
 10
0.4697795275590551
 20
0.610003937007874
 30
0.0
 10
0.4700708661417323
 20
0.6213425196850394
 30
0.0
 10
0.4700708661417323
 20
0.6213425196850394
 30
0.0
 10
0.4700708661417323
 20
0.6213425196850394
 30
0.0
 10
0.4700708661417323
 20
0.6213425196850394
 30
0.0
 10
0.4703385826771654
 20
0.6321220472440945
 30
0.0
 10
0.4703385826771654
 20
0.6321220472440945
 30
0.0
 10
0.4703385826771654
 20
0.6321220472440945
 30
0.0
 10
0.4703385826771654
 20
0.6321220472440945
 30
0.0
 10
-0.1739212598425197
 20
0.2502007874015748
 30
0.0
 10
-0.1739212598425197
 20
0.2502007874015748
 30
0.0
 10
-0.1739212598425197
 20
0.2502007874015748
 30
0.0
 10
-0.1739212598425197
 20
0.2502007874015748
 30
0.0
 10
-0.1741889763779528
 20
0.2394212598425197
 30
0.0
 10
-0.1741889763779528
 20
0.2394212598425197
 30
0.0
 10
-0.1741889763779528
 20
0.2394212598425197
 30
0.0
 10
-0.1741889763779528
 20
0.2394212598425197
 30
0.0
 10
-0.1744803149606299
 20
0.2280826771653544
 30
0.0
 10
-0.1744803149606299
 20
0.2280826771653544
 30
0.0
 10
-0.1744803149606299
 20
0.2280826771653544
 30
0.0
 10
-0.1744803149606299
 20
0.2280826771653544
 30
0.0
 10
-0.1747283464566929
 20
0.2161929133858268
 30
0.0
 10
-0.1747283464566929
 20
0.2161929133858268
 30
0.0
 10
-0.1747283464566929
 20
0.2161929133858268
 30
0.0
 10
-0.1747283464566929
 20
0.2161929133858268
 30
0.0
 10
-0.1748740157480315
 20
0.2037874015748032
 30
0.0
 10
-0.1748740157480315
 20
0.2037874015748032
 30
0.0
 10
-0.1748740157480315
 20
0.2037874015748032
 30
0.0
 10
-0.1748740157480315
 20
0.2037874015748032
 30
0.0
 10
-0.1748503937007874
 20
0.1908661417322835
 30
0.0
 10
-0.1748503937007874
 20
0.1908661417322835
 30
0.0
 10
-0.1748503937007874
 20
0.1908661417322835
 30
0.0
 10
-0.1748503937007874
 20
0.1908661417322835
 30
0.0
 10
-0.1746062992125984
 20
0.1774606299212599
 30
0.0
 10
-0.1746062992125984
 20
0.1774606299212599
 30
0.0
 10
-0.1746062992125984
 20
0.1774606299212599
 30
0.0
 10
-0.1746062992125984
 20
0.1774606299212599
 30
0.0
 10
-0.1740748031496063
 20
0.1635866141732283
 30
0.0
 10
-0.1740748031496063
 20
0.1635866141732283
 30
0.0
 10
-0.1740748031496063
 20
0.1635866141732283
 30
0.0
 10
-0.1740748031496063
 20
0.1635866141732283
 30
0.0
 10
-0.1732047244094488
 20
0.1492677165354331
 30
0.0
 10
-0.1732047244094488
 20
0.1492677165354331
 30
0.0
 10
-0.1732047244094488
 20
0.1492677165354331
 30
0.0
 10
-0.1732047244094488
 20
0.1492677165354331
 30
0.0
 10
-0.1719173228346457
 20
0.134507874015748
 30
0.0
 10
-0.1719173228346457
 20
0.134507874015748
 30
0.0
 10
-0.1719173228346457
 20
0.134507874015748
 30
0.0
 10
-0.1719173228346457
 20
0.134507874015748
 30
0.0
 10
-0.1701732283464567
 20
0.1193425196850394
 30
0.0
 10
-0.1701732283464567
 20
0.1193425196850394
 30
0.0
 10
-0.1701732283464567
 20
0.1193425196850394
 30
0.0
 10
-0.1701732283464567
 20
0.1193425196850394
 30
0.0
 10
-0.1679015748031496
 20
0.1037795275590551
 30
0.0
 10
-0.1679015748031496
 20
0.1037795275590551
 30
0.0
 10
-0.1679015748031496
 20
0.1037795275590551
 30
0.0
 10
-0.1679015748031496
 20
0.1037795275590551
 30
0.0
 10
-0.1650511811023622
 20
0.0878464566929134
 30
0.0
 10
-0.1650511811023622
 20
0.0878464566929134
 30
0.0
 10
-0.1650511811023622
 20
0.0878464566929134
 30
0.0
 10
-0.1650511811023622
 20
0.0878464566929134
 30
0.0
 10
-0.1615433070866142
 20
0.0715511811023622
 30
0.0
 10
-0.1615433070866142
 20
0.0715511811023622
 30
0.0
 10
-0.1615433070866142
 20
0.0715511811023622
 30
0.0
 10
-0.1615433070866142
 20
0.0715511811023622
 30
0.0
 10
-0.1573425196850394
 20
0.0549291338582677
 30
0.0
 10
-0.1573425196850394
 20
0.0549291338582677
 30
0.0
 10
-0.1573425196850394
 20
0.0549291338582677
 30
0.0
 10
-0.1573425196850394
 20
0.0549291338582677
 30
0.0
 10
-0.1523700787401575
 20
0.0379842519685039
 30
0.0
 10
-0.1523700787401575
 20
0.0379842519685039
 30
0.0
 10
-0.1523700787401575
 20
0.0379842519685039
 30
0.0
 10
-0.1523700787401575
 20
0.0379842519685039
 30
0.0
 10
-0.1465748031496063
 20
0.020744094488189
 30
0.0
 10
-0.1465748031496063
 20
0.020744094488189
 30
0.0
 10
-0.1465748031496063
 20
0.020744094488189
 30
0.0
 10
-0.1465748031496063
 20
0.020744094488189
 30
0.0
 10
-0.1398818897637795
 20
0.0032204724409449
 30
0.0
 10
-0.1398818897637795
 20
0.0032204724409449
 30
0.0
 10
-0.1398818897637795
 20
0.0032204724409449
 30
0.0
 10
-0.1398818897637795
 20
0.0032204724409449
 30
0.0
 10
-0.132251968503937
 20
-0.0145590551181102
 30
0.0
 10
-0.132251968503937
 20
-0.0145590551181102
 30
0.0
 10
-0.132251968503937
 20
-0.0145590551181102
 30
0.0
 10
-0.132251968503937
 20
-0.0145590551181102
 30
0.0
 10
-0.1236102362204724
 20
-0.0325787401574803
 30
0.0
 10
-0.1236102362204724
 20
-0.0325787401574803
 30
0.0
 10
-0.1236102362204724
 20
-0.0325787401574803
 30
0.0
 10
-0.1236102362204724
 20
-0.0325787401574803
 30
0.0
 10
-0.1139094488188976
 20
-0.0508307086614173
 30
0.0
 10
-0.1139094488188976
 20
-0.0508307086614173
 30
0.0
 10
-0.1139094488188976
 20
-0.0508307086614173
 30
0.0
 10
-0.1139094488188976
 20
-0.0508307086614173
 30
0.0
 10
-0.1030748031496063
 20
-0.0692795275590551
 30
0.0
 10
-0.1030748031496063
 20
-0.0692795275590551
 30
0.0
 10
-0.1030748031496063
 20
-0.0692795275590551
 30
0.0
 10
-0.1030748031496063
 20
-0.0692795275590551
 30
0.0
 10
-0.0910551181102362
 20
-0.0879173228346457
 30
0.0
 10
-0.0910551181102362
 20
-0.0879173228346457
 30
0.0
 10
-0.0910551181102362
 20
-0.0879173228346457
 30
0.0
 10
-0.0910551181102362
 20
-0.0879173228346457
 30
0.0
 10
-0.0777874015748032
 20
-0.1067204724409449
 30
0.0
 10
-0.0777874015748032
 20
-0.1067204724409449
 30
0.0
 10
-0.0777874015748032
 20
-0.1067204724409449
 30
0.0
 10
-0.0777874015748032
 20
-0.1067204724409449
 30
0.0
 10
-0.0632165354330709
 20
-0.1256771653543307
 30
0.0
 10
-0.0632165354330709
 20
-0.1256771653543307
 30
0.0
 10
-0.0632165354330709
 20
-0.1256771653543307
 30
0.0
 10
-0.0632165354330709
 20
-0.1256771653543307
 30
0.0
 10
-0.0472677165354331
 20
-0.144751968503937
 30
0.0
 10
-0.0472677165354331
 20
-0.144751968503937
 30
0.0
 10
-0.0472677165354331
 20
-0.144751968503937
 30
0.0
 10
-0.0472677165354331
 20
-0.144751968503937
 30
0.0
 10
-0.0298976377952756
 20
-0.1639409448818898
 30
0.0
 10
-0.0298976377952756
 20
-0.1639409448818898
 30
0.0
 10
-0.0298976377952756
 20
-0.1639409448818898
 30
0.0
 10
-0.0298976377952756
 20
-0.1639409448818898
 30
0.0
 10
-0.0110354330708661
 20
-0.1832165354330709
 30
0.0
 10
-0.0110354330708661
 20
-0.1832165354330709
 30
0.0
 10
-0.0110354330708661
 20
-0.1832165354330709
 30
0.0
 10
-0.0110354330708661
 20
-0.1832165354330709
 30
0.0
 10
0.0093661417322835
 20
-0.2025708661417323
 30
0.0
 10
0.0093661417322835
 20
-0.2025708661417323
 30
0.0
 10
0.0093661417322835
 20
-0.2025708661417323
 30
0.0
 10
0.0093661417322835
 20
-0.2025708661417323
 30
0.0
 10
0.0313779527559055
 20
-0.2219685039370079
 30
0.0
 10
0.0313779527559055
 20
-0.2219685039370079
 30
0.0
 10
0.0313779527559055
 20
-0.2219685039370079
 30
0.0
 10
0.0313779527559055
 20
-0.2219685039370079
 30
0.0
 10
0.0550629921259843
 20
-0.2414055118110236
 30
0.0
 10
0.0550629921259843
 20
-0.2414055118110236
 30
0.0
 10
0.0550629921259843
 20
-0.2414055118110236
 30
0.0
 10
0.0550629921259843
 20
-0.2414055118110236
 30
0.0
 10
0.0804763779527559
 20
-0.2608503937007874
 30
0.0
 10
0.0804763779527559
 20
-0.2608503937007874
 30
0.0
 10
0.0804763779527559
 20
-0.2608503937007874
 30
0.0
 10
0.0804763779527559
 20
-0.2608503937007874
 30
0.0
 10
0.1076850393700787
 20
-0.2802992125984252
 30
0.0
 10
0.1076850393700787
 20
-0.2802992125984252
 30
0.0
 10
0.1076850393700787
 20
-0.2802992125984252
 30
0.0
 10
0.1076850393700787
 20
-0.2802992125984252
 30
0.0
 10
0.1347362204724409
 20
-0.2999330708661417
 30
0.0
 10
0.1347362204724409
 20
-0.2999330708661417
 30
0.0
 10
0.1347362204724409
 20
-0.2999330708661417
 30
0.0
 10
0.1347362204724409
 20
-0.2999330708661417
 30
0.0
 10
0.1596889763779528
 20
-0.3199488188976378
 30
0.0
 10
0.1596889763779528
 20
-0.3199488188976378
 30
0.0
 10
0.1596889763779528
 20
-0.3199488188976378
 30
0.0
 10
0.1596889763779528
 20
-0.3199488188976378
 30
0.0
 10
0.1825748031496063
 20
-0.3402716535433071
 30
0.0
 10
0.1825748031496063
 20
-0.3402716535433071
 30
0.0
 10
0.1825748031496063
 20
-0.3402716535433071
 30
0.0
 10
0.1825748031496063
 20
-0.3402716535433071
 30
0.0
 10
0.2034370078740158
 20
-0.3608425196850394
 30
0.0
 10
0.2034370078740158
 20
-0.3608425196850394
 30
0.0
 10
0.2034370078740158
 20
-0.3608425196850394
 30
0.0
 10
0.2034370078740158
 20
-0.3608425196850394
 30
0.0
 10
0.2222913385826772
 20
-0.3815866141732284
 30
0.0
 10
0.2222913385826772
 20
-0.3815866141732284
 30
0.0
 10
0.2222913385826772
 20
-0.3815866141732284
 30
0.0
 10
0.2222913385826772
 20
-0.3815866141732284
 30
0.0
 10
0.2391889763779528
 20
-0.4024566929133858
 30
0.0
 10
0.2391889763779528
 20
-0.4024566929133858
 30
0.0
 10
0.2391889763779528
 20
-0.4024566929133858
 30
0.0
 10
0.2391889763779528
 20
-0.4024566929133858
 30
0.0
 10
0.2541574803149607
 20
-0.4233779527559055
 30
0.0
 10
0.2541574803149607
 20
-0.4233779527559055
 30
0.0
 10
0.2541574803149607
 20
-0.4233779527559055
 30
0.0
 10
0.2541574803149607
 20
-0.4233779527559055
 30
0.0
 10
0.2672362204724409
 20
-0.4442992125984252
 30
0.0
 10
0.2672362204724409
 20
-0.4442992125984252
 30
0.0
 10
0.2672362204724409
 20
-0.4442992125984252
 30
0.0
 10
0.2672362204724409
 20
-0.4442992125984252
 30
0.0
 10
0.2784527559055118
 20
-0.4651377952755906
 30
0.0
 10
0.2784527559055118
 20
-0.4651377952755906
 30
0.0
 10
0.2784527559055118
 20
-0.4651377952755906
 30
0.0
 10
0.2784527559055118
 20
-0.4651377952755906
 30
0.0
 10
0.2878464566929134
 20
-0.4858464566929134
 30
0.0
 10
0.2878464566929134
 20
-0.4858464566929134
 30
0.0
 10
0.2878464566929134
 20
-0.4858464566929134
 30
0.0
 10
0.2878464566929134
 20
-0.4858464566929134
 30
0.0
 10
0.2954488188976378
 20
-0.5063503937007874
 30
0.0
 10
0.2954488188976378
 20
-0.5063503937007874
 30
0.0
 10
0.2954488188976378
 20
-0.5063503937007874
 30
0.0
 10
0.2954488188976378
 20
-0.5063503937007874
 30
0.0
 10
0.3013070866141732
 20
-0.5266023622047245
 30
0.0
 10
0.3013070866141732
 20
-0.5266023622047245
 30
0.0
 10
0.3013070866141732
 20
-0.5266023622047245
 30
0.0
 10
0.3013070866141732
 20
-0.5266023622047245
 30
0.0
 10
0.3054370078740158
 20
-0.5465196850393701
 30
0.0
 10
0.3054370078740158
 20
-0.5465196850393701
 30
0.0
 10
0.3054370078740158
 20
-0.5465196850393701
 30
0.0
 10
0.3054370078740158
 20
-0.5465196850393701
 30
0.0
 10
0.3078858267716536
 20
-0.5660551181102362
 30
0.0
 10
0.3078858267716536
 20
-0.5660551181102362
 30
0.0
 10
0.3078858267716536
 20
-0.5660551181102362
 30
0.0
 10
0.3078858267716536
 20
-0.5660551181102362
 30
0.0
 10
0.3086850393700787
 20
-0.5851338582677166
 30
0.0
 10
0.3086850393700787
 20
-0.5851338582677166
 30
0.0
 10
0.3086850393700787
 20
-0.5851338582677166
 30
0.0
 10
0.3086850393700787
 20
-0.5851338582677166
 30
0.0
 10
0.3078740157480315
 20
-0.6037047244094489
 30
0.0
 10
0.3078740157480315
 20
-0.6037047244094489
 30
0.0
 10
0.3078740157480315
 20
-0.6037047244094489
 30
0.0
 10
0.3078740157480315
 20
-0.6037047244094489
 30
0.0
 10
0.3054724409448819
 20
-0.6216850393700788
 30
0.0
 10
0.3054724409448819
 20
-0.6216850393700788
 30
0.0
 10
0.3054724409448819
 20
-0.6216850393700788
 30
0.0
 10
0.3054724409448819
 20
-0.6216850393700788
 30
0.0
 10
0.3015314960629921
 20
-0.6390275590551181
 30
0.0
 10
0.3015314960629921
 20
-0.6390275590551181
 30
0.0
 10
0.3015314960629921
 20
-0.6390275590551181
 30
0.0
 10
0.3015314960629921
 20
-0.6390275590551181
 30
0.0
 10
0.2960748031496063
 20
-0.6556614173228347
 30
0.0
 10
0.2960748031496063
 20
-0.6556614173228347
 30
0.0
 10
0.2960748031496063
 20
-0.6556614173228347
 30
0.0
 10
0.2960748031496063
 20
-0.6556614173228347
 30
0.0
 10
0.2891496062992126
 20
-0.6715314960629921
 30
0.0
 10
0.2891496062992126
 20
-0.6715314960629921
 30
0.0
 10
0.2891496062992126
 20
-0.6715314960629921
 30
0.0
 10
0.2891496062992126
 20
-0.6715314960629921
 30
0.0
 10
0.2807755905511811
 20
-0.6865629921259843
 30
0.0
 10
0.2807755905511811
 20
-0.6865629921259843
 30
0.0
 10
0.2807755905511811
 20
-0.6865629921259843
 30
0.0
 10
0.2807755905511811
 20
-0.6865629921259843
 30
0.0
 10
0.271
 20
-0.7007007874015748
 30
0.0
 10
0.271
 20
-0.7007007874015748
 30
0.0
 10
0.271
 20
-0.7007007874015748
 30
0.0
 10
0.271
 20
-0.7007007874015748
 30
0.0
 10
0.2598503937007874
 20
-0.7138779527559055
 30
0.0
 10
0.2598503937007874
 20
-0.7138779527559055
 30
0.0
 10
0.2598503937007874
 20
-0.7138779527559055
 30
0.0
 10
0.2598503937007874
 20
-0.7138779527559055
 30
0.0
 10
0.2473700787401575
 20
-0.7260354330708662
 30
0.0
 10
0.2473700787401575
 20
-0.7260354330708662
 30
0.0
 10
0.2473700787401575
 20
-0.7260354330708662
 30
0.0
 10
0.2473700787401575
 20
-0.7260354330708662
 30
0.0
 10
0.2335787401574803
 20
-0.7370984251968504
 30
0.0
 10
0.2335787401574803
 20
-0.7370984251968504
 30
0.0
 10
0.2335787401574803
 20
-0.7370984251968504
 30
0.0
 10
0.2335787401574803
 20
-0.7370984251968504
 30
0.0
 10
0.2185236220472441
 20
-0.7470157480314961
 30
0.0
 10
0.2185236220472441
 20
-0.7470157480314961
 30
0.0
  0
SPLINE
  5
83
100
AcDbEntity
  8
P1-Layer 1
 62
     9
100
AcDbSpline
210
0.0
220
0.0
230
1.0
 70
     1
 71
     3
 72
    44
 73
    40
 74
     0
 42
0.0000000001
 43
0.0000000001
 40
0.0
 40
0.0
 40
0.0
 40
0.0
 40
0.1
 40
0.1
 40
0.1
 40
0.1
 40
0.2
 40
0.2
 40
0.2
 40
0.2
 40
0.3
 40
0.3
 40
0.3
 40
0.3
 40
0.4
 40
0.4
 40
0.4
 40
0.4
 40
0.5
 40
0.5
 40
0.5
 40
0.5
 40
0.6
 40
0.6
 40
0.6
 40
0.6
 40
0.7
 40
0.7
 40
0.7
 40
0.7
 40
0.7999999999999999
 40
0.7999999999999999
 40
0.7999999999999999
 40
0.7999999999999999
 40
0.8999999999999999
 40
0.8999999999999999
 40
0.8999999999999999
 40
0.8999999999999999
 40
1.0
 40
1.0
 40
1.0
 40
1.0
 10
-0.1272755905511811
 20
0.2633622047244095
 30
0.0
 10
-0.1272755905511811
 20
0.2633622047244095
 30
0.0
 10
0.516984251968504
 20
0.6452834645669292
 30
0.0
 10
0.516984251968504
 20
0.6452834645669292
 30
0.0
 10
0.516984251968504
 20
0.6452834645669292
 30
0.0
 10
0.516984251968504
 20
0.6452834645669292
 30
0.0
 10
0.5273818897637795
 20
0.6513622047244094
 30
0.0
 10
0.5273818897637795
 20
0.6513622047244094
 30
0.0
 10
0.5273818897637795
 20
0.6513622047244094
 30
0.0
 10
0.5273818897637795
 20
0.6513622047244094
 30
0.0
 10
0.5371574803149607
 20
0.6584055118110237
 30
0.0
 10
0.5371574803149607
 20
0.6584055118110237
 30
0.0
 10
0.5371574803149607
 20
0.6584055118110237
 30
0.0
 10
0.5371574803149607
 20
0.6584055118110237
 30
0.0
 10
0.5462598425196851
 20
0.6663188976377953
 30
0.0
 10
0.5462598425196851
 20
0.6663188976377953
 30
0.0
 10
0.5462598425196851
 20
0.6663188976377953
 30
0.0
 10
0.5462598425196851
 20
0.6663188976377953
 30
0.0
 10
0.5546220472440945
 20
0.6750393700787402
 30
0.0
 10
0.5546220472440945
 20
0.6750393700787402
 30
0.0
 10
0.5546220472440945
 20
0.6750393700787402
 30
0.0
 10
0.5546220472440945
 20
0.6750393700787402
 30
0.0
 10
-0.0896377952755906
 20
0.2931181102362205
 30
0.0
 10
-0.0896377952755906
 20
0.2931181102362205
 30
0.0
 10
-0.0896377952755906
 20
0.2931181102362205
 30
0.0
 10
-0.0896377952755906
 20
0.2931181102362205
 30
0.0
 10
-0.098
 20
0.2843976377952756
 30
0.0
 10
-0.098
 20
0.2843976377952756
 30
0.0
 10
-0.098
 20
0.2843976377952756
 30
0.0
 10
-0.098
 20
0.2843976377952756
 30
0.0
 10
-0.1071023622047244
 20
0.276484251968504
 30
0.0
 10
-0.1071023622047244
 20
0.276484251968504
 30
0.0
 10
-0.1071023622047244
 20
0.276484251968504
 30
0.0
 10
-0.1071023622047244
 20
0.276484251968504
 30
0.0
 10
-0.1168779527559055
 20
0.2694409448818898
 30
0.0
 10
-0.1168779527559055
 20
0.2694409448818898
 30
0.0
 10
-0.1168779527559055
 20
0.2694409448818898
 30
0.0
 10
-0.1168779527559055
 20
0.2694409448818898
 30
0.0
 10
-0.1272755905511811
 20
0.2633622047244095
 30
0.0
 10
-0.1272755905511811
 20
0.2633622047244095
 30
0.0
  0
SPLINE
  5
84
100
AcDbEntity
  8
P1-Layer 1
 62
     9
100
AcDbSpline
210
0.0
220
0.0
230
1.0
 70
     1
 71
     3
 72
    44
 73
    40
 74
     0
 42
0.0000000001
 43
0.0000000001
 40
0.0
 40
0.0
 40
0.0
 40
0.0
 40
0.1
 40
0.1
 40
0.1
 40
0.1
 40
0.2
 40
0.2
 40
0.2
 40
0.2
 40
0.3
 40
0.3
 40
0.3
 40
0.3
 40
0.4
 40
0.4
 40
0.4
 40
0.4
 40
0.5
 40
0.5
 40
0.5
 40
0.5
 40
0.6
 40
0.6
 40
0.6
 40
0.6
 40
0.7
 40
0.7
 40
0.7
 40
0.7
 40
0.7999999999999999
 40
0.7999999999999999
 40
0.7999999999999999
 40
0.7999999999999999
 40
0.8999999999999999
 40
0.8999999999999999
 40
0.8999999999999999
 40
0.8999999999999999
 40
1.0
 40
1.0
 40
1.0
 40
1.0
 10
-0.0896377952755906
 20
0.2931181102362205
 30
0.0
 10
-0.0896377952755906
 20
0.2931181102362205
 30
0.0
 10
0.5546220472440945
 20
0.6750393700787402
 30
0.0
 10
0.5546220472440945
 20
0.6750393700787402
 30
0.0
 10
0.5546220472440945
 20
0.6750393700787402
 30
0.0
 10
0.5546220472440945
 20
0.6750393700787402
 30
0.0
 10
0.5622047244094488
 20
0.6844645669291339
 30
0.0
 10
0.5622047244094488
 20
0.6844645669291339
 30
0.0
 10
0.5622047244094488
 20
0.6844645669291339
 30
0.0
 10
0.5622047244094488
 20
0.6844645669291339
 30
0.0
 10
0.5689370078740158
 20
0.6945354330708662
 30
0.0
 10
0.5689370078740158
 20
0.6945354330708662
 30
0.0
 10
0.5689370078740158
 20
0.6945354330708662
 30
0.0
 10
0.5689370078740158
 20
0.6945354330708662
 30
0.0
 10
0.5747677165354331
 20
0.7051574803149606
 30
0.0
 10
0.5747677165354331
 20
0.7051574803149606
 30
0.0
 10
0.5747677165354331
 20
0.7051574803149606
 30
0.0
 10
0.5747677165354331
 20
0.7051574803149606
 30
0.0
 10
0.5796338582677165
 20
0.7162598425196851
 30
0.0
 10
0.5796338582677165
 20
0.7162598425196851
 30
0.0
 10
0.5796338582677165
 20
0.7162598425196851
 30
0.0
 10
0.5796338582677165
 20
0.7162598425196851
 30
0.0
 10
-0.0646259842519685
 20
0.3343385826771654
 30
0.0
 10
-0.0646259842519685
 20
0.3343385826771654
 30
0.0
 10
-0.0646259842519685
 20
0.3343385826771654
 30
0.0
 10
-0.0646259842519685
 20
0.3343385826771654
 30
0.0
 10
-0.069492125984252
 20
0.3232362204724409
 30
0.0
 10
-0.069492125984252
 20
0.3232362204724409
 30
0.0
 10
-0.069492125984252
 20
0.3232362204724409
 30
0.0
 10
-0.069492125984252
 20
0.3232362204724409
 30
0.0
 10
-0.0753228346456693
 20
0.3126141732283465
 30
0.0
 10
-0.0753228346456693
 20
0.3126141732283465
 30
0.0
 10
-0.0753228346456693
 20
0.3126141732283465
 30
0.0
 10
-0.0753228346456693
 20
0.3126141732283465
 30
0.0
 10
-0.0820551181102362
 20
0.3025433070866142
 30
0.0
 10
-0.0820551181102362
 20
0.3025433070866142
 30
0.0
 10
-0.0820551181102362
 20
0.3025433070866142
 30
0.0
 10
-0.0820551181102362
 20
0.3025433070866142
 30
0.0
 10
-0.0896377952755906
 20
0.2931181102362205
 30
0.0
 10
-0.0896377952755906
 20
0.2931181102362205
 30
0.0
  0
SPLINE
  5
85
100
AcDbEntity
  8
P1-Layer 1
 62
     9
100
AcDbSpline
210
0.0
220
0.0
230
1.0
 70
     1
 71
     3
 72
    44
 73
    40
 74
     0
 42
0.0000000001
 43
0.0000000001
 40
0.0
 40
0.0
 40
0.0
 40
0.0
 40
0.1
 40
0.1
 40
0.1
 40
0.1
 40
0.2
 40
0.2
 40
0.2
 40
0.2
 40
0.3
 40
0.3
 40
0.3
 40
0.3
 40
0.4
 40
0.4
 40
0.4
 40
0.4
 40
0.5
 40
0.5
 40
0.5
 40
0.5
 40
0.6
 40
0.6
 40
0.6
 40
0.6
 40
0.7
 40
0.7
 40
0.7
 40
0.7
 40
0.7999999999999999
 40
0.7999999999999999
 40
0.7999999999999999
 40
0.7999999999999999
 40
0.8999999999999999
 40
0.8999999999999999
 40
0.8999999999999999
 40
0.8999999999999999
 40
1.0
 40
1.0
 40
1.0
 40
1.0
 10
-0.0646259842519685
 20
0.3343385826771654
 30
0.0
 10
-0.0646259842519685
 20
0.3343385826771654
 30
0.0
 10
0.5796338582677165
 20
0.7162598425196851
 30
0.0
 10
0.5796338582677165
 20
0.7162598425196851
 30
0.0
 10
0.5796338582677165
 20
0.7162598425196851
 30
0.0
 10
0.5796338582677165
 20
0.7162598425196851
 30
0.0
 10
0.583488188976378
 20
0.7277519685039371
 30
0.0
 10
0.583488188976378
 20
0.7277519685039371
 30
0.0
 10
0.583488188976378
 20
0.7277519685039371
 30
0.0
 10
0.583488188976378
 20
0.7277519685039371
 30
0.0
 10
0.586263779527559
 20
0.7395629921259843
 30
0.0
 10
0.586263779527559
 20
0.7395629921259843
 30
0.0
 10
0.586263779527559
 20
0.7395629921259843
 30
0.0
 10
0.586263779527559
 20
0.7395629921259843
 30
0.0
 10
0.5879094488188976
 20
0.7516102362204725
 30
0.0
 10
0.5879094488188976
 20
0.7516102362204725
 30
0.0
 10
0.5879094488188976
 20
0.7516102362204725
 30
0.0
 10
0.5879094488188976
 20
0.7516102362204725
 30
0.0
 10
0.5883661417322835
 20
0.7638228346456694
 30
0.0
 10
0.5883661417322835
 20
0.7638228346456694
 30
0.0
 10
0.5883661417322835
 20
0.7638228346456694
 30
0.0
 10
0.5883661417322835
 20
0.7638228346456694
 30
0.0
 10
-0.0558937007874016
 20
0.3819015748031496
 30
0.0
 10
-0.0558937007874016
 20
0.3819015748031496
 30
0.0
 10
-0.0558937007874016
 20
0.3819015748031496
 30
0.0
 10
-0.0558937007874016
 20
0.3819015748031496
 30
0.0
 10
-0.0563503937007874
 20
0.3696889763779528
 30
0.0
 10
-0.0563503937007874
 20
0.3696889763779528
 30
0.0
 10
-0.0563503937007874
 20
0.3696889763779528
 30
0.0
 10
-0.0563503937007874
 20
0.3696889763779528
 30
0.0
 10
-0.057996062992126
 20
0.3576417322834646
 30
0.0
 10
-0.057996062992126
 20
0.3576417322834646
 30
0.0
 10
-0.057996062992126
 20
0.3576417322834646
 30
0.0
 10
-0.057996062992126
 20
0.3576417322834646
 30
0.0
 10
-0.0607716535433071
 20
0.3458307086614174
 30
0.0
 10
-0.0607716535433071
 20
0.3458307086614174
 30
0.0
 10
-0.0607716535433071
 20
0.3458307086614174
 30
0.0
 10
-0.0607716535433071
 20
0.3458307086614174
 30
0.0
 10
-0.0646259842519685
 20
0.3343385826771654
 30
0.0
 10
-0.0646259842519685
 20
0.3343385826771654
 30
0.0
  0
SPLINE
  5
86
100
AcDbEntity
  8
P1-Layer 1
 62
     9
100
AcDbSpline
210
0.0
220
0.0
230
1.0
 70
     1
 71
     3
 72
    36
 73
    32
 74
     0
 42
0.0000000001
 43
0.0000000001
 40
0.0
 40
0.0
 40
0.0
 40
0.0
 40
0.125
 40
0.125
 40
0.125
 40
0.125
 40
0.25
 40
0.25
 40
0.25
 40
0.25
 40
0.375
 40
0.375
 40
0.375
 40
0.375
 40
0.5
 40
0.5
 40
0.5
 40
0.5
 40
0.625
 40
0.625
 40
0.625
 40
0.625
 40
0.75
 40
0.75
 40
0.75
 40
0.75
 40
0.875
 40
0.875
 40
0.875
 40
0.875
 40
1.0
 40
1.0
 40
1.0
 40
1.0
 10
-0.0558937007874016
 20
0.3819015748031496
 30
0.0
 10
-0.0558937007874016
 20
0.3819015748031496
 30
0.0
 10
0.5883661417322835
 20
0.7638228346456694
 30
0.0
 10
0.5883661417322835
 20
0.7638228346456694
 30
0.0
 10
0.5883661417322835
 20
0.7638228346456694
 30
0.0
 10
0.5883661417322835
 20
0.7638228346456694
 30
0.0
 10
0.5875905511811024
 20
0.7760984251968505
 30
0.0
 10
0.5875905511811024
 20
0.7760984251968505
 30
0.0
 10
0.5875905511811024
 20
0.7760984251968505
 30
0.0
 10
0.5875905511811024
 20
0.7760984251968505
 30
0.0
 10
0.5855039370078741
 20
0.7883740157480316
 30
0.0
 10
0.5855039370078741
 20
0.7883740157480316
 30
0.0
 10
0.5855039370078741
 20
0.7883740157480316
 30
0.0
 10
0.5855039370078741
 20
0.7883740157480316
 30
0.0
 10
0.5820629921259842
 20
0.8005629921259843
 30
0.0
 10
0.5820629921259842
 20
0.8005629921259843
 30
0.0
 10
0.5820629921259842
 20
0.8005629921259843
 30
0.0
 10
0.5820629921259842
 20
0.8005629921259843
 30
0.0
 10
-0.0621968503937008
 20
0.4186417322834646
 30
0.0
 10
-0.0621968503937008
 20
0.4186417322834646
 30
0.0
 10
-0.0621968503937008
 20
0.4186417322834646
 30
0.0
 10
-0.0621968503937008
 20
0.4186417322834646
 30
0.0
 10
-0.058755905511811
 20
0.4064527559055118
 30
0.0
 10
-0.058755905511811
 20
0.4064527559055118
 30
0.0
 10
-0.058755905511811
 20
0.4064527559055118
 30
0.0
 10
-0.058755905511811
 20
0.4064527559055118
 30
0.0
 10
-0.0566692913385827
 20
0.3941771653543307
 30
0.0
 10
-0.0566692913385827
 20
0.3941771653543307
 30
0.0
 10
-0.0566692913385827
 20
0.3941771653543307
 30
0.0
 10
-0.0566692913385827
 20
0.3941771653543307
 30
0.0
 10
-0.0558937007874016
 20
0.3819015748031496
 30
0.0
 10
-0.0558937007874016
 20
0.3819015748031496
 30
0.0
  0
SPLINE
  5
87
100
AcDbEntity
  8
P1-Layer 1
 62
     9
100
AcDbSpline
210
0.0
220
0.0
230
1.0
 70
     1
 71
     3
 72
    36
 73
    32
 74
     0
 42
0.0000000001
 43
0.0000000001
 40
0.0
 40
0.0
 40
0.0
 40
0.0
 40
0.125
 40
0.125
 40
0.125
 40
0.125
 40
0.25
 40
0.25
 40
0.25
 40
0.25
 40
0.375
 40
0.375
 40
0.375
 40
0.375
 40
0.5
 40
0.5
 40
0.5
 40
0.5
 40
0.625
 40
0.625
 40
0.625
 40
0.625
 40
0.75
 40
0.75
 40
0.75
 40
0.75
 40
0.875
 40
0.875
 40
0.875
 40
0.875
 40
1.0
 40
1.0
 40
1.0
 40
1.0
 10
-0.0621968503937008
 20
0.4186417322834646
 30
0.0
 10
-0.0621968503937008
 20
0.4186417322834646
 30
0.0
 10
0.5820629921259842
 20
0.8005629921259843
 30
0.0
 10
0.5820629921259842
 20
0.8005629921259843
 30
0.0
 10
0.5820629921259842
 20
0.8005629921259843
 30
0.0
 10
0.5820629921259842
 20
0.8005629921259843
 30
0.0
 10
0.5772007874015749
 20
0.8125944881889764
 30
0.0
 10
0.5772007874015749
 20
0.8125944881889764
 30
0.0
 10
0.5772007874015749
 20
0.8125944881889764
 30
0.0
 10
0.5772007874015749
 20
0.8125944881889764
 30
0.0
 10
0.5708740157480315
 20
0.8243740157480315
 30
0.0
 10
0.5708740157480315
 20
0.8243740157480315
 30
0.0
 10
0.5708740157480315
 20
0.8243740157480315
 30
0.0
 10
0.5708740157480315
 20
0.8243740157480315
 30
0.0
 10
0.5630118110236221
 20
0.8358385826771654
 30
0.0
 10
0.5630118110236221
 20
0.8358385826771654
 30
0.0
 10
0.5630118110236221
 20
0.8358385826771654
 30
0.0
 10
0.5630118110236221
 20
0.8358385826771654
 30
0.0
 10
-0.081248031496063
 20
0.4539173228346457
 30
0.0
 10
-0.081248031496063
 20
0.4539173228346457
 30
0.0
 10
-0.081248031496063
 20
0.4539173228346457
 30
0.0
 10
-0.081248031496063
 20
0.4539173228346457
 30
0.0
 10
-0.0733858267716535
 20
0.4424527559055118
 30
0.0
 10
-0.0733858267716535
 20
0.4424527559055118
 30
0.0
 10
-0.0733858267716535
 20
0.4424527559055118
 30
0.0
 10
-0.0733858267716535
 20
0.4424527559055118
 30
0.0
 10
-0.0670590551181102
 20
0.4306732283464567
 30
0.0
 10
-0.0670590551181102
 20
0.4306732283464567
 30
0.0
 10
-0.0670590551181102
 20
0.4306732283464567
 30
0.0
 10
-0.0670590551181102
 20
0.4306732283464567
 30
0.0
 10
-0.0621968503937008
 20
0.4186417322834646
 30
0.0
 10
-0.0621968503937008
 20
0.4186417322834646
 30
0.0
  0
SPLINE
  5
88
100
AcDbEntity
  8
P1-Layer 1
 62
     9
100
AcDbSpline
210
0.0
220
0.0
230
1.0
 70
     1
 71
     3
 72
    36
 73
    32
 74
     0
 42
0.0000000001
 43
0.0000000001
 40
0.0
 40
0.0
 40
0.0
 40
0.0
 40
0.125
 40
0.125
 40
0.125
 40
0.125
 40
0.25
 40
0.25
 40
0.25
 40
0.25
 40
0.375
 40
0.375
 40
0.375
 40
0.375
 40
0.5
 40
0.5
 40
0.5
 40
0.5
 40
0.625
 40
0.625
 40
0.625
 40
0.625
 40
0.75
 40
0.75
 40
0.75
 40
0.75
 40
0.875
 40
0.875
 40
0.875
 40
0.875
 40
1.0
 40
1.0
 40
1.0
 40
1.0
 10
-0.081248031496063
 20
0.4539173228346457
 30
0.0
 10
-0.081248031496063
 20
0.4539173228346457
 30
0.0
 10
0.5630118110236221
 20
0.8358385826771654
 30
0.0
 10
0.5630118110236221
 20
0.8358385826771654
 30
0.0
 10
0.5630118110236221
 20
0.8358385826771654
 30
0.0
 10
0.5630118110236221
 20
0.8358385826771654
 30
0.0
 10
0.5535669291338583
 20
0.8468937007874016
 30
0.0
 10
0.5535669291338583
 20
0.8468937007874016
 30
0.0
 10
0.5535669291338583
 20
0.8468937007874016
 30
0.0
 10
0.5535669291338583
 20
0.8468937007874016
 30
0.0
 10
0.5424763779527559
 20
0.8574685039370079
 30
0.0
 10
0.5424763779527559
 20
0.8574685039370079
 30
0.0
 10
0.5424763779527559
 20
0.8574685039370079
 30
0.0
 10
0.5424763779527559
 20
0.8574685039370079
 30
0.0
 10
0.5296968503937009
 20
0.867472440944882
 30
0.0
 10
0.5296968503937009
 20
0.867472440944882
 30
0.0
 10
0.5296968503937009
 20
0.867472440944882
 30
0.0
 10
0.5296968503937009
 20
0.867472440944882
 30
0.0
 10
-0.1145629921259843
 20
0.4855511811023622
 30
0.0
 10
-0.1145629921259843
 20
0.4855511811023622
 30
0.0
 10
-0.1145629921259843
 20
0.4855511811023622
 30
0.0
 10
-0.1145629921259843
 20
0.4855511811023622
 30
0.0
 10
-0.1017834645669291
 20
0.4755472440944882
 30
0.0
 10
-0.1017834645669291
 20
0.4755472440944882
 30
0.0
 10
-0.1017834645669291
 20
0.4755472440944882
 30
0.0
 10
-0.1017834645669291
 20
0.4755472440944882
 30
0.0
 10
-0.0906929133858268
 20
0.4649724409448819
 30
0.0
 10
-0.0906929133858268
 20
0.4649724409448819
 30
0.0
 10
-0.0906929133858268
 20
0.4649724409448819
 30
0.0
 10
-0.0906929133858268
 20
0.4649724409448819
 30
0.0
 10
-0.081248031496063
 20
0.4539173228346457
 30
0.0
 10
-0.081248031496063
 20
0.4539173228346457
 30
0.0
  0
SPLINE
  5
89
100
AcDbEntity
  8
P1-Layer 1
 62
   253
100
AcDbSpline
210
0.0
220
0.0
230
1.0
 70
     1
 71
     3
 72
    28
 73
    24
 74
     0
 42
0.0000000001
 43
0.0000000001
 40
0.0
 40
0.0
 40
0.0
 40
0.0
 40
0.1666666666666667
 40
0.1666666666666667
 40
0.1666666666666667
 40
0.1666666666666667
 40
0.3333333333333333
 40
0.3333333333333333
 40
0.3333333333333333
 40
0.3333333333333333
 40
0.5
 40
0.5
 40
0.5
 40
0.5
 40
0.6666666666666666
 40
0.6666666666666666
 40
0.6666666666666666
 40
0.6666666666666666
 40
0.8333333333333333
 40
0.8333333333333333
 40
0.8333333333333333
 40
0.8333333333333333
 40
1.0
 40
1.0
 40
1.0
 40
1.0
 10
-0.1145629921259843
 20
0.4855511811023622
 30
0.0
 10
-0.1145629921259843
 20
0.4855511811023622
 30
0.0
 10
0.5296968503937009
 20
0.867472440944882
 30
0.0
 10
0.5296968503937009
 20
0.867472440944882
 30
0.0
 10
0.5296968503937009
 20
0.867472440944882
 30
0.0
 10
0.5296968503937009
 20
0.867472440944882
 30
0.0
 10
0.5151535433070866
 20
0.8768346456692914
 30
0.0
 10
0.5151535433070866
 20
0.8768346456692914
 30
0.0
 10
0.5151535433070866
 20
0.8768346456692914
 30
0.0
 10
0.5151535433070866
 20
0.8768346456692914
 30
0.0
 10
0.4987992125984252
 20
0.8854685039370079
 30
0.0
 10
0.4987992125984252
 20
0.8854685039370079
 30
0.0
 10
0.4987992125984252
 20
0.8854685039370079
 30
0.0
 10
0.4987992125984252
 20
0.8854685039370079
 30
0.0
 10
-0.1454606299212599
 20
0.5035472440944883
 30
0.0
 10
-0.1454606299212599
 20
0.5035472440944883
 30
0.0
 10
-0.1454606299212599
 20
0.5035472440944883
 30
0.0
 10
-0.1454606299212599
 20
0.5035472440944883
 30
0.0
 10
-0.1291062992125984
 20
0.4949133858267717
 30
0.0
 10
-0.1291062992125984
 20
0.4949133858267717
 30
0.0
 10
-0.1291062992125984
 20
0.4949133858267717
 30
0.0
 10
-0.1291062992125984
 20
0.4949133858267717
 30
0.0
 10
-0.1145629921259843
 20
0.4855511811023622
 30
0.0
 10
-0.1145629921259843
 20
0.4855511811023622
 30
0.0
  0
SPLINE
  5
8A
100
AcDbEntity
  8
P1-Layer 1
 62
   253
100
AcDbSpline
210
0.0
220
0.0
230
1.0
 70
     1
 71
     3
 72
    28
 73
    24
 74
     0
 42
0.0000000001
 43
0.0000000001
 40
0.0
 40
0.0
 40
0.0
 40
0.0
 40
0.1666666666666667
 40
0.1666666666666667
 40
0.1666666666666667
 40
0.1666666666666667
 40
0.3333333333333333
 40
0.3333333333333333
 40
0.3333333333333333
 40
0.3333333333333333
 40
0.5
 40
0.5
 40
0.5
 40
0.5
 40
0.6666666666666666
 40
0.6666666666666666
 40
0.6666666666666666
 40
0.6666666666666666
 40
0.8333333333333333
 40
0.8333333333333333
 40
0.8333333333333333
 40
0.8333333333333333
 40
1.0
 40
1.0
 40
1.0
 40
1.0
 10
-0.1454606299212599
 20
0.5035472440944883
 30
0.0
 10
-0.1454606299212599
 20
0.5035472440944883
 30
0.0
 10
0.4987992125984252
 20
0.8854685039370079
 30
0.0
 10
0.4987992125984252
 20
0.8854685039370079
 30
0.0
 10
0.4987992125984252
 20
0.8854685039370079
 30
0.0
 10
0.4987992125984252
 20
0.8854685039370079
 30
0.0
 10
0.4805708661417323
 20
0.8933031496062992
 30
0.0
 10
0.4805708661417323
 20
0.8933031496062992
 30
0.0
 10
0.4805708661417323
 20
0.8933031496062992
 30
0.0
 10
0.4805708661417323
 20
0.8933031496062992
 30
0.0
 10
0.4604212598425197
 20
0.900244094488189
 30
0.0
 10
0.4604212598425197
 20
0.900244094488189
 30
0.0
 10
0.4604212598425197
 20
0.900244094488189
 30
0.0
 10
0.4604212598425197
 20
0.900244094488189
 30
0.0
 10
-0.1838385826771654
 20
0.5183228346456693
 30
0.0
 10
-0.1838385826771654
 20
0.5183228346456693
 30
0.0
 10
-0.1838385826771654
 20
0.5183228346456693
 30
0.0
 10
-0.1838385826771654
 20
0.5183228346456693
 30
0.0
 10
-0.1636889763779528
 20
0.5113818897637795
 30
0.0
 10
-0.1636889763779528
 20
0.5113818897637795
 30
0.0
 10
-0.1636889763779528
 20
0.5113818897637795
 30
0.0
 10
-0.1636889763779528
 20
0.5113818897637795
 30
0.0
 10
-0.1454606299212599
 20
0.5035472440944883
 30
0.0
 10
-0.1454606299212599
 20
0.5035472440944883
 30
0.0
  0
SPLINE
  5
8B
100
AcDbEntity
  8
P1-Layer 1
 62
   253
100
AcDbSpline
210
0.0
220
0.0
230
1.0
 70
     1
 71
     3
 72
    28
 73
    24
 74
     0
 42
0.0000000001
 43
0.0000000001
 40
0.0
 40
0.0
 40
0.0
 40
0.0
 40
0.1666666666666667
 40
0.1666666666666667
 40
0.1666666666666667
 40
0.1666666666666667
 40
0.3333333333333333
 40
0.3333333333333333
 40
0.3333333333333333
 40
0.3333333333333333
 40
0.5
 40
0.5
 40
0.5
 40
0.5
 40
0.6666666666666666
 40
0.6666666666666666
 40
0.6666666666666666
 40
0.6666666666666666
 40
0.8333333333333333
 40
0.8333333333333333
 40
0.8333333333333333
 40
0.8333333333333333
 40
1.0
 40
1.0
 40
1.0
 40
1.0
 10
-0.1838385826771654
 20
0.5183228346456693
 30
0.0
 10
-0.1838385826771654
 20
0.5183228346456693
 30
0.0
 10
0.4604212598425197
 20
0.900244094488189
 30
0.0
 10
0.4604212598425197
 20
0.900244094488189
 30
0.0
 10
0.4604212598425197
 20
0.900244094488189
 30
0.0
 10
0.4604212598425197
 20
0.900244094488189
 30
0.0
 10
0.4382834645669291
 20
0.906232283464567
 30
0.0
 10
0.4382834645669291
 20
0.906232283464567
 30
0.0
 10
0.4382834645669291
 20
0.906232283464567
 30
0.0
 10
0.4382834645669291
 20
0.906232283464567
 30
0.0
 10
0.4141102362204724
 20
0.9111692913385827
 30
0.0
 10
0.4141102362204724
 20
0.9111692913385827
 30
0.0
 10
0.4141102362204724
 20
0.9111692913385827
 30
0.0
 10
0.4141102362204724
 20
0.9111692913385827
 30
0.0
 10
-0.2301496062992126
 20
0.529248031496063
 30
0.0
 10
-0.2301496062992126
 20
0.529248031496063
 30
0.0
 10
-0.2301496062992126
 20
0.529248031496063
 30
0.0
 10
-0.2301496062992126
 20
0.529248031496063
 30
0.0
 10
-0.2059763779527559
 20
0.5243110236220473
 30
0.0
 10
-0.2059763779527559
 20
0.5243110236220473
 30
0.0
 10
-0.2059763779527559
 20
0.5243110236220473
 30
0.0
 10
-0.2059763779527559
 20
0.5243110236220473
 30
0.0
 10
-0.1838385826771654
 20
0.5183228346456693
 30
0.0
 10
-0.1838385826771654
 20
0.5183228346456693
 30
0.0
  0
SPLINE
  5
8C
100
AcDbEntity
  8
P1-Layer 1
 62
   253
100
AcDbSpline
210
0.0
220
0.0
230
1.0
 70
     1
 71
     3
 72
    20
 73
    16
 74
     0
 42
0.0000000001
 43
0.0000000001
 40
0.0
 40
0.0
 40
0.0
 40
0.0
 40
0.25
 40
0.25
 40
0.25
 40
0.25
 40
0.5
 40
0.5
 40
0.5
 40
0.5
 40
0.75
 40
0.75
 40
0.75
 40
0.75
 40
1.0
 40
1.0
 40
1.0
 40
1.0
 10
-0.2301496062992126
 20
0.529248031496063
 30
0.0
 10
-0.2301496062992126
 20
0.529248031496063
 30
0.0
 10
0.4141102362204724
 20
0.9111692913385827
 30
0.0
 10
0.4141102362204724
 20
0.9111692913385827
 30
0.0
 10
0.4141102362204724
 20
0.9111692913385827
 30
0.0
 10
0.4141102362204724
 20
0.9111692913385827
 30
0.0
 10
0.3878346456692914
 20
0.914984251968504
 30
0.0
 10
0.3878346456692914
 20
0.914984251968504
 30
0.0
 10
0.3878346456692914
 20
0.914984251968504
 30
0.0
 10
0.3878346456692914
 20
0.914984251968504
 30
0.0
 10
-0.2564251968503937
 20
0.5330629921259843
 30
0.0
 10
-0.2564251968503937
 20
0.5330629921259843
 30
0.0
 10
-0.2564251968503937
 20
0.5330629921259843
 30
0.0
 10
-0.2564251968503937
 20
0.5330629921259843
 30
0.0
 10
-0.2301496062992126
 20
0.529248031496063
 30
0.0
 10
-0.2301496062992126
 20
0.529248031496063
 30
0.0
  0
SPLINE
  5
8D
100
AcDbEntity
  8
P1-Layer 1
370
     5
100
AcDbSpline
210
0.0
220
0.0
230
1.0
 70
     1
 71
     3
 72
   236
 73
   232
 74
     0
 42
0.0000000001
 43
0.0000000001
 40
0.0
 40
0.0
 40
0.0
 40
0.0
 40
0.0172413793103448
 40
0.0172413793103448
 40
0.0172413793103448
 40
0.0172413793103448
 40
0.0344827586206897
 40
0.0344827586206897
 40
0.0344827586206897
 40
0.0344827586206897
 40
0.0517241379310345
 40
0.0517241379310345
 40
0.0517241379310345
 40
0.0517241379310345
 40
0.0689655172413793
 40
0.0689655172413793
 40
0.0689655172413793
 40
0.0689655172413793
 40
0.0862068965517241
 40
0.0862068965517241
 40
0.0862068965517241
 40
0.0862068965517241
 40
0.103448275862069
 40
0.103448275862069
 40
0.103448275862069
 40
0.103448275862069
 40
0.1206896551724138
 40
0.1206896551724138
 40
0.1206896551724138
 40
0.1206896551724138
 40
0.1379310344827587
 40
0.1379310344827587
 40
0.1379310344827587
 40
0.1379310344827587
 40
0.1551724137931035
 40
0.1551724137931035
 40
0.1551724137931035
 40
0.1551724137931035
 40
0.1724137931034483
 40
0.1724137931034483
 40
0.1724137931034483
 40
0.1724137931034483
 40
0.1896551724137932
 40
0.1896551724137932
 40
0.1896551724137932
 40
0.1896551724137932
 40
0.206896551724138
 40
0.206896551724138
 40
0.206896551724138
 40
0.206896551724138
 40
0.2241379310344828
 40
0.2241379310344828
 40
0.2241379310344828
 40
0.2241379310344828
 40
0.2413793103448277
 40
0.2413793103448277
 40
0.2413793103448277
 40
0.2413793103448277
 40
0.2586206896551725
 40
0.2586206896551725
 40
0.2586206896551725
 40
0.2586206896551725
 40
0.2758620689655173
 40
0.2758620689655173
 40
0.2758620689655173
 40
0.2758620689655173
 40
0.2931034482758621
 40
0.2931034482758621
 40
0.2931034482758621
 40
0.2931034482758621
 40
0.3103448275862069
 40
0.3103448275862069
 40
0.3103448275862069
 40
0.3103448275862069
 40
0.3275862068965517
 40
0.3275862068965517
 40
0.3275862068965517
 40
0.3275862068965517
 40
0.3448275862068965
 40
0.3448275862068965
 40
0.3448275862068965
 40
0.3448275862068965
 40
0.3620689655172413
 40
0.3620689655172413
 40
0.3620689655172413
 40
0.3620689655172413
 40
0.3793103448275861
 40
0.3793103448275861
 40
0.3793103448275861
 40
0.3793103448275861
 40
0.3965517241379309
 40
0.3965517241379309
 40
0.3965517241379309
 40
0.3965517241379309
 40
0.4137931034482758
 40
0.4137931034482758
 40
0.4137931034482758
 40
0.4137931034482758
 40
0.4310344827586206
 40
0.4310344827586206
 40
0.4310344827586206
 40
0.4310344827586206
 40
0.4482758620689654
 40
0.4482758620689654
 40
0.4482758620689654
 40
0.4482758620689654
 40
0.4655172413793102
 40
0.4655172413793102
 40
0.4655172413793102
 40
0.4655172413793102
 40
0.482758620689655
 40
0.482758620689655
 40
0.482758620689655
 40
0.482758620689655
 40
0.4999999999999998
 40
0.4999999999999998
 40
0.4999999999999998
 40
0.4999999999999998
 40
0.5172413793103446
 40
0.5172413793103446
 40
0.5172413793103446
 40
0.5172413793103446
 40
0.5344827586206895
 40
0.5344827586206895
 40
0.5344827586206895
 40
0.5344827586206895
 40
0.5517241379310344
 40
0.5517241379310344
 40
0.5517241379310344
 40
0.5517241379310344
 40
0.5689655172413792
 40
0.5689655172413792
 40
0.5689655172413792
 40
0.5689655172413792
 40
0.5862068965517241
 40
0.5862068965517241
 40
0.5862068965517241
 40
0.5862068965517241
 40
0.603448275862069
 40
0.603448275862069
 40
0.603448275862069
 40
0.603448275862069
 40
0.6206896551724138
 40
0.6206896551724138
 40
0.6206896551724138
 40
0.6206896551724138
 40
0.6379310344827587
 40
0.6379310344827587
 40
0.6379310344827587
 40
0.6379310344827587
 40
0.6551724137931035
 40
0.6551724137931035
 40
0.6551724137931035
 40
0.6551724137931035
 40
0.6724137931034484
 40
0.6724137931034484
 40
0.6724137931034484
 40
0.6724137931034484
 40
0.6896551724137933
 40
0.6896551724137933
 40
0.6896551724137933
 40
0.6896551724137933
 40
0.7068965517241381
 40
0.7068965517241381
 40
0.7068965517241381
 40
0.7068965517241381
 40
0.724137931034483
 40
0.724137931034483
 40
0.724137931034483
 40
0.724137931034483
 40
0.7413793103448279
 40
0.7413793103448279
 40
0.7413793103448279
 40
0.7413793103448279
 40
0.7586206896551727
 40
0.7586206896551727
 40
0.7586206896551727
 40
0.7586206896551727
 40
0.7758620689655176
 40
0.7758620689655176
 40
0.7758620689655176
 40
0.7758620689655176
 40
0.7931034482758624
 40
0.7931034482758624
 40
0.7931034482758624
 40
0.7931034482758624
 40
0.8103448275862073
 40
0.8103448275862073
 40
0.8103448275862073
 40
0.8103448275862073
 40
0.8275862068965522
 40
0.8275862068965522
 40
0.8275862068965522
 40
0.8275862068965522
 40
0.844827586206897
 40
0.844827586206897
 40
0.844827586206897
 40
0.844827586206897
 40
0.8620689655172419
 40
0.8620689655172419
 40
0.8620689655172419
 40
0.8620689655172419
 40
0.8793103448275867
 40
0.8793103448275867
 40
0.8793103448275867
 40
0.8793103448275867
 40
0.8965517241379316
 40
0.8965517241379316
 40
0.8965517241379316
 40
0.8965517241379316
 40
0.9137931034482765
 40
0.9137931034482765
 40
0.9137931034482765
 40
0.9137931034482765
 40
0.9310344827586213
 40
0.9310344827586213
 40
0.9310344827586213
 40
0.9310344827586213
 40
0.9482758620689662
 40
0.9482758620689662
 40
0.9482758620689662
 40
0.9482758620689662
 40
0.9655172413793111
 40
0.9655172413793111
 40
0.9655172413793111
 40
0.9655172413793111
 40
0.9827586206896559
 40
0.9827586206896559
 40
0.9827586206896559
 40
0.9827586206896559
 40
1.0
 40
1.0
 40
1.0
 40
1.0
 10
-0.1272755905511811
 20
0.2633622047244095
 30
0.0
 10
-0.1272755905511811
 20
0.2633622047244095
 30
0.0
 10
0.516984251968504
 20
0.6452834645669292
 30
0.0
 10
0.516984251968504
 20
0.6452834645669292
 30
0.0
 10
0.516984251968504
 20
0.6452834645669292
 30
0.0
 10
0.516984251968504
 20
0.6452834645669292
 30
0.0
 10
0.5273818897637795
 20
0.6513622047244094
 30
0.0
 10
0.5273818897637795
 20
0.6513622047244094
 30
0.0
 10
0.5273818897637795
 20
0.6513622047244094
 30
0.0
 10
0.5273818897637795
 20
0.6513622047244094
 30
0.0
 10
0.5371574803149607
 20
0.6584055118110237
 30
0.0
 10
0.5371574803149607
 20
0.6584055118110237
 30
0.0
 10
0.5371574803149607
 20
0.6584055118110237
 30
0.0
 10
0.5371574803149607
 20
0.6584055118110237
 30
0.0
 10
0.5462598425196851
 20
0.6663188976377953
 30
0.0
 10
0.5462598425196851
 20
0.6663188976377953
 30
0.0
 10
0.5462598425196851
 20
0.6663188976377953
 30
0.0
 10
0.5462598425196851
 20
0.6663188976377953
 30
0.0
 10
0.5546220472440945
 20
0.6750393700787402
 30
0.0
 10
0.5546220472440945
 20
0.6750393700787402
 30
0.0
 10
0.5546220472440945
 20
0.6750393700787402
 30
0.0
 10
0.5546220472440945
 20
0.6750393700787402
 30
0.0
 10
0.5622047244094488
 20
0.6844645669291339
 30
0.0
 10
0.5622047244094488
 20
0.6844645669291339
 30
0.0
 10
0.5622047244094488
 20
0.6844645669291339
 30
0.0
 10
0.5622047244094488
 20
0.6844645669291339
 30
0.0
 10
0.5689370078740158
 20
0.6945354330708662
 30
0.0
 10
0.5689370078740158
 20
0.6945354330708662
 30
0.0
 10
0.5689370078740158
 20
0.6945354330708662
 30
0.0
 10
0.5689370078740158
 20
0.6945354330708662
 30
0.0
 10
0.5747677165354331
 20
0.7051574803149606
 30
0.0
 10
0.5747677165354331
 20
0.7051574803149606
 30
0.0
 10
0.5747677165354331
 20
0.7051574803149606
 30
0.0
 10
0.5747677165354331
 20
0.7051574803149606
 30
0.0
 10
0.5796338582677165
 20
0.7162598425196851
 30
0.0
 10
0.5796338582677165
 20
0.7162598425196851
 30
0.0
 10
0.5796338582677165
 20
0.7162598425196851
 30
0.0
 10
0.5796338582677165
 20
0.7162598425196851
 30
0.0
 10
0.583488188976378
 20
0.7277519685039371
 30
0.0
 10
0.583488188976378
 20
0.7277519685039371
 30
0.0
 10
0.583488188976378
 20
0.7277519685039371
 30
0.0
 10
0.583488188976378
 20
0.7277519685039371
 30
0.0
 10
0.586263779527559
 20
0.7395629921259843
 30
0.0
 10
0.586263779527559
 20
0.7395629921259843
 30
0.0
 10
0.586263779527559
 20
0.7395629921259843
 30
0.0
 10
0.586263779527559
 20
0.7395629921259843
 30
0.0
 10
0.5879094488188976
 20
0.7516102362204725
 30
0.0
 10
0.5879094488188976
 20
0.7516102362204725
 30
0.0
 10
0.5879094488188976
 20
0.7516102362204725
 30
0.0
 10
0.5879094488188976
 20
0.7516102362204725
 30
0.0
 10
0.5883661417322835
 20
0.7638228346456694
 30
0.0
 10
0.5883661417322835
 20
0.7638228346456694
 30
0.0
 10
0.5883661417322835
 20
0.7638228346456694
 30
0.0
 10
0.5883661417322835
 20
0.7638228346456694
 30
0.0
 10
0.5875905511811024
 20
0.7760984251968505
 30
0.0
 10
0.5875905511811024
 20
0.7760984251968505
 30
0.0
 10
0.5875905511811024
 20
0.7760984251968505
 30
0.0
 10
0.5875905511811024
 20
0.7760984251968505
 30
0.0
 10
0.5855039370078741
 20
0.7883740157480316
 30
0.0
 10
0.5855039370078741
 20
0.7883740157480316
 30
0.0
 10
0.5855039370078741
 20
0.7883740157480316
 30
0.0
 10
0.5855039370078741
 20
0.7883740157480316
 30
0.0
 10
0.5820629921259842
 20
0.8005629921259843
 30
0.0
 10
0.5820629921259842
 20
0.8005629921259843
 30
0.0
 10
0.5820629921259842
 20
0.8005629921259843
 30
0.0
 10
0.5820629921259842
 20
0.8005629921259843
 30
0.0
 10
0.5772007874015749
 20
0.8125944881889764
 30
0.0
 10
0.5772007874015749
 20
0.8125944881889764
 30
0.0
 10
0.5772007874015749
 20
0.8125944881889764
 30
0.0
 10
0.5772007874015749
 20
0.8125944881889764
 30
0.0
 10
0.5708740157480315
 20
0.8243740157480315
 30
0.0
 10
0.5708740157480315
 20
0.8243740157480315
 30
0.0
 10
0.5708740157480315
 20
0.8243740157480315
 30
0.0
 10
0.5708740157480315
 20
0.8243740157480315
 30
0.0
 10
0.5630118110236221
 20
0.8358385826771654
 30
0.0
 10
0.5630118110236221
 20
0.8358385826771654
 30
0.0
 10
0.5630118110236221
 20
0.8358385826771654
 30
0.0
 10
0.5630118110236221
 20
0.8358385826771654
 30
0.0
 10
0.5535669291338583
 20
0.8468937007874016
 30
0.0
 10
0.5535669291338583
 20
0.8468937007874016
 30
0.0
 10
0.5535669291338583
 20
0.8468937007874016
 30
0.0
 10
0.5535669291338583
 20
0.8468937007874016
 30
0.0
 10
0.5424763779527559
 20
0.8574685039370079
 30
0.0
 10
0.5424763779527559
 20
0.8574685039370079
 30
0.0
 10
0.5424763779527559
 20
0.8574685039370079
 30
0.0
 10
0.5424763779527559
 20
0.8574685039370079
 30
0.0
 10
0.5296968503937009
 20
0.867472440944882
 30
0.0
 10
0.5296968503937009
 20
0.867472440944882
 30
0.0
 10
0.5296968503937009
 20
0.867472440944882
 30
0.0
 10
0.5296968503937009
 20
0.867472440944882
 30
0.0
 10
0.5151535433070866
 20
0.8768346456692914
 30
0.0
 10
0.5151535433070866
 20
0.8768346456692914
 30
0.0
 10
0.5151535433070866
 20
0.8768346456692914
 30
0.0
 10
0.5151535433070866
 20
0.8768346456692914
 30
0.0
 10
0.4987992125984252
 20
0.8854685039370079
 30
0.0
 10
0.4987992125984252
 20
0.8854685039370079
 30
0.0
 10
0.4987992125984252
 20
0.8854685039370079
 30
0.0
 10
0.4987992125984252
 20
0.8854685039370079
 30
0.0
 10
0.4805708661417323
 20
0.8933031496062992
 30
0.0
 10
0.4805708661417323
 20
0.8933031496062992
 30
0.0
 10
0.4805708661417323
 20
0.8933031496062992
 30
0.0
 10
0.4805708661417323
 20
0.8933031496062992
 30
0.0
 10
0.4604212598425197
 20
0.900244094488189
 30
0.0
 10
0.4604212598425197
 20
0.900244094488189
 30
0.0
 10
0.4604212598425197
 20
0.900244094488189
 30
0.0
 10
0.4604212598425197
 20
0.900244094488189
 30
0.0
 10
0.4382834645669291
 20
0.906232283464567
 30
0.0
 10
0.4382834645669291
 20
0.906232283464567
 30
0.0
 10
0.4382834645669291
 20
0.906232283464567
 30
0.0
 10
0.4382834645669291
 20
0.906232283464567
 30
0.0
 10
0.4141102362204724
 20
0.9111692913385827
 30
0.0
 10
0.4141102362204724
 20
0.9111692913385827
 30
0.0
 10
0.4141102362204724
 20
0.9111692913385827
 30
0.0
 10
0.4141102362204724
 20
0.9111692913385827
 30
0.0
 10
0.3878346456692914
 20
0.914984251968504
 30
0.0
 10
0.3878346456692914
 20
0.914984251968504
 30
0.0
 10
0.3878346456692914
 20
0.914984251968504
 30
0.0
 10
0.3878346456692914
 20
0.914984251968504
 30
0.0
 10
-0.2564251968503937
 20
0.5330629921259843
 30
0.0
 10
-0.2564251968503937
 20
0.5330629921259843
 30
0.0
 10
-0.2564251968503937
 20
0.5330629921259843
 30
0.0
 10
-0.2564251968503937
 20
0.5330629921259843
 30
0.0
 10
-0.2301496062992126
 20
0.529248031496063
 30
0.0
 10
-0.2301496062992126
 20
0.529248031496063
 30
0.0
 10
-0.2301496062992126
 20
0.529248031496063
 30
0.0
 10
-0.2301496062992126
 20
0.529248031496063
 30
0.0
 10
-0.2059763779527559
 20
0.5243110236220473
 30
0.0
 10
-0.2059763779527559
 20
0.5243110236220473
 30
0.0
 10
-0.2059763779527559
 20
0.5243110236220473
 30
0.0
 10
-0.2059763779527559
 20
0.5243110236220473
 30
0.0
 10
-0.1838385826771654
 20
0.5183228346456693
 30
0.0
 10
-0.1838385826771654
 20
0.5183228346456693
 30
0.0
 10
-0.1838385826771654
 20
0.5183228346456693
 30
0.0
 10
-0.1838385826771654
 20
0.5183228346456693
 30
0.0
 10
-0.1636889763779528
 20
0.5113818897637795
 30
0.0
 10
-0.1636889763779528
 20
0.5113818897637795
 30
0.0
 10
-0.1636889763779528
 20
0.5113818897637795
 30
0.0
 10
-0.1636889763779528
 20
0.5113818897637795
 30
0.0
 10
-0.1454606299212599
 20
0.5035472440944883
 30
0.0
 10
-0.1454606299212599
 20
0.5035472440944883
 30
0.0
 10
-0.1454606299212599
 20
0.5035472440944883
 30
0.0
 10
-0.1454606299212599
 20
0.5035472440944883
 30
0.0
 10
-0.1291062992125984
 20
0.4949133858267717
 30
0.0
 10
-0.1291062992125984
 20
0.4949133858267717
 30
0.0
 10
-0.1291062992125984
 20
0.4949133858267717
 30
0.0
 10
-0.1291062992125984
 20
0.4949133858267717
 30
0.0
 10
-0.1145629921259843
 20
0.4855511811023622
 30
0.0
 10
-0.1145629921259843
 20
0.4855511811023622
 30
0.0
 10
-0.1145629921259843
 20
0.4855511811023622
 30
0.0
 10
-0.1145629921259843
 20
0.4855511811023622
 30
0.0
 10
-0.1017834645669291
 20
0.4755472440944882
 30
0.0
 10
-0.1017834645669291
 20
0.4755472440944882
 30
0.0
 10
-0.1017834645669291
 20
0.4755472440944882
 30
0.0
 10
-0.1017834645669291
 20
0.4755472440944882
 30
0.0
 10
-0.0906929133858268
 20
0.4649724409448819
 30
0.0
 10
-0.0906929133858268
 20
0.4649724409448819
 30
0.0
 10
-0.0906929133858268
 20
0.4649724409448819
 30
0.0
 10
-0.0906929133858268
 20
0.4649724409448819
 30
0.0
 10
-0.081248031496063
 20
0.4539173228346457
 30
0.0
 10
-0.081248031496063
 20
0.4539173228346457
 30
0.0
 10
-0.081248031496063
 20
0.4539173228346457
 30
0.0
 10
-0.081248031496063
 20
0.4539173228346457
 30
0.0
 10
-0.0733858267716535
 20
0.4424527559055118
 30
0.0
 10
-0.0733858267716535
 20
0.4424527559055118
 30
0.0
 10
-0.0733858267716535
 20
0.4424527559055118
 30
0.0
 10
-0.0733858267716535
 20
0.4424527559055118
 30
0.0
 10
-0.0670590551181102
 20
0.4306732283464567
 30
0.0
 10
-0.0670590551181102
 20
0.4306732283464567
 30
0.0
 10
-0.0670590551181102
 20
0.4306732283464567
 30
0.0
 10
-0.0670590551181102
 20
0.4306732283464567
 30
0.0
 10
-0.0621968503937008
 20
0.4186417322834646
 30
0.0
 10
-0.0621968503937008
 20
0.4186417322834646
 30
0.0
 10
-0.0621968503937008
 20
0.4186417322834646
 30
0.0
 10
-0.0621968503937008
 20
0.4186417322834646
 30
0.0
 10
-0.058755905511811
 20
0.4064527559055118
 30
0.0
 10
-0.058755905511811
 20
0.4064527559055118
 30
0.0
 10
-0.058755905511811
 20
0.4064527559055118
 30
0.0
 10
-0.058755905511811
 20
0.4064527559055118
 30
0.0
 10
-0.0566692913385827
 20
0.3941771653543307
 30
0.0
 10
-0.0566692913385827
 20
0.3941771653543307
 30
0.0
 10
-0.0566692913385827
 20
0.3941771653543307
 30
0.0
 10
-0.0566692913385827
 20
0.3941771653543307
 30
0.0
 10
-0.0558937007874016
 20
0.3819015748031496
 30
0.0
 10
-0.0558937007874016
 20
0.3819015748031496
 30
0.0
 10
-0.0558937007874016
 20
0.3819015748031496
 30
0.0
 10
-0.0558937007874016
 20
0.3819015748031496
 30
0.0
 10
-0.0563503937007874
 20
0.3696889763779528
 30
0.0
 10
-0.0563503937007874
 20
0.3696889763779528
 30
0.0
 10
-0.0563503937007874
 20
0.3696889763779528
 30
0.0
 10
-0.0563503937007874
 20
0.3696889763779528
 30
0.0
 10
-0.057996062992126
 20
0.3576417322834646
 30
0.0
 10
-0.057996062992126
 20
0.3576417322834646
 30
0.0
 10
-0.057996062992126
 20
0.3576417322834646
 30
0.0
 10
-0.057996062992126
 20
0.3576417322834646
 30
0.0
 10
-0.0607716535433071
 20
0.3458307086614174
 30
0.0
 10
-0.0607716535433071
 20
0.3458307086614174
 30
0.0
 10
-0.0607716535433071
 20
0.3458307086614174
 30
0.0
 10
-0.0607716535433071
 20
0.3458307086614174
 30
0.0
 10
-0.0646259842519685
 20
0.3343385826771654
 30
0.0
 10
-0.0646259842519685
 20
0.3343385826771654
 30
0.0
 10
-0.0646259842519685
 20
0.3343385826771654
 30
0.0
 10
-0.0646259842519685
 20
0.3343385826771654
 30
0.0
 10
-0.069492125984252
 20
0.3232362204724409
 30
0.0
 10
-0.069492125984252
 20
0.3232362204724409
 30
0.0
 10
-0.069492125984252
 20
0.3232362204724409
 30
0.0
 10
-0.069492125984252
 20
0.3232362204724409
 30
0.0
 10
-0.0753228346456693
 20
0.3126141732283465
 30
0.0
 10
-0.0753228346456693
 20
0.3126141732283465
 30
0.0
 10
-0.0753228346456693
 20
0.3126141732283465
 30
0.0
 10
-0.0753228346456693
 20
0.3126141732283465
 30
0.0
 10
-0.0820551181102362
 20
0.3025433070866142
 30
0.0
 10
-0.0820551181102362
 20
0.3025433070866142
 30
0.0
 10
-0.0820551181102362
 20
0.3025433070866142
 30
0.0
 10
-0.0820551181102362
 20
0.3025433070866142
 30
0.0
 10
-0.0896377952755906
 20
0.2931181102362205
 30
0.0
 10
-0.0896377952755906
 20
0.2931181102362205
 30
0.0
 10
-0.0896377952755906
 20
0.2931181102362205
 30
0.0
 10
-0.0896377952755906
 20
0.2931181102362205
 30
0.0
 10
-0.098
 20
0.2843976377952756
 30
0.0
 10
-0.098
 20
0.2843976377952756
 30
0.0
 10
-0.098
 20
0.2843976377952756
 30
0.0
 10
-0.098
 20
0.2843976377952756
 30
0.0
 10
-0.1071023622047244
 20
0.276484251968504
 30
0.0
 10
-0.1071023622047244
 20
0.276484251968504
 30
0.0
 10
-0.1071023622047244
 20
0.276484251968504
 30
0.0
 10
-0.1071023622047244
 20
0.276484251968504
 30
0.0
 10
-0.1168779527559055
 20
0.2694409448818898
 30
0.0
 10
-0.1168779527559055
 20
0.2694409448818898
 30
0.0
 10
-0.1168779527559055
 20
0.2694409448818898
 30
0.0
 10
-0.1168779527559055
 20
0.2694409448818898
 30
0.0
 10
-0.1272755905511811
 20
0.2633622047244095
 30
0.0
 10
-0.1272755905511811
 20
0.2633622047244095
 30
0.0
  0
SPLINE
  5
8E
100
AcDbEntity
  8
P1-Layer 1
 62
     9
100
AcDbSpline
210
0.0
220
0.0
230
1.0
 70
     1
 71
     3
 72
    20
 73
    16
 74
     0
 42
0.0000000001
 43
0.0000000001
 40
0.0
 40
0.0
 40
0.0
 40
0.0
 40
0.25
 40
0.25
 40
0.25
 40
0.25
 40
0.5
 40
0.5
 40
0.5
 40
0.5
 40
0.75
 40
0.75
 40
0.75
 40
0.75
 40
1.0
 40
1.0
 40
1.0
 40
1.0
 10
-0.2564251968503937
 20
0.5330629921259843
 30
0.0
 10
-0.2564251968503937
 20
0.5330629921259843
 30
0.0
 10
0.3878346456692914
 20
0.914984251968504
 30
0.0
 10
0.3878346456692914
 20
0.914984251968504
 30
0.0
 10
0.3878346456692914
 20
0.914984251968504
 30
0.0
 10
0.3878346456692914
 20
0.914984251968504
 30
0.0
 10
0.3694133858267717
 20
1.0245275590551182
 30
0.0
 10
0.3694133858267717
 20
1.0245275590551182
 30
0.0
 10
0.3694133858267717
 20
1.0245275590551182
 30
0.0
 10
0.3694133858267717
 20
1.0245275590551182
 30
0.0
 10
-0.2748464566929134
 20
0.6426062992125985
 30
0.0
 10
-0.2748464566929134
 20
0.6426062992125985
 30
0.0
 10
-0.2748464566929134
 20
0.6426062992125985
 30
0.0
 10
-0.2748464566929134
 20
0.6426062992125985
 30
0.0
 10
-0.2564251968503937
 20
0.5330629921259843
 30
0.0
 10
-0.2564251968503937
 20
0.5330629921259843
 30
0.0
  0
SPLINE
  5
8F
100
AcDbEntity
  8
P1-Layer 1
370
     5
100
AcDbSpline
210
0.0
220
0.0
230
1.0
 70
     1
 71
     3
 72
    20
 73
    16
 74
     0
 42
0.0000000001
 43
0.0000000001
 40
0.0
 40
0.0
 40
0.0
 40
0.0
 40
0.25
 40
0.25
 40
0.25
 40
0.25
 40
0.5
 40
0.5
 40
0.5
 40
0.5
 40
0.75
 40
0.75
 40
0.75
 40
0.75
 40
1.0
 40
1.0
 40
1.0
 40
1.0
 10
-0.2564251968503937
 20
0.5330629921259843
 30
0.0
 10
-0.2564251968503937
 20
0.5330629921259843
 30
0.0
 10
0.3878346456692914
 20
0.914984251968504
 30
0.0
 10
0.3878346456692914
 20
0.914984251968504
 30
0.0
 10
0.3878346456692914
 20
0.914984251968504
 30
0.0
 10
0.3878346456692914
 20
0.914984251968504
 30
0.0
 10
0.3694133858267717
 20
1.0245275590551182
 30
0.0
 10
0.3694133858267717
 20
1.0245275590551182
 30
0.0
 10
0.3694133858267717
 20
1.0245275590551182
 30
0.0
 10
0.3694133858267717
 20
1.0245275590551182
 30
0.0
 10
-0.2748464566929134
 20
0.6426062992125985
 30
0.0
 10
-0.2748464566929134
 20
0.6426062992125985
 30
0.0
 10
-0.2748464566929134
 20
0.6426062992125985
 30
0.0
 10
-0.2748464566929134
 20
0.6426062992125985
 30
0.0
 10
-0.2564251968503937
 20
0.5330629921259843
 30
0.0
 10
-0.2564251968503937
 20
0.5330629921259843
 30
0.0
  0
SPLINE
  5
90
100
AcDbEntity
  8
P1-Layer 1
 62
   252
100
AcDbSpline
210
0.0
220
0.0
230
1.0
 70
     1
 71
     3
 72
    20
 73
    16
 74
     0
 42
0.0000000001
 43
0.0000000001
 40
0.0
 40
0.0
 40
0.0
 40
0.0
 40
0.25
 40
0.25
 40
0.25
 40
0.25
 40
0.5
 40
0.5
 40
0.5
 40
0.5
 40
0.75
 40
0.75
 40
0.75
 40
0.75
 40
1.0
 40
1.0
 40
1.0
 40
1.0
 10
-0.2748464566929134
 20
0.6426062992125985
 30
0.0
 10
-0.2748464566929134
 20
0.6426062992125985
 30
0.0
 10
0.3694133858267717
 20
1.0245275590551182
 30
0.0
 10
0.3694133858267717
 20
1.0245275590551182
 30
0.0
 10
0.3694133858267717
 20
1.0245275590551182
 30
0.0
 10
0.3694133858267717
 20
1.0245275590551182
 30
0.0
 10
0.2029527559055118
 20
1.0245275590551182
 30
0.0
 10
0.2029527559055118
 20
1.0245275590551182
 30
0.0
 10
0.2029527559055118
 20
1.0245275590551182
 30
0.0
 10
0.2029527559055118
 20
1.0245275590551182
 30
0.0
 10
-0.4413070866141732
 20
0.6426062992125985
 30
0.0
 10
-0.4413070866141732
 20
0.6426062992125985
 30
0.0
 10
-0.4413070866141732
 20
0.6426062992125985
 30
0.0
 10
-0.4413070866141732
 20
0.6426062992125985
 30
0.0
 10
-0.2748464566929134
 20
0.6426062992125985
 30
0.0
 10
-0.2748464566929134
 20
0.6426062992125985
 30
0.0
  0
SPLINE
  5
91
100
AcDbEntity
  8
P1-Layer 1
370
     5
100
AcDbSpline
210
0.0
220
0.0
230
1.0
 70
     1
 71
     3
 72
    20
 73
    16
 74
     0
 42
0.0000000001
 43
0.0000000001
 40
0.0
 40
0.0
 40
0.0
 40
0.0
 40
0.25
 40
0.25
 40
0.25
 40
0.25
 40
0.5
 40
0.5
 40
0.5
 40
0.5
 40
0.75
 40
0.75
 40
0.75
 40
0.75
 40
1.0
 40
1.0
 40
1.0
 40
1.0
 10
-0.2748464566929134
 20
0.6426062992125985
 30
0.0
 10
-0.2748464566929134
 20
0.6426062992125985
 30
0.0
 10
0.3694133858267717
 20
1.0245275590551182
 30
0.0
 10
0.3694133858267717
 20
1.0245275590551182
 30
0.0
 10
0.3694133858267717
 20
1.0245275590551182
 30
0.0
 10
0.3694133858267717
 20
1.0245275590551182
 30
0.0
 10
0.2029527559055118
 20
1.0245275590551182
 30
0.0
 10
0.2029527559055118
 20
1.0245275590551182
 30
0.0
 10
0.2029527559055118
 20
1.0245275590551182
 30
0.0
 10
0.2029527559055118
 20
1.0245275590551182
 30
0.0
 10
-0.4413070866141732
 20
0.6426062992125985
 30
0.0
 10
-0.4413070866141732
 20
0.6426062992125985
 30
0.0
 10
-0.4413070866141732
 20
0.6426062992125985
 30
0.0
 10
-0.4413070866141732
 20
0.6426062992125985
 30
0.0
 10
-0.2748464566929134
 20
0.6426062992125985
 30
0.0
 10
-0.2748464566929134
 20
0.6426062992125985
 30
0.0
  0
SPLINE
  5
92
100
AcDbEntity
  8
P1-Layer 1
370
     5
 62
     7
100
AcDbSpline
210
0.0
220
0.0
230
1.0
 70
     1
 71
     3
 72
    36
 73
    32
 74
     0
 42
0.0000000001
 43
0.0000000001
 40
0.0
 40
0.0
 40
0.0
 40
0.0
 40
0.125
 40
0.125
 40
0.125
 40
0.125
 40
0.25
 40
0.25
 40
0.25
 40
0.25
 40
0.375
 40
0.375
 40
0.375
 40
0.375
 40
0.5
 40
0.5
 40
0.5
 40
0.5
 40
0.625
 40
0.625
 40
0.625
 40
0.625
 40
0.75
 40
0.75
 40
0.75
 40
0.75
 40
0.875
 40
0.875
 40
0.875
 40
0.875
 40
1.0
 40
1.0
 40
1.0
 40
1.0
 10
-0.4413070866141732
 20
0.6426062992125985
 30
0.0
 10
-0.4413070866141732
 20
0.6426062992125985
 30
0.0
 10
-0.4413070866141732
 20
-0.8573937007874016
 30
0.0
 10
-0.4413070866141732
 20
-0.8573937007874016
 30
0.0
 10
-0.4413070866141732
 20
-0.8573937007874016
 30
0.0
 10
-0.4413070866141732
 20
-0.8573937007874016
 30
0.0
 10
0.1024133858267717
 20
-0.8573937007874016
 30
0.0
 10
0.1024133858267717
 20
-0.8573937007874016
 30
0.0
 10
0.1024133858267717
 20
-0.8573937007874016
 30
0.0
 10
0.1024133858267717
 20
-0.8573937007874016
 30
0.0
 10
0.1035196850393701
 20
-0.7788188976377953
 30
0.0
 10
0.1035196850393701
 20
-0.7788188976377953
 30
0.0
 10
0.1035196850393701
 20
-0.7788188976377953
 30
0.0
 10
0.342988188976378
 20
-0.7692519685039371
 30
0.0
 10
0.4076141732283465
 20
-0.4875984251968504
 30
0.0
 10
0.1076850393700787
 20
-0.2802992125984252
 30
0.0
 10
0.1076850393700787
 20
-0.2802992125984252
 30
0.0
 10
-0.192244094488189
 20
-0.072996062992126
 30
0.0
 10
-0.1765511811023622
 20
0.1383425196850394
 30
0.0
 10
-0.1739212598425197
 20
0.2502007874015748
 30
0.0
 10
-0.1739212598425197
 20
0.2502007874015748
 30
0.0
 10
-0.0407952755905512
 20
0.2586338582677166
 30
0.0
 10
0.0351850393700787
 20
0.4986889763779528
 30
0.0
 10
-0.2564251968503937
 20
0.5330629921259843
 30
0.0
 10
-0.2564251968503937
 20
0.5330629921259843
 30
0.0
 10
-0.2564251968503937
 20
0.5330629921259843
 30
0.0
 10
-0.2748464566929134
 20
0.6426062992125985
 30
0.0
 10
-0.2748464566929134
 20
0.6426062992125985
 30
0.0
 10
-0.2748464566929134
 20
0.6426062992125985
 30
0.0
 10
-0.2748464566929134
 20
0.6426062992125985
 30
0.0
 10
-0.4413070866141732
 20
0.6426062992125985
 30
0.0
 10
-0.4413070866141732
 20
0.6426062992125985
 30
0.0
  0
TEXT
  5
93
100
AcDbEntity
  8
P1-Layer 1
100
AcDbText
 10
-0.119531
 20
-1.037539
 30
0.0
 40
0.119999
  1
BA  1498
 51
-0.000002
  7
Bookman Old Style
100
AcDbText
  0
TEXT
  5
94
100
AcDbEntity
  8
P1-Layer 1
100
AcDbText
 10
-0.299543
 20
-1.225039
 30
0.0
 40
0.119999
  1
3/4\u+201d x 1-1/2\u+201d
 51
-0.000002
  7
Bookman Old Style
100
AcDbText
  0
ENDSEC
  0
SECTION
  2
OBJECTS
  0
DICTIONARY
  5
19
100
AcDbDictionary
280
     0
281
     1
  3
ACAD_GROUP
350
1A
  3
ACAD_MLINESTYLE
350
1B
  3
ACAD_LAYOUT
350
1E
  3
ACAD_PLOTSETTINGS
350
22
  3
ACAD_PLOTSTYLENAME
350
1F
  3
ACAD_WIPEOUT_VARS
350
23
  0
DICTIONARY
  5
1A
102
{ACAD_REACTORS
330
19
102
}
100
AcDbDictionary
280
     0
281
     1
  0
DICTIONARY
  5
1B
102
{ACAD_REACTORS
330
19
102
}
100
AcDbDictionary
280
     0
281
     1
  3
Standard
350
1C
  0
MLINESTYLE
  5
1C
102
{ACAD_REACTORS
330
1B
102
}
100
AcDbMlineStyle
  2
Standard
 70
     0
  3

 62
     0
 51
90.0
 52
90.0
 71
     2
 49
0.5
 62
   256
  6
BYLAYER
 49
-0.5
 62
   256
  6
BYLAYER
  0
ACDBDICTIONARYWDFLT
  5
1F
102
{ACAD_REACTORS
330
19
102
}
100
AcDbDictionary
281
     1
  3
Normal
350
1D
100
AcDbDictionaryWithDefault
340
1D
  0
ACDBPLACEHOLDER
  5
1D
102
{ACAD_REACTORS
330
1F
102
}
  0
LAYOUT
  5
20
102
{ACAD_REACTORS
330
1E
102
}
100
AcDbPlotSettings
  1

  2

  4

  6

 40
0.0
 41
0.0
 42
0.0
 43
0.0
 44
0.0
 45
0.0
 46
0.0
 47
0.0
 48
0.0
 49
0.0
140
0.0
141
0.0
142
1.0
143
1.0
 70
  1024
 72
     0
 73
     0
 74
     0
  7

 75
     0
147
1.0
148
0.0
149
0.0
100
AcDbLayout
  1
Model
 70
     0
 71
     0
 10
0.0
 20
0.0
 11
0.0
 21
0.0
 12
0.0
 22
0.0
 32
0.0
 14
0.0
 24
0.0
 34
0.0
 15
0.0
 25
0.0
 35
0.0
146
0.0
 13
0.0
 23
0.0
 33
0.0
 16
0.0
 26
0.0
 36
0.0
 17
0.0
 27
0.0
 37
0.0
 76
     0
330
A
331
0
345
0
346
0
  0
LAYOUT
  5
21
102
{ACAD_REACTORS
330
1E
102
}
100
AcDbPlotSettings
  1

  2

  4

  6

 40
0.0
 41
0.0
 42
0.0
 43
0.0
 44
0.0
 45
0.0
 46
0.0
 47
0.0
 48
0.0
 49
0.0
140
0.0
141
0.0
142
1.0
143
1.0
 70
     0
 72
     0
 73
     0
 74
     0
  7

 75
     0
147
1.0
148
0.0
149
0.0
100
AcDbLayout
  1
Layout1
 70
     0
 71
     0
 10
0.0
 20
0.0
 11
0.0
 21
0.0
 12
0.0
 22
0.0
 32
0.0
 14
0.0
 24
0.0
 34
0.0
 15
0.0
 25
0.0
 35
0.0
146
0.0
 13
0.0
 23
0.0
 33
0.0
 16
0.0
 26
0.0
 36
0.0
 17
0.0
 27
0.0
 37
0.0
 76
     0
330
B
331
0
345
0
346
0
  0
DICTIONARY
  5
1E
102
{ACAD_REACTORS
330
19
102
}
100
AcDbDictionary
280
     0
281
     1
  3
Layout1
350
21
  3
Model
350
20
  0
DICTIONARY
  5
22
102
{ACAD_REACTORS
330
19
102
}
100
AcDbDictionary
280
     0
281
     1
  0
WIPEOUTVARIABLES
  5
23
100
AcDbWipeoutVariables
 70
     1
  0
ENDSEC
  0
EOF
