  0
SECTION
  2
HEADER
  9
$ACADVER
  1
AC1015
  9
$ACADMAINTVER
 70
     6
  9
$DWGCODEPAGE
  3
DOS850
  9
$INSBASE
 10
0.0
 20
0.0
 30
0.0
  9
$EXTMIN
 10
1.000000E+20
 20
1.000000E+20
 30
1.000000E+20
  9
$EXTMAX
 10
-1.000000E+20
 20
-1.000000E+20
 30
-1.000000E+20
  9
$LIMMIN
 10
0.0
 20
0.0
  9
$LIMMAX
 10
0.0
 20
0.0
  9
$ORTHOMODE
 70
     0
  9
$REGENMODE
 70
     1
  9
$FILLMODE
 70
     1
  9
$QTEXTMODE
 70
     0
  9
$MIRRTEXT
 70
     1
  9
$LTSCALE
 40
1.0
  9
$ATTMODE
 70
     1
  9
$TEXTSIZE
 40
0.2
  9
$TRACEWID
 40
0.05
  9
$TEXTSTYLE
  7
Standard
  9
$CLAYER
  8
0
  9
$CELTYPE
  6
Continuous
  9
$CECOLOR
 62
   256
  9
$CELTSCALE
 40
1.0
  9
$DISPSILH
 70
     0
  9
$DIMSCALE
 40
1.0
  9
$DIMASZ
 40
0.18
  9
$DIMEXO
 40
0.0625
  9
$DIMDLI
 40
0.38
  9
$DIMRND
 40
0.0
  9
$DIMDLE
 40
0.0
  9
$DIMEXE
 40
0.18
  9
$DIMTP
 40
0.0
  9
$DIMTM
 40
0.0
  9
$DIMTXT
 40
0.18
  9
$DIMCEN
 40
0.09
  9
$DIMTSZ
 40
0.0
  9
$DIMTOL
 70
     0
  9
$DIMLIM
 70
     0
  9
$DIMTIH
 70
     1
  9
$DIMTOH
 70
     1
  9
$DIMSE1
 70
     0
  9
$DIMSE2
 70
     0
  9
$DIMTAD
 70
     0
  9
$DIMZIN
 70
     0
  9
$DIMBLK
  1

  9
$DIMASO
 70
     1
  9
$DIMSHO
 70
     1
  9
$DIMPOST
  1

  9
$DIMAPOST
  1

  9
$DIMALT
 70
     0
  9
$DIMALTD
 70
     2
  9
$DIMALTF
 40
25.4
  9
$DIMLFAC
 40
1.0
  9
$DIMTOFL
 70
     0
  9
$DIMTVP
 40
0.0
  9
$DIMTIX
 70
     0
  9
$DIMSOXD
 70
     0
  9
$DIMSAH
 70
     0
  9
$DIMBLK1
  1

  9
$DIMBLK2
  1

  9
$DIMSTYLE
  2
Standard
  9
$DIMCLRD
 70
     0
  9
$DIMCLRE
 70
     0
  9
$DIMCLRT
 70
     0
  9
$DIMTFAC
 40
1.0
  9
$DIMGAP
 40
0.09
  9
$DIMJUST
 70
     0
  9
$DIMSD1
 70
     0
  9
$DIMSD2
 70
     0
  9
$DIMTOLJ
 70
     1
  9
$DIMTZIN
 70
     0
  9
$DIMALTZ
 70
     0
  9
$DIMALTTZ
 70
     0
  9
$DIMUPT
 70
     0
  9
$DIMDEC
 70
     4
  9
$DIMTDEC
 70
     4
  9
$DIMALTU
 70
     2
  9
$DIMALTTD
 70
     2
  9
$DIMTXSTY
  7
Standard
  9
$DIMAUNIT
 70
     0
  9
$DIMADEC
 70
     0
  9
$DIMALTRND
 40
0.0
  9
$DIMAZIN
 70
     0
  9
$DIMDSEP
 70
     0
  9
$DIMATFIT
 70
     3
  9
$DIMFRAC
 70
     0
  9
$DIMLDRBLK
  1

  9
$DIMLUNIT
 70
     2
  9
$DIMLWD
 70
     0
  9
$DIMLWE
 70
     0
  9
$DIMTMOVE
 70
     0
  9
$LUNITS
 70
     2
  9
$LUPREC
 70
     4
  9
$SKETCHINC
 40
0.1
  9
$FILLETRAD
 40
0.0
  9
$AUNITS
 70
     0
  9
$AUPREC
 70
     0
  9
$MENU
  1
acad
  9
$ELEVATION
 40
0.0
  9
$PELEVATION
 40
0.0
  9
$THICKNESS
 40
0.0
  9
$LIMCHECK
 70
     0
  9
$CHAMFERA
 40
0.0
  9
$CHAMFERB
 40
0.0
  9
$CHAMFERC
 40
0.0
  9
$CHAMFERD
 40
0.0
  9
$SKPOLY
 70
     0
  9
$TDCREATE
 40
0.000000000
  9
$TDUCREATE
 40
0.000000000
  9
$TDUPDATE
 40
0.000000000
  9
$TDUUPDATE
 40
0.000000000
  9
$TDINDWG
 40
0.0000000000
  9
$TDUSRTIMER
 40
0.0000000000
  9
$USRTIMER
 70
     1
  9
$ANGBASE
 50
0.0
  9
$ANGDIR
 70
     0
  9
$PDMODE
 70
     0
  9
$PDSIZE
 40
0.0
  9
$PLINEWID
 40
0.0
  9
$SPLFRAME
 70
     0
  9
$SPLINETYPE
 70
     6
  9
$SPLINESEGS
 70
     8
  9
$HANDSEED
  5
4BA
  9
$SURFTAB1
 70
     6
  9
$SURFTAB2
 70
     6
  9
$SURFTYPE
 70
     6
  9
$SURFU
 70
     6
  9
$SURFV
 70
     6
  9
$UCSBASE
  2

  9
$UCSNAME
  2

  9
$UCSORG
 10
0.0
 20
0.0
 30
0.0
  9
$UCSXDIR
 10
1.0
 20
0.0
 30
0.0
  9
$UCSYDIR
 10
0.0
 20
1.0
 30
0.0
  9
$UCSORTHOREF
  2

  9
$UCSORTHOVIEW
 70
     0
  9
$UCSORGTOP
 10
0.0
 20
0.0
 30
0.0
  9
$UCSORGBOTTOM
 10
0.0
 20
0.0
 30
0.0
  9
$UCSORGLEFT
 10
0.0
 20
0.0
 30
0.0
  9
$UCSORGRIGHT
 10
0.0
 20
0.0
 30
0.0
  9
$UCSORGFRONT
 10
0.0
 20
0.0
 30
0.0
  9
$UCSORGBACK
 10
0.0
 20
0.0
 30
0.0
  9
$PUCSBASE
  2

  9
$PUCSNAME
  2

  9
$PUCSORG
 10
0.0
 20
0.0
 30
0.0
  9
$PUCSXDIR
 10
1.0
 20
0.0
 30
0.0
  9
$PUCSYDIR
 10
0.0
 20
1.0
 30
0.0
  9
$PUCSORTHOREF
  2

  9
$PUCSORTHOVIEW
 70
     0
  9
$PUCSORGTOP
 10
0.0
 20
0.0
 30
0.0
  9
$PUCSORGBOTTOM
 10
0.0
 20
0.0
 30
0.0
  9
$PUCSORGLEFT
 10
0.0
 20
0.0
 30
0.0
  9
$PUCSORGRIGHT
 10
0.0
 20
0.0
 30
0.0
  9
$PUCSORGFRONT
 10
0.0
 20
0.0
 30
0.0
  9
$PUCSORGBACK
 10
0.0
 20
0.0
 30
0.0
  9
$USERI1
 70
     0
  9
$USERI2
 70
     0
  9
$USERI3
 70
     0
  9
$USERI4
 70
     0
  9
$USERI5
 70
     0
  9
$USERR1
 40
0.0
  9
$USERR2
 40
0.0
  9
$USERR3
 40
0.0
  9
$USERR4
 40
0.0
  9
$USERR5
 40
0.0
  9
$WORLDVIEW
 70
     1
  9
$SHADEDGE
 70
     3
  9
$SHADEDIF
 70
    70
  9
$TILEMODE
 70
     1
  9
$MAXACTVP
 70
    16
  9
$PINSBASE
 10
0.0
 20
0.0
 30
0.0
  9
$PLIMCHECK
 70
     0
  9
$PEXTMIN
 10
1.000000E+20
 20
1.000000E+20
 30
1.000000E+20
  9
$PEXTMAX
 10
-1.000000E+20
 20
-1.000000E+20
 30
-1.000000E+20
  9
$PLIMMIN
 10
0.0
 20
0.0
  9
$PLIMMAX
 10
12.0
 20
9.0
  9
$UNITMODE
 70
     0
  9
$VISRETAIN
 70
     0
  9
$PLINEGEN
 70
     1
  9
$PSLTSCALE
 70
     0
  9
$TREEDEPTH
 70
  3020
  9
$CMLSTYLE
  2
Standard
  9
$CMLJUST
 70
     0
  9
$CMLSCALE
 40
1.0
  9
$PROXYGRAPHICS
 70
     0
  9
$MEASUREMENT
 70
     0
  9
$CELWEIGHT
370
     0
  9
$ENDCAPS
280
     0
  9
$JOINSTYLE
280
     0
  9
$LWDISPLAY
290
     0
  9
$INSUNITS
 70
     0
  9
$HYPERLINKBASE
  1

  9
$XEDIT
290
     1
  9
$CEPSNTYPE
380
     0
  9
$PSTYLEMODE
290
     1
  9
$FINGERPRINTGUID
  2

  9
$VERSIONGUID
  2

  9
$EXTNAMES
290
     1
  9
$PSVPSCALE
 40
0.0
  0
ENDSEC
  0
SECTION
  2
CLASSES
  0
CLASS
  1
LWPOLYLINE
  2
AcDbPolyline
  3
AutoCAD 2000
 90
        0
280
     0
281
     1
  0
CLASS
  1
IMAGE
  2
AcDbRasterImage
  3
ISM
 90
    32895
280
     0
281
     1
  0
CLASS
  1
OLE2FRAME
  2
AcDbOle2Frame
  3
AutoCAD 2000
 90
    32768
280
     0
281
     1
  0
CLASS
  1
HATCH
  2
AcDbHatch
  3
AutoCAD 2000
 90
    32768
280
     0
281
     1
  0
CLASS
  1
DICTIONARYVAR
  2
AcDbDictionaryVar
  3
AutoCAD 2000
 90
    32768
280
     0
281
     0
  0
CLASS
  1
RASTERVARIABLES
  2
AcDbRasterVariables
  3
ISM
 90
    32768
280
     0
281
     0
  0
CLASS
  1
IMAGEDEF
  2
AcDbRasterImageDef
  3
ISM
 90
    32768
280
     0
281
     0
  0
CLASS
  1
IMAGEDEF_REACTOR
  2
AcDbRasterImageDefReactor
  3
ISM
 90
    32769
280
     0
281
     0
  0
CLASS
  1
IDBUFFER
  2
AcDbIdBuffer
  3
AutoCAD 2000
 90
    32768
280
     0
281
     0
  0
CLASS
  1
SPATIAL_FILTER
  2
AcDbSpatialFilter
  3
AutoCAD 2000
 90
    32768
280
     0
281
     0
  0
CLASS
  1
XRECORD
  2
AcDbXrecord
  3
AutoCAD 2000
 90
    32768
280
     0
281
     0
  0
CLASS
  1
SORTENTSTABLE
  2
AcDbSortentsTable
  3
AutoCAD 2000
 90
    32768
280
     0
281
     0
  0
CLASS
  1
LAYER_INDEX
  2
AcDbLayerIndex
  3
AutoCAD 2000
 90
    32768
280
     0
281
     0
  0
CLASS
  1
SPATIAL_INDEX
  2
AcDbSpatialIndex
  3
AutoCAD 2000
 90
    32768
280
     0
281
     0
  0
CLASS
  1
OBJECT_PTR
  2
CAseDLPNTableRecord
  3
"ASE-LPNTableRecord"
 90
    32769
280
     0
281
     0
  0
CLASS
  1
LAYOUT
  2
AcDbLayout
  3
AutoCAD 2000
 90
        0
280
     0
281
     0
  0
CLASS
  1
PLOTSETTINGS
  2
AcDbPlotSettings
  3
AutoCAD 2000
 90
    32768
280
     0
281
     0
  0
CLASS
  1
ACDBDICTIONARYWDFLT
  2
AcDbDictionaryWithDefault
  3
AutoCAD 2000
 90
        0
280
     0
281
     0
  0
CLASS
  1
ACDBPLACEHOLDER
  2
AcDbPlaceHolder
  3
AutoCAD 2000
 90
        0
280
     0
281
     0
  0
CLASS
  1
VBA_PROJECT
  2
AcDbVbaProject
  3
acadvba
 90
    32768
280
     0
281
     0
  0
CLASS
  1
WIPEOUT
  2
AcDbWipeout
  3
WipeOut|AutoCAD Express Tool|expresstools@autodesk.com
 90
    32895
280
     0
281
     1
  0
CLASS
  1
WIPEOUTVARIABLES
  2
AcDbWipeoutVariables
  3
WipeOut|AutoCAD Express Tool|expresstools@autodesk.com
 90
        0
280
     0
281
     0
  0
CLASS
  1
RTEXT
  2
RText
  3
RText|AutoCAD Express Tool|expresstools@autodesk.com
 90
    32768
280
     0
281
     1
  0
CLASS
  1
ARCALIGNEDTEXT
  2
AcDbArcAlignedText
  3
ATEXT|AutoCAD Express Tool|expresstools@autodesk.com
 90
    32768
280
     0
281
     1
  0
ENDSEC
  0
SECTION
  2
TABLES
  0
TABLE
  2
VPORT
  5
7
100
AcDbSymbolTable
 70
     1
  0
VPORT
  5
15
100
AcDbSymbolTableRecord
100
AcDbViewportTableRecord
  2
*ACTIVE
 70
     0
 10
0.0
 20
0.0
 11
1.0
 21
1.0
 12
6.591288
 22
4.579184
 13
0.0
 23
0.0
 14
1.0
 24
1.0
 15
0.0
 25
0.0
 16
0.0
 26
0.0
 36
1.0
 17
0.0
 27
0.0
 37
0.0
 40
9.158369
 41
0.688564
 42
50.0
 43
0.0
 44
0.0
 50
0.0
 51
0.0
 71
     0
 72
   100
 73
     1
 74
     1
 75
     0
 76
     0
 77
     0
 78
     0
281
     0
 65
     0
110
0.0
120
0.0
130
0.0
111
1.0
121
0.0
131
0.0
112
0.0
122
1.0
132
0.0
345
0
346
0
 79
     0
146
0.0
  0
ENDTAB
  0
TABLE
  2
LTYPE
  5
4
100
AcDbSymbolTable
 70
     3
  0
LTYPE
  5
11
100
AcDbSymbolTableRecord
100
AcDbLinetypeTableRecord
  2
ByBlock
 70
    64
  3

 72
    65
 73
     0
 40
0.0
  0
LTYPE
  5
12
100
AcDbSymbolTableRecord
100
AcDbLinetypeTableRecord
  2
ByLayer
 70
    64
  3

 72
    65
 73
     0
 40
0.0
  0
LTYPE
  5
13
100
AcDbSymbolTableRecord
100
AcDbLinetypeTableRecord
  2
Continuous
 70
    64
  3
Solid line
 72
    65
 73
     0
 40
0.0
  0
ENDTAB
  0
TABLE
  2
LAYER
  5
2
100
AcDbSymbolTable
 70
     1
  0
LAYER
  5
14
100
AcDbSymbolTableRecord
100
AcDbLayerTableRecord
  2
0
 70
     0
 62
     7
  6
Continuous
290
     1
370
    -3
390
1D
  0
ENDTAB
  0
TABLE
  2
STYLE
  5
3
100
AcDbSymbolTable
 70
     1
  0
STYLE
  5
17
100
AcDbSymbolTableRecord
100
AcDbTextStyleTableRecord
  2
Standard
 70
     0
 40
0.0
 41
1.0
 50
0.0
 71
     0
 42
0.0
  3
txt
  4

  0
ENDTAB
  0
TABLE
  2
VIEW
  5
5
100
AcDbSymbolTable
 70
     0
  0
ENDTAB
  0
TABLE
  2
UCS
  5
6
100
AcDbSymbolTable
 70
     0
  0
ENDTAB
  0
TABLE
  2
APPID
  5
8
100
AcDbSymbolTable
 70
     1
  0
APPID
  5
16
100
AcDbSymbolTableRecord
100
AcDbRegAppTableRecord
  2
ACAD
 70
     0
  0
ENDTAB
  0
TABLE
  2
DIMSTYLE
  5
9
100
AcDbSymbolTable
 70
     1
100
AcDbDimStyleTable
 71
     0
  0
DIMSTYLE
105
18
100
AcDbSymbolTableRecord
100
AcDbDimStyleTableRecord
  2
Standard
 70
     0
  3

  4

 40
1.0
 41
0.18
 42
0.0625
 43
0.38
 44
0.18
 45
0.0
 46
0.0
 47
0.0
 48
0.0
 71
     0
 72
     0
 73
     1
 74
     1
 75
     0
 76
     0
 77
     0
 78
     0
 79
     0
140
0.18
141
0.09
142
0.0
143
25.4
144
1.0
145
0.0
146
1.0
147
0.09
148
0.0
170
     0
171
     2
172
     0
173
     0
174
     0
175
     0
176
     0
177
     0
178
     0
179
     0
271
     4
272
     4
273
     2
274
     2
275
     0
276
     0
277
     2
278
    46
279
     0
280
     0
281
     0
282
     0
283
     1
284
     0
285
     0
286
     0
288
     0
340
17
341
0
342
0
343
0
344
0
371
    -2
372
    -2
  0
ENDTAB
  0
TABLE
  2
BLOCK_RECORD
  5
1
100
AcDbSymbolTable
 70
     0
  0
BLOCK_RECORD
  5
A
100
AcDbSymbolTableRecord
100
AcDbBlockTableRecord
  2
*MODEL_SPACE
340
20
  0
BLOCK_RECORD
  5
B
100
AcDbSymbolTableRecord
100
AcDbBlockTableRecord
  2
*PAPER_SPACE
340
21
  0
ENDTAB
  0
ENDSEC
  0
SECTION
  2
BLOCKS
  0
BLOCK
  5
D
100
AcDbEntity
  8
0
100
AcDbBlockBegin
  2
*MODEL_SPACE
 70
     0
 10
0.0
 20
0.0
 30
0.0
  3
*MODEL_SPACE
  1

  0
ENDBLK
  5
E
100
AcDbEntity
  8
0
100
AcDbBlockEnd
  0
BLOCK
  5
F
100
AcDbEntity
 67
     1
  8
0
100
AcDbBlockBegin
  2
*PAPER_SPACE
 70
     0
 10
0.0
 20
0.0
 30
0.0
  3
*PAPER_SPACE
  1

  0
ENDBLK
  5
10
100
AcDbEntity
 67
     1
  8
0
100
AcDbBlockEnd
  0
ENDSEC
  0
SECTION
  2
ENTITIES
  0
LWPOLYLINE
  5
24
100
AcDbEntity
  8
0
 62
     0
100
AcDbPolyline
 90
        2
 70
     0
 39
0.003
 10
-1.020122
 20
2.640941
 40
0.003
 41
0.003
 10
-0.880657
 20
2.640941
 40
0.003
 41
0.003
  0
SPLINE
  5
25
100
AcDbEntity
  8
0
 62
     0
100
AcDbSpline
210
0.0
220
0.0
230
1.0
 70
     0
 71
     3
 72
     0
 73
     0
 74
    32
 44
0.0000000001
 11
-0.8806574803149606
 21
2.6409409448818897
 31
0.0
 11
-0.8729330708661417
 21
2.693767716535433
 31
0.0
 11
-0.8591496062992126
 21
2.7392519685039369
 31
0.0
 11
-0.8401574803149606
 21
2.7775314960629922
 31
0.0
 11
-0.8168346456692913
 21
2.8087677165354332
 31
0.0
 11
-0.79001968503937
 21
2.8331023622047242
 31
0.0
 11
-0.7605944881889764
 21
2.8506968503937009
 31
0.0
 11
-0.7294094488188977
 21
2.8616929133858267
 31
0.0
 11
-0.6973346456692914
 21
2.8662559055118111
 31
0.0
 11
-0.6652204724409448
 21
2.8645196850393702
 31
0.0
 11
-0.6339409448818898
 21
2.8566535433070865
 31
0.0
 11
-0.6043543307086614
 21
2.842795275590551
 31
0.0
 11
-0.5773228346456693
 21
2.8231102362204723
 31
0.0
 11
-0.5537007874015748
 21
2.7977362204724407
 31
0.0
 11
-0.5343661417322835
 21
2.7668385826771655
 31
0.0
 11
-0.5201692913385827
 21
2.73055905511811
 31
0.0
 11
-0.5119763779527559
 21
2.689055118110236
 31
0.0
 11
-0.4441811023622047
 21
2.6906850393700785
 31
0.0
 11
-0.3843858267716536
 21
2.6963543307086613
 31
0.0
 11
-0.3320826771653543
 21
2.7056259842519683
 31
0.0
 11
-0.2867913385826772
 21
2.7180944881889766
 31
0.0
 11
-0.248003937007874
 21
2.7333188976377953
 31
0.0
 11
-0.215240157480315
 21
2.7508818897637797
 31
0.0
 11
-0.187992125984252
 21
2.7703582677165355
 31
0.0
 11
-0.1657834645669291
 21
2.7913307086614174
 31
0.0
 11
-0.1481023622047244
 21
2.8133582677165356
 31
0.0
 11
-0.1344724409448819
 21
2.8360314960629922
 31
0.0
 11
-0.1243858267716535
 21
2.8589212598425195
 31
0.0
 11
-0.1173661417322835
 21
2.8816102362204723
 31
0.0
 11
-0.1128976377952756
 21
2.9036574803149606
 31
0.0
 11
-0.110507874015748
 21
2.9246535433070866
 31
0.0
 11
-0.1096929133858268
 21
2.9441692913385826
 31
0.0
  0
LWPOLYLINE
  5
26
100
AcDbEntity
  8
0
 62
     0
100
AcDbPolyline
 90
        2
 70
     0
 39
0.003
 10
-0.109693
 20
2.944169
 40
0.003
 41
0.003
 10
-0.109965
 20
2.961783
 40
0.003
 41
0.003
  0
LWPOLYLINE
  5
27
100
AcDbEntity
  8
0
 62
     0
100
AcDbPolyline
 90
        2
 70
     0
 39
0.003
 10
-0.109965
 20
2.961783
 40
0.003
 41
0.003
 10
0.102614
 20
2.961783
 40
0.003
 41
0.003
  0
SPLINE
  5
28
100
AcDbEntity
  8
0
 62
     0
100
AcDbSpline
210
0.0
220
0.0
230
1.0
 70
     0
 71
     3
 72
     0
 73
     0
 74
    16
 44
0.0000000001
 11
0.1026141732283465
 21
2.961783464566929
 31
0.0
 11
0.1078110236220472
 21
3.0032992125984252
 31
0.0
 11
0.1193070866141732
 21
3.0427755905511811
 31
0.0
 11
0.136755905511811
 21
3.0799921259842518
 31
0.0
 11
0.1598267716535433
 21
3.114732283464567
 31
0.0
 11
0.1881771653543307
 21
3.1467637795275589
 31
0.0
 11
0.2214803149606299
 21
3.1758779527559056
 31
0.0
 11
0.2593976377952756
 21
3.2018503937007874
 31
0.0
 11
0.3015984251968504
 21
3.224468503937008
 31
0.0
 11
0.3477322834645669
 21
3.2434960629921261
 31
0.0
 11
0.3974803149606299
 21
3.2587244094488188
 31
0.0
 11
0.4505
 21
3.2699330708661418
 31
0.0
 11
0.5064645669291339
 21
3.2769015748031496
 31
0.0
 11
0.5650236220472441
 21
3.2794015748031495
 31
0.0
 11
0.6258543307086614
 21
3.2772283464566927
 31
0.0
 11
0.6886141732283465
 21
3.2701496062992126
 31
0.0
  0
LWPOLYLINE
  5
29
100
AcDbEntity
  8
0
 62
     0
100
AcDbPolyline
 90
        2
 70
     0
 39
0.003
 10
0.688614
 20
3.27015
 40
0.003
 41
0.003
 10
0.75298
 20
3.257957
 40
0.003
 41
0.003
  0
LWPOLYLINE
  5
2A
100
AcDbEntity
  8
0
 62
     0
100
AcDbPolyline
 90
        2
 70
     0
 39
0.003
 10
0.75298
 20
3.257957
 40
0.003
 41
0.003
 10
0.75298
 20
2.437177
 40
0.003
 41
0.003
  0
LWPOLYLINE
  5
2B
100
AcDbEntity
  8
0
 62
     0
100
AcDbPolyline
 90
        2
 70
     0
 39
0.003
 10
0.75298
 20
2.437177
 40
0.003
 41
0.003
 10
-1.020122
 20
2.437177
 40
0.003
 41
0.003
  0
LWPOLYLINE
  5
2C
100
AcDbEntity
  8
0
 62
     0
100
AcDbPolyline
 90
        2
 70
     0
 39
0.003
 10
-1.020122
 20
2.437177
 40
0.003
 41
0.003
 10
-1.020122
 20
2.640941
 40
0.003
 41
0.003
  0
MTEXT
  5
2D
100
AcDbEntity
  8
0
 62
     0
100
AcDbMText
 10
-1.135594
 20
2.562319
 30
0.0
 40
0.166665
 41
0.0
 71
     1
 72
     1
  1
{\fBookman Old Style|b0|i0|c0|p32;BA  1491}
 73
     1
 44
1.0
  0
MTEXT
  5
2E
100
AcDbEntity
  8
0
 62
     0
100
AcDbMText
 10
-1.135594
 20
2.374819
 30
0.0
 40
0.166665
 41
0.0
 71
     1
 72
     1
  1
{\fBookman Old Style|b0|i0|c0|p32;7/8" x 1-3/4"}
 73
     1
 44
1.0
  0
LWPOLYLINE
  5
2F
100
AcDbEntity
  8
0
 62
   254
100
AcDbPolyline
 90
        2
 70
     0
 39
0.003
 10
-0.434764
 20
1.283535
 40
0.003
 41
0.003
 10
0.216433
 20
1.669681
 40
0.003
 41
0.003
  0
LWPOLYLINE
  5
30
100
AcDbEntity
  8
0
 62
   254
100
AcDbPolyline
 90
        2
 70
     0
 39
0.003
 10
0.216433
 20
1.669681
 40
0.003
 41
0.003
 10
0.216433
 20
1.530217
 40
0.003
 41
0.003
  0
LWPOLYLINE
  5
31
100
AcDbEntity
  8
0
 62
   254
100
AcDbPolyline
 90
        2
 70
     0
 39
0.003
 10
0.216433
 20
1.530217
 40
0.003
 41
0.003
 10
-0.434764
 20
1.144071
 40
0.003
 41
0.003
  0
LWPOLYLINE
  5
32
100
AcDbEntity
  8
0
 62
   254
100
AcDbPolyline
 90
        2
 70
     0
 39
0.003
 10
-0.434764
 20
1.144071
 40
0.003
 41
0.003
 10
-0.434764
 20
1.283535
 40
0.003
 41
0.003
  0
LWPOLYLINE
  5
33
100
AcDbEntity
  8
0
 62
     0
100
AcDbPolyline
 90
        2
 70
     0
 39
0.003
 10
-0.434764
 20
1.283535
 40
0.003
 41
0.003
 10
0.216433
 20
1.669681
 40
0.003
 41
0.003
  0
LWPOLYLINE
  5
34
100
AcDbEntity
  8
0
 62
     0
100
AcDbPolyline
 90
        2
 70
     0
 39
0.003
 10
0.216433
 20
1.669681
 40
0.003
 41
0.003
 10
0.216433
 20
1.530217
 40
0.003
 41
0.003
  0
LWPOLYLINE
  5
35
100
AcDbEntity
  8
0
 62
     0
100
AcDbPolyline
 90
        2
 70
     0
 39
0.003
 10
0.216433
 20
1.530217
 40
0.003
 41
0.003
 10
-0.434764
 20
1.144071
 40
0.003
 41
0.003
  0
LWPOLYLINE
  5
36
100
AcDbEntity
  8
0
 62
     0
100
AcDbPolyline
 90
        2
 70
     0
 39
0.003
 10
-0.434764
 20
1.144071
 40
0.003
 41
0.003
 10
-0.434764
 20
1.283535
 40
0.003
 41
0.003
  0
LWPOLYLINE
  5
37
100
AcDbEntity
  8
0
 62
   254
100
AcDbPolyline
 90
        2
 70
     0
 39
0.003
 10
-0.38665
 20
0.77539
 40
0.003
 41
0.003
 10
0.264547
 20
1.161535
 40
0.003
 41
0.003
  0
LWPOLYLINE
  5
38
100
AcDbEntity
  8
0
 62
   254
100
AcDbPolyline
 90
        2
 70
     0
 39
0.003
 10
0.264547
 20
1.161535
 40
0.003
 41
0.003
 10
0.264839
 20
1.126606
 40
0.003
 41
0.003
  0
LWPOLYLINE
  5
39
100
AcDbEntity
  8
0
 62
   254
100
AcDbPolyline
 90
        2
 70
     0
 39
0.003
 10
0.264839
 20
1.126606
 40
0.003
 41
0.003
 10
-0.386358
 20
0.740461
 40
0.003
 41
0.003
  0
LWPOLYLINE
  5
3A
100
AcDbEntity
  8
0
 62
   254
100
AcDbPolyline
 90
        2
 70
     0
 39
0.003
 10
-0.386358
 20
0.740461
 40
0.003
 41
0.003
 10
-0.38665
 20
0.77539
 40
0.003
 41
0.003
  0
LWPOLYLINE
  5
3B
100
AcDbEntity
  8
0
 62
   254
100
AcDbPolyline
 90
        2
 70
     0
 39
0.003
 10
-0.386358
 20
0.740461
 40
0.003
 41
0.003
 10
0.264839
 20
1.126606
 40
0.003
 41
0.003
  0
LWPOLYLINE
  5
3C
100
AcDbEntity
  8
0
 62
   254
100
AcDbPolyline
 90
        2
 70
     0
 39
0.003
 10
0.264839
 20
1.126606
 40
0.003
 41
0.003
 10
0.266189
 20
1.09374
 40
0.003
 41
0.003
  0
LWPOLYLINE
  5
3D
100
AcDbEntity
  8
0
 62
   254
100
AcDbPolyline
 90
        2
 70
     0
 39
0.003
 10
0.266189
 20
1.09374
 40
0.003
 41
0.003
 10
-0.385008
 20
0.707594
 40
0.003
 41
0.003
  0
LWPOLYLINE
  5
3E
100
AcDbEntity
  8
0
 62
   254
100
AcDbPolyline
 90
        2
 70
     0
 39
0.003
 10
-0.385008
 20
0.707594
 40
0.003
 41
0.003
 10
-0.386358
 20
0.740461
 40
0.003
 41
0.003
  0
LWPOLYLINE
  5
3F
100
AcDbEntity
  8
0
 62
   254
100
AcDbPolyline
 90
        2
 70
     0
 39
0.003
 10
-0.385008
 20
0.707594
 40
0.003
 41
0.003
 10
0.266189
 20
1.09374
 40
0.003
 41
0.003
  0
LWPOLYLINE
  5
40
100
AcDbEntity
  8
0
 62
   254
100
AcDbPolyline
 90
        2
 70
     0
 39
0.003
 10
0.266189
 20
1.09374
 40
0.003
 41
0.003
 10
0.268547
 20
1.06287
 40
0.003
 41
0.003
  0
LWPOLYLINE
  5
41
100
AcDbEntity
  8
0
 62
   254
100
AcDbPolyline
 90
        2
 70
     0
 39
0.003
 10
0.268547
 20
1.06287
 40
0.003
 41
0.003
 10
-0.38265
 20
0.676724
 40
0.003
 41
0.003
  0
LWPOLYLINE
  5
42
100
AcDbEntity
  8
0
 62
   254
100
AcDbPolyline
 90
        2
 70
     0
 39
0.003
 10
-0.38265
 20
0.676724
 40
0.003
 41
0.003
 10
-0.385008
 20
0.707594
 40
0.003
 41
0.003
  0
LWPOLYLINE
  5
43
100
AcDbEntity
  8
0
 62
   254
100
AcDbPolyline
 90
        2
 70
     0
 39
0.003
 10
-0.38265
 20
0.676724
 40
0.003
 41
0.003
 10
0.268547
 20
1.06287
 40
0.003
 41
0.003
  0
LWPOLYLINE
  5
44
100
AcDbEntity
  8
0
 62
   254
100
AcDbPolyline
 90
        2
 70
     0
 39
0.003
 10
0.268547
 20
1.06287
 40
0.003
 41
0.003
 10
0.271858
 20
1.033945
 40
0.003
 41
0.003
  0
LWPOLYLINE
  5
45
100
AcDbEntity
  8
0
 62
   254
100
AcDbPolyline
 90
        2
 70
     0
 39
0.003
 10
0.271858
 20
1.033945
 40
0.003
 41
0.003
 10
-0.379339
 20
0.647799
 40
0.003
 41
0.003
  0
LWPOLYLINE
  5
46
100
AcDbEntity
  8
0
 62
   254
100
AcDbPolyline
 90
        2
 70
     0
 39
0.003
 10
-0.379339
 20
0.647799
 40
0.003
 41
0.003
 10
-0.38265
 20
0.676724
 40
0.003
 41
0.003
  0
LWPOLYLINE
  5
47
100
AcDbEntity
  8
0
 62
   254
100
AcDbPolyline
 90
        2
 70
     0
 39
0.003
 10
-0.379339
 20
0.647799
 40
0.003
 41
0.003
 10
0.271858
 20
1.033945
 40
0.003
 41
0.003
  0
LWPOLYLINE
  5
48
100
AcDbEntity
  8
0
 62
   254
100
AcDbPolyline
 90
        2
 70
     0
 39
0.003
 10
0.271858
 20
1.033945
 40
0.003
 41
0.003
 10
0.276079
 20
1.006882
 40
0.003
 41
0.003
  0
LWPOLYLINE
  5
49
100
AcDbEntity
  8
0
 62
   254
100
AcDbPolyline
 90
        2
 70
     0
 39
0.003
 10
0.276079
 20
1.006882
 40
0.003
 41
0.003
 10
-0.375118
 20
0.620736
 40
0.003
 41
0.003
  0
LWPOLYLINE
  5
4A
100
AcDbEntity
  8
0
 62
   254
100
AcDbPolyline
 90
        2
 70
     0
 39
0.003
 10
-0.375118
 20
0.620736
 40
0.003
 41
0.003
 10
-0.379339
 20
0.647799
 40
0.003
 41
0.003
  0
LWPOLYLINE
  5
4B
100
AcDbEntity
  8
0
 62
   254
100
AcDbPolyline
 90
        2
 70
     0
 39
0.003
 10
-0.375118
 20
0.620736
 40
0.003
 41
0.003
 10
0.276079
 20
1.006882
 40
0.003
 41
0.003
  0
LWPOLYLINE
  5
4C
100
AcDbEntity
  8
0
 62
   254
100
AcDbPolyline
 90
        2
 70
     0
 39
0.003
 10
0.276079
 20
1.006882
 40
0.003
 41
0.003
 10
0.281138
 20
0.981642
 40
0.003
 41
0.003
  0
LWPOLYLINE
  5
4D
100
AcDbEntity
  8
0
 62
   254
100
AcDbPolyline
 90
        2
 70
     0
 39
0.003
 10
0.281138
 20
0.981642
 40
0.003
 41
0.003
 10
-0.370059
 20
0.595496
 40
0.003
 41
0.003
  0
LWPOLYLINE
  5
4E
100
AcDbEntity
  8
0
 62
   254
100
AcDbPolyline
 90
        2
 70
     0
 39
0.003
 10
-0.370059
 20
0.595496
 40
0.003
 41
0.003
 10
-0.375118
 20
0.620736
 40
0.003
 41
0.003
  0
LWPOLYLINE
  5
4F
100
AcDbEntity
  8
0
 62
   254
100
AcDbPolyline
 90
        2
 70
     0
 39
0.003
 10
-0.370059
 20
0.595496
 40
0.003
 41
0.003
 10
0.281138
 20
0.981642
 40
0.003
 41
0.003
  0
LWPOLYLINE
  5
50
100
AcDbEntity
  8
0
 62
   254
100
AcDbPolyline
 90
        2
 70
     0
 39
0.003
 10
0.281138
 20
0.981642
 40
0.003
 41
0.003
 10
0.287
 20
0.95815
 40
0.003
 41
0.003
  0
LWPOLYLINE
  5
51
100
AcDbEntity
  8
0
 62
   254
100
AcDbPolyline
 90
        2
 70
     0
 39
0.003
 10
0.287
 20
0.95815
 40
0.003
 41
0.003
 10
-0.364197
 20
0.572004
 40
0.003
 41
0.003
  0
LWPOLYLINE
  5
52
100
AcDbEntity
  8
0
 62
   254
100
AcDbPolyline
 90
        2
 70
     0
 39
0.003
 10
-0.364197
 20
0.572004
 40
0.003
 41
0.003
 10
-0.370059
 20
0.595496
 40
0.003
 41
0.003
  0
LWPOLYLINE
  5
53
100
AcDbEntity
  8
0
 62
   254
100
AcDbPolyline
 90
        2
 70
     0
 39
0.003
 10
-0.364197
 20
0.572004
 40
0.003
 41
0.003
 10
0.287
 20
0.95815
 40
0.003
 41
0.003
  0
LWPOLYLINE
  5
54
100
AcDbEntity
  8
0
 62
   254
100
AcDbPolyline
 90
        2
 70
     0
 39
0.003
 10
0.287
 20
0.95815
 40
0.003
 41
0.003
 10
0.293598
 20
0.93635
 40
0.003
 41
0.003
  0
LWPOLYLINE
  5
55
100
AcDbEntity
  8
0
 62
   254
100
AcDbPolyline
 90
        2
 70
     0
 39
0.003
 10
0.293598
 20
0.93635
 40
0.003
 41
0.003
 10
-0.357598
 20
0.550205
 40
0.003
 41
0.003
  0
LWPOLYLINE
  5
56
100
AcDbEntity
  8
0
 62
   254
100
AcDbPolyline
 90
        2
 70
     0
 39
0.003
 10
-0.357598
 20
0.550205
 40
0.003
 41
0.003
 10
-0.364197
 20
0.572004
 40
0.003
 41
0.003
  0
LWPOLYLINE
  5
57
100
AcDbEntity
  8
0
 62
   254
100
AcDbPolyline
 90
        2
 70
     0
 39
0.003
 10
-0.357598
 20
0.550205
 40
0.003
 41
0.003
 10
0.293598
 20
0.93635
 40
0.003
 41
0.003
  0
LWPOLYLINE
  5
58
100
AcDbEntity
  8
0
 62
   254
100
AcDbPolyline
 90
        2
 70
     0
 39
0.003
 10
0.293598
 20
0.93635
 40
0.003
 41
0.003
 10
0.300898
 20
0.916169
 40
0.003
 41
0.003
  0
LWPOLYLINE
  5
59
100
AcDbEntity
  8
0
 62
   254
100
AcDbPolyline
 90
        2
 70
     0
 39
0.003
 10
0.300898
 20
0.916169
 40
0.003
 41
0.003
 10
-0.350299
 20
0.530024
 40
0.003
 41
0.003
  0
LWPOLYLINE
  5
5A
100
AcDbEntity
  8
0
 62
   254
100
AcDbPolyline
 90
        2
 70
     0
 39
0.003
 10
-0.350299
 20
0.530024
 40
0.003
 41
0.003
 10
-0.357598
 20
0.550205
 40
0.003
 41
0.003
  0
LWPOLYLINE
  5
5B
100
AcDbEntity
  8
0
 62
   254
100
AcDbPolyline
 90
        2
 70
     0
 39
0.003
 10
-0.350299
 20
0.530024
 40
0.003
 41
0.003
 10
0.300898
 20
0.916169
 40
0.003
 41
0.003
  0
LWPOLYLINE
  5
5C
100
AcDbEntity
  8
0
 62
   254
100
AcDbPolyline
 90
        2
 70
     0
 39
0.003
 10
0.300898
 20
0.916169
 40
0.003
 41
0.003
 10
0.308827
 20
0.897563
 40
0.003
 41
0.003
  0
LWPOLYLINE
  5
5D
100
AcDbEntity
  8
0
 62
   254
100
AcDbPolyline
 90
        2
 70
     0
 39
0.003
 10
0.308827
 20
0.897563
 40
0.003
 41
0.003
 10
-0.34237
 20
0.511417
 40
0.003
 41
0.003
  0
LWPOLYLINE
  5
5E
100
AcDbEntity
  8
0
 62
   254
100
AcDbPolyline
 90
        2
 70
     0
 39
0.003
 10
-0.34237
 20
0.511417
 40
0.003
 41
0.003
 10
-0.350299
 20
0.530024
 40
0.003
 41
0.003
  0
LWPOLYLINE
  5
5F
100
AcDbEntity
  8
0
 62
   254
100
AcDbPolyline
 90
        2
 70
     0
 39
0.003
 10
-0.34237
 20
0.511417
 40
0.003
 41
0.003
 10
0.308827
 20
0.897563
 40
0.003
 41
0.003
  0
LWPOLYLINE
  5
60
100
AcDbEntity
  8
0
 62
   254
100
AcDbPolyline
 90
        2
 70
     0
 39
0.003
 10
0.308827
 20
0.897563
 40
0.003
 41
0.003
 10
0.317346
 20
0.880457
 40
0.003
 41
0.003
  0
LWPOLYLINE
  5
61
100
AcDbEntity
  8
0
 62
   254
100
AcDbPolyline
 90
        2
 70
     0
 39
0.003
 10
0.317346
 20
0.880457
 40
0.003
 41
0.003
 10
-0.33385
 20
0.494311
 40
0.003
 41
0.003
  0
LWPOLYLINE
  5
62
100
AcDbEntity
  8
0
 62
   254
100
AcDbPolyline
 90
        2
 70
     0
 39
0.003
 10
-0.33385
 20
0.494311
 40
0.003
 41
0.003
 10
-0.34237
 20
0.511417
 40
0.003
 41
0.003
  0
LWPOLYLINE
  5
63
100
AcDbEntity
  8
0
 62
   254
100
AcDbPolyline
 90
        2
 70
     0
 39
0.003
 10
-0.33385
 20
0.494311
 40
0.003
 41
0.003
 10
0.317346
 20
0.880457
 40
0.003
 41
0.003
  0
LWPOLYLINE
  5
64
100
AcDbEntity
  8
0
 62
   254
100
AcDbPolyline
 90
        2
 70
     0
 39
0.003
 10
0.317346
 20
0.880457
 40
0.003
 41
0.003
 10
0.32639
 20
0.864799
 40
0.003
 41
0.003
  0
LWPOLYLINE
  5
65
100
AcDbEntity
  8
0
 62
   254
100
AcDbPolyline
 90
        2
 70
     0
 39
0.003
 10
0.32639
 20
0.864799
 40
0.003
 41
0.003
 10
-0.324807
 20
0.478654
 40
0.003
 41
0.003
  0
LWPOLYLINE
  5
66
100
AcDbEntity
  8
0
 62
   254
100
AcDbPolyline
 90
        2
 70
     0
 39
0.003
 10
-0.324807
 20
0.478654
 40
0.003
 41
0.003
 10
-0.33385
 20
0.494311
 40
0.003
 41
0.003
  0
LWPOLYLINE
  5
67
100
AcDbEntity
  8
0
 62
   254
100
AcDbPolyline
 90
        2
 70
     0
 39
0.003
 10
-0.324807
 20
0.478654
 40
0.003
 41
0.003
 10
0.32639
 20
0.864799
 40
0.003
 41
0.003
  0
LWPOLYLINE
  5
68
100
AcDbEntity
  8
0
 62
   254
100
AcDbPolyline
 90
        2
 70
     0
 39
0.003
 10
0.32639
 20
0.864799
 40
0.003
 41
0.003
 10
0.335917
 20
0.850512
 40
0.003
 41
0.003
  0
LWPOLYLINE
  5
69
100
AcDbEntity
  8
0
 62
   254
100
AcDbPolyline
 90
        2
 70
     0
 39
0.003
 10
0.335917
 20
0.850512
 40
0.003
 41
0.003
 10
-0.31528
 20
0.464366
 40
0.003
 41
0.003
  0
LWPOLYLINE
  5
6A
100
AcDbEntity
  8
0
 62
   254
100
AcDbPolyline
 90
        2
 70
     0
 39
0.003
 10
-0.31528
 20
0.464366
 40
0.003
 41
0.003
 10
-0.324807
 20
0.478654
 40
0.003
 41
0.003
  0
LWPOLYLINE
  5
6B
100
AcDbEntity
  8
0
 62
   254
100
AcDbPolyline
 90
        2
 70
     0
 39
0.003
 10
-0.31528
 20
0.464366
 40
0.003
 41
0.003
 10
0.335917
 20
0.850512
 40
0.003
 41
0.003
  0
LWPOLYLINE
  5
6C
100
AcDbEntity
  8
0
 62
   254
100
AcDbPolyline
 90
        2
 70
     0
 39
0.003
 10
0.335917
 20
0.850512
 40
0.003
 41
0.003
 10
0.345866
 20
0.837551
 40
0.003
 41
0.003
  0
LWPOLYLINE
  5
6D
100
AcDbEntity
  8
0
 62
   254
100
AcDbPolyline
 90
        2
 70
     0
 39
0.003
 10
0.345866
 20
0.837551
 40
0.003
 41
0.003
 10
-0.305331
 20
0.451406
 40
0.003
 41
0.003
  0
LWPOLYLINE
  5
6E
100
AcDbEntity
  8
0
 62
   254
100
AcDbPolyline
 90
        2
 70
     0
 39
0.003
 10
-0.305331
 20
0.451406
 40
0.003
 41
0.003
 10
-0.31528
 20
0.464366
 40
0.003
 41
0.003
  0
LWPOLYLINE
  5
6F
100
AcDbEntity
  8
0
 62
   254
100
AcDbPolyline
 90
        2
 70
     0
 39
0.003
 10
-0.305331
 20
0.451406
 40
0.003
 41
0.003
 10
0.345866
 20
0.837551
 40
0.003
 41
0.003
  0
LWPOLYLINE
  5
70
100
AcDbEntity
  8
0
 62
   254
100
AcDbPolyline
 90
        2
 70
     0
 39
0.003
 10
0.345866
 20
0.837551
 40
0.003
 41
0.003
 10
0.356193
 20
0.825846
 40
0.003
 41
0.003
  0
LWPOLYLINE
  5
71
100
AcDbEntity
  8
0
 62
   254
100
AcDbPolyline
 90
        2
 70
     0
 39
0.003
 10
0.356193
 20
0.825846
 40
0.003
 41
0.003
 10
-0.295004
 20
0.439701
 40
0.003
 41
0.003
  0
LWPOLYLINE
  5
72
100
AcDbEntity
  8
0
 62
   254
100
AcDbPolyline
 90
        2
 70
     0
 39
0.003
 10
-0.295004
 20
0.439701
 40
0.003
 41
0.003
 10
-0.305331
 20
0.451406
 40
0.003
 41
0.003
  0
LWPOLYLINE
  5
73
100
AcDbEntity
  8
0
 62
   254
100
AcDbPolyline
 90
        2
 70
     0
 39
0.003
 10
-0.295004
 20
0.439701
 40
0.003
 41
0.003
 10
0.356193
 20
0.825846
 40
0.003
 41
0.003
  0
LWPOLYLINE
  5
74
100
AcDbEntity
  8
0
 62
   254
100
AcDbPolyline
 90
        2
 70
     0
 39
0.003
 10
0.356193
 20
0.825846
 40
0.003
 41
0.003
 10
0.366831
 20
0.815343
 40
0.003
 41
0.003
  0
LWPOLYLINE
  5
75
100
AcDbEntity
  8
0
 62
   254
100
AcDbPolyline
 90
        2
 70
     0
 39
0.003
 10
0.366831
 20
0.815343
 40
0.003
 41
0.003
 10
-0.284366
 20
0.429197
 40
0.003
 41
0.003
  0
LWPOLYLINE
  5
76
100
AcDbEntity
  8
0
 62
   254
100
AcDbPolyline
 90
        2
 70
     0
 39
0.003
 10
-0.284366
 20
0.429197
 40
0.003
 41
0.003
 10
-0.295004
 20
0.439701
 40
0.003
 41
0.003
  0
LWPOLYLINE
  5
77
100
AcDbEntity
  8
0
 62
   254
100
AcDbPolyline
 90
        2
 70
     0
 39
0.003
 10
-0.284366
 20
0.429197
 40
0.003
 41
0.003
 10
0.366831
 20
0.815343
 40
0.003
 41
0.003
  0
LWPOLYLINE
  5
78
100
AcDbEntity
  8
0
 62
   254
100
AcDbPolyline
 90
        2
 70
     0
 39
0.003
 10
0.366831
 20
0.815343
 40
0.003
 41
0.003
 10
0.377748
 20
0.805965
 40
0.003
 41
0.003
  0
LWPOLYLINE
  5
79
100
AcDbEntity
  8
0
 62
   254
100
AcDbPolyline
 90
        2
 70
     0
 39
0.003
 10
0.377748
 20
0.805965
 40
0.003
 41
0.003
 10
-0.273449
 20
0.419819
 40
0.003
 41
0.003
  0
LWPOLYLINE
  5
7A
100
AcDbEntity
  8
0
 62
   254
100
AcDbPolyline
 90
        2
 70
     0
 39
0.003
 10
-0.273449
 20
0.419819
 40
0.003
 41
0.003
 10
-0.284366
 20
0.429197
 40
0.003
 41
0.003
  0
LWPOLYLINE
  5
7B
100
AcDbEntity
  8
0
 62
   254
100
AcDbPolyline
 90
        2
 70
     0
 39
0.003
 10
-0.273449
 20
0.419819
 40
0.003
 41
0.003
 10
0.377748
 20
0.805965
 40
0.003
 41
0.003
  0
LWPOLYLINE
  5
7C
100
AcDbEntity
  8
0
 62
   254
100
AcDbPolyline
 90
        2
 70
     0
 39
0.003
 10
0.377748
 20
0.805965
 40
0.003
 41
0.003
 10
0.38887
 20
0.797661
 40
0.003
 41
0.003
  0
LWPOLYLINE
  5
7D
100
AcDbEntity
  8
0
 62
   254
100
AcDbPolyline
 90
        2
 70
     0
 39
0.003
 10
0.38887
 20
0.797661
 40
0.003
 41
0.003
 10
-0.262327
 20
0.411516
 40
0.003
 41
0.003
  0
LWPOLYLINE
  5
7E
100
AcDbEntity
  8
0
 62
   254
100
AcDbPolyline
 90
        2
 70
     0
 39
0.003
 10
-0.262327
 20
0.411516
 40
0.003
 41
0.003
 10
-0.273449
 20
0.419819
 40
0.003
 41
0.003
  0
LWPOLYLINE
  5
7F
100
AcDbEntity
  8
0
 62
   254
100
AcDbPolyline
 90
        2
 70
     0
 39
0.003
 10
-0.262327
 20
0.411516
 40
0.003
 41
0.003
 10
0.38887
 20
0.797661
 40
0.003
 41
0.003
  0
LWPOLYLINE
  5
80
100
AcDbEntity
  8
0
 62
   254
100
AcDbPolyline
 90
        2
 70
     0
 39
0.003
 10
0.38887
 20
0.797661
 40
0.003
 41
0.003
 10
0.400154
 20
0.79037
 40
0.003
 41
0.003
  0
LWPOLYLINE
  5
81
100
AcDbEntity
  8
0
 62
   254
100
AcDbPolyline
 90
        2
 70
     0
 39
0.003
 10
0.400154
 20
0.79037
 40
0.003
 41
0.003
 10
-0.251043
 20
0.404224
 40
0.003
 41
0.003
  0
LWPOLYLINE
  5
82
100
AcDbEntity
  8
0
 62
   254
100
AcDbPolyline
 90
        2
 70
     0
 39
0.003
 10
-0.251043
 20
0.404224
 40
0.003
 41
0.003
 10
-0.262327
 20
0.411516
 40
0.003
 41
0.003
  0
LWPOLYLINE
  5
83
100
AcDbEntity
  8
0
 62
   254
100
AcDbPolyline
 90
        2
 70
     0
 39
0.003
 10
-0.251043
 20
0.404224
 40
0.003
 41
0.003
 10
0.400154
 20
0.79037
 40
0.003
 41
0.003
  0
LWPOLYLINE
  5
84
100
AcDbEntity
  8
0
 62
   254
100
AcDbPolyline
 90
        2
 70
     0
 39
0.003
 10
0.400154
 20
0.79037
 40
0.003
 41
0.003
 10
0.411539
 20
0.784031
 40
0.003
 41
0.003
  0
LWPOLYLINE
  5
85
100
AcDbEntity
  8
0
 62
   254
100
AcDbPolyline
 90
        2
 70
     0
 39
0.003
 10
0.411539
 20
0.784031
 40
0.003
 41
0.003
 10
-0.239657
 20
0.397886
 40
0.003
 41
0.003
  0
LWPOLYLINE
  5
86
100
AcDbEntity
  8
0
 62
   254
100
AcDbPolyline
 90
        2
 70
     0
 39
0.003
 10
-0.239657
 20
0.397886
 40
0.003
 41
0.003
 10
-0.251043
 20
0.404224
 40
0.003
 41
0.003
  0
LWPOLYLINE
  5
87
100
AcDbEntity
  8
0
 62
     9
100
AcDbPolyline
 90
        2
 70
     0
 39
0.003
 10
-0.239657
 20
0.397886
 40
0.003
 41
0.003
 10
0.411539
 20
0.784031
 40
0.003
 41
0.003
  0
LWPOLYLINE
  5
88
100
AcDbEntity
  8
0
 62
     9
100
AcDbPolyline
 90
        2
 70
     0
 39
0.003
 10
0.411539
 20
0.784031
 40
0.003
 41
0.003
 10
0.422988
 20
0.778575
 40
0.003
 41
0.003
  0
LWPOLYLINE
  5
89
100
AcDbEntity
  8
0
 62
     9
100
AcDbPolyline
 90
        2
 70
     0
 39
0.003
 10
0.422988
 20
0.778575
 40
0.003
 41
0.003
 10
-0.228209
 20
0.392429
 40
0.003
 41
0.003
  0
LWPOLYLINE
  5
8A
100
AcDbEntity
  8
0
 62
     9
100
AcDbPolyline
 90
        2
 70
     0
 39
0.003
 10
-0.228209
 20
0.392429
 40
0.003
 41
0.003
 10
-0.239657
 20
0.397886
 40
0.003
 41
0.003
  0
LWPOLYLINE
  5
8B
100
AcDbEntity
  8
0
 62
     9
100
AcDbPolyline
 90
        2
 70
     0
 39
0.003
 10
-0.228209
 20
0.392429
 40
0.003
 41
0.003
 10
0.422988
 20
0.778575
 40
0.003
 41
0.003
  0
LWPOLYLINE
  5
8C
100
AcDbEntity
  8
0
 62
     9
100
AcDbPolyline
 90
        2
 70
     0
 39
0.003
 10
0.422988
 20
0.778575
 40
0.003
 41
0.003
 10
0.434433
 20
0.773945
 40
0.003
 41
0.003
  0
LWPOLYLINE
  5
8D
100
AcDbEntity
  8
0
 62
     9
100
AcDbPolyline
 90
        2
 70
     0
 39
0.003
 10
0.434433
 20
0.773945
 40
0.003
 41
0.003
 10
-0.216764
 20
0.387799
 40
0.003
 41
0.003
  0
LWPOLYLINE
  5
8E
100
AcDbEntity
  8
0
 62
     9
100
AcDbPolyline
 90
        2
 70
     0
 39
0.003
 10
-0.216764
 20
0.387799
 40
0.003
 41
0.003
 10
-0.228209
 20
0.392429
 40
0.003
 41
0.003
  0
LWPOLYLINE
  5
8F
100
AcDbEntity
  8
0
 62
     9
100
AcDbPolyline
 90
        2
 70
     0
 39
0.003
 10
-0.216764
 20
0.387799
 40
0.003
 41
0.003
 10
0.434433
 20
0.773945
 40
0.003
 41
0.003
  0
LWPOLYLINE
  5
90
100
AcDbEntity
  8
0
 62
     9
100
AcDbPolyline
 90
        2
 70
     0
 39
0.003
 10
0.434433
 20
0.773945
 40
0.003
 41
0.003
 10
0.445827
 20
0.770079
 40
0.003
 41
0.003
  0
LWPOLYLINE
  5
91
100
AcDbEntity
  8
0
 62
     9
100
AcDbPolyline
 90
        2
 70
     0
 39
0.003
 10
0.445827
 20
0.770079
 40
0.003
 41
0.003
 10
-0.20537
 20
0.383933
 40
0.003
 41
0.003
  0
LWPOLYLINE
  5
92
100
AcDbEntity
  8
0
 62
     9
100
AcDbPolyline
 90
        2
 70
     0
 39
0.003
 10
-0.20537
 20
0.383933
 40
0.003
 41
0.003
 10
-0.216764
 20
0.387799
 40
0.003
 41
0.003
  0
LWPOLYLINE
  5
93
100
AcDbEntity
  8
0
 62
     9
100
AcDbPolyline
 90
        2
 70
     0
 39
0.003
 10
-0.20537
 20
0.383933
 40
0.003
 41
0.003
 10
0.445827
 20
0.770079
 40
0.003
 41
0.003
  0
LWPOLYLINE
  5
94
100
AcDbEntity
  8
0
 62
     9
100
AcDbPolyline
 90
        2
 70
     0
 39
0.003
 10
0.445827
 20
0.770079
 40
0.003
 41
0.003
 10
0.45711
 20
0.766925
 40
0.003
 41
0.003
  0
LWPOLYLINE
  5
95
100
AcDbEntity
  8
0
 62
     9
100
AcDbPolyline
 90
        2
 70
     0
 39
0.003
 10
0.45711
 20
0.766925
 40
0.003
 41
0.003
 10
-0.194087
 20
0.38078
 40
0.003
 41
0.003
  0
LWPOLYLINE
  5
96
100
AcDbEntity
  8
0
 62
     9
100
AcDbPolyline
 90
        2
 70
     0
 39
0.003
 10
-0.194087
 20
0.38078
 40
0.003
 41
0.003
 10
-0.20537
 20
0.383933
 40
0.003
 41
0.003
  0
LWPOLYLINE
  5
97
100
AcDbEntity
  8
0
 62
     9
100
AcDbPolyline
 90
        2
 70
     0
 39
0.003
 10
-0.194087
 20
0.38078
 40
0.003
 41
0.003
 10
0.45711
 20
0.766925
 40
0.003
 41
0.003
  0
LWPOLYLINE
  5
98
100
AcDbEntity
  8
0
 62
     9
100
AcDbPolyline
 90
        2
 70
     0
 39
0.003
 10
0.45711
 20
0.766925
 40
0.003
 41
0.003
 10
0.468248
 20
0.764398
 40
0.003
 41
0.003
  0
LWPOLYLINE
  5
99
100
AcDbEntity
  8
0
 62
     9
100
AcDbPolyline
 90
        2
 70
     0
 39
0.003
 10
0.468248
 20
0.764398
 40
0.003
 41
0.003
 10
-0.182949
 20
0.378252
 40
0.003
 41
0.003
  0
LWPOLYLINE
  5
9A
100
AcDbEntity
  8
0
 62
     9
100
AcDbPolyline
 90
        2
 70
     0
 39
0.003
 10
-0.182949
 20
0.378252
 40
0.003
 41
0.003
 10
-0.194087
 20
0.38078
 40
0.003
 41
0.003
  0
LWPOLYLINE
  5
9B
100
AcDbEntity
  8
0
 62
     9
100
AcDbPolyline
 90
        2
 70
     0
 39
0.003
 10
-0.182949
 20
0.378252
 40
0.003
 41
0.003
 10
0.468248
 20
0.764398
 40
0.003
 41
0.003
  0
LWPOLYLINE
  5
9C
100
AcDbEntity
  8
0
 62
     9
100
AcDbPolyline
 90
        2
 70
     0
 39
0.003
 10
0.468248
 20
0.764398
 40
0.003
 41
0.003
 10
0.479165
 20
0.762457
 40
0.003
 41
0.003
  0
LWPOLYLINE
  5
9D
100
AcDbEntity
  8
0
 62
     9
100
AcDbPolyline
 90
        2
 70
     0
 39
0.003
 10
0.479165
 20
0.762457
 40
0.003
 41
0.003
 10
-0.172031
 20
0.376311
 40
0.003
 41
0.003
  0
LWPOLYLINE
  5
9E
100
AcDbEntity
  8
0
 62
     9
100
AcDbPolyline
 90
        2
 70
     0
 39
0.003
 10
-0.172031
 20
0.376311
 40
0.003
 41
0.003
 10
-0.182949
 20
0.378252
 40
0.003
 41
0.003
  0
LWPOLYLINE
  5
9F
100
AcDbEntity
  8
0
 62
     9
100
AcDbPolyline
 90
        2
 70
     0
 39
0.003
 10
-0.172031
 20
0.376311
 40
0.003
 41
0.003
 10
0.479165
 20
0.762457
 40
0.003
 41
0.003
  0
LWPOLYLINE
  5
A0
100
AcDbEntity
  8
0
 62
     9
100
AcDbPolyline
 90
        2
 70
     0
 39
0.003
 10
0.479165
 20
0.762457
 40
0.003
 41
0.003
 10
0.489823
 20
0.761031
 40
0.003
 41
0.003
  0
LWPOLYLINE
  5
A1
100
AcDbEntity
  8
0
 62
     9
100
AcDbPolyline
 90
        2
 70
     0
 39
0.003
 10
0.489823
 20
0.761031
 40
0.003
 41
0.003
 10
-0.161374
 20
0.374886
 40
0.003
 41
0.003
  0
LWPOLYLINE
  5
A2
100
AcDbEntity
  8
0
 62
     9
100
AcDbPolyline
 90
        2
 70
     0
 39
0.003
 10
-0.161374
 20
0.374886
 40
0.003
 41
0.003
 10
-0.172031
 20
0.376311
 40
0.003
 41
0.003
  0
LWPOLYLINE
  5
A3
100
AcDbEntity
  8
0
 62
   253
100
AcDbPolyline
 90
        2
 70
     0
 39
0.003
 10
-0.161374
 20
0.374886
 40
0.003
 41
0.003
 10
0.489823
 20
0.761031
 40
0.003
 41
0.003
  0
LWPOLYLINE
  5
A4
100
AcDbEntity
  8
0
 62
   253
100
AcDbPolyline
 90
        2
 70
     0
 39
0.003
 10
0.489823
 20
0.761031
 40
0.003
 41
0.003
 10
0.500157
 20
0.760067
 40
0.003
 41
0.003
  0
LWPOLYLINE
  5
A5
100
AcDbEntity
  8
0
 62
   253
100
AcDbPolyline
 90
        2
 70
     0
 39
0.003
 10
0.500157
 20
0.760067
 40
0.003
 41
0.003
 10
-0.151039
 20
0.373921
 40
0.003
 41
0.003
  0
LWPOLYLINE
  5
A6
100
AcDbEntity
  8
0
 62
   253
100
AcDbPolyline
 90
        2
 70
     0
 39
0.003
 10
-0.151039
 20
0.373921
 40
0.003
 41
0.003
 10
-0.161374
 20
0.374886
 40
0.003
 41
0.003
  0
LWPOLYLINE
  5
A7
100
AcDbEntity
  8
0
 62
   253
100
AcDbPolyline
 90
        2
 70
     0
 39
0.003
 10
-0.151039
 20
0.373921
 40
0.003
 41
0.003
 10
0.500157
 20
0.760067
 40
0.003
 41
0.003
  0
LWPOLYLINE
  5
A8
100
AcDbEntity
  8
0
 62
   253
100
AcDbPolyline
 90
        2
 70
     0
 39
0.003
 10
0.500157
 20
0.760067
 40
0.003
 41
0.003
 10
0.51013
 20
0.759488
 40
0.003
 41
0.003
  0
LWPOLYLINE
  5
A9
100
AcDbEntity
  8
0
 62
   253
100
AcDbPolyline
 90
        2
 70
     0
 39
0.003
 10
0.51013
 20
0.759488
 40
0.003
 41
0.003
 10
-0.141067
 20
0.373343
 40
0.003
 41
0.003
  0
LWPOLYLINE
  5
AA
100
AcDbEntity
  8
0
 62
   253
100
AcDbPolyline
 90
        2
 70
     0
 39
0.003
 10
-0.141067
 20
0.373343
 40
0.003
 41
0.003
 10
-0.151039
 20
0.373921
 40
0.003
 41
0.003
  0
LWPOLYLINE
  5
AB
100
AcDbEntity
  8
0
 62
   253
100
AcDbPolyline
 90
        2
 70
     0
 39
0.003
 10
-0.141067
 20
0.373343
 40
0.003
 41
0.003
 10
0.51013
 20
0.759488
 40
0.003
 41
0.003
  0
LWPOLYLINE
  5
AC
100
AcDbEntity
  8
0
 62
   253
100
AcDbPolyline
 90
        2
 70
     0
 39
0.003
 10
0.51013
 20
0.759488
 40
0.003
 41
0.003
 10
0.519673
 20
0.759252
 40
0.003
 41
0.003
  0
LWPOLYLINE
  5
AD
100
AcDbEntity
  8
0
 62
   253
100
AcDbPolyline
 90
        2
 70
     0
 39
0.003
 10
0.519673
 20
0.759252
 40
0.003
 41
0.003
 10
-0.131524
 20
0.373106
 40
0.003
 41
0.003
  0
LWPOLYLINE
  5
AE
100
AcDbEntity
  8
0
 62
   253
100
AcDbPolyline
 90
        2
 70
     0
 39
0.003
 10
-0.131524
 20
0.373106
 40
0.003
 41
0.003
 10
-0.141067
 20
0.373343
 40
0.003
 41
0.003
  0
LWPOLYLINE
  5
AF
100
AcDbEntity
  8
0
 62
   253
100
AcDbPolyline
 90
        2
 70
     0
 39
0.003
 10
-0.131524
 20
0.373106
 40
0.003
 41
0.003
 10
0.519673
 20
0.759252
 40
0.003
 41
0.003
  0
LWPOLYLINE
  5
B0
100
AcDbEntity
  8
0
 62
   253
100
AcDbPolyline
 90
        2
 70
     0
 39
0.003
 10
0.519673
 20
0.759252
 40
0.003
 41
0.003
 10
0.52874
 20
0.75928
 40
0.003
 41
0.003
  0
LWPOLYLINE
  5
B1
100
AcDbEntity
  8
0
 62
   253
100
AcDbPolyline
 90
        2
 70
     0
 39
0.003
 10
0.52874
 20
0.75928
 40
0.003
 41
0.003
 10
-0.122457
 20
0.373134
 40
0.003
 41
0.003
  0
LWPOLYLINE
  5
B2
100
AcDbEntity
  8
0
 62
   253
100
AcDbPolyline
 90
        2
 70
     0
 39
0.003
 10
-0.122457
 20
0.373134
 40
0.003
 41
0.003
 10
-0.131524
 20
0.373106
 40
0.003
 41
0.003
  0
LWPOLYLINE
  5
B3
100
AcDbEntity
  8
0
 62
   253
100
AcDbPolyline
 90
        2
 70
     0
 39
0.003
 10
-0.122457
 20
0.373134
 40
0.003
 41
0.003
 10
0.52874
 20
0.75928
 40
0.003
 41
0.003
  0
LWPOLYLINE
  5
B4
100
AcDbEntity
  8
0
 62
   253
100
AcDbPolyline
 90
        2
 70
     0
 39
0.003
 10
0.52874
 20
0.75928
 40
0.003
 41
0.003
 10
0.537276
 20
0.759524
 40
0.003
 41
0.003
  0
LWPOLYLINE
  5
B5
100
AcDbEntity
  8
0
 62
   253
100
AcDbPolyline
 90
        2
 70
     0
 39
0.003
 10
0.537276
 20
0.759524
 40
0.003
 41
0.003
 10
-0.113921
 20
0.373378
 40
0.003
 41
0.003
  0
LWPOLYLINE
  5
B6
100
AcDbEntity
  8
0
 62
   253
100
AcDbPolyline
 90
        2
 70
     0
 39
0.003
 10
-0.113921
 20
0.373378
 40
0.003
 41
0.003
 10
-0.122457
 20
0.373134
 40
0.003
 41
0.003
  0
LWPOLYLINE
  5
B7
100
AcDbEntity
  8
0
 62
     0
100
AcDbPolyline
 90
        2
 70
     0
 39
0.003
 10
-0.38665
 20
0.77539
 40
0.003
 41
0.003
 10
0.264547
 20
1.161535
 40
0.003
 41
0.003
  0
LWPOLYLINE
  5
B8
100
AcDbEntity
  8
0
 62
     0
100
AcDbPolyline
 90
        2
 70
     0
 39
0.003
 10
0.264547
 20
1.161535
 40
0.003
 41
0.003
 10
0.264839
 20
1.126606
 40
0.003
 41
0.003
  0
LWPOLYLINE
  5
B9
100
AcDbEntity
  8
0
 62
     0
100
AcDbPolyline
 90
        2
 70
     0
 39
0.003
 10
0.264839
 20
1.126606
 40
0.003
 41
0.003
 10
0.266189
 20
1.09374
 40
0.003
 41
0.003
  0
LWPOLYLINE
  5
BA
100
AcDbEntity
  8
0
 62
     0
100
AcDbPolyline
 90
        2
 70
     0
 39
0.003
 10
0.266189
 20
1.09374
 40
0.003
 41
0.003
 10
0.268547
 20
1.06287
 40
0.003
 41
0.003
  0
LWPOLYLINE
  5
BB
100
AcDbEntity
  8
0
 62
     0
100
AcDbPolyline
 90
        2
 70
     0
 39
0.003
 10
0.268547
 20
1.06287
 40
0.003
 41
0.003
 10
0.271858
 20
1.033945
 40
0.003
 41
0.003
  0
LWPOLYLINE
  5
BC
100
AcDbEntity
  8
0
 62
     0
100
AcDbPolyline
 90
        2
 70
     0
 39
0.003
 10
0.271858
 20
1.033945
 40
0.003
 41
0.003
 10
0.276079
 20
1.006882
 40
0.003
 41
0.003
  0
LWPOLYLINE
  5
BD
100
AcDbEntity
  8
0
 62
     0
100
AcDbPolyline
 90
        2
 70
     0
 39
0.003
 10
0.276079
 20
1.006882
 40
0.003
 41
0.003
 10
0.281138
 20
0.981642
 40
0.003
 41
0.003
  0
LWPOLYLINE
  5
BE
100
AcDbEntity
  8
0
 62
     0
100
AcDbPolyline
 90
        2
 70
     0
 39
0.003
 10
0.281138
 20
0.981642
 40
0.003
 41
0.003
 10
0.287
 20
0.95815
 40
0.003
 41
0.003
  0
LWPOLYLINE
  5
BF
100
AcDbEntity
  8
0
 62
     0
100
AcDbPolyline
 90
        2
 70
     0
 39
0.003
 10
0.287
 20
0.95815
 40
0.003
 41
0.003
 10
0.293598
 20
0.93635
 40
0.003
 41
0.003
  0
LWPOLYLINE
  5
C0
100
AcDbEntity
  8
0
 62
     0
100
AcDbPolyline
 90
        2
 70
     0
 39
0.003
 10
0.293598
 20
0.93635
 40
0.003
 41
0.003
 10
0.300898
 20
0.916169
 40
0.003
 41
0.003
  0
LWPOLYLINE
  5
C1
100
AcDbEntity
  8
0
 62
     0
100
AcDbPolyline
 90
        2
 70
     0
 39
0.003
 10
0.300898
 20
0.916169
 40
0.003
 41
0.003
 10
0.308827
 20
0.897563
 40
0.003
 41
0.003
  0
LWPOLYLINE
  5
C2
100
AcDbEntity
  8
0
 62
     0
100
AcDbPolyline
 90
        2
 70
     0
 39
0.003
 10
0.308827
 20
0.897563
 40
0.003
 41
0.003
 10
0.317346
 20
0.880457
 40
0.003
 41
0.003
  0
LWPOLYLINE
  5
C3
100
AcDbEntity
  8
0
 62
     0
100
AcDbPolyline
 90
        2
 70
     0
 39
0.003
 10
0.317346
 20
0.880457
 40
0.003
 41
0.003
 10
0.32639
 20
0.864799
 40
0.003
 41
0.003
  0
LWPOLYLINE
  5
C4
100
AcDbEntity
  8
0
 62
     0
100
AcDbPolyline
 90
        2
 70
     0
 39
0.003
 10
0.32639
 20
0.864799
 40
0.003
 41
0.003
 10
0.335917
 20
0.850512
 40
0.003
 41
0.003
  0
LWPOLYLINE
  5
C5
100
AcDbEntity
  8
0
 62
     0
100
AcDbPolyline
 90
        2
 70
     0
 39
0.003
 10
0.335917
 20
0.850512
 40
0.003
 41
0.003
 10
0.345866
 20
0.837551
 40
0.003
 41
0.003
  0
LWPOLYLINE
  5
C6
100
AcDbEntity
  8
0
 62
     0
100
AcDbPolyline
 90
        2
 70
     0
 39
0.003
 10
0.345866
 20
0.837551
 40
0.003
 41
0.003
 10
0.356193
 20
0.825846
 40
0.003
 41
0.003
  0
LWPOLYLINE
  5
C7
100
AcDbEntity
  8
0
 62
     0
100
AcDbPolyline
 90
        2
 70
     0
 39
0.003
 10
0.356193
 20
0.825846
 40
0.003
 41
0.003
 10
0.366831
 20
0.815343
 40
0.003
 41
0.003
  0
LWPOLYLINE
  5
C8
100
AcDbEntity
  8
0
 62
     0
100
AcDbPolyline
 90
        2
 70
     0
 39
0.003
 10
0.366831
 20
0.815343
 40
0.003
 41
0.003
 10
0.377748
 20
0.805965
 40
0.003
 41
0.003
  0
LWPOLYLINE
  5
C9
100
AcDbEntity
  8
0
 62
     0
100
AcDbPolyline
 90
        2
 70
     0
 39
0.003
 10
0.377748
 20
0.805965
 40
0.003
 41
0.003
 10
0.38887
 20
0.797661
 40
0.003
 41
0.003
  0
LWPOLYLINE
  5
CA
100
AcDbEntity
  8
0
 62
     0
100
AcDbPolyline
 90
        2
 70
     0
 39
0.003
 10
0.38887
 20
0.797661
 40
0.003
 41
0.003
 10
0.400154
 20
0.79037
 40
0.003
 41
0.003
  0
LWPOLYLINE
  5
CB
100
AcDbEntity
  8
0
 62
     0
100
AcDbPolyline
 90
        2
 70
     0
 39
0.003
 10
0.400154
 20
0.79037
 40
0.003
 41
0.003
 10
0.411539
 20
0.784031
 40
0.003
 41
0.003
  0
LWPOLYLINE
  5
CC
100
AcDbEntity
  8
0
 62
     0
100
AcDbPolyline
 90
        2
 70
     0
 39
0.003
 10
0.411539
 20
0.784031
 40
0.003
 41
0.003
 10
0.422988
 20
0.778575
 40
0.003
 41
0.003
  0
LWPOLYLINE
  5
CD
100
AcDbEntity
  8
0
 62
     0
100
AcDbPolyline
 90
        2
 70
     0
 39
0.003
 10
0.422988
 20
0.778575
 40
0.003
 41
0.003
 10
0.434433
 20
0.773945
 40
0.003
 41
0.003
  0
LWPOLYLINE
  5
CE
100
AcDbEntity
  8
0
 62
     0
100
AcDbPolyline
 90
        2
 70
     0
 39
0.003
 10
0.434433
 20
0.773945
 40
0.003
 41
0.003
 10
0.445827
 20
0.770079
 40
0.003
 41
0.003
  0
LWPOLYLINE
  5
CF
100
AcDbEntity
  8
0
 62
     0
100
AcDbPolyline
 90
        2
 70
     0
 39
0.003
 10
0.445827
 20
0.770079
 40
0.003
 41
0.003
 10
0.45711
 20
0.766925
 40
0.003
 41
0.003
  0
LWPOLYLINE
  5
D0
100
AcDbEntity
  8
0
 62
     0
100
AcDbPolyline
 90
        2
 70
     0
 39
0.003
 10
0.45711
 20
0.766925
 40
0.003
 41
0.003
 10
0.468248
 20
0.764398
 40
0.003
 41
0.003
  0
LWPOLYLINE
  5
D1
100
AcDbEntity
  8
0
 62
     0
100
AcDbPolyline
 90
        2
 70
     0
 39
0.003
 10
0.468248
 20
0.764398
 40
0.003
 41
0.003
 10
0.479165
 20
0.762457
 40
0.003
 41
0.003
  0
LWPOLYLINE
  5
D2
100
AcDbEntity
  8
0
 62
     0
100
AcDbPolyline
 90
        2
 70
     0
 39
0.003
 10
0.479165
 20
0.762457
 40
0.003
 41
0.003
 10
0.489823
 20
0.761031
 40
0.003
 41
0.003
  0
LWPOLYLINE
  5
D3
100
AcDbEntity
  8
0
 62
     0
100
AcDbPolyline
 90
        2
 70
     0
 39
0.003
 10
0.489823
 20
0.761031
 40
0.003
 41
0.003
 10
0.500157
 20
0.760067
 40
0.003
 41
0.003
  0
LWPOLYLINE
  5
D4
100
AcDbEntity
  8
0
 62
     0
100
AcDbPolyline
 90
        2
 70
     0
 39
0.003
 10
0.500157
 20
0.760067
 40
0.003
 41
0.003
 10
0.51013
 20
0.759488
 40
0.003
 41
0.003
  0
LWPOLYLINE
  5
D5
100
AcDbEntity
  8
0
 62
     0
100
AcDbPolyline
 90
        2
 70
     0
 39
0.003
 10
0.51013
 20
0.759488
 40
0.003
 41
0.003
 10
0.519673
 20
0.759252
 40
0.003
 41
0.003
  0
LWPOLYLINE
  5
D6
100
AcDbEntity
  8
0
 62
     0
100
AcDbPolyline
 90
        2
 70
     0
 39
0.003
 10
0.519673
 20
0.759252
 40
0.003
 41
0.003
 10
0.52874
 20
0.75928
 40
0.003
 41
0.003
  0
LWPOLYLINE
  5
D7
100
AcDbEntity
  8
0
 62
     0
100
AcDbPolyline
 90
        2
 70
     0
 39
0.003
 10
0.52874
 20
0.75928
 40
0.003
 41
0.003
 10
0.537276
 20
0.759524
 40
0.003
 41
0.003
  0
LWPOLYLINE
  5
D8
100
AcDbEntity
  8
0
 62
     0
100
AcDbPolyline
 90
        2
 70
     0
 39
0.003
 10
0.537276
 20
0.759524
 40
0.003
 41
0.003
 10
-0.113921
 20
0.373378
 40
0.003
 41
0.003
  0
LWPOLYLINE
  5
D9
100
AcDbEntity
  8
0
 62
     0
100
AcDbPolyline
 90
        2
 70
     0
 39
0.003
 10
-0.113921
 20
0.373378
 40
0.003
 41
0.003
 10
-0.122457
 20
0.373134
 40
0.003
 41
0.003
  0
LWPOLYLINE
  5
DA
100
AcDbEntity
  8
0
 62
     0
100
AcDbPolyline
 90
        2
 70
     0
 39
0.003
 10
-0.122457
 20
0.373134
 40
0.003
 41
0.003
 10
-0.131524
 20
0.373106
 40
0.003
 41
0.003
  0
LWPOLYLINE
  5
DB
100
AcDbEntity
  8
0
 62
     0
100
AcDbPolyline
 90
        2
 70
     0
 39
0.003
 10
-0.131524
 20
0.373106
 40
0.003
 41
0.003
 10
-0.141067
 20
0.373343
 40
0.003
 41
0.003
  0
LWPOLYLINE
  5
DC
100
AcDbEntity
  8
0
 62
     0
100
AcDbPolyline
 90
        2
 70
     0
 39
0.003
 10
-0.141067
 20
0.373343
 40
0.003
 41
0.003
 10
-0.151039
 20
0.373921
 40
0.003
 41
0.003
  0
LWPOLYLINE
  5
DD
100
AcDbEntity
  8
0
 62
     0
100
AcDbPolyline
 90
        2
 70
     0
 39
0.003
 10
-0.151039
 20
0.373921
 40
0.003
 41
0.003
 10
-0.161374
 20
0.374886
 40
0.003
 41
0.003
  0
LWPOLYLINE
  5
DE
100
AcDbEntity
  8
0
 62
     0
100
AcDbPolyline
 90
        2
 70
     0
 39
0.003
 10
-0.161374
 20
0.374886
 40
0.003
 41
0.003
 10
-0.172031
 20
0.376311
 40
0.003
 41
0.003
  0
LWPOLYLINE
  5
DF
100
AcDbEntity
  8
0
 62
     0
100
AcDbPolyline
 90
        2
 70
     0
 39
0.003
 10
-0.172031
 20
0.376311
 40
0.003
 41
0.003
 10
-0.182949
 20
0.378252
 40
0.003
 41
0.003
  0
LWPOLYLINE
  5
E0
100
AcDbEntity
  8
0
 62
     0
100
AcDbPolyline
 90
        2
 70
     0
 39
0.003
 10
-0.182949
 20
0.378252
 40
0.003
 41
0.003
 10
-0.194087
 20
0.38078
 40
0.003
 41
0.003
  0
LWPOLYLINE
  5
E1
100
AcDbEntity
  8
0
 62
     0
100
AcDbPolyline
 90
        2
 70
     0
 39
0.003
 10
-0.194087
 20
0.38078
 40
0.003
 41
0.003
 10
-0.20537
 20
0.383933
 40
0.003
 41
0.003
  0
LWPOLYLINE
  5
E2
100
AcDbEntity
  8
0
 62
     0
100
AcDbPolyline
 90
        2
 70
     0
 39
0.003
 10
-0.20537
 20
0.383933
 40
0.003
 41
0.003
 10
-0.216764
 20
0.387799
 40
0.003
 41
0.003
  0
LWPOLYLINE
  5
E3
100
AcDbEntity
  8
0
 62
     0
100
AcDbPolyline
 90
        2
 70
     0
 39
0.003
 10
-0.216764
 20
0.387799
 40
0.003
 41
0.003
 10
-0.228209
 20
0.392429
 40
0.003
 41
0.003
  0
LWPOLYLINE
  5
E4
100
AcDbEntity
  8
0
 62
     0
100
AcDbPolyline
 90
        2
 70
     0
 39
0.003
 10
-0.228209
 20
0.392429
 40
0.003
 41
0.003
 10
-0.239657
 20
0.397886
 40
0.003
 41
0.003
  0
LWPOLYLINE
  5
E5
100
AcDbEntity
  8
0
 62
     0
100
AcDbPolyline
 90
        2
 70
     0
 39
0.003
 10
-0.239657
 20
0.397886
 40
0.003
 41
0.003
 10
-0.251043
 20
0.404224
 40
0.003
 41
0.003
  0
LWPOLYLINE
  5
E6
100
AcDbEntity
  8
0
 62
     0
100
AcDbPolyline
 90
        2
 70
     0
 39
0.003
 10
-0.251043
 20
0.404224
 40
0.003
 41
0.003
 10
-0.262327
 20
0.411516
 40
0.003
 41
0.003
  0
LWPOLYLINE
  5
E7
100
AcDbEntity
  8
0
 62
     0
100
AcDbPolyline
 90
        2
 70
     0
 39
0.003
 10
-0.262327
 20
0.411516
 40
0.003
 41
0.003
 10
-0.273449
 20
0.419819
 40
0.003
 41
0.003
  0
LWPOLYLINE
  5
E8
100
AcDbEntity
  8
0
 62
     0
100
AcDbPolyline
 90
        2
 70
     0
 39
0.003
 10
-0.273449
 20
0.419819
 40
0.003
 41
0.003
 10
-0.284366
 20
0.429197
 40
0.003
 41
0.003
  0
LWPOLYLINE
  5
E9
100
AcDbEntity
  8
0
 62
     0
100
AcDbPolyline
 90
        2
 70
     0
 39
0.003
 10
-0.284366
 20
0.429197
 40
0.003
 41
0.003
 10
-0.295004
 20
0.439701
 40
0.003
 41
0.003
  0
LWPOLYLINE
  5
EA
100
AcDbEntity
  8
0
 62
     0
100
AcDbPolyline
 90
        2
 70
     0
 39
0.003
 10
-0.295004
 20
0.439701
 40
0.003
 41
0.003
 10
-0.305331
 20
0.451406
 40
0.003
 41
0.003
  0
LWPOLYLINE
  5
EB
100
AcDbEntity
  8
0
 62
     0
100
AcDbPolyline
 90
        2
 70
     0
 39
0.003
 10
-0.305331
 20
0.451406
 40
0.003
 41
0.003
 10
-0.31528
 20
0.464366
 40
0.003
 41
0.003
  0
LWPOLYLINE
  5
EC
100
AcDbEntity
  8
0
 62
     0
100
AcDbPolyline
 90
        2
 70
     0
 39
0.003
 10
-0.31528
 20
0.464366
 40
0.003
 41
0.003
 10
-0.324807
 20
0.478654
 40
0.003
 41
0.003
  0
LWPOLYLINE
  5
ED
100
AcDbEntity
  8
0
 62
     0
100
AcDbPolyline
 90
        2
 70
     0
 39
0.003
 10
-0.324807
 20
0.478654
 40
0.003
 41
0.003
 10
-0.33385
 20
0.494311
 40
0.003
 41
0.003
  0
LWPOLYLINE
  5
EE
100
AcDbEntity
  8
0
 62
     0
100
AcDbPolyline
 90
        2
 70
     0
 39
0.003
 10
-0.33385
 20
0.494311
 40
0.003
 41
0.003
 10
-0.34237
 20
0.511417
 40
0.003
 41
0.003
  0
LWPOLYLINE
  5
EF
100
AcDbEntity
  8
0
 62
     0
100
AcDbPolyline
 90
        2
 70
     0
 39
0.003
 10
-0.34237
 20
0.511417
 40
0.003
 41
0.003
 10
-0.350299
 20
0.530024
 40
0.003
 41
0.003
  0
LWPOLYLINE
  5
F0
100
AcDbEntity
  8
0
 62
     0
100
AcDbPolyline
 90
        2
 70
     0
 39
0.003
 10
-0.350299
 20
0.530024
 40
0.003
 41
0.003
 10
-0.357598
 20
0.550205
 40
0.003
 41
0.003
  0
LWPOLYLINE
  5
F1
100
AcDbEntity
  8
0
 62
     0
100
AcDbPolyline
 90
        2
 70
     0
 39
0.003
 10
-0.357598
 20
0.550205
 40
0.003
 41
0.003
 10
-0.364197
 20
0.572004
 40
0.003
 41
0.003
  0
LWPOLYLINE
  5
F2
100
AcDbEntity
  8
0
 62
     0
100
AcDbPolyline
 90
        2
 70
     0
 39
0.003
 10
-0.364197
 20
0.572004
 40
0.003
 41
0.003
 10
-0.370059
 20
0.595496
 40
0.003
 41
0.003
  0
LWPOLYLINE
  5
F3
100
AcDbEntity
  8
0
 62
     0
100
AcDbPolyline
 90
        2
 70
     0
 39
0.003
 10
-0.370059
 20
0.595496
 40
0.003
 41
0.003
 10
-0.375118
 20
0.620736
 40
0.003
 41
0.003
  0
LWPOLYLINE
  5
F4
100
AcDbEntity
  8
0
 62
     0
100
AcDbPolyline
 90
        2
 70
     0
 39
0.003
 10
-0.375118
 20
0.620736
 40
0.003
 41
0.003
 10
-0.379339
 20
0.647799
 40
0.003
 41
0.003
  0
LWPOLYLINE
  5
F5
100
AcDbEntity
  8
0
 62
     0
100
AcDbPolyline
 90
        2
 70
     0
 39
0.003
 10
-0.379339
 20
0.647799
 40
0.003
 41
0.003
 10
-0.38265
 20
0.676724
 40
0.003
 41
0.003
  0
LWPOLYLINE
  5
F6
100
AcDbEntity
  8
0
 62
     0
100
AcDbPolyline
 90
        2
 70
     0
 39
0.003
 10
-0.38265
 20
0.676724
 40
0.003
 41
0.003
 10
-0.385008
 20
0.707594
 40
0.003
 41
0.003
  0
LWPOLYLINE
  5
F7
100
AcDbEntity
  8
0
 62
     0
100
AcDbPolyline
 90
        2
 70
     0
 39
0.003
 10
-0.385008
 20
0.707594
 40
0.003
 41
0.003
 10
-0.386358
 20
0.740461
 40
0.003
 41
0.003
  0
LWPOLYLINE
  5
F8
100
AcDbEntity
  8
0
 62
     0
100
AcDbPolyline
 90
        2
 70
     0
 39
0.003
 10
-0.386358
 20
0.740461
 40
0.003
 41
0.003
 10
-0.38665
 20
0.77539
 40
0.003
 41
0.003
  0
LWPOLYLINE
  5
F9
100
AcDbEntity
  8
0
 62
     9
100
AcDbPolyline
 90
        2
 70
     0
 39
0.003
 10
-0.434764
 20
1.144071
 40
0.003
 41
0.003
 10
0.216433
 20
1.530217
 40
0.003
 41
0.003
  0
LWPOLYLINE
  5
FA
100
AcDbEntity
  8
0
 62
     9
100
AcDbPolyline
 90
        2
 70
     0
 39
0.003
 10
0.216433
 20
1.530217
 40
0.003
 41
0.003
 10
0.243783
 20
1.527161
 40
0.003
 41
0.003
  0
LWPOLYLINE
  5
FB
100
AcDbEntity
  8
0
 62
     9
100
AcDbPolyline
 90
        2
 70
     0
 39
0.003
 10
0.243783
 20
1.527161
 40
0.003
 41
0.003
 10
-0.407413
 20
1.141016
 40
0.003
 41
0.003
  0
LWPOLYLINE
  5
FC
100
AcDbEntity
  8
0
 62
     9
100
AcDbPolyline
 90
        2
 70
     0
 39
0.003
 10
-0.407413
 20
1.141016
 40
0.003
 41
0.003
 10
-0.434764
 20
1.144071
 40
0.003
 41
0.003
  0
LWPOLYLINE
  5
FD
100
AcDbEntity
  8
0
 62
     9
100
AcDbPolyline
 90
        2
 70
     0
 39
0.003
 10
-0.407413
 20
1.141016
 40
0.003
 41
0.003
 10
0.243783
 20
1.527161
 40
0.003
 41
0.003
  0
LWPOLYLINE
  5
FE
100
AcDbEntity
  8
0
 62
     9
100
AcDbPolyline
 90
        2
 70
     0
 39
0.003
 10
0.243783
 20
1.527161
 40
0.003
 41
0.003
 10
0.269272
 20
1.522492
 40
0.003
 41
0.003
  0
LWPOLYLINE
  5
FF
100
AcDbEntity
  8
0
 62
     9
100
AcDbPolyline
 90
        2
 70
     0
 39
0.003
 10
0.269272
 20
1.522492
 40
0.003
 41
0.003
 10
-0.381925
 20
1.136346
 40
0.003
 41
0.003
  0
LWPOLYLINE
  5
100
100
AcDbEntity
  8
0
 62
     9
100
AcDbPolyline
 90
        2
 70
     0
 39
0.003
 10
-0.381925
 20
1.136346
 40
0.003
 41
0.003
 10
-0.407413
 20
1.141016
 40
0.003
 41
0.003
  0
LWPOLYLINE
  5
101
100
AcDbEntity
  8
0
 62
     9
100
AcDbPolyline
 90
        2
 70
     0
 39
0.003
 10
-0.381925
 20
1.136346
 40
0.003
 41
0.003
 10
0.269272
 20
1.522492
 40
0.003
 41
0.003
  0
LWPOLYLINE
  5
102
100
AcDbEntity
  8
0
 62
     9
100
AcDbPolyline
 90
        2
 70
     0
 39
0.003
 10
0.269272
 20
1.522492
 40
0.003
 41
0.003
 10
0.292925
 20
1.516303
 40
0.003
 41
0.003
  0
LWPOLYLINE
  5
103
100
AcDbEntity
  8
0
 62
     9
100
AcDbPolyline
 90
        2
 70
     0
 39
0.003
 10
0.292925
 20
1.516303
 40
0.003
 41
0.003
 10
-0.358272
 20
1.130157
 40
0.003
 41
0.003
  0
LWPOLYLINE
  5
104
100
AcDbEntity
  8
0
 62
     9
100
AcDbPolyline
 90
        2
 70
     0
 39
0.003
 10
-0.358272
 20
1.130157
 40
0.003
 41
0.003
 10
-0.381925
 20
1.136346
 40
0.003
 41
0.003
  0
LWPOLYLINE
  5
105
100
AcDbEntity
  8
0
 62
     9
100
AcDbPolyline
 90
        2
 70
     0
 39
0.003
 10
-0.358272
 20
1.130157
 40
0.003
 41
0.003
 10
0.292925
 20
1.516303
 40
0.003
 41
0.003
  0
LWPOLYLINE
  5
106
100
AcDbEntity
  8
0
 62
     9
100
AcDbPolyline
 90
        2
 70
     0
 39
0.003
 10
0.292925
 20
1.516303
 40
0.003
 41
0.003
 10
0.314756
 20
1.508709
 40
0.003
 41
0.003
  0
LWPOLYLINE
  5
107
100
AcDbEntity
  8
0
 62
     9
100
AcDbPolyline
 90
        2
 70
     0
 39
0.003
 10
0.314756
 20
1.508709
 40
0.003
 41
0.003
 10
-0.336441
 20
1.122563
 40
0.003
 41
0.003
  0
LWPOLYLINE
  5
108
100
AcDbEntity
  8
0
 62
     9
100
AcDbPolyline
 90
        2
 70
     0
 39
0.003
 10
-0.336441
 20
1.122563
 40
0.003
 41
0.003
 10
-0.358272
 20
1.130157
 40
0.003
 41
0.003
  0
LWPOLYLINE
  5
109
100
AcDbEntity
  8
0
 62
     9
100
AcDbPolyline
 90
        2
 70
     0
 39
0.003
 10
-0.336441
 20
1.122563
 40
0.003
 41
0.003
 10
0.314756
 20
1.508709
 40
0.003
 41
0.003
  0
LWPOLYLINE
  5
10A
100
AcDbEntity
  8
0
 62
     9
100
AcDbPolyline
 90
        2
 70
     0
 39
0.003
 10
0.314756
 20
1.508709
 40
0.003
 41
0.003
 10
0.334791
 20
1.499807
 40
0.003
 41
0.003
  0
LWPOLYLINE
  5
10B
100
AcDbEntity
  8
0
 62
     9
100
AcDbPolyline
 90
        2
 70
     0
 39
0.003
 10
0.334791
 20
1.499807
 40
0.003
 41
0.003
 10
-0.316406
 20
1.113661
 40
0.003
 41
0.003
  0
LWPOLYLINE
  5
10C
100
AcDbEntity
  8
0
 62
     9
100
AcDbPolyline
 90
        2
 70
     0
 39
0.003
 10
-0.316406
 20
1.113661
 40
0.003
 41
0.003
 10
-0.336441
 20
1.122563
 40
0.003
 41
0.003
  0
LWPOLYLINE
  5
10D
100
AcDbEntity
  8
0
 62
   254
100
AcDbPolyline
 90
        2
 70
     0
 39
0.003
 10
-0.316406
 20
1.113661
 40
0.003
 41
0.003
 10
0.334791
 20
1.499807
 40
0.003
 41
0.003
  0
LWPOLYLINE
  5
10E
100
AcDbEntity
  8
0
 62
   254
100
AcDbPolyline
 90
        2
 70
     0
 39
0.003
 10
0.334791
 20
1.499807
 40
0.003
 41
0.003
 10
0.353039
 20
1.489717
 40
0.003
 41
0.003
  0
LWPOLYLINE
  5
10F
100
AcDbEntity
  8
0
 62
   254
100
AcDbPolyline
 90
        2
 70
     0
 39
0.003
 10
0.353039
 20
1.489717
 40
0.003
 41
0.003
 10
-0.298157
 20
1.103571
 40
0.003
 41
0.003
  0
LWPOLYLINE
  5
110
100
AcDbEntity
  8
0
 62
   254
100
AcDbPolyline
 90
        2
 70
     0
 39
0.003
 10
-0.298157
 20
1.103571
 40
0.003
 41
0.003
 10
-0.316406
 20
1.113661
 40
0.003
 41
0.003
  0
LWPOLYLINE
  5
111
100
AcDbEntity
  8
0
 62
   254
100
AcDbPolyline
 90
        2
 70
     0
 39
0.003
 10
-0.298157
 20
1.103571
 40
0.003
 41
0.003
 10
0.353039
 20
1.489717
 40
0.003
 41
0.003
  0
LWPOLYLINE
  5
112
100
AcDbEntity
  8
0
 62
   254
100
AcDbPolyline
 90
        2
 70
     0
 39
0.003
 10
0.353039
 20
1.489717
 40
0.003
 41
0.003
 10
0.369528
 20
1.478539
 40
0.003
 41
0.003
  0
LWPOLYLINE
  5
113
100
AcDbEntity
  8
0
 62
   254
100
AcDbPolyline
 90
        2
 70
     0
 39
0.003
 10
0.369528
 20
1.478539
 40
0.003
 41
0.003
 10
-0.281669
 20
1.092394
 40
0.003
 41
0.003
  0
LWPOLYLINE
  5
114
100
AcDbEntity
  8
0
 62
   254
100
AcDbPolyline
 90
        2
 70
     0
 39
0.003
 10
-0.281669
 20
1.092394
 40
0.003
 41
0.003
 10
-0.298157
 20
1.103571
 40
0.003
 41
0.003
  0
LWPOLYLINE
  5
115
100
AcDbEntity
  8
0
 62
   254
100
AcDbPolyline
 90
        2
 70
     0
 39
0.003
 10
-0.281669
 20
1.092394
 40
0.003
 41
0.003
 10
0.369528
 20
1.478539
 40
0.003
 41
0.003
  0
LWPOLYLINE
  5
116
100
AcDbEntity
  8
0
 62
   254
100
AcDbPolyline
 90
        2
 70
     0
 39
0.003
 10
0.369528
 20
1.478539
 40
0.003
 41
0.003
 10
0.384268
 20
1.466394
 40
0.003
 41
0.003
  0
LWPOLYLINE
  5
117
100
AcDbEntity
  8
0
 62
   254
100
AcDbPolyline
 90
        2
 70
     0
 39
0.003
 10
0.384268
 20
1.466394
 40
0.003
 41
0.003
 10
-0.266929
 20
1.080248
 40
0.003
 41
0.003
  0
LWPOLYLINE
  5
118
100
AcDbEntity
  8
0
 62
   254
100
AcDbPolyline
 90
        2
 70
     0
 39
0.003
 10
-0.266929
 20
1.080248
 40
0.003
 41
0.003
 10
-0.281669
 20
1.092394
 40
0.003
 41
0.003
  0
LWPOLYLINE
  5
119
100
AcDbEntity
  8
0
 62
   254
100
AcDbPolyline
 90
        2
 70
     0
 39
0.003
 10
-0.266929
 20
1.080248
 40
0.003
 41
0.003
 10
0.384268
 20
1.466394
 40
0.003
 41
0.003
  0
LWPOLYLINE
  5
11A
100
AcDbEntity
  8
0
 62
   254
100
AcDbPolyline
 90
        2
 70
     0
 39
0.003
 10
0.384268
 20
1.466394
 40
0.003
 41
0.003
 10
0.397295
 20
1.453362
 40
0.003
 41
0.003
  0
LWPOLYLINE
  5
11B
100
AcDbEntity
  8
0
 62
   254
100
AcDbPolyline
 90
        2
 70
     0
 39
0.003
 10
0.397295
 20
1.453362
 40
0.003
 41
0.003
 10
-0.253902
 20
1.067217
 40
0.003
 41
0.003
  0
LWPOLYLINE
  5
11C
100
AcDbEntity
  8
0
 62
   254
100
AcDbPolyline
 90
        2
 70
     0
 39
0.003
 10
-0.253902
 20
1.067217
 40
0.003
 41
0.003
 10
-0.266929
 20
1.080248
 40
0.003
 41
0.003
  0
LWPOLYLINE
  5
11D
100
AcDbEntity
  8
0
 62
   254
100
AcDbPolyline
 90
        2
 70
     0
 39
0.003
 10
-0.253902
 20
1.067217
 40
0.003
 41
0.003
 10
0.397295
 20
1.453362
 40
0.003
 41
0.003
  0
LWPOLYLINE
  5
11E
100
AcDbEntity
  8
0
 62
   254
100
AcDbPolyline
 90
        2
 70
     0
 39
0.003
 10
0.397295
 20
1.453362
 40
0.003
 41
0.003
 10
0.40861
 20
1.439579
 40
0.003
 41
0.003
  0
LWPOLYLINE
  5
11F
100
AcDbEntity
  8
0
 62
   254
100
AcDbPolyline
 90
        2
 70
     0
 39
0.003
 10
0.40861
 20
1.439579
 40
0.003
 41
0.003
 10
-0.242587
 20
1.053433
 40
0.003
 41
0.003
  0
LWPOLYLINE
  5
120
100
AcDbEntity
  8
0
 62
   254
100
AcDbPolyline
 90
        2
 70
     0
 39
0.003
 10
-0.242587
 20
1.053433
 40
0.003
 41
0.003
 10
-0.253902
 20
1.067217
 40
0.003
 41
0.003
  0
LWPOLYLINE
  5
121
100
AcDbEntity
  8
0
 62
   254
100
AcDbPolyline
 90
        2
 70
     0
 39
0.003
 10
-0.242587
 20
1.053433
 40
0.003
 41
0.003
 10
0.40861
 20
1.439579
 40
0.003
 41
0.003
  0
LWPOLYLINE
  5
122
100
AcDbEntity
  8
0
 62
   254
100
AcDbPolyline
 90
        2
 70
     0
 39
0.003
 10
0.40861
 20
1.439579
 40
0.003
 41
0.003
 10
0.41824
 20
1.425138
 40
0.003
 41
0.003
  0
LWPOLYLINE
  5
123
100
AcDbEntity
  8
0
 62
   254
100
AcDbPolyline
 90
        2
 70
     0
 39
0.003
 10
0.41824
 20
1.425138
 40
0.003
 41
0.003
 10
-0.232957
 20
1.038992
 40
0.003
 41
0.003
  0
LWPOLYLINE
  5
124
100
AcDbEntity
  8
0
 62
   254
100
AcDbPolyline
 90
        2
 70
     0
 39
0.003
 10
-0.232957
 20
1.038992
 40
0.003
 41
0.003
 10
-0.242587
 20
1.053433
 40
0.003
 41
0.003
  0
LWPOLYLINE
  5
125
100
AcDbEntity
  8
0
 62
   254
100
AcDbPolyline
 90
        2
 70
     0
 39
0.003
 10
-0.232957
 20
1.038992
 40
0.003
 41
0.003
 10
0.41824
 20
1.425138
 40
0.003
 41
0.003
  0
LWPOLYLINE
  5
126
100
AcDbEntity
  8
0
 62
   254
100
AcDbPolyline
 90
        2
 70
     0
 39
0.003
 10
0.41824
 20
1.425138
 40
0.003
 41
0.003
 10
0.426197
 20
1.410154
 40
0.003
 41
0.003
  0
LWPOLYLINE
  5
127
100
AcDbEntity
  8
0
 62
   254
100
AcDbPolyline
 90
        2
 70
     0
 39
0.003
 10
0.426197
 20
1.410154
 40
0.003
 41
0.003
 10
-0.225
 20
1.024008
 40
0.003
 41
0.003
  0
LWPOLYLINE
  5
128
100
AcDbEntity
  8
0
 62
   254
100
AcDbPolyline
 90
        2
 70
     0
 39
0.003
 10
-0.225
 20
1.024008
 40
0.003
 41
0.003
 10
-0.232957
 20
1.038992
 40
0.003
 41
0.003
  0
LWPOLYLINE
  5
129
100
AcDbEntity
  8
0
 62
   254
100
AcDbPolyline
 90
        2
 70
     0
 39
0.003
 10
-0.225
 20
1.024008
 40
0.003
 41
0.003
 10
0.426197
 20
1.410154
 40
0.003
 41
0.003
  0
LWPOLYLINE
  5
12A
100
AcDbEntity
  8
0
 62
   254
100
AcDbPolyline
 90
        2
 70
     0
 39
0.003
 10
0.426197
 20
1.410154
 40
0.003
 41
0.003
 10
0.432516
 20
1.394724
 40
0.003
 41
0.003
  0
LWPOLYLINE
  5
12B
100
AcDbEntity
  8
0
 62
   254
100
AcDbPolyline
 90
        2
 70
     0
 39
0.003
 10
0.432516
 20
1.394724
 40
0.003
 41
0.003
 10
-0.218681
 20
1.008579
 40
0.003
 41
0.003
  0
LWPOLYLINE
  5
12C
100
AcDbEntity
  8
0
 62
   254
100
AcDbPolyline
 90
        2
 70
     0
 39
0.003
 10
-0.218681
 20
1.008579
 40
0.003
 41
0.003
 10
-0.225
 20
1.024008
 40
0.003
 41
0.003
  0
LWPOLYLINE
  5
12D
100
AcDbEntity
  8
0
 62
   254
100
AcDbPolyline
 90
        2
 70
     0
 39
0.003
 10
-0.218681
 20
1.008579
 40
0.003
 41
0.003
 10
0.432516
 20
1.394724
 40
0.003
 41
0.003
  0
LWPOLYLINE
  5
12E
100
AcDbEntity
  8
0
 62
   254
100
AcDbPolyline
 90
        2
 70
     0
 39
0.003
 10
0.432516
 20
1.394724
 40
0.003
 41
0.003
 10
0.437197
 20
1.378969
 40
0.003
 41
0.003
  0
LWPOLYLINE
  5
12F
100
AcDbEntity
  8
0
 62
   254
100
AcDbPolyline
 90
        2
 70
     0
 39
0.003
 10
0.437197
 20
1.378969
 40
0.003
 41
0.003
 10
-0.214
 20
0.992823
 40
0.003
 41
0.003
  0
LWPOLYLINE
  5
130
100
AcDbEntity
  8
0
 62
   254
100
AcDbPolyline
 90
        2
 70
     0
 39
0.003
 10
-0.214
 20
0.992823
 40
0.003
 41
0.003
 10
-0.218681
 20
1.008579
 40
0.003
 41
0.003
  0
LWPOLYLINE
  5
131
100
AcDbEntity
  8
0
 62
   254
100
AcDbPolyline
 90
        2
 70
     0
 39
0.003
 10
-0.214
 20
0.992823
 40
0.003
 41
0.003
 10
0.437197
 20
1.378969
 40
0.003
 41
0.003
  0
LWPOLYLINE
  5
132
100
AcDbEntity
  8
0
 62
   254
100
AcDbPolyline
 90
        2
 70
     0
 39
0.003
 10
0.437197
 20
1.378969
 40
0.003
 41
0.003
 10
0.440272
 20
1.362984
 40
0.003
 41
0.003
  0
LWPOLYLINE
  5
133
100
AcDbEntity
  8
0
 62
   254
100
AcDbPolyline
 90
        2
 70
     0
 39
0.003
 10
0.440272
 20
1.362984
 40
0.003
 41
0.003
 10
-0.210925
 20
0.976839
 40
0.003
 41
0.003
  0
LWPOLYLINE
  5
134
100
AcDbEntity
  8
0
 62
   254
100
AcDbPolyline
 90
        2
 70
     0
 39
0.003
 10
-0.210925
 20
0.976839
 40
0.003
 41
0.003
 10
-0.214
 20
0.992823
 40
0.003
 41
0.003
  0
LWPOLYLINE
  5
135
100
AcDbEntity
  8
0
 62
   254
100
AcDbPolyline
 90
        2
 70
     0
 39
0.003
 10
-0.210925
 20
0.976839
 40
0.003
 41
0.003
 10
0.440272
 20
1.362984
 40
0.003
 41
0.003
  0
LWPOLYLINE
  5
136
100
AcDbEntity
  8
0
 62
   254
100
AcDbPolyline
 90
        2
 70
     0
 39
0.003
 10
0.440272
 20
1.362984
 40
0.003
 41
0.003
 10
0.441752
 20
1.346894
 40
0.003
 41
0.003
  0
LWPOLYLINE
  5
137
100
AcDbEntity
  8
0
 62
   254
100
AcDbPolyline
 90
        2
 70
     0
 39
0.003
 10
0.441752
 20
1.346894
 40
0.003
 41
0.003
 10
-0.209445
 20
0.960748
 40
0.003
 41
0.003
  0
LWPOLYLINE
  5
138
100
AcDbEntity
  8
0
 62
   254
100
AcDbPolyline
 90
        2
 70
     0
 39
0.003
 10
-0.209445
 20
0.960748
 40
0.003
 41
0.003
 10
-0.210925
 20
0.976839
 40
0.003
 41
0.003
  0
LWPOLYLINE
  5
139
100
AcDbEntity
  8
0
 62
   254
100
AcDbPolyline
 90
        2
 70
     0
 39
0.003
 10
-0.209445
 20
0.960748
 40
0.003
 41
0.003
 10
0.441752
 20
1.346894
 40
0.003
 41
0.003
  0
LWPOLYLINE
  5
13A
100
AcDbEntity
  8
0
 62
   254
100
AcDbPolyline
 90
        2
 70
     0
 39
0.003
 10
0.441752
 20
1.346894
 40
0.003
 41
0.003
 10
0.441669
 20
1.330783
 40
0.003
 41
0.003
  0
LWPOLYLINE
  5
13B
100
AcDbEntity
  8
0
 62
   254
100
AcDbPolyline
 90
        2
 70
     0
 39
0.003
 10
0.441669
 20
1.330783
 40
0.003
 41
0.003
 10
-0.209528
 20
0.944638
 40
0.003
 41
0.003
  0
LWPOLYLINE
  5
13C
100
AcDbEntity
  8
0
 62
   254
100
AcDbPolyline
 90
        2
 70
     0
 39
0.003
 10
-0.209528
 20
0.944638
 40
0.003
 41
0.003
 10
-0.209445
 20
0.960748
 40
0.003
 41
0.003
  0
LWPOLYLINE
  5
13D
100
AcDbEntity
  8
0
 62
   254
100
AcDbPolyline
 90
        2
 70
     0
 39
0.003
 10
-0.209528
 20
0.944638
 40
0.003
 41
0.003
 10
0.441669
 20
1.330783
 40
0.003
 41
0.003
  0
LWPOLYLINE
  5
13E
100
AcDbEntity
  8
0
 62
   254
100
AcDbPolyline
 90
        2
 70
     0
 39
0.003
 10
0.441669
 20
1.330783
 40
0.003
 41
0.003
 10
0.440024
 20
1.31478
 40
0.003
 41
0.003
  0
LWPOLYLINE
  5
13F
100
AcDbEntity
  8
0
 62
   254
100
AcDbPolyline
 90
        2
 70
     0
 39
0.003
 10
0.440024
 20
1.31478
 40
0.003
 41
0.003
 10
-0.211173
 20
0.928634
 40
0.003
 41
0.003
  0
LWPOLYLINE
  5
140
100
AcDbEntity
  8
0
 62
   254
100
AcDbPolyline
 90
        2
 70
     0
 39
0.003
 10
-0.211173
 20
0.928634
 40
0.003
 41
0.003
 10
-0.209528
 20
0.944638
 40
0.003
 41
0.003
  0
LWPOLYLINE
  5
141
100
AcDbEntity
  8
0
 62
   254
100
AcDbPolyline
 90
        2
 70
     0
 39
0.003
 10
-0.211173
 20
0.928634
 40
0.003
 41
0.003
 10
0.440024
 20
1.31478
 40
0.003
 41
0.003
  0
LWPOLYLINE
  5
142
100
AcDbEntity
  8
0
 62
   254
100
AcDbPolyline
 90
        2
 70
     0
 39
0.003
 10
0.440024
 20
1.31478
 40
0.003
 41
0.003
 10
0.43685
 20
1.29898
 40
0.003
 41
0.003
  0
LWPOLYLINE
  5
143
100
AcDbEntity
  8
0
 62
   254
100
AcDbPolyline
 90
        2
 70
     0
 39
0.003
 10
0.43685
 20
1.29898
 40
0.003
 41
0.003
 10
-0.214346
 20
0.912835
 40
0.003
 41
0.003
  0
LWPOLYLINE
  5
144
100
AcDbEntity
  8
0
 62
   254
100
AcDbPolyline
 90
        2
 70
     0
 39
0.003
 10
-0.214346
 20
0.912835
 40
0.003
 41
0.003
 10
-0.211173
 20
0.928634
 40
0.003
 41
0.003
  0
LWPOLYLINE
  5
145
100
AcDbEntity
  8
0
 62
   254
100
AcDbPolyline
 90
        2
 70
     0
 39
0.003
 10
-0.214346
 20
0.912835
 40
0.003
 41
0.003
 10
0.43685
 20
1.29898
 40
0.003
 41
0.003
  0
LWPOLYLINE
  5
146
100
AcDbEntity
  8
0
 62
   254
100
AcDbPolyline
 90
        2
 70
     0
 39
0.003
 10
0.43685
 20
1.29898
 40
0.003
 41
0.003
 10
0.432154
 20
1.2835
 40
0.003
 41
0.003
  0
LWPOLYLINE
  5
147
100
AcDbEntity
  8
0
 62
   254
100
AcDbPolyline
 90
        2
 70
     0
 39
0.003
 10
0.432154
 20
1.2835
 40
0.003
 41
0.003
 10
-0.219043
 20
0.897354
 40
0.003
 41
0.003
  0
LWPOLYLINE
  5
148
100
AcDbEntity
  8
0
 62
   254
100
AcDbPolyline
 90
        2
 70
     0
 39
0.003
 10
-0.219043
 20
0.897354
 40
0.003
 41
0.003
 10
-0.214346
 20
0.912835
 40
0.003
 41
0.003
  0
LWPOLYLINE
  5
149
100
AcDbEntity
  8
0
 62
   254
100
AcDbPolyline
 90
        2
 70
     0
 39
0.003
 10
-0.219043
 20
0.897354
 40
0.003
 41
0.003
 10
0.432154
 20
1.2835
 40
0.003
 41
0.003
  0
LWPOLYLINE
  5
14A
100
AcDbEntity
  8
0
 62
   254
100
AcDbPolyline
 90
        2
 70
     0
 39
0.003
 10
0.432154
 20
1.2835
 40
0.003
 41
0.003
 10
0.425969
 20
1.268437
 40
0.003
 41
0.003
  0
LWPOLYLINE
  5
14B
100
AcDbEntity
  8
0
 62
   254
100
AcDbPolyline
 90
        2
 70
     0
 39
0.003
 10
0.425969
 20
1.268437
 40
0.003
 41
0.003
 10
-0.225228
 20
0.882291
 40
0.003
 41
0.003
  0
LWPOLYLINE
  5
14C
100
AcDbEntity
  8
0
 62
   254
100
AcDbPolyline
 90
        2
 70
     0
 39
0.003
 10
-0.225228
 20
0.882291
 40
0.003
 41
0.003
 10
-0.219043
 20
0.897354
 40
0.003
 41
0.003
  0
LWPOLYLINE
  5
14D
100
AcDbEntity
  8
0
 62
   254
100
AcDbPolyline
 90
        2
 70
     0
 39
0.003
 10
-0.225228
 20
0.882291
 40
0.003
 41
0.003
 10
0.425969
 20
1.268437
 40
0.003
 41
0.003
  0
LWPOLYLINE
  5
14E
100
AcDbEntity
  8
0
 62
   254
100
AcDbPolyline
 90
        2
 70
     0
 39
0.003
 10
0.425969
 20
1.268437
 40
0.003
 41
0.003
 10
0.418299
 20
1.253913
 40
0.003
 41
0.003
  0
LWPOLYLINE
  5
14F
100
AcDbEntity
  8
0
 62
   254
100
AcDbPolyline
 90
        2
 70
     0
 39
0.003
 10
0.418299
 20
1.253913
 40
0.003
 41
0.003
 10
-0.232898
 20
0.867768
 40
0.003
 41
0.003
  0
LWPOLYLINE
  5
150
100
AcDbEntity
  8
0
 62
   254
100
AcDbPolyline
 90
        2
 70
     0
 39
0.003
 10
-0.232898
 20
0.867768
 40
0.003
 41
0.003
 10
-0.225228
 20
0.882291
 40
0.003
 41
0.003
  0
LWPOLYLINE
  5
151
100
AcDbEntity
  8
0
 62
   254
100
AcDbPolyline
 90
        2
 70
     0
 39
0.003
 10
-0.232898
 20
0.867768
 40
0.003
 41
0.003
 10
0.418299
 20
1.253913
 40
0.003
 41
0.003
  0
LWPOLYLINE
  5
152
100
AcDbEntity
  8
0
 62
   254
100
AcDbPolyline
 90
        2
 70
     0
 39
0.003
 10
0.418299
 20
1.253913
 40
0.003
 41
0.003
 10
0.409177
 20
1.24002
 40
0.003
 41
0.003
  0
LWPOLYLINE
  5
153
100
AcDbEntity
  8
0
 62
   254
100
AcDbPolyline
 90
        2
 70
     0
 39
0.003
 10
0.409177
 20
1.24002
 40
0.003
 41
0.003
 10
-0.24202
 20
0.853874
 40
0.003
 41
0.003
  0
LWPOLYLINE
  5
154
100
AcDbEntity
  8
0
 62
   254
100
AcDbPolyline
 90
        2
 70
     0
 39
0.003
 10
-0.24202
 20
0.853874
 40
0.003
 41
0.003
 10
-0.232898
 20
0.867768
 40
0.003
 41
0.003
  0
LWPOLYLINE
  5
155
100
AcDbEntity
  8
0
 62
   254
100
AcDbPolyline
 90
        2
 70
     0
 39
0.003
 10
-0.24202
 20
0.853874
 40
0.003
 41
0.003
 10
0.409177
 20
1.24002
 40
0.003
 41
0.003
  0
LWPOLYLINE
  5
156
100
AcDbEntity
  8
0
 62
   254
100
AcDbPolyline
 90
        2
 70
     0
 39
0.003
 10
0.409177
 20
1.24002
 40
0.003
 41
0.003
 10
0.39861
 20
1.226882
 40
0.003
 41
0.003
  0
LWPOLYLINE
  5
157
100
AcDbEntity
  8
0
 62
   254
100
AcDbPolyline
 90
        2
 70
     0
 39
0.003
 10
0.39861
 20
1.226882
 40
0.003
 41
0.003
 10
-0.252587
 20
0.840736
 40
0.003
 41
0.003
  0
LWPOLYLINE
  5
158
100
AcDbEntity
  8
0
 62
   254
100
AcDbPolyline
 90
        2
 70
     0
 39
0.003
 10
-0.252587
 20
0.840736
 40
0.003
 41
0.003
 10
-0.24202
 20
0.853874
 40
0.003
 41
0.003
  0
LWPOLYLINE
  5
159
100
AcDbEntity
  8
0
 62
   254
100
AcDbPolyline
 90
        2
 70
     0
 39
0.003
 10
-0.252587
 20
0.840736
 40
0.003
 41
0.003
 10
0.39861
 20
1.226882
 40
0.003
 41
0.003
  0
LWPOLYLINE
  5
15A
100
AcDbEntity
  8
0
 62
   254
100
AcDbPolyline
 90
        2
 70
     0
 39
0.003
 10
0.39861
 20
1.226882
 40
0.003
 41
0.003
 10
0.38663
 20
1.214587
 40
0.003
 41
0.003
  0
LWPOLYLINE
  5
15B
100
AcDbEntity
  8
0
 62
   254
100
AcDbPolyline
 90
        2
 70
     0
 39
0.003
 10
0.38663
 20
1.214587
 40
0.003
 41
0.003
 10
-0.264567
 20
0.828441
 40
0.003
 41
0.003
  0
LWPOLYLINE
  5
15C
100
AcDbEntity
  8
0
 62
   254
100
AcDbPolyline
 90
        2
 70
     0
 39
0.003
 10
-0.264567
 20
0.828441
 40
0.003
 41
0.003
 10
-0.252587
 20
0.840736
 40
0.003
 41
0.003
  0
LWPOLYLINE
  5
15D
100
AcDbEntity
  8
0
 62
     9
100
AcDbPolyline
 90
        2
 70
     0
 39
0.003
 10
-0.264567
 20
0.828441
 40
0.003
 41
0.003
 10
0.38663
 20
1.214587
 40
0.003
 41
0.003
  0
LWPOLYLINE
  5
15E
100
AcDbEntity
  8
0
 62
     9
100
AcDbPolyline
 90
        2
 70
     0
 39
0.003
 10
0.38663
 20
1.214587
 40
0.003
 41
0.003
 10
0.373244
 20
1.20326
 40
0.003
 41
0.003
  0
LWPOLYLINE
  5
15F
100
AcDbEntity
  8
0
 62
     9
100
AcDbPolyline
 90
        2
 70
     0
 39
0.003
 10
0.373244
 20
1.20326
 40
0.003
 41
0.003
 10
-0.277953
 20
0.817114
 40
0.003
 41
0.003
  0
LWPOLYLINE
  5
160
100
AcDbEntity
  8
0
 62
     9
100
AcDbPolyline
 90
        2
 70
     0
 39
0.003
 10
-0.277953
 20
0.817114
 40
0.003
 41
0.003
 10
-0.264567
 20
0.828441
 40
0.003
 41
0.003
  0
LWPOLYLINE
  5
161
100
AcDbEntity
  8
0
 62
     9
100
AcDbPolyline
 90
        2
 70
     0
 39
0.003
 10
-0.277953
 20
0.817114
 40
0.003
 41
0.003
 10
0.373244
 20
1.20326
 40
0.003
 41
0.003
  0
LWPOLYLINE
  5
162
100
AcDbEntity
  8
0
 62
     9
100
AcDbPolyline
 90
        2
 70
     0
 39
0.003
 10
0.373244
 20
1.20326
 40
0.003
 41
0.003
 10
0.358476
 20
1.193004
 40
0.003
 41
0.003
  0
LWPOLYLINE
  5
163
100
AcDbEntity
  8
0
 62
     9
100
AcDbPolyline
 90
        2
 70
     0
 39
0.003
 10
0.358476
 20
1.193004
 40
0.003
 41
0.003
 10
-0.29272
 20
0.806858
 40
0.003
 41
0.003
  0
LWPOLYLINE
  5
164
100
AcDbEntity
  8
0
 62
     9
100
AcDbPolyline
 90
        2
 70
     0
 39
0.003
 10
-0.29272
 20
0.806858
 40
0.003
 41
0.003
 10
-0.277953
 20
0.817114
 40
0.003
 41
0.003
  0
LWPOLYLINE
  5
165
100
AcDbEntity
  8
0
 62
     0
100
AcDbPolyline
 90
        2
 70
     0
 39
0.003
 10
-0.434764
 20
1.144071
 40
0.003
 41
0.003
 10
0.216433
 20
1.530217
 40
0.003
 41
0.003
  0
LWPOLYLINE
  5
166
100
AcDbEntity
  8
0
 62
     0
100
AcDbPolyline
 90
        2
 70
     0
 39
0.003
 10
0.216433
 20
1.530217
 40
0.003
 41
0.003
 10
0.243783
 20
1.527161
 40
0.003
 41
0.003
  0
LWPOLYLINE
  5
167
100
AcDbEntity
  8
0
 62
     0
100
AcDbPolyline
 90
        2
 70
     0
 39
0.003
 10
0.243783
 20
1.527161
 40
0.003
 41
0.003
 10
0.269272
 20
1.522492
 40
0.003
 41
0.003
  0
LWPOLYLINE
  5
168
100
AcDbEntity
  8
0
 62
     0
100
AcDbPolyline
 90
        2
 70
     0
 39
0.003
 10
0.269272
 20
1.522492
 40
0.003
 41
0.003
 10
0.292925
 20
1.516303
 40
0.003
 41
0.003
  0
LWPOLYLINE
  5
169
100
AcDbEntity
  8
0
 62
     0
100
AcDbPolyline
 90
        2
 70
     0
 39
0.003
 10
0.292925
 20
1.516303
 40
0.003
 41
0.003
 10
0.314756
 20
1.508709
 40
0.003
 41
0.003
  0
LWPOLYLINE
  5
16A
100
AcDbEntity
  8
0
 62
     0
100
AcDbPolyline
 90
        2
 70
     0
 39
0.003
 10
0.314756
 20
1.508709
 40
0.003
 41
0.003
 10
0.334791
 20
1.499807
 40
0.003
 41
0.003
  0
LWPOLYLINE
  5
16B
100
AcDbEntity
  8
0
 62
     0
100
AcDbPolyline
 90
        2
 70
     0
 39
0.003
 10
0.334791
 20
1.499807
 40
0.003
 41
0.003
 10
0.353039
 20
1.489717
 40
0.003
 41
0.003
  0
LWPOLYLINE
  5
16C
100
AcDbEntity
  8
0
 62
     0
100
AcDbPolyline
 90
        2
 70
     0
 39
0.003
 10
0.353039
 20
1.489717
 40
0.003
 41
0.003
 10
0.369528
 20
1.478539
 40
0.003
 41
0.003
  0
LWPOLYLINE
  5
16D
100
AcDbEntity
  8
0
 62
     0
100
AcDbPolyline
 90
        2
 70
     0
 39
0.003
 10
0.369528
 20
1.478539
 40
0.003
 41
0.003
 10
0.384268
 20
1.466394
 40
0.003
 41
0.003
  0
LWPOLYLINE
  5
16E
100
AcDbEntity
  8
0
 62
     0
100
AcDbPolyline
 90
        2
 70
     0
 39
0.003
 10
0.384268
 20
1.466394
 40
0.003
 41
0.003
 10
0.397295
 20
1.453362
 40
0.003
 41
0.003
  0
LWPOLYLINE
  5
16F
100
AcDbEntity
  8
0
 62
     0
100
AcDbPolyline
 90
        2
 70
     0
 39
0.003
 10
0.397295
 20
1.453362
 40
0.003
 41
0.003
 10
0.40861
 20
1.439579
 40
0.003
 41
0.003
  0
LWPOLYLINE
  5
170
100
AcDbEntity
  8
0
 62
     0
100
AcDbPolyline
 90
        2
 70
     0
 39
0.003
 10
0.40861
 20
1.439579
 40
0.003
 41
0.003
 10
0.41824
 20
1.425138
 40
0.003
 41
0.003
  0
LWPOLYLINE
  5
171
100
AcDbEntity
  8
0
 62
     0
100
AcDbPolyline
 90
        2
 70
     0
 39
0.003
 10
0.41824
 20
1.425138
 40
0.003
 41
0.003
 10
0.426197
 20
1.410154
 40
0.003
 41
0.003
  0
LWPOLYLINE
  5
172
100
AcDbEntity
  8
0
 62
     0
100
AcDbPolyline
 90
        2
 70
     0
 39
0.003
 10
0.426197
 20
1.410154
 40
0.003
 41
0.003
 10
0.432516
 20
1.394724
 40
0.003
 41
0.003
  0
LWPOLYLINE
  5
173
100
AcDbEntity
  8
0
 62
     0
100
AcDbPolyline
 90
        2
 70
     0
 39
0.003
 10
0.432516
 20
1.394724
 40
0.003
 41
0.003
 10
0.437197
 20
1.378969
 40
0.003
 41
0.003
  0
LWPOLYLINE
  5
174
100
AcDbEntity
  8
0
 62
     0
100
AcDbPolyline
 90
        2
 70
     0
 39
0.003
 10
0.437197
 20
1.378969
 40
0.003
 41
0.003
 10
0.440272
 20
1.362984
 40
0.003
 41
0.003
  0
LWPOLYLINE
  5
175
100
AcDbEntity
  8
0
 62
     0
100
AcDbPolyline
 90
        2
 70
     0
 39
0.003
 10
0.440272
 20
1.362984
 40
0.003
 41
0.003
 10
0.441752
 20
1.346894
 40
0.003
 41
0.003
  0
LWPOLYLINE
  5
176
100
AcDbEntity
  8
0
 62
     0
100
AcDbPolyline
 90
        2
 70
     0
 39
0.003
 10
0.441752
 20
1.346894
 40
0.003
 41
0.003
 10
0.441669
 20
1.330783
 40
0.003
 41
0.003
  0
LWPOLYLINE
  5
177
100
AcDbEntity
  8
0
 62
     0
100
AcDbPolyline
 90
        2
 70
     0
 39
0.003
 10
0.441669
 20
1.330783
 40
0.003
 41
0.003
 10
0.440024
 20
1.31478
 40
0.003
 41
0.003
  0
LWPOLYLINE
  5
178
100
AcDbEntity
  8
0
 62
     0
100
AcDbPolyline
 90
        2
 70
     0
 39
0.003
 10
0.440024
 20
1.31478
 40
0.003
 41
0.003
 10
0.43685
 20
1.29898
 40
0.003
 41
0.003
  0
LWPOLYLINE
  5
179
100
AcDbEntity
  8
0
 62
     0
100
AcDbPolyline
 90
        2
 70
     0
 39
0.003
 10
0.43685
 20
1.29898
 40
0.003
 41
0.003
 10
0.432154
 20
1.2835
 40
0.003
 41
0.003
  0
LWPOLYLINE
  5
17A
100
AcDbEntity
  8
0
 62
     0
100
AcDbPolyline
 90
        2
 70
     0
 39
0.003
 10
0.432154
 20
1.2835
 40
0.003
 41
0.003
 10
0.425969
 20
1.268437
 40
0.003
 41
0.003
  0
LWPOLYLINE
  5
17B
100
AcDbEntity
  8
0
 62
     0
100
AcDbPolyline
 90
        2
 70
     0
 39
0.003
 10
0.425969
 20
1.268437
 40
0.003
 41
0.003
 10
0.418299
 20
1.253913
 40
0.003
 41
0.003
  0
LWPOLYLINE
  5
17C
100
AcDbEntity
  8
0
 62
     0
100
AcDbPolyline
 90
        2
 70
     0
 39
0.003
 10
0.418299
 20
1.253913
 40
0.003
 41
0.003
 10
0.409177
 20
1.24002
 40
0.003
 41
0.003
  0
LWPOLYLINE
  5
17D
100
AcDbEntity
  8
0
 62
     0
100
AcDbPolyline
 90
        2
 70
     0
 39
0.003
 10
0.409177
 20
1.24002
 40
0.003
 41
0.003
 10
0.39861
 20
1.226882
 40
0.003
 41
0.003
  0
LWPOLYLINE
  5
17E
100
AcDbEntity
  8
0
 62
     0
100
AcDbPolyline
 90
        2
 70
     0
 39
0.003
 10
0.39861
 20
1.226882
 40
0.003
 41
0.003
 10
0.38663
 20
1.214587
 40
0.003
 41
0.003
  0
LWPOLYLINE
  5
17F
100
AcDbEntity
  8
0
 62
     0
100
AcDbPolyline
 90
        2
 70
     0
 39
0.003
 10
0.38663
 20
1.214587
 40
0.003
 41
0.003
 10
0.373244
 20
1.20326
 40
0.003
 41
0.003
  0
LWPOLYLINE
  5
180
100
AcDbEntity
  8
0
 62
     0
100
AcDbPolyline
 90
        2
 70
     0
 39
0.003
 10
0.373244
 20
1.20326
 40
0.003
 41
0.003
 10
0.358476
 20
1.193004
 40
0.003
 41
0.003
  0
LWPOLYLINE
  5
181
100
AcDbEntity
  8
0
 62
     0
100
AcDbPolyline
 90
        2
 70
     0
 39
0.003
 10
0.358476
 20
1.193004
 40
0.003
 41
0.003
 10
-0.29272
 20
0.806858
 40
0.003
 41
0.003
  0
LWPOLYLINE
  5
182
100
AcDbEntity
  8
0
 62
     0
100
AcDbPolyline
 90
        2
 70
     0
 39
0.003
 10
-0.29272
 20
0.806858
 40
0.003
 41
0.003
 10
-0.277953
 20
0.817114
 40
0.003
 41
0.003
  0
LWPOLYLINE
  5
183
100
AcDbEntity
  8
0
 62
     0
100
AcDbPolyline
 90
        2
 70
     0
 39
0.003
 10
-0.277953
 20
0.817114
 40
0.003
 41
0.003
 10
-0.264567
 20
0.828441
 40
0.003
 41
0.003
  0
LWPOLYLINE
  5
184
100
AcDbEntity
  8
0
 62
     0
100
AcDbPolyline
 90
        2
 70
     0
 39
0.003
 10
-0.264567
 20
0.828441
 40
0.003
 41
0.003
 10
-0.252587
 20
0.840736
 40
0.003
 41
0.003
  0
LWPOLYLINE
  5
185
100
AcDbEntity
  8
0
 62
     0
100
AcDbPolyline
 90
        2
 70
     0
 39
0.003
 10
-0.252587
 20
0.840736
 40
0.003
 41
0.003
 10
-0.24202
 20
0.853874
 40
0.003
 41
0.003
  0
LWPOLYLINE
  5
186
100
AcDbEntity
  8
0
 62
     0
100
AcDbPolyline
 90
        2
 70
     0
 39
0.003
 10
-0.24202
 20
0.853874
 40
0.003
 41
0.003
 10
-0.232898
 20
0.867768
 40
0.003
 41
0.003
  0
LWPOLYLINE
  5
187
100
AcDbEntity
  8
0
 62
     0
100
AcDbPolyline
 90
        2
 70
     0
 39
0.003
 10
-0.232898
 20
0.867768
 40
0.003
 41
0.003
 10
-0.225228
 20
0.882291
 40
0.003
 41
0.003
  0
LWPOLYLINE
  5
188
100
AcDbEntity
  8
0
 62
     0
100
AcDbPolyline
 90
        2
 70
     0
 39
0.003
 10
-0.225228
 20
0.882291
 40
0.003
 41
0.003
 10
-0.219043
 20
0.897354
 40
0.003
 41
0.003
  0
LWPOLYLINE
  5
189
100
AcDbEntity
  8
0
 62
     0
100
AcDbPolyline
 90
        2
 70
     0
 39
0.003
 10
-0.219043
 20
0.897354
 40
0.003
 41
0.003
 10
-0.214346
 20
0.912835
 40
0.003
 41
0.003
  0
LWPOLYLINE
  5
18A
100
AcDbEntity
  8
0
 62
     0
100
AcDbPolyline
 90
        2
 70
     0
 39
0.003
 10
-0.214346
 20
0.912835
 40
0.003
 41
0.003
 10
-0.211173
 20
0.928634
 40
0.003
 41
0.003
  0
LWPOLYLINE
  5
18B
100
AcDbEntity
  8
0
 62
     0
100
AcDbPolyline
 90
        2
 70
     0
 39
0.003
 10
-0.211173
 20
0.928634
 40
0.003
 41
0.003
 10
-0.209528
 20
0.944638
 40
0.003
 41
0.003
  0
LWPOLYLINE
  5
18C
100
AcDbEntity
  8
0
 62
     0
100
AcDbPolyline
 90
        2
 70
     0
 39
0.003
 10
-0.209528
 20
0.944638
 40
0.003
 41
0.003
 10
-0.209445
 20
0.960748
 40
0.003
 41
0.003
  0
LWPOLYLINE
  5
18D
100
AcDbEntity
  8
0
 62
     0
100
AcDbPolyline
 90
        2
 70
     0
 39
0.003
 10
-0.209445
 20
0.960748
 40
0.003
 41
0.003
 10
-0.210925
 20
0.976839
 40
0.003
 41
0.003
  0
LWPOLYLINE
  5
18E
100
AcDbEntity
  8
0
 62
     0
100
AcDbPolyline
 90
        2
 70
     0
 39
0.003
 10
-0.210925
 20
0.976839
 40
0.003
 41
0.003
 10
-0.214
 20
0.992823
 40
0.003
 41
0.003
  0
LWPOLYLINE
  5
18F
100
AcDbEntity
  8
0
 62
     0
100
AcDbPolyline
 90
        2
 70
     0
 39
0.003
 10
-0.214
 20
0.992823
 40
0.003
 41
0.003
 10
-0.218681
 20
1.008579
 40
0.003
 41
0.003
  0
LWPOLYLINE
  5
190
100
AcDbEntity
  8
0
 62
     0
100
AcDbPolyline
 90
        2
 70
     0
 39
0.003
 10
-0.218681
 20
1.008579
 40
0.003
 41
0.003
 10
-0.225
 20
1.024008
 40
0.003
 41
0.003
  0
LWPOLYLINE
  5
191
100
AcDbEntity
  8
0
 62
     0
100
AcDbPolyline
 90
        2
 70
     0
 39
0.003
 10
-0.225
 20
1.024008
 40
0.003
 41
0.003
 10
-0.232957
 20
1.038992
 40
0.003
 41
0.003
  0
LWPOLYLINE
  5
192
100
AcDbEntity
  8
0
 62
     0
100
AcDbPolyline
 90
        2
 70
     0
 39
0.003
 10
-0.232957
 20
1.038992
 40
0.003
 41
0.003
 10
-0.242587
 20
1.053433
 40
0.003
 41
0.003
  0
LWPOLYLINE
  5
193
100
AcDbEntity
  8
0
 62
     0
100
AcDbPolyline
 90
        2
 70
     0
 39
0.003
 10
-0.242587
 20
1.053433
 40
0.003
 41
0.003
 10
-0.253902
 20
1.067217
 40
0.003
 41
0.003
  0
LWPOLYLINE
  5
194
100
AcDbEntity
  8
0
 62
     0
100
AcDbPolyline
 90
        2
 70
     0
 39
0.003
 10
-0.253902
 20
1.067217
 40
0.003
 41
0.003
 10
-0.266929
 20
1.080248
 40
0.003
 41
0.003
  0
LWPOLYLINE
  5
195
100
AcDbEntity
  8
0
 62
     0
100
AcDbPolyline
 90
        2
 70
     0
 39
0.003
 10
-0.266929
 20
1.080248
 40
0.003
 41
0.003
 10
-0.281669
 20
1.092394
 40
0.003
 41
0.003
  0
LWPOLYLINE
  5
196
100
AcDbEntity
  8
0
 62
     0
100
AcDbPolyline
 90
        2
 70
     0
 39
0.003
 10
-0.281669
 20
1.092394
 40
0.003
 41
0.003
 10
-0.298157
 20
1.103571
 40
0.003
 41
0.003
  0
LWPOLYLINE
  5
197
100
AcDbEntity
  8
0
 62
     0
100
AcDbPolyline
 90
        2
 70
     0
 39
0.003
 10
-0.298157
 20
1.103571
 40
0.003
 41
0.003
 10
-0.316406
 20
1.113661
 40
0.003
 41
0.003
  0
LWPOLYLINE
  5
198
100
AcDbEntity
  8
0
 62
     0
100
AcDbPolyline
 90
        2
 70
     0
 39
0.003
 10
-0.316406
 20
1.113661
 40
0.003
 41
0.003
 10
-0.336441
 20
1.122563
 40
0.003
 41
0.003
  0
LWPOLYLINE
  5
199
100
AcDbEntity
  8
0
 62
     0
100
AcDbPolyline
 90
        2
 70
     0
 39
0.003
 10
-0.336441
 20
1.122563
 40
0.003
 41
0.003
 10
-0.358272
 20
1.130157
 40
0.003
 41
0.003
  0
LWPOLYLINE
  5
19A
100
AcDbEntity
  8
0
 62
     0
100
AcDbPolyline
 90
        2
 70
     0
 39
0.003
 10
-0.358272
 20
1.130157
 40
0.003
 41
0.003
 10
-0.381925
 20
1.136346
 40
0.003
 41
0.003
  0
LWPOLYLINE
  5
19B
100
AcDbEntity
  8
0
 62
     0
100
AcDbPolyline
 90
        2
 70
     0
 39
0.003
 10
-0.381925
 20
1.136346
 40
0.003
 41
0.003
 10
-0.407413
 20
1.141016
 40
0.003
 41
0.003
  0
LWPOLYLINE
  5
19C
100
AcDbEntity
  8
0
 62
     0
100
AcDbPolyline
 90
        2
 70
     0
 39
0.003
 10
-0.407413
 20
1.141016
 40
0.003
 41
0.003
 10
-0.434764
 20
1.144071
 40
0.003
 41
0.003
  0
LWPOLYLINE
  5
19D
100
AcDbEntity
  8
0
 62
   254
100
AcDbPolyline
 90
        2
 70
     0
 39
0.003
 10
-0.113921
 20
0.373378
 40
0.003
 41
0.003
 10
0.537276
 20
0.759524
 40
0.003
 41
0.003
  0
LWPOLYLINE
  5
19E
100
AcDbEntity
  8
0
 62
   254
100
AcDbPolyline
 90
        2
 70
     0
 39
0.003
 10
0.537276
 20
0.759524
 40
0.003
 41
0.003
 10
0.537276
 20
0.546945
 40
0.003
 41
0.003
  0
LWPOLYLINE
  5
19F
100
AcDbEntity
  8
0
 62
   254
100
AcDbPolyline
 90
        2
 70
     0
 39
0.003
 10
0.537276
 20
0.546945
 40
0.003
 41
0.003
 10
-0.113921
 20
0.160799
 40
0.003
 41
0.003
  0
LWPOLYLINE
  5
1A0
100
AcDbEntity
  8
0
 62
   254
100
AcDbPolyline
 90
        2
 70
     0
 39
0.003
 10
-0.113921
 20
0.160799
 40
0.003
 41
0.003
 10
-0.113921
 20
0.373378
 40
0.003
 41
0.003
  0
LWPOLYLINE
  5
1A1
100
AcDbEntity
  8
0
 62
     0
100
AcDbPolyline
 90
        2
 70
     0
 39
0.003
 10
-0.113921
 20
0.373378
 40
0.003
 41
0.003
 10
0.537276
 20
0.759524
 40
0.003
 41
0.003
  0
LWPOLYLINE
  5
1A2
100
AcDbEntity
  8
0
 62
     0
100
AcDbPolyline
 90
        2
 70
     0
 39
0.003
 10
0.537276
 20
0.759524
 40
0.003
 41
0.003
 10
0.537276
 20
0.546945
 40
0.003
 41
0.003
  0
LWPOLYLINE
  5
1A3
100
AcDbEntity
  8
0
 62
     0
100
AcDbPolyline
 90
        2
 70
     0
 39
0.003
 10
0.537276
 20
0.546945
 40
0.003
 41
0.003
 10
-0.113921
 20
0.160799
 40
0.003
 41
0.003
  0
LWPOLYLINE
  5
1A4
100
AcDbEntity
  8
0
 62
     0
100
AcDbPolyline
 90
        2
 70
     0
 39
0.003
 10
-0.113921
 20
0.160799
 40
0.003
 41
0.003
 10
-0.113921
 20
0.373378
 40
0.003
 41
0.003
  0
LWPOLYLINE
  5
1A5
100
AcDbEntity
  8
0
 62
   253
100
AcDbPolyline
 90
        2
 70
     0
 39
0.003
 10
-0.113921
 20
0.160799
 40
0.003
 41
0.003
 10
0.537276
 20
0.546945
 40
0.003
 41
0.003
  0
LWPOLYLINE
  5
1A6
100
AcDbEntity
  8
0
 62
   253
100
AcDbPolyline
 90
        2
 70
     0
 39
0.003
 10
0.537276
 20
0.546945
 40
0.003
 41
0.003
 10
0.558283
 20
0.545146
 40
0.003
 41
0.003
  0
LWPOLYLINE
  5
1A7
100
AcDbEntity
  8
0
 62
   253
100
AcDbPolyline
 90
        2
 70
     0
 39
0.003
 10
0.558283
 20
0.545146
 40
0.003
 41
0.003
 10
-0.092913
 20
0.159
 40
0.003
 41
0.003
  0
LWPOLYLINE
  5
1A8
100
AcDbEntity
  8
0
 62
   253
100
AcDbPolyline
 90
        2
 70
     0
 39
0.003
 10
-0.092913
 20
0.159
 40
0.003
 41
0.003
 10
-0.113921
 20
0.160799
 40
0.003
 41
0.003
  0
LWPOLYLINE
  5
1A9
100
AcDbEntity
  8
0
 62
     9
100
AcDbPolyline
 90
        2
 70
     0
 39
0.003
 10
-0.092913
 20
0.159
 40
0.003
 41
0.003
 10
0.558283
 20
0.545146
 40
0.003
 41
0.003
  0
LWPOLYLINE
  5
1AA
100
AcDbEntity
  8
0
 62
     9
100
AcDbPolyline
 90
        2
 70
     0
 39
0.003
 10
0.558283
 20
0.545146
 40
0.003
 41
0.003
 10
0.578803
 20
0.541736
 40
0.003
 41
0.003
  0
LWPOLYLINE
  5
1AB
100
AcDbEntity
  8
0
 62
     9
100
AcDbPolyline
 90
        2
 70
     0
 39
0.003
 10
0.578803
 20
0.541736
 40
0.003
 41
0.003
 10
-0.072394
 20
0.155591
 40
0.003
 41
0.003
  0
LWPOLYLINE
  5
1AC
100
AcDbEntity
  8
0
 62
     9
100
AcDbPolyline
 90
        2
 70
     0
 39
0.003
 10
-0.072394
 20
0.155591
 40
0.003
 41
0.003
 10
-0.092913
 20
0.159
 40
0.003
 41
0.003
  0
LWPOLYLINE
  5
1AD
100
AcDbEntity
  8
0
 62
     9
100
AcDbPolyline
 90
        2
 70
     0
 39
0.003
 10
-0.072394
 20
0.155591
 40
0.003
 41
0.003
 10
0.578803
 20
0.541736
 40
0.003
 41
0.003
  0
LWPOLYLINE
  5
1AE
100
AcDbEntity
  8
0
 62
     9
100
AcDbPolyline
 90
        2
 70
     0
 39
0.003
 10
0.578803
 20
0.541736
 40
0.003
 41
0.003
 10
0.598815
 20
0.536752
 40
0.003
 41
0.003
  0
LWPOLYLINE
  5
1AF
100
AcDbEntity
  8
0
 62
     9
100
AcDbPolyline
 90
        2
 70
     0
 39
0.003
 10
0.598815
 20
0.536752
 40
0.003
 41
0.003
 10
-0.052382
 20
0.150606
 40
0.003
 41
0.003
  0
LWPOLYLINE
  5
1B0
100
AcDbEntity
  8
0
 62
     9
100
AcDbPolyline
 90
        2
 70
     0
 39
0.003
 10
-0.052382
 20
0.150606
 40
0.003
 41
0.003
 10
-0.072394
 20
0.155591
 40
0.003
 41
0.003
  0
LWPOLYLINE
  5
1B1
100
AcDbEntity
  8
0
 62
     9
100
AcDbPolyline
 90
        2
 70
     0
 39
0.003
 10
-0.052382
 20
0.150606
 40
0.003
 41
0.003
 10
0.598815
 20
0.536752
 40
0.003
 41
0.003
  0
LWPOLYLINE
  5
1B2
100
AcDbEntity
  8
0
 62
     9
100
AcDbPolyline
 90
        2
 70
     0
 39
0.003
 10
0.598815
 20
0.536752
 40
0.003
 41
0.003
 10
0.61828
 20
0.53024
 40
0.003
 41
0.003
  0
LWPOLYLINE
  5
1B3
100
AcDbEntity
  8
0
 62
     9
100
AcDbPolyline
 90
        2
 70
     0
 39
0.003
 10
0.61828
 20
0.53024
 40
0.003
 41
0.003
 10
-0.032917
 20
0.144094
 40
0.003
 41
0.003
  0
LWPOLYLINE
  5
1B4
100
AcDbEntity
  8
0
 62
     9
100
AcDbPolyline
 90
        2
 70
     0
 39
0.003
 10
-0.032917
 20
0.144094
 40
0.003
 41
0.003
 10
-0.052382
 20
0.150606
 40
0.003
 41
0.003
  0
LWPOLYLINE
  5
1B5
100
AcDbEntity
  8
0
 62
     9
100
AcDbPolyline
 90
        2
 70
     0
 39
0.003
 10
-0.032917
 20
0.144094
 40
0.003
 41
0.003
 10
0.61828
 20
0.53024
 40
0.003
 41
0.003
  0
LWPOLYLINE
  5
1B6
100
AcDbEntity
  8
0
 62
     9
100
AcDbPolyline
 90
        2
 70
     0
 39
0.003
 10
0.61828
 20
0.53024
 40
0.003
 41
0.003
 10
0.637185
 20
0.522232
 40
0.003
 41
0.003
  0
LWPOLYLINE
  5
1B7
100
AcDbEntity
  8
0
 62
     9
100
AcDbPolyline
 90
        2
 70
     0
 39
0.003
 10
0.637185
 20
0.522232
 40
0.003
 41
0.003
 10
-0.014012
 20
0.136087
 40
0.003
 41
0.003
  0
LWPOLYLINE
  5
1B8
100
AcDbEntity
  8
0
 62
     9
100
AcDbPolyline
 90
        2
 70
     0
 39
0.003
 10
-0.014012
 20
0.136087
 40
0.003
 41
0.003
 10
-0.032917
 20
0.144094
 40
0.003
 41
0.003
  0
LWPOLYLINE
  5
1B9
100
AcDbEntity
  8
0
 62
     9
100
AcDbPolyline
 90
        2
 70
     0
 39
0.003
 10
-0.014012
 20
0.136087
 40
0.003
 41
0.003
 10
0.637185
 20
0.522232
 40
0.003
 41
0.003
  0
LWPOLYLINE
  5
1BA
100
AcDbEntity
  8
0
 62
     9
100
AcDbPolyline
 90
        2
 70
     0
 39
0.003
 10
0.637185
 20
0.522232
 40
0.003
 41
0.003
 10
0.655492
 20
0.512787
 40
0.003
 41
0.003
  0
LWPOLYLINE
  5
1BB
100
AcDbEntity
  8
0
 62
     9
100
AcDbPolyline
 90
        2
 70
     0
 39
0.003
 10
0.655492
 20
0.512787
 40
0.003
 41
0.003
 10
0.004295
 20
0.126642
 40
0.003
 41
0.003
  0
LWPOLYLINE
  5
1BC
100
AcDbEntity
  8
0
 62
     9
100
AcDbPolyline
 90
        2
 70
     0
 39
0.003
 10
0.004295
 20
0.126642
 40
0.003
 41
0.003
 10
-0.014012
 20
0.136087
 40
0.003
 41
0.003
  0
LWPOLYLINE
  5
1BD
100
AcDbEntity
  8
0
 62
   254
100
AcDbPolyline
 90
        2
 70
     0
 39
0.003
 10
0.004295
 20
0.126642
 40
0.003
 41
0.003
 10
0.655492
 20
0.512787
 40
0.003
 41
0.003
  0
LWPOLYLINE
  5
1BE
100
AcDbEntity
  8
0
 62
   254
100
AcDbPolyline
 90
        2
 70
     0
 39
0.003
 10
0.655492
 20
0.512787
 40
0.003
 41
0.003
 10
0.673181
 20
0.501933
 40
0.003
 41
0.003
  0
LWPOLYLINE
  5
1BF
100
AcDbEntity
  8
0
 62
   254
100
AcDbPolyline
 90
        2
 70
     0
 39
0.003
 10
0.673181
 20
0.501933
 40
0.003
 41
0.003
 10
0.021984
 20
0.115787
 40
0.003
 41
0.003
  0
LWPOLYLINE
  5
1C0
100
AcDbEntity
  8
0
 62
   254
100
AcDbPolyline
 90
        2
 70
     0
 39
0.003
 10
0.021984
 20
0.115787
 40
0.003
 41
0.003
 10
0.004295
 20
0.126642
 40
0.003
 41
0.003
  0
LWPOLYLINE
  5
1C1
100
AcDbEntity
  8
0
 62
   254
100
AcDbPolyline
 90
        2
 70
     0
 39
0.003
 10
0.021984
 20
0.115787
 40
0.003
 41
0.003
 10
0.673181
 20
0.501933
 40
0.003
 41
0.003
  0
LWPOLYLINE
  5
1C2
100
AcDbEntity
  8
0
 62
   254
100
AcDbPolyline
 90
        2
 70
     0
 39
0.003
 10
0.673181
 20
0.501933
 40
0.003
 41
0.003
 10
0.690228
 20
0.48972
 40
0.003
 41
0.003
  0
LWPOLYLINE
  5
1C3
100
AcDbEntity
  8
0
 62
   254
100
AcDbPolyline
 90
        2
 70
     0
 39
0.003
 10
0.690228
 20
0.48972
 40
0.003
 41
0.003
 10
0.039031
 20
0.103575
 40
0.003
 41
0.003
  0
LWPOLYLINE
  5
1C4
100
AcDbEntity
  8
0
 62
   254
100
AcDbPolyline
 90
        2
 70
     0
 39
0.003
 10
0.039031
 20
0.103575
 40
0.003
 41
0.003
 10
0.021984
 20
0.115787
 40
0.003
 41
0.003
  0
LWPOLYLINE
  5
1C5
100
AcDbEntity
  8
0
 62
   254
100
AcDbPolyline
 90
        2
 70
     0
 39
0.003
 10
0.039031
 20
0.103575
 40
0.003
 41
0.003
 10
0.690228
 20
0.48972
 40
0.003
 41
0.003
  0
LWPOLYLINE
  5
1C6
100
AcDbEntity
  8
0
 62
   254
100
AcDbPolyline
 90
        2
 70
     0
 39
0.003
 10
0.690228
 20
0.48972
 40
0.003
 41
0.003
 10
0.706591
 20
0.476181
 40
0.003
 41
0.003
  0
LWPOLYLINE
  5
1C7
100
AcDbEntity
  8
0
 62
   254
100
AcDbPolyline
 90
        2
 70
     0
 39
0.003
 10
0.706591
 20
0.476181
 40
0.003
 41
0.003
 10
0.055394
 20
0.090035
 40
0.003
 41
0.003
  0
LWPOLYLINE
  5
1C8
100
AcDbEntity
  8
0
 62
   254
100
AcDbPolyline
 90
        2
 70
     0
 39
0.003
 10
0.055394
 20
0.090035
 40
0.003
 41
0.003
 10
0.039031
 20
0.103575
 40
0.003
 41
0.003
  0
LWPOLYLINE
  5
1C9
100
AcDbEntity
  8
0
 62
   254
100
AcDbPolyline
 90
        2
 70
     0
 39
0.003
 10
0.055394
 20
0.090035
 40
0.003
 41
0.003
 10
0.706591
 20
0.476181
 40
0.003
 41
0.003
  0
LWPOLYLINE
  5
1CA
100
AcDbEntity
  8
0
 62
   254
100
AcDbPolyline
 90
        2
 70
     0
 39
0.003
 10
0.706591
 20
0.476181
 40
0.003
 41
0.003
 10
0.72226
 20
0.461366
 40
0.003
 41
0.003
  0
LWPOLYLINE
  5
1CB
100
AcDbEntity
  8
0
 62
   254
100
AcDbPolyline
 90
        2
 70
     0
 39
0.003
 10
0.72226
 20
0.461366
 40
0.003
 41
0.003
 10
0.071063
 20
0.07522
 40
0.003
 41
0.003
  0
LWPOLYLINE
  5
1CC
100
AcDbEntity
  8
0
 62
   254
100
AcDbPolyline
 90
        2
 70
     0
 39
0.003
 10
0.071063
 20
0.07522
 40
0.003
 41
0.003
 10
0.055394
 20
0.090035
 40
0.003
 41
0.003
  0
LWPOLYLINE
  5
1CD
100
AcDbEntity
  8
0
 62
   254
100
AcDbPolyline
 90
        2
 70
     0
 39
0.003
 10
0.071063
 20
0.07522
 40
0.003
 41
0.003
 10
0.72226
 20
0.461366
 40
0.003
 41
0.003
  0
LWPOLYLINE
  5
1CE
100
AcDbEntity
  8
0
 62
   254
100
AcDbPolyline
 90
        2
 70
     0
 39
0.003
 10
0.72226
 20
0.461366
 40
0.003
 41
0.003
 10
0.737193
 20
0.445311
 40
0.003
 41
0.003
  0
LWPOLYLINE
  5
1CF
100
AcDbEntity
  8
0
 62
   254
100
AcDbPolyline
 90
        2
 70
     0
 39
0.003
 10
0.737193
 20
0.445311
 40
0.003
 41
0.003
 10
0.085996
 20
0.059165
 40
0.003
 41
0.003
  0
LWPOLYLINE
  5
1D0
100
AcDbEntity
  8
0
 62
   254
100
AcDbPolyline
 90
        2
 70
     0
 39
0.003
 10
0.085996
 20
0.059165
 40
0.003
 41
0.003
 10
0.071063
 20
0.07522
 40
0.003
 41
0.003
  0
LWPOLYLINE
  5
1D1
100
AcDbEntity
  8
0
 62
   254
100
AcDbPolyline
 90
        2
 70
     0
 39
0.003
 10
0.085996
 20
0.059165
 40
0.003
 41
0.003
 10
0.737193
 20
0.445311
 40
0.003
 41
0.003
  0
LWPOLYLINE
  5
1D2
100
AcDbEntity
  8
0
 62
   254
100
AcDbPolyline
 90
        2
 70
     0
 39
0.003
 10
0.737193
 20
0.445311
 40
0.003
 41
0.003
 10
0.751374
 20
0.428063
 40
0.003
 41
0.003
  0
LWPOLYLINE
  5
1D3
100
AcDbEntity
  8
0
 62
   254
100
AcDbPolyline
 90
        2
 70
     0
 39
0.003
 10
0.751374
 20
0.428063
 40
0.003
 41
0.003
 10
0.100177
 20
0.041917
 40
0.003
 41
0.003
  0
LWPOLYLINE
  5
1D4
100
AcDbEntity
  8
0
 62
   254
100
AcDbPolyline
 90
        2
 70
     0
 39
0.003
 10
0.100177
 20
0.041917
 40
0.003
 41
0.003
 10
0.085996
 20
0.059165
 40
0.003
 41
0.003
  0
LWPOLYLINE
  5
1D5
100
AcDbEntity
  8
0
 62
   254
100
AcDbPolyline
 90
        2
 70
     0
 39
0.003
 10
0.100177
 20
0.041917
 40
0.003
 41
0.003
 10
0.751374
 20
0.428063
 40
0.003
 41
0.003
  0
LWPOLYLINE
  5
1D6
100
AcDbEntity
  8
0
 62
   254
100
AcDbPolyline
 90
        2
 70
     0
 39
0.003
 10
0.751374
 20
0.428063
 40
0.003
 41
0.003
 10
0.764764
 20
0.409657
 40
0.003
 41
0.003
  0
LWPOLYLINE
  5
1D7
100
AcDbEntity
  8
0
 62
   254
100
AcDbPolyline
 90
        2
 70
     0
 39
0.003
 10
0.764764
 20
0.409657
 40
0.003
 41
0.003
 10
0.113567
 20
0.023512
 40
0.003
 41
0.003
  0
LWPOLYLINE
  5
1D8
100
AcDbEntity
  8
0
 62
   254
100
AcDbPolyline
 90
        2
 70
     0
 39
0.003
 10
0.113567
 20
0.023512
 40
0.003
 41
0.003
 10
0.100177
 20
0.041917
 40
0.003
 41
0.003
  0
LWPOLYLINE
  5
1D9
100
AcDbEntity
  8
0
 62
   254
100
AcDbPolyline
 90
        2
 70
     0
 39
0.003
 10
0.113567
 20
0.023512
 40
0.003
 41
0.003
 10
0.764764
 20
0.409657
 40
0.003
 41
0.003
  0
LWPOLYLINE
  5
1DA
100
AcDbEntity
  8
0
 62
   254
100
AcDbPolyline
 90
        2
 70
     0
 39
0.003
 10
0.764764
 20
0.409657
 40
0.003
 41
0.003
 10
0.777346
 20
0.390146
 40
0.003
 41
0.003
  0
LWPOLYLINE
  5
1DB
100
AcDbEntity
  8
0
 62
   254
100
AcDbPolyline
 90
        2
 70
     0
 39
0.003
 10
0.777346
 20
0.390146
 40
0.003
 41
0.003
 10
0.12615
 20
0.004
 40
0.003
 41
0.003
  0
LWPOLYLINE
  5
1DC
100
AcDbEntity
  8
0
 62
   254
100
AcDbPolyline
 90
        2
 70
     0
 39
0.003
 10
0.12615
 20
0.004
 40
0.003
 41
0.003
 10
0.113567
 20
0.023512
 40
0.003
 41
0.003
  0
LWPOLYLINE
  5
1DD
100
AcDbEntity
  8
0
 62
   254
100
AcDbPolyline
 90
        2
 70
     0
 39
0.003
 10
0.12615
 20
0.004
 40
0.003
 41
0.003
 10
0.777346
 20
0.390146
 40
0.003
 41
0.003
  0
LWPOLYLINE
  5
1DE
100
AcDbEntity
  8
0
 62
   254
100
AcDbPolyline
 90
        2
 70
     0
 39
0.003
 10
0.777346
 20
0.390146
 40
0.003
 41
0.003
 10
0.789087
 20
0.369559
 40
0.003
 41
0.003
  0
LWPOLYLINE
  5
1DF
100
AcDbEntity
  8
0
 62
   254
100
AcDbPolyline
 90
        2
 70
     0
 39
0.003
 10
0.789087
 20
0.369559
 40
0.003
 41
0.003
 10
0.13789
 20
-0.016587
 40
0.003
 41
0.003
  0
LWPOLYLINE
  5
1E0
100
AcDbEntity
  8
0
 62
   254
100
AcDbPolyline
 90
        2
 70
     0
 39
0.003
 10
0.13789
 20
-0.016587
 40
0.003
 41
0.003
 10
0.12615
 20
0.004
 40
0.003
 41
0.003
  0
LWPOLYLINE
  5
1E1
100
AcDbEntity
  8
0
 62
   254
100
AcDbPolyline
 90
        2
 70
     0
 39
0.003
 10
0.13789
 20
-0.016587
 40
0.003
 41
0.003
 10
0.789087
 20
0.369559
 40
0.003
 41
0.003
  0
LWPOLYLINE
  5
1E2
100
AcDbEntity
  8
0
 62
   254
100
AcDbPolyline
 90
        2
 70
     0
 39
0.003
 10
0.789087
 20
0.369559
 40
0.003
 41
0.003
 10
0.799961
 20
0.347953
 40
0.003
 41
0.003
  0
LWPOLYLINE
  5
1E3
100
AcDbEntity
  8
0
 62
   254
100
AcDbPolyline
 90
        2
 70
     0
 39
0.003
 10
0.799961
 20
0.347953
 40
0.003
 41
0.003
 10
0.148764
 20
-0.038193
 40
0.003
 41
0.003
  0
LWPOLYLINE
  5
1E4
100
AcDbEntity
  8
0
 62
   254
100
AcDbPolyline
 90
        2
 70
     0
 39
0.003
 10
0.148764
 20
-0.038193
 40
0.003
 41
0.003
 10
0.13789
 20
-0.016587
 40
0.003
 41
0.003
  0
LWPOLYLINE
  5
1E5
100
AcDbEntity
  8
0
 62
   254
100
AcDbPolyline
 90
        2
 70
     0
 39
0.003
 10
0.148764
 20
-0.038193
 40
0.003
 41
0.003
 10
0.799961
 20
0.347953
 40
0.003
 41
0.003
  0
LWPOLYLINE
  5
1E6
100
AcDbEntity
  8
0
 62
   254
100
AcDbPolyline
 90
        2
 70
     0
 39
0.003
 10
0.799961
 20
0.347953
 40
0.003
 41
0.003
 10
0.809933
 20
0.32535
 40
0.003
 41
0.003
  0
LWPOLYLINE
  5
1E7
100
AcDbEntity
  8
0
 62
   254
100
AcDbPolyline
 90
        2
 70
     0
 39
0.003
 10
0.809933
 20
0.32535
 40
0.003
 41
0.003
 10
0.158736
 20
-0.060795
 40
0.003
 41
0.003
  0
LWPOLYLINE
  5
1E8
100
AcDbEntity
  8
0
 62
   254
100
AcDbPolyline
 90
        2
 70
     0
 39
0.003
 10
0.158736
 20
-0.060795
 40
0.003
 41
0.003
 10
0.148764
 20
-0.038193
 40
0.003
 41
0.003
  0
LWPOLYLINE
  5
1E9
100
AcDbEntity
  8
0
 62
   254
100
AcDbPolyline
 90
        2
 70
     0
 39
0.003
 10
0.158736
 20
-0.060795
 40
0.003
 41
0.003
 10
0.809933
 20
0.32535
 40
0.003
 41
0.003
  0
LWPOLYLINE
  5
1EA
100
AcDbEntity
  8
0
 62
   254
100
AcDbPolyline
 90
        2
 70
     0
 39
0.003
 10
0.809933
 20
0.32535
 40
0.003
 41
0.003
 10
0.818988
 20
0.301811
 40
0.003
 41
0.003
  0
LWPOLYLINE
  5
1EB
100
AcDbEntity
  8
0
 62
   254
100
AcDbPolyline
 90
        2
 70
     0
 39
0.003
 10
0.818988
 20
0.301811
 40
0.003
 41
0.003
 10
0.167791
 20
-0.084335
 40
0.003
 41
0.003
  0
LWPOLYLINE
  5
1EC
100
AcDbEntity
  8
0
 62
   254
100
AcDbPolyline
 90
        2
 70
     0
 39
0.003
 10
0.167791
 20
-0.084335
 40
0.003
 41
0.003
 10
0.158736
 20
-0.060795
 40
0.003
 41
0.003
  0
LWPOLYLINE
  5
1ED
100
AcDbEntity
  8
0
 62
   254
100
AcDbPolyline
 90
        2
 70
     0
 39
0.003
 10
0.167791
 20
-0.084335
 40
0.003
 41
0.003
 10
0.818988
 20
0.301811
 40
0.003
 41
0.003
  0
LWPOLYLINE
  5
1EE
100
AcDbEntity
  8
0
 62
   254
100
AcDbPolyline
 90
        2
 70
     0
 39
0.003
 10
0.818988
 20
0.301811
 40
0.003
 41
0.003
 10
0.827087
 20
0.277362
 40
0.003
 41
0.003
  0
LWPOLYLINE
  5
1EF
100
AcDbEntity
  8
0
 62
   254
100
AcDbPolyline
 90
        2
 70
     0
 39
0.003
 10
0.827087
 20
0.277362
 40
0.003
 41
0.003
 10
0.17589
 20
-0.108783
 40
0.003
 41
0.003
  0
LWPOLYLINE
  5
1F0
100
AcDbEntity
  8
0
 62
   254
100
AcDbPolyline
 90
        2
 70
     0
 39
0.003
 10
0.17589
 20
-0.108783
 40
0.003
 41
0.003
 10
0.167791
 20
-0.084335
 40
0.003
 41
0.003
  0
LWPOLYLINE
  5
1F1
100
AcDbEntity
  8
0
 62
   254
100
AcDbPolyline
 90
        2
 70
     0
 39
0.003
 10
0.17589
 20
-0.108783
 40
0.003
 41
0.003
 10
0.827087
 20
0.277362
 40
0.003
 41
0.003
  0
LWPOLYLINE
  5
1F2
100
AcDbEntity
  8
0
 62
   254
100
AcDbPolyline
 90
        2
 70
     0
 39
0.003
 10
0.827087
 20
0.277362
 40
0.003
 41
0.003
 10
0.834217
 20
0.252063
 40
0.003
 41
0.003
  0
LWPOLYLINE
  5
1F3
100
AcDbEntity
  8
0
 62
   254
100
AcDbPolyline
 90
        2
 70
     0
 39
0.003
 10
0.834217
 20
0.252063
 40
0.003
 41
0.003
 10
0.18302
 20
-0.134083
 40
0.003
 41
0.003
  0
LWPOLYLINE
  5
1F4
100
AcDbEntity
  8
0
 62
   254
100
AcDbPolyline
 90
        2
 70
     0
 39
0.003
 10
0.18302
 20
-0.134083
 40
0.003
 41
0.003
 10
0.17589
 20
-0.108783
 40
0.003
 41
0.003
  0
LWPOLYLINE
  5
1F5
100
AcDbEntity
  8
0
 62
   254
100
AcDbPolyline
 90
        2
 70
     0
 39
0.003
 10
0.18302
 20
-0.134083
 40
0.003
 41
0.003
 10
0.834217
 20
0.252063
 40
0.003
 41
0.003
  0
LWPOLYLINE
  5
1F6
100
AcDbEntity
  8
0
 62
   254
100
AcDbPolyline
 90
        2
 70
     0
 39
0.003
 10
0.834217
 20
0.252063
 40
0.003
 41
0.003
 10
0.840335
 20
0.225937
 40
0.003
 41
0.003
  0
LWPOLYLINE
  5
1F7
100
AcDbEntity
  8
0
 62
   254
100
AcDbPolyline
 90
        2
 70
     0
 39
0.003
 10
0.840335
 20
0.225937
 40
0.003
 41
0.003
 10
0.189138
 20
-0.160209
 40
0.003
 41
0.003
  0
LWPOLYLINE
  5
1F8
100
AcDbEntity
  8
0
 62
   254
100
AcDbPolyline
 90
        2
 70
     0
 39
0.003
 10
0.189138
 20
-0.160209
 40
0.003
 41
0.003
 10
0.18302
 20
-0.134083
 40
0.003
 41
0.003
  0
LWPOLYLINE
  5
1F9
100
AcDbEntity
  8
0
 62
   254
100
AcDbPolyline
 90
        2
 70
     0
 39
0.003
 10
0.189138
 20
-0.160209
 40
0.003
 41
0.003
 10
0.840335
 20
0.225937
 40
0.003
 41
0.003
  0
LWPOLYLINE
  5
1FA
100
AcDbEntity
  8
0
 62
   254
100
AcDbPolyline
 90
        2
 70
     0
 39
0.003
 10
0.840335
 20
0.225937
 40
0.003
 41
0.003
 10
0.845425
 20
0.199039
 40
0.003
 41
0.003
  0
LWPOLYLINE
  5
1FB
100
AcDbEntity
  8
0
 62
   254
100
AcDbPolyline
 90
        2
 70
     0
 39
0.003
 10
0.845425
 20
0.199039
 40
0.003
 41
0.003
 10
0.194228
 20
-0.187106
 40
0.003
 41
0.003
  0
LWPOLYLINE
  5
1FC
100
AcDbEntity
  8
0
 62
   254
100
AcDbPolyline
 90
        2
 70
     0
 39
0.003
 10
0.194228
 20
-0.187106
 40
0.003
 41
0.003
 10
0.189138
 20
-0.160209
 40
0.003
 41
0.003
  0
LWPOLYLINE
  5
1FD
100
AcDbEntity
  8
0
 62
   254
100
AcDbPolyline
 90
        2
 70
     0
 39
0.003
 10
0.194228
 20
-0.187106
 40
0.003
 41
0.003
 10
0.845425
 20
0.199039
 40
0.003
 41
0.003
  0
LWPOLYLINE
  5
1FE
100
AcDbEntity
  8
0
 62
   254
100
AcDbPolyline
 90
        2
 70
     0
 39
0.003
 10
0.845425
 20
0.199039
 40
0.003
 41
0.003
 10
0.849449
 20
0.171406
 40
0.003
 41
0.003
  0
LWPOLYLINE
  5
1FF
100
AcDbEntity
  8
0
 62
   254
100
AcDbPolyline
 90
        2
 70
     0
 39
0.003
 10
0.849449
 20
0.171406
 40
0.003
 41
0.003
 10
0.198252
 20
-0.21474
 40
0.003
 41
0.003
  0
LWPOLYLINE
  5
200
100
AcDbEntity
  8
0
 62
   254
100
AcDbPolyline
 90
        2
 70
     0
 39
0.003
 10
0.198252
 20
-0.21474
 40
0.003
 41
0.003
 10
0.194228
 20
-0.187106
 40
0.003
 41
0.003
  0
LWPOLYLINE
  5
201
100
AcDbEntity
  8
0
 62
   254
100
AcDbPolyline
 90
        2
 70
     0
 39
0.003
 10
0.198252
 20
-0.21474
 40
0.003
 41
0.003
 10
0.849449
 20
0.171406
 40
0.003
 41
0.003
  0
LWPOLYLINE
  5
202
100
AcDbEntity
  8
0
 62
   254
100
AcDbPolyline
 90
        2
 70
     0
 39
0.003
 10
0.849449
 20
0.171406
 40
0.003
 41
0.003
 10
0.852394
 20
0.143087
 40
0.003
 41
0.003
  0
LWPOLYLINE
  5
203
100
AcDbEntity
  8
0
 62
   254
100
AcDbPolyline
 90
        2
 70
     0
 39
0.003
 10
0.852394
 20
0.143087
 40
0.003
 41
0.003
 10
0.201197
 20
-0.243059
 40
0.003
 41
0.003
  0
LWPOLYLINE
  5
204
100
AcDbEntity
  8
0
 62
   254
100
AcDbPolyline
 90
        2
 70
     0
 39
0.003
 10
0.201197
 20
-0.243059
 40
0.003
 41
0.003
 10
0.198252
 20
-0.21474
 40
0.003
 41
0.003
  0
LWPOLYLINE
  5
205
100
AcDbEntity
  8
0
 62
   254
100
AcDbPolyline
 90
        2
 70
     0
 39
0.003
 10
0.201197
 20
-0.243059
 40
0.003
 41
0.003
 10
0.852394
 20
0.143087
 40
0.003
 41
0.003
  0
LWPOLYLINE
  5
206
100
AcDbEntity
  8
0
 62
   254
100
AcDbPolyline
 90
        2
 70
     0
 39
0.003
 10
0.852394
 20
0.143087
 40
0.003
 41
0.003
 10
0.854213
 20
0.114106
 40
0.003
 41
0.003
  0
LWPOLYLINE
  5
207
100
AcDbEntity
  8
0
 62
   254
100
AcDbPolyline
 90
        2
 70
     0
 39
0.003
 10
0.854213
 20
0.114106
 40
0.003
 41
0.003
 10
0.203016
 20
-0.272039
 40
0.003
 41
0.003
  0
LWPOLYLINE
  5
208
100
AcDbEntity
  8
0
 62
   254
100
AcDbPolyline
 90
        2
 70
     0
 39
0.003
 10
0.203016
 20
-0.272039
 40
0.003
 41
0.003
 10
0.201197
 20
-0.243059
 40
0.003
 41
0.003
  0
LWPOLYLINE
  5
209
100
AcDbEntity
  8
0
 62
   254
100
AcDbPolyline
 90
        2
 70
     0
 39
0.003
 10
0.203016
 20
-0.272039
 40
0.003
 41
0.003
 10
0.854213
 20
0.114106
 40
0.003
 41
0.003
  0
LWPOLYLINE
  5
20A
100
AcDbEntity
  8
0
 62
   254
100
AcDbPolyline
 90
        2
 70
     0
 39
0.003
 10
0.854213
 20
0.114106
 40
0.003
 41
0.003
 10
0.854894
 20
0.084524
 40
0.003
 41
0.003
  0
LWPOLYLINE
  5
20B
100
AcDbEntity
  8
0
 62
   254
100
AcDbPolyline
 90
        2
 70
     0
 39
0.003
 10
0.854894
 20
0.084524
 40
0.003
 41
0.003
 10
0.203697
 20
-0.301622
 40
0.003
 41
0.003
  0
LWPOLYLINE
  5
20C
100
AcDbEntity
  8
0
 62
   254
100
AcDbPolyline
 90
        2
 70
     0
 39
0.003
 10
0.203697
 20
-0.301622
 40
0.003
 41
0.003
 10
0.203016
 20
-0.272039
 40
0.003
 41
0.003
  0
LWPOLYLINE
  5
20D
100
AcDbEntity
  8
0
 62
   254
100
AcDbPolyline
 90
        2
 70
     0
 39
0.003
 10
0.203697
 20
-0.301622
 40
0.003
 41
0.003
 10
0.854894
 20
0.084524
 40
0.003
 41
0.003
  0
LWPOLYLINE
  5
20E
100
AcDbEntity
  8
0
 62
   254
100
AcDbPolyline
 90
        2
 70
     0
 39
0.003
 10
0.854894
 20
0.084524
 40
0.003
 41
0.003
 10
0.854402
 20
0.054366
 40
0.003
 41
0.003
  0
LWPOLYLINE
  5
20F
100
AcDbEntity
  8
0
 62
   254
100
AcDbPolyline
 90
        2
 70
     0
 39
0.003
 10
0.854402
 20
0.054366
 40
0.003
 41
0.003
 10
0.203205
 20
-0.33178
 40
0.003
 41
0.003
  0
LWPOLYLINE
  5
210
100
AcDbEntity
  8
0
 62
   254
100
AcDbPolyline
 90
        2
 70
     0
 39
0.003
 10
0.203205
 20
-0.33178
 40
0.003
 41
0.003
 10
0.203697
 20
-0.301622
 40
0.003
 41
0.003
  0
LWPOLYLINE
  5
211
100
AcDbEntity
  8
0
 62
   254
100
AcDbPolyline
 90
        2
 70
     0
 39
0.003
 10
0.203205
 20
-0.33178
 40
0.003
 41
0.003
 10
0.854402
 20
0.054366
 40
0.003
 41
0.003
  0
LWPOLYLINE
  5
212
100
AcDbEntity
  8
0
 62
   254
100
AcDbPolyline
 90
        2
 70
     0
 39
0.003
 10
0.854402
 20
0.054366
 40
0.003
 41
0.003
 10
0.85272
 20
0.023697
 40
0.003
 41
0.003
  0
LWPOLYLINE
  5
213
100
AcDbEntity
  8
0
 62
   254
100
AcDbPolyline
 90
        2
 70
     0
 39
0.003
 10
0.85272
 20
0.023697
 40
0.003
 41
0.003
 10
0.201524
 20
-0.362449
 40
0.003
 41
0.003
  0
LWPOLYLINE
  5
214
100
AcDbEntity
  8
0
 62
   254
100
AcDbPolyline
 90
        2
 70
     0
 39
0.003
 10
0.201524
 20
-0.362449
 40
0.003
 41
0.003
 10
0.203205
 20
-0.33178
 40
0.003
 41
0.003
  0
LWPOLYLINE
  5
215
100
AcDbEntity
  8
0
 62
   254
100
AcDbPolyline
 90
        2
 70
     0
 39
0.003
 10
0.201524
 20
-0.362449
 40
0.003
 41
0.003
 10
0.85272
 20
0.023697
 40
0.003
 41
0.003
  0
LWPOLYLINE
  5
216
100
AcDbEntity
  8
0
 62
   254
100
AcDbPolyline
 90
        2
 70
     0
 39
0.003
 10
0.85272
 20
0.023697
 40
0.003
 41
0.003
 10
0.849803
 20
-0.007465
 40
0.003
 41
0.003
  0
LWPOLYLINE
  5
217
100
AcDbEntity
  8
0
 62
   254
100
AcDbPolyline
 90
        2
 70
     0
 39
0.003
 10
0.849803
 20
-0.007465
 40
0.003
 41
0.003
 10
0.198606
 20
-0.39361
 40
0.003
 41
0.003
  0
LWPOLYLINE
  5
218
100
AcDbEntity
  8
0
 62
   254
100
AcDbPolyline
 90
        2
 70
     0
 39
0.003
 10
0.198606
 20
-0.39361
 40
0.003
 41
0.003
 10
0.201524
 20
-0.362449
 40
0.003
 41
0.003
  0
LWPOLYLINE
  5
219
100
AcDbEntity
  8
0
 62
   254
100
AcDbPolyline
 90
        2
 70
     0
 39
0.003
 10
0.198606
 20
-0.39361
 40
0.003
 41
0.003
 10
0.849803
 20
-0.007465
 40
0.003
 41
0.003
  0
LWPOLYLINE
  5
21A
100
AcDbEntity
  8
0
 62
   254
100
AcDbPolyline
 90
        2
 70
     0
 39
0.003
 10
0.849803
 20
-0.007465
 40
0.003
 41
0.003
 10
0.845642
 20
-0.039059
 40
0.003
 41
0.003
  0
LWPOLYLINE
  5
21B
100
AcDbEntity
  8
0
 62
   254
100
AcDbPolyline
 90
        2
 70
     0
 39
0.003
 10
0.845642
 20
-0.039059
 40
0.003
 41
0.003
 10
0.194445
 20
-0.425205
 40
0.003
 41
0.003
  0
LWPOLYLINE
  5
21C
100
AcDbEntity
  8
0
 62
   254
100
AcDbPolyline
 90
        2
 70
     0
 39
0.003
 10
0.194445
 20
-0.425205
 40
0.003
 41
0.003
 10
0.198606
 20
-0.39361
 40
0.003
 41
0.003
  0
LWPOLYLINE
  5
21D
100
AcDbEntity
  8
0
 62
   254
100
AcDbPolyline
 90
        2
 70
     0
 39
0.003
 10
0.194445
 20
-0.425205
 40
0.003
 41
0.003
 10
0.845642
 20
-0.039059
 40
0.003
 41
0.003
  0
LWPOLYLINE
  5
21E
100
AcDbEntity
  8
0
 62
   254
100
AcDbPolyline
 90
        2
 70
     0
 39
0.003
 10
0.845642
 20
-0.039059
 40
0.003
 41
0.003
 10
0.840193
 20
-0.071059
 40
0.003
 41
0.003
  0
LWPOLYLINE
  5
21F
100
AcDbEntity
  8
0
 62
   254
100
AcDbPolyline
 90
        2
 70
     0
 39
0.003
 10
0.840193
 20
-0.071059
 40
0.003
 41
0.003
 10
0.188996
 20
-0.457205
 40
0.003
 41
0.003
  0
LWPOLYLINE
  5
220
100
AcDbEntity
  8
0
 62
   254
100
AcDbPolyline
 90
        2
 70
     0
 39
0.003
 10
0.188996
 20
-0.457205
 40
0.003
 41
0.003
 10
0.194445
 20
-0.425205
 40
0.003
 41
0.003
  0
LWPOLYLINE
  5
221
100
AcDbEntity
  8
0
 62
   254
100
AcDbPolyline
 90
        2
 70
     0
 39
0.003
 10
0.188996
 20
-0.457205
 40
0.003
 41
0.003
 10
0.840193
 20
-0.071059
 40
0.003
 41
0.003
  0
LWPOLYLINE
  5
222
100
AcDbEntity
  8
0
 62
   254
100
AcDbPolyline
 90
        2
 70
     0
 39
0.003
 10
0.840193
 20
-0.071059
 40
0.003
 41
0.003
 10
0.833449
 20
-0.103421
 40
0.003
 41
0.003
  0
LWPOLYLINE
  5
223
100
AcDbEntity
  8
0
 62
   254
100
AcDbPolyline
 90
        2
 70
     0
 39
0.003
 10
0.833449
 20
-0.103421
 40
0.003
 41
0.003
 10
0.182252
 20
-0.489567
 40
0.003
 41
0.003
  0
LWPOLYLINE
  5
224
100
AcDbEntity
  8
0
 62
   254
100
AcDbPolyline
 90
        2
 70
     0
 39
0.003
 10
0.182252
 20
-0.489567
 40
0.003
 41
0.003
 10
0.188996
 20
-0.457205
 40
0.003
 41
0.003
  0
LWPOLYLINE
  5
225
100
AcDbEntity
  8
0
 62
     0
100
AcDbPolyline
 90
        2
 70
     0
 39
0.003
 10
-0.113921
 20
0.160799
 40
0.003
 41
0.003
 10
0.537276
 20
0.546945
 40
0.003
 41
0.003
  0
LWPOLYLINE
  5
226
100
AcDbEntity
  8
0
 62
     0
100
AcDbPolyline
 90
        2
 70
     0
 39
0.003
 10
0.537276
 20
0.546945
 40
0.003
 41
0.003
 10
0.558283
 20
0.545146
 40
0.003
 41
0.003
  0
LWPOLYLINE
  5
227
100
AcDbEntity
  8
0
 62
     0
100
AcDbPolyline
 90
        2
 70
     0
 39
0.003
 10
0.558283
 20
0.545146
 40
0.003
 41
0.003
 10
0.578803
 20
0.541736
 40
0.003
 41
0.003
  0
LWPOLYLINE
  5
228
100
AcDbEntity
  8
0
 62
     0
100
AcDbPolyline
 90
        2
 70
     0
 39
0.003
 10
0.578803
 20
0.541736
 40
0.003
 41
0.003
 10
0.598815
 20
0.536752
 40
0.003
 41
0.003
  0
LWPOLYLINE
  5
229
100
AcDbEntity
  8
0
 62
     0
100
AcDbPolyline
 90
        2
 70
     0
 39
0.003
 10
0.598815
 20
0.536752
 40
0.003
 41
0.003
 10
0.61828
 20
0.53024
 40
0.003
 41
0.003
  0
LWPOLYLINE
  5
22A
100
AcDbEntity
  8
0
 62
     0
100
AcDbPolyline
 90
        2
 70
     0
 39
0.003
 10
0.61828
 20
0.53024
 40
0.003
 41
0.003
 10
0.637185
 20
0.522232
 40
0.003
 41
0.003
  0
LWPOLYLINE
  5
22B
100
AcDbEntity
  8
0
 62
     0
100
AcDbPolyline
 90
        2
 70
     0
 39
0.003
 10
0.637185
 20
0.522232
 40
0.003
 41
0.003
 10
0.655492
 20
0.512787
 40
0.003
 41
0.003
  0
LWPOLYLINE
  5
22C
100
AcDbEntity
  8
0
 62
     0
100
AcDbPolyline
 90
        2
 70
     0
 39
0.003
 10
0.655492
 20
0.512787
 40
0.003
 41
0.003
 10
0.673181
 20
0.501933
 40
0.003
 41
0.003
  0
LWPOLYLINE
  5
22D
100
AcDbEntity
  8
0
 62
     0
100
AcDbPolyline
 90
        2
 70
     0
 39
0.003
 10
0.673181
 20
0.501933
 40
0.003
 41
0.003
 10
0.690228
 20
0.48972
 40
0.003
 41
0.003
  0
LWPOLYLINE
  5
22E
100
AcDbEntity
  8
0
 62
     0
100
AcDbPolyline
 90
        2
 70
     0
 39
0.003
 10
0.690228
 20
0.48972
 40
0.003
 41
0.003
 10
0.706591
 20
0.476181
 40
0.003
 41
0.003
  0
LWPOLYLINE
  5
22F
100
AcDbEntity
  8
0
 62
     0
100
AcDbPolyline
 90
        2
 70
     0
 39
0.003
 10
0.706591
 20
0.476181
 40
0.003
 41
0.003
 10
0.72226
 20
0.461366
 40
0.003
 41
0.003
  0
LWPOLYLINE
  5
230
100
AcDbEntity
  8
0
 62
     0
100
AcDbPolyline
 90
        2
 70
     0
 39
0.003
 10
0.72226
 20
0.461366
 40
0.003
 41
0.003
 10
0.737193
 20
0.445311
 40
0.003
 41
0.003
  0
LWPOLYLINE
  5
231
100
AcDbEntity
  8
0
 62
     0
100
AcDbPolyline
 90
        2
 70
     0
 39
0.003
 10
0.737193
 20
0.445311
 40
0.003
 41
0.003
 10
0.751374
 20
0.428063
 40
0.003
 41
0.003
  0
LWPOLYLINE
  5
232
100
AcDbEntity
  8
0
 62
     0
100
AcDbPolyline
 90
        2
 70
     0
 39
0.003
 10
0.751374
 20
0.428063
 40
0.003
 41
0.003
 10
0.764764
 20
0.409657
 40
0.003
 41
0.003
  0
LWPOLYLINE
  5
233
100
AcDbEntity
  8
0
 62
     0
100
AcDbPolyline
 90
        2
 70
     0
 39
0.003
 10
0.764764
 20
0.409657
 40
0.003
 41
0.003
 10
0.777346
 20
0.390146
 40
0.003
 41
0.003
  0
LWPOLYLINE
  5
234
100
AcDbEntity
  8
0
 62
     0
100
AcDbPolyline
 90
        2
 70
     0
 39
0.003
 10
0.777346
 20
0.390146
 40
0.003
 41
0.003
 10
0.789087
 20
0.369559
 40
0.003
 41
0.003
  0
LWPOLYLINE
  5
235
100
AcDbEntity
  8
0
 62
     0
100
AcDbPolyline
 90
        2
 70
     0
 39
0.003
 10
0.789087
 20
0.369559
 40
0.003
 41
0.003
 10
0.799961
 20
0.347953
 40
0.003
 41
0.003
  0
LWPOLYLINE
  5
236
100
AcDbEntity
  8
0
 62
     0
100
AcDbPolyline
 90
        2
 70
     0
 39
0.003
 10
0.799961
 20
0.347953
 40
0.003
 41
0.003
 10
0.809933
 20
0.32535
 40
0.003
 41
0.003
  0
LWPOLYLINE
  5
237
100
AcDbEntity
  8
0
 62
     0
100
AcDbPolyline
 90
        2
 70
     0
 39
0.003
 10
0.809933
 20
0.32535
 40
0.003
 41
0.003
 10
0.818988
 20
0.301811
 40
0.003
 41
0.003
  0
LWPOLYLINE
  5
238
100
AcDbEntity
  8
0
 62
     0
100
AcDbPolyline
 90
        2
 70
     0
 39
0.003
 10
0.818988
 20
0.301811
 40
0.003
 41
0.003
 10
0.827087
 20
0.277362
 40
0.003
 41
0.003
  0
LWPOLYLINE
  5
239
100
AcDbEntity
  8
0
 62
     0
100
AcDbPolyline
 90
        2
 70
     0
 39
0.003
 10
0.827087
 20
0.277362
 40
0.003
 41
0.003
 10
0.834217
 20
0.252063
 40
0.003
 41
0.003
  0
LWPOLYLINE
  5
23A
100
AcDbEntity
  8
0
 62
     0
100
AcDbPolyline
 90
        2
 70
     0
 39
0.003
 10
0.834217
 20
0.252063
 40
0.003
 41
0.003
 10
0.840335
 20
0.225937
 40
0.003
 41
0.003
  0
LWPOLYLINE
  5
23B
100
AcDbEntity
  8
0
 62
     0
100
AcDbPolyline
 90
        2
 70
     0
 39
0.003
 10
0.840335
 20
0.225937
 40
0.003
 41
0.003
 10
0.845425
 20
0.199039
 40
0.003
 41
0.003
  0
LWPOLYLINE
  5
23C
100
AcDbEntity
  8
0
 62
     0
100
AcDbPolyline
 90
        2
 70
     0
 39
0.003
 10
0.845425
 20
0.199039
 40
0.003
 41
0.003
 10
0.849449
 20
0.171406
 40
0.003
 41
0.003
  0
LWPOLYLINE
  5
23D
100
AcDbEntity
  8
0
 62
     0
100
AcDbPolyline
 90
        2
 70
     0
 39
0.003
 10
0.849449
 20
0.171406
 40
0.003
 41
0.003
 10
0.852394
 20
0.143087
 40
0.003
 41
0.003
  0
LWPOLYLINE
  5
23E
100
AcDbEntity
  8
0
 62
     0
100
AcDbPolyline
 90
        2
 70
     0
 39
0.003
 10
0.852394
 20
0.143087
 40
0.003
 41
0.003
 10
0.854213
 20
0.114106
 40
0.003
 41
0.003
  0
LWPOLYLINE
  5
23F
100
AcDbEntity
  8
0
 62
     0
100
AcDbPolyline
 90
        2
 70
     0
 39
0.003
 10
0.854213
 20
0.114106
 40
0.003
 41
0.003
 10
0.854894
 20
0.084524
 40
0.003
 41
0.003
  0
LWPOLYLINE
  5
240
100
AcDbEntity
  8
0
 62
     0
100
AcDbPolyline
 90
        2
 70
     0
 39
0.003
 10
0.854894
 20
0.084524
 40
0.003
 41
0.003
 10
0.854402
 20
0.054366
 40
0.003
 41
0.003
  0
LWPOLYLINE
  5
241
100
AcDbEntity
  8
0
 62
     0
100
AcDbPolyline
 90
        2
 70
     0
 39
0.003
 10
0.854402
 20
0.054366
 40
0.003
 41
0.003
 10
0.85272
 20
0.023697
 40
0.003
 41
0.003
  0
LWPOLYLINE
  5
242
100
AcDbEntity
  8
0
 62
     0
100
AcDbPolyline
 90
        2
 70
     0
 39
0.003
 10
0.85272
 20
0.023697
 40
0.003
 41
0.003
 10
0.849803
 20
-0.007465
 40
0.003
 41
0.003
  0
LWPOLYLINE
  5
243
100
AcDbEntity
  8
0
 62
     0
100
AcDbPolyline
 90
        2
 70
     0
 39
0.003
 10
0.849803
 20
-0.007465
 40
0.003
 41
0.003
 10
0.845642
 20
-0.039059
 40
0.003
 41
0.003
  0
LWPOLYLINE
  5
244
100
AcDbEntity
  8
0
 62
     0
100
AcDbPolyline
 90
        2
 70
     0
 39
0.003
 10
0.845642
 20
-0.039059
 40
0.003
 41
0.003
 10
0.840193
 20
-0.071059
 40
0.003
 41
0.003
  0
LWPOLYLINE
  5
245
100
AcDbEntity
  8
0
 62
     0
100
AcDbPolyline
 90
        2
 70
     0
 39
0.003
 10
0.840193
 20
-0.071059
 40
0.003
 41
0.003
 10
0.833449
 20
-0.103421
 40
0.003
 41
0.003
  0
LWPOLYLINE
  5
246
100
AcDbEntity
  8
0
 62
     0
100
AcDbPolyline
 90
        2
 70
     0
 39
0.003
 10
0.833449
 20
-0.103421
 40
0.003
 41
0.003
 10
0.182252
 20
-0.489567
 40
0.003
 41
0.003
  0
LWPOLYLINE
  5
247
100
AcDbEntity
  8
0
 62
     0
100
AcDbPolyline
 90
        2
 70
     0
 39
0.003
 10
0.182252
 20
-0.489567
 40
0.003
 41
0.003
 10
0.188996
 20
-0.457205
 40
0.003
 41
0.003
  0
LWPOLYLINE
  5
248
100
AcDbEntity
  8
0
 62
     0
100
AcDbPolyline
 90
        2
 70
     0
 39
0.003
 10
0.188996
 20
-0.457205
 40
0.003
 41
0.003
 10
0.194445
 20
-0.425205
 40
0.003
 41
0.003
  0
LWPOLYLINE
  5
249
100
AcDbEntity
  8
0
 62
     0
100
AcDbPolyline
 90
        2
 70
     0
 39
0.003
 10
0.194445
 20
-0.425205
 40
0.003
 41
0.003
 10
0.198606
 20
-0.39361
 40
0.003
 41
0.003
  0
LWPOLYLINE
  5
24A
100
AcDbEntity
  8
0
 62
     0
100
AcDbPolyline
 90
        2
 70
     0
 39
0.003
 10
0.198606
 20
-0.39361
 40
0.003
 41
0.003
 10
0.201524
 20
-0.362449
 40
0.003
 41
0.003
  0
LWPOLYLINE
  5
24B
100
AcDbEntity
  8
0
 62
     0
100
AcDbPolyline
 90
        2
 70
     0
 39
0.003
 10
0.201524
 20
-0.362449
 40
0.003
 41
0.003
 10
0.203205
 20
-0.33178
 40
0.003
 41
0.003
  0
LWPOLYLINE
  5
24C
100
AcDbEntity
  8
0
 62
     0
100
AcDbPolyline
 90
        2
 70
     0
 39
0.003
 10
0.203205
 20
-0.33178
 40
0.003
 41
0.003
 10
0.203697
 20
-0.301622
 40
0.003
 41
0.003
  0
LWPOLYLINE
  5
24D
100
AcDbEntity
  8
0
 62
     0
100
AcDbPolyline
 90
        2
 70
     0
 39
0.003
 10
0.203697
 20
-0.301622
 40
0.003
 41
0.003
 10
0.203016
 20
-0.272039
 40
0.003
 41
0.003
  0
LWPOLYLINE
  5
24E
100
AcDbEntity
  8
0
 62
     0
100
AcDbPolyline
 90
        2
 70
     0
 39
0.003
 10
0.203016
 20
-0.272039
 40
0.003
 41
0.003
 10
0.201197
 20
-0.243059
 40
0.003
 41
0.003
  0
LWPOLYLINE
  5
24F
100
AcDbEntity
  8
0
 62
     0
100
AcDbPolyline
 90
        2
 70
     0
 39
0.003
 10
0.201197
 20
-0.243059
 40
0.003
 41
0.003
 10
0.198252
 20
-0.21474
 40
0.003
 41
0.003
  0
LWPOLYLINE
  5
250
100
AcDbEntity
  8
0
 62
     0
100
AcDbPolyline
 90
        2
 70
     0
 39
0.003
 10
0.198252
 20
-0.21474
 40
0.003
 41
0.003
 10
0.194228
 20
-0.187106
 40
0.003
 41
0.003
  0
LWPOLYLINE
  5
251
100
AcDbEntity
  8
0
 62
     0
100
AcDbPolyline
 90
        2
 70
     0
 39
0.003
 10
0.194228
 20
-0.187106
 40
0.003
 41
0.003
 10
0.189138
 20
-0.160209
 40
0.003
 41
0.003
  0
LWPOLYLINE
  5
252
100
AcDbEntity
  8
0
 62
     0
100
AcDbPolyline
 90
        2
 70
     0
 39
0.003
 10
0.189138
 20
-0.160209
 40
0.003
 41
0.003
 10
0.18302
 20
-0.134083
 40
0.003
 41
0.003
  0
LWPOLYLINE
  5
253
100
AcDbEntity
  8
0
 62
     0
100
AcDbPolyline
 90
        2
 70
     0
 39
0.003
 10
0.18302
 20
-0.134083
 40
0.003
 41
0.003
 10
0.17589
 20
-0.108783
 40
0.003
 41
0.003
  0
LWPOLYLINE
  5
254
100
AcDbEntity
  8
0
 62
     0
100
AcDbPolyline
 90
        2
 70
     0
 39
0.003
 10
0.17589
 20
-0.108783
 40
0.003
 41
0.003
 10
0.167791
 20
-0.084335
 40
0.003
 41
0.003
  0
LWPOLYLINE
  5
255
100
AcDbEntity
  8
0
 62
     0
100
AcDbPolyline
 90
        2
 70
     0
 39
0.003
 10
0.167791
 20
-0.084335
 40
0.003
 41
0.003
 10
0.158736
 20
-0.060795
 40
0.003
 41
0.003
  0
LWPOLYLINE
  5
256
100
AcDbEntity
  8
0
 62
     0
100
AcDbPolyline
 90
        2
 70
     0
 39
0.003
 10
0.158736
 20
-0.060795
 40
0.003
 41
0.003
 10
0.148764
 20
-0.038193
 40
0.003
 41
0.003
  0
LWPOLYLINE
  5
257
100
AcDbEntity
  8
0
 62
     0
100
AcDbPolyline
 90
        2
 70
     0
 39
0.003
 10
0.148764
 20
-0.038193
 40
0.003
 41
0.003
 10
0.13789
 20
-0.016587
 40
0.003
 41
0.003
  0
LWPOLYLINE
  5
258
100
AcDbEntity
  8
0
 62
     0
100
AcDbPolyline
 90
        2
 70
     0
 39
0.003
 10
0.13789
 20
-0.016587
 40
0.003
 41
0.003
 10
0.12615
 20
0.004
 40
0.003
 41
0.003
  0
LWPOLYLINE
  5
259
100
AcDbEntity
  8
0
 62
     0
100
AcDbPolyline
 90
        2
 70
     0
 39
0.003
 10
0.12615
 20
0.004
 40
0.003
 41
0.003
 10
0.113567
 20
0.023512
 40
0.003
 41
0.003
  0
LWPOLYLINE
  5
25A
100
AcDbEntity
  8
0
 62
     0
100
AcDbPolyline
 90
        2
 70
     0
 39
0.003
 10
0.113567
 20
0.023512
 40
0.003
 41
0.003
 10
0.100177
 20
0.041917
 40
0.003
 41
0.003
  0
LWPOLYLINE
  5
25B
100
AcDbEntity
  8
0
 62
     0
100
AcDbPolyline
 90
        2
 70
     0
 39
0.003
 10
0.100177
 20
0.041917
 40
0.003
 41
0.003
 10
0.085996
 20
0.059165
 40
0.003
 41
0.003
  0
LWPOLYLINE
  5
25C
100
AcDbEntity
  8
0
 62
     0
100
AcDbPolyline
 90
        2
 70
     0
 39
0.003
 10
0.085996
 20
0.059165
 40
0.003
 41
0.003
 10
0.071063
 20
0.07522
 40
0.003
 41
0.003
  0
LWPOLYLINE
  5
25D
100
AcDbEntity
  8
0
 62
     0
100
AcDbPolyline
 90
        2
 70
     0
 39
0.003
 10
0.071063
 20
0.07522
 40
0.003
 41
0.003
 10
0.055394
 20
0.090035
 40
0.003
 41
0.003
  0
LWPOLYLINE
  5
25E
100
AcDbEntity
  8
0
 62
     0
100
AcDbPolyline
 90
        2
 70
     0
 39
0.003
 10
0.055394
 20
0.090035
 40
0.003
 41
0.003
 10
0.039031
 20
0.103575
 40
0.003
 41
0.003
  0
LWPOLYLINE
  5
25F
100
AcDbEntity
  8
0
 62
     0
100
AcDbPolyline
 90
        2
 70
     0
 39
0.003
 10
0.039031
 20
0.103575
 40
0.003
 41
0.003
 10
0.021984
 20
0.115787
 40
0.003
 41
0.003
  0
LWPOLYLINE
  5
260
100
AcDbEntity
  8
0
 62
     0
100
AcDbPolyline
 90
        2
 70
     0
 39
0.003
 10
0.021984
 20
0.115787
 40
0.003
 41
0.003
 10
0.004295
 20
0.126642
 40
0.003
 41
0.003
  0
LWPOLYLINE
  5
261
100
AcDbEntity
  8
0
 62
     0
100
AcDbPolyline
 90
        2
 70
     0
 39
0.003
 10
0.004295
 20
0.126642
 40
0.003
 41
0.003
 10
-0.014012
 20
0.136087
 40
0.003
 41
0.003
  0
LWPOLYLINE
  5
262
100
AcDbEntity
  8
0
 62
     0
100
AcDbPolyline
 90
        2
 70
     0
 39
0.003
 10
-0.014012
 20
0.136087
 40
0.003
 41
0.003
 10
-0.032917
 20
0.144094
 40
0.003
 41
0.003
  0
LWPOLYLINE
  5
263
100
AcDbEntity
  8
0
 62
     0
100
AcDbPolyline
 90
        2
 70
     0
 39
0.003
 10
-0.032917
 20
0.144094
 40
0.003
 41
0.003
 10
-0.052382
 20
0.150606
 40
0.003
 41
0.003
  0
LWPOLYLINE
  5
264
100
AcDbEntity
  8
0
 62
     0
100
AcDbPolyline
 90
        2
 70
     0
 39
0.003
 10
-0.052382
 20
0.150606
 40
0.003
 41
0.003
 10
-0.072394
 20
0.155591
 40
0.003
 41
0.003
  0
LWPOLYLINE
  5
265
100
AcDbEntity
  8
0
 62
     0
100
AcDbPolyline
 90
        2
 70
     0
 39
0.003
 10
-0.072394
 20
0.155591
 40
0.003
 41
0.003
 10
-0.092913
 20
0.159
 40
0.003
 41
0.003
  0
LWPOLYLINE
  5
266
100
AcDbEntity
  8
0
 62
     0
100
AcDbPolyline
 90
        2
 70
     0
 39
0.003
 10
-0.092913
 20
0.159
 40
0.003
 41
0.003
 10
-0.113921
 20
0.160799
 40
0.003
 41
0.003
  0
LWPOLYLINE
  5
267
100
AcDbEntity
  8
0
 62
   253
100
AcDbPolyline
 90
        2
 70
     0
 39
0.003
 10
-0.638528
 20
1.283535
 40
0.003
 41
0.003
 10
0.012669
 20
1.669681
 40
0.003
 41
0.003
  0
LWPOLYLINE
  5
268
100
AcDbEntity
  8
0
 62
   253
100
AcDbPolyline
 90
        2
 70
     0
 39
0.003
 10
0.012669
 20
1.669681
 40
0.003
 41
0.003
 10
0.216433
 20
1.669681
 40
0.003
 41
0.003
  0
LWPOLYLINE
  5
269
100
AcDbEntity
  8
0
 62
   253
100
AcDbPolyline
 90
        2
 70
     0
 39
0.003
 10
0.216433
 20
1.669681
 40
0.003
 41
0.003
 10
-0.434764
 20
1.283535
 40
0.003
 41
0.003
  0
LWPOLYLINE
  5
26A
100
AcDbEntity
  8
0
 62
   253
100
AcDbPolyline
 90
        2
 70
     0
 39
0.003
 10
-0.434764
 20
1.283535
 40
0.003
 41
0.003
 10
-0.638528
 20
1.283535
 40
0.003
 41
0.003
  0
LWPOLYLINE
  5
26B
100
AcDbEntity
  8
0
 62
     0
100
AcDbPolyline
 90
        2
 70
     0
 39
0.003
 10
-0.638528
 20
1.283535
 40
0.003
 41
0.003
 10
0.012669
 20
1.669681
 40
0.003
 41
0.003
  0
LWPOLYLINE
  5
26C
100
AcDbEntity
  8
0
 62
     0
100
AcDbPolyline
 90
        2
 70
     0
 39
0.003
 10
0.012669
 20
1.669681
 40
0.003
 41
0.003
 10
0.216433
 20
1.669681
 40
0.003
 41
0.003
  0
LWPOLYLINE
  5
26D
100
AcDbEntity
  8
0
 62
     0
100
AcDbPolyline
 90
        2
 70
     0
 39
0.003
 10
0.216433
 20
1.669681
 40
0.003
 41
0.003
 10
-0.434764
 20
1.283535
 40
0.003
 41
0.003
  0
LWPOLYLINE
  5
26E
100
AcDbEntity
  8
0
 62
     0
100
AcDbPolyline
 90
        2
 70
     0
 39
0.003
 10
-0.434764
 20
1.283535
 40
0.003
 41
0.003
 10
-0.638528
 20
1.283535
 40
0.003
 41
0.003
  0
LWPOLYLINE
  5
26F
100
AcDbEntity
  8
0
 62
   254
100
AcDbPolyline
 90
        2
 70
     0
 39
0.003
 10
-0.434764
 20
1.283535
 40
0.003
 41
0.003
 10
0.216433
 20
1.669681
 40
0.003
 41
0.003
  0
LWPOLYLINE
  5
270
100
AcDbEntity
  8
0
 62
   254
100
AcDbPolyline
 90
        2
 70
     0
 39
0.003
 10
0.216433
 20
1.669681
 40
0.003
 41
0.003
 10
0.216433
 20
1.530217
 40
0.003
 41
0.003
  0
LWPOLYLINE
  5
271
100
AcDbEntity
  8
0
 62
   254
100
AcDbPolyline
 90
        2
 70
     0
 39
0.003
 10
0.216433
 20
1.530217
 40
0.003
 41
0.003
 10
-0.434764
 20
1.144071
 40
0.003
 41
0.003
  0
LWPOLYLINE
  5
272
100
AcDbEntity
  8
0
 62
   254
100
AcDbPolyline
 90
        2
 70
     0
 39
0.003
 10
-0.434764
 20
1.144071
 40
0.003
 41
0.003
 10
-0.434764
 20
1.283535
 40
0.003
 41
0.003
  0
LWPOLYLINE
  5
273
100
AcDbEntity
  8
0
 62
     0
100
AcDbPolyline
 90
        2
 70
     0
 39
0.003
 10
-0.434764
 20
1.283535
 40
0.003
 41
0.003
 10
0.216433
 20
1.669681
 40
0.003
 41
0.003
  0
LWPOLYLINE
  5
274
100
AcDbEntity
  8
0
 62
     0
100
AcDbPolyline
 90
        2
 70
     0
 39
0.003
 10
0.216433
 20
1.669681
 40
0.003
 41
0.003
 10
0.216433
 20
1.530217
 40
0.003
 41
0.003
  0
LWPOLYLINE
  5
275
100
AcDbEntity
  8
0
 62
     0
100
AcDbPolyline
 90
        2
 70
     0
 39
0.003
 10
0.216433
 20
1.530217
 40
0.003
 41
0.003
 10
-0.434764
 20
1.144071
 40
0.003
 41
0.003
  0
LWPOLYLINE
  5
276
100
AcDbEntity
  8
0
 62
     0
100
AcDbPolyline
 90
        2
 70
     0
 39
0.003
 10
-0.434764
 20
1.144071
 40
0.003
 41
0.003
 10
-0.434764
 20
1.283535
 40
0.003
 41
0.003
  0
LWPOLYLINE
  5
277
100
AcDbEntity
  8
0
 62
   254
100
AcDbPolyline
 90
        2
 70
     0
 39
0.003
 10
-0.38665
 20
0.77539
 40
0.003
 41
0.003
 10
0.264547
 20
1.161535
 40
0.003
 41
0.003
  0
LWPOLYLINE
  5
278
100
AcDbEntity
  8
0
 62
   254
100
AcDbPolyline
 90
        2
 70
     0
 39
0.003
 10
0.264547
 20
1.161535
 40
0.003
 41
0.003
 10
0.264839
 20
1.126606
 40
0.003
 41
0.003
  0
LWPOLYLINE
  5
279
100
AcDbEntity
  8
0
 62
   254
100
AcDbPolyline
 90
        2
 70
     0
 39
0.003
 10
0.264839
 20
1.126606
 40
0.003
 41
0.003
 10
-0.386358
 20
0.740461
 40
0.003
 41
0.003
  0
LWPOLYLINE
  5
27A
100
AcDbEntity
  8
0
 62
   254
100
AcDbPolyline
 90
        2
 70
     0
 39
0.003
 10
-0.386358
 20
0.740461
 40
0.003
 41
0.003
 10
-0.38665
 20
0.77539
 40
0.003
 41
0.003
  0
LWPOLYLINE
  5
27B
100
AcDbEntity
  8
0
 62
   254
100
AcDbPolyline
 90
        2
 70
     0
 39
0.003
 10
-0.386358
 20
0.740461
 40
0.003
 41
0.003
 10
0.264839
 20
1.126606
 40
0.003
 41
0.003
  0
LWPOLYLINE
  5
27C
100
AcDbEntity
  8
0
 62
   254
100
AcDbPolyline
 90
        2
 70
     0
 39
0.003
 10
0.264839
 20
1.126606
 40
0.003
 41
0.003
 10
0.266189
 20
1.09374
 40
0.003
 41
0.003
  0
LWPOLYLINE
  5
27D
100
AcDbEntity
  8
0
 62
   254
100
AcDbPolyline
 90
        2
 70
     0
 39
0.003
 10
0.266189
 20
1.09374
 40
0.003
 41
0.003
 10
-0.385008
 20
0.707594
 40
0.003
 41
0.003
  0
LWPOLYLINE
  5
27E
100
AcDbEntity
  8
0
 62
   254
100
AcDbPolyline
 90
        2
 70
     0
 39
0.003
 10
-0.385008
 20
0.707594
 40
0.003
 41
0.003
 10
-0.386358
 20
0.740461
 40
0.003
 41
0.003
  0
LWPOLYLINE
  5
27F
100
AcDbEntity
  8
0
 62
   254
100
AcDbPolyline
 90
        2
 70
     0
 39
0.003
 10
-0.385008
 20
0.707594
 40
0.003
 41
0.003
 10
0.266189
 20
1.09374
 40
0.003
 41
0.003
  0
LWPOLYLINE
  5
280
100
AcDbEntity
  8
0
 62
   254
100
AcDbPolyline
 90
        2
 70
     0
 39
0.003
 10
0.266189
 20
1.09374
 40
0.003
 41
0.003
 10
0.268547
 20
1.06287
 40
0.003
 41
0.003
  0
LWPOLYLINE
  5
281
100
AcDbEntity
  8
0
 62
   254
100
AcDbPolyline
 90
        2
 70
     0
 39
0.003
 10
0.268547
 20
1.06287
 40
0.003
 41
0.003
 10
-0.38265
 20
0.676724
 40
0.003
 41
0.003
  0
LWPOLYLINE
  5
282
100
AcDbEntity
  8
0
 62
   254
100
AcDbPolyline
 90
        2
 70
     0
 39
0.003
 10
-0.38265
 20
0.676724
 40
0.003
 41
0.003
 10
-0.385008
 20
0.707594
 40
0.003
 41
0.003
  0
LWPOLYLINE
  5
283
100
AcDbEntity
  8
0
 62
   254
100
AcDbPolyline
 90
        2
 70
     0
 39
0.003
 10
-0.38265
 20
0.676724
 40
0.003
 41
0.003
 10
0.268547
 20
1.06287
 40
0.003
 41
0.003
  0
LWPOLYLINE
  5
284
100
AcDbEntity
  8
0
 62
   254
100
AcDbPolyline
 90
        2
 70
     0
 39
0.003
 10
0.268547
 20
1.06287
 40
0.003
 41
0.003
 10
0.271858
 20
1.033945
 40
0.003
 41
0.003
  0
LWPOLYLINE
  5
285
100
AcDbEntity
  8
0
 62
   254
100
AcDbPolyline
 90
        2
 70
     0
 39
0.003
 10
0.271858
 20
1.033945
 40
0.003
 41
0.003
 10
-0.379339
 20
0.647799
 40
0.003
 41
0.003
  0
LWPOLYLINE
  5
286
100
AcDbEntity
  8
0
 62
   254
100
AcDbPolyline
 90
        2
 70
     0
 39
0.003
 10
-0.379339
 20
0.647799
 40
0.003
 41
0.003
 10
-0.38265
 20
0.676724
 40
0.003
 41
0.003
  0
LWPOLYLINE
  5
287
100
AcDbEntity
  8
0
 62
   254
100
AcDbPolyline
 90
        2
 70
     0
 39
0.003
 10
-0.379339
 20
0.647799
 40
0.003
 41
0.003
 10
0.271858
 20
1.033945
 40
0.003
 41
0.003
  0
LWPOLYLINE
  5
288
100
AcDbEntity
  8
0
 62
   254
100
AcDbPolyline
 90
        2
 70
     0
 39
0.003
 10
0.271858
 20
1.033945
 40
0.003
 41
0.003
 10
0.276079
 20
1.006882
 40
0.003
 41
0.003
  0
LWPOLYLINE
  5
289
100
AcDbEntity
  8
0
 62
   254
100
AcDbPolyline
 90
        2
 70
     0
 39
0.003
 10
0.276079
 20
1.006882
 40
0.003
 41
0.003
 10
-0.375118
 20
0.620736
 40
0.003
 41
0.003
  0
LWPOLYLINE
  5
28A
100
AcDbEntity
  8
0
 62
   254
100
AcDbPolyline
 90
        2
 70
     0
 39
0.003
 10
-0.375118
 20
0.620736
 40
0.003
 41
0.003
 10
-0.379339
 20
0.647799
 40
0.003
 41
0.003
  0
LWPOLYLINE
  5
28B
100
AcDbEntity
  8
0
 62
   254
100
AcDbPolyline
 90
        2
 70
     0
 39
0.003
 10
-0.375118
 20
0.620736
 40
0.003
 41
0.003
 10
0.276079
 20
1.006882
 40
0.003
 41
0.003
  0
LWPOLYLINE
  5
28C
100
AcDbEntity
  8
0
 62
   254
100
AcDbPolyline
 90
        2
 70
     0
 39
0.003
 10
0.276079
 20
1.006882
 40
0.003
 41
0.003
 10
0.281138
 20
0.981642
 40
0.003
 41
0.003
  0
LWPOLYLINE
  5
28D
100
AcDbEntity
  8
0
 62
   254
100
AcDbPolyline
 90
        2
 70
     0
 39
0.003
 10
0.281138
 20
0.981642
 40
0.003
 41
0.003
 10
-0.370059
 20
0.595496
 40
0.003
 41
0.003
  0
LWPOLYLINE
  5
28E
100
AcDbEntity
  8
0
 62
   254
100
AcDbPolyline
 90
        2
 70
     0
 39
0.003
 10
-0.370059
 20
0.595496
 40
0.003
 41
0.003
 10
-0.375118
 20
0.620736
 40
0.003
 41
0.003
  0
LWPOLYLINE
  5
28F
100
AcDbEntity
  8
0
 62
   254
100
AcDbPolyline
 90
        2
 70
     0
 39
0.003
 10
-0.370059
 20
0.595496
 40
0.003
 41
0.003
 10
0.281138
 20
0.981642
 40
0.003
 41
0.003
  0
LWPOLYLINE
  5
290
100
AcDbEntity
  8
0
 62
   254
100
AcDbPolyline
 90
        2
 70
     0
 39
0.003
 10
0.281138
 20
0.981642
 40
0.003
 41
0.003
 10
0.287
 20
0.95815
 40
0.003
 41
0.003
  0
LWPOLYLINE
  5
291
100
AcDbEntity
  8
0
 62
   254
100
AcDbPolyline
 90
        2
 70
     0
 39
0.003
 10
0.287
 20
0.95815
 40
0.003
 41
0.003
 10
-0.364197
 20
0.572004
 40
0.003
 41
0.003
  0
LWPOLYLINE
  5
292
100
AcDbEntity
  8
0
 62
   254
100
AcDbPolyline
 90
        2
 70
     0
 39
0.003
 10
-0.364197
 20
0.572004
 40
0.003
 41
0.003
 10
-0.370059
 20
0.595496
 40
0.003
 41
0.003
  0
LWPOLYLINE
  5
293
100
AcDbEntity
  8
0
 62
   254
100
AcDbPolyline
 90
        2
 70
     0
 39
0.003
 10
-0.364197
 20
0.572004
 40
0.003
 41
0.003
 10
0.287
 20
0.95815
 40
0.003
 41
0.003
  0
LWPOLYLINE
  5
294
100
AcDbEntity
  8
0
 62
   254
100
AcDbPolyline
 90
        2
 70
     0
 39
0.003
 10
0.287
 20
0.95815
 40
0.003
 41
0.003
 10
0.293598
 20
0.93635
 40
0.003
 41
0.003
  0
LWPOLYLINE
  5
295
100
AcDbEntity
  8
0
 62
   254
100
AcDbPolyline
 90
        2
 70
     0
 39
0.003
 10
0.293598
 20
0.93635
 40
0.003
 41
0.003
 10
-0.357598
 20
0.550205
 40
0.003
 41
0.003
  0
LWPOLYLINE
  5
296
100
AcDbEntity
  8
0
 62
   254
100
AcDbPolyline
 90
        2
 70
     0
 39
0.003
 10
-0.357598
 20
0.550205
 40
0.003
 41
0.003
 10
-0.364197
 20
0.572004
 40
0.003
 41
0.003
  0
LWPOLYLINE
  5
297
100
AcDbEntity
  8
0
 62
   254
100
AcDbPolyline
 90
        2
 70
     0
 39
0.003
 10
-0.357598
 20
0.550205
 40
0.003
 41
0.003
 10
0.293598
 20
0.93635
 40
0.003
 41
0.003
  0
LWPOLYLINE
  5
298
100
AcDbEntity
  8
0
 62
   254
100
AcDbPolyline
 90
        2
 70
     0
 39
0.003
 10
0.293598
 20
0.93635
 40
0.003
 41
0.003
 10
0.300898
 20
0.916169
 40
0.003
 41
0.003
  0
LWPOLYLINE
  5
299
100
AcDbEntity
  8
0
 62
   254
100
AcDbPolyline
 90
        2
 70
     0
 39
0.003
 10
0.300898
 20
0.916169
 40
0.003
 41
0.003
 10
-0.350299
 20
0.530024
 40
0.003
 41
0.003
  0
LWPOLYLINE
  5
29A
100
AcDbEntity
  8
0
 62
   254
100
AcDbPolyline
 90
        2
 70
     0
 39
0.003
 10
-0.350299
 20
0.530024
 40
0.003
 41
0.003
 10
-0.357598
 20
0.550205
 40
0.003
 41
0.003
  0
LWPOLYLINE
  5
29B
100
AcDbEntity
  8
0
 62
   254
100
AcDbPolyline
 90
        2
 70
     0
 39
0.003
 10
-0.350299
 20
0.530024
 40
0.003
 41
0.003
 10
0.300898
 20
0.916169
 40
0.003
 41
0.003
  0
LWPOLYLINE
  5
29C
100
AcDbEntity
  8
0
 62
   254
100
AcDbPolyline
 90
        2
 70
     0
 39
0.003
 10
0.300898
 20
0.916169
 40
0.003
 41
0.003
 10
0.308827
 20
0.897563
 40
0.003
 41
0.003
  0
LWPOLYLINE
  5
29D
100
AcDbEntity
  8
0
 62
   254
100
AcDbPolyline
 90
        2
 70
     0
 39
0.003
 10
0.308827
 20
0.897563
 40
0.003
 41
0.003
 10
-0.34237
 20
0.511417
 40
0.003
 41
0.003
  0
LWPOLYLINE
  5
29E
100
AcDbEntity
  8
0
 62
   254
100
AcDbPolyline
 90
        2
 70
     0
 39
0.003
 10
-0.34237
 20
0.511417
 40
0.003
 41
0.003
 10
-0.350299
 20
0.530024
 40
0.003
 41
0.003
  0
LWPOLYLINE
  5
29F
100
AcDbEntity
  8
0
 62
   254
100
AcDbPolyline
 90
        2
 70
     0
 39
0.003
 10
-0.34237
 20
0.511417
 40
0.003
 41
0.003
 10
0.308827
 20
0.897563
 40
0.003
 41
0.003
  0
LWPOLYLINE
  5
2A0
100
AcDbEntity
  8
0
 62
   254
100
AcDbPolyline
 90
        2
 70
     0
 39
0.003
 10
0.308827
 20
0.897563
 40
0.003
 41
0.003
 10
0.317346
 20
0.880457
 40
0.003
 41
0.003
  0
LWPOLYLINE
  5
2A1
100
AcDbEntity
  8
0
 62
   254
100
AcDbPolyline
 90
        2
 70
     0
 39
0.003
 10
0.317346
 20
0.880457
 40
0.003
 41
0.003
 10
-0.33385
 20
0.494311
 40
0.003
 41
0.003
  0
LWPOLYLINE
  5
2A2
100
AcDbEntity
  8
0
 62
   254
100
AcDbPolyline
 90
        2
 70
     0
 39
0.003
 10
-0.33385
 20
0.494311
 40
0.003
 41
0.003
 10
-0.34237
 20
0.511417
 40
0.003
 41
0.003
  0
LWPOLYLINE
  5
2A3
100
AcDbEntity
  8
0
 62
   254
100
AcDbPolyline
 90
        2
 70
     0
 39
0.003
 10
-0.33385
 20
0.494311
 40
0.003
 41
0.003
 10
0.317346
 20
0.880457
 40
0.003
 41
0.003
  0
LWPOLYLINE
  5
2A4
100
AcDbEntity
  8
0
 62
   254
100
AcDbPolyline
 90
        2
 70
     0
 39
0.003
 10
0.317346
 20
0.880457
 40
0.003
 41
0.003
 10
0.32639
 20
0.864799
 40
0.003
 41
0.003
  0
LWPOLYLINE
  5
2A5
100
AcDbEntity
  8
0
 62
   254
100
AcDbPolyline
 90
        2
 70
     0
 39
0.003
 10
0.32639
 20
0.864799
 40
0.003
 41
0.003
 10
-0.324807
 20
0.478654
 40
0.003
 41
0.003
  0
LWPOLYLINE
  5
2A6
100
AcDbEntity
  8
0
 62
   254
100
AcDbPolyline
 90
        2
 70
     0
 39
0.003
 10
-0.324807
 20
0.478654
 40
0.003
 41
0.003
 10
-0.33385
 20
0.494311
 40
0.003
 41
0.003
  0
LWPOLYLINE
  5
2A7
100
AcDbEntity
  8
0
 62
   254
100
AcDbPolyline
 90
        2
 70
     0
 39
0.003
 10
-0.324807
 20
0.478654
 40
0.003
 41
0.003
 10
0.32639
 20
0.864799
 40
0.003
 41
0.003
  0
LWPOLYLINE
  5
2A8
100
AcDbEntity
  8
0
 62
   254
100
AcDbPolyline
 90
        2
 70
     0
 39
0.003
 10
0.32639
 20
0.864799
 40
0.003
 41
0.003
 10
0.335917
 20
0.850512
 40
0.003
 41
0.003
  0
LWPOLYLINE
  5
2A9
100
AcDbEntity
  8
0
 62
   254
100
AcDbPolyline
 90
        2
 70
     0
 39
0.003
 10
0.335917
 20
0.850512
 40
0.003
 41
0.003
 10
-0.31528
 20
0.464366
 40
0.003
 41
0.003
  0
LWPOLYLINE
  5
2AA
100
AcDbEntity
  8
0
 62
   254
100
AcDbPolyline
 90
        2
 70
     0
 39
0.003
 10
-0.31528
 20
0.464366
 40
0.003
 41
0.003
 10
-0.324807
 20
0.478654
 40
0.003
 41
0.003
  0
LWPOLYLINE
  5
2AB
100
AcDbEntity
  8
0
 62
   254
100
AcDbPolyline
 90
        2
 70
     0
 39
0.003
 10
-0.31528
 20
0.464366
 40
0.003
 41
0.003
 10
0.335917
 20
0.850512
 40
0.003
 41
0.003
  0
LWPOLYLINE
  5
2AC
100
AcDbEntity
  8
0
 62
   254
100
AcDbPolyline
 90
        2
 70
     0
 39
0.003
 10
0.335917
 20
0.850512
 40
0.003
 41
0.003
 10
0.345866
 20
0.837551
 40
0.003
 41
0.003
  0
LWPOLYLINE
  5
2AD
100
AcDbEntity
  8
0
 62
   254
100
AcDbPolyline
 90
        2
 70
     0
 39
0.003
 10
0.345866
 20
0.837551
 40
0.003
 41
0.003
 10
-0.305331
 20
0.451406
 40
0.003
 41
0.003
  0
LWPOLYLINE
  5
2AE
100
AcDbEntity
  8
0
 62
   254
100
AcDbPolyline
 90
        2
 70
     0
 39
0.003
 10
-0.305331
 20
0.451406
 40
0.003
 41
0.003
 10
-0.31528
 20
0.464366
 40
0.003
 41
0.003
  0
LWPOLYLINE
  5
2AF
100
AcDbEntity
  8
0
 62
   254
100
AcDbPolyline
 90
        2
 70
     0
 39
0.003
 10
-0.305331
 20
0.451406
 40
0.003
 41
0.003
 10
0.345866
 20
0.837551
 40
0.003
 41
0.003
  0
LWPOLYLINE
  5
2B0
100
AcDbEntity
  8
0
 62
   254
100
AcDbPolyline
 90
        2
 70
     0
 39
0.003
 10
0.345866
 20
0.837551
 40
0.003
 41
0.003
 10
0.356193
 20
0.825846
 40
0.003
 41
0.003
  0
LWPOLYLINE
  5
2B1
100
AcDbEntity
  8
0
 62
   254
100
AcDbPolyline
 90
        2
 70
     0
 39
0.003
 10
0.356193
 20
0.825846
 40
0.003
 41
0.003
 10
-0.295004
 20
0.439701
 40
0.003
 41
0.003
  0
LWPOLYLINE
  5
2B2
100
AcDbEntity
  8
0
 62
   254
100
AcDbPolyline
 90
        2
 70
     0
 39
0.003
 10
-0.295004
 20
0.439701
 40
0.003
 41
0.003
 10
-0.305331
 20
0.451406
 40
0.003
 41
0.003
  0
LWPOLYLINE
  5
2B3
100
AcDbEntity
  8
0
 62
   254
100
AcDbPolyline
 90
        2
 70
     0
 39
0.003
 10
-0.295004
 20
0.439701
 40
0.003
 41
0.003
 10
0.356193
 20
0.825846
 40
0.003
 41
0.003
  0
LWPOLYLINE
  5
2B4
100
AcDbEntity
  8
0
 62
   254
100
AcDbPolyline
 90
        2
 70
     0
 39
0.003
 10
0.356193
 20
0.825846
 40
0.003
 41
0.003
 10
0.366831
 20
0.815343
 40
0.003
 41
0.003
  0
LWPOLYLINE
  5
2B5
100
AcDbEntity
  8
0
 62
   254
100
AcDbPolyline
 90
        2
 70
     0
 39
0.003
 10
0.366831
 20
0.815343
 40
0.003
 41
0.003
 10
-0.284366
 20
0.429197
 40
0.003
 41
0.003
  0
LWPOLYLINE
  5
2B6
100
AcDbEntity
  8
0
 62
   254
100
AcDbPolyline
 90
        2
 70
     0
 39
0.003
 10
-0.284366
 20
0.429197
 40
0.003
 41
0.003
 10
-0.295004
 20
0.439701
 40
0.003
 41
0.003
  0
LWPOLYLINE
  5
2B7
100
AcDbEntity
  8
0
 62
   254
100
AcDbPolyline
 90
        2
 70
     0
 39
0.003
 10
-0.284366
 20
0.429197
 40
0.003
 41
0.003
 10
0.366831
 20
0.815343
 40
0.003
 41
0.003
  0
LWPOLYLINE
  5
2B8
100
AcDbEntity
  8
0
 62
   254
100
AcDbPolyline
 90
        2
 70
     0
 39
0.003
 10
0.366831
 20
0.815343
 40
0.003
 41
0.003
 10
0.377748
 20
0.805965
 40
0.003
 41
0.003
  0
LWPOLYLINE
  5
2B9
100
AcDbEntity
  8
0
 62
   254
100
AcDbPolyline
 90
        2
 70
     0
 39
0.003
 10
0.377748
 20
0.805965
 40
0.003
 41
0.003
 10
-0.273449
 20
0.419819
 40
0.003
 41
0.003
  0
LWPOLYLINE
  5
2BA
100
AcDbEntity
  8
0
 62
   254
100
AcDbPolyline
 90
        2
 70
     0
 39
0.003
 10
-0.273449
 20
0.419819
 40
0.003
 41
0.003
 10
-0.284366
 20
0.429197
 40
0.003
 41
0.003
  0
LWPOLYLINE
  5
2BB
100
AcDbEntity
  8
0
 62
   254
100
AcDbPolyline
 90
        2
 70
     0
 39
0.003
 10
-0.273449
 20
0.419819
 40
0.003
 41
0.003
 10
0.377748
 20
0.805965
 40
0.003
 41
0.003
  0
LWPOLYLINE
  5
2BC
100
AcDbEntity
  8
0
 62
   254
100
AcDbPolyline
 90
        2
 70
     0
 39
0.003
 10
0.377748
 20
0.805965
 40
0.003
 41
0.003
 10
0.38887
 20
0.797661
 40
0.003
 41
0.003
  0
LWPOLYLINE
  5
2BD
100
AcDbEntity
  8
0
 62
   254
100
AcDbPolyline
 90
        2
 70
     0
 39
0.003
 10
0.38887
 20
0.797661
 40
0.003
 41
0.003
 10
-0.262327
 20
0.411516
 40
0.003
 41
0.003
  0
LWPOLYLINE
  5
2BE
100
AcDbEntity
  8
0
 62
   254
100
AcDbPolyline
 90
        2
 70
     0
 39
0.003
 10
-0.262327
 20
0.411516
 40
0.003
 41
0.003
 10
-0.273449
 20
0.419819
 40
0.003
 41
0.003
  0
LWPOLYLINE
  5
2BF
100
AcDbEntity
  8
0
 62
   254
100
AcDbPolyline
 90
        2
 70
     0
 39
0.003
 10
-0.262327
 20
0.411516
 40
0.003
 41
0.003
 10
0.38887
 20
0.797661
 40
0.003
 41
0.003
  0
LWPOLYLINE
  5
2C0
100
AcDbEntity
  8
0
 62
   254
100
AcDbPolyline
 90
        2
 70
     0
 39
0.003
 10
0.38887
 20
0.797661
 40
0.003
 41
0.003
 10
0.400154
 20
0.79037
 40
0.003
 41
0.003
  0
LWPOLYLINE
  5
2C1
100
AcDbEntity
  8
0
 62
   254
100
AcDbPolyline
 90
        2
 70
     0
 39
0.003
 10
0.400154
 20
0.79037
 40
0.003
 41
0.003
 10
-0.251043
 20
0.404224
 40
0.003
 41
0.003
  0
LWPOLYLINE
  5
2C2
100
AcDbEntity
  8
0
 62
   254
100
AcDbPolyline
 90
        2
 70
     0
 39
0.003
 10
-0.251043
 20
0.404224
 40
0.003
 41
0.003
 10
-0.262327
 20
0.411516
 40
0.003
 41
0.003
  0
LWPOLYLINE
  5
2C3
100
AcDbEntity
  8
0
 62
   254
100
AcDbPolyline
 90
        2
 70
     0
 39
0.003
 10
-0.251043
 20
0.404224
 40
0.003
 41
0.003
 10
0.400154
 20
0.79037
 40
0.003
 41
0.003
  0
LWPOLYLINE
  5
2C4
100
AcDbEntity
  8
0
 62
   254
100
AcDbPolyline
 90
        2
 70
     0
 39
0.003
 10
0.400154
 20
0.79037
 40
0.003
 41
0.003
 10
0.411539
 20
0.784031
 40
0.003
 41
0.003
  0
LWPOLYLINE
  5
2C5
100
AcDbEntity
  8
0
 62
   254
100
AcDbPolyline
 90
        2
 70
     0
 39
0.003
 10
0.411539
 20
0.784031
 40
0.003
 41
0.003
 10
-0.239657
 20
0.397886
 40
0.003
 41
0.003
  0
LWPOLYLINE
  5
2C6
100
AcDbEntity
  8
0
 62
   254
100
AcDbPolyline
 90
        2
 70
     0
 39
0.003
 10
-0.239657
 20
0.397886
 40
0.003
 41
0.003
 10
-0.251043
 20
0.404224
 40
0.003
 41
0.003
  0
LWPOLYLINE
  5
2C7
100
AcDbEntity
  8
0
 62
     9
100
AcDbPolyline
 90
        2
 70
     0
 39
0.003
 10
-0.239657
 20
0.397886
 40
0.003
 41
0.003
 10
0.411539
 20
0.784031
 40
0.003
 41
0.003
  0
LWPOLYLINE
  5
2C8
100
AcDbEntity
  8
0
 62
     9
100
AcDbPolyline
 90
        2
 70
     0
 39
0.003
 10
0.411539
 20
0.784031
 40
0.003
 41
0.003
 10
0.422988
 20
0.778575
 40
0.003
 41
0.003
  0
LWPOLYLINE
  5
2C9
100
AcDbEntity
  8
0
 62
     9
100
AcDbPolyline
 90
        2
 70
     0
 39
0.003
 10
0.422988
 20
0.778575
 40
0.003
 41
0.003
 10
-0.228209
 20
0.392429
 40
0.003
 41
0.003
  0
LWPOLYLINE
  5
2CA
100
AcDbEntity
  8
0
 62
     9
100
AcDbPolyline
 90
        2
 70
     0
 39
0.003
 10
-0.228209
 20
0.392429
 40
0.003
 41
0.003
 10
-0.239657
 20
0.397886
 40
0.003
 41
0.003
  0
LWPOLYLINE
  5
2CB
100
AcDbEntity
  8
0
 62
     9
100
AcDbPolyline
 90
        2
 70
     0
 39
0.003
 10
-0.228209
 20
0.392429
 40
0.003
 41
0.003
 10
0.422988
 20
0.778575
 40
0.003
 41
0.003
  0
LWPOLYLINE
  5
2CC
100
AcDbEntity
  8
0
 62
     9
100
AcDbPolyline
 90
        2
 70
     0
 39
0.003
 10
0.422988
 20
0.778575
 40
0.003
 41
0.003
 10
0.434433
 20
0.773945
 40
0.003
 41
0.003
  0
LWPOLYLINE
  5
2CD
100
AcDbEntity
  8
0
 62
     9
100
AcDbPolyline
 90
        2
 70
     0
 39
0.003
 10
0.434433
 20
0.773945
 40
0.003
 41
0.003
 10
-0.216764
 20
0.387799
 40
0.003
 41
0.003
  0
LWPOLYLINE
  5
2CE
100
AcDbEntity
  8
0
 62
     9
100
AcDbPolyline
 90
        2
 70
     0
 39
0.003
 10
-0.216764
 20
0.387799
 40
0.003
 41
0.003
 10
-0.228209
 20
0.392429
 40
0.003
 41
0.003
  0
LWPOLYLINE
  5
2CF
100
AcDbEntity
  8
0
 62
     9
100
AcDbPolyline
 90
        2
 70
     0
 39
0.003
 10
-0.216764
 20
0.387799
 40
0.003
 41
0.003
 10
0.434433
 20
0.773945
 40
0.003
 41
0.003
  0
LWPOLYLINE
  5
2D0
100
AcDbEntity
  8
0
 62
     9
100
AcDbPolyline
 90
        2
 70
     0
 39
0.003
 10
0.434433
 20
0.773945
 40
0.003
 41
0.003
 10
0.445827
 20
0.770079
 40
0.003
 41
0.003
  0
LWPOLYLINE
  5
2D1
100
AcDbEntity
  8
0
 62
     9
100
AcDbPolyline
 90
        2
 70
     0
 39
0.003
 10
0.445827
 20
0.770079
 40
0.003
 41
0.003
 10
-0.20537
 20
0.383933
 40
0.003
 41
0.003
  0
LWPOLYLINE
  5
2D2
100
AcDbEntity
  8
0
 62
     9
100
AcDbPolyline
 90
        2
 70
     0
 39
0.003
 10
-0.20537
 20
0.383933
 40
0.003
 41
0.003
 10
-0.216764
 20
0.387799
 40
0.003
 41
0.003
  0
LWPOLYLINE
  5
2D3
100
AcDbEntity
  8
0
 62
     9
100
AcDbPolyline
 90
        2
 70
     0
 39
0.003
 10
-0.20537
 20
0.383933
 40
0.003
 41
0.003
 10
0.445827
 20
0.770079
 40
0.003
 41
0.003
  0
LWPOLYLINE
  5
2D4
100
AcDbEntity
  8
0
 62
     9
100
AcDbPolyline
 90
        2
 70
     0
 39
0.003
 10
0.445827
 20
0.770079
 40
0.003
 41
0.003
 10
0.45711
 20
0.766925
 40
0.003
 41
0.003
  0
LWPOLYLINE
  5
2D5
100
AcDbEntity
  8
0
 62
     9
100
AcDbPolyline
 90
        2
 70
     0
 39
0.003
 10
0.45711
 20
0.766925
 40
0.003
 41
0.003
 10
-0.194087
 20
0.38078
 40
0.003
 41
0.003
  0
LWPOLYLINE
  5
2D6
100
AcDbEntity
  8
0
 62
     9
100
AcDbPolyline
 90
        2
 70
     0
 39
0.003
 10
-0.194087
 20
0.38078
 40
0.003
 41
0.003
 10
-0.20537
 20
0.383933
 40
0.003
 41
0.003
  0
LWPOLYLINE
  5
2D7
100
AcDbEntity
  8
0
 62
     9
100
AcDbPolyline
 90
        2
 70
     0
 39
0.003
 10
-0.194087
 20
0.38078
 40
0.003
 41
0.003
 10
0.45711
 20
0.766925
 40
0.003
 41
0.003
  0
LWPOLYLINE
  5
2D8
100
AcDbEntity
  8
0
 62
     9
100
AcDbPolyline
 90
        2
 70
     0
 39
0.003
 10
0.45711
 20
0.766925
 40
0.003
 41
0.003
 10
0.468248
 20
0.764398
 40
0.003
 41
0.003
  0
LWPOLYLINE
  5
2D9
100
AcDbEntity
  8
0
 62
     9
100
AcDbPolyline
 90
        2
 70
     0
 39
0.003
 10
0.468248
 20
0.764398
 40
0.003
 41
0.003
 10
-0.182949
 20
0.378252
 40
0.003
 41
0.003
  0
LWPOLYLINE
  5
2DA
100
AcDbEntity
  8
0
 62
     9
100
AcDbPolyline
 90
        2
 70
     0
 39
0.003
 10
-0.182949
 20
0.378252
 40
0.003
 41
0.003
 10
-0.194087
 20
0.38078
 40
0.003
 41
0.003
  0
LWPOLYLINE
  5
2DB
100
AcDbEntity
  8
0
 62
     9
100
AcDbPolyline
 90
        2
 70
     0
 39
0.003
 10
-0.182949
 20
0.378252
 40
0.003
 41
0.003
 10
0.468248
 20
0.764398
 40
0.003
 41
0.003
  0
LWPOLYLINE
  5
2DC
100
AcDbEntity
  8
0
 62
     9
100
AcDbPolyline
 90
        2
 70
     0
 39
0.003
 10
0.468248
 20
0.764398
 40
0.003
 41
0.003
 10
0.479165
 20
0.762457
 40
0.003
 41
0.003
  0
LWPOLYLINE
  5
2DD
100
AcDbEntity
  8
0
 62
     9
100
AcDbPolyline
 90
        2
 70
     0
 39
0.003
 10
0.479165
 20
0.762457
 40
0.003
 41
0.003
 10
-0.172031
 20
0.376311
 40
0.003
 41
0.003
  0
LWPOLYLINE
  5
2DE
100
AcDbEntity
  8
0
 62
     9
100
AcDbPolyline
 90
        2
 70
     0
 39
0.003
 10
-0.172031
 20
0.376311
 40
0.003
 41
0.003
 10
-0.182949
 20
0.378252
 40
0.003
 41
0.003
  0
LWPOLYLINE
  5
2DF
100
AcDbEntity
  8
0
 62
     9
100
AcDbPolyline
 90
        2
 70
     0
 39
0.003
 10
-0.172031
 20
0.376311
 40
0.003
 41
0.003
 10
0.479165
 20
0.762457
 40
0.003
 41
0.003
  0
LWPOLYLINE
  5
2E0
100
AcDbEntity
  8
0
 62
     9
100
AcDbPolyline
 90
        2
 70
     0
 39
0.003
 10
0.479165
 20
0.762457
 40
0.003
 41
0.003
 10
0.489823
 20
0.761031
 40
0.003
 41
0.003
  0
LWPOLYLINE
  5
2E1
100
AcDbEntity
  8
0
 62
     9
100
AcDbPolyline
 90
        2
 70
     0
 39
0.003
 10
0.489823
 20
0.761031
 40
0.003
 41
0.003
 10
-0.161374
 20
0.374886
 40
0.003
 41
0.003
  0
LWPOLYLINE
  5
2E2
100
AcDbEntity
  8
0
 62
     9
100
AcDbPolyline
 90
        2
 70
     0
 39
0.003
 10
-0.161374
 20
0.374886
 40
0.003
 41
0.003
 10
-0.172031
 20
0.376311
 40
0.003
 41
0.003
  0
LWPOLYLINE
  5
2E3
100
AcDbEntity
  8
0
 62
   253
100
AcDbPolyline
 90
        2
 70
     0
 39
0.003
 10
-0.161374
 20
0.374886
 40
0.003
 41
0.003
 10
0.489823
 20
0.761031
 40
0.003
 41
0.003
  0
LWPOLYLINE
  5
2E4
100
AcDbEntity
  8
0
 62
   253
100
AcDbPolyline
 90
        2
 70
     0
 39
0.003
 10
0.489823
 20
0.761031
 40
0.003
 41
0.003
 10
0.500157
 20
0.760067
 40
0.003
 41
0.003
  0
LWPOLYLINE
  5
2E5
100
AcDbEntity
  8
0
 62
   253
100
AcDbPolyline
 90
        2
 70
     0
 39
0.003
 10
0.500157
 20
0.760067
 40
0.003
 41
0.003
 10
-0.151039
 20
0.373921
 40
0.003
 41
0.003
  0
LWPOLYLINE
  5
2E6
100
AcDbEntity
  8
0
 62
   253
100
AcDbPolyline
 90
        2
 70
     0
 39
0.003
 10
-0.151039
 20
0.373921
 40
0.003
 41
0.003
 10
-0.161374
 20
0.374886
 40
0.003
 41
0.003
  0
LWPOLYLINE
  5
2E7
100
AcDbEntity
  8
0
 62
   253
100
AcDbPolyline
 90
        2
 70
     0
 39
0.003
 10
-0.151039
 20
0.373921
 40
0.003
 41
0.003
 10
0.500157
 20
0.760067
 40
0.003
 41
0.003
  0
LWPOLYLINE
  5
2E8
100
AcDbEntity
  8
0
 62
   253
100
AcDbPolyline
 90
        2
 70
     0
 39
0.003
 10
0.500157
 20
0.760067
 40
0.003
 41
0.003
 10
0.51013
 20
0.759488
 40
0.003
 41
0.003
  0
LWPOLYLINE
  5
2E9
100
AcDbEntity
  8
0
 62
   253
100
AcDbPolyline
 90
        2
 70
     0
 39
0.003
 10
0.51013
 20
0.759488
 40
0.003
 41
0.003
 10
-0.141067
 20
0.373343
 40
0.003
 41
0.003
  0
LWPOLYLINE
  5
2EA
100
AcDbEntity
  8
0
 62
   253
100
AcDbPolyline
 90
        2
 70
     0
 39
0.003
 10
-0.141067
 20
0.373343
 40
0.003
 41
0.003
 10
-0.151039
 20
0.373921
 40
0.003
 41
0.003
  0
LWPOLYLINE
  5
2EB
100
AcDbEntity
  8
0
 62
   253
100
AcDbPolyline
 90
        2
 70
     0
 39
0.003
 10
-0.141067
 20
0.373343
 40
0.003
 41
0.003
 10
0.51013
 20
0.759488
 40
0.003
 41
0.003
  0
LWPOLYLINE
  5
2EC
100
AcDbEntity
  8
0
 62
   253
100
AcDbPolyline
 90
        2
 70
     0
 39
0.003
 10
0.51013
 20
0.759488
 40
0.003
 41
0.003
 10
0.519673
 20
0.759252
 40
0.003
 41
0.003
  0
LWPOLYLINE
  5
2ED
100
AcDbEntity
  8
0
 62
   253
100
AcDbPolyline
 90
        2
 70
     0
 39
0.003
 10
0.519673
 20
0.759252
 40
0.003
 41
0.003
 10
-0.131524
 20
0.373106
 40
0.003
 41
0.003
  0
LWPOLYLINE
  5
2EE
100
AcDbEntity
  8
0
 62
   253
100
AcDbPolyline
 90
        2
 70
     0
 39
0.003
 10
-0.131524
 20
0.373106
 40
0.003
 41
0.003
 10
-0.141067
 20
0.373343
 40
0.003
 41
0.003
  0
LWPOLYLINE
  5
2EF
100
AcDbEntity
  8
0
 62
   253
100
AcDbPolyline
 90
        2
 70
     0
 39
0.003
 10
-0.131524
 20
0.373106
 40
0.003
 41
0.003
 10
0.519673
 20
0.759252
 40
0.003
 41
0.003
  0
LWPOLYLINE
  5
2F0
100
AcDbEntity
  8
0
 62
   253
100
AcDbPolyline
 90
        2
 70
     0
 39
0.003
 10
0.519673
 20
0.759252
 40
0.003
 41
0.003
 10
0.52874
 20
0.75928
 40
0.003
 41
0.003
  0
LWPOLYLINE
  5
2F1
100
AcDbEntity
  8
0
 62
   253
100
AcDbPolyline
 90
        2
 70
     0
 39
0.003
 10
0.52874
 20
0.75928
 40
0.003
 41
0.003
 10
-0.122457
 20
0.373134
 40
0.003
 41
0.003
  0
LWPOLYLINE
  5
2F2
100
AcDbEntity
  8
0
 62
   253
100
AcDbPolyline
 90
        2
 70
     0
 39
0.003
 10
-0.122457
 20
0.373134
 40
0.003
 41
0.003
 10
-0.131524
 20
0.373106
 40
0.003
 41
0.003
  0
LWPOLYLINE
  5
2F3
100
AcDbEntity
  8
0
 62
   253
100
AcDbPolyline
 90
        2
 70
     0
 39
0.003
 10
-0.122457
 20
0.373134
 40
0.003
 41
0.003
 10
0.52874
 20
0.75928
 40
0.003
 41
0.003
  0
LWPOLYLINE
  5
2F4
100
AcDbEntity
  8
0
 62
   253
100
AcDbPolyline
 90
        2
 70
     0
 39
0.003
 10
0.52874
 20
0.75928
 40
0.003
 41
0.003
 10
0.537276
 20
0.759524
 40
0.003
 41
0.003
  0
LWPOLYLINE
  5
2F5
100
AcDbEntity
  8
0
 62
   253
100
AcDbPolyline
 90
        2
 70
     0
 39
0.003
 10
0.537276
 20
0.759524
 40
0.003
 41
0.003
 10
-0.113921
 20
0.373378
 40
0.003
 41
0.003
  0
LWPOLYLINE
  5
2F6
100
AcDbEntity
  8
0
 62
   253
100
AcDbPolyline
 90
        2
 70
     0
 39
0.003
 10
-0.113921
 20
0.373378
 40
0.003
 41
0.003
 10
-0.122457
 20
0.373134
 40
0.003
 41
0.003
  0
LWPOLYLINE
  5
2F7
100
AcDbEntity
  8
0
 62
     0
100
AcDbPolyline
 90
        2
 70
     0
 39
0.003
 10
-0.38665
 20
0.77539
 40
0.003
 41
0.003
 10
0.264547
 20
1.161535
 40
0.003
 41
0.003
  0
LWPOLYLINE
  5
2F8
100
AcDbEntity
  8
0
 62
     0
100
AcDbPolyline
 90
        2
 70
     0
 39
0.003
 10
0.264547
 20
1.161535
 40
0.003
 41
0.003
 10
0.264839
 20
1.126606
 40
0.003
 41
0.003
  0
LWPOLYLINE
  5
2F9
100
AcDbEntity
  8
0
 62
     0
100
AcDbPolyline
 90
        2
 70
     0
 39
0.003
 10
0.264839
 20
1.126606
 40
0.003
 41
0.003
 10
0.266189
 20
1.09374
 40
0.003
 41
0.003
  0
LWPOLYLINE
  5
2FA
100
AcDbEntity
  8
0
 62
     0
100
AcDbPolyline
 90
        2
 70
     0
 39
0.003
 10
0.266189
 20
1.09374
 40
0.003
 41
0.003
 10
0.268547
 20
1.06287
 40
0.003
 41
0.003
  0
LWPOLYLINE
  5
2FB
100
AcDbEntity
  8
0
 62
     0
100
AcDbPolyline
 90
        2
 70
     0
 39
0.003
 10
0.268547
 20
1.06287
 40
0.003
 41
0.003
 10
0.271858
 20
1.033945
 40
0.003
 41
0.003
  0
LWPOLYLINE
  5
2FC
100
AcDbEntity
  8
0
 62
     0
100
AcDbPolyline
 90
        2
 70
     0
 39
0.003
 10
0.271858
 20
1.033945
 40
0.003
 41
0.003
 10
0.276079
 20
1.006882
 40
0.003
 41
0.003
  0
LWPOLYLINE
  5
2FD
100
AcDbEntity
  8
0
 62
     0
100
AcDbPolyline
 90
        2
 70
     0
 39
0.003
 10
0.276079
 20
1.006882
 40
0.003
 41
0.003
 10
0.281138
 20
0.981642
 40
0.003
 41
0.003
  0
LWPOLYLINE
  5
2FE
100
AcDbEntity
  8
0
 62
     0
100
AcDbPolyline
 90
        2
 70
     0
 39
0.003
 10
0.281138
 20
0.981642
 40
0.003
 41
0.003
 10
0.287
 20
0.95815
 40
0.003
 41
0.003
  0
LWPOLYLINE
  5
2FF
100
AcDbEntity
  8
0
 62
     0
100
AcDbPolyline
 90
        2
 70
     0
 39
0.003
 10
0.287
 20
0.95815
 40
0.003
 41
0.003
 10
0.293598
 20
0.93635
 40
0.003
 41
0.003
  0
LWPOLYLINE
  5
300
100
AcDbEntity
  8
0
 62
     0
100
AcDbPolyline
 90
        2
 70
     0
 39
0.003
 10
0.293598
 20
0.93635
 40
0.003
 41
0.003
 10
0.300898
 20
0.916169
 40
0.003
 41
0.003
  0
LWPOLYLINE
  5
301
100
AcDbEntity
  8
0
 62
     0
100
AcDbPolyline
 90
        2
 70
     0
 39
0.003
 10
0.300898
 20
0.916169
 40
0.003
 41
0.003
 10
0.308827
 20
0.897563
 40
0.003
 41
0.003
  0
LWPOLYLINE
  5
302
100
AcDbEntity
  8
0
 62
     0
100
AcDbPolyline
 90
        2
 70
     0
 39
0.003
 10
0.308827
 20
0.897563
 40
0.003
 41
0.003
 10
0.317346
 20
0.880457
 40
0.003
 41
0.003
  0
LWPOLYLINE
  5
303
100
AcDbEntity
  8
0
 62
     0
100
AcDbPolyline
 90
        2
 70
     0
 39
0.003
 10
0.317346
 20
0.880457
 40
0.003
 41
0.003
 10
0.32639
 20
0.864799
 40
0.003
 41
0.003
  0
LWPOLYLINE
  5
304
100
AcDbEntity
  8
0
 62
     0
100
AcDbPolyline
 90
        2
 70
     0
 39
0.003
 10
0.32639
 20
0.864799
 40
0.003
 41
0.003
 10
0.335917
 20
0.850512
 40
0.003
 41
0.003
  0
LWPOLYLINE
  5
305
100
AcDbEntity
  8
0
 62
     0
100
AcDbPolyline
 90
        2
 70
     0
 39
0.003
 10
0.335917
 20
0.850512
 40
0.003
 41
0.003
 10
0.345866
 20
0.837551
 40
0.003
 41
0.003
  0
LWPOLYLINE
  5
306
100
AcDbEntity
  8
0
 62
     0
100
AcDbPolyline
 90
        2
 70
     0
 39
0.003
 10
0.345866
 20
0.837551
 40
0.003
 41
0.003
 10
0.356193
 20
0.825846
 40
0.003
 41
0.003
  0
LWPOLYLINE
  5
307
100
AcDbEntity
  8
0
 62
     0
100
AcDbPolyline
 90
        2
 70
     0
 39
0.003
 10
0.356193
 20
0.825846
 40
0.003
 41
0.003
 10
0.366831
 20
0.815343
 40
0.003
 41
0.003
  0
LWPOLYLINE
  5
308
100
AcDbEntity
  8
0
 62
     0
100
AcDbPolyline
 90
        2
 70
     0
 39
0.003
 10
0.366831
 20
0.815343
 40
0.003
 41
0.003
 10
0.377748
 20
0.805965
 40
0.003
 41
0.003
  0
LWPOLYLINE
  5
309
100
AcDbEntity
  8
0
 62
     0
100
AcDbPolyline
 90
        2
 70
     0
 39
0.003
 10
0.377748
 20
0.805965
 40
0.003
 41
0.003
 10
0.38887
 20
0.797661
 40
0.003
 41
0.003
  0
LWPOLYLINE
  5
30A
100
AcDbEntity
  8
0
 62
     0
100
AcDbPolyline
 90
        2
 70
     0
 39
0.003
 10
0.38887
 20
0.797661
 40
0.003
 41
0.003
 10
0.400154
 20
0.79037
 40
0.003
 41
0.003
  0
LWPOLYLINE
  5
30B
100
AcDbEntity
  8
0
 62
     0
100
AcDbPolyline
 90
        2
 70
     0
 39
0.003
 10
0.400154
 20
0.79037
 40
0.003
 41
0.003
 10
0.411539
 20
0.784031
 40
0.003
 41
0.003
  0
LWPOLYLINE
  5
30C
100
AcDbEntity
  8
0
 62
     0
100
AcDbPolyline
 90
        2
 70
     0
 39
0.003
 10
0.411539
 20
0.784031
 40
0.003
 41
0.003
 10
0.422988
 20
0.778575
 40
0.003
 41
0.003
  0
LWPOLYLINE
  5
30D
100
AcDbEntity
  8
0
 62
     0
100
AcDbPolyline
 90
        2
 70
     0
 39
0.003
 10
0.422988
 20
0.778575
 40
0.003
 41
0.003
 10
0.434433
 20
0.773945
 40
0.003
 41
0.003
  0
LWPOLYLINE
  5
30E
100
AcDbEntity
  8
0
 62
     0
100
AcDbPolyline
 90
        2
 70
     0
 39
0.003
 10
0.434433
 20
0.773945
 40
0.003
 41
0.003
 10
0.445827
 20
0.770079
 40
0.003
 41
0.003
  0
LWPOLYLINE
  5
30F
100
AcDbEntity
  8
0
 62
     0
100
AcDbPolyline
 90
        2
 70
     0
 39
0.003
 10
0.445827
 20
0.770079
 40
0.003
 41
0.003
 10
0.45711
 20
0.766925
 40
0.003
 41
0.003
  0
LWPOLYLINE
  5
310
100
AcDbEntity
  8
0
 62
     0
100
AcDbPolyline
 90
        2
 70
     0
 39
0.003
 10
0.45711
 20
0.766925
 40
0.003
 41
0.003
 10
0.468248
 20
0.764398
 40
0.003
 41
0.003
  0
LWPOLYLINE
  5
311
100
AcDbEntity
  8
0
 62
     0
100
AcDbPolyline
 90
        2
 70
     0
 39
0.003
 10
0.468248
 20
0.764398
 40
0.003
 41
0.003
 10
0.479165
 20
0.762457
 40
0.003
 41
0.003
  0
LWPOLYLINE
  5
312
100
AcDbEntity
  8
0
 62
     0
100
AcDbPolyline
 90
        2
 70
     0
 39
0.003
 10
0.479165
 20
0.762457
 40
0.003
 41
0.003
 10
0.489823
 20
0.761031
 40
0.003
 41
0.003
  0
LWPOLYLINE
  5
313
100
AcDbEntity
  8
0
 62
     0
100
AcDbPolyline
 90
        2
 70
     0
 39
0.003
 10
0.489823
 20
0.761031
 40
0.003
 41
0.003
 10
0.500157
 20
0.760067
 40
0.003
 41
0.003
  0
LWPOLYLINE
  5
314
100
AcDbEntity
  8
0
 62
     0
100
AcDbPolyline
 90
        2
 70
     0
 39
0.003
 10
0.500157
 20
0.760067
 40
0.003
 41
0.003
 10
0.51013
 20
0.759488
 40
0.003
 41
0.003
  0
LWPOLYLINE
  5
315
100
AcDbEntity
  8
0
 62
     0
100
AcDbPolyline
 90
        2
 70
     0
 39
0.003
 10
0.51013
 20
0.759488
 40
0.003
 41
0.003
 10
0.519673
 20
0.759252
 40
0.003
 41
0.003
  0
LWPOLYLINE
  5
316
100
AcDbEntity
  8
0
 62
     0
100
AcDbPolyline
 90
        2
 70
     0
 39
0.003
 10
0.519673
 20
0.759252
 40
0.003
 41
0.003
 10
0.52874
 20
0.75928
 40
0.003
 41
0.003
  0
LWPOLYLINE
  5
317
100
AcDbEntity
  8
0
 62
     0
100
AcDbPolyline
 90
        2
 70
     0
 39
0.003
 10
0.52874
 20
0.75928
 40
0.003
 41
0.003
 10
0.537276
 20
0.759524
 40
0.003
 41
0.003
  0
LWPOLYLINE
  5
318
100
AcDbEntity
  8
0
 62
     0
100
AcDbPolyline
 90
        2
 70
     0
 39
0.003
 10
0.537276
 20
0.759524
 40
0.003
 41
0.003
 10
-0.113921
 20
0.373378
 40
0.003
 41
0.003
  0
LWPOLYLINE
  5
319
100
AcDbEntity
  8
0
 62
     0
100
AcDbPolyline
 90
        2
 70
     0
 39
0.003
 10
-0.113921
 20
0.373378
 40
0.003
 41
0.003
 10
-0.122457
 20
0.373134
 40
0.003
 41
0.003
  0
LWPOLYLINE
  5
31A
100
AcDbEntity
  8
0
 62
     0
100
AcDbPolyline
 90
        2
 70
     0
 39
0.003
 10
-0.122457
 20
0.373134
 40
0.003
 41
0.003
 10
-0.131524
 20
0.373106
 40
0.003
 41
0.003
  0
LWPOLYLINE
  5
31B
100
AcDbEntity
  8
0
 62
     0
100
AcDbPolyline
 90
        2
 70
     0
 39
0.003
 10
-0.131524
 20
0.373106
 40
0.003
 41
0.003
 10
-0.141067
 20
0.373343
 40
0.003
 41
0.003
  0
LWPOLYLINE
  5
31C
100
AcDbEntity
  8
0
 62
     0
100
AcDbPolyline
 90
        2
 70
     0
 39
0.003
 10
-0.141067
 20
0.373343
 40
0.003
 41
0.003
 10
-0.151039
 20
0.373921
 40
0.003
 41
0.003
  0
LWPOLYLINE
  5
31D
100
AcDbEntity
  8
0
 62
     0
100
AcDbPolyline
 90
        2
 70
     0
 39
0.003
 10
-0.151039
 20
0.373921
 40
0.003
 41
0.003
 10
-0.161374
 20
0.374886
 40
0.003
 41
0.003
  0
LWPOLYLINE
  5
31E
100
AcDbEntity
  8
0
 62
     0
100
AcDbPolyline
 90
        2
 70
     0
 39
0.003
 10
-0.161374
 20
0.374886
 40
0.003
 41
0.003
 10
-0.172031
 20
0.376311
 40
0.003
 41
0.003
  0
LWPOLYLINE
  5
31F
100
AcDbEntity
  8
0
 62
     0
100
AcDbPolyline
 90
        2
 70
     0
 39
0.003
 10
-0.172031
 20
0.376311
 40
0.003
 41
0.003
 10
-0.182949
 20
0.378252
 40
0.003
 41
0.003
  0
LWPOLYLINE
  5
320
100
AcDbEntity
  8
0
 62
     0
100
AcDbPolyline
 90
        2
 70
     0
 39
0.003
 10
-0.182949
 20
0.378252
 40
0.003
 41
0.003
 10
-0.194087
 20
0.38078
 40
0.003
 41
0.003
  0
LWPOLYLINE
  5
321
100
AcDbEntity
  8
0
 62
     0
100
AcDbPolyline
 90
        2
 70
     0
 39
0.003
 10
-0.194087
 20
0.38078
 40
0.003
 41
0.003
 10
-0.20537
 20
0.383933
 40
0.003
 41
0.003
  0
LWPOLYLINE
  5
322
100
AcDbEntity
  8
0
 62
     0
100
AcDbPolyline
 90
        2
 70
     0
 39
0.003
 10
-0.20537
 20
0.383933
 40
0.003
 41
0.003
 10
-0.216764
 20
0.387799
 40
0.003
 41
0.003
  0
LWPOLYLINE
  5
323
100
AcDbEntity
  8
0
 62
     0
100
AcDbPolyline
 90
        2
 70
     0
 39
0.003
 10
-0.216764
 20
0.387799
 40
0.003
 41
0.003
 10
-0.228209
 20
0.392429
 40
0.003
 41
0.003
  0
LWPOLYLINE
  5
324
100
AcDbEntity
  8
0
 62
     0
100
AcDbPolyline
 90
        2
 70
     0
 39
0.003
 10
-0.228209
 20
0.392429
 40
0.003
 41
0.003
 10
-0.239657
 20
0.397886
 40
0.003
 41
0.003
  0
LWPOLYLINE
  5
325
100
AcDbEntity
  8
0
 62
     0
100
AcDbPolyline
 90
        2
 70
     0
 39
0.003
 10
-0.239657
 20
0.397886
 40
0.003
 41
0.003
 10
-0.251043
 20
0.404224
 40
0.003
 41
0.003
  0
LWPOLYLINE
  5
326
100
AcDbEntity
  8
0
 62
     0
100
AcDbPolyline
 90
        2
 70
     0
 39
0.003
 10
-0.251043
 20
0.404224
 40
0.003
 41
0.003
 10
-0.262327
 20
0.411516
 40
0.003
 41
0.003
  0
LWPOLYLINE
  5
327
100
AcDbEntity
  8
0
 62
     0
100
AcDbPolyline
 90
        2
 70
     0
 39
0.003
 10
-0.262327
 20
0.411516
 40
0.003
 41
0.003
 10
-0.273449
 20
0.419819
 40
0.003
 41
0.003
  0
LWPOLYLINE
  5
328
100
AcDbEntity
  8
0
 62
     0
100
AcDbPolyline
 90
        2
 70
     0
 39
0.003
 10
-0.273449
 20
0.419819
 40
0.003
 41
0.003
 10
-0.284366
 20
0.429197
 40
0.003
 41
0.003
  0
LWPOLYLINE
  5
329
100
AcDbEntity
  8
0
 62
     0
100
AcDbPolyline
 90
        2
 70
     0
 39
0.003
 10
-0.284366
 20
0.429197
 40
0.003
 41
0.003
 10
-0.295004
 20
0.439701
 40
0.003
 41
0.003
  0
LWPOLYLINE
  5
32A
100
AcDbEntity
  8
0
 62
     0
100
AcDbPolyline
 90
        2
 70
     0
 39
0.003
 10
-0.295004
 20
0.439701
 40
0.003
 41
0.003
 10
-0.305331
 20
0.451406
 40
0.003
 41
0.003
  0
LWPOLYLINE
  5
32B
100
AcDbEntity
  8
0
 62
     0
100
AcDbPolyline
 90
        2
 70
     0
 39
0.003
 10
-0.305331
 20
0.451406
 40
0.003
 41
0.003
 10
-0.31528
 20
0.464366
 40
0.003
 41
0.003
  0
LWPOLYLINE
  5
32C
100
AcDbEntity
  8
0
 62
     0
100
AcDbPolyline
 90
        2
 70
     0
 39
0.003
 10
-0.31528
 20
0.464366
 40
0.003
 41
0.003
 10
-0.324807
 20
0.478654
 40
0.003
 41
0.003
  0
LWPOLYLINE
  5
32D
100
AcDbEntity
  8
0
 62
     0
100
AcDbPolyline
 90
        2
 70
     0
 39
0.003
 10
-0.324807
 20
0.478654
 40
0.003
 41
0.003
 10
-0.33385
 20
0.494311
 40
0.003
 41
0.003
  0
LWPOLYLINE
  5
32E
100
AcDbEntity
  8
0
 62
     0
100
AcDbPolyline
 90
        2
 70
     0
 39
0.003
 10
-0.33385
 20
0.494311
 40
0.003
 41
0.003
 10
-0.34237
 20
0.511417
 40
0.003
 41
0.003
  0
LWPOLYLINE
  5
32F
100
AcDbEntity
  8
0
 62
     0
100
AcDbPolyline
 90
        2
 70
     0
 39
0.003
 10
-0.34237
 20
0.511417
 40
0.003
 41
0.003
 10
-0.350299
 20
0.530024
 40
0.003
 41
0.003
  0
LWPOLYLINE
  5
330
100
AcDbEntity
  8
0
 62
     0
100
AcDbPolyline
 90
        2
 70
     0
 39
0.003
 10
-0.350299
 20
0.530024
 40
0.003
 41
0.003
 10
-0.357598
 20
0.550205
 40
0.003
 41
0.003
  0
LWPOLYLINE
  5
331
100
AcDbEntity
  8
0
 62
     0
100
AcDbPolyline
 90
        2
 70
     0
 39
0.003
 10
-0.357598
 20
0.550205
 40
0.003
 41
0.003
 10
-0.364197
 20
0.572004
 40
0.003
 41
0.003
  0
LWPOLYLINE
  5
332
100
AcDbEntity
  8
0
 62
     0
100
AcDbPolyline
 90
        2
 70
     0
 39
0.003
 10
-0.364197
 20
0.572004
 40
0.003
 41
0.003
 10
-0.370059
 20
0.595496
 40
0.003
 41
0.003
  0
LWPOLYLINE
  5
333
100
AcDbEntity
  8
0
 62
     0
100
AcDbPolyline
 90
        2
 70
     0
 39
0.003
 10
-0.370059
 20
0.595496
 40
0.003
 41
0.003
 10
-0.375118
 20
0.620736
 40
0.003
 41
0.003
  0
LWPOLYLINE
  5
334
100
AcDbEntity
  8
0
 62
     0
100
AcDbPolyline
 90
        2
 70
     0
 39
0.003
 10
-0.375118
 20
0.620736
 40
0.003
 41
0.003
 10
-0.379339
 20
0.647799
 40
0.003
 41
0.003
  0
LWPOLYLINE
  5
335
100
AcDbEntity
  8
0
 62
     0
100
AcDbPolyline
 90
        2
 70
     0
 39
0.003
 10
-0.379339
 20
0.647799
 40
0.003
 41
0.003
 10
-0.38265
 20
0.676724
 40
0.003
 41
0.003
  0
LWPOLYLINE
  5
336
100
AcDbEntity
  8
0
 62
     0
100
AcDbPolyline
 90
        2
 70
     0
 39
0.003
 10
-0.38265
 20
0.676724
 40
0.003
 41
0.003
 10
-0.385008
 20
0.707594
 40
0.003
 41
0.003
  0
LWPOLYLINE
  5
337
100
AcDbEntity
  8
0
 62
     0
100
AcDbPolyline
 90
        2
 70
     0
 39
0.003
 10
-0.385008
 20
0.707594
 40
0.003
 41
0.003
 10
-0.386358
 20
0.740461
 40
0.003
 41
0.003
  0
LWPOLYLINE
  5
338
100
AcDbEntity
  8
0
 62
     0
100
AcDbPolyline
 90
        2
 70
     0
 39
0.003
 10
-0.386358
 20
0.740461
 40
0.003
 41
0.003
 10
-0.38665
 20
0.77539
 40
0.003
 41
0.003
  0
LWPOLYLINE
  5
339
100
AcDbEntity
  8
0
 62
     9
100
AcDbPolyline
 90
        2
 70
     0
 39
0.003
 10
-0.434764
 20
1.144071
 40
0.003
 41
0.003
 10
0.216433
 20
1.530217
 40
0.003
 41
0.003
  0
LWPOLYLINE
  5
33A
100
AcDbEntity
  8
0
 62
     9
100
AcDbPolyline
 90
        2
 70
     0
 39
0.003
 10
0.216433
 20
1.530217
 40
0.003
 41
0.003
 10
0.243783
 20
1.527161
 40
0.003
 41
0.003
  0
LWPOLYLINE
  5
33B
100
AcDbEntity
  8
0
 62
     9
100
AcDbPolyline
 90
        2
 70
     0
 39
0.003
 10
0.243783
 20
1.527161
 40
0.003
 41
0.003
 10
-0.407413
 20
1.141016
 40
0.003
 41
0.003
  0
LWPOLYLINE
  5
33C
100
AcDbEntity
  8
0
 62
     9
100
AcDbPolyline
 90
        2
 70
     0
 39
0.003
 10
-0.407413
 20
1.141016
 40
0.003
 41
0.003
 10
-0.434764
 20
1.144071
 40
0.003
 41
0.003
  0
LWPOLYLINE
  5
33D
100
AcDbEntity
  8
0
 62
     9
100
AcDbPolyline
 90
        2
 70
     0
 39
0.003
 10
-0.407413
 20
1.141016
 40
0.003
 41
0.003
 10
0.243783
 20
1.527161
 40
0.003
 41
0.003
  0
LWPOLYLINE
  5
33E
100
AcDbEntity
  8
0
 62
     9
100
AcDbPolyline
 90
        2
 70
     0
 39
0.003
 10
0.243783
 20
1.527161
 40
0.003
 41
0.003
 10
0.269272
 20
1.522492
 40
0.003
 41
0.003
  0
LWPOLYLINE
  5
33F
100
AcDbEntity
  8
0
 62
     9
100
AcDbPolyline
 90
        2
 70
     0
 39
0.003
 10
0.269272
 20
1.522492
 40
0.003
 41
0.003
 10
-0.381925
 20
1.136346
 40
0.003
 41
0.003
  0
LWPOLYLINE
  5
340
100
AcDbEntity
  8
0
 62
     9
100
AcDbPolyline
 90
        2
 70
     0
 39
0.003
 10
-0.381925
 20
1.136346
 40
0.003
 41
0.003
 10
-0.407413
 20
1.141016
 40
0.003
 41
0.003
  0
LWPOLYLINE
  5
341
100
AcDbEntity
  8
0
 62
     9
100
AcDbPolyline
 90
        2
 70
     0
 39
0.003
 10
-0.381925
 20
1.136346
 40
0.003
 41
0.003
 10
0.269272
 20
1.522492
 40
0.003
 41
0.003
  0
LWPOLYLINE
  5
342
100
AcDbEntity
  8
0
 62
     9
100
AcDbPolyline
 90
        2
 70
     0
 39
0.003
 10
0.269272
 20
1.522492
 40
0.003
 41
0.003
 10
0.292925
 20
1.516303
 40
0.003
 41
0.003
  0
LWPOLYLINE
  5
343
100
AcDbEntity
  8
0
 62
     9
100
AcDbPolyline
 90
        2
 70
     0
 39
0.003
 10
0.292925
 20
1.516303
 40
0.003
 41
0.003
 10
-0.358272
 20
1.130157
 40
0.003
 41
0.003
  0
LWPOLYLINE
  5
344
100
AcDbEntity
  8
0
 62
     9
100
AcDbPolyline
 90
        2
 70
     0
 39
0.003
 10
-0.358272
 20
1.130157
 40
0.003
 41
0.003
 10
-0.381925
 20
1.136346
 40
0.003
 41
0.003
  0
LWPOLYLINE
  5
345
100
AcDbEntity
  8
0
 62
     9
100
AcDbPolyline
 90
        2
 70
     0
 39
0.003
 10
-0.358272
 20
1.130157
 40
0.003
 41
0.003
 10
0.292925
 20
1.516303
 40
0.003
 41
0.003
  0
LWPOLYLINE
  5
346
100
AcDbEntity
  8
0
 62
     9
100
AcDbPolyline
 90
        2
 70
     0
 39
0.003
 10
0.292925
 20
1.516303
 40
0.003
 41
0.003
 10
0.314756
 20
1.508709
 40
0.003
 41
0.003
  0
LWPOLYLINE
  5
347
100
AcDbEntity
  8
0
 62
     9
100
AcDbPolyline
 90
        2
 70
     0
 39
0.003
 10
0.314756
 20
1.508709
 40
0.003
 41
0.003
 10
-0.336441
 20
1.122563
 40
0.003
 41
0.003
  0
LWPOLYLINE
  5
348
100
AcDbEntity
  8
0
 62
     9
100
AcDbPolyline
 90
        2
 70
     0
 39
0.003
 10
-0.336441
 20
1.122563
 40
0.003
 41
0.003
 10
-0.358272
 20
1.130157
 40
0.003
 41
0.003
  0
LWPOLYLINE
  5
349
100
AcDbEntity
  8
0
 62
     9
100
AcDbPolyline
 90
        2
 70
     0
 39
0.003
 10
-0.336441
 20
1.122563
 40
0.003
 41
0.003
 10
0.314756
 20
1.508709
 40
0.003
 41
0.003
  0
LWPOLYLINE
  5
34A
100
AcDbEntity
  8
0
 62
     9
100
AcDbPolyline
 90
        2
 70
     0
 39
0.003
 10
0.314756
 20
1.508709
 40
0.003
 41
0.003
 10
0.334791
 20
1.499807
 40
0.003
 41
0.003
  0
LWPOLYLINE
  5
34B
100
AcDbEntity
  8
0
 62
     9
100
AcDbPolyline
 90
        2
 70
     0
 39
0.003
 10
0.334791
 20
1.499807
 40
0.003
 41
0.003
 10
-0.316406
 20
1.113661
 40
0.003
 41
0.003
  0
LWPOLYLINE
  5
34C
100
AcDbEntity
  8
0
 62
     9
100
AcDbPolyline
 90
        2
 70
     0
 39
0.003
 10
-0.316406
 20
1.113661
 40
0.003
 41
0.003
 10
-0.336441
 20
1.122563
 40
0.003
 41
0.003
  0
LWPOLYLINE
  5
34D
100
AcDbEntity
  8
0
 62
   254
100
AcDbPolyline
 90
        2
 70
     0
 39
0.003
 10
-0.316406
 20
1.113661
 40
0.003
 41
0.003
 10
0.334791
 20
1.499807
 40
0.003
 41
0.003
  0
LWPOLYLINE
  5
34E
100
AcDbEntity
  8
0
 62
   254
100
AcDbPolyline
 90
        2
 70
     0
 39
0.003
 10
0.334791
 20
1.499807
 40
0.003
 41
0.003
 10
0.353039
 20
1.489717
 40
0.003
 41
0.003
  0
LWPOLYLINE
  5
34F
100
AcDbEntity
  8
0
 62
   254
100
AcDbPolyline
 90
        2
 70
     0
 39
0.003
 10
0.353039
 20
1.489717
 40
0.003
 41
0.003
 10
-0.298157
 20
1.103571
 40
0.003
 41
0.003
  0
LWPOLYLINE
  5
350
100
AcDbEntity
  8
0
 62
   254
100
AcDbPolyline
 90
        2
 70
     0
 39
0.003
 10
-0.298157
 20
1.103571
 40
0.003
 41
0.003
 10
-0.316406
 20
1.113661
 40
0.003
 41
0.003
  0
LWPOLYLINE
  5
351
100
AcDbEntity
  8
0
 62
   254
100
AcDbPolyline
 90
        2
 70
     0
 39
0.003
 10
-0.298157
 20
1.103571
 40
0.003
 41
0.003
 10
0.353039
 20
1.489717
 40
0.003
 41
0.003
  0
LWPOLYLINE
  5
352
100
AcDbEntity
  8
0
 62
   254
100
AcDbPolyline
 90
        2
 70
     0
 39
0.003
 10
0.353039
 20
1.489717
 40
0.003
 41
0.003
 10
0.369528
 20
1.478539
 40
0.003
 41
0.003
  0
LWPOLYLINE
  5
353
100
AcDbEntity
  8
0
 62
   254
100
AcDbPolyline
 90
        2
 70
     0
 39
0.003
 10
0.369528
 20
1.478539
 40
0.003
 41
0.003
 10
-0.281669
 20
1.092394
 40
0.003
 41
0.003
  0
LWPOLYLINE
  5
354
100
AcDbEntity
  8
0
 62
   254
100
AcDbPolyline
 90
        2
 70
     0
 39
0.003
 10
-0.281669
 20
1.092394
 40
0.003
 41
0.003
 10
-0.298157
 20
1.103571
 40
0.003
 41
0.003
  0
LWPOLYLINE
  5
355
100
AcDbEntity
  8
0
 62
   254
100
AcDbPolyline
 90
        2
 70
     0
 39
0.003
 10
-0.281669
 20
1.092394
 40
0.003
 41
0.003
 10
0.369528
 20
1.478539
 40
0.003
 41
0.003
  0
LWPOLYLINE
  5
356
100
AcDbEntity
  8
0
 62
   254
100
AcDbPolyline
 90
        2
 70
     0
 39
0.003
 10
0.369528
 20
1.478539
 40
0.003
 41
0.003
 10
0.384268
 20
1.466394
 40
0.003
 41
0.003
  0
LWPOLYLINE
  5
357
100
AcDbEntity
  8
0
 62
   254
100
AcDbPolyline
 90
        2
 70
     0
 39
0.003
 10
0.384268
 20
1.466394
 40
0.003
 41
0.003
 10
-0.266929
 20
1.080248
 40
0.003
 41
0.003
  0
LWPOLYLINE
  5
358
100
AcDbEntity
  8
0
 62
   254
100
AcDbPolyline
 90
        2
 70
     0
 39
0.003
 10
-0.266929
 20
1.080248
 40
0.003
 41
0.003
 10
-0.281669
 20
1.092394
 40
0.003
 41
0.003
  0
LWPOLYLINE
  5
359
100
AcDbEntity
  8
0
 62
   254
100
AcDbPolyline
 90
        2
 70
     0
 39
0.003
 10
-0.266929
 20
1.080248
 40
0.003
 41
0.003
 10
0.384268
 20
1.466394
 40
0.003
 41
0.003
  0
LWPOLYLINE
  5
35A
100
AcDbEntity
  8
0
 62
   254
100
AcDbPolyline
 90
        2
 70
     0
 39
0.003
 10
0.384268
 20
1.466394
 40
0.003
 41
0.003
 10
0.397295
 20
1.453362
 40
0.003
 41
0.003
  0
LWPOLYLINE
  5
35B
100
AcDbEntity
  8
0
 62
   254
100
AcDbPolyline
 90
        2
 70
     0
 39
0.003
 10
0.397295
 20
1.453362
 40
0.003
 41
0.003
 10
-0.253902
 20
1.067217
 40
0.003
 41
0.003
  0
LWPOLYLINE
  5
35C
100
AcDbEntity
  8
0
 62
   254
100
AcDbPolyline
 90
        2
 70
     0
 39
0.003
 10
-0.253902
 20
1.067217
 40
0.003
 41
0.003
 10
-0.266929
 20
1.080248
 40
0.003
 41
0.003
  0
LWPOLYLINE
  5
35D
100
AcDbEntity
  8
0
 62
   254
100
AcDbPolyline
 90
        2
 70
     0
 39
0.003
 10
-0.253902
 20
1.067217
 40
0.003
 41
0.003
 10
0.397295
 20
1.453362
 40
0.003
 41
0.003
  0
LWPOLYLINE
  5
35E
100
AcDbEntity
  8
0
 62
   254
100
AcDbPolyline
 90
        2
 70
     0
 39
0.003
 10
0.397295
 20
1.453362
 40
0.003
 41
0.003
 10
0.40861
 20
1.439579
 40
0.003
 41
0.003
  0
LWPOLYLINE
  5
35F
100
AcDbEntity
  8
0
 62
   254
100
AcDbPolyline
 90
        2
 70
     0
 39
0.003
 10
0.40861
 20
1.439579
 40
0.003
 41
0.003
 10
-0.242587
 20
1.053433
 40
0.003
 41
0.003
  0
LWPOLYLINE
  5
360
100
AcDbEntity
  8
0
 62
   254
100
AcDbPolyline
 90
        2
 70
     0
 39
0.003
 10
-0.242587
 20
1.053433
 40
0.003
 41
0.003
 10
-0.253902
 20
1.067217
 40
0.003
 41
0.003
  0
LWPOLYLINE
  5
361
100
AcDbEntity
  8
0
 62
   254
100
AcDbPolyline
 90
        2
 70
     0
 39
0.003
 10
-0.242587
 20
1.053433
 40
0.003
 41
0.003
 10
0.40861
 20
1.439579
 40
0.003
 41
0.003
  0
LWPOLYLINE
  5
362
100
AcDbEntity
  8
0
 62
   254
100
AcDbPolyline
 90
        2
 70
     0
 39
0.003
 10
0.40861
 20
1.439579
 40
0.003
 41
0.003
 10
0.41824
 20
1.425138
 40
0.003
 41
0.003
  0
LWPOLYLINE
  5
363
100
AcDbEntity
  8
0
 62
   254
100
AcDbPolyline
 90
        2
 70
     0
 39
0.003
 10
0.41824
 20
1.425138
 40
0.003
 41
0.003
 10
-0.232957
 20
1.038992
 40
0.003
 41
0.003
  0
LWPOLYLINE
  5
364
100
AcDbEntity
  8
0
 62
   254
100
AcDbPolyline
 90
        2
 70
     0
 39
0.003
 10
-0.232957
 20
1.038992
 40
0.003
 41
0.003
 10
-0.242587
 20
1.053433
 40
0.003
 41
0.003
  0
LWPOLYLINE
  5
365
100
AcDbEntity
  8
0
 62
   254
100
AcDbPolyline
 90
        2
 70
     0
 39
0.003
 10
-0.232957
 20
1.038992
 40
0.003
 41
0.003
 10
0.41824
 20
1.425138
 40
0.003
 41
0.003
  0
LWPOLYLINE
  5
366
100
AcDbEntity
  8
0
 62
   254
100
AcDbPolyline
 90
        2
 70
     0
 39
0.003
 10
0.41824
 20
1.425138
 40
0.003
 41
0.003
 10
0.426197
 20
1.410154
 40
0.003
 41
0.003
  0
LWPOLYLINE
  5
367
100
AcDbEntity
  8
0
 62
   254
100
AcDbPolyline
 90
        2
 70
     0
 39
0.003
 10
0.426197
 20
1.410154
 40
0.003
 41
0.003
 10
-0.225
 20
1.024008
 40
0.003
 41
0.003
  0
LWPOLYLINE
  5
368
100
AcDbEntity
  8
0
 62
   254
100
AcDbPolyline
 90
        2
 70
     0
 39
0.003
 10
-0.225
 20
1.024008
 40
0.003
 41
0.003
 10
-0.232957
 20
1.038992
 40
0.003
 41
0.003
  0
LWPOLYLINE
  5
369
100
AcDbEntity
  8
0
 62
   254
100
AcDbPolyline
 90
        2
 70
     0
 39
0.003
 10
-0.225
 20
1.024008
 40
0.003
 41
0.003
 10
0.426197
 20
1.410154
 40
0.003
 41
0.003
  0
LWPOLYLINE
  5
36A
100
AcDbEntity
  8
0
 62
   254
100
AcDbPolyline
 90
        2
 70
     0
 39
0.003
 10
0.426197
 20
1.410154
 40
0.003
 41
0.003
 10
0.432516
 20
1.394724
 40
0.003
 41
0.003
  0
LWPOLYLINE
  5
36B
100
AcDbEntity
  8
0
 62
   254
100
AcDbPolyline
 90
        2
 70
     0
 39
0.003
 10
0.432516
 20
1.394724
 40
0.003
 41
0.003
 10
-0.218681
 20
1.008579
 40
0.003
 41
0.003
  0
LWPOLYLINE
  5
36C
100
AcDbEntity
  8
0
 62
   254
100
AcDbPolyline
 90
        2
 70
     0
 39
0.003
 10
-0.218681
 20
1.008579
 40
0.003
 41
0.003
 10
-0.225
 20
1.024008
 40
0.003
 41
0.003
  0
LWPOLYLINE
  5
36D
100
AcDbEntity
  8
0
 62
   254
100
AcDbPolyline
 90
        2
 70
     0
 39
0.003
 10
-0.218681
 20
1.008579
 40
0.003
 41
0.003
 10
0.432516
 20
1.394724
 40
0.003
 41
0.003
  0
LWPOLYLINE
  5
36E
100
AcDbEntity
  8
0
 62
   254
100
AcDbPolyline
 90
        2
 70
     0
 39
0.003
 10
0.432516
 20
1.394724
 40
0.003
 41
0.003
 10
0.437197
 20
1.378969
 40
0.003
 41
0.003
  0
LWPOLYLINE
  5
36F
100
AcDbEntity
  8
0
 62
   254
100
AcDbPolyline
 90
        2
 70
     0
 39
0.003
 10
0.437197
 20
1.378969
 40
0.003
 41
0.003
 10
-0.214
 20
0.992823
 40
0.003
 41
0.003
  0
LWPOLYLINE
  5
370
100
AcDbEntity
  8
0
 62
   254
100
AcDbPolyline
 90
        2
 70
     0
 39
0.003
 10
-0.214
 20
0.992823
 40
0.003
 41
0.003
 10
-0.218681
 20
1.008579
 40
0.003
 41
0.003
  0
LWPOLYLINE
  5
371
100
AcDbEntity
  8
0
 62
   254
100
AcDbPolyline
 90
        2
 70
     0
 39
0.003
 10
-0.214
 20
0.992823
 40
0.003
 41
0.003
 10
0.437197
 20
1.378969
 40
0.003
 41
0.003
  0
LWPOLYLINE
  5
372
100
AcDbEntity
  8
0
 62
   254
100
AcDbPolyline
 90
        2
 70
     0
 39
0.003
 10
0.437197
 20
1.378969
 40
0.003
 41
0.003
 10
0.440272
 20
1.362984
 40
0.003
 41
0.003
  0
LWPOLYLINE
  5
373
100
AcDbEntity
  8
0
 62
   254
100
AcDbPolyline
 90
        2
 70
     0
 39
0.003
 10
0.440272
 20
1.362984
 40
0.003
 41
0.003
 10
-0.210925
 20
0.976839
 40
0.003
 41
0.003
  0
LWPOLYLINE
  5
374
100
AcDbEntity
  8
0
 62
   254
100
AcDbPolyline
 90
        2
 70
     0
 39
0.003
 10
-0.210925
 20
0.976839
 40
0.003
 41
0.003
 10
-0.214
 20
0.992823
 40
0.003
 41
0.003
  0
LWPOLYLINE
  5
375
100
AcDbEntity
  8
0
 62
   254
100
AcDbPolyline
 90
        2
 70
     0
 39
0.003
 10
-0.210925
 20
0.976839
 40
0.003
 41
0.003
 10
0.440272
 20
1.362984
 40
0.003
 41
0.003
  0
LWPOLYLINE
  5
376
100
AcDbEntity
  8
0
 62
   254
100
AcDbPolyline
 90
        2
 70
     0
 39
0.003
 10
0.440272
 20
1.362984
 40
0.003
 41
0.003
 10
0.441752
 20
1.346894
 40
0.003
 41
0.003
  0
LWPOLYLINE
  5
377
100
AcDbEntity
  8
0
 62
   254
100
AcDbPolyline
 90
        2
 70
     0
 39
0.003
 10
0.441752
 20
1.346894
 40
0.003
 41
0.003
 10
-0.209445
 20
0.960748
 40
0.003
 41
0.003
  0
LWPOLYLINE
  5
378
100
AcDbEntity
  8
0
 62
   254
100
AcDbPolyline
 90
        2
 70
     0
 39
0.003
 10
-0.209445
 20
0.960748
 40
0.003
 41
0.003
 10
-0.210925
 20
0.976839
 40
0.003
 41
0.003
  0
LWPOLYLINE
  5
379
100
AcDbEntity
  8
0
 62
   254
100
AcDbPolyline
 90
        2
 70
     0
 39
0.003
 10
-0.209445
 20
0.960748
 40
0.003
 41
0.003
 10
0.441752
 20
1.346894
 40
0.003
 41
0.003
  0
LWPOLYLINE
  5
37A
100
AcDbEntity
  8
0
 62
   254
100
AcDbPolyline
 90
        2
 70
     0
 39
0.003
 10
0.441752
 20
1.346894
 40
0.003
 41
0.003
 10
0.441669
 20
1.330783
 40
0.003
 41
0.003
  0
LWPOLYLINE
  5
37B
100
AcDbEntity
  8
0
 62
   254
100
AcDbPolyline
 90
        2
 70
     0
 39
0.003
 10
0.441669
 20
1.330783
 40
0.003
 41
0.003
 10
-0.209528
 20
0.944638
 40
0.003
 41
0.003
  0
LWPOLYLINE
  5
37C
100
AcDbEntity
  8
0
 62
   254
100
AcDbPolyline
 90
        2
 70
     0
 39
0.003
 10
-0.209528
 20
0.944638
 40
0.003
 41
0.003
 10
-0.209445
 20
0.960748
 40
0.003
 41
0.003
  0
LWPOLYLINE
  5
37D
100
AcDbEntity
  8
0
 62
   254
100
AcDbPolyline
 90
        2
 70
     0
 39
0.003
 10
-0.209528
 20
0.944638
 40
0.003
 41
0.003
 10
0.441669
 20
1.330783
 40
0.003
 41
0.003
  0
LWPOLYLINE
  5
37E
100
AcDbEntity
  8
0
 62
   254
100
AcDbPolyline
 90
        2
 70
     0
 39
0.003
 10
0.441669
 20
1.330783
 40
0.003
 41
0.003
 10
0.440024
 20
1.31478
 40
0.003
 41
0.003
  0
LWPOLYLINE
  5
37F
100
AcDbEntity
  8
0
 62
   254
100
AcDbPolyline
 90
        2
 70
     0
 39
0.003
 10
0.440024
 20
1.31478
 40
0.003
 41
0.003
 10
-0.211173
 20
0.928634
 40
0.003
 41
0.003
  0
LWPOLYLINE
  5
380
100
AcDbEntity
  8
0
 62
   254
100
AcDbPolyline
 90
        2
 70
     0
 39
0.003
 10
-0.211173
 20
0.928634
 40
0.003
 41
0.003
 10
-0.209528
 20
0.944638
 40
0.003
 41
0.003
  0
LWPOLYLINE
  5
381
100
AcDbEntity
  8
0
 62
   254
100
AcDbPolyline
 90
        2
 70
     0
 39
0.003
 10
-0.211173
 20
0.928634
 40
0.003
 41
0.003
 10
0.440024
 20
1.31478
 40
0.003
 41
0.003
  0
LWPOLYLINE
  5
382
100
AcDbEntity
  8
0
 62
   254
100
AcDbPolyline
 90
        2
 70
     0
 39
0.003
 10
0.440024
 20
1.31478
 40
0.003
 41
0.003
 10
0.43685
 20
1.29898
 40
0.003
 41
0.003
  0
LWPOLYLINE
  5
383
100
AcDbEntity
  8
0
 62
   254
100
AcDbPolyline
 90
        2
 70
     0
 39
0.003
 10
0.43685
 20
1.29898
 40
0.003
 41
0.003
 10
-0.214346
 20
0.912835
 40
0.003
 41
0.003
  0
LWPOLYLINE
  5
384
100
AcDbEntity
  8
0
 62
   254
100
AcDbPolyline
 90
        2
 70
     0
 39
0.003
 10
-0.214346
 20
0.912835
 40
0.003
 41
0.003
 10
-0.211173
 20
0.928634
 40
0.003
 41
0.003
  0
LWPOLYLINE
  5
385
100
AcDbEntity
  8
0
 62
   254
100
AcDbPolyline
 90
        2
 70
     0
 39
0.003
 10
-0.214346
 20
0.912835
 40
0.003
 41
0.003
 10
0.43685
 20
1.29898
 40
0.003
 41
0.003
  0
LWPOLYLINE
  5
386
100
AcDbEntity
  8
0
 62
   254
100
AcDbPolyline
 90
        2
 70
     0
 39
0.003
 10
0.43685
 20
1.29898
 40
0.003
 41
0.003
 10
0.432154
 20
1.2835
 40
0.003
 41
0.003
  0
LWPOLYLINE
  5
387
100
AcDbEntity
  8
0
 62
   254
100
AcDbPolyline
 90
        2
 70
     0
 39
0.003
 10
0.432154
 20
1.2835
 40
0.003
 41
0.003
 10
-0.219043
 20
0.897354
 40
0.003
 41
0.003
  0
LWPOLYLINE
  5
388
100
AcDbEntity
  8
0
 62
   254
100
AcDbPolyline
 90
        2
 70
     0
 39
0.003
 10
-0.219043
 20
0.897354
 40
0.003
 41
0.003
 10
-0.214346
 20
0.912835
 40
0.003
 41
0.003
  0
LWPOLYLINE
  5
389
100
AcDbEntity
  8
0
 62
   254
100
AcDbPolyline
 90
        2
 70
     0
 39
0.003
 10
-0.219043
 20
0.897354
 40
0.003
 41
0.003
 10
0.432154
 20
1.2835
 40
0.003
 41
0.003
  0
LWPOLYLINE
  5
38A
100
AcDbEntity
  8
0
 62
   254
100
AcDbPolyline
 90
        2
 70
     0
 39
0.003
 10
0.432154
 20
1.2835
 40
0.003
 41
0.003
 10
0.425969
 20
1.268437
 40
0.003
 41
0.003
  0
LWPOLYLINE
  5
38B
100
AcDbEntity
  8
0
 62
   254
100
AcDbPolyline
 90
        2
 70
     0
 39
0.003
 10
0.425969
 20
1.268437
 40
0.003
 41
0.003
 10
-0.225228
 20
0.882291
 40
0.003
 41
0.003
  0
LWPOLYLINE
  5
38C
100
AcDbEntity
  8
0
 62
   254
100
AcDbPolyline
 90
        2
 70
     0
 39
0.003
 10
-0.225228
 20
0.882291
 40
0.003
 41
0.003
 10
-0.219043
 20
0.897354
 40
0.003
 41
0.003
  0
LWPOLYLINE
  5
38D
100
AcDbEntity
  8
0
 62
   254
100
AcDbPolyline
 90
        2
 70
     0
 39
0.003
 10
-0.225228
 20
0.882291
 40
0.003
 41
0.003
 10
0.425969
 20
1.268437
 40
0.003
 41
0.003
  0
LWPOLYLINE
  5
38E
100
AcDbEntity
  8
0
 62
   254
100
AcDbPolyline
 90
        2
 70
     0
 39
0.003
 10
0.425969
 20
1.268437
 40
0.003
 41
0.003
 10
0.418299
 20
1.253913
 40
0.003
 41
0.003
  0
LWPOLYLINE
  5
38F
100
AcDbEntity
  8
0
 62
   254
100
AcDbPolyline
 90
        2
 70
     0
 39
0.003
 10
0.418299
 20
1.253913
 40
0.003
 41
0.003
 10
-0.232898
 20
0.867768
 40
0.003
 41
0.003
  0
LWPOLYLINE
  5
390
100
AcDbEntity
  8
0
 62
   254
100
AcDbPolyline
 90
        2
 70
     0
 39
0.003
 10
-0.232898
 20
0.867768
 40
0.003
 41
0.003
 10
-0.225228
 20
0.882291
 40
0.003
 41
0.003
  0
LWPOLYLINE
  5
391
100
AcDbEntity
  8
0
 62
   254
100
AcDbPolyline
 90
        2
 70
     0
 39
0.003
 10
-0.232898
 20
0.867768
 40
0.003
 41
0.003
 10
0.418299
 20
1.253913
 40
0.003
 41
0.003
  0
LWPOLYLINE
  5
392
100
AcDbEntity
  8
0
 62
   254
100
AcDbPolyline
 90
        2
 70
     0
 39
0.003
 10
0.418299
 20
1.253913
 40
0.003
 41
0.003
 10
0.409177
 20
1.24002
 40
0.003
 41
0.003
  0
LWPOLYLINE
  5
393
100
AcDbEntity
  8
0
 62
   254
100
AcDbPolyline
 90
        2
 70
     0
 39
0.003
 10
0.409177
 20
1.24002
 40
0.003
 41
0.003
 10
-0.24202
 20
0.853874
 40
0.003
 41
0.003
  0
LWPOLYLINE
  5
394
100
AcDbEntity
  8
0
 62
   254
100
AcDbPolyline
 90
        2
 70
     0
 39
0.003
 10
-0.24202
 20
0.853874
 40
0.003
 41
0.003
 10
-0.232898
 20
0.867768
 40
0.003
 41
0.003
  0
LWPOLYLINE
  5
395
100
AcDbEntity
  8
0
 62
   254
100
AcDbPolyline
 90
        2
 70
     0
 39
0.003
 10
-0.24202
 20
0.853874
 40
0.003
 41
0.003
 10
0.409177
 20
1.24002
 40
0.003
 41
0.003
  0
LWPOLYLINE
  5
396
100
AcDbEntity
  8
0
 62
   254
100
AcDbPolyline
 90
        2
 70
     0
 39
0.003
 10
0.409177
 20
1.24002
 40
0.003
 41
0.003
 10
0.39861
 20
1.226882
 40
0.003
 41
0.003
  0
LWPOLYLINE
  5
397
100
AcDbEntity
  8
0
 62
   254
100
AcDbPolyline
 90
        2
 70
     0
 39
0.003
 10
0.39861
 20
1.226882
 40
0.003
 41
0.003
 10
-0.252587
 20
0.840736
 40
0.003
 41
0.003
  0
LWPOLYLINE
  5
398
100
AcDbEntity
  8
0
 62
   254
100
AcDbPolyline
 90
        2
 70
     0
 39
0.003
 10
-0.252587
 20
0.840736
 40
0.003
 41
0.003
 10
-0.24202
 20
0.853874
 40
0.003
 41
0.003
  0
LWPOLYLINE
  5
399
100
AcDbEntity
  8
0
 62
   254
100
AcDbPolyline
 90
        2
 70
     0
 39
0.003
 10
-0.252587
 20
0.840736
 40
0.003
 41
0.003
 10
0.39861
 20
1.226882
 40
0.003
 41
0.003
  0
LWPOLYLINE
  5
39A
100
AcDbEntity
  8
0
 62
   254
100
AcDbPolyline
 90
        2
 70
     0
 39
0.003
 10
0.39861
 20
1.226882
 40
0.003
 41
0.003
 10
0.38663
 20
1.214587
 40
0.003
 41
0.003
  0
LWPOLYLINE
  5
39B
100
AcDbEntity
  8
0
 62
   254
100
AcDbPolyline
 90
        2
 70
     0
 39
0.003
 10
0.38663
 20
1.214587
 40
0.003
 41
0.003
 10
-0.264567
 20
0.828441
 40
0.003
 41
0.003
  0
LWPOLYLINE
  5
39C
100
AcDbEntity
  8
0
 62
   254
100
AcDbPolyline
 90
        2
 70
     0
 39
0.003
 10
-0.264567
 20
0.828441
 40
0.003
 41
0.003
 10
-0.252587
 20
0.840736
 40
0.003
 41
0.003
  0
LWPOLYLINE
  5
39D
100
AcDbEntity
  8
0
 62
     9
100
AcDbPolyline
 90
        2
 70
     0
 39
0.003
 10
-0.264567
 20
0.828441
 40
0.003
 41
0.003
 10
0.38663
 20
1.214587
 40
0.003
 41
0.003
  0
LWPOLYLINE
  5
39E
100
AcDbEntity
  8
0
 62
     9
100
AcDbPolyline
 90
        2
 70
     0
 39
0.003
 10
0.38663
 20
1.214587
 40
0.003
 41
0.003
 10
0.373244
 20
1.20326
 40
0.003
 41
0.003
  0
LWPOLYLINE
  5
39F
100
AcDbEntity
  8
0
 62
     9
100
AcDbPolyline
 90
        2
 70
     0
 39
0.003
 10
0.373244
 20
1.20326
 40
0.003
 41
0.003
 10
-0.277953
 20
0.817114
 40
0.003
 41
0.003
  0
LWPOLYLINE
  5
3A0
100
AcDbEntity
  8
0
 62
     9
100
AcDbPolyline
 90
        2
 70
     0
 39
0.003
 10
-0.277953
 20
0.817114
 40
0.003
 41
0.003
 10
-0.264567
 20
0.828441
 40
0.003
 41
0.003
  0
LWPOLYLINE
  5
3A1
100
AcDbEntity
  8
0
 62
     9
100
AcDbPolyline
 90
        2
 70
     0
 39
0.003
 10
-0.277953
 20
0.817114
 40
0.003
 41
0.003
 10
0.373244
 20
1.20326
 40
0.003
 41
0.003
  0
LWPOLYLINE
  5
3A2
100
AcDbEntity
  8
0
 62
     9
100
AcDbPolyline
 90
        2
 70
     0
 39
0.003
 10
0.373244
 20
1.20326
 40
0.003
 41
0.003
 10
0.358476
 20
1.193004
 40
0.003
 41
0.003
  0
LWPOLYLINE
  5
3A3
100
AcDbEntity
  8
0
 62
     9
100
AcDbPolyline
 90
        2
 70
     0
 39
0.003
 10
0.358476
 20
1.193004
 40
0.003
 41
0.003
 10
-0.29272
 20
0.806858
 40
0.003
 41
0.003
  0
LWPOLYLINE
  5
3A4
100
AcDbEntity
  8
0
 62
     9
100
AcDbPolyline
 90
        2
 70
     0
 39
0.003
 10
-0.29272
 20
0.806858
 40
0.003
 41
0.003
 10
-0.277953
 20
0.817114
 40
0.003
 41
0.003
  0
LWPOLYLINE
  5
3A5
100
AcDbEntity
  8
0
 62
     0
100
AcDbPolyline
 90
        2
 70
     0
 39
0.003
 10
-0.434764
 20
1.144071
 40
0.003
 41
0.003
 10
0.216433
 20
1.530217
 40
0.003
 41
0.003
  0
LWPOLYLINE
  5
3A6
100
AcDbEntity
  8
0
 62
     0
100
AcDbPolyline
 90
        2
 70
     0
 39
0.003
 10
0.216433
 20
1.530217
 40
0.003
 41
0.003
 10
0.243783
 20
1.527161
 40
0.003
 41
0.003
  0
LWPOLYLINE
  5
3A7
100
AcDbEntity
  8
0
 62
     0
100
AcDbPolyline
 90
        2
 70
     0
 39
0.003
 10
0.243783
 20
1.527161
 40
0.003
 41
0.003
 10
0.269272
 20
1.522492
 40
0.003
 41
0.003
  0
LWPOLYLINE
  5
3A8
100
AcDbEntity
  8
0
 62
     0
100
AcDbPolyline
 90
        2
 70
     0
 39
0.003
 10
0.269272
 20
1.522492
 40
0.003
 41
0.003
 10
0.292925
 20
1.516303
 40
0.003
 41
0.003
  0
LWPOLYLINE
  5
3A9
100
AcDbEntity
  8
0
 62
     0
100
AcDbPolyline
 90
        2
 70
     0
 39
0.003
 10
0.292925
 20
1.516303
 40
0.003
 41
0.003
 10
0.314756
 20
1.508709
 40
0.003
 41
0.003
  0
LWPOLYLINE
  5
3AA
100
AcDbEntity
  8
0
 62
     0
100
AcDbPolyline
 90
        2
 70
     0
 39
0.003
 10
0.314756
 20
1.508709
 40
0.003
 41
0.003
 10
0.334791
 20
1.499807
 40
0.003
 41
0.003
  0
LWPOLYLINE
  5
3AB
100
AcDbEntity
  8
0
 62
     0
100
AcDbPolyline
 90
        2
 70
     0
 39
0.003
 10
0.334791
 20
1.499807
 40
0.003
 41
0.003
 10
0.353039
 20
1.489717
 40
0.003
 41
0.003
  0
LWPOLYLINE
  5
3AC
100
AcDbEntity
  8
0
 62
     0
100
AcDbPolyline
 90
        2
 70
     0
 39
0.003
 10
0.353039
 20
1.489717
 40
0.003
 41
0.003
 10
0.369528
 20
1.478539
 40
0.003
 41
0.003
  0
LWPOLYLINE
  5
3AD
100
AcDbEntity
  8
0
 62
     0
100
AcDbPolyline
 90
        2
 70
     0
 39
0.003
 10
0.369528
 20
1.478539
 40
0.003
 41
0.003
 10
0.384268
 20
1.466394
 40
0.003
 41
0.003
  0
LWPOLYLINE
  5
3AE
100
AcDbEntity
  8
0
 62
     0
100
AcDbPolyline
 90
        2
 70
     0
 39
0.003
 10
0.384268
 20
1.466394
 40
0.003
 41
0.003
 10
0.397295
 20
1.453362
 40
0.003
 41
0.003
  0
LWPOLYLINE
  5
3AF
100
AcDbEntity
  8
0
 62
     0
100
AcDbPolyline
 90
        2
 70
     0
 39
0.003
 10
0.397295
 20
1.453362
 40
0.003
 41
0.003
 10
0.40861
 20
1.439579
 40
0.003
 41
0.003
  0
LWPOLYLINE
  5
3B0
100
AcDbEntity
  8
0
 62
     0
100
AcDbPolyline
 90
        2
 70
     0
 39
0.003
 10
0.40861
 20
1.439579
 40
0.003
 41
0.003
 10
0.41824
 20
1.425138
 40
0.003
 41
0.003
  0
LWPOLYLINE
  5
3B1
100
AcDbEntity
  8
0
 62
     0
100
AcDbPolyline
 90
        2
 70
     0
 39
0.003
 10
0.41824
 20
1.425138
 40
0.003
 41
0.003
 10
0.426197
 20
1.410154
 40
0.003
 41
0.003
  0
LWPOLYLINE
  5
3B2
100
AcDbEntity
  8
0
 62
     0
100
AcDbPolyline
 90
        2
 70
     0
 39
0.003
 10
0.426197
 20
1.410154
 40
0.003
 41
0.003
 10
0.432516
 20
1.394724
 40
0.003
 41
0.003
  0
LWPOLYLINE
  5
3B3
100
AcDbEntity
  8
0
 62
     0
100
AcDbPolyline
 90
        2
 70
     0
 39
0.003
 10
0.432516
 20
1.394724
 40
0.003
 41
0.003
 10
0.437197
 20
1.378969
 40
0.003
 41
0.003
  0
LWPOLYLINE
  5
3B4
100
AcDbEntity
  8
0
 62
     0
100
AcDbPolyline
 90
        2
 70
     0
 39
0.003
 10
0.437197
 20
1.378969
 40
0.003
 41
0.003
 10
0.440272
 20
1.362984
 40
0.003
 41
0.003
  0
LWPOLYLINE
  5
3B5
100
AcDbEntity
  8
0
 62
     0
100
AcDbPolyline
 90
        2
 70
     0
 39
0.003
 10
0.440272
 20
1.362984
 40
0.003
 41
0.003
 10
0.441752
 20
1.346894
 40
0.003
 41
0.003
  0
LWPOLYLINE
  5
3B6
100
AcDbEntity
  8
0
 62
     0
100
AcDbPolyline
 90
        2
 70
     0
 39
0.003
 10
0.441752
 20
1.346894
 40
0.003
 41
0.003
 10
0.441669
 20
1.330783
 40
0.003
 41
0.003
  0
LWPOLYLINE
  5
3B7
100
AcDbEntity
  8
0
 62
     0
100
AcDbPolyline
 90
        2
 70
     0
 39
0.003
 10
0.441669
 20
1.330783
 40
0.003
 41
0.003
 10
0.440024
 20
1.31478
 40
0.003
 41
0.003
  0
LWPOLYLINE
  5
3B8
100
AcDbEntity
  8
0
 62
     0
100
AcDbPolyline
 90
        2
 70
     0
 39
0.003
 10
0.440024
 20
1.31478
 40
0.003
 41
0.003
 10
0.43685
 20
1.29898
 40
0.003
 41
0.003
  0
LWPOLYLINE
  5
3B9
100
AcDbEntity
  8
0
 62
     0
100
AcDbPolyline
 90
        2
 70
     0
 39
0.003
 10
0.43685
 20
1.29898
 40
0.003
 41
0.003
 10
0.432154
 20
1.2835
 40
0.003
 41
0.003
  0
LWPOLYLINE
  5
3BA
100
AcDbEntity
  8
0
 62
     0
100
AcDbPolyline
 90
        2
 70
     0
 39
0.003
 10
0.432154
 20
1.2835
 40
0.003
 41
0.003
 10
0.425969
 20
1.268437
 40
0.003
 41
0.003
  0
LWPOLYLINE
  5
3BB
100
AcDbEntity
  8
0
 62
     0
100
AcDbPolyline
 90
        2
 70
     0
 39
0.003
 10
0.425969
 20
1.268437
 40
0.003
 41
0.003
 10
0.418299
 20
1.253913
 40
0.003
 41
0.003
  0
LWPOLYLINE
  5
3BC
100
AcDbEntity
  8
0
 62
     0
100
AcDbPolyline
 90
        2
 70
     0
 39
0.003
 10
0.418299
 20
1.253913
 40
0.003
 41
0.003
 10
0.409177
 20
1.24002
 40
0.003
 41
0.003
  0
LWPOLYLINE
  5
3BD
100
AcDbEntity
  8
0
 62
     0
100
AcDbPolyline
 90
        2
 70
     0
 39
0.003
 10
0.409177
 20
1.24002
 40
0.003
 41
0.003
 10
0.39861
 20
1.226882
 40
0.003
 41
0.003
  0
LWPOLYLINE
  5
3BE
100
AcDbEntity
  8
0
 62
     0
100
AcDbPolyline
 90
        2
 70
     0
 39
0.003
 10
0.39861
 20
1.226882
 40
0.003
 41
0.003
 10
0.38663
 20
1.214587
 40
0.003
 41
0.003
  0
LWPOLYLINE
  5
3BF
100
AcDbEntity
  8
0
 62
     0
100
AcDbPolyline
 90
        2
 70
     0
 39
0.003
 10
0.38663
 20
1.214587
 40
0.003
 41
0.003
 10
0.373244
 20
1.20326
 40
0.003
 41
0.003
  0
LWPOLYLINE
  5
3C0
100
AcDbEntity
  8
0
 62
     0
100
AcDbPolyline
 90
        2
 70
     0
 39
0.003
 10
0.373244
 20
1.20326
 40
0.003
 41
0.003
 10
0.358476
 20
1.193004
 40
0.003
 41
0.003
  0
LWPOLYLINE
  5
3C1
100
AcDbEntity
  8
0
 62
     0
100
AcDbPolyline
 90
        2
 70
     0
 39
0.003
 10
0.358476
 20
1.193004
 40
0.003
 41
0.003
 10
-0.29272
 20
0.806858
 40
0.003
 41
0.003
  0
LWPOLYLINE
  5
3C2
100
AcDbEntity
  8
0
 62
     0
100
AcDbPolyline
 90
        2
 70
     0
 39
0.003
 10
-0.29272
 20
0.806858
 40
0.003
 41
0.003
 10
-0.277953
 20
0.817114
 40
0.003
 41
0.003
  0
LWPOLYLINE
  5
3C3
100
AcDbEntity
  8
0
 62
     0
100
AcDbPolyline
 90
        2
 70
     0
 39
0.003
 10
-0.277953
 20
0.817114
 40
0.003
 41
0.003
 10
-0.264567
 20
0.828441
 40
0.003
 41
0.003
  0
LWPOLYLINE
  5
3C4
100
AcDbEntity
  8
0
 62
     0
100
AcDbPolyline
 90
        2
 70
     0
 39
0.003
 10
-0.264567
 20
0.828441
 40
0.003
 41
0.003
 10
-0.252587
 20
0.840736
 40
0.003
 41
0.003
  0
LWPOLYLINE
  5
3C5
100
AcDbEntity
  8
0
 62
     0
100
AcDbPolyline
 90
        2
 70
     0
 39
0.003
 10
-0.252587
 20
0.840736
 40
0.003
 41
0.003
 10
-0.24202
 20
0.853874
 40
0.003
 41
0.003
  0
LWPOLYLINE
  5
3C6
100
AcDbEntity
  8
0
 62
     0
100
AcDbPolyline
 90
        2
 70
     0
 39
0.003
 10
-0.24202
 20
0.853874
 40
0.003
 41
0.003
 10
-0.232898
 20
0.867768
 40
0.003
 41
0.003
  0
LWPOLYLINE
  5
3C7
100
AcDbEntity
  8
0
 62
     0
100
AcDbPolyline
 90
        2
 70
     0
 39
0.003
 10
-0.232898
 20
0.867768
 40
0.003
 41
0.003
 10
-0.225228
 20
0.882291
 40
0.003
 41
0.003
  0
LWPOLYLINE
  5
3C8
100
AcDbEntity
  8
0
 62
     0
100
AcDbPolyline
 90
        2
 70
     0
 39
0.003
 10
-0.225228
 20
0.882291
 40
0.003
 41
0.003
 10
-0.219043
 20
0.897354
 40
0.003
 41
0.003
  0
LWPOLYLINE
  5
3C9
100
AcDbEntity
  8
0
 62
     0
100
AcDbPolyline
 90
        2
 70
     0
 39
0.003
 10
-0.219043
 20
0.897354
 40
0.003
 41
0.003
 10
-0.214346
 20
0.912835
 40
0.003
 41
0.003
  0
LWPOLYLINE
  5
3CA
100
AcDbEntity
  8
0
 62
     0
100
AcDbPolyline
 90
        2
 70
     0
 39
0.003
 10
-0.214346
 20
0.912835
 40
0.003
 41
0.003
 10
-0.211173
 20
0.928634
 40
0.003
 41
0.003
  0
LWPOLYLINE
  5
3CB
100
AcDbEntity
  8
0
 62
     0
100
AcDbPolyline
 90
        2
 70
     0
 39
0.003
 10
-0.211173
 20
0.928634
 40
0.003
 41
0.003
 10
-0.209528
 20
0.944638
 40
0.003
 41
0.003
  0
LWPOLYLINE
  5
3CC
100
AcDbEntity
  8
0
 62
     0
100
AcDbPolyline
 90
        2
 70
     0
 39
0.003
 10
-0.209528
 20
0.944638
 40
0.003
 41
0.003
 10
-0.209445
 20
0.960748
 40
0.003
 41
0.003
  0
LWPOLYLINE
  5
3CD
100
AcDbEntity
  8
0
 62
     0
100
AcDbPolyline
 90
        2
 70
     0
 39
0.003
 10
-0.209445
 20
0.960748
 40
0.003
 41
0.003
 10
-0.210925
 20
0.976839
 40
0.003
 41
0.003
  0
LWPOLYLINE
  5
3CE
100
AcDbEntity
  8
0
 62
     0
100
AcDbPolyline
 90
        2
 70
     0
 39
0.003
 10
-0.210925
 20
0.976839
 40
0.003
 41
0.003
 10
-0.214
 20
0.992823
 40
0.003
 41
0.003
  0
LWPOLYLINE
  5
3CF
100
AcDbEntity
  8
0
 62
     0
100
AcDbPolyline
 90
        2
 70
     0
 39
0.003
 10
-0.214
 20
0.992823
 40
0.003
 41
0.003
 10
-0.218681
 20
1.008579
 40
0.003
 41
0.003
  0
LWPOLYLINE
  5
3D0
100
AcDbEntity
  8
0
 62
     0
100
AcDbPolyline
 90
        2
 70
     0
 39
0.003
 10
-0.218681
 20
1.008579
 40
0.003
 41
0.003
 10
-0.225
 20
1.024008
 40
0.003
 41
0.003
  0
LWPOLYLINE
  5
3D1
100
AcDbEntity
  8
0
 62
     0
100
AcDbPolyline
 90
        2
 70
     0
 39
0.003
 10
-0.225
 20
1.024008
 40
0.003
 41
0.003
 10
-0.232957
 20
1.038992
 40
0.003
 41
0.003
  0
LWPOLYLINE
  5
3D2
100
AcDbEntity
  8
0
 62
     0
100
AcDbPolyline
 90
        2
 70
     0
 39
0.003
 10
-0.232957
 20
1.038992
 40
0.003
 41
0.003
 10
-0.242587
 20
1.053433
 40
0.003
 41
0.003
  0
LWPOLYLINE
  5
3D3
100
AcDbEntity
  8
0
 62
     0
100
AcDbPolyline
 90
        2
 70
     0
 39
0.003
 10
-0.242587
 20
1.053433
 40
0.003
 41
0.003
 10
-0.253902
 20
1.067217
 40
0.003
 41
0.003
  0
LWPOLYLINE
  5
3D4
100
AcDbEntity
  8
0
 62
     0
100
AcDbPolyline
 90
        2
 70
     0
 39
0.003
 10
-0.253902
 20
1.067217
 40
0.003
 41
0.003
 10
-0.266929
 20
1.080248
 40
0.003
 41
0.003
  0
LWPOLYLINE
  5
3D5
100
AcDbEntity
  8
0
 62
     0
100
AcDbPolyline
 90
        2
 70
     0
 39
0.003
 10
-0.266929
 20
1.080248
 40
0.003
 41
0.003
 10
-0.281669
 20
1.092394
 40
0.003
 41
0.003
  0
LWPOLYLINE
  5
3D6
100
AcDbEntity
  8
0
 62
     0
100
AcDbPolyline
 90
        2
 70
     0
 39
0.003
 10
-0.281669
 20
1.092394
 40
0.003
 41
0.003
 10
-0.298157
 20
1.103571
 40
0.003
 41
0.003
  0
LWPOLYLINE
  5
3D7
100
AcDbEntity
  8
0
 62
     0
100
AcDbPolyline
 90
        2
 70
     0
 39
0.003
 10
-0.298157
 20
1.103571
 40
0.003
 41
0.003
 10
-0.316406
 20
1.113661
 40
0.003
 41
0.003
  0
LWPOLYLINE
  5
3D8
100
AcDbEntity
  8
0
 62
     0
100
AcDbPolyline
 90
        2
 70
     0
 39
0.003
 10
-0.316406
 20
1.113661
 40
0.003
 41
0.003
 10
-0.336441
 20
1.122563
 40
0.003
 41
0.003
  0
LWPOLYLINE
  5
3D9
100
AcDbEntity
  8
0
 62
     0
100
AcDbPolyline
 90
        2
 70
     0
 39
0.003
 10
-0.336441
 20
1.122563
 40
0.003
 41
0.003
 10
-0.358272
 20
1.130157
 40
0.003
 41
0.003
  0
LWPOLYLINE
  5
3DA
100
AcDbEntity
  8
0
 62
     0
100
AcDbPolyline
 90
        2
 70
     0
 39
0.003
 10
-0.358272
 20
1.130157
 40
0.003
 41
0.003
 10
-0.381925
 20
1.136346
 40
0.003
 41
0.003
  0
LWPOLYLINE
  5
3DB
100
AcDbEntity
  8
0
 62
     0
100
AcDbPolyline
 90
        2
 70
     0
 39
0.003
 10
-0.381925
 20
1.136346
 40
0.003
 41
0.003
 10
-0.407413
 20
1.141016
 40
0.003
 41
0.003
  0
LWPOLYLINE
  5
3DC
100
AcDbEntity
  8
0
 62
     0
100
AcDbPolyline
 90
        2
 70
     0
 39
0.003
 10
-0.407413
 20
1.141016
 40
0.003
 41
0.003
 10
-0.434764
 20
1.144071
 40
0.003
 41
0.003
  0
LWPOLYLINE
  5
3DD
100
AcDbEntity
  8
0
 62
   254
100
AcDbPolyline
 90
        2
 70
     0
 39
0.003
 10
-0.113921
 20
0.373378
 40
0.003
 41
0.003
 10
0.537276
 20
0.759524
 40
0.003
 41
0.003
  0
LWPOLYLINE
  5
3DE
100
AcDbEntity
  8
0
 62
   254
100
AcDbPolyline
 90
        2
 70
     0
 39
0.003
 10
0.537276
 20
0.759524
 40
0.003
 41
0.003
 10
0.537276
 20
0.546945
 40
0.003
 41
0.003
  0
LWPOLYLINE
  5
3DF
100
AcDbEntity
  8
0
 62
   254
100
AcDbPolyline
 90
        2
 70
     0
 39
0.003
 10
0.537276
 20
0.546945
 40
0.003
 41
0.003
 10
-0.113921
 20
0.160799
 40
0.003
 41
0.003
  0
LWPOLYLINE
  5
3E0
100
AcDbEntity
  8
0
 62
   254
100
AcDbPolyline
 90
        2
 70
     0
 39
0.003
 10
-0.113921
 20
0.160799
 40
0.003
 41
0.003
 10
-0.113921
 20
0.373378
 40
0.003
 41
0.003
  0
LWPOLYLINE
  5
3E1
100
AcDbEntity
  8
0
 62
     0
100
AcDbPolyline
 90
        2
 70
     0
 39
0.003
 10
-0.113921
 20
0.373378
 40
0.003
 41
0.003
 10
0.537276
 20
0.759524
 40
0.003
 41
0.003
  0
LWPOLYLINE
  5
3E2
100
AcDbEntity
  8
0
 62
     0
100
AcDbPolyline
 90
        2
 70
     0
 39
0.003
 10
0.537276
 20
0.759524
 40
0.003
 41
0.003
 10
0.537276
 20
0.546945
 40
0.003
 41
0.003
  0
LWPOLYLINE
  5
3E3
100
AcDbEntity
  8
0
 62
     0
100
AcDbPolyline
 90
        2
 70
     0
 39
0.003
 10
0.537276
 20
0.546945
 40
0.003
 41
0.003
 10
-0.113921
 20
0.160799
 40
0.003
 41
0.003
  0
LWPOLYLINE
  5
3E4
100
AcDbEntity
  8
0
 62
     0
100
AcDbPolyline
 90
        2
 70
     0
 39
0.003
 10
-0.113921
 20
0.160799
 40
0.003
 41
0.003
 10
-0.113921
 20
0.373378
 40
0.003
 41
0.003
  0
LWPOLYLINE
  5
3E5
100
AcDbEntity
  8
0
 62
   253
100
AcDbPolyline
 90
        2
 70
     0
 39
0.003
 10
-0.113921
 20
0.160799
 40
0.003
 41
0.003
 10
0.537276
 20
0.546945
 40
0.003
 41
0.003
  0
LWPOLYLINE
  5
3E6
100
AcDbEntity
  8
0
 62
   253
100
AcDbPolyline
 90
        2
 70
     0
 39
0.003
 10
0.537276
 20
0.546945
 40
0.003
 41
0.003
 10
0.558283
 20
0.545146
 40
0.003
 41
0.003
  0
LWPOLYLINE
  5
3E7
100
AcDbEntity
  8
0
 62
   253
100
AcDbPolyline
 90
        2
 70
     0
 39
0.003
 10
0.558283
 20
0.545146
 40
0.003
 41
0.003
 10
-0.092913
 20
0.159
 40
0.003
 41
0.003
  0
LWPOLYLINE
  5
3E8
100
AcDbEntity
  8
0
 62
   253
100
AcDbPolyline
 90
        2
 70
     0
 39
0.003
 10
-0.092913
 20
0.159
 40
0.003
 41
0.003
 10
-0.113921
 20
0.160799
 40
0.003
 41
0.003
  0
LWPOLYLINE
  5
3E9
100
AcDbEntity
  8
0
 62
     9
100
AcDbPolyline
 90
        2
 70
     0
 39
0.003
 10
-0.092913
 20
0.159
 40
0.003
 41
0.003
 10
0.558283
 20
0.545146
 40
0.003
 41
0.003
  0
LWPOLYLINE
  5
3EA
100
AcDbEntity
  8
0
 62
     9
100
AcDbPolyline
 90
        2
 70
     0
 39
0.003
 10
0.558283
 20
0.545146
 40
0.003
 41
0.003
 10
0.578803
 20
0.541736
 40
0.003
 41
0.003
  0
LWPOLYLINE
  5
3EB
100
AcDbEntity
  8
0
 62
     9
100
AcDbPolyline
 90
        2
 70
     0
 39
0.003
 10
0.578803
 20
0.541736
 40
0.003
 41
0.003
 10
-0.072394
 20
0.155591
 40
0.003
 41
0.003
  0
LWPOLYLINE
  5
3EC
100
AcDbEntity
  8
0
 62
     9
100
AcDbPolyline
 90
        2
 70
     0
 39
0.003
 10
-0.072394
 20
0.155591
 40
0.003
 41
0.003
 10
-0.092913
 20
0.159
 40
0.003
 41
0.003
  0
LWPOLYLINE
  5
3ED
100
AcDbEntity
  8
0
 62
     9
100
AcDbPolyline
 90
        2
 70
     0
 39
0.003
 10
-0.072394
 20
0.155591
 40
0.003
 41
0.003
 10
0.578803
 20
0.541736
 40
0.003
 41
0.003
  0
LWPOLYLINE
  5
3EE
100
AcDbEntity
  8
0
 62
     9
100
AcDbPolyline
 90
        2
 70
     0
 39
0.003
 10
0.578803
 20
0.541736
 40
0.003
 41
0.003
 10
0.598815
 20
0.536752
 40
0.003
 41
0.003
  0
LWPOLYLINE
  5
3EF
100
AcDbEntity
  8
0
 62
     9
100
AcDbPolyline
 90
        2
 70
     0
 39
0.003
 10
0.598815
 20
0.536752
 40
0.003
 41
0.003
 10
-0.052382
 20
0.150606
 40
0.003
 41
0.003
  0
LWPOLYLINE
  5
3F0
100
AcDbEntity
  8
0
 62
     9
100
AcDbPolyline
 90
        2
 70
     0
 39
0.003
 10
-0.052382
 20
0.150606
 40
0.003
 41
0.003
 10
-0.072394
 20
0.155591
 40
0.003
 41
0.003
  0
LWPOLYLINE
  5
3F1
100
AcDbEntity
  8
0
 62
     9
100
AcDbPolyline
 90
        2
 70
     0
 39
0.003
 10
-0.052382
 20
0.150606
 40
0.003
 41
0.003
 10
0.598815
 20
0.536752
 40
0.003
 41
0.003
  0
LWPOLYLINE
  5
3F2
100
AcDbEntity
  8
0
 62
     9
100
AcDbPolyline
 90
        2
 70
     0
 39
0.003
 10
0.598815
 20
0.536752
 40
0.003
 41
0.003
 10
0.61828
 20
0.53024
 40
0.003
 41
0.003
  0
LWPOLYLINE
  5
3F3
100
AcDbEntity
  8
0
 62
     9
100
AcDbPolyline
 90
        2
 70
     0
 39
0.003
 10
0.61828
 20
0.53024
 40
0.003
 41
0.003
 10
-0.032917
 20
0.144094
 40
0.003
 41
0.003
  0
LWPOLYLINE
  5
3F4
100
AcDbEntity
  8
0
 62
     9
100
AcDbPolyline
 90
        2
 70
     0
 39
0.003
 10
-0.032917
 20
0.144094
 40
0.003
 41
0.003
 10
-0.052382
 20
0.150606
 40
0.003
 41
0.003
  0
LWPOLYLINE
  5
3F5
100
AcDbEntity
  8
0
 62
     9
100
AcDbPolyline
 90
        2
 70
     0
 39
0.003
 10
-0.032917
 20
0.144094
 40
0.003
 41
0.003
 10
0.61828
 20
0.53024
 40
0.003
 41
0.003
  0
LWPOLYLINE
  5
3F6
100
AcDbEntity
  8
0
 62
     9
100
AcDbPolyline
 90
        2
 70
     0
 39
0.003
 10
0.61828
 20
0.53024
 40
0.003
 41
0.003
 10
0.637185
 20
0.522232
 40
0.003
 41
0.003
  0
LWPOLYLINE
  5
3F7
100
AcDbEntity
  8
0
 62
     9
100
AcDbPolyline
 90
        2
 70
     0
 39
0.003
 10
0.637185
 20
0.522232
 40
0.003
 41
0.003
 10
-0.014012
 20
0.136087
 40
0.003
 41
0.003
  0
LWPOLYLINE
  5
3F8
100
AcDbEntity
  8
0
 62
     9
100
AcDbPolyline
 90
        2
 70
     0
 39
0.003
 10
-0.014012
 20
0.136087
 40
0.003
 41
0.003
 10
-0.032917
 20
0.144094
 40
0.003
 41
0.003
  0
LWPOLYLINE
  5
3F9
100
AcDbEntity
  8
0
 62
     9
100
AcDbPolyline
 90
        2
 70
     0
 39
0.003
 10
-0.014012
 20
0.136087
 40
0.003
 41
0.003
 10
0.637185
 20
0.522232
 40
0.003
 41
0.003
  0
LWPOLYLINE
  5
3FA
100
AcDbEntity
  8
0
 62
     9
100
AcDbPolyline
 90
        2
 70
     0
 39
0.003
 10
0.637185
 20
0.522232
 40
0.003
 41
0.003
 10
0.655492
 20
0.512787
 40
0.003
 41
0.003
  0
LWPOLYLINE
  5
3FB
100
AcDbEntity
  8
0
 62
     9
100
AcDbPolyline
 90
        2
 70
     0
 39
0.003
 10
0.655492
 20
0.512787
 40
0.003
 41
0.003
 10
0.004295
 20
0.126642
 40
0.003
 41
0.003
  0
LWPOLYLINE
  5
3FC
100
AcDbEntity
  8
0
 62
     9
100
AcDbPolyline
 90
        2
 70
     0
 39
0.003
 10
0.004295
 20
0.126642
 40
0.003
 41
0.003
 10
-0.014012
 20
0.136087
 40
0.003
 41
0.003
  0
LWPOLYLINE
  5
3FD
100
AcDbEntity
  8
0
 62
   254
100
AcDbPolyline
 90
        2
 70
     0
 39
0.003
 10
0.004295
 20
0.126642
 40
0.003
 41
0.003
 10
0.655492
 20
0.512787
 40
0.003
 41
0.003
  0
LWPOLYLINE
  5
3FE
100
AcDbEntity
  8
0
 62
   254
100
AcDbPolyline
 90
        2
 70
     0
 39
0.003
 10
0.655492
 20
0.512787
 40
0.003
 41
0.003
 10
0.673181
 20
0.501933
 40
0.003
 41
0.003
  0
LWPOLYLINE
  5
3FF
100
AcDbEntity
  8
0
 62
   254
100
AcDbPolyline
 90
        2
 70
     0
 39
0.003
 10
0.673181
 20
0.501933
 40
0.003
 41
0.003
 10
0.021984
 20
0.115787
 40
0.003
 41
0.003
  0
LWPOLYLINE
  5
400
100
AcDbEntity
  8
0
 62
   254
100
AcDbPolyline
 90
        2
 70
     0
 39
0.003
 10
0.021984
 20
0.115787
 40
0.003
 41
0.003
 10
0.004295
 20
0.126642
 40
0.003
 41
0.003
  0
LWPOLYLINE
  5
401
100
AcDbEntity
  8
0
 62
   254
100
AcDbPolyline
 90
        2
 70
     0
 39
0.003
 10
0.021984
 20
0.115787
 40
0.003
 41
0.003
 10
0.673181
 20
0.501933
 40
0.003
 41
0.003
  0
LWPOLYLINE
  5
402
100
AcDbEntity
  8
0
 62
   254
100
AcDbPolyline
 90
        2
 70
     0
 39
0.003
 10
0.673181
 20
0.501933
 40
0.003
 41
0.003
 10
0.690228
 20
0.48972
 40
0.003
 41
0.003
  0
LWPOLYLINE
  5
403
100
AcDbEntity
  8
0
 62
   254
100
AcDbPolyline
 90
        2
 70
     0
 39
0.003
 10
0.690228
 20
0.48972
 40
0.003
 41
0.003
 10
0.039031
 20
0.103575
 40
0.003
 41
0.003
  0
LWPOLYLINE
  5
404
100
AcDbEntity
  8
0
 62
   254
100
AcDbPolyline
 90
        2
 70
     0
 39
0.003
 10
0.039031
 20
0.103575
 40
0.003
 41
0.003
 10
0.021984
 20
0.115787
 40
0.003
 41
0.003
  0
LWPOLYLINE
  5
405
100
AcDbEntity
  8
0
 62
   254
100
AcDbPolyline
 90
        2
 70
     0
 39
0.003
 10
0.039031
 20
0.103575
 40
0.003
 41
0.003
 10
0.690228
 20
0.48972
 40
0.003
 41
0.003
  0
LWPOLYLINE
  5
406
100
AcDbEntity
  8
0
 62
   254
100
AcDbPolyline
 90
        2
 70
     0
 39
0.003
 10
0.690228
 20
0.48972
 40
0.003
 41
0.003
 10
0.706591
 20
0.476181
 40
0.003
 41
0.003
  0
LWPOLYLINE
  5
407
100
AcDbEntity
  8
0
 62
   254
100
AcDbPolyline
 90
        2
 70
     0
 39
0.003
 10
0.706591
 20
0.476181
 40
0.003
 41
0.003
 10
0.055394
 20
0.090035
 40
0.003
 41
0.003
  0
LWPOLYLINE
  5
408
100
AcDbEntity
  8
0
 62
   254
100
AcDbPolyline
 90
        2
 70
     0
 39
0.003
 10
0.055394
 20
0.090035
 40
0.003
 41
0.003
 10
0.039031
 20
0.103575
 40
0.003
 41
0.003
  0
LWPOLYLINE
  5
409
100
AcDbEntity
  8
0
 62
   254
100
AcDbPolyline
 90
        2
 70
     0
 39
0.003
 10
0.055394
 20
0.090035
 40
0.003
 41
0.003
 10
0.706591
 20
0.476181
 40
0.003
 41
0.003
  0
LWPOLYLINE
  5
40A
100
AcDbEntity
  8
0
 62
   254
100
AcDbPolyline
 90
        2
 70
     0
 39
0.003
 10
0.706591
 20
0.476181
 40
0.003
 41
0.003
 10
0.72226
 20
0.461366
 40
0.003
 41
0.003
  0
LWPOLYLINE
  5
40B
100
AcDbEntity
  8
0
 62
   254
100
AcDbPolyline
 90
        2
 70
     0
 39
0.003
 10
0.72226
 20
0.461366
 40
0.003
 41
0.003
 10
0.071063
 20
0.07522
 40
0.003
 41
0.003
  0
LWPOLYLINE
  5
40C
100
AcDbEntity
  8
0
 62
   254
100
AcDbPolyline
 90
        2
 70
     0
 39
0.003
 10
0.071063
 20
0.07522
 40
0.003
 41
0.003
 10
0.055394
 20
0.090035
 40
0.003
 41
0.003
  0
LWPOLYLINE
  5
40D
100
AcDbEntity
  8
0
 62
   254
100
AcDbPolyline
 90
        2
 70
     0
 39
0.003
 10
0.071063
 20
0.07522
 40
0.003
 41
0.003
 10
0.72226
 20
0.461366
 40
0.003
 41
0.003
  0
LWPOLYLINE
  5
40E
100
AcDbEntity
  8
0
 62
   254
100
AcDbPolyline
 90
        2
 70
     0
 39
0.003
 10
0.72226
 20
0.461366
 40
0.003
 41
0.003
 10
0.737193
 20
0.445311
 40
0.003
 41
0.003
  0
LWPOLYLINE
  5
40F
100
AcDbEntity
  8
0
 62
   254
100
AcDbPolyline
 90
        2
 70
     0
 39
0.003
 10
0.737193
 20
0.445311
 40
0.003
 41
0.003
 10
0.085996
 20
0.059165
 40
0.003
 41
0.003
  0
LWPOLYLINE
  5
410
100
AcDbEntity
  8
0
 62
   254
100
AcDbPolyline
 90
        2
 70
     0
 39
0.003
 10
0.085996
 20
0.059165
 40
0.003
 41
0.003
 10
0.071063
 20
0.07522
 40
0.003
 41
0.003
  0
LWPOLYLINE
  5
411
100
AcDbEntity
  8
0
 62
   254
100
AcDbPolyline
 90
        2
 70
     0
 39
0.003
 10
0.085996
 20
0.059165
 40
0.003
 41
0.003
 10
0.737193
 20
0.445311
 40
0.003
 41
0.003
  0
LWPOLYLINE
  5
412
100
AcDbEntity
  8
0
 62
   254
100
AcDbPolyline
 90
        2
 70
     0
 39
0.003
 10
0.737193
 20
0.445311
 40
0.003
 41
0.003
 10
0.751374
 20
0.428063
 40
0.003
 41
0.003
  0
LWPOLYLINE
  5
413
100
AcDbEntity
  8
0
 62
   254
100
AcDbPolyline
 90
        2
 70
     0
 39
0.003
 10
0.751374
 20
0.428063
 40
0.003
 41
0.003
 10
0.100177
 20
0.041917
 40
0.003
 41
0.003
  0
LWPOLYLINE
  5
414
100
AcDbEntity
  8
0
 62
   254
100
AcDbPolyline
 90
        2
 70
     0
 39
0.003
 10
0.100177
 20
0.041917
 40
0.003
 41
0.003
 10
0.085996
 20
0.059165
 40
0.003
 41
0.003
  0
LWPOLYLINE
  5
415
100
AcDbEntity
  8
0
 62
   254
100
AcDbPolyline
 90
        2
 70
     0
 39
0.003
 10
0.100177
 20
0.041917
 40
0.003
 41
0.003
 10
0.751374
 20
0.428063
 40
0.003
 41
0.003
  0
LWPOLYLINE
  5
416
100
AcDbEntity
  8
0
 62
   254
100
AcDbPolyline
 90
        2
 70
     0
 39
0.003
 10
0.751374
 20
0.428063
 40
0.003
 41
0.003
 10
0.764764
 20
0.409657
 40
0.003
 41
0.003
  0
LWPOLYLINE
  5
417
100
AcDbEntity
  8
0
 62
   254
100
AcDbPolyline
 90
        2
 70
     0
 39
0.003
 10
0.764764
 20
0.409657
 40
0.003
 41
0.003
 10
0.113567
 20
0.023512
 40
0.003
 41
0.003
  0
LWPOLYLINE
  5
418
100
AcDbEntity
  8
0
 62
   254
100
AcDbPolyline
 90
        2
 70
     0
 39
0.003
 10
0.113567
 20
0.023512
 40
0.003
 41
0.003
 10
0.100177
 20
0.041917
 40
0.003
 41
0.003
  0
LWPOLYLINE
  5
419
100
AcDbEntity
  8
0
 62
   254
100
AcDbPolyline
 90
        2
 70
     0
 39
0.003
 10
0.113567
 20
0.023512
 40
0.003
 41
0.003
 10
0.764764
 20
0.409657
 40
0.003
 41
0.003
  0
LWPOLYLINE
  5
41A
100
AcDbEntity
  8
0
 62
   254
100
AcDbPolyline
 90
        2
 70
     0
 39
0.003
 10
0.764764
 20
0.409657
 40
0.003
 41
0.003
 10
0.777346
 20
0.390146
 40
0.003
 41
0.003
  0
LWPOLYLINE
  5
41B
100
AcDbEntity
  8
0
 62
   254
100
AcDbPolyline
 90
        2
 70
     0
 39
0.003
 10
0.777346
 20
0.390146
 40
0.003
 41
0.003
 10
0.12615
 20
0.004
 40
0.003
 41
0.003
  0
LWPOLYLINE
  5
41C
100
AcDbEntity
  8
0
 62
   254
100
AcDbPolyline
 90
        2
 70
     0
 39
0.003
 10
0.12615
 20
0.004
 40
0.003
 41
0.003
 10
0.113567
 20
0.023512
 40
0.003
 41
0.003
  0
LWPOLYLINE
  5
41D
100
AcDbEntity
  8
0
 62
   254
100
AcDbPolyline
 90
        2
 70
     0
 39
0.003
 10
0.12615
 20
0.004
 40
0.003
 41
0.003
 10
0.777346
 20
0.390146
 40
0.003
 41
0.003
  0
LWPOLYLINE
  5
41E
100
AcDbEntity
  8
0
 62
   254
100
AcDbPolyline
 90
        2
 70
     0
 39
0.003
 10
0.777346
 20
0.390146
 40
0.003
 41
0.003
 10
0.789087
 20
0.369559
 40
0.003
 41
0.003
  0
LWPOLYLINE
  5
41F
100
AcDbEntity
  8
0
 62
   254
100
AcDbPolyline
 90
        2
 70
     0
 39
0.003
 10
0.789087
 20
0.369559
 40
0.003
 41
0.003
 10
0.13789
 20
-0.016587
 40
0.003
 41
0.003
  0
LWPOLYLINE
  5
420
100
AcDbEntity
  8
0
 62
   254
100
AcDbPolyline
 90
        2
 70
     0
 39
0.003
 10
0.13789
 20
-0.016587
 40
0.003
 41
0.003
 10
0.12615
 20
0.004
 40
0.003
 41
0.003
  0
LWPOLYLINE
  5
421
100
AcDbEntity
  8
0
 62
   254
100
AcDbPolyline
 90
        2
 70
     0
 39
0.003
 10
0.13789
 20
-0.016587
 40
0.003
 41
0.003
 10
0.789087
 20
0.369559
 40
0.003
 41
0.003
  0
LWPOLYLINE
  5
422
100
AcDbEntity
  8
0
 62
   254
100
AcDbPolyline
 90
        2
 70
     0
 39
0.003
 10
0.789087
 20
0.369559
 40
0.003
 41
0.003
 10
0.799961
 20
0.347953
 40
0.003
 41
0.003
  0
LWPOLYLINE
  5
423
100
AcDbEntity
  8
0
 62
   254
100
AcDbPolyline
 90
        2
 70
     0
 39
0.003
 10
0.799961
 20
0.347953
 40
0.003
 41
0.003
 10
0.148764
 20
-0.038193
 40
0.003
 41
0.003
  0
LWPOLYLINE
  5
424
100
AcDbEntity
  8
0
 62
   254
100
AcDbPolyline
 90
        2
 70
     0
 39
0.003
 10
0.148764
 20
-0.038193
 40
0.003
 41
0.003
 10
0.13789
 20
-0.016587
 40
0.003
 41
0.003
  0
LWPOLYLINE
  5
425
100
AcDbEntity
  8
0
 62
   254
100
AcDbPolyline
 90
        2
 70
     0
 39
0.003
 10
0.148764
 20
-0.038193
 40
0.003
 41
0.003
 10
0.799961
 20
0.347953
 40
0.003
 41
0.003
  0
LWPOLYLINE
  5
426
100
AcDbEntity
  8
0
 62
   254
100
AcDbPolyline
 90
        2
 70
     0
 39
0.003
 10
0.799961
 20
0.347953
 40
0.003
 41
0.003
 10
0.809933
 20
0.32535
 40
0.003
 41
0.003
  0
LWPOLYLINE
  5
427
100
AcDbEntity
  8
0
 62
   254
100
AcDbPolyline
 90
        2
 70
     0
 39
0.003
 10
0.809933
 20
0.32535
 40
0.003
 41
0.003
 10
0.158736
 20
-0.060795
 40
0.003
 41
0.003
  0
LWPOLYLINE
  5
428
100
AcDbEntity
  8
0
 62
   254
100
AcDbPolyline
 90
        2
 70
     0
 39
0.003
 10
0.158736
 20
-0.060795
 40
0.003
 41
0.003
 10
0.148764
 20
-0.038193
 40
0.003
 41
0.003
  0
LWPOLYLINE
  5
429
100
AcDbEntity
  8
0
 62
   254
100
AcDbPolyline
 90
        2
 70
     0
 39
0.003
 10
0.158736
 20
-0.060795
 40
0.003
 41
0.003
 10
0.809933
 20
0.32535
 40
0.003
 41
0.003
  0
LWPOLYLINE
  5
42A
100
AcDbEntity
  8
0
 62
   254
100
AcDbPolyline
 90
        2
 70
     0
 39
0.003
 10
0.809933
 20
0.32535
 40
0.003
 41
0.003
 10
0.818988
 20
0.301811
 40
0.003
 41
0.003
  0
LWPOLYLINE
  5
42B
100
AcDbEntity
  8
0
 62
   254
100
AcDbPolyline
 90
        2
 70
     0
 39
0.003
 10
0.818988
 20
0.301811
 40
0.003
 41
0.003
 10
0.167791
 20
-0.084335
 40
0.003
 41
0.003
  0
LWPOLYLINE
  5
42C
100
AcDbEntity
  8
0
 62
   254
100
AcDbPolyline
 90
        2
 70
     0
 39
0.003
 10
0.167791
 20
-0.084335
 40
0.003
 41
0.003
 10
0.158736
 20
-0.060795
 40
0.003
 41
0.003
  0
LWPOLYLINE
  5
42D
100
AcDbEntity
  8
0
 62
   254
100
AcDbPolyline
 90
        2
 70
     0
 39
0.003
 10
0.167791
 20
-0.084335
 40
0.003
 41
0.003
 10
0.818988
 20
0.301811
 40
0.003
 41
0.003
  0
LWPOLYLINE
  5
42E
100
AcDbEntity
  8
0
 62
   254
100
AcDbPolyline
 90
        2
 70
     0
 39
0.003
 10
0.818988
 20
0.301811
 40
0.003
 41
0.003
 10
0.827087
 20
0.277362
 40
0.003
 41
0.003
  0
LWPOLYLINE
  5
42F
100
AcDbEntity
  8
0
 62
   254
100
AcDbPolyline
 90
        2
 70
     0
 39
0.003
 10
0.827087
 20
0.277362
 40
0.003
 41
0.003
 10
0.17589
 20
-0.108783
 40
0.003
 41
0.003
  0
LWPOLYLINE
  5
430
100
AcDbEntity
  8
0
 62
   254
100
AcDbPolyline
 90
        2
 70
     0
 39
0.003
 10
0.17589
 20
-0.108783
 40
0.003
 41
0.003
 10
0.167791
 20
-0.084335
 40
0.003
 41
0.003
  0
LWPOLYLINE
  5
431
100
AcDbEntity
  8
0
 62
   254
100
AcDbPolyline
 90
        2
 70
     0
 39
0.003
 10
0.17589
 20
-0.108783
 40
0.003
 41
0.003
 10
0.827087
 20
0.277362
 40
0.003
 41
0.003
  0
LWPOLYLINE
  5
432
100
AcDbEntity
  8
0
 62
   254
100
AcDbPolyline
 90
        2
 70
     0
 39
0.003
 10
0.827087
 20
0.277362
 40
0.003
 41
0.003
 10
0.834217
 20
0.252063
 40
0.003
 41
0.003
  0
LWPOLYLINE
  5
433
100
AcDbEntity
  8
0
 62
   254
100
AcDbPolyline
 90
        2
 70
     0
 39
0.003
 10
0.834217
 20
0.252063
 40
0.003
 41
0.003
 10
0.18302
 20
-0.134083
 40
0.003
 41
0.003
  0
LWPOLYLINE
  5
434
100
AcDbEntity
  8
0
 62
   254
100
AcDbPolyline
 90
        2
 70
     0
 39
0.003
 10
0.18302
 20
-0.134083
 40
0.003
 41
0.003
 10
0.17589
 20
-0.108783
 40
0.003
 41
0.003
  0
LWPOLYLINE
  5
435
100
AcDbEntity
  8
0
 62
   254
100
AcDbPolyline
 90
        2
 70
     0
 39
0.003
 10
0.18302
 20
-0.134083
 40
0.003
 41
0.003
 10
0.834217
 20
0.252063
 40
0.003
 41
0.003
  0
LWPOLYLINE
  5
436
100
AcDbEntity
  8
0
 62
   254
100
AcDbPolyline
 90
        2
 70
     0
 39
0.003
 10
0.834217
 20
0.252063
 40
0.003
 41
0.003
 10
0.840335
 20
0.225937
 40
0.003
 41
0.003
  0
LWPOLYLINE
  5
437
100
AcDbEntity
  8
0
 62
   254
100
AcDbPolyline
 90
        2
 70
     0
 39
0.003
 10
0.840335
 20
0.225937
 40
0.003
 41
0.003
 10
0.189138
 20
-0.160209
 40
0.003
 41
0.003
  0
LWPOLYLINE
  5
438
100
AcDbEntity
  8
0
 62
   254
100
AcDbPolyline
 90
        2
 70
     0
 39
0.003
 10
0.189138
 20
-0.160209
 40
0.003
 41
0.003
 10
0.18302
 20
-0.134083
 40
0.003
 41
0.003
  0
LWPOLYLINE
  5
439
100
AcDbEntity
  8
0
 62
   254
100
AcDbPolyline
 90
        2
 70
     0
 39
0.003
 10
0.189138
 20
-0.160209
 40
0.003
 41
0.003
 10
0.840335
 20
0.225937
 40
0.003
 41
0.003
  0
LWPOLYLINE
  5
43A
100
AcDbEntity
  8
0
 62
   254
100
AcDbPolyline
 90
        2
 70
     0
 39
0.003
 10
0.840335
 20
0.225937
 40
0.003
 41
0.003
 10
0.845425
 20
0.199039
 40
0.003
 41
0.003
  0
LWPOLYLINE
  5
43B
100
AcDbEntity
  8
0
 62
   254
100
AcDbPolyline
 90
        2
 70
     0
 39
0.003
 10
0.845425
 20
0.199039
 40
0.003
 41
0.003
 10
0.194228
 20
-0.187106
 40
0.003
 41
0.003
  0
LWPOLYLINE
  5
43C
100
AcDbEntity
  8
0
 62
   254
100
AcDbPolyline
 90
        2
 70
     0
 39
0.003
 10
0.194228
 20
-0.187106
 40
0.003
 41
0.003
 10
0.189138
 20
-0.160209
 40
0.003
 41
0.003
  0
LWPOLYLINE
  5
43D
100
AcDbEntity
  8
0
 62
   254
100
AcDbPolyline
 90
        2
 70
     0
 39
0.003
 10
0.194228
 20
-0.187106
 40
0.003
 41
0.003
 10
0.845425
 20
0.199039
 40
0.003
 41
0.003
  0
LWPOLYLINE
  5
43E
100
AcDbEntity
  8
0
 62
   254
100
AcDbPolyline
 90
        2
 70
     0
 39
0.003
 10
0.845425
 20
0.199039
 40
0.003
 41
0.003
 10
0.849449
 20
0.171406
 40
0.003
 41
0.003
  0
LWPOLYLINE
  5
43F
100
AcDbEntity
  8
0
 62
   254
100
AcDbPolyline
 90
        2
 70
     0
 39
0.003
 10
0.849449
 20
0.171406
 40
0.003
 41
0.003
 10
0.198252
 20
-0.21474
 40
0.003
 41
0.003
  0
LWPOLYLINE
  5
440
100
AcDbEntity
  8
0
 62
   254
100
AcDbPolyline
 90
        2
 70
     0
 39
0.003
 10
0.198252
 20
-0.21474
 40
0.003
 41
0.003
 10
0.194228
 20
-0.187106
 40
0.003
 41
0.003
  0
LWPOLYLINE
  5
441
100
AcDbEntity
  8
0
 62
   254
100
AcDbPolyline
 90
        2
 70
     0
 39
0.003
 10
0.198252
 20
-0.21474
 40
0.003
 41
0.003
 10
0.849449
 20
0.171406
 40
0.003
 41
0.003
  0
LWPOLYLINE
  5
442
100
AcDbEntity
  8
0
 62
   254
100
AcDbPolyline
 90
        2
 70
     0
 39
0.003
 10
0.849449
 20
0.171406
 40
0.003
 41
0.003
 10
0.852394
 20
0.143087
 40
0.003
 41
0.003
  0
LWPOLYLINE
  5
443
100
AcDbEntity
  8
0
 62
   254
100
AcDbPolyline
 90
        2
 70
     0
 39
0.003
 10
0.852394
 20
0.143087
 40
0.003
 41
0.003
 10
0.201197
 20
-0.243059
 40
0.003
 41
0.003
  0
LWPOLYLINE
  5
444
100
AcDbEntity
  8
0
 62
   254
100
AcDbPolyline
 90
        2
 70
     0
 39
0.003
 10
0.201197
 20
-0.243059
 40
0.003
 41
0.003
 10
0.198252
 20
-0.21474
 40
0.003
 41
0.003
  0
LWPOLYLINE
  5
445
100
AcDbEntity
  8
0
 62
   254
100
AcDbPolyline
 90
        2
 70
     0
 39
0.003
 10
0.201197
 20
-0.243059
 40
0.003
 41
0.003
 10
0.852394
 20
0.143087
 40
0.003
 41
0.003
  0
LWPOLYLINE
  5
446
100
AcDbEntity
  8
0
 62
   254
100
AcDbPolyline
 90
        2
 70
     0
 39
0.003
 10
0.852394
 20
0.143087
 40
0.003
 41
0.003
 10
0.854213
 20
0.114106
 40
0.003
 41
0.003
  0
LWPOLYLINE
  5
447
100
AcDbEntity
  8
0
 62
   254
100
AcDbPolyline
 90
        2
 70
     0
 39
0.003
 10
0.854213
 20
0.114106
 40
0.003
 41
0.003
 10
0.203016
 20
-0.272039
 40
0.003
 41
0.003
  0
LWPOLYLINE
  5
448
100
AcDbEntity
  8
0
 62
   254
100
AcDbPolyline
 90
        2
 70
     0
 39
0.003
 10
0.203016
 20
-0.272039
 40
0.003
 41
0.003
 10
0.201197
 20
-0.243059
 40
0.003
 41
0.003
  0
LWPOLYLINE
  5
449
100
AcDbEntity
  8
0
 62
   254
100
AcDbPolyline
 90
        2
 70
     0
 39
0.003
 10
0.203016
 20
-0.272039
 40
0.003
 41
0.003
 10
0.854213
 20
0.114106
 40
0.003
 41
0.003
  0
LWPOLYLINE
  5
44A
100
AcDbEntity
  8
0
 62
   254
100
AcDbPolyline
 90
        2
 70
     0
 39
0.003
 10
0.854213
 20
0.114106
 40
0.003
 41
0.003
 10
0.854894
 20
0.084524
 40
0.003
 41
0.003
  0
LWPOLYLINE
  5
44B
100
AcDbEntity
  8
0
 62
   254
100
AcDbPolyline
 90
        2
 70
     0
 39
0.003
 10
0.854894
 20
0.084524
 40
0.003
 41
0.003
 10
0.203697
 20
-0.301622
 40
0.003
 41
0.003
  0
LWPOLYLINE
  5
44C
100
AcDbEntity
  8
0
 62
   254
100
AcDbPolyline
 90
        2
 70
     0
 39
0.003
 10
0.203697
 20
-0.301622
 40
0.003
 41
0.003
 10
0.203016
 20
-0.272039
 40
0.003
 41
0.003
  0
LWPOLYLINE
  5
44D
100
AcDbEntity
  8
0
 62
   254
100
AcDbPolyline
 90
        2
 70
     0
 39
0.003
 10
0.203697
 20
-0.301622
 40
0.003
 41
0.003
 10
0.854894
 20
0.084524
 40
0.003
 41
0.003
  0
LWPOLYLINE
  5
44E
100
AcDbEntity
  8
0
 62
   254
100
AcDbPolyline
 90
        2
 70
     0
 39
0.003
 10
0.854894
 20
0.084524
 40
0.003
 41
0.003
 10
0.854402
 20
0.054366
 40
0.003
 41
0.003
  0
LWPOLYLINE
  5
44F
100
AcDbEntity
  8
0
 62
   254
100
AcDbPolyline
 90
        2
 70
     0
 39
0.003
 10
0.854402
 20
0.054366
 40
0.003
 41
0.003
 10
0.203205
 20
-0.33178
 40
0.003
 41
0.003
  0
LWPOLYLINE
  5
450
100
AcDbEntity
  8
0
 62
   254
100
AcDbPolyline
 90
        2
 70
     0
 39
0.003
 10
0.203205
 20
-0.33178
 40
0.003
 41
0.003
 10
0.203697
 20
-0.301622
 40
0.003
 41
0.003
  0
LWPOLYLINE
  5
451
100
AcDbEntity
  8
0
 62
   254
100
AcDbPolyline
 90
        2
 70
     0
 39
0.003
 10
0.203205
 20
-0.33178
 40
0.003
 41
0.003
 10
0.854402
 20
0.054366
 40
0.003
 41
0.003
  0
LWPOLYLINE
  5
452
100
AcDbEntity
  8
0
 62
   254
100
AcDbPolyline
 90
        2
 70
     0
 39
0.003
 10
0.854402
 20
0.054366
 40
0.003
 41
0.003
 10
0.85272
 20
0.023697
 40
0.003
 41
0.003
  0
LWPOLYLINE
  5
453
100
AcDbEntity
  8
0
 62
   254
100
AcDbPolyline
 90
        2
 70
     0
 39
0.003
 10
0.85272
 20
0.023697
 40
0.003
 41
0.003
 10
0.201524
 20
-0.362449
 40
0.003
 41
0.003
  0
LWPOLYLINE
  5
454
100
AcDbEntity
  8
0
 62
   254
100
AcDbPolyline
 90
        2
 70
     0
 39
0.003
 10
0.201524
 20
-0.362449
 40
0.003
 41
0.003
 10
0.203205
 20
-0.33178
 40
0.003
 41
0.003
  0
LWPOLYLINE
  5
455
100
AcDbEntity
  8
0
 62
   254
100
AcDbPolyline
 90
        2
 70
     0
 39
0.003
 10
0.201524
 20
-0.362449
 40
0.003
 41
0.003
 10
0.85272
 20
0.023697
 40
0.003
 41
0.003
  0
LWPOLYLINE
  5
456
100
AcDbEntity
  8
0
 62
   254
100
AcDbPolyline
 90
        2
 70
     0
 39
0.003
 10
0.85272
 20
0.023697
 40
0.003
 41
0.003
 10
0.849803
 20
-0.007465
 40
0.003
 41
0.003
  0
LWPOLYLINE
  5
457
100
AcDbEntity
  8
0
 62
   254
100
AcDbPolyline
 90
        2
 70
     0
 39
0.003
 10
0.849803
 20
-0.007465
 40
0.003
 41
0.003
 10
0.198606
 20
-0.39361
 40
0.003
 41
0.003
  0
LWPOLYLINE
  5
458
100
AcDbEntity
  8
0
 62
   254
100
AcDbPolyline
 90
        2
 70
     0
 39
0.003
 10
0.198606
 20
-0.39361
 40
0.003
 41
0.003
 10
0.201524
 20
-0.362449
 40
0.003
 41
0.003
  0
LWPOLYLINE
  5
459
100
AcDbEntity
  8
0
 62
   254
100
AcDbPolyline
 90
        2
 70
     0
 39
0.003
 10
0.198606
 20
-0.39361
 40
0.003
 41
0.003
 10
0.849803
 20
-0.007465
 40
0.003
 41
0.003
  0
LWPOLYLINE
  5
45A
100
AcDbEntity
  8
0
 62
   254
100
AcDbPolyline
 90
        2
 70
     0
 39
0.003
 10
0.849803
 20
-0.007465
 40
0.003
 41
0.003
 10
0.845642
 20
-0.039059
 40
0.003
 41
0.003
  0
LWPOLYLINE
  5
45B
100
AcDbEntity
  8
0
 62
   254
100
AcDbPolyline
 90
        2
 70
     0
 39
0.003
 10
0.845642
 20
-0.039059
 40
0.003
 41
0.003
 10
0.194445
 20
-0.425205
 40
0.003
 41
0.003
  0
LWPOLYLINE
  5
45C
100
AcDbEntity
  8
0
 62
   254
100
AcDbPolyline
 90
        2
 70
     0
 39
0.003
 10
0.194445
 20
-0.425205
 40
0.003
 41
0.003
 10
0.198606
 20
-0.39361
 40
0.003
 41
0.003
  0
LWPOLYLINE
  5
45D
100
AcDbEntity
  8
0
 62
   254
100
AcDbPolyline
 90
        2
 70
     0
 39
0.003
 10
0.194445
 20
-0.425205
 40
0.003
 41
0.003
 10
0.845642
 20
-0.039059
 40
0.003
 41
0.003
  0
LWPOLYLINE
  5
45E
100
AcDbEntity
  8
0
 62
   254
100
AcDbPolyline
 90
        2
 70
     0
 39
0.003
 10
0.845642
 20
-0.039059
 40
0.003
 41
0.003
 10
0.840193
 20
-0.071059
 40
0.003
 41
0.003
  0
LWPOLYLINE
  5
45F
100
AcDbEntity
  8
0
 62
   254
100
AcDbPolyline
 90
        2
 70
     0
 39
0.003
 10
0.840193
 20
-0.071059
 40
0.003
 41
0.003
 10
0.188996
 20
-0.457205
 40
0.003
 41
0.003
  0
LWPOLYLINE
  5
460
100
AcDbEntity
  8
0
 62
   254
100
AcDbPolyline
 90
        2
 70
     0
 39
0.003
 10
0.188996
 20
-0.457205
 40
0.003
 41
0.003
 10
0.194445
 20
-0.425205
 40
0.003
 41
0.003
  0
LWPOLYLINE
  5
461
100
AcDbEntity
  8
0
 62
   254
100
AcDbPolyline
 90
        2
 70
     0
 39
0.003
 10
0.188996
 20
-0.457205
 40
0.003
 41
0.003
 10
0.840193
 20
-0.071059
 40
0.003
 41
0.003
  0
LWPOLYLINE
  5
462
100
AcDbEntity
  8
0
 62
   254
100
AcDbPolyline
 90
        2
 70
     0
 39
0.003
 10
0.840193
 20
-0.071059
 40
0.003
 41
0.003
 10
0.833449
 20
-0.103421
 40
0.003
 41
0.003
  0
LWPOLYLINE
  5
463
100
AcDbEntity
  8
0
 62
   254
100
AcDbPolyline
 90
        2
 70
     0
 39
0.003
 10
0.833449
 20
-0.103421
 40
0.003
 41
0.003
 10
0.182252
 20
-0.489567
 40
0.003
 41
0.003
  0
LWPOLYLINE
  5
464
100
AcDbEntity
  8
0
 62
   254
100
AcDbPolyline
 90
        2
 70
     0
 39
0.003
 10
0.182252
 20
-0.489567
 40
0.003
 41
0.003
 10
0.188996
 20
-0.457205
 40
0.003
 41
0.003
  0
LWPOLYLINE
  5
465
100
AcDbEntity
  8
0
 62
     0
100
AcDbPolyline
 90
        2
 70
     0
 39
0.003
 10
-0.113921
 20
0.160799
 40
0.003
 41
0.003
 10
0.537276
 20
0.546945
 40
0.003
 41
0.003
  0
LWPOLYLINE
  5
466
100
AcDbEntity
  8
0
 62
     0
100
AcDbPolyline
 90
        2
 70
     0
 39
0.003
 10
0.537276
 20
0.546945
 40
0.003
 41
0.003
 10
0.558283
 20
0.545146
 40
0.003
 41
0.003
  0
LWPOLYLINE
  5
467
100
AcDbEntity
  8
0
 62
     0
100
AcDbPolyline
 90
        2
 70
     0
 39
0.003
 10
0.558283
 20
0.545146
 40
0.003
 41
0.003
 10
0.578803
 20
0.541736
 40
0.003
 41
0.003
  0
LWPOLYLINE
  5
468
100
AcDbEntity
  8
0
 62
     0
100
AcDbPolyline
 90
        2
 70
     0
 39
0.003
 10
0.578803
 20
0.541736
 40
0.003
 41
0.003
 10
0.598815
 20
0.536752
 40
0.003
 41
0.003
  0
LWPOLYLINE
  5
469
100
AcDbEntity
  8
0
 62
     0
100
AcDbPolyline
 90
        2
 70
     0
 39
0.003
 10
0.598815
 20
0.536752
 40
0.003
 41
0.003
 10
0.61828
 20
0.53024
 40
0.003
 41
0.003
  0
LWPOLYLINE
  5
46A
100
AcDbEntity
  8
0
 62
     0
100
AcDbPolyline
 90
        2
 70
     0
 39
0.003
 10
0.61828
 20
0.53024
 40
0.003
 41
0.003
 10
0.637185
 20
0.522232
 40
0.003
 41
0.003
  0
LWPOLYLINE
  5
46B
100
AcDbEntity
  8
0
 62
     0
100
AcDbPolyline
 90
        2
 70
     0
 39
0.003
 10
0.637185
 20
0.522232
 40
0.003
 41
0.003
 10
0.655492
 20
0.512787
 40
0.003
 41
0.003
  0
LWPOLYLINE
  5
46C
100
AcDbEntity
  8
0
 62
     0
100
AcDbPolyline
 90
        2
 70
     0
 39
0.003
 10
0.655492
 20
0.512787
 40
0.003
 41
0.003
 10
0.673181
 20
0.501933
 40
0.003
 41
0.003
  0
LWPOLYLINE
  5
46D
100
AcDbEntity
  8
0
 62
     0
100
AcDbPolyline
 90
        2
 70
     0
 39
0.003
 10
0.673181
 20
0.501933
 40
0.003
 41
0.003
 10
0.690228
 20
0.48972
 40
0.003
 41
0.003
  0
LWPOLYLINE
  5
46E
100
AcDbEntity
  8
0
 62
     0
100
AcDbPolyline
 90
        2
 70
     0
 39
0.003
 10
0.690228
 20
0.48972
 40
0.003
 41
0.003
 10
0.706591
 20
0.476181
 40
0.003
 41
0.003
  0
LWPOLYLINE
  5
46F
100
AcDbEntity
  8
0
 62
     0
100
AcDbPolyline
 90
        2
 70
     0
 39
0.003
 10
0.706591
 20
0.476181
 40
0.003
 41
0.003
 10
0.72226
 20
0.461366
 40
0.003
 41
0.003
  0
LWPOLYLINE
  5
470
100
AcDbEntity
  8
0
 62
     0
100
AcDbPolyline
 90
        2
 70
     0
 39
0.003
 10
0.72226
 20
0.461366
 40
0.003
 41
0.003
 10
0.737193
 20
0.445311
 40
0.003
 41
0.003
  0
LWPOLYLINE
  5
471
100
AcDbEntity
  8
0
 62
     0
100
AcDbPolyline
 90
        2
 70
     0
 39
0.003
 10
0.737193
 20
0.445311
 40
0.003
 41
0.003
 10
0.751374
 20
0.428063
 40
0.003
 41
0.003
  0
LWPOLYLINE
  5
472
100
AcDbEntity
  8
0
 62
     0
100
AcDbPolyline
 90
        2
 70
     0
 39
0.003
 10
0.751374
 20
0.428063
 40
0.003
 41
0.003
 10
0.764764
 20
0.409657
 40
0.003
 41
0.003
  0
LWPOLYLINE
  5
473
100
AcDbEntity
  8
0
 62
     0
100
AcDbPolyline
 90
        2
 70
     0
 39
0.003
 10
0.764764
 20
0.409657
 40
0.003
 41
0.003
 10
0.777346
 20
0.390146
 40
0.003
 41
0.003
  0
LWPOLYLINE
  5
474
100
AcDbEntity
  8
0
 62
     0
100
AcDbPolyline
 90
        2
 70
     0
 39
0.003
 10
0.777346
 20
0.390146
 40
0.003
 41
0.003
 10
0.789087
 20
0.369559
 40
0.003
 41
0.003
  0
LWPOLYLINE
  5
475
100
AcDbEntity
  8
0
 62
     0
100
AcDbPolyline
 90
        2
 70
     0
 39
0.003
 10
0.789087
 20
0.369559
 40
0.003
 41
0.003
 10
0.799961
 20
0.347953
 40
0.003
 41
0.003
  0
LWPOLYLINE
  5
476
100
AcDbEntity
  8
0
 62
     0
100
AcDbPolyline
 90
        2
 70
     0
 39
0.003
 10
0.799961
 20
0.347953
 40
0.003
 41
0.003
 10
0.809933
 20
0.32535
 40
0.003
 41
0.003
  0
LWPOLYLINE
  5
477
100
AcDbEntity
  8
0
 62
     0
100
AcDbPolyline
 90
        2
 70
     0
 39
0.003
 10
0.809933
 20
0.32535
 40
0.003
 41
0.003
 10
0.818988
 20
0.301811
 40
0.003
 41
0.003
  0
LWPOLYLINE
  5
478
100
AcDbEntity
  8
0
 62
     0
100
AcDbPolyline
 90
        2
 70
     0
 39
0.003
 10
0.818988
 20
0.301811
 40
0.003
 41
0.003
 10
0.827087
 20
0.277362
 40
0.003
 41
0.003
  0
LWPOLYLINE
  5
479
100
AcDbEntity
  8
0
 62
     0
100
AcDbPolyline
 90
        2
 70
     0
 39
0.003
 10
0.827087
 20
0.277362
 40
0.003
 41
0.003
 10
0.834217
 20
0.252063
 40
0.003
 41
0.003
  0
LWPOLYLINE
  5
47A
100
AcDbEntity
  8
0
 62
     0
100
AcDbPolyline
 90
        2
 70
     0
 39
0.003
 10
0.834217
 20
0.252063
 40
0.003
 41
0.003
 10
0.840335
 20
0.225937
 40
0.003
 41
0.003
  0
LWPOLYLINE
  5
47B
100
AcDbEntity
  8
0
 62
     0
100
AcDbPolyline
 90
        2
 70
     0
 39
0.003
 10
0.840335
 20
0.225937
 40
0.003
 41
0.003
 10
0.845425
 20
0.199039
 40
0.003
 41
0.003
  0
LWPOLYLINE
  5
47C
100
AcDbEntity
  8
0
 62
     0
100
AcDbPolyline
 90
        2
 70
     0
 39
0.003
 10
0.845425
 20
0.199039
 40
0.003
 41
0.003
 10
0.849449
 20
0.171406
 40
0.003
 41
0.003
  0
LWPOLYLINE
  5
47D
100
AcDbEntity
  8
0
 62
     0
100
AcDbPolyline
 90
        2
 70
     0
 39
0.003
 10
0.849449
 20
0.171406
 40
0.003
 41
0.003
 10
0.852394
 20
0.143087
 40
0.003
 41
0.003
  0
LWPOLYLINE
  5
47E
100
AcDbEntity
  8
0
 62
     0
100
AcDbPolyline
 90
        2
 70
     0
 39
0.003
 10
0.852394
 20
0.143087
 40
0.003
 41
0.003
 10
0.854213
 20
0.114106
 40
0.003
 41
0.003
  0
LWPOLYLINE
  5
47F
100
AcDbEntity
  8
0
 62
     0
100
AcDbPolyline
 90
        2
 70
     0
 39
0.003
 10
0.854213
 20
0.114106
 40
0.003
 41
0.003
 10
0.854894
 20
0.084524
 40
0.003
 41
0.003
  0
LWPOLYLINE
  5
480
100
AcDbEntity
  8
0
 62
     0
100
AcDbPolyline
 90
        2
 70
     0
 39
0.003
 10
0.854894
 20
0.084524
 40
0.003
 41
0.003
 10
0.854402
 20
0.054366
 40
0.003
 41
0.003
  0
LWPOLYLINE
  5
481
100
AcDbEntity
  8
0
 62
     0
100
AcDbPolyline
 90
        2
 70
     0
 39
0.003
 10
0.854402
 20
0.054366
 40
0.003
 41
0.003
 10
0.85272
 20
0.023697
 40
0.003
 41
0.003
  0
LWPOLYLINE
  5
482
100
AcDbEntity
  8
0
 62
     0
100
AcDbPolyline
 90
        2
 70
     0
 39
0.003
 10
0.85272
 20
0.023697
 40
0.003
 41
0.003
 10
0.849803
 20
-0.007465
 40
0.003
 41
0.003
  0
LWPOLYLINE
  5
483
100
AcDbEntity
  8
0
 62
     0
100
AcDbPolyline
 90
        2
 70
     0
 39
0.003
 10
0.849803
 20
-0.007465
 40
0.003
 41
0.003
 10
0.845642
 20
-0.039059
 40
0.003
 41
0.003
  0
LWPOLYLINE
  5
484
100
AcDbEntity
  8
0
 62
     0
100
AcDbPolyline
 90
        2
 70
     0
 39
0.003
 10
0.845642
 20
-0.039059
 40
0.003
 41
0.003
 10
0.840193
 20
-0.071059
 40
0.003
 41
0.003
  0
LWPOLYLINE
  5
485
100
AcDbEntity
  8
0
 62
     0
100
AcDbPolyline
 90
        2
 70
     0
 39
0.003
 10
0.840193
 20
-0.071059
 40
0.003
 41
0.003
 10
0.833449
 20
-0.103421
 40
0.003
 41
0.003
  0
LWPOLYLINE
  5
486
100
AcDbEntity
  8
0
 62
     0
100
AcDbPolyline
 90
        2
 70
     0
 39
0.003
 10
0.833449
 20
-0.103421
 40
0.003
 41
0.003
 10
0.182252
 20
-0.489567
 40
0.003
 41
0.003
  0
LWPOLYLINE
  5
487
100
AcDbEntity
  8
0
 62
     0
100
AcDbPolyline
 90
        2
 70
     0
 39
0.003
 10
0.182252
 20
-0.489567
 40
0.003
 41
0.003
 10
0.188996
 20
-0.457205
 40
0.003
 41
0.003
  0
LWPOLYLINE
  5
488
100
AcDbEntity
  8
0
 62
     0
100
AcDbPolyline
 90
        2
 70
     0
 39
0.003
 10
0.188996
 20
-0.457205
 40
0.003
 41
0.003
 10
0.194445
 20
-0.425205
 40
0.003
 41
0.003
  0
LWPOLYLINE
  5
489
100
AcDbEntity
  8
0
 62
     0
100
AcDbPolyline
 90
        2
 70
     0
 39
0.003
 10
0.194445
 20
-0.425205
 40
0.003
 41
0.003
 10
0.198606
 20
-0.39361
 40
0.003
 41
0.003
  0
LWPOLYLINE
  5
48A
100
AcDbEntity
  8
0
 62
     0
100
AcDbPolyline
 90
        2
 70
     0
 39
0.003
 10
0.198606
 20
-0.39361
 40
0.003
 41
0.003
 10
0.201524
 20
-0.362449
 40
0.003
 41
0.003
  0
LWPOLYLINE
  5
48B
100
AcDbEntity
  8
0
 62
     0
100
AcDbPolyline
 90
        2
 70
     0
 39
0.003
 10
0.201524
 20
-0.362449
 40
0.003
 41
0.003
 10
0.203205
 20
-0.33178
 40
0.003
 41
0.003
  0
LWPOLYLINE
  5
48C
100
AcDbEntity
  8
0
 62
     0
100
AcDbPolyline
 90
        2
 70
     0
 39
0.003
 10
0.203205
 20
-0.33178
 40
0.003
 41
0.003
 10
0.203697
 20
-0.301622
 40
0.003
 41
0.003
  0
LWPOLYLINE
  5
48D
100
AcDbEntity
  8
0
 62
     0
100
AcDbPolyline
 90
        2
 70
     0
 39
0.003
 10
0.203697
 20
-0.301622
 40
0.003
 41
0.003
 10
0.203016
 20
-0.272039
 40
0.003
 41
0.003
  0
LWPOLYLINE
  5
48E
100
AcDbEntity
  8
0
 62
     0
100
AcDbPolyline
 90
        2
 70
     0
 39
0.003
 10
0.203016
 20
-0.272039
 40
0.003
 41
0.003
 10
0.201197
 20
-0.243059
 40
0.003
 41
0.003
  0
LWPOLYLINE
  5
48F
100
AcDbEntity
  8
0
 62
     0
100
AcDbPolyline
 90
        2
 70
     0
 39
0.003
 10
0.201197
 20
-0.243059
 40
0.003
 41
0.003
 10
0.198252
 20
-0.21474
 40
0.003
 41
0.003
  0
LWPOLYLINE
  5
490
100
AcDbEntity
  8
0
 62
     0
100
AcDbPolyline
 90
        2
 70
     0
 39
0.003
 10
0.198252
 20
-0.21474
 40
0.003
 41
0.003
 10
0.194228
 20
-0.187106
 40
0.003
 41
0.003
  0
LWPOLYLINE
  5
491
100
AcDbEntity
  8
0
 62
     0
100
AcDbPolyline
 90
        2
 70
     0
 39
0.003
 10
0.194228
 20
-0.187106
 40
0.003
 41
0.003
 10
0.189138
 20
-0.160209
 40
0.003
 41
0.003
  0
LWPOLYLINE
  5
492
100
AcDbEntity
  8
0
 62
     0
100
AcDbPolyline
 90
        2
 70
     0
 39
0.003
 10
0.189138
 20
-0.160209
 40
0.003
 41
0.003
 10
0.18302
 20
-0.134083
 40
0.003
 41
0.003
  0
LWPOLYLINE
  5
493
100
AcDbEntity
  8
0
 62
     0
100
AcDbPolyline
 90
        2
 70
     0
 39
0.003
 10
0.18302
 20
-0.134083
 40
0.003
 41
0.003
 10
0.17589
 20
-0.108783
 40
0.003
 41
0.003
  0
LWPOLYLINE
  5
494
100
AcDbEntity
  8
0
 62
     0
100
AcDbPolyline
 90
        2
 70
     0
 39
0.003
 10
0.17589
 20
-0.108783
 40
0.003
 41
0.003
 10
0.167791
 20
-0.084335
 40
0.003
 41
0.003
  0
LWPOLYLINE
  5
495
100
AcDbEntity
  8
0
 62
     0
100
AcDbPolyline
 90
        2
 70
     0
 39
0.003
 10
0.167791
 20
-0.084335
 40
0.003
 41
0.003
 10
0.158736
 20
-0.060795
 40
0.003
 41
0.003
  0
LWPOLYLINE
  5
496
100
AcDbEntity
  8
0
 62
     0
100
AcDbPolyline
 90
        2
 70
     0
 39
0.003
 10
0.158736
 20
-0.060795
 40
0.003
 41
0.003
 10
0.148764
 20
-0.038193
 40
0.003
 41
0.003
  0
LWPOLYLINE
  5
497
100
AcDbEntity
  8
0
 62
     0
100
AcDbPolyline
 90
        2
 70
     0
 39
0.003
 10
0.148764
 20
-0.038193
 40
0.003
 41
0.003
 10
0.13789
 20
-0.016587
 40
0.003
 41
0.003
  0
LWPOLYLINE
  5
498
100
AcDbEntity
  8
0
 62
     0
100
AcDbPolyline
 90
        2
 70
     0
 39
0.003
 10
0.13789
 20
-0.016587
 40
0.003
 41
0.003
 10
0.12615
 20
0.004
 40
0.003
 41
0.003
  0
LWPOLYLINE
  5
499
100
AcDbEntity
  8
0
 62
     0
100
AcDbPolyline
 90
        2
 70
     0
 39
0.003
 10
0.12615
 20
0.004
 40
0.003
 41
0.003
 10
0.113567
 20
0.023512
 40
0.003
 41
0.003
  0
LWPOLYLINE
  5
49A
100
AcDbEntity
  8
0
 62
     0
100
AcDbPolyline
 90
        2
 70
     0
 39
0.003
 10
0.113567
 20
0.023512
 40
0.003
 41
0.003
 10
0.100177
 20
0.041917
 40
0.003
 41
0.003
  0
LWPOLYLINE
  5
49B
100
AcDbEntity
  8
0
 62
     0
100
AcDbPolyline
 90
        2
 70
     0
 39
0.003
 10
0.100177
 20
0.041917
 40
0.003
 41
0.003
 10
0.085996
 20
0.059165
 40
0.003
 41
0.003
  0
LWPOLYLINE
  5
49C
100
AcDbEntity
  8
0
 62
     0
100
AcDbPolyline
 90
        2
 70
     0
 39
0.003
 10
0.085996
 20
0.059165
 40
0.003
 41
0.003
 10
0.071063
 20
0.07522
 40
0.003
 41
0.003
  0
LWPOLYLINE
  5
49D
100
AcDbEntity
  8
0
 62
     0
100
AcDbPolyline
 90
        2
 70
     0
 39
0.003
 10
0.071063
 20
0.07522
 40
0.003
 41
0.003
 10
0.055394
 20
0.090035
 40
0.003
 41
0.003
  0
LWPOLYLINE
  5
49E
100
AcDbEntity
  8
0
 62
     0
100
AcDbPolyline
 90
        2
 70
     0
 39
0.003
 10
0.055394
 20
0.090035
 40
0.003
 41
0.003
 10
0.039031
 20
0.103575
 40
0.003
 41
0.003
  0
LWPOLYLINE
  5
49F
100
AcDbEntity
  8
0
 62
     0
100
AcDbPolyline
 90
        2
 70
     0
 39
0.003
 10
0.039031
 20
0.103575
 40
0.003
 41
0.003
 10
0.021984
 20
0.115787
 40
0.003
 41
0.003
  0
LWPOLYLINE
  5
4A0
100
AcDbEntity
  8
0
 62
     0
100
AcDbPolyline
 90
        2
 70
     0
 39
0.003
 10
0.021984
 20
0.115787
 40
0.003
 41
0.003
 10
0.004295
 20
0.126642
 40
0.003
 41
0.003
  0
LWPOLYLINE
  5
4A1
100
AcDbEntity
  8
0
 62
     0
100
AcDbPolyline
 90
        2
 70
     0
 39
0.003
 10
0.004295
 20
0.126642
 40
0.003
 41
0.003
 10
-0.014012
 20
0.136087
 40
0.003
 41
0.003
  0
LWPOLYLINE
  5
4A2
100
AcDbEntity
  8
0
 62
     0
100
AcDbPolyline
 90
        2
 70
     0
 39
0.003
 10
-0.014012
 20
0.136087
 40
0.003
 41
0.003
 10
-0.032917
 20
0.144094
 40
0.003
 41
0.003
  0
LWPOLYLINE
  5
4A3
100
AcDbEntity
  8
0
 62
     0
100
AcDbPolyline
 90
        2
 70
     0
 39
0.003
 10
-0.032917
 20
0.144094
 40
0.003
 41
0.003
 10
-0.052382
 20
0.150606
 40
0.003
 41
0.003
  0
LWPOLYLINE
  5
4A4
100
AcDbEntity
  8
0
 62
     0
100
AcDbPolyline
 90
        2
 70
     0
 39
0.003
 10
-0.052382
 20
0.150606
 40
0.003
 41
0.003
 10
-0.072394
 20
0.155591
 40
0.003
 41
0.003
  0
LWPOLYLINE
  5
4A5
100
AcDbEntity
  8
0
 62
     0
100
AcDbPolyline
 90
        2
 70
     0
 39
0.003
 10
-0.072394
 20
0.155591
 40
0.003
 41
0.003
 10
-0.092913
 20
0.159
 40
0.003
 41
0.003
  0
LWPOLYLINE
  5
4A6
100
AcDbEntity
  8
0
 62
     0
100
AcDbPolyline
 90
        2
 70
     0
 39
0.003
 10
-0.092913
 20
0.159
 40
0.003
 41
0.003
 10
-0.113921
 20
0.160799
 40
0.003
 41
0.003
  0
LWPOLYLINE
  5
4A7
100
AcDbEntity
  8
0
 62
   253
100
AcDbPolyline
 90
        2
 70
     0
 39
0.003
 10
-0.638528
 20
1.283535
 40
0.003
 41
0.003
 10
0.012669
 20
1.669681
 40
0.003
 41
0.003
  0
LWPOLYLINE
  5
4A8
100
AcDbEntity
  8
0
 62
   253
100
AcDbPolyline
 90
        2
 70
     0
 39
0.003
 10
0.012669
 20
1.669681
 40
0.003
 41
0.003
 10
0.216433
 20
1.669681
 40
0.003
 41
0.003
  0
LWPOLYLINE
  5
4A9
100
AcDbEntity
  8
0
 62
   253
100
AcDbPolyline
 90
        2
 70
     0
 39
0.003
 10
0.216433
 20
1.669681
 40
0.003
 41
0.003
 10
-0.434764
 20
1.283535
 40
0.003
 41
0.003
  0
LWPOLYLINE
  5
4AA
100
AcDbEntity
  8
0
 62
   253
100
AcDbPolyline
 90
        2
 70
     0
 39
0.003
 10
-0.434764
 20
1.283535
 40
0.003
 41
0.003
 10
-0.638528
 20
1.283535
 40
0.003
 41
0.003
  0
LWPOLYLINE
  5
4AB
100
AcDbEntity
  8
0
 62
     0
100
AcDbPolyline
 90
        2
 70
     0
 39
0.003
 10
-0.638528
 20
1.283535
 40
0.003
 41
0.003
 10
0.012669
 20
1.669681
 40
0.003
 41
0.003
  0
LWPOLYLINE
  5
4AC
100
AcDbEntity
  8
0
 62
     0
100
AcDbPolyline
 90
        2
 70
     0
 39
0.003
 10
0.012669
 20
1.669681
 40
0.003
 41
0.003
 10
0.216433
 20
1.669681
 40
0.003
 41
0.003
  0
LWPOLYLINE
  5
4AD
100
AcDbEntity
  8
0
 62
     0
100
AcDbPolyline
 90
        2
 70
     0
 39
0.003
 10
0.216433
 20
1.669681
 40
0.003
 41
0.003
 10
-0.434764
 20
1.283535
 40
0.003
 41
0.003
  0
LWPOLYLINE
  5
4AE
100
AcDbEntity
  8
0
 62
     0
100
AcDbPolyline
 90
        2
 70
     0
 39
0.003
 10
-0.434764
 20
1.283535
 40
0.003
 41
0.003
 10
-0.638528
 20
1.283535
 40
0.003
 41
0.003
  0
LWPOLYLINE
  5
4AF
100
AcDbEntity
  8
0
 62
     7
100
AcDbPolyline
 90
        2
 70
     0
 39
0.003
 10
-0.434764
 20
1.283535
 40
0.003
 41
0.003
 10
-0.434764
 20
1.144071
 40
0.003
 41
0.003
  0
SPLINE
  5
4B0
100
AcDbEntity
  8
0
 62
     7
100
AcDbSpline
210
0.0
220
0.0
230
1.0
 70
     0
 71
     3
 72
     0
 73
     0
 74
    32
 44
0.0000000001
 11
-0.4347637795275591
 21
1.1440708661417323
 31
0.0
 11
-0.3819251968503937
 21
1.1363464566929133
 31
0.0
 11
-0.3364409448818898
 21
1.1225629921259843
 31
0.0
 11
-0.2981574803149606
 21
1.1035708661417323
 31
0.0
 11
-0.2669291338582677
 21
1.080248031496063
 31
0.0
 11
-0.2425866141732284
 21
1.0534330708661417
 31
0.0
 11
-0.225
 21
1.0240078740157481
 31
0.0
 11
-0.214
 21
0.9928228346456693
 31
0.0
 11
-0.2094448818897638
 21
0.960748031496063
 31
0.0
 11
-0.2111732283464567
 21
0.9286338582677165
 31
0.0
 11
-0.2190433070866142
 21
0.8973543307086614
 31
0.0
 11
-0.2328976377952756
 21
0.8677677165354331
 31
0.0
 11
-0.2525866141732284
 21
0.8407362204724409
 31
0.0
 11
-0.2779527559055118
 21
0.8171141732283465
 31
0.0
 11
-0.3088582677165354
 21
0.7977795275590551
 31
0.0
 11
-0.3451377952755906
 21
0.7835826771653544
 31
0.0
 11
-0.3866496062992126
 21
0.7753897637795275
 31
0.0
 11
-0.385007874015748
 21
0.7075944881889764
 31
0.0
 11
-0.3793385826771654
 21
0.6477992125984252
 31
0.0
 11
-0.3700590551181102
 21
0.595496062992126
 31
0.0
 11
-0.3575984251968504
 21
0.5502047244094488
 31
0.0
 11
-0.3423700787401575
 21
0.5114173228346457
 31
0.0
 11
-0.3248070866141732
 21
0.4786535433070866
 31
0.0
 11
-0.3053307086614173
 21
0.4514055118110236
 31
0.0
 11
-0.2843661417322835
 21
0.4291968503937008
 31
0.0
 11
-0.2623267716535433
 21
0.411515748031496
 31
0.0
 11
-0.2396574803149606
 21
0.3978858267716535
 31
0.0
 11
-0.216763779527559
 21
0.3877992125984252
 31
0.0
 11
-0.1940866141732283
 21
0.3807795275590551
 31
0.0
 11
-0.1720314960629921
 21
0.3763110236220473
 31
0.0
 11
-0.1510393700787402
 21
0.3739212598425197
 31
0.0
 11
-0.1315236220472441
 21
0.3731062992125984
 31
0.0
  0
LWPOLYLINE
  5
4B1
100
AcDbEntity
  8
0
 62
     7
100
AcDbPolyline
 90
        2
 70
     0
 39
0.003
 10
-0.131524
 20
0.373106
 40
0.003
 41
0.003
 10
-0.113921
 20
0.373378
 40
0.003
 41
0.003
  0
LWPOLYLINE
  5
4B2
100
AcDbEntity
  8
0
 62
     7
100
AcDbPolyline
 90
        2
 70
     0
 39
0.003
 10
-0.113921
 20
0.373378
 40
0.003
 41
0.003
 10
-0.113921
 20
0.160799
 40
0.003
 41
0.003
  0
SPLINE
  5
4B3
100
AcDbEntity
  8
0
 62
     7
100
AcDbSpline
210
0.0
220
0.0
230
1.0
 70
     0
 71
     3
 72
     0
 73
     0
 74
    16
 44
0.0000000001
 11
-0.1139212598425197
 21
0.1607992125984252
 31
0.0
 11
-0.0723937007874016
 21
0.1555905511811024
 31
0.0
 11
-0.0329173228346457
 21
0.1440944881889764
 31
0.0
 11
0.0042952755905512
 21
0.1266417322834646
 31
0.0
 11
0.0390314960629921
 21
0.1035748031496063
 31
0.0
 11
0.0710629921259843
 21
0.0752204724409449
 31
0.0
 11
0.1001771653543307
 21
0.0419173228346457
 31
0.0
 11
0.1261496062992126
 21
0.004
 31
0.0
 11
0.1487637795275591
 21
-0.0381889763779528
 31
0.0
 11
0.1677913385826772
 21
-0.0843228346456693
 31
0.0
 11
0.1830196850393701
 21
-0.1340708661417323
 31
0.0
 11
0.1942283464566929
 21
-0.1870905511811024
 31
0.0
 11
0.2011968503937008
 21
-0.2430551181102362
 31
0.0
 11
0.2036968503937008
 21
-0.3016102362204725
 31
0.0
 11
0.2015236220472441
 21
-0.3624409448818898
 31
0.0
 11
0.1944448818897638
 21
-0.4252007874015748
 31
0.0
  0
LWPOLYLINE
  5
4B4
100
AcDbEntity
  8
0
 62
     7
100
AcDbPolyline
 90
        2
 70
     0
 39
0.003
 10
0.194445
 20
-0.425201
 40
0.003
 41
0.003
 10
0.182252
 20
-0.489567
 40
0.003
 41
0.003
  0
LWPOLYLINE
  5
4B5
100
AcDbEntity
  8
0
 62
     7
100
AcDbPolyline
 90
        2
 70
     0
 39
0.003
 10
0.182252
 20
-0.489567
 40
0.003
 41
0.003
 10
-0.638528
 20
-0.489567
 40
0.003
 41
0.003
  0
LWPOLYLINE
  5
4B6
100
AcDbEntity
  8
0
 62
     7
100
AcDbPolyline
 90
        2
 70
     0
 39
0.003
 10
-0.638528
 20
-0.489567
 40
0.003
 41
0.003
 10
-0.638528
 20
1.283535
 40
0.003
 41
0.003
  0
LWPOLYLINE
  5
4B7
100
AcDbEntity
  8
0
 62
     7
100
AcDbPolyline
 90
        2
 70
     0
 39
0.003
 10
-0.638528
 20
1.283535
 40
0.003
 41
0.003
 10
-0.434764
 20
1.283535
 40
0.003
 41
0.003
  0
MTEXT
  5
4B8
100
AcDbEntity
  8
0
 62
     0
100
AcDbMText
 10
-1.005543
 20
-0.401244
 30
0.0
 40
0.166665
 41
0.0
 71
     1
 72
     1
  1
{\fBookman Old Style|b0|i0|c0|p32;BA  1491}
 73
     1
 44
1.0
  0
MTEXT
  5
4B9
100
AcDbEntity
  8
0
 62
     0
100
AcDbMText
 10
-1.005543
 20
-0.588744
 30
0.0
 40
0.166665
 41
0.0
 71
     1
 72
     1
  1
{\fBookman Old Style|b0|i0|c0|p32;7/8" x 1-3/4"}
 73
     1
 44
1.0
  0
ENDSEC
  0
SECTION
  2
OBJECTS
  0
DICTIONARY
  5
19
100
AcDbDictionary
280
     0
281
     1
  3
ACAD_GROUP
350
1A
  3
ACAD_MLINESTYLE
350
1B
  3
ACAD_LAYOUT
350
1E
  3
ACAD_PLOTSETTINGS
350
22
  3
ACAD_PLOTSTYLENAME
350
1F
  3
ACAD_WIPEOUT_VARS
350
23
  0
DICTIONARY
  5
1A
102
{ACAD_REACTORS
330
19
102
}
100
AcDbDictionary
280
     0
281
     1
  0
DICTIONARY
  5
1B
102
{ACAD_REACTORS
330
19
102
}
100
AcDbDictionary
280
     0
281
     1
  3
Standard
350
1C
  0
MLINESTYLE
  5
1C
102
{ACAD_REACTORS
330
1B
102
}
100
AcDbMlineStyle
  2
Standard
 70
     0
  3

 62
     0
 51
90.0
 52
90.0
 71
     2
 49
0.5
 62
   256
  6
BYLAYER
 49
-0.5
 62
   256
  6
BYLAYER
  0
ACDBDICTIONARYWDFLT
  5
1F
102
{ACAD_REACTORS
330
19
102
}
100
AcDbDictionary
281
     1
  3
Normal
350
1D
100
AcDbDictionaryWithDefault
340
1D
  0
ACDBPLACEHOLDER
  5
1D
102
{ACAD_REACTORS
330
1F
102
}
  0
LAYOUT
  5
20
102
{ACAD_REACTORS
330
1E
102
}
100
AcDbPlotSettings
  1

  2

  4

  6

 40
0.0
 41
0.0
 42
0.0
 43
0.0
 44
0.0
 45
0.0
 46
0.0
 47
0.0
 48
0.0
 49
0.0
140
0.0
141
0.0
142
1.0
143
1.0
 70
  1024
 72
     0
 73
     0
 74
     0
  7

 75
     0
147
1.0
148
0.0
149
0.0
100
AcDbLayout
  1
Model
 70
     0
 71
     0
 10
0.0
 20
0.0
 11
0.0
 21
0.0
 12
0.0
 22
0.0
 32
0.0
 14
0.0
 24
0.0
 34
0.0
 15
0.0
 25
0.0
 35
0.0
146
0.0
 13
0.0
 23
0.0
 33
0.0
 16
0.0
 26
0.0
 36
0.0
 17
0.0
 27
0.0
 37
0.0
 76
     0
330
A
331
0
345
0
346
0
  0
LAYOUT
  5
21
102
{ACAD_REACTORS
330
1E
102
}
100
AcDbPlotSettings
  1

  2

  4

  6

 40
0.0
 41
0.0
 42
0.0
 43
0.0
 44
0.0
 45
0.0
 46
0.0
 47
0.0
 48
0.0
 49
0.0
140
0.0
141
0.0
142
1.0
143
1.0
 70
     0
 72
     0
 73
     0
 74
     0
  7

 75
     0
147
1.0
148
0.0
149
0.0
100
AcDbLayout
  1
Layout1
 70
     0
 71
     0
 10
0.0
 20
0.0
 11
0.0
 21
0.0
 12
0.0
 22
0.0
 32
0.0
 14
0.0
 24
0.0
 34
0.0
 15
0.0
 25
0.0
 35
0.0
146
0.0
 13
0.0
 23
0.0
 33
0.0
 16
0.0
 26
0.0
 36
0.0
 17
0.0
 27
0.0
 37
0.0
 76
     0
330
B
331
0
345
0
346
0
  0
DICTIONARY
  5
1E
102
{ACAD_REACTORS
330
19
102
}
100
AcDbDictionary
280
     0
281
     1
  3
Layout1
350
21
  3
Model
350
20
  0
DICTIONARY
  5
22
102
{ACAD_REACTORS
330
19
102
}
100
AcDbDictionary
280
     0
281
     1
  0
WIPEOUTVARIABLES
  5
23
100
AcDbWipeoutVariables
 70
     1
  0
ENDSEC
  0
EOF
