  0
SECTION
  2
HEADER
  9
$ACADVER
  1
AC1015
  9
$ACADMAINTVER
 70
     6
  9
$DWGCODEPAGE
  3
DOS850
  9
$INSBASE
 10
0.0
 20
0.0
 30
0.0
  9
$EXTMIN
 10
1.000000E+20
 20
1.000000E+20
 30
1.000000E+20
  9
$EXTMAX
 10
-1.000000E+20
 20
-1.000000E+20
 30
-1.000000E+20
  9
$LIMMIN
 10
0.0
 20
0.0
  9
$LIMMAX
 10
0.0
 20
0.0
  9
$ORTHOMODE
 70
     0
  9
$REGENMODE
 70
     1
  9
$FILLMODE
 70
     1
  9
$QTEXTMODE
 70
     0
  9
$MIRRTEXT
 70
     1
  9
$LTSCALE
 40
1.0
  9
$ATTMODE
 70
     1
  9
$TEXTSIZE
 40
0.2
  9
$TRACEWID
 40
0.05
  9
$TEXTSTYLE
  7
Standard
  9
$CLAYER
  8
0
  9
$CELTYPE
  6
Continuous
  9
$CECOLOR
 62
   256
  9
$CELTSCALE
 40
1.0
  9
$DISPSILH
 70
     0
  9
$DIMSCALE
 40
1.0
  9
$DIMASZ
 40
0.18
  9
$DIMEXO
 40
0.0625
  9
$DIMDLI
 40
0.38
  9
$DIMRND
 40
0.0
  9
$DIMDLE
 40
0.0
  9
$DIMEXE
 40
0.18
  9
$DIMTP
 40
0.0
  9
$DIMTM
 40
0.0
  9
$DIMTXT
 40
0.18
  9
$DIMCEN
 40
0.09
  9
$DIMTSZ
 40
0.0
  9
$DIMTOL
 70
     0
  9
$DIMLIM
 70
     0
  9
$DIMTIH
 70
     1
  9
$DIMTOH
 70
     1
  9
$DIMSE1
 70
     0
  9
$DIMSE2
 70
     0
  9
$DIMTAD
 70
     0
  9
$DIMZIN
 70
     0
  9
$DIMBLK
  1

  9
$DIMASO
 70
     1
  9
$DIMSHO
 70
     1
  9
$DIMPOST
  1

  9
$DIMAPOST
  1

  9
$DIMALT
 70
     0
  9
$DIMALTD
 70
     2
  9
$DIMALTF
 40
25.4
  9
$DIMLFAC
 40
1.0
  9
$DIMTOFL
 70
     0
  9
$DIMTVP
 40
0.0
  9
$DIMTIX
 70
     0
  9
$DIMSOXD
 70
     0
  9
$DIMSAH
 70
     0
  9
$DIMBLK1
  1

  9
$DIMBLK2
  1

  9
$DIMSTYLE
  2
Standard
  9
$DIMCLRD
 70
     0
  9
$DIMCLRE
 70
     0
  9
$DIMCLRT
 70
     0
  9
$DIMTFAC
 40
1.0
  9
$DIMGAP
 40
0.09
  9
$DIMJUST
 70
     0
  9
$DIMSD1
 70
     0
  9
$DIMSD2
 70
     0
  9
$DIMTOLJ
 70
     1
  9
$DIMTZIN
 70
     0
  9
$DIMALTZ
 70
     0
  9
$DIMALTTZ
 70
     0
  9
$DIMUPT
 70
     0
  9
$DIMDEC
 70
     4
  9
$DIMTDEC
 70
     4
  9
$DIMALTU
 70
     2
  9
$DIMALTTD
 70
     2
  9
$DIMTXSTY
  7
Standard
  9
$DIMAUNIT
 70
     0
  9
$DIMADEC
 70
     0
  9
$DIMALTRND
 40
0.0
  9
$DIMAZIN
 70
     0
  9
$DIMDSEP
 70
     0
  9
$DIMATFIT
 70
     3
  9
$DIMFRAC
 70
     0
  9
$DIMLDRBLK
  1

  9
$DIMLUNIT
 70
     2
  9
$DIMLWD
 70
     0
  9
$DIMLWE
 70
     0
  9
$DIMTMOVE
 70
     0
  9
$LUNITS
 70
     2
  9
$LUPREC
 70
     4
  9
$SKETCHINC
 40
0.1
  9
$FILLETRAD
 40
0.0
  9
$AUNITS
 70
     0
  9
$AUPREC
 70
     0
  9
$MENU
  1
acad
  9
$ELEVATION
 40
0.0
  9
$PELEVATION
 40
0.0
  9
$THICKNESS
 40
0.0
  9
$LIMCHECK
 70
     0
  9
$CHAMFERA
 40
0.0
  9
$CHAMFERB
 40
0.0
  9
$CHAMFERC
 40
0.0
  9
$CHAMFERD
 40
0.0
  9
$SKPOLY
 70
     0
  9
$TDCREATE
 40
0.000000000
  9
$TDUCREATE
 40
0.000000000
  9
$TDUPDATE
 40
0.000000000
  9
$TDUUPDATE
 40
0.000000000
  9
$TDINDWG
 40
0.0000000000
  9
$TDUSRTIMER
 40
0.0000000000
  9
$USRTIMER
 70
     1
  9
$ANGBASE
 50
0.0
  9
$ANGDIR
 70
     0
  9
$PDMODE
 70
     0
  9
$PDSIZE
 40
0.0
  9
$PLINEWID
 40
0.0
  9
$SPLFRAME
 70
     0
  9
$SPLINETYPE
 70
     6
  9
$SPLINESEGS
 70
     8
  9
$HANDSEED
  5
60E
  9
$SURFTAB1
 70
     6
  9
$SURFTAB2
 70
     6
  9
$SURFTYPE
 70
     6
  9
$SURFU
 70
     6
  9
$SURFV
 70
     6
  9
$UCSBASE
  2

  9
$UCSNAME
  2

  9
$UCSORG
 10
0.0
 20
0.0
 30
0.0
  9
$UCSXDIR
 10
1.0
 20
0.0
 30
0.0
  9
$UCSYDIR
 10
0.0
 20
1.0
 30
0.0
  9
$UCSORTHOREF
  2

  9
$UCSORTHOVIEW
 70
     0
  9
$UCSORGTOP
 10
0.0
 20
0.0
 30
0.0
  9
$UCSORGBOTTOM
 10
0.0
 20
0.0
 30
0.0
  9
$UCSORGLEFT
 10
0.0
 20
0.0
 30
0.0
  9
$UCSORGRIGHT
 10
0.0
 20
0.0
 30
0.0
  9
$UCSORGFRONT
 10
0.0
 20
0.0
 30
0.0
  9
$UCSORGBACK
 10
0.0
 20
0.0
 30
0.0
  9
$PUCSBASE
  2

  9
$PUCSNAME
  2

  9
$PUCSORG
 10
0.0
 20
0.0
 30
0.0
  9
$PUCSXDIR
 10
1.0
 20
0.0
 30
0.0
  9
$PUCSYDIR
 10
0.0
 20
1.0
 30
0.0
  9
$PUCSORTHOREF
  2

  9
$PUCSORTHOVIEW
 70
     0
  9
$PUCSORGTOP
 10
0.0
 20
0.0
 30
0.0
  9
$PUCSORGBOTTOM
 10
0.0
 20
0.0
 30
0.0
  9
$PUCSORGLEFT
 10
0.0
 20
0.0
 30
0.0
  9
$PUCSORGRIGHT
 10
0.0
 20
0.0
 30
0.0
  9
$PUCSORGFRONT
 10
0.0
 20
0.0
 30
0.0
  9
$PUCSORGBACK
 10
0.0
 20
0.0
 30
0.0
  9
$USERI1
 70
     0
  9
$USERI2
 70
     0
  9
$USERI3
 70
     0
  9
$USERI4
 70
     0
  9
$USERI5
 70
     0
  9
$USERR1
 40
0.0
  9
$USERR2
 40
0.0
  9
$USERR3
 40
0.0
  9
$USERR4
 40
0.0
  9
$USERR5
 40
0.0
  9
$WORLDVIEW
 70
     1
  9
$SHADEDGE
 70
     3
  9
$SHADEDIF
 70
    70
  9
$TILEMODE
 70
     1
  9
$MAXACTVP
 70
    16
  9
$PINSBASE
 10
0.0
 20
0.0
 30
0.0
  9
$PLIMCHECK
 70
     0
  9
$PEXTMIN
 10
1.000000E+20
 20
1.000000E+20
 30
1.000000E+20
  9
$PEXTMAX
 10
-1.000000E+20
 20
-1.000000E+20
 30
-1.000000E+20
  9
$PLIMMIN
 10
0.0
 20
0.0
  9
$PLIMMAX
 10
12.0
 20
9.0
  9
$UNITMODE
 70
     0
  9
$VISRETAIN
 70
     0
  9
$PLINEGEN
 70
     1
  9
$PSLTSCALE
 70
     0
  9
$TREEDEPTH
 70
  3020
  9
$CMLSTYLE
  2
Standard
  9
$CMLJUST
 70
     0
  9
$CMLSCALE
 40
1.0
  9
$PROXYGRAPHICS
 70
     0
  9
$MEASUREMENT
 70
     0
  9
$CELWEIGHT
370
     0
  9
$ENDCAPS
280
     0
  9
$JOINSTYLE
280
     0
  9
$LWDISPLAY
290
     0
  9
$INSUNITS
 70
     0
  9
$HYPERLINKBASE
  1

  9
$XEDIT
290
     1
  9
$CEPSNTYPE
380
     0
  9
$PSTYLEMODE
290
     1
  9
$FINGERPRINTGUID
  2

  9
$VERSIONGUID
  2

  9
$EXTNAMES
290
     1
  9
$PSVPSCALE
 40
0.0
  0
ENDSEC
  0
SECTION
  2
CLASSES
  0
CLASS
  1
LWPOLYLINE
  2
AcDbPolyline
  3
AutoCAD 2000
 90
        0
280
     0
281
     1
  0
CLASS
  1
IMAGE
  2
AcDbRasterImage
  3
ISM
 90
    32895
280
     0
281
     1
  0
CLASS
  1
OLE2FRAME
  2
AcDbOle2Frame
  3
AutoCAD 2000
 90
    32768
280
     0
281
     1
  0
CLASS
  1
HATCH
  2
AcDbHatch
  3
AutoCAD 2000
 90
    32768
280
     0
281
     1
  0
CLASS
  1
DICTIONARYVAR
  2
AcDbDictionaryVar
  3
AutoCAD 2000
 90
    32768
280
     0
281
     0
  0
CLASS
  1
RASTERVARIABLES
  2
AcDbRasterVariables
  3
ISM
 90
    32768
280
     0
281
     0
  0
CLASS
  1
IMAGEDEF
  2
AcDbRasterImageDef
  3
ISM
 90
    32768
280
     0
281
     0
  0
CLASS
  1
IMAGEDEF_REACTOR
  2
AcDbRasterImageDefReactor
  3
ISM
 90
    32769
280
     0
281
     0
  0
CLASS
  1
IDBUFFER
  2
AcDbIdBuffer
  3
AutoCAD 2000
 90
    32768
280
     0
281
     0
  0
CLASS
  1
SPATIAL_FILTER
  2
AcDbSpatialFilter
  3
AutoCAD 2000
 90
    32768
280
     0
281
     0
  0
CLASS
  1
XRECORD
  2
AcDbXrecord
  3
AutoCAD 2000
 90
    32768
280
     0
281
     0
  0
CLASS
  1
SORTENTSTABLE
  2
AcDbSortentsTable
  3
AutoCAD 2000
 90
    32768
280
     0
281
     0
  0
CLASS
  1
LAYER_INDEX
  2
AcDbLayerIndex
  3
AutoCAD 2000
 90
    32768
280
     0
281
     0
  0
CLASS
  1
SPATIAL_INDEX
  2
AcDbSpatialIndex
  3
AutoCAD 2000
 90
    32768
280
     0
281
     0
  0
CLASS
  1
OBJECT_PTR
  2
CAseDLPNTableRecord
  3
"ASE-LPNTableRecord"
 90
    32769
280
     0
281
     0
  0
CLASS
  1
LAYOUT
  2
AcDbLayout
  3
AutoCAD 2000
 90
        0
280
     0
281
     0
  0
CLASS
  1
PLOTSETTINGS
  2
AcDbPlotSettings
  3
AutoCAD 2000
 90
    32768
280
     0
281
     0
  0
CLASS
  1
ACDBDICTIONARYWDFLT
  2
AcDbDictionaryWithDefault
  3
AutoCAD 2000
 90
        0
280
     0
281
     0
  0
CLASS
  1
ACDBPLACEHOLDER
  2
AcDbPlaceHolder
  3
AutoCAD 2000
 90
        0
280
     0
281
     0
  0
CLASS
  1
VBA_PROJECT
  2
AcDbVbaProject
  3
acadvba
 90
    32768
280
     0
281
     0
  0
CLASS
  1
WIPEOUT
  2
AcDbWipeout
  3
WipeOut|AutoCAD Express Tool|expresstools@autodesk.com
 90
    32895
280
     0
281
     1
  0
CLASS
  1
WIPEOUTVARIABLES
  2
AcDbWipeoutVariables
  3
WipeOut|AutoCAD Express Tool|expresstools@autodesk.com
 90
        0
280
     0
281
     0
  0
CLASS
  1
RTEXT
  2
RText
  3
RText|AutoCAD Express Tool|expresstools@autodesk.com
 90
    32768
280
     0
281
     1
  0
CLASS
  1
ARCALIGNEDTEXT
  2
AcDbArcAlignedText
  3
ATEXT|AutoCAD Express Tool|expresstools@autodesk.com
 90
    32768
280
     0
281
     1
  0
ENDSEC
  0
SECTION
  2
TABLES
  0
TABLE
  2
VPORT
  5
7
100
AcDbSymbolTable
 70
     1
  0
VPORT
  5
15
100
AcDbSymbolTableRecord
100
AcDbViewportTableRecord
  2
*ACTIVE
 70
     0
 10
0.0
 20
0.0
 11
1.0
 21
1.0
 12
6.591288
 22
4.579184
 13
0.0
 23
0.0
 14
1.0
 24
1.0
 15
0.0
 25
0.0
 16
0.0
 26
0.0
 36
1.0
 17
0.0
 27
0.0
 37
0.0
 40
9.158369
 41
0.688564
 42
50.0
 43
0.0
 44
0.0
 50
0.0
 51
0.0
 71
     0
 72
   100
 73
     1
 74
     1
 75
     0
 76
     0
 77
     0
 78
     0
281
     0
 65
     0
110
0.0
120
0.0
130
0.0
111
1.0
121
0.0
131
0.0
112
0.0
122
1.0
132
0.0
345
0
346
0
 79
     0
146
0.0
  0
ENDTAB
  0
TABLE
  2
LTYPE
  5
4
100
AcDbSymbolTable
 70
     3
  0
LTYPE
  5
11
100
AcDbSymbolTableRecord
100
AcDbLinetypeTableRecord
  2
ByBlock
 70
    64
  3

 72
    65
 73
     0
 40
0.0
  0
LTYPE
  5
12
100
AcDbSymbolTableRecord
100
AcDbLinetypeTableRecord
  2
ByLayer
 70
    64
  3

 72
    65
 73
     0
 40
0.0
  0
LTYPE
  5
13
100
AcDbSymbolTableRecord
100
AcDbLinetypeTableRecord
  2
Continuous
 70
    64
  3
Solid line
 72
    65
 73
     0
 40
0.0
  0
ENDTAB
  0
TABLE
  2
LAYER
  5
2
100
AcDbSymbolTable
 70
     1
  0
LAYER
  5
14
100
AcDbSymbolTableRecord
100
AcDbLayerTableRecord
  2
0
 70
     0
 62
     7
  6
Continuous
290
     1
370
    -3
390
1D
  0
ENDTAB
  0
TABLE
  2
STYLE
  5
3
100
AcDbSymbolTable
 70
     1
  0
STYLE
  5
17
100
AcDbSymbolTableRecord
100
AcDbTextStyleTableRecord
  2
Standard
 70
     0
 40
0.0
 41
1.0
 50
0.0
 71
     0
 42
0.0
  3
txt
  4

  0
ENDTAB
  0
TABLE
  2
VIEW
  5
5
100
AcDbSymbolTable
 70
     0
  0
ENDTAB
  0
TABLE
  2
UCS
  5
6
100
AcDbSymbolTable
 70
     0
  0
ENDTAB
  0
TABLE
  2
APPID
  5
8
100
AcDbSymbolTable
 70
     1
  0
APPID
  5
16
100
AcDbSymbolTableRecord
100
AcDbRegAppTableRecord
  2
ACAD
 70
     0
  0
ENDTAB
  0
TABLE
  2
DIMSTYLE
  5
9
100
AcDbSymbolTable
 70
     1
100
AcDbDimStyleTable
 71
     0
  0
DIMSTYLE
105
18
100
AcDbSymbolTableRecord
100
AcDbDimStyleTableRecord
  2
Standard
 70
     0
  3

  4

 40
1.0
 41
0.18
 42
0.0625
 43
0.38
 44
0.18
 45
0.0
 46
0.0
 47
0.0
 48
0.0
 71
     0
 72
     0
 73
     1
 74
     1
 75
     0
 76
     0
 77
     0
 78
     0
 79
     0
140
0.18
141
0.09
142
0.0
143
25.4
144
1.0
145
0.0
146
1.0
147
0.09
148
0.0
170
     0
171
     2
172
     0
173
     0
174
     0
175
     0
176
     0
177
     0
178
     0
179
     0
271
     4
272
     4
273
     2
274
     2
275
     0
276
     0
277
     2
278
    46
279
     0
280
     0
281
     0
282
     0
283
     1
284
     0
285
     0
286
     0
288
     0
340
17
341
0
342
0
343
0
344
0
371
    -2
372
    -2
  0
ENDTAB
  0
TABLE
  2
BLOCK_RECORD
  5
1
100
AcDbSymbolTable
 70
     0
  0
BLOCK_RECORD
  5
A
100
AcDbSymbolTableRecord
100
AcDbBlockTableRecord
  2
*MODEL_SPACE
340
20
  0
BLOCK_RECORD
  5
B
100
AcDbSymbolTableRecord
100
AcDbBlockTableRecord
  2
*PAPER_SPACE
340
21
  0
ENDTAB
  0
ENDSEC
  0
SECTION
  2
BLOCKS
  0
BLOCK
  5
D
100
AcDbEntity
  8
0
100
AcDbBlockBegin
  2
*MODEL_SPACE
 70
     0
 10
0.0
 20
0.0
 30
0.0
  3
*MODEL_SPACE
  1

  0
ENDBLK
  5
E
100
AcDbEntity
  8
0
100
AcDbBlockEnd
  0
BLOCK
  5
F
100
AcDbEntity
 67
     1
  8
0
100
AcDbBlockBegin
  2
*PAPER_SPACE
 70
     0
 10
0.0
 20
0.0
 30
0.0
  3
*PAPER_SPACE
  1

  0
ENDBLK
  5
10
100
AcDbEntity
 67
     1
  8
0
100
AcDbBlockEnd
  0
ENDSEC
  0
SECTION
  2
ENTITIES
  0
LWPOLYLINE
  5
24
100
AcDbEntity
  8
0
 62
     0
100
AcDbPolyline
 90
        2
 70
     0
 39
0.003
 10
-0.771126
 20
2.555965
 40
0.003
 41
0.003
 10
-0.771126
 20
2.416791
 40
0.003
 41
0.003
  0
LWPOLYLINE
  5
25
100
AcDbEntity
  8
0
 62
     0
100
AcDbPolyline
 90
        2
 70
     0
 39
0.003
 10
-0.771126
 20
2.416791
 40
0.003
 41
0.003
 10
0.487079
 20
2.416791
 40
0.003
 41
0.003
  0
LWPOLYLINE
  5
26
100
AcDbEntity
  8
0
 62
     0
100
AcDbPolyline
 90
        2
 70
     0
 39
0.003
 10
0.487079
 20
2.416791
 40
0.003
 41
0.003
 10
0.487079
 20
3.051429
 40
0.003
 41
0.003
  0
LWPOLYLINE
  5
27
100
AcDbEntity
  8
0
 62
     0
100
AcDbPolyline
 90
        2
 70
     0
 39
0.003
 10
0.487079
 20
3.051429
 40
0.003
 41
0.003
 10
0.417358
 20
3.051429
 40
0.003
 41
0.003
  0
SPLINE
  5
28
100
AcDbEntity
  8
0
 62
     0
100
AcDbSpline
210
0.0
220
0.0
230
1.0
 70
     0
 71
     3
 72
     0
 73
     0
 74
    32
 44
0.0000000001
 11
0.4173582677165355
 21
3.0514291338582678
 31
0.0
 11
0.4043070866141733
 21
3.1036889763779527
 31
0.0
 11
0.3855314960629921
 21
3.1470275590551182
 31
0.0
 11
0.3618110236220473
 21
3.1818976377952755
 31
0.0
 11
0.3339448818897638
 21
3.208775590551181
 31
0.0
 11
0.3027165354330709
 21
3.2281062992125986
 31
0.0
 11
0.2689212598425197
 21
3.2403779527559053
 31
0.0
 11
0.2333464566929134
 21
3.2460393700787402
 31
0.0
 11
0.1967952755905512
 21
3.2455669291338585
 31
0.0
 11
0.1600354330708662
 21
3.2394094488188978
 31
0.0
 11
0.1238779527559055
 21
3.2280472440944883
 31
0.0
 11
0.0891023622047244
 21
3.2119330708661415
 31
0.0
 11
0.056507874015748
 21
3.1915472440944881
 31
0.0
 11
0.0268740157480315
 21
3.1673385826771652
 31
0.0
 11
0.001011811023622
 21
3.139779527559055
 31
0.0
 11
-0.0203031496062992
 21
3.1093346456692914
 31
0.0
 11
-0.0362913385826772
 21
3.0764724409448818
 31
0.0
 11
-0.048759842519685
 21
3.0439606299212598
 31
0.0
 11
-0.0603110236220472
 21
3.0142283464566928
 31
0.0
 11
-0.071259842519685
 21
2.9871653543307088
 31
0.0
 11
-0.0819370078740158
 21
2.9626850393700788
 31
0.0
 11
-0.0926574803149606
 21
2.9406732283464567
 31
0.0
 11
-0.103759842519685
 21
2.9210472440944883
 31
0.0
 11
-0.1155590551181102
 21
2.9036968503937008
 31
0.0
 11
-0.1283858267716536
 21
2.888531496062992
 31
0.0
 11
-0.1425551181102362
 21
2.8754409448818898
 31
0.0
 11
-0.1584015748031496
 21
2.8643425196850392
 31
0.0
 11
-0.176248031496063
 21
2.8551259842519685
 31
0.0
 11
-0.1964291338582677
 21
2.8477007874015747
 31
0.0
 11
-0.219248031496063
 21
2.8419606299212599
 31
0.0
 11
-0.2450511811023622
 21
2.8378149606299212
 31
0.0
 11
-0.2741535433070866
 21
2.8351535433070865
 31
0.0
  0
LWPOLYLINE
  5
29
100
AcDbEntity
  8
0
 62
     0
100
AcDbPolyline
 90
        2
 70
     0
 39
0.003
 10
-0.274154
 20
2.835154
 40
0.003
 41
0.003
 10
-0.306882
 20
2.833898
 40
0.003
 41
0.003
  0
LWPOLYLINE
  5
2A
100
AcDbEntity
  8
0
 62
     0
100
AcDbPolyline
 90
        2
 70
     0
 39
0.003
 10
-0.306882
 20
2.833898
 40
0.003
 41
0.003
 10
-0.315378
 20
2.710106
 40
0.003
 41
0.003
  0
LWPOLYLINE
  5
2B
100
AcDbEntity
  8
0
 62
     0
100
AcDbPolyline
 90
        2
 70
     0
 39
0.003
 10
-0.315378
 20
2.710106
 40
0.003
 41
0.003
 10
-0.374512
 20
2.710106
 40
0.003
 41
0.003
  0
SPLINE
  5
2C
100
AcDbEntity
  8
0
 62
     0
100
AcDbSpline
210
0.0
220
0.0
230
1.0
 70
     0
 71
     3
 72
     0
 73
     0
 74
    33
 44
0.0000000001
 11
-0.374511811023622
 21
2.7101062992125984
 31
0.0
 11
-0.3795551181102362
 21
2.7353937007874016
 31
0.0
 11
-0.3876102362204724
 21
2.7570944881889763
 31
0.0
 11
-0.3982795275590551
 21
2.7753070866141734
 31
0.0
 11
-0.4111732283464567
 21
2.7901456692913387
 31
0.0
 11
-0.4258858267716535
 21
2.8017047244094488
 31
0.0
 11
-0.4420354330708661
 21
2.8101102362204724
 31
0.0
 11
-0.4592204724409449
 21
2.815456692913386
 31
0.0
 11
-0.4770551181102362
 21
2.8178622047244093
 31
0.0
 11
-0.4951299212598425
 21
2.8174212598425199
 31
0.0
 11
-0.5130708661417323
 21
2.814255905511811
 31
0.0
 11
-0.5304685039370078
 21
2.8084645669291337
 31
0.0
 11
-0.5469370078740158
 21
2.8001653543307086
 31
0.0
 11
-0.5620748031496063
 21
2.7894488188976378
 31
0.0
 11
-0.5755
 21
2.7764409448818896
 31
0.0
 11
-0.5868070866141733
 21
2.7612401574803149
 31
0.0
 11
-0.5956141732283464
 21
2.74396062992126
 31
0.0
 11
-0.6026141732283464
 21
2.7260669291338582
 31
0.0
 11
-0.6089685039370079
 21
2.708976377952756
 31
0.0
 11
-0.6149173228346456
 21
2.6926889763779527
 31
0.0
 11
-0.6207322834645669
 21
2.6772125984251969
 31
0.0
 11
-0.6266417322834645
 21
2.6625393700787403
 31
0.0
 11
-0.6329212598425197
 21
2.6486929133858266
 31
0.0
 11
-0.6398110236220472
 21
2.6356574803149608
 31
0.0
 11
-0.6475708661417323
 21
2.6234566929133858
 31
0.0
 11
-0.6564370078740157
 21
2.6120748031496062
 31
0.0
 11
-0.6666850393700787
 21
2.6015275590551181
 31
0.0
 11
-0.6785511811023622
 21
2.5918149606299212
 31
0.0
 11
-0.6923031496062992
 21
2.5829527559055117
 31
0.0
 11
-0.7081771653543307
 21
2.5749251968503937
 31
0.0
 11
-0.7264409448818898
 21
2.5677519685039369
 31
0.0
 11
-0.7473346456692913
 21
2.5614291338582675
 31
0.0
 11
-0.7711259842519685
 21
2.5559645669291338
 31
0.0
  0
LWPOLYLINE
  5
2D
100
AcDbEntity
  8
0
 62
   253
100
AcDbPolyline
 90
        2
 70
     0
 39
0.003
 10
-0.397465
 20
1.35261
 40
0.003
 41
0.003
 10
0.24813
 20
1.731441
 40
0.003
 41
0.003
  0
LWPOLYLINE
  5
2E
100
AcDbEntity
  8
0
 62
   253
100
AcDbPolyline
 90
        2
 70
     0
 39
0.003
 10
0.24813
 20
1.731441
 40
0.003
 41
0.003
 10
0.108957
 20
1.731441
 40
0.003
 41
0.003
  0
LWPOLYLINE
  5
2F
100
AcDbEntity
  8
0
 62
   253
100
AcDbPolyline
 90
        2
 70
     0
 39
0.003
 10
0.108957
 20
1.731441
 40
0.003
 41
0.003
 10
-0.536638
 20
1.35261
 40
0.003
 41
0.003
  0
LWPOLYLINE
  5
30
100
AcDbEntity
  8
0
 62
   253
100
AcDbPolyline
 90
        2
 70
     0
 39
0.003
 10
-0.536638
 20
1.35261
 40
0.003
 41
0.003
 10
-0.397465
 20
1.35261
 40
0.003
 41
0.003
  0
LWPOLYLINE
  5
31
100
AcDbEntity
  8
0
 62
     0
100
AcDbPolyline
 90
        2
 70
     0
 39
0.003
 10
-0.397465
 20
1.35261
 40
0.003
 41
0.003
 10
0.24813
 20
1.731441
 40
0.003
 41
0.003
  0
LWPOLYLINE
  5
32
100
AcDbEntity
  8
0
 62
     0
100
AcDbPolyline
 90
        2
 70
     0
 39
0.003
 10
0.24813
 20
1.731441
 40
0.003
 41
0.003
 10
0.108957
 20
1.731441
 40
0.003
 41
0.003
  0
LWPOLYLINE
  5
33
100
AcDbEntity
  8
0
 62
     0
100
AcDbPolyline
 90
        2
 70
     0
 39
0.003
 10
0.108957
 20
1.731441
 40
0.003
 41
0.003
 10
-0.536638
 20
1.35261
 40
0.003
 41
0.003
  0
LWPOLYLINE
  5
34
100
AcDbEntity
  8
0
 62
     0
100
AcDbPolyline
 90
        2
 70
     0
 39
0.003
 10
-0.536638
 20
1.35261
 40
0.003
 41
0.003
 10
-0.397465
 20
1.35261
 40
0.003
 41
0.003
  0
LWPOLYLINE
  5
35
100
AcDbEntity
  8
0
 62
   254
100
AcDbPolyline
 90
        2
 70
     0
 39
0.003
 10
0.098
 20
0.094406
 40
0.003
 41
0.003
 10
0.743594
 20
0.473236
 40
0.003
 41
0.003
  0
LWPOLYLINE
  5
36
100
AcDbEntity
  8
0
 62
   254
100
AcDbPolyline
 90
        2
 70
     0
 39
0.003
 10
0.743594
 20
0.473236
 40
0.003
 41
0.003
 10
0.743594
 20
0.542957
 40
0.003
 41
0.003
  0
LWPOLYLINE
  5
37
100
AcDbEntity
  8
0
 62
   254
100
AcDbPolyline
 90
        2
 70
     0
 39
0.003
 10
0.743594
 20
0.542957
 40
0.003
 41
0.003
 10
0.098
 20
0.164126
 40
0.003
 41
0.003
  0
LWPOLYLINE
  5
38
100
AcDbEntity
  8
0
 62
   254
100
AcDbPolyline
 90
        2
 70
     0
 39
0.003
 10
0.098
 20
0.164126
 40
0.003
 41
0.003
 10
0.098
 20
0.094406
 40
0.003
 41
0.003
  0
LWPOLYLINE
  5
39
100
AcDbEntity
  8
0
 62
     0
100
AcDbPolyline
 90
        2
 70
     0
 39
0.003
 10
0.098
 20
0.094406
 40
0.003
 41
0.003
 10
0.743594
 20
0.473236
 40
0.003
 41
0.003
  0
LWPOLYLINE
  5
3A
100
AcDbEntity
  8
0
 62
     0
100
AcDbPolyline
 90
        2
 70
     0
 39
0.003
 10
0.743594
 20
0.473236
 40
0.003
 41
0.003
 10
0.743594
 20
0.542957
 40
0.003
 41
0.003
  0
LWPOLYLINE
  5
3B
100
AcDbEntity
  8
0
 62
     0
100
AcDbPolyline
 90
        2
 70
     0
 39
0.003
 10
0.743594
 20
0.542957
 40
0.003
 41
0.003
 10
0.098
 20
0.164126
 40
0.003
 41
0.003
  0
LWPOLYLINE
  5
3C
100
AcDbEntity
  8
0
 62
     0
100
AcDbPolyline
 90
        2
 70
     0
 39
0.003
 10
0.098
 20
0.164126
 40
0.003
 41
0.003
 10
0.098
 20
0.094406
 40
0.003
 41
0.003
  0
LWPOLYLINE
  5
3D
100
AcDbEntity
  8
0
 62
     9
100
AcDbPolyline
 90
        2
 70
     0
 39
0.003
 10
0.212059
 20
0.207232
 40
0.003
 41
0.003
 10
0.857654
 20
0.586063
 40
0.003
 41
0.003
  0
LWPOLYLINE
  5
3E
100
AcDbEntity
  8
0
 62
     9
100
AcDbPolyline
 90
        2
 70
     0
 39
0.003
 10
0.857654
 20
0.586063
 40
0.003
 41
0.003
 10
0.874063
 20
0.598492
 40
0.003
 41
0.003
  0
LWPOLYLINE
  5
3F
100
AcDbEntity
  8
0
 62
     9
100
AcDbPolyline
 90
        2
 70
     0
 39
0.003
 10
0.874063
 20
0.598492
 40
0.003
 41
0.003
 10
0.228469
 20
0.219661
 40
0.003
 41
0.003
  0
LWPOLYLINE
  5
40
100
AcDbEntity
  8
0
 62
     9
100
AcDbPolyline
 90
        2
 70
     0
 39
0.003
 10
0.228469
 20
0.219661
 40
0.003
 41
0.003
 10
0.212059
 20
0.207232
 40
0.003
 41
0.003
  0
LWPOLYLINE
  5
41
100
AcDbEntity
  8
0
 62
   254
100
AcDbPolyline
 90
        2
 70
     0
 39
0.003
 10
0.228469
 20
0.219661
 40
0.003
 41
0.003
 10
0.874063
 20
0.598492
 40
0.003
 41
0.003
  0
LWPOLYLINE
  5
42
100
AcDbEntity
  8
0
 62
   254
100
AcDbPolyline
 90
        2
 70
     0
 39
0.003
 10
0.874063
 20
0.598492
 40
0.003
 41
0.003
 10
0.888472
 20
0.611953
 40
0.003
 41
0.003
  0
LWPOLYLINE
  5
43
100
AcDbEntity
  8
0
 62
   254
100
AcDbPolyline
 90
        2
 70
     0
 39
0.003
 10
0.888472
 20
0.611953
 40
0.003
 41
0.003
 10
0.242878
 20
0.233122
 40
0.003
 41
0.003
  0
LWPOLYLINE
  5
44
100
AcDbEntity
  8
0
 62
   254
100
AcDbPolyline
 90
        2
 70
     0
 39
0.003
 10
0.242878
 20
0.233122
 40
0.003
 41
0.003
 10
0.228469
 20
0.219661
 40
0.003
 41
0.003
  0
LWPOLYLINE
  5
45
100
AcDbEntity
  8
0
 62
   254
100
AcDbPolyline
 90
        2
 70
     0
 39
0.003
 10
0.242878
 20
0.233122
 40
0.003
 41
0.003
 10
0.888472
 20
0.611953
 40
0.003
 41
0.003
  0
LWPOLYLINE
  5
46
100
AcDbEntity
  8
0
 62
   254
100
AcDbPolyline
 90
        2
 70
     0
 39
0.003
 10
0.888472
 20
0.611953
 40
0.003
 41
0.003
 10
0.900941
 20
0.626362
 40
0.003
 41
0.003
  0
LWPOLYLINE
  5
47
100
AcDbEntity
  8
0
 62
   254
100
AcDbPolyline
 90
        2
 70
     0
 39
0.003
 10
0.900941
 20
0.626362
 40
0.003
 41
0.003
 10
0.255346
 20
0.247531
 40
0.003
 41
0.003
  0
LWPOLYLINE
  5
48
100
AcDbEntity
  8
0
 62
   254
100
AcDbPolyline
 90
        2
 70
     0
 39
0.003
 10
0.255346
 20
0.247531
 40
0.003
 41
0.003
 10
0.242878
 20
0.233122
 40
0.003
 41
0.003
  0
LWPOLYLINE
  5
49
100
AcDbEntity
  8
0
 62
   254
100
AcDbPolyline
 90
        2
 70
     0
 39
0.003
 10
0.255346
 20
0.247531
 40
0.003
 41
0.003
 10
0.900941
 20
0.626362
 40
0.003
 41
0.003
  0
LWPOLYLINE
  5
4A
100
AcDbEntity
  8
0
 62
   254
100
AcDbPolyline
 90
        2
 70
     0
 39
0.003
 10
0.900941
 20
0.626362
 40
0.003
 41
0.003
 10
0.911516
 20
0.641598
 40
0.003
 41
0.003
  0
LWPOLYLINE
  5
4B
100
AcDbEntity
  8
0
 62
   254
100
AcDbPolyline
 90
        2
 70
     0
 39
0.003
 10
0.911516
 20
0.641598
 40
0.003
 41
0.003
 10
0.265921
 20
0.262768
 40
0.003
 41
0.003
  0
LWPOLYLINE
  5
4C
100
AcDbEntity
  8
0
 62
   254
100
AcDbPolyline
 90
        2
 70
     0
 39
0.003
 10
0.265921
 20
0.262768
 40
0.003
 41
0.003
 10
0.255346
 20
0.247531
 40
0.003
 41
0.003
  0
LWPOLYLINE
  5
4D
100
AcDbEntity
  8
0
 62
   254
100
AcDbPolyline
 90
        2
 70
     0
 39
0.003
 10
0.265921
 20
0.262768
 40
0.003
 41
0.003
 10
0.911516
 20
0.641598
 40
0.003
 41
0.003
  0
LWPOLYLINE
  5
4E
100
AcDbEntity
  8
0
 62
   254
100
AcDbPolyline
 90
        2
 70
     0
 39
0.003
 10
0.911516
 20
0.641598
 40
0.003
 41
0.003
 10
0.920272
 20
0.657583
 40
0.003
 41
0.003
  0
LWPOLYLINE
  5
4F
100
AcDbEntity
  8
0
 62
   254
100
AcDbPolyline
 90
        2
 70
     0
 39
0.003
 10
0.920272
 20
0.657583
 40
0.003
 41
0.003
 10
0.274677
 20
0.278752
 40
0.003
 41
0.003
  0
LWPOLYLINE
  5
50
100
AcDbEntity
  8
0
 62
   254
100
AcDbPolyline
 90
        2
 70
     0
 39
0.003
 10
0.274677
 20
0.278752
 40
0.003
 41
0.003
 10
0.265921
 20
0.262768
 40
0.003
 41
0.003
  0
LWPOLYLINE
  5
51
100
AcDbEntity
  8
0
 62
   254
100
AcDbPolyline
 90
        2
 70
     0
 39
0.003
 10
0.274677
 20
0.278752
 40
0.003
 41
0.003
 10
0.920272
 20
0.657583
 40
0.003
 41
0.003
  0
LWPOLYLINE
  5
52
100
AcDbEntity
  8
0
 62
   254
100
AcDbPolyline
 90
        2
 70
     0
 39
0.003
 10
0.920272
 20
0.657583
 40
0.003
 41
0.003
 10
0.92726
 20
0.674209
 40
0.003
 41
0.003
  0
LWPOLYLINE
  5
53
100
AcDbEntity
  8
0
 62
   254
100
AcDbPolyline
 90
        2
 70
     0
 39
0.003
 10
0.92726
 20
0.674209
 40
0.003
 41
0.003
 10
0.281665
 20
0.295378
 40
0.003
 41
0.003
  0
LWPOLYLINE
  5
54
100
AcDbEntity
  8
0
 62
   254
100
AcDbPolyline
 90
        2
 70
     0
 39
0.003
 10
0.281665
 20
0.295378
 40
0.003
 41
0.003
 10
0.274677
 20
0.278752
 40
0.003
 41
0.003
  0
LWPOLYLINE
  5
55
100
AcDbEntity
  8
0
 62
   254
100
AcDbPolyline
 90
        2
 70
     0
 39
0.003
 10
0.281665
 20
0.295378
 40
0.003
 41
0.003
 10
0.92726
 20
0.674209
 40
0.003
 41
0.003
  0
LWPOLYLINE
  5
56
100
AcDbEntity
  8
0
 62
   254
100
AcDbPolyline
 90
        2
 70
     0
 39
0.003
 10
0.92726
 20
0.674209
 40
0.003
 41
0.003
 10
0.932543
 20
0.691378
 40
0.003
 41
0.003
  0
LWPOLYLINE
  5
57
100
AcDbEntity
  8
0
 62
   254
100
AcDbPolyline
 90
        2
 70
     0
 39
0.003
 10
0.932543
 20
0.691378
 40
0.003
 41
0.003
 10
0.286949
 20
0.312547
 40
0.003
 41
0.003
  0
LWPOLYLINE
  5
58
100
AcDbEntity
  8
0
 62
   254
100
AcDbPolyline
 90
        2
 70
     0
 39
0.003
 10
0.286949
 20
0.312547
 40
0.003
 41
0.003
 10
0.281665
 20
0.295378
 40
0.003
 41
0.003
  0
LWPOLYLINE
  5
59
100
AcDbEntity
  8
0
 62
   254
100
AcDbPolyline
 90
        2
 70
     0
 39
0.003
 10
0.286949
 20
0.312547
 40
0.003
 41
0.003
 10
0.932543
 20
0.691378
 40
0.003
 41
0.003
  0
LWPOLYLINE
  5
5A
100
AcDbEntity
  8
0
 62
   254
100
AcDbPolyline
 90
        2
 70
     0
 39
0.003
 10
0.932543
 20
0.691378
 40
0.003
 41
0.003
 10
0.936165
 20
0.708988
 40
0.003
 41
0.003
  0
LWPOLYLINE
  5
5B
100
AcDbEntity
  8
0
 62
   254
100
AcDbPolyline
 90
        2
 70
     0
 39
0.003
 10
0.936165
 20
0.708988
 40
0.003
 41
0.003
 10
0.290571
 20
0.330157
 40
0.003
 41
0.003
  0
LWPOLYLINE
  5
5C
100
AcDbEntity
  8
0
 62
   254
100
AcDbPolyline
 90
        2
 70
     0
 39
0.003
 10
0.290571
 20
0.330157
 40
0.003
 41
0.003
 10
0.286949
 20
0.312547
 40
0.003
 41
0.003
  0
LWPOLYLINE
  5
5D
100
AcDbEntity
  8
0
 62
   254
100
AcDbPolyline
 90
        2
 70
     0
 39
0.003
 10
0.290571
 20
0.330157
 40
0.003
 41
0.003
 10
0.936165
 20
0.708988
 40
0.003
 41
0.003
  0
LWPOLYLINE
  5
5E
100
AcDbEntity
  8
0
 62
   254
100
AcDbPolyline
 90
        2
 70
     0
 39
0.003
 10
0.936165
 20
0.708988
 40
0.003
 41
0.003
 10
0.938205
 20
0.726953
 40
0.003
 41
0.003
  0
LWPOLYLINE
  5
5F
100
AcDbEntity
  8
0
 62
   254
100
AcDbPolyline
 90
        2
 70
     0
 39
0.003
 10
0.938205
 20
0.726953
 40
0.003
 41
0.003
 10
0.29261
 20
0.348122
 40
0.003
 41
0.003
  0
LWPOLYLINE
  5
60
100
AcDbEntity
  8
0
 62
   254
100
AcDbPolyline
 90
        2
 70
     0
 39
0.003
 10
0.29261
 20
0.348122
 40
0.003
 41
0.003
 10
0.290571
 20
0.330157
 40
0.003
 41
0.003
  0
LWPOLYLINE
  5
61
100
AcDbEntity
  8
0
 62
   254
100
AcDbPolyline
 90
        2
 70
     0
 39
0.003
 10
0.29261
 20
0.348122
 40
0.003
 41
0.003
 10
0.938205
 20
0.726953
 40
0.003
 41
0.003
  0
LWPOLYLINE
  5
62
100
AcDbEntity
  8
0
 62
   254
100
AcDbPolyline
 90
        2
 70
     0
 39
0.003
 10
0.938205
 20
0.726953
 40
0.003
 41
0.003
 10
0.938705
 20
0.745157
 40
0.003
 41
0.003
  0
LWPOLYLINE
  5
63
100
AcDbEntity
  8
0
 62
   254
100
AcDbPolyline
 90
        2
 70
     0
 39
0.003
 10
0.938705
 20
0.745157
 40
0.003
 41
0.003
 10
0.29311
 20
0.366327
 40
0.003
 41
0.003
  0
LWPOLYLINE
  5
64
100
AcDbEntity
  8
0
 62
   254
100
AcDbPolyline
 90
        2
 70
     0
 39
0.003
 10
0.29311
 20
0.366327
 40
0.003
 41
0.003
 10
0.29261
 20
0.348122
 40
0.003
 41
0.003
  0
LWPOLYLINE
  5
65
100
AcDbEntity
  8
0
 62
   254
100
AcDbPolyline
 90
        2
 70
     0
 39
0.003
 10
0.29311
 20
0.366327
 40
0.003
 41
0.003
 10
0.938705
 20
0.745157
 40
0.003
 41
0.003
  0
LWPOLYLINE
  5
66
100
AcDbEntity
  8
0
 62
   254
100
AcDbPolyline
 90
        2
 70
     0
 39
0.003
 10
0.938705
 20
0.745157
 40
0.003
 41
0.003
 10
0.937732
 20
0.763516
 40
0.003
 41
0.003
  0
LWPOLYLINE
  5
67
100
AcDbEntity
  8
0
 62
   254
100
AcDbPolyline
 90
        2
 70
     0
 39
0.003
 10
0.937732
 20
0.763516
 40
0.003
 41
0.003
 10
0.292138
 20
0.384685
 40
0.003
 41
0.003
  0
LWPOLYLINE
  5
68
100
AcDbEntity
  8
0
 62
   254
100
AcDbPolyline
 90
        2
 70
     0
 39
0.003
 10
0.292138
 20
0.384685
 40
0.003
 41
0.003
 10
0.29311
 20
0.366327
 40
0.003
 41
0.003
  0
LWPOLYLINE
  5
69
100
AcDbEntity
  8
0
 62
   254
100
AcDbPolyline
 90
        2
 70
     0
 39
0.003
 10
0.292138
 20
0.384685
 40
0.003
 41
0.003
 10
0.937732
 20
0.763516
 40
0.003
 41
0.003
  0
LWPOLYLINE
  5
6A
100
AcDbEntity
  8
0
 62
   254
100
AcDbPolyline
 90
        2
 70
     0
 39
0.003
 10
0.937732
 20
0.763516
 40
0.003
 41
0.003
 10
0.935331
 20
0.781913
 40
0.003
 41
0.003
  0
LWPOLYLINE
  5
6B
100
AcDbEntity
  8
0
 62
   254
100
AcDbPolyline
 90
        2
 70
     0
 39
0.003
 10
0.935331
 20
0.781913
 40
0.003
 41
0.003
 10
0.289736
 20
0.403083
 40
0.003
 41
0.003
  0
LWPOLYLINE
  5
6C
100
AcDbEntity
  8
0
 62
   254
100
AcDbPolyline
 90
        2
 70
     0
 39
0.003
 10
0.289736
 20
0.403083
 40
0.003
 41
0.003
 10
0.292138
 20
0.384685
 40
0.003
 41
0.003
  0
LWPOLYLINE
  5
6D
100
AcDbEntity
  8
0
 62
   254
100
AcDbPolyline
 90
        2
 70
     0
 39
0.003
 10
0.289736
 20
0.403083
 40
0.003
 41
0.003
 10
0.935331
 20
0.781913
 40
0.003
 41
0.003
  0
LWPOLYLINE
  5
6E
100
AcDbEntity
  8
0
 62
   254
100
AcDbPolyline
 90
        2
 70
     0
 39
0.003
 10
0.935331
 20
0.781913
 40
0.003
 41
0.003
 10
0.931575
 20
0.800264
 40
0.003
 41
0.003
  0
LWPOLYLINE
  5
6F
100
AcDbEntity
  8
0
 62
   254
100
AcDbPolyline
 90
        2
 70
     0
 39
0.003
 10
0.931575
 20
0.800264
 40
0.003
 41
0.003
 10
0.28598
 20
0.421433
 40
0.003
 41
0.003
  0
LWPOLYLINE
  5
70
100
AcDbEntity
  8
0
 62
   254
100
AcDbPolyline
 90
        2
 70
     0
 39
0.003
 10
0.28598
 20
0.421433
 40
0.003
 41
0.003
 10
0.289736
 20
0.403083
 40
0.003
 41
0.003
  0
LWPOLYLINE
  5
71
100
AcDbEntity
  8
0
 62
   254
100
AcDbPolyline
 90
        2
 70
     0
 39
0.003
 10
0.28598
 20
0.421433
 40
0.003
 41
0.003
 10
0.931575
 20
0.800264
 40
0.003
 41
0.003
  0
LWPOLYLINE
  5
72
100
AcDbEntity
  8
0
 62
   254
100
AcDbPolyline
 90
        2
 70
     0
 39
0.003
 10
0.931575
 20
0.800264
 40
0.003
 41
0.003
 10
0.926512
 20
0.818465
 40
0.003
 41
0.003
  0
LWPOLYLINE
  5
73
100
AcDbEntity
  8
0
 62
   254
100
AcDbPolyline
 90
        2
 70
     0
 39
0.003
 10
0.926512
 20
0.818465
 40
0.003
 41
0.003
 10
0.280917
 20
0.439634
 40
0.003
 41
0.003
  0
LWPOLYLINE
  5
74
100
AcDbEntity
  8
0
 62
   254
100
AcDbPolyline
 90
        2
 70
     0
 39
0.003
 10
0.280917
 20
0.439634
 40
0.003
 41
0.003
 10
0.28598
 20
0.421433
 40
0.003
 41
0.003
  0
LWPOLYLINE
  5
75
100
AcDbEntity
  8
0
 62
   254
100
AcDbPolyline
 90
        2
 70
     0
 39
0.003
 10
0.280917
 20
0.439634
 40
0.003
 41
0.003
 10
0.926512
 20
0.818465
 40
0.003
 41
0.003
  0
LWPOLYLINE
  5
76
100
AcDbEntity
  8
0
 62
   254
100
AcDbPolyline
 90
        2
 70
     0
 39
0.003
 10
0.926512
 20
0.818465
 40
0.003
 41
0.003
 10
0.920213
 20
0.836425
 40
0.003
 41
0.003
  0
LWPOLYLINE
  5
77
100
AcDbEntity
  8
0
 62
   254
100
AcDbPolyline
 90
        2
 70
     0
 39
0.003
 10
0.920213
 20
0.836425
 40
0.003
 41
0.003
 10
0.274618
 20
0.457594
 40
0.003
 41
0.003
  0
LWPOLYLINE
  5
78
100
AcDbEntity
  8
0
 62
   254
100
AcDbPolyline
 90
        2
 70
     0
 39
0.003
 10
0.274618
 20
0.457594
 40
0.003
 41
0.003
 10
0.280917
 20
0.439634
 40
0.003
 41
0.003
  0
LWPOLYLINE
  5
79
100
AcDbEntity
  8
0
 62
   254
100
AcDbPolyline
 90
        2
 70
     0
 39
0.003
 10
0.274618
 20
0.457594
 40
0.003
 41
0.003
 10
0.920213
 20
0.836425
 40
0.003
 41
0.003
  0
LWPOLYLINE
  5
7A
100
AcDbEntity
  8
0
 62
   254
100
AcDbPolyline
 90
        2
 70
     0
 39
0.003
 10
0.920213
 20
0.836425
 40
0.003
 41
0.003
 10
0.912717
 20
0.854031
 40
0.003
 41
0.003
  0
LWPOLYLINE
  5
7B
100
AcDbEntity
  8
0
 62
   254
100
AcDbPolyline
 90
        2
 70
     0
 39
0.003
 10
0.912717
 20
0.854031
 40
0.003
 41
0.003
 10
0.267122
 20
0.475201
 40
0.003
 41
0.003
  0
LWPOLYLINE
  5
7C
100
AcDbEntity
  8
0
 62
   254
100
AcDbPolyline
 90
        2
 70
     0
 39
0.003
 10
0.267122
 20
0.475201
 40
0.003
 41
0.003
 10
0.274618
 20
0.457594
 40
0.003
 41
0.003
  0
LWPOLYLINE
  5
7D
100
AcDbEntity
  8
0
 62
   254
100
AcDbPolyline
 90
        2
 70
     0
 39
0.003
 10
0.267122
 20
0.475201
 40
0.003
 41
0.003
 10
0.912717
 20
0.854031
 40
0.003
 41
0.003
  0
LWPOLYLINE
  5
7E
100
AcDbEntity
  8
0
 62
   254
100
AcDbPolyline
 90
        2
 70
     0
 39
0.003
 10
0.912717
 20
0.854031
 40
0.003
 41
0.003
 10
0.904098
 20
0.871197
 40
0.003
 41
0.003
  0
LWPOLYLINE
  5
7F
100
AcDbEntity
  8
0
 62
   254
100
AcDbPolyline
 90
        2
 70
     0
 39
0.003
 10
0.904098
 20
0.871197
 40
0.003
 41
0.003
 10
0.258504
 20
0.492366
 40
0.003
 41
0.003
  0
LWPOLYLINE
  5
80
100
AcDbEntity
  8
0
 62
   254
100
AcDbPolyline
 90
        2
 70
     0
 39
0.003
 10
0.258504
 20
0.492366
 40
0.003
 41
0.003
 10
0.267122
 20
0.475201
 40
0.003
 41
0.003
  0
LWPOLYLINE
  5
81
100
AcDbEntity
  8
0
 62
   254
100
AcDbPolyline
 90
        2
 70
     0
 39
0.003
 10
0.258504
 20
0.492366
 40
0.003
 41
0.003
 10
0.904098
 20
0.871197
 40
0.003
 41
0.003
  0
LWPOLYLINE
  5
82
100
AcDbEntity
  8
0
 62
   254
100
AcDbPolyline
 90
        2
 70
     0
 39
0.003
 10
0.904098
 20
0.871197
 40
0.003
 41
0.003
 10
0.894409
 20
0.887815
 40
0.003
 41
0.003
  0
LWPOLYLINE
  5
83
100
AcDbEntity
  8
0
 62
   254
100
AcDbPolyline
 90
        2
 70
     0
 39
0.003
 10
0.894409
 20
0.887815
 40
0.003
 41
0.003
 10
0.248815
 20
0.508984
 40
0.003
 41
0.003
  0
LWPOLYLINE
  5
84
100
AcDbEntity
  8
0
 62
   254
100
AcDbPolyline
 90
        2
 70
     0
 39
0.003
 10
0.248815
 20
0.508984
 40
0.003
 41
0.003
 10
0.258504
 20
0.492366
 40
0.003
 41
0.003
  0
LWPOLYLINE
  5
85
100
AcDbEntity
  8
0
 62
   254
100
AcDbPolyline
 90
        2
 70
     0
 39
0.003
 10
0.248815
 20
0.508984
 40
0.003
 41
0.003
 10
0.894409
 20
0.887815
 40
0.003
 41
0.003
  0
LWPOLYLINE
  5
86
100
AcDbEntity
  8
0
 62
   254
100
AcDbPolyline
 90
        2
 70
     0
 39
0.003
 10
0.894409
 20
0.887815
 40
0.003
 41
0.003
 10
0.883713
 20
0.903799
 40
0.003
 41
0.003
  0
LWPOLYLINE
  5
87
100
AcDbEntity
  8
0
 62
   254
100
AcDbPolyline
 90
        2
 70
     0
 39
0.003
 10
0.883713
 20
0.903799
 40
0.003
 41
0.003
 10
0.238118
 20
0.524969
 40
0.003
 41
0.003
  0
LWPOLYLINE
  5
88
100
AcDbEntity
  8
0
 62
   254
100
AcDbPolyline
 90
        2
 70
     0
 39
0.003
 10
0.238118
 20
0.524969
 40
0.003
 41
0.003
 10
0.248815
 20
0.508984
 40
0.003
 41
0.003
  0
LWPOLYLINE
  5
89
100
AcDbEntity
  8
0
 62
   254
100
AcDbPolyline
 90
        2
 70
     0
 39
0.003
 10
0.238118
 20
0.524969
 40
0.003
 41
0.003
 10
0.883713
 20
0.903799
 40
0.003
 41
0.003
  0
LWPOLYLINE
  5
8A
100
AcDbEntity
  8
0
 62
   254
100
AcDbPolyline
 90
        2
 70
     0
 39
0.003
 10
0.883713
 20
0.903799
 40
0.003
 41
0.003
 10
0.872051
 20
0.919031
 40
0.003
 41
0.003
  0
LWPOLYLINE
  5
8B
100
AcDbEntity
  8
0
 62
   254
100
AcDbPolyline
 90
        2
 70
     0
 39
0.003
 10
0.872051
 20
0.919031
 40
0.003
 41
0.003
 10
0.226457
 20
0.540201
 40
0.003
 41
0.003
  0
LWPOLYLINE
  5
8C
100
AcDbEntity
  8
0
 62
   254
100
AcDbPolyline
 90
        2
 70
     0
 39
0.003
 10
0.226457
 20
0.540201
 40
0.003
 41
0.003
 10
0.238118
 20
0.524969
 40
0.003
 41
0.003
  0
LWPOLYLINE
  5
8D
100
AcDbEntity
  8
0
 62
   254
100
AcDbPolyline
 90
        2
 70
     0
 39
0.003
 10
0.226457
 20
0.540201
 40
0.003
 41
0.003
 10
0.872051
 20
0.919031
 40
0.003
 41
0.003
  0
LWPOLYLINE
  5
8E
100
AcDbEntity
  8
0
 62
   254
100
AcDbPolyline
 90
        2
 70
     0
 39
0.003
 10
0.872051
 20
0.919031
 40
0.003
 41
0.003
 10
0.859504
 20
0.933425
 40
0.003
 41
0.003
  0
LWPOLYLINE
  5
8F
100
AcDbEntity
  8
0
 62
   254
100
AcDbPolyline
 90
        2
 70
     0
 39
0.003
 10
0.859504
 20
0.933425
 40
0.003
 41
0.003
 10
0.213909
 20
0.554594
 40
0.003
 41
0.003
  0
LWPOLYLINE
  5
90
100
AcDbEntity
  8
0
 62
   254
100
AcDbPolyline
 90
        2
 70
     0
 39
0.003
 10
0.213909
 20
0.554594
 40
0.003
 41
0.003
 10
0.226457
 20
0.540201
 40
0.003
 41
0.003
  0
LWPOLYLINE
  5
91
100
AcDbEntity
  8
0
 62
   254
100
AcDbPolyline
 90
        2
 70
     0
 39
0.003
 10
0.213909
 20
0.554594
 40
0.003
 41
0.003
 10
0.859504
 20
0.933425
 40
0.003
 41
0.003
  0
LWPOLYLINE
  5
92
100
AcDbEntity
  8
0
 62
   254
100
AcDbPolyline
 90
        2
 70
     0
 39
0.003
 10
0.859504
 20
0.933425
 40
0.003
 41
0.003
 10
0.84611
 20
0.946878
 40
0.003
 41
0.003
  0
LWPOLYLINE
  5
93
100
AcDbEntity
  8
0
 62
   254
100
AcDbPolyline
 90
        2
 70
     0
 39
0.003
 10
0.84611
 20
0.946878
 40
0.003
 41
0.003
 10
0.200516
 20
0.568047
 40
0.003
 41
0.003
  0
LWPOLYLINE
  5
94
100
AcDbEntity
  8
0
 62
   254
100
AcDbPolyline
 90
        2
 70
     0
 39
0.003
 10
0.200516
 20
0.568047
 40
0.003
 41
0.003
 10
0.213909
 20
0.554594
 40
0.003
 41
0.003
  0
LWPOLYLINE
  5
95
100
AcDbEntity
  8
0
 62
   254
100
AcDbPolyline
 90
        2
 70
     0
 39
0.003
 10
0.200516
 20
0.568047
 40
0.003
 41
0.003
 10
0.84611
 20
0.946878
 40
0.003
 41
0.003
  0
LWPOLYLINE
  5
96
100
AcDbEntity
  8
0
 62
   254
100
AcDbPolyline
 90
        2
 70
     0
 39
0.003
 10
0.84611
 20
0.946878
 40
0.003
 41
0.003
 10
0.831945
 20
0.959299
 40
0.003
 41
0.003
  0
LWPOLYLINE
  5
97
100
AcDbEntity
  8
0
 62
   254
100
AcDbPolyline
 90
        2
 70
     0
 39
0.003
 10
0.831945
 20
0.959299
 40
0.003
 41
0.003
 10
0.18635
 20
0.580469
 40
0.003
 41
0.003
  0
LWPOLYLINE
  5
98
100
AcDbEntity
  8
0
 62
   254
100
AcDbPolyline
 90
        2
 70
     0
 39
0.003
 10
0.18635
 20
0.580469
 40
0.003
 41
0.003
 10
0.200516
 20
0.568047
 40
0.003
 41
0.003
  0
LWPOLYLINE
  5
99
100
AcDbEntity
  8
0
 62
   254
100
AcDbPolyline
 90
        2
 70
     0
 39
0.003
 10
0.18635
 20
0.580469
 40
0.003
 41
0.003
 10
0.831945
 20
0.959299
 40
0.003
 41
0.003
  0
LWPOLYLINE
  5
9A
100
AcDbEntity
  8
0
 62
   254
100
AcDbPolyline
 90
        2
 70
     0
 39
0.003
 10
0.831945
 20
0.959299
 40
0.003
 41
0.003
 10
0.817051
 20
0.970575
 40
0.003
 41
0.003
  0
LWPOLYLINE
  5
9B
100
AcDbEntity
  8
0
 62
   254
100
AcDbPolyline
 90
        2
 70
     0
 39
0.003
 10
0.817051
 20
0.970575
 40
0.003
 41
0.003
 10
0.171457
 20
0.591744
 40
0.003
 41
0.003
  0
LWPOLYLINE
  5
9C
100
AcDbEntity
  8
0
 62
   254
100
AcDbPolyline
 90
        2
 70
     0
 39
0.003
 10
0.171457
 20
0.591744
 40
0.003
 41
0.003
 10
0.18635
 20
0.580469
 40
0.003
 41
0.003
  0
LWPOLYLINE
  5
9D
100
AcDbEntity
  8
0
 62
   254
100
AcDbPolyline
 90
        2
 70
     0
 39
0.003
 10
0.171457
 20
0.591744
 40
0.003
 41
0.003
 10
0.817051
 20
0.970575
 40
0.003
 41
0.003
  0
LWPOLYLINE
  5
9E
100
AcDbEntity
  8
0
 62
   254
100
AcDbPolyline
 90
        2
 70
     0
 39
0.003
 10
0.817051
 20
0.970575
 40
0.003
 41
0.003
 10
0.8015
 20
0.980618
 40
0.003
 41
0.003
  0
LWPOLYLINE
  5
9F
100
AcDbEntity
  8
0
 62
   254
100
AcDbPolyline
 90
        2
 70
     0
 39
0.003
 10
0.8015
 20
0.980618
 40
0.003
 41
0.003
 10
0.155906
 20
0.601787
 40
0.003
 41
0.003
  0
LWPOLYLINE
  5
A0
100
AcDbEntity
  8
0
 62
   254
100
AcDbPolyline
 90
        2
 70
     0
 39
0.003
 10
0.155906
 20
0.601787
 40
0.003
 41
0.003
 10
0.171457
 20
0.591744
 40
0.003
 41
0.003
  0
LWPOLYLINE
  5
A1
100
AcDbEntity
  8
0
 62
   254
100
AcDbPolyline
 90
        2
 70
     0
 39
0.003
 10
0.155906
 20
0.601787
 40
0.003
 41
0.003
 10
0.8015
 20
0.980618
 40
0.003
 41
0.003
  0
LWPOLYLINE
  5
A2
100
AcDbEntity
  8
0
 62
   254
100
AcDbPolyline
 90
        2
 70
     0
 39
0.003
 10
0.8015
 20
0.980618
 40
0.003
 41
0.003
 10
0.785343
 20
0.989327
 40
0.003
 41
0.003
  0
LWPOLYLINE
  5
A3
100
AcDbEntity
  8
0
 62
   254
100
AcDbPolyline
 90
        2
 70
     0
 39
0.003
 10
0.785343
 20
0.989327
 40
0.003
 41
0.003
 10
0.139748
 20
0.610496
 40
0.003
 41
0.003
  0
LWPOLYLINE
  5
A4
100
AcDbEntity
  8
0
 62
   254
100
AcDbPolyline
 90
        2
 70
     0
 39
0.003
 10
0.139748
 20
0.610496
 40
0.003
 41
0.003
 10
0.155906
 20
0.601787
 40
0.003
 41
0.003
  0
LWPOLYLINE
  5
A5
100
AcDbEntity
  8
0
 62
     9
100
AcDbPolyline
 90
        2
 70
     0
 39
0.003
 10
0.139748
 20
0.610496
 40
0.003
 41
0.003
 10
0.785343
 20
0.989327
 40
0.003
 41
0.003
  0
LWPOLYLINE
  5
A6
100
AcDbEntity
  8
0
 62
     9
100
AcDbPolyline
 90
        2
 70
     0
 39
0.003
 10
0.785343
 20
0.989327
 40
0.003
 41
0.003
 10
0.768638
 20
0.996606
 40
0.003
 41
0.003
  0
LWPOLYLINE
  5
A7
100
AcDbEntity
  8
0
 62
     9
100
AcDbPolyline
 90
        2
 70
     0
 39
0.003
 10
0.768638
 20
0.996606
 40
0.003
 41
0.003
 10
0.123043
 20
0.617776
 40
0.003
 41
0.003
  0
LWPOLYLINE
  5
A8
100
AcDbEntity
  8
0
 62
     9
100
AcDbPolyline
 90
        2
 70
     0
 39
0.003
 10
0.123043
 20
0.617776
 40
0.003
 41
0.003
 10
0.139748
 20
0.610496
 40
0.003
 41
0.003
  0
LWPOLYLINE
  5
A9
100
AcDbEntity
  8
0
 62
     0
100
AcDbPolyline
 90
        2
 70
     0
 39
0.003
 10
0.212059
 20
0.207232
 40
0.003
 41
0.003
 10
0.857654
 20
0.586063
 40
0.003
 41
0.003
  0
LWPOLYLINE
  5
AA
100
AcDbEntity
  8
0
 62
     0
100
AcDbPolyline
 90
        2
 70
     0
 39
0.003
 10
0.857654
 20
0.586063
 40
0.003
 41
0.003
 10
0.874063
 20
0.598492
 40
0.003
 41
0.003
  0
LWPOLYLINE
  5
AB
100
AcDbEntity
  8
0
 62
     0
100
AcDbPolyline
 90
        2
 70
     0
 39
0.003
 10
0.874063
 20
0.598492
 40
0.003
 41
0.003
 10
0.888472
 20
0.611953
 40
0.003
 41
0.003
  0
LWPOLYLINE
  5
AC
100
AcDbEntity
  8
0
 62
     0
100
AcDbPolyline
 90
        2
 70
     0
 39
0.003
 10
0.888472
 20
0.611953
 40
0.003
 41
0.003
 10
0.900941
 20
0.626362
 40
0.003
 41
0.003
  0
LWPOLYLINE
  5
AD
100
AcDbEntity
  8
0
 62
     0
100
AcDbPolyline
 90
        2
 70
     0
 39
0.003
 10
0.900941
 20
0.626362
 40
0.003
 41
0.003
 10
0.911516
 20
0.641598
 40
0.003
 41
0.003
  0
LWPOLYLINE
  5
AE
100
AcDbEntity
  8
0
 62
     0
100
AcDbPolyline
 90
        2
 70
     0
 39
0.003
 10
0.911516
 20
0.641598
 40
0.003
 41
0.003
 10
0.920272
 20
0.657583
 40
0.003
 41
0.003
  0
LWPOLYLINE
  5
AF
100
AcDbEntity
  8
0
 62
     0
100
AcDbPolyline
 90
        2
 70
     0
 39
0.003
 10
0.920272
 20
0.657583
 40
0.003
 41
0.003
 10
0.92726
 20
0.674209
 40
0.003
 41
0.003
  0
LWPOLYLINE
  5
B0
100
AcDbEntity
  8
0
 62
     0
100
AcDbPolyline
 90
        2
 70
     0
 39
0.003
 10
0.92726
 20
0.674209
 40
0.003
 41
0.003
 10
0.932543
 20
0.691378
 40
0.003
 41
0.003
  0
LWPOLYLINE
  5
B1
100
AcDbEntity
  8
0
 62
     0
100
AcDbPolyline
 90
        2
 70
     0
 39
0.003
 10
0.932543
 20
0.691378
 40
0.003
 41
0.003
 10
0.936165
 20
0.708988
 40
0.003
 41
0.003
  0
LWPOLYLINE
  5
B2
100
AcDbEntity
  8
0
 62
     0
100
AcDbPolyline
 90
        2
 70
     0
 39
0.003
 10
0.936165
 20
0.708988
 40
0.003
 41
0.003
 10
0.938205
 20
0.726953
 40
0.003
 41
0.003
  0
LWPOLYLINE
  5
B3
100
AcDbEntity
  8
0
 62
     0
100
AcDbPolyline
 90
        2
 70
     0
 39
0.003
 10
0.938205
 20
0.726953
 40
0.003
 41
0.003
 10
0.938705
 20
0.745157
 40
0.003
 41
0.003
  0
LWPOLYLINE
  5
B4
100
AcDbEntity
  8
0
 62
     0
100
AcDbPolyline
 90
        2
 70
     0
 39
0.003
 10
0.938705
 20
0.745157
 40
0.003
 41
0.003
 10
0.937732
 20
0.763516
 40
0.003
 41
0.003
  0
LWPOLYLINE
  5
B5
100
AcDbEntity
  8
0
 62
     0
100
AcDbPolyline
 90
        2
 70
     0
 39
0.003
 10
0.937732
 20
0.763516
 40
0.003
 41
0.003
 10
0.935331
 20
0.781913
 40
0.003
 41
0.003
  0
LWPOLYLINE
  5
B6
100
AcDbEntity
  8
0
 62
     0
100
AcDbPolyline
 90
        2
 70
     0
 39
0.003
 10
0.935331
 20
0.781913
 40
0.003
 41
0.003
 10
0.931575
 20
0.800264
 40
0.003
 41
0.003
  0
LWPOLYLINE
  5
B7
100
AcDbEntity
  8
0
 62
     0
100
AcDbPolyline
 90
        2
 70
     0
 39
0.003
 10
0.931575
 20
0.800264
 40
0.003
 41
0.003
 10
0.926512
 20
0.818465
 40
0.003
 41
0.003
  0
LWPOLYLINE
  5
B8
100
AcDbEntity
  8
0
 62
     0
100
AcDbPolyline
 90
        2
 70
     0
 39
0.003
 10
0.926512
 20
0.818465
 40
0.003
 41
0.003
 10
0.920213
 20
0.836425
 40
0.003
 41
0.003
  0
LWPOLYLINE
  5
B9
100
AcDbEntity
  8
0
 62
     0
100
AcDbPolyline
 90
        2
 70
     0
 39
0.003
 10
0.920213
 20
0.836425
 40
0.003
 41
0.003
 10
0.912717
 20
0.854031
 40
0.003
 41
0.003
  0
LWPOLYLINE
  5
BA
100
AcDbEntity
  8
0
 62
     0
100
AcDbPolyline
 90
        2
 70
     0
 39
0.003
 10
0.912717
 20
0.854031
 40
0.003
 41
0.003
 10
0.904098
 20
0.871197
 40
0.003
 41
0.003
  0
LWPOLYLINE
  5
BB
100
AcDbEntity
  8
0
 62
     0
100
AcDbPolyline
 90
        2
 70
     0
 39
0.003
 10
0.904098
 20
0.871197
 40
0.003
 41
0.003
 10
0.894409
 20
0.887815
 40
0.003
 41
0.003
  0
LWPOLYLINE
  5
BC
100
AcDbEntity
  8
0
 62
     0
100
AcDbPolyline
 90
        2
 70
     0
 39
0.003
 10
0.894409
 20
0.887815
 40
0.003
 41
0.003
 10
0.883713
 20
0.903799
 40
0.003
 41
0.003
  0
LWPOLYLINE
  5
BD
100
AcDbEntity
  8
0
 62
     0
100
AcDbPolyline
 90
        2
 70
     0
 39
0.003
 10
0.883713
 20
0.903799
 40
0.003
 41
0.003
 10
0.872051
 20
0.919031
 40
0.003
 41
0.003
  0
LWPOLYLINE
  5
BE
100
AcDbEntity
  8
0
 62
     0
100
AcDbPolyline
 90
        2
 70
     0
 39
0.003
 10
0.872051
 20
0.919031
 40
0.003
 41
0.003
 10
0.859504
 20
0.933425
 40
0.003
 41
0.003
  0
LWPOLYLINE
  5
BF
100
AcDbEntity
  8
0
 62
     0
100
AcDbPolyline
 90
        2
 70
     0
 39
0.003
 10
0.859504
 20
0.933425
 40
0.003
 41
0.003
 10
0.84611
 20
0.946878
 40
0.003
 41
0.003
  0
LWPOLYLINE
  5
C0
100
AcDbEntity
  8
0
 62
     0
100
AcDbPolyline
 90
        2
 70
     0
 39
0.003
 10
0.84611
 20
0.946878
 40
0.003
 41
0.003
 10
0.831945
 20
0.959299
 40
0.003
 41
0.003
  0
LWPOLYLINE
  5
C1
100
AcDbEntity
  8
0
 62
     0
100
AcDbPolyline
 90
        2
 70
     0
 39
0.003
 10
0.831945
 20
0.959299
 40
0.003
 41
0.003
 10
0.817051
 20
0.970575
 40
0.003
 41
0.003
  0
LWPOLYLINE
  5
C2
100
AcDbEntity
  8
0
 62
     0
100
AcDbPolyline
 90
        2
 70
     0
 39
0.003
 10
0.817051
 20
0.970575
 40
0.003
 41
0.003
 10
0.8015
 20
0.980618
 40
0.003
 41
0.003
  0
LWPOLYLINE
  5
C3
100
AcDbEntity
  8
0
 62
     0
100
AcDbPolyline
 90
        2
 70
     0
 39
0.003
 10
0.8015
 20
0.980618
 40
0.003
 41
0.003
 10
0.785343
 20
0.989327
 40
0.003
 41
0.003
  0
LWPOLYLINE
  5
C4
100
AcDbEntity
  8
0
 62
     0
100
AcDbPolyline
 90
        2
 70
     0
 39
0.003
 10
0.785343
 20
0.989327
 40
0.003
 41
0.003
 10
0.768638
 20
0.996606
 40
0.003
 41
0.003
  0
LWPOLYLINE
  5
C5
100
AcDbEntity
  8
0
 62
     0
100
AcDbPolyline
 90
        2
 70
     0
 39
0.003
 10
0.768638
 20
0.996606
 40
0.003
 41
0.003
 10
0.123043
 20
0.617776
 40
0.003
 41
0.003
  0
LWPOLYLINE
  5
C6
100
AcDbEntity
  8
0
 62
     0
100
AcDbPolyline
 90
        2
 70
     0
 39
0.003
 10
0.123043
 20
0.617776
 40
0.003
 41
0.003
 10
0.139748
 20
0.610496
 40
0.003
 41
0.003
  0
LWPOLYLINE
  5
C7
100
AcDbEntity
  8
0
 62
     0
100
AcDbPolyline
 90
        2
 70
     0
 39
0.003
 10
0.139748
 20
0.610496
 40
0.003
 41
0.003
 10
0.155906
 20
0.601787
 40
0.003
 41
0.003
  0
LWPOLYLINE
  5
C8
100
AcDbEntity
  8
0
 62
     0
100
AcDbPolyline
 90
        2
 70
     0
 39
0.003
 10
0.155906
 20
0.601787
 40
0.003
 41
0.003
 10
0.171457
 20
0.591744
 40
0.003
 41
0.003
  0
LWPOLYLINE
  5
C9
100
AcDbEntity
  8
0
 62
     0
100
AcDbPolyline
 90
        2
 70
     0
 39
0.003
 10
0.171457
 20
0.591744
 40
0.003
 41
0.003
 10
0.18635
 20
0.580469
 40
0.003
 41
0.003
  0
LWPOLYLINE
  5
CA
100
AcDbEntity
  8
0
 62
     0
100
AcDbPolyline
 90
        2
 70
     0
 39
0.003
 10
0.18635
 20
0.580469
 40
0.003
 41
0.003
 10
0.200516
 20
0.568047
 40
0.003
 41
0.003
  0
LWPOLYLINE
  5
CB
100
AcDbEntity
  8
0
 62
     0
100
AcDbPolyline
 90
        2
 70
     0
 39
0.003
 10
0.200516
 20
0.568047
 40
0.003
 41
0.003
 10
0.213909
 20
0.554594
 40
0.003
 41
0.003
  0
LWPOLYLINE
  5
CC
100
AcDbEntity
  8
0
 62
     0
100
AcDbPolyline
 90
        2
 70
     0
 39
0.003
 10
0.213909
 20
0.554594
 40
0.003
 41
0.003
 10
0.226457
 20
0.540201
 40
0.003
 41
0.003
  0
LWPOLYLINE
  5
CD
100
AcDbEntity
  8
0
 62
     0
100
AcDbPolyline
 90
        2
 70
     0
 39
0.003
 10
0.226457
 20
0.540201
 40
0.003
 41
0.003
 10
0.238118
 20
0.524969
 40
0.003
 41
0.003
  0
LWPOLYLINE
  5
CE
100
AcDbEntity
  8
0
 62
     0
100
AcDbPolyline
 90
        2
 70
     0
 39
0.003
 10
0.238118
 20
0.524969
 40
0.003
 41
0.003
 10
0.248815
 20
0.508984
 40
0.003
 41
0.003
  0
LWPOLYLINE
  5
CF
100
AcDbEntity
  8
0
 62
     0
100
AcDbPolyline
 90
        2
 70
     0
 39
0.003
 10
0.248815
 20
0.508984
 40
0.003
 41
0.003
 10
0.258504
 20
0.492366
 40
0.003
 41
0.003
  0
LWPOLYLINE
  5
D0
100
AcDbEntity
  8
0
 62
     0
100
AcDbPolyline
 90
        2
 70
     0
 39
0.003
 10
0.258504
 20
0.492366
 40
0.003
 41
0.003
 10
0.267122
 20
0.475201
 40
0.003
 41
0.003
  0
LWPOLYLINE
  5
D1
100
AcDbEntity
  8
0
 62
     0
100
AcDbPolyline
 90
        2
 70
     0
 39
0.003
 10
0.267122
 20
0.475201
 40
0.003
 41
0.003
 10
0.274618
 20
0.457594
 40
0.003
 41
0.003
  0
LWPOLYLINE
  5
D2
100
AcDbEntity
  8
0
 62
     0
100
AcDbPolyline
 90
        2
 70
     0
 39
0.003
 10
0.274618
 20
0.457594
 40
0.003
 41
0.003
 10
0.280917
 20
0.439634
 40
0.003
 41
0.003
  0
LWPOLYLINE
  5
D3
100
AcDbEntity
  8
0
 62
     0
100
AcDbPolyline
 90
        2
 70
     0
 39
0.003
 10
0.280917
 20
0.439634
 40
0.003
 41
0.003
 10
0.28598
 20
0.421433
 40
0.003
 41
0.003
  0
LWPOLYLINE
  5
D4
100
AcDbEntity
  8
0
 62
     0
100
AcDbPolyline
 90
        2
 70
     0
 39
0.003
 10
0.28598
 20
0.421433
 40
0.003
 41
0.003
 10
0.289736
 20
0.403083
 40
0.003
 41
0.003
  0
LWPOLYLINE
  5
D5
100
AcDbEntity
  8
0
 62
     0
100
AcDbPolyline
 90
        2
 70
     0
 39
0.003
 10
0.289736
 20
0.403083
 40
0.003
 41
0.003
 10
0.292138
 20
0.384685
 40
0.003
 41
0.003
  0
LWPOLYLINE
  5
D6
100
AcDbEntity
  8
0
 62
     0
100
AcDbPolyline
 90
        2
 70
     0
 39
0.003
 10
0.292138
 20
0.384685
 40
0.003
 41
0.003
 10
0.29311
 20
0.366327
 40
0.003
 41
0.003
  0
LWPOLYLINE
  5
D7
100
AcDbEntity
  8
0
 62
     0
100
AcDbPolyline
 90
        2
 70
     0
 39
0.003
 10
0.29311
 20
0.366327
 40
0.003
 41
0.003
 10
0.29261
 20
0.348122
 40
0.003
 41
0.003
  0
LWPOLYLINE
  5
D8
100
AcDbEntity
  8
0
 62
     0
100
AcDbPolyline
 90
        2
 70
     0
 39
0.003
 10
0.29261
 20
0.348122
 40
0.003
 41
0.003
 10
0.290571
 20
0.330157
 40
0.003
 41
0.003
  0
LWPOLYLINE
  5
D9
100
AcDbEntity
  8
0
 62
     0
100
AcDbPolyline
 90
        2
 70
     0
 39
0.003
 10
0.290571
 20
0.330157
 40
0.003
 41
0.003
 10
0.286949
 20
0.312547
 40
0.003
 41
0.003
  0
LWPOLYLINE
  5
DA
100
AcDbEntity
  8
0
 62
     0
100
AcDbPolyline
 90
        2
 70
     0
 39
0.003
 10
0.286949
 20
0.312547
 40
0.003
 41
0.003
 10
0.281665
 20
0.295378
 40
0.003
 41
0.003
  0
LWPOLYLINE
  5
DB
100
AcDbEntity
  8
0
 62
     0
100
AcDbPolyline
 90
        2
 70
     0
 39
0.003
 10
0.281665
 20
0.295378
 40
0.003
 41
0.003
 10
0.274677
 20
0.278752
 40
0.003
 41
0.003
  0
LWPOLYLINE
  5
DC
100
AcDbEntity
  8
0
 62
     0
100
AcDbPolyline
 90
        2
 70
     0
 39
0.003
 10
0.274677
 20
0.278752
 40
0.003
 41
0.003
 10
0.265921
 20
0.262768
 40
0.003
 41
0.003
  0
LWPOLYLINE
  5
DD
100
AcDbEntity
  8
0
 62
     0
100
AcDbPolyline
 90
        2
 70
     0
 39
0.003
 10
0.265921
 20
0.262768
 40
0.003
 41
0.003
 10
0.255346
 20
0.247531
 40
0.003
 41
0.003
  0
LWPOLYLINE
  5
DE
100
AcDbEntity
  8
0
 62
     0
100
AcDbPolyline
 90
        2
 70
     0
 39
0.003
 10
0.255346
 20
0.247531
 40
0.003
 41
0.003
 10
0.242878
 20
0.233122
 40
0.003
 41
0.003
  0
LWPOLYLINE
  5
DF
100
AcDbEntity
  8
0
 62
     0
100
AcDbPolyline
 90
        2
 70
     0
 39
0.003
 10
0.242878
 20
0.233122
 40
0.003
 41
0.003
 10
0.228469
 20
0.219661
 40
0.003
 41
0.003
  0
LWPOLYLINE
  5
E0
100
AcDbEntity
  8
0
 62
     0
100
AcDbPolyline
 90
        2
 70
     0
 39
0.003
 10
0.228469
 20
0.219661
 40
0.003
 41
0.003
 10
0.212059
 20
0.207232
 40
0.003
 41
0.003
  0
LWPOLYLINE
  5
E1
100
AcDbEntity
  8
0
 62
     9
100
AcDbPolyline
 90
        2
 70
     0
 39
0.003
 10
0.123043
 20
0.617776
 40
0.003
 41
0.003
 10
0.768638
 20
0.996606
 40
0.003
 41
0.003
  0
LWPOLYLINE
  5
E2
100
AcDbEntity
  8
0
 62
     9
100
AcDbPolyline
 90
        2
 70
     0
 39
0.003
 10
0.768638
 20
0.996606
 40
0.003
 41
0.003
 10
0.752028
 20
1.002972
 40
0.003
 41
0.003
  0
LWPOLYLINE
  5
E3
100
AcDbEntity
  8
0
 62
     9
100
AcDbPolyline
 90
        2
 70
     0
 39
0.003
 10
0.752028
 20
1.002972
 40
0.003
 41
0.003
 10
0.106433
 20
0.624142
 40
0.003
 41
0.003
  0
LWPOLYLINE
  5
E4
100
AcDbEntity
  8
0
 62
     9
100
AcDbPolyline
 90
        2
 70
     0
 39
0.003
 10
0.106433
 20
0.624142
 40
0.003
 41
0.003
 10
0.123043
 20
0.617776
 40
0.003
 41
0.003
  0
LWPOLYLINE
  5
E5
100
AcDbEntity
  8
0
 62
     9
100
AcDbPolyline
 90
        2
 70
     0
 39
0.003
 10
0.106433
 20
0.624142
 40
0.003
 41
0.003
 10
0.752028
 20
1.002972
 40
0.003
 41
0.003
  0
LWPOLYLINE
  5
E6
100
AcDbEntity
  8
0
 62
     9
100
AcDbPolyline
 90
        2
 70
     0
 39
0.003
 10
0.752028
 20
1.002972
 40
0.003
 41
0.003
 10
0.736126
 20
1.009075
 40
0.003
 41
0.003
  0
LWPOLYLINE
  5
E7
100
AcDbEntity
  8
0
 62
     9
100
AcDbPolyline
 90
        2
 70
     0
 39
0.003
 10
0.736126
 20
1.009075
 40
0.003
 41
0.003
 10
0.090531
 20
0.630244
 40
0.003
 41
0.003
  0
LWPOLYLINE
  5
E8
100
AcDbEntity
  8
0
 62
     9
100
AcDbPolyline
 90
        2
 70
     0
 39
0.003
 10
0.090531
 20
0.630244
 40
0.003
 41
0.003
 10
0.106433
 20
0.624142
 40
0.003
 41
0.003
  0
LWPOLYLINE
  5
E9
100
AcDbEntity
  8
0
 62
     9
100
AcDbPolyline
 90
        2
 70
     0
 39
0.003
 10
0.090531
 20
0.630244
 40
0.003
 41
0.003
 10
0.736126
 20
1.009075
 40
0.003
 41
0.003
  0
LWPOLYLINE
  5
EA
100
AcDbEntity
  8
0
 62
     9
100
AcDbPolyline
 90
        2
 70
     0
 39
0.003
 10
0.736126
 20
1.009075
 40
0.003
 41
0.003
 10
0.720917
 20
1.014941
 40
0.003
 41
0.003
  0
LWPOLYLINE
  5
EB
100
AcDbEntity
  8
0
 62
     9
100
AcDbPolyline
 90
        2
 70
     0
 39
0.003
 10
0.720917
 20
1.014941
 40
0.003
 41
0.003
 10
0.075323
 20
0.63611
 40
0.003
 41
0.003
  0
LWPOLYLINE
  5
EC
100
AcDbEntity
  8
0
 62
     9
100
AcDbPolyline
 90
        2
 70
     0
 39
0.003
 10
0.075323
 20
0.63611
 40
0.003
 41
0.003
 10
0.090531
 20
0.630244
 40
0.003
 41
0.003
  0
LWPOLYLINE
  5
ED
100
AcDbEntity
  8
0
 62
     9
100
AcDbPolyline
 90
        2
 70
     0
 39
0.003
 10
0.075323
 20
0.63611
 40
0.003
 41
0.003
 10
0.720917
 20
1.014941
 40
0.003
 41
0.003
  0
LWPOLYLINE
  5
EE
100
AcDbEntity
  8
0
 62
     9
100
AcDbPolyline
 90
        2
 70
     0
 39
0.003
 10
0.720917
 20
1.014941
 40
0.003
 41
0.003
 10
0.706394
 20
1.020626
 40
0.003
 41
0.003
  0
LWPOLYLINE
  5
EF
100
AcDbEntity
  8
0
 62
     9
100
AcDbPolyline
 90
        2
 70
     0
 39
0.003
 10
0.706394
 20
1.020626
 40
0.003
 41
0.003
 10
0.060799
 20
0.641795
 40
0.003
 41
0.003
  0
LWPOLYLINE
  5
F0
100
AcDbEntity
  8
0
 62
     9
100
AcDbPolyline
 90
        2
 70
     0
 39
0.003
 10
0.060799
 20
0.641795
 40
0.003
 41
0.003
 10
0.075323
 20
0.63611
 40
0.003
 41
0.003
  0
LWPOLYLINE
  5
F1
100
AcDbEntity
  8
0
 62
     9
100
AcDbPolyline
 90
        2
 70
     0
 39
0.003
 10
0.060799
 20
0.641795
 40
0.003
 41
0.003
 10
0.706394
 20
1.020626
 40
0.003
 41
0.003
  0
LWPOLYLINE
  5
F2
100
AcDbEntity
  8
0
 62
     9
100
AcDbPolyline
 90
        2
 70
     0
 39
0.003
 10
0.706394
 20
1.020626
 40
0.003
 41
0.003
 10
0.692531
 20
1.026154
 40
0.003
 41
0.003
  0
LWPOLYLINE
  5
F3
100
AcDbEntity
  8
0
 62
     9
100
AcDbPolyline
 90
        2
 70
     0
 39
0.003
 10
0.692531
 20
1.026154
 40
0.003
 41
0.003
 10
0.046937
 20
0.647323
 40
0.003
 41
0.003
  0
LWPOLYLINE
  5
F4
100
AcDbEntity
  8
0
 62
     9
100
AcDbPolyline
 90
        2
 70
     0
 39
0.003
 10
0.046937
 20
0.647323
 40
0.003
 41
0.003
 10
0.060799
 20
0.641795
 40
0.003
 41
0.003
  0
LWPOLYLINE
  5
F5
100
AcDbEntity
  8
0
 62
     9
100
AcDbPolyline
 90
        2
 70
     0
 39
0.003
 10
0.046937
 20
0.647323
 40
0.003
 41
0.003
 10
0.692531
 20
1.026154
 40
0.003
 41
0.003
  0
LWPOLYLINE
  5
F6
100
AcDbEntity
  8
0
 62
     9
100
AcDbPolyline
 90
        2
 70
     0
 39
0.003
 10
0.692531
 20
1.026154
 40
0.003
 41
0.003
 10
0.679331
 20
1.031575
 40
0.003
 41
0.003
  0
LWPOLYLINE
  5
F7
100
AcDbEntity
  8
0
 62
     9
100
AcDbPolyline
 90
        2
 70
     0
 39
0.003
 10
0.679331
 20
1.031575
 40
0.003
 41
0.003
 10
0.033736
 20
0.652744
 40
0.003
 41
0.003
  0
LWPOLYLINE
  5
F8
100
AcDbEntity
  8
0
 62
     9
100
AcDbPolyline
 90
        2
 70
     0
 39
0.003
 10
0.033736
 20
0.652744
 40
0.003
 41
0.003
 10
0.046937
 20
0.647323
 40
0.003
 41
0.003
  0
LWPOLYLINE
  5
F9
100
AcDbEntity
  8
0
 62
     9
100
AcDbPolyline
 90
        2
 70
     0
 39
0.003
 10
0.033736
 20
0.652744
 40
0.003
 41
0.003
 10
0.679331
 20
1.031575
 40
0.003
 41
0.003
  0
LWPOLYLINE
  5
FA
100
AcDbEntity
  8
0
 62
     9
100
AcDbPolyline
 90
        2
 70
     0
 39
0.003
 10
0.679331
 20
1.031575
 40
0.003
 41
0.003
 10
0.666776
 20
1.036921
 40
0.003
 41
0.003
  0
LWPOLYLINE
  5
FB
100
AcDbEntity
  8
0
 62
     9
100
AcDbPolyline
 90
        2
 70
     0
 39
0.003
 10
0.666776
 20
1.036921
 40
0.003
 41
0.003
 10
0.021181
 20
0.658091
 40
0.003
 41
0.003
  0
LWPOLYLINE
  5
FC
100
AcDbEntity
  8
0
 62
     9
100
AcDbPolyline
 90
        2
 70
     0
 39
0.003
 10
0.021181
 20
0.658091
 40
0.003
 41
0.003
 10
0.033736
 20
0.652744
 40
0.003
 41
0.003
  0
LWPOLYLINE
  5
FD
100
AcDbEntity
  8
0
 62
     9
100
AcDbPolyline
 90
        2
 70
     0
 39
0.003
 10
0.021181
 20
0.658091
 40
0.003
 41
0.003
 10
0.666776
 20
1.036921
 40
0.003
 41
0.003
  0
LWPOLYLINE
  5
FE
100
AcDbEntity
  8
0
 62
     9
100
AcDbPolyline
 90
        2
 70
     0
 39
0.003
 10
0.666776
 20
1.036921
 40
0.003
 41
0.003
 10
0.654854
 20
1.042252
 40
0.003
 41
0.003
  0
LWPOLYLINE
  5
FF
100
AcDbEntity
  8
0
 62
     9
100
AcDbPolyline
 90
        2
 70
     0
 39
0.003
 10
0.654854
 20
1.042252
 40
0.003
 41
0.003
 10
0.00926
 20
0.663421
 40
0.003
 41
0.003
  0
LWPOLYLINE
  5
100
100
AcDbEntity
  8
0
 62
     9
100
AcDbPolyline
 90
        2
 70
     0
 39
0.003
 10
0.00926
 20
0.663421
 40
0.003
 41
0.003
 10
0.021181
 20
0.658091
 40
0.003
 41
0.003
  0
LWPOLYLINE
  5
101
100
AcDbEntity
  8
0
 62
     9
100
AcDbPolyline
 90
        2
 70
     0
 39
0.003
 10
0.00926
 20
0.663421
 40
0.003
 41
0.003
 10
0.654854
 20
1.042252
 40
0.003
 41
0.003
  0
LWPOLYLINE
  5
102
100
AcDbEntity
  8
0
 62
     9
100
AcDbPolyline
 90
        2
 70
     0
 39
0.003
 10
0.654854
 20
1.042252
 40
0.003
 41
0.003
 10
0.643551
 20
1.047583
 40
0.003
 41
0.003
  0
LWPOLYLINE
  5
103
100
AcDbEntity
  8
0
 62
     9
100
AcDbPolyline
 90
        2
 70
     0
 39
0.003
 10
0.643551
 20
1.047583
 40
0.003
 41
0.003
 10
-0.002043
 20
0.668752
 40
0.003
 41
0.003
  0
LWPOLYLINE
  5
104
100
AcDbEntity
  8
0
 62
     9
100
AcDbPolyline
 90
        2
 70
     0
 39
0.003
 10
-0.002043
 20
0.668752
 40
0.003
 41
0.003
 10
0.00926
 20
0.663421
 40
0.003
 41
0.003
  0
LWPOLYLINE
  5
105
100
AcDbEntity
  8
0
 62
     9
100
AcDbPolyline
 90
        2
 70
     0
 39
0.003
 10
-0.002043
 20
0.668752
 40
0.003
 41
0.003
 10
0.643551
 20
1.047583
 40
0.003
 41
0.003
  0
LWPOLYLINE
  5
106
100
AcDbEntity
  8
0
 62
     9
100
AcDbPolyline
 90
        2
 70
     0
 39
0.003
 10
0.643551
 20
1.047583
 40
0.003
 41
0.003
 10
0.632854
 20
1.052972
 40
0.003
 41
0.003
  0
LWPOLYLINE
  5
107
100
AcDbEntity
  8
0
 62
     9
100
AcDbPolyline
 90
        2
 70
     0
 39
0.003
 10
0.632854
 20
1.052972
 40
0.003
 41
0.003
 10
-0.01274
 20
0.674142
 40
0.003
 41
0.003
  0
LWPOLYLINE
  5
108
100
AcDbEntity
  8
0
 62
     9
100
AcDbPolyline
 90
        2
 70
     0
 39
0.003
 10
-0.01274
 20
0.674142
 40
0.003
 41
0.003
 10
-0.002043
 20
0.668752
 40
0.003
 41
0.003
  0
LWPOLYLINE
  5
109
100
AcDbEntity
  8
0
 62
   254
100
AcDbPolyline
 90
        2
 70
     0
 39
0.003
 10
-0.01274
 20
0.674142
 40
0.003
 41
0.003
 10
0.632854
 20
1.052972
 40
0.003
 41
0.003
  0
LWPOLYLINE
  5
10A
100
AcDbEntity
  8
0
 62
   254
100
AcDbPolyline
 90
        2
 70
     0
 39
0.003
 10
0.632854
 20
1.052972
 40
0.003
 41
0.003
 10
0.622752
 20
1.058453
 40
0.003
 41
0.003
  0
LWPOLYLINE
  5
10B
100
AcDbEntity
  8
0
 62
   254
100
AcDbPolyline
 90
        2
 70
     0
 39
0.003
 10
0.622752
 20
1.058453
 40
0.003
 41
0.003
 10
-0.022843
 20
0.679622
 40
0.003
 41
0.003
  0
LWPOLYLINE
  5
10C
100
AcDbEntity
  8
0
 62
   254
100
AcDbPolyline
 90
        2
 70
     0
 39
0.003
 10
-0.022843
 20
0.679622
 40
0.003
 41
0.003
 10
-0.01274
 20
0.674142
 40
0.003
 41
0.003
  0
LWPOLYLINE
  5
10D
100
AcDbEntity
  8
0
 62
   254
100
AcDbPolyline
 90
        2
 70
     0
 39
0.003
 10
-0.022843
 20
0.679622
 40
0.003
 41
0.003
 10
0.622752
 20
1.058453
 40
0.003
 41
0.003
  0
LWPOLYLINE
  5
10E
100
AcDbEntity
  8
0
 62
   254
100
AcDbPolyline
 90
        2
 70
     0
 39
0.003
 10
0.622752
 20
1.058453
 40
0.003
 41
0.003
 10
0.613224
 20
1.064075
 40
0.003
 41
0.003
  0
LWPOLYLINE
  5
10F
100
AcDbEntity
  8
0
 62
   254
100
AcDbPolyline
 90
        2
 70
     0
 39
0.003
 10
0.613224
 20
1.064075
 40
0.003
 41
0.003
 10
-0.03237
 20
0.685244
 40
0.003
 41
0.003
  0
LWPOLYLINE
  5
110
100
AcDbEntity
  8
0
 62
   254
100
AcDbPolyline
 90
        2
 70
     0
 39
0.003
 10
-0.03237
 20
0.685244
 40
0.003
 41
0.003
 10
-0.022843
 20
0.679622
 40
0.003
 41
0.003
  0
LWPOLYLINE
  5
111
100
AcDbEntity
  8
0
 62
   254
100
AcDbPolyline
 90
        2
 70
     0
 39
0.003
 10
-0.03237
 20
0.685244
 40
0.003
 41
0.003
 10
0.613224
 20
1.064075
 40
0.003
 41
0.003
  0
LWPOLYLINE
  5
112
100
AcDbEntity
  8
0
 62
   254
100
AcDbPolyline
 90
        2
 70
     0
 39
0.003
 10
0.613224
 20
1.064075
 40
0.003
 41
0.003
 10
0.604276
 20
1.069866
 40
0.003
 41
0.003
  0
LWPOLYLINE
  5
113
100
AcDbEntity
  8
0
 62
   254
100
AcDbPolyline
 90
        2
 70
     0
 39
0.003
 10
0.604276
 20
1.069866
 40
0.003
 41
0.003
 10
-0.041319
 20
0.691035
 40
0.003
 41
0.003
  0
LWPOLYLINE
  5
114
100
AcDbEntity
  8
0
 62
   254
100
AcDbPolyline
 90
        2
 70
     0
 39
0.003
 10
-0.041319
 20
0.691035
 40
0.003
 41
0.003
 10
-0.03237
 20
0.685244
 40
0.003
 41
0.003
  0
LWPOLYLINE
  5
115
100
AcDbEntity
  8
0
 62
   254
100
AcDbPolyline
 90
        2
 70
     0
 39
0.003
 10
-0.041319
 20
0.691035
 40
0.003
 41
0.003
 10
0.604276
 20
1.069866
 40
0.003
 41
0.003
  0
LWPOLYLINE
  5
116
100
AcDbEntity
  8
0
 62
   254
100
AcDbPolyline
 90
        2
 70
     0
 39
0.003
 10
0.604276
 20
1.069866
 40
0.003
 41
0.003
 10
0.595878
 20
1.075874
 40
0.003
 41
0.003
  0
LWPOLYLINE
  5
117
100
AcDbEntity
  8
0
 62
   254
100
AcDbPolyline
 90
        2
 70
     0
 39
0.003
 10
0.595878
 20
1.075874
 40
0.003
 41
0.003
 10
-0.049717
 20
0.697043
 40
0.003
 41
0.003
  0
LWPOLYLINE
  5
118
100
AcDbEntity
  8
0
 62
   254
100
AcDbPolyline
 90
        2
 70
     0
 39
0.003
 10
-0.049717
 20
0.697043
 40
0.003
 41
0.003
 10
-0.041319
 20
0.691035
 40
0.003
 41
0.003
  0
LWPOLYLINE
  5
119
100
AcDbEntity
  8
0
 62
   254
100
AcDbPolyline
 90
        2
 70
     0
 39
0.003
 10
-0.049717
 20
0.697043
 40
0.003
 41
0.003
 10
0.595878
 20
1.075874
 40
0.003
 41
0.003
  0
LWPOLYLINE
  5
11A
100
AcDbEntity
  8
0
 62
   254
100
AcDbPolyline
 90
        2
 70
     0
 39
0.003
 10
0.595878
 20
1.075874
 40
0.003
 41
0.003
 10
0.588028
 20
1.082134
 40
0.003
 41
0.003
  0
LWPOLYLINE
  5
11B
100
AcDbEntity
  8
0
 62
   254
100
AcDbPolyline
 90
        2
 70
     0
 39
0.003
 10
0.588028
 20
1.082134
 40
0.003
 41
0.003
 10
-0.057567
 20
0.703303
 40
0.003
 41
0.003
  0
LWPOLYLINE
  5
11C
100
AcDbEntity
  8
0
 62
   254
100
AcDbPolyline
 90
        2
 70
     0
 39
0.003
 10
-0.057567
 20
0.703303
 40
0.003
 41
0.003
 10
-0.049717
 20
0.697043
 40
0.003
 41
0.003
  0
LWPOLYLINE
  5
11D
100
AcDbEntity
  8
0
 62
   254
100
AcDbPolyline
 90
        2
 70
     0
 39
0.003
 10
-0.057567
 20
0.703303
 40
0.003
 41
0.003
 10
0.588028
 20
1.082134
 40
0.003
 41
0.003
  0
LWPOLYLINE
  5
11E
100
AcDbEntity
  8
0
 62
   254
100
AcDbPolyline
 90
        2
 70
     0
 39
0.003
 10
0.588028
 20
1.082134
 40
0.003
 41
0.003
 10
0.580705
 20
1.088701
 40
0.003
 41
0.003
  0
LWPOLYLINE
  5
11F
100
AcDbEntity
  8
0
 62
   254
100
AcDbPolyline
 90
        2
 70
     0
 39
0.003
 10
0.580705
 20
1.088701
 40
0.003
 41
0.003
 10
-0.06489
 20
0.70987
 40
0.003
 41
0.003
  0
LWPOLYLINE
  5
120
100
AcDbEntity
  8
0
 62
   254
100
AcDbPolyline
 90
        2
 70
     0
 39
0.003
 10
-0.06489
 20
0.70987
 40
0.003
 41
0.003
 10
-0.057567
 20
0.703303
 40
0.003
 41
0.003
  0
LWPOLYLINE
  5
121
100
AcDbEntity
  8
0
 62
   254
100
AcDbPolyline
 90
        2
 70
     0
 39
0.003
 10
-0.06489
 20
0.70987
 40
0.003
 41
0.003
 10
0.580705
 20
1.088701
 40
0.003
 41
0.003
  0
LWPOLYLINE
  5
122
100
AcDbEntity
  8
0
 62
   254
100
AcDbPolyline
 90
        2
 70
     0
 39
0.003
 10
0.580705
 20
1.088701
 40
0.003
 41
0.003
 10
0.573913
 20
1.095594
 40
0.003
 41
0.003
  0
LWPOLYLINE
  5
123
100
AcDbEntity
  8
0
 62
   254
100
AcDbPolyline
 90
        2
 70
     0
 39
0.003
 10
0.573913
 20
1.095594
 40
0.003
 41
0.003
 10
-0.071681
 20
0.716764
 40
0.003
 41
0.003
  0
LWPOLYLINE
  5
124
100
AcDbEntity
  8
0
 62
   254
100
AcDbPolyline
 90
        2
 70
     0
 39
0.003
 10
-0.071681
 20
0.716764
 40
0.003
 41
0.003
 10
-0.06489
 20
0.70987
 40
0.003
 41
0.003
  0
LWPOLYLINE
  5
125
100
AcDbEntity
  8
0
 62
   254
100
AcDbPolyline
 90
        2
 70
     0
 39
0.003
 10
-0.071681
 20
0.716764
 40
0.003
 41
0.003
 10
0.573913
 20
1.095594
 40
0.003
 41
0.003
  0
LWPOLYLINE
  5
126
100
AcDbEntity
  8
0
 62
   254
100
AcDbPolyline
 90
        2
 70
     0
 39
0.003
 10
0.573913
 20
1.095594
 40
0.003
 41
0.003
 10
0.567626
 20
1.10287
 40
0.003
 41
0.003
  0
LWPOLYLINE
  5
127
100
AcDbEntity
  8
0
 62
   254
100
AcDbPolyline
 90
        2
 70
     0
 39
0.003
 10
0.567626
 20
1.10287
 40
0.003
 41
0.003
 10
-0.077969
 20
0.724039
 40
0.003
 41
0.003
  0
LWPOLYLINE
  5
128
100
AcDbEntity
  8
0
 62
   254
100
AcDbPolyline
 90
        2
 70
     0
 39
0.003
 10
-0.077969
 20
0.724039
 40
0.003
 41
0.003
 10
-0.071681
 20
0.716764
 40
0.003
 41
0.003
  0
LWPOLYLINE
  5
129
100
AcDbEntity
  8
0
 62
   254
100
AcDbPolyline
 90
        2
 70
     0
 39
0.003
 10
-0.077969
 20
0.724039
 40
0.003
 41
0.003
 10
0.567626
 20
1.10287
 40
0.003
 41
0.003
  0
LWPOLYLINE
  5
12A
100
AcDbEntity
  8
0
 62
   254
100
AcDbPolyline
 90
        2
 70
     0
 39
0.003
 10
0.567626
 20
1.10287
 40
0.003
 41
0.003
 10
0.561835
 20
1.110559
 40
0.003
 41
0.003
  0
LWPOLYLINE
  5
12B
100
AcDbEntity
  8
0
 62
   254
100
AcDbPolyline
 90
        2
 70
     0
 39
0.003
 10
0.561835
 20
1.110559
 40
0.003
 41
0.003
 10
-0.08376
 20
0.731728
 40
0.003
 41
0.003
  0
LWPOLYLINE
  5
12C
100
AcDbEntity
  8
0
 62
   254
100
AcDbPolyline
 90
        2
 70
     0
 39
0.003
 10
-0.08376
 20
0.731728
 40
0.003
 41
0.003
 10
-0.077969
 20
0.724039
 40
0.003
 41
0.003
  0
LWPOLYLINE
  5
12D
100
AcDbEntity
  8
0
 62
   254
100
AcDbPolyline
 90
        2
 70
     0
 39
0.003
 10
-0.08376
 20
0.731728
 40
0.003
 41
0.003
 10
0.561835
 20
1.110559
 40
0.003
 41
0.003
  0
LWPOLYLINE
  5
12E
100
AcDbEntity
  8
0
 62
   254
100
AcDbPolyline
 90
        2
 70
     0
 39
0.003
 10
0.561835
 20
1.110559
 40
0.003
 41
0.003
 10
0.55652
 20
1.118717
 40
0.003
 41
0.003
  0
LWPOLYLINE
  5
12F
100
AcDbEntity
  8
0
 62
   254
100
AcDbPolyline
 90
        2
 70
     0
 39
0.003
 10
0.55652
 20
1.118717
 40
0.003
 41
0.003
 10
-0.089075
 20
0.739886
 40
0.003
 41
0.003
  0
LWPOLYLINE
  5
130
100
AcDbEntity
  8
0
 62
   254
100
AcDbPolyline
 90
        2
 70
     0
 39
0.003
 10
-0.089075
 20
0.739886
 40
0.003
 41
0.003
 10
-0.08376
 20
0.731728
 40
0.003
 41
0.003
  0
LWPOLYLINE
  5
131
100
AcDbEntity
  8
0
 62
   254
100
AcDbPolyline
 90
        2
 70
     0
 39
0.003
 10
-0.089075
 20
0.739886
 40
0.003
 41
0.003
 10
0.55652
 20
1.118717
 40
0.003
 41
0.003
  0
LWPOLYLINE
  5
132
100
AcDbEntity
  8
0
 62
   254
100
AcDbPolyline
 90
        2
 70
     0
 39
0.003
 10
0.55652
 20
1.118717
 40
0.003
 41
0.003
 10
0.551685
 20
1.127366
 40
0.003
 41
0.003
  0
LWPOLYLINE
  5
133
100
AcDbEntity
  8
0
 62
   254
100
AcDbPolyline
 90
        2
 70
     0
 39
0.003
 10
0.551685
 20
1.127366
 40
0.003
 41
0.003
 10
-0.093909
 20
0.748535
 40
0.003
 41
0.003
  0
LWPOLYLINE
  5
134
100
AcDbEntity
  8
0
 62
   254
100
AcDbPolyline
 90
        2
 70
     0
 39
0.003
 10
-0.093909
 20
0.748535
 40
0.003
 41
0.003
 10
-0.089075
 20
0.739886
 40
0.003
 41
0.003
  0
LWPOLYLINE
  5
135
100
AcDbEntity
  8
0
 62
   254
100
AcDbPolyline
 90
        2
 70
     0
 39
0.003
 10
-0.093909
 20
0.748535
 40
0.003
 41
0.003
 10
0.551685
 20
1.127366
 40
0.003
 41
0.003
  0
LWPOLYLINE
  5
136
100
AcDbEntity
  8
0
 62
   254
100
AcDbPolyline
 90
        2
 70
     0
 39
0.003
 10
0.551685
 20
1.127366
 40
0.003
 41
0.003
 10
0.547303
 20
1.136563
 40
0.003
 41
0.003
  0
LWPOLYLINE
  5
137
100
AcDbEntity
  8
0
 62
   254
100
AcDbPolyline
 90
        2
 70
     0
 39
0.003
 10
0.547303
 20
1.136563
 40
0.003
 41
0.003
 10
-0.098291
 20
0.757732
 40
0.003
 41
0.003
  0
LWPOLYLINE
  5
138
100
AcDbEntity
  8
0
 62
   254
100
AcDbPolyline
 90
        2
 70
     0
 39
0.003
 10
-0.098291
 20
0.757732
 40
0.003
 41
0.003
 10
-0.093909
 20
0.748535
 40
0.003
 41
0.003
  0
LWPOLYLINE
  5
139
100
AcDbEntity
  8
0
 62
   254
100
AcDbPolyline
 90
        2
 70
     0
 39
0.003
 10
-0.098291
 20
0.757732
 40
0.003
 41
0.003
 10
0.547303
 20
1.136563
 40
0.003
 41
0.003
  0
LWPOLYLINE
  5
13A
100
AcDbEntity
  8
0
 62
   254
100
AcDbPolyline
 90
        2
 70
     0
 39
0.003
 10
0.547303
 20
1.136563
 40
0.003
 41
0.003
 10
0.543374
 20
1.146343
 40
0.003
 41
0.003
  0
LWPOLYLINE
  5
13B
100
AcDbEntity
  8
0
 62
   254
100
AcDbPolyline
 90
        2
 70
     0
 39
0.003
 10
0.543374
 20
1.146343
 40
0.003
 41
0.003
 10
-0.10222
 20
0.767512
 40
0.003
 41
0.003
  0
LWPOLYLINE
  5
13C
100
AcDbEntity
  8
0
 62
   254
100
AcDbPolyline
 90
        2
 70
     0
 39
0.003
 10
-0.10222
 20
0.767512
 40
0.003
 41
0.003
 10
-0.098291
 20
0.757732
 40
0.003
 41
0.003
  0
LWPOLYLINE
  5
13D
100
AcDbEntity
  8
0
 62
   254
100
AcDbPolyline
 90
        2
 70
     0
 39
0.003
 10
-0.10222
 20
0.767512
 40
0.003
 41
0.003
 10
0.543374
 20
1.146343
 40
0.003
 41
0.003
  0
LWPOLYLINE
  5
13E
100
AcDbEntity
  8
0
 62
   254
100
AcDbPolyline
 90
        2
 70
     0
 39
0.003
 10
0.543374
 20
1.146343
 40
0.003
 41
0.003
 10
0.539874
 20
1.156744
 40
0.003
 41
0.003
  0
LWPOLYLINE
  5
13F
100
AcDbEntity
  8
0
 62
   254
100
AcDbPolyline
 90
        2
 70
     0
 39
0.003
 10
0.539874
 20
1.156744
 40
0.003
 41
0.003
 10
-0.10572
 20
0.777913
 40
0.003
 41
0.003
  0
LWPOLYLINE
  5
140
100
AcDbEntity
  8
0
 62
   254
100
AcDbPolyline
 90
        2
 70
     0
 39
0.003
 10
-0.10572
 20
0.777913
 40
0.003
 41
0.003
 10
-0.10222
 20
0.767512
 40
0.003
 41
0.003
  0
LWPOLYLINE
  5
141
100
AcDbEntity
  8
0
 62
   254
100
AcDbPolyline
 90
        2
 70
     0
 39
0.003
 10
-0.10572
 20
0.777913
 40
0.003
 41
0.003
 10
0.539874
 20
1.156744
 40
0.003
 41
0.003
  0
LWPOLYLINE
  5
142
100
AcDbEntity
  8
0
 62
   254
100
AcDbPolyline
 90
        2
 70
     0
 39
0.003
 10
0.539874
 20
1.156744
 40
0.003
 41
0.003
 10
0.536803
 20
1.167799
 40
0.003
 41
0.003
  0
LWPOLYLINE
  5
143
100
AcDbEntity
  8
0
 62
   254
100
AcDbPolyline
 90
        2
 70
     0
 39
0.003
 10
0.536803
 20
1.167799
 40
0.003
 41
0.003
 10
-0.108791
 20
0.788969
 40
0.003
 41
0.003
  0
LWPOLYLINE
  5
144
100
AcDbEntity
  8
0
 62
   254
100
AcDbPolyline
 90
        2
 70
     0
 39
0.003
 10
-0.108791
 20
0.788969
 40
0.003
 41
0.003
 10
-0.10572
 20
0.777913
 40
0.003
 41
0.003
  0
LWPOLYLINE
  5
145
100
AcDbEntity
  8
0
 62
   254
100
AcDbPolyline
 90
        2
 70
     0
 39
0.003
 10
-0.108791
 20
0.788969
 40
0.003
 41
0.003
 10
0.536803
 20
1.167799
 40
0.003
 41
0.003
  0
LWPOLYLINE
  5
146
100
AcDbEntity
  8
0
 62
   254
100
AcDbPolyline
 90
        2
 70
     0
 39
0.003
 10
0.536803
 20
1.167799
 40
0.003
 41
0.003
 10
0.534138
 20
1.179563
 40
0.003
 41
0.003
  0
LWPOLYLINE
  5
147
100
AcDbEntity
  8
0
 62
   254
100
AcDbPolyline
 90
        2
 70
     0
 39
0.003
 10
0.534138
 20
1.179563
 40
0.003
 41
0.003
 10
-0.111457
 20
0.800732
 40
0.003
 41
0.003
  0
LWPOLYLINE
  5
148
100
AcDbEntity
  8
0
 62
   254
100
AcDbPolyline
 90
        2
 70
     0
 39
0.003
 10
-0.111457
 20
0.800732
 40
0.003
 41
0.003
 10
-0.108791
 20
0.788969
 40
0.003
 41
0.003
  0
LWPOLYLINE
  5
149
100
AcDbEntity
  8
0
 62
   254
100
AcDbPolyline
 90
        2
 70
     0
 39
0.003
 10
-0.111457
 20
0.800732
 40
0.003
 41
0.003
 10
0.534138
 20
1.179563
 40
0.003
 41
0.003
  0
LWPOLYLINE
  5
14A
100
AcDbEntity
  8
0
 62
   254
100
AcDbPolyline
 90
        2
 70
     0
 39
0.003
 10
0.534138
 20
1.179563
 40
0.003
 41
0.003
 10
0.531874
 20
1.192071
 40
0.003
 41
0.003
  0
LWPOLYLINE
  5
14B
100
AcDbEntity
  8
0
 62
   254
100
AcDbPolyline
 90
        2
 70
     0
 39
0.003
 10
0.531874
 20
1.192071
 40
0.003
 41
0.003
 10
-0.11372
 20
0.81324
 40
0.003
 41
0.003
  0
LWPOLYLINE
  5
14C
100
AcDbEntity
  8
0
 62
   254
100
AcDbPolyline
 90
        2
 70
     0
 39
0.003
 10
-0.11372
 20
0.81324
 40
0.003
 41
0.003
 10
-0.111457
 20
0.800732
 40
0.003
 41
0.003
  0
LWPOLYLINE
  5
14D
100
AcDbEntity
  8
0
 62
   254
100
AcDbPolyline
 90
        2
 70
     0
 39
0.003
 10
-0.11372
 20
0.81324
 40
0.003
 41
0.003
 10
0.531874
 20
1.192071
 40
0.003
 41
0.003
  0
LWPOLYLINE
  5
14E
100
AcDbEntity
  8
0
 62
   254
100
AcDbPolyline
 90
        2
 70
     0
 39
0.003
 10
0.531874
 20
1.192071
 40
0.003
 41
0.003
 10
0.529988
 20
1.205366
 40
0.003
 41
0.003
  0
LWPOLYLINE
  5
14F
100
AcDbEntity
  8
0
 62
   254
100
AcDbPolyline
 90
        2
 70
     0
 39
0.003
 10
0.529988
 20
1.205366
 40
0.003
 41
0.003
 10
-0.115606
 20
0.826535
 40
0.003
 41
0.003
  0
LWPOLYLINE
  5
150
100
AcDbEntity
  8
0
 62
   254
100
AcDbPolyline
 90
        2
 70
     0
 39
0.003
 10
-0.115606
 20
0.826535
 40
0.003
 41
0.003
 10
-0.11372
 20
0.81324
 40
0.003
 41
0.003
  0
LWPOLYLINE
  5
151
100
AcDbEntity
  8
0
 62
   254
100
AcDbPolyline
 90
        2
 70
     0
 39
0.003
 10
-0.115606
 20
0.826535
 40
0.003
 41
0.003
 10
0.529988
 20
1.205366
 40
0.003
 41
0.003
  0
LWPOLYLINE
  5
152
100
AcDbEntity
  8
0
 62
   254
100
AcDbPolyline
 90
        2
 70
     0
 39
0.003
 10
0.529988
 20
1.205366
 40
0.003
 41
0.003
 10
0.528484
 20
1.21948
 40
0.003
 41
0.003
  0
LWPOLYLINE
  5
153
100
AcDbEntity
  8
0
 62
   254
100
AcDbPolyline
 90
        2
 70
     0
 39
0.003
 10
0.528484
 20
1.21948
 40
0.003
 41
0.003
 10
-0.11711
 20
0.84065
 40
0.003
 41
0.003
  0
LWPOLYLINE
  5
154
100
AcDbEntity
  8
0
 62
   254
100
AcDbPolyline
 90
        2
 70
     0
 39
0.003
 10
-0.11711
 20
0.84065
 40
0.003
 41
0.003
 10
-0.115606
 20
0.826535
 40
0.003
 41
0.003
  0
LWPOLYLINE
  5
155
100
AcDbEntity
  8
0
 62
   254
100
AcDbPolyline
 90
        2
 70
     0
 39
0.003
 10
-0.11711
 20
0.84065
 40
0.003
 41
0.003
 10
0.528484
 20
1.21948
 40
0.003
 41
0.003
  0
LWPOLYLINE
  5
156
100
AcDbEntity
  8
0
 62
   254
100
AcDbPolyline
 90
        2
 70
     0
 39
0.003
 10
0.528484
 20
1.21948
 40
0.003
 41
0.003
 10
0.527331
 20
1.234469
 40
0.003
 41
0.003
  0
LWPOLYLINE
  5
157
100
AcDbEntity
  8
0
 62
   254
100
AcDbPolyline
 90
        2
 70
     0
 39
0.003
 10
0.527331
 20
1.234469
 40
0.003
 41
0.003
 10
-0.118264
 20
0.855638
 40
0.003
 41
0.003
  0
LWPOLYLINE
  5
158
100
AcDbEntity
  8
0
 62
   254
100
AcDbPolyline
 90
        2
 70
     0
 39
0.003
 10
-0.118264
 20
0.855638
 40
0.003
 41
0.003
 10
-0.11711
 20
0.84065
 40
0.003
 41
0.003
  0
LWPOLYLINE
  5
159
100
AcDbEntity
  8
0
 62
   254
100
AcDbPolyline
 90
        2
 70
     0
 39
0.003
 10
-0.118264
 20
0.855638
 40
0.003
 41
0.003
 10
0.527331
 20
1.234469
 40
0.003
 41
0.003
  0
LWPOLYLINE
  5
15A
100
AcDbEntity
  8
0
 62
   254
100
AcDbPolyline
 90
        2
 70
     0
 39
0.003
 10
0.527331
 20
1.234469
 40
0.003
 41
0.003
 10
0.526531
 20
1.250358
 40
0.003
 41
0.003
  0
LWPOLYLINE
  5
15B
100
AcDbEntity
  8
0
 62
   254
100
AcDbPolyline
 90
        2
 70
     0
 39
0.003
 10
0.526531
 20
1.250358
 40
0.003
 41
0.003
 10
-0.119063
 20
0.871528
 40
0.003
 41
0.003
  0
LWPOLYLINE
  5
15C
100
AcDbEntity
  8
0
 62
   254
100
AcDbPolyline
 90
        2
 70
     0
 39
0.003
 10
-0.119063
 20
0.871528
 40
0.003
 41
0.003
 10
-0.118264
 20
0.855638
 40
0.003
 41
0.003
  0
LWPOLYLINE
  5
15D
100
AcDbEntity
  8
0
 62
   254
100
AcDbPolyline
 90
        2
 70
     0
 39
0.003
 10
-0.119063
 20
0.871528
 40
0.003
 41
0.003
 10
0.526531
 20
1.250358
 40
0.003
 41
0.003
  0
LWPOLYLINE
  5
15E
100
AcDbEntity
  8
0
 62
   254
100
AcDbPolyline
 90
        2
 70
     0
 39
0.003
 10
0.526531
 20
1.250358
 40
0.003
 41
0.003
 10
0.526063
 20
1.267197
 40
0.003
 41
0.003
  0
LWPOLYLINE
  5
15F
100
AcDbEntity
  8
0
 62
   254
100
AcDbPolyline
 90
        2
 70
     0
 39
0.003
 10
0.526063
 20
1.267197
 40
0.003
 41
0.003
 10
-0.119531
 20
0.888366
 40
0.003
 41
0.003
  0
LWPOLYLINE
  5
160
100
AcDbEntity
  8
0
 62
   254
100
AcDbPolyline
 90
        2
 70
     0
 39
0.003
 10
-0.119531
 20
0.888366
 40
0.003
 41
0.003
 10
-0.119063
 20
0.871528
 40
0.003
 41
0.003
  0
LWPOLYLINE
  5
161
100
AcDbEntity
  8
0
 62
     0
100
AcDbPolyline
 90
        2
 70
     0
 39
0.003
 10
0.123043
 20
0.617776
 40
0.003
 41
0.003
 10
0.768638
 20
0.996606
 40
0.003
 41
0.003
  0
LWPOLYLINE
  5
162
100
AcDbEntity
  8
0
 62
     0
100
AcDbPolyline
 90
        2
 70
     0
 39
0.003
 10
0.768638
 20
0.996606
 40
0.003
 41
0.003
 10
0.752028
 20
1.002972
 40
0.003
 41
0.003
  0
LWPOLYLINE
  5
163
100
AcDbEntity
  8
0
 62
     0
100
AcDbPolyline
 90
        2
 70
     0
 39
0.003
 10
0.752028
 20
1.002972
 40
0.003
 41
0.003
 10
0.736126
 20
1.009075
 40
0.003
 41
0.003
  0
LWPOLYLINE
  5
164
100
AcDbEntity
  8
0
 62
     0
100
AcDbPolyline
 90
        2
 70
     0
 39
0.003
 10
0.736126
 20
1.009075
 40
0.003
 41
0.003
 10
0.720917
 20
1.014941
 40
0.003
 41
0.003
  0
LWPOLYLINE
  5
165
100
AcDbEntity
  8
0
 62
     0
100
AcDbPolyline
 90
        2
 70
     0
 39
0.003
 10
0.720917
 20
1.014941
 40
0.003
 41
0.003
 10
0.706394
 20
1.020626
 40
0.003
 41
0.003
  0
LWPOLYLINE
  5
166
100
AcDbEntity
  8
0
 62
     0
100
AcDbPolyline
 90
        2
 70
     0
 39
0.003
 10
0.706394
 20
1.020626
 40
0.003
 41
0.003
 10
0.692531
 20
1.026154
 40
0.003
 41
0.003
  0
LWPOLYLINE
  5
167
100
AcDbEntity
  8
0
 62
     0
100
AcDbPolyline
 90
        2
 70
     0
 39
0.003
 10
0.692531
 20
1.026154
 40
0.003
 41
0.003
 10
0.679331
 20
1.031575
 40
0.003
 41
0.003
  0
LWPOLYLINE
  5
168
100
AcDbEntity
  8
0
 62
     0
100
AcDbPolyline
 90
        2
 70
     0
 39
0.003
 10
0.679331
 20
1.031575
 40
0.003
 41
0.003
 10
0.666776
 20
1.036921
 40
0.003
 41
0.003
  0
LWPOLYLINE
  5
169
100
AcDbEntity
  8
0
 62
     0
100
AcDbPolyline
 90
        2
 70
     0
 39
0.003
 10
0.666776
 20
1.036921
 40
0.003
 41
0.003
 10
0.654854
 20
1.042252
 40
0.003
 41
0.003
  0
LWPOLYLINE
  5
16A
100
AcDbEntity
  8
0
 62
     0
100
AcDbPolyline
 90
        2
 70
     0
 39
0.003
 10
0.654854
 20
1.042252
 40
0.003
 41
0.003
 10
0.643551
 20
1.047583
 40
0.003
 41
0.003
  0
LWPOLYLINE
  5
16B
100
AcDbEntity
  8
0
 62
     0
100
AcDbPolyline
 90
        2
 70
     0
 39
0.003
 10
0.643551
 20
1.047583
 40
0.003
 41
0.003
 10
0.632854
 20
1.052972
 40
0.003
 41
0.003
  0
LWPOLYLINE
  5
16C
100
AcDbEntity
  8
0
 62
     0
100
AcDbPolyline
 90
        2
 70
     0
 39
0.003
 10
0.632854
 20
1.052972
 40
0.003
 41
0.003
 10
0.622752
 20
1.058453
 40
0.003
 41
0.003
  0
LWPOLYLINE
  5
16D
100
AcDbEntity
  8
0
 62
     0
100
AcDbPolyline
 90
        2
 70
     0
 39
0.003
 10
0.622752
 20
1.058453
 40
0.003
 41
0.003
 10
0.613224
 20
1.064075
 40
0.003
 41
0.003
  0
LWPOLYLINE
  5
16E
100
AcDbEntity
  8
0
 62
     0
100
AcDbPolyline
 90
        2
 70
     0
 39
0.003
 10
0.613224
 20
1.064075
 40
0.003
 41
0.003
 10
0.604276
 20
1.069866
 40
0.003
 41
0.003
  0
LWPOLYLINE
  5
16F
100
AcDbEntity
  8
0
 62
     0
100
AcDbPolyline
 90
        2
 70
     0
 39
0.003
 10
0.604276
 20
1.069866
 40
0.003
 41
0.003
 10
0.595878
 20
1.075874
 40
0.003
 41
0.003
  0
LWPOLYLINE
  5
170
100
AcDbEntity
  8
0
 62
     0
100
AcDbPolyline
 90
        2
 70
     0
 39
0.003
 10
0.595878
 20
1.075874
 40
0.003
 41
0.003
 10
0.588028
 20
1.082134
 40
0.003
 41
0.003
  0
LWPOLYLINE
  5
171
100
AcDbEntity
  8
0
 62
     0
100
AcDbPolyline
 90
        2
 70
     0
 39
0.003
 10
0.588028
 20
1.082134
 40
0.003
 41
0.003
 10
0.580705
 20
1.088701
 40
0.003
 41
0.003
  0
LWPOLYLINE
  5
172
100
AcDbEntity
  8
0
 62
     0
100
AcDbPolyline
 90
        2
 70
     0
 39
0.003
 10
0.580705
 20
1.088701
 40
0.003
 41
0.003
 10
0.573913
 20
1.095594
 40
0.003
 41
0.003
  0
LWPOLYLINE
  5
173
100
AcDbEntity
  8
0
 62
     0
100
AcDbPolyline
 90
        2
 70
     0
 39
0.003
 10
0.573913
 20
1.095594
 40
0.003
 41
0.003
 10
0.567626
 20
1.10287
 40
0.003
 41
0.003
  0
LWPOLYLINE
  5
174
100
AcDbEntity
  8
0
 62
     0
100
AcDbPolyline
 90
        2
 70
     0
 39
0.003
 10
0.567626
 20
1.10287
 40
0.003
 41
0.003
 10
0.561835
 20
1.110559
 40
0.003
 41
0.003
  0
LWPOLYLINE
  5
175
100
AcDbEntity
  8
0
 62
     0
100
AcDbPolyline
 90
        2
 70
     0
 39
0.003
 10
0.561835
 20
1.110559
 40
0.003
 41
0.003
 10
0.55652
 20
1.118717
 40
0.003
 41
0.003
  0
LWPOLYLINE
  5
176
100
AcDbEntity
  8
0
 62
     0
100
AcDbPolyline
 90
        2
 70
     0
 39
0.003
 10
0.55652
 20
1.118717
 40
0.003
 41
0.003
 10
0.551685
 20
1.127366
 40
0.003
 41
0.003
  0
LWPOLYLINE
  5
177
100
AcDbEntity
  8
0
 62
     0
100
AcDbPolyline
 90
        2
 70
     0
 39
0.003
 10
0.551685
 20
1.127366
 40
0.003
 41
0.003
 10
0.547303
 20
1.136563
 40
0.003
 41
0.003
  0
LWPOLYLINE
  5
178
100
AcDbEntity
  8
0
 62
     0
100
AcDbPolyline
 90
        2
 70
     0
 39
0.003
 10
0.547303
 20
1.136563
 40
0.003
 41
0.003
 10
0.543374
 20
1.146343
 40
0.003
 41
0.003
  0
LWPOLYLINE
  5
179
100
AcDbEntity
  8
0
 62
     0
100
AcDbPolyline
 90
        2
 70
     0
 39
0.003
 10
0.543374
 20
1.146343
 40
0.003
 41
0.003
 10
0.539874
 20
1.156744
 40
0.003
 41
0.003
  0
LWPOLYLINE
  5
17A
100
AcDbEntity
  8
0
 62
     0
100
AcDbPolyline
 90
        2
 70
     0
 39
0.003
 10
0.539874
 20
1.156744
 40
0.003
 41
0.003
 10
0.536803
 20
1.167799
 40
0.003
 41
0.003
  0
LWPOLYLINE
  5
17B
100
AcDbEntity
  8
0
 62
     0
100
AcDbPolyline
 90
        2
 70
     0
 39
0.003
 10
0.536803
 20
1.167799
 40
0.003
 41
0.003
 10
0.534138
 20
1.179563
 40
0.003
 41
0.003
  0
LWPOLYLINE
  5
17C
100
AcDbEntity
  8
0
 62
     0
100
AcDbPolyline
 90
        2
 70
     0
 39
0.003
 10
0.534138
 20
1.179563
 40
0.003
 41
0.003
 10
0.531874
 20
1.192071
 40
0.003
 41
0.003
  0
LWPOLYLINE
  5
17D
100
AcDbEntity
  8
0
 62
     0
100
AcDbPolyline
 90
        2
 70
     0
 39
0.003
 10
0.531874
 20
1.192071
 40
0.003
 41
0.003
 10
0.529988
 20
1.205366
 40
0.003
 41
0.003
  0
LWPOLYLINE
  5
17E
100
AcDbEntity
  8
0
 62
     0
100
AcDbPolyline
 90
        2
 70
     0
 39
0.003
 10
0.529988
 20
1.205366
 40
0.003
 41
0.003
 10
0.528484
 20
1.21948
 40
0.003
 41
0.003
  0
LWPOLYLINE
  5
17F
100
AcDbEntity
  8
0
 62
     0
100
AcDbPolyline
 90
        2
 70
     0
 39
0.003
 10
0.528484
 20
1.21948
 40
0.003
 41
0.003
 10
0.527331
 20
1.234469
 40
0.003
 41
0.003
  0
LWPOLYLINE
  5
180
100
AcDbEntity
  8
0
 62
     0
100
AcDbPolyline
 90
        2
 70
     0
 39
0.003
 10
0.527331
 20
1.234469
 40
0.003
 41
0.003
 10
0.526531
 20
1.250358
 40
0.003
 41
0.003
  0
LWPOLYLINE
  5
181
100
AcDbEntity
  8
0
 62
     0
100
AcDbPolyline
 90
        2
 70
     0
 39
0.003
 10
0.526531
 20
1.250358
 40
0.003
 41
0.003
 10
0.526063
 20
1.267197
 40
0.003
 41
0.003
  0
LWPOLYLINE
  5
182
100
AcDbEntity
  8
0
 62
     0
100
AcDbPolyline
 90
        2
 70
     0
 39
0.003
 10
0.526063
 20
1.267197
 40
0.003
 41
0.003
 10
-0.119531
 20
0.888366
 40
0.003
 41
0.003
  0
LWPOLYLINE
  5
183
100
AcDbEntity
  8
0
 62
     0
100
AcDbPolyline
 90
        2
 70
     0
 39
0.003
 10
-0.119531
 20
0.888366
 40
0.003
 41
0.003
 10
-0.119063
 20
0.871528
 40
0.003
 41
0.003
  0
LWPOLYLINE
  5
184
100
AcDbEntity
  8
0
 62
     0
100
AcDbPolyline
 90
        2
 70
     0
 39
0.003
 10
-0.119063
 20
0.871528
 40
0.003
 41
0.003
 10
-0.118264
 20
0.855638
 40
0.003
 41
0.003
  0
LWPOLYLINE
  5
185
100
AcDbEntity
  8
0
 62
     0
100
AcDbPolyline
 90
        2
 70
     0
 39
0.003
 10
-0.118264
 20
0.855638
 40
0.003
 41
0.003
 10
-0.11711
 20
0.84065
 40
0.003
 41
0.003
  0
LWPOLYLINE
  5
186
100
AcDbEntity
  8
0
 62
     0
100
AcDbPolyline
 90
        2
 70
     0
 39
0.003
 10
-0.11711
 20
0.84065
 40
0.003
 41
0.003
 10
-0.115606
 20
0.826535
 40
0.003
 41
0.003
  0
LWPOLYLINE
  5
187
100
AcDbEntity
  8
0
 62
     0
100
AcDbPolyline
 90
        2
 70
     0
 39
0.003
 10
-0.115606
 20
0.826535
 40
0.003
 41
0.003
 10
-0.11372
 20
0.81324
 40
0.003
 41
0.003
  0
LWPOLYLINE
  5
188
100
AcDbEntity
  8
0
 62
     0
100
AcDbPolyline
 90
        2
 70
     0
 39
0.003
 10
-0.11372
 20
0.81324
 40
0.003
 41
0.003
 10
-0.111457
 20
0.800732
 40
0.003
 41
0.003
  0
LWPOLYLINE
  5
189
100
AcDbEntity
  8
0
 62
     0
100
AcDbPolyline
 90
        2
 70
     0
 39
0.003
 10
-0.111457
 20
0.800732
 40
0.003
 41
0.003
 10
-0.108791
 20
0.788969
 40
0.003
 41
0.003
  0
LWPOLYLINE
  5
18A
100
AcDbEntity
  8
0
 62
     0
100
AcDbPolyline
 90
        2
 70
     0
 39
0.003
 10
-0.108791
 20
0.788969
 40
0.003
 41
0.003
 10
-0.10572
 20
0.777913
 40
0.003
 41
0.003
  0
LWPOLYLINE
  5
18B
100
AcDbEntity
  8
0
 62
     0
100
AcDbPolyline
 90
        2
 70
     0
 39
0.003
 10
-0.10572
 20
0.777913
 40
0.003
 41
0.003
 10
-0.10222
 20
0.767512
 40
0.003
 41
0.003
  0
LWPOLYLINE
  5
18C
100
AcDbEntity
  8
0
 62
     0
100
AcDbPolyline
 90
        2
 70
     0
 39
0.003
 10
-0.10222
 20
0.767512
 40
0.003
 41
0.003
 10
-0.098291
 20
0.757732
 40
0.003
 41
0.003
  0
LWPOLYLINE
  5
18D
100
AcDbEntity
  8
0
 62
     0
100
AcDbPolyline
 90
        2
 70
     0
 39
0.003
 10
-0.098291
 20
0.757732
 40
0.003
 41
0.003
 10
-0.093909
 20
0.748535
 40
0.003
 41
0.003
  0
LWPOLYLINE
  5
18E
100
AcDbEntity
  8
0
 62
     0
100
AcDbPolyline
 90
        2
 70
     0
 39
0.003
 10
-0.093909
 20
0.748535
 40
0.003
 41
0.003
 10
-0.089075
 20
0.739886
 40
0.003
 41
0.003
  0
LWPOLYLINE
  5
18F
100
AcDbEntity
  8
0
 62
     0
100
AcDbPolyline
 90
        2
 70
     0
 39
0.003
 10
-0.089075
 20
0.739886
 40
0.003
 41
0.003
 10
-0.08376
 20
0.731728
 40
0.003
 41
0.003
  0
LWPOLYLINE
  5
190
100
AcDbEntity
  8
0
 62
     0
100
AcDbPolyline
 90
        2
 70
     0
 39
0.003
 10
-0.08376
 20
0.731728
 40
0.003
 41
0.003
 10
-0.077969
 20
0.724039
 40
0.003
 41
0.003
  0
LWPOLYLINE
  5
191
100
AcDbEntity
  8
0
 62
     0
100
AcDbPolyline
 90
        2
 70
     0
 39
0.003
 10
-0.077969
 20
0.724039
 40
0.003
 41
0.003
 10
-0.071681
 20
0.716764
 40
0.003
 41
0.003
  0
LWPOLYLINE
  5
192
100
AcDbEntity
  8
0
 62
     0
100
AcDbPolyline
 90
        2
 70
     0
 39
0.003
 10
-0.071681
 20
0.716764
 40
0.003
 41
0.003
 10
-0.06489
 20
0.70987
 40
0.003
 41
0.003
  0
LWPOLYLINE
  5
193
100
AcDbEntity
  8
0
 62
     0
100
AcDbPolyline
 90
        2
 70
     0
 39
0.003
 10
-0.06489
 20
0.70987
 40
0.003
 41
0.003
 10
-0.057567
 20
0.703303
 40
0.003
 41
0.003
  0
LWPOLYLINE
  5
194
100
AcDbEntity
  8
0
 62
     0
100
AcDbPolyline
 90
        2
 70
     0
 39
0.003
 10
-0.057567
 20
0.703303
 40
0.003
 41
0.003
 10
-0.049717
 20
0.697043
 40
0.003
 41
0.003
  0
LWPOLYLINE
  5
195
100
AcDbEntity
  8
0
 62
     0
100
AcDbPolyline
 90
        2
 70
     0
 39
0.003
 10
-0.049717
 20
0.697043
 40
0.003
 41
0.003
 10
-0.041319
 20
0.691035
 40
0.003
 41
0.003
  0
LWPOLYLINE
  5
196
100
AcDbEntity
  8
0
 62
     0
100
AcDbPolyline
 90
        2
 70
     0
 39
0.003
 10
-0.041319
 20
0.691035
 40
0.003
 41
0.003
 10
-0.03237
 20
0.685244
 40
0.003
 41
0.003
  0
LWPOLYLINE
  5
197
100
AcDbEntity
  8
0
 62
     0
100
AcDbPolyline
 90
        2
 70
     0
 39
0.003
 10
-0.03237
 20
0.685244
 40
0.003
 41
0.003
 10
-0.022843
 20
0.679622
 40
0.003
 41
0.003
  0
LWPOLYLINE
  5
198
100
AcDbEntity
  8
0
 62
     0
100
AcDbPolyline
 90
        2
 70
     0
 39
0.003
 10
-0.022843
 20
0.679622
 40
0.003
 41
0.003
 10
-0.01274
 20
0.674142
 40
0.003
 41
0.003
  0
LWPOLYLINE
  5
199
100
AcDbEntity
  8
0
 62
     0
100
AcDbPolyline
 90
        2
 70
     0
 39
0.003
 10
-0.01274
 20
0.674142
 40
0.003
 41
0.003
 10
-0.002043
 20
0.668752
 40
0.003
 41
0.003
  0
LWPOLYLINE
  5
19A
100
AcDbEntity
  8
0
 62
     0
100
AcDbPolyline
 90
        2
 70
     0
 39
0.003
 10
-0.002043
 20
0.668752
 40
0.003
 41
0.003
 10
0.00926
 20
0.663421
 40
0.003
 41
0.003
  0
LWPOLYLINE
  5
19B
100
AcDbEntity
  8
0
 62
     0
100
AcDbPolyline
 90
        2
 70
     0
 39
0.003
 10
0.00926
 20
0.663421
 40
0.003
 41
0.003
 10
0.021181
 20
0.658091
 40
0.003
 41
0.003
  0
LWPOLYLINE
  5
19C
100
AcDbEntity
  8
0
 62
     0
100
AcDbPolyline
 90
        2
 70
     0
 39
0.003
 10
0.021181
 20
0.658091
 40
0.003
 41
0.003
 10
0.033736
 20
0.652744
 40
0.003
 41
0.003
  0
LWPOLYLINE
  5
19D
100
AcDbEntity
  8
0
 62
     0
100
AcDbPolyline
 90
        2
 70
     0
 39
0.003
 10
0.033736
 20
0.652744
 40
0.003
 41
0.003
 10
0.046937
 20
0.647323
 40
0.003
 41
0.003
  0
LWPOLYLINE
  5
19E
100
AcDbEntity
  8
0
 62
     0
100
AcDbPolyline
 90
        2
 70
     0
 39
0.003
 10
0.046937
 20
0.647323
 40
0.003
 41
0.003
 10
0.060799
 20
0.641795
 40
0.003
 41
0.003
  0
LWPOLYLINE
  5
19F
100
AcDbEntity
  8
0
 62
     0
100
AcDbPolyline
 90
        2
 70
     0
 39
0.003
 10
0.060799
 20
0.641795
 40
0.003
 41
0.003
 10
0.075323
 20
0.63611
 40
0.003
 41
0.003
  0
LWPOLYLINE
  5
1A0
100
AcDbEntity
  8
0
 62
     0
100
AcDbPolyline
 90
        2
 70
     0
 39
0.003
 10
0.075323
 20
0.63611
 40
0.003
 41
0.003
 10
0.090531
 20
0.630244
 40
0.003
 41
0.003
  0
LWPOLYLINE
  5
1A1
100
AcDbEntity
  8
0
 62
     0
100
AcDbPolyline
 90
        2
 70
     0
 39
0.003
 10
0.090531
 20
0.630244
 40
0.003
 41
0.003
 10
0.106433
 20
0.624142
 40
0.003
 41
0.003
  0
LWPOLYLINE
  5
1A2
100
AcDbEntity
  8
0
 62
     0
100
AcDbPolyline
 90
        2
 70
     0
 39
0.003
 10
0.106433
 20
0.624142
 40
0.003
 41
0.003
 10
0.123043
 20
0.617776
 40
0.003
 41
0.003
  0
LWPOLYLINE
  5
1A3
100
AcDbEntity
  8
0
 62
   253
100
AcDbPolyline
 90
        2
 70
     0
 39
0.003
 10
-0.119531
 20
0.888366
 40
0.003
 41
0.003
 10
0.526063
 20
1.267197
 40
0.003
 41
0.003
  0
LWPOLYLINE
  5
1A4
100
AcDbEntity
  8
0
 62
   253
100
AcDbPolyline
 90
        2
 70
     0
 39
0.003
 10
0.526063
 20
1.267197
 40
0.003
 41
0.003
 10
0.402272
 20
1.275693
 40
0.003
 41
0.003
  0
LWPOLYLINE
  5
1A5
100
AcDbEntity
  8
0
 62
   253
100
AcDbPolyline
 90
        2
 70
     0
 39
0.003
 10
0.402272
 20
1.275693
 40
0.003
 41
0.003
 10
-0.243323
 20
0.896862
 40
0.003
 41
0.003
  0
LWPOLYLINE
  5
1A6
100
AcDbEntity
  8
0
 62
   253
100
AcDbPolyline
 90
        2
 70
     0
 39
0.003
 10
-0.243323
 20
0.896862
 40
0.003
 41
0.003
 10
-0.119531
 20
0.888366
 40
0.003
 41
0.003
  0
LWPOLYLINE
  5
1A7
100
AcDbEntity
  8
0
 62
     0
100
AcDbPolyline
 90
        2
 70
     0
 39
0.003
 10
-0.119531
 20
0.888366
 40
0.003
 41
0.003
 10
0.526063
 20
1.267197
 40
0.003
 41
0.003
  0
LWPOLYLINE
  5
1A8
100
AcDbEntity
  8
0
 62
     0
100
AcDbPolyline
 90
        2
 70
     0
 39
0.003
 10
0.526063
 20
1.267197
 40
0.003
 41
0.003
 10
0.402272
 20
1.275693
 40
0.003
 41
0.003
  0
LWPOLYLINE
  5
1A9
100
AcDbEntity
  8
0
 62
     0
100
AcDbPolyline
 90
        2
 70
     0
 39
0.003
 10
0.402272
 20
1.275693
 40
0.003
 41
0.003
 10
-0.243323
 20
0.896862
 40
0.003
 41
0.003
  0
LWPOLYLINE
  5
1AA
100
AcDbEntity
  8
0
 62
     0
100
AcDbPolyline
 90
        2
 70
     0
 39
0.003
 10
-0.243323
 20
0.896862
 40
0.003
 41
0.003
 10
-0.119531
 20
0.888366
 40
0.003
 41
0.003
  0
LWPOLYLINE
  5
1AB
100
AcDbEntity
  8
0
 62
   254
100
AcDbPolyline
 90
        2
 70
     0
 39
0.003
 10
-0.243323
 20
0.896862
 40
0.003
 41
0.003
 10
0.402272
 20
1.275693
 40
0.003
 41
0.003
  0
LWPOLYLINE
  5
1AC
100
AcDbEntity
  8
0
 62
   254
100
AcDbPolyline
 90
        2
 70
     0
 39
0.003
 10
0.402272
 20
1.275693
 40
0.003
 41
0.003
 10
0.402272
 20
1.334827
 40
0.003
 41
0.003
  0
LWPOLYLINE
  5
1AD
100
AcDbEntity
  8
0
 62
   254
100
AcDbPolyline
 90
        2
 70
     0
 39
0.003
 10
0.402272
 20
1.334827
 40
0.003
 41
0.003
 10
-0.243323
 20
0.955996
 40
0.003
 41
0.003
  0
LWPOLYLINE
  5
1AE
100
AcDbEntity
  8
0
 62
   254
100
AcDbPolyline
 90
        2
 70
     0
 39
0.003
 10
-0.243323
 20
0.955996
 40
0.003
 41
0.003
 10
-0.243323
 20
0.896862
 40
0.003
 41
0.003
  0
LWPOLYLINE
  5
1AF
100
AcDbEntity
  8
0
 62
     0
100
AcDbPolyline
 90
        2
 70
     0
 39
0.003
 10
-0.243323
 20
0.896862
 40
0.003
 41
0.003
 10
0.402272
 20
1.275693
 40
0.003
 41
0.003
  0
LWPOLYLINE
  5
1B0
100
AcDbEntity
  8
0
 62
     0
100
AcDbPolyline
 90
        2
 70
     0
 39
0.003
 10
0.402272
 20
1.275693
 40
0.003
 41
0.003
 10
0.402272
 20
1.334827
 40
0.003
 41
0.003
  0
LWPOLYLINE
  5
1B1
100
AcDbEntity
  8
0
 62
     0
100
AcDbPolyline
 90
        2
 70
     0
 39
0.003
 10
0.402272
 20
1.334827
 40
0.003
 41
0.003
 10
-0.243323
 20
0.955996
 40
0.003
 41
0.003
  0
LWPOLYLINE
  5
1B2
100
AcDbEntity
  8
0
 62
     0
100
AcDbPolyline
 90
        2
 70
     0
 39
0.003
 10
-0.243323
 20
0.955996
 40
0.003
 41
0.003
 10
-0.243323
 20
0.896862
 40
0.003
 41
0.003
  0
LWPOLYLINE
  5
1B3
100
AcDbEntity
  8
0
 62
     9
100
AcDbPolyline
 90
        2
 70
     0
 39
0.003
 10
-0.186783
 20
0.974122
 40
0.003
 41
0.003
 10
0.458811
 20
1.352953
 40
0.003
 41
0.003
  0
LWPOLYLINE
  5
1B4
100
AcDbEntity
  8
0
 62
     9
100
AcDbPolyline
 90
        2
 70
     0
 39
0.003
 10
0.458811
 20
1.352953
 40
0.003
 41
0.003
 10
0.467488
 20
1.358594
 40
0.003
 41
0.003
  0
LWPOLYLINE
  5
1B5
100
AcDbEntity
  8
0
 62
     9
100
AcDbPolyline
 90
        2
 70
     0
 39
0.003
 10
0.467488
 20
1.358594
 40
0.003
 41
0.003
 10
-0.178106
 20
0.979764
 40
0.003
 41
0.003
  0
LWPOLYLINE
  5
1B6
100
AcDbEntity
  8
0
 62
     9
100
AcDbPolyline
 90
        2
 70
     0
 39
0.003
 10
-0.178106
 20
0.979764
 40
0.003
 41
0.003
 10
-0.186783
 20
0.974122
 40
0.003
 41
0.003
  0
LWPOLYLINE
  5
1B7
100
AcDbEntity
  8
0
 62
     9
100
AcDbPolyline
 90
        2
 70
     0
 39
0.003
 10
-0.178106
 20
0.979764
 40
0.003
 41
0.003
 10
0.467488
 20
1.358594
 40
0.003
 41
0.003
  0
LWPOLYLINE
  5
1B8
100
AcDbEntity
  8
0
 62
     9
100
AcDbPolyline
 90
        2
 70
     0
 39
0.003
 10
0.467488
 20
1.358594
 40
0.003
 41
0.003
 10
0.475323
 20
1.364783
 40
0.003
 41
0.003
  0
LWPOLYLINE
  5
1B9
100
AcDbEntity
  8
0
 62
     9
100
AcDbPolyline
 90
        2
 70
     0
 39
0.003
 10
0.475323
 20
1.364783
 40
0.003
 41
0.003
 10
-0.170272
 20
0.985953
 40
0.003
 41
0.003
  0
LWPOLYLINE
  5
1BA
100
AcDbEntity
  8
0
 62
     9
100
AcDbPolyline
 90
        2
 70
     0
 39
0.003
 10
-0.170272
 20
0.985953
 40
0.003
 41
0.003
 10
-0.178106
 20
0.979764
 40
0.003
 41
0.003
  0
LWPOLYLINE
  5
1BB
100
AcDbEntity
  8
0
 62
   254
100
AcDbPolyline
 90
        2
 70
     0
 39
0.003
 10
-0.170272
 20
0.985953
 40
0.003
 41
0.003
 10
0.475323
 20
1.364783
 40
0.003
 41
0.003
  0
LWPOLYLINE
  5
1BC
100
AcDbEntity
  8
0
 62
   254
100
AcDbPolyline
 90
        2
 70
     0
 39
0.003
 10
0.475323
 20
1.364783
 40
0.003
 41
0.003
 10
0.482319
 20
1.371488
 40
0.003
 41
0.003
  0
LWPOLYLINE
  5
1BD
100
AcDbEntity
  8
0
 62
   254
100
AcDbPolyline
 90
        2
 70
     0
 39
0.003
 10
0.482319
 20
1.371488
 40
0.003
 41
0.003
 10
-0.163276
 20
0.992657
 40
0.003
 41
0.003
  0
LWPOLYLINE
  5
1BE
100
AcDbEntity
  8
0
 62
   254
100
AcDbPolyline
 90
        2
 70
     0
 39
0.003
 10
-0.163276
 20
0.992657
 40
0.003
 41
0.003
 10
-0.170272
 20
0.985953
 40
0.003
 41
0.003
  0
LWPOLYLINE
  5
1BF
100
AcDbEntity
  8
0
 62
   254
100
AcDbPolyline
 90
        2
 70
     0
 39
0.003
 10
-0.163276
 20
0.992657
 40
0.003
 41
0.003
 10
0.482319
 20
1.371488
 40
0.003
 41
0.003
  0
LWPOLYLINE
  5
1C0
100
AcDbEntity
  8
0
 62
   254
100
AcDbPolyline
 90
        2
 70
     0
 39
0.003
 10
0.482319
 20
1.371488
 40
0.003
 41
0.003
 10
0.488508
 20
1.378638
 40
0.003
 41
0.003
  0
LWPOLYLINE
  5
1C1
100
AcDbEntity
  8
0
 62
   254
100
AcDbPolyline
 90
        2
 70
     0
 39
0.003
 10
0.488508
 20
1.378638
 40
0.003
 41
0.003
 10
-0.157087
 20
0.999807
 40
0.003
 41
0.003
  0
LWPOLYLINE
  5
1C2
100
AcDbEntity
  8
0
 62
   254
100
AcDbPolyline
 90
        2
 70
     0
 39
0.003
 10
-0.157087
 20
0.999807
 40
0.003
 41
0.003
 10
-0.163276
 20
0.992657
 40
0.003
 41
0.003
  0
LWPOLYLINE
  5
1C3
100
AcDbEntity
  8
0
 62
   254
100
AcDbPolyline
 90
        2
 70
     0
 39
0.003
 10
-0.157087
 20
0.999807
 40
0.003
 41
0.003
 10
0.488508
 20
1.378638
 40
0.003
 41
0.003
  0
LWPOLYLINE
  5
1C4
100
AcDbEntity
  8
0
 62
   254
100
AcDbPolyline
 90
        2
 70
     0
 39
0.003
 10
0.488508
 20
1.378638
 40
0.003
 41
0.003
 10
0.493886
 20
1.386201
 40
0.003
 41
0.003
  0
LWPOLYLINE
  5
1C5
100
AcDbEntity
  8
0
 62
   254
100
AcDbPolyline
 90
        2
 70
     0
 39
0.003
 10
0.493886
 20
1.386201
 40
0.003
 41
0.003
 10
-0.151709
 20
1.00737
 40
0.003
 41
0.003
  0
LWPOLYLINE
  5
1C6
100
AcDbEntity
  8
0
 62
   254
100
AcDbPolyline
 90
        2
 70
     0
 39
0.003
 10
-0.151709
 20
1.00737
 40
0.003
 41
0.003
 10
-0.157087
 20
0.999807
 40
0.003
 41
0.003
  0
LWPOLYLINE
  5
1C7
100
AcDbEntity
  8
0
 62
   254
100
AcDbPolyline
 90
        2
 70
     0
 39
0.003
 10
-0.151709
 20
1.00737
 40
0.003
 41
0.003
 10
0.493886
 20
1.386201
 40
0.003
 41
0.003
  0
LWPOLYLINE
  5
1C8
100
AcDbEntity
  8
0
 62
   254
100
AcDbPolyline
 90
        2
 70
     0
 39
0.003
 10
0.493886
 20
1.386201
 40
0.003
 41
0.003
 10
0.49848
 20
1.394118
 40
0.003
 41
0.003
  0
LWPOLYLINE
  5
1C9
100
AcDbEntity
  8
0
 62
   254
100
AcDbPolyline
 90
        2
 70
     0
 39
0.003
 10
0.49848
 20
1.394118
 40
0.003
 41
0.003
 10
-0.147114
 20
1.015287
 40
0.003
 41
0.003
  0
LWPOLYLINE
  5
1CA
100
AcDbEntity
  8
0
 62
   254
100
AcDbPolyline
 90
        2
 70
     0
 39
0.003
 10
-0.147114
 20
1.015287
 40
0.003
 41
0.003
 10
-0.151709
 20
1.00737
 40
0.003
 41
0.003
  0
LWPOLYLINE
  5
1CB
100
AcDbEntity
  8
0
 62
   254
100
AcDbPolyline
 90
        2
 70
     0
 39
0.003
 10
-0.147114
 20
1.015287
 40
0.003
 41
0.003
 10
0.49848
 20
1.394118
 40
0.003
 41
0.003
  0
LWPOLYLINE
  5
1CC
100
AcDbEntity
  8
0
 62
   254
100
AcDbPolyline
 90
        2
 70
     0
 39
0.003
 10
0.49848
 20
1.394118
 40
0.003
 41
0.003
 10
0.502287
 20
1.40235
 40
0.003
 41
0.003
  0
LWPOLYLINE
  5
1CD
100
AcDbEntity
  8
0
 62
   254
100
AcDbPolyline
 90
        2
 70
     0
 39
0.003
 10
0.502287
 20
1.40235
 40
0.003
 41
0.003
 10
-0.143307
 20
1.02352
 40
0.003
 41
0.003
  0
LWPOLYLINE
  5
1CE
100
AcDbEntity
  8
0
 62
   254
100
AcDbPolyline
 90
        2
 70
     0
 39
0.003
 10
-0.143307
 20
1.02352
 40
0.003
 41
0.003
 10
-0.147114
 20
1.015287
 40
0.003
 41
0.003
  0
LWPOLYLINE
  5
1CF
100
AcDbEntity
  8
0
 62
   254
100
AcDbPolyline
 90
        2
 70
     0
 39
0.003
 10
-0.143307
 20
1.02352
 40
0.003
 41
0.003
 10
0.502287
 20
1.40235
 40
0.003
 41
0.003
  0
LWPOLYLINE
  5
1D0
100
AcDbEntity
  8
0
 62
   254
100
AcDbPolyline
 90
        2
 70
     0
 39
0.003
 10
0.502287
 20
1.40235
 40
0.003
 41
0.003
 10
0.505343
 20
1.410835
 40
0.003
 41
0.003
  0
LWPOLYLINE
  5
1D1
100
AcDbEntity
  8
0
 62
   254
100
AcDbPolyline
 90
        2
 70
     0
 39
0.003
 10
0.505343
 20
1.410835
 40
0.003
 41
0.003
 10
-0.140252
 20
1.032004
 40
0.003
 41
0.003
  0
LWPOLYLINE
  5
1D2
100
AcDbEntity
  8
0
 62
   254
100
AcDbPolyline
 90
        2
 70
     0
 39
0.003
 10
-0.140252
 20
1.032004
 40
0.003
 41
0.003
 10
-0.143307
 20
1.02352
 40
0.003
 41
0.003
  0
LWPOLYLINE
  5
1D3
100
AcDbEntity
  8
0
 62
   254
100
AcDbPolyline
 90
        2
 70
     0
 39
0.003
 10
-0.140252
 20
1.032004
 40
0.003
 41
0.003
 10
0.505343
 20
1.410835
 40
0.003
 41
0.003
  0
LWPOLYLINE
  5
1D4
100
AcDbEntity
  8
0
 62
   254
100
AcDbPolyline
 90
        2
 70
     0
 39
0.003
 10
0.505343
 20
1.410835
 40
0.003
 41
0.003
 10
0.507638
 20
1.419535
 40
0.003
 41
0.003
  0
LWPOLYLINE
  5
1D5
100
AcDbEntity
  8
0
 62
   254
100
AcDbPolyline
 90
        2
 70
     0
 39
0.003
 10
0.507638
 20
1.419535
 40
0.003
 41
0.003
 10
-0.137957
 20
1.040705
 40
0.003
 41
0.003
  0
LWPOLYLINE
  5
1D6
100
AcDbEntity
  8
0
 62
   254
100
AcDbPolyline
 90
        2
 70
     0
 39
0.003
 10
-0.137957
 20
1.040705
 40
0.003
 41
0.003
 10
-0.140252
 20
1.032004
 40
0.003
 41
0.003
  0
LWPOLYLINE
  5
1D7
100
AcDbEntity
  8
0
 62
   254
100
AcDbPolyline
 90
        2
 70
     0
 39
0.003
 10
-0.137957
 20
1.040705
 40
0.003
 41
0.003
 10
0.507638
 20
1.419535
 40
0.003
 41
0.003
  0
LWPOLYLINE
  5
1D8
100
AcDbEntity
  8
0
 62
   254
100
AcDbPolyline
 90
        2
 70
     0
 39
0.003
 10
0.507638
 20
1.419535
 40
0.003
 41
0.003
 10
0.509201
 20
1.428394
 40
0.003
 41
0.003
  0
LWPOLYLINE
  5
1D9
100
AcDbEntity
  8
0
 62
   254
100
AcDbPolyline
 90
        2
 70
     0
 39
0.003
 10
0.509201
 20
1.428394
 40
0.003
 41
0.003
 10
-0.136394
 20
1.049563
 40
0.003
 41
0.003
  0
LWPOLYLINE
  5
1DA
100
AcDbEntity
  8
0
 62
   254
100
AcDbPolyline
 90
        2
 70
     0
 39
0.003
 10
-0.136394
 20
1.049563
 40
0.003
 41
0.003
 10
-0.137957
 20
1.040705
 40
0.003
 41
0.003
  0
LWPOLYLINE
  5
1DB
100
AcDbEntity
  8
0
 62
   254
100
AcDbPolyline
 90
        2
 70
     0
 39
0.003
 10
-0.136394
 20
1.049563
 40
0.003
 41
0.003
 10
0.509201
 20
1.428394
 40
0.003
 41
0.003
  0
LWPOLYLINE
  5
1DC
100
AcDbEntity
  8
0
 62
   254
100
AcDbPolyline
 90
        2
 70
     0
 39
0.003
 10
0.509201
 20
1.428394
 40
0.003
 41
0.003
 10
0.510035
 20
1.43737
 40
0.003
 41
0.003
  0
LWPOLYLINE
  5
1DD
100
AcDbEntity
  8
0
 62
   254
100
AcDbPolyline
 90
        2
 70
     0
 39
0.003
 10
0.510035
 20
1.43737
 40
0.003
 41
0.003
 10
-0.135559
 20
1.058539
 40
0.003
 41
0.003
  0
LWPOLYLINE
  5
1DE
100
AcDbEntity
  8
0
 62
   254
100
AcDbPolyline
 90
        2
 70
     0
 39
0.003
 10
-0.135559
 20
1.058539
 40
0.003
 41
0.003
 10
-0.136394
 20
1.049563
 40
0.003
 41
0.003
  0
LWPOLYLINE
  5
1DF
100
AcDbEntity
  8
0
 62
   254
100
AcDbPolyline
 90
        2
 70
     0
 39
0.003
 10
-0.135559
 20
1.058539
 40
0.003
 41
0.003
 10
0.510035
 20
1.43737
 40
0.003
 41
0.003
  0
LWPOLYLINE
  5
1E0
100
AcDbEntity
  8
0
 62
   254
100
AcDbPolyline
 90
        2
 70
     0
 39
0.003
 10
0.510035
 20
1.43737
 40
0.003
 41
0.003
 10
0.510169
 20
1.446398
 40
0.003
 41
0.003
  0
LWPOLYLINE
  5
1E1
100
AcDbEntity
  8
0
 62
   254
100
AcDbPolyline
 90
        2
 70
     0
 39
0.003
 10
0.510169
 20
1.446398
 40
0.003
 41
0.003
 10
-0.135425
 20
1.067567
 40
0.003
 41
0.003
  0
LWPOLYLINE
  5
1E2
100
AcDbEntity
  8
0
 62
   254
100
AcDbPolyline
 90
        2
 70
     0
 39
0.003
 10
-0.135425
 20
1.067567
 40
0.003
 41
0.003
 10
-0.135559
 20
1.058539
 40
0.003
 41
0.003
  0
LWPOLYLINE
  5
1E3
100
AcDbEntity
  8
0
 62
   254
100
AcDbPolyline
 90
        2
 70
     0
 39
0.003
 10
-0.135425
 20
1.067567
 40
0.003
 41
0.003
 10
0.510169
 20
1.446398
 40
0.003
 41
0.003
  0
LWPOLYLINE
  5
1E4
100
AcDbEntity
  8
0
 62
   254
100
AcDbPolyline
 90
        2
 70
     0
 39
0.003
 10
0.510169
 20
1.446398
 40
0.003
 41
0.003
 10
0.509606
 20
1.455445
 40
0.003
 41
0.003
  0
LWPOLYLINE
  5
1E5
100
AcDbEntity
  8
0
 62
   254
100
AcDbPolyline
 90
        2
 70
     0
 39
0.003
 10
0.509606
 20
1.455445
 40
0.003
 41
0.003
 10
-0.135988
 20
1.076614
 40
0.003
 41
0.003
  0
LWPOLYLINE
  5
1E6
100
AcDbEntity
  8
0
 62
   254
100
AcDbPolyline
 90
        2
 70
     0
 39
0.003
 10
-0.135988
 20
1.076614
 40
0.003
 41
0.003
 10
-0.135425
 20
1.067567
 40
0.003
 41
0.003
  0
LWPOLYLINE
  5
1E7
100
AcDbEntity
  8
0
 62
   254
100
AcDbPolyline
 90
        2
 70
     0
 39
0.003
 10
-0.135988
 20
1.076614
 40
0.003
 41
0.003
 10
0.509606
 20
1.455445
 40
0.003
 41
0.003
  0
LWPOLYLINE
  5
1E8
100
AcDbEntity
  8
0
 62
   254
100
AcDbPolyline
 90
        2
 70
     0
 39
0.003
 10
0.509606
 20
1.455445
 40
0.003
 41
0.003
 10
0.508358
 20
1.464457
 40
0.003
 41
0.003
  0
LWPOLYLINE
  5
1E9
100
AcDbEntity
  8
0
 62
   254
100
AcDbPolyline
 90
        2
 70
     0
 39
0.003
 10
0.508358
 20
1.464457
 40
0.003
 41
0.003
 10
-0.137236
 20
1.085626
 40
0.003
 41
0.003
  0
LWPOLYLINE
  5
1EA
100
AcDbEntity
  8
0
 62
   254
100
AcDbPolyline
 90
        2
 70
     0
 39
0.003
 10
-0.137236
 20
1.085626
 40
0.003
 41
0.003
 10
-0.135988
 20
1.076614
 40
0.003
 41
0.003
  0
LWPOLYLINE
  5
1EB
100
AcDbEntity
  8
0
 62
   254
100
AcDbPolyline
 90
        2
 70
     0
 39
0.003
 10
-0.137236
 20
1.085626
 40
0.003
 41
0.003
 10
0.508358
 20
1.464457
 40
0.003
 41
0.003
  0
LWPOLYLINE
  5
1EC
100
AcDbEntity
  8
0
 62
   254
100
AcDbPolyline
 90
        2
 70
     0
 39
0.003
 10
0.508358
 20
1.464457
 40
0.003
 41
0.003
 10
0.506437
 20
1.473386
 40
0.003
 41
0.003
  0
LWPOLYLINE
  5
1ED
100
AcDbEntity
  8
0
 62
   254
100
AcDbPolyline
 90
        2
 70
     0
 39
0.003
 10
0.506437
 20
1.473386
 40
0.003
 41
0.003
 10
-0.139157
 20
1.094555
 40
0.003
 41
0.003
  0
LWPOLYLINE
  5
1EE
100
AcDbEntity
  8
0
 62
   254
100
AcDbPolyline
 90
        2
 70
     0
 39
0.003
 10
-0.139157
 20
1.094555
 40
0.003
 41
0.003
 10
-0.137236
 20
1.085626
 40
0.003
 41
0.003
  0
LWPOLYLINE
  5
1EF
100
AcDbEntity
  8
0
 62
   254
100
AcDbPolyline
 90
        2
 70
     0
 39
0.003
 10
-0.139157
 20
1.094555
 40
0.003
 41
0.003
 10
0.506437
 20
1.473386
 40
0.003
 41
0.003
  0
LWPOLYLINE
  5
1F0
100
AcDbEntity
  8
0
 62
   254
100
AcDbPolyline
 90
        2
 70
     0
 39
0.003
 10
0.506437
 20
1.473386
 40
0.003
 41
0.003
 10
0.503866
 20
1.482173
 40
0.003
 41
0.003
  0
LWPOLYLINE
  5
1F1
100
AcDbEntity
  8
0
 62
   254
100
AcDbPolyline
 90
        2
 70
     0
 39
0.003
 10
0.503866
 20
1.482173
 40
0.003
 41
0.003
 10
-0.141728
 20
1.103343
 40
0.003
 41
0.003
  0
LWPOLYLINE
  5
1F2
100
AcDbEntity
  8
0
 62
   254
100
AcDbPolyline
 90
        2
 70
     0
 39
0.003
 10
-0.141728
 20
1.103343
 40
0.003
 41
0.003
 10
-0.139157
 20
1.094555
 40
0.003
 41
0.003
  0
LWPOLYLINE
  5
1F3
100
AcDbEntity
  8
0
 62
   254
100
AcDbPolyline
 90
        2
 70
     0
 39
0.003
 10
-0.141728
 20
1.103343
 40
0.003
 41
0.003
 10
0.503866
 20
1.482173
 40
0.003
 41
0.003
  0
LWPOLYLINE
  5
1F4
100
AcDbEntity
  8
0
 62
   254
100
AcDbPolyline
 90
        2
 70
     0
 39
0.003
 10
0.503866
 20
1.482173
 40
0.003
 41
0.003
 10
0.500646
 20
1.490783
 40
0.003
 41
0.003
  0
LWPOLYLINE
  5
1F5
100
AcDbEntity
  8
0
 62
   254
100
AcDbPolyline
 90
        2
 70
     0
 39
0.003
 10
0.500646
 20
1.490783
 40
0.003
 41
0.003
 10
-0.144949
 20
1.111953
 40
0.003
 41
0.003
  0
LWPOLYLINE
  5
1F6
100
AcDbEntity
  8
0
 62
   254
100
AcDbPolyline
 90
        2
 70
     0
 39
0.003
 10
-0.144949
 20
1.111953
 40
0.003
 41
0.003
 10
-0.141728
 20
1.103343
 40
0.003
 41
0.003
  0
LWPOLYLINE
  5
1F7
100
AcDbEntity
  8
0
 62
   254
100
AcDbPolyline
 90
        2
 70
     0
 39
0.003
 10
-0.144949
 20
1.111953
 40
0.003
 41
0.003
 10
0.500646
 20
1.490783
 40
0.003
 41
0.003
  0
LWPOLYLINE
  5
1F8
100
AcDbEntity
  8
0
 62
   254
100
AcDbPolyline
 90
        2
 70
     0
 39
0.003
 10
0.500646
 20
1.490783
 40
0.003
 41
0.003
 10
0.496803
 20
1.499157
 40
0.003
 41
0.003
  0
LWPOLYLINE
  5
1F9
100
AcDbEntity
  8
0
 62
   254
100
AcDbPolyline
 90
        2
 70
     0
 39
0.003
 10
0.496803
 20
1.499157
 40
0.003
 41
0.003
 10
-0.148791
 20
1.120327
 40
0.003
 41
0.003
  0
LWPOLYLINE
  5
1FA
100
AcDbEntity
  8
0
 62
   254
100
AcDbPolyline
 90
        2
 70
     0
 39
0.003
 10
-0.148791
 20
1.120327
 40
0.003
 41
0.003
 10
-0.144949
 20
1.111953
 40
0.003
 41
0.003
  0
LWPOLYLINE
  5
1FB
100
AcDbEntity
  8
0
 62
   254
100
AcDbPolyline
 90
        2
 70
     0
 39
0.003
 10
-0.148791
 20
1.120327
 40
0.003
 41
0.003
 10
0.496803
 20
1.499157
 40
0.003
 41
0.003
  0
LWPOLYLINE
  5
1FC
100
AcDbEntity
  8
0
 62
   254
100
AcDbPolyline
 90
        2
 70
     0
 39
0.003
 10
0.496803
 20
1.499157
 40
0.003
 41
0.003
 10
0.492339
 20
1.507252
 40
0.003
 41
0.003
  0
LWPOLYLINE
  5
1FD
100
AcDbEntity
  8
0
 62
   254
100
AcDbPolyline
 90
        2
 70
     0
 39
0.003
 10
0.492339
 20
1.507252
 40
0.003
 41
0.003
 10
-0.153256
 20
1.128421
 40
0.003
 41
0.003
  0
LWPOLYLINE
  5
1FE
100
AcDbEntity
  8
0
 62
   254
100
AcDbPolyline
 90
        2
 70
     0
 39
0.003
 10
-0.153256
 20
1.128421
 40
0.003
 41
0.003
 10
-0.148791
 20
1.120327
 40
0.003
 41
0.003
  0
LWPOLYLINE
  5
1FF
100
AcDbEntity
  8
0
 62
   254
100
AcDbPolyline
 90
        2
 70
     0
 39
0.003
 10
-0.153256
 20
1.128421
 40
0.003
 41
0.003
 10
0.492339
 20
1.507252
 40
0.003
 41
0.003
  0
LWPOLYLINE
  5
200
100
AcDbEntity
  8
0
 62
   254
100
AcDbPolyline
 90
        2
 70
     0
 39
0.003
 10
0.492339
 20
1.507252
 40
0.003
 41
0.003
 10
0.487283
 20
1.515004
 40
0.003
 41
0.003
  0
LWPOLYLINE
  5
201
100
AcDbEntity
  8
0
 62
   254
100
AcDbPolyline
 90
        2
 70
     0
 39
0.003
 10
0.487283
 20
1.515004
 40
0.003
 41
0.003
 10
-0.158311
 20
1.136173
 40
0.003
 41
0.003
  0
LWPOLYLINE
  5
202
100
AcDbEntity
  8
0
 62
   254
100
AcDbPolyline
 90
        2
 70
     0
 39
0.003
 10
-0.158311
 20
1.136173
 40
0.003
 41
0.003
 10
-0.153256
 20
1.128421
 40
0.003
 41
0.003
  0
LWPOLYLINE
  5
203
100
AcDbEntity
  8
0
 62
   254
100
AcDbPolyline
 90
        2
 70
     0
 39
0.003
 10
-0.158311
 20
1.136173
 40
0.003
 41
0.003
 10
0.487283
 20
1.515004
 40
0.003
 41
0.003
  0
LWPOLYLINE
  5
204
100
AcDbEntity
  8
0
 62
   254
100
AcDbPolyline
 90
        2
 70
     0
 39
0.003
 10
0.487283
 20
1.515004
 40
0.003
 41
0.003
 10
0.48163
 20
1.52239
 40
0.003
 41
0.003
  0
LWPOLYLINE
  5
205
100
AcDbEntity
  8
0
 62
   254
100
AcDbPolyline
 90
        2
 70
     0
 39
0.003
 10
0.48163
 20
1.52239
 40
0.003
 41
0.003
 10
-0.163965
 20
1.143559
 40
0.003
 41
0.003
  0
LWPOLYLINE
  5
206
100
AcDbEntity
  8
0
 62
   254
100
AcDbPolyline
 90
        2
 70
     0
 39
0.003
 10
-0.163965
 20
1.143559
 40
0.003
 41
0.003
 10
-0.158311
 20
1.136173
 40
0.003
 41
0.003
  0
LWPOLYLINE
  5
207
100
AcDbEntity
  8
0
 62
   254
100
AcDbPolyline
 90
        2
 70
     0
 39
0.003
 10
-0.163965
 20
1.143559
 40
0.003
 41
0.003
 10
0.48163
 20
1.52239
 40
0.003
 41
0.003
  0
LWPOLYLINE
  5
208
100
AcDbEntity
  8
0
 62
   254
100
AcDbPolyline
 90
        2
 70
     0
 39
0.003
 10
0.48163
 20
1.52239
 40
0.003
 41
0.003
 10
0.475406
 20
1.529339
 40
0.003
 41
0.003
  0
LWPOLYLINE
  5
209
100
AcDbEntity
  8
0
 62
   254
100
AcDbPolyline
 90
        2
 70
     0
 39
0.003
 10
0.475406
 20
1.529339
 40
0.003
 41
0.003
 10
-0.170189
 20
1.150508
 40
0.003
 41
0.003
  0
LWPOLYLINE
  5
20A
100
AcDbEntity
  8
0
 62
   254
100
AcDbPolyline
 90
        2
 70
     0
 39
0.003
 10
-0.170189
 20
1.150508
 40
0.003
 41
0.003
 10
-0.163965
 20
1.143559
 40
0.003
 41
0.003
  0
LWPOLYLINE
  5
20B
100
AcDbEntity
  8
0
 62
   254
100
AcDbPolyline
 90
        2
 70
     0
 39
0.003
 10
-0.170189
 20
1.150508
 40
0.003
 41
0.003
 10
0.475406
 20
1.529339
 40
0.003
 41
0.003
  0
LWPOLYLINE
  5
20C
100
AcDbEntity
  8
0
 62
   254
100
AcDbPolyline
 90
        2
 70
     0
 39
0.003
 10
0.475406
 20
1.529339
 40
0.003
 41
0.003
 10
0.468614
 20
1.535815
 40
0.003
 41
0.003
  0
LWPOLYLINE
  5
20D
100
AcDbEntity
  8
0
 62
   254
100
AcDbPolyline
 90
        2
 70
     0
 39
0.003
 10
0.468614
 20
1.535815
 40
0.003
 41
0.003
 10
-0.17698
 20
1.156984
 40
0.003
 41
0.003
  0
LWPOLYLINE
  5
20E
100
AcDbEntity
  8
0
 62
   254
100
AcDbPolyline
 90
        2
 70
     0
 39
0.003
 10
-0.17698
 20
1.156984
 40
0.003
 41
0.003
 10
-0.170189
 20
1.150508
 40
0.003
 41
0.003
  0
LWPOLYLINE
  5
20F
100
AcDbEntity
  8
0
 62
   254
100
AcDbPolyline
 90
        2
 70
     0
 39
0.003
 10
-0.17698
 20
1.156984
 40
0.003
 41
0.003
 10
0.468614
 20
1.535815
 40
0.003
 41
0.003
  0
LWPOLYLINE
  5
210
100
AcDbEntity
  8
0
 62
   254
100
AcDbPolyline
 90
        2
 70
     0
 39
0.003
 10
0.468614
 20
1.535815
 40
0.003
 41
0.003
 10
0.461283
 20
1.541752
 40
0.003
 41
0.003
  0
LWPOLYLINE
  5
211
100
AcDbEntity
  8
0
 62
   254
100
AcDbPolyline
 90
        2
 70
     0
 39
0.003
 10
0.461283
 20
1.541752
 40
0.003
 41
0.003
 10
-0.184311
 20
1.162921
 40
0.003
 41
0.003
  0
LWPOLYLINE
  5
212
100
AcDbEntity
  8
0
 62
   254
100
AcDbPolyline
 90
        2
 70
     0
 39
0.003
 10
-0.184311
 20
1.162921
 40
0.003
 41
0.003
 10
-0.17698
 20
1.156984
 40
0.003
 41
0.003
  0
LWPOLYLINE
  5
213
100
AcDbEntity
  8
0
 62
   254
100
AcDbPolyline
 90
        2
 70
     0
 39
0.003
 10
-0.184311
 20
1.162921
 40
0.003
 41
0.003
 10
0.461283
 20
1.541752
 40
0.003
 41
0.003
  0
LWPOLYLINE
  5
214
100
AcDbEntity
  8
0
 62
   254
100
AcDbPolyline
 90
        2
 70
     0
 39
0.003
 10
0.461283
 20
1.541752
 40
0.003
 41
0.003
 10
0.453413
 20
1.547122
 40
0.003
 41
0.003
  0
LWPOLYLINE
  5
215
100
AcDbEntity
  8
0
 62
   254
100
AcDbPolyline
 90
        2
 70
     0
 39
0.003
 10
0.453413
 20
1.547122
 40
0.003
 41
0.003
 10
-0.192181
 20
1.168291
 40
0.003
 41
0.003
  0
LWPOLYLINE
  5
216
100
AcDbEntity
  8
0
 62
   254
100
AcDbPolyline
 90
        2
 70
     0
 39
0.003
 10
-0.192181
 20
1.168291
 40
0.003
 41
0.003
 10
-0.184311
 20
1.162921
 40
0.003
 41
0.003
  0
LWPOLYLINE
  5
217
100
AcDbEntity
  8
0
 62
   254
100
AcDbPolyline
 90
        2
 70
     0
 39
0.003
 10
-0.192181
 20
1.168291
 40
0.003
 41
0.003
 10
0.453413
 20
1.547122
 40
0.003
 41
0.003
  0
LWPOLYLINE
  5
218
100
AcDbEntity
  8
0
 62
   254
100
AcDbPolyline
 90
        2
 70
     0
 39
0.003
 10
0.453413
 20
1.547122
 40
0.003
 41
0.003
 10
0.445028
 20
1.551862
 40
0.003
 41
0.003
  0
LWPOLYLINE
  5
219
100
AcDbEntity
  8
0
 62
   254
100
AcDbPolyline
 90
        2
 70
     0
 39
0.003
 10
0.445028
 20
1.551862
 40
0.003
 41
0.003
 10
-0.200567
 20
1.173031
 40
0.003
 41
0.003
  0
LWPOLYLINE
  5
21A
100
AcDbEntity
  8
0
 62
   254
100
AcDbPolyline
 90
        2
 70
     0
 39
0.003
 10
-0.200567
 20
1.173031
 40
0.003
 41
0.003
 10
-0.192181
 20
1.168291
 40
0.003
 41
0.003
  0
LWPOLYLINE
  5
21B
100
AcDbEntity
  8
0
 62
     9
100
AcDbPolyline
 90
        2
 70
     0
 39
0.003
 10
-0.200567
 20
1.173031
 40
0.003
 41
0.003
 10
0.445028
 20
1.551862
 40
0.003
 41
0.003
  0
LWPOLYLINE
  5
21C
100
AcDbEntity
  8
0
 62
     9
100
AcDbPolyline
 90
        2
 70
     0
 39
0.003
 10
0.445028
 20
1.551862
 40
0.003
 41
0.003
 10
0.436126
 20
1.555929
 40
0.003
 41
0.003
  0
LWPOLYLINE
  5
21D
100
AcDbEntity
  8
0
 62
     9
100
AcDbPolyline
 90
        2
 70
     0
 39
0.003
 10
0.436126
 20
1.555929
 40
0.003
 41
0.003
 10
-0.209469
 20
1.177098
 40
0.003
 41
0.003
  0
LWPOLYLINE
  5
21E
100
AcDbEntity
  8
0
 62
     9
100
AcDbPolyline
 90
        2
 70
     0
 39
0.003
 10
-0.209469
 20
1.177098
 40
0.003
 41
0.003
 10
-0.200567
 20
1.173031
 40
0.003
 41
0.003
  0
LWPOLYLINE
  5
21F
100
AcDbEntity
  8
0
 62
     9
100
AcDbPolyline
 90
        2
 70
     0
 39
0.003
 10
-0.209469
 20
1.177098
 40
0.003
 41
0.003
 10
0.436126
 20
1.555929
 40
0.003
 41
0.003
  0
LWPOLYLINE
  5
220
100
AcDbEntity
  8
0
 62
     9
100
AcDbPolyline
 90
        2
 70
     0
 39
0.003
 10
0.436126
 20
1.555929
 40
0.003
 41
0.003
 10
0.427087
 20
1.559524
 40
0.003
 41
0.003
  0
LWPOLYLINE
  5
221
100
AcDbEntity
  8
0
 62
     9
100
AcDbPolyline
 90
        2
 70
     0
 39
0.003
 10
0.427087
 20
1.559524
 40
0.003
 41
0.003
 10
-0.218508
 20
1.180693
 40
0.003
 41
0.003
  0
LWPOLYLINE
  5
222
100
AcDbEntity
  8
0
 62
     9
100
AcDbPolyline
 90
        2
 70
     0
 39
0.003
 10
-0.218508
 20
1.180693
 40
0.003
 41
0.003
 10
-0.209469
 20
1.177098
 40
0.003
 41
0.003
  0
LWPOLYLINE
  5
223
100
AcDbEntity
  8
0
 62
     9
100
AcDbPolyline
 90
        2
 70
     0
 39
0.003
 10
-0.218508
 20
1.180693
 40
0.003
 41
0.003
 10
0.427087
 20
1.559524
 40
0.003
 41
0.003
  0
LWPOLYLINE
  5
224
100
AcDbEntity
  8
0
 62
     9
100
AcDbPolyline
 90
        2
 70
     0
 39
0.003
 10
0.427087
 20
1.559524
 40
0.003
 41
0.003
 10
0.41824
 20
1.562929
 40
0.003
 41
0.003
  0
LWPOLYLINE
  5
225
100
AcDbEntity
  8
0
 62
     9
100
AcDbPolyline
 90
        2
 70
     0
 39
0.003
 10
0.41824
 20
1.562929
 40
0.003
 41
0.003
 10
-0.227354
 20
1.184098
 40
0.003
 41
0.003
  0
LWPOLYLINE
  5
226
100
AcDbEntity
  8
0
 62
     9
100
AcDbPolyline
 90
        2
 70
     0
 39
0.003
 10
-0.227354
 20
1.184098
 40
0.003
 41
0.003
 10
-0.218508
 20
1.180693
 40
0.003
 41
0.003
  0
LWPOLYLINE
  5
227
100
AcDbEntity
  8
0
 62
     9
100
AcDbPolyline
 90
        2
 70
     0
 39
0.003
 10
-0.227354
 20
1.184098
 40
0.003
 41
0.003
 10
0.41824
 20
1.562929
 40
0.003
 41
0.003
  0
LWPOLYLINE
  5
228
100
AcDbEntity
  8
0
 62
     9
100
AcDbPolyline
 90
        2
 70
     0
 39
0.003
 10
0.41824
 20
1.562929
 40
0.003
 41
0.003
 10
0.409598
 20
1.566169
 40
0.003
 41
0.003
  0
LWPOLYLINE
  5
229
100
AcDbEntity
  8
0
 62
     9
100
AcDbPolyline
 90
        2
 70
     0
 39
0.003
 10
0.409598
 20
1.566169
 40
0.003
 41
0.003
 10
-0.235996
 20
1.187339
 40
0.003
 41
0.003
  0
LWPOLYLINE
  5
22A
100
AcDbEntity
  8
0
 62
     9
100
AcDbPolyline
 90
        2
 70
     0
 39
0.003
 10
-0.235996
 20
1.187339
 40
0.003
 41
0.003
 10
-0.227354
 20
1.184098
 40
0.003
 41
0.003
  0
LWPOLYLINE
  5
22B
100
AcDbEntity
  8
0
 62
     9
100
AcDbPolyline
 90
        2
 70
     0
 39
0.003
 10
-0.235996
 20
1.187339
 40
0.003
 41
0.003
 10
0.409598
 20
1.566169
 40
0.003
 41
0.003
  0
LWPOLYLINE
  5
22C
100
AcDbEntity
  8
0
 62
     9
100
AcDbPolyline
 90
        2
 70
     0
 39
0.003
 10
0.409598
 20
1.566169
 40
0.003
 41
0.003
 10
0.40115
 20
1.569283
 40
0.003
 41
0.003
  0
LWPOLYLINE
  5
22D
100
AcDbEntity
  8
0
 62
     9
100
AcDbPolyline
 90
        2
 70
     0
 39
0.003
 10
0.40115
 20
1.569283
 40
0.003
 41
0.003
 10
-0.244445
 20
1.190453
 40
0.003
 41
0.003
  0
LWPOLYLINE
  5
22E
100
AcDbEntity
  8
0
 62
     9
100
AcDbPolyline
 90
        2
 70
     0
 39
0.003
 10
-0.244445
 20
1.190453
 40
0.003
 41
0.003
 10
-0.235996
 20
1.187339
 40
0.003
 41
0.003
  0
LWPOLYLINE
  5
22F
100
AcDbEntity
  8
0
 62
     9
100
AcDbPolyline
 90
        2
 70
     0
 39
0.003
 10
-0.244445
 20
1.190453
 40
0.003
 41
0.003
 10
0.40115
 20
1.569283
 40
0.003
 41
0.003
  0
LWPOLYLINE
  5
230
100
AcDbEntity
  8
0
 62
     9
100
AcDbPolyline
 90
        2
 70
     0
 39
0.003
 10
0.40115
 20
1.569283
 40
0.003
 41
0.003
 10
0.392909
 20
1.572287
 40
0.003
 41
0.003
  0
LWPOLYLINE
  5
231
100
AcDbEntity
  8
0
 62
     9
100
AcDbPolyline
 90
        2
 70
     0
 39
0.003
 10
0.392909
 20
1.572287
 40
0.003
 41
0.003
 10
-0.252685
 20
1.193457
 40
0.003
 41
0.003
  0
LWPOLYLINE
  5
232
100
AcDbEntity
  8
0
 62
     9
100
AcDbPolyline
 90
        2
 70
     0
 39
0.003
 10
-0.252685
 20
1.193457
 40
0.003
 41
0.003
 10
-0.244445
 20
1.190453
 40
0.003
 41
0.003
  0
LWPOLYLINE
  5
233
100
AcDbEntity
  8
0
 62
     9
100
AcDbPolyline
 90
        2
 70
     0
 39
0.003
 10
-0.252685
 20
1.193457
 40
0.003
 41
0.003
 10
0.392909
 20
1.572287
 40
0.003
 41
0.003
  0
LWPOLYLINE
  5
234
100
AcDbEntity
  8
0
 62
     9
100
AcDbPolyline
 90
        2
 70
     0
 39
0.003
 10
0.392909
 20
1.572287
 40
0.003
 41
0.003
 10
0.384866
 20
1.575232
 40
0.003
 41
0.003
  0
LWPOLYLINE
  5
235
100
AcDbEntity
  8
0
 62
     9
100
AcDbPolyline
 90
        2
 70
     0
 39
0.003
 10
0.384866
 20
1.575232
 40
0.003
 41
0.003
 10
-0.260728
 20
1.196402
 40
0.003
 41
0.003
  0
LWPOLYLINE
  5
236
100
AcDbEntity
  8
0
 62
     9
100
AcDbPolyline
 90
        2
 70
     0
 39
0.003
 10
-0.260728
 20
1.196402
 40
0.003
 41
0.003
 10
-0.252685
 20
1.193457
 40
0.003
 41
0.003
  0
LWPOLYLINE
  5
237
100
AcDbEntity
  8
0
 62
     9
100
AcDbPolyline
 90
        2
 70
     0
 39
0.003
 10
-0.260728
 20
1.196402
 40
0.003
 41
0.003
 10
0.384866
 20
1.575232
 40
0.003
 41
0.003
  0
LWPOLYLINE
  5
238
100
AcDbEntity
  8
0
 62
     9
100
AcDbPolyline
 90
        2
 70
     0
 39
0.003
 10
0.384866
 20
1.575232
 40
0.003
 41
0.003
 10
0.377028
 20
1.578138
 40
0.003
 41
0.003
  0
LWPOLYLINE
  5
239
100
AcDbEntity
  8
0
 62
     9
100
AcDbPolyline
 90
        2
 70
     0
 39
0.003
 10
0.377028
 20
1.578138
 40
0.003
 41
0.003
 10
-0.268567
 20
1.199307
 40
0.003
 41
0.003
  0
LWPOLYLINE
  5
23A
100
AcDbEntity
  8
0
 62
     9
100
AcDbPolyline
 90
        2
 70
     0
 39
0.003
 10
-0.268567
 20
1.199307
 40
0.003
 41
0.003
 10
-0.260728
 20
1.196402
 40
0.003
 41
0.003
  0
LWPOLYLINE
  5
23B
100
AcDbEntity
  8
0
 62
     9
100
AcDbPolyline
 90
        2
 70
     0
 39
0.003
 10
-0.268567
 20
1.199307
 40
0.003
 41
0.003
 10
0.377028
 20
1.578138
 40
0.003
 41
0.003
  0
LWPOLYLINE
  5
23C
100
AcDbEntity
  8
0
 62
     9
100
AcDbPolyline
 90
        2
 70
     0
 39
0.003
 10
0.377028
 20
1.578138
 40
0.003
 41
0.003
 10
0.369386
 20
1.581047
 40
0.003
 41
0.003
  0
LWPOLYLINE
  5
23D
100
AcDbEntity
  8
0
 62
     9
100
AcDbPolyline
 90
        2
 70
     0
 39
0.003
 10
0.369386
 20
1.581047
 40
0.003
 41
0.003
 10
-0.276209
 20
1.202217
 40
0.003
 41
0.003
  0
LWPOLYLINE
  5
23E
100
AcDbEntity
  8
0
 62
     9
100
AcDbPolyline
 90
        2
 70
     0
 39
0.003
 10
-0.276209
 20
1.202217
 40
0.003
 41
0.003
 10
-0.268567
 20
1.199307
 40
0.003
 41
0.003
  0
LWPOLYLINE
  5
23F
100
AcDbEntity
  8
0
 62
     9
100
AcDbPolyline
 90
        2
 70
     0
 39
0.003
 10
-0.276209
 20
1.202217
 40
0.003
 41
0.003
 10
0.369386
 20
1.581047
 40
0.003
 41
0.003
  0
LWPOLYLINE
  5
240
100
AcDbEntity
  8
0
 62
     9
100
AcDbPolyline
 90
        2
 70
     0
 39
0.003
 10
0.369386
 20
1.581047
 40
0.003
 41
0.003
 10
0.361957
 20
1.583969
 40
0.003
 41
0.003
  0
LWPOLYLINE
  5
241
100
AcDbEntity
  8
0
 62
     9
100
AcDbPolyline
 90
        2
 70
     0
 39
0.003
 10
0.361957
 20
1.583969
 40
0.003
 41
0.003
 10
-0.283638
 20
1.205138
 40
0.003
 41
0.003
  0
LWPOLYLINE
  5
242
100
AcDbEntity
  8
0
 62
     9
100
AcDbPolyline
 90
        2
 70
     0
 39
0.003
 10
-0.283638
 20
1.205138
 40
0.003
 41
0.003
 10
-0.276209
 20
1.202217
 40
0.003
 41
0.003
  0
LWPOLYLINE
  5
243
100
AcDbEntity
  8
0
 62
     9
100
AcDbPolyline
 90
        2
 70
     0
 39
0.003
 10
-0.283638
 20
1.205138
 40
0.003
 41
0.003
 10
0.361957
 20
1.583969
 40
0.003
 41
0.003
  0
LWPOLYLINE
  5
244
100
AcDbEntity
  8
0
 62
     9
100
AcDbPolyline
 90
        2
 70
     0
 39
0.003
 10
0.361957
 20
1.583969
 40
0.003
 41
0.003
 10
0.354724
 20
1.586957
 40
0.003
 41
0.003
  0
LWPOLYLINE
  5
245
100
AcDbEntity
  8
0
 62
     9
100
AcDbPolyline
 90
        2
 70
     0
 39
0.003
 10
0.354724
 20
1.586957
 40
0.003
 41
0.003
 10
-0.29087
 20
1.208126
 40
0.003
 41
0.003
  0
LWPOLYLINE
  5
246
100
AcDbEntity
  8
0
 62
     9
100
AcDbPolyline
 90
        2
 70
     0
 39
0.003
 10
-0.29087
 20
1.208126
 40
0.003
 41
0.003
 10
-0.283638
 20
1.205138
 40
0.003
 41
0.003
  0
LWPOLYLINE
  5
247
100
AcDbEntity
  8
0
 62
     9
100
AcDbPolyline
 90
        2
 70
     0
 39
0.003
 10
-0.29087
 20
1.208126
 40
0.003
 41
0.003
 10
0.354724
 20
1.586957
 40
0.003
 41
0.003
  0
LWPOLYLINE
  5
248
100
AcDbEntity
  8
0
 62
     9
100
AcDbPolyline
 90
        2
 70
     0
 39
0.003
 10
0.354724
 20
1.586957
 40
0.003
 41
0.003
 10
0.347697
 20
1.590031
 40
0.003
 41
0.003
  0
LWPOLYLINE
  5
249
100
AcDbEntity
  8
0
 62
     9
100
AcDbPolyline
 90
        2
 70
     0
 39
0.003
 10
0.347697
 20
1.590031
 40
0.003
 41
0.003
 10
-0.297898
 20
1.211201
 40
0.003
 41
0.003
  0
LWPOLYLINE
  5
24A
100
AcDbEntity
  8
0
 62
     9
100
AcDbPolyline
 90
        2
 70
     0
 39
0.003
 10
-0.297898
 20
1.211201
 40
0.003
 41
0.003
 10
-0.29087
 20
1.208126
 40
0.003
 41
0.003
  0
LWPOLYLINE
  5
24B
100
AcDbEntity
  8
0
 62
     9
100
AcDbPolyline
 90
        2
 70
     0
 39
0.003
 10
-0.297898
 20
1.211201
 40
0.003
 41
0.003
 10
0.347697
 20
1.590031
 40
0.003
 41
0.003
  0
LWPOLYLINE
  5
24C
100
AcDbEntity
  8
0
 62
     9
100
AcDbPolyline
 90
        2
 70
     0
 39
0.003
 10
0.347697
 20
1.590031
 40
0.003
 41
0.003
 10
0.34087
 20
1.593236
 40
0.003
 41
0.003
  0
LWPOLYLINE
  5
24D
100
AcDbEntity
  8
0
 62
     9
100
AcDbPolyline
 90
        2
 70
     0
 39
0.003
 10
0.34087
 20
1.593236
 40
0.003
 41
0.003
 10
-0.304724
 20
1.214406
 40
0.003
 41
0.003
  0
LWPOLYLINE
  5
24E
100
AcDbEntity
  8
0
 62
     9
100
AcDbPolyline
 90
        2
 70
     0
 39
0.003
 10
-0.304724
 20
1.214406
 40
0.003
 41
0.003
 10
-0.297898
 20
1.211201
 40
0.003
 41
0.003
  0
LWPOLYLINE
  5
24F
100
AcDbEntity
  8
0
 62
     9
100
AcDbPolyline
 90
        2
 70
     0
 39
0.003
 10
-0.304724
 20
1.214406
 40
0.003
 41
0.003
 10
0.34087
 20
1.593236
 40
0.003
 41
0.003
  0
LWPOLYLINE
  5
250
100
AcDbEntity
  8
0
 62
     9
100
AcDbPolyline
 90
        2
 70
     0
 39
0.003
 10
0.34087
 20
1.593236
 40
0.003
 41
0.003
 10
0.334256
 20
1.596587
 40
0.003
 41
0.003
  0
LWPOLYLINE
  5
251
100
AcDbEntity
  8
0
 62
     9
100
AcDbPolyline
 90
        2
 70
     0
 39
0.003
 10
0.334256
 20
1.596587
 40
0.003
 41
0.003
 10
-0.311339
 20
1.217756
 40
0.003
 41
0.003
  0
LWPOLYLINE
  5
252
100
AcDbEntity
  8
0
 62
     9
100
AcDbPolyline
 90
        2
 70
     0
 39
0.003
 10
-0.311339
 20
1.217756
 40
0.003
 41
0.003
 10
-0.304724
 20
1.214406
 40
0.003
 41
0.003
  0
LWPOLYLINE
  5
253
100
AcDbEntity
  8
0
 62
   254
100
AcDbPolyline
 90
        2
 70
     0
 39
0.003
 10
-0.311339
 20
1.217756
 40
0.003
 41
0.003
 10
0.334256
 20
1.596587
 40
0.003
 41
0.003
  0
LWPOLYLINE
  5
254
100
AcDbEntity
  8
0
 62
   254
100
AcDbPolyline
 90
        2
 70
     0
 39
0.003
 10
0.334256
 20
1.596587
 40
0.003
 41
0.003
 10
0.327843
 20
1.600126
 40
0.003
 41
0.003
  0
LWPOLYLINE
  5
255
100
AcDbEntity
  8
0
 62
   254
100
AcDbPolyline
 90
        2
 70
     0
 39
0.003
 10
0.327843
 20
1.600126
 40
0.003
 41
0.003
 10
-0.317752
 20
1.221295
 40
0.003
 41
0.003
  0
LWPOLYLINE
  5
256
100
AcDbEntity
  8
0
 62
   254
100
AcDbPolyline
 90
        2
 70
     0
 39
0.003
 10
-0.317752
 20
1.221295
 40
0.003
 41
0.003
 10
-0.311339
 20
1.217756
 40
0.003
 41
0.003
  0
LWPOLYLINE
  5
257
100
AcDbEntity
  8
0
 62
   254
100
AcDbPolyline
 90
        2
 70
     0
 39
0.003
 10
-0.317752
 20
1.221295
 40
0.003
 41
0.003
 10
0.327843
 20
1.600126
 40
0.003
 41
0.003
  0
LWPOLYLINE
  5
258
100
AcDbEntity
  8
0
 62
   254
100
AcDbPolyline
 90
        2
 70
     0
 39
0.003
 10
0.327843
 20
1.600126
 40
0.003
 41
0.003
 10
0.321634
 20
1.603878
 40
0.003
 41
0.003
  0
LWPOLYLINE
  5
259
100
AcDbEntity
  8
0
 62
   254
100
AcDbPolyline
 90
        2
 70
     0
 39
0.003
 10
0.321634
 20
1.603878
 40
0.003
 41
0.003
 10
-0.323961
 20
1.225047
 40
0.003
 41
0.003
  0
LWPOLYLINE
  5
25A
100
AcDbEntity
  8
0
 62
   254
100
AcDbPolyline
 90
        2
 70
     0
 39
0.003
 10
-0.323961
 20
1.225047
 40
0.003
 41
0.003
 10
-0.317752
 20
1.221295
 40
0.003
 41
0.003
  0
LWPOLYLINE
  5
25B
100
AcDbEntity
  8
0
 62
   254
100
AcDbPolyline
 90
        2
 70
     0
 39
0.003
 10
-0.323961
 20
1.225047
 40
0.003
 41
0.003
 10
0.321634
 20
1.603878
 40
0.003
 41
0.003
  0
LWPOLYLINE
  5
25C
100
AcDbEntity
  8
0
 62
   254
100
AcDbPolyline
 90
        2
 70
     0
 39
0.003
 10
0.321634
 20
1.603878
 40
0.003
 41
0.003
 10
0.31563
 20
1.607886
 40
0.003
 41
0.003
  0
LWPOLYLINE
  5
25D
100
AcDbEntity
  8
0
 62
   254
100
AcDbPolyline
 90
        2
 70
     0
 39
0.003
 10
0.31563
 20
1.607886
 40
0.003
 41
0.003
 10
-0.329965
 20
1.229055
 40
0.003
 41
0.003
  0
LWPOLYLINE
  5
25E
100
AcDbEntity
  8
0
 62
   254
100
AcDbPolyline
 90
        2
 70
     0
 39
0.003
 10
-0.329965
 20
1.229055
 40
0.003
 41
0.003
 10
-0.323961
 20
1.225047
 40
0.003
 41
0.003
  0
LWPOLYLINE
  5
25F
100
AcDbEntity
  8
0
 62
   254
100
AcDbPolyline
 90
        2
 70
     0
 39
0.003
 10
-0.329965
 20
1.229055
 40
0.003
 41
0.003
 10
0.31563
 20
1.607886
 40
0.003
 41
0.003
  0
LWPOLYLINE
  5
260
100
AcDbEntity
  8
0
 62
   254
100
AcDbPolyline
 90
        2
 70
     0
 39
0.003
 10
0.31563
 20
1.607886
 40
0.003
 41
0.003
 10
0.309843
 20
1.612161
 40
0.003
 41
0.003
  0
LWPOLYLINE
  5
261
100
AcDbEntity
  8
0
 62
   254
100
AcDbPolyline
 90
        2
 70
     0
 39
0.003
 10
0.309843
 20
1.612161
 40
0.003
 41
0.003
 10
-0.335752
 20
1.233331
 40
0.003
 41
0.003
  0
LWPOLYLINE
  5
262
100
AcDbEntity
  8
0
 62
   254
100
AcDbPolyline
 90
        2
 70
     0
 39
0.003
 10
-0.335752
 20
1.233331
 40
0.003
 41
0.003
 10
-0.329965
 20
1.229055
 40
0.003
 41
0.003
  0
LWPOLYLINE
  5
263
100
AcDbEntity
  8
0
 62
   254
100
AcDbPolyline
 90
        2
 70
     0
 39
0.003
 10
-0.335752
 20
1.233331
 40
0.003
 41
0.003
 10
0.309843
 20
1.612161
 40
0.003
 41
0.003
  0
LWPOLYLINE
  5
264
100
AcDbEntity
  8
0
 62
   254
100
AcDbPolyline
 90
        2
 70
     0
 39
0.003
 10
0.309843
 20
1.612161
 40
0.003
 41
0.003
 10
0.304256
 20
1.616752
 40
0.003
 41
0.003
  0
LWPOLYLINE
  5
265
100
AcDbEntity
  8
0
 62
   254
100
AcDbPolyline
 90
        2
 70
     0
 39
0.003
 10
0.304256
 20
1.616752
 40
0.003
 41
0.003
 10
-0.341339
 20
1.237921
 40
0.003
 41
0.003
  0
LWPOLYLINE
  5
266
100
AcDbEntity
  8
0
 62
   254
100
AcDbPolyline
 90
        2
 70
     0
 39
0.003
 10
-0.341339
 20
1.237921
 40
0.003
 41
0.003
 10
-0.335752
 20
1.233331
 40
0.003
 41
0.003
  0
LWPOLYLINE
  5
267
100
AcDbEntity
  8
0
 62
   254
100
AcDbPolyline
 90
        2
 70
     0
 39
0.003
 10
-0.341339
 20
1.237921
 40
0.003
 41
0.003
 10
0.304256
 20
1.616752
 40
0.003
 41
0.003
  0
LWPOLYLINE
  5
268
100
AcDbEntity
  8
0
 62
   254
100
AcDbPolyline
 90
        2
 70
     0
 39
0.003
 10
0.304256
 20
1.616752
 40
0.003
 41
0.003
 10
0.298882
 20
1.621685
 40
0.003
 41
0.003
  0
LWPOLYLINE
  5
269
100
AcDbEntity
  8
0
 62
   254
100
AcDbPolyline
 90
        2
 70
     0
 39
0.003
 10
0.298882
 20
1.621685
 40
0.003
 41
0.003
 10
-0.346713
 20
1.242854
 40
0.003
 41
0.003
  0
LWPOLYLINE
  5
26A
100
AcDbEntity
  8
0
 62
   254
100
AcDbPolyline
 90
        2
 70
     0
 39
0.003
 10
-0.346713
 20
1.242854
 40
0.003
 41
0.003
 10
-0.341339
 20
1.237921
 40
0.003
 41
0.003
  0
LWPOLYLINE
  5
26B
100
AcDbEntity
  8
0
 62
   254
100
AcDbPolyline
 90
        2
 70
     0
 39
0.003
 10
-0.346713
 20
1.242854
 40
0.003
 41
0.003
 10
0.298882
 20
1.621685
 40
0.003
 41
0.003
  0
LWPOLYLINE
  5
26C
100
AcDbEntity
  8
0
 62
   254
100
AcDbPolyline
 90
        2
 70
     0
 39
0.003
 10
0.298882
 20
1.621685
 40
0.003
 41
0.003
 10
0.293709
 20
1.627
 40
0.003
 41
0.003
  0
LWPOLYLINE
  5
26D
100
AcDbEntity
  8
0
 62
   254
100
AcDbPolyline
 90
        2
 70
     0
 39
0.003
 10
0.293709
 20
1.627
 40
0.003
 41
0.003
 10
-0.351886
 20
1.248169
 40
0.003
 41
0.003
  0
LWPOLYLINE
  5
26E
100
AcDbEntity
  8
0
 62
   254
100
AcDbPolyline
 90
        2
 70
     0
 39
0.003
 10
-0.351886
 20
1.248169
 40
0.003
 41
0.003
 10
-0.346713
 20
1.242854
 40
0.003
 41
0.003
  0
LWPOLYLINE
  5
26F
100
AcDbEntity
  8
0
 62
   254
100
AcDbPolyline
 90
        2
 70
     0
 39
0.003
 10
-0.351886
 20
1.248169
 40
0.003
 41
0.003
 10
0.293709
 20
1.627
 40
0.003
 41
0.003
  0
LWPOLYLINE
  5
270
100
AcDbEntity
  8
0
 62
   254
100
AcDbPolyline
 90
        2
 70
     0
 39
0.003
 10
0.293709
 20
1.627
 40
0.003
 41
0.003
 10
0.288752
 20
1.632709
 40
0.003
 41
0.003
  0
LWPOLYLINE
  5
271
100
AcDbEntity
  8
0
 62
   254
100
AcDbPolyline
 90
        2
 70
     0
 39
0.003
 10
0.288752
 20
1.632709
 40
0.003
 41
0.003
 10
-0.356843
 20
1.253878
 40
0.003
 41
0.003
  0
LWPOLYLINE
  5
272
100
AcDbEntity
  8
0
 62
   254
100
AcDbPolyline
 90
        2
 70
     0
 39
0.003
 10
-0.356843
 20
1.253878
 40
0.003
 41
0.003
 10
-0.351886
 20
1.248169
 40
0.003
 41
0.003
  0
LWPOLYLINE
  5
273
100
AcDbEntity
  8
0
 62
   254
100
AcDbPolyline
 90
        2
 70
     0
 39
0.003
 10
-0.356843
 20
1.253878
 40
0.003
 41
0.003
 10
0.288752
 20
1.632709
 40
0.003
 41
0.003
  0
LWPOLYLINE
  5
274
100
AcDbEntity
  8
0
 62
   254
100
AcDbPolyline
 90
        2
 70
     0
 39
0.003
 10
0.288752
 20
1.632709
 40
0.003
 41
0.003
 10
0.284
 20
1.638866
 40
0.003
 41
0.003
  0
LWPOLYLINE
  5
275
100
AcDbEntity
  8
0
 62
   254
100
AcDbPolyline
 90
        2
 70
     0
 39
0.003
 10
0.284
 20
1.638866
 40
0.003
 41
0.003
 10
-0.361594
 20
1.260035
 40
0.003
 41
0.003
  0
LWPOLYLINE
  5
276
100
AcDbEntity
  8
0
 62
   254
100
AcDbPolyline
 90
        2
 70
     0
 39
0.003
 10
-0.361594
 20
1.260035
 40
0.003
 41
0.003
 10
-0.356843
 20
1.253878
 40
0.003
 41
0.003
  0
LWPOLYLINE
  5
277
100
AcDbEntity
  8
0
 62
   254
100
AcDbPolyline
 90
        2
 70
     0
 39
0.003
 10
-0.361594
 20
1.260035
 40
0.003
 41
0.003
 10
0.284
 20
1.638866
 40
0.003
 41
0.003
  0
LWPOLYLINE
  5
278
100
AcDbEntity
  8
0
 62
   254
100
AcDbPolyline
 90
        2
 70
     0
 39
0.003
 10
0.284
 20
1.638866
 40
0.003
 41
0.003
 10
0.279461
 20
1.645488
 40
0.003
 41
0.003
  0
LWPOLYLINE
  5
279
100
AcDbEntity
  8
0
 62
   254
100
AcDbPolyline
 90
        2
 70
     0
 39
0.003
 10
0.279461
 20
1.645488
 40
0.003
 41
0.003
 10
-0.366134
 20
1.266657
 40
0.003
 41
0.003
  0
LWPOLYLINE
  5
27A
100
AcDbEntity
  8
0
 62
   254
100
AcDbPolyline
 90
        2
 70
     0
 39
0.003
 10
-0.366134
 20
1.266657
 40
0.003
 41
0.003
 10
-0.361594
 20
1.260035
 40
0.003
 41
0.003
  0
LWPOLYLINE
  5
27B
100
AcDbEntity
  8
0
 62
   254
100
AcDbPolyline
 90
        2
 70
     0
 39
0.003
 10
-0.366134
 20
1.266657
 40
0.003
 41
0.003
 10
0.279461
 20
1.645488
 40
0.003
 41
0.003
  0
LWPOLYLINE
  5
27C
100
AcDbEntity
  8
0
 62
   254
100
AcDbPolyline
 90
        2
 70
     0
 39
0.003
 10
0.279461
 20
1.645488
 40
0.003
 41
0.003
 10
0.275126
 20
1.652618
 40
0.003
 41
0.003
  0
LWPOLYLINE
  5
27D
100
AcDbEntity
  8
0
 62
   254
100
AcDbPolyline
 90
        2
 70
     0
 39
0.003
 10
0.275126
 20
1.652618
 40
0.003
 41
0.003
 10
-0.370469
 20
1.273787
 40
0.003
 41
0.003
  0
LWPOLYLINE
  5
27E
100
AcDbEntity
  8
0
 62
   254
100
AcDbPolyline
 90
        2
 70
     0
 39
0.003
 10
-0.370469
 20
1.273787
 40
0.003
 41
0.003
 10
-0.366134
 20
1.266657
 40
0.003
 41
0.003
  0
LWPOLYLINE
  5
27F
100
AcDbEntity
  8
0
 62
   254
100
AcDbPolyline
 90
        2
 70
     0
 39
0.003
 10
-0.370469
 20
1.273787
 40
0.003
 41
0.003
 10
0.275126
 20
1.652618
 40
0.003
 41
0.003
  0
LWPOLYLINE
  5
280
100
AcDbEntity
  8
0
 62
   254
100
AcDbPolyline
 90
        2
 70
     0
 39
0.003
 10
0.275126
 20
1.652618
 40
0.003
 41
0.003
 10
0.271016
 20
1.660268
 40
0.003
 41
0.003
  0
LWPOLYLINE
  5
281
100
AcDbEntity
  8
0
 62
   254
100
AcDbPolyline
 90
        2
 70
     0
 39
0.003
 10
0.271016
 20
1.660268
 40
0.003
 41
0.003
 10
-0.374579
 20
1.281437
 40
0.003
 41
0.003
  0
LWPOLYLINE
  5
282
100
AcDbEntity
  8
0
 62
   254
100
AcDbPolyline
 90
        2
 70
     0
 39
0.003
 10
-0.374579
 20
1.281437
 40
0.003
 41
0.003
 10
-0.370469
 20
1.273787
 40
0.003
 41
0.003
  0
LWPOLYLINE
  5
283
100
AcDbEntity
  8
0
 62
   254
100
AcDbPolyline
 90
        2
 70
     0
 39
0.003
 10
-0.374579
 20
1.281437
 40
0.003
 41
0.003
 10
0.271016
 20
1.660268
 40
0.003
 41
0.003
  0
LWPOLYLINE
  5
284
100
AcDbEntity
  8
0
 62
   254
100
AcDbPolyline
 90
        2
 70
     0
 39
0.003
 10
0.271016
 20
1.660268
 40
0.003
 41
0.003
 10
0.267106
 20
1.668492
 40
0.003
 41
0.003
  0
LWPOLYLINE
  5
285
100
AcDbEntity
  8
0
 62
   254
100
AcDbPolyline
 90
        2
 70
     0
 39
0.003
 10
0.267106
 20
1.668492
 40
0.003
 41
0.003
 10
-0.378488
 20
1.289661
 40
0.003
 41
0.003
  0
LWPOLYLINE
  5
286
100
AcDbEntity
  8
0
 62
   254
100
AcDbPolyline
 90
        2
 70
     0
 39
0.003
 10
-0.378488
 20
1.289661
 40
0.003
 41
0.003
 10
-0.374579
 20
1.281437
 40
0.003
 41
0.003
  0
LWPOLYLINE
  5
287
100
AcDbEntity
  8
0
 62
   254
100
AcDbPolyline
 90
        2
 70
     0
 39
0.003
 10
-0.378488
 20
1.289661
 40
0.003
 41
0.003
 10
0.267106
 20
1.668492
 40
0.003
 41
0.003
  0
LWPOLYLINE
  5
288
100
AcDbEntity
  8
0
 62
   254
100
AcDbPolyline
 90
        2
 70
     0
 39
0.003
 10
0.267106
 20
1.668492
 40
0.003
 41
0.003
 10
0.263413
 20
1.677307
 40
0.003
 41
0.003
  0
LWPOLYLINE
  5
289
100
AcDbEntity
  8
0
 62
   254
100
AcDbPolyline
 90
        2
 70
     0
 39
0.003
 10
0.263413
 20
1.677307
 40
0.003
 41
0.003
 10
-0.382181
 20
1.298476
 40
0.003
 41
0.003
  0
LWPOLYLINE
  5
28A
100
AcDbEntity
  8
0
 62
   254
100
AcDbPolyline
 90
        2
 70
     0
 39
0.003
 10
-0.382181
 20
1.298476
 40
0.003
 41
0.003
 10
-0.378488
 20
1.289661
 40
0.003
 41
0.003
  0
LWPOLYLINE
  5
28B
100
AcDbEntity
  8
0
 62
   254
100
AcDbPolyline
 90
        2
 70
     0
 39
0.003
 10
-0.382181
 20
1.298476
 40
0.003
 41
0.003
 10
0.263413
 20
1.677307
 40
0.003
 41
0.003
  0
LWPOLYLINE
  5
28C
100
AcDbEntity
  8
0
 62
   254
100
AcDbPolyline
 90
        2
 70
     0
 39
0.003
 10
0.263413
 20
1.677307
 40
0.003
 41
0.003
 10
0.259929
 20
1.686756
 40
0.003
 41
0.003
  0
LWPOLYLINE
  5
28D
100
AcDbEntity
  8
0
 62
   254
100
AcDbPolyline
 90
        2
 70
     0
 39
0.003
 10
0.259929
 20
1.686756
 40
0.003
 41
0.003
 10
-0.385665
 20
1.307925
 40
0.003
 41
0.003
  0
LWPOLYLINE
  5
28E
100
AcDbEntity
  8
0
 62
   254
100
AcDbPolyline
 90
        2
 70
     0
 39
0.003
 10
-0.385665
 20
1.307925
 40
0.003
 41
0.003
 10
-0.382181
 20
1.298476
 40
0.003
 41
0.003
  0
LWPOLYLINE
  5
28F
100
AcDbEntity
  8
0
 62
   254
100
AcDbPolyline
 90
        2
 70
     0
 39
0.003
 10
-0.385665
 20
1.307925
 40
0.003
 41
0.003
 10
0.259929
 20
1.686756
 40
0.003
 41
0.003
  0
LWPOLYLINE
  5
290
100
AcDbEntity
  8
0
 62
   254
100
AcDbPolyline
 90
        2
 70
     0
 39
0.003
 10
0.259929
 20
1.686756
 40
0.003
 41
0.003
 10
0.256665
 20
1.696854
 40
0.003
 41
0.003
  0
LWPOLYLINE
  5
291
100
AcDbEntity
  8
0
 62
   254
100
AcDbPolyline
 90
        2
 70
     0
 39
0.003
 10
0.256665
 20
1.696854
 40
0.003
 41
0.003
 10
-0.388929
 20
1.318024
 40
0.003
 41
0.003
  0
LWPOLYLINE
  5
292
100
AcDbEntity
  8
0
 62
   254
100
AcDbPolyline
 90
        2
 70
     0
 39
0.003
 10
-0.388929
 20
1.318024
 40
0.003
 41
0.003
 10
-0.385665
 20
1.307925
 40
0.003
 41
0.003
  0
LWPOLYLINE
  5
293
100
AcDbEntity
  8
0
 62
   254
100
AcDbPolyline
 90
        2
 70
     0
 39
0.003
 10
-0.388929
 20
1.318024
 40
0.003
 41
0.003
 10
0.256665
 20
1.696854
 40
0.003
 41
0.003
  0
LWPOLYLINE
  5
294
100
AcDbEntity
  8
0
 62
   254
100
AcDbPolyline
 90
        2
 70
     0
 39
0.003
 10
0.256665
 20
1.696854
 40
0.003
 41
0.003
 10
0.253606
 20
1.70765
 40
0.003
 41
0.003
  0
LWPOLYLINE
  5
295
100
AcDbEntity
  8
0
 62
   254
100
AcDbPolyline
 90
        2
 70
     0
 39
0.003
 10
0.253606
 20
1.70765
 40
0.003
 41
0.003
 10
-0.391988
 20
1.328819
 40
0.003
 41
0.003
  0
LWPOLYLINE
  5
296
100
AcDbEntity
  8
0
 62
   254
100
AcDbPolyline
 90
        2
 70
     0
 39
0.003
 10
-0.391988
 20
1.328819
 40
0.003
 41
0.003
 10
-0.388929
 20
1.318024
 40
0.003
 41
0.003
  0
LWPOLYLINE
  5
297
100
AcDbEntity
  8
0
 62
   254
100
AcDbPolyline
 90
        2
 70
     0
 39
0.003
 10
-0.391988
 20
1.328819
 40
0.003
 41
0.003
 10
0.253606
 20
1.70765
 40
0.003
 41
0.003
  0
LWPOLYLINE
  5
298
100
AcDbEntity
  8
0
 62
   254
100
AcDbPolyline
 90
        2
 70
     0
 39
0.003
 10
0.253606
 20
1.70765
 40
0.003
 41
0.003
 10
0.250764
 20
1.719165
 40
0.003
 41
0.003
  0
LWPOLYLINE
  5
299
100
AcDbEntity
  8
0
 62
   254
100
AcDbPolyline
 90
        2
 70
     0
 39
0.003
 10
0.250764
 20
1.719165
 40
0.003
 41
0.003
 10
-0.394831
 20
1.340335
 40
0.003
 41
0.003
  0
LWPOLYLINE
  5
29A
100
AcDbEntity
  8
0
 62
   254
100
AcDbPolyline
 90
        2
 70
     0
 39
0.003
 10
-0.394831
 20
1.340335
 40
0.003
 41
0.003
 10
-0.391988
 20
1.328819
 40
0.003
 41
0.003
  0
LWPOLYLINE
  5
29B
100
AcDbEntity
  8
0
 62
   254
100
AcDbPolyline
 90
        2
 70
     0
 39
0.003
 10
-0.394831
 20
1.340335
 40
0.003
 41
0.003
 10
0.250764
 20
1.719165
 40
0.003
 41
0.003
  0
LWPOLYLINE
  5
29C
100
AcDbEntity
  8
0
 62
   254
100
AcDbPolyline
 90
        2
 70
     0
 39
0.003
 10
0.250764
 20
1.719165
 40
0.003
 41
0.003
 10
0.24813
 20
1.731441
 40
0.003
 41
0.003
  0
LWPOLYLINE
  5
29D
100
AcDbEntity
  8
0
 62
   254
100
AcDbPolyline
 90
        2
 70
     0
 39
0.003
 10
0.24813
 20
1.731441
 40
0.003
 41
0.003
 10
-0.397465
 20
1.35261
 40
0.003
 41
0.003
  0
LWPOLYLINE
  5
29E
100
AcDbEntity
  8
0
 62
   254
100
AcDbPolyline
 90
        2
 70
     0
 39
0.003
 10
-0.397465
 20
1.35261
 40
0.003
 41
0.003
 10
-0.394831
 20
1.340335
 40
0.003
 41
0.003
  0
LWPOLYLINE
  5
29F
100
AcDbEntity
  8
0
 62
     0
100
AcDbPolyline
 90
        2
 70
     0
 39
0.003
 10
-0.186783
 20
0.974122
 40
0.003
 41
0.003
 10
0.458811
 20
1.352953
 40
0.003
 41
0.003
  0
LWPOLYLINE
  5
2A0
100
AcDbEntity
  8
0
 62
     0
100
AcDbPolyline
 90
        2
 70
     0
 39
0.003
 10
0.458811
 20
1.352953
 40
0.003
 41
0.003
 10
0.467488
 20
1.358594
 40
0.003
 41
0.003
  0
LWPOLYLINE
  5
2A1
100
AcDbEntity
  8
0
 62
     0
100
AcDbPolyline
 90
        2
 70
     0
 39
0.003
 10
0.467488
 20
1.358594
 40
0.003
 41
0.003
 10
0.475323
 20
1.364783
 40
0.003
 41
0.003
  0
LWPOLYLINE
  5
2A2
100
AcDbEntity
  8
0
 62
     0
100
AcDbPolyline
 90
        2
 70
     0
 39
0.003
 10
0.475323
 20
1.364783
 40
0.003
 41
0.003
 10
0.482319
 20
1.371488
 40
0.003
 41
0.003
  0
LWPOLYLINE
  5
2A3
100
AcDbEntity
  8
0
 62
     0
100
AcDbPolyline
 90
        2
 70
     0
 39
0.003
 10
0.482319
 20
1.371488
 40
0.003
 41
0.003
 10
0.488508
 20
1.378638
 40
0.003
 41
0.003
  0
LWPOLYLINE
  5
2A4
100
AcDbEntity
  8
0
 62
     0
100
AcDbPolyline
 90
        2
 70
     0
 39
0.003
 10
0.488508
 20
1.378638
 40
0.003
 41
0.003
 10
0.493886
 20
1.386201
 40
0.003
 41
0.003
  0
LWPOLYLINE
  5
2A5
100
AcDbEntity
  8
0
 62
     0
100
AcDbPolyline
 90
        2
 70
     0
 39
0.003
 10
0.493886
 20
1.386201
 40
0.003
 41
0.003
 10
0.49848
 20
1.394118
 40
0.003
 41
0.003
  0
LWPOLYLINE
  5
2A6
100
AcDbEntity
  8
0
 62
     0
100
AcDbPolyline
 90
        2
 70
     0
 39
0.003
 10
0.49848
 20
1.394118
 40
0.003
 41
0.003
 10
0.502287
 20
1.40235
 40
0.003
 41
0.003
  0
LWPOLYLINE
  5
2A7
100
AcDbEntity
  8
0
 62
     0
100
AcDbPolyline
 90
        2
 70
     0
 39
0.003
 10
0.502287
 20
1.40235
 40
0.003
 41
0.003
 10
0.505343
 20
1.410835
 40
0.003
 41
0.003
  0
LWPOLYLINE
  5
2A8
100
AcDbEntity
  8
0
 62
     0
100
AcDbPolyline
 90
        2
 70
     0
 39
0.003
 10
0.505343
 20
1.410835
 40
0.003
 41
0.003
 10
0.507638
 20
1.419535
 40
0.003
 41
0.003
  0
LWPOLYLINE
  5
2A9
100
AcDbEntity
  8
0
 62
     0
100
AcDbPolyline
 90
        2
 70
     0
 39
0.003
 10
0.507638
 20
1.419535
 40
0.003
 41
0.003
 10
0.509201
 20
1.428394
 40
0.003
 41
0.003
  0
LWPOLYLINE
  5
2AA
100
AcDbEntity
  8
0
 62
     0
100
AcDbPolyline
 90
        2
 70
     0
 39
0.003
 10
0.509201
 20
1.428394
 40
0.003
 41
0.003
 10
0.510035
 20
1.43737
 40
0.003
 41
0.003
  0
LWPOLYLINE
  5
2AB
100
AcDbEntity
  8
0
 62
     0
100
AcDbPolyline
 90
        2
 70
     0
 39
0.003
 10
0.510035
 20
1.43737
 40
0.003
 41
0.003
 10
0.510169
 20
1.446398
 40
0.003
 41
0.003
  0
LWPOLYLINE
  5
2AC
100
AcDbEntity
  8
0
 62
     0
100
AcDbPolyline
 90
        2
 70
     0
 39
0.003
 10
0.510169
 20
1.446398
 40
0.003
 41
0.003
 10
0.509606
 20
1.455445
 40
0.003
 41
0.003
  0
LWPOLYLINE
  5
2AD
100
AcDbEntity
  8
0
 62
     0
100
AcDbPolyline
 90
        2
 70
     0
 39
0.003
 10
0.509606
 20
1.455445
 40
0.003
 41
0.003
 10
0.508358
 20
1.464457
 40
0.003
 41
0.003
  0
LWPOLYLINE
  5
2AE
100
AcDbEntity
  8
0
 62
     0
100
AcDbPolyline
 90
        2
 70
     0
 39
0.003
 10
0.508358
 20
1.464457
 40
0.003
 41
0.003
 10
0.506437
 20
1.473386
 40
0.003
 41
0.003
  0
LWPOLYLINE
  5
2AF
100
AcDbEntity
  8
0
 62
     0
100
AcDbPolyline
 90
        2
 70
     0
 39
0.003
 10
0.506437
 20
1.473386
 40
0.003
 41
0.003
 10
0.503866
 20
1.482173
 40
0.003
 41
0.003
  0
LWPOLYLINE
  5
2B0
100
AcDbEntity
  8
0
 62
     0
100
AcDbPolyline
 90
        2
 70
     0
 39
0.003
 10
0.503866
 20
1.482173
 40
0.003
 41
0.003
 10
0.500646
 20
1.490783
 40
0.003
 41
0.003
  0
LWPOLYLINE
  5
2B1
100
AcDbEntity
  8
0
 62
     0
100
AcDbPolyline
 90
        2
 70
     0
 39
0.003
 10
0.500646
 20
1.490783
 40
0.003
 41
0.003
 10
0.496803
 20
1.499157
 40
0.003
 41
0.003
  0
LWPOLYLINE
  5
2B2
100
AcDbEntity
  8
0
 62
     0
100
AcDbPolyline
 90
        2
 70
     0
 39
0.003
 10
0.496803
 20
1.499157
 40
0.003
 41
0.003
 10
0.492339
 20
1.507252
 40
0.003
 41
0.003
  0
LWPOLYLINE
  5
2B3
100
AcDbEntity
  8
0
 62
     0
100
AcDbPolyline
 90
        2
 70
     0
 39
0.003
 10
0.492339
 20
1.507252
 40
0.003
 41
0.003
 10
0.487283
 20
1.515004
 40
0.003
 41
0.003
  0
LWPOLYLINE
  5
2B4
100
AcDbEntity
  8
0
 62
     0
100
AcDbPolyline
 90
        2
 70
     0
 39
0.003
 10
0.487283
 20
1.515004
 40
0.003
 41
0.003
 10
0.48163
 20
1.52239
 40
0.003
 41
0.003
  0
LWPOLYLINE
  5
2B5
100
AcDbEntity
  8
0
 62
     0
100
AcDbPolyline
 90
        2
 70
     0
 39
0.003
 10
0.48163
 20
1.52239
 40
0.003
 41
0.003
 10
0.475406
 20
1.529339
 40
0.003
 41
0.003
  0
LWPOLYLINE
  5
2B6
100
AcDbEntity
  8
0
 62
     0
100
AcDbPolyline
 90
        2
 70
     0
 39
0.003
 10
0.475406
 20
1.529339
 40
0.003
 41
0.003
 10
0.468614
 20
1.535815
 40
0.003
 41
0.003
  0
LWPOLYLINE
  5
2B7
100
AcDbEntity
  8
0
 62
     0
100
AcDbPolyline
 90
        2
 70
     0
 39
0.003
 10
0.468614
 20
1.535815
 40
0.003
 41
0.003
 10
0.461283
 20
1.541752
 40
0.003
 41
0.003
  0
LWPOLYLINE
  5
2B8
100
AcDbEntity
  8
0
 62
     0
100
AcDbPolyline
 90
        2
 70
     0
 39
0.003
 10
0.461283
 20
1.541752
 40
0.003
 41
0.003
 10
0.453413
 20
1.547122
 40
0.003
 41
0.003
  0
LWPOLYLINE
  5
2B9
100
AcDbEntity
  8
0
 62
     0
100
AcDbPolyline
 90
        2
 70
     0
 39
0.003
 10
0.453413
 20
1.547122
 40
0.003
 41
0.003
 10
0.445028
 20
1.551862
 40
0.003
 41
0.003
  0
LWPOLYLINE
  5
2BA
100
AcDbEntity
  8
0
 62
     0
100
AcDbPolyline
 90
        2
 70
     0
 39
0.003
 10
0.445028
 20
1.551862
 40
0.003
 41
0.003
 10
0.436126
 20
1.555929
 40
0.003
 41
0.003
  0
LWPOLYLINE
  5
2BB
100
AcDbEntity
  8
0
 62
     0
100
AcDbPolyline
 90
        2
 70
     0
 39
0.003
 10
0.436126
 20
1.555929
 40
0.003
 41
0.003
 10
0.427087
 20
1.559524
 40
0.003
 41
0.003
  0
LWPOLYLINE
  5
2BC
100
AcDbEntity
  8
0
 62
     0
100
AcDbPolyline
 90
        2
 70
     0
 39
0.003
 10
0.427087
 20
1.559524
 40
0.003
 41
0.003
 10
0.41824
 20
1.562929
 40
0.003
 41
0.003
  0
LWPOLYLINE
  5
2BD
100
AcDbEntity
  8
0
 62
     0
100
AcDbPolyline
 90
        2
 70
     0
 39
0.003
 10
0.41824
 20
1.562929
 40
0.003
 41
0.003
 10
0.409598
 20
1.566169
 40
0.003
 41
0.003
  0
LWPOLYLINE
  5
2BE
100
AcDbEntity
  8
0
 62
     0
100
AcDbPolyline
 90
        2
 70
     0
 39
0.003
 10
0.409598
 20
1.566169
 40
0.003
 41
0.003
 10
0.40115
 20
1.569283
 40
0.003
 41
0.003
  0
LWPOLYLINE
  5
2BF
100
AcDbEntity
  8
0
 62
     0
100
AcDbPolyline
 90
        2
 70
     0
 39
0.003
 10
0.40115
 20
1.569283
 40
0.003
 41
0.003
 10
0.392909
 20
1.572287
 40
0.003
 41
0.003
  0
LWPOLYLINE
  5
2C0
100
AcDbEntity
  8
0
 62
     0
100
AcDbPolyline
 90
        2
 70
     0
 39
0.003
 10
0.392909
 20
1.572287
 40
0.003
 41
0.003
 10
0.384866
 20
1.575232
 40
0.003
 41
0.003
  0
LWPOLYLINE
  5
2C1
100
AcDbEntity
  8
0
 62
     0
100
AcDbPolyline
 90
        2
 70
     0
 39
0.003
 10
0.384866
 20
1.575232
 40
0.003
 41
0.003
 10
0.377028
 20
1.578138
 40
0.003
 41
0.003
  0
LWPOLYLINE
  5
2C2
100
AcDbEntity
  8
0
 62
     0
100
AcDbPolyline
 90
        2
 70
     0
 39
0.003
 10
0.377028
 20
1.578138
 40
0.003
 41
0.003
 10
0.369386
 20
1.581047
 40
0.003
 41
0.003
  0
LWPOLYLINE
  5
2C3
100
AcDbEntity
  8
0
 62
     0
100
AcDbPolyline
 90
        2
 70
     0
 39
0.003
 10
0.369386
 20
1.581047
 40
0.003
 41
0.003
 10
0.361957
 20
1.583969
 40
0.003
 41
0.003
  0
LWPOLYLINE
  5
2C4
100
AcDbEntity
  8
0
 62
     0
100
AcDbPolyline
 90
        2
 70
     0
 39
0.003
 10
0.361957
 20
1.583969
 40
0.003
 41
0.003
 10
0.354724
 20
1.586957
 40
0.003
 41
0.003
  0
LWPOLYLINE
  5
2C5
100
AcDbEntity
  8
0
 62
     0
100
AcDbPolyline
 90
        2
 70
     0
 39
0.003
 10
0.354724
 20
1.586957
 40
0.003
 41
0.003
 10
0.347697
 20
1.590031
 40
0.003
 41
0.003
  0
LWPOLYLINE
  5
2C6
100
AcDbEntity
  8
0
 62
     0
100
AcDbPolyline
 90
        2
 70
     0
 39
0.003
 10
0.347697
 20
1.590031
 40
0.003
 41
0.003
 10
0.34087
 20
1.593236
 40
0.003
 41
0.003
  0
LWPOLYLINE
  5
2C7
100
AcDbEntity
  8
0
 62
     0
100
AcDbPolyline
 90
        2
 70
     0
 39
0.003
 10
0.34087
 20
1.593236
 40
0.003
 41
0.003
 10
0.334256
 20
1.596587
 40
0.003
 41
0.003
  0
LWPOLYLINE
  5
2C8
100
AcDbEntity
  8
0
 62
     0
100
AcDbPolyline
 90
        2
 70
     0
 39
0.003
 10
0.334256
 20
1.596587
 40
0.003
 41
0.003
 10
0.327843
 20
1.600126
 40
0.003
 41
0.003
  0
LWPOLYLINE
  5
2C9
100
AcDbEntity
  8
0
 62
     0
100
AcDbPolyline
 90
        2
 70
     0
 39
0.003
 10
0.327843
 20
1.600126
 40
0.003
 41
0.003
 10
0.321634
 20
1.603878
 40
0.003
 41
0.003
  0
LWPOLYLINE
  5
2CA
100
AcDbEntity
  8
0
 62
     0
100
AcDbPolyline
 90
        2
 70
     0
 39
0.003
 10
0.321634
 20
1.603878
 40
0.003
 41
0.003
 10
0.31563
 20
1.607886
 40
0.003
 41
0.003
  0
LWPOLYLINE
  5
2CB
100
AcDbEntity
  8
0
 62
     0
100
AcDbPolyline
 90
        2
 70
     0
 39
0.003
 10
0.31563
 20
1.607886
 40
0.003
 41
0.003
 10
0.309843
 20
1.612161
 40
0.003
 41
0.003
  0
LWPOLYLINE
  5
2CC
100
AcDbEntity
  8
0
 62
     0
100
AcDbPolyline
 90
        2
 70
     0
 39
0.003
 10
0.309843
 20
1.612161
 40
0.003
 41
0.003
 10
0.304256
 20
1.616752
 40
0.003
 41
0.003
  0
LWPOLYLINE
  5
2CD
100
AcDbEntity
  8
0
 62
     0
100
AcDbPolyline
 90
        2
 70
     0
 39
0.003
 10
0.304256
 20
1.616752
 40
0.003
 41
0.003
 10
0.298882
 20
1.621685
 40
0.003
 41
0.003
  0
LWPOLYLINE
  5
2CE
100
AcDbEntity
  8
0
 62
     0
100
AcDbPolyline
 90
        2
 70
     0
 39
0.003
 10
0.298882
 20
1.621685
 40
0.003
 41
0.003
 10
0.293709
 20
1.627
 40
0.003
 41
0.003
  0
LWPOLYLINE
  5
2CF
100
AcDbEntity
  8
0
 62
     0
100
AcDbPolyline
 90
        2
 70
     0
 39
0.003
 10
0.293709
 20
1.627
 40
0.003
 41
0.003
 10
0.288752
 20
1.632709
 40
0.003
 41
0.003
  0
LWPOLYLINE
  5
2D0
100
AcDbEntity
  8
0
 62
     0
100
AcDbPolyline
 90
        2
 70
     0
 39
0.003
 10
0.288752
 20
1.632709
 40
0.003
 41
0.003
 10
0.284
 20
1.638866
 40
0.003
 41
0.003
  0
LWPOLYLINE
  5
2D1
100
AcDbEntity
  8
0
 62
     0
100
AcDbPolyline
 90
        2
 70
     0
 39
0.003
 10
0.284
 20
1.638866
 40
0.003
 41
0.003
 10
0.279461
 20
1.645488
 40
0.003
 41
0.003
  0
LWPOLYLINE
  5
2D2
100
AcDbEntity
  8
0
 62
     0
100
AcDbPolyline
 90
        2
 70
     0
 39
0.003
 10
0.279461
 20
1.645488
 40
0.003
 41
0.003
 10
0.275126
 20
1.652618
 40
0.003
 41
0.003
  0
LWPOLYLINE
  5
2D3
100
AcDbEntity
  8
0
 62
     0
100
AcDbPolyline
 90
        2
 70
     0
 39
0.003
 10
0.275126
 20
1.652618
 40
0.003
 41
0.003
 10
0.271016
 20
1.660268
 40
0.003
 41
0.003
  0
LWPOLYLINE
  5
2D4
100
AcDbEntity
  8
0
 62
     0
100
AcDbPolyline
 90
        2
 70
     0
 39
0.003
 10
0.271016
 20
1.660268
 40
0.003
 41
0.003
 10
0.267106
 20
1.668492
 40
0.003
 41
0.003
  0
LWPOLYLINE
  5
2D5
100
AcDbEntity
  8
0
 62
     0
100
AcDbPolyline
 90
        2
 70
     0
 39
0.003
 10
0.267106
 20
1.668492
 40
0.003
 41
0.003
 10
0.263413
 20
1.677307
 40
0.003
 41
0.003
  0
LWPOLYLINE
  5
2D6
100
AcDbEntity
  8
0
 62
     0
100
AcDbPolyline
 90
        2
 70
     0
 39
0.003
 10
0.263413
 20
1.677307
 40
0.003
 41
0.003
 10
0.259929
 20
1.686756
 40
0.003
 41
0.003
  0
LWPOLYLINE
  5
2D7
100
AcDbEntity
  8
0
 62
     0
100
AcDbPolyline
 90
        2
 70
     0
 39
0.003
 10
0.259929
 20
1.686756
 40
0.003
 41
0.003
 10
0.256665
 20
1.696854
 40
0.003
 41
0.003
  0
LWPOLYLINE
  5
2D8
100
AcDbEntity
  8
0
 62
     0
100
AcDbPolyline
 90
        2
 70
     0
 39
0.003
 10
0.256665
 20
1.696854
 40
0.003
 41
0.003
 10
0.253606
 20
1.70765
 40
0.003
 41
0.003
  0
LWPOLYLINE
  5
2D9
100
AcDbEntity
  8
0
 62
     0
100
AcDbPolyline
 90
        2
 70
     0
 39
0.003
 10
0.253606
 20
1.70765
 40
0.003
 41
0.003
 10
0.250764
 20
1.719165
 40
0.003
 41
0.003
  0
LWPOLYLINE
  5
2DA
100
AcDbEntity
  8
0
 62
     0
100
AcDbPolyline
 90
        2
 70
     0
 39
0.003
 10
0.250764
 20
1.719165
 40
0.003
 41
0.003
 10
0.24813
 20
1.731441
 40
0.003
 41
0.003
  0
LWPOLYLINE
  5
2DB
100
AcDbEntity
  8
0
 62
     0
100
AcDbPolyline
 90
        2
 70
     0
 39
0.003
 10
0.24813
 20
1.731441
 40
0.003
 41
0.003
 10
-0.397465
 20
1.35261
 40
0.003
 41
0.003
  0
LWPOLYLINE
  5
2DC
100
AcDbEntity
  8
0
 62
     0
100
AcDbPolyline
 90
        2
 70
     0
 39
0.003
 10
-0.397465
 20
1.35261
 40
0.003
 41
0.003
 10
-0.394831
 20
1.340335
 40
0.003
 41
0.003
  0
LWPOLYLINE
  5
2DD
100
AcDbEntity
  8
0
 62
     0
100
AcDbPolyline
 90
        2
 70
     0
 39
0.003
 10
-0.394831
 20
1.340335
 40
0.003
 41
0.003
 10
-0.391988
 20
1.328819
 40
0.003
 41
0.003
  0
LWPOLYLINE
  5
2DE
100
AcDbEntity
  8
0
 62
     0
100
AcDbPolyline
 90
        2
 70
     0
 39
0.003
 10
-0.391988
 20
1.328819
 40
0.003
 41
0.003
 10
-0.388929
 20
1.318024
 40
0.003
 41
0.003
  0
LWPOLYLINE
  5
2DF
100
AcDbEntity
  8
0
 62
     0
100
AcDbPolyline
 90
        2
 70
     0
 39
0.003
 10
-0.388929
 20
1.318024
 40
0.003
 41
0.003
 10
-0.385665
 20
1.307925
 40
0.003
 41
0.003
  0
LWPOLYLINE
  5
2E0
100
AcDbEntity
  8
0
 62
     0
100
AcDbPolyline
 90
        2
 70
     0
 39
0.003
 10
-0.385665
 20
1.307925
 40
0.003
 41
0.003
 10
-0.382181
 20
1.298476
 40
0.003
 41
0.003
  0
LWPOLYLINE
  5
2E1
100
AcDbEntity
  8
0
 62
     0
100
AcDbPolyline
 90
        2
 70
     0
 39
0.003
 10
-0.382181
 20
1.298476
 40
0.003
 41
0.003
 10
-0.378488
 20
1.289661
 40
0.003
 41
0.003
  0
LWPOLYLINE
  5
2E2
100
AcDbEntity
  8
0
 62
     0
100
AcDbPolyline
 90
        2
 70
     0
 39
0.003
 10
-0.378488
 20
1.289661
 40
0.003
 41
0.003
 10
-0.374579
 20
1.281437
 40
0.003
 41
0.003
  0
LWPOLYLINE
  5
2E3
100
AcDbEntity
  8
0
 62
     0
100
AcDbPolyline
 90
        2
 70
     0
 39
0.003
 10
-0.374579
 20
1.281437
 40
0.003
 41
0.003
 10
-0.370469
 20
1.273787
 40
0.003
 41
0.003
  0
LWPOLYLINE
  5
2E4
100
AcDbEntity
  8
0
 62
     0
100
AcDbPolyline
 90
        2
 70
     0
 39
0.003
 10
-0.370469
 20
1.273787
 40
0.003
 41
0.003
 10
-0.366134
 20
1.266657
 40
0.003
 41
0.003
  0
LWPOLYLINE
  5
2E5
100
AcDbEntity
  8
0
 62
     0
100
AcDbPolyline
 90
        2
 70
     0
 39
0.003
 10
-0.366134
 20
1.266657
 40
0.003
 41
0.003
 10
-0.361594
 20
1.260035
 40
0.003
 41
0.003
  0
LWPOLYLINE
  5
2E6
100
AcDbEntity
  8
0
 62
     0
100
AcDbPolyline
 90
        2
 70
     0
 39
0.003
 10
-0.361594
 20
1.260035
 40
0.003
 41
0.003
 10
-0.356843
 20
1.253878
 40
0.003
 41
0.003
  0
LWPOLYLINE
  5
2E7
100
AcDbEntity
  8
0
 62
     0
100
AcDbPolyline
 90
        2
 70
     0
 39
0.003
 10
-0.356843
 20
1.253878
 40
0.003
 41
0.003
 10
-0.351886
 20
1.248169
 40
0.003
 41
0.003
  0
LWPOLYLINE
  5
2E8
100
AcDbEntity
  8
0
 62
     0
100
AcDbPolyline
 90
        2
 70
     0
 39
0.003
 10
-0.351886
 20
1.248169
 40
0.003
 41
0.003
 10
-0.346713
 20
1.242854
 40
0.003
 41
0.003
  0
LWPOLYLINE
  5
2E9
100
AcDbEntity
  8
0
 62
     0
100
AcDbPolyline
 90
        2
 70
     0
 39
0.003
 10
-0.346713
 20
1.242854
 40
0.003
 41
0.003
 10
-0.341339
 20
1.237921
 40
0.003
 41
0.003
  0
LWPOLYLINE
  5
2EA
100
AcDbEntity
  8
0
 62
     0
100
AcDbPolyline
 90
        2
 70
     0
 39
0.003
 10
-0.341339
 20
1.237921
 40
0.003
 41
0.003
 10
-0.335752
 20
1.233331
 40
0.003
 41
0.003
  0
LWPOLYLINE
  5
2EB
100
AcDbEntity
  8
0
 62
     0
100
AcDbPolyline
 90
        2
 70
     0
 39
0.003
 10
-0.335752
 20
1.233331
 40
0.003
 41
0.003
 10
-0.329965
 20
1.229055
 40
0.003
 41
0.003
  0
LWPOLYLINE
  5
2EC
100
AcDbEntity
  8
0
 62
     0
100
AcDbPolyline
 90
        2
 70
     0
 39
0.003
 10
-0.329965
 20
1.229055
 40
0.003
 41
0.003
 10
-0.323961
 20
1.225047
 40
0.003
 41
0.003
  0
LWPOLYLINE
  5
2ED
100
AcDbEntity
  8
0
 62
     0
100
AcDbPolyline
 90
        2
 70
     0
 39
0.003
 10
-0.323961
 20
1.225047
 40
0.003
 41
0.003
 10
-0.317752
 20
1.221295
 40
0.003
 41
0.003
  0
LWPOLYLINE
  5
2EE
100
AcDbEntity
  8
0
 62
     0
100
AcDbPolyline
 90
        2
 70
     0
 39
0.003
 10
-0.317752
 20
1.221295
 40
0.003
 41
0.003
 10
-0.311339
 20
1.217756
 40
0.003
 41
0.003
  0
LWPOLYLINE
  5
2EF
100
AcDbEntity
  8
0
 62
     0
100
AcDbPolyline
 90
        2
 70
     0
 39
0.003
 10
-0.311339
 20
1.217756
 40
0.003
 41
0.003
 10
-0.304724
 20
1.214406
 40
0.003
 41
0.003
  0
LWPOLYLINE
  5
2F0
100
AcDbEntity
  8
0
 62
     0
100
AcDbPolyline
 90
        2
 70
     0
 39
0.003
 10
-0.304724
 20
1.214406
 40
0.003
 41
0.003
 10
-0.297898
 20
1.211201
 40
0.003
 41
0.003
  0
LWPOLYLINE
  5
2F1
100
AcDbEntity
  8
0
 62
     0
100
AcDbPolyline
 90
        2
 70
     0
 39
0.003
 10
-0.297898
 20
1.211201
 40
0.003
 41
0.003
 10
-0.29087
 20
1.208126
 40
0.003
 41
0.003
  0
LWPOLYLINE
  5
2F2
100
AcDbEntity
  8
0
 62
     0
100
AcDbPolyline
 90
        2
 70
     0
 39
0.003
 10
-0.29087
 20
1.208126
 40
0.003
 41
0.003
 10
-0.283638
 20
1.205138
 40
0.003
 41
0.003
  0
LWPOLYLINE
  5
2F3
100
AcDbEntity
  8
0
 62
     0
100
AcDbPolyline
 90
        2
 70
     0
 39
0.003
 10
-0.283638
 20
1.205138
 40
0.003
 41
0.003
 10
-0.276209
 20
1.202217
 40
0.003
 41
0.003
  0
LWPOLYLINE
  5
2F4
100
AcDbEntity
  8
0
 62
     0
100
AcDbPolyline
 90
        2
 70
     0
 39
0.003
 10
-0.276209
 20
1.202217
 40
0.003
 41
0.003
 10
-0.268567
 20
1.199307
 40
0.003
 41
0.003
  0
LWPOLYLINE
  5
2F5
100
AcDbEntity
  8
0
 62
     0
100
AcDbPolyline
 90
        2
 70
     0
 39
0.003
 10
-0.268567
 20
1.199307
 40
0.003
 41
0.003
 10
-0.260728
 20
1.196402
 40
0.003
 41
0.003
  0
LWPOLYLINE
  5
2F6
100
AcDbEntity
  8
0
 62
     0
100
AcDbPolyline
 90
        2
 70
     0
 39
0.003
 10
-0.260728
 20
1.196402
 40
0.003
 41
0.003
 10
-0.252685
 20
1.193457
 40
0.003
 41
0.003
  0
LWPOLYLINE
  5
2F7
100
AcDbEntity
  8
0
 62
     0
100
AcDbPolyline
 90
        2
 70
     0
 39
0.003
 10
-0.252685
 20
1.193457
 40
0.003
 41
0.003
 10
-0.244445
 20
1.190453
 40
0.003
 41
0.003
  0
LWPOLYLINE
  5
2F8
100
AcDbEntity
  8
0
 62
     0
100
AcDbPolyline
 90
        2
 70
     0
 39
0.003
 10
-0.244445
 20
1.190453
 40
0.003
 41
0.003
 10
-0.235996
 20
1.187339
 40
0.003
 41
0.003
  0
LWPOLYLINE
  5
2F9
100
AcDbEntity
  8
0
 62
     0
100
AcDbPolyline
 90
        2
 70
     0
 39
0.003
 10
-0.235996
 20
1.187339
 40
0.003
 41
0.003
 10
-0.227354
 20
1.184098
 40
0.003
 41
0.003
  0
LWPOLYLINE
  5
2FA
100
AcDbEntity
  8
0
 62
     0
100
AcDbPolyline
 90
        2
 70
     0
 39
0.003
 10
-0.227354
 20
1.184098
 40
0.003
 41
0.003
 10
-0.218508
 20
1.180693
 40
0.003
 41
0.003
  0
LWPOLYLINE
  5
2FB
100
AcDbEntity
  8
0
 62
     0
100
AcDbPolyline
 90
        2
 70
     0
 39
0.003
 10
-0.218508
 20
1.180693
 40
0.003
 41
0.003
 10
-0.209469
 20
1.177098
 40
0.003
 41
0.003
  0
LWPOLYLINE
  5
2FC
100
AcDbEntity
  8
0
 62
     0
100
AcDbPolyline
 90
        2
 70
     0
 39
0.003
 10
-0.209469
 20
1.177098
 40
0.003
 41
0.003
 10
-0.200567
 20
1.173031
 40
0.003
 41
0.003
  0
LWPOLYLINE
  5
2FD
100
AcDbEntity
  8
0
 62
     0
100
AcDbPolyline
 90
        2
 70
     0
 39
0.003
 10
-0.200567
 20
1.173031
 40
0.003
 41
0.003
 10
-0.192181
 20
1.168291
 40
0.003
 41
0.003
  0
LWPOLYLINE
  5
2FE
100
AcDbEntity
  8
0
 62
     0
100
AcDbPolyline
 90
        2
 70
     0
 39
0.003
 10
-0.192181
 20
1.168291
 40
0.003
 41
0.003
 10
-0.184311
 20
1.162921
 40
0.003
 41
0.003
  0
LWPOLYLINE
  5
2FF
100
AcDbEntity
  8
0
 62
     0
100
AcDbPolyline
 90
        2
 70
     0
 39
0.003
 10
-0.184311
 20
1.162921
 40
0.003
 41
0.003
 10
-0.17698
 20
1.156984
 40
0.003
 41
0.003
  0
LWPOLYLINE
  5
300
100
AcDbEntity
  8
0
 62
     0
100
AcDbPolyline
 90
        2
 70
     0
 39
0.003
 10
-0.17698
 20
1.156984
 40
0.003
 41
0.003
 10
-0.170189
 20
1.150508
 40
0.003
 41
0.003
  0
LWPOLYLINE
  5
301
100
AcDbEntity
  8
0
 62
     0
100
AcDbPolyline
 90
        2
 70
     0
 39
0.003
 10
-0.170189
 20
1.150508
 40
0.003
 41
0.003
 10
-0.163965
 20
1.143559
 40
0.003
 41
0.003
  0
LWPOLYLINE
  5
302
100
AcDbEntity
  8
0
 62
     0
100
AcDbPolyline
 90
        2
 70
     0
 39
0.003
 10
-0.163965
 20
1.143559
 40
0.003
 41
0.003
 10
-0.158311
 20
1.136173
 40
0.003
 41
0.003
  0
LWPOLYLINE
  5
303
100
AcDbEntity
  8
0
 62
     0
100
AcDbPolyline
 90
        2
 70
     0
 39
0.003
 10
-0.158311
 20
1.136173
 40
0.003
 41
0.003
 10
-0.153256
 20
1.128421
 40
0.003
 41
0.003
  0
LWPOLYLINE
  5
304
100
AcDbEntity
  8
0
 62
     0
100
AcDbPolyline
 90
        2
 70
     0
 39
0.003
 10
-0.153256
 20
1.128421
 40
0.003
 41
0.003
 10
-0.148791
 20
1.120327
 40
0.003
 41
0.003
  0
LWPOLYLINE
  5
305
100
AcDbEntity
  8
0
 62
     0
100
AcDbPolyline
 90
        2
 70
     0
 39
0.003
 10
-0.148791
 20
1.120327
 40
0.003
 41
0.003
 10
-0.144949
 20
1.111953
 40
0.003
 41
0.003
  0
LWPOLYLINE
  5
306
100
AcDbEntity
  8
0
 62
     0
100
AcDbPolyline
 90
        2
 70
     0
 39
0.003
 10
-0.144949
 20
1.111953
 40
0.003
 41
0.003
 10
-0.141728
 20
1.103343
 40
0.003
 41
0.003
  0
LWPOLYLINE
  5
307
100
AcDbEntity
  8
0
 62
     0
100
AcDbPolyline
 90
        2
 70
     0
 39
0.003
 10
-0.141728
 20
1.103343
 40
0.003
 41
0.003
 10
-0.139157
 20
1.094555
 40
0.003
 41
0.003
  0
LWPOLYLINE
  5
308
100
AcDbEntity
  8
0
 62
     0
100
AcDbPolyline
 90
        2
 70
     0
 39
0.003
 10
-0.139157
 20
1.094555
 40
0.003
 41
0.003
 10
-0.137236
 20
1.085626
 40
0.003
 41
0.003
  0
LWPOLYLINE
  5
309
100
AcDbEntity
  8
0
 62
     0
100
AcDbPolyline
 90
        2
 70
     0
 39
0.003
 10
-0.137236
 20
1.085626
 40
0.003
 41
0.003
 10
-0.135988
 20
1.076614
 40
0.003
 41
0.003
  0
LWPOLYLINE
  5
30A
100
AcDbEntity
  8
0
 62
     0
100
AcDbPolyline
 90
        2
 70
     0
 39
0.003
 10
-0.135988
 20
1.076614
 40
0.003
 41
0.003
 10
-0.135425
 20
1.067567
 40
0.003
 41
0.003
  0
LWPOLYLINE
  5
30B
100
AcDbEntity
  8
0
 62
     0
100
AcDbPolyline
 90
        2
 70
     0
 39
0.003
 10
-0.135425
 20
1.067567
 40
0.003
 41
0.003
 10
-0.135559
 20
1.058539
 40
0.003
 41
0.003
  0
LWPOLYLINE
  5
30C
100
AcDbEntity
  8
0
 62
     0
100
AcDbPolyline
 90
        2
 70
     0
 39
0.003
 10
-0.135559
 20
1.058539
 40
0.003
 41
0.003
 10
-0.136394
 20
1.049563
 40
0.003
 41
0.003
  0
LWPOLYLINE
  5
30D
100
AcDbEntity
  8
0
 62
     0
100
AcDbPolyline
 90
        2
 70
     0
 39
0.003
 10
-0.136394
 20
1.049563
 40
0.003
 41
0.003
 10
-0.137957
 20
1.040705
 40
0.003
 41
0.003
  0
LWPOLYLINE
  5
30E
100
AcDbEntity
  8
0
 62
     0
100
AcDbPolyline
 90
        2
 70
     0
 39
0.003
 10
-0.137957
 20
1.040705
 40
0.003
 41
0.003
 10
-0.140252
 20
1.032004
 40
0.003
 41
0.003
  0
LWPOLYLINE
  5
30F
100
AcDbEntity
  8
0
 62
     0
100
AcDbPolyline
 90
        2
 70
     0
 39
0.003
 10
-0.140252
 20
1.032004
 40
0.003
 41
0.003
 10
-0.143307
 20
1.02352
 40
0.003
 41
0.003
  0
LWPOLYLINE
  5
310
100
AcDbEntity
  8
0
 62
     0
100
AcDbPolyline
 90
        2
 70
     0
 39
0.003
 10
-0.143307
 20
1.02352
 40
0.003
 41
0.003
 10
-0.147114
 20
1.015287
 40
0.003
 41
0.003
  0
LWPOLYLINE
  5
311
100
AcDbEntity
  8
0
 62
     0
100
AcDbPolyline
 90
        2
 70
     0
 39
0.003
 10
-0.147114
 20
1.015287
 40
0.003
 41
0.003
 10
-0.151709
 20
1.00737
 40
0.003
 41
0.003
  0
LWPOLYLINE
  5
312
100
AcDbEntity
  8
0
 62
     0
100
AcDbPolyline
 90
        2
 70
     0
 39
0.003
 10
-0.151709
 20
1.00737
 40
0.003
 41
0.003
 10
-0.157087
 20
0.999807
 40
0.003
 41
0.003
  0
LWPOLYLINE
  5
313
100
AcDbEntity
  8
0
 62
     0
100
AcDbPolyline
 90
        2
 70
     0
 39
0.003
 10
-0.157087
 20
0.999807
 40
0.003
 41
0.003
 10
-0.163276
 20
0.992657
 40
0.003
 41
0.003
  0
LWPOLYLINE
  5
314
100
AcDbEntity
  8
0
 62
     0
100
AcDbPolyline
 90
        2
 70
     0
 39
0.003
 10
-0.163276
 20
0.992657
 40
0.003
 41
0.003
 10
-0.170272
 20
0.985953
 40
0.003
 41
0.003
  0
LWPOLYLINE
  5
315
100
AcDbEntity
  8
0
 62
     0
100
AcDbPolyline
 90
        2
 70
     0
 39
0.003
 10
-0.170272
 20
0.985953
 40
0.003
 41
0.003
 10
-0.178106
 20
0.979764
 40
0.003
 41
0.003
  0
LWPOLYLINE
  5
316
100
AcDbEntity
  8
0
 62
     0
100
AcDbPolyline
 90
        2
 70
     0
 39
0.003
 10
-0.178106
 20
0.979764
 40
0.003
 41
0.003
 10
-0.186783
 20
0.974122
 40
0.003
 41
0.003
  0
LWPOLYLINE
  5
317
100
AcDbEntity
  8
0
 62
   253
100
AcDbPolyline
 90
        2
 70
     0
 39
0.003
 10
-0.397465
 20
1.35261
 40
0.003
 41
0.003
 10
0.24813
 20
1.731441
 40
0.003
 41
0.003
  0
LWPOLYLINE
  5
318
100
AcDbEntity
  8
0
 62
   253
100
AcDbPolyline
 90
        2
 70
     0
 39
0.003
 10
0.24813
 20
1.731441
 40
0.003
 41
0.003
 10
0.108957
 20
1.731441
 40
0.003
 41
0.003
  0
LWPOLYLINE
  5
319
100
AcDbEntity
  8
0
 62
   253
100
AcDbPolyline
 90
        2
 70
     0
 39
0.003
 10
0.108957
 20
1.731441
 40
0.003
 41
0.003
 10
-0.536638
 20
1.35261
 40
0.003
 41
0.003
  0
LWPOLYLINE
  5
31A
100
AcDbEntity
  8
0
 62
   253
100
AcDbPolyline
 90
        2
 70
     0
 39
0.003
 10
-0.536638
 20
1.35261
 40
0.003
 41
0.003
 10
-0.397465
 20
1.35261
 40
0.003
 41
0.003
  0
LWPOLYLINE
  5
31B
100
AcDbEntity
  8
0
 62
     0
100
AcDbPolyline
 90
        2
 70
     0
 39
0.003
 10
-0.397465
 20
1.35261
 40
0.003
 41
0.003
 10
0.24813
 20
1.731441
 40
0.003
 41
0.003
  0
LWPOLYLINE
  5
31C
100
AcDbEntity
  8
0
 62
     0
100
AcDbPolyline
 90
        2
 70
     0
 39
0.003
 10
0.24813
 20
1.731441
 40
0.003
 41
0.003
 10
0.108957
 20
1.731441
 40
0.003
 41
0.003
  0
LWPOLYLINE
  5
31D
100
AcDbEntity
  8
0
 62
     0
100
AcDbPolyline
 90
        2
 70
     0
 39
0.003
 10
0.108957
 20
1.731441
 40
0.003
 41
0.003
 10
-0.536638
 20
1.35261
 40
0.003
 41
0.003
  0
LWPOLYLINE
  5
31E
100
AcDbEntity
  8
0
 62
     0
100
AcDbPolyline
 90
        2
 70
     0
 39
0.003
 10
-0.536638
 20
1.35261
 40
0.003
 41
0.003
 10
-0.397465
 20
1.35261
 40
0.003
 41
0.003
  0
LWPOLYLINE
  5
31F
100
AcDbEntity
  8
0
 62
   254
100
AcDbPolyline
 90
        2
 70
     0
 39
0.003
 10
0.098
 20
0.094406
 40
0.003
 41
0.003
 10
0.743594
 20
0.473236
 40
0.003
 41
0.003
  0
LWPOLYLINE
  5
320
100
AcDbEntity
  8
0
 62
   254
100
AcDbPolyline
 90
        2
 70
     0
 39
0.003
 10
0.743594
 20
0.473236
 40
0.003
 41
0.003
 10
0.743594
 20
0.542957
 40
0.003
 41
0.003
  0
LWPOLYLINE
  5
321
100
AcDbEntity
  8
0
 62
   254
100
AcDbPolyline
 90
        2
 70
     0
 39
0.003
 10
0.743594
 20
0.542957
 40
0.003
 41
0.003
 10
0.098
 20
0.164126
 40
0.003
 41
0.003
  0
LWPOLYLINE
  5
322
100
AcDbEntity
  8
0
 62
   254
100
AcDbPolyline
 90
        2
 70
     0
 39
0.003
 10
0.098
 20
0.164126
 40
0.003
 41
0.003
 10
0.098
 20
0.094406
 40
0.003
 41
0.003
  0
LWPOLYLINE
  5
323
100
AcDbEntity
  8
0
 62
     0
100
AcDbPolyline
 90
        2
 70
     0
 39
0.003
 10
0.098
 20
0.094406
 40
0.003
 41
0.003
 10
0.743594
 20
0.473236
 40
0.003
 41
0.003
  0
LWPOLYLINE
  5
324
100
AcDbEntity
  8
0
 62
     0
100
AcDbPolyline
 90
        2
 70
     0
 39
0.003
 10
0.743594
 20
0.473236
 40
0.003
 41
0.003
 10
0.743594
 20
0.542957
 40
0.003
 41
0.003
  0
LWPOLYLINE
  5
325
100
AcDbEntity
  8
0
 62
     0
100
AcDbPolyline
 90
        2
 70
     0
 39
0.003
 10
0.743594
 20
0.542957
 40
0.003
 41
0.003
 10
0.098
 20
0.164126
 40
0.003
 41
0.003
  0
LWPOLYLINE
  5
326
100
AcDbEntity
  8
0
 62
     0
100
AcDbPolyline
 90
        2
 70
     0
 39
0.003
 10
0.098
 20
0.164126
 40
0.003
 41
0.003
 10
0.098
 20
0.094406
 40
0.003
 41
0.003
  0
LWPOLYLINE
  5
327
100
AcDbEntity
  8
0
 62
     9
100
AcDbPolyline
 90
        2
 70
     0
 39
0.003
 10
0.212059
 20
0.207232
 40
0.003
 41
0.003
 10
0.857654
 20
0.586063
 40
0.003
 41
0.003
  0
LWPOLYLINE
  5
328
100
AcDbEntity
  8
0
 62
     9
100
AcDbPolyline
 90
        2
 70
     0
 39
0.003
 10
0.857654
 20
0.586063
 40
0.003
 41
0.003
 10
0.874063
 20
0.598492
 40
0.003
 41
0.003
  0
LWPOLYLINE
  5
329
100
AcDbEntity
  8
0
 62
     9
100
AcDbPolyline
 90
        2
 70
     0
 39
0.003
 10
0.874063
 20
0.598492
 40
0.003
 41
0.003
 10
0.228469
 20
0.219661
 40
0.003
 41
0.003
  0
LWPOLYLINE
  5
32A
100
AcDbEntity
  8
0
 62
     9
100
AcDbPolyline
 90
        2
 70
     0
 39
0.003
 10
0.228469
 20
0.219661
 40
0.003
 41
0.003
 10
0.212059
 20
0.207232
 40
0.003
 41
0.003
  0
LWPOLYLINE
  5
32B
100
AcDbEntity
  8
0
 62
   254
100
AcDbPolyline
 90
        2
 70
     0
 39
0.003
 10
0.228469
 20
0.219661
 40
0.003
 41
0.003
 10
0.874063
 20
0.598492
 40
0.003
 41
0.003
  0
LWPOLYLINE
  5
32C
100
AcDbEntity
  8
0
 62
   254
100
AcDbPolyline
 90
        2
 70
     0
 39
0.003
 10
0.874063
 20
0.598492
 40
0.003
 41
0.003
 10
0.888472
 20
0.611953
 40
0.003
 41
0.003
  0
LWPOLYLINE
  5
32D
100
AcDbEntity
  8
0
 62
   254
100
AcDbPolyline
 90
        2
 70
     0
 39
0.003
 10
0.888472
 20
0.611953
 40
0.003
 41
0.003
 10
0.242878
 20
0.233122
 40
0.003
 41
0.003
  0
LWPOLYLINE
  5
32E
100
AcDbEntity
  8
0
 62
   254
100
AcDbPolyline
 90
        2
 70
     0
 39
0.003
 10
0.242878
 20
0.233122
 40
0.003
 41
0.003
 10
0.228469
 20
0.219661
 40
0.003
 41
0.003
  0
LWPOLYLINE
  5
32F
100
AcDbEntity
  8
0
 62
   254
100
AcDbPolyline
 90
        2
 70
     0
 39
0.003
 10
0.242878
 20
0.233122
 40
0.003
 41
0.003
 10
0.888472
 20
0.611953
 40
0.003
 41
0.003
  0
LWPOLYLINE
  5
330
100
AcDbEntity
  8
0
 62
   254
100
AcDbPolyline
 90
        2
 70
     0
 39
0.003
 10
0.888472
 20
0.611953
 40
0.003
 41
0.003
 10
0.900941
 20
0.626362
 40
0.003
 41
0.003
  0
LWPOLYLINE
  5
331
100
AcDbEntity
  8
0
 62
   254
100
AcDbPolyline
 90
        2
 70
     0
 39
0.003
 10
0.900941
 20
0.626362
 40
0.003
 41
0.003
 10
0.255346
 20
0.247531
 40
0.003
 41
0.003
  0
LWPOLYLINE
  5
332
100
AcDbEntity
  8
0
 62
   254
100
AcDbPolyline
 90
        2
 70
     0
 39
0.003
 10
0.255346
 20
0.247531
 40
0.003
 41
0.003
 10
0.242878
 20
0.233122
 40
0.003
 41
0.003
  0
LWPOLYLINE
  5
333
100
AcDbEntity
  8
0
 62
   254
100
AcDbPolyline
 90
        2
 70
     0
 39
0.003
 10
0.255346
 20
0.247531
 40
0.003
 41
0.003
 10
0.900941
 20
0.626362
 40
0.003
 41
0.003
  0
LWPOLYLINE
  5
334
100
AcDbEntity
  8
0
 62
   254
100
AcDbPolyline
 90
        2
 70
     0
 39
0.003
 10
0.900941
 20
0.626362
 40
0.003
 41
0.003
 10
0.911516
 20
0.641598
 40
0.003
 41
0.003
  0
LWPOLYLINE
  5
335
100
AcDbEntity
  8
0
 62
   254
100
AcDbPolyline
 90
        2
 70
     0
 39
0.003
 10
0.911516
 20
0.641598
 40
0.003
 41
0.003
 10
0.265921
 20
0.262768
 40
0.003
 41
0.003
  0
LWPOLYLINE
  5
336
100
AcDbEntity
  8
0
 62
   254
100
AcDbPolyline
 90
        2
 70
     0
 39
0.003
 10
0.265921
 20
0.262768
 40
0.003
 41
0.003
 10
0.255346
 20
0.247531
 40
0.003
 41
0.003
  0
LWPOLYLINE
  5
337
100
AcDbEntity
  8
0
 62
   254
100
AcDbPolyline
 90
        2
 70
     0
 39
0.003
 10
0.265921
 20
0.262768
 40
0.003
 41
0.003
 10
0.911516
 20
0.641598
 40
0.003
 41
0.003
  0
LWPOLYLINE
  5
338
100
AcDbEntity
  8
0
 62
   254
100
AcDbPolyline
 90
        2
 70
     0
 39
0.003
 10
0.911516
 20
0.641598
 40
0.003
 41
0.003
 10
0.920272
 20
0.657583
 40
0.003
 41
0.003
  0
LWPOLYLINE
  5
339
100
AcDbEntity
  8
0
 62
   254
100
AcDbPolyline
 90
        2
 70
     0
 39
0.003
 10
0.920272
 20
0.657583
 40
0.003
 41
0.003
 10
0.274677
 20
0.278752
 40
0.003
 41
0.003
  0
LWPOLYLINE
  5
33A
100
AcDbEntity
  8
0
 62
   254
100
AcDbPolyline
 90
        2
 70
     0
 39
0.003
 10
0.274677
 20
0.278752
 40
0.003
 41
0.003
 10
0.265921
 20
0.262768
 40
0.003
 41
0.003
  0
LWPOLYLINE
  5
33B
100
AcDbEntity
  8
0
 62
   254
100
AcDbPolyline
 90
        2
 70
     0
 39
0.003
 10
0.274677
 20
0.278752
 40
0.003
 41
0.003
 10
0.920272
 20
0.657583
 40
0.003
 41
0.003
  0
LWPOLYLINE
  5
33C
100
AcDbEntity
  8
0
 62
   254
100
AcDbPolyline
 90
        2
 70
     0
 39
0.003
 10
0.920272
 20
0.657583
 40
0.003
 41
0.003
 10
0.92726
 20
0.674209
 40
0.003
 41
0.003
  0
LWPOLYLINE
  5
33D
100
AcDbEntity
  8
0
 62
   254
100
AcDbPolyline
 90
        2
 70
     0
 39
0.003
 10
0.92726
 20
0.674209
 40
0.003
 41
0.003
 10
0.281665
 20
0.295378
 40
0.003
 41
0.003
  0
LWPOLYLINE
  5
33E
100
AcDbEntity
  8
0
 62
   254
100
AcDbPolyline
 90
        2
 70
     0
 39
0.003
 10
0.281665
 20
0.295378
 40
0.003
 41
0.003
 10
0.274677
 20
0.278752
 40
0.003
 41
0.003
  0
LWPOLYLINE
  5
33F
100
AcDbEntity
  8
0
 62
   254
100
AcDbPolyline
 90
        2
 70
     0
 39
0.003
 10
0.281665
 20
0.295378
 40
0.003
 41
0.003
 10
0.92726
 20
0.674209
 40
0.003
 41
0.003
  0
LWPOLYLINE
  5
340
100
AcDbEntity
  8
0
 62
   254
100
AcDbPolyline
 90
        2
 70
     0
 39
0.003
 10
0.92726
 20
0.674209
 40
0.003
 41
0.003
 10
0.932543
 20
0.691378
 40
0.003
 41
0.003
  0
LWPOLYLINE
  5
341
100
AcDbEntity
  8
0
 62
   254
100
AcDbPolyline
 90
        2
 70
     0
 39
0.003
 10
0.932543
 20
0.691378
 40
0.003
 41
0.003
 10
0.286949
 20
0.312547
 40
0.003
 41
0.003
  0
LWPOLYLINE
  5
342
100
AcDbEntity
  8
0
 62
   254
100
AcDbPolyline
 90
        2
 70
     0
 39
0.003
 10
0.286949
 20
0.312547
 40
0.003
 41
0.003
 10
0.281665
 20
0.295378
 40
0.003
 41
0.003
  0
LWPOLYLINE
  5
343
100
AcDbEntity
  8
0
 62
   254
100
AcDbPolyline
 90
        2
 70
     0
 39
0.003
 10
0.286949
 20
0.312547
 40
0.003
 41
0.003
 10
0.932543
 20
0.691378
 40
0.003
 41
0.003
  0
LWPOLYLINE
  5
344
100
AcDbEntity
  8
0
 62
   254
100
AcDbPolyline
 90
        2
 70
     0
 39
0.003
 10
0.932543
 20
0.691378
 40
0.003
 41
0.003
 10
0.936165
 20
0.708988
 40
0.003
 41
0.003
  0
LWPOLYLINE
  5
345
100
AcDbEntity
  8
0
 62
   254
100
AcDbPolyline
 90
        2
 70
     0
 39
0.003
 10
0.936165
 20
0.708988
 40
0.003
 41
0.003
 10
0.290571
 20
0.330157
 40
0.003
 41
0.003
  0
LWPOLYLINE
  5
346
100
AcDbEntity
  8
0
 62
   254
100
AcDbPolyline
 90
        2
 70
     0
 39
0.003
 10
0.290571
 20
0.330157
 40
0.003
 41
0.003
 10
0.286949
 20
0.312547
 40
0.003
 41
0.003
  0
LWPOLYLINE
  5
347
100
AcDbEntity
  8
0
 62
   254
100
AcDbPolyline
 90
        2
 70
     0
 39
0.003
 10
0.290571
 20
0.330157
 40
0.003
 41
0.003
 10
0.936165
 20
0.708988
 40
0.003
 41
0.003
  0
LWPOLYLINE
  5
348
100
AcDbEntity
  8
0
 62
   254
100
AcDbPolyline
 90
        2
 70
     0
 39
0.003
 10
0.936165
 20
0.708988
 40
0.003
 41
0.003
 10
0.938205
 20
0.726953
 40
0.003
 41
0.003
  0
LWPOLYLINE
  5
349
100
AcDbEntity
  8
0
 62
   254
100
AcDbPolyline
 90
        2
 70
     0
 39
0.003
 10
0.938205
 20
0.726953
 40
0.003
 41
0.003
 10
0.29261
 20
0.348122
 40
0.003
 41
0.003
  0
LWPOLYLINE
  5
34A
100
AcDbEntity
  8
0
 62
   254
100
AcDbPolyline
 90
        2
 70
     0
 39
0.003
 10
0.29261
 20
0.348122
 40
0.003
 41
0.003
 10
0.290571
 20
0.330157
 40
0.003
 41
0.003
  0
LWPOLYLINE
  5
34B
100
AcDbEntity
  8
0
 62
   254
100
AcDbPolyline
 90
        2
 70
     0
 39
0.003
 10
0.29261
 20
0.348122
 40
0.003
 41
0.003
 10
0.938205
 20
0.726953
 40
0.003
 41
0.003
  0
LWPOLYLINE
  5
34C
100
AcDbEntity
  8
0
 62
   254
100
AcDbPolyline
 90
        2
 70
     0
 39
0.003
 10
0.938205
 20
0.726953
 40
0.003
 41
0.003
 10
0.938705
 20
0.745157
 40
0.003
 41
0.003
  0
LWPOLYLINE
  5
34D
100
AcDbEntity
  8
0
 62
   254
100
AcDbPolyline
 90
        2
 70
     0
 39
0.003
 10
0.938705
 20
0.745157
 40
0.003
 41
0.003
 10
0.29311
 20
0.366327
 40
0.003
 41
0.003
  0
LWPOLYLINE
  5
34E
100
AcDbEntity
  8
0
 62
   254
100
AcDbPolyline
 90
        2
 70
     0
 39
0.003
 10
0.29311
 20
0.366327
 40
0.003
 41
0.003
 10
0.29261
 20
0.348122
 40
0.003
 41
0.003
  0
LWPOLYLINE
  5
34F
100
AcDbEntity
  8
0
 62
   254
100
AcDbPolyline
 90
        2
 70
     0
 39
0.003
 10
0.29311
 20
0.366327
 40
0.003
 41
0.003
 10
0.938705
 20
0.745157
 40
0.003
 41
0.003
  0
LWPOLYLINE
  5
350
100
AcDbEntity
  8
0
 62
   254
100
AcDbPolyline
 90
        2
 70
     0
 39
0.003
 10
0.938705
 20
0.745157
 40
0.003
 41
0.003
 10
0.937732
 20
0.763516
 40
0.003
 41
0.003
  0
LWPOLYLINE
  5
351
100
AcDbEntity
  8
0
 62
   254
100
AcDbPolyline
 90
        2
 70
     0
 39
0.003
 10
0.937732
 20
0.763516
 40
0.003
 41
0.003
 10
0.292138
 20
0.384685
 40
0.003
 41
0.003
  0
LWPOLYLINE
  5
352
100
AcDbEntity
  8
0
 62
   254
100
AcDbPolyline
 90
        2
 70
     0
 39
0.003
 10
0.292138
 20
0.384685
 40
0.003
 41
0.003
 10
0.29311
 20
0.366327
 40
0.003
 41
0.003
  0
LWPOLYLINE
  5
353
100
AcDbEntity
  8
0
 62
   254
100
AcDbPolyline
 90
        2
 70
     0
 39
0.003
 10
0.292138
 20
0.384685
 40
0.003
 41
0.003
 10
0.937732
 20
0.763516
 40
0.003
 41
0.003
  0
LWPOLYLINE
  5
354
100
AcDbEntity
  8
0
 62
   254
100
AcDbPolyline
 90
        2
 70
     0
 39
0.003
 10
0.937732
 20
0.763516
 40
0.003
 41
0.003
 10
0.935331
 20
0.781913
 40
0.003
 41
0.003
  0
LWPOLYLINE
  5
355
100
AcDbEntity
  8
0
 62
   254
100
AcDbPolyline
 90
        2
 70
     0
 39
0.003
 10
0.935331
 20
0.781913
 40
0.003
 41
0.003
 10
0.289736
 20
0.403083
 40
0.003
 41
0.003
  0
LWPOLYLINE
  5
356
100
AcDbEntity
  8
0
 62
   254
100
AcDbPolyline
 90
        2
 70
     0
 39
0.003
 10
0.289736
 20
0.403083
 40
0.003
 41
0.003
 10
0.292138
 20
0.384685
 40
0.003
 41
0.003
  0
LWPOLYLINE
  5
357
100
AcDbEntity
  8
0
 62
   254
100
AcDbPolyline
 90
        2
 70
     0
 39
0.003
 10
0.289736
 20
0.403083
 40
0.003
 41
0.003
 10
0.935331
 20
0.781913
 40
0.003
 41
0.003
  0
LWPOLYLINE
  5
358
100
AcDbEntity
  8
0
 62
   254
100
AcDbPolyline
 90
        2
 70
     0
 39
0.003
 10
0.935331
 20
0.781913
 40
0.003
 41
0.003
 10
0.931575
 20
0.800264
 40
0.003
 41
0.003
  0
LWPOLYLINE
  5
359
100
AcDbEntity
  8
0
 62
   254
100
AcDbPolyline
 90
        2
 70
     0
 39
0.003
 10
0.931575
 20
0.800264
 40
0.003
 41
0.003
 10
0.28598
 20
0.421433
 40
0.003
 41
0.003
  0
LWPOLYLINE
  5
35A
100
AcDbEntity
  8
0
 62
   254
100
AcDbPolyline
 90
        2
 70
     0
 39
0.003
 10
0.28598
 20
0.421433
 40
0.003
 41
0.003
 10
0.289736
 20
0.403083
 40
0.003
 41
0.003
  0
LWPOLYLINE
  5
35B
100
AcDbEntity
  8
0
 62
   254
100
AcDbPolyline
 90
        2
 70
     0
 39
0.003
 10
0.28598
 20
0.421433
 40
0.003
 41
0.003
 10
0.931575
 20
0.800264
 40
0.003
 41
0.003
  0
LWPOLYLINE
  5
35C
100
AcDbEntity
  8
0
 62
   254
100
AcDbPolyline
 90
        2
 70
     0
 39
0.003
 10
0.931575
 20
0.800264
 40
0.003
 41
0.003
 10
0.926512
 20
0.818465
 40
0.003
 41
0.003
  0
LWPOLYLINE
  5
35D
100
AcDbEntity
  8
0
 62
   254
100
AcDbPolyline
 90
        2
 70
     0
 39
0.003
 10
0.926512
 20
0.818465
 40
0.003
 41
0.003
 10
0.280917
 20
0.439634
 40
0.003
 41
0.003
  0
LWPOLYLINE
  5
35E
100
AcDbEntity
  8
0
 62
   254
100
AcDbPolyline
 90
        2
 70
     0
 39
0.003
 10
0.280917
 20
0.439634
 40
0.003
 41
0.003
 10
0.28598
 20
0.421433
 40
0.003
 41
0.003
  0
LWPOLYLINE
  5
35F
100
AcDbEntity
  8
0
 62
   254
100
AcDbPolyline
 90
        2
 70
     0
 39
0.003
 10
0.280917
 20
0.439634
 40
0.003
 41
0.003
 10
0.926512
 20
0.818465
 40
0.003
 41
0.003
  0
LWPOLYLINE
  5
360
100
AcDbEntity
  8
0
 62
   254
100
AcDbPolyline
 90
        2
 70
     0
 39
0.003
 10
0.926512
 20
0.818465
 40
0.003
 41
0.003
 10
0.920213
 20
0.836425
 40
0.003
 41
0.003
  0
LWPOLYLINE
  5
361
100
AcDbEntity
  8
0
 62
   254
100
AcDbPolyline
 90
        2
 70
     0
 39
0.003
 10
0.920213
 20
0.836425
 40
0.003
 41
0.003
 10
0.274618
 20
0.457594
 40
0.003
 41
0.003
  0
LWPOLYLINE
  5
362
100
AcDbEntity
  8
0
 62
   254
100
AcDbPolyline
 90
        2
 70
     0
 39
0.003
 10
0.274618
 20
0.457594
 40
0.003
 41
0.003
 10
0.280917
 20
0.439634
 40
0.003
 41
0.003
  0
LWPOLYLINE
  5
363
100
AcDbEntity
  8
0
 62
   254
100
AcDbPolyline
 90
        2
 70
     0
 39
0.003
 10
0.274618
 20
0.457594
 40
0.003
 41
0.003
 10
0.920213
 20
0.836425
 40
0.003
 41
0.003
  0
LWPOLYLINE
  5
364
100
AcDbEntity
  8
0
 62
   254
100
AcDbPolyline
 90
        2
 70
     0
 39
0.003
 10
0.920213
 20
0.836425
 40
0.003
 41
0.003
 10
0.912717
 20
0.854031
 40
0.003
 41
0.003
  0
LWPOLYLINE
  5
365
100
AcDbEntity
  8
0
 62
   254
100
AcDbPolyline
 90
        2
 70
     0
 39
0.003
 10
0.912717
 20
0.854031
 40
0.003
 41
0.003
 10
0.267122
 20
0.475201
 40
0.003
 41
0.003
  0
LWPOLYLINE
  5
366
100
AcDbEntity
  8
0
 62
   254
100
AcDbPolyline
 90
        2
 70
     0
 39
0.003
 10
0.267122
 20
0.475201
 40
0.003
 41
0.003
 10
0.274618
 20
0.457594
 40
0.003
 41
0.003
  0
LWPOLYLINE
  5
367
100
AcDbEntity
  8
0
 62
   254
100
AcDbPolyline
 90
        2
 70
     0
 39
0.003
 10
0.267122
 20
0.475201
 40
0.003
 41
0.003
 10
0.912717
 20
0.854031
 40
0.003
 41
0.003
  0
LWPOLYLINE
  5
368
100
AcDbEntity
  8
0
 62
   254
100
AcDbPolyline
 90
        2
 70
     0
 39
0.003
 10
0.912717
 20
0.854031
 40
0.003
 41
0.003
 10
0.904098
 20
0.871197
 40
0.003
 41
0.003
  0
LWPOLYLINE
  5
369
100
AcDbEntity
  8
0
 62
   254
100
AcDbPolyline
 90
        2
 70
     0
 39
0.003
 10
0.904098
 20
0.871197
 40
0.003
 41
0.003
 10
0.258504
 20
0.492366
 40
0.003
 41
0.003
  0
LWPOLYLINE
  5
36A
100
AcDbEntity
  8
0
 62
   254
100
AcDbPolyline
 90
        2
 70
     0
 39
0.003
 10
0.258504
 20
0.492366
 40
0.003
 41
0.003
 10
0.267122
 20
0.475201
 40
0.003
 41
0.003
  0
LWPOLYLINE
  5
36B
100
AcDbEntity
  8
0
 62
   254
100
AcDbPolyline
 90
        2
 70
     0
 39
0.003
 10
0.258504
 20
0.492366
 40
0.003
 41
0.003
 10
0.904098
 20
0.871197
 40
0.003
 41
0.003
  0
LWPOLYLINE
  5
36C
100
AcDbEntity
  8
0
 62
   254
100
AcDbPolyline
 90
        2
 70
     0
 39
0.003
 10
0.904098
 20
0.871197
 40
0.003
 41
0.003
 10
0.894409
 20
0.887815
 40
0.003
 41
0.003
  0
LWPOLYLINE
  5
36D
100
AcDbEntity
  8
0
 62
   254
100
AcDbPolyline
 90
        2
 70
     0
 39
0.003
 10
0.894409
 20
0.887815
 40
0.003
 41
0.003
 10
0.248815
 20
0.508984
 40
0.003
 41
0.003
  0
LWPOLYLINE
  5
36E
100
AcDbEntity
  8
0
 62
   254
100
AcDbPolyline
 90
        2
 70
     0
 39
0.003
 10
0.248815
 20
0.508984
 40
0.003
 41
0.003
 10
0.258504
 20
0.492366
 40
0.003
 41
0.003
  0
LWPOLYLINE
  5
36F
100
AcDbEntity
  8
0
 62
   254
100
AcDbPolyline
 90
        2
 70
     0
 39
0.003
 10
0.248815
 20
0.508984
 40
0.003
 41
0.003
 10
0.894409
 20
0.887815
 40
0.003
 41
0.003
  0
LWPOLYLINE
  5
370
100
AcDbEntity
  8
0
 62
   254
100
AcDbPolyline
 90
        2
 70
     0
 39
0.003
 10
0.894409
 20
0.887815
 40
0.003
 41
0.003
 10
0.883713
 20
0.903799
 40
0.003
 41
0.003
  0
LWPOLYLINE
  5
371
100
AcDbEntity
  8
0
 62
   254
100
AcDbPolyline
 90
        2
 70
     0
 39
0.003
 10
0.883713
 20
0.903799
 40
0.003
 41
0.003
 10
0.238118
 20
0.524969
 40
0.003
 41
0.003
  0
LWPOLYLINE
  5
372
100
AcDbEntity
  8
0
 62
   254
100
AcDbPolyline
 90
        2
 70
     0
 39
0.003
 10
0.238118
 20
0.524969
 40
0.003
 41
0.003
 10
0.248815
 20
0.508984
 40
0.003
 41
0.003
  0
LWPOLYLINE
  5
373
100
AcDbEntity
  8
0
 62
   254
100
AcDbPolyline
 90
        2
 70
     0
 39
0.003
 10
0.238118
 20
0.524969
 40
0.003
 41
0.003
 10
0.883713
 20
0.903799
 40
0.003
 41
0.003
  0
LWPOLYLINE
  5
374
100
AcDbEntity
  8
0
 62
   254
100
AcDbPolyline
 90
        2
 70
     0
 39
0.003
 10
0.883713
 20
0.903799
 40
0.003
 41
0.003
 10
0.872051
 20
0.919031
 40
0.003
 41
0.003
  0
LWPOLYLINE
  5
375
100
AcDbEntity
  8
0
 62
   254
100
AcDbPolyline
 90
        2
 70
     0
 39
0.003
 10
0.872051
 20
0.919031
 40
0.003
 41
0.003
 10
0.226457
 20
0.540201
 40
0.003
 41
0.003
  0
LWPOLYLINE
  5
376
100
AcDbEntity
  8
0
 62
   254
100
AcDbPolyline
 90
        2
 70
     0
 39
0.003
 10
0.226457
 20
0.540201
 40
0.003
 41
0.003
 10
0.238118
 20
0.524969
 40
0.003
 41
0.003
  0
LWPOLYLINE
  5
377
100
AcDbEntity
  8
0
 62
   254
100
AcDbPolyline
 90
        2
 70
     0
 39
0.003
 10
0.226457
 20
0.540201
 40
0.003
 41
0.003
 10
0.872051
 20
0.919031
 40
0.003
 41
0.003
  0
LWPOLYLINE
  5
378
100
AcDbEntity
  8
0
 62
   254
100
AcDbPolyline
 90
        2
 70
     0
 39
0.003
 10
0.872051
 20
0.919031
 40
0.003
 41
0.003
 10
0.859504
 20
0.933425
 40
0.003
 41
0.003
  0
LWPOLYLINE
  5
379
100
AcDbEntity
  8
0
 62
   254
100
AcDbPolyline
 90
        2
 70
     0
 39
0.003
 10
0.859504
 20
0.933425
 40
0.003
 41
0.003
 10
0.213909
 20
0.554594
 40
0.003
 41
0.003
  0
LWPOLYLINE
  5
37A
100
AcDbEntity
  8
0
 62
   254
100
AcDbPolyline
 90
        2
 70
     0
 39
0.003
 10
0.213909
 20
0.554594
 40
0.003
 41
0.003
 10
0.226457
 20
0.540201
 40
0.003
 41
0.003
  0
LWPOLYLINE
  5
37B
100
AcDbEntity
  8
0
 62
   254
100
AcDbPolyline
 90
        2
 70
     0
 39
0.003
 10
0.213909
 20
0.554594
 40
0.003
 41
0.003
 10
0.859504
 20
0.933425
 40
0.003
 41
0.003
  0
LWPOLYLINE
  5
37C
100
AcDbEntity
  8
0
 62
   254
100
AcDbPolyline
 90
        2
 70
     0
 39
0.003
 10
0.859504
 20
0.933425
 40
0.003
 41
0.003
 10
0.84611
 20
0.946878
 40
0.003
 41
0.003
  0
LWPOLYLINE
  5
37D
100
AcDbEntity
  8
0
 62
   254
100
AcDbPolyline
 90
        2
 70
     0
 39
0.003
 10
0.84611
 20
0.946878
 40
0.003
 41
0.003
 10
0.200516
 20
0.568047
 40
0.003
 41
0.003
  0
LWPOLYLINE
  5
37E
100
AcDbEntity
  8
0
 62
   254
100
AcDbPolyline
 90
        2
 70
     0
 39
0.003
 10
0.200516
 20
0.568047
 40
0.003
 41
0.003
 10
0.213909
 20
0.554594
 40
0.003
 41
0.003
  0
LWPOLYLINE
  5
37F
100
AcDbEntity
  8
0
 62
   254
100
AcDbPolyline
 90
        2
 70
     0
 39
0.003
 10
0.200516
 20
0.568047
 40
0.003
 41
0.003
 10
0.84611
 20
0.946878
 40
0.003
 41
0.003
  0
LWPOLYLINE
  5
380
100
AcDbEntity
  8
0
 62
   254
100
AcDbPolyline
 90
        2
 70
     0
 39
0.003
 10
0.84611
 20
0.946878
 40
0.003
 41
0.003
 10
0.831945
 20
0.959299
 40
0.003
 41
0.003
  0
LWPOLYLINE
  5
381
100
AcDbEntity
  8
0
 62
   254
100
AcDbPolyline
 90
        2
 70
     0
 39
0.003
 10
0.831945
 20
0.959299
 40
0.003
 41
0.003
 10
0.18635
 20
0.580469
 40
0.003
 41
0.003
  0
LWPOLYLINE
  5
382
100
AcDbEntity
  8
0
 62
   254
100
AcDbPolyline
 90
        2
 70
     0
 39
0.003
 10
0.18635
 20
0.580469
 40
0.003
 41
0.003
 10
0.200516
 20
0.568047
 40
0.003
 41
0.003
  0
LWPOLYLINE
  5
383
100
AcDbEntity
  8
0
 62
   254
100
AcDbPolyline
 90
        2
 70
     0
 39
0.003
 10
0.18635
 20
0.580469
 40
0.003
 41
0.003
 10
0.831945
 20
0.959299
 40
0.003
 41
0.003
  0
LWPOLYLINE
  5
384
100
AcDbEntity
  8
0
 62
   254
100
AcDbPolyline
 90
        2
 70
     0
 39
0.003
 10
0.831945
 20
0.959299
 40
0.003
 41
0.003
 10
0.817051
 20
0.970575
 40
0.003
 41
0.003
  0
LWPOLYLINE
  5
385
100
AcDbEntity
  8
0
 62
   254
100
AcDbPolyline
 90
        2
 70
     0
 39
0.003
 10
0.817051
 20
0.970575
 40
0.003
 41
0.003
 10
0.171457
 20
0.591744
 40
0.003
 41
0.003
  0
LWPOLYLINE
  5
386
100
AcDbEntity
  8
0
 62
   254
100
AcDbPolyline
 90
        2
 70
     0
 39
0.003
 10
0.171457
 20
0.591744
 40
0.003
 41
0.003
 10
0.18635
 20
0.580469
 40
0.003
 41
0.003
  0
LWPOLYLINE
  5
387
100
AcDbEntity
  8
0
 62
   254
100
AcDbPolyline
 90
        2
 70
     0
 39
0.003
 10
0.171457
 20
0.591744
 40
0.003
 41
0.003
 10
0.817051
 20
0.970575
 40
0.003
 41
0.003
  0
LWPOLYLINE
  5
388
100
AcDbEntity
  8
0
 62
   254
100
AcDbPolyline
 90
        2
 70
     0
 39
0.003
 10
0.817051
 20
0.970575
 40
0.003
 41
0.003
 10
0.8015
 20
0.980618
 40
0.003
 41
0.003
  0
LWPOLYLINE
  5
389
100
AcDbEntity
  8
0
 62
   254
100
AcDbPolyline
 90
        2
 70
     0
 39
0.003
 10
0.8015
 20
0.980618
 40
0.003
 41
0.003
 10
0.155906
 20
0.601787
 40
0.003
 41
0.003
  0
LWPOLYLINE
  5
38A
100
AcDbEntity
  8
0
 62
   254
100
AcDbPolyline
 90
        2
 70
     0
 39
0.003
 10
0.155906
 20
0.601787
 40
0.003
 41
0.003
 10
0.171457
 20
0.591744
 40
0.003
 41
0.003
  0
LWPOLYLINE
  5
38B
100
AcDbEntity
  8
0
 62
   254
100
AcDbPolyline
 90
        2
 70
     0
 39
0.003
 10
0.155906
 20
0.601787
 40
0.003
 41
0.003
 10
0.8015
 20
0.980618
 40
0.003
 41
0.003
  0
LWPOLYLINE
  5
38C
100
AcDbEntity
  8
0
 62
   254
100
AcDbPolyline
 90
        2
 70
     0
 39
0.003
 10
0.8015
 20
0.980618
 40
0.003
 41
0.003
 10
0.785343
 20
0.989327
 40
0.003
 41
0.003
  0
LWPOLYLINE
  5
38D
100
AcDbEntity
  8
0
 62
   254
100
AcDbPolyline
 90
        2
 70
     0
 39
0.003
 10
0.785343
 20
0.989327
 40
0.003
 41
0.003
 10
0.139748
 20
0.610496
 40
0.003
 41
0.003
  0
LWPOLYLINE
  5
38E
100
AcDbEntity
  8
0
 62
   254
100
AcDbPolyline
 90
        2
 70
     0
 39
0.003
 10
0.139748
 20
0.610496
 40
0.003
 41
0.003
 10
0.155906
 20
0.601787
 40
0.003
 41
0.003
  0
LWPOLYLINE
  5
38F
100
AcDbEntity
  8
0
 62
     9
100
AcDbPolyline
 90
        2
 70
     0
 39
0.003
 10
0.139748
 20
0.610496
 40
0.003
 41
0.003
 10
0.785343
 20
0.989327
 40
0.003
 41
0.003
  0
LWPOLYLINE
  5
390
100
AcDbEntity
  8
0
 62
     9
100
AcDbPolyline
 90
        2
 70
     0
 39
0.003
 10
0.785343
 20
0.989327
 40
0.003
 41
0.003
 10
0.768638
 20
0.996606
 40
0.003
 41
0.003
  0
LWPOLYLINE
  5
391
100
AcDbEntity
  8
0
 62
     9
100
AcDbPolyline
 90
        2
 70
     0
 39
0.003
 10
0.768638
 20
0.996606
 40
0.003
 41
0.003
 10
0.123043
 20
0.617776
 40
0.003
 41
0.003
  0
LWPOLYLINE
  5
392
100
AcDbEntity
  8
0
 62
     9
100
AcDbPolyline
 90
        2
 70
     0
 39
0.003
 10
0.123043
 20
0.617776
 40
0.003
 41
0.003
 10
0.139748
 20
0.610496
 40
0.003
 41
0.003
  0
LWPOLYLINE
  5
393
100
AcDbEntity
  8
0
 62
     0
100
AcDbPolyline
 90
        2
 70
     0
 39
0.003
 10
0.212059
 20
0.207232
 40
0.003
 41
0.003
 10
0.857654
 20
0.586063
 40
0.003
 41
0.003
  0
LWPOLYLINE
  5
394
100
AcDbEntity
  8
0
 62
     0
100
AcDbPolyline
 90
        2
 70
     0
 39
0.003
 10
0.857654
 20
0.586063
 40
0.003
 41
0.003
 10
0.874063
 20
0.598492
 40
0.003
 41
0.003
  0
LWPOLYLINE
  5
395
100
AcDbEntity
  8
0
 62
     0
100
AcDbPolyline
 90
        2
 70
     0
 39
0.003
 10
0.874063
 20
0.598492
 40
0.003
 41
0.003
 10
0.888472
 20
0.611953
 40
0.003
 41
0.003
  0
LWPOLYLINE
  5
396
100
AcDbEntity
  8
0
 62
     0
100
AcDbPolyline
 90
        2
 70
     0
 39
0.003
 10
0.888472
 20
0.611953
 40
0.003
 41
0.003
 10
0.900941
 20
0.626362
 40
0.003
 41
0.003
  0
LWPOLYLINE
  5
397
100
AcDbEntity
  8
0
 62
     0
100
AcDbPolyline
 90
        2
 70
     0
 39
0.003
 10
0.900941
 20
0.626362
 40
0.003
 41
0.003
 10
0.911516
 20
0.641598
 40
0.003
 41
0.003
  0
LWPOLYLINE
  5
398
100
AcDbEntity
  8
0
 62
     0
100
AcDbPolyline
 90
        2
 70
     0
 39
0.003
 10
0.911516
 20
0.641598
 40
0.003
 41
0.003
 10
0.920272
 20
0.657583
 40
0.003
 41
0.003
  0
LWPOLYLINE
  5
399
100
AcDbEntity
  8
0
 62
     0
100
AcDbPolyline
 90
        2
 70
     0
 39
0.003
 10
0.920272
 20
0.657583
 40
0.003
 41
0.003
 10
0.92726
 20
0.674209
 40
0.003
 41
0.003
  0
LWPOLYLINE
  5
39A
100
AcDbEntity
  8
0
 62
     0
100
AcDbPolyline
 90
        2
 70
     0
 39
0.003
 10
0.92726
 20
0.674209
 40
0.003
 41
0.003
 10
0.932543
 20
0.691378
 40
0.003
 41
0.003
  0
LWPOLYLINE
  5
39B
100
AcDbEntity
  8
0
 62
     0
100
AcDbPolyline
 90
        2
 70
     0
 39
0.003
 10
0.932543
 20
0.691378
 40
0.003
 41
0.003
 10
0.936165
 20
0.708988
 40
0.003
 41
0.003
  0
LWPOLYLINE
  5
39C
100
AcDbEntity
  8
0
 62
     0
100
AcDbPolyline
 90
        2
 70
     0
 39
0.003
 10
0.936165
 20
0.708988
 40
0.003
 41
0.003
 10
0.938205
 20
0.726953
 40
0.003
 41
0.003
  0
LWPOLYLINE
  5
39D
100
AcDbEntity
  8
0
 62
     0
100
AcDbPolyline
 90
        2
 70
     0
 39
0.003
 10
0.938205
 20
0.726953
 40
0.003
 41
0.003
 10
0.938705
 20
0.745157
 40
0.003
 41
0.003
  0
LWPOLYLINE
  5
39E
100
AcDbEntity
  8
0
 62
     0
100
AcDbPolyline
 90
        2
 70
     0
 39
0.003
 10
0.938705
 20
0.745157
 40
0.003
 41
0.003
 10
0.937732
 20
0.763516
 40
0.003
 41
0.003
  0
LWPOLYLINE
  5
39F
100
AcDbEntity
  8
0
 62
     0
100
AcDbPolyline
 90
        2
 70
     0
 39
0.003
 10
0.937732
 20
0.763516
 40
0.003
 41
0.003
 10
0.935331
 20
0.781913
 40
0.003
 41
0.003
  0
LWPOLYLINE
  5
3A0
100
AcDbEntity
  8
0
 62
     0
100
AcDbPolyline
 90
        2
 70
     0
 39
0.003
 10
0.935331
 20
0.781913
 40
0.003
 41
0.003
 10
0.931575
 20
0.800264
 40
0.003
 41
0.003
  0
LWPOLYLINE
  5
3A1
100
AcDbEntity
  8
0
 62
     0
100
AcDbPolyline
 90
        2
 70
     0
 39
0.003
 10
0.931575
 20
0.800264
 40
0.003
 41
0.003
 10
0.926512
 20
0.818465
 40
0.003
 41
0.003
  0
LWPOLYLINE
  5
3A2
100
AcDbEntity
  8
0
 62
     0
100
AcDbPolyline
 90
        2
 70
     0
 39
0.003
 10
0.926512
 20
0.818465
 40
0.003
 41
0.003
 10
0.920213
 20
0.836425
 40
0.003
 41
0.003
  0
LWPOLYLINE
  5
3A3
100
AcDbEntity
  8
0
 62
     0
100
AcDbPolyline
 90
        2
 70
     0
 39
0.003
 10
0.920213
 20
0.836425
 40
0.003
 41
0.003
 10
0.912717
 20
0.854031
 40
0.003
 41
0.003
  0
LWPOLYLINE
  5
3A4
100
AcDbEntity
  8
0
 62
     0
100
AcDbPolyline
 90
        2
 70
     0
 39
0.003
 10
0.912717
 20
0.854031
 40
0.003
 41
0.003
 10
0.904098
 20
0.871197
 40
0.003
 41
0.003
  0
LWPOLYLINE
  5
3A5
100
AcDbEntity
  8
0
 62
     0
100
AcDbPolyline
 90
        2
 70
     0
 39
0.003
 10
0.904098
 20
0.871197
 40
0.003
 41
0.003
 10
0.894409
 20
0.887815
 40
0.003
 41
0.003
  0
LWPOLYLINE
  5
3A6
100
AcDbEntity
  8
0
 62
     0
100
AcDbPolyline
 90
        2
 70
     0
 39
0.003
 10
0.894409
 20
0.887815
 40
0.003
 41
0.003
 10
0.883713
 20
0.903799
 40
0.003
 41
0.003
  0
LWPOLYLINE
  5
3A7
100
AcDbEntity
  8
0
 62
     0
100
AcDbPolyline
 90
        2
 70
     0
 39
0.003
 10
0.883713
 20
0.903799
 40
0.003
 41
0.003
 10
0.872051
 20
0.919031
 40
0.003
 41
0.003
  0
LWPOLYLINE
  5
3A8
100
AcDbEntity
  8
0
 62
     0
100
AcDbPolyline
 90
        2
 70
     0
 39
0.003
 10
0.872051
 20
0.919031
 40
0.003
 41
0.003
 10
0.859504
 20
0.933425
 40
0.003
 41
0.003
  0
LWPOLYLINE
  5
3A9
100
AcDbEntity
  8
0
 62
     0
100
AcDbPolyline
 90
        2
 70
     0
 39
0.003
 10
0.859504
 20
0.933425
 40
0.003
 41
0.003
 10
0.84611
 20
0.946878
 40
0.003
 41
0.003
  0
LWPOLYLINE
  5
3AA
100
AcDbEntity
  8
0
 62
     0
100
AcDbPolyline
 90
        2
 70
     0
 39
0.003
 10
0.84611
 20
0.946878
 40
0.003
 41
0.003
 10
0.831945
 20
0.959299
 40
0.003
 41
0.003
  0
LWPOLYLINE
  5
3AB
100
AcDbEntity
  8
0
 62
     0
100
AcDbPolyline
 90
        2
 70
     0
 39
0.003
 10
0.831945
 20
0.959299
 40
0.003
 41
0.003
 10
0.817051
 20
0.970575
 40
0.003
 41
0.003
  0
LWPOLYLINE
  5
3AC
100
AcDbEntity
  8
0
 62
     0
100
AcDbPolyline
 90
        2
 70
     0
 39
0.003
 10
0.817051
 20
0.970575
 40
0.003
 41
0.003
 10
0.8015
 20
0.980618
 40
0.003
 41
0.003
  0
LWPOLYLINE
  5
3AD
100
AcDbEntity
  8
0
 62
     0
100
AcDbPolyline
 90
        2
 70
     0
 39
0.003
 10
0.8015
 20
0.980618
 40
0.003
 41
0.003
 10
0.785343
 20
0.989327
 40
0.003
 41
0.003
  0
LWPOLYLINE
  5
3AE
100
AcDbEntity
  8
0
 62
     0
100
AcDbPolyline
 90
        2
 70
     0
 39
0.003
 10
0.785343
 20
0.989327
 40
0.003
 41
0.003
 10
0.768638
 20
0.996606
 40
0.003
 41
0.003
  0
LWPOLYLINE
  5
3AF
100
AcDbEntity
  8
0
 62
     0
100
AcDbPolyline
 90
        2
 70
     0
 39
0.003
 10
0.768638
 20
0.996606
 40
0.003
 41
0.003
 10
0.123043
 20
0.617776
 40
0.003
 41
0.003
  0
LWPOLYLINE
  5
3B0
100
AcDbEntity
  8
0
 62
     0
100
AcDbPolyline
 90
        2
 70
     0
 39
0.003
 10
0.123043
 20
0.617776
 40
0.003
 41
0.003
 10
0.139748
 20
0.610496
 40
0.003
 41
0.003
  0
LWPOLYLINE
  5
3B1
100
AcDbEntity
  8
0
 62
     0
100
AcDbPolyline
 90
        2
 70
     0
 39
0.003
 10
0.139748
 20
0.610496
 40
0.003
 41
0.003
 10
0.155906
 20
0.601787
 40
0.003
 41
0.003
  0
LWPOLYLINE
  5
3B2
100
AcDbEntity
  8
0
 62
     0
100
AcDbPolyline
 90
        2
 70
     0
 39
0.003
 10
0.155906
 20
0.601787
 40
0.003
 41
0.003
 10
0.171457
 20
0.591744
 40
0.003
 41
0.003
  0
LWPOLYLINE
  5
3B3
100
AcDbEntity
  8
0
 62
     0
100
AcDbPolyline
 90
        2
 70
     0
 39
0.003
 10
0.171457
 20
0.591744
 40
0.003
 41
0.003
 10
0.18635
 20
0.580469
 40
0.003
 41
0.003
  0
LWPOLYLINE
  5
3B4
100
AcDbEntity
  8
0
 62
     0
100
AcDbPolyline
 90
        2
 70
     0
 39
0.003
 10
0.18635
 20
0.580469
 40
0.003
 41
0.003
 10
0.200516
 20
0.568047
 40
0.003
 41
0.003
  0
LWPOLYLINE
  5
3B5
100
AcDbEntity
  8
0
 62
     0
100
AcDbPolyline
 90
        2
 70
     0
 39
0.003
 10
0.200516
 20
0.568047
 40
0.003
 41
0.003
 10
0.213909
 20
0.554594
 40
0.003
 41
0.003
  0
LWPOLYLINE
  5
3B6
100
AcDbEntity
  8
0
 62
     0
100
AcDbPolyline
 90
        2
 70
     0
 39
0.003
 10
0.213909
 20
0.554594
 40
0.003
 41
0.003
 10
0.226457
 20
0.540201
 40
0.003
 41
0.003
  0
LWPOLYLINE
  5
3B7
100
AcDbEntity
  8
0
 62
     0
100
AcDbPolyline
 90
        2
 70
     0
 39
0.003
 10
0.226457
 20
0.540201
 40
0.003
 41
0.003
 10
0.238118
 20
0.524969
 40
0.003
 41
0.003
  0
LWPOLYLINE
  5
3B8
100
AcDbEntity
  8
0
 62
     0
100
AcDbPolyline
 90
        2
 70
     0
 39
0.003
 10
0.238118
 20
0.524969
 40
0.003
 41
0.003
 10
0.248815
 20
0.508984
 40
0.003
 41
0.003
  0
LWPOLYLINE
  5
3B9
100
AcDbEntity
  8
0
 62
     0
100
AcDbPolyline
 90
        2
 70
     0
 39
0.003
 10
0.248815
 20
0.508984
 40
0.003
 41
0.003
 10
0.258504
 20
0.492366
 40
0.003
 41
0.003
  0
LWPOLYLINE
  5
3BA
100
AcDbEntity
  8
0
 62
     0
100
AcDbPolyline
 90
        2
 70
     0
 39
0.003
 10
0.258504
 20
0.492366
 40
0.003
 41
0.003
 10
0.267122
 20
0.475201
 40
0.003
 41
0.003
  0
LWPOLYLINE
  5
3BB
100
AcDbEntity
  8
0
 62
     0
100
AcDbPolyline
 90
        2
 70
     0
 39
0.003
 10
0.267122
 20
0.475201
 40
0.003
 41
0.003
 10
0.274618
 20
0.457594
 40
0.003
 41
0.003
  0
LWPOLYLINE
  5
3BC
100
AcDbEntity
  8
0
 62
     0
100
AcDbPolyline
 90
        2
 70
     0
 39
0.003
 10
0.274618
 20
0.457594
 40
0.003
 41
0.003
 10
0.280917
 20
0.439634
 40
0.003
 41
0.003
  0
LWPOLYLINE
  5
3BD
100
AcDbEntity
  8
0
 62
     0
100
AcDbPolyline
 90
        2
 70
     0
 39
0.003
 10
0.280917
 20
0.439634
 40
0.003
 41
0.003
 10
0.28598
 20
0.421433
 40
0.003
 41
0.003
  0
LWPOLYLINE
  5
3BE
100
AcDbEntity
  8
0
 62
     0
100
AcDbPolyline
 90
        2
 70
     0
 39
0.003
 10
0.28598
 20
0.421433
 40
0.003
 41
0.003
 10
0.289736
 20
0.403083
 40
0.003
 41
0.003
  0
LWPOLYLINE
  5
3BF
100
AcDbEntity
  8
0
 62
     0
100
AcDbPolyline
 90
        2
 70
     0
 39
0.003
 10
0.289736
 20
0.403083
 40
0.003
 41
0.003
 10
0.292138
 20
0.384685
 40
0.003
 41
0.003
  0
LWPOLYLINE
  5
3C0
100
AcDbEntity
  8
0
 62
     0
100
AcDbPolyline
 90
        2
 70
     0
 39
0.003
 10
0.292138
 20
0.384685
 40
0.003
 41
0.003
 10
0.29311
 20
0.366327
 40
0.003
 41
0.003
  0
LWPOLYLINE
  5
3C1
100
AcDbEntity
  8
0
 62
     0
100
AcDbPolyline
 90
        2
 70
     0
 39
0.003
 10
0.29311
 20
0.366327
 40
0.003
 41
0.003
 10
0.29261
 20
0.348122
 40
0.003
 41
0.003
  0
LWPOLYLINE
  5
3C2
100
AcDbEntity
  8
0
 62
     0
100
AcDbPolyline
 90
        2
 70
     0
 39
0.003
 10
0.29261
 20
0.348122
 40
0.003
 41
0.003
 10
0.290571
 20
0.330157
 40
0.003
 41
0.003
  0
LWPOLYLINE
  5
3C3
100
AcDbEntity
  8
0
 62
     0
100
AcDbPolyline
 90
        2
 70
     0
 39
0.003
 10
0.290571
 20
0.330157
 40
0.003
 41
0.003
 10
0.286949
 20
0.312547
 40
0.003
 41
0.003
  0
LWPOLYLINE
  5
3C4
100
AcDbEntity
  8
0
 62
     0
100
AcDbPolyline
 90
        2
 70
     0
 39
0.003
 10
0.286949
 20
0.312547
 40
0.003
 41
0.003
 10
0.281665
 20
0.295378
 40
0.003
 41
0.003
  0
LWPOLYLINE
  5
3C5
100
AcDbEntity
  8
0
 62
     0
100
AcDbPolyline
 90
        2
 70
     0
 39
0.003
 10
0.281665
 20
0.295378
 40
0.003
 41
0.003
 10
0.274677
 20
0.278752
 40
0.003
 41
0.003
  0
LWPOLYLINE
  5
3C6
100
AcDbEntity
  8
0
 62
     0
100
AcDbPolyline
 90
        2
 70
     0
 39
0.003
 10
0.274677
 20
0.278752
 40
0.003
 41
0.003
 10
0.265921
 20
0.262768
 40
0.003
 41
0.003
  0
LWPOLYLINE
  5
3C7
100
AcDbEntity
  8
0
 62
     0
100
AcDbPolyline
 90
        2
 70
     0
 39
0.003
 10
0.265921
 20
0.262768
 40
0.003
 41
0.003
 10
0.255346
 20
0.247531
 40
0.003
 41
0.003
  0
LWPOLYLINE
  5
3C8
100
AcDbEntity
  8
0
 62
     0
100
AcDbPolyline
 90
        2
 70
     0
 39
0.003
 10
0.255346
 20
0.247531
 40
0.003
 41
0.003
 10
0.242878
 20
0.233122
 40
0.003
 41
0.003
  0
LWPOLYLINE
  5
3C9
100
AcDbEntity
  8
0
 62
     0
100
AcDbPolyline
 90
        2
 70
     0
 39
0.003
 10
0.242878
 20
0.233122
 40
0.003
 41
0.003
 10
0.228469
 20
0.219661
 40
0.003
 41
0.003
  0
LWPOLYLINE
  5
3CA
100
AcDbEntity
  8
0
 62
     0
100
AcDbPolyline
 90
        2
 70
     0
 39
0.003
 10
0.228469
 20
0.219661
 40
0.003
 41
0.003
 10
0.212059
 20
0.207232
 40
0.003
 41
0.003
  0
LWPOLYLINE
  5
3CB
100
AcDbEntity
  8
0
 62
     9
100
AcDbPolyline
 90
        2
 70
     0
 39
0.003
 10
0.123043
 20
0.617776
 40
0.003
 41
0.003
 10
0.768638
 20
0.996606
 40
0.003
 41
0.003
  0
LWPOLYLINE
  5
3CC
100
AcDbEntity
  8
0
 62
     9
100
AcDbPolyline
 90
        2
 70
     0
 39
0.003
 10
0.768638
 20
0.996606
 40
0.003
 41
0.003
 10
0.752028
 20
1.002972
 40
0.003
 41
0.003
  0
LWPOLYLINE
  5
3CD
100
AcDbEntity
  8
0
 62
     9
100
AcDbPolyline
 90
        2
 70
     0
 39
0.003
 10
0.752028
 20
1.002972
 40
0.003
 41
0.003
 10
0.106433
 20
0.624142
 40
0.003
 41
0.003
  0
LWPOLYLINE
  5
3CE
100
AcDbEntity
  8
0
 62
     9
100
AcDbPolyline
 90
        2
 70
     0
 39
0.003
 10
0.106433
 20
0.624142
 40
0.003
 41
0.003
 10
0.123043
 20
0.617776
 40
0.003
 41
0.003
  0
LWPOLYLINE
  5
3CF
100
AcDbEntity
  8
0
 62
     9
100
AcDbPolyline
 90
        2
 70
     0
 39
0.003
 10
0.106433
 20
0.624142
 40
0.003
 41
0.003
 10
0.752028
 20
1.002972
 40
0.003
 41
0.003
  0
LWPOLYLINE
  5
3D0
100
AcDbEntity
  8
0
 62
     9
100
AcDbPolyline
 90
        2
 70
     0
 39
0.003
 10
0.752028
 20
1.002972
 40
0.003
 41
0.003
 10
0.736126
 20
1.009075
 40
0.003
 41
0.003
  0
LWPOLYLINE
  5
3D1
100
AcDbEntity
  8
0
 62
     9
100
AcDbPolyline
 90
        2
 70
     0
 39
0.003
 10
0.736126
 20
1.009075
 40
0.003
 41
0.003
 10
0.090531
 20
0.630244
 40
0.003
 41
0.003
  0
LWPOLYLINE
  5
3D2
100
AcDbEntity
  8
0
 62
     9
100
AcDbPolyline
 90
        2
 70
     0
 39
0.003
 10
0.090531
 20
0.630244
 40
0.003
 41
0.003
 10
0.106433
 20
0.624142
 40
0.003
 41
0.003
  0
LWPOLYLINE
  5
3D3
100
AcDbEntity
  8
0
 62
     9
100
AcDbPolyline
 90
        2
 70
     0
 39
0.003
 10
0.090531
 20
0.630244
 40
0.003
 41
0.003
 10
0.736126
 20
1.009075
 40
0.003
 41
0.003
  0
LWPOLYLINE
  5
3D4
100
AcDbEntity
  8
0
 62
     9
100
AcDbPolyline
 90
        2
 70
     0
 39
0.003
 10
0.736126
 20
1.009075
 40
0.003
 41
0.003
 10
0.720917
 20
1.014941
 40
0.003
 41
0.003
  0
LWPOLYLINE
  5
3D5
100
AcDbEntity
  8
0
 62
     9
100
AcDbPolyline
 90
        2
 70
     0
 39
0.003
 10
0.720917
 20
1.014941
 40
0.003
 41
0.003
 10
0.075323
 20
0.63611
 40
0.003
 41
0.003
  0
LWPOLYLINE
  5
3D6
100
AcDbEntity
  8
0
 62
     9
100
AcDbPolyline
 90
        2
 70
     0
 39
0.003
 10
0.075323
 20
0.63611
 40
0.003
 41
0.003
 10
0.090531
 20
0.630244
 40
0.003
 41
0.003
  0
LWPOLYLINE
  5
3D7
100
AcDbEntity
  8
0
 62
     9
100
AcDbPolyline
 90
        2
 70
     0
 39
0.003
 10
0.075323
 20
0.63611
 40
0.003
 41
0.003
 10
0.720917
 20
1.014941
 40
0.003
 41
0.003
  0
LWPOLYLINE
  5
3D8
100
AcDbEntity
  8
0
 62
     9
100
AcDbPolyline
 90
        2
 70
     0
 39
0.003
 10
0.720917
 20
1.014941
 40
0.003
 41
0.003
 10
0.706394
 20
1.020626
 40
0.003
 41
0.003
  0
LWPOLYLINE
  5
3D9
100
AcDbEntity
  8
0
 62
     9
100
AcDbPolyline
 90
        2
 70
     0
 39
0.003
 10
0.706394
 20
1.020626
 40
0.003
 41
0.003
 10
0.060799
 20
0.641795
 40
0.003
 41
0.003
  0
LWPOLYLINE
  5
3DA
100
AcDbEntity
  8
0
 62
     9
100
AcDbPolyline
 90
        2
 70
     0
 39
0.003
 10
0.060799
 20
0.641795
 40
0.003
 41
0.003
 10
0.075323
 20
0.63611
 40
0.003
 41
0.003
  0
LWPOLYLINE
  5
3DB
100
AcDbEntity
  8
0
 62
     9
100
AcDbPolyline
 90
        2
 70
     0
 39
0.003
 10
0.060799
 20
0.641795
 40
0.003
 41
0.003
 10
0.706394
 20
1.020626
 40
0.003
 41
0.003
  0
LWPOLYLINE
  5
3DC
100
AcDbEntity
  8
0
 62
     9
100
AcDbPolyline
 90
        2
 70
     0
 39
0.003
 10
0.706394
 20
1.020626
 40
0.003
 41
0.003
 10
0.692531
 20
1.026154
 40
0.003
 41
0.003
  0
LWPOLYLINE
  5
3DD
100
AcDbEntity
  8
0
 62
     9
100
AcDbPolyline
 90
        2
 70
     0
 39
0.003
 10
0.692531
 20
1.026154
 40
0.003
 41
0.003
 10
0.046937
 20
0.647323
 40
0.003
 41
0.003
  0
LWPOLYLINE
  5
3DE
100
AcDbEntity
  8
0
 62
     9
100
AcDbPolyline
 90
        2
 70
     0
 39
0.003
 10
0.046937
 20
0.647323
 40
0.003
 41
0.003
 10
0.060799
 20
0.641795
 40
0.003
 41
0.003
  0
LWPOLYLINE
  5
3DF
100
AcDbEntity
  8
0
 62
     9
100
AcDbPolyline
 90
        2
 70
     0
 39
0.003
 10
0.046937
 20
0.647323
 40
0.003
 41
0.003
 10
0.692531
 20
1.026154
 40
0.003
 41
0.003
  0
LWPOLYLINE
  5
3E0
100
AcDbEntity
  8
0
 62
     9
100
AcDbPolyline
 90
        2
 70
     0
 39
0.003
 10
0.692531
 20
1.026154
 40
0.003
 41
0.003
 10
0.679331
 20
1.031575
 40
0.003
 41
0.003
  0
LWPOLYLINE
  5
3E1
100
AcDbEntity
  8
0
 62
     9
100
AcDbPolyline
 90
        2
 70
     0
 39
0.003
 10
0.679331
 20
1.031575
 40
0.003
 41
0.003
 10
0.033736
 20
0.652744
 40
0.003
 41
0.003
  0
LWPOLYLINE
  5
3E2
100
AcDbEntity
  8
0
 62
     9
100
AcDbPolyline
 90
        2
 70
     0
 39
0.003
 10
0.033736
 20
0.652744
 40
0.003
 41
0.003
 10
0.046937
 20
0.647323
 40
0.003
 41
0.003
  0
LWPOLYLINE
  5
3E3
100
AcDbEntity
  8
0
 62
     9
100
AcDbPolyline
 90
        2
 70
     0
 39
0.003
 10
0.033736
 20
0.652744
 40
0.003
 41
0.003
 10
0.679331
 20
1.031575
 40
0.003
 41
0.003
  0
LWPOLYLINE
  5
3E4
100
AcDbEntity
  8
0
 62
     9
100
AcDbPolyline
 90
        2
 70
     0
 39
0.003
 10
0.679331
 20
1.031575
 40
0.003
 41
0.003
 10
0.666776
 20
1.036921
 40
0.003
 41
0.003
  0
LWPOLYLINE
  5
3E5
100
AcDbEntity
  8
0
 62
     9
100
AcDbPolyline
 90
        2
 70
     0
 39
0.003
 10
0.666776
 20
1.036921
 40
0.003
 41
0.003
 10
0.021181
 20
0.658091
 40
0.003
 41
0.003
  0
LWPOLYLINE
  5
3E6
100
AcDbEntity
  8
0
 62
     9
100
AcDbPolyline
 90
        2
 70
     0
 39
0.003
 10
0.021181
 20
0.658091
 40
0.003
 41
0.003
 10
0.033736
 20
0.652744
 40
0.003
 41
0.003
  0
LWPOLYLINE
  5
3E7
100
AcDbEntity
  8
0
 62
     9
100
AcDbPolyline
 90
        2
 70
     0
 39
0.003
 10
0.021181
 20
0.658091
 40
0.003
 41
0.003
 10
0.666776
 20
1.036921
 40
0.003
 41
0.003
  0
LWPOLYLINE
  5
3E8
100
AcDbEntity
  8
0
 62
     9
100
AcDbPolyline
 90
        2
 70
     0
 39
0.003
 10
0.666776
 20
1.036921
 40
0.003
 41
0.003
 10
0.654854
 20
1.042252
 40
0.003
 41
0.003
  0
LWPOLYLINE
  5
3E9
100
AcDbEntity
  8
0
 62
     9
100
AcDbPolyline
 90
        2
 70
     0
 39
0.003
 10
0.654854
 20
1.042252
 40
0.003
 41
0.003
 10
0.00926
 20
0.663421
 40
0.003
 41
0.003
  0
LWPOLYLINE
  5
3EA
100
AcDbEntity
  8
0
 62
     9
100
AcDbPolyline
 90
        2
 70
     0
 39
0.003
 10
0.00926
 20
0.663421
 40
0.003
 41
0.003
 10
0.021181
 20
0.658091
 40
0.003
 41
0.003
  0
LWPOLYLINE
  5
3EB
100
AcDbEntity
  8
0
 62
     9
100
AcDbPolyline
 90
        2
 70
     0
 39
0.003
 10
0.00926
 20
0.663421
 40
0.003
 41
0.003
 10
0.654854
 20
1.042252
 40
0.003
 41
0.003
  0
LWPOLYLINE
  5
3EC
100
AcDbEntity
  8
0
 62
     9
100
AcDbPolyline
 90
        2
 70
     0
 39
0.003
 10
0.654854
 20
1.042252
 40
0.003
 41
0.003
 10
0.643551
 20
1.047583
 40
0.003
 41
0.003
  0
LWPOLYLINE
  5
3ED
100
AcDbEntity
  8
0
 62
     9
100
AcDbPolyline
 90
        2
 70
     0
 39
0.003
 10
0.643551
 20
1.047583
 40
0.003
 41
0.003
 10
-0.002043
 20
0.668752
 40
0.003
 41
0.003
  0
LWPOLYLINE
  5
3EE
100
AcDbEntity
  8
0
 62
     9
100
AcDbPolyline
 90
        2
 70
     0
 39
0.003
 10
-0.002043
 20
0.668752
 40
0.003
 41
0.003
 10
0.00926
 20
0.663421
 40
0.003
 41
0.003
  0
LWPOLYLINE
  5
3EF
100
AcDbEntity
  8
0
 62
     9
100
AcDbPolyline
 90
        2
 70
     0
 39
0.003
 10
-0.002043
 20
0.668752
 40
0.003
 41
0.003
 10
0.643551
 20
1.047583
 40
0.003
 41
0.003
  0
LWPOLYLINE
  5
3F0
100
AcDbEntity
  8
0
 62
     9
100
AcDbPolyline
 90
        2
 70
     0
 39
0.003
 10
0.643551
 20
1.047583
 40
0.003
 41
0.003
 10
0.632854
 20
1.052972
 40
0.003
 41
0.003
  0
LWPOLYLINE
  5
3F1
100
AcDbEntity
  8
0
 62
     9
100
AcDbPolyline
 90
        2
 70
     0
 39
0.003
 10
0.632854
 20
1.052972
 40
0.003
 41
0.003
 10
-0.01274
 20
0.674142
 40
0.003
 41
0.003
  0
LWPOLYLINE
  5
3F2
100
AcDbEntity
  8
0
 62
     9
100
AcDbPolyline
 90
        2
 70
     0
 39
0.003
 10
-0.01274
 20
0.674142
 40
0.003
 41
0.003
 10
-0.002043
 20
0.668752
 40
0.003
 41
0.003
  0
LWPOLYLINE
  5
3F3
100
AcDbEntity
  8
0
 62
   254
100
AcDbPolyline
 90
        2
 70
     0
 39
0.003
 10
-0.01274
 20
0.674142
 40
0.003
 41
0.003
 10
0.632854
 20
1.052972
 40
0.003
 41
0.003
  0
LWPOLYLINE
  5
3F4
100
AcDbEntity
  8
0
 62
   254
100
AcDbPolyline
 90
        2
 70
     0
 39
0.003
 10
0.632854
 20
1.052972
 40
0.003
 41
0.003
 10
0.622752
 20
1.058453
 40
0.003
 41
0.003
  0
LWPOLYLINE
  5
3F5
100
AcDbEntity
  8
0
 62
   254
100
AcDbPolyline
 90
        2
 70
     0
 39
0.003
 10
0.622752
 20
1.058453
 40
0.003
 41
0.003
 10
-0.022843
 20
0.679622
 40
0.003
 41
0.003
  0
LWPOLYLINE
  5
3F6
100
AcDbEntity
  8
0
 62
   254
100
AcDbPolyline
 90
        2
 70
     0
 39
0.003
 10
-0.022843
 20
0.679622
 40
0.003
 41
0.003
 10
-0.01274
 20
0.674142
 40
0.003
 41
0.003
  0
LWPOLYLINE
  5
3F7
100
AcDbEntity
  8
0
 62
   254
100
AcDbPolyline
 90
        2
 70
     0
 39
0.003
 10
-0.022843
 20
0.679622
 40
0.003
 41
0.003
 10
0.622752
 20
1.058453
 40
0.003
 41
0.003
  0
LWPOLYLINE
  5
3F8
100
AcDbEntity
  8
0
 62
   254
100
AcDbPolyline
 90
        2
 70
     0
 39
0.003
 10
0.622752
 20
1.058453
 40
0.003
 41
0.003
 10
0.613224
 20
1.064075
 40
0.003
 41
0.003
  0
LWPOLYLINE
  5
3F9
100
AcDbEntity
  8
0
 62
   254
100
AcDbPolyline
 90
        2
 70
     0
 39
0.003
 10
0.613224
 20
1.064075
 40
0.003
 41
0.003
 10
-0.03237
 20
0.685244
 40
0.003
 41
0.003
  0
LWPOLYLINE
  5
3FA
100
AcDbEntity
  8
0
 62
   254
100
AcDbPolyline
 90
        2
 70
     0
 39
0.003
 10
-0.03237
 20
0.685244
 40
0.003
 41
0.003
 10
-0.022843
 20
0.679622
 40
0.003
 41
0.003
  0
LWPOLYLINE
  5
3FB
100
AcDbEntity
  8
0
 62
   254
100
AcDbPolyline
 90
        2
 70
     0
 39
0.003
 10
-0.03237
 20
0.685244
 40
0.003
 41
0.003
 10
0.613224
 20
1.064075
 40
0.003
 41
0.003
  0
LWPOLYLINE
  5
3FC
100
AcDbEntity
  8
0
 62
   254
100
AcDbPolyline
 90
        2
 70
     0
 39
0.003
 10
0.613224
 20
1.064075
 40
0.003
 41
0.003
 10
0.604276
 20
1.069866
 40
0.003
 41
0.003
  0
LWPOLYLINE
  5
3FD
100
AcDbEntity
  8
0
 62
   254
100
AcDbPolyline
 90
        2
 70
     0
 39
0.003
 10
0.604276
 20
1.069866
 40
0.003
 41
0.003
 10
-0.041319
 20
0.691035
 40
0.003
 41
0.003
  0
LWPOLYLINE
  5
3FE
100
AcDbEntity
  8
0
 62
   254
100
AcDbPolyline
 90
        2
 70
     0
 39
0.003
 10
-0.041319
 20
0.691035
 40
0.003
 41
0.003
 10
-0.03237
 20
0.685244
 40
0.003
 41
0.003
  0
LWPOLYLINE
  5
3FF
100
AcDbEntity
  8
0
 62
   254
100
AcDbPolyline
 90
        2
 70
     0
 39
0.003
 10
-0.041319
 20
0.691035
 40
0.003
 41
0.003
 10
0.604276
 20
1.069866
 40
0.003
 41
0.003
  0
LWPOLYLINE
  5
400
100
AcDbEntity
  8
0
 62
   254
100
AcDbPolyline
 90
        2
 70
     0
 39
0.003
 10
0.604276
 20
1.069866
 40
0.003
 41
0.003
 10
0.595878
 20
1.075874
 40
0.003
 41
0.003
  0
LWPOLYLINE
  5
401
100
AcDbEntity
  8
0
 62
   254
100
AcDbPolyline
 90
        2
 70
     0
 39
0.003
 10
0.595878
 20
1.075874
 40
0.003
 41
0.003
 10
-0.049717
 20
0.697043
 40
0.003
 41
0.003
  0
LWPOLYLINE
  5
402
100
AcDbEntity
  8
0
 62
   254
100
AcDbPolyline
 90
        2
 70
     0
 39
0.003
 10
-0.049717
 20
0.697043
 40
0.003
 41
0.003
 10
-0.041319
 20
0.691035
 40
0.003
 41
0.003
  0
LWPOLYLINE
  5
403
100
AcDbEntity
  8
0
 62
   254
100
AcDbPolyline
 90
        2
 70
     0
 39
0.003
 10
-0.049717
 20
0.697043
 40
0.003
 41
0.003
 10
0.595878
 20
1.075874
 40
0.003
 41
0.003
  0
LWPOLYLINE
  5
404
100
AcDbEntity
  8
0
 62
   254
100
AcDbPolyline
 90
        2
 70
     0
 39
0.003
 10
0.595878
 20
1.075874
 40
0.003
 41
0.003
 10
0.588028
 20
1.082134
 40
0.003
 41
0.003
  0
LWPOLYLINE
  5
405
100
AcDbEntity
  8
0
 62
   254
100
AcDbPolyline
 90
        2
 70
     0
 39
0.003
 10
0.588028
 20
1.082134
 40
0.003
 41
0.003
 10
-0.057567
 20
0.703303
 40
0.003
 41
0.003
  0
LWPOLYLINE
  5
406
100
AcDbEntity
  8
0
 62
   254
100
AcDbPolyline
 90
        2
 70
     0
 39
0.003
 10
-0.057567
 20
0.703303
 40
0.003
 41
0.003
 10
-0.049717
 20
0.697043
 40
0.003
 41
0.003
  0
LWPOLYLINE
  5
407
100
AcDbEntity
  8
0
 62
   254
100
AcDbPolyline
 90
        2
 70
     0
 39
0.003
 10
-0.057567
 20
0.703303
 40
0.003
 41
0.003
 10
0.588028
 20
1.082134
 40
0.003
 41
0.003
  0
LWPOLYLINE
  5
408
100
AcDbEntity
  8
0
 62
   254
100
AcDbPolyline
 90
        2
 70
     0
 39
0.003
 10
0.588028
 20
1.082134
 40
0.003
 41
0.003
 10
0.580705
 20
1.088701
 40
0.003
 41
0.003
  0
LWPOLYLINE
  5
409
100
AcDbEntity
  8
0
 62
   254
100
AcDbPolyline
 90
        2
 70
     0
 39
0.003
 10
0.580705
 20
1.088701
 40
0.003
 41
0.003
 10
-0.06489
 20
0.70987
 40
0.003
 41
0.003
  0
LWPOLYLINE
  5
40A
100
AcDbEntity
  8
0
 62
   254
100
AcDbPolyline
 90
        2
 70
     0
 39
0.003
 10
-0.06489
 20
0.70987
 40
0.003
 41
0.003
 10
-0.057567
 20
0.703303
 40
0.003
 41
0.003
  0
LWPOLYLINE
  5
40B
100
AcDbEntity
  8
0
 62
   254
100
AcDbPolyline
 90
        2
 70
     0
 39
0.003
 10
-0.06489
 20
0.70987
 40
0.003
 41
0.003
 10
0.580705
 20
1.088701
 40
0.003
 41
0.003
  0
LWPOLYLINE
  5
40C
100
AcDbEntity
  8
0
 62
   254
100
AcDbPolyline
 90
        2
 70
     0
 39
0.003
 10
0.580705
 20
1.088701
 40
0.003
 41
0.003
 10
0.573913
 20
1.095594
 40
0.003
 41
0.003
  0
LWPOLYLINE
  5
40D
100
AcDbEntity
  8
0
 62
   254
100
AcDbPolyline
 90
        2
 70
     0
 39
0.003
 10
0.573913
 20
1.095594
 40
0.003
 41
0.003
 10
-0.071681
 20
0.716764
 40
0.003
 41
0.003
  0
LWPOLYLINE
  5
40E
100
AcDbEntity
  8
0
 62
   254
100
AcDbPolyline
 90
        2
 70
     0
 39
0.003
 10
-0.071681
 20
0.716764
 40
0.003
 41
0.003
 10
-0.06489
 20
0.70987
 40
0.003
 41
0.003
  0
LWPOLYLINE
  5
40F
100
AcDbEntity
  8
0
 62
   254
100
AcDbPolyline
 90
        2
 70
     0
 39
0.003
 10
-0.071681
 20
0.716764
 40
0.003
 41
0.003
 10
0.573913
 20
1.095594
 40
0.003
 41
0.003
  0
LWPOLYLINE
  5
410
100
AcDbEntity
  8
0
 62
   254
100
AcDbPolyline
 90
        2
 70
     0
 39
0.003
 10
0.573913
 20
1.095594
 40
0.003
 41
0.003
 10
0.567626
 20
1.10287
 40
0.003
 41
0.003
  0
LWPOLYLINE
  5
411
100
AcDbEntity
  8
0
 62
   254
100
AcDbPolyline
 90
        2
 70
     0
 39
0.003
 10
0.567626
 20
1.10287
 40
0.003
 41
0.003
 10
-0.077969
 20
0.724039
 40
0.003
 41
0.003
  0
LWPOLYLINE
  5
412
100
AcDbEntity
  8
0
 62
   254
100
AcDbPolyline
 90
        2
 70
     0
 39
0.003
 10
-0.077969
 20
0.724039
 40
0.003
 41
0.003
 10
-0.071681
 20
0.716764
 40
0.003
 41
0.003
  0
LWPOLYLINE
  5
413
100
AcDbEntity
  8
0
 62
   254
100
AcDbPolyline
 90
        2
 70
     0
 39
0.003
 10
-0.077969
 20
0.724039
 40
0.003
 41
0.003
 10
0.567626
 20
1.10287
 40
0.003
 41
0.003
  0
LWPOLYLINE
  5
414
100
AcDbEntity
  8
0
 62
   254
100
AcDbPolyline
 90
        2
 70
     0
 39
0.003
 10
0.567626
 20
1.10287
 40
0.003
 41
0.003
 10
0.561835
 20
1.110559
 40
0.003
 41
0.003
  0
LWPOLYLINE
  5
415
100
AcDbEntity
  8
0
 62
   254
100
AcDbPolyline
 90
        2
 70
     0
 39
0.003
 10
0.561835
 20
1.110559
 40
0.003
 41
0.003
 10
-0.08376
 20
0.731728
 40
0.003
 41
0.003
  0
LWPOLYLINE
  5
416
100
AcDbEntity
  8
0
 62
   254
100
AcDbPolyline
 90
        2
 70
     0
 39
0.003
 10
-0.08376
 20
0.731728
 40
0.003
 41
0.003
 10
-0.077969
 20
0.724039
 40
0.003
 41
0.003
  0
LWPOLYLINE
  5
417
100
AcDbEntity
  8
0
 62
   254
100
AcDbPolyline
 90
        2
 70
     0
 39
0.003
 10
-0.08376
 20
0.731728
 40
0.003
 41
0.003
 10
0.561835
 20
1.110559
 40
0.003
 41
0.003
  0
LWPOLYLINE
  5
418
100
AcDbEntity
  8
0
 62
   254
100
AcDbPolyline
 90
        2
 70
     0
 39
0.003
 10
0.561835
 20
1.110559
 40
0.003
 41
0.003
 10
0.55652
 20
1.118717
 40
0.003
 41
0.003
  0
LWPOLYLINE
  5
419
100
AcDbEntity
  8
0
 62
   254
100
AcDbPolyline
 90
        2
 70
     0
 39
0.003
 10
0.55652
 20
1.118717
 40
0.003
 41
0.003
 10
-0.089075
 20
0.739886
 40
0.003
 41
0.003
  0
LWPOLYLINE
  5
41A
100
AcDbEntity
  8
0
 62
   254
100
AcDbPolyline
 90
        2
 70
     0
 39
0.003
 10
-0.089075
 20
0.739886
 40
0.003
 41
0.003
 10
-0.08376
 20
0.731728
 40
0.003
 41
0.003
  0
LWPOLYLINE
  5
41B
100
AcDbEntity
  8
0
 62
   254
100
AcDbPolyline
 90
        2
 70
     0
 39
0.003
 10
-0.089075
 20
0.739886
 40
0.003
 41
0.003
 10
0.55652
 20
1.118717
 40
0.003
 41
0.003
  0
LWPOLYLINE
  5
41C
100
AcDbEntity
  8
0
 62
   254
100
AcDbPolyline
 90
        2
 70
     0
 39
0.003
 10
0.55652
 20
1.118717
 40
0.003
 41
0.003
 10
0.551685
 20
1.127366
 40
0.003
 41
0.003
  0
LWPOLYLINE
  5
41D
100
AcDbEntity
  8
0
 62
   254
100
AcDbPolyline
 90
        2
 70
     0
 39
0.003
 10
0.551685
 20
1.127366
 40
0.003
 41
0.003
 10
-0.093909
 20
0.748535
 40
0.003
 41
0.003
  0
LWPOLYLINE
  5
41E
100
AcDbEntity
  8
0
 62
   254
100
AcDbPolyline
 90
        2
 70
     0
 39
0.003
 10
-0.093909
 20
0.748535
 40
0.003
 41
0.003
 10
-0.089075
 20
0.739886
 40
0.003
 41
0.003
  0
LWPOLYLINE
  5
41F
100
AcDbEntity
  8
0
 62
   254
100
AcDbPolyline
 90
        2
 70
     0
 39
0.003
 10
-0.093909
 20
0.748535
 40
0.003
 41
0.003
 10
0.551685
 20
1.127366
 40
0.003
 41
0.003
  0
LWPOLYLINE
  5
420
100
AcDbEntity
  8
0
 62
   254
100
AcDbPolyline
 90
        2
 70
     0
 39
0.003
 10
0.551685
 20
1.127366
 40
0.003
 41
0.003
 10
0.547303
 20
1.136563
 40
0.003
 41
0.003
  0
LWPOLYLINE
  5
421
100
AcDbEntity
  8
0
 62
   254
100
AcDbPolyline
 90
        2
 70
     0
 39
0.003
 10
0.547303
 20
1.136563
 40
0.003
 41
0.003
 10
-0.098291
 20
0.757732
 40
0.003
 41
0.003
  0
LWPOLYLINE
  5
422
100
AcDbEntity
  8
0
 62
   254
100
AcDbPolyline
 90
        2
 70
     0
 39
0.003
 10
-0.098291
 20
0.757732
 40
0.003
 41
0.003
 10
-0.093909
 20
0.748535
 40
0.003
 41
0.003
  0
LWPOLYLINE
  5
423
100
AcDbEntity
  8
0
 62
   254
100
AcDbPolyline
 90
        2
 70
     0
 39
0.003
 10
-0.098291
 20
0.757732
 40
0.003
 41
0.003
 10
0.547303
 20
1.136563
 40
0.003
 41
0.003
  0
LWPOLYLINE
  5
424
100
AcDbEntity
  8
0
 62
   254
100
AcDbPolyline
 90
        2
 70
     0
 39
0.003
 10
0.547303
 20
1.136563
 40
0.003
 41
0.003
 10
0.543374
 20
1.146343
 40
0.003
 41
0.003
  0
LWPOLYLINE
  5
425
100
AcDbEntity
  8
0
 62
   254
100
AcDbPolyline
 90
        2
 70
     0
 39
0.003
 10
0.543374
 20
1.146343
 40
0.003
 41
0.003
 10
-0.10222
 20
0.767512
 40
0.003
 41
0.003
  0
LWPOLYLINE
  5
426
100
AcDbEntity
  8
0
 62
   254
100
AcDbPolyline
 90
        2
 70
     0
 39
0.003
 10
-0.10222
 20
0.767512
 40
0.003
 41
0.003
 10
-0.098291
 20
0.757732
 40
0.003
 41
0.003
  0
LWPOLYLINE
  5
427
100
AcDbEntity
  8
0
 62
   254
100
AcDbPolyline
 90
        2
 70
     0
 39
0.003
 10
-0.10222
 20
0.767512
 40
0.003
 41
0.003
 10
0.543374
 20
1.146343
 40
0.003
 41
0.003
  0
LWPOLYLINE
  5
428
100
AcDbEntity
  8
0
 62
   254
100
AcDbPolyline
 90
        2
 70
     0
 39
0.003
 10
0.543374
 20
1.146343
 40
0.003
 41
0.003
 10
0.539874
 20
1.156744
 40
0.003
 41
0.003
  0
LWPOLYLINE
  5
429
100
AcDbEntity
  8
0
 62
   254
100
AcDbPolyline
 90
        2
 70
     0
 39
0.003
 10
0.539874
 20
1.156744
 40
0.003
 41
0.003
 10
-0.10572
 20
0.777913
 40
0.003
 41
0.003
  0
LWPOLYLINE
  5
42A
100
AcDbEntity
  8
0
 62
   254
100
AcDbPolyline
 90
        2
 70
     0
 39
0.003
 10
-0.10572
 20
0.777913
 40
0.003
 41
0.003
 10
-0.10222
 20
0.767512
 40
0.003
 41
0.003
  0
LWPOLYLINE
  5
42B
100
AcDbEntity
  8
0
 62
   254
100
AcDbPolyline
 90
        2
 70
     0
 39
0.003
 10
-0.10572
 20
0.777913
 40
0.003
 41
0.003
 10
0.539874
 20
1.156744
 40
0.003
 41
0.003
  0
LWPOLYLINE
  5
42C
100
AcDbEntity
  8
0
 62
   254
100
AcDbPolyline
 90
        2
 70
     0
 39
0.003
 10
0.539874
 20
1.156744
 40
0.003
 41
0.003
 10
0.536803
 20
1.167799
 40
0.003
 41
0.003
  0
LWPOLYLINE
  5
42D
100
AcDbEntity
  8
0
 62
   254
100
AcDbPolyline
 90
        2
 70
     0
 39
0.003
 10
0.536803
 20
1.167799
 40
0.003
 41
0.003
 10
-0.108791
 20
0.788969
 40
0.003
 41
0.003
  0
LWPOLYLINE
  5
42E
100
AcDbEntity
  8
0
 62
   254
100
AcDbPolyline
 90
        2
 70
     0
 39
0.003
 10
-0.108791
 20
0.788969
 40
0.003
 41
0.003
 10
-0.10572
 20
0.777913
 40
0.003
 41
0.003
  0
LWPOLYLINE
  5
42F
100
AcDbEntity
  8
0
 62
   254
100
AcDbPolyline
 90
        2
 70
     0
 39
0.003
 10
-0.108791
 20
0.788969
 40
0.003
 41
0.003
 10
0.536803
 20
1.167799
 40
0.003
 41
0.003
  0
LWPOLYLINE
  5
430
100
AcDbEntity
  8
0
 62
   254
100
AcDbPolyline
 90
        2
 70
     0
 39
0.003
 10
0.536803
 20
1.167799
 40
0.003
 41
0.003
 10
0.534138
 20
1.179563
 40
0.003
 41
0.003
  0
LWPOLYLINE
  5
431
100
AcDbEntity
  8
0
 62
   254
100
AcDbPolyline
 90
        2
 70
     0
 39
0.003
 10
0.534138
 20
1.179563
 40
0.003
 41
0.003
 10
-0.111457
 20
0.800732
 40
0.003
 41
0.003
  0
LWPOLYLINE
  5
432
100
AcDbEntity
  8
0
 62
   254
100
AcDbPolyline
 90
        2
 70
     0
 39
0.003
 10
-0.111457
 20
0.800732
 40
0.003
 41
0.003
 10
-0.108791
 20
0.788969
 40
0.003
 41
0.003
  0
LWPOLYLINE
  5
433
100
AcDbEntity
  8
0
 62
   254
100
AcDbPolyline
 90
        2
 70
     0
 39
0.003
 10
-0.111457
 20
0.800732
 40
0.003
 41
0.003
 10
0.534138
 20
1.179563
 40
0.003
 41
0.003
  0
LWPOLYLINE
  5
434
100
AcDbEntity
  8
0
 62
   254
100
AcDbPolyline
 90
        2
 70
     0
 39
0.003
 10
0.534138
 20
1.179563
 40
0.003
 41
0.003
 10
0.531874
 20
1.192071
 40
0.003
 41
0.003
  0
LWPOLYLINE
  5
435
100
AcDbEntity
  8
0
 62
   254
100
AcDbPolyline
 90
        2
 70
     0
 39
0.003
 10
0.531874
 20
1.192071
 40
0.003
 41
0.003
 10
-0.11372
 20
0.81324
 40
0.003
 41
0.003
  0
LWPOLYLINE
  5
436
100
AcDbEntity
  8
0
 62
   254
100
AcDbPolyline
 90
        2
 70
     0
 39
0.003
 10
-0.11372
 20
0.81324
 40
0.003
 41
0.003
 10
-0.111457
 20
0.800732
 40
0.003
 41
0.003
  0
LWPOLYLINE
  5
437
100
AcDbEntity
  8
0
 62
   254
100
AcDbPolyline
 90
        2
 70
     0
 39
0.003
 10
-0.11372
 20
0.81324
 40
0.003
 41
0.003
 10
0.531874
 20
1.192071
 40
0.003
 41
0.003
  0
LWPOLYLINE
  5
438
100
AcDbEntity
  8
0
 62
   254
100
AcDbPolyline
 90
        2
 70
     0
 39
0.003
 10
0.531874
 20
1.192071
 40
0.003
 41
0.003
 10
0.529988
 20
1.205366
 40
0.003
 41
0.003
  0
LWPOLYLINE
  5
439
100
AcDbEntity
  8
0
 62
   254
100
AcDbPolyline
 90
        2
 70
     0
 39
0.003
 10
0.529988
 20
1.205366
 40
0.003
 41
0.003
 10
-0.115606
 20
0.826535
 40
0.003
 41
0.003
  0
LWPOLYLINE
  5
43A
100
AcDbEntity
  8
0
 62
   254
100
AcDbPolyline
 90
        2
 70
     0
 39
0.003
 10
-0.115606
 20
0.826535
 40
0.003
 41
0.003
 10
-0.11372
 20
0.81324
 40
0.003
 41
0.003
  0
LWPOLYLINE
  5
43B
100
AcDbEntity
  8
0
 62
   254
100
AcDbPolyline
 90
        2
 70
     0
 39
0.003
 10
-0.115606
 20
0.826535
 40
0.003
 41
0.003
 10
0.529988
 20
1.205366
 40
0.003
 41
0.003
  0
LWPOLYLINE
  5
43C
100
AcDbEntity
  8
0
 62
   254
100
AcDbPolyline
 90
        2
 70
     0
 39
0.003
 10
0.529988
 20
1.205366
 40
0.003
 41
0.003
 10
0.528484
 20
1.21948
 40
0.003
 41
0.003
  0
LWPOLYLINE
  5
43D
100
AcDbEntity
  8
0
 62
   254
100
AcDbPolyline
 90
        2
 70
     0
 39
0.003
 10
0.528484
 20
1.21948
 40
0.003
 41
0.003
 10
-0.11711
 20
0.84065
 40
0.003
 41
0.003
  0
LWPOLYLINE
  5
43E
100
AcDbEntity
  8
0
 62
   254
100
AcDbPolyline
 90
        2
 70
     0
 39
0.003
 10
-0.11711
 20
0.84065
 40
0.003
 41
0.003
 10
-0.115606
 20
0.826535
 40
0.003
 41
0.003
  0
LWPOLYLINE
  5
43F
100
AcDbEntity
  8
0
 62
   254
100
AcDbPolyline
 90
        2
 70
     0
 39
0.003
 10
-0.11711
 20
0.84065
 40
0.003
 41
0.003
 10
0.528484
 20
1.21948
 40
0.003
 41
0.003
  0
LWPOLYLINE
  5
440
100
AcDbEntity
  8
0
 62
   254
100
AcDbPolyline
 90
        2
 70
     0
 39
0.003
 10
0.528484
 20
1.21948
 40
0.003
 41
0.003
 10
0.527331
 20
1.234469
 40
0.003
 41
0.003
  0
LWPOLYLINE
  5
441
100
AcDbEntity
  8
0
 62
   254
100
AcDbPolyline
 90
        2
 70
     0
 39
0.003
 10
0.527331
 20
1.234469
 40
0.003
 41
0.003
 10
-0.118264
 20
0.855638
 40
0.003
 41
0.003
  0
LWPOLYLINE
  5
442
100
AcDbEntity
  8
0
 62
   254
100
AcDbPolyline
 90
        2
 70
     0
 39
0.003
 10
-0.118264
 20
0.855638
 40
0.003
 41
0.003
 10
-0.11711
 20
0.84065
 40
0.003
 41
0.003
  0
LWPOLYLINE
  5
443
100
AcDbEntity
  8
0
 62
   254
100
AcDbPolyline
 90
        2
 70
     0
 39
0.003
 10
-0.118264
 20
0.855638
 40
0.003
 41
0.003
 10
0.527331
 20
1.234469
 40
0.003
 41
0.003
  0
LWPOLYLINE
  5
444
100
AcDbEntity
  8
0
 62
   254
100
AcDbPolyline
 90
        2
 70
     0
 39
0.003
 10
0.527331
 20
1.234469
 40
0.003
 41
0.003
 10
0.526531
 20
1.250358
 40
0.003
 41
0.003
  0
LWPOLYLINE
  5
445
100
AcDbEntity
  8
0
 62
   254
100
AcDbPolyline
 90
        2
 70
     0
 39
0.003
 10
0.526531
 20
1.250358
 40
0.003
 41
0.003
 10
-0.119063
 20
0.871528
 40
0.003
 41
0.003
  0
LWPOLYLINE
  5
446
100
AcDbEntity
  8
0
 62
   254
100
AcDbPolyline
 90
        2
 70
     0
 39
0.003
 10
-0.119063
 20
0.871528
 40
0.003
 41
0.003
 10
-0.118264
 20
0.855638
 40
0.003
 41
0.003
  0
LWPOLYLINE
  5
447
100
AcDbEntity
  8
0
 62
   254
100
AcDbPolyline
 90
        2
 70
     0
 39
0.003
 10
-0.119063
 20
0.871528
 40
0.003
 41
0.003
 10
0.526531
 20
1.250358
 40
0.003
 41
0.003
  0
LWPOLYLINE
  5
448
100
AcDbEntity
  8
0
 62
   254
100
AcDbPolyline
 90
        2
 70
     0
 39
0.003
 10
0.526531
 20
1.250358
 40
0.003
 41
0.003
 10
0.526063
 20
1.267197
 40
0.003
 41
0.003
  0
LWPOLYLINE
  5
449
100
AcDbEntity
  8
0
 62
   254
100
AcDbPolyline
 90
        2
 70
     0
 39
0.003
 10
0.526063
 20
1.267197
 40
0.003
 41
0.003
 10
-0.119531
 20
0.888366
 40
0.003
 41
0.003
  0
LWPOLYLINE
  5
44A
100
AcDbEntity
  8
0
 62
   254
100
AcDbPolyline
 90
        2
 70
     0
 39
0.003
 10
-0.119531
 20
0.888366
 40
0.003
 41
0.003
 10
-0.119063
 20
0.871528
 40
0.003
 41
0.003
  0
LWPOLYLINE
  5
44B
100
AcDbEntity
  8
0
 62
     0
100
AcDbPolyline
 90
        2
 70
     0
 39
0.003
 10
0.123043
 20
0.617776
 40
0.003
 41
0.003
 10
0.768638
 20
0.996606
 40
0.003
 41
0.003
  0
LWPOLYLINE
  5
44C
100
AcDbEntity
  8
0
 62
     0
100
AcDbPolyline
 90
        2
 70
     0
 39
0.003
 10
0.768638
 20
0.996606
 40
0.003
 41
0.003
 10
0.752028
 20
1.002972
 40
0.003
 41
0.003
  0
LWPOLYLINE
  5
44D
100
AcDbEntity
  8
0
 62
     0
100
AcDbPolyline
 90
        2
 70
     0
 39
0.003
 10
0.752028
 20
1.002972
 40
0.003
 41
0.003
 10
0.736126
 20
1.009075
 40
0.003
 41
0.003
  0
LWPOLYLINE
  5
44E
100
AcDbEntity
  8
0
 62
     0
100
AcDbPolyline
 90
        2
 70
     0
 39
0.003
 10
0.736126
 20
1.009075
 40
0.003
 41
0.003
 10
0.720917
 20
1.014941
 40
0.003
 41
0.003
  0
LWPOLYLINE
  5
44F
100
AcDbEntity
  8
0
 62
     0
100
AcDbPolyline
 90
        2
 70
     0
 39
0.003
 10
0.720917
 20
1.014941
 40
0.003
 41
0.003
 10
0.706394
 20
1.020626
 40
0.003
 41
0.003
  0
LWPOLYLINE
  5
450
100
AcDbEntity
  8
0
 62
     0
100
AcDbPolyline
 90
        2
 70
     0
 39
0.003
 10
0.706394
 20
1.020626
 40
0.003
 41
0.003
 10
0.692531
 20
1.026154
 40
0.003
 41
0.003
  0
LWPOLYLINE
  5
451
100
AcDbEntity
  8
0
 62
     0
100
AcDbPolyline
 90
        2
 70
     0
 39
0.003
 10
0.692531
 20
1.026154
 40
0.003
 41
0.003
 10
0.679331
 20
1.031575
 40
0.003
 41
0.003
  0
LWPOLYLINE
  5
452
100
AcDbEntity
  8
0
 62
     0
100
AcDbPolyline
 90
        2
 70
     0
 39
0.003
 10
0.679331
 20
1.031575
 40
0.003
 41
0.003
 10
0.666776
 20
1.036921
 40
0.003
 41
0.003
  0
LWPOLYLINE
  5
453
100
AcDbEntity
  8
0
 62
     0
100
AcDbPolyline
 90
        2
 70
     0
 39
0.003
 10
0.666776
 20
1.036921
 40
0.003
 41
0.003
 10
0.654854
 20
1.042252
 40
0.003
 41
0.003
  0
LWPOLYLINE
  5
454
100
AcDbEntity
  8
0
 62
     0
100
AcDbPolyline
 90
        2
 70
     0
 39
0.003
 10
0.654854
 20
1.042252
 40
0.003
 41
0.003
 10
0.643551
 20
1.047583
 40
0.003
 41
0.003
  0
LWPOLYLINE
  5
455
100
AcDbEntity
  8
0
 62
     0
100
AcDbPolyline
 90
        2
 70
     0
 39
0.003
 10
0.643551
 20
1.047583
 40
0.003
 41
0.003
 10
0.632854
 20
1.052972
 40
0.003
 41
0.003
  0
LWPOLYLINE
  5
456
100
AcDbEntity
  8
0
 62
     0
100
AcDbPolyline
 90
        2
 70
     0
 39
0.003
 10
0.632854
 20
1.052972
 40
0.003
 41
0.003
 10
0.622752
 20
1.058453
 40
0.003
 41
0.003
  0
LWPOLYLINE
  5
457
100
AcDbEntity
  8
0
 62
     0
100
AcDbPolyline
 90
        2
 70
     0
 39
0.003
 10
0.622752
 20
1.058453
 40
0.003
 41
0.003
 10
0.613224
 20
1.064075
 40
0.003
 41
0.003
  0
LWPOLYLINE
  5
458
100
AcDbEntity
  8
0
 62
     0
100
AcDbPolyline
 90
        2
 70
     0
 39
0.003
 10
0.613224
 20
1.064075
 40
0.003
 41
0.003
 10
0.604276
 20
1.069866
 40
0.003
 41
0.003
  0
LWPOLYLINE
  5
459
100
AcDbEntity
  8
0
 62
     0
100
AcDbPolyline
 90
        2
 70
     0
 39
0.003
 10
0.604276
 20
1.069866
 40
0.003
 41
0.003
 10
0.595878
 20
1.075874
 40
0.003
 41
0.003
  0
LWPOLYLINE
  5
45A
100
AcDbEntity
  8
0
 62
     0
100
AcDbPolyline
 90
        2
 70
     0
 39
0.003
 10
0.595878
 20
1.075874
 40
0.003
 41
0.003
 10
0.588028
 20
1.082134
 40
0.003
 41
0.003
  0
LWPOLYLINE
  5
45B
100
AcDbEntity
  8
0
 62
     0
100
AcDbPolyline
 90
        2
 70
     0
 39
0.003
 10
0.588028
 20
1.082134
 40
0.003
 41
0.003
 10
0.580705
 20
1.088701
 40
0.003
 41
0.003
  0
LWPOLYLINE
  5
45C
100
AcDbEntity
  8
0
 62
     0
100
AcDbPolyline
 90
        2
 70
     0
 39
0.003
 10
0.580705
 20
1.088701
 40
0.003
 41
0.003
 10
0.573913
 20
1.095594
 40
0.003
 41
0.003
  0
LWPOLYLINE
  5
45D
100
AcDbEntity
  8
0
 62
     0
100
AcDbPolyline
 90
        2
 70
     0
 39
0.003
 10
0.573913
 20
1.095594
 40
0.003
 41
0.003
 10
0.567626
 20
1.10287
 40
0.003
 41
0.003
  0
LWPOLYLINE
  5
45E
100
AcDbEntity
  8
0
 62
     0
100
AcDbPolyline
 90
        2
 70
     0
 39
0.003
 10
0.567626
 20
1.10287
 40
0.003
 41
0.003
 10
0.561835
 20
1.110559
 40
0.003
 41
0.003
  0
LWPOLYLINE
  5
45F
100
AcDbEntity
  8
0
 62
     0
100
AcDbPolyline
 90
        2
 70
     0
 39
0.003
 10
0.561835
 20
1.110559
 40
0.003
 41
0.003
 10
0.55652
 20
1.118717
 40
0.003
 41
0.003
  0
LWPOLYLINE
  5
460
100
AcDbEntity
  8
0
 62
     0
100
AcDbPolyline
 90
        2
 70
     0
 39
0.003
 10
0.55652
 20
1.118717
 40
0.003
 41
0.003
 10
0.551685
 20
1.127366
 40
0.003
 41
0.003
  0
LWPOLYLINE
  5
461
100
AcDbEntity
  8
0
 62
     0
100
AcDbPolyline
 90
        2
 70
     0
 39
0.003
 10
0.551685
 20
1.127366
 40
0.003
 41
0.003
 10
0.547303
 20
1.136563
 40
0.003
 41
0.003
  0
LWPOLYLINE
  5
462
100
AcDbEntity
  8
0
 62
     0
100
AcDbPolyline
 90
        2
 70
     0
 39
0.003
 10
0.547303
 20
1.136563
 40
0.003
 41
0.003
 10
0.543374
 20
1.146343
 40
0.003
 41
0.003
  0
LWPOLYLINE
  5
463
100
AcDbEntity
  8
0
 62
     0
100
AcDbPolyline
 90
        2
 70
     0
 39
0.003
 10
0.543374
 20
1.146343
 40
0.003
 41
0.003
 10
0.539874
 20
1.156744
 40
0.003
 41
0.003
  0
LWPOLYLINE
  5
464
100
AcDbEntity
  8
0
 62
     0
100
AcDbPolyline
 90
        2
 70
     0
 39
0.003
 10
0.539874
 20
1.156744
 40
0.003
 41
0.003
 10
0.536803
 20
1.167799
 40
0.003
 41
0.003
  0
LWPOLYLINE
  5
465
100
AcDbEntity
  8
0
 62
     0
100
AcDbPolyline
 90
        2
 70
     0
 39
0.003
 10
0.536803
 20
1.167799
 40
0.003
 41
0.003
 10
0.534138
 20
1.179563
 40
0.003
 41
0.003
  0
LWPOLYLINE
  5
466
100
AcDbEntity
  8
0
 62
     0
100
AcDbPolyline
 90
        2
 70
     0
 39
0.003
 10
0.534138
 20
1.179563
 40
0.003
 41
0.003
 10
0.531874
 20
1.192071
 40
0.003
 41
0.003
  0
LWPOLYLINE
  5
467
100
AcDbEntity
  8
0
 62
     0
100
AcDbPolyline
 90
        2
 70
     0
 39
0.003
 10
0.531874
 20
1.192071
 40
0.003
 41
0.003
 10
0.529988
 20
1.205366
 40
0.003
 41
0.003
  0
LWPOLYLINE
  5
468
100
AcDbEntity
  8
0
 62
     0
100
AcDbPolyline
 90
        2
 70
     0
 39
0.003
 10
0.529988
 20
1.205366
 40
0.003
 41
0.003
 10
0.528484
 20
1.21948
 40
0.003
 41
0.003
  0
LWPOLYLINE
  5
469
100
AcDbEntity
  8
0
 62
     0
100
AcDbPolyline
 90
        2
 70
     0
 39
0.003
 10
0.528484
 20
1.21948
 40
0.003
 41
0.003
 10
0.527331
 20
1.234469
 40
0.003
 41
0.003
  0
LWPOLYLINE
  5
46A
100
AcDbEntity
  8
0
 62
     0
100
AcDbPolyline
 90
        2
 70
     0
 39
0.003
 10
0.527331
 20
1.234469
 40
0.003
 41
0.003
 10
0.526531
 20
1.250358
 40
0.003
 41
0.003
  0
LWPOLYLINE
  5
46B
100
AcDbEntity
  8
0
 62
     0
100
AcDbPolyline
 90
        2
 70
     0
 39
0.003
 10
0.526531
 20
1.250358
 40
0.003
 41
0.003
 10
0.526063
 20
1.267197
 40
0.003
 41
0.003
  0
LWPOLYLINE
  5
46C
100
AcDbEntity
  8
0
 62
     0
100
AcDbPolyline
 90
        2
 70
     0
 39
0.003
 10
0.526063
 20
1.267197
 40
0.003
 41
0.003
 10
-0.119531
 20
0.888366
 40
0.003
 41
0.003
  0
LWPOLYLINE
  5
46D
100
AcDbEntity
  8
0
 62
     0
100
AcDbPolyline
 90
        2
 70
     0
 39
0.003
 10
-0.119531
 20
0.888366
 40
0.003
 41
0.003
 10
-0.119063
 20
0.871528
 40
0.003
 41
0.003
  0
LWPOLYLINE
  5
46E
100
AcDbEntity
  8
0
 62
     0
100
AcDbPolyline
 90
        2
 70
     0
 39
0.003
 10
-0.119063
 20
0.871528
 40
0.003
 41
0.003
 10
-0.118264
 20
0.855638
 40
0.003
 41
0.003
  0
LWPOLYLINE
  5
46F
100
AcDbEntity
  8
0
 62
     0
100
AcDbPolyline
 90
        2
 70
     0
 39
0.003
 10
-0.118264
 20
0.855638
 40
0.003
 41
0.003
 10
-0.11711
 20
0.84065
 40
0.003
 41
0.003
  0
LWPOLYLINE
  5
470
100
AcDbEntity
  8
0
 62
     0
100
AcDbPolyline
 90
        2
 70
     0
 39
0.003
 10
-0.11711
 20
0.84065
 40
0.003
 41
0.003
 10
-0.115606
 20
0.826535
 40
0.003
 41
0.003
  0
LWPOLYLINE
  5
471
100
AcDbEntity
  8
0
 62
     0
100
AcDbPolyline
 90
        2
 70
     0
 39
0.003
 10
-0.115606
 20
0.826535
 40
0.003
 41
0.003
 10
-0.11372
 20
0.81324
 40
0.003
 41
0.003
  0
LWPOLYLINE
  5
472
100
AcDbEntity
  8
0
 62
     0
100
AcDbPolyline
 90
        2
 70
     0
 39
0.003
 10
-0.11372
 20
0.81324
 40
0.003
 41
0.003
 10
-0.111457
 20
0.800732
 40
0.003
 41
0.003
  0
LWPOLYLINE
  5
473
100
AcDbEntity
  8
0
 62
     0
100
AcDbPolyline
 90
        2
 70
     0
 39
0.003
 10
-0.111457
 20
0.800732
 40
0.003
 41
0.003
 10
-0.108791
 20
0.788969
 40
0.003
 41
0.003
  0
LWPOLYLINE
  5
474
100
AcDbEntity
  8
0
 62
     0
100
AcDbPolyline
 90
        2
 70
     0
 39
0.003
 10
-0.108791
 20
0.788969
 40
0.003
 41
0.003
 10
-0.10572
 20
0.777913
 40
0.003
 41
0.003
  0
LWPOLYLINE
  5
475
100
AcDbEntity
  8
0
 62
     0
100
AcDbPolyline
 90
        2
 70
     0
 39
0.003
 10
-0.10572
 20
0.777913
 40
0.003
 41
0.003
 10
-0.10222
 20
0.767512
 40
0.003
 41
0.003
  0
LWPOLYLINE
  5
476
100
AcDbEntity
  8
0
 62
     0
100
AcDbPolyline
 90
        2
 70
     0
 39
0.003
 10
-0.10222
 20
0.767512
 40
0.003
 41
0.003
 10
-0.098291
 20
0.757732
 40
0.003
 41
0.003
  0
LWPOLYLINE
  5
477
100
AcDbEntity
  8
0
 62
     0
100
AcDbPolyline
 90
        2
 70
     0
 39
0.003
 10
-0.098291
 20
0.757732
 40
0.003
 41
0.003
 10
-0.093909
 20
0.748535
 40
0.003
 41
0.003
  0
LWPOLYLINE
  5
478
100
AcDbEntity
  8
0
 62
     0
100
AcDbPolyline
 90
        2
 70
     0
 39
0.003
 10
-0.093909
 20
0.748535
 40
0.003
 41
0.003
 10
-0.089075
 20
0.739886
 40
0.003
 41
0.003
  0
LWPOLYLINE
  5
479
100
AcDbEntity
  8
0
 62
     0
100
AcDbPolyline
 90
        2
 70
     0
 39
0.003
 10
-0.089075
 20
0.739886
 40
0.003
 41
0.003
 10
-0.08376
 20
0.731728
 40
0.003
 41
0.003
  0
LWPOLYLINE
  5
47A
100
AcDbEntity
  8
0
 62
     0
100
AcDbPolyline
 90
        2
 70
     0
 39
0.003
 10
-0.08376
 20
0.731728
 40
0.003
 41
0.003
 10
-0.077969
 20
0.724039
 40
0.003
 41
0.003
  0
LWPOLYLINE
  5
47B
100
AcDbEntity
  8
0
 62
     0
100
AcDbPolyline
 90
        2
 70
     0
 39
0.003
 10
-0.077969
 20
0.724039
 40
0.003
 41
0.003
 10
-0.071681
 20
0.716764
 40
0.003
 41
0.003
  0
LWPOLYLINE
  5
47C
100
AcDbEntity
  8
0
 62
     0
100
AcDbPolyline
 90
        2
 70
     0
 39
0.003
 10
-0.071681
 20
0.716764
 40
0.003
 41
0.003
 10
-0.06489
 20
0.70987
 40
0.003
 41
0.003
  0
LWPOLYLINE
  5
47D
100
AcDbEntity
  8
0
 62
     0
100
AcDbPolyline
 90
        2
 70
     0
 39
0.003
 10
-0.06489
 20
0.70987
 40
0.003
 41
0.003
 10
-0.057567
 20
0.703303
 40
0.003
 41
0.003
  0
LWPOLYLINE
  5
47E
100
AcDbEntity
  8
0
 62
     0
100
AcDbPolyline
 90
        2
 70
     0
 39
0.003
 10
-0.057567
 20
0.703303
 40
0.003
 41
0.003
 10
-0.049717
 20
0.697043
 40
0.003
 41
0.003
  0
LWPOLYLINE
  5
47F
100
AcDbEntity
  8
0
 62
     0
100
AcDbPolyline
 90
        2
 70
     0
 39
0.003
 10
-0.049717
 20
0.697043
 40
0.003
 41
0.003
 10
-0.041319
 20
0.691035
 40
0.003
 41
0.003
  0
LWPOLYLINE
  5
480
100
AcDbEntity
  8
0
 62
     0
100
AcDbPolyline
 90
        2
 70
     0
 39
0.003
 10
-0.041319
 20
0.691035
 40
0.003
 41
0.003
 10
-0.03237
 20
0.685244
 40
0.003
 41
0.003
  0
LWPOLYLINE
  5
481
100
AcDbEntity
  8
0
 62
     0
100
AcDbPolyline
 90
        2
 70
     0
 39
0.003
 10
-0.03237
 20
0.685244
 40
0.003
 41
0.003
 10
-0.022843
 20
0.679622
 40
0.003
 41
0.003
  0
LWPOLYLINE
  5
482
100
AcDbEntity
  8
0
 62
     0
100
AcDbPolyline
 90
        2
 70
     0
 39
0.003
 10
-0.022843
 20
0.679622
 40
0.003
 41
0.003
 10
-0.01274
 20
0.674142
 40
0.003
 41
0.003
  0
LWPOLYLINE
  5
483
100
AcDbEntity
  8
0
 62
     0
100
AcDbPolyline
 90
        2
 70
     0
 39
0.003
 10
-0.01274
 20
0.674142
 40
0.003
 41
0.003
 10
-0.002043
 20
0.668752
 40
0.003
 41
0.003
  0
LWPOLYLINE
  5
484
100
AcDbEntity
  8
0
 62
     0
100
AcDbPolyline
 90
        2
 70
     0
 39
0.003
 10
-0.002043
 20
0.668752
 40
0.003
 41
0.003
 10
0.00926
 20
0.663421
 40
0.003
 41
0.003
  0
LWPOLYLINE
  5
485
100
AcDbEntity
  8
0
 62
     0
100
AcDbPolyline
 90
        2
 70
     0
 39
0.003
 10
0.00926
 20
0.663421
 40
0.003
 41
0.003
 10
0.021181
 20
0.658091
 40
0.003
 41
0.003
  0
LWPOLYLINE
  5
486
100
AcDbEntity
  8
0
 62
     0
100
AcDbPolyline
 90
        2
 70
     0
 39
0.003
 10
0.021181
 20
0.658091
 40
0.003
 41
0.003
 10
0.033736
 20
0.652744
 40
0.003
 41
0.003
  0
LWPOLYLINE
  5
487
100
AcDbEntity
  8
0
 62
     0
100
AcDbPolyline
 90
        2
 70
     0
 39
0.003
 10
0.033736
 20
0.652744
 40
0.003
 41
0.003
 10
0.046937
 20
0.647323
 40
0.003
 41
0.003
  0
LWPOLYLINE
  5
488
100
AcDbEntity
  8
0
 62
     0
100
AcDbPolyline
 90
        2
 70
     0
 39
0.003
 10
0.046937
 20
0.647323
 40
0.003
 41
0.003
 10
0.060799
 20
0.641795
 40
0.003
 41
0.003
  0
LWPOLYLINE
  5
489
100
AcDbEntity
  8
0
 62
     0
100
AcDbPolyline
 90
        2
 70
     0
 39
0.003
 10
0.060799
 20
0.641795
 40
0.003
 41
0.003
 10
0.075323
 20
0.63611
 40
0.003
 41
0.003
  0
LWPOLYLINE
  5
48A
100
AcDbEntity
  8
0
 62
     0
100
AcDbPolyline
 90
        2
 70
     0
 39
0.003
 10
0.075323
 20
0.63611
 40
0.003
 41
0.003
 10
0.090531
 20
0.630244
 40
0.003
 41
0.003
  0
LWPOLYLINE
  5
48B
100
AcDbEntity
  8
0
 62
     0
100
AcDbPolyline
 90
        2
 70
     0
 39
0.003
 10
0.090531
 20
0.630244
 40
0.003
 41
0.003
 10
0.106433
 20
0.624142
 40
0.003
 41
0.003
  0
LWPOLYLINE
  5
48C
100
AcDbEntity
  8
0
 62
     0
100
AcDbPolyline
 90
        2
 70
     0
 39
0.003
 10
0.106433
 20
0.624142
 40
0.003
 41
0.003
 10
0.123043
 20
0.617776
 40
0.003
 41
0.003
  0
LWPOLYLINE
  5
48D
100
AcDbEntity
  8
0
 62
   253
100
AcDbPolyline
 90
        2
 70
     0
 39
0.003
 10
-0.119531
 20
0.888366
 40
0.003
 41
0.003
 10
0.526063
 20
1.267197
 40
0.003
 41
0.003
  0
LWPOLYLINE
  5
48E
100
AcDbEntity
  8
0
 62
   253
100
AcDbPolyline
 90
        2
 70
     0
 39
0.003
 10
0.526063
 20
1.267197
 40
0.003
 41
0.003
 10
0.402272
 20
1.275693
 40
0.003
 41
0.003
  0
LWPOLYLINE
  5
48F
100
AcDbEntity
  8
0
 62
   253
100
AcDbPolyline
 90
        2
 70
     0
 39
0.003
 10
0.402272
 20
1.275693
 40
0.003
 41
0.003
 10
-0.243323
 20
0.896862
 40
0.003
 41
0.003
  0
LWPOLYLINE
  5
490
100
AcDbEntity
  8
0
 62
   253
100
AcDbPolyline
 90
        2
 70
     0
 39
0.003
 10
-0.243323
 20
0.896862
 40
0.003
 41
0.003
 10
-0.119531
 20
0.888366
 40
0.003
 41
0.003
  0
LWPOLYLINE
  5
491
100
AcDbEntity
  8
0
 62
     0
100
AcDbPolyline
 90
        2
 70
     0
 39
0.003
 10
-0.119531
 20
0.888366
 40
0.003
 41
0.003
 10
0.526063
 20
1.267197
 40
0.003
 41
0.003
  0
LWPOLYLINE
  5
492
100
AcDbEntity
  8
0
 62
     0
100
AcDbPolyline
 90
        2
 70
     0
 39
0.003
 10
0.526063
 20
1.267197
 40
0.003
 41
0.003
 10
0.402272
 20
1.275693
 40
0.003
 41
0.003
  0
LWPOLYLINE
  5
493
100
AcDbEntity
  8
0
 62
     0
100
AcDbPolyline
 90
        2
 70
     0
 39
0.003
 10
0.402272
 20
1.275693
 40
0.003
 41
0.003
 10
-0.243323
 20
0.896862
 40
0.003
 41
0.003
  0
LWPOLYLINE
  5
494
100
AcDbEntity
  8
0
 62
     0
100
AcDbPolyline
 90
        2
 70
     0
 39
0.003
 10
-0.243323
 20
0.896862
 40
0.003
 41
0.003
 10
-0.119531
 20
0.888366
 40
0.003
 41
0.003
  0
LWPOLYLINE
  5
495
100
AcDbEntity
  8
0
 62
   254
100
AcDbPolyline
 90
        2
 70
     0
 39
0.003
 10
-0.243323
 20
0.896862
 40
0.003
 41
0.003
 10
0.402272
 20
1.275693
 40
0.003
 41
0.003
  0
LWPOLYLINE
  5
496
100
AcDbEntity
  8
0
 62
   254
100
AcDbPolyline
 90
        2
 70
     0
 39
0.003
 10
0.402272
 20
1.275693
 40
0.003
 41
0.003
 10
0.402272
 20
1.334827
 40
0.003
 41
0.003
  0
LWPOLYLINE
  5
497
100
AcDbEntity
  8
0
 62
   254
100
AcDbPolyline
 90
        2
 70
     0
 39
0.003
 10
0.402272
 20
1.334827
 40
0.003
 41
0.003
 10
-0.243323
 20
0.955996
 40
0.003
 41
0.003
  0
LWPOLYLINE
  5
498
100
AcDbEntity
  8
0
 62
   254
100
AcDbPolyline
 90
        2
 70
     0
 39
0.003
 10
-0.243323
 20
0.955996
 40
0.003
 41
0.003
 10
-0.243323
 20
0.896862
 40
0.003
 41
0.003
  0
LWPOLYLINE
  5
499
100
AcDbEntity
  8
0
 62
     0
100
AcDbPolyline
 90
        2
 70
     0
 39
0.003
 10
-0.243323
 20
0.896862
 40
0.003
 41
0.003
 10
0.402272
 20
1.275693
 40
0.003
 41
0.003
  0
LWPOLYLINE
  5
49A
100
AcDbEntity
  8
0
 62
     0
100
AcDbPolyline
 90
        2
 70
     0
 39
0.003
 10
0.402272
 20
1.275693
 40
0.003
 41
0.003
 10
0.402272
 20
1.334827
 40
0.003
 41
0.003
  0
LWPOLYLINE
  5
49B
100
AcDbEntity
  8
0
 62
     0
100
AcDbPolyline
 90
        2
 70
     0
 39
0.003
 10
0.402272
 20
1.334827
 40
0.003
 41
0.003
 10
-0.243323
 20
0.955996
 40
0.003
 41
0.003
  0
LWPOLYLINE
  5
49C
100
AcDbEntity
  8
0
 62
     0
100
AcDbPolyline
 90
        2
 70
     0
 39
0.003
 10
-0.243323
 20
0.955996
 40
0.003
 41
0.003
 10
-0.243323
 20
0.896862
 40
0.003
 41
0.003
  0
LWPOLYLINE
  5
49D
100
AcDbEntity
  8
0
 62
     9
100
AcDbPolyline
 90
        2
 70
     0
 39
0.003
 10
-0.186783
 20
0.974122
 40
0.003
 41
0.003
 10
0.458811
 20
1.352953
 40
0.003
 41
0.003
  0
LWPOLYLINE
  5
49E
100
AcDbEntity
  8
0
 62
     9
100
AcDbPolyline
 90
        2
 70
     0
 39
0.003
 10
0.458811
 20
1.352953
 40
0.003
 41
0.003
 10
0.467488
 20
1.358594
 40
0.003
 41
0.003
  0
LWPOLYLINE
  5
49F
100
AcDbEntity
  8
0
 62
     9
100
AcDbPolyline
 90
        2
 70
     0
 39
0.003
 10
0.467488
 20
1.358594
 40
0.003
 41
0.003
 10
-0.178106
 20
0.979764
 40
0.003
 41
0.003
  0
LWPOLYLINE
  5
4A0
100
AcDbEntity
  8
0
 62
     9
100
AcDbPolyline
 90
        2
 70
     0
 39
0.003
 10
-0.178106
 20
0.979764
 40
0.003
 41
0.003
 10
-0.186783
 20
0.974122
 40
0.003
 41
0.003
  0
LWPOLYLINE
  5
4A1
100
AcDbEntity
  8
0
 62
     9
100
AcDbPolyline
 90
        2
 70
     0
 39
0.003
 10
-0.178106
 20
0.979764
 40
0.003
 41
0.003
 10
0.467488
 20
1.358594
 40
0.003
 41
0.003
  0
LWPOLYLINE
  5
4A2
100
AcDbEntity
  8
0
 62
     9
100
AcDbPolyline
 90
        2
 70
     0
 39
0.003
 10
0.467488
 20
1.358594
 40
0.003
 41
0.003
 10
0.475323
 20
1.364783
 40
0.003
 41
0.003
  0
LWPOLYLINE
  5
4A3
100
AcDbEntity
  8
0
 62
     9
100
AcDbPolyline
 90
        2
 70
     0
 39
0.003
 10
0.475323
 20
1.364783
 40
0.003
 41
0.003
 10
-0.170272
 20
0.985953
 40
0.003
 41
0.003
  0
LWPOLYLINE
  5
4A4
100
AcDbEntity
  8
0
 62
     9
100
AcDbPolyline
 90
        2
 70
     0
 39
0.003
 10
-0.170272
 20
0.985953
 40
0.003
 41
0.003
 10
-0.178106
 20
0.979764
 40
0.003
 41
0.003
  0
LWPOLYLINE
  5
4A5
100
AcDbEntity
  8
0
 62
   254
100
AcDbPolyline
 90
        2
 70
     0
 39
0.003
 10
-0.170272
 20
0.985953
 40
0.003
 41
0.003
 10
0.475323
 20
1.364783
 40
0.003
 41
0.003
  0
LWPOLYLINE
  5
4A6
100
AcDbEntity
  8
0
 62
   254
100
AcDbPolyline
 90
        2
 70
     0
 39
0.003
 10
0.475323
 20
1.364783
 40
0.003
 41
0.003
 10
0.482319
 20
1.371488
 40
0.003
 41
0.003
  0
LWPOLYLINE
  5
4A7
100
AcDbEntity
  8
0
 62
   254
100
AcDbPolyline
 90
        2
 70
     0
 39
0.003
 10
0.482319
 20
1.371488
 40
0.003
 41
0.003
 10
-0.163276
 20
0.992657
 40
0.003
 41
0.003
  0
LWPOLYLINE
  5
4A8
100
AcDbEntity
  8
0
 62
   254
100
AcDbPolyline
 90
        2
 70
     0
 39
0.003
 10
-0.163276
 20
0.992657
 40
0.003
 41
0.003
 10
-0.170272
 20
0.985953
 40
0.003
 41
0.003
  0
LWPOLYLINE
  5
4A9
100
AcDbEntity
  8
0
 62
   254
100
AcDbPolyline
 90
        2
 70
     0
 39
0.003
 10
-0.163276
 20
0.992657
 40
0.003
 41
0.003
 10
0.482319
 20
1.371488
 40
0.003
 41
0.003
  0
LWPOLYLINE
  5
4AA
100
AcDbEntity
  8
0
 62
   254
100
AcDbPolyline
 90
        2
 70
     0
 39
0.003
 10
0.482319
 20
1.371488
 40
0.003
 41
0.003
 10
0.488508
 20
1.378638
 40
0.003
 41
0.003
  0
LWPOLYLINE
  5
4AB
100
AcDbEntity
  8
0
 62
   254
100
AcDbPolyline
 90
        2
 70
     0
 39
0.003
 10
0.488508
 20
1.378638
 40
0.003
 41
0.003
 10
-0.157087
 20
0.999807
 40
0.003
 41
0.003
  0
LWPOLYLINE
  5
4AC
100
AcDbEntity
  8
0
 62
   254
100
AcDbPolyline
 90
        2
 70
     0
 39
0.003
 10
-0.157087
 20
0.999807
 40
0.003
 41
0.003
 10
-0.163276
 20
0.992657
 40
0.003
 41
0.003
  0
LWPOLYLINE
  5
4AD
100
AcDbEntity
  8
0
 62
   254
100
AcDbPolyline
 90
        2
 70
     0
 39
0.003
 10
-0.157087
 20
0.999807
 40
0.003
 41
0.003
 10
0.488508
 20
1.378638
 40
0.003
 41
0.003
  0
LWPOLYLINE
  5
4AE
100
AcDbEntity
  8
0
 62
   254
100
AcDbPolyline
 90
        2
 70
     0
 39
0.003
 10
0.488508
 20
1.378638
 40
0.003
 41
0.003
 10
0.493886
 20
1.386201
 40
0.003
 41
0.003
  0
LWPOLYLINE
  5
4AF
100
AcDbEntity
  8
0
 62
   254
100
AcDbPolyline
 90
        2
 70
     0
 39
0.003
 10
0.493886
 20
1.386201
 40
0.003
 41
0.003
 10
-0.151709
 20
1.00737
 40
0.003
 41
0.003
  0
LWPOLYLINE
  5
4B0
100
AcDbEntity
  8
0
 62
   254
100
AcDbPolyline
 90
        2
 70
     0
 39
0.003
 10
-0.151709
 20
1.00737
 40
0.003
 41
0.003
 10
-0.157087
 20
0.999807
 40
0.003
 41
0.003
  0
LWPOLYLINE
  5
4B1
100
AcDbEntity
  8
0
 62
   254
100
AcDbPolyline
 90
        2
 70
     0
 39
0.003
 10
-0.151709
 20
1.00737
 40
0.003
 41
0.003
 10
0.493886
 20
1.386201
 40
0.003
 41
0.003
  0
LWPOLYLINE
  5
4B2
100
AcDbEntity
  8
0
 62
   254
100
AcDbPolyline
 90
        2
 70
     0
 39
0.003
 10
0.493886
 20
1.386201
 40
0.003
 41
0.003
 10
0.49848
 20
1.394118
 40
0.003
 41
0.003
  0
LWPOLYLINE
  5
4B3
100
AcDbEntity
  8
0
 62
   254
100
AcDbPolyline
 90
        2
 70
     0
 39
0.003
 10
0.49848
 20
1.394118
 40
0.003
 41
0.003
 10
-0.147114
 20
1.015287
 40
0.003
 41
0.003
  0
LWPOLYLINE
  5
4B4
100
AcDbEntity
  8
0
 62
   254
100
AcDbPolyline
 90
        2
 70
     0
 39
0.003
 10
-0.147114
 20
1.015287
 40
0.003
 41
0.003
 10
-0.151709
 20
1.00737
 40
0.003
 41
0.003
  0
LWPOLYLINE
  5
4B5
100
AcDbEntity
  8
0
 62
   254
100
AcDbPolyline
 90
        2
 70
     0
 39
0.003
 10
-0.147114
 20
1.015287
 40
0.003
 41
0.003
 10
0.49848
 20
1.394118
 40
0.003
 41
0.003
  0
LWPOLYLINE
  5
4B6
100
AcDbEntity
  8
0
 62
   254
100
AcDbPolyline
 90
        2
 70
     0
 39
0.003
 10
0.49848
 20
1.394118
 40
0.003
 41
0.003
 10
0.502287
 20
1.40235
 40
0.003
 41
0.003
  0
LWPOLYLINE
  5
4B7
100
AcDbEntity
  8
0
 62
   254
100
AcDbPolyline
 90
        2
 70
     0
 39
0.003
 10
0.502287
 20
1.40235
 40
0.003
 41
0.003
 10
-0.143307
 20
1.02352
 40
0.003
 41
0.003
  0
LWPOLYLINE
  5
4B8
100
AcDbEntity
  8
0
 62
   254
100
AcDbPolyline
 90
        2
 70
     0
 39
0.003
 10
-0.143307
 20
1.02352
 40
0.003
 41
0.003
 10
-0.147114
 20
1.015287
 40
0.003
 41
0.003
  0
LWPOLYLINE
  5
4B9
100
AcDbEntity
  8
0
 62
   254
100
AcDbPolyline
 90
        2
 70
     0
 39
0.003
 10
-0.143307
 20
1.02352
 40
0.003
 41
0.003
 10
0.502287
 20
1.40235
 40
0.003
 41
0.003
  0
LWPOLYLINE
  5
4BA
100
AcDbEntity
  8
0
 62
   254
100
AcDbPolyline
 90
        2
 70
     0
 39
0.003
 10
0.502287
 20
1.40235
 40
0.003
 41
0.003
 10
0.505343
 20
1.410835
 40
0.003
 41
0.003
  0
LWPOLYLINE
  5
4BB
100
AcDbEntity
  8
0
 62
   254
100
AcDbPolyline
 90
        2
 70
     0
 39
0.003
 10
0.505343
 20
1.410835
 40
0.003
 41
0.003
 10
-0.140252
 20
1.032004
 40
0.003
 41
0.003
  0
LWPOLYLINE
  5
4BC
100
AcDbEntity
  8
0
 62
   254
100
AcDbPolyline
 90
        2
 70
     0
 39
0.003
 10
-0.140252
 20
1.032004
 40
0.003
 41
0.003
 10
-0.143307
 20
1.02352
 40
0.003
 41
0.003
  0
LWPOLYLINE
  5
4BD
100
AcDbEntity
  8
0
 62
   254
100
AcDbPolyline
 90
        2
 70
     0
 39
0.003
 10
-0.140252
 20
1.032004
 40
0.003
 41
0.003
 10
0.505343
 20
1.410835
 40
0.003
 41
0.003
  0
LWPOLYLINE
  5
4BE
100
AcDbEntity
  8
0
 62
   254
100
AcDbPolyline
 90
        2
 70
     0
 39
0.003
 10
0.505343
 20
1.410835
 40
0.003
 41
0.003
 10
0.507638
 20
1.419535
 40
0.003
 41
0.003
  0
LWPOLYLINE
  5
4BF
100
AcDbEntity
  8
0
 62
   254
100
AcDbPolyline
 90
        2
 70
     0
 39
0.003
 10
0.507638
 20
1.419535
 40
0.003
 41
0.003
 10
-0.137957
 20
1.040705
 40
0.003
 41
0.003
  0
LWPOLYLINE
  5
4C0
100
AcDbEntity
  8
0
 62
   254
100
AcDbPolyline
 90
        2
 70
     0
 39
0.003
 10
-0.137957
 20
1.040705
 40
0.003
 41
0.003
 10
-0.140252
 20
1.032004
 40
0.003
 41
0.003
  0
LWPOLYLINE
  5
4C1
100
AcDbEntity
  8
0
 62
   254
100
AcDbPolyline
 90
        2
 70
     0
 39
0.003
 10
-0.137957
 20
1.040705
 40
0.003
 41
0.003
 10
0.507638
 20
1.419535
 40
0.003
 41
0.003
  0
LWPOLYLINE
  5
4C2
100
AcDbEntity
  8
0
 62
   254
100
AcDbPolyline
 90
        2
 70
     0
 39
0.003
 10
0.507638
 20
1.419535
 40
0.003
 41
0.003
 10
0.509201
 20
1.428394
 40
0.003
 41
0.003
  0
LWPOLYLINE
  5
4C3
100
AcDbEntity
  8
0
 62
   254
100
AcDbPolyline
 90
        2
 70
     0
 39
0.003
 10
0.509201
 20
1.428394
 40
0.003
 41
0.003
 10
-0.136394
 20
1.049563
 40
0.003
 41
0.003
  0
LWPOLYLINE
  5
4C4
100
AcDbEntity
  8
0
 62
   254
100
AcDbPolyline
 90
        2
 70
     0
 39
0.003
 10
-0.136394
 20
1.049563
 40
0.003
 41
0.003
 10
-0.137957
 20
1.040705
 40
0.003
 41
0.003
  0
LWPOLYLINE
  5
4C5
100
AcDbEntity
  8
0
 62
   254
100
AcDbPolyline
 90
        2
 70
     0
 39
0.003
 10
-0.136394
 20
1.049563
 40
0.003
 41
0.003
 10
0.509201
 20
1.428394
 40
0.003
 41
0.003
  0
LWPOLYLINE
  5
4C6
100
AcDbEntity
  8
0
 62
   254
100
AcDbPolyline
 90
        2
 70
     0
 39
0.003
 10
0.509201
 20
1.428394
 40
0.003
 41
0.003
 10
0.510035
 20
1.43737
 40
0.003
 41
0.003
  0
LWPOLYLINE
  5
4C7
100
AcDbEntity
  8
0
 62
   254
100
AcDbPolyline
 90
        2
 70
     0
 39
0.003
 10
0.510035
 20
1.43737
 40
0.003
 41
0.003
 10
-0.135559
 20
1.058539
 40
0.003
 41
0.003
  0
LWPOLYLINE
  5
4C8
100
AcDbEntity
  8
0
 62
   254
100
AcDbPolyline
 90
        2
 70
     0
 39
0.003
 10
-0.135559
 20
1.058539
 40
0.003
 41
0.003
 10
-0.136394
 20
1.049563
 40
0.003
 41
0.003
  0
LWPOLYLINE
  5
4C9
100
AcDbEntity
  8
0
 62
   254
100
AcDbPolyline
 90
        2
 70
     0
 39
0.003
 10
-0.135559
 20
1.058539
 40
0.003
 41
0.003
 10
0.510035
 20
1.43737
 40
0.003
 41
0.003
  0
LWPOLYLINE
  5
4CA
100
AcDbEntity
  8
0
 62
   254
100
AcDbPolyline
 90
        2
 70
     0
 39
0.003
 10
0.510035
 20
1.43737
 40
0.003
 41
0.003
 10
0.510169
 20
1.446398
 40
0.003
 41
0.003
  0
LWPOLYLINE
  5
4CB
100
AcDbEntity
  8
0
 62
   254
100
AcDbPolyline
 90
        2
 70
     0
 39
0.003
 10
0.510169
 20
1.446398
 40
0.003
 41
0.003
 10
-0.135425
 20
1.067567
 40
0.003
 41
0.003
  0
LWPOLYLINE
  5
4CC
100
AcDbEntity
  8
0
 62
   254
100
AcDbPolyline
 90
        2
 70
     0
 39
0.003
 10
-0.135425
 20
1.067567
 40
0.003
 41
0.003
 10
-0.135559
 20
1.058539
 40
0.003
 41
0.003
  0
LWPOLYLINE
  5
4CD
100
AcDbEntity
  8
0
 62
   254
100
AcDbPolyline
 90
        2
 70
     0
 39
0.003
 10
-0.135425
 20
1.067567
 40
0.003
 41
0.003
 10
0.510169
 20
1.446398
 40
0.003
 41
0.003
  0
LWPOLYLINE
  5
4CE
100
AcDbEntity
  8
0
 62
   254
100
AcDbPolyline
 90
        2
 70
     0
 39
0.003
 10
0.510169
 20
1.446398
 40
0.003
 41
0.003
 10
0.509606
 20
1.455445
 40
0.003
 41
0.003
  0
LWPOLYLINE
  5
4CF
100
AcDbEntity
  8
0
 62
   254
100
AcDbPolyline
 90
        2
 70
     0
 39
0.003
 10
0.509606
 20
1.455445
 40
0.003
 41
0.003
 10
-0.135988
 20
1.076614
 40
0.003
 41
0.003
  0
LWPOLYLINE
  5
4D0
100
AcDbEntity
  8
0
 62
   254
100
AcDbPolyline
 90
        2
 70
     0
 39
0.003
 10
-0.135988
 20
1.076614
 40
0.003
 41
0.003
 10
-0.135425
 20
1.067567
 40
0.003
 41
0.003
  0
LWPOLYLINE
  5
4D1
100
AcDbEntity
  8
0
 62
   254
100
AcDbPolyline
 90
        2
 70
     0
 39
0.003
 10
-0.135988
 20
1.076614
 40
0.003
 41
0.003
 10
0.509606
 20
1.455445
 40
0.003
 41
0.003
  0
LWPOLYLINE
  5
4D2
100
AcDbEntity
  8
0
 62
   254
100
AcDbPolyline
 90
        2
 70
     0
 39
0.003
 10
0.509606
 20
1.455445
 40
0.003
 41
0.003
 10
0.508358
 20
1.464457
 40
0.003
 41
0.003
  0
LWPOLYLINE
  5
4D3
100
AcDbEntity
  8
0
 62
   254
100
AcDbPolyline
 90
        2
 70
     0
 39
0.003
 10
0.508358
 20
1.464457
 40
0.003
 41
0.003
 10
-0.137236
 20
1.085626
 40
0.003
 41
0.003
  0
LWPOLYLINE
  5
4D4
100
AcDbEntity
  8
0
 62
   254
100
AcDbPolyline
 90
        2
 70
     0
 39
0.003
 10
-0.137236
 20
1.085626
 40
0.003
 41
0.003
 10
-0.135988
 20
1.076614
 40
0.003
 41
0.003
  0
LWPOLYLINE
  5
4D5
100
AcDbEntity
  8
0
 62
   254
100
AcDbPolyline
 90
        2
 70
     0
 39
0.003
 10
-0.137236
 20
1.085626
 40
0.003
 41
0.003
 10
0.508358
 20
1.464457
 40
0.003
 41
0.003
  0
LWPOLYLINE
  5
4D6
100
AcDbEntity
  8
0
 62
   254
100
AcDbPolyline
 90
        2
 70
     0
 39
0.003
 10
0.508358
 20
1.464457
 40
0.003
 41
0.003
 10
0.506437
 20
1.473386
 40
0.003
 41
0.003
  0
LWPOLYLINE
  5
4D7
100
AcDbEntity
  8
0
 62
   254
100
AcDbPolyline
 90
        2
 70
     0
 39
0.003
 10
0.506437
 20
1.473386
 40
0.003
 41
0.003
 10
-0.139157
 20
1.094555
 40
0.003
 41
0.003
  0
LWPOLYLINE
  5
4D8
100
AcDbEntity
  8
0
 62
   254
100
AcDbPolyline
 90
        2
 70
     0
 39
0.003
 10
-0.139157
 20
1.094555
 40
0.003
 41
0.003
 10
-0.137236
 20
1.085626
 40
0.003
 41
0.003
  0
LWPOLYLINE
  5
4D9
100
AcDbEntity
  8
0
 62
   254
100
AcDbPolyline
 90
        2
 70
     0
 39
0.003
 10
-0.139157
 20
1.094555
 40
0.003
 41
0.003
 10
0.506437
 20
1.473386
 40
0.003
 41
0.003
  0
LWPOLYLINE
  5
4DA
100
AcDbEntity
  8
0
 62
   254
100
AcDbPolyline
 90
        2
 70
     0
 39
0.003
 10
0.506437
 20
1.473386
 40
0.003
 41
0.003
 10
0.503866
 20
1.482173
 40
0.003
 41
0.003
  0
LWPOLYLINE
  5
4DB
100
AcDbEntity
  8
0
 62
   254
100
AcDbPolyline
 90
        2
 70
     0
 39
0.003
 10
0.503866
 20
1.482173
 40
0.003
 41
0.003
 10
-0.141728
 20
1.103343
 40
0.003
 41
0.003
  0
LWPOLYLINE
  5
4DC
100
AcDbEntity
  8
0
 62
   254
100
AcDbPolyline
 90
        2
 70
     0
 39
0.003
 10
-0.141728
 20
1.103343
 40
0.003
 41
0.003
 10
-0.139157
 20
1.094555
 40
0.003
 41
0.003
  0
LWPOLYLINE
  5
4DD
100
AcDbEntity
  8
0
 62
   254
100
AcDbPolyline
 90
        2
 70
     0
 39
0.003
 10
-0.141728
 20
1.103343
 40
0.003
 41
0.003
 10
0.503866
 20
1.482173
 40
0.003
 41
0.003
  0
LWPOLYLINE
  5
4DE
100
AcDbEntity
  8
0
 62
   254
100
AcDbPolyline
 90
        2
 70
     0
 39
0.003
 10
0.503866
 20
1.482173
 40
0.003
 41
0.003
 10
0.500646
 20
1.490783
 40
0.003
 41
0.003
  0
LWPOLYLINE
  5
4DF
100
AcDbEntity
  8
0
 62
   254
100
AcDbPolyline
 90
        2
 70
     0
 39
0.003
 10
0.500646
 20
1.490783
 40
0.003
 41
0.003
 10
-0.144949
 20
1.111953
 40
0.003
 41
0.003
  0
LWPOLYLINE
  5
4E0
100
AcDbEntity
  8
0
 62
   254
100
AcDbPolyline
 90
        2
 70
     0
 39
0.003
 10
-0.144949
 20
1.111953
 40
0.003
 41
0.003
 10
-0.141728
 20
1.103343
 40
0.003
 41
0.003
  0
LWPOLYLINE
  5
4E1
100
AcDbEntity
  8
0
 62
   254
100
AcDbPolyline
 90
        2
 70
     0
 39
0.003
 10
-0.144949
 20
1.111953
 40
0.003
 41
0.003
 10
0.500646
 20
1.490783
 40
0.003
 41
0.003
  0
LWPOLYLINE
  5
4E2
100
AcDbEntity
  8
0
 62
   254
100
AcDbPolyline
 90
        2
 70
     0
 39
0.003
 10
0.500646
 20
1.490783
 40
0.003
 41
0.003
 10
0.496803
 20
1.499157
 40
0.003
 41
0.003
  0
LWPOLYLINE
  5
4E3
100
AcDbEntity
  8
0
 62
   254
100
AcDbPolyline
 90
        2
 70
     0
 39
0.003
 10
0.496803
 20
1.499157
 40
0.003
 41
0.003
 10
-0.148791
 20
1.120327
 40
0.003
 41
0.003
  0
LWPOLYLINE
  5
4E4
100
AcDbEntity
  8
0
 62
   254
100
AcDbPolyline
 90
        2
 70
     0
 39
0.003
 10
-0.148791
 20
1.120327
 40
0.003
 41
0.003
 10
-0.144949
 20
1.111953
 40
0.003
 41
0.003
  0
LWPOLYLINE
  5
4E5
100
AcDbEntity
  8
0
 62
   254
100
AcDbPolyline
 90
        2
 70
     0
 39
0.003
 10
-0.148791
 20
1.120327
 40
0.003
 41
0.003
 10
0.496803
 20
1.499157
 40
0.003
 41
0.003
  0
LWPOLYLINE
  5
4E6
100
AcDbEntity
  8
0
 62
   254
100
AcDbPolyline
 90
        2
 70
     0
 39
0.003
 10
0.496803
 20
1.499157
 40
0.003
 41
0.003
 10
0.492339
 20
1.507252
 40
0.003
 41
0.003
  0
LWPOLYLINE
  5
4E7
100
AcDbEntity
  8
0
 62
   254
100
AcDbPolyline
 90
        2
 70
     0
 39
0.003
 10
0.492339
 20
1.507252
 40
0.003
 41
0.003
 10
-0.153256
 20
1.128421
 40
0.003
 41
0.003
  0
LWPOLYLINE
  5
4E8
100
AcDbEntity
  8
0
 62
   254
100
AcDbPolyline
 90
        2
 70
     0
 39
0.003
 10
-0.153256
 20
1.128421
 40
0.003
 41
0.003
 10
-0.148791
 20
1.120327
 40
0.003
 41
0.003
  0
LWPOLYLINE
  5
4E9
100
AcDbEntity
  8
0
 62
   254
100
AcDbPolyline
 90
        2
 70
     0
 39
0.003
 10
-0.153256
 20
1.128421
 40
0.003
 41
0.003
 10
0.492339
 20
1.507252
 40
0.003
 41
0.003
  0
LWPOLYLINE
  5
4EA
100
AcDbEntity
  8
0
 62
   254
100
AcDbPolyline
 90
        2
 70
     0
 39
0.003
 10
0.492339
 20
1.507252
 40
0.003
 41
0.003
 10
0.487283
 20
1.515004
 40
0.003
 41
0.003
  0
LWPOLYLINE
  5
4EB
100
AcDbEntity
  8
0
 62
   254
100
AcDbPolyline
 90
        2
 70
     0
 39
0.003
 10
0.487283
 20
1.515004
 40
0.003
 41
0.003
 10
-0.158311
 20
1.136173
 40
0.003
 41
0.003
  0
LWPOLYLINE
  5
4EC
100
AcDbEntity
  8
0
 62
   254
100
AcDbPolyline
 90
        2
 70
     0
 39
0.003
 10
-0.158311
 20
1.136173
 40
0.003
 41
0.003
 10
-0.153256
 20
1.128421
 40
0.003
 41
0.003
  0
LWPOLYLINE
  5
4ED
100
AcDbEntity
  8
0
 62
   254
100
AcDbPolyline
 90
        2
 70
     0
 39
0.003
 10
-0.158311
 20
1.136173
 40
0.003
 41
0.003
 10
0.487283
 20
1.515004
 40
0.003
 41
0.003
  0
LWPOLYLINE
  5
4EE
100
AcDbEntity
  8
0
 62
   254
100
AcDbPolyline
 90
        2
 70
     0
 39
0.003
 10
0.487283
 20
1.515004
 40
0.003
 41
0.003
 10
0.48163
 20
1.52239
 40
0.003
 41
0.003
  0
LWPOLYLINE
  5
4EF
100
AcDbEntity
  8
0
 62
   254
100
AcDbPolyline
 90
        2
 70
     0
 39
0.003
 10
0.48163
 20
1.52239
 40
0.003
 41
0.003
 10
-0.163965
 20
1.143559
 40
0.003
 41
0.003
  0
LWPOLYLINE
  5
4F0
100
AcDbEntity
  8
0
 62
   254
100
AcDbPolyline
 90
        2
 70
     0
 39
0.003
 10
-0.163965
 20
1.143559
 40
0.003
 41
0.003
 10
-0.158311
 20
1.136173
 40
0.003
 41
0.003
  0
LWPOLYLINE
  5
4F1
100
AcDbEntity
  8
0
 62
   254
100
AcDbPolyline
 90
        2
 70
     0
 39
0.003
 10
-0.163965
 20
1.143559
 40
0.003
 41
0.003
 10
0.48163
 20
1.52239
 40
0.003
 41
0.003
  0
LWPOLYLINE
  5
4F2
100
AcDbEntity
  8
0
 62
   254
100
AcDbPolyline
 90
        2
 70
     0
 39
0.003
 10
0.48163
 20
1.52239
 40
0.003
 41
0.003
 10
0.475406
 20
1.529339
 40
0.003
 41
0.003
  0
LWPOLYLINE
  5
4F3
100
AcDbEntity
  8
0
 62
   254
100
AcDbPolyline
 90
        2
 70
     0
 39
0.003
 10
0.475406
 20
1.529339
 40
0.003
 41
0.003
 10
-0.170189
 20
1.150508
 40
0.003
 41
0.003
  0
LWPOLYLINE
  5
4F4
100
AcDbEntity
  8
0
 62
   254
100
AcDbPolyline
 90
        2
 70
     0
 39
0.003
 10
-0.170189
 20
1.150508
 40
0.003
 41
0.003
 10
-0.163965
 20
1.143559
 40
0.003
 41
0.003
  0
LWPOLYLINE
  5
4F5
100
AcDbEntity
  8
0
 62
   254
100
AcDbPolyline
 90
        2
 70
     0
 39
0.003
 10
-0.170189
 20
1.150508
 40
0.003
 41
0.003
 10
0.475406
 20
1.529339
 40
0.003
 41
0.003
  0
LWPOLYLINE
  5
4F6
100
AcDbEntity
  8
0
 62
   254
100
AcDbPolyline
 90
        2
 70
     0
 39
0.003
 10
0.475406
 20
1.529339
 40
0.003
 41
0.003
 10
0.468614
 20
1.535815
 40
0.003
 41
0.003
  0
LWPOLYLINE
  5
4F7
100
AcDbEntity
  8
0
 62
   254
100
AcDbPolyline
 90
        2
 70
     0
 39
0.003
 10
0.468614
 20
1.535815
 40
0.003
 41
0.003
 10
-0.17698
 20
1.156984
 40
0.003
 41
0.003
  0
LWPOLYLINE
  5
4F8
100
AcDbEntity
  8
0
 62
   254
100
AcDbPolyline
 90
        2
 70
     0
 39
0.003
 10
-0.17698
 20
1.156984
 40
0.003
 41
0.003
 10
-0.170189
 20
1.150508
 40
0.003
 41
0.003
  0
LWPOLYLINE
  5
4F9
100
AcDbEntity
  8
0
 62
   254
100
AcDbPolyline
 90
        2
 70
     0
 39
0.003
 10
-0.17698
 20
1.156984
 40
0.003
 41
0.003
 10
0.468614
 20
1.535815
 40
0.003
 41
0.003
  0
LWPOLYLINE
  5
4FA
100
AcDbEntity
  8
0
 62
   254
100
AcDbPolyline
 90
        2
 70
     0
 39
0.003
 10
0.468614
 20
1.535815
 40
0.003
 41
0.003
 10
0.461283
 20
1.541752
 40
0.003
 41
0.003
  0
LWPOLYLINE
  5
4FB
100
AcDbEntity
  8
0
 62
   254
100
AcDbPolyline
 90
        2
 70
     0
 39
0.003
 10
0.461283
 20
1.541752
 40
0.003
 41
0.003
 10
-0.184311
 20
1.162921
 40
0.003
 41
0.003
  0
LWPOLYLINE
  5
4FC
100
AcDbEntity
  8
0
 62
   254
100
AcDbPolyline
 90
        2
 70
     0
 39
0.003
 10
-0.184311
 20
1.162921
 40
0.003
 41
0.003
 10
-0.17698
 20
1.156984
 40
0.003
 41
0.003
  0
LWPOLYLINE
  5
4FD
100
AcDbEntity
  8
0
 62
   254
100
AcDbPolyline
 90
        2
 70
     0
 39
0.003
 10
-0.184311
 20
1.162921
 40
0.003
 41
0.003
 10
0.461283
 20
1.541752
 40
0.003
 41
0.003
  0
LWPOLYLINE
  5
4FE
100
AcDbEntity
  8
0
 62
   254
100
AcDbPolyline
 90
        2
 70
     0
 39
0.003
 10
0.461283
 20
1.541752
 40
0.003
 41
0.003
 10
0.453413
 20
1.547122
 40
0.003
 41
0.003
  0
LWPOLYLINE
  5
4FF
100
AcDbEntity
  8
0
 62
   254
100
AcDbPolyline
 90
        2
 70
     0
 39
0.003
 10
0.453413
 20
1.547122
 40
0.003
 41
0.003
 10
-0.192181
 20
1.168291
 40
0.003
 41
0.003
  0
LWPOLYLINE
  5
500
100
AcDbEntity
  8
0
 62
   254
100
AcDbPolyline
 90
        2
 70
     0
 39
0.003
 10
-0.192181
 20
1.168291
 40
0.003
 41
0.003
 10
-0.184311
 20
1.162921
 40
0.003
 41
0.003
  0
LWPOLYLINE
  5
501
100
AcDbEntity
  8
0
 62
   254
100
AcDbPolyline
 90
        2
 70
     0
 39
0.003
 10
-0.192181
 20
1.168291
 40
0.003
 41
0.003
 10
0.453413
 20
1.547122
 40
0.003
 41
0.003
  0
LWPOLYLINE
  5
502
100
AcDbEntity
  8
0
 62
   254
100
AcDbPolyline
 90
        2
 70
     0
 39
0.003
 10
0.453413
 20
1.547122
 40
0.003
 41
0.003
 10
0.445028
 20
1.551862
 40
0.003
 41
0.003
  0
LWPOLYLINE
  5
503
100
AcDbEntity
  8
0
 62
   254
100
AcDbPolyline
 90
        2
 70
     0
 39
0.003
 10
0.445028
 20
1.551862
 40
0.003
 41
0.003
 10
-0.200567
 20
1.173031
 40
0.003
 41
0.003
  0
LWPOLYLINE
  5
504
100
AcDbEntity
  8
0
 62
   254
100
AcDbPolyline
 90
        2
 70
     0
 39
0.003
 10
-0.200567
 20
1.173031
 40
0.003
 41
0.003
 10
-0.192181
 20
1.168291
 40
0.003
 41
0.003
  0
LWPOLYLINE
  5
505
100
AcDbEntity
  8
0
 62
     9
100
AcDbPolyline
 90
        2
 70
     0
 39
0.003
 10
-0.200567
 20
1.173031
 40
0.003
 41
0.003
 10
0.445028
 20
1.551862
 40
0.003
 41
0.003
  0
LWPOLYLINE
  5
506
100
AcDbEntity
  8
0
 62
     9
100
AcDbPolyline
 90
        2
 70
     0
 39
0.003
 10
0.445028
 20
1.551862
 40
0.003
 41
0.003
 10
0.436126
 20
1.555929
 40
0.003
 41
0.003
  0
LWPOLYLINE
  5
507
100
AcDbEntity
  8
0
 62
     9
100
AcDbPolyline
 90
        2
 70
     0
 39
0.003
 10
0.436126
 20
1.555929
 40
0.003
 41
0.003
 10
-0.209469
 20
1.177098
 40
0.003
 41
0.003
  0
LWPOLYLINE
  5
508
100
AcDbEntity
  8
0
 62
     9
100
AcDbPolyline
 90
        2
 70
     0
 39
0.003
 10
-0.209469
 20
1.177098
 40
0.003
 41
0.003
 10
-0.200567
 20
1.173031
 40
0.003
 41
0.003
  0
LWPOLYLINE
  5
509
100
AcDbEntity
  8
0
 62
     9
100
AcDbPolyline
 90
        2
 70
     0
 39
0.003
 10
-0.209469
 20
1.177098
 40
0.003
 41
0.003
 10
0.436126
 20
1.555929
 40
0.003
 41
0.003
  0
LWPOLYLINE
  5
50A
100
AcDbEntity
  8
0
 62
     9
100
AcDbPolyline
 90
        2
 70
     0
 39
0.003
 10
0.436126
 20
1.555929
 40
0.003
 41
0.003
 10
0.427087
 20
1.559524
 40
0.003
 41
0.003
  0
LWPOLYLINE
  5
50B
100
AcDbEntity
  8
0
 62
     9
100
AcDbPolyline
 90
        2
 70
     0
 39
0.003
 10
0.427087
 20
1.559524
 40
0.003
 41
0.003
 10
-0.218508
 20
1.180693
 40
0.003
 41
0.003
  0
LWPOLYLINE
  5
50C
100
AcDbEntity
  8
0
 62
     9
100
AcDbPolyline
 90
        2
 70
     0
 39
0.003
 10
-0.218508
 20
1.180693
 40
0.003
 41
0.003
 10
-0.209469
 20
1.177098
 40
0.003
 41
0.003
  0
LWPOLYLINE
  5
50D
100
AcDbEntity
  8
0
 62
     9
100
AcDbPolyline
 90
        2
 70
     0
 39
0.003
 10
-0.218508
 20
1.180693
 40
0.003
 41
0.003
 10
0.427087
 20
1.559524
 40
0.003
 41
0.003
  0
LWPOLYLINE
  5
50E
100
AcDbEntity
  8
0
 62
     9
100
AcDbPolyline
 90
        2
 70
     0
 39
0.003
 10
0.427087
 20
1.559524
 40
0.003
 41
0.003
 10
0.41824
 20
1.562929
 40
0.003
 41
0.003
  0
LWPOLYLINE
  5
50F
100
AcDbEntity
  8
0
 62
     9
100
AcDbPolyline
 90
        2
 70
     0
 39
0.003
 10
0.41824
 20
1.562929
 40
0.003
 41
0.003
 10
-0.227354
 20
1.184098
 40
0.003
 41
0.003
  0
LWPOLYLINE
  5
510
100
AcDbEntity
  8
0
 62
     9
100
AcDbPolyline
 90
        2
 70
     0
 39
0.003
 10
-0.227354
 20
1.184098
 40
0.003
 41
0.003
 10
-0.218508
 20
1.180693
 40
0.003
 41
0.003
  0
LWPOLYLINE
  5
511
100
AcDbEntity
  8
0
 62
     9
100
AcDbPolyline
 90
        2
 70
     0
 39
0.003
 10
-0.227354
 20
1.184098
 40
0.003
 41
0.003
 10
0.41824
 20
1.562929
 40
0.003
 41
0.003
  0
LWPOLYLINE
  5
512
100
AcDbEntity
  8
0
 62
     9
100
AcDbPolyline
 90
        2
 70
     0
 39
0.003
 10
0.41824
 20
1.562929
 40
0.003
 41
0.003
 10
0.409598
 20
1.566169
 40
0.003
 41
0.003
  0
LWPOLYLINE
  5
513
100
AcDbEntity
  8
0
 62
     9
100
AcDbPolyline
 90
        2
 70
     0
 39
0.003
 10
0.409598
 20
1.566169
 40
0.003
 41
0.003
 10
-0.235996
 20
1.187339
 40
0.003
 41
0.003
  0
LWPOLYLINE
  5
514
100
AcDbEntity
  8
0
 62
     9
100
AcDbPolyline
 90
        2
 70
     0
 39
0.003
 10
-0.235996
 20
1.187339
 40
0.003
 41
0.003
 10
-0.227354
 20
1.184098
 40
0.003
 41
0.003
  0
LWPOLYLINE
  5
515
100
AcDbEntity
  8
0
 62
     9
100
AcDbPolyline
 90
        2
 70
     0
 39
0.003
 10
-0.235996
 20
1.187339
 40
0.003
 41
0.003
 10
0.409598
 20
1.566169
 40
0.003
 41
0.003
  0
LWPOLYLINE
  5
516
100
AcDbEntity
  8
0
 62
     9
100
AcDbPolyline
 90
        2
 70
     0
 39
0.003
 10
0.409598
 20
1.566169
 40
0.003
 41
0.003
 10
0.40115
 20
1.569283
 40
0.003
 41
0.003
  0
LWPOLYLINE
  5
517
100
AcDbEntity
  8
0
 62
     9
100
AcDbPolyline
 90
        2
 70
     0
 39
0.003
 10
0.40115
 20
1.569283
 40
0.003
 41
0.003
 10
-0.244445
 20
1.190453
 40
0.003
 41
0.003
  0
LWPOLYLINE
  5
518
100
AcDbEntity
  8
0
 62
     9
100
AcDbPolyline
 90
        2
 70
     0
 39
0.003
 10
-0.244445
 20
1.190453
 40
0.003
 41
0.003
 10
-0.235996
 20
1.187339
 40
0.003
 41
0.003
  0
LWPOLYLINE
  5
519
100
AcDbEntity
  8
0
 62
     9
100
AcDbPolyline
 90
        2
 70
     0
 39
0.003
 10
-0.244445
 20
1.190453
 40
0.003
 41
0.003
 10
0.40115
 20
1.569283
 40
0.003
 41
0.003
  0
LWPOLYLINE
  5
51A
100
AcDbEntity
  8
0
 62
     9
100
AcDbPolyline
 90
        2
 70
     0
 39
0.003
 10
0.40115
 20
1.569283
 40
0.003
 41
0.003
 10
0.392909
 20
1.572287
 40
0.003
 41
0.003
  0
LWPOLYLINE
  5
51B
100
AcDbEntity
  8
0
 62
     9
100
AcDbPolyline
 90
        2
 70
     0
 39
0.003
 10
0.392909
 20
1.572287
 40
0.003
 41
0.003
 10
-0.252685
 20
1.193457
 40
0.003
 41
0.003
  0
LWPOLYLINE
  5
51C
100
AcDbEntity
  8
0
 62
     9
100
AcDbPolyline
 90
        2
 70
     0
 39
0.003
 10
-0.252685
 20
1.193457
 40
0.003
 41
0.003
 10
-0.244445
 20
1.190453
 40
0.003
 41
0.003
  0
LWPOLYLINE
  5
51D
100
AcDbEntity
  8
0
 62
     9
100
AcDbPolyline
 90
        2
 70
     0
 39
0.003
 10
-0.252685
 20
1.193457
 40
0.003
 41
0.003
 10
0.392909
 20
1.572287
 40
0.003
 41
0.003
  0
LWPOLYLINE
  5
51E
100
AcDbEntity
  8
0
 62
     9
100
AcDbPolyline
 90
        2
 70
     0
 39
0.003
 10
0.392909
 20
1.572287
 40
0.003
 41
0.003
 10
0.384866
 20
1.575232
 40
0.003
 41
0.003
  0
LWPOLYLINE
  5
51F
100
AcDbEntity
  8
0
 62
     9
100
AcDbPolyline
 90
        2
 70
     0
 39
0.003
 10
0.384866
 20
1.575232
 40
0.003
 41
0.003
 10
-0.260728
 20
1.196402
 40
0.003
 41
0.003
  0
LWPOLYLINE
  5
520
100
AcDbEntity
  8
0
 62
     9
100
AcDbPolyline
 90
        2
 70
     0
 39
0.003
 10
-0.260728
 20
1.196402
 40
0.003
 41
0.003
 10
-0.252685
 20
1.193457
 40
0.003
 41
0.003
  0
LWPOLYLINE
  5
521
100
AcDbEntity
  8
0
 62
     9
100
AcDbPolyline
 90
        2
 70
     0
 39
0.003
 10
-0.260728
 20
1.196402
 40
0.003
 41
0.003
 10
0.384866
 20
1.575232
 40
0.003
 41
0.003
  0
LWPOLYLINE
  5
522
100
AcDbEntity
  8
0
 62
     9
100
AcDbPolyline
 90
        2
 70
     0
 39
0.003
 10
0.384866
 20
1.575232
 40
0.003
 41
0.003
 10
0.377028
 20
1.578138
 40
0.003
 41
0.003
  0
LWPOLYLINE
  5
523
100
AcDbEntity
  8
0
 62
     9
100
AcDbPolyline
 90
        2
 70
     0
 39
0.003
 10
0.377028
 20
1.578138
 40
0.003
 41
0.003
 10
-0.268567
 20
1.199307
 40
0.003
 41
0.003
  0
LWPOLYLINE
  5
524
100
AcDbEntity
  8
0
 62
     9
100
AcDbPolyline
 90
        2
 70
     0
 39
0.003
 10
-0.268567
 20
1.199307
 40
0.003
 41
0.003
 10
-0.260728
 20
1.196402
 40
0.003
 41
0.003
  0
LWPOLYLINE
  5
525
100
AcDbEntity
  8
0
 62
     9
100
AcDbPolyline
 90
        2
 70
     0
 39
0.003
 10
-0.268567
 20
1.199307
 40
0.003
 41
0.003
 10
0.377028
 20
1.578138
 40
0.003
 41
0.003
  0
LWPOLYLINE
  5
526
100
AcDbEntity
  8
0
 62
     9
100
AcDbPolyline
 90
        2
 70
     0
 39
0.003
 10
0.377028
 20
1.578138
 40
0.003
 41
0.003
 10
0.369386
 20
1.581047
 40
0.003
 41
0.003
  0
LWPOLYLINE
  5
527
100
AcDbEntity
  8
0
 62
     9
100
AcDbPolyline
 90
        2
 70
     0
 39
0.003
 10
0.369386
 20
1.581047
 40
0.003
 41
0.003
 10
-0.276209
 20
1.202217
 40
0.003
 41
0.003
  0
LWPOLYLINE
  5
528
100
AcDbEntity
  8
0
 62
     9
100
AcDbPolyline
 90
        2
 70
     0
 39
0.003
 10
-0.276209
 20
1.202217
 40
0.003
 41
0.003
 10
-0.268567
 20
1.199307
 40
0.003
 41
0.003
  0
LWPOLYLINE
  5
529
100
AcDbEntity
  8
0
 62
     9
100
AcDbPolyline
 90
        2
 70
     0
 39
0.003
 10
-0.276209
 20
1.202217
 40
0.003
 41
0.003
 10
0.369386
 20
1.581047
 40
0.003
 41
0.003
  0
LWPOLYLINE
  5
52A
100
AcDbEntity
  8
0
 62
     9
100
AcDbPolyline
 90
        2
 70
     0
 39
0.003
 10
0.369386
 20
1.581047
 40
0.003
 41
0.003
 10
0.361957
 20
1.583969
 40
0.003
 41
0.003
  0
LWPOLYLINE
  5
52B
100
AcDbEntity
  8
0
 62
     9
100
AcDbPolyline
 90
        2
 70
     0
 39
0.003
 10
0.361957
 20
1.583969
 40
0.003
 41
0.003
 10
-0.283638
 20
1.205138
 40
0.003
 41
0.003
  0
LWPOLYLINE
  5
52C
100
AcDbEntity
  8
0
 62
     9
100
AcDbPolyline
 90
        2
 70
     0
 39
0.003
 10
-0.283638
 20
1.205138
 40
0.003
 41
0.003
 10
-0.276209
 20
1.202217
 40
0.003
 41
0.003
  0
LWPOLYLINE
  5
52D
100
AcDbEntity
  8
0
 62
     9
100
AcDbPolyline
 90
        2
 70
     0
 39
0.003
 10
-0.283638
 20
1.205138
 40
0.003
 41
0.003
 10
0.361957
 20
1.583969
 40
0.003
 41
0.003
  0
LWPOLYLINE
  5
52E
100
AcDbEntity
  8
0
 62
     9
100
AcDbPolyline
 90
        2
 70
     0
 39
0.003
 10
0.361957
 20
1.583969
 40
0.003
 41
0.003
 10
0.354724
 20
1.586957
 40
0.003
 41
0.003
  0
LWPOLYLINE
  5
52F
100
AcDbEntity
  8
0
 62
     9
100
AcDbPolyline
 90
        2
 70
     0
 39
0.003
 10
0.354724
 20
1.586957
 40
0.003
 41
0.003
 10
-0.29087
 20
1.208126
 40
0.003
 41
0.003
  0
LWPOLYLINE
  5
530
100
AcDbEntity
  8
0
 62
     9
100
AcDbPolyline
 90
        2
 70
     0
 39
0.003
 10
-0.29087
 20
1.208126
 40
0.003
 41
0.003
 10
-0.283638
 20
1.205138
 40
0.003
 41
0.003
  0
LWPOLYLINE
  5
531
100
AcDbEntity
  8
0
 62
     9
100
AcDbPolyline
 90
        2
 70
     0
 39
0.003
 10
-0.29087
 20
1.208126
 40
0.003
 41
0.003
 10
0.354724
 20
1.586957
 40
0.003
 41
0.003
  0
LWPOLYLINE
  5
532
100
AcDbEntity
  8
0
 62
     9
100
AcDbPolyline
 90
        2
 70
     0
 39
0.003
 10
0.354724
 20
1.586957
 40
0.003
 41
0.003
 10
0.347697
 20
1.590031
 40
0.003
 41
0.003
  0
LWPOLYLINE
  5
533
100
AcDbEntity
  8
0
 62
     9
100
AcDbPolyline
 90
        2
 70
     0
 39
0.003
 10
0.347697
 20
1.590031
 40
0.003
 41
0.003
 10
-0.297898
 20
1.211201
 40
0.003
 41
0.003
  0
LWPOLYLINE
  5
534
100
AcDbEntity
  8
0
 62
     9
100
AcDbPolyline
 90
        2
 70
     0
 39
0.003
 10
-0.297898
 20
1.211201
 40
0.003
 41
0.003
 10
-0.29087
 20
1.208126
 40
0.003
 41
0.003
  0
LWPOLYLINE
  5
535
100
AcDbEntity
  8
0
 62
     9
100
AcDbPolyline
 90
        2
 70
     0
 39
0.003
 10
-0.297898
 20
1.211201
 40
0.003
 41
0.003
 10
0.347697
 20
1.590031
 40
0.003
 41
0.003
  0
LWPOLYLINE
  5
536
100
AcDbEntity
  8
0
 62
     9
100
AcDbPolyline
 90
        2
 70
     0
 39
0.003
 10
0.347697
 20
1.590031
 40
0.003
 41
0.003
 10
0.34087
 20
1.593236
 40
0.003
 41
0.003
  0
LWPOLYLINE
  5
537
100
AcDbEntity
  8
0
 62
     9
100
AcDbPolyline
 90
        2
 70
     0
 39
0.003
 10
0.34087
 20
1.593236
 40
0.003
 41
0.003
 10
-0.304724
 20
1.214406
 40
0.003
 41
0.003
  0
LWPOLYLINE
  5
538
100
AcDbEntity
  8
0
 62
     9
100
AcDbPolyline
 90
        2
 70
     0
 39
0.003
 10
-0.304724
 20
1.214406
 40
0.003
 41
0.003
 10
-0.297898
 20
1.211201
 40
0.003
 41
0.003
  0
LWPOLYLINE
  5
539
100
AcDbEntity
  8
0
 62
     9
100
AcDbPolyline
 90
        2
 70
     0
 39
0.003
 10
-0.304724
 20
1.214406
 40
0.003
 41
0.003
 10
0.34087
 20
1.593236
 40
0.003
 41
0.003
  0
LWPOLYLINE
  5
53A
100
AcDbEntity
  8
0
 62
     9
100
AcDbPolyline
 90
        2
 70
     0
 39
0.003
 10
0.34087
 20
1.593236
 40
0.003
 41
0.003
 10
0.334256
 20
1.596587
 40
0.003
 41
0.003
  0
LWPOLYLINE
  5
53B
100
AcDbEntity
  8
0
 62
     9
100
AcDbPolyline
 90
        2
 70
     0
 39
0.003
 10
0.334256
 20
1.596587
 40
0.003
 41
0.003
 10
-0.311339
 20
1.217756
 40
0.003
 41
0.003
  0
LWPOLYLINE
  5
53C
100
AcDbEntity
  8
0
 62
     9
100
AcDbPolyline
 90
        2
 70
     0
 39
0.003
 10
-0.311339
 20
1.217756
 40
0.003
 41
0.003
 10
-0.304724
 20
1.214406
 40
0.003
 41
0.003
  0
LWPOLYLINE
  5
53D
100
AcDbEntity
  8
0
 62
   254
100
AcDbPolyline
 90
        2
 70
     0
 39
0.003
 10
-0.311339
 20
1.217756
 40
0.003
 41
0.003
 10
0.334256
 20
1.596587
 40
0.003
 41
0.003
  0
LWPOLYLINE
  5
53E
100
AcDbEntity
  8
0
 62
   254
100
AcDbPolyline
 90
        2
 70
     0
 39
0.003
 10
0.334256
 20
1.596587
 40
0.003
 41
0.003
 10
0.327843
 20
1.600126
 40
0.003
 41
0.003
  0
LWPOLYLINE
  5
53F
100
AcDbEntity
  8
0
 62
   254
100
AcDbPolyline
 90
        2
 70
     0
 39
0.003
 10
0.327843
 20
1.600126
 40
0.003
 41
0.003
 10
-0.317752
 20
1.221295
 40
0.003
 41
0.003
  0
LWPOLYLINE
  5
540
100
AcDbEntity
  8
0
 62
   254
100
AcDbPolyline
 90
        2
 70
     0
 39
0.003
 10
-0.317752
 20
1.221295
 40
0.003
 41
0.003
 10
-0.311339
 20
1.217756
 40
0.003
 41
0.003
  0
LWPOLYLINE
  5
541
100
AcDbEntity
  8
0
 62
   254
100
AcDbPolyline
 90
        2
 70
     0
 39
0.003
 10
-0.317752
 20
1.221295
 40
0.003
 41
0.003
 10
0.327843
 20
1.600126
 40
0.003
 41
0.003
  0
LWPOLYLINE
  5
542
100
AcDbEntity
  8
0
 62
   254
100
AcDbPolyline
 90
        2
 70
     0
 39
0.003
 10
0.327843
 20
1.600126
 40
0.003
 41
0.003
 10
0.321634
 20
1.603878
 40
0.003
 41
0.003
  0
LWPOLYLINE
  5
543
100
AcDbEntity
  8
0
 62
   254
100
AcDbPolyline
 90
        2
 70
     0
 39
0.003
 10
0.321634
 20
1.603878
 40
0.003
 41
0.003
 10
-0.323961
 20
1.225047
 40
0.003
 41
0.003
  0
LWPOLYLINE
  5
544
100
AcDbEntity
  8
0
 62
   254
100
AcDbPolyline
 90
        2
 70
     0
 39
0.003
 10
-0.323961
 20
1.225047
 40
0.003
 41
0.003
 10
-0.317752
 20
1.221295
 40
0.003
 41
0.003
  0
LWPOLYLINE
  5
545
100
AcDbEntity
  8
0
 62
   254
100
AcDbPolyline
 90
        2
 70
     0
 39
0.003
 10
-0.323961
 20
1.225047
 40
0.003
 41
0.003
 10
0.321634
 20
1.603878
 40
0.003
 41
0.003
  0
LWPOLYLINE
  5
546
100
AcDbEntity
  8
0
 62
   254
100
AcDbPolyline
 90
        2
 70
     0
 39
0.003
 10
0.321634
 20
1.603878
 40
0.003
 41
0.003
 10
0.31563
 20
1.607886
 40
0.003
 41
0.003
  0
LWPOLYLINE
  5
547
100
AcDbEntity
  8
0
 62
   254
100
AcDbPolyline
 90
        2
 70
     0
 39
0.003
 10
0.31563
 20
1.607886
 40
0.003
 41
0.003
 10
-0.329965
 20
1.229055
 40
0.003
 41
0.003
  0
LWPOLYLINE
  5
548
100
AcDbEntity
  8
0
 62
   254
100
AcDbPolyline
 90
        2
 70
     0
 39
0.003
 10
-0.329965
 20
1.229055
 40
0.003
 41
0.003
 10
-0.323961
 20
1.225047
 40
0.003
 41
0.003
  0
LWPOLYLINE
  5
549
100
AcDbEntity
  8
0
 62
   254
100
AcDbPolyline
 90
        2
 70
     0
 39
0.003
 10
-0.329965
 20
1.229055
 40
0.003
 41
0.003
 10
0.31563
 20
1.607886
 40
0.003
 41
0.003
  0
LWPOLYLINE
  5
54A
100
AcDbEntity
  8
0
 62
   254
100
AcDbPolyline
 90
        2
 70
     0
 39
0.003
 10
0.31563
 20
1.607886
 40
0.003
 41
0.003
 10
0.309843
 20
1.612161
 40
0.003
 41
0.003
  0
LWPOLYLINE
  5
54B
100
AcDbEntity
  8
0
 62
   254
100
AcDbPolyline
 90
        2
 70
     0
 39
0.003
 10
0.309843
 20
1.612161
 40
0.003
 41
0.003
 10
-0.335752
 20
1.233331
 40
0.003
 41
0.003
  0
LWPOLYLINE
  5
54C
100
AcDbEntity
  8
0
 62
   254
100
AcDbPolyline
 90
        2
 70
     0
 39
0.003
 10
-0.335752
 20
1.233331
 40
0.003
 41
0.003
 10
-0.329965
 20
1.229055
 40
0.003
 41
0.003
  0
LWPOLYLINE
  5
54D
100
AcDbEntity
  8
0
 62
   254
100
AcDbPolyline
 90
        2
 70
     0
 39
0.003
 10
-0.335752
 20
1.233331
 40
0.003
 41
0.003
 10
0.309843
 20
1.612161
 40
0.003
 41
0.003
  0
LWPOLYLINE
  5
54E
100
AcDbEntity
  8
0
 62
   254
100
AcDbPolyline
 90
        2
 70
     0
 39
0.003
 10
0.309843
 20
1.612161
 40
0.003
 41
0.003
 10
0.304256
 20
1.616752
 40
0.003
 41
0.003
  0
LWPOLYLINE
  5
54F
100
AcDbEntity
  8
0
 62
   254
100
AcDbPolyline
 90
        2
 70
     0
 39
0.003
 10
0.304256
 20
1.616752
 40
0.003
 41
0.003
 10
-0.341339
 20
1.237921
 40
0.003
 41
0.003
  0
LWPOLYLINE
  5
550
100
AcDbEntity
  8
0
 62
   254
100
AcDbPolyline
 90
        2
 70
     0
 39
0.003
 10
-0.341339
 20
1.237921
 40
0.003
 41
0.003
 10
-0.335752
 20
1.233331
 40
0.003
 41
0.003
  0
LWPOLYLINE
  5
551
100
AcDbEntity
  8
0
 62
   254
100
AcDbPolyline
 90
        2
 70
     0
 39
0.003
 10
-0.341339
 20
1.237921
 40
0.003
 41
0.003
 10
0.304256
 20
1.616752
 40
0.003
 41
0.003
  0
LWPOLYLINE
  5
552
100
AcDbEntity
  8
0
 62
   254
100
AcDbPolyline
 90
        2
 70
     0
 39
0.003
 10
0.304256
 20
1.616752
 40
0.003
 41
0.003
 10
0.298882
 20
1.621685
 40
0.003
 41
0.003
  0
LWPOLYLINE
  5
553
100
AcDbEntity
  8
0
 62
   254
100
AcDbPolyline
 90
        2
 70
     0
 39
0.003
 10
0.298882
 20
1.621685
 40
0.003
 41
0.003
 10
-0.346713
 20
1.242854
 40
0.003
 41
0.003
  0
LWPOLYLINE
  5
554
100
AcDbEntity
  8
0
 62
   254
100
AcDbPolyline
 90
        2
 70
     0
 39
0.003
 10
-0.346713
 20
1.242854
 40
0.003
 41
0.003
 10
-0.341339
 20
1.237921
 40
0.003
 41
0.003
  0
LWPOLYLINE
  5
555
100
AcDbEntity
  8
0
 62
   254
100
AcDbPolyline
 90
        2
 70
     0
 39
0.003
 10
-0.346713
 20
1.242854
 40
0.003
 41
0.003
 10
0.298882
 20
1.621685
 40
0.003
 41
0.003
  0
LWPOLYLINE
  5
556
100
AcDbEntity
  8
0
 62
   254
100
AcDbPolyline
 90
        2
 70
     0
 39
0.003
 10
0.298882
 20
1.621685
 40
0.003
 41
0.003
 10
0.293709
 20
1.627
 40
0.003
 41
0.003
  0
LWPOLYLINE
  5
557
100
AcDbEntity
  8
0
 62
   254
100
AcDbPolyline
 90
        2
 70
     0
 39
0.003
 10
0.293709
 20
1.627
 40
0.003
 41
0.003
 10
-0.351886
 20
1.248169
 40
0.003
 41
0.003
  0
LWPOLYLINE
  5
558
100
AcDbEntity
  8
0
 62
   254
100
AcDbPolyline
 90
        2
 70
     0
 39
0.003
 10
-0.351886
 20
1.248169
 40
0.003
 41
0.003
 10
-0.346713
 20
1.242854
 40
0.003
 41
0.003
  0
LWPOLYLINE
  5
559
100
AcDbEntity
  8
0
 62
   254
100
AcDbPolyline
 90
        2
 70
     0
 39
0.003
 10
-0.351886
 20
1.248169
 40
0.003
 41
0.003
 10
0.293709
 20
1.627
 40
0.003
 41
0.003
  0
LWPOLYLINE
  5
55A
100
AcDbEntity
  8
0
 62
   254
100
AcDbPolyline
 90
        2
 70
     0
 39
0.003
 10
0.293709
 20
1.627
 40
0.003
 41
0.003
 10
0.288752
 20
1.632709
 40
0.003
 41
0.003
  0
LWPOLYLINE
  5
55B
100
AcDbEntity
  8
0
 62
   254
100
AcDbPolyline
 90
        2
 70
     0
 39
0.003
 10
0.288752
 20
1.632709
 40
0.003
 41
0.003
 10
-0.356843
 20
1.253878
 40
0.003
 41
0.003
  0
LWPOLYLINE
  5
55C
100
AcDbEntity
  8
0
 62
   254
100
AcDbPolyline
 90
        2
 70
     0
 39
0.003
 10
-0.356843
 20
1.253878
 40
0.003
 41
0.003
 10
-0.351886
 20
1.248169
 40
0.003
 41
0.003
  0
LWPOLYLINE
  5
55D
100
AcDbEntity
  8
0
 62
   254
100
AcDbPolyline
 90
        2
 70
     0
 39
0.003
 10
-0.356843
 20
1.253878
 40
0.003
 41
0.003
 10
0.288752
 20
1.632709
 40
0.003
 41
0.003
  0
LWPOLYLINE
  5
55E
100
AcDbEntity
  8
0
 62
   254
100
AcDbPolyline
 90
        2
 70
     0
 39
0.003
 10
0.288752
 20
1.632709
 40
0.003
 41
0.003
 10
0.284
 20
1.638866
 40
0.003
 41
0.003
  0
LWPOLYLINE
  5
55F
100
AcDbEntity
  8
0
 62
   254
100
AcDbPolyline
 90
        2
 70
     0
 39
0.003
 10
0.284
 20
1.638866
 40
0.003
 41
0.003
 10
-0.361594
 20
1.260035
 40
0.003
 41
0.003
  0
LWPOLYLINE
  5
560
100
AcDbEntity
  8
0
 62
   254
100
AcDbPolyline
 90
        2
 70
     0
 39
0.003
 10
-0.361594
 20
1.260035
 40
0.003
 41
0.003
 10
-0.356843
 20
1.253878
 40
0.003
 41
0.003
  0
LWPOLYLINE
  5
561
100
AcDbEntity
  8
0
 62
   254
100
AcDbPolyline
 90
        2
 70
     0
 39
0.003
 10
-0.361594
 20
1.260035
 40
0.003
 41
0.003
 10
0.284
 20
1.638866
 40
0.003
 41
0.003
  0
LWPOLYLINE
  5
562
100
AcDbEntity
  8
0
 62
   254
100
AcDbPolyline
 90
        2
 70
     0
 39
0.003
 10
0.284
 20
1.638866
 40
0.003
 41
0.003
 10
0.279461
 20
1.645488
 40
0.003
 41
0.003
  0
LWPOLYLINE
  5
563
100
AcDbEntity
  8
0
 62
   254
100
AcDbPolyline
 90
        2
 70
     0
 39
0.003
 10
0.279461
 20
1.645488
 40
0.003
 41
0.003
 10
-0.366134
 20
1.266657
 40
0.003
 41
0.003
  0
LWPOLYLINE
  5
564
100
AcDbEntity
  8
0
 62
   254
100
AcDbPolyline
 90
        2
 70
     0
 39
0.003
 10
-0.366134
 20
1.266657
 40
0.003
 41
0.003
 10
-0.361594
 20
1.260035
 40
0.003
 41
0.003
  0
LWPOLYLINE
  5
565
100
AcDbEntity
  8
0
 62
   254
100
AcDbPolyline
 90
        2
 70
     0
 39
0.003
 10
-0.366134
 20
1.266657
 40
0.003
 41
0.003
 10
0.279461
 20
1.645488
 40
0.003
 41
0.003
  0
LWPOLYLINE
  5
566
100
AcDbEntity
  8
0
 62
   254
100
AcDbPolyline
 90
        2
 70
     0
 39
0.003
 10
0.279461
 20
1.645488
 40
0.003
 41
0.003
 10
0.275126
 20
1.652618
 40
0.003
 41
0.003
  0
LWPOLYLINE
  5
567
100
AcDbEntity
  8
0
 62
   254
100
AcDbPolyline
 90
        2
 70
     0
 39
0.003
 10
0.275126
 20
1.652618
 40
0.003
 41
0.003
 10
-0.370469
 20
1.273787
 40
0.003
 41
0.003
  0
LWPOLYLINE
  5
568
100
AcDbEntity
  8
0
 62
   254
100
AcDbPolyline
 90
        2
 70
     0
 39
0.003
 10
-0.370469
 20
1.273787
 40
0.003
 41
0.003
 10
-0.366134
 20
1.266657
 40
0.003
 41
0.003
  0
LWPOLYLINE
  5
569
100
AcDbEntity
  8
0
 62
   254
100
AcDbPolyline
 90
        2
 70
     0
 39
0.003
 10
-0.370469
 20
1.273787
 40
0.003
 41
0.003
 10
0.275126
 20
1.652618
 40
0.003
 41
0.003
  0
LWPOLYLINE
  5
56A
100
AcDbEntity
  8
0
 62
   254
100
AcDbPolyline
 90
        2
 70
     0
 39
0.003
 10
0.275126
 20
1.652618
 40
0.003
 41
0.003
 10
0.271016
 20
1.660268
 40
0.003
 41
0.003
  0
LWPOLYLINE
  5
56B
100
AcDbEntity
  8
0
 62
   254
100
AcDbPolyline
 90
        2
 70
     0
 39
0.003
 10
0.271016
 20
1.660268
 40
0.003
 41
0.003
 10
-0.374579
 20
1.281437
 40
0.003
 41
0.003
  0
LWPOLYLINE
  5
56C
100
AcDbEntity
  8
0
 62
   254
100
AcDbPolyline
 90
        2
 70
     0
 39
0.003
 10
-0.374579
 20
1.281437
 40
0.003
 41
0.003
 10
-0.370469
 20
1.273787
 40
0.003
 41
0.003
  0
LWPOLYLINE
  5
56D
100
AcDbEntity
  8
0
 62
   254
100
AcDbPolyline
 90
        2
 70
     0
 39
0.003
 10
-0.374579
 20
1.281437
 40
0.003
 41
0.003
 10
0.271016
 20
1.660268
 40
0.003
 41
0.003
  0
LWPOLYLINE
  5
56E
100
AcDbEntity
  8
0
 62
   254
100
AcDbPolyline
 90
        2
 70
     0
 39
0.003
 10
0.271016
 20
1.660268
 40
0.003
 41
0.003
 10
0.267106
 20
1.668492
 40
0.003
 41
0.003
  0
LWPOLYLINE
  5
56F
100
AcDbEntity
  8
0
 62
   254
100
AcDbPolyline
 90
        2
 70
     0
 39
0.003
 10
0.267106
 20
1.668492
 40
0.003
 41
0.003
 10
-0.378488
 20
1.289661
 40
0.003
 41
0.003
  0
LWPOLYLINE
  5
570
100
AcDbEntity
  8
0
 62
   254
100
AcDbPolyline
 90
        2
 70
     0
 39
0.003
 10
-0.378488
 20
1.289661
 40
0.003
 41
0.003
 10
-0.374579
 20
1.281437
 40
0.003
 41
0.003
  0
LWPOLYLINE
  5
571
100
AcDbEntity
  8
0
 62
   254
100
AcDbPolyline
 90
        2
 70
     0
 39
0.003
 10
-0.378488
 20
1.289661
 40
0.003
 41
0.003
 10
0.267106
 20
1.668492
 40
0.003
 41
0.003
  0
LWPOLYLINE
  5
572
100
AcDbEntity
  8
0
 62
   254
100
AcDbPolyline
 90
        2
 70
     0
 39
0.003
 10
0.267106
 20
1.668492
 40
0.003
 41
0.003
 10
0.263413
 20
1.677307
 40
0.003
 41
0.003
  0
LWPOLYLINE
  5
573
100
AcDbEntity
  8
0
 62
   254
100
AcDbPolyline
 90
        2
 70
     0
 39
0.003
 10
0.263413
 20
1.677307
 40
0.003
 41
0.003
 10
-0.382181
 20
1.298476
 40
0.003
 41
0.003
  0
LWPOLYLINE
  5
574
100
AcDbEntity
  8
0
 62
   254
100
AcDbPolyline
 90
        2
 70
     0
 39
0.003
 10
-0.382181
 20
1.298476
 40
0.003
 41
0.003
 10
-0.378488
 20
1.289661
 40
0.003
 41
0.003
  0
LWPOLYLINE
  5
575
100
AcDbEntity
  8
0
 62
   254
100
AcDbPolyline
 90
        2
 70
     0
 39
0.003
 10
-0.382181
 20
1.298476
 40
0.003
 41
0.003
 10
0.263413
 20
1.677307
 40
0.003
 41
0.003
  0
LWPOLYLINE
  5
576
100
AcDbEntity
  8
0
 62
   254
100
AcDbPolyline
 90
        2
 70
     0
 39
0.003
 10
0.263413
 20
1.677307
 40
0.003
 41
0.003
 10
0.259929
 20
1.686756
 40
0.003
 41
0.003
  0
LWPOLYLINE
  5
577
100
AcDbEntity
  8
0
 62
   254
100
AcDbPolyline
 90
        2
 70
     0
 39
0.003
 10
0.259929
 20
1.686756
 40
0.003
 41
0.003
 10
-0.385665
 20
1.307925
 40
0.003
 41
0.003
  0
LWPOLYLINE
  5
578
100
AcDbEntity
  8
0
 62
   254
100
AcDbPolyline
 90
        2
 70
     0
 39
0.003
 10
-0.385665
 20
1.307925
 40
0.003
 41
0.003
 10
-0.382181
 20
1.298476
 40
0.003
 41
0.003
  0
LWPOLYLINE
  5
579
100
AcDbEntity
  8
0
 62
   254
100
AcDbPolyline
 90
        2
 70
     0
 39
0.003
 10
-0.385665
 20
1.307925
 40
0.003
 41
0.003
 10
0.259929
 20
1.686756
 40
0.003
 41
0.003
  0
LWPOLYLINE
  5
57A
100
AcDbEntity
  8
0
 62
   254
100
AcDbPolyline
 90
        2
 70
     0
 39
0.003
 10
0.259929
 20
1.686756
 40
0.003
 41
0.003
 10
0.256665
 20
1.696854
 40
0.003
 41
0.003
  0
LWPOLYLINE
  5
57B
100
AcDbEntity
  8
0
 62
   254
100
AcDbPolyline
 90
        2
 70
     0
 39
0.003
 10
0.256665
 20
1.696854
 40
0.003
 41
0.003
 10
-0.388929
 20
1.318024
 40
0.003
 41
0.003
  0
LWPOLYLINE
  5
57C
100
AcDbEntity
  8
0
 62
   254
100
AcDbPolyline
 90
        2
 70
     0
 39
0.003
 10
-0.388929
 20
1.318024
 40
0.003
 41
0.003
 10
-0.385665
 20
1.307925
 40
0.003
 41
0.003
  0
LWPOLYLINE
  5
57D
100
AcDbEntity
  8
0
 62
   254
100
AcDbPolyline
 90
        2
 70
     0
 39
0.003
 10
-0.388929
 20
1.318024
 40
0.003
 41
0.003
 10
0.256665
 20
1.696854
 40
0.003
 41
0.003
  0
LWPOLYLINE
  5
57E
100
AcDbEntity
  8
0
 62
   254
100
AcDbPolyline
 90
        2
 70
     0
 39
0.003
 10
0.256665
 20
1.696854
 40
0.003
 41
0.003
 10
0.253606
 20
1.70765
 40
0.003
 41
0.003
  0
LWPOLYLINE
  5
57F
100
AcDbEntity
  8
0
 62
   254
100
AcDbPolyline
 90
        2
 70
     0
 39
0.003
 10
0.253606
 20
1.70765
 40
0.003
 41
0.003
 10
-0.391988
 20
1.328819
 40
0.003
 41
0.003
  0
LWPOLYLINE
  5
580
100
AcDbEntity
  8
0
 62
   254
100
AcDbPolyline
 90
        2
 70
     0
 39
0.003
 10
-0.391988
 20
1.328819
 40
0.003
 41
0.003
 10
-0.388929
 20
1.318024
 40
0.003
 41
0.003
  0
LWPOLYLINE
  5
581
100
AcDbEntity
  8
0
 62
   254
100
AcDbPolyline
 90
        2
 70
     0
 39
0.003
 10
-0.391988
 20
1.328819
 40
0.003
 41
0.003
 10
0.253606
 20
1.70765
 40
0.003
 41
0.003
  0
LWPOLYLINE
  5
582
100
AcDbEntity
  8
0
 62
   254
100
AcDbPolyline
 90
        2
 70
     0
 39
0.003
 10
0.253606
 20
1.70765
 40
0.003
 41
0.003
 10
0.250764
 20
1.719165
 40
0.003
 41
0.003
  0
LWPOLYLINE
  5
583
100
AcDbEntity
  8
0
 62
   254
100
AcDbPolyline
 90
        2
 70
     0
 39
0.003
 10
0.250764
 20
1.719165
 40
0.003
 41
0.003
 10
-0.394831
 20
1.340335
 40
0.003
 41
0.003
  0
LWPOLYLINE
  5
584
100
AcDbEntity
  8
0
 62
   254
100
AcDbPolyline
 90
        2
 70
     0
 39
0.003
 10
-0.394831
 20
1.340335
 40
0.003
 41
0.003
 10
-0.391988
 20
1.328819
 40
0.003
 41
0.003
  0
LWPOLYLINE
  5
585
100
AcDbEntity
  8
0
 62
   254
100
AcDbPolyline
 90
        2
 70
     0
 39
0.003
 10
-0.394831
 20
1.340335
 40
0.003
 41
0.003
 10
0.250764
 20
1.719165
 40
0.003
 41
0.003
  0
LWPOLYLINE
  5
586
100
AcDbEntity
  8
0
 62
   254
100
AcDbPolyline
 90
        2
 70
     0
 39
0.003
 10
0.250764
 20
1.719165
 40
0.003
 41
0.003
 10
0.24813
 20
1.731441
 40
0.003
 41
0.003
  0
LWPOLYLINE
  5
587
100
AcDbEntity
  8
0
 62
   254
100
AcDbPolyline
 90
        2
 70
     0
 39
0.003
 10
0.24813
 20
1.731441
 40
0.003
 41
0.003
 10
-0.397465
 20
1.35261
 40
0.003
 41
0.003
  0
LWPOLYLINE
  5
588
100
AcDbEntity
  8
0
 62
   254
100
AcDbPolyline
 90
        2
 70
     0
 39
0.003
 10
-0.397465
 20
1.35261
 40
0.003
 41
0.003
 10
-0.394831
 20
1.340335
 40
0.003
 41
0.003
  0
LWPOLYLINE
  5
589
100
AcDbEntity
  8
0
 62
     0
100
AcDbPolyline
 90
        2
 70
     0
 39
0.003
 10
-0.186783
 20
0.974122
 40
0.003
 41
0.003
 10
0.458811
 20
1.352953
 40
0.003
 41
0.003
  0
LWPOLYLINE
  5
58A
100
AcDbEntity
  8
0
 62
     0
100
AcDbPolyline
 90
        2
 70
     0
 39
0.003
 10
0.458811
 20
1.352953
 40
0.003
 41
0.003
 10
0.467488
 20
1.358594
 40
0.003
 41
0.003
  0
LWPOLYLINE
  5
58B
100
AcDbEntity
  8
0
 62
     0
100
AcDbPolyline
 90
        2
 70
     0
 39
0.003
 10
0.467488
 20
1.358594
 40
0.003
 41
0.003
 10
0.475323
 20
1.364783
 40
0.003
 41
0.003
  0
LWPOLYLINE
  5
58C
100
AcDbEntity
  8
0
 62
     0
100
AcDbPolyline
 90
        2
 70
     0
 39
0.003
 10
0.475323
 20
1.364783
 40
0.003
 41
0.003
 10
0.482319
 20
1.371488
 40
0.003
 41
0.003
  0
LWPOLYLINE
  5
58D
100
AcDbEntity
  8
0
 62
     0
100
AcDbPolyline
 90
        2
 70
     0
 39
0.003
 10
0.482319
 20
1.371488
 40
0.003
 41
0.003
 10
0.488508
 20
1.378638
 40
0.003
 41
0.003
  0
LWPOLYLINE
  5
58E
100
AcDbEntity
  8
0
 62
     0
100
AcDbPolyline
 90
        2
 70
     0
 39
0.003
 10
0.488508
 20
1.378638
 40
0.003
 41
0.003
 10
0.493886
 20
1.386201
 40
0.003
 41
0.003
  0
LWPOLYLINE
  5
58F
100
AcDbEntity
  8
0
 62
     0
100
AcDbPolyline
 90
        2
 70
     0
 39
0.003
 10
0.493886
 20
1.386201
 40
0.003
 41
0.003
 10
0.49848
 20
1.394118
 40
0.003
 41
0.003
  0
LWPOLYLINE
  5
590
100
AcDbEntity
  8
0
 62
     0
100
AcDbPolyline
 90
        2
 70
     0
 39
0.003
 10
0.49848
 20
1.394118
 40
0.003
 41
0.003
 10
0.502287
 20
1.40235
 40
0.003
 41
0.003
  0
LWPOLYLINE
  5
591
100
AcDbEntity
  8
0
 62
     0
100
AcDbPolyline
 90
        2
 70
     0
 39
0.003
 10
0.502287
 20
1.40235
 40
0.003
 41
0.003
 10
0.505343
 20
1.410835
 40
0.003
 41
0.003
  0
LWPOLYLINE
  5
592
100
AcDbEntity
  8
0
 62
     0
100
AcDbPolyline
 90
        2
 70
     0
 39
0.003
 10
0.505343
 20
1.410835
 40
0.003
 41
0.003
 10
0.507638
 20
1.419535
 40
0.003
 41
0.003
  0
LWPOLYLINE
  5
593
100
AcDbEntity
  8
0
 62
     0
100
AcDbPolyline
 90
        2
 70
     0
 39
0.003
 10
0.507638
 20
1.419535
 40
0.003
 41
0.003
 10
0.509201
 20
1.428394
 40
0.003
 41
0.003
  0
LWPOLYLINE
  5
594
100
AcDbEntity
  8
0
 62
     0
100
AcDbPolyline
 90
        2
 70
     0
 39
0.003
 10
0.509201
 20
1.428394
 40
0.003
 41
0.003
 10
0.510035
 20
1.43737
 40
0.003
 41
0.003
  0
LWPOLYLINE
  5
595
100
AcDbEntity
  8
0
 62
     0
100
AcDbPolyline
 90
        2
 70
     0
 39
0.003
 10
0.510035
 20
1.43737
 40
0.003
 41
0.003
 10
0.510169
 20
1.446398
 40
0.003
 41
0.003
  0
LWPOLYLINE
  5
596
100
AcDbEntity
  8
0
 62
     0
100
AcDbPolyline
 90
        2
 70
     0
 39
0.003
 10
0.510169
 20
1.446398
 40
0.003
 41
0.003
 10
0.509606
 20
1.455445
 40
0.003
 41
0.003
  0
LWPOLYLINE
  5
597
100
AcDbEntity
  8
0
 62
     0
100
AcDbPolyline
 90
        2
 70
     0
 39
0.003
 10
0.509606
 20
1.455445
 40
0.003
 41
0.003
 10
0.508358
 20
1.464457
 40
0.003
 41
0.003
  0
LWPOLYLINE
  5
598
100
AcDbEntity
  8
0
 62
     0
100
AcDbPolyline
 90
        2
 70
     0
 39
0.003
 10
0.508358
 20
1.464457
 40
0.003
 41
0.003
 10
0.506437
 20
1.473386
 40
0.003
 41
0.003
  0
LWPOLYLINE
  5
599
100
AcDbEntity
  8
0
 62
     0
100
AcDbPolyline
 90
        2
 70
     0
 39
0.003
 10
0.506437
 20
1.473386
 40
0.003
 41
0.003
 10
0.503866
 20
1.482173
 40
0.003
 41
0.003
  0
LWPOLYLINE
  5
59A
100
AcDbEntity
  8
0
 62
     0
100
AcDbPolyline
 90
        2
 70
     0
 39
0.003
 10
0.503866
 20
1.482173
 40
0.003
 41
0.003
 10
0.500646
 20
1.490783
 40
0.003
 41
0.003
  0
LWPOLYLINE
  5
59B
100
AcDbEntity
  8
0
 62
     0
100
AcDbPolyline
 90
        2
 70
     0
 39
0.003
 10
0.500646
 20
1.490783
 40
0.003
 41
0.003
 10
0.496803
 20
1.499157
 40
0.003
 41
0.003
  0
LWPOLYLINE
  5
59C
100
AcDbEntity
  8
0
 62
     0
100
AcDbPolyline
 90
        2
 70
     0
 39
0.003
 10
0.496803
 20
1.499157
 40
0.003
 41
0.003
 10
0.492339
 20
1.507252
 40
0.003
 41
0.003
  0
LWPOLYLINE
  5
59D
100
AcDbEntity
  8
0
 62
     0
100
AcDbPolyline
 90
        2
 70
     0
 39
0.003
 10
0.492339
 20
1.507252
 40
0.003
 41
0.003
 10
0.487283
 20
1.515004
 40
0.003
 41
0.003
  0
LWPOLYLINE
  5
59E
100
AcDbEntity
  8
0
 62
     0
100
AcDbPolyline
 90
        2
 70
     0
 39
0.003
 10
0.487283
 20
1.515004
 40
0.003
 41
0.003
 10
0.48163
 20
1.52239
 40
0.003
 41
0.003
  0
LWPOLYLINE
  5
59F
100
AcDbEntity
  8
0
 62
     0
100
AcDbPolyline
 90
        2
 70
     0
 39
0.003
 10
0.48163
 20
1.52239
 40
0.003
 41
0.003
 10
0.475406
 20
1.529339
 40
0.003
 41
0.003
  0
LWPOLYLINE
  5
5A0
100
AcDbEntity
  8
0
 62
     0
100
AcDbPolyline
 90
        2
 70
     0
 39
0.003
 10
0.475406
 20
1.529339
 40
0.003
 41
0.003
 10
0.468614
 20
1.535815
 40
0.003
 41
0.003
  0
LWPOLYLINE
  5
5A1
100
AcDbEntity
  8
0
 62
     0
100
AcDbPolyline
 90
        2
 70
     0
 39
0.003
 10
0.468614
 20
1.535815
 40
0.003
 41
0.003
 10
0.461283
 20
1.541752
 40
0.003
 41
0.003
  0
LWPOLYLINE
  5
5A2
100
AcDbEntity
  8
0
 62
     0
100
AcDbPolyline
 90
        2
 70
     0
 39
0.003
 10
0.461283
 20
1.541752
 40
0.003
 41
0.003
 10
0.453413
 20
1.547122
 40
0.003
 41
0.003
  0
LWPOLYLINE
  5
5A3
100
AcDbEntity
  8
0
 62
     0
100
AcDbPolyline
 90
        2
 70
     0
 39
0.003
 10
0.453413
 20
1.547122
 40
0.003
 41
0.003
 10
0.445028
 20
1.551862
 40
0.003
 41
0.003
  0
LWPOLYLINE
  5
5A4
100
AcDbEntity
  8
0
 62
     0
100
AcDbPolyline
 90
        2
 70
     0
 39
0.003
 10
0.445028
 20
1.551862
 40
0.003
 41
0.003
 10
0.436126
 20
1.555929
 40
0.003
 41
0.003
  0
LWPOLYLINE
  5
5A5
100
AcDbEntity
  8
0
 62
     0
100
AcDbPolyline
 90
        2
 70
     0
 39
0.003
 10
0.436126
 20
1.555929
 40
0.003
 41
0.003
 10
0.427087
 20
1.559524
 40
0.003
 41
0.003
  0
LWPOLYLINE
  5
5A6
100
AcDbEntity
  8
0
 62
     0
100
AcDbPolyline
 90
        2
 70
     0
 39
0.003
 10
0.427087
 20
1.559524
 40
0.003
 41
0.003
 10
0.41824
 20
1.562929
 40
0.003
 41
0.003
  0
LWPOLYLINE
  5
5A7
100
AcDbEntity
  8
0
 62
     0
100
AcDbPolyline
 90
        2
 70
     0
 39
0.003
 10
0.41824
 20
1.562929
 40
0.003
 41
0.003
 10
0.409598
 20
1.566169
 40
0.003
 41
0.003
  0
LWPOLYLINE
  5
5A8
100
AcDbEntity
  8
0
 62
     0
100
AcDbPolyline
 90
        2
 70
     0
 39
0.003
 10
0.409598
 20
1.566169
 40
0.003
 41
0.003
 10
0.40115
 20
1.569283
 40
0.003
 41
0.003
  0
LWPOLYLINE
  5
5A9
100
AcDbEntity
  8
0
 62
     0
100
AcDbPolyline
 90
        2
 70
     0
 39
0.003
 10
0.40115
 20
1.569283
 40
0.003
 41
0.003
 10
0.392909
 20
1.572287
 40
0.003
 41
0.003
  0
LWPOLYLINE
  5
5AA
100
AcDbEntity
  8
0
 62
     0
100
AcDbPolyline
 90
        2
 70
     0
 39
0.003
 10
0.392909
 20
1.572287
 40
0.003
 41
0.003
 10
0.384866
 20
1.575232
 40
0.003
 41
0.003
  0
LWPOLYLINE
  5
5AB
100
AcDbEntity
  8
0
 62
     0
100
AcDbPolyline
 90
        2
 70
     0
 39
0.003
 10
0.384866
 20
1.575232
 40
0.003
 41
0.003
 10
0.377028
 20
1.578138
 40
0.003
 41
0.003
  0
LWPOLYLINE
  5
5AC
100
AcDbEntity
  8
0
 62
     0
100
AcDbPolyline
 90
        2
 70
     0
 39
0.003
 10
0.377028
 20
1.578138
 40
0.003
 41
0.003
 10
0.369386
 20
1.581047
 40
0.003
 41
0.003
  0
LWPOLYLINE
  5
5AD
100
AcDbEntity
  8
0
 62
     0
100
AcDbPolyline
 90
        2
 70
     0
 39
0.003
 10
0.369386
 20
1.581047
 40
0.003
 41
0.003
 10
0.361957
 20
1.583969
 40
0.003
 41
0.003
  0
LWPOLYLINE
  5
5AE
100
AcDbEntity
  8
0
 62
     0
100
AcDbPolyline
 90
        2
 70
     0
 39
0.003
 10
0.361957
 20
1.583969
 40
0.003
 41
0.003
 10
0.354724
 20
1.586957
 40
0.003
 41
0.003
  0
LWPOLYLINE
  5
5AF
100
AcDbEntity
  8
0
 62
     0
100
AcDbPolyline
 90
        2
 70
     0
 39
0.003
 10
0.354724
 20
1.586957
 40
0.003
 41
0.003
 10
0.347697
 20
1.590031
 40
0.003
 41
0.003
  0
LWPOLYLINE
  5
5B0
100
AcDbEntity
  8
0
 62
     0
100
AcDbPolyline
 90
        2
 70
     0
 39
0.003
 10
0.347697
 20
1.590031
 40
0.003
 41
0.003
 10
0.34087
 20
1.593236
 40
0.003
 41
0.003
  0
LWPOLYLINE
  5
5B1
100
AcDbEntity
  8
0
 62
     0
100
AcDbPolyline
 90
        2
 70
     0
 39
0.003
 10
0.34087
 20
1.593236
 40
0.003
 41
0.003
 10
0.334256
 20
1.596587
 40
0.003
 41
0.003
  0
LWPOLYLINE
  5
5B2
100
AcDbEntity
  8
0
 62
     0
100
AcDbPolyline
 90
        2
 70
     0
 39
0.003
 10
0.334256
 20
1.596587
 40
0.003
 41
0.003
 10
0.327843
 20
1.600126
 40
0.003
 41
0.003
  0
LWPOLYLINE
  5
5B3
100
AcDbEntity
  8
0
 62
     0
100
AcDbPolyline
 90
        2
 70
     0
 39
0.003
 10
0.327843
 20
1.600126
 40
0.003
 41
0.003
 10
0.321634
 20
1.603878
 40
0.003
 41
0.003
  0
LWPOLYLINE
  5
5B4
100
AcDbEntity
  8
0
 62
     0
100
AcDbPolyline
 90
        2
 70
     0
 39
0.003
 10
0.321634
 20
1.603878
 40
0.003
 41
0.003
 10
0.31563
 20
1.607886
 40
0.003
 41
0.003
  0
LWPOLYLINE
  5
5B5
100
AcDbEntity
  8
0
 62
     0
100
AcDbPolyline
 90
        2
 70
     0
 39
0.003
 10
0.31563
 20
1.607886
 40
0.003
 41
0.003
 10
0.309843
 20
1.612161
 40
0.003
 41
0.003
  0
LWPOLYLINE
  5
5B6
100
AcDbEntity
  8
0
 62
     0
100
AcDbPolyline
 90
        2
 70
     0
 39
0.003
 10
0.309843
 20
1.612161
 40
0.003
 41
0.003
 10
0.304256
 20
1.616752
 40
0.003
 41
0.003
  0
LWPOLYLINE
  5
5B7
100
AcDbEntity
  8
0
 62
     0
100
AcDbPolyline
 90
        2
 70
     0
 39
0.003
 10
0.304256
 20
1.616752
 40
0.003
 41
0.003
 10
0.298882
 20
1.621685
 40
0.003
 41
0.003
  0
LWPOLYLINE
  5
5B8
100
AcDbEntity
  8
0
 62
     0
100
AcDbPolyline
 90
        2
 70
     0
 39
0.003
 10
0.298882
 20
1.621685
 40
0.003
 41
0.003
 10
0.293709
 20
1.627
 40
0.003
 41
0.003
  0
LWPOLYLINE
  5
5B9
100
AcDbEntity
  8
0
 62
     0
100
AcDbPolyline
 90
        2
 70
     0
 39
0.003
 10
0.293709
 20
1.627
 40
0.003
 41
0.003
 10
0.288752
 20
1.632709
 40
0.003
 41
0.003
  0
LWPOLYLINE
  5
5BA
100
AcDbEntity
  8
0
 62
     0
100
AcDbPolyline
 90
        2
 70
     0
 39
0.003
 10
0.288752
 20
1.632709
 40
0.003
 41
0.003
 10
0.284
 20
1.638866
 40
0.003
 41
0.003
  0
LWPOLYLINE
  5
5BB
100
AcDbEntity
  8
0
 62
     0
100
AcDbPolyline
 90
        2
 70
     0
 39
0.003
 10
0.284
 20
1.638866
 40
0.003
 41
0.003
 10
0.279461
 20
1.645488
 40
0.003
 41
0.003
  0
LWPOLYLINE
  5
5BC
100
AcDbEntity
  8
0
 62
     0
100
AcDbPolyline
 90
        2
 70
     0
 39
0.003
 10
0.279461
 20
1.645488
 40
0.003
 41
0.003
 10
0.275126
 20
1.652618
 40
0.003
 41
0.003
  0
LWPOLYLINE
  5
5BD
100
AcDbEntity
  8
0
 62
     0
100
AcDbPolyline
 90
        2
 70
     0
 39
0.003
 10
0.275126
 20
1.652618
 40
0.003
 41
0.003
 10
0.271016
 20
1.660268
 40
0.003
 41
0.003
  0
LWPOLYLINE
  5
5BE
100
AcDbEntity
  8
0
 62
     0
100
AcDbPolyline
 90
        2
 70
     0
 39
0.003
 10
0.271016
 20
1.660268
 40
0.003
 41
0.003
 10
0.267106
 20
1.668492
 40
0.003
 41
0.003
  0
LWPOLYLINE
  5
5BF
100
AcDbEntity
  8
0
 62
     0
100
AcDbPolyline
 90
        2
 70
     0
 39
0.003
 10
0.267106
 20
1.668492
 40
0.003
 41
0.003
 10
0.263413
 20
1.677307
 40
0.003
 41
0.003
  0
LWPOLYLINE
  5
5C0
100
AcDbEntity
  8
0
 62
     0
100
AcDbPolyline
 90
        2
 70
     0
 39
0.003
 10
0.263413
 20
1.677307
 40
0.003
 41
0.003
 10
0.259929
 20
1.686756
 40
0.003
 41
0.003
  0
LWPOLYLINE
  5
5C1
100
AcDbEntity
  8
0
 62
     0
100
AcDbPolyline
 90
        2
 70
     0
 39
0.003
 10
0.259929
 20
1.686756
 40
0.003
 41
0.003
 10
0.256665
 20
1.696854
 40
0.003
 41
0.003
  0
LWPOLYLINE
  5
5C2
100
AcDbEntity
  8
0
 62
     0
100
AcDbPolyline
 90
        2
 70
     0
 39
0.003
 10
0.256665
 20
1.696854
 40
0.003
 41
0.003
 10
0.253606
 20
1.70765
 40
0.003
 41
0.003
  0
LWPOLYLINE
  5
5C3
100
AcDbEntity
  8
0
 62
     0
100
AcDbPolyline
 90
        2
 70
     0
 39
0.003
 10
0.253606
 20
1.70765
 40
0.003
 41
0.003
 10
0.250764
 20
1.719165
 40
0.003
 41
0.003
  0
LWPOLYLINE
  5
5C4
100
AcDbEntity
  8
0
 62
     0
100
AcDbPolyline
 90
        2
 70
     0
 39
0.003
 10
0.250764
 20
1.719165
 40
0.003
 41
0.003
 10
0.24813
 20
1.731441
 40
0.003
 41
0.003
  0
LWPOLYLINE
  5
5C5
100
AcDbEntity
  8
0
 62
     0
100
AcDbPolyline
 90
        2
 70
     0
 39
0.003
 10
0.24813
 20
1.731441
 40
0.003
 41
0.003
 10
-0.397465
 20
1.35261
 40
0.003
 41
0.003
  0
LWPOLYLINE
  5
5C6
100
AcDbEntity
  8
0
 62
     0
100
AcDbPolyline
 90
        2
 70
     0
 39
0.003
 10
-0.397465
 20
1.35261
 40
0.003
 41
0.003
 10
-0.394831
 20
1.340335
 40
0.003
 41
0.003
  0
LWPOLYLINE
  5
5C7
100
AcDbEntity
  8
0
 62
     0
100
AcDbPolyline
 90
        2
 70
     0
 39
0.003
 10
-0.394831
 20
1.340335
 40
0.003
 41
0.003
 10
-0.391988
 20
1.328819
 40
0.003
 41
0.003
  0
LWPOLYLINE
  5
5C8
100
AcDbEntity
  8
0
 62
     0
100
AcDbPolyline
 90
        2
 70
     0
 39
0.003
 10
-0.391988
 20
1.328819
 40
0.003
 41
0.003
 10
-0.388929
 20
1.318024
 40
0.003
 41
0.003
  0
LWPOLYLINE
  5
5C9
100
AcDbEntity
  8
0
 62
     0
100
AcDbPolyline
 90
        2
 70
     0
 39
0.003
 10
-0.388929
 20
1.318024
 40
0.003
 41
0.003
 10
-0.385665
 20
1.307925
 40
0.003
 41
0.003
  0
LWPOLYLINE
  5
5CA
100
AcDbEntity
  8
0
 62
     0
100
AcDbPolyline
 90
        2
 70
     0
 39
0.003
 10
-0.385665
 20
1.307925
 40
0.003
 41
0.003
 10
-0.382181
 20
1.298476
 40
0.003
 41
0.003
  0
LWPOLYLINE
  5
5CB
100
AcDbEntity
  8
0
 62
     0
100
AcDbPolyline
 90
        2
 70
     0
 39
0.003
 10
-0.382181
 20
1.298476
 40
0.003
 41
0.003
 10
-0.378488
 20
1.289661
 40
0.003
 41
0.003
  0
LWPOLYLINE
  5
5CC
100
AcDbEntity
  8
0
 62
     0
100
AcDbPolyline
 90
        2
 70
     0
 39
0.003
 10
-0.378488
 20
1.289661
 40
0.003
 41
0.003
 10
-0.374579
 20
1.281437
 40
0.003
 41
0.003
  0
LWPOLYLINE
  5
5CD
100
AcDbEntity
  8
0
 62
     0
100
AcDbPolyline
 90
        2
 70
     0
 39
0.003
 10
-0.374579
 20
1.281437
 40
0.003
 41
0.003
 10
-0.370469
 20
1.273787
 40
0.003
 41
0.003
  0
LWPOLYLINE
  5
5CE
100
AcDbEntity
  8
0
 62
     0
100
AcDbPolyline
 90
        2
 70
     0
 39
0.003
 10
-0.370469
 20
1.273787
 40
0.003
 41
0.003
 10
-0.366134
 20
1.266657
 40
0.003
 41
0.003
  0
LWPOLYLINE
  5
5CF
100
AcDbEntity
  8
0
 62
     0
100
AcDbPolyline
 90
        2
 70
     0
 39
0.003
 10
-0.366134
 20
1.266657
 40
0.003
 41
0.003
 10
-0.361594
 20
1.260035
 40
0.003
 41
0.003
  0
LWPOLYLINE
  5
5D0
100
AcDbEntity
  8
0
 62
     0
100
AcDbPolyline
 90
        2
 70
     0
 39
0.003
 10
-0.361594
 20
1.260035
 40
0.003
 41
0.003
 10
-0.356843
 20
1.253878
 40
0.003
 41
0.003
  0
LWPOLYLINE
  5
5D1
100
AcDbEntity
  8
0
 62
     0
100
AcDbPolyline
 90
        2
 70
     0
 39
0.003
 10
-0.356843
 20
1.253878
 40
0.003
 41
0.003
 10
-0.351886
 20
1.248169
 40
0.003
 41
0.003
  0
LWPOLYLINE
  5
5D2
100
AcDbEntity
  8
0
 62
     0
100
AcDbPolyline
 90
        2
 70
     0
 39
0.003
 10
-0.351886
 20
1.248169
 40
0.003
 41
0.003
 10
-0.346713
 20
1.242854
 40
0.003
 41
0.003
  0
LWPOLYLINE
  5
5D3
100
AcDbEntity
  8
0
 62
     0
100
AcDbPolyline
 90
        2
 70
     0
 39
0.003
 10
-0.346713
 20
1.242854
 40
0.003
 41
0.003
 10
-0.341339
 20
1.237921
 40
0.003
 41
0.003
  0
LWPOLYLINE
  5
5D4
100
AcDbEntity
  8
0
 62
     0
100
AcDbPolyline
 90
        2
 70
     0
 39
0.003
 10
-0.341339
 20
1.237921
 40
0.003
 41
0.003
 10
-0.335752
 20
1.233331
 40
0.003
 41
0.003
  0
LWPOLYLINE
  5
5D5
100
AcDbEntity
  8
0
 62
     0
100
AcDbPolyline
 90
        2
 70
     0
 39
0.003
 10
-0.335752
 20
1.233331
 40
0.003
 41
0.003
 10
-0.329965
 20
1.229055
 40
0.003
 41
0.003
  0
LWPOLYLINE
  5
5D6
100
AcDbEntity
  8
0
 62
     0
100
AcDbPolyline
 90
        2
 70
     0
 39
0.003
 10
-0.329965
 20
1.229055
 40
0.003
 41
0.003
 10
-0.323961
 20
1.225047
 40
0.003
 41
0.003
  0
LWPOLYLINE
  5
5D7
100
AcDbEntity
  8
0
 62
     0
100
AcDbPolyline
 90
        2
 70
     0
 39
0.003
 10
-0.323961
 20
1.225047
 40
0.003
 41
0.003
 10
-0.317752
 20
1.221295
 40
0.003
 41
0.003
  0
LWPOLYLINE
  5
5D8
100
AcDbEntity
  8
0
 62
     0
100
AcDbPolyline
 90
        2
 70
     0
 39
0.003
 10
-0.317752
 20
1.221295
 40
0.003
 41
0.003
 10
-0.311339
 20
1.217756
 40
0.003
 41
0.003
  0
LWPOLYLINE
  5
5D9
100
AcDbEntity
  8
0
 62
     0
100
AcDbPolyline
 90
        2
 70
     0
 39
0.003
 10
-0.311339
 20
1.217756
 40
0.003
 41
0.003
 10
-0.304724
 20
1.214406
 40
0.003
 41
0.003
  0
LWPOLYLINE
  5
5DA
100
AcDbEntity
  8
0
 62
     0
100
AcDbPolyline
 90
        2
 70
     0
 39
0.003
 10
-0.304724
 20
1.214406
 40
0.003
 41
0.003
 10
-0.297898
 20
1.211201
 40
0.003
 41
0.003
  0
LWPOLYLINE
  5
5DB
100
AcDbEntity
  8
0
 62
     0
100
AcDbPolyline
 90
        2
 70
     0
 39
0.003
 10
-0.297898
 20
1.211201
 40
0.003
 41
0.003
 10
-0.29087
 20
1.208126
 40
0.003
 41
0.003
  0
LWPOLYLINE
  5
5DC
100
AcDbEntity
  8
0
 62
     0
100
AcDbPolyline
 90
        2
 70
     0
 39
0.003
 10
-0.29087
 20
1.208126
 40
0.003
 41
0.003
 10
-0.283638
 20
1.205138
 40
0.003
 41
0.003
  0
LWPOLYLINE
  5
5DD
100
AcDbEntity
  8
0
 62
     0
100
AcDbPolyline
 90
        2
 70
     0
 39
0.003
 10
-0.283638
 20
1.205138
 40
0.003
 41
0.003
 10
-0.276209
 20
1.202217
 40
0.003
 41
0.003
  0
LWPOLYLINE
  5
5DE
100
AcDbEntity
  8
0
 62
     0
100
AcDbPolyline
 90
        2
 70
     0
 39
0.003
 10
-0.276209
 20
1.202217
 40
0.003
 41
0.003
 10
-0.268567
 20
1.199307
 40
0.003
 41
0.003
  0
LWPOLYLINE
  5
5DF
100
AcDbEntity
  8
0
 62
     0
100
AcDbPolyline
 90
        2
 70
     0
 39
0.003
 10
-0.268567
 20
1.199307
 40
0.003
 41
0.003
 10
-0.260728
 20
1.196402
 40
0.003
 41
0.003
  0
LWPOLYLINE
  5
5E0
100
AcDbEntity
  8
0
 62
     0
100
AcDbPolyline
 90
        2
 70
     0
 39
0.003
 10
-0.260728
 20
1.196402
 40
0.003
 41
0.003
 10
-0.252685
 20
1.193457
 40
0.003
 41
0.003
  0
LWPOLYLINE
  5
5E1
100
AcDbEntity
  8
0
 62
     0
100
AcDbPolyline
 90
        2
 70
     0
 39
0.003
 10
-0.252685
 20
1.193457
 40
0.003
 41
0.003
 10
-0.244445
 20
1.190453
 40
0.003
 41
0.003
  0
LWPOLYLINE
  5
5E2
100
AcDbEntity
  8
0
 62
     0
100
AcDbPolyline
 90
        2
 70
     0
 39
0.003
 10
-0.244445
 20
1.190453
 40
0.003
 41
0.003
 10
-0.235996
 20
1.187339
 40
0.003
 41
0.003
  0
LWPOLYLINE
  5
5E3
100
AcDbEntity
  8
0
 62
     0
100
AcDbPolyline
 90
        2
 70
     0
 39
0.003
 10
-0.235996
 20
1.187339
 40
0.003
 41
0.003
 10
-0.227354
 20
1.184098
 40
0.003
 41
0.003
  0
LWPOLYLINE
  5
5E4
100
AcDbEntity
  8
0
 62
     0
100
AcDbPolyline
 90
        2
 70
     0
 39
0.003
 10
-0.227354
 20
1.184098
 40
0.003
 41
0.003
 10
-0.218508
 20
1.180693
 40
0.003
 41
0.003
  0
LWPOLYLINE
  5
5E5
100
AcDbEntity
  8
0
 62
     0
100
AcDbPolyline
 90
        2
 70
     0
 39
0.003
 10
-0.218508
 20
1.180693
 40
0.003
 41
0.003
 10
-0.209469
 20
1.177098
 40
0.003
 41
0.003
  0
LWPOLYLINE
  5
5E6
100
AcDbEntity
  8
0
 62
     0
100
AcDbPolyline
 90
        2
 70
     0
 39
0.003
 10
-0.209469
 20
1.177098
 40
0.003
 41
0.003
 10
-0.200567
 20
1.173031
 40
0.003
 41
0.003
  0
LWPOLYLINE
  5
5E7
100
AcDbEntity
  8
0
 62
     0
100
AcDbPolyline
 90
        2
 70
     0
 39
0.003
 10
-0.200567
 20
1.173031
 40
0.003
 41
0.003
 10
-0.192181
 20
1.168291
 40
0.003
 41
0.003
  0
LWPOLYLINE
  5
5E8
100
AcDbEntity
  8
0
 62
     0
100
AcDbPolyline
 90
        2
 70
     0
 39
0.003
 10
-0.192181
 20
1.168291
 40
0.003
 41
0.003
 10
-0.184311
 20
1.162921
 40
0.003
 41
0.003
  0
LWPOLYLINE
  5
5E9
100
AcDbEntity
  8
0
 62
     0
100
AcDbPolyline
 90
        2
 70
     0
 39
0.003
 10
-0.184311
 20
1.162921
 40
0.003
 41
0.003
 10
-0.17698
 20
1.156984
 40
0.003
 41
0.003
  0
LWPOLYLINE
  5
5EA
100
AcDbEntity
  8
0
 62
     0
100
AcDbPolyline
 90
        2
 70
     0
 39
0.003
 10
-0.17698
 20
1.156984
 40
0.003
 41
0.003
 10
-0.170189
 20
1.150508
 40
0.003
 41
0.003
  0
LWPOLYLINE
  5
5EB
100
AcDbEntity
  8
0
 62
     0
100
AcDbPolyline
 90
        2
 70
     0
 39
0.003
 10
-0.170189
 20
1.150508
 40
0.003
 41
0.003
 10
-0.163965
 20
1.143559
 40
0.003
 41
0.003
  0
LWPOLYLINE
  5
5EC
100
AcDbEntity
  8
0
 62
     0
100
AcDbPolyline
 90
        2
 70
     0
 39
0.003
 10
-0.163965
 20
1.143559
 40
0.003
 41
0.003
 10
-0.158311
 20
1.136173
 40
0.003
 41
0.003
  0
LWPOLYLINE
  5
5ED
100
AcDbEntity
  8
0
 62
     0
100
AcDbPolyline
 90
        2
 70
     0
 39
0.003
 10
-0.158311
 20
1.136173
 40
0.003
 41
0.003
 10
-0.153256
 20
1.128421
 40
0.003
 41
0.003
  0
LWPOLYLINE
  5
5EE
100
AcDbEntity
  8
0
 62
     0
100
AcDbPolyline
 90
        2
 70
     0
 39
0.003
 10
-0.153256
 20
1.128421
 40
0.003
 41
0.003
 10
-0.148791
 20
1.120327
 40
0.003
 41
0.003
  0
LWPOLYLINE
  5
5EF
100
AcDbEntity
  8
0
 62
     0
100
AcDbPolyline
 90
        2
 70
     0
 39
0.003
 10
-0.148791
 20
1.120327
 40
0.003
 41
0.003
 10
-0.144949
 20
1.111953
 40
0.003
 41
0.003
  0
LWPOLYLINE
  5
5F0
100
AcDbEntity
  8
0
 62
     0
100
AcDbPolyline
 90
        2
 70
     0
 39
0.003
 10
-0.144949
 20
1.111953
 40
0.003
 41
0.003
 10
-0.141728
 20
1.103343
 40
0.003
 41
0.003
  0
LWPOLYLINE
  5
5F1
100
AcDbEntity
  8
0
 62
     0
100
AcDbPolyline
 90
        2
 70
     0
 39
0.003
 10
-0.141728
 20
1.103343
 40
0.003
 41
0.003
 10
-0.139157
 20
1.094555
 40
0.003
 41
0.003
  0
LWPOLYLINE
  5
5F2
100
AcDbEntity
  8
0
 62
     0
100
AcDbPolyline
 90
        2
 70
     0
 39
0.003
 10
-0.139157
 20
1.094555
 40
0.003
 41
0.003
 10
-0.137236
 20
1.085626
 40
0.003
 41
0.003
  0
LWPOLYLINE
  5
5F3
100
AcDbEntity
  8
0
 62
     0
100
AcDbPolyline
 90
        2
 70
     0
 39
0.003
 10
-0.137236
 20
1.085626
 40
0.003
 41
0.003
 10
-0.135988
 20
1.076614
 40
0.003
 41
0.003
  0
LWPOLYLINE
  5
5F4
100
AcDbEntity
  8
0
 62
     0
100
AcDbPolyline
 90
        2
 70
     0
 39
0.003
 10
-0.135988
 20
1.076614
 40
0.003
 41
0.003
 10
-0.135425
 20
1.067567
 40
0.003
 41
0.003
  0
LWPOLYLINE
  5
5F5
100
AcDbEntity
  8
0
 62
     0
100
AcDbPolyline
 90
        2
 70
     0
 39
0.003
 10
-0.135425
 20
1.067567
 40
0.003
 41
0.003
 10
-0.135559
 20
1.058539
 40
0.003
 41
0.003
  0
LWPOLYLINE
  5
5F6
100
AcDbEntity
  8
0
 62
     0
100
AcDbPolyline
 90
        2
 70
     0
 39
0.003
 10
-0.135559
 20
1.058539
 40
0.003
 41
0.003
 10
-0.136394
 20
1.049563
 40
0.003
 41
0.003
  0
LWPOLYLINE
  5
5F7
100
AcDbEntity
  8
0
 62
     0
100
AcDbPolyline
 90
        2
 70
     0
 39
0.003
 10
-0.136394
 20
1.049563
 40
0.003
 41
0.003
 10
-0.137957
 20
1.040705
 40
0.003
 41
0.003
  0
LWPOLYLINE
  5
5F8
100
AcDbEntity
  8
0
 62
     0
100
AcDbPolyline
 90
        2
 70
     0
 39
0.003
 10
-0.137957
 20
1.040705
 40
0.003
 41
0.003
 10
-0.140252
 20
1.032004
 40
0.003
 41
0.003
  0
LWPOLYLINE
  5
5F9
100
AcDbEntity
  8
0
 62
     0
100
AcDbPolyline
 90
        2
 70
     0
 39
0.003
 10
-0.140252
 20
1.032004
 40
0.003
 41
0.003
 10
-0.143307
 20
1.02352
 40
0.003
 41
0.003
  0
LWPOLYLINE
  5
5FA
100
AcDbEntity
  8
0
 62
     0
100
AcDbPolyline
 90
        2
 70
     0
 39
0.003
 10
-0.143307
 20
1.02352
 40
0.003
 41
0.003
 10
-0.147114
 20
1.015287
 40
0.003
 41
0.003
  0
LWPOLYLINE
  5
5FB
100
AcDbEntity
  8
0
 62
     0
100
AcDbPolyline
 90
        2
 70
     0
 39
0.003
 10
-0.147114
 20
1.015287
 40
0.003
 41
0.003
 10
-0.151709
 20
1.00737
 40
0.003
 41
0.003
  0
LWPOLYLINE
  5
5FC
100
AcDbEntity
  8
0
 62
     0
100
AcDbPolyline
 90
        2
 70
     0
 39
0.003
 10
-0.151709
 20
1.00737
 40
0.003
 41
0.003
 10
-0.157087
 20
0.999807
 40
0.003
 41
0.003
  0
LWPOLYLINE
  5
5FD
100
AcDbEntity
  8
0
 62
     0
100
AcDbPolyline
 90
        2
 70
     0
 39
0.003
 10
-0.157087
 20
0.999807
 40
0.003
 41
0.003
 10
-0.163276
 20
0.992657
 40
0.003
 41
0.003
  0
LWPOLYLINE
  5
5FE
100
AcDbEntity
  8
0
 62
     0
100
AcDbPolyline
 90
        2
 70
     0
 39
0.003
 10
-0.163276
 20
0.992657
 40
0.003
 41
0.003
 10
-0.170272
 20
0.985953
 40
0.003
 41
0.003
  0
LWPOLYLINE
  5
5FF
100
AcDbEntity
  8
0
 62
     0
100
AcDbPolyline
 90
        2
 70
     0
 39
0.003
 10
-0.170272
 20
0.985953
 40
0.003
 41
0.003
 10
-0.178106
 20
0.979764
 40
0.003
 41
0.003
  0
LWPOLYLINE
  5
600
100
AcDbEntity
  8
0
 62
     0
100
AcDbPolyline
 90
        2
 70
     0
 39
0.003
 10
-0.178106
 20
0.979764
 40
0.003
 41
0.003
 10
-0.186783
 20
0.974122
 40
0.003
 41
0.003
  0
LWPOLYLINE
  5
601
100
AcDbEntity
  8
0
 62
     7
100
AcDbPolyline
 90
        2
 70
     0
 39
0.003
 10
-0.397465
 20
1.35261
 40
0.003
 41
0.003
 10
-0.536638
 20
1.35261
 40
0.003
 41
0.003
  0
LWPOLYLINE
  5
602
100
AcDbEntity
  8
0
 62
     7
100
AcDbPolyline
 90
        2
 70
     0
 39
0.003
 10
-0.536638
 20
1.35261
 40
0.003
 41
0.003
 10
-0.536638
 20
0.094406
 40
0.003
 41
0.003
  0
LWPOLYLINE
  5
603
100
AcDbEntity
  8
0
 62
     7
100
AcDbPolyline
 90
        2
 70
     0
 39
0.003
 10
-0.536638
 20
0.094406
 40
0.003
 41
0.003
 10
0.098
 20
0.094406
 40
0.003
 41
0.003
  0
LWPOLYLINE
  5
604
100
AcDbEntity
  8
0
 62
     7
100
AcDbPolyline
 90
        2
 70
     0
 39
0.003
 10
0.098
 20
0.094406
 40
0.003
 41
0.003
 10
0.098
 20
0.164126
 40
0.003
 41
0.003
  0
SPLINE
  5
605
100
AcDbEntity
  8
0
 62
     7
100
AcDbSpline
210
0.0
220
0.0
230
1.0
 70
     0
 71
     3
 72
     0
 73
     0
 74
    32
 44
0.0000000001
 11
0.098
 21
0.1641259842519685
 31
0.0
 11
0.1502598425196851
 21
0.1771653543307087
 31
0.0
 11
0.1935984251968504
 21
0.1959448818897638
 31
0.0
 11
0.2284685039370079
 21
0.2196614173228347
 31
0.0
 11
0.2553464566929134
 21
0.2475314960629921
 31
0.0
 11
0.2746771653543307
 21
0.278751968503937
 31
0.0
 11
0.2869488188976378
 21
0.3125472440944882
 31
0.0
 11
0.2926102362204724
 21
0.3481220472440945
 31
0.0
 11
0.2921377952755905
 21
0.3846850393700788
 31
0.0
 11
0.2859803149606299
 21
0.4214330708661417
 31
0.0
 11
0.2746181102362205
 21
0.4575944881889764
 31
0.0
 11
0.258503937007874
 21
0.4923661417322835
 31
0.0
 11
0.2381181102362205
 21
0.5249685039370079
 31
0.0
 11
0.2139094488188977
 21
0.5545944881889764
 31
0.0
 11
0.1863503937007874
 21
0.5804685039370079
 31
0.0
 11
0.1559055118110236
 21
0.6017874015748032
 31
0.0
 11
0.1230433070866142
 21
0.6177755905511811
 31
0.0
 11
0.0905314960629921
 21
0.630244094488189
 31
0.0
 11
0.0607992125984252
 21
0.6417952755905512
 31
0.0
 11
0.0337362204724409
 21
0.6527440944881889
 31
0.0
 11
0.009259842519685
 21
0.6634212598425197
 31
0.0
 11
-0.012740157480315
 21
0.6741417322834645
 31
0.0
 11
-0.0323700787401575
 21
0.685244094488189
 31
0.0
 11
-0.0497165354330709
 21
0.6970433070866142
 31
0.0
 11
-0.0648897637795276
 21
0.7098700787401575
 31
0.0
 11
-0.0779685039370079
 21
0.7240393700787402
 31
0.0
 11
-0.0890748031496063
 21
0.7398858267716536
 31
0.0
 11
-0.0982913385826772
 21
0.7577322834645669
 31
0.0
 11
-0.1057204724409449
 21
0.7779133858267716
 31
0.0
 11
-0.1114566929133858
 21
0.8007322834645669
 31
0.0
 11
-0.1156062992125984
 21
0.8265354330708662
 31
0.0
 11
-0.1182637795275591
 21
0.8556377952755906
 31
0.0
  0
LWPOLYLINE
  5
606
100
AcDbEntity
  8
0
 62
     7
100
AcDbPolyline
 90
        2
 70
     0
 39
0.003
 10
-0.118264
 20
0.855638
 40
0.003
 41
0.003
 10
-0.119531
 20
0.888366
 40
0.003
 41
0.003
  0
LWPOLYLINE
  5
607
100
AcDbEntity
  8
0
 62
     7
100
AcDbPolyline
 90
        2
 70
     0
 39
0.003
 10
-0.119531
 20
0.888366
 40
0.003
 41
0.003
 10
-0.243323
 20
0.896862
 40
0.003
 41
0.003
  0
LWPOLYLINE
  5
608
100
AcDbEntity
  8
0
 62
     7
100
AcDbPolyline
 90
        2
 70
     0
 39
0.003
 10
-0.243323
 20
0.896862
 40
0.003
 41
0.003
 10
-0.243323
 20
0.955996
 40
0.003
 41
0.003
  0
SPLINE
  5
609
100
AcDbEntity
  8
0
 62
     7
100
AcDbSpline
210
0.0
220
0.0
230
1.0
 70
     0
 71
     3
 72
     0
 73
     0
 74
    33
 44
0.0000000001
 11
-0.2433228346456693
 21
0.955996062992126
 31
0.0
 11
-0.2180236220472441
 21
0.9610393700787402
 31
0.0
 11
-0.1963228346456693
 21
0.9690944881889764
 31
0.0
 11
-0.1781062992125984
 21
0.9797637795275591
 31
0.0
 11
-0.1632755905511811
 21
0.9926574803149606
 31
0.0
 11
-0.1517086614173228
 21
1.0073700787401574
 31
0.0
 11
-0.1433070866141732
 21
1.0235196850393702
 31
0.0
 11
-0.1379566929133858
 21
1.0407047244094487
 31
0.0
 11
-0.1355590551181102
 21
1.0585393700787402
 31
0.0
 11
-0.135988188976378
 21
1.0766141732283465
 31
0.0
 11
-0.1391574803149606
 21
1.0945551181102362
 31
0.0
 11
-0.1449488188976378
 21
1.1119527559055118
 31
0.0
 11
-0.153255905511811
 21
1.1284212598425196
 31
0.0
 11
-0.1639645669291339
 21
1.1435590551181103
 31
0.0
 11
-0.1769803149606299
 21
1.1569842519685039
 31
0.0
 11
-0.1921811023622047
 21
1.1682913385826772
 31
0.0
 11
-0.2094685039370079
 21
1.1770984251968504
 31
0.0
 11
-0.2273543307086614
 21
1.1840984251968505
 31
0.0
 11
-0.2444448818897638
 21
1.1904527559055118
 31
0.0
 11
-0.2607283464566929
 21
1.1964015748031496
 31
0.0
 11
-0.2762086614173228
 21
1.2022165354330709
 31
0.0
 11
-0.2908700787401575
 21
1.2081259842519685
 31
0.0
 11
-0.3047244094488189
 21
1.2144055118110235
 31
0.0
 11
-0.317751968503937
 21
1.2212952755905513
 31
0.0
 11
-0.3299645669291338
 21
1.2290551181102363
 31
0.0
 11
-0.3413385826771654
 21
1.2379212598425198
 31
0.0
 11
-0.3518858267716535
 21
1.2481692913385827
 31
0.0
 11
-0.3615944881889764
 21
1.2600354330708661
 31
0.0
 11
-0.3704685039370079
 21
1.2737874015748032
 31
0.0
 11
-0.3784881889763779
 21
1.2896614173228347
 31
0.0
 11
-0.3856653543307086
 21
1.3079251968503938
 31
0.0
 11
-0.3919881889763779
 21
1.3288188976377953
 31
0.0
 11
-0.3974645669291338
 21
1.3526102362204724
 31
0.0
  0
MTEXT
  5
60A
100
AcDbEntity
  8
0
 62
     0
100
AcDbMText
 10
-0.912693
 20
0.082378
 30
0.0
 40
0.166665
 41
0.0
 71
     1
 72
     1
  1
{\fBookman Old Style|b0|i0|c0|p32;BA  1487}
 73
     1
 44
1.0
  0
MTEXT
  5
60B
100
AcDbEntity
  8
0
 62
     0
100
AcDbMText
 10
-0.912693
 20
-0.105122
 30
0.0
 40
0.166665
 41
0.0
 71
     1
 72
     1
  1
{\fBookman Old Style|b0|i0|c0|p32;7/8" x 1-1/4"}
 73
     1
 44
1.0
  0
MTEXT
  5
60C
100
AcDbEntity
  8
0
 62
     0
100
AcDbMText
 10
-1.163386
 20
2.502047
 30
0.0
 40
0.166665
 41
0.0
 71
     1
 72
     1
  1
{\fBookman Old Style|b0|i0|c0|p32;BA  1487}
 73
     1
 44
1.0
  0
MTEXT
  5
60D
100
AcDbEntity
  8
0
 62
     0
100
AcDbMText
 10
-1.163386
 20
2.314547
 30
0.0
 40
0.166665
 41
0.0
 71
     1
 72
     1
  1
{\fBookman Old Style|b0|i0|c0|p32;7/8" x 1-1/4"}
 73
     1
 44
1.0
  0
ENDSEC
  0
SECTION
  2
OBJECTS
  0
DICTIONARY
  5
19
100
AcDbDictionary
280
     0
281
     1
  3
ACAD_GROUP
350
1A
  3
ACAD_MLINESTYLE
350
1B
  3
ACAD_LAYOUT
350
1E
  3
ACAD_PLOTSETTINGS
350
22
  3
ACAD_PLOTSTYLENAME
350
1F
  3
ACAD_WIPEOUT_VARS
350
23
  0
DICTIONARY
  5
1A
102
{ACAD_REACTORS
330
19
102
}
100
AcDbDictionary
280
     0
281
     1
  0
DICTIONARY
  5
1B
102
{ACAD_REACTORS
330
19
102
}
100
AcDbDictionary
280
     0
281
     1
  3
Standard
350
1C
  0
MLINESTYLE
  5
1C
102
{ACAD_REACTORS
330
1B
102
}
100
AcDbMlineStyle
  2
Standard
 70
     0
  3

 62
     0
 51
90.0
 52
90.0
 71
     2
 49
0.5
 62
   256
  6
BYLAYER
 49
-0.5
 62
   256
  6
BYLAYER
  0
ACDBDICTIONARYWDFLT
  5
1F
102
{ACAD_REACTORS
330
19
102
}
100
AcDbDictionary
281
     1
  3
Normal
350
1D
100
AcDbDictionaryWithDefault
340
1D
  0
ACDBPLACEHOLDER
  5
1D
102
{ACAD_REACTORS
330
1F
102
}
  0
LAYOUT
  5
20
102
{ACAD_REACTORS
330
1E
102
}
100
AcDbPlotSettings
  1

  2

  4

  6

 40
0.0
 41
0.0
 42
0.0
 43
0.0
 44
0.0
 45
0.0
 46
0.0
 47
0.0
 48
0.0
 49
0.0
140
0.0
141
0.0
142
1.0
143
1.0
 70
  1024
 72
     0
 73
     0
 74
     0
  7

 75
     0
147
1.0
148
0.0
149
0.0
100
AcDbLayout
  1
Model
 70
     0
 71
     0
 10
0.0
 20
0.0
 11
0.0
 21
0.0
 12
0.0
 22
0.0
 32
0.0
 14
0.0
 24
0.0
 34
0.0
 15
0.0
 25
0.0
 35
0.0
146
0.0
 13
0.0
 23
0.0
 33
0.0
 16
0.0
 26
0.0
 36
0.0
 17
0.0
 27
0.0
 37
0.0
 76
     0
330
A
331
0
345
0
346
0
  0
LAYOUT
  5
21
102
{ACAD_REACTORS
330
1E
102
}
100
AcDbPlotSettings
  1

  2

  4

  6

 40
0.0
 41
0.0
 42
0.0
 43
0.0
 44
0.0
 45
0.0
 46
0.0
 47
0.0
 48
0.0
 49
0.0
140
0.0
141
0.0
142
1.0
143
1.0
 70
     0
 72
     0
 73
     0
 74
     0
  7

 75
     0
147
1.0
148
0.0
149
0.0
100
AcDbLayout
  1
Layout1
 70
     0
 71
     0
 10
0.0
 20
0.0
 11
0.0
 21
0.0
 12
0.0
 22
0.0
 32
0.0
 14
0.0
 24
0.0
 34
0.0
 15
0.0
 25
0.0
 35
0.0
146
0.0
 13
0.0
 23
0.0
 33
0.0
 16
0.0
 26
0.0
 36
0.0
 17
0.0
 27
0.0
 37
0.0
 76
     0
330
B
331
0
345
0
346
0
  0
DICTIONARY
  5
1E
102
{ACAD_REACTORS
330
19
102
}
100
AcDbDictionary
280
     0
281
     1
  3
Layout1
350
21
  3
Model
350
20
  0
DICTIONARY
  5
22
102
{ACAD_REACTORS
330
19
102
}
100
AcDbDictionary
280
     0
281
     1
  0
WIPEOUTVARIABLES
  5
23
100
AcDbWipeoutVariables
 70
     1
  0
ENDSEC
  0
EOF
