  0
SECTION
  2
HEADER
  9
$ACADVER
  1
AC1015
  9
$ACADMAINTVER
 70
     6
  9
$DWGCODEPAGE
  3
DOS850
  9
$INSBASE
 10
0.0
 20
0.0
 30
0.0
  9
$EXTMIN
 10
1.000000E+20
 20
1.000000E+20
 30
1.000000E+20
  9
$EXTMAX
 10
-1.000000E+20
 20
-1.000000E+20
 30
-1.000000E+20
  9
$LIMMIN
 10
0.0
 20
0.0
  9
$LIMMAX
 10
0.0
 20
0.0
  9
$ORTHOMODE
 70
     0
  9
$REGENMODE
 70
     1
  9
$FILLMODE
 70
     1
  9
$QTEXTMODE
 70
     0
  9
$MIRRTEXT
 70
     1
  9
$LTSCALE
 40
1.0
  9
$ATTMODE
 70
     1
  9
$TEXTSIZE
 40
0.2
  9
$TRACEWID
 40
0.05
  9
$TEXTSTYLE
  7
Standard
  9
$CLAYER
  8
0
  9
$CELTYPE
  6
Continuous
  9
$CECOLOR
 62
   256
  9
$CELTSCALE
 40
1.0
  9
$DISPSILH
 70
     0
  9
$DIMSCALE
 40
1.0
  9
$DIMASZ
 40
0.18
  9
$DIMEXO
 40
0.0625
  9
$DIMDLI
 40
0.38
  9
$DIMRND
 40
0.0
  9
$DIMDLE
 40
0.0
  9
$DIMEXE
 40
0.18
  9
$DIMTP
 40
0.0
  9
$DIMTM
 40
0.0
  9
$DIMTXT
 40
0.18
  9
$DIMCEN
 40
0.09
  9
$DIMTSZ
 40
0.0
  9
$DIMTOL
 70
     0
  9
$DIMLIM
 70
     0
  9
$DIMTIH
 70
     1
  9
$DIMTOH
 70
     1
  9
$DIMSE1
 70
     0
  9
$DIMSE2
 70
     0
  9
$DIMTAD
 70
     0
  9
$DIMZIN
 70
     0
  9
$DIMBLK
  1

  9
$DIMASO
 70
     1
  9
$DIMSHO
 70
     1
  9
$DIMPOST
  1

  9
$DIMAPOST
  1

  9
$DIMALT
 70
     0
  9
$DIMALTD
 70
     2
  9
$DIMALTF
 40
25.4
  9
$DIMLFAC
 40
1.0
  9
$DIMTOFL
 70
     0
  9
$DIMTVP
 40
0.0
  9
$DIMTIX
 70
     0
  9
$DIMSOXD
 70
     0
  9
$DIMSAH
 70
     0
  9
$DIMBLK1
  1

  9
$DIMBLK2
  1

  9
$DIMSTYLE
  2
Standard
  9
$DIMCLRD
 70
     0
  9
$DIMCLRE
 70
     0
  9
$DIMCLRT
 70
     0
  9
$DIMTFAC
 40
1.0
  9
$DIMGAP
 40
0.09
  9
$DIMJUST
 70
     0
  9
$DIMSD1
 70
     0
  9
$DIMSD2
 70
     0
  9
$DIMTOLJ
 70
     1
  9
$DIMTZIN
 70
     0
  9
$DIMALTZ
 70
     0
  9
$DIMALTTZ
 70
     0
  9
$DIMUPT
 70
     0
  9
$DIMDEC
 70
     4
  9
$DIMTDEC
 70
     4
  9
$DIMALTU
 70
     2
  9
$DIMALTTD
 70
     2
  9
$DIMTXSTY
  7
Standard
  9
$DIMAUNIT
 70
     0
  9
$DIMADEC
 70
     0
  9
$DIMALTRND
 40
0.0
  9
$DIMAZIN
 70
     0
  9
$DIMDSEP
 70
     0
  9
$DIMATFIT
 70
     3
  9
$DIMFRAC
 70
     0
  9
$DIMLDRBLK
  1

  9
$DIMLUNIT
 70
     2
  9
$DIMLWD
 70
     0
  9
$DIMLWE
 70
     0
  9
$DIMTMOVE
 70
     0
  9
$LUNITS
 70
     2
  9
$LUPREC
 70
     4
  9
$SKETCHINC
 40
0.1
  9
$FILLETRAD
 40
0.0
  9
$AUNITS
 70
     0
  9
$AUPREC
 70
     0
  9
$MENU
  1
acad
  9
$ELEVATION
 40
0.0
  9
$PELEVATION
 40
0.0
  9
$THICKNESS
 40
0.0
  9
$LIMCHECK
 70
     0
  9
$CHAMFERA
 40
0.0
  9
$CHAMFERB
 40
0.0
  9
$CHAMFERC
 40
0.0
  9
$CHAMFERD
 40
0.0
  9
$SKPOLY
 70
     0
  9
$TDCREATE
 40
0.000000000
  9
$TDUCREATE
 40
0.000000000
  9
$TDUPDATE
 40
0.000000000
  9
$TDUUPDATE
 40
0.000000000
  9
$TDINDWG
 40
0.0000000000
  9
$TDUSRTIMER
 40
0.0000000000
  9
$USRTIMER
 70
     1
  9
$ANGBASE
 50
0.0
  9
$ANGDIR
 70
     0
  9
$PDMODE
 70
     0
  9
$PDSIZE
 40
0.0
  9
$PLINEWID
 40
0.0
  9
$SPLFRAME
 70
     0
  9
$SPLINETYPE
 70
     6
  9
$SPLINESEGS
 70
     8
  9
$HANDSEED
  5
2F6
  9
$SURFTAB1
 70
     6
  9
$SURFTAB2
 70
     6
  9
$SURFTYPE
 70
     6
  9
$SURFU
 70
     6
  9
$SURFV
 70
     6
  9
$UCSBASE
  2

  9
$UCSNAME
  2

  9
$UCSORG
 10
0.0
 20
0.0
 30
0.0
  9
$UCSXDIR
 10
1.0
 20
0.0
 30
0.0
  9
$UCSYDIR
 10
0.0
 20
1.0
 30
0.0
  9
$UCSORTHOREF
  2

  9
$UCSORTHOVIEW
 70
     0
  9
$UCSORGTOP
 10
0.0
 20
0.0
 30
0.0
  9
$UCSORGBOTTOM
 10
0.0
 20
0.0
 30
0.0
  9
$UCSORGLEFT
 10
0.0
 20
0.0
 30
0.0
  9
$UCSORGRIGHT
 10
0.0
 20
0.0
 30
0.0
  9
$UCSORGFRONT
 10
0.0
 20
0.0
 30
0.0
  9
$UCSORGBACK
 10
0.0
 20
0.0
 30
0.0
  9
$PUCSBASE
  2

  9
$PUCSNAME
  2

  9
$PUCSORG
 10
0.0
 20
0.0
 30
0.0
  9
$PUCSXDIR
 10
1.0
 20
0.0
 30
0.0
  9
$PUCSYDIR
 10
0.0
 20
1.0
 30
0.0
  9
$PUCSORTHOREF
  2

  9
$PUCSORTHOVIEW
 70
     0
  9
$PUCSORGTOP
 10
0.0
 20
0.0
 30
0.0
  9
$PUCSORGBOTTOM
 10
0.0
 20
0.0
 30
0.0
  9
$PUCSORGLEFT
 10
0.0
 20
0.0
 30
0.0
  9
$PUCSORGRIGHT
 10
0.0
 20
0.0
 30
0.0
  9
$PUCSORGFRONT
 10
0.0
 20
0.0
 30
0.0
  9
$PUCSORGBACK
 10
0.0
 20
0.0
 30
0.0
  9
$USERI1
 70
     0
  9
$USERI2
 70
     0
  9
$USERI3
 70
     0
  9
$USERI4
 70
     0
  9
$USERI5
 70
     0
  9
$USERR1
 40
0.0
  9
$USERR2
 40
0.0
  9
$USERR3
 40
0.0
  9
$USERR4
 40
0.0
  9
$USERR5
 40
0.0
  9
$WORLDVIEW
 70
     1
  9
$SHADEDGE
 70
     3
  9
$SHADEDIF
 70
    70
  9
$TILEMODE
 70
     1
  9
$MAXACTVP
 70
    16
  9
$PINSBASE
 10
0.0
 20
0.0
 30
0.0
  9
$PLIMCHECK
 70
     0
  9
$PEXTMIN
 10
1.000000E+20
 20
1.000000E+20
 30
1.000000E+20
  9
$PEXTMAX
 10
-1.000000E+20
 20
-1.000000E+20
 30
-1.000000E+20
  9
$PLIMMIN
 10
0.0
 20
0.0
  9
$PLIMMAX
 10
12.0
 20
9.0
  9
$UNITMODE
 70
     0
  9
$VISRETAIN
 70
     0
  9
$PLINEGEN
 70
     1
  9
$PSLTSCALE
 70
     0
  9
$TREEDEPTH
 70
  3020
  9
$CMLSTYLE
  2
Standard
  9
$CMLJUST
 70
     0
  9
$CMLSCALE
 40
1.0
  9
$PROXYGRAPHICS
 70
     0
  9
$MEASUREMENT
 70
     0
  9
$CELWEIGHT
370
     0
  9
$ENDCAPS
280
     0
  9
$JOINSTYLE
280
     0
  9
$LWDISPLAY
290
     0
  9
$INSUNITS
 70
     0
  9
$HYPERLINKBASE
  1

  9
$XEDIT
290
     1
  9
$CEPSNTYPE
380
     0
  9
$PSTYLEMODE
290
     1
  9
$FINGERPRINTGUID
  2

  9
$VERSIONGUID
  2

  9
$EXTNAMES
290
     1
  9
$PSVPSCALE
 40
0.0
  0
ENDSEC
  0
SECTION
  2
CLASSES
  0
CLASS
  1
LWPOLYLINE
  2
AcDbPolyline
  3
AutoCAD 2000
 90
        0
280
     0
281
     1
  0
CLASS
  1
IMAGE
  2
AcDbRasterImage
  3
ISM
 90
    32895
280
     0
281
     1
  0
CLASS
  1
OLE2FRAME
  2
AcDbOle2Frame
  3
AutoCAD 2000
 90
    32768
280
     0
281
     1
  0
CLASS
  1
HATCH
  2
AcDbHatch
  3
AutoCAD 2000
 90
    32768
280
     0
281
     1
  0
CLASS
  1
DICTIONARYVAR
  2
AcDbDictionaryVar
  3
AutoCAD 2000
 90
    32768
280
     0
281
     0
  0
CLASS
  1
RASTERVARIABLES
  2
AcDbRasterVariables
  3
ISM
 90
    32768
280
     0
281
     0
  0
CLASS
  1
IMAGEDEF
  2
AcDbRasterImageDef
  3
ISM
 90
    32768
280
     0
281
     0
  0
CLASS
  1
IMAGEDEF_REACTOR
  2
AcDbRasterImageDefReactor
  3
ISM
 90
    32769
280
     0
281
     0
  0
CLASS
  1
IDBUFFER
  2
AcDbIdBuffer
  3
AutoCAD 2000
 90
    32768
280
     0
281
     0
  0
CLASS
  1
SPATIAL_FILTER
  2
AcDbSpatialFilter
  3
AutoCAD 2000
 90
    32768
280
     0
281
     0
  0
CLASS
  1
XRECORD
  2
AcDbXrecord
  3
AutoCAD 2000
 90
    32768
280
     0
281
     0
  0
CLASS
  1
SORTENTSTABLE
  2
AcDbSortentsTable
  3
AutoCAD 2000
 90
    32768
280
     0
281
     0
  0
CLASS
  1
LAYER_INDEX
  2
AcDbLayerIndex
  3
AutoCAD 2000
 90
    32768
280
     0
281
     0
  0
CLASS
  1
SPATIAL_INDEX
  2
AcDbSpatialIndex
  3
AutoCAD 2000
 90
    32768
280
     0
281
     0
  0
CLASS
  1
OBJECT_PTR
  2
CAseDLPNTableRecord
  3
"ASE-LPNTableRecord"
 90
    32769
280
     0
281
     0
  0
CLASS
  1
LAYOUT
  2
AcDbLayout
  3
AutoCAD 2000
 90
        0
280
     0
281
     0
  0
CLASS
  1
PLOTSETTINGS
  2
AcDbPlotSettings
  3
AutoCAD 2000
 90
    32768
280
     0
281
     0
  0
CLASS
  1
ACDBDICTIONARYWDFLT
  2
AcDbDictionaryWithDefault
  3
AutoCAD 2000
 90
        0
280
     0
281
     0
  0
CLASS
  1
ACDBPLACEHOLDER
  2
AcDbPlaceHolder
  3
AutoCAD 2000
 90
        0
280
     0
281
     0
  0
CLASS
  1
VBA_PROJECT
  2
AcDbVbaProject
  3
acadvba
 90
    32768
280
     0
281
     0
  0
CLASS
  1
WIPEOUT
  2
AcDbWipeout
  3
WipeOut|AutoCAD Express Tool|expresstools@autodesk.com
 90
    32895
280
     0
281
     1
  0
CLASS
  1
WIPEOUTVARIABLES
  2
AcDbWipeoutVariables
  3
WipeOut|AutoCAD Express Tool|expresstools@autodesk.com
 90
        0
280
     0
281
     0
  0
CLASS
  1
RTEXT
  2
RText
  3
RText|AutoCAD Express Tool|expresstools@autodesk.com
 90
    32768
280
     0
281
     1
  0
CLASS
  1
ARCALIGNEDTEXT
  2
AcDbArcAlignedText
  3
ATEXT|AutoCAD Express Tool|expresstools@autodesk.com
 90
    32768
280
     0
281
     1
  0
ENDSEC
  0
SECTION
  2
TABLES
  0
TABLE
  2
VPORT
  5
7
100
AcDbSymbolTable
 70
     1
  0
VPORT
  5
15
100
AcDbSymbolTableRecord
100
AcDbViewportTableRecord
  2
*ACTIVE
 70
     0
 10
0.0
 20
0.0
 11
1.0
 21
1.0
 12
6.591288
 22
4.579184
 13
0.0
 23
0.0
 14
1.0
 24
1.0
 15
0.0
 25
0.0
 16
0.0
 26
0.0
 36
1.0
 17
0.0
 27
0.0
 37
0.0
 40
9.158369
 41
0.688564
 42
50.0
 43
0.0
 44
0.0
 50
0.0
 51
0.0
 71
     0
 72
   100
 73
     1
 74
     1
 75
     0
 76
     0
 77
     0
 78
     0
281
     0
 65
     0
110
0.0
120
0.0
130
0.0
111
1.0
121
0.0
131
0.0
112
0.0
122
1.0
132
0.0
345
0
346
0
 79
     0
146
0.0
  0
ENDTAB
  0
TABLE
  2
LTYPE
  5
4
100
AcDbSymbolTable
 70
     3
  0
LTYPE
  5
11
100
AcDbSymbolTableRecord
100
AcDbLinetypeTableRecord
  2
ByBlock
 70
    64
  3

 72
    65
 73
     0
 40
0.0
  0
LTYPE
  5
12
100
AcDbSymbolTableRecord
100
AcDbLinetypeTableRecord
  2
ByLayer
 70
    64
  3

 72
    65
 73
     0
 40
0.0
  0
LTYPE
  5
13
100
AcDbSymbolTableRecord
100
AcDbLinetypeTableRecord
  2
Continuous
 70
    64
  3
Solid line
 72
    65
 73
     0
 40
0.0
  0
ENDTAB
  0
TABLE
  2
LAYER
  5
2
100
AcDbSymbolTable
 70
     1
  0
LAYER
  5
14
100
AcDbSymbolTableRecord
100
AcDbLayerTableRecord
  2
0
 70
     0
 62
     7
  6
Continuous
290
     1
370
    -3
390
1D
  0
ENDTAB
  0
TABLE
  2
STYLE
  5
3
100
AcDbSymbolTable
 70
     1
  0
STYLE
  5
17
100
AcDbSymbolTableRecord
100
AcDbTextStyleTableRecord
  2
Standard
 70
     0
 40
0.0
 41
1.0
 50
0.0
 71
     0
 42
0.0
  3
txt
  4

  0
ENDTAB
  0
TABLE
  2
VIEW
  5
5
100
AcDbSymbolTable
 70
     0
  0
ENDTAB
  0
TABLE
  2
UCS
  5
6
100
AcDbSymbolTable
 70
     0
  0
ENDTAB
  0
TABLE
  2
APPID
  5
8
100
AcDbSymbolTable
 70
     1
  0
APPID
  5
16
100
AcDbSymbolTableRecord
100
AcDbRegAppTableRecord
  2
ACAD
 70
     0
  0
ENDTAB
  0
TABLE
  2
DIMSTYLE
  5
9
100
AcDbSymbolTable
 70
     1
100
AcDbDimStyleTable
 71
     0
  0
DIMSTYLE
105
18
100
AcDbSymbolTableRecord
100
AcDbDimStyleTableRecord
  2
Standard
 70
     0
  3

  4

 40
1.0
 41
0.18
 42
0.0625
 43
0.38
 44
0.18
 45
0.0
 46
0.0
 47
0.0
 48
0.0
 71
     0
 72
     0
 73
     1
 74
     1
 75
     0
 76
     0
 77
     0
 78
     0
 79
     0
140
0.18
141
0.09
142
0.0
143
25.4
144
1.0
145
0.0
146
1.0
147
0.09
148
0.0
170
     0
171
     2
172
     0
173
     0
174
     0
175
     0
176
     0
177
     0
178
     0
179
     0
271
     4
272
     4
273
     2
274
     2
275
     0
276
     0
277
     2
278
    46
279
     0
280
     0
281
     0
282
     0
283
     1
284
     0
285
     0
286
     0
288
     0
340
17
341
0
342
0
343
0
344
0
371
    -2
372
    -2
  0
ENDTAB
  0
TABLE
  2
BLOCK_RECORD
  5
1
100
AcDbSymbolTable
 70
     0
  0
BLOCK_RECORD
  5
A
100
AcDbSymbolTableRecord
100
AcDbBlockTableRecord
  2
*MODEL_SPACE
340
20
  0
BLOCK_RECORD
  5
B
100
AcDbSymbolTableRecord
100
AcDbBlockTableRecord
  2
*PAPER_SPACE
340
21
  0
ENDTAB
  0
ENDSEC
  0
SECTION
  2
BLOCKS
  0
BLOCK
  5
D
100
AcDbEntity
  8
0
100
AcDbBlockBegin
  2
*MODEL_SPACE
 70
     0
 10
0.0
 20
0.0
 30
0.0
  3
*MODEL_SPACE
  1

  0
ENDBLK
  5
E
100
AcDbEntity
  8
0
100
AcDbBlockEnd
  0
BLOCK
  5
F
100
AcDbEntity
 67
     1
  8
0
100
AcDbBlockBegin
  2
*PAPER_SPACE
 70
     0
 10
0.0
 20
0.0
 30
0.0
  3
*PAPER_SPACE
  1

  0
ENDBLK
  5
10
100
AcDbEntity
 67
     1
  8
0
100
AcDbBlockEnd
  0
ENDSEC
  0
SECTION
  2
ENTITIES
  0
LINE
  5
24
100
AcDbEntity
  8
0
 62
     7
100
AcDbLine
 10
-0.803043
 20
2.285677
 30
0.0
 11
0.668161
 21
2.285677
 31
0.0
  0
SPLINE
  5
25
100
AcDbEntity
  8
0
 62
     7
100
AcDbSpline
210
0.0
220
0.0
230
1.0
 70
     0
 71
     3
 72
     0
 73
     0
 74
    16
 44
0.0000000001
 11
0.6681614173228346
 21
2.2856771653543309
 31
0.0
 11
0.6708464566929134
 21
2.3287637795275589
 31
0.0
 11
0.6773149606299213
 21
2.3733070866141732
 31
0.0
 11
0.6875826771653544
 21
2.4187362204724407
 31
0.0
 11
0.7016889763779528
 21
2.4645157480314959
 31
0.0
 11
0.7196377952755906
 21
2.5100748031496063
 31
0.0
 11
0.7414724409448819
 21
2.5548779527559056
 31
0.0
 11
0.7672086614173228
 21
2.5983582677165353
 31
0.0
 11
0.7968779527559056
 21
2.6399763779527561
 31
0.0
 11
0.8304921259842519
 21
2.6791653543307086
 31
0.0
 11
0.8680984251968504
 21
2.7153818897637794
 31
0.0
 11
0.9097047244094488
 21
2.7480708661417323
 31
0.0
 11
0.9553464566929134
 21
2.7766850393700788
 31
0.0
 11
1.0050354330708662
 21
2.8006614173228348
 31
0.0
 11
1.0588149606299213
 21
2.819456692913386
 31
0.0
 11
1.1166968503937007
 21
2.8325118110236223
 31
0.0
  0
LINE
  5
26
100
AcDbEntity
  8
0
 62
     7
100
AcDbLine
 10
1.116697
 20
2.832512
 30
0.0
 11
1.17872
 21
2.839287
 31
0.0
  0
LINE
  5
27
100
AcDbEntity
  8
0
 62
     7
100
AcDbLine
 10
1.17872
 20
2.839287
 30
0.0
 11
1.17872
 21
3.012575
 31
0.0
  0
LINE
  5
28
100
AcDbEntity
  8
0
 62
     7
100
AcDbLine
 10
1.17872
 20
3.012575
 30
0.0
 11
1.607071
 21
3.034209
 31
0.0
  0
SPLINE
  5
29
100
AcDbEntity
  8
0
 62
     7
100
AcDbSpline
210
0.0
220
0.0
230
1.0
 70
     0
 71
     3
 72
     0
 73
     0
 74
    16
 44
0.0000000001
 11
1.6070708661417323
 21
3.0342086614173227
 31
0.0
 11
1.6000511811023621
 21
3.1248818897637793
 31
0.0
 11
1.5884960629921261
 21
3.2103937007874017
 31
0.0
 11
1.5720078740157479
 21
3.2908464566929134
 31
0.0
 11
1.5502086614173229
 21
3.3663503937007873
 31
0.0
 11
1.5226968503937008
 21
3.4370078740157481
 31
0.0
 11
1.4891023622047244
 21
3.5029370078740159
 31
0.0
 11
1.4490236220472441
 21
3.5642362204724409
 31
0.0
 11
1.4020866141732284
 21
3.621023622047244
 31
0.0
 11
1.3478897637795275
 21
3.6733897637795274
 31
0.0
 11
1.2860629921259843
 21
3.7214566929133857
 31
0.0
 11
1.2162086614173229
 21
3.7653267716535432
 31
0.0
 11
1.1379488188976379
 21
3.8051141732283464
 31
0.0
 11
1.0508818897637795
 21
3.8409133858267714
 31
0.0
 11
0.9546417322834646
 21
3.8728464566929133
 31
0.0
 11
0.8488267716535433
 21
3.9010078740157481
 31
0.0
  0
LINE
  5
2A
100
AcDbEntity
  8
0
 62
     7
100
AcDbLine
 10
0.848827
 20
3.901008
 30
0.0
 11
0.733063
 21
3.925524
 31
0.0
  0
LINE
  5
2B
100
AcDbEntity
  8
0
 62
     7
100
AcDbLine
 10
0.733063
 20
3.925524
 30
0.0
 11
0.720189
 21
3.986098
 31
0.0
  0
LINE
  5
2C
100
AcDbEntity
  8
0
 62
     7
100
AcDbLine
 10
0.720189
 20
3.986098
 30
0.0
 11
-0.707752
 21
3.986098
 31
0.0
  0
LINE
  5
2D
100
AcDbEntity
  8
0
 62
     7
100
AcDbLine
 10
-0.707752
 20
3.986098
 30
0.0
 11
-0.798614
 21
3.986098
 31
0.0
  0
LINE
  5
2E
100
AcDbEntity
  8
0
 62
     7
100
AcDbLine
 10
-0.798614
 20
3.986098
 30
0.0
 11
-0.803043
 21
2.285677
 31
0.0
  0
MTEXT
  5
2F
100
AcDbEntity
  8
0
 62
     0
100
AcDbMText
 10
-0.596004
 20
2.328228
 30
0.0
 40
0.166665
 41
0.0
 71
     1
 72
     1
  1
{\fBookman Old Style|b0|i0|c0|p32;BA  1466}
 73
     1
 44
1.0
  0
MTEXT
  5
30
100
AcDbEntity
  8
0
 62
     0
100
AcDbMText
 10
-0.596004
 20
2.140728
 30
0.0
 40
0.166665
 41
0.0
 71
     1
 72
     1
  1
{\fBookman Old Style|b0|i0|c0|p32;1-3/4"}
 73
     1
 44
1.0
  0
LINE
  5
31
100
AcDbEntity
  8
0
 62
   254
100
AcDbLine
 10
-0.827697
 20
-0.468075
 30
0.0
 11
-0.180067
 21
-0.861764
 31
0.0
  0
LINE
  5
32
100
AcDbEntity
  8
0
 62
   254
100
AcDbLine
 10
-0.180067
 20
-0.861764
 30
0.0
 11
1.291138
 21
-0.861764
 31
0.0
  0
LINE
  5
33
100
AcDbEntity
  8
0
 62
   254
100
AcDbLine
 10
1.291138
 20
-0.861764
 30
0.0
 11
0.643508
 21
-0.468075
 31
0.0
  0
LINE
  5
34
100
AcDbEntity
  8
0
 62
   254
100
AcDbLine
 10
0.643508
 20
-0.468075
 30
0.0
 11
-0.827697
 21
-0.468075
 31
0.0
  0
LWPOLYLINE
  5
35
100
AcDbEntity
  8
0
 62
     0
100
AcDbPolyline
 90
        2
 70
     0
 39
0.003
 10
-0.827697
 20
-0.468075
 40
0.003
 41
0.003
 10
-0.180067
 20
-0.861764
 40
0.003
 41
0.003
  0
LWPOLYLINE
  5
36
100
AcDbEntity
  8
0
 62
     0
100
AcDbPolyline
 90
        2
 70
     0
 39
0.003
 10
-0.180067
 20
-0.861764
 40
0.003
 41
0.003
 10
1.291138
 20
-0.861764
 40
0.003
 41
0.003
  0
LWPOLYLINE
  5
37
100
AcDbEntity
  8
0
 62
     0
100
AcDbPolyline
 90
        2
 70
     0
 39
0.003
 10
1.291138
 20
-0.861764
 40
0.003
 41
0.003
 10
0.643508
 20
-0.468075
 40
0.003
 41
0.003
  0
LWPOLYLINE
  5
38
100
AcDbEntity
  8
0
 62
     0
100
AcDbPolyline
 90
        2
 70
     0
 39
0.003
 10
0.643508
 20
-0.468075
 40
0.003
 41
0.003
 10
-0.827697
 20
-0.468075
 40
0.003
 41
0.003
  0
LWPOLYLINE
  5
39
100
AcDbEntity
  8
0
 62
   254
100
AcDbPolyline
 90
        2
 70
     0
 39
0.003
 10
0.643508
 20
-0.468075
 40
0.003
 41
0.003
 10
1.291138
 20
-0.861764
 40
0.003
 41
0.003
  0
LWPOLYLINE
  5
3A
100
AcDbEntity
  8
0
 62
   254
100
AcDbPolyline
 90
        2
 70
     0
 39
0.003
 10
1.291138
 20
-0.861764
 40
0.003
 41
0.003
 10
1.292004
 20
-0.840425
 40
0.003
 41
0.003
  0
LWPOLYLINE
  5
3B
100
AcDbEntity
  8
0
 62
   254
100
AcDbPolyline
 90
        2
 70
     0
 39
0.003
 10
1.292004
 20
-0.840425
 40
0.003
 41
0.003
 10
0.644374
 20
-0.446736
 40
0.003
 41
0.003
  0
LWPOLYLINE
  5
3C
100
AcDbEntity
  8
0
 62
   254
100
AcDbPolyline
 90
        2
 70
     0
 39
0.003
 10
0.644374
 20
-0.446736
 40
0.003
 41
0.003
 10
0.643508
 20
-0.468075
 40
0.003
 41
0.003
  0
LWPOLYLINE
  5
3D
100
AcDbEntity
  8
0
 62
   254
100
AcDbPolyline
 90
        2
 70
     0
 39
0.003
 10
0.644374
 20
-0.446736
 40
0.003
 41
0.003
 10
1.292004
 20
-0.840425
 40
0.003
 41
0.003
  0
LWPOLYLINE
  5
3E
100
AcDbEntity
  8
0
 62
   254
100
AcDbPolyline
 90
        2
 70
     0
 39
0.003
 10
1.292004
 20
-0.840425
 40
0.003
 41
0.003
 10
1.293823
 20
-0.818665
 40
0.003
 41
0.003
  0
LWPOLYLINE
  5
3F
100
AcDbEntity
  8
0
 62
   254
100
AcDbPolyline
 90
        2
 70
     0
 39
0.003
 10
1.293823
 20
-0.818665
 40
0.003
 41
0.003
 10
0.646193
 20
-0.424976
 40
0.003
 41
0.003
  0
LWPOLYLINE
  5
40
100
AcDbEntity
  8
0
 62
   254
100
AcDbPolyline
 90
        2
 70
     0
 39
0.003
 10
0.646193
 20
-0.424976
 40
0.003
 41
0.003
 10
0.644374
 20
-0.446736
 40
0.003
 41
0.003
  0
LWPOLYLINE
  5
41
100
AcDbEntity
  8
0
 62
   254
100
AcDbPolyline
 90
        2
 70
     0
 39
0.003
 10
0.646193
 20
-0.424976
 40
0.003
 41
0.003
 10
1.293823
 20
-0.818665
 40
0.003
 41
0.003
  0
LWPOLYLINE
  5
42
100
AcDbEntity
  8
0
 62
   254
100
AcDbPolyline
 90
        2
 70
     0
 39
0.003
 10
1.293823
 20
-0.818665
 40
0.003
 41
0.003
 10
1.296583
 20
-0.796539
 40
0.003
 41
0.003
  0
LWPOLYLINE
  5
43
100
AcDbEntity
  8
0
 62
   254
100
AcDbPolyline
 90
        2
 70
     0
 39
0.003
 10
1.296583
 20
-0.796539
 40
0.003
 41
0.003
 10
0.648953
 20
-0.40285
 40
0.003
 41
0.003
  0
LWPOLYLINE
  5
44
100
AcDbEntity
  8
0
 62
   254
100
AcDbPolyline
 90
        2
 70
     0
 39
0.003
 10
0.648953
 20
-0.40285
 40
0.003
 41
0.003
 10
0.646193
 20
-0.424976
 40
0.003
 41
0.003
  0
LWPOLYLINE
  5
45
100
AcDbEntity
  8
0
 62
   254
100
AcDbPolyline
 90
        2
 70
     0
 39
0.003
 10
0.648953
 20
-0.40285
 40
0.003
 41
0.003
 10
1.296583
 20
-0.796539
 40
0.003
 41
0.003
  0
LWPOLYLINE
  5
46
100
AcDbEntity
  8
0
 62
   254
100
AcDbPolyline
 90
        2
 70
     0
 39
0.003
 10
1.296583
 20
-0.796539
 40
0.003
 41
0.003
 10
1.300291
 20
-0.774126
 40
0.003
 41
0.003
  0
LWPOLYLINE
  5
47
100
AcDbEntity
  8
0
 62
   254
100
AcDbPolyline
 90
        2
 70
     0
 39
0.003
 10
1.300291
 20
-0.774126
 40
0.003
 41
0.003
 10
0.652661
 20
-0.380437
 40
0.003
 41
0.003
  0
LWPOLYLINE
  5
48
100
AcDbEntity
  8
0
 62
   254
100
AcDbPolyline
 90
        2
 70
     0
 39
0.003
 10
0.652661
 20
-0.380437
 40
0.003
 41
0.003
 10
0.648953
 20
-0.40285
 40
0.003
 41
0.003
  0
LWPOLYLINE
  5
49
100
AcDbEntity
  8
0
 62
   254
100
AcDbPolyline
 90
        2
 70
     0
 39
0.003
 10
0.652661
 20
-0.380437
 40
0.003
 41
0.003
 10
1.300291
 20
-0.774126
 40
0.003
 41
0.003
  0
LWPOLYLINE
  5
4A
100
AcDbEntity
  8
0
 62
   254
100
AcDbPolyline
 90
        2
 70
     0
 39
0.003
 10
1.300291
 20
-0.774126
 40
0.003
 41
0.003
 10
1.304945
 20
-0.751484
 40
0.003
 41
0.003
  0
LWPOLYLINE
  5
4B
100
AcDbEntity
  8
0
 62
   254
100
AcDbPolyline
 90
        2
 70
     0
 39
0.003
 10
1.304945
 20
-0.751484
 40
0.003
 41
0.003
 10
0.657315
 20
-0.357795
 40
0.003
 41
0.003
  0
LWPOLYLINE
  5
4C
100
AcDbEntity
  8
0
 62
   254
100
AcDbPolyline
 90
        2
 70
     0
 39
0.003
 10
0.657315
 20
-0.357795
 40
0.003
 41
0.003
 10
0.652661
 20
-0.380437
 40
0.003
 41
0.003
  0
LWPOLYLINE
  5
4D
100
AcDbEntity
  8
0
 62
   254
100
AcDbPolyline
 90
        2
 70
     0
 39
0.003
 10
0.657315
 20
-0.357795
 40
0.003
 41
0.003
 10
1.304945
 20
-0.751484
 40
0.003
 41
0.003
  0
LWPOLYLINE
  5
4E
100
AcDbEntity
  8
0
 62
   254
100
AcDbPolyline
 90
        2
 70
     0
 39
0.003
 10
1.304945
 20
-0.751484
 40
0.003
 41
0.003
 10
1.310559
 20
-0.728693
 40
0.003
 41
0.003
  0
LWPOLYLINE
  5
4F
100
AcDbEntity
  8
0
 62
   254
100
AcDbPolyline
 90
        2
 70
     0
 39
0.003
 10
1.310559
 20
-0.728693
 40
0.003
 41
0.003
 10
0.662929
 20
-0.335004
 40
0.003
 41
0.003
  0
LWPOLYLINE
  5
50
100
AcDbEntity
  8
0
 62
   254
100
AcDbPolyline
 90
        2
 70
     0
 39
0.003
 10
0.662929
 20
-0.335004
 40
0.003
 41
0.003
 10
0.657315
 20
-0.357795
 40
0.003
 41
0.003
  0
LWPOLYLINE
  5
51
100
AcDbEntity
  8
0
 62
   254
100
AcDbPolyline
 90
        2
 70
     0
 39
0.003
 10
0.662929
 20
-0.335004
 40
0.003
 41
0.003
 10
1.310559
 20
-0.728693
 40
0.003
 41
0.003
  0
LWPOLYLINE
  5
52
100
AcDbEntity
  8
0
 62
   254
100
AcDbPolyline
 90
        2
 70
     0
 39
0.003
 10
1.310559
 20
-0.728693
 40
0.003
 41
0.003
 10
1.31713
 20
-0.705811
 40
0.003
 41
0.003
  0
LWPOLYLINE
  5
53
100
AcDbEntity
  8
0
 62
   254
100
AcDbPolyline
 90
        2
 70
     0
 39
0.003
 10
1.31713
 20
-0.705811
 40
0.003
 41
0.003
 10
0.6695
 20
-0.312122
 40
0.003
 41
0.003
  0
LWPOLYLINE
  5
54
100
AcDbEntity
  8
0
 62
   254
100
AcDbPolyline
 90
        2
 70
     0
 39
0.003
 10
0.6695
 20
-0.312122
 40
0.003
 41
0.003
 10
0.662929
 20
-0.335004
 40
0.003
 41
0.003
  0
LWPOLYLINE
  5
55
100
AcDbEntity
  8
0
 62
   254
100
AcDbPolyline
 90
        2
 70
     0
 39
0.003
 10
0.6695
 20
-0.312122
 40
0.003
 41
0.003
 10
1.31713
 20
-0.705811
 40
0.003
 41
0.003
  0
LWPOLYLINE
  5
56
100
AcDbEntity
  8
0
 62
   254
100
AcDbPolyline
 90
        2
 70
     0
 39
0.003
 10
1.31713
 20
-0.705811
 40
0.003
 41
0.003
 10
1.324665
 20
-0.682921
 40
0.003
 41
0.003
  0
LWPOLYLINE
  5
57
100
AcDbEntity
  8
0
 62
   254
100
AcDbPolyline
 90
        2
 70
     0
 39
0.003
 10
1.324665
 20
-0.682921
 40
0.003
 41
0.003
 10
0.677035
 20
-0.289232
 40
0.003
 41
0.003
  0
LWPOLYLINE
  5
58
100
AcDbEntity
  8
0
 62
   254
100
AcDbPolyline
 90
        2
 70
     0
 39
0.003
 10
0.677035
 20
-0.289232
 40
0.003
 41
0.003
 10
0.6695
 20
-0.312122
 40
0.003
 41
0.003
  0
LWPOLYLINE
  5
59
100
AcDbEntity
  8
0
 62
   254
100
AcDbPolyline
 90
        2
 70
     0
 39
0.003
 10
0.677035
 20
-0.289232
 40
0.003
 41
0.003
 10
1.324665
 20
-0.682921
 40
0.003
 41
0.003
  0
LWPOLYLINE
  5
5A
100
AcDbEntity
  8
0
 62
   254
100
AcDbPolyline
 90
        2
 70
     0
 39
0.003
 10
1.324665
 20
-0.682921
 40
0.003
 41
0.003
 10
1.333154
 20
-0.660075
 40
0.003
 41
0.003
  0
LWPOLYLINE
  5
5B
100
AcDbEntity
  8
0
 62
   254
100
AcDbPolyline
 90
        2
 70
     0
 39
0.003
 10
1.333154
 20
-0.660075
 40
0.003
 41
0.003
 10
0.685524
 20
-0.266386
 40
0.003
 41
0.003
  0
LWPOLYLINE
  5
5C
100
AcDbEntity
  8
0
 62
   254
100
AcDbPolyline
 90
        2
 70
     0
 39
0.003
 10
0.685524
 20
-0.266386
 40
0.003
 41
0.003
 10
0.677035
 20
-0.289232
 40
0.003
 41
0.003
  0
LWPOLYLINE
  5
5D
100
AcDbEntity
  8
0
 62
   254
100
AcDbPolyline
 90
        2
 70
     0
 39
0.003
 10
0.685524
 20
-0.266386
 40
0.003
 41
0.003
 10
1.333154
 20
-0.660075
 40
0.003
 41
0.003
  0
LWPOLYLINE
  5
5E
100
AcDbEntity
  8
0
 62
   254
100
AcDbPolyline
 90
        2
 70
     0
 39
0.003
 10
1.333154
 20
-0.660075
 40
0.003
 41
0.003
 10
1.342614
 20
-0.637354
 40
0.003
 41
0.003
  0
LWPOLYLINE
  5
5F
100
AcDbEntity
  8
0
 62
   254
100
AcDbPolyline
 90
        2
 70
     0
 39
0.003
 10
1.342614
 20
-0.637354
 40
0.003
 41
0.003
 10
0.694984
 20
-0.243665
 40
0.003
 41
0.003
  0
LWPOLYLINE
  5
60
100
AcDbEntity
  8
0
 62
   254
100
AcDbPolyline
 90
        2
 70
     0
 39
0.003
 10
0.694984
 20
-0.243665
 40
0.003
 41
0.003
 10
0.685524
 20
-0.266386
 40
0.003
 41
0.003
  0
LWPOLYLINE
  5
61
100
AcDbEntity
  8
0
 62
   254
100
AcDbPolyline
 90
        2
 70
     0
 39
0.003
 10
0.694984
 20
-0.243665
 40
0.003
 41
0.003
 10
1.342614
 20
-0.637354
 40
0.003
 41
0.003
  0
LWPOLYLINE
  5
62
100
AcDbEntity
  8
0
 62
   254
100
AcDbPolyline
 90
        2
 70
     0
 39
0.003
 10
1.342614
 20
-0.637354
 40
0.003
 41
0.003
 10
1.353043
 20
-0.614819
 40
0.003
 41
0.003
  0
LWPOLYLINE
  5
63
100
AcDbEntity
  8
0
 62
   254
100
AcDbPolyline
 90
        2
 70
     0
 39
0.003
 10
1.353043
 20
-0.614819
 40
0.003
 41
0.003
 10
0.705413
 20
-0.22113
 40
0.003
 41
0.003
  0
LWPOLYLINE
  5
64
100
AcDbEntity
  8
0
 62
   254
100
AcDbPolyline
 90
        2
 70
     0
 39
0.003
 10
0.705413
 20
-0.22113
 40
0.003
 41
0.003
 10
0.694984
 20
-0.243665
 40
0.003
 41
0.003
  0
LWPOLYLINE
  5
65
100
AcDbEntity
  8
0
 62
   254
100
AcDbPolyline
 90
        2
 70
     0
 39
0.003
 10
0.705413
 20
-0.22113
 40
0.003
 41
0.003
 10
1.353043
 20
-0.614819
 40
0.003
 41
0.003
  0
LWPOLYLINE
  5
66
100
AcDbEntity
  8
0
 62
   254
100
AcDbPolyline
 90
        2
 70
     0
 39
0.003
 10
1.353043
 20
-0.614819
 40
0.003
 41
0.003
 10
1.364449
 20
-0.592555
 40
0.003
 41
0.003
  0
LWPOLYLINE
  5
67
100
AcDbEntity
  8
0
 62
   254
100
AcDbPolyline
 90
        2
 70
     0
 39
0.003
 10
1.364449
 20
-0.592555
 40
0.003
 41
0.003
 10
0.716819
 20
-0.198866
 40
0.003
 41
0.003
  0
LWPOLYLINE
  5
68
100
AcDbEntity
  8
0
 62
   254
100
AcDbPolyline
 90
        2
 70
     0
 39
0.003
 10
0.716819
 20
-0.198866
 40
0.003
 41
0.003
 10
0.705413
 20
-0.22113
 40
0.003
 41
0.003
  0
LWPOLYLINE
  5
69
100
AcDbEntity
  8
0
 62
   254
100
AcDbPolyline
 90
        2
 70
     0
 39
0.003
 10
0.716819
 20
-0.198866
 40
0.003
 41
0.003
 10
1.364449
 20
-0.592555
 40
0.003
 41
0.003
  0
LWPOLYLINE
  5
6A
100
AcDbEntity
  8
0
 62
   254
100
AcDbPolyline
 90
        2
 70
     0
 39
0.003
 10
1.364449
 20
-0.592555
 40
0.003
 41
0.003
 10
1.376823
 20
-0.57061
 40
0.003
 41
0.003
  0
LWPOLYLINE
  5
6B
100
AcDbEntity
  8
0
 62
   254
100
AcDbPolyline
 90
        2
 70
     0
 39
0.003
 10
1.376823
 20
-0.57061
 40
0.003
 41
0.003
 10
0.729193
 20
-0.176921
 40
0.003
 41
0.003
  0
LWPOLYLINE
  5
6C
100
AcDbEntity
  8
0
 62
   254
100
AcDbPolyline
 90
        2
 70
     0
 39
0.003
 10
0.729193
 20
-0.176921
 40
0.003
 41
0.003
 10
0.716819
 20
-0.198866
 40
0.003
 41
0.003
  0
LWPOLYLINE
  5
6D
100
AcDbEntity
  8
0
 62
   254
100
AcDbPolyline
 90
        2
 70
     0
 39
0.003
 10
0.729193
 20
-0.176921
 40
0.003
 41
0.003
 10
1.376823
 20
-0.57061
 40
0.003
 41
0.003
  0
LWPOLYLINE
  5
6E
100
AcDbEntity
  8
0
 62
   254
100
AcDbPolyline
 90
        2
 70
     0
 39
0.003
 10
1.376823
 20
-0.57061
 40
0.003
 41
0.003
 10
1.390185
 20
-0.549071
 40
0.003
 41
0.003
  0
LWPOLYLINE
  5
6F
100
AcDbEntity
  8
0
 62
   254
100
AcDbPolyline
 90
        2
 70
     0
 39
0.003
 10
1.390185
 20
-0.549071
 40
0.003
 41
0.003
 10
0.742555
 20
-0.155382
 40
0.003
 41
0.003
  0
LWPOLYLINE
  5
70
100
AcDbEntity
  8
0
 62
   254
100
AcDbPolyline
 90
        2
 70
     0
 39
0.003
 10
0.742555
 20
-0.155382
 40
0.003
 41
0.003
 10
0.729193
 20
-0.176921
 40
0.003
 41
0.003
  0
LWPOLYLINE
  5
71
100
AcDbEntity
  8
0
 62
   254
100
AcDbPolyline
 90
        2
 70
     0
 39
0.003
 10
0.742555
 20
-0.155382
 40
0.003
 41
0.003
 10
1.390185
 20
-0.549071
 40
0.003
 41
0.003
  0
LWPOLYLINE
  5
72
100
AcDbEntity
  8
0
 62
   254
100
AcDbPolyline
 90
        2
 70
     0
 39
0.003
 10
1.390185
 20
-0.549071
 40
0.003
 41
0.003
 10
1.404524
 20
-0.527992
 40
0.003
 41
0.003
  0
LWPOLYLINE
  5
73
100
AcDbEntity
  8
0
 62
   254
100
AcDbPolyline
 90
        2
 70
     0
 39
0.003
 10
1.404524
 20
-0.527992
 40
0.003
 41
0.003
 10
0.756894
 20
-0.134303
 40
0.003
 41
0.003
  0
LWPOLYLINE
  5
74
100
AcDbEntity
  8
0
 62
   254
100
AcDbPolyline
 90
        2
 70
     0
 39
0.003
 10
0.756894
 20
-0.134303
 40
0.003
 41
0.003
 10
0.742555
 20
-0.155382
 40
0.003
 41
0.003
  0
LWPOLYLINE
  5
75
100
AcDbEntity
  8
0
 62
   254
100
AcDbPolyline
 90
        2
 70
     0
 39
0.003
 10
0.756894
 20
-0.134303
 40
0.003
 41
0.003
 10
1.404524
 20
-0.527992
 40
0.003
 41
0.003
  0
LWPOLYLINE
  5
76
100
AcDbEntity
  8
0
 62
   254
100
AcDbPolyline
 90
        2
 70
     0
 39
0.003
 10
1.404524
 20
-0.527992
 40
0.003
 41
0.003
 10
1.419854
 20
-0.507461
 40
0.003
 41
0.003
  0
LWPOLYLINE
  5
77
100
AcDbEntity
  8
0
 62
   254
100
AcDbPolyline
 90
        2
 70
     0
 39
0.003
 10
1.419854
 20
-0.507461
 40
0.003
 41
0.003
 10
0.772224
 20
-0.113772
 40
0.003
 41
0.003
  0
LWPOLYLINE
  5
78
100
AcDbEntity
  8
0
 62
   254
100
AcDbPolyline
 90
        2
 70
     0
 39
0.003
 10
0.772224
 20
-0.113772
 40
0.003
 41
0.003
 10
0.756894
 20
-0.134303
 40
0.003
 41
0.003
  0
LWPOLYLINE
  5
79
100
AcDbEntity
  8
0
 62
   254
100
AcDbPolyline
 90
        2
 70
     0
 39
0.003
 10
0.772224
 20
-0.113772
 40
0.003
 41
0.003
 10
1.419854
 20
-0.507461
 40
0.003
 41
0.003
  0
LWPOLYLINE
  5
7A
100
AcDbEntity
  8
0
 62
   254
100
AcDbPolyline
 90
        2
 70
     0
 39
0.003
 10
1.419854
 20
-0.507461
 40
0.003
 41
0.003
 10
1.436165
 20
-0.48752
 40
0.003
 41
0.003
  0
LWPOLYLINE
  5
7B
100
AcDbEntity
  8
0
 62
   254
100
AcDbPolyline
 90
        2
 70
     0
 39
0.003
 10
1.436165
 20
-0.48752
 40
0.003
 41
0.003
 10
0.788535
 20
-0.093831
 40
0.003
 41
0.003
  0
LWPOLYLINE
  5
7C
100
AcDbEntity
  8
0
 62
   254
100
AcDbPolyline
 90
        2
 70
     0
 39
0.003
 10
0.788535
 20
-0.093831
 40
0.003
 41
0.003
 10
0.772224
 20
-0.113772
 40
0.003
 41
0.003
  0
LWPOLYLINE
  5
7D
100
AcDbEntity
  8
0
 62
   254
100
AcDbPolyline
 90
        2
 70
     0
 39
0.003
 10
0.788535
 20
-0.093831
 40
0.003
 41
0.003
 10
1.436165
 20
-0.48752
 40
0.003
 41
0.003
  0
LWPOLYLINE
  5
7E
100
AcDbEntity
  8
0
 62
   254
100
AcDbPolyline
 90
        2
 70
     0
 39
0.003
 10
1.436165
 20
-0.48752
 40
0.003
 41
0.003
 10
1.453469
 20
-0.468264
 40
0.003
 41
0.003
  0
LWPOLYLINE
  5
7F
100
AcDbEntity
  8
0
 62
   254
100
AcDbPolyline
 90
        2
 70
     0
 39
0.003
 10
1.453469
 20
-0.468264
 40
0.003
 41
0.003
 10
0.805839
 20
-0.074575
 40
0.003
 41
0.003
  0
LWPOLYLINE
  5
80
100
AcDbEntity
  8
0
 62
   254
100
AcDbPolyline
 90
        2
 70
     0
 39
0.003
 10
0.805839
 20
-0.074575
 40
0.003
 41
0.003
 10
0.788535
 20
-0.093831
 40
0.003
 41
0.003
  0
LWPOLYLINE
  5
81
100
AcDbEntity
  8
0
 62
   254
100
AcDbPolyline
 90
        2
 70
     0
 39
0.003
 10
0.805839
 20
-0.074575
 40
0.003
 41
0.003
 10
1.453469
 20
-0.468264
 40
0.003
 41
0.003
  0
LWPOLYLINE
  5
82
100
AcDbEntity
  8
0
 62
   254
100
AcDbPolyline
 90
        2
 70
     0
 39
0.003
 10
1.453469
 20
-0.468264
 40
0.003
 41
0.003
 10
1.471772
 20
-0.449748
 40
0.003
 41
0.003
  0
LWPOLYLINE
  5
83
100
AcDbEntity
  8
0
 62
   254
100
AcDbPolyline
 90
        2
 70
     0
 39
0.003
 10
1.471772
 20
-0.449748
 40
0.003
 41
0.003
 10
0.824142
 20
-0.056059
 40
0.003
 41
0.003
  0
LWPOLYLINE
  5
84
100
AcDbEntity
  8
0
 62
   254
100
AcDbPolyline
 90
        2
 70
     0
 39
0.003
 10
0.824142
 20
-0.056059
 40
0.003
 41
0.003
 10
0.805839
 20
-0.074575
 40
0.003
 41
0.003
  0
LWPOLYLINE
  5
85
100
AcDbEntity
  8
0
 62
   254
100
AcDbPolyline
 90
        2
 70
     0
 39
0.003
 10
0.824142
 20
-0.056059
 40
0.003
 41
0.003
 10
1.471772
 20
-0.449748
 40
0.003
 41
0.003
  0
LWPOLYLINE
  5
86
100
AcDbEntity
  8
0
 62
   254
100
AcDbPolyline
 90
        2
 70
     0
 39
0.003
 10
1.471772
 20
-0.449748
 40
0.003
 41
0.003
 10
1.491075
 20
-0.432047
 40
0.003
 41
0.003
  0
LWPOLYLINE
  5
87
100
AcDbEntity
  8
0
 62
   254
100
AcDbPolyline
 90
        2
 70
     0
 39
0.003
 10
1.491075
 20
-0.432047
 40
0.003
 41
0.003
 10
0.843445
 20
-0.038358
 40
0.003
 41
0.003
  0
LWPOLYLINE
  5
88
100
AcDbEntity
  8
0
 62
   254
100
AcDbPolyline
 90
        2
 70
     0
 39
0.003
 10
0.843445
 20
-0.038358
 40
0.003
 41
0.003
 10
0.824142
 20
-0.056059
 40
0.003
 41
0.003
  0
LWPOLYLINE
  5
89
100
AcDbEntity
  8
0
 62
   254
100
AcDbPolyline
 90
        2
 70
     0
 39
0.003
 10
0.843445
 20
-0.038358
 40
0.003
 41
0.003
 10
1.491075
 20
-0.432047
 40
0.003
 41
0.003
  0
LWPOLYLINE
  5
8A
100
AcDbEntity
  8
0
 62
   254
100
AcDbPolyline
 90
        2
 70
     0
 39
0.003
 10
1.491075
 20
-0.432047
 40
0.003
 41
0.003
 10
1.511374
 20
-0.415224
 40
0.003
 41
0.003
  0
LWPOLYLINE
  5
8B
100
AcDbEntity
  8
0
 62
   254
100
AcDbPolyline
 90
        2
 70
     0
 39
0.003
 10
1.511374
 20
-0.415224
 40
0.003
 41
0.003
 10
0.863744
 20
-0.021535
 40
0.003
 41
0.003
  0
LWPOLYLINE
  5
8C
100
AcDbEntity
  8
0
 62
   254
100
AcDbPolyline
 90
        2
 70
     0
 39
0.003
 10
0.863744
 20
-0.021535
 40
0.003
 41
0.003
 10
0.843445
 20
-0.038358
 40
0.003
 41
0.003
  0
LWPOLYLINE
  5
8D
100
AcDbEntity
  8
0
 62
   254
100
AcDbPolyline
 90
        2
 70
     0
 39
0.003
 10
0.863744
 20
-0.021535
 40
0.003
 41
0.003
 10
1.511374
 20
-0.415224
 40
0.003
 41
0.003
  0
LWPOLYLINE
  5
8E
100
AcDbEntity
  8
0
 62
   254
100
AcDbPolyline
 90
        2
 70
     0
 39
0.003
 10
1.511374
 20
-0.415224
 40
0.003
 41
0.003
 10
1.532681
 20
-0.399354
 40
0.003
 41
0.003
  0
LWPOLYLINE
  5
8F
100
AcDbEntity
  8
0
 62
   254
100
AcDbPolyline
 90
        2
 70
     0
 39
0.003
 10
1.532681
 20
-0.399354
 40
0.003
 41
0.003
 10
0.885051
 20
-0.005665
 40
0.003
 41
0.003
  0
LWPOLYLINE
  5
90
100
AcDbEntity
  8
0
 62
   254
100
AcDbPolyline
 90
        2
 70
     0
 39
0.003
 10
0.885051
 20
-0.005665
 40
0.003
 41
0.003
 10
0.863744
 20
-0.021535
 40
0.003
 41
0.003
  0
LWPOLYLINE
  5
91
100
AcDbEntity
  8
0
 62
   254
100
AcDbPolyline
 90
        2
 70
     0
 39
0.003
 10
0.885051
 20
-0.005665
 40
0.003
 41
0.003
 10
1.532681
 20
-0.399354
 40
0.003
 41
0.003
  0
LWPOLYLINE
  5
92
100
AcDbEntity
  8
0
 62
   254
100
AcDbPolyline
 90
        2
 70
     0
 39
0.003
 10
1.532681
 20
-0.399354
 40
0.003
 41
0.003
 10
1.554992
 20
-0.384504
 40
0.003
 41
0.003
  0
LWPOLYLINE
  5
93
100
AcDbEntity
  8
0
 62
   254
100
AcDbPolyline
 90
        2
 70
     0
 39
0.003
 10
1.554992
 20
-0.384504
 40
0.003
 41
0.003
 10
0.907362
 20
0.009185
 40
0.003
 41
0.003
  0
LWPOLYLINE
  5
94
100
AcDbEntity
  8
0
 62
   254
100
AcDbPolyline
 90
        2
 70
     0
 39
0.003
 10
0.907362
 20
0.009185
 40
0.003
 41
0.003
 10
0.885051
 20
-0.005665
 40
0.003
 41
0.003
  0
LWPOLYLINE
  5
95
100
AcDbEntity
  8
0
 62
   254
100
AcDbPolyline
 90
        2
 70
     0
 39
0.003
 10
0.907362
 20
0.009185
 40
0.003
 41
0.003
 10
1.554992
 20
-0.384504
 40
0.003
 41
0.003
  0
LWPOLYLINE
  5
96
100
AcDbEntity
  8
0
 62
   254
100
AcDbPolyline
 90
        2
 70
     0
 39
0.003
 10
1.554992
 20
-0.384504
 40
0.003
 41
0.003
 10
1.578323
 20
-0.370744
 40
0.003
 41
0.003
  0
LWPOLYLINE
  5
97
100
AcDbEntity
  8
0
 62
   254
100
AcDbPolyline
 90
        2
 70
     0
 39
0.003
 10
1.578323
 20
-0.370744
 40
0.003
 41
0.003
 10
0.930693
 20
0.022945
 40
0.003
 41
0.003
  0
LWPOLYLINE
  5
98
100
AcDbEntity
  8
0
 62
   254
100
AcDbPolyline
 90
        2
 70
     0
 39
0.003
 10
0.930693
 20
0.022945
 40
0.003
 41
0.003
 10
0.907362
 20
0.009185
 40
0.003
 41
0.003
  0
LWPOLYLINE
  5
99
100
AcDbEntity
  8
0
 62
   254
100
AcDbPolyline
 90
        2
 70
     0
 39
0.003
 10
0.930693
 20
0.022945
 40
0.003
 41
0.003
 10
1.578323
 20
-0.370744
 40
0.003
 41
0.003
  0
LWPOLYLINE
  5
9A
100
AcDbEntity
  8
0
 62
   254
100
AcDbPolyline
 90
        2
 70
     0
 39
0.003
 10
1.578323
 20
-0.370744
 40
0.003
 41
0.003
 10
1.602654
 20
-0.358138
 40
0.003
 41
0.003
  0
LWPOLYLINE
  5
9B
100
AcDbEntity
  8
0
 62
   254
100
AcDbPolyline
 90
        2
 70
     0
 39
0.003
 10
1.602654
 20
-0.358138
 40
0.003
 41
0.003
 10
0.955024
 20
0.035551
 40
0.003
 41
0.003
  0
LWPOLYLINE
  5
9C
100
AcDbEntity
  8
0
 62
   254
100
AcDbPolyline
 90
        2
 70
     0
 39
0.003
 10
0.955024
 20
0.035551
 40
0.003
 41
0.003
 10
0.930693
 20
0.022945
 40
0.003
 41
0.003
  0
LWPOLYLINE
  5
9D
100
AcDbEntity
  8
0
 62
   254
100
AcDbPolyline
 90
        2
 70
     0
 39
0.003
 10
0.955024
 20
0.035551
 40
0.003
 41
0.003
 10
1.602654
 20
-0.358138
 40
0.003
 41
0.003
  0
LWPOLYLINE
  5
9E
100
AcDbEntity
  8
0
 62
   254
100
AcDbPolyline
 90
        2
 70
     0
 39
0.003
 10
1.602654
 20
-0.358138
 40
0.003
 41
0.003
 10
1.628012
 20
-0.346764
 40
0.003
 41
0.003
  0
LWPOLYLINE
  5
9F
100
AcDbEntity
  8
0
 62
   254
100
AcDbPolyline
 90
        2
 70
     0
 39
0.003
 10
1.628012
 20
-0.346764
 40
0.003
 41
0.003
 10
0.980382
 20
0.046925
 40
0.003
 41
0.003
  0
LWPOLYLINE
  5
A0
100
AcDbEntity
  8
0
 62
   254
100
AcDbPolyline
 90
        2
 70
     0
 39
0.003
 10
0.980382
 20
0.046925
 40
0.003
 41
0.003
 10
0.955024
 20
0.035551
 40
0.003
 41
0.003
  0
LWPOLYLINE
  5
A1
100
AcDbEntity
  8
0
 62
   254
100
AcDbPolyline
 90
        2
 70
     0
 39
0.003
 10
0.980382
 20
0.046925
 40
0.003
 41
0.003
 10
1.628012
 20
-0.346764
 40
0.003
 41
0.003
  0
LWPOLYLINE
  5
A2
100
AcDbEntity
  8
0
 62
   254
100
AcDbPolyline
 90
        2
 70
     0
 39
0.003
 10
1.628012
 20
-0.346764
 40
0.003
 41
0.003
 10
1.654386
 20
-0.336681
 40
0.003
 41
0.003
  0
LWPOLYLINE
  5
A3
100
AcDbEntity
  8
0
 62
   254
100
AcDbPolyline
 90
        2
 70
     0
 39
0.003
 10
1.654386
 20
-0.336681
 40
0.003
 41
0.003
 10
1.006756
 20
0.057008
 40
0.003
 41
0.003
  0
LWPOLYLINE
  5
A4
100
AcDbEntity
  8
0
 62
   254
100
AcDbPolyline
 90
        2
 70
     0
 39
0.003
 10
1.006756
 20
0.057008
 40
0.003
 41
0.003
 10
0.980382
 20
0.046925
 40
0.003
 41
0.003
  0
LWPOLYLINE
  5
A5
100
AcDbEntity
  8
0
 62
   254
100
AcDbPolyline
 90
        2
 70
     0
 39
0.003
 10
1.006756
 20
0.057008
 40
0.003
 41
0.003
 10
1.654386
 20
-0.336681
 40
0.003
 41
0.003
  0
LWPOLYLINE
  5
A6
100
AcDbEntity
  8
0
 62
   254
100
AcDbPolyline
 90
        2
 70
     0
 39
0.003
 10
1.654386
 20
-0.336681
 40
0.003
 41
0.003
 10
1.681791
 20
-0.327972
 40
0.003
 41
0.003
  0
LWPOLYLINE
  5
A7
100
AcDbEntity
  8
0
 62
   254
100
AcDbPolyline
 90
        2
 70
     0
 39
0.003
 10
1.681791
 20
-0.327972
 40
0.003
 41
0.003
 10
1.034161
 20
0.065717
 40
0.003
 41
0.003
  0
LWPOLYLINE
  5
A8
100
AcDbEntity
  8
0
 62
   254
100
AcDbPolyline
 90
        2
 70
     0
 39
0.003
 10
1.034161
 20
0.065717
 40
0.003
 41
0.003
 10
1.006756
 20
0.057008
 40
0.003
 41
0.003
  0
LWPOLYLINE
  5
A9
100
AcDbEntity
  8
0
 62
   254
100
AcDbPolyline
 90
        2
 70
     0
 39
0.003
 10
1.034161
 20
0.065717
 40
0.003
 41
0.003
 10
1.681791
 20
-0.327972
 40
0.003
 41
0.003
  0
LWPOLYLINE
  5
AA
100
AcDbEntity
  8
0
 62
   254
100
AcDbPolyline
 90
        2
 70
     0
 39
0.003
 10
1.681791
 20
-0.327972
 40
0.003
 41
0.003
 10
1.710217
 20
-0.320689
 40
0.003
 41
0.003
  0
LWPOLYLINE
  5
AB
100
AcDbEntity
  8
0
 62
   254
100
AcDbPolyline
 90
        2
 70
     0
 39
0.003
 10
1.710217
 20
-0.320689
 40
0.003
 41
0.003
 10
1.062587
 20
0.073
 40
0.003
 41
0.003
  0
LWPOLYLINE
  5
AC
100
AcDbEntity
  8
0
 62
   254
100
AcDbPolyline
 90
        2
 70
     0
 39
0.003
 10
1.062587
 20
0.073
 40
0.003
 41
0.003
 10
1.034161
 20
0.065717
 40
0.003
 41
0.003
  0
LWPOLYLINE
  5
AD
100
AcDbEntity
  8
0
 62
   254
100
AcDbPolyline
 90
        2
 70
     0
 39
0.003
 10
1.062587
 20
0.073
 40
0.003
 41
0.003
 10
1.710217
 20
-0.320689
 40
0.003
 41
0.003
  0
LWPOLYLINE
  5
AE
100
AcDbEntity
  8
0
 62
   254
100
AcDbPolyline
 90
        2
 70
     0
 39
0.003
 10
1.710217
 20
-0.320689
 40
0.003
 41
0.003
 10
1.739673
 20
-0.314917
 40
0.003
 41
0.003
  0
LWPOLYLINE
  5
AF
100
AcDbEntity
  8
0
 62
   254
100
AcDbPolyline
 90
        2
 70
     0
 39
0.003
 10
1.739673
 20
-0.314917
 40
0.003
 41
0.003
 10
1.092043
 20
0.078772
 40
0.003
 41
0.003
  0
LWPOLYLINE
  5
B0
100
AcDbEntity
  8
0
 62
   254
100
AcDbPolyline
 90
        2
 70
     0
 39
0.003
 10
1.092043
 20
0.078772
 40
0.003
 41
0.003
 10
1.062587
 20
0.073
 40
0.003
 41
0.003
  0
LWPOLYLINE
  5
B1
100
AcDbEntity
  8
0
 62
   254
100
AcDbPolyline
 90
        2
 70
     0
 39
0.003
 10
1.092043
 20
0.078772
 40
0.003
 41
0.003
 10
1.739673
 20
-0.314917
 40
0.003
 41
0.003
  0
LWPOLYLINE
  5
B2
100
AcDbEntity
  8
0
 62
   254
100
AcDbPolyline
 90
        2
 70
     0
 39
0.003
 10
1.739673
 20
-0.314917
 40
0.003
 41
0.003
 10
1.770161
 20
-0.310713
 40
0.003
 41
0.003
  0
LWPOLYLINE
  5
B3
100
AcDbEntity
  8
0
 62
   254
100
AcDbPolyline
 90
        2
 70
     0
 39
0.003
 10
1.770161
 20
-0.310713
 40
0.003
 41
0.003
 10
1.122531
 20
0.082976
 40
0.003
 41
0.003
  0
LWPOLYLINE
  5
B4
100
AcDbEntity
  8
0
 62
   254
100
AcDbPolyline
 90
        2
 70
     0
 39
0.003
 10
1.122531
 20
0.082976
 40
0.003
 41
0.003
 10
1.092043
 20
0.078772
 40
0.003
 41
0.003
  0
LWPOLYLINE
  5
B5
100
AcDbEntity
  8
0
 62
   254
100
AcDbPolyline
 90
        2
 70
     0
 39
0.003
 10
1.122531
 20
0.082976
 40
0.003
 41
0.003
 10
1.770161
 20
-0.310713
 40
0.003
 41
0.003
  0
LWPOLYLINE
  5
B6
100
AcDbEntity
  8
0
 62
   254
100
AcDbPolyline
 90
        2
 70
     0
 39
0.003
 10
1.770161
 20
-0.310713
 40
0.003
 41
0.003
 10
1.801697
 20
-0.308154
 40
0.003
 41
0.003
  0
LWPOLYLINE
  5
B7
100
AcDbEntity
  8
0
 62
   254
100
AcDbPolyline
 90
        2
 70
     0
 39
0.003
 10
1.801697
 20
-0.308154
 40
0.003
 41
0.003
 10
1.154067
 20
0.085535
 40
0.003
 41
0.003
  0
LWPOLYLINE
  5
B8
100
AcDbEntity
  8
0
 62
   254
100
AcDbPolyline
 90
        2
 70
     0
 39
0.003
 10
1.154067
 20
0.085535
 40
0.003
 41
0.003
 10
1.122531
 20
0.082976
 40
0.003
 41
0.003
  0
LWPOLYLINE
  5
B9
100
AcDbEntity
  8
0
 62
     0
100
AcDbPolyline
 90
        2
 70
     0
 39
0.003
 10
0.643508
 20
-0.468075
 40
0.003
 41
0.003
 10
1.291138
 20
-0.861764
 40
0.003
 41
0.003
  0
LWPOLYLINE
  5
BA
100
AcDbEntity
  8
0
 62
     0
100
AcDbPolyline
 90
        2
 70
     0
 39
0.003
 10
1.291138
 20
-0.861764
 40
0.003
 41
0.003
 10
1.292004
 20
-0.840425
 40
0.003
 41
0.003
  0
LWPOLYLINE
  5
BB
100
AcDbEntity
  8
0
 62
     0
100
AcDbPolyline
 90
        2
 70
     0
 39
0.003
 10
1.292004
 20
-0.840425
 40
0.003
 41
0.003
 10
1.293823
 20
-0.818665
 40
0.003
 41
0.003
  0
LWPOLYLINE
  5
BC
100
AcDbEntity
  8
0
 62
     0
100
AcDbPolyline
 90
        2
 70
     0
 39
0.003
 10
1.293823
 20
-0.818665
 40
0.003
 41
0.003
 10
1.296583
 20
-0.796539
 40
0.003
 41
0.003
  0
LWPOLYLINE
  5
BD
100
AcDbEntity
  8
0
 62
     0
100
AcDbPolyline
 90
        2
 70
     0
 39
0.003
 10
1.296583
 20
-0.796539
 40
0.003
 41
0.003
 10
1.300291
 20
-0.774126
 40
0.003
 41
0.003
  0
LWPOLYLINE
  5
BE
100
AcDbEntity
  8
0
 62
     0
100
AcDbPolyline
 90
        2
 70
     0
 39
0.003
 10
1.300291
 20
-0.774126
 40
0.003
 41
0.003
 10
1.304945
 20
-0.751484
 40
0.003
 41
0.003
  0
LWPOLYLINE
  5
BF
100
AcDbEntity
  8
0
 62
     0
100
AcDbPolyline
 90
        2
 70
     0
 39
0.003
 10
1.304945
 20
-0.751484
 40
0.003
 41
0.003
 10
1.310559
 20
-0.728693
 40
0.003
 41
0.003
  0
LWPOLYLINE
  5
C0
100
AcDbEntity
  8
0
 62
     0
100
AcDbPolyline
 90
        2
 70
     0
 39
0.003
 10
1.310559
 20
-0.728693
 40
0.003
 41
0.003
 10
1.31713
 20
-0.705811
 40
0.003
 41
0.003
  0
LWPOLYLINE
  5
C1
100
AcDbEntity
  8
0
 62
     0
100
AcDbPolyline
 90
        2
 70
     0
 39
0.003
 10
1.31713
 20
-0.705811
 40
0.003
 41
0.003
 10
1.324665
 20
-0.682921
 40
0.003
 41
0.003
  0
LWPOLYLINE
  5
C2
100
AcDbEntity
  8
0
 62
     0
100
AcDbPolyline
 90
        2
 70
     0
 39
0.003
 10
1.324665
 20
-0.682921
 40
0.003
 41
0.003
 10
1.333154
 20
-0.660075
 40
0.003
 41
0.003
  0
LWPOLYLINE
  5
C3
100
AcDbEntity
  8
0
 62
     0
100
AcDbPolyline
 90
        2
 70
     0
 39
0.003
 10
1.333154
 20
-0.660075
 40
0.003
 41
0.003
 10
1.342614
 20
-0.637354
 40
0.003
 41
0.003
  0
LWPOLYLINE
  5
C4
100
AcDbEntity
  8
0
 62
     0
100
AcDbPolyline
 90
        2
 70
     0
 39
0.003
 10
1.342614
 20
-0.637354
 40
0.003
 41
0.003
 10
1.353043
 20
-0.614819
 40
0.003
 41
0.003
  0
LWPOLYLINE
  5
C5
100
AcDbEntity
  8
0
 62
     0
100
AcDbPolyline
 90
        2
 70
     0
 39
0.003
 10
1.353043
 20
-0.614819
 40
0.003
 41
0.003
 10
1.364449
 20
-0.592555
 40
0.003
 41
0.003
  0
LWPOLYLINE
  5
C6
100
AcDbEntity
  8
0
 62
     0
100
AcDbPolyline
 90
        2
 70
     0
 39
0.003
 10
1.364449
 20
-0.592555
 40
0.003
 41
0.003
 10
1.376823
 20
-0.57061
 40
0.003
 41
0.003
  0
LWPOLYLINE
  5
C7
100
AcDbEntity
  8
0
 62
     0
100
AcDbPolyline
 90
        2
 70
     0
 39
0.003
 10
1.376823
 20
-0.57061
 40
0.003
 41
0.003
 10
1.390185
 20
-0.549071
 40
0.003
 41
0.003
  0
LWPOLYLINE
  5
C8
100
AcDbEntity
  8
0
 62
     0
100
AcDbPolyline
 90
        2
 70
     0
 39
0.003
 10
1.390185
 20
-0.549071
 40
0.003
 41
0.003
 10
1.404524
 20
-0.527992
 40
0.003
 41
0.003
  0
LWPOLYLINE
  5
C9
100
AcDbEntity
  8
0
 62
     0
100
AcDbPolyline
 90
        2
 70
     0
 39
0.003
 10
1.404524
 20
-0.527992
 40
0.003
 41
0.003
 10
1.419854
 20
-0.507461
 40
0.003
 41
0.003
  0
LWPOLYLINE
  5
CA
100
AcDbEntity
  8
0
 62
     0
100
AcDbPolyline
 90
        2
 70
     0
 39
0.003
 10
1.419854
 20
-0.507461
 40
0.003
 41
0.003
 10
1.436165
 20
-0.48752
 40
0.003
 41
0.003
  0
LWPOLYLINE
  5
CB
100
AcDbEntity
  8
0
 62
     0
100
AcDbPolyline
 90
        2
 70
     0
 39
0.003
 10
1.436165
 20
-0.48752
 40
0.003
 41
0.003
 10
1.453469
 20
-0.468264
 40
0.003
 41
0.003
  0
LWPOLYLINE
  5
CC
100
AcDbEntity
  8
0
 62
     0
100
AcDbPolyline
 90
        2
 70
     0
 39
0.003
 10
1.453469
 20
-0.468264
 40
0.003
 41
0.003
 10
1.471772
 20
-0.449748
 40
0.003
 41
0.003
  0
LWPOLYLINE
  5
CD
100
AcDbEntity
  8
0
 62
     0
100
AcDbPolyline
 90
        2
 70
     0
 39
0.003
 10
1.471772
 20
-0.449748
 40
0.003
 41
0.003
 10
1.491075
 20
-0.432047
 40
0.003
 41
0.003
  0
LWPOLYLINE
  5
CE
100
AcDbEntity
  8
0
 62
     0
100
AcDbPolyline
 90
        2
 70
     0
 39
0.003
 10
1.491075
 20
-0.432047
 40
0.003
 41
0.003
 10
1.511374
 20
-0.415224
 40
0.003
 41
0.003
  0
LWPOLYLINE
  5
CF
100
AcDbEntity
  8
0
 62
     0
100
AcDbPolyline
 90
        2
 70
     0
 39
0.003
 10
1.511374
 20
-0.415224
 40
0.003
 41
0.003
 10
1.532681
 20
-0.399354
 40
0.003
 41
0.003
  0
LWPOLYLINE
  5
D0
100
AcDbEntity
  8
0
 62
     0
100
AcDbPolyline
 90
        2
 70
     0
 39
0.003
 10
1.532681
 20
-0.399354
 40
0.003
 41
0.003
 10
1.554992
 20
-0.384504
 40
0.003
 41
0.003
  0
LWPOLYLINE
  5
D1
100
AcDbEntity
  8
0
 62
     0
100
AcDbPolyline
 90
        2
 70
     0
 39
0.003
 10
1.554992
 20
-0.384504
 40
0.003
 41
0.003
 10
1.578323
 20
-0.370744
 40
0.003
 41
0.003
  0
LWPOLYLINE
  5
D2
100
AcDbEntity
  8
0
 62
     0
100
AcDbPolyline
 90
        2
 70
     0
 39
0.003
 10
1.578323
 20
-0.370744
 40
0.003
 41
0.003
 10
1.602654
 20
-0.358138
 40
0.003
 41
0.003
  0
LWPOLYLINE
  5
D3
100
AcDbEntity
  8
0
 62
     0
100
AcDbPolyline
 90
        2
 70
     0
 39
0.003
 10
1.602654
 20
-0.358138
 40
0.003
 41
0.003
 10
1.628012
 20
-0.346764
 40
0.003
 41
0.003
  0
LWPOLYLINE
  5
D4
100
AcDbEntity
  8
0
 62
     0
100
AcDbPolyline
 90
        2
 70
     0
 39
0.003
 10
1.628012
 20
-0.346764
 40
0.003
 41
0.003
 10
1.654386
 20
-0.336681
 40
0.003
 41
0.003
  0
LWPOLYLINE
  5
D5
100
AcDbEntity
  8
0
 62
     0
100
AcDbPolyline
 90
        2
 70
     0
 39
0.003
 10
1.654386
 20
-0.336681
 40
0.003
 41
0.003
 10
1.681791
 20
-0.327972
 40
0.003
 41
0.003
  0
LWPOLYLINE
  5
D6
100
AcDbEntity
  8
0
 62
     0
100
AcDbPolyline
 90
        2
 70
     0
 39
0.003
 10
1.681791
 20
-0.327972
 40
0.003
 41
0.003
 10
1.710217
 20
-0.320689
 40
0.003
 41
0.003
  0
LWPOLYLINE
  5
D7
100
AcDbEntity
  8
0
 62
     0
100
AcDbPolyline
 90
        2
 70
     0
 39
0.003
 10
1.710217
 20
-0.320689
 40
0.003
 41
0.003
 10
1.739673
 20
-0.314917
 40
0.003
 41
0.003
  0
LWPOLYLINE
  5
D8
100
AcDbEntity
  8
0
 62
     0
100
AcDbPolyline
 90
        2
 70
     0
 39
0.003
 10
1.739673
 20
-0.314917
 40
0.003
 41
0.003
 10
1.770161
 20
-0.310713
 40
0.003
 41
0.003
  0
LWPOLYLINE
  5
D9
100
AcDbEntity
  8
0
 62
     0
100
AcDbPolyline
 90
        2
 70
     0
 39
0.003
 10
1.770161
 20
-0.310713
 40
0.003
 41
0.003
 10
1.801697
 20
-0.308154
 40
0.003
 41
0.003
  0
LWPOLYLINE
  5
DA
100
AcDbEntity
  8
0
 62
     0
100
AcDbPolyline
 90
        2
 70
     0
 39
0.003
 10
1.801697
 20
-0.308154
 40
0.003
 41
0.003
 10
1.154067
 20
0.085535
 40
0.003
 41
0.003
  0
LWPOLYLINE
  5
DB
100
AcDbEntity
  8
0
 62
     0
100
AcDbPolyline
 90
        2
 70
     0
 39
0.003
 10
1.154067
 20
0.085535
 40
0.003
 41
0.003
 10
1.122531
 20
0.082976
 40
0.003
 41
0.003
  0
LWPOLYLINE
  5
DC
100
AcDbEntity
  8
0
 62
     0
100
AcDbPolyline
 90
        2
 70
     0
 39
0.003
 10
1.122531
 20
0.082976
 40
0.003
 41
0.003
 10
1.092043
 20
0.078772
 40
0.003
 41
0.003
  0
LWPOLYLINE
  5
DD
100
AcDbEntity
  8
0
 62
     0
100
AcDbPolyline
 90
        2
 70
     0
 39
0.003
 10
1.092043
 20
0.078772
 40
0.003
 41
0.003
 10
1.062587
 20
0.073
 40
0.003
 41
0.003
  0
LWPOLYLINE
  5
DE
100
AcDbEntity
  8
0
 62
     0
100
AcDbPolyline
 90
        2
 70
     0
 39
0.003
 10
1.062587
 20
0.073
 40
0.003
 41
0.003
 10
1.034161
 20
0.065717
 40
0.003
 41
0.003
  0
LWPOLYLINE
  5
DF
100
AcDbEntity
  8
0
 62
     0
100
AcDbPolyline
 90
        2
 70
     0
 39
0.003
 10
1.034161
 20
0.065717
 40
0.003
 41
0.003
 10
1.006756
 20
0.057008
 40
0.003
 41
0.003
  0
LWPOLYLINE
  5
E0
100
AcDbEntity
  8
0
 62
     0
100
AcDbPolyline
 90
        2
 70
     0
 39
0.003
 10
1.006756
 20
0.057008
 40
0.003
 41
0.003
 10
0.980382
 20
0.046925
 40
0.003
 41
0.003
  0
LWPOLYLINE
  5
E1
100
AcDbEntity
  8
0
 62
     0
100
AcDbPolyline
 90
        2
 70
     0
 39
0.003
 10
0.980382
 20
0.046925
 40
0.003
 41
0.003
 10
0.955024
 20
0.035551
 40
0.003
 41
0.003
  0
LWPOLYLINE
  5
E2
100
AcDbEntity
  8
0
 62
     0
100
AcDbPolyline
 90
        2
 70
     0
 39
0.003
 10
0.955024
 20
0.035551
 40
0.003
 41
0.003
 10
0.930693
 20
0.022945
 40
0.003
 41
0.003
  0
LWPOLYLINE
  5
E3
100
AcDbEntity
  8
0
 62
     0
100
AcDbPolyline
 90
        2
 70
     0
 39
0.003
 10
0.930693
 20
0.022945
 40
0.003
 41
0.003
 10
0.907362
 20
0.009185
 40
0.003
 41
0.003
  0
LWPOLYLINE
  5
E4
100
AcDbEntity
  8
0
 62
     0
100
AcDbPolyline
 90
        2
 70
     0
 39
0.003
 10
0.907362
 20
0.009185
 40
0.003
 41
0.003
 10
0.885051
 20
-0.005665
 40
0.003
 41
0.003
  0
LWPOLYLINE
  5
E5
100
AcDbEntity
  8
0
 62
     0
100
AcDbPolyline
 90
        2
 70
     0
 39
0.003
 10
0.885051
 20
-0.005665
 40
0.003
 41
0.003
 10
0.863744
 20
-0.021535
 40
0.003
 41
0.003
  0
LWPOLYLINE
  5
E6
100
AcDbEntity
  8
0
 62
     0
100
AcDbPolyline
 90
        2
 70
     0
 39
0.003
 10
0.863744
 20
-0.021535
 40
0.003
 41
0.003
 10
0.843445
 20
-0.038358
 40
0.003
 41
0.003
  0
LWPOLYLINE
  5
E7
100
AcDbEntity
  8
0
 62
     0
100
AcDbPolyline
 90
        2
 70
     0
 39
0.003
 10
0.843445
 20
-0.038358
 40
0.003
 41
0.003
 10
0.824142
 20
-0.056059
 40
0.003
 41
0.003
  0
LWPOLYLINE
  5
E8
100
AcDbEntity
  8
0
 62
     0
100
AcDbPolyline
 90
        2
 70
     0
 39
0.003
 10
0.824142
 20
-0.056059
 40
0.003
 41
0.003
 10
0.805839
 20
-0.074575
 40
0.003
 41
0.003
  0
LWPOLYLINE
  5
E9
100
AcDbEntity
  8
0
 62
     0
100
AcDbPolyline
 90
        2
 70
     0
 39
0.003
 10
0.805839
 20
-0.074575
 40
0.003
 41
0.003
 10
0.788535
 20
-0.093831
 40
0.003
 41
0.003
  0
LWPOLYLINE
  5
EA
100
AcDbEntity
  8
0
 62
     0
100
AcDbPolyline
 90
        2
 70
     0
 39
0.003
 10
0.788535
 20
-0.093831
 40
0.003
 41
0.003
 10
0.772224
 20
-0.113772
 40
0.003
 41
0.003
  0
LWPOLYLINE
  5
EB
100
AcDbEntity
  8
0
 62
     0
100
AcDbPolyline
 90
        2
 70
     0
 39
0.003
 10
0.772224
 20
-0.113772
 40
0.003
 41
0.003
 10
0.756894
 20
-0.134303
 40
0.003
 41
0.003
  0
LWPOLYLINE
  5
EC
100
AcDbEntity
  8
0
 62
     0
100
AcDbPolyline
 90
        2
 70
     0
 39
0.003
 10
0.756894
 20
-0.134303
 40
0.003
 41
0.003
 10
0.742555
 20
-0.155382
 40
0.003
 41
0.003
  0
LWPOLYLINE
  5
ED
100
AcDbEntity
  8
0
 62
     0
100
AcDbPolyline
 90
        2
 70
     0
 39
0.003
 10
0.742555
 20
-0.155382
 40
0.003
 41
0.003
 10
0.729193
 20
-0.176921
 40
0.003
 41
0.003
  0
LWPOLYLINE
  5
EE
100
AcDbEntity
  8
0
 62
     0
100
AcDbPolyline
 90
        2
 70
     0
 39
0.003
 10
0.729193
 20
-0.176921
 40
0.003
 41
0.003
 10
0.716819
 20
-0.198866
 40
0.003
 41
0.003
  0
LWPOLYLINE
  5
EF
100
AcDbEntity
  8
0
 62
     0
100
AcDbPolyline
 90
        2
 70
     0
 39
0.003
 10
0.716819
 20
-0.198866
 40
0.003
 41
0.003
 10
0.705413
 20
-0.22113
 40
0.003
 41
0.003
  0
LWPOLYLINE
  5
F0
100
AcDbEntity
  8
0
 62
     0
100
AcDbPolyline
 90
        2
 70
     0
 39
0.003
 10
0.705413
 20
-0.22113
 40
0.003
 41
0.003
 10
0.694984
 20
-0.243665
 40
0.003
 41
0.003
  0
LWPOLYLINE
  5
F1
100
AcDbEntity
  8
0
 62
     0
100
AcDbPolyline
 90
        2
 70
     0
 39
0.003
 10
0.694984
 20
-0.243665
 40
0.003
 41
0.003
 10
0.685524
 20
-0.266386
 40
0.003
 41
0.003
  0
LWPOLYLINE
  5
F2
100
AcDbEntity
  8
0
 62
     0
100
AcDbPolyline
 90
        2
 70
     0
 39
0.003
 10
0.685524
 20
-0.266386
 40
0.003
 41
0.003
 10
0.677035
 20
-0.289232
 40
0.003
 41
0.003
  0
LWPOLYLINE
  5
F3
100
AcDbEntity
  8
0
 62
     0
100
AcDbPolyline
 90
        2
 70
     0
 39
0.003
 10
0.677035
 20
-0.289232
 40
0.003
 41
0.003
 10
0.6695
 20
-0.312122
 40
0.003
 41
0.003
  0
LWPOLYLINE
  5
F4
100
AcDbEntity
  8
0
 62
     0
100
AcDbPolyline
 90
        2
 70
     0
 39
0.003
 10
0.6695
 20
-0.312122
 40
0.003
 41
0.003
 10
0.662929
 20
-0.335004
 40
0.003
 41
0.003
  0
LWPOLYLINE
  5
F5
100
AcDbEntity
  8
0
 62
     0
100
AcDbPolyline
 90
        2
 70
     0
 39
0.003
 10
0.662929
 20
-0.335004
 40
0.003
 41
0.003
 10
0.657315
 20
-0.357795
 40
0.003
 41
0.003
  0
LWPOLYLINE
  5
F6
100
AcDbEntity
  8
0
 62
     0
100
AcDbPolyline
 90
        2
 70
     0
 39
0.003
 10
0.657315
 20
-0.357795
 40
0.003
 41
0.003
 10
0.652661
 20
-0.380437
 40
0.003
 41
0.003
  0
LWPOLYLINE
  5
F7
100
AcDbEntity
  8
0
 62
     0
100
AcDbPolyline
 90
        2
 70
     0
 39
0.003
 10
0.652661
 20
-0.380437
 40
0.003
 41
0.003
 10
0.648953
 20
-0.40285
 40
0.003
 41
0.003
  0
LWPOLYLINE
  5
F8
100
AcDbEntity
  8
0
 62
     0
100
AcDbPolyline
 90
        2
 70
     0
 39
0.003
 10
0.648953
 20
-0.40285
 40
0.003
 41
0.003
 10
0.646193
 20
-0.424976
 40
0.003
 41
0.003
  0
LWPOLYLINE
  5
F9
100
AcDbEntity
  8
0
 62
     0
100
AcDbPolyline
 90
        2
 70
     0
 39
0.003
 10
0.646193
 20
-0.424976
 40
0.003
 41
0.003
 10
0.644374
 20
-0.446736
 40
0.003
 41
0.003
  0
LWPOLYLINE
  5
FA
100
AcDbEntity
  8
0
 62
     0
100
AcDbPolyline
 90
        2
 70
     0
 39
0.003
 10
0.644374
 20
-0.446736
 40
0.003
 41
0.003
 10
0.643508
 20
-0.468075
 40
0.003
 41
0.003
  0
LWPOLYLINE
  5
FB
100
AcDbEntity
  8
0
 62
   254
100
AcDbPolyline
 90
        2
 70
     0
 39
0.003
 10
1.154067
 20
0.085535
 40
0.003
 41
0.003
 10
1.801697
 20
-0.308154
 40
0.003
 41
0.003
  0
LWPOLYLINE
  5
FC
100
AcDbEntity
  8
0
 62
   254
100
AcDbPolyline
 90
        2
 70
     0
 39
0.003
 10
1.801697
 20
-0.308154
 40
0.003
 41
0.003
 10
1.801697
 20
-0.134866
 40
0.003
 41
0.003
  0
LWPOLYLINE
  5
FD
100
AcDbEntity
  8
0
 62
   254
100
AcDbPolyline
 90
        2
 70
     0
 39
0.003
 10
1.801697
 20
-0.134866
 40
0.003
 41
0.003
 10
1.154067
 20
0.258823
 40
0.003
 41
0.003
  0
LWPOLYLINE
  5
FE
100
AcDbEntity
  8
0
 62
   254
100
AcDbPolyline
 90
        2
 70
     0
 39
0.003
 10
1.154067
 20
0.258823
 40
0.003
 41
0.003
 10
1.154067
 20
0.085535
 40
0.003
 41
0.003
  0
LWPOLYLINE
  5
FF
100
AcDbEntity
  8
0
 62
     0
100
AcDbPolyline
 90
        2
 70
     0
 39
0.003
 10
1.154067
 20
0.085535
 40
0.003
 41
0.003
 10
1.801697
 20
-0.308154
 40
0.003
 41
0.003
  0
LWPOLYLINE
  5
100
100
AcDbEntity
  8
0
 62
     0
100
AcDbPolyline
 90
        2
 70
     0
 39
0.003
 10
1.801697
 20
-0.308154
 40
0.003
 41
0.003
 10
1.801697
 20
-0.134866
 40
0.003
 41
0.003
  0
LWPOLYLINE
  5
101
100
AcDbEntity
  8
0
 62
     0
100
AcDbPolyline
 90
        2
 70
     0
 39
0.003
 10
1.801697
 20
-0.134866
 40
0.003
 41
0.003
 10
1.154067
 20
0.258823
 40
0.003
 41
0.003
  0
LWPOLYLINE
  5
102
100
AcDbEntity
  8
0
 62
     0
100
AcDbPolyline
 90
        2
 70
     0
 39
0.003
 10
1.154067
 20
0.258823
 40
0.003
 41
0.003
 10
1.154067
 20
0.085535
 40
0.003
 41
0.003
  0
LWPOLYLINE
  5
103
100
AcDbEntity
  8
0
 62
   254
100
AcDbPolyline
 90
        2
 70
     0
 39
0.003
 10
1.154067
 20
0.258823
 40
0.003
 41
0.003
 10
1.801697
 20
-0.134866
 40
0.003
 41
0.003
  0
LWPOLYLINE
  5
104
100
AcDbEntity
  8
0
 62
   254
100
AcDbPolyline
 90
        2
 70
     0
 39
0.003
 10
1.801697
 20
-0.134866
 40
0.003
 41
0.003
 10
2.230047
 20
-0.113232
 40
0.003
 41
0.003
  0
LWPOLYLINE
  5
105
100
AcDbEntity
  8
0
 62
   254
100
AcDbPolyline
 90
        2
 70
     0
 39
0.003
 10
2.230047
 20
-0.113232
 40
0.003
 41
0.003
 10
1.582417
 20
0.280457
 40
0.003
 41
0.003
  0
LWPOLYLINE
  5
106
100
AcDbEntity
  8
0
 62
   254
100
AcDbPolyline
 90
        2
 70
     0
 39
0.003
 10
1.582417
 20
0.280457
 40
0.003
 41
0.003
 10
1.154067
 20
0.258823
 40
0.003
 41
0.003
  0
LWPOLYLINE
  5
107
100
AcDbEntity
  8
0
 62
     0
100
AcDbPolyline
 90
        2
 70
     0
 39
0.003
 10
1.154067
 20
0.258823
 40
0.003
 41
0.003
 10
1.801697
 20
-0.134866
 40
0.003
 41
0.003
  0
LWPOLYLINE
  5
108
100
AcDbEntity
  8
0
 62
     0
100
AcDbPolyline
 90
        2
 70
     0
 39
0.003
 10
1.801697
 20
-0.134866
 40
0.003
 41
0.003
 10
2.230047
 20
-0.113232
 40
0.003
 41
0.003
  0
LWPOLYLINE
  5
109
100
AcDbEntity
  8
0
 62
     0
100
AcDbPolyline
 90
        2
 70
     0
 39
0.003
 10
2.230047
 20
-0.113232
 40
0.003
 41
0.003
 10
1.582417
 20
0.280457
 40
0.003
 41
0.003
  0
LWPOLYLINE
  5
10A
100
AcDbEntity
  8
0
 62
     0
100
AcDbPolyline
 90
        2
 70
     0
 39
0.003
 10
1.582417
 20
0.280457
 40
0.003
 41
0.003
 10
1.154067
 20
0.258823
 40
0.003
 41
0.003
  0
LWPOLYLINE
  5
10B
100
AcDbEntity
  8
0
 62
   254
100
AcDbPolyline
 90
        2
 70
     0
 39
0.003
 10
1.582417
 20
0.280457
 40
0.003
 41
0.003
 10
2.230047
 20
-0.113232
 40
0.003
 41
0.003
  0
LWPOLYLINE
  5
10C
100
AcDbEntity
  8
0
 62
   254
100
AcDbPolyline
 90
        2
 70
     0
 39
0.003
 10
2.230047
 20
-0.113232
 40
0.003
 41
0.003
 10
2.227075
 20
-0.067248
 40
0.003
 41
0.003
  0
LWPOLYLINE
  5
10D
100
AcDbEntity
  8
0
 62
   254
100
AcDbPolyline
 90
        2
 70
     0
 39
0.003
 10
2.227075
 20
-0.067248
 40
0.003
 41
0.003
 10
1.579445
 20
0.326441
 40
0.003
 41
0.003
  0
LWPOLYLINE
  5
10E
100
AcDbEntity
  8
0
 62
   254
100
AcDbPolyline
 90
        2
 70
     0
 39
0.003
 10
1.579445
 20
0.326441
 40
0.003
 41
0.003
 10
1.582417
 20
0.280457
 40
0.003
 41
0.003
  0
LWPOLYLINE
  5
10F
100
AcDbEntity
  8
0
 62
   254
100
AcDbPolyline
 90
        2
 70
     0
 39
0.003
 10
1.579445
 20
0.326441
 40
0.003
 41
0.003
 10
2.227075
 20
-0.067248
 40
0.003
 41
0.003
  0
LWPOLYLINE
  5
110
100
AcDbEntity
  8
0
 62
   254
100
AcDbPolyline
 90
        2
 70
     0
 39
0.003
 10
2.227075
 20
-0.067248
 40
0.003
 41
0.003
 10
2.223028
 20
-0.022559
 40
0.003
 41
0.003
  0
LWPOLYLINE
  5
111
100
AcDbEntity
  8
0
 62
   254
100
AcDbPolyline
 90
        2
 70
     0
 39
0.003
 10
2.223028
 20
-0.022559
 40
0.003
 41
0.003
 10
1.575398
 20
0.37113
 40
0.003
 41
0.003
  0
LWPOLYLINE
  5
112
100
AcDbEntity
  8
0
 62
   254
100
AcDbPolyline
 90
        2
 70
     0
 39
0.003
 10
1.575398
 20
0.37113
 40
0.003
 41
0.003
 10
1.579445
 20
0.326441
 40
0.003
 41
0.003
  0
LWPOLYLINE
  5
113
100
AcDbEntity
  8
0
 62
   254
100
AcDbPolyline
 90
        2
 70
     0
 39
0.003
 10
1.575398
 20
0.37113
 40
0.003
 41
0.003
 10
2.223028
 20
-0.022559
 40
0.003
 41
0.003
  0
LWPOLYLINE
  5
114
100
AcDbEntity
  8
0
 62
   254
100
AcDbPolyline
 90
        2
 70
     0
 39
0.003
 10
2.223028
 20
-0.022559
 40
0.003
 41
0.003
 10
2.217839
 20
0.020835
 40
0.003
 41
0.003
  0
LWPOLYLINE
  5
115
100
AcDbEntity
  8
0
 62
   254
100
AcDbPolyline
 90
        2
 70
     0
 39
0.003
 10
2.217839
 20
0.020835
 40
0.003
 41
0.003
 10
1.570209
 20
0.414524
 40
0.003
 41
0.003
  0
LWPOLYLINE
  5
116
100
AcDbEntity
  8
0
 62
   254
100
AcDbPolyline
 90
        2
 70
     0
 39
0.003
 10
1.570209
 20
0.414524
 40
0.003
 41
0.003
 10
1.575398
 20
0.37113
 40
0.003
 41
0.003
  0
LWPOLYLINE
  5
117
100
AcDbEntity
  8
0
 62
   254
100
AcDbPolyline
 90
        2
 70
     0
 39
0.003
 10
1.570209
 20
0.414524
 40
0.003
 41
0.003
 10
2.217839
 20
0.020835
 40
0.003
 41
0.003
  0
LWPOLYLINE
  5
118
100
AcDbEntity
  8
0
 62
   254
100
AcDbPolyline
 90
        2
 70
     0
 39
0.003
 10
2.217839
 20
0.020835
 40
0.003
 41
0.003
 10
2.211472
 20
0.062953
 40
0.003
 41
0.003
  0
LWPOLYLINE
  5
119
100
AcDbEntity
  8
0
 62
   254
100
AcDbPolyline
 90
        2
 70
     0
 39
0.003
 10
2.211472
 20
0.062953
 40
0.003
 41
0.003
 10
1.563843
 20
0.456642
 40
0.003
 41
0.003
  0
LWPOLYLINE
  5
11A
100
AcDbEntity
  8
0
 62
   254
100
AcDbPolyline
 90
        2
 70
     0
 39
0.003
 10
1.563843
 20
0.456642
 40
0.003
 41
0.003
 10
1.570209
 20
0.414524
 40
0.003
 41
0.003
  0
LWPOLYLINE
  5
11B
100
AcDbEntity
  8
0
 62
   254
100
AcDbPolyline
 90
        2
 70
     0
 39
0.003
 10
1.563843
 20
0.456642
 40
0.003
 41
0.003
 10
2.211472
 20
0.062953
 40
0.003
 41
0.003
  0
LWPOLYLINE
  5
11C
100
AcDbEntity
  8
0
 62
   254
100
AcDbPolyline
 90
        2
 70
     0
 39
0.003
 10
2.211472
 20
0.062953
 40
0.003
 41
0.003
 10
2.203866
 20
0.103799
 40
0.003
 41
0.003
  0
LWPOLYLINE
  5
11D
100
AcDbEntity
  8
0
 62
   254
100
AcDbPolyline
 90
        2
 70
     0
 39
0.003
 10
2.203866
 20
0.103799
 40
0.003
 41
0.003
 10
1.556236
 20
0.497488
 40
0.003
 41
0.003
  0
LWPOLYLINE
  5
11E
100
AcDbEntity
  8
0
 62
   254
100
AcDbPolyline
 90
        2
 70
     0
 39
0.003
 10
1.556236
 20
0.497488
 40
0.003
 41
0.003
 10
1.563843
 20
0.456642
 40
0.003
 41
0.003
  0
LWPOLYLINE
  5
11F
100
AcDbEntity
  8
0
 62
   254
100
AcDbPolyline
 90
        2
 70
     0
 39
0.003
 10
1.556236
 20
0.497488
 40
0.003
 41
0.003
 10
2.203866
 20
0.103799
 40
0.003
 41
0.003
  0
LWPOLYLINE
  5
120
100
AcDbEntity
  8
0
 62
   254
100
AcDbPolyline
 90
        2
 70
     0
 39
0.003
 10
2.203866
 20
0.103799
 40
0.003
 41
0.003
 10
2.194984
 20
0.143406
 40
0.003
 41
0.003
  0
LWPOLYLINE
  5
121
100
AcDbEntity
  8
0
 62
   254
100
AcDbPolyline
 90
        2
 70
     0
 39
0.003
 10
2.194984
 20
0.143406
 40
0.003
 41
0.003
 10
1.547354
 20
0.537094
 40
0.003
 41
0.003
  0
LWPOLYLINE
  5
122
100
AcDbEntity
  8
0
 62
   254
100
AcDbPolyline
 90
        2
 70
     0
 39
0.003
 10
1.547354
 20
0.537094
 40
0.003
 41
0.003
 10
1.556236
 20
0.497488
 40
0.003
 41
0.003
  0
LWPOLYLINE
  5
123
100
AcDbEntity
  8
0
 62
   254
100
AcDbPolyline
 90
        2
 70
     0
 39
0.003
 10
1.547354
 20
0.537094
 40
0.003
 41
0.003
 10
2.194984
 20
0.143406
 40
0.003
 41
0.003
  0
LWPOLYLINE
  5
124
100
AcDbEntity
  8
0
 62
   254
100
AcDbPolyline
 90
        2
 70
     0
 39
0.003
 10
2.194984
 20
0.143406
 40
0.003
 41
0.003
 10
2.184772
 20
0.181768
 40
0.003
 41
0.003
  0
LWPOLYLINE
  5
125
100
AcDbEntity
  8
0
 62
   254
100
AcDbPolyline
 90
        2
 70
     0
 39
0.003
 10
2.184772
 20
0.181768
 40
0.003
 41
0.003
 10
1.537142
 20
0.575457
 40
0.003
 41
0.003
  0
LWPOLYLINE
  5
126
100
AcDbEntity
  8
0
 62
   254
100
AcDbPolyline
 90
        2
 70
     0
 39
0.003
 10
1.537142
 20
0.575457
 40
0.003
 41
0.003
 10
1.547354
 20
0.537094
 40
0.003
 41
0.003
  0
LWPOLYLINE
  5
127
100
AcDbEntity
  8
0
 62
   254
100
AcDbPolyline
 90
        2
 70
     0
 39
0.003
 10
1.537142
 20
0.575457
 40
0.003
 41
0.003
 10
2.184772
 20
0.181768
 40
0.003
 41
0.003
  0
LWPOLYLINE
  5
128
100
AcDbEntity
  8
0
 62
   254
100
AcDbPolyline
 90
        2
 70
     0
 39
0.003
 10
2.184772
 20
0.181768
 40
0.003
 41
0.003
 10
2.173185
 20
0.218909
 40
0.003
 41
0.003
  0
LWPOLYLINE
  5
129
100
AcDbEntity
  8
0
 62
   254
100
AcDbPolyline
 90
        2
 70
     0
 39
0.003
 10
2.173185
 20
0.218909
 40
0.003
 41
0.003
 10
1.525555
 20
0.612598
 40
0.003
 41
0.003
  0
LWPOLYLINE
  5
12A
100
AcDbEntity
  8
0
 62
   254
100
AcDbPolyline
 90
        2
 70
     0
 39
0.003
 10
1.525555
 20
0.612598
 40
0.003
 41
0.003
 10
1.537142
 20
0.575457
 40
0.003
 41
0.003
  0
LWPOLYLINE
  5
12B
100
AcDbEntity
  8
0
 62
   254
100
AcDbPolyline
 90
        2
 70
     0
 39
0.003
 10
1.525555
 20
0.612598
 40
0.003
 41
0.003
 10
2.173185
 20
0.218909
 40
0.003
 41
0.003
  0
LWPOLYLINE
  5
12C
100
AcDbEntity
  8
0
 62
   254
100
AcDbPolyline
 90
        2
 70
     0
 39
0.003
 10
2.173185
 20
0.218909
 40
0.003
 41
0.003
 10
2.160165
 20
0.254835
 40
0.003
 41
0.003
  0
LWPOLYLINE
  5
12D
100
AcDbEntity
  8
0
 62
   254
100
AcDbPolyline
 90
        2
 70
     0
 39
0.003
 10
2.160165
 20
0.254835
 40
0.003
 41
0.003
 10
1.512535
 20
0.648524
 40
0.003
 41
0.003
  0
LWPOLYLINE
  5
12E
100
AcDbEntity
  8
0
 62
   254
100
AcDbPolyline
 90
        2
 70
     0
 39
0.003
 10
1.512535
 20
0.648524
 40
0.003
 41
0.003
 10
1.525555
 20
0.612598
 40
0.003
 41
0.003
  0
LWPOLYLINE
  5
12F
100
AcDbEntity
  8
0
 62
   254
100
AcDbPolyline
 90
        2
 70
     0
 39
0.003
 10
1.512535
 20
0.648524
 40
0.003
 41
0.003
 10
2.160165
 20
0.254835
 40
0.003
 41
0.003
  0
LWPOLYLINE
  5
130
100
AcDbEntity
  8
0
 62
   254
100
AcDbPolyline
 90
        2
 70
     0
 39
0.003
 10
2.160165
 20
0.254835
 40
0.003
 41
0.003
 10
2.145673
 20
0.289567
 40
0.003
 41
0.003
  0
LWPOLYLINE
  5
131
100
AcDbEntity
  8
0
 62
   254
100
AcDbPolyline
 90
        2
 70
     0
 39
0.003
 10
2.145673
 20
0.289567
 40
0.003
 41
0.003
 10
1.498043
 20
0.683256
 40
0.003
 41
0.003
  0
LWPOLYLINE
  5
132
100
AcDbEntity
  8
0
 62
   254
100
AcDbPolyline
 90
        2
 70
     0
 39
0.003
 10
1.498043
 20
0.683256
 40
0.003
 41
0.003
 10
1.512535
 20
0.648524
 40
0.003
 41
0.003
  0
LWPOLYLINE
  5
133
100
AcDbEntity
  8
0
 62
   254
100
AcDbPolyline
 90
        2
 70
     0
 39
0.003
 10
1.498043
 20
0.683256
 40
0.003
 41
0.003
 10
2.145673
 20
0.289567
 40
0.003
 41
0.003
  0
LWPOLYLINE
  5
134
100
AcDbEntity
  8
0
 62
   254
100
AcDbPolyline
 90
        2
 70
     0
 39
0.003
 10
2.145673
 20
0.289567
 40
0.003
 41
0.003
 10
2.129657
 20
0.323114
 40
0.003
 41
0.003
  0
LWPOLYLINE
  5
135
100
AcDbEntity
  8
0
 62
   254
100
AcDbPolyline
 90
        2
 70
     0
 39
0.003
 10
2.129657
 20
0.323114
 40
0.003
 41
0.003
 10
1.482028
 20
0.716803
 40
0.003
 41
0.003
  0
LWPOLYLINE
  5
136
100
AcDbEntity
  8
0
 62
   254
100
AcDbPolyline
 90
        2
 70
     0
 39
0.003
 10
1.482028
 20
0.716803
 40
0.003
 41
0.003
 10
1.498043
 20
0.683256
 40
0.003
 41
0.003
  0
LWPOLYLINE
  5
137
100
AcDbEntity
  8
0
 62
   254
100
AcDbPolyline
 90
        2
 70
     0
 39
0.003
 10
1.482028
 20
0.716803
 40
0.003
 41
0.003
 10
2.129657
 20
0.323114
 40
0.003
 41
0.003
  0
LWPOLYLINE
  5
138
100
AcDbEntity
  8
0
 62
   254
100
AcDbPolyline
 90
        2
 70
     0
 39
0.003
 10
2.129657
 20
0.323114
 40
0.003
 41
0.003
 10
2.112079
 20
0.355496
 40
0.003
 41
0.003
  0
LWPOLYLINE
  5
139
100
AcDbEntity
  8
0
 62
   254
100
AcDbPolyline
 90
        2
 70
     0
 39
0.003
 10
2.112079
 20
0.355496
 40
0.003
 41
0.003
 10
1.464449
 20
0.749185
 40
0.003
 41
0.003
  0
LWPOLYLINE
  5
13A
100
AcDbEntity
  8
0
 62
   254
100
AcDbPolyline
 90
        2
 70
     0
 39
0.003
 10
1.464449
 20
0.749185
 40
0.003
 41
0.003
 10
1.482028
 20
0.716803
 40
0.003
 41
0.003
  0
LWPOLYLINE
  5
13B
100
AcDbEntity
  8
0
 62
   254
100
AcDbPolyline
 90
        2
 70
     0
 39
0.003
 10
1.464449
 20
0.749185
 40
0.003
 41
0.003
 10
2.112079
 20
0.355496
 40
0.003
 41
0.003
  0
LWPOLYLINE
  5
13C
100
AcDbEntity
  8
0
 62
   254
100
AcDbPolyline
 90
        2
 70
     0
 39
0.003
 10
2.112079
 20
0.355496
 40
0.003
 41
0.003
 10
2.09287
 20
0.386713
 40
0.003
 41
0.003
  0
LWPOLYLINE
  5
13D
100
AcDbEntity
  8
0
 62
   254
100
AcDbPolyline
 90
        2
 70
     0
 39
0.003
 10
2.09287
 20
0.386713
 40
0.003
 41
0.003
 10
1.44524
 20
0.780402
 40
0.003
 41
0.003
  0
LWPOLYLINE
  5
13E
100
AcDbEntity
  8
0
 62
   254
100
AcDbPolyline
 90
        2
 70
     0
 39
0.003
 10
1.44524
 20
0.780402
 40
0.003
 41
0.003
 10
1.464449
 20
0.749185
 40
0.003
 41
0.003
  0
LWPOLYLINE
  5
13F
100
AcDbEntity
  8
0
 62
   254
100
AcDbPolyline
 90
        2
 70
     0
 39
0.003
 10
1.44524
 20
0.780402
 40
0.003
 41
0.003
 10
2.09287
 20
0.386713
 40
0.003
 41
0.003
  0
LWPOLYLINE
  5
140
100
AcDbEntity
  8
0
 62
   254
100
AcDbPolyline
 90
        2
 70
     0
 39
0.003
 10
2.09287
 20
0.386713
 40
0.003
 41
0.003
 10
2.072
 20
0.416795
 40
0.003
 41
0.003
  0
LWPOLYLINE
  5
141
100
AcDbEntity
  8
0
 62
   254
100
AcDbPolyline
 90
        2
 70
     0
 39
0.003
 10
2.072
 20
0.416795
 40
0.003
 41
0.003
 10
1.42437
 20
0.810484
 40
0.003
 41
0.003
  0
LWPOLYLINE
  5
142
100
AcDbEntity
  8
0
 62
   254
100
AcDbPolyline
 90
        2
 70
     0
 39
0.003
 10
1.42437
 20
0.810484
 40
0.003
 41
0.003
 10
1.44524
 20
0.780402
 40
0.003
 41
0.003
  0
LWPOLYLINE
  5
143
100
AcDbEntity
  8
0
 62
     9
100
AcDbPolyline
 90
        2
 70
     0
 39
0.003
 10
1.42437
 20
0.810484
 40
0.003
 41
0.003
 10
2.072
 20
0.416795
 40
0.003
 41
0.003
  0
LWPOLYLINE
  5
144
100
AcDbEntity
  8
0
 62
     9
100
AcDbPolyline
 90
        2
 70
     0
 39
0.003
 10
2.072
 20
0.416795
 40
0.003
 41
0.003
 10
2.049409
 20
0.445744
 40
0.003
 41
0.003
  0
LWPOLYLINE
  5
145
100
AcDbEntity
  8
0
 62
     9
100
AcDbPolyline
 90
        2
 70
     0
 39
0.003
 10
2.049409
 20
0.445744
 40
0.003
 41
0.003
 10
1.40178
 20
0.839433
 40
0.003
 41
0.003
  0
LWPOLYLINE
  5
146
100
AcDbEntity
  8
0
 62
     9
100
AcDbPolyline
 90
        2
 70
     0
 39
0.003
 10
1.40178
 20
0.839433
 40
0.003
 41
0.003
 10
1.42437
 20
0.810484
 40
0.003
 41
0.003
  0
LWPOLYLINE
  5
147
100
AcDbEntity
  8
0
 62
     9
100
AcDbPolyline
 90
        2
 70
     0
 39
0.003
 10
1.40178
 20
0.839433
 40
0.003
 41
0.003
 10
2.049409
 20
0.445744
 40
0.003
 41
0.003
  0
LWPOLYLINE
  5
148
100
AcDbEntity
  8
0
 62
     9
100
AcDbPolyline
 90
        2
 70
     0
 39
0.003
 10
2.049409
 20
0.445744
 40
0.003
 41
0.003
 10
2.025063
 20
0.473583
 40
0.003
 41
0.003
  0
LWPOLYLINE
  5
149
100
AcDbEntity
  8
0
 62
     9
100
AcDbPolyline
 90
        2
 70
     0
 39
0.003
 10
2.025063
 20
0.473583
 40
0.003
 41
0.003
 10
1.377433
 20
0.867272
 40
0.003
 41
0.003
  0
LWPOLYLINE
  5
14A
100
AcDbEntity
  8
0
 62
     9
100
AcDbPolyline
 90
        2
 70
     0
 39
0.003
 10
1.377433
 20
0.867272
 40
0.003
 41
0.003
 10
1.40178
 20
0.839433
 40
0.003
 41
0.003
  0
LWPOLYLINE
  5
14B
100
AcDbEntity
  8
0
 62
     9
100
AcDbPolyline
 90
        2
 70
     0
 39
0.003
 10
1.377433
 20
0.867272
 40
0.003
 41
0.003
 10
2.025063
 20
0.473583
 40
0.003
 41
0.003
  0
LWPOLYLINE
  5
14C
100
AcDbEntity
  8
0
 62
     9
100
AcDbPolyline
 90
        2
 70
     0
 39
0.003
 10
2.025063
 20
0.473583
 40
0.003
 41
0.003
 10
1.998894
 20
0.500307
 40
0.003
 41
0.003
  0
LWPOLYLINE
  5
14D
100
AcDbEntity
  8
0
 62
     9
100
AcDbPolyline
 90
        2
 70
     0
 39
0.003
 10
1.998894
 20
0.500307
 40
0.003
 41
0.003
 10
1.351264
 20
0.893996
 40
0.003
 41
0.003
  0
LWPOLYLINE
  5
14E
100
AcDbEntity
  8
0
 62
     9
100
AcDbPolyline
 90
        2
 70
     0
 39
0.003
 10
1.351264
 20
0.893996
 40
0.003
 41
0.003
 10
1.377433
 20
0.867272
 40
0.003
 41
0.003
  0
LWPOLYLINE
  5
14F
100
AcDbEntity
  8
0
 62
   253
100
AcDbPolyline
 90
        2
 70
     0
 39
0.003
 10
1.351264
 20
0.893996
 40
0.003
 41
0.003
 10
1.998894
 20
0.500307
 40
0.003
 41
0.003
  0
LWPOLYLINE
  5
150
100
AcDbEntity
  8
0
 62
   253
100
AcDbPolyline
 90
        2
 70
     0
 39
0.003
 10
1.998894
 20
0.500307
 40
0.003
 41
0.003
 10
1.970866
 20
0.525949
 40
0.003
 41
0.003
  0
LWPOLYLINE
  5
151
100
AcDbEntity
  8
0
 62
   253
100
AcDbPolyline
 90
        2
 70
     0
 39
0.003
 10
1.970866
 20
0.525949
 40
0.003
 41
0.003
 10
1.323236
 20
0.919638
 40
0.003
 41
0.003
  0
LWPOLYLINE
  5
152
100
AcDbEntity
  8
0
 62
   253
100
AcDbPolyline
 90
        2
 70
     0
 39
0.003
 10
1.323236
 20
0.919638
 40
0.003
 41
0.003
 10
1.351264
 20
0.893996
 40
0.003
 41
0.003
  0
LWPOLYLINE
  5
153
100
AcDbEntity
  8
0
 62
   253
100
AcDbPolyline
 90
        2
 70
     0
 39
0.003
 10
1.323236
 20
0.919638
 40
0.003
 41
0.003
 10
1.970866
 20
0.525949
 40
0.003
 41
0.003
  0
LWPOLYLINE
  5
154
100
AcDbEntity
  8
0
 62
   253
100
AcDbPolyline
 90
        2
 70
     0
 39
0.003
 10
1.970866
 20
0.525949
 40
0.003
 41
0.003
 10
1.940929
 20
0.550508
 40
0.003
 41
0.003
  0
LWPOLYLINE
  5
155
100
AcDbEntity
  8
0
 62
   253
100
AcDbPolyline
 90
        2
 70
     0
 39
0.003
 10
1.940929
 20
0.550508
 40
0.003
 41
0.003
 10
1.293299
 20
0.944197
 40
0.003
 41
0.003
  0
LWPOLYLINE
  5
156
100
AcDbEntity
  8
0
 62
   253
100
AcDbPolyline
 90
        2
 70
     0
 39
0.003
 10
1.293299
 20
0.944197
 40
0.003
 41
0.003
 10
1.323236
 20
0.919638
 40
0.003
 41
0.003
  0
LWPOLYLINE
  5
157
100
AcDbEntity
  8
0
 62
   252
100
AcDbPolyline
 90
        2
 70
     0
 39
0.003
 10
1.293299
 20
0.944197
 40
0.003
 41
0.003
 10
1.940929
 20
0.550508
 40
0.003
 41
0.003
  0
LWPOLYLINE
  5
158
100
AcDbEntity
  8
0
 62
   252
100
AcDbPolyline
 90
        2
 70
     0
 39
0.003
 10
1.940929
 20
0.550508
 40
0.003
 41
0.003
 10
1.909039
 20
0.574016
 40
0.003
 41
0.003
  0
LWPOLYLINE
  5
159
100
AcDbEntity
  8
0
 62
   252
100
AcDbPolyline
 90
        2
 70
     0
 39
0.003
 10
1.909039
 20
0.574016
 40
0.003
 41
0.003
 10
1.261409
 20
0.967705
 40
0.003
 41
0.003
  0
LWPOLYLINE
  5
15A
100
AcDbEntity
  8
0
 62
   252
100
AcDbPolyline
 90
        2
 70
     0
 39
0.003
 10
1.261409
 20
0.967705
 40
0.003
 41
0.003
 10
1.293299
 20
0.944197
 40
0.003
 41
0.003
  0
LWPOLYLINE
  5
15B
100
AcDbEntity
  8
0
 62
     0
100
AcDbPolyline
 90
        2
 70
     0
 39
0.003
 10
1.582417
 20
0.280457
 40
0.003
 41
0.003
 10
2.230047
 20
-0.113232
 40
0.003
 41
0.003
  0
LWPOLYLINE
  5
15C
100
AcDbEntity
  8
0
 62
     0
100
AcDbPolyline
 90
        2
 70
     0
 39
0.003
 10
2.230047
 20
-0.113232
 40
0.003
 41
0.003
 10
2.227075
 20
-0.067248
 40
0.003
 41
0.003
  0
LWPOLYLINE
  5
15D
100
AcDbEntity
  8
0
 62
     0
100
AcDbPolyline
 90
        2
 70
     0
 39
0.003
 10
2.227075
 20
-0.067248
 40
0.003
 41
0.003
 10
2.223028
 20
-0.022559
 40
0.003
 41
0.003
  0
LWPOLYLINE
  5
15E
100
AcDbEntity
  8
0
 62
     0
100
AcDbPolyline
 90
        2
 70
     0
 39
0.003
 10
2.223028
 20
-0.022559
 40
0.003
 41
0.003
 10
2.217839
 20
0.020835
 40
0.003
 41
0.003
  0
LWPOLYLINE
  5
15F
100
AcDbEntity
  8
0
 62
     0
100
AcDbPolyline
 90
        2
 70
     0
 39
0.003
 10
2.217839
 20
0.020835
 40
0.003
 41
0.003
 10
2.211472
 20
0.062953
 40
0.003
 41
0.003
  0
LWPOLYLINE
  5
160
100
AcDbEntity
  8
0
 62
     0
100
AcDbPolyline
 90
        2
 70
     0
 39
0.003
 10
2.211472
 20
0.062953
 40
0.003
 41
0.003
 10
2.203866
 20
0.103799
 40
0.003
 41
0.003
  0
LWPOLYLINE
  5
161
100
AcDbEntity
  8
0
 62
     0
100
AcDbPolyline
 90
        2
 70
     0
 39
0.003
 10
2.203866
 20
0.103799
 40
0.003
 41
0.003
 10
2.194984
 20
0.143406
 40
0.003
 41
0.003
  0
LWPOLYLINE
  5
162
100
AcDbEntity
  8
0
 62
     0
100
AcDbPolyline
 90
        2
 70
     0
 39
0.003
 10
2.194984
 20
0.143406
 40
0.003
 41
0.003
 10
2.184772
 20
0.181768
 40
0.003
 41
0.003
  0
LWPOLYLINE
  5
163
100
AcDbEntity
  8
0
 62
     0
100
AcDbPolyline
 90
        2
 70
     0
 39
0.003
 10
2.184772
 20
0.181768
 40
0.003
 41
0.003
 10
2.173185
 20
0.218909
 40
0.003
 41
0.003
  0
LWPOLYLINE
  5
164
100
AcDbEntity
  8
0
 62
     0
100
AcDbPolyline
 90
        2
 70
     0
 39
0.003
 10
2.173185
 20
0.218909
 40
0.003
 41
0.003
 10
2.160165
 20
0.254835
 40
0.003
 41
0.003
  0
LWPOLYLINE
  5
165
100
AcDbEntity
  8
0
 62
     0
100
AcDbPolyline
 90
        2
 70
     0
 39
0.003
 10
2.160165
 20
0.254835
 40
0.003
 41
0.003
 10
2.145673
 20
0.289567
 40
0.003
 41
0.003
  0
LWPOLYLINE
  5
166
100
AcDbEntity
  8
0
 62
     0
100
AcDbPolyline
 90
        2
 70
     0
 39
0.003
 10
2.145673
 20
0.289567
 40
0.003
 41
0.003
 10
2.129657
 20
0.323114
 40
0.003
 41
0.003
  0
LWPOLYLINE
  5
167
100
AcDbEntity
  8
0
 62
     0
100
AcDbPolyline
 90
        2
 70
     0
 39
0.003
 10
2.129657
 20
0.323114
 40
0.003
 41
0.003
 10
2.112079
 20
0.355496
 40
0.003
 41
0.003
  0
LWPOLYLINE
  5
168
100
AcDbEntity
  8
0
 62
     0
100
AcDbPolyline
 90
        2
 70
     0
 39
0.003
 10
2.112079
 20
0.355496
 40
0.003
 41
0.003
 10
2.09287
 20
0.386713
 40
0.003
 41
0.003
  0
LWPOLYLINE
  5
169
100
AcDbEntity
  8
0
 62
     0
100
AcDbPolyline
 90
        2
 70
     0
 39
0.003
 10
2.09287
 20
0.386713
 40
0.003
 41
0.003
 10
2.072
 20
0.416795
 40
0.003
 41
0.003
  0
LWPOLYLINE
  5
16A
100
AcDbEntity
  8
0
 62
     0
100
AcDbPolyline
 90
        2
 70
     0
 39
0.003
 10
2.072
 20
0.416795
 40
0.003
 41
0.003
 10
2.049409
 20
0.445744
 40
0.003
 41
0.003
  0
LWPOLYLINE
  5
16B
100
AcDbEntity
  8
0
 62
     0
100
AcDbPolyline
 90
        2
 70
     0
 39
0.003
 10
2.049409
 20
0.445744
 40
0.003
 41
0.003
 10
2.025063
 20
0.473583
 40
0.003
 41
0.003
  0
LWPOLYLINE
  5
16C
100
AcDbEntity
  8
0
 62
     0
100
AcDbPolyline
 90
        2
 70
     0
 39
0.003
 10
2.025063
 20
0.473583
 40
0.003
 41
0.003
 10
1.998894
 20
0.500307
 40
0.003
 41
0.003
  0
LWPOLYLINE
  5
16D
100
AcDbEntity
  8
0
 62
     0
100
AcDbPolyline
 90
        2
 70
     0
 39
0.003
 10
1.998894
 20
0.500307
 40
0.003
 41
0.003
 10
1.970866
 20
0.525949
 40
0.003
 41
0.003
  0
LWPOLYLINE
  5
16E
100
AcDbEntity
  8
0
 62
     0
100
AcDbPolyline
 90
        2
 70
     0
 39
0.003
 10
1.970866
 20
0.525949
 40
0.003
 41
0.003
 10
1.940929
 20
0.550508
 40
0.003
 41
0.003
  0
LWPOLYLINE
  5
16F
100
AcDbEntity
  8
0
 62
     0
100
AcDbPolyline
 90
        2
 70
     0
 39
0.003
 10
1.940929
 20
0.550508
 40
0.003
 41
0.003
 10
1.909039
 20
0.574016
 40
0.003
 41
0.003
  0
LWPOLYLINE
  5
170
100
AcDbEntity
  8
0
 62
     0
100
AcDbPolyline
 90
        2
 70
     0
 39
0.003
 10
1.909039
 20
0.574016
 40
0.003
 41
0.003
 10
1.261409
 20
0.967705
 40
0.003
 41
0.003
  0
LWPOLYLINE
  5
171
100
AcDbEntity
  8
0
 62
     0
100
AcDbPolyline
 90
        2
 70
     0
 39
0.003
 10
1.261409
 20
0.967705
 40
0.003
 41
0.003
 10
1.293299
 20
0.944197
 40
0.003
 41
0.003
  0
LWPOLYLINE
  5
172
100
AcDbEntity
  8
0
 62
     0
100
AcDbPolyline
 90
        2
 70
     0
 39
0.003
 10
1.293299
 20
0.944197
 40
0.003
 41
0.003
 10
1.323236
 20
0.919638
 40
0.003
 41
0.003
  0
LWPOLYLINE
  5
173
100
AcDbEntity
  8
0
 62
     0
100
AcDbPolyline
 90
        2
 70
     0
 39
0.003
 10
1.323236
 20
0.919638
 40
0.003
 41
0.003
 10
1.351264
 20
0.893996
 40
0.003
 41
0.003
  0
LWPOLYLINE
  5
174
100
AcDbEntity
  8
0
 62
     0
100
AcDbPolyline
 90
        2
 70
     0
 39
0.003
 10
1.351264
 20
0.893996
 40
0.003
 41
0.003
 10
1.377433
 20
0.867272
 40
0.003
 41
0.003
  0
LWPOLYLINE
  5
175
100
AcDbEntity
  8
0
 62
     0
100
AcDbPolyline
 90
        2
 70
     0
 39
0.003
 10
1.377433
 20
0.867272
 40
0.003
 41
0.003
 10
1.40178
 20
0.839433
 40
0.003
 41
0.003
  0
LWPOLYLINE
  5
176
100
AcDbEntity
  8
0
 62
     0
100
AcDbPolyline
 90
        2
 70
     0
 39
0.003
 10
1.40178
 20
0.839433
 40
0.003
 41
0.003
 10
1.42437
 20
0.810484
 40
0.003
 41
0.003
  0
LWPOLYLINE
  5
177
100
AcDbEntity
  8
0
 62
     0
100
AcDbPolyline
 90
        2
 70
     0
 39
0.003
 10
1.42437
 20
0.810484
 40
0.003
 41
0.003
 10
1.44524
 20
0.780402
 40
0.003
 41
0.003
  0
LWPOLYLINE
  5
178
100
AcDbEntity
  8
0
 62
     0
100
AcDbPolyline
 90
        2
 70
     0
 39
0.003
 10
1.44524
 20
0.780402
 40
0.003
 41
0.003
 10
1.464449
 20
0.749185
 40
0.003
 41
0.003
  0
LWPOLYLINE
  5
179
100
AcDbEntity
  8
0
 62
     0
100
AcDbPolyline
 90
        2
 70
     0
 39
0.003
 10
1.464449
 20
0.749185
 40
0.003
 41
0.003
 10
1.482028
 20
0.716803
 40
0.003
 41
0.003
  0
LWPOLYLINE
  5
17A
100
AcDbEntity
  8
0
 62
     0
100
AcDbPolyline
 90
        2
 70
     0
 39
0.003
 10
1.482028
 20
0.716803
 40
0.003
 41
0.003
 10
1.498043
 20
0.683256
 40
0.003
 41
0.003
  0
LWPOLYLINE
  5
17B
100
AcDbEntity
  8
0
 62
     0
100
AcDbPolyline
 90
        2
 70
     0
 39
0.003
 10
1.498043
 20
0.683256
 40
0.003
 41
0.003
 10
1.512535
 20
0.648524
 40
0.003
 41
0.003
  0
LWPOLYLINE
  5
17C
100
AcDbEntity
  8
0
 62
     0
100
AcDbPolyline
 90
        2
 70
     0
 39
0.003
 10
1.512535
 20
0.648524
 40
0.003
 41
0.003
 10
1.525555
 20
0.612598
 40
0.003
 41
0.003
  0
LWPOLYLINE
  5
17D
100
AcDbEntity
  8
0
 62
     0
100
AcDbPolyline
 90
        2
 70
     0
 39
0.003
 10
1.525555
 20
0.612598
 40
0.003
 41
0.003
 10
1.537142
 20
0.575457
 40
0.003
 41
0.003
  0
LWPOLYLINE
  5
17E
100
AcDbEntity
  8
0
 62
     0
100
AcDbPolyline
 90
        2
 70
     0
 39
0.003
 10
1.537142
 20
0.575457
 40
0.003
 41
0.003
 10
1.547354
 20
0.537094
 40
0.003
 41
0.003
  0
LWPOLYLINE
  5
17F
100
AcDbEntity
  8
0
 62
     0
100
AcDbPolyline
 90
        2
 70
     0
 39
0.003
 10
1.547354
 20
0.537094
 40
0.003
 41
0.003
 10
1.556236
 20
0.497488
 40
0.003
 41
0.003
  0
LWPOLYLINE
  5
180
100
AcDbEntity
  8
0
 62
     0
100
AcDbPolyline
 90
        2
 70
     0
 39
0.003
 10
1.556236
 20
0.497488
 40
0.003
 41
0.003
 10
1.563843
 20
0.456642
 40
0.003
 41
0.003
  0
LWPOLYLINE
  5
181
100
AcDbEntity
  8
0
 62
     0
100
AcDbPolyline
 90
        2
 70
     0
 39
0.003
 10
1.563843
 20
0.456642
 40
0.003
 41
0.003
 10
1.570209
 20
0.414524
 40
0.003
 41
0.003
  0
LWPOLYLINE
  5
182
100
AcDbEntity
  8
0
 62
     0
100
AcDbPolyline
 90
        2
 70
     0
 39
0.003
 10
1.570209
 20
0.414524
 40
0.003
 41
0.003
 10
1.575398
 20
0.37113
 40
0.003
 41
0.003
  0
LWPOLYLINE
  5
183
100
AcDbEntity
  8
0
 62
     0
100
AcDbPolyline
 90
        2
 70
     0
 39
0.003
 10
1.575398
 20
0.37113
 40
0.003
 41
0.003
 10
1.579445
 20
0.326441
 40
0.003
 41
0.003
  0
LWPOLYLINE
  5
184
100
AcDbEntity
  8
0
 62
     0
100
AcDbPolyline
 90
        2
 70
     0
 39
0.003
 10
1.579445
 20
0.326441
 40
0.003
 41
0.003
 10
1.582417
 20
0.280457
 40
0.003
 41
0.003
  0
LWPOLYLINE
  5
185
100
AcDbEntity
  8
0
 62
   254
100
AcDbPolyline
 90
        2
 70
     0
 39
0.003
 10
0.708409
 20
1.171772
 40
0.003
 41
0.003
 10
1.356039
 20
0.778083
 40
0.003
 41
0.003
  0
LWPOLYLINE
  5
186
100
AcDbEntity
  8
0
 62
   254
100
AcDbPolyline
 90
        2
 70
     0
 39
0.003
 10
1.356039
 20
0.778083
 40
0.003
 41
0.003
 10
1.343165
 20
0.838657
 40
0.003
 41
0.003
  0
LWPOLYLINE
  5
187
100
AcDbEntity
  8
0
 62
   254
100
AcDbPolyline
 90
        2
 70
     0
 39
0.003
 10
1.343165
 20
0.838657
 40
0.003
 41
0.003
 10
0.695535
 20
1.232346
 40
0.003
 41
0.003
  0
LWPOLYLINE
  5
188
100
AcDbEntity
  8
0
 62
   254
100
AcDbPolyline
 90
        2
 70
     0
 39
0.003
 10
0.695535
 20
1.232346
 40
0.003
 41
0.003
 10
0.708409
 20
1.171772
 40
0.003
 41
0.003
  0
LWPOLYLINE
  5
189
100
AcDbEntity
  8
0
 62
     0
100
AcDbPolyline
 90
        2
 70
     0
 39
0.003
 10
0.708409
 20
1.171772
 40
0.003
 41
0.003
 10
1.356039
 20
0.778083
 40
0.003
 41
0.003
  0
LWPOLYLINE
  5
18A
100
AcDbEntity
  8
0
 62
     0
100
AcDbPolyline
 90
        2
 70
     0
 39
0.003
 10
1.356039
 20
0.778083
 40
0.003
 41
0.003
 10
1.343165
 20
0.838657
 40
0.003
 41
0.003
  0
LWPOLYLINE
  5
18B
100
AcDbEntity
  8
0
 62
     0
100
AcDbPolyline
 90
        2
 70
     0
 39
0.003
 10
1.343165
 20
0.838657
 40
0.003
 41
0.003
 10
0.695535
 20
1.232346
 40
0.003
 41
0.003
  0
LWPOLYLINE
  5
18C
100
AcDbEntity
  8
0
 62
     0
100
AcDbPolyline
 90
        2
 70
     0
 39
0.003
 10
0.695535
 20
1.232346
 40
0.003
 41
0.003
 10
0.708409
 20
1.171772
 40
0.003
 41
0.003
  0
LWPOLYLINE
  5
18D
100
AcDbEntity
  8
0
 62
   254
100
AcDbPolyline
 90
        2
 70
     0
 39
0.003
 10
-0.827697
 20
-0.468075
 40
0.003
 41
0.003
 10
-0.180067
 20
-0.861764
 40
0.003
 41
0.003
  0
LWPOLYLINE
  5
18E
100
AcDbEntity
  8
0
 62
   254
100
AcDbPolyline
 90
        2
 70
     0
 39
0.003
 10
-0.180067
 20
-0.861764
 40
0.003
 41
0.003
 10
1.291138
 20
-0.861764
 40
0.003
 41
0.003
  0
LWPOLYLINE
  5
18F
100
AcDbEntity
  8
0
 62
   254
100
AcDbPolyline
 90
        2
 70
     0
 39
0.003
 10
1.291138
 20
-0.861764
 40
0.003
 41
0.003
 10
0.643508
 20
-0.468075
 40
0.003
 41
0.003
  0
LWPOLYLINE
  5
190
100
AcDbEntity
  8
0
 62
   254
100
AcDbPolyline
 90
        2
 70
     0
 39
0.003
 10
0.643508
 20
-0.468075
 40
0.003
 41
0.003
 10
-0.827697
 20
-0.468075
 40
0.003
 41
0.003
  0
LWPOLYLINE
  5
191
100
AcDbEntity
  8
0
 62
     0
100
AcDbPolyline
 90
        2
 70
     0
 39
0.003
 10
-0.827697
 20
-0.468075
 40
0.003
 41
0.003
 10
-0.180067
 20
-0.861764
 40
0.003
 41
0.003
  0
LWPOLYLINE
  5
192
100
AcDbEntity
  8
0
 62
     0
100
AcDbPolyline
 90
        2
 70
     0
 39
0.003
 10
-0.180067
 20
-0.861764
 40
0.003
 41
0.003
 10
1.291138
 20
-0.861764
 40
0.003
 41
0.003
  0
LWPOLYLINE
  5
193
100
AcDbEntity
  8
0
 62
     0
100
AcDbPolyline
 90
        2
 70
     0
 39
0.003
 10
1.291138
 20
-0.861764
 40
0.003
 41
0.003
 10
0.643508
 20
-0.468075
 40
0.003
 41
0.003
  0
LWPOLYLINE
  5
194
100
AcDbEntity
  8
0
 62
     0
100
AcDbPolyline
 90
        2
 70
     0
 39
0.003
 10
0.643508
 20
-0.468075
 40
0.003
 41
0.003
 10
-0.827697
 20
-0.468075
 40
0.003
 41
0.003
  0
LWPOLYLINE
  5
195
100
AcDbEntity
  8
0
 62
   254
100
AcDbPolyline
 90
        2
 70
     0
 39
0.003
 10
0.643508
 20
-0.468075
 40
0.003
 41
0.003
 10
1.291138
 20
-0.861764
 40
0.003
 41
0.003
  0
LWPOLYLINE
  5
196
100
AcDbEntity
  8
0
 62
   254
100
AcDbPolyline
 90
        2
 70
     0
 39
0.003
 10
1.291138
 20
-0.861764
 40
0.003
 41
0.003
 10
1.292004
 20
-0.840425
 40
0.003
 41
0.003
  0
LWPOLYLINE
  5
197
100
AcDbEntity
  8
0
 62
   254
100
AcDbPolyline
 90
        2
 70
     0
 39
0.003
 10
1.292004
 20
-0.840425
 40
0.003
 41
0.003
 10
0.644374
 20
-0.446736
 40
0.003
 41
0.003
  0
LWPOLYLINE
  5
198
100
AcDbEntity
  8
0
 62
   254
100
AcDbPolyline
 90
        2
 70
     0
 39
0.003
 10
0.644374
 20
-0.446736
 40
0.003
 41
0.003
 10
0.643508
 20
-0.468075
 40
0.003
 41
0.003
  0
LWPOLYLINE
  5
199
100
AcDbEntity
  8
0
 62
   254
100
AcDbPolyline
 90
        2
 70
     0
 39
0.003
 10
0.644374
 20
-0.446736
 40
0.003
 41
0.003
 10
1.292004
 20
-0.840425
 40
0.003
 41
0.003
  0
LWPOLYLINE
  5
19A
100
AcDbEntity
  8
0
 62
   254
100
AcDbPolyline
 90
        2
 70
     0
 39
0.003
 10
1.292004
 20
-0.840425
 40
0.003
 41
0.003
 10
1.293823
 20
-0.818665
 40
0.003
 41
0.003
  0
LWPOLYLINE
  5
19B
100
AcDbEntity
  8
0
 62
   254
100
AcDbPolyline
 90
        2
 70
     0
 39
0.003
 10
1.293823
 20
-0.818665
 40
0.003
 41
0.003
 10
0.646193
 20
-0.424976
 40
0.003
 41
0.003
  0
LWPOLYLINE
  5
19C
100
AcDbEntity
  8
0
 62
   254
100
AcDbPolyline
 90
        2
 70
     0
 39
0.003
 10
0.646193
 20
-0.424976
 40
0.003
 41
0.003
 10
0.644374
 20
-0.446736
 40
0.003
 41
0.003
  0
LWPOLYLINE
  5
19D
100
AcDbEntity
  8
0
 62
   254
100
AcDbPolyline
 90
        2
 70
     0
 39
0.003
 10
0.646193
 20
-0.424976
 40
0.003
 41
0.003
 10
1.293823
 20
-0.818665
 40
0.003
 41
0.003
  0
LWPOLYLINE
  5
19E
100
AcDbEntity
  8
0
 62
   254
100
AcDbPolyline
 90
        2
 70
     0
 39
0.003
 10
1.293823
 20
-0.818665
 40
0.003
 41
0.003
 10
1.296583
 20
-0.796539
 40
0.003
 41
0.003
  0
LWPOLYLINE
  5
19F
100
AcDbEntity
  8
0
 62
   254
100
AcDbPolyline
 90
        2
 70
     0
 39
0.003
 10
1.296583
 20
-0.796539
 40
0.003
 41
0.003
 10
0.648953
 20
-0.40285
 40
0.003
 41
0.003
  0
LWPOLYLINE
  5
1A0
100
AcDbEntity
  8
0
 62
   254
100
AcDbPolyline
 90
        2
 70
     0
 39
0.003
 10
0.648953
 20
-0.40285
 40
0.003
 41
0.003
 10
0.646193
 20
-0.424976
 40
0.003
 41
0.003
  0
LWPOLYLINE
  5
1A1
100
AcDbEntity
  8
0
 62
   254
100
AcDbPolyline
 90
        2
 70
     0
 39
0.003
 10
0.648953
 20
-0.40285
 40
0.003
 41
0.003
 10
1.296583
 20
-0.796539
 40
0.003
 41
0.003
  0
LWPOLYLINE
  5
1A2
100
AcDbEntity
  8
0
 62
   254
100
AcDbPolyline
 90
        2
 70
     0
 39
0.003
 10
1.296583
 20
-0.796539
 40
0.003
 41
0.003
 10
1.300291
 20
-0.774126
 40
0.003
 41
0.003
  0
LWPOLYLINE
  5
1A3
100
AcDbEntity
  8
0
 62
   254
100
AcDbPolyline
 90
        2
 70
     0
 39
0.003
 10
1.300291
 20
-0.774126
 40
0.003
 41
0.003
 10
0.652661
 20
-0.380437
 40
0.003
 41
0.003
  0
LWPOLYLINE
  5
1A4
100
AcDbEntity
  8
0
 62
   254
100
AcDbPolyline
 90
        2
 70
     0
 39
0.003
 10
0.652661
 20
-0.380437
 40
0.003
 41
0.003
 10
0.648953
 20
-0.40285
 40
0.003
 41
0.003
  0
LWPOLYLINE
  5
1A5
100
AcDbEntity
  8
0
 62
   254
100
AcDbPolyline
 90
        2
 70
     0
 39
0.003
 10
0.652661
 20
-0.380437
 40
0.003
 41
0.003
 10
1.300291
 20
-0.774126
 40
0.003
 41
0.003
  0
LWPOLYLINE
  5
1A6
100
AcDbEntity
  8
0
 62
   254
100
AcDbPolyline
 90
        2
 70
     0
 39
0.003
 10
1.300291
 20
-0.774126
 40
0.003
 41
0.003
 10
1.304945
 20
-0.751484
 40
0.003
 41
0.003
  0
LWPOLYLINE
  5
1A7
100
AcDbEntity
  8
0
 62
   254
100
AcDbPolyline
 90
        2
 70
     0
 39
0.003
 10
1.304945
 20
-0.751484
 40
0.003
 41
0.003
 10
0.657315
 20
-0.357795
 40
0.003
 41
0.003
  0
LWPOLYLINE
  5
1A8
100
AcDbEntity
  8
0
 62
   254
100
AcDbPolyline
 90
        2
 70
     0
 39
0.003
 10
0.657315
 20
-0.357795
 40
0.003
 41
0.003
 10
0.652661
 20
-0.380437
 40
0.003
 41
0.003
  0
LWPOLYLINE
  5
1A9
100
AcDbEntity
  8
0
 62
   254
100
AcDbPolyline
 90
        2
 70
     0
 39
0.003
 10
0.657315
 20
-0.357795
 40
0.003
 41
0.003
 10
1.304945
 20
-0.751484
 40
0.003
 41
0.003
  0
LWPOLYLINE
  5
1AA
100
AcDbEntity
  8
0
 62
   254
100
AcDbPolyline
 90
        2
 70
     0
 39
0.003
 10
1.304945
 20
-0.751484
 40
0.003
 41
0.003
 10
1.310559
 20
-0.728693
 40
0.003
 41
0.003
  0
LWPOLYLINE
  5
1AB
100
AcDbEntity
  8
0
 62
   254
100
AcDbPolyline
 90
        2
 70
     0
 39
0.003
 10
1.310559
 20
-0.728693
 40
0.003
 41
0.003
 10
0.662929
 20
-0.335004
 40
0.003
 41
0.003
  0
LWPOLYLINE
  5
1AC
100
AcDbEntity
  8
0
 62
   254
100
AcDbPolyline
 90
        2
 70
     0
 39
0.003
 10
0.662929
 20
-0.335004
 40
0.003
 41
0.003
 10
0.657315
 20
-0.357795
 40
0.003
 41
0.003
  0
LWPOLYLINE
  5
1AD
100
AcDbEntity
  8
0
 62
   254
100
AcDbPolyline
 90
        2
 70
     0
 39
0.003
 10
0.662929
 20
-0.335004
 40
0.003
 41
0.003
 10
1.310559
 20
-0.728693
 40
0.003
 41
0.003
  0
LWPOLYLINE
  5
1AE
100
AcDbEntity
  8
0
 62
   254
100
AcDbPolyline
 90
        2
 70
     0
 39
0.003
 10
1.310559
 20
-0.728693
 40
0.003
 41
0.003
 10
1.31713
 20
-0.705811
 40
0.003
 41
0.003
  0
LWPOLYLINE
  5
1AF
100
AcDbEntity
  8
0
 62
   254
100
AcDbPolyline
 90
        2
 70
     0
 39
0.003
 10
1.31713
 20
-0.705811
 40
0.003
 41
0.003
 10
0.6695
 20
-0.312122
 40
0.003
 41
0.003
  0
LWPOLYLINE
  5
1B0
100
AcDbEntity
  8
0
 62
   254
100
AcDbPolyline
 90
        2
 70
     0
 39
0.003
 10
0.6695
 20
-0.312122
 40
0.003
 41
0.003
 10
0.662929
 20
-0.335004
 40
0.003
 41
0.003
  0
LWPOLYLINE
  5
1B1
100
AcDbEntity
  8
0
 62
   254
100
AcDbPolyline
 90
        2
 70
     0
 39
0.003
 10
0.6695
 20
-0.312122
 40
0.003
 41
0.003
 10
1.31713
 20
-0.705811
 40
0.003
 41
0.003
  0
LWPOLYLINE
  5
1B2
100
AcDbEntity
  8
0
 62
   254
100
AcDbPolyline
 90
        2
 70
     0
 39
0.003
 10
1.31713
 20
-0.705811
 40
0.003
 41
0.003
 10
1.324665
 20
-0.682921
 40
0.003
 41
0.003
  0
LWPOLYLINE
  5
1B3
100
AcDbEntity
  8
0
 62
   254
100
AcDbPolyline
 90
        2
 70
     0
 39
0.003
 10
1.324665
 20
-0.682921
 40
0.003
 41
0.003
 10
0.677035
 20
-0.289232
 40
0.003
 41
0.003
  0
LWPOLYLINE
  5
1B4
100
AcDbEntity
  8
0
 62
   254
100
AcDbPolyline
 90
        2
 70
     0
 39
0.003
 10
0.677035
 20
-0.289232
 40
0.003
 41
0.003
 10
0.6695
 20
-0.312122
 40
0.003
 41
0.003
  0
LWPOLYLINE
  5
1B5
100
AcDbEntity
  8
0
 62
   254
100
AcDbPolyline
 90
        2
 70
     0
 39
0.003
 10
0.677035
 20
-0.289232
 40
0.003
 41
0.003
 10
1.324665
 20
-0.682921
 40
0.003
 41
0.003
  0
LWPOLYLINE
  5
1B6
100
AcDbEntity
  8
0
 62
   254
100
AcDbPolyline
 90
        2
 70
     0
 39
0.003
 10
1.324665
 20
-0.682921
 40
0.003
 41
0.003
 10
1.333154
 20
-0.660075
 40
0.003
 41
0.003
  0
LWPOLYLINE
  5
1B7
100
AcDbEntity
  8
0
 62
   254
100
AcDbPolyline
 90
        2
 70
     0
 39
0.003
 10
1.333154
 20
-0.660075
 40
0.003
 41
0.003
 10
0.685524
 20
-0.266386
 40
0.003
 41
0.003
  0
LWPOLYLINE
  5
1B8
100
AcDbEntity
  8
0
 62
   254
100
AcDbPolyline
 90
        2
 70
     0
 39
0.003
 10
0.685524
 20
-0.266386
 40
0.003
 41
0.003
 10
0.677035
 20
-0.289232
 40
0.003
 41
0.003
  0
LWPOLYLINE
  5
1B9
100
AcDbEntity
  8
0
 62
   254
100
AcDbPolyline
 90
        2
 70
     0
 39
0.003
 10
0.685524
 20
-0.266386
 40
0.003
 41
0.003
 10
1.333154
 20
-0.660075
 40
0.003
 41
0.003
  0
LWPOLYLINE
  5
1BA
100
AcDbEntity
  8
0
 62
   254
100
AcDbPolyline
 90
        2
 70
     0
 39
0.003
 10
1.333154
 20
-0.660075
 40
0.003
 41
0.003
 10
1.342614
 20
-0.637354
 40
0.003
 41
0.003
  0
LWPOLYLINE
  5
1BB
100
AcDbEntity
  8
0
 62
   254
100
AcDbPolyline
 90
        2
 70
     0
 39
0.003
 10
1.342614
 20
-0.637354
 40
0.003
 41
0.003
 10
0.694984
 20
-0.243665
 40
0.003
 41
0.003
  0
LWPOLYLINE
  5
1BC
100
AcDbEntity
  8
0
 62
   254
100
AcDbPolyline
 90
        2
 70
     0
 39
0.003
 10
0.694984
 20
-0.243665
 40
0.003
 41
0.003
 10
0.685524
 20
-0.266386
 40
0.003
 41
0.003
  0
LWPOLYLINE
  5
1BD
100
AcDbEntity
  8
0
 62
   254
100
AcDbPolyline
 90
        2
 70
     0
 39
0.003
 10
0.694984
 20
-0.243665
 40
0.003
 41
0.003
 10
1.342614
 20
-0.637354
 40
0.003
 41
0.003
  0
LWPOLYLINE
  5
1BE
100
AcDbEntity
  8
0
 62
   254
100
AcDbPolyline
 90
        2
 70
     0
 39
0.003
 10
1.342614
 20
-0.637354
 40
0.003
 41
0.003
 10
1.353043
 20
-0.614819
 40
0.003
 41
0.003
  0
LWPOLYLINE
  5
1BF
100
AcDbEntity
  8
0
 62
   254
100
AcDbPolyline
 90
        2
 70
     0
 39
0.003
 10
1.353043
 20
-0.614819
 40
0.003
 41
0.003
 10
0.705413
 20
-0.22113
 40
0.003
 41
0.003
  0
LWPOLYLINE
  5
1C0
100
AcDbEntity
  8
0
 62
   254
100
AcDbPolyline
 90
        2
 70
     0
 39
0.003
 10
0.705413
 20
-0.22113
 40
0.003
 41
0.003
 10
0.694984
 20
-0.243665
 40
0.003
 41
0.003
  0
LWPOLYLINE
  5
1C1
100
AcDbEntity
  8
0
 62
   254
100
AcDbPolyline
 90
        2
 70
     0
 39
0.003
 10
0.705413
 20
-0.22113
 40
0.003
 41
0.003
 10
1.353043
 20
-0.614819
 40
0.003
 41
0.003
  0
LWPOLYLINE
  5
1C2
100
AcDbEntity
  8
0
 62
   254
100
AcDbPolyline
 90
        2
 70
     0
 39
0.003
 10
1.353043
 20
-0.614819
 40
0.003
 41
0.003
 10
1.364449
 20
-0.592555
 40
0.003
 41
0.003
  0
LWPOLYLINE
  5
1C3
100
AcDbEntity
  8
0
 62
   254
100
AcDbPolyline
 90
        2
 70
     0
 39
0.003
 10
1.364449
 20
-0.592555
 40
0.003
 41
0.003
 10
0.716819
 20
-0.198866
 40
0.003
 41
0.003
  0
LWPOLYLINE
  5
1C4
100
AcDbEntity
  8
0
 62
   254
100
AcDbPolyline
 90
        2
 70
     0
 39
0.003
 10
0.716819
 20
-0.198866
 40
0.003
 41
0.003
 10
0.705413
 20
-0.22113
 40
0.003
 41
0.003
  0
LWPOLYLINE
  5
1C5
100
AcDbEntity
  8
0
 62
   254
100
AcDbPolyline
 90
        2
 70
     0
 39
0.003
 10
0.716819
 20
-0.198866
 40
0.003
 41
0.003
 10
1.364449
 20
-0.592555
 40
0.003
 41
0.003
  0
LWPOLYLINE
  5
1C6
100
AcDbEntity
  8
0
 62
   254
100
AcDbPolyline
 90
        2
 70
     0
 39
0.003
 10
1.364449
 20
-0.592555
 40
0.003
 41
0.003
 10
1.376823
 20
-0.57061
 40
0.003
 41
0.003
  0
LWPOLYLINE
  5
1C7
100
AcDbEntity
  8
0
 62
   254
100
AcDbPolyline
 90
        2
 70
     0
 39
0.003
 10
1.376823
 20
-0.57061
 40
0.003
 41
0.003
 10
0.729193
 20
-0.176921
 40
0.003
 41
0.003
  0
LWPOLYLINE
  5
1C8
100
AcDbEntity
  8
0
 62
   254
100
AcDbPolyline
 90
        2
 70
     0
 39
0.003
 10
0.729193
 20
-0.176921
 40
0.003
 41
0.003
 10
0.716819
 20
-0.198866
 40
0.003
 41
0.003
  0
LWPOLYLINE
  5
1C9
100
AcDbEntity
  8
0
 62
   254
100
AcDbPolyline
 90
        2
 70
     0
 39
0.003
 10
0.729193
 20
-0.176921
 40
0.003
 41
0.003
 10
1.376823
 20
-0.57061
 40
0.003
 41
0.003
  0
LWPOLYLINE
  5
1CA
100
AcDbEntity
  8
0
 62
   254
100
AcDbPolyline
 90
        2
 70
     0
 39
0.003
 10
1.376823
 20
-0.57061
 40
0.003
 41
0.003
 10
1.390185
 20
-0.549071
 40
0.003
 41
0.003
  0
LWPOLYLINE
  5
1CB
100
AcDbEntity
  8
0
 62
   254
100
AcDbPolyline
 90
        2
 70
     0
 39
0.003
 10
1.390185
 20
-0.549071
 40
0.003
 41
0.003
 10
0.742555
 20
-0.155382
 40
0.003
 41
0.003
  0
LWPOLYLINE
  5
1CC
100
AcDbEntity
  8
0
 62
   254
100
AcDbPolyline
 90
        2
 70
     0
 39
0.003
 10
0.742555
 20
-0.155382
 40
0.003
 41
0.003
 10
0.729193
 20
-0.176921
 40
0.003
 41
0.003
  0
LWPOLYLINE
  5
1CD
100
AcDbEntity
  8
0
 62
   254
100
AcDbPolyline
 90
        2
 70
     0
 39
0.003
 10
0.742555
 20
-0.155382
 40
0.003
 41
0.003
 10
1.390185
 20
-0.549071
 40
0.003
 41
0.003
  0
LWPOLYLINE
  5
1CE
100
AcDbEntity
  8
0
 62
   254
100
AcDbPolyline
 90
        2
 70
     0
 39
0.003
 10
1.390185
 20
-0.549071
 40
0.003
 41
0.003
 10
1.404524
 20
-0.527992
 40
0.003
 41
0.003
  0
LWPOLYLINE
  5
1CF
100
AcDbEntity
  8
0
 62
   254
100
AcDbPolyline
 90
        2
 70
     0
 39
0.003
 10
1.404524
 20
-0.527992
 40
0.003
 41
0.003
 10
0.756894
 20
-0.134303
 40
0.003
 41
0.003
  0
LWPOLYLINE
  5
1D0
100
AcDbEntity
  8
0
 62
   254
100
AcDbPolyline
 90
        2
 70
     0
 39
0.003
 10
0.756894
 20
-0.134303
 40
0.003
 41
0.003
 10
0.742555
 20
-0.155382
 40
0.003
 41
0.003
  0
LWPOLYLINE
  5
1D1
100
AcDbEntity
  8
0
 62
   254
100
AcDbPolyline
 90
        2
 70
     0
 39
0.003
 10
0.756894
 20
-0.134303
 40
0.003
 41
0.003
 10
1.404524
 20
-0.527992
 40
0.003
 41
0.003
  0
LWPOLYLINE
  5
1D2
100
AcDbEntity
  8
0
 62
   254
100
AcDbPolyline
 90
        2
 70
     0
 39
0.003
 10
1.404524
 20
-0.527992
 40
0.003
 41
0.003
 10
1.419854
 20
-0.507461
 40
0.003
 41
0.003
  0
LWPOLYLINE
  5
1D3
100
AcDbEntity
  8
0
 62
   254
100
AcDbPolyline
 90
        2
 70
     0
 39
0.003
 10
1.419854
 20
-0.507461
 40
0.003
 41
0.003
 10
0.772224
 20
-0.113772
 40
0.003
 41
0.003
  0
LWPOLYLINE
  5
1D4
100
AcDbEntity
  8
0
 62
   254
100
AcDbPolyline
 90
        2
 70
     0
 39
0.003
 10
0.772224
 20
-0.113772
 40
0.003
 41
0.003
 10
0.756894
 20
-0.134303
 40
0.003
 41
0.003
  0
LWPOLYLINE
  5
1D5
100
AcDbEntity
  8
0
 62
   254
100
AcDbPolyline
 90
        2
 70
     0
 39
0.003
 10
0.772224
 20
-0.113772
 40
0.003
 41
0.003
 10
1.419854
 20
-0.507461
 40
0.003
 41
0.003
  0
LWPOLYLINE
  5
1D6
100
AcDbEntity
  8
0
 62
   254
100
AcDbPolyline
 90
        2
 70
     0
 39
0.003
 10
1.419854
 20
-0.507461
 40
0.003
 41
0.003
 10
1.436165
 20
-0.48752
 40
0.003
 41
0.003
  0
LWPOLYLINE
  5
1D7
100
AcDbEntity
  8
0
 62
   254
100
AcDbPolyline
 90
        2
 70
     0
 39
0.003
 10
1.436165
 20
-0.48752
 40
0.003
 41
0.003
 10
0.788535
 20
-0.093831
 40
0.003
 41
0.003
  0
LWPOLYLINE
  5
1D8
100
AcDbEntity
  8
0
 62
   254
100
AcDbPolyline
 90
        2
 70
     0
 39
0.003
 10
0.788535
 20
-0.093831
 40
0.003
 41
0.003
 10
0.772224
 20
-0.113772
 40
0.003
 41
0.003
  0
LWPOLYLINE
  5
1D9
100
AcDbEntity
  8
0
 62
   254
100
AcDbPolyline
 90
        2
 70
     0
 39
0.003
 10
0.788535
 20
-0.093831
 40
0.003
 41
0.003
 10
1.436165
 20
-0.48752
 40
0.003
 41
0.003
  0
LWPOLYLINE
  5
1DA
100
AcDbEntity
  8
0
 62
   254
100
AcDbPolyline
 90
        2
 70
     0
 39
0.003
 10
1.436165
 20
-0.48752
 40
0.003
 41
0.003
 10
1.453469
 20
-0.468264
 40
0.003
 41
0.003
  0
LWPOLYLINE
  5
1DB
100
AcDbEntity
  8
0
 62
   254
100
AcDbPolyline
 90
        2
 70
     0
 39
0.003
 10
1.453469
 20
-0.468264
 40
0.003
 41
0.003
 10
0.805839
 20
-0.074575
 40
0.003
 41
0.003
  0
LWPOLYLINE
  5
1DC
100
AcDbEntity
  8
0
 62
   254
100
AcDbPolyline
 90
        2
 70
     0
 39
0.003
 10
0.805839
 20
-0.074575
 40
0.003
 41
0.003
 10
0.788535
 20
-0.093831
 40
0.003
 41
0.003
  0
LWPOLYLINE
  5
1DD
100
AcDbEntity
  8
0
 62
   254
100
AcDbPolyline
 90
        2
 70
     0
 39
0.003
 10
0.805839
 20
-0.074575
 40
0.003
 41
0.003
 10
1.453469
 20
-0.468264
 40
0.003
 41
0.003
  0
LWPOLYLINE
  5
1DE
100
AcDbEntity
  8
0
 62
   254
100
AcDbPolyline
 90
        2
 70
     0
 39
0.003
 10
1.453469
 20
-0.468264
 40
0.003
 41
0.003
 10
1.471772
 20
-0.449748
 40
0.003
 41
0.003
  0
LWPOLYLINE
  5
1DF
100
AcDbEntity
  8
0
 62
   254
100
AcDbPolyline
 90
        2
 70
     0
 39
0.003
 10
1.471772
 20
-0.449748
 40
0.003
 41
0.003
 10
0.824142
 20
-0.056059
 40
0.003
 41
0.003
  0
LWPOLYLINE
  5
1E0
100
AcDbEntity
  8
0
 62
   254
100
AcDbPolyline
 90
        2
 70
     0
 39
0.003
 10
0.824142
 20
-0.056059
 40
0.003
 41
0.003
 10
0.805839
 20
-0.074575
 40
0.003
 41
0.003
  0
LWPOLYLINE
  5
1E1
100
AcDbEntity
  8
0
 62
   254
100
AcDbPolyline
 90
        2
 70
     0
 39
0.003
 10
0.824142
 20
-0.056059
 40
0.003
 41
0.003
 10
1.471772
 20
-0.449748
 40
0.003
 41
0.003
  0
LWPOLYLINE
  5
1E2
100
AcDbEntity
  8
0
 62
   254
100
AcDbPolyline
 90
        2
 70
     0
 39
0.003
 10
1.471772
 20
-0.449748
 40
0.003
 41
0.003
 10
1.491075
 20
-0.432047
 40
0.003
 41
0.003
  0
LWPOLYLINE
  5
1E3
100
AcDbEntity
  8
0
 62
   254
100
AcDbPolyline
 90
        2
 70
     0
 39
0.003
 10
1.491075
 20
-0.432047
 40
0.003
 41
0.003
 10
0.843445
 20
-0.038358
 40
0.003
 41
0.003
  0
LWPOLYLINE
  5
1E4
100
AcDbEntity
  8
0
 62
   254
100
AcDbPolyline
 90
        2
 70
     0
 39
0.003
 10
0.843445
 20
-0.038358
 40
0.003
 41
0.003
 10
0.824142
 20
-0.056059
 40
0.003
 41
0.003
  0
LWPOLYLINE
  5
1E5
100
AcDbEntity
  8
0
 62
   254
100
AcDbPolyline
 90
        2
 70
     0
 39
0.003
 10
0.843445
 20
-0.038358
 40
0.003
 41
0.003
 10
1.491075
 20
-0.432047
 40
0.003
 41
0.003
  0
LWPOLYLINE
  5
1E6
100
AcDbEntity
  8
0
 62
   254
100
AcDbPolyline
 90
        2
 70
     0
 39
0.003
 10
1.491075
 20
-0.432047
 40
0.003
 41
0.003
 10
1.511374
 20
-0.415224
 40
0.003
 41
0.003
  0
LWPOLYLINE
  5
1E7
100
AcDbEntity
  8
0
 62
   254
100
AcDbPolyline
 90
        2
 70
     0
 39
0.003
 10
1.511374
 20
-0.415224
 40
0.003
 41
0.003
 10
0.863744
 20
-0.021535
 40
0.003
 41
0.003
  0
LWPOLYLINE
  5
1E8
100
AcDbEntity
  8
0
 62
   254
100
AcDbPolyline
 90
        2
 70
     0
 39
0.003
 10
0.863744
 20
-0.021535
 40
0.003
 41
0.003
 10
0.843445
 20
-0.038358
 40
0.003
 41
0.003
  0
LWPOLYLINE
  5
1E9
100
AcDbEntity
  8
0
 62
   254
100
AcDbPolyline
 90
        2
 70
     0
 39
0.003
 10
0.863744
 20
-0.021535
 40
0.003
 41
0.003
 10
1.511374
 20
-0.415224
 40
0.003
 41
0.003
  0
LWPOLYLINE
  5
1EA
100
AcDbEntity
  8
0
 62
   254
100
AcDbPolyline
 90
        2
 70
     0
 39
0.003
 10
1.511374
 20
-0.415224
 40
0.003
 41
0.003
 10
1.532681
 20
-0.399354
 40
0.003
 41
0.003
  0
LWPOLYLINE
  5
1EB
100
AcDbEntity
  8
0
 62
   254
100
AcDbPolyline
 90
        2
 70
     0
 39
0.003
 10
1.532681
 20
-0.399354
 40
0.003
 41
0.003
 10
0.885051
 20
-0.005665
 40
0.003
 41
0.003
  0
LWPOLYLINE
  5
1EC
100
AcDbEntity
  8
0
 62
   254
100
AcDbPolyline
 90
        2
 70
     0
 39
0.003
 10
0.885051
 20
-0.005665
 40
0.003
 41
0.003
 10
0.863744
 20
-0.021535
 40
0.003
 41
0.003
  0
LWPOLYLINE
  5
1ED
100
AcDbEntity
  8
0
 62
   254
100
AcDbPolyline
 90
        2
 70
     0
 39
0.003
 10
0.885051
 20
-0.005665
 40
0.003
 41
0.003
 10
1.532681
 20
-0.399354
 40
0.003
 41
0.003
  0
LWPOLYLINE
  5
1EE
100
AcDbEntity
  8
0
 62
   254
100
AcDbPolyline
 90
        2
 70
     0
 39
0.003
 10
1.532681
 20
-0.399354
 40
0.003
 41
0.003
 10
1.554992
 20
-0.384504
 40
0.003
 41
0.003
  0
LWPOLYLINE
  5
1EF
100
AcDbEntity
  8
0
 62
   254
100
AcDbPolyline
 90
        2
 70
     0
 39
0.003
 10
1.554992
 20
-0.384504
 40
0.003
 41
0.003
 10
0.907362
 20
0.009185
 40
0.003
 41
0.003
  0
LWPOLYLINE
  5
1F0
100
AcDbEntity
  8
0
 62
   254
100
AcDbPolyline
 90
        2
 70
     0
 39
0.003
 10
0.907362
 20
0.009185
 40
0.003
 41
0.003
 10
0.885051
 20
-0.005665
 40
0.003
 41
0.003
  0
LWPOLYLINE
  5
1F1
100
AcDbEntity
  8
0
 62
   254
100
AcDbPolyline
 90
        2
 70
     0
 39
0.003
 10
0.907362
 20
0.009185
 40
0.003
 41
0.003
 10
1.554992
 20
-0.384504
 40
0.003
 41
0.003
  0
LWPOLYLINE
  5
1F2
100
AcDbEntity
  8
0
 62
   254
100
AcDbPolyline
 90
        2
 70
     0
 39
0.003
 10
1.554992
 20
-0.384504
 40
0.003
 41
0.003
 10
1.578323
 20
-0.370744
 40
0.003
 41
0.003
  0
LWPOLYLINE
  5
1F3
100
AcDbEntity
  8
0
 62
   254
100
AcDbPolyline
 90
        2
 70
     0
 39
0.003
 10
1.578323
 20
-0.370744
 40
0.003
 41
0.003
 10
0.930693
 20
0.022945
 40
0.003
 41
0.003
  0
LWPOLYLINE
  5
1F4
100
AcDbEntity
  8
0
 62
   254
100
AcDbPolyline
 90
        2
 70
     0
 39
0.003
 10
0.930693
 20
0.022945
 40
0.003
 41
0.003
 10
0.907362
 20
0.009185
 40
0.003
 41
0.003
  0
LWPOLYLINE
  5
1F5
100
AcDbEntity
  8
0
 62
   254
100
AcDbPolyline
 90
        2
 70
     0
 39
0.003
 10
0.930693
 20
0.022945
 40
0.003
 41
0.003
 10
1.578323
 20
-0.370744
 40
0.003
 41
0.003
  0
LWPOLYLINE
  5
1F6
100
AcDbEntity
  8
0
 62
   254
100
AcDbPolyline
 90
        2
 70
     0
 39
0.003
 10
1.578323
 20
-0.370744
 40
0.003
 41
0.003
 10
1.602654
 20
-0.358138
 40
0.003
 41
0.003
  0
LWPOLYLINE
  5
1F7
100
AcDbEntity
  8
0
 62
   254
100
AcDbPolyline
 90
        2
 70
     0
 39
0.003
 10
1.602654
 20
-0.358138
 40
0.003
 41
0.003
 10
0.955024
 20
0.035551
 40
0.003
 41
0.003
  0
LWPOLYLINE
  5
1F8
100
AcDbEntity
  8
0
 62
   254
100
AcDbPolyline
 90
        2
 70
     0
 39
0.003
 10
0.955024
 20
0.035551
 40
0.003
 41
0.003
 10
0.930693
 20
0.022945
 40
0.003
 41
0.003
  0
LWPOLYLINE
  5
1F9
100
AcDbEntity
  8
0
 62
   254
100
AcDbPolyline
 90
        2
 70
     0
 39
0.003
 10
0.955024
 20
0.035551
 40
0.003
 41
0.003
 10
1.602654
 20
-0.358138
 40
0.003
 41
0.003
  0
LWPOLYLINE
  5
1FA
100
AcDbEntity
  8
0
 62
   254
100
AcDbPolyline
 90
        2
 70
     0
 39
0.003
 10
1.602654
 20
-0.358138
 40
0.003
 41
0.003
 10
1.628012
 20
-0.346764
 40
0.003
 41
0.003
  0
LWPOLYLINE
  5
1FB
100
AcDbEntity
  8
0
 62
   254
100
AcDbPolyline
 90
        2
 70
     0
 39
0.003
 10
1.628012
 20
-0.346764
 40
0.003
 41
0.003
 10
0.980382
 20
0.046925
 40
0.003
 41
0.003
  0
LWPOLYLINE
  5
1FC
100
AcDbEntity
  8
0
 62
   254
100
AcDbPolyline
 90
        2
 70
     0
 39
0.003
 10
0.980382
 20
0.046925
 40
0.003
 41
0.003
 10
0.955024
 20
0.035551
 40
0.003
 41
0.003
  0
LWPOLYLINE
  5
1FD
100
AcDbEntity
  8
0
 62
   254
100
AcDbPolyline
 90
        2
 70
     0
 39
0.003
 10
0.980382
 20
0.046925
 40
0.003
 41
0.003
 10
1.628012
 20
-0.346764
 40
0.003
 41
0.003
  0
LWPOLYLINE
  5
1FE
100
AcDbEntity
  8
0
 62
   254
100
AcDbPolyline
 90
        2
 70
     0
 39
0.003
 10
1.628012
 20
-0.346764
 40
0.003
 41
0.003
 10
1.654386
 20
-0.336681
 40
0.003
 41
0.003
  0
LWPOLYLINE
  5
1FF
100
AcDbEntity
  8
0
 62
   254
100
AcDbPolyline
 90
        2
 70
     0
 39
0.003
 10
1.654386
 20
-0.336681
 40
0.003
 41
0.003
 10
1.006756
 20
0.057008
 40
0.003
 41
0.003
  0
LWPOLYLINE
  5
200
100
AcDbEntity
  8
0
 62
   254
100
AcDbPolyline
 90
        2
 70
     0
 39
0.003
 10
1.006756
 20
0.057008
 40
0.003
 41
0.003
 10
0.980382
 20
0.046925
 40
0.003
 41
0.003
  0
LWPOLYLINE
  5
201
100
AcDbEntity
  8
0
 62
   254
100
AcDbPolyline
 90
        2
 70
     0
 39
0.003
 10
1.006756
 20
0.057008
 40
0.003
 41
0.003
 10
1.654386
 20
-0.336681
 40
0.003
 41
0.003
  0
LWPOLYLINE
  5
202
100
AcDbEntity
  8
0
 62
   254
100
AcDbPolyline
 90
        2
 70
     0
 39
0.003
 10
1.654386
 20
-0.336681
 40
0.003
 41
0.003
 10
1.681791
 20
-0.327972
 40
0.003
 41
0.003
  0
LWPOLYLINE
  5
203
100
AcDbEntity
  8
0
 62
   254
100
AcDbPolyline
 90
        2
 70
     0
 39
0.003
 10
1.681791
 20
-0.327972
 40
0.003
 41
0.003
 10
1.034161
 20
0.065717
 40
0.003
 41
0.003
  0
LWPOLYLINE
  5
204
100
AcDbEntity
  8
0
 62
   254
100
AcDbPolyline
 90
        2
 70
     0
 39
0.003
 10
1.034161
 20
0.065717
 40
0.003
 41
0.003
 10
1.006756
 20
0.057008
 40
0.003
 41
0.003
  0
LWPOLYLINE
  5
205
100
AcDbEntity
  8
0
 62
   254
100
AcDbPolyline
 90
        2
 70
     0
 39
0.003
 10
1.034161
 20
0.065717
 40
0.003
 41
0.003
 10
1.681791
 20
-0.327972
 40
0.003
 41
0.003
  0
LWPOLYLINE
  5
206
100
AcDbEntity
  8
0
 62
   254
100
AcDbPolyline
 90
        2
 70
     0
 39
0.003
 10
1.681791
 20
-0.327972
 40
0.003
 41
0.003
 10
1.710217
 20
-0.320689
 40
0.003
 41
0.003
  0
LWPOLYLINE
  5
207
100
AcDbEntity
  8
0
 62
   254
100
AcDbPolyline
 90
        2
 70
     0
 39
0.003
 10
1.710217
 20
-0.320689
 40
0.003
 41
0.003
 10
1.062587
 20
0.073
 40
0.003
 41
0.003
  0
LWPOLYLINE
  5
208
100
AcDbEntity
  8
0
 62
   254
100
AcDbPolyline
 90
        2
 70
     0
 39
0.003
 10
1.062587
 20
0.073
 40
0.003
 41
0.003
 10
1.034161
 20
0.065717
 40
0.003
 41
0.003
  0
LWPOLYLINE
  5
209
100
AcDbEntity
  8
0
 62
   254
100
AcDbPolyline
 90
        2
 70
     0
 39
0.003
 10
1.062587
 20
0.073
 40
0.003
 41
0.003
 10
1.710217
 20
-0.320689
 40
0.003
 41
0.003
  0
LWPOLYLINE
  5
20A
100
AcDbEntity
  8
0
 62
   254
100
AcDbPolyline
 90
        2
 70
     0
 39
0.003
 10
1.710217
 20
-0.320689
 40
0.003
 41
0.003
 10
1.739673
 20
-0.314917
 40
0.003
 41
0.003
  0
LWPOLYLINE
  5
20B
100
AcDbEntity
  8
0
 62
   254
100
AcDbPolyline
 90
        2
 70
     0
 39
0.003
 10
1.739673
 20
-0.314917
 40
0.003
 41
0.003
 10
1.092043
 20
0.078772
 40
0.003
 41
0.003
  0
LWPOLYLINE
  5
20C
100
AcDbEntity
  8
0
 62
   254
100
AcDbPolyline
 90
        2
 70
     0
 39
0.003
 10
1.092043
 20
0.078772
 40
0.003
 41
0.003
 10
1.062587
 20
0.073
 40
0.003
 41
0.003
  0
LWPOLYLINE
  5
20D
100
AcDbEntity
  8
0
 62
   254
100
AcDbPolyline
 90
        2
 70
     0
 39
0.003
 10
1.092043
 20
0.078772
 40
0.003
 41
0.003
 10
1.739673
 20
-0.314917
 40
0.003
 41
0.003
  0
LWPOLYLINE
  5
20E
100
AcDbEntity
  8
0
 62
   254
100
AcDbPolyline
 90
        2
 70
     0
 39
0.003
 10
1.739673
 20
-0.314917
 40
0.003
 41
0.003
 10
1.770161
 20
-0.310713
 40
0.003
 41
0.003
  0
LWPOLYLINE
  5
20F
100
AcDbEntity
  8
0
 62
   254
100
AcDbPolyline
 90
        2
 70
     0
 39
0.003
 10
1.770161
 20
-0.310713
 40
0.003
 41
0.003
 10
1.122531
 20
0.082976
 40
0.003
 41
0.003
  0
LWPOLYLINE
  5
210
100
AcDbEntity
  8
0
 62
   254
100
AcDbPolyline
 90
        2
 70
     0
 39
0.003
 10
1.122531
 20
0.082976
 40
0.003
 41
0.003
 10
1.092043
 20
0.078772
 40
0.003
 41
0.003
  0
LWPOLYLINE
  5
211
100
AcDbEntity
  8
0
 62
   254
100
AcDbPolyline
 90
        2
 70
     0
 39
0.003
 10
1.122531
 20
0.082976
 40
0.003
 41
0.003
 10
1.770161
 20
-0.310713
 40
0.003
 41
0.003
  0
LWPOLYLINE
  5
212
100
AcDbEntity
  8
0
 62
   254
100
AcDbPolyline
 90
        2
 70
     0
 39
0.003
 10
1.770161
 20
-0.310713
 40
0.003
 41
0.003
 10
1.801697
 20
-0.308154
 40
0.003
 41
0.003
  0
LWPOLYLINE
  5
213
100
AcDbEntity
  8
0
 62
   254
100
AcDbPolyline
 90
        2
 70
     0
 39
0.003
 10
1.801697
 20
-0.308154
 40
0.003
 41
0.003
 10
1.154067
 20
0.085535
 40
0.003
 41
0.003
  0
LWPOLYLINE
  5
214
100
AcDbEntity
  8
0
 62
   254
100
AcDbPolyline
 90
        2
 70
     0
 39
0.003
 10
1.154067
 20
0.085535
 40
0.003
 41
0.003
 10
1.122531
 20
0.082976
 40
0.003
 41
0.003
  0
LWPOLYLINE
  5
215
100
AcDbEntity
  8
0
 62
     0
100
AcDbPolyline
 90
        2
 70
     0
 39
0.003
 10
0.643508
 20
-0.468075
 40
0.003
 41
0.003
 10
1.291138
 20
-0.861764
 40
0.003
 41
0.003
  0
LWPOLYLINE
  5
216
100
AcDbEntity
  8
0
 62
     0
100
AcDbPolyline
 90
        2
 70
     0
 39
0.003
 10
1.291138
 20
-0.861764
 40
0.003
 41
0.003
 10
1.292004
 20
-0.840425
 40
0.003
 41
0.003
  0
LWPOLYLINE
  5
217
100
AcDbEntity
  8
0
 62
     0
100
AcDbPolyline
 90
        2
 70
     0
 39
0.003
 10
1.292004
 20
-0.840425
 40
0.003
 41
0.003
 10
1.293823
 20
-0.818665
 40
0.003
 41
0.003
  0
LWPOLYLINE
  5
218
100
AcDbEntity
  8
0
 62
     0
100
AcDbPolyline
 90
        2
 70
     0
 39
0.003
 10
1.293823
 20
-0.818665
 40
0.003
 41
0.003
 10
1.296583
 20
-0.796539
 40
0.003
 41
0.003
  0
LWPOLYLINE
  5
219
100
AcDbEntity
  8
0
 62
     0
100
AcDbPolyline
 90
        2
 70
     0
 39
0.003
 10
1.296583
 20
-0.796539
 40
0.003
 41
0.003
 10
1.300291
 20
-0.774126
 40
0.003
 41
0.003
  0
LWPOLYLINE
  5
21A
100
AcDbEntity
  8
0
 62
     0
100
AcDbPolyline
 90
        2
 70
     0
 39
0.003
 10
1.300291
 20
-0.774126
 40
0.003
 41
0.003
 10
1.304945
 20
-0.751484
 40
0.003
 41
0.003
  0
LWPOLYLINE
  5
21B
100
AcDbEntity
  8
0
 62
     0
100
AcDbPolyline
 90
        2
 70
     0
 39
0.003
 10
1.304945
 20
-0.751484
 40
0.003
 41
0.003
 10
1.310559
 20
-0.728693
 40
0.003
 41
0.003
  0
LWPOLYLINE
  5
21C
100
AcDbEntity
  8
0
 62
     0
100
AcDbPolyline
 90
        2
 70
     0
 39
0.003
 10
1.310559
 20
-0.728693
 40
0.003
 41
0.003
 10
1.31713
 20
-0.705811
 40
0.003
 41
0.003
  0
LWPOLYLINE
  5
21D
100
AcDbEntity
  8
0
 62
     0
100
AcDbPolyline
 90
        2
 70
     0
 39
0.003
 10
1.31713
 20
-0.705811
 40
0.003
 41
0.003
 10
1.324665
 20
-0.682921
 40
0.003
 41
0.003
  0
LWPOLYLINE
  5
21E
100
AcDbEntity
  8
0
 62
     0
100
AcDbPolyline
 90
        2
 70
     0
 39
0.003
 10
1.324665
 20
-0.682921
 40
0.003
 41
0.003
 10
1.333154
 20
-0.660075
 40
0.003
 41
0.003
  0
LWPOLYLINE
  5
21F
100
AcDbEntity
  8
0
 62
     0
100
AcDbPolyline
 90
        2
 70
     0
 39
0.003
 10
1.333154
 20
-0.660075
 40
0.003
 41
0.003
 10
1.342614
 20
-0.637354
 40
0.003
 41
0.003
  0
LWPOLYLINE
  5
220
100
AcDbEntity
  8
0
 62
     0
100
AcDbPolyline
 90
        2
 70
     0
 39
0.003
 10
1.342614
 20
-0.637354
 40
0.003
 41
0.003
 10
1.353043
 20
-0.614819
 40
0.003
 41
0.003
  0
LWPOLYLINE
  5
221
100
AcDbEntity
  8
0
 62
     0
100
AcDbPolyline
 90
        2
 70
     0
 39
0.003
 10
1.353043
 20
-0.614819
 40
0.003
 41
0.003
 10
1.364449
 20
-0.592555
 40
0.003
 41
0.003
  0
LWPOLYLINE
  5
222
100
AcDbEntity
  8
0
 62
     0
100
AcDbPolyline
 90
        2
 70
     0
 39
0.003
 10
1.364449
 20
-0.592555
 40
0.003
 41
0.003
 10
1.376823
 20
-0.57061
 40
0.003
 41
0.003
  0
LWPOLYLINE
  5
223
100
AcDbEntity
  8
0
 62
     0
100
AcDbPolyline
 90
        2
 70
     0
 39
0.003
 10
1.376823
 20
-0.57061
 40
0.003
 41
0.003
 10
1.390185
 20
-0.549071
 40
0.003
 41
0.003
  0
LWPOLYLINE
  5
224
100
AcDbEntity
  8
0
 62
     0
100
AcDbPolyline
 90
        2
 70
     0
 39
0.003
 10
1.390185
 20
-0.549071
 40
0.003
 41
0.003
 10
1.404524
 20
-0.527992
 40
0.003
 41
0.003
  0
LWPOLYLINE
  5
225
100
AcDbEntity
  8
0
 62
     0
100
AcDbPolyline
 90
        2
 70
     0
 39
0.003
 10
1.404524
 20
-0.527992
 40
0.003
 41
0.003
 10
1.419854
 20
-0.507461
 40
0.003
 41
0.003
  0
LWPOLYLINE
  5
226
100
AcDbEntity
  8
0
 62
     0
100
AcDbPolyline
 90
        2
 70
     0
 39
0.003
 10
1.419854
 20
-0.507461
 40
0.003
 41
0.003
 10
1.436165
 20
-0.48752
 40
0.003
 41
0.003
  0
LWPOLYLINE
  5
227
100
AcDbEntity
  8
0
 62
     0
100
AcDbPolyline
 90
        2
 70
     0
 39
0.003
 10
1.436165
 20
-0.48752
 40
0.003
 41
0.003
 10
1.453469
 20
-0.468264
 40
0.003
 41
0.003
  0
LWPOLYLINE
  5
228
100
AcDbEntity
  8
0
 62
     0
100
AcDbPolyline
 90
        2
 70
     0
 39
0.003
 10
1.453469
 20
-0.468264
 40
0.003
 41
0.003
 10
1.471772
 20
-0.449748
 40
0.003
 41
0.003
  0
LWPOLYLINE
  5
229
100
AcDbEntity
  8
0
 62
     0
100
AcDbPolyline
 90
        2
 70
     0
 39
0.003
 10
1.471772
 20
-0.449748
 40
0.003
 41
0.003
 10
1.491075
 20
-0.432047
 40
0.003
 41
0.003
  0
LWPOLYLINE
  5
22A
100
AcDbEntity
  8
0
 62
     0
100
AcDbPolyline
 90
        2
 70
     0
 39
0.003
 10
1.491075
 20
-0.432047
 40
0.003
 41
0.003
 10
1.511374
 20
-0.415224
 40
0.003
 41
0.003
  0
LWPOLYLINE
  5
22B
100
AcDbEntity
  8
0
 62
     0
100
AcDbPolyline
 90
        2
 70
     0
 39
0.003
 10
1.511374
 20
-0.415224
 40
0.003
 41
0.003
 10
1.532681
 20
-0.399354
 40
0.003
 41
0.003
  0
LWPOLYLINE
  5
22C
100
AcDbEntity
  8
0
 62
     0
100
AcDbPolyline
 90
        2
 70
     0
 39
0.003
 10
1.532681
 20
-0.399354
 40
0.003
 41
0.003
 10
1.554992
 20
-0.384504
 40
0.003
 41
0.003
  0
LWPOLYLINE
  5
22D
100
AcDbEntity
  8
0
 62
     0
100
AcDbPolyline
 90
        2
 70
     0
 39
0.003
 10
1.554992
 20
-0.384504
 40
0.003
 41
0.003
 10
1.578323
 20
-0.370744
 40
0.003
 41
0.003
  0
LWPOLYLINE
  5
22E
100
AcDbEntity
  8
0
 62
     0
100
AcDbPolyline
 90
        2
 70
     0
 39
0.003
 10
1.578323
 20
-0.370744
 40
0.003
 41
0.003
 10
1.602654
 20
-0.358138
 40
0.003
 41
0.003
  0
LWPOLYLINE
  5
22F
100
AcDbEntity
  8
0
 62
     0
100
AcDbPolyline
 90
        2
 70
     0
 39
0.003
 10
1.602654
 20
-0.358138
 40
0.003
 41
0.003
 10
1.628012
 20
-0.346764
 40
0.003
 41
0.003
  0
LWPOLYLINE
  5
230
100
AcDbEntity
  8
0
 62
     0
100
AcDbPolyline
 90
        2
 70
     0
 39
0.003
 10
1.628012
 20
-0.346764
 40
0.003
 41
0.003
 10
1.654386
 20
-0.336681
 40
0.003
 41
0.003
  0
LWPOLYLINE
  5
231
100
AcDbEntity
  8
0
 62
     0
100
AcDbPolyline
 90
        2
 70
     0
 39
0.003
 10
1.654386
 20
-0.336681
 40
0.003
 41
0.003
 10
1.681791
 20
-0.327972
 40
0.003
 41
0.003
  0
LWPOLYLINE
  5
232
100
AcDbEntity
  8
0
 62
     0
100
AcDbPolyline
 90
        2
 70
     0
 39
0.003
 10
1.681791
 20
-0.327972
 40
0.003
 41
0.003
 10
1.710217
 20
-0.320689
 40
0.003
 41
0.003
  0
LWPOLYLINE
  5
233
100
AcDbEntity
  8
0
 62
     0
100
AcDbPolyline
 90
        2
 70
     0
 39
0.003
 10
1.710217
 20
-0.320689
 40
0.003
 41
0.003
 10
1.739673
 20
-0.314917
 40
0.003
 41
0.003
  0
LWPOLYLINE
  5
234
100
AcDbEntity
  8
0
 62
     0
100
AcDbPolyline
 90
        2
 70
     0
 39
0.003
 10
1.739673
 20
-0.314917
 40
0.003
 41
0.003
 10
1.770161
 20
-0.310713
 40
0.003
 41
0.003
  0
LWPOLYLINE
  5
235
100
AcDbEntity
  8
0
 62
     0
100
AcDbPolyline
 90
        2
 70
     0
 39
0.003
 10
1.770161
 20
-0.310713
 40
0.003
 41
0.003
 10
1.801697
 20
-0.308154
 40
0.003
 41
0.003
  0
LWPOLYLINE
  5
236
100
AcDbEntity
  8
0
 62
     0
100
AcDbPolyline
 90
        2
 70
     0
 39
0.003
 10
1.801697
 20
-0.308154
 40
0.003
 41
0.003
 10
1.154067
 20
0.085535
 40
0.003
 41
0.003
  0
LWPOLYLINE
  5
237
100
AcDbEntity
  8
0
 62
     0
100
AcDbPolyline
 90
        2
 70
     0
 39
0.003
 10
1.154067
 20
0.085535
 40
0.003
 41
0.003
 10
1.122531
 20
0.082976
 40
0.003
 41
0.003
  0
LWPOLYLINE
  5
238
100
AcDbEntity
  8
0
 62
     0
100
AcDbPolyline
 90
        2
 70
     0
 39
0.003
 10
1.122531
 20
0.082976
 40
0.003
 41
0.003
 10
1.092043
 20
0.078772
 40
0.003
 41
0.003
  0
LWPOLYLINE
  5
239
100
AcDbEntity
  8
0
 62
     0
100
AcDbPolyline
 90
        2
 70
     0
 39
0.003
 10
1.092043
 20
0.078772
 40
0.003
 41
0.003
 10
1.062587
 20
0.073
 40
0.003
 41
0.003
  0
LWPOLYLINE
  5
23A
100
AcDbEntity
  8
0
 62
     0
100
AcDbPolyline
 90
        2
 70
     0
 39
0.003
 10
1.062587
 20
0.073
 40
0.003
 41
0.003
 10
1.034161
 20
0.065717
 40
0.003
 41
0.003
  0
LWPOLYLINE
  5
23B
100
AcDbEntity
  8
0
 62
     0
100
AcDbPolyline
 90
        2
 70
     0
 39
0.003
 10
1.034161
 20
0.065717
 40
0.003
 41
0.003
 10
1.006756
 20
0.057008
 40
0.003
 41
0.003
  0
LWPOLYLINE
  5
23C
100
AcDbEntity
  8
0
 62
     0
100
AcDbPolyline
 90
        2
 70
     0
 39
0.003
 10
1.006756
 20
0.057008
 40
0.003
 41
0.003
 10
0.980382
 20
0.046925
 40
0.003
 41
0.003
  0
LWPOLYLINE
  5
23D
100
AcDbEntity
  8
0
 62
     0
100
AcDbPolyline
 90
        2
 70
     0
 39
0.003
 10
0.980382
 20
0.046925
 40
0.003
 41
0.003
 10
0.955024
 20
0.035551
 40
0.003
 41
0.003
  0
LWPOLYLINE
  5
23E
100
AcDbEntity
  8
0
 62
     0
100
AcDbPolyline
 90
        2
 70
     0
 39
0.003
 10
0.955024
 20
0.035551
 40
0.003
 41
0.003
 10
0.930693
 20
0.022945
 40
0.003
 41
0.003
  0
LWPOLYLINE
  5
23F
100
AcDbEntity
  8
0
 62
     0
100
AcDbPolyline
 90
        2
 70
     0
 39
0.003
 10
0.930693
 20
0.022945
 40
0.003
 41
0.003
 10
0.907362
 20
0.009185
 40
0.003
 41
0.003
  0
LWPOLYLINE
  5
240
100
AcDbEntity
  8
0
 62
     0
100
AcDbPolyline
 90
        2
 70
     0
 39
0.003
 10
0.907362
 20
0.009185
 40
0.003
 41
0.003
 10
0.885051
 20
-0.005665
 40
0.003
 41
0.003
  0
LWPOLYLINE
  5
241
100
AcDbEntity
  8
0
 62
     0
100
AcDbPolyline
 90
        2
 70
     0
 39
0.003
 10
0.885051
 20
-0.005665
 40
0.003
 41
0.003
 10
0.863744
 20
-0.021535
 40
0.003
 41
0.003
  0
LWPOLYLINE
  5
242
100
AcDbEntity
  8
0
 62
     0
100
AcDbPolyline
 90
        2
 70
     0
 39
0.003
 10
0.863744
 20
-0.021535
 40
0.003
 41
0.003
 10
0.843445
 20
-0.038358
 40
0.003
 41
0.003
  0
LWPOLYLINE
  5
243
100
AcDbEntity
  8
0
 62
     0
100
AcDbPolyline
 90
        2
 70
     0
 39
0.003
 10
0.843445
 20
-0.038358
 40
0.003
 41
0.003
 10
0.824142
 20
-0.056059
 40
0.003
 41
0.003
  0
LWPOLYLINE
  5
244
100
AcDbEntity
  8
0
 62
     0
100
AcDbPolyline
 90
        2
 70
     0
 39
0.003
 10
0.824142
 20
-0.056059
 40
0.003
 41
0.003
 10
0.805839
 20
-0.074575
 40
0.003
 41
0.003
  0
LWPOLYLINE
  5
245
100
AcDbEntity
  8
0
 62
     0
100
AcDbPolyline
 90
        2
 70
     0
 39
0.003
 10
0.805839
 20
-0.074575
 40
0.003
 41
0.003
 10
0.788535
 20
-0.093831
 40
0.003
 41
0.003
  0
LWPOLYLINE
  5
246
100
AcDbEntity
  8
0
 62
     0
100
AcDbPolyline
 90
        2
 70
     0
 39
0.003
 10
0.788535
 20
-0.093831
 40
0.003
 41
0.003
 10
0.772224
 20
-0.113772
 40
0.003
 41
0.003
  0
LWPOLYLINE
  5
247
100
AcDbEntity
  8
0
 62
     0
100
AcDbPolyline
 90
        2
 70
     0
 39
0.003
 10
0.772224
 20
-0.113772
 40
0.003
 41
0.003
 10
0.756894
 20
-0.134303
 40
0.003
 41
0.003
  0
LWPOLYLINE
  5
248
100
AcDbEntity
  8
0
 62
     0
100
AcDbPolyline
 90
        2
 70
     0
 39
0.003
 10
0.756894
 20
-0.134303
 40
0.003
 41
0.003
 10
0.742555
 20
-0.155382
 40
0.003
 41
0.003
  0
LWPOLYLINE
  5
249
100
AcDbEntity
  8
0
 62
     0
100
AcDbPolyline
 90
        2
 70
     0
 39
0.003
 10
0.742555
 20
-0.155382
 40
0.003
 41
0.003
 10
0.729193
 20
-0.176921
 40
0.003
 41
0.003
  0
LWPOLYLINE
  5
24A
100
AcDbEntity
  8
0
 62
     0
100
AcDbPolyline
 90
        2
 70
     0
 39
0.003
 10
0.729193
 20
-0.176921
 40
0.003
 41
0.003
 10
0.716819
 20
-0.198866
 40
0.003
 41
0.003
  0
LWPOLYLINE
  5
24B
100
AcDbEntity
  8
0
 62
     0
100
AcDbPolyline
 90
        2
 70
     0
 39
0.003
 10
0.716819
 20
-0.198866
 40
0.003
 41
0.003
 10
0.705413
 20
-0.22113
 40
0.003
 41
0.003
  0
LWPOLYLINE
  5
24C
100
AcDbEntity
  8
0
 62
     0
100
AcDbPolyline
 90
        2
 70
     0
 39
0.003
 10
0.705413
 20
-0.22113
 40
0.003
 41
0.003
 10
0.694984
 20
-0.243665
 40
0.003
 41
0.003
  0
LWPOLYLINE
  5
24D
100
AcDbEntity
  8
0
 62
     0
100
AcDbPolyline
 90
        2
 70
     0
 39
0.003
 10
0.694984
 20
-0.243665
 40
0.003
 41
0.003
 10
0.685524
 20
-0.266386
 40
0.003
 41
0.003
  0
LWPOLYLINE
  5
24E
100
AcDbEntity
  8
0
 62
     0
100
AcDbPolyline
 90
        2
 70
     0
 39
0.003
 10
0.685524
 20
-0.266386
 40
0.003
 41
0.003
 10
0.677035
 20
-0.289232
 40
0.003
 41
0.003
  0
LWPOLYLINE
  5
24F
100
AcDbEntity
  8
0
 62
     0
100
AcDbPolyline
 90
        2
 70
     0
 39
0.003
 10
0.677035
 20
-0.289232
 40
0.003
 41
0.003
 10
0.6695
 20
-0.312122
 40
0.003
 41
0.003
  0
LWPOLYLINE
  5
250
100
AcDbEntity
  8
0
 62
     0
100
AcDbPolyline
 90
        2
 70
     0
 39
0.003
 10
0.6695
 20
-0.312122
 40
0.003
 41
0.003
 10
0.662929
 20
-0.335004
 40
0.003
 41
0.003
  0
LWPOLYLINE
  5
251
100
AcDbEntity
  8
0
 62
     0
100
AcDbPolyline
 90
        2
 70
     0
 39
0.003
 10
0.662929
 20
-0.335004
 40
0.003
 41
0.003
 10
0.657315
 20
-0.357795
 40
0.003
 41
0.003
  0
LWPOLYLINE
  5
252
100
AcDbEntity
  8
0
 62
     0
100
AcDbPolyline
 90
        2
 70
     0
 39
0.003
 10
0.657315
 20
-0.357795
 40
0.003
 41
0.003
 10
0.652661
 20
-0.380437
 40
0.003
 41
0.003
  0
LWPOLYLINE
  5
253
100
AcDbEntity
  8
0
 62
     0
100
AcDbPolyline
 90
        2
 70
     0
 39
0.003
 10
0.652661
 20
-0.380437
 40
0.003
 41
0.003
 10
0.648953
 20
-0.40285
 40
0.003
 41
0.003
  0
LWPOLYLINE
  5
254
100
AcDbEntity
  8
0
 62
     0
100
AcDbPolyline
 90
        2
 70
     0
 39
0.003
 10
0.648953
 20
-0.40285
 40
0.003
 41
0.003
 10
0.646193
 20
-0.424976
 40
0.003
 41
0.003
  0
LWPOLYLINE
  5
255
100
AcDbEntity
  8
0
 62
     0
100
AcDbPolyline
 90
        2
 70
     0
 39
0.003
 10
0.646193
 20
-0.424976
 40
0.003
 41
0.003
 10
0.644374
 20
-0.446736
 40
0.003
 41
0.003
  0
LWPOLYLINE
  5
256
100
AcDbEntity
  8
0
 62
     0
100
AcDbPolyline
 90
        2
 70
     0
 39
0.003
 10
0.644374
 20
-0.446736
 40
0.003
 41
0.003
 10
0.643508
 20
-0.468075
 40
0.003
 41
0.003
  0
LWPOLYLINE
  5
257
100
AcDbEntity
  8
0
 62
   254
100
AcDbPolyline
 90
        2
 70
     0
 39
0.003
 10
1.154067
 20
0.085535
 40
0.003
 41
0.003
 10
1.801697
 20
-0.308154
 40
0.003
 41
0.003
  0
LWPOLYLINE
  5
258
100
AcDbEntity
  8
0
 62
   254
100
AcDbPolyline
 90
        2
 70
     0
 39
0.003
 10
1.801697
 20
-0.308154
 40
0.003
 41
0.003
 10
1.801697
 20
-0.134866
 40
0.003
 41
0.003
  0
LWPOLYLINE
  5
259
100
AcDbEntity
  8
0
 62
   254
100
AcDbPolyline
 90
        2
 70
     0
 39
0.003
 10
1.801697
 20
-0.134866
 40
0.003
 41
0.003
 10
1.154067
 20
0.258823
 40
0.003
 41
0.003
  0
LWPOLYLINE
  5
25A
100
AcDbEntity
  8
0
 62
   254
100
AcDbPolyline
 90
        2
 70
     0
 39
0.003
 10
1.154067
 20
0.258823
 40
0.003
 41
0.003
 10
1.154067
 20
0.085535
 40
0.003
 41
0.003
  0
LWPOLYLINE
  5
25B
100
AcDbEntity
  8
0
 62
     0
100
AcDbPolyline
 90
        2
 70
     0
 39
0.003
 10
1.154067
 20
0.085535
 40
0.003
 41
0.003
 10
1.801697
 20
-0.308154
 40
0.003
 41
0.003
  0
LWPOLYLINE
  5
25C
100
AcDbEntity
  8
0
 62
     0
100
AcDbPolyline
 90
        2
 70
     0
 39
0.003
 10
1.801697
 20
-0.308154
 40
0.003
 41
0.003
 10
1.801697
 20
-0.134866
 40
0.003
 41
0.003
  0
LWPOLYLINE
  5
25D
100
AcDbEntity
  8
0
 62
     0
100
AcDbPolyline
 90
        2
 70
     0
 39
0.003
 10
1.801697
 20
-0.134866
 40
0.003
 41
0.003
 10
1.154067
 20
0.258823
 40
0.003
 41
0.003
  0
LWPOLYLINE
  5
25E
100
AcDbEntity
  8
0
 62
     0
100
AcDbPolyline
 90
        2
 70
     0
 39
0.003
 10
1.154067
 20
0.258823
 40
0.003
 41
0.003
 10
1.154067
 20
0.085535
 40
0.003
 41
0.003
  0
LWPOLYLINE
  5
25F
100
AcDbEntity
  8
0
 62
   254
100
AcDbPolyline
 90
        2
 70
     0
 39
0.003
 10
1.154067
 20
0.258823
 40
0.003
 41
0.003
 10
1.801697
 20
-0.134866
 40
0.003
 41
0.003
  0
LWPOLYLINE
  5
260
100
AcDbEntity
  8
0
 62
   254
100
AcDbPolyline
 90
        2
 70
     0
 39
0.003
 10
1.801697
 20
-0.134866
 40
0.003
 41
0.003
 10
2.230047
 20
-0.113232
 40
0.003
 41
0.003
  0
LWPOLYLINE
  5
261
100
AcDbEntity
  8
0
 62
   254
100
AcDbPolyline
 90
        2
 70
     0
 39
0.003
 10
2.230047
 20
-0.113232
 40
0.003
 41
0.003
 10
1.582417
 20
0.280457
 40
0.003
 41
0.003
  0
LWPOLYLINE
  5
262
100
AcDbEntity
  8
0
 62
   254
100
AcDbPolyline
 90
        2
 70
     0
 39
0.003
 10
1.582417
 20
0.280457
 40
0.003
 41
0.003
 10
1.154067
 20
0.258823
 40
0.003
 41
0.003
  0
LWPOLYLINE
  5
263
100
AcDbEntity
  8
0
 62
     0
100
AcDbPolyline
 90
        2
 70
     0
 39
0.003
 10
1.154067
 20
0.258823
 40
0.003
 41
0.003
 10
1.801697
 20
-0.134866
 40
0.003
 41
0.003
  0
LWPOLYLINE
  5
264
100
AcDbEntity
  8
0
 62
     0
100
AcDbPolyline
 90
        2
 70
     0
 39
0.003
 10
1.801697
 20
-0.134866
 40
0.003
 41
0.003
 10
2.230047
 20
-0.113232
 40
0.003
 41
0.003
  0
LWPOLYLINE
  5
265
100
AcDbEntity
  8
0
 62
     0
100
AcDbPolyline
 90
        2
 70
     0
 39
0.003
 10
2.230047
 20
-0.113232
 40
0.003
 41
0.003
 10
1.582417
 20
0.280457
 40
0.003
 41
0.003
  0
LWPOLYLINE
  5
266
100
AcDbEntity
  8
0
 62
     0
100
AcDbPolyline
 90
        2
 70
     0
 39
0.003
 10
1.582417
 20
0.280457
 40
0.003
 41
0.003
 10
1.154067
 20
0.258823
 40
0.003
 41
0.003
  0
LWPOLYLINE
  5
267
100
AcDbEntity
  8
0
 62
   254
100
AcDbPolyline
 90
        2
 70
     0
 39
0.003
 10
1.582417
 20
0.280457
 40
0.003
 41
0.003
 10
2.230047
 20
-0.113232
 40
0.003
 41
0.003
  0
LWPOLYLINE
  5
268
100
AcDbEntity
  8
0
 62
   254
100
AcDbPolyline
 90
        2
 70
     0
 39
0.003
 10
2.230047
 20
-0.113232
 40
0.003
 41
0.003
 10
2.227075
 20
-0.067248
 40
0.003
 41
0.003
  0
LWPOLYLINE
  5
269
100
AcDbEntity
  8
0
 62
   254
100
AcDbPolyline
 90
        2
 70
     0
 39
0.003
 10
2.227075
 20
-0.067248
 40
0.003
 41
0.003
 10
1.579445
 20
0.326441
 40
0.003
 41
0.003
  0
LWPOLYLINE
  5
26A
100
AcDbEntity
  8
0
 62
   254
100
AcDbPolyline
 90
        2
 70
     0
 39
0.003
 10
1.579445
 20
0.326441
 40
0.003
 41
0.003
 10
1.582417
 20
0.280457
 40
0.003
 41
0.003
  0
LWPOLYLINE
  5
26B
100
AcDbEntity
  8
0
 62
   254
100
AcDbPolyline
 90
        2
 70
     0
 39
0.003
 10
1.579445
 20
0.326441
 40
0.003
 41
0.003
 10
2.227075
 20
-0.067248
 40
0.003
 41
0.003
  0
LWPOLYLINE
  5
26C
100
AcDbEntity
  8
0
 62
   254
100
AcDbPolyline
 90
        2
 70
     0
 39
0.003
 10
2.227075
 20
-0.067248
 40
0.003
 41
0.003
 10
2.223028
 20
-0.022559
 40
0.003
 41
0.003
  0
LWPOLYLINE
  5
26D
100
AcDbEntity
  8
0
 62
   254
100
AcDbPolyline
 90
        2
 70
     0
 39
0.003
 10
2.223028
 20
-0.022559
 40
0.003
 41
0.003
 10
1.575398
 20
0.37113
 40
0.003
 41
0.003
  0
LWPOLYLINE
  5
26E
100
AcDbEntity
  8
0
 62
   254
100
AcDbPolyline
 90
        2
 70
     0
 39
0.003
 10
1.575398
 20
0.37113
 40
0.003
 41
0.003
 10
1.579445
 20
0.326441
 40
0.003
 41
0.003
  0
LWPOLYLINE
  5
26F
100
AcDbEntity
  8
0
 62
   254
100
AcDbPolyline
 90
        2
 70
     0
 39
0.003
 10
1.575398
 20
0.37113
 40
0.003
 41
0.003
 10
2.223028
 20
-0.022559
 40
0.003
 41
0.003
  0
LWPOLYLINE
  5
270
100
AcDbEntity
  8
0
 62
   254
100
AcDbPolyline
 90
        2
 70
     0
 39
0.003
 10
2.223028
 20
-0.022559
 40
0.003
 41
0.003
 10
2.217839
 20
0.020835
 40
0.003
 41
0.003
  0
LWPOLYLINE
  5
271
100
AcDbEntity
  8
0
 62
   254
100
AcDbPolyline
 90
        2
 70
     0
 39
0.003
 10
2.217839
 20
0.020835
 40
0.003
 41
0.003
 10
1.570209
 20
0.414524
 40
0.003
 41
0.003
  0
LWPOLYLINE
  5
272
100
AcDbEntity
  8
0
 62
   254
100
AcDbPolyline
 90
        2
 70
     0
 39
0.003
 10
1.570209
 20
0.414524
 40
0.003
 41
0.003
 10
1.575398
 20
0.37113
 40
0.003
 41
0.003
  0
LWPOLYLINE
  5
273
100
AcDbEntity
  8
0
 62
   254
100
AcDbPolyline
 90
        2
 70
     0
 39
0.003
 10
1.570209
 20
0.414524
 40
0.003
 41
0.003
 10
2.217839
 20
0.020835
 40
0.003
 41
0.003
  0
LWPOLYLINE
  5
274
100
AcDbEntity
  8
0
 62
   254
100
AcDbPolyline
 90
        2
 70
     0
 39
0.003
 10
2.217839
 20
0.020835
 40
0.003
 41
0.003
 10
2.211472
 20
0.062953
 40
0.003
 41
0.003
  0
LWPOLYLINE
  5
275
100
AcDbEntity
  8
0
 62
   254
100
AcDbPolyline
 90
        2
 70
     0
 39
0.003
 10
2.211472
 20
0.062953
 40
0.003
 41
0.003
 10
1.563843
 20
0.456642
 40
0.003
 41
0.003
  0
LWPOLYLINE
  5
276
100
AcDbEntity
  8
0
 62
   254
100
AcDbPolyline
 90
        2
 70
     0
 39
0.003
 10
1.563843
 20
0.456642
 40
0.003
 41
0.003
 10
1.570209
 20
0.414524
 40
0.003
 41
0.003
  0
LWPOLYLINE
  5
277
100
AcDbEntity
  8
0
 62
   254
100
AcDbPolyline
 90
        2
 70
     0
 39
0.003
 10
1.563843
 20
0.456642
 40
0.003
 41
0.003
 10
2.211472
 20
0.062953
 40
0.003
 41
0.003
  0
LWPOLYLINE
  5
278
100
AcDbEntity
  8
0
 62
   254
100
AcDbPolyline
 90
        2
 70
     0
 39
0.003
 10
2.211472
 20
0.062953
 40
0.003
 41
0.003
 10
2.203866
 20
0.103799
 40
0.003
 41
0.003
  0
LWPOLYLINE
  5
279
100
AcDbEntity
  8
0
 62
   254
100
AcDbPolyline
 90
        2
 70
     0
 39
0.003
 10
2.203866
 20
0.103799
 40
0.003
 41
0.003
 10
1.556236
 20
0.497488
 40
0.003
 41
0.003
  0
LWPOLYLINE
  5
27A
100
AcDbEntity
  8
0
 62
   254
100
AcDbPolyline
 90
        2
 70
     0
 39
0.003
 10
1.556236
 20
0.497488
 40
0.003
 41
0.003
 10
1.563843
 20
0.456642
 40
0.003
 41
0.003
  0
LWPOLYLINE
  5
27B
100
AcDbEntity
  8
0
 62
   254
100
AcDbPolyline
 90
        2
 70
     0
 39
0.003
 10
1.556236
 20
0.497488
 40
0.003
 41
0.003
 10
2.203866
 20
0.103799
 40
0.003
 41
0.003
  0
LWPOLYLINE
  5
27C
100
AcDbEntity
  8
0
 62
   254
100
AcDbPolyline
 90
        2
 70
     0
 39
0.003
 10
2.203866
 20
0.103799
 40
0.003
 41
0.003
 10
2.194984
 20
0.143406
 40
0.003
 41
0.003
  0
LWPOLYLINE
  5
27D
100
AcDbEntity
  8
0
 62
   254
100
AcDbPolyline
 90
        2
 70
     0
 39
0.003
 10
2.194984
 20
0.143406
 40
0.003
 41
0.003
 10
1.547354
 20
0.537094
 40
0.003
 41
0.003
  0
LWPOLYLINE
  5
27E
100
AcDbEntity
  8
0
 62
   254
100
AcDbPolyline
 90
        2
 70
     0
 39
0.003
 10
1.547354
 20
0.537094
 40
0.003
 41
0.003
 10
1.556236
 20
0.497488
 40
0.003
 41
0.003
  0
LWPOLYLINE
  5
27F
100
AcDbEntity
  8
0
 62
   254
100
AcDbPolyline
 90
        2
 70
     0
 39
0.003
 10
1.547354
 20
0.537094
 40
0.003
 41
0.003
 10
2.194984
 20
0.143406
 40
0.003
 41
0.003
  0
LWPOLYLINE
  5
280
100
AcDbEntity
  8
0
 62
   254
100
AcDbPolyline
 90
        2
 70
     0
 39
0.003
 10
2.194984
 20
0.143406
 40
0.003
 41
0.003
 10
2.184772
 20
0.181768
 40
0.003
 41
0.003
  0
LWPOLYLINE
  5
281
100
AcDbEntity
  8
0
 62
   254
100
AcDbPolyline
 90
        2
 70
     0
 39
0.003
 10
2.184772
 20
0.181768
 40
0.003
 41
0.003
 10
1.537142
 20
0.575457
 40
0.003
 41
0.003
  0
LWPOLYLINE
  5
282
100
AcDbEntity
  8
0
 62
   254
100
AcDbPolyline
 90
        2
 70
     0
 39
0.003
 10
1.537142
 20
0.575457
 40
0.003
 41
0.003
 10
1.547354
 20
0.537094
 40
0.003
 41
0.003
  0
LWPOLYLINE
  5
283
100
AcDbEntity
  8
0
 62
   254
100
AcDbPolyline
 90
        2
 70
     0
 39
0.003
 10
1.537142
 20
0.575457
 40
0.003
 41
0.003
 10
2.184772
 20
0.181768
 40
0.003
 41
0.003
  0
LWPOLYLINE
  5
284
100
AcDbEntity
  8
0
 62
   254
100
AcDbPolyline
 90
        2
 70
     0
 39
0.003
 10
2.184772
 20
0.181768
 40
0.003
 41
0.003
 10
2.173185
 20
0.218909
 40
0.003
 41
0.003
  0
LWPOLYLINE
  5
285
100
AcDbEntity
  8
0
 62
   254
100
AcDbPolyline
 90
        2
 70
     0
 39
0.003
 10
2.173185
 20
0.218909
 40
0.003
 41
0.003
 10
1.525555
 20
0.612598
 40
0.003
 41
0.003
  0
LWPOLYLINE
  5
286
100
AcDbEntity
  8
0
 62
   254
100
AcDbPolyline
 90
        2
 70
     0
 39
0.003
 10
1.525555
 20
0.612598
 40
0.003
 41
0.003
 10
1.537142
 20
0.575457
 40
0.003
 41
0.003
  0
LWPOLYLINE
  5
287
100
AcDbEntity
  8
0
 62
   254
100
AcDbPolyline
 90
        2
 70
     0
 39
0.003
 10
1.525555
 20
0.612598
 40
0.003
 41
0.003
 10
2.173185
 20
0.218909
 40
0.003
 41
0.003
  0
LWPOLYLINE
  5
288
100
AcDbEntity
  8
0
 62
   254
100
AcDbPolyline
 90
        2
 70
     0
 39
0.003
 10
2.173185
 20
0.218909
 40
0.003
 41
0.003
 10
2.160165
 20
0.254835
 40
0.003
 41
0.003
  0
LWPOLYLINE
  5
289
100
AcDbEntity
  8
0
 62
   254
100
AcDbPolyline
 90
        2
 70
     0
 39
0.003
 10
2.160165
 20
0.254835
 40
0.003
 41
0.003
 10
1.512535
 20
0.648524
 40
0.003
 41
0.003
  0
LWPOLYLINE
  5
28A
100
AcDbEntity
  8
0
 62
   254
100
AcDbPolyline
 90
        2
 70
     0
 39
0.003
 10
1.512535
 20
0.648524
 40
0.003
 41
0.003
 10
1.525555
 20
0.612598
 40
0.003
 41
0.003
  0
LWPOLYLINE
  5
28B
100
AcDbEntity
  8
0
 62
   254
100
AcDbPolyline
 90
        2
 70
     0
 39
0.003
 10
1.512535
 20
0.648524
 40
0.003
 41
0.003
 10
2.160165
 20
0.254835
 40
0.003
 41
0.003
  0
LWPOLYLINE
  5
28C
100
AcDbEntity
  8
0
 62
   254
100
AcDbPolyline
 90
        2
 70
     0
 39
0.003
 10
2.160165
 20
0.254835
 40
0.003
 41
0.003
 10
2.145673
 20
0.289567
 40
0.003
 41
0.003
  0
LWPOLYLINE
  5
28D
100
AcDbEntity
  8
0
 62
   254
100
AcDbPolyline
 90
        2
 70
     0
 39
0.003
 10
2.145673
 20
0.289567
 40
0.003
 41
0.003
 10
1.498043
 20
0.683256
 40
0.003
 41
0.003
  0
LWPOLYLINE
  5
28E
100
AcDbEntity
  8
0
 62
   254
100
AcDbPolyline
 90
        2
 70
     0
 39
0.003
 10
1.498043
 20
0.683256
 40
0.003
 41
0.003
 10
1.512535
 20
0.648524
 40
0.003
 41
0.003
  0
LWPOLYLINE
  5
28F
100
AcDbEntity
  8
0
 62
   254
100
AcDbPolyline
 90
        2
 70
     0
 39
0.003
 10
1.498043
 20
0.683256
 40
0.003
 41
0.003
 10
2.145673
 20
0.289567
 40
0.003
 41
0.003
  0
LWPOLYLINE
  5
290
100
AcDbEntity
  8
0
 62
   254
100
AcDbPolyline
 90
        2
 70
     0
 39
0.003
 10
2.145673
 20
0.289567
 40
0.003
 41
0.003
 10
2.129657
 20
0.323114
 40
0.003
 41
0.003
  0
LWPOLYLINE
  5
291
100
AcDbEntity
  8
0
 62
   254
100
AcDbPolyline
 90
        2
 70
     0
 39
0.003
 10
2.129657
 20
0.323114
 40
0.003
 41
0.003
 10
1.482028
 20
0.716803
 40
0.003
 41
0.003
  0
LWPOLYLINE
  5
292
100
AcDbEntity
  8
0
 62
   254
100
AcDbPolyline
 90
        2
 70
     0
 39
0.003
 10
1.482028
 20
0.716803
 40
0.003
 41
0.003
 10
1.498043
 20
0.683256
 40
0.003
 41
0.003
  0
LWPOLYLINE
  5
293
100
AcDbEntity
  8
0
 62
   254
100
AcDbPolyline
 90
        2
 70
     0
 39
0.003
 10
1.482028
 20
0.716803
 40
0.003
 41
0.003
 10
2.129657
 20
0.323114
 40
0.003
 41
0.003
  0
LWPOLYLINE
  5
294
100
AcDbEntity
  8
0
 62
   254
100
AcDbPolyline
 90
        2
 70
     0
 39
0.003
 10
2.129657
 20
0.323114
 40
0.003
 41
0.003
 10
2.112079
 20
0.355496
 40
0.003
 41
0.003
  0
LWPOLYLINE
  5
295
100
AcDbEntity
  8
0
 62
   254
100
AcDbPolyline
 90
        2
 70
     0
 39
0.003
 10
2.112079
 20
0.355496
 40
0.003
 41
0.003
 10
1.464449
 20
0.749185
 40
0.003
 41
0.003
  0
LWPOLYLINE
  5
296
100
AcDbEntity
  8
0
 62
   254
100
AcDbPolyline
 90
        2
 70
     0
 39
0.003
 10
1.464449
 20
0.749185
 40
0.003
 41
0.003
 10
1.482028
 20
0.716803
 40
0.003
 41
0.003
  0
LWPOLYLINE
  5
297
100
AcDbEntity
  8
0
 62
   254
100
AcDbPolyline
 90
        2
 70
     0
 39
0.003
 10
1.464449
 20
0.749185
 40
0.003
 41
0.003
 10
2.112079
 20
0.355496
 40
0.003
 41
0.003
  0
LWPOLYLINE
  5
298
100
AcDbEntity
  8
0
 62
   254
100
AcDbPolyline
 90
        2
 70
     0
 39
0.003
 10
2.112079
 20
0.355496
 40
0.003
 41
0.003
 10
2.09287
 20
0.386713
 40
0.003
 41
0.003
  0
LWPOLYLINE
  5
299
100
AcDbEntity
  8
0
 62
   254
100
AcDbPolyline
 90
        2
 70
     0
 39
0.003
 10
2.09287
 20
0.386713
 40
0.003
 41
0.003
 10
1.44524
 20
0.780402
 40
0.003
 41
0.003
  0
LWPOLYLINE
  5
29A
100
AcDbEntity
  8
0
 62
   254
100
AcDbPolyline
 90
        2
 70
     0
 39
0.003
 10
1.44524
 20
0.780402
 40
0.003
 41
0.003
 10
1.464449
 20
0.749185
 40
0.003
 41
0.003
  0
LWPOLYLINE
  5
29B
100
AcDbEntity
  8
0
 62
   254
100
AcDbPolyline
 90
        2
 70
     0
 39
0.003
 10
1.44524
 20
0.780402
 40
0.003
 41
0.003
 10
2.09287
 20
0.386713
 40
0.003
 41
0.003
  0
LWPOLYLINE
  5
29C
100
AcDbEntity
  8
0
 62
   254
100
AcDbPolyline
 90
        2
 70
     0
 39
0.003
 10
2.09287
 20
0.386713
 40
0.003
 41
0.003
 10
2.072
 20
0.416795
 40
0.003
 41
0.003
  0
LWPOLYLINE
  5
29D
100
AcDbEntity
  8
0
 62
   254
100
AcDbPolyline
 90
        2
 70
     0
 39
0.003
 10
2.072
 20
0.416795
 40
0.003
 41
0.003
 10
1.42437
 20
0.810484
 40
0.003
 41
0.003
  0
LWPOLYLINE
  5
29E
100
AcDbEntity
  8
0
 62
   254
100
AcDbPolyline
 90
        2
 70
     0
 39
0.003
 10
1.42437
 20
0.810484
 40
0.003
 41
0.003
 10
1.44524
 20
0.780402
 40
0.003
 41
0.003
  0
LWPOLYLINE
  5
29F
100
AcDbEntity
  8
0
 62
     9
100
AcDbPolyline
 90
        2
 70
     0
 39
0.003
 10
1.42437
 20
0.810484
 40
0.003
 41
0.003
 10
2.072
 20
0.416795
 40
0.003
 41
0.003
  0
LWPOLYLINE
  5
2A0
100
AcDbEntity
  8
0
 62
     9
100
AcDbPolyline
 90
        2
 70
     0
 39
0.003
 10
2.072
 20
0.416795
 40
0.003
 41
0.003
 10
2.049409
 20
0.445744
 40
0.003
 41
0.003
  0
LWPOLYLINE
  5
2A1
100
AcDbEntity
  8
0
 62
     9
100
AcDbPolyline
 90
        2
 70
     0
 39
0.003
 10
2.049409
 20
0.445744
 40
0.003
 41
0.003
 10
1.40178
 20
0.839433
 40
0.003
 41
0.003
  0
LWPOLYLINE
  5
2A2
100
AcDbEntity
  8
0
 62
     9
100
AcDbPolyline
 90
        2
 70
     0
 39
0.003
 10
1.40178
 20
0.839433
 40
0.003
 41
0.003
 10
1.42437
 20
0.810484
 40
0.003
 41
0.003
  0
LWPOLYLINE
  5
2A3
100
AcDbEntity
  8
0
 62
     9
100
AcDbPolyline
 90
        2
 70
     0
 39
0.003
 10
1.40178
 20
0.839433
 40
0.003
 41
0.003
 10
2.049409
 20
0.445744
 40
0.003
 41
0.003
  0
LWPOLYLINE
  5
2A4
100
AcDbEntity
  8
0
 62
     9
100
AcDbPolyline
 90
        2
 70
     0
 39
0.003
 10
2.049409
 20
0.445744
 40
0.003
 41
0.003
 10
2.025063
 20
0.473583
 40
0.003
 41
0.003
  0
LWPOLYLINE
  5
2A5
100
AcDbEntity
  8
0
 62
     9
100
AcDbPolyline
 90
        2
 70
     0
 39
0.003
 10
2.025063
 20
0.473583
 40
0.003
 41
0.003
 10
1.377433
 20
0.867272
 40
0.003
 41
0.003
  0
LWPOLYLINE
  5
2A6
100
AcDbEntity
  8
0
 62
     9
100
AcDbPolyline
 90
        2
 70
     0
 39
0.003
 10
1.377433
 20
0.867272
 40
0.003
 41
0.003
 10
1.40178
 20
0.839433
 40
0.003
 41
0.003
  0
LWPOLYLINE
  5
2A7
100
AcDbEntity
  8
0
 62
     9
100
AcDbPolyline
 90
        2
 70
     0
 39
0.003
 10
1.377433
 20
0.867272
 40
0.003
 41
0.003
 10
2.025063
 20
0.473583
 40
0.003
 41
0.003
  0
LWPOLYLINE
  5
2A8
100
AcDbEntity
  8
0
 62
     9
100
AcDbPolyline
 90
        2
 70
     0
 39
0.003
 10
2.025063
 20
0.473583
 40
0.003
 41
0.003
 10
1.998894
 20
0.500307
 40
0.003
 41
0.003
  0
LWPOLYLINE
  5
2A9
100
AcDbEntity
  8
0
 62
     9
100
AcDbPolyline
 90
        2
 70
     0
 39
0.003
 10
1.998894
 20
0.500307
 40
0.003
 41
0.003
 10
1.351264
 20
0.893996
 40
0.003
 41
0.003
  0
LWPOLYLINE
  5
2AA
100
AcDbEntity
  8
0
 62
     9
100
AcDbPolyline
 90
        2
 70
     0
 39
0.003
 10
1.351264
 20
0.893996
 40
0.003
 41
0.003
 10
1.377433
 20
0.867272
 40
0.003
 41
0.003
  0
LWPOLYLINE
  5
2AB
100
AcDbEntity
  8
0
 62
   253
100
AcDbPolyline
 90
        2
 70
     0
 39
0.003
 10
1.351264
 20
0.893996
 40
0.003
 41
0.003
 10
1.998894
 20
0.500307
 40
0.003
 41
0.003
  0
LWPOLYLINE
  5
2AC
100
AcDbEntity
  8
0
 62
   253
100
AcDbPolyline
 90
        2
 70
     0
 39
0.003
 10
1.998894
 20
0.500307
 40
0.003
 41
0.003
 10
1.970866
 20
0.525949
 40
0.003
 41
0.003
  0
LWPOLYLINE
  5
2AD
100
AcDbEntity
  8
0
 62
   253
100
AcDbPolyline
 90
        2
 70
     0
 39
0.003
 10
1.970866
 20
0.525949
 40
0.003
 41
0.003
 10
1.323236
 20
0.919638
 40
0.003
 41
0.003
  0
LWPOLYLINE
  5
2AE
100
AcDbEntity
  8
0
 62
   253
100
AcDbPolyline
 90
        2
 70
     0
 39
0.003
 10
1.323236
 20
0.919638
 40
0.003
 41
0.003
 10
1.351264
 20
0.893996
 40
0.003
 41
0.003
  0
LWPOLYLINE
  5
2AF
100
AcDbEntity
  8
0
 62
   253
100
AcDbPolyline
 90
        2
 70
     0
 39
0.003
 10
1.323236
 20
0.919638
 40
0.003
 41
0.003
 10
1.970866
 20
0.525949
 40
0.003
 41
0.003
  0
LWPOLYLINE
  5
2B0
100
AcDbEntity
  8
0
 62
   253
100
AcDbPolyline
 90
        2
 70
     0
 39
0.003
 10
1.970866
 20
0.525949
 40
0.003
 41
0.003
 10
1.940929
 20
0.550508
 40
0.003
 41
0.003
  0
LWPOLYLINE
  5
2B1
100
AcDbEntity
  8
0
 62
   253
100
AcDbPolyline
 90
        2
 70
     0
 39
0.003
 10
1.940929
 20
0.550508
 40
0.003
 41
0.003
 10
1.293299
 20
0.944197
 40
0.003
 41
0.003
  0
LWPOLYLINE
  5
2B2
100
AcDbEntity
  8
0
 62
   253
100
AcDbPolyline
 90
        2
 70
     0
 39
0.003
 10
1.293299
 20
0.944197
 40
0.003
 41
0.003
 10
1.323236
 20
0.919638
 40
0.003
 41
0.003
  0
LWPOLYLINE
  5
2B3
100
AcDbEntity
  8
0
 62
   252
100
AcDbPolyline
 90
        2
 70
     0
 39
0.003
 10
1.293299
 20
0.944197
 40
0.003
 41
0.003
 10
1.940929
 20
0.550508
 40
0.003
 41
0.003
  0
LWPOLYLINE
  5
2B4
100
AcDbEntity
  8
0
 62
   252
100
AcDbPolyline
 90
        2
 70
     0
 39
0.003
 10
1.940929
 20
0.550508
 40
0.003
 41
0.003
 10
1.909039
 20
0.574016
 40
0.003
 41
0.003
  0
LWPOLYLINE
  5
2B5
100
AcDbEntity
  8
0
 62
   252
100
AcDbPolyline
 90
        2
 70
     0
 39
0.003
 10
1.909039
 20
0.574016
 40
0.003
 41
0.003
 10
1.261409
 20
0.967705
 40
0.003
 41
0.003
  0
LWPOLYLINE
  5
2B6
100
AcDbEntity
  8
0
 62
   252
100
AcDbPolyline
 90
        2
 70
     0
 39
0.003
 10
1.261409
 20
0.967705
 40
0.003
 41
0.003
 10
1.293299
 20
0.944197
 40
0.003
 41
0.003
  0
LWPOLYLINE
  5
2B7
100
AcDbEntity
  8
0
 62
     0
100
AcDbPolyline
 90
        2
 70
     0
 39
0.003
 10
1.582417
 20
0.280457
 40
0.003
 41
0.003
 10
2.230047
 20
-0.113232
 40
0.003
 41
0.003
  0
LWPOLYLINE
  5
2B8
100
AcDbEntity
  8
0
 62
     0
100
AcDbPolyline
 90
        2
 70
     0
 39
0.003
 10
2.230047
 20
-0.113232
 40
0.003
 41
0.003
 10
2.227075
 20
-0.067248
 40
0.003
 41
0.003
  0
LWPOLYLINE
  5
2B9
100
AcDbEntity
  8
0
 62
     0
100
AcDbPolyline
 90
        2
 70
     0
 39
0.003
 10
2.227075
 20
-0.067248
 40
0.003
 41
0.003
 10
2.223028
 20
-0.022559
 40
0.003
 41
0.003
  0
LWPOLYLINE
  5
2BA
100
AcDbEntity
  8
0
 62
     0
100
AcDbPolyline
 90
        2
 70
     0
 39
0.003
 10
2.223028
 20
-0.022559
 40
0.003
 41
0.003
 10
2.217839
 20
0.020835
 40
0.003
 41
0.003
  0
LWPOLYLINE
  5
2BB
100
AcDbEntity
  8
0
 62
     0
100
AcDbPolyline
 90
        2
 70
     0
 39
0.003
 10
2.217839
 20
0.020835
 40
0.003
 41
0.003
 10
2.211472
 20
0.062953
 40
0.003
 41
0.003
  0
LWPOLYLINE
  5
2BC
100
AcDbEntity
  8
0
 62
     0
100
AcDbPolyline
 90
        2
 70
     0
 39
0.003
 10
2.211472
 20
0.062953
 40
0.003
 41
0.003
 10
2.203866
 20
0.103799
 40
0.003
 41
0.003
  0
LWPOLYLINE
  5
2BD
100
AcDbEntity
  8
0
 62
     0
100
AcDbPolyline
 90
        2
 70
     0
 39
0.003
 10
2.203866
 20
0.103799
 40
0.003
 41
0.003
 10
2.194984
 20
0.143406
 40
0.003
 41
0.003
  0
LWPOLYLINE
  5
2BE
100
AcDbEntity
  8
0
 62
     0
100
AcDbPolyline
 90
        2
 70
     0
 39
0.003
 10
2.194984
 20
0.143406
 40
0.003
 41
0.003
 10
2.184772
 20
0.181768
 40
0.003
 41
0.003
  0
LWPOLYLINE
  5
2BF
100
AcDbEntity
  8
0
 62
     0
100
AcDbPolyline
 90
        2
 70
     0
 39
0.003
 10
2.184772
 20
0.181768
 40
0.003
 41
0.003
 10
2.173185
 20
0.218909
 40
0.003
 41
0.003
  0
LWPOLYLINE
  5
2C0
100
AcDbEntity
  8
0
 62
     0
100
AcDbPolyline
 90
        2
 70
     0
 39
0.003
 10
2.173185
 20
0.218909
 40
0.003
 41
0.003
 10
2.160165
 20
0.254835
 40
0.003
 41
0.003
  0
LWPOLYLINE
  5
2C1
100
AcDbEntity
  8
0
 62
     0
100
AcDbPolyline
 90
        2
 70
     0
 39
0.003
 10
2.160165
 20
0.254835
 40
0.003
 41
0.003
 10
2.145673
 20
0.289567
 40
0.003
 41
0.003
  0
LWPOLYLINE
  5
2C2
100
AcDbEntity
  8
0
 62
     0
100
AcDbPolyline
 90
        2
 70
     0
 39
0.003
 10
2.145673
 20
0.289567
 40
0.003
 41
0.003
 10
2.129657
 20
0.323114
 40
0.003
 41
0.003
  0
LWPOLYLINE
  5
2C3
100
AcDbEntity
  8
0
 62
     0
100
AcDbPolyline
 90
        2
 70
     0
 39
0.003
 10
2.129657
 20
0.323114
 40
0.003
 41
0.003
 10
2.112079
 20
0.355496
 40
0.003
 41
0.003
  0
LWPOLYLINE
  5
2C4
100
AcDbEntity
  8
0
 62
     0
100
AcDbPolyline
 90
        2
 70
     0
 39
0.003
 10
2.112079
 20
0.355496
 40
0.003
 41
0.003
 10
2.09287
 20
0.386713
 40
0.003
 41
0.003
  0
LWPOLYLINE
  5
2C5
100
AcDbEntity
  8
0
 62
     0
100
AcDbPolyline
 90
        2
 70
     0
 39
0.003
 10
2.09287
 20
0.386713
 40
0.003
 41
0.003
 10
2.072
 20
0.416795
 40
0.003
 41
0.003
  0
LWPOLYLINE
  5
2C6
100
AcDbEntity
  8
0
 62
     0
100
AcDbPolyline
 90
        2
 70
     0
 39
0.003
 10
2.072
 20
0.416795
 40
0.003
 41
0.003
 10
2.049409
 20
0.445744
 40
0.003
 41
0.003
  0
LWPOLYLINE
  5
2C7
100
AcDbEntity
  8
0
 62
     0
100
AcDbPolyline
 90
        2
 70
     0
 39
0.003
 10
2.049409
 20
0.445744
 40
0.003
 41
0.003
 10
2.025063
 20
0.473583
 40
0.003
 41
0.003
  0
LWPOLYLINE
  5
2C8
100
AcDbEntity
  8
0
 62
     0
100
AcDbPolyline
 90
        2
 70
     0
 39
0.003
 10
2.025063
 20
0.473583
 40
0.003
 41
0.003
 10
1.998894
 20
0.500307
 40
0.003
 41
0.003
  0
LWPOLYLINE
  5
2C9
100
AcDbEntity
  8
0
 62
     0
100
AcDbPolyline
 90
        2
 70
     0
 39
0.003
 10
1.998894
 20
0.500307
 40
0.003
 41
0.003
 10
1.970866
 20
0.525949
 40
0.003
 41
0.003
  0
LWPOLYLINE
  5
2CA
100
AcDbEntity
  8
0
 62
     0
100
AcDbPolyline
 90
        2
 70
     0
 39
0.003
 10
1.970866
 20
0.525949
 40
0.003
 41
0.003
 10
1.940929
 20
0.550508
 40
0.003
 41
0.003
  0
LWPOLYLINE
  5
2CB
100
AcDbEntity
  8
0
 62
     0
100
AcDbPolyline
 90
        2
 70
     0
 39
0.003
 10
1.940929
 20
0.550508
 40
0.003
 41
0.003
 10
1.909039
 20
0.574016
 40
0.003
 41
0.003
  0
LWPOLYLINE
  5
2CC
100
AcDbEntity
  8
0
 62
     0
100
AcDbPolyline
 90
        2
 70
     0
 39
0.003
 10
1.909039
 20
0.574016
 40
0.003
 41
0.003
 10
1.261409
 20
0.967705
 40
0.003
 41
0.003
  0
LWPOLYLINE
  5
2CD
100
AcDbEntity
  8
0
 62
     0
100
AcDbPolyline
 90
        2
 70
     0
 39
0.003
 10
1.261409
 20
0.967705
 40
0.003
 41
0.003
 10
1.293299
 20
0.944197
 40
0.003
 41
0.003
  0
LWPOLYLINE
  5
2CE
100
AcDbEntity
  8
0
 62
     0
100
AcDbPolyline
 90
        2
 70
     0
 39
0.003
 10
1.293299
 20
0.944197
 40
0.003
 41
0.003
 10
1.323236
 20
0.919638
 40
0.003
 41
0.003
  0
LWPOLYLINE
  5
2CF
100
AcDbEntity
  8
0
 62
     0
100
AcDbPolyline
 90
        2
 70
     0
 39
0.003
 10
1.323236
 20
0.919638
 40
0.003
 41
0.003
 10
1.351264
 20
0.893996
 40
0.003
 41
0.003
  0
LWPOLYLINE
  5
2D0
100
AcDbEntity
  8
0
 62
     0
100
AcDbPolyline
 90
        2
 70
     0
 39
0.003
 10
1.351264
 20
0.893996
 40
0.003
 41
0.003
 10
1.377433
 20
0.867272
 40
0.003
 41
0.003
  0
LWPOLYLINE
  5
2D1
100
AcDbEntity
  8
0
 62
     0
100
AcDbPolyline
 90
        2
 70
     0
 39
0.003
 10
1.377433
 20
0.867272
 40
0.003
 41
0.003
 10
1.40178
 20
0.839433
 40
0.003
 41
0.003
  0
LWPOLYLINE
  5
2D2
100
AcDbEntity
  8
0
 62
     0
100
AcDbPolyline
 90
        2
 70
     0
 39
0.003
 10
1.40178
 20
0.839433
 40
0.003
 41
0.003
 10
1.42437
 20
0.810484
 40
0.003
 41
0.003
  0
LWPOLYLINE
  5
2D3
100
AcDbEntity
  8
0
 62
     0
100
AcDbPolyline
 90
        2
 70
     0
 39
0.003
 10
1.42437
 20
0.810484
 40
0.003
 41
0.003
 10
1.44524
 20
0.780402
 40
0.003
 41
0.003
  0
LWPOLYLINE
  5
2D4
100
AcDbEntity
  8
0
 62
     0
100
AcDbPolyline
 90
        2
 70
     0
 39
0.003
 10
1.44524
 20
0.780402
 40
0.003
 41
0.003
 10
1.464449
 20
0.749185
 40
0.003
 41
0.003
  0
LWPOLYLINE
  5
2D5
100
AcDbEntity
  8
0
 62
     0
100
AcDbPolyline
 90
        2
 70
     0
 39
0.003
 10
1.464449
 20
0.749185
 40
0.003
 41
0.003
 10
1.482028
 20
0.716803
 40
0.003
 41
0.003
  0
LWPOLYLINE
  5
2D6
100
AcDbEntity
  8
0
 62
     0
100
AcDbPolyline
 90
        2
 70
     0
 39
0.003
 10
1.482028
 20
0.716803
 40
0.003
 41
0.003
 10
1.498043
 20
0.683256
 40
0.003
 41
0.003
  0
LWPOLYLINE
  5
2D7
100
AcDbEntity
  8
0
 62
     0
100
AcDbPolyline
 90
        2
 70
     0
 39
0.003
 10
1.498043
 20
0.683256
 40
0.003
 41
0.003
 10
1.512535
 20
0.648524
 40
0.003
 41
0.003
  0
LWPOLYLINE
  5
2D8
100
AcDbEntity
  8
0
 62
     0
100
AcDbPolyline
 90
        2
 70
     0
 39
0.003
 10
1.512535
 20
0.648524
 40
0.003
 41
0.003
 10
1.525555
 20
0.612598
 40
0.003
 41
0.003
  0
LWPOLYLINE
  5
2D9
100
AcDbEntity
  8
0
 62
     0
100
AcDbPolyline
 90
        2
 70
     0
 39
0.003
 10
1.525555
 20
0.612598
 40
0.003
 41
0.003
 10
1.537142
 20
0.575457
 40
0.003
 41
0.003
  0
LWPOLYLINE
  5
2DA
100
AcDbEntity
  8
0
 62
     0
100
AcDbPolyline
 90
        2
 70
     0
 39
0.003
 10
1.537142
 20
0.575457
 40
0.003
 41
0.003
 10
1.547354
 20
0.537094
 40
0.003
 41
0.003
  0
LWPOLYLINE
  5
2DB
100
AcDbEntity
  8
0
 62
     0
100
AcDbPolyline
 90
        2
 70
     0
 39
0.003
 10
1.547354
 20
0.537094
 40
0.003
 41
0.003
 10
1.556236
 20
0.497488
 40
0.003
 41
0.003
  0
LWPOLYLINE
  5
2DC
100
AcDbEntity
  8
0
 62
     0
100
AcDbPolyline
 90
        2
 70
     0
 39
0.003
 10
1.556236
 20
0.497488
 40
0.003
 41
0.003
 10
1.563843
 20
0.456642
 40
0.003
 41
0.003
  0
LWPOLYLINE
  5
2DD
100
AcDbEntity
  8
0
 62
     0
100
AcDbPolyline
 90
        2
 70
     0
 39
0.003
 10
1.563843
 20
0.456642
 40
0.003
 41
0.003
 10
1.570209
 20
0.414524
 40
0.003
 41
0.003
  0
LWPOLYLINE
  5
2DE
100
AcDbEntity
  8
0
 62
     0
100
AcDbPolyline
 90
        2
 70
     0
 39
0.003
 10
1.570209
 20
0.414524
 40
0.003
 41
0.003
 10
1.575398
 20
0.37113
 40
0.003
 41
0.003
  0
LWPOLYLINE
  5
2DF
100
AcDbEntity
  8
0
 62
     0
100
AcDbPolyline
 90
        2
 70
     0
 39
0.003
 10
1.575398
 20
0.37113
 40
0.003
 41
0.003
 10
1.579445
 20
0.326441
 40
0.003
 41
0.003
  0
LWPOLYLINE
  5
2E0
100
AcDbEntity
  8
0
 62
     0
100
AcDbPolyline
 90
        2
 70
     0
 39
0.003
 10
1.579445
 20
0.326441
 40
0.003
 41
0.003
 10
1.582417
 20
0.280457
 40
0.003
 41
0.003
  0
LWPOLYLINE
  5
2E1
100
AcDbEntity
  8
0
 62
   254
100
AcDbPolyline
 90
        2
 70
     0
 39
0.003
 10
0.708409
 20
1.171772
 40
0.003
 41
0.003
 10
1.356039
 20
0.778083
 40
0.003
 41
0.003
  0
LWPOLYLINE
  5
2E2
100
AcDbEntity
  8
0
 62
   254
100
AcDbPolyline
 90
        2
 70
     0
 39
0.003
 10
1.356039
 20
0.778083
 40
0.003
 41
0.003
 10
1.343165
 20
0.838657
 40
0.003
 41
0.003
  0
LWPOLYLINE
  5
2E3
100
AcDbEntity
  8
0
 62
   254
100
AcDbPolyline
 90
        2
 70
     0
 39
0.003
 10
1.343165
 20
0.838657
 40
0.003
 41
0.003
 10
0.695535
 20
1.232346
 40
0.003
 41
0.003
  0
LWPOLYLINE
  5
2E4
100
AcDbEntity
  8
0
 62
   254
100
AcDbPolyline
 90
        2
 70
     0
 39
0.003
 10
0.695535
 20
1.232346
 40
0.003
 41
0.003
 10
0.708409
 20
1.171772
 40
0.003
 41
0.003
  0
LWPOLYLINE
  5
2E5
100
AcDbEntity
  8
0
 62
     0
100
AcDbPolyline
 90
        2
 70
     0
 39
0.003
 10
0.708409
 20
1.171772
 40
0.003
 41
0.003
 10
1.356039
 20
0.778083
 40
0.003
 41
0.003
  0
LWPOLYLINE
  5
2E6
100
AcDbEntity
  8
0
 62
     0
100
AcDbPolyline
 90
        2
 70
     0
 39
0.003
 10
1.356039
 20
0.778083
 40
0.003
 41
0.003
 10
1.343165
 20
0.838657
 40
0.003
 41
0.003
  0
LWPOLYLINE
  5
2E7
100
AcDbEntity
  8
0
 62
     0
100
AcDbPolyline
 90
        2
 70
     0
 39
0.003
 10
1.343165
 20
0.838657
 40
0.003
 41
0.003
 10
0.695535
 20
1.232346
 40
0.003
 41
0.003
  0
LWPOLYLINE
  5
2E8
100
AcDbEntity
  8
0
 62
     0
100
AcDbPolyline
 90
        2
 70
     0
 39
0.003
 10
0.695535
 20
1.232346
 40
0.003
 41
0.003
 10
0.708409
 20
1.171772
 40
0.003
 41
0.003
  0
LWPOLYLINE
  5
2E9
100
AcDbEntity
  8
0
 62
     7
100
AcDbPolyline
 90
        2
 70
     0
 39
0.003
 10
-0.827697
 20
-0.468075
 40
0.003
 41
0.003
 10
0.643508
 20
-0.468075
 40
0.003
 41
0.003
  0
SPLINE
  5
2EA
100
AcDbEntity
  8
0
 62
     7
100
AcDbSpline
210
0.0
220
0.0
230
1.0
 70
     0
 71
     3
 72
     0
 73
     0
 74
    16
 44
0.0000000001
 11
0.6435078740157481
 21
-0.4680748031496063
 31
0.0
 11
0.6461929133858267
 21
-0.4249763779527559
 31
0.0
 11
0.6526614173228347
 21
-0.3804370078740157
 31
0.0
 11
0.6629291338582677
 21
-0.335003937007874
 31
0.0
 11
0.6770354330708661
 21
-0.2892322834645669
 31
0.0
 11
0.6949842519685039
 21
-0.2436653543307087
 31
0.0
 11
0.7168188976377953
 21
-0.1988661417322835
 31
0.0
 11
0.7425551181102362
 21
-0.1553818897637795
 31
0.0
 11
0.7722244094488189
 21
-0.1137716535433071
 31
0.0
 11
0.8058385826771654
 21
-0.0745787401574803
 31
0.0
 11
0.8434448818897637
 21
-0.0383622047244094
 31
0.0
 11
0.8850511811023623
 21
-0.0056692913385827
 31
0.0
 11
0.9306929133858268
 21
0.0229370078740157
 31
0.0
 11
0.9803818897637795
 21
0.0469094488188976
 31
0.0
 11
1.0341614173228346
 21
0.0657047244094488
 31
0.0
 11
1.0920433070866142
 21
0.078759842519685
 31
0.0
  0
LWPOLYLINE
  5
2EB
100
AcDbEntity
  8
0
 62
     7
100
AcDbPolyline
 90
        2
 70
     0
 39
0.003
 10
1.092043
 20
0.07876
 40
0.003
 41
0.003
 10
1.154067
 20
0.085535
 40
0.003
 41
0.003
  0
LWPOLYLINE
  5
2EC
100
AcDbEntity
  8
0
 62
     7
100
AcDbPolyline
 90
        2
 70
     0
 39
0.003
 10
1.154067
 20
0.085535
 40
0.003
 41
0.003
 10
1.154067
 20
0.258823
 40
0.003
 41
0.003
  0
LWPOLYLINE
  5
2ED
100
AcDbEntity
  8
0
 62
     7
100
AcDbPolyline
 90
        2
 70
     0
 39
0.003
 10
1.154067
 20
0.258823
 40
0.003
 41
0.003
 10
1.582417
 20
0.280457
 40
0.003
 41
0.003
  0
SPLINE
  5
2EE
100
AcDbEntity
  8
0
 62
     7
100
AcDbSpline
210
0.0
220
0.0
230
1.0
 70
     0
 71
     3
 72
     0
 73
     0
 74
    16
 44
0.0000000001
 11
1.5824173228346456
 21
0.2804566929133858
 31
0.0
 11
1.5753976377952756
 21
0.3711299212598425
 31
0.0
 11
1.5638425196850394
 21
0.4566417322834646
 31
0.0
 11
1.5473543307086615
 21
0.5370944881889764
 31
0.0
 11
1.5255551181102363
 21
0.6125984251968504
 31
0.0
 11
1.4980433070866142
 21
0.683255905511811
 31
0.0
 11
1.4644488188976379
 21
0.7491850393700787
 31
0.0
 11
1.4243700787401574
 21
0.8104842519685039
 31
0.0
 11
1.3774330708661418
 21
0.867271653543307
 31
0.0
 11
1.323236220472441
 21
0.9196377952755905
 31
0.0
 11
1.2614094488188976
 21
0.9677047244094488
 31
0.0
 11
1.1915551181102362
 21
1.0115748031496063
 31
0.0
 11
1.1132952755905512
 21
1.0513622047244096
 31
0.0
 11
1.0262283464566928
 21
1.0871614173228346
 31
0.0
 11
0.9299881889763779
 21
1.1190944881889764
 31
0.0
 11
0.8241732283464567
 21
1.147255905511811
 31
0.0
  0
LWPOLYLINE
  5
2EF
100
AcDbEntity
  8
0
 62
     7
100
AcDbPolyline
 90
        2
 70
     0
 39
0.003
 10
0.824173
 20
1.147256
 40
0.003
 41
0.003
 10
0.708409
 20
1.171772
 40
0.003
 41
0.003
  0
LWPOLYLINE
  5
2F0
100
AcDbEntity
  8
0
 62
     7
100
AcDbPolyline
 90
        2
 70
     0
 39
0.003
 10
0.708409
 20
1.171772
 40
0.003
 41
0.003
 10
0.695535
 20
1.232346
 40
0.003
 41
0.003
  0
LWPOLYLINE
  5
2F1
100
AcDbEntity
  8
0
 62
     7
100
AcDbPolyline
 90
        2
 70
     0
 39
0.003
 10
0.695535
 20
1.232346
 40
0.003
 41
0.003
 10
-0.732406
 20
1.232346
 40
0.003
 41
0.003
  0
LWPOLYLINE
  5
2F2
100
AcDbEntity
  8
0
 62
     7
100
AcDbPolyline
 90
        2
 70
     0
 39
0.003
 10
-0.732406
 20
1.232346
 40
0.003
 41
0.003
 10
-0.823268
 20
1.232346
 40
0.003
 41
0.003
  0
LWPOLYLINE
  5
2F3
100
AcDbEntity
  8
0
 62
     7
100
AcDbPolyline
 90
        2
 70
     0
 39
0.003
 10
-0.823268
 20
1.232346
 40
0.003
 41
0.003
 10
-0.827697
 20
-0.468075
 40
0.003
 41
0.003
  0
MTEXT
  5
2F4
100
AcDbEntity
  8
0
 62
     0
100
AcDbMText
 10
1.575945
 20
-0.355654
 30
0.0
 40
0.166665
 41
0.0
 71
     1
 72
     1
  1
{\fBookman Old Style|b0|i0|c0|p32;BA  1466}
 73
     1
 44
1.0
  0
MTEXT
  5
2F5
100
AcDbEntity
  8
0
 62
     0
100
AcDbMText
 10
1.575945
 20
-0.543154
 30
0.0
 40
0.166665
 41
0.0
 71
     1
 72
     1
  1
{\fBookman Old Style|b0|i0|c0|p32;1-3/4"}
 73
     1
 44
1.0
  0
ENDSEC
  0
SECTION
  2
OBJECTS
  0
DICTIONARY
  5
19
100
AcDbDictionary
280
     0
281
     1
  3
ACAD_GROUP
350
1A
  3
ACAD_MLINESTYLE
350
1B
  3
ACAD_LAYOUT
350
1E
  3
ACAD_PLOTSETTINGS
350
22
  3
ACAD_PLOTSTYLENAME
350
1F
  3
ACAD_WIPEOUT_VARS
350
23
  0
DICTIONARY
  5
1A
102
{ACAD_REACTORS
330
19
102
}
100
AcDbDictionary
280
     0
281
     1
  0
DICTIONARY
  5
1B
102
{ACAD_REACTORS
330
19
102
}
100
AcDbDictionary
280
     0
281
     1
  3
Standard
350
1C
  0
MLINESTYLE
  5
1C
102
{ACAD_REACTORS
330
1B
102
}
100
AcDbMlineStyle
  2
Standard
 70
     0
  3

 62
     0
 51
90.0
 52
90.0
 71
     2
 49
0.5
 62
   256
  6
BYLAYER
 49
-0.5
 62
   256
  6
BYLAYER
  0
ACDBDICTIONARYWDFLT
  5
1F
102
{ACAD_REACTORS
330
19
102
}
100
AcDbDictionary
281
     1
  3
Normal
350
1D
100
AcDbDictionaryWithDefault
340
1D
  0
ACDBPLACEHOLDER
  5
1D
102
{ACAD_REACTORS
330
1F
102
}
  0
LAYOUT
  5
20
102
{ACAD_REACTORS
330
1E
102
}
100
AcDbPlotSettings
  1

  2

  4

  6

 40
0.0
 41
0.0
 42
0.0
 43
0.0
 44
0.0
 45
0.0
 46
0.0
 47
0.0
 48
0.0
 49
0.0
140
0.0
141
0.0
142
1.0
143
1.0
 70
  1024
 72
     0
 73
     0
 74
     0
  7

 75
     0
147
1.0
148
0.0
149
0.0
100
AcDbLayout
  1
Model
 70
     0
 71
     0
 10
0.0
 20
0.0
 11
0.0
 21
0.0
 12
0.0
 22
0.0
 32
0.0
 14
0.0
 24
0.0
 34
0.0
 15
0.0
 25
0.0
 35
0.0
146
0.0
 13
0.0
 23
0.0
 33
0.0
 16
0.0
 26
0.0
 36
0.0
 17
0.0
 27
0.0
 37
0.0
 76
     0
330
A
331
0
345
0
346
0
  0
LAYOUT
  5
21
102
{ACAD_REACTORS
330
1E
102
}
100
AcDbPlotSettings
  1

  2

  4

  6

 40
0.0
 41
0.0
 42
0.0
 43
0.0
 44
0.0
 45
0.0
 46
0.0
 47
0.0
 48
0.0
 49
0.0
140
0.0
141
0.0
142
1.0
143
1.0
 70
     0
 72
     0
 73
     0
 74
     0
  7

 75
     0
147
1.0
148
0.0
149
0.0
100
AcDbLayout
  1
Layout1
 70
     0
 71
     0
 10
0.0
 20
0.0
 11
0.0
 21
0.0
 12
0.0
 22
0.0
 32
0.0
 14
0.0
 24
0.0
 34
0.0
 15
0.0
 25
0.0
 35
0.0
146
0.0
 13
0.0
 23
0.0
 33
0.0
 16
0.0
 26
0.0
 36
0.0
 17
0.0
 27
0.0
 37
0.0
 76
     0
330
B
331
0
345
0
346
0
  0
DICTIONARY
  5
1E
102
{ACAD_REACTORS
330
19
102
}
100
AcDbDictionary
280
     0
281
     1
  3
Layout1
350
21
  3
Model
350
20
  0
DICTIONARY
  5
22
102
{ACAD_REACTORS
330
19
102
}
100
AcDbDictionary
280
     0
281
     1
  0
WIPEOUTVARIABLES
  5
23
100
AcDbWipeoutVariables
 70
     1
  0
ENDSEC
  0
EOF
