  0
SECTION
  2
HEADER
  9
$ACADVER
  1
AC1015
  9
$ACADMAINTVER
 70
     6
  9
$DWGCODEPAGE
  3
DOS850
  9
$INSBASE
 10
0.0
 20
0.0
 30
0.0
  9
$EXTMIN
 10
1.000000E+20
 20
1.000000E+20
 30
1.000000E+20
  9
$EXTMAX
 10
-1.000000E+20
 20
-1.000000E+20
 30
-1.000000E+20
  9
$LIMMIN
 10
0.0
 20
0.0
  9
$LIMMAX
 10
0.0
 20
0.0
  9
$ORTHOMODE
 70
     0
  9
$REGENMODE
 70
     1
  9
$FILLMODE
 70
     1
  9
$QTEXTMODE
 70
     0
  9
$MIRRTEXT
 70
     1
  9
$LTSCALE
 40
1.0
  9
$ATTMODE
 70
     1
  9
$TEXTSIZE
 40
0.2
  9
$TRACEWID
 40
0.05
  9
$TEXTSTYLE
  7
Standard
  9
$CLAYER
  8
0
  9
$CELTYPE
  6
Continuous
  9
$CECOLOR
 62
   256
  9
$CELTSCALE
 40
1.0
  9
$DISPSILH
 70
     0
  9
$DIMSCALE
 40
1.0
  9
$DIMASZ
 40
0.18
  9
$DIMEXO
 40
0.0625
  9
$DIMDLI
 40
0.38
  9
$DIMRND
 40
0.0
  9
$DIMDLE
 40
0.0
  9
$DIMEXE
 40
0.18
  9
$DIMTP
 40
0.0
  9
$DIMTM
 40
0.0
  9
$DIMTXT
 40
0.18
  9
$DIMCEN
 40
0.09
  9
$DIMTSZ
 40
0.0
  9
$DIMTOL
 70
     0
  9
$DIMLIM
 70
     0
  9
$DIMTIH
 70
     1
  9
$DIMTOH
 70
     1
  9
$DIMSE1
 70
     0
  9
$DIMSE2
 70
     0
  9
$DIMTAD
 70
     0
  9
$DIMZIN
 70
     0
  9
$DIMBLK
  1

  9
$DIMASO
 70
     1
  9
$DIMSHO
 70
     1
  9
$DIMPOST
  1

  9
$DIMAPOST
  1

  9
$DIMALT
 70
     0
  9
$DIMALTD
 70
     2
  9
$DIMALTF
 40
25.4
  9
$DIMLFAC
 40
1.0
  9
$DIMTOFL
 70
     0
  9
$DIMTVP
 40
0.0
  9
$DIMTIX
 70
     0
  9
$DIMSOXD
 70
     0
  9
$DIMSAH
 70
     0
  9
$DIMBLK1
  1

  9
$DIMBLK2
  1

  9
$DIMSTYLE
  2
Standard
  9
$DIMCLRD
 70
     0
  9
$DIMCLRE
 70
     0
  9
$DIMCLRT
 70
     0
  9
$DIMTFAC
 40
1.0
  9
$DIMGAP
 40
0.09
  9
$DIMJUST
 70
     0
  9
$DIMSD1
 70
     0
  9
$DIMSD2
 70
     0
  9
$DIMTOLJ
 70
     1
  9
$DIMTZIN
 70
     0
  9
$DIMALTZ
 70
     0
  9
$DIMALTTZ
 70
     0
  9
$DIMUPT
 70
     0
  9
$DIMDEC
 70
     4
  9
$DIMTDEC
 70
     4
  9
$DIMALTU
 70
     2
  9
$DIMALTTD
 70
     2
  9
$DIMTXSTY
  7
Standard
  9
$DIMAUNIT
 70
     0
  9
$DIMADEC
 70
     0
  9
$DIMALTRND
 40
0.0
  9
$DIMAZIN
 70
     0
  9
$DIMDSEP
 70
     0
  9
$DIMATFIT
 70
     3
  9
$DIMFRAC
 70
     0
  9
$DIMLDRBLK
  1

  9
$DIMLUNIT
 70
     2
  9
$DIMLWD
 70
     0
  9
$DIMLWE
 70
     0
  9
$DIMTMOVE
 70
     0
  9
$LUNITS
 70
     2
  9
$LUPREC
 70
     4
  9
$SKETCHINC
 40
0.1
  9
$FILLETRAD
 40
0.0
  9
$AUNITS
 70
     0
  9
$AUPREC
 70
     0
  9
$MENU
  1
acad
  9
$ELEVATION
 40
0.0
  9
$PELEVATION
 40
0.0
  9
$THICKNESS
 40
0.0
  9
$LIMCHECK
 70
     0
  9
$CHAMFERA
 40
0.0
  9
$CHAMFERB
 40
0.0
  9
$CHAMFERC
 40
0.0
  9
$CHAMFERD
 40
0.0
  9
$SKPOLY
 70
     0
  9
$TDCREATE
 40
0.000000000
  9
$TDUCREATE
 40
0.000000000
  9
$TDUPDATE
 40
0.000000000
  9
$TDUUPDATE
 40
0.000000000
  9
$TDINDWG
 40
0.0000000000
  9
$TDUSRTIMER
 40
0.0000000000
  9
$USRTIMER
 70
     1
  9
$ANGBASE
 50
0.0
  9
$ANGDIR
 70
     0
  9
$PDMODE
 70
     0
  9
$PDSIZE
 40
0.0
  9
$PLINEWID
 40
0.0
  9
$SPLFRAME
 70
     0
  9
$SPLINETYPE
 70
     6
  9
$SPLINESEGS
 70
     8
  9
$HANDSEED
  5
4E4
  9
$SURFTAB1
 70
     6
  9
$SURFTAB2
 70
     6
  9
$SURFTYPE
 70
     6
  9
$SURFU
 70
     6
  9
$SURFV
 70
     6
  9
$UCSBASE
  2

  9
$UCSNAME
  2

  9
$UCSORG
 10
0.0
 20
0.0
 30
0.0
  9
$UCSXDIR
 10
1.0
 20
0.0
 30
0.0
  9
$UCSYDIR
 10
0.0
 20
1.0
 30
0.0
  9
$UCSORTHOREF
  2

  9
$UCSORTHOVIEW
 70
     0
  9
$UCSORGTOP
 10
0.0
 20
0.0
 30
0.0
  9
$UCSORGBOTTOM
 10
0.0
 20
0.0
 30
0.0
  9
$UCSORGLEFT
 10
0.0
 20
0.0
 30
0.0
  9
$UCSORGRIGHT
 10
0.0
 20
0.0
 30
0.0
  9
$UCSORGFRONT
 10
0.0
 20
0.0
 30
0.0
  9
$UCSORGBACK
 10
0.0
 20
0.0
 30
0.0
  9
$PUCSBASE
  2

  9
$PUCSNAME
  2

  9
$PUCSORG
 10
0.0
 20
0.0
 30
0.0
  9
$PUCSXDIR
 10
1.0
 20
0.0
 30
0.0
  9
$PUCSYDIR
 10
0.0
 20
1.0
 30
0.0
  9
$PUCSORTHOREF
  2

  9
$PUCSORTHOVIEW
 70
     0
  9
$PUCSORGTOP
 10
0.0
 20
0.0
 30
0.0
  9
$PUCSORGBOTTOM
 10
0.0
 20
0.0
 30
0.0
  9
$PUCSORGLEFT
 10
0.0
 20
0.0
 30
0.0
  9
$PUCSORGRIGHT
 10
0.0
 20
0.0
 30
0.0
  9
$PUCSORGFRONT
 10
0.0
 20
0.0
 30
0.0
  9
$PUCSORGBACK
 10
0.0
 20
0.0
 30
0.0
  9
$USERI1
 70
     0
  9
$USERI2
 70
     0
  9
$USERI3
 70
     0
  9
$USERI4
 70
     0
  9
$USERI5
 70
     0
  9
$USERR1
 40
0.0
  9
$USERR2
 40
0.0
  9
$USERR3
 40
0.0
  9
$USERR4
 40
0.0
  9
$USERR5
 40
0.0
  9
$WORLDVIEW
 70
     1
  9
$SHADEDGE
 70
     3
  9
$SHADEDIF
 70
    70
  9
$TILEMODE
 70
     1
  9
$MAXACTVP
 70
    16
  9
$PINSBASE
 10
0.0
 20
0.0
 30
0.0
  9
$PLIMCHECK
 70
     0
  9
$PEXTMIN
 10
1.000000E+20
 20
1.000000E+20
 30
1.000000E+20
  9
$PEXTMAX
 10
-1.000000E+20
 20
-1.000000E+20
 30
-1.000000E+20
  9
$PLIMMIN
 10
0.0
 20
0.0
  9
$PLIMMAX
 10
12.0
 20
9.0
  9
$UNITMODE
 70
     0
  9
$VISRETAIN
 70
     0
  9
$PLINEGEN
 70
     1
  9
$PSLTSCALE
 70
     0
  9
$TREEDEPTH
 70
  3020
  9
$CMLSTYLE
  2
Standard
  9
$CMLJUST
 70
     0
  9
$CMLSCALE
 40
1.0
  9
$PROXYGRAPHICS
 70
     0
  9
$MEASUREMENT
 70
     0
  9
$CELWEIGHT
370
     0
  9
$ENDCAPS
280
     0
  9
$JOINSTYLE
280
     0
  9
$LWDISPLAY
290
     0
  9
$INSUNITS
 70
     0
  9
$HYPERLINKBASE
  1

  9
$XEDIT
290
     1
  9
$CEPSNTYPE
380
     0
  9
$PSTYLEMODE
290
     1
  9
$FINGERPRINTGUID
  2

  9
$VERSIONGUID
  2

  9
$EXTNAMES
290
     1
  9
$PSVPSCALE
 40
0.0
  0
ENDSEC
  0
SECTION
  2
CLASSES
  0
CLASS
  1
LWPOLYLINE
  2
AcDbPolyline
  3
AutoCAD 2000
 90
        0
280
     0
281
     1
  0
CLASS
  1
IMAGE
  2
AcDbRasterImage
  3
ISM
 90
    32895
280
     0
281
     1
  0
CLASS
  1
OLE2FRAME
  2
AcDbOle2Frame
  3
AutoCAD 2000
 90
    32768
280
     0
281
     1
  0
CLASS
  1
HATCH
  2
AcDbHatch
  3
AutoCAD 2000
 90
    32768
280
     0
281
     1
  0
CLASS
  1
DICTIONARYVAR
  2
AcDbDictionaryVar
  3
AutoCAD 2000
 90
    32768
280
     0
281
     0
  0
CLASS
  1
RASTERVARIABLES
  2
AcDbRasterVariables
  3
ISM
 90
    32768
280
     0
281
     0
  0
CLASS
  1
IMAGEDEF
  2
AcDbRasterImageDef
  3
ISM
 90
    32768
280
     0
281
     0
  0
CLASS
  1
IMAGEDEF_REACTOR
  2
AcDbRasterImageDefReactor
  3
ISM
 90
    32769
280
     0
281
     0
  0
CLASS
  1
IDBUFFER
  2
AcDbIdBuffer
  3
AutoCAD 2000
 90
    32768
280
     0
281
     0
  0
CLASS
  1
SPATIAL_FILTER
  2
AcDbSpatialFilter
  3
AutoCAD 2000
 90
    32768
280
     0
281
     0
  0
CLASS
  1
XRECORD
  2
AcDbXrecord
  3
AutoCAD 2000
 90
    32768
280
     0
281
     0
  0
CLASS
  1
SORTENTSTABLE
  2
AcDbSortentsTable
  3
AutoCAD 2000
 90
    32768
280
     0
281
     0
  0
CLASS
  1
LAYER_INDEX
  2
AcDbLayerIndex
  3
AutoCAD 2000
 90
    32768
280
     0
281
     0
  0
CLASS
  1
SPATIAL_INDEX
  2
AcDbSpatialIndex
  3
AutoCAD 2000
 90
    32768
280
     0
281
     0
  0
CLASS
  1
OBJECT_PTR
  2
CAseDLPNTableRecord
  3
"ASE-LPNTableRecord"
 90
    32769
280
     0
281
     0
  0
CLASS
  1
LAYOUT
  2
AcDbLayout
  3
AutoCAD 2000
 90
        0
280
     0
281
     0
  0
CLASS
  1
PLOTSETTINGS
  2
AcDbPlotSettings
  3
AutoCAD 2000
 90
    32768
280
     0
281
     0
  0
CLASS
  1
ACDBDICTIONARYWDFLT
  2
AcDbDictionaryWithDefault
  3
AutoCAD 2000
 90
        0
280
     0
281
     0
  0
CLASS
  1
ACDBPLACEHOLDER
  2
AcDbPlaceHolder
  3
AutoCAD 2000
 90
        0
280
     0
281
     0
  0
CLASS
  1
VBA_PROJECT
  2
AcDbVbaProject
  3
acadvba
 90
    32768
280
     0
281
     0
  0
CLASS
  1
WIPEOUT
  2
AcDbWipeout
  3
WipeOut|AutoCAD Express Tool|expresstools@autodesk.com
 90
    32895
280
     0
281
     1
  0
CLASS
  1
WIPEOUTVARIABLES
  2
AcDbWipeoutVariables
  3
WipeOut|AutoCAD Express Tool|expresstools@autodesk.com
 90
        0
280
     0
281
     0
  0
CLASS
  1
RTEXT
  2
RText
  3
RText|AutoCAD Express Tool|expresstools@autodesk.com
 90
    32768
280
     0
281
     1
  0
CLASS
  1
ARCALIGNEDTEXT
  2
AcDbArcAlignedText
  3
ATEXT|AutoCAD Express Tool|expresstools@autodesk.com
 90
    32768
280
     0
281
     1
  0
ENDSEC
  0
SECTION
  2
TABLES
  0
TABLE
  2
VPORT
  5
7
100
AcDbSymbolTable
 70
     1
  0
VPORT
  5
15
100
AcDbSymbolTableRecord
100
AcDbViewportTableRecord
  2
*ACTIVE
 70
     0
 10
0.0
 20
0.0
 11
1.0
 21
1.0
 12
6.591288
 22
4.579184
 13
0.0
 23
0.0
 14
1.0
 24
1.0
 15
0.0
 25
0.0
 16
0.0
 26
0.0
 36
1.0
 17
0.0
 27
0.0
 37
0.0
 40
9.158369
 41
0.688564
 42
50.0
 43
0.0
 44
0.0
 50
0.0
 51
0.0
 71
     0
 72
   100
 73
     1
 74
     1
 75
     0
 76
     0
 77
     0
 78
     0
281
     0
 65
     0
110
0.0
120
0.0
130
0.0
111
1.0
121
0.0
131
0.0
112
0.0
122
1.0
132
0.0
345
0
346
0
 79
     0
146
0.0
  0
ENDTAB
  0
TABLE
  2
LTYPE
  5
4
100
AcDbSymbolTable
 70
     3
  0
LTYPE
  5
11
100
AcDbSymbolTableRecord
100
AcDbLinetypeTableRecord
  2
ByBlock
 70
    64
  3

 72
    65
 73
     0
 40
0.0
  0
LTYPE
  5
12
100
AcDbSymbolTableRecord
100
AcDbLinetypeTableRecord
  2
ByLayer
 70
    64
  3

 72
    65
 73
     0
 40
0.0
  0
LTYPE
  5
13
100
AcDbSymbolTableRecord
100
AcDbLinetypeTableRecord
  2
Continuous
 70
    64
  3
Solid line
 72
    65
 73
     0
 40
0.0
  0
ENDTAB
  0
TABLE
  2
LAYER
  5
2
100
AcDbSymbolTable
 70
     1
  0
LAYER
  5
14
100
AcDbSymbolTableRecord
100
AcDbLayerTableRecord
  2
0
 70
     0
 62
     7
  6
Continuous
290
     1
370
    -3
390
1D
  0
ENDTAB
  0
TABLE
  2
STYLE
  5
3
100
AcDbSymbolTable
 70
     1
  0
STYLE
  5
17
100
AcDbSymbolTableRecord
100
AcDbTextStyleTableRecord
  2
Standard
 70
     0
 40
0.0
 41
1.0
 50
0.0
 71
     0
 42
0.0
  3
txt
  4

  0
ENDTAB
  0
TABLE
  2
VIEW
  5
5
100
AcDbSymbolTable
 70
     0
  0
ENDTAB
  0
TABLE
  2
UCS
  5
6
100
AcDbSymbolTable
 70
     0
  0
ENDTAB
  0
TABLE
  2
APPID
  5
8
100
AcDbSymbolTable
 70
     1
  0
APPID
  5
16
100
AcDbSymbolTableRecord
100
AcDbRegAppTableRecord
  2
ACAD
 70
     0
  0
ENDTAB
  0
TABLE
  2
DIMSTYLE
  5
9
100
AcDbSymbolTable
 70
     1
100
AcDbDimStyleTable
 71
     0
  0
DIMSTYLE
105
18
100
AcDbSymbolTableRecord
100
AcDbDimStyleTableRecord
  2
Standard
 70
     0
  3

  4

 40
1.0
 41
0.18
 42
0.0625
 43
0.38
 44
0.18
 45
0.0
 46
0.0
 47
0.0
 48
0.0
 71
     0
 72
     0
 73
     1
 74
     1
 75
     0
 76
     0
 77
     0
 78
     0
 79
     0
140
0.18
141
0.09
142
0.0
143
25.4
144
1.0
145
0.0
146
1.0
147
0.09
148
0.0
170
     0
171
     2
172
     0
173
     0
174
     0
175
     0
176
     0
177
     0
178
     0
179
     0
271
     4
272
     4
273
     2
274
     2
275
     0
276
     0
277
     2
278
    46
279
     0
280
     0
281
     0
282
     0
283
     1
284
     0
285
     0
286
     0
288
     0
340
17
341
0
342
0
343
0
344
0
371
    -2
372
    -2
  0
ENDTAB
  0
TABLE
  2
BLOCK_RECORD
  5
1
100
AcDbSymbolTable
 70
     0
  0
BLOCK_RECORD
  5
A
100
AcDbSymbolTableRecord
100
AcDbBlockTableRecord
  2
*MODEL_SPACE
340
20
  0
BLOCK_RECORD
  5
B
100
AcDbSymbolTableRecord
100
AcDbBlockTableRecord
  2
*PAPER_SPACE
340
21
  0
ENDTAB
  0
ENDSEC
  0
SECTION
  2
BLOCKS
  0
BLOCK
  5
D
100
AcDbEntity
  8
0
100
AcDbBlockBegin
  2
*MODEL_SPACE
 70
     0
 10
0.0
 20
0.0
 30
0.0
  3
*MODEL_SPACE
  1

  0
ENDBLK
  5
E
100
AcDbEntity
  8
0
100
AcDbBlockEnd
  0
BLOCK
  5
F
100
AcDbEntity
 67
     1
  8
0
100
AcDbBlockBegin
  2
*PAPER_SPACE
 70
     0
 10
0.0
 20
0.0
 30
0.0
  3
*PAPER_SPACE
  1

  0
ENDBLK
  5
10
100
AcDbEntity
 67
     1
  8
0
100
AcDbBlockEnd
  0
ENDSEC
  0
SECTION
  2
ENTITIES
  0
SPLINE
  5
24
100
AcDbEntity
  8
0
 62
     0
100
AcDbSpline
210
0.0
220
0.0
230
1.0
 70
     0
 71
     3
 72
     0
 73
     0
 74
    16
 44
0.0000000001
 11
1.9812283464566929
 21
2.3639527559055118
 31
0.0
 11
1.9792795275590551
 21
2.4021968503937008
 31
0.0
 11
1.9735826771653544
 21
2.4393622047244095
 31
0.0
 11
1.9643149606299213
 21
2.4752480314960632
 31
0.0
 11
1.9516771653543308
 21
2.5096771653543306
 31
0.0
 11
1.9358464566929134
 21
2.5424409448818897
 31
0.0
 11
1.9170314960629922
 21
2.5733661417322833
 31
0.0
 11
1.8954094488188977
 21
2.602248031496063
 31
0.0
 11
1.8711811023622047
 21
2.6289055118110238
 31
0.0
 11
1.8445236220472441
 21
2.6531338582677164
 31
0.0
 11
1.8156417322834646
 21
2.6747559055118111
 31
0.0
 11
1.784716535433071
 21
2.6935708661417324
 31
0.0
 11
1.7519527559055119
 21
2.7094015748031497
 31
0.0
 11
1.7175236220472441
 21
2.7220393700787402
 31
0.0
 11
1.6816377952755905
 21
2.7313070866141733
 31
0.0
 11
1.6444724409448819
 21
2.737003937007874
 31
0.0
  0
LWPOLYLINE
  5
25
100
AcDbEntity
  8
0
 62
     0
100
AcDbPolyline
 90
        2
 70
     0
 39
0.003
 10
1.644472
 20
2.737004
 40
0.003
 41
0.003
 10
1.606228
 20
2.738953
 40
0.003
 41
0.003
  0
LWPOLYLINE
  5
26
100
AcDbEntity
  8
0
 62
     0
100
AcDbPolyline
 90
        2
 70
     0
 39
0.003
 10
1.606228
 20
2.738953
 40
0.003
 41
0.003
 10
1.596917
 20
2.885205
 40
0.003
 41
0.003
  0
LWPOLYLINE
  5
27
100
AcDbEntity
  8
0
 62
     0
100
AcDbPolyline
 90
        2
 70
     0
 39
0.003
 10
1.596917
 20
2.885205
 40
0.003
 41
0.003
 10
0.25261
 20
2.885205
 40
0.003
 41
0.003
  0
SPLINE
  5
28
100
AcDbEntity
  8
0
 62
     0
100
AcDbSpline
210
0.0
220
0.0
230
1.0
 70
     0
 71
     3
 72
     0
 73
     0
 74
    16
 44
0.0000000001
 11
0.2526102362204725
 21
2.8852047244094488
 31
0.0
 11
0.2377795275590551
 21
2.9477283464566928
 31
0.0
 11
0.2179330708661417
 21
2.9995629921259841
 31
0.0
 11
0.1938267716535433
 21
3.0413622047244093
 31
0.0
 11
0.1662322834645669
 21
3.073787401574803
 31
0.0
 11
0.1358937007874016
 21
3.0974960629921258
 31
0.0
 11
0.1035826771653543
 21
3.1131535433070865
 31
0.0
 11
0.0700511811023622
 21
3.1214133858267719
 31
0.0
 11
0.0360669291338583
 21
3.1229488188976378
 31
0.0
 11
0.0023818897637795
 21
3.1183937007874016
 31
0.0
 11
-0.0302362204724409
 21
3.1084330708661416
 31
0.0
 11
-0.0610314960629921
 21
3.093712598425197
 31
0.0
 11
-0.089248031496063
 21
3.0749015748031496
 31
0.0
 11
-0.1141141732283465
 21
3.0526456692913384
 31
0.0
 11
-0.1348818897637795
 21
3.0276220472440944
 31
0.0
 11
-0.1507834645669291
 21
3.0004803149606301
 31
0.0
  0
LWPOLYLINE
  5
29
100
AcDbEntity
  8
0
 62
     0
100
AcDbPolyline
 90
        2
 70
     0
 39
0.003
 10
-0.150783
 20
3.00048
 40
0.003
 41
0.003
 10
-0.161063
 20
2.971882
 40
0.003
 41
0.003
  0
LWPOLYLINE
  5
2A
100
AcDbEntity
  8
0
 62
     0
100
AcDbPolyline
 90
        2
 70
     0
 39
0.003
 10
-0.161063
 20
2.971882
 40
0.003
 41
0.003
 10
-0.279984
 20
2.983598
 40
0.003
 41
0.003
  0
SPLINE
  5
2B
100
AcDbEntity
  8
0
 62
     0
100
AcDbSpline
210
0.0
220
0.0
230
1.0
 70
     0
 71
     3
 72
     0
 73
     0
 74
    16
 44
0.0000000001
 11
-0.279984251968504
 21
2.9835984251968504
 31
0.0
 11
-0.3215787401574803
 21
2.9147244094488189
 31
0.0
 11
-0.3648700787401575
 21
2.8631811023622049
 31
0.0
 11
-0.4092992125984252
 21
2.8276141732283464
 31
0.0
 11
-0.4543267716535433
 21
2.8066889763779526
 31
0.0
 11
-0.4993858267716536
 21
2.7990393700787402
 31
0.0
 11
-0.5439409448818897
 21
2.8033346456692914
 31
0.0
 11
-0.5874330708661417
 21
2.8182244094488187
 31
0.0
 11
-0.6293267716535433
 21
2.8423700787401573
 31
0.0
 11
-0.6690511811023622
 21
2.8744055118110237
 31
0.0
 11
-0.7060748031496062
 21
2.9130078740157481
 31
0.0
 11
-0.7398346456692914
 21
2.9568110236220471
 31
0.0
 11
-0.7697992125984252
 21
3.0044881889763779
 31
0.0
 11
-0.7953976377952756
 21
3.0546771653543305
 31
0.0
 11
-0.8160944881889763
 21
3.106043307086614
 31
0.0
 11
-0.8313307086614173
 21
3.157232283464567
 31
0.0
  0
LWPOLYLINE
  5
2C
100
AcDbEntity
  8
0
 62
     0
100
AcDbPolyline
 90
        2
 70
     0
 39
0.003
 10
-0.831331
 20
3.157232
 40
0.003
 41
0.003
 10
-0.840571
 20
3.206906
 40
0.003
 41
0.003
  0
LWPOLYLINE
  5
2D
100
AcDbEntity
  8
0
 62
     0
100
AcDbPolyline
 90
        2
 70
     0
 39
0.003
 10
-0.840571
 20
3.206906
 40
0.003
 41
0.003
 10
-2.012252
 20
3.206906
 40
0.003
 41
0.003
  0
LWPOLYLINE
  5
2E
100
AcDbEntity
  8
0
 62
     0
100
AcDbPolyline
 90
        2
 70
     0
 39
0.003
 10
-2.012252
 20
3.206906
 40
0.003
 41
0.003
 10
-2.012252
 20
2.363953
 40
0.003
 41
0.003
  0
LWPOLYLINE
  5
2F
100
AcDbEntity
  8
0
 62
     0
100
AcDbPolyline
 90
        2
 70
     0
 39
0.003
 10
-2.012252
 20
2.363953
 40
0.003
 41
0.003
 10
1.981228
 20
2.363953
 40
0.003
 41
0.003
  0
LWPOLYLINE
  5
30
100
AcDbEntity
  8
0
 62
     9
100
AcDbPolyline
 90
        2
 70
     0
 39
0.003
 10
2.062382
 20
0.253043
 40
0.003
 41
0.003
 10
2.064358
 20
1.002051
 40
0.003
 41
0.003
  0
LWPOLYLINE
  5
31
100
AcDbEntity
  8
0
 62
     9
100
AcDbPolyline
 90
        2
 70
     0
 39
0.003
 10
2.064358
 20
1.002051
 40
0.003
 41
0.003
 10
2.061965
 20
1.020776
 40
0.003
 41
0.003
  0
LWPOLYLINE
  5
32
100
AcDbEntity
  8
0
 62
     9
100
AcDbPolyline
 90
        2
 70
     0
 39
0.003
 10
2.061965
 20
1.020776
 40
0.003
 41
0.003
 10
2.059988
 20
0.271768
 40
0.003
 41
0.003
  0
LWPOLYLINE
  5
33
100
AcDbEntity
  8
0
 62
     9
100
AcDbPolyline
 90
        2
 70
     0
 39
0.003
 10
2.059988
 20
0.271768
 40
0.003
 41
0.003
 10
2.062382
 20
0.253043
 40
0.003
 41
0.003
  0
LWPOLYLINE
  5
34
100
AcDbEntity
  8
0
 62
   254
100
AcDbPolyline
 90
        2
 70
     0
 39
0.003
 10
2.059988
 20
0.271768
 40
0.003
 41
0.003
 10
2.061965
 20
1.020776
 40
0.003
 41
0.003
  0
LWPOLYLINE
  5
35
100
AcDbEntity
  8
0
 62
   254
100
AcDbPolyline
 90
        2
 70
     0
 39
0.003
 10
2.061965
 20
1.020776
 40
0.003
 41
0.003
 10
2.058661
 20
1.039217
 40
0.003
 41
0.003
  0
LWPOLYLINE
  5
36
100
AcDbEntity
  8
0
 62
   254
100
AcDbPolyline
 90
        2
 70
     0
 39
0.003
 10
2.058661
 20
1.039217
 40
0.003
 41
0.003
 10
2.056685
 20
0.290209
 40
0.003
 41
0.003
  0
LWPOLYLINE
  5
37
100
AcDbEntity
  8
0
 62
   254
100
AcDbPolyline
 90
        2
 70
     0
 39
0.003
 10
2.056685
 20
0.290209
 40
0.003
 41
0.003
 10
2.059988
 20
0.271768
 40
0.003
 41
0.003
  0
LWPOLYLINE
  5
38
100
AcDbEntity
  8
0
 62
   254
100
AcDbPolyline
 90
        2
 70
     0
 39
0.003
 10
2.056685
 20
0.290209
 40
0.003
 41
0.003
 10
2.058661
 20
1.039217
 40
0.003
 41
0.003
  0
LWPOLYLINE
  5
39
100
AcDbEntity
  8
0
 62
   254
100
AcDbPolyline
 90
        2
 70
     0
 39
0.003
 10
2.058661
 20
1.039217
 40
0.003
 41
0.003
 10
2.054457
 20
1.057327
 40
0.003
 41
0.003
  0
LWPOLYLINE
  5
3A
100
AcDbEntity
  8
0
 62
   254
100
AcDbPolyline
 90
        2
 70
     0
 39
0.003
 10
2.054457
 20
1.057327
 40
0.003
 41
0.003
 10
2.05248
 20
0.308319
 40
0.003
 41
0.003
  0
LWPOLYLINE
  5
3B
100
AcDbEntity
  8
0
 62
   254
100
AcDbPolyline
 90
        2
 70
     0
 39
0.003
 10
2.05248
 20
0.308319
 40
0.003
 41
0.003
 10
2.056685
 20
0.290209
 40
0.003
 41
0.003
  0
LWPOLYLINE
  5
3C
100
AcDbEntity
  8
0
 62
   254
100
AcDbPolyline
 90
        2
 70
     0
 39
0.003
 10
2.05248
 20
0.308319
 40
0.003
 41
0.003
 10
2.054457
 20
1.057327
 40
0.003
 41
0.003
  0
LWPOLYLINE
  5
3D
100
AcDbEntity
  8
0
 62
   254
100
AcDbPolyline
 90
        2
 70
     0
 39
0.003
 10
2.054457
 20
1.057327
 40
0.003
 41
0.003
 10
2.049394
 20
1.075102
 40
0.003
 41
0.003
  0
LWPOLYLINE
  5
3E
100
AcDbEntity
  8
0
 62
   254
100
AcDbPolyline
 90
        2
 70
     0
 39
0.003
 10
2.049394
 20
1.075102
 40
0.003
 41
0.003
 10
2.047417
 20
0.326094
 40
0.003
 41
0.003
  0
LWPOLYLINE
  5
3F
100
AcDbEntity
  8
0
 62
   254
100
AcDbPolyline
 90
        2
 70
     0
 39
0.003
 10
2.047417
 20
0.326094
 40
0.003
 41
0.003
 10
2.05248
 20
0.308319
 40
0.003
 41
0.003
  0
LWPOLYLINE
  5
40
100
AcDbEntity
  8
0
 62
   254
100
AcDbPolyline
 90
        2
 70
     0
 39
0.003
 10
2.047417
 20
0.326094
 40
0.003
 41
0.003
 10
2.049394
 20
1.075102
 40
0.003
 41
0.003
  0
LWPOLYLINE
  5
41
100
AcDbEntity
  8
0
 62
   254
100
AcDbPolyline
 90
        2
 70
     0
 39
0.003
 10
2.049394
 20
1.075102
 40
0.003
 41
0.003
 10
2.04348
 20
1.092512
 40
0.003
 41
0.003
  0
LWPOLYLINE
  5
42
100
AcDbEntity
  8
0
 62
   254
100
AcDbPolyline
 90
        2
 70
     0
 39
0.003
 10
2.04348
 20
1.092512
 40
0.003
 41
0.003
 10
2.041504
 20
0.343504
 40
0.003
 41
0.003
  0
LWPOLYLINE
  5
43
100
AcDbEntity
  8
0
 62
   254
100
AcDbPolyline
 90
        2
 70
     0
 39
0.003
 10
2.041504
 20
0.343504
 40
0.003
 41
0.003
 10
2.047417
 20
0.326094
 40
0.003
 41
0.003
  0
LWPOLYLINE
  5
44
100
AcDbEntity
  8
0
 62
   254
100
AcDbPolyline
 90
        2
 70
     0
 39
0.003
 10
2.041504
 20
0.343504
 40
0.003
 41
0.003
 10
2.04348
 20
1.092512
 40
0.003
 41
0.003
  0
LWPOLYLINE
  5
45
100
AcDbEntity
  8
0
 62
   254
100
AcDbPolyline
 90
        2
 70
     0
 39
0.003
 10
2.04348
 20
1.092512
 40
0.003
 41
0.003
 10
2.036756
 20
1.109531
 40
0.003
 41
0.003
  0
LWPOLYLINE
  5
46
100
AcDbEntity
  8
0
 62
   254
100
AcDbPolyline
 90
        2
 70
     0
 39
0.003
 10
2.036756
 20
1.109531
 40
0.003
 41
0.003
 10
2.03478
 20
0.360524
 40
0.003
 41
0.003
  0
LWPOLYLINE
  5
47
100
AcDbEntity
  8
0
 62
   254
100
AcDbPolyline
 90
        2
 70
     0
 39
0.003
 10
2.03478
 20
0.360524
 40
0.003
 41
0.003
 10
2.041504
 20
0.343504
 40
0.003
 41
0.003
  0
LWPOLYLINE
  5
48
100
AcDbEntity
  8
0
 62
   254
100
AcDbPolyline
 90
        2
 70
     0
 39
0.003
 10
2.03478
 20
0.360524
 40
0.003
 41
0.003
 10
2.036756
 20
1.109531
 40
0.003
 41
0.003
  0
LWPOLYLINE
  5
49
100
AcDbEntity
  8
0
 62
   254
100
AcDbPolyline
 90
        2
 70
     0
 39
0.003
 10
2.036756
 20
1.109531
 40
0.003
 41
0.003
 10
2.029224
 20
1.12613
 40
0.003
 41
0.003
  0
LWPOLYLINE
  5
4A
100
AcDbEntity
  8
0
 62
   254
100
AcDbPolyline
 90
        2
 70
     0
 39
0.003
 10
2.029224
 20
1.12613
 40
0.003
 41
0.003
 10
2.027248
 20
0.377122
 40
0.003
 41
0.003
  0
LWPOLYLINE
  5
4B
100
AcDbEntity
  8
0
 62
   254
100
AcDbPolyline
 90
        2
 70
     0
 39
0.003
 10
2.027248
 20
0.377122
 40
0.003
 41
0.003
 10
2.03478
 20
0.360524
 40
0.003
 41
0.003
  0
LWPOLYLINE
  5
4C
100
AcDbEntity
  8
0
 62
   254
100
AcDbPolyline
 90
        2
 70
     0
 39
0.003
 10
2.027248
 20
0.377122
 40
0.003
 41
0.003
 10
2.029224
 20
1.12613
 40
0.003
 41
0.003
  0
LWPOLYLINE
  5
4D
100
AcDbEntity
  8
0
 62
   254
100
AcDbPolyline
 90
        2
 70
     0
 39
0.003
 10
2.029224
 20
1.12613
 40
0.003
 41
0.003
 10
2.020925
 20
1.142295
 40
0.003
 41
0.003
  0
LWPOLYLINE
  5
4E
100
AcDbEntity
  8
0
 62
   254
100
AcDbPolyline
 90
        2
 70
     0
 39
0.003
 10
2.020925
 20
1.142295
 40
0.003
 41
0.003
 10
2.018949
 20
0.393287
 40
0.003
 41
0.003
  0
LWPOLYLINE
  5
4F
100
AcDbEntity
  8
0
 62
   254
100
AcDbPolyline
 90
        2
 70
     0
 39
0.003
 10
2.018949
 20
0.393287
 40
0.003
 41
0.003
 10
2.027248
 20
0.377122
 40
0.003
 41
0.003
  0
LWPOLYLINE
  5
50
100
AcDbEntity
  8
0
 62
   254
100
AcDbPolyline
 90
        2
 70
     0
 39
0.003
 10
2.018949
 20
0.393287
 40
0.003
 41
0.003
 10
2.020925
 20
1.142295
 40
0.003
 41
0.003
  0
LWPOLYLINE
  5
51
100
AcDbEntity
  8
0
 62
   254
100
AcDbPolyline
 90
        2
 70
     0
 39
0.003
 10
2.020925
 20
1.142295
 40
0.003
 41
0.003
 10
2.011878
 20
1.157996
 40
0.003
 41
0.003
  0
LWPOLYLINE
  5
52
100
AcDbEntity
  8
0
 62
   254
100
AcDbPolyline
 90
        2
 70
     0
 39
0.003
 10
2.011878
 20
1.157996
 40
0.003
 41
0.003
 10
2.009902
 20
0.408988
 40
0.003
 41
0.003
  0
LWPOLYLINE
  5
53
100
AcDbEntity
  8
0
 62
   254
100
AcDbPolyline
 90
        2
 70
     0
 39
0.003
 10
2.009902
 20
0.408988
 40
0.003
 41
0.003
 10
2.018949
 20
0.393287
 40
0.003
 41
0.003
  0
LWPOLYLINE
  5
54
100
AcDbEntity
  8
0
 62
   254
100
AcDbPolyline
 90
        2
 70
     0
 39
0.003
 10
2.009902
 20
0.408988
 40
0.003
 41
0.003
 10
2.011878
 20
1.157996
 40
0.003
 41
0.003
  0
LWPOLYLINE
  5
55
100
AcDbEntity
  8
0
 62
   254
100
AcDbPolyline
 90
        2
 70
     0
 39
0.003
 10
2.011878
 20
1.157996
 40
0.003
 41
0.003
 10
2.00211
 20
1.17322
 40
0.003
 41
0.003
  0
LWPOLYLINE
  5
56
100
AcDbEntity
  8
0
 62
   254
100
AcDbPolyline
 90
        2
 70
     0
 39
0.003
 10
2.00211
 20
1.17322
 40
0.003
 41
0.003
 10
2.000134
 20
0.424213
 40
0.003
 41
0.003
  0
LWPOLYLINE
  5
57
100
AcDbEntity
  8
0
 62
   254
100
AcDbPolyline
 90
        2
 70
     0
 39
0.003
 10
2.000134
 20
0.424213
 40
0.003
 41
0.003
 10
2.009902
 20
0.408988
 40
0.003
 41
0.003
  0
LWPOLYLINE
  5
58
100
AcDbEntity
  8
0
 62
   254
100
AcDbPolyline
 90
        2
 70
     0
 39
0.003
 10
2.000134
 20
0.424213
 40
0.003
 41
0.003
 10
2.00211
 20
1.17322
 40
0.003
 41
0.003
  0
LWPOLYLINE
  5
59
100
AcDbEntity
  8
0
 62
   254
100
AcDbPolyline
 90
        2
 70
     0
 39
0.003
 10
2.00211
 20
1.17322
 40
0.003
 41
0.003
 10
1.991634
 20
1.187925
 40
0.003
 41
0.003
  0
LWPOLYLINE
  5
5A
100
AcDbEntity
  8
0
 62
   254
100
AcDbPolyline
 90
        2
 70
     0
 39
0.003
 10
1.991634
 20
1.187925
 40
0.003
 41
0.003
 10
1.989657
 20
0.438917
 40
0.003
 41
0.003
  0
LWPOLYLINE
  5
5B
100
AcDbEntity
  8
0
 62
   254
100
AcDbPolyline
 90
        2
 70
     0
 39
0.003
 10
1.989657
 20
0.438917
 40
0.003
 41
0.003
 10
2.000134
 20
0.424213
 40
0.003
 41
0.003
  0
LWPOLYLINE
  5
5C
100
AcDbEntity
  8
0
 62
   254
100
AcDbPolyline
 90
        2
 70
     0
 39
0.003
 10
1.989657
 20
0.438917
 40
0.003
 41
0.003
 10
1.991634
 20
1.187925
 40
0.003
 41
0.003
  0
LWPOLYLINE
  5
5D
100
AcDbEntity
  8
0
 62
   254
100
AcDbPolyline
 90
        2
 70
     0
 39
0.003
 10
1.991634
 20
1.187925
 40
0.003
 41
0.003
 10
1.980488
 20
1.202102
 40
0.003
 41
0.003
  0
LWPOLYLINE
  5
5E
100
AcDbEntity
  8
0
 62
   254
100
AcDbPolyline
 90
        2
 70
     0
 39
0.003
 10
1.980488
 20
1.202102
 40
0.003
 41
0.003
 10
1.978512
 20
0.453094
 40
0.003
 41
0.003
  0
LWPOLYLINE
  5
5F
100
AcDbEntity
  8
0
 62
   254
100
AcDbPolyline
 90
        2
 70
     0
 39
0.003
 10
1.978512
 20
0.453094
 40
0.003
 41
0.003
 10
1.989657
 20
0.438917
 40
0.003
 41
0.003
  0
LWPOLYLINE
  5
60
100
AcDbEntity
  8
0
 62
   254
100
AcDbPolyline
 90
        2
 70
     0
 39
0.003
 10
1.978512
 20
0.453094
 40
0.003
 41
0.003
 10
1.980488
 20
1.202102
 40
0.003
 41
0.003
  0
LWPOLYLINE
  5
61
100
AcDbEntity
  8
0
 62
   254
100
AcDbPolyline
 90
        2
 70
     0
 39
0.003
 10
1.980488
 20
1.202102
 40
0.003
 41
0.003
 10
1.968685
 20
1.21572
 40
0.003
 41
0.003
  0
LWPOLYLINE
  5
62
100
AcDbEntity
  8
0
 62
   254
100
AcDbPolyline
 90
        2
 70
     0
 39
0.003
 10
1.968685
 20
1.21572
 40
0.003
 41
0.003
 10
1.966709
 20
0.466713
 40
0.003
 41
0.003
  0
LWPOLYLINE
  5
63
100
AcDbEntity
  8
0
 62
   254
100
AcDbPolyline
 90
        2
 70
     0
 39
0.003
 10
1.966709
 20
0.466713
 40
0.003
 41
0.003
 10
1.978512
 20
0.453094
 40
0.003
 41
0.003
  0
LWPOLYLINE
  5
64
100
AcDbEntity
  8
0
 62
   254
100
AcDbPolyline
 90
        2
 70
     0
 39
0.003
 10
1.966709
 20
0.466713
 40
0.003
 41
0.003
 10
1.968685
 20
1.21572
 40
0.003
 41
0.003
  0
LWPOLYLINE
  5
65
100
AcDbEntity
  8
0
 62
   254
100
AcDbPolyline
 90
        2
 70
     0
 39
0.003
 10
1.968685
 20
1.21572
 40
0.003
 41
0.003
 10
1.95626
 20
1.22876
 40
0.003
 41
0.003
  0
LWPOLYLINE
  5
66
100
AcDbEntity
  8
0
 62
   254
100
AcDbPolyline
 90
        2
 70
     0
 39
0.003
 10
1.95626
 20
1.22876
 40
0.003
 41
0.003
 10
1.954283
 20
0.479752
 40
0.003
 41
0.003
  0
LWPOLYLINE
  5
67
100
AcDbEntity
  8
0
 62
   254
100
AcDbPolyline
 90
        2
 70
     0
 39
0.003
 10
1.954283
 20
0.479752
 40
0.003
 41
0.003
 10
1.966709
 20
0.466713
 40
0.003
 41
0.003
  0
LWPOLYLINE
  5
68
100
AcDbEntity
  8
0
 62
   254
100
AcDbPolyline
 90
        2
 70
     0
 39
0.003
 10
1.954283
 20
0.479752
 40
0.003
 41
0.003
 10
1.95626
 20
1.22876
 40
0.003
 41
0.003
  0
LWPOLYLINE
  5
69
100
AcDbEntity
  8
0
 62
   254
100
AcDbPolyline
 90
        2
 70
     0
 39
0.003
 10
1.95626
 20
1.22876
 40
0.003
 41
0.003
 10
1.94322
 20
1.241185
 40
0.003
 41
0.003
  0
LWPOLYLINE
  5
6A
100
AcDbEntity
  8
0
 62
   254
100
AcDbPolyline
 90
        2
 70
     0
 39
0.003
 10
1.94322
 20
1.241185
 40
0.003
 41
0.003
 10
1.941244
 20
0.492177
 40
0.003
 41
0.003
  0
LWPOLYLINE
  5
6B
100
AcDbEntity
  8
0
 62
   254
100
AcDbPolyline
 90
        2
 70
     0
 39
0.003
 10
1.941244
 20
0.492177
 40
0.003
 41
0.003
 10
1.954283
 20
0.479752
 40
0.003
 41
0.003
  0
LWPOLYLINE
  5
6C
100
AcDbEntity
  8
0
 62
   254
100
AcDbPolyline
 90
        2
 70
     0
 39
0.003
 10
1.941244
 20
0.492177
 40
0.003
 41
0.003
 10
1.94322
 20
1.241185
 40
0.003
 41
0.003
  0
LWPOLYLINE
  5
6D
100
AcDbEntity
  8
0
 62
   254
100
AcDbPolyline
 90
        2
 70
     0
 39
0.003
 10
1.94322
 20
1.241185
 40
0.003
 41
0.003
 10
1.929602
 20
1.252988
 40
0.003
 41
0.003
  0
LWPOLYLINE
  5
6E
100
AcDbEntity
  8
0
 62
   254
100
AcDbPolyline
 90
        2
 70
     0
 39
0.003
 10
1.929602
 20
1.252988
 40
0.003
 41
0.003
 10
1.927626
 20
0.50398
 40
0.003
 41
0.003
  0
LWPOLYLINE
  5
6F
100
AcDbEntity
  8
0
 62
   254
100
AcDbPolyline
 90
        2
 70
     0
 39
0.003
 10
1.927626
 20
0.50398
 40
0.003
 41
0.003
 10
1.941244
 20
0.492177
 40
0.003
 41
0.003
  0
LWPOLYLINE
  5
70
100
AcDbEntity
  8
0
 62
   254
100
AcDbPolyline
 90
        2
 70
     0
 39
0.003
 10
1.927626
 20
0.50398
 40
0.003
 41
0.003
 10
1.929602
 20
1.252988
 40
0.003
 41
0.003
  0
LWPOLYLINE
  5
71
100
AcDbEntity
  8
0
 62
   254
100
AcDbPolyline
 90
        2
 70
     0
 39
0.003
 10
1.929602
 20
1.252988
 40
0.003
 41
0.003
 10
1.915425
 20
1.264134
 40
0.003
 41
0.003
  0
LWPOLYLINE
  5
72
100
AcDbEntity
  8
0
 62
   254
100
AcDbPolyline
 90
        2
 70
     0
 39
0.003
 10
1.915425
 20
1.264134
 40
0.003
 41
0.003
 10
1.913449
 20
0.515126
 40
0.003
 41
0.003
  0
LWPOLYLINE
  5
73
100
AcDbEntity
  8
0
 62
   254
100
AcDbPolyline
 90
        2
 70
     0
 39
0.003
 10
1.913449
 20
0.515126
 40
0.003
 41
0.003
 10
1.927626
 20
0.50398
 40
0.003
 41
0.003
  0
LWPOLYLINE
  5
74
100
AcDbEntity
  8
0
 62
   254
100
AcDbPolyline
 90
        2
 70
     0
 39
0.003
 10
1.913449
 20
0.515126
 40
0.003
 41
0.003
 10
1.915425
 20
1.264134
 40
0.003
 41
0.003
  0
LWPOLYLINE
  5
75
100
AcDbEntity
  8
0
 62
   254
100
AcDbPolyline
 90
        2
 70
     0
 39
0.003
 10
1.915425
 20
1.264134
 40
0.003
 41
0.003
 10
1.90072
 20
1.27461
 40
0.003
 41
0.003
  0
LWPOLYLINE
  5
76
100
AcDbEntity
  8
0
 62
   254
100
AcDbPolyline
 90
        2
 70
     0
 39
0.003
 10
1.90072
 20
1.27461
 40
0.003
 41
0.003
 10
1.898744
 20
0.525602
 40
0.003
 41
0.003
  0
LWPOLYLINE
  5
77
100
AcDbEntity
  8
0
 62
   254
100
AcDbPolyline
 90
        2
 70
     0
 39
0.003
 10
1.898744
 20
0.525602
 40
0.003
 41
0.003
 10
1.913449
 20
0.515126
 40
0.003
 41
0.003
  0
LWPOLYLINE
  5
78
100
AcDbEntity
  8
0
 62
   254
100
AcDbPolyline
 90
        2
 70
     0
 39
0.003
 10
1.898744
 20
0.525602
 40
0.003
 41
0.003
 10
1.90072
 20
1.27461
 40
0.003
 41
0.003
  0
LWPOLYLINE
  5
79
100
AcDbEntity
  8
0
 62
   254
100
AcDbPolyline
 90
        2
 70
     0
 39
0.003
 10
1.90072
 20
1.27461
 40
0.003
 41
0.003
 10
1.885496
 20
1.284378
 40
0.003
 41
0.003
  0
LWPOLYLINE
  5
7A
100
AcDbEntity
  8
0
 62
   254
100
AcDbPolyline
 90
        2
 70
     0
 39
0.003
 10
1.885496
 20
1.284378
 40
0.003
 41
0.003
 10
1.88352
 20
0.53537
 40
0.003
 41
0.003
  0
LWPOLYLINE
  5
7B
100
AcDbEntity
  8
0
 62
   254
100
AcDbPolyline
 90
        2
 70
     0
 39
0.003
 10
1.88352
 20
0.53537
 40
0.003
 41
0.003
 10
1.898744
 20
0.525602
 40
0.003
 41
0.003
  0
LWPOLYLINE
  5
7C
100
AcDbEntity
  8
0
 62
   254
100
AcDbPolyline
 90
        2
 70
     0
 39
0.003
 10
1.88352
 20
0.53537
 40
0.003
 41
0.003
 10
1.885496
 20
1.284378
 40
0.003
 41
0.003
  0
LWPOLYLINE
  5
7D
100
AcDbEntity
  8
0
 62
   254
100
AcDbPolyline
 90
        2
 70
     0
 39
0.003
 10
1.885496
 20
1.284378
 40
0.003
 41
0.003
 10
1.869795
 20
1.293425
 40
0.003
 41
0.003
  0
LWPOLYLINE
  5
7E
100
AcDbEntity
  8
0
 62
   254
100
AcDbPolyline
 90
        2
 70
     0
 39
0.003
 10
1.869795
 20
1.293425
 40
0.003
 41
0.003
 10
1.867819
 20
0.544417
 40
0.003
 41
0.003
  0
LWPOLYLINE
  5
7F
100
AcDbEntity
  8
0
 62
   254
100
AcDbPolyline
 90
        2
 70
     0
 39
0.003
 10
1.867819
 20
0.544417
 40
0.003
 41
0.003
 10
1.88352
 20
0.53537
 40
0.003
 41
0.003
  0
LWPOLYLINE
  5
80
100
AcDbEntity
  8
0
 62
   254
100
AcDbPolyline
 90
        2
 70
     0
 39
0.003
 10
1.867819
 20
0.544417
 40
0.003
 41
0.003
 10
1.869795
 20
1.293425
 40
0.003
 41
0.003
  0
LWPOLYLINE
  5
81
100
AcDbEntity
  8
0
 62
   254
100
AcDbPolyline
 90
        2
 70
     0
 39
0.003
 10
1.869795
 20
1.293425
 40
0.003
 41
0.003
 10
1.85363
 20
1.301724
 40
0.003
 41
0.003
  0
LWPOLYLINE
  5
82
100
AcDbEntity
  8
0
 62
   254
100
AcDbPolyline
 90
        2
 70
     0
 39
0.003
 10
1.85363
 20
1.301724
 40
0.003
 41
0.003
 10
1.851654
 20
0.552717
 40
0.003
 41
0.003
  0
LWPOLYLINE
  5
83
100
AcDbEntity
  8
0
 62
   254
100
AcDbPolyline
 90
        2
 70
     0
 39
0.003
 10
1.851654
 20
0.552717
 40
0.003
 41
0.003
 10
1.867819
 20
0.544417
 40
0.003
 41
0.003
  0
LWPOLYLINE
  5
84
100
AcDbEntity
  8
0
 62
     9
100
AcDbPolyline
 90
        2
 70
     0
 39
0.003
 10
1.851654
 20
0.552717
 40
0.003
 41
0.003
 10
1.85363
 20
1.301724
 40
0.003
 41
0.003
  0
LWPOLYLINE
  5
85
100
AcDbEntity
  8
0
 62
     9
100
AcDbPolyline
 90
        2
 70
     0
 39
0.003
 10
1.85363
 20
1.301724
 40
0.003
 41
0.003
 10
1.837031
 20
1.309256
 40
0.003
 41
0.003
  0
LWPOLYLINE
  5
86
100
AcDbEntity
  8
0
 62
     9
100
AcDbPolyline
 90
        2
 70
     0
 39
0.003
 10
1.837031
 20
1.309256
 40
0.003
 41
0.003
 10
1.835055
 20
0.560248
 40
0.003
 41
0.003
  0
LWPOLYLINE
  5
87
100
AcDbEntity
  8
0
 62
     9
100
AcDbPolyline
 90
        2
 70
     0
 39
0.003
 10
1.835055
 20
0.560248
 40
0.003
 41
0.003
 10
1.851654
 20
0.552717
 40
0.003
 41
0.003
  0
LWPOLYLINE
  5
88
100
AcDbEntity
  8
0
 62
     9
100
AcDbPolyline
 90
        2
 70
     0
 39
0.003
 10
1.835055
 20
0.560248
 40
0.003
 41
0.003
 10
1.837031
 20
1.309256
 40
0.003
 41
0.003
  0
LWPOLYLINE
  5
89
100
AcDbEntity
  8
0
 62
     9
100
AcDbPolyline
 90
        2
 70
     0
 39
0.003
 10
1.837031
 20
1.309256
 40
0.003
 41
0.003
 10
1.820012
 20
1.31598
 40
0.003
 41
0.003
  0
LWPOLYLINE
  5
8A
100
AcDbEntity
  8
0
 62
     9
100
AcDbPolyline
 90
        2
 70
     0
 39
0.003
 10
1.820012
 20
1.31598
 40
0.003
 41
0.003
 10
1.818035
 20
0.566972
 40
0.003
 41
0.003
  0
LWPOLYLINE
  5
8B
100
AcDbEntity
  8
0
 62
     9
100
AcDbPolyline
 90
        2
 70
     0
 39
0.003
 10
1.818035
 20
0.566972
 40
0.003
 41
0.003
 10
1.835055
 20
0.560248
 40
0.003
 41
0.003
  0
LWPOLYLINE
  5
8C
100
AcDbEntity
  8
0
 62
     9
100
AcDbPolyline
 90
        2
 70
     0
 39
0.003
 10
1.818035
 20
0.566972
 40
0.003
 41
0.003
 10
1.820012
 20
1.31598
 40
0.003
 41
0.003
  0
LWPOLYLINE
  5
8D
100
AcDbEntity
  8
0
 62
     9
100
AcDbPolyline
 90
        2
 70
     0
 39
0.003
 10
1.820012
 20
1.31598
 40
0.003
 41
0.003
 10
1.802602
 20
1.321894
 40
0.003
 41
0.003
  0
LWPOLYLINE
  5
8E
100
AcDbEntity
  8
0
 62
     9
100
AcDbPolyline
 90
        2
 70
     0
 39
0.003
 10
1.802602
 20
1.321894
 40
0.003
 41
0.003
 10
1.800626
 20
0.572886
 40
0.003
 41
0.003
  0
LWPOLYLINE
  5
8F
100
AcDbEntity
  8
0
 62
     9
100
AcDbPolyline
 90
        2
 70
     0
 39
0.003
 10
1.800626
 20
0.572886
 40
0.003
 41
0.003
 10
1.818035
 20
0.566972
 40
0.003
 41
0.003
  0
LWPOLYLINE
  5
90
100
AcDbEntity
  8
0
 62
     9
100
AcDbPolyline
 90
        2
 70
     0
 39
0.003
 10
1.800626
 20
0.572886
 40
0.003
 41
0.003
 10
1.802602
 20
1.321894
 40
0.003
 41
0.003
  0
LWPOLYLINE
  5
91
100
AcDbEntity
  8
0
 62
     9
100
AcDbPolyline
 90
        2
 70
     0
 39
0.003
 10
1.802602
 20
1.321894
 40
0.003
 41
0.003
 10
1.784827
 20
1.326957
 40
0.003
 41
0.003
  0
LWPOLYLINE
  5
92
100
AcDbEntity
  8
0
 62
     9
100
AcDbPolyline
 90
        2
 70
     0
 39
0.003
 10
1.784827
 20
1.326957
 40
0.003
 41
0.003
 10
1.78285
 20
0.577949
 40
0.003
 41
0.003
  0
LWPOLYLINE
  5
93
100
AcDbEntity
  8
0
 62
     9
100
AcDbPolyline
 90
        2
 70
     0
 39
0.003
 10
1.78285
 20
0.577949
 40
0.003
 41
0.003
 10
1.800626
 20
0.572886
 40
0.003
 41
0.003
  0
LWPOLYLINE
  5
94
100
AcDbEntity
  8
0
 62
     9
100
AcDbPolyline
 90
        2
 70
     0
 39
0.003
 10
1.78285
 20
0.577949
 40
0.003
 41
0.003
 10
1.784827
 20
1.326957
 40
0.003
 41
0.003
  0
LWPOLYLINE
  5
95
100
AcDbEntity
  8
0
 62
     9
100
AcDbPolyline
 90
        2
 70
     0
 39
0.003
 10
1.784827
 20
1.326957
 40
0.003
 41
0.003
 10
1.766717
 20
1.331161
 40
0.003
 41
0.003
  0
LWPOLYLINE
  5
96
100
AcDbEntity
  8
0
 62
     9
100
AcDbPolyline
 90
        2
 70
     0
 39
0.003
 10
1.766717
 20
1.331161
 40
0.003
 41
0.003
 10
1.76474
 20
0.582154
 40
0.003
 41
0.003
  0
LWPOLYLINE
  5
97
100
AcDbEntity
  8
0
 62
     9
100
AcDbPolyline
 90
        2
 70
     0
 39
0.003
 10
1.76474
 20
0.582154
 40
0.003
 41
0.003
 10
1.78285
 20
0.577949
 40
0.003
 41
0.003
  0
LWPOLYLINE
  5
98
100
AcDbEntity
  8
0
 62
     9
100
AcDbPolyline
 90
        2
 70
     0
 39
0.003
 10
1.76474
 20
0.582154
 40
0.003
 41
0.003
 10
1.766717
 20
1.331161
 40
0.003
 41
0.003
  0
LWPOLYLINE
  5
99
100
AcDbEntity
  8
0
 62
     9
100
AcDbPolyline
 90
        2
 70
     0
 39
0.003
 10
1.766717
 20
1.331161
 40
0.003
 41
0.003
 10
1.748276
 20
1.334465
 40
0.003
 41
0.003
  0
LWPOLYLINE
  5
9A
100
AcDbEntity
  8
0
 62
     9
100
AcDbPolyline
 90
        2
 70
     0
 39
0.003
 10
1.748276
 20
1.334465
 40
0.003
 41
0.003
 10
1.746299
 20
0.585457
 40
0.003
 41
0.003
  0
LWPOLYLINE
  5
9B
100
AcDbEntity
  8
0
 62
     9
100
AcDbPolyline
 90
        2
 70
     0
 39
0.003
 10
1.746299
 20
0.585457
 40
0.003
 41
0.003
 10
1.76474
 20
0.582154
 40
0.003
 41
0.003
  0
LWPOLYLINE
  5
9C
100
AcDbEntity
  8
0
 62
     9
100
AcDbPolyline
 90
        2
 70
     0
 39
0.003
 10
1.746299
 20
0.585457
 40
0.003
 41
0.003
 10
1.748276
 20
1.334465
 40
0.003
 41
0.003
  0
LWPOLYLINE
  5
9D
100
AcDbEntity
  8
0
 62
     9
100
AcDbPolyline
 90
        2
 70
     0
 39
0.003
 10
1.748276
 20
1.334465
 40
0.003
 41
0.003
 10
1.729551
 20
1.336858
 40
0.003
 41
0.003
  0
LWPOLYLINE
  5
9E
100
AcDbEntity
  8
0
 62
     9
100
AcDbPolyline
 90
        2
 70
     0
 39
0.003
 10
1.729551
 20
1.336858
 40
0.003
 41
0.003
 10
1.727575
 20
0.58785
 40
0.003
 41
0.003
  0
LWPOLYLINE
  5
9F
100
AcDbEntity
  8
0
 62
     9
100
AcDbPolyline
 90
        2
 70
     0
 39
0.003
 10
1.727575
 20
0.58785
 40
0.003
 41
0.003
 10
1.746299
 20
0.585457
 40
0.003
 41
0.003
  0
LWPOLYLINE
  5
A0
100
AcDbEntity
  8
0
 62
     9
100
AcDbPolyline
 90
        2
 70
     0
 39
0.003
 10
1.727575
 20
0.58785
 40
0.003
 41
0.003
 10
1.729551
 20
1.336858
 40
0.003
 41
0.003
  0
LWPOLYLINE
  5
A1
100
AcDbEntity
  8
0
 62
     9
100
AcDbPolyline
 90
        2
 70
     0
 39
0.003
 10
1.729551
 20
1.336858
 40
0.003
 41
0.003
 10
1.710547
 20
1.338315
 40
0.003
 41
0.003
  0
LWPOLYLINE
  5
A2
100
AcDbEntity
  8
0
 62
     9
100
AcDbPolyline
 90
        2
 70
     0
 39
0.003
 10
1.710547
 20
1.338315
 40
0.003
 41
0.003
 10
1.708571
 20
0.589307
 40
0.003
 41
0.003
  0
LWPOLYLINE
  5
A3
100
AcDbEntity
  8
0
 62
     9
100
AcDbPolyline
 90
        2
 70
     0
 39
0.003
 10
1.708571
 20
0.589307
 40
0.003
 41
0.003
 10
1.727575
 20
0.58785
 40
0.003
 41
0.003
  0
LWPOLYLINE
  5
A4
100
AcDbEntity
  8
0
 62
     9
100
AcDbPolyline
 90
        2
 70
     0
 39
0.003
 10
1.708571
 20
0.589307
 40
0.003
 41
0.003
 10
1.710547
 20
1.338315
 40
0.003
 41
0.003
  0
LWPOLYLINE
  5
A5
100
AcDbEntity
  8
0
 62
     9
100
AcDbPolyline
 90
        2
 70
     0
 39
0.003
 10
1.710547
 20
1.338315
 40
0.003
 41
0.003
 10
1.691307
 20
1.338807
 40
0.003
 41
0.003
  0
LWPOLYLINE
  5
A6
100
AcDbEntity
  8
0
 62
     9
100
AcDbPolyline
 90
        2
 70
     0
 39
0.003
 10
1.691307
 20
1.338807
 40
0.003
 41
0.003
 10
1.689331
 20
0.589799
 40
0.003
 41
0.003
  0
LWPOLYLINE
  5
A7
100
AcDbEntity
  8
0
 62
     9
100
AcDbPolyline
 90
        2
 70
     0
 39
0.003
 10
1.689331
 20
0.589799
 40
0.003
 41
0.003
 10
1.708571
 20
0.589307
 40
0.003
 41
0.003
  0
LWPOLYLINE
  5
A8
100
AcDbEntity
  8
0
 62
     0
100
AcDbPolyline
 90
        2
 70
     0
 39
0.003
 10
2.062382
 20
0.253043
 40
0.003
 41
0.003
 10
2.064358
 20
1.002051
 40
0.003
 41
0.003
  0
LWPOLYLINE
  5
A9
100
AcDbEntity
  8
0
 62
     0
100
AcDbPolyline
 90
        2
 70
     0
 39
0.003
 10
2.064358
 20
1.002051
 40
0.003
 41
0.003
 10
2.061965
 20
1.020776
 40
0.003
 41
0.003
  0
LWPOLYLINE
  5
AA
100
AcDbEntity
  8
0
 62
     0
100
AcDbPolyline
 90
        2
 70
     0
 39
0.003
 10
2.061965
 20
1.020776
 40
0.003
 41
0.003
 10
2.058661
 20
1.039217
 40
0.003
 41
0.003
  0
LWPOLYLINE
  5
AB
100
AcDbEntity
  8
0
 62
     0
100
AcDbPolyline
 90
        2
 70
     0
 39
0.003
 10
2.058661
 20
1.039217
 40
0.003
 41
0.003
 10
2.054457
 20
1.057327
 40
0.003
 41
0.003
  0
LWPOLYLINE
  5
AC
100
AcDbEntity
  8
0
 62
     0
100
AcDbPolyline
 90
        2
 70
     0
 39
0.003
 10
2.054457
 20
1.057327
 40
0.003
 41
0.003
 10
2.049394
 20
1.075102
 40
0.003
 41
0.003
  0
LWPOLYLINE
  5
AD
100
AcDbEntity
  8
0
 62
     0
100
AcDbPolyline
 90
        2
 70
     0
 39
0.003
 10
2.049394
 20
1.075102
 40
0.003
 41
0.003
 10
2.04348
 20
1.092512
 40
0.003
 41
0.003
  0
LWPOLYLINE
  5
AE
100
AcDbEntity
  8
0
 62
     0
100
AcDbPolyline
 90
        2
 70
     0
 39
0.003
 10
2.04348
 20
1.092512
 40
0.003
 41
0.003
 10
2.036756
 20
1.109531
 40
0.003
 41
0.003
  0
LWPOLYLINE
  5
AF
100
AcDbEntity
  8
0
 62
     0
100
AcDbPolyline
 90
        2
 70
     0
 39
0.003
 10
2.036756
 20
1.109531
 40
0.003
 41
0.003
 10
2.029224
 20
1.12613
 40
0.003
 41
0.003
  0
LWPOLYLINE
  5
B0
100
AcDbEntity
  8
0
 62
     0
100
AcDbPolyline
 90
        2
 70
     0
 39
0.003
 10
2.029224
 20
1.12613
 40
0.003
 41
0.003
 10
2.020925
 20
1.142295
 40
0.003
 41
0.003
  0
LWPOLYLINE
  5
B1
100
AcDbEntity
  8
0
 62
     0
100
AcDbPolyline
 90
        2
 70
     0
 39
0.003
 10
2.020925
 20
1.142295
 40
0.003
 41
0.003
 10
2.011878
 20
1.157996
 40
0.003
 41
0.003
  0
LWPOLYLINE
  5
B2
100
AcDbEntity
  8
0
 62
     0
100
AcDbPolyline
 90
        2
 70
     0
 39
0.003
 10
2.011878
 20
1.157996
 40
0.003
 41
0.003
 10
2.00211
 20
1.17322
 40
0.003
 41
0.003
  0
LWPOLYLINE
  5
B3
100
AcDbEntity
  8
0
 62
     0
100
AcDbPolyline
 90
        2
 70
     0
 39
0.003
 10
2.00211
 20
1.17322
 40
0.003
 41
0.003
 10
1.991634
 20
1.187925
 40
0.003
 41
0.003
  0
LWPOLYLINE
  5
B4
100
AcDbEntity
  8
0
 62
     0
100
AcDbPolyline
 90
        2
 70
     0
 39
0.003
 10
1.991634
 20
1.187925
 40
0.003
 41
0.003
 10
1.980488
 20
1.202102
 40
0.003
 41
0.003
  0
LWPOLYLINE
  5
B5
100
AcDbEntity
  8
0
 62
     0
100
AcDbPolyline
 90
        2
 70
     0
 39
0.003
 10
1.980488
 20
1.202102
 40
0.003
 41
0.003
 10
1.968685
 20
1.21572
 40
0.003
 41
0.003
  0
LWPOLYLINE
  5
B6
100
AcDbEntity
  8
0
 62
     0
100
AcDbPolyline
 90
        2
 70
     0
 39
0.003
 10
1.968685
 20
1.21572
 40
0.003
 41
0.003
 10
1.95626
 20
1.22876
 40
0.003
 41
0.003
  0
LWPOLYLINE
  5
B7
100
AcDbEntity
  8
0
 62
     0
100
AcDbPolyline
 90
        2
 70
     0
 39
0.003
 10
1.95626
 20
1.22876
 40
0.003
 41
0.003
 10
1.94322
 20
1.241185
 40
0.003
 41
0.003
  0
LWPOLYLINE
  5
B8
100
AcDbEntity
  8
0
 62
     0
100
AcDbPolyline
 90
        2
 70
     0
 39
0.003
 10
1.94322
 20
1.241185
 40
0.003
 41
0.003
 10
1.929602
 20
1.252988
 40
0.003
 41
0.003
  0
LWPOLYLINE
  5
B9
100
AcDbEntity
  8
0
 62
     0
100
AcDbPolyline
 90
        2
 70
     0
 39
0.003
 10
1.929602
 20
1.252988
 40
0.003
 41
0.003
 10
1.915425
 20
1.264134
 40
0.003
 41
0.003
  0
LWPOLYLINE
  5
BA
100
AcDbEntity
  8
0
 62
     0
100
AcDbPolyline
 90
        2
 70
     0
 39
0.003
 10
1.915425
 20
1.264134
 40
0.003
 41
0.003
 10
1.90072
 20
1.27461
 40
0.003
 41
0.003
  0
LWPOLYLINE
  5
BB
100
AcDbEntity
  8
0
 62
     0
100
AcDbPolyline
 90
        2
 70
     0
 39
0.003
 10
1.90072
 20
1.27461
 40
0.003
 41
0.003
 10
1.885496
 20
1.284378
 40
0.003
 41
0.003
  0
LWPOLYLINE
  5
BC
100
AcDbEntity
  8
0
 62
     0
100
AcDbPolyline
 90
        2
 70
     0
 39
0.003
 10
1.885496
 20
1.284378
 40
0.003
 41
0.003
 10
1.869795
 20
1.293425
 40
0.003
 41
0.003
  0
LWPOLYLINE
  5
BD
100
AcDbEntity
  8
0
 62
     0
100
AcDbPolyline
 90
        2
 70
     0
 39
0.003
 10
1.869795
 20
1.293425
 40
0.003
 41
0.003
 10
1.85363
 20
1.301724
 40
0.003
 41
0.003
  0
LWPOLYLINE
  5
BE
100
AcDbEntity
  8
0
 62
     0
100
AcDbPolyline
 90
        2
 70
     0
 39
0.003
 10
1.85363
 20
1.301724
 40
0.003
 41
0.003
 10
1.837031
 20
1.309256
 40
0.003
 41
0.003
  0
LWPOLYLINE
  5
BF
100
AcDbEntity
  8
0
 62
     0
100
AcDbPolyline
 90
        2
 70
     0
 39
0.003
 10
1.837031
 20
1.309256
 40
0.003
 41
0.003
 10
1.820012
 20
1.31598
 40
0.003
 41
0.003
  0
LWPOLYLINE
  5
C0
100
AcDbEntity
  8
0
 62
     0
100
AcDbPolyline
 90
        2
 70
     0
 39
0.003
 10
1.820012
 20
1.31598
 40
0.003
 41
0.003
 10
1.802602
 20
1.321894
 40
0.003
 41
0.003
  0
LWPOLYLINE
  5
C1
100
AcDbEntity
  8
0
 62
     0
100
AcDbPolyline
 90
        2
 70
     0
 39
0.003
 10
1.802602
 20
1.321894
 40
0.003
 41
0.003
 10
1.784827
 20
1.326957
 40
0.003
 41
0.003
  0
LWPOLYLINE
  5
C2
100
AcDbEntity
  8
0
 62
     0
100
AcDbPolyline
 90
        2
 70
     0
 39
0.003
 10
1.784827
 20
1.326957
 40
0.003
 41
0.003
 10
1.766717
 20
1.331161
 40
0.003
 41
0.003
  0
LWPOLYLINE
  5
C3
100
AcDbEntity
  8
0
 62
     0
100
AcDbPolyline
 90
        2
 70
     0
 39
0.003
 10
1.766717
 20
1.331161
 40
0.003
 41
0.003
 10
1.748276
 20
1.334465
 40
0.003
 41
0.003
  0
LWPOLYLINE
  5
C4
100
AcDbEntity
  8
0
 62
     0
100
AcDbPolyline
 90
        2
 70
     0
 39
0.003
 10
1.748276
 20
1.334465
 40
0.003
 41
0.003
 10
1.729551
 20
1.336858
 40
0.003
 41
0.003
  0
LWPOLYLINE
  5
C5
100
AcDbEntity
  8
0
 62
     0
100
AcDbPolyline
 90
        2
 70
     0
 39
0.003
 10
1.729551
 20
1.336858
 40
0.003
 41
0.003
 10
1.710547
 20
1.338315
 40
0.003
 41
0.003
  0
LWPOLYLINE
  5
C6
100
AcDbEntity
  8
0
 62
     0
100
AcDbPolyline
 90
        2
 70
     0
 39
0.003
 10
1.710547
 20
1.338315
 40
0.003
 41
0.003
 10
1.691307
 20
1.338807
 40
0.003
 41
0.003
  0
LWPOLYLINE
  5
C7
100
AcDbEntity
  8
0
 62
     0
100
AcDbPolyline
 90
        2
 70
     0
 39
0.003
 10
1.691307
 20
1.338807
 40
0.003
 41
0.003
 10
1.689331
 20
0.589799
 40
0.003
 41
0.003
  0
LWPOLYLINE
  5
C8
100
AcDbEntity
  8
0
 62
     0
100
AcDbPolyline
 90
        2
 70
     0
 39
0.003
 10
1.689331
 20
0.589799
 40
0.003
 41
0.003
 10
1.708571
 20
0.589307
 40
0.003
 41
0.003
  0
LWPOLYLINE
  5
C9
100
AcDbEntity
  8
0
 62
     0
100
AcDbPolyline
 90
        2
 70
     0
 39
0.003
 10
1.708571
 20
0.589307
 40
0.003
 41
0.003
 10
1.727575
 20
0.58785
 40
0.003
 41
0.003
  0
LWPOLYLINE
  5
CA
100
AcDbEntity
  8
0
 62
     0
100
AcDbPolyline
 90
        2
 70
     0
 39
0.003
 10
1.727575
 20
0.58785
 40
0.003
 41
0.003
 10
1.746299
 20
0.585457
 40
0.003
 41
0.003
  0
LWPOLYLINE
  5
CB
100
AcDbEntity
  8
0
 62
     0
100
AcDbPolyline
 90
        2
 70
     0
 39
0.003
 10
1.746299
 20
0.585457
 40
0.003
 41
0.003
 10
1.76474
 20
0.582154
 40
0.003
 41
0.003
  0
LWPOLYLINE
  5
CC
100
AcDbEntity
  8
0
 62
     0
100
AcDbPolyline
 90
        2
 70
     0
 39
0.003
 10
1.76474
 20
0.582154
 40
0.003
 41
0.003
 10
1.78285
 20
0.577949
 40
0.003
 41
0.003
  0
LWPOLYLINE
  5
CD
100
AcDbEntity
  8
0
 62
     0
100
AcDbPolyline
 90
        2
 70
     0
 39
0.003
 10
1.78285
 20
0.577949
 40
0.003
 41
0.003
 10
1.800626
 20
0.572886
 40
0.003
 41
0.003
  0
LWPOLYLINE
  5
CE
100
AcDbEntity
  8
0
 62
     0
100
AcDbPolyline
 90
        2
 70
     0
 39
0.003
 10
1.800626
 20
0.572886
 40
0.003
 41
0.003
 10
1.818035
 20
0.566972
 40
0.003
 41
0.003
  0
LWPOLYLINE
  5
CF
100
AcDbEntity
  8
0
 62
     0
100
AcDbPolyline
 90
        2
 70
     0
 39
0.003
 10
1.818035
 20
0.566972
 40
0.003
 41
0.003
 10
1.835055
 20
0.560248
 40
0.003
 41
0.003
  0
LWPOLYLINE
  5
D0
100
AcDbEntity
  8
0
 62
     0
100
AcDbPolyline
 90
        2
 70
     0
 39
0.003
 10
1.835055
 20
0.560248
 40
0.003
 41
0.003
 10
1.851654
 20
0.552717
 40
0.003
 41
0.003
  0
LWPOLYLINE
  5
D1
100
AcDbEntity
  8
0
 62
     0
100
AcDbPolyline
 90
        2
 70
     0
 39
0.003
 10
1.851654
 20
0.552717
 40
0.003
 41
0.003
 10
1.867819
 20
0.544417
 40
0.003
 41
0.003
  0
LWPOLYLINE
  5
D2
100
AcDbEntity
  8
0
 62
     0
100
AcDbPolyline
 90
        2
 70
     0
 39
0.003
 10
1.867819
 20
0.544417
 40
0.003
 41
0.003
 10
1.88352
 20
0.53537
 40
0.003
 41
0.003
  0
LWPOLYLINE
  5
D3
100
AcDbEntity
  8
0
 62
     0
100
AcDbPolyline
 90
        2
 70
     0
 39
0.003
 10
1.88352
 20
0.53537
 40
0.003
 41
0.003
 10
1.898744
 20
0.525602
 40
0.003
 41
0.003
  0
LWPOLYLINE
  5
D4
100
AcDbEntity
  8
0
 62
     0
100
AcDbPolyline
 90
        2
 70
     0
 39
0.003
 10
1.898744
 20
0.525602
 40
0.003
 41
0.003
 10
1.913449
 20
0.515126
 40
0.003
 41
0.003
  0
LWPOLYLINE
  5
D5
100
AcDbEntity
  8
0
 62
     0
100
AcDbPolyline
 90
        2
 70
     0
 39
0.003
 10
1.913449
 20
0.515126
 40
0.003
 41
0.003
 10
1.927626
 20
0.50398
 40
0.003
 41
0.003
  0
LWPOLYLINE
  5
D6
100
AcDbEntity
  8
0
 62
     0
100
AcDbPolyline
 90
        2
 70
     0
 39
0.003
 10
1.927626
 20
0.50398
 40
0.003
 41
0.003
 10
1.941244
 20
0.492177
 40
0.003
 41
0.003
  0
LWPOLYLINE
  5
D7
100
AcDbEntity
  8
0
 62
     0
100
AcDbPolyline
 90
        2
 70
     0
 39
0.003
 10
1.941244
 20
0.492177
 40
0.003
 41
0.003
 10
1.954283
 20
0.479752
 40
0.003
 41
0.003
  0
LWPOLYLINE
  5
D8
100
AcDbEntity
  8
0
 62
     0
100
AcDbPolyline
 90
        2
 70
     0
 39
0.003
 10
1.954283
 20
0.479752
 40
0.003
 41
0.003
 10
1.966709
 20
0.466713
 40
0.003
 41
0.003
  0
LWPOLYLINE
  5
D9
100
AcDbEntity
  8
0
 62
     0
100
AcDbPolyline
 90
        2
 70
     0
 39
0.003
 10
1.966709
 20
0.466713
 40
0.003
 41
0.003
 10
1.978512
 20
0.453094
 40
0.003
 41
0.003
  0
LWPOLYLINE
  5
DA
100
AcDbEntity
  8
0
 62
     0
100
AcDbPolyline
 90
        2
 70
     0
 39
0.003
 10
1.978512
 20
0.453094
 40
0.003
 41
0.003
 10
1.989657
 20
0.438917
 40
0.003
 41
0.003
  0
LWPOLYLINE
  5
DB
100
AcDbEntity
  8
0
 62
     0
100
AcDbPolyline
 90
        2
 70
     0
 39
0.003
 10
1.989657
 20
0.438917
 40
0.003
 41
0.003
 10
2.000134
 20
0.424213
 40
0.003
 41
0.003
  0
LWPOLYLINE
  5
DC
100
AcDbEntity
  8
0
 62
     0
100
AcDbPolyline
 90
        2
 70
     0
 39
0.003
 10
2.000134
 20
0.424213
 40
0.003
 41
0.003
 10
2.009902
 20
0.408988
 40
0.003
 41
0.003
  0
LWPOLYLINE
  5
DD
100
AcDbEntity
  8
0
 62
     0
100
AcDbPolyline
 90
        2
 70
     0
 39
0.003
 10
2.009902
 20
0.408988
 40
0.003
 41
0.003
 10
2.018949
 20
0.393287
 40
0.003
 41
0.003
  0
LWPOLYLINE
  5
DE
100
AcDbEntity
  8
0
 62
     0
100
AcDbPolyline
 90
        2
 70
     0
 39
0.003
 10
2.018949
 20
0.393287
 40
0.003
 41
0.003
 10
2.027248
 20
0.377122
 40
0.003
 41
0.003
  0
LWPOLYLINE
  5
DF
100
AcDbEntity
  8
0
 62
     0
100
AcDbPolyline
 90
        2
 70
     0
 39
0.003
 10
2.027248
 20
0.377122
 40
0.003
 41
0.003
 10
2.03478
 20
0.360524
 40
0.003
 41
0.003
  0
LWPOLYLINE
  5
E0
100
AcDbEntity
  8
0
 62
     0
100
AcDbPolyline
 90
        2
 70
     0
 39
0.003
 10
2.03478
 20
0.360524
 40
0.003
 41
0.003
 10
2.041504
 20
0.343504
 40
0.003
 41
0.003
  0
LWPOLYLINE
  5
E1
100
AcDbEntity
  8
0
 62
     0
100
AcDbPolyline
 90
        2
 70
     0
 39
0.003
 10
2.041504
 20
0.343504
 40
0.003
 41
0.003
 10
2.047417
 20
0.326094
 40
0.003
 41
0.003
  0
LWPOLYLINE
  5
E2
100
AcDbEntity
  8
0
 62
     0
100
AcDbPolyline
 90
        2
 70
     0
 39
0.003
 10
2.047417
 20
0.326094
 40
0.003
 41
0.003
 10
2.05248
 20
0.308319
 40
0.003
 41
0.003
  0
LWPOLYLINE
  5
E3
100
AcDbEntity
  8
0
 62
     0
100
AcDbPolyline
 90
        2
 70
     0
 39
0.003
 10
2.05248
 20
0.308319
 40
0.003
 41
0.003
 10
2.056685
 20
0.290209
 40
0.003
 41
0.003
  0
LWPOLYLINE
  5
E4
100
AcDbEntity
  8
0
 62
     0
100
AcDbPolyline
 90
        2
 70
     0
 39
0.003
 10
2.056685
 20
0.290209
 40
0.003
 41
0.003
 10
2.059988
 20
0.271768
 40
0.003
 41
0.003
  0
LWPOLYLINE
  5
E5
100
AcDbEntity
  8
0
 62
     0
100
AcDbPolyline
 90
        2
 70
     0
 39
0.003
 10
2.059988
 20
0.271768
 40
0.003
 41
0.003
 10
2.062382
 20
0.253043
 40
0.003
 41
0.003
  0
LWPOLYLINE
  5
E6
100
AcDbEntity
  8
0
 62
     9
100
AcDbPolyline
 90
        2
 70
     0
 39
0.003
 10
1.68002
 20
0.736051
 40
0.003
 41
0.003
 10
1.681996
 20
1.485059
 40
0.003
 41
0.003
  0
LWPOLYLINE
  5
E7
100
AcDbEntity
  8
0
 62
     9
100
AcDbPolyline
 90
        2
 70
     0
 39
0.003
 10
1.681996
 20
1.485059
 40
0.003
 41
0.003
 10
0.337689
 20
1.485059
 40
0.003
 41
0.003
  0
LWPOLYLINE
  5
E8
100
AcDbEntity
  8
0
 62
     9
100
AcDbPolyline
 90
        2
 70
     0
 39
0.003
 10
0.337689
 20
1.485059
 40
0.003
 41
0.003
 10
0.335713
 20
0.736051
 40
0.003
 41
0.003
  0
LWPOLYLINE
  5
E9
100
AcDbEntity
  8
0
 62
     9
100
AcDbPolyline
 90
        2
 70
     0
 39
0.003
 10
0.335713
 20
0.736051
 40
0.003
 41
0.003
 10
1.68002
 20
0.736051
 40
0.003
 41
0.003
  0
LWPOLYLINE
  5
EA
100
AcDbEntity
  8
0
 62
     0
100
AcDbPolyline
 90
        2
 70
     0
 39
0.003
 10
1.68002
 20
0.736051
 40
0.003
 41
0.003
 10
1.681996
 20
1.485059
 40
0.003
 41
0.003
  0
LWPOLYLINE
  5
EB
100
AcDbEntity
  8
0
 62
     0
100
AcDbPolyline
 90
        2
 70
     0
 39
0.003
 10
1.681996
 20
1.485059
 40
0.003
 41
0.003
 10
0.337689
 20
1.485059
 40
0.003
 41
0.003
  0
LWPOLYLINE
  5
EC
100
AcDbEntity
  8
0
 62
     0
100
AcDbPolyline
 90
        2
 70
     0
 39
0.003
 10
0.337689
 20
1.485059
 40
0.003
 41
0.003
 10
0.335713
 20
0.736051
 40
0.003
 41
0.003
  0
LWPOLYLINE
  5
ED
100
AcDbEntity
  8
0
 62
     0
100
AcDbPolyline
 90
        2
 70
     0
 39
0.003
 10
0.335713
 20
0.736051
 40
0.003
 41
0.003
 10
1.68002
 20
0.736051
 40
0.003
 41
0.003
  0
LWPOLYLINE
  5
EE
100
AcDbEntity
  8
0
 62
   254
100
AcDbPolyline
 90
        2
 70
     0
 39
0.003
 10
0.335713
 20
0.736051
 40
0.003
 41
0.003
 10
0.337689
 20
1.485059
 40
0.003
 41
0.003
  0
LWPOLYLINE
  5
EF
100
AcDbEntity
  8
0
 62
   254
100
AcDbPolyline
 90
        2
 70
     0
 39
0.003
 10
0.337689
 20
1.485059
 40
0.003
 41
0.003
 10
0.330945
 20
1.517697
 40
0.003
 41
0.003
  0
LWPOLYLINE
  5
F0
100
AcDbEntity
  8
0
 62
   254
100
AcDbPolyline
 90
        2
 70
     0
 39
0.003
 10
0.330945
 20
1.517697
 40
0.003
 41
0.003
 10
0.328969
 20
0.768689
 40
0.003
 41
0.003
  0
LWPOLYLINE
  5
F1
100
AcDbEntity
  8
0
 62
   254
100
AcDbPolyline
 90
        2
 70
     0
 39
0.003
 10
0.328969
 20
0.768689
 40
0.003
 41
0.003
 10
0.335713
 20
0.736051
 40
0.003
 41
0.003
  0
LWPOLYLINE
  5
F2
100
AcDbEntity
  8
0
 62
   254
100
AcDbPolyline
 90
        2
 70
     0
 39
0.003
 10
0.328969
 20
0.768689
 40
0.003
 41
0.003
 10
0.330945
 20
1.517697
 40
0.003
 41
0.003
  0
LWPOLYLINE
  5
F3
100
AcDbEntity
  8
0
 62
   254
100
AcDbPolyline
 90
        2
 70
     0
 39
0.003
 10
0.330945
 20
1.517697
 40
0.003
 41
0.003
 10
0.322858
 20
1.547583
 40
0.003
 41
0.003
  0
LWPOLYLINE
  5
F4
100
AcDbEntity
  8
0
 62
   254
100
AcDbPolyline
 90
        2
 70
     0
 39
0.003
 10
0.322858
 20
1.547583
 40
0.003
 41
0.003
 10
0.320882
 20
0.798575
 40
0.003
 41
0.003
  0
LWPOLYLINE
  5
F5
100
AcDbEntity
  8
0
 62
   254
100
AcDbPolyline
 90
        2
 70
     0
 39
0.003
 10
0.320882
 20
0.798575
 40
0.003
 41
0.003
 10
0.328969
 20
0.768689
 40
0.003
 41
0.003
  0
LWPOLYLINE
  5
F6
100
AcDbEntity
  8
0
 62
   254
100
AcDbPolyline
 90
        2
 70
     0
 39
0.003
 10
0.320882
 20
0.798575
 40
0.003
 41
0.003
 10
0.322858
 20
1.547583
 40
0.003
 41
0.003
  0
LWPOLYLINE
  5
F7
100
AcDbEntity
  8
0
 62
   254
100
AcDbPolyline
 90
        2
 70
     0
 39
0.003
 10
0.322858
 20
1.547583
 40
0.003
 41
0.003
 10
0.313508
 20
1.574791
 40
0.003
 41
0.003
  0
LWPOLYLINE
  5
F8
100
AcDbEntity
  8
0
 62
   254
100
AcDbPolyline
 90
        2
 70
     0
 39
0.003
 10
0.313508
 20
1.574791
 40
0.003
 41
0.003
 10
0.311531
 20
0.825783
 40
0.003
 41
0.003
  0
LWPOLYLINE
  5
F9
100
AcDbEntity
  8
0
 62
   254
100
AcDbPolyline
 90
        2
 70
     0
 39
0.003
 10
0.311531
 20
0.825783
 40
0.003
 41
0.003
 10
0.320882
 20
0.798575
 40
0.003
 41
0.003
  0
LWPOLYLINE
  5
FA
100
AcDbEntity
  8
0
 62
   254
100
AcDbPolyline
 90
        2
 70
     0
 39
0.003
 10
0.311531
 20
0.825783
 40
0.003
 41
0.003
 10
0.313508
 20
1.574791
 40
0.003
 41
0.003
  0
LWPOLYLINE
  5
FB
100
AcDbEntity
  8
0
 62
   254
100
AcDbPolyline
 90
        2
 70
     0
 39
0.003
 10
0.313508
 20
1.574791
 40
0.003
 41
0.003
 10
0.303012
 20
1.599417
 40
0.003
 41
0.003
  0
LWPOLYLINE
  5
FC
100
AcDbEntity
  8
0
 62
   254
100
AcDbPolyline
 90
        2
 70
     0
 39
0.003
 10
0.303012
 20
1.599417
 40
0.003
 41
0.003
 10
0.301035
 20
0.850409
 40
0.003
 41
0.003
  0
LWPOLYLINE
  5
FD
100
AcDbEntity
  8
0
 62
   254
100
AcDbPolyline
 90
        2
 70
     0
 39
0.003
 10
0.301035
 20
0.850409
 40
0.003
 41
0.003
 10
0.311531
 20
0.825783
 40
0.003
 41
0.003
  0
LWPOLYLINE
  5
FE
100
AcDbEntity
  8
0
 62
   254
100
AcDbPolyline
 90
        2
 70
     0
 39
0.003
 10
0.301035
 20
0.850409
 40
0.003
 41
0.003
 10
0.303012
 20
1.599417
 40
0.003
 41
0.003
  0
LWPOLYLINE
  5
FF
100
AcDbEntity
  8
0
 62
   254
100
AcDbPolyline
 90
        2
 70
     0
 39
0.003
 10
0.303012
 20
1.599417
 40
0.003
 41
0.003
 10
0.291441
 20
1.621528
 40
0.003
 41
0.003
  0
LWPOLYLINE
  5
100
100
AcDbEntity
  8
0
 62
   254
100
AcDbPolyline
 90
        2
 70
     0
 39
0.003
 10
0.291441
 20
1.621528
 40
0.003
 41
0.003
 10
0.289465
 20
0.87252
 40
0.003
 41
0.003
  0
LWPOLYLINE
  5
101
100
AcDbEntity
  8
0
 62
   254
100
AcDbPolyline
 90
        2
 70
     0
 39
0.003
 10
0.289465
 20
0.87252
 40
0.003
 41
0.003
 10
0.301035
 20
0.850409
 40
0.003
 41
0.003
  0
LWPOLYLINE
  5
102
100
AcDbEntity
  8
0
 62
   254
100
AcDbPolyline
 90
        2
 70
     0
 39
0.003
 10
0.289465
 20
0.87252
 40
0.003
 41
0.003
 10
0.291441
 20
1.621528
 40
0.003
 41
0.003
  0
LWPOLYLINE
  5
103
100
AcDbEntity
  8
0
 62
   254
100
AcDbPolyline
 90
        2
 70
     0
 39
0.003
 10
0.291441
 20
1.621528
 40
0.003
 41
0.003
 10
0.278906
 20
1.641217
 40
0.003
 41
0.003
  0
LWPOLYLINE
  5
104
100
AcDbEntity
  8
0
 62
   254
100
AcDbPolyline
 90
        2
 70
     0
 39
0.003
 10
0.278906
 20
1.641217
 40
0.003
 41
0.003
 10
0.276929
 20
0.892209
 40
0.003
 41
0.003
  0
LWPOLYLINE
  5
105
100
AcDbEntity
  8
0
 62
   254
100
AcDbPolyline
 90
        2
 70
     0
 39
0.003
 10
0.276929
 20
0.892209
 40
0.003
 41
0.003
 10
0.289465
 20
0.87252
 40
0.003
 41
0.003
  0
LWPOLYLINE
  5
106
100
AcDbEntity
  8
0
 62
   254
100
AcDbPolyline
 90
        2
 70
     0
 39
0.003
 10
0.276929
 20
0.892209
 40
0.003
 41
0.003
 10
0.278906
 20
1.641217
 40
0.003
 41
0.003
  0
LWPOLYLINE
  5
107
100
AcDbEntity
  8
0
 62
   254
100
AcDbPolyline
 90
        2
 70
     0
 39
0.003
 10
0.278906
 20
1.641217
 40
0.003
 41
0.003
 10
0.265492
 20
1.658555
 40
0.003
 41
0.003
  0
LWPOLYLINE
  5
108
100
AcDbEntity
  8
0
 62
   254
100
AcDbPolyline
 90
        2
 70
     0
 39
0.003
 10
0.265492
 20
1.658555
 40
0.003
 41
0.003
 10
0.263516
 20
0.909547
 40
0.003
 41
0.003
  0
LWPOLYLINE
  5
109
100
AcDbEntity
  8
0
 62
   254
100
AcDbPolyline
 90
        2
 70
     0
 39
0.003
 10
0.263516
 20
0.909547
 40
0.003
 41
0.003
 10
0.276929
 20
0.892209
 40
0.003
 41
0.003
  0
LWPOLYLINE
  5
10A
100
AcDbEntity
  8
0
 62
   254
100
AcDbPolyline
 90
        2
 70
     0
 39
0.003
 10
0.263516
 20
0.909547
 40
0.003
 41
0.003
 10
0.265492
 20
1.658555
 40
0.003
 41
0.003
  0
LWPOLYLINE
  5
10B
100
AcDbEntity
  8
0
 62
   254
100
AcDbPolyline
 90
        2
 70
     0
 39
0.003
 10
0.265492
 20
1.658555
 40
0.003
 41
0.003
 10
0.251311
 20
1.673642
 40
0.003
 41
0.003
  0
LWPOLYLINE
  5
10C
100
AcDbEntity
  8
0
 62
   254
100
AcDbPolyline
 90
        2
 70
     0
 39
0.003
 10
0.251311
 20
1.673642
 40
0.003
 41
0.003
 10
0.249335
 20
0.924634
 40
0.003
 41
0.003
  0
LWPOLYLINE
  5
10D
100
AcDbEntity
  8
0
 62
   254
100
AcDbPolyline
 90
        2
 70
     0
 39
0.003
 10
0.249335
 20
0.924634
 40
0.003
 41
0.003
 10
0.263516
 20
0.909547
 40
0.003
 41
0.003
  0
LWPOLYLINE
  5
10E
100
AcDbEntity
  8
0
 62
   254
100
AcDbPolyline
 90
        2
 70
     0
 39
0.003
 10
0.249335
 20
0.924634
 40
0.003
 41
0.003
 10
0.251311
 20
1.673642
 40
0.003
 41
0.003
  0
LWPOLYLINE
  5
10F
100
AcDbEntity
  8
0
 62
   254
100
AcDbPolyline
 90
        2
 70
     0
 39
0.003
 10
0.251311
 20
1.673642
 40
0.003
 41
0.003
 10
0.236433
 20
1.686539
 40
0.003
 41
0.003
  0
LWPOLYLINE
  5
110
100
AcDbEntity
  8
0
 62
   254
100
AcDbPolyline
 90
        2
 70
     0
 39
0.003
 10
0.236433
 20
1.686539
 40
0.003
 41
0.003
 10
0.234457
 20
0.937531
 40
0.003
 41
0.003
  0
LWPOLYLINE
  5
111
100
AcDbEntity
  8
0
 62
   254
100
AcDbPolyline
 90
        2
 70
     0
 39
0.003
 10
0.234457
 20
0.937531
 40
0.003
 41
0.003
 10
0.249335
 20
0.924634
 40
0.003
 41
0.003
  0
LWPOLYLINE
  5
112
100
AcDbEntity
  8
0
 62
   254
100
AcDbPolyline
 90
        2
 70
     0
 39
0.003
 10
0.234457
 20
0.937531
 40
0.003
 41
0.003
 10
0.236433
 20
1.686539
 40
0.003
 41
0.003
  0
LWPOLYLINE
  5
113
100
AcDbEntity
  8
0
 62
   254
100
AcDbPolyline
 90
        2
 70
     0
 39
0.003
 10
0.236433
 20
1.686539
 40
0.003
 41
0.003
 10
0.220972
 20
1.69735
 40
0.003
 41
0.003
  0
LWPOLYLINE
  5
114
100
AcDbEntity
  8
0
 62
   254
100
AcDbPolyline
 90
        2
 70
     0
 39
0.003
 10
0.220972
 20
1.69735
 40
0.003
 41
0.003
 10
0.218996
 20
0.948343
 40
0.003
 41
0.003
  0
LWPOLYLINE
  5
115
100
AcDbEntity
  8
0
 62
   254
100
AcDbPolyline
 90
        2
 70
     0
 39
0.003
 10
0.218996
 20
0.948343
 40
0.003
 41
0.003
 10
0.234457
 20
0.937531
 40
0.003
 41
0.003
  0
LWPOLYLINE
  5
116
100
AcDbEntity
  8
0
 62
   254
100
AcDbPolyline
 90
        2
 70
     0
 39
0.003
 10
0.218996
 20
0.948343
 40
0.003
 41
0.003
 10
0.220972
 20
1.69735
 40
0.003
 41
0.003
  0
LWPOLYLINE
  5
117
100
AcDbEntity
  8
0
 62
   254
100
AcDbPolyline
 90
        2
 70
     0
 39
0.003
 10
0.220972
 20
1.69735
 40
0.003
 41
0.003
 10
0.205016
 20
1.706142
 40
0.003
 41
0.003
  0
LWPOLYLINE
  5
118
100
AcDbEntity
  8
0
 62
   254
100
AcDbPolyline
 90
        2
 70
     0
 39
0.003
 10
0.205016
 20
1.706142
 40
0.003
 41
0.003
 10
0.203039
 20
0.957134
 40
0.003
 41
0.003
  0
LWPOLYLINE
  5
119
100
AcDbEntity
  8
0
 62
   254
100
AcDbPolyline
 90
        2
 70
     0
 39
0.003
 10
0.203039
 20
0.957134
 40
0.003
 41
0.003
 10
0.218996
 20
0.948343
 40
0.003
 41
0.003
  0
LWPOLYLINE
  5
11A
100
AcDbEntity
  8
0
 62
     9
100
AcDbPolyline
 90
        2
 70
     0
 39
0.003
 10
0.203039
 20
0.957134
 40
0.003
 41
0.003
 10
0.205016
 20
1.706142
 40
0.003
 41
0.003
  0
LWPOLYLINE
  5
11B
100
AcDbEntity
  8
0
 62
     9
100
AcDbPolyline
 90
        2
 70
     0
 39
0.003
 10
0.205016
 20
1.706142
 40
0.003
 41
0.003
 10
0.188661
 20
1.713008
 40
0.003
 41
0.003
  0
LWPOLYLINE
  5
11C
100
AcDbEntity
  8
0
 62
     9
100
AcDbPolyline
 90
        2
 70
     0
 39
0.003
 10
0.188661
 20
1.713008
 40
0.003
 41
0.003
 10
0.186685
 20
0.964
 40
0.003
 41
0.003
  0
LWPOLYLINE
  5
11D
100
AcDbEntity
  8
0
 62
     9
100
AcDbPolyline
 90
        2
 70
     0
 39
0.003
 10
0.186685
 20
0.964
 40
0.003
 41
0.003
 10
0.203039
 20
0.957134
 40
0.003
 41
0.003
  0
LWPOLYLINE
  5
11E
100
AcDbEntity
  8
0
 62
     9
100
AcDbPolyline
 90
        2
 70
     0
 39
0.003
 10
0.186685
 20
0.964
 40
0.003
 41
0.003
 10
0.188661
 20
1.713008
 40
0.003
 41
0.003
  0
LWPOLYLINE
  5
11F
100
AcDbEntity
  8
0
 62
     9
100
AcDbPolyline
 90
        2
 70
     0
 39
0.003
 10
0.188661
 20
1.713008
 40
0.003
 41
0.003
 10
0.172
 20
1.718016
 40
0.003
 41
0.003
  0
LWPOLYLINE
  5
120
100
AcDbEntity
  8
0
 62
     9
100
AcDbPolyline
 90
        2
 70
     0
 39
0.003
 10
0.172
 20
1.718016
 40
0.003
 41
0.003
 10
0.170024
 20
0.969008
 40
0.003
 41
0.003
  0
LWPOLYLINE
  5
121
100
AcDbEntity
  8
0
 62
     9
100
AcDbPolyline
 90
        2
 70
     0
 39
0.003
 10
0.170024
 20
0.969008
 40
0.003
 41
0.003
 10
0.186685
 20
0.964
 40
0.003
 41
0.003
  0
LWPOLYLINE
  5
122
100
AcDbEntity
  8
0
 62
     9
100
AcDbPolyline
 90
        2
 70
     0
 39
0.003
 10
0.170024
 20
0.969008
 40
0.003
 41
0.003
 10
0.172
 20
1.718016
 40
0.003
 41
0.003
  0
LWPOLYLINE
  5
123
100
AcDbEntity
  8
0
 62
     9
100
AcDbPolyline
 90
        2
 70
     0
 39
0.003
 10
0.172
 20
1.718016
 40
0.003
 41
0.003
 10
0.15513
 20
1.721268
 40
0.003
 41
0.003
  0
LWPOLYLINE
  5
124
100
AcDbEntity
  8
0
 62
     9
100
AcDbPolyline
 90
        2
 70
     0
 39
0.003
 10
0.15513
 20
1.721268
 40
0.003
 41
0.003
 10
0.153154
 20
0.97226
 40
0.003
 41
0.003
  0
LWPOLYLINE
  5
125
100
AcDbEntity
  8
0
 62
     9
100
AcDbPolyline
 90
        2
 70
     0
 39
0.003
 10
0.153154
 20
0.97226
 40
0.003
 41
0.003
 10
0.170024
 20
0.969008
 40
0.003
 41
0.003
  0
LWPOLYLINE
  5
126
100
AcDbEntity
  8
0
 62
     9
100
AcDbPolyline
 90
        2
 70
     0
 39
0.003
 10
0.153154
 20
0.97226
 40
0.003
 41
0.003
 10
0.15513
 20
1.721268
 40
0.003
 41
0.003
  0
LWPOLYLINE
  5
127
100
AcDbEntity
  8
0
 62
     9
100
AcDbPolyline
 90
        2
 70
     0
 39
0.003
 10
0.15513
 20
1.721268
 40
0.003
 41
0.003
 10
0.138146
 20
1.722835
 40
0.003
 41
0.003
  0
LWPOLYLINE
  5
128
100
AcDbEntity
  8
0
 62
     9
100
AcDbPolyline
 90
        2
 70
     0
 39
0.003
 10
0.138146
 20
1.722835
 40
0.003
 41
0.003
 10
0.136169
 20
0.973827
 40
0.003
 41
0.003
  0
LWPOLYLINE
  5
129
100
AcDbEntity
  8
0
 62
     9
100
AcDbPolyline
 90
        2
 70
     0
 39
0.003
 10
0.136169
 20
0.973827
 40
0.003
 41
0.003
 10
0.153154
 20
0.97226
 40
0.003
 41
0.003
  0
LWPOLYLINE
  5
12A
100
AcDbEntity
  8
0
 62
     9
100
AcDbPolyline
 90
        2
 70
     0
 39
0.003
 10
0.136169
 20
0.973827
 40
0.003
 41
0.003
 10
0.138146
 20
1.722835
 40
0.003
 41
0.003
  0
LWPOLYLINE
  5
12B
100
AcDbEntity
  8
0
 62
     9
100
AcDbPolyline
 90
        2
 70
     0
 39
0.003
 10
0.138146
 20
1.722835
 40
0.003
 41
0.003
 10
0.121146
 20
1.722803
 40
0.003
 41
0.003
  0
LWPOLYLINE
  5
12C
100
AcDbEntity
  8
0
 62
     9
100
AcDbPolyline
 90
        2
 70
     0
 39
0.003
 10
0.121146
 20
1.722803
 40
0.003
 41
0.003
 10
0.119169
 20
0.973795
 40
0.003
 41
0.003
  0
LWPOLYLINE
  5
12D
100
AcDbEntity
  8
0
 62
     9
100
AcDbPolyline
 90
        2
 70
     0
 39
0.003
 10
0.119169
 20
0.973795
 40
0.003
 41
0.003
 10
0.136169
 20
0.973827
 40
0.003
 41
0.003
  0
LWPOLYLINE
  5
12E
100
AcDbEntity
  8
0
 62
     9
100
AcDbPolyline
 90
        2
 70
     0
 39
0.003
 10
0.119169
 20
0.973795
 40
0.003
 41
0.003
 10
0.121146
 20
1.722803
 40
0.003
 41
0.003
  0
LWPOLYLINE
  5
12F
100
AcDbEntity
  8
0
 62
     9
100
AcDbPolyline
 90
        2
 70
     0
 39
0.003
 10
0.121146
 20
1.722803
 40
0.003
 41
0.003
 10
0.104213
 20
1.72124
 40
0.003
 41
0.003
  0
LWPOLYLINE
  5
130
100
AcDbEntity
  8
0
 62
     9
100
AcDbPolyline
 90
        2
 70
     0
 39
0.003
 10
0.104213
 20
1.72124
 40
0.003
 41
0.003
 10
0.102236
 20
0.972232
 40
0.003
 41
0.003
  0
LWPOLYLINE
  5
131
100
AcDbEntity
  8
0
 62
     9
100
AcDbPolyline
 90
        2
 70
     0
 39
0.003
 10
0.102236
 20
0.972232
 40
0.003
 41
0.003
 10
0.119169
 20
0.973795
 40
0.003
 41
0.003
  0
LWPOLYLINE
  5
132
100
AcDbEntity
  8
0
 62
     9
100
AcDbPolyline
 90
        2
 70
     0
 39
0.003
 10
0.102236
 20
0.972232
 40
0.003
 41
0.003
 10
0.104213
 20
1.72124
 40
0.003
 41
0.003
  0
LWPOLYLINE
  5
133
100
AcDbEntity
  8
0
 62
     9
100
AcDbPolyline
 90
        2
 70
     0
 39
0.003
 10
0.104213
 20
1.72124
 40
0.003
 41
0.003
 10
0.087457
 20
1.718248
 40
0.003
 41
0.003
  0
LWPOLYLINE
  5
134
100
AcDbEntity
  8
0
 62
     9
100
AcDbPolyline
 90
        2
 70
     0
 39
0.003
 10
0.087457
 20
1.718248
 40
0.003
 41
0.003
 10
0.08548
 20
0.96924
 40
0.003
 41
0.003
  0
LWPOLYLINE
  5
135
100
AcDbEntity
  8
0
 62
     9
100
AcDbPolyline
 90
        2
 70
     0
 39
0.003
 10
0.08548
 20
0.96924
 40
0.003
 41
0.003
 10
0.102236
 20
0.972232
 40
0.003
 41
0.003
  0
LWPOLYLINE
  5
136
100
AcDbEntity
  8
0
 62
     9
100
AcDbPolyline
 90
        2
 70
     0
 39
0.003
 10
0.08548
 20
0.96924
 40
0.003
 41
0.003
 10
0.087457
 20
1.718248
 40
0.003
 41
0.003
  0
LWPOLYLINE
  5
137
100
AcDbEntity
  8
0
 62
     9
100
AcDbPolyline
 90
        2
 70
     0
 39
0.003
 10
0.087457
 20
1.718248
 40
0.003
 41
0.003
 10
0.070965
 20
1.713902
 40
0.003
 41
0.003
  0
LWPOLYLINE
  5
138
100
AcDbEntity
  8
0
 62
     9
100
AcDbPolyline
 90
        2
 70
     0
 39
0.003
 10
0.070965
 20
1.713902
 40
0.003
 41
0.003
 10
0.068988
 20
0.964894
 40
0.003
 41
0.003
  0
LWPOLYLINE
  5
139
100
AcDbEntity
  8
0
 62
     9
100
AcDbPolyline
 90
        2
 70
     0
 39
0.003
 10
0.068988
 20
0.964894
 40
0.003
 41
0.003
 10
0.08548
 20
0.96924
 40
0.003
 41
0.003
  0
LWPOLYLINE
  5
13A
100
AcDbEntity
  8
0
 62
   253
100
AcDbPolyline
 90
        2
 70
     0
 39
0.003
 10
0.068988
 20
0.964894
 40
0.003
 41
0.003
 10
0.070965
 20
1.713902
 40
0.003
 41
0.003
  0
LWPOLYLINE
  5
13B
100
AcDbEntity
  8
0
 62
   253
100
AcDbPolyline
 90
        2
 70
     0
 39
0.003
 10
0.070965
 20
1.713902
 40
0.003
 41
0.003
 10
0.054839
 20
1.708287
 40
0.003
 41
0.003
  0
LWPOLYLINE
  5
13C
100
AcDbEntity
  8
0
 62
   253
100
AcDbPolyline
 90
        2
 70
     0
 39
0.003
 10
0.054839
 20
1.708287
 40
0.003
 41
0.003
 10
0.052862
 20
0.95928
 40
0.003
 41
0.003
  0
LWPOLYLINE
  5
13D
100
AcDbEntity
  8
0
 62
   253
100
AcDbPolyline
 90
        2
 70
     0
 39
0.003
 10
0.052862
 20
0.95928
 40
0.003
 41
0.003
 10
0.068988
 20
0.964894
 40
0.003
 41
0.003
  0
LWPOLYLINE
  5
13E
100
AcDbEntity
  8
0
 62
   253
100
AcDbPolyline
 90
        2
 70
     0
 39
0.003
 10
0.052862
 20
0.95928
 40
0.003
 41
0.003
 10
0.054839
 20
1.708287
 40
0.003
 41
0.003
  0
LWPOLYLINE
  5
13F
100
AcDbEntity
  8
0
 62
   253
100
AcDbPolyline
 90
        2
 70
     0
 39
0.003
 10
0.054839
 20
1.708287
 40
0.003
 41
0.003
 10
0.039169
 20
1.701476
 40
0.003
 41
0.003
  0
LWPOLYLINE
  5
140
100
AcDbEntity
  8
0
 62
   253
100
AcDbPolyline
 90
        2
 70
     0
 39
0.003
 10
0.039169
 20
1.701476
 40
0.003
 41
0.003
 10
0.037193
 20
0.952469
 40
0.003
 41
0.003
  0
LWPOLYLINE
  5
141
100
AcDbEntity
  8
0
 62
   253
100
AcDbPolyline
 90
        2
 70
     0
 39
0.003
 10
0.037193
 20
0.952469
 40
0.003
 41
0.003
 10
0.052862
 20
0.95928
 40
0.003
 41
0.003
  0
LWPOLYLINE
  5
142
100
AcDbEntity
  8
0
 62
   253
100
AcDbPolyline
 90
        2
 70
     0
 39
0.003
 10
0.037193
 20
0.952469
 40
0.003
 41
0.003
 10
0.039169
 20
1.701476
 40
0.003
 41
0.003
  0
LWPOLYLINE
  5
143
100
AcDbEntity
  8
0
 62
   253
100
AcDbPolyline
 90
        2
 70
     0
 39
0.003
 10
0.039169
 20
1.701476
 40
0.003
 41
0.003
 10
0.024047
 20
1.693567
 40
0.003
 41
0.003
  0
LWPOLYLINE
  5
144
100
AcDbEntity
  8
0
 62
   253
100
AcDbPolyline
 90
        2
 70
     0
 39
0.003
 10
0.024047
 20
1.693567
 40
0.003
 41
0.003
 10
0.022071
 20
0.944559
 40
0.003
 41
0.003
  0
LWPOLYLINE
  5
145
100
AcDbEntity
  8
0
 62
   253
100
AcDbPolyline
 90
        2
 70
     0
 39
0.003
 10
0.022071
 20
0.944559
 40
0.003
 41
0.003
 10
0.037193
 20
0.952469
 40
0.003
 41
0.003
  0
LWPOLYLINE
  5
146
100
AcDbEntity
  8
0
 62
   253
100
AcDbPolyline
 90
        2
 70
     0
 39
0.003
 10
0.022071
 20
0.944559
 40
0.003
 41
0.003
 10
0.024047
 20
1.693567
 40
0.003
 41
0.003
  0
LWPOLYLINE
  5
147
100
AcDbEntity
  8
0
 62
   253
100
AcDbPolyline
 90
        2
 70
     0
 39
0.003
 10
0.024047
 20
1.693567
 40
0.003
 41
0.003
 10
0.009571
 20
1.684626
 40
0.003
 41
0.003
  0
LWPOLYLINE
  5
148
100
AcDbEntity
  8
0
 62
   253
100
AcDbPolyline
 90
        2
 70
     0
 39
0.003
 10
0.009571
 20
1.684626
 40
0.003
 41
0.003
 10
0.007594
 20
0.935618
 40
0.003
 41
0.003
  0
LWPOLYLINE
  5
149
100
AcDbEntity
  8
0
 62
   253
100
AcDbPolyline
 90
        2
 70
     0
 39
0.003
 10
0.007594
 20
0.935618
 40
0.003
 41
0.003
 10
0.022071
 20
0.944559
 40
0.003
 41
0.003
  0
LWPOLYLINE
  5
14A
100
AcDbEntity
  8
0
 62
   253
100
AcDbPolyline
 90
        2
 70
     0
 39
0.003
 10
0.007594
 20
0.935618
 40
0.003
 41
0.003
 10
0.009571
 20
1.684626
 40
0.003
 41
0.003
  0
LWPOLYLINE
  5
14B
100
AcDbEntity
  8
0
 62
   253
100
AcDbPolyline
 90
        2
 70
     0
 39
0.003
 10
0.009571
 20
1.684626
 40
0.003
 41
0.003
 10
-0.004169
 20
1.674756
 40
0.003
 41
0.003
  0
LWPOLYLINE
  5
14C
100
AcDbEntity
  8
0
 62
   253
100
AcDbPolyline
 90
        2
 70
     0
 39
0.003
 10
-0.004169
 20
1.674756
 40
0.003
 41
0.003
 10
-0.006146
 20
0.925748
 40
0.003
 41
0.003
  0
LWPOLYLINE
  5
14D
100
AcDbEntity
  8
0
 62
   253
100
AcDbPolyline
 90
        2
 70
     0
 39
0.003
 10
-0.006146
 20
0.925748
 40
0.003
 41
0.003
 10
0.007594
 20
0.935618
 40
0.003
 41
0.003
  0
LWPOLYLINE
  5
14E
100
AcDbEntity
  8
0
 62
   252
100
AcDbPolyline
 90
        2
 70
     0
 39
0.003
 10
-0.006146
 20
0.925748
 40
0.003
 41
0.003
 10
-0.004169
 20
1.674756
 40
0.003
 41
0.003
  0
LWPOLYLINE
  5
14F
100
AcDbEntity
  8
0
 62
   252
100
AcDbPolyline
 90
        2
 70
     0
 39
0.003
 10
-0.004169
 20
1.674756
 40
0.003
 41
0.003
 10
-0.017067
 20
1.664012
 40
0.003
 41
0.003
  0
LWPOLYLINE
  5
150
100
AcDbEntity
  8
0
 62
   252
100
AcDbPolyline
 90
        2
 70
     0
 39
0.003
 10
-0.017067
 20
1.664012
 40
0.003
 41
0.003
 10
-0.019043
 20
0.915004
 40
0.003
 41
0.003
  0
LWPOLYLINE
  5
151
100
AcDbEntity
  8
0
 62
   252
100
AcDbPolyline
 90
        2
 70
     0
 39
0.003
 10
-0.019043
 20
0.915004
 40
0.003
 41
0.003
 10
-0.006146
 20
0.925748
 40
0.003
 41
0.003
  0
LWPOLYLINE
  5
152
100
AcDbEntity
  8
0
 62
   252
100
AcDbPolyline
 90
        2
 70
     0
 39
0.003
 10
-0.019043
 20
0.915004
 40
0.003
 41
0.003
 10
-0.017067
 20
1.664012
 40
0.003
 41
0.003
  0
LWPOLYLINE
  5
153
100
AcDbEntity
  8
0
 62
   252
100
AcDbPolyline
 90
        2
 70
     0
 39
0.003
 10
-0.017067
 20
1.664012
 40
0.003
 41
0.003
 10
-0.029035
 20
1.6525
 40
0.003
 41
0.003
  0
LWPOLYLINE
  5
154
100
AcDbEntity
  8
0
 62
   252
100
AcDbPolyline
 90
        2
 70
     0
 39
0.003
 10
-0.029035
 20
1.6525
 40
0.003
 41
0.003
 10
-0.031012
 20
0.903492
 40
0.003
 41
0.003
  0
LWPOLYLINE
  5
155
100
AcDbEntity
  8
0
 62
   252
100
AcDbPolyline
 90
        2
 70
     0
 39
0.003
 10
-0.031012
 20
0.903492
 40
0.003
 41
0.003
 10
-0.019043
 20
0.915004
 40
0.003
 41
0.003
  0
LWPOLYLINE
  5
156
100
AcDbEntity
  8
0
 62
     8
100
AcDbPolyline
 90
        2
 70
     0
 39
0.003
 10
-0.031012
 20
0.903492
 40
0.003
 41
0.003
 10
-0.029035
 20
1.6525
 40
0.003
 41
0.003
  0
LWPOLYLINE
  5
157
100
AcDbEntity
  8
0
 62
     8
100
AcDbPolyline
 90
        2
 70
     0
 39
0.003
 10
-0.029035
 20
1.6525
 40
0.003
 41
0.003
 10
-0.039976
 20
1.640291
 40
0.003
 41
0.003
  0
LWPOLYLINE
  5
158
100
AcDbEntity
  8
0
 62
     8
100
AcDbPolyline
 90
        2
 70
     0
 39
0.003
 10
-0.039976
 20
1.640291
 40
0.003
 41
0.003
 10
-0.041953
 20
0.891283
 40
0.003
 41
0.003
  0
LWPOLYLINE
  5
159
100
AcDbEntity
  8
0
 62
     8
100
AcDbPolyline
 90
        2
 70
     0
 39
0.003
 10
-0.041953
 20
0.891283
 40
0.003
 41
0.003
 10
-0.031012
 20
0.903492
 40
0.003
 41
0.003
  0
LWPOLYLINE
  5
15A
100
AcDbEntity
  8
0
 62
   251
100
AcDbPolyline
 90
        2
 70
     0
 39
0.003
 10
-0.041953
 20
0.891283
 40
0.003
 41
0.003
 10
-0.039976
 20
1.640291
 40
0.003
 41
0.003
  0
LWPOLYLINE
  5
15B
100
AcDbEntity
  8
0
 62
   251
100
AcDbPolyline
 90
        2
 70
     0
 39
0.003
 10
-0.039976
 20
1.640291
 40
0.003
 41
0.003
 10
-0.049803
 20
1.627476
 40
0.003
 41
0.003
  0
LWPOLYLINE
  5
15C
100
AcDbEntity
  8
0
 62
   251
100
AcDbPolyline
 90
        2
 70
     0
 39
0.003
 10
-0.049803
 20
1.627476
 40
0.003
 41
0.003
 10
-0.05178
 20
0.878469
 40
0.003
 41
0.003
  0
LWPOLYLINE
  5
15D
100
AcDbEntity
  8
0
 62
   251
100
AcDbPolyline
 90
        2
 70
     0
 39
0.003
 10
-0.05178
 20
0.878469
 40
0.003
 41
0.003
 10
-0.041953
 20
0.891283
 40
0.003
 41
0.003
  0
LWPOLYLINE
  5
15E
100
AcDbEntity
  8
0
 62
   129
100
AcDbPolyline
 90
        2
 70
     0
 39
0.003
 10
-0.05178
 20
0.878469
 40
0.003
 41
0.003
 10
-0.049803
 20
1.627476
 40
0.003
 41
0.003
  0
LWPOLYLINE
  5
15F
100
AcDbEntity
  8
0
 62
   129
100
AcDbPolyline
 90
        2
 70
     0
 39
0.003
 10
-0.049803
 20
1.627476
 40
0.003
 41
0.003
 10
-0.058406
 20
1.614126
 40
0.003
 41
0.003
  0
LWPOLYLINE
  5
160
100
AcDbEntity
  8
0
 62
   129
100
AcDbPolyline
 90
        2
 70
     0
 39
0.003
 10
-0.058406
 20
1.614126
 40
0.003
 41
0.003
 10
-0.060382
 20
0.865118
 40
0.003
 41
0.003
  0
LWPOLYLINE
  5
161
100
AcDbEntity
  8
0
 62
   129
100
AcDbPolyline
 90
        2
 70
     0
 39
0.003
 10
-0.060382
 20
0.865118
 40
0.003
 41
0.003
 10
-0.05178
 20
0.878469
 40
0.003
 41
0.003
  0
LWPOLYLINE
  5
162
100
AcDbEntity
  8
0
 62
     0
100
AcDbPolyline
 90
        2
 70
     0
 39
0.003
 10
-0.060382
 20
0.865118
 40
0.003
 41
0.003
 10
-0.058406
 20
1.614126
 40
0.003
 41
0.003
  0
LWPOLYLINE
  5
163
100
AcDbEntity
  8
0
 62
     0
100
AcDbPolyline
 90
        2
 70
     0
 39
0.003
 10
-0.058406
 20
1.614126
 40
0.003
 41
0.003
 10
-0.065705
 20
1.600335
 40
0.003
 41
0.003
  0
LWPOLYLINE
  5
164
100
AcDbEntity
  8
0
 62
     0
100
AcDbPolyline
 90
        2
 70
     0
 39
0.003
 10
-0.065705
 20
1.600335
 40
0.003
 41
0.003
 10
-0.067681
 20
0.851327
 40
0.003
 41
0.003
  0
LWPOLYLINE
  5
165
100
AcDbEntity
  8
0
 62
     0
100
AcDbPolyline
 90
        2
 70
     0
 39
0.003
 10
-0.067681
 20
0.851327
 40
0.003
 41
0.003
 10
-0.060382
 20
0.865118
 40
0.003
 41
0.003
  0
LWPOLYLINE
  5
166
100
AcDbEntity
  8
0
 62
     0
100
AcDbPolyline
 90
        2
 70
     0
 39
0.003
 10
-0.067681
 20
0.851327
 40
0.003
 41
0.003
 10
-0.065705
 20
1.600335
 40
0.003
 41
0.003
  0
LWPOLYLINE
  5
167
100
AcDbEntity
  8
0
 62
     0
100
AcDbPolyline
 90
        2
 70
     0
 39
0.003
 10
-0.065705
 20
1.600335
 40
0.003
 41
0.003
 10
-0.071591
 20
1.586173
 40
0.003
 41
0.003
  0
LWPOLYLINE
  5
168
100
AcDbEntity
  8
0
 62
     0
100
AcDbPolyline
 90
        2
 70
     0
 39
0.003
 10
-0.071591
 20
1.586173
 40
0.003
 41
0.003
 10
-0.073567
 20
0.837165
 40
0.003
 41
0.003
  0
LWPOLYLINE
  5
169
100
AcDbEntity
  8
0
 62
     0
100
AcDbPolyline
 90
        2
 70
     0
 39
0.003
 10
-0.073567
 20
0.837165
 40
0.003
 41
0.003
 10
-0.067681
 20
0.851327
 40
0.003
 41
0.003
  0
LWPOLYLINE
  5
16A
100
AcDbEntity
  8
0
 62
     0
100
AcDbPolyline
 90
        2
 70
     0
 39
0.003
 10
-0.073567
 20
0.837165
 40
0.003
 41
0.003
 10
-0.071591
 20
1.586173
 40
0.003
 41
0.003
  0
LWPOLYLINE
  5
16B
100
AcDbEntity
  8
0
 62
     0
100
AcDbPolyline
 90
        2
 70
     0
 39
0.003
 10
-0.071591
 20
1.586173
 40
0.003
 41
0.003
 10
-0.075984
 20
1.571736
 40
0.003
 41
0.003
  0
LWPOLYLINE
  5
16C
100
AcDbEntity
  8
0
 62
     0
100
AcDbPolyline
 90
        2
 70
     0
 39
0.003
 10
-0.075984
 20
1.571736
 40
0.003
 41
0.003
 10
-0.077961
 20
0.822728
 40
0.003
 41
0.003
  0
LWPOLYLINE
  5
16D
100
AcDbEntity
  8
0
 62
     0
100
AcDbPolyline
 90
        2
 70
     0
 39
0.003
 10
-0.077961
 20
0.822728
 40
0.003
 41
0.003
 10
-0.073567
 20
0.837165
 40
0.003
 41
0.003
  0
LWPOLYLINE
  5
16E
100
AcDbEntity
  8
0
 62
     0
100
AcDbPolyline
 90
        2
 70
     0
 39
0.003
 10
0.335713
 20
0.736051
 40
0.003
 41
0.003
 10
0.337689
 20
1.485059
 40
0.003
 41
0.003
  0
LWPOLYLINE
  5
16F
100
AcDbEntity
  8
0
 62
     0
100
AcDbPolyline
 90
        2
 70
     0
 39
0.003
 10
0.337689
 20
1.485059
 40
0.003
 41
0.003
 10
0.330945
 20
1.517697
 40
0.003
 41
0.003
  0
LWPOLYLINE
  5
170
100
AcDbEntity
  8
0
 62
     0
100
AcDbPolyline
 90
        2
 70
     0
 39
0.003
 10
0.330945
 20
1.517697
 40
0.003
 41
0.003
 10
0.322858
 20
1.547583
 40
0.003
 41
0.003
  0
LWPOLYLINE
  5
171
100
AcDbEntity
  8
0
 62
     0
100
AcDbPolyline
 90
        2
 70
     0
 39
0.003
 10
0.322858
 20
1.547583
 40
0.003
 41
0.003
 10
0.313508
 20
1.574791
 40
0.003
 41
0.003
  0
LWPOLYLINE
  5
172
100
AcDbEntity
  8
0
 62
     0
100
AcDbPolyline
 90
        2
 70
     0
 39
0.003
 10
0.313508
 20
1.574791
 40
0.003
 41
0.003
 10
0.303012
 20
1.599417
 40
0.003
 41
0.003
  0
LWPOLYLINE
  5
173
100
AcDbEntity
  8
0
 62
     0
100
AcDbPolyline
 90
        2
 70
     0
 39
0.003
 10
0.303012
 20
1.599417
 40
0.003
 41
0.003
 10
0.291441
 20
1.621528
 40
0.003
 41
0.003
  0
LWPOLYLINE
  5
174
100
AcDbEntity
  8
0
 62
     0
100
AcDbPolyline
 90
        2
 70
     0
 39
0.003
 10
0.291441
 20
1.621528
 40
0.003
 41
0.003
 10
0.278906
 20
1.641217
 40
0.003
 41
0.003
  0
LWPOLYLINE
  5
175
100
AcDbEntity
  8
0
 62
     0
100
AcDbPolyline
 90
        2
 70
     0
 39
0.003
 10
0.278906
 20
1.641217
 40
0.003
 41
0.003
 10
0.265492
 20
1.658555
 40
0.003
 41
0.003
  0
LWPOLYLINE
  5
176
100
AcDbEntity
  8
0
 62
     0
100
AcDbPolyline
 90
        2
 70
     0
 39
0.003
 10
0.265492
 20
1.658555
 40
0.003
 41
0.003
 10
0.251311
 20
1.673642
 40
0.003
 41
0.003
  0
LWPOLYLINE
  5
177
100
AcDbEntity
  8
0
 62
     0
100
AcDbPolyline
 90
        2
 70
     0
 39
0.003
 10
0.251311
 20
1.673642
 40
0.003
 41
0.003
 10
0.236433
 20
1.686539
 40
0.003
 41
0.003
  0
LWPOLYLINE
  5
178
100
AcDbEntity
  8
0
 62
     0
100
AcDbPolyline
 90
        2
 70
     0
 39
0.003
 10
0.236433
 20
1.686539
 40
0.003
 41
0.003
 10
0.220972
 20
1.69735
 40
0.003
 41
0.003
  0
LWPOLYLINE
  5
179
100
AcDbEntity
  8
0
 62
     0
100
AcDbPolyline
 90
        2
 70
     0
 39
0.003
 10
0.220972
 20
1.69735
 40
0.003
 41
0.003
 10
0.205016
 20
1.706142
 40
0.003
 41
0.003
  0
LWPOLYLINE
  5
17A
100
AcDbEntity
  8
0
 62
     0
100
AcDbPolyline
 90
        2
 70
     0
 39
0.003
 10
0.205016
 20
1.706142
 40
0.003
 41
0.003
 10
0.188661
 20
1.713008
 40
0.003
 41
0.003
  0
LWPOLYLINE
  5
17B
100
AcDbEntity
  8
0
 62
     0
100
AcDbPolyline
 90
        2
 70
     0
 39
0.003
 10
0.188661
 20
1.713008
 40
0.003
 41
0.003
 10
0.172
 20
1.718016
 40
0.003
 41
0.003
  0
LWPOLYLINE
  5
17C
100
AcDbEntity
  8
0
 62
     0
100
AcDbPolyline
 90
        2
 70
     0
 39
0.003
 10
0.172
 20
1.718016
 40
0.003
 41
0.003
 10
0.15513
 20
1.721268
 40
0.003
 41
0.003
  0
LWPOLYLINE
  5
17D
100
AcDbEntity
  8
0
 62
     0
100
AcDbPolyline
 90
        2
 70
     0
 39
0.003
 10
0.15513
 20
1.721268
 40
0.003
 41
0.003
 10
0.138146
 20
1.722835
 40
0.003
 41
0.003
  0
LWPOLYLINE
  5
17E
100
AcDbEntity
  8
0
 62
     0
100
AcDbPolyline
 90
        2
 70
     0
 39
0.003
 10
0.138146
 20
1.722835
 40
0.003
 41
0.003
 10
0.121146
 20
1.722803
 40
0.003
 41
0.003
  0
LWPOLYLINE
  5
17F
100
AcDbEntity
  8
0
 62
     0
100
AcDbPolyline
 90
        2
 70
     0
 39
0.003
 10
0.121146
 20
1.722803
 40
0.003
 41
0.003
 10
0.104213
 20
1.72124
 40
0.003
 41
0.003
  0
LWPOLYLINE
  5
180
100
AcDbEntity
  8
0
 62
     0
100
AcDbPolyline
 90
        2
 70
     0
 39
0.003
 10
0.104213
 20
1.72124
 40
0.003
 41
0.003
 10
0.087457
 20
1.718248
 40
0.003
 41
0.003
  0
LWPOLYLINE
  5
181
100
AcDbEntity
  8
0
 62
     0
100
AcDbPolyline
 90
        2
 70
     0
 39
0.003
 10
0.087457
 20
1.718248
 40
0.003
 41
0.003
 10
0.070965
 20
1.713902
 40
0.003
 41
0.003
  0
LWPOLYLINE
  5
182
100
AcDbEntity
  8
0
 62
     0
100
AcDbPolyline
 90
        2
 70
     0
 39
0.003
 10
0.070965
 20
1.713902
 40
0.003
 41
0.003
 10
0.054839
 20
1.708287
 40
0.003
 41
0.003
  0
LWPOLYLINE
  5
183
100
AcDbEntity
  8
0
 62
     0
100
AcDbPolyline
 90
        2
 70
     0
 39
0.003
 10
0.054839
 20
1.708287
 40
0.003
 41
0.003
 10
0.039169
 20
1.701476
 40
0.003
 41
0.003
  0
LWPOLYLINE
  5
184
100
AcDbEntity
  8
0
 62
     0
100
AcDbPolyline
 90
        2
 70
     0
 39
0.003
 10
0.039169
 20
1.701476
 40
0.003
 41
0.003
 10
0.024047
 20
1.693567
 40
0.003
 41
0.003
  0
LWPOLYLINE
  5
185
100
AcDbEntity
  8
0
 62
     0
100
AcDbPolyline
 90
        2
 70
     0
 39
0.003
 10
0.024047
 20
1.693567
 40
0.003
 41
0.003
 10
0.009571
 20
1.684626
 40
0.003
 41
0.003
  0
LWPOLYLINE
  5
186
100
AcDbEntity
  8
0
 62
     0
100
AcDbPolyline
 90
        2
 70
     0
 39
0.003
 10
0.009571
 20
1.684626
 40
0.003
 41
0.003
 10
-0.004169
 20
1.674756
 40
0.003
 41
0.003
  0
LWPOLYLINE
  5
187
100
AcDbEntity
  8
0
 62
     0
100
AcDbPolyline
 90
        2
 70
     0
 39
0.003
 10
-0.004169
 20
1.674756
 40
0.003
 41
0.003
 10
-0.017067
 20
1.664012
 40
0.003
 41
0.003
  0
LWPOLYLINE
  5
188
100
AcDbEntity
  8
0
 62
     0
100
AcDbPolyline
 90
        2
 70
     0
 39
0.003
 10
-0.017067
 20
1.664012
 40
0.003
 41
0.003
 10
-0.029035
 20
1.6525
 40
0.003
 41
0.003
  0
LWPOLYLINE
  5
189
100
AcDbEntity
  8
0
 62
     0
100
AcDbPolyline
 90
        2
 70
     0
 39
0.003
 10
-0.029035
 20
1.6525
 40
0.003
 41
0.003
 10
-0.039976
 20
1.640291
 40
0.003
 41
0.003
  0
LWPOLYLINE
  5
18A
100
AcDbEntity
  8
0
 62
     0
100
AcDbPolyline
 90
        2
 70
     0
 39
0.003
 10
-0.039976
 20
1.640291
 40
0.003
 41
0.003
 10
-0.049803
 20
1.627476
 40
0.003
 41
0.003
  0
LWPOLYLINE
  5
18B
100
AcDbEntity
  8
0
 62
     0
100
AcDbPolyline
 90
        2
 70
     0
 39
0.003
 10
-0.049803
 20
1.627476
 40
0.003
 41
0.003
 10
-0.058406
 20
1.614126
 40
0.003
 41
0.003
  0
LWPOLYLINE
  5
18C
100
AcDbEntity
  8
0
 62
     0
100
AcDbPolyline
 90
        2
 70
     0
 39
0.003
 10
-0.058406
 20
1.614126
 40
0.003
 41
0.003
 10
-0.065705
 20
1.600335
 40
0.003
 41
0.003
  0
LWPOLYLINE
  5
18D
100
AcDbEntity
  8
0
 62
     0
100
AcDbPolyline
 90
        2
 70
     0
 39
0.003
 10
-0.065705
 20
1.600335
 40
0.003
 41
0.003
 10
-0.071591
 20
1.586173
 40
0.003
 41
0.003
  0
LWPOLYLINE
  5
18E
100
AcDbEntity
  8
0
 62
     0
100
AcDbPolyline
 90
        2
 70
     0
 39
0.003
 10
-0.071591
 20
1.586173
 40
0.003
 41
0.003
 10
-0.075984
 20
1.571736
 40
0.003
 41
0.003
  0
LWPOLYLINE
  5
18F
100
AcDbEntity
  8
0
 62
     0
100
AcDbPolyline
 90
        2
 70
     0
 39
0.003
 10
-0.075984
 20
1.571736
 40
0.003
 41
0.003
 10
-0.077961
 20
0.822728
 40
0.003
 41
0.003
  0
LWPOLYLINE
  5
190
100
AcDbEntity
  8
0
 62
     0
100
AcDbPolyline
 90
        2
 70
     0
 39
0.003
 10
-0.077961
 20
0.822728
 40
0.003
 41
0.003
 10
-0.073567
 20
0.837165
 40
0.003
 41
0.003
  0
LWPOLYLINE
  5
191
100
AcDbEntity
  8
0
 62
     0
100
AcDbPolyline
 90
        2
 70
     0
 39
0.003
 10
-0.073567
 20
0.837165
 40
0.003
 41
0.003
 10
-0.067681
 20
0.851327
 40
0.003
 41
0.003
  0
LWPOLYLINE
  5
192
100
AcDbEntity
  8
0
 62
     0
100
AcDbPolyline
 90
        2
 70
     0
 39
0.003
 10
-0.067681
 20
0.851327
 40
0.003
 41
0.003
 10
-0.060382
 20
0.865118
 40
0.003
 41
0.003
  0
LWPOLYLINE
  5
193
100
AcDbEntity
  8
0
 62
     0
100
AcDbPolyline
 90
        2
 70
     0
 39
0.003
 10
-0.060382
 20
0.865118
 40
0.003
 41
0.003
 10
-0.05178
 20
0.878469
 40
0.003
 41
0.003
  0
LWPOLYLINE
  5
194
100
AcDbEntity
  8
0
 62
     0
100
AcDbPolyline
 90
        2
 70
     0
 39
0.003
 10
-0.05178
 20
0.878469
 40
0.003
 41
0.003
 10
-0.041953
 20
0.891283
 40
0.003
 41
0.003
  0
LWPOLYLINE
  5
195
100
AcDbEntity
  8
0
 62
     0
100
AcDbPolyline
 90
        2
 70
     0
 39
0.003
 10
-0.041953
 20
0.891283
 40
0.003
 41
0.003
 10
-0.031012
 20
0.903492
 40
0.003
 41
0.003
  0
LWPOLYLINE
  5
196
100
AcDbEntity
  8
0
 62
     0
100
AcDbPolyline
 90
        2
 70
     0
 39
0.003
 10
-0.031012
 20
0.903492
 40
0.003
 41
0.003
 10
-0.019043
 20
0.915004
 40
0.003
 41
0.003
  0
LWPOLYLINE
  5
197
100
AcDbEntity
  8
0
 62
     0
100
AcDbPolyline
 90
        2
 70
     0
 39
0.003
 10
-0.019043
 20
0.915004
 40
0.003
 41
0.003
 10
-0.006146
 20
0.925748
 40
0.003
 41
0.003
  0
LWPOLYLINE
  5
198
100
AcDbEntity
  8
0
 62
     0
100
AcDbPolyline
 90
        2
 70
     0
 39
0.003
 10
-0.006146
 20
0.925748
 40
0.003
 41
0.003
 10
0.007594
 20
0.935618
 40
0.003
 41
0.003
  0
LWPOLYLINE
  5
199
100
AcDbEntity
  8
0
 62
     0
100
AcDbPolyline
 90
        2
 70
     0
 39
0.003
 10
0.007594
 20
0.935618
 40
0.003
 41
0.003
 10
0.022071
 20
0.944559
 40
0.003
 41
0.003
  0
LWPOLYLINE
  5
19A
100
AcDbEntity
  8
0
 62
     0
100
AcDbPolyline
 90
        2
 70
     0
 39
0.003
 10
0.022071
 20
0.944559
 40
0.003
 41
0.003
 10
0.037193
 20
0.952469
 40
0.003
 41
0.003
  0
LWPOLYLINE
  5
19B
100
AcDbEntity
  8
0
 62
     0
100
AcDbPolyline
 90
        2
 70
     0
 39
0.003
 10
0.037193
 20
0.952469
 40
0.003
 41
0.003
 10
0.052862
 20
0.95928
 40
0.003
 41
0.003
  0
LWPOLYLINE
  5
19C
100
AcDbEntity
  8
0
 62
     0
100
AcDbPolyline
 90
        2
 70
     0
 39
0.003
 10
0.052862
 20
0.95928
 40
0.003
 41
0.003
 10
0.068988
 20
0.964894
 40
0.003
 41
0.003
  0
LWPOLYLINE
  5
19D
100
AcDbEntity
  8
0
 62
     0
100
AcDbPolyline
 90
        2
 70
     0
 39
0.003
 10
0.068988
 20
0.964894
 40
0.003
 41
0.003
 10
0.08548
 20
0.96924
 40
0.003
 41
0.003
  0
LWPOLYLINE
  5
19E
100
AcDbEntity
  8
0
 62
     0
100
AcDbPolyline
 90
        2
 70
     0
 39
0.003
 10
0.08548
 20
0.96924
 40
0.003
 41
0.003
 10
0.102236
 20
0.972232
 40
0.003
 41
0.003
  0
LWPOLYLINE
  5
19F
100
AcDbEntity
  8
0
 62
     0
100
AcDbPolyline
 90
        2
 70
     0
 39
0.003
 10
0.102236
 20
0.972232
 40
0.003
 41
0.003
 10
0.119169
 20
0.973795
 40
0.003
 41
0.003
  0
LWPOLYLINE
  5
1A0
100
AcDbEntity
  8
0
 62
     0
100
AcDbPolyline
 90
        2
 70
     0
 39
0.003
 10
0.119169
 20
0.973795
 40
0.003
 41
0.003
 10
0.136169
 20
0.973827
 40
0.003
 41
0.003
  0
LWPOLYLINE
  5
1A1
100
AcDbEntity
  8
0
 62
     0
100
AcDbPolyline
 90
        2
 70
     0
 39
0.003
 10
0.136169
 20
0.973827
 40
0.003
 41
0.003
 10
0.153154
 20
0.97226
 40
0.003
 41
0.003
  0
LWPOLYLINE
  5
1A2
100
AcDbEntity
  8
0
 62
     0
100
AcDbPolyline
 90
        2
 70
     0
 39
0.003
 10
0.153154
 20
0.97226
 40
0.003
 41
0.003
 10
0.170024
 20
0.969008
 40
0.003
 41
0.003
  0
LWPOLYLINE
  5
1A3
100
AcDbEntity
  8
0
 62
     0
100
AcDbPolyline
 90
        2
 70
     0
 39
0.003
 10
0.170024
 20
0.969008
 40
0.003
 41
0.003
 10
0.186685
 20
0.964
 40
0.003
 41
0.003
  0
LWPOLYLINE
  5
1A4
100
AcDbEntity
  8
0
 62
     0
100
AcDbPolyline
 90
        2
 70
     0
 39
0.003
 10
0.186685
 20
0.964
 40
0.003
 41
0.003
 10
0.203039
 20
0.957134
 40
0.003
 41
0.003
  0
LWPOLYLINE
  5
1A5
100
AcDbEntity
  8
0
 62
     0
100
AcDbPolyline
 90
        2
 70
     0
 39
0.003
 10
0.203039
 20
0.957134
 40
0.003
 41
0.003
 10
0.218996
 20
0.948343
 40
0.003
 41
0.003
  0
LWPOLYLINE
  5
1A6
100
AcDbEntity
  8
0
 62
     0
100
AcDbPolyline
 90
        2
 70
     0
 39
0.003
 10
0.218996
 20
0.948343
 40
0.003
 41
0.003
 10
0.234457
 20
0.937531
 40
0.003
 41
0.003
  0
LWPOLYLINE
  5
1A7
100
AcDbEntity
  8
0
 62
     0
100
AcDbPolyline
 90
        2
 70
     0
 39
0.003
 10
0.234457
 20
0.937531
 40
0.003
 41
0.003
 10
0.249335
 20
0.924634
 40
0.003
 41
0.003
  0
LWPOLYLINE
  5
1A8
100
AcDbEntity
  8
0
 62
     0
100
AcDbPolyline
 90
        2
 70
     0
 39
0.003
 10
0.249335
 20
0.924634
 40
0.003
 41
0.003
 10
0.263516
 20
0.909547
 40
0.003
 41
0.003
  0
LWPOLYLINE
  5
1A9
100
AcDbEntity
  8
0
 62
     0
100
AcDbPolyline
 90
        2
 70
     0
 39
0.003
 10
0.263516
 20
0.909547
 40
0.003
 41
0.003
 10
0.276929
 20
0.892209
 40
0.003
 41
0.003
  0
LWPOLYLINE
  5
1AA
100
AcDbEntity
  8
0
 62
     0
100
AcDbPolyline
 90
        2
 70
     0
 39
0.003
 10
0.276929
 20
0.892209
 40
0.003
 41
0.003
 10
0.289465
 20
0.87252
 40
0.003
 41
0.003
  0
LWPOLYLINE
  5
1AB
100
AcDbEntity
  8
0
 62
     0
100
AcDbPolyline
 90
        2
 70
     0
 39
0.003
 10
0.289465
 20
0.87252
 40
0.003
 41
0.003
 10
0.301035
 20
0.850409
 40
0.003
 41
0.003
  0
LWPOLYLINE
  5
1AC
100
AcDbEntity
  8
0
 62
     0
100
AcDbPolyline
 90
        2
 70
     0
 39
0.003
 10
0.301035
 20
0.850409
 40
0.003
 41
0.003
 10
0.311531
 20
0.825783
 40
0.003
 41
0.003
  0
LWPOLYLINE
  5
1AD
100
AcDbEntity
  8
0
 62
     0
100
AcDbPolyline
 90
        2
 70
     0
 39
0.003
 10
0.311531
 20
0.825783
 40
0.003
 41
0.003
 10
0.320882
 20
0.798575
 40
0.003
 41
0.003
  0
LWPOLYLINE
  5
1AE
100
AcDbEntity
  8
0
 62
     0
100
AcDbPolyline
 90
        2
 70
     0
 39
0.003
 10
0.320882
 20
0.798575
 40
0.003
 41
0.003
 10
0.328969
 20
0.768689
 40
0.003
 41
0.003
  0
LWPOLYLINE
  5
1AF
100
AcDbEntity
  8
0
 62
     0
100
AcDbPolyline
 90
        2
 70
     0
 39
0.003
 10
0.328969
 20
0.768689
 40
0.003
 41
0.003
 10
0.335713
 20
0.736051
 40
0.003
 41
0.003
  0
LWPOLYLINE
  5
1B0
100
AcDbEntity
  8
0
 62
     9
100
AcDbPolyline
 90
        2
 70
     0
 39
0.003
 10
-0.077961
 20
0.822728
 40
0.003
 41
0.003
 10
-0.075984
 20
1.571736
 40
0.003
 41
0.003
  0
LWPOLYLINE
  5
1B1
100
AcDbEntity
  8
0
 62
     9
100
AcDbPolyline
 90
        2
 70
     0
 39
0.003
 10
-0.075984
 20
1.571736
 40
0.003
 41
0.003
 10
-0.194906
 20
1.583453
 40
0.003
 41
0.003
  0
LWPOLYLINE
  5
1B2
100
AcDbEntity
  8
0
 62
     9
100
AcDbPolyline
 90
        2
 70
     0
 39
0.003
 10
-0.194906
 20
1.583453
 40
0.003
 41
0.003
 10
-0.196882
 20
0.834445
 40
0.003
 41
0.003
  0
LWPOLYLINE
  5
1B3
100
AcDbEntity
  8
0
 62
     9
100
AcDbPolyline
 90
        2
 70
     0
 39
0.003
 10
-0.196882
 20
0.834445
 40
0.003
 41
0.003
 10
-0.077961
 20
0.822728
 40
0.003
 41
0.003
  0
LWPOLYLINE
  5
1B4
100
AcDbEntity
  8
0
 62
     0
100
AcDbPolyline
 90
        2
 70
     0
 39
0.003
 10
-0.077961
 20
0.822728
 40
0.003
 41
0.003
 10
-0.075984
 20
1.571736
 40
0.003
 41
0.003
  0
LWPOLYLINE
  5
1B5
100
AcDbEntity
  8
0
 62
     0
100
AcDbPolyline
 90
        2
 70
     0
 39
0.003
 10
-0.075984
 20
1.571736
 40
0.003
 41
0.003
 10
-0.194906
 20
1.583453
 40
0.003
 41
0.003
  0
LWPOLYLINE
  5
1B6
100
AcDbEntity
  8
0
 62
     0
100
AcDbPolyline
 90
        2
 70
     0
 39
0.003
 10
-0.194906
 20
1.583453
 40
0.003
 41
0.003
 10
-0.196882
 20
0.834445
 40
0.003
 41
0.003
  0
LWPOLYLINE
  5
1B7
100
AcDbEntity
  8
0
 62
     0
100
AcDbPolyline
 90
        2
 70
     0
 39
0.003
 10
-0.196882
 20
0.834445
 40
0.003
 41
0.003
 10
-0.077961
 20
0.822728
 40
0.003
 41
0.003
  0
LWPOLYLINE
  5
1B8
100
AcDbEntity
  8
0
 62
     0
100
AcDbPolyline
 90
        2
 70
     0
 39
0.003
 10
-0.196882
 20
0.834445
 40
0.003
 41
0.003
 10
-0.194906
 20
1.583453
 40
0.003
 41
0.003
  0
LWPOLYLINE
  5
1B9
100
AcDbEntity
  8
0
 62
     0
100
AcDbPolyline
 90
        2
 70
     0
 39
0.003
 10
-0.194906
 20
1.583453
 40
0.003
 41
0.003
 10
-0.215453
 20
1.546764
 40
0.003
 41
0.003
  0
LWPOLYLINE
  5
1BA
100
AcDbEntity
  8
0
 62
     0
100
AcDbPolyline
 90
        2
 70
     0
 39
0.003
 10
-0.215453
 20
1.546764
 40
0.003
 41
0.003
 10
-0.217429
 20
0.797756
 40
0.003
 41
0.003
  0
LWPOLYLINE
  5
1BB
100
AcDbEntity
  8
0
 62
     0
100
AcDbPolyline
 90
        2
 70
     0
 39
0.003
 10
-0.217429
 20
0.797756
 40
0.003
 41
0.003
 10
-0.196882
 20
0.834445
 40
0.003
 41
0.003
  0
LWPOLYLINE
  5
1BC
100
AcDbEntity
  8
0
 62
   129
100
AcDbPolyline
 90
        2
 70
     0
 39
0.003
 10
-0.217429
 20
0.797756
 40
0.003
 41
0.003
 10
-0.215453
 20
1.546764
 40
0.003
 41
0.003
  0
LWPOLYLINE
  5
1BD
100
AcDbEntity
  8
0
 62
   129
100
AcDbPolyline
 90
        2
 70
     0
 39
0.003
 10
-0.215453
 20
1.546764
 40
0.003
 41
0.003
 10
-0.2365
 20
1.514579
 40
0.003
 41
0.003
  0
LWPOLYLINE
  5
1BE
100
AcDbEntity
  8
0
 62
   129
100
AcDbPolyline
 90
        2
 70
     0
 39
0.003
 10
-0.2365
 20
1.514579
 40
0.003
 41
0.003
 10
-0.238476
 20
0.765571
 40
0.003
 41
0.003
  0
LWPOLYLINE
  5
1BF
100
AcDbEntity
  8
0
 62
   129
100
AcDbPolyline
 90
        2
 70
     0
 39
0.003
 10
-0.238476
 20
0.765571
 40
0.003
 41
0.003
 10
-0.217429
 20
0.797756
 40
0.003
 41
0.003
  0
LWPOLYLINE
  5
1C0
100
AcDbEntity
  8
0
 62
   251
100
AcDbPolyline
 90
        2
 70
     0
 39
0.003
 10
-0.238476
 20
0.765571
 40
0.003
 41
0.003
 10
-0.2365
 20
1.514579
 40
0.003
 41
0.003
  0
LWPOLYLINE
  5
1C1
100
AcDbEntity
  8
0
 62
   251
100
AcDbPolyline
 90
        2
 70
     0
 39
0.003
 10
-0.2365
 20
1.514579
 40
0.003
 41
0.003
 10
-0.257965
 20
1.486724
 40
0.003
 41
0.003
  0
LWPOLYLINE
  5
1C2
100
AcDbEntity
  8
0
 62
   251
100
AcDbPolyline
 90
        2
 70
     0
 39
0.003
 10
-0.257965
 20
1.486724
 40
0.003
 41
0.003
 10
-0.259941
 20
0.737717
 40
0.003
 41
0.003
  0
LWPOLYLINE
  5
1C3
100
AcDbEntity
  8
0
 62
   251
100
AcDbPolyline
 90
        2
 70
     0
 39
0.003
 10
-0.259941
 20
0.737717
 40
0.003
 41
0.003
 10
-0.238476
 20
0.765571
 40
0.003
 41
0.003
  0
LWPOLYLINE
  5
1C4
100
AcDbEntity
  8
0
 62
     8
100
AcDbPolyline
 90
        2
 70
     0
 39
0.003
 10
-0.259941
 20
0.737717
 40
0.003
 41
0.003
 10
-0.257965
 20
1.486724
 40
0.003
 41
0.003
  0
LWPOLYLINE
  5
1C5
100
AcDbEntity
  8
0
 62
     8
100
AcDbPolyline
 90
        2
 70
     0
 39
0.003
 10
-0.257965
 20
1.486724
 40
0.003
 41
0.003
 10
-0.279791
 20
1.463035
 40
0.003
 41
0.003
  0
LWPOLYLINE
  5
1C6
100
AcDbEntity
  8
0
 62
     8
100
AcDbPolyline
 90
        2
 70
     0
 39
0.003
 10
-0.279791
 20
1.463035
 40
0.003
 41
0.003
 10
-0.281768
 20
0.714028
 40
0.003
 41
0.003
  0
LWPOLYLINE
  5
1C7
100
AcDbEntity
  8
0
 62
     8
100
AcDbPolyline
 90
        2
 70
     0
 39
0.003
 10
-0.281768
 20
0.714028
 40
0.003
 41
0.003
 10
-0.259941
 20
0.737717
 40
0.003
 41
0.003
  0
LWPOLYLINE
  5
1C8
100
AcDbEntity
  8
0
 62
   252
100
AcDbPolyline
 90
        2
 70
     0
 39
0.003
 10
-0.281768
 20
0.714028
 40
0.003
 41
0.003
 10
-0.279791
 20
1.463035
 40
0.003
 41
0.003
  0
LWPOLYLINE
  5
1C9
100
AcDbEntity
  8
0
 62
   252
100
AcDbPolyline
 90
        2
 70
     0
 39
0.003
 10
-0.279791
 20
1.463035
 40
0.003
 41
0.003
 10
-0.301898
 20
1.443335
 40
0.003
 41
0.003
  0
LWPOLYLINE
  5
1CA
100
AcDbEntity
  8
0
 62
   252
100
AcDbPolyline
 90
        2
 70
     0
 39
0.003
 10
-0.301898
 20
1.443335
 40
0.003
 41
0.003
 10
-0.303874
 20
0.694327
 40
0.003
 41
0.003
  0
LWPOLYLINE
  5
1CB
100
AcDbEntity
  8
0
 62
   252
100
AcDbPolyline
 90
        2
 70
     0
 39
0.003
 10
-0.303874
 20
0.694327
 40
0.003
 41
0.003
 10
-0.281768
 20
0.714028
 40
0.003
 41
0.003
  0
LWPOLYLINE
  5
1CC
100
AcDbEntity
  8
0
 62
   253
100
AcDbPolyline
 90
        2
 70
     0
 39
0.003
 10
-0.303874
 20
0.694327
 40
0.003
 41
0.003
 10
-0.301898
 20
1.443335
 40
0.003
 41
0.003
  0
LWPOLYLINE
  5
1CD
100
AcDbEntity
  8
0
 62
   253
100
AcDbPolyline
 90
        2
 70
     0
 39
0.003
 10
-0.301898
 20
1.443335
 40
0.003
 41
0.003
 10
-0.32422
 20
1.427469
 40
0.003
 41
0.003
  0
LWPOLYLINE
  5
1CE
100
AcDbEntity
  8
0
 62
   253
100
AcDbPolyline
 90
        2
 70
     0
 39
0.003
 10
-0.32422
 20
1.427469
 40
0.003
 41
0.003
 10
-0.326197
 20
0.678461
 40
0.003
 41
0.003
  0
LWPOLYLINE
  5
1CF
100
AcDbEntity
  8
0
 62
   253
100
AcDbPolyline
 90
        2
 70
     0
 39
0.003
 10
-0.326197
 20
0.678461
 40
0.003
 41
0.003
 10
-0.303874
 20
0.694327
 40
0.003
 41
0.003
  0
LWPOLYLINE
  5
1D0
100
AcDbEntity
  8
0
 62
   253
100
AcDbPolyline
 90
        2
 70
     0
 39
0.003
 10
-0.326197
 20
0.678461
 40
0.003
 41
0.003
 10
-0.32422
 20
1.427469
 40
0.003
 41
0.003
  0
LWPOLYLINE
  5
1D1
100
AcDbEntity
  8
0
 62
   253
100
AcDbPolyline
 90
        2
 70
     0
 39
0.003
 10
-0.32422
 20
1.427469
 40
0.003
 41
0.003
 10
-0.346693
 20
1.415256
 40
0.003
 41
0.003
  0
LWPOLYLINE
  5
1D2
100
AcDbEntity
  8
0
 62
   253
100
AcDbPolyline
 90
        2
 70
     0
 39
0.003
 10
-0.346693
 20
1.415256
 40
0.003
 41
0.003
 10
-0.348669
 20
0.666248
 40
0.003
 41
0.003
  0
LWPOLYLINE
  5
1D3
100
AcDbEntity
  8
0
 62
   253
100
AcDbPolyline
 90
        2
 70
     0
 39
0.003
 10
-0.348669
 20
0.666248
 40
0.003
 41
0.003
 10
-0.326197
 20
0.678461
 40
0.003
 41
0.003
  0
LWPOLYLINE
  5
1D4
100
AcDbEntity
  8
0
 62
   253
100
AcDbPolyline
 90
        2
 70
     0
 39
0.003
 10
-0.348669
 20
0.666248
 40
0.003
 41
0.003
 10
-0.346693
 20
1.415256
 40
0.003
 41
0.003
  0
LWPOLYLINE
  5
1D5
100
AcDbEntity
  8
0
 62
   253
100
AcDbPolyline
 90
        2
 70
     0
 39
0.003
 10
-0.346693
 20
1.415256
 40
0.003
 41
0.003
 10
-0.369248
 20
1.406543
 40
0.003
 41
0.003
  0
LWPOLYLINE
  5
1D6
100
AcDbEntity
  8
0
 62
   253
100
AcDbPolyline
 90
        2
 70
     0
 39
0.003
 10
-0.369248
 20
1.406543
 40
0.003
 41
0.003
 10
-0.371224
 20
0.657535
 40
0.003
 41
0.003
  0
LWPOLYLINE
  5
1D7
100
AcDbEntity
  8
0
 62
   253
100
AcDbPolyline
 90
        2
 70
     0
 39
0.003
 10
-0.371224
 20
0.657535
 40
0.003
 41
0.003
 10
-0.348669
 20
0.666248
 40
0.003
 41
0.003
  0
LWPOLYLINE
  5
1D8
100
AcDbEntity
  8
0
 62
     9
100
AcDbPolyline
 90
        2
 70
     0
 39
0.003
 10
-0.371224
 20
0.657535
 40
0.003
 41
0.003
 10
-0.369248
 20
1.406543
 40
0.003
 41
0.003
  0
LWPOLYLINE
  5
1D9
100
AcDbEntity
  8
0
 62
     9
100
AcDbPolyline
 90
        2
 70
     0
 39
0.003
 10
-0.369248
 20
1.406543
 40
0.003
 41
0.003
 10
-0.391803
 20
1.401138
 40
0.003
 41
0.003
  0
LWPOLYLINE
  5
1DA
100
AcDbEntity
  8
0
 62
     9
100
AcDbPolyline
 90
        2
 70
     0
 39
0.003
 10
-0.391803
 20
1.401138
 40
0.003
 41
0.003
 10
-0.39378
 20
0.65213
 40
0.003
 41
0.003
  0
LWPOLYLINE
  5
1DB
100
AcDbEntity
  8
0
 62
     9
100
AcDbPolyline
 90
        2
 70
     0
 39
0.003
 10
-0.39378
 20
0.65213
 40
0.003
 41
0.003
 10
-0.371224
 20
0.657535
 40
0.003
 41
0.003
  0
LWPOLYLINE
  5
1DC
100
AcDbEntity
  8
0
 62
     9
100
AcDbPolyline
 90
        2
 70
     0
 39
0.003
 10
-0.39378
 20
0.65213
 40
0.003
 41
0.003
 10
-0.391803
 20
1.401138
 40
0.003
 41
0.003
  0
LWPOLYLINE
  5
1DD
100
AcDbEntity
  8
0
 62
     9
100
AcDbPolyline
 90
        2
 70
     0
 39
0.003
 10
-0.391803
 20
1.401138
 40
0.003
 41
0.003
 10
-0.414307
 20
1.398894
 40
0.003
 41
0.003
  0
LWPOLYLINE
  5
1DE
100
AcDbEntity
  8
0
 62
     9
100
AcDbPolyline
 90
        2
 70
     0
 39
0.003
 10
-0.414307
 20
1.398894
 40
0.003
 41
0.003
 10
-0.416283
 20
0.649886
 40
0.003
 41
0.003
  0
LWPOLYLINE
  5
1DF
100
AcDbEntity
  8
0
 62
     9
100
AcDbPolyline
 90
        2
 70
     0
 39
0.003
 10
-0.416283
 20
0.649886
 40
0.003
 41
0.003
 10
-0.39378
 20
0.65213
 40
0.003
 41
0.003
  0
LWPOLYLINE
  5
1E0
100
AcDbEntity
  8
0
 62
     9
100
AcDbPolyline
 90
        2
 70
     0
 39
0.003
 10
-0.416283
 20
0.649886
 40
0.003
 41
0.003
 10
-0.414307
 20
1.398894
 40
0.003
 41
0.003
  0
LWPOLYLINE
  5
1E1
100
AcDbEntity
  8
0
 62
     9
100
AcDbPolyline
 90
        2
 70
     0
 39
0.003
 10
-0.414307
 20
1.398894
 40
0.003
 41
0.003
 10
-0.436681
 20
1.39963
 40
0.003
 41
0.003
  0
LWPOLYLINE
  5
1E2
100
AcDbEntity
  8
0
 62
     9
100
AcDbPolyline
 90
        2
 70
     0
 39
0.003
 10
-0.436681
 20
1.39963
 40
0.003
 41
0.003
 10
-0.438657
 20
0.650622
 40
0.003
 41
0.003
  0
LWPOLYLINE
  5
1E3
100
AcDbEntity
  8
0
 62
     9
100
AcDbPolyline
 90
        2
 70
     0
 39
0.003
 10
-0.438657
 20
0.650622
 40
0.003
 41
0.003
 10
-0.416283
 20
0.649886
 40
0.003
 41
0.003
  0
LWPOLYLINE
  5
1E4
100
AcDbEntity
  8
0
 62
     9
100
AcDbPolyline
 90
        2
 70
     0
 39
0.003
 10
-0.438657
 20
0.650622
 40
0.003
 41
0.003
 10
-0.436681
 20
1.39963
 40
0.003
 41
0.003
  0
LWPOLYLINE
  5
1E5
100
AcDbEntity
  8
0
 62
     9
100
AcDbPolyline
 90
        2
 70
     0
 39
0.003
 10
-0.436681
 20
1.39963
 40
0.003
 41
0.003
 10
-0.458862
 20
1.403189
 40
0.003
 41
0.003
  0
LWPOLYLINE
  5
1E6
100
AcDbEntity
  8
0
 62
     9
100
AcDbPolyline
 90
        2
 70
     0
 39
0.003
 10
-0.458862
 20
1.403189
 40
0.003
 41
0.003
 10
-0.460839
 20
0.654181
 40
0.003
 41
0.003
  0
LWPOLYLINE
  5
1E7
100
AcDbEntity
  8
0
 62
     9
100
AcDbPolyline
 90
        2
 70
     0
 39
0.003
 10
-0.460839
 20
0.654181
 40
0.003
 41
0.003
 10
-0.438657
 20
0.650622
 40
0.003
 41
0.003
  0
LWPOLYLINE
  5
1E8
100
AcDbEntity
  8
0
 62
     9
100
AcDbPolyline
 90
        2
 70
     0
 39
0.003
 10
-0.460839
 20
0.654181
 40
0.003
 41
0.003
 10
-0.458862
 20
1.403189
 40
0.003
 41
0.003
  0
LWPOLYLINE
  5
1E9
100
AcDbEntity
  8
0
 62
     9
100
AcDbPolyline
 90
        2
 70
     0
 39
0.003
 10
-0.458862
 20
1.403189
 40
0.003
 41
0.003
 10
-0.480772
 20
1.40939
 40
0.003
 41
0.003
  0
LWPOLYLINE
  5
1EA
100
AcDbEntity
  8
0
 62
     9
100
AcDbPolyline
 90
        2
 70
     0
 39
0.003
 10
-0.480772
 20
1.40939
 40
0.003
 41
0.003
 10
-0.482748
 20
0.660382
 40
0.003
 41
0.003
  0
LWPOLYLINE
  5
1EB
100
AcDbEntity
  8
0
 62
     9
100
AcDbPolyline
 90
        2
 70
     0
 39
0.003
 10
-0.482748
 20
0.660382
 40
0.003
 41
0.003
 10
-0.460839
 20
0.654181
 40
0.003
 41
0.003
  0
LWPOLYLINE
  5
1EC
100
AcDbEntity
  8
0
 62
     9
100
AcDbPolyline
 90
        2
 70
     0
 39
0.003
 10
-0.482748
 20
0.660382
 40
0.003
 41
0.003
 10
-0.480772
 20
1.40939
 40
0.003
 41
0.003
  0
LWPOLYLINE
  5
1ED
100
AcDbEntity
  8
0
 62
     9
100
AcDbPolyline
 90
        2
 70
     0
 39
0.003
 10
-0.480772
 20
1.40939
 40
0.003
 41
0.003
 10
-0.502354
 20
1.418079
 40
0.003
 41
0.003
  0
LWPOLYLINE
  5
1EE
100
AcDbEntity
  8
0
 62
     9
100
AcDbPolyline
 90
        2
 70
     0
 39
0.003
 10
-0.502354
 20
1.418079
 40
0.003
 41
0.003
 10
-0.504331
 20
0.669071
 40
0.003
 41
0.003
  0
LWPOLYLINE
  5
1EF
100
AcDbEntity
  8
0
 62
     9
100
AcDbPolyline
 90
        2
 70
     0
 39
0.003
 10
-0.504331
 20
0.669071
 40
0.003
 41
0.003
 10
-0.482748
 20
0.660382
 40
0.003
 41
0.003
  0
LWPOLYLINE
  5
1F0
100
AcDbEntity
  8
0
 62
   254
100
AcDbPolyline
 90
        2
 70
     0
 39
0.003
 10
-0.504331
 20
0.669071
 40
0.003
 41
0.003
 10
-0.502354
 20
1.418079
 40
0.003
 41
0.003
  0
LWPOLYLINE
  5
1F1
100
AcDbEntity
  8
0
 62
   254
100
AcDbPolyline
 90
        2
 70
     0
 39
0.003
 10
-0.502354
 20
1.418079
 40
0.003
 41
0.003
 10
-0.523531
 20
1.429075
 40
0.003
 41
0.003
  0
LWPOLYLINE
  5
1F2
100
AcDbEntity
  8
0
 62
   254
100
AcDbPolyline
 90
        2
 70
     0
 39
0.003
 10
-0.523531
 20
1.429075
 40
0.003
 41
0.003
 10
-0.525508
 20
0.680067
 40
0.003
 41
0.003
  0
LWPOLYLINE
  5
1F3
100
AcDbEntity
  8
0
 62
   254
100
AcDbPolyline
 90
        2
 70
     0
 39
0.003
 10
-0.525508
 20
0.680067
 40
0.003
 41
0.003
 10
-0.504331
 20
0.669071
 40
0.003
 41
0.003
  0
LWPOLYLINE
  5
1F4
100
AcDbEntity
  8
0
 62
   254
100
AcDbPolyline
 90
        2
 70
     0
 39
0.003
 10
-0.525508
 20
0.680067
 40
0.003
 41
0.003
 10
-0.523531
 20
1.429075
 40
0.003
 41
0.003
  0
LWPOLYLINE
  5
1F5
100
AcDbEntity
  8
0
 62
   254
100
AcDbPolyline
 90
        2
 70
     0
 39
0.003
 10
-0.523531
 20
1.429075
 40
0.003
 41
0.003
 10
-0.544248
 20
1.442224
 40
0.003
 41
0.003
  0
LWPOLYLINE
  5
1F6
100
AcDbEntity
  8
0
 62
   254
100
AcDbPolyline
 90
        2
 70
     0
 39
0.003
 10
-0.544248
 20
1.442224
 40
0.003
 41
0.003
 10
-0.546224
 20
0.693217
 40
0.003
 41
0.003
  0
LWPOLYLINE
  5
1F7
100
AcDbEntity
  8
0
 62
   254
100
AcDbPolyline
 90
        2
 70
     0
 39
0.003
 10
-0.546224
 20
0.693217
 40
0.003
 41
0.003
 10
-0.525508
 20
0.680067
 40
0.003
 41
0.003
  0
LWPOLYLINE
  5
1F8
100
AcDbEntity
  8
0
 62
   254
100
AcDbPolyline
 90
        2
 70
     0
 39
0.003
 10
-0.546224
 20
0.693217
 40
0.003
 41
0.003
 10
-0.544248
 20
1.442224
 40
0.003
 41
0.003
  0
LWPOLYLINE
  5
1F9
100
AcDbEntity
  8
0
 62
   254
100
AcDbPolyline
 90
        2
 70
     0
 39
0.003
 10
-0.544248
 20
1.442224
 40
0.003
 41
0.003
 10
-0.564409
 20
1.457335
 40
0.003
 41
0.003
  0
LWPOLYLINE
  5
1FA
100
AcDbEntity
  8
0
 62
   254
100
AcDbPolyline
 90
        2
 70
     0
 39
0.003
 10
-0.564409
 20
1.457335
 40
0.003
 41
0.003
 10
-0.566386
 20
0.708327
 40
0.003
 41
0.003
  0
LWPOLYLINE
  5
1FB
100
AcDbEntity
  8
0
 62
   254
100
AcDbPolyline
 90
        2
 70
     0
 39
0.003
 10
-0.566386
 20
0.708327
 40
0.003
 41
0.003
 10
-0.546224
 20
0.693217
 40
0.003
 41
0.003
  0
LWPOLYLINE
  5
1FC
100
AcDbEntity
  8
0
 62
   254
100
AcDbPolyline
 90
        2
 70
     0
 39
0.003
 10
-0.566386
 20
0.708327
 40
0.003
 41
0.003
 10
-0.564409
 20
1.457335
 40
0.003
 41
0.003
  0
LWPOLYLINE
  5
1FD
100
AcDbEntity
  8
0
 62
   254
100
AcDbPolyline
 90
        2
 70
     0
 39
0.003
 10
-0.564409
 20
1.457335
 40
0.003
 41
0.003
 10
-0.583972
 20
1.47426
 40
0.003
 41
0.003
  0
LWPOLYLINE
  5
1FE
100
AcDbEntity
  8
0
 62
   254
100
AcDbPolyline
 90
        2
 70
     0
 39
0.003
 10
-0.583972
 20
1.47426
 40
0.003
 41
0.003
 10
-0.585949
 20
0.725252
 40
0.003
 41
0.003
  0
LWPOLYLINE
  5
1FF
100
AcDbEntity
  8
0
 62
   254
100
AcDbPolyline
 90
        2
 70
     0
 39
0.003
 10
-0.585949
 20
0.725252
 40
0.003
 41
0.003
 10
-0.566386
 20
0.708327
 40
0.003
 41
0.003
  0
LWPOLYLINE
  5
200
100
AcDbEntity
  8
0
 62
   254
100
AcDbPolyline
 90
        2
 70
     0
 39
0.003
 10
-0.585949
 20
0.725252
 40
0.003
 41
0.003
 10
-0.583972
 20
1.47426
 40
0.003
 41
0.003
  0
LWPOLYLINE
  5
201
100
AcDbEntity
  8
0
 62
   254
100
AcDbPolyline
 90
        2
 70
     0
 39
0.003
 10
-0.583972
 20
1.47426
 40
0.003
 41
0.003
 10
-0.602854
 20
1.492823
 40
0.003
 41
0.003
  0
LWPOLYLINE
  5
202
100
AcDbEntity
  8
0
 62
   254
100
AcDbPolyline
 90
        2
 70
     0
 39
0.003
 10
-0.602854
 20
1.492823
 40
0.003
 41
0.003
 10
-0.604831
 20
0.743815
 40
0.003
 41
0.003
  0
LWPOLYLINE
  5
203
100
AcDbEntity
  8
0
 62
   254
100
AcDbPolyline
 90
        2
 70
     0
 39
0.003
 10
-0.604831
 20
0.743815
 40
0.003
 41
0.003
 10
-0.585949
 20
0.725252
 40
0.003
 41
0.003
  0
LWPOLYLINE
  5
204
100
AcDbEntity
  8
0
 62
   254
100
AcDbPolyline
 90
        2
 70
     0
 39
0.003
 10
-0.604831
 20
0.743815
 40
0.003
 41
0.003
 10
-0.602854
 20
1.492823
 40
0.003
 41
0.003
  0
LWPOLYLINE
  5
205
100
AcDbEntity
  8
0
 62
   254
100
AcDbPolyline
 90
        2
 70
     0
 39
0.003
 10
-0.602854
 20
1.492823
 40
0.003
 41
0.003
 10
-0.620996
 20
1.512862
 40
0.003
 41
0.003
  0
LWPOLYLINE
  5
206
100
AcDbEntity
  8
0
 62
   254
100
AcDbPolyline
 90
        2
 70
     0
 39
0.003
 10
-0.620996
 20
1.512862
 40
0.003
 41
0.003
 10
-0.622972
 20
0.763854
 40
0.003
 41
0.003
  0
LWPOLYLINE
  5
207
100
AcDbEntity
  8
0
 62
   254
100
AcDbPolyline
 90
        2
 70
     0
 39
0.003
 10
-0.622972
 20
0.763854
 40
0.003
 41
0.003
 10
-0.604831
 20
0.743815
 40
0.003
 41
0.003
  0
LWPOLYLINE
  5
208
100
AcDbEntity
  8
0
 62
   254
100
AcDbPolyline
 90
        2
 70
     0
 39
0.003
 10
-0.622972
 20
0.763854
 40
0.003
 41
0.003
 10
-0.620996
 20
1.512862
 40
0.003
 41
0.003
  0
LWPOLYLINE
  5
209
100
AcDbEntity
  8
0
 62
   254
100
AcDbPolyline
 90
        2
 70
     0
 39
0.003
 10
-0.620996
 20
1.512862
 40
0.003
 41
0.003
 10
-0.638315
 20
1.534193
 40
0.003
 41
0.003
  0
LWPOLYLINE
  5
20A
100
AcDbEntity
  8
0
 62
   254
100
AcDbPolyline
 90
        2
 70
     0
 39
0.003
 10
-0.638315
 20
1.534193
 40
0.003
 41
0.003
 10
-0.640291
 20
0.785185
 40
0.003
 41
0.003
  0
LWPOLYLINE
  5
20B
100
AcDbEntity
  8
0
 62
   254
100
AcDbPolyline
 90
        2
 70
     0
 39
0.003
 10
-0.640291
 20
0.785185
 40
0.003
 41
0.003
 10
-0.622972
 20
0.763854
 40
0.003
 41
0.003
  0
LWPOLYLINE
  5
20C
100
AcDbEntity
  8
0
 62
   254
100
AcDbPolyline
 90
        2
 70
     0
 39
0.003
 10
-0.640291
 20
0.785185
 40
0.003
 41
0.003
 10
-0.638315
 20
1.534193
 40
0.003
 41
0.003
  0
LWPOLYLINE
  5
20D
100
AcDbEntity
  8
0
 62
   254
100
AcDbPolyline
 90
        2
 70
     0
 39
0.003
 10
-0.638315
 20
1.534193
 40
0.003
 41
0.003
 10
-0.654756
 20
1.556665
 40
0.003
 41
0.003
  0
LWPOLYLINE
  5
20E
100
AcDbEntity
  8
0
 62
   254
100
AcDbPolyline
 90
        2
 70
     0
 39
0.003
 10
-0.654756
 20
1.556665
 40
0.003
 41
0.003
 10
-0.656732
 20
0.807657
 40
0.003
 41
0.003
  0
LWPOLYLINE
  5
20F
100
AcDbEntity
  8
0
 62
   254
100
AcDbPolyline
 90
        2
 70
     0
 39
0.003
 10
-0.656732
 20
0.807657
 40
0.003
 41
0.003
 10
-0.640291
 20
0.785185
 40
0.003
 41
0.003
  0
LWPOLYLINE
  5
210
100
AcDbEntity
  8
0
 62
   254
100
AcDbPolyline
 90
        2
 70
     0
 39
0.003
 10
-0.656732
 20
0.807657
 40
0.003
 41
0.003
 10
-0.654756
 20
1.556665
 40
0.003
 41
0.003
  0
LWPOLYLINE
  5
211
100
AcDbEntity
  8
0
 62
   254
100
AcDbPolyline
 90
        2
 70
     0
 39
0.003
 10
-0.654756
 20
1.556665
 40
0.003
 41
0.003
 10
-0.670244
 20
1.580102
 40
0.003
 41
0.003
  0
LWPOLYLINE
  5
212
100
AcDbEntity
  8
0
 62
   254
100
AcDbPolyline
 90
        2
 70
     0
 39
0.003
 10
-0.670244
 20
1.580102
 40
0.003
 41
0.003
 10
-0.67222
 20
0.831094
 40
0.003
 41
0.003
  0
LWPOLYLINE
  5
213
100
AcDbEntity
  8
0
 62
   254
100
AcDbPolyline
 90
        2
 70
     0
 39
0.003
 10
-0.67222
 20
0.831094
 40
0.003
 41
0.003
 10
-0.656732
 20
0.807657
 40
0.003
 41
0.003
  0
LWPOLYLINE
  5
214
100
AcDbEntity
  8
0
 62
   254
100
AcDbPolyline
 90
        2
 70
     0
 39
0.003
 10
-0.67222
 20
0.831094
 40
0.003
 41
0.003
 10
-0.670244
 20
1.580102
 40
0.003
 41
0.003
  0
LWPOLYLINE
  5
215
100
AcDbEntity
  8
0
 62
   254
100
AcDbPolyline
 90
        2
 70
     0
 39
0.003
 10
-0.670244
 20
1.580102
 40
0.003
 41
0.003
 10
-0.68472
 20
1.604343
 40
0.003
 41
0.003
  0
LWPOLYLINE
  5
216
100
AcDbEntity
  8
0
 62
   254
100
AcDbPolyline
 90
        2
 70
     0
 39
0.003
 10
-0.68472
 20
1.604343
 40
0.003
 41
0.003
 10
-0.686697
 20
0.855335
 40
0.003
 41
0.003
  0
LWPOLYLINE
  5
217
100
AcDbEntity
  8
0
 62
   254
100
AcDbPolyline
 90
        2
 70
     0
 39
0.003
 10
-0.686697
 20
0.855335
 40
0.003
 41
0.003
 10
-0.67222
 20
0.831094
 40
0.003
 41
0.003
  0
LWPOLYLINE
  5
218
100
AcDbEntity
  8
0
 62
   254
100
AcDbPolyline
 90
        2
 70
     0
 39
0.003
 10
-0.686697
 20
0.855335
 40
0.003
 41
0.003
 10
-0.68472
 20
1.604343
 40
0.003
 41
0.003
  0
LWPOLYLINE
  5
219
100
AcDbEntity
  8
0
 62
   254
100
AcDbPolyline
 90
        2
 70
     0
 39
0.003
 10
-0.68472
 20
1.604343
 40
0.003
 41
0.003
 10
-0.698094
 20
1.629205
 40
0.003
 41
0.003
  0
LWPOLYLINE
  5
21A
100
AcDbEntity
  8
0
 62
   254
100
AcDbPolyline
 90
        2
 70
     0
 39
0.003
 10
-0.698094
 20
1.629205
 40
0.003
 41
0.003
 10
-0.700071
 20
0.880197
 40
0.003
 41
0.003
  0
LWPOLYLINE
  5
21B
100
AcDbEntity
  8
0
 62
   254
100
AcDbPolyline
 90
        2
 70
     0
 39
0.003
 10
-0.700071
 20
0.880197
 40
0.003
 41
0.003
 10
-0.686697
 20
0.855335
 40
0.003
 41
0.003
  0
LWPOLYLINE
  5
21C
100
AcDbEntity
  8
0
 62
   254
100
AcDbPolyline
 90
        2
 70
     0
 39
0.003
 10
-0.700071
 20
0.880197
 40
0.003
 41
0.003
 10
-0.698094
 20
1.629205
 40
0.003
 41
0.003
  0
LWPOLYLINE
  5
21D
100
AcDbEntity
  8
0
 62
   254
100
AcDbPolyline
 90
        2
 70
     0
 39
0.003
 10
-0.698094
 20
1.629205
 40
0.003
 41
0.003
 10
-0.710319
 20
1.654531
 40
0.003
 41
0.003
  0
LWPOLYLINE
  5
21E
100
AcDbEntity
  8
0
 62
   254
100
AcDbPolyline
 90
        2
 70
     0
 39
0.003
 10
-0.710319
 20
1.654531
 40
0.003
 41
0.003
 10
-0.712295
 20
0.905524
 40
0.003
 41
0.003
  0
LWPOLYLINE
  5
21F
100
AcDbEntity
  8
0
 62
   254
100
AcDbPolyline
 90
        2
 70
     0
 39
0.003
 10
-0.712295
 20
0.905524
 40
0.003
 41
0.003
 10
-0.700071
 20
0.880197
 40
0.003
 41
0.003
  0
LWPOLYLINE
  5
220
100
AcDbEntity
  8
0
 62
   254
100
AcDbPolyline
 90
        2
 70
     0
 39
0.003
 10
-0.712295
 20
0.905524
 40
0.003
 41
0.003
 10
-0.710319
 20
1.654531
 40
0.003
 41
0.003
  0
LWPOLYLINE
  5
221
100
AcDbEntity
  8
0
 62
   254
100
AcDbPolyline
 90
        2
 70
     0
 39
0.003
 10
-0.710319
 20
1.654531
 40
0.003
 41
0.003
 10
-0.721315
 20
1.68015
 40
0.003
 41
0.003
  0
LWPOLYLINE
  5
222
100
AcDbEntity
  8
0
 62
   254
100
AcDbPolyline
 90
        2
 70
     0
 39
0.003
 10
-0.721315
 20
1.68015
 40
0.003
 41
0.003
 10
-0.723291
 20
0.931142
 40
0.003
 41
0.003
  0
LWPOLYLINE
  5
223
100
AcDbEntity
  8
0
 62
   254
100
AcDbPolyline
 90
        2
 70
     0
 39
0.003
 10
-0.723291
 20
0.931142
 40
0.003
 41
0.003
 10
-0.712295
 20
0.905524
 40
0.003
 41
0.003
  0
LWPOLYLINE
  5
224
100
AcDbEntity
  8
0
 62
   254
100
AcDbPolyline
 90
        2
 70
     0
 39
0.003
 10
-0.723291
 20
0.931142
 40
0.003
 41
0.003
 10
-0.721315
 20
1.68015
 40
0.003
 41
0.003
  0
LWPOLYLINE
  5
225
100
AcDbEntity
  8
0
 62
   254
100
AcDbPolyline
 90
        2
 70
     0
 39
0.003
 10
-0.721315
 20
1.68015
 40
0.003
 41
0.003
 10
-0.731016
 20
1.705898
 40
0.003
 41
0.003
  0
LWPOLYLINE
  5
226
100
AcDbEntity
  8
0
 62
   254
100
AcDbPolyline
 90
        2
 70
     0
 39
0.003
 10
-0.731016
 20
1.705898
 40
0.003
 41
0.003
 10
-0.732992
 20
0.95689
 40
0.003
 41
0.003
  0
LWPOLYLINE
  5
227
100
AcDbEntity
  8
0
 62
   254
100
AcDbPolyline
 90
        2
 70
     0
 39
0.003
 10
-0.732992
 20
0.95689
 40
0.003
 41
0.003
 10
-0.723291
 20
0.931142
 40
0.003
 41
0.003
  0
LWPOLYLINE
  5
228
100
AcDbEntity
  8
0
 62
   254
100
AcDbPolyline
 90
        2
 70
     0
 39
0.003
 10
-0.732992
 20
0.95689
 40
0.003
 41
0.003
 10
-0.731016
 20
1.705898
 40
0.003
 41
0.003
  0
LWPOLYLINE
  5
229
100
AcDbEntity
  8
0
 62
   254
100
AcDbPolyline
 90
        2
 70
     0
 39
0.003
 10
-0.731016
 20
1.705898
 40
0.003
 41
0.003
 10
-0.73935
 20
1.731594
 40
0.003
 41
0.003
  0
LWPOLYLINE
  5
22A
100
AcDbEntity
  8
0
 62
   254
100
AcDbPolyline
 90
        2
 70
     0
 39
0.003
 10
-0.73935
 20
1.731594
 40
0.003
 41
0.003
 10
-0.741327
 20
0.982587
 40
0.003
 41
0.003
  0
LWPOLYLINE
  5
22B
100
AcDbEntity
  8
0
 62
   254
100
AcDbPolyline
 90
        2
 70
     0
 39
0.003
 10
-0.741327
 20
0.982587
 40
0.003
 41
0.003
 10
-0.732992
 20
0.95689
 40
0.003
 41
0.003
  0
LWPOLYLINE
  5
22C
100
AcDbEntity
  8
0
 62
   254
100
AcDbPolyline
 90
        2
 70
     0
 39
0.003
 10
-0.741327
 20
0.982587
 40
0.003
 41
0.003
 10
-0.73935
 20
1.731594
 40
0.003
 41
0.003
  0
LWPOLYLINE
  5
22D
100
AcDbEntity
  8
0
 62
   254
100
AcDbPolyline
 90
        2
 70
     0
 39
0.003
 10
-0.73935
 20
1.731594
 40
0.003
 41
0.003
 10
-0.746252
 20
1.757087
 40
0.003
 41
0.003
  0
LWPOLYLINE
  5
22E
100
AcDbEntity
  8
0
 62
   254
100
AcDbPolyline
 90
        2
 70
     0
 39
0.003
 10
-0.746252
 20
1.757087
 40
0.003
 41
0.003
 10
-0.748228
 20
1.008079
 40
0.003
 41
0.003
  0
LWPOLYLINE
  5
22F
100
AcDbEntity
  8
0
 62
   254
100
AcDbPolyline
 90
        2
 70
     0
 39
0.003
 10
-0.748228
 20
1.008079
 40
0.003
 41
0.003
 10
-0.741327
 20
0.982587
 40
0.003
 41
0.003
  0
LWPOLYLINE
  5
230
100
AcDbEntity
  8
0
 62
   254
100
AcDbPolyline
 90
        2
 70
     0
 39
0.003
 10
-0.748228
 20
1.008079
 40
0.003
 41
0.003
 10
-0.746252
 20
1.757087
 40
0.003
 41
0.003
  0
LWPOLYLINE
  5
231
100
AcDbEntity
  8
0
 62
   254
100
AcDbPolyline
 90
        2
 70
     0
 39
0.003
 10
-0.746252
 20
1.757087
 40
0.003
 41
0.003
 10
-0.751654
 20
1.782193
 40
0.003
 41
0.003
  0
LWPOLYLINE
  5
232
100
AcDbEntity
  8
0
 62
   254
100
AcDbPolyline
 90
        2
 70
     0
 39
0.003
 10
-0.751654
 20
1.782193
 40
0.003
 41
0.003
 10
-0.75363
 20
1.033185
 40
0.003
 41
0.003
  0
LWPOLYLINE
  5
233
100
AcDbEntity
  8
0
 62
   254
100
AcDbPolyline
 90
        2
 70
     0
 39
0.003
 10
-0.75363
 20
1.033185
 40
0.003
 41
0.003
 10
-0.748228
 20
1.008079
 40
0.003
 41
0.003
  0
LWPOLYLINE
  5
234
100
AcDbEntity
  8
0
 62
   254
100
AcDbPolyline
 90
        2
 70
     0
 39
0.003
 10
-0.75363
 20
1.033185
 40
0.003
 41
0.003
 10
-0.751654
 20
1.782193
 40
0.003
 41
0.003
  0
LWPOLYLINE
  5
235
100
AcDbEntity
  8
0
 62
   254
100
AcDbPolyline
 90
        2
 70
     0
 39
0.003
 10
-0.751654
 20
1.782193
 40
0.003
 41
0.003
 10
-0.755492
 20
1.80676
 40
0.003
 41
0.003
  0
LWPOLYLINE
  5
236
100
AcDbEntity
  8
0
 62
   254
100
AcDbPolyline
 90
        2
 70
     0
 39
0.003
 10
-0.755492
 20
1.80676
 40
0.003
 41
0.003
 10
-0.757469
 20
1.057752
 40
0.003
 41
0.003
  0
LWPOLYLINE
  5
237
100
AcDbEntity
  8
0
 62
   254
100
AcDbPolyline
 90
        2
 70
     0
 39
0.003
 10
-0.757469
 20
1.057752
 40
0.003
 41
0.003
 10
-0.75363
 20
1.033185
 40
0.003
 41
0.003
  0
LWPOLYLINE
  5
238
100
AcDbEntity
  8
0
 62
     0
100
AcDbPolyline
 90
        2
 70
     0
 39
0.003
 10
-0.196882
 20
0.834445
 40
0.003
 41
0.003
 10
-0.194906
 20
1.583453
 40
0.003
 41
0.003
  0
LWPOLYLINE
  5
239
100
AcDbEntity
  8
0
 62
     0
100
AcDbPolyline
 90
        2
 70
     0
 39
0.003
 10
-0.194906
 20
1.583453
 40
0.003
 41
0.003
 10
-0.215453
 20
1.546764
 40
0.003
 41
0.003
  0
LWPOLYLINE
  5
23A
100
AcDbEntity
  8
0
 62
     0
100
AcDbPolyline
 90
        2
 70
     0
 39
0.003
 10
-0.215453
 20
1.546764
 40
0.003
 41
0.003
 10
-0.2365
 20
1.514579
 40
0.003
 41
0.003
  0
LWPOLYLINE
  5
23B
100
AcDbEntity
  8
0
 62
     0
100
AcDbPolyline
 90
        2
 70
     0
 39
0.003
 10
-0.2365
 20
1.514579
 40
0.003
 41
0.003
 10
-0.257965
 20
1.486724
 40
0.003
 41
0.003
  0
LWPOLYLINE
  5
23C
100
AcDbEntity
  8
0
 62
     0
100
AcDbPolyline
 90
        2
 70
     0
 39
0.003
 10
-0.257965
 20
1.486724
 40
0.003
 41
0.003
 10
-0.279791
 20
1.463035
 40
0.003
 41
0.003
  0
LWPOLYLINE
  5
23D
100
AcDbEntity
  8
0
 62
     0
100
AcDbPolyline
 90
        2
 70
     0
 39
0.003
 10
-0.279791
 20
1.463035
 40
0.003
 41
0.003
 10
-0.301898
 20
1.443335
 40
0.003
 41
0.003
  0
LWPOLYLINE
  5
23E
100
AcDbEntity
  8
0
 62
     0
100
AcDbPolyline
 90
        2
 70
     0
 39
0.003
 10
-0.301898
 20
1.443335
 40
0.003
 41
0.003
 10
-0.32422
 20
1.427469
 40
0.003
 41
0.003
  0
LWPOLYLINE
  5
23F
100
AcDbEntity
  8
0
 62
     0
100
AcDbPolyline
 90
        2
 70
     0
 39
0.003
 10
-0.32422
 20
1.427469
 40
0.003
 41
0.003
 10
-0.346693
 20
1.415256
 40
0.003
 41
0.003
  0
LWPOLYLINE
  5
240
100
AcDbEntity
  8
0
 62
     0
100
AcDbPolyline
 90
        2
 70
     0
 39
0.003
 10
-0.346693
 20
1.415256
 40
0.003
 41
0.003
 10
-0.369248
 20
1.406543
 40
0.003
 41
0.003
  0
LWPOLYLINE
  5
241
100
AcDbEntity
  8
0
 62
     0
100
AcDbPolyline
 90
        2
 70
     0
 39
0.003
 10
-0.369248
 20
1.406543
 40
0.003
 41
0.003
 10
-0.391803
 20
1.401138
 40
0.003
 41
0.003
  0
LWPOLYLINE
  5
242
100
AcDbEntity
  8
0
 62
     0
100
AcDbPolyline
 90
        2
 70
     0
 39
0.003
 10
-0.391803
 20
1.401138
 40
0.003
 41
0.003
 10
-0.414307
 20
1.398894
 40
0.003
 41
0.003
  0
LWPOLYLINE
  5
243
100
AcDbEntity
  8
0
 62
     0
100
AcDbPolyline
 90
        2
 70
     0
 39
0.003
 10
-0.414307
 20
1.398894
 40
0.003
 41
0.003
 10
-0.436681
 20
1.39963
 40
0.003
 41
0.003
  0
LWPOLYLINE
  5
244
100
AcDbEntity
  8
0
 62
     0
100
AcDbPolyline
 90
        2
 70
     0
 39
0.003
 10
-0.436681
 20
1.39963
 40
0.003
 41
0.003
 10
-0.458862
 20
1.403189
 40
0.003
 41
0.003
  0
LWPOLYLINE
  5
245
100
AcDbEntity
  8
0
 62
     0
100
AcDbPolyline
 90
        2
 70
     0
 39
0.003
 10
-0.458862
 20
1.403189
 40
0.003
 41
0.003
 10
-0.480772
 20
1.40939
 40
0.003
 41
0.003
  0
LWPOLYLINE
  5
246
100
AcDbEntity
  8
0
 62
     0
100
AcDbPolyline
 90
        2
 70
     0
 39
0.003
 10
-0.480772
 20
1.40939
 40
0.003
 41
0.003
 10
-0.502354
 20
1.418079
 40
0.003
 41
0.003
  0
LWPOLYLINE
  5
247
100
AcDbEntity
  8
0
 62
     0
100
AcDbPolyline
 90
        2
 70
     0
 39
0.003
 10
-0.502354
 20
1.418079
 40
0.003
 41
0.003
 10
-0.523531
 20
1.429075
 40
0.003
 41
0.003
  0
LWPOLYLINE
  5
248
100
AcDbEntity
  8
0
 62
     0
100
AcDbPolyline
 90
        2
 70
     0
 39
0.003
 10
-0.523531
 20
1.429075
 40
0.003
 41
0.003
 10
-0.544248
 20
1.442224
 40
0.003
 41
0.003
  0
LWPOLYLINE
  5
249
100
AcDbEntity
  8
0
 62
     0
100
AcDbPolyline
 90
        2
 70
     0
 39
0.003
 10
-0.544248
 20
1.442224
 40
0.003
 41
0.003
 10
-0.564409
 20
1.457335
 40
0.003
 41
0.003
  0
LWPOLYLINE
  5
24A
100
AcDbEntity
  8
0
 62
     0
100
AcDbPolyline
 90
        2
 70
     0
 39
0.003
 10
-0.564409
 20
1.457335
 40
0.003
 41
0.003
 10
-0.583972
 20
1.47426
 40
0.003
 41
0.003
  0
LWPOLYLINE
  5
24B
100
AcDbEntity
  8
0
 62
     0
100
AcDbPolyline
 90
        2
 70
     0
 39
0.003
 10
-0.583972
 20
1.47426
 40
0.003
 41
0.003
 10
-0.602854
 20
1.492823
 40
0.003
 41
0.003
  0
LWPOLYLINE
  5
24C
100
AcDbEntity
  8
0
 62
     0
100
AcDbPolyline
 90
        2
 70
     0
 39
0.003
 10
-0.602854
 20
1.492823
 40
0.003
 41
0.003
 10
-0.620996
 20
1.512862
 40
0.003
 41
0.003
  0
LWPOLYLINE
  5
24D
100
AcDbEntity
  8
0
 62
     0
100
AcDbPolyline
 90
        2
 70
     0
 39
0.003
 10
-0.620996
 20
1.512862
 40
0.003
 41
0.003
 10
-0.638315
 20
1.534193
 40
0.003
 41
0.003
  0
LWPOLYLINE
  5
24E
100
AcDbEntity
  8
0
 62
     0
100
AcDbPolyline
 90
        2
 70
     0
 39
0.003
 10
-0.638315
 20
1.534193
 40
0.003
 41
0.003
 10
-0.654756
 20
1.556665
 40
0.003
 41
0.003
  0
LWPOLYLINE
  5
24F
100
AcDbEntity
  8
0
 62
     0
100
AcDbPolyline
 90
        2
 70
     0
 39
0.003
 10
-0.654756
 20
1.556665
 40
0.003
 41
0.003
 10
-0.670244
 20
1.580102
 40
0.003
 41
0.003
  0
LWPOLYLINE
  5
250
100
AcDbEntity
  8
0
 62
     0
100
AcDbPolyline
 90
        2
 70
     0
 39
0.003
 10
-0.670244
 20
1.580102
 40
0.003
 41
0.003
 10
-0.68472
 20
1.604343
 40
0.003
 41
0.003
  0
LWPOLYLINE
  5
251
100
AcDbEntity
  8
0
 62
     0
100
AcDbPolyline
 90
        2
 70
     0
 39
0.003
 10
-0.68472
 20
1.604343
 40
0.003
 41
0.003
 10
-0.698094
 20
1.629205
 40
0.003
 41
0.003
  0
LWPOLYLINE
  5
252
100
AcDbEntity
  8
0
 62
     0
100
AcDbPolyline
 90
        2
 70
     0
 39
0.003
 10
-0.698094
 20
1.629205
 40
0.003
 41
0.003
 10
-0.710319
 20
1.654531
 40
0.003
 41
0.003
  0
LWPOLYLINE
  5
253
100
AcDbEntity
  8
0
 62
     0
100
AcDbPolyline
 90
        2
 70
     0
 39
0.003
 10
-0.710319
 20
1.654531
 40
0.003
 41
0.003
 10
-0.721315
 20
1.68015
 40
0.003
 41
0.003
  0
LWPOLYLINE
  5
254
100
AcDbEntity
  8
0
 62
     0
100
AcDbPolyline
 90
        2
 70
     0
 39
0.003
 10
-0.721315
 20
1.68015
 40
0.003
 41
0.003
 10
-0.731016
 20
1.705898
 40
0.003
 41
0.003
  0
LWPOLYLINE
  5
255
100
AcDbEntity
  8
0
 62
     0
100
AcDbPolyline
 90
        2
 70
     0
 39
0.003
 10
-0.731016
 20
1.705898
 40
0.003
 41
0.003
 10
-0.73935
 20
1.731594
 40
0.003
 41
0.003
  0
LWPOLYLINE
  5
256
100
AcDbEntity
  8
0
 62
     0
100
AcDbPolyline
 90
        2
 70
     0
 39
0.003
 10
-0.73935
 20
1.731594
 40
0.003
 41
0.003
 10
-0.746252
 20
1.757087
 40
0.003
 41
0.003
  0
LWPOLYLINE
  5
257
100
AcDbEntity
  8
0
 62
     0
100
AcDbPolyline
 90
        2
 70
     0
 39
0.003
 10
-0.746252
 20
1.757087
 40
0.003
 41
0.003
 10
-0.751654
 20
1.782193
 40
0.003
 41
0.003
  0
LWPOLYLINE
  5
258
100
AcDbEntity
  8
0
 62
     0
100
AcDbPolyline
 90
        2
 70
     0
 39
0.003
 10
-0.751654
 20
1.782193
 40
0.003
 41
0.003
 10
-0.755492
 20
1.80676
 40
0.003
 41
0.003
  0
LWPOLYLINE
  5
259
100
AcDbEntity
  8
0
 62
     0
100
AcDbPolyline
 90
        2
 70
     0
 39
0.003
 10
-0.755492
 20
1.80676
 40
0.003
 41
0.003
 10
-0.757469
 20
1.057752
 40
0.003
 41
0.003
  0
LWPOLYLINE
  5
25A
100
AcDbEntity
  8
0
 62
     0
100
AcDbPolyline
 90
        2
 70
     0
 39
0.003
 10
-0.757469
 20
1.057752
 40
0.003
 41
0.003
 10
-0.75363
 20
1.033185
 40
0.003
 41
0.003
  0
LWPOLYLINE
  5
25B
100
AcDbEntity
  8
0
 62
     0
100
AcDbPolyline
 90
        2
 70
     0
 39
0.003
 10
-0.75363
 20
1.033185
 40
0.003
 41
0.003
 10
-0.748228
 20
1.008079
 40
0.003
 41
0.003
  0
LWPOLYLINE
  5
25C
100
AcDbEntity
  8
0
 62
     0
100
AcDbPolyline
 90
        2
 70
     0
 39
0.003
 10
-0.748228
 20
1.008079
 40
0.003
 41
0.003
 10
-0.741327
 20
0.982587
 40
0.003
 41
0.003
  0
LWPOLYLINE
  5
25D
100
AcDbEntity
  8
0
 62
     0
100
AcDbPolyline
 90
        2
 70
     0
 39
0.003
 10
-0.741327
 20
0.982587
 40
0.003
 41
0.003
 10
-0.732992
 20
0.95689
 40
0.003
 41
0.003
  0
LWPOLYLINE
  5
25E
100
AcDbEntity
  8
0
 62
     0
100
AcDbPolyline
 90
        2
 70
     0
 39
0.003
 10
-0.732992
 20
0.95689
 40
0.003
 41
0.003
 10
-0.723291
 20
0.931142
 40
0.003
 41
0.003
  0
LWPOLYLINE
  5
25F
100
AcDbEntity
  8
0
 62
     0
100
AcDbPolyline
 90
        2
 70
     0
 39
0.003
 10
-0.723291
 20
0.931142
 40
0.003
 41
0.003
 10
-0.712295
 20
0.905524
 40
0.003
 41
0.003
  0
LWPOLYLINE
  5
260
100
AcDbEntity
  8
0
 62
     0
100
AcDbPolyline
 90
        2
 70
     0
 39
0.003
 10
-0.712295
 20
0.905524
 40
0.003
 41
0.003
 10
-0.700071
 20
0.880197
 40
0.003
 41
0.003
  0
LWPOLYLINE
  5
261
100
AcDbEntity
  8
0
 62
     0
100
AcDbPolyline
 90
        2
 70
     0
 39
0.003
 10
-0.700071
 20
0.880197
 40
0.003
 41
0.003
 10
-0.686697
 20
0.855335
 40
0.003
 41
0.003
  0
LWPOLYLINE
  5
262
100
AcDbEntity
  8
0
 62
     0
100
AcDbPolyline
 90
        2
 70
     0
 39
0.003
 10
-0.686697
 20
0.855335
 40
0.003
 41
0.003
 10
-0.67222
 20
0.831094
 40
0.003
 41
0.003
  0
LWPOLYLINE
  5
263
100
AcDbEntity
  8
0
 62
     0
100
AcDbPolyline
 90
        2
 70
     0
 39
0.003
 10
-0.67222
 20
0.831094
 40
0.003
 41
0.003
 10
-0.656732
 20
0.807657
 40
0.003
 41
0.003
  0
LWPOLYLINE
  5
264
100
AcDbEntity
  8
0
 62
     0
100
AcDbPolyline
 90
        2
 70
     0
 39
0.003
 10
-0.656732
 20
0.807657
 40
0.003
 41
0.003
 10
-0.640291
 20
0.785185
 40
0.003
 41
0.003
  0
LWPOLYLINE
  5
265
100
AcDbEntity
  8
0
 62
     0
100
AcDbPolyline
 90
        2
 70
     0
 39
0.003
 10
-0.640291
 20
0.785185
 40
0.003
 41
0.003
 10
-0.622972
 20
0.763854
 40
0.003
 41
0.003
  0
LWPOLYLINE
  5
266
100
AcDbEntity
  8
0
 62
     0
100
AcDbPolyline
 90
        2
 70
     0
 39
0.003
 10
-0.622972
 20
0.763854
 40
0.003
 41
0.003
 10
-0.604831
 20
0.743815
 40
0.003
 41
0.003
  0
LWPOLYLINE
  5
267
100
AcDbEntity
  8
0
 62
     0
100
AcDbPolyline
 90
        2
 70
     0
 39
0.003
 10
-0.604831
 20
0.743815
 40
0.003
 41
0.003
 10
-0.585949
 20
0.725252
 40
0.003
 41
0.003
  0
LWPOLYLINE
  5
268
100
AcDbEntity
  8
0
 62
     0
100
AcDbPolyline
 90
        2
 70
     0
 39
0.003
 10
-0.585949
 20
0.725252
 40
0.003
 41
0.003
 10
-0.566386
 20
0.708327
 40
0.003
 41
0.003
  0
LWPOLYLINE
  5
269
100
AcDbEntity
  8
0
 62
     0
100
AcDbPolyline
 90
        2
 70
     0
 39
0.003
 10
-0.566386
 20
0.708327
 40
0.003
 41
0.003
 10
-0.546224
 20
0.693217
 40
0.003
 41
0.003
  0
LWPOLYLINE
  5
26A
100
AcDbEntity
  8
0
 62
     0
100
AcDbPolyline
 90
        2
 70
     0
 39
0.003
 10
-0.546224
 20
0.693217
 40
0.003
 41
0.003
 10
-0.525508
 20
0.680067
 40
0.003
 41
0.003
  0
LWPOLYLINE
  5
26B
100
AcDbEntity
  8
0
 62
     0
100
AcDbPolyline
 90
        2
 70
     0
 39
0.003
 10
-0.525508
 20
0.680067
 40
0.003
 41
0.003
 10
-0.504331
 20
0.669071
 40
0.003
 41
0.003
  0
LWPOLYLINE
  5
26C
100
AcDbEntity
  8
0
 62
     0
100
AcDbPolyline
 90
        2
 70
     0
 39
0.003
 10
-0.504331
 20
0.669071
 40
0.003
 41
0.003
 10
-0.482748
 20
0.660382
 40
0.003
 41
0.003
  0
LWPOLYLINE
  5
26D
100
AcDbEntity
  8
0
 62
     0
100
AcDbPolyline
 90
        2
 70
     0
 39
0.003
 10
-0.482748
 20
0.660382
 40
0.003
 41
0.003
 10
-0.460839
 20
0.654181
 40
0.003
 41
0.003
  0
LWPOLYLINE
  5
26E
100
AcDbEntity
  8
0
 62
     0
100
AcDbPolyline
 90
        2
 70
     0
 39
0.003
 10
-0.460839
 20
0.654181
 40
0.003
 41
0.003
 10
-0.438657
 20
0.650622
 40
0.003
 41
0.003
  0
LWPOLYLINE
  5
26F
100
AcDbEntity
  8
0
 62
     0
100
AcDbPolyline
 90
        2
 70
     0
 39
0.003
 10
-0.438657
 20
0.650622
 40
0.003
 41
0.003
 10
-0.416283
 20
0.649886
 40
0.003
 41
0.003
  0
LWPOLYLINE
  5
270
100
AcDbEntity
  8
0
 62
     0
100
AcDbPolyline
 90
        2
 70
     0
 39
0.003
 10
-0.416283
 20
0.649886
 40
0.003
 41
0.003
 10
-0.39378
 20
0.65213
 40
0.003
 41
0.003
  0
LWPOLYLINE
  5
271
100
AcDbEntity
  8
0
 62
     0
100
AcDbPolyline
 90
        2
 70
     0
 39
0.003
 10
-0.39378
 20
0.65213
 40
0.003
 41
0.003
 10
-0.371224
 20
0.657535
 40
0.003
 41
0.003
  0
LWPOLYLINE
  5
272
100
AcDbEntity
  8
0
 62
     0
100
AcDbPolyline
 90
        2
 70
     0
 39
0.003
 10
-0.371224
 20
0.657535
 40
0.003
 41
0.003
 10
-0.348669
 20
0.666248
 40
0.003
 41
0.003
  0
LWPOLYLINE
  5
273
100
AcDbEntity
  8
0
 62
     0
100
AcDbPolyline
 90
        2
 70
     0
 39
0.003
 10
-0.348669
 20
0.666248
 40
0.003
 41
0.003
 10
-0.326197
 20
0.678461
 40
0.003
 41
0.003
  0
LWPOLYLINE
  5
274
100
AcDbEntity
  8
0
 62
     0
100
AcDbPolyline
 90
        2
 70
     0
 39
0.003
 10
-0.326197
 20
0.678461
 40
0.003
 41
0.003
 10
-0.303874
 20
0.694327
 40
0.003
 41
0.003
  0
LWPOLYLINE
  5
275
100
AcDbEntity
  8
0
 62
     0
100
AcDbPolyline
 90
        2
 70
     0
 39
0.003
 10
-0.303874
 20
0.694327
 40
0.003
 41
0.003
 10
-0.281768
 20
0.714028
 40
0.003
 41
0.003
  0
LWPOLYLINE
  5
276
100
AcDbEntity
  8
0
 62
     0
100
AcDbPolyline
 90
        2
 70
     0
 39
0.003
 10
-0.281768
 20
0.714028
 40
0.003
 41
0.003
 10
-0.259941
 20
0.737717
 40
0.003
 41
0.003
  0
LWPOLYLINE
  5
277
100
AcDbEntity
  8
0
 62
     0
100
AcDbPolyline
 90
        2
 70
     0
 39
0.003
 10
-0.259941
 20
0.737717
 40
0.003
 41
0.003
 10
-0.238476
 20
0.765571
 40
0.003
 41
0.003
  0
LWPOLYLINE
  5
278
100
AcDbEntity
  8
0
 62
     0
100
AcDbPolyline
 90
        2
 70
     0
 39
0.003
 10
-0.238476
 20
0.765571
 40
0.003
 41
0.003
 10
-0.217429
 20
0.797756
 40
0.003
 41
0.003
  0
LWPOLYLINE
  5
279
100
AcDbEntity
  8
0
 62
     0
100
AcDbPolyline
 90
        2
 70
     0
 39
0.003
 10
-0.217429
 20
0.797756
 40
0.003
 41
0.003
 10
-0.196882
 20
0.834445
 40
0.003
 41
0.003
  0
LWPOLYLINE
  5
27A
100
AcDbEntity
  8
0
 62
     9
100
AcDbPolyline
 90
        2
 70
     0
 39
0.003
 10
-0.757469
 20
1.057752
 40
0.003
 41
0.003
 10
-0.755492
 20
1.80676
 40
0.003
 41
0.003
  0
LWPOLYLINE
  5
27B
100
AcDbEntity
  8
0
 62
     9
100
AcDbPolyline
 90
        2
 70
     0
 39
0.003
 10
-0.755492
 20
1.80676
 40
0.003
 41
0.003
 10
-1.927173
 20
1.80676
 40
0.003
 41
0.003
  0
LWPOLYLINE
  5
27C
100
AcDbEntity
  8
0
 62
     9
100
AcDbPolyline
 90
        2
 70
     0
 39
0.003
 10
-1.927173
 20
1.80676
 40
0.003
 41
0.003
 10
-1.92915
 20
1.057752
 40
0.003
 41
0.003
  0
LWPOLYLINE
  5
27D
100
AcDbEntity
  8
0
 62
     9
100
AcDbPolyline
 90
        2
 70
     0
 39
0.003
 10
-1.92915
 20
1.057752
 40
0.003
 41
0.003
 10
-0.757469
 20
1.057752
 40
0.003
 41
0.003
  0
LWPOLYLINE
  5
27E
100
AcDbEntity
  8
0
 62
     0
100
AcDbPolyline
 90
        2
 70
     0
 39
0.003
 10
-0.757469
 20
1.057752
 40
0.003
 41
0.003
 10
-0.755492
 20
1.80676
 40
0.003
 41
0.003
  0
LWPOLYLINE
  5
27F
100
AcDbEntity
  8
0
 62
     0
100
AcDbPolyline
 90
        2
 70
     0
 39
0.003
 10
-0.755492
 20
1.80676
 40
0.003
 41
0.003
 10
-1.927173
 20
1.80676
 40
0.003
 41
0.003
  0
LWPOLYLINE
  5
280
100
AcDbEntity
  8
0
 62
     0
100
AcDbPolyline
 90
        2
 70
     0
 39
0.003
 10
-1.927173
 20
1.80676
 40
0.003
 41
0.003
 10
-1.92915
 20
1.057752
 40
0.003
 41
0.003
  0
LWPOLYLINE
  5
281
100
AcDbEntity
  8
0
 62
     0
100
AcDbPolyline
 90
        2
 70
     0
 39
0.003
 10
-1.92915
 20
1.057752
 40
0.003
 41
0.003
 10
-0.757469
 20
1.057752
 40
0.003
 41
0.003
  0
LWPOLYLINE
  5
282
100
AcDbEntity
  8
0
 62
     9
100
AcDbPolyline
 90
        2
 70
     0
 39
0.003
 10
2.062382
 20
0.253043
 40
0.003
 41
0.003
 10
2.064358
 20
1.002051
 40
0.003
 41
0.003
  0
LWPOLYLINE
  5
283
100
AcDbEntity
  8
0
 62
     9
100
AcDbPolyline
 90
        2
 70
     0
 39
0.003
 10
2.064358
 20
1.002051
 40
0.003
 41
0.003
 10
2.061965
 20
1.020776
 40
0.003
 41
0.003
  0
LWPOLYLINE
  5
284
100
AcDbEntity
  8
0
 62
     9
100
AcDbPolyline
 90
        2
 70
     0
 39
0.003
 10
2.061965
 20
1.020776
 40
0.003
 41
0.003
 10
2.059988
 20
0.271768
 40
0.003
 41
0.003
  0
LWPOLYLINE
  5
285
100
AcDbEntity
  8
0
 62
     9
100
AcDbPolyline
 90
        2
 70
     0
 39
0.003
 10
2.059988
 20
0.271768
 40
0.003
 41
0.003
 10
2.062382
 20
0.253043
 40
0.003
 41
0.003
  0
LWPOLYLINE
  5
286
100
AcDbEntity
  8
0
 62
   254
100
AcDbPolyline
 90
        2
 70
     0
 39
0.003
 10
2.059988
 20
0.271768
 40
0.003
 41
0.003
 10
2.061965
 20
1.020776
 40
0.003
 41
0.003
  0
LWPOLYLINE
  5
287
100
AcDbEntity
  8
0
 62
   254
100
AcDbPolyline
 90
        2
 70
     0
 39
0.003
 10
2.061965
 20
1.020776
 40
0.003
 41
0.003
 10
2.058661
 20
1.039217
 40
0.003
 41
0.003
  0
LWPOLYLINE
  5
288
100
AcDbEntity
  8
0
 62
   254
100
AcDbPolyline
 90
        2
 70
     0
 39
0.003
 10
2.058661
 20
1.039217
 40
0.003
 41
0.003
 10
2.056685
 20
0.290209
 40
0.003
 41
0.003
  0
LWPOLYLINE
  5
289
100
AcDbEntity
  8
0
 62
   254
100
AcDbPolyline
 90
        2
 70
     0
 39
0.003
 10
2.056685
 20
0.290209
 40
0.003
 41
0.003
 10
2.059988
 20
0.271768
 40
0.003
 41
0.003
  0
LWPOLYLINE
  5
28A
100
AcDbEntity
  8
0
 62
   254
100
AcDbPolyline
 90
        2
 70
     0
 39
0.003
 10
2.056685
 20
0.290209
 40
0.003
 41
0.003
 10
2.058661
 20
1.039217
 40
0.003
 41
0.003
  0
LWPOLYLINE
  5
28B
100
AcDbEntity
  8
0
 62
   254
100
AcDbPolyline
 90
        2
 70
     0
 39
0.003
 10
2.058661
 20
1.039217
 40
0.003
 41
0.003
 10
2.054457
 20
1.057327
 40
0.003
 41
0.003
  0
LWPOLYLINE
  5
28C
100
AcDbEntity
  8
0
 62
   254
100
AcDbPolyline
 90
        2
 70
     0
 39
0.003
 10
2.054457
 20
1.057327
 40
0.003
 41
0.003
 10
2.05248
 20
0.308319
 40
0.003
 41
0.003
  0
LWPOLYLINE
  5
28D
100
AcDbEntity
  8
0
 62
   254
100
AcDbPolyline
 90
        2
 70
     0
 39
0.003
 10
2.05248
 20
0.308319
 40
0.003
 41
0.003
 10
2.056685
 20
0.290209
 40
0.003
 41
0.003
  0
LWPOLYLINE
  5
28E
100
AcDbEntity
  8
0
 62
   254
100
AcDbPolyline
 90
        2
 70
     0
 39
0.003
 10
2.05248
 20
0.308319
 40
0.003
 41
0.003
 10
2.054457
 20
1.057327
 40
0.003
 41
0.003
  0
LWPOLYLINE
  5
28F
100
AcDbEntity
  8
0
 62
   254
100
AcDbPolyline
 90
        2
 70
     0
 39
0.003
 10
2.054457
 20
1.057327
 40
0.003
 41
0.003
 10
2.049394
 20
1.075102
 40
0.003
 41
0.003
  0
LWPOLYLINE
  5
290
100
AcDbEntity
  8
0
 62
   254
100
AcDbPolyline
 90
        2
 70
     0
 39
0.003
 10
2.049394
 20
1.075102
 40
0.003
 41
0.003
 10
2.047417
 20
0.326094
 40
0.003
 41
0.003
  0
LWPOLYLINE
  5
291
100
AcDbEntity
  8
0
 62
   254
100
AcDbPolyline
 90
        2
 70
     0
 39
0.003
 10
2.047417
 20
0.326094
 40
0.003
 41
0.003
 10
2.05248
 20
0.308319
 40
0.003
 41
0.003
  0
LWPOLYLINE
  5
292
100
AcDbEntity
  8
0
 62
   254
100
AcDbPolyline
 90
        2
 70
     0
 39
0.003
 10
2.047417
 20
0.326094
 40
0.003
 41
0.003
 10
2.049394
 20
1.075102
 40
0.003
 41
0.003
  0
LWPOLYLINE
  5
293
100
AcDbEntity
  8
0
 62
   254
100
AcDbPolyline
 90
        2
 70
     0
 39
0.003
 10
2.049394
 20
1.075102
 40
0.003
 41
0.003
 10
2.04348
 20
1.092512
 40
0.003
 41
0.003
  0
LWPOLYLINE
  5
294
100
AcDbEntity
  8
0
 62
   254
100
AcDbPolyline
 90
        2
 70
     0
 39
0.003
 10
2.04348
 20
1.092512
 40
0.003
 41
0.003
 10
2.041504
 20
0.343504
 40
0.003
 41
0.003
  0
LWPOLYLINE
  5
295
100
AcDbEntity
  8
0
 62
   254
100
AcDbPolyline
 90
        2
 70
     0
 39
0.003
 10
2.041504
 20
0.343504
 40
0.003
 41
0.003
 10
2.047417
 20
0.326094
 40
0.003
 41
0.003
  0
LWPOLYLINE
  5
296
100
AcDbEntity
  8
0
 62
   254
100
AcDbPolyline
 90
        2
 70
     0
 39
0.003
 10
2.041504
 20
0.343504
 40
0.003
 41
0.003
 10
2.04348
 20
1.092512
 40
0.003
 41
0.003
  0
LWPOLYLINE
  5
297
100
AcDbEntity
  8
0
 62
   254
100
AcDbPolyline
 90
        2
 70
     0
 39
0.003
 10
2.04348
 20
1.092512
 40
0.003
 41
0.003
 10
2.036756
 20
1.109531
 40
0.003
 41
0.003
  0
LWPOLYLINE
  5
298
100
AcDbEntity
  8
0
 62
   254
100
AcDbPolyline
 90
        2
 70
     0
 39
0.003
 10
2.036756
 20
1.109531
 40
0.003
 41
0.003
 10
2.03478
 20
0.360524
 40
0.003
 41
0.003
  0
LWPOLYLINE
  5
299
100
AcDbEntity
  8
0
 62
   254
100
AcDbPolyline
 90
        2
 70
     0
 39
0.003
 10
2.03478
 20
0.360524
 40
0.003
 41
0.003
 10
2.041504
 20
0.343504
 40
0.003
 41
0.003
  0
LWPOLYLINE
  5
29A
100
AcDbEntity
  8
0
 62
   254
100
AcDbPolyline
 90
        2
 70
     0
 39
0.003
 10
2.03478
 20
0.360524
 40
0.003
 41
0.003
 10
2.036756
 20
1.109531
 40
0.003
 41
0.003
  0
LWPOLYLINE
  5
29B
100
AcDbEntity
  8
0
 62
   254
100
AcDbPolyline
 90
        2
 70
     0
 39
0.003
 10
2.036756
 20
1.109531
 40
0.003
 41
0.003
 10
2.029224
 20
1.12613
 40
0.003
 41
0.003
  0
LWPOLYLINE
  5
29C
100
AcDbEntity
  8
0
 62
   254
100
AcDbPolyline
 90
        2
 70
     0
 39
0.003
 10
2.029224
 20
1.12613
 40
0.003
 41
0.003
 10
2.027248
 20
0.377122
 40
0.003
 41
0.003
  0
LWPOLYLINE
  5
29D
100
AcDbEntity
  8
0
 62
   254
100
AcDbPolyline
 90
        2
 70
     0
 39
0.003
 10
2.027248
 20
0.377122
 40
0.003
 41
0.003
 10
2.03478
 20
0.360524
 40
0.003
 41
0.003
  0
LWPOLYLINE
  5
29E
100
AcDbEntity
  8
0
 62
   254
100
AcDbPolyline
 90
        2
 70
     0
 39
0.003
 10
2.027248
 20
0.377122
 40
0.003
 41
0.003
 10
2.029224
 20
1.12613
 40
0.003
 41
0.003
  0
LWPOLYLINE
  5
29F
100
AcDbEntity
  8
0
 62
   254
100
AcDbPolyline
 90
        2
 70
     0
 39
0.003
 10
2.029224
 20
1.12613
 40
0.003
 41
0.003
 10
2.020925
 20
1.142295
 40
0.003
 41
0.003
  0
LWPOLYLINE
  5
2A0
100
AcDbEntity
  8
0
 62
   254
100
AcDbPolyline
 90
        2
 70
     0
 39
0.003
 10
2.020925
 20
1.142295
 40
0.003
 41
0.003
 10
2.018949
 20
0.393287
 40
0.003
 41
0.003
  0
LWPOLYLINE
  5
2A1
100
AcDbEntity
  8
0
 62
   254
100
AcDbPolyline
 90
        2
 70
     0
 39
0.003
 10
2.018949
 20
0.393287
 40
0.003
 41
0.003
 10
2.027248
 20
0.377122
 40
0.003
 41
0.003
  0
LWPOLYLINE
  5
2A2
100
AcDbEntity
  8
0
 62
   254
100
AcDbPolyline
 90
        2
 70
     0
 39
0.003
 10
2.018949
 20
0.393287
 40
0.003
 41
0.003
 10
2.020925
 20
1.142295
 40
0.003
 41
0.003
  0
LWPOLYLINE
  5
2A3
100
AcDbEntity
  8
0
 62
   254
100
AcDbPolyline
 90
        2
 70
     0
 39
0.003
 10
2.020925
 20
1.142295
 40
0.003
 41
0.003
 10
2.011878
 20
1.157996
 40
0.003
 41
0.003
  0
LWPOLYLINE
  5
2A4
100
AcDbEntity
  8
0
 62
   254
100
AcDbPolyline
 90
        2
 70
     0
 39
0.003
 10
2.011878
 20
1.157996
 40
0.003
 41
0.003
 10
2.009902
 20
0.408988
 40
0.003
 41
0.003
  0
LWPOLYLINE
  5
2A5
100
AcDbEntity
  8
0
 62
   254
100
AcDbPolyline
 90
        2
 70
     0
 39
0.003
 10
2.009902
 20
0.408988
 40
0.003
 41
0.003
 10
2.018949
 20
0.393287
 40
0.003
 41
0.003
  0
LWPOLYLINE
  5
2A6
100
AcDbEntity
  8
0
 62
   254
100
AcDbPolyline
 90
        2
 70
     0
 39
0.003
 10
2.009902
 20
0.408988
 40
0.003
 41
0.003
 10
2.011878
 20
1.157996
 40
0.003
 41
0.003
  0
LWPOLYLINE
  5
2A7
100
AcDbEntity
  8
0
 62
   254
100
AcDbPolyline
 90
        2
 70
     0
 39
0.003
 10
2.011878
 20
1.157996
 40
0.003
 41
0.003
 10
2.00211
 20
1.17322
 40
0.003
 41
0.003
  0
LWPOLYLINE
  5
2A8
100
AcDbEntity
  8
0
 62
   254
100
AcDbPolyline
 90
        2
 70
     0
 39
0.003
 10
2.00211
 20
1.17322
 40
0.003
 41
0.003
 10
2.000134
 20
0.424213
 40
0.003
 41
0.003
  0
LWPOLYLINE
  5
2A9
100
AcDbEntity
  8
0
 62
   254
100
AcDbPolyline
 90
        2
 70
     0
 39
0.003
 10
2.000134
 20
0.424213
 40
0.003
 41
0.003
 10
2.009902
 20
0.408988
 40
0.003
 41
0.003
  0
LWPOLYLINE
  5
2AA
100
AcDbEntity
  8
0
 62
   254
100
AcDbPolyline
 90
        2
 70
     0
 39
0.003
 10
2.000134
 20
0.424213
 40
0.003
 41
0.003
 10
2.00211
 20
1.17322
 40
0.003
 41
0.003
  0
LWPOLYLINE
  5
2AB
100
AcDbEntity
  8
0
 62
   254
100
AcDbPolyline
 90
        2
 70
     0
 39
0.003
 10
2.00211
 20
1.17322
 40
0.003
 41
0.003
 10
1.991634
 20
1.187925
 40
0.003
 41
0.003
  0
LWPOLYLINE
  5
2AC
100
AcDbEntity
  8
0
 62
   254
100
AcDbPolyline
 90
        2
 70
     0
 39
0.003
 10
1.991634
 20
1.187925
 40
0.003
 41
0.003
 10
1.989657
 20
0.438917
 40
0.003
 41
0.003
  0
LWPOLYLINE
  5
2AD
100
AcDbEntity
  8
0
 62
   254
100
AcDbPolyline
 90
        2
 70
     0
 39
0.003
 10
1.989657
 20
0.438917
 40
0.003
 41
0.003
 10
2.000134
 20
0.424213
 40
0.003
 41
0.003
  0
LWPOLYLINE
  5
2AE
100
AcDbEntity
  8
0
 62
   254
100
AcDbPolyline
 90
        2
 70
     0
 39
0.003
 10
1.989657
 20
0.438917
 40
0.003
 41
0.003
 10
1.991634
 20
1.187925
 40
0.003
 41
0.003
  0
LWPOLYLINE
  5
2AF
100
AcDbEntity
  8
0
 62
   254
100
AcDbPolyline
 90
        2
 70
     0
 39
0.003
 10
1.991634
 20
1.187925
 40
0.003
 41
0.003
 10
1.980488
 20
1.202102
 40
0.003
 41
0.003
  0
LWPOLYLINE
  5
2B0
100
AcDbEntity
  8
0
 62
   254
100
AcDbPolyline
 90
        2
 70
     0
 39
0.003
 10
1.980488
 20
1.202102
 40
0.003
 41
0.003
 10
1.978512
 20
0.453094
 40
0.003
 41
0.003
  0
LWPOLYLINE
  5
2B1
100
AcDbEntity
  8
0
 62
   254
100
AcDbPolyline
 90
        2
 70
     0
 39
0.003
 10
1.978512
 20
0.453094
 40
0.003
 41
0.003
 10
1.989657
 20
0.438917
 40
0.003
 41
0.003
  0
LWPOLYLINE
  5
2B2
100
AcDbEntity
  8
0
 62
   254
100
AcDbPolyline
 90
        2
 70
     0
 39
0.003
 10
1.978512
 20
0.453094
 40
0.003
 41
0.003
 10
1.980488
 20
1.202102
 40
0.003
 41
0.003
  0
LWPOLYLINE
  5
2B3
100
AcDbEntity
  8
0
 62
   254
100
AcDbPolyline
 90
        2
 70
     0
 39
0.003
 10
1.980488
 20
1.202102
 40
0.003
 41
0.003
 10
1.968685
 20
1.21572
 40
0.003
 41
0.003
  0
LWPOLYLINE
  5
2B4
100
AcDbEntity
  8
0
 62
   254
100
AcDbPolyline
 90
        2
 70
     0
 39
0.003
 10
1.968685
 20
1.21572
 40
0.003
 41
0.003
 10
1.966709
 20
0.466713
 40
0.003
 41
0.003
  0
LWPOLYLINE
  5
2B5
100
AcDbEntity
  8
0
 62
   254
100
AcDbPolyline
 90
        2
 70
     0
 39
0.003
 10
1.966709
 20
0.466713
 40
0.003
 41
0.003
 10
1.978512
 20
0.453094
 40
0.003
 41
0.003
  0
LWPOLYLINE
  5
2B6
100
AcDbEntity
  8
0
 62
   254
100
AcDbPolyline
 90
        2
 70
     0
 39
0.003
 10
1.966709
 20
0.466713
 40
0.003
 41
0.003
 10
1.968685
 20
1.21572
 40
0.003
 41
0.003
  0
LWPOLYLINE
  5
2B7
100
AcDbEntity
  8
0
 62
   254
100
AcDbPolyline
 90
        2
 70
     0
 39
0.003
 10
1.968685
 20
1.21572
 40
0.003
 41
0.003
 10
1.95626
 20
1.22876
 40
0.003
 41
0.003
  0
LWPOLYLINE
  5
2B8
100
AcDbEntity
  8
0
 62
   254
100
AcDbPolyline
 90
        2
 70
     0
 39
0.003
 10
1.95626
 20
1.22876
 40
0.003
 41
0.003
 10
1.954283
 20
0.479752
 40
0.003
 41
0.003
  0
LWPOLYLINE
  5
2B9
100
AcDbEntity
  8
0
 62
   254
100
AcDbPolyline
 90
        2
 70
     0
 39
0.003
 10
1.954283
 20
0.479752
 40
0.003
 41
0.003
 10
1.966709
 20
0.466713
 40
0.003
 41
0.003
  0
LWPOLYLINE
  5
2BA
100
AcDbEntity
  8
0
 62
   254
100
AcDbPolyline
 90
        2
 70
     0
 39
0.003
 10
1.954283
 20
0.479752
 40
0.003
 41
0.003
 10
1.95626
 20
1.22876
 40
0.003
 41
0.003
  0
LWPOLYLINE
  5
2BB
100
AcDbEntity
  8
0
 62
   254
100
AcDbPolyline
 90
        2
 70
     0
 39
0.003
 10
1.95626
 20
1.22876
 40
0.003
 41
0.003
 10
1.94322
 20
1.241185
 40
0.003
 41
0.003
  0
LWPOLYLINE
  5
2BC
100
AcDbEntity
  8
0
 62
   254
100
AcDbPolyline
 90
        2
 70
     0
 39
0.003
 10
1.94322
 20
1.241185
 40
0.003
 41
0.003
 10
1.941244
 20
0.492177
 40
0.003
 41
0.003
  0
LWPOLYLINE
  5
2BD
100
AcDbEntity
  8
0
 62
   254
100
AcDbPolyline
 90
        2
 70
     0
 39
0.003
 10
1.941244
 20
0.492177
 40
0.003
 41
0.003
 10
1.954283
 20
0.479752
 40
0.003
 41
0.003
  0
LWPOLYLINE
  5
2BE
100
AcDbEntity
  8
0
 62
   254
100
AcDbPolyline
 90
        2
 70
     0
 39
0.003
 10
1.941244
 20
0.492177
 40
0.003
 41
0.003
 10
1.94322
 20
1.241185
 40
0.003
 41
0.003
  0
LWPOLYLINE
  5
2BF
100
AcDbEntity
  8
0
 62
   254
100
AcDbPolyline
 90
        2
 70
     0
 39
0.003
 10
1.94322
 20
1.241185
 40
0.003
 41
0.003
 10
1.929602
 20
1.252988
 40
0.003
 41
0.003
  0
LWPOLYLINE
  5
2C0
100
AcDbEntity
  8
0
 62
   254
100
AcDbPolyline
 90
        2
 70
     0
 39
0.003
 10
1.929602
 20
1.252988
 40
0.003
 41
0.003
 10
1.927626
 20
0.50398
 40
0.003
 41
0.003
  0
LWPOLYLINE
  5
2C1
100
AcDbEntity
  8
0
 62
   254
100
AcDbPolyline
 90
        2
 70
     0
 39
0.003
 10
1.927626
 20
0.50398
 40
0.003
 41
0.003
 10
1.941244
 20
0.492177
 40
0.003
 41
0.003
  0
LWPOLYLINE
  5
2C2
100
AcDbEntity
  8
0
 62
   254
100
AcDbPolyline
 90
        2
 70
     0
 39
0.003
 10
1.927626
 20
0.50398
 40
0.003
 41
0.003
 10
1.929602
 20
1.252988
 40
0.003
 41
0.003
  0
LWPOLYLINE
  5
2C3
100
AcDbEntity
  8
0
 62
   254
100
AcDbPolyline
 90
        2
 70
     0
 39
0.003
 10
1.929602
 20
1.252988
 40
0.003
 41
0.003
 10
1.915425
 20
1.264134
 40
0.003
 41
0.003
  0
LWPOLYLINE
  5
2C4
100
AcDbEntity
  8
0
 62
   254
100
AcDbPolyline
 90
        2
 70
     0
 39
0.003
 10
1.915425
 20
1.264134
 40
0.003
 41
0.003
 10
1.913449
 20
0.515126
 40
0.003
 41
0.003
  0
LWPOLYLINE
  5
2C5
100
AcDbEntity
  8
0
 62
   254
100
AcDbPolyline
 90
        2
 70
     0
 39
0.003
 10
1.913449
 20
0.515126
 40
0.003
 41
0.003
 10
1.927626
 20
0.50398
 40
0.003
 41
0.003
  0
LWPOLYLINE
  5
2C6
100
AcDbEntity
  8
0
 62
   254
100
AcDbPolyline
 90
        2
 70
     0
 39
0.003
 10
1.913449
 20
0.515126
 40
0.003
 41
0.003
 10
1.915425
 20
1.264134
 40
0.003
 41
0.003
  0
LWPOLYLINE
  5
2C7
100
AcDbEntity
  8
0
 62
   254
100
AcDbPolyline
 90
        2
 70
     0
 39
0.003
 10
1.915425
 20
1.264134
 40
0.003
 41
0.003
 10
1.90072
 20
1.27461
 40
0.003
 41
0.003
  0
LWPOLYLINE
  5
2C8
100
AcDbEntity
  8
0
 62
   254
100
AcDbPolyline
 90
        2
 70
     0
 39
0.003
 10
1.90072
 20
1.27461
 40
0.003
 41
0.003
 10
1.898744
 20
0.525602
 40
0.003
 41
0.003
  0
LWPOLYLINE
  5
2C9
100
AcDbEntity
  8
0
 62
   254
100
AcDbPolyline
 90
        2
 70
     0
 39
0.003
 10
1.898744
 20
0.525602
 40
0.003
 41
0.003
 10
1.913449
 20
0.515126
 40
0.003
 41
0.003
  0
LWPOLYLINE
  5
2CA
100
AcDbEntity
  8
0
 62
   254
100
AcDbPolyline
 90
        2
 70
     0
 39
0.003
 10
1.898744
 20
0.525602
 40
0.003
 41
0.003
 10
1.90072
 20
1.27461
 40
0.003
 41
0.003
  0
LWPOLYLINE
  5
2CB
100
AcDbEntity
  8
0
 62
   254
100
AcDbPolyline
 90
        2
 70
     0
 39
0.003
 10
1.90072
 20
1.27461
 40
0.003
 41
0.003
 10
1.885496
 20
1.284378
 40
0.003
 41
0.003
  0
LWPOLYLINE
  5
2CC
100
AcDbEntity
  8
0
 62
   254
100
AcDbPolyline
 90
        2
 70
     0
 39
0.003
 10
1.885496
 20
1.284378
 40
0.003
 41
0.003
 10
1.88352
 20
0.53537
 40
0.003
 41
0.003
  0
LWPOLYLINE
  5
2CD
100
AcDbEntity
  8
0
 62
   254
100
AcDbPolyline
 90
        2
 70
     0
 39
0.003
 10
1.88352
 20
0.53537
 40
0.003
 41
0.003
 10
1.898744
 20
0.525602
 40
0.003
 41
0.003
  0
LWPOLYLINE
  5
2CE
100
AcDbEntity
  8
0
 62
   254
100
AcDbPolyline
 90
        2
 70
     0
 39
0.003
 10
1.88352
 20
0.53537
 40
0.003
 41
0.003
 10
1.885496
 20
1.284378
 40
0.003
 41
0.003
  0
LWPOLYLINE
  5
2CF
100
AcDbEntity
  8
0
 62
   254
100
AcDbPolyline
 90
        2
 70
     0
 39
0.003
 10
1.885496
 20
1.284378
 40
0.003
 41
0.003
 10
1.869795
 20
1.293425
 40
0.003
 41
0.003
  0
LWPOLYLINE
  5
2D0
100
AcDbEntity
  8
0
 62
   254
100
AcDbPolyline
 90
        2
 70
     0
 39
0.003
 10
1.869795
 20
1.293425
 40
0.003
 41
0.003
 10
1.867819
 20
0.544417
 40
0.003
 41
0.003
  0
LWPOLYLINE
  5
2D1
100
AcDbEntity
  8
0
 62
   254
100
AcDbPolyline
 90
        2
 70
     0
 39
0.003
 10
1.867819
 20
0.544417
 40
0.003
 41
0.003
 10
1.88352
 20
0.53537
 40
0.003
 41
0.003
  0
LWPOLYLINE
  5
2D2
100
AcDbEntity
  8
0
 62
   254
100
AcDbPolyline
 90
        2
 70
     0
 39
0.003
 10
1.867819
 20
0.544417
 40
0.003
 41
0.003
 10
1.869795
 20
1.293425
 40
0.003
 41
0.003
  0
LWPOLYLINE
  5
2D3
100
AcDbEntity
  8
0
 62
   254
100
AcDbPolyline
 90
        2
 70
     0
 39
0.003
 10
1.869795
 20
1.293425
 40
0.003
 41
0.003
 10
1.85363
 20
1.301724
 40
0.003
 41
0.003
  0
LWPOLYLINE
  5
2D4
100
AcDbEntity
  8
0
 62
   254
100
AcDbPolyline
 90
        2
 70
     0
 39
0.003
 10
1.85363
 20
1.301724
 40
0.003
 41
0.003
 10
1.851654
 20
0.552717
 40
0.003
 41
0.003
  0
LWPOLYLINE
  5
2D5
100
AcDbEntity
  8
0
 62
   254
100
AcDbPolyline
 90
        2
 70
     0
 39
0.003
 10
1.851654
 20
0.552717
 40
0.003
 41
0.003
 10
1.867819
 20
0.544417
 40
0.003
 41
0.003
  0
LWPOLYLINE
  5
2D6
100
AcDbEntity
  8
0
 62
     9
100
AcDbPolyline
 90
        2
 70
     0
 39
0.003
 10
1.851654
 20
0.552717
 40
0.003
 41
0.003
 10
1.85363
 20
1.301724
 40
0.003
 41
0.003
  0
LWPOLYLINE
  5
2D7
100
AcDbEntity
  8
0
 62
     9
100
AcDbPolyline
 90
        2
 70
     0
 39
0.003
 10
1.85363
 20
1.301724
 40
0.003
 41
0.003
 10
1.837031
 20
1.309256
 40
0.003
 41
0.003
  0
LWPOLYLINE
  5
2D8
100
AcDbEntity
  8
0
 62
     9
100
AcDbPolyline
 90
        2
 70
     0
 39
0.003
 10
1.837031
 20
1.309256
 40
0.003
 41
0.003
 10
1.835055
 20
0.560248
 40
0.003
 41
0.003
  0
LWPOLYLINE
  5
2D9
100
AcDbEntity
  8
0
 62
     9
100
AcDbPolyline
 90
        2
 70
     0
 39
0.003
 10
1.835055
 20
0.560248
 40
0.003
 41
0.003
 10
1.851654
 20
0.552717
 40
0.003
 41
0.003
  0
LWPOLYLINE
  5
2DA
100
AcDbEntity
  8
0
 62
     9
100
AcDbPolyline
 90
        2
 70
     0
 39
0.003
 10
1.835055
 20
0.560248
 40
0.003
 41
0.003
 10
1.837031
 20
1.309256
 40
0.003
 41
0.003
  0
LWPOLYLINE
  5
2DB
100
AcDbEntity
  8
0
 62
     9
100
AcDbPolyline
 90
        2
 70
     0
 39
0.003
 10
1.837031
 20
1.309256
 40
0.003
 41
0.003
 10
1.820012
 20
1.31598
 40
0.003
 41
0.003
  0
LWPOLYLINE
  5
2DC
100
AcDbEntity
  8
0
 62
     9
100
AcDbPolyline
 90
        2
 70
     0
 39
0.003
 10
1.820012
 20
1.31598
 40
0.003
 41
0.003
 10
1.818035
 20
0.566972
 40
0.003
 41
0.003
  0
LWPOLYLINE
  5
2DD
100
AcDbEntity
  8
0
 62
     9
100
AcDbPolyline
 90
        2
 70
     0
 39
0.003
 10
1.818035
 20
0.566972
 40
0.003
 41
0.003
 10
1.835055
 20
0.560248
 40
0.003
 41
0.003
  0
LWPOLYLINE
  5
2DE
100
AcDbEntity
  8
0
 62
     9
100
AcDbPolyline
 90
        2
 70
     0
 39
0.003
 10
1.818035
 20
0.566972
 40
0.003
 41
0.003
 10
1.820012
 20
1.31598
 40
0.003
 41
0.003
  0
LWPOLYLINE
  5
2DF
100
AcDbEntity
  8
0
 62
     9
100
AcDbPolyline
 90
        2
 70
     0
 39
0.003
 10
1.820012
 20
1.31598
 40
0.003
 41
0.003
 10
1.802602
 20
1.321894
 40
0.003
 41
0.003
  0
LWPOLYLINE
  5
2E0
100
AcDbEntity
  8
0
 62
     9
100
AcDbPolyline
 90
        2
 70
     0
 39
0.003
 10
1.802602
 20
1.321894
 40
0.003
 41
0.003
 10
1.800626
 20
0.572886
 40
0.003
 41
0.003
  0
LWPOLYLINE
  5
2E1
100
AcDbEntity
  8
0
 62
     9
100
AcDbPolyline
 90
        2
 70
     0
 39
0.003
 10
1.800626
 20
0.572886
 40
0.003
 41
0.003
 10
1.818035
 20
0.566972
 40
0.003
 41
0.003
  0
LWPOLYLINE
  5
2E2
100
AcDbEntity
  8
0
 62
     9
100
AcDbPolyline
 90
        2
 70
     0
 39
0.003
 10
1.800626
 20
0.572886
 40
0.003
 41
0.003
 10
1.802602
 20
1.321894
 40
0.003
 41
0.003
  0
LWPOLYLINE
  5
2E3
100
AcDbEntity
  8
0
 62
     9
100
AcDbPolyline
 90
        2
 70
     0
 39
0.003
 10
1.802602
 20
1.321894
 40
0.003
 41
0.003
 10
1.784827
 20
1.326957
 40
0.003
 41
0.003
  0
LWPOLYLINE
  5
2E4
100
AcDbEntity
  8
0
 62
     9
100
AcDbPolyline
 90
        2
 70
     0
 39
0.003
 10
1.784827
 20
1.326957
 40
0.003
 41
0.003
 10
1.78285
 20
0.577949
 40
0.003
 41
0.003
  0
LWPOLYLINE
  5
2E5
100
AcDbEntity
  8
0
 62
     9
100
AcDbPolyline
 90
        2
 70
     0
 39
0.003
 10
1.78285
 20
0.577949
 40
0.003
 41
0.003
 10
1.800626
 20
0.572886
 40
0.003
 41
0.003
  0
LWPOLYLINE
  5
2E6
100
AcDbEntity
  8
0
 62
     9
100
AcDbPolyline
 90
        2
 70
     0
 39
0.003
 10
1.78285
 20
0.577949
 40
0.003
 41
0.003
 10
1.784827
 20
1.326957
 40
0.003
 41
0.003
  0
LWPOLYLINE
  5
2E7
100
AcDbEntity
  8
0
 62
     9
100
AcDbPolyline
 90
        2
 70
     0
 39
0.003
 10
1.784827
 20
1.326957
 40
0.003
 41
0.003
 10
1.766717
 20
1.331161
 40
0.003
 41
0.003
  0
LWPOLYLINE
  5
2E8
100
AcDbEntity
  8
0
 62
     9
100
AcDbPolyline
 90
        2
 70
     0
 39
0.003
 10
1.766717
 20
1.331161
 40
0.003
 41
0.003
 10
1.76474
 20
0.582154
 40
0.003
 41
0.003
  0
LWPOLYLINE
  5
2E9
100
AcDbEntity
  8
0
 62
     9
100
AcDbPolyline
 90
        2
 70
     0
 39
0.003
 10
1.76474
 20
0.582154
 40
0.003
 41
0.003
 10
1.78285
 20
0.577949
 40
0.003
 41
0.003
  0
LWPOLYLINE
  5
2EA
100
AcDbEntity
  8
0
 62
     9
100
AcDbPolyline
 90
        2
 70
     0
 39
0.003
 10
1.76474
 20
0.582154
 40
0.003
 41
0.003
 10
1.766717
 20
1.331161
 40
0.003
 41
0.003
  0
LWPOLYLINE
  5
2EB
100
AcDbEntity
  8
0
 62
     9
100
AcDbPolyline
 90
        2
 70
     0
 39
0.003
 10
1.766717
 20
1.331161
 40
0.003
 41
0.003
 10
1.748276
 20
1.334465
 40
0.003
 41
0.003
  0
LWPOLYLINE
  5
2EC
100
AcDbEntity
  8
0
 62
     9
100
AcDbPolyline
 90
        2
 70
     0
 39
0.003
 10
1.748276
 20
1.334465
 40
0.003
 41
0.003
 10
1.746299
 20
0.585457
 40
0.003
 41
0.003
  0
LWPOLYLINE
  5
2ED
100
AcDbEntity
  8
0
 62
     9
100
AcDbPolyline
 90
        2
 70
     0
 39
0.003
 10
1.746299
 20
0.585457
 40
0.003
 41
0.003
 10
1.76474
 20
0.582154
 40
0.003
 41
0.003
  0
LWPOLYLINE
  5
2EE
100
AcDbEntity
  8
0
 62
     9
100
AcDbPolyline
 90
        2
 70
     0
 39
0.003
 10
1.746299
 20
0.585457
 40
0.003
 41
0.003
 10
1.748276
 20
1.334465
 40
0.003
 41
0.003
  0
LWPOLYLINE
  5
2EF
100
AcDbEntity
  8
0
 62
     9
100
AcDbPolyline
 90
        2
 70
     0
 39
0.003
 10
1.748276
 20
1.334465
 40
0.003
 41
0.003
 10
1.729551
 20
1.336858
 40
0.003
 41
0.003
  0
LWPOLYLINE
  5
2F0
100
AcDbEntity
  8
0
 62
     9
100
AcDbPolyline
 90
        2
 70
     0
 39
0.003
 10
1.729551
 20
1.336858
 40
0.003
 41
0.003
 10
1.727575
 20
0.58785
 40
0.003
 41
0.003
  0
LWPOLYLINE
  5
2F1
100
AcDbEntity
  8
0
 62
     9
100
AcDbPolyline
 90
        2
 70
     0
 39
0.003
 10
1.727575
 20
0.58785
 40
0.003
 41
0.003
 10
1.746299
 20
0.585457
 40
0.003
 41
0.003
  0
LWPOLYLINE
  5
2F2
100
AcDbEntity
  8
0
 62
     9
100
AcDbPolyline
 90
        2
 70
     0
 39
0.003
 10
1.727575
 20
0.58785
 40
0.003
 41
0.003
 10
1.729551
 20
1.336858
 40
0.003
 41
0.003
  0
LWPOLYLINE
  5
2F3
100
AcDbEntity
  8
0
 62
     9
100
AcDbPolyline
 90
        2
 70
     0
 39
0.003
 10
1.729551
 20
1.336858
 40
0.003
 41
0.003
 10
1.710547
 20
1.338315
 40
0.003
 41
0.003
  0
LWPOLYLINE
  5
2F4
100
AcDbEntity
  8
0
 62
     9
100
AcDbPolyline
 90
        2
 70
     0
 39
0.003
 10
1.710547
 20
1.338315
 40
0.003
 41
0.003
 10
1.708571
 20
0.589307
 40
0.003
 41
0.003
  0
LWPOLYLINE
  5
2F5
100
AcDbEntity
  8
0
 62
     9
100
AcDbPolyline
 90
        2
 70
     0
 39
0.003
 10
1.708571
 20
0.589307
 40
0.003
 41
0.003
 10
1.727575
 20
0.58785
 40
0.003
 41
0.003
  0
LWPOLYLINE
  5
2F6
100
AcDbEntity
  8
0
 62
     9
100
AcDbPolyline
 90
        2
 70
     0
 39
0.003
 10
1.708571
 20
0.589307
 40
0.003
 41
0.003
 10
1.710547
 20
1.338315
 40
0.003
 41
0.003
  0
LWPOLYLINE
  5
2F7
100
AcDbEntity
  8
0
 62
     9
100
AcDbPolyline
 90
        2
 70
     0
 39
0.003
 10
1.710547
 20
1.338315
 40
0.003
 41
0.003
 10
1.691307
 20
1.338807
 40
0.003
 41
0.003
  0
LWPOLYLINE
  5
2F8
100
AcDbEntity
  8
0
 62
     9
100
AcDbPolyline
 90
        2
 70
     0
 39
0.003
 10
1.691307
 20
1.338807
 40
0.003
 41
0.003
 10
1.689331
 20
0.589799
 40
0.003
 41
0.003
  0
LWPOLYLINE
  5
2F9
100
AcDbEntity
  8
0
 62
     9
100
AcDbPolyline
 90
        2
 70
     0
 39
0.003
 10
1.689331
 20
0.589799
 40
0.003
 41
0.003
 10
1.708571
 20
0.589307
 40
0.003
 41
0.003
  0
LWPOLYLINE
  5
2FA
100
AcDbEntity
  8
0
 62
     0
100
AcDbPolyline
 90
        2
 70
     0
 39
0.003
 10
2.062382
 20
0.253043
 40
0.003
 41
0.003
 10
2.064358
 20
1.002051
 40
0.003
 41
0.003
  0
LWPOLYLINE
  5
2FB
100
AcDbEntity
  8
0
 62
     0
100
AcDbPolyline
 90
        2
 70
     0
 39
0.003
 10
2.064358
 20
1.002051
 40
0.003
 41
0.003
 10
2.061965
 20
1.020776
 40
0.003
 41
0.003
  0
LWPOLYLINE
  5
2FC
100
AcDbEntity
  8
0
 62
     0
100
AcDbPolyline
 90
        2
 70
     0
 39
0.003
 10
2.061965
 20
1.020776
 40
0.003
 41
0.003
 10
2.058661
 20
1.039217
 40
0.003
 41
0.003
  0
LWPOLYLINE
  5
2FD
100
AcDbEntity
  8
0
 62
     0
100
AcDbPolyline
 90
        2
 70
     0
 39
0.003
 10
2.058661
 20
1.039217
 40
0.003
 41
0.003
 10
2.054457
 20
1.057327
 40
0.003
 41
0.003
  0
LWPOLYLINE
  5
2FE
100
AcDbEntity
  8
0
 62
     0
100
AcDbPolyline
 90
        2
 70
     0
 39
0.003
 10
2.054457
 20
1.057327
 40
0.003
 41
0.003
 10
2.049394
 20
1.075102
 40
0.003
 41
0.003
  0
LWPOLYLINE
  5
2FF
100
AcDbEntity
  8
0
 62
     0
100
AcDbPolyline
 90
        2
 70
     0
 39
0.003
 10
2.049394
 20
1.075102
 40
0.003
 41
0.003
 10
2.04348
 20
1.092512
 40
0.003
 41
0.003
  0
LWPOLYLINE
  5
300
100
AcDbEntity
  8
0
 62
     0
100
AcDbPolyline
 90
        2
 70
     0
 39
0.003
 10
2.04348
 20
1.092512
 40
0.003
 41
0.003
 10
2.036756
 20
1.109531
 40
0.003
 41
0.003
  0
LWPOLYLINE
  5
301
100
AcDbEntity
  8
0
 62
     0
100
AcDbPolyline
 90
        2
 70
     0
 39
0.003
 10
2.036756
 20
1.109531
 40
0.003
 41
0.003
 10
2.029224
 20
1.12613
 40
0.003
 41
0.003
  0
LWPOLYLINE
  5
302
100
AcDbEntity
  8
0
 62
     0
100
AcDbPolyline
 90
        2
 70
     0
 39
0.003
 10
2.029224
 20
1.12613
 40
0.003
 41
0.003
 10
2.020925
 20
1.142295
 40
0.003
 41
0.003
  0
LWPOLYLINE
  5
303
100
AcDbEntity
  8
0
 62
     0
100
AcDbPolyline
 90
        2
 70
     0
 39
0.003
 10
2.020925
 20
1.142295
 40
0.003
 41
0.003
 10
2.011878
 20
1.157996
 40
0.003
 41
0.003
  0
LWPOLYLINE
  5
304
100
AcDbEntity
  8
0
 62
     0
100
AcDbPolyline
 90
        2
 70
     0
 39
0.003
 10
2.011878
 20
1.157996
 40
0.003
 41
0.003
 10
2.00211
 20
1.17322
 40
0.003
 41
0.003
  0
LWPOLYLINE
  5
305
100
AcDbEntity
  8
0
 62
     0
100
AcDbPolyline
 90
        2
 70
     0
 39
0.003
 10
2.00211
 20
1.17322
 40
0.003
 41
0.003
 10
1.991634
 20
1.187925
 40
0.003
 41
0.003
  0
LWPOLYLINE
  5
306
100
AcDbEntity
  8
0
 62
     0
100
AcDbPolyline
 90
        2
 70
     0
 39
0.003
 10
1.991634
 20
1.187925
 40
0.003
 41
0.003
 10
1.980488
 20
1.202102
 40
0.003
 41
0.003
  0
LWPOLYLINE
  5
307
100
AcDbEntity
  8
0
 62
     0
100
AcDbPolyline
 90
        2
 70
     0
 39
0.003
 10
1.980488
 20
1.202102
 40
0.003
 41
0.003
 10
1.968685
 20
1.21572
 40
0.003
 41
0.003
  0
LWPOLYLINE
  5
308
100
AcDbEntity
  8
0
 62
     0
100
AcDbPolyline
 90
        2
 70
     0
 39
0.003
 10
1.968685
 20
1.21572
 40
0.003
 41
0.003
 10
1.95626
 20
1.22876
 40
0.003
 41
0.003
  0
LWPOLYLINE
  5
309
100
AcDbEntity
  8
0
 62
     0
100
AcDbPolyline
 90
        2
 70
     0
 39
0.003
 10
1.95626
 20
1.22876
 40
0.003
 41
0.003
 10
1.94322
 20
1.241185
 40
0.003
 41
0.003
  0
LWPOLYLINE
  5
30A
100
AcDbEntity
  8
0
 62
     0
100
AcDbPolyline
 90
        2
 70
     0
 39
0.003
 10
1.94322
 20
1.241185
 40
0.003
 41
0.003
 10
1.929602
 20
1.252988
 40
0.003
 41
0.003
  0
LWPOLYLINE
  5
30B
100
AcDbEntity
  8
0
 62
     0
100
AcDbPolyline
 90
        2
 70
     0
 39
0.003
 10
1.929602
 20
1.252988
 40
0.003
 41
0.003
 10
1.915425
 20
1.264134
 40
0.003
 41
0.003
  0
LWPOLYLINE
  5
30C
100
AcDbEntity
  8
0
 62
     0
100
AcDbPolyline
 90
        2
 70
     0
 39
0.003
 10
1.915425
 20
1.264134
 40
0.003
 41
0.003
 10
1.90072
 20
1.27461
 40
0.003
 41
0.003
  0
LWPOLYLINE
  5
30D
100
AcDbEntity
  8
0
 62
     0
100
AcDbPolyline
 90
        2
 70
     0
 39
0.003
 10
1.90072
 20
1.27461
 40
0.003
 41
0.003
 10
1.885496
 20
1.284378
 40
0.003
 41
0.003
  0
LWPOLYLINE
  5
30E
100
AcDbEntity
  8
0
 62
     0
100
AcDbPolyline
 90
        2
 70
     0
 39
0.003
 10
1.885496
 20
1.284378
 40
0.003
 41
0.003
 10
1.869795
 20
1.293425
 40
0.003
 41
0.003
  0
LWPOLYLINE
  5
30F
100
AcDbEntity
  8
0
 62
     0
100
AcDbPolyline
 90
        2
 70
     0
 39
0.003
 10
1.869795
 20
1.293425
 40
0.003
 41
0.003
 10
1.85363
 20
1.301724
 40
0.003
 41
0.003
  0
LWPOLYLINE
  5
310
100
AcDbEntity
  8
0
 62
     0
100
AcDbPolyline
 90
        2
 70
     0
 39
0.003
 10
1.85363
 20
1.301724
 40
0.003
 41
0.003
 10
1.837031
 20
1.309256
 40
0.003
 41
0.003
  0
LWPOLYLINE
  5
311
100
AcDbEntity
  8
0
 62
     0
100
AcDbPolyline
 90
        2
 70
     0
 39
0.003
 10
1.837031
 20
1.309256
 40
0.003
 41
0.003
 10
1.820012
 20
1.31598
 40
0.003
 41
0.003
  0
LWPOLYLINE
  5
312
100
AcDbEntity
  8
0
 62
     0
100
AcDbPolyline
 90
        2
 70
     0
 39
0.003
 10
1.820012
 20
1.31598
 40
0.003
 41
0.003
 10
1.802602
 20
1.321894
 40
0.003
 41
0.003
  0
LWPOLYLINE
  5
313
100
AcDbEntity
  8
0
 62
     0
100
AcDbPolyline
 90
        2
 70
     0
 39
0.003
 10
1.802602
 20
1.321894
 40
0.003
 41
0.003
 10
1.784827
 20
1.326957
 40
0.003
 41
0.003
  0
LWPOLYLINE
  5
314
100
AcDbEntity
  8
0
 62
     0
100
AcDbPolyline
 90
        2
 70
     0
 39
0.003
 10
1.784827
 20
1.326957
 40
0.003
 41
0.003
 10
1.766717
 20
1.331161
 40
0.003
 41
0.003
  0
LWPOLYLINE
  5
315
100
AcDbEntity
  8
0
 62
     0
100
AcDbPolyline
 90
        2
 70
     0
 39
0.003
 10
1.766717
 20
1.331161
 40
0.003
 41
0.003
 10
1.748276
 20
1.334465
 40
0.003
 41
0.003
  0
LWPOLYLINE
  5
316
100
AcDbEntity
  8
0
 62
     0
100
AcDbPolyline
 90
        2
 70
     0
 39
0.003
 10
1.748276
 20
1.334465
 40
0.003
 41
0.003
 10
1.729551
 20
1.336858
 40
0.003
 41
0.003
  0
LWPOLYLINE
  5
317
100
AcDbEntity
  8
0
 62
     0
100
AcDbPolyline
 90
        2
 70
     0
 39
0.003
 10
1.729551
 20
1.336858
 40
0.003
 41
0.003
 10
1.710547
 20
1.338315
 40
0.003
 41
0.003
  0
LWPOLYLINE
  5
318
100
AcDbEntity
  8
0
 62
     0
100
AcDbPolyline
 90
        2
 70
     0
 39
0.003
 10
1.710547
 20
1.338315
 40
0.003
 41
0.003
 10
1.691307
 20
1.338807
 40
0.003
 41
0.003
  0
LWPOLYLINE
  5
319
100
AcDbEntity
  8
0
 62
     0
100
AcDbPolyline
 90
        2
 70
     0
 39
0.003
 10
1.691307
 20
1.338807
 40
0.003
 41
0.003
 10
1.689331
 20
0.589799
 40
0.003
 41
0.003
  0
LWPOLYLINE
  5
31A
100
AcDbEntity
  8
0
 62
     0
100
AcDbPolyline
 90
        2
 70
     0
 39
0.003
 10
1.689331
 20
0.589799
 40
0.003
 41
0.003
 10
1.708571
 20
0.589307
 40
0.003
 41
0.003
  0
LWPOLYLINE
  5
31B
100
AcDbEntity
  8
0
 62
     0
100
AcDbPolyline
 90
        2
 70
     0
 39
0.003
 10
1.708571
 20
0.589307
 40
0.003
 41
0.003
 10
1.727575
 20
0.58785
 40
0.003
 41
0.003
  0
LWPOLYLINE
  5
31C
100
AcDbEntity
  8
0
 62
     0
100
AcDbPolyline
 90
        2
 70
     0
 39
0.003
 10
1.727575
 20
0.58785
 40
0.003
 41
0.003
 10
1.746299
 20
0.585457
 40
0.003
 41
0.003
  0
LWPOLYLINE
  5
31D
100
AcDbEntity
  8
0
 62
     0
100
AcDbPolyline
 90
        2
 70
     0
 39
0.003
 10
1.746299
 20
0.585457
 40
0.003
 41
0.003
 10
1.76474
 20
0.582154
 40
0.003
 41
0.003
  0
LWPOLYLINE
  5
31E
100
AcDbEntity
  8
0
 62
     0
100
AcDbPolyline
 90
        2
 70
     0
 39
0.003
 10
1.76474
 20
0.582154
 40
0.003
 41
0.003
 10
1.78285
 20
0.577949
 40
0.003
 41
0.003
  0
LWPOLYLINE
  5
31F
100
AcDbEntity
  8
0
 62
     0
100
AcDbPolyline
 90
        2
 70
     0
 39
0.003
 10
1.78285
 20
0.577949
 40
0.003
 41
0.003
 10
1.800626
 20
0.572886
 40
0.003
 41
0.003
  0
LWPOLYLINE
  5
320
100
AcDbEntity
  8
0
 62
     0
100
AcDbPolyline
 90
        2
 70
     0
 39
0.003
 10
1.800626
 20
0.572886
 40
0.003
 41
0.003
 10
1.818035
 20
0.566972
 40
0.003
 41
0.003
  0
LWPOLYLINE
  5
321
100
AcDbEntity
  8
0
 62
     0
100
AcDbPolyline
 90
        2
 70
     0
 39
0.003
 10
1.818035
 20
0.566972
 40
0.003
 41
0.003
 10
1.835055
 20
0.560248
 40
0.003
 41
0.003
  0
LWPOLYLINE
  5
322
100
AcDbEntity
  8
0
 62
     0
100
AcDbPolyline
 90
        2
 70
     0
 39
0.003
 10
1.835055
 20
0.560248
 40
0.003
 41
0.003
 10
1.851654
 20
0.552717
 40
0.003
 41
0.003
  0
LWPOLYLINE
  5
323
100
AcDbEntity
  8
0
 62
     0
100
AcDbPolyline
 90
        2
 70
     0
 39
0.003
 10
1.851654
 20
0.552717
 40
0.003
 41
0.003
 10
1.867819
 20
0.544417
 40
0.003
 41
0.003
  0
LWPOLYLINE
  5
324
100
AcDbEntity
  8
0
 62
     0
100
AcDbPolyline
 90
        2
 70
     0
 39
0.003
 10
1.867819
 20
0.544417
 40
0.003
 41
0.003
 10
1.88352
 20
0.53537
 40
0.003
 41
0.003
  0
LWPOLYLINE
  5
325
100
AcDbEntity
  8
0
 62
     0
100
AcDbPolyline
 90
        2
 70
     0
 39
0.003
 10
1.88352
 20
0.53537
 40
0.003
 41
0.003
 10
1.898744
 20
0.525602
 40
0.003
 41
0.003
  0
LWPOLYLINE
  5
326
100
AcDbEntity
  8
0
 62
     0
100
AcDbPolyline
 90
        2
 70
     0
 39
0.003
 10
1.898744
 20
0.525602
 40
0.003
 41
0.003
 10
1.913449
 20
0.515126
 40
0.003
 41
0.003
  0
LWPOLYLINE
  5
327
100
AcDbEntity
  8
0
 62
     0
100
AcDbPolyline
 90
        2
 70
     0
 39
0.003
 10
1.913449
 20
0.515126
 40
0.003
 41
0.003
 10
1.927626
 20
0.50398
 40
0.003
 41
0.003
  0
LWPOLYLINE
  5
328
100
AcDbEntity
  8
0
 62
     0
100
AcDbPolyline
 90
        2
 70
     0
 39
0.003
 10
1.927626
 20
0.50398
 40
0.003
 41
0.003
 10
1.941244
 20
0.492177
 40
0.003
 41
0.003
  0
LWPOLYLINE
  5
329
100
AcDbEntity
  8
0
 62
     0
100
AcDbPolyline
 90
        2
 70
     0
 39
0.003
 10
1.941244
 20
0.492177
 40
0.003
 41
0.003
 10
1.954283
 20
0.479752
 40
0.003
 41
0.003
  0
LWPOLYLINE
  5
32A
100
AcDbEntity
  8
0
 62
     0
100
AcDbPolyline
 90
        2
 70
     0
 39
0.003
 10
1.954283
 20
0.479752
 40
0.003
 41
0.003
 10
1.966709
 20
0.466713
 40
0.003
 41
0.003
  0
LWPOLYLINE
  5
32B
100
AcDbEntity
  8
0
 62
     0
100
AcDbPolyline
 90
        2
 70
     0
 39
0.003
 10
1.966709
 20
0.466713
 40
0.003
 41
0.003
 10
1.978512
 20
0.453094
 40
0.003
 41
0.003
  0
LWPOLYLINE
  5
32C
100
AcDbEntity
  8
0
 62
     0
100
AcDbPolyline
 90
        2
 70
     0
 39
0.003
 10
1.978512
 20
0.453094
 40
0.003
 41
0.003
 10
1.989657
 20
0.438917
 40
0.003
 41
0.003
  0
LWPOLYLINE
  5
32D
100
AcDbEntity
  8
0
 62
     0
100
AcDbPolyline
 90
        2
 70
     0
 39
0.003
 10
1.989657
 20
0.438917
 40
0.003
 41
0.003
 10
2.000134
 20
0.424213
 40
0.003
 41
0.003
  0
LWPOLYLINE
  5
32E
100
AcDbEntity
  8
0
 62
     0
100
AcDbPolyline
 90
        2
 70
     0
 39
0.003
 10
2.000134
 20
0.424213
 40
0.003
 41
0.003
 10
2.009902
 20
0.408988
 40
0.003
 41
0.003
  0
LWPOLYLINE
  5
32F
100
AcDbEntity
  8
0
 62
     0
100
AcDbPolyline
 90
        2
 70
     0
 39
0.003
 10
2.009902
 20
0.408988
 40
0.003
 41
0.003
 10
2.018949
 20
0.393287
 40
0.003
 41
0.003
  0
LWPOLYLINE
  5
330
100
AcDbEntity
  8
0
 62
     0
100
AcDbPolyline
 90
        2
 70
     0
 39
0.003
 10
2.018949
 20
0.393287
 40
0.003
 41
0.003
 10
2.027248
 20
0.377122
 40
0.003
 41
0.003
  0
LWPOLYLINE
  5
331
100
AcDbEntity
  8
0
 62
     0
100
AcDbPolyline
 90
        2
 70
     0
 39
0.003
 10
2.027248
 20
0.377122
 40
0.003
 41
0.003
 10
2.03478
 20
0.360524
 40
0.003
 41
0.003
  0
LWPOLYLINE
  5
332
100
AcDbEntity
  8
0
 62
     0
100
AcDbPolyline
 90
        2
 70
     0
 39
0.003
 10
2.03478
 20
0.360524
 40
0.003
 41
0.003
 10
2.041504
 20
0.343504
 40
0.003
 41
0.003
  0
LWPOLYLINE
  5
333
100
AcDbEntity
  8
0
 62
     0
100
AcDbPolyline
 90
        2
 70
     0
 39
0.003
 10
2.041504
 20
0.343504
 40
0.003
 41
0.003
 10
2.047417
 20
0.326094
 40
0.003
 41
0.003
  0
LWPOLYLINE
  5
334
100
AcDbEntity
  8
0
 62
     0
100
AcDbPolyline
 90
        2
 70
     0
 39
0.003
 10
2.047417
 20
0.326094
 40
0.003
 41
0.003
 10
2.05248
 20
0.308319
 40
0.003
 41
0.003
  0
LWPOLYLINE
  5
335
100
AcDbEntity
  8
0
 62
     0
100
AcDbPolyline
 90
        2
 70
     0
 39
0.003
 10
2.05248
 20
0.308319
 40
0.003
 41
0.003
 10
2.056685
 20
0.290209
 40
0.003
 41
0.003
  0
LWPOLYLINE
  5
336
100
AcDbEntity
  8
0
 62
     0
100
AcDbPolyline
 90
        2
 70
     0
 39
0.003
 10
2.056685
 20
0.290209
 40
0.003
 41
0.003
 10
2.059988
 20
0.271768
 40
0.003
 41
0.003
  0
LWPOLYLINE
  5
337
100
AcDbEntity
  8
0
 62
     0
100
AcDbPolyline
 90
        2
 70
     0
 39
0.003
 10
2.059988
 20
0.271768
 40
0.003
 41
0.003
 10
2.062382
 20
0.253043
 40
0.003
 41
0.003
  0
LWPOLYLINE
  5
338
100
AcDbEntity
  8
0
 62
     9
100
AcDbPolyline
 90
        2
 70
     0
 39
0.003
 10
1.68002
 20
0.736051
 40
0.003
 41
0.003
 10
1.681996
 20
1.485059
 40
0.003
 41
0.003
  0
LWPOLYLINE
  5
339
100
AcDbEntity
  8
0
 62
     9
100
AcDbPolyline
 90
        2
 70
     0
 39
0.003
 10
1.681996
 20
1.485059
 40
0.003
 41
0.003
 10
0.337689
 20
1.485059
 40
0.003
 41
0.003
  0
LWPOLYLINE
  5
33A
100
AcDbEntity
  8
0
 62
     9
100
AcDbPolyline
 90
        2
 70
     0
 39
0.003
 10
0.337689
 20
1.485059
 40
0.003
 41
0.003
 10
0.335713
 20
0.736051
 40
0.003
 41
0.003
  0
LWPOLYLINE
  5
33B
100
AcDbEntity
  8
0
 62
     9
100
AcDbPolyline
 90
        2
 70
     0
 39
0.003
 10
0.335713
 20
0.736051
 40
0.003
 41
0.003
 10
1.68002
 20
0.736051
 40
0.003
 41
0.003
  0
LWPOLYLINE
  5
33C
100
AcDbEntity
  8
0
 62
     0
100
AcDbPolyline
 90
        2
 70
     0
 39
0.003
 10
1.68002
 20
0.736051
 40
0.003
 41
0.003
 10
1.681996
 20
1.485059
 40
0.003
 41
0.003
  0
LWPOLYLINE
  5
33D
100
AcDbEntity
  8
0
 62
     0
100
AcDbPolyline
 90
        2
 70
     0
 39
0.003
 10
1.681996
 20
1.485059
 40
0.003
 41
0.003
 10
0.337689
 20
1.485059
 40
0.003
 41
0.003
  0
LWPOLYLINE
  5
33E
100
AcDbEntity
  8
0
 62
     0
100
AcDbPolyline
 90
        2
 70
     0
 39
0.003
 10
0.337689
 20
1.485059
 40
0.003
 41
0.003
 10
0.335713
 20
0.736051
 40
0.003
 41
0.003
  0
LWPOLYLINE
  5
33F
100
AcDbEntity
  8
0
 62
     0
100
AcDbPolyline
 90
        2
 70
     0
 39
0.003
 10
0.335713
 20
0.736051
 40
0.003
 41
0.003
 10
1.68002
 20
0.736051
 40
0.003
 41
0.003
  0
LWPOLYLINE
  5
340
100
AcDbEntity
  8
0
 62
   254
100
AcDbPolyline
 90
        2
 70
     0
 39
0.003
 10
0.335713
 20
0.736051
 40
0.003
 41
0.003
 10
0.337689
 20
1.485059
 40
0.003
 41
0.003
  0
LWPOLYLINE
  5
341
100
AcDbEntity
  8
0
 62
   254
100
AcDbPolyline
 90
        2
 70
     0
 39
0.003
 10
0.337689
 20
1.485059
 40
0.003
 41
0.003
 10
0.330945
 20
1.517697
 40
0.003
 41
0.003
  0
LWPOLYLINE
  5
342
100
AcDbEntity
  8
0
 62
   254
100
AcDbPolyline
 90
        2
 70
     0
 39
0.003
 10
0.330945
 20
1.517697
 40
0.003
 41
0.003
 10
0.328969
 20
0.768689
 40
0.003
 41
0.003
  0
LWPOLYLINE
  5
343
100
AcDbEntity
  8
0
 62
   254
100
AcDbPolyline
 90
        2
 70
     0
 39
0.003
 10
0.328969
 20
0.768689
 40
0.003
 41
0.003
 10
0.335713
 20
0.736051
 40
0.003
 41
0.003
  0
LWPOLYLINE
  5
344
100
AcDbEntity
  8
0
 62
   254
100
AcDbPolyline
 90
        2
 70
     0
 39
0.003
 10
0.328969
 20
0.768689
 40
0.003
 41
0.003
 10
0.330945
 20
1.517697
 40
0.003
 41
0.003
  0
LWPOLYLINE
  5
345
100
AcDbEntity
  8
0
 62
   254
100
AcDbPolyline
 90
        2
 70
     0
 39
0.003
 10
0.330945
 20
1.517697
 40
0.003
 41
0.003
 10
0.322858
 20
1.547583
 40
0.003
 41
0.003
  0
LWPOLYLINE
  5
346
100
AcDbEntity
  8
0
 62
   254
100
AcDbPolyline
 90
        2
 70
     0
 39
0.003
 10
0.322858
 20
1.547583
 40
0.003
 41
0.003
 10
0.320882
 20
0.798575
 40
0.003
 41
0.003
  0
LWPOLYLINE
  5
347
100
AcDbEntity
  8
0
 62
   254
100
AcDbPolyline
 90
        2
 70
     0
 39
0.003
 10
0.320882
 20
0.798575
 40
0.003
 41
0.003
 10
0.328969
 20
0.768689
 40
0.003
 41
0.003
  0
LWPOLYLINE
  5
348
100
AcDbEntity
  8
0
 62
   254
100
AcDbPolyline
 90
        2
 70
     0
 39
0.003
 10
0.320882
 20
0.798575
 40
0.003
 41
0.003
 10
0.322858
 20
1.547583
 40
0.003
 41
0.003
  0
LWPOLYLINE
  5
349
100
AcDbEntity
  8
0
 62
   254
100
AcDbPolyline
 90
        2
 70
     0
 39
0.003
 10
0.322858
 20
1.547583
 40
0.003
 41
0.003
 10
0.313508
 20
1.574791
 40
0.003
 41
0.003
  0
LWPOLYLINE
  5
34A
100
AcDbEntity
  8
0
 62
   254
100
AcDbPolyline
 90
        2
 70
     0
 39
0.003
 10
0.313508
 20
1.574791
 40
0.003
 41
0.003
 10
0.311531
 20
0.825783
 40
0.003
 41
0.003
  0
LWPOLYLINE
  5
34B
100
AcDbEntity
  8
0
 62
   254
100
AcDbPolyline
 90
        2
 70
     0
 39
0.003
 10
0.311531
 20
0.825783
 40
0.003
 41
0.003
 10
0.320882
 20
0.798575
 40
0.003
 41
0.003
  0
LWPOLYLINE
  5
34C
100
AcDbEntity
  8
0
 62
   254
100
AcDbPolyline
 90
        2
 70
     0
 39
0.003
 10
0.311531
 20
0.825783
 40
0.003
 41
0.003
 10
0.313508
 20
1.574791
 40
0.003
 41
0.003
  0
LWPOLYLINE
  5
34D
100
AcDbEntity
  8
0
 62
   254
100
AcDbPolyline
 90
        2
 70
     0
 39
0.003
 10
0.313508
 20
1.574791
 40
0.003
 41
0.003
 10
0.303012
 20
1.599417
 40
0.003
 41
0.003
  0
LWPOLYLINE
  5
34E
100
AcDbEntity
  8
0
 62
   254
100
AcDbPolyline
 90
        2
 70
     0
 39
0.003
 10
0.303012
 20
1.599417
 40
0.003
 41
0.003
 10
0.301035
 20
0.850409
 40
0.003
 41
0.003
  0
LWPOLYLINE
  5
34F
100
AcDbEntity
  8
0
 62
   254
100
AcDbPolyline
 90
        2
 70
     0
 39
0.003
 10
0.301035
 20
0.850409
 40
0.003
 41
0.003
 10
0.311531
 20
0.825783
 40
0.003
 41
0.003
  0
LWPOLYLINE
  5
350
100
AcDbEntity
  8
0
 62
   254
100
AcDbPolyline
 90
        2
 70
     0
 39
0.003
 10
0.301035
 20
0.850409
 40
0.003
 41
0.003
 10
0.303012
 20
1.599417
 40
0.003
 41
0.003
  0
LWPOLYLINE
  5
351
100
AcDbEntity
  8
0
 62
   254
100
AcDbPolyline
 90
        2
 70
     0
 39
0.003
 10
0.303012
 20
1.599417
 40
0.003
 41
0.003
 10
0.291441
 20
1.621528
 40
0.003
 41
0.003
  0
LWPOLYLINE
  5
352
100
AcDbEntity
  8
0
 62
   254
100
AcDbPolyline
 90
        2
 70
     0
 39
0.003
 10
0.291441
 20
1.621528
 40
0.003
 41
0.003
 10
0.289465
 20
0.87252
 40
0.003
 41
0.003
  0
LWPOLYLINE
  5
353
100
AcDbEntity
  8
0
 62
   254
100
AcDbPolyline
 90
        2
 70
     0
 39
0.003
 10
0.289465
 20
0.87252
 40
0.003
 41
0.003
 10
0.301035
 20
0.850409
 40
0.003
 41
0.003
  0
LWPOLYLINE
  5
354
100
AcDbEntity
  8
0
 62
   254
100
AcDbPolyline
 90
        2
 70
     0
 39
0.003
 10
0.289465
 20
0.87252
 40
0.003
 41
0.003
 10
0.291441
 20
1.621528
 40
0.003
 41
0.003
  0
LWPOLYLINE
  5
355
100
AcDbEntity
  8
0
 62
   254
100
AcDbPolyline
 90
        2
 70
     0
 39
0.003
 10
0.291441
 20
1.621528
 40
0.003
 41
0.003
 10
0.278906
 20
1.641217
 40
0.003
 41
0.003
  0
LWPOLYLINE
  5
356
100
AcDbEntity
  8
0
 62
   254
100
AcDbPolyline
 90
        2
 70
     0
 39
0.003
 10
0.278906
 20
1.641217
 40
0.003
 41
0.003
 10
0.276929
 20
0.892209
 40
0.003
 41
0.003
  0
LWPOLYLINE
  5
357
100
AcDbEntity
  8
0
 62
   254
100
AcDbPolyline
 90
        2
 70
     0
 39
0.003
 10
0.276929
 20
0.892209
 40
0.003
 41
0.003
 10
0.289465
 20
0.87252
 40
0.003
 41
0.003
  0
LWPOLYLINE
  5
358
100
AcDbEntity
  8
0
 62
   254
100
AcDbPolyline
 90
        2
 70
     0
 39
0.003
 10
0.276929
 20
0.892209
 40
0.003
 41
0.003
 10
0.278906
 20
1.641217
 40
0.003
 41
0.003
  0
LWPOLYLINE
  5
359
100
AcDbEntity
  8
0
 62
   254
100
AcDbPolyline
 90
        2
 70
     0
 39
0.003
 10
0.278906
 20
1.641217
 40
0.003
 41
0.003
 10
0.265492
 20
1.658555
 40
0.003
 41
0.003
  0
LWPOLYLINE
  5
35A
100
AcDbEntity
  8
0
 62
   254
100
AcDbPolyline
 90
        2
 70
     0
 39
0.003
 10
0.265492
 20
1.658555
 40
0.003
 41
0.003
 10
0.263516
 20
0.909547
 40
0.003
 41
0.003
  0
LWPOLYLINE
  5
35B
100
AcDbEntity
  8
0
 62
   254
100
AcDbPolyline
 90
        2
 70
     0
 39
0.003
 10
0.263516
 20
0.909547
 40
0.003
 41
0.003
 10
0.276929
 20
0.892209
 40
0.003
 41
0.003
  0
LWPOLYLINE
  5
35C
100
AcDbEntity
  8
0
 62
   254
100
AcDbPolyline
 90
        2
 70
     0
 39
0.003
 10
0.263516
 20
0.909547
 40
0.003
 41
0.003
 10
0.265492
 20
1.658555
 40
0.003
 41
0.003
  0
LWPOLYLINE
  5
35D
100
AcDbEntity
  8
0
 62
   254
100
AcDbPolyline
 90
        2
 70
     0
 39
0.003
 10
0.265492
 20
1.658555
 40
0.003
 41
0.003
 10
0.251311
 20
1.673642
 40
0.003
 41
0.003
  0
LWPOLYLINE
  5
35E
100
AcDbEntity
  8
0
 62
   254
100
AcDbPolyline
 90
        2
 70
     0
 39
0.003
 10
0.251311
 20
1.673642
 40
0.003
 41
0.003
 10
0.249335
 20
0.924634
 40
0.003
 41
0.003
  0
LWPOLYLINE
  5
35F
100
AcDbEntity
  8
0
 62
   254
100
AcDbPolyline
 90
        2
 70
     0
 39
0.003
 10
0.249335
 20
0.924634
 40
0.003
 41
0.003
 10
0.263516
 20
0.909547
 40
0.003
 41
0.003
  0
LWPOLYLINE
  5
360
100
AcDbEntity
  8
0
 62
   254
100
AcDbPolyline
 90
        2
 70
     0
 39
0.003
 10
0.249335
 20
0.924634
 40
0.003
 41
0.003
 10
0.251311
 20
1.673642
 40
0.003
 41
0.003
  0
LWPOLYLINE
  5
361
100
AcDbEntity
  8
0
 62
   254
100
AcDbPolyline
 90
        2
 70
     0
 39
0.003
 10
0.251311
 20
1.673642
 40
0.003
 41
0.003
 10
0.236433
 20
1.686539
 40
0.003
 41
0.003
  0
LWPOLYLINE
  5
362
100
AcDbEntity
  8
0
 62
   254
100
AcDbPolyline
 90
        2
 70
     0
 39
0.003
 10
0.236433
 20
1.686539
 40
0.003
 41
0.003
 10
0.234457
 20
0.937531
 40
0.003
 41
0.003
  0
LWPOLYLINE
  5
363
100
AcDbEntity
  8
0
 62
   254
100
AcDbPolyline
 90
        2
 70
     0
 39
0.003
 10
0.234457
 20
0.937531
 40
0.003
 41
0.003
 10
0.249335
 20
0.924634
 40
0.003
 41
0.003
  0
LWPOLYLINE
  5
364
100
AcDbEntity
  8
0
 62
   254
100
AcDbPolyline
 90
        2
 70
     0
 39
0.003
 10
0.234457
 20
0.937531
 40
0.003
 41
0.003
 10
0.236433
 20
1.686539
 40
0.003
 41
0.003
  0
LWPOLYLINE
  5
365
100
AcDbEntity
  8
0
 62
   254
100
AcDbPolyline
 90
        2
 70
     0
 39
0.003
 10
0.236433
 20
1.686539
 40
0.003
 41
0.003
 10
0.220972
 20
1.69735
 40
0.003
 41
0.003
  0
LWPOLYLINE
  5
366
100
AcDbEntity
  8
0
 62
   254
100
AcDbPolyline
 90
        2
 70
     0
 39
0.003
 10
0.220972
 20
1.69735
 40
0.003
 41
0.003
 10
0.218996
 20
0.948343
 40
0.003
 41
0.003
  0
LWPOLYLINE
  5
367
100
AcDbEntity
  8
0
 62
   254
100
AcDbPolyline
 90
        2
 70
     0
 39
0.003
 10
0.218996
 20
0.948343
 40
0.003
 41
0.003
 10
0.234457
 20
0.937531
 40
0.003
 41
0.003
  0
LWPOLYLINE
  5
368
100
AcDbEntity
  8
0
 62
   254
100
AcDbPolyline
 90
        2
 70
     0
 39
0.003
 10
0.218996
 20
0.948343
 40
0.003
 41
0.003
 10
0.220972
 20
1.69735
 40
0.003
 41
0.003
  0
LWPOLYLINE
  5
369
100
AcDbEntity
  8
0
 62
   254
100
AcDbPolyline
 90
        2
 70
     0
 39
0.003
 10
0.220972
 20
1.69735
 40
0.003
 41
0.003
 10
0.205016
 20
1.706142
 40
0.003
 41
0.003
  0
LWPOLYLINE
  5
36A
100
AcDbEntity
  8
0
 62
   254
100
AcDbPolyline
 90
        2
 70
     0
 39
0.003
 10
0.205016
 20
1.706142
 40
0.003
 41
0.003
 10
0.203039
 20
0.957134
 40
0.003
 41
0.003
  0
LWPOLYLINE
  5
36B
100
AcDbEntity
  8
0
 62
   254
100
AcDbPolyline
 90
        2
 70
     0
 39
0.003
 10
0.203039
 20
0.957134
 40
0.003
 41
0.003
 10
0.218996
 20
0.948343
 40
0.003
 41
0.003
  0
LWPOLYLINE
  5
36C
100
AcDbEntity
  8
0
 62
     9
100
AcDbPolyline
 90
        2
 70
     0
 39
0.003
 10
0.203039
 20
0.957134
 40
0.003
 41
0.003
 10
0.205016
 20
1.706142
 40
0.003
 41
0.003
  0
LWPOLYLINE
  5
36D
100
AcDbEntity
  8
0
 62
     9
100
AcDbPolyline
 90
        2
 70
     0
 39
0.003
 10
0.205016
 20
1.706142
 40
0.003
 41
0.003
 10
0.188661
 20
1.713008
 40
0.003
 41
0.003
  0
LWPOLYLINE
  5
36E
100
AcDbEntity
  8
0
 62
     9
100
AcDbPolyline
 90
        2
 70
     0
 39
0.003
 10
0.188661
 20
1.713008
 40
0.003
 41
0.003
 10
0.186685
 20
0.964
 40
0.003
 41
0.003
  0
LWPOLYLINE
  5
36F
100
AcDbEntity
  8
0
 62
     9
100
AcDbPolyline
 90
        2
 70
     0
 39
0.003
 10
0.186685
 20
0.964
 40
0.003
 41
0.003
 10
0.203039
 20
0.957134
 40
0.003
 41
0.003
  0
LWPOLYLINE
  5
370
100
AcDbEntity
  8
0
 62
     9
100
AcDbPolyline
 90
        2
 70
     0
 39
0.003
 10
0.186685
 20
0.964
 40
0.003
 41
0.003
 10
0.188661
 20
1.713008
 40
0.003
 41
0.003
  0
LWPOLYLINE
  5
371
100
AcDbEntity
  8
0
 62
     9
100
AcDbPolyline
 90
        2
 70
     0
 39
0.003
 10
0.188661
 20
1.713008
 40
0.003
 41
0.003
 10
0.172
 20
1.718016
 40
0.003
 41
0.003
  0
LWPOLYLINE
  5
372
100
AcDbEntity
  8
0
 62
     9
100
AcDbPolyline
 90
        2
 70
     0
 39
0.003
 10
0.172
 20
1.718016
 40
0.003
 41
0.003
 10
0.170024
 20
0.969008
 40
0.003
 41
0.003
  0
LWPOLYLINE
  5
373
100
AcDbEntity
  8
0
 62
     9
100
AcDbPolyline
 90
        2
 70
     0
 39
0.003
 10
0.170024
 20
0.969008
 40
0.003
 41
0.003
 10
0.186685
 20
0.964
 40
0.003
 41
0.003
  0
LWPOLYLINE
  5
374
100
AcDbEntity
  8
0
 62
     9
100
AcDbPolyline
 90
        2
 70
     0
 39
0.003
 10
0.170024
 20
0.969008
 40
0.003
 41
0.003
 10
0.172
 20
1.718016
 40
0.003
 41
0.003
  0
LWPOLYLINE
  5
375
100
AcDbEntity
  8
0
 62
     9
100
AcDbPolyline
 90
        2
 70
     0
 39
0.003
 10
0.172
 20
1.718016
 40
0.003
 41
0.003
 10
0.15513
 20
1.721268
 40
0.003
 41
0.003
  0
LWPOLYLINE
  5
376
100
AcDbEntity
  8
0
 62
     9
100
AcDbPolyline
 90
        2
 70
     0
 39
0.003
 10
0.15513
 20
1.721268
 40
0.003
 41
0.003
 10
0.153154
 20
0.97226
 40
0.003
 41
0.003
  0
LWPOLYLINE
  5
377
100
AcDbEntity
  8
0
 62
     9
100
AcDbPolyline
 90
        2
 70
     0
 39
0.003
 10
0.153154
 20
0.97226
 40
0.003
 41
0.003
 10
0.170024
 20
0.969008
 40
0.003
 41
0.003
  0
LWPOLYLINE
  5
378
100
AcDbEntity
  8
0
 62
     9
100
AcDbPolyline
 90
        2
 70
     0
 39
0.003
 10
0.153154
 20
0.97226
 40
0.003
 41
0.003
 10
0.15513
 20
1.721268
 40
0.003
 41
0.003
  0
LWPOLYLINE
  5
379
100
AcDbEntity
  8
0
 62
     9
100
AcDbPolyline
 90
        2
 70
     0
 39
0.003
 10
0.15513
 20
1.721268
 40
0.003
 41
0.003
 10
0.138146
 20
1.722835
 40
0.003
 41
0.003
  0
LWPOLYLINE
  5
37A
100
AcDbEntity
  8
0
 62
     9
100
AcDbPolyline
 90
        2
 70
     0
 39
0.003
 10
0.138146
 20
1.722835
 40
0.003
 41
0.003
 10
0.136169
 20
0.973827
 40
0.003
 41
0.003
  0
LWPOLYLINE
  5
37B
100
AcDbEntity
  8
0
 62
     9
100
AcDbPolyline
 90
        2
 70
     0
 39
0.003
 10
0.136169
 20
0.973827
 40
0.003
 41
0.003
 10
0.153154
 20
0.97226
 40
0.003
 41
0.003
  0
LWPOLYLINE
  5
37C
100
AcDbEntity
  8
0
 62
     9
100
AcDbPolyline
 90
        2
 70
     0
 39
0.003
 10
0.136169
 20
0.973827
 40
0.003
 41
0.003
 10
0.138146
 20
1.722835
 40
0.003
 41
0.003
  0
LWPOLYLINE
  5
37D
100
AcDbEntity
  8
0
 62
     9
100
AcDbPolyline
 90
        2
 70
     0
 39
0.003
 10
0.138146
 20
1.722835
 40
0.003
 41
0.003
 10
0.121146
 20
1.722803
 40
0.003
 41
0.003
  0
LWPOLYLINE
  5
37E
100
AcDbEntity
  8
0
 62
     9
100
AcDbPolyline
 90
        2
 70
     0
 39
0.003
 10
0.121146
 20
1.722803
 40
0.003
 41
0.003
 10
0.119169
 20
0.973795
 40
0.003
 41
0.003
  0
LWPOLYLINE
  5
37F
100
AcDbEntity
  8
0
 62
     9
100
AcDbPolyline
 90
        2
 70
     0
 39
0.003
 10
0.119169
 20
0.973795
 40
0.003
 41
0.003
 10
0.136169
 20
0.973827
 40
0.003
 41
0.003
  0
LWPOLYLINE
  5
380
100
AcDbEntity
  8
0
 62
     9
100
AcDbPolyline
 90
        2
 70
     0
 39
0.003
 10
0.119169
 20
0.973795
 40
0.003
 41
0.003
 10
0.121146
 20
1.722803
 40
0.003
 41
0.003
  0
LWPOLYLINE
  5
381
100
AcDbEntity
  8
0
 62
     9
100
AcDbPolyline
 90
        2
 70
     0
 39
0.003
 10
0.121146
 20
1.722803
 40
0.003
 41
0.003
 10
0.104213
 20
1.72124
 40
0.003
 41
0.003
  0
LWPOLYLINE
  5
382
100
AcDbEntity
  8
0
 62
     9
100
AcDbPolyline
 90
        2
 70
     0
 39
0.003
 10
0.104213
 20
1.72124
 40
0.003
 41
0.003
 10
0.102236
 20
0.972232
 40
0.003
 41
0.003
  0
LWPOLYLINE
  5
383
100
AcDbEntity
  8
0
 62
     9
100
AcDbPolyline
 90
        2
 70
     0
 39
0.003
 10
0.102236
 20
0.972232
 40
0.003
 41
0.003
 10
0.119169
 20
0.973795
 40
0.003
 41
0.003
  0
LWPOLYLINE
  5
384
100
AcDbEntity
  8
0
 62
     9
100
AcDbPolyline
 90
        2
 70
     0
 39
0.003
 10
0.102236
 20
0.972232
 40
0.003
 41
0.003
 10
0.104213
 20
1.72124
 40
0.003
 41
0.003
  0
LWPOLYLINE
  5
385
100
AcDbEntity
  8
0
 62
     9
100
AcDbPolyline
 90
        2
 70
     0
 39
0.003
 10
0.104213
 20
1.72124
 40
0.003
 41
0.003
 10
0.087457
 20
1.718248
 40
0.003
 41
0.003
  0
LWPOLYLINE
  5
386
100
AcDbEntity
  8
0
 62
     9
100
AcDbPolyline
 90
        2
 70
     0
 39
0.003
 10
0.087457
 20
1.718248
 40
0.003
 41
0.003
 10
0.08548
 20
0.96924
 40
0.003
 41
0.003
  0
LWPOLYLINE
  5
387
100
AcDbEntity
  8
0
 62
     9
100
AcDbPolyline
 90
        2
 70
     0
 39
0.003
 10
0.08548
 20
0.96924
 40
0.003
 41
0.003
 10
0.102236
 20
0.972232
 40
0.003
 41
0.003
  0
LWPOLYLINE
  5
388
100
AcDbEntity
  8
0
 62
     9
100
AcDbPolyline
 90
        2
 70
     0
 39
0.003
 10
0.08548
 20
0.96924
 40
0.003
 41
0.003
 10
0.087457
 20
1.718248
 40
0.003
 41
0.003
  0
LWPOLYLINE
  5
389
100
AcDbEntity
  8
0
 62
     9
100
AcDbPolyline
 90
        2
 70
     0
 39
0.003
 10
0.087457
 20
1.718248
 40
0.003
 41
0.003
 10
0.070965
 20
1.713902
 40
0.003
 41
0.003
  0
LWPOLYLINE
  5
38A
100
AcDbEntity
  8
0
 62
     9
100
AcDbPolyline
 90
        2
 70
     0
 39
0.003
 10
0.070965
 20
1.713902
 40
0.003
 41
0.003
 10
0.068988
 20
0.964894
 40
0.003
 41
0.003
  0
LWPOLYLINE
  5
38B
100
AcDbEntity
  8
0
 62
     9
100
AcDbPolyline
 90
        2
 70
     0
 39
0.003
 10
0.068988
 20
0.964894
 40
0.003
 41
0.003
 10
0.08548
 20
0.96924
 40
0.003
 41
0.003
  0
LWPOLYLINE
  5
38C
100
AcDbEntity
  8
0
 62
   253
100
AcDbPolyline
 90
        2
 70
     0
 39
0.003
 10
0.068988
 20
0.964894
 40
0.003
 41
0.003
 10
0.070965
 20
1.713902
 40
0.003
 41
0.003
  0
LWPOLYLINE
  5
38D
100
AcDbEntity
  8
0
 62
   253
100
AcDbPolyline
 90
        2
 70
     0
 39
0.003
 10
0.070965
 20
1.713902
 40
0.003
 41
0.003
 10
0.054839
 20
1.708287
 40
0.003
 41
0.003
  0
LWPOLYLINE
  5
38E
100
AcDbEntity
  8
0
 62
   253
100
AcDbPolyline
 90
        2
 70
     0
 39
0.003
 10
0.054839
 20
1.708287
 40
0.003
 41
0.003
 10
0.052862
 20
0.95928
 40
0.003
 41
0.003
  0
LWPOLYLINE
  5
38F
100
AcDbEntity
  8
0
 62
   253
100
AcDbPolyline
 90
        2
 70
     0
 39
0.003
 10
0.052862
 20
0.95928
 40
0.003
 41
0.003
 10
0.068988
 20
0.964894
 40
0.003
 41
0.003
  0
LWPOLYLINE
  5
390
100
AcDbEntity
  8
0
 62
   253
100
AcDbPolyline
 90
        2
 70
     0
 39
0.003
 10
0.052862
 20
0.95928
 40
0.003
 41
0.003
 10
0.054839
 20
1.708287
 40
0.003
 41
0.003
  0
LWPOLYLINE
  5
391
100
AcDbEntity
  8
0
 62
   253
100
AcDbPolyline
 90
        2
 70
     0
 39
0.003
 10
0.054839
 20
1.708287
 40
0.003
 41
0.003
 10
0.039169
 20
1.701476
 40
0.003
 41
0.003
  0
LWPOLYLINE
  5
392
100
AcDbEntity
  8
0
 62
   253
100
AcDbPolyline
 90
        2
 70
     0
 39
0.003
 10
0.039169
 20
1.701476
 40
0.003
 41
0.003
 10
0.037193
 20
0.952469
 40
0.003
 41
0.003
  0
LWPOLYLINE
  5
393
100
AcDbEntity
  8
0
 62
   253
100
AcDbPolyline
 90
        2
 70
     0
 39
0.003
 10
0.037193
 20
0.952469
 40
0.003
 41
0.003
 10
0.052862
 20
0.95928
 40
0.003
 41
0.003
  0
LWPOLYLINE
  5
394
100
AcDbEntity
  8
0
 62
   253
100
AcDbPolyline
 90
        2
 70
     0
 39
0.003
 10
0.037193
 20
0.952469
 40
0.003
 41
0.003
 10
0.039169
 20
1.701476
 40
0.003
 41
0.003
  0
LWPOLYLINE
  5
395
100
AcDbEntity
  8
0
 62
   253
100
AcDbPolyline
 90
        2
 70
     0
 39
0.003
 10
0.039169
 20
1.701476
 40
0.003
 41
0.003
 10
0.024047
 20
1.693567
 40
0.003
 41
0.003
  0
LWPOLYLINE
  5
396
100
AcDbEntity
  8
0
 62
   253
100
AcDbPolyline
 90
        2
 70
     0
 39
0.003
 10
0.024047
 20
1.693567
 40
0.003
 41
0.003
 10
0.022071
 20
0.944559
 40
0.003
 41
0.003
  0
LWPOLYLINE
  5
397
100
AcDbEntity
  8
0
 62
   253
100
AcDbPolyline
 90
        2
 70
     0
 39
0.003
 10
0.022071
 20
0.944559
 40
0.003
 41
0.003
 10
0.037193
 20
0.952469
 40
0.003
 41
0.003
  0
LWPOLYLINE
  5
398
100
AcDbEntity
  8
0
 62
   253
100
AcDbPolyline
 90
        2
 70
     0
 39
0.003
 10
0.022071
 20
0.944559
 40
0.003
 41
0.003
 10
0.024047
 20
1.693567
 40
0.003
 41
0.003
  0
LWPOLYLINE
  5
399
100
AcDbEntity
  8
0
 62
   253
100
AcDbPolyline
 90
        2
 70
     0
 39
0.003
 10
0.024047
 20
1.693567
 40
0.003
 41
0.003
 10
0.009571
 20
1.684626
 40
0.003
 41
0.003
  0
LWPOLYLINE
  5
39A
100
AcDbEntity
  8
0
 62
   253
100
AcDbPolyline
 90
        2
 70
     0
 39
0.003
 10
0.009571
 20
1.684626
 40
0.003
 41
0.003
 10
0.007594
 20
0.935618
 40
0.003
 41
0.003
  0
LWPOLYLINE
  5
39B
100
AcDbEntity
  8
0
 62
   253
100
AcDbPolyline
 90
        2
 70
     0
 39
0.003
 10
0.007594
 20
0.935618
 40
0.003
 41
0.003
 10
0.022071
 20
0.944559
 40
0.003
 41
0.003
  0
LWPOLYLINE
  5
39C
100
AcDbEntity
  8
0
 62
   253
100
AcDbPolyline
 90
        2
 70
     0
 39
0.003
 10
0.007594
 20
0.935618
 40
0.003
 41
0.003
 10
0.009571
 20
1.684626
 40
0.003
 41
0.003
  0
LWPOLYLINE
  5
39D
100
AcDbEntity
  8
0
 62
   253
100
AcDbPolyline
 90
        2
 70
     0
 39
0.003
 10
0.009571
 20
1.684626
 40
0.003
 41
0.003
 10
-0.004169
 20
1.674756
 40
0.003
 41
0.003
  0
LWPOLYLINE
  5
39E
100
AcDbEntity
  8
0
 62
   253
100
AcDbPolyline
 90
        2
 70
     0
 39
0.003
 10
-0.004169
 20
1.674756
 40
0.003
 41
0.003
 10
-0.006146
 20
0.925748
 40
0.003
 41
0.003
  0
LWPOLYLINE
  5
39F
100
AcDbEntity
  8
0
 62
   253
100
AcDbPolyline
 90
        2
 70
     0
 39
0.003
 10
-0.006146
 20
0.925748
 40
0.003
 41
0.003
 10
0.007594
 20
0.935618
 40
0.003
 41
0.003
  0
LWPOLYLINE
  5
3A0
100
AcDbEntity
  8
0
 62
   252
100
AcDbPolyline
 90
        2
 70
     0
 39
0.003
 10
-0.006146
 20
0.925748
 40
0.003
 41
0.003
 10
-0.004169
 20
1.674756
 40
0.003
 41
0.003
  0
LWPOLYLINE
  5
3A1
100
AcDbEntity
  8
0
 62
   252
100
AcDbPolyline
 90
        2
 70
     0
 39
0.003
 10
-0.004169
 20
1.674756
 40
0.003
 41
0.003
 10
-0.017067
 20
1.664012
 40
0.003
 41
0.003
  0
LWPOLYLINE
  5
3A2
100
AcDbEntity
  8
0
 62
   252
100
AcDbPolyline
 90
        2
 70
     0
 39
0.003
 10
-0.017067
 20
1.664012
 40
0.003
 41
0.003
 10
-0.019043
 20
0.915004
 40
0.003
 41
0.003
  0
LWPOLYLINE
  5
3A3
100
AcDbEntity
  8
0
 62
   252
100
AcDbPolyline
 90
        2
 70
     0
 39
0.003
 10
-0.019043
 20
0.915004
 40
0.003
 41
0.003
 10
-0.006146
 20
0.925748
 40
0.003
 41
0.003
  0
LWPOLYLINE
  5
3A4
100
AcDbEntity
  8
0
 62
   252
100
AcDbPolyline
 90
        2
 70
     0
 39
0.003
 10
-0.019043
 20
0.915004
 40
0.003
 41
0.003
 10
-0.017067
 20
1.664012
 40
0.003
 41
0.003
  0
LWPOLYLINE
  5
3A5
100
AcDbEntity
  8
0
 62
   252
100
AcDbPolyline
 90
        2
 70
     0
 39
0.003
 10
-0.017067
 20
1.664012
 40
0.003
 41
0.003
 10
-0.029035
 20
1.6525
 40
0.003
 41
0.003
  0
LWPOLYLINE
  5
3A6
100
AcDbEntity
  8
0
 62
   252
100
AcDbPolyline
 90
        2
 70
     0
 39
0.003
 10
-0.029035
 20
1.6525
 40
0.003
 41
0.003
 10
-0.031012
 20
0.903492
 40
0.003
 41
0.003
  0
LWPOLYLINE
  5
3A7
100
AcDbEntity
  8
0
 62
   252
100
AcDbPolyline
 90
        2
 70
     0
 39
0.003
 10
-0.031012
 20
0.903492
 40
0.003
 41
0.003
 10
-0.019043
 20
0.915004
 40
0.003
 41
0.003
  0
LWPOLYLINE
  5
3A8
100
AcDbEntity
  8
0
 62
     8
100
AcDbPolyline
 90
        2
 70
     0
 39
0.003
 10
-0.031012
 20
0.903492
 40
0.003
 41
0.003
 10
-0.029035
 20
1.6525
 40
0.003
 41
0.003
  0
LWPOLYLINE
  5
3A9
100
AcDbEntity
  8
0
 62
     8
100
AcDbPolyline
 90
        2
 70
     0
 39
0.003
 10
-0.029035
 20
1.6525
 40
0.003
 41
0.003
 10
-0.039976
 20
1.640291
 40
0.003
 41
0.003
  0
LWPOLYLINE
  5
3AA
100
AcDbEntity
  8
0
 62
     8
100
AcDbPolyline
 90
        2
 70
     0
 39
0.003
 10
-0.039976
 20
1.640291
 40
0.003
 41
0.003
 10
-0.041953
 20
0.891283
 40
0.003
 41
0.003
  0
LWPOLYLINE
  5
3AB
100
AcDbEntity
  8
0
 62
     8
100
AcDbPolyline
 90
        2
 70
     0
 39
0.003
 10
-0.041953
 20
0.891283
 40
0.003
 41
0.003
 10
-0.031012
 20
0.903492
 40
0.003
 41
0.003
  0
LWPOLYLINE
  5
3AC
100
AcDbEntity
  8
0
 62
   251
100
AcDbPolyline
 90
        2
 70
     0
 39
0.003
 10
-0.041953
 20
0.891283
 40
0.003
 41
0.003
 10
-0.039976
 20
1.640291
 40
0.003
 41
0.003
  0
LWPOLYLINE
  5
3AD
100
AcDbEntity
  8
0
 62
   251
100
AcDbPolyline
 90
        2
 70
     0
 39
0.003
 10
-0.039976
 20
1.640291
 40
0.003
 41
0.003
 10
-0.049803
 20
1.627476
 40
0.003
 41
0.003
  0
LWPOLYLINE
  5
3AE
100
AcDbEntity
  8
0
 62
   251
100
AcDbPolyline
 90
        2
 70
     0
 39
0.003
 10
-0.049803
 20
1.627476
 40
0.003
 41
0.003
 10
-0.05178
 20
0.878469
 40
0.003
 41
0.003
  0
LWPOLYLINE
  5
3AF
100
AcDbEntity
  8
0
 62
   251
100
AcDbPolyline
 90
        2
 70
     0
 39
0.003
 10
-0.05178
 20
0.878469
 40
0.003
 41
0.003
 10
-0.041953
 20
0.891283
 40
0.003
 41
0.003
  0
LWPOLYLINE
  5
3B0
100
AcDbEntity
  8
0
 62
   129
100
AcDbPolyline
 90
        2
 70
     0
 39
0.003
 10
-0.05178
 20
0.878469
 40
0.003
 41
0.003
 10
-0.049803
 20
1.627476
 40
0.003
 41
0.003
  0
LWPOLYLINE
  5
3B1
100
AcDbEntity
  8
0
 62
   129
100
AcDbPolyline
 90
        2
 70
     0
 39
0.003
 10
-0.049803
 20
1.627476
 40
0.003
 41
0.003
 10
-0.058406
 20
1.614126
 40
0.003
 41
0.003
  0
LWPOLYLINE
  5
3B2
100
AcDbEntity
  8
0
 62
   129
100
AcDbPolyline
 90
        2
 70
     0
 39
0.003
 10
-0.058406
 20
1.614126
 40
0.003
 41
0.003
 10
-0.060382
 20
0.865118
 40
0.003
 41
0.003
  0
LWPOLYLINE
  5
3B3
100
AcDbEntity
  8
0
 62
   129
100
AcDbPolyline
 90
        2
 70
     0
 39
0.003
 10
-0.060382
 20
0.865118
 40
0.003
 41
0.003
 10
-0.05178
 20
0.878469
 40
0.003
 41
0.003
  0
LWPOLYLINE
  5
3B4
100
AcDbEntity
  8
0
 62
     0
100
AcDbPolyline
 90
        2
 70
     0
 39
0.003
 10
-0.060382
 20
0.865118
 40
0.003
 41
0.003
 10
-0.058406
 20
1.614126
 40
0.003
 41
0.003
  0
LWPOLYLINE
  5
3B5
100
AcDbEntity
  8
0
 62
     0
100
AcDbPolyline
 90
        2
 70
     0
 39
0.003
 10
-0.058406
 20
1.614126
 40
0.003
 41
0.003
 10
-0.065705
 20
1.600335
 40
0.003
 41
0.003
  0
LWPOLYLINE
  5
3B6
100
AcDbEntity
  8
0
 62
     0
100
AcDbPolyline
 90
        2
 70
     0
 39
0.003
 10
-0.065705
 20
1.600335
 40
0.003
 41
0.003
 10
-0.067681
 20
0.851327
 40
0.003
 41
0.003
  0
LWPOLYLINE
  5
3B7
100
AcDbEntity
  8
0
 62
     0
100
AcDbPolyline
 90
        2
 70
     0
 39
0.003
 10
-0.067681
 20
0.851327
 40
0.003
 41
0.003
 10
-0.060382
 20
0.865118
 40
0.003
 41
0.003
  0
LWPOLYLINE
  5
3B8
100
AcDbEntity
  8
0
 62
     0
100
AcDbPolyline
 90
        2
 70
     0
 39
0.003
 10
-0.067681
 20
0.851327
 40
0.003
 41
0.003
 10
-0.065705
 20
1.600335
 40
0.003
 41
0.003
  0
LWPOLYLINE
  5
3B9
100
AcDbEntity
  8
0
 62
     0
100
AcDbPolyline
 90
        2
 70
     0
 39
0.003
 10
-0.065705
 20
1.600335
 40
0.003
 41
0.003
 10
-0.071591
 20
1.586173
 40
0.003
 41
0.003
  0
LWPOLYLINE
  5
3BA
100
AcDbEntity
  8
0
 62
     0
100
AcDbPolyline
 90
        2
 70
     0
 39
0.003
 10
-0.071591
 20
1.586173
 40
0.003
 41
0.003
 10
-0.073567
 20
0.837165
 40
0.003
 41
0.003
  0
LWPOLYLINE
  5
3BB
100
AcDbEntity
  8
0
 62
     0
100
AcDbPolyline
 90
        2
 70
     0
 39
0.003
 10
-0.073567
 20
0.837165
 40
0.003
 41
0.003
 10
-0.067681
 20
0.851327
 40
0.003
 41
0.003
  0
LWPOLYLINE
  5
3BC
100
AcDbEntity
  8
0
 62
     0
100
AcDbPolyline
 90
        2
 70
     0
 39
0.003
 10
-0.073567
 20
0.837165
 40
0.003
 41
0.003
 10
-0.071591
 20
1.586173
 40
0.003
 41
0.003
  0
LWPOLYLINE
  5
3BD
100
AcDbEntity
  8
0
 62
     0
100
AcDbPolyline
 90
        2
 70
     0
 39
0.003
 10
-0.071591
 20
1.586173
 40
0.003
 41
0.003
 10
-0.075984
 20
1.571736
 40
0.003
 41
0.003
  0
LWPOLYLINE
  5
3BE
100
AcDbEntity
  8
0
 62
     0
100
AcDbPolyline
 90
        2
 70
     0
 39
0.003
 10
-0.075984
 20
1.571736
 40
0.003
 41
0.003
 10
-0.077961
 20
0.822728
 40
0.003
 41
0.003
  0
LWPOLYLINE
  5
3BF
100
AcDbEntity
  8
0
 62
     0
100
AcDbPolyline
 90
        2
 70
     0
 39
0.003
 10
-0.077961
 20
0.822728
 40
0.003
 41
0.003
 10
-0.073567
 20
0.837165
 40
0.003
 41
0.003
  0
LWPOLYLINE
  5
3C0
100
AcDbEntity
  8
0
 62
     0
100
AcDbPolyline
 90
        2
 70
     0
 39
0.003
 10
0.335713
 20
0.736051
 40
0.003
 41
0.003
 10
0.337689
 20
1.485059
 40
0.003
 41
0.003
  0
LWPOLYLINE
  5
3C1
100
AcDbEntity
  8
0
 62
     0
100
AcDbPolyline
 90
        2
 70
     0
 39
0.003
 10
0.337689
 20
1.485059
 40
0.003
 41
0.003
 10
0.330945
 20
1.517697
 40
0.003
 41
0.003
  0
LWPOLYLINE
  5
3C2
100
AcDbEntity
  8
0
 62
     0
100
AcDbPolyline
 90
        2
 70
     0
 39
0.003
 10
0.330945
 20
1.517697
 40
0.003
 41
0.003
 10
0.322858
 20
1.547583
 40
0.003
 41
0.003
  0
LWPOLYLINE
  5
3C3
100
AcDbEntity
  8
0
 62
     0
100
AcDbPolyline
 90
        2
 70
     0
 39
0.003
 10
0.322858
 20
1.547583
 40
0.003
 41
0.003
 10
0.313508
 20
1.574791
 40
0.003
 41
0.003
  0
LWPOLYLINE
  5
3C4
100
AcDbEntity
  8
0
 62
     0
100
AcDbPolyline
 90
        2
 70
     0
 39
0.003
 10
0.313508
 20
1.574791
 40
0.003
 41
0.003
 10
0.303012
 20
1.599417
 40
0.003
 41
0.003
  0
LWPOLYLINE
  5
3C5
100
AcDbEntity
  8
0
 62
     0
100
AcDbPolyline
 90
        2
 70
     0
 39
0.003
 10
0.303012
 20
1.599417
 40
0.003
 41
0.003
 10
0.291441
 20
1.621528
 40
0.003
 41
0.003
  0
LWPOLYLINE
  5
3C6
100
AcDbEntity
  8
0
 62
     0
100
AcDbPolyline
 90
        2
 70
     0
 39
0.003
 10
0.291441
 20
1.621528
 40
0.003
 41
0.003
 10
0.278906
 20
1.641217
 40
0.003
 41
0.003
  0
LWPOLYLINE
  5
3C7
100
AcDbEntity
  8
0
 62
     0
100
AcDbPolyline
 90
        2
 70
     0
 39
0.003
 10
0.278906
 20
1.641217
 40
0.003
 41
0.003
 10
0.265492
 20
1.658555
 40
0.003
 41
0.003
  0
LWPOLYLINE
  5
3C8
100
AcDbEntity
  8
0
 62
     0
100
AcDbPolyline
 90
        2
 70
     0
 39
0.003
 10
0.265492
 20
1.658555
 40
0.003
 41
0.003
 10
0.251311
 20
1.673642
 40
0.003
 41
0.003
  0
LWPOLYLINE
  5
3C9
100
AcDbEntity
  8
0
 62
     0
100
AcDbPolyline
 90
        2
 70
     0
 39
0.003
 10
0.251311
 20
1.673642
 40
0.003
 41
0.003
 10
0.236433
 20
1.686539
 40
0.003
 41
0.003
  0
LWPOLYLINE
  5
3CA
100
AcDbEntity
  8
0
 62
     0
100
AcDbPolyline
 90
        2
 70
     0
 39
0.003
 10
0.236433
 20
1.686539
 40
0.003
 41
0.003
 10
0.220972
 20
1.69735
 40
0.003
 41
0.003
  0
LWPOLYLINE
  5
3CB
100
AcDbEntity
  8
0
 62
     0
100
AcDbPolyline
 90
        2
 70
     0
 39
0.003
 10
0.220972
 20
1.69735
 40
0.003
 41
0.003
 10
0.205016
 20
1.706142
 40
0.003
 41
0.003
  0
LWPOLYLINE
  5
3CC
100
AcDbEntity
  8
0
 62
     0
100
AcDbPolyline
 90
        2
 70
     0
 39
0.003
 10
0.205016
 20
1.706142
 40
0.003
 41
0.003
 10
0.188661
 20
1.713008
 40
0.003
 41
0.003
  0
LWPOLYLINE
  5
3CD
100
AcDbEntity
  8
0
 62
     0
100
AcDbPolyline
 90
        2
 70
     0
 39
0.003
 10
0.188661
 20
1.713008
 40
0.003
 41
0.003
 10
0.172
 20
1.718016
 40
0.003
 41
0.003
  0
LWPOLYLINE
  5
3CE
100
AcDbEntity
  8
0
 62
     0
100
AcDbPolyline
 90
        2
 70
     0
 39
0.003
 10
0.172
 20
1.718016
 40
0.003
 41
0.003
 10
0.15513
 20
1.721268
 40
0.003
 41
0.003
  0
LWPOLYLINE
  5
3CF
100
AcDbEntity
  8
0
 62
     0
100
AcDbPolyline
 90
        2
 70
     0
 39
0.003
 10
0.15513
 20
1.721268
 40
0.003
 41
0.003
 10
0.138146
 20
1.722835
 40
0.003
 41
0.003
  0
LWPOLYLINE
  5
3D0
100
AcDbEntity
  8
0
 62
     0
100
AcDbPolyline
 90
        2
 70
     0
 39
0.003
 10
0.138146
 20
1.722835
 40
0.003
 41
0.003
 10
0.121146
 20
1.722803
 40
0.003
 41
0.003
  0
LWPOLYLINE
  5
3D1
100
AcDbEntity
  8
0
 62
     0
100
AcDbPolyline
 90
        2
 70
     0
 39
0.003
 10
0.121146
 20
1.722803
 40
0.003
 41
0.003
 10
0.104213
 20
1.72124
 40
0.003
 41
0.003
  0
LWPOLYLINE
  5
3D2
100
AcDbEntity
  8
0
 62
     0
100
AcDbPolyline
 90
        2
 70
     0
 39
0.003
 10
0.104213
 20
1.72124
 40
0.003
 41
0.003
 10
0.087457
 20
1.718248
 40
0.003
 41
0.003
  0
LWPOLYLINE
  5
3D3
100
AcDbEntity
  8
0
 62
     0
100
AcDbPolyline
 90
        2
 70
     0
 39
0.003
 10
0.087457
 20
1.718248
 40
0.003
 41
0.003
 10
0.070965
 20
1.713902
 40
0.003
 41
0.003
  0
LWPOLYLINE
  5
3D4
100
AcDbEntity
  8
0
 62
     0
100
AcDbPolyline
 90
        2
 70
     0
 39
0.003
 10
0.070965
 20
1.713902
 40
0.003
 41
0.003
 10
0.054839
 20
1.708287
 40
0.003
 41
0.003
  0
LWPOLYLINE
  5
3D5
100
AcDbEntity
  8
0
 62
     0
100
AcDbPolyline
 90
        2
 70
     0
 39
0.003
 10
0.054839
 20
1.708287
 40
0.003
 41
0.003
 10
0.039169
 20
1.701476
 40
0.003
 41
0.003
  0
LWPOLYLINE
  5
3D6
100
AcDbEntity
  8
0
 62
     0
100
AcDbPolyline
 90
        2
 70
     0
 39
0.003
 10
0.039169
 20
1.701476
 40
0.003
 41
0.003
 10
0.024047
 20
1.693567
 40
0.003
 41
0.003
  0
LWPOLYLINE
  5
3D7
100
AcDbEntity
  8
0
 62
     0
100
AcDbPolyline
 90
        2
 70
     0
 39
0.003
 10
0.024047
 20
1.693567
 40
0.003
 41
0.003
 10
0.009571
 20
1.684626
 40
0.003
 41
0.003
  0
LWPOLYLINE
  5
3D8
100
AcDbEntity
  8
0
 62
     0
100
AcDbPolyline
 90
        2
 70
     0
 39
0.003
 10
0.009571
 20
1.684626
 40
0.003
 41
0.003
 10
-0.004169
 20
1.674756
 40
0.003
 41
0.003
  0
LWPOLYLINE
  5
3D9
100
AcDbEntity
  8
0
 62
     0
100
AcDbPolyline
 90
        2
 70
     0
 39
0.003
 10
-0.004169
 20
1.674756
 40
0.003
 41
0.003
 10
-0.017067
 20
1.664012
 40
0.003
 41
0.003
  0
LWPOLYLINE
  5
3DA
100
AcDbEntity
  8
0
 62
     0
100
AcDbPolyline
 90
        2
 70
     0
 39
0.003
 10
-0.017067
 20
1.664012
 40
0.003
 41
0.003
 10
-0.029035
 20
1.6525
 40
0.003
 41
0.003
  0
LWPOLYLINE
  5
3DB
100
AcDbEntity
  8
0
 62
     0
100
AcDbPolyline
 90
        2
 70
     0
 39
0.003
 10
-0.029035
 20
1.6525
 40
0.003
 41
0.003
 10
-0.039976
 20
1.640291
 40
0.003
 41
0.003
  0
LWPOLYLINE
  5
3DC
100
AcDbEntity
  8
0
 62
     0
100
AcDbPolyline
 90
        2
 70
     0
 39
0.003
 10
-0.039976
 20
1.640291
 40
0.003
 41
0.003
 10
-0.049803
 20
1.627476
 40
0.003
 41
0.003
  0
LWPOLYLINE
  5
3DD
100
AcDbEntity
  8
0
 62
     0
100
AcDbPolyline
 90
        2
 70
     0
 39
0.003
 10
-0.049803
 20
1.627476
 40
0.003
 41
0.003
 10
-0.058406
 20
1.614126
 40
0.003
 41
0.003
  0
LWPOLYLINE
  5
3DE
100
AcDbEntity
  8
0
 62
     0
100
AcDbPolyline
 90
        2
 70
     0
 39
0.003
 10
-0.058406
 20
1.614126
 40
0.003
 41
0.003
 10
-0.065705
 20
1.600335
 40
0.003
 41
0.003
  0
LWPOLYLINE
  5
3DF
100
AcDbEntity
  8
0
 62
     0
100
AcDbPolyline
 90
        2
 70
     0
 39
0.003
 10
-0.065705
 20
1.600335
 40
0.003
 41
0.003
 10
-0.071591
 20
1.586173
 40
0.003
 41
0.003
  0
LWPOLYLINE
  5
3E0
100
AcDbEntity
  8
0
 62
     0
100
AcDbPolyline
 90
        2
 70
     0
 39
0.003
 10
-0.071591
 20
1.586173
 40
0.003
 41
0.003
 10
-0.075984
 20
1.571736
 40
0.003
 41
0.003
  0
LWPOLYLINE
  5
3E1
100
AcDbEntity
  8
0
 62
     0
100
AcDbPolyline
 90
        2
 70
     0
 39
0.003
 10
-0.075984
 20
1.571736
 40
0.003
 41
0.003
 10
-0.077961
 20
0.822728
 40
0.003
 41
0.003
  0
LWPOLYLINE
  5
3E2
100
AcDbEntity
  8
0
 62
     0
100
AcDbPolyline
 90
        2
 70
     0
 39
0.003
 10
-0.077961
 20
0.822728
 40
0.003
 41
0.003
 10
-0.073567
 20
0.837165
 40
0.003
 41
0.003
  0
LWPOLYLINE
  5
3E3
100
AcDbEntity
  8
0
 62
     0
100
AcDbPolyline
 90
        2
 70
     0
 39
0.003
 10
-0.073567
 20
0.837165
 40
0.003
 41
0.003
 10
-0.067681
 20
0.851327
 40
0.003
 41
0.003
  0
LWPOLYLINE
  5
3E4
100
AcDbEntity
  8
0
 62
     0
100
AcDbPolyline
 90
        2
 70
     0
 39
0.003
 10
-0.067681
 20
0.851327
 40
0.003
 41
0.003
 10
-0.060382
 20
0.865118
 40
0.003
 41
0.003
  0
LWPOLYLINE
  5
3E5
100
AcDbEntity
  8
0
 62
     0
100
AcDbPolyline
 90
        2
 70
     0
 39
0.003
 10
-0.060382
 20
0.865118
 40
0.003
 41
0.003
 10
-0.05178
 20
0.878469
 40
0.003
 41
0.003
  0
LWPOLYLINE
  5
3E6
100
AcDbEntity
  8
0
 62
     0
100
AcDbPolyline
 90
        2
 70
     0
 39
0.003
 10
-0.05178
 20
0.878469
 40
0.003
 41
0.003
 10
-0.041953
 20
0.891283
 40
0.003
 41
0.003
  0
LWPOLYLINE
  5
3E7
100
AcDbEntity
  8
0
 62
     0
100
AcDbPolyline
 90
        2
 70
     0
 39
0.003
 10
-0.041953
 20
0.891283
 40
0.003
 41
0.003
 10
-0.031012
 20
0.903492
 40
0.003
 41
0.003
  0
LWPOLYLINE
  5
3E8
100
AcDbEntity
  8
0
 62
     0
100
AcDbPolyline
 90
        2
 70
     0
 39
0.003
 10
-0.031012
 20
0.903492
 40
0.003
 41
0.003
 10
-0.019043
 20
0.915004
 40
0.003
 41
0.003
  0
LWPOLYLINE
  5
3E9
100
AcDbEntity
  8
0
 62
     0
100
AcDbPolyline
 90
        2
 70
     0
 39
0.003
 10
-0.019043
 20
0.915004
 40
0.003
 41
0.003
 10
-0.006146
 20
0.925748
 40
0.003
 41
0.003
  0
LWPOLYLINE
  5
3EA
100
AcDbEntity
  8
0
 62
     0
100
AcDbPolyline
 90
        2
 70
     0
 39
0.003
 10
-0.006146
 20
0.925748
 40
0.003
 41
0.003
 10
0.007594
 20
0.935618
 40
0.003
 41
0.003
  0
LWPOLYLINE
  5
3EB
100
AcDbEntity
  8
0
 62
     0
100
AcDbPolyline
 90
        2
 70
     0
 39
0.003
 10
0.007594
 20
0.935618
 40
0.003
 41
0.003
 10
0.022071
 20
0.944559
 40
0.003
 41
0.003
  0
LWPOLYLINE
  5
3EC
100
AcDbEntity
  8
0
 62
     0
100
AcDbPolyline
 90
        2
 70
     0
 39
0.003
 10
0.022071
 20
0.944559
 40
0.003
 41
0.003
 10
0.037193
 20
0.952469
 40
0.003
 41
0.003
  0
LWPOLYLINE
  5
3ED
100
AcDbEntity
  8
0
 62
     0
100
AcDbPolyline
 90
        2
 70
     0
 39
0.003
 10
0.037193
 20
0.952469
 40
0.003
 41
0.003
 10
0.052862
 20
0.95928
 40
0.003
 41
0.003
  0
LWPOLYLINE
  5
3EE
100
AcDbEntity
  8
0
 62
     0
100
AcDbPolyline
 90
        2
 70
     0
 39
0.003
 10
0.052862
 20
0.95928
 40
0.003
 41
0.003
 10
0.068988
 20
0.964894
 40
0.003
 41
0.003
  0
LWPOLYLINE
  5
3EF
100
AcDbEntity
  8
0
 62
     0
100
AcDbPolyline
 90
        2
 70
     0
 39
0.003
 10
0.068988
 20
0.964894
 40
0.003
 41
0.003
 10
0.08548
 20
0.96924
 40
0.003
 41
0.003
  0
LWPOLYLINE
  5
3F0
100
AcDbEntity
  8
0
 62
     0
100
AcDbPolyline
 90
        2
 70
     0
 39
0.003
 10
0.08548
 20
0.96924
 40
0.003
 41
0.003
 10
0.102236
 20
0.972232
 40
0.003
 41
0.003
  0
LWPOLYLINE
  5
3F1
100
AcDbEntity
  8
0
 62
     0
100
AcDbPolyline
 90
        2
 70
     0
 39
0.003
 10
0.102236
 20
0.972232
 40
0.003
 41
0.003
 10
0.119169
 20
0.973795
 40
0.003
 41
0.003
  0
LWPOLYLINE
  5
3F2
100
AcDbEntity
  8
0
 62
     0
100
AcDbPolyline
 90
        2
 70
     0
 39
0.003
 10
0.119169
 20
0.973795
 40
0.003
 41
0.003
 10
0.136169
 20
0.973827
 40
0.003
 41
0.003
  0
LWPOLYLINE
  5
3F3
100
AcDbEntity
  8
0
 62
     0
100
AcDbPolyline
 90
        2
 70
     0
 39
0.003
 10
0.136169
 20
0.973827
 40
0.003
 41
0.003
 10
0.153154
 20
0.97226
 40
0.003
 41
0.003
  0
LWPOLYLINE
  5
3F4
100
AcDbEntity
  8
0
 62
     0
100
AcDbPolyline
 90
        2
 70
     0
 39
0.003
 10
0.153154
 20
0.97226
 40
0.003
 41
0.003
 10
0.170024
 20
0.969008
 40
0.003
 41
0.003
  0
LWPOLYLINE
  5
3F5
100
AcDbEntity
  8
0
 62
     0
100
AcDbPolyline
 90
        2
 70
     0
 39
0.003
 10
0.170024
 20
0.969008
 40
0.003
 41
0.003
 10
0.186685
 20
0.964
 40
0.003
 41
0.003
  0
LWPOLYLINE
  5
3F6
100
AcDbEntity
  8
0
 62
     0
100
AcDbPolyline
 90
        2
 70
     0
 39
0.003
 10
0.186685
 20
0.964
 40
0.003
 41
0.003
 10
0.203039
 20
0.957134
 40
0.003
 41
0.003
  0
LWPOLYLINE
  5
3F7
100
AcDbEntity
  8
0
 62
     0
100
AcDbPolyline
 90
        2
 70
     0
 39
0.003
 10
0.203039
 20
0.957134
 40
0.003
 41
0.003
 10
0.218996
 20
0.948343
 40
0.003
 41
0.003
  0
LWPOLYLINE
  5
3F8
100
AcDbEntity
  8
0
 62
     0
100
AcDbPolyline
 90
        2
 70
     0
 39
0.003
 10
0.218996
 20
0.948343
 40
0.003
 41
0.003
 10
0.234457
 20
0.937531
 40
0.003
 41
0.003
  0
LWPOLYLINE
  5
3F9
100
AcDbEntity
  8
0
 62
     0
100
AcDbPolyline
 90
        2
 70
     0
 39
0.003
 10
0.234457
 20
0.937531
 40
0.003
 41
0.003
 10
0.249335
 20
0.924634
 40
0.003
 41
0.003
  0
LWPOLYLINE
  5
3FA
100
AcDbEntity
  8
0
 62
     0
100
AcDbPolyline
 90
        2
 70
     0
 39
0.003
 10
0.249335
 20
0.924634
 40
0.003
 41
0.003
 10
0.263516
 20
0.909547
 40
0.003
 41
0.003
  0
LWPOLYLINE
  5
3FB
100
AcDbEntity
  8
0
 62
     0
100
AcDbPolyline
 90
        2
 70
     0
 39
0.003
 10
0.263516
 20
0.909547
 40
0.003
 41
0.003
 10
0.276929
 20
0.892209
 40
0.003
 41
0.003
  0
LWPOLYLINE
  5
3FC
100
AcDbEntity
  8
0
 62
     0
100
AcDbPolyline
 90
        2
 70
     0
 39
0.003
 10
0.276929
 20
0.892209
 40
0.003
 41
0.003
 10
0.289465
 20
0.87252
 40
0.003
 41
0.003
  0
LWPOLYLINE
  5
3FD
100
AcDbEntity
  8
0
 62
     0
100
AcDbPolyline
 90
        2
 70
     0
 39
0.003
 10
0.289465
 20
0.87252
 40
0.003
 41
0.003
 10
0.301035
 20
0.850409
 40
0.003
 41
0.003
  0
LWPOLYLINE
  5
3FE
100
AcDbEntity
  8
0
 62
     0
100
AcDbPolyline
 90
        2
 70
     0
 39
0.003
 10
0.301035
 20
0.850409
 40
0.003
 41
0.003
 10
0.311531
 20
0.825783
 40
0.003
 41
0.003
  0
LWPOLYLINE
  5
3FF
100
AcDbEntity
  8
0
 62
     0
100
AcDbPolyline
 90
        2
 70
     0
 39
0.003
 10
0.311531
 20
0.825783
 40
0.003
 41
0.003
 10
0.320882
 20
0.798575
 40
0.003
 41
0.003
  0
LWPOLYLINE
  5
400
100
AcDbEntity
  8
0
 62
     0
100
AcDbPolyline
 90
        2
 70
     0
 39
0.003
 10
0.320882
 20
0.798575
 40
0.003
 41
0.003
 10
0.328969
 20
0.768689
 40
0.003
 41
0.003
  0
LWPOLYLINE
  5
401
100
AcDbEntity
  8
0
 62
     0
100
AcDbPolyline
 90
        2
 70
     0
 39
0.003
 10
0.328969
 20
0.768689
 40
0.003
 41
0.003
 10
0.335713
 20
0.736051
 40
0.003
 41
0.003
  0
LWPOLYLINE
  5
402
100
AcDbEntity
  8
0
 62
     9
100
AcDbPolyline
 90
        2
 70
     0
 39
0.003
 10
-0.077961
 20
0.822728
 40
0.003
 41
0.003
 10
-0.075984
 20
1.571736
 40
0.003
 41
0.003
  0
LWPOLYLINE
  5
403
100
AcDbEntity
  8
0
 62
     9
100
AcDbPolyline
 90
        2
 70
     0
 39
0.003
 10
-0.075984
 20
1.571736
 40
0.003
 41
0.003
 10
-0.194906
 20
1.583453
 40
0.003
 41
0.003
  0
LWPOLYLINE
  5
404
100
AcDbEntity
  8
0
 62
     9
100
AcDbPolyline
 90
        2
 70
     0
 39
0.003
 10
-0.194906
 20
1.583453
 40
0.003
 41
0.003
 10
-0.196882
 20
0.834445
 40
0.003
 41
0.003
  0
LWPOLYLINE
  5
405
100
AcDbEntity
  8
0
 62
     9
100
AcDbPolyline
 90
        2
 70
     0
 39
0.003
 10
-0.196882
 20
0.834445
 40
0.003
 41
0.003
 10
-0.077961
 20
0.822728
 40
0.003
 41
0.003
  0
LWPOLYLINE
  5
406
100
AcDbEntity
  8
0
 62
     0
100
AcDbPolyline
 90
        2
 70
     0
 39
0.003
 10
-0.077961
 20
0.822728
 40
0.003
 41
0.003
 10
-0.075984
 20
1.571736
 40
0.003
 41
0.003
  0
LWPOLYLINE
  5
407
100
AcDbEntity
  8
0
 62
     0
100
AcDbPolyline
 90
        2
 70
     0
 39
0.003
 10
-0.075984
 20
1.571736
 40
0.003
 41
0.003
 10
-0.194906
 20
1.583453
 40
0.003
 41
0.003
  0
LWPOLYLINE
  5
408
100
AcDbEntity
  8
0
 62
     0
100
AcDbPolyline
 90
        2
 70
     0
 39
0.003
 10
-0.194906
 20
1.583453
 40
0.003
 41
0.003
 10
-0.196882
 20
0.834445
 40
0.003
 41
0.003
  0
LWPOLYLINE
  5
409
100
AcDbEntity
  8
0
 62
     0
100
AcDbPolyline
 90
        2
 70
     0
 39
0.003
 10
-0.196882
 20
0.834445
 40
0.003
 41
0.003
 10
-0.077961
 20
0.822728
 40
0.003
 41
0.003
  0
LWPOLYLINE
  5
40A
100
AcDbEntity
  8
0
 62
     0
100
AcDbPolyline
 90
        2
 70
     0
 39
0.003
 10
-0.196882
 20
0.834445
 40
0.003
 41
0.003
 10
-0.194906
 20
1.583453
 40
0.003
 41
0.003
  0
LWPOLYLINE
  5
40B
100
AcDbEntity
  8
0
 62
     0
100
AcDbPolyline
 90
        2
 70
     0
 39
0.003
 10
-0.194906
 20
1.583453
 40
0.003
 41
0.003
 10
-0.215453
 20
1.546764
 40
0.003
 41
0.003
  0
LWPOLYLINE
  5
40C
100
AcDbEntity
  8
0
 62
     0
100
AcDbPolyline
 90
        2
 70
     0
 39
0.003
 10
-0.215453
 20
1.546764
 40
0.003
 41
0.003
 10
-0.217429
 20
0.797756
 40
0.003
 41
0.003
  0
LWPOLYLINE
  5
40D
100
AcDbEntity
  8
0
 62
     0
100
AcDbPolyline
 90
        2
 70
     0
 39
0.003
 10
-0.217429
 20
0.797756
 40
0.003
 41
0.003
 10
-0.196882
 20
0.834445
 40
0.003
 41
0.003
  0
LWPOLYLINE
  5
40E
100
AcDbEntity
  8
0
 62
   129
100
AcDbPolyline
 90
        2
 70
     0
 39
0.003
 10
-0.217429
 20
0.797756
 40
0.003
 41
0.003
 10
-0.215453
 20
1.546764
 40
0.003
 41
0.003
  0
LWPOLYLINE
  5
40F
100
AcDbEntity
  8
0
 62
   129
100
AcDbPolyline
 90
        2
 70
     0
 39
0.003
 10
-0.215453
 20
1.546764
 40
0.003
 41
0.003
 10
-0.2365
 20
1.514579
 40
0.003
 41
0.003
  0
LWPOLYLINE
  5
410
100
AcDbEntity
  8
0
 62
   129
100
AcDbPolyline
 90
        2
 70
     0
 39
0.003
 10
-0.2365
 20
1.514579
 40
0.003
 41
0.003
 10
-0.238476
 20
0.765571
 40
0.003
 41
0.003
  0
LWPOLYLINE
  5
411
100
AcDbEntity
  8
0
 62
   129
100
AcDbPolyline
 90
        2
 70
     0
 39
0.003
 10
-0.238476
 20
0.765571
 40
0.003
 41
0.003
 10
-0.217429
 20
0.797756
 40
0.003
 41
0.003
  0
LWPOLYLINE
  5
412
100
AcDbEntity
  8
0
 62
   251
100
AcDbPolyline
 90
        2
 70
     0
 39
0.003
 10
-0.238476
 20
0.765571
 40
0.003
 41
0.003
 10
-0.2365
 20
1.514579
 40
0.003
 41
0.003
  0
LWPOLYLINE
  5
413
100
AcDbEntity
  8
0
 62
   251
100
AcDbPolyline
 90
        2
 70
     0
 39
0.003
 10
-0.2365
 20
1.514579
 40
0.003
 41
0.003
 10
-0.257965
 20
1.486724
 40
0.003
 41
0.003
  0
LWPOLYLINE
  5
414
100
AcDbEntity
  8
0
 62
   251
100
AcDbPolyline
 90
        2
 70
     0
 39
0.003
 10
-0.257965
 20
1.486724
 40
0.003
 41
0.003
 10
-0.259941
 20
0.737717
 40
0.003
 41
0.003
  0
LWPOLYLINE
  5
415
100
AcDbEntity
  8
0
 62
   251
100
AcDbPolyline
 90
        2
 70
     0
 39
0.003
 10
-0.259941
 20
0.737717
 40
0.003
 41
0.003
 10
-0.238476
 20
0.765571
 40
0.003
 41
0.003
  0
LWPOLYLINE
  5
416
100
AcDbEntity
  8
0
 62
     8
100
AcDbPolyline
 90
        2
 70
     0
 39
0.003
 10
-0.259941
 20
0.737717
 40
0.003
 41
0.003
 10
-0.257965
 20
1.486724
 40
0.003
 41
0.003
  0
LWPOLYLINE
  5
417
100
AcDbEntity
  8
0
 62
     8
100
AcDbPolyline
 90
        2
 70
     0
 39
0.003
 10
-0.257965
 20
1.486724
 40
0.003
 41
0.003
 10
-0.279791
 20
1.463035
 40
0.003
 41
0.003
  0
LWPOLYLINE
  5
418
100
AcDbEntity
  8
0
 62
     8
100
AcDbPolyline
 90
        2
 70
     0
 39
0.003
 10
-0.279791
 20
1.463035
 40
0.003
 41
0.003
 10
-0.281768
 20
0.714028
 40
0.003
 41
0.003
  0
LWPOLYLINE
  5
419
100
AcDbEntity
  8
0
 62
     8
100
AcDbPolyline
 90
        2
 70
     0
 39
0.003
 10
-0.281768
 20
0.714028
 40
0.003
 41
0.003
 10
-0.259941
 20
0.737717
 40
0.003
 41
0.003
  0
LWPOLYLINE
  5
41A
100
AcDbEntity
  8
0
 62
   252
100
AcDbPolyline
 90
        2
 70
     0
 39
0.003
 10
-0.281768
 20
0.714028
 40
0.003
 41
0.003
 10
-0.279791
 20
1.463035
 40
0.003
 41
0.003
  0
LWPOLYLINE
  5
41B
100
AcDbEntity
  8
0
 62
   252
100
AcDbPolyline
 90
        2
 70
     0
 39
0.003
 10
-0.279791
 20
1.463035
 40
0.003
 41
0.003
 10
-0.301898
 20
1.443335
 40
0.003
 41
0.003
  0
LWPOLYLINE
  5
41C
100
AcDbEntity
  8
0
 62
   252
100
AcDbPolyline
 90
        2
 70
     0
 39
0.003
 10
-0.301898
 20
1.443335
 40
0.003
 41
0.003
 10
-0.303874
 20
0.694327
 40
0.003
 41
0.003
  0
LWPOLYLINE
  5
41D
100
AcDbEntity
  8
0
 62
   252
100
AcDbPolyline
 90
        2
 70
     0
 39
0.003
 10
-0.303874
 20
0.694327
 40
0.003
 41
0.003
 10
-0.281768
 20
0.714028
 40
0.003
 41
0.003
  0
LWPOLYLINE
  5
41E
100
AcDbEntity
  8
0
 62
   253
100
AcDbPolyline
 90
        2
 70
     0
 39
0.003
 10
-0.303874
 20
0.694327
 40
0.003
 41
0.003
 10
-0.301898
 20
1.443335
 40
0.003
 41
0.003
  0
LWPOLYLINE
  5
41F
100
AcDbEntity
  8
0
 62
   253
100
AcDbPolyline
 90
        2
 70
     0
 39
0.003
 10
-0.301898
 20
1.443335
 40
0.003
 41
0.003
 10
-0.32422
 20
1.427469
 40
0.003
 41
0.003
  0
LWPOLYLINE
  5
420
100
AcDbEntity
  8
0
 62
   253
100
AcDbPolyline
 90
        2
 70
     0
 39
0.003
 10
-0.32422
 20
1.427469
 40
0.003
 41
0.003
 10
-0.326197
 20
0.678461
 40
0.003
 41
0.003
  0
LWPOLYLINE
  5
421
100
AcDbEntity
  8
0
 62
   253
100
AcDbPolyline
 90
        2
 70
     0
 39
0.003
 10
-0.326197
 20
0.678461
 40
0.003
 41
0.003
 10
-0.303874
 20
0.694327
 40
0.003
 41
0.003
  0
LWPOLYLINE
  5
422
100
AcDbEntity
  8
0
 62
   253
100
AcDbPolyline
 90
        2
 70
     0
 39
0.003
 10
-0.326197
 20
0.678461
 40
0.003
 41
0.003
 10
-0.32422
 20
1.427469
 40
0.003
 41
0.003
  0
LWPOLYLINE
  5
423
100
AcDbEntity
  8
0
 62
   253
100
AcDbPolyline
 90
        2
 70
     0
 39
0.003
 10
-0.32422
 20
1.427469
 40
0.003
 41
0.003
 10
-0.346693
 20
1.415256
 40
0.003
 41
0.003
  0
LWPOLYLINE
  5
424
100
AcDbEntity
  8
0
 62
   253
100
AcDbPolyline
 90
        2
 70
     0
 39
0.003
 10
-0.346693
 20
1.415256
 40
0.003
 41
0.003
 10
-0.348669
 20
0.666248
 40
0.003
 41
0.003
  0
LWPOLYLINE
  5
425
100
AcDbEntity
  8
0
 62
   253
100
AcDbPolyline
 90
        2
 70
     0
 39
0.003
 10
-0.348669
 20
0.666248
 40
0.003
 41
0.003
 10
-0.326197
 20
0.678461
 40
0.003
 41
0.003
  0
LWPOLYLINE
  5
426
100
AcDbEntity
  8
0
 62
   253
100
AcDbPolyline
 90
        2
 70
     0
 39
0.003
 10
-0.348669
 20
0.666248
 40
0.003
 41
0.003
 10
-0.346693
 20
1.415256
 40
0.003
 41
0.003
  0
LWPOLYLINE
  5
427
100
AcDbEntity
  8
0
 62
   253
100
AcDbPolyline
 90
        2
 70
     0
 39
0.003
 10
-0.346693
 20
1.415256
 40
0.003
 41
0.003
 10
-0.369248
 20
1.406543
 40
0.003
 41
0.003
  0
LWPOLYLINE
  5
428
100
AcDbEntity
  8
0
 62
   253
100
AcDbPolyline
 90
        2
 70
     0
 39
0.003
 10
-0.369248
 20
1.406543
 40
0.003
 41
0.003
 10
-0.371224
 20
0.657535
 40
0.003
 41
0.003
  0
LWPOLYLINE
  5
429
100
AcDbEntity
  8
0
 62
   253
100
AcDbPolyline
 90
        2
 70
     0
 39
0.003
 10
-0.371224
 20
0.657535
 40
0.003
 41
0.003
 10
-0.348669
 20
0.666248
 40
0.003
 41
0.003
  0
LWPOLYLINE
  5
42A
100
AcDbEntity
  8
0
 62
     9
100
AcDbPolyline
 90
        2
 70
     0
 39
0.003
 10
-0.371224
 20
0.657535
 40
0.003
 41
0.003
 10
-0.369248
 20
1.406543
 40
0.003
 41
0.003
  0
LWPOLYLINE
  5
42B
100
AcDbEntity
  8
0
 62
     9
100
AcDbPolyline
 90
        2
 70
     0
 39
0.003
 10
-0.369248
 20
1.406543
 40
0.003
 41
0.003
 10
-0.391803
 20
1.401138
 40
0.003
 41
0.003
  0
LWPOLYLINE
  5
42C
100
AcDbEntity
  8
0
 62
     9
100
AcDbPolyline
 90
        2
 70
     0
 39
0.003
 10
-0.391803
 20
1.401138
 40
0.003
 41
0.003
 10
-0.39378
 20
0.65213
 40
0.003
 41
0.003
  0
LWPOLYLINE
  5
42D
100
AcDbEntity
  8
0
 62
     9
100
AcDbPolyline
 90
        2
 70
     0
 39
0.003
 10
-0.39378
 20
0.65213
 40
0.003
 41
0.003
 10
-0.371224
 20
0.657535
 40
0.003
 41
0.003
  0
LWPOLYLINE
  5
42E
100
AcDbEntity
  8
0
 62
     9
100
AcDbPolyline
 90
        2
 70
     0
 39
0.003
 10
-0.39378
 20
0.65213
 40
0.003
 41
0.003
 10
-0.391803
 20
1.401138
 40
0.003
 41
0.003
  0
LWPOLYLINE
  5
42F
100
AcDbEntity
  8
0
 62
     9
100
AcDbPolyline
 90
        2
 70
     0
 39
0.003
 10
-0.391803
 20
1.401138
 40
0.003
 41
0.003
 10
-0.414307
 20
1.398894
 40
0.003
 41
0.003
  0
LWPOLYLINE
  5
430
100
AcDbEntity
  8
0
 62
     9
100
AcDbPolyline
 90
        2
 70
     0
 39
0.003
 10
-0.414307
 20
1.398894
 40
0.003
 41
0.003
 10
-0.416283
 20
0.649886
 40
0.003
 41
0.003
  0
LWPOLYLINE
  5
431
100
AcDbEntity
  8
0
 62
     9
100
AcDbPolyline
 90
        2
 70
     0
 39
0.003
 10
-0.416283
 20
0.649886
 40
0.003
 41
0.003
 10
-0.39378
 20
0.65213
 40
0.003
 41
0.003
  0
LWPOLYLINE
  5
432
100
AcDbEntity
  8
0
 62
     9
100
AcDbPolyline
 90
        2
 70
     0
 39
0.003
 10
-0.416283
 20
0.649886
 40
0.003
 41
0.003
 10
-0.414307
 20
1.398894
 40
0.003
 41
0.003
  0
LWPOLYLINE
  5
433
100
AcDbEntity
  8
0
 62
     9
100
AcDbPolyline
 90
        2
 70
     0
 39
0.003
 10
-0.414307
 20
1.398894
 40
0.003
 41
0.003
 10
-0.436681
 20
1.39963
 40
0.003
 41
0.003
  0
LWPOLYLINE
  5
434
100
AcDbEntity
  8
0
 62
     9
100
AcDbPolyline
 90
        2
 70
     0
 39
0.003
 10
-0.436681
 20
1.39963
 40
0.003
 41
0.003
 10
-0.438657
 20
0.650622
 40
0.003
 41
0.003
  0
LWPOLYLINE
  5
435
100
AcDbEntity
  8
0
 62
     9
100
AcDbPolyline
 90
        2
 70
     0
 39
0.003
 10
-0.438657
 20
0.650622
 40
0.003
 41
0.003
 10
-0.416283
 20
0.649886
 40
0.003
 41
0.003
  0
LWPOLYLINE
  5
436
100
AcDbEntity
  8
0
 62
     9
100
AcDbPolyline
 90
        2
 70
     0
 39
0.003
 10
-0.438657
 20
0.650622
 40
0.003
 41
0.003
 10
-0.436681
 20
1.39963
 40
0.003
 41
0.003
  0
LWPOLYLINE
  5
437
100
AcDbEntity
  8
0
 62
     9
100
AcDbPolyline
 90
        2
 70
     0
 39
0.003
 10
-0.436681
 20
1.39963
 40
0.003
 41
0.003
 10
-0.458862
 20
1.403189
 40
0.003
 41
0.003
  0
LWPOLYLINE
  5
438
100
AcDbEntity
  8
0
 62
     9
100
AcDbPolyline
 90
        2
 70
     0
 39
0.003
 10
-0.458862
 20
1.403189
 40
0.003
 41
0.003
 10
-0.460839
 20
0.654181
 40
0.003
 41
0.003
  0
LWPOLYLINE
  5
439
100
AcDbEntity
  8
0
 62
     9
100
AcDbPolyline
 90
        2
 70
     0
 39
0.003
 10
-0.460839
 20
0.654181
 40
0.003
 41
0.003
 10
-0.438657
 20
0.650622
 40
0.003
 41
0.003
  0
LWPOLYLINE
  5
43A
100
AcDbEntity
  8
0
 62
     9
100
AcDbPolyline
 90
        2
 70
     0
 39
0.003
 10
-0.460839
 20
0.654181
 40
0.003
 41
0.003
 10
-0.458862
 20
1.403189
 40
0.003
 41
0.003
  0
LWPOLYLINE
  5
43B
100
AcDbEntity
  8
0
 62
     9
100
AcDbPolyline
 90
        2
 70
     0
 39
0.003
 10
-0.458862
 20
1.403189
 40
0.003
 41
0.003
 10
-0.480772
 20
1.40939
 40
0.003
 41
0.003
  0
LWPOLYLINE
  5
43C
100
AcDbEntity
  8
0
 62
     9
100
AcDbPolyline
 90
        2
 70
     0
 39
0.003
 10
-0.480772
 20
1.40939
 40
0.003
 41
0.003
 10
-0.482748
 20
0.660382
 40
0.003
 41
0.003
  0
LWPOLYLINE
  5
43D
100
AcDbEntity
  8
0
 62
     9
100
AcDbPolyline
 90
        2
 70
     0
 39
0.003
 10
-0.482748
 20
0.660382
 40
0.003
 41
0.003
 10
-0.460839
 20
0.654181
 40
0.003
 41
0.003
  0
LWPOLYLINE
  5
43E
100
AcDbEntity
  8
0
 62
     9
100
AcDbPolyline
 90
        2
 70
     0
 39
0.003
 10
-0.482748
 20
0.660382
 40
0.003
 41
0.003
 10
-0.480772
 20
1.40939
 40
0.003
 41
0.003
  0
LWPOLYLINE
  5
43F
100
AcDbEntity
  8
0
 62
     9
100
AcDbPolyline
 90
        2
 70
     0
 39
0.003
 10
-0.480772
 20
1.40939
 40
0.003
 41
0.003
 10
-0.502354
 20
1.418079
 40
0.003
 41
0.003
  0
LWPOLYLINE
  5
440
100
AcDbEntity
  8
0
 62
     9
100
AcDbPolyline
 90
        2
 70
     0
 39
0.003
 10
-0.502354
 20
1.418079
 40
0.003
 41
0.003
 10
-0.504331
 20
0.669071
 40
0.003
 41
0.003
  0
LWPOLYLINE
  5
441
100
AcDbEntity
  8
0
 62
     9
100
AcDbPolyline
 90
        2
 70
     0
 39
0.003
 10
-0.504331
 20
0.669071
 40
0.003
 41
0.003
 10
-0.482748
 20
0.660382
 40
0.003
 41
0.003
  0
LWPOLYLINE
  5
442
100
AcDbEntity
  8
0
 62
   254
100
AcDbPolyline
 90
        2
 70
     0
 39
0.003
 10
-0.504331
 20
0.669071
 40
0.003
 41
0.003
 10
-0.502354
 20
1.418079
 40
0.003
 41
0.003
  0
LWPOLYLINE
  5
443
100
AcDbEntity
  8
0
 62
   254
100
AcDbPolyline
 90
        2
 70
     0
 39
0.003
 10
-0.502354
 20
1.418079
 40
0.003
 41
0.003
 10
-0.523531
 20
1.429075
 40
0.003
 41
0.003
  0
LWPOLYLINE
  5
444
100
AcDbEntity
  8
0
 62
   254
100
AcDbPolyline
 90
        2
 70
     0
 39
0.003
 10
-0.523531
 20
1.429075
 40
0.003
 41
0.003
 10
-0.525508
 20
0.680067
 40
0.003
 41
0.003
  0
LWPOLYLINE
  5
445
100
AcDbEntity
  8
0
 62
   254
100
AcDbPolyline
 90
        2
 70
     0
 39
0.003
 10
-0.525508
 20
0.680067
 40
0.003
 41
0.003
 10
-0.504331
 20
0.669071
 40
0.003
 41
0.003
  0
LWPOLYLINE
  5
446
100
AcDbEntity
  8
0
 62
   254
100
AcDbPolyline
 90
        2
 70
     0
 39
0.003
 10
-0.525508
 20
0.680067
 40
0.003
 41
0.003
 10
-0.523531
 20
1.429075
 40
0.003
 41
0.003
  0
LWPOLYLINE
  5
447
100
AcDbEntity
  8
0
 62
   254
100
AcDbPolyline
 90
        2
 70
     0
 39
0.003
 10
-0.523531
 20
1.429075
 40
0.003
 41
0.003
 10
-0.544248
 20
1.442224
 40
0.003
 41
0.003
  0
LWPOLYLINE
  5
448
100
AcDbEntity
  8
0
 62
   254
100
AcDbPolyline
 90
        2
 70
     0
 39
0.003
 10
-0.544248
 20
1.442224
 40
0.003
 41
0.003
 10
-0.546224
 20
0.693217
 40
0.003
 41
0.003
  0
LWPOLYLINE
  5
449
100
AcDbEntity
  8
0
 62
   254
100
AcDbPolyline
 90
        2
 70
     0
 39
0.003
 10
-0.546224
 20
0.693217
 40
0.003
 41
0.003
 10
-0.525508
 20
0.680067
 40
0.003
 41
0.003
  0
LWPOLYLINE
  5
44A
100
AcDbEntity
  8
0
 62
   254
100
AcDbPolyline
 90
        2
 70
     0
 39
0.003
 10
-0.546224
 20
0.693217
 40
0.003
 41
0.003
 10
-0.544248
 20
1.442224
 40
0.003
 41
0.003
  0
LWPOLYLINE
  5
44B
100
AcDbEntity
  8
0
 62
   254
100
AcDbPolyline
 90
        2
 70
     0
 39
0.003
 10
-0.544248
 20
1.442224
 40
0.003
 41
0.003
 10
-0.564409
 20
1.457335
 40
0.003
 41
0.003
  0
LWPOLYLINE
  5
44C
100
AcDbEntity
  8
0
 62
   254
100
AcDbPolyline
 90
        2
 70
     0
 39
0.003
 10
-0.564409
 20
1.457335
 40
0.003
 41
0.003
 10
-0.566386
 20
0.708327
 40
0.003
 41
0.003
  0
LWPOLYLINE
  5
44D
100
AcDbEntity
  8
0
 62
   254
100
AcDbPolyline
 90
        2
 70
     0
 39
0.003
 10
-0.566386
 20
0.708327
 40
0.003
 41
0.003
 10
-0.546224
 20
0.693217
 40
0.003
 41
0.003
  0
LWPOLYLINE
  5
44E
100
AcDbEntity
  8
0
 62
   254
100
AcDbPolyline
 90
        2
 70
     0
 39
0.003
 10
-0.566386
 20
0.708327
 40
0.003
 41
0.003
 10
-0.564409
 20
1.457335
 40
0.003
 41
0.003
  0
LWPOLYLINE
  5
44F
100
AcDbEntity
  8
0
 62
   254
100
AcDbPolyline
 90
        2
 70
     0
 39
0.003
 10
-0.564409
 20
1.457335
 40
0.003
 41
0.003
 10
-0.583972
 20
1.47426
 40
0.003
 41
0.003
  0
LWPOLYLINE
  5
450
100
AcDbEntity
  8
0
 62
   254
100
AcDbPolyline
 90
        2
 70
     0
 39
0.003
 10
-0.583972
 20
1.47426
 40
0.003
 41
0.003
 10
-0.585949
 20
0.725252
 40
0.003
 41
0.003
  0
LWPOLYLINE
  5
451
100
AcDbEntity
  8
0
 62
   254
100
AcDbPolyline
 90
        2
 70
     0
 39
0.003
 10
-0.585949
 20
0.725252
 40
0.003
 41
0.003
 10
-0.566386
 20
0.708327
 40
0.003
 41
0.003
  0
LWPOLYLINE
  5
452
100
AcDbEntity
  8
0
 62
   254
100
AcDbPolyline
 90
        2
 70
     0
 39
0.003
 10
-0.585949
 20
0.725252
 40
0.003
 41
0.003
 10
-0.583972
 20
1.47426
 40
0.003
 41
0.003
  0
LWPOLYLINE
  5
453
100
AcDbEntity
  8
0
 62
   254
100
AcDbPolyline
 90
        2
 70
     0
 39
0.003
 10
-0.583972
 20
1.47426
 40
0.003
 41
0.003
 10
-0.602854
 20
1.492823
 40
0.003
 41
0.003
  0
LWPOLYLINE
  5
454
100
AcDbEntity
  8
0
 62
   254
100
AcDbPolyline
 90
        2
 70
     0
 39
0.003
 10
-0.602854
 20
1.492823
 40
0.003
 41
0.003
 10
-0.604831
 20
0.743815
 40
0.003
 41
0.003
  0
LWPOLYLINE
  5
455
100
AcDbEntity
  8
0
 62
   254
100
AcDbPolyline
 90
        2
 70
     0
 39
0.003
 10
-0.604831
 20
0.743815
 40
0.003
 41
0.003
 10
-0.585949
 20
0.725252
 40
0.003
 41
0.003
  0
LWPOLYLINE
  5
456
100
AcDbEntity
  8
0
 62
   254
100
AcDbPolyline
 90
        2
 70
     0
 39
0.003
 10
-0.604831
 20
0.743815
 40
0.003
 41
0.003
 10
-0.602854
 20
1.492823
 40
0.003
 41
0.003
  0
LWPOLYLINE
  5
457
100
AcDbEntity
  8
0
 62
   254
100
AcDbPolyline
 90
        2
 70
     0
 39
0.003
 10
-0.602854
 20
1.492823
 40
0.003
 41
0.003
 10
-0.620996
 20
1.512862
 40
0.003
 41
0.003
  0
LWPOLYLINE
  5
458
100
AcDbEntity
  8
0
 62
   254
100
AcDbPolyline
 90
        2
 70
     0
 39
0.003
 10
-0.620996
 20
1.512862
 40
0.003
 41
0.003
 10
-0.622972
 20
0.763854
 40
0.003
 41
0.003
  0
LWPOLYLINE
  5
459
100
AcDbEntity
  8
0
 62
   254
100
AcDbPolyline
 90
        2
 70
     0
 39
0.003
 10
-0.622972
 20
0.763854
 40
0.003
 41
0.003
 10
-0.604831
 20
0.743815
 40
0.003
 41
0.003
  0
LWPOLYLINE
  5
45A
100
AcDbEntity
  8
0
 62
   254
100
AcDbPolyline
 90
        2
 70
     0
 39
0.003
 10
-0.622972
 20
0.763854
 40
0.003
 41
0.003
 10
-0.620996
 20
1.512862
 40
0.003
 41
0.003
  0
LWPOLYLINE
  5
45B
100
AcDbEntity
  8
0
 62
   254
100
AcDbPolyline
 90
        2
 70
     0
 39
0.003
 10
-0.620996
 20
1.512862
 40
0.003
 41
0.003
 10
-0.638315
 20
1.534193
 40
0.003
 41
0.003
  0
LWPOLYLINE
  5
45C
100
AcDbEntity
  8
0
 62
   254
100
AcDbPolyline
 90
        2
 70
     0
 39
0.003
 10
-0.638315
 20
1.534193
 40
0.003
 41
0.003
 10
-0.640291
 20
0.785185
 40
0.003
 41
0.003
  0
LWPOLYLINE
  5
45D
100
AcDbEntity
  8
0
 62
   254
100
AcDbPolyline
 90
        2
 70
     0
 39
0.003
 10
-0.640291
 20
0.785185
 40
0.003
 41
0.003
 10
-0.622972
 20
0.763854
 40
0.003
 41
0.003
  0
LWPOLYLINE
  5
45E
100
AcDbEntity
  8
0
 62
   254
100
AcDbPolyline
 90
        2
 70
     0
 39
0.003
 10
-0.640291
 20
0.785185
 40
0.003
 41
0.003
 10
-0.638315
 20
1.534193
 40
0.003
 41
0.003
  0
LWPOLYLINE
  5
45F
100
AcDbEntity
  8
0
 62
   254
100
AcDbPolyline
 90
        2
 70
     0
 39
0.003
 10
-0.638315
 20
1.534193
 40
0.003
 41
0.003
 10
-0.654756
 20
1.556665
 40
0.003
 41
0.003
  0
LWPOLYLINE
  5
460
100
AcDbEntity
  8
0
 62
   254
100
AcDbPolyline
 90
        2
 70
     0
 39
0.003
 10
-0.654756
 20
1.556665
 40
0.003
 41
0.003
 10
-0.656732
 20
0.807657
 40
0.003
 41
0.003
  0
LWPOLYLINE
  5
461
100
AcDbEntity
  8
0
 62
   254
100
AcDbPolyline
 90
        2
 70
     0
 39
0.003
 10
-0.656732
 20
0.807657
 40
0.003
 41
0.003
 10
-0.640291
 20
0.785185
 40
0.003
 41
0.003
  0
LWPOLYLINE
  5
462
100
AcDbEntity
  8
0
 62
   254
100
AcDbPolyline
 90
        2
 70
     0
 39
0.003
 10
-0.656732
 20
0.807657
 40
0.003
 41
0.003
 10
-0.654756
 20
1.556665
 40
0.003
 41
0.003
  0
LWPOLYLINE
  5
463
100
AcDbEntity
  8
0
 62
   254
100
AcDbPolyline
 90
        2
 70
     0
 39
0.003
 10
-0.654756
 20
1.556665
 40
0.003
 41
0.003
 10
-0.670244
 20
1.580102
 40
0.003
 41
0.003
  0
LWPOLYLINE
  5
464
100
AcDbEntity
  8
0
 62
   254
100
AcDbPolyline
 90
        2
 70
     0
 39
0.003
 10
-0.670244
 20
1.580102
 40
0.003
 41
0.003
 10
-0.67222
 20
0.831094
 40
0.003
 41
0.003
  0
LWPOLYLINE
  5
465
100
AcDbEntity
  8
0
 62
   254
100
AcDbPolyline
 90
        2
 70
     0
 39
0.003
 10
-0.67222
 20
0.831094
 40
0.003
 41
0.003
 10
-0.656732
 20
0.807657
 40
0.003
 41
0.003
  0
LWPOLYLINE
  5
466
100
AcDbEntity
  8
0
 62
   254
100
AcDbPolyline
 90
        2
 70
     0
 39
0.003
 10
-0.67222
 20
0.831094
 40
0.003
 41
0.003
 10
-0.670244
 20
1.580102
 40
0.003
 41
0.003
  0
LWPOLYLINE
  5
467
100
AcDbEntity
  8
0
 62
   254
100
AcDbPolyline
 90
        2
 70
     0
 39
0.003
 10
-0.670244
 20
1.580102
 40
0.003
 41
0.003
 10
-0.68472
 20
1.604343
 40
0.003
 41
0.003
  0
LWPOLYLINE
  5
468
100
AcDbEntity
  8
0
 62
   254
100
AcDbPolyline
 90
        2
 70
     0
 39
0.003
 10
-0.68472
 20
1.604343
 40
0.003
 41
0.003
 10
-0.686697
 20
0.855335
 40
0.003
 41
0.003
  0
LWPOLYLINE
  5
469
100
AcDbEntity
  8
0
 62
   254
100
AcDbPolyline
 90
        2
 70
     0
 39
0.003
 10
-0.686697
 20
0.855335
 40
0.003
 41
0.003
 10
-0.67222
 20
0.831094
 40
0.003
 41
0.003
  0
LWPOLYLINE
  5
46A
100
AcDbEntity
  8
0
 62
   254
100
AcDbPolyline
 90
        2
 70
     0
 39
0.003
 10
-0.686697
 20
0.855335
 40
0.003
 41
0.003
 10
-0.68472
 20
1.604343
 40
0.003
 41
0.003
  0
LWPOLYLINE
  5
46B
100
AcDbEntity
  8
0
 62
   254
100
AcDbPolyline
 90
        2
 70
     0
 39
0.003
 10
-0.68472
 20
1.604343
 40
0.003
 41
0.003
 10
-0.698094
 20
1.629205
 40
0.003
 41
0.003
  0
LWPOLYLINE
  5
46C
100
AcDbEntity
  8
0
 62
   254
100
AcDbPolyline
 90
        2
 70
     0
 39
0.003
 10
-0.698094
 20
1.629205
 40
0.003
 41
0.003
 10
-0.700071
 20
0.880197
 40
0.003
 41
0.003
  0
LWPOLYLINE
  5
46D
100
AcDbEntity
  8
0
 62
   254
100
AcDbPolyline
 90
        2
 70
     0
 39
0.003
 10
-0.700071
 20
0.880197
 40
0.003
 41
0.003
 10
-0.686697
 20
0.855335
 40
0.003
 41
0.003
  0
LWPOLYLINE
  5
46E
100
AcDbEntity
  8
0
 62
   254
100
AcDbPolyline
 90
        2
 70
     0
 39
0.003
 10
-0.700071
 20
0.880197
 40
0.003
 41
0.003
 10
-0.698094
 20
1.629205
 40
0.003
 41
0.003
  0
LWPOLYLINE
  5
46F
100
AcDbEntity
  8
0
 62
   254
100
AcDbPolyline
 90
        2
 70
     0
 39
0.003
 10
-0.698094
 20
1.629205
 40
0.003
 41
0.003
 10
-0.710319
 20
1.654531
 40
0.003
 41
0.003
  0
LWPOLYLINE
  5
470
100
AcDbEntity
  8
0
 62
   254
100
AcDbPolyline
 90
        2
 70
     0
 39
0.003
 10
-0.710319
 20
1.654531
 40
0.003
 41
0.003
 10
-0.712295
 20
0.905524
 40
0.003
 41
0.003
  0
LWPOLYLINE
  5
471
100
AcDbEntity
  8
0
 62
   254
100
AcDbPolyline
 90
        2
 70
     0
 39
0.003
 10
-0.712295
 20
0.905524
 40
0.003
 41
0.003
 10
-0.700071
 20
0.880197
 40
0.003
 41
0.003
  0
LWPOLYLINE
  5
472
100
AcDbEntity
  8
0
 62
   254
100
AcDbPolyline
 90
        2
 70
     0
 39
0.003
 10
-0.712295
 20
0.905524
 40
0.003
 41
0.003
 10
-0.710319
 20
1.654531
 40
0.003
 41
0.003
  0
LWPOLYLINE
  5
473
100
AcDbEntity
  8
0
 62
   254
100
AcDbPolyline
 90
        2
 70
     0
 39
0.003
 10
-0.710319
 20
1.654531
 40
0.003
 41
0.003
 10
-0.721315
 20
1.68015
 40
0.003
 41
0.003
  0
LWPOLYLINE
  5
474
100
AcDbEntity
  8
0
 62
   254
100
AcDbPolyline
 90
        2
 70
     0
 39
0.003
 10
-0.721315
 20
1.68015
 40
0.003
 41
0.003
 10
-0.723291
 20
0.931142
 40
0.003
 41
0.003
  0
LWPOLYLINE
  5
475
100
AcDbEntity
  8
0
 62
   254
100
AcDbPolyline
 90
        2
 70
     0
 39
0.003
 10
-0.723291
 20
0.931142
 40
0.003
 41
0.003
 10
-0.712295
 20
0.905524
 40
0.003
 41
0.003
  0
LWPOLYLINE
  5
476
100
AcDbEntity
  8
0
 62
   254
100
AcDbPolyline
 90
        2
 70
     0
 39
0.003
 10
-0.723291
 20
0.931142
 40
0.003
 41
0.003
 10
-0.721315
 20
1.68015
 40
0.003
 41
0.003
  0
LWPOLYLINE
  5
477
100
AcDbEntity
  8
0
 62
   254
100
AcDbPolyline
 90
        2
 70
     0
 39
0.003
 10
-0.721315
 20
1.68015
 40
0.003
 41
0.003
 10
-0.731016
 20
1.705898
 40
0.003
 41
0.003
  0
LWPOLYLINE
  5
478
100
AcDbEntity
  8
0
 62
   254
100
AcDbPolyline
 90
        2
 70
     0
 39
0.003
 10
-0.731016
 20
1.705898
 40
0.003
 41
0.003
 10
-0.732992
 20
0.95689
 40
0.003
 41
0.003
  0
LWPOLYLINE
  5
479
100
AcDbEntity
  8
0
 62
   254
100
AcDbPolyline
 90
        2
 70
     0
 39
0.003
 10
-0.732992
 20
0.95689
 40
0.003
 41
0.003
 10
-0.723291
 20
0.931142
 40
0.003
 41
0.003
  0
LWPOLYLINE
  5
47A
100
AcDbEntity
  8
0
 62
   254
100
AcDbPolyline
 90
        2
 70
     0
 39
0.003
 10
-0.732992
 20
0.95689
 40
0.003
 41
0.003
 10
-0.731016
 20
1.705898
 40
0.003
 41
0.003
  0
LWPOLYLINE
  5
47B
100
AcDbEntity
  8
0
 62
   254
100
AcDbPolyline
 90
        2
 70
     0
 39
0.003
 10
-0.731016
 20
1.705898
 40
0.003
 41
0.003
 10
-0.73935
 20
1.731594
 40
0.003
 41
0.003
  0
LWPOLYLINE
  5
47C
100
AcDbEntity
  8
0
 62
   254
100
AcDbPolyline
 90
        2
 70
     0
 39
0.003
 10
-0.73935
 20
1.731594
 40
0.003
 41
0.003
 10
-0.741327
 20
0.982587
 40
0.003
 41
0.003
  0
LWPOLYLINE
  5
47D
100
AcDbEntity
  8
0
 62
   254
100
AcDbPolyline
 90
        2
 70
     0
 39
0.003
 10
-0.741327
 20
0.982587
 40
0.003
 41
0.003
 10
-0.732992
 20
0.95689
 40
0.003
 41
0.003
  0
LWPOLYLINE
  5
47E
100
AcDbEntity
  8
0
 62
   254
100
AcDbPolyline
 90
        2
 70
     0
 39
0.003
 10
-0.741327
 20
0.982587
 40
0.003
 41
0.003
 10
-0.73935
 20
1.731594
 40
0.003
 41
0.003
  0
LWPOLYLINE
  5
47F
100
AcDbEntity
  8
0
 62
   254
100
AcDbPolyline
 90
        2
 70
     0
 39
0.003
 10
-0.73935
 20
1.731594
 40
0.003
 41
0.003
 10
-0.746252
 20
1.757087
 40
0.003
 41
0.003
  0
LWPOLYLINE
  5
480
100
AcDbEntity
  8
0
 62
   254
100
AcDbPolyline
 90
        2
 70
     0
 39
0.003
 10
-0.746252
 20
1.757087
 40
0.003
 41
0.003
 10
-0.748228
 20
1.008079
 40
0.003
 41
0.003
  0
LWPOLYLINE
  5
481
100
AcDbEntity
  8
0
 62
   254
100
AcDbPolyline
 90
        2
 70
     0
 39
0.003
 10
-0.748228
 20
1.008079
 40
0.003
 41
0.003
 10
-0.741327
 20
0.982587
 40
0.003
 41
0.003
  0
LWPOLYLINE
  5
482
100
AcDbEntity
  8
0
 62
   254
100
AcDbPolyline
 90
        2
 70
     0
 39
0.003
 10
-0.748228
 20
1.008079
 40
0.003
 41
0.003
 10
-0.746252
 20
1.757087
 40
0.003
 41
0.003
  0
LWPOLYLINE
  5
483
100
AcDbEntity
  8
0
 62
   254
100
AcDbPolyline
 90
        2
 70
     0
 39
0.003
 10
-0.746252
 20
1.757087
 40
0.003
 41
0.003
 10
-0.751654
 20
1.782193
 40
0.003
 41
0.003
  0
LWPOLYLINE
  5
484
100
AcDbEntity
  8
0
 62
   254
100
AcDbPolyline
 90
        2
 70
     0
 39
0.003
 10
-0.751654
 20
1.782193
 40
0.003
 41
0.003
 10
-0.75363
 20
1.033185
 40
0.003
 41
0.003
  0
LWPOLYLINE
  5
485
100
AcDbEntity
  8
0
 62
   254
100
AcDbPolyline
 90
        2
 70
     0
 39
0.003
 10
-0.75363
 20
1.033185
 40
0.003
 41
0.003
 10
-0.748228
 20
1.008079
 40
0.003
 41
0.003
  0
LWPOLYLINE
  5
486
100
AcDbEntity
  8
0
 62
   254
100
AcDbPolyline
 90
        2
 70
     0
 39
0.003
 10
-0.75363
 20
1.033185
 40
0.003
 41
0.003
 10
-0.751654
 20
1.782193
 40
0.003
 41
0.003
  0
LWPOLYLINE
  5
487
100
AcDbEntity
  8
0
 62
   254
100
AcDbPolyline
 90
        2
 70
     0
 39
0.003
 10
-0.751654
 20
1.782193
 40
0.003
 41
0.003
 10
-0.755492
 20
1.80676
 40
0.003
 41
0.003
  0
LWPOLYLINE
  5
488
100
AcDbEntity
  8
0
 62
   254
100
AcDbPolyline
 90
        2
 70
     0
 39
0.003
 10
-0.755492
 20
1.80676
 40
0.003
 41
0.003
 10
-0.757469
 20
1.057752
 40
0.003
 41
0.003
  0
LWPOLYLINE
  5
489
100
AcDbEntity
  8
0
 62
   254
100
AcDbPolyline
 90
        2
 70
     0
 39
0.003
 10
-0.757469
 20
1.057752
 40
0.003
 41
0.003
 10
-0.75363
 20
1.033185
 40
0.003
 41
0.003
  0
LWPOLYLINE
  5
48A
100
AcDbEntity
  8
0
 62
     0
100
AcDbPolyline
 90
        2
 70
     0
 39
0.003
 10
-0.196882
 20
0.834445
 40
0.003
 41
0.003
 10
-0.194906
 20
1.583453
 40
0.003
 41
0.003
  0
LWPOLYLINE
  5
48B
100
AcDbEntity
  8
0
 62
     0
100
AcDbPolyline
 90
        2
 70
     0
 39
0.003
 10
-0.194906
 20
1.583453
 40
0.003
 41
0.003
 10
-0.215453
 20
1.546764
 40
0.003
 41
0.003
  0
LWPOLYLINE
  5
48C
100
AcDbEntity
  8
0
 62
     0
100
AcDbPolyline
 90
        2
 70
     0
 39
0.003
 10
-0.215453
 20
1.546764
 40
0.003
 41
0.003
 10
-0.2365
 20
1.514579
 40
0.003
 41
0.003
  0
LWPOLYLINE
  5
48D
100
AcDbEntity
  8
0
 62
     0
100
AcDbPolyline
 90
        2
 70
     0
 39
0.003
 10
-0.2365
 20
1.514579
 40
0.003
 41
0.003
 10
-0.257965
 20
1.486724
 40
0.003
 41
0.003
  0
LWPOLYLINE
  5
48E
100
AcDbEntity
  8
0
 62
     0
100
AcDbPolyline
 90
        2
 70
     0
 39
0.003
 10
-0.257965
 20
1.486724
 40
0.003
 41
0.003
 10
-0.279791
 20
1.463035
 40
0.003
 41
0.003
  0
LWPOLYLINE
  5
48F
100
AcDbEntity
  8
0
 62
     0
100
AcDbPolyline
 90
        2
 70
     0
 39
0.003
 10
-0.279791
 20
1.463035
 40
0.003
 41
0.003
 10
-0.301898
 20
1.443335
 40
0.003
 41
0.003
  0
LWPOLYLINE
  5
490
100
AcDbEntity
  8
0
 62
     0
100
AcDbPolyline
 90
        2
 70
     0
 39
0.003
 10
-0.301898
 20
1.443335
 40
0.003
 41
0.003
 10
-0.32422
 20
1.427469
 40
0.003
 41
0.003
  0
LWPOLYLINE
  5
491
100
AcDbEntity
  8
0
 62
     0
100
AcDbPolyline
 90
        2
 70
     0
 39
0.003
 10
-0.32422
 20
1.427469
 40
0.003
 41
0.003
 10
-0.346693
 20
1.415256
 40
0.003
 41
0.003
  0
LWPOLYLINE
  5
492
100
AcDbEntity
  8
0
 62
     0
100
AcDbPolyline
 90
        2
 70
     0
 39
0.003
 10
-0.346693
 20
1.415256
 40
0.003
 41
0.003
 10
-0.369248
 20
1.406543
 40
0.003
 41
0.003
  0
LWPOLYLINE
  5
493
100
AcDbEntity
  8
0
 62
     0
100
AcDbPolyline
 90
        2
 70
     0
 39
0.003
 10
-0.369248
 20
1.406543
 40
0.003
 41
0.003
 10
-0.391803
 20
1.401138
 40
0.003
 41
0.003
  0
LWPOLYLINE
  5
494
100
AcDbEntity
  8
0
 62
     0
100
AcDbPolyline
 90
        2
 70
     0
 39
0.003
 10
-0.391803
 20
1.401138
 40
0.003
 41
0.003
 10
-0.414307
 20
1.398894
 40
0.003
 41
0.003
  0
LWPOLYLINE
  5
495
100
AcDbEntity
  8
0
 62
     0
100
AcDbPolyline
 90
        2
 70
     0
 39
0.003
 10
-0.414307
 20
1.398894
 40
0.003
 41
0.003
 10
-0.436681
 20
1.39963
 40
0.003
 41
0.003
  0
LWPOLYLINE
  5
496
100
AcDbEntity
  8
0
 62
     0
100
AcDbPolyline
 90
        2
 70
     0
 39
0.003
 10
-0.436681
 20
1.39963
 40
0.003
 41
0.003
 10
-0.458862
 20
1.403189
 40
0.003
 41
0.003
  0
LWPOLYLINE
  5
497
100
AcDbEntity
  8
0
 62
     0
100
AcDbPolyline
 90
        2
 70
     0
 39
0.003
 10
-0.458862
 20
1.403189
 40
0.003
 41
0.003
 10
-0.480772
 20
1.40939
 40
0.003
 41
0.003
  0
LWPOLYLINE
  5
498
100
AcDbEntity
  8
0
 62
     0
100
AcDbPolyline
 90
        2
 70
     0
 39
0.003
 10
-0.480772
 20
1.40939
 40
0.003
 41
0.003
 10
-0.502354
 20
1.418079
 40
0.003
 41
0.003
  0
LWPOLYLINE
  5
499
100
AcDbEntity
  8
0
 62
     0
100
AcDbPolyline
 90
        2
 70
     0
 39
0.003
 10
-0.502354
 20
1.418079
 40
0.003
 41
0.003
 10
-0.523531
 20
1.429075
 40
0.003
 41
0.003
  0
LWPOLYLINE
  5
49A
100
AcDbEntity
  8
0
 62
     0
100
AcDbPolyline
 90
        2
 70
     0
 39
0.003
 10
-0.523531
 20
1.429075
 40
0.003
 41
0.003
 10
-0.544248
 20
1.442224
 40
0.003
 41
0.003
  0
LWPOLYLINE
  5
49B
100
AcDbEntity
  8
0
 62
     0
100
AcDbPolyline
 90
        2
 70
     0
 39
0.003
 10
-0.544248
 20
1.442224
 40
0.003
 41
0.003
 10
-0.564409
 20
1.457335
 40
0.003
 41
0.003
  0
LWPOLYLINE
  5
49C
100
AcDbEntity
  8
0
 62
     0
100
AcDbPolyline
 90
        2
 70
     0
 39
0.003
 10
-0.564409
 20
1.457335
 40
0.003
 41
0.003
 10
-0.583972
 20
1.47426
 40
0.003
 41
0.003
  0
LWPOLYLINE
  5
49D
100
AcDbEntity
  8
0
 62
     0
100
AcDbPolyline
 90
        2
 70
     0
 39
0.003
 10
-0.583972
 20
1.47426
 40
0.003
 41
0.003
 10
-0.602854
 20
1.492823
 40
0.003
 41
0.003
  0
LWPOLYLINE
  5
49E
100
AcDbEntity
  8
0
 62
     0
100
AcDbPolyline
 90
        2
 70
     0
 39
0.003
 10
-0.602854
 20
1.492823
 40
0.003
 41
0.003
 10
-0.620996
 20
1.512862
 40
0.003
 41
0.003
  0
LWPOLYLINE
  5
49F
100
AcDbEntity
  8
0
 62
     0
100
AcDbPolyline
 90
        2
 70
     0
 39
0.003
 10
-0.620996
 20
1.512862
 40
0.003
 41
0.003
 10
-0.638315
 20
1.534193
 40
0.003
 41
0.003
  0
LWPOLYLINE
  5
4A0
100
AcDbEntity
  8
0
 62
     0
100
AcDbPolyline
 90
        2
 70
     0
 39
0.003
 10
-0.638315
 20
1.534193
 40
0.003
 41
0.003
 10
-0.654756
 20
1.556665
 40
0.003
 41
0.003
  0
LWPOLYLINE
  5
4A1
100
AcDbEntity
  8
0
 62
     0
100
AcDbPolyline
 90
        2
 70
     0
 39
0.003
 10
-0.654756
 20
1.556665
 40
0.003
 41
0.003
 10
-0.670244
 20
1.580102
 40
0.003
 41
0.003
  0
LWPOLYLINE
  5
4A2
100
AcDbEntity
  8
0
 62
     0
100
AcDbPolyline
 90
        2
 70
     0
 39
0.003
 10
-0.670244
 20
1.580102
 40
0.003
 41
0.003
 10
-0.68472
 20
1.604343
 40
0.003
 41
0.003
  0
LWPOLYLINE
  5
4A3
100
AcDbEntity
  8
0
 62
     0
100
AcDbPolyline
 90
        2
 70
     0
 39
0.003
 10
-0.68472
 20
1.604343
 40
0.003
 41
0.003
 10
-0.698094
 20
1.629205
 40
0.003
 41
0.003
  0
LWPOLYLINE
  5
4A4
100
AcDbEntity
  8
0
 62
     0
100
AcDbPolyline
 90
        2
 70
     0
 39
0.003
 10
-0.698094
 20
1.629205
 40
0.003
 41
0.003
 10
-0.710319
 20
1.654531
 40
0.003
 41
0.003
  0
LWPOLYLINE
  5
4A5
100
AcDbEntity
  8
0
 62
     0
100
AcDbPolyline
 90
        2
 70
     0
 39
0.003
 10
-0.710319
 20
1.654531
 40
0.003
 41
0.003
 10
-0.721315
 20
1.68015
 40
0.003
 41
0.003
  0
LWPOLYLINE
  5
4A6
100
AcDbEntity
  8
0
 62
     0
100
AcDbPolyline
 90
        2
 70
     0
 39
0.003
 10
-0.721315
 20
1.68015
 40
0.003
 41
0.003
 10
-0.731016
 20
1.705898
 40
0.003
 41
0.003
  0
LWPOLYLINE
  5
4A7
100
AcDbEntity
  8
0
 62
     0
100
AcDbPolyline
 90
        2
 70
     0
 39
0.003
 10
-0.731016
 20
1.705898
 40
0.003
 41
0.003
 10
-0.73935
 20
1.731594
 40
0.003
 41
0.003
  0
LWPOLYLINE
  5
4A8
100
AcDbEntity
  8
0
 62
     0
100
AcDbPolyline
 90
        2
 70
     0
 39
0.003
 10
-0.73935
 20
1.731594
 40
0.003
 41
0.003
 10
-0.746252
 20
1.757087
 40
0.003
 41
0.003
  0
LWPOLYLINE
  5
4A9
100
AcDbEntity
  8
0
 62
     0
100
AcDbPolyline
 90
        2
 70
     0
 39
0.003
 10
-0.746252
 20
1.757087
 40
0.003
 41
0.003
 10
-0.751654
 20
1.782193
 40
0.003
 41
0.003
  0
LWPOLYLINE
  5
4AA
100
AcDbEntity
  8
0
 62
     0
100
AcDbPolyline
 90
        2
 70
     0
 39
0.003
 10
-0.751654
 20
1.782193
 40
0.003
 41
0.003
 10
-0.755492
 20
1.80676
 40
0.003
 41
0.003
  0
LWPOLYLINE
  5
4AB
100
AcDbEntity
  8
0
 62
     0
100
AcDbPolyline
 90
        2
 70
     0
 39
0.003
 10
-0.755492
 20
1.80676
 40
0.003
 41
0.003
 10
-0.757469
 20
1.057752
 40
0.003
 41
0.003
  0
LWPOLYLINE
  5
4AC
100
AcDbEntity
  8
0
 62
     0
100
AcDbPolyline
 90
        2
 70
     0
 39
0.003
 10
-0.757469
 20
1.057752
 40
0.003
 41
0.003
 10
-0.75363
 20
1.033185
 40
0.003
 41
0.003
  0
LWPOLYLINE
  5
4AD
100
AcDbEntity
  8
0
 62
     0
100
AcDbPolyline
 90
        2
 70
     0
 39
0.003
 10
-0.75363
 20
1.033185
 40
0.003
 41
0.003
 10
-0.748228
 20
1.008079
 40
0.003
 41
0.003
  0
LWPOLYLINE
  5
4AE
100
AcDbEntity
  8
0
 62
     0
100
AcDbPolyline
 90
        2
 70
     0
 39
0.003
 10
-0.748228
 20
1.008079
 40
0.003
 41
0.003
 10
-0.741327
 20
0.982587
 40
0.003
 41
0.003
  0
LWPOLYLINE
  5
4AF
100
AcDbEntity
  8
0
 62
     0
100
AcDbPolyline
 90
        2
 70
     0
 39
0.003
 10
-0.741327
 20
0.982587
 40
0.003
 41
0.003
 10
-0.732992
 20
0.95689
 40
0.003
 41
0.003
  0
LWPOLYLINE
  5
4B0
100
AcDbEntity
  8
0
 62
     0
100
AcDbPolyline
 90
        2
 70
     0
 39
0.003
 10
-0.732992
 20
0.95689
 40
0.003
 41
0.003
 10
-0.723291
 20
0.931142
 40
0.003
 41
0.003
  0
LWPOLYLINE
  5
4B1
100
AcDbEntity
  8
0
 62
     0
100
AcDbPolyline
 90
        2
 70
     0
 39
0.003
 10
-0.723291
 20
0.931142
 40
0.003
 41
0.003
 10
-0.712295
 20
0.905524
 40
0.003
 41
0.003
  0
LWPOLYLINE
  5
4B2
100
AcDbEntity
  8
0
 62
     0
100
AcDbPolyline
 90
        2
 70
     0
 39
0.003
 10
-0.712295
 20
0.905524
 40
0.003
 41
0.003
 10
-0.700071
 20
0.880197
 40
0.003
 41
0.003
  0
LWPOLYLINE
  5
4B3
100
AcDbEntity
  8
0
 62
     0
100
AcDbPolyline
 90
        2
 70
     0
 39
0.003
 10
-0.700071
 20
0.880197
 40
0.003
 41
0.003
 10
-0.686697
 20
0.855335
 40
0.003
 41
0.003
  0
LWPOLYLINE
  5
4B4
100
AcDbEntity
  8
0
 62
     0
100
AcDbPolyline
 90
        2
 70
     0
 39
0.003
 10
-0.686697
 20
0.855335
 40
0.003
 41
0.003
 10
-0.67222
 20
0.831094
 40
0.003
 41
0.003
  0
LWPOLYLINE
  5
4B5
100
AcDbEntity
  8
0
 62
     0
100
AcDbPolyline
 90
        2
 70
     0
 39
0.003
 10
-0.67222
 20
0.831094
 40
0.003
 41
0.003
 10
-0.656732
 20
0.807657
 40
0.003
 41
0.003
  0
LWPOLYLINE
  5
4B6
100
AcDbEntity
  8
0
 62
     0
100
AcDbPolyline
 90
        2
 70
     0
 39
0.003
 10
-0.656732
 20
0.807657
 40
0.003
 41
0.003
 10
-0.640291
 20
0.785185
 40
0.003
 41
0.003
  0
LWPOLYLINE
  5
4B7
100
AcDbEntity
  8
0
 62
     0
100
AcDbPolyline
 90
        2
 70
     0
 39
0.003
 10
-0.640291
 20
0.785185
 40
0.003
 41
0.003
 10
-0.622972
 20
0.763854
 40
0.003
 41
0.003
  0
LWPOLYLINE
  5
4B8
100
AcDbEntity
  8
0
 62
     0
100
AcDbPolyline
 90
        2
 70
     0
 39
0.003
 10
-0.622972
 20
0.763854
 40
0.003
 41
0.003
 10
-0.604831
 20
0.743815
 40
0.003
 41
0.003
  0
LWPOLYLINE
  5
4B9
100
AcDbEntity
  8
0
 62
     0
100
AcDbPolyline
 90
        2
 70
     0
 39
0.003
 10
-0.604831
 20
0.743815
 40
0.003
 41
0.003
 10
-0.585949
 20
0.725252
 40
0.003
 41
0.003
  0
LWPOLYLINE
  5
4BA
100
AcDbEntity
  8
0
 62
     0
100
AcDbPolyline
 90
        2
 70
     0
 39
0.003
 10
-0.585949
 20
0.725252
 40
0.003
 41
0.003
 10
-0.566386
 20
0.708327
 40
0.003
 41
0.003
  0
LWPOLYLINE
  5
4BB
100
AcDbEntity
  8
0
 62
     0
100
AcDbPolyline
 90
        2
 70
     0
 39
0.003
 10
-0.566386
 20
0.708327
 40
0.003
 41
0.003
 10
-0.546224
 20
0.693217
 40
0.003
 41
0.003
  0
LWPOLYLINE
  5
4BC
100
AcDbEntity
  8
0
 62
     0
100
AcDbPolyline
 90
        2
 70
     0
 39
0.003
 10
-0.546224
 20
0.693217
 40
0.003
 41
0.003
 10
-0.525508
 20
0.680067
 40
0.003
 41
0.003
  0
LWPOLYLINE
  5
4BD
100
AcDbEntity
  8
0
 62
     0
100
AcDbPolyline
 90
        2
 70
     0
 39
0.003
 10
-0.525508
 20
0.680067
 40
0.003
 41
0.003
 10
-0.504331
 20
0.669071
 40
0.003
 41
0.003
  0
LWPOLYLINE
  5
4BE
100
AcDbEntity
  8
0
 62
     0
100
AcDbPolyline
 90
        2
 70
     0
 39
0.003
 10
-0.504331
 20
0.669071
 40
0.003
 41
0.003
 10
-0.482748
 20
0.660382
 40
0.003
 41
0.003
  0
LWPOLYLINE
  5
4BF
100
AcDbEntity
  8
0
 62
     0
100
AcDbPolyline
 90
        2
 70
     0
 39
0.003
 10
-0.482748
 20
0.660382
 40
0.003
 41
0.003
 10
-0.460839
 20
0.654181
 40
0.003
 41
0.003
  0
LWPOLYLINE
  5
4C0
100
AcDbEntity
  8
0
 62
     0
100
AcDbPolyline
 90
        2
 70
     0
 39
0.003
 10
-0.460839
 20
0.654181
 40
0.003
 41
0.003
 10
-0.438657
 20
0.650622
 40
0.003
 41
0.003
  0
LWPOLYLINE
  5
4C1
100
AcDbEntity
  8
0
 62
     0
100
AcDbPolyline
 90
        2
 70
     0
 39
0.003
 10
-0.438657
 20
0.650622
 40
0.003
 41
0.003
 10
-0.416283
 20
0.649886
 40
0.003
 41
0.003
  0
LWPOLYLINE
  5
4C2
100
AcDbEntity
  8
0
 62
     0
100
AcDbPolyline
 90
        2
 70
     0
 39
0.003
 10
-0.416283
 20
0.649886
 40
0.003
 41
0.003
 10
-0.39378
 20
0.65213
 40
0.003
 41
0.003
  0
LWPOLYLINE
  5
4C3
100
AcDbEntity
  8
0
 62
     0
100
AcDbPolyline
 90
        2
 70
     0
 39
0.003
 10
-0.39378
 20
0.65213
 40
0.003
 41
0.003
 10
-0.371224
 20
0.657535
 40
0.003
 41
0.003
  0
LWPOLYLINE
  5
4C4
100
AcDbEntity
  8
0
 62
     0
100
AcDbPolyline
 90
        2
 70
     0
 39
0.003
 10
-0.371224
 20
0.657535
 40
0.003
 41
0.003
 10
-0.348669
 20
0.666248
 40
0.003
 41
0.003
  0
LWPOLYLINE
  5
4C5
100
AcDbEntity
  8
0
 62
     0
100
AcDbPolyline
 90
        2
 70
     0
 39
0.003
 10
-0.348669
 20
0.666248
 40
0.003
 41
0.003
 10
-0.326197
 20
0.678461
 40
0.003
 41
0.003
  0
LWPOLYLINE
  5
4C6
100
AcDbEntity
  8
0
 62
     0
100
AcDbPolyline
 90
        2
 70
     0
 39
0.003
 10
-0.326197
 20
0.678461
 40
0.003
 41
0.003
 10
-0.303874
 20
0.694327
 40
0.003
 41
0.003
  0
LWPOLYLINE
  5
4C7
100
AcDbEntity
  8
0
 62
     0
100
AcDbPolyline
 90
        2
 70
     0
 39
0.003
 10
-0.303874
 20
0.694327
 40
0.003
 41
0.003
 10
-0.281768
 20
0.714028
 40
0.003
 41
0.003
  0
LWPOLYLINE
  5
4C8
100
AcDbEntity
  8
0
 62
     0
100
AcDbPolyline
 90
        2
 70
     0
 39
0.003
 10
-0.281768
 20
0.714028
 40
0.003
 41
0.003
 10
-0.259941
 20
0.737717
 40
0.003
 41
0.003
  0
LWPOLYLINE
  5
4C9
100
AcDbEntity
  8
0
 62
     0
100
AcDbPolyline
 90
        2
 70
     0
 39
0.003
 10
-0.259941
 20
0.737717
 40
0.003
 41
0.003
 10
-0.238476
 20
0.765571
 40
0.003
 41
0.003
  0
LWPOLYLINE
  5
4CA
100
AcDbEntity
  8
0
 62
     0
100
AcDbPolyline
 90
        2
 70
     0
 39
0.003
 10
-0.238476
 20
0.765571
 40
0.003
 41
0.003
 10
-0.217429
 20
0.797756
 40
0.003
 41
0.003
  0
LWPOLYLINE
  5
4CB
100
AcDbEntity
  8
0
 62
     0
100
AcDbPolyline
 90
        2
 70
     0
 39
0.003
 10
-0.217429
 20
0.797756
 40
0.003
 41
0.003
 10
-0.196882
 20
0.834445
 40
0.003
 41
0.003
  0
LWPOLYLINE
  5
4CC
100
AcDbEntity
  8
0
 62
     9
100
AcDbPolyline
 90
        2
 70
     0
 39
0.003
 10
-0.757469
 20
1.057752
 40
0.003
 41
0.003
 10
-0.755492
 20
1.80676
 40
0.003
 41
0.003
  0
LWPOLYLINE
  5
4CD
100
AcDbEntity
  8
0
 62
     9
100
AcDbPolyline
 90
        2
 70
     0
 39
0.003
 10
-0.755492
 20
1.80676
 40
0.003
 41
0.003
 10
-1.927173
 20
1.80676
 40
0.003
 41
0.003
  0
LWPOLYLINE
  5
4CE
100
AcDbEntity
  8
0
 62
     9
100
AcDbPolyline
 90
        2
 70
     0
 39
0.003
 10
-1.927173
 20
1.80676
 40
0.003
 41
0.003
 10
-1.92915
 20
1.057752
 40
0.003
 41
0.003
  0
LWPOLYLINE
  5
4CF
100
AcDbEntity
  8
0
 62
     9
100
AcDbPolyline
 90
        2
 70
     0
 39
0.003
 10
-1.92915
 20
1.057752
 40
0.003
 41
0.003
 10
-0.757469
 20
1.057752
 40
0.003
 41
0.003
  0
LWPOLYLINE
  5
4D0
100
AcDbEntity
  8
0
 62
     0
100
AcDbPolyline
 90
        2
 70
     0
 39
0.003
 10
-0.757469
 20
1.057752
 40
0.003
 41
0.003
 10
-0.755492
 20
1.80676
 40
0.003
 41
0.003
  0
LWPOLYLINE
  5
4D1
100
AcDbEntity
  8
0
 62
     0
100
AcDbPolyline
 90
        2
 70
     0
 39
0.003
 10
-0.755492
 20
1.80676
 40
0.003
 41
0.003
 10
-1.927173
 20
1.80676
 40
0.003
 41
0.003
  0
LWPOLYLINE
  5
4D2
100
AcDbEntity
  8
0
 62
     0
100
AcDbPolyline
 90
        2
 70
     0
 39
0.003
 10
-1.927173
 20
1.80676
 40
0.003
 41
0.003
 10
-1.92915
 20
1.057752
 40
0.003
 41
0.003
  0
LWPOLYLINE
  5
4D3
100
AcDbEntity
  8
0
 62
     0
100
AcDbPolyline
 90
        2
 70
     0
 39
0.003
 10
-1.92915
 20
1.057752
 40
0.003
 41
0.003
 10
-0.757469
 20
1.057752
 40
0.003
 41
0.003
  0
SPLINE
  5
4D4
100
AcDbEntity
  8
0
 62
     7
100
AcDbSpline
210
0.0
220
0.0
230
1.0
 70
     0
 71
     3
 72
     0
 73
     0
 74
    16
 44
0.0000000001
 11
2.0643307086614171
 21
0.2147992125984252
 31
0.0
 11
2.0623818897637793
 21
0.2530433070866142
 31
0.0
 11
2.0566850393700786
 21
0.2902086614173228
 31
0.0
 11
2.0474173228346455
 21
0.3260944881889764
 31
0.0
 11
2.034779527559055
 21
0.3605236220472441
 31
0.0
 11
2.0189488188976377
 21
0.3932874015748031
 31
0.0
 11
2.0001338582677164
 21
0.4242125984251969
 31
0.0
 11
1.9785118110236219
 21
0.4530944881889764
 31
0.0
 11
1.9542834645669291
 21
0.479751968503937
 31
0.0
 11
1.9276259842519685
 21
0.5039803149606299
 31
0.0
 11
1.898744094488189
 21
0.5256023622047245
 31
0.0
 11
1.8678188976377952
 21
0.5444173228346457
 31
0.0
 11
1.8350551181102361
 21
0.560248031496063
 31
0.0
 11
1.8006259842519685
 21
0.5728858267716536
 31
0.0
 11
1.764740157480315
 21
0.5821535433070866
 31
0.0
 11
1.7275748031496063
 21
0.5878503937007874
 31
0.0
  0
LWPOLYLINE
  5
4D5
100
AcDbEntity
  8
0
 62
     7
100
AcDbPolyline
 90
        2
 70
     0
 39
0.003
 10
1.727575
 20
0.58785
 40
0.003
 41
0.003
 10
1.689331
 20
0.589799
 40
0.003
 41
0.003
  0
LWPOLYLINE
  5
4D6
100
AcDbEntity
  8
0
 62
     7
100
AcDbPolyline
 90
        2
 70
     0
 39
0.003
 10
1.689331
 20
0.589799
 40
0.003
 41
0.003
 10
1.68002
 20
0.736051
 40
0.003
 41
0.003
  0
LWPOLYLINE
  5
4D7
100
AcDbEntity
  8
0
 62
     7
100
AcDbPolyline
 90
        2
 70
     0
 39
0.003
 10
1.68002
 20
0.736051
 40
0.003
 41
0.003
 10
0.335713
 20
0.736051
 40
0.003
 41
0.003
  0
SPLINE
  5
4D8
100
AcDbEntity
  8
0
 62
     7
100
AcDbSpline
210
0.0
220
0.0
230
1.0
 70
     0
 71
     3
 72
     0
 73
     0
 74
    16
 44
0.0000000001
 11
0.3357125984251969
 21
0.7360511811023622
 31
0.0
 11
0.3208818897637795
 21
0.7985748031496063
 31
0.0
 11
0.3010354330708662
 21
0.8504094488188977
 31
0.0
 11
0.2769291338582677
 21
0.8922086614173228
 31
0.0
 11
0.2493346456692913
 21
0.9246338582677165
 31
0.0
 11
0.218996062992126
 21
0.9483425196850394
 31
0.0
 11
0.1866811023622047
 21
0.964
 31
0.0
 11
0.1531496062992126
 21
0.972259842519685
 31
0.0
 11
0.1191653543307087
 21
0.9737952755905512
 31
0.0
 11
0.0854763779527559
 21
0.969240157480315
 31
0.0
 11
0.0528582677165354
 21
0.9592795275590551
 31
0.0
 11
0.0220590551181102
 21
0.9445590551181102
 31
0.0
 11
-0.0061496062992126
 21
0.925748031496063
 31
0.0
 11
-0.031011811023622
 21
0.903492125984252
 31
0.0
 11
-0.0517795275590551
 21
0.8784685039370079
 31
0.0
 11
-0.0676811023622047
 21
0.8513267716535433
 31
0.0
  0
LWPOLYLINE
  5
4D9
100
AcDbEntity
  8
0
 62
     7
100
AcDbPolyline
 90
        2
 70
     0
 39
0.003
 10
-0.067681
 20
0.851327
 40
0.003
 41
0.003
 10
-0.077961
 20
0.822728
 40
0.003
 41
0.003
  0
LWPOLYLINE
  5
4DA
100
AcDbEntity
  8
0
 62
     7
100
AcDbPolyline
 90
        2
 70
     0
 39
0.003
 10
-0.077961
 20
0.822728
 40
0.003
 41
0.003
 10
-0.196882
 20
0.834445
 40
0.003
 41
0.003
  0
SPLINE
  5
4DB
100
AcDbEntity
  8
0
 62
     7
100
AcDbSpline
210
0.0
220
0.0
230
1.0
 70
     0
 71
     3
 72
     0
 73
     0
 74
    16
 44
0.0000000001
 11
-0.1968818897637795
 21
0.8344448818897637
 31
0.0
 11
-0.2384763779527559
 21
0.7655708661417323
 31
0.0
 11
-0.2817677165354331
 21
0.7140275590551181
 31
0.0
 11
-0.3261968503937008
 21
0.6784606299212599
 31
0.0
 11
-0.3712244094488189
 21
0.6575354330708662
 31
0.0
 11
-0.4162834645669291
 21
0.6498858267716535
 31
0.0
 11
-0.4608385826771654
 21
0.6541811023622047
 31
0.0
 11
-0.5043307086614173
 21
0.6690708661417323
 31
0.0
 11
-0.5462244094488189
 21
0.6932165354330708
 31
0.0
 11
-0.5859488188976378
 21
0.725251968503937
 31
0.0
 11
-0.6229724409448819
 21
0.7638543307086614
 31
0.0
 11
-0.6567322834645669
 21
0.8076574803149607
 31
0.0
 11
-0.6866968503937008
 21
0.8553346456692913
 31
0.0
 11
-0.7122952755905512
 21
0.9055236220472441
 31
0.0
 11
-0.732992125984252
 21
0.9568897637795276
 31
0.0
 11
-0.7482283464566929
 21
1.0080787401574802
 31
0.0
  0
LWPOLYLINE
  5
4DC
100
AcDbEntity
  8
0
 62
     7
100
AcDbPolyline
 90
        2
 70
     0
 39
0.003
 10
-0.748228
 20
1.008079
 40
0.003
 41
0.003
 10
-0.757469
 20
1.057752
 40
0.003
 41
0.003
  0
LWPOLYLINE
  5
4DD
100
AcDbEntity
  8
0
 62
     7
100
AcDbPolyline
 90
        2
 70
     0
 39
0.003
 10
-0.757469
 20
1.057752
 40
0.003
 41
0.003
 10
-1.92915
 20
1.057752
 40
0.003
 41
0.003
  0
LWPOLYLINE
  5
4DE
100
AcDbEntity
  8
0
 62
     7
100
AcDbPolyline
 90
        2
 70
     0
 39
0.003
 10
-1.92915
 20
1.057752
 40
0.003
 41
0.003
 10
-1.92915
 20
0.214799
 40
0.003
 41
0.003
  0
LWPOLYLINE
  5
4DF
100
AcDbEntity
  8
0
 62
     7
100
AcDbPolyline
 90
        2
 70
     0
 39
0.003
 10
-1.92915
 20
0.214799
 40
0.003
 41
0.003
 10
2.064331
 20
0.214799
 40
0.003
 41
0.003
  0
MTEXT
  5
4E0
100
AcDbEntity
  8
0
 62
     0
100
AcDbMText
 10
-0.678472
 20
0.261441
 30
0.0
 40
0.166665
 41
0.0
 71
     1
 72
     1
  1
{\fBookman Old Style|b0|i0|c0|p32;BA  1464}
 73
     1
 44
1.0
  0
MTEXT
  5
4E1
100
AcDbEntity
  8
0
 62
     0
100
AcDbMText
 10
-0.678472
 20
0.073941
 30
0.0
 40
0.166665
 41
0.0
 71
     1
 72
     1
  1
{\fBookman Old Style|b0|i0|c0|p32;7/8" x 4"}
 73
     1
 44
1.0
  0
MTEXT
  5
4E2
100
AcDbEntity
  8
0
 62
     0
100
AcDbMText
 10
-2.148134
 20
2.973181
 30
0.0
 40
0.166665
 41
0.0
 71
     1
 72
     1
  1
{\fBookman Old Style|b0|i0|c0|p32;BA  1464}
 73
     1
 44
1.0
  0
MTEXT
  5
4E3
100
AcDbEntity
  8
0
 62
     0
100
AcDbMText
 10
-2.148134
 20
2.785681
 30
0.0
 40
0.166665
 41
0.0
 71
     1
 72
     1
  1
{\fBookman Old Style|b0|i0|c0|p32;7/8" x 4"}
 73
     1
 44
1.0
  0
ENDSEC
  0
SECTION
  2
OBJECTS
  0
DICTIONARY
  5
19
100
AcDbDictionary
280
     0
281
     1
  3
ACAD_GROUP
350
1A
  3
ACAD_MLINESTYLE
350
1B
  3
ACAD_LAYOUT
350
1E
  3
ACAD_PLOTSETTINGS
350
22
  3
ACAD_PLOTSTYLENAME
350
1F
  3
ACAD_WIPEOUT_VARS
350
23
  0
DICTIONARY
  5
1A
102
{ACAD_REACTORS
330
19
102
}
100
AcDbDictionary
280
     0
281
     1
  0
DICTIONARY
  5
1B
102
{ACAD_REACTORS
330
19
102
}
100
AcDbDictionary
280
     0
281
     1
  3
Standard
350
1C
  0
MLINESTYLE
  5
1C
102
{ACAD_REACTORS
330
1B
102
}
100
AcDbMlineStyle
  2
Standard
 70
     0
  3

 62
     0
 51
90.0
 52
90.0
 71
     2
 49
0.5
 62
   256
  6
BYLAYER
 49
-0.5
 62
   256
  6
BYLAYER
  0
ACDBDICTIONARYWDFLT
  5
1F
102
{ACAD_REACTORS
330
19
102
}
100
AcDbDictionary
281
     1
  3
Normal
350
1D
100
AcDbDictionaryWithDefault
340
1D
  0
ACDBPLACEHOLDER
  5
1D
102
{ACAD_REACTORS
330
1F
102
}
  0
LAYOUT
  5
20
102
{ACAD_REACTORS
330
1E
102
}
100
AcDbPlotSettings
  1

  2

  4

  6

 40
0.0
 41
0.0
 42
0.0
 43
0.0
 44
0.0
 45
0.0
 46
0.0
 47
0.0
 48
0.0
 49
0.0
140
0.0
141
0.0
142
1.0
143
1.0
 70
  1024
 72
     0
 73
     0
 74
     0
  7

 75
     0
147
1.0
148
0.0
149
0.0
100
AcDbLayout
  1
Model
 70
     0
 71
     0
 10
0.0
 20
0.0
 11
0.0
 21
0.0
 12
0.0
 22
0.0
 32
0.0
 14
0.0
 24
0.0
 34
0.0
 15
0.0
 25
0.0
 35
0.0
146
0.0
 13
0.0
 23
0.0
 33
0.0
 16
0.0
 26
0.0
 36
0.0
 17
0.0
 27
0.0
 37
0.0
 76
     0
330
A
331
0
345
0
346
0
  0
LAYOUT
  5
21
102
{ACAD_REACTORS
330
1E
102
}
100
AcDbPlotSettings
  1

  2

  4

  6

 40
0.0
 41
0.0
 42
0.0
 43
0.0
 44
0.0
 45
0.0
 46
0.0
 47
0.0
 48
0.0
 49
0.0
140
0.0
141
0.0
142
1.0
143
1.0
 70
     0
 72
     0
 73
     0
 74
     0
  7

 75
     0
147
1.0
148
0.0
149
0.0
100
AcDbLayout
  1
Layout1
 70
     0
 71
     0
 10
0.0
 20
0.0
 11
0.0
 21
0.0
 12
0.0
 22
0.0
 32
0.0
 14
0.0
 24
0.0
 34
0.0
 15
0.0
 25
0.0
 35
0.0
146
0.0
 13
0.0
 23
0.0
 33
0.0
 16
0.0
 26
0.0
 36
0.0
 17
0.0
 27
0.0
 37
0.0
 76
     0
330
B
331
0
345
0
346
0
  0
DICTIONARY
  5
1E
102
{ACAD_REACTORS
330
19
102
}
100
AcDbDictionary
280
     0
281
     1
  3
Layout1
350
21
  3
Model
350
20
  0
DICTIONARY
  5
22
102
{ACAD_REACTORS
330
19
102
}
100
AcDbDictionary
280
     0
281
     1
  0
WIPEOUTVARIABLES
  5
23
100
AcDbWipeoutVariables
 70
     1
  0
ENDSEC
  0
EOF
