  0
SECTION
  2
HEADER
  9
$ACADVER
  1
AC1015
  9
$ACADMAINTVER
 70
     6
  9
$DWGCODEPAGE
  3
DOS850
  9
$INSBASE
 10
0.0
 20
0.0
 30
0.0
  9
$EXTMIN
 10
1.000000E+20
 20
1.000000E+20
 30
1.000000E+20
  9
$EXTMAX
 10
-1.000000E+20
 20
-1.000000E+20
 30
-1.000000E+20
  9
$LIMMIN
 10
0.0
 20
0.0
  9
$LIMMAX
 10
0.0
 20
0.0
  9
$ORTHOMODE
 70
     0
  9
$REGENMODE
 70
     1
  9
$FILLMODE
 70
     1
  9
$QTEXTMODE
 70
     0
  9
$MIRRTEXT
 70
     1
  9
$LTSCALE
 40
1.0
  9
$ATTMODE
 70
     1
  9
$TEXTSIZE
 40
0.2
  9
$TRACEWID
 40
0.05
  9
$TEXTSTYLE
  7
Standard
  9
$CLAYER
  8
0
  9
$CELTYPE
  6
Continuous
  9
$CECOLOR
 62
   256
  9
$CELTSCALE
 40
1.0
  9
$DISPSILH
 70
     0
  9
$DIMSCALE
 40
1.0
  9
$DIMASZ
 40
0.18
  9
$DIMEXO
 40
0.0625
  9
$DIMDLI
 40
0.38
  9
$DIMRND
 40
0.0
  9
$DIMDLE
 40
0.0
  9
$DIMEXE
 40
0.18
  9
$DIMTP
 40
0.0
  9
$DIMTM
 40
0.0
  9
$DIMTXT
 40
0.18
  9
$DIMCEN
 40
0.09
  9
$DIMTSZ
 40
0.0
  9
$DIMTOL
 70
     0
  9
$DIMLIM
 70
     0
  9
$DIMTIH
 70
     1
  9
$DIMTOH
 70
     1
  9
$DIMSE1
 70
     0
  9
$DIMSE2
 70
     0
  9
$DIMTAD
 70
     0
  9
$DIMZIN
 70
     0
  9
$DIMBLK
  1

  9
$DIMASO
 70
     1
  9
$DIMSHO
 70
     1
  9
$DIMPOST
  1

  9
$DIMAPOST
  1

  9
$DIMALT
 70
     0
  9
$DIMALTD
 70
     2
  9
$DIMALTF
 40
25.4
  9
$DIMLFAC
 40
1.0
  9
$DIMTOFL
 70
     0
  9
$DIMTVP
 40
0.0
  9
$DIMTIX
 70
     0
  9
$DIMSOXD
 70
     0
  9
$DIMSAH
 70
     0
  9
$DIMBLK1
  1

  9
$DIMBLK2
  1

  9
$DIMSTYLE
  2
Standard
  9
$DIMCLRD
 70
     0
  9
$DIMCLRE
 70
     0
  9
$DIMCLRT
 70
     0
  9
$DIMTFAC
 40
1.0
  9
$DIMGAP
 40
0.09
  9
$DIMJUST
 70
     0
  9
$DIMSD1
 70
     0
  9
$DIMSD2
 70
     0
  9
$DIMTOLJ
 70
     1
  9
$DIMTZIN
 70
     0
  9
$DIMALTZ
 70
     0
  9
$DIMALTTZ
 70
     0
  9
$DIMUPT
 70
     0
  9
$DIMDEC
 70
     4
  9
$DIMTDEC
 70
     4
  9
$DIMALTU
 70
     2
  9
$DIMALTTD
 70
     2
  9
$DIMTXSTY
  7
Standard
  9
$DIMAUNIT
 70
     0
  9
$DIMADEC
 70
     0
  9
$DIMALTRND
 40
0.0
  9
$DIMAZIN
 70
     0
  9
$DIMDSEP
 70
     0
  9
$DIMATFIT
 70
     3
  9
$DIMFRAC
 70
     0
  9
$DIMLDRBLK
  1

  9
$DIMLUNIT
 70
     2
  9
$DIMLWD
 70
     0
  9
$DIMLWE
 70
     0
  9
$DIMTMOVE
 70
     0
  9
$LUNITS
 70
     2
  9
$LUPREC
 70
     4
  9
$SKETCHINC
 40
0.1
  9
$FILLETRAD
 40
0.0
  9
$AUNITS
 70
     0
  9
$AUPREC
 70
     0
  9
$MENU
  1
acad
  9
$ELEVATION
 40
0.0
  9
$PELEVATION
 40
0.0
  9
$THICKNESS
 40
0.0
  9
$LIMCHECK
 70
     0
  9
$CHAMFERA
 40
0.0
  9
$CHAMFERB
 40
0.0
  9
$CHAMFERC
 40
0.0
  9
$CHAMFERD
 40
0.0
  9
$SKPOLY
 70
     0
  9
$TDCREATE
 40
0.000000000
  9
$TDUCREATE
 40
0.000000000
  9
$TDUPDATE
 40
0.000000000
  9
$TDUUPDATE
 40
0.000000000
  9
$TDINDWG
 40
0.0000000000
  9
$TDUSRTIMER
 40
0.0000000000
  9
$USRTIMER
 70
     1
  9
$ANGBASE
 50
0.0
  9
$ANGDIR
 70
     0
  9
$PDMODE
 70
     0
  9
$PDSIZE
 40
0.0
  9
$PLINEWID
 40
0.0
  9
$SPLFRAME
 70
     0
  9
$SPLINETYPE
 70
     6
  9
$SPLINESEGS
 70
     8
  9
$HANDSEED
  5
4CE
  9
$SURFTAB1
 70
     6
  9
$SURFTAB2
 70
     6
  9
$SURFTYPE
 70
     6
  9
$SURFU
 70
     6
  9
$SURFV
 70
     6
  9
$UCSBASE
  2

  9
$UCSNAME
  2

  9
$UCSORG
 10
0.0
 20
0.0
 30
0.0
  9
$UCSXDIR
 10
1.0
 20
0.0
 30
0.0
  9
$UCSYDIR
 10
0.0
 20
1.0
 30
0.0
  9
$UCSORTHOREF
  2

  9
$UCSORTHOVIEW
 70
     0
  9
$UCSORGTOP
 10
0.0
 20
0.0
 30
0.0
  9
$UCSORGBOTTOM
 10
0.0
 20
0.0
 30
0.0
  9
$UCSORGLEFT
 10
0.0
 20
0.0
 30
0.0
  9
$UCSORGRIGHT
 10
0.0
 20
0.0
 30
0.0
  9
$UCSORGFRONT
 10
0.0
 20
0.0
 30
0.0
  9
$UCSORGBACK
 10
0.0
 20
0.0
 30
0.0
  9
$PUCSBASE
  2

  9
$PUCSNAME
  2

  9
$PUCSORG
 10
0.0
 20
0.0
 30
0.0
  9
$PUCSXDIR
 10
1.0
 20
0.0
 30
0.0
  9
$PUCSYDIR
 10
0.0
 20
1.0
 30
0.0
  9
$PUCSORTHOREF
  2

  9
$PUCSORTHOVIEW
 70
     0
  9
$PUCSORGTOP
 10
0.0
 20
0.0
 30
0.0
  9
$PUCSORGBOTTOM
 10
0.0
 20
0.0
 30
0.0
  9
$PUCSORGLEFT
 10
0.0
 20
0.0
 30
0.0
  9
$PUCSORGRIGHT
 10
0.0
 20
0.0
 30
0.0
  9
$PUCSORGFRONT
 10
0.0
 20
0.0
 30
0.0
  9
$PUCSORGBACK
 10
0.0
 20
0.0
 30
0.0
  9
$USERI1
 70
     0
  9
$USERI2
 70
     0
  9
$USERI3
 70
     0
  9
$USERI4
 70
     0
  9
$USERI5
 70
     0
  9
$USERR1
 40
0.0
  9
$USERR2
 40
0.0
  9
$USERR3
 40
0.0
  9
$USERR4
 40
0.0
  9
$USERR5
 40
0.0
  9
$WORLDVIEW
 70
     1
  9
$SHADEDGE
 70
     3
  9
$SHADEDIF
 70
    70
  9
$TILEMODE
 70
     1
  9
$MAXACTVP
 70
    16
  9
$PINSBASE
 10
0.0
 20
0.0
 30
0.0
  9
$PLIMCHECK
 70
     0
  9
$PEXTMIN
 10
1.000000E+20
 20
1.000000E+20
 30
1.000000E+20
  9
$PEXTMAX
 10
-1.000000E+20
 20
-1.000000E+20
 30
-1.000000E+20
  9
$PLIMMIN
 10
0.0
 20
0.0
  9
$PLIMMAX
 10
12.0
 20
9.0
  9
$UNITMODE
 70
     0
  9
$VISRETAIN
 70
     0
  9
$PLINEGEN
 70
     1
  9
$PSLTSCALE
 70
     0
  9
$TREEDEPTH
 70
  3020
  9
$CMLSTYLE
  2
Standard
  9
$CMLJUST
 70
     0
  9
$CMLSCALE
 40
1.0
  9
$PROXYGRAPHICS
 70
     0
  9
$MEASUREMENT
 70
     0
  9
$CELWEIGHT
370
     0
  9
$ENDCAPS
280
     0
  9
$JOINSTYLE
280
     0
  9
$LWDISPLAY
290
     0
  9
$INSUNITS
 70
     0
  9
$HYPERLINKBASE
  1

  9
$XEDIT
290
     1
  9
$CEPSNTYPE
380
     0
  9
$PSTYLEMODE
290
     1
  9
$FINGERPRINTGUID
  2

  9
$VERSIONGUID
  2

  9
$EXTNAMES
290
     1
  9
$PSVPSCALE
 40
0.0
  0
ENDSEC
  0
SECTION
  2
CLASSES
  0
CLASS
  1
LWPOLYLINE
  2
AcDbPolyline
  3
AutoCAD 2000
 90
        0
280
     0
281
     1
  0
CLASS
  1
IMAGE
  2
AcDbRasterImage
  3
ISM
 90
    32895
280
     0
281
     1
  0
CLASS
  1
OLE2FRAME
  2
AcDbOle2Frame
  3
AutoCAD 2000
 90
    32768
280
     0
281
     1
  0
CLASS
  1
HATCH
  2
AcDbHatch
  3
AutoCAD 2000
 90
    32768
280
     0
281
     1
  0
CLASS
  1
DICTIONARYVAR
  2
AcDbDictionaryVar
  3
AutoCAD 2000
 90
    32768
280
     0
281
     0
  0
CLASS
  1
RASTERVARIABLES
  2
AcDbRasterVariables
  3
ISM
 90
    32768
280
     0
281
     0
  0
CLASS
  1
IMAGEDEF
  2
AcDbRasterImageDef
  3
ISM
 90
    32768
280
     0
281
     0
  0
CLASS
  1
IMAGEDEF_REACTOR
  2
AcDbRasterImageDefReactor
  3
ISM
 90
    32769
280
     0
281
     0
  0
CLASS
  1
IDBUFFER
  2
AcDbIdBuffer
  3
AutoCAD 2000
 90
    32768
280
     0
281
     0
  0
CLASS
  1
SPATIAL_FILTER
  2
AcDbSpatialFilter
  3
AutoCAD 2000
 90
    32768
280
     0
281
     0
  0
CLASS
  1
XRECORD
  2
AcDbXrecord
  3
AutoCAD 2000
 90
    32768
280
     0
281
     0
  0
CLASS
  1
SORTENTSTABLE
  2
AcDbSortentsTable
  3
AutoCAD 2000
 90
    32768
280
     0
281
     0
  0
CLASS
  1
LAYER_INDEX
  2
AcDbLayerIndex
  3
AutoCAD 2000
 90
    32768
280
     0
281
     0
  0
CLASS
  1
SPATIAL_INDEX
  2
AcDbSpatialIndex
  3
AutoCAD 2000
 90
    32768
280
     0
281
     0
  0
CLASS
  1
OBJECT_PTR
  2
CAseDLPNTableRecord
  3
"ASE-LPNTableRecord"
 90
    32769
280
     0
281
     0
  0
CLASS
  1
LAYOUT
  2
AcDbLayout
  3
AutoCAD 2000
 90
        0
280
     0
281
     0
  0
CLASS
  1
PLOTSETTINGS
  2
AcDbPlotSettings
  3
AutoCAD 2000
 90
    32768
280
     0
281
     0
  0
CLASS
  1
ACDBDICTIONARYWDFLT
  2
AcDbDictionaryWithDefault
  3
AutoCAD 2000
 90
        0
280
     0
281
     0
  0
CLASS
  1
ACDBPLACEHOLDER
  2
AcDbPlaceHolder
  3
AutoCAD 2000
 90
        0
280
     0
281
     0
  0
CLASS
  1
VBA_PROJECT
  2
AcDbVbaProject
  3
acadvba
 90
    32768
280
     0
281
     0
  0
CLASS
  1
WIPEOUT
  2
AcDbWipeout
  3
WipeOut|AutoCAD Express Tool|expresstools@autodesk.com
 90
    32895
280
     0
281
     1
  0
CLASS
  1
WIPEOUTVARIABLES
  2
AcDbWipeoutVariables
  3
WipeOut|AutoCAD Express Tool|expresstools@autodesk.com
 90
        0
280
     0
281
     0
  0
CLASS
  1
RTEXT
  2
RText
  3
RText|AutoCAD Express Tool|expresstools@autodesk.com
 90
    32768
280
     0
281
     1
  0
CLASS
  1
ARCALIGNEDTEXT
  2
AcDbArcAlignedText
  3
ATEXT|AutoCAD Express Tool|expresstools@autodesk.com
 90
    32768
280
     0
281
     1
  0
ENDSEC
  0
SECTION
  2
TABLES
  0
TABLE
  2
VPORT
  5
7
100
AcDbSymbolTable
 70
     1
  0
VPORT
  5
15
100
AcDbSymbolTableRecord
100
AcDbViewportTableRecord
  2
*ACTIVE
 70
     0
 10
0.0
 20
0.0
 11
1.0
 21
1.0
 12
6.591288
 22
4.579184
 13
0.0
 23
0.0
 14
1.0
 24
1.0
 15
0.0
 25
0.0
 16
0.0
 26
0.0
 36
1.0
 17
0.0
 27
0.0
 37
0.0
 40
9.158369
 41
0.688564
 42
50.0
 43
0.0
 44
0.0
 50
0.0
 51
0.0
 71
     0
 72
   100
 73
     1
 74
     1
 75
     0
 76
     0
 77
     0
 78
     0
281
     0
 65
     0
110
0.0
120
0.0
130
0.0
111
1.0
121
0.0
131
0.0
112
0.0
122
1.0
132
0.0
345
0
346
0
 79
     0
146
0.0
  0
ENDTAB
  0
TABLE
  2
LTYPE
  5
4
100
AcDbSymbolTable
 70
     3
  0
LTYPE
  5
11
100
AcDbSymbolTableRecord
100
AcDbLinetypeTableRecord
  2
ByBlock
 70
    64
  3

 72
    65
 73
     0
 40
0.0
  0
LTYPE
  5
12
100
AcDbSymbolTableRecord
100
AcDbLinetypeTableRecord
  2
ByLayer
 70
    64
  3

 72
    65
 73
     0
 40
0.0
  0
LTYPE
  5
13
100
AcDbSymbolTableRecord
100
AcDbLinetypeTableRecord
  2
Continuous
 70
    64
  3
Solid line
 72
    65
 73
     0
 40
0.0
  0
ENDTAB
  0
TABLE
  2
LAYER
  5
2
100
AcDbSymbolTable
 70
     1
  0
LAYER
  5
14
100
AcDbSymbolTableRecord
100
AcDbLayerTableRecord
  2
0
 70
     0
 62
     7
  6
Continuous
290
     1
370
    -3
390
1D
  0
ENDTAB
  0
TABLE
  2
STYLE
  5
3
100
AcDbSymbolTable
 70
     1
  0
STYLE
  5
17
100
AcDbSymbolTableRecord
100
AcDbTextStyleTableRecord
  2
Standard
 70
     0
 40
0.0
 41
1.0
 50
0.0
 71
     0
 42
0.0
  3
txt
  4

  0
ENDTAB
  0
TABLE
  2
VIEW
  5
5
100
AcDbSymbolTable
 70
     0
  0
ENDTAB
  0
TABLE
  2
UCS
  5
6
100
AcDbSymbolTable
 70
     0
  0
ENDTAB
  0
TABLE
  2
APPID
  5
8
100
AcDbSymbolTable
 70
     1
  0
APPID
  5
16
100
AcDbSymbolTableRecord
100
AcDbRegAppTableRecord
  2
ACAD
 70
     0
  0
ENDTAB
  0
TABLE
  2
DIMSTYLE
  5
9
100
AcDbSymbolTable
 70
     1
100
AcDbDimStyleTable
 71
     0
  0
DIMSTYLE
105
18
100
AcDbSymbolTableRecord
100
AcDbDimStyleTableRecord
  2
Standard
 70
     0
  3

  4

 40
1.0
 41
0.18
 42
0.0625
 43
0.38
 44
0.18
 45
0.0
 46
0.0
 47
0.0
 48
0.0
 71
     0
 72
     0
 73
     1
 74
     1
 75
     0
 76
     0
 77
     0
 78
     0
 79
     0
140
0.18
141
0.09
142
0.0
143
25.4
144
1.0
145
0.0
146
1.0
147
0.09
148
0.0
170
     0
171
     2
172
     0
173
     0
174
     0
175
     0
176
     0
177
     0
178
     0
179
     0
271
     4
272
     4
273
     2
274
     2
275
     0
276
     0
277
     2
278
    46
279
     0
280
     0
281
     0
282
     0
283
     1
284
     0
285
     0
286
     0
288
     0
340
17
341
0
342
0
343
0
344
0
371
    -2
372
    -2
  0
ENDTAB
  0
TABLE
  2
BLOCK_RECORD
  5
1
100
AcDbSymbolTable
 70
     0
  0
BLOCK_RECORD
  5
A
100
AcDbSymbolTableRecord
100
AcDbBlockTableRecord
  2
*MODEL_SPACE
340
20
  0
BLOCK_RECORD
  5
B
100
AcDbSymbolTableRecord
100
AcDbBlockTableRecord
  2
*PAPER_SPACE
340
21
  0
ENDTAB
  0
ENDSEC
  0
SECTION
  2
BLOCKS
  0
BLOCK
  5
D
100
AcDbEntity
  8
0
100
AcDbBlockBegin
  2
*MODEL_SPACE
 70
     0
 10
0.0
 20
0.0
 30
0.0
  3
*MODEL_SPACE
  1

  0
ENDBLK
  5
E
100
AcDbEntity
  8
0
100
AcDbBlockEnd
  0
BLOCK
  5
F
100
AcDbEntity
 67
     1
  8
0
100
AcDbBlockBegin
  2
*PAPER_SPACE
 70
     0
 10
0.0
 20
0.0
 30
0.0
  3
*PAPER_SPACE
  1

  0
ENDBLK
  5
10
100
AcDbEntity
 67
     1
  8
0
100
AcDbBlockEnd
  0
ENDSEC
  0
SECTION
  2
ENTITIES
  0
LWPOLYLINE
  5
24
100
AcDbEntity
  8
0
 62
     0
100
AcDbPolyline
 90
        2
 70
     0
 39
0.003
 10
-1.072957
 20
3.13265
 40
0.003
 41
0.003
 10
-1.119358
 20
3.13265
 40
0.003
 41
0.003
  0
LWPOLYLINE
  5
25
100
AcDbEntity
  8
0
 62
     0
100
AcDbPolyline
 90
        2
 70
     0
 39
0.003
 10
-1.119358
 20
3.13265
 40
0.003
 41
0.003
 10
-1.119358
 20
2.142618
 40
0.003
 41
0.003
  0
LWPOLYLINE
  5
26
100
AcDbEntity
  8
0
 62
     0
100
AcDbPolyline
 90
        2
 70
     0
 39
0.003
 10
-1.119358
 20
2.142618
 40
0.003
 41
0.003
 10
0.274768
 20
2.142618
 40
0.003
 41
0.003
  0
LWPOLYLINE
  5
27
100
AcDbEntity
  8
0
 62
     0
100
AcDbPolyline
 90
        2
 70
     0
 39
0.003
 10
0.274768
 20
2.142618
 40
0.003
 41
0.003
 10
0.274768
 20
2.915449
 40
0.003
 41
0.003
  0
LWPOLYLINE
  5
28
100
AcDbEntity
  8
0
 62
     0
100
AcDbPolyline
 90
        2
 70
     0
 39
0.003
 10
0.274768
 20
2.915449
 40
0.003
 41
0.003
 10
0.274768
 20
2.99622
 40
0.003
 41
0.003
  0
LWPOLYLINE
  5
29
100
AcDbEntity
  8
0
 62
     0
100
AcDbPolyline
 90
        2
 70
     0
 39
0.003
 10
0.274768
 20
2.99622
 40
0.003
 41
0.003
 10
0.633437
 20
2.996268
 40
0.003
 41
0.003
  0
SPLINE
  5
2A
100
AcDbEntity
  8
0
 62
     0
100
AcDbSpline
210
0.0
220
0.0
230
1.0
 70
     0
 71
     3
 72
     0
 73
     0
 74
    32
 44
0.0000000001
 11
0.6334370078740158
 21
2.9962677165354332
 31
0.0
 11
0.6274015748031496
 21
3.0303779527559054
 31
0.0
 11
0.6194133858267716
 21
3.0602401574803149
 31
0.0
 11
0.6094409448818897
 21
3.0862322834645668
 31
0.0
 11
0.5974606299212598
 21
3.108744094488189
 31
0.0
 11
0.5834330708661417
 21
3.1281456692913387
 31
0.0
 11
0.5673385826771653
 21
3.1448346456692913
 31
0.0
 11
0.5491377952755906
 21
3.1591811023622047
 31
0.0
 11
0.5288149606299213
 21
3.1715787401574804
 31
0.0
 11
0.5063228346456693
 21
3.1823976377952756
 31
0.0
 11
0.4816456692913386
 21
3.192035433070866
 31
0.0
 11
0.454751968503937
 21
3.2008661417322837
 31
0.0
 11
0.4256181102362205
 21
3.2092795275590551
 31
0.0
 11
0.3942007874015748
 21
3.2176496062992128
 31
0.0
 11
0.3604803149606299
 21
3.2263700787401577
 31
0.0
 11
0.3244251968503937
 21
3.2358188976377953
 31
0.0
 11
0.2860118110236221
 21
3.2463818897637795
 31
0.0
 11
0.2489251968503937
 21
3.2576771653543308
 31
0.0
 11
0.2166417322834646
 21
3.2691456692913388
 31
0.0
 11
0.1887755905511811
 21
3.2808582677165354
 31
0.0
 11
0.1649448818897638
 21
3.2928937007874017
 31
0.0
 11
0.144755905511811
 21
3.3053188976377954
 31
0.0
 11
0.1278346456692913
 21
3.3182244094488187
 31
0.0
 11
0.1137913385826772
 21
3.3316732283464567
 31
0.0
 11
0.102251968503937
 21
3.3457559055118109
 31
0.0
 11
0.0928149606299213
 21
3.360527559055118
 31
0.0
 11
0.0851102362204724
 21
3.3760826771653543
 31
0.0
 11
0.078744094488189
 21
3.3924881889763778
 31
0.0
 11
0.0733464566929134
 21
3.4098228346456692
 31
0.0
 11
0.0685196850393701
 21
3.4281574803149608
 31
0.0
 11
0.0638858267716535
 21
3.4475826771653542
 31
0.0
 11
0.0590551181102362
 21
3.4681614173228348
 31
0.0
  0
LWPOLYLINE
  5
2B
100
AcDbEntity
  8
0
 62
     0
100
AcDbPolyline
 90
        2
 70
     0
 39
0.003
 10
0.059055
 20
3.468161
 40
0.003
 41
0.003
 10
0.053657
 20
3.48998
 40
0.003
 41
0.003
  0
LWPOLYLINE
  5
2C
100
AcDbEntity
  8
0
 62
     0
100
AcDbPolyline
 90
        2
 70
     0
 39
0.003
 10
0.053657
 20
3.48998
 40
0.003
 41
0.003
 10
-0.851528
 20
3.48998
 40
0.003
 41
0.003
  0
LWPOLYLINE
  5
2D
100
AcDbEntity
  8
0
 62
     0
100
AcDbPolyline
 90
        2
 70
     0
 39
0.003
 10
-0.851528
 20
3.48998
 40
0.003
 41
0.003
 10
-0.851528
 20
3.419807
 40
0.003
 41
0.003
  0
SPLINE
  5
2E
100
AcDbEntity
  8
0
 62
     0
100
AcDbSpline
210
0.0
220
0.0
230
1.0
 70
     0
 71
     3
 72
     0
 73
     0
 74
    17
 44
0.0000000001
 11
-0.8515275590551181
 21
3.4198070866141732
 31
0.0
 11
-0.8856535433070866
 21
3.4181771653543307
 31
0.0
 11
-0.9160944881889764
 21
3.4139960629921258
 31
0.0
 11
-0.9430511811023622
 21
3.4073346456692915
 31
0.0
 11
-0.966744094488189
 21
3.3982834645669291
 31
0.0
 11
-0.9873740157480315
 21
3.3869133858267717
 31
0.0
 11
-1.0051614173228347
 21
3.3733188976377955
 31
0.0
 11
-1.0203110236220472
 21
3.3575748031496064
 31
0.0
 11
-1.0330433070866141
 21
3.3397677165354329
 31
0.0
 11
-1.0435551181102363
 21
3.319964566929134
 31
0.0
 11
-1.0520708661417322
 21
3.298259842519685
 31
0.0
 11
-1.0587913385826773
 21
3.2747322834645671
 31
0.0
 11
-1.0639370078740158
 21
3.2494724409448819
 31
0.0
 11
-1.0677125984251969
 21
3.2225433070866143
 31
0.0
 11
-1.0703346456692913
 21
3.194047244094488
 31
0.0
 11
-1.0720118110236221
 21
3.1640511811023622
 31
0.0
 11
-1.0729566929133858
 21
3.1326496062992124
 31
0.0
  0
MTEXT
  5
2F
100
AcDbEntity
  8
0
 62
     0
100
AcDbMText
 10
-1.807252
 20
2.211693
 30
0.0
 40
0.166665
 41
0.0
 71
     1
 72
     1
  1
{\fBookman Old Style|b0|i0|c0|p32;BA  1463}
 73
     1
 44
1.0
  0
MTEXT
  5
30
100
AcDbEntity
  8
0
 62
     0
100
AcDbMText
 10
-1.807252
 20
2.024193
 30
0.0
 40
0.166665
 41
0.0
 71
     1
 72
     1
  1
{\fBookman Old Style|b0|i0|c0|p32;1-5/16" x 1-3/4"}
 73
     1
 44
1.0
  0
LWPOLYLINE
  5
31
100
AcDbEntity
  8
0
 62
     9
100
AcDbPolyline
 90
        2
 70
     0
 39
0.003
 10
-1.062898
 20
0.211457
 40
0.003
 41
0.003
 10
-1.066374
 20
0.965
 40
0.003
 41
0.003
  0
LWPOLYLINE
  5
32
100
AcDbEntity
  8
0
 62
     9
100
AcDbPolyline
 90
        2
 70
     0
 39
0.003
 10
-1.066374
 20
0.965
 40
0.003
 41
0.003
 10
-1.112776
 20
0.965
 40
0.003
 41
0.003
  0
LWPOLYLINE
  5
33
100
AcDbEntity
  8
0
 62
     9
100
AcDbPolyline
 90
        2
 70
     0
 39
0.003
 10
-1.112776
 20
0.965
 40
0.003
 41
0.003
 10
-1.109299
 20
0.211457
 40
0.003
 41
0.003
  0
LWPOLYLINE
  5
34
100
AcDbEntity
  8
0
 62
     9
100
AcDbPolyline
 90
        2
 70
     0
 39
0.003
 10
-1.109299
 20
0.211457
 40
0.003
 41
0.003
 10
-1.062898
 20
0.211457
 40
0.003
 41
0.003
  0
LWPOLYLINE
  5
35
100
AcDbEntity
  8
0
 62
     0
100
AcDbPolyline
 90
        2
 70
     0
 39
0.003
 10
-1.062898
 20
0.211457
 40
0.003
 41
0.003
 10
-1.066374
 20
0.965
 40
0.003
 41
0.003
  0
LWPOLYLINE
  5
36
100
AcDbEntity
  8
0
 62
     0
100
AcDbPolyline
 90
        2
 70
     0
 39
0.003
 10
-1.066374
 20
0.965
 40
0.003
 41
0.003
 10
-1.112776
 20
0.965
 40
0.003
 41
0.003
  0
LWPOLYLINE
  5
37
100
AcDbEntity
  8
0
 62
     0
100
AcDbPolyline
 90
        2
 70
     0
 39
0.003
 10
-1.112776
 20
0.965
 40
0.003
 41
0.003
 10
-1.109299
 20
0.211457
 40
0.003
 41
0.003
  0
LWPOLYLINE
  5
38
100
AcDbEntity
  8
0
 62
     0
100
AcDbPolyline
 90
        2
 70
     0
 39
0.003
 10
-1.109299
 20
0.211457
 40
0.003
 41
0.003
 10
-1.062898
 20
0.211457
 40
0.003
 41
0.003
  0
LWPOLYLINE
  5
39
100
AcDbEntity
  8
0
 62
   254
100
AcDbPolyline
 90
        2
 70
     0
 39
0.003
 10
0.643496
 20
0.075075
 40
0.003
 41
0.003
 10
0.64002
 20
0.828618
 40
0.003
 41
0.003
  0
LWPOLYLINE
  5
3A
100
AcDbEntity
  8
0
 62
   254
100
AcDbPolyline
 90
        2
 70
     0
 39
0.003
 10
0.64002
 20
0.828618
 40
0.003
 41
0.003
 10
0.63724
 20
0.846224
 40
0.003
 41
0.003
  0
LWPOLYLINE
  5
3B
100
AcDbEntity
  8
0
 62
   254
100
AcDbPolyline
 90
        2
 70
     0
 39
0.003
 10
0.63724
 20
0.846224
 40
0.003
 41
0.003
 10
0.640717
 20
0.092681
 40
0.003
 41
0.003
  0
LWPOLYLINE
  5
3C
100
AcDbEntity
  8
0
 62
   254
100
AcDbPolyline
 90
        2
 70
     0
 39
0.003
 10
0.640717
 20
0.092681
 40
0.003
 41
0.003
 10
0.643496
 20
0.075075
 40
0.003
 41
0.003
  0
LWPOLYLINE
  5
3D
100
AcDbEntity
  8
0
 62
   254
100
AcDbPolyline
 90
        2
 70
     0
 39
0.003
 10
0.640717
 20
0.092681
 40
0.003
 41
0.003
 10
0.63724
 20
0.846224
 40
0.003
 41
0.003
  0
LWPOLYLINE
  5
3E
100
AcDbEntity
  8
0
 62
   254
100
AcDbPolyline
 90
        2
 70
     0
 39
0.003
 10
0.63724
 20
0.846224
 40
0.003
 41
0.003
 10
0.633984
 20
0.862728
 40
0.003
 41
0.003
  0
LWPOLYLINE
  5
3F
100
AcDbEntity
  8
0
 62
   254
100
AcDbPolyline
 90
        2
 70
     0
 39
0.003
 10
0.633984
 20
0.862728
 40
0.003
 41
0.003
 10
0.637461
 20
0.109185
 40
0.003
 41
0.003
  0
LWPOLYLINE
  5
40
100
AcDbEntity
  8
0
 62
   254
100
AcDbPolyline
 90
        2
 70
     0
 39
0.003
 10
0.637461
 20
0.109185
 40
0.003
 41
0.003
 10
0.640717
 20
0.092681
 40
0.003
 41
0.003
  0
LWPOLYLINE
  5
41
100
AcDbEntity
  8
0
 62
   254
100
AcDbPolyline
 90
        2
 70
     0
 39
0.003
 10
0.637461
 20
0.109185
 40
0.003
 41
0.003
 10
0.633984
 20
0.862728
 40
0.003
 41
0.003
  0
LWPOLYLINE
  5
42
100
AcDbEntity
  8
0
 62
   254
100
AcDbPolyline
 90
        2
 70
     0
 39
0.003
 10
0.633984
 20
0.862728
 40
0.003
 41
0.003
 10
0.630236
 20
0.878161
 40
0.003
 41
0.003
  0
LWPOLYLINE
  5
43
100
AcDbEntity
  8
0
 62
   254
100
AcDbPolyline
 90
        2
 70
     0
 39
0.003
 10
0.630236
 20
0.878161
 40
0.003
 41
0.003
 10
0.633713
 20
0.124618
 40
0.003
 41
0.003
  0
LWPOLYLINE
  5
44
100
AcDbEntity
  8
0
 62
   254
100
AcDbPolyline
 90
        2
 70
     0
 39
0.003
 10
0.633713
 20
0.124618
 40
0.003
 41
0.003
 10
0.637461
 20
0.109185
 40
0.003
 41
0.003
  0
LWPOLYLINE
  5
45
100
AcDbEntity
  8
0
 62
   254
100
AcDbPolyline
 90
        2
 70
     0
 39
0.003
 10
0.633713
 20
0.124618
 40
0.003
 41
0.003
 10
0.630236
 20
0.878161
 40
0.003
 41
0.003
  0
LWPOLYLINE
  5
46
100
AcDbEntity
  8
0
 62
   254
100
AcDbPolyline
 90
        2
 70
     0
 39
0.003
 10
0.630236
 20
0.878161
 40
0.003
 41
0.003
 10
0.625996
 20
0.892591
 40
0.003
 41
0.003
  0
LWPOLYLINE
  5
47
100
AcDbEntity
  8
0
 62
   254
100
AcDbPolyline
 90
        2
 70
     0
 39
0.003
 10
0.625996
 20
0.892591
 40
0.003
 41
0.003
 10
0.629472
 20
0.139047
 40
0.003
 41
0.003
  0
LWPOLYLINE
  5
48
100
AcDbEntity
  8
0
 62
   254
100
AcDbPolyline
 90
        2
 70
     0
 39
0.003
 10
0.629472
 20
0.139047
 40
0.003
 41
0.003
 10
0.633713
 20
0.124618
 40
0.003
 41
0.003
  0
LWPOLYLINE
  5
49
100
AcDbEntity
  8
0
 62
   254
100
AcDbPolyline
 90
        2
 70
     0
 39
0.003
 10
0.629472
 20
0.139047
 40
0.003
 41
0.003
 10
0.625996
 20
0.892591
 40
0.003
 41
0.003
  0
LWPOLYLINE
  5
4A
100
AcDbEntity
  8
0
 62
   254
100
AcDbPolyline
 90
        2
 70
     0
 39
0.003
 10
0.625996
 20
0.892591
 40
0.003
 41
0.003
 10
0.621256
 20
0.906043
 40
0.003
 41
0.003
  0
LWPOLYLINE
  5
4B
100
AcDbEntity
  8
0
 62
   254
100
AcDbPolyline
 90
        2
 70
     0
 39
0.003
 10
0.621256
 20
0.906043
 40
0.003
 41
0.003
 10
0.624732
 20
0.1525
 40
0.003
 41
0.003
  0
LWPOLYLINE
  5
4C
100
AcDbEntity
  8
0
 62
   254
100
AcDbPolyline
 90
        2
 70
     0
 39
0.003
 10
0.624732
 20
0.1525
 40
0.003
 41
0.003
 10
0.629472
 20
0.139047
 40
0.003
 41
0.003
  0
LWPOLYLINE
  5
4D
100
AcDbEntity
  8
0
 62
   254
100
AcDbPolyline
 90
        2
 70
     0
 39
0.003
 10
0.624732
 20
0.1525
 40
0.003
 41
0.003
 10
0.621256
 20
0.906043
 40
0.003
 41
0.003
  0
LWPOLYLINE
  5
4E
100
AcDbEntity
  8
0
 62
   254
100
AcDbPolyline
 90
        2
 70
     0
 39
0.003
 10
0.621256
 20
0.906043
 40
0.003
 41
0.003
 10
0.616024
 20
0.918583
 40
0.003
 41
0.003
  0
LWPOLYLINE
  5
4F
100
AcDbEntity
  8
0
 62
   254
100
AcDbPolyline
 90
        2
 70
     0
 39
0.003
 10
0.616024
 20
0.918583
 40
0.003
 41
0.003
 10
0.6195
 20
0.165039
 40
0.003
 41
0.003
  0
LWPOLYLINE
  5
50
100
AcDbEntity
  8
0
 62
   254
100
AcDbPolyline
 90
        2
 70
     0
 39
0.003
 10
0.6195
 20
0.165039
 40
0.003
 41
0.003
 10
0.624732
 20
0.1525
 40
0.003
 41
0.003
  0
LWPOLYLINE
  5
51
100
AcDbEntity
  8
0
 62
   254
100
AcDbPolyline
 90
        2
 70
     0
 39
0.003
 10
0.6195
 20
0.165039
 40
0.003
 41
0.003
 10
0.616024
 20
0.918583
 40
0.003
 41
0.003
  0
LWPOLYLINE
  5
52
100
AcDbEntity
  8
0
 62
   254
100
AcDbPolyline
 90
        2
 70
     0
 39
0.003
 10
0.616024
 20
0.918583
 40
0.003
 41
0.003
 10
0.610283
 20
0.930248
 40
0.003
 41
0.003
  0
LWPOLYLINE
  5
53
100
AcDbEntity
  8
0
 62
   254
100
AcDbPolyline
 90
        2
 70
     0
 39
0.003
 10
0.610283
 20
0.930248
 40
0.003
 41
0.003
 10
0.61376
 20
0.176705
 40
0.003
 41
0.003
  0
LWPOLYLINE
  5
54
100
AcDbEntity
  8
0
 62
   254
100
AcDbPolyline
 90
        2
 70
     0
 39
0.003
 10
0.61376
 20
0.176705
 40
0.003
 41
0.003
 10
0.6195
 20
0.165039
 40
0.003
 41
0.003
  0
LWPOLYLINE
  5
55
100
AcDbEntity
  8
0
 62
   254
100
AcDbPolyline
 90
        2
 70
     0
 39
0.003
 10
0.61376
 20
0.176705
 40
0.003
 41
0.003
 10
0.610283
 20
0.930248
 40
0.003
 41
0.003
  0
LWPOLYLINE
  5
56
100
AcDbEntity
  8
0
 62
   254
100
AcDbPolyline
 90
        2
 70
     0
 39
0.003
 10
0.610283
 20
0.930248
 40
0.003
 41
0.003
 10
0.604043
 20
0.941094
 40
0.003
 41
0.003
  0
LWPOLYLINE
  5
57
100
AcDbEntity
  8
0
 62
   254
100
AcDbPolyline
 90
        2
 70
     0
 39
0.003
 10
0.604043
 20
0.941094
 40
0.003
 41
0.003
 10
0.60752
 20
0.187551
 40
0.003
 41
0.003
  0
LWPOLYLINE
  5
58
100
AcDbEntity
  8
0
 62
   254
100
AcDbPolyline
 90
        2
 70
     0
 39
0.003
 10
0.60752
 20
0.187551
 40
0.003
 41
0.003
 10
0.61376
 20
0.176705
 40
0.003
 41
0.003
  0
LWPOLYLINE
  5
59
100
AcDbEntity
  8
0
 62
   254
100
AcDbPolyline
 90
        2
 70
     0
 39
0.003
 10
0.60752
 20
0.187551
 40
0.003
 41
0.003
 10
0.604043
 20
0.941094
 40
0.003
 41
0.003
  0
LWPOLYLINE
  5
5A
100
AcDbEntity
  8
0
 62
   254
100
AcDbPolyline
 90
        2
 70
     0
 39
0.003
 10
0.604043
 20
0.941094
 40
0.003
 41
0.003
 10
0.597283
 20
0.951157
 40
0.003
 41
0.003
  0
LWPOLYLINE
  5
5B
100
AcDbEntity
  8
0
 62
   254
100
AcDbPolyline
 90
        2
 70
     0
 39
0.003
 10
0.597283
 20
0.951157
 40
0.003
 41
0.003
 10
0.60076
 20
0.197614
 40
0.003
 41
0.003
  0
LWPOLYLINE
  5
5C
100
AcDbEntity
  8
0
 62
   254
100
AcDbPolyline
 90
        2
 70
     0
 39
0.003
 10
0.60076
 20
0.197614
 40
0.003
 41
0.003
 10
0.60752
 20
0.187551
 40
0.003
 41
0.003
  0
LWPOLYLINE
  5
5D
100
AcDbEntity
  8
0
 62
   254
100
AcDbPolyline
 90
        2
 70
     0
 39
0.003
 10
0.60076
 20
0.197614
 40
0.003
 41
0.003
 10
0.597283
 20
0.951157
 40
0.003
 41
0.003
  0
LWPOLYLINE
  5
5E
100
AcDbEntity
  8
0
 62
   254
100
AcDbPolyline
 90
        2
 70
     0
 39
0.003
 10
0.597283
 20
0.951157
 40
0.003
 41
0.003
 10
0.590016
 20
0.960496
 40
0.003
 41
0.003
  0
LWPOLYLINE
  5
5F
100
AcDbEntity
  8
0
 62
   254
100
AcDbPolyline
 90
        2
 70
     0
 39
0.003
 10
0.590016
 20
0.960496
 40
0.003
 41
0.003
 10
0.593492
 20
0.206953
 40
0.003
 41
0.003
  0
LWPOLYLINE
  5
60
100
AcDbEntity
  8
0
 62
   254
100
AcDbPolyline
 90
        2
 70
     0
 39
0.003
 10
0.593492
 20
0.206953
 40
0.003
 41
0.003
 10
0.60076
 20
0.197614
 40
0.003
 41
0.003
  0
LWPOLYLINE
  5
61
100
AcDbEntity
  8
0
 62
   254
100
AcDbPolyline
 90
        2
 70
     0
 39
0.003
 10
0.593492
 20
0.206953
 40
0.003
 41
0.003
 10
0.590016
 20
0.960496
 40
0.003
 41
0.003
  0
LWPOLYLINE
  5
62
100
AcDbEntity
  8
0
 62
   254
100
AcDbPolyline
 90
        2
 70
     0
 39
0.003
 10
0.590016
 20
0.960496
 40
0.003
 41
0.003
 10
0.582224
 20
0.969154
 40
0.003
 41
0.003
  0
LWPOLYLINE
  5
63
100
AcDbEntity
  8
0
 62
   254
100
AcDbPolyline
 90
        2
 70
     0
 39
0.003
 10
0.582224
 20
0.969154
 40
0.003
 41
0.003
 10
0.585701
 20
0.21561
 40
0.003
 41
0.003
  0
LWPOLYLINE
  5
64
100
AcDbEntity
  8
0
 62
   254
100
AcDbPolyline
 90
        2
 70
     0
 39
0.003
 10
0.585701
 20
0.21561
 40
0.003
 41
0.003
 10
0.593492
 20
0.206953
 40
0.003
 41
0.003
  0
LWPOLYLINE
  5
65
100
AcDbEntity
  8
0
 62
   254
100
AcDbPolyline
 90
        2
 70
     0
 39
0.003
 10
0.585701
 20
0.21561
 40
0.003
 41
0.003
 10
0.582224
 20
0.969154
 40
0.003
 41
0.003
  0
LWPOLYLINE
  5
66
100
AcDbEntity
  8
0
 62
   254
100
AcDbPolyline
 90
        2
 70
     0
 39
0.003
 10
0.582224
 20
0.969154
 40
0.003
 41
0.003
 10
0.573921
 20
0.977185
 40
0.003
 41
0.003
  0
LWPOLYLINE
  5
67
100
AcDbEntity
  8
0
 62
   254
100
AcDbPolyline
 90
        2
 70
     0
 39
0.003
 10
0.573921
 20
0.977185
 40
0.003
 41
0.003
 10
0.577398
 20
0.223642
 40
0.003
 41
0.003
  0
LWPOLYLINE
  5
68
100
AcDbEntity
  8
0
 62
   254
100
AcDbPolyline
 90
        2
 70
     0
 39
0.003
 10
0.577398
 20
0.223642
 40
0.003
 41
0.003
 10
0.585701
 20
0.21561
 40
0.003
 41
0.003
  0
LWPOLYLINE
  5
69
100
AcDbEntity
  8
0
 62
   254
100
AcDbPolyline
 90
        2
 70
     0
 39
0.003
 10
0.577398
 20
0.223642
 40
0.003
 41
0.003
 10
0.573921
 20
0.977185
 40
0.003
 41
0.003
  0
LWPOLYLINE
  5
6A
100
AcDbEntity
  8
0
 62
   254
100
AcDbPolyline
 90
        2
 70
     0
 39
0.003
 10
0.573921
 20
0.977185
 40
0.003
 41
0.003
 10
0.565083
 20
0.984622
 40
0.003
 41
0.003
  0
LWPOLYLINE
  5
6B
100
AcDbEntity
  8
0
 62
   254
100
AcDbPolyline
 90
        2
 70
     0
 39
0.003
 10
0.565083
 20
0.984622
 40
0.003
 41
0.003
 10
0.568559
 20
0.231079
 40
0.003
 41
0.003
  0
LWPOLYLINE
  5
6C
100
AcDbEntity
  8
0
 62
   254
100
AcDbPolyline
 90
        2
 70
     0
 39
0.003
 10
0.568559
 20
0.231079
 40
0.003
 41
0.003
 10
0.577398
 20
0.223642
 40
0.003
 41
0.003
  0
LWPOLYLINE
  5
6D
100
AcDbEntity
  8
0
 62
   254
100
AcDbPolyline
 90
        2
 70
     0
 39
0.003
 10
0.568559
 20
0.231079
 40
0.003
 41
0.003
 10
0.565083
 20
0.984622
 40
0.003
 41
0.003
  0
LWPOLYLINE
  5
6E
100
AcDbEntity
  8
0
 62
   254
100
AcDbPolyline
 90
        2
 70
     0
 39
0.003
 10
0.565083
 20
0.984622
 40
0.003
 41
0.003
 10
0.55572
 20
0.991531
 40
0.003
 41
0.003
  0
LWPOLYLINE
  5
6F
100
AcDbEntity
  8
0
 62
   254
100
AcDbPolyline
 90
        2
 70
     0
 39
0.003
 10
0.55572
 20
0.991531
 40
0.003
 41
0.003
 10
0.559197
 20
0.237988
 40
0.003
 41
0.003
  0
LWPOLYLINE
  5
70
100
AcDbEntity
  8
0
 62
   254
100
AcDbPolyline
 90
        2
 70
     0
 39
0.003
 10
0.559197
 20
0.237988
 40
0.003
 41
0.003
 10
0.568559
 20
0.231079
 40
0.003
 41
0.003
  0
LWPOLYLINE
  5
71
100
AcDbEntity
  8
0
 62
   254
100
AcDbPolyline
 90
        2
 70
     0
 39
0.003
 10
0.559197
 20
0.237988
 40
0.003
 41
0.003
 10
0.55572
 20
0.991531
 40
0.003
 41
0.003
  0
LWPOLYLINE
  5
72
100
AcDbEntity
  8
0
 62
   254
100
AcDbPolyline
 90
        2
 70
     0
 39
0.003
 10
0.55572
 20
0.991531
 40
0.003
 41
0.003
 10
0.545827
 20
0.997949
 40
0.003
 41
0.003
  0
LWPOLYLINE
  5
73
100
AcDbEntity
  8
0
 62
   254
100
AcDbPolyline
 90
        2
 70
     0
 39
0.003
 10
0.545827
 20
0.997949
 40
0.003
 41
0.003
 10
0.549303
 20
0.244406
 40
0.003
 41
0.003
  0
LWPOLYLINE
  5
74
100
AcDbEntity
  8
0
 62
   254
100
AcDbPolyline
 90
        2
 70
     0
 39
0.003
 10
0.549303
 20
0.244406
 40
0.003
 41
0.003
 10
0.559197
 20
0.237988
 40
0.003
 41
0.003
  0
LWPOLYLINE
  5
75
100
AcDbEntity
  8
0
 62
   254
100
AcDbPolyline
 90
        2
 70
     0
 39
0.003
 10
0.549303
 20
0.244406
 40
0.003
 41
0.003
 10
0.545827
 20
0.997949
 40
0.003
 41
0.003
  0
LWPOLYLINE
  5
76
100
AcDbEntity
  8
0
 62
   254
100
AcDbPolyline
 90
        2
 70
     0
 39
0.003
 10
0.545827
 20
0.997949
 40
0.003
 41
0.003
 10
0.535398
 20
1.003929
 40
0.003
 41
0.003
  0
LWPOLYLINE
  5
77
100
AcDbEntity
  8
0
 62
   254
100
AcDbPolyline
 90
        2
 70
     0
 39
0.003
 10
0.535398
 20
1.003929
 40
0.003
 41
0.003
 10
0.538874
 20
0.250386
 40
0.003
 41
0.003
  0
LWPOLYLINE
  5
78
100
AcDbEntity
  8
0
 62
   254
100
AcDbPolyline
 90
        2
 70
     0
 39
0.003
 10
0.538874
 20
0.250386
 40
0.003
 41
0.003
 10
0.549303
 20
0.244406
 40
0.003
 41
0.003
  0
LWPOLYLINE
  5
79
100
AcDbEntity
  8
0
 62
   254
100
AcDbPolyline
 90
        2
 70
     0
 39
0.003
 10
0.538874
 20
0.250386
 40
0.003
 41
0.003
 10
0.535398
 20
1.003929
 40
0.003
 41
0.003
  0
LWPOLYLINE
  5
7A
100
AcDbEntity
  8
0
 62
   254
100
AcDbPolyline
 90
        2
 70
     0
 39
0.003
 10
0.535398
 20
1.003929
 40
0.003
 41
0.003
 10
0.524421
 20
1.009508
 40
0.003
 41
0.003
  0
LWPOLYLINE
  5
7B
100
AcDbEntity
  8
0
 62
   254
100
AcDbPolyline
 90
        2
 70
     0
 39
0.003
 10
0.524421
 20
1.009508
 40
0.003
 41
0.003
 10
0.527898
 20
0.255965
 40
0.003
 41
0.003
  0
LWPOLYLINE
  5
7C
100
AcDbEntity
  8
0
 62
   254
100
AcDbPolyline
 90
        2
 70
     0
 39
0.003
 10
0.527898
 20
0.255965
 40
0.003
 41
0.003
 10
0.538874
 20
0.250386
 40
0.003
 41
0.003
  0
LWPOLYLINE
  5
7D
100
AcDbEntity
  8
0
 62
     9
100
AcDbPolyline
 90
        2
 70
     0
 39
0.003
 10
0.527898
 20
0.255965
 40
0.003
 41
0.003
 10
0.524421
 20
1.009508
 40
0.003
 41
0.003
  0
LWPOLYLINE
  5
7E
100
AcDbEntity
  8
0
 62
     9
100
AcDbPolyline
 90
        2
 70
     0
 39
0.003
 10
0.524421
 20
1.009508
 40
0.003
 41
0.003
 10
0.512906
 20
1.014748
 40
0.003
 41
0.003
  0
LWPOLYLINE
  5
7F
100
AcDbEntity
  8
0
 62
     9
100
AcDbPolyline
 90
        2
 70
     0
 39
0.003
 10
0.512906
 20
1.014748
 40
0.003
 41
0.003
 10
0.516382
 20
0.261205
 40
0.003
 41
0.003
  0
LWPOLYLINE
  5
80
100
AcDbEntity
  8
0
 62
     9
100
AcDbPolyline
 90
        2
 70
     0
 39
0.003
 10
0.516382
 20
0.261205
 40
0.003
 41
0.003
 10
0.527898
 20
0.255965
 40
0.003
 41
0.003
  0
LWPOLYLINE
  5
81
100
AcDbEntity
  8
0
 62
     9
100
AcDbPolyline
 90
        2
 70
     0
 39
0.003
 10
0.516382
 20
0.261205
 40
0.003
 41
0.003
 10
0.512906
 20
1.014748
 40
0.003
 41
0.003
  0
LWPOLYLINE
  5
82
100
AcDbEntity
  8
0
 62
     9
100
AcDbPolyline
 90
        2
 70
     0
 39
0.003
 10
0.512906
 20
1.014748
 40
0.003
 41
0.003
 10
0.500839
 20
1.019689
 40
0.003
 41
0.003
  0
LWPOLYLINE
  5
83
100
AcDbEntity
  8
0
 62
     9
100
AcDbPolyline
 90
        2
 70
     0
 39
0.003
 10
0.500839
 20
1.019689
 40
0.003
 41
0.003
 10
0.504315
 20
0.266146
 40
0.003
 41
0.003
  0
LWPOLYLINE
  5
84
100
AcDbEntity
  8
0
 62
     9
100
AcDbPolyline
 90
        2
 70
     0
 39
0.003
 10
0.504315
 20
0.266146
 40
0.003
 41
0.003
 10
0.516382
 20
0.261205
 40
0.003
 41
0.003
  0
LWPOLYLINE
  5
85
100
AcDbEntity
  8
0
 62
     9
100
AcDbPolyline
 90
        2
 70
     0
 39
0.003
 10
0.504315
 20
0.266146
 40
0.003
 41
0.003
 10
0.500839
 20
1.019689
 40
0.003
 41
0.003
  0
LWPOLYLINE
  5
86
100
AcDbEntity
  8
0
 62
     9
100
AcDbPolyline
 90
        2
 70
     0
 39
0.003
 10
0.500839
 20
1.019689
 40
0.003
 41
0.003
 10
0.488228
 20
1.024386
 40
0.003
 41
0.003
  0
LWPOLYLINE
  5
87
100
AcDbEntity
  8
0
 62
     9
100
AcDbPolyline
 90
        2
 70
     0
 39
0.003
 10
0.488228
 20
1.024386
 40
0.003
 41
0.003
 10
0.491705
 20
0.270843
 40
0.003
 41
0.003
  0
LWPOLYLINE
  5
88
100
AcDbEntity
  8
0
 62
     9
100
AcDbPolyline
 90
        2
 70
     0
 39
0.003
 10
0.491705
 20
0.270843
 40
0.003
 41
0.003
 10
0.504315
 20
0.266146
 40
0.003
 41
0.003
  0
LWPOLYLINE
  5
89
100
AcDbEntity
  8
0
 62
     9
100
AcDbPolyline
 90
        2
 70
     0
 39
0.003
 10
0.491705
 20
0.270843
 40
0.003
 41
0.003
 10
0.488228
 20
1.024386
 40
0.003
 41
0.003
  0
LWPOLYLINE
  5
8A
100
AcDbEntity
  8
0
 62
     9
100
AcDbPolyline
 90
        2
 70
     0
 39
0.003
 10
0.488228
 20
1.024386
 40
0.003
 41
0.003
 10
0.475059
 20
1.028874
 40
0.003
 41
0.003
  0
LWPOLYLINE
  5
8B
100
AcDbEntity
  8
0
 62
     9
100
AcDbPolyline
 90
        2
 70
     0
 39
0.003
 10
0.475059
 20
1.028874
 40
0.003
 41
0.003
 10
0.478535
 20
0.275331
 40
0.003
 41
0.003
  0
LWPOLYLINE
  5
8C
100
AcDbEntity
  8
0
 62
     9
100
AcDbPolyline
 90
        2
 70
     0
 39
0.003
 10
0.478535
 20
0.275331
 40
0.003
 41
0.003
 10
0.491705
 20
0.270843
 40
0.003
 41
0.003
  0
LWPOLYLINE
  5
8D
100
AcDbEntity
  8
0
 62
     9
100
AcDbPolyline
 90
        2
 70
     0
 39
0.003
 10
0.478535
 20
0.275331
 40
0.003
 41
0.003
 10
0.475059
 20
1.028874
 40
0.003
 41
0.003
  0
LWPOLYLINE
  5
8E
100
AcDbEntity
  8
0
 62
     9
100
AcDbPolyline
 90
        2
 70
     0
 39
0.003
 10
0.475059
 20
1.028874
 40
0.003
 41
0.003
 10
0.461335
 20
1.033217
 40
0.003
 41
0.003
  0
LWPOLYLINE
  5
8F
100
AcDbEntity
  8
0
 62
     9
100
AcDbPolyline
 90
        2
 70
     0
 39
0.003
 10
0.461335
 20
1.033217
 40
0.003
 41
0.003
 10
0.464811
 20
0.279673
 40
0.003
 41
0.003
  0
LWPOLYLINE
  5
90
100
AcDbEntity
  8
0
 62
     9
100
AcDbPolyline
 90
        2
 70
     0
 39
0.003
 10
0.464811
 20
0.279673
 40
0.003
 41
0.003
 10
0.478535
 20
0.275331
 40
0.003
 41
0.003
  0
LWPOLYLINE
  5
91
100
AcDbEntity
  8
0
 62
     9
100
AcDbPolyline
 90
        2
 70
     0
 39
0.003
 10
0.464811
 20
0.279673
 40
0.003
 41
0.003
 10
0.461335
 20
1.033217
 40
0.003
 41
0.003
  0
LWPOLYLINE
  5
92
100
AcDbEntity
  8
0
 62
     9
100
AcDbPolyline
 90
        2
 70
     0
 39
0.003
 10
0.461335
 20
1.033217
 40
0.003
 41
0.003
 10
0.447047
 20
1.037449
 40
0.003
 41
0.003
  0
LWPOLYLINE
  5
93
100
AcDbEntity
  8
0
 62
     9
100
AcDbPolyline
 90
        2
 70
     0
 39
0.003
 10
0.447047
 20
1.037449
 40
0.003
 41
0.003
 10
0.450524
 20
0.283906
 40
0.003
 41
0.003
  0
LWPOLYLINE
  5
94
100
AcDbEntity
  8
0
 62
     9
100
AcDbPolyline
 90
        2
 70
     0
 39
0.003
 10
0.450524
 20
0.283906
 40
0.003
 41
0.003
 10
0.464811
 20
0.279673
 40
0.003
 41
0.003
  0
LWPOLYLINE
  5
95
100
AcDbEntity
  8
0
 62
     9
100
AcDbPolyline
 90
        2
 70
     0
 39
0.003
 10
0.450524
 20
0.283906
 40
0.003
 41
0.003
 10
0.447047
 20
1.037449
 40
0.003
 41
0.003
  0
LWPOLYLINE
  5
96
100
AcDbEntity
  8
0
 62
     9
100
AcDbPolyline
 90
        2
 70
     0
 39
0.003
 10
0.447047
 20
1.037449
 40
0.003
 41
0.003
 10
0.432201
 20
1.04163
 40
0.003
 41
0.003
  0
LWPOLYLINE
  5
97
100
AcDbEntity
  8
0
 62
     9
100
AcDbPolyline
 90
        2
 70
     0
 39
0.003
 10
0.432201
 20
1.04163
 40
0.003
 41
0.003
 10
0.435677
 20
0.288087
 40
0.003
 41
0.003
  0
LWPOLYLINE
  5
98
100
AcDbEntity
  8
0
 62
     9
100
AcDbPolyline
 90
        2
 70
     0
 39
0.003
 10
0.435677
 20
0.288087
 40
0.003
 41
0.003
 10
0.450524
 20
0.283906
 40
0.003
 41
0.003
  0
LWPOLYLINE
  5
99
100
AcDbEntity
  8
0
 62
     9
100
AcDbPolyline
 90
        2
 70
     0
 39
0.003
 10
0.435677
 20
0.288087
 40
0.003
 41
0.003
 10
0.432201
 20
1.04163
 40
0.003
 41
0.003
  0
LWPOLYLINE
  5
9A
100
AcDbEntity
  8
0
 62
     9
100
AcDbPolyline
 90
        2
 70
     0
 39
0.003
 10
0.432201
 20
1.04163
 40
0.003
 41
0.003
 10
0.416776
 20
1.045791
 40
0.003
 41
0.003
  0
LWPOLYLINE
  5
9B
100
AcDbEntity
  8
0
 62
     9
100
AcDbPolyline
 90
        2
 70
     0
 39
0.003
 10
0.416776
 20
1.045791
 40
0.003
 41
0.003
 10
0.420252
 20
0.292248
 40
0.003
 41
0.003
  0
LWPOLYLINE
  5
9C
100
AcDbEntity
  8
0
 62
     9
100
AcDbPolyline
 90
        2
 70
     0
 39
0.003
 10
0.420252
 20
0.292248
 40
0.003
 41
0.003
 10
0.435677
 20
0.288087
 40
0.003
 41
0.003
  0
LWPOLYLINE
  5
9D
100
AcDbEntity
  8
0
 62
     9
100
AcDbPolyline
 90
        2
 70
     0
 39
0.003
 10
0.420252
 20
0.292248
 40
0.003
 41
0.003
 10
0.416776
 20
1.045791
 40
0.003
 41
0.003
  0
LWPOLYLINE
  5
9E
100
AcDbEntity
  8
0
 62
     9
100
AcDbPolyline
 90
        2
 70
     0
 39
0.003
 10
0.416776
 20
1.045791
 40
0.003
 41
0.003
 10
0.400783
 20
1.05
 40
0.003
 41
0.003
  0
LWPOLYLINE
  5
9F
100
AcDbEntity
  8
0
 62
     9
100
AcDbPolyline
 90
        2
 70
     0
 39
0.003
 10
0.400783
 20
1.05
 40
0.003
 41
0.003
 10
0.40426
 20
0.296457
 40
0.003
 41
0.003
  0
LWPOLYLINE
  5
A0
100
AcDbEntity
  8
0
 62
     9
100
AcDbPolyline
 90
        2
 70
     0
 39
0.003
 10
0.40426
 20
0.296457
 40
0.003
 41
0.003
 10
0.420252
 20
0.292248
 40
0.003
 41
0.003
  0
LWPOLYLINE
  5
A1
100
AcDbEntity
  8
0
 62
     9
100
AcDbPolyline
 90
        2
 70
     0
 39
0.003
 10
0.40426
 20
0.296457
 40
0.003
 41
0.003
 10
0.400783
 20
1.05
 40
0.003
 41
0.003
  0
LWPOLYLINE
  5
A2
100
AcDbEntity
  8
0
 62
     9
100
AcDbPolyline
 90
        2
 70
     0
 39
0.003
 10
0.400783
 20
1.05
 40
0.003
 41
0.003
 10
0.384209
 20
1.054287
 40
0.003
 41
0.003
  0
LWPOLYLINE
  5
A3
100
AcDbEntity
  8
0
 62
     9
100
AcDbPolyline
 90
        2
 70
     0
 39
0.003
 10
0.384209
 20
1.054287
 40
0.003
 41
0.003
 10
0.387685
 20
0.300744
 40
0.003
 41
0.003
  0
LWPOLYLINE
  5
A4
100
AcDbEntity
  8
0
 62
     9
100
AcDbPolyline
 90
        2
 70
     0
 39
0.003
 10
0.387685
 20
0.300744
 40
0.003
 41
0.003
 10
0.40426
 20
0.296457
 40
0.003
 41
0.003
  0
LWPOLYLINE
  5
A5
100
AcDbEntity
  8
0
 62
     9
100
AcDbPolyline
 90
        2
 70
     0
 39
0.003
 10
0.387685
 20
0.300744
 40
0.003
 41
0.003
 10
0.384209
 20
1.054287
 40
0.003
 41
0.003
  0
LWPOLYLINE
  5
A6
100
AcDbEntity
  8
0
 62
     9
100
AcDbPolyline
 90
        2
 70
     0
 39
0.003
 10
0.384209
 20
1.054287
 40
0.003
 41
0.003
 10
0.367063
 20
1.05872
 40
0.003
 41
0.003
  0
LWPOLYLINE
  5
A7
100
AcDbEntity
  8
0
 62
     9
100
AcDbPolyline
 90
        2
 70
     0
 39
0.003
 10
0.367063
 20
1.05872
 40
0.003
 41
0.003
 10
0.370539
 20
0.305177
 40
0.003
 41
0.003
  0
LWPOLYLINE
  5
A8
100
AcDbEntity
  8
0
 62
     9
100
AcDbPolyline
 90
        2
 70
     0
 39
0.003
 10
0.370539
 20
0.305177
 40
0.003
 41
0.003
 10
0.387685
 20
0.300744
 40
0.003
 41
0.003
  0
LWPOLYLINE
  5
A9
100
AcDbEntity
  8
0
 62
     9
100
AcDbPolyline
 90
        2
 70
     0
 39
0.003
 10
0.370539
 20
0.305177
 40
0.003
 41
0.003
 10
0.367063
 20
1.05872
 40
0.003
 41
0.003
  0
LWPOLYLINE
  5
AA
100
AcDbEntity
  8
0
 62
     9
100
AcDbPolyline
 90
        2
 70
     0
 39
0.003
 10
0.367063
 20
1.05872
 40
0.003
 41
0.003
 10
0.349327
 20
1.063327
 40
0.003
 41
0.003
  0
LWPOLYLINE
  5
AB
100
AcDbEntity
  8
0
 62
     9
100
AcDbPolyline
 90
        2
 70
     0
 39
0.003
 10
0.349327
 20
1.063327
 40
0.003
 41
0.003
 10
0.352803
 20
0.309783
 40
0.003
 41
0.003
  0
LWPOLYLINE
  5
AC
100
AcDbEntity
  8
0
 62
     9
100
AcDbPolyline
 90
        2
 70
     0
 39
0.003
 10
0.352803
 20
0.309783
 40
0.003
 41
0.003
 10
0.370539
 20
0.305177
 40
0.003
 41
0.003
  0
LWPOLYLINE
  5
AD
100
AcDbEntity
  8
0
 62
     9
100
AcDbPolyline
 90
        2
 70
     0
 39
0.003
 10
0.352803
 20
0.309783
 40
0.003
 41
0.003
 10
0.349327
 20
1.063327
 40
0.003
 41
0.003
  0
LWPOLYLINE
  5
AE
100
AcDbEntity
  8
0
 62
     9
100
AcDbPolyline
 90
        2
 70
     0
 39
0.003
 10
0.349327
 20
1.063327
 40
0.003
 41
0.003
 10
0.331008
 20
1.068169
 40
0.003
 41
0.003
  0
LWPOLYLINE
  5
AF
100
AcDbEntity
  8
0
 62
     9
100
AcDbPolyline
 90
        2
 70
     0
 39
0.003
 10
0.331008
 20
1.068169
 40
0.003
 41
0.003
 10
0.334484
 20
0.314626
 40
0.003
 41
0.003
  0
LWPOLYLINE
  5
B0
100
AcDbEntity
  8
0
 62
     9
100
AcDbPolyline
 90
        2
 70
     0
 39
0.003
 10
0.334484
 20
0.314626
 40
0.003
 41
0.003
 10
0.352803
 20
0.309783
 40
0.003
 41
0.003
  0
LWPOLYLINE
  5
B1
100
AcDbEntity
  8
0
 62
     9
100
AcDbPolyline
 90
        2
 70
     0
 39
0.003
 10
0.334484
 20
0.314626
 40
0.003
 41
0.003
 10
0.331008
 20
1.068169
 40
0.003
 41
0.003
  0
LWPOLYLINE
  5
B2
100
AcDbEntity
  8
0
 62
     9
100
AcDbPolyline
 90
        2
 70
     0
 39
0.003
 10
0.331008
 20
1.068169
 40
0.003
 41
0.003
 10
0.312094
 20
1.073283
 40
0.003
 41
0.003
  0
LWPOLYLINE
  5
B3
100
AcDbEntity
  8
0
 62
     9
100
AcDbPolyline
 90
        2
 70
     0
 39
0.003
 10
0.312094
 20
1.073283
 40
0.003
 41
0.003
 10
0.315571
 20
0.31974
 40
0.003
 41
0.003
  0
LWPOLYLINE
  5
B4
100
AcDbEntity
  8
0
 62
     9
100
AcDbPolyline
 90
        2
 70
     0
 39
0.003
 10
0.315571
 20
0.31974
 40
0.003
 41
0.003
 10
0.334484
 20
0.314626
 40
0.003
 41
0.003
  0
LWPOLYLINE
  5
B5
100
AcDbEntity
  8
0
 62
     9
100
AcDbPolyline
 90
        2
 70
     0
 39
0.003
 10
0.315571
 20
0.31974
 40
0.003
 41
0.003
 10
0.312094
 20
1.073283
 40
0.003
 41
0.003
  0
LWPOLYLINE
  5
B6
100
AcDbEntity
  8
0
 62
     9
100
AcDbPolyline
 90
        2
 70
     0
 39
0.003
 10
0.312094
 20
1.073283
 40
0.003
 41
0.003
 10
0.292594
 20
1.078732
 40
0.003
 41
0.003
  0
LWPOLYLINE
  5
B7
100
AcDbEntity
  8
0
 62
     9
100
AcDbPolyline
 90
        2
 70
     0
 39
0.003
 10
0.292594
 20
1.078732
 40
0.003
 41
0.003
 10
0.296071
 20
0.325189
 40
0.003
 41
0.003
  0
LWPOLYLINE
  5
B8
100
AcDbEntity
  8
0
 62
     9
100
AcDbPolyline
 90
        2
 70
     0
 39
0.003
 10
0.296071
 20
0.325189
 40
0.003
 41
0.003
 10
0.315571
 20
0.31974
 40
0.003
 41
0.003
  0
LWPOLYLINE
  5
B9
100
AcDbEntity
  8
0
 62
     9
100
AcDbPolyline
 90
        2
 70
     0
 39
0.003
 10
0.296071
 20
0.325189
 40
0.003
 41
0.003
 10
0.292594
 20
1.078732
 40
0.003
 41
0.003
  0
LWPOLYLINE
  5
BA
100
AcDbEntity
  8
0
 62
     9
100
AcDbPolyline
 90
        2
 70
     0
 39
0.003
 10
0.292594
 20
1.078732
 40
0.003
 41
0.003
 10
0.273421
 20
1.084358
 40
0.003
 41
0.003
  0
LWPOLYLINE
  5
BB
100
AcDbEntity
  8
0
 62
     9
100
AcDbPolyline
 90
        2
 70
     0
 39
0.003
 10
0.273421
 20
1.084358
 40
0.003
 41
0.003
 10
0.276898
 20
0.330815
 40
0.003
 41
0.003
  0
LWPOLYLINE
  5
BC
100
AcDbEntity
  8
0
 62
     9
100
AcDbPolyline
 90
        2
 70
     0
 39
0.003
 10
0.276898
 20
0.330815
 40
0.003
 41
0.003
 10
0.296071
 20
0.325189
 40
0.003
 41
0.003
  0
LWPOLYLINE
  5
BD
100
AcDbEntity
  8
0
 62
     9
100
AcDbPolyline
 90
        2
 70
     0
 39
0.003
 10
0.276898
 20
0.330815
 40
0.003
 41
0.003
 10
0.273421
 20
1.084358
 40
0.003
 41
0.003
  0
LWPOLYLINE
  5
BE
100
AcDbEntity
  8
0
 62
     9
100
AcDbPolyline
 90
        2
 70
     0
 39
0.003
 10
0.273421
 20
1.084358
 40
0.003
 41
0.003
 10
0.255508
 20
1.090028
 40
0.003
 41
0.003
  0
LWPOLYLINE
  5
BF
100
AcDbEntity
  8
0
 62
     9
100
AcDbPolyline
 90
        2
 70
     0
 39
0.003
 10
0.255508
 20
1.090028
 40
0.003
 41
0.003
 10
0.258984
 20
0.336484
 40
0.003
 41
0.003
  0
LWPOLYLINE
  5
C0
100
AcDbEntity
  8
0
 62
     9
100
AcDbPolyline
 90
        2
 70
     0
 39
0.003
 10
0.258984
 20
0.336484
 40
0.003
 41
0.003
 10
0.276898
 20
0.330815
 40
0.003
 41
0.003
  0
LWPOLYLINE
  5
C1
100
AcDbEntity
  8
0
 62
     9
100
AcDbPolyline
 90
        2
 70
     0
 39
0.003
 10
0.258984
 20
0.336484
 40
0.003
 41
0.003
 10
0.255508
 20
1.090028
 40
0.003
 41
0.003
  0
LWPOLYLINE
  5
C2
100
AcDbEntity
  8
0
 62
     9
100
AcDbPolyline
 90
        2
 70
     0
 39
0.003
 10
0.255508
 20
1.090028
 40
0.003
 41
0.003
 10
0.238787
 20
1.095732
 40
0.003
 41
0.003
  0
LWPOLYLINE
  5
C3
100
AcDbEntity
  8
0
 62
     9
100
AcDbPolyline
 90
        2
 70
     0
 39
0.003
 10
0.238787
 20
1.095732
 40
0.003
 41
0.003
 10
0.242264
 20
0.342189
 40
0.003
 41
0.003
  0
LWPOLYLINE
  5
C4
100
AcDbEntity
  8
0
 62
     9
100
AcDbPolyline
 90
        2
 70
     0
 39
0.003
 10
0.242264
 20
0.342189
 40
0.003
 41
0.003
 10
0.258984
 20
0.336484
 40
0.003
 41
0.003
  0
LWPOLYLINE
  5
C5
100
AcDbEntity
  8
0
 62
     9
100
AcDbPolyline
 90
        2
 70
     0
 39
0.003
 10
0.242264
 20
0.342189
 40
0.003
 41
0.003
 10
0.238787
 20
1.095732
 40
0.003
 41
0.003
  0
LWPOLYLINE
  5
C6
100
AcDbEntity
  8
0
 62
     9
100
AcDbPolyline
 90
        2
 70
     0
 39
0.003
 10
0.238787
 20
1.095732
 40
0.003
 41
0.003
 10
0.223224
 20
1.101496
 40
0.003
 41
0.003
  0
LWPOLYLINE
  5
C7
100
AcDbEntity
  8
0
 62
     9
100
AcDbPolyline
 90
        2
 70
     0
 39
0.003
 10
0.223224
 20
1.101496
 40
0.003
 41
0.003
 10
0.226701
 20
0.347953
 40
0.003
 41
0.003
  0
LWPOLYLINE
  5
C8
100
AcDbEntity
  8
0
 62
     9
100
AcDbPolyline
 90
        2
 70
     0
 39
0.003
 10
0.226701
 20
0.347953
 40
0.003
 41
0.003
 10
0.242264
 20
0.342189
 40
0.003
 41
0.003
  0
LWPOLYLINE
  5
C9
100
AcDbEntity
  8
0
 62
     9
100
AcDbPolyline
 90
        2
 70
     0
 39
0.003
 10
0.226701
 20
0.347953
 40
0.003
 41
0.003
 10
0.223224
 20
1.101496
 40
0.003
 41
0.003
  0
LWPOLYLINE
  5
CA
100
AcDbEntity
  8
0
 62
     9
100
AcDbPolyline
 90
        2
 70
     0
 39
0.003
 10
0.223224
 20
1.101496
 40
0.003
 41
0.003
 10
0.20876
 20
1.107315
 40
0.003
 41
0.003
  0
LWPOLYLINE
  5
CB
100
AcDbEntity
  8
0
 62
     9
100
AcDbPolyline
 90
        2
 70
     0
 39
0.003
 10
0.20876
 20
1.107315
 40
0.003
 41
0.003
 10
0.212236
 20
0.353772
 40
0.003
 41
0.003
  0
LWPOLYLINE
  5
CC
100
AcDbEntity
  8
0
 62
     9
100
AcDbPolyline
 90
        2
 70
     0
 39
0.003
 10
0.212236
 20
0.353772
 40
0.003
 41
0.003
 10
0.226701
 20
0.347953
 40
0.003
 41
0.003
  0
LWPOLYLINE
  5
CD
100
AcDbEntity
  8
0
 62
     9
100
AcDbPolyline
 90
        2
 70
     0
 39
0.003
 10
0.212236
 20
0.353772
 40
0.003
 41
0.003
 10
0.20876
 20
1.107315
 40
0.003
 41
0.003
  0
LWPOLYLINE
  5
CE
100
AcDbEntity
  8
0
 62
     9
100
AcDbPolyline
 90
        2
 70
     0
 39
0.003
 10
0.20876
 20
1.107315
 40
0.003
 41
0.003
 10
0.195358
 20
1.113209
 40
0.003
 41
0.003
  0
LWPOLYLINE
  5
CF
100
AcDbEntity
  8
0
 62
     9
100
AcDbPolyline
 90
        2
 70
     0
 39
0.003
 10
0.195358
 20
1.113209
 40
0.003
 41
0.003
 10
0.198835
 20
0.359665
 40
0.003
 41
0.003
  0
LWPOLYLINE
  5
D0
100
AcDbEntity
  8
0
 62
     9
100
AcDbPolyline
 90
        2
 70
     0
 39
0.003
 10
0.198835
 20
0.359665
 40
0.003
 41
0.003
 10
0.212236
 20
0.353772
 40
0.003
 41
0.003
  0
LWPOLYLINE
  5
D1
100
AcDbEntity
  8
0
 62
     9
100
AcDbPolyline
 90
        2
 70
     0
 39
0.003
 10
0.198835
 20
0.359665
 40
0.003
 41
0.003
 10
0.195358
 20
1.113209
 40
0.003
 41
0.003
  0
LWPOLYLINE
  5
D2
100
AcDbEntity
  8
0
 62
     9
100
AcDbPolyline
 90
        2
 70
     0
 39
0.003
 10
0.195358
 20
1.113209
 40
0.003
 41
0.003
 10
0.182961
 20
1.119177
 40
0.003
 41
0.003
  0
LWPOLYLINE
  5
D3
100
AcDbEntity
  8
0
 62
     9
100
AcDbPolyline
 90
        2
 70
     0
 39
0.003
 10
0.182961
 20
1.119177
 40
0.003
 41
0.003
 10
0.186437
 20
0.365634
 40
0.003
 41
0.003
  0
LWPOLYLINE
  5
D4
100
AcDbEntity
  8
0
 62
     9
100
AcDbPolyline
 90
        2
 70
     0
 39
0.003
 10
0.186437
 20
0.365634
 40
0.003
 41
0.003
 10
0.198835
 20
0.359665
 40
0.003
 41
0.003
  0
LWPOLYLINE
  5
D5
100
AcDbEntity
  8
0
 62
   254
100
AcDbPolyline
 90
        2
 70
     0
 39
0.003
 10
0.186437
 20
0.365634
 40
0.003
 41
0.003
 10
0.182961
 20
1.119177
 40
0.003
 41
0.003
  0
LWPOLYLINE
  5
D6
100
AcDbEntity
  8
0
 62
   254
100
AcDbPolyline
 90
        2
 70
     0
 39
0.003
 10
0.182961
 20
1.119177
 40
0.003
 41
0.003
 10
0.171528
 20
1.125244
 40
0.003
 41
0.003
  0
LWPOLYLINE
  5
D7
100
AcDbEntity
  8
0
 62
   254
100
AcDbPolyline
 90
        2
 70
     0
 39
0.003
 10
0.171528
 20
1.125244
 40
0.003
 41
0.003
 10
0.175004
 20
0.371701
 40
0.003
 41
0.003
  0
LWPOLYLINE
  5
D8
100
AcDbEntity
  8
0
 62
   254
100
AcDbPolyline
 90
        2
 70
     0
 39
0.003
 10
0.175004
 20
0.371701
 40
0.003
 41
0.003
 10
0.186437
 20
0.365634
 40
0.003
 41
0.003
  0
LWPOLYLINE
  5
D9
100
AcDbEntity
  8
0
 62
   254
100
AcDbPolyline
 90
        2
 70
     0
 39
0.003
 10
0.175004
 20
0.371701
 40
0.003
 41
0.003
 10
0.171528
 20
1.125244
 40
0.003
 41
0.003
  0
LWPOLYLINE
  5
DA
100
AcDbEntity
  8
0
 62
   254
100
AcDbPolyline
 90
        2
 70
     0
 39
0.003
 10
0.171528
 20
1.125244
 40
0.003
 41
0.003
 10
0.161
 20
1.131398
 40
0.003
 41
0.003
  0
LWPOLYLINE
  5
DB
100
AcDbEntity
  8
0
 62
   254
100
AcDbPolyline
 90
        2
 70
     0
 39
0.003
 10
0.161
 20
1.131398
 40
0.003
 41
0.003
 10
0.164476
 20
0.377854
 40
0.003
 41
0.003
  0
LWPOLYLINE
  5
DC
100
AcDbEntity
  8
0
 62
   254
100
AcDbPolyline
 90
        2
 70
     0
 39
0.003
 10
0.164476
 20
0.377854
 40
0.003
 41
0.003
 10
0.175004
 20
0.371701
 40
0.003
 41
0.003
  0
LWPOLYLINE
  5
DD
100
AcDbEntity
  8
0
 62
   254
100
AcDbPolyline
 90
        2
 70
     0
 39
0.003
 10
0.164476
 20
0.377854
 40
0.003
 41
0.003
 10
0.161
 20
1.131398
 40
0.003
 41
0.003
  0
LWPOLYLINE
  5
DE
100
AcDbEntity
  8
0
 62
   254
100
AcDbPolyline
 90
        2
 70
     0
 39
0.003
 10
0.161
 20
1.131398
 40
0.003
 41
0.003
 10
0.151339
 20
1.137669
 40
0.003
 41
0.003
  0
LWPOLYLINE
  5
DF
100
AcDbEntity
  8
0
 62
   254
100
AcDbPolyline
 90
        2
 70
     0
 39
0.003
 10
0.151339
 20
1.137669
 40
0.003
 41
0.003
 10
0.154815
 20
0.384126
 40
0.003
 41
0.003
  0
LWPOLYLINE
  5
E0
100
AcDbEntity
  8
0
 62
   254
100
AcDbPolyline
 90
        2
 70
     0
 39
0.003
 10
0.154815
 20
0.384126
 40
0.003
 41
0.003
 10
0.164476
 20
0.377854
 40
0.003
 41
0.003
  0
LWPOLYLINE
  5
E1
100
AcDbEntity
  8
0
 62
   254
100
AcDbPolyline
 90
        2
 70
     0
 39
0.003
 10
0.154815
 20
0.384126
 40
0.003
 41
0.003
 10
0.151339
 20
1.137669
 40
0.003
 41
0.003
  0
LWPOLYLINE
  5
E2
100
AcDbEntity
  8
0
 62
   254
100
AcDbPolyline
 90
        2
 70
     0
 39
0.003
 10
0.151339
 20
1.137669
 40
0.003
 41
0.003
 10
0.142488
 20
1.144055
 40
0.003
 41
0.003
  0
LWPOLYLINE
  5
E3
100
AcDbEntity
  8
0
 62
   254
100
AcDbPolyline
 90
        2
 70
     0
 39
0.003
 10
0.142488
 20
1.144055
 40
0.003
 41
0.003
 10
0.145965
 20
0.390512
 40
0.003
 41
0.003
  0
LWPOLYLINE
  5
E4
100
AcDbEntity
  8
0
 62
   254
100
AcDbPolyline
 90
        2
 70
     0
 39
0.003
 10
0.145965
 20
0.390512
 40
0.003
 41
0.003
 10
0.154815
 20
0.384126
 40
0.003
 41
0.003
  0
LWPOLYLINE
  5
E5
100
AcDbEntity
  8
0
 62
   254
100
AcDbPolyline
 90
        2
 70
     0
 39
0.003
 10
0.145965
 20
0.390512
 40
0.003
 41
0.003
 10
0.142488
 20
1.144055
 40
0.003
 41
0.003
  0
LWPOLYLINE
  5
E6
100
AcDbEntity
  8
0
 62
   254
100
AcDbPolyline
 90
        2
 70
     0
 39
0.003
 10
0.142488
 20
1.144055
 40
0.003
 41
0.003
 10
0.134417
 20
1.150575
 40
0.003
 41
0.003
  0
LWPOLYLINE
  5
E7
100
AcDbEntity
  8
0
 62
   254
100
AcDbPolyline
 90
        2
 70
     0
 39
0.003
 10
0.134417
 20
1.150575
 40
0.003
 41
0.003
 10
0.137894
 20
0.397031
 40
0.003
 41
0.003
  0
LWPOLYLINE
  5
E8
100
AcDbEntity
  8
0
 62
   254
100
AcDbPolyline
 90
        2
 70
     0
 39
0.003
 10
0.137894
 20
0.397031
 40
0.003
 41
0.003
 10
0.145965
 20
0.390512
 40
0.003
 41
0.003
  0
LWPOLYLINE
  5
E9
100
AcDbEntity
  8
0
 62
   254
100
AcDbPolyline
 90
        2
 70
     0
 39
0.003
 10
0.137894
 20
0.397031
 40
0.003
 41
0.003
 10
0.134417
 20
1.150575
 40
0.003
 41
0.003
  0
LWPOLYLINE
  5
EA
100
AcDbEntity
  8
0
 62
   254
100
AcDbPolyline
 90
        2
 70
     0
 39
0.003
 10
0.134417
 20
1.150575
 40
0.003
 41
0.003
 10
0.127059
 20
1.157224
 40
0.003
 41
0.003
  0
LWPOLYLINE
  5
EB
100
AcDbEntity
  8
0
 62
   254
100
AcDbPolyline
 90
        2
 70
     0
 39
0.003
 10
0.127059
 20
1.157224
 40
0.003
 41
0.003
 10
0.130535
 20
0.403681
 40
0.003
 41
0.003
  0
LWPOLYLINE
  5
EC
100
AcDbEntity
  8
0
 62
   254
100
AcDbPolyline
 90
        2
 70
     0
 39
0.003
 10
0.130535
 20
0.403681
 40
0.003
 41
0.003
 10
0.137894
 20
0.397031
 40
0.003
 41
0.003
  0
LWPOLYLINE
  5
ED
100
AcDbEntity
  8
0
 62
   254
100
AcDbPolyline
 90
        2
 70
     0
 39
0.003
 10
0.130535
 20
0.403681
 40
0.003
 41
0.003
 10
0.127059
 20
1.157224
 40
0.003
 41
0.003
  0
LWPOLYLINE
  5
EE
100
AcDbEntity
  8
0
 62
   254
100
AcDbPolyline
 90
        2
 70
     0
 39
0.003
 10
0.127059
 20
1.157224
 40
0.003
 41
0.003
 10
0.120374
 20
1.164024
 40
0.003
 41
0.003
  0
LWPOLYLINE
  5
EF
100
AcDbEntity
  8
0
 62
   254
100
AcDbPolyline
 90
        2
 70
     0
 39
0.003
 10
0.120374
 20
1.164024
 40
0.003
 41
0.003
 10
0.12385
 20
0.41048
 40
0.003
 41
0.003
  0
LWPOLYLINE
  5
F0
100
AcDbEntity
  8
0
 62
   254
100
AcDbPolyline
 90
        2
 70
     0
 39
0.003
 10
0.12385
 20
0.41048
 40
0.003
 41
0.003
 10
0.130535
 20
0.403681
 40
0.003
 41
0.003
  0
LWPOLYLINE
  5
F1
100
AcDbEntity
  8
0
 62
   254
100
AcDbPolyline
 90
        2
 70
     0
 39
0.003
 10
0.12385
 20
0.41048
 40
0.003
 41
0.003
 10
0.120374
 20
1.164024
 40
0.003
 41
0.003
  0
LWPOLYLINE
  5
F2
100
AcDbEntity
  8
0
 62
   254
100
AcDbPolyline
 90
        2
 70
     0
 39
0.003
 10
0.120374
 20
1.164024
 40
0.003
 41
0.003
 10
0.114315
 20
1.17098
 40
0.003
 41
0.003
  0
LWPOLYLINE
  5
F3
100
AcDbEntity
  8
0
 62
   254
100
AcDbPolyline
 90
        2
 70
     0
 39
0.003
 10
0.114315
 20
1.17098
 40
0.003
 41
0.003
 10
0.117791
 20
0.417437
 40
0.003
 41
0.003
  0
LWPOLYLINE
  5
F4
100
AcDbEntity
  8
0
 62
   254
100
AcDbPolyline
 90
        2
 70
     0
 39
0.003
 10
0.117791
 20
0.417437
 40
0.003
 41
0.003
 10
0.12385
 20
0.41048
 40
0.003
 41
0.003
  0
LWPOLYLINE
  5
F5
100
AcDbEntity
  8
0
 62
   254
100
AcDbPolyline
 90
        2
 70
     0
 39
0.003
 10
0.117791
 20
0.417437
 40
0.003
 41
0.003
 10
0.114315
 20
1.17098
 40
0.003
 41
0.003
  0
LWPOLYLINE
  5
F6
100
AcDbEntity
  8
0
 62
   254
100
AcDbPolyline
 90
        2
 70
     0
 39
0.003
 10
0.114315
 20
1.17098
 40
0.003
 41
0.003
 10
0.108835
 20
1.178106
 40
0.003
 41
0.003
  0
LWPOLYLINE
  5
F7
100
AcDbEntity
  8
0
 62
   254
100
AcDbPolyline
 90
        2
 70
     0
 39
0.003
 10
0.108835
 20
1.178106
 40
0.003
 41
0.003
 10
0.112311
 20
0.424563
 40
0.003
 41
0.003
  0
LWPOLYLINE
  5
F8
100
AcDbEntity
  8
0
 62
   254
100
AcDbPolyline
 90
        2
 70
     0
 39
0.003
 10
0.112311
 20
0.424563
 40
0.003
 41
0.003
 10
0.117791
 20
0.417437
 40
0.003
 41
0.003
  0
LWPOLYLINE
  5
F9
100
AcDbEntity
  8
0
 62
   254
100
AcDbPolyline
 90
        2
 70
     0
 39
0.003
 10
0.112311
 20
0.424563
 40
0.003
 41
0.003
 10
0.108835
 20
1.178106
 40
0.003
 41
0.003
  0
LWPOLYLINE
  5
FA
100
AcDbEntity
  8
0
 62
   254
100
AcDbPolyline
 90
        2
 70
     0
 39
0.003
 10
0.108835
 20
1.178106
 40
0.003
 41
0.003
 10
0.103874
 20
1.185398
 40
0.003
 41
0.003
  0
LWPOLYLINE
  5
FB
100
AcDbEntity
  8
0
 62
   254
100
AcDbPolyline
 90
        2
 70
     0
 39
0.003
 10
0.103874
 20
1.185398
 40
0.003
 41
0.003
 10
0.10735
 20
0.431854
 40
0.003
 41
0.003
  0
LWPOLYLINE
  5
FC
100
AcDbEntity
  8
0
 62
   254
100
AcDbPolyline
 90
        2
 70
     0
 39
0.003
 10
0.10735
 20
0.431854
 40
0.003
 41
0.003
 10
0.112311
 20
0.424563
 40
0.003
 41
0.003
  0
LWPOLYLINE
  5
FD
100
AcDbEntity
  8
0
 62
   254
100
AcDbPolyline
 90
        2
 70
     0
 39
0.003
 10
0.10735
 20
0.431854
 40
0.003
 41
0.003
 10
0.103874
 20
1.185398
 40
0.003
 41
0.003
  0
LWPOLYLINE
  5
FE
100
AcDbEntity
  8
0
 62
   254
100
AcDbPolyline
 90
        2
 70
     0
 39
0.003
 10
0.103874
 20
1.185398
 40
0.003
 41
0.003
 10
0.099398
 20
1.192878
 40
0.003
 41
0.003
  0
LWPOLYLINE
  5
FF
100
AcDbEntity
  8
0
 62
   254
100
AcDbPolyline
 90
        2
 70
     0
 39
0.003
 10
0.099398
 20
1.192878
 40
0.003
 41
0.003
 10
0.102874
 20
0.439335
 40
0.003
 41
0.003
  0
LWPOLYLINE
  5
100
100
AcDbEntity
  8
0
 62
   254
100
AcDbPolyline
 90
        2
 70
     0
 39
0.003
 10
0.102874
 20
0.439335
 40
0.003
 41
0.003
 10
0.10735
 20
0.431854
 40
0.003
 41
0.003
  0
LWPOLYLINE
  5
101
100
AcDbEntity
  8
0
 62
   254
100
AcDbPolyline
 90
        2
 70
     0
 39
0.003
 10
0.102874
 20
0.439335
 40
0.003
 41
0.003
 10
0.099398
 20
1.192878
 40
0.003
 41
0.003
  0
LWPOLYLINE
  5
102
100
AcDbEntity
  8
0
 62
   254
100
AcDbPolyline
 90
        2
 70
     0
 39
0.003
 10
0.099398
 20
1.192878
 40
0.003
 41
0.003
 10
0.09535
 20
1.200551
 40
0.003
 41
0.003
  0
LWPOLYLINE
  5
103
100
AcDbEntity
  8
0
 62
   254
100
AcDbPolyline
 90
        2
 70
     0
 39
0.003
 10
0.09535
 20
1.200551
 40
0.003
 41
0.003
 10
0.098827
 20
0.447008
 40
0.003
 41
0.003
  0
LWPOLYLINE
  5
104
100
AcDbEntity
  8
0
 62
   254
100
AcDbPolyline
 90
        2
 70
     0
 39
0.003
 10
0.098827
 20
0.447008
 40
0.003
 41
0.003
 10
0.102874
 20
0.439335
 40
0.003
 41
0.003
  0
LWPOLYLINE
  5
105
100
AcDbEntity
  8
0
 62
   254
100
AcDbPolyline
 90
        2
 70
     0
 39
0.003
 10
0.098827
 20
0.447008
 40
0.003
 41
0.003
 10
0.09535
 20
1.200551
 40
0.003
 41
0.003
  0
LWPOLYLINE
  5
106
100
AcDbEntity
  8
0
 62
   254
100
AcDbPolyline
 90
        2
 70
     0
 39
0.003
 10
0.09535
 20
1.200551
 40
0.003
 41
0.003
 10
0.091693
 20
1.208433
 40
0.003
 41
0.003
  0
LWPOLYLINE
  5
107
100
AcDbEntity
  8
0
 62
   254
100
AcDbPolyline
 90
        2
 70
     0
 39
0.003
 10
0.091693
 20
1.208433
 40
0.003
 41
0.003
 10
0.095169
 20
0.45489
 40
0.003
 41
0.003
  0
LWPOLYLINE
  5
108
100
AcDbEntity
  8
0
 62
   254
100
AcDbPolyline
 90
        2
 70
     0
 39
0.003
 10
0.095169
 20
0.45489
 40
0.003
 41
0.003
 10
0.098827
 20
0.447008
 40
0.003
 41
0.003
  0
LWPOLYLINE
  5
109
100
AcDbEntity
  8
0
 62
   254
100
AcDbPolyline
 90
        2
 70
     0
 39
0.003
 10
0.095169
 20
0.45489
 40
0.003
 41
0.003
 10
0.091693
 20
1.208433
 40
0.003
 41
0.003
  0
LWPOLYLINE
  5
10A
100
AcDbEntity
  8
0
 62
   254
100
AcDbPolyline
 90
        2
 70
     0
 39
0.003
 10
0.091693
 20
1.208433
 40
0.003
 41
0.003
 10
0.088366
 20
1.216524
 40
0.003
 41
0.003
  0
LWPOLYLINE
  5
10B
100
AcDbEntity
  8
0
 62
   254
100
AcDbPolyline
 90
        2
 70
     0
 39
0.003
 10
0.088366
 20
1.216524
 40
0.003
 41
0.003
 10
0.091843
 20
0.46298
 40
0.003
 41
0.003
  0
LWPOLYLINE
  5
10C
100
AcDbEntity
  8
0
 62
   254
100
AcDbPolyline
 90
        2
 70
     0
 39
0.003
 10
0.091843
 20
0.46298
 40
0.003
 41
0.003
 10
0.095169
 20
0.45489
 40
0.003
 41
0.003
  0
LWPOLYLINE
  5
10D
100
AcDbEntity
  8
0
 62
   254
100
AcDbPolyline
 90
        2
 70
     0
 39
0.003
 10
0.091843
 20
0.46298
 40
0.003
 41
0.003
 10
0.088366
 20
1.216524
 40
0.003
 41
0.003
  0
LWPOLYLINE
  5
10E
100
AcDbEntity
  8
0
 62
   254
100
AcDbPolyline
 90
        2
 70
     0
 39
0.003
 10
0.088366
 20
1.216524
 40
0.003
 41
0.003
 10
0.085327
 20
1.224839
 40
0.003
 41
0.003
  0
LWPOLYLINE
  5
10F
100
AcDbEntity
  8
0
 62
   254
100
AcDbPolyline
 90
        2
 70
     0
 39
0.003
 10
0.085327
 20
1.224839
 40
0.003
 41
0.003
 10
0.088803
 20
0.471295
 40
0.003
 41
0.003
  0
LWPOLYLINE
  5
110
100
AcDbEntity
  8
0
 62
   254
100
AcDbPolyline
 90
        2
 70
     0
 39
0.003
 10
0.088803
 20
0.471295
 40
0.003
 41
0.003
 10
0.091843
 20
0.46298
 40
0.003
 41
0.003
  0
LWPOLYLINE
  5
111
100
AcDbEntity
  8
0
 62
   254
100
AcDbPolyline
 90
        2
 70
     0
 39
0.003
 10
0.088803
 20
0.471295
 40
0.003
 41
0.003
 10
0.085327
 20
1.224839
 40
0.003
 41
0.003
  0
LWPOLYLINE
  5
112
100
AcDbEntity
  8
0
 62
   254
100
AcDbPolyline
 90
        2
 70
     0
 39
0.003
 10
0.085327
 20
1.224839
 40
0.003
 41
0.003
 10
0.082531
 20
1.233382
 40
0.003
 41
0.003
  0
LWPOLYLINE
  5
113
100
AcDbEntity
  8
0
 62
   254
100
AcDbPolyline
 90
        2
 70
     0
 39
0.003
 10
0.082531
 20
1.233382
 40
0.003
 41
0.003
 10
0.086008
 20
0.479839
 40
0.003
 41
0.003
  0
LWPOLYLINE
  5
114
100
AcDbEntity
  8
0
 62
   254
100
AcDbPolyline
 90
        2
 70
     0
 39
0.003
 10
0.086008
 20
0.479839
 40
0.003
 41
0.003
 10
0.088803
 20
0.471295
 40
0.003
 41
0.003
  0
LWPOLYLINE
  5
115
100
AcDbEntity
  8
0
 62
   254
100
AcDbPolyline
 90
        2
 70
     0
 39
0.003
 10
0.086008
 20
0.479839
 40
0.003
 41
0.003
 10
0.082531
 20
1.233382
 40
0.003
 41
0.003
  0
LWPOLYLINE
  5
116
100
AcDbEntity
  8
0
 62
   254
100
AcDbPolyline
 90
        2
 70
     0
 39
0.003
 10
0.082531
 20
1.233382
 40
0.003
 41
0.003
 10
0.079929
 20
1.242173
 40
0.003
 41
0.003
  0
LWPOLYLINE
  5
117
100
AcDbEntity
  8
0
 62
   254
100
AcDbPolyline
 90
        2
 70
     0
 39
0.003
 10
0.079929
 20
1.242173
 40
0.003
 41
0.003
 10
0.083406
 20
0.48863
 40
0.003
 41
0.003
  0
LWPOLYLINE
  5
118
100
AcDbEntity
  8
0
 62
   254
100
AcDbPolyline
 90
        2
 70
     0
 39
0.003
 10
0.083406
 20
0.48863
 40
0.003
 41
0.003
 10
0.086008
 20
0.479839
 40
0.003
 41
0.003
  0
LWPOLYLINE
  5
119
100
AcDbEntity
  8
0
 62
   254
100
AcDbPolyline
 90
        2
 70
     0
 39
0.003
 10
0.083406
 20
0.48863
 40
0.003
 41
0.003
 10
0.079929
 20
1.242173
 40
0.003
 41
0.003
  0
LWPOLYLINE
  5
11A
100
AcDbEntity
  8
0
 62
   254
100
AcDbPolyline
 90
        2
 70
     0
 39
0.003
 10
0.079929
 20
1.242173
 40
0.003
 41
0.003
 10
0.077465
 20
1.251209
 40
0.003
 41
0.003
  0
LWPOLYLINE
  5
11B
100
AcDbEntity
  8
0
 62
   254
100
AcDbPolyline
 90
        2
 70
     0
 39
0.003
 10
0.077465
 20
1.251209
 40
0.003
 41
0.003
 10
0.080941
 20
0.497665
 40
0.003
 41
0.003
  0
LWPOLYLINE
  5
11C
100
AcDbEntity
  8
0
 62
   254
100
AcDbPolyline
 90
        2
 70
     0
 39
0.003
 10
0.080941
 20
0.497665
 40
0.003
 41
0.003
 10
0.083406
 20
0.48863
 40
0.003
 41
0.003
  0
LWPOLYLINE
  5
11D
100
AcDbEntity
  8
0
 62
   254
100
AcDbPolyline
 90
        2
 70
     0
 39
0.003
 10
0.080941
 20
0.497665
 40
0.003
 41
0.003
 10
0.077465
 20
1.251209
 40
0.003
 41
0.003
  0
LWPOLYLINE
  5
11E
100
AcDbEntity
  8
0
 62
   254
100
AcDbPolyline
 90
        2
 70
     0
 39
0.003
 10
0.077465
 20
1.251209
 40
0.003
 41
0.003
 10
0.075102
 20
1.260508
 40
0.003
 41
0.003
  0
LWPOLYLINE
  5
11F
100
AcDbEntity
  8
0
 62
   254
100
AcDbPolyline
 90
        2
 70
     0
 39
0.003
 10
0.075102
 20
1.260508
 40
0.003
 41
0.003
 10
0.078579
 20
0.506965
 40
0.003
 41
0.003
  0
LWPOLYLINE
  5
120
100
AcDbEntity
  8
0
 62
   254
100
AcDbPolyline
 90
        2
 70
     0
 39
0.003
 10
0.078579
 20
0.506965
 40
0.003
 41
0.003
 10
0.080941
 20
0.497665
 40
0.003
 41
0.003
  0
LWPOLYLINE
  5
121
100
AcDbEntity
  8
0
 62
   254
100
AcDbPolyline
 90
        2
 70
     0
 39
0.003
 10
0.078579
 20
0.506965
 40
0.003
 41
0.003
 10
0.075102
 20
1.260508
 40
0.003
 41
0.003
  0
LWPOLYLINE
  5
122
100
AcDbEntity
  8
0
 62
   254
100
AcDbPolyline
 90
        2
 70
     0
 39
0.003
 10
0.075102
 20
1.260508
 40
0.003
 41
0.003
 10
0.07278
 20
1.270079
 40
0.003
 41
0.003
  0
LWPOLYLINE
  5
123
100
AcDbEntity
  8
0
 62
   254
100
AcDbPolyline
 90
        2
 70
     0
 39
0.003
 10
0.07278
 20
1.270079
 40
0.003
 41
0.003
 10
0.076256
 20
0.516535
 40
0.003
 41
0.003
  0
LWPOLYLINE
  5
124
100
AcDbEntity
  8
0
 62
   254
100
AcDbPolyline
 90
        2
 70
     0
 39
0.003
 10
0.076256
 20
0.516535
 40
0.003
 41
0.003
 10
0.078579
 20
0.506965
 40
0.003
 41
0.003
  0
LWPOLYLINE
  5
125
100
AcDbEntity
  8
0
 62
   254
100
AcDbPolyline
 90
        2
 70
     0
 39
0.003
 10
0.076256
 20
0.516535
 40
0.003
 41
0.003
 10
0.07278
 20
1.270079
 40
0.003
 41
0.003
  0
LWPOLYLINE
  5
126
100
AcDbEntity
  8
0
 62
   254
100
AcDbPolyline
 90
        2
 70
     0
 39
0.003
 10
0.07278
 20
1.270079
 40
0.003
 41
0.003
 10
0.070469
 20
1.279933
 40
0.003
 41
0.003
  0
LWPOLYLINE
  5
127
100
AcDbEntity
  8
0
 62
   254
100
AcDbPolyline
 90
        2
 70
     0
 39
0.003
 10
0.070469
 20
1.279933
 40
0.003
 41
0.003
 10
0.073945
 20
0.52639
 40
0.003
 41
0.003
  0
LWPOLYLINE
  5
128
100
AcDbEntity
  8
0
 62
   254
100
AcDbPolyline
 90
        2
 70
     0
 39
0.003
 10
0.073945
 20
0.52639
 40
0.003
 41
0.003
 10
0.076256
 20
0.516535
 40
0.003
 41
0.003
  0
LWPOLYLINE
  5
129
100
AcDbEntity
  8
0
 62
   254
100
AcDbPolyline
 90
        2
 70
     0
 39
0.003
 10
0.073945
 20
0.52639
 40
0.003
 41
0.003
 10
0.070469
 20
1.279933
 40
0.003
 41
0.003
  0
LWPOLYLINE
  5
12A
100
AcDbEntity
  8
0
 62
   254
100
AcDbPolyline
 90
        2
 70
     0
 39
0.003
 10
0.070469
 20
1.279933
 40
0.003
 41
0.003
 10
0.068098
 20
1.290071
 40
0.003
 41
0.003
  0
LWPOLYLINE
  5
12B
100
AcDbEntity
  8
0
 62
   254
100
AcDbPolyline
 90
        2
 70
     0
 39
0.003
 10
0.068098
 20
1.290071
 40
0.003
 41
0.003
 10
0.071575
 20
0.536528
 40
0.003
 41
0.003
  0
LWPOLYLINE
  5
12C
100
AcDbEntity
  8
0
 62
   254
100
AcDbPolyline
 90
        2
 70
     0
 39
0.003
 10
0.071575
 20
0.536528
 40
0.003
 41
0.003
 10
0.073945
 20
0.52639
 40
0.003
 41
0.003
  0
LWPOLYLINE
  5
12D
100
AcDbEntity
  8
0
 62
   254
100
AcDbPolyline
 90
        2
 70
     0
 39
0.003
 10
0.071575
 20
0.536528
 40
0.003
 41
0.003
 10
0.068098
 20
1.290071
 40
0.003
 41
0.003
  0
LWPOLYLINE
  5
12E
100
AcDbEntity
  8
0
 62
   254
100
AcDbPolyline
 90
        2
 70
     0
 39
0.003
 10
0.068098
 20
1.290071
 40
0.003
 41
0.003
 10
0.065638
 20
1.300512
 40
0.003
 41
0.003
  0
LWPOLYLINE
  5
12F
100
AcDbEntity
  8
0
 62
   254
100
AcDbPolyline
 90
        2
 70
     0
 39
0.003
 10
0.065638
 20
1.300512
 40
0.003
 41
0.003
 10
0.069114
 20
0.546969
 40
0.003
 41
0.003
  0
LWPOLYLINE
  5
130
100
AcDbEntity
  8
0
 62
   254
100
AcDbPolyline
 90
        2
 70
     0
 39
0.003
 10
0.069114
 20
0.546969
 40
0.003
 41
0.003
 10
0.071575
 20
0.536528
 40
0.003
 41
0.003
  0
LWPOLYLINE
  5
131
100
AcDbEntity
  8
0
 62
   254
100
AcDbPolyline
 90
        2
 70
     0
 39
0.003
 10
0.069114
 20
0.546969
 40
0.003
 41
0.003
 10
0.065638
 20
1.300512
 40
0.003
 41
0.003
  0
LWPOLYLINE
  5
132
100
AcDbEntity
  8
0
 62
   254
100
AcDbPolyline
 90
        2
 70
     0
 39
0.003
 10
0.065638
 20
1.300512
 40
0.003
 41
0.003
 10
0.063031
 20
1.31126
 40
0.003
 41
0.003
  0
LWPOLYLINE
  5
133
100
AcDbEntity
  8
0
 62
   254
100
AcDbPolyline
 90
        2
 70
     0
 39
0.003
 10
0.063031
 20
1.31126
 40
0.003
 41
0.003
 10
0.066508
 20
0.557717
 40
0.003
 41
0.003
  0
LWPOLYLINE
  5
134
100
AcDbEntity
  8
0
 62
   254
100
AcDbPolyline
 90
        2
 70
     0
 39
0.003
 10
0.066508
 20
0.557717
 40
0.003
 41
0.003
 10
0.069114
 20
0.546969
 40
0.003
 41
0.003
  0
LWPOLYLINE
  5
135
100
AcDbEntity
  8
0
 62
   254
100
AcDbPolyline
 90
        2
 70
     0
 39
0.003
 10
0.066508
 20
0.557717
 40
0.003
 41
0.003
 10
0.063031
 20
1.31126
 40
0.003
 41
0.003
  0
LWPOLYLINE
  5
136
100
AcDbEntity
  8
0
 62
   254
100
AcDbPolyline
 90
        2
 70
     0
 39
0.003
 10
0.063031
 20
1.31126
 40
0.003
 41
0.003
 10
0.06024
 20
1.322331
 40
0.003
 41
0.003
  0
LWPOLYLINE
  5
137
100
AcDbEntity
  8
0
 62
   254
100
AcDbPolyline
 90
        2
 70
     0
 39
0.003
 10
0.06024
 20
1.322331
 40
0.003
 41
0.003
 10
0.063717
 20
0.568787
 40
0.003
 41
0.003
  0
LWPOLYLINE
  5
138
100
AcDbEntity
  8
0
 62
   254
100
AcDbPolyline
 90
        2
 70
     0
 39
0.003
 10
0.063717
 20
0.568787
 40
0.003
 41
0.003
 10
0.066508
 20
0.557717
 40
0.003
 41
0.003
  0
LWPOLYLINE
  5
139
100
AcDbEntity
  8
0
 62
     0
100
AcDbPolyline
 90
        2
 70
     0
 39
0.003
 10
0.643496
 20
0.075075
 40
0.003
 41
0.003
 10
0.64002
 20
0.828618
 40
0.003
 41
0.003
  0
LWPOLYLINE
  5
13A
100
AcDbEntity
  8
0
 62
     0
100
AcDbPolyline
 90
        2
 70
     0
 39
0.003
 10
0.64002
 20
0.828618
 40
0.003
 41
0.003
 10
0.63724
 20
0.846224
 40
0.003
 41
0.003
  0
LWPOLYLINE
  5
13B
100
AcDbEntity
  8
0
 62
     0
100
AcDbPolyline
 90
        2
 70
     0
 39
0.003
 10
0.63724
 20
0.846224
 40
0.003
 41
0.003
 10
0.633984
 20
0.862728
 40
0.003
 41
0.003
  0
LWPOLYLINE
  5
13C
100
AcDbEntity
  8
0
 62
     0
100
AcDbPolyline
 90
        2
 70
     0
 39
0.003
 10
0.633984
 20
0.862728
 40
0.003
 41
0.003
 10
0.630236
 20
0.878161
 40
0.003
 41
0.003
  0
LWPOLYLINE
  5
13D
100
AcDbEntity
  8
0
 62
     0
100
AcDbPolyline
 90
        2
 70
     0
 39
0.003
 10
0.630236
 20
0.878161
 40
0.003
 41
0.003
 10
0.625996
 20
0.892591
 40
0.003
 41
0.003
  0
LWPOLYLINE
  5
13E
100
AcDbEntity
  8
0
 62
     0
100
AcDbPolyline
 90
        2
 70
     0
 39
0.003
 10
0.625996
 20
0.892591
 40
0.003
 41
0.003
 10
0.621256
 20
0.906043
 40
0.003
 41
0.003
  0
LWPOLYLINE
  5
13F
100
AcDbEntity
  8
0
 62
     0
100
AcDbPolyline
 90
        2
 70
     0
 39
0.003
 10
0.621256
 20
0.906043
 40
0.003
 41
0.003
 10
0.616024
 20
0.918583
 40
0.003
 41
0.003
  0
LWPOLYLINE
  5
140
100
AcDbEntity
  8
0
 62
     0
100
AcDbPolyline
 90
        2
 70
     0
 39
0.003
 10
0.616024
 20
0.918583
 40
0.003
 41
0.003
 10
0.610283
 20
0.930248
 40
0.003
 41
0.003
  0
LWPOLYLINE
  5
141
100
AcDbEntity
  8
0
 62
     0
100
AcDbPolyline
 90
        2
 70
     0
 39
0.003
 10
0.610283
 20
0.930248
 40
0.003
 41
0.003
 10
0.604043
 20
0.941094
 40
0.003
 41
0.003
  0
LWPOLYLINE
  5
142
100
AcDbEntity
  8
0
 62
     0
100
AcDbPolyline
 90
        2
 70
     0
 39
0.003
 10
0.604043
 20
0.941094
 40
0.003
 41
0.003
 10
0.597283
 20
0.951157
 40
0.003
 41
0.003
  0
LWPOLYLINE
  5
143
100
AcDbEntity
  8
0
 62
     0
100
AcDbPolyline
 90
        2
 70
     0
 39
0.003
 10
0.597283
 20
0.951157
 40
0.003
 41
0.003
 10
0.590016
 20
0.960496
 40
0.003
 41
0.003
  0
LWPOLYLINE
  5
144
100
AcDbEntity
  8
0
 62
     0
100
AcDbPolyline
 90
        2
 70
     0
 39
0.003
 10
0.590016
 20
0.960496
 40
0.003
 41
0.003
 10
0.582224
 20
0.969154
 40
0.003
 41
0.003
  0
LWPOLYLINE
  5
145
100
AcDbEntity
  8
0
 62
     0
100
AcDbPolyline
 90
        2
 70
     0
 39
0.003
 10
0.582224
 20
0.969154
 40
0.003
 41
0.003
 10
0.573921
 20
0.977185
 40
0.003
 41
0.003
  0
LWPOLYLINE
  5
146
100
AcDbEntity
  8
0
 62
     0
100
AcDbPolyline
 90
        2
 70
     0
 39
0.003
 10
0.573921
 20
0.977185
 40
0.003
 41
0.003
 10
0.565083
 20
0.984622
 40
0.003
 41
0.003
  0
LWPOLYLINE
  5
147
100
AcDbEntity
  8
0
 62
     0
100
AcDbPolyline
 90
        2
 70
     0
 39
0.003
 10
0.565083
 20
0.984622
 40
0.003
 41
0.003
 10
0.55572
 20
0.991531
 40
0.003
 41
0.003
  0
LWPOLYLINE
  5
148
100
AcDbEntity
  8
0
 62
     0
100
AcDbPolyline
 90
        2
 70
     0
 39
0.003
 10
0.55572
 20
0.991531
 40
0.003
 41
0.003
 10
0.545827
 20
0.997949
 40
0.003
 41
0.003
  0
LWPOLYLINE
  5
149
100
AcDbEntity
  8
0
 62
     0
100
AcDbPolyline
 90
        2
 70
     0
 39
0.003
 10
0.545827
 20
0.997949
 40
0.003
 41
0.003
 10
0.535398
 20
1.003929
 40
0.003
 41
0.003
  0
LWPOLYLINE
  5
14A
100
AcDbEntity
  8
0
 62
     0
100
AcDbPolyline
 90
        2
 70
     0
 39
0.003
 10
0.535398
 20
1.003929
 40
0.003
 41
0.003
 10
0.524421
 20
1.009508
 40
0.003
 41
0.003
  0
LWPOLYLINE
  5
14B
100
AcDbEntity
  8
0
 62
     0
100
AcDbPolyline
 90
        2
 70
     0
 39
0.003
 10
0.524421
 20
1.009508
 40
0.003
 41
0.003
 10
0.512906
 20
1.014748
 40
0.003
 41
0.003
  0
LWPOLYLINE
  5
14C
100
AcDbEntity
  8
0
 62
     0
100
AcDbPolyline
 90
        2
 70
     0
 39
0.003
 10
0.512906
 20
1.014748
 40
0.003
 41
0.003
 10
0.500839
 20
1.019689
 40
0.003
 41
0.003
  0
LWPOLYLINE
  5
14D
100
AcDbEntity
  8
0
 62
     0
100
AcDbPolyline
 90
        2
 70
     0
 39
0.003
 10
0.500839
 20
1.019689
 40
0.003
 41
0.003
 10
0.488228
 20
1.024386
 40
0.003
 41
0.003
  0
LWPOLYLINE
  5
14E
100
AcDbEntity
  8
0
 62
     0
100
AcDbPolyline
 90
        2
 70
     0
 39
0.003
 10
0.488228
 20
1.024386
 40
0.003
 41
0.003
 10
0.475059
 20
1.028874
 40
0.003
 41
0.003
  0
LWPOLYLINE
  5
14F
100
AcDbEntity
  8
0
 62
     0
100
AcDbPolyline
 90
        2
 70
     0
 39
0.003
 10
0.475059
 20
1.028874
 40
0.003
 41
0.003
 10
0.461335
 20
1.033217
 40
0.003
 41
0.003
  0
LWPOLYLINE
  5
150
100
AcDbEntity
  8
0
 62
     0
100
AcDbPolyline
 90
        2
 70
     0
 39
0.003
 10
0.461335
 20
1.033217
 40
0.003
 41
0.003
 10
0.447047
 20
1.037449
 40
0.003
 41
0.003
  0
LWPOLYLINE
  5
151
100
AcDbEntity
  8
0
 62
     0
100
AcDbPolyline
 90
        2
 70
     0
 39
0.003
 10
0.447047
 20
1.037449
 40
0.003
 41
0.003
 10
0.432201
 20
1.04163
 40
0.003
 41
0.003
  0
LWPOLYLINE
  5
152
100
AcDbEntity
  8
0
 62
     0
100
AcDbPolyline
 90
        2
 70
     0
 39
0.003
 10
0.432201
 20
1.04163
 40
0.003
 41
0.003
 10
0.416776
 20
1.045791
 40
0.003
 41
0.003
  0
LWPOLYLINE
  5
153
100
AcDbEntity
  8
0
 62
     0
100
AcDbPolyline
 90
        2
 70
     0
 39
0.003
 10
0.416776
 20
1.045791
 40
0.003
 41
0.003
 10
0.400783
 20
1.05
 40
0.003
 41
0.003
  0
LWPOLYLINE
  5
154
100
AcDbEntity
  8
0
 62
     0
100
AcDbPolyline
 90
        2
 70
     0
 39
0.003
 10
0.400783
 20
1.05
 40
0.003
 41
0.003
 10
0.384209
 20
1.054287
 40
0.003
 41
0.003
  0
LWPOLYLINE
  5
155
100
AcDbEntity
  8
0
 62
     0
100
AcDbPolyline
 90
        2
 70
     0
 39
0.003
 10
0.384209
 20
1.054287
 40
0.003
 41
0.003
 10
0.367063
 20
1.05872
 40
0.003
 41
0.003
  0
LWPOLYLINE
  5
156
100
AcDbEntity
  8
0
 62
     0
100
AcDbPolyline
 90
        2
 70
     0
 39
0.003
 10
0.367063
 20
1.05872
 40
0.003
 41
0.003
 10
0.349327
 20
1.063327
 40
0.003
 41
0.003
  0
LWPOLYLINE
  5
157
100
AcDbEntity
  8
0
 62
     0
100
AcDbPolyline
 90
        2
 70
     0
 39
0.003
 10
0.349327
 20
1.063327
 40
0.003
 41
0.003
 10
0.331008
 20
1.068169
 40
0.003
 41
0.003
  0
LWPOLYLINE
  5
158
100
AcDbEntity
  8
0
 62
     0
100
AcDbPolyline
 90
        2
 70
     0
 39
0.003
 10
0.331008
 20
1.068169
 40
0.003
 41
0.003
 10
0.312094
 20
1.073283
 40
0.003
 41
0.003
  0
LWPOLYLINE
  5
159
100
AcDbEntity
  8
0
 62
     0
100
AcDbPolyline
 90
        2
 70
     0
 39
0.003
 10
0.312094
 20
1.073283
 40
0.003
 41
0.003
 10
0.292594
 20
1.078732
 40
0.003
 41
0.003
  0
LWPOLYLINE
  5
15A
100
AcDbEntity
  8
0
 62
     0
100
AcDbPolyline
 90
        2
 70
     0
 39
0.003
 10
0.292594
 20
1.078732
 40
0.003
 41
0.003
 10
0.273421
 20
1.084358
 40
0.003
 41
0.003
  0
LWPOLYLINE
  5
15B
100
AcDbEntity
  8
0
 62
     0
100
AcDbPolyline
 90
        2
 70
     0
 39
0.003
 10
0.273421
 20
1.084358
 40
0.003
 41
0.003
 10
0.255508
 20
1.090028
 40
0.003
 41
0.003
  0
LWPOLYLINE
  5
15C
100
AcDbEntity
  8
0
 62
     0
100
AcDbPolyline
 90
        2
 70
     0
 39
0.003
 10
0.255508
 20
1.090028
 40
0.003
 41
0.003
 10
0.238787
 20
1.095732
 40
0.003
 41
0.003
  0
LWPOLYLINE
  5
15D
100
AcDbEntity
  8
0
 62
     0
100
AcDbPolyline
 90
        2
 70
     0
 39
0.003
 10
0.238787
 20
1.095732
 40
0.003
 41
0.003
 10
0.223224
 20
1.101496
 40
0.003
 41
0.003
  0
LWPOLYLINE
  5
15E
100
AcDbEntity
  8
0
 62
     0
100
AcDbPolyline
 90
        2
 70
     0
 39
0.003
 10
0.223224
 20
1.101496
 40
0.003
 41
0.003
 10
0.20876
 20
1.107315
 40
0.003
 41
0.003
  0
LWPOLYLINE
  5
15F
100
AcDbEntity
  8
0
 62
     0
100
AcDbPolyline
 90
        2
 70
     0
 39
0.003
 10
0.20876
 20
1.107315
 40
0.003
 41
0.003
 10
0.195358
 20
1.113209
 40
0.003
 41
0.003
  0
LWPOLYLINE
  5
160
100
AcDbEntity
  8
0
 62
     0
100
AcDbPolyline
 90
        2
 70
     0
 39
0.003
 10
0.195358
 20
1.113209
 40
0.003
 41
0.003
 10
0.182961
 20
1.119177
 40
0.003
 41
0.003
  0
LWPOLYLINE
  5
161
100
AcDbEntity
  8
0
 62
     0
100
AcDbPolyline
 90
        2
 70
     0
 39
0.003
 10
0.182961
 20
1.119177
 40
0.003
 41
0.003
 10
0.171528
 20
1.125244
 40
0.003
 41
0.003
  0
LWPOLYLINE
  5
162
100
AcDbEntity
  8
0
 62
     0
100
AcDbPolyline
 90
        2
 70
     0
 39
0.003
 10
0.171528
 20
1.125244
 40
0.003
 41
0.003
 10
0.161
 20
1.131398
 40
0.003
 41
0.003
  0
LWPOLYLINE
  5
163
100
AcDbEntity
  8
0
 62
     0
100
AcDbPolyline
 90
        2
 70
     0
 39
0.003
 10
0.161
 20
1.131398
 40
0.003
 41
0.003
 10
0.151339
 20
1.137669
 40
0.003
 41
0.003
  0
LWPOLYLINE
  5
164
100
AcDbEntity
  8
0
 62
     0
100
AcDbPolyline
 90
        2
 70
     0
 39
0.003
 10
0.151339
 20
1.137669
 40
0.003
 41
0.003
 10
0.142488
 20
1.144055
 40
0.003
 41
0.003
  0
LWPOLYLINE
  5
165
100
AcDbEntity
  8
0
 62
     0
100
AcDbPolyline
 90
        2
 70
     0
 39
0.003
 10
0.142488
 20
1.144055
 40
0.003
 41
0.003
 10
0.134417
 20
1.150575
 40
0.003
 41
0.003
  0
LWPOLYLINE
  5
166
100
AcDbEntity
  8
0
 62
     0
100
AcDbPolyline
 90
        2
 70
     0
 39
0.003
 10
0.134417
 20
1.150575
 40
0.003
 41
0.003
 10
0.127059
 20
1.157224
 40
0.003
 41
0.003
  0
LWPOLYLINE
  5
167
100
AcDbEntity
  8
0
 62
     0
100
AcDbPolyline
 90
        2
 70
     0
 39
0.003
 10
0.127059
 20
1.157224
 40
0.003
 41
0.003
 10
0.120374
 20
1.164024
 40
0.003
 41
0.003
  0
LWPOLYLINE
  5
168
100
AcDbEntity
  8
0
 62
     0
100
AcDbPolyline
 90
        2
 70
     0
 39
0.003
 10
0.120374
 20
1.164024
 40
0.003
 41
0.003
 10
0.114315
 20
1.17098
 40
0.003
 41
0.003
  0
LWPOLYLINE
  5
169
100
AcDbEntity
  8
0
 62
     0
100
AcDbPolyline
 90
        2
 70
     0
 39
0.003
 10
0.114315
 20
1.17098
 40
0.003
 41
0.003
 10
0.108835
 20
1.178106
 40
0.003
 41
0.003
  0
LWPOLYLINE
  5
16A
100
AcDbEntity
  8
0
 62
     0
100
AcDbPolyline
 90
        2
 70
     0
 39
0.003
 10
0.108835
 20
1.178106
 40
0.003
 41
0.003
 10
0.103874
 20
1.185398
 40
0.003
 41
0.003
  0
LWPOLYLINE
  5
16B
100
AcDbEntity
  8
0
 62
     0
100
AcDbPolyline
 90
        2
 70
     0
 39
0.003
 10
0.103874
 20
1.185398
 40
0.003
 41
0.003
 10
0.099398
 20
1.192878
 40
0.003
 41
0.003
  0
LWPOLYLINE
  5
16C
100
AcDbEntity
  8
0
 62
     0
100
AcDbPolyline
 90
        2
 70
     0
 39
0.003
 10
0.099398
 20
1.192878
 40
0.003
 41
0.003
 10
0.09535
 20
1.200551
 40
0.003
 41
0.003
  0
LWPOLYLINE
  5
16D
100
AcDbEntity
  8
0
 62
     0
100
AcDbPolyline
 90
        2
 70
     0
 39
0.003
 10
0.09535
 20
1.200551
 40
0.003
 41
0.003
 10
0.091693
 20
1.208433
 40
0.003
 41
0.003
  0
LWPOLYLINE
  5
16E
100
AcDbEntity
  8
0
 62
     0
100
AcDbPolyline
 90
        2
 70
     0
 39
0.003
 10
0.091693
 20
1.208433
 40
0.003
 41
0.003
 10
0.088366
 20
1.216524
 40
0.003
 41
0.003
  0
LWPOLYLINE
  5
16F
100
AcDbEntity
  8
0
 62
     0
100
AcDbPolyline
 90
        2
 70
     0
 39
0.003
 10
0.088366
 20
1.216524
 40
0.003
 41
0.003
 10
0.085327
 20
1.224839
 40
0.003
 41
0.003
  0
LWPOLYLINE
  5
170
100
AcDbEntity
  8
0
 62
     0
100
AcDbPolyline
 90
        2
 70
     0
 39
0.003
 10
0.085327
 20
1.224839
 40
0.003
 41
0.003
 10
0.082531
 20
1.233382
 40
0.003
 41
0.003
  0
LWPOLYLINE
  5
171
100
AcDbEntity
  8
0
 62
     0
100
AcDbPolyline
 90
        2
 70
     0
 39
0.003
 10
0.082531
 20
1.233382
 40
0.003
 41
0.003
 10
0.079929
 20
1.242173
 40
0.003
 41
0.003
  0
LWPOLYLINE
  5
172
100
AcDbEntity
  8
0
 62
     0
100
AcDbPolyline
 90
        2
 70
     0
 39
0.003
 10
0.079929
 20
1.242173
 40
0.003
 41
0.003
 10
0.077465
 20
1.251209
 40
0.003
 41
0.003
  0
LWPOLYLINE
  5
173
100
AcDbEntity
  8
0
 62
     0
100
AcDbPolyline
 90
        2
 70
     0
 39
0.003
 10
0.077465
 20
1.251209
 40
0.003
 41
0.003
 10
0.075102
 20
1.260508
 40
0.003
 41
0.003
  0
LWPOLYLINE
  5
174
100
AcDbEntity
  8
0
 62
     0
100
AcDbPolyline
 90
        2
 70
     0
 39
0.003
 10
0.075102
 20
1.260508
 40
0.003
 41
0.003
 10
0.07278
 20
1.270079
 40
0.003
 41
0.003
  0
LWPOLYLINE
  5
175
100
AcDbEntity
  8
0
 62
     0
100
AcDbPolyline
 90
        2
 70
     0
 39
0.003
 10
0.07278
 20
1.270079
 40
0.003
 41
0.003
 10
0.070469
 20
1.279933
 40
0.003
 41
0.003
  0
LWPOLYLINE
  5
176
100
AcDbEntity
  8
0
 62
     0
100
AcDbPolyline
 90
        2
 70
     0
 39
0.003
 10
0.070469
 20
1.279933
 40
0.003
 41
0.003
 10
0.068098
 20
1.290071
 40
0.003
 41
0.003
  0
LWPOLYLINE
  5
177
100
AcDbEntity
  8
0
 62
     0
100
AcDbPolyline
 90
        2
 70
     0
 39
0.003
 10
0.068098
 20
1.290071
 40
0.003
 41
0.003
 10
0.065638
 20
1.300512
 40
0.003
 41
0.003
  0
LWPOLYLINE
  5
178
100
AcDbEntity
  8
0
 62
     0
100
AcDbPolyline
 90
        2
 70
     0
 39
0.003
 10
0.065638
 20
1.300512
 40
0.003
 41
0.003
 10
0.063031
 20
1.31126
 40
0.003
 41
0.003
  0
LWPOLYLINE
  5
179
100
AcDbEntity
  8
0
 62
     0
100
AcDbPolyline
 90
        2
 70
     0
 39
0.003
 10
0.063031
 20
1.31126
 40
0.003
 41
0.003
 10
0.06024
 20
1.322331
 40
0.003
 41
0.003
  0
LWPOLYLINE
  5
17A
100
AcDbEntity
  8
0
 62
     0
100
AcDbPolyline
 90
        2
 70
     0
 39
0.003
 10
0.06024
 20
1.322331
 40
0.003
 41
0.003
 10
0.063717
 20
0.568787
 40
0.003
 41
0.003
  0
LWPOLYLINE
  5
17B
100
AcDbEntity
  8
0
 62
     0
100
AcDbPolyline
 90
        2
 70
     0
 39
0.003
 10
0.063717
 20
0.568787
 40
0.003
 41
0.003
 10
0.066508
 20
0.557717
 40
0.003
 41
0.003
  0
LWPOLYLINE
  5
17C
100
AcDbEntity
  8
0
 62
     0
100
AcDbPolyline
 90
        2
 70
     0
 39
0.003
 10
0.066508
 20
0.557717
 40
0.003
 41
0.003
 10
0.069114
 20
0.546969
 40
0.003
 41
0.003
  0
LWPOLYLINE
  5
17D
100
AcDbEntity
  8
0
 62
     0
100
AcDbPolyline
 90
        2
 70
     0
 39
0.003
 10
0.069114
 20
0.546969
 40
0.003
 41
0.003
 10
0.071575
 20
0.536528
 40
0.003
 41
0.003
  0
LWPOLYLINE
  5
17E
100
AcDbEntity
  8
0
 62
     0
100
AcDbPolyline
 90
        2
 70
     0
 39
0.003
 10
0.071575
 20
0.536528
 40
0.003
 41
0.003
 10
0.073945
 20
0.52639
 40
0.003
 41
0.003
  0
LWPOLYLINE
  5
17F
100
AcDbEntity
  8
0
 62
     0
100
AcDbPolyline
 90
        2
 70
     0
 39
0.003
 10
0.073945
 20
0.52639
 40
0.003
 41
0.003
 10
0.076256
 20
0.516535
 40
0.003
 41
0.003
  0
LWPOLYLINE
  5
180
100
AcDbEntity
  8
0
 62
     0
100
AcDbPolyline
 90
        2
 70
     0
 39
0.003
 10
0.076256
 20
0.516535
 40
0.003
 41
0.003
 10
0.078579
 20
0.506965
 40
0.003
 41
0.003
  0
LWPOLYLINE
  5
181
100
AcDbEntity
  8
0
 62
     0
100
AcDbPolyline
 90
        2
 70
     0
 39
0.003
 10
0.078579
 20
0.506965
 40
0.003
 41
0.003
 10
0.080941
 20
0.497665
 40
0.003
 41
0.003
  0
LWPOLYLINE
  5
182
100
AcDbEntity
  8
0
 62
     0
100
AcDbPolyline
 90
        2
 70
     0
 39
0.003
 10
0.080941
 20
0.497665
 40
0.003
 41
0.003
 10
0.083406
 20
0.48863
 40
0.003
 41
0.003
  0
LWPOLYLINE
  5
183
100
AcDbEntity
  8
0
 62
     0
100
AcDbPolyline
 90
        2
 70
     0
 39
0.003
 10
0.083406
 20
0.48863
 40
0.003
 41
0.003
 10
0.086008
 20
0.479839
 40
0.003
 41
0.003
  0
LWPOLYLINE
  5
184
100
AcDbEntity
  8
0
 62
     0
100
AcDbPolyline
 90
        2
 70
     0
 39
0.003
 10
0.086008
 20
0.479839
 40
0.003
 41
0.003
 10
0.088803
 20
0.471295
 40
0.003
 41
0.003
  0
LWPOLYLINE
  5
185
100
AcDbEntity
  8
0
 62
     0
100
AcDbPolyline
 90
        2
 70
     0
 39
0.003
 10
0.088803
 20
0.471295
 40
0.003
 41
0.003
 10
0.091843
 20
0.46298
 40
0.003
 41
0.003
  0
LWPOLYLINE
  5
186
100
AcDbEntity
  8
0
 62
     0
100
AcDbPolyline
 90
        2
 70
     0
 39
0.003
 10
0.091843
 20
0.46298
 40
0.003
 41
0.003
 10
0.095169
 20
0.45489
 40
0.003
 41
0.003
  0
LWPOLYLINE
  5
187
100
AcDbEntity
  8
0
 62
     0
100
AcDbPolyline
 90
        2
 70
     0
 39
0.003
 10
0.095169
 20
0.45489
 40
0.003
 41
0.003
 10
0.098827
 20
0.447008
 40
0.003
 41
0.003
  0
LWPOLYLINE
  5
188
100
AcDbEntity
  8
0
 62
     0
100
AcDbPolyline
 90
        2
 70
     0
 39
0.003
 10
0.098827
 20
0.447008
 40
0.003
 41
0.003
 10
0.102874
 20
0.439335
 40
0.003
 41
0.003
  0
LWPOLYLINE
  5
189
100
AcDbEntity
  8
0
 62
     0
100
AcDbPolyline
 90
        2
 70
     0
 39
0.003
 10
0.102874
 20
0.439335
 40
0.003
 41
0.003
 10
0.10735
 20
0.431854
 40
0.003
 41
0.003
  0
LWPOLYLINE
  5
18A
100
AcDbEntity
  8
0
 62
     0
100
AcDbPolyline
 90
        2
 70
     0
 39
0.003
 10
0.10735
 20
0.431854
 40
0.003
 41
0.003
 10
0.112311
 20
0.424563
 40
0.003
 41
0.003
  0
LWPOLYLINE
  5
18B
100
AcDbEntity
  8
0
 62
     0
100
AcDbPolyline
 90
        2
 70
     0
 39
0.003
 10
0.112311
 20
0.424563
 40
0.003
 41
0.003
 10
0.117791
 20
0.417437
 40
0.003
 41
0.003
  0
LWPOLYLINE
  5
18C
100
AcDbEntity
  8
0
 62
     0
100
AcDbPolyline
 90
        2
 70
     0
 39
0.003
 10
0.117791
 20
0.417437
 40
0.003
 41
0.003
 10
0.12385
 20
0.41048
 40
0.003
 41
0.003
  0
LWPOLYLINE
  5
18D
100
AcDbEntity
  8
0
 62
     0
100
AcDbPolyline
 90
        2
 70
     0
 39
0.003
 10
0.12385
 20
0.41048
 40
0.003
 41
0.003
 10
0.130535
 20
0.403681
 40
0.003
 41
0.003
  0
LWPOLYLINE
  5
18E
100
AcDbEntity
  8
0
 62
     0
100
AcDbPolyline
 90
        2
 70
     0
 39
0.003
 10
0.130535
 20
0.403681
 40
0.003
 41
0.003
 10
0.137894
 20
0.397031
 40
0.003
 41
0.003
  0
LWPOLYLINE
  5
18F
100
AcDbEntity
  8
0
 62
     0
100
AcDbPolyline
 90
        2
 70
     0
 39
0.003
 10
0.137894
 20
0.397031
 40
0.003
 41
0.003
 10
0.145965
 20
0.390512
 40
0.003
 41
0.003
  0
LWPOLYLINE
  5
190
100
AcDbEntity
  8
0
 62
     0
100
AcDbPolyline
 90
        2
 70
     0
 39
0.003
 10
0.145965
 20
0.390512
 40
0.003
 41
0.003
 10
0.154815
 20
0.384126
 40
0.003
 41
0.003
  0
LWPOLYLINE
  5
191
100
AcDbEntity
  8
0
 62
     0
100
AcDbPolyline
 90
        2
 70
     0
 39
0.003
 10
0.154815
 20
0.384126
 40
0.003
 41
0.003
 10
0.164476
 20
0.377854
 40
0.003
 41
0.003
  0
LWPOLYLINE
  5
192
100
AcDbEntity
  8
0
 62
     0
100
AcDbPolyline
 90
        2
 70
     0
 39
0.003
 10
0.164476
 20
0.377854
 40
0.003
 41
0.003
 10
0.175004
 20
0.371701
 40
0.003
 41
0.003
  0
LWPOLYLINE
  5
193
100
AcDbEntity
  8
0
 62
     0
100
AcDbPolyline
 90
        2
 70
     0
 39
0.003
 10
0.175004
 20
0.371701
 40
0.003
 41
0.003
 10
0.186437
 20
0.365634
 40
0.003
 41
0.003
  0
LWPOLYLINE
  5
194
100
AcDbEntity
  8
0
 62
     0
100
AcDbPolyline
 90
        2
 70
     0
 39
0.003
 10
0.186437
 20
0.365634
 40
0.003
 41
0.003
 10
0.198835
 20
0.359665
 40
0.003
 41
0.003
  0
LWPOLYLINE
  5
195
100
AcDbEntity
  8
0
 62
     0
100
AcDbPolyline
 90
        2
 70
     0
 39
0.003
 10
0.198835
 20
0.359665
 40
0.003
 41
0.003
 10
0.212236
 20
0.353772
 40
0.003
 41
0.003
  0
LWPOLYLINE
  5
196
100
AcDbEntity
  8
0
 62
     0
100
AcDbPolyline
 90
        2
 70
     0
 39
0.003
 10
0.212236
 20
0.353772
 40
0.003
 41
0.003
 10
0.226701
 20
0.347953
 40
0.003
 41
0.003
  0
LWPOLYLINE
  5
197
100
AcDbEntity
  8
0
 62
     0
100
AcDbPolyline
 90
        2
 70
     0
 39
0.003
 10
0.226701
 20
0.347953
 40
0.003
 41
0.003
 10
0.242264
 20
0.342189
 40
0.003
 41
0.003
  0
LWPOLYLINE
  5
198
100
AcDbEntity
  8
0
 62
     0
100
AcDbPolyline
 90
        2
 70
     0
 39
0.003
 10
0.242264
 20
0.342189
 40
0.003
 41
0.003
 10
0.258984
 20
0.336484
 40
0.003
 41
0.003
  0
LWPOLYLINE
  5
199
100
AcDbEntity
  8
0
 62
     0
100
AcDbPolyline
 90
        2
 70
     0
 39
0.003
 10
0.258984
 20
0.336484
 40
0.003
 41
0.003
 10
0.276898
 20
0.330815
 40
0.003
 41
0.003
  0
LWPOLYLINE
  5
19A
100
AcDbEntity
  8
0
 62
     0
100
AcDbPolyline
 90
        2
 70
     0
 39
0.003
 10
0.276898
 20
0.330815
 40
0.003
 41
0.003
 10
0.296071
 20
0.325189
 40
0.003
 41
0.003
  0
LWPOLYLINE
  5
19B
100
AcDbEntity
  8
0
 62
     0
100
AcDbPolyline
 90
        2
 70
     0
 39
0.003
 10
0.296071
 20
0.325189
 40
0.003
 41
0.003
 10
0.315571
 20
0.31974
 40
0.003
 41
0.003
  0
LWPOLYLINE
  5
19C
100
AcDbEntity
  8
0
 62
     0
100
AcDbPolyline
 90
        2
 70
     0
 39
0.003
 10
0.315571
 20
0.31974
 40
0.003
 41
0.003
 10
0.334484
 20
0.314626
 40
0.003
 41
0.003
  0
LWPOLYLINE
  5
19D
100
AcDbEntity
  8
0
 62
     0
100
AcDbPolyline
 90
        2
 70
     0
 39
0.003
 10
0.334484
 20
0.314626
 40
0.003
 41
0.003
 10
0.352803
 20
0.309783
 40
0.003
 41
0.003
  0
LWPOLYLINE
  5
19E
100
AcDbEntity
  8
0
 62
     0
100
AcDbPolyline
 90
        2
 70
     0
 39
0.003
 10
0.352803
 20
0.309783
 40
0.003
 41
0.003
 10
0.370539
 20
0.305177
 40
0.003
 41
0.003
  0
LWPOLYLINE
  5
19F
100
AcDbEntity
  8
0
 62
     0
100
AcDbPolyline
 90
        2
 70
     0
 39
0.003
 10
0.370539
 20
0.305177
 40
0.003
 41
0.003
 10
0.387685
 20
0.300744
 40
0.003
 41
0.003
  0
LWPOLYLINE
  5
1A0
100
AcDbEntity
  8
0
 62
     0
100
AcDbPolyline
 90
        2
 70
     0
 39
0.003
 10
0.387685
 20
0.300744
 40
0.003
 41
0.003
 10
0.40426
 20
0.296457
 40
0.003
 41
0.003
  0
LWPOLYLINE
  5
1A1
100
AcDbEntity
  8
0
 62
     0
100
AcDbPolyline
 90
        2
 70
     0
 39
0.003
 10
0.40426
 20
0.296457
 40
0.003
 41
0.003
 10
0.420252
 20
0.292248
 40
0.003
 41
0.003
  0
LWPOLYLINE
  5
1A2
100
AcDbEntity
  8
0
 62
     0
100
AcDbPolyline
 90
        2
 70
     0
 39
0.003
 10
0.420252
 20
0.292248
 40
0.003
 41
0.003
 10
0.435677
 20
0.288087
 40
0.003
 41
0.003
  0
LWPOLYLINE
  5
1A3
100
AcDbEntity
  8
0
 62
     0
100
AcDbPolyline
 90
        2
 70
     0
 39
0.003
 10
0.435677
 20
0.288087
 40
0.003
 41
0.003
 10
0.450524
 20
0.283906
 40
0.003
 41
0.003
  0
LWPOLYLINE
  5
1A4
100
AcDbEntity
  8
0
 62
     0
100
AcDbPolyline
 90
        2
 70
     0
 39
0.003
 10
0.450524
 20
0.283906
 40
0.003
 41
0.003
 10
0.464811
 20
0.279673
 40
0.003
 41
0.003
  0
LWPOLYLINE
  5
1A5
100
AcDbEntity
  8
0
 62
     0
100
AcDbPolyline
 90
        2
 70
     0
 39
0.003
 10
0.464811
 20
0.279673
 40
0.003
 41
0.003
 10
0.478535
 20
0.275331
 40
0.003
 41
0.003
  0
LWPOLYLINE
  5
1A6
100
AcDbEntity
  8
0
 62
     0
100
AcDbPolyline
 90
        2
 70
     0
 39
0.003
 10
0.478535
 20
0.275331
 40
0.003
 41
0.003
 10
0.491705
 20
0.270843
 40
0.003
 41
0.003
  0
LWPOLYLINE
  5
1A7
100
AcDbEntity
  8
0
 62
     0
100
AcDbPolyline
 90
        2
 70
     0
 39
0.003
 10
0.491705
 20
0.270843
 40
0.003
 41
0.003
 10
0.504315
 20
0.266146
 40
0.003
 41
0.003
  0
LWPOLYLINE
  5
1A8
100
AcDbEntity
  8
0
 62
     0
100
AcDbPolyline
 90
        2
 70
     0
 39
0.003
 10
0.504315
 20
0.266146
 40
0.003
 41
0.003
 10
0.516382
 20
0.261205
 40
0.003
 41
0.003
  0
LWPOLYLINE
  5
1A9
100
AcDbEntity
  8
0
 62
     0
100
AcDbPolyline
 90
        2
 70
     0
 39
0.003
 10
0.516382
 20
0.261205
 40
0.003
 41
0.003
 10
0.527898
 20
0.255965
 40
0.003
 41
0.003
  0
LWPOLYLINE
  5
1AA
100
AcDbEntity
  8
0
 62
     0
100
AcDbPolyline
 90
        2
 70
     0
 39
0.003
 10
0.527898
 20
0.255965
 40
0.003
 41
0.003
 10
0.538874
 20
0.250386
 40
0.003
 41
0.003
  0
LWPOLYLINE
  5
1AB
100
AcDbEntity
  8
0
 62
     0
100
AcDbPolyline
 90
        2
 70
     0
 39
0.003
 10
0.538874
 20
0.250386
 40
0.003
 41
0.003
 10
0.549303
 20
0.244406
 40
0.003
 41
0.003
  0
LWPOLYLINE
  5
1AC
100
AcDbEntity
  8
0
 62
     0
100
AcDbPolyline
 90
        2
 70
     0
 39
0.003
 10
0.549303
 20
0.244406
 40
0.003
 41
0.003
 10
0.559197
 20
0.237988
 40
0.003
 41
0.003
  0
LWPOLYLINE
  5
1AD
100
AcDbEntity
  8
0
 62
     0
100
AcDbPolyline
 90
        2
 70
     0
 39
0.003
 10
0.559197
 20
0.237988
 40
0.003
 41
0.003
 10
0.568559
 20
0.231079
 40
0.003
 41
0.003
  0
LWPOLYLINE
  5
1AE
100
AcDbEntity
  8
0
 62
     0
100
AcDbPolyline
 90
        2
 70
     0
 39
0.003
 10
0.568559
 20
0.231079
 40
0.003
 41
0.003
 10
0.577398
 20
0.223642
 40
0.003
 41
0.003
  0
LWPOLYLINE
  5
1AF
100
AcDbEntity
  8
0
 62
     0
100
AcDbPolyline
 90
        2
 70
     0
 39
0.003
 10
0.577398
 20
0.223642
 40
0.003
 41
0.003
 10
0.585701
 20
0.21561
 40
0.003
 41
0.003
  0
LWPOLYLINE
  5
1B0
100
AcDbEntity
  8
0
 62
     0
100
AcDbPolyline
 90
        2
 70
     0
 39
0.003
 10
0.585701
 20
0.21561
 40
0.003
 41
0.003
 10
0.593492
 20
0.206953
 40
0.003
 41
0.003
  0
LWPOLYLINE
  5
1B1
100
AcDbEntity
  8
0
 62
     0
100
AcDbPolyline
 90
        2
 70
     0
 39
0.003
 10
0.593492
 20
0.206953
 40
0.003
 41
0.003
 10
0.60076
 20
0.197614
 40
0.003
 41
0.003
  0
LWPOLYLINE
  5
1B2
100
AcDbEntity
  8
0
 62
     0
100
AcDbPolyline
 90
        2
 70
     0
 39
0.003
 10
0.60076
 20
0.197614
 40
0.003
 41
0.003
 10
0.60752
 20
0.187551
 40
0.003
 41
0.003
  0
LWPOLYLINE
  5
1B3
100
AcDbEntity
  8
0
 62
     0
100
AcDbPolyline
 90
        2
 70
     0
 39
0.003
 10
0.60752
 20
0.187551
 40
0.003
 41
0.003
 10
0.61376
 20
0.176705
 40
0.003
 41
0.003
  0
LWPOLYLINE
  5
1B4
100
AcDbEntity
  8
0
 62
     0
100
AcDbPolyline
 90
        2
 70
     0
 39
0.003
 10
0.61376
 20
0.176705
 40
0.003
 41
0.003
 10
0.6195
 20
0.165039
 40
0.003
 41
0.003
  0
LWPOLYLINE
  5
1B5
100
AcDbEntity
  8
0
 62
     0
100
AcDbPolyline
 90
        2
 70
     0
 39
0.003
 10
0.6195
 20
0.165039
 40
0.003
 41
0.003
 10
0.624732
 20
0.1525
 40
0.003
 41
0.003
  0
LWPOLYLINE
  5
1B6
100
AcDbEntity
  8
0
 62
     0
100
AcDbPolyline
 90
        2
 70
     0
 39
0.003
 10
0.624732
 20
0.1525
 40
0.003
 41
0.003
 10
0.629472
 20
0.139047
 40
0.003
 41
0.003
  0
LWPOLYLINE
  5
1B7
100
AcDbEntity
  8
0
 62
     0
100
AcDbPolyline
 90
        2
 70
     0
 39
0.003
 10
0.629472
 20
0.139047
 40
0.003
 41
0.003
 10
0.633713
 20
0.124618
 40
0.003
 41
0.003
  0
LWPOLYLINE
  5
1B8
100
AcDbEntity
  8
0
 62
     0
100
AcDbPolyline
 90
        2
 70
     0
 39
0.003
 10
0.633713
 20
0.124618
 40
0.003
 41
0.003
 10
0.637461
 20
0.109185
 40
0.003
 41
0.003
  0
LWPOLYLINE
  5
1B9
100
AcDbEntity
  8
0
 62
     0
100
AcDbPolyline
 90
        2
 70
     0
 39
0.003
 10
0.637461
 20
0.109185
 40
0.003
 41
0.003
 10
0.640717
 20
0.092681
 40
0.003
 41
0.003
  0
LWPOLYLINE
  5
1BA
100
AcDbEntity
  8
0
 62
     0
100
AcDbPolyline
 90
        2
 70
     0
 39
0.003
 10
0.640717
 20
0.092681
 40
0.003
 41
0.003
 10
0.643496
 20
0.075075
 40
0.003
 41
0.003
  0
LWPOLYLINE
  5
1BB
100
AcDbEntity
  8
0
 62
     9
100
AcDbPolyline
 90
        2
 70
     0
 39
0.003
 10
0.063717
 20
0.568787
 40
0.003
 41
0.003
 10
0.06024
 20
1.322331
 40
0.003
 41
0.003
  0
LWPOLYLINE
  5
1BC
100
AcDbEntity
  8
0
 62
     9
100
AcDbPolyline
 90
        2
 70
     0
 39
0.003
 10
0.06024
 20
1.322331
 40
0.003
 41
0.003
 10
-0.844945
 20
1.322331
 40
0.003
 41
0.003
  0
LWPOLYLINE
  5
1BD
100
AcDbEntity
  8
0
 62
     9
100
AcDbPolyline
 90
        2
 70
     0
 39
0.003
 10
-0.844945
 20
1.322331
 40
0.003
 41
0.003
 10
-0.841469
 20
0.568787
 40
0.003
 41
0.003
  0
LWPOLYLINE
  5
1BE
100
AcDbEntity
  8
0
 62
     9
100
AcDbPolyline
 90
        2
 70
     0
 39
0.003
 10
-0.841469
 20
0.568787
 40
0.003
 41
0.003
 10
0.063717
 20
0.568787
 40
0.003
 41
0.003
  0
LWPOLYLINE
  5
1BF
100
AcDbEntity
  8
0
 62
     0
100
AcDbPolyline
 90
        2
 70
     0
 39
0.003
 10
0.063717
 20
0.568787
 40
0.003
 41
0.003
 10
0.06024
 20
1.322331
 40
0.003
 41
0.003
  0
LWPOLYLINE
  5
1C0
100
AcDbEntity
  8
0
 62
     0
100
AcDbPolyline
 90
        2
 70
     0
 39
0.003
 10
0.06024
 20
1.322331
 40
0.003
 41
0.003
 10
-0.844945
 20
1.322331
 40
0.003
 41
0.003
  0
LWPOLYLINE
  5
1C1
100
AcDbEntity
  8
0
 62
     0
100
AcDbPolyline
 90
        2
 70
     0
 39
0.003
 10
-0.844945
 20
1.322331
 40
0.003
 41
0.003
 10
-0.841469
 20
0.568787
 40
0.003
 41
0.003
  0
LWPOLYLINE
  5
1C2
100
AcDbEntity
  8
0
 62
     0
100
AcDbPolyline
 90
        2
 70
     0
 39
0.003
 10
-0.841469
 20
0.568787
 40
0.003
 41
0.003
 10
0.063717
 20
0.568787
 40
0.003
 41
0.003
  0
LWPOLYLINE
  5
1C3
100
AcDbEntity
  8
0
 62
     9
100
AcDbPolyline
 90
        2
 70
     0
 39
0.003
 10
-0.841469
 20
0.498614
 40
0.003
 41
0.003
 10
-0.844945
 20
1.252157
 40
0.003
 41
0.003
  0
LWPOLYLINE
  5
1C4
100
AcDbEntity
  8
0
 62
     9
100
AcDbPolyline
 90
        2
 70
     0
 39
0.003
 10
-0.844945
 20
1.252157
 40
0.003
 41
0.003
 10
-0.86248
 20
1.251665
 40
0.003
 41
0.003
  0
LWPOLYLINE
  5
1C5
100
AcDbEntity
  8
0
 62
     9
100
AcDbPolyline
 90
        2
 70
     0
 39
0.003
 10
-0.86248
 20
1.251665
 40
0.003
 41
0.003
 10
-0.859004
 20
0.498122
 40
0.003
 41
0.003
  0
LWPOLYLINE
  5
1C6
100
AcDbEntity
  8
0
 62
     9
100
AcDbPolyline
 90
        2
 70
     0
 39
0.003
 10
-0.859004
 20
0.498122
 40
0.003
 41
0.003
 10
-0.841469
 20
0.498614
 40
0.003
 41
0.003
  0
LWPOLYLINE
  5
1C7
100
AcDbEntity
  8
0
 62
     9
100
AcDbPolyline
 90
        2
 70
     0
 39
0.003
 10
-0.859004
 20
0.498122
 40
0.003
 41
0.003
 10
-0.86248
 20
1.251665
 40
0.003
 41
0.003
  0
LWPOLYLINE
  5
1C8
100
AcDbEntity
  8
0
 62
     9
100
AcDbPolyline
 90
        2
 70
     0
 39
0.003
 10
-0.86248
 20
1.251665
 40
0.003
 41
0.003
 10
-0.879071
 20
1.250528
 40
0.003
 41
0.003
  0
LWPOLYLINE
  5
1C9
100
AcDbEntity
  8
0
 62
     9
100
AcDbPolyline
 90
        2
 70
     0
 39
0.003
 10
-0.879071
 20
1.250528
 40
0.003
 41
0.003
 10
-0.875594
 20
0.496984
 40
0.003
 41
0.003
  0
LWPOLYLINE
  5
1CA
100
AcDbEntity
  8
0
 62
     9
100
AcDbPolyline
 90
        2
 70
     0
 39
0.003
 10
-0.875594
 20
0.496984
 40
0.003
 41
0.003
 10
-0.859004
 20
0.498122
 40
0.003
 41
0.003
  0
LWPOLYLINE
  5
1CB
100
AcDbEntity
  8
0
 62
     9
100
AcDbPolyline
 90
        2
 70
     0
 39
0.003
 10
-0.875594
 20
0.496984
 40
0.003
 41
0.003
 10
-0.879071
 20
1.250528
 40
0.003
 41
0.003
  0
LWPOLYLINE
  5
1CC
100
AcDbEntity
  8
0
 62
     9
100
AcDbPolyline
 90
        2
 70
     0
 39
0.003
 10
-0.879071
 20
1.250528
 40
0.003
 41
0.003
 10
-0.894736
 20
1.248748
 40
0.003
 41
0.003
  0
LWPOLYLINE
  5
1CD
100
AcDbEntity
  8
0
 62
     9
100
AcDbPolyline
 90
        2
 70
     0
 39
0.003
 10
-0.894736
 20
1.248748
 40
0.003
 41
0.003
 10
-0.89126
 20
0.495205
 40
0.003
 41
0.003
  0
LWPOLYLINE
  5
1CE
100
AcDbEntity
  8
0
 62
     9
100
AcDbPolyline
 90
        2
 70
     0
 39
0.003
 10
-0.89126
 20
0.495205
 40
0.003
 41
0.003
 10
-0.875594
 20
0.496984
 40
0.003
 41
0.003
  0
LWPOLYLINE
  5
1CF
100
AcDbEntity
  8
0
 62
     9
100
AcDbPolyline
 90
        2
 70
     0
 39
0.003
 10
-0.89126
 20
0.495205
 40
0.003
 41
0.003
 10
-0.894736
 20
1.248748
 40
0.003
 41
0.003
  0
LWPOLYLINE
  5
1D0
100
AcDbEntity
  8
0
 62
     9
100
AcDbPolyline
 90
        2
 70
     0
 39
0.003
 10
-0.894736
 20
1.248748
 40
0.003
 41
0.003
 10
-0.909512
 20
1.246346
 40
0.003
 41
0.003
  0
LWPOLYLINE
  5
1D1
100
AcDbEntity
  8
0
 62
     9
100
AcDbPolyline
 90
        2
 70
     0
 39
0.003
 10
-0.909512
 20
1.246346
 40
0.003
 41
0.003
 10
-0.906035
 20
0.492803
 40
0.003
 41
0.003
  0
LWPOLYLINE
  5
1D2
100
AcDbEntity
  8
0
 62
     9
100
AcDbPolyline
 90
        2
 70
     0
 39
0.003
 10
-0.906035
 20
0.492803
 40
0.003
 41
0.003
 10
-0.89126
 20
0.495205
 40
0.003
 41
0.003
  0
LWPOLYLINE
  5
1D3
100
AcDbEntity
  8
0
 62
     9
100
AcDbPolyline
 90
        2
 70
     0
 39
0.003
 10
-0.906035
 20
0.492803
 40
0.003
 41
0.003
 10
-0.909512
 20
1.246346
 40
0.003
 41
0.003
  0
LWPOLYLINE
  5
1D4
100
AcDbEntity
  8
0
 62
     9
100
AcDbPolyline
 90
        2
 70
     0
 39
0.003
 10
-0.909512
 20
1.246346
 40
0.003
 41
0.003
 10
-0.923409
 20
1.243319
 40
0.003
 41
0.003
  0
LWPOLYLINE
  5
1D5
100
AcDbEntity
  8
0
 62
     9
100
AcDbPolyline
 90
        2
 70
     0
 39
0.003
 10
-0.923409
 20
1.243319
 40
0.003
 41
0.003
 10
-0.919933
 20
0.489776
 40
0.003
 41
0.003
  0
LWPOLYLINE
  5
1D6
100
AcDbEntity
  8
0
 62
     9
100
AcDbPolyline
 90
        2
 70
     0
 39
0.003
 10
-0.919933
 20
0.489776
 40
0.003
 41
0.003
 10
-0.906035
 20
0.492803
 40
0.003
 41
0.003
  0
LWPOLYLINE
  5
1D7
100
AcDbEntity
  8
0
 62
     9
100
AcDbPolyline
 90
        2
 70
     0
 39
0.003
 10
-0.919933
 20
0.489776
 40
0.003
 41
0.003
 10
-0.923409
 20
1.243319
 40
0.003
 41
0.003
  0
LWPOLYLINE
  5
1D8
100
AcDbEntity
  8
0
 62
     9
100
AcDbPolyline
 90
        2
 70
     0
 39
0.003
 10
-0.923409
 20
1.243319
 40
0.003
 41
0.003
 10
-0.936469
 20
1.239685
 40
0.003
 41
0.003
  0
LWPOLYLINE
  5
1D9
100
AcDbEntity
  8
0
 62
     9
100
AcDbPolyline
 90
        2
 70
     0
 39
0.003
 10
-0.936469
 20
1.239685
 40
0.003
 41
0.003
 10
-0.932992
 20
0.486142
 40
0.003
 41
0.003
  0
LWPOLYLINE
  5
1DA
100
AcDbEntity
  8
0
 62
     9
100
AcDbPolyline
 90
        2
 70
     0
 39
0.003
 10
-0.932992
 20
0.486142
 40
0.003
 41
0.003
 10
-0.919933
 20
0.489776
 40
0.003
 41
0.003
  0
LWPOLYLINE
  5
1DB
100
AcDbEntity
  8
0
 62
   253
100
AcDbPolyline
 90
        2
 70
     0
 39
0.003
 10
-0.932992
 20
0.486142
 40
0.003
 41
0.003
 10
-0.936469
 20
1.239685
 40
0.003
 41
0.003
  0
LWPOLYLINE
  5
1DC
100
AcDbEntity
  8
0
 62
   253
100
AcDbPolyline
 90
        2
 70
     0
 39
0.003
 10
-0.936469
 20
1.239685
 40
0.003
 41
0.003
 10
-0.948705
 20
1.235449
 40
0.003
 41
0.003
  0
LWPOLYLINE
  5
1DD
100
AcDbEntity
  8
0
 62
   253
100
AcDbPolyline
 90
        2
 70
     0
 39
0.003
 10
-0.948705
 20
1.235449
 40
0.003
 41
0.003
 10
-0.945228
 20
0.481906
 40
0.003
 41
0.003
  0
LWPOLYLINE
  5
1DE
100
AcDbEntity
  8
0
 62
   253
100
AcDbPolyline
 90
        2
 70
     0
 39
0.003
 10
-0.945228
 20
0.481906
 40
0.003
 41
0.003
 10
-0.932992
 20
0.486142
 40
0.003
 41
0.003
  0
LWPOLYLINE
  5
1DF
100
AcDbEntity
  8
0
 62
   253
100
AcDbPolyline
 90
        2
 70
     0
 39
0.003
 10
-0.945228
 20
0.481906
 40
0.003
 41
0.003
 10
-0.948705
 20
1.235449
 40
0.003
 41
0.003
  0
LWPOLYLINE
  5
1E0
100
AcDbEntity
  8
0
 62
   253
100
AcDbPolyline
 90
        2
 70
     0
 39
0.003
 10
-0.948705
 20
1.235449
 40
0.003
 41
0.003
 10
-0.960161
 20
1.230634
 40
0.003
 41
0.003
  0
LWPOLYLINE
  5
1E1
100
AcDbEntity
  8
0
 62
   253
100
AcDbPolyline
 90
        2
 70
     0
 39
0.003
 10
-0.960161
 20
1.230634
 40
0.003
 41
0.003
 10
-0.956685
 20
0.477091
 40
0.003
 41
0.003
  0
LWPOLYLINE
  5
1E2
100
AcDbEntity
  8
0
 62
   253
100
AcDbPolyline
 90
        2
 70
     0
 39
0.003
 10
-0.956685
 20
0.477091
 40
0.003
 41
0.003
 10
-0.945228
 20
0.481906
 40
0.003
 41
0.003
  0
LWPOLYLINE
  5
1E3
100
AcDbEntity
  8
0
 62
   253
100
AcDbPolyline
 90
        2
 70
     0
 39
0.003
 10
-0.956685
 20
0.477091
 40
0.003
 41
0.003
 10
-0.960161
 20
1.230634
 40
0.003
 41
0.003
  0
LWPOLYLINE
  5
1E4
100
AcDbEntity
  8
0
 62
   253
100
AcDbPolyline
 90
        2
 70
     0
 39
0.003
 10
-0.960161
 20
1.230634
 40
0.003
 41
0.003
 10
-0.970843
 20
1.225228
 40
0.003
 41
0.003
  0
LWPOLYLINE
  5
1E5
100
AcDbEntity
  8
0
 62
   253
100
AcDbPolyline
 90
        2
 70
     0
 39
0.003
 10
-0.970843
 20
1.225228
 40
0.003
 41
0.003
 10
-0.967366
 20
0.471685
 40
0.003
 41
0.003
  0
LWPOLYLINE
  5
1E6
100
AcDbEntity
  8
0
 62
   253
100
AcDbPolyline
 90
        2
 70
     0
 39
0.003
 10
-0.967366
 20
0.471685
 40
0.003
 41
0.003
 10
-0.956685
 20
0.477091
 40
0.003
 41
0.003
  0
LWPOLYLINE
  5
1E7
100
AcDbEntity
  8
0
 62
   253
100
AcDbPolyline
 90
        2
 70
     0
 39
0.003
 10
-0.967366
 20
0.471685
 40
0.003
 41
0.003
 10
-0.970843
 20
1.225228
 40
0.003
 41
0.003
  0
LWPOLYLINE
  5
1E8
100
AcDbEntity
  8
0
 62
   253
100
AcDbPolyline
 90
        2
 70
     0
 39
0.003
 10
-0.970843
 20
1.225228
 40
0.003
 41
0.003
 10
-0.980791
 20
1.219264
 40
0.003
 41
0.003
  0
LWPOLYLINE
  5
1E9
100
AcDbEntity
  8
0
 62
   253
100
AcDbPolyline
 90
        2
 70
     0
 39
0.003
 10
-0.980791
 20
1.219264
 40
0.003
 41
0.003
 10
-0.977315
 20
0.46572
 40
0.003
 41
0.003
  0
LWPOLYLINE
  5
1EA
100
AcDbEntity
  8
0
 62
   253
100
AcDbPolyline
 90
        2
 70
     0
 39
0.003
 10
-0.977315
 20
0.46572
 40
0.003
 41
0.003
 10
-0.967366
 20
0.471685
 40
0.003
 41
0.003
  0
LWPOLYLINE
  5
1EB
100
AcDbEntity
  8
0
 62
   253
100
AcDbPolyline
 90
        2
 70
     0
 39
0.003
 10
-0.977315
 20
0.46572
 40
0.003
 41
0.003
 10
-0.980791
 20
1.219264
 40
0.003
 41
0.003
  0
LWPOLYLINE
  5
1EC
100
AcDbEntity
  8
0
 62
   253
100
AcDbPolyline
 90
        2
 70
     0
 39
0.003
 10
-0.980791
 20
1.219264
 40
0.003
 41
0.003
 10
-0.990024
 20
1.212736
 40
0.003
 41
0.003
  0
LWPOLYLINE
  5
1ED
100
AcDbEntity
  8
0
 62
   253
100
AcDbPolyline
 90
        2
 70
     0
 39
0.003
 10
-0.990024
 20
1.212736
 40
0.003
 41
0.003
 10
-0.986547
 20
0.459193
 40
0.003
 41
0.003
  0
LWPOLYLINE
  5
1EE
100
AcDbEntity
  8
0
 62
   253
100
AcDbPolyline
 90
        2
 70
     0
 39
0.003
 10
-0.986547
 20
0.459193
 40
0.003
 41
0.003
 10
-0.977315
 20
0.46572
 40
0.003
 41
0.003
  0
LWPOLYLINE
  5
1EF
100
AcDbEntity
  8
0
 62
   252
100
AcDbPolyline
 90
        2
 70
     0
 39
0.003
 10
-0.986547
 20
0.459193
 40
0.003
 41
0.003
 10
-0.990024
 20
1.212736
 40
0.003
 41
0.003
  0
LWPOLYLINE
  5
1F0
100
AcDbEntity
  8
0
 62
   252
100
AcDbPolyline
 90
        2
 70
     0
 39
0.003
 10
-0.990024
 20
1.212736
 40
0.003
 41
0.003
 10
-0.998579
 20
1.205669
 40
0.003
 41
0.003
  0
LWPOLYLINE
  5
1F1
100
AcDbEntity
  8
0
 62
   252
100
AcDbPolyline
 90
        2
 70
     0
 39
0.003
 10
-0.998579
 20
1.205669
 40
0.003
 41
0.003
 10
-0.995102
 20
0.452126
 40
0.003
 41
0.003
  0
LWPOLYLINE
  5
1F2
100
AcDbEntity
  8
0
 62
   252
100
AcDbPolyline
 90
        2
 70
     0
 39
0.003
 10
-0.995102
 20
0.452126
 40
0.003
 41
0.003
 10
-0.986547
 20
0.459193
 40
0.003
 41
0.003
  0
LWPOLYLINE
  5
1F3
100
AcDbEntity
  8
0
 62
   252
100
AcDbPolyline
 90
        2
 70
     0
 39
0.003
 10
-0.995102
 20
0.452126
 40
0.003
 41
0.003
 10
-0.998579
 20
1.205669
 40
0.003
 41
0.003
  0
LWPOLYLINE
  5
1F4
100
AcDbEntity
  8
0
 62
   252
100
AcDbPolyline
 90
        2
 70
     0
 39
0.003
 10
-0.998579
 20
1.205669
 40
0.003
 41
0.003
 10
-1.006469
 20
1.198059
 40
0.003
 41
0.003
  0
LWPOLYLINE
  5
1F5
100
AcDbEntity
  8
0
 62
   252
100
AcDbPolyline
 90
        2
 70
     0
 39
0.003
 10
-1.006469
 20
1.198059
 40
0.003
 41
0.003
 10
-1.002992
 20
0.444516
 40
0.003
 41
0.003
  0
LWPOLYLINE
  5
1F6
100
AcDbEntity
  8
0
 62
   252
100
AcDbPolyline
 90
        2
 70
     0
 39
0.003
 10
-1.002992
 20
0.444516
 40
0.003
 41
0.003
 10
-0.995102
 20
0.452126
 40
0.003
 41
0.003
  0
LWPOLYLINE
  5
1F7
100
AcDbEntity
  8
0
 62
     8
100
AcDbPolyline
 90
        2
 70
     0
 39
0.003
 10
-1.002992
 20
0.444516
 40
0.003
 41
0.003
 10
-1.006469
 20
1.198059
 40
0.003
 41
0.003
  0
LWPOLYLINE
  5
1F8
100
AcDbEntity
  8
0
 62
     8
100
AcDbPolyline
 90
        2
 70
     0
 39
0.003
 10
-1.006469
 20
1.198059
 40
0.003
 41
0.003
 10
-1.013728
 20
1.189925
 40
0.003
 41
0.003
  0
LWPOLYLINE
  5
1F9
100
AcDbEntity
  8
0
 62
     8
100
AcDbPolyline
 90
        2
 70
     0
 39
0.003
 10
-1.013728
 20
1.189925
 40
0.003
 41
0.003
 10
-1.010252
 20
0.436382
 40
0.003
 41
0.003
  0
LWPOLYLINE
  5
1FA
100
AcDbEntity
  8
0
 62
     8
100
AcDbPolyline
 90
        2
 70
     0
 39
0.003
 10
-1.010252
 20
0.436382
 40
0.003
 41
0.003
 10
-1.002992
 20
0.444516
 40
0.003
 41
0.003
  0
LWPOLYLINE
  5
1FB
100
AcDbEntity
  8
0
 62
   251
100
AcDbPolyline
 90
        2
 70
     0
 39
0.003
 10
-1.010252
 20
0.436382
 40
0.003
 41
0.003
 10
-1.013728
 20
1.189925
 40
0.003
 41
0.003
  0
LWPOLYLINE
  5
1FC
100
AcDbEntity
  8
0
 62
   251
100
AcDbPolyline
 90
        2
 70
     0
 39
0.003
 10
-1.013728
 20
1.189925
 40
0.003
 41
0.003
 10
-1.020382
 20
1.181272
 40
0.003
 41
0.003
  0
LWPOLYLINE
  5
1FD
100
AcDbEntity
  8
0
 62
   251
100
AcDbPolyline
 90
        2
 70
     0
 39
0.003
 10
-1.020382
 20
1.181272
 40
0.003
 41
0.003
 10
-1.016906
 20
0.427728
 40
0.003
 41
0.003
  0
LWPOLYLINE
  5
1FE
100
AcDbEntity
  8
0
 62
   251
100
AcDbPolyline
 90
        2
 70
     0
 39
0.003
 10
-1.016906
 20
0.427728
 40
0.003
 41
0.003
 10
-1.010252
 20
0.436382
 40
0.003
 41
0.003
  0
LWPOLYLINE
  5
1FF
100
AcDbEntity
  8
0
 62
   129
100
AcDbPolyline
 90
        2
 70
     0
 39
0.003
 10
-1.016906
 20
0.427728
 40
0.003
 41
0.003
 10
-1.020382
 20
1.181272
 40
0.003
 41
0.003
  0
LWPOLYLINE
  5
200
100
AcDbEntity
  8
0
 62
   129
100
AcDbPolyline
 90
        2
 70
     0
 39
0.003
 10
-1.020382
 20
1.181272
 40
0.003
 41
0.003
 10
-1.026461
 20
1.172118
 40
0.003
 41
0.003
  0
LWPOLYLINE
  5
201
100
AcDbEntity
  8
0
 62
   129
100
AcDbPolyline
 90
        2
 70
     0
 39
0.003
 10
-1.026461
 20
1.172118
 40
0.003
 41
0.003
 10
-1.022984
 20
0.418575
 40
0.003
 41
0.003
  0
LWPOLYLINE
  5
202
100
AcDbEntity
  8
0
 62
   129
100
AcDbPolyline
 90
        2
 70
     0
 39
0.003
 10
-1.022984
 20
0.418575
 40
0.003
 41
0.003
 10
-1.016906
 20
0.427728
 40
0.003
 41
0.003
  0
LWPOLYLINE
  5
203
100
AcDbEntity
  8
0
 62
     0
100
AcDbPolyline
 90
        2
 70
     0
 39
0.003
 10
-1.022984
 20
0.418575
 40
0.003
 41
0.003
 10
-1.026461
 20
1.172118
 40
0.003
 41
0.003
  0
LWPOLYLINE
  5
204
100
AcDbEntity
  8
0
 62
     0
100
AcDbPolyline
 90
        2
 70
     0
 39
0.003
 10
-1.026461
 20
1.172118
 40
0.003
 41
0.003
 10
-1.031976
 20
1.162457
 40
0.003
 41
0.003
  0
LWPOLYLINE
  5
205
100
AcDbEntity
  8
0
 62
     0
100
AcDbPolyline
 90
        2
 70
     0
 39
0.003
 10
-1.031976
 20
1.162457
 40
0.003
 41
0.003
 10
-1.0285
 20
0.408913
 40
0.003
 41
0.003
  0
LWPOLYLINE
  5
206
100
AcDbEntity
  8
0
 62
     0
100
AcDbPolyline
 90
        2
 70
     0
 39
0.003
 10
-1.0285
 20
0.408913
 40
0.003
 41
0.003
 10
-1.022984
 20
0.418575
 40
0.003
 41
0.003
  0
LWPOLYLINE
  5
207
100
AcDbEntity
  8
0
 62
     0
100
AcDbPolyline
 90
        2
 70
     0
 39
0.003
 10
-1.0285
 20
0.408913
 40
0.003
 41
0.003
 10
-1.031976
 20
1.162457
 40
0.003
 41
0.003
  0
LWPOLYLINE
  5
208
100
AcDbEntity
  8
0
 62
     0
100
AcDbPolyline
 90
        2
 70
     0
 39
0.003
 10
-1.031976
 20
1.162457
 40
0.003
 41
0.003
 10
-1.036972
 20
1.152315
 40
0.003
 41
0.003
  0
LWPOLYLINE
  5
209
100
AcDbEntity
  8
0
 62
     0
100
AcDbPolyline
 90
        2
 70
     0
 39
0.003
 10
-1.036972
 20
1.152315
 40
0.003
 41
0.003
 10
-1.033496
 20
0.398772
 40
0.003
 41
0.003
  0
LWPOLYLINE
  5
20A
100
AcDbEntity
  8
0
 62
     0
100
AcDbPolyline
 90
        2
 70
     0
 39
0.003
 10
-1.033496
 20
0.398772
 40
0.003
 41
0.003
 10
-1.0285
 20
0.408913
 40
0.003
 41
0.003
  0
LWPOLYLINE
  5
20B
100
AcDbEntity
  8
0
 62
     0
100
AcDbPolyline
 90
        2
 70
     0
 39
0.003
 10
-1.033496
 20
0.398772
 40
0.003
 41
0.003
 10
-1.036972
 20
1.152315
 40
0.003
 41
0.003
  0
LWPOLYLINE
  5
20C
100
AcDbEntity
  8
0
 62
     0
100
AcDbPolyline
 90
        2
 70
     0
 39
0.003
 10
-1.036972
 20
1.152315
 40
0.003
 41
0.003
 10
-1.041465
 20
1.141693
 40
0.003
 41
0.003
  0
LWPOLYLINE
  5
20D
100
AcDbEntity
  8
0
 62
     0
100
AcDbPolyline
 90
        2
 70
     0
 39
0.003
 10
-1.041465
 20
1.141693
 40
0.003
 41
0.003
 10
-1.037988
 20
0.38815
 40
0.003
 41
0.003
  0
LWPOLYLINE
  5
20E
100
AcDbEntity
  8
0
 62
     0
100
AcDbPolyline
 90
        2
 70
     0
 39
0.003
 10
-1.037988
 20
0.38815
 40
0.003
 41
0.003
 10
-1.033496
 20
0.398772
 40
0.003
 41
0.003
  0
LWPOLYLINE
  5
20F
100
AcDbEntity
  8
0
 62
     0
100
AcDbPolyline
 90
        2
 70
     0
 39
0.003
 10
-1.037988
 20
0.38815
 40
0.003
 41
0.003
 10
-1.041465
 20
1.141693
 40
0.003
 41
0.003
  0
LWPOLYLINE
  5
210
100
AcDbEntity
  8
0
 62
     0
100
AcDbPolyline
 90
        2
 70
     0
 39
0.003
 10
-1.041465
 20
1.141693
 40
0.003
 41
0.003
 10
-1.045488
 20
1.13061
 40
0.003
 41
0.003
  0
LWPOLYLINE
  5
211
100
AcDbEntity
  8
0
 62
     0
100
AcDbPolyline
 90
        2
 70
     0
 39
0.003
 10
-1.045488
 20
1.13061
 40
0.003
 41
0.003
 10
-1.042012
 20
0.377067
 40
0.003
 41
0.003
  0
LWPOLYLINE
  5
212
100
AcDbEntity
  8
0
 62
     0
100
AcDbPolyline
 90
        2
 70
     0
 39
0.003
 10
-1.042012
 20
0.377067
 40
0.003
 41
0.003
 10
-1.037988
 20
0.38815
 40
0.003
 41
0.003
  0
LWPOLYLINE
  5
213
100
AcDbEntity
  8
0
 62
     0
100
AcDbPolyline
 90
        2
 70
     0
 39
0.003
 10
-1.042012
 20
0.377067
 40
0.003
 41
0.003
 10
-1.045488
 20
1.13061
 40
0.003
 41
0.003
  0
LWPOLYLINE
  5
214
100
AcDbEntity
  8
0
 62
     0
100
AcDbPolyline
 90
        2
 70
     0
 39
0.003
 10
-1.045488
 20
1.13061
 40
0.003
 41
0.003
 10
-1.049059
 20
1.119067
 40
0.003
 41
0.003
  0
LWPOLYLINE
  5
215
100
AcDbEntity
  8
0
 62
     0
100
AcDbPolyline
 90
        2
 70
     0
 39
0.003
 10
-1.049059
 20
1.119067
 40
0.003
 41
0.003
 10
-1.045583
 20
0.365524
 40
0.003
 41
0.003
  0
LWPOLYLINE
  5
216
100
AcDbEntity
  8
0
 62
     0
100
AcDbPolyline
 90
        2
 70
     0
 39
0.003
 10
-1.045583
 20
0.365524
 40
0.003
 41
0.003
 10
-1.042012
 20
0.377067
 40
0.003
 41
0.003
  0
LWPOLYLINE
  5
217
100
AcDbEntity
  8
0
 62
     0
100
AcDbPolyline
 90
        2
 70
     0
 39
0.003
 10
-1.045583
 20
0.365524
 40
0.003
 41
0.003
 10
-1.049059
 20
1.119067
 40
0.003
 41
0.003
  0
LWPOLYLINE
  5
218
100
AcDbEntity
  8
0
 62
     0
100
AcDbPolyline
 90
        2
 70
     0
 39
0.003
 10
-1.049059
 20
1.119067
 40
0.003
 41
0.003
 10
-1.052209
 20
1.107083
 40
0.003
 41
0.003
  0
LWPOLYLINE
  5
219
100
AcDbEntity
  8
0
 62
     0
100
AcDbPolyline
 90
        2
 70
     0
 39
0.003
 10
-1.052209
 20
1.107083
 40
0.003
 41
0.003
 10
-1.048732
 20
0.353539
 40
0.003
 41
0.003
  0
LWPOLYLINE
  5
21A
100
AcDbEntity
  8
0
 62
     0
100
AcDbPolyline
 90
        2
 70
     0
 39
0.003
 10
-1.048732
 20
0.353539
 40
0.003
 41
0.003
 10
-1.045583
 20
0.365524
 40
0.003
 41
0.003
  0
LWPOLYLINE
  5
21B
100
AcDbEntity
  8
0
 62
     0
100
AcDbPolyline
 90
        2
 70
     0
 39
0.003
 10
-1.048732
 20
0.353539
 40
0.003
 41
0.003
 10
-1.052209
 20
1.107083
 40
0.003
 41
0.003
  0
LWPOLYLINE
  5
21C
100
AcDbEntity
  8
0
 62
     0
100
AcDbPolyline
 90
        2
 70
     0
 39
0.003
 10
-1.052209
 20
1.107083
 40
0.003
 41
0.003
 10
-1.054961
 20
1.094661
 40
0.003
 41
0.003
  0
LWPOLYLINE
  5
21D
100
AcDbEntity
  8
0
 62
     0
100
AcDbPolyline
 90
        2
 70
     0
 39
0.003
 10
-1.054961
 20
1.094661
 40
0.003
 41
0.003
 10
-1.051484
 20
0.341118
 40
0.003
 41
0.003
  0
LWPOLYLINE
  5
21E
100
AcDbEntity
  8
0
 62
     0
100
AcDbPolyline
 90
        2
 70
     0
 39
0.003
 10
-1.051484
 20
0.341118
 40
0.003
 41
0.003
 10
-1.048732
 20
0.353539
 40
0.003
 41
0.003
  0
LWPOLYLINE
  5
21F
100
AcDbEntity
  8
0
 62
     0
100
AcDbPolyline
 90
        2
 70
     0
 39
0.003
 10
-1.051484
 20
0.341118
 40
0.003
 41
0.003
 10
-1.054961
 20
1.094661
 40
0.003
 41
0.003
  0
LWPOLYLINE
  5
220
100
AcDbEntity
  8
0
 62
     0
100
AcDbPolyline
 90
        2
 70
     0
 39
0.003
 10
-1.054961
 20
1.094661
 40
0.003
 41
0.003
 10
-1.057354
 20
1.081823
 40
0.003
 41
0.003
  0
LWPOLYLINE
  5
221
100
AcDbEntity
  8
0
 62
     0
100
AcDbPolyline
 90
        2
 70
     0
 39
0.003
 10
-1.057354
 20
1.081823
 40
0.003
 41
0.003
 10
-1.053878
 20
0.32828
 40
0.003
 41
0.003
  0
LWPOLYLINE
  5
222
100
AcDbEntity
  8
0
 62
     0
100
AcDbPolyline
 90
        2
 70
     0
 39
0.003
 10
-1.053878
 20
0.32828
 40
0.003
 41
0.003
 10
-1.051484
 20
0.341118
 40
0.003
 41
0.003
  0
LWPOLYLINE
  5
223
100
AcDbEntity
  8
0
 62
     0
100
AcDbPolyline
 90
        2
 70
     0
 39
0.003
 10
-1.053878
 20
0.32828
 40
0.003
 41
0.003
 10
-1.057354
 20
1.081823
 40
0.003
 41
0.003
  0
LWPOLYLINE
  5
224
100
AcDbEntity
  8
0
 62
     0
100
AcDbPolyline
 90
        2
 70
     0
 39
0.003
 10
-1.057354
 20
1.081823
 40
0.003
 41
0.003
 10
-1.059394
 20
1.068559
 40
0.003
 41
0.003
  0
LWPOLYLINE
  5
225
100
AcDbEntity
  8
0
 62
     0
100
AcDbPolyline
 90
        2
 70
     0
 39
0.003
 10
-1.059394
 20
1.068559
 40
0.003
 41
0.003
 10
-1.055917
 20
0.315016
 40
0.003
 41
0.003
  0
LWPOLYLINE
  5
226
100
AcDbEntity
  8
0
 62
     0
100
AcDbPolyline
 90
        2
 70
     0
 39
0.003
 10
-1.055917
 20
0.315016
 40
0.003
 41
0.003
 10
-1.053878
 20
0.32828
 40
0.003
 41
0.003
  0
LWPOLYLINE
  5
227
100
AcDbEntity
  8
0
 62
     0
100
AcDbPolyline
 90
        2
 70
     0
 39
0.003
 10
-1.055917
 20
0.315016
 40
0.003
 41
0.003
 10
-1.059394
 20
1.068559
 40
0.003
 41
0.003
  0
LWPOLYLINE
  5
228
100
AcDbEntity
  8
0
 62
     0
100
AcDbPolyline
 90
        2
 70
     0
 39
0.003
 10
-1.059394
 20
1.068559
 40
0.003
 41
0.003
 10
-1.06113
 20
1.054894
 40
0.003
 41
0.003
  0
LWPOLYLINE
  5
229
100
AcDbEntity
  8
0
 62
     0
100
AcDbPolyline
 90
        2
 70
     0
 39
0.003
 10
-1.06113
 20
1.054894
 40
0.003
 41
0.003
 10
-1.057654
 20
0.30135
 40
0.003
 41
0.003
  0
LWPOLYLINE
  5
22A
100
AcDbEntity
  8
0
 62
     0
100
AcDbPolyline
 90
        2
 70
     0
 39
0.003
 10
-1.057654
 20
0.30135
 40
0.003
 41
0.003
 10
-1.055917
 20
0.315016
 40
0.003
 41
0.003
  0
LWPOLYLINE
  5
22B
100
AcDbEntity
  8
0
 62
     0
100
AcDbPolyline
 90
        2
 70
     0
 39
0.003
 10
-1.057654
 20
0.30135
 40
0.003
 41
0.003
 10
-1.06113
 20
1.054894
 40
0.003
 41
0.003
  0
LWPOLYLINE
  5
22C
100
AcDbEntity
  8
0
 62
     0
100
AcDbPolyline
 90
        2
 70
     0
 39
0.003
 10
-1.06113
 20
1.054894
 40
0.003
 41
0.003
 10
-1.062567
 20
1.040835
 40
0.003
 41
0.003
  0
LWPOLYLINE
  5
22D
100
AcDbEntity
  8
0
 62
     0
100
AcDbPolyline
 90
        2
 70
     0
 39
0.003
 10
-1.062567
 20
1.040835
 40
0.003
 41
0.003
 10
-1.059091
 20
0.287291
 40
0.003
 41
0.003
  0
LWPOLYLINE
  5
22E
100
AcDbEntity
  8
0
 62
     0
100
AcDbPolyline
 90
        2
 70
     0
 39
0.003
 10
-1.059091
 20
0.287291
 40
0.003
 41
0.003
 10
-1.057654
 20
0.30135
 40
0.003
 41
0.003
  0
LWPOLYLINE
  5
22F
100
AcDbEntity
  8
0
 62
     0
100
AcDbPolyline
 90
        2
 70
     0
 39
0.003
 10
-1.059091
 20
0.287291
 40
0.003
 41
0.003
 10
-1.062567
 20
1.040835
 40
0.003
 41
0.003
  0
LWPOLYLINE
  5
230
100
AcDbEntity
  8
0
 62
     0
100
AcDbPolyline
 90
        2
 70
     0
 39
0.003
 10
-1.062567
 20
1.040835
 40
0.003
 41
0.003
 10
-1.063752
 20
1.026398
 40
0.003
 41
0.003
  0
LWPOLYLINE
  5
231
100
AcDbEntity
  8
0
 62
     0
100
AcDbPolyline
 90
        2
 70
     0
 39
0.003
 10
-1.063752
 20
1.026398
 40
0.003
 41
0.003
 10
-1.060276
 20
0.272854
 40
0.003
 41
0.003
  0
LWPOLYLINE
  5
232
100
AcDbEntity
  8
0
 62
     0
100
AcDbPolyline
 90
        2
 70
     0
 39
0.003
 10
-1.060276
 20
0.272854
 40
0.003
 41
0.003
 10
-1.059091
 20
0.287291
 40
0.003
 41
0.003
  0
LWPOLYLINE
  5
233
100
AcDbEntity
  8
0
 62
     0
100
AcDbPolyline
 90
        2
 70
     0
 39
0.003
 10
-1.060276
 20
0.272854
 40
0.003
 41
0.003
 10
-1.063752
 20
1.026398
 40
0.003
 41
0.003
  0
LWPOLYLINE
  5
234
100
AcDbEntity
  8
0
 62
     0
100
AcDbPolyline
 90
        2
 70
     0
 39
0.003
 10
-1.063752
 20
1.026398
 40
0.003
 41
0.003
 10
-1.064693
 20
1.011579
 40
0.003
 41
0.003
  0
LWPOLYLINE
  5
235
100
AcDbEntity
  8
0
 62
     0
100
AcDbPolyline
 90
        2
 70
     0
 39
0.003
 10
-1.064693
 20
1.011579
 40
0.003
 41
0.003
 10
-1.061217
 20
0.258035
 40
0.003
 41
0.003
  0
LWPOLYLINE
  5
236
100
AcDbEntity
  8
0
 62
     0
100
AcDbPolyline
 90
        2
 70
     0
 39
0.003
 10
-1.061217
 20
0.258035
 40
0.003
 41
0.003
 10
-1.060276
 20
0.272854
 40
0.003
 41
0.003
  0
LWPOLYLINE
  5
237
100
AcDbEntity
  8
0
 62
     0
100
AcDbPolyline
 90
        2
 70
     0
 39
0.003
 10
-1.061217
 20
0.258035
 40
0.003
 41
0.003
 10
-1.064693
 20
1.011579
 40
0.003
 41
0.003
  0
LWPOLYLINE
  5
238
100
AcDbEntity
  8
0
 62
     0
100
AcDbPolyline
 90
        2
 70
     0
 39
0.003
 10
-1.064693
 20
1.011579
 40
0.003
 41
0.003
 10
-1.065429
 20
0.996402
 40
0.003
 41
0.003
  0
LWPOLYLINE
  5
239
100
AcDbEntity
  8
0
 62
     0
100
AcDbPolyline
 90
        2
 70
     0
 39
0.003
 10
-1.065429
 20
0.996402
 40
0.003
 41
0.003
 10
-1.061953
 20
0.242858
 40
0.003
 41
0.003
  0
LWPOLYLINE
  5
23A
100
AcDbEntity
  8
0
 62
     0
100
AcDbPolyline
 90
        2
 70
     0
 39
0.003
 10
-1.061953
 20
0.242858
 40
0.003
 41
0.003
 10
-1.061217
 20
0.258035
 40
0.003
 41
0.003
  0
LWPOLYLINE
  5
23B
100
AcDbEntity
  8
0
 62
     0
100
AcDbPolyline
 90
        2
 70
     0
 39
0.003
 10
-0.841469
 20
0.498614
 40
0.003
 41
0.003
 10
-0.844945
 20
1.252157
 40
0.003
 41
0.003
  0
LWPOLYLINE
  5
23C
100
AcDbEntity
  8
0
 62
     0
100
AcDbPolyline
 90
        2
 70
     0
 39
0.003
 10
-0.844945
 20
1.252157
 40
0.003
 41
0.003
 10
-0.86248
 20
1.251665
 40
0.003
 41
0.003
  0
LWPOLYLINE
  5
23D
100
AcDbEntity
  8
0
 62
     0
100
AcDbPolyline
 90
        2
 70
     0
 39
0.003
 10
-0.86248
 20
1.251665
 40
0.003
 41
0.003
 10
-0.879071
 20
1.250528
 40
0.003
 41
0.003
  0
LWPOLYLINE
  5
23E
100
AcDbEntity
  8
0
 62
     0
100
AcDbPolyline
 90
        2
 70
     0
 39
0.003
 10
-0.879071
 20
1.250528
 40
0.003
 41
0.003
 10
-0.894736
 20
1.248748
 40
0.003
 41
0.003
  0
LWPOLYLINE
  5
23F
100
AcDbEntity
  8
0
 62
     0
100
AcDbPolyline
 90
        2
 70
     0
 39
0.003
 10
-0.894736
 20
1.248748
 40
0.003
 41
0.003
 10
-0.909512
 20
1.246346
 40
0.003
 41
0.003
  0
LWPOLYLINE
  5
240
100
AcDbEntity
  8
0
 62
     0
100
AcDbPolyline
 90
        2
 70
     0
 39
0.003
 10
-0.909512
 20
1.246346
 40
0.003
 41
0.003
 10
-0.923409
 20
1.243319
 40
0.003
 41
0.003
  0
LWPOLYLINE
  5
241
100
AcDbEntity
  8
0
 62
     0
100
AcDbPolyline
 90
        2
 70
     0
 39
0.003
 10
-0.923409
 20
1.243319
 40
0.003
 41
0.003
 10
-0.936469
 20
1.239685
 40
0.003
 41
0.003
  0
LWPOLYLINE
  5
242
100
AcDbEntity
  8
0
 62
     0
100
AcDbPolyline
 90
        2
 70
     0
 39
0.003
 10
-0.936469
 20
1.239685
 40
0.003
 41
0.003
 10
-0.948705
 20
1.235449
 40
0.003
 41
0.003
  0
LWPOLYLINE
  5
243
100
AcDbEntity
  8
0
 62
     0
100
AcDbPolyline
 90
        2
 70
     0
 39
0.003
 10
-0.948705
 20
1.235449
 40
0.003
 41
0.003
 10
-0.960161
 20
1.230634
 40
0.003
 41
0.003
  0
LWPOLYLINE
  5
244
100
AcDbEntity
  8
0
 62
     0
100
AcDbPolyline
 90
        2
 70
     0
 39
0.003
 10
-0.960161
 20
1.230634
 40
0.003
 41
0.003
 10
-0.970843
 20
1.225228
 40
0.003
 41
0.003
  0
LWPOLYLINE
  5
245
100
AcDbEntity
  8
0
 62
     0
100
AcDbPolyline
 90
        2
 70
     0
 39
0.003
 10
-0.970843
 20
1.225228
 40
0.003
 41
0.003
 10
-0.980791
 20
1.219264
 40
0.003
 41
0.003
  0
LWPOLYLINE
  5
246
100
AcDbEntity
  8
0
 62
     0
100
AcDbPolyline
 90
        2
 70
     0
 39
0.003
 10
-0.980791
 20
1.219264
 40
0.003
 41
0.003
 10
-0.990024
 20
1.212736
 40
0.003
 41
0.003
  0
LWPOLYLINE
  5
247
100
AcDbEntity
  8
0
 62
     0
100
AcDbPolyline
 90
        2
 70
     0
 39
0.003
 10
-0.990024
 20
1.212736
 40
0.003
 41
0.003
 10
-0.998579
 20
1.205669
 40
0.003
 41
0.003
  0
LWPOLYLINE
  5
248
100
AcDbEntity
  8
0
 62
     0
100
AcDbPolyline
 90
        2
 70
     0
 39
0.003
 10
-0.998579
 20
1.205669
 40
0.003
 41
0.003
 10
-1.006469
 20
1.198059
 40
0.003
 41
0.003
  0
LWPOLYLINE
  5
249
100
AcDbEntity
  8
0
 62
     0
100
AcDbPolyline
 90
        2
 70
     0
 39
0.003
 10
-1.006469
 20
1.198059
 40
0.003
 41
0.003
 10
-1.013728
 20
1.189925
 40
0.003
 41
0.003
  0
LWPOLYLINE
  5
24A
100
AcDbEntity
  8
0
 62
     0
100
AcDbPolyline
 90
        2
 70
     0
 39
0.003
 10
-1.013728
 20
1.189925
 40
0.003
 41
0.003
 10
-1.020382
 20
1.181272
 40
0.003
 41
0.003
  0
LWPOLYLINE
  5
24B
100
AcDbEntity
  8
0
 62
     0
100
AcDbPolyline
 90
        2
 70
     0
 39
0.003
 10
-1.020382
 20
1.181272
 40
0.003
 41
0.003
 10
-1.026461
 20
1.172118
 40
0.003
 41
0.003
  0
LWPOLYLINE
  5
24C
100
AcDbEntity
  8
0
 62
     0
100
AcDbPolyline
 90
        2
 70
     0
 39
0.003
 10
-1.026461
 20
1.172118
 40
0.003
 41
0.003
 10
-1.031976
 20
1.162457
 40
0.003
 41
0.003
  0
LWPOLYLINE
  5
24D
100
AcDbEntity
  8
0
 62
     0
100
AcDbPolyline
 90
        2
 70
     0
 39
0.003
 10
-1.031976
 20
1.162457
 40
0.003
 41
0.003
 10
-1.036972
 20
1.152315
 40
0.003
 41
0.003
  0
LWPOLYLINE
  5
24E
100
AcDbEntity
  8
0
 62
     0
100
AcDbPolyline
 90
        2
 70
     0
 39
0.003
 10
-1.036972
 20
1.152315
 40
0.003
 41
0.003
 10
-1.041465
 20
1.141693
 40
0.003
 41
0.003
  0
LWPOLYLINE
  5
24F
100
AcDbEntity
  8
0
 62
     0
100
AcDbPolyline
 90
        2
 70
     0
 39
0.003
 10
-1.041465
 20
1.141693
 40
0.003
 41
0.003
 10
-1.045488
 20
1.13061
 40
0.003
 41
0.003
  0
LWPOLYLINE
  5
250
100
AcDbEntity
  8
0
 62
     0
100
AcDbPolyline
 90
        2
 70
     0
 39
0.003
 10
-1.045488
 20
1.13061
 40
0.003
 41
0.003
 10
-1.049059
 20
1.119067
 40
0.003
 41
0.003
  0
LWPOLYLINE
  5
251
100
AcDbEntity
  8
0
 62
     0
100
AcDbPolyline
 90
        2
 70
     0
 39
0.003
 10
-1.049059
 20
1.119067
 40
0.003
 41
0.003
 10
-1.052209
 20
1.107083
 40
0.003
 41
0.003
  0
LWPOLYLINE
  5
252
100
AcDbEntity
  8
0
 62
     0
100
AcDbPolyline
 90
        2
 70
     0
 39
0.003
 10
-1.052209
 20
1.107083
 40
0.003
 41
0.003
 10
-1.054961
 20
1.094661
 40
0.003
 41
0.003
  0
LWPOLYLINE
  5
253
100
AcDbEntity
  8
0
 62
     0
100
AcDbPolyline
 90
        2
 70
     0
 39
0.003
 10
-1.054961
 20
1.094661
 40
0.003
 41
0.003
 10
-1.057354
 20
1.081823
 40
0.003
 41
0.003
  0
LWPOLYLINE
  5
254
100
AcDbEntity
  8
0
 62
     0
100
AcDbPolyline
 90
        2
 70
     0
 39
0.003
 10
-1.057354
 20
1.081823
 40
0.003
 41
0.003
 10
-1.059394
 20
1.068559
 40
0.003
 41
0.003
  0
LWPOLYLINE
  5
255
100
AcDbEntity
  8
0
 62
     0
100
AcDbPolyline
 90
        2
 70
     0
 39
0.003
 10
-1.059394
 20
1.068559
 40
0.003
 41
0.003
 10
-1.06113
 20
1.054894
 40
0.003
 41
0.003
  0
LWPOLYLINE
  5
256
100
AcDbEntity
  8
0
 62
     0
100
AcDbPolyline
 90
        2
 70
     0
 39
0.003
 10
-1.06113
 20
1.054894
 40
0.003
 41
0.003
 10
-1.062567
 20
1.040835
 40
0.003
 41
0.003
  0
LWPOLYLINE
  5
257
100
AcDbEntity
  8
0
 62
     0
100
AcDbPolyline
 90
        2
 70
     0
 39
0.003
 10
-1.062567
 20
1.040835
 40
0.003
 41
0.003
 10
-1.063752
 20
1.026398
 40
0.003
 41
0.003
  0
LWPOLYLINE
  5
258
100
AcDbEntity
  8
0
 62
     0
100
AcDbPolyline
 90
        2
 70
     0
 39
0.003
 10
-1.063752
 20
1.026398
 40
0.003
 41
0.003
 10
-1.064693
 20
1.011579
 40
0.003
 41
0.003
  0
LWPOLYLINE
  5
259
100
AcDbEntity
  8
0
 62
     0
100
AcDbPolyline
 90
        2
 70
     0
 39
0.003
 10
-1.064693
 20
1.011579
 40
0.003
 41
0.003
 10
-1.065429
 20
0.996402
 40
0.003
 41
0.003
  0
LWPOLYLINE
  5
25A
100
AcDbEntity
  8
0
 62
     0
100
AcDbPolyline
 90
        2
 70
     0
 39
0.003
 10
-1.065429
 20
0.996402
 40
0.003
 41
0.003
 10
-1.061953
 20
0.242858
 40
0.003
 41
0.003
  0
LWPOLYLINE
  5
25B
100
AcDbEntity
  8
0
 62
     0
100
AcDbPolyline
 90
        2
 70
     0
 39
0.003
 10
-1.061953
 20
0.242858
 40
0.003
 41
0.003
 10
-1.061217
 20
0.258035
 40
0.003
 41
0.003
  0
LWPOLYLINE
  5
25C
100
AcDbEntity
  8
0
 62
     0
100
AcDbPolyline
 90
        2
 70
     0
 39
0.003
 10
-1.061217
 20
0.258035
 40
0.003
 41
0.003
 10
-1.060276
 20
0.272854
 40
0.003
 41
0.003
  0
LWPOLYLINE
  5
25D
100
AcDbEntity
  8
0
 62
     0
100
AcDbPolyline
 90
        2
 70
     0
 39
0.003
 10
-1.060276
 20
0.272854
 40
0.003
 41
0.003
 10
-1.059091
 20
0.287291
 40
0.003
 41
0.003
  0
LWPOLYLINE
  5
25E
100
AcDbEntity
  8
0
 62
     0
100
AcDbPolyline
 90
        2
 70
     0
 39
0.003
 10
-1.059091
 20
0.287291
 40
0.003
 41
0.003
 10
-1.057654
 20
0.30135
 40
0.003
 41
0.003
  0
LWPOLYLINE
  5
25F
100
AcDbEntity
  8
0
 62
     0
100
AcDbPolyline
 90
        2
 70
     0
 39
0.003
 10
-1.057654
 20
0.30135
 40
0.003
 41
0.003
 10
-1.055917
 20
0.315016
 40
0.003
 41
0.003
  0
LWPOLYLINE
  5
260
100
AcDbEntity
  8
0
 62
     0
100
AcDbPolyline
 90
        2
 70
     0
 39
0.003
 10
-1.055917
 20
0.315016
 40
0.003
 41
0.003
 10
-1.053878
 20
0.32828
 40
0.003
 41
0.003
  0
LWPOLYLINE
  5
261
100
AcDbEntity
  8
0
 62
     0
100
AcDbPolyline
 90
        2
 70
     0
 39
0.003
 10
-1.053878
 20
0.32828
 40
0.003
 41
0.003
 10
-1.051484
 20
0.341118
 40
0.003
 41
0.003
  0
LWPOLYLINE
  5
262
100
AcDbEntity
  8
0
 62
     0
100
AcDbPolyline
 90
        2
 70
     0
 39
0.003
 10
-1.051484
 20
0.341118
 40
0.003
 41
0.003
 10
-1.048732
 20
0.353539
 40
0.003
 41
0.003
  0
LWPOLYLINE
  5
263
100
AcDbEntity
  8
0
 62
     0
100
AcDbPolyline
 90
        2
 70
     0
 39
0.003
 10
-1.048732
 20
0.353539
 40
0.003
 41
0.003
 10
-1.045583
 20
0.365524
 40
0.003
 41
0.003
  0
LWPOLYLINE
  5
264
100
AcDbEntity
  8
0
 62
     0
100
AcDbPolyline
 90
        2
 70
     0
 39
0.003
 10
-1.045583
 20
0.365524
 40
0.003
 41
0.003
 10
-1.042012
 20
0.377067
 40
0.003
 41
0.003
  0
LWPOLYLINE
  5
265
100
AcDbEntity
  8
0
 62
     0
100
AcDbPolyline
 90
        2
 70
     0
 39
0.003
 10
-1.042012
 20
0.377067
 40
0.003
 41
0.003
 10
-1.037988
 20
0.38815
 40
0.003
 41
0.003
  0
LWPOLYLINE
  5
266
100
AcDbEntity
  8
0
 62
     0
100
AcDbPolyline
 90
        2
 70
     0
 39
0.003
 10
-1.037988
 20
0.38815
 40
0.003
 41
0.003
 10
-1.033496
 20
0.398772
 40
0.003
 41
0.003
  0
LWPOLYLINE
  5
267
100
AcDbEntity
  8
0
 62
     0
100
AcDbPolyline
 90
        2
 70
     0
 39
0.003
 10
-1.033496
 20
0.398772
 40
0.003
 41
0.003
 10
-1.0285
 20
0.408913
 40
0.003
 41
0.003
  0
LWPOLYLINE
  5
268
100
AcDbEntity
  8
0
 62
     0
100
AcDbPolyline
 90
        2
 70
     0
 39
0.003
 10
-1.0285
 20
0.408913
 40
0.003
 41
0.003
 10
-1.022984
 20
0.418575
 40
0.003
 41
0.003
  0
LWPOLYLINE
  5
269
100
AcDbEntity
  8
0
 62
     0
100
AcDbPolyline
 90
        2
 70
     0
 39
0.003
 10
-1.022984
 20
0.418575
 40
0.003
 41
0.003
 10
-1.016906
 20
0.427728
 40
0.003
 41
0.003
  0
LWPOLYLINE
  5
26A
100
AcDbEntity
  8
0
 62
     0
100
AcDbPolyline
 90
        2
 70
     0
 39
0.003
 10
-1.016906
 20
0.427728
 40
0.003
 41
0.003
 10
-1.010252
 20
0.436382
 40
0.003
 41
0.003
  0
LWPOLYLINE
  5
26B
100
AcDbEntity
  8
0
 62
     0
100
AcDbPolyline
 90
        2
 70
     0
 39
0.003
 10
-1.010252
 20
0.436382
 40
0.003
 41
0.003
 10
-1.002992
 20
0.444516
 40
0.003
 41
0.003
  0
LWPOLYLINE
  5
26C
100
AcDbEntity
  8
0
 62
     0
100
AcDbPolyline
 90
        2
 70
     0
 39
0.003
 10
-1.002992
 20
0.444516
 40
0.003
 41
0.003
 10
-0.995102
 20
0.452126
 40
0.003
 41
0.003
  0
LWPOLYLINE
  5
26D
100
AcDbEntity
  8
0
 62
     0
100
AcDbPolyline
 90
        2
 70
     0
 39
0.003
 10
-0.995102
 20
0.452126
 40
0.003
 41
0.003
 10
-0.986547
 20
0.459193
 40
0.003
 41
0.003
  0
LWPOLYLINE
  5
26E
100
AcDbEntity
  8
0
 62
     0
100
AcDbPolyline
 90
        2
 70
     0
 39
0.003
 10
-0.986547
 20
0.459193
 40
0.003
 41
0.003
 10
-0.977315
 20
0.46572
 40
0.003
 41
0.003
  0
LWPOLYLINE
  5
26F
100
AcDbEntity
  8
0
 62
     0
100
AcDbPolyline
 90
        2
 70
     0
 39
0.003
 10
-0.977315
 20
0.46572
 40
0.003
 41
0.003
 10
-0.967366
 20
0.471685
 40
0.003
 41
0.003
  0
LWPOLYLINE
  5
270
100
AcDbEntity
  8
0
 62
     0
100
AcDbPolyline
 90
        2
 70
     0
 39
0.003
 10
-0.967366
 20
0.471685
 40
0.003
 41
0.003
 10
-0.956685
 20
0.477091
 40
0.003
 41
0.003
  0
LWPOLYLINE
  5
271
100
AcDbEntity
  8
0
 62
     0
100
AcDbPolyline
 90
        2
 70
     0
 39
0.003
 10
-0.956685
 20
0.477091
 40
0.003
 41
0.003
 10
-0.945228
 20
0.481906
 40
0.003
 41
0.003
  0
LWPOLYLINE
  5
272
100
AcDbEntity
  8
0
 62
     0
100
AcDbPolyline
 90
        2
 70
     0
 39
0.003
 10
-0.945228
 20
0.481906
 40
0.003
 41
0.003
 10
-0.932992
 20
0.486142
 40
0.003
 41
0.003
  0
LWPOLYLINE
  5
273
100
AcDbEntity
  8
0
 62
     0
100
AcDbPolyline
 90
        2
 70
     0
 39
0.003
 10
-0.932992
 20
0.486142
 40
0.003
 41
0.003
 10
-0.919933
 20
0.489776
 40
0.003
 41
0.003
  0
LWPOLYLINE
  5
274
100
AcDbEntity
  8
0
 62
     0
100
AcDbPolyline
 90
        2
 70
     0
 39
0.003
 10
-0.919933
 20
0.489776
 40
0.003
 41
0.003
 10
-0.906035
 20
0.492803
 40
0.003
 41
0.003
  0
LWPOLYLINE
  5
275
100
AcDbEntity
  8
0
 62
     0
100
AcDbPolyline
 90
        2
 70
     0
 39
0.003
 10
-0.906035
 20
0.492803
 40
0.003
 41
0.003
 10
-0.89126
 20
0.495205
 40
0.003
 41
0.003
  0
LWPOLYLINE
  5
276
100
AcDbEntity
  8
0
 62
     0
100
AcDbPolyline
 90
        2
 70
     0
 39
0.003
 10
-0.89126
 20
0.495205
 40
0.003
 41
0.003
 10
-0.875594
 20
0.496984
 40
0.003
 41
0.003
  0
LWPOLYLINE
  5
277
100
AcDbEntity
  8
0
 62
     0
100
AcDbPolyline
 90
        2
 70
     0
 39
0.003
 10
-0.875594
 20
0.496984
 40
0.003
 41
0.003
 10
-0.859004
 20
0.498122
 40
0.003
 41
0.003
  0
LWPOLYLINE
  5
278
100
AcDbEntity
  8
0
 62
     0
100
AcDbPolyline
 90
        2
 70
     0
 39
0.003
 10
-0.859004
 20
0.498122
 40
0.003
 41
0.003
 10
-0.841469
 20
0.498614
 40
0.003
 41
0.003
  0
LWPOLYLINE
  5
279
100
AcDbEntity
  8
0
 62
     9
100
AcDbPolyline
 90
        2
 70
     0
 39
0.003
 10
-1.062898
 20
0.211457
 40
0.003
 41
0.003
 10
-1.066374
 20
0.965
 40
0.003
 41
0.003
  0
LWPOLYLINE
  5
27A
100
AcDbEntity
  8
0
 62
     9
100
AcDbPolyline
 90
        2
 70
     0
 39
0.003
 10
-1.066374
 20
0.965
 40
0.003
 41
0.003
 10
-1.112776
 20
0.965
 40
0.003
 41
0.003
  0
LWPOLYLINE
  5
27B
100
AcDbEntity
  8
0
 62
     9
100
AcDbPolyline
 90
        2
 70
     0
 39
0.003
 10
-1.112776
 20
0.965
 40
0.003
 41
0.003
 10
-1.109299
 20
0.211457
 40
0.003
 41
0.003
  0
LWPOLYLINE
  5
27C
100
AcDbEntity
  8
0
 62
     9
100
AcDbPolyline
 90
        2
 70
     0
 39
0.003
 10
-1.109299
 20
0.211457
 40
0.003
 41
0.003
 10
-1.062898
 20
0.211457
 40
0.003
 41
0.003
  0
LWPOLYLINE
  5
27D
100
AcDbEntity
  8
0
 62
     0
100
AcDbPolyline
 90
        2
 70
     0
 39
0.003
 10
-1.062898
 20
0.211457
 40
0.003
 41
0.003
 10
-1.066374
 20
0.965
 40
0.003
 41
0.003
  0
LWPOLYLINE
  5
27E
100
AcDbEntity
  8
0
 62
     0
100
AcDbPolyline
 90
        2
 70
     0
 39
0.003
 10
-1.066374
 20
0.965
 40
0.003
 41
0.003
 10
-1.112776
 20
0.965
 40
0.003
 41
0.003
  0
LWPOLYLINE
  5
27F
100
AcDbEntity
  8
0
 62
     0
100
AcDbPolyline
 90
        2
 70
     0
 39
0.003
 10
-1.112776
 20
0.965
 40
0.003
 41
0.003
 10
-1.109299
 20
0.211457
 40
0.003
 41
0.003
  0
LWPOLYLINE
  5
280
100
AcDbEntity
  8
0
 62
     0
100
AcDbPolyline
 90
        2
 70
     0
 39
0.003
 10
-1.109299
 20
0.211457
 40
0.003
 41
0.003
 10
-1.062898
 20
0.211457
 40
0.003
 41
0.003
  0
LWPOLYLINE
  5
281
100
AcDbEntity
  8
0
 62
   254
100
AcDbPolyline
 90
        2
 70
     0
 39
0.003
 10
0.643496
 20
0.075075
 40
0.003
 41
0.003
 10
0.64002
 20
0.828618
 40
0.003
 41
0.003
  0
LWPOLYLINE
  5
282
100
AcDbEntity
  8
0
 62
   254
100
AcDbPolyline
 90
        2
 70
     0
 39
0.003
 10
0.64002
 20
0.828618
 40
0.003
 41
0.003
 10
0.63724
 20
0.846224
 40
0.003
 41
0.003
  0
LWPOLYLINE
  5
283
100
AcDbEntity
  8
0
 62
   254
100
AcDbPolyline
 90
        2
 70
     0
 39
0.003
 10
0.63724
 20
0.846224
 40
0.003
 41
0.003
 10
0.640717
 20
0.092681
 40
0.003
 41
0.003
  0
LWPOLYLINE
  5
284
100
AcDbEntity
  8
0
 62
   254
100
AcDbPolyline
 90
        2
 70
     0
 39
0.003
 10
0.640717
 20
0.092681
 40
0.003
 41
0.003
 10
0.643496
 20
0.075075
 40
0.003
 41
0.003
  0
LWPOLYLINE
  5
285
100
AcDbEntity
  8
0
 62
   254
100
AcDbPolyline
 90
        2
 70
     0
 39
0.003
 10
0.640717
 20
0.092681
 40
0.003
 41
0.003
 10
0.63724
 20
0.846224
 40
0.003
 41
0.003
  0
LWPOLYLINE
  5
286
100
AcDbEntity
  8
0
 62
   254
100
AcDbPolyline
 90
        2
 70
     0
 39
0.003
 10
0.63724
 20
0.846224
 40
0.003
 41
0.003
 10
0.633984
 20
0.862728
 40
0.003
 41
0.003
  0
LWPOLYLINE
  5
287
100
AcDbEntity
  8
0
 62
   254
100
AcDbPolyline
 90
        2
 70
     0
 39
0.003
 10
0.633984
 20
0.862728
 40
0.003
 41
0.003
 10
0.637461
 20
0.109185
 40
0.003
 41
0.003
  0
LWPOLYLINE
  5
288
100
AcDbEntity
  8
0
 62
   254
100
AcDbPolyline
 90
        2
 70
     0
 39
0.003
 10
0.637461
 20
0.109185
 40
0.003
 41
0.003
 10
0.640717
 20
0.092681
 40
0.003
 41
0.003
  0
LWPOLYLINE
  5
289
100
AcDbEntity
  8
0
 62
   254
100
AcDbPolyline
 90
        2
 70
     0
 39
0.003
 10
0.637461
 20
0.109185
 40
0.003
 41
0.003
 10
0.633984
 20
0.862728
 40
0.003
 41
0.003
  0
LWPOLYLINE
  5
28A
100
AcDbEntity
  8
0
 62
   254
100
AcDbPolyline
 90
        2
 70
     0
 39
0.003
 10
0.633984
 20
0.862728
 40
0.003
 41
0.003
 10
0.630236
 20
0.878161
 40
0.003
 41
0.003
  0
LWPOLYLINE
  5
28B
100
AcDbEntity
  8
0
 62
   254
100
AcDbPolyline
 90
        2
 70
     0
 39
0.003
 10
0.630236
 20
0.878161
 40
0.003
 41
0.003
 10
0.633713
 20
0.124618
 40
0.003
 41
0.003
  0
LWPOLYLINE
  5
28C
100
AcDbEntity
  8
0
 62
   254
100
AcDbPolyline
 90
        2
 70
     0
 39
0.003
 10
0.633713
 20
0.124618
 40
0.003
 41
0.003
 10
0.637461
 20
0.109185
 40
0.003
 41
0.003
  0
LWPOLYLINE
  5
28D
100
AcDbEntity
  8
0
 62
   254
100
AcDbPolyline
 90
        2
 70
     0
 39
0.003
 10
0.633713
 20
0.124618
 40
0.003
 41
0.003
 10
0.630236
 20
0.878161
 40
0.003
 41
0.003
  0
LWPOLYLINE
  5
28E
100
AcDbEntity
  8
0
 62
   254
100
AcDbPolyline
 90
        2
 70
     0
 39
0.003
 10
0.630236
 20
0.878161
 40
0.003
 41
0.003
 10
0.625996
 20
0.892591
 40
0.003
 41
0.003
  0
LWPOLYLINE
  5
28F
100
AcDbEntity
  8
0
 62
   254
100
AcDbPolyline
 90
        2
 70
     0
 39
0.003
 10
0.625996
 20
0.892591
 40
0.003
 41
0.003
 10
0.629472
 20
0.139047
 40
0.003
 41
0.003
  0
LWPOLYLINE
  5
290
100
AcDbEntity
  8
0
 62
   254
100
AcDbPolyline
 90
        2
 70
     0
 39
0.003
 10
0.629472
 20
0.139047
 40
0.003
 41
0.003
 10
0.633713
 20
0.124618
 40
0.003
 41
0.003
  0
LWPOLYLINE
  5
291
100
AcDbEntity
  8
0
 62
   254
100
AcDbPolyline
 90
        2
 70
     0
 39
0.003
 10
0.629472
 20
0.139047
 40
0.003
 41
0.003
 10
0.625996
 20
0.892591
 40
0.003
 41
0.003
  0
LWPOLYLINE
  5
292
100
AcDbEntity
  8
0
 62
   254
100
AcDbPolyline
 90
        2
 70
     0
 39
0.003
 10
0.625996
 20
0.892591
 40
0.003
 41
0.003
 10
0.621256
 20
0.906043
 40
0.003
 41
0.003
  0
LWPOLYLINE
  5
293
100
AcDbEntity
  8
0
 62
   254
100
AcDbPolyline
 90
        2
 70
     0
 39
0.003
 10
0.621256
 20
0.906043
 40
0.003
 41
0.003
 10
0.624732
 20
0.1525
 40
0.003
 41
0.003
  0
LWPOLYLINE
  5
294
100
AcDbEntity
  8
0
 62
   254
100
AcDbPolyline
 90
        2
 70
     0
 39
0.003
 10
0.624732
 20
0.1525
 40
0.003
 41
0.003
 10
0.629472
 20
0.139047
 40
0.003
 41
0.003
  0
LWPOLYLINE
  5
295
100
AcDbEntity
  8
0
 62
   254
100
AcDbPolyline
 90
        2
 70
     0
 39
0.003
 10
0.624732
 20
0.1525
 40
0.003
 41
0.003
 10
0.621256
 20
0.906043
 40
0.003
 41
0.003
  0
LWPOLYLINE
  5
296
100
AcDbEntity
  8
0
 62
   254
100
AcDbPolyline
 90
        2
 70
     0
 39
0.003
 10
0.621256
 20
0.906043
 40
0.003
 41
0.003
 10
0.616024
 20
0.918583
 40
0.003
 41
0.003
  0
LWPOLYLINE
  5
297
100
AcDbEntity
  8
0
 62
   254
100
AcDbPolyline
 90
        2
 70
     0
 39
0.003
 10
0.616024
 20
0.918583
 40
0.003
 41
0.003
 10
0.6195
 20
0.165039
 40
0.003
 41
0.003
  0
LWPOLYLINE
  5
298
100
AcDbEntity
  8
0
 62
   254
100
AcDbPolyline
 90
        2
 70
     0
 39
0.003
 10
0.6195
 20
0.165039
 40
0.003
 41
0.003
 10
0.624732
 20
0.1525
 40
0.003
 41
0.003
  0
LWPOLYLINE
  5
299
100
AcDbEntity
  8
0
 62
   254
100
AcDbPolyline
 90
        2
 70
     0
 39
0.003
 10
0.6195
 20
0.165039
 40
0.003
 41
0.003
 10
0.616024
 20
0.918583
 40
0.003
 41
0.003
  0
LWPOLYLINE
  5
29A
100
AcDbEntity
  8
0
 62
   254
100
AcDbPolyline
 90
        2
 70
     0
 39
0.003
 10
0.616024
 20
0.918583
 40
0.003
 41
0.003
 10
0.610283
 20
0.930248
 40
0.003
 41
0.003
  0
LWPOLYLINE
  5
29B
100
AcDbEntity
  8
0
 62
   254
100
AcDbPolyline
 90
        2
 70
     0
 39
0.003
 10
0.610283
 20
0.930248
 40
0.003
 41
0.003
 10
0.61376
 20
0.176705
 40
0.003
 41
0.003
  0
LWPOLYLINE
  5
29C
100
AcDbEntity
  8
0
 62
   254
100
AcDbPolyline
 90
        2
 70
     0
 39
0.003
 10
0.61376
 20
0.176705
 40
0.003
 41
0.003
 10
0.6195
 20
0.165039
 40
0.003
 41
0.003
  0
LWPOLYLINE
  5
29D
100
AcDbEntity
  8
0
 62
   254
100
AcDbPolyline
 90
        2
 70
     0
 39
0.003
 10
0.61376
 20
0.176705
 40
0.003
 41
0.003
 10
0.610283
 20
0.930248
 40
0.003
 41
0.003
  0
LWPOLYLINE
  5
29E
100
AcDbEntity
  8
0
 62
   254
100
AcDbPolyline
 90
        2
 70
     0
 39
0.003
 10
0.610283
 20
0.930248
 40
0.003
 41
0.003
 10
0.604043
 20
0.941094
 40
0.003
 41
0.003
  0
LWPOLYLINE
  5
29F
100
AcDbEntity
  8
0
 62
   254
100
AcDbPolyline
 90
        2
 70
     0
 39
0.003
 10
0.604043
 20
0.941094
 40
0.003
 41
0.003
 10
0.60752
 20
0.187551
 40
0.003
 41
0.003
  0
LWPOLYLINE
  5
2A0
100
AcDbEntity
  8
0
 62
   254
100
AcDbPolyline
 90
        2
 70
     0
 39
0.003
 10
0.60752
 20
0.187551
 40
0.003
 41
0.003
 10
0.61376
 20
0.176705
 40
0.003
 41
0.003
  0
LWPOLYLINE
  5
2A1
100
AcDbEntity
  8
0
 62
   254
100
AcDbPolyline
 90
        2
 70
     0
 39
0.003
 10
0.60752
 20
0.187551
 40
0.003
 41
0.003
 10
0.604043
 20
0.941094
 40
0.003
 41
0.003
  0
LWPOLYLINE
  5
2A2
100
AcDbEntity
  8
0
 62
   254
100
AcDbPolyline
 90
        2
 70
     0
 39
0.003
 10
0.604043
 20
0.941094
 40
0.003
 41
0.003
 10
0.597283
 20
0.951157
 40
0.003
 41
0.003
  0
LWPOLYLINE
  5
2A3
100
AcDbEntity
  8
0
 62
   254
100
AcDbPolyline
 90
        2
 70
     0
 39
0.003
 10
0.597283
 20
0.951157
 40
0.003
 41
0.003
 10
0.60076
 20
0.197614
 40
0.003
 41
0.003
  0
LWPOLYLINE
  5
2A4
100
AcDbEntity
  8
0
 62
   254
100
AcDbPolyline
 90
        2
 70
     0
 39
0.003
 10
0.60076
 20
0.197614
 40
0.003
 41
0.003
 10
0.60752
 20
0.187551
 40
0.003
 41
0.003
  0
LWPOLYLINE
  5
2A5
100
AcDbEntity
  8
0
 62
   254
100
AcDbPolyline
 90
        2
 70
     0
 39
0.003
 10
0.60076
 20
0.197614
 40
0.003
 41
0.003
 10
0.597283
 20
0.951157
 40
0.003
 41
0.003
  0
LWPOLYLINE
  5
2A6
100
AcDbEntity
  8
0
 62
   254
100
AcDbPolyline
 90
        2
 70
     0
 39
0.003
 10
0.597283
 20
0.951157
 40
0.003
 41
0.003
 10
0.590016
 20
0.960496
 40
0.003
 41
0.003
  0
LWPOLYLINE
  5
2A7
100
AcDbEntity
  8
0
 62
   254
100
AcDbPolyline
 90
        2
 70
     0
 39
0.003
 10
0.590016
 20
0.960496
 40
0.003
 41
0.003
 10
0.593492
 20
0.206953
 40
0.003
 41
0.003
  0
LWPOLYLINE
  5
2A8
100
AcDbEntity
  8
0
 62
   254
100
AcDbPolyline
 90
        2
 70
     0
 39
0.003
 10
0.593492
 20
0.206953
 40
0.003
 41
0.003
 10
0.60076
 20
0.197614
 40
0.003
 41
0.003
  0
LWPOLYLINE
  5
2A9
100
AcDbEntity
  8
0
 62
   254
100
AcDbPolyline
 90
        2
 70
     0
 39
0.003
 10
0.593492
 20
0.206953
 40
0.003
 41
0.003
 10
0.590016
 20
0.960496
 40
0.003
 41
0.003
  0
LWPOLYLINE
  5
2AA
100
AcDbEntity
  8
0
 62
   254
100
AcDbPolyline
 90
        2
 70
     0
 39
0.003
 10
0.590016
 20
0.960496
 40
0.003
 41
0.003
 10
0.582224
 20
0.969154
 40
0.003
 41
0.003
  0
LWPOLYLINE
  5
2AB
100
AcDbEntity
  8
0
 62
   254
100
AcDbPolyline
 90
        2
 70
     0
 39
0.003
 10
0.582224
 20
0.969154
 40
0.003
 41
0.003
 10
0.585701
 20
0.21561
 40
0.003
 41
0.003
  0
LWPOLYLINE
  5
2AC
100
AcDbEntity
  8
0
 62
   254
100
AcDbPolyline
 90
        2
 70
     0
 39
0.003
 10
0.585701
 20
0.21561
 40
0.003
 41
0.003
 10
0.593492
 20
0.206953
 40
0.003
 41
0.003
  0
LWPOLYLINE
  5
2AD
100
AcDbEntity
  8
0
 62
   254
100
AcDbPolyline
 90
        2
 70
     0
 39
0.003
 10
0.585701
 20
0.21561
 40
0.003
 41
0.003
 10
0.582224
 20
0.969154
 40
0.003
 41
0.003
  0
LWPOLYLINE
  5
2AE
100
AcDbEntity
  8
0
 62
   254
100
AcDbPolyline
 90
        2
 70
     0
 39
0.003
 10
0.582224
 20
0.969154
 40
0.003
 41
0.003
 10
0.573921
 20
0.977185
 40
0.003
 41
0.003
  0
LWPOLYLINE
  5
2AF
100
AcDbEntity
  8
0
 62
   254
100
AcDbPolyline
 90
        2
 70
     0
 39
0.003
 10
0.573921
 20
0.977185
 40
0.003
 41
0.003
 10
0.577398
 20
0.223642
 40
0.003
 41
0.003
  0
LWPOLYLINE
  5
2B0
100
AcDbEntity
  8
0
 62
   254
100
AcDbPolyline
 90
        2
 70
     0
 39
0.003
 10
0.577398
 20
0.223642
 40
0.003
 41
0.003
 10
0.585701
 20
0.21561
 40
0.003
 41
0.003
  0
LWPOLYLINE
  5
2B1
100
AcDbEntity
  8
0
 62
   254
100
AcDbPolyline
 90
        2
 70
     0
 39
0.003
 10
0.577398
 20
0.223642
 40
0.003
 41
0.003
 10
0.573921
 20
0.977185
 40
0.003
 41
0.003
  0
LWPOLYLINE
  5
2B2
100
AcDbEntity
  8
0
 62
   254
100
AcDbPolyline
 90
        2
 70
     0
 39
0.003
 10
0.573921
 20
0.977185
 40
0.003
 41
0.003
 10
0.565083
 20
0.984622
 40
0.003
 41
0.003
  0
LWPOLYLINE
  5
2B3
100
AcDbEntity
  8
0
 62
   254
100
AcDbPolyline
 90
        2
 70
     0
 39
0.003
 10
0.565083
 20
0.984622
 40
0.003
 41
0.003
 10
0.568559
 20
0.231079
 40
0.003
 41
0.003
  0
LWPOLYLINE
  5
2B4
100
AcDbEntity
  8
0
 62
   254
100
AcDbPolyline
 90
        2
 70
     0
 39
0.003
 10
0.568559
 20
0.231079
 40
0.003
 41
0.003
 10
0.577398
 20
0.223642
 40
0.003
 41
0.003
  0
LWPOLYLINE
  5
2B5
100
AcDbEntity
  8
0
 62
   254
100
AcDbPolyline
 90
        2
 70
     0
 39
0.003
 10
0.568559
 20
0.231079
 40
0.003
 41
0.003
 10
0.565083
 20
0.984622
 40
0.003
 41
0.003
  0
LWPOLYLINE
  5
2B6
100
AcDbEntity
  8
0
 62
   254
100
AcDbPolyline
 90
        2
 70
     0
 39
0.003
 10
0.565083
 20
0.984622
 40
0.003
 41
0.003
 10
0.55572
 20
0.991531
 40
0.003
 41
0.003
  0
LWPOLYLINE
  5
2B7
100
AcDbEntity
  8
0
 62
   254
100
AcDbPolyline
 90
        2
 70
     0
 39
0.003
 10
0.55572
 20
0.991531
 40
0.003
 41
0.003
 10
0.559197
 20
0.237988
 40
0.003
 41
0.003
  0
LWPOLYLINE
  5
2B8
100
AcDbEntity
  8
0
 62
   254
100
AcDbPolyline
 90
        2
 70
     0
 39
0.003
 10
0.559197
 20
0.237988
 40
0.003
 41
0.003
 10
0.568559
 20
0.231079
 40
0.003
 41
0.003
  0
LWPOLYLINE
  5
2B9
100
AcDbEntity
  8
0
 62
   254
100
AcDbPolyline
 90
        2
 70
     0
 39
0.003
 10
0.559197
 20
0.237988
 40
0.003
 41
0.003
 10
0.55572
 20
0.991531
 40
0.003
 41
0.003
  0
LWPOLYLINE
  5
2BA
100
AcDbEntity
  8
0
 62
   254
100
AcDbPolyline
 90
        2
 70
     0
 39
0.003
 10
0.55572
 20
0.991531
 40
0.003
 41
0.003
 10
0.545827
 20
0.997949
 40
0.003
 41
0.003
  0
LWPOLYLINE
  5
2BB
100
AcDbEntity
  8
0
 62
   254
100
AcDbPolyline
 90
        2
 70
     0
 39
0.003
 10
0.545827
 20
0.997949
 40
0.003
 41
0.003
 10
0.549303
 20
0.244406
 40
0.003
 41
0.003
  0
LWPOLYLINE
  5
2BC
100
AcDbEntity
  8
0
 62
   254
100
AcDbPolyline
 90
        2
 70
     0
 39
0.003
 10
0.549303
 20
0.244406
 40
0.003
 41
0.003
 10
0.559197
 20
0.237988
 40
0.003
 41
0.003
  0
LWPOLYLINE
  5
2BD
100
AcDbEntity
  8
0
 62
   254
100
AcDbPolyline
 90
        2
 70
     0
 39
0.003
 10
0.549303
 20
0.244406
 40
0.003
 41
0.003
 10
0.545827
 20
0.997949
 40
0.003
 41
0.003
  0
LWPOLYLINE
  5
2BE
100
AcDbEntity
  8
0
 62
   254
100
AcDbPolyline
 90
        2
 70
     0
 39
0.003
 10
0.545827
 20
0.997949
 40
0.003
 41
0.003
 10
0.535398
 20
1.003929
 40
0.003
 41
0.003
  0
LWPOLYLINE
  5
2BF
100
AcDbEntity
  8
0
 62
   254
100
AcDbPolyline
 90
        2
 70
     0
 39
0.003
 10
0.535398
 20
1.003929
 40
0.003
 41
0.003
 10
0.538874
 20
0.250386
 40
0.003
 41
0.003
  0
LWPOLYLINE
  5
2C0
100
AcDbEntity
  8
0
 62
   254
100
AcDbPolyline
 90
        2
 70
     0
 39
0.003
 10
0.538874
 20
0.250386
 40
0.003
 41
0.003
 10
0.549303
 20
0.244406
 40
0.003
 41
0.003
  0
LWPOLYLINE
  5
2C1
100
AcDbEntity
  8
0
 62
   254
100
AcDbPolyline
 90
        2
 70
     0
 39
0.003
 10
0.538874
 20
0.250386
 40
0.003
 41
0.003
 10
0.535398
 20
1.003929
 40
0.003
 41
0.003
  0
LWPOLYLINE
  5
2C2
100
AcDbEntity
  8
0
 62
   254
100
AcDbPolyline
 90
        2
 70
     0
 39
0.003
 10
0.535398
 20
1.003929
 40
0.003
 41
0.003
 10
0.524421
 20
1.009508
 40
0.003
 41
0.003
  0
LWPOLYLINE
  5
2C3
100
AcDbEntity
  8
0
 62
   254
100
AcDbPolyline
 90
        2
 70
     0
 39
0.003
 10
0.524421
 20
1.009508
 40
0.003
 41
0.003
 10
0.527898
 20
0.255965
 40
0.003
 41
0.003
  0
LWPOLYLINE
  5
2C4
100
AcDbEntity
  8
0
 62
   254
100
AcDbPolyline
 90
        2
 70
     0
 39
0.003
 10
0.527898
 20
0.255965
 40
0.003
 41
0.003
 10
0.538874
 20
0.250386
 40
0.003
 41
0.003
  0
LWPOLYLINE
  5
2C5
100
AcDbEntity
  8
0
 62
     9
100
AcDbPolyline
 90
        2
 70
     0
 39
0.003
 10
0.527898
 20
0.255965
 40
0.003
 41
0.003
 10
0.524421
 20
1.009508
 40
0.003
 41
0.003
  0
LWPOLYLINE
  5
2C6
100
AcDbEntity
  8
0
 62
     9
100
AcDbPolyline
 90
        2
 70
     0
 39
0.003
 10
0.524421
 20
1.009508
 40
0.003
 41
0.003
 10
0.512906
 20
1.014748
 40
0.003
 41
0.003
  0
LWPOLYLINE
  5
2C7
100
AcDbEntity
  8
0
 62
     9
100
AcDbPolyline
 90
        2
 70
     0
 39
0.003
 10
0.512906
 20
1.014748
 40
0.003
 41
0.003
 10
0.516382
 20
0.261205
 40
0.003
 41
0.003
  0
LWPOLYLINE
  5
2C8
100
AcDbEntity
  8
0
 62
     9
100
AcDbPolyline
 90
        2
 70
     0
 39
0.003
 10
0.516382
 20
0.261205
 40
0.003
 41
0.003
 10
0.527898
 20
0.255965
 40
0.003
 41
0.003
  0
LWPOLYLINE
  5
2C9
100
AcDbEntity
  8
0
 62
     9
100
AcDbPolyline
 90
        2
 70
     0
 39
0.003
 10
0.516382
 20
0.261205
 40
0.003
 41
0.003
 10
0.512906
 20
1.014748
 40
0.003
 41
0.003
  0
LWPOLYLINE
  5
2CA
100
AcDbEntity
  8
0
 62
     9
100
AcDbPolyline
 90
        2
 70
     0
 39
0.003
 10
0.512906
 20
1.014748
 40
0.003
 41
0.003
 10
0.500839
 20
1.019689
 40
0.003
 41
0.003
  0
LWPOLYLINE
  5
2CB
100
AcDbEntity
  8
0
 62
     9
100
AcDbPolyline
 90
        2
 70
     0
 39
0.003
 10
0.500839
 20
1.019689
 40
0.003
 41
0.003
 10
0.504315
 20
0.266146
 40
0.003
 41
0.003
  0
LWPOLYLINE
  5
2CC
100
AcDbEntity
  8
0
 62
     9
100
AcDbPolyline
 90
        2
 70
     0
 39
0.003
 10
0.504315
 20
0.266146
 40
0.003
 41
0.003
 10
0.516382
 20
0.261205
 40
0.003
 41
0.003
  0
LWPOLYLINE
  5
2CD
100
AcDbEntity
  8
0
 62
     9
100
AcDbPolyline
 90
        2
 70
     0
 39
0.003
 10
0.504315
 20
0.266146
 40
0.003
 41
0.003
 10
0.500839
 20
1.019689
 40
0.003
 41
0.003
  0
LWPOLYLINE
  5
2CE
100
AcDbEntity
  8
0
 62
     9
100
AcDbPolyline
 90
        2
 70
     0
 39
0.003
 10
0.500839
 20
1.019689
 40
0.003
 41
0.003
 10
0.488228
 20
1.024386
 40
0.003
 41
0.003
  0
LWPOLYLINE
  5
2CF
100
AcDbEntity
  8
0
 62
     9
100
AcDbPolyline
 90
        2
 70
     0
 39
0.003
 10
0.488228
 20
1.024386
 40
0.003
 41
0.003
 10
0.491705
 20
0.270843
 40
0.003
 41
0.003
  0
LWPOLYLINE
  5
2D0
100
AcDbEntity
  8
0
 62
     9
100
AcDbPolyline
 90
        2
 70
     0
 39
0.003
 10
0.491705
 20
0.270843
 40
0.003
 41
0.003
 10
0.504315
 20
0.266146
 40
0.003
 41
0.003
  0
LWPOLYLINE
  5
2D1
100
AcDbEntity
  8
0
 62
     9
100
AcDbPolyline
 90
        2
 70
     0
 39
0.003
 10
0.491705
 20
0.270843
 40
0.003
 41
0.003
 10
0.488228
 20
1.024386
 40
0.003
 41
0.003
  0
LWPOLYLINE
  5
2D2
100
AcDbEntity
  8
0
 62
     9
100
AcDbPolyline
 90
        2
 70
     0
 39
0.003
 10
0.488228
 20
1.024386
 40
0.003
 41
0.003
 10
0.475059
 20
1.028874
 40
0.003
 41
0.003
  0
LWPOLYLINE
  5
2D3
100
AcDbEntity
  8
0
 62
     9
100
AcDbPolyline
 90
        2
 70
     0
 39
0.003
 10
0.475059
 20
1.028874
 40
0.003
 41
0.003
 10
0.478535
 20
0.275331
 40
0.003
 41
0.003
  0
LWPOLYLINE
  5
2D4
100
AcDbEntity
  8
0
 62
     9
100
AcDbPolyline
 90
        2
 70
     0
 39
0.003
 10
0.478535
 20
0.275331
 40
0.003
 41
0.003
 10
0.491705
 20
0.270843
 40
0.003
 41
0.003
  0
LWPOLYLINE
  5
2D5
100
AcDbEntity
  8
0
 62
     9
100
AcDbPolyline
 90
        2
 70
     0
 39
0.003
 10
0.478535
 20
0.275331
 40
0.003
 41
0.003
 10
0.475059
 20
1.028874
 40
0.003
 41
0.003
  0
LWPOLYLINE
  5
2D6
100
AcDbEntity
  8
0
 62
     9
100
AcDbPolyline
 90
        2
 70
     0
 39
0.003
 10
0.475059
 20
1.028874
 40
0.003
 41
0.003
 10
0.461335
 20
1.033217
 40
0.003
 41
0.003
  0
LWPOLYLINE
  5
2D7
100
AcDbEntity
  8
0
 62
     9
100
AcDbPolyline
 90
        2
 70
     0
 39
0.003
 10
0.461335
 20
1.033217
 40
0.003
 41
0.003
 10
0.464811
 20
0.279673
 40
0.003
 41
0.003
  0
LWPOLYLINE
  5
2D8
100
AcDbEntity
  8
0
 62
     9
100
AcDbPolyline
 90
        2
 70
     0
 39
0.003
 10
0.464811
 20
0.279673
 40
0.003
 41
0.003
 10
0.478535
 20
0.275331
 40
0.003
 41
0.003
  0
LWPOLYLINE
  5
2D9
100
AcDbEntity
  8
0
 62
     9
100
AcDbPolyline
 90
        2
 70
     0
 39
0.003
 10
0.464811
 20
0.279673
 40
0.003
 41
0.003
 10
0.461335
 20
1.033217
 40
0.003
 41
0.003
  0
LWPOLYLINE
  5
2DA
100
AcDbEntity
  8
0
 62
     9
100
AcDbPolyline
 90
        2
 70
     0
 39
0.003
 10
0.461335
 20
1.033217
 40
0.003
 41
0.003
 10
0.447047
 20
1.037449
 40
0.003
 41
0.003
  0
LWPOLYLINE
  5
2DB
100
AcDbEntity
  8
0
 62
     9
100
AcDbPolyline
 90
        2
 70
     0
 39
0.003
 10
0.447047
 20
1.037449
 40
0.003
 41
0.003
 10
0.450524
 20
0.283906
 40
0.003
 41
0.003
  0
LWPOLYLINE
  5
2DC
100
AcDbEntity
  8
0
 62
     9
100
AcDbPolyline
 90
        2
 70
     0
 39
0.003
 10
0.450524
 20
0.283906
 40
0.003
 41
0.003
 10
0.464811
 20
0.279673
 40
0.003
 41
0.003
  0
LWPOLYLINE
  5
2DD
100
AcDbEntity
  8
0
 62
     9
100
AcDbPolyline
 90
        2
 70
     0
 39
0.003
 10
0.450524
 20
0.283906
 40
0.003
 41
0.003
 10
0.447047
 20
1.037449
 40
0.003
 41
0.003
  0
LWPOLYLINE
  5
2DE
100
AcDbEntity
  8
0
 62
     9
100
AcDbPolyline
 90
        2
 70
     0
 39
0.003
 10
0.447047
 20
1.037449
 40
0.003
 41
0.003
 10
0.432201
 20
1.04163
 40
0.003
 41
0.003
  0
LWPOLYLINE
  5
2DF
100
AcDbEntity
  8
0
 62
     9
100
AcDbPolyline
 90
        2
 70
     0
 39
0.003
 10
0.432201
 20
1.04163
 40
0.003
 41
0.003
 10
0.435677
 20
0.288087
 40
0.003
 41
0.003
  0
LWPOLYLINE
  5
2E0
100
AcDbEntity
  8
0
 62
     9
100
AcDbPolyline
 90
        2
 70
     0
 39
0.003
 10
0.435677
 20
0.288087
 40
0.003
 41
0.003
 10
0.450524
 20
0.283906
 40
0.003
 41
0.003
  0
LWPOLYLINE
  5
2E1
100
AcDbEntity
  8
0
 62
     9
100
AcDbPolyline
 90
        2
 70
     0
 39
0.003
 10
0.435677
 20
0.288087
 40
0.003
 41
0.003
 10
0.432201
 20
1.04163
 40
0.003
 41
0.003
  0
LWPOLYLINE
  5
2E2
100
AcDbEntity
  8
0
 62
     9
100
AcDbPolyline
 90
        2
 70
     0
 39
0.003
 10
0.432201
 20
1.04163
 40
0.003
 41
0.003
 10
0.416776
 20
1.045791
 40
0.003
 41
0.003
  0
LWPOLYLINE
  5
2E3
100
AcDbEntity
  8
0
 62
     9
100
AcDbPolyline
 90
        2
 70
     0
 39
0.003
 10
0.416776
 20
1.045791
 40
0.003
 41
0.003
 10
0.420252
 20
0.292248
 40
0.003
 41
0.003
  0
LWPOLYLINE
  5
2E4
100
AcDbEntity
  8
0
 62
     9
100
AcDbPolyline
 90
        2
 70
     0
 39
0.003
 10
0.420252
 20
0.292248
 40
0.003
 41
0.003
 10
0.435677
 20
0.288087
 40
0.003
 41
0.003
  0
LWPOLYLINE
  5
2E5
100
AcDbEntity
  8
0
 62
     9
100
AcDbPolyline
 90
        2
 70
     0
 39
0.003
 10
0.420252
 20
0.292248
 40
0.003
 41
0.003
 10
0.416776
 20
1.045791
 40
0.003
 41
0.003
  0
LWPOLYLINE
  5
2E6
100
AcDbEntity
  8
0
 62
     9
100
AcDbPolyline
 90
        2
 70
     0
 39
0.003
 10
0.416776
 20
1.045791
 40
0.003
 41
0.003
 10
0.400783
 20
1.05
 40
0.003
 41
0.003
  0
LWPOLYLINE
  5
2E7
100
AcDbEntity
  8
0
 62
     9
100
AcDbPolyline
 90
        2
 70
     0
 39
0.003
 10
0.400783
 20
1.05
 40
0.003
 41
0.003
 10
0.40426
 20
0.296457
 40
0.003
 41
0.003
  0
LWPOLYLINE
  5
2E8
100
AcDbEntity
  8
0
 62
     9
100
AcDbPolyline
 90
        2
 70
     0
 39
0.003
 10
0.40426
 20
0.296457
 40
0.003
 41
0.003
 10
0.420252
 20
0.292248
 40
0.003
 41
0.003
  0
LWPOLYLINE
  5
2E9
100
AcDbEntity
  8
0
 62
     9
100
AcDbPolyline
 90
        2
 70
     0
 39
0.003
 10
0.40426
 20
0.296457
 40
0.003
 41
0.003
 10
0.400783
 20
1.05
 40
0.003
 41
0.003
  0
LWPOLYLINE
  5
2EA
100
AcDbEntity
  8
0
 62
     9
100
AcDbPolyline
 90
        2
 70
     0
 39
0.003
 10
0.400783
 20
1.05
 40
0.003
 41
0.003
 10
0.384209
 20
1.054287
 40
0.003
 41
0.003
  0
LWPOLYLINE
  5
2EB
100
AcDbEntity
  8
0
 62
     9
100
AcDbPolyline
 90
        2
 70
     0
 39
0.003
 10
0.384209
 20
1.054287
 40
0.003
 41
0.003
 10
0.387685
 20
0.300744
 40
0.003
 41
0.003
  0
LWPOLYLINE
  5
2EC
100
AcDbEntity
  8
0
 62
     9
100
AcDbPolyline
 90
        2
 70
     0
 39
0.003
 10
0.387685
 20
0.300744
 40
0.003
 41
0.003
 10
0.40426
 20
0.296457
 40
0.003
 41
0.003
  0
LWPOLYLINE
  5
2ED
100
AcDbEntity
  8
0
 62
     9
100
AcDbPolyline
 90
        2
 70
     0
 39
0.003
 10
0.387685
 20
0.300744
 40
0.003
 41
0.003
 10
0.384209
 20
1.054287
 40
0.003
 41
0.003
  0
LWPOLYLINE
  5
2EE
100
AcDbEntity
  8
0
 62
     9
100
AcDbPolyline
 90
        2
 70
     0
 39
0.003
 10
0.384209
 20
1.054287
 40
0.003
 41
0.003
 10
0.367063
 20
1.05872
 40
0.003
 41
0.003
  0
LWPOLYLINE
  5
2EF
100
AcDbEntity
  8
0
 62
     9
100
AcDbPolyline
 90
        2
 70
     0
 39
0.003
 10
0.367063
 20
1.05872
 40
0.003
 41
0.003
 10
0.370539
 20
0.305177
 40
0.003
 41
0.003
  0
LWPOLYLINE
  5
2F0
100
AcDbEntity
  8
0
 62
     9
100
AcDbPolyline
 90
        2
 70
     0
 39
0.003
 10
0.370539
 20
0.305177
 40
0.003
 41
0.003
 10
0.387685
 20
0.300744
 40
0.003
 41
0.003
  0
LWPOLYLINE
  5
2F1
100
AcDbEntity
  8
0
 62
     9
100
AcDbPolyline
 90
        2
 70
     0
 39
0.003
 10
0.370539
 20
0.305177
 40
0.003
 41
0.003
 10
0.367063
 20
1.05872
 40
0.003
 41
0.003
  0
LWPOLYLINE
  5
2F2
100
AcDbEntity
  8
0
 62
     9
100
AcDbPolyline
 90
        2
 70
     0
 39
0.003
 10
0.367063
 20
1.05872
 40
0.003
 41
0.003
 10
0.349327
 20
1.063327
 40
0.003
 41
0.003
  0
LWPOLYLINE
  5
2F3
100
AcDbEntity
  8
0
 62
     9
100
AcDbPolyline
 90
        2
 70
     0
 39
0.003
 10
0.349327
 20
1.063327
 40
0.003
 41
0.003
 10
0.352803
 20
0.309783
 40
0.003
 41
0.003
  0
LWPOLYLINE
  5
2F4
100
AcDbEntity
  8
0
 62
     9
100
AcDbPolyline
 90
        2
 70
     0
 39
0.003
 10
0.352803
 20
0.309783
 40
0.003
 41
0.003
 10
0.370539
 20
0.305177
 40
0.003
 41
0.003
  0
LWPOLYLINE
  5
2F5
100
AcDbEntity
  8
0
 62
     9
100
AcDbPolyline
 90
        2
 70
     0
 39
0.003
 10
0.352803
 20
0.309783
 40
0.003
 41
0.003
 10
0.349327
 20
1.063327
 40
0.003
 41
0.003
  0
LWPOLYLINE
  5
2F6
100
AcDbEntity
  8
0
 62
     9
100
AcDbPolyline
 90
        2
 70
     0
 39
0.003
 10
0.349327
 20
1.063327
 40
0.003
 41
0.003
 10
0.331008
 20
1.068169
 40
0.003
 41
0.003
  0
LWPOLYLINE
  5
2F7
100
AcDbEntity
  8
0
 62
     9
100
AcDbPolyline
 90
        2
 70
     0
 39
0.003
 10
0.331008
 20
1.068169
 40
0.003
 41
0.003
 10
0.334484
 20
0.314626
 40
0.003
 41
0.003
  0
LWPOLYLINE
  5
2F8
100
AcDbEntity
  8
0
 62
     9
100
AcDbPolyline
 90
        2
 70
     0
 39
0.003
 10
0.334484
 20
0.314626
 40
0.003
 41
0.003
 10
0.352803
 20
0.309783
 40
0.003
 41
0.003
  0
LWPOLYLINE
  5
2F9
100
AcDbEntity
  8
0
 62
     9
100
AcDbPolyline
 90
        2
 70
     0
 39
0.003
 10
0.334484
 20
0.314626
 40
0.003
 41
0.003
 10
0.331008
 20
1.068169
 40
0.003
 41
0.003
  0
LWPOLYLINE
  5
2FA
100
AcDbEntity
  8
0
 62
     9
100
AcDbPolyline
 90
        2
 70
     0
 39
0.003
 10
0.331008
 20
1.068169
 40
0.003
 41
0.003
 10
0.312094
 20
1.073283
 40
0.003
 41
0.003
  0
LWPOLYLINE
  5
2FB
100
AcDbEntity
  8
0
 62
     9
100
AcDbPolyline
 90
        2
 70
     0
 39
0.003
 10
0.312094
 20
1.073283
 40
0.003
 41
0.003
 10
0.315571
 20
0.31974
 40
0.003
 41
0.003
  0
LWPOLYLINE
  5
2FC
100
AcDbEntity
  8
0
 62
     9
100
AcDbPolyline
 90
        2
 70
     0
 39
0.003
 10
0.315571
 20
0.31974
 40
0.003
 41
0.003
 10
0.334484
 20
0.314626
 40
0.003
 41
0.003
  0
LWPOLYLINE
  5
2FD
100
AcDbEntity
  8
0
 62
     9
100
AcDbPolyline
 90
        2
 70
     0
 39
0.003
 10
0.315571
 20
0.31974
 40
0.003
 41
0.003
 10
0.312094
 20
1.073283
 40
0.003
 41
0.003
  0
LWPOLYLINE
  5
2FE
100
AcDbEntity
  8
0
 62
     9
100
AcDbPolyline
 90
        2
 70
     0
 39
0.003
 10
0.312094
 20
1.073283
 40
0.003
 41
0.003
 10
0.292594
 20
1.078732
 40
0.003
 41
0.003
  0
LWPOLYLINE
  5
2FF
100
AcDbEntity
  8
0
 62
     9
100
AcDbPolyline
 90
        2
 70
     0
 39
0.003
 10
0.292594
 20
1.078732
 40
0.003
 41
0.003
 10
0.296071
 20
0.325189
 40
0.003
 41
0.003
  0
LWPOLYLINE
  5
300
100
AcDbEntity
  8
0
 62
     9
100
AcDbPolyline
 90
        2
 70
     0
 39
0.003
 10
0.296071
 20
0.325189
 40
0.003
 41
0.003
 10
0.315571
 20
0.31974
 40
0.003
 41
0.003
  0
LWPOLYLINE
  5
301
100
AcDbEntity
  8
0
 62
     9
100
AcDbPolyline
 90
        2
 70
     0
 39
0.003
 10
0.296071
 20
0.325189
 40
0.003
 41
0.003
 10
0.292594
 20
1.078732
 40
0.003
 41
0.003
  0
LWPOLYLINE
  5
302
100
AcDbEntity
  8
0
 62
     9
100
AcDbPolyline
 90
        2
 70
     0
 39
0.003
 10
0.292594
 20
1.078732
 40
0.003
 41
0.003
 10
0.273421
 20
1.084358
 40
0.003
 41
0.003
  0
LWPOLYLINE
  5
303
100
AcDbEntity
  8
0
 62
     9
100
AcDbPolyline
 90
        2
 70
     0
 39
0.003
 10
0.273421
 20
1.084358
 40
0.003
 41
0.003
 10
0.276898
 20
0.330815
 40
0.003
 41
0.003
  0
LWPOLYLINE
  5
304
100
AcDbEntity
  8
0
 62
     9
100
AcDbPolyline
 90
        2
 70
     0
 39
0.003
 10
0.276898
 20
0.330815
 40
0.003
 41
0.003
 10
0.296071
 20
0.325189
 40
0.003
 41
0.003
  0
LWPOLYLINE
  5
305
100
AcDbEntity
  8
0
 62
     9
100
AcDbPolyline
 90
        2
 70
     0
 39
0.003
 10
0.276898
 20
0.330815
 40
0.003
 41
0.003
 10
0.273421
 20
1.084358
 40
0.003
 41
0.003
  0
LWPOLYLINE
  5
306
100
AcDbEntity
  8
0
 62
     9
100
AcDbPolyline
 90
        2
 70
     0
 39
0.003
 10
0.273421
 20
1.084358
 40
0.003
 41
0.003
 10
0.255508
 20
1.090028
 40
0.003
 41
0.003
  0
LWPOLYLINE
  5
307
100
AcDbEntity
  8
0
 62
     9
100
AcDbPolyline
 90
        2
 70
     0
 39
0.003
 10
0.255508
 20
1.090028
 40
0.003
 41
0.003
 10
0.258984
 20
0.336484
 40
0.003
 41
0.003
  0
LWPOLYLINE
  5
308
100
AcDbEntity
  8
0
 62
     9
100
AcDbPolyline
 90
        2
 70
     0
 39
0.003
 10
0.258984
 20
0.336484
 40
0.003
 41
0.003
 10
0.276898
 20
0.330815
 40
0.003
 41
0.003
  0
LWPOLYLINE
  5
309
100
AcDbEntity
  8
0
 62
     9
100
AcDbPolyline
 90
        2
 70
     0
 39
0.003
 10
0.258984
 20
0.336484
 40
0.003
 41
0.003
 10
0.255508
 20
1.090028
 40
0.003
 41
0.003
  0
LWPOLYLINE
  5
30A
100
AcDbEntity
  8
0
 62
     9
100
AcDbPolyline
 90
        2
 70
     0
 39
0.003
 10
0.255508
 20
1.090028
 40
0.003
 41
0.003
 10
0.238787
 20
1.095732
 40
0.003
 41
0.003
  0
LWPOLYLINE
  5
30B
100
AcDbEntity
  8
0
 62
     9
100
AcDbPolyline
 90
        2
 70
     0
 39
0.003
 10
0.238787
 20
1.095732
 40
0.003
 41
0.003
 10
0.242264
 20
0.342189
 40
0.003
 41
0.003
  0
LWPOLYLINE
  5
30C
100
AcDbEntity
  8
0
 62
     9
100
AcDbPolyline
 90
        2
 70
     0
 39
0.003
 10
0.242264
 20
0.342189
 40
0.003
 41
0.003
 10
0.258984
 20
0.336484
 40
0.003
 41
0.003
  0
LWPOLYLINE
  5
30D
100
AcDbEntity
  8
0
 62
     9
100
AcDbPolyline
 90
        2
 70
     0
 39
0.003
 10
0.242264
 20
0.342189
 40
0.003
 41
0.003
 10
0.238787
 20
1.095732
 40
0.003
 41
0.003
  0
LWPOLYLINE
  5
30E
100
AcDbEntity
  8
0
 62
     9
100
AcDbPolyline
 90
        2
 70
     0
 39
0.003
 10
0.238787
 20
1.095732
 40
0.003
 41
0.003
 10
0.223224
 20
1.101496
 40
0.003
 41
0.003
  0
LWPOLYLINE
  5
30F
100
AcDbEntity
  8
0
 62
     9
100
AcDbPolyline
 90
        2
 70
     0
 39
0.003
 10
0.223224
 20
1.101496
 40
0.003
 41
0.003
 10
0.226701
 20
0.347953
 40
0.003
 41
0.003
  0
LWPOLYLINE
  5
310
100
AcDbEntity
  8
0
 62
     9
100
AcDbPolyline
 90
        2
 70
     0
 39
0.003
 10
0.226701
 20
0.347953
 40
0.003
 41
0.003
 10
0.242264
 20
0.342189
 40
0.003
 41
0.003
  0
LWPOLYLINE
  5
311
100
AcDbEntity
  8
0
 62
     9
100
AcDbPolyline
 90
        2
 70
     0
 39
0.003
 10
0.226701
 20
0.347953
 40
0.003
 41
0.003
 10
0.223224
 20
1.101496
 40
0.003
 41
0.003
  0
LWPOLYLINE
  5
312
100
AcDbEntity
  8
0
 62
     9
100
AcDbPolyline
 90
        2
 70
     0
 39
0.003
 10
0.223224
 20
1.101496
 40
0.003
 41
0.003
 10
0.20876
 20
1.107315
 40
0.003
 41
0.003
  0
LWPOLYLINE
  5
313
100
AcDbEntity
  8
0
 62
     9
100
AcDbPolyline
 90
        2
 70
     0
 39
0.003
 10
0.20876
 20
1.107315
 40
0.003
 41
0.003
 10
0.212236
 20
0.353772
 40
0.003
 41
0.003
  0
LWPOLYLINE
  5
314
100
AcDbEntity
  8
0
 62
     9
100
AcDbPolyline
 90
        2
 70
     0
 39
0.003
 10
0.212236
 20
0.353772
 40
0.003
 41
0.003
 10
0.226701
 20
0.347953
 40
0.003
 41
0.003
  0
LWPOLYLINE
  5
315
100
AcDbEntity
  8
0
 62
     9
100
AcDbPolyline
 90
        2
 70
     0
 39
0.003
 10
0.212236
 20
0.353772
 40
0.003
 41
0.003
 10
0.20876
 20
1.107315
 40
0.003
 41
0.003
  0
LWPOLYLINE
  5
316
100
AcDbEntity
  8
0
 62
     9
100
AcDbPolyline
 90
        2
 70
     0
 39
0.003
 10
0.20876
 20
1.107315
 40
0.003
 41
0.003
 10
0.195358
 20
1.113209
 40
0.003
 41
0.003
  0
LWPOLYLINE
  5
317
100
AcDbEntity
  8
0
 62
     9
100
AcDbPolyline
 90
        2
 70
     0
 39
0.003
 10
0.195358
 20
1.113209
 40
0.003
 41
0.003
 10
0.198835
 20
0.359665
 40
0.003
 41
0.003
  0
LWPOLYLINE
  5
318
100
AcDbEntity
  8
0
 62
     9
100
AcDbPolyline
 90
        2
 70
     0
 39
0.003
 10
0.198835
 20
0.359665
 40
0.003
 41
0.003
 10
0.212236
 20
0.353772
 40
0.003
 41
0.003
  0
LWPOLYLINE
  5
319
100
AcDbEntity
  8
0
 62
     9
100
AcDbPolyline
 90
        2
 70
     0
 39
0.003
 10
0.198835
 20
0.359665
 40
0.003
 41
0.003
 10
0.195358
 20
1.113209
 40
0.003
 41
0.003
  0
LWPOLYLINE
  5
31A
100
AcDbEntity
  8
0
 62
     9
100
AcDbPolyline
 90
        2
 70
     0
 39
0.003
 10
0.195358
 20
1.113209
 40
0.003
 41
0.003
 10
0.182961
 20
1.119177
 40
0.003
 41
0.003
  0
LWPOLYLINE
  5
31B
100
AcDbEntity
  8
0
 62
     9
100
AcDbPolyline
 90
        2
 70
     0
 39
0.003
 10
0.182961
 20
1.119177
 40
0.003
 41
0.003
 10
0.186437
 20
0.365634
 40
0.003
 41
0.003
  0
LWPOLYLINE
  5
31C
100
AcDbEntity
  8
0
 62
     9
100
AcDbPolyline
 90
        2
 70
     0
 39
0.003
 10
0.186437
 20
0.365634
 40
0.003
 41
0.003
 10
0.198835
 20
0.359665
 40
0.003
 41
0.003
  0
LWPOLYLINE
  5
31D
100
AcDbEntity
  8
0
 62
   254
100
AcDbPolyline
 90
        2
 70
     0
 39
0.003
 10
0.186437
 20
0.365634
 40
0.003
 41
0.003
 10
0.182961
 20
1.119177
 40
0.003
 41
0.003
  0
LWPOLYLINE
  5
31E
100
AcDbEntity
  8
0
 62
   254
100
AcDbPolyline
 90
        2
 70
     0
 39
0.003
 10
0.182961
 20
1.119177
 40
0.003
 41
0.003
 10
0.171528
 20
1.125244
 40
0.003
 41
0.003
  0
LWPOLYLINE
  5
31F
100
AcDbEntity
  8
0
 62
   254
100
AcDbPolyline
 90
        2
 70
     0
 39
0.003
 10
0.171528
 20
1.125244
 40
0.003
 41
0.003
 10
0.175004
 20
0.371701
 40
0.003
 41
0.003
  0
LWPOLYLINE
  5
320
100
AcDbEntity
  8
0
 62
   254
100
AcDbPolyline
 90
        2
 70
     0
 39
0.003
 10
0.175004
 20
0.371701
 40
0.003
 41
0.003
 10
0.186437
 20
0.365634
 40
0.003
 41
0.003
  0
LWPOLYLINE
  5
321
100
AcDbEntity
  8
0
 62
   254
100
AcDbPolyline
 90
        2
 70
     0
 39
0.003
 10
0.175004
 20
0.371701
 40
0.003
 41
0.003
 10
0.171528
 20
1.125244
 40
0.003
 41
0.003
  0
LWPOLYLINE
  5
322
100
AcDbEntity
  8
0
 62
   254
100
AcDbPolyline
 90
        2
 70
     0
 39
0.003
 10
0.171528
 20
1.125244
 40
0.003
 41
0.003
 10
0.161
 20
1.131398
 40
0.003
 41
0.003
  0
LWPOLYLINE
  5
323
100
AcDbEntity
  8
0
 62
   254
100
AcDbPolyline
 90
        2
 70
     0
 39
0.003
 10
0.161
 20
1.131398
 40
0.003
 41
0.003
 10
0.164476
 20
0.377854
 40
0.003
 41
0.003
  0
LWPOLYLINE
  5
324
100
AcDbEntity
  8
0
 62
   254
100
AcDbPolyline
 90
        2
 70
     0
 39
0.003
 10
0.164476
 20
0.377854
 40
0.003
 41
0.003
 10
0.175004
 20
0.371701
 40
0.003
 41
0.003
  0
LWPOLYLINE
  5
325
100
AcDbEntity
  8
0
 62
   254
100
AcDbPolyline
 90
        2
 70
     0
 39
0.003
 10
0.164476
 20
0.377854
 40
0.003
 41
0.003
 10
0.161
 20
1.131398
 40
0.003
 41
0.003
  0
LWPOLYLINE
  5
326
100
AcDbEntity
  8
0
 62
   254
100
AcDbPolyline
 90
        2
 70
     0
 39
0.003
 10
0.161
 20
1.131398
 40
0.003
 41
0.003
 10
0.151339
 20
1.137669
 40
0.003
 41
0.003
  0
LWPOLYLINE
  5
327
100
AcDbEntity
  8
0
 62
   254
100
AcDbPolyline
 90
        2
 70
     0
 39
0.003
 10
0.151339
 20
1.137669
 40
0.003
 41
0.003
 10
0.154815
 20
0.384126
 40
0.003
 41
0.003
  0
LWPOLYLINE
  5
328
100
AcDbEntity
  8
0
 62
   254
100
AcDbPolyline
 90
        2
 70
     0
 39
0.003
 10
0.154815
 20
0.384126
 40
0.003
 41
0.003
 10
0.164476
 20
0.377854
 40
0.003
 41
0.003
  0
LWPOLYLINE
  5
329
100
AcDbEntity
  8
0
 62
   254
100
AcDbPolyline
 90
        2
 70
     0
 39
0.003
 10
0.154815
 20
0.384126
 40
0.003
 41
0.003
 10
0.151339
 20
1.137669
 40
0.003
 41
0.003
  0
LWPOLYLINE
  5
32A
100
AcDbEntity
  8
0
 62
   254
100
AcDbPolyline
 90
        2
 70
     0
 39
0.003
 10
0.151339
 20
1.137669
 40
0.003
 41
0.003
 10
0.142488
 20
1.144055
 40
0.003
 41
0.003
  0
LWPOLYLINE
  5
32B
100
AcDbEntity
  8
0
 62
   254
100
AcDbPolyline
 90
        2
 70
     0
 39
0.003
 10
0.142488
 20
1.144055
 40
0.003
 41
0.003
 10
0.145965
 20
0.390512
 40
0.003
 41
0.003
  0
LWPOLYLINE
  5
32C
100
AcDbEntity
  8
0
 62
   254
100
AcDbPolyline
 90
        2
 70
     0
 39
0.003
 10
0.145965
 20
0.390512
 40
0.003
 41
0.003
 10
0.154815
 20
0.384126
 40
0.003
 41
0.003
  0
LWPOLYLINE
  5
32D
100
AcDbEntity
  8
0
 62
   254
100
AcDbPolyline
 90
        2
 70
     0
 39
0.003
 10
0.145965
 20
0.390512
 40
0.003
 41
0.003
 10
0.142488
 20
1.144055
 40
0.003
 41
0.003
  0
LWPOLYLINE
  5
32E
100
AcDbEntity
  8
0
 62
   254
100
AcDbPolyline
 90
        2
 70
     0
 39
0.003
 10
0.142488
 20
1.144055
 40
0.003
 41
0.003
 10
0.134417
 20
1.150575
 40
0.003
 41
0.003
  0
LWPOLYLINE
  5
32F
100
AcDbEntity
  8
0
 62
   254
100
AcDbPolyline
 90
        2
 70
     0
 39
0.003
 10
0.134417
 20
1.150575
 40
0.003
 41
0.003
 10
0.137894
 20
0.397031
 40
0.003
 41
0.003
  0
LWPOLYLINE
  5
330
100
AcDbEntity
  8
0
 62
   254
100
AcDbPolyline
 90
        2
 70
     0
 39
0.003
 10
0.137894
 20
0.397031
 40
0.003
 41
0.003
 10
0.145965
 20
0.390512
 40
0.003
 41
0.003
  0
LWPOLYLINE
  5
331
100
AcDbEntity
  8
0
 62
   254
100
AcDbPolyline
 90
        2
 70
     0
 39
0.003
 10
0.137894
 20
0.397031
 40
0.003
 41
0.003
 10
0.134417
 20
1.150575
 40
0.003
 41
0.003
  0
LWPOLYLINE
  5
332
100
AcDbEntity
  8
0
 62
   254
100
AcDbPolyline
 90
        2
 70
     0
 39
0.003
 10
0.134417
 20
1.150575
 40
0.003
 41
0.003
 10
0.127059
 20
1.157224
 40
0.003
 41
0.003
  0
LWPOLYLINE
  5
333
100
AcDbEntity
  8
0
 62
   254
100
AcDbPolyline
 90
        2
 70
     0
 39
0.003
 10
0.127059
 20
1.157224
 40
0.003
 41
0.003
 10
0.130535
 20
0.403681
 40
0.003
 41
0.003
  0
LWPOLYLINE
  5
334
100
AcDbEntity
  8
0
 62
   254
100
AcDbPolyline
 90
        2
 70
     0
 39
0.003
 10
0.130535
 20
0.403681
 40
0.003
 41
0.003
 10
0.137894
 20
0.397031
 40
0.003
 41
0.003
  0
LWPOLYLINE
  5
335
100
AcDbEntity
  8
0
 62
   254
100
AcDbPolyline
 90
        2
 70
     0
 39
0.003
 10
0.130535
 20
0.403681
 40
0.003
 41
0.003
 10
0.127059
 20
1.157224
 40
0.003
 41
0.003
  0
LWPOLYLINE
  5
336
100
AcDbEntity
  8
0
 62
   254
100
AcDbPolyline
 90
        2
 70
     0
 39
0.003
 10
0.127059
 20
1.157224
 40
0.003
 41
0.003
 10
0.120374
 20
1.164024
 40
0.003
 41
0.003
  0
LWPOLYLINE
  5
337
100
AcDbEntity
  8
0
 62
   254
100
AcDbPolyline
 90
        2
 70
     0
 39
0.003
 10
0.120374
 20
1.164024
 40
0.003
 41
0.003
 10
0.12385
 20
0.41048
 40
0.003
 41
0.003
  0
LWPOLYLINE
  5
338
100
AcDbEntity
  8
0
 62
   254
100
AcDbPolyline
 90
        2
 70
     0
 39
0.003
 10
0.12385
 20
0.41048
 40
0.003
 41
0.003
 10
0.130535
 20
0.403681
 40
0.003
 41
0.003
  0
LWPOLYLINE
  5
339
100
AcDbEntity
  8
0
 62
   254
100
AcDbPolyline
 90
        2
 70
     0
 39
0.003
 10
0.12385
 20
0.41048
 40
0.003
 41
0.003
 10
0.120374
 20
1.164024
 40
0.003
 41
0.003
  0
LWPOLYLINE
  5
33A
100
AcDbEntity
  8
0
 62
   254
100
AcDbPolyline
 90
        2
 70
     0
 39
0.003
 10
0.120374
 20
1.164024
 40
0.003
 41
0.003
 10
0.114315
 20
1.17098
 40
0.003
 41
0.003
  0
LWPOLYLINE
  5
33B
100
AcDbEntity
  8
0
 62
   254
100
AcDbPolyline
 90
        2
 70
     0
 39
0.003
 10
0.114315
 20
1.17098
 40
0.003
 41
0.003
 10
0.117791
 20
0.417437
 40
0.003
 41
0.003
  0
LWPOLYLINE
  5
33C
100
AcDbEntity
  8
0
 62
   254
100
AcDbPolyline
 90
        2
 70
     0
 39
0.003
 10
0.117791
 20
0.417437
 40
0.003
 41
0.003
 10
0.12385
 20
0.41048
 40
0.003
 41
0.003
  0
LWPOLYLINE
  5
33D
100
AcDbEntity
  8
0
 62
   254
100
AcDbPolyline
 90
        2
 70
     0
 39
0.003
 10
0.117791
 20
0.417437
 40
0.003
 41
0.003
 10
0.114315
 20
1.17098
 40
0.003
 41
0.003
  0
LWPOLYLINE
  5
33E
100
AcDbEntity
  8
0
 62
   254
100
AcDbPolyline
 90
        2
 70
     0
 39
0.003
 10
0.114315
 20
1.17098
 40
0.003
 41
0.003
 10
0.108835
 20
1.178106
 40
0.003
 41
0.003
  0
LWPOLYLINE
  5
33F
100
AcDbEntity
  8
0
 62
   254
100
AcDbPolyline
 90
        2
 70
     0
 39
0.003
 10
0.108835
 20
1.178106
 40
0.003
 41
0.003
 10
0.112311
 20
0.424563
 40
0.003
 41
0.003
  0
LWPOLYLINE
  5
340
100
AcDbEntity
  8
0
 62
   254
100
AcDbPolyline
 90
        2
 70
     0
 39
0.003
 10
0.112311
 20
0.424563
 40
0.003
 41
0.003
 10
0.117791
 20
0.417437
 40
0.003
 41
0.003
  0
LWPOLYLINE
  5
341
100
AcDbEntity
  8
0
 62
   254
100
AcDbPolyline
 90
        2
 70
     0
 39
0.003
 10
0.112311
 20
0.424563
 40
0.003
 41
0.003
 10
0.108835
 20
1.178106
 40
0.003
 41
0.003
  0
LWPOLYLINE
  5
342
100
AcDbEntity
  8
0
 62
   254
100
AcDbPolyline
 90
        2
 70
     0
 39
0.003
 10
0.108835
 20
1.178106
 40
0.003
 41
0.003
 10
0.103874
 20
1.185398
 40
0.003
 41
0.003
  0
LWPOLYLINE
  5
343
100
AcDbEntity
  8
0
 62
   254
100
AcDbPolyline
 90
        2
 70
     0
 39
0.003
 10
0.103874
 20
1.185398
 40
0.003
 41
0.003
 10
0.10735
 20
0.431854
 40
0.003
 41
0.003
  0
LWPOLYLINE
  5
344
100
AcDbEntity
  8
0
 62
   254
100
AcDbPolyline
 90
        2
 70
     0
 39
0.003
 10
0.10735
 20
0.431854
 40
0.003
 41
0.003
 10
0.112311
 20
0.424563
 40
0.003
 41
0.003
  0
LWPOLYLINE
  5
345
100
AcDbEntity
  8
0
 62
   254
100
AcDbPolyline
 90
        2
 70
     0
 39
0.003
 10
0.10735
 20
0.431854
 40
0.003
 41
0.003
 10
0.103874
 20
1.185398
 40
0.003
 41
0.003
  0
LWPOLYLINE
  5
346
100
AcDbEntity
  8
0
 62
   254
100
AcDbPolyline
 90
        2
 70
     0
 39
0.003
 10
0.103874
 20
1.185398
 40
0.003
 41
0.003
 10
0.099398
 20
1.192878
 40
0.003
 41
0.003
  0
LWPOLYLINE
  5
347
100
AcDbEntity
  8
0
 62
   254
100
AcDbPolyline
 90
        2
 70
     0
 39
0.003
 10
0.099398
 20
1.192878
 40
0.003
 41
0.003
 10
0.102874
 20
0.439335
 40
0.003
 41
0.003
  0
LWPOLYLINE
  5
348
100
AcDbEntity
  8
0
 62
   254
100
AcDbPolyline
 90
        2
 70
     0
 39
0.003
 10
0.102874
 20
0.439335
 40
0.003
 41
0.003
 10
0.10735
 20
0.431854
 40
0.003
 41
0.003
  0
LWPOLYLINE
  5
349
100
AcDbEntity
  8
0
 62
   254
100
AcDbPolyline
 90
        2
 70
     0
 39
0.003
 10
0.102874
 20
0.439335
 40
0.003
 41
0.003
 10
0.099398
 20
1.192878
 40
0.003
 41
0.003
  0
LWPOLYLINE
  5
34A
100
AcDbEntity
  8
0
 62
   254
100
AcDbPolyline
 90
        2
 70
     0
 39
0.003
 10
0.099398
 20
1.192878
 40
0.003
 41
0.003
 10
0.09535
 20
1.200551
 40
0.003
 41
0.003
  0
LWPOLYLINE
  5
34B
100
AcDbEntity
  8
0
 62
   254
100
AcDbPolyline
 90
        2
 70
     0
 39
0.003
 10
0.09535
 20
1.200551
 40
0.003
 41
0.003
 10
0.098827
 20
0.447008
 40
0.003
 41
0.003
  0
LWPOLYLINE
  5
34C
100
AcDbEntity
  8
0
 62
   254
100
AcDbPolyline
 90
        2
 70
     0
 39
0.003
 10
0.098827
 20
0.447008
 40
0.003
 41
0.003
 10
0.102874
 20
0.439335
 40
0.003
 41
0.003
  0
LWPOLYLINE
  5
34D
100
AcDbEntity
  8
0
 62
   254
100
AcDbPolyline
 90
        2
 70
     0
 39
0.003
 10
0.098827
 20
0.447008
 40
0.003
 41
0.003
 10
0.09535
 20
1.200551
 40
0.003
 41
0.003
  0
LWPOLYLINE
  5
34E
100
AcDbEntity
  8
0
 62
   254
100
AcDbPolyline
 90
        2
 70
     0
 39
0.003
 10
0.09535
 20
1.200551
 40
0.003
 41
0.003
 10
0.091693
 20
1.208433
 40
0.003
 41
0.003
  0
LWPOLYLINE
  5
34F
100
AcDbEntity
  8
0
 62
   254
100
AcDbPolyline
 90
        2
 70
     0
 39
0.003
 10
0.091693
 20
1.208433
 40
0.003
 41
0.003
 10
0.095169
 20
0.45489
 40
0.003
 41
0.003
  0
LWPOLYLINE
  5
350
100
AcDbEntity
  8
0
 62
   254
100
AcDbPolyline
 90
        2
 70
     0
 39
0.003
 10
0.095169
 20
0.45489
 40
0.003
 41
0.003
 10
0.098827
 20
0.447008
 40
0.003
 41
0.003
  0
LWPOLYLINE
  5
351
100
AcDbEntity
  8
0
 62
   254
100
AcDbPolyline
 90
        2
 70
     0
 39
0.003
 10
0.095169
 20
0.45489
 40
0.003
 41
0.003
 10
0.091693
 20
1.208433
 40
0.003
 41
0.003
  0
LWPOLYLINE
  5
352
100
AcDbEntity
  8
0
 62
   254
100
AcDbPolyline
 90
        2
 70
     0
 39
0.003
 10
0.091693
 20
1.208433
 40
0.003
 41
0.003
 10
0.088366
 20
1.216524
 40
0.003
 41
0.003
  0
LWPOLYLINE
  5
353
100
AcDbEntity
  8
0
 62
   254
100
AcDbPolyline
 90
        2
 70
     0
 39
0.003
 10
0.088366
 20
1.216524
 40
0.003
 41
0.003
 10
0.091843
 20
0.46298
 40
0.003
 41
0.003
  0
LWPOLYLINE
  5
354
100
AcDbEntity
  8
0
 62
   254
100
AcDbPolyline
 90
        2
 70
     0
 39
0.003
 10
0.091843
 20
0.46298
 40
0.003
 41
0.003
 10
0.095169
 20
0.45489
 40
0.003
 41
0.003
  0
LWPOLYLINE
  5
355
100
AcDbEntity
  8
0
 62
   254
100
AcDbPolyline
 90
        2
 70
     0
 39
0.003
 10
0.091843
 20
0.46298
 40
0.003
 41
0.003
 10
0.088366
 20
1.216524
 40
0.003
 41
0.003
  0
LWPOLYLINE
  5
356
100
AcDbEntity
  8
0
 62
   254
100
AcDbPolyline
 90
        2
 70
     0
 39
0.003
 10
0.088366
 20
1.216524
 40
0.003
 41
0.003
 10
0.085327
 20
1.224839
 40
0.003
 41
0.003
  0
LWPOLYLINE
  5
357
100
AcDbEntity
  8
0
 62
   254
100
AcDbPolyline
 90
        2
 70
     0
 39
0.003
 10
0.085327
 20
1.224839
 40
0.003
 41
0.003
 10
0.088803
 20
0.471295
 40
0.003
 41
0.003
  0
LWPOLYLINE
  5
358
100
AcDbEntity
  8
0
 62
   254
100
AcDbPolyline
 90
        2
 70
     0
 39
0.003
 10
0.088803
 20
0.471295
 40
0.003
 41
0.003
 10
0.091843
 20
0.46298
 40
0.003
 41
0.003
  0
LWPOLYLINE
  5
359
100
AcDbEntity
  8
0
 62
   254
100
AcDbPolyline
 90
        2
 70
     0
 39
0.003
 10
0.088803
 20
0.471295
 40
0.003
 41
0.003
 10
0.085327
 20
1.224839
 40
0.003
 41
0.003
  0
LWPOLYLINE
  5
35A
100
AcDbEntity
  8
0
 62
   254
100
AcDbPolyline
 90
        2
 70
     0
 39
0.003
 10
0.085327
 20
1.224839
 40
0.003
 41
0.003
 10
0.082531
 20
1.233382
 40
0.003
 41
0.003
  0
LWPOLYLINE
  5
35B
100
AcDbEntity
  8
0
 62
   254
100
AcDbPolyline
 90
        2
 70
     0
 39
0.003
 10
0.082531
 20
1.233382
 40
0.003
 41
0.003
 10
0.086008
 20
0.479839
 40
0.003
 41
0.003
  0
LWPOLYLINE
  5
35C
100
AcDbEntity
  8
0
 62
   254
100
AcDbPolyline
 90
        2
 70
     0
 39
0.003
 10
0.086008
 20
0.479839
 40
0.003
 41
0.003
 10
0.088803
 20
0.471295
 40
0.003
 41
0.003
  0
LWPOLYLINE
  5
35D
100
AcDbEntity
  8
0
 62
   254
100
AcDbPolyline
 90
        2
 70
     0
 39
0.003
 10
0.086008
 20
0.479839
 40
0.003
 41
0.003
 10
0.082531
 20
1.233382
 40
0.003
 41
0.003
  0
LWPOLYLINE
  5
35E
100
AcDbEntity
  8
0
 62
   254
100
AcDbPolyline
 90
        2
 70
     0
 39
0.003
 10
0.082531
 20
1.233382
 40
0.003
 41
0.003
 10
0.079929
 20
1.242173
 40
0.003
 41
0.003
  0
LWPOLYLINE
  5
35F
100
AcDbEntity
  8
0
 62
   254
100
AcDbPolyline
 90
        2
 70
     0
 39
0.003
 10
0.079929
 20
1.242173
 40
0.003
 41
0.003
 10
0.083406
 20
0.48863
 40
0.003
 41
0.003
  0
LWPOLYLINE
  5
360
100
AcDbEntity
  8
0
 62
   254
100
AcDbPolyline
 90
        2
 70
     0
 39
0.003
 10
0.083406
 20
0.48863
 40
0.003
 41
0.003
 10
0.086008
 20
0.479839
 40
0.003
 41
0.003
  0
LWPOLYLINE
  5
361
100
AcDbEntity
  8
0
 62
   254
100
AcDbPolyline
 90
        2
 70
     0
 39
0.003
 10
0.083406
 20
0.48863
 40
0.003
 41
0.003
 10
0.079929
 20
1.242173
 40
0.003
 41
0.003
  0
LWPOLYLINE
  5
362
100
AcDbEntity
  8
0
 62
   254
100
AcDbPolyline
 90
        2
 70
     0
 39
0.003
 10
0.079929
 20
1.242173
 40
0.003
 41
0.003
 10
0.077465
 20
1.251209
 40
0.003
 41
0.003
  0
LWPOLYLINE
  5
363
100
AcDbEntity
  8
0
 62
   254
100
AcDbPolyline
 90
        2
 70
     0
 39
0.003
 10
0.077465
 20
1.251209
 40
0.003
 41
0.003
 10
0.080941
 20
0.497665
 40
0.003
 41
0.003
  0
LWPOLYLINE
  5
364
100
AcDbEntity
  8
0
 62
   254
100
AcDbPolyline
 90
        2
 70
     0
 39
0.003
 10
0.080941
 20
0.497665
 40
0.003
 41
0.003
 10
0.083406
 20
0.48863
 40
0.003
 41
0.003
  0
LWPOLYLINE
  5
365
100
AcDbEntity
  8
0
 62
   254
100
AcDbPolyline
 90
        2
 70
     0
 39
0.003
 10
0.080941
 20
0.497665
 40
0.003
 41
0.003
 10
0.077465
 20
1.251209
 40
0.003
 41
0.003
  0
LWPOLYLINE
  5
366
100
AcDbEntity
  8
0
 62
   254
100
AcDbPolyline
 90
        2
 70
     0
 39
0.003
 10
0.077465
 20
1.251209
 40
0.003
 41
0.003
 10
0.075102
 20
1.260508
 40
0.003
 41
0.003
  0
LWPOLYLINE
  5
367
100
AcDbEntity
  8
0
 62
   254
100
AcDbPolyline
 90
        2
 70
     0
 39
0.003
 10
0.075102
 20
1.260508
 40
0.003
 41
0.003
 10
0.078579
 20
0.506965
 40
0.003
 41
0.003
  0
LWPOLYLINE
  5
368
100
AcDbEntity
  8
0
 62
   254
100
AcDbPolyline
 90
        2
 70
     0
 39
0.003
 10
0.078579
 20
0.506965
 40
0.003
 41
0.003
 10
0.080941
 20
0.497665
 40
0.003
 41
0.003
  0
LWPOLYLINE
  5
369
100
AcDbEntity
  8
0
 62
   254
100
AcDbPolyline
 90
        2
 70
     0
 39
0.003
 10
0.078579
 20
0.506965
 40
0.003
 41
0.003
 10
0.075102
 20
1.260508
 40
0.003
 41
0.003
  0
LWPOLYLINE
  5
36A
100
AcDbEntity
  8
0
 62
   254
100
AcDbPolyline
 90
        2
 70
     0
 39
0.003
 10
0.075102
 20
1.260508
 40
0.003
 41
0.003
 10
0.07278
 20
1.270079
 40
0.003
 41
0.003
  0
LWPOLYLINE
  5
36B
100
AcDbEntity
  8
0
 62
   254
100
AcDbPolyline
 90
        2
 70
     0
 39
0.003
 10
0.07278
 20
1.270079
 40
0.003
 41
0.003
 10
0.076256
 20
0.516535
 40
0.003
 41
0.003
  0
LWPOLYLINE
  5
36C
100
AcDbEntity
  8
0
 62
   254
100
AcDbPolyline
 90
        2
 70
     0
 39
0.003
 10
0.076256
 20
0.516535
 40
0.003
 41
0.003
 10
0.078579
 20
0.506965
 40
0.003
 41
0.003
  0
LWPOLYLINE
  5
36D
100
AcDbEntity
  8
0
 62
   254
100
AcDbPolyline
 90
        2
 70
     0
 39
0.003
 10
0.076256
 20
0.516535
 40
0.003
 41
0.003
 10
0.07278
 20
1.270079
 40
0.003
 41
0.003
  0
LWPOLYLINE
  5
36E
100
AcDbEntity
  8
0
 62
   254
100
AcDbPolyline
 90
        2
 70
     0
 39
0.003
 10
0.07278
 20
1.270079
 40
0.003
 41
0.003
 10
0.070469
 20
1.279933
 40
0.003
 41
0.003
  0
LWPOLYLINE
  5
36F
100
AcDbEntity
  8
0
 62
   254
100
AcDbPolyline
 90
        2
 70
     0
 39
0.003
 10
0.070469
 20
1.279933
 40
0.003
 41
0.003
 10
0.073945
 20
0.52639
 40
0.003
 41
0.003
  0
LWPOLYLINE
  5
370
100
AcDbEntity
  8
0
 62
   254
100
AcDbPolyline
 90
        2
 70
     0
 39
0.003
 10
0.073945
 20
0.52639
 40
0.003
 41
0.003
 10
0.076256
 20
0.516535
 40
0.003
 41
0.003
  0
LWPOLYLINE
  5
371
100
AcDbEntity
  8
0
 62
   254
100
AcDbPolyline
 90
        2
 70
     0
 39
0.003
 10
0.073945
 20
0.52639
 40
0.003
 41
0.003
 10
0.070469
 20
1.279933
 40
0.003
 41
0.003
  0
LWPOLYLINE
  5
372
100
AcDbEntity
  8
0
 62
   254
100
AcDbPolyline
 90
        2
 70
     0
 39
0.003
 10
0.070469
 20
1.279933
 40
0.003
 41
0.003
 10
0.068098
 20
1.290071
 40
0.003
 41
0.003
  0
LWPOLYLINE
  5
373
100
AcDbEntity
  8
0
 62
   254
100
AcDbPolyline
 90
        2
 70
     0
 39
0.003
 10
0.068098
 20
1.290071
 40
0.003
 41
0.003
 10
0.071575
 20
0.536528
 40
0.003
 41
0.003
  0
LWPOLYLINE
  5
374
100
AcDbEntity
  8
0
 62
   254
100
AcDbPolyline
 90
        2
 70
     0
 39
0.003
 10
0.071575
 20
0.536528
 40
0.003
 41
0.003
 10
0.073945
 20
0.52639
 40
0.003
 41
0.003
  0
LWPOLYLINE
  5
375
100
AcDbEntity
  8
0
 62
   254
100
AcDbPolyline
 90
        2
 70
     0
 39
0.003
 10
0.071575
 20
0.536528
 40
0.003
 41
0.003
 10
0.068098
 20
1.290071
 40
0.003
 41
0.003
  0
LWPOLYLINE
  5
376
100
AcDbEntity
  8
0
 62
   254
100
AcDbPolyline
 90
        2
 70
     0
 39
0.003
 10
0.068098
 20
1.290071
 40
0.003
 41
0.003
 10
0.065638
 20
1.300512
 40
0.003
 41
0.003
  0
LWPOLYLINE
  5
377
100
AcDbEntity
  8
0
 62
   254
100
AcDbPolyline
 90
        2
 70
     0
 39
0.003
 10
0.065638
 20
1.300512
 40
0.003
 41
0.003
 10
0.069114
 20
0.546969
 40
0.003
 41
0.003
  0
LWPOLYLINE
  5
378
100
AcDbEntity
  8
0
 62
   254
100
AcDbPolyline
 90
        2
 70
     0
 39
0.003
 10
0.069114
 20
0.546969
 40
0.003
 41
0.003
 10
0.071575
 20
0.536528
 40
0.003
 41
0.003
  0
LWPOLYLINE
  5
379
100
AcDbEntity
  8
0
 62
   254
100
AcDbPolyline
 90
        2
 70
     0
 39
0.003
 10
0.069114
 20
0.546969
 40
0.003
 41
0.003
 10
0.065638
 20
1.300512
 40
0.003
 41
0.003
  0
LWPOLYLINE
  5
37A
100
AcDbEntity
  8
0
 62
   254
100
AcDbPolyline
 90
        2
 70
     0
 39
0.003
 10
0.065638
 20
1.300512
 40
0.003
 41
0.003
 10
0.063031
 20
1.31126
 40
0.003
 41
0.003
  0
LWPOLYLINE
  5
37B
100
AcDbEntity
  8
0
 62
   254
100
AcDbPolyline
 90
        2
 70
     0
 39
0.003
 10
0.063031
 20
1.31126
 40
0.003
 41
0.003
 10
0.066508
 20
0.557717
 40
0.003
 41
0.003
  0
LWPOLYLINE
  5
37C
100
AcDbEntity
  8
0
 62
   254
100
AcDbPolyline
 90
        2
 70
     0
 39
0.003
 10
0.066508
 20
0.557717
 40
0.003
 41
0.003
 10
0.069114
 20
0.546969
 40
0.003
 41
0.003
  0
LWPOLYLINE
  5
37D
100
AcDbEntity
  8
0
 62
   254
100
AcDbPolyline
 90
        2
 70
     0
 39
0.003
 10
0.066508
 20
0.557717
 40
0.003
 41
0.003
 10
0.063031
 20
1.31126
 40
0.003
 41
0.003
  0
LWPOLYLINE
  5
37E
100
AcDbEntity
  8
0
 62
   254
100
AcDbPolyline
 90
        2
 70
     0
 39
0.003
 10
0.063031
 20
1.31126
 40
0.003
 41
0.003
 10
0.06024
 20
1.322331
 40
0.003
 41
0.003
  0
LWPOLYLINE
  5
37F
100
AcDbEntity
  8
0
 62
   254
100
AcDbPolyline
 90
        2
 70
     0
 39
0.003
 10
0.06024
 20
1.322331
 40
0.003
 41
0.003
 10
0.063717
 20
0.568787
 40
0.003
 41
0.003
  0
LWPOLYLINE
  5
380
100
AcDbEntity
  8
0
 62
   254
100
AcDbPolyline
 90
        2
 70
     0
 39
0.003
 10
0.063717
 20
0.568787
 40
0.003
 41
0.003
 10
0.066508
 20
0.557717
 40
0.003
 41
0.003
  0
LWPOLYLINE
  5
381
100
AcDbEntity
  8
0
 62
     0
100
AcDbPolyline
 90
        2
 70
     0
 39
0.003
 10
0.643496
 20
0.075075
 40
0.003
 41
0.003
 10
0.64002
 20
0.828618
 40
0.003
 41
0.003
  0
LWPOLYLINE
  5
382
100
AcDbEntity
  8
0
 62
     0
100
AcDbPolyline
 90
        2
 70
     0
 39
0.003
 10
0.64002
 20
0.828618
 40
0.003
 41
0.003
 10
0.63724
 20
0.846224
 40
0.003
 41
0.003
  0
LWPOLYLINE
  5
383
100
AcDbEntity
  8
0
 62
     0
100
AcDbPolyline
 90
        2
 70
     0
 39
0.003
 10
0.63724
 20
0.846224
 40
0.003
 41
0.003
 10
0.633984
 20
0.862728
 40
0.003
 41
0.003
  0
LWPOLYLINE
  5
384
100
AcDbEntity
  8
0
 62
     0
100
AcDbPolyline
 90
        2
 70
     0
 39
0.003
 10
0.633984
 20
0.862728
 40
0.003
 41
0.003
 10
0.630236
 20
0.878161
 40
0.003
 41
0.003
  0
LWPOLYLINE
  5
385
100
AcDbEntity
  8
0
 62
     0
100
AcDbPolyline
 90
        2
 70
     0
 39
0.003
 10
0.630236
 20
0.878161
 40
0.003
 41
0.003
 10
0.625996
 20
0.892591
 40
0.003
 41
0.003
  0
LWPOLYLINE
  5
386
100
AcDbEntity
  8
0
 62
     0
100
AcDbPolyline
 90
        2
 70
     0
 39
0.003
 10
0.625996
 20
0.892591
 40
0.003
 41
0.003
 10
0.621256
 20
0.906043
 40
0.003
 41
0.003
  0
LWPOLYLINE
  5
387
100
AcDbEntity
  8
0
 62
     0
100
AcDbPolyline
 90
        2
 70
     0
 39
0.003
 10
0.621256
 20
0.906043
 40
0.003
 41
0.003
 10
0.616024
 20
0.918583
 40
0.003
 41
0.003
  0
LWPOLYLINE
  5
388
100
AcDbEntity
  8
0
 62
     0
100
AcDbPolyline
 90
        2
 70
     0
 39
0.003
 10
0.616024
 20
0.918583
 40
0.003
 41
0.003
 10
0.610283
 20
0.930248
 40
0.003
 41
0.003
  0
LWPOLYLINE
  5
389
100
AcDbEntity
  8
0
 62
     0
100
AcDbPolyline
 90
        2
 70
     0
 39
0.003
 10
0.610283
 20
0.930248
 40
0.003
 41
0.003
 10
0.604043
 20
0.941094
 40
0.003
 41
0.003
  0
LWPOLYLINE
  5
38A
100
AcDbEntity
  8
0
 62
     0
100
AcDbPolyline
 90
        2
 70
     0
 39
0.003
 10
0.604043
 20
0.941094
 40
0.003
 41
0.003
 10
0.597283
 20
0.951157
 40
0.003
 41
0.003
  0
LWPOLYLINE
  5
38B
100
AcDbEntity
  8
0
 62
     0
100
AcDbPolyline
 90
        2
 70
     0
 39
0.003
 10
0.597283
 20
0.951157
 40
0.003
 41
0.003
 10
0.590016
 20
0.960496
 40
0.003
 41
0.003
  0
LWPOLYLINE
  5
38C
100
AcDbEntity
  8
0
 62
     0
100
AcDbPolyline
 90
        2
 70
     0
 39
0.003
 10
0.590016
 20
0.960496
 40
0.003
 41
0.003
 10
0.582224
 20
0.969154
 40
0.003
 41
0.003
  0
LWPOLYLINE
  5
38D
100
AcDbEntity
  8
0
 62
     0
100
AcDbPolyline
 90
        2
 70
     0
 39
0.003
 10
0.582224
 20
0.969154
 40
0.003
 41
0.003
 10
0.573921
 20
0.977185
 40
0.003
 41
0.003
  0
LWPOLYLINE
  5
38E
100
AcDbEntity
  8
0
 62
     0
100
AcDbPolyline
 90
        2
 70
     0
 39
0.003
 10
0.573921
 20
0.977185
 40
0.003
 41
0.003
 10
0.565083
 20
0.984622
 40
0.003
 41
0.003
  0
LWPOLYLINE
  5
38F
100
AcDbEntity
  8
0
 62
     0
100
AcDbPolyline
 90
        2
 70
     0
 39
0.003
 10
0.565083
 20
0.984622
 40
0.003
 41
0.003
 10
0.55572
 20
0.991531
 40
0.003
 41
0.003
  0
LWPOLYLINE
  5
390
100
AcDbEntity
  8
0
 62
     0
100
AcDbPolyline
 90
        2
 70
     0
 39
0.003
 10
0.55572
 20
0.991531
 40
0.003
 41
0.003
 10
0.545827
 20
0.997949
 40
0.003
 41
0.003
  0
LWPOLYLINE
  5
391
100
AcDbEntity
  8
0
 62
     0
100
AcDbPolyline
 90
        2
 70
     0
 39
0.003
 10
0.545827
 20
0.997949
 40
0.003
 41
0.003
 10
0.535398
 20
1.003929
 40
0.003
 41
0.003
  0
LWPOLYLINE
  5
392
100
AcDbEntity
  8
0
 62
     0
100
AcDbPolyline
 90
        2
 70
     0
 39
0.003
 10
0.535398
 20
1.003929
 40
0.003
 41
0.003
 10
0.524421
 20
1.009508
 40
0.003
 41
0.003
  0
LWPOLYLINE
  5
393
100
AcDbEntity
  8
0
 62
     0
100
AcDbPolyline
 90
        2
 70
     0
 39
0.003
 10
0.524421
 20
1.009508
 40
0.003
 41
0.003
 10
0.512906
 20
1.014748
 40
0.003
 41
0.003
  0
LWPOLYLINE
  5
394
100
AcDbEntity
  8
0
 62
     0
100
AcDbPolyline
 90
        2
 70
     0
 39
0.003
 10
0.512906
 20
1.014748
 40
0.003
 41
0.003
 10
0.500839
 20
1.019689
 40
0.003
 41
0.003
  0
LWPOLYLINE
  5
395
100
AcDbEntity
  8
0
 62
     0
100
AcDbPolyline
 90
        2
 70
     0
 39
0.003
 10
0.500839
 20
1.019689
 40
0.003
 41
0.003
 10
0.488228
 20
1.024386
 40
0.003
 41
0.003
  0
LWPOLYLINE
  5
396
100
AcDbEntity
  8
0
 62
     0
100
AcDbPolyline
 90
        2
 70
     0
 39
0.003
 10
0.488228
 20
1.024386
 40
0.003
 41
0.003
 10
0.475059
 20
1.028874
 40
0.003
 41
0.003
  0
LWPOLYLINE
  5
397
100
AcDbEntity
  8
0
 62
     0
100
AcDbPolyline
 90
        2
 70
     0
 39
0.003
 10
0.475059
 20
1.028874
 40
0.003
 41
0.003
 10
0.461335
 20
1.033217
 40
0.003
 41
0.003
  0
LWPOLYLINE
  5
398
100
AcDbEntity
  8
0
 62
     0
100
AcDbPolyline
 90
        2
 70
     0
 39
0.003
 10
0.461335
 20
1.033217
 40
0.003
 41
0.003
 10
0.447047
 20
1.037449
 40
0.003
 41
0.003
  0
LWPOLYLINE
  5
399
100
AcDbEntity
  8
0
 62
     0
100
AcDbPolyline
 90
        2
 70
     0
 39
0.003
 10
0.447047
 20
1.037449
 40
0.003
 41
0.003
 10
0.432201
 20
1.04163
 40
0.003
 41
0.003
  0
LWPOLYLINE
  5
39A
100
AcDbEntity
  8
0
 62
     0
100
AcDbPolyline
 90
        2
 70
     0
 39
0.003
 10
0.432201
 20
1.04163
 40
0.003
 41
0.003
 10
0.416776
 20
1.045791
 40
0.003
 41
0.003
  0
LWPOLYLINE
  5
39B
100
AcDbEntity
  8
0
 62
     0
100
AcDbPolyline
 90
        2
 70
     0
 39
0.003
 10
0.416776
 20
1.045791
 40
0.003
 41
0.003
 10
0.400783
 20
1.05
 40
0.003
 41
0.003
  0
LWPOLYLINE
  5
39C
100
AcDbEntity
  8
0
 62
     0
100
AcDbPolyline
 90
        2
 70
     0
 39
0.003
 10
0.400783
 20
1.05
 40
0.003
 41
0.003
 10
0.384209
 20
1.054287
 40
0.003
 41
0.003
  0
LWPOLYLINE
  5
39D
100
AcDbEntity
  8
0
 62
     0
100
AcDbPolyline
 90
        2
 70
     0
 39
0.003
 10
0.384209
 20
1.054287
 40
0.003
 41
0.003
 10
0.367063
 20
1.05872
 40
0.003
 41
0.003
  0
LWPOLYLINE
  5
39E
100
AcDbEntity
  8
0
 62
     0
100
AcDbPolyline
 90
        2
 70
     0
 39
0.003
 10
0.367063
 20
1.05872
 40
0.003
 41
0.003
 10
0.349327
 20
1.063327
 40
0.003
 41
0.003
  0
LWPOLYLINE
  5
39F
100
AcDbEntity
  8
0
 62
     0
100
AcDbPolyline
 90
        2
 70
     0
 39
0.003
 10
0.349327
 20
1.063327
 40
0.003
 41
0.003
 10
0.331008
 20
1.068169
 40
0.003
 41
0.003
  0
LWPOLYLINE
  5
3A0
100
AcDbEntity
  8
0
 62
     0
100
AcDbPolyline
 90
        2
 70
     0
 39
0.003
 10
0.331008
 20
1.068169
 40
0.003
 41
0.003
 10
0.312094
 20
1.073283
 40
0.003
 41
0.003
  0
LWPOLYLINE
  5
3A1
100
AcDbEntity
  8
0
 62
     0
100
AcDbPolyline
 90
        2
 70
     0
 39
0.003
 10
0.312094
 20
1.073283
 40
0.003
 41
0.003
 10
0.292594
 20
1.078732
 40
0.003
 41
0.003
  0
LWPOLYLINE
  5
3A2
100
AcDbEntity
  8
0
 62
     0
100
AcDbPolyline
 90
        2
 70
     0
 39
0.003
 10
0.292594
 20
1.078732
 40
0.003
 41
0.003
 10
0.273421
 20
1.084358
 40
0.003
 41
0.003
  0
LWPOLYLINE
  5
3A3
100
AcDbEntity
  8
0
 62
     0
100
AcDbPolyline
 90
        2
 70
     0
 39
0.003
 10
0.273421
 20
1.084358
 40
0.003
 41
0.003
 10
0.255508
 20
1.090028
 40
0.003
 41
0.003
  0
LWPOLYLINE
  5
3A4
100
AcDbEntity
  8
0
 62
     0
100
AcDbPolyline
 90
        2
 70
     0
 39
0.003
 10
0.255508
 20
1.090028
 40
0.003
 41
0.003
 10
0.238787
 20
1.095732
 40
0.003
 41
0.003
  0
LWPOLYLINE
  5
3A5
100
AcDbEntity
  8
0
 62
     0
100
AcDbPolyline
 90
        2
 70
     0
 39
0.003
 10
0.238787
 20
1.095732
 40
0.003
 41
0.003
 10
0.223224
 20
1.101496
 40
0.003
 41
0.003
  0
LWPOLYLINE
  5
3A6
100
AcDbEntity
  8
0
 62
     0
100
AcDbPolyline
 90
        2
 70
     0
 39
0.003
 10
0.223224
 20
1.101496
 40
0.003
 41
0.003
 10
0.20876
 20
1.107315
 40
0.003
 41
0.003
  0
LWPOLYLINE
  5
3A7
100
AcDbEntity
  8
0
 62
     0
100
AcDbPolyline
 90
        2
 70
     0
 39
0.003
 10
0.20876
 20
1.107315
 40
0.003
 41
0.003
 10
0.195358
 20
1.113209
 40
0.003
 41
0.003
  0
LWPOLYLINE
  5
3A8
100
AcDbEntity
  8
0
 62
     0
100
AcDbPolyline
 90
        2
 70
     0
 39
0.003
 10
0.195358
 20
1.113209
 40
0.003
 41
0.003
 10
0.182961
 20
1.119177
 40
0.003
 41
0.003
  0
LWPOLYLINE
  5
3A9
100
AcDbEntity
  8
0
 62
     0
100
AcDbPolyline
 90
        2
 70
     0
 39
0.003
 10
0.182961
 20
1.119177
 40
0.003
 41
0.003
 10
0.171528
 20
1.125244
 40
0.003
 41
0.003
  0
LWPOLYLINE
  5
3AA
100
AcDbEntity
  8
0
 62
     0
100
AcDbPolyline
 90
        2
 70
     0
 39
0.003
 10
0.171528
 20
1.125244
 40
0.003
 41
0.003
 10
0.161
 20
1.131398
 40
0.003
 41
0.003
  0
LWPOLYLINE
  5
3AB
100
AcDbEntity
  8
0
 62
     0
100
AcDbPolyline
 90
        2
 70
     0
 39
0.003
 10
0.161
 20
1.131398
 40
0.003
 41
0.003
 10
0.151339
 20
1.137669
 40
0.003
 41
0.003
  0
LWPOLYLINE
  5
3AC
100
AcDbEntity
  8
0
 62
     0
100
AcDbPolyline
 90
        2
 70
     0
 39
0.003
 10
0.151339
 20
1.137669
 40
0.003
 41
0.003
 10
0.142488
 20
1.144055
 40
0.003
 41
0.003
  0
LWPOLYLINE
  5
3AD
100
AcDbEntity
  8
0
 62
     0
100
AcDbPolyline
 90
        2
 70
     0
 39
0.003
 10
0.142488
 20
1.144055
 40
0.003
 41
0.003
 10
0.134417
 20
1.150575
 40
0.003
 41
0.003
  0
LWPOLYLINE
  5
3AE
100
AcDbEntity
  8
0
 62
     0
100
AcDbPolyline
 90
        2
 70
     0
 39
0.003
 10
0.134417
 20
1.150575
 40
0.003
 41
0.003
 10
0.127059
 20
1.157224
 40
0.003
 41
0.003
  0
LWPOLYLINE
  5
3AF
100
AcDbEntity
  8
0
 62
     0
100
AcDbPolyline
 90
        2
 70
     0
 39
0.003
 10
0.127059
 20
1.157224
 40
0.003
 41
0.003
 10
0.120374
 20
1.164024
 40
0.003
 41
0.003
  0
LWPOLYLINE
  5
3B0
100
AcDbEntity
  8
0
 62
     0
100
AcDbPolyline
 90
        2
 70
     0
 39
0.003
 10
0.120374
 20
1.164024
 40
0.003
 41
0.003
 10
0.114315
 20
1.17098
 40
0.003
 41
0.003
  0
LWPOLYLINE
  5
3B1
100
AcDbEntity
  8
0
 62
     0
100
AcDbPolyline
 90
        2
 70
     0
 39
0.003
 10
0.114315
 20
1.17098
 40
0.003
 41
0.003
 10
0.108835
 20
1.178106
 40
0.003
 41
0.003
  0
LWPOLYLINE
  5
3B2
100
AcDbEntity
  8
0
 62
     0
100
AcDbPolyline
 90
        2
 70
     0
 39
0.003
 10
0.108835
 20
1.178106
 40
0.003
 41
0.003
 10
0.103874
 20
1.185398
 40
0.003
 41
0.003
  0
LWPOLYLINE
  5
3B3
100
AcDbEntity
  8
0
 62
     0
100
AcDbPolyline
 90
        2
 70
     0
 39
0.003
 10
0.103874
 20
1.185398
 40
0.003
 41
0.003
 10
0.099398
 20
1.192878
 40
0.003
 41
0.003
  0
LWPOLYLINE
  5
3B4
100
AcDbEntity
  8
0
 62
     0
100
AcDbPolyline
 90
        2
 70
     0
 39
0.003
 10
0.099398
 20
1.192878
 40
0.003
 41
0.003
 10
0.09535
 20
1.200551
 40
0.003
 41
0.003
  0
LWPOLYLINE
  5
3B5
100
AcDbEntity
  8
0
 62
     0
100
AcDbPolyline
 90
        2
 70
     0
 39
0.003
 10
0.09535
 20
1.200551
 40
0.003
 41
0.003
 10
0.091693
 20
1.208433
 40
0.003
 41
0.003
  0
LWPOLYLINE
  5
3B6
100
AcDbEntity
  8
0
 62
     0
100
AcDbPolyline
 90
        2
 70
     0
 39
0.003
 10
0.091693
 20
1.208433
 40
0.003
 41
0.003
 10
0.088366
 20
1.216524
 40
0.003
 41
0.003
  0
LWPOLYLINE
  5
3B7
100
AcDbEntity
  8
0
 62
     0
100
AcDbPolyline
 90
        2
 70
     0
 39
0.003
 10
0.088366
 20
1.216524
 40
0.003
 41
0.003
 10
0.085327
 20
1.224839
 40
0.003
 41
0.003
  0
LWPOLYLINE
  5
3B8
100
AcDbEntity
  8
0
 62
     0
100
AcDbPolyline
 90
        2
 70
     0
 39
0.003
 10
0.085327
 20
1.224839
 40
0.003
 41
0.003
 10
0.082531
 20
1.233382
 40
0.003
 41
0.003
  0
LWPOLYLINE
  5
3B9
100
AcDbEntity
  8
0
 62
     0
100
AcDbPolyline
 90
        2
 70
     0
 39
0.003
 10
0.082531
 20
1.233382
 40
0.003
 41
0.003
 10
0.079929
 20
1.242173
 40
0.003
 41
0.003
  0
LWPOLYLINE
  5
3BA
100
AcDbEntity
  8
0
 62
     0
100
AcDbPolyline
 90
        2
 70
     0
 39
0.003
 10
0.079929
 20
1.242173
 40
0.003
 41
0.003
 10
0.077465
 20
1.251209
 40
0.003
 41
0.003
  0
LWPOLYLINE
  5
3BB
100
AcDbEntity
  8
0
 62
     0
100
AcDbPolyline
 90
        2
 70
     0
 39
0.003
 10
0.077465
 20
1.251209
 40
0.003
 41
0.003
 10
0.075102
 20
1.260508
 40
0.003
 41
0.003
  0
LWPOLYLINE
  5
3BC
100
AcDbEntity
  8
0
 62
     0
100
AcDbPolyline
 90
        2
 70
     0
 39
0.003
 10
0.075102
 20
1.260508
 40
0.003
 41
0.003
 10
0.07278
 20
1.270079
 40
0.003
 41
0.003
  0
LWPOLYLINE
  5
3BD
100
AcDbEntity
  8
0
 62
     0
100
AcDbPolyline
 90
        2
 70
     0
 39
0.003
 10
0.07278
 20
1.270079
 40
0.003
 41
0.003
 10
0.070469
 20
1.279933
 40
0.003
 41
0.003
  0
LWPOLYLINE
  5
3BE
100
AcDbEntity
  8
0
 62
     0
100
AcDbPolyline
 90
        2
 70
     0
 39
0.003
 10
0.070469
 20
1.279933
 40
0.003
 41
0.003
 10
0.068098
 20
1.290071
 40
0.003
 41
0.003
  0
LWPOLYLINE
  5
3BF
100
AcDbEntity
  8
0
 62
     0
100
AcDbPolyline
 90
        2
 70
     0
 39
0.003
 10
0.068098
 20
1.290071
 40
0.003
 41
0.003
 10
0.065638
 20
1.300512
 40
0.003
 41
0.003
  0
LWPOLYLINE
  5
3C0
100
AcDbEntity
  8
0
 62
     0
100
AcDbPolyline
 90
        2
 70
     0
 39
0.003
 10
0.065638
 20
1.300512
 40
0.003
 41
0.003
 10
0.063031
 20
1.31126
 40
0.003
 41
0.003
  0
LWPOLYLINE
  5
3C1
100
AcDbEntity
  8
0
 62
     0
100
AcDbPolyline
 90
        2
 70
     0
 39
0.003
 10
0.063031
 20
1.31126
 40
0.003
 41
0.003
 10
0.06024
 20
1.322331
 40
0.003
 41
0.003
  0
LWPOLYLINE
  5
3C2
100
AcDbEntity
  8
0
 62
     0
100
AcDbPolyline
 90
        2
 70
     0
 39
0.003
 10
0.06024
 20
1.322331
 40
0.003
 41
0.003
 10
0.063717
 20
0.568787
 40
0.003
 41
0.003
  0
LWPOLYLINE
  5
3C3
100
AcDbEntity
  8
0
 62
     0
100
AcDbPolyline
 90
        2
 70
     0
 39
0.003
 10
0.063717
 20
0.568787
 40
0.003
 41
0.003
 10
0.066508
 20
0.557717
 40
0.003
 41
0.003
  0
LWPOLYLINE
  5
3C4
100
AcDbEntity
  8
0
 62
     0
100
AcDbPolyline
 90
        2
 70
     0
 39
0.003
 10
0.066508
 20
0.557717
 40
0.003
 41
0.003
 10
0.069114
 20
0.546969
 40
0.003
 41
0.003
  0
LWPOLYLINE
  5
3C5
100
AcDbEntity
  8
0
 62
     0
100
AcDbPolyline
 90
        2
 70
     0
 39
0.003
 10
0.069114
 20
0.546969
 40
0.003
 41
0.003
 10
0.071575
 20
0.536528
 40
0.003
 41
0.003
  0
LWPOLYLINE
  5
3C6
100
AcDbEntity
  8
0
 62
     0
100
AcDbPolyline
 90
        2
 70
     0
 39
0.003
 10
0.071575
 20
0.536528
 40
0.003
 41
0.003
 10
0.073945
 20
0.52639
 40
0.003
 41
0.003
  0
LWPOLYLINE
  5
3C7
100
AcDbEntity
  8
0
 62
     0
100
AcDbPolyline
 90
        2
 70
     0
 39
0.003
 10
0.073945
 20
0.52639
 40
0.003
 41
0.003
 10
0.076256
 20
0.516535
 40
0.003
 41
0.003
  0
LWPOLYLINE
  5
3C8
100
AcDbEntity
  8
0
 62
     0
100
AcDbPolyline
 90
        2
 70
     0
 39
0.003
 10
0.076256
 20
0.516535
 40
0.003
 41
0.003
 10
0.078579
 20
0.506965
 40
0.003
 41
0.003
  0
LWPOLYLINE
  5
3C9
100
AcDbEntity
  8
0
 62
     0
100
AcDbPolyline
 90
        2
 70
     0
 39
0.003
 10
0.078579
 20
0.506965
 40
0.003
 41
0.003
 10
0.080941
 20
0.497665
 40
0.003
 41
0.003
  0
LWPOLYLINE
  5
3CA
100
AcDbEntity
  8
0
 62
     0
100
AcDbPolyline
 90
        2
 70
     0
 39
0.003
 10
0.080941
 20
0.497665
 40
0.003
 41
0.003
 10
0.083406
 20
0.48863
 40
0.003
 41
0.003
  0
LWPOLYLINE
  5
3CB
100
AcDbEntity
  8
0
 62
     0
100
AcDbPolyline
 90
        2
 70
     0
 39
0.003
 10
0.083406
 20
0.48863
 40
0.003
 41
0.003
 10
0.086008
 20
0.479839
 40
0.003
 41
0.003
  0
LWPOLYLINE
  5
3CC
100
AcDbEntity
  8
0
 62
     0
100
AcDbPolyline
 90
        2
 70
     0
 39
0.003
 10
0.086008
 20
0.479839
 40
0.003
 41
0.003
 10
0.088803
 20
0.471295
 40
0.003
 41
0.003
  0
LWPOLYLINE
  5
3CD
100
AcDbEntity
  8
0
 62
     0
100
AcDbPolyline
 90
        2
 70
     0
 39
0.003
 10
0.088803
 20
0.471295
 40
0.003
 41
0.003
 10
0.091843
 20
0.46298
 40
0.003
 41
0.003
  0
LWPOLYLINE
  5
3CE
100
AcDbEntity
  8
0
 62
     0
100
AcDbPolyline
 90
        2
 70
     0
 39
0.003
 10
0.091843
 20
0.46298
 40
0.003
 41
0.003
 10
0.095169
 20
0.45489
 40
0.003
 41
0.003
  0
LWPOLYLINE
  5
3CF
100
AcDbEntity
  8
0
 62
     0
100
AcDbPolyline
 90
        2
 70
     0
 39
0.003
 10
0.095169
 20
0.45489
 40
0.003
 41
0.003
 10
0.098827
 20
0.447008
 40
0.003
 41
0.003
  0
LWPOLYLINE
  5
3D0
100
AcDbEntity
  8
0
 62
     0
100
AcDbPolyline
 90
        2
 70
     0
 39
0.003
 10
0.098827
 20
0.447008
 40
0.003
 41
0.003
 10
0.102874
 20
0.439335
 40
0.003
 41
0.003
  0
LWPOLYLINE
  5
3D1
100
AcDbEntity
  8
0
 62
     0
100
AcDbPolyline
 90
        2
 70
     0
 39
0.003
 10
0.102874
 20
0.439335
 40
0.003
 41
0.003
 10
0.10735
 20
0.431854
 40
0.003
 41
0.003
  0
LWPOLYLINE
  5
3D2
100
AcDbEntity
  8
0
 62
     0
100
AcDbPolyline
 90
        2
 70
     0
 39
0.003
 10
0.10735
 20
0.431854
 40
0.003
 41
0.003
 10
0.112311
 20
0.424563
 40
0.003
 41
0.003
  0
LWPOLYLINE
  5
3D3
100
AcDbEntity
  8
0
 62
     0
100
AcDbPolyline
 90
        2
 70
     0
 39
0.003
 10
0.112311
 20
0.424563
 40
0.003
 41
0.003
 10
0.117791
 20
0.417437
 40
0.003
 41
0.003
  0
LWPOLYLINE
  5
3D4
100
AcDbEntity
  8
0
 62
     0
100
AcDbPolyline
 90
        2
 70
     0
 39
0.003
 10
0.117791
 20
0.417437
 40
0.003
 41
0.003
 10
0.12385
 20
0.41048
 40
0.003
 41
0.003
  0
LWPOLYLINE
  5
3D5
100
AcDbEntity
  8
0
 62
     0
100
AcDbPolyline
 90
        2
 70
     0
 39
0.003
 10
0.12385
 20
0.41048
 40
0.003
 41
0.003
 10
0.130535
 20
0.403681
 40
0.003
 41
0.003
  0
LWPOLYLINE
  5
3D6
100
AcDbEntity
  8
0
 62
     0
100
AcDbPolyline
 90
        2
 70
     0
 39
0.003
 10
0.130535
 20
0.403681
 40
0.003
 41
0.003
 10
0.137894
 20
0.397031
 40
0.003
 41
0.003
  0
LWPOLYLINE
  5
3D7
100
AcDbEntity
  8
0
 62
     0
100
AcDbPolyline
 90
        2
 70
     0
 39
0.003
 10
0.137894
 20
0.397031
 40
0.003
 41
0.003
 10
0.145965
 20
0.390512
 40
0.003
 41
0.003
  0
LWPOLYLINE
  5
3D8
100
AcDbEntity
  8
0
 62
     0
100
AcDbPolyline
 90
        2
 70
     0
 39
0.003
 10
0.145965
 20
0.390512
 40
0.003
 41
0.003
 10
0.154815
 20
0.384126
 40
0.003
 41
0.003
  0
LWPOLYLINE
  5
3D9
100
AcDbEntity
  8
0
 62
     0
100
AcDbPolyline
 90
        2
 70
     0
 39
0.003
 10
0.154815
 20
0.384126
 40
0.003
 41
0.003
 10
0.164476
 20
0.377854
 40
0.003
 41
0.003
  0
LWPOLYLINE
  5
3DA
100
AcDbEntity
  8
0
 62
     0
100
AcDbPolyline
 90
        2
 70
     0
 39
0.003
 10
0.164476
 20
0.377854
 40
0.003
 41
0.003
 10
0.175004
 20
0.371701
 40
0.003
 41
0.003
  0
LWPOLYLINE
  5
3DB
100
AcDbEntity
  8
0
 62
     0
100
AcDbPolyline
 90
        2
 70
     0
 39
0.003
 10
0.175004
 20
0.371701
 40
0.003
 41
0.003
 10
0.186437
 20
0.365634
 40
0.003
 41
0.003
  0
LWPOLYLINE
  5
3DC
100
AcDbEntity
  8
0
 62
     0
100
AcDbPolyline
 90
        2
 70
     0
 39
0.003
 10
0.186437
 20
0.365634
 40
0.003
 41
0.003
 10
0.198835
 20
0.359665
 40
0.003
 41
0.003
  0
LWPOLYLINE
  5
3DD
100
AcDbEntity
  8
0
 62
     0
100
AcDbPolyline
 90
        2
 70
     0
 39
0.003
 10
0.198835
 20
0.359665
 40
0.003
 41
0.003
 10
0.212236
 20
0.353772
 40
0.003
 41
0.003
  0
LWPOLYLINE
  5
3DE
100
AcDbEntity
  8
0
 62
     0
100
AcDbPolyline
 90
        2
 70
     0
 39
0.003
 10
0.212236
 20
0.353772
 40
0.003
 41
0.003
 10
0.226701
 20
0.347953
 40
0.003
 41
0.003
  0
LWPOLYLINE
  5
3DF
100
AcDbEntity
  8
0
 62
     0
100
AcDbPolyline
 90
        2
 70
     0
 39
0.003
 10
0.226701
 20
0.347953
 40
0.003
 41
0.003
 10
0.242264
 20
0.342189
 40
0.003
 41
0.003
  0
LWPOLYLINE
  5
3E0
100
AcDbEntity
  8
0
 62
     0
100
AcDbPolyline
 90
        2
 70
     0
 39
0.003
 10
0.242264
 20
0.342189
 40
0.003
 41
0.003
 10
0.258984
 20
0.336484
 40
0.003
 41
0.003
  0
LWPOLYLINE
  5
3E1
100
AcDbEntity
  8
0
 62
     0
100
AcDbPolyline
 90
        2
 70
     0
 39
0.003
 10
0.258984
 20
0.336484
 40
0.003
 41
0.003
 10
0.276898
 20
0.330815
 40
0.003
 41
0.003
  0
LWPOLYLINE
  5
3E2
100
AcDbEntity
  8
0
 62
     0
100
AcDbPolyline
 90
        2
 70
     0
 39
0.003
 10
0.276898
 20
0.330815
 40
0.003
 41
0.003
 10
0.296071
 20
0.325189
 40
0.003
 41
0.003
  0
LWPOLYLINE
  5
3E3
100
AcDbEntity
  8
0
 62
     0
100
AcDbPolyline
 90
        2
 70
     0
 39
0.003
 10
0.296071
 20
0.325189
 40
0.003
 41
0.003
 10
0.315571
 20
0.31974
 40
0.003
 41
0.003
  0
LWPOLYLINE
  5
3E4
100
AcDbEntity
  8
0
 62
     0
100
AcDbPolyline
 90
        2
 70
     0
 39
0.003
 10
0.315571
 20
0.31974
 40
0.003
 41
0.003
 10
0.334484
 20
0.314626
 40
0.003
 41
0.003
  0
LWPOLYLINE
  5
3E5
100
AcDbEntity
  8
0
 62
     0
100
AcDbPolyline
 90
        2
 70
     0
 39
0.003
 10
0.334484
 20
0.314626
 40
0.003
 41
0.003
 10
0.352803
 20
0.309783
 40
0.003
 41
0.003
  0
LWPOLYLINE
  5
3E6
100
AcDbEntity
  8
0
 62
     0
100
AcDbPolyline
 90
        2
 70
     0
 39
0.003
 10
0.352803
 20
0.309783
 40
0.003
 41
0.003
 10
0.370539
 20
0.305177
 40
0.003
 41
0.003
  0
LWPOLYLINE
  5
3E7
100
AcDbEntity
  8
0
 62
     0
100
AcDbPolyline
 90
        2
 70
     0
 39
0.003
 10
0.370539
 20
0.305177
 40
0.003
 41
0.003
 10
0.387685
 20
0.300744
 40
0.003
 41
0.003
  0
LWPOLYLINE
  5
3E8
100
AcDbEntity
  8
0
 62
     0
100
AcDbPolyline
 90
        2
 70
     0
 39
0.003
 10
0.387685
 20
0.300744
 40
0.003
 41
0.003
 10
0.40426
 20
0.296457
 40
0.003
 41
0.003
  0
LWPOLYLINE
  5
3E9
100
AcDbEntity
  8
0
 62
     0
100
AcDbPolyline
 90
        2
 70
     0
 39
0.003
 10
0.40426
 20
0.296457
 40
0.003
 41
0.003
 10
0.420252
 20
0.292248
 40
0.003
 41
0.003
  0
LWPOLYLINE
  5
3EA
100
AcDbEntity
  8
0
 62
     0
100
AcDbPolyline
 90
        2
 70
     0
 39
0.003
 10
0.420252
 20
0.292248
 40
0.003
 41
0.003
 10
0.435677
 20
0.288087
 40
0.003
 41
0.003
  0
LWPOLYLINE
  5
3EB
100
AcDbEntity
  8
0
 62
     0
100
AcDbPolyline
 90
        2
 70
     0
 39
0.003
 10
0.435677
 20
0.288087
 40
0.003
 41
0.003
 10
0.450524
 20
0.283906
 40
0.003
 41
0.003
  0
LWPOLYLINE
  5
3EC
100
AcDbEntity
  8
0
 62
     0
100
AcDbPolyline
 90
        2
 70
     0
 39
0.003
 10
0.450524
 20
0.283906
 40
0.003
 41
0.003
 10
0.464811
 20
0.279673
 40
0.003
 41
0.003
  0
LWPOLYLINE
  5
3ED
100
AcDbEntity
  8
0
 62
     0
100
AcDbPolyline
 90
        2
 70
     0
 39
0.003
 10
0.464811
 20
0.279673
 40
0.003
 41
0.003
 10
0.478535
 20
0.275331
 40
0.003
 41
0.003
  0
LWPOLYLINE
  5
3EE
100
AcDbEntity
  8
0
 62
     0
100
AcDbPolyline
 90
        2
 70
     0
 39
0.003
 10
0.478535
 20
0.275331
 40
0.003
 41
0.003
 10
0.491705
 20
0.270843
 40
0.003
 41
0.003
  0
LWPOLYLINE
  5
3EF
100
AcDbEntity
  8
0
 62
     0
100
AcDbPolyline
 90
        2
 70
     0
 39
0.003
 10
0.491705
 20
0.270843
 40
0.003
 41
0.003
 10
0.504315
 20
0.266146
 40
0.003
 41
0.003
  0
LWPOLYLINE
  5
3F0
100
AcDbEntity
  8
0
 62
     0
100
AcDbPolyline
 90
        2
 70
     0
 39
0.003
 10
0.504315
 20
0.266146
 40
0.003
 41
0.003
 10
0.516382
 20
0.261205
 40
0.003
 41
0.003
  0
LWPOLYLINE
  5
3F1
100
AcDbEntity
  8
0
 62
     0
100
AcDbPolyline
 90
        2
 70
     0
 39
0.003
 10
0.516382
 20
0.261205
 40
0.003
 41
0.003
 10
0.527898
 20
0.255965
 40
0.003
 41
0.003
  0
LWPOLYLINE
  5
3F2
100
AcDbEntity
  8
0
 62
     0
100
AcDbPolyline
 90
        2
 70
     0
 39
0.003
 10
0.527898
 20
0.255965
 40
0.003
 41
0.003
 10
0.538874
 20
0.250386
 40
0.003
 41
0.003
  0
LWPOLYLINE
  5
3F3
100
AcDbEntity
  8
0
 62
     0
100
AcDbPolyline
 90
        2
 70
     0
 39
0.003
 10
0.538874
 20
0.250386
 40
0.003
 41
0.003
 10
0.549303
 20
0.244406
 40
0.003
 41
0.003
  0
LWPOLYLINE
  5
3F4
100
AcDbEntity
  8
0
 62
     0
100
AcDbPolyline
 90
        2
 70
     0
 39
0.003
 10
0.549303
 20
0.244406
 40
0.003
 41
0.003
 10
0.559197
 20
0.237988
 40
0.003
 41
0.003
  0
LWPOLYLINE
  5
3F5
100
AcDbEntity
  8
0
 62
     0
100
AcDbPolyline
 90
        2
 70
     0
 39
0.003
 10
0.559197
 20
0.237988
 40
0.003
 41
0.003
 10
0.568559
 20
0.231079
 40
0.003
 41
0.003
  0
LWPOLYLINE
  5
3F6
100
AcDbEntity
  8
0
 62
     0
100
AcDbPolyline
 90
        2
 70
     0
 39
0.003
 10
0.568559
 20
0.231079
 40
0.003
 41
0.003
 10
0.577398
 20
0.223642
 40
0.003
 41
0.003
  0
LWPOLYLINE
  5
3F7
100
AcDbEntity
  8
0
 62
     0
100
AcDbPolyline
 90
        2
 70
     0
 39
0.003
 10
0.577398
 20
0.223642
 40
0.003
 41
0.003
 10
0.585701
 20
0.21561
 40
0.003
 41
0.003
  0
LWPOLYLINE
  5
3F8
100
AcDbEntity
  8
0
 62
     0
100
AcDbPolyline
 90
        2
 70
     0
 39
0.003
 10
0.585701
 20
0.21561
 40
0.003
 41
0.003
 10
0.593492
 20
0.206953
 40
0.003
 41
0.003
  0
LWPOLYLINE
  5
3F9
100
AcDbEntity
  8
0
 62
     0
100
AcDbPolyline
 90
        2
 70
     0
 39
0.003
 10
0.593492
 20
0.206953
 40
0.003
 41
0.003
 10
0.60076
 20
0.197614
 40
0.003
 41
0.003
  0
LWPOLYLINE
  5
3FA
100
AcDbEntity
  8
0
 62
     0
100
AcDbPolyline
 90
        2
 70
     0
 39
0.003
 10
0.60076
 20
0.197614
 40
0.003
 41
0.003
 10
0.60752
 20
0.187551
 40
0.003
 41
0.003
  0
LWPOLYLINE
  5
3FB
100
AcDbEntity
  8
0
 62
     0
100
AcDbPolyline
 90
        2
 70
     0
 39
0.003
 10
0.60752
 20
0.187551
 40
0.003
 41
0.003
 10
0.61376
 20
0.176705
 40
0.003
 41
0.003
  0
LWPOLYLINE
  5
3FC
100
AcDbEntity
  8
0
 62
     0
100
AcDbPolyline
 90
        2
 70
     0
 39
0.003
 10
0.61376
 20
0.176705
 40
0.003
 41
0.003
 10
0.6195
 20
0.165039
 40
0.003
 41
0.003
  0
LWPOLYLINE
  5
3FD
100
AcDbEntity
  8
0
 62
     0
100
AcDbPolyline
 90
        2
 70
     0
 39
0.003
 10
0.6195
 20
0.165039
 40
0.003
 41
0.003
 10
0.624732
 20
0.1525
 40
0.003
 41
0.003
  0
LWPOLYLINE
  5
3FE
100
AcDbEntity
  8
0
 62
     0
100
AcDbPolyline
 90
        2
 70
     0
 39
0.003
 10
0.624732
 20
0.1525
 40
0.003
 41
0.003
 10
0.629472
 20
0.139047
 40
0.003
 41
0.003
  0
LWPOLYLINE
  5
3FF
100
AcDbEntity
  8
0
 62
     0
100
AcDbPolyline
 90
        2
 70
     0
 39
0.003
 10
0.629472
 20
0.139047
 40
0.003
 41
0.003
 10
0.633713
 20
0.124618
 40
0.003
 41
0.003
  0
LWPOLYLINE
  5
400
100
AcDbEntity
  8
0
 62
     0
100
AcDbPolyline
 90
        2
 70
     0
 39
0.003
 10
0.633713
 20
0.124618
 40
0.003
 41
0.003
 10
0.637461
 20
0.109185
 40
0.003
 41
0.003
  0
LWPOLYLINE
  5
401
100
AcDbEntity
  8
0
 62
     0
100
AcDbPolyline
 90
        2
 70
     0
 39
0.003
 10
0.637461
 20
0.109185
 40
0.003
 41
0.003
 10
0.640717
 20
0.092681
 40
0.003
 41
0.003
  0
LWPOLYLINE
  5
402
100
AcDbEntity
  8
0
 62
     0
100
AcDbPolyline
 90
        2
 70
     0
 39
0.003
 10
0.640717
 20
0.092681
 40
0.003
 41
0.003
 10
0.643496
 20
0.075075
 40
0.003
 41
0.003
  0
LWPOLYLINE
  5
403
100
AcDbEntity
  8
0
 62
     9
100
AcDbPolyline
 90
        2
 70
     0
 39
0.003
 10
0.063717
 20
0.568787
 40
0.003
 41
0.003
 10
0.06024
 20
1.322331
 40
0.003
 41
0.003
  0
LWPOLYLINE
  5
404
100
AcDbEntity
  8
0
 62
     9
100
AcDbPolyline
 90
        2
 70
     0
 39
0.003
 10
0.06024
 20
1.322331
 40
0.003
 41
0.003
 10
-0.844945
 20
1.322331
 40
0.003
 41
0.003
  0
LWPOLYLINE
  5
405
100
AcDbEntity
  8
0
 62
     9
100
AcDbPolyline
 90
        2
 70
     0
 39
0.003
 10
-0.844945
 20
1.322331
 40
0.003
 41
0.003
 10
-0.841469
 20
0.568787
 40
0.003
 41
0.003
  0
LWPOLYLINE
  5
406
100
AcDbEntity
  8
0
 62
     9
100
AcDbPolyline
 90
        2
 70
     0
 39
0.003
 10
-0.841469
 20
0.568787
 40
0.003
 41
0.003
 10
0.063717
 20
0.568787
 40
0.003
 41
0.003
  0
LWPOLYLINE
  5
407
100
AcDbEntity
  8
0
 62
     0
100
AcDbPolyline
 90
        2
 70
     0
 39
0.003
 10
0.063717
 20
0.568787
 40
0.003
 41
0.003
 10
0.06024
 20
1.322331
 40
0.003
 41
0.003
  0
LWPOLYLINE
  5
408
100
AcDbEntity
  8
0
 62
     0
100
AcDbPolyline
 90
        2
 70
     0
 39
0.003
 10
0.06024
 20
1.322331
 40
0.003
 41
0.003
 10
-0.844945
 20
1.322331
 40
0.003
 41
0.003
  0
LWPOLYLINE
  5
409
100
AcDbEntity
  8
0
 62
     0
100
AcDbPolyline
 90
        2
 70
     0
 39
0.003
 10
-0.844945
 20
1.322331
 40
0.003
 41
0.003
 10
-0.841469
 20
0.568787
 40
0.003
 41
0.003
  0
LWPOLYLINE
  5
40A
100
AcDbEntity
  8
0
 62
     0
100
AcDbPolyline
 90
        2
 70
     0
 39
0.003
 10
-0.841469
 20
0.568787
 40
0.003
 41
0.003
 10
0.063717
 20
0.568787
 40
0.003
 41
0.003
  0
LWPOLYLINE
  5
40B
100
AcDbEntity
  8
0
 62
     9
100
AcDbPolyline
 90
        2
 70
     0
 39
0.003
 10
-0.841469
 20
0.498614
 40
0.003
 41
0.003
 10
-0.844945
 20
1.252157
 40
0.003
 41
0.003
  0
LWPOLYLINE
  5
40C
100
AcDbEntity
  8
0
 62
     9
100
AcDbPolyline
 90
        2
 70
     0
 39
0.003
 10
-0.844945
 20
1.252157
 40
0.003
 41
0.003
 10
-0.86248
 20
1.251665
 40
0.003
 41
0.003
  0
LWPOLYLINE
  5
40D
100
AcDbEntity
  8
0
 62
     9
100
AcDbPolyline
 90
        2
 70
     0
 39
0.003
 10
-0.86248
 20
1.251665
 40
0.003
 41
0.003
 10
-0.859004
 20
0.498122
 40
0.003
 41
0.003
  0
LWPOLYLINE
  5
40E
100
AcDbEntity
  8
0
 62
     9
100
AcDbPolyline
 90
        2
 70
     0
 39
0.003
 10
-0.859004
 20
0.498122
 40
0.003
 41
0.003
 10
-0.841469
 20
0.498614
 40
0.003
 41
0.003
  0
LWPOLYLINE
  5
40F
100
AcDbEntity
  8
0
 62
     9
100
AcDbPolyline
 90
        2
 70
     0
 39
0.003
 10
-0.859004
 20
0.498122
 40
0.003
 41
0.003
 10
-0.86248
 20
1.251665
 40
0.003
 41
0.003
  0
LWPOLYLINE
  5
410
100
AcDbEntity
  8
0
 62
     9
100
AcDbPolyline
 90
        2
 70
     0
 39
0.003
 10
-0.86248
 20
1.251665
 40
0.003
 41
0.003
 10
-0.879071
 20
1.250528
 40
0.003
 41
0.003
  0
LWPOLYLINE
  5
411
100
AcDbEntity
  8
0
 62
     9
100
AcDbPolyline
 90
        2
 70
     0
 39
0.003
 10
-0.879071
 20
1.250528
 40
0.003
 41
0.003
 10
-0.875594
 20
0.496984
 40
0.003
 41
0.003
  0
LWPOLYLINE
  5
412
100
AcDbEntity
  8
0
 62
     9
100
AcDbPolyline
 90
        2
 70
     0
 39
0.003
 10
-0.875594
 20
0.496984
 40
0.003
 41
0.003
 10
-0.859004
 20
0.498122
 40
0.003
 41
0.003
  0
LWPOLYLINE
  5
413
100
AcDbEntity
  8
0
 62
     9
100
AcDbPolyline
 90
        2
 70
     0
 39
0.003
 10
-0.875594
 20
0.496984
 40
0.003
 41
0.003
 10
-0.879071
 20
1.250528
 40
0.003
 41
0.003
  0
LWPOLYLINE
  5
414
100
AcDbEntity
  8
0
 62
     9
100
AcDbPolyline
 90
        2
 70
     0
 39
0.003
 10
-0.879071
 20
1.250528
 40
0.003
 41
0.003
 10
-0.894736
 20
1.248748
 40
0.003
 41
0.003
  0
LWPOLYLINE
  5
415
100
AcDbEntity
  8
0
 62
     9
100
AcDbPolyline
 90
        2
 70
     0
 39
0.003
 10
-0.894736
 20
1.248748
 40
0.003
 41
0.003
 10
-0.89126
 20
0.495205
 40
0.003
 41
0.003
  0
LWPOLYLINE
  5
416
100
AcDbEntity
  8
0
 62
     9
100
AcDbPolyline
 90
        2
 70
     0
 39
0.003
 10
-0.89126
 20
0.495205
 40
0.003
 41
0.003
 10
-0.875594
 20
0.496984
 40
0.003
 41
0.003
  0
LWPOLYLINE
  5
417
100
AcDbEntity
  8
0
 62
     9
100
AcDbPolyline
 90
        2
 70
     0
 39
0.003
 10
-0.89126
 20
0.495205
 40
0.003
 41
0.003
 10
-0.894736
 20
1.248748
 40
0.003
 41
0.003
  0
LWPOLYLINE
  5
418
100
AcDbEntity
  8
0
 62
     9
100
AcDbPolyline
 90
        2
 70
     0
 39
0.003
 10
-0.894736
 20
1.248748
 40
0.003
 41
0.003
 10
-0.909512
 20
1.246346
 40
0.003
 41
0.003
  0
LWPOLYLINE
  5
419
100
AcDbEntity
  8
0
 62
     9
100
AcDbPolyline
 90
        2
 70
     0
 39
0.003
 10
-0.909512
 20
1.246346
 40
0.003
 41
0.003
 10
-0.906035
 20
0.492803
 40
0.003
 41
0.003
  0
LWPOLYLINE
  5
41A
100
AcDbEntity
  8
0
 62
     9
100
AcDbPolyline
 90
        2
 70
     0
 39
0.003
 10
-0.906035
 20
0.492803
 40
0.003
 41
0.003
 10
-0.89126
 20
0.495205
 40
0.003
 41
0.003
  0
LWPOLYLINE
  5
41B
100
AcDbEntity
  8
0
 62
     9
100
AcDbPolyline
 90
        2
 70
     0
 39
0.003
 10
-0.906035
 20
0.492803
 40
0.003
 41
0.003
 10
-0.909512
 20
1.246346
 40
0.003
 41
0.003
  0
LWPOLYLINE
  5
41C
100
AcDbEntity
  8
0
 62
     9
100
AcDbPolyline
 90
        2
 70
     0
 39
0.003
 10
-0.909512
 20
1.246346
 40
0.003
 41
0.003
 10
-0.923409
 20
1.243319
 40
0.003
 41
0.003
  0
LWPOLYLINE
  5
41D
100
AcDbEntity
  8
0
 62
     9
100
AcDbPolyline
 90
        2
 70
     0
 39
0.003
 10
-0.923409
 20
1.243319
 40
0.003
 41
0.003
 10
-0.919933
 20
0.489776
 40
0.003
 41
0.003
  0
LWPOLYLINE
  5
41E
100
AcDbEntity
  8
0
 62
     9
100
AcDbPolyline
 90
        2
 70
     0
 39
0.003
 10
-0.919933
 20
0.489776
 40
0.003
 41
0.003
 10
-0.906035
 20
0.492803
 40
0.003
 41
0.003
  0
LWPOLYLINE
  5
41F
100
AcDbEntity
  8
0
 62
     9
100
AcDbPolyline
 90
        2
 70
     0
 39
0.003
 10
-0.919933
 20
0.489776
 40
0.003
 41
0.003
 10
-0.923409
 20
1.243319
 40
0.003
 41
0.003
  0
LWPOLYLINE
  5
420
100
AcDbEntity
  8
0
 62
     9
100
AcDbPolyline
 90
        2
 70
     0
 39
0.003
 10
-0.923409
 20
1.243319
 40
0.003
 41
0.003
 10
-0.936469
 20
1.239685
 40
0.003
 41
0.003
  0
LWPOLYLINE
  5
421
100
AcDbEntity
  8
0
 62
     9
100
AcDbPolyline
 90
        2
 70
     0
 39
0.003
 10
-0.936469
 20
1.239685
 40
0.003
 41
0.003
 10
-0.932992
 20
0.486142
 40
0.003
 41
0.003
  0
LWPOLYLINE
  5
422
100
AcDbEntity
  8
0
 62
     9
100
AcDbPolyline
 90
        2
 70
     0
 39
0.003
 10
-0.932992
 20
0.486142
 40
0.003
 41
0.003
 10
-0.919933
 20
0.489776
 40
0.003
 41
0.003
  0
LWPOLYLINE
  5
423
100
AcDbEntity
  8
0
 62
   253
100
AcDbPolyline
 90
        2
 70
     0
 39
0.003
 10
-0.932992
 20
0.486142
 40
0.003
 41
0.003
 10
-0.936469
 20
1.239685
 40
0.003
 41
0.003
  0
LWPOLYLINE
  5
424
100
AcDbEntity
  8
0
 62
   253
100
AcDbPolyline
 90
        2
 70
     0
 39
0.003
 10
-0.936469
 20
1.239685
 40
0.003
 41
0.003
 10
-0.948705
 20
1.235449
 40
0.003
 41
0.003
  0
LWPOLYLINE
  5
425
100
AcDbEntity
  8
0
 62
   253
100
AcDbPolyline
 90
        2
 70
     0
 39
0.003
 10
-0.948705
 20
1.235449
 40
0.003
 41
0.003
 10
-0.945228
 20
0.481906
 40
0.003
 41
0.003
  0
LWPOLYLINE
  5
426
100
AcDbEntity
  8
0
 62
   253
100
AcDbPolyline
 90
        2
 70
     0
 39
0.003
 10
-0.945228
 20
0.481906
 40
0.003
 41
0.003
 10
-0.932992
 20
0.486142
 40
0.003
 41
0.003
  0
LWPOLYLINE
  5
427
100
AcDbEntity
  8
0
 62
   253
100
AcDbPolyline
 90
        2
 70
     0
 39
0.003
 10
-0.945228
 20
0.481906
 40
0.003
 41
0.003
 10
-0.948705
 20
1.235449
 40
0.003
 41
0.003
  0
LWPOLYLINE
  5
428
100
AcDbEntity
  8
0
 62
   253
100
AcDbPolyline
 90
        2
 70
     0
 39
0.003
 10
-0.948705
 20
1.235449
 40
0.003
 41
0.003
 10
-0.960161
 20
1.230634
 40
0.003
 41
0.003
  0
LWPOLYLINE
  5
429
100
AcDbEntity
  8
0
 62
   253
100
AcDbPolyline
 90
        2
 70
     0
 39
0.003
 10
-0.960161
 20
1.230634
 40
0.003
 41
0.003
 10
-0.956685
 20
0.477091
 40
0.003
 41
0.003
  0
LWPOLYLINE
  5
42A
100
AcDbEntity
  8
0
 62
   253
100
AcDbPolyline
 90
        2
 70
     0
 39
0.003
 10
-0.956685
 20
0.477091
 40
0.003
 41
0.003
 10
-0.945228
 20
0.481906
 40
0.003
 41
0.003
  0
LWPOLYLINE
  5
42B
100
AcDbEntity
  8
0
 62
   253
100
AcDbPolyline
 90
        2
 70
     0
 39
0.003
 10
-0.956685
 20
0.477091
 40
0.003
 41
0.003
 10
-0.960161
 20
1.230634
 40
0.003
 41
0.003
  0
LWPOLYLINE
  5
42C
100
AcDbEntity
  8
0
 62
   253
100
AcDbPolyline
 90
        2
 70
     0
 39
0.003
 10
-0.960161
 20
1.230634
 40
0.003
 41
0.003
 10
-0.970843
 20
1.225228
 40
0.003
 41
0.003
  0
LWPOLYLINE
  5
42D
100
AcDbEntity
  8
0
 62
   253
100
AcDbPolyline
 90
        2
 70
     0
 39
0.003
 10
-0.970843
 20
1.225228
 40
0.003
 41
0.003
 10
-0.967366
 20
0.471685
 40
0.003
 41
0.003
  0
LWPOLYLINE
  5
42E
100
AcDbEntity
  8
0
 62
   253
100
AcDbPolyline
 90
        2
 70
     0
 39
0.003
 10
-0.967366
 20
0.471685
 40
0.003
 41
0.003
 10
-0.956685
 20
0.477091
 40
0.003
 41
0.003
  0
LWPOLYLINE
  5
42F
100
AcDbEntity
  8
0
 62
   253
100
AcDbPolyline
 90
        2
 70
     0
 39
0.003
 10
-0.967366
 20
0.471685
 40
0.003
 41
0.003
 10
-0.970843
 20
1.225228
 40
0.003
 41
0.003
  0
LWPOLYLINE
  5
430
100
AcDbEntity
  8
0
 62
   253
100
AcDbPolyline
 90
        2
 70
     0
 39
0.003
 10
-0.970843
 20
1.225228
 40
0.003
 41
0.003
 10
-0.980791
 20
1.219264
 40
0.003
 41
0.003
  0
LWPOLYLINE
  5
431
100
AcDbEntity
  8
0
 62
   253
100
AcDbPolyline
 90
        2
 70
     0
 39
0.003
 10
-0.980791
 20
1.219264
 40
0.003
 41
0.003
 10
-0.977315
 20
0.46572
 40
0.003
 41
0.003
  0
LWPOLYLINE
  5
432
100
AcDbEntity
  8
0
 62
   253
100
AcDbPolyline
 90
        2
 70
     0
 39
0.003
 10
-0.977315
 20
0.46572
 40
0.003
 41
0.003
 10
-0.967366
 20
0.471685
 40
0.003
 41
0.003
  0
LWPOLYLINE
  5
433
100
AcDbEntity
  8
0
 62
   253
100
AcDbPolyline
 90
        2
 70
     0
 39
0.003
 10
-0.977315
 20
0.46572
 40
0.003
 41
0.003
 10
-0.980791
 20
1.219264
 40
0.003
 41
0.003
  0
LWPOLYLINE
  5
434
100
AcDbEntity
  8
0
 62
   253
100
AcDbPolyline
 90
        2
 70
     0
 39
0.003
 10
-0.980791
 20
1.219264
 40
0.003
 41
0.003
 10
-0.990024
 20
1.212736
 40
0.003
 41
0.003
  0
LWPOLYLINE
  5
435
100
AcDbEntity
  8
0
 62
   253
100
AcDbPolyline
 90
        2
 70
     0
 39
0.003
 10
-0.990024
 20
1.212736
 40
0.003
 41
0.003
 10
-0.986547
 20
0.459193
 40
0.003
 41
0.003
  0
LWPOLYLINE
  5
436
100
AcDbEntity
  8
0
 62
   253
100
AcDbPolyline
 90
        2
 70
     0
 39
0.003
 10
-0.986547
 20
0.459193
 40
0.003
 41
0.003
 10
-0.977315
 20
0.46572
 40
0.003
 41
0.003
  0
LWPOLYLINE
  5
437
100
AcDbEntity
  8
0
 62
   252
100
AcDbPolyline
 90
        2
 70
     0
 39
0.003
 10
-0.986547
 20
0.459193
 40
0.003
 41
0.003
 10
-0.990024
 20
1.212736
 40
0.003
 41
0.003
  0
LWPOLYLINE
  5
438
100
AcDbEntity
  8
0
 62
   252
100
AcDbPolyline
 90
        2
 70
     0
 39
0.003
 10
-0.990024
 20
1.212736
 40
0.003
 41
0.003
 10
-0.998579
 20
1.205669
 40
0.003
 41
0.003
  0
LWPOLYLINE
  5
439
100
AcDbEntity
  8
0
 62
   252
100
AcDbPolyline
 90
        2
 70
     0
 39
0.003
 10
-0.998579
 20
1.205669
 40
0.003
 41
0.003
 10
-0.995102
 20
0.452126
 40
0.003
 41
0.003
  0
LWPOLYLINE
  5
43A
100
AcDbEntity
  8
0
 62
   252
100
AcDbPolyline
 90
        2
 70
     0
 39
0.003
 10
-0.995102
 20
0.452126
 40
0.003
 41
0.003
 10
-0.986547
 20
0.459193
 40
0.003
 41
0.003
  0
LWPOLYLINE
  5
43B
100
AcDbEntity
  8
0
 62
   252
100
AcDbPolyline
 90
        2
 70
     0
 39
0.003
 10
-0.995102
 20
0.452126
 40
0.003
 41
0.003
 10
-0.998579
 20
1.205669
 40
0.003
 41
0.003
  0
LWPOLYLINE
  5
43C
100
AcDbEntity
  8
0
 62
   252
100
AcDbPolyline
 90
        2
 70
     0
 39
0.003
 10
-0.998579
 20
1.205669
 40
0.003
 41
0.003
 10
-1.006469
 20
1.198059
 40
0.003
 41
0.003
  0
LWPOLYLINE
  5
43D
100
AcDbEntity
  8
0
 62
   252
100
AcDbPolyline
 90
        2
 70
     0
 39
0.003
 10
-1.006469
 20
1.198059
 40
0.003
 41
0.003
 10
-1.002992
 20
0.444516
 40
0.003
 41
0.003
  0
LWPOLYLINE
  5
43E
100
AcDbEntity
  8
0
 62
   252
100
AcDbPolyline
 90
        2
 70
     0
 39
0.003
 10
-1.002992
 20
0.444516
 40
0.003
 41
0.003
 10
-0.995102
 20
0.452126
 40
0.003
 41
0.003
  0
LWPOLYLINE
  5
43F
100
AcDbEntity
  8
0
 62
     8
100
AcDbPolyline
 90
        2
 70
     0
 39
0.003
 10
-1.002992
 20
0.444516
 40
0.003
 41
0.003
 10
-1.006469
 20
1.198059
 40
0.003
 41
0.003
  0
LWPOLYLINE
  5
440
100
AcDbEntity
  8
0
 62
     8
100
AcDbPolyline
 90
        2
 70
     0
 39
0.003
 10
-1.006469
 20
1.198059
 40
0.003
 41
0.003
 10
-1.013728
 20
1.189925
 40
0.003
 41
0.003
  0
LWPOLYLINE
  5
441
100
AcDbEntity
  8
0
 62
     8
100
AcDbPolyline
 90
        2
 70
     0
 39
0.003
 10
-1.013728
 20
1.189925
 40
0.003
 41
0.003
 10
-1.010252
 20
0.436382
 40
0.003
 41
0.003
  0
LWPOLYLINE
  5
442
100
AcDbEntity
  8
0
 62
     8
100
AcDbPolyline
 90
        2
 70
     0
 39
0.003
 10
-1.010252
 20
0.436382
 40
0.003
 41
0.003
 10
-1.002992
 20
0.444516
 40
0.003
 41
0.003
  0
LWPOLYLINE
  5
443
100
AcDbEntity
  8
0
 62
   251
100
AcDbPolyline
 90
        2
 70
     0
 39
0.003
 10
-1.010252
 20
0.436382
 40
0.003
 41
0.003
 10
-1.013728
 20
1.189925
 40
0.003
 41
0.003
  0
LWPOLYLINE
  5
444
100
AcDbEntity
  8
0
 62
   251
100
AcDbPolyline
 90
        2
 70
     0
 39
0.003
 10
-1.013728
 20
1.189925
 40
0.003
 41
0.003
 10
-1.020382
 20
1.181272
 40
0.003
 41
0.003
  0
LWPOLYLINE
  5
445
100
AcDbEntity
  8
0
 62
   251
100
AcDbPolyline
 90
        2
 70
     0
 39
0.003
 10
-1.020382
 20
1.181272
 40
0.003
 41
0.003
 10
-1.016906
 20
0.427728
 40
0.003
 41
0.003
  0
LWPOLYLINE
  5
446
100
AcDbEntity
  8
0
 62
   251
100
AcDbPolyline
 90
        2
 70
     0
 39
0.003
 10
-1.016906
 20
0.427728
 40
0.003
 41
0.003
 10
-1.010252
 20
0.436382
 40
0.003
 41
0.003
  0
LWPOLYLINE
  5
447
100
AcDbEntity
  8
0
 62
   129
100
AcDbPolyline
 90
        2
 70
     0
 39
0.003
 10
-1.016906
 20
0.427728
 40
0.003
 41
0.003
 10
-1.020382
 20
1.181272
 40
0.003
 41
0.003
  0
LWPOLYLINE
  5
448
100
AcDbEntity
  8
0
 62
   129
100
AcDbPolyline
 90
        2
 70
     0
 39
0.003
 10
-1.020382
 20
1.181272
 40
0.003
 41
0.003
 10
-1.026461
 20
1.172118
 40
0.003
 41
0.003
  0
LWPOLYLINE
  5
449
100
AcDbEntity
  8
0
 62
   129
100
AcDbPolyline
 90
        2
 70
     0
 39
0.003
 10
-1.026461
 20
1.172118
 40
0.003
 41
0.003
 10
-1.022984
 20
0.418575
 40
0.003
 41
0.003
  0
LWPOLYLINE
  5
44A
100
AcDbEntity
  8
0
 62
   129
100
AcDbPolyline
 90
        2
 70
     0
 39
0.003
 10
-1.022984
 20
0.418575
 40
0.003
 41
0.003
 10
-1.016906
 20
0.427728
 40
0.003
 41
0.003
  0
LWPOLYLINE
  5
44B
100
AcDbEntity
  8
0
 62
     0
100
AcDbPolyline
 90
        2
 70
     0
 39
0.003
 10
-1.022984
 20
0.418575
 40
0.003
 41
0.003
 10
-1.026461
 20
1.172118
 40
0.003
 41
0.003
  0
LWPOLYLINE
  5
44C
100
AcDbEntity
  8
0
 62
     0
100
AcDbPolyline
 90
        2
 70
     0
 39
0.003
 10
-1.026461
 20
1.172118
 40
0.003
 41
0.003
 10
-1.031976
 20
1.162457
 40
0.003
 41
0.003
  0
LWPOLYLINE
  5
44D
100
AcDbEntity
  8
0
 62
     0
100
AcDbPolyline
 90
        2
 70
     0
 39
0.003
 10
-1.031976
 20
1.162457
 40
0.003
 41
0.003
 10
-1.0285
 20
0.408913
 40
0.003
 41
0.003
  0
LWPOLYLINE
  5
44E
100
AcDbEntity
  8
0
 62
     0
100
AcDbPolyline
 90
        2
 70
     0
 39
0.003
 10
-1.0285
 20
0.408913
 40
0.003
 41
0.003
 10
-1.022984
 20
0.418575
 40
0.003
 41
0.003
  0
LWPOLYLINE
  5
44F
100
AcDbEntity
  8
0
 62
     0
100
AcDbPolyline
 90
        2
 70
     0
 39
0.003
 10
-1.0285
 20
0.408913
 40
0.003
 41
0.003
 10
-1.031976
 20
1.162457
 40
0.003
 41
0.003
  0
LWPOLYLINE
  5
450
100
AcDbEntity
  8
0
 62
     0
100
AcDbPolyline
 90
        2
 70
     0
 39
0.003
 10
-1.031976
 20
1.162457
 40
0.003
 41
0.003
 10
-1.036972
 20
1.152315
 40
0.003
 41
0.003
  0
LWPOLYLINE
  5
451
100
AcDbEntity
  8
0
 62
     0
100
AcDbPolyline
 90
        2
 70
     0
 39
0.003
 10
-1.036972
 20
1.152315
 40
0.003
 41
0.003
 10
-1.033496
 20
0.398772
 40
0.003
 41
0.003
  0
LWPOLYLINE
  5
452
100
AcDbEntity
  8
0
 62
     0
100
AcDbPolyline
 90
        2
 70
     0
 39
0.003
 10
-1.033496
 20
0.398772
 40
0.003
 41
0.003
 10
-1.0285
 20
0.408913
 40
0.003
 41
0.003
  0
LWPOLYLINE
  5
453
100
AcDbEntity
  8
0
 62
     0
100
AcDbPolyline
 90
        2
 70
     0
 39
0.003
 10
-1.033496
 20
0.398772
 40
0.003
 41
0.003
 10
-1.036972
 20
1.152315
 40
0.003
 41
0.003
  0
LWPOLYLINE
  5
454
100
AcDbEntity
  8
0
 62
     0
100
AcDbPolyline
 90
        2
 70
     0
 39
0.003
 10
-1.036972
 20
1.152315
 40
0.003
 41
0.003
 10
-1.041465
 20
1.141693
 40
0.003
 41
0.003
  0
LWPOLYLINE
  5
455
100
AcDbEntity
  8
0
 62
     0
100
AcDbPolyline
 90
        2
 70
     0
 39
0.003
 10
-1.041465
 20
1.141693
 40
0.003
 41
0.003
 10
-1.037988
 20
0.38815
 40
0.003
 41
0.003
  0
LWPOLYLINE
  5
456
100
AcDbEntity
  8
0
 62
     0
100
AcDbPolyline
 90
        2
 70
     0
 39
0.003
 10
-1.037988
 20
0.38815
 40
0.003
 41
0.003
 10
-1.033496
 20
0.398772
 40
0.003
 41
0.003
  0
LWPOLYLINE
  5
457
100
AcDbEntity
  8
0
 62
     0
100
AcDbPolyline
 90
        2
 70
     0
 39
0.003
 10
-1.037988
 20
0.38815
 40
0.003
 41
0.003
 10
-1.041465
 20
1.141693
 40
0.003
 41
0.003
  0
LWPOLYLINE
  5
458
100
AcDbEntity
  8
0
 62
     0
100
AcDbPolyline
 90
        2
 70
     0
 39
0.003
 10
-1.041465
 20
1.141693
 40
0.003
 41
0.003
 10
-1.045488
 20
1.13061
 40
0.003
 41
0.003
  0
LWPOLYLINE
  5
459
100
AcDbEntity
  8
0
 62
     0
100
AcDbPolyline
 90
        2
 70
     0
 39
0.003
 10
-1.045488
 20
1.13061
 40
0.003
 41
0.003
 10
-1.042012
 20
0.377067
 40
0.003
 41
0.003
  0
LWPOLYLINE
  5
45A
100
AcDbEntity
  8
0
 62
     0
100
AcDbPolyline
 90
        2
 70
     0
 39
0.003
 10
-1.042012
 20
0.377067
 40
0.003
 41
0.003
 10
-1.037988
 20
0.38815
 40
0.003
 41
0.003
  0
LWPOLYLINE
  5
45B
100
AcDbEntity
  8
0
 62
     0
100
AcDbPolyline
 90
        2
 70
     0
 39
0.003
 10
-1.042012
 20
0.377067
 40
0.003
 41
0.003
 10
-1.045488
 20
1.13061
 40
0.003
 41
0.003
  0
LWPOLYLINE
  5
45C
100
AcDbEntity
  8
0
 62
     0
100
AcDbPolyline
 90
        2
 70
     0
 39
0.003
 10
-1.045488
 20
1.13061
 40
0.003
 41
0.003
 10
-1.049059
 20
1.119067
 40
0.003
 41
0.003
  0
LWPOLYLINE
  5
45D
100
AcDbEntity
  8
0
 62
     0
100
AcDbPolyline
 90
        2
 70
     0
 39
0.003
 10
-1.049059
 20
1.119067
 40
0.003
 41
0.003
 10
-1.045583
 20
0.365524
 40
0.003
 41
0.003
  0
LWPOLYLINE
  5
45E
100
AcDbEntity
  8
0
 62
     0
100
AcDbPolyline
 90
        2
 70
     0
 39
0.003
 10
-1.045583
 20
0.365524
 40
0.003
 41
0.003
 10
-1.042012
 20
0.377067
 40
0.003
 41
0.003
  0
LWPOLYLINE
  5
45F
100
AcDbEntity
  8
0
 62
     0
100
AcDbPolyline
 90
        2
 70
     0
 39
0.003
 10
-1.045583
 20
0.365524
 40
0.003
 41
0.003
 10
-1.049059
 20
1.119067
 40
0.003
 41
0.003
  0
LWPOLYLINE
  5
460
100
AcDbEntity
  8
0
 62
     0
100
AcDbPolyline
 90
        2
 70
     0
 39
0.003
 10
-1.049059
 20
1.119067
 40
0.003
 41
0.003
 10
-1.052209
 20
1.107083
 40
0.003
 41
0.003
  0
LWPOLYLINE
  5
461
100
AcDbEntity
  8
0
 62
     0
100
AcDbPolyline
 90
        2
 70
     0
 39
0.003
 10
-1.052209
 20
1.107083
 40
0.003
 41
0.003
 10
-1.048732
 20
0.353539
 40
0.003
 41
0.003
  0
LWPOLYLINE
  5
462
100
AcDbEntity
  8
0
 62
     0
100
AcDbPolyline
 90
        2
 70
     0
 39
0.003
 10
-1.048732
 20
0.353539
 40
0.003
 41
0.003
 10
-1.045583
 20
0.365524
 40
0.003
 41
0.003
  0
LWPOLYLINE
  5
463
100
AcDbEntity
  8
0
 62
     0
100
AcDbPolyline
 90
        2
 70
     0
 39
0.003
 10
-1.048732
 20
0.353539
 40
0.003
 41
0.003
 10
-1.052209
 20
1.107083
 40
0.003
 41
0.003
  0
LWPOLYLINE
  5
464
100
AcDbEntity
  8
0
 62
     0
100
AcDbPolyline
 90
        2
 70
     0
 39
0.003
 10
-1.052209
 20
1.107083
 40
0.003
 41
0.003
 10
-1.054961
 20
1.094661
 40
0.003
 41
0.003
  0
LWPOLYLINE
  5
465
100
AcDbEntity
  8
0
 62
     0
100
AcDbPolyline
 90
        2
 70
     0
 39
0.003
 10
-1.054961
 20
1.094661
 40
0.003
 41
0.003
 10
-1.051484
 20
0.341118
 40
0.003
 41
0.003
  0
LWPOLYLINE
  5
466
100
AcDbEntity
  8
0
 62
     0
100
AcDbPolyline
 90
        2
 70
     0
 39
0.003
 10
-1.051484
 20
0.341118
 40
0.003
 41
0.003
 10
-1.048732
 20
0.353539
 40
0.003
 41
0.003
  0
LWPOLYLINE
  5
467
100
AcDbEntity
  8
0
 62
     0
100
AcDbPolyline
 90
        2
 70
     0
 39
0.003
 10
-1.051484
 20
0.341118
 40
0.003
 41
0.003
 10
-1.054961
 20
1.094661
 40
0.003
 41
0.003
  0
LWPOLYLINE
  5
468
100
AcDbEntity
  8
0
 62
     0
100
AcDbPolyline
 90
        2
 70
     0
 39
0.003
 10
-1.054961
 20
1.094661
 40
0.003
 41
0.003
 10
-1.057354
 20
1.081823
 40
0.003
 41
0.003
  0
LWPOLYLINE
  5
469
100
AcDbEntity
  8
0
 62
     0
100
AcDbPolyline
 90
        2
 70
     0
 39
0.003
 10
-1.057354
 20
1.081823
 40
0.003
 41
0.003
 10
-1.053878
 20
0.32828
 40
0.003
 41
0.003
  0
LWPOLYLINE
  5
46A
100
AcDbEntity
  8
0
 62
     0
100
AcDbPolyline
 90
        2
 70
     0
 39
0.003
 10
-1.053878
 20
0.32828
 40
0.003
 41
0.003
 10
-1.051484
 20
0.341118
 40
0.003
 41
0.003
  0
LWPOLYLINE
  5
46B
100
AcDbEntity
  8
0
 62
     0
100
AcDbPolyline
 90
        2
 70
     0
 39
0.003
 10
-1.053878
 20
0.32828
 40
0.003
 41
0.003
 10
-1.057354
 20
1.081823
 40
0.003
 41
0.003
  0
LWPOLYLINE
  5
46C
100
AcDbEntity
  8
0
 62
     0
100
AcDbPolyline
 90
        2
 70
     0
 39
0.003
 10
-1.057354
 20
1.081823
 40
0.003
 41
0.003
 10
-1.059394
 20
1.068559
 40
0.003
 41
0.003
  0
LWPOLYLINE
  5
46D
100
AcDbEntity
  8
0
 62
     0
100
AcDbPolyline
 90
        2
 70
     0
 39
0.003
 10
-1.059394
 20
1.068559
 40
0.003
 41
0.003
 10
-1.055917
 20
0.315016
 40
0.003
 41
0.003
  0
LWPOLYLINE
  5
46E
100
AcDbEntity
  8
0
 62
     0
100
AcDbPolyline
 90
        2
 70
     0
 39
0.003
 10
-1.055917
 20
0.315016
 40
0.003
 41
0.003
 10
-1.053878
 20
0.32828
 40
0.003
 41
0.003
  0
LWPOLYLINE
  5
46F
100
AcDbEntity
  8
0
 62
     0
100
AcDbPolyline
 90
        2
 70
     0
 39
0.003
 10
-1.055917
 20
0.315016
 40
0.003
 41
0.003
 10
-1.059394
 20
1.068559
 40
0.003
 41
0.003
  0
LWPOLYLINE
  5
470
100
AcDbEntity
  8
0
 62
     0
100
AcDbPolyline
 90
        2
 70
     0
 39
0.003
 10
-1.059394
 20
1.068559
 40
0.003
 41
0.003
 10
-1.06113
 20
1.054894
 40
0.003
 41
0.003
  0
LWPOLYLINE
  5
471
100
AcDbEntity
  8
0
 62
     0
100
AcDbPolyline
 90
        2
 70
     0
 39
0.003
 10
-1.06113
 20
1.054894
 40
0.003
 41
0.003
 10
-1.057654
 20
0.30135
 40
0.003
 41
0.003
  0
LWPOLYLINE
  5
472
100
AcDbEntity
  8
0
 62
     0
100
AcDbPolyline
 90
        2
 70
     0
 39
0.003
 10
-1.057654
 20
0.30135
 40
0.003
 41
0.003
 10
-1.055917
 20
0.315016
 40
0.003
 41
0.003
  0
LWPOLYLINE
  5
473
100
AcDbEntity
  8
0
 62
     0
100
AcDbPolyline
 90
        2
 70
     0
 39
0.003
 10
-1.057654
 20
0.30135
 40
0.003
 41
0.003
 10
-1.06113
 20
1.054894
 40
0.003
 41
0.003
  0
LWPOLYLINE
  5
474
100
AcDbEntity
  8
0
 62
     0
100
AcDbPolyline
 90
        2
 70
     0
 39
0.003
 10
-1.06113
 20
1.054894
 40
0.003
 41
0.003
 10
-1.062567
 20
1.040835
 40
0.003
 41
0.003
  0
LWPOLYLINE
  5
475
100
AcDbEntity
  8
0
 62
     0
100
AcDbPolyline
 90
        2
 70
     0
 39
0.003
 10
-1.062567
 20
1.040835
 40
0.003
 41
0.003
 10
-1.059091
 20
0.287291
 40
0.003
 41
0.003
  0
LWPOLYLINE
  5
476
100
AcDbEntity
  8
0
 62
     0
100
AcDbPolyline
 90
        2
 70
     0
 39
0.003
 10
-1.059091
 20
0.287291
 40
0.003
 41
0.003
 10
-1.057654
 20
0.30135
 40
0.003
 41
0.003
  0
LWPOLYLINE
  5
477
100
AcDbEntity
  8
0
 62
     0
100
AcDbPolyline
 90
        2
 70
     0
 39
0.003
 10
-1.059091
 20
0.287291
 40
0.003
 41
0.003
 10
-1.062567
 20
1.040835
 40
0.003
 41
0.003
  0
LWPOLYLINE
  5
478
100
AcDbEntity
  8
0
 62
     0
100
AcDbPolyline
 90
        2
 70
     0
 39
0.003
 10
-1.062567
 20
1.040835
 40
0.003
 41
0.003
 10
-1.063752
 20
1.026398
 40
0.003
 41
0.003
  0
LWPOLYLINE
  5
479
100
AcDbEntity
  8
0
 62
     0
100
AcDbPolyline
 90
        2
 70
     0
 39
0.003
 10
-1.063752
 20
1.026398
 40
0.003
 41
0.003
 10
-1.060276
 20
0.272854
 40
0.003
 41
0.003
  0
LWPOLYLINE
  5
47A
100
AcDbEntity
  8
0
 62
     0
100
AcDbPolyline
 90
        2
 70
     0
 39
0.003
 10
-1.060276
 20
0.272854
 40
0.003
 41
0.003
 10
-1.059091
 20
0.287291
 40
0.003
 41
0.003
  0
LWPOLYLINE
  5
47B
100
AcDbEntity
  8
0
 62
     0
100
AcDbPolyline
 90
        2
 70
     0
 39
0.003
 10
-1.060276
 20
0.272854
 40
0.003
 41
0.003
 10
-1.063752
 20
1.026398
 40
0.003
 41
0.003
  0
LWPOLYLINE
  5
47C
100
AcDbEntity
  8
0
 62
     0
100
AcDbPolyline
 90
        2
 70
     0
 39
0.003
 10
-1.063752
 20
1.026398
 40
0.003
 41
0.003
 10
-1.064693
 20
1.011579
 40
0.003
 41
0.003
  0
LWPOLYLINE
  5
47D
100
AcDbEntity
  8
0
 62
     0
100
AcDbPolyline
 90
        2
 70
     0
 39
0.003
 10
-1.064693
 20
1.011579
 40
0.003
 41
0.003
 10
-1.061217
 20
0.258035
 40
0.003
 41
0.003
  0
LWPOLYLINE
  5
47E
100
AcDbEntity
  8
0
 62
     0
100
AcDbPolyline
 90
        2
 70
     0
 39
0.003
 10
-1.061217
 20
0.258035
 40
0.003
 41
0.003
 10
-1.060276
 20
0.272854
 40
0.003
 41
0.003
  0
LWPOLYLINE
  5
47F
100
AcDbEntity
  8
0
 62
     0
100
AcDbPolyline
 90
        2
 70
     0
 39
0.003
 10
-1.061217
 20
0.258035
 40
0.003
 41
0.003
 10
-1.064693
 20
1.011579
 40
0.003
 41
0.003
  0
LWPOLYLINE
  5
480
100
AcDbEntity
  8
0
 62
     0
100
AcDbPolyline
 90
        2
 70
     0
 39
0.003
 10
-1.064693
 20
1.011579
 40
0.003
 41
0.003
 10
-1.065429
 20
0.996402
 40
0.003
 41
0.003
  0
LWPOLYLINE
  5
481
100
AcDbEntity
  8
0
 62
     0
100
AcDbPolyline
 90
        2
 70
     0
 39
0.003
 10
-1.065429
 20
0.996402
 40
0.003
 41
0.003
 10
-1.061953
 20
0.242858
 40
0.003
 41
0.003
  0
LWPOLYLINE
  5
482
100
AcDbEntity
  8
0
 62
     0
100
AcDbPolyline
 90
        2
 70
     0
 39
0.003
 10
-1.061953
 20
0.242858
 40
0.003
 41
0.003
 10
-1.061217
 20
0.258035
 40
0.003
 41
0.003
  0
LWPOLYLINE
  5
483
100
AcDbEntity
  8
0
 62
     0
100
AcDbPolyline
 90
        2
 70
     0
 39
0.003
 10
-0.841469
 20
0.498614
 40
0.003
 41
0.003
 10
-0.844945
 20
1.252157
 40
0.003
 41
0.003
  0
LWPOLYLINE
  5
484
100
AcDbEntity
  8
0
 62
     0
100
AcDbPolyline
 90
        2
 70
     0
 39
0.003
 10
-0.844945
 20
1.252157
 40
0.003
 41
0.003
 10
-0.86248
 20
1.251665
 40
0.003
 41
0.003
  0
LWPOLYLINE
  5
485
100
AcDbEntity
  8
0
 62
     0
100
AcDbPolyline
 90
        2
 70
     0
 39
0.003
 10
-0.86248
 20
1.251665
 40
0.003
 41
0.003
 10
-0.879071
 20
1.250528
 40
0.003
 41
0.003
  0
LWPOLYLINE
  5
486
100
AcDbEntity
  8
0
 62
     0
100
AcDbPolyline
 90
        2
 70
     0
 39
0.003
 10
-0.879071
 20
1.250528
 40
0.003
 41
0.003
 10
-0.894736
 20
1.248748
 40
0.003
 41
0.003
  0
LWPOLYLINE
  5
487
100
AcDbEntity
  8
0
 62
     0
100
AcDbPolyline
 90
        2
 70
     0
 39
0.003
 10
-0.894736
 20
1.248748
 40
0.003
 41
0.003
 10
-0.909512
 20
1.246346
 40
0.003
 41
0.003
  0
LWPOLYLINE
  5
488
100
AcDbEntity
  8
0
 62
     0
100
AcDbPolyline
 90
        2
 70
     0
 39
0.003
 10
-0.909512
 20
1.246346
 40
0.003
 41
0.003
 10
-0.923409
 20
1.243319
 40
0.003
 41
0.003
  0
LWPOLYLINE
  5
489
100
AcDbEntity
  8
0
 62
     0
100
AcDbPolyline
 90
        2
 70
     0
 39
0.003
 10
-0.923409
 20
1.243319
 40
0.003
 41
0.003
 10
-0.936469
 20
1.239685
 40
0.003
 41
0.003
  0
LWPOLYLINE
  5
48A
100
AcDbEntity
  8
0
 62
     0
100
AcDbPolyline
 90
        2
 70
     0
 39
0.003
 10
-0.936469
 20
1.239685
 40
0.003
 41
0.003
 10
-0.948705
 20
1.235449
 40
0.003
 41
0.003
  0
LWPOLYLINE
  5
48B
100
AcDbEntity
  8
0
 62
     0
100
AcDbPolyline
 90
        2
 70
     0
 39
0.003
 10
-0.948705
 20
1.235449
 40
0.003
 41
0.003
 10
-0.960161
 20
1.230634
 40
0.003
 41
0.003
  0
LWPOLYLINE
  5
48C
100
AcDbEntity
  8
0
 62
     0
100
AcDbPolyline
 90
        2
 70
     0
 39
0.003
 10
-0.960161
 20
1.230634
 40
0.003
 41
0.003
 10
-0.970843
 20
1.225228
 40
0.003
 41
0.003
  0
LWPOLYLINE
  5
48D
100
AcDbEntity
  8
0
 62
     0
100
AcDbPolyline
 90
        2
 70
     0
 39
0.003
 10
-0.970843
 20
1.225228
 40
0.003
 41
0.003
 10
-0.980791
 20
1.219264
 40
0.003
 41
0.003
  0
LWPOLYLINE
  5
48E
100
AcDbEntity
  8
0
 62
     0
100
AcDbPolyline
 90
        2
 70
     0
 39
0.003
 10
-0.980791
 20
1.219264
 40
0.003
 41
0.003
 10
-0.990024
 20
1.212736
 40
0.003
 41
0.003
  0
LWPOLYLINE
  5
48F
100
AcDbEntity
  8
0
 62
     0
100
AcDbPolyline
 90
        2
 70
     0
 39
0.003
 10
-0.990024
 20
1.212736
 40
0.003
 41
0.003
 10
-0.998579
 20
1.205669
 40
0.003
 41
0.003
  0
LWPOLYLINE
  5
490
100
AcDbEntity
  8
0
 62
     0
100
AcDbPolyline
 90
        2
 70
     0
 39
0.003
 10
-0.998579
 20
1.205669
 40
0.003
 41
0.003
 10
-1.006469
 20
1.198059
 40
0.003
 41
0.003
  0
LWPOLYLINE
  5
491
100
AcDbEntity
  8
0
 62
     0
100
AcDbPolyline
 90
        2
 70
     0
 39
0.003
 10
-1.006469
 20
1.198059
 40
0.003
 41
0.003
 10
-1.013728
 20
1.189925
 40
0.003
 41
0.003
  0
LWPOLYLINE
  5
492
100
AcDbEntity
  8
0
 62
     0
100
AcDbPolyline
 90
        2
 70
     0
 39
0.003
 10
-1.013728
 20
1.189925
 40
0.003
 41
0.003
 10
-1.020382
 20
1.181272
 40
0.003
 41
0.003
  0
LWPOLYLINE
  5
493
100
AcDbEntity
  8
0
 62
     0
100
AcDbPolyline
 90
        2
 70
     0
 39
0.003
 10
-1.020382
 20
1.181272
 40
0.003
 41
0.003
 10
-1.026461
 20
1.172118
 40
0.003
 41
0.003
  0
LWPOLYLINE
  5
494
100
AcDbEntity
  8
0
 62
     0
100
AcDbPolyline
 90
        2
 70
     0
 39
0.003
 10
-1.026461
 20
1.172118
 40
0.003
 41
0.003
 10
-1.031976
 20
1.162457
 40
0.003
 41
0.003
  0
LWPOLYLINE
  5
495
100
AcDbEntity
  8
0
 62
     0
100
AcDbPolyline
 90
        2
 70
     0
 39
0.003
 10
-1.031976
 20
1.162457
 40
0.003
 41
0.003
 10
-1.036972
 20
1.152315
 40
0.003
 41
0.003
  0
LWPOLYLINE
  5
496
100
AcDbEntity
  8
0
 62
     0
100
AcDbPolyline
 90
        2
 70
     0
 39
0.003
 10
-1.036972
 20
1.152315
 40
0.003
 41
0.003
 10
-1.041465
 20
1.141693
 40
0.003
 41
0.003
  0
LWPOLYLINE
  5
497
100
AcDbEntity
  8
0
 62
     0
100
AcDbPolyline
 90
        2
 70
     0
 39
0.003
 10
-1.041465
 20
1.141693
 40
0.003
 41
0.003
 10
-1.045488
 20
1.13061
 40
0.003
 41
0.003
  0
LWPOLYLINE
  5
498
100
AcDbEntity
  8
0
 62
     0
100
AcDbPolyline
 90
        2
 70
     0
 39
0.003
 10
-1.045488
 20
1.13061
 40
0.003
 41
0.003
 10
-1.049059
 20
1.119067
 40
0.003
 41
0.003
  0
LWPOLYLINE
  5
499
100
AcDbEntity
  8
0
 62
     0
100
AcDbPolyline
 90
        2
 70
     0
 39
0.003
 10
-1.049059
 20
1.119067
 40
0.003
 41
0.003
 10
-1.052209
 20
1.107083
 40
0.003
 41
0.003
  0
LWPOLYLINE
  5
49A
100
AcDbEntity
  8
0
 62
     0
100
AcDbPolyline
 90
        2
 70
     0
 39
0.003
 10
-1.052209
 20
1.107083
 40
0.003
 41
0.003
 10
-1.054961
 20
1.094661
 40
0.003
 41
0.003
  0
LWPOLYLINE
  5
49B
100
AcDbEntity
  8
0
 62
     0
100
AcDbPolyline
 90
        2
 70
     0
 39
0.003
 10
-1.054961
 20
1.094661
 40
0.003
 41
0.003
 10
-1.057354
 20
1.081823
 40
0.003
 41
0.003
  0
LWPOLYLINE
  5
49C
100
AcDbEntity
  8
0
 62
     0
100
AcDbPolyline
 90
        2
 70
     0
 39
0.003
 10
-1.057354
 20
1.081823
 40
0.003
 41
0.003
 10
-1.059394
 20
1.068559
 40
0.003
 41
0.003
  0
LWPOLYLINE
  5
49D
100
AcDbEntity
  8
0
 62
     0
100
AcDbPolyline
 90
        2
 70
     0
 39
0.003
 10
-1.059394
 20
1.068559
 40
0.003
 41
0.003
 10
-1.06113
 20
1.054894
 40
0.003
 41
0.003
  0
LWPOLYLINE
  5
49E
100
AcDbEntity
  8
0
 62
     0
100
AcDbPolyline
 90
        2
 70
     0
 39
0.003
 10
-1.06113
 20
1.054894
 40
0.003
 41
0.003
 10
-1.062567
 20
1.040835
 40
0.003
 41
0.003
  0
LWPOLYLINE
  5
49F
100
AcDbEntity
  8
0
 62
     0
100
AcDbPolyline
 90
        2
 70
     0
 39
0.003
 10
-1.062567
 20
1.040835
 40
0.003
 41
0.003
 10
-1.063752
 20
1.026398
 40
0.003
 41
0.003
  0
LWPOLYLINE
  5
4A0
100
AcDbEntity
  8
0
 62
     0
100
AcDbPolyline
 90
        2
 70
     0
 39
0.003
 10
-1.063752
 20
1.026398
 40
0.003
 41
0.003
 10
-1.064693
 20
1.011579
 40
0.003
 41
0.003
  0
LWPOLYLINE
  5
4A1
100
AcDbEntity
  8
0
 62
     0
100
AcDbPolyline
 90
        2
 70
     0
 39
0.003
 10
-1.064693
 20
1.011579
 40
0.003
 41
0.003
 10
-1.065429
 20
0.996402
 40
0.003
 41
0.003
  0
LWPOLYLINE
  5
4A2
100
AcDbEntity
  8
0
 62
     0
100
AcDbPolyline
 90
        2
 70
     0
 39
0.003
 10
-1.065429
 20
0.996402
 40
0.003
 41
0.003
 10
-1.061953
 20
0.242858
 40
0.003
 41
0.003
  0
LWPOLYLINE
  5
4A3
100
AcDbEntity
  8
0
 62
     0
100
AcDbPolyline
 90
        2
 70
     0
 39
0.003
 10
-1.061953
 20
0.242858
 40
0.003
 41
0.003
 10
-1.061217
 20
0.258035
 40
0.003
 41
0.003
  0
LWPOLYLINE
  5
4A4
100
AcDbEntity
  8
0
 62
     0
100
AcDbPolyline
 90
        2
 70
     0
 39
0.003
 10
-1.061217
 20
0.258035
 40
0.003
 41
0.003
 10
-1.060276
 20
0.272854
 40
0.003
 41
0.003
  0
LWPOLYLINE
  5
4A5
100
AcDbEntity
  8
0
 62
     0
100
AcDbPolyline
 90
        2
 70
     0
 39
0.003
 10
-1.060276
 20
0.272854
 40
0.003
 41
0.003
 10
-1.059091
 20
0.287291
 40
0.003
 41
0.003
  0
LWPOLYLINE
  5
4A6
100
AcDbEntity
  8
0
 62
     0
100
AcDbPolyline
 90
        2
 70
     0
 39
0.003
 10
-1.059091
 20
0.287291
 40
0.003
 41
0.003
 10
-1.057654
 20
0.30135
 40
0.003
 41
0.003
  0
LWPOLYLINE
  5
4A7
100
AcDbEntity
  8
0
 62
     0
100
AcDbPolyline
 90
        2
 70
     0
 39
0.003
 10
-1.057654
 20
0.30135
 40
0.003
 41
0.003
 10
-1.055917
 20
0.315016
 40
0.003
 41
0.003
  0
LWPOLYLINE
  5
4A8
100
AcDbEntity
  8
0
 62
     0
100
AcDbPolyline
 90
        2
 70
     0
 39
0.003
 10
-1.055917
 20
0.315016
 40
0.003
 41
0.003
 10
-1.053878
 20
0.32828
 40
0.003
 41
0.003
  0
LWPOLYLINE
  5
4A9
100
AcDbEntity
  8
0
 62
     0
100
AcDbPolyline
 90
        2
 70
     0
 39
0.003
 10
-1.053878
 20
0.32828
 40
0.003
 41
0.003
 10
-1.051484
 20
0.341118
 40
0.003
 41
0.003
  0
LWPOLYLINE
  5
4AA
100
AcDbEntity
  8
0
 62
     0
100
AcDbPolyline
 90
        2
 70
     0
 39
0.003
 10
-1.051484
 20
0.341118
 40
0.003
 41
0.003
 10
-1.048732
 20
0.353539
 40
0.003
 41
0.003
  0
LWPOLYLINE
  5
4AB
100
AcDbEntity
  8
0
 62
     0
100
AcDbPolyline
 90
        2
 70
     0
 39
0.003
 10
-1.048732
 20
0.353539
 40
0.003
 41
0.003
 10
-1.045583
 20
0.365524
 40
0.003
 41
0.003
  0
LWPOLYLINE
  5
4AC
100
AcDbEntity
  8
0
 62
     0
100
AcDbPolyline
 90
        2
 70
     0
 39
0.003
 10
-1.045583
 20
0.365524
 40
0.003
 41
0.003
 10
-1.042012
 20
0.377067
 40
0.003
 41
0.003
  0
LWPOLYLINE
  5
4AD
100
AcDbEntity
  8
0
 62
     0
100
AcDbPolyline
 90
        2
 70
     0
 39
0.003
 10
-1.042012
 20
0.377067
 40
0.003
 41
0.003
 10
-1.037988
 20
0.38815
 40
0.003
 41
0.003
  0
LWPOLYLINE
  5
4AE
100
AcDbEntity
  8
0
 62
     0
100
AcDbPolyline
 90
        2
 70
     0
 39
0.003
 10
-1.037988
 20
0.38815
 40
0.003
 41
0.003
 10
-1.033496
 20
0.398772
 40
0.003
 41
0.003
  0
LWPOLYLINE
  5
4AF
100
AcDbEntity
  8
0
 62
     0
100
AcDbPolyline
 90
        2
 70
     0
 39
0.003
 10
-1.033496
 20
0.398772
 40
0.003
 41
0.003
 10
-1.0285
 20
0.408913
 40
0.003
 41
0.003
  0
LWPOLYLINE
  5
4B0
100
AcDbEntity
  8
0
 62
     0
100
AcDbPolyline
 90
        2
 70
     0
 39
0.003
 10
-1.0285
 20
0.408913
 40
0.003
 41
0.003
 10
-1.022984
 20
0.418575
 40
0.003
 41
0.003
  0
LWPOLYLINE
  5
4B1
100
AcDbEntity
  8
0
 62
     0
100
AcDbPolyline
 90
        2
 70
     0
 39
0.003
 10
-1.022984
 20
0.418575
 40
0.003
 41
0.003
 10
-1.016906
 20
0.427728
 40
0.003
 41
0.003
  0
LWPOLYLINE
  5
4B2
100
AcDbEntity
  8
0
 62
     0
100
AcDbPolyline
 90
        2
 70
     0
 39
0.003
 10
-1.016906
 20
0.427728
 40
0.003
 41
0.003
 10
-1.010252
 20
0.436382
 40
0.003
 41
0.003
  0
LWPOLYLINE
  5
4B3
100
AcDbEntity
  8
0
 62
     0
100
AcDbPolyline
 90
        2
 70
     0
 39
0.003
 10
-1.010252
 20
0.436382
 40
0.003
 41
0.003
 10
-1.002992
 20
0.444516
 40
0.003
 41
0.003
  0
LWPOLYLINE
  5
4B4
100
AcDbEntity
  8
0
 62
     0
100
AcDbPolyline
 90
        2
 70
     0
 39
0.003
 10
-1.002992
 20
0.444516
 40
0.003
 41
0.003
 10
-0.995102
 20
0.452126
 40
0.003
 41
0.003
  0
LWPOLYLINE
  5
4B5
100
AcDbEntity
  8
0
 62
     0
100
AcDbPolyline
 90
        2
 70
     0
 39
0.003
 10
-0.995102
 20
0.452126
 40
0.003
 41
0.003
 10
-0.986547
 20
0.459193
 40
0.003
 41
0.003
  0
LWPOLYLINE
  5
4B6
100
AcDbEntity
  8
0
 62
     0
100
AcDbPolyline
 90
        2
 70
     0
 39
0.003
 10
-0.986547
 20
0.459193
 40
0.003
 41
0.003
 10
-0.977315
 20
0.46572
 40
0.003
 41
0.003
  0
LWPOLYLINE
  5
4B7
100
AcDbEntity
  8
0
 62
     0
100
AcDbPolyline
 90
        2
 70
     0
 39
0.003
 10
-0.977315
 20
0.46572
 40
0.003
 41
0.003
 10
-0.967366
 20
0.471685
 40
0.003
 41
0.003
  0
LWPOLYLINE
  5
4B8
100
AcDbEntity
  8
0
 62
     0
100
AcDbPolyline
 90
        2
 70
     0
 39
0.003
 10
-0.967366
 20
0.471685
 40
0.003
 41
0.003
 10
-0.956685
 20
0.477091
 40
0.003
 41
0.003
  0
LWPOLYLINE
  5
4B9
100
AcDbEntity
  8
0
 62
     0
100
AcDbPolyline
 90
        2
 70
     0
 39
0.003
 10
-0.956685
 20
0.477091
 40
0.003
 41
0.003
 10
-0.945228
 20
0.481906
 40
0.003
 41
0.003
  0
LWPOLYLINE
  5
4BA
100
AcDbEntity
  8
0
 62
     0
100
AcDbPolyline
 90
        2
 70
     0
 39
0.003
 10
-0.945228
 20
0.481906
 40
0.003
 41
0.003
 10
-0.932992
 20
0.486142
 40
0.003
 41
0.003
  0
LWPOLYLINE
  5
4BB
100
AcDbEntity
  8
0
 62
     0
100
AcDbPolyline
 90
        2
 70
     0
 39
0.003
 10
-0.932992
 20
0.486142
 40
0.003
 41
0.003
 10
-0.919933
 20
0.489776
 40
0.003
 41
0.003
  0
LWPOLYLINE
  5
4BC
100
AcDbEntity
  8
0
 62
     0
100
AcDbPolyline
 90
        2
 70
     0
 39
0.003
 10
-0.919933
 20
0.489776
 40
0.003
 41
0.003
 10
-0.906035
 20
0.492803
 40
0.003
 41
0.003
  0
LWPOLYLINE
  5
4BD
100
AcDbEntity
  8
0
 62
     0
100
AcDbPolyline
 90
        2
 70
     0
 39
0.003
 10
-0.906035
 20
0.492803
 40
0.003
 41
0.003
 10
-0.89126
 20
0.495205
 40
0.003
 41
0.003
  0
LWPOLYLINE
  5
4BE
100
AcDbEntity
  8
0
 62
     0
100
AcDbPolyline
 90
        2
 70
     0
 39
0.003
 10
-0.89126
 20
0.495205
 40
0.003
 41
0.003
 10
-0.875594
 20
0.496984
 40
0.003
 41
0.003
  0
LWPOLYLINE
  5
4BF
100
AcDbEntity
  8
0
 62
     0
100
AcDbPolyline
 90
        2
 70
     0
 39
0.003
 10
-0.875594
 20
0.496984
 40
0.003
 41
0.003
 10
-0.859004
 20
0.498122
 40
0.003
 41
0.003
  0
LWPOLYLINE
  5
4C0
100
AcDbEntity
  8
0
 62
     0
100
AcDbPolyline
 90
        2
 70
     0
 39
0.003
 10
-0.859004
 20
0.498122
 40
0.003
 41
0.003
 10
-0.841469
 20
0.498614
 40
0.003
 41
0.003
  0
LWPOLYLINE
  5
4C1
100
AcDbEntity
  8
0
 62
     7
100
AcDbPolyline
 90
        2
 70
     0
 39
0.003
 10
-1.062898
 20
0.211457
 40
0.003
 41
0.003
 10
-1.109299
 20
0.211457
 40
0.003
 41
0.003
  0
LWPOLYLINE
  5
4C2
100
AcDbEntity
  8
0
 62
     7
100
AcDbPolyline
 90
        2
 70
     0
 39
0.003
 10
-1.109299
 20
0.211457
 40
0.003
 41
0.003
 10
-1.109299
 20
-0.778575
 40
0.003
 41
0.003
  0
LWPOLYLINE
  5
4C3
100
AcDbEntity
  8
0
 62
     7
100
AcDbPolyline
 90
        2
 70
     0
 39
0.003
 10
-1.109299
 20
-0.778575
 40
0.003
 41
0.003
 10
0.284827
 20
-0.778575
 40
0.003
 41
0.003
  0
LWPOLYLINE
  5
4C4
100
AcDbEntity
  8
0
 62
     7
100
AcDbPolyline
 90
        2
 70
     0
 39
0.003
 10
0.284827
 20
-0.778575
 40
0.003
 41
0.003
 10
0.284827
 20
-0.005744
 40
0.003
 41
0.003
  0
LWPOLYLINE
  5
4C5
100
AcDbEntity
  8
0
 62
     7
100
AcDbPolyline
 90
        2
 70
     0
 39
0.003
 10
0.284827
 20
-0.005744
 40
0.003
 41
0.003
 10
0.284827
 20
0.075028
 40
0.003
 41
0.003
  0
LWPOLYLINE
  5
4C6
100
AcDbEntity
  8
0
 62
     7
100
AcDbPolyline
 90
        2
 70
     0
 39
0.003
 10
0.284827
 20
0.075028
 40
0.003
 41
0.003
 10
0.643496
 20
0.075075
 40
0.003
 41
0.003
  0
SPLINE
  5
4C7
100
AcDbEntity
  8
0
 62
     7
100
AcDbSpline
210
0.0
220
0.0
230
1.0
 70
     0
 71
     3
 72
     0
 73
     0
 74
    32
 44
0.0000000001
 11
0.643496062992126
 21
0.0750748031496063
 31
0.0
 11
0.6374606299212599
 21
0.1091850393700787
 31
0.0
 11
0.6294724409448819
 21
0.1390472440944882
 31
0.0
 11
0.6195000000000001
 21
0.1650393700787401
 31
0.0
 11
0.60751968503937
 21
0.1875511811023622
 31
0.0
 11
0.5934921259842519
 21
0.2069527559055118
 31
0.0
 11
0.5773976377952756
 21
0.2236417322834646
 31
0.0
 11
0.5591968503937008
 21
0.2379881889763779
 31
0.0
 11
0.5388740157480315
 21
0.2503858267716536
 31
0.0
 11
0.5163818897637795
 21
0.2612047244094488
 31
0.0
 11
0.4917047244094489
 21
0.2708425196850394
 31
0.0
 11
0.4648110236220472
 21
0.2796732283464567
 31
0.0
 11
0.4356771653543307
 21
0.2880866141732283
 31
0.0
 11
0.4042598425196851
 21
0.2964566929133858
 31
0.0
 11
0.3705393700787402
 21
0.3051771653543307
 31
0.0
 11
0.334484251968504
 21
0.3146259842519685
 31
0.0
 11
0.2960708661417323
 21
0.3251889763779527
 31
0.0
 11
0.2589842519685039
 21
0.336484251968504
 31
0.0
 11
0.2267007874015748
 21
0.3479527559055118
 31
0.0
 11
0.1988346456692914
 21
0.3596653543307087
 31
0.0
 11
0.175003937007874
 21
0.3717007874015748
 31
0.0
 11
0.1548149606299213
 21
0.3841259842519685
 31
0.0
 11
0.1378937007874016
 21
0.3970314960629922
 31
0.0
 11
0.1238503937007874
 21
0.4104803149606299
 31
0.0
 11
0.1123110236220472
 21
0.4245629921259843
 31
0.0
 11
0.1028740157480315
 21
0.4393346456692913
 31
0.0
 11
0.0951692913385827
 21
0.4548897637795276
 31
0.0
 11
0.0888031496062992
 21
0.4712952755905512
 31
0.0
 11
0.0834055118110236
 21
0.4886299212598425
 31
0.0
 11
0.0785787401574803
 21
0.5069645669291338
 31
0.0
 11
0.0739448818897638
 21
0.5263897637795275
 31
0.0
 11
0.0691141732283465
 21
0.5469685039370079
 31
0.0
  0
LWPOLYLINE
  5
4C8
100
AcDbEntity
  8
0
 62
     7
100
AcDbPolyline
 90
        2
 70
     0
 39
0.003
 10
0.069114
 20
0.546969
 40
0.003
 41
0.003
 10
0.063717
 20
0.568787
 40
0.003
 41
0.003
  0
LWPOLYLINE
  5
4C9
100
AcDbEntity
  8
0
 62
     7
100
AcDbPolyline
 90
        2
 70
     0
 39
0.003
 10
0.063717
 20
0.568787
 40
0.003
 41
0.003
 10
-0.841469
 20
0.568787
 40
0.003
 41
0.003
  0
LWPOLYLINE
  5
4CA
100
AcDbEntity
  8
0
 62
     7
100
AcDbPolyline
 90
        2
 70
     0
 39
0.003
 10
-0.841469
 20
0.568787
 40
0.003
 41
0.003
 10
-0.841469
 20
0.498614
 40
0.003
 41
0.003
  0
SPLINE
  5
4CB
100
AcDbEntity
  8
0
 62
     7
100
AcDbSpline
210
0.0
220
0.0
230
1.0
 70
     0
 71
     3
 72
     0
 73
     0
 74
    17
 44
0.0000000001
 11
-0.8414685039370079
 21
0.4986141732283465
 31
0.0
 11
-0.8755944881889763
 21
0.4969842519685039
 31
0.0
 11
-0.9060354330708661
 21
0.4928031496062992
 31
0.0
 11
-0.932992125984252
 21
0.4861417322834646
 31
0.0
 11
-0.9566850393700788
 21
0.4770905511811024
 31
0.0
 11
-0.9773149606299213
 21
0.4657204724409449
 31
0.0
 11
-0.9951023622047244
 21
0.4521259842519685
 31
0.0
 11
-1.0102519685039371
 21
0.4363818897637795
 31
0.0
 11
-1.022984251968504
 21
0.4185748031496063
 31
0.0
 11
-1.0334960629921259
 21
0.3987716535433071
 31
0.0
 11
-1.0420118110236221
 21
0.3770669291338583
 31
0.0
 11
-1.0487322834645669
 21
0.3535393700787401
 31
0.0
 11
-1.0538779527559055
 21
0.3282795275590551
 31
0.0
 11
-1.0576535433070866
 21
0.3013503937007874
 31
0.0
 11
-1.0602755905511811
 21
0.2728543307086614
 31
0.0
 11
-1.0619527559055117
 21
0.2428582677165354
 31
0.0
 11
-1.0628976377952757
 21
0.2114566929133858
 31
0.0
  0
MTEXT
  5
4CC
100
AcDbEntity
  8
0
 62
     0
100
AcDbMText
 10
-1.621724
 20
-0.687906
 30
0.0
 40
0.166665
 41
0.0
 71
     1
 72
     1
  1
{\fBookman Old Style|b0|i0|c0|p32;BA  1463}
 73
     1
 44
1.0
  0
MTEXT
  5
4CD
100
AcDbEntity
  8
0
 62
     0
100
AcDbMText
 10
-1.621724
 20
-0.875406
 30
0.0
 40
0.166665
 41
0.0
 71
     1
 72
     1
  1
{\fBookman Old Style|b0|i0|c0|p32;1-5/16" x 1-3/4"}
 73
     1
 44
1.0
  0
ENDSEC
  0
SECTION
  2
OBJECTS
  0
DICTIONARY
  5
19
100
AcDbDictionary
280
     0
281
     1
  3
ACAD_GROUP
350
1A
  3
ACAD_MLINESTYLE
350
1B
  3
ACAD_LAYOUT
350
1E
  3
ACAD_PLOTSETTINGS
350
22
  3
ACAD_PLOTSTYLENAME
350
1F
  3
ACAD_WIPEOUT_VARS
350
23
  0
DICTIONARY
  5
1A
102
{ACAD_REACTORS
330
19
102
}
100
AcDbDictionary
280
     0
281
     1
  0
DICTIONARY
  5
1B
102
{ACAD_REACTORS
330
19
102
}
100
AcDbDictionary
280
     0
281
     1
  3
Standard
350
1C
  0
MLINESTYLE
  5
1C
102
{ACAD_REACTORS
330
1B
102
}
100
AcDbMlineStyle
  2
Standard
 70
     0
  3

 62
     0
 51
90.0
 52
90.0
 71
     2
 49
0.5
 62
   256
  6
BYLAYER
 49
-0.5
 62
   256
  6
BYLAYER
  0
ACDBDICTIONARYWDFLT
  5
1F
102
{ACAD_REACTORS
330
19
102
}
100
AcDbDictionary
281
     1
  3
Normal
350
1D
100
AcDbDictionaryWithDefault
340
1D
  0
ACDBPLACEHOLDER
  5
1D
102
{ACAD_REACTORS
330
1F
102
}
  0
LAYOUT
  5
20
102
{ACAD_REACTORS
330
1E
102
}
100
AcDbPlotSettings
  1

  2

  4

  6

 40
0.0
 41
0.0
 42
0.0
 43
0.0
 44
0.0
 45
0.0
 46
0.0
 47
0.0
 48
0.0
 49
0.0
140
0.0
141
0.0
142
1.0
143
1.0
 70
  1024
 72
     0
 73
     0
 74
     0
  7

 75
     0
147
1.0
148
0.0
149
0.0
100
AcDbLayout
  1
Model
 70
     0
 71
     0
 10
0.0
 20
0.0
 11
0.0
 21
0.0
 12
0.0
 22
0.0
 32
0.0
 14
0.0
 24
0.0
 34
0.0
 15
0.0
 25
0.0
 35
0.0
146
0.0
 13
0.0
 23
0.0
 33
0.0
 16
0.0
 26
0.0
 36
0.0
 17
0.0
 27
0.0
 37
0.0
 76
     0
330
A
331
0
345
0
346
0
  0
LAYOUT
  5
21
102
{ACAD_REACTORS
330
1E
102
}
100
AcDbPlotSettings
  1

  2

  4

  6

 40
0.0
 41
0.0
 42
0.0
 43
0.0
 44
0.0
 45
0.0
 46
0.0
 47
0.0
 48
0.0
 49
0.0
140
0.0
141
0.0
142
1.0
143
1.0
 70
     0
 72
     0
 73
     0
 74
     0
  7

 75
     0
147
1.0
148
0.0
149
0.0
100
AcDbLayout
  1
Layout1
 70
     0
 71
     0
 10
0.0
 20
0.0
 11
0.0
 21
0.0
 12
0.0
 22
0.0
 32
0.0
 14
0.0
 24
0.0
 34
0.0
 15
0.0
 25
0.0
 35
0.0
146
0.0
 13
0.0
 23
0.0
 33
0.0
 16
0.0
 26
0.0
 36
0.0
 17
0.0
 27
0.0
 37
0.0
 76
     0
330
B
331
0
345
0
346
0
  0
DICTIONARY
  5
1E
102
{ACAD_REACTORS
330
19
102
}
100
AcDbDictionary
280
     0
281
     1
  3
Layout1
350
21
  3
Model
350
20
  0
DICTIONARY
  5
22
102
{ACAD_REACTORS
330
19
102
}
100
AcDbDictionary
280
     0
281
     1
  0
WIPEOUTVARIABLES
  5
23
100
AcDbWipeoutVariables
 70
     1
  0
ENDSEC
  0
EOF
