  0
SECTION
  2
HEADER
  9
$ACADVER
  1
AC1015
  9
$ACADMAINTVER
 70
     6
  9
$DWGCODEPAGE
  3
DOS850
  9
$INSBASE
 10
0.0
 20
0.0
 30
0.0
  9
$EXTMIN
 10
1.000000E+20
 20
1.000000E+20
 30
1.000000E+20
  9
$EXTMAX
 10
-1.000000E+20
 20
-1.000000E+20
 30
-1.000000E+20
  9
$LIMMIN
 10
0.0
 20
0.0
  9
$LIMMAX
 10
0.0
 20
0.0
  9
$ORTHOMODE
 70
     0
  9
$REGENMODE
 70
     1
  9
$FILLMODE
 70
     1
  9
$QTEXTMODE
 70
     0
  9
$MIRRTEXT
 70
     1
  9
$LTSCALE
 40
1.0
  9
$ATTMODE
 70
     1
  9
$TEXTSIZE
 40
0.2
  9
$TRACEWID
 40
0.05
  9
$TEXTSTYLE
  7
Standard
  9
$CLAYER
  8
0
  9
$CELTYPE
  6
Continuous
  9
$CECOLOR
 62
   256
  9
$CELTSCALE
 40
1.0
  9
$DISPSILH
 70
     0
  9
$DIMSCALE
 40
1.0
  9
$DIMASZ
 40
0.18
  9
$DIMEXO
 40
0.0625
  9
$DIMDLI
 40
0.38
  9
$DIMRND
 40
0.0
  9
$DIMDLE
 40
0.0
  9
$DIMEXE
 40
0.18
  9
$DIMTP
 40
0.0
  9
$DIMTM
 40
0.0
  9
$DIMTXT
 40
0.18
  9
$DIMCEN
 40
0.09
  9
$DIMTSZ
 40
0.0
  9
$DIMTOL
 70
     0
  9
$DIMLIM
 70
     0
  9
$DIMTIH
 70
     1
  9
$DIMTOH
 70
     1
  9
$DIMSE1
 70
     0
  9
$DIMSE2
 70
     0
  9
$DIMTAD
 70
     0
  9
$DIMZIN
 70
     0
  9
$DIMBLK
  1

  9
$DIMASO
 70
     1
  9
$DIMSHO
 70
     1
  9
$DIMPOST
  1

  9
$DIMAPOST
  1

  9
$DIMALT
 70
     0
  9
$DIMALTD
 70
     2
  9
$DIMALTF
 40
25.4
  9
$DIMLFAC
 40
1.0
  9
$DIMTOFL
 70
     0
  9
$DIMTVP
 40
0.0
  9
$DIMTIX
 70
     0
  9
$DIMSOXD
 70
     0
  9
$DIMSAH
 70
     0
  9
$DIMBLK1
  1

  9
$DIMBLK2
  1

  9
$DIMSTYLE
  2
Standard
  9
$DIMCLRD
 70
     0
  9
$DIMCLRE
 70
     0
  9
$DIMCLRT
 70
     0
  9
$DIMTFAC
 40
1.0
  9
$DIMGAP
 40
0.09
  9
$DIMJUST
 70
     0
  9
$DIMSD1
 70
     0
  9
$DIMSD2
 70
     0
  9
$DIMTOLJ
 70
     1
  9
$DIMTZIN
 70
     0
  9
$DIMALTZ
 70
     0
  9
$DIMALTTZ
 70
     0
  9
$DIMUPT
 70
     0
  9
$DIMDEC
 70
     4
  9
$DIMTDEC
 70
     4
  9
$DIMALTU
 70
     2
  9
$DIMALTTD
 70
     2
  9
$DIMTXSTY
  7
Standard
  9
$DIMAUNIT
 70
     0
  9
$DIMADEC
 70
     0
  9
$DIMALTRND
 40
0.0
  9
$DIMAZIN
 70
     0
  9
$DIMDSEP
 70
     0
  9
$DIMATFIT
 70
     3
  9
$DIMFRAC
 70
     0
  9
$DIMLDRBLK
  1

  9
$DIMLUNIT
 70
     2
  9
$DIMLWD
 70
     0
  9
$DIMLWE
 70
     0
  9
$DIMTMOVE
 70
     0
  9
$LUNITS
 70
     2
  9
$LUPREC
 70
     4
  9
$SKETCHINC
 40
0.1
  9
$FILLETRAD
 40
0.0
  9
$AUNITS
 70
     0
  9
$AUPREC
 70
     0
  9
$MENU
  1
acad
  9
$ELEVATION
 40
0.0
  9
$PELEVATION
 40
0.0
  9
$THICKNESS
 40
0.0
  9
$LIMCHECK
 70
     0
  9
$CHAMFERA
 40
0.0
  9
$CHAMFERB
 40
0.0
  9
$CHAMFERC
 40
0.0
  9
$CHAMFERD
 40
0.0
  9
$SKPOLY
 70
     0
  9
$TDCREATE
 40
0.000000000
  9
$TDUCREATE
 40
0.000000000
  9
$TDUPDATE
 40
0.000000000
  9
$TDUUPDATE
 40
0.000000000
  9
$TDINDWG
 40
0.0000000000
  9
$TDUSRTIMER
 40
0.0000000000
  9
$USRTIMER
 70
     1
  9
$ANGBASE
 50
0.0
  9
$ANGDIR
 70
     0
  9
$PDMODE
 70
     0
  9
$PDSIZE
 40
0.0
  9
$PLINEWID
 40
0.0
  9
$SPLFRAME
 70
     0
  9
$SPLINETYPE
 70
     6
  9
$SPLINESEGS
 70
     8
  9
$HANDSEED
  5
368
  9
$SURFTAB1
 70
     6
  9
$SURFTAB2
 70
     6
  9
$SURFTYPE
 70
     6
  9
$SURFU
 70
     6
  9
$SURFV
 70
     6
  9
$UCSBASE
  2

  9
$UCSNAME
  2

  9
$UCSORG
 10
0.0
 20
0.0
 30
0.0
  9
$UCSXDIR
 10
1.0
 20
0.0
 30
0.0
  9
$UCSYDIR
 10
0.0
 20
1.0
 30
0.0
  9
$UCSORTHOREF
  2

  9
$UCSORTHOVIEW
 70
     0
  9
$UCSORGTOP
 10
0.0
 20
0.0
 30
0.0
  9
$UCSORGBOTTOM
 10
0.0
 20
0.0
 30
0.0
  9
$UCSORGLEFT
 10
0.0
 20
0.0
 30
0.0
  9
$UCSORGRIGHT
 10
0.0
 20
0.0
 30
0.0
  9
$UCSORGFRONT
 10
0.0
 20
0.0
 30
0.0
  9
$UCSORGBACK
 10
0.0
 20
0.0
 30
0.0
  9
$PUCSBASE
  2

  9
$PUCSNAME
  2

  9
$PUCSORG
 10
0.0
 20
0.0
 30
0.0
  9
$PUCSXDIR
 10
1.0
 20
0.0
 30
0.0
  9
$PUCSYDIR
 10
0.0
 20
1.0
 30
0.0
  9
$PUCSORTHOREF
  2

  9
$PUCSORTHOVIEW
 70
     0
  9
$PUCSORGTOP
 10
0.0
 20
0.0
 30
0.0
  9
$PUCSORGBOTTOM
 10
0.0
 20
0.0
 30
0.0
  9
$PUCSORGLEFT
 10
0.0
 20
0.0
 30
0.0
  9
$PUCSORGRIGHT
 10
0.0
 20
0.0
 30
0.0
  9
$PUCSORGFRONT
 10
0.0
 20
0.0
 30
0.0
  9
$PUCSORGBACK
 10
0.0
 20
0.0
 30
0.0
  9
$USERI1
 70
     0
  9
$USERI2
 70
     0
  9
$USERI3
 70
     0
  9
$USERI4
 70
     0
  9
$USERI5
 70
     0
  9
$USERR1
 40
0.0
  9
$USERR2
 40
0.0
  9
$USERR3
 40
0.0
  9
$USERR4
 40
0.0
  9
$USERR5
 40
0.0
  9
$WORLDVIEW
 70
     1
  9
$SHADEDGE
 70
     3
  9
$SHADEDIF
 70
    70
  9
$TILEMODE
 70
     1
  9
$MAXACTVP
 70
    16
  9
$PINSBASE
 10
0.0
 20
0.0
 30
0.0
  9
$PLIMCHECK
 70
     0
  9
$PEXTMIN
 10
1.000000E+20
 20
1.000000E+20
 30
1.000000E+20
  9
$PEXTMAX
 10
-1.000000E+20
 20
-1.000000E+20
 30
-1.000000E+20
  9
$PLIMMIN
 10
0.0
 20
0.0
  9
$PLIMMAX
 10
12.0
 20
9.0
  9
$UNITMODE
 70
     0
  9
$VISRETAIN
 70
     0
  9
$PLINEGEN
 70
     1
  9
$PSLTSCALE
 70
     0
  9
$TREEDEPTH
 70
  3020
  9
$CMLSTYLE
  2
Standard
  9
$CMLJUST
 70
     0
  9
$CMLSCALE
 40
1.0
  9
$PROXYGRAPHICS
 70
     0
  9
$MEASUREMENT
 70
     0
  9
$CELWEIGHT
370
     0
  9
$ENDCAPS
280
     0
  9
$JOINSTYLE
280
     0
  9
$LWDISPLAY
290
     0
  9
$INSUNITS
 70
     0
  9
$HYPERLINKBASE
  1

  9
$XEDIT
290
     1
  9
$CEPSNTYPE
380
     0
  9
$PSTYLEMODE
290
     1
  9
$FINGERPRINTGUID
  2

  9
$VERSIONGUID
  2

  9
$EXTNAMES
290
     1
  9
$PSVPSCALE
 40
0.0
  0
ENDSEC
  0
SECTION
  2
CLASSES
  0
CLASS
  1
LWPOLYLINE
  2
AcDbPolyline
  3
AutoCAD 2000
 90
        0
280
     0
281
     1
  0
CLASS
  1
IMAGE
  2
AcDbRasterImage
  3
ISM
 90
    32895
280
     0
281
     1
  0
CLASS
  1
OLE2FRAME
  2
AcDbOle2Frame
  3
AutoCAD 2000
 90
    32768
280
     0
281
     1
  0
CLASS
  1
HATCH
  2
AcDbHatch
  3
AutoCAD 2000
 90
    32768
280
     0
281
     1
  0
CLASS
  1
DICTIONARYVAR
  2
AcDbDictionaryVar
  3
AutoCAD 2000
 90
    32768
280
     0
281
     0
  0
CLASS
  1
RASTERVARIABLES
  2
AcDbRasterVariables
  3
ISM
 90
    32768
280
     0
281
     0
  0
CLASS
  1
IMAGEDEF
  2
AcDbRasterImageDef
  3
ISM
 90
    32768
280
     0
281
     0
  0
CLASS
  1
IMAGEDEF_REACTOR
  2
AcDbRasterImageDefReactor
  3
ISM
 90
    32769
280
     0
281
     0
  0
CLASS
  1
IDBUFFER
  2
AcDbIdBuffer
  3
AutoCAD 2000
 90
    32768
280
     0
281
     0
  0
CLASS
  1
SPATIAL_FILTER
  2
AcDbSpatialFilter
  3
AutoCAD 2000
 90
    32768
280
     0
281
     0
  0
CLASS
  1
XRECORD
  2
AcDbXrecord
  3
AutoCAD 2000
 90
    32768
280
     0
281
     0
  0
CLASS
  1
SORTENTSTABLE
  2
AcDbSortentsTable
  3
AutoCAD 2000
 90
    32768
280
     0
281
     0
  0
CLASS
  1
LAYER_INDEX
  2
AcDbLayerIndex
  3
AutoCAD 2000
 90
    32768
280
     0
281
     0
  0
CLASS
  1
SPATIAL_INDEX
  2
AcDbSpatialIndex
  3
AutoCAD 2000
 90
    32768
280
     0
281
     0
  0
CLASS
  1
OBJECT_PTR
  2
CAseDLPNTableRecord
  3
"ASE-LPNTableRecord"
 90
    32769
280
     0
281
     0
  0
CLASS
  1
LAYOUT
  2
AcDbLayout
  3
AutoCAD 2000
 90
        0
280
     0
281
     0
  0
CLASS
  1
PLOTSETTINGS
  2
AcDbPlotSettings
  3
AutoCAD 2000
 90
    32768
280
     0
281
     0
  0
CLASS
  1
ACDBDICTIONARYWDFLT
  2
AcDbDictionaryWithDefault
  3
AutoCAD 2000
 90
        0
280
     0
281
     0
  0
CLASS
  1
ACDBPLACEHOLDER
  2
AcDbPlaceHolder
  3
AutoCAD 2000
 90
        0
280
     0
281
     0
  0
CLASS
  1
VBA_PROJECT
  2
AcDbVbaProject
  3
acadvba
 90
    32768
280
     0
281
     0
  0
CLASS
  1
WIPEOUT
  2
AcDbWipeout
  3
WipeOut|AutoCAD Express Tool|expresstools@autodesk.com
 90
    32895
280
     0
281
     1
  0
CLASS
  1
WIPEOUTVARIABLES
  2
AcDbWipeoutVariables
  3
WipeOut|AutoCAD Express Tool|expresstools@autodesk.com
 90
        0
280
     0
281
     0
  0
CLASS
  1
RTEXT
  2
RText
  3
RText|AutoCAD Express Tool|expresstools@autodesk.com
 90
    32768
280
     0
281
     1
  0
CLASS
  1
ARCALIGNEDTEXT
  2
AcDbArcAlignedText
  3
ATEXT|AutoCAD Express Tool|expresstools@autodesk.com
 90
    32768
280
     0
281
     1
  0
ENDSEC
  0
SECTION
  2
TABLES
  0
TABLE
  2
VPORT
  5
7
100
AcDbSymbolTable
 70
     1
  0
VPORT
  5
15
100
AcDbSymbolTableRecord
100
AcDbViewportTableRecord
  2
*ACTIVE
 70
     0
 10
0.0
 20
0.0
 11
1.0
 21
1.0
 12
6.591288
 22
4.579184
 13
0.0
 23
0.0
 14
1.0
 24
1.0
 15
0.0
 25
0.0
 16
0.0
 26
0.0
 36
1.0
 17
0.0
 27
0.0
 37
0.0
 40
9.158369
 41
0.688564
 42
50.0
 43
0.0
 44
0.0
 50
0.0
 51
0.0
 71
     0
 72
   100
 73
     1
 74
     1
 75
     0
 76
     0
 77
     0
 78
     0
281
     0
 65
     0
110
0.0
120
0.0
130
0.0
111
1.0
121
0.0
131
0.0
112
0.0
122
1.0
132
0.0
345
0
346
0
 79
     0
146
0.0
  0
ENDTAB
  0
TABLE
  2
LTYPE
  5
4
100
AcDbSymbolTable
 70
     3
  0
LTYPE
  5
11
100
AcDbSymbolTableRecord
100
AcDbLinetypeTableRecord
  2
ByBlock
 70
    64
  3

 72
    65
 73
     0
 40
0.0
  0
LTYPE
  5
12
100
AcDbSymbolTableRecord
100
AcDbLinetypeTableRecord
  2
ByLayer
 70
    64
  3

 72
    65
 73
     0
 40
0.0
  0
LTYPE
  5
13
100
AcDbSymbolTableRecord
100
AcDbLinetypeTableRecord
  2
Continuous
 70
    64
  3
Solid line
 72
    65
 73
     0
 40
0.0
  0
ENDTAB
  0
TABLE
  2
LAYER
  5
2
100
AcDbSymbolTable
 70
     1
  0
LAYER
  5
14
100
AcDbSymbolTableRecord
100
AcDbLayerTableRecord
  2
0
 70
     0
 62
     7
  6
Continuous
290
     1
370
    -3
390
1D
  0
ENDTAB
  0
TABLE
  2
STYLE
  5
3
100
AcDbSymbolTable
 70
     1
  0
STYLE
  5
17
100
AcDbSymbolTableRecord
100
AcDbTextStyleTableRecord
  2
Standard
 70
     0
 40
0.0
 41
1.0
 50
0.0
 71
     0
 42
0.0
  3
txt
  4

  0
ENDTAB
  0
TABLE
  2
VIEW
  5
5
100
AcDbSymbolTable
 70
     0
  0
ENDTAB
  0
TABLE
  2
UCS
  5
6
100
AcDbSymbolTable
 70
     0
  0
ENDTAB
  0
TABLE
  2
APPID
  5
8
100
AcDbSymbolTable
 70
     1
  0
APPID
  5
16
100
AcDbSymbolTableRecord
100
AcDbRegAppTableRecord
  2
ACAD
 70
     0
  0
ENDTAB
  0
TABLE
  2
DIMSTYLE
  5
9
100
AcDbSymbolTable
 70
     1
100
AcDbDimStyleTable
 71
     0
  0
DIMSTYLE
105
18
100
AcDbSymbolTableRecord
100
AcDbDimStyleTableRecord
  2
Standard
 70
     0
  3

  4

 40
1.0
 41
0.18
 42
0.0625
 43
0.38
 44
0.18
 45
0.0
 46
0.0
 47
0.0
 48
0.0
 71
     0
 72
     0
 73
     1
 74
     1
 75
     0
 76
     0
 77
     0
 78
     0
 79
     0
140
0.18
141
0.09
142
0.0
143
25.4
144
1.0
145
0.0
146
1.0
147
0.09
148
0.0
170
     0
171
     2
172
     0
173
     0
174
     0
175
     0
176
     0
177
     0
178
     0
179
     0
271
     4
272
     4
273
     2
274
     2
275
     0
276
     0
277
     2
278
    46
279
     0
280
     0
281
     0
282
     0
283
     1
284
     0
285
     0
286
     0
288
     0
340
17
341
0
342
0
343
0
344
0
371
    -2
372
    -2
  0
ENDTAB
  0
TABLE
  2
BLOCK_RECORD
  5
1
100
AcDbSymbolTable
 70
     0
  0
BLOCK_RECORD
  5
A
100
AcDbSymbolTableRecord
100
AcDbBlockTableRecord
  2
*MODEL_SPACE
340
20
  0
BLOCK_RECORD
  5
B
100
AcDbSymbolTableRecord
100
AcDbBlockTableRecord
  2
*PAPER_SPACE
340
21
  0
ENDTAB
  0
ENDSEC
  0
SECTION
  2
BLOCKS
  0
BLOCK
  5
D
100
AcDbEntity
  8
0
100
AcDbBlockBegin
  2
*MODEL_SPACE
 70
     0
 10
0.0
 20
0.0
 30
0.0
  3
*MODEL_SPACE
  1

  0
ENDBLK
  5
E
100
AcDbEntity
  8
0
100
AcDbBlockEnd
  0
BLOCK
  5
F
100
AcDbEntity
 67
     1
  8
0
100
AcDbBlockBegin
  2
*PAPER_SPACE
 70
     0
 10
0.0
 20
0.0
 30
0.0
  3
*PAPER_SPACE
  1

  0
ENDBLK
  5
10
100
AcDbEntity
 67
     1
  8
0
100
AcDbBlockEnd
  0
ENDSEC
  0
SECTION
  2
ENTITIES
  0
LWPOLYLINE
  5
24
100
AcDbEntity
  8
0
 62
     0
100
AcDbPolyline
 90
        2
 70
     0
 39
0.003
 10
0.882335
 20
2.492614
 40
0.003
 41
0.003
 10
1.384937
 20
2.492614
 40
0.003
 41
0.003
  0
LWPOLYLINE
  5
25
100
AcDbEntity
  8
0
 62
     0
100
AcDbPolyline
 90
        2
 70
     0
 39
0.003
 10
1.384937
 20
2.492614
 40
0.003
 41
0.003
 10
1.384937
 20
2.243591
 40
0.003
 41
0.003
  0
LWPOLYLINE
  5
26
100
AcDbEntity
  8
0
 62
     0
100
AcDbPolyline
 90
        2
 70
     0
 39
0.003
 10
1.384937
 20
2.243591
 40
0.003
 41
0.003
 10
-1.365063
 20
2.243591
 40
0.003
 41
0.003
  0
LWPOLYLINE
  5
27
100
AcDbEntity
  8
0
 62
     0
100
AcDbPolyline
 90
        2
 70
     0
 39
0.003
 10
-1.365063
 20
2.243591
 40
0.003
 41
0.003
 10
-1.214937
 20
3.738433
 40
0.003
 41
0.003
  0
LWPOLYLINE
  5
28
100
AcDbEntity
  8
0
 62
     0
100
AcDbPolyline
 90
        2
 70
     0
 39
0.003
 10
-1.214937
 20
3.738433
 40
0.003
 41
0.003
 10
-0.711638
 20
3.738433
 40
0.003
 41
0.003
  0
SPLINE
  5
29
100
AcDbEntity
  8
0
 62
     0
100
AcDbSpline
210
0.0
220
0.0
230
1.0
 70
     0
 71
     3
 72
     0
 73
     0
 74
    33
 44
0.0000000001
 11
-0.7116377952755906
 21
3.7384330708661415
 31
0.0
 11
-0.7062559055118111
 21
3.6478149606299213
 31
0.0
 11
-0.6921614173228347
 21
3.5673622047244096
 31
0.0
 11
-0.6700787401574804
 21
3.4963188976377952
 31
0.0
 11
-0.640740157480315
 21
3.4339645669291339
 31
0.0
 11
-0.6048661417322835
 21
3.3795393700787399
 31
0.0
 11
-0.5631889763779527
 21
3.3323267716535434
 31
0.0
 11
-0.5164330708661418
 21
3.2915748031496062
 31
0.0
 11
-0.4653385826771654
 21
3.2565551181102363
 31
0.0
 11
-0.4106141732283465
 21
3.2265157480314959
 31
0.0
 11
-0.353003937007874
 21
3.2007283464566929
 31
0.0
 11
-0.2932283464566929
 21
3.178452755905512
 31
0.0
 11
-0.2320157480314961
 21
3.15896062992126
 31
0.0
 11
-0.1700944881889764
 21
3.1415000000000002
 31
0.0
 11
-0.1081968503937008
 21
3.1253385826771654
 31
0.0
 11
-0.0470472440944882
 21
3.109736220472441
 31
0.0
 11
0.0126220472440945
 21
3.093964566929134
 31
0.0
 11
0.0730708661417323
 21
3.0784409448818897
 31
0.0
 11
0.1365118110236221
 21
3.0635944881889765
 31
0.0
 11
0.2021181102362205
 21
3.0486456692913384
 31
0.0
 11
0.2690866141732283
 21
3.0328228346456694
 31
0.0
 11
0.3365905511811024
 21
3.0153425196850394
 31
0.0
 11
0.4038307086614174
 21
2.9954370078740156
 31
0.0
 11
0.469984251968504
 21
2.9723267716535431
 31
0.0
 11
0.534244094488189
 21
2.9452559055118108
 31
0.0
 11
0.5957834645669291
 21
2.9134251968503939
 31
0.0
 11
0.6538031496062993
 21
2.8760708661417325
 31
0.0
 11
0.7074803149606299
 21
2.8324173228346456
 31
0.0
 11
0.756011811023622
 21
2.7817007874015749
 31
0.0
 11
0.7985708661417323
 21
2.7231299212598423
 31
0.0
 11
0.8343543307086614
 21
2.6559448818897637
 31
0.0
 11
0.8625433070866142
 21
2.5793582677165356
 31
0.0
 11
0.8823346456692913
 21
2.4926141732283464
 31
0.0
  0
MTEXT
  5
2A
100
AcDbEntity
  8
0
 62
     0
100
AcDbMText
 10
-1.411898
 20
2.264213
 30
0.0
 40
0.166665
 41
0.0
 71
     1
 72
     1
  1
{\fBookman Old Style|b0|i0|c0|p32;BA  1462}
 73
     1
 44
1.0
  0
MTEXT
  5
2B
100
AcDbEntity
  8
0
 62
     0
100
AcDbMText
 10
-1.411898
 20
2.076713
 30
0.0
 40
0.166665
 41
0.0
 71
     1
 72
     1
  1
{\fBookman Old Style|b0|i0|c0|p32;1-1/2" x 2-3/4"}
 73
     1
 44
1.0
  0
LWPOLYLINE
  5
2C
100
AcDbEntity
  8
0
 62
   254
100
AcDbPolyline
 90
        2
 70
     0
 39
0.003
 10
-0.843169
 20
-0.885437
 40
0.003
 41
0.003
 10
-0.191091
 20
-1.26789
 40
0.003
 41
0.003
  0
LWPOLYLINE
  5
2D
100
AcDbEntity
  8
0
 62
   254
100
AcDbPolyline
 90
        2
 70
     0
 39
0.003
 10
-0.191091
 20
-1.26789
 40
0.003
 41
0.003
 10
-0.191091
 20
-1.770492
 40
0.003
 41
0.003
  0
LWPOLYLINE
  5
2E
100
AcDbEntity
  8
0
 62
   254
100
AcDbPolyline
 90
        2
 70
     0
 39
0.003
 10
-0.191091
 20
-1.770492
 40
0.003
 41
0.003
 10
-0.843169
 20
-1.388039
 40
0.003
 41
0.003
  0
LWPOLYLINE
  5
2F
100
AcDbEntity
  8
0
 62
   254
100
AcDbPolyline
 90
        2
 70
     0
 39
0.003
 10
-0.843169
 20
-1.388039
 40
0.003
 41
0.003
 10
-0.843169
 20
-0.885437
 40
0.003
 41
0.003
  0
LWPOLYLINE
  5
30
100
AcDbEntity
  8
0
 62
     0
100
AcDbPolyline
 90
        2
 70
     0
 39
0.003
 10
-0.843169
 20
-0.885437
 40
0.003
 41
0.003
 10
-0.191091
 20
-1.26789
 40
0.003
 41
0.003
  0
LWPOLYLINE
  5
31
100
AcDbEntity
  8
0
 62
     0
100
AcDbPolyline
 90
        2
 70
     0
 39
0.003
 10
-0.191091
 20
-1.26789
 40
0.003
 41
0.003
 10
-0.191091
 20
-1.770492
 40
0.003
 41
0.003
  0
LWPOLYLINE
  5
32
100
AcDbEntity
  8
0
 62
     0
100
AcDbPolyline
 90
        2
 70
     0
 39
0.003
 10
-0.191091
 20
-1.770492
 40
0.003
 41
0.003
 10
-0.843169
 20
-1.388039
 40
0.003
 41
0.003
  0
LWPOLYLINE
  5
33
100
AcDbEntity
  8
0
 62
     0
100
AcDbPolyline
 90
        2
 70
     0
 39
0.003
 10
-0.843169
 20
-1.388039
 40
0.003
 41
0.003
 10
-0.843169
 20
-0.885437
 40
0.003
 41
0.003
  0
LWPOLYLINE
  5
34
100
AcDbEntity
  8
0
 62
   254
100
AcDbPolyline
 90
        2
 70
     0
 39
0.003
 10
-0.843169
 20
-1.388039
 40
0.003
 41
0.003
 10
-0.191091
 20
-1.770492
 40
0.003
 41
0.003
  0
LWPOLYLINE
  5
35
100
AcDbEntity
  8
0
 62
   254
100
AcDbPolyline
 90
        2
 70
     0
 39
0.003
 10
-0.191091
 20
-1.770492
 40
0.003
 41
0.003
 10
-0.440114
 20
-1.770492
 40
0.003
 41
0.003
  0
LWPOLYLINE
  5
36
100
AcDbEntity
  8
0
 62
   254
100
AcDbPolyline
 90
        2
 70
     0
 39
0.003
 10
-0.440114
 20
-1.770492
 40
0.003
 41
0.003
 10
-1.092193
 20
-1.388039
 40
0.003
 41
0.003
  0
LWPOLYLINE
  5
37
100
AcDbEntity
  8
0
 62
   254
100
AcDbPolyline
 90
        2
 70
     0
 39
0.003
 10
-1.092193
 20
-1.388039
 40
0.003
 41
0.003
 10
-0.843169
 20
-1.388039
 40
0.003
 41
0.003
  0
LWPOLYLINE
  5
38
100
AcDbEntity
  8
0
 62
     0
100
AcDbPolyline
 90
        2
 70
     0
 39
0.003
 10
-0.843169
 20
-1.388039
 40
0.003
 41
0.003
 10
-0.191091
 20
-1.770492
 40
0.003
 41
0.003
  0
LWPOLYLINE
  5
39
100
AcDbEntity
  8
0
 62
     0
100
AcDbPolyline
 90
        2
 70
     0
 39
0.003
 10
-0.191091
 20
-1.770492
 40
0.003
 41
0.003
 10
-0.440114
 20
-1.770492
 40
0.003
 41
0.003
  0
LWPOLYLINE
  5
3A
100
AcDbEntity
  8
0
 62
     0
100
AcDbPolyline
 90
        2
 70
     0
 39
0.003
 10
-0.440114
 20
-1.770492
 40
0.003
 41
0.003
 10
-1.092193
 20
-1.388039
 40
0.003
 41
0.003
  0
LWPOLYLINE
  5
3B
100
AcDbEntity
  8
0
 62
     0
100
AcDbPolyline
 90
        2
 70
     0
 39
0.003
 10
-1.092193
 20
-1.388039
 40
0.003
 41
0.003
 10
-0.843169
 20
-1.388039
 40
0.003
 41
0.003
  0
LWPOLYLINE
  5
3C
100
AcDbEntity
  8
0
 62
   254
100
AcDbPolyline
 90
        2
 70
     0
 39
0.003
 10
0.40265
 20
1.211835
 40
0.003
 41
0.003
 10
1.054728
 20
0.829382
 40
0.003
 41
0.003
  0
LWPOLYLINE
  5
3D
100
AcDbEntity
  8
0
 62
   254
100
AcDbPolyline
 90
        2
 70
     0
 39
0.003
 10
1.054728
 20
0.829382
 40
0.003
 41
0.003
 10
1.054728
 20
0.326083
 40
0.003
 41
0.003
  0
LWPOLYLINE
  5
3E
100
AcDbEntity
  8
0
 62
   254
100
AcDbPolyline
 90
        2
 70
     0
 39
0.003
 10
1.054728
 20
0.326083
 40
0.003
 41
0.003
 10
0.40265
 20
0.708535
 40
0.003
 41
0.003
  0
LWPOLYLINE
  5
3F
100
AcDbEntity
  8
0
 62
   254
100
AcDbPolyline
 90
        2
 70
     0
 39
0.003
 10
0.40265
 20
0.708535
 40
0.003
 41
0.003
 10
0.40265
 20
1.211835
 40
0.003
 41
0.003
  0
LWPOLYLINE
  5
40
100
AcDbEntity
  8
0
 62
     0
100
AcDbPolyline
 90
        2
 70
     0
 39
0.003
 10
0.40265
 20
1.211835
 40
0.003
 41
0.003
 10
1.054728
 20
0.829382
 40
0.003
 41
0.003
  0
LWPOLYLINE
  5
41
100
AcDbEntity
  8
0
 62
     0
100
AcDbPolyline
 90
        2
 70
     0
 39
0.003
 10
1.054728
 20
0.829382
 40
0.003
 41
0.003
 10
1.054728
 20
0.326083
 40
0.003
 41
0.003
  0
LWPOLYLINE
  5
42
100
AcDbEntity
  8
0
 62
     0
100
AcDbPolyline
 90
        2
 70
     0
 39
0.003
 10
1.054728
 20
0.326083
 40
0.003
 41
0.003
 10
0.40265
 20
0.708535
 40
0.003
 41
0.003
  0
LWPOLYLINE
  5
43
100
AcDbEntity
  8
0
 62
     0
100
AcDbPolyline
 90
        2
 70
     0
 39
0.003
 10
0.40265
 20
0.708535
 40
0.003
 41
0.003
 10
0.40265
 20
1.211835
 40
0.003
 41
0.003
  0
LWPOLYLINE
  5
44
100
AcDbEntity
  8
0
 62
   254
100
AcDbPolyline
 90
        2
 70
     0
 39
0.003
 10
0.40265
 20
0.708535
 40
0.003
 41
0.003
 10
1.054728
 20
0.326083
 40
0.003
 41
0.003
  0
LWPOLYLINE
  5
45
100
AcDbEntity
  8
0
 62
   254
100
AcDbPolyline
 90
        2
 70
     0
 39
0.003
 10
1.054728
 20
0.326083
 40
0.003
 41
0.003
 10
1.008102
 20
0.324524
 40
0.003
 41
0.003
  0
LWPOLYLINE
  5
46
100
AcDbEntity
  8
0
 62
   254
100
AcDbPolyline
 90
        2
 70
     0
 39
0.003
 10
1.008102
 20
0.324524
 40
0.003
 41
0.003
 10
0.356024
 20
0.706976
 40
0.003
 41
0.003
  0
LWPOLYLINE
  5
47
100
AcDbEntity
  8
0
 62
   254
100
AcDbPolyline
 90
        2
 70
     0
 39
0.003
 10
0.356024
 20
0.706976
 40
0.003
 41
0.003
 10
0.40265
 20
0.708535
 40
0.003
 41
0.003
  0
LWPOLYLINE
  5
48
100
AcDbEntity
  8
0
 62
   254
100
AcDbPolyline
 90
        2
 70
     0
 39
0.003
 10
0.356024
 20
0.706976
 40
0.003
 41
0.003
 10
1.008102
 20
0.324524
 40
0.003
 41
0.003
  0
LWPOLYLINE
  5
49
100
AcDbEntity
  8
0
 62
   254
100
AcDbPolyline
 90
        2
 70
     0
 39
0.003
 10
1.008102
 20
0.324524
 40
0.003
 41
0.003
 10
0.96411
 20
0.320701
 40
0.003
 41
0.003
  0
LWPOLYLINE
  5
4A
100
AcDbEntity
  8
0
 62
   254
100
AcDbPolyline
 90
        2
 70
     0
 39
0.003
 10
0.96411
 20
0.320701
 40
0.003
 41
0.003
 10
0.312031
 20
0.703154
 40
0.003
 41
0.003
  0
LWPOLYLINE
  5
4B
100
AcDbEntity
  8
0
 62
   254
100
AcDbPolyline
 90
        2
 70
     0
 39
0.003
 10
0.312031
 20
0.703154
 40
0.003
 41
0.003
 10
0.356024
 20
0.706976
 40
0.003
 41
0.003
  0
LWPOLYLINE
  5
4C
100
AcDbEntity
  8
0
 62
   254
100
AcDbPolyline
 90
        2
 70
     0
 39
0.003
 10
0.312031
 20
0.703154
 40
0.003
 41
0.003
 10
0.96411
 20
0.320701
 40
0.003
 41
0.003
  0
LWPOLYLINE
  5
4D
100
AcDbEntity
  8
0
 62
   254
100
AcDbPolyline
 90
        2
 70
     0
 39
0.003
 10
0.96411
 20
0.320701
 40
0.003
 41
0.003
 10
0.922657
 20
0.314693
 40
0.003
 41
0.003
  0
LWPOLYLINE
  5
4E
100
AcDbEntity
  8
0
 62
   254
100
AcDbPolyline
 90
        2
 70
     0
 39
0.003
 10
0.922657
 20
0.314693
 40
0.003
 41
0.003
 10
0.270579
 20
0.697146
 40
0.003
 41
0.003
  0
LWPOLYLINE
  5
4F
100
AcDbEntity
  8
0
 62
   254
100
AcDbPolyline
 90
        2
 70
     0
 39
0.003
 10
0.270579
 20
0.697146
 40
0.003
 41
0.003
 10
0.312031
 20
0.703154
 40
0.003
 41
0.003
  0
LWPOLYLINE
  5
50
100
AcDbEntity
  8
0
 62
   254
100
AcDbPolyline
 90
        2
 70
     0
 39
0.003
 10
0.270579
 20
0.697146
 40
0.003
 41
0.003
 10
0.922657
 20
0.314693
 40
0.003
 41
0.003
  0
LWPOLYLINE
  5
51
100
AcDbEntity
  8
0
 62
   254
100
AcDbPolyline
 90
        2
 70
     0
 39
0.003
 10
0.922657
 20
0.314693
 40
0.003
 41
0.003
 10
0.883657
 20
0.306606
 40
0.003
 41
0.003
  0
LWPOLYLINE
  5
52
100
AcDbEntity
  8
0
 62
   254
100
AcDbPolyline
 90
        2
 70
     0
 39
0.003
 10
0.883657
 20
0.306606
 40
0.003
 41
0.003
 10
0.231579
 20
0.689059
 40
0.003
 41
0.003
  0
LWPOLYLINE
  5
53
100
AcDbEntity
  8
0
 62
   254
100
AcDbPolyline
 90
        2
 70
     0
 39
0.003
 10
0.231579
 20
0.689059
 40
0.003
 41
0.003
 10
0.270579
 20
0.697146
 40
0.003
 41
0.003
  0
LWPOLYLINE
  5
54
100
AcDbEntity
  8
0
 62
   254
100
AcDbPolyline
 90
        2
 70
     0
 39
0.003
 10
0.231579
 20
0.689059
 40
0.003
 41
0.003
 10
0.883657
 20
0.306606
 40
0.003
 41
0.003
  0
LWPOLYLINE
  5
55
100
AcDbEntity
  8
0
 62
   254
100
AcDbPolyline
 90
        2
 70
     0
 39
0.003
 10
0.883657
 20
0.306606
 40
0.003
 41
0.003
 10
0.847
 20
0.296516
 40
0.003
 41
0.003
  0
LWPOLYLINE
  5
56
100
AcDbEntity
  8
0
 62
   254
100
AcDbPolyline
 90
        2
 70
     0
 39
0.003
 10
0.847
 20
0.296516
 40
0.003
 41
0.003
 10
0.194921
 20
0.678969
 40
0.003
 41
0.003
  0
LWPOLYLINE
  5
57
100
AcDbEntity
  8
0
 62
   254
100
AcDbPolyline
 90
        2
 70
     0
 39
0.003
 10
0.194921
 20
0.678969
 40
0.003
 41
0.003
 10
0.231579
 20
0.689059
 40
0.003
 41
0.003
  0
LWPOLYLINE
  5
58
100
AcDbEntity
  8
0
 62
   254
100
AcDbPolyline
 90
        2
 70
     0
 39
0.003
 10
0.194921
 20
0.678969
 40
0.003
 41
0.003
 10
0.847
 20
0.296516
 40
0.003
 41
0.003
  0
LWPOLYLINE
  5
59
100
AcDbEntity
  8
0
 62
   254
100
AcDbPolyline
 90
        2
 70
     0
 39
0.003
 10
0.847
 20
0.296516
 40
0.003
 41
0.003
 10
0.812614
 20
0.284524
 40
0.003
 41
0.003
  0
LWPOLYLINE
  5
5A
100
AcDbEntity
  8
0
 62
   254
100
AcDbPolyline
 90
        2
 70
     0
 39
0.003
 10
0.812614
 20
0.284524
 40
0.003
 41
0.003
 10
0.160535
 20
0.666976
 40
0.003
 41
0.003
  0
LWPOLYLINE
  5
5B
100
AcDbEntity
  8
0
 62
   254
100
AcDbPolyline
 90
        2
 70
     0
 39
0.003
 10
0.160535
 20
0.666976
 40
0.003
 41
0.003
 10
0.194921
 20
0.678969
 40
0.003
 41
0.003
  0
LWPOLYLINE
  5
5C
100
AcDbEntity
  8
0
 62
   254
100
AcDbPolyline
 90
        2
 70
     0
 39
0.003
 10
0.160535
 20
0.666976
 40
0.003
 41
0.003
 10
0.812614
 20
0.284524
 40
0.003
 41
0.003
  0
LWPOLYLINE
  5
5D
100
AcDbEntity
  8
0
 62
   254
100
AcDbPolyline
 90
        2
 70
     0
 39
0.003
 10
0.812614
 20
0.284524
 40
0.003
 41
0.003
 10
0.780394
 20
0.270713
 40
0.003
 41
0.003
  0
LWPOLYLINE
  5
5E
100
AcDbEntity
  8
0
 62
   254
100
AcDbPolyline
 90
        2
 70
     0
 39
0.003
 10
0.780394
 20
0.270713
 40
0.003
 41
0.003
 10
0.128315
 20
0.653165
 40
0.003
 41
0.003
  0
LWPOLYLINE
  5
5F
100
AcDbEntity
  8
0
 62
   254
100
AcDbPolyline
 90
        2
 70
     0
 39
0.003
 10
0.128315
 20
0.653165
 40
0.003
 41
0.003
 10
0.160535
 20
0.666976
 40
0.003
 41
0.003
  0
LWPOLYLINE
  5
60
100
AcDbEntity
  8
0
 62
   254
100
AcDbPolyline
 90
        2
 70
     0
 39
0.003
 10
0.128315
 20
0.653165
 40
0.003
 41
0.003
 10
0.780394
 20
0.270713
 40
0.003
 41
0.003
  0
LWPOLYLINE
  5
61
100
AcDbEntity
  8
0
 62
   254
100
AcDbPolyline
 90
        2
 70
     0
 39
0.003
 10
0.780394
 20
0.270713
 40
0.003
 41
0.003
 10
0.75026
 20
0.255185
 40
0.003
 41
0.003
  0
LWPOLYLINE
  5
62
100
AcDbEntity
  8
0
 62
   254
100
AcDbPolyline
 90
        2
 70
     0
 39
0.003
 10
0.75026
 20
0.255185
 40
0.003
 41
0.003
 10
0.098181
 20
0.637638
 40
0.003
 41
0.003
  0
LWPOLYLINE
  5
63
100
AcDbEntity
  8
0
 62
   254
100
AcDbPolyline
 90
        2
 70
     0
 39
0.003
 10
0.098181
 20
0.637638
 40
0.003
 41
0.003
 10
0.128315
 20
0.653165
 40
0.003
 41
0.003
  0
LWPOLYLINE
  5
64
100
AcDbEntity
  8
0
 62
   254
100
AcDbPolyline
 90
        2
 70
     0
 39
0.003
 10
0.098181
 20
0.637638
 40
0.003
 41
0.003
 10
0.75026
 20
0.255185
 40
0.003
 41
0.003
  0
LWPOLYLINE
  5
65
100
AcDbEntity
  8
0
 62
   254
100
AcDbPolyline
 90
        2
 70
     0
 39
0.003
 10
0.75026
 20
0.255185
 40
0.003
 41
0.003
 10
0.722098
 20
0.238016
 40
0.003
 41
0.003
  0
LWPOLYLINE
  5
66
100
AcDbEntity
  8
0
 62
   254
100
AcDbPolyline
 90
        2
 70
     0
 39
0.003
 10
0.722098
 20
0.238016
 40
0.003
 41
0.003
 10
0.07002
 20
0.620469
 40
0.003
 41
0.003
  0
LWPOLYLINE
  5
67
100
AcDbEntity
  8
0
 62
   254
100
AcDbPolyline
 90
        2
 70
     0
 39
0.003
 10
0.07002
 20
0.620469
 40
0.003
 41
0.003
 10
0.098181
 20
0.637638
 40
0.003
 41
0.003
  0
LWPOLYLINE
  5
68
100
AcDbEntity
  8
0
 62
   254
100
AcDbPolyline
 90
        2
 70
     0
 39
0.003
 10
0.07002
 20
0.620469
 40
0.003
 41
0.003
 10
0.722098
 20
0.238016
 40
0.003
 41
0.003
  0
LWPOLYLINE
  5
69
100
AcDbEntity
  8
0
 62
   254
100
AcDbPolyline
 90
        2
 70
     0
 39
0.003
 10
0.722098
 20
0.238016
 40
0.003
 41
0.003
 10
0.695835
 20
0.219311
 40
0.003
 41
0.003
  0
LWPOLYLINE
  5
6A
100
AcDbEntity
  8
0
 62
   254
100
AcDbPolyline
 90
        2
 70
     0
 39
0.003
 10
0.695835
 20
0.219311
 40
0.003
 41
0.003
 10
0.043756
 20
0.601764
 40
0.003
 41
0.003
  0
LWPOLYLINE
  5
6B
100
AcDbEntity
  8
0
 62
   254
100
AcDbPolyline
 90
        2
 70
     0
 39
0.003
 10
0.043756
 20
0.601764
 40
0.003
 41
0.003
 10
0.07002
 20
0.620469
 40
0.003
 41
0.003
  0
LWPOLYLINE
  5
6C
100
AcDbEntity
  8
0
 62
   254
100
AcDbPolyline
 90
        2
 70
     0
 39
0.003
 10
0.043756
 20
0.601764
 40
0.003
 41
0.003
 10
0.695835
 20
0.219311
 40
0.003
 41
0.003
  0
LWPOLYLINE
  5
6D
100
AcDbEntity
  8
0
 62
   254
100
AcDbPolyline
 90
        2
 70
     0
 39
0.003
 10
0.695835
 20
0.219311
 40
0.003
 41
0.003
 10
0.67137
 20
0.19915
 40
0.003
 41
0.003
  0
LWPOLYLINE
  5
6E
100
AcDbEntity
  8
0
 62
   254
100
AcDbPolyline
 90
        2
 70
     0
 39
0.003
 10
0.67137
 20
0.19915
 40
0.003
 41
0.003
 10
0.019291
 20
0.581602
 40
0.003
 41
0.003
  0
LWPOLYLINE
  5
6F
100
AcDbEntity
  8
0
 62
   254
100
AcDbPolyline
 90
        2
 70
     0
 39
0.003
 10
0.019291
 20
0.581602
 40
0.003
 41
0.003
 10
0.043756
 20
0.601764
 40
0.003
 41
0.003
  0
LWPOLYLINE
  5
70
100
AcDbEntity
  8
0
 62
   254
100
AcDbPolyline
 90
        2
 70
     0
 39
0.003
 10
0.019291
 20
0.581602
 40
0.003
 41
0.003
 10
0.67137
 20
0.19915
 40
0.003
 41
0.003
  0
LWPOLYLINE
  5
71
100
AcDbEntity
  8
0
 62
   254
100
AcDbPolyline
 90
        2
 70
     0
 39
0.003
 10
0.67137
 20
0.19915
 40
0.003
 41
0.003
 10
0.648622
 20
0.177634
 40
0.003
 41
0.003
  0
LWPOLYLINE
  5
72
100
AcDbEntity
  8
0
 62
   254
100
AcDbPolyline
 90
        2
 70
     0
 39
0.003
 10
0.648622
 20
0.177634
 40
0.003
 41
0.003
 10
-0.003457
 20
0.560087
 40
0.003
 41
0.003
  0
LWPOLYLINE
  5
73
100
AcDbEntity
  8
0
 62
   254
100
AcDbPolyline
 90
        2
 70
     0
 39
0.003
 10
-0.003457
 20
0.560087
 40
0.003
 41
0.003
 10
0.019291
 20
0.581602
 40
0.003
 41
0.003
  0
LWPOLYLINE
  5
74
100
AcDbEntity
  8
0
 62
   254
100
AcDbPolyline
 90
        2
 70
     0
 39
0.003
 10
-0.003457
 20
0.560087
 40
0.003
 41
0.003
 10
0.648622
 20
0.177634
 40
0.003
 41
0.003
  0
LWPOLYLINE
  5
75
100
AcDbEntity
  8
0
 62
   254
100
AcDbPolyline
 90
        2
 70
     0
 39
0.003
 10
0.648622
 20
0.177634
 40
0.003
 41
0.003
 10
0.62748
 20
0.154843
 40
0.003
 41
0.003
  0
LWPOLYLINE
  5
76
100
AcDbEntity
  8
0
 62
   254
100
AcDbPolyline
 90
        2
 70
     0
 39
0.003
 10
0.62748
 20
0.154843
 40
0.003
 41
0.003
 10
-0.024598
 20
0.537295
 40
0.003
 41
0.003
  0
LWPOLYLINE
  5
77
100
AcDbEntity
  8
0
 62
   254
100
AcDbPolyline
 90
        2
 70
     0
 39
0.003
 10
-0.024598
 20
0.537295
 40
0.003
 41
0.003
 10
-0.003457
 20
0.560087
 40
0.003
 41
0.003
  0
LWPOLYLINE
  5
78
100
AcDbEntity
  8
0
 62
   254
100
AcDbPolyline
 90
        2
 70
     0
 39
0.003
 10
-0.024598
 20
0.537295
 40
0.003
 41
0.003
 10
0.62748
 20
0.154843
 40
0.003
 41
0.003
  0
LWPOLYLINE
  5
79
100
AcDbEntity
  8
0
 62
   254
100
AcDbPolyline
 90
        2
 70
     0
 39
0.003
 10
0.62748
 20
0.154843
 40
0.003
 41
0.003
 10
0.60787
 20
0.130878
 40
0.003
 41
0.003
  0
LWPOLYLINE
  5
7A
100
AcDbEntity
  8
0
 62
   254
100
AcDbPolyline
 90
        2
 70
     0
 39
0.003
 10
0.60787
 20
0.130878
 40
0.003
 41
0.003
 10
-0.044209
 20
0.513331
 40
0.003
 41
0.003
  0
LWPOLYLINE
  5
7B
100
AcDbEntity
  8
0
 62
   254
100
AcDbPolyline
 90
        2
 70
     0
 39
0.003
 10
-0.044209
 20
0.513331
 40
0.003
 41
0.003
 10
-0.024598
 20
0.537295
 40
0.003
 41
0.003
  0
LWPOLYLINE
  5
7C
100
AcDbEntity
  8
0
 62
   254
100
AcDbPolyline
 90
        2
 70
     0
 39
0.003
 10
-0.044209
 20
0.513331
 40
0.003
 41
0.003
 10
0.60787
 20
0.130878
 40
0.003
 41
0.003
  0
LWPOLYLINE
  5
7D
100
AcDbEntity
  8
0
 62
   254
100
AcDbPolyline
 90
        2
 70
     0
 39
0.003
 10
0.60787
 20
0.130878
 40
0.003
 41
0.003
 10
0.589685
 20
0.105827
 40
0.003
 41
0.003
  0
LWPOLYLINE
  5
7E
100
AcDbEntity
  8
0
 62
   254
100
AcDbPolyline
 90
        2
 70
     0
 39
0.003
 10
0.589685
 20
0.105827
 40
0.003
 41
0.003
 10
-0.062394
 20
0.48828
 40
0.003
 41
0.003
  0
LWPOLYLINE
  5
7F
100
AcDbEntity
  8
0
 62
   254
100
AcDbPolyline
 90
        2
 70
     0
 39
0.003
 10
-0.062394
 20
0.48828
 40
0.003
 41
0.003
 10
-0.044209
 20
0.513331
 40
0.003
 41
0.003
  0
LWPOLYLINE
  5
80
100
AcDbEntity
  8
0
 62
   254
100
AcDbPolyline
 90
        2
 70
     0
 39
0.003
 10
-0.062394
 20
0.48828
 40
0.003
 41
0.003
 10
0.589685
 20
0.105827
 40
0.003
 41
0.003
  0
LWPOLYLINE
  5
81
100
AcDbEntity
  8
0
 62
   254
100
AcDbPolyline
 90
        2
 70
     0
 39
0.003
 10
0.589685
 20
0.105827
 40
0.003
 41
0.003
 10
0.57285
 20
0.079783
 40
0.003
 41
0.003
  0
LWPOLYLINE
  5
82
100
AcDbEntity
  8
0
 62
   254
100
AcDbPolyline
 90
        2
 70
     0
 39
0.003
 10
0.57285
 20
0.079783
 40
0.003
 41
0.003
 10
-0.079228
 20
0.462236
 40
0.003
 41
0.003
  0
LWPOLYLINE
  5
83
100
AcDbEntity
  8
0
 62
   254
100
AcDbPolyline
 90
        2
 70
     0
 39
0.003
 10
-0.079228
 20
0.462236
 40
0.003
 41
0.003
 10
-0.062394
 20
0.48828
 40
0.003
 41
0.003
  0
LWPOLYLINE
  5
84
100
AcDbEntity
  8
0
 62
   254
100
AcDbPolyline
 90
        2
 70
     0
 39
0.003
 10
-0.079228
 20
0.462236
 40
0.003
 41
0.003
 10
0.57285
 20
0.079783
 40
0.003
 41
0.003
  0
LWPOLYLINE
  5
85
100
AcDbEntity
  8
0
 62
   254
100
AcDbPolyline
 90
        2
 70
     0
 39
0.003
 10
0.57285
 20
0.079783
 40
0.003
 41
0.003
 10
0.557248
 20
0.052827
 40
0.003
 41
0.003
  0
LWPOLYLINE
  5
86
100
AcDbEntity
  8
0
 62
   254
100
AcDbPolyline
 90
        2
 70
     0
 39
0.003
 10
0.557248
 20
0.052827
 40
0.003
 41
0.003
 10
-0.094831
 20
0.43528
 40
0.003
 41
0.003
  0
LWPOLYLINE
  5
87
100
AcDbEntity
  8
0
 62
   254
100
AcDbPolyline
 90
        2
 70
     0
 39
0.003
 10
-0.094831
 20
0.43528
 40
0.003
 41
0.003
 10
-0.079228
 20
0.462236
 40
0.003
 41
0.003
  0
LWPOLYLINE
  5
88
100
AcDbEntity
  8
0
 62
   254
100
AcDbPolyline
 90
        2
 70
     0
 39
0.003
 10
-0.094831
 20
0.43528
 40
0.003
 41
0.003
 10
0.557248
 20
0.052827
 40
0.003
 41
0.003
  0
LWPOLYLINE
  5
89
100
AcDbEntity
  8
0
 62
   254
100
AcDbPolyline
 90
        2
 70
     0
 39
0.003
 10
0.557248
 20
0.052827
 40
0.003
 41
0.003
 10
0.542811
 20
0.025059
 40
0.003
 41
0.003
  0
LWPOLYLINE
  5
8A
100
AcDbEntity
  8
0
 62
   254
100
AcDbPolyline
 90
        2
 70
     0
 39
0.003
 10
0.542811
 20
0.025059
 40
0.003
 41
0.003
 10
-0.109268
 20
0.407512
 40
0.003
 41
0.003
  0
LWPOLYLINE
  5
8B
100
AcDbEntity
  8
0
 62
   254
100
AcDbPolyline
 90
        2
 70
     0
 39
0.003
 10
-0.109268
 20
0.407512
 40
0.003
 41
0.003
 10
-0.094831
 20
0.43528
 40
0.003
 41
0.003
  0
LWPOLYLINE
  5
8C
100
AcDbEntity
  8
0
 62
   254
100
AcDbPolyline
 90
        2
 70
     0
 39
0.003
 10
-0.109268
 20
0.407512
 40
0.003
 41
0.003
 10
0.542811
 20
0.025059
 40
0.003
 41
0.003
  0
LWPOLYLINE
  5
8D
100
AcDbEntity
  8
0
 62
   254
100
AcDbPolyline
 90
        2
 70
     0
 39
0.003
 10
0.542811
 20
0.025059
 40
0.003
 41
0.003
 10
0.529429
 20
-0.003429
 40
0.003
 41
0.003
  0
LWPOLYLINE
  5
8E
100
AcDbEntity
  8
0
 62
   254
100
AcDbPolyline
 90
        2
 70
     0
 39
0.003
 10
0.529429
 20
-0.003429
 40
0.003
 41
0.003
 10
-0.12265
 20
0.379024
 40
0.003
 41
0.003
  0
LWPOLYLINE
  5
8F
100
AcDbEntity
  8
0
 62
   254
100
AcDbPolyline
 90
        2
 70
     0
 39
0.003
 10
-0.12265
 20
0.379024
 40
0.003
 41
0.003
 10
-0.109268
 20
0.407512
 40
0.003
 41
0.003
  0
LWPOLYLINE
  5
90
100
AcDbEntity
  8
0
 62
   254
100
AcDbPolyline
 90
        2
 70
     0
 39
0.003
 10
-0.12265
 20
0.379024
 40
0.003
 41
0.003
 10
0.529429
 20
-0.003429
 40
0.003
 41
0.003
  0
LWPOLYLINE
  5
91
100
AcDbEntity
  8
0
 62
   254
100
AcDbPolyline
 90
        2
 70
     0
 39
0.003
 10
0.529429
 20
-0.003429
 40
0.003
 41
0.003
 10
0.517024
 20
-0.032551
 40
0.003
 41
0.003
  0
LWPOLYLINE
  5
92
100
AcDbEntity
  8
0
 62
   254
100
AcDbPolyline
 90
        2
 70
     0
 39
0.003
 10
0.517024
 20
-0.032551
 40
0.003
 41
0.003
 10
-0.135055
 20
0.349902
 40
0.003
 41
0.003
  0
LWPOLYLINE
  5
93
100
AcDbEntity
  8
0
 62
   254
100
AcDbPolyline
 90
        2
 70
     0
 39
0.003
 10
-0.135055
 20
0.349902
 40
0.003
 41
0.003
 10
-0.12265
 20
0.379024
 40
0.003
 41
0.003
  0
LWPOLYLINE
  5
94
100
AcDbEntity
  8
0
 62
   254
100
AcDbPolyline
 90
        2
 70
     0
 39
0.003
 10
-0.135055
 20
0.349902
 40
0.003
 41
0.003
 10
0.517024
 20
-0.032551
 40
0.003
 41
0.003
  0
LWPOLYLINE
  5
95
100
AcDbEntity
  8
0
 62
   254
100
AcDbPolyline
 90
        2
 70
     0
 39
0.003
 10
0.517024
 20
-0.032551
 40
0.003
 41
0.003
 10
0.505492
 20
-0.062217
 40
0.003
 41
0.003
  0
LWPOLYLINE
  5
96
100
AcDbEntity
  8
0
 62
   254
100
AcDbPolyline
 90
        2
 70
     0
 39
0.003
 10
0.505492
 20
-0.062217
 40
0.003
 41
0.003
 10
-0.146587
 20
0.320236
 40
0.003
 41
0.003
  0
LWPOLYLINE
  5
97
100
AcDbEntity
  8
0
 62
   254
100
AcDbPolyline
 90
        2
 70
     0
 39
0.003
 10
-0.146587
 20
0.320236
 40
0.003
 41
0.003
 10
-0.135055
 20
0.349902
 40
0.003
 41
0.003
  0
LWPOLYLINE
  5
98
100
AcDbEntity
  8
0
 62
   254
100
AcDbPolyline
 90
        2
 70
     0
 39
0.003
 10
-0.146587
 20
0.320236
 40
0.003
 41
0.003
 10
0.505492
 20
-0.062217
 40
0.003
 41
0.003
  0
LWPOLYLINE
  5
99
100
AcDbEntity
  8
0
 62
   254
100
AcDbPolyline
 90
        2
 70
     0
 39
0.003
 10
0.505492
 20
-0.062217
 40
0.003
 41
0.003
 10
0.494748
 20
-0.092327
 40
0.003
 41
0.003
  0
LWPOLYLINE
  5
9A
100
AcDbEntity
  8
0
 62
   254
100
AcDbPolyline
 90
        2
 70
     0
 39
0.003
 10
0.494748
 20
-0.092327
 40
0.003
 41
0.003
 10
-0.157331
 20
0.290126
 40
0.003
 41
0.003
  0
LWPOLYLINE
  5
9B
100
AcDbEntity
  8
0
 62
   254
100
AcDbPolyline
 90
        2
 70
     0
 39
0.003
 10
-0.157331
 20
0.290126
 40
0.003
 41
0.003
 10
-0.146587
 20
0.320236
 40
0.003
 41
0.003
  0
LWPOLYLINE
  5
9C
100
AcDbEntity
  8
0
 62
   254
100
AcDbPolyline
 90
        2
 70
     0
 39
0.003
 10
-0.157331
 20
0.290126
 40
0.003
 41
0.003
 10
0.494748
 20
-0.092327
 40
0.003
 41
0.003
  0
LWPOLYLINE
  5
9D
100
AcDbEntity
  8
0
 62
   254
100
AcDbPolyline
 90
        2
 70
     0
 39
0.003
 10
0.494748
 20
-0.092327
 40
0.003
 41
0.003
 10
0.484701
 20
-0.122803
 40
0.003
 41
0.003
  0
LWPOLYLINE
  5
9E
100
AcDbEntity
  8
0
 62
   254
100
AcDbPolyline
 90
        2
 70
     0
 39
0.003
 10
0.484701
 20
-0.122803
 40
0.003
 41
0.003
 10
-0.167378
 20
0.25965
 40
0.003
 41
0.003
  0
LWPOLYLINE
  5
9F
100
AcDbEntity
  8
0
 62
   254
100
AcDbPolyline
 90
        2
 70
     0
 39
0.003
 10
-0.167378
 20
0.25965
 40
0.003
 41
0.003
 10
-0.157331
 20
0.290126
 40
0.003
 41
0.003
  0
LWPOLYLINE
  5
A0
100
AcDbEntity
  8
0
 62
   254
100
AcDbPolyline
 90
        2
 70
     0
 39
0.003
 10
-0.167378
 20
0.25965
 40
0.003
 41
0.003
 10
0.484701
 20
-0.122803
 40
0.003
 41
0.003
  0
LWPOLYLINE
  5
A1
100
AcDbEntity
  8
0
 62
   254
100
AcDbPolyline
 90
        2
 70
     0
 39
0.003
 10
0.484701
 20
-0.122803
 40
0.003
 41
0.003
 10
0.475256
 20
-0.153539
 40
0.003
 41
0.003
  0
LWPOLYLINE
  5
A2
100
AcDbEntity
  8
0
 62
   254
100
AcDbPolyline
 90
        2
 70
     0
 39
0.003
 10
0.475256
 20
-0.153539
 40
0.003
 41
0.003
 10
-0.176823
 20
0.228913
 40
0.003
 41
0.003
  0
LWPOLYLINE
  5
A3
100
AcDbEntity
  8
0
 62
   254
100
AcDbPolyline
 90
        2
 70
     0
 39
0.003
 10
-0.176823
 20
0.228913
 40
0.003
 41
0.003
 10
-0.167378
 20
0.25965
 40
0.003
 41
0.003
  0
LWPOLYLINE
  5
A4
100
AcDbEntity
  8
0
 62
   254
100
AcDbPolyline
 90
        2
 70
     0
 39
0.003
 10
-0.176823
 20
0.228913
 40
0.003
 41
0.003
 10
0.475256
 20
-0.153539
 40
0.003
 41
0.003
  0
LWPOLYLINE
  5
A5
100
AcDbEntity
  8
0
 62
   254
100
AcDbPolyline
 90
        2
 70
     0
 39
0.003
 10
0.475256
 20
-0.153539
 40
0.003
 41
0.003
 10
0.466315
 20
-0.184461
 40
0.003
 41
0.003
  0
LWPOLYLINE
  5
A6
100
AcDbEntity
  8
0
 62
   254
100
AcDbPolyline
 90
        2
 70
     0
 39
0.003
 10
0.466315
 20
-0.184461
 40
0.003
 41
0.003
 10
-0.185764
 20
0.197992
 40
0.003
 41
0.003
  0
LWPOLYLINE
  5
A7
100
AcDbEntity
  8
0
 62
   254
100
AcDbPolyline
 90
        2
 70
     0
 39
0.003
 10
-0.185764
 20
0.197992
 40
0.003
 41
0.003
 10
-0.176823
 20
0.228913
 40
0.003
 41
0.003
  0
LWPOLYLINE
  5
A8
100
AcDbEntity
  8
0
 62
   254
100
AcDbPolyline
 90
        2
 70
     0
 39
0.003
 10
-0.185764
 20
0.197992
 40
0.003
 41
0.003
 10
0.466315
 20
-0.184461
 40
0.003
 41
0.003
  0
LWPOLYLINE
  5
A9
100
AcDbEntity
  8
0
 62
   254
100
AcDbPolyline
 90
        2
 70
     0
 39
0.003
 10
0.466315
 20
-0.184461
 40
0.003
 41
0.003
 10
0.457795
 20
-0.215461
 40
0.003
 41
0.003
  0
LWPOLYLINE
  5
AA
100
AcDbEntity
  8
0
 62
   254
100
AcDbPolyline
 90
        2
 70
     0
 39
0.003
 10
0.457795
 20
-0.215461
 40
0.003
 41
0.003
 10
-0.194283
 20
0.166992
 40
0.003
 41
0.003
  0
LWPOLYLINE
  5
AB
100
AcDbEntity
  8
0
 62
   254
100
AcDbPolyline
 90
        2
 70
     0
 39
0.003
 10
-0.194283
 20
0.166992
 40
0.003
 41
0.003
 10
-0.185764
 20
0.197992
 40
0.003
 41
0.003
  0
LWPOLYLINE
  5
AC
100
AcDbEntity
  8
0
 62
   254
100
AcDbPolyline
 90
        2
 70
     0
 39
0.003
 10
-0.194283
 20
0.166992
 40
0.003
 41
0.003
 10
0.457795
 20
-0.215461
 40
0.003
 41
0.003
  0
LWPOLYLINE
  5
AD
100
AcDbEntity
  8
0
 62
   254
100
AcDbPolyline
 90
        2
 70
     0
 39
0.003
 10
0.457795
 20
-0.215461
 40
0.003
 41
0.003
 10
0.449594
 20
-0.246461
 40
0.003
 41
0.003
  0
LWPOLYLINE
  5
AE
100
AcDbEntity
  8
0
 62
   254
100
AcDbPolyline
 90
        2
 70
     0
 39
0.003
 10
0.449594
 20
-0.246461
 40
0.003
 41
0.003
 10
-0.202484
 20
0.135992
 40
0.003
 41
0.003
  0
LWPOLYLINE
  5
AF
100
AcDbEntity
  8
0
 62
   254
100
AcDbPolyline
 90
        2
 70
     0
 39
0.003
 10
-0.202484
 20
0.135992
 40
0.003
 41
0.003
 10
-0.194283
 20
0.166992
 40
0.003
 41
0.003
  0
LWPOLYLINE
  5
B0
100
AcDbEntity
  8
0
 62
   254
100
AcDbPolyline
 90
        2
 70
     0
 39
0.003
 10
-0.202484
 20
0.135992
 40
0.003
 41
0.003
 10
0.449594
 20
-0.246461
 40
0.003
 41
0.003
  0
LWPOLYLINE
  5
B1
100
AcDbEntity
  8
0
 62
   254
100
AcDbPolyline
 90
        2
 70
     0
 39
0.003
 10
0.449594
 20
-0.246461
 40
0.003
 41
0.003
 10
0.441634
 20
-0.277358
 40
0.003
 41
0.003
  0
LWPOLYLINE
  5
B2
100
AcDbEntity
  8
0
 62
   254
100
AcDbPolyline
 90
        2
 70
     0
 39
0.003
 10
0.441634
 20
-0.277358
 40
0.003
 41
0.003
 10
-0.210445
 20
0.105094
 40
0.003
 41
0.003
  0
LWPOLYLINE
  5
B3
100
AcDbEntity
  8
0
 62
   254
100
AcDbPolyline
 90
        2
 70
     0
 39
0.003
 10
-0.210445
 20
0.105094
 40
0.003
 41
0.003
 10
-0.202484
 20
0.135992
 40
0.003
 41
0.003
  0
LWPOLYLINE
  5
B4
100
AcDbEntity
  8
0
 62
   254
100
AcDbPolyline
 90
        2
 70
     0
 39
0.003
 10
-0.210445
 20
0.105094
 40
0.003
 41
0.003
 10
0.441634
 20
-0.277358
 40
0.003
 41
0.003
  0
LWPOLYLINE
  5
B5
100
AcDbEntity
  8
0
 62
   254
100
AcDbPolyline
 90
        2
 70
     0
 39
0.003
 10
0.441634
 20
-0.277358
 40
0.003
 41
0.003
 10
0.433807
 20
-0.308075
 40
0.003
 41
0.003
  0
LWPOLYLINE
  5
B6
100
AcDbEntity
  8
0
 62
   254
100
AcDbPolyline
 90
        2
 70
     0
 39
0.003
 10
0.433807
 20
-0.308075
 40
0.003
 41
0.003
 10
-0.218272
 20
0.074378
 40
0.003
 41
0.003
  0
LWPOLYLINE
  5
B7
100
AcDbEntity
  8
0
 62
   254
100
AcDbPolyline
 90
        2
 70
     0
 39
0.003
 10
-0.218272
 20
0.074378
 40
0.003
 41
0.003
 10
-0.210445
 20
0.105094
 40
0.003
 41
0.003
  0
LWPOLYLINE
  5
B8
100
AcDbEntity
  8
0
 62
   254
100
AcDbPolyline
 90
        2
 70
     0
 39
0.003
 10
-0.218272
 20
0.074378
 40
0.003
 41
0.003
 10
0.433807
 20
-0.308075
 40
0.003
 41
0.003
  0
LWPOLYLINE
  5
B9
100
AcDbEntity
  8
0
 62
   254
100
AcDbPolyline
 90
        2
 70
     0
 39
0.003
 10
0.433807
 20
-0.308075
 40
0.003
 41
0.003
 10
0.426031
 20
-0.3385
 40
0.003
 41
0.003
  0
LWPOLYLINE
  5
BA
100
AcDbEntity
  8
0
 62
   254
100
AcDbPolyline
 90
        2
 70
     0
 39
0.003
 10
0.426031
 20
-0.3385
 40
0.003
 41
0.003
 10
-0.226047
 20
0.043953
 40
0.003
 41
0.003
  0
LWPOLYLINE
  5
BB
100
AcDbEntity
  8
0
 62
   254
100
AcDbPolyline
 90
        2
 70
     0
 39
0.003
 10
-0.226047
 20
0.043953
 40
0.003
 41
0.003
 10
-0.218272
 20
0.074378
 40
0.003
 41
0.003
  0
LWPOLYLINE
  5
BC
100
AcDbEntity
  8
0
 62
   254
100
AcDbPolyline
 90
        2
 70
     0
 39
0.003
 10
-0.226047
 20
0.043953
 40
0.003
 41
0.003
 10
0.426031
 20
-0.3385
 40
0.003
 41
0.003
  0
LWPOLYLINE
  5
BD
100
AcDbEntity
  8
0
 62
   254
100
AcDbPolyline
 90
        2
 70
     0
 39
0.003
 10
0.426031
 20
-0.3385
 40
0.003
 41
0.003
 10
0.418213
 20
-0.368563
 40
0.003
 41
0.003
  0
LWPOLYLINE
  5
BE
100
AcDbEntity
  8
0
 62
   254
100
AcDbPolyline
 90
        2
 70
     0
 39
0.003
 10
0.418213
 20
-0.368563
 40
0.003
 41
0.003
 10
-0.233866
 20
0.01389
 40
0.003
 41
0.003
  0
LWPOLYLINE
  5
BF
100
AcDbEntity
  8
0
 62
   254
100
AcDbPolyline
 90
        2
 70
     0
 39
0.003
 10
-0.233866
 20
0.01389
 40
0.003
 41
0.003
 10
-0.226047
 20
0.043953
 40
0.003
 41
0.003
  0
LWPOLYLINE
  5
C0
100
AcDbEntity
  8
0
 62
   254
100
AcDbPolyline
 90
        2
 70
     0
 39
0.003
 10
-0.233866
 20
0.01389
 40
0.003
 41
0.003
 10
0.418213
 20
-0.368563
 40
0.003
 41
0.003
  0
LWPOLYLINE
  5
C1
100
AcDbEntity
  8
0
 62
   254
100
AcDbPolyline
 90
        2
 70
     0
 39
0.003
 10
0.418213
 20
-0.368563
 40
0.003
 41
0.003
 10
0.41026
 20
-0.398177
 40
0.003
 41
0.003
  0
LWPOLYLINE
  5
C2
100
AcDbEntity
  8
0
 62
   254
100
AcDbPolyline
 90
        2
 70
     0
 39
0.003
 10
0.41026
 20
-0.398177
 40
0.003
 41
0.003
 10
-0.241819
 20
-0.015724
 40
0.003
 41
0.003
  0
LWPOLYLINE
  5
C3
100
AcDbEntity
  8
0
 62
   254
100
AcDbPolyline
 90
        2
 70
     0
 39
0.003
 10
-0.241819
 20
-0.015724
 40
0.003
 41
0.003
 10
-0.233866
 20
0.01389
 40
0.003
 41
0.003
  0
LWPOLYLINE
  5
C4
100
AcDbEntity
  8
0
 62
   254
100
AcDbPolyline
 90
        2
 70
     0
 39
0.003
 10
-0.241819
 20
-0.015724
 40
0.003
 41
0.003
 10
0.41026
 20
-0.398177
 40
0.003
 41
0.003
  0
LWPOLYLINE
  5
C5
100
AcDbEntity
  8
0
 62
   254
100
AcDbPolyline
 90
        2
 70
     0
 39
0.003
 10
0.41026
 20
-0.398177
 40
0.003
 41
0.003
 10
0.402362
 20
-0.427972
 40
0.003
 41
0.003
  0
LWPOLYLINE
  5
C6
100
AcDbEntity
  8
0
 62
   254
100
AcDbPolyline
 90
        2
 70
     0
 39
0.003
 10
0.402362
 20
-0.427972
 40
0.003
 41
0.003
 10
-0.249717
 20
-0.04552
 40
0.003
 41
0.003
  0
LWPOLYLINE
  5
C7
100
AcDbEntity
  8
0
 62
   254
100
AcDbPolyline
 90
        2
 70
     0
 39
0.003
 10
-0.249717
 20
-0.04552
 40
0.003
 41
0.003
 10
-0.241819
 20
-0.015724
 40
0.003
 41
0.003
  0
LWPOLYLINE
  5
C8
100
AcDbEntity
  8
0
 62
   254
100
AcDbPolyline
 90
        2
 70
     0
 39
0.003
 10
-0.249717
 20
-0.04552
 40
0.003
 41
0.003
 10
0.402362
 20
-0.427972
 40
0.003
 41
0.003
  0
LWPOLYLINE
  5
C9
100
AcDbEntity
  8
0
 62
   254
100
AcDbPolyline
 90
        2
 70
     0
 39
0.003
 10
0.402362
 20
-0.427972
 40
0.003
 41
0.003
 10
0.394736
 20
-0.458626
 40
0.003
 41
0.003
  0
LWPOLYLINE
  5
CA
100
AcDbEntity
  8
0
 62
   254
100
AcDbPolyline
 90
        2
 70
     0
 39
0.003
 10
0.394736
 20
-0.458626
 40
0.003
 41
0.003
 10
-0.257343
 20
-0.076173
 40
0.003
 41
0.003
  0
LWPOLYLINE
  5
CB
100
AcDbEntity
  8
0
 62
   254
100
AcDbPolyline
 90
        2
 70
     0
 39
0.003
 10
-0.257343
 20
-0.076173
 40
0.003
 41
0.003
 10
-0.249717
 20
-0.04552
 40
0.003
 41
0.003
  0
LWPOLYLINE
  5
CC
100
AcDbEntity
  8
0
 62
   254
100
AcDbPolyline
 90
        2
 70
     0
 39
0.003
 10
-0.257343
 20
-0.076173
 40
0.003
 41
0.003
 10
0.394736
 20
-0.458626
 40
0.003
 41
0.003
  0
LWPOLYLINE
  5
CD
100
AcDbEntity
  8
0
 62
   254
100
AcDbPolyline
 90
        2
 70
     0
 39
0.003
 10
0.394736
 20
-0.458626
 40
0.003
 41
0.003
 10
0.387276
 20
-0.49002
 40
0.003
 41
0.003
  0
LWPOLYLINE
  5
CE
100
AcDbEntity
  8
0
 62
   254
100
AcDbPolyline
 90
        2
 70
     0
 39
0.003
 10
0.387276
 20
-0.49002
 40
0.003
 41
0.003
 10
-0.264803
 20
-0.107567
 40
0.003
 41
0.003
  0
LWPOLYLINE
  5
CF
100
AcDbEntity
  8
0
 62
   254
100
AcDbPolyline
 90
        2
 70
     0
 39
0.003
 10
-0.264803
 20
-0.107567
 40
0.003
 41
0.003
 10
-0.257343
 20
-0.076173
 40
0.003
 41
0.003
  0
LWPOLYLINE
  5
D0
100
AcDbEntity
  8
0
 62
   254
100
AcDbPolyline
 90
        2
 70
     0
 39
0.003
 10
-0.264803
 20
-0.107567
 40
0.003
 41
0.003
 10
0.387276
 20
-0.49002
 40
0.003
 41
0.003
  0
LWPOLYLINE
  5
D1
100
AcDbEntity
  8
0
 62
   254
100
AcDbPolyline
 90
        2
 70
     0
 39
0.003
 10
0.387276
 20
-0.49002
 40
0.003
 41
0.003
 10
0.37989
 20
-0.522067
 40
0.003
 41
0.003
  0
LWPOLYLINE
  5
D2
100
AcDbEntity
  8
0
 62
   254
100
AcDbPolyline
 90
        2
 70
     0
 39
0.003
 10
0.37989
 20
-0.522067
 40
0.003
 41
0.003
 10
-0.272189
 20
-0.139614
 40
0.003
 41
0.003
  0
LWPOLYLINE
  5
D3
100
AcDbEntity
  8
0
 62
   254
100
AcDbPolyline
 90
        2
 70
     0
 39
0.003
 10
-0.272189
 20
-0.139614
 40
0.003
 41
0.003
 10
-0.264803
 20
-0.107567
 40
0.003
 41
0.003
  0
LWPOLYLINE
  5
D4
100
AcDbEntity
  8
0
 62
   254
100
AcDbPolyline
 90
        2
 70
     0
 39
0.003
 10
-0.272189
 20
-0.139614
 40
0.003
 41
0.003
 10
0.37989
 20
-0.522067
 40
0.003
 41
0.003
  0
LWPOLYLINE
  5
D5
100
AcDbEntity
  8
0
 62
   254
100
AcDbPolyline
 90
        2
 70
     0
 39
0.003
 10
0.37989
 20
-0.522067
 40
0.003
 41
0.003
 10
0.372472
 20
-0.554646
 40
0.003
 41
0.003
  0
LWPOLYLINE
  5
D6
100
AcDbEntity
  8
0
 62
   254
100
AcDbPolyline
 90
        2
 70
     0
 39
0.003
 10
0.372472
 20
-0.554646
 40
0.003
 41
0.003
 10
-0.279606
 20
-0.172193
 40
0.003
 41
0.003
  0
LWPOLYLINE
  5
D7
100
AcDbEntity
  8
0
 62
   254
100
AcDbPolyline
 90
        2
 70
     0
 39
0.003
 10
-0.279606
 20
-0.172193
 40
0.003
 41
0.003
 10
-0.272189
 20
-0.139614
 40
0.003
 41
0.003
  0
LWPOLYLINE
  5
D8
100
AcDbEntity
  8
0
 62
   254
100
AcDbPolyline
 90
        2
 70
     0
 39
0.003
 10
-0.279606
 20
-0.172193
 40
0.003
 41
0.003
 10
0.372472
 20
-0.554646
 40
0.003
 41
0.003
  0
LWPOLYLINE
  5
D9
100
AcDbEntity
  8
0
 62
   254
100
AcDbPolyline
 90
        2
 70
     0
 39
0.003
 10
0.372472
 20
-0.554646
 40
0.003
 41
0.003
 10
0.364941
 20
-0.587673
 40
0.003
 41
0.003
  0
LWPOLYLINE
  5
DA
100
AcDbEntity
  8
0
 62
   254
100
AcDbPolyline
 90
        2
 70
     0
 39
0.003
 10
0.364941
 20
-0.587673
 40
0.003
 41
0.003
 10
-0.287138
 20
-0.20522
 40
0.003
 41
0.003
  0
LWPOLYLINE
  5
DB
100
AcDbEntity
  8
0
 62
   254
100
AcDbPolyline
 90
        2
 70
     0
 39
0.003
 10
-0.287138
 20
-0.20522
 40
0.003
 41
0.003
 10
-0.279606
 20
-0.172193
 40
0.003
 41
0.003
  0
LWPOLYLINE
  5
DC
100
AcDbEntity
  8
0
 62
   254
100
AcDbPolyline
 90
        2
 70
     0
 39
0.003
 10
-0.287138
 20
-0.20522
 40
0.003
 41
0.003
 10
0.364941
 20
-0.587673
 40
0.003
 41
0.003
  0
LWPOLYLINE
  5
DD
100
AcDbEntity
  8
0
 62
   254
100
AcDbPolyline
 90
        2
 70
     0
 39
0.003
 10
0.364941
 20
-0.587673
 40
0.003
 41
0.003
 10
0.357185
 20
-0.621035
 40
0.003
 41
0.003
  0
LWPOLYLINE
  5
DE
100
AcDbEntity
  8
0
 62
   254
100
AcDbPolyline
 90
        2
 70
     0
 39
0.003
 10
0.357185
 20
-0.621035
 40
0.003
 41
0.003
 10
-0.294894
 20
-0.238583
 40
0.003
 41
0.003
  0
LWPOLYLINE
  5
DF
100
AcDbEntity
  8
0
 62
   254
100
AcDbPolyline
 90
        2
 70
     0
 39
0.003
 10
-0.294894
 20
-0.238583
 40
0.003
 41
0.003
 10
-0.287138
 20
-0.20522
 40
0.003
 41
0.003
  0
LWPOLYLINE
  5
E0
100
AcDbEntity
  8
0
 62
   254
100
AcDbPolyline
 90
        2
 70
     0
 39
0.003
 10
-0.294894
 20
-0.238583
 40
0.003
 41
0.003
 10
0.357185
 20
-0.621035
 40
0.003
 41
0.003
  0
LWPOLYLINE
  5
E1
100
AcDbEntity
  8
0
 62
   254
100
AcDbPolyline
 90
        2
 70
     0
 39
0.003
 10
0.357185
 20
-0.621035
 40
0.003
 41
0.003
 10
0.349118
 20
-0.654642
 40
0.003
 41
0.003
  0
LWPOLYLINE
  5
E2
100
AcDbEntity
  8
0
 62
   254
100
AcDbPolyline
 90
        2
 70
     0
 39
0.003
 10
0.349118
 20
-0.654642
 40
0.003
 41
0.003
 10
-0.302961
 20
-0.272189
 40
0.003
 41
0.003
  0
LWPOLYLINE
  5
E3
100
AcDbEntity
  8
0
 62
   254
100
AcDbPolyline
 90
        2
 70
     0
 39
0.003
 10
-0.302961
 20
-0.272189
 40
0.003
 41
0.003
 10
-0.294894
 20
-0.238583
 40
0.003
 41
0.003
  0
LWPOLYLINE
  5
E4
100
AcDbEntity
  8
0
 62
   254
100
AcDbPolyline
 90
        2
 70
     0
 39
0.003
 10
-0.302961
 20
-0.272189
 40
0.003
 41
0.003
 10
0.349118
 20
-0.654642
 40
0.003
 41
0.003
  0
LWPOLYLINE
  5
E5
100
AcDbEntity
  8
0
 62
   254
100
AcDbPolyline
 90
        2
 70
     0
 39
0.003
 10
0.349118
 20
-0.654642
 40
0.003
 41
0.003
 10
0.34063
 20
-0.688374
 40
0.003
 41
0.003
  0
LWPOLYLINE
  5
E6
100
AcDbEntity
  8
0
 62
   254
100
AcDbPolyline
 90
        2
 70
     0
 39
0.003
 10
0.34063
 20
-0.688374
 40
0.003
 41
0.003
 10
-0.311449
 20
-0.305921
 40
0.003
 41
0.003
  0
LWPOLYLINE
  5
E7
100
AcDbEntity
  8
0
 62
   254
100
AcDbPolyline
 90
        2
 70
     0
 39
0.003
 10
-0.311449
 20
-0.305921
 40
0.003
 41
0.003
 10
-0.302961
 20
-0.272189
 40
0.003
 41
0.003
  0
LWPOLYLINE
  5
E8
100
AcDbEntity
  8
0
 62
   254
100
AcDbPolyline
 90
        2
 70
     0
 39
0.003
 10
-0.311449
 20
-0.305921
 40
0.003
 41
0.003
 10
0.34063
 20
-0.688374
 40
0.003
 41
0.003
  0
LWPOLYLINE
  5
E9
100
AcDbEntity
  8
0
 62
   254
100
AcDbPolyline
 90
        2
 70
     0
 39
0.003
 10
0.34063
 20
-0.688374
 40
0.003
 41
0.003
 10
0.331638
 20
-0.722146
 40
0.003
 41
0.003
  0
LWPOLYLINE
  5
EA
100
AcDbEntity
  8
0
 62
   254
100
AcDbPolyline
 90
        2
 70
     0
 39
0.003
 10
0.331638
 20
-0.722146
 40
0.003
 41
0.003
 10
-0.320441
 20
-0.339693
 40
0.003
 41
0.003
  0
LWPOLYLINE
  5
EB
100
AcDbEntity
  8
0
 62
   254
100
AcDbPolyline
 90
        2
 70
     0
 39
0.003
 10
-0.320441
 20
-0.339693
 40
0.003
 41
0.003
 10
-0.311449
 20
-0.305921
 40
0.003
 41
0.003
  0
LWPOLYLINE
  5
EC
100
AcDbEntity
  8
0
 62
   254
100
AcDbPolyline
 90
        2
 70
     0
 39
0.003
 10
-0.320441
 20
-0.339693
 40
0.003
 41
0.003
 10
0.331638
 20
-0.722146
 40
0.003
 41
0.003
  0
LWPOLYLINE
  5
ED
100
AcDbEntity
  8
0
 62
   254
100
AcDbPolyline
 90
        2
 70
     0
 39
0.003
 10
0.331638
 20
-0.722146
 40
0.003
 41
0.003
 10
0.322035
 20
-0.755846
 40
0.003
 41
0.003
  0
LWPOLYLINE
  5
EE
100
AcDbEntity
  8
0
 62
   254
100
AcDbPolyline
 90
        2
 70
     0
 39
0.003
 10
0.322035
 20
-0.755846
 40
0.003
 41
0.003
 10
-0.330043
 20
-0.373394
 40
0.003
 41
0.003
  0
LWPOLYLINE
  5
EF
100
AcDbEntity
  8
0
 62
   254
100
AcDbPolyline
 90
        2
 70
     0
 39
0.003
 10
-0.330043
 20
-0.373394
 40
0.003
 41
0.003
 10
-0.320441
 20
-0.339693
 40
0.003
 41
0.003
  0
LWPOLYLINE
  5
F0
100
AcDbEntity
  8
0
 62
   254
100
AcDbPolyline
 90
        2
 70
     0
 39
0.003
 10
-0.330043
 20
-0.373394
 40
0.003
 41
0.003
 10
0.322035
 20
-0.755846
 40
0.003
 41
0.003
  0
LWPOLYLINE
  5
F1
100
AcDbEntity
  8
0
 62
   254
100
AcDbPolyline
 90
        2
 70
     0
 39
0.003
 10
0.322035
 20
-0.755846
 40
0.003
 41
0.003
 10
0.311732
 20
-0.789386
 40
0.003
 41
0.003
  0
LWPOLYLINE
  5
F2
100
AcDbEntity
  8
0
 62
   254
100
AcDbPolyline
 90
        2
 70
     0
 39
0.003
 10
0.311732
 20
-0.789386
 40
0.003
 41
0.003
 10
-0.340346
 20
-0.406933
 40
0.003
 41
0.003
  0
LWPOLYLINE
  5
F3
100
AcDbEntity
  8
0
 62
   254
100
AcDbPolyline
 90
        2
 70
     0
 39
0.003
 10
-0.340346
 20
-0.406933
 40
0.003
 41
0.003
 10
-0.330043
 20
-0.373394
 40
0.003
 41
0.003
  0
LWPOLYLINE
  5
F4
100
AcDbEntity
  8
0
 62
   254
100
AcDbPolyline
 90
        2
 70
     0
 39
0.003
 10
-0.340346
 20
-0.406933
 40
0.003
 41
0.003
 10
0.311732
 20
-0.789386
 40
0.003
 41
0.003
  0
LWPOLYLINE
  5
F5
100
AcDbEntity
  8
0
 62
   254
100
AcDbPolyline
 90
        2
 70
     0
 39
0.003
 10
0.311732
 20
-0.789386
 40
0.003
 41
0.003
 10
0.300626
 20
-0.822646
 40
0.003
 41
0.003
  0
LWPOLYLINE
  5
F6
100
AcDbEntity
  8
0
 62
   254
100
AcDbPolyline
 90
        2
 70
     0
 39
0.003
 10
0.300626
 20
-0.822646
 40
0.003
 41
0.003
 10
-0.351453
 20
-0.440193
 40
0.003
 41
0.003
  0
LWPOLYLINE
  5
F7
100
AcDbEntity
  8
0
 62
   254
100
AcDbPolyline
 90
        2
 70
     0
 39
0.003
 10
-0.351453
 20
-0.440193
 40
0.003
 41
0.003
 10
-0.340346
 20
-0.406933
 40
0.003
 41
0.003
  0
LWPOLYLINE
  5
F8
100
AcDbEntity
  8
0
 62
   254
100
AcDbPolyline
 90
        2
 70
     0
 39
0.003
 10
-0.351453
 20
-0.440193
 40
0.003
 41
0.003
 10
0.300626
 20
-0.822646
 40
0.003
 41
0.003
  0
LWPOLYLINE
  5
F9
100
AcDbEntity
  8
0
 62
   254
100
AcDbPolyline
 90
        2
 70
     0
 39
0.003
 10
0.300626
 20
-0.822646
 40
0.003
 41
0.003
 10
0.288622
 20
-0.855539
 40
0.003
 41
0.003
  0
LWPOLYLINE
  5
FA
100
AcDbEntity
  8
0
 62
   254
100
AcDbPolyline
 90
        2
 70
     0
 39
0.003
 10
0.288622
 20
-0.855539
 40
0.003
 41
0.003
 10
-0.363457
 20
-0.473087
 40
0.003
 41
0.003
  0
LWPOLYLINE
  5
FB
100
AcDbEntity
  8
0
 62
   254
100
AcDbPolyline
 90
        2
 70
     0
 39
0.003
 10
-0.363457
 20
-0.473087
 40
0.003
 41
0.003
 10
-0.351453
 20
-0.440193
 40
0.003
 41
0.003
  0
LWPOLYLINE
  5
FC
100
AcDbEntity
  8
0
 62
   254
100
AcDbPolyline
 90
        2
 70
     0
 39
0.003
 10
-0.363457
 20
-0.473087
 40
0.003
 41
0.003
 10
0.288622
 20
-0.855539
 40
0.003
 41
0.003
  0
LWPOLYLINE
  5
FD
100
AcDbEntity
  8
0
 62
   254
100
AcDbPolyline
 90
        2
 70
     0
 39
0.003
 10
0.288622
 20
-0.855539
 40
0.003
 41
0.003
 10
0.275626
 20
-0.887957
 40
0.003
 41
0.003
  0
LWPOLYLINE
  5
FE
100
AcDbEntity
  8
0
 62
   254
100
AcDbPolyline
 90
        2
 70
     0
 39
0.003
 10
0.275626
 20
-0.887957
 40
0.003
 41
0.003
 10
-0.376453
 20
-0.505504
 40
0.003
 41
0.003
  0
LWPOLYLINE
  5
FF
100
AcDbEntity
  8
0
 62
   254
100
AcDbPolyline
 90
        2
 70
     0
 39
0.003
 10
-0.376453
 20
-0.505504
 40
0.003
 41
0.003
 10
-0.363457
 20
-0.473087
 40
0.003
 41
0.003
  0
LWPOLYLINE
  5
100
100
AcDbEntity
  8
0
 62
   254
100
AcDbPolyline
 90
        2
 70
     0
 39
0.003
 10
-0.376453
 20
-0.505504
 40
0.003
 41
0.003
 10
0.275626
 20
-0.887957
 40
0.003
 41
0.003
  0
LWPOLYLINE
  5
101
100
AcDbEntity
  8
0
 62
   254
100
AcDbPolyline
 90
        2
 70
     0
 39
0.003
 10
0.275626
 20
-0.887957
 40
0.003
 41
0.003
 10
0.261551
 20
-0.919799
 40
0.003
 41
0.003
  0
LWPOLYLINE
  5
102
100
AcDbEntity
  8
0
 62
   254
100
AcDbPolyline
 90
        2
 70
     0
 39
0.003
 10
0.261551
 20
-0.919799
 40
0.003
 41
0.003
 10
-0.390528
 20
-0.537346
 40
0.003
 41
0.003
  0
LWPOLYLINE
  5
103
100
AcDbEntity
  8
0
 62
   254
100
AcDbPolyline
 90
        2
 70
     0
 39
0.003
 10
-0.390528
 20
-0.537346
 40
0.003
 41
0.003
 10
-0.376453
 20
-0.505504
 40
0.003
 41
0.003
  0
LWPOLYLINE
  5
104
100
AcDbEntity
  8
0
 62
   254
100
AcDbPolyline
 90
        2
 70
     0
 39
0.003
 10
-0.390528
 20
-0.537346
 40
0.003
 41
0.003
 10
0.261551
 20
-0.919799
 40
0.003
 41
0.003
  0
LWPOLYLINE
  5
105
100
AcDbEntity
  8
0
 62
   254
100
AcDbPolyline
 90
        2
 70
     0
 39
0.003
 10
0.261551
 20
-0.919799
 40
0.003
 41
0.003
 10
0.246276
 20
-0.950957
 40
0.003
 41
0.003
  0
LWPOLYLINE
  5
106
100
AcDbEntity
  8
0
 62
   254
100
AcDbPolyline
 90
        2
 70
     0
 39
0.003
 10
0.246276
 20
-0.950957
 40
0.003
 41
0.003
 10
-0.405803
 20
-0.568504
 40
0.003
 41
0.003
  0
LWPOLYLINE
  5
107
100
AcDbEntity
  8
0
 62
   254
100
AcDbPolyline
 90
        2
 70
     0
 39
0.003
 10
-0.405803
 20
-0.568504
 40
0.003
 41
0.003
 10
-0.390528
 20
-0.537346
 40
0.003
 41
0.003
  0
LWPOLYLINE
  5
108
100
AcDbEntity
  8
0
 62
   254
100
AcDbPolyline
 90
        2
 70
     0
 39
0.003
 10
-0.405803
 20
-0.568504
 40
0.003
 41
0.003
 10
0.246276
 20
-0.950957
 40
0.003
 41
0.003
  0
LWPOLYLINE
  5
109
100
AcDbEntity
  8
0
 62
   254
100
AcDbPolyline
 90
        2
 70
     0
 39
0.003
 10
0.246276
 20
-0.950957
 40
0.003
 41
0.003
 10
0.22972
 20
-0.981339
 40
0.003
 41
0.003
  0
LWPOLYLINE
  5
10A
100
AcDbEntity
  8
0
 62
   254
100
AcDbPolyline
 90
        2
 70
     0
 39
0.003
 10
0.22972
 20
-0.981339
 40
0.003
 41
0.003
 10
-0.422358
 20
-0.598886
 40
0.003
 41
0.003
  0
LWPOLYLINE
  5
10B
100
AcDbEntity
  8
0
 62
   254
100
AcDbPolyline
 90
        2
 70
     0
 39
0.003
 10
-0.422358
 20
-0.598886
 40
0.003
 41
0.003
 10
-0.405803
 20
-0.568504
 40
0.003
 41
0.003
  0
LWPOLYLINE
  5
10C
100
AcDbEntity
  8
0
 62
   254
100
AcDbPolyline
 90
        2
 70
     0
 39
0.003
 10
-0.422358
 20
-0.598886
 40
0.003
 41
0.003
 10
0.22972
 20
-0.981339
 40
0.003
 41
0.003
  0
LWPOLYLINE
  5
10D
100
AcDbEntity
  8
0
 62
   254
100
AcDbPolyline
 90
        2
 70
     0
 39
0.003
 10
0.22972
 20
-0.981339
 40
0.003
 41
0.003
 10
0.21178
 20
-1.010839
 40
0.003
 41
0.003
  0
LWPOLYLINE
  5
10E
100
AcDbEntity
  8
0
 62
   254
100
AcDbPolyline
 90
        2
 70
     0
 39
0.003
 10
0.21178
 20
-1.010839
 40
0.003
 41
0.003
 10
-0.440299
 20
-0.628386
 40
0.003
 41
0.003
  0
LWPOLYLINE
  5
10F
100
AcDbEntity
  8
0
 62
   254
100
AcDbPolyline
 90
        2
 70
     0
 39
0.003
 10
-0.440299
 20
-0.628386
 40
0.003
 41
0.003
 10
-0.422358
 20
-0.598886
 40
0.003
 41
0.003
  0
LWPOLYLINE
  5
110
100
AcDbEntity
  8
0
 62
   254
100
AcDbPolyline
 90
        2
 70
     0
 39
0.003
 10
-0.440299
 20
-0.628386
 40
0.003
 41
0.003
 10
0.21178
 20
-1.010839
 40
0.003
 41
0.003
  0
LWPOLYLINE
  5
111
100
AcDbEntity
  8
0
 62
   254
100
AcDbPolyline
 90
        2
 70
     0
 39
0.003
 10
0.21178
 20
-1.010839
 40
0.003
 41
0.003
 10
0.19237
 20
-1.039358
 40
0.003
 41
0.003
  0
LWPOLYLINE
  5
112
100
AcDbEntity
  8
0
 62
   254
100
AcDbPolyline
 90
        2
 70
     0
 39
0.003
 10
0.19237
 20
-1.039358
 40
0.003
 41
0.003
 10
-0.459709
 20
-0.656906
 40
0.003
 41
0.003
  0
LWPOLYLINE
  5
113
100
AcDbEntity
  8
0
 62
   254
100
AcDbPolyline
 90
        2
 70
     0
 39
0.003
 10
-0.459709
 20
-0.656906
 40
0.003
 41
0.003
 10
-0.440299
 20
-0.628386
 40
0.003
 41
0.003
  0
LWPOLYLINE
  5
114
100
AcDbEntity
  8
0
 62
   254
100
AcDbPolyline
 90
        2
 70
     0
 39
0.003
 10
-0.459709
 20
-0.656906
 40
0.003
 41
0.003
 10
0.19237
 20
-1.039358
 40
0.003
 41
0.003
  0
LWPOLYLINE
  5
115
100
AcDbEntity
  8
0
 62
   254
100
AcDbPolyline
 90
        2
 70
     0
 39
0.003
 10
0.19237
 20
-1.039358
 40
0.003
 41
0.003
 10
0.171378
 20
-1.066787
 40
0.003
 41
0.003
  0
LWPOLYLINE
  5
116
100
AcDbEntity
  8
0
 62
   254
100
AcDbPolyline
 90
        2
 70
     0
 39
0.003
 10
0.171378
 20
-1.066787
 40
0.003
 41
0.003
 10
-0.480701
 20
-0.684335
 40
0.003
 41
0.003
  0
LWPOLYLINE
  5
117
100
AcDbEntity
  8
0
 62
   254
100
AcDbPolyline
 90
        2
 70
     0
 39
0.003
 10
-0.480701
 20
-0.684335
 40
0.003
 41
0.003
 10
-0.459709
 20
-0.656906
 40
0.003
 41
0.003
  0
LWPOLYLINE
  5
118
100
AcDbEntity
  8
0
 62
   254
100
AcDbPolyline
 90
        2
 70
     0
 39
0.003
 10
-0.480701
 20
-0.684335
 40
0.003
 41
0.003
 10
0.171378
 20
-1.066787
 40
0.003
 41
0.003
  0
LWPOLYLINE
  5
119
100
AcDbEntity
  8
0
 62
   254
100
AcDbPolyline
 90
        2
 70
     0
 39
0.003
 10
0.171378
 20
-1.066787
 40
0.003
 41
0.003
 10
0.148724
 20
-1.093035
 40
0.003
 41
0.003
  0
LWPOLYLINE
  5
11A
100
AcDbEntity
  8
0
 62
   254
100
AcDbPolyline
 90
        2
 70
     0
 39
0.003
 10
0.148724
 20
-1.093035
 40
0.003
 41
0.003
 10
-0.503354
 20
-0.710583
 40
0.003
 41
0.003
  0
LWPOLYLINE
  5
11B
100
AcDbEntity
  8
0
 62
   254
100
AcDbPolyline
 90
        2
 70
     0
 39
0.003
 10
-0.503354
 20
-0.710583
 40
0.003
 41
0.003
 10
-0.480701
 20
-0.684335
 40
0.003
 41
0.003
  0
LWPOLYLINE
  5
11C
100
AcDbEntity
  8
0
 62
   254
100
AcDbPolyline
 90
        2
 70
     0
 39
0.003
 10
-0.503354
 20
-0.710583
 40
0.003
 41
0.003
 10
0.148724
 20
-1.093035
 40
0.003
 41
0.003
  0
LWPOLYLINE
  5
11D
100
AcDbEntity
  8
0
 62
   254
100
AcDbPolyline
 90
        2
 70
     0
 39
0.003
 10
0.148724
 20
-1.093035
 40
0.003
 41
0.003
 10
0.124299
 20
-1.117996
 40
0.003
 41
0.003
  0
LWPOLYLINE
  5
11E
100
AcDbEntity
  8
0
 62
   254
100
AcDbPolyline
 90
        2
 70
     0
 39
0.003
 10
0.124299
 20
-1.117996
 40
0.003
 41
0.003
 10
-0.52778
 20
-0.735543
 40
0.003
 41
0.003
  0
LWPOLYLINE
  5
11F
100
AcDbEntity
  8
0
 62
   254
100
AcDbPolyline
 90
        2
 70
     0
 39
0.003
 10
-0.52778
 20
-0.735543
 40
0.003
 41
0.003
 10
-0.503354
 20
-0.710583
 40
0.003
 41
0.003
  0
LWPOLYLINE
  5
120
100
AcDbEntity
  8
0
 62
   254
100
AcDbPolyline
 90
        2
 70
     0
 39
0.003
 10
-0.52778
 20
-0.735543
 40
0.003
 41
0.003
 10
0.124299
 20
-1.117996
 40
0.003
 41
0.003
  0
LWPOLYLINE
  5
121
100
AcDbEntity
  8
0
 62
   254
100
AcDbPolyline
 90
        2
 70
     0
 39
0.003
 10
0.124299
 20
-1.117996
 40
0.003
 41
0.003
 10
0.098004
 20
-1.141567
 40
0.003
 41
0.003
  0
LWPOLYLINE
  5
122
100
AcDbEntity
  8
0
 62
   254
100
AcDbPolyline
 90
        2
 70
     0
 39
0.003
 10
0.098004
 20
-1.141567
 40
0.003
 41
0.003
 10
-0.554075
 20
-0.759114
 40
0.003
 41
0.003
  0
LWPOLYLINE
  5
123
100
AcDbEntity
  8
0
 62
   254
100
AcDbPolyline
 90
        2
 70
     0
 39
0.003
 10
-0.554075
 20
-0.759114
 40
0.003
 41
0.003
 10
-0.52778
 20
-0.735543
 40
0.003
 41
0.003
  0
LWPOLYLINE
  5
124
100
AcDbEntity
  8
0
 62
   254
100
AcDbPolyline
 90
        2
 70
     0
 39
0.003
 10
-0.554075
 20
-0.759114
 40
0.003
 41
0.003
 10
0.098004
 20
-1.141567
 40
0.003
 41
0.003
  0
LWPOLYLINE
  5
125
100
AcDbEntity
  8
0
 62
   254
100
AcDbPolyline
 90
        2
 70
     0
 39
0.003
 10
0.098004
 20
-1.141567
 40
0.003
 41
0.003
 10
0.069752
 20
-1.163638
 40
0.003
 41
0.003
  0
LWPOLYLINE
  5
126
100
AcDbEntity
  8
0
 62
   254
100
AcDbPolyline
 90
        2
 70
     0
 39
0.003
 10
0.069752
 20
-1.163638
 40
0.003
 41
0.003
 10
-0.582327
 20
-0.781185
 40
0.003
 41
0.003
  0
LWPOLYLINE
  5
127
100
AcDbEntity
  8
0
 62
   254
100
AcDbPolyline
 90
        2
 70
     0
 39
0.003
 10
-0.582327
 20
-0.781185
 40
0.003
 41
0.003
 10
-0.554075
 20
-0.759114
 40
0.003
 41
0.003
  0
LWPOLYLINE
  5
128
100
AcDbEntity
  8
0
 62
   254
100
AcDbPolyline
 90
        2
 70
     0
 39
0.003
 10
-0.582327
 20
-0.781185
 40
0.003
 41
0.003
 10
0.069752
 20
-1.163638
 40
0.003
 41
0.003
  0
LWPOLYLINE
  5
129
100
AcDbEntity
  8
0
 62
   254
100
AcDbPolyline
 90
        2
 70
     0
 39
0.003
 10
0.069752
 20
-1.163638
 40
0.003
 41
0.003
 10
0.039441
 20
-1.184126
 40
0.003
 41
0.003
  0
LWPOLYLINE
  5
12A
100
AcDbEntity
  8
0
 62
   254
100
AcDbPolyline
 90
        2
 70
     0
 39
0.003
 10
0.039441
 20
-1.184126
 40
0.003
 41
0.003
 10
-0.612638
 20
-0.801673
 40
0.003
 41
0.003
  0
LWPOLYLINE
  5
12B
100
AcDbEntity
  8
0
 62
   254
100
AcDbPolyline
 90
        2
 70
     0
 39
0.003
 10
-0.612638
 20
-0.801673
 40
0.003
 41
0.003
 10
-0.582327
 20
-0.781185
 40
0.003
 41
0.003
  0
LWPOLYLINE
  5
12C
100
AcDbEntity
  8
0
 62
   254
100
AcDbPolyline
 90
        2
 70
     0
 39
0.003
 10
-0.612638
 20
-0.801673
 40
0.003
 41
0.003
 10
0.039441
 20
-1.184126
 40
0.003
 41
0.003
  0
LWPOLYLINE
  5
12D
100
AcDbEntity
  8
0
 62
   254
100
AcDbPolyline
 90
        2
 70
     0
 39
0.003
 10
0.039441
 20
-1.184126
 40
0.003
 41
0.003
 10
0.006972
 20
-1.202913
 40
0.003
 41
0.003
  0
LWPOLYLINE
  5
12E
100
AcDbEntity
  8
0
 62
   254
100
AcDbPolyline
 90
        2
 70
     0
 39
0.003
 10
0.006972
 20
-1.202913
 40
0.003
 41
0.003
 10
-0.645106
 20
-0.820461
 40
0.003
 41
0.003
  0
LWPOLYLINE
  5
12F
100
AcDbEntity
  8
0
 62
   254
100
AcDbPolyline
 90
        2
 70
     0
 39
0.003
 10
-0.645106
 20
-0.820461
 40
0.003
 41
0.003
 10
-0.612638
 20
-0.801673
 40
0.003
 41
0.003
  0
LWPOLYLINE
  5
130
100
AcDbEntity
  8
0
 62
   254
100
AcDbPolyline
 90
        2
 70
     0
 39
0.003
 10
-0.645106
 20
-0.820461
 40
0.003
 41
0.003
 10
0.006972
 20
-1.202913
 40
0.003
 41
0.003
  0
LWPOLYLINE
  5
131
100
AcDbEntity
  8
0
 62
   254
100
AcDbPolyline
 90
        2
 70
     0
 39
0.003
 10
0.006972
 20
-1.202913
 40
0.003
 41
0.003
 10
-0.027752
 20
-1.219909
 40
0.003
 41
0.003
  0
LWPOLYLINE
  5
132
100
AcDbEntity
  8
0
 62
   254
100
AcDbPolyline
 90
        2
 70
     0
 39
0.003
 10
-0.027752
 20
-1.219909
 40
0.003
 41
0.003
 10
-0.679831
 20
-0.837457
 40
0.003
 41
0.003
  0
LWPOLYLINE
  5
133
100
AcDbEntity
  8
0
 62
   254
100
AcDbPolyline
 90
        2
 70
     0
 39
0.003
 10
-0.679831
 20
-0.837457
 40
0.003
 41
0.003
 10
-0.645106
 20
-0.820461
 40
0.003
 41
0.003
  0
LWPOLYLINE
  5
134
100
AcDbEntity
  8
0
 62
   254
100
AcDbPolyline
 90
        2
 70
     0
 39
0.003
 10
-0.679831
 20
-0.837457
 40
0.003
 41
0.003
 10
-0.027752
 20
-1.219909
 40
0.003
 41
0.003
  0
LWPOLYLINE
  5
135
100
AcDbEntity
  8
0
 62
   254
100
AcDbPolyline
 90
        2
 70
     0
 39
0.003
 10
-0.027752
 20
-1.219909
 40
0.003
 41
0.003
 10
-0.064815
 20
-1.235004
 40
0.003
 41
0.003
  0
LWPOLYLINE
  5
136
100
AcDbEntity
  8
0
 62
   254
100
AcDbPolyline
 90
        2
 70
     0
 39
0.003
 10
-0.064815
 20
-1.235004
 40
0.003
 41
0.003
 10
-0.716894
 20
-0.852551
 40
0.003
 41
0.003
  0
LWPOLYLINE
  5
137
100
AcDbEntity
  8
0
 62
   254
100
AcDbPolyline
 90
        2
 70
     0
 39
0.003
 10
-0.716894
 20
-0.852551
 40
0.003
 41
0.003
 10
-0.679831
 20
-0.837457
 40
0.003
 41
0.003
  0
LWPOLYLINE
  5
138
100
AcDbEntity
  8
0
 62
   254
100
AcDbPolyline
 90
        2
 70
     0
 39
0.003
 10
-0.716894
 20
-0.852551
 40
0.003
 41
0.003
 10
-0.064815
 20
-1.235004
 40
0.003
 41
0.003
  0
LWPOLYLINE
  5
139
100
AcDbEntity
  8
0
 62
   254
100
AcDbPolyline
 90
        2
 70
     0
 39
0.003
 10
-0.064815
 20
-1.235004
 40
0.003
 41
0.003
 10
-0.104335
 20
-1.248098
 40
0.003
 41
0.003
  0
LWPOLYLINE
  5
13A
100
AcDbEntity
  8
0
 62
   254
100
AcDbPolyline
 90
        2
 70
     0
 39
0.003
 10
-0.104335
 20
-1.248098
 40
0.003
 41
0.003
 10
-0.756413
 20
-0.865646
 40
0.003
 41
0.003
  0
LWPOLYLINE
  5
13B
100
AcDbEntity
  8
0
 62
   254
100
AcDbPolyline
 90
        2
 70
     0
 39
0.003
 10
-0.756413
 20
-0.865646
 40
0.003
 41
0.003
 10
-0.716894
 20
-0.852551
 40
0.003
 41
0.003
  0
LWPOLYLINE
  5
13C
100
AcDbEntity
  8
0
 62
   254
100
AcDbPolyline
 90
        2
 70
     0
 39
0.003
 10
-0.756413
 20
-0.865646
 40
0.003
 41
0.003
 10
-0.104335
 20
-1.248098
 40
0.003
 41
0.003
  0
LWPOLYLINE
  5
13D
100
AcDbEntity
  8
0
 62
   254
100
AcDbPolyline
 90
        2
 70
     0
 39
0.003
 10
-0.104335
 20
-1.248098
 40
0.003
 41
0.003
 10
-0.14639
 20
-1.259091
 40
0.003
 41
0.003
  0
LWPOLYLINE
  5
13E
100
AcDbEntity
  8
0
 62
   254
100
AcDbPolyline
 90
        2
 70
     0
 39
0.003
 10
-0.14639
 20
-1.259091
 40
0.003
 41
0.003
 10
-0.798469
 20
-0.876638
 40
0.003
 41
0.003
  0
LWPOLYLINE
  5
13F
100
AcDbEntity
  8
0
 62
   254
100
AcDbPolyline
 90
        2
 70
     0
 39
0.003
 10
-0.798469
 20
-0.876638
 40
0.003
 41
0.003
 10
-0.756413
 20
-0.865646
 40
0.003
 41
0.003
  0
LWPOLYLINE
  5
140
100
AcDbEntity
  8
0
 62
   254
100
AcDbPolyline
 90
        2
 70
     0
 39
0.003
 10
-0.798469
 20
-0.876638
 40
0.003
 41
0.003
 10
-0.14639
 20
-1.259091
 40
0.003
 41
0.003
  0
LWPOLYLINE
  5
141
100
AcDbEntity
  8
0
 62
   254
100
AcDbPolyline
 90
        2
 70
     0
 39
0.003
 10
-0.14639
 20
-1.259091
 40
0.003
 41
0.003
 10
-0.191091
 20
-1.26789
 40
0.003
 41
0.003
  0
LWPOLYLINE
  5
142
100
AcDbEntity
  8
0
 62
   254
100
AcDbPolyline
 90
        2
 70
     0
 39
0.003
 10
-0.191091
 20
-1.26789
 40
0.003
 41
0.003
 10
-0.843169
 20
-0.885437
 40
0.003
 41
0.003
  0
LWPOLYLINE
  5
143
100
AcDbEntity
  8
0
 62
   254
100
AcDbPolyline
 90
        2
 70
     0
 39
0.003
 10
-0.843169
 20
-0.885437
 40
0.003
 41
0.003
 10
-0.798469
 20
-0.876638
 40
0.003
 41
0.003
  0
LWPOLYLINE
  5
144
100
AcDbEntity
  8
0
 62
     0
100
AcDbPolyline
 90
        2
 70
     0
 39
0.003
 10
0.40265
 20
0.708535
 40
0.003
 41
0.003
 10
1.054728
 20
0.326083
 40
0.003
 41
0.003
  0
LWPOLYLINE
  5
145
100
AcDbEntity
  8
0
 62
     0
100
AcDbPolyline
 90
        2
 70
     0
 39
0.003
 10
1.054728
 20
0.326083
 40
0.003
 41
0.003
 10
1.008102
 20
0.324524
 40
0.003
 41
0.003
  0
LWPOLYLINE
  5
146
100
AcDbEntity
  8
0
 62
     0
100
AcDbPolyline
 90
        2
 70
     0
 39
0.003
 10
1.008102
 20
0.324524
 40
0.003
 41
0.003
 10
0.96411
 20
0.320701
 40
0.003
 41
0.003
  0
LWPOLYLINE
  5
147
100
AcDbEntity
  8
0
 62
     0
100
AcDbPolyline
 90
        2
 70
     0
 39
0.003
 10
0.96411
 20
0.320701
 40
0.003
 41
0.003
 10
0.922657
 20
0.314693
 40
0.003
 41
0.003
  0
LWPOLYLINE
  5
148
100
AcDbEntity
  8
0
 62
     0
100
AcDbPolyline
 90
        2
 70
     0
 39
0.003
 10
0.922657
 20
0.314693
 40
0.003
 41
0.003
 10
0.883657
 20
0.306606
 40
0.003
 41
0.003
  0
LWPOLYLINE
  5
149
100
AcDbEntity
  8
0
 62
     0
100
AcDbPolyline
 90
        2
 70
     0
 39
0.003
 10
0.883657
 20
0.306606
 40
0.003
 41
0.003
 10
0.847
 20
0.296516
 40
0.003
 41
0.003
  0
LWPOLYLINE
  5
14A
100
AcDbEntity
  8
0
 62
     0
100
AcDbPolyline
 90
        2
 70
     0
 39
0.003
 10
0.847
 20
0.296516
 40
0.003
 41
0.003
 10
0.812614
 20
0.284524
 40
0.003
 41
0.003
  0
LWPOLYLINE
  5
14B
100
AcDbEntity
  8
0
 62
     0
100
AcDbPolyline
 90
        2
 70
     0
 39
0.003
 10
0.812614
 20
0.284524
 40
0.003
 41
0.003
 10
0.780394
 20
0.270713
 40
0.003
 41
0.003
  0
LWPOLYLINE
  5
14C
100
AcDbEntity
  8
0
 62
     0
100
AcDbPolyline
 90
        2
 70
     0
 39
0.003
 10
0.780394
 20
0.270713
 40
0.003
 41
0.003
 10
0.75026
 20
0.255185
 40
0.003
 41
0.003
  0
LWPOLYLINE
  5
14D
100
AcDbEntity
  8
0
 62
     0
100
AcDbPolyline
 90
        2
 70
     0
 39
0.003
 10
0.75026
 20
0.255185
 40
0.003
 41
0.003
 10
0.722098
 20
0.238016
 40
0.003
 41
0.003
  0
LWPOLYLINE
  5
14E
100
AcDbEntity
  8
0
 62
     0
100
AcDbPolyline
 90
        2
 70
     0
 39
0.003
 10
0.722098
 20
0.238016
 40
0.003
 41
0.003
 10
0.695835
 20
0.219311
 40
0.003
 41
0.003
  0
LWPOLYLINE
  5
14F
100
AcDbEntity
  8
0
 62
     0
100
AcDbPolyline
 90
        2
 70
     0
 39
0.003
 10
0.695835
 20
0.219311
 40
0.003
 41
0.003
 10
0.67137
 20
0.19915
 40
0.003
 41
0.003
  0
LWPOLYLINE
  5
150
100
AcDbEntity
  8
0
 62
     0
100
AcDbPolyline
 90
        2
 70
     0
 39
0.003
 10
0.67137
 20
0.19915
 40
0.003
 41
0.003
 10
0.648622
 20
0.177634
 40
0.003
 41
0.003
  0
LWPOLYLINE
  5
151
100
AcDbEntity
  8
0
 62
     0
100
AcDbPolyline
 90
        2
 70
     0
 39
0.003
 10
0.648622
 20
0.177634
 40
0.003
 41
0.003
 10
0.62748
 20
0.154843
 40
0.003
 41
0.003
  0
LWPOLYLINE
  5
152
100
AcDbEntity
  8
0
 62
     0
100
AcDbPolyline
 90
        2
 70
     0
 39
0.003
 10
0.62748
 20
0.154843
 40
0.003
 41
0.003
 10
0.60787
 20
0.130878
 40
0.003
 41
0.003
  0
LWPOLYLINE
  5
153
100
AcDbEntity
  8
0
 62
     0
100
AcDbPolyline
 90
        2
 70
     0
 39
0.003
 10
0.60787
 20
0.130878
 40
0.003
 41
0.003
 10
0.589685
 20
0.105827
 40
0.003
 41
0.003
  0
LWPOLYLINE
  5
154
100
AcDbEntity
  8
0
 62
     0
100
AcDbPolyline
 90
        2
 70
     0
 39
0.003
 10
0.589685
 20
0.105827
 40
0.003
 41
0.003
 10
0.57285
 20
0.079783
 40
0.003
 41
0.003
  0
LWPOLYLINE
  5
155
100
AcDbEntity
  8
0
 62
     0
100
AcDbPolyline
 90
        2
 70
     0
 39
0.003
 10
0.57285
 20
0.079783
 40
0.003
 41
0.003
 10
0.557248
 20
0.052827
 40
0.003
 41
0.003
  0
LWPOLYLINE
  5
156
100
AcDbEntity
  8
0
 62
     0
100
AcDbPolyline
 90
        2
 70
     0
 39
0.003
 10
0.557248
 20
0.052827
 40
0.003
 41
0.003
 10
0.542811
 20
0.025059
 40
0.003
 41
0.003
  0
LWPOLYLINE
  5
157
100
AcDbEntity
  8
0
 62
     0
100
AcDbPolyline
 90
        2
 70
     0
 39
0.003
 10
0.542811
 20
0.025059
 40
0.003
 41
0.003
 10
0.529429
 20
-0.003429
 40
0.003
 41
0.003
  0
LWPOLYLINE
  5
158
100
AcDbEntity
  8
0
 62
     0
100
AcDbPolyline
 90
        2
 70
     0
 39
0.003
 10
0.529429
 20
-0.003429
 40
0.003
 41
0.003
 10
0.517024
 20
-0.032551
 40
0.003
 41
0.003
  0
LWPOLYLINE
  5
159
100
AcDbEntity
  8
0
 62
     0
100
AcDbPolyline
 90
        2
 70
     0
 39
0.003
 10
0.517024
 20
-0.032551
 40
0.003
 41
0.003
 10
0.505492
 20
-0.062217
 40
0.003
 41
0.003
  0
LWPOLYLINE
  5
15A
100
AcDbEntity
  8
0
 62
     0
100
AcDbPolyline
 90
        2
 70
     0
 39
0.003
 10
0.505492
 20
-0.062217
 40
0.003
 41
0.003
 10
0.494748
 20
-0.092327
 40
0.003
 41
0.003
  0
LWPOLYLINE
  5
15B
100
AcDbEntity
  8
0
 62
     0
100
AcDbPolyline
 90
        2
 70
     0
 39
0.003
 10
0.494748
 20
-0.092327
 40
0.003
 41
0.003
 10
0.484701
 20
-0.122803
 40
0.003
 41
0.003
  0
LWPOLYLINE
  5
15C
100
AcDbEntity
  8
0
 62
     0
100
AcDbPolyline
 90
        2
 70
     0
 39
0.003
 10
0.484701
 20
-0.122803
 40
0.003
 41
0.003
 10
0.475256
 20
-0.153539
 40
0.003
 41
0.003
  0
LWPOLYLINE
  5
15D
100
AcDbEntity
  8
0
 62
     0
100
AcDbPolyline
 90
        2
 70
     0
 39
0.003
 10
0.475256
 20
-0.153539
 40
0.003
 41
0.003
 10
0.466315
 20
-0.184461
 40
0.003
 41
0.003
  0
LWPOLYLINE
  5
15E
100
AcDbEntity
  8
0
 62
     0
100
AcDbPolyline
 90
        2
 70
     0
 39
0.003
 10
0.466315
 20
-0.184461
 40
0.003
 41
0.003
 10
0.457795
 20
-0.215461
 40
0.003
 41
0.003
  0
LWPOLYLINE
  5
15F
100
AcDbEntity
  8
0
 62
     0
100
AcDbPolyline
 90
        2
 70
     0
 39
0.003
 10
0.457795
 20
-0.215461
 40
0.003
 41
0.003
 10
0.449594
 20
-0.246461
 40
0.003
 41
0.003
  0
LWPOLYLINE
  5
160
100
AcDbEntity
  8
0
 62
     0
100
AcDbPolyline
 90
        2
 70
     0
 39
0.003
 10
0.449594
 20
-0.246461
 40
0.003
 41
0.003
 10
0.441634
 20
-0.277358
 40
0.003
 41
0.003
  0
LWPOLYLINE
  5
161
100
AcDbEntity
  8
0
 62
     0
100
AcDbPolyline
 90
        2
 70
     0
 39
0.003
 10
0.441634
 20
-0.277358
 40
0.003
 41
0.003
 10
0.433807
 20
-0.308075
 40
0.003
 41
0.003
  0
LWPOLYLINE
  5
162
100
AcDbEntity
  8
0
 62
     0
100
AcDbPolyline
 90
        2
 70
     0
 39
0.003
 10
0.433807
 20
-0.308075
 40
0.003
 41
0.003
 10
0.426031
 20
-0.3385
 40
0.003
 41
0.003
  0
LWPOLYLINE
  5
163
100
AcDbEntity
  8
0
 62
     0
100
AcDbPolyline
 90
        2
 70
     0
 39
0.003
 10
0.426031
 20
-0.3385
 40
0.003
 41
0.003
 10
0.418213
 20
-0.368563
 40
0.003
 41
0.003
  0
LWPOLYLINE
  5
164
100
AcDbEntity
  8
0
 62
     0
100
AcDbPolyline
 90
        2
 70
     0
 39
0.003
 10
0.418213
 20
-0.368563
 40
0.003
 41
0.003
 10
0.41026
 20
-0.398177
 40
0.003
 41
0.003
  0
LWPOLYLINE
  5
165
100
AcDbEntity
  8
0
 62
     0
100
AcDbPolyline
 90
        2
 70
     0
 39
0.003
 10
0.41026
 20
-0.398177
 40
0.003
 41
0.003
 10
0.402362
 20
-0.427972
 40
0.003
 41
0.003
  0
LWPOLYLINE
  5
166
100
AcDbEntity
  8
0
 62
     0
100
AcDbPolyline
 90
        2
 70
     0
 39
0.003
 10
0.402362
 20
-0.427972
 40
0.003
 41
0.003
 10
0.394736
 20
-0.458626
 40
0.003
 41
0.003
  0
LWPOLYLINE
  5
167
100
AcDbEntity
  8
0
 62
     0
100
AcDbPolyline
 90
        2
 70
     0
 39
0.003
 10
0.394736
 20
-0.458626
 40
0.003
 41
0.003
 10
0.387276
 20
-0.49002
 40
0.003
 41
0.003
  0
LWPOLYLINE
  5
168
100
AcDbEntity
  8
0
 62
     0
100
AcDbPolyline
 90
        2
 70
     0
 39
0.003
 10
0.387276
 20
-0.49002
 40
0.003
 41
0.003
 10
0.37989
 20
-0.522067
 40
0.003
 41
0.003
  0
LWPOLYLINE
  5
169
100
AcDbEntity
  8
0
 62
     0
100
AcDbPolyline
 90
        2
 70
     0
 39
0.003
 10
0.37989
 20
-0.522067
 40
0.003
 41
0.003
 10
0.372472
 20
-0.554646
 40
0.003
 41
0.003
  0
LWPOLYLINE
  5
16A
100
AcDbEntity
  8
0
 62
     0
100
AcDbPolyline
 90
        2
 70
     0
 39
0.003
 10
0.372472
 20
-0.554646
 40
0.003
 41
0.003
 10
0.364941
 20
-0.587673
 40
0.003
 41
0.003
  0
LWPOLYLINE
  5
16B
100
AcDbEntity
  8
0
 62
     0
100
AcDbPolyline
 90
        2
 70
     0
 39
0.003
 10
0.364941
 20
-0.587673
 40
0.003
 41
0.003
 10
0.357185
 20
-0.621035
 40
0.003
 41
0.003
  0
LWPOLYLINE
  5
16C
100
AcDbEntity
  8
0
 62
     0
100
AcDbPolyline
 90
        2
 70
     0
 39
0.003
 10
0.357185
 20
-0.621035
 40
0.003
 41
0.003
 10
0.349118
 20
-0.654642
 40
0.003
 41
0.003
  0
LWPOLYLINE
  5
16D
100
AcDbEntity
  8
0
 62
     0
100
AcDbPolyline
 90
        2
 70
     0
 39
0.003
 10
0.349118
 20
-0.654642
 40
0.003
 41
0.003
 10
0.34063
 20
-0.688374
 40
0.003
 41
0.003
  0
LWPOLYLINE
  5
16E
100
AcDbEntity
  8
0
 62
     0
100
AcDbPolyline
 90
        2
 70
     0
 39
0.003
 10
0.34063
 20
-0.688374
 40
0.003
 41
0.003
 10
0.331638
 20
-0.722146
 40
0.003
 41
0.003
  0
LWPOLYLINE
  5
16F
100
AcDbEntity
  8
0
 62
     0
100
AcDbPolyline
 90
        2
 70
     0
 39
0.003
 10
0.331638
 20
-0.722146
 40
0.003
 41
0.003
 10
0.322035
 20
-0.755846
 40
0.003
 41
0.003
  0
LWPOLYLINE
  5
170
100
AcDbEntity
  8
0
 62
     0
100
AcDbPolyline
 90
        2
 70
     0
 39
0.003
 10
0.322035
 20
-0.755846
 40
0.003
 41
0.003
 10
0.311732
 20
-0.789386
 40
0.003
 41
0.003
  0
LWPOLYLINE
  5
171
100
AcDbEntity
  8
0
 62
     0
100
AcDbPolyline
 90
        2
 70
     0
 39
0.003
 10
0.311732
 20
-0.789386
 40
0.003
 41
0.003
 10
0.300626
 20
-0.822646
 40
0.003
 41
0.003
  0
LWPOLYLINE
  5
172
100
AcDbEntity
  8
0
 62
     0
100
AcDbPolyline
 90
        2
 70
     0
 39
0.003
 10
0.300626
 20
-0.822646
 40
0.003
 41
0.003
 10
0.288622
 20
-0.855539
 40
0.003
 41
0.003
  0
LWPOLYLINE
  5
173
100
AcDbEntity
  8
0
 62
     0
100
AcDbPolyline
 90
        2
 70
     0
 39
0.003
 10
0.288622
 20
-0.855539
 40
0.003
 41
0.003
 10
0.275626
 20
-0.887957
 40
0.003
 41
0.003
  0
LWPOLYLINE
  5
174
100
AcDbEntity
  8
0
 62
     0
100
AcDbPolyline
 90
        2
 70
     0
 39
0.003
 10
0.275626
 20
-0.887957
 40
0.003
 41
0.003
 10
0.261551
 20
-0.919799
 40
0.003
 41
0.003
  0
LWPOLYLINE
  5
175
100
AcDbEntity
  8
0
 62
     0
100
AcDbPolyline
 90
        2
 70
     0
 39
0.003
 10
0.261551
 20
-0.919799
 40
0.003
 41
0.003
 10
0.246276
 20
-0.950957
 40
0.003
 41
0.003
  0
LWPOLYLINE
  5
176
100
AcDbEntity
  8
0
 62
     0
100
AcDbPolyline
 90
        2
 70
     0
 39
0.003
 10
0.246276
 20
-0.950957
 40
0.003
 41
0.003
 10
0.22972
 20
-0.981339
 40
0.003
 41
0.003
  0
LWPOLYLINE
  5
177
100
AcDbEntity
  8
0
 62
     0
100
AcDbPolyline
 90
        2
 70
     0
 39
0.003
 10
0.22972
 20
-0.981339
 40
0.003
 41
0.003
 10
0.21178
 20
-1.010839
 40
0.003
 41
0.003
  0
LWPOLYLINE
  5
178
100
AcDbEntity
  8
0
 62
     0
100
AcDbPolyline
 90
        2
 70
     0
 39
0.003
 10
0.21178
 20
-1.010839
 40
0.003
 41
0.003
 10
0.19237
 20
-1.039358
 40
0.003
 41
0.003
  0
LWPOLYLINE
  5
179
100
AcDbEntity
  8
0
 62
     0
100
AcDbPolyline
 90
        2
 70
     0
 39
0.003
 10
0.19237
 20
-1.039358
 40
0.003
 41
0.003
 10
0.171378
 20
-1.066787
 40
0.003
 41
0.003
  0
LWPOLYLINE
  5
17A
100
AcDbEntity
  8
0
 62
     0
100
AcDbPolyline
 90
        2
 70
     0
 39
0.003
 10
0.171378
 20
-1.066787
 40
0.003
 41
0.003
 10
0.148724
 20
-1.093035
 40
0.003
 41
0.003
  0
LWPOLYLINE
  5
17B
100
AcDbEntity
  8
0
 62
     0
100
AcDbPolyline
 90
        2
 70
     0
 39
0.003
 10
0.148724
 20
-1.093035
 40
0.003
 41
0.003
 10
0.124299
 20
-1.117996
 40
0.003
 41
0.003
  0
LWPOLYLINE
  5
17C
100
AcDbEntity
  8
0
 62
     0
100
AcDbPolyline
 90
        2
 70
     0
 39
0.003
 10
0.124299
 20
-1.117996
 40
0.003
 41
0.003
 10
0.098004
 20
-1.141567
 40
0.003
 41
0.003
  0
LWPOLYLINE
  5
17D
100
AcDbEntity
  8
0
 62
     0
100
AcDbPolyline
 90
        2
 70
     0
 39
0.003
 10
0.098004
 20
-1.141567
 40
0.003
 41
0.003
 10
0.069752
 20
-1.163638
 40
0.003
 41
0.003
  0
LWPOLYLINE
  5
17E
100
AcDbEntity
  8
0
 62
     0
100
AcDbPolyline
 90
        2
 70
     0
 39
0.003
 10
0.069752
 20
-1.163638
 40
0.003
 41
0.003
 10
0.039441
 20
-1.184126
 40
0.003
 41
0.003
  0
LWPOLYLINE
  5
17F
100
AcDbEntity
  8
0
 62
     0
100
AcDbPolyline
 90
        2
 70
     0
 39
0.003
 10
0.039441
 20
-1.184126
 40
0.003
 41
0.003
 10
0.006972
 20
-1.202913
 40
0.003
 41
0.003
  0
LWPOLYLINE
  5
180
100
AcDbEntity
  8
0
 62
     0
100
AcDbPolyline
 90
        2
 70
     0
 39
0.003
 10
0.006972
 20
-1.202913
 40
0.003
 41
0.003
 10
-0.027752
 20
-1.219909
 40
0.003
 41
0.003
  0
LWPOLYLINE
  5
181
100
AcDbEntity
  8
0
 62
     0
100
AcDbPolyline
 90
        2
 70
     0
 39
0.003
 10
-0.027752
 20
-1.219909
 40
0.003
 41
0.003
 10
-0.064815
 20
-1.235004
 40
0.003
 41
0.003
  0
LWPOLYLINE
  5
182
100
AcDbEntity
  8
0
 62
     0
100
AcDbPolyline
 90
        2
 70
     0
 39
0.003
 10
-0.064815
 20
-1.235004
 40
0.003
 41
0.003
 10
-0.104335
 20
-1.248098
 40
0.003
 41
0.003
  0
LWPOLYLINE
  5
183
100
AcDbEntity
  8
0
 62
     0
100
AcDbPolyline
 90
        2
 70
     0
 39
0.003
 10
-0.104335
 20
-1.248098
 40
0.003
 41
0.003
 10
-0.14639
 20
-1.259091
 40
0.003
 41
0.003
  0
LWPOLYLINE
  5
184
100
AcDbEntity
  8
0
 62
     0
100
AcDbPolyline
 90
        2
 70
     0
 39
0.003
 10
-0.14639
 20
-1.259091
 40
0.003
 41
0.003
 10
-0.191091
 20
-1.26789
 40
0.003
 41
0.003
  0
LWPOLYLINE
  5
185
100
AcDbEntity
  8
0
 62
     0
100
AcDbPolyline
 90
        2
 70
     0
 39
0.003
 10
-0.191091
 20
-1.26789
 40
0.003
 41
0.003
 10
-0.843169
 20
-0.885437
 40
0.003
 41
0.003
  0
LWPOLYLINE
  5
186
100
AcDbEntity
  8
0
 62
     0
100
AcDbPolyline
 90
        2
 70
     0
 39
0.003
 10
-0.843169
 20
-0.885437
 40
0.003
 41
0.003
 10
-0.798469
 20
-0.876638
 40
0.003
 41
0.003
  0
LWPOLYLINE
  5
187
100
AcDbEntity
  8
0
 62
     0
100
AcDbPolyline
 90
        2
 70
     0
 39
0.003
 10
-0.798469
 20
-0.876638
 40
0.003
 41
0.003
 10
-0.756413
 20
-0.865646
 40
0.003
 41
0.003
  0
LWPOLYLINE
  5
188
100
AcDbEntity
  8
0
 62
     0
100
AcDbPolyline
 90
        2
 70
     0
 39
0.003
 10
-0.756413
 20
-0.865646
 40
0.003
 41
0.003
 10
-0.716894
 20
-0.852551
 40
0.003
 41
0.003
  0
LWPOLYLINE
  5
189
100
AcDbEntity
  8
0
 62
     0
100
AcDbPolyline
 90
        2
 70
     0
 39
0.003
 10
-0.716894
 20
-0.852551
 40
0.003
 41
0.003
 10
-0.679831
 20
-0.837457
 40
0.003
 41
0.003
  0
LWPOLYLINE
  5
18A
100
AcDbEntity
  8
0
 62
     0
100
AcDbPolyline
 90
        2
 70
     0
 39
0.003
 10
-0.679831
 20
-0.837457
 40
0.003
 41
0.003
 10
-0.645106
 20
-0.820461
 40
0.003
 41
0.003
  0
LWPOLYLINE
  5
18B
100
AcDbEntity
  8
0
 62
     0
100
AcDbPolyline
 90
        2
 70
     0
 39
0.003
 10
-0.645106
 20
-0.820461
 40
0.003
 41
0.003
 10
-0.612638
 20
-0.801673
 40
0.003
 41
0.003
  0
LWPOLYLINE
  5
18C
100
AcDbEntity
  8
0
 62
     0
100
AcDbPolyline
 90
        2
 70
     0
 39
0.003
 10
-0.612638
 20
-0.801673
 40
0.003
 41
0.003
 10
-0.582327
 20
-0.781185
 40
0.003
 41
0.003
  0
LWPOLYLINE
  5
18D
100
AcDbEntity
  8
0
 62
     0
100
AcDbPolyline
 90
        2
 70
     0
 39
0.003
 10
-0.582327
 20
-0.781185
 40
0.003
 41
0.003
 10
-0.554075
 20
-0.759114
 40
0.003
 41
0.003
  0
LWPOLYLINE
  5
18E
100
AcDbEntity
  8
0
 62
     0
100
AcDbPolyline
 90
        2
 70
     0
 39
0.003
 10
-0.554075
 20
-0.759114
 40
0.003
 41
0.003
 10
-0.52778
 20
-0.735543
 40
0.003
 41
0.003
  0
LWPOLYLINE
  5
18F
100
AcDbEntity
  8
0
 62
     0
100
AcDbPolyline
 90
        2
 70
     0
 39
0.003
 10
-0.52778
 20
-0.735543
 40
0.003
 41
0.003
 10
-0.503354
 20
-0.710583
 40
0.003
 41
0.003
  0
LWPOLYLINE
  5
190
100
AcDbEntity
  8
0
 62
     0
100
AcDbPolyline
 90
        2
 70
     0
 39
0.003
 10
-0.503354
 20
-0.710583
 40
0.003
 41
0.003
 10
-0.480701
 20
-0.684335
 40
0.003
 41
0.003
  0
LWPOLYLINE
  5
191
100
AcDbEntity
  8
0
 62
     0
100
AcDbPolyline
 90
        2
 70
     0
 39
0.003
 10
-0.480701
 20
-0.684335
 40
0.003
 41
0.003
 10
-0.459709
 20
-0.656906
 40
0.003
 41
0.003
  0
LWPOLYLINE
  5
192
100
AcDbEntity
  8
0
 62
     0
100
AcDbPolyline
 90
        2
 70
     0
 39
0.003
 10
-0.459709
 20
-0.656906
 40
0.003
 41
0.003
 10
-0.440299
 20
-0.628386
 40
0.003
 41
0.003
  0
LWPOLYLINE
  5
193
100
AcDbEntity
  8
0
 62
     0
100
AcDbPolyline
 90
        2
 70
     0
 39
0.003
 10
-0.440299
 20
-0.628386
 40
0.003
 41
0.003
 10
-0.422358
 20
-0.598886
 40
0.003
 41
0.003
  0
LWPOLYLINE
  5
194
100
AcDbEntity
  8
0
 62
     0
100
AcDbPolyline
 90
        2
 70
     0
 39
0.003
 10
-0.422358
 20
-0.598886
 40
0.003
 41
0.003
 10
-0.405803
 20
-0.568504
 40
0.003
 41
0.003
  0
LWPOLYLINE
  5
195
100
AcDbEntity
  8
0
 62
     0
100
AcDbPolyline
 90
        2
 70
     0
 39
0.003
 10
-0.405803
 20
-0.568504
 40
0.003
 41
0.003
 10
-0.390528
 20
-0.537346
 40
0.003
 41
0.003
  0
LWPOLYLINE
  5
196
100
AcDbEntity
  8
0
 62
     0
100
AcDbPolyline
 90
        2
 70
     0
 39
0.003
 10
-0.390528
 20
-0.537346
 40
0.003
 41
0.003
 10
-0.376453
 20
-0.505504
 40
0.003
 41
0.003
  0
LWPOLYLINE
  5
197
100
AcDbEntity
  8
0
 62
     0
100
AcDbPolyline
 90
        2
 70
     0
 39
0.003
 10
-0.376453
 20
-0.505504
 40
0.003
 41
0.003
 10
-0.363457
 20
-0.473087
 40
0.003
 41
0.003
  0
LWPOLYLINE
  5
198
100
AcDbEntity
  8
0
 62
     0
100
AcDbPolyline
 90
        2
 70
     0
 39
0.003
 10
-0.363457
 20
-0.473087
 40
0.003
 41
0.003
 10
-0.351453
 20
-0.440193
 40
0.003
 41
0.003
  0
LWPOLYLINE
  5
199
100
AcDbEntity
  8
0
 62
     0
100
AcDbPolyline
 90
        2
 70
     0
 39
0.003
 10
-0.351453
 20
-0.440193
 40
0.003
 41
0.003
 10
-0.340346
 20
-0.406933
 40
0.003
 41
0.003
  0
LWPOLYLINE
  5
19A
100
AcDbEntity
  8
0
 62
     0
100
AcDbPolyline
 90
        2
 70
     0
 39
0.003
 10
-0.340346
 20
-0.406933
 40
0.003
 41
0.003
 10
-0.330043
 20
-0.373394
 40
0.003
 41
0.003
  0
LWPOLYLINE
  5
19B
100
AcDbEntity
  8
0
 62
     0
100
AcDbPolyline
 90
        2
 70
     0
 39
0.003
 10
-0.330043
 20
-0.373394
 40
0.003
 41
0.003
 10
-0.320441
 20
-0.339693
 40
0.003
 41
0.003
  0
LWPOLYLINE
  5
19C
100
AcDbEntity
  8
0
 62
     0
100
AcDbPolyline
 90
        2
 70
     0
 39
0.003
 10
-0.320441
 20
-0.339693
 40
0.003
 41
0.003
 10
-0.311449
 20
-0.305921
 40
0.003
 41
0.003
  0
LWPOLYLINE
  5
19D
100
AcDbEntity
  8
0
 62
     0
100
AcDbPolyline
 90
        2
 70
     0
 39
0.003
 10
-0.311449
 20
-0.305921
 40
0.003
 41
0.003
 10
-0.302961
 20
-0.272189
 40
0.003
 41
0.003
  0
LWPOLYLINE
  5
19E
100
AcDbEntity
  8
0
 62
     0
100
AcDbPolyline
 90
        2
 70
     0
 39
0.003
 10
-0.302961
 20
-0.272189
 40
0.003
 41
0.003
 10
-0.294894
 20
-0.238583
 40
0.003
 41
0.003
  0
LWPOLYLINE
  5
19F
100
AcDbEntity
  8
0
 62
     0
100
AcDbPolyline
 90
        2
 70
     0
 39
0.003
 10
-0.294894
 20
-0.238583
 40
0.003
 41
0.003
 10
-0.287138
 20
-0.20522
 40
0.003
 41
0.003
  0
LWPOLYLINE
  5
1A0
100
AcDbEntity
  8
0
 62
     0
100
AcDbPolyline
 90
        2
 70
     0
 39
0.003
 10
-0.287138
 20
-0.20522
 40
0.003
 41
0.003
 10
-0.279606
 20
-0.172193
 40
0.003
 41
0.003
  0
LWPOLYLINE
  5
1A1
100
AcDbEntity
  8
0
 62
     0
100
AcDbPolyline
 90
        2
 70
     0
 39
0.003
 10
-0.279606
 20
-0.172193
 40
0.003
 41
0.003
 10
-0.272189
 20
-0.139614
 40
0.003
 41
0.003
  0
LWPOLYLINE
  5
1A2
100
AcDbEntity
  8
0
 62
     0
100
AcDbPolyline
 90
        2
 70
     0
 39
0.003
 10
-0.272189
 20
-0.139614
 40
0.003
 41
0.003
 10
-0.264803
 20
-0.107567
 40
0.003
 41
0.003
  0
LWPOLYLINE
  5
1A3
100
AcDbEntity
  8
0
 62
     0
100
AcDbPolyline
 90
        2
 70
     0
 39
0.003
 10
-0.264803
 20
-0.107567
 40
0.003
 41
0.003
 10
-0.257343
 20
-0.076173
 40
0.003
 41
0.003
  0
LWPOLYLINE
  5
1A4
100
AcDbEntity
  8
0
 62
     0
100
AcDbPolyline
 90
        2
 70
     0
 39
0.003
 10
-0.257343
 20
-0.076173
 40
0.003
 41
0.003
 10
-0.249717
 20
-0.04552
 40
0.003
 41
0.003
  0
LWPOLYLINE
  5
1A5
100
AcDbEntity
  8
0
 62
     0
100
AcDbPolyline
 90
        2
 70
     0
 39
0.003
 10
-0.249717
 20
-0.04552
 40
0.003
 41
0.003
 10
-0.241819
 20
-0.015724
 40
0.003
 41
0.003
  0
LWPOLYLINE
  5
1A6
100
AcDbEntity
  8
0
 62
     0
100
AcDbPolyline
 90
        2
 70
     0
 39
0.003
 10
-0.241819
 20
-0.015724
 40
0.003
 41
0.003
 10
-0.233866
 20
0.01389
 40
0.003
 41
0.003
  0
LWPOLYLINE
  5
1A7
100
AcDbEntity
  8
0
 62
     0
100
AcDbPolyline
 90
        2
 70
     0
 39
0.003
 10
-0.233866
 20
0.01389
 40
0.003
 41
0.003
 10
-0.226047
 20
0.043953
 40
0.003
 41
0.003
  0
LWPOLYLINE
  5
1A8
100
AcDbEntity
  8
0
 62
     0
100
AcDbPolyline
 90
        2
 70
     0
 39
0.003
 10
-0.226047
 20
0.043953
 40
0.003
 41
0.003
 10
-0.218272
 20
0.074378
 40
0.003
 41
0.003
  0
LWPOLYLINE
  5
1A9
100
AcDbEntity
  8
0
 62
     0
100
AcDbPolyline
 90
        2
 70
     0
 39
0.003
 10
-0.218272
 20
0.074378
 40
0.003
 41
0.003
 10
-0.210445
 20
0.105094
 40
0.003
 41
0.003
  0
LWPOLYLINE
  5
1AA
100
AcDbEntity
  8
0
 62
     0
100
AcDbPolyline
 90
        2
 70
     0
 39
0.003
 10
-0.210445
 20
0.105094
 40
0.003
 41
0.003
 10
-0.202484
 20
0.135992
 40
0.003
 41
0.003
  0
LWPOLYLINE
  5
1AB
100
AcDbEntity
  8
0
 62
     0
100
AcDbPolyline
 90
        2
 70
     0
 39
0.003
 10
-0.202484
 20
0.135992
 40
0.003
 41
0.003
 10
-0.194283
 20
0.166992
 40
0.003
 41
0.003
  0
LWPOLYLINE
  5
1AC
100
AcDbEntity
  8
0
 62
     0
100
AcDbPolyline
 90
        2
 70
     0
 39
0.003
 10
-0.194283
 20
0.166992
 40
0.003
 41
0.003
 10
-0.185764
 20
0.197992
 40
0.003
 41
0.003
  0
LWPOLYLINE
  5
1AD
100
AcDbEntity
  8
0
 62
     0
100
AcDbPolyline
 90
        2
 70
     0
 39
0.003
 10
-0.185764
 20
0.197992
 40
0.003
 41
0.003
 10
-0.176823
 20
0.228913
 40
0.003
 41
0.003
  0
LWPOLYLINE
  5
1AE
100
AcDbEntity
  8
0
 62
     0
100
AcDbPolyline
 90
        2
 70
     0
 39
0.003
 10
-0.176823
 20
0.228913
 40
0.003
 41
0.003
 10
-0.167378
 20
0.25965
 40
0.003
 41
0.003
  0
LWPOLYLINE
  5
1AF
100
AcDbEntity
  8
0
 62
     0
100
AcDbPolyline
 90
        2
 70
     0
 39
0.003
 10
-0.167378
 20
0.25965
 40
0.003
 41
0.003
 10
-0.157331
 20
0.290126
 40
0.003
 41
0.003
  0
LWPOLYLINE
  5
1B0
100
AcDbEntity
  8
0
 62
     0
100
AcDbPolyline
 90
        2
 70
     0
 39
0.003
 10
-0.157331
 20
0.290126
 40
0.003
 41
0.003
 10
-0.146587
 20
0.320236
 40
0.003
 41
0.003
  0
LWPOLYLINE
  5
1B1
100
AcDbEntity
  8
0
 62
     0
100
AcDbPolyline
 90
        2
 70
     0
 39
0.003
 10
-0.146587
 20
0.320236
 40
0.003
 41
0.003
 10
-0.135055
 20
0.349902
 40
0.003
 41
0.003
  0
LWPOLYLINE
  5
1B2
100
AcDbEntity
  8
0
 62
     0
100
AcDbPolyline
 90
        2
 70
     0
 39
0.003
 10
-0.135055
 20
0.349902
 40
0.003
 41
0.003
 10
-0.12265
 20
0.379024
 40
0.003
 41
0.003
  0
LWPOLYLINE
  5
1B3
100
AcDbEntity
  8
0
 62
     0
100
AcDbPolyline
 90
        2
 70
     0
 39
0.003
 10
-0.12265
 20
0.379024
 40
0.003
 41
0.003
 10
-0.109268
 20
0.407512
 40
0.003
 41
0.003
  0
LWPOLYLINE
  5
1B4
100
AcDbEntity
  8
0
 62
     0
100
AcDbPolyline
 90
        2
 70
     0
 39
0.003
 10
-0.109268
 20
0.407512
 40
0.003
 41
0.003
 10
-0.094831
 20
0.43528
 40
0.003
 41
0.003
  0
LWPOLYLINE
  5
1B5
100
AcDbEntity
  8
0
 62
     0
100
AcDbPolyline
 90
        2
 70
     0
 39
0.003
 10
-0.094831
 20
0.43528
 40
0.003
 41
0.003
 10
-0.079228
 20
0.462236
 40
0.003
 41
0.003
  0
LWPOLYLINE
  5
1B6
100
AcDbEntity
  8
0
 62
     0
100
AcDbPolyline
 90
        2
 70
     0
 39
0.003
 10
-0.079228
 20
0.462236
 40
0.003
 41
0.003
 10
-0.062394
 20
0.48828
 40
0.003
 41
0.003
  0
LWPOLYLINE
  5
1B7
100
AcDbEntity
  8
0
 62
     0
100
AcDbPolyline
 90
        2
 70
     0
 39
0.003
 10
-0.062394
 20
0.48828
 40
0.003
 41
0.003
 10
-0.044209
 20
0.513331
 40
0.003
 41
0.003
  0
LWPOLYLINE
  5
1B8
100
AcDbEntity
  8
0
 62
     0
100
AcDbPolyline
 90
        2
 70
     0
 39
0.003
 10
-0.044209
 20
0.513331
 40
0.003
 41
0.003
 10
-0.024598
 20
0.537295
 40
0.003
 41
0.003
  0
LWPOLYLINE
  5
1B9
100
AcDbEntity
  8
0
 62
     0
100
AcDbPolyline
 90
        2
 70
     0
 39
0.003
 10
-0.024598
 20
0.537295
 40
0.003
 41
0.003
 10
-0.003457
 20
0.560087
 40
0.003
 41
0.003
  0
LWPOLYLINE
  5
1BA
100
AcDbEntity
  8
0
 62
     0
100
AcDbPolyline
 90
        2
 70
     0
 39
0.003
 10
-0.003457
 20
0.560087
 40
0.003
 41
0.003
 10
0.019291
 20
0.581602
 40
0.003
 41
0.003
  0
LWPOLYLINE
  5
1BB
100
AcDbEntity
  8
0
 62
     0
100
AcDbPolyline
 90
        2
 70
     0
 39
0.003
 10
0.019291
 20
0.581602
 40
0.003
 41
0.003
 10
0.043756
 20
0.601764
 40
0.003
 41
0.003
  0
LWPOLYLINE
  5
1BC
100
AcDbEntity
  8
0
 62
     0
100
AcDbPolyline
 90
        2
 70
     0
 39
0.003
 10
0.043756
 20
0.601764
 40
0.003
 41
0.003
 10
0.07002
 20
0.620469
 40
0.003
 41
0.003
  0
LWPOLYLINE
  5
1BD
100
AcDbEntity
  8
0
 62
     0
100
AcDbPolyline
 90
        2
 70
     0
 39
0.003
 10
0.07002
 20
0.620469
 40
0.003
 41
0.003
 10
0.098181
 20
0.637638
 40
0.003
 41
0.003
  0
LWPOLYLINE
  5
1BE
100
AcDbEntity
  8
0
 62
     0
100
AcDbPolyline
 90
        2
 70
     0
 39
0.003
 10
0.098181
 20
0.637638
 40
0.003
 41
0.003
 10
0.128315
 20
0.653165
 40
0.003
 41
0.003
  0
LWPOLYLINE
  5
1BF
100
AcDbEntity
  8
0
 62
     0
100
AcDbPolyline
 90
        2
 70
     0
 39
0.003
 10
0.128315
 20
0.653165
 40
0.003
 41
0.003
 10
0.160535
 20
0.666976
 40
0.003
 41
0.003
  0
LWPOLYLINE
  5
1C0
100
AcDbEntity
  8
0
 62
     0
100
AcDbPolyline
 90
        2
 70
     0
 39
0.003
 10
0.160535
 20
0.666976
 40
0.003
 41
0.003
 10
0.194921
 20
0.678969
 40
0.003
 41
0.003
  0
LWPOLYLINE
  5
1C1
100
AcDbEntity
  8
0
 62
     0
100
AcDbPolyline
 90
        2
 70
     0
 39
0.003
 10
0.194921
 20
0.678969
 40
0.003
 41
0.003
 10
0.231579
 20
0.689059
 40
0.003
 41
0.003
  0
LWPOLYLINE
  5
1C2
100
AcDbEntity
  8
0
 62
     0
100
AcDbPolyline
 90
        2
 70
     0
 39
0.003
 10
0.231579
 20
0.689059
 40
0.003
 41
0.003
 10
0.270579
 20
0.697146
 40
0.003
 41
0.003
  0
LWPOLYLINE
  5
1C3
100
AcDbEntity
  8
0
 62
     0
100
AcDbPolyline
 90
        2
 70
     0
 39
0.003
 10
0.270579
 20
0.697146
 40
0.003
 41
0.003
 10
0.312031
 20
0.703154
 40
0.003
 41
0.003
  0
LWPOLYLINE
  5
1C4
100
AcDbEntity
  8
0
 62
     0
100
AcDbPolyline
 90
        2
 70
     0
 39
0.003
 10
0.312031
 20
0.703154
 40
0.003
 41
0.003
 10
0.356024
 20
0.706976
 40
0.003
 41
0.003
  0
LWPOLYLINE
  5
1C5
100
AcDbEntity
  8
0
 62
     0
100
AcDbPolyline
 90
        2
 70
     0
 39
0.003
 10
0.356024
 20
0.706976
 40
0.003
 41
0.003
 10
0.40265
 20
0.708535
 40
0.003
 41
0.003
  0
LWPOLYLINE
  5
1C6
100
AcDbEntity
  8
0
 62
   254
100
AcDbPolyline
 90
        2
 70
     0
 39
0.003
 10
-0.843169
 20
-0.885437
 40
0.003
 41
0.003
 10
-0.191091
 20
-1.26789
 40
0.003
 41
0.003
  0
LWPOLYLINE
  5
1C7
100
AcDbEntity
  8
0
 62
   254
100
AcDbPolyline
 90
        2
 70
     0
 39
0.003
 10
-0.191091
 20
-1.26789
 40
0.003
 41
0.003
 10
-0.191091
 20
-1.770492
 40
0.003
 41
0.003
  0
LWPOLYLINE
  5
1C8
100
AcDbEntity
  8
0
 62
   254
100
AcDbPolyline
 90
        2
 70
     0
 39
0.003
 10
-0.191091
 20
-1.770492
 40
0.003
 41
0.003
 10
-0.843169
 20
-1.388039
 40
0.003
 41
0.003
  0
LWPOLYLINE
  5
1C9
100
AcDbEntity
  8
0
 62
   254
100
AcDbPolyline
 90
        2
 70
     0
 39
0.003
 10
-0.843169
 20
-1.388039
 40
0.003
 41
0.003
 10
-0.843169
 20
-0.885437
 40
0.003
 41
0.003
  0
LWPOLYLINE
  5
1CA
100
AcDbEntity
  8
0
 62
     0
100
AcDbPolyline
 90
        2
 70
     0
 39
0.003
 10
-0.843169
 20
-0.885437
 40
0.003
 41
0.003
 10
-0.191091
 20
-1.26789
 40
0.003
 41
0.003
  0
LWPOLYLINE
  5
1CB
100
AcDbEntity
  8
0
 62
     0
100
AcDbPolyline
 90
        2
 70
     0
 39
0.003
 10
-0.191091
 20
-1.26789
 40
0.003
 41
0.003
 10
-0.191091
 20
-1.770492
 40
0.003
 41
0.003
  0
LWPOLYLINE
  5
1CC
100
AcDbEntity
  8
0
 62
     0
100
AcDbPolyline
 90
        2
 70
     0
 39
0.003
 10
-0.191091
 20
-1.770492
 40
0.003
 41
0.003
 10
-0.843169
 20
-1.388039
 40
0.003
 41
0.003
  0
LWPOLYLINE
  5
1CD
100
AcDbEntity
  8
0
 62
     0
100
AcDbPolyline
 90
        2
 70
     0
 39
0.003
 10
-0.843169
 20
-1.388039
 40
0.003
 41
0.003
 10
-0.843169
 20
-0.885437
 40
0.003
 41
0.003
  0
LWPOLYLINE
  5
1CE
100
AcDbEntity
  8
0
 62
   254
100
AcDbPolyline
 90
        2
 70
     0
 39
0.003
 10
-0.843169
 20
-1.388039
 40
0.003
 41
0.003
 10
-0.191091
 20
-1.770492
 40
0.003
 41
0.003
  0
LWPOLYLINE
  5
1CF
100
AcDbEntity
  8
0
 62
   254
100
AcDbPolyline
 90
        2
 70
     0
 39
0.003
 10
-0.191091
 20
-1.770492
 40
0.003
 41
0.003
 10
-0.440114
 20
-1.770492
 40
0.003
 41
0.003
  0
LWPOLYLINE
  5
1D0
100
AcDbEntity
  8
0
 62
   254
100
AcDbPolyline
 90
        2
 70
     0
 39
0.003
 10
-0.440114
 20
-1.770492
 40
0.003
 41
0.003
 10
-1.092193
 20
-1.388039
 40
0.003
 41
0.003
  0
LWPOLYLINE
  5
1D1
100
AcDbEntity
  8
0
 62
   254
100
AcDbPolyline
 90
        2
 70
     0
 39
0.003
 10
-1.092193
 20
-1.388039
 40
0.003
 41
0.003
 10
-0.843169
 20
-1.388039
 40
0.003
 41
0.003
  0
LWPOLYLINE
  5
1D2
100
AcDbEntity
  8
0
 62
     0
100
AcDbPolyline
 90
        2
 70
     0
 39
0.003
 10
-0.843169
 20
-1.388039
 40
0.003
 41
0.003
 10
-0.191091
 20
-1.770492
 40
0.003
 41
0.003
  0
LWPOLYLINE
  5
1D3
100
AcDbEntity
  8
0
 62
     0
100
AcDbPolyline
 90
        2
 70
     0
 39
0.003
 10
-0.191091
 20
-1.770492
 40
0.003
 41
0.003
 10
-0.440114
 20
-1.770492
 40
0.003
 41
0.003
  0
LWPOLYLINE
  5
1D4
100
AcDbEntity
  8
0
 62
     0
100
AcDbPolyline
 90
        2
 70
     0
 39
0.003
 10
-0.440114
 20
-1.770492
 40
0.003
 41
0.003
 10
-1.092193
 20
-1.388039
 40
0.003
 41
0.003
  0
LWPOLYLINE
  5
1D5
100
AcDbEntity
  8
0
 62
     0
100
AcDbPolyline
 90
        2
 70
     0
 39
0.003
 10
-1.092193
 20
-1.388039
 40
0.003
 41
0.003
 10
-0.843169
 20
-1.388039
 40
0.003
 41
0.003
  0
LWPOLYLINE
  5
1D6
100
AcDbEntity
  8
0
 62
   254
100
AcDbPolyline
 90
        2
 70
     0
 39
0.003
 10
0.40265
 20
1.211835
 40
0.003
 41
0.003
 10
1.054728
 20
0.829382
 40
0.003
 41
0.003
  0
LWPOLYLINE
  5
1D7
100
AcDbEntity
  8
0
 62
   254
100
AcDbPolyline
 90
        2
 70
     0
 39
0.003
 10
1.054728
 20
0.829382
 40
0.003
 41
0.003
 10
1.054728
 20
0.326083
 40
0.003
 41
0.003
  0
LWPOLYLINE
  5
1D8
100
AcDbEntity
  8
0
 62
   254
100
AcDbPolyline
 90
        2
 70
     0
 39
0.003
 10
1.054728
 20
0.326083
 40
0.003
 41
0.003
 10
0.40265
 20
0.708535
 40
0.003
 41
0.003
  0
LWPOLYLINE
  5
1D9
100
AcDbEntity
  8
0
 62
   254
100
AcDbPolyline
 90
        2
 70
     0
 39
0.003
 10
0.40265
 20
0.708535
 40
0.003
 41
0.003
 10
0.40265
 20
1.211835
 40
0.003
 41
0.003
  0
LWPOLYLINE
  5
1DA
100
AcDbEntity
  8
0
 62
     0
100
AcDbPolyline
 90
        2
 70
     0
 39
0.003
 10
0.40265
 20
1.211835
 40
0.003
 41
0.003
 10
1.054728
 20
0.829382
 40
0.003
 41
0.003
  0
LWPOLYLINE
  5
1DB
100
AcDbEntity
  8
0
 62
     0
100
AcDbPolyline
 90
        2
 70
     0
 39
0.003
 10
1.054728
 20
0.829382
 40
0.003
 41
0.003
 10
1.054728
 20
0.326083
 40
0.003
 41
0.003
  0
LWPOLYLINE
  5
1DC
100
AcDbEntity
  8
0
 62
     0
100
AcDbPolyline
 90
        2
 70
     0
 39
0.003
 10
1.054728
 20
0.326083
 40
0.003
 41
0.003
 10
0.40265
 20
0.708535
 40
0.003
 41
0.003
  0
LWPOLYLINE
  5
1DD
100
AcDbEntity
  8
0
 62
     0
100
AcDbPolyline
 90
        2
 70
     0
 39
0.003
 10
0.40265
 20
0.708535
 40
0.003
 41
0.003
 10
0.40265
 20
1.211835
 40
0.003
 41
0.003
  0
LWPOLYLINE
  5
1DE
100
AcDbEntity
  8
0
 62
   254
100
AcDbPolyline
 90
        2
 70
     0
 39
0.003
 10
0.40265
 20
0.708535
 40
0.003
 41
0.003
 10
1.054728
 20
0.326083
 40
0.003
 41
0.003
  0
LWPOLYLINE
  5
1DF
100
AcDbEntity
  8
0
 62
   254
100
AcDbPolyline
 90
        2
 70
     0
 39
0.003
 10
1.054728
 20
0.326083
 40
0.003
 41
0.003
 10
1.008102
 20
0.324524
 40
0.003
 41
0.003
  0
LWPOLYLINE
  5
1E0
100
AcDbEntity
  8
0
 62
   254
100
AcDbPolyline
 90
        2
 70
     0
 39
0.003
 10
1.008102
 20
0.324524
 40
0.003
 41
0.003
 10
0.356024
 20
0.706976
 40
0.003
 41
0.003
  0
LWPOLYLINE
  5
1E1
100
AcDbEntity
  8
0
 62
   254
100
AcDbPolyline
 90
        2
 70
     0
 39
0.003
 10
0.356024
 20
0.706976
 40
0.003
 41
0.003
 10
0.40265
 20
0.708535
 40
0.003
 41
0.003
  0
LWPOLYLINE
  5
1E2
100
AcDbEntity
  8
0
 62
   254
100
AcDbPolyline
 90
        2
 70
     0
 39
0.003
 10
0.356024
 20
0.706976
 40
0.003
 41
0.003
 10
1.008102
 20
0.324524
 40
0.003
 41
0.003
  0
LWPOLYLINE
  5
1E3
100
AcDbEntity
  8
0
 62
   254
100
AcDbPolyline
 90
        2
 70
     0
 39
0.003
 10
1.008102
 20
0.324524
 40
0.003
 41
0.003
 10
0.96411
 20
0.320701
 40
0.003
 41
0.003
  0
LWPOLYLINE
  5
1E4
100
AcDbEntity
  8
0
 62
   254
100
AcDbPolyline
 90
        2
 70
     0
 39
0.003
 10
0.96411
 20
0.320701
 40
0.003
 41
0.003
 10
0.312031
 20
0.703154
 40
0.003
 41
0.003
  0
LWPOLYLINE
  5
1E5
100
AcDbEntity
  8
0
 62
   254
100
AcDbPolyline
 90
        2
 70
     0
 39
0.003
 10
0.312031
 20
0.703154
 40
0.003
 41
0.003
 10
0.356024
 20
0.706976
 40
0.003
 41
0.003
  0
LWPOLYLINE
  5
1E6
100
AcDbEntity
  8
0
 62
   254
100
AcDbPolyline
 90
        2
 70
     0
 39
0.003
 10
0.312031
 20
0.703154
 40
0.003
 41
0.003
 10
0.96411
 20
0.320701
 40
0.003
 41
0.003
  0
LWPOLYLINE
  5
1E7
100
AcDbEntity
  8
0
 62
   254
100
AcDbPolyline
 90
        2
 70
     0
 39
0.003
 10
0.96411
 20
0.320701
 40
0.003
 41
0.003
 10
0.922657
 20
0.314693
 40
0.003
 41
0.003
  0
LWPOLYLINE
  5
1E8
100
AcDbEntity
  8
0
 62
   254
100
AcDbPolyline
 90
        2
 70
     0
 39
0.003
 10
0.922657
 20
0.314693
 40
0.003
 41
0.003
 10
0.270579
 20
0.697146
 40
0.003
 41
0.003
  0
LWPOLYLINE
  5
1E9
100
AcDbEntity
  8
0
 62
   254
100
AcDbPolyline
 90
        2
 70
     0
 39
0.003
 10
0.270579
 20
0.697146
 40
0.003
 41
0.003
 10
0.312031
 20
0.703154
 40
0.003
 41
0.003
  0
LWPOLYLINE
  5
1EA
100
AcDbEntity
  8
0
 62
   254
100
AcDbPolyline
 90
        2
 70
     0
 39
0.003
 10
0.270579
 20
0.697146
 40
0.003
 41
0.003
 10
0.922657
 20
0.314693
 40
0.003
 41
0.003
  0
LWPOLYLINE
  5
1EB
100
AcDbEntity
  8
0
 62
   254
100
AcDbPolyline
 90
        2
 70
     0
 39
0.003
 10
0.922657
 20
0.314693
 40
0.003
 41
0.003
 10
0.883657
 20
0.306606
 40
0.003
 41
0.003
  0
LWPOLYLINE
  5
1EC
100
AcDbEntity
  8
0
 62
   254
100
AcDbPolyline
 90
        2
 70
     0
 39
0.003
 10
0.883657
 20
0.306606
 40
0.003
 41
0.003
 10
0.231579
 20
0.689059
 40
0.003
 41
0.003
  0
LWPOLYLINE
  5
1ED
100
AcDbEntity
  8
0
 62
   254
100
AcDbPolyline
 90
        2
 70
     0
 39
0.003
 10
0.231579
 20
0.689059
 40
0.003
 41
0.003
 10
0.270579
 20
0.697146
 40
0.003
 41
0.003
  0
LWPOLYLINE
  5
1EE
100
AcDbEntity
  8
0
 62
   254
100
AcDbPolyline
 90
        2
 70
     0
 39
0.003
 10
0.231579
 20
0.689059
 40
0.003
 41
0.003
 10
0.883657
 20
0.306606
 40
0.003
 41
0.003
  0
LWPOLYLINE
  5
1EF
100
AcDbEntity
  8
0
 62
   254
100
AcDbPolyline
 90
        2
 70
     0
 39
0.003
 10
0.883657
 20
0.306606
 40
0.003
 41
0.003
 10
0.847
 20
0.296516
 40
0.003
 41
0.003
  0
LWPOLYLINE
  5
1F0
100
AcDbEntity
  8
0
 62
   254
100
AcDbPolyline
 90
        2
 70
     0
 39
0.003
 10
0.847
 20
0.296516
 40
0.003
 41
0.003
 10
0.194921
 20
0.678969
 40
0.003
 41
0.003
  0
LWPOLYLINE
  5
1F1
100
AcDbEntity
  8
0
 62
   254
100
AcDbPolyline
 90
        2
 70
     0
 39
0.003
 10
0.194921
 20
0.678969
 40
0.003
 41
0.003
 10
0.231579
 20
0.689059
 40
0.003
 41
0.003
  0
LWPOLYLINE
  5
1F2
100
AcDbEntity
  8
0
 62
   254
100
AcDbPolyline
 90
        2
 70
     0
 39
0.003
 10
0.194921
 20
0.678969
 40
0.003
 41
0.003
 10
0.847
 20
0.296516
 40
0.003
 41
0.003
  0
LWPOLYLINE
  5
1F3
100
AcDbEntity
  8
0
 62
   254
100
AcDbPolyline
 90
        2
 70
     0
 39
0.003
 10
0.847
 20
0.296516
 40
0.003
 41
0.003
 10
0.812614
 20
0.284524
 40
0.003
 41
0.003
  0
LWPOLYLINE
  5
1F4
100
AcDbEntity
  8
0
 62
   254
100
AcDbPolyline
 90
        2
 70
     0
 39
0.003
 10
0.812614
 20
0.284524
 40
0.003
 41
0.003
 10
0.160535
 20
0.666976
 40
0.003
 41
0.003
  0
LWPOLYLINE
  5
1F5
100
AcDbEntity
  8
0
 62
   254
100
AcDbPolyline
 90
        2
 70
     0
 39
0.003
 10
0.160535
 20
0.666976
 40
0.003
 41
0.003
 10
0.194921
 20
0.678969
 40
0.003
 41
0.003
  0
LWPOLYLINE
  5
1F6
100
AcDbEntity
  8
0
 62
   254
100
AcDbPolyline
 90
        2
 70
     0
 39
0.003
 10
0.160535
 20
0.666976
 40
0.003
 41
0.003
 10
0.812614
 20
0.284524
 40
0.003
 41
0.003
  0
LWPOLYLINE
  5
1F7
100
AcDbEntity
  8
0
 62
   254
100
AcDbPolyline
 90
        2
 70
     0
 39
0.003
 10
0.812614
 20
0.284524
 40
0.003
 41
0.003
 10
0.780394
 20
0.270713
 40
0.003
 41
0.003
  0
LWPOLYLINE
  5
1F8
100
AcDbEntity
  8
0
 62
   254
100
AcDbPolyline
 90
        2
 70
     0
 39
0.003
 10
0.780394
 20
0.270713
 40
0.003
 41
0.003
 10
0.128315
 20
0.653165
 40
0.003
 41
0.003
  0
LWPOLYLINE
  5
1F9
100
AcDbEntity
  8
0
 62
   254
100
AcDbPolyline
 90
        2
 70
     0
 39
0.003
 10
0.128315
 20
0.653165
 40
0.003
 41
0.003
 10
0.160535
 20
0.666976
 40
0.003
 41
0.003
  0
LWPOLYLINE
  5
1FA
100
AcDbEntity
  8
0
 62
   254
100
AcDbPolyline
 90
        2
 70
     0
 39
0.003
 10
0.128315
 20
0.653165
 40
0.003
 41
0.003
 10
0.780394
 20
0.270713
 40
0.003
 41
0.003
  0
LWPOLYLINE
  5
1FB
100
AcDbEntity
  8
0
 62
   254
100
AcDbPolyline
 90
        2
 70
     0
 39
0.003
 10
0.780394
 20
0.270713
 40
0.003
 41
0.003
 10
0.75026
 20
0.255185
 40
0.003
 41
0.003
  0
LWPOLYLINE
  5
1FC
100
AcDbEntity
  8
0
 62
   254
100
AcDbPolyline
 90
        2
 70
     0
 39
0.003
 10
0.75026
 20
0.255185
 40
0.003
 41
0.003
 10
0.098181
 20
0.637638
 40
0.003
 41
0.003
  0
LWPOLYLINE
  5
1FD
100
AcDbEntity
  8
0
 62
   254
100
AcDbPolyline
 90
        2
 70
     0
 39
0.003
 10
0.098181
 20
0.637638
 40
0.003
 41
0.003
 10
0.128315
 20
0.653165
 40
0.003
 41
0.003
  0
LWPOLYLINE
  5
1FE
100
AcDbEntity
  8
0
 62
   254
100
AcDbPolyline
 90
        2
 70
     0
 39
0.003
 10
0.098181
 20
0.637638
 40
0.003
 41
0.003
 10
0.75026
 20
0.255185
 40
0.003
 41
0.003
  0
LWPOLYLINE
  5
1FF
100
AcDbEntity
  8
0
 62
   254
100
AcDbPolyline
 90
        2
 70
     0
 39
0.003
 10
0.75026
 20
0.255185
 40
0.003
 41
0.003
 10
0.722098
 20
0.238016
 40
0.003
 41
0.003
  0
LWPOLYLINE
  5
200
100
AcDbEntity
  8
0
 62
   254
100
AcDbPolyline
 90
        2
 70
     0
 39
0.003
 10
0.722098
 20
0.238016
 40
0.003
 41
0.003
 10
0.07002
 20
0.620469
 40
0.003
 41
0.003
  0
LWPOLYLINE
  5
201
100
AcDbEntity
  8
0
 62
   254
100
AcDbPolyline
 90
        2
 70
     0
 39
0.003
 10
0.07002
 20
0.620469
 40
0.003
 41
0.003
 10
0.098181
 20
0.637638
 40
0.003
 41
0.003
  0
LWPOLYLINE
  5
202
100
AcDbEntity
  8
0
 62
   254
100
AcDbPolyline
 90
        2
 70
     0
 39
0.003
 10
0.07002
 20
0.620469
 40
0.003
 41
0.003
 10
0.722098
 20
0.238016
 40
0.003
 41
0.003
  0
LWPOLYLINE
  5
203
100
AcDbEntity
  8
0
 62
   254
100
AcDbPolyline
 90
        2
 70
     0
 39
0.003
 10
0.722098
 20
0.238016
 40
0.003
 41
0.003
 10
0.695835
 20
0.219311
 40
0.003
 41
0.003
  0
LWPOLYLINE
  5
204
100
AcDbEntity
  8
0
 62
   254
100
AcDbPolyline
 90
        2
 70
     0
 39
0.003
 10
0.695835
 20
0.219311
 40
0.003
 41
0.003
 10
0.043756
 20
0.601764
 40
0.003
 41
0.003
  0
LWPOLYLINE
  5
205
100
AcDbEntity
  8
0
 62
   254
100
AcDbPolyline
 90
        2
 70
     0
 39
0.003
 10
0.043756
 20
0.601764
 40
0.003
 41
0.003
 10
0.07002
 20
0.620469
 40
0.003
 41
0.003
  0
LWPOLYLINE
  5
206
100
AcDbEntity
  8
0
 62
   254
100
AcDbPolyline
 90
        2
 70
     0
 39
0.003
 10
0.043756
 20
0.601764
 40
0.003
 41
0.003
 10
0.695835
 20
0.219311
 40
0.003
 41
0.003
  0
LWPOLYLINE
  5
207
100
AcDbEntity
  8
0
 62
   254
100
AcDbPolyline
 90
        2
 70
     0
 39
0.003
 10
0.695835
 20
0.219311
 40
0.003
 41
0.003
 10
0.67137
 20
0.19915
 40
0.003
 41
0.003
  0
LWPOLYLINE
  5
208
100
AcDbEntity
  8
0
 62
   254
100
AcDbPolyline
 90
        2
 70
     0
 39
0.003
 10
0.67137
 20
0.19915
 40
0.003
 41
0.003
 10
0.019291
 20
0.581602
 40
0.003
 41
0.003
  0
LWPOLYLINE
  5
209
100
AcDbEntity
  8
0
 62
   254
100
AcDbPolyline
 90
        2
 70
     0
 39
0.003
 10
0.019291
 20
0.581602
 40
0.003
 41
0.003
 10
0.043756
 20
0.601764
 40
0.003
 41
0.003
  0
LWPOLYLINE
  5
20A
100
AcDbEntity
  8
0
 62
   254
100
AcDbPolyline
 90
        2
 70
     0
 39
0.003
 10
0.019291
 20
0.581602
 40
0.003
 41
0.003
 10
0.67137
 20
0.19915
 40
0.003
 41
0.003
  0
LWPOLYLINE
  5
20B
100
AcDbEntity
  8
0
 62
   254
100
AcDbPolyline
 90
        2
 70
     0
 39
0.003
 10
0.67137
 20
0.19915
 40
0.003
 41
0.003
 10
0.648622
 20
0.177634
 40
0.003
 41
0.003
  0
LWPOLYLINE
  5
20C
100
AcDbEntity
  8
0
 62
   254
100
AcDbPolyline
 90
        2
 70
     0
 39
0.003
 10
0.648622
 20
0.177634
 40
0.003
 41
0.003
 10
-0.003457
 20
0.560087
 40
0.003
 41
0.003
  0
LWPOLYLINE
  5
20D
100
AcDbEntity
  8
0
 62
   254
100
AcDbPolyline
 90
        2
 70
     0
 39
0.003
 10
-0.003457
 20
0.560087
 40
0.003
 41
0.003
 10
0.019291
 20
0.581602
 40
0.003
 41
0.003
  0
LWPOLYLINE
  5
20E
100
AcDbEntity
  8
0
 62
   254
100
AcDbPolyline
 90
        2
 70
     0
 39
0.003
 10
-0.003457
 20
0.560087
 40
0.003
 41
0.003
 10
0.648622
 20
0.177634
 40
0.003
 41
0.003
  0
LWPOLYLINE
  5
20F
100
AcDbEntity
  8
0
 62
   254
100
AcDbPolyline
 90
        2
 70
     0
 39
0.003
 10
0.648622
 20
0.177634
 40
0.003
 41
0.003
 10
0.62748
 20
0.154843
 40
0.003
 41
0.003
  0
LWPOLYLINE
  5
210
100
AcDbEntity
  8
0
 62
   254
100
AcDbPolyline
 90
        2
 70
     0
 39
0.003
 10
0.62748
 20
0.154843
 40
0.003
 41
0.003
 10
-0.024598
 20
0.537295
 40
0.003
 41
0.003
  0
LWPOLYLINE
  5
211
100
AcDbEntity
  8
0
 62
   254
100
AcDbPolyline
 90
        2
 70
     0
 39
0.003
 10
-0.024598
 20
0.537295
 40
0.003
 41
0.003
 10
-0.003457
 20
0.560087
 40
0.003
 41
0.003
  0
LWPOLYLINE
  5
212
100
AcDbEntity
  8
0
 62
   254
100
AcDbPolyline
 90
        2
 70
     0
 39
0.003
 10
-0.024598
 20
0.537295
 40
0.003
 41
0.003
 10
0.62748
 20
0.154843
 40
0.003
 41
0.003
  0
LWPOLYLINE
  5
213
100
AcDbEntity
  8
0
 62
   254
100
AcDbPolyline
 90
        2
 70
     0
 39
0.003
 10
0.62748
 20
0.154843
 40
0.003
 41
0.003
 10
0.60787
 20
0.130878
 40
0.003
 41
0.003
  0
LWPOLYLINE
  5
214
100
AcDbEntity
  8
0
 62
   254
100
AcDbPolyline
 90
        2
 70
     0
 39
0.003
 10
0.60787
 20
0.130878
 40
0.003
 41
0.003
 10
-0.044209
 20
0.513331
 40
0.003
 41
0.003
  0
LWPOLYLINE
  5
215
100
AcDbEntity
  8
0
 62
   254
100
AcDbPolyline
 90
        2
 70
     0
 39
0.003
 10
-0.044209
 20
0.513331
 40
0.003
 41
0.003
 10
-0.024598
 20
0.537295
 40
0.003
 41
0.003
  0
LWPOLYLINE
  5
216
100
AcDbEntity
  8
0
 62
   254
100
AcDbPolyline
 90
        2
 70
     0
 39
0.003
 10
-0.044209
 20
0.513331
 40
0.003
 41
0.003
 10
0.60787
 20
0.130878
 40
0.003
 41
0.003
  0
LWPOLYLINE
  5
217
100
AcDbEntity
  8
0
 62
   254
100
AcDbPolyline
 90
        2
 70
     0
 39
0.003
 10
0.60787
 20
0.130878
 40
0.003
 41
0.003
 10
0.589685
 20
0.105827
 40
0.003
 41
0.003
  0
LWPOLYLINE
  5
218
100
AcDbEntity
  8
0
 62
   254
100
AcDbPolyline
 90
        2
 70
     0
 39
0.003
 10
0.589685
 20
0.105827
 40
0.003
 41
0.003
 10
-0.062394
 20
0.48828
 40
0.003
 41
0.003
  0
LWPOLYLINE
  5
219
100
AcDbEntity
  8
0
 62
   254
100
AcDbPolyline
 90
        2
 70
     0
 39
0.003
 10
-0.062394
 20
0.48828
 40
0.003
 41
0.003
 10
-0.044209
 20
0.513331
 40
0.003
 41
0.003
  0
LWPOLYLINE
  5
21A
100
AcDbEntity
  8
0
 62
   254
100
AcDbPolyline
 90
        2
 70
     0
 39
0.003
 10
-0.062394
 20
0.48828
 40
0.003
 41
0.003
 10
0.589685
 20
0.105827
 40
0.003
 41
0.003
  0
LWPOLYLINE
  5
21B
100
AcDbEntity
  8
0
 62
   254
100
AcDbPolyline
 90
        2
 70
     0
 39
0.003
 10
0.589685
 20
0.105827
 40
0.003
 41
0.003
 10
0.57285
 20
0.079783
 40
0.003
 41
0.003
  0
LWPOLYLINE
  5
21C
100
AcDbEntity
  8
0
 62
   254
100
AcDbPolyline
 90
        2
 70
     0
 39
0.003
 10
0.57285
 20
0.079783
 40
0.003
 41
0.003
 10
-0.079228
 20
0.462236
 40
0.003
 41
0.003
  0
LWPOLYLINE
  5
21D
100
AcDbEntity
  8
0
 62
   254
100
AcDbPolyline
 90
        2
 70
     0
 39
0.003
 10
-0.079228
 20
0.462236
 40
0.003
 41
0.003
 10
-0.062394
 20
0.48828
 40
0.003
 41
0.003
  0
LWPOLYLINE
  5
21E
100
AcDbEntity
  8
0
 62
   254
100
AcDbPolyline
 90
        2
 70
     0
 39
0.003
 10
-0.079228
 20
0.462236
 40
0.003
 41
0.003
 10
0.57285
 20
0.079783
 40
0.003
 41
0.003
  0
LWPOLYLINE
  5
21F
100
AcDbEntity
  8
0
 62
   254
100
AcDbPolyline
 90
        2
 70
     0
 39
0.003
 10
0.57285
 20
0.079783
 40
0.003
 41
0.003
 10
0.557248
 20
0.052827
 40
0.003
 41
0.003
  0
LWPOLYLINE
  5
220
100
AcDbEntity
  8
0
 62
   254
100
AcDbPolyline
 90
        2
 70
     0
 39
0.003
 10
0.557248
 20
0.052827
 40
0.003
 41
0.003
 10
-0.094831
 20
0.43528
 40
0.003
 41
0.003
  0
LWPOLYLINE
  5
221
100
AcDbEntity
  8
0
 62
   254
100
AcDbPolyline
 90
        2
 70
     0
 39
0.003
 10
-0.094831
 20
0.43528
 40
0.003
 41
0.003
 10
-0.079228
 20
0.462236
 40
0.003
 41
0.003
  0
LWPOLYLINE
  5
222
100
AcDbEntity
  8
0
 62
   254
100
AcDbPolyline
 90
        2
 70
     0
 39
0.003
 10
-0.094831
 20
0.43528
 40
0.003
 41
0.003
 10
0.557248
 20
0.052827
 40
0.003
 41
0.003
  0
LWPOLYLINE
  5
223
100
AcDbEntity
  8
0
 62
   254
100
AcDbPolyline
 90
        2
 70
     0
 39
0.003
 10
0.557248
 20
0.052827
 40
0.003
 41
0.003
 10
0.542811
 20
0.025059
 40
0.003
 41
0.003
  0
LWPOLYLINE
  5
224
100
AcDbEntity
  8
0
 62
   254
100
AcDbPolyline
 90
        2
 70
     0
 39
0.003
 10
0.542811
 20
0.025059
 40
0.003
 41
0.003
 10
-0.109268
 20
0.407512
 40
0.003
 41
0.003
  0
LWPOLYLINE
  5
225
100
AcDbEntity
  8
0
 62
   254
100
AcDbPolyline
 90
        2
 70
     0
 39
0.003
 10
-0.109268
 20
0.407512
 40
0.003
 41
0.003
 10
-0.094831
 20
0.43528
 40
0.003
 41
0.003
  0
LWPOLYLINE
  5
226
100
AcDbEntity
  8
0
 62
   254
100
AcDbPolyline
 90
        2
 70
     0
 39
0.003
 10
-0.109268
 20
0.407512
 40
0.003
 41
0.003
 10
0.542811
 20
0.025059
 40
0.003
 41
0.003
  0
LWPOLYLINE
  5
227
100
AcDbEntity
  8
0
 62
   254
100
AcDbPolyline
 90
        2
 70
     0
 39
0.003
 10
0.542811
 20
0.025059
 40
0.003
 41
0.003
 10
0.529429
 20
-0.003429
 40
0.003
 41
0.003
  0
LWPOLYLINE
  5
228
100
AcDbEntity
  8
0
 62
   254
100
AcDbPolyline
 90
        2
 70
     0
 39
0.003
 10
0.529429
 20
-0.003429
 40
0.003
 41
0.003
 10
-0.12265
 20
0.379024
 40
0.003
 41
0.003
  0
LWPOLYLINE
  5
229
100
AcDbEntity
  8
0
 62
   254
100
AcDbPolyline
 90
        2
 70
     0
 39
0.003
 10
-0.12265
 20
0.379024
 40
0.003
 41
0.003
 10
-0.109268
 20
0.407512
 40
0.003
 41
0.003
  0
LWPOLYLINE
  5
22A
100
AcDbEntity
  8
0
 62
   254
100
AcDbPolyline
 90
        2
 70
     0
 39
0.003
 10
-0.12265
 20
0.379024
 40
0.003
 41
0.003
 10
0.529429
 20
-0.003429
 40
0.003
 41
0.003
  0
LWPOLYLINE
  5
22B
100
AcDbEntity
  8
0
 62
   254
100
AcDbPolyline
 90
        2
 70
     0
 39
0.003
 10
0.529429
 20
-0.003429
 40
0.003
 41
0.003
 10
0.517024
 20
-0.032551
 40
0.003
 41
0.003
  0
LWPOLYLINE
  5
22C
100
AcDbEntity
  8
0
 62
   254
100
AcDbPolyline
 90
        2
 70
     0
 39
0.003
 10
0.517024
 20
-0.032551
 40
0.003
 41
0.003
 10
-0.135055
 20
0.349902
 40
0.003
 41
0.003
  0
LWPOLYLINE
  5
22D
100
AcDbEntity
  8
0
 62
   254
100
AcDbPolyline
 90
        2
 70
     0
 39
0.003
 10
-0.135055
 20
0.349902
 40
0.003
 41
0.003
 10
-0.12265
 20
0.379024
 40
0.003
 41
0.003
  0
LWPOLYLINE
  5
22E
100
AcDbEntity
  8
0
 62
   254
100
AcDbPolyline
 90
        2
 70
     0
 39
0.003
 10
-0.135055
 20
0.349902
 40
0.003
 41
0.003
 10
0.517024
 20
-0.032551
 40
0.003
 41
0.003
  0
LWPOLYLINE
  5
22F
100
AcDbEntity
  8
0
 62
   254
100
AcDbPolyline
 90
        2
 70
     0
 39
0.003
 10
0.517024
 20
-0.032551
 40
0.003
 41
0.003
 10
0.505492
 20
-0.062217
 40
0.003
 41
0.003
  0
LWPOLYLINE
  5
230
100
AcDbEntity
  8
0
 62
   254
100
AcDbPolyline
 90
        2
 70
     0
 39
0.003
 10
0.505492
 20
-0.062217
 40
0.003
 41
0.003
 10
-0.146587
 20
0.320236
 40
0.003
 41
0.003
  0
LWPOLYLINE
  5
231
100
AcDbEntity
  8
0
 62
   254
100
AcDbPolyline
 90
        2
 70
     0
 39
0.003
 10
-0.146587
 20
0.320236
 40
0.003
 41
0.003
 10
-0.135055
 20
0.349902
 40
0.003
 41
0.003
  0
LWPOLYLINE
  5
232
100
AcDbEntity
  8
0
 62
   254
100
AcDbPolyline
 90
        2
 70
     0
 39
0.003
 10
-0.146587
 20
0.320236
 40
0.003
 41
0.003
 10
0.505492
 20
-0.062217
 40
0.003
 41
0.003
  0
LWPOLYLINE
  5
233
100
AcDbEntity
  8
0
 62
   254
100
AcDbPolyline
 90
        2
 70
     0
 39
0.003
 10
0.505492
 20
-0.062217
 40
0.003
 41
0.003
 10
0.494748
 20
-0.092327
 40
0.003
 41
0.003
  0
LWPOLYLINE
  5
234
100
AcDbEntity
  8
0
 62
   254
100
AcDbPolyline
 90
        2
 70
     0
 39
0.003
 10
0.494748
 20
-0.092327
 40
0.003
 41
0.003
 10
-0.157331
 20
0.290126
 40
0.003
 41
0.003
  0
LWPOLYLINE
  5
235
100
AcDbEntity
  8
0
 62
   254
100
AcDbPolyline
 90
        2
 70
     0
 39
0.003
 10
-0.157331
 20
0.290126
 40
0.003
 41
0.003
 10
-0.146587
 20
0.320236
 40
0.003
 41
0.003
  0
LWPOLYLINE
  5
236
100
AcDbEntity
  8
0
 62
   254
100
AcDbPolyline
 90
        2
 70
     0
 39
0.003
 10
-0.157331
 20
0.290126
 40
0.003
 41
0.003
 10
0.494748
 20
-0.092327
 40
0.003
 41
0.003
  0
LWPOLYLINE
  5
237
100
AcDbEntity
  8
0
 62
   254
100
AcDbPolyline
 90
        2
 70
     0
 39
0.003
 10
0.494748
 20
-0.092327
 40
0.003
 41
0.003
 10
0.484701
 20
-0.122803
 40
0.003
 41
0.003
  0
LWPOLYLINE
  5
238
100
AcDbEntity
  8
0
 62
   254
100
AcDbPolyline
 90
        2
 70
     0
 39
0.003
 10
0.484701
 20
-0.122803
 40
0.003
 41
0.003
 10
-0.167378
 20
0.25965
 40
0.003
 41
0.003
  0
LWPOLYLINE
  5
239
100
AcDbEntity
  8
0
 62
   254
100
AcDbPolyline
 90
        2
 70
     0
 39
0.003
 10
-0.167378
 20
0.25965
 40
0.003
 41
0.003
 10
-0.157331
 20
0.290126
 40
0.003
 41
0.003
  0
LWPOLYLINE
  5
23A
100
AcDbEntity
  8
0
 62
   254
100
AcDbPolyline
 90
        2
 70
     0
 39
0.003
 10
-0.167378
 20
0.25965
 40
0.003
 41
0.003
 10
0.484701
 20
-0.122803
 40
0.003
 41
0.003
  0
LWPOLYLINE
  5
23B
100
AcDbEntity
  8
0
 62
   254
100
AcDbPolyline
 90
        2
 70
     0
 39
0.003
 10
0.484701
 20
-0.122803
 40
0.003
 41
0.003
 10
0.475256
 20
-0.153539
 40
0.003
 41
0.003
  0
LWPOLYLINE
  5
23C
100
AcDbEntity
  8
0
 62
   254
100
AcDbPolyline
 90
        2
 70
     0
 39
0.003
 10
0.475256
 20
-0.153539
 40
0.003
 41
0.003
 10
-0.176823
 20
0.228913
 40
0.003
 41
0.003
  0
LWPOLYLINE
  5
23D
100
AcDbEntity
  8
0
 62
   254
100
AcDbPolyline
 90
        2
 70
     0
 39
0.003
 10
-0.176823
 20
0.228913
 40
0.003
 41
0.003
 10
-0.167378
 20
0.25965
 40
0.003
 41
0.003
  0
LWPOLYLINE
  5
23E
100
AcDbEntity
  8
0
 62
   254
100
AcDbPolyline
 90
        2
 70
     0
 39
0.003
 10
-0.176823
 20
0.228913
 40
0.003
 41
0.003
 10
0.475256
 20
-0.153539
 40
0.003
 41
0.003
  0
LWPOLYLINE
  5
23F
100
AcDbEntity
  8
0
 62
   254
100
AcDbPolyline
 90
        2
 70
     0
 39
0.003
 10
0.475256
 20
-0.153539
 40
0.003
 41
0.003
 10
0.466315
 20
-0.184461
 40
0.003
 41
0.003
  0
LWPOLYLINE
  5
240
100
AcDbEntity
  8
0
 62
   254
100
AcDbPolyline
 90
        2
 70
     0
 39
0.003
 10
0.466315
 20
-0.184461
 40
0.003
 41
0.003
 10
-0.185764
 20
0.197992
 40
0.003
 41
0.003
  0
LWPOLYLINE
  5
241
100
AcDbEntity
  8
0
 62
   254
100
AcDbPolyline
 90
        2
 70
     0
 39
0.003
 10
-0.185764
 20
0.197992
 40
0.003
 41
0.003
 10
-0.176823
 20
0.228913
 40
0.003
 41
0.003
  0
LWPOLYLINE
  5
242
100
AcDbEntity
  8
0
 62
   254
100
AcDbPolyline
 90
        2
 70
     0
 39
0.003
 10
-0.185764
 20
0.197992
 40
0.003
 41
0.003
 10
0.466315
 20
-0.184461
 40
0.003
 41
0.003
  0
LWPOLYLINE
  5
243
100
AcDbEntity
  8
0
 62
   254
100
AcDbPolyline
 90
        2
 70
     0
 39
0.003
 10
0.466315
 20
-0.184461
 40
0.003
 41
0.003
 10
0.457795
 20
-0.215461
 40
0.003
 41
0.003
  0
LWPOLYLINE
  5
244
100
AcDbEntity
  8
0
 62
   254
100
AcDbPolyline
 90
        2
 70
     0
 39
0.003
 10
0.457795
 20
-0.215461
 40
0.003
 41
0.003
 10
-0.194283
 20
0.166992
 40
0.003
 41
0.003
  0
LWPOLYLINE
  5
245
100
AcDbEntity
  8
0
 62
   254
100
AcDbPolyline
 90
        2
 70
     0
 39
0.003
 10
-0.194283
 20
0.166992
 40
0.003
 41
0.003
 10
-0.185764
 20
0.197992
 40
0.003
 41
0.003
  0
LWPOLYLINE
  5
246
100
AcDbEntity
  8
0
 62
   254
100
AcDbPolyline
 90
        2
 70
     0
 39
0.003
 10
-0.194283
 20
0.166992
 40
0.003
 41
0.003
 10
0.457795
 20
-0.215461
 40
0.003
 41
0.003
  0
LWPOLYLINE
  5
247
100
AcDbEntity
  8
0
 62
   254
100
AcDbPolyline
 90
        2
 70
     0
 39
0.003
 10
0.457795
 20
-0.215461
 40
0.003
 41
0.003
 10
0.449594
 20
-0.246461
 40
0.003
 41
0.003
  0
LWPOLYLINE
  5
248
100
AcDbEntity
  8
0
 62
   254
100
AcDbPolyline
 90
        2
 70
     0
 39
0.003
 10
0.449594
 20
-0.246461
 40
0.003
 41
0.003
 10
-0.202484
 20
0.135992
 40
0.003
 41
0.003
  0
LWPOLYLINE
  5
249
100
AcDbEntity
  8
0
 62
   254
100
AcDbPolyline
 90
        2
 70
     0
 39
0.003
 10
-0.202484
 20
0.135992
 40
0.003
 41
0.003
 10
-0.194283
 20
0.166992
 40
0.003
 41
0.003
  0
LWPOLYLINE
  5
24A
100
AcDbEntity
  8
0
 62
   254
100
AcDbPolyline
 90
        2
 70
     0
 39
0.003
 10
-0.202484
 20
0.135992
 40
0.003
 41
0.003
 10
0.449594
 20
-0.246461
 40
0.003
 41
0.003
  0
LWPOLYLINE
  5
24B
100
AcDbEntity
  8
0
 62
   254
100
AcDbPolyline
 90
        2
 70
     0
 39
0.003
 10
0.449594
 20
-0.246461
 40
0.003
 41
0.003
 10
0.441634
 20
-0.277358
 40
0.003
 41
0.003
  0
LWPOLYLINE
  5
24C
100
AcDbEntity
  8
0
 62
   254
100
AcDbPolyline
 90
        2
 70
     0
 39
0.003
 10
0.441634
 20
-0.277358
 40
0.003
 41
0.003
 10
-0.210445
 20
0.105094
 40
0.003
 41
0.003
  0
LWPOLYLINE
  5
24D
100
AcDbEntity
  8
0
 62
   254
100
AcDbPolyline
 90
        2
 70
     0
 39
0.003
 10
-0.210445
 20
0.105094
 40
0.003
 41
0.003
 10
-0.202484
 20
0.135992
 40
0.003
 41
0.003
  0
LWPOLYLINE
  5
24E
100
AcDbEntity
  8
0
 62
   254
100
AcDbPolyline
 90
        2
 70
     0
 39
0.003
 10
-0.210445
 20
0.105094
 40
0.003
 41
0.003
 10
0.441634
 20
-0.277358
 40
0.003
 41
0.003
  0
LWPOLYLINE
  5
24F
100
AcDbEntity
  8
0
 62
   254
100
AcDbPolyline
 90
        2
 70
     0
 39
0.003
 10
0.441634
 20
-0.277358
 40
0.003
 41
0.003
 10
0.433807
 20
-0.308075
 40
0.003
 41
0.003
  0
LWPOLYLINE
  5
250
100
AcDbEntity
  8
0
 62
   254
100
AcDbPolyline
 90
        2
 70
     0
 39
0.003
 10
0.433807
 20
-0.308075
 40
0.003
 41
0.003
 10
-0.218272
 20
0.074378
 40
0.003
 41
0.003
  0
LWPOLYLINE
  5
251
100
AcDbEntity
  8
0
 62
   254
100
AcDbPolyline
 90
        2
 70
     0
 39
0.003
 10
-0.218272
 20
0.074378
 40
0.003
 41
0.003
 10
-0.210445
 20
0.105094
 40
0.003
 41
0.003
  0
LWPOLYLINE
  5
252
100
AcDbEntity
  8
0
 62
   254
100
AcDbPolyline
 90
        2
 70
     0
 39
0.003
 10
-0.218272
 20
0.074378
 40
0.003
 41
0.003
 10
0.433807
 20
-0.308075
 40
0.003
 41
0.003
  0
LWPOLYLINE
  5
253
100
AcDbEntity
  8
0
 62
   254
100
AcDbPolyline
 90
        2
 70
     0
 39
0.003
 10
0.433807
 20
-0.308075
 40
0.003
 41
0.003
 10
0.426031
 20
-0.3385
 40
0.003
 41
0.003
  0
LWPOLYLINE
  5
254
100
AcDbEntity
  8
0
 62
   254
100
AcDbPolyline
 90
        2
 70
     0
 39
0.003
 10
0.426031
 20
-0.3385
 40
0.003
 41
0.003
 10
-0.226047
 20
0.043953
 40
0.003
 41
0.003
  0
LWPOLYLINE
  5
255
100
AcDbEntity
  8
0
 62
   254
100
AcDbPolyline
 90
        2
 70
     0
 39
0.003
 10
-0.226047
 20
0.043953
 40
0.003
 41
0.003
 10
-0.218272
 20
0.074378
 40
0.003
 41
0.003
  0
LWPOLYLINE
  5
256
100
AcDbEntity
  8
0
 62
   254
100
AcDbPolyline
 90
        2
 70
     0
 39
0.003
 10
-0.226047
 20
0.043953
 40
0.003
 41
0.003
 10
0.426031
 20
-0.3385
 40
0.003
 41
0.003
  0
LWPOLYLINE
  5
257
100
AcDbEntity
  8
0
 62
   254
100
AcDbPolyline
 90
        2
 70
     0
 39
0.003
 10
0.426031
 20
-0.3385
 40
0.003
 41
0.003
 10
0.418213
 20
-0.368563
 40
0.003
 41
0.003
  0
LWPOLYLINE
  5
258
100
AcDbEntity
  8
0
 62
   254
100
AcDbPolyline
 90
        2
 70
     0
 39
0.003
 10
0.418213
 20
-0.368563
 40
0.003
 41
0.003
 10
-0.233866
 20
0.01389
 40
0.003
 41
0.003
  0
LWPOLYLINE
  5
259
100
AcDbEntity
  8
0
 62
   254
100
AcDbPolyline
 90
        2
 70
     0
 39
0.003
 10
-0.233866
 20
0.01389
 40
0.003
 41
0.003
 10
-0.226047
 20
0.043953
 40
0.003
 41
0.003
  0
LWPOLYLINE
  5
25A
100
AcDbEntity
  8
0
 62
   254
100
AcDbPolyline
 90
        2
 70
     0
 39
0.003
 10
-0.233866
 20
0.01389
 40
0.003
 41
0.003
 10
0.418213
 20
-0.368563
 40
0.003
 41
0.003
  0
LWPOLYLINE
  5
25B
100
AcDbEntity
  8
0
 62
   254
100
AcDbPolyline
 90
        2
 70
     0
 39
0.003
 10
0.418213
 20
-0.368563
 40
0.003
 41
0.003
 10
0.41026
 20
-0.398177
 40
0.003
 41
0.003
  0
LWPOLYLINE
  5
25C
100
AcDbEntity
  8
0
 62
   254
100
AcDbPolyline
 90
        2
 70
     0
 39
0.003
 10
0.41026
 20
-0.398177
 40
0.003
 41
0.003
 10
-0.241819
 20
-0.015724
 40
0.003
 41
0.003
  0
LWPOLYLINE
  5
25D
100
AcDbEntity
  8
0
 62
   254
100
AcDbPolyline
 90
        2
 70
     0
 39
0.003
 10
-0.241819
 20
-0.015724
 40
0.003
 41
0.003
 10
-0.233866
 20
0.01389
 40
0.003
 41
0.003
  0
LWPOLYLINE
  5
25E
100
AcDbEntity
  8
0
 62
   254
100
AcDbPolyline
 90
        2
 70
     0
 39
0.003
 10
-0.241819
 20
-0.015724
 40
0.003
 41
0.003
 10
0.41026
 20
-0.398177
 40
0.003
 41
0.003
  0
LWPOLYLINE
  5
25F
100
AcDbEntity
  8
0
 62
   254
100
AcDbPolyline
 90
        2
 70
     0
 39
0.003
 10
0.41026
 20
-0.398177
 40
0.003
 41
0.003
 10
0.402362
 20
-0.427972
 40
0.003
 41
0.003
  0
LWPOLYLINE
  5
260
100
AcDbEntity
  8
0
 62
   254
100
AcDbPolyline
 90
        2
 70
     0
 39
0.003
 10
0.402362
 20
-0.427972
 40
0.003
 41
0.003
 10
-0.249717
 20
-0.04552
 40
0.003
 41
0.003
  0
LWPOLYLINE
  5
261
100
AcDbEntity
  8
0
 62
   254
100
AcDbPolyline
 90
        2
 70
     0
 39
0.003
 10
-0.249717
 20
-0.04552
 40
0.003
 41
0.003
 10
-0.241819
 20
-0.015724
 40
0.003
 41
0.003
  0
LWPOLYLINE
  5
262
100
AcDbEntity
  8
0
 62
   254
100
AcDbPolyline
 90
        2
 70
     0
 39
0.003
 10
-0.249717
 20
-0.04552
 40
0.003
 41
0.003
 10
0.402362
 20
-0.427972
 40
0.003
 41
0.003
  0
LWPOLYLINE
  5
263
100
AcDbEntity
  8
0
 62
   254
100
AcDbPolyline
 90
        2
 70
     0
 39
0.003
 10
0.402362
 20
-0.427972
 40
0.003
 41
0.003
 10
0.394736
 20
-0.458626
 40
0.003
 41
0.003
  0
LWPOLYLINE
  5
264
100
AcDbEntity
  8
0
 62
   254
100
AcDbPolyline
 90
        2
 70
     0
 39
0.003
 10
0.394736
 20
-0.458626
 40
0.003
 41
0.003
 10
-0.257343
 20
-0.076173
 40
0.003
 41
0.003
  0
LWPOLYLINE
  5
265
100
AcDbEntity
  8
0
 62
   254
100
AcDbPolyline
 90
        2
 70
     0
 39
0.003
 10
-0.257343
 20
-0.076173
 40
0.003
 41
0.003
 10
-0.249717
 20
-0.04552
 40
0.003
 41
0.003
  0
LWPOLYLINE
  5
266
100
AcDbEntity
  8
0
 62
   254
100
AcDbPolyline
 90
        2
 70
     0
 39
0.003
 10
-0.257343
 20
-0.076173
 40
0.003
 41
0.003
 10
0.394736
 20
-0.458626
 40
0.003
 41
0.003
  0
LWPOLYLINE
  5
267
100
AcDbEntity
  8
0
 62
   254
100
AcDbPolyline
 90
        2
 70
     0
 39
0.003
 10
0.394736
 20
-0.458626
 40
0.003
 41
0.003
 10
0.387276
 20
-0.49002
 40
0.003
 41
0.003
  0
LWPOLYLINE
  5
268
100
AcDbEntity
  8
0
 62
   254
100
AcDbPolyline
 90
        2
 70
     0
 39
0.003
 10
0.387276
 20
-0.49002
 40
0.003
 41
0.003
 10
-0.264803
 20
-0.107567
 40
0.003
 41
0.003
  0
LWPOLYLINE
  5
269
100
AcDbEntity
  8
0
 62
   254
100
AcDbPolyline
 90
        2
 70
     0
 39
0.003
 10
-0.264803
 20
-0.107567
 40
0.003
 41
0.003
 10
-0.257343
 20
-0.076173
 40
0.003
 41
0.003
  0
LWPOLYLINE
  5
26A
100
AcDbEntity
  8
0
 62
   254
100
AcDbPolyline
 90
        2
 70
     0
 39
0.003
 10
-0.264803
 20
-0.107567
 40
0.003
 41
0.003
 10
0.387276
 20
-0.49002
 40
0.003
 41
0.003
  0
LWPOLYLINE
  5
26B
100
AcDbEntity
  8
0
 62
   254
100
AcDbPolyline
 90
        2
 70
     0
 39
0.003
 10
0.387276
 20
-0.49002
 40
0.003
 41
0.003
 10
0.37989
 20
-0.522067
 40
0.003
 41
0.003
  0
LWPOLYLINE
  5
26C
100
AcDbEntity
  8
0
 62
   254
100
AcDbPolyline
 90
        2
 70
     0
 39
0.003
 10
0.37989
 20
-0.522067
 40
0.003
 41
0.003
 10
-0.272189
 20
-0.139614
 40
0.003
 41
0.003
  0
LWPOLYLINE
  5
26D
100
AcDbEntity
  8
0
 62
   254
100
AcDbPolyline
 90
        2
 70
     0
 39
0.003
 10
-0.272189
 20
-0.139614
 40
0.003
 41
0.003
 10
-0.264803
 20
-0.107567
 40
0.003
 41
0.003
  0
LWPOLYLINE
  5
26E
100
AcDbEntity
  8
0
 62
   254
100
AcDbPolyline
 90
        2
 70
     0
 39
0.003
 10
-0.272189
 20
-0.139614
 40
0.003
 41
0.003
 10
0.37989
 20
-0.522067
 40
0.003
 41
0.003
  0
LWPOLYLINE
  5
26F
100
AcDbEntity
  8
0
 62
   254
100
AcDbPolyline
 90
        2
 70
     0
 39
0.003
 10
0.37989
 20
-0.522067
 40
0.003
 41
0.003
 10
0.372472
 20
-0.554646
 40
0.003
 41
0.003
  0
LWPOLYLINE
  5
270
100
AcDbEntity
  8
0
 62
   254
100
AcDbPolyline
 90
        2
 70
     0
 39
0.003
 10
0.372472
 20
-0.554646
 40
0.003
 41
0.003
 10
-0.279606
 20
-0.172193
 40
0.003
 41
0.003
  0
LWPOLYLINE
  5
271
100
AcDbEntity
  8
0
 62
   254
100
AcDbPolyline
 90
        2
 70
     0
 39
0.003
 10
-0.279606
 20
-0.172193
 40
0.003
 41
0.003
 10
-0.272189
 20
-0.139614
 40
0.003
 41
0.003
  0
LWPOLYLINE
  5
272
100
AcDbEntity
  8
0
 62
   254
100
AcDbPolyline
 90
        2
 70
     0
 39
0.003
 10
-0.279606
 20
-0.172193
 40
0.003
 41
0.003
 10
0.372472
 20
-0.554646
 40
0.003
 41
0.003
  0
LWPOLYLINE
  5
273
100
AcDbEntity
  8
0
 62
   254
100
AcDbPolyline
 90
        2
 70
     0
 39
0.003
 10
0.372472
 20
-0.554646
 40
0.003
 41
0.003
 10
0.364941
 20
-0.587673
 40
0.003
 41
0.003
  0
LWPOLYLINE
  5
274
100
AcDbEntity
  8
0
 62
   254
100
AcDbPolyline
 90
        2
 70
     0
 39
0.003
 10
0.364941
 20
-0.587673
 40
0.003
 41
0.003
 10
-0.287138
 20
-0.20522
 40
0.003
 41
0.003
  0
LWPOLYLINE
  5
275
100
AcDbEntity
  8
0
 62
   254
100
AcDbPolyline
 90
        2
 70
     0
 39
0.003
 10
-0.287138
 20
-0.20522
 40
0.003
 41
0.003
 10
-0.279606
 20
-0.172193
 40
0.003
 41
0.003
  0
LWPOLYLINE
  5
276
100
AcDbEntity
  8
0
 62
   254
100
AcDbPolyline
 90
        2
 70
     0
 39
0.003
 10
-0.287138
 20
-0.20522
 40
0.003
 41
0.003
 10
0.364941
 20
-0.587673
 40
0.003
 41
0.003
  0
LWPOLYLINE
  5
277
100
AcDbEntity
  8
0
 62
   254
100
AcDbPolyline
 90
        2
 70
     0
 39
0.003
 10
0.364941
 20
-0.587673
 40
0.003
 41
0.003
 10
0.357185
 20
-0.621035
 40
0.003
 41
0.003
  0
LWPOLYLINE
  5
278
100
AcDbEntity
  8
0
 62
   254
100
AcDbPolyline
 90
        2
 70
     0
 39
0.003
 10
0.357185
 20
-0.621035
 40
0.003
 41
0.003
 10
-0.294894
 20
-0.238583
 40
0.003
 41
0.003
  0
LWPOLYLINE
  5
279
100
AcDbEntity
  8
0
 62
   254
100
AcDbPolyline
 90
        2
 70
     0
 39
0.003
 10
-0.294894
 20
-0.238583
 40
0.003
 41
0.003
 10
-0.287138
 20
-0.20522
 40
0.003
 41
0.003
  0
LWPOLYLINE
  5
27A
100
AcDbEntity
  8
0
 62
   254
100
AcDbPolyline
 90
        2
 70
     0
 39
0.003
 10
-0.294894
 20
-0.238583
 40
0.003
 41
0.003
 10
0.357185
 20
-0.621035
 40
0.003
 41
0.003
  0
LWPOLYLINE
  5
27B
100
AcDbEntity
  8
0
 62
   254
100
AcDbPolyline
 90
        2
 70
     0
 39
0.003
 10
0.357185
 20
-0.621035
 40
0.003
 41
0.003
 10
0.349118
 20
-0.654642
 40
0.003
 41
0.003
  0
LWPOLYLINE
  5
27C
100
AcDbEntity
  8
0
 62
   254
100
AcDbPolyline
 90
        2
 70
     0
 39
0.003
 10
0.349118
 20
-0.654642
 40
0.003
 41
0.003
 10
-0.302961
 20
-0.272189
 40
0.003
 41
0.003
  0
LWPOLYLINE
  5
27D
100
AcDbEntity
  8
0
 62
   254
100
AcDbPolyline
 90
        2
 70
     0
 39
0.003
 10
-0.302961
 20
-0.272189
 40
0.003
 41
0.003
 10
-0.294894
 20
-0.238583
 40
0.003
 41
0.003
  0
LWPOLYLINE
  5
27E
100
AcDbEntity
  8
0
 62
   254
100
AcDbPolyline
 90
        2
 70
     0
 39
0.003
 10
-0.302961
 20
-0.272189
 40
0.003
 41
0.003
 10
0.349118
 20
-0.654642
 40
0.003
 41
0.003
  0
LWPOLYLINE
  5
27F
100
AcDbEntity
  8
0
 62
   254
100
AcDbPolyline
 90
        2
 70
     0
 39
0.003
 10
0.349118
 20
-0.654642
 40
0.003
 41
0.003
 10
0.34063
 20
-0.688374
 40
0.003
 41
0.003
  0
LWPOLYLINE
  5
280
100
AcDbEntity
  8
0
 62
   254
100
AcDbPolyline
 90
        2
 70
     0
 39
0.003
 10
0.34063
 20
-0.688374
 40
0.003
 41
0.003
 10
-0.311449
 20
-0.305921
 40
0.003
 41
0.003
  0
LWPOLYLINE
  5
281
100
AcDbEntity
  8
0
 62
   254
100
AcDbPolyline
 90
        2
 70
     0
 39
0.003
 10
-0.311449
 20
-0.305921
 40
0.003
 41
0.003
 10
-0.302961
 20
-0.272189
 40
0.003
 41
0.003
  0
LWPOLYLINE
  5
282
100
AcDbEntity
  8
0
 62
   254
100
AcDbPolyline
 90
        2
 70
     0
 39
0.003
 10
-0.311449
 20
-0.305921
 40
0.003
 41
0.003
 10
0.34063
 20
-0.688374
 40
0.003
 41
0.003
  0
LWPOLYLINE
  5
283
100
AcDbEntity
  8
0
 62
   254
100
AcDbPolyline
 90
        2
 70
     0
 39
0.003
 10
0.34063
 20
-0.688374
 40
0.003
 41
0.003
 10
0.331638
 20
-0.722146
 40
0.003
 41
0.003
  0
LWPOLYLINE
  5
284
100
AcDbEntity
  8
0
 62
   254
100
AcDbPolyline
 90
        2
 70
     0
 39
0.003
 10
0.331638
 20
-0.722146
 40
0.003
 41
0.003
 10
-0.320441
 20
-0.339693
 40
0.003
 41
0.003
  0
LWPOLYLINE
  5
285
100
AcDbEntity
  8
0
 62
   254
100
AcDbPolyline
 90
        2
 70
     0
 39
0.003
 10
-0.320441
 20
-0.339693
 40
0.003
 41
0.003
 10
-0.311449
 20
-0.305921
 40
0.003
 41
0.003
  0
LWPOLYLINE
  5
286
100
AcDbEntity
  8
0
 62
   254
100
AcDbPolyline
 90
        2
 70
     0
 39
0.003
 10
-0.320441
 20
-0.339693
 40
0.003
 41
0.003
 10
0.331638
 20
-0.722146
 40
0.003
 41
0.003
  0
LWPOLYLINE
  5
287
100
AcDbEntity
  8
0
 62
   254
100
AcDbPolyline
 90
        2
 70
     0
 39
0.003
 10
0.331638
 20
-0.722146
 40
0.003
 41
0.003
 10
0.322035
 20
-0.755846
 40
0.003
 41
0.003
  0
LWPOLYLINE
  5
288
100
AcDbEntity
  8
0
 62
   254
100
AcDbPolyline
 90
        2
 70
     0
 39
0.003
 10
0.322035
 20
-0.755846
 40
0.003
 41
0.003
 10
-0.330043
 20
-0.373394
 40
0.003
 41
0.003
  0
LWPOLYLINE
  5
289
100
AcDbEntity
  8
0
 62
   254
100
AcDbPolyline
 90
        2
 70
     0
 39
0.003
 10
-0.330043
 20
-0.373394
 40
0.003
 41
0.003
 10
-0.320441
 20
-0.339693
 40
0.003
 41
0.003
  0
LWPOLYLINE
  5
28A
100
AcDbEntity
  8
0
 62
   254
100
AcDbPolyline
 90
        2
 70
     0
 39
0.003
 10
-0.330043
 20
-0.373394
 40
0.003
 41
0.003
 10
0.322035
 20
-0.755846
 40
0.003
 41
0.003
  0
LWPOLYLINE
  5
28B
100
AcDbEntity
  8
0
 62
   254
100
AcDbPolyline
 90
        2
 70
     0
 39
0.003
 10
0.322035
 20
-0.755846
 40
0.003
 41
0.003
 10
0.311732
 20
-0.789386
 40
0.003
 41
0.003
  0
LWPOLYLINE
  5
28C
100
AcDbEntity
  8
0
 62
   254
100
AcDbPolyline
 90
        2
 70
     0
 39
0.003
 10
0.311732
 20
-0.789386
 40
0.003
 41
0.003
 10
-0.340346
 20
-0.406933
 40
0.003
 41
0.003
  0
LWPOLYLINE
  5
28D
100
AcDbEntity
  8
0
 62
   254
100
AcDbPolyline
 90
        2
 70
     0
 39
0.003
 10
-0.340346
 20
-0.406933
 40
0.003
 41
0.003
 10
-0.330043
 20
-0.373394
 40
0.003
 41
0.003
  0
LWPOLYLINE
  5
28E
100
AcDbEntity
  8
0
 62
   254
100
AcDbPolyline
 90
        2
 70
     0
 39
0.003
 10
-0.340346
 20
-0.406933
 40
0.003
 41
0.003
 10
0.311732
 20
-0.789386
 40
0.003
 41
0.003
  0
LWPOLYLINE
  5
28F
100
AcDbEntity
  8
0
 62
   254
100
AcDbPolyline
 90
        2
 70
     0
 39
0.003
 10
0.311732
 20
-0.789386
 40
0.003
 41
0.003
 10
0.300626
 20
-0.822646
 40
0.003
 41
0.003
  0
LWPOLYLINE
  5
290
100
AcDbEntity
  8
0
 62
   254
100
AcDbPolyline
 90
        2
 70
     0
 39
0.003
 10
0.300626
 20
-0.822646
 40
0.003
 41
0.003
 10
-0.351453
 20
-0.440193
 40
0.003
 41
0.003
  0
LWPOLYLINE
  5
291
100
AcDbEntity
  8
0
 62
   254
100
AcDbPolyline
 90
        2
 70
     0
 39
0.003
 10
-0.351453
 20
-0.440193
 40
0.003
 41
0.003
 10
-0.340346
 20
-0.406933
 40
0.003
 41
0.003
  0
LWPOLYLINE
  5
292
100
AcDbEntity
  8
0
 62
   254
100
AcDbPolyline
 90
        2
 70
     0
 39
0.003
 10
-0.351453
 20
-0.440193
 40
0.003
 41
0.003
 10
0.300626
 20
-0.822646
 40
0.003
 41
0.003
  0
LWPOLYLINE
  5
293
100
AcDbEntity
  8
0
 62
   254
100
AcDbPolyline
 90
        2
 70
     0
 39
0.003
 10
0.300626
 20
-0.822646
 40
0.003
 41
0.003
 10
0.288622
 20
-0.855539
 40
0.003
 41
0.003
  0
LWPOLYLINE
  5
294
100
AcDbEntity
  8
0
 62
   254
100
AcDbPolyline
 90
        2
 70
     0
 39
0.003
 10
0.288622
 20
-0.855539
 40
0.003
 41
0.003
 10
-0.363457
 20
-0.473087
 40
0.003
 41
0.003
  0
LWPOLYLINE
  5
295
100
AcDbEntity
  8
0
 62
   254
100
AcDbPolyline
 90
        2
 70
     0
 39
0.003
 10
-0.363457
 20
-0.473087
 40
0.003
 41
0.003
 10
-0.351453
 20
-0.440193
 40
0.003
 41
0.003
  0
LWPOLYLINE
  5
296
100
AcDbEntity
  8
0
 62
   254
100
AcDbPolyline
 90
        2
 70
     0
 39
0.003
 10
-0.363457
 20
-0.473087
 40
0.003
 41
0.003
 10
0.288622
 20
-0.855539
 40
0.003
 41
0.003
  0
LWPOLYLINE
  5
297
100
AcDbEntity
  8
0
 62
   254
100
AcDbPolyline
 90
        2
 70
     0
 39
0.003
 10
0.288622
 20
-0.855539
 40
0.003
 41
0.003
 10
0.275626
 20
-0.887957
 40
0.003
 41
0.003
  0
LWPOLYLINE
  5
298
100
AcDbEntity
  8
0
 62
   254
100
AcDbPolyline
 90
        2
 70
     0
 39
0.003
 10
0.275626
 20
-0.887957
 40
0.003
 41
0.003
 10
-0.376453
 20
-0.505504
 40
0.003
 41
0.003
  0
LWPOLYLINE
  5
299
100
AcDbEntity
  8
0
 62
   254
100
AcDbPolyline
 90
        2
 70
     0
 39
0.003
 10
-0.376453
 20
-0.505504
 40
0.003
 41
0.003
 10
-0.363457
 20
-0.473087
 40
0.003
 41
0.003
  0
LWPOLYLINE
  5
29A
100
AcDbEntity
  8
0
 62
   254
100
AcDbPolyline
 90
        2
 70
     0
 39
0.003
 10
-0.376453
 20
-0.505504
 40
0.003
 41
0.003
 10
0.275626
 20
-0.887957
 40
0.003
 41
0.003
  0
LWPOLYLINE
  5
29B
100
AcDbEntity
  8
0
 62
   254
100
AcDbPolyline
 90
        2
 70
     0
 39
0.003
 10
0.275626
 20
-0.887957
 40
0.003
 41
0.003
 10
0.261551
 20
-0.919799
 40
0.003
 41
0.003
  0
LWPOLYLINE
  5
29C
100
AcDbEntity
  8
0
 62
   254
100
AcDbPolyline
 90
        2
 70
     0
 39
0.003
 10
0.261551
 20
-0.919799
 40
0.003
 41
0.003
 10
-0.390528
 20
-0.537346
 40
0.003
 41
0.003
  0
LWPOLYLINE
  5
29D
100
AcDbEntity
  8
0
 62
   254
100
AcDbPolyline
 90
        2
 70
     0
 39
0.003
 10
-0.390528
 20
-0.537346
 40
0.003
 41
0.003
 10
-0.376453
 20
-0.505504
 40
0.003
 41
0.003
  0
LWPOLYLINE
  5
29E
100
AcDbEntity
  8
0
 62
   254
100
AcDbPolyline
 90
        2
 70
     0
 39
0.003
 10
-0.390528
 20
-0.537346
 40
0.003
 41
0.003
 10
0.261551
 20
-0.919799
 40
0.003
 41
0.003
  0
LWPOLYLINE
  5
29F
100
AcDbEntity
  8
0
 62
   254
100
AcDbPolyline
 90
        2
 70
     0
 39
0.003
 10
0.261551
 20
-0.919799
 40
0.003
 41
0.003
 10
0.246276
 20
-0.950957
 40
0.003
 41
0.003
  0
LWPOLYLINE
  5
2A0
100
AcDbEntity
  8
0
 62
   254
100
AcDbPolyline
 90
        2
 70
     0
 39
0.003
 10
0.246276
 20
-0.950957
 40
0.003
 41
0.003
 10
-0.405803
 20
-0.568504
 40
0.003
 41
0.003
  0
LWPOLYLINE
  5
2A1
100
AcDbEntity
  8
0
 62
   254
100
AcDbPolyline
 90
        2
 70
     0
 39
0.003
 10
-0.405803
 20
-0.568504
 40
0.003
 41
0.003
 10
-0.390528
 20
-0.537346
 40
0.003
 41
0.003
  0
LWPOLYLINE
  5
2A2
100
AcDbEntity
  8
0
 62
   254
100
AcDbPolyline
 90
        2
 70
     0
 39
0.003
 10
-0.405803
 20
-0.568504
 40
0.003
 41
0.003
 10
0.246276
 20
-0.950957
 40
0.003
 41
0.003
  0
LWPOLYLINE
  5
2A3
100
AcDbEntity
  8
0
 62
   254
100
AcDbPolyline
 90
        2
 70
     0
 39
0.003
 10
0.246276
 20
-0.950957
 40
0.003
 41
0.003
 10
0.22972
 20
-0.981339
 40
0.003
 41
0.003
  0
LWPOLYLINE
  5
2A4
100
AcDbEntity
  8
0
 62
   254
100
AcDbPolyline
 90
        2
 70
     0
 39
0.003
 10
0.22972
 20
-0.981339
 40
0.003
 41
0.003
 10
-0.422358
 20
-0.598886
 40
0.003
 41
0.003
  0
LWPOLYLINE
  5
2A5
100
AcDbEntity
  8
0
 62
   254
100
AcDbPolyline
 90
        2
 70
     0
 39
0.003
 10
-0.422358
 20
-0.598886
 40
0.003
 41
0.003
 10
-0.405803
 20
-0.568504
 40
0.003
 41
0.003
  0
LWPOLYLINE
  5
2A6
100
AcDbEntity
  8
0
 62
   254
100
AcDbPolyline
 90
        2
 70
     0
 39
0.003
 10
-0.422358
 20
-0.598886
 40
0.003
 41
0.003
 10
0.22972
 20
-0.981339
 40
0.003
 41
0.003
  0
LWPOLYLINE
  5
2A7
100
AcDbEntity
  8
0
 62
   254
100
AcDbPolyline
 90
        2
 70
     0
 39
0.003
 10
0.22972
 20
-0.981339
 40
0.003
 41
0.003
 10
0.21178
 20
-1.010839
 40
0.003
 41
0.003
  0
LWPOLYLINE
  5
2A8
100
AcDbEntity
  8
0
 62
   254
100
AcDbPolyline
 90
        2
 70
     0
 39
0.003
 10
0.21178
 20
-1.010839
 40
0.003
 41
0.003
 10
-0.440299
 20
-0.628386
 40
0.003
 41
0.003
  0
LWPOLYLINE
  5
2A9
100
AcDbEntity
  8
0
 62
   254
100
AcDbPolyline
 90
        2
 70
     0
 39
0.003
 10
-0.440299
 20
-0.628386
 40
0.003
 41
0.003
 10
-0.422358
 20
-0.598886
 40
0.003
 41
0.003
  0
LWPOLYLINE
  5
2AA
100
AcDbEntity
  8
0
 62
   254
100
AcDbPolyline
 90
        2
 70
     0
 39
0.003
 10
-0.440299
 20
-0.628386
 40
0.003
 41
0.003
 10
0.21178
 20
-1.010839
 40
0.003
 41
0.003
  0
LWPOLYLINE
  5
2AB
100
AcDbEntity
  8
0
 62
   254
100
AcDbPolyline
 90
        2
 70
     0
 39
0.003
 10
0.21178
 20
-1.010839
 40
0.003
 41
0.003
 10
0.19237
 20
-1.039358
 40
0.003
 41
0.003
  0
LWPOLYLINE
  5
2AC
100
AcDbEntity
  8
0
 62
   254
100
AcDbPolyline
 90
        2
 70
     0
 39
0.003
 10
0.19237
 20
-1.039358
 40
0.003
 41
0.003
 10
-0.459709
 20
-0.656906
 40
0.003
 41
0.003
  0
LWPOLYLINE
  5
2AD
100
AcDbEntity
  8
0
 62
   254
100
AcDbPolyline
 90
        2
 70
     0
 39
0.003
 10
-0.459709
 20
-0.656906
 40
0.003
 41
0.003
 10
-0.440299
 20
-0.628386
 40
0.003
 41
0.003
  0
LWPOLYLINE
  5
2AE
100
AcDbEntity
  8
0
 62
   254
100
AcDbPolyline
 90
        2
 70
     0
 39
0.003
 10
-0.459709
 20
-0.656906
 40
0.003
 41
0.003
 10
0.19237
 20
-1.039358
 40
0.003
 41
0.003
  0
LWPOLYLINE
  5
2AF
100
AcDbEntity
  8
0
 62
   254
100
AcDbPolyline
 90
        2
 70
     0
 39
0.003
 10
0.19237
 20
-1.039358
 40
0.003
 41
0.003
 10
0.171378
 20
-1.066787
 40
0.003
 41
0.003
  0
LWPOLYLINE
  5
2B0
100
AcDbEntity
  8
0
 62
   254
100
AcDbPolyline
 90
        2
 70
     0
 39
0.003
 10
0.171378
 20
-1.066787
 40
0.003
 41
0.003
 10
-0.480701
 20
-0.684335
 40
0.003
 41
0.003
  0
LWPOLYLINE
  5
2B1
100
AcDbEntity
  8
0
 62
   254
100
AcDbPolyline
 90
        2
 70
     0
 39
0.003
 10
-0.480701
 20
-0.684335
 40
0.003
 41
0.003
 10
-0.459709
 20
-0.656906
 40
0.003
 41
0.003
  0
LWPOLYLINE
  5
2B2
100
AcDbEntity
  8
0
 62
   254
100
AcDbPolyline
 90
        2
 70
     0
 39
0.003
 10
-0.480701
 20
-0.684335
 40
0.003
 41
0.003
 10
0.171378
 20
-1.066787
 40
0.003
 41
0.003
  0
LWPOLYLINE
  5
2B3
100
AcDbEntity
  8
0
 62
   254
100
AcDbPolyline
 90
        2
 70
     0
 39
0.003
 10
0.171378
 20
-1.066787
 40
0.003
 41
0.003
 10
0.148724
 20
-1.093035
 40
0.003
 41
0.003
  0
LWPOLYLINE
  5
2B4
100
AcDbEntity
  8
0
 62
   254
100
AcDbPolyline
 90
        2
 70
     0
 39
0.003
 10
0.148724
 20
-1.093035
 40
0.003
 41
0.003
 10
-0.503354
 20
-0.710583
 40
0.003
 41
0.003
  0
LWPOLYLINE
  5
2B5
100
AcDbEntity
  8
0
 62
   254
100
AcDbPolyline
 90
        2
 70
     0
 39
0.003
 10
-0.503354
 20
-0.710583
 40
0.003
 41
0.003
 10
-0.480701
 20
-0.684335
 40
0.003
 41
0.003
  0
LWPOLYLINE
  5
2B6
100
AcDbEntity
  8
0
 62
   254
100
AcDbPolyline
 90
        2
 70
     0
 39
0.003
 10
-0.503354
 20
-0.710583
 40
0.003
 41
0.003
 10
0.148724
 20
-1.093035
 40
0.003
 41
0.003
  0
LWPOLYLINE
  5
2B7
100
AcDbEntity
  8
0
 62
   254
100
AcDbPolyline
 90
        2
 70
     0
 39
0.003
 10
0.148724
 20
-1.093035
 40
0.003
 41
0.003
 10
0.124299
 20
-1.117996
 40
0.003
 41
0.003
  0
LWPOLYLINE
  5
2B8
100
AcDbEntity
  8
0
 62
   254
100
AcDbPolyline
 90
        2
 70
     0
 39
0.003
 10
0.124299
 20
-1.117996
 40
0.003
 41
0.003
 10
-0.52778
 20
-0.735543
 40
0.003
 41
0.003
  0
LWPOLYLINE
  5
2B9
100
AcDbEntity
  8
0
 62
   254
100
AcDbPolyline
 90
        2
 70
     0
 39
0.003
 10
-0.52778
 20
-0.735543
 40
0.003
 41
0.003
 10
-0.503354
 20
-0.710583
 40
0.003
 41
0.003
  0
LWPOLYLINE
  5
2BA
100
AcDbEntity
  8
0
 62
   254
100
AcDbPolyline
 90
        2
 70
     0
 39
0.003
 10
-0.52778
 20
-0.735543
 40
0.003
 41
0.003
 10
0.124299
 20
-1.117996
 40
0.003
 41
0.003
  0
LWPOLYLINE
  5
2BB
100
AcDbEntity
  8
0
 62
   254
100
AcDbPolyline
 90
        2
 70
     0
 39
0.003
 10
0.124299
 20
-1.117996
 40
0.003
 41
0.003
 10
0.098004
 20
-1.141567
 40
0.003
 41
0.003
  0
LWPOLYLINE
  5
2BC
100
AcDbEntity
  8
0
 62
   254
100
AcDbPolyline
 90
        2
 70
     0
 39
0.003
 10
0.098004
 20
-1.141567
 40
0.003
 41
0.003
 10
-0.554075
 20
-0.759114
 40
0.003
 41
0.003
  0
LWPOLYLINE
  5
2BD
100
AcDbEntity
  8
0
 62
   254
100
AcDbPolyline
 90
        2
 70
     0
 39
0.003
 10
-0.554075
 20
-0.759114
 40
0.003
 41
0.003
 10
-0.52778
 20
-0.735543
 40
0.003
 41
0.003
  0
LWPOLYLINE
  5
2BE
100
AcDbEntity
  8
0
 62
   254
100
AcDbPolyline
 90
        2
 70
     0
 39
0.003
 10
-0.554075
 20
-0.759114
 40
0.003
 41
0.003
 10
0.098004
 20
-1.141567
 40
0.003
 41
0.003
  0
LWPOLYLINE
  5
2BF
100
AcDbEntity
  8
0
 62
   254
100
AcDbPolyline
 90
        2
 70
     0
 39
0.003
 10
0.098004
 20
-1.141567
 40
0.003
 41
0.003
 10
0.069752
 20
-1.163638
 40
0.003
 41
0.003
  0
LWPOLYLINE
  5
2C0
100
AcDbEntity
  8
0
 62
   254
100
AcDbPolyline
 90
        2
 70
     0
 39
0.003
 10
0.069752
 20
-1.163638
 40
0.003
 41
0.003
 10
-0.582327
 20
-0.781185
 40
0.003
 41
0.003
  0
LWPOLYLINE
  5
2C1
100
AcDbEntity
  8
0
 62
   254
100
AcDbPolyline
 90
        2
 70
     0
 39
0.003
 10
-0.582327
 20
-0.781185
 40
0.003
 41
0.003
 10
-0.554075
 20
-0.759114
 40
0.003
 41
0.003
  0
LWPOLYLINE
  5
2C2
100
AcDbEntity
  8
0
 62
   254
100
AcDbPolyline
 90
        2
 70
     0
 39
0.003
 10
-0.582327
 20
-0.781185
 40
0.003
 41
0.003
 10
0.069752
 20
-1.163638
 40
0.003
 41
0.003
  0
LWPOLYLINE
  5
2C3
100
AcDbEntity
  8
0
 62
   254
100
AcDbPolyline
 90
        2
 70
     0
 39
0.003
 10
0.069752
 20
-1.163638
 40
0.003
 41
0.003
 10
0.039441
 20
-1.184126
 40
0.003
 41
0.003
  0
LWPOLYLINE
  5
2C4
100
AcDbEntity
  8
0
 62
   254
100
AcDbPolyline
 90
        2
 70
     0
 39
0.003
 10
0.039441
 20
-1.184126
 40
0.003
 41
0.003
 10
-0.612638
 20
-0.801673
 40
0.003
 41
0.003
  0
LWPOLYLINE
  5
2C5
100
AcDbEntity
  8
0
 62
   254
100
AcDbPolyline
 90
        2
 70
     0
 39
0.003
 10
-0.612638
 20
-0.801673
 40
0.003
 41
0.003
 10
-0.582327
 20
-0.781185
 40
0.003
 41
0.003
  0
LWPOLYLINE
  5
2C6
100
AcDbEntity
  8
0
 62
   254
100
AcDbPolyline
 90
        2
 70
     0
 39
0.003
 10
-0.612638
 20
-0.801673
 40
0.003
 41
0.003
 10
0.039441
 20
-1.184126
 40
0.003
 41
0.003
  0
LWPOLYLINE
  5
2C7
100
AcDbEntity
  8
0
 62
   254
100
AcDbPolyline
 90
        2
 70
     0
 39
0.003
 10
0.039441
 20
-1.184126
 40
0.003
 41
0.003
 10
0.006972
 20
-1.202913
 40
0.003
 41
0.003
  0
LWPOLYLINE
  5
2C8
100
AcDbEntity
  8
0
 62
   254
100
AcDbPolyline
 90
        2
 70
     0
 39
0.003
 10
0.006972
 20
-1.202913
 40
0.003
 41
0.003
 10
-0.645106
 20
-0.820461
 40
0.003
 41
0.003
  0
LWPOLYLINE
  5
2C9
100
AcDbEntity
  8
0
 62
   254
100
AcDbPolyline
 90
        2
 70
     0
 39
0.003
 10
-0.645106
 20
-0.820461
 40
0.003
 41
0.003
 10
-0.612638
 20
-0.801673
 40
0.003
 41
0.003
  0
LWPOLYLINE
  5
2CA
100
AcDbEntity
  8
0
 62
   254
100
AcDbPolyline
 90
        2
 70
     0
 39
0.003
 10
-0.645106
 20
-0.820461
 40
0.003
 41
0.003
 10
0.006972
 20
-1.202913
 40
0.003
 41
0.003
  0
LWPOLYLINE
  5
2CB
100
AcDbEntity
  8
0
 62
   254
100
AcDbPolyline
 90
        2
 70
     0
 39
0.003
 10
0.006972
 20
-1.202913
 40
0.003
 41
0.003
 10
-0.027752
 20
-1.219909
 40
0.003
 41
0.003
  0
LWPOLYLINE
  5
2CC
100
AcDbEntity
  8
0
 62
   254
100
AcDbPolyline
 90
        2
 70
     0
 39
0.003
 10
-0.027752
 20
-1.219909
 40
0.003
 41
0.003
 10
-0.679831
 20
-0.837457
 40
0.003
 41
0.003
  0
LWPOLYLINE
  5
2CD
100
AcDbEntity
  8
0
 62
   254
100
AcDbPolyline
 90
        2
 70
     0
 39
0.003
 10
-0.679831
 20
-0.837457
 40
0.003
 41
0.003
 10
-0.645106
 20
-0.820461
 40
0.003
 41
0.003
  0
LWPOLYLINE
  5
2CE
100
AcDbEntity
  8
0
 62
   254
100
AcDbPolyline
 90
        2
 70
     0
 39
0.003
 10
-0.679831
 20
-0.837457
 40
0.003
 41
0.003
 10
-0.027752
 20
-1.219909
 40
0.003
 41
0.003
  0
LWPOLYLINE
  5
2CF
100
AcDbEntity
  8
0
 62
   254
100
AcDbPolyline
 90
        2
 70
     0
 39
0.003
 10
-0.027752
 20
-1.219909
 40
0.003
 41
0.003
 10
-0.064815
 20
-1.235004
 40
0.003
 41
0.003
  0
LWPOLYLINE
  5
2D0
100
AcDbEntity
  8
0
 62
   254
100
AcDbPolyline
 90
        2
 70
     0
 39
0.003
 10
-0.064815
 20
-1.235004
 40
0.003
 41
0.003
 10
-0.716894
 20
-0.852551
 40
0.003
 41
0.003
  0
LWPOLYLINE
  5
2D1
100
AcDbEntity
  8
0
 62
   254
100
AcDbPolyline
 90
        2
 70
     0
 39
0.003
 10
-0.716894
 20
-0.852551
 40
0.003
 41
0.003
 10
-0.679831
 20
-0.837457
 40
0.003
 41
0.003
  0
LWPOLYLINE
  5
2D2
100
AcDbEntity
  8
0
 62
   254
100
AcDbPolyline
 90
        2
 70
     0
 39
0.003
 10
-0.716894
 20
-0.852551
 40
0.003
 41
0.003
 10
-0.064815
 20
-1.235004
 40
0.003
 41
0.003
  0
LWPOLYLINE
  5
2D3
100
AcDbEntity
  8
0
 62
   254
100
AcDbPolyline
 90
        2
 70
     0
 39
0.003
 10
-0.064815
 20
-1.235004
 40
0.003
 41
0.003
 10
-0.104335
 20
-1.248098
 40
0.003
 41
0.003
  0
LWPOLYLINE
  5
2D4
100
AcDbEntity
  8
0
 62
   254
100
AcDbPolyline
 90
        2
 70
     0
 39
0.003
 10
-0.104335
 20
-1.248098
 40
0.003
 41
0.003
 10
-0.756413
 20
-0.865646
 40
0.003
 41
0.003
  0
LWPOLYLINE
  5
2D5
100
AcDbEntity
  8
0
 62
   254
100
AcDbPolyline
 90
        2
 70
     0
 39
0.003
 10
-0.756413
 20
-0.865646
 40
0.003
 41
0.003
 10
-0.716894
 20
-0.852551
 40
0.003
 41
0.003
  0
LWPOLYLINE
  5
2D6
100
AcDbEntity
  8
0
 62
   254
100
AcDbPolyline
 90
        2
 70
     0
 39
0.003
 10
-0.756413
 20
-0.865646
 40
0.003
 41
0.003
 10
-0.104335
 20
-1.248098
 40
0.003
 41
0.003
  0
LWPOLYLINE
  5
2D7
100
AcDbEntity
  8
0
 62
   254
100
AcDbPolyline
 90
        2
 70
     0
 39
0.003
 10
-0.104335
 20
-1.248098
 40
0.003
 41
0.003
 10
-0.14639
 20
-1.259091
 40
0.003
 41
0.003
  0
LWPOLYLINE
  5
2D8
100
AcDbEntity
  8
0
 62
   254
100
AcDbPolyline
 90
        2
 70
     0
 39
0.003
 10
-0.14639
 20
-1.259091
 40
0.003
 41
0.003
 10
-0.798469
 20
-0.876638
 40
0.003
 41
0.003
  0
LWPOLYLINE
  5
2D9
100
AcDbEntity
  8
0
 62
   254
100
AcDbPolyline
 90
        2
 70
     0
 39
0.003
 10
-0.798469
 20
-0.876638
 40
0.003
 41
0.003
 10
-0.756413
 20
-0.865646
 40
0.003
 41
0.003
  0
LWPOLYLINE
  5
2DA
100
AcDbEntity
  8
0
 62
   254
100
AcDbPolyline
 90
        2
 70
     0
 39
0.003
 10
-0.798469
 20
-0.876638
 40
0.003
 41
0.003
 10
-0.14639
 20
-1.259091
 40
0.003
 41
0.003
  0
LWPOLYLINE
  5
2DB
100
AcDbEntity
  8
0
 62
   254
100
AcDbPolyline
 90
        2
 70
     0
 39
0.003
 10
-0.14639
 20
-1.259091
 40
0.003
 41
0.003
 10
-0.191091
 20
-1.26789
 40
0.003
 41
0.003
  0
LWPOLYLINE
  5
2DC
100
AcDbEntity
  8
0
 62
   254
100
AcDbPolyline
 90
        2
 70
     0
 39
0.003
 10
-0.191091
 20
-1.26789
 40
0.003
 41
0.003
 10
-0.843169
 20
-0.885437
 40
0.003
 41
0.003
  0
LWPOLYLINE
  5
2DD
100
AcDbEntity
  8
0
 62
   254
100
AcDbPolyline
 90
        2
 70
     0
 39
0.003
 10
-0.843169
 20
-0.885437
 40
0.003
 41
0.003
 10
-0.798469
 20
-0.876638
 40
0.003
 41
0.003
  0
LWPOLYLINE
  5
2DE
100
AcDbEntity
  8
0
 62
     0
100
AcDbPolyline
 90
        2
 70
     0
 39
0.003
 10
0.40265
 20
0.708535
 40
0.003
 41
0.003
 10
1.054728
 20
0.326083
 40
0.003
 41
0.003
  0
LWPOLYLINE
  5
2DF
100
AcDbEntity
  8
0
 62
     0
100
AcDbPolyline
 90
        2
 70
     0
 39
0.003
 10
1.054728
 20
0.326083
 40
0.003
 41
0.003
 10
1.008102
 20
0.324524
 40
0.003
 41
0.003
  0
LWPOLYLINE
  5
2E0
100
AcDbEntity
  8
0
 62
     0
100
AcDbPolyline
 90
        2
 70
     0
 39
0.003
 10
1.008102
 20
0.324524
 40
0.003
 41
0.003
 10
0.96411
 20
0.320701
 40
0.003
 41
0.003
  0
LWPOLYLINE
  5
2E1
100
AcDbEntity
  8
0
 62
     0
100
AcDbPolyline
 90
        2
 70
     0
 39
0.003
 10
0.96411
 20
0.320701
 40
0.003
 41
0.003
 10
0.922657
 20
0.314693
 40
0.003
 41
0.003
  0
LWPOLYLINE
  5
2E2
100
AcDbEntity
  8
0
 62
     0
100
AcDbPolyline
 90
        2
 70
     0
 39
0.003
 10
0.922657
 20
0.314693
 40
0.003
 41
0.003
 10
0.883657
 20
0.306606
 40
0.003
 41
0.003
  0
LWPOLYLINE
  5
2E3
100
AcDbEntity
  8
0
 62
     0
100
AcDbPolyline
 90
        2
 70
     0
 39
0.003
 10
0.883657
 20
0.306606
 40
0.003
 41
0.003
 10
0.847
 20
0.296516
 40
0.003
 41
0.003
  0
LWPOLYLINE
  5
2E4
100
AcDbEntity
  8
0
 62
     0
100
AcDbPolyline
 90
        2
 70
     0
 39
0.003
 10
0.847
 20
0.296516
 40
0.003
 41
0.003
 10
0.812614
 20
0.284524
 40
0.003
 41
0.003
  0
LWPOLYLINE
  5
2E5
100
AcDbEntity
  8
0
 62
     0
100
AcDbPolyline
 90
        2
 70
     0
 39
0.003
 10
0.812614
 20
0.284524
 40
0.003
 41
0.003
 10
0.780394
 20
0.270713
 40
0.003
 41
0.003
  0
LWPOLYLINE
  5
2E6
100
AcDbEntity
  8
0
 62
     0
100
AcDbPolyline
 90
        2
 70
     0
 39
0.003
 10
0.780394
 20
0.270713
 40
0.003
 41
0.003
 10
0.75026
 20
0.255185
 40
0.003
 41
0.003
  0
LWPOLYLINE
  5
2E7
100
AcDbEntity
  8
0
 62
     0
100
AcDbPolyline
 90
        2
 70
     0
 39
0.003
 10
0.75026
 20
0.255185
 40
0.003
 41
0.003
 10
0.722098
 20
0.238016
 40
0.003
 41
0.003
  0
LWPOLYLINE
  5
2E8
100
AcDbEntity
  8
0
 62
     0
100
AcDbPolyline
 90
        2
 70
     0
 39
0.003
 10
0.722098
 20
0.238016
 40
0.003
 41
0.003
 10
0.695835
 20
0.219311
 40
0.003
 41
0.003
  0
LWPOLYLINE
  5
2E9
100
AcDbEntity
  8
0
 62
     0
100
AcDbPolyline
 90
        2
 70
     0
 39
0.003
 10
0.695835
 20
0.219311
 40
0.003
 41
0.003
 10
0.67137
 20
0.19915
 40
0.003
 41
0.003
  0
LWPOLYLINE
  5
2EA
100
AcDbEntity
  8
0
 62
     0
100
AcDbPolyline
 90
        2
 70
     0
 39
0.003
 10
0.67137
 20
0.19915
 40
0.003
 41
0.003
 10
0.648622
 20
0.177634
 40
0.003
 41
0.003
  0
LWPOLYLINE
  5
2EB
100
AcDbEntity
  8
0
 62
     0
100
AcDbPolyline
 90
        2
 70
     0
 39
0.003
 10
0.648622
 20
0.177634
 40
0.003
 41
0.003
 10
0.62748
 20
0.154843
 40
0.003
 41
0.003
  0
LWPOLYLINE
  5
2EC
100
AcDbEntity
  8
0
 62
     0
100
AcDbPolyline
 90
        2
 70
     0
 39
0.003
 10
0.62748
 20
0.154843
 40
0.003
 41
0.003
 10
0.60787
 20
0.130878
 40
0.003
 41
0.003
  0
LWPOLYLINE
  5
2ED
100
AcDbEntity
  8
0
 62
     0
100
AcDbPolyline
 90
        2
 70
     0
 39
0.003
 10
0.60787
 20
0.130878
 40
0.003
 41
0.003
 10
0.589685
 20
0.105827
 40
0.003
 41
0.003
  0
LWPOLYLINE
  5
2EE
100
AcDbEntity
  8
0
 62
     0
100
AcDbPolyline
 90
        2
 70
     0
 39
0.003
 10
0.589685
 20
0.105827
 40
0.003
 41
0.003
 10
0.57285
 20
0.079783
 40
0.003
 41
0.003
  0
LWPOLYLINE
  5
2EF
100
AcDbEntity
  8
0
 62
     0
100
AcDbPolyline
 90
        2
 70
     0
 39
0.003
 10
0.57285
 20
0.079783
 40
0.003
 41
0.003
 10
0.557248
 20
0.052827
 40
0.003
 41
0.003
  0
LWPOLYLINE
  5
2F0
100
AcDbEntity
  8
0
 62
     0
100
AcDbPolyline
 90
        2
 70
     0
 39
0.003
 10
0.557248
 20
0.052827
 40
0.003
 41
0.003
 10
0.542811
 20
0.025059
 40
0.003
 41
0.003
  0
LWPOLYLINE
  5
2F1
100
AcDbEntity
  8
0
 62
     0
100
AcDbPolyline
 90
        2
 70
     0
 39
0.003
 10
0.542811
 20
0.025059
 40
0.003
 41
0.003
 10
0.529429
 20
-0.003429
 40
0.003
 41
0.003
  0
LWPOLYLINE
  5
2F2
100
AcDbEntity
  8
0
 62
     0
100
AcDbPolyline
 90
        2
 70
     0
 39
0.003
 10
0.529429
 20
-0.003429
 40
0.003
 41
0.003
 10
0.517024
 20
-0.032551
 40
0.003
 41
0.003
  0
LWPOLYLINE
  5
2F3
100
AcDbEntity
  8
0
 62
     0
100
AcDbPolyline
 90
        2
 70
     0
 39
0.003
 10
0.517024
 20
-0.032551
 40
0.003
 41
0.003
 10
0.505492
 20
-0.062217
 40
0.003
 41
0.003
  0
LWPOLYLINE
  5
2F4
100
AcDbEntity
  8
0
 62
     0
100
AcDbPolyline
 90
        2
 70
     0
 39
0.003
 10
0.505492
 20
-0.062217
 40
0.003
 41
0.003
 10
0.494748
 20
-0.092327
 40
0.003
 41
0.003
  0
LWPOLYLINE
  5
2F5
100
AcDbEntity
  8
0
 62
     0
100
AcDbPolyline
 90
        2
 70
     0
 39
0.003
 10
0.494748
 20
-0.092327
 40
0.003
 41
0.003
 10
0.484701
 20
-0.122803
 40
0.003
 41
0.003
  0
LWPOLYLINE
  5
2F6
100
AcDbEntity
  8
0
 62
     0
100
AcDbPolyline
 90
        2
 70
     0
 39
0.003
 10
0.484701
 20
-0.122803
 40
0.003
 41
0.003
 10
0.475256
 20
-0.153539
 40
0.003
 41
0.003
  0
LWPOLYLINE
  5
2F7
100
AcDbEntity
  8
0
 62
     0
100
AcDbPolyline
 90
        2
 70
     0
 39
0.003
 10
0.475256
 20
-0.153539
 40
0.003
 41
0.003
 10
0.466315
 20
-0.184461
 40
0.003
 41
0.003
  0
LWPOLYLINE
  5
2F8
100
AcDbEntity
  8
0
 62
     0
100
AcDbPolyline
 90
        2
 70
     0
 39
0.003
 10
0.466315
 20
-0.184461
 40
0.003
 41
0.003
 10
0.457795
 20
-0.215461
 40
0.003
 41
0.003
  0
LWPOLYLINE
  5
2F9
100
AcDbEntity
  8
0
 62
     0
100
AcDbPolyline
 90
        2
 70
     0
 39
0.003
 10
0.457795
 20
-0.215461
 40
0.003
 41
0.003
 10
0.449594
 20
-0.246461
 40
0.003
 41
0.003
  0
LWPOLYLINE
  5
2FA
100
AcDbEntity
  8
0
 62
     0
100
AcDbPolyline
 90
        2
 70
     0
 39
0.003
 10
0.449594
 20
-0.246461
 40
0.003
 41
0.003
 10
0.441634
 20
-0.277358
 40
0.003
 41
0.003
  0
LWPOLYLINE
  5
2FB
100
AcDbEntity
  8
0
 62
     0
100
AcDbPolyline
 90
        2
 70
     0
 39
0.003
 10
0.441634
 20
-0.277358
 40
0.003
 41
0.003
 10
0.433807
 20
-0.308075
 40
0.003
 41
0.003
  0
LWPOLYLINE
  5
2FC
100
AcDbEntity
  8
0
 62
     0
100
AcDbPolyline
 90
        2
 70
     0
 39
0.003
 10
0.433807
 20
-0.308075
 40
0.003
 41
0.003
 10
0.426031
 20
-0.3385
 40
0.003
 41
0.003
  0
LWPOLYLINE
  5
2FD
100
AcDbEntity
  8
0
 62
     0
100
AcDbPolyline
 90
        2
 70
     0
 39
0.003
 10
0.426031
 20
-0.3385
 40
0.003
 41
0.003
 10
0.418213
 20
-0.368563
 40
0.003
 41
0.003
  0
LWPOLYLINE
  5
2FE
100
AcDbEntity
  8
0
 62
     0
100
AcDbPolyline
 90
        2
 70
     0
 39
0.003
 10
0.418213
 20
-0.368563
 40
0.003
 41
0.003
 10
0.41026
 20
-0.398177
 40
0.003
 41
0.003
  0
LWPOLYLINE
  5
2FF
100
AcDbEntity
  8
0
 62
     0
100
AcDbPolyline
 90
        2
 70
     0
 39
0.003
 10
0.41026
 20
-0.398177
 40
0.003
 41
0.003
 10
0.402362
 20
-0.427972
 40
0.003
 41
0.003
  0
LWPOLYLINE
  5
300
100
AcDbEntity
  8
0
 62
     0
100
AcDbPolyline
 90
        2
 70
     0
 39
0.003
 10
0.402362
 20
-0.427972
 40
0.003
 41
0.003
 10
0.394736
 20
-0.458626
 40
0.003
 41
0.003
  0
LWPOLYLINE
  5
301
100
AcDbEntity
  8
0
 62
     0
100
AcDbPolyline
 90
        2
 70
     0
 39
0.003
 10
0.394736
 20
-0.458626
 40
0.003
 41
0.003
 10
0.387276
 20
-0.49002
 40
0.003
 41
0.003
  0
LWPOLYLINE
  5
302
100
AcDbEntity
  8
0
 62
     0
100
AcDbPolyline
 90
        2
 70
     0
 39
0.003
 10
0.387276
 20
-0.49002
 40
0.003
 41
0.003
 10
0.37989
 20
-0.522067
 40
0.003
 41
0.003
  0
LWPOLYLINE
  5
303
100
AcDbEntity
  8
0
 62
     0
100
AcDbPolyline
 90
        2
 70
     0
 39
0.003
 10
0.37989
 20
-0.522067
 40
0.003
 41
0.003
 10
0.372472
 20
-0.554646
 40
0.003
 41
0.003
  0
LWPOLYLINE
  5
304
100
AcDbEntity
  8
0
 62
     0
100
AcDbPolyline
 90
        2
 70
     0
 39
0.003
 10
0.372472
 20
-0.554646
 40
0.003
 41
0.003
 10
0.364941
 20
-0.587673
 40
0.003
 41
0.003
  0
LWPOLYLINE
  5
305
100
AcDbEntity
  8
0
 62
     0
100
AcDbPolyline
 90
        2
 70
     0
 39
0.003
 10
0.364941
 20
-0.587673
 40
0.003
 41
0.003
 10
0.357185
 20
-0.621035
 40
0.003
 41
0.003
  0
LWPOLYLINE
  5
306
100
AcDbEntity
  8
0
 62
     0
100
AcDbPolyline
 90
        2
 70
     0
 39
0.003
 10
0.357185
 20
-0.621035
 40
0.003
 41
0.003
 10
0.349118
 20
-0.654642
 40
0.003
 41
0.003
  0
LWPOLYLINE
  5
307
100
AcDbEntity
  8
0
 62
     0
100
AcDbPolyline
 90
        2
 70
     0
 39
0.003
 10
0.349118
 20
-0.654642
 40
0.003
 41
0.003
 10
0.34063
 20
-0.688374
 40
0.003
 41
0.003
  0
LWPOLYLINE
  5
308
100
AcDbEntity
  8
0
 62
     0
100
AcDbPolyline
 90
        2
 70
     0
 39
0.003
 10
0.34063
 20
-0.688374
 40
0.003
 41
0.003
 10
0.331638
 20
-0.722146
 40
0.003
 41
0.003
  0
LWPOLYLINE
  5
309
100
AcDbEntity
  8
0
 62
     0
100
AcDbPolyline
 90
        2
 70
     0
 39
0.003
 10
0.331638
 20
-0.722146
 40
0.003
 41
0.003
 10
0.322035
 20
-0.755846
 40
0.003
 41
0.003
  0
LWPOLYLINE
  5
30A
100
AcDbEntity
  8
0
 62
     0
100
AcDbPolyline
 90
        2
 70
     0
 39
0.003
 10
0.322035
 20
-0.755846
 40
0.003
 41
0.003
 10
0.311732
 20
-0.789386
 40
0.003
 41
0.003
  0
LWPOLYLINE
  5
30B
100
AcDbEntity
  8
0
 62
     0
100
AcDbPolyline
 90
        2
 70
     0
 39
0.003
 10
0.311732
 20
-0.789386
 40
0.003
 41
0.003
 10
0.300626
 20
-0.822646
 40
0.003
 41
0.003
  0
LWPOLYLINE
  5
30C
100
AcDbEntity
  8
0
 62
     0
100
AcDbPolyline
 90
        2
 70
     0
 39
0.003
 10
0.300626
 20
-0.822646
 40
0.003
 41
0.003
 10
0.288622
 20
-0.855539
 40
0.003
 41
0.003
  0
LWPOLYLINE
  5
30D
100
AcDbEntity
  8
0
 62
     0
100
AcDbPolyline
 90
        2
 70
     0
 39
0.003
 10
0.288622
 20
-0.855539
 40
0.003
 41
0.003
 10
0.275626
 20
-0.887957
 40
0.003
 41
0.003
  0
LWPOLYLINE
  5
30E
100
AcDbEntity
  8
0
 62
     0
100
AcDbPolyline
 90
        2
 70
     0
 39
0.003
 10
0.275626
 20
-0.887957
 40
0.003
 41
0.003
 10
0.261551
 20
-0.919799
 40
0.003
 41
0.003
  0
LWPOLYLINE
  5
30F
100
AcDbEntity
  8
0
 62
     0
100
AcDbPolyline
 90
        2
 70
     0
 39
0.003
 10
0.261551
 20
-0.919799
 40
0.003
 41
0.003
 10
0.246276
 20
-0.950957
 40
0.003
 41
0.003
  0
LWPOLYLINE
  5
310
100
AcDbEntity
  8
0
 62
     0
100
AcDbPolyline
 90
        2
 70
     0
 39
0.003
 10
0.246276
 20
-0.950957
 40
0.003
 41
0.003
 10
0.22972
 20
-0.981339
 40
0.003
 41
0.003
  0
LWPOLYLINE
  5
311
100
AcDbEntity
  8
0
 62
     0
100
AcDbPolyline
 90
        2
 70
     0
 39
0.003
 10
0.22972
 20
-0.981339
 40
0.003
 41
0.003
 10
0.21178
 20
-1.010839
 40
0.003
 41
0.003
  0
LWPOLYLINE
  5
312
100
AcDbEntity
  8
0
 62
     0
100
AcDbPolyline
 90
        2
 70
     0
 39
0.003
 10
0.21178
 20
-1.010839
 40
0.003
 41
0.003
 10
0.19237
 20
-1.039358
 40
0.003
 41
0.003
  0
LWPOLYLINE
  5
313
100
AcDbEntity
  8
0
 62
     0
100
AcDbPolyline
 90
        2
 70
     0
 39
0.003
 10
0.19237
 20
-1.039358
 40
0.003
 41
0.003
 10
0.171378
 20
-1.066787
 40
0.003
 41
0.003
  0
LWPOLYLINE
  5
314
100
AcDbEntity
  8
0
 62
     0
100
AcDbPolyline
 90
        2
 70
     0
 39
0.003
 10
0.171378
 20
-1.066787
 40
0.003
 41
0.003
 10
0.148724
 20
-1.093035
 40
0.003
 41
0.003
  0
LWPOLYLINE
  5
315
100
AcDbEntity
  8
0
 62
     0
100
AcDbPolyline
 90
        2
 70
     0
 39
0.003
 10
0.148724
 20
-1.093035
 40
0.003
 41
0.003
 10
0.124299
 20
-1.117996
 40
0.003
 41
0.003
  0
LWPOLYLINE
  5
316
100
AcDbEntity
  8
0
 62
     0
100
AcDbPolyline
 90
        2
 70
     0
 39
0.003
 10
0.124299
 20
-1.117996
 40
0.003
 41
0.003
 10
0.098004
 20
-1.141567
 40
0.003
 41
0.003
  0
LWPOLYLINE
  5
317
100
AcDbEntity
  8
0
 62
     0
100
AcDbPolyline
 90
        2
 70
     0
 39
0.003
 10
0.098004
 20
-1.141567
 40
0.003
 41
0.003
 10
0.069752
 20
-1.163638
 40
0.003
 41
0.003
  0
LWPOLYLINE
  5
318
100
AcDbEntity
  8
0
 62
     0
100
AcDbPolyline
 90
        2
 70
     0
 39
0.003
 10
0.069752
 20
-1.163638
 40
0.003
 41
0.003
 10
0.039441
 20
-1.184126
 40
0.003
 41
0.003
  0
LWPOLYLINE
  5
319
100
AcDbEntity
  8
0
 62
     0
100
AcDbPolyline
 90
        2
 70
     0
 39
0.003
 10
0.039441
 20
-1.184126
 40
0.003
 41
0.003
 10
0.006972
 20
-1.202913
 40
0.003
 41
0.003
  0
LWPOLYLINE
  5
31A
100
AcDbEntity
  8
0
 62
     0
100
AcDbPolyline
 90
        2
 70
     0
 39
0.003
 10
0.006972
 20
-1.202913
 40
0.003
 41
0.003
 10
-0.027752
 20
-1.219909
 40
0.003
 41
0.003
  0
LWPOLYLINE
  5
31B
100
AcDbEntity
  8
0
 62
     0
100
AcDbPolyline
 90
        2
 70
     0
 39
0.003
 10
-0.027752
 20
-1.219909
 40
0.003
 41
0.003
 10
-0.064815
 20
-1.235004
 40
0.003
 41
0.003
  0
LWPOLYLINE
  5
31C
100
AcDbEntity
  8
0
 62
     0
100
AcDbPolyline
 90
        2
 70
     0
 39
0.003
 10
-0.064815
 20
-1.235004
 40
0.003
 41
0.003
 10
-0.104335
 20
-1.248098
 40
0.003
 41
0.003
  0
LWPOLYLINE
  5
31D
100
AcDbEntity
  8
0
 62
     0
100
AcDbPolyline
 90
        2
 70
     0
 39
0.003
 10
-0.104335
 20
-1.248098
 40
0.003
 41
0.003
 10
-0.14639
 20
-1.259091
 40
0.003
 41
0.003
  0
LWPOLYLINE
  5
31E
100
AcDbEntity
  8
0
 62
     0
100
AcDbPolyline
 90
        2
 70
     0
 39
0.003
 10
-0.14639
 20
-1.259091
 40
0.003
 41
0.003
 10
-0.191091
 20
-1.26789
 40
0.003
 41
0.003
  0
LWPOLYLINE
  5
31F
100
AcDbEntity
  8
0
 62
     0
100
AcDbPolyline
 90
        2
 70
     0
 39
0.003
 10
-0.191091
 20
-1.26789
 40
0.003
 41
0.003
 10
-0.843169
 20
-0.885437
 40
0.003
 41
0.003
  0
LWPOLYLINE
  5
320
100
AcDbEntity
  8
0
 62
     0
100
AcDbPolyline
 90
        2
 70
     0
 39
0.003
 10
-0.843169
 20
-0.885437
 40
0.003
 41
0.003
 10
-0.798469
 20
-0.876638
 40
0.003
 41
0.003
  0
LWPOLYLINE
  5
321
100
AcDbEntity
  8
0
 62
     0
100
AcDbPolyline
 90
        2
 70
     0
 39
0.003
 10
-0.798469
 20
-0.876638
 40
0.003
 41
0.003
 10
-0.756413
 20
-0.865646
 40
0.003
 41
0.003
  0
LWPOLYLINE
  5
322
100
AcDbEntity
  8
0
 62
     0
100
AcDbPolyline
 90
        2
 70
     0
 39
0.003
 10
-0.756413
 20
-0.865646
 40
0.003
 41
0.003
 10
-0.716894
 20
-0.852551
 40
0.003
 41
0.003
  0
LWPOLYLINE
  5
323
100
AcDbEntity
  8
0
 62
     0
100
AcDbPolyline
 90
        2
 70
     0
 39
0.003
 10
-0.716894
 20
-0.852551
 40
0.003
 41
0.003
 10
-0.679831
 20
-0.837457
 40
0.003
 41
0.003
  0
LWPOLYLINE
  5
324
100
AcDbEntity
  8
0
 62
     0
100
AcDbPolyline
 90
        2
 70
     0
 39
0.003
 10
-0.679831
 20
-0.837457
 40
0.003
 41
0.003
 10
-0.645106
 20
-0.820461
 40
0.003
 41
0.003
  0
LWPOLYLINE
  5
325
100
AcDbEntity
  8
0
 62
     0
100
AcDbPolyline
 90
        2
 70
     0
 39
0.003
 10
-0.645106
 20
-0.820461
 40
0.003
 41
0.003
 10
-0.612638
 20
-0.801673
 40
0.003
 41
0.003
  0
LWPOLYLINE
  5
326
100
AcDbEntity
  8
0
 62
     0
100
AcDbPolyline
 90
        2
 70
     0
 39
0.003
 10
-0.612638
 20
-0.801673
 40
0.003
 41
0.003
 10
-0.582327
 20
-0.781185
 40
0.003
 41
0.003
  0
LWPOLYLINE
  5
327
100
AcDbEntity
  8
0
 62
     0
100
AcDbPolyline
 90
        2
 70
     0
 39
0.003
 10
-0.582327
 20
-0.781185
 40
0.003
 41
0.003
 10
-0.554075
 20
-0.759114
 40
0.003
 41
0.003
  0
LWPOLYLINE
  5
328
100
AcDbEntity
  8
0
 62
     0
100
AcDbPolyline
 90
        2
 70
     0
 39
0.003
 10
-0.554075
 20
-0.759114
 40
0.003
 41
0.003
 10
-0.52778
 20
-0.735543
 40
0.003
 41
0.003
  0
LWPOLYLINE
  5
329
100
AcDbEntity
  8
0
 62
     0
100
AcDbPolyline
 90
        2
 70
     0
 39
0.003
 10
-0.52778
 20
-0.735543
 40
0.003
 41
0.003
 10
-0.503354
 20
-0.710583
 40
0.003
 41
0.003
  0
LWPOLYLINE
  5
32A
100
AcDbEntity
  8
0
 62
     0
100
AcDbPolyline
 90
        2
 70
     0
 39
0.003
 10
-0.503354
 20
-0.710583
 40
0.003
 41
0.003
 10
-0.480701
 20
-0.684335
 40
0.003
 41
0.003
  0
LWPOLYLINE
  5
32B
100
AcDbEntity
  8
0
 62
     0
100
AcDbPolyline
 90
        2
 70
     0
 39
0.003
 10
-0.480701
 20
-0.684335
 40
0.003
 41
0.003
 10
-0.459709
 20
-0.656906
 40
0.003
 41
0.003
  0
LWPOLYLINE
  5
32C
100
AcDbEntity
  8
0
 62
     0
100
AcDbPolyline
 90
        2
 70
     0
 39
0.003
 10
-0.459709
 20
-0.656906
 40
0.003
 41
0.003
 10
-0.440299
 20
-0.628386
 40
0.003
 41
0.003
  0
LWPOLYLINE
  5
32D
100
AcDbEntity
  8
0
 62
     0
100
AcDbPolyline
 90
        2
 70
     0
 39
0.003
 10
-0.440299
 20
-0.628386
 40
0.003
 41
0.003
 10
-0.422358
 20
-0.598886
 40
0.003
 41
0.003
  0
LWPOLYLINE
  5
32E
100
AcDbEntity
  8
0
 62
     0
100
AcDbPolyline
 90
        2
 70
     0
 39
0.003
 10
-0.422358
 20
-0.598886
 40
0.003
 41
0.003
 10
-0.405803
 20
-0.568504
 40
0.003
 41
0.003
  0
LWPOLYLINE
  5
32F
100
AcDbEntity
  8
0
 62
     0
100
AcDbPolyline
 90
        2
 70
     0
 39
0.003
 10
-0.405803
 20
-0.568504
 40
0.003
 41
0.003
 10
-0.390528
 20
-0.537346
 40
0.003
 41
0.003
  0
LWPOLYLINE
  5
330
100
AcDbEntity
  8
0
 62
     0
100
AcDbPolyline
 90
        2
 70
     0
 39
0.003
 10
-0.390528
 20
-0.537346
 40
0.003
 41
0.003
 10
-0.376453
 20
-0.505504
 40
0.003
 41
0.003
  0
LWPOLYLINE
  5
331
100
AcDbEntity
  8
0
 62
     0
100
AcDbPolyline
 90
        2
 70
     0
 39
0.003
 10
-0.376453
 20
-0.505504
 40
0.003
 41
0.003
 10
-0.363457
 20
-0.473087
 40
0.003
 41
0.003
  0
LWPOLYLINE
  5
332
100
AcDbEntity
  8
0
 62
     0
100
AcDbPolyline
 90
        2
 70
     0
 39
0.003
 10
-0.363457
 20
-0.473087
 40
0.003
 41
0.003
 10
-0.351453
 20
-0.440193
 40
0.003
 41
0.003
  0
LWPOLYLINE
  5
333
100
AcDbEntity
  8
0
 62
     0
100
AcDbPolyline
 90
        2
 70
     0
 39
0.003
 10
-0.351453
 20
-0.440193
 40
0.003
 41
0.003
 10
-0.340346
 20
-0.406933
 40
0.003
 41
0.003
  0
LWPOLYLINE
  5
334
100
AcDbEntity
  8
0
 62
     0
100
AcDbPolyline
 90
        2
 70
     0
 39
0.003
 10
-0.340346
 20
-0.406933
 40
0.003
 41
0.003
 10
-0.330043
 20
-0.373394
 40
0.003
 41
0.003
  0
LWPOLYLINE
  5
335
100
AcDbEntity
  8
0
 62
     0
100
AcDbPolyline
 90
        2
 70
     0
 39
0.003
 10
-0.330043
 20
-0.373394
 40
0.003
 41
0.003
 10
-0.320441
 20
-0.339693
 40
0.003
 41
0.003
  0
LWPOLYLINE
  5
336
100
AcDbEntity
  8
0
 62
     0
100
AcDbPolyline
 90
        2
 70
     0
 39
0.003
 10
-0.320441
 20
-0.339693
 40
0.003
 41
0.003
 10
-0.311449
 20
-0.305921
 40
0.003
 41
0.003
  0
LWPOLYLINE
  5
337
100
AcDbEntity
  8
0
 62
     0
100
AcDbPolyline
 90
        2
 70
     0
 39
0.003
 10
-0.311449
 20
-0.305921
 40
0.003
 41
0.003
 10
-0.302961
 20
-0.272189
 40
0.003
 41
0.003
  0
LWPOLYLINE
  5
338
100
AcDbEntity
  8
0
 62
     0
100
AcDbPolyline
 90
        2
 70
     0
 39
0.003
 10
-0.302961
 20
-0.272189
 40
0.003
 41
0.003
 10
-0.294894
 20
-0.238583
 40
0.003
 41
0.003
  0
LWPOLYLINE
  5
339
100
AcDbEntity
  8
0
 62
     0
100
AcDbPolyline
 90
        2
 70
     0
 39
0.003
 10
-0.294894
 20
-0.238583
 40
0.003
 41
0.003
 10
-0.287138
 20
-0.20522
 40
0.003
 41
0.003
  0
LWPOLYLINE
  5
33A
100
AcDbEntity
  8
0
 62
     0
100
AcDbPolyline
 90
        2
 70
     0
 39
0.003
 10
-0.287138
 20
-0.20522
 40
0.003
 41
0.003
 10
-0.279606
 20
-0.172193
 40
0.003
 41
0.003
  0
LWPOLYLINE
  5
33B
100
AcDbEntity
  8
0
 62
     0
100
AcDbPolyline
 90
        2
 70
     0
 39
0.003
 10
-0.279606
 20
-0.172193
 40
0.003
 41
0.003
 10
-0.272189
 20
-0.139614
 40
0.003
 41
0.003
  0
LWPOLYLINE
  5
33C
100
AcDbEntity
  8
0
 62
     0
100
AcDbPolyline
 90
        2
 70
     0
 39
0.003
 10
-0.272189
 20
-0.139614
 40
0.003
 41
0.003
 10
-0.264803
 20
-0.107567
 40
0.003
 41
0.003
  0
LWPOLYLINE
  5
33D
100
AcDbEntity
  8
0
 62
     0
100
AcDbPolyline
 90
        2
 70
     0
 39
0.003
 10
-0.264803
 20
-0.107567
 40
0.003
 41
0.003
 10
-0.257343
 20
-0.076173
 40
0.003
 41
0.003
  0
LWPOLYLINE
  5
33E
100
AcDbEntity
  8
0
 62
     0
100
AcDbPolyline
 90
        2
 70
     0
 39
0.003
 10
-0.257343
 20
-0.076173
 40
0.003
 41
0.003
 10
-0.249717
 20
-0.04552
 40
0.003
 41
0.003
  0
LWPOLYLINE
  5
33F
100
AcDbEntity
  8
0
 62
     0
100
AcDbPolyline
 90
        2
 70
     0
 39
0.003
 10
-0.249717
 20
-0.04552
 40
0.003
 41
0.003
 10
-0.241819
 20
-0.015724
 40
0.003
 41
0.003
  0
LWPOLYLINE
  5
340
100
AcDbEntity
  8
0
 62
     0
100
AcDbPolyline
 90
        2
 70
     0
 39
0.003
 10
-0.241819
 20
-0.015724
 40
0.003
 41
0.003
 10
-0.233866
 20
0.01389
 40
0.003
 41
0.003
  0
LWPOLYLINE
  5
341
100
AcDbEntity
  8
0
 62
     0
100
AcDbPolyline
 90
        2
 70
     0
 39
0.003
 10
-0.233866
 20
0.01389
 40
0.003
 41
0.003
 10
-0.226047
 20
0.043953
 40
0.003
 41
0.003
  0
LWPOLYLINE
  5
342
100
AcDbEntity
  8
0
 62
     0
100
AcDbPolyline
 90
        2
 70
     0
 39
0.003
 10
-0.226047
 20
0.043953
 40
0.003
 41
0.003
 10
-0.218272
 20
0.074378
 40
0.003
 41
0.003
  0
LWPOLYLINE
  5
343
100
AcDbEntity
  8
0
 62
     0
100
AcDbPolyline
 90
        2
 70
     0
 39
0.003
 10
-0.218272
 20
0.074378
 40
0.003
 41
0.003
 10
-0.210445
 20
0.105094
 40
0.003
 41
0.003
  0
LWPOLYLINE
  5
344
100
AcDbEntity
  8
0
 62
     0
100
AcDbPolyline
 90
        2
 70
     0
 39
0.003
 10
-0.210445
 20
0.105094
 40
0.003
 41
0.003
 10
-0.202484
 20
0.135992
 40
0.003
 41
0.003
  0
LWPOLYLINE
  5
345
100
AcDbEntity
  8
0
 62
     0
100
AcDbPolyline
 90
        2
 70
     0
 39
0.003
 10
-0.202484
 20
0.135992
 40
0.003
 41
0.003
 10
-0.194283
 20
0.166992
 40
0.003
 41
0.003
  0
LWPOLYLINE
  5
346
100
AcDbEntity
  8
0
 62
     0
100
AcDbPolyline
 90
        2
 70
     0
 39
0.003
 10
-0.194283
 20
0.166992
 40
0.003
 41
0.003
 10
-0.185764
 20
0.197992
 40
0.003
 41
0.003
  0
LWPOLYLINE
  5
347
100
AcDbEntity
  8
0
 62
     0
100
AcDbPolyline
 90
        2
 70
     0
 39
0.003
 10
-0.185764
 20
0.197992
 40
0.003
 41
0.003
 10
-0.176823
 20
0.228913
 40
0.003
 41
0.003
  0
LWPOLYLINE
  5
348
100
AcDbEntity
  8
0
 62
     0
100
AcDbPolyline
 90
        2
 70
     0
 39
0.003
 10
-0.176823
 20
0.228913
 40
0.003
 41
0.003
 10
-0.167378
 20
0.25965
 40
0.003
 41
0.003
  0
LWPOLYLINE
  5
349
100
AcDbEntity
  8
0
 62
     0
100
AcDbPolyline
 90
        2
 70
     0
 39
0.003
 10
-0.167378
 20
0.25965
 40
0.003
 41
0.003
 10
-0.157331
 20
0.290126
 40
0.003
 41
0.003
  0
LWPOLYLINE
  5
34A
100
AcDbEntity
  8
0
 62
     0
100
AcDbPolyline
 90
        2
 70
     0
 39
0.003
 10
-0.157331
 20
0.290126
 40
0.003
 41
0.003
 10
-0.146587
 20
0.320236
 40
0.003
 41
0.003
  0
LWPOLYLINE
  5
34B
100
AcDbEntity
  8
0
 62
     0
100
AcDbPolyline
 90
        2
 70
     0
 39
0.003
 10
-0.146587
 20
0.320236
 40
0.003
 41
0.003
 10
-0.135055
 20
0.349902
 40
0.003
 41
0.003
  0
LWPOLYLINE
  5
34C
100
AcDbEntity
  8
0
 62
     0
100
AcDbPolyline
 90
        2
 70
     0
 39
0.003
 10
-0.135055
 20
0.349902
 40
0.003
 41
0.003
 10
-0.12265
 20
0.379024
 40
0.003
 41
0.003
  0
LWPOLYLINE
  5
34D
100
AcDbEntity
  8
0
 62
     0
100
AcDbPolyline
 90
        2
 70
     0
 39
0.003
 10
-0.12265
 20
0.379024
 40
0.003
 41
0.003
 10
-0.109268
 20
0.407512
 40
0.003
 41
0.003
  0
LWPOLYLINE
  5
34E
100
AcDbEntity
  8
0
 62
     0
100
AcDbPolyline
 90
        2
 70
     0
 39
0.003
 10
-0.109268
 20
0.407512
 40
0.003
 41
0.003
 10
-0.094831
 20
0.43528
 40
0.003
 41
0.003
  0
LWPOLYLINE
  5
34F
100
AcDbEntity
  8
0
 62
     0
100
AcDbPolyline
 90
        2
 70
     0
 39
0.003
 10
-0.094831
 20
0.43528
 40
0.003
 41
0.003
 10
-0.079228
 20
0.462236
 40
0.003
 41
0.003
  0
LWPOLYLINE
  5
350
100
AcDbEntity
  8
0
 62
     0
100
AcDbPolyline
 90
        2
 70
     0
 39
0.003
 10
-0.079228
 20
0.462236
 40
0.003
 41
0.003
 10
-0.062394
 20
0.48828
 40
0.003
 41
0.003
  0
LWPOLYLINE
  5
351
100
AcDbEntity
  8
0
 62
     0
100
AcDbPolyline
 90
        2
 70
     0
 39
0.003
 10
-0.062394
 20
0.48828
 40
0.003
 41
0.003
 10
-0.044209
 20
0.513331
 40
0.003
 41
0.003
  0
LWPOLYLINE
  5
352
100
AcDbEntity
  8
0
 62
     0
100
AcDbPolyline
 90
        2
 70
     0
 39
0.003
 10
-0.044209
 20
0.513331
 40
0.003
 41
0.003
 10
-0.024598
 20
0.537295
 40
0.003
 41
0.003
  0
LWPOLYLINE
  5
353
100
AcDbEntity
  8
0
 62
     0
100
AcDbPolyline
 90
        2
 70
     0
 39
0.003
 10
-0.024598
 20
0.537295
 40
0.003
 41
0.003
 10
-0.003457
 20
0.560087
 40
0.003
 41
0.003
  0
LWPOLYLINE
  5
354
100
AcDbEntity
  8
0
 62
     0
100
AcDbPolyline
 90
        2
 70
     0
 39
0.003
 10
-0.003457
 20
0.560087
 40
0.003
 41
0.003
 10
0.019291
 20
0.581602
 40
0.003
 41
0.003
  0
LWPOLYLINE
  5
355
100
AcDbEntity
  8
0
 62
     0
100
AcDbPolyline
 90
        2
 70
     0
 39
0.003
 10
0.019291
 20
0.581602
 40
0.003
 41
0.003
 10
0.043756
 20
0.601764
 40
0.003
 41
0.003
  0
LWPOLYLINE
  5
356
100
AcDbEntity
  8
0
 62
     0
100
AcDbPolyline
 90
        2
 70
     0
 39
0.003
 10
0.043756
 20
0.601764
 40
0.003
 41
0.003
 10
0.07002
 20
0.620469
 40
0.003
 41
0.003
  0
LWPOLYLINE
  5
357
100
AcDbEntity
  8
0
 62
     0
100
AcDbPolyline
 90
        2
 70
     0
 39
0.003
 10
0.07002
 20
0.620469
 40
0.003
 41
0.003
 10
0.098181
 20
0.637638
 40
0.003
 41
0.003
  0
LWPOLYLINE
  5
358
100
AcDbEntity
  8
0
 62
     0
100
AcDbPolyline
 90
        2
 70
     0
 39
0.003
 10
0.098181
 20
0.637638
 40
0.003
 41
0.003
 10
0.128315
 20
0.653165
 40
0.003
 41
0.003
  0
LWPOLYLINE
  5
359
100
AcDbEntity
  8
0
 62
     0
100
AcDbPolyline
 90
        2
 70
     0
 39
0.003
 10
0.128315
 20
0.653165
 40
0.003
 41
0.003
 10
0.160535
 20
0.666976
 40
0.003
 41
0.003
  0
LWPOLYLINE
  5
35A
100
AcDbEntity
  8
0
 62
     0
100
AcDbPolyline
 90
        2
 70
     0
 39
0.003
 10
0.160535
 20
0.666976
 40
0.003
 41
0.003
 10
0.194921
 20
0.678969
 40
0.003
 41
0.003
  0
LWPOLYLINE
  5
35B
100
AcDbEntity
  8
0
 62
     0
100
AcDbPolyline
 90
        2
 70
     0
 39
0.003
 10
0.194921
 20
0.678969
 40
0.003
 41
0.003
 10
0.231579
 20
0.689059
 40
0.003
 41
0.003
  0
LWPOLYLINE
  5
35C
100
AcDbEntity
  8
0
 62
     0
100
AcDbPolyline
 90
        2
 70
     0
 39
0.003
 10
0.231579
 20
0.689059
 40
0.003
 41
0.003
 10
0.270579
 20
0.697146
 40
0.003
 41
0.003
  0
LWPOLYLINE
  5
35D
100
AcDbEntity
  8
0
 62
     0
100
AcDbPolyline
 90
        2
 70
     0
 39
0.003
 10
0.270579
 20
0.697146
 40
0.003
 41
0.003
 10
0.312031
 20
0.703154
 40
0.003
 41
0.003
  0
LWPOLYLINE
  5
35E
100
AcDbEntity
  8
0
 62
     0
100
AcDbPolyline
 90
        2
 70
     0
 39
0.003
 10
0.312031
 20
0.703154
 40
0.003
 41
0.003
 10
0.356024
 20
0.706976
 40
0.003
 41
0.003
  0
LWPOLYLINE
  5
35F
100
AcDbEntity
  8
0
 62
     0
100
AcDbPolyline
 90
        2
 70
     0
 39
0.003
 10
0.356024
 20
0.706976
 40
0.003
 41
0.003
 10
0.40265
 20
0.708535
 40
0.003
 41
0.003
  0
LWPOLYLINE
  5
360
100
AcDbEntity
  8
0
 62
     7
100
AcDbPolyline
 90
        2
 70
     0
 39
0.003
 10
-0.843169
 20
-0.885437
 40
0.003
 41
0.003
 10
-0.843169
 20
-1.388039
 40
0.003
 41
0.003
  0
LWPOLYLINE
  5
361
100
AcDbEntity
  8
0
 62
     7
100
AcDbPolyline
 90
        2
 70
     0
 39
0.003
 10
-0.843169
 20
-1.388039
 40
0.003
 41
0.003
 10
-1.092193
 20
-1.388039
 40
0.003
 41
0.003
  0
LWPOLYLINE
  5
362
100
AcDbEntity
  8
0
 62
     7
100
AcDbPolyline
 90
        2
 70
     0
 39
0.003
 10
-1.092193
 20
-1.388039
 40
0.003
 41
0.003
 10
-1.092193
 20
1.361961
 40
0.003
 41
0.003
  0
LWPOLYLINE
  5
363
100
AcDbEntity
  8
0
 62
     7
100
AcDbPolyline
 90
        2
 70
     0
 39
0.003
 10
-1.092193
 20
1.361961
 40
0.003
 41
0.003
 10
0.40265
 20
1.211835
 40
0.003
 41
0.003
  0
LWPOLYLINE
  5
364
100
AcDbEntity
  8
0
 62
     7
100
AcDbPolyline
 90
        2
 70
     0
 39
0.003
 10
0.40265
 20
1.211835
 40
0.003
 41
0.003
 10
0.40265
 20
0.708535
 40
0.003
 41
0.003
  0
SPLINE
  5
365
100
AcDbEntity
  8
0
 62
     7
100
AcDbSpline
210
0.0
220
0.0
230
1.0
 70
     0
 71
     3
 72
     0
 73
     0
 74
    33
 44
0.0000000001
 11
0.4026496062992126
 21
0.7085354330708662
 31
0.0
 11
0.3120314960629921
 21
0.7031535433070866
 31
0.0
 11
0.2315787401574803
 21
0.6890590551181103
 31
0.0
 11
0.1605354330708662
 21
0.6669763779527559
 31
0.0
 11
0.0981811023622047
 21
0.6376377952755905
 31
0.0
 11
0.0437637795275591
 21
0.6017637795275591
 31
0.0
 11
-0.0034488188976378
 21
0.5600866141732284
 31
0.0
 11
-0.0441968503937008
 21
0.5133307086614173
 31
0.0
 11
-0.0792244094488189
 21
0.462236220472441
 31
0.0
 11
-0.109255905511811
 21
0.4075118110236221
 31
0.0
 11
-0.1350433070866142
 21
0.3499015748031496
 31
0.0
 11
-0.1573110236220472
 21
0.2901259842519685
 31
0.0
 11
-0.1768149606299213
 21
0.2289133858267717
 31
0.0
 11
-0.1942716535433071
 21
0.166992125984252
 31
0.0
 11
-0.2104330708661417
 21
0.1050944881889764
 31
0.0
 11
-0.2260354330708662
 21
0.0439448818897638
 31
0.0
 11
-0.2418188976377953
 21
-0.0157244094488189
 31
0.0
 11
-0.2573307086614173
 21
-0.0761732283464567
 31
0.0
 11
-0.2721771653543307
 21
-0.1396141732283465
 31
0.0
 11
-0.2871259842519685
 21
-0.2052204724409449
 31
0.0
 11
-0.3029566929133858
 21
-0.2721889763779528
 31
0.0
 11
-0.3204291338582677
 21
-0.3396929133858267
 31
0.0
 11
-0.3403346456692913
 21
-0.4069330708661417
 31
0.0
 11
-0.3634409448818898
 21
-0.4730866141732283
 31
0.0
 11
-0.3905236220472441
 21
-0.5373464566929134
 31
0.0
 11
-0.4223464566929134
 21
-0.5988858267716536
 31
0.0
 11
-0.4597007874015748
 21
-0.6569055118110236
 31
0.0
 11
-0.5033464566929133
 21
-0.7105826771653543
 31
0.0
 11
-0.5540708661417323
 21
-0.7591141732283465
 31
0.0
 11
-0.6126338582677166
 21
-0.8016732283464567
 31
0.0
 11
-0.6798267716535433
 21
-0.8374566929133859
 31
0.0
 11
-0.7564133858267716
 21
-0.8656456692913386
 31
0.0
 11
-0.8431692913385827
 21
-0.8854370078740158
 31
0.0
  0
MTEXT
  5
366
100
AcDbEntity
  8
0
 62
     0
100
AcDbMText
 10
-0.617272
 20
-1.285736
 30
0.0
 40
0.166665
 41
0.0
 71
     1
 72
     1
  1
{\fBookman Old Style|b0|i0|c0|p32;BA  1462}
 73
     1
 44
1.0
  0
MTEXT
  5
367
100
AcDbEntity
  8
0
 62
     0
100
AcDbMText
 10
-0.617272
 20
-1.473236
 30
0.0
 40
0.166665
 41
0.0
 71
     1
 72
     1
  1
{\fBookman Old Style|b0|i0|c0|p32;1-1/2" x 2-3/4"}
 73
     1
 44
1.0
  0
ENDSEC
  0
SECTION
  2
OBJECTS
  0
DICTIONARY
  5
19
100
AcDbDictionary
280
     0
281
     1
  3
ACAD_GROUP
350
1A
  3
ACAD_MLINESTYLE
350
1B
  3
ACAD_LAYOUT
350
1E
  3
ACAD_PLOTSETTINGS
350
22
  3
ACAD_PLOTSTYLENAME
350
1F
  3
ACAD_WIPEOUT_VARS
350
23
  0
DICTIONARY
  5
1A
102
{ACAD_REACTORS
330
19
102
}
100
AcDbDictionary
280
     0
281
     1
  0
DICTIONARY
  5
1B
102
{ACAD_REACTORS
330
19
102
}
100
AcDbDictionary
280
     0
281
     1
  3
Standard
350
1C
  0
MLINESTYLE
  5
1C
102
{ACAD_REACTORS
330
1B
102
}
100
AcDbMlineStyle
  2
Standard
 70
     0
  3

 62
     0
 51
90.0
 52
90.0
 71
     2
 49
0.5
 62
   256
  6
BYLAYER
 49
-0.5
 62
   256
  6
BYLAYER
  0
ACDBDICTIONARYWDFLT
  5
1F
102
{ACAD_REACTORS
330
19
102
}
100
AcDbDictionary
281
     1
  3
Normal
350
1D
100
AcDbDictionaryWithDefault
340
1D
  0
ACDBPLACEHOLDER
  5
1D
102
{ACAD_REACTORS
330
1F
102
}
  0
LAYOUT
  5
20
102
{ACAD_REACTORS
330
1E
102
}
100
AcDbPlotSettings
  1

  2

  4

  6

 40
0.0
 41
0.0
 42
0.0
 43
0.0
 44
0.0
 45
0.0
 46
0.0
 47
0.0
 48
0.0
 49
0.0
140
0.0
141
0.0
142
1.0
143
1.0
 70
  1024
 72
     0
 73
     0
 74
     0
  7

 75
     0
147
1.0
148
0.0
149
0.0
100
AcDbLayout
  1
Model
 70
     0
 71
     0
 10
0.0
 20
0.0
 11
0.0
 21
0.0
 12
0.0
 22
0.0
 32
0.0
 14
0.0
 24
0.0
 34
0.0
 15
0.0
 25
0.0
 35
0.0
146
0.0
 13
0.0
 23
0.0
 33
0.0
 16
0.0
 26
0.0
 36
0.0
 17
0.0
 27
0.0
 37
0.0
 76
     0
330
A
331
0
345
0
346
0
  0
LAYOUT
  5
21
102
{ACAD_REACTORS
330
1E
102
}
100
AcDbPlotSettings
  1

  2

  4

  6

 40
0.0
 41
0.0
 42
0.0
 43
0.0
 44
0.0
 45
0.0
 46
0.0
 47
0.0
 48
0.0
 49
0.0
140
0.0
141
0.0
142
1.0
143
1.0
 70
     0
 72
     0
 73
     0
 74
     0
  7

 75
     0
147
1.0
148
0.0
149
0.0
100
AcDbLayout
  1
Layout1
 70
     0
 71
     0
 10
0.0
 20
0.0
 11
0.0
 21
0.0
 12
0.0
 22
0.0
 32
0.0
 14
0.0
 24
0.0
 34
0.0
 15
0.0
 25
0.0
 35
0.0
146
0.0
 13
0.0
 23
0.0
 33
0.0
 16
0.0
 26
0.0
 36
0.0
 17
0.0
 27
0.0
 37
0.0
 76
     0
330
B
331
0
345
0
346
0
  0
DICTIONARY
  5
1E
102
{ACAD_REACTORS
330
19
102
}
100
AcDbDictionary
280
     0
281
     1
  3
Layout1
350
21
  3
Model
350
20
  0
DICTIONARY
  5
22
102
{ACAD_REACTORS
330
19
102
}
100
AcDbDictionary
280
     0
281
     1
  0
WIPEOUTVARIABLES
  5
23
100
AcDbWipeoutVariables
 70
     1
  0
ENDSEC
  0
EOF
