  0
SECTION
  2
HEADER
  9
$ACADVER
  1
AC1015
  9
$ACADMAINTVER
 70
     6
  9
$DWGCODEPAGE
  3
DOS850
  9
$INSBASE
 10
0.0
 20
0.0
 30
0.0
  9
$EXTMIN
 10
1.000000E+20
 20
1.000000E+20
 30
1.000000E+20
  9
$EXTMAX
 10
-1.000000E+20
 20
-1.000000E+20
 30
-1.000000E+20
  9
$LIMMIN
 10
0.0
 20
0.0
  9
$LIMMAX
 10
0.0
 20
0.0
  9
$ORTHOMODE
 70
     0
  9
$REGENMODE
 70
     1
  9
$FILLMODE
 70
     1
  9
$QTEXTMODE
 70
     0
  9
$MIRRTEXT
 70
     1
  9
$LTSCALE
 40
1.0
  9
$ATTMODE
 70
     1
  9
$TEXTSIZE
 40
0.2
  9
$TRACEWID
 40
0.05
  9
$TEXTSTYLE
  7
Standard
  9
$CLAYER
  8
0
  9
$CELTYPE
  6
Continuous
  9
$CECOLOR
 62
   256
  9
$CELTSCALE
 40
1.0
  9
$DISPSILH
 70
     0
  9
$DIMSCALE
 40
1.0
  9
$DIMASZ
 40
0.18
  9
$DIMEXO
 40
0.0625
  9
$DIMDLI
 40
0.38
  9
$DIMRND
 40
0.0
  9
$DIMDLE
 40
0.0
  9
$DIMEXE
 40
0.18
  9
$DIMTP
 40
0.0
  9
$DIMTM
 40
0.0
  9
$DIMTXT
 40
0.18
  9
$DIMCEN
 40
0.09
  9
$DIMTSZ
 40
0.0
  9
$DIMTOL
 70
     0
  9
$DIMLIM
 70
     0
  9
$DIMTIH
 70
     1
  9
$DIMTOH
 70
     1
  9
$DIMSE1
 70
     0
  9
$DIMSE2
 70
     0
  9
$DIMTAD
 70
     0
  9
$DIMZIN
 70
     0
  9
$DIMBLK
  1

  9
$DIMASO
 70
     1
  9
$DIMSHO
 70
     1
  9
$DIMPOST
  1

  9
$DIMAPOST
  1

  9
$DIMALT
 70
     0
  9
$DIMALTD
 70
     2
  9
$DIMALTF
 40
25.4
  9
$DIMLFAC
 40
1.0
  9
$DIMTOFL
 70
     0
  9
$DIMTVP
 40
0.0
  9
$DIMTIX
 70
     0
  9
$DIMSOXD
 70
     0
  9
$DIMSAH
 70
     0
  9
$DIMBLK1
  1

  9
$DIMBLK2
  1

  9
$DIMSTYLE
  2
Standard
  9
$DIMCLRD
 70
     0
  9
$DIMCLRE
 70
     0
  9
$DIMCLRT
 70
     0
  9
$DIMTFAC
 40
1.0
  9
$DIMGAP
 40
0.09
  9
$DIMJUST
 70
     0
  9
$DIMSD1
 70
     0
  9
$DIMSD2
 70
     0
  9
$DIMTOLJ
 70
     1
  9
$DIMTZIN
 70
     0
  9
$DIMALTZ
 70
     0
  9
$DIMALTTZ
 70
     0
  9
$DIMUPT
 70
     0
  9
$DIMDEC
 70
     4
  9
$DIMTDEC
 70
     4
  9
$DIMALTU
 70
     2
  9
$DIMALTTD
 70
     2
  9
$DIMTXSTY
  7
Standard
  9
$DIMAUNIT
 70
     0
  9
$DIMADEC
 70
     0
  9
$DIMALTRND
 40
0.0
  9
$DIMAZIN
 70
     0
  9
$DIMDSEP
 70
     0
  9
$DIMATFIT
 70
     3
  9
$DIMFRAC
 70
     0
  9
$DIMLDRBLK
  1

  9
$DIMLUNIT
 70
     2
  9
$DIMLWD
 70
     0
  9
$DIMLWE
 70
     0
  9
$DIMTMOVE
 70
     0
  9
$LUNITS
 70
     2
  9
$LUPREC
 70
     4
  9
$SKETCHINC
 40
0.1
  9
$FILLETRAD
 40
0.0
  9
$AUNITS
 70
     0
  9
$AUPREC
 70
     0
  9
$MENU
  1
acad
  9
$ELEVATION
 40
0.0
  9
$PELEVATION
 40
0.0
  9
$THICKNESS
 40
0.0
  9
$LIMCHECK
 70
     0
  9
$CHAMFERA
 40
0.0
  9
$CHAMFERB
 40
0.0
  9
$CHAMFERC
 40
0.0
  9
$CHAMFERD
 40
0.0
  9
$SKPOLY
 70
     0
  9
$TDCREATE
 40
0.000000000
  9
$TDUCREATE
 40
0.000000000
  9
$TDUPDATE
 40
0.000000000
  9
$TDUUPDATE
 40
0.000000000
  9
$TDINDWG
 40
0.0000000000
  9
$TDUSRTIMER
 40
0.0000000000
  9
$USRTIMER
 70
     1
  9
$ANGBASE
 50
0.0
  9
$ANGDIR
 70
     0
  9
$PDMODE
 70
     0
  9
$PDSIZE
 40
0.0
  9
$PLINEWID
 40
0.0
  9
$SPLFRAME
 70
     0
  9
$SPLINETYPE
 70
     6
  9
$SPLINESEGS
 70
     8
  9
$HANDSEED
  5
4E8
  9
$SURFTAB1
 70
     6
  9
$SURFTAB2
 70
     6
  9
$SURFTYPE
 70
     6
  9
$SURFU
 70
     6
  9
$SURFV
 70
     6
  9
$UCSBASE
  2

  9
$UCSNAME
  2

  9
$UCSORG
 10
0.0
 20
0.0
 30
0.0
  9
$UCSXDIR
 10
1.0
 20
0.0
 30
0.0
  9
$UCSYDIR
 10
0.0
 20
1.0
 30
0.0
  9
$UCSORTHOREF
  2

  9
$UCSORTHOVIEW
 70
     0
  9
$UCSORGTOP
 10
0.0
 20
0.0
 30
0.0
  9
$UCSORGBOTTOM
 10
0.0
 20
0.0
 30
0.0
  9
$UCSORGLEFT
 10
0.0
 20
0.0
 30
0.0
  9
$UCSORGRIGHT
 10
0.0
 20
0.0
 30
0.0
  9
$UCSORGFRONT
 10
0.0
 20
0.0
 30
0.0
  9
$UCSORGBACK
 10
0.0
 20
0.0
 30
0.0
  9
$PUCSBASE
  2

  9
$PUCSNAME
  2

  9
$PUCSORG
 10
0.0
 20
0.0
 30
0.0
  9
$PUCSXDIR
 10
1.0
 20
0.0
 30
0.0
  9
$PUCSYDIR
 10
0.0
 20
1.0
 30
0.0
  9
$PUCSORTHOREF
  2

  9
$PUCSORTHOVIEW
 70
     0
  9
$PUCSORGTOP
 10
0.0
 20
0.0
 30
0.0
  9
$PUCSORGBOTTOM
 10
0.0
 20
0.0
 30
0.0
  9
$PUCSORGLEFT
 10
0.0
 20
0.0
 30
0.0
  9
$PUCSORGRIGHT
 10
0.0
 20
0.0
 30
0.0
  9
$PUCSORGFRONT
 10
0.0
 20
0.0
 30
0.0
  9
$PUCSORGBACK
 10
0.0
 20
0.0
 30
0.0
  9
$USERI1
 70
     0
  9
$USERI2
 70
     0
  9
$USERI3
 70
     0
  9
$USERI4
 70
     0
  9
$USERI5
 70
     0
  9
$USERR1
 40
0.0
  9
$USERR2
 40
0.0
  9
$USERR3
 40
0.0
  9
$USERR4
 40
0.0
  9
$USERR5
 40
0.0
  9
$WORLDVIEW
 70
     1
  9
$SHADEDGE
 70
     3
  9
$SHADEDIF
 70
    70
  9
$TILEMODE
 70
     1
  9
$MAXACTVP
 70
    16
  9
$PINSBASE
 10
0.0
 20
0.0
 30
0.0
  9
$PLIMCHECK
 70
     0
  9
$PEXTMIN
 10
1.000000E+20
 20
1.000000E+20
 30
1.000000E+20
  9
$PEXTMAX
 10
-1.000000E+20
 20
-1.000000E+20
 30
-1.000000E+20
  9
$PLIMMIN
 10
0.0
 20
0.0
  9
$PLIMMAX
 10
12.0
 20
9.0
  9
$UNITMODE
 70
     0
  9
$VISRETAIN
 70
     0
  9
$PLINEGEN
 70
     1
  9
$PSLTSCALE
 70
     0
  9
$TREEDEPTH
 70
  3020
  9
$CMLSTYLE
  2
Standard
  9
$CMLJUST
 70
     0
  9
$CMLSCALE
 40
1.0
  9
$PROXYGRAPHICS
 70
     0
  9
$MEASUREMENT
 70
     0
  9
$CELWEIGHT
370
     0
  9
$ENDCAPS
280
     0
  9
$JOINSTYLE
280
     0
  9
$LWDISPLAY
290
     0
  9
$INSUNITS
 70
     0
  9
$HYPERLINKBASE
  1

  9
$XEDIT
290
     1
  9
$CEPSNTYPE
380
     0
  9
$PSTYLEMODE
290
     1
  9
$FINGERPRINTGUID
  2

  9
$VERSIONGUID
  2

  9
$EXTNAMES
290
     1
  9
$PSVPSCALE
 40
0.0
  0
ENDSEC
  0
SECTION
  2
CLASSES
  0
CLASS
  1
LWPOLYLINE
  2
AcDbPolyline
  3
AutoCAD 2000
 90
        0
280
     0
281
     1
  0
CLASS
  1
IMAGE
  2
AcDbRasterImage
  3
ISM
 90
    32895
280
     0
281
     1
  0
CLASS
  1
OLE2FRAME
  2
AcDbOle2Frame
  3
AutoCAD 2000
 90
    32768
280
     0
281
     1
  0
CLASS
  1
HATCH
  2
AcDbHatch
  3
AutoCAD 2000
 90
    32768
280
     0
281
     1
  0
CLASS
  1
DICTIONARYVAR
  2
AcDbDictionaryVar
  3
AutoCAD 2000
 90
    32768
280
     0
281
     0
  0
CLASS
  1
RASTERVARIABLES
  2
AcDbRasterVariables
  3
ISM
 90
    32768
280
     0
281
     0
  0
CLASS
  1
IMAGEDEF
  2
AcDbRasterImageDef
  3
ISM
 90
    32768
280
     0
281
     0
  0
CLASS
  1
IMAGEDEF_REACTOR
  2
AcDbRasterImageDefReactor
  3
ISM
 90
    32769
280
     0
281
     0
  0
CLASS
  1
IDBUFFER
  2
AcDbIdBuffer
  3
AutoCAD 2000
 90
    32768
280
     0
281
     0
  0
CLASS
  1
SPATIAL_FILTER
  2
AcDbSpatialFilter
  3
AutoCAD 2000
 90
    32768
280
     0
281
     0
  0
CLASS
  1
XRECORD
  2
AcDbXrecord
  3
AutoCAD 2000
 90
    32768
280
     0
281
     0
  0
CLASS
  1
SORTENTSTABLE
  2
AcDbSortentsTable
  3
AutoCAD 2000
 90
    32768
280
     0
281
     0
  0
CLASS
  1
LAYER_INDEX
  2
AcDbLayerIndex
  3
AutoCAD 2000
 90
    32768
280
     0
281
     0
  0
CLASS
  1
SPATIAL_INDEX
  2
AcDbSpatialIndex
  3
AutoCAD 2000
 90
    32768
280
     0
281
     0
  0
CLASS
  1
OBJECT_PTR
  2
CAseDLPNTableRecord
  3
"ASE-LPNTableRecord"
 90
    32769
280
     0
281
     0
  0
CLASS
  1
LAYOUT
  2
AcDbLayout
  3
AutoCAD 2000
 90
        0
280
     0
281
     0
  0
CLASS
  1
PLOTSETTINGS
  2
AcDbPlotSettings
  3
AutoCAD 2000
 90
    32768
280
     0
281
     0
  0
CLASS
  1
ACDBDICTIONARYWDFLT
  2
AcDbDictionaryWithDefault
  3
AutoCAD 2000
 90
        0
280
     0
281
     0
  0
CLASS
  1
ACDBPLACEHOLDER
  2
AcDbPlaceHolder
  3
AutoCAD 2000
 90
        0
280
     0
281
     0
  0
CLASS
  1
VBA_PROJECT
  2
AcDbVbaProject
  3
acadvba
 90
    32768
280
     0
281
     0
  0
CLASS
  1
WIPEOUT
  2
AcDbWipeout
  3
WipeOut|AutoCAD Express Tool|expresstools@autodesk.com
 90
    32895
280
     0
281
     1
  0
CLASS
  1
WIPEOUTVARIABLES
  2
AcDbWipeoutVariables
  3
WipeOut|AutoCAD Express Tool|expresstools@autodesk.com
 90
        0
280
     0
281
     0
  0
CLASS
  1
RTEXT
  2
RText
  3
RText|AutoCAD Express Tool|expresstools@autodesk.com
 90
    32768
280
     0
281
     1
  0
CLASS
  1
ARCALIGNEDTEXT
  2
AcDbArcAlignedText
  3
ATEXT|AutoCAD Express Tool|expresstools@autodesk.com
 90
    32768
280
     0
281
     1
  0
ENDSEC
  0
SECTION
  2
TABLES
  0
TABLE
  2
VPORT
  5
7
100
AcDbSymbolTable
 70
     1
  0
VPORT
  5
15
100
AcDbSymbolTableRecord
100
AcDbViewportTableRecord
  2
*ACTIVE
 70
     0
 10
0.0
 20
0.0
 11
1.0
 21
1.0
 12
6.591288
 22
4.579184
 13
0.0
 23
0.0
 14
1.0
 24
1.0
 15
0.0
 25
0.0
 16
0.0
 26
0.0
 36
1.0
 17
0.0
 27
0.0
 37
0.0
 40
9.158369
 41
0.688564
 42
50.0
 43
0.0
 44
0.0
 50
0.0
 51
0.0
 71
     0
 72
   100
 73
     1
 74
     1
 75
     0
 76
     0
 77
     0
 78
     0
281
     0
 65
     0
110
0.0
120
0.0
130
0.0
111
1.0
121
0.0
131
0.0
112
0.0
122
1.0
132
0.0
345
0
346
0
 79
     0
146
0.0
  0
ENDTAB
  0
TABLE
  2
LTYPE
  5
4
100
AcDbSymbolTable
 70
     3
  0
LTYPE
  5
11
100
AcDbSymbolTableRecord
100
AcDbLinetypeTableRecord
  2
ByBlock
 70
    64
  3

 72
    65
 73
     0
 40
0.0
  0
LTYPE
  5
12
100
AcDbSymbolTableRecord
100
AcDbLinetypeTableRecord
  2
ByLayer
 70
    64
  3

 72
    65
 73
     0
 40
0.0
  0
LTYPE
  5
13
100
AcDbSymbolTableRecord
100
AcDbLinetypeTableRecord
  2
Continuous
 70
    64
  3
Solid line
 72
    65
 73
     0
 40
0.0
  0
ENDTAB
  0
TABLE
  2
LAYER
  5
2
100
AcDbSymbolTable
 70
     1
  0
LAYER
  5
14
100
AcDbSymbolTableRecord
100
AcDbLayerTableRecord
  2
0
 70
     0
 62
     7
  6
Continuous
290
     1
370
    -3
390
1D
  0
ENDTAB
  0
TABLE
  2
STYLE
  5
3
100
AcDbSymbolTable
 70
     1
  0
STYLE
  5
17
100
AcDbSymbolTableRecord
100
AcDbTextStyleTableRecord
  2
Standard
 70
     0
 40
0.0
 41
1.0
 50
0.0
 71
     0
 42
0.0
  3
txt
  4

  0
ENDTAB
  0
TABLE
  2
VIEW
  5
5
100
AcDbSymbolTable
 70
     0
  0
ENDTAB
  0
TABLE
  2
UCS
  5
6
100
AcDbSymbolTable
 70
     0
  0
ENDTAB
  0
TABLE
  2
APPID
  5
8
100
AcDbSymbolTable
 70
     1
  0
APPID
  5
16
100
AcDbSymbolTableRecord
100
AcDbRegAppTableRecord
  2
ACAD
 70
     0
  0
ENDTAB
  0
TABLE
  2
DIMSTYLE
  5
9
100
AcDbSymbolTable
 70
     1
100
AcDbDimStyleTable
 71
     0
  0
DIMSTYLE
105
18
100
AcDbSymbolTableRecord
100
AcDbDimStyleTableRecord
  2
Standard
 70
     0
  3

  4

 40
1.0
 41
0.18
 42
0.0625
 43
0.38
 44
0.18
 45
0.0
 46
0.0
 47
0.0
 48
0.0
 71
     0
 72
     0
 73
     1
 74
     1
 75
     0
 76
     0
 77
     0
 78
     0
 79
     0
140
0.18
141
0.09
142
0.0
143
25.4
144
1.0
145
0.0
146
1.0
147
0.09
148
0.0
170
     0
171
     2
172
     0
173
     0
174
     0
175
     0
176
     0
177
     0
178
     0
179
     0
271
     4
272
     4
273
     2
274
     2
275
     0
276
     0
277
     2
278
    46
279
     0
280
     0
281
     0
282
     0
283
     1
284
     0
285
     0
286
     0
288
     0
340
17
341
0
342
0
343
0
344
0
371
    -2
372
    -2
  0
ENDTAB
  0
TABLE
  2
BLOCK_RECORD
  5
1
100
AcDbSymbolTable
 70
     0
  0
BLOCK_RECORD
  5
A
100
AcDbSymbolTableRecord
100
AcDbBlockTableRecord
  2
*MODEL_SPACE
340
20
  0
BLOCK_RECORD
  5
B
100
AcDbSymbolTableRecord
100
AcDbBlockTableRecord
  2
*PAPER_SPACE
340
21
  0
ENDTAB
  0
ENDSEC
  0
SECTION
  2
BLOCKS
  0
BLOCK
  5
D
100
AcDbEntity
  8
0
100
AcDbBlockBegin
  2
*MODEL_SPACE
 70
     0
 10
0.0
 20
0.0
 30
0.0
  3
*MODEL_SPACE
  1

  0
ENDBLK
  5
E
100
AcDbEntity
  8
0
100
AcDbBlockEnd
  0
BLOCK
  5
F
100
AcDbEntity
 67
     1
  8
0
100
AcDbBlockBegin
  2
*PAPER_SPACE
 70
     0
 10
0.0
 20
0.0
 30
0.0
  3
*PAPER_SPACE
  1

  0
ENDBLK
  5
10
100
AcDbEntity
 67
     1
  8
0
100
AcDbBlockEnd
  0
ENDSEC
  0
SECTION
  2
ENTITIES
  0
LWPOLYLINE
  5
24
100
AcDbEntity
  8
0
 62
     0
100
AcDbPolyline
 90
        2
 70
     0
 39
0.003
 10
-2.385807
 20
1.402697
 40
0.003
 41
0.003
 10
-2.767122
 20
1.782681
 40
0.003
 41
0.003
  0
LWPOLYLINE
  5
25
100
AcDbEntity
  8
0
 62
     0
100
AcDbPolyline
 90
        2
 70
     0
 39
0.003
 10
-2.767122
 20
1.782681
 40
0.003
 41
0.003
 10
-2.179618
 20
2.096421
 40
0.003
 41
0.003
  0
SPLINE
  5
26
100
AcDbEntity
  8
0
 62
     0
100
AcDbSpline
210
0.0
220
0.0
230
1.0
 70
     0
 71
     3
 72
     0
 73
     0
 74
    32
 44
0.0000000001
 11
-2.1796181102362207
 21
2.0964212598425198
 31
0.0
 11
-1.9786771653543307
 21
1.9789212598425197
 31
0.0
 11
-1.7892322834645669
 21
1.8843110236220473
 31
0.0
 11
-1.6101653543307086
 21
1.8108543307086613
 31
0.0
 11
-1.4403779527559055
 21
1.7568188976377952
 31
0.0
 11
-1.2787440944881889
 21
1.7204685039370078
 31
0.0
 11
-1.1241614173228347
 21
1.7000787401574804
 31
0.0
 11
-0.9755157480314961
 21
1.6939094488188977
 31
0.0
 11
-0.8317007874015748
 21
1.700240157480315
 31
0.0
 11
-0.6915984251968504
 21
1.7173228346456693
 31
0.0
 11
-0.5541023622047244
 21
1.7434370078740158
 31
0.0
 11
-0.4180984251968504
 21
1.7768425196850395
 31
0.0
 11
-0.282488188976378
 21
1.8158149606299212
 31
0.0
 11
-0.1461456692913386
 21
1.8586141732283465
 31
0.0
 11
-0.0079724409448819
 21
1.9035157480314961
 31
0.0
 11
0.1331535433070866
 21
1.9487834645669291
 31
0.0
 11
0.2783425196850394
 21
1.9926929133858269
 31
0.0
 11
0.4215511811023622
 21
2.0290944881889765
 31
0.0
 11
0.555984251968504
 21
2.0538897637795275
 31
0.0
 11
0.6815708661417322
 21
2.0683425196850393
 31
0.0
 11
0.798251968503937
 21
2.0737440944881889
 31
0.0
 11
0.9059527559055118
 21
2.0713582677165356
 31
0.0
 11
1.0046259842519685
 21
2.062476377952756
 31
0.0
 11
1.0941968503937007
 21
2.0483740157480317
 31
0.0
 11
1.1746102362204724
 21
2.0303267716535434
 31
0.0
 11
1.2457913385826771
 21
2.0096102362204724
 31
0.0
 11
1.3076929133858268
 21
1.9875078740157481
 31
0.0
 11
1.3602401574803149
 21
1.9652992125984252
 31
0.0
 11
1.4033818897637795
 21
1.9442677165354332
 31
0.0
 11
1.4370393700787401
 21
1.9256732283464566
 31
0.0
 11
1.4611614173228347
 21
1.9108149606299212
 31
0.0
 11
1.4756811023622047
 21
1.900964566929134
 31
0.0
  0
LWPOLYLINE
  5
27
100
AcDbEntity
  8
0
 62
     0
100
AcDbPolyline
 90
        2
 70
     0
 39
0.003
 10
1.475681
 20
1.900965
 40
0.003
 41
0.003
 10
1.480539
 20
1.897398
 40
0.003
 41
0.003
  0
LWPOLYLINE
  5
28
100
AcDbEntity
  8
0
 62
     0
100
AcDbPolyline
 90
        2
 70
     0
 39
0.003
 10
1.480539
 20
1.897398
 40
0.003
 41
0.003
 10
1.688268
 20
2.039031
 40
0.003
 41
0.003
  0
SPLINE
  5
29
100
AcDbEntity
  8
0
 62
     0
100
AcDbSpline
210
0.0
220
0.0
230
1.0
 70
     0
 71
     3
 72
     0
 73
     0
 74
    16
 44
0.0000000001
 11
1.6882677165354332
 21
2.0390314960629921
 31
0.0
 11
1.6942047244094489
 21
2.0191771653543307
 31
0.0
 11
1.7089133858267715
 21
1.9945590551181103
 31
0.0
 11
1.7318031496062991
 21
1.9665590551181102
 31
0.0
 11
1.7622992125984251
 21
1.9365748031496064
 31
0.0
 11
1.7998070866141733
 21
1.905984251968504
 31
0.0
 11
1.843751968503937
 21
1.8761850393700787
 31
0.0
 11
1.8935433070866141
 21
1.8485669291338582
 31
0.0
 11
1.9486102362204725
 21
1.824515748031496
 31
0.0
 11
2.0083464566929132
 21
1.8054133858267716
 31
0.0
 11
2.0721889763779529
 21
1.7926574803149606
 31
0.0
 11
2.1395393700787402
 21
1.7876377952755906
 31
0.0
 11
2.2098267716535434
 21
1.7917440944881891
 31
0.0
 11
2.2824527559055117
 21
1.8063543307086614
 31
0.0
 11
2.3568464566929133
 21
1.8328740157480314
 31
0.0
 11
2.4324212598425197
 21
1.8726771653543308
 31
0.0
  0
LWPOLYLINE
  5
2A
100
AcDbEntity
  8
0
 62
     0
100
AcDbPolyline
 90
        2
 70
     0
 39
0.003
 10
2.432421
 20
1.872677
 40
0.003
 41
0.003
 10
2.508591
 20
1.927169
 40
0.003
 41
0.003
  0
LWPOLYLINE
  5
2B
100
AcDbEntity
  8
0
 62
     0
100
AcDbPolyline
 90
        2
 70
     0
 39
0.003
 10
2.508591
 20
1.927169
 40
0.003
 41
0.003
 10
2.739094
 20
1.63226
 40
0.003
 41
0.003
  0
LWPOLYLINE
  5
2C
100
AcDbEntity
  8
0
 62
     0
100
AcDbPolyline
 90
        2
 70
     0
 39
0.003
 10
2.739094
 20
1.63226
 40
0.003
 41
0.003
 10
2.508591
 20
1.402697
 40
0.003
 41
0.003
  0
LWPOLYLINE
  5
2D
100
AcDbEntity
  8
0
 62
     0
100
AcDbPolyline
 90
        2
 70
     0
 39
0.003
 10
2.508591
 20
1.402697
 40
0.003
 41
0.003
 10
-2.385807
 20
1.402697
 40
0.003
 41
0.003
  0
MTEXT
  5
2E
100
AcDbEntity
  8
0
 62
     0
100
AcDbMText
 10
-1.302587
 20
1.450587
 30
0.0
 40
0.166665
 41
0.0
 71
     1
 72
     1
  1
{\fBookman Old Style|b0|i0|c0|p32;BA  1461}
 73
     1
 44
1.0
  0
MTEXT
  5
2F
100
AcDbEntity
  8
0
 62
     0
100
AcDbMText
 10
-1.302587
 20
1.263087
 30
0.0
 40
0.166665
 41
0.0
 71
     1
 72
     1
  1
{\fBookman Old Style|b0|i0|c0|p32;11/16" x 5-1/2"}
 73
     1
 44
1.0
  0
LWPOLYLINE
  5
30
100
AcDbEntity
  8
0
 62
   254
100
AcDbPolyline
 90
        2
 70
     0
 39
0.003
 10
2.324555
 20
0.977189
 40
0.003
 41
0.003
 10
2.998012
 20
0.582976
 40
0.003
 41
0.003
  0
LWPOLYLINE
  5
31
100
AcDbEntity
  8
0
 62
   254
100
AcDbPolyline
 90
        2
 70
     0
 39
0.003
 10
2.998012
 20
0.582976
 40
0.003
 41
0.003
 10
2.7985
 20
-0.052465
 40
0.003
 41
0.003
  0
LWPOLYLINE
  5
32
100
AcDbEntity
  8
0
 62
   254
100
AcDbPolyline
 90
        2
 70
     0
 39
0.003
 10
2.7985
 20
-0.052465
 40
0.003
 41
0.003
 10
2.125043
 20
0.341748
 40
0.003
 41
0.003
  0
LWPOLYLINE
  5
33
100
AcDbEntity
  8
0
 62
   254
100
AcDbPolyline
 90
        2
 70
     0
 39
0.003
 10
2.125043
 20
0.341748
 40
0.003
 41
0.003
 10
2.324555
 20
0.977189
 40
0.003
 41
0.003
  0
LWPOLYLINE
  5
34
100
AcDbEntity
  8
0
 62
     0
100
AcDbPolyline
 90
        2
 70
     0
 39
0.003
 10
2.324555
 20
0.977189
 40
0.003
 41
0.003
 10
2.998012
 20
0.582976
 40
0.003
 41
0.003
  0
LWPOLYLINE
  5
35
100
AcDbEntity
  8
0
 62
     0
100
AcDbPolyline
 90
        2
 70
     0
 39
0.003
 10
2.998012
 20
0.582976
 40
0.003
 41
0.003
 10
2.7985
 20
-0.052465
 40
0.003
 41
0.003
  0
LWPOLYLINE
  5
36
100
AcDbEntity
  8
0
 62
     0
100
AcDbPolyline
 90
        2
 70
     0
 39
0.003
 10
2.7985
 20
-0.052465
 40
0.003
 41
0.003
 10
2.125043
 20
0.341748
 40
0.003
 41
0.003
  0
LWPOLYLINE
  5
37
100
AcDbEntity
  8
0
 62
     0
100
AcDbPolyline
 90
        2
 70
     0
 39
0.003
 10
2.125043
 20
0.341748
 40
0.003
 41
0.003
 10
2.324555
 20
0.977189
 40
0.003
 41
0.003
  0
LWPOLYLINE
  5
38
100
AcDbEntity
  8
0
 62
   254
100
AcDbPolyline
 90
        2
 70
     0
 39
0.003
 10
2.125043
 20
0.341748
 40
0.003
 41
0.003
 10
2.7985
 20
-0.052465
 40
0.003
 41
0.003
  0
LWPOLYLINE
  5
39
100
AcDbEntity
  8
0
 62
   254
100
AcDbPolyline
 90
        2
 70
     0
 39
0.003
 10
2.7985
 20
-0.052465
 40
0.003
 41
0.003
 10
2.682484
 20
-0.079858
 40
0.003
 41
0.003
  0
LWPOLYLINE
  5
3A
100
AcDbEntity
  8
0
 62
   254
100
AcDbPolyline
 90
        2
 70
     0
 39
0.003
 10
2.682484
 20
-0.079858
 40
0.003
 41
0.003
 10
2.009028
 20
0.314354
 40
0.003
 41
0.003
  0
LWPOLYLINE
  5
3B
100
AcDbEntity
  8
0
 62
   254
100
AcDbPolyline
 90
        2
 70
     0
 39
0.003
 10
2.009028
 20
0.314354
 40
0.003
 41
0.003
 10
2.125043
 20
0.341748
 40
0.003
 41
0.003
  0
LWPOLYLINE
  5
3C
100
AcDbEntity
  8
0
 62
   254
100
AcDbPolyline
 90
        2
 70
     0
 39
0.003
 10
2.009028
 20
0.314354
 40
0.003
 41
0.003
 10
2.682484
 20
-0.079858
 40
0.003
 41
0.003
  0
LWPOLYLINE
  5
3D
100
AcDbEntity
  8
0
 62
   254
100
AcDbPolyline
 90
        2
 70
     0
 39
0.003
 10
2.682484
 20
-0.079858
 40
0.003
 41
0.003
 10
2.572787
 20
-0.10937
 40
0.003
 41
0.003
  0
LWPOLYLINE
  5
3E
100
AcDbEntity
  8
0
 62
   254
100
AcDbPolyline
 90
        2
 70
     0
 39
0.003
 10
2.572787
 20
-0.10937
 40
0.003
 41
0.003
 10
1.899331
 20
0.284843
 40
0.003
 41
0.003
  0
LWPOLYLINE
  5
3F
100
AcDbEntity
  8
0
 62
   254
100
AcDbPolyline
 90
        2
 70
     0
 39
0.003
 10
1.899331
 20
0.284843
 40
0.003
 41
0.003
 10
2.009028
 20
0.314354
 40
0.003
 41
0.003
  0
LWPOLYLINE
  5
40
100
AcDbEntity
  8
0
 62
   254
100
AcDbPolyline
 90
        2
 70
     0
 39
0.003
 10
1.899331
 20
0.284843
 40
0.003
 41
0.003
 10
2.572787
 20
-0.10937
 40
0.003
 41
0.003
  0
LWPOLYLINE
  5
41
100
AcDbEntity
  8
0
 62
   254
100
AcDbPolyline
 90
        2
 70
     0
 39
0.003
 10
2.572787
 20
-0.10937
 40
0.003
 41
0.003
 10
2.469146
 20
-0.140957
 40
0.003
 41
0.003
  0
LWPOLYLINE
  5
42
100
AcDbEntity
  8
0
 62
   254
100
AcDbPolyline
 90
        2
 70
     0
 39
0.003
 10
2.469146
 20
-0.140957
 40
0.003
 41
0.003
 10
1.795689
 20
0.253256
 40
0.003
 41
0.003
  0
LWPOLYLINE
  5
43
100
AcDbEntity
  8
0
 62
   254
100
AcDbPolyline
 90
        2
 70
     0
 39
0.003
 10
1.795689
 20
0.253256
 40
0.003
 41
0.003
 10
1.899331
 20
0.284843
 40
0.003
 41
0.003
  0
LWPOLYLINE
  5
44
100
AcDbEntity
  8
0
 62
   254
100
AcDbPolyline
 90
        2
 70
     0
 39
0.003
 10
1.795689
 20
0.253256
 40
0.003
 41
0.003
 10
2.469146
 20
-0.140957
 40
0.003
 41
0.003
  0
LWPOLYLINE
  5
45
100
AcDbEntity
  8
0
 62
   254
100
AcDbPolyline
 90
        2
 70
     0
 39
0.003
 10
2.469146
 20
-0.140957
 40
0.003
 41
0.003
 10
2.371315
 20
-0.174551
 40
0.003
 41
0.003
  0
LWPOLYLINE
  5
46
100
AcDbEntity
  8
0
 62
   254
100
AcDbPolyline
 90
        2
 70
     0
 39
0.003
 10
2.371315
 20
-0.174551
 40
0.003
 41
0.003
 10
1.697858
 20
0.219661
 40
0.003
 41
0.003
  0
LWPOLYLINE
  5
47
100
AcDbEntity
  8
0
 62
   254
100
AcDbPolyline
 90
        2
 70
     0
 39
0.003
 10
1.697858
 20
0.219661
 40
0.003
 41
0.003
 10
1.795689
 20
0.253256
 40
0.003
 41
0.003
  0
LWPOLYLINE
  5
48
100
AcDbEntity
  8
0
 62
   254
100
AcDbPolyline
 90
        2
 70
     0
 39
0.003
 10
1.697858
 20
0.219661
 40
0.003
 41
0.003
 10
2.371315
 20
-0.174551
 40
0.003
 41
0.003
  0
LWPOLYLINE
  5
49
100
AcDbEntity
  8
0
 62
   254
100
AcDbPolyline
 90
        2
 70
     0
 39
0.003
 10
2.371315
 20
-0.174551
 40
0.003
 41
0.003
 10
2.279035
 20
-0.21011
 40
0.003
 41
0.003
  0
LWPOLYLINE
  5
4A
100
AcDbEntity
  8
0
 62
   254
100
AcDbPolyline
 90
        2
 70
     0
 39
0.003
 10
2.279035
 20
-0.21011
 40
0.003
 41
0.003
 10
1.605579
 20
0.184102
 40
0.003
 41
0.003
  0
LWPOLYLINE
  5
4B
100
AcDbEntity
  8
0
 62
   254
100
AcDbPolyline
 90
        2
 70
     0
 39
0.003
 10
1.605579
 20
0.184102
 40
0.003
 41
0.003
 10
1.697858
 20
0.219661
 40
0.003
 41
0.003
  0
LWPOLYLINE
  5
4C
100
AcDbEntity
  8
0
 62
   254
100
AcDbPolyline
 90
        2
 70
     0
 39
0.003
 10
1.605579
 20
0.184102
 40
0.003
 41
0.003
 10
2.279035
 20
-0.21011
 40
0.003
 41
0.003
  0
LWPOLYLINE
  5
4D
100
AcDbEntity
  8
0
 62
   254
100
AcDbPolyline
 90
        2
 70
     0
 39
0.003
 10
2.279035
 20
-0.21011
 40
0.003
 41
0.003
 10
2.192067
 20
-0.247563
 40
0.003
 41
0.003
  0
LWPOLYLINE
  5
4E
100
AcDbEntity
  8
0
 62
   254
100
AcDbPolyline
 90
        2
 70
     0
 39
0.003
 10
2.192067
 20
-0.247563
 40
0.003
 41
0.003
 10
1.51861
 20
0.14665
 40
0.003
 41
0.003
  0
LWPOLYLINE
  5
4F
100
AcDbEntity
  8
0
 62
   254
100
AcDbPolyline
 90
        2
 70
     0
 39
0.003
 10
1.51861
 20
0.14665
 40
0.003
 41
0.003
 10
1.605579
 20
0.184102
 40
0.003
 41
0.003
  0
LWPOLYLINE
  5
50
100
AcDbEntity
  8
0
 62
   254
100
AcDbPolyline
 90
        2
 70
     0
 39
0.003
 10
1.51861
 20
0.14665
 40
0.003
 41
0.003
 10
2.192067
 20
-0.247563
 40
0.003
 41
0.003
  0
LWPOLYLINE
  5
51
100
AcDbEntity
  8
0
 62
   254
100
AcDbPolyline
 90
        2
 70
     0
 39
0.003
 10
2.192067
 20
-0.247563
 40
0.003
 41
0.003
 10
2.11015
 20
-0.286858
 40
0.003
 41
0.003
  0
LWPOLYLINE
  5
52
100
AcDbEntity
  8
0
 62
   254
100
AcDbPolyline
 90
        2
 70
     0
 39
0.003
 10
2.11015
 20
-0.286858
 40
0.003
 41
0.003
 10
1.436693
 20
0.107354
 40
0.003
 41
0.003
  0
LWPOLYLINE
  5
53
100
AcDbEntity
  8
0
 62
   254
100
AcDbPolyline
 90
        2
 70
     0
 39
0.003
 10
1.436693
 20
0.107354
 40
0.003
 41
0.003
 10
1.51861
 20
0.14665
 40
0.003
 41
0.003
  0
LWPOLYLINE
  5
54
100
AcDbEntity
  8
0
 62
   254
100
AcDbPolyline
 90
        2
 70
     0
 39
0.003
 10
1.436693
 20
0.107354
 40
0.003
 41
0.003
 10
2.11015
 20
-0.286858
 40
0.003
 41
0.003
  0
LWPOLYLINE
  5
55
100
AcDbEntity
  8
0
 62
   254
100
AcDbPolyline
 90
        2
 70
     0
 39
0.003
 10
2.11015
 20
-0.286858
 40
0.003
 41
0.003
 10
2.033043
 20
-0.327929
 40
0.003
 41
0.003
  0
LWPOLYLINE
  5
56
100
AcDbEntity
  8
0
 62
   254
100
AcDbPolyline
 90
        2
 70
     0
 39
0.003
 10
2.033043
 20
-0.327929
 40
0.003
 41
0.003
 10
1.359587
 20
0.066283
 40
0.003
 41
0.003
  0
LWPOLYLINE
  5
57
100
AcDbEntity
  8
0
 62
   254
100
AcDbPolyline
 90
        2
 70
     0
 39
0.003
 10
1.359587
 20
0.066283
 40
0.003
 41
0.003
 10
1.436693
 20
0.107354
 40
0.003
 41
0.003
  0
LWPOLYLINE
  5
58
100
AcDbEntity
  8
0
 62
   254
100
AcDbPolyline
 90
        2
 70
     0
 39
0.003
 10
1.359587
 20
0.066283
 40
0.003
 41
0.003
 10
2.033043
 20
-0.327929
 40
0.003
 41
0.003
  0
LWPOLYLINE
  5
59
100
AcDbEntity
  8
0
 62
   254
100
AcDbPolyline
 90
        2
 70
     0
 39
0.003
 10
2.033043
 20
-0.327929
 40
0.003
 41
0.003
 10
1.96048
 20
-0.370736
 40
0.003
 41
0.003
  0
LWPOLYLINE
  5
5A
100
AcDbEntity
  8
0
 62
   254
100
AcDbPolyline
 90
        2
 70
     0
 39
0.003
 10
1.96048
 20
-0.370736
 40
0.003
 41
0.003
 10
1.287024
 20
0.023476
 40
0.003
 41
0.003
  0
LWPOLYLINE
  5
5B
100
AcDbEntity
  8
0
 62
   254
100
AcDbPolyline
 90
        2
 70
     0
 39
0.003
 10
1.287024
 20
0.023476
 40
0.003
 41
0.003
 10
1.359587
 20
0.066283
 40
0.003
 41
0.003
  0
LWPOLYLINE
  5
5C
100
AcDbEntity
  8
0
 62
   254
100
AcDbPolyline
 90
        2
 70
     0
 39
0.003
 10
1.287024
 20
0.023476
 40
0.003
 41
0.003
 10
1.96048
 20
-0.370736
 40
0.003
 41
0.003
  0
LWPOLYLINE
  5
5D
100
AcDbEntity
  8
0
 62
   254
100
AcDbPolyline
 90
        2
 70
     0
 39
0.003
 10
1.96048
 20
-0.370736
 40
0.003
 41
0.003
 10
1.892228
 20
-0.415209
 40
0.003
 41
0.003
  0
LWPOLYLINE
  5
5E
100
AcDbEntity
  8
0
 62
   254
100
AcDbPolyline
 90
        2
 70
     0
 39
0.003
 10
1.892228
 20
-0.415209
 40
0.003
 41
0.003
 10
1.218772
 20
-0.020996
 40
0.003
 41
0.003
  0
LWPOLYLINE
  5
5F
100
AcDbEntity
  8
0
 62
   254
100
AcDbPolyline
 90
        2
 70
     0
 39
0.003
 10
1.218772
 20
-0.020996
 40
0.003
 41
0.003
 10
1.287024
 20
0.023476
 40
0.003
 41
0.003
  0
LWPOLYLINE
  5
60
100
AcDbEntity
  8
0
 62
   254
100
AcDbPolyline
 90
        2
 70
     0
 39
0.003
 10
1.218772
 20
-0.020996
 40
0.003
 41
0.003
 10
1.892228
 20
-0.415209
 40
0.003
 41
0.003
  0
LWPOLYLINE
  5
61
100
AcDbEntity
  8
0
 62
   254
100
AcDbPolyline
 90
        2
 70
     0
 39
0.003
 10
1.892228
 20
-0.415209
 40
0.003
 41
0.003
 10
1.828024
 20
-0.461291
 40
0.003
 41
0.003
  0
LWPOLYLINE
  5
62
100
AcDbEntity
  8
0
 62
   254
100
AcDbPolyline
 90
        2
 70
     0
 39
0.003
 10
1.828024
 20
-0.461291
 40
0.003
 41
0.003
 10
1.154567
 20
-0.067079
 40
0.003
 41
0.003
  0
LWPOLYLINE
  5
63
100
AcDbEntity
  8
0
 62
   254
100
AcDbPolyline
 90
        2
 70
     0
 39
0.003
 10
1.154567
 20
-0.067079
 40
0.003
 41
0.003
 10
1.218772
 20
-0.020996
 40
0.003
 41
0.003
  0
LWPOLYLINE
  5
64
100
AcDbEntity
  8
0
 62
   254
100
AcDbPolyline
 90
        2
 70
     0
 39
0.003
 10
1.154567
 20
-0.067079
 40
0.003
 41
0.003
 10
1.828024
 20
-0.461291
 40
0.003
 41
0.003
  0
LWPOLYLINE
  5
65
100
AcDbEntity
  8
0
 62
   254
100
AcDbPolyline
 90
        2
 70
     0
 39
0.003
 10
1.828024
 20
-0.461291
 40
0.003
 41
0.003
 10
1.767626
 20
-0.508937
 40
0.003
 41
0.003
  0
LWPOLYLINE
  5
66
100
AcDbEntity
  8
0
 62
   254
100
AcDbPolyline
 90
        2
 70
     0
 39
0.003
 10
1.767626
 20
-0.508937
 40
0.003
 41
0.003
 10
1.094169
 20
-0.114724
 40
0.003
 41
0.003
  0
LWPOLYLINE
  5
67
100
AcDbEntity
  8
0
 62
   254
100
AcDbPolyline
 90
        2
 70
     0
 39
0.003
 10
1.094169
 20
-0.114724
 40
0.003
 41
0.003
 10
1.154567
 20
-0.067079
 40
0.003
 41
0.003
  0
LWPOLYLINE
  5
68
100
AcDbEntity
  8
0
 62
   254
100
AcDbPolyline
 90
        2
 70
     0
 39
0.003
 10
1.094169
 20
-0.114724
 40
0.003
 41
0.003
 10
1.767626
 20
-0.508937
 40
0.003
 41
0.003
  0
LWPOLYLINE
  5
69
100
AcDbEntity
  8
0
 62
   254
100
AcDbPolyline
 90
        2
 70
     0
 39
0.003
 10
1.767626
 20
-0.508937
 40
0.003
 41
0.003
 10
1.710772
 20
-0.558075
 40
0.003
 41
0.003
  0
LWPOLYLINE
  5
6A
100
AcDbEntity
  8
0
 62
   254
100
AcDbPolyline
 90
        2
 70
     0
 39
0.003
 10
1.710772
 20
-0.558075
 40
0.003
 41
0.003
 10
1.037315
 20
-0.163862
 40
0.003
 41
0.003
  0
LWPOLYLINE
  5
6B
100
AcDbEntity
  8
0
 62
   254
100
AcDbPolyline
 90
        2
 70
     0
 39
0.003
 10
1.037315
 20
-0.163862
 40
0.003
 41
0.003
 10
1.094169
 20
-0.114724
 40
0.003
 41
0.003
  0
LWPOLYLINE
  5
6C
100
AcDbEntity
  8
0
 62
   254
100
AcDbPolyline
 90
        2
 70
     0
 39
0.003
 10
1.037315
 20
-0.163862
 40
0.003
 41
0.003
 10
1.710772
 20
-0.558075
 40
0.003
 41
0.003
  0
LWPOLYLINE
  5
6D
100
AcDbEntity
  8
0
 62
   254
100
AcDbPolyline
 90
        2
 70
     0
 39
0.003
 10
1.710772
 20
-0.558075
 40
0.003
 41
0.003
 10
1.657224
 20
-0.608657
 40
0.003
 41
0.003
  0
LWPOLYLINE
  5
6E
100
AcDbEntity
  8
0
 62
   254
100
AcDbPolyline
 90
        2
 70
     0
 39
0.003
 10
1.657224
 20
-0.608657
 40
0.003
 41
0.003
 10
0.983768
 20
-0.214445
 40
0.003
 41
0.003
  0
LWPOLYLINE
  5
6F
100
AcDbEntity
  8
0
 62
   254
100
AcDbPolyline
 90
        2
 70
     0
 39
0.003
 10
0.983768
 20
-0.214445
 40
0.003
 41
0.003
 10
1.037315
 20
-0.163862
 40
0.003
 41
0.003
  0
LWPOLYLINE
  5
70
100
AcDbEntity
  8
0
 62
   254
100
AcDbPolyline
 90
        2
 70
     0
 39
0.003
 10
0.983768
 20
-0.214445
 40
0.003
 41
0.003
 10
1.657224
 20
-0.608657
 40
0.003
 41
0.003
  0
LWPOLYLINE
  5
71
100
AcDbEntity
  8
0
 62
   254
100
AcDbPolyline
 90
        2
 70
     0
 39
0.003
 10
1.657224
 20
-0.608657
 40
0.003
 41
0.003
 10
1.60672
 20
-0.660622
 40
0.003
 41
0.003
  0
LWPOLYLINE
  5
72
100
AcDbEntity
  8
0
 62
   254
100
AcDbPolyline
 90
        2
 70
     0
 39
0.003
 10
1.60672
 20
-0.660622
 40
0.003
 41
0.003
 10
0.933264
 20
-0.266409
 40
0.003
 41
0.003
  0
LWPOLYLINE
  5
73
100
AcDbEntity
  8
0
 62
   254
100
AcDbPolyline
 90
        2
 70
     0
 39
0.003
 10
0.933264
 20
-0.266409
 40
0.003
 41
0.003
 10
0.983768
 20
-0.214445
 40
0.003
 41
0.003
  0
LWPOLYLINE
  5
74
100
AcDbEntity
  8
0
 62
   254
100
AcDbPolyline
 90
        2
 70
     0
 39
0.003
 10
0.933264
 20
-0.266409
 40
0.003
 41
0.003
 10
1.60672
 20
-0.660622
 40
0.003
 41
0.003
  0
LWPOLYLINE
  5
75
100
AcDbEntity
  8
0
 62
   254
100
AcDbPolyline
 90
        2
 70
     0
 39
0.003
 10
1.60672
 20
-0.660622
 40
0.003
 41
0.003
 10
1.55902
 20
-0.713917
 40
0.003
 41
0.003
  0
LWPOLYLINE
  5
76
100
AcDbEntity
  8
0
 62
   254
100
AcDbPolyline
 90
        2
 70
     0
 39
0.003
 10
1.55902
 20
-0.713917
 40
0.003
 41
0.003
 10
0.885563
 20
-0.319705
 40
0.003
 41
0.003
  0
LWPOLYLINE
  5
77
100
AcDbEntity
  8
0
 62
   254
100
AcDbPolyline
 90
        2
 70
     0
 39
0.003
 10
0.885563
 20
-0.319705
 40
0.003
 41
0.003
 10
0.933264
 20
-0.266409
 40
0.003
 41
0.003
  0
LWPOLYLINE
  5
78
100
AcDbEntity
  8
0
 62
   254
100
AcDbPolyline
 90
        2
 70
     0
 39
0.003
 10
0.885563
 20
-0.319705
 40
0.003
 41
0.003
 10
1.55902
 20
-0.713917
 40
0.003
 41
0.003
  0
LWPOLYLINE
  5
79
100
AcDbEntity
  8
0
 62
   254
100
AcDbPolyline
 90
        2
 70
     0
 39
0.003
 10
1.55902
 20
-0.713917
 40
0.003
 41
0.003
 10
1.513858
 20
-0.768472
 40
0.003
 41
0.003
  0
LWPOLYLINE
  5
7A
100
AcDbEntity
  8
0
 62
   254
100
AcDbPolyline
 90
        2
 70
     0
 39
0.003
 10
1.513858
 20
-0.768472
 40
0.003
 41
0.003
 10
0.840402
 20
-0.37426
 40
0.003
 41
0.003
  0
LWPOLYLINE
  5
7B
100
AcDbEntity
  8
0
 62
   254
100
AcDbPolyline
 90
        2
 70
     0
 39
0.003
 10
0.840402
 20
-0.37426
 40
0.003
 41
0.003
 10
0.885563
 20
-0.319705
 40
0.003
 41
0.003
  0
LWPOLYLINE
  5
7C
100
AcDbEntity
  8
0
 62
   254
100
AcDbPolyline
 90
        2
 70
     0
 39
0.003
 10
0.840402
 20
-0.37426
 40
0.003
 41
0.003
 10
1.513858
 20
-0.768472
 40
0.003
 41
0.003
  0
LWPOLYLINE
  5
7D
100
AcDbEntity
  8
0
 62
   254
100
AcDbPolyline
 90
        2
 70
     0
 39
0.003
 10
1.513858
 20
-0.768472
 40
0.003
 41
0.003
 10
1.470996
 20
-0.824244
 40
0.003
 41
0.003
  0
LWPOLYLINE
  5
7E
100
AcDbEntity
  8
0
 62
   254
100
AcDbPolyline
 90
        2
 70
     0
 39
0.003
 10
1.470996
 20
-0.824244
 40
0.003
 41
0.003
 10
0.797539
 20
-0.430031
 40
0.003
 41
0.003
  0
LWPOLYLINE
  5
7F
100
AcDbEntity
  8
0
 62
   254
100
AcDbPolyline
 90
        2
 70
     0
 39
0.003
 10
0.797539
 20
-0.430031
 40
0.003
 41
0.003
 10
0.840402
 20
-0.37426
 40
0.003
 41
0.003
  0
LWPOLYLINE
  5
80
100
AcDbEntity
  8
0
 62
   254
100
AcDbPolyline
 90
        2
 70
     0
 39
0.003
 10
0.797539
 20
-0.430031
 40
0.003
 41
0.003
 10
1.470996
 20
-0.824244
 40
0.003
 41
0.003
  0
LWPOLYLINE
  5
81
100
AcDbEntity
  8
0
 62
   254
100
AcDbPolyline
 90
        2
 70
     0
 39
0.003
 10
1.470996
 20
-0.824244
 40
0.003
 41
0.003
 10
1.430181
 20
-0.881165
 40
0.003
 41
0.003
  0
LWPOLYLINE
  5
82
100
AcDbEntity
  8
0
 62
   254
100
AcDbPolyline
 90
        2
 70
     0
 39
0.003
 10
1.430181
 20
-0.881165
 40
0.003
 41
0.003
 10
0.756724
 20
-0.486953
 40
0.003
 41
0.003
  0
LWPOLYLINE
  5
83
100
AcDbEntity
  8
0
 62
   254
100
AcDbPolyline
 90
        2
 70
     0
 39
0.003
 10
0.756724
 20
-0.486953
 40
0.003
 41
0.003
 10
0.797539
 20
-0.430031
 40
0.003
 41
0.003
  0
LWPOLYLINE
  5
84
100
AcDbEntity
  8
0
 62
   254
100
AcDbPolyline
 90
        2
 70
     0
 39
0.003
 10
0.756724
 20
-0.486953
 40
0.003
 41
0.003
 10
1.430181
 20
-0.881165
 40
0.003
 41
0.003
  0
LWPOLYLINE
  5
85
100
AcDbEntity
  8
0
 62
   254
100
AcDbPolyline
 90
        2
 70
     0
 39
0.003
 10
1.430181
 20
-0.881165
 40
0.003
 41
0.003
 10
1.391165
 20
-0.939193
 40
0.003
 41
0.003
  0
LWPOLYLINE
  5
86
100
AcDbEntity
  8
0
 62
   254
100
AcDbPolyline
 90
        2
 70
     0
 39
0.003
 10
1.391165
 20
-0.939193
 40
0.003
 41
0.003
 10
0.717709
 20
-0.54498
 40
0.003
 41
0.003
  0
LWPOLYLINE
  5
87
100
AcDbEntity
  8
0
 62
   254
100
AcDbPolyline
 90
        2
 70
     0
 39
0.003
 10
0.717709
 20
-0.54498
 40
0.003
 41
0.003
 10
0.756724
 20
-0.486953
 40
0.003
 41
0.003
  0
LWPOLYLINE
  5
88
100
AcDbEntity
  8
0
 62
   254
100
AcDbPolyline
 90
        2
 70
     0
 39
0.003
 10
0.717709
 20
-0.54498
 40
0.003
 41
0.003
 10
1.391165
 20
-0.939193
 40
0.003
 41
0.003
  0
LWPOLYLINE
  5
89
100
AcDbEntity
  8
0
 62
   254
100
AcDbPolyline
 90
        2
 70
     0
 39
0.003
 10
1.391165
 20
-0.939193
 40
0.003
 41
0.003
 10
1.353685
 20
-0.998252
 40
0.003
 41
0.003
  0
LWPOLYLINE
  5
8A
100
AcDbEntity
  8
0
 62
   254
100
AcDbPolyline
 90
        2
 70
     0
 39
0.003
 10
1.353685
 20
-0.998252
 40
0.003
 41
0.003
 10
0.680228
 20
-0.604039
 40
0.003
 41
0.003
  0
LWPOLYLINE
  5
8B
100
AcDbEntity
  8
0
 62
   254
100
AcDbPolyline
 90
        2
 70
     0
 39
0.003
 10
0.680228
 20
-0.604039
 40
0.003
 41
0.003
 10
0.717709
 20
-0.54498
 40
0.003
 41
0.003
  0
LWPOLYLINE
  5
8C
100
AcDbEntity
  8
0
 62
   254
100
AcDbPolyline
 90
        2
 70
     0
 39
0.003
 10
0.680228
 20
-0.604039
 40
0.003
 41
0.003
 10
1.353685
 20
-0.998252
 40
0.003
 41
0.003
  0
LWPOLYLINE
  5
8D
100
AcDbEntity
  8
0
 62
   254
100
AcDbPolyline
 90
        2
 70
     0
 39
0.003
 10
1.353685
 20
-0.998252
 40
0.003
 41
0.003
 10
1.317508
 20
-1.058299
 40
0.003
 41
0.003
  0
LWPOLYLINE
  5
8E
100
AcDbEntity
  8
0
 62
   254
100
AcDbPolyline
 90
        2
 70
     0
 39
0.003
 10
1.317508
 20
-1.058299
 40
0.003
 41
0.003
 10
0.644051
 20
-0.664087
 40
0.003
 41
0.003
  0
LWPOLYLINE
  5
8F
100
AcDbEntity
  8
0
 62
   254
100
AcDbPolyline
 90
        2
 70
     0
 39
0.003
 10
0.644051
 20
-0.664087
 40
0.003
 41
0.003
 10
0.680228
 20
-0.604039
 40
0.003
 41
0.003
  0
LWPOLYLINE
  5
90
100
AcDbEntity
  8
0
 62
   254
100
AcDbPolyline
 90
        2
 70
     0
 39
0.003
 10
0.644051
 20
-0.664087
 40
0.003
 41
0.003
 10
1.317508
 20
-1.058299
 40
0.003
 41
0.003
  0
LWPOLYLINE
  5
91
100
AcDbEntity
  8
0
 62
   254
100
AcDbPolyline
 90
        2
 70
     0
 39
0.003
 10
1.317508
 20
-1.058299
 40
0.003
 41
0.003
 10
1.28237
 20
-1.119268
 40
0.003
 41
0.003
  0
LWPOLYLINE
  5
92
100
AcDbEntity
  8
0
 62
   254
100
AcDbPolyline
 90
        2
 70
     0
 39
0.003
 10
1.28237
 20
-1.119268
 40
0.003
 41
0.003
 10
0.608913
 20
-0.725055
 40
0.003
 41
0.003
  0
LWPOLYLINE
  5
93
100
AcDbEntity
  8
0
 62
   254
100
AcDbPolyline
 90
        2
 70
     0
 39
0.003
 10
0.608913
 20
-0.725055
 40
0.003
 41
0.003
 10
0.644051
 20
-0.664087
 40
0.003
 41
0.003
  0
LWPOLYLINE
  5
94
100
AcDbEntity
  8
0
 62
   254
100
AcDbPolyline
 90
        2
 70
     0
 39
0.003
 10
0.608913
 20
-0.725055
 40
0.003
 41
0.003
 10
1.28237
 20
-1.119268
 40
0.003
 41
0.003
  0
LWPOLYLINE
  5
95
100
AcDbEntity
  8
0
 62
   254
100
AcDbPolyline
 90
        2
 70
     0
 39
0.003
 10
1.28237
 20
-1.119268
 40
0.003
 41
0.003
 10
1.248028
 20
-1.18111
 40
0.003
 41
0.003
  0
LWPOLYLINE
  5
96
100
AcDbEntity
  8
0
 62
   254
100
AcDbPolyline
 90
        2
 70
     0
 39
0.003
 10
1.248028
 20
-1.18111
 40
0.003
 41
0.003
 10
0.574571
 20
-0.786898
 40
0.003
 41
0.003
  0
LWPOLYLINE
  5
97
100
AcDbEntity
  8
0
 62
   254
100
AcDbPolyline
 90
        2
 70
     0
 39
0.003
 10
0.574571
 20
-0.786898
 40
0.003
 41
0.003
 10
0.608913
 20
-0.725055
 40
0.003
 41
0.003
  0
LWPOLYLINE
  5
98
100
AcDbEntity
  8
0
 62
   254
100
AcDbPolyline
 90
        2
 70
     0
 39
0.003
 10
0.574571
 20
-0.786898
 40
0.003
 41
0.003
 10
1.248028
 20
-1.18111
 40
0.003
 41
0.003
  0
LWPOLYLINE
  5
99
100
AcDbEntity
  8
0
 62
   254
100
AcDbPolyline
 90
        2
 70
     0
 39
0.003
 10
1.248028
 20
-1.18111
 40
0.003
 41
0.003
 10
1.214217
 20
-1.243756
 40
0.003
 41
0.003
  0
LWPOLYLINE
  5
9A
100
AcDbEntity
  8
0
 62
   254
100
AcDbPolyline
 90
        2
 70
     0
 39
0.003
 10
1.214217
 20
-1.243756
 40
0.003
 41
0.003
 10
0.54076
 20
-0.849543
 40
0.003
 41
0.003
  0
LWPOLYLINE
  5
9B
100
AcDbEntity
  8
0
 62
   254
100
AcDbPolyline
 90
        2
 70
     0
 39
0.003
 10
0.54076
 20
-0.849543
 40
0.003
 41
0.003
 10
0.574571
 20
-0.786898
 40
0.003
 41
0.003
  0
LWPOLYLINE
  5
9C
100
AcDbEntity
  8
0
 62
   254
100
AcDbPolyline
 90
        2
 70
     0
 39
0.003
 10
0.54076
 20
-0.849543
 40
0.003
 41
0.003
 10
1.214217
 20
-1.243756
 40
0.003
 41
0.003
  0
LWPOLYLINE
  5
9D
100
AcDbEntity
  8
0
 62
   254
100
AcDbPolyline
 90
        2
 70
     0
 39
0.003
 10
1.214217
 20
-1.243756
 40
0.003
 41
0.003
 10
1.180705
 20
-1.307161
 40
0.003
 41
0.003
  0
LWPOLYLINE
  5
9E
100
AcDbEntity
  8
0
 62
   254
100
AcDbPolyline
 90
        2
 70
     0
 39
0.003
 10
1.180705
 20
-1.307161
 40
0.003
 41
0.003
 10
0.507248
 20
-0.912949
 40
0.003
 41
0.003
  0
LWPOLYLINE
  5
9F
100
AcDbEntity
  8
0
 62
   254
100
AcDbPolyline
 90
        2
 70
     0
 39
0.003
 10
0.507248
 20
-0.912949
 40
0.003
 41
0.003
 10
0.54076
 20
-0.849543
 40
0.003
 41
0.003
  0
LWPOLYLINE
  5
A0
100
AcDbEntity
  8
0
 62
   254
100
AcDbPolyline
 90
        2
 70
     0
 39
0.003
 10
0.507248
 20
-0.912949
 40
0.003
 41
0.003
 10
1.180705
 20
-1.307161
 40
0.003
 41
0.003
  0
LWPOLYLINE
  5
A1
100
AcDbEntity
  8
0
 62
   254
100
AcDbPolyline
 90
        2
 70
     0
 39
0.003
 10
1.180705
 20
-1.307161
 40
0.003
 41
0.003
 10
1.147224
 20
-1.37126
 40
0.003
 41
0.003
  0
LWPOLYLINE
  5
A2
100
AcDbEntity
  8
0
 62
   254
100
AcDbPolyline
 90
        2
 70
     0
 39
0.003
 10
1.147224
 20
-1.37126
 40
0.003
 41
0.003
 10
0.473768
 20
-0.977047
 40
0.003
 41
0.003
  0
LWPOLYLINE
  5
A3
100
AcDbEntity
  8
0
 62
   254
100
AcDbPolyline
 90
        2
 70
     0
 39
0.003
 10
0.473768
 20
-0.977047
 40
0.003
 41
0.003
 10
0.507248
 20
-0.912949
 40
0.003
 41
0.003
  0
LWPOLYLINE
  5
A4
100
AcDbEntity
  8
0
 62
   254
100
AcDbPolyline
 90
        2
 70
     0
 39
0.003
 10
0.473768
 20
-0.977047
 40
0.003
 41
0.003
 10
1.147224
 20
-1.37126
 40
0.003
 41
0.003
  0
LWPOLYLINE
  5
A5
100
AcDbEntity
  8
0
 62
   254
100
AcDbPolyline
 90
        2
 70
     0
 39
0.003
 10
1.147224
 20
-1.37126
 40
0.003
 41
0.003
 10
1.113543
 20
-1.436
 40
0.003
 41
0.003
  0
LWPOLYLINE
  5
A6
100
AcDbEntity
  8
0
 62
   254
100
AcDbPolyline
 90
        2
 70
     0
 39
0.003
 10
1.113543
 20
-1.436
 40
0.003
 41
0.003
 10
0.440087
 20
-1.041787
 40
0.003
 41
0.003
  0
LWPOLYLINE
  5
A7
100
AcDbEntity
  8
0
 62
   254
100
AcDbPolyline
 90
        2
 70
     0
 39
0.003
 10
0.440087
 20
-1.041787
 40
0.003
 41
0.003
 10
0.473768
 20
-0.977047
 40
0.003
 41
0.003
  0
LWPOLYLINE
  5
A8
100
AcDbEntity
  8
0
 62
   254
100
AcDbPolyline
 90
        2
 70
     0
 39
0.003
 10
0.440087
 20
-1.041787
 40
0.003
 41
0.003
 10
1.113543
 20
-1.436
 40
0.003
 41
0.003
  0
LWPOLYLINE
  5
A9
100
AcDbEntity
  8
0
 62
   254
100
AcDbPolyline
 90
        2
 70
     0
 39
0.003
 10
1.113543
 20
-1.436
 40
0.003
 41
0.003
 10
1.079394
 20
-1.501315
 40
0.003
 41
0.003
  0
LWPOLYLINE
  5
AA
100
AcDbEntity
  8
0
 62
   254
100
AcDbPolyline
 90
        2
 70
     0
 39
0.003
 10
1.079394
 20
-1.501315
 40
0.003
 41
0.003
 10
0.405937
 20
-1.107102
 40
0.003
 41
0.003
  0
LWPOLYLINE
  5
AB
100
AcDbEntity
  8
0
 62
   254
100
AcDbPolyline
 90
        2
 70
     0
 39
0.003
 10
0.405937
 20
-1.107102
 40
0.003
 41
0.003
 10
0.440087
 20
-1.041787
 40
0.003
 41
0.003
  0
LWPOLYLINE
  5
AC
100
AcDbEntity
  8
0
 62
   254
100
AcDbPolyline
 90
        2
 70
     0
 39
0.003
 10
0.405937
 20
-1.107102
 40
0.003
 41
0.003
 10
1.079394
 20
-1.501315
 40
0.003
 41
0.003
  0
LWPOLYLINE
  5
AD
100
AcDbEntity
  8
0
 62
   254
100
AcDbPolyline
 90
        2
 70
     0
 39
0.003
 10
1.079394
 20
-1.501315
 40
0.003
 41
0.003
 10
1.044531
 20
-1.567165
 40
0.003
 41
0.003
  0
LWPOLYLINE
  5
AE
100
AcDbEntity
  8
0
 62
   254
100
AcDbPolyline
 90
        2
 70
     0
 39
0.003
 10
1.044531
 20
-1.567165
 40
0.003
 41
0.003
 10
0.371075
 20
-1.172953
 40
0.003
 41
0.003
  0
LWPOLYLINE
  5
AF
100
AcDbEntity
  8
0
 62
   254
100
AcDbPolyline
 90
        2
 70
     0
 39
0.003
 10
0.371075
 20
-1.172953
 40
0.003
 41
0.003
 10
0.405937
 20
-1.107102
 40
0.003
 41
0.003
  0
LWPOLYLINE
  5
B0
100
AcDbEntity
  8
0
 62
   254
100
AcDbPolyline
 90
        2
 70
     0
 39
0.003
 10
0.371075
 20
-1.172953
 40
0.003
 41
0.003
 10
1.044531
 20
-1.567165
 40
0.003
 41
0.003
  0
LWPOLYLINE
  5
B1
100
AcDbEntity
  8
0
 62
   254
100
AcDbPolyline
 90
        2
 70
     0
 39
0.003
 10
1.044531
 20
-1.567165
 40
0.003
 41
0.003
 10
1.008709
 20
-1.633476
 40
0.003
 41
0.003
  0
LWPOLYLINE
  5
B2
100
AcDbEntity
  8
0
 62
   254
100
AcDbPolyline
 90
        2
 70
     0
 39
0.003
 10
1.008709
 20
-1.633476
 40
0.003
 41
0.003
 10
0.335252
 20
-1.239264
 40
0.003
 41
0.003
  0
LWPOLYLINE
  5
B3
100
AcDbEntity
  8
0
 62
   254
100
AcDbPolyline
 90
        2
 70
     0
 39
0.003
 10
0.335252
 20
-1.239264
 40
0.003
 41
0.003
 10
0.371075
 20
-1.172953
 40
0.003
 41
0.003
  0
LWPOLYLINE
  5
B4
100
AcDbEntity
  8
0
 62
   254
100
AcDbPolyline
 90
        2
 70
     0
 39
0.003
 10
0.335252
 20
-1.239264
 40
0.003
 41
0.003
 10
1.008709
 20
-1.633476
 40
0.003
 41
0.003
  0
LWPOLYLINE
  5
B5
100
AcDbEntity
  8
0
 62
   254
100
AcDbPolyline
 90
        2
 70
     0
 39
0.003
 10
1.008709
 20
-1.633476
 40
0.003
 41
0.003
 10
0.971677
 20
-1.700205
 40
0.003
 41
0.003
  0
LWPOLYLINE
  5
B6
100
AcDbEntity
  8
0
 62
   254
100
AcDbPolyline
 90
        2
 70
     0
 39
0.003
 10
0.971677
 20
-1.700205
 40
0.003
 41
0.003
 10
0.29822
 20
-1.305992
 40
0.003
 41
0.003
  0
LWPOLYLINE
  5
B7
100
AcDbEntity
  8
0
 62
   254
100
AcDbPolyline
 90
        2
 70
     0
 39
0.003
 10
0.29822
 20
-1.305992
 40
0.003
 41
0.003
 10
0.335252
 20
-1.239264
 40
0.003
 41
0.003
  0
LWPOLYLINE
  5
B8
100
AcDbEntity
  8
0
 62
   254
100
AcDbPolyline
 90
        2
 70
     0
 39
0.003
 10
0.29822
 20
-1.305992
 40
0.003
 41
0.003
 10
0.971677
 20
-1.700205
 40
0.003
 41
0.003
  0
LWPOLYLINE
  5
B9
100
AcDbEntity
  8
0
 62
   254
100
AcDbPolyline
 90
        2
 70
     0
 39
0.003
 10
0.971677
 20
-1.700205
 40
0.003
 41
0.003
 10
0.933614
 20
-1.765209
 40
0.003
 41
0.003
  0
LWPOLYLINE
  5
BA
100
AcDbEntity
  8
0
 62
   254
100
AcDbPolyline
 90
        2
 70
     0
 39
0.003
 10
0.933614
 20
-1.765209
 40
0.003
 41
0.003
 10
0.260157
 20
-1.370996
 40
0.003
 41
0.003
  0
LWPOLYLINE
  5
BB
100
AcDbEntity
  8
0
 62
   254
100
AcDbPolyline
 90
        2
 70
     0
 39
0.003
 10
0.260157
 20
-1.370996
 40
0.003
 41
0.003
 10
0.29822
 20
-1.305992
 40
0.003
 41
0.003
  0
LWPOLYLINE
  5
BC
100
AcDbEntity
  8
0
 62
   254
100
AcDbPolyline
 90
        2
 70
     0
 39
0.003
 10
0.260157
 20
-1.370996
 40
0.003
 41
0.003
 10
0.933614
 20
-1.765209
 40
0.003
 41
0.003
  0
LWPOLYLINE
  5
BD
100
AcDbEntity
  8
0
 62
   254
100
AcDbPolyline
 90
        2
 70
     0
 39
0.003
 10
0.933614
 20
-1.765209
 40
0.003
 41
0.003
 10
0.894969
 20
-1.826504
 40
0.003
 41
0.003
  0
LWPOLYLINE
  5
BE
100
AcDbEntity
  8
0
 62
   254
100
AcDbPolyline
 90
        2
 70
     0
 39
0.003
 10
0.894969
 20
-1.826504
 40
0.003
 41
0.003
 10
0.221512
 20
-1.432291
 40
0.003
 41
0.003
  0
LWPOLYLINE
  5
BF
100
AcDbEntity
  8
0
 62
   254
100
AcDbPolyline
 90
        2
 70
     0
 39
0.003
 10
0.221512
 20
-1.432291
 40
0.003
 41
0.003
 10
0.260157
 20
-1.370996
 40
0.003
 41
0.003
  0
LWPOLYLINE
  5
C0
100
AcDbEntity
  8
0
 62
   254
100
AcDbPolyline
 90
        2
 70
     0
 39
0.003
 10
0.221512
 20
-1.432291
 40
0.003
 41
0.003
 10
0.894969
 20
-1.826504
 40
0.003
 41
0.003
  0
LWPOLYLINE
  5
C1
100
AcDbEntity
  8
0
 62
   254
100
AcDbPolyline
 90
        2
 70
     0
 39
0.003
 10
0.894969
 20
-1.826504
 40
0.003
 41
0.003
 10
0.855854
 20
-1.884185
 40
0.003
 41
0.003
  0
LWPOLYLINE
  5
C2
100
AcDbEntity
  8
0
 62
   254
100
AcDbPolyline
 90
        2
 70
     0
 39
0.003
 10
0.855854
 20
-1.884185
 40
0.003
 41
0.003
 10
0.182398
 20
-1.489972
 40
0.003
 41
0.003
  0
LWPOLYLINE
  5
C3
100
AcDbEntity
  8
0
 62
   254
100
AcDbPolyline
 90
        2
 70
     0
 39
0.003
 10
0.182398
 20
-1.489972
 40
0.003
 41
0.003
 10
0.221512
 20
-1.432291
 40
0.003
 41
0.003
  0
LWPOLYLINE
  5
C4
100
AcDbEntity
  8
0
 62
   254
100
AcDbPolyline
 90
        2
 70
     0
 39
0.003
 10
0.182398
 20
-1.489972
 40
0.003
 41
0.003
 10
0.855854
 20
-1.884185
 40
0.003
 41
0.003
  0
LWPOLYLINE
  5
C5
100
AcDbEntity
  8
0
 62
   254
100
AcDbPolyline
 90
        2
 70
     0
 39
0.003
 10
0.855854
 20
-1.884185
 40
0.003
 41
0.003
 10
0.816398
 20
-1.938366
 40
0.003
 41
0.003
  0
LWPOLYLINE
  5
C6
100
AcDbEntity
  8
0
 62
   254
100
AcDbPolyline
 90
        2
 70
     0
 39
0.003
 10
0.816398
 20
-1.938366
 40
0.003
 41
0.003
 10
0.142941
 20
-1.544154
 40
0.003
 41
0.003
  0
LWPOLYLINE
  5
C7
100
AcDbEntity
  8
0
 62
   254
100
AcDbPolyline
 90
        2
 70
     0
 39
0.003
 10
0.142941
 20
-1.544154
 40
0.003
 41
0.003
 10
0.182398
 20
-1.489972
 40
0.003
 41
0.003
  0
LWPOLYLINE
  5
C8
100
AcDbEntity
  8
0
 62
   254
100
AcDbPolyline
 90
        2
 70
     0
 39
0.003
 10
0.142941
 20
-1.544154
 40
0.003
 41
0.003
 10
0.816398
 20
-1.938366
 40
0.003
 41
0.003
  0
LWPOLYLINE
  5
C9
100
AcDbEntity
  8
0
 62
   254
100
AcDbPolyline
 90
        2
 70
     0
 39
0.003
 10
0.816398
 20
-1.938366
 40
0.003
 41
0.003
 10
0.776701
 20
-1.98915
 40
0.003
 41
0.003
  0
LWPOLYLINE
  5
CA
100
AcDbEntity
  8
0
 62
   254
100
AcDbPolyline
 90
        2
 70
     0
 39
0.003
 10
0.776701
 20
-1.98915
 40
0.003
 41
0.003
 10
0.103244
 20
-1.594937
 40
0.003
 41
0.003
  0
LWPOLYLINE
  5
CB
100
AcDbEntity
  8
0
 62
   254
100
AcDbPolyline
 90
        2
 70
     0
 39
0.003
 10
0.103244
 20
-1.594937
 40
0.003
 41
0.003
 10
0.142941
 20
-1.544154
 40
0.003
 41
0.003
  0
LWPOLYLINE
  5
CC
100
AcDbEntity
  8
0
 62
   254
100
AcDbPolyline
 90
        2
 70
     0
 39
0.003
 10
0.103244
 20
-1.594937
 40
0.003
 41
0.003
 10
0.776701
 20
-1.98915
 40
0.003
 41
0.003
  0
LWPOLYLINE
  5
CD
100
AcDbEntity
  8
0
 62
   254
100
AcDbPolyline
 90
        2
 70
     0
 39
0.003
 10
0.776701
 20
-1.98915
 40
0.003
 41
0.003
 10
0.736894
 20
-2.036654
 40
0.003
 41
0.003
  0
LWPOLYLINE
  5
CE
100
AcDbEntity
  8
0
 62
   254
100
AcDbPolyline
 90
        2
 70
     0
 39
0.003
 10
0.736894
 20
-2.036654
 40
0.003
 41
0.003
 10
0.063437
 20
-1.642441
 40
0.003
 41
0.003
  0
LWPOLYLINE
  5
CF
100
AcDbEntity
  8
0
 62
   254
100
AcDbPolyline
 90
        2
 70
     0
 39
0.003
 10
0.063437
 20
-1.642441
 40
0.003
 41
0.003
 10
0.103244
 20
-1.594937
 40
0.003
 41
0.003
  0
LWPOLYLINE
  5
D0
100
AcDbEntity
  8
0
 62
   254
100
AcDbPolyline
 90
        2
 70
     0
 39
0.003
 10
0.063437
 20
-1.642441
 40
0.003
 41
0.003
 10
0.736894
 20
-2.036654
 40
0.003
 41
0.003
  0
LWPOLYLINE
  5
D1
100
AcDbEntity
  8
0
 62
   254
100
AcDbPolyline
 90
        2
 70
     0
 39
0.003
 10
0.736894
 20
-2.036654
 40
0.003
 41
0.003
 10
0.697091
 20
-2.080976
 40
0.003
 41
0.003
  0
LWPOLYLINE
  5
D2
100
AcDbEntity
  8
0
 62
   254
100
AcDbPolyline
 90
        2
 70
     0
 39
0.003
 10
0.697091
 20
-2.080976
 40
0.003
 41
0.003
 10
0.023634
 20
-1.686764
 40
0.003
 41
0.003
  0
LWPOLYLINE
  5
D3
100
AcDbEntity
  8
0
 62
   254
100
AcDbPolyline
 90
        2
 70
     0
 39
0.003
 10
0.023634
 20
-1.686764
 40
0.003
 41
0.003
 10
0.063437
 20
-1.642441
 40
0.003
 41
0.003
  0
LWPOLYLINE
  5
D4
100
AcDbEntity
  8
0
 62
   254
100
AcDbPolyline
 90
        2
 70
     0
 39
0.003
 10
0.023634
 20
-1.686764
 40
0.003
 41
0.003
 10
0.697091
 20
-2.080976
 40
0.003
 41
0.003
  0
LWPOLYLINE
  5
D5
100
AcDbEntity
  8
0
 62
   254
100
AcDbPolyline
 90
        2
 70
     0
 39
0.003
 10
0.697091
 20
-2.080976
 40
0.003
 41
0.003
 10
0.657413
 20
-2.12224
 40
0.003
 41
0.003
  0
LWPOLYLINE
  5
D6
100
AcDbEntity
  8
0
 62
   254
100
AcDbPolyline
 90
        2
 70
     0
 39
0.003
 10
0.657413
 20
-2.12224
 40
0.003
 41
0.003
 10
-0.016043
 20
-1.728028
 40
0.003
 41
0.003
  0
LWPOLYLINE
  5
D7
100
AcDbEntity
  8
0
 62
   254
100
AcDbPolyline
 90
        2
 70
     0
 39
0.003
 10
-0.016043
 20
-1.728028
 40
0.003
 41
0.003
 10
0.023634
 20
-1.686764
 40
0.003
 41
0.003
  0
LWPOLYLINE
  5
D8
100
AcDbEntity
  8
0
 62
   254
100
AcDbPolyline
 90
        2
 70
     0
 39
0.003
 10
-0.016043
 20
-1.728028
 40
0.003
 41
0.003
 10
0.657413
 20
-2.12224
 40
0.003
 41
0.003
  0
LWPOLYLINE
  5
D9
100
AcDbEntity
  8
0
 62
   254
100
AcDbPolyline
 90
        2
 70
     0
 39
0.003
 10
0.657413
 20
-2.12224
 40
0.003
 41
0.003
 10
0.617972
 20
-2.160531
 40
0.003
 41
0.003
  0
LWPOLYLINE
  5
DA
100
AcDbEntity
  8
0
 62
   254
100
AcDbPolyline
 90
        2
 70
     0
 39
0.003
 10
0.617972
 20
-2.160531
 40
0.003
 41
0.003
 10
-0.055484
 20
-1.766319
 40
0.003
 41
0.003
  0
LWPOLYLINE
  5
DB
100
AcDbEntity
  8
0
 62
   254
100
AcDbPolyline
 90
        2
 70
     0
 39
0.003
 10
-0.055484
 20
-1.766319
 40
0.003
 41
0.003
 10
-0.016043
 20
-1.728028
 40
0.003
 41
0.003
  0
LWPOLYLINE
  5
DC
100
AcDbEntity
  8
0
 62
   254
100
AcDbPolyline
 90
        2
 70
     0
 39
0.003
 10
-0.055484
 20
-1.766319
 40
0.003
 41
0.003
 10
0.617972
 20
-2.160531
 40
0.003
 41
0.003
  0
LWPOLYLINE
  5
DD
100
AcDbEntity
  8
0
 62
   254
100
AcDbPolyline
 90
        2
 70
     0
 39
0.003
 10
0.617972
 20
-2.160531
 40
0.003
 41
0.003
 10
0.578886
 20
-2.19598
 40
0.003
 41
0.003
  0
LWPOLYLINE
  5
DE
100
AcDbEntity
  8
0
 62
   254
100
AcDbPolyline
 90
        2
 70
     0
 39
0.003
 10
0.578886
 20
-2.19598
 40
0.003
 41
0.003
 10
-0.094571
 20
-1.801768
 40
0.003
 41
0.003
  0
LWPOLYLINE
  5
DF
100
AcDbEntity
  8
0
 62
   254
100
AcDbPolyline
 90
        2
 70
     0
 39
0.003
 10
-0.094571
 20
-1.801768
 40
0.003
 41
0.003
 10
-0.055484
 20
-1.766319
 40
0.003
 41
0.003
  0
LWPOLYLINE
  5
E0
100
AcDbEntity
  8
0
 62
   254
100
AcDbPolyline
 90
        2
 70
     0
 39
0.003
 10
-0.094571
 20
-1.801768
 40
0.003
 41
0.003
 10
0.578886
 20
-2.19598
 40
0.003
 41
0.003
  0
LWPOLYLINE
  5
E1
100
AcDbEntity
  8
0
 62
   254
100
AcDbPolyline
 90
        2
 70
     0
 39
0.003
 10
0.578886
 20
-2.19598
 40
0.003
 41
0.003
 10
0.540272
 20
-2.228685
 40
0.003
 41
0.003
  0
LWPOLYLINE
  5
E2
100
AcDbEntity
  8
0
 62
   254
100
AcDbPolyline
 90
        2
 70
     0
 39
0.003
 10
0.540272
 20
-2.228685
 40
0.003
 41
0.003
 10
-0.133185
 20
-1.834472
 40
0.003
 41
0.003
  0
LWPOLYLINE
  5
E3
100
AcDbEntity
  8
0
 62
   254
100
AcDbPolyline
 90
        2
 70
     0
 39
0.003
 10
-0.133185
 20
-1.834472
 40
0.003
 41
0.003
 10
-0.094571
 20
-1.801768
 40
0.003
 41
0.003
  0
LWPOLYLINE
  5
E4
100
AcDbEntity
  8
0
 62
   254
100
AcDbPolyline
 90
        2
 70
     0
 39
0.003
 10
-0.133185
 20
-1.834472
 40
0.003
 41
0.003
 10
0.540272
 20
-2.228685
 40
0.003
 41
0.003
  0
LWPOLYLINE
  5
E5
100
AcDbEntity
  8
0
 62
   254
100
AcDbPolyline
 90
        2
 70
     0
 39
0.003
 10
0.540272
 20
-2.228685
 40
0.003
 41
0.003
 10
0.502244
 20
-2.25876
 40
0.003
 41
0.003
  0
LWPOLYLINE
  5
E6
100
AcDbEntity
  8
0
 62
   254
100
AcDbPolyline
 90
        2
 70
     0
 39
0.003
 10
0.502244
 20
-2.25876
 40
0.003
 41
0.003
 10
-0.171213
 20
-1.864547
 40
0.003
 41
0.003
  0
LWPOLYLINE
  5
E7
100
AcDbEntity
  8
0
 62
   254
100
AcDbPolyline
 90
        2
 70
     0
 39
0.003
 10
-0.171213
 20
-1.864547
 40
0.003
 41
0.003
 10
-0.133185
 20
-1.834472
 40
0.003
 41
0.003
  0
LWPOLYLINE
  5
E8
100
AcDbEntity
  8
0
 62
   254
100
AcDbPolyline
 90
        2
 70
     0
 39
0.003
 10
-0.171213
 20
-1.864547
 40
0.003
 41
0.003
 10
0.502244
 20
-2.25876
 40
0.003
 41
0.003
  0
LWPOLYLINE
  5
E9
100
AcDbEntity
  8
0
 62
   254
100
AcDbPolyline
 90
        2
 70
     0
 39
0.003
 10
0.502244
 20
-2.25876
 40
0.003
 41
0.003
 10
0.464929
 20
-2.286303
 40
0.003
 41
0.003
  0
LWPOLYLINE
  5
EA
100
AcDbEntity
  8
0
 62
   254
100
AcDbPolyline
 90
        2
 70
     0
 39
0.003
 10
0.464929
 20
-2.286303
 40
0.003
 41
0.003
 10
-0.208528
 20
-1.892091
 40
0.003
 41
0.003
  0
LWPOLYLINE
  5
EB
100
AcDbEntity
  8
0
 62
   254
100
AcDbPolyline
 90
        2
 70
     0
 39
0.003
 10
-0.208528
 20
-1.892091
 40
0.003
 41
0.003
 10
-0.171213
 20
-1.864547
 40
0.003
 41
0.003
  0
LWPOLYLINE
  5
EC
100
AcDbEntity
  8
0
 62
   254
100
AcDbPolyline
 90
        2
 70
     0
 39
0.003
 10
-0.208528
 20
-1.892091
 40
0.003
 41
0.003
 10
0.464929
 20
-2.286303
 40
0.003
 41
0.003
  0
LWPOLYLINE
  5
ED
100
AcDbEntity
  8
0
 62
   254
100
AcDbPolyline
 90
        2
 70
     0
 39
0.003
 10
0.464929
 20
-2.286303
 40
0.003
 41
0.003
 10
0.428441
 20
-2.311437
 40
0.003
 41
0.003
  0
LWPOLYLINE
  5
EE
100
AcDbEntity
  8
0
 62
   254
100
AcDbPolyline
 90
        2
 70
     0
 39
0.003
 10
0.428441
 20
-2.311437
 40
0.003
 41
0.003
 10
-0.245016
 20
-1.917224
 40
0.003
 41
0.003
  0
LWPOLYLINE
  5
EF
100
AcDbEntity
  8
0
 62
   254
100
AcDbPolyline
 90
        2
 70
     0
 39
0.003
 10
-0.245016
 20
-1.917224
 40
0.003
 41
0.003
 10
-0.208528
 20
-1.892091
 40
0.003
 41
0.003
  0
LWPOLYLINE
  5
F0
100
AcDbEntity
  8
0
 62
   254
100
AcDbPolyline
 90
        2
 70
     0
 39
0.003
 10
-0.245016
 20
-1.917224
 40
0.003
 41
0.003
 10
0.428441
 20
-2.311437
 40
0.003
 41
0.003
  0
LWPOLYLINE
  5
F1
100
AcDbEntity
  8
0
 62
   254
100
AcDbPolyline
 90
        2
 70
     0
 39
0.003
 10
0.428441
 20
-2.311437
 40
0.003
 41
0.003
 10
0.392898
 20
-2.33426
 40
0.003
 41
0.003
  0
LWPOLYLINE
  5
F2
100
AcDbEntity
  8
0
 62
   254
100
AcDbPolyline
 90
        2
 70
     0
 39
0.003
 10
0.392898
 20
-2.33426
 40
0.003
 41
0.003
 10
-0.280559
 20
-1.940047
 40
0.003
 41
0.003
  0
LWPOLYLINE
  5
F3
100
AcDbEntity
  8
0
 62
   254
100
AcDbPolyline
 90
        2
 70
     0
 39
0.003
 10
-0.280559
 20
-1.940047
 40
0.003
 41
0.003
 10
-0.245016
 20
-1.917224
 40
0.003
 41
0.003
  0
LWPOLYLINE
  5
F4
100
AcDbEntity
  8
0
 62
   254
100
AcDbPolyline
 90
        2
 70
     0
 39
0.003
 10
-0.280559
 20
-1.940047
 40
0.003
 41
0.003
 10
0.392898
 20
-2.33426
 40
0.003
 41
0.003
  0
LWPOLYLINE
  5
F5
100
AcDbEntity
  8
0
 62
   254
100
AcDbPolyline
 90
        2
 70
     0
 39
0.003
 10
0.392898
 20
-2.33426
 40
0.003
 41
0.003
 10
0.358406
 20
-2.354886
 40
0.003
 41
0.003
  0
LWPOLYLINE
  5
F6
100
AcDbEntity
  8
0
 62
   254
100
AcDbPolyline
 90
        2
 70
     0
 39
0.003
 10
0.358406
 20
-2.354886
 40
0.003
 41
0.003
 10
-0.315051
 20
-1.960673
 40
0.003
 41
0.003
  0
LWPOLYLINE
  5
F7
100
AcDbEntity
  8
0
 62
   254
100
AcDbPolyline
 90
        2
 70
     0
 39
0.003
 10
-0.315051
 20
-1.960673
 40
0.003
 41
0.003
 10
-0.280559
 20
-1.940047
 40
0.003
 41
0.003
  0
LWPOLYLINE
  5
F8
100
AcDbEntity
  8
0
 62
   254
100
AcDbPolyline
 90
        2
 70
     0
 39
0.003
 10
-0.315051
 20
-1.960673
 40
0.003
 41
0.003
 10
0.358406
 20
-2.354886
 40
0.003
 41
0.003
  0
LWPOLYLINE
  5
F9
100
AcDbEntity
  8
0
 62
   254
100
AcDbPolyline
 90
        2
 70
     0
 39
0.003
 10
0.358406
 20
-2.354886
 40
0.003
 41
0.003
 10
0.325106
 20
-2.373413
 40
0.003
 41
0.003
  0
LWPOLYLINE
  5
FA
100
AcDbEntity
  8
0
 62
   254
100
AcDbPolyline
 90
        2
 70
     0
 39
0.003
 10
0.325106
 20
-2.373413
 40
0.003
 41
0.003
 10
-0.34835
 20
-1.979201
 40
0.003
 41
0.003
  0
LWPOLYLINE
  5
FB
100
AcDbEntity
  8
0
 62
   254
100
AcDbPolyline
 90
        2
 70
     0
 39
0.003
 10
-0.34835
 20
-1.979201
 40
0.003
 41
0.003
 10
-0.315051
 20
-1.960673
 40
0.003
 41
0.003
  0
LWPOLYLINE
  5
FC
100
AcDbEntity
  8
0
 62
   254
100
AcDbPolyline
 90
        2
 70
     0
 39
0.003
 10
-0.34835
 20
-1.979201
 40
0.003
 41
0.003
 10
0.325106
 20
-2.373413
 40
0.003
 41
0.003
  0
LWPOLYLINE
  5
FD
100
AcDbEntity
  8
0
 62
   254
100
AcDbPolyline
 90
        2
 70
     0
 39
0.003
 10
0.325106
 20
-2.373413
 40
0.003
 41
0.003
 10
0.293098
 20
-2.389965
 40
0.003
 41
0.003
  0
LWPOLYLINE
  5
FE
100
AcDbEntity
  8
0
 62
   254
100
AcDbPolyline
 90
        2
 70
     0
 39
0.003
 10
0.293098
 20
-2.389965
 40
0.003
 41
0.003
 10
-0.380358
 20
-1.995752
 40
0.003
 41
0.003
  0
LWPOLYLINE
  5
FF
100
AcDbEntity
  8
0
 62
   254
100
AcDbPolyline
 90
        2
 70
     0
 39
0.003
 10
-0.380358
 20
-1.995752
 40
0.003
 41
0.003
 10
-0.34835
 20
-1.979201
 40
0.003
 41
0.003
  0
LWPOLYLINE
  5
100
100
AcDbEntity
  8
0
 62
   254
100
AcDbPolyline
 90
        2
 70
     0
 39
0.003
 10
-0.380358
 20
-1.995752
 40
0.003
 41
0.003
 10
0.293098
 20
-2.389965
 40
0.003
 41
0.003
  0
LWPOLYLINE
  5
101
100
AcDbEntity
  8
0
 62
   254
100
AcDbPolyline
 90
        2
 70
     0
 39
0.003
 10
0.293098
 20
-2.389965
 40
0.003
 41
0.003
 10
0.262504
 20
-2.404638
 40
0.003
 41
0.003
  0
LWPOLYLINE
  5
102
100
AcDbEntity
  8
0
 62
   254
100
AcDbPolyline
 90
        2
 70
     0
 39
0.003
 10
0.262504
 20
-2.404638
 40
0.003
 41
0.003
 10
-0.410953
 20
-2.010425
 40
0.003
 41
0.003
  0
LWPOLYLINE
  5
103
100
AcDbEntity
  8
0
 62
   254
100
AcDbPolyline
 90
        2
 70
     0
 39
0.003
 10
-0.410953
 20
-2.010425
 40
0.003
 41
0.003
 10
-0.380358
 20
-1.995752
 40
0.003
 41
0.003
  0
LWPOLYLINE
  5
104
100
AcDbEntity
  8
0
 62
   254
100
AcDbPolyline
 90
        2
 70
     0
 39
0.003
 10
-0.410953
 20
-2.010425
 40
0.003
 41
0.003
 10
0.262504
 20
-2.404638
 40
0.003
 41
0.003
  0
LWPOLYLINE
  5
105
100
AcDbEntity
  8
0
 62
   254
100
AcDbPolyline
 90
        2
 70
     0
 39
0.003
 10
0.262504
 20
-2.404638
 40
0.003
 41
0.003
 10
0.233437
 20
-2.417551
 40
0.003
 41
0.003
  0
LWPOLYLINE
  5
106
100
AcDbEntity
  8
0
 62
   254
100
AcDbPolyline
 90
        2
 70
     0
 39
0.003
 10
0.233437
 20
-2.417551
 40
0.003
 41
0.003
 10
-0.44002
 20
-2.023339
 40
0.003
 41
0.003
  0
LWPOLYLINE
  5
107
100
AcDbEntity
  8
0
 62
   254
100
AcDbPolyline
 90
        2
 70
     0
 39
0.003
 10
-0.44002
 20
-2.023339
 40
0.003
 41
0.003
 10
-0.410953
 20
-2.010425
 40
0.003
 41
0.003
  0
LWPOLYLINE
  5
108
100
AcDbEntity
  8
0
 62
   254
100
AcDbPolyline
 90
        2
 70
     0
 39
0.003
 10
-0.44002
 20
-2.023339
 40
0.003
 41
0.003
 10
0.233437
 20
-2.417551
 40
0.003
 41
0.003
  0
LWPOLYLINE
  5
109
100
AcDbEntity
  8
0
 62
   254
100
AcDbPolyline
 90
        2
 70
     0
 39
0.003
 10
0.233437
 20
-2.417551
 40
0.003
 41
0.003
 10
0.206028
 20
-2.428803
 40
0.003
 41
0.003
  0
LWPOLYLINE
  5
10A
100
AcDbEntity
  8
0
 62
   254
100
AcDbPolyline
 90
        2
 70
     0
 39
0.003
 10
0.206028
 20
-2.428803
 40
0.003
 41
0.003
 10
-0.467429
 20
-2.034591
 40
0.003
 41
0.003
  0
LWPOLYLINE
  5
10B
100
AcDbEntity
  8
0
 62
   254
100
AcDbPolyline
 90
        2
 70
     0
 39
0.003
 10
-0.467429
 20
-2.034591
 40
0.003
 41
0.003
 10
-0.44002
 20
-2.023339
 40
0.003
 41
0.003
  0
LWPOLYLINE
  5
10C
100
AcDbEntity
  8
0
 62
   254
100
AcDbPolyline
 90
        2
 70
     0
 39
0.003
 10
-0.467429
 20
-2.034591
 40
0.003
 41
0.003
 10
0.206028
 20
-2.428803
 40
0.003
 41
0.003
  0
LWPOLYLINE
  5
10D
100
AcDbEntity
  8
0
 62
   254
100
AcDbPolyline
 90
        2
 70
     0
 39
0.003
 10
0.206028
 20
-2.428803
 40
0.003
 41
0.003
 10
0.180382
 20
-2.438512
 40
0.003
 41
0.003
  0
LWPOLYLINE
  5
10E
100
AcDbEntity
  8
0
 62
   254
100
AcDbPolyline
 90
        2
 70
     0
 39
0.003
 10
0.180382
 20
-2.438512
 40
0.003
 41
0.003
 10
-0.493075
 20
-2.044299
 40
0.003
 41
0.003
  0
LWPOLYLINE
  5
10F
100
AcDbEntity
  8
0
 62
   254
100
AcDbPolyline
 90
        2
 70
     0
 39
0.003
 10
-0.493075
 20
-2.044299
 40
0.003
 41
0.003
 10
-0.467429
 20
-2.034591
 40
0.003
 41
0.003
  0
LWPOLYLINE
  5
110
100
AcDbEntity
  8
0
 62
   254
100
AcDbPolyline
 90
        2
 70
     0
 39
0.003
 10
-0.493075
 20
-2.044299
 40
0.003
 41
0.003
 10
0.180382
 20
-2.438512
 40
0.003
 41
0.003
  0
LWPOLYLINE
  5
111
100
AcDbEntity
  8
0
 62
   254
100
AcDbPolyline
 90
        2
 70
     0
 39
0.003
 10
0.180382
 20
-2.438512
 40
0.003
 41
0.003
 10
0.156618
 20
-2.446776
 40
0.003
 41
0.003
  0
LWPOLYLINE
  5
112
100
AcDbEntity
  8
0
 62
   254
100
AcDbPolyline
 90
        2
 70
     0
 39
0.003
 10
0.156618
 20
-2.446776
 40
0.003
 41
0.003
 10
-0.516839
 20
-2.052563
 40
0.003
 41
0.003
  0
LWPOLYLINE
  5
113
100
AcDbEntity
  8
0
 62
   254
100
AcDbPolyline
 90
        2
 70
     0
 39
0.003
 10
-0.516839
 20
-2.052563
 40
0.003
 41
0.003
 10
-0.493075
 20
-2.044299
 40
0.003
 41
0.003
  0
LWPOLYLINE
  5
114
100
AcDbEntity
  8
0
 62
   254
100
AcDbPolyline
 90
        2
 70
     0
 39
0.003
 10
-0.516839
 20
-2.052563
 40
0.003
 41
0.003
 10
0.156618
 20
-2.446776
 40
0.003
 41
0.003
  0
LWPOLYLINE
  5
115
100
AcDbEntity
  8
0
 62
   254
100
AcDbPolyline
 90
        2
 70
     0
 39
0.003
 10
0.156618
 20
-2.446776
 40
0.003
 41
0.003
 10
0.134854
 20
-2.453717
 40
0.003
 41
0.003
  0
LWPOLYLINE
  5
116
100
AcDbEntity
  8
0
 62
   254
100
AcDbPolyline
 90
        2
 70
     0
 39
0.003
 10
0.134854
 20
-2.453717
 40
0.003
 41
0.003
 10
-0.538602
 20
-2.059504
 40
0.003
 41
0.003
  0
LWPOLYLINE
  5
117
100
AcDbEntity
  8
0
 62
   254
100
AcDbPolyline
 90
        2
 70
     0
 39
0.003
 10
-0.538602
 20
-2.059504
 40
0.003
 41
0.003
 10
-0.516839
 20
-2.052563
 40
0.003
 41
0.003
  0
LWPOLYLINE
  5
118
100
AcDbEntity
  8
0
 62
   254
100
AcDbPolyline
 90
        2
 70
     0
 39
0.003
 10
-0.538602
 20
-2.059504
 40
0.003
 41
0.003
 10
0.134854
 20
-2.453717
 40
0.003
 41
0.003
  0
LWPOLYLINE
  5
119
100
AcDbEntity
  8
0
 62
   254
100
AcDbPolyline
 90
        2
 70
     0
 39
0.003
 10
0.134854
 20
-2.453717
 40
0.003
 41
0.003
 10
0.11522
 20
-2.459429
 40
0.003
 41
0.003
  0
LWPOLYLINE
  5
11A
100
AcDbEntity
  8
0
 62
   254
100
AcDbPolyline
 90
        2
 70
     0
 39
0.003
 10
0.11522
 20
-2.459429
 40
0.003
 41
0.003
 10
-0.558236
 20
-2.065217
 40
0.003
 41
0.003
  0
LWPOLYLINE
  5
11B
100
AcDbEntity
  8
0
 62
   254
100
AcDbPolyline
 90
        2
 70
     0
 39
0.003
 10
-0.558236
 20
-2.065217
 40
0.003
 41
0.003
 10
-0.538602
 20
-2.059504
 40
0.003
 41
0.003
  0
LWPOLYLINE
  5
11C
100
AcDbEntity
  8
0
 62
   254
100
AcDbPolyline
 90
        2
 70
     0
 39
0.003
 10
-0.558236
 20
-2.065217
 40
0.003
 41
0.003
 10
0.11522
 20
-2.459429
 40
0.003
 41
0.003
  0
LWPOLYLINE
  5
11D
100
AcDbEntity
  8
0
 62
   254
100
AcDbPolyline
 90
        2
 70
     0
 39
0.003
 10
0.11522
 20
-2.459429
 40
0.003
 41
0.003
 10
0.097815
 20
-2.464028
 40
0.003
 41
0.003
  0
LWPOLYLINE
  5
11E
100
AcDbEntity
  8
0
 62
   254
100
AcDbPolyline
 90
        2
 70
     0
 39
0.003
 10
0.097815
 20
-2.464028
 40
0.003
 41
0.003
 10
-0.575642
 20
-2.069815
 40
0.003
 41
0.003
  0
LWPOLYLINE
  5
11F
100
AcDbEntity
  8
0
 62
   254
100
AcDbPolyline
 90
        2
 70
     0
 39
0.003
 10
-0.575642
 20
-2.069815
 40
0.003
 41
0.003
 10
-0.558236
 20
-2.065217
 40
0.003
 41
0.003
  0
LWPOLYLINE
  5
120
100
AcDbEntity
  8
0
 62
   254
100
AcDbPolyline
 90
        2
 70
     0
 39
0.003
 10
-0.575642
 20
-2.069815
 40
0.003
 41
0.003
 10
0.097815
 20
-2.464028
 40
0.003
 41
0.003
  0
LWPOLYLINE
  5
121
100
AcDbEntity
  8
0
 62
   254
100
AcDbPolyline
 90
        2
 70
     0
 39
0.003
 10
0.097815
 20
-2.464028
 40
0.003
 41
0.003
 10
0.082768
 20
-2.467622
 40
0.003
 41
0.003
  0
LWPOLYLINE
  5
122
100
AcDbEntity
  8
0
 62
   254
100
AcDbPolyline
 90
        2
 70
     0
 39
0.003
 10
0.082768
 20
-2.467622
 40
0.003
 41
0.003
 10
-0.590689
 20
-2.073409
 40
0.003
 41
0.003
  0
LWPOLYLINE
  5
123
100
AcDbEntity
  8
0
 62
   254
100
AcDbPolyline
 90
        2
 70
     0
 39
0.003
 10
-0.590689
 20
-2.073409
 40
0.003
 41
0.003
 10
-0.575642
 20
-2.069815
 40
0.003
 41
0.003
  0
LWPOLYLINE
  5
124
100
AcDbEntity
  8
0
 62
   254
100
AcDbPolyline
 90
        2
 70
     0
 39
0.003
 10
-0.590689
 20
-2.073409
 40
0.003
 41
0.003
 10
0.082768
 20
-2.467622
 40
0.003
 41
0.003
  0
LWPOLYLINE
  5
125
100
AcDbEntity
  8
0
 62
   254
100
AcDbPolyline
 90
        2
 70
     0
 39
0.003
 10
0.082768
 20
-2.467622
 40
0.003
 41
0.003
 10
0.070189
 20
-2.470323
 40
0.003
 41
0.003
  0
LWPOLYLINE
  5
126
100
AcDbEntity
  8
0
 62
   254
100
AcDbPolyline
 90
        2
 70
     0
 39
0.003
 10
0.070189
 20
-2.470323
 40
0.003
 41
0.003
 10
-0.603268
 20
-2.07611
 40
0.003
 41
0.003
  0
LWPOLYLINE
  5
127
100
AcDbEntity
  8
0
 62
   254
100
AcDbPolyline
 90
        2
 70
     0
 39
0.003
 10
-0.603268
 20
-2.07611
 40
0.003
 41
0.003
 10
-0.590689
 20
-2.073409
 40
0.003
 41
0.003
  0
LWPOLYLINE
  5
128
100
AcDbEntity
  8
0
 62
   254
100
AcDbPolyline
 90
        2
 70
     0
 39
0.003
 10
-0.603268
 20
-2.07611
 40
0.003
 41
0.003
 10
0.070189
 20
-2.470323
 40
0.003
 41
0.003
  0
LWPOLYLINE
  5
129
100
AcDbEntity
  8
0
 62
   254
100
AcDbPolyline
 90
        2
 70
     0
 39
0.003
 10
0.070189
 20
-2.470323
 40
0.003
 41
0.003
 10
0.060205
 20
-2.472228
 40
0.003
 41
0.003
  0
LWPOLYLINE
  5
12A
100
AcDbEntity
  8
0
 62
   254
100
AcDbPolyline
 90
        2
 70
     0
 39
0.003
 10
0.060205
 20
-2.472228
 40
0.003
 41
0.003
 10
-0.613252
 20
-2.078016
 40
0.003
 41
0.003
  0
LWPOLYLINE
  5
12B
100
AcDbEntity
  8
0
 62
   254
100
AcDbPolyline
 90
        2
 70
     0
 39
0.003
 10
-0.613252
 20
-2.078016
 40
0.003
 41
0.003
 10
-0.603268
 20
-2.07611
 40
0.003
 41
0.003
  0
LWPOLYLINE
  5
12C
100
AcDbEntity
  8
0
 62
   254
100
AcDbPolyline
 90
        2
 70
     0
 39
0.003
 10
-0.613252
 20
-2.078016
 40
0.003
 41
0.003
 10
0.060205
 20
-2.472228
 40
0.003
 41
0.003
  0
LWPOLYLINE
  5
12D
100
AcDbEntity
  8
0
 62
   254
100
AcDbPolyline
 90
        2
 70
     0
 39
0.003
 10
0.060205
 20
-2.472228
 40
0.003
 41
0.003
 10
0.052925
 20
-2.473461
 40
0.003
 41
0.003
  0
LWPOLYLINE
  5
12E
100
AcDbEntity
  8
0
 62
   254
100
AcDbPolyline
 90
        2
 70
     0
 39
0.003
 10
0.052925
 20
-2.473461
 40
0.003
 41
0.003
 10
-0.620531
 20
-2.079248
 40
0.003
 41
0.003
  0
LWPOLYLINE
  5
12F
100
AcDbEntity
  8
0
 62
   254
100
AcDbPolyline
 90
        2
 70
     0
 39
0.003
 10
-0.620531
 20
-2.079248
 40
0.003
 41
0.003
 10
-0.613252
 20
-2.078016
 40
0.003
 41
0.003
  0
LWPOLYLINE
  5
130
100
AcDbEntity
  8
0
 62
   254
100
AcDbPolyline
 90
        2
 70
     0
 39
0.003
 10
-0.620531
 20
-2.079248
 40
0.003
 41
0.003
 10
0.052925
 20
-2.473461
 40
0.003
 41
0.003
  0
LWPOLYLINE
  5
131
100
AcDbEntity
  8
0
 62
   254
100
AcDbPolyline
 90
        2
 70
     0
 39
0.003
 10
0.052925
 20
-2.473461
 40
0.003
 41
0.003
 10
0.048472
 20
-2.474118
 40
0.003
 41
0.003
  0
LWPOLYLINE
  5
132
100
AcDbEntity
  8
0
 62
   254
100
AcDbPolyline
 90
        2
 70
     0
 39
0.003
 10
0.048472
 20
-2.474118
 40
0.003
 41
0.003
 10
-0.624984
 20
-2.079906
 40
0.003
 41
0.003
  0
LWPOLYLINE
  5
133
100
AcDbEntity
  8
0
 62
   254
100
AcDbPolyline
 90
        2
 70
     0
 39
0.003
 10
-0.624984
 20
-2.079906
 40
0.003
 41
0.003
 10
-0.620531
 20
-2.079248
 40
0.003
 41
0.003
  0
LWPOLYLINE
  5
134
100
AcDbEntity
  8
0
 62
   254
100
AcDbPolyline
 90
        2
 70
     0
 39
0.003
 10
-0.624984
 20
-2.079906
 40
0.003
 41
0.003
 10
0.048472
 20
-2.474118
 40
0.003
 41
0.003
  0
LWPOLYLINE
  5
135
100
AcDbEntity
  8
0
 62
   254
100
AcDbPolyline
 90
        2
 70
     0
 39
0.003
 10
0.048472
 20
-2.474118
 40
0.003
 41
0.003
 10
0.046957
 20
-2.474315
 40
0.003
 41
0.003
  0
LWPOLYLINE
  5
136
100
AcDbEntity
  8
0
 62
   254
100
AcDbPolyline
 90
        2
 70
     0
 39
0.003
 10
0.046957
 20
-2.474315
 40
0.003
 41
0.003
 10
-0.6265
 20
-2.080102
 40
0.003
 41
0.003
  0
LWPOLYLINE
  5
137
100
AcDbEntity
  8
0
 62
   254
100
AcDbPolyline
 90
        2
 70
     0
 39
0.003
 10
-0.6265
 20
-2.080102
 40
0.003
 41
0.003
 10
-0.624984
 20
-2.079906
 40
0.003
 41
0.003
  0
LWPOLYLINE
  5
138
100
AcDbEntity
  8
0
 62
     0
100
AcDbPolyline
 90
        2
 70
     0
 39
0.003
 10
2.125043
 20
0.341748
 40
0.003
 41
0.003
 10
2.7985
 20
-0.052465
 40
0.003
 41
0.003
  0
LWPOLYLINE
  5
139
100
AcDbEntity
  8
0
 62
     0
100
AcDbPolyline
 90
        2
 70
     0
 39
0.003
 10
2.7985
 20
-0.052465
 40
0.003
 41
0.003
 10
2.682484
 20
-0.079858
 40
0.003
 41
0.003
  0
LWPOLYLINE
  5
13A
100
AcDbEntity
  8
0
 62
     0
100
AcDbPolyline
 90
        2
 70
     0
 39
0.003
 10
2.682484
 20
-0.079858
 40
0.003
 41
0.003
 10
2.572787
 20
-0.10937
 40
0.003
 41
0.003
  0
LWPOLYLINE
  5
13B
100
AcDbEntity
  8
0
 62
     0
100
AcDbPolyline
 90
        2
 70
     0
 39
0.003
 10
2.572787
 20
-0.10937
 40
0.003
 41
0.003
 10
2.469146
 20
-0.140957
 40
0.003
 41
0.003
  0
LWPOLYLINE
  5
13C
100
AcDbEntity
  8
0
 62
     0
100
AcDbPolyline
 90
        2
 70
     0
 39
0.003
 10
2.469146
 20
-0.140957
 40
0.003
 41
0.003
 10
2.371315
 20
-0.174551
 40
0.003
 41
0.003
  0
LWPOLYLINE
  5
13D
100
AcDbEntity
  8
0
 62
     0
100
AcDbPolyline
 90
        2
 70
     0
 39
0.003
 10
2.371315
 20
-0.174551
 40
0.003
 41
0.003
 10
2.279035
 20
-0.21011
 40
0.003
 41
0.003
  0
LWPOLYLINE
  5
13E
100
AcDbEntity
  8
0
 62
     0
100
AcDbPolyline
 90
        2
 70
     0
 39
0.003
 10
2.279035
 20
-0.21011
 40
0.003
 41
0.003
 10
2.192067
 20
-0.247563
 40
0.003
 41
0.003
  0
LWPOLYLINE
  5
13F
100
AcDbEntity
  8
0
 62
     0
100
AcDbPolyline
 90
        2
 70
     0
 39
0.003
 10
2.192067
 20
-0.247563
 40
0.003
 41
0.003
 10
2.11015
 20
-0.286858
 40
0.003
 41
0.003
  0
LWPOLYLINE
  5
140
100
AcDbEntity
  8
0
 62
     0
100
AcDbPolyline
 90
        2
 70
     0
 39
0.003
 10
2.11015
 20
-0.286858
 40
0.003
 41
0.003
 10
2.033043
 20
-0.327929
 40
0.003
 41
0.003
  0
LWPOLYLINE
  5
141
100
AcDbEntity
  8
0
 62
     0
100
AcDbPolyline
 90
        2
 70
     0
 39
0.003
 10
2.033043
 20
-0.327929
 40
0.003
 41
0.003
 10
1.96048
 20
-0.370736
 40
0.003
 41
0.003
  0
LWPOLYLINE
  5
142
100
AcDbEntity
  8
0
 62
     0
100
AcDbPolyline
 90
        2
 70
     0
 39
0.003
 10
1.96048
 20
-0.370736
 40
0.003
 41
0.003
 10
1.892228
 20
-0.415209
 40
0.003
 41
0.003
  0
LWPOLYLINE
  5
143
100
AcDbEntity
  8
0
 62
     0
100
AcDbPolyline
 90
        2
 70
     0
 39
0.003
 10
1.892228
 20
-0.415209
 40
0.003
 41
0.003
 10
1.828024
 20
-0.461291
 40
0.003
 41
0.003
  0
LWPOLYLINE
  5
144
100
AcDbEntity
  8
0
 62
     0
100
AcDbPolyline
 90
        2
 70
     0
 39
0.003
 10
1.828024
 20
-0.461291
 40
0.003
 41
0.003
 10
1.767626
 20
-0.508937
 40
0.003
 41
0.003
  0
LWPOLYLINE
  5
145
100
AcDbEntity
  8
0
 62
     0
100
AcDbPolyline
 90
        2
 70
     0
 39
0.003
 10
1.767626
 20
-0.508937
 40
0.003
 41
0.003
 10
1.710772
 20
-0.558075
 40
0.003
 41
0.003
  0
LWPOLYLINE
  5
146
100
AcDbEntity
  8
0
 62
     0
100
AcDbPolyline
 90
        2
 70
     0
 39
0.003
 10
1.710772
 20
-0.558075
 40
0.003
 41
0.003
 10
1.657224
 20
-0.608657
 40
0.003
 41
0.003
  0
LWPOLYLINE
  5
147
100
AcDbEntity
  8
0
 62
     0
100
AcDbPolyline
 90
        2
 70
     0
 39
0.003
 10
1.657224
 20
-0.608657
 40
0.003
 41
0.003
 10
1.60672
 20
-0.660622
 40
0.003
 41
0.003
  0
LWPOLYLINE
  5
148
100
AcDbEntity
  8
0
 62
     0
100
AcDbPolyline
 90
        2
 70
     0
 39
0.003
 10
1.60672
 20
-0.660622
 40
0.003
 41
0.003
 10
1.55902
 20
-0.713917
 40
0.003
 41
0.003
  0
LWPOLYLINE
  5
149
100
AcDbEntity
  8
0
 62
     0
100
AcDbPolyline
 90
        2
 70
     0
 39
0.003
 10
1.55902
 20
-0.713917
 40
0.003
 41
0.003
 10
1.513858
 20
-0.768472
 40
0.003
 41
0.003
  0
LWPOLYLINE
  5
14A
100
AcDbEntity
  8
0
 62
     0
100
AcDbPolyline
 90
        2
 70
     0
 39
0.003
 10
1.513858
 20
-0.768472
 40
0.003
 41
0.003
 10
1.470996
 20
-0.824244
 40
0.003
 41
0.003
  0
LWPOLYLINE
  5
14B
100
AcDbEntity
  8
0
 62
     0
100
AcDbPolyline
 90
        2
 70
     0
 39
0.003
 10
1.470996
 20
-0.824244
 40
0.003
 41
0.003
 10
1.430181
 20
-0.881165
 40
0.003
 41
0.003
  0
LWPOLYLINE
  5
14C
100
AcDbEntity
  8
0
 62
     0
100
AcDbPolyline
 90
        2
 70
     0
 39
0.003
 10
1.430181
 20
-0.881165
 40
0.003
 41
0.003
 10
1.391165
 20
-0.939193
 40
0.003
 41
0.003
  0
LWPOLYLINE
  5
14D
100
AcDbEntity
  8
0
 62
     0
100
AcDbPolyline
 90
        2
 70
     0
 39
0.003
 10
1.391165
 20
-0.939193
 40
0.003
 41
0.003
 10
1.353685
 20
-0.998252
 40
0.003
 41
0.003
  0
LWPOLYLINE
  5
14E
100
AcDbEntity
  8
0
 62
     0
100
AcDbPolyline
 90
        2
 70
     0
 39
0.003
 10
1.353685
 20
-0.998252
 40
0.003
 41
0.003
 10
1.317508
 20
-1.058299
 40
0.003
 41
0.003
  0
LWPOLYLINE
  5
14F
100
AcDbEntity
  8
0
 62
     0
100
AcDbPolyline
 90
        2
 70
     0
 39
0.003
 10
1.317508
 20
-1.058299
 40
0.003
 41
0.003
 10
1.28237
 20
-1.119268
 40
0.003
 41
0.003
  0
LWPOLYLINE
  5
150
100
AcDbEntity
  8
0
 62
     0
100
AcDbPolyline
 90
        2
 70
     0
 39
0.003
 10
1.28237
 20
-1.119268
 40
0.003
 41
0.003
 10
1.248028
 20
-1.18111
 40
0.003
 41
0.003
  0
LWPOLYLINE
  5
151
100
AcDbEntity
  8
0
 62
     0
100
AcDbPolyline
 90
        2
 70
     0
 39
0.003
 10
1.248028
 20
-1.18111
 40
0.003
 41
0.003
 10
1.214217
 20
-1.243756
 40
0.003
 41
0.003
  0
LWPOLYLINE
  5
152
100
AcDbEntity
  8
0
 62
     0
100
AcDbPolyline
 90
        2
 70
     0
 39
0.003
 10
1.214217
 20
-1.243756
 40
0.003
 41
0.003
 10
1.180705
 20
-1.307161
 40
0.003
 41
0.003
  0
LWPOLYLINE
  5
153
100
AcDbEntity
  8
0
 62
     0
100
AcDbPolyline
 90
        2
 70
     0
 39
0.003
 10
1.180705
 20
-1.307161
 40
0.003
 41
0.003
 10
1.147224
 20
-1.37126
 40
0.003
 41
0.003
  0
LWPOLYLINE
  5
154
100
AcDbEntity
  8
0
 62
     0
100
AcDbPolyline
 90
        2
 70
     0
 39
0.003
 10
1.147224
 20
-1.37126
 40
0.003
 41
0.003
 10
1.113543
 20
-1.436
 40
0.003
 41
0.003
  0
LWPOLYLINE
  5
155
100
AcDbEntity
  8
0
 62
     0
100
AcDbPolyline
 90
        2
 70
     0
 39
0.003
 10
1.113543
 20
-1.436
 40
0.003
 41
0.003
 10
1.079394
 20
-1.501315
 40
0.003
 41
0.003
  0
LWPOLYLINE
  5
156
100
AcDbEntity
  8
0
 62
     0
100
AcDbPolyline
 90
        2
 70
     0
 39
0.003
 10
1.079394
 20
-1.501315
 40
0.003
 41
0.003
 10
1.044531
 20
-1.567165
 40
0.003
 41
0.003
  0
LWPOLYLINE
  5
157
100
AcDbEntity
  8
0
 62
     0
100
AcDbPolyline
 90
        2
 70
     0
 39
0.003
 10
1.044531
 20
-1.567165
 40
0.003
 41
0.003
 10
1.008709
 20
-1.633476
 40
0.003
 41
0.003
  0
LWPOLYLINE
  5
158
100
AcDbEntity
  8
0
 62
     0
100
AcDbPolyline
 90
        2
 70
     0
 39
0.003
 10
1.008709
 20
-1.633476
 40
0.003
 41
0.003
 10
0.971677
 20
-1.700205
 40
0.003
 41
0.003
  0
LWPOLYLINE
  5
159
100
AcDbEntity
  8
0
 62
     0
100
AcDbPolyline
 90
        2
 70
     0
 39
0.003
 10
0.971677
 20
-1.700205
 40
0.003
 41
0.003
 10
0.933614
 20
-1.765209
 40
0.003
 41
0.003
  0
LWPOLYLINE
  5
15A
100
AcDbEntity
  8
0
 62
     0
100
AcDbPolyline
 90
        2
 70
     0
 39
0.003
 10
0.933614
 20
-1.765209
 40
0.003
 41
0.003
 10
0.894969
 20
-1.826504
 40
0.003
 41
0.003
  0
LWPOLYLINE
  5
15B
100
AcDbEntity
  8
0
 62
     0
100
AcDbPolyline
 90
        2
 70
     0
 39
0.003
 10
0.894969
 20
-1.826504
 40
0.003
 41
0.003
 10
0.855854
 20
-1.884185
 40
0.003
 41
0.003
  0
LWPOLYLINE
  5
15C
100
AcDbEntity
  8
0
 62
     0
100
AcDbPolyline
 90
        2
 70
     0
 39
0.003
 10
0.855854
 20
-1.884185
 40
0.003
 41
0.003
 10
0.816398
 20
-1.938366
 40
0.003
 41
0.003
  0
LWPOLYLINE
  5
15D
100
AcDbEntity
  8
0
 62
     0
100
AcDbPolyline
 90
        2
 70
     0
 39
0.003
 10
0.816398
 20
-1.938366
 40
0.003
 41
0.003
 10
0.776701
 20
-1.98915
 40
0.003
 41
0.003
  0
LWPOLYLINE
  5
15E
100
AcDbEntity
  8
0
 62
     0
100
AcDbPolyline
 90
        2
 70
     0
 39
0.003
 10
0.776701
 20
-1.98915
 40
0.003
 41
0.003
 10
0.736894
 20
-2.036654
 40
0.003
 41
0.003
  0
LWPOLYLINE
  5
15F
100
AcDbEntity
  8
0
 62
     0
100
AcDbPolyline
 90
        2
 70
     0
 39
0.003
 10
0.736894
 20
-2.036654
 40
0.003
 41
0.003
 10
0.697091
 20
-2.080976
 40
0.003
 41
0.003
  0
LWPOLYLINE
  5
160
100
AcDbEntity
  8
0
 62
     0
100
AcDbPolyline
 90
        2
 70
     0
 39
0.003
 10
0.697091
 20
-2.080976
 40
0.003
 41
0.003
 10
0.657413
 20
-2.12224
 40
0.003
 41
0.003
  0
LWPOLYLINE
  5
161
100
AcDbEntity
  8
0
 62
     0
100
AcDbPolyline
 90
        2
 70
     0
 39
0.003
 10
0.657413
 20
-2.12224
 40
0.003
 41
0.003
 10
0.617972
 20
-2.160531
 40
0.003
 41
0.003
  0
LWPOLYLINE
  5
162
100
AcDbEntity
  8
0
 62
     0
100
AcDbPolyline
 90
        2
 70
     0
 39
0.003
 10
0.617972
 20
-2.160531
 40
0.003
 41
0.003
 10
0.578886
 20
-2.19598
 40
0.003
 41
0.003
  0
LWPOLYLINE
  5
163
100
AcDbEntity
  8
0
 62
     0
100
AcDbPolyline
 90
        2
 70
     0
 39
0.003
 10
0.578886
 20
-2.19598
 40
0.003
 41
0.003
 10
0.540272
 20
-2.228685
 40
0.003
 41
0.003
  0
LWPOLYLINE
  5
164
100
AcDbEntity
  8
0
 62
     0
100
AcDbPolyline
 90
        2
 70
     0
 39
0.003
 10
0.540272
 20
-2.228685
 40
0.003
 41
0.003
 10
0.502244
 20
-2.25876
 40
0.003
 41
0.003
  0
LWPOLYLINE
  5
165
100
AcDbEntity
  8
0
 62
     0
100
AcDbPolyline
 90
        2
 70
     0
 39
0.003
 10
0.502244
 20
-2.25876
 40
0.003
 41
0.003
 10
0.464929
 20
-2.286303
 40
0.003
 41
0.003
  0
LWPOLYLINE
  5
166
100
AcDbEntity
  8
0
 62
     0
100
AcDbPolyline
 90
        2
 70
     0
 39
0.003
 10
0.464929
 20
-2.286303
 40
0.003
 41
0.003
 10
0.428441
 20
-2.311437
 40
0.003
 41
0.003
  0
LWPOLYLINE
  5
167
100
AcDbEntity
  8
0
 62
     0
100
AcDbPolyline
 90
        2
 70
     0
 39
0.003
 10
0.428441
 20
-2.311437
 40
0.003
 41
0.003
 10
0.392898
 20
-2.33426
 40
0.003
 41
0.003
  0
LWPOLYLINE
  5
168
100
AcDbEntity
  8
0
 62
     0
100
AcDbPolyline
 90
        2
 70
     0
 39
0.003
 10
0.392898
 20
-2.33426
 40
0.003
 41
0.003
 10
0.358406
 20
-2.354886
 40
0.003
 41
0.003
  0
LWPOLYLINE
  5
169
100
AcDbEntity
  8
0
 62
     0
100
AcDbPolyline
 90
        2
 70
     0
 39
0.003
 10
0.358406
 20
-2.354886
 40
0.003
 41
0.003
 10
0.325106
 20
-2.373413
 40
0.003
 41
0.003
  0
LWPOLYLINE
  5
16A
100
AcDbEntity
  8
0
 62
     0
100
AcDbPolyline
 90
        2
 70
     0
 39
0.003
 10
0.325106
 20
-2.373413
 40
0.003
 41
0.003
 10
0.293098
 20
-2.389965
 40
0.003
 41
0.003
  0
LWPOLYLINE
  5
16B
100
AcDbEntity
  8
0
 62
     0
100
AcDbPolyline
 90
        2
 70
     0
 39
0.003
 10
0.293098
 20
-2.389965
 40
0.003
 41
0.003
 10
0.262504
 20
-2.404638
 40
0.003
 41
0.003
  0
LWPOLYLINE
  5
16C
100
AcDbEntity
  8
0
 62
     0
100
AcDbPolyline
 90
        2
 70
     0
 39
0.003
 10
0.262504
 20
-2.404638
 40
0.003
 41
0.003
 10
0.233437
 20
-2.417551
 40
0.003
 41
0.003
  0
LWPOLYLINE
  5
16D
100
AcDbEntity
  8
0
 62
     0
100
AcDbPolyline
 90
        2
 70
     0
 39
0.003
 10
0.233437
 20
-2.417551
 40
0.003
 41
0.003
 10
0.206028
 20
-2.428803
 40
0.003
 41
0.003
  0
LWPOLYLINE
  5
16E
100
AcDbEntity
  8
0
 62
     0
100
AcDbPolyline
 90
        2
 70
     0
 39
0.003
 10
0.206028
 20
-2.428803
 40
0.003
 41
0.003
 10
0.180382
 20
-2.438512
 40
0.003
 41
0.003
  0
LWPOLYLINE
  5
16F
100
AcDbEntity
  8
0
 62
     0
100
AcDbPolyline
 90
        2
 70
     0
 39
0.003
 10
0.180382
 20
-2.438512
 40
0.003
 41
0.003
 10
0.156618
 20
-2.446776
 40
0.003
 41
0.003
  0
LWPOLYLINE
  5
170
100
AcDbEntity
  8
0
 62
     0
100
AcDbPolyline
 90
        2
 70
     0
 39
0.003
 10
0.156618
 20
-2.446776
 40
0.003
 41
0.003
 10
0.134854
 20
-2.453717
 40
0.003
 41
0.003
  0
LWPOLYLINE
  5
171
100
AcDbEntity
  8
0
 62
     0
100
AcDbPolyline
 90
        2
 70
     0
 39
0.003
 10
0.134854
 20
-2.453717
 40
0.003
 41
0.003
 10
0.11522
 20
-2.459429
 40
0.003
 41
0.003
  0
LWPOLYLINE
  5
172
100
AcDbEntity
  8
0
 62
     0
100
AcDbPolyline
 90
        2
 70
     0
 39
0.003
 10
0.11522
 20
-2.459429
 40
0.003
 41
0.003
 10
0.097815
 20
-2.464028
 40
0.003
 41
0.003
  0
LWPOLYLINE
  5
173
100
AcDbEntity
  8
0
 62
     0
100
AcDbPolyline
 90
        2
 70
     0
 39
0.003
 10
0.097815
 20
-2.464028
 40
0.003
 41
0.003
 10
0.082768
 20
-2.467622
 40
0.003
 41
0.003
  0
LWPOLYLINE
  5
174
100
AcDbEntity
  8
0
 62
     0
100
AcDbPolyline
 90
        2
 70
     0
 39
0.003
 10
0.082768
 20
-2.467622
 40
0.003
 41
0.003
 10
0.070189
 20
-2.470323
 40
0.003
 41
0.003
  0
LWPOLYLINE
  5
175
100
AcDbEntity
  8
0
 62
     0
100
AcDbPolyline
 90
        2
 70
     0
 39
0.003
 10
0.070189
 20
-2.470323
 40
0.003
 41
0.003
 10
0.060205
 20
-2.472228
 40
0.003
 41
0.003
  0
LWPOLYLINE
  5
176
100
AcDbEntity
  8
0
 62
     0
100
AcDbPolyline
 90
        2
 70
     0
 39
0.003
 10
0.060205
 20
-2.472228
 40
0.003
 41
0.003
 10
0.052925
 20
-2.473461
 40
0.003
 41
0.003
  0
LWPOLYLINE
  5
177
100
AcDbEntity
  8
0
 62
     0
100
AcDbPolyline
 90
        2
 70
     0
 39
0.003
 10
0.052925
 20
-2.473461
 40
0.003
 41
0.003
 10
0.048472
 20
-2.474118
 40
0.003
 41
0.003
  0
LWPOLYLINE
  5
178
100
AcDbEntity
  8
0
 62
     0
100
AcDbPolyline
 90
        2
 70
     0
 39
0.003
 10
0.048472
 20
-2.474118
 40
0.003
 41
0.003
 10
0.046957
 20
-2.474315
 40
0.003
 41
0.003
  0
LWPOLYLINE
  5
179
100
AcDbEntity
  8
0
 62
     0
100
AcDbPolyline
 90
        2
 70
     0
 39
0.003
 10
0.046957
 20
-2.474315
 40
0.003
 41
0.003
 10
-0.6265
 20
-2.080102
 40
0.003
 41
0.003
  0
LWPOLYLINE
  5
17A
100
AcDbEntity
  8
0
 62
     0
100
AcDbPolyline
 90
        2
 70
     0
 39
0.003
 10
-0.6265
 20
-2.080102
 40
0.003
 41
0.003
 10
-0.624984
 20
-2.079906
 40
0.003
 41
0.003
  0
LWPOLYLINE
  5
17B
100
AcDbEntity
  8
0
 62
     0
100
AcDbPolyline
 90
        2
 70
     0
 39
0.003
 10
-0.624984
 20
-2.079906
 40
0.003
 41
0.003
 10
-0.620531
 20
-2.079248
 40
0.003
 41
0.003
  0
LWPOLYLINE
  5
17C
100
AcDbEntity
  8
0
 62
     0
100
AcDbPolyline
 90
        2
 70
     0
 39
0.003
 10
-0.620531
 20
-2.079248
 40
0.003
 41
0.003
 10
-0.613252
 20
-2.078016
 40
0.003
 41
0.003
  0
LWPOLYLINE
  5
17D
100
AcDbEntity
  8
0
 62
     0
100
AcDbPolyline
 90
        2
 70
     0
 39
0.003
 10
-0.613252
 20
-2.078016
 40
0.003
 41
0.003
 10
-0.603268
 20
-2.07611
 40
0.003
 41
0.003
  0
LWPOLYLINE
  5
17E
100
AcDbEntity
  8
0
 62
     0
100
AcDbPolyline
 90
        2
 70
     0
 39
0.003
 10
-0.603268
 20
-2.07611
 40
0.003
 41
0.003
 10
-0.590689
 20
-2.073409
 40
0.003
 41
0.003
  0
LWPOLYLINE
  5
17F
100
AcDbEntity
  8
0
 62
     0
100
AcDbPolyline
 90
        2
 70
     0
 39
0.003
 10
-0.590689
 20
-2.073409
 40
0.003
 41
0.003
 10
-0.575642
 20
-2.069815
 40
0.003
 41
0.003
  0
LWPOLYLINE
  5
180
100
AcDbEntity
  8
0
 62
     0
100
AcDbPolyline
 90
        2
 70
     0
 39
0.003
 10
-0.575642
 20
-2.069815
 40
0.003
 41
0.003
 10
-0.558236
 20
-2.065217
 40
0.003
 41
0.003
  0
LWPOLYLINE
  5
181
100
AcDbEntity
  8
0
 62
     0
100
AcDbPolyline
 90
        2
 70
     0
 39
0.003
 10
-0.558236
 20
-2.065217
 40
0.003
 41
0.003
 10
-0.538602
 20
-2.059504
 40
0.003
 41
0.003
  0
LWPOLYLINE
  5
182
100
AcDbEntity
  8
0
 62
     0
100
AcDbPolyline
 90
        2
 70
     0
 39
0.003
 10
-0.538602
 20
-2.059504
 40
0.003
 41
0.003
 10
-0.516839
 20
-2.052563
 40
0.003
 41
0.003
  0
LWPOLYLINE
  5
183
100
AcDbEntity
  8
0
 62
     0
100
AcDbPolyline
 90
        2
 70
     0
 39
0.003
 10
-0.516839
 20
-2.052563
 40
0.003
 41
0.003
 10
-0.493075
 20
-2.044299
 40
0.003
 41
0.003
  0
LWPOLYLINE
  5
184
100
AcDbEntity
  8
0
 62
     0
100
AcDbPolyline
 90
        2
 70
     0
 39
0.003
 10
-0.493075
 20
-2.044299
 40
0.003
 41
0.003
 10
-0.467429
 20
-2.034591
 40
0.003
 41
0.003
  0
LWPOLYLINE
  5
185
100
AcDbEntity
  8
0
 62
     0
100
AcDbPolyline
 90
        2
 70
     0
 39
0.003
 10
-0.467429
 20
-2.034591
 40
0.003
 41
0.003
 10
-0.44002
 20
-2.023339
 40
0.003
 41
0.003
  0
LWPOLYLINE
  5
186
100
AcDbEntity
  8
0
 62
     0
100
AcDbPolyline
 90
        2
 70
     0
 39
0.003
 10
-0.44002
 20
-2.023339
 40
0.003
 41
0.003
 10
-0.410953
 20
-2.010425
 40
0.003
 41
0.003
  0
LWPOLYLINE
  5
187
100
AcDbEntity
  8
0
 62
     0
100
AcDbPolyline
 90
        2
 70
     0
 39
0.003
 10
-0.410953
 20
-2.010425
 40
0.003
 41
0.003
 10
-0.380358
 20
-1.995752
 40
0.003
 41
0.003
  0
LWPOLYLINE
  5
188
100
AcDbEntity
  8
0
 62
     0
100
AcDbPolyline
 90
        2
 70
     0
 39
0.003
 10
-0.380358
 20
-1.995752
 40
0.003
 41
0.003
 10
-0.34835
 20
-1.979201
 40
0.003
 41
0.003
  0
LWPOLYLINE
  5
189
100
AcDbEntity
  8
0
 62
     0
100
AcDbPolyline
 90
        2
 70
     0
 39
0.003
 10
-0.34835
 20
-1.979201
 40
0.003
 41
0.003
 10
-0.315051
 20
-1.960673
 40
0.003
 41
0.003
  0
LWPOLYLINE
  5
18A
100
AcDbEntity
  8
0
 62
     0
100
AcDbPolyline
 90
        2
 70
     0
 39
0.003
 10
-0.315051
 20
-1.960673
 40
0.003
 41
0.003
 10
-0.280559
 20
-1.940047
 40
0.003
 41
0.003
  0
LWPOLYLINE
  5
18B
100
AcDbEntity
  8
0
 62
     0
100
AcDbPolyline
 90
        2
 70
     0
 39
0.003
 10
-0.280559
 20
-1.940047
 40
0.003
 41
0.003
 10
-0.245016
 20
-1.917224
 40
0.003
 41
0.003
  0
LWPOLYLINE
  5
18C
100
AcDbEntity
  8
0
 62
     0
100
AcDbPolyline
 90
        2
 70
     0
 39
0.003
 10
-0.245016
 20
-1.917224
 40
0.003
 41
0.003
 10
-0.208528
 20
-1.892091
 40
0.003
 41
0.003
  0
LWPOLYLINE
  5
18D
100
AcDbEntity
  8
0
 62
     0
100
AcDbPolyline
 90
        2
 70
     0
 39
0.003
 10
-0.208528
 20
-1.892091
 40
0.003
 41
0.003
 10
-0.171213
 20
-1.864547
 40
0.003
 41
0.003
  0
LWPOLYLINE
  5
18E
100
AcDbEntity
  8
0
 62
     0
100
AcDbPolyline
 90
        2
 70
     0
 39
0.003
 10
-0.171213
 20
-1.864547
 40
0.003
 41
0.003
 10
-0.133185
 20
-1.834472
 40
0.003
 41
0.003
  0
LWPOLYLINE
  5
18F
100
AcDbEntity
  8
0
 62
     0
100
AcDbPolyline
 90
        2
 70
     0
 39
0.003
 10
-0.133185
 20
-1.834472
 40
0.003
 41
0.003
 10
-0.094571
 20
-1.801768
 40
0.003
 41
0.003
  0
LWPOLYLINE
  5
190
100
AcDbEntity
  8
0
 62
     0
100
AcDbPolyline
 90
        2
 70
     0
 39
0.003
 10
-0.094571
 20
-1.801768
 40
0.003
 41
0.003
 10
-0.055484
 20
-1.766319
 40
0.003
 41
0.003
  0
LWPOLYLINE
  5
191
100
AcDbEntity
  8
0
 62
     0
100
AcDbPolyline
 90
        2
 70
     0
 39
0.003
 10
-0.055484
 20
-1.766319
 40
0.003
 41
0.003
 10
-0.016043
 20
-1.728028
 40
0.003
 41
0.003
  0
LWPOLYLINE
  5
192
100
AcDbEntity
  8
0
 62
     0
100
AcDbPolyline
 90
        2
 70
     0
 39
0.003
 10
-0.016043
 20
-1.728028
 40
0.003
 41
0.003
 10
0.023634
 20
-1.686764
 40
0.003
 41
0.003
  0
LWPOLYLINE
  5
193
100
AcDbEntity
  8
0
 62
     0
100
AcDbPolyline
 90
        2
 70
     0
 39
0.003
 10
0.023634
 20
-1.686764
 40
0.003
 41
0.003
 10
0.063437
 20
-1.642441
 40
0.003
 41
0.003
  0
LWPOLYLINE
  5
194
100
AcDbEntity
  8
0
 62
     0
100
AcDbPolyline
 90
        2
 70
     0
 39
0.003
 10
0.063437
 20
-1.642441
 40
0.003
 41
0.003
 10
0.103244
 20
-1.594937
 40
0.003
 41
0.003
  0
LWPOLYLINE
  5
195
100
AcDbEntity
  8
0
 62
     0
100
AcDbPolyline
 90
        2
 70
     0
 39
0.003
 10
0.103244
 20
-1.594937
 40
0.003
 41
0.003
 10
0.142941
 20
-1.544154
 40
0.003
 41
0.003
  0
LWPOLYLINE
  5
196
100
AcDbEntity
  8
0
 62
     0
100
AcDbPolyline
 90
        2
 70
     0
 39
0.003
 10
0.142941
 20
-1.544154
 40
0.003
 41
0.003
 10
0.182398
 20
-1.489972
 40
0.003
 41
0.003
  0
LWPOLYLINE
  5
197
100
AcDbEntity
  8
0
 62
     0
100
AcDbPolyline
 90
        2
 70
     0
 39
0.003
 10
0.182398
 20
-1.489972
 40
0.003
 41
0.003
 10
0.221512
 20
-1.432291
 40
0.003
 41
0.003
  0
LWPOLYLINE
  5
198
100
AcDbEntity
  8
0
 62
     0
100
AcDbPolyline
 90
        2
 70
     0
 39
0.003
 10
0.221512
 20
-1.432291
 40
0.003
 41
0.003
 10
0.260157
 20
-1.370996
 40
0.003
 41
0.003
  0
LWPOLYLINE
  5
199
100
AcDbEntity
  8
0
 62
     0
100
AcDbPolyline
 90
        2
 70
     0
 39
0.003
 10
0.260157
 20
-1.370996
 40
0.003
 41
0.003
 10
0.29822
 20
-1.305992
 40
0.003
 41
0.003
  0
LWPOLYLINE
  5
19A
100
AcDbEntity
  8
0
 62
     0
100
AcDbPolyline
 90
        2
 70
     0
 39
0.003
 10
0.29822
 20
-1.305992
 40
0.003
 41
0.003
 10
0.335252
 20
-1.239264
 40
0.003
 41
0.003
  0
LWPOLYLINE
  5
19B
100
AcDbEntity
  8
0
 62
     0
100
AcDbPolyline
 90
        2
 70
     0
 39
0.003
 10
0.335252
 20
-1.239264
 40
0.003
 41
0.003
 10
0.371075
 20
-1.172953
 40
0.003
 41
0.003
  0
LWPOLYLINE
  5
19C
100
AcDbEntity
  8
0
 62
     0
100
AcDbPolyline
 90
        2
 70
     0
 39
0.003
 10
0.371075
 20
-1.172953
 40
0.003
 41
0.003
 10
0.405937
 20
-1.107102
 40
0.003
 41
0.003
  0
LWPOLYLINE
  5
19D
100
AcDbEntity
  8
0
 62
     0
100
AcDbPolyline
 90
        2
 70
     0
 39
0.003
 10
0.405937
 20
-1.107102
 40
0.003
 41
0.003
 10
0.440087
 20
-1.041787
 40
0.003
 41
0.003
  0
LWPOLYLINE
  5
19E
100
AcDbEntity
  8
0
 62
     0
100
AcDbPolyline
 90
        2
 70
     0
 39
0.003
 10
0.440087
 20
-1.041787
 40
0.003
 41
0.003
 10
0.473768
 20
-0.977047
 40
0.003
 41
0.003
  0
LWPOLYLINE
  5
19F
100
AcDbEntity
  8
0
 62
     0
100
AcDbPolyline
 90
        2
 70
     0
 39
0.003
 10
0.473768
 20
-0.977047
 40
0.003
 41
0.003
 10
0.507248
 20
-0.912949
 40
0.003
 41
0.003
  0
LWPOLYLINE
  5
1A0
100
AcDbEntity
  8
0
 62
     0
100
AcDbPolyline
 90
        2
 70
     0
 39
0.003
 10
0.507248
 20
-0.912949
 40
0.003
 41
0.003
 10
0.54076
 20
-0.849543
 40
0.003
 41
0.003
  0
LWPOLYLINE
  5
1A1
100
AcDbEntity
  8
0
 62
     0
100
AcDbPolyline
 90
        2
 70
     0
 39
0.003
 10
0.54076
 20
-0.849543
 40
0.003
 41
0.003
 10
0.574571
 20
-0.786898
 40
0.003
 41
0.003
  0
LWPOLYLINE
  5
1A2
100
AcDbEntity
  8
0
 62
     0
100
AcDbPolyline
 90
        2
 70
     0
 39
0.003
 10
0.574571
 20
-0.786898
 40
0.003
 41
0.003
 10
0.608913
 20
-0.725055
 40
0.003
 41
0.003
  0
LWPOLYLINE
  5
1A3
100
AcDbEntity
  8
0
 62
     0
100
AcDbPolyline
 90
        2
 70
     0
 39
0.003
 10
0.608913
 20
-0.725055
 40
0.003
 41
0.003
 10
0.644051
 20
-0.664087
 40
0.003
 41
0.003
  0
LWPOLYLINE
  5
1A4
100
AcDbEntity
  8
0
 62
     0
100
AcDbPolyline
 90
        2
 70
     0
 39
0.003
 10
0.644051
 20
-0.664087
 40
0.003
 41
0.003
 10
0.680228
 20
-0.604039
 40
0.003
 41
0.003
  0
LWPOLYLINE
  5
1A5
100
AcDbEntity
  8
0
 62
     0
100
AcDbPolyline
 90
        2
 70
     0
 39
0.003
 10
0.680228
 20
-0.604039
 40
0.003
 41
0.003
 10
0.717709
 20
-0.54498
 40
0.003
 41
0.003
  0
LWPOLYLINE
  5
1A6
100
AcDbEntity
  8
0
 62
     0
100
AcDbPolyline
 90
        2
 70
     0
 39
0.003
 10
0.717709
 20
-0.54498
 40
0.003
 41
0.003
 10
0.756724
 20
-0.486953
 40
0.003
 41
0.003
  0
LWPOLYLINE
  5
1A7
100
AcDbEntity
  8
0
 62
     0
100
AcDbPolyline
 90
        2
 70
     0
 39
0.003
 10
0.756724
 20
-0.486953
 40
0.003
 41
0.003
 10
0.797539
 20
-0.430031
 40
0.003
 41
0.003
  0
LWPOLYLINE
  5
1A8
100
AcDbEntity
  8
0
 62
     0
100
AcDbPolyline
 90
        2
 70
     0
 39
0.003
 10
0.797539
 20
-0.430031
 40
0.003
 41
0.003
 10
0.840402
 20
-0.37426
 40
0.003
 41
0.003
  0
LWPOLYLINE
  5
1A9
100
AcDbEntity
  8
0
 62
     0
100
AcDbPolyline
 90
        2
 70
     0
 39
0.003
 10
0.840402
 20
-0.37426
 40
0.003
 41
0.003
 10
0.885563
 20
-0.319705
 40
0.003
 41
0.003
  0
LWPOLYLINE
  5
1AA
100
AcDbEntity
  8
0
 62
     0
100
AcDbPolyline
 90
        2
 70
     0
 39
0.003
 10
0.885563
 20
-0.319705
 40
0.003
 41
0.003
 10
0.933264
 20
-0.266409
 40
0.003
 41
0.003
  0
LWPOLYLINE
  5
1AB
100
AcDbEntity
  8
0
 62
     0
100
AcDbPolyline
 90
        2
 70
     0
 39
0.003
 10
0.933264
 20
-0.266409
 40
0.003
 41
0.003
 10
0.983768
 20
-0.214445
 40
0.003
 41
0.003
  0
LWPOLYLINE
  5
1AC
100
AcDbEntity
  8
0
 62
     0
100
AcDbPolyline
 90
        2
 70
     0
 39
0.003
 10
0.983768
 20
-0.214445
 40
0.003
 41
0.003
 10
1.037315
 20
-0.163862
 40
0.003
 41
0.003
  0
LWPOLYLINE
  5
1AD
100
AcDbEntity
  8
0
 62
     0
100
AcDbPolyline
 90
        2
 70
     0
 39
0.003
 10
1.037315
 20
-0.163862
 40
0.003
 41
0.003
 10
1.094169
 20
-0.114724
 40
0.003
 41
0.003
  0
LWPOLYLINE
  5
1AE
100
AcDbEntity
  8
0
 62
     0
100
AcDbPolyline
 90
        2
 70
     0
 39
0.003
 10
1.094169
 20
-0.114724
 40
0.003
 41
0.003
 10
1.154567
 20
-0.067079
 40
0.003
 41
0.003
  0
LWPOLYLINE
  5
1AF
100
AcDbEntity
  8
0
 62
     0
100
AcDbPolyline
 90
        2
 70
     0
 39
0.003
 10
1.154567
 20
-0.067079
 40
0.003
 41
0.003
 10
1.218772
 20
-0.020996
 40
0.003
 41
0.003
  0
LWPOLYLINE
  5
1B0
100
AcDbEntity
  8
0
 62
     0
100
AcDbPolyline
 90
        2
 70
     0
 39
0.003
 10
1.218772
 20
-0.020996
 40
0.003
 41
0.003
 10
1.287024
 20
0.023476
 40
0.003
 41
0.003
  0
LWPOLYLINE
  5
1B1
100
AcDbEntity
  8
0
 62
     0
100
AcDbPolyline
 90
        2
 70
     0
 39
0.003
 10
1.287024
 20
0.023476
 40
0.003
 41
0.003
 10
1.359587
 20
0.066283
 40
0.003
 41
0.003
  0
LWPOLYLINE
  5
1B2
100
AcDbEntity
  8
0
 62
     0
100
AcDbPolyline
 90
        2
 70
     0
 39
0.003
 10
1.359587
 20
0.066283
 40
0.003
 41
0.003
 10
1.436693
 20
0.107354
 40
0.003
 41
0.003
  0
LWPOLYLINE
  5
1B3
100
AcDbEntity
  8
0
 62
     0
100
AcDbPolyline
 90
        2
 70
     0
 39
0.003
 10
1.436693
 20
0.107354
 40
0.003
 41
0.003
 10
1.51861
 20
0.14665
 40
0.003
 41
0.003
  0
LWPOLYLINE
  5
1B4
100
AcDbEntity
  8
0
 62
     0
100
AcDbPolyline
 90
        2
 70
     0
 39
0.003
 10
1.51861
 20
0.14665
 40
0.003
 41
0.003
 10
1.605579
 20
0.184102
 40
0.003
 41
0.003
  0
LWPOLYLINE
  5
1B5
100
AcDbEntity
  8
0
 62
     0
100
AcDbPolyline
 90
        2
 70
     0
 39
0.003
 10
1.605579
 20
0.184102
 40
0.003
 41
0.003
 10
1.697858
 20
0.219661
 40
0.003
 41
0.003
  0
LWPOLYLINE
  5
1B6
100
AcDbEntity
  8
0
 62
     0
100
AcDbPolyline
 90
        2
 70
     0
 39
0.003
 10
1.697858
 20
0.219661
 40
0.003
 41
0.003
 10
1.795689
 20
0.253256
 40
0.003
 41
0.003
  0
LWPOLYLINE
  5
1B7
100
AcDbEntity
  8
0
 62
     0
100
AcDbPolyline
 90
        2
 70
     0
 39
0.003
 10
1.795689
 20
0.253256
 40
0.003
 41
0.003
 10
1.899331
 20
0.284843
 40
0.003
 41
0.003
  0
LWPOLYLINE
  5
1B8
100
AcDbEntity
  8
0
 62
     0
100
AcDbPolyline
 90
        2
 70
     0
 39
0.003
 10
1.899331
 20
0.284843
 40
0.003
 41
0.003
 10
2.009028
 20
0.314354
 40
0.003
 41
0.003
  0
LWPOLYLINE
  5
1B9
100
AcDbEntity
  8
0
 62
     0
100
AcDbPolyline
 90
        2
 70
     0
 39
0.003
 10
2.009028
 20
0.314354
 40
0.003
 41
0.003
 10
2.125043
 20
0.341748
 40
0.003
 41
0.003
  0
LWPOLYLINE
  5
1BA
100
AcDbEntity
  8
0
 62
   127
100
AcDbPolyline
 90
        2
 70
     0
 39
0.003
 10
-0.683319
 20
-2.321378
 40
0.003
 41
0.003
 10
-0.009862
 20
-2.715591
 40
0.003
 41
0.003
  0
LWPOLYLINE
  5
1BB
100
AcDbEntity
  8
0
 62
   127
100
AcDbPolyline
 90
        2
 70
     0
 39
0.003
 10
-0.009862
 20
-2.715591
 40
0.003
 41
0.003
 10
-0.02022
 20
-2.710894
 40
0.003
 41
0.003
  0
LWPOLYLINE
  5
1BC
100
AcDbEntity
  8
0
 62
   127
100
AcDbPolyline
 90
        2
 70
     0
 39
0.003
 10
-0.02022
 20
-2.710894
 40
0.003
 41
0.003
 10
-0.693677
 20
-2.316681
 40
0.003
 41
0.003
  0
LWPOLYLINE
  5
1BD
100
AcDbEntity
  8
0
 62
   127
100
AcDbPolyline
 90
        2
 70
     0
 39
0.003
 10
-0.693677
 20
-2.316681
 40
0.003
 41
0.003
 10
-0.683319
 20
-2.321378
 40
0.003
 41
0.003
  0
LWPOLYLINE
  5
1BE
100
AcDbEntity
  8
0
 62
   253
100
AcDbPolyline
 90
        2
 70
     0
 39
0.003
 10
-0.693677
 20
-2.316681
 40
0.003
 41
0.003
 10
-0.02022
 20
-2.710894
 40
0.003
 41
0.003
  0
LWPOLYLINE
  5
1BF
100
AcDbEntity
  8
0
 62
   253
100
AcDbPolyline
 90
        2
 70
     0
 39
0.003
 10
-0.02022
 20
-2.710894
 40
0.003
 41
0.003
 10
-0.032976
 20
-2.706878
 40
0.003
 41
0.003
  0
LWPOLYLINE
  5
1C0
100
AcDbEntity
  8
0
 62
   253
100
AcDbPolyline
 90
        2
 70
     0
 39
0.003
 10
-0.032976
 20
-2.706878
 40
0.003
 41
0.003
 10
-0.706433
 20
-2.312665
 40
0.003
 41
0.003
  0
LWPOLYLINE
  5
1C1
100
AcDbEntity
  8
0
 62
   253
100
AcDbPolyline
 90
        2
 70
     0
 39
0.003
 10
-0.706433
 20
-2.312665
 40
0.003
 41
0.003
 10
-0.693677
 20
-2.316681
 40
0.003
 41
0.003
  0
LWPOLYLINE
  5
1C2
100
AcDbEntity
  8
0
 62
     9
100
AcDbPolyline
 90
        2
 70
     0
 39
0.003
 10
-0.706433
 20
-2.312665
 40
0.003
 41
0.003
 10
-0.032976
 20
-2.706878
 40
0.003
 41
0.003
  0
LWPOLYLINE
  5
1C3
100
AcDbEntity
  8
0
 62
     9
100
AcDbPolyline
 90
        2
 70
     0
 39
0.003
 10
-0.032976
 20
-2.706878
 40
0.003
 41
0.003
 10
-0.047961
 20
-2.70363
 40
0.003
 41
0.003
  0
LWPOLYLINE
  5
1C4
100
AcDbEntity
  8
0
 62
     9
100
AcDbPolyline
 90
        2
 70
     0
 39
0.003
 10
-0.047961
 20
-2.70363
 40
0.003
 41
0.003
 10
-0.721417
 20
-2.309417
 40
0.003
 41
0.003
  0
LWPOLYLINE
  5
1C5
100
AcDbEntity
  8
0
 62
     9
100
AcDbPolyline
 90
        2
 70
     0
 39
0.003
 10
-0.721417
 20
-2.309417
 40
0.003
 41
0.003
 10
-0.706433
 20
-2.312665
 40
0.003
 41
0.003
  0
LWPOLYLINE
  5
1C6
100
AcDbEntity
  8
0
 62
     9
100
AcDbPolyline
 90
        2
 70
     0
 39
0.003
 10
-0.721417
 20
-2.309417
 40
0.003
 41
0.003
 10
-0.047961
 20
-2.70363
 40
0.003
 41
0.003
  0
LWPOLYLINE
  5
1C7
100
AcDbEntity
  8
0
 62
     9
100
AcDbPolyline
 90
        2
 70
     0
 39
0.003
 10
-0.047961
 20
-2.70363
 40
0.003
 41
0.003
 10
-0.064992
 20
-2.701201
 40
0.003
 41
0.003
  0
LWPOLYLINE
  5
1C8
100
AcDbEntity
  8
0
 62
     9
100
AcDbPolyline
 90
        2
 70
     0
 39
0.003
 10
-0.064992
 20
-2.701201
 40
0.003
 41
0.003
 10
-0.738449
 20
-2.306988
 40
0.003
 41
0.003
  0
LWPOLYLINE
  5
1C9
100
AcDbEntity
  8
0
 62
     9
100
AcDbPolyline
 90
        2
 70
     0
 39
0.003
 10
-0.738449
 20
-2.306988
 40
0.003
 41
0.003
 10
-0.721417
 20
-2.309417
 40
0.003
 41
0.003
  0
LWPOLYLINE
  5
1CA
100
AcDbEntity
  8
0
 62
     9
100
AcDbPolyline
 90
        2
 70
     0
 39
0.003
 10
-0.738449
 20
-2.306988
 40
0.003
 41
0.003
 10
-0.064992
 20
-2.701201
 40
0.003
 41
0.003
  0
LWPOLYLINE
  5
1CB
100
AcDbEntity
  8
0
 62
     9
100
AcDbPolyline
 90
        2
 70
     0
 39
0.003
 10
-0.064992
 20
-2.701201
 40
0.003
 41
0.003
 10
-0.083906
 20
-2.699681
 40
0.003
 41
0.003
  0
LWPOLYLINE
  5
1CC
100
AcDbEntity
  8
0
 62
     9
100
AcDbPolyline
 90
        2
 70
     0
 39
0.003
 10
-0.083906
 20
-2.699681
 40
0.003
 41
0.003
 10
-0.757362
 20
-2.305469
 40
0.003
 41
0.003
  0
LWPOLYLINE
  5
1CD
100
AcDbEntity
  8
0
 62
     9
100
AcDbPolyline
 90
        2
 70
     0
 39
0.003
 10
-0.757362
 20
-2.305469
 40
0.003
 41
0.003
 10
-0.738449
 20
-2.306988
 40
0.003
 41
0.003
  0
LWPOLYLINE
  5
1CE
100
AcDbEntity
  8
0
 62
     9
100
AcDbPolyline
 90
        2
 70
     0
 39
0.003
 10
-0.757362
 20
-2.305469
 40
0.003
 41
0.003
 10
-0.083906
 20
-2.699681
 40
0.003
 41
0.003
  0
LWPOLYLINE
  5
1CF
100
AcDbEntity
  8
0
 62
     9
100
AcDbPolyline
 90
        2
 70
     0
 39
0.003
 10
-0.083906
 20
-2.699681
 40
0.003
 41
0.003
 10
-0.104524
 20
-2.699134
 40
0.003
 41
0.003
  0
LWPOLYLINE
  5
1D0
100
AcDbEntity
  8
0
 62
     9
100
AcDbPolyline
 90
        2
 70
     0
 39
0.003
 10
-0.104524
 20
-2.699134
 40
0.003
 41
0.003
 10
-0.77798
 20
-2.304921
 40
0.003
 41
0.003
  0
LWPOLYLINE
  5
1D1
100
AcDbEntity
  8
0
 62
     9
100
AcDbPolyline
 90
        2
 70
     0
 39
0.003
 10
-0.77798
 20
-2.304921
 40
0.003
 41
0.003
 10
-0.757362
 20
-2.305469
 40
0.003
 41
0.003
  0
LWPOLYLINE
  5
1D2
100
AcDbEntity
  8
0
 62
   254
100
AcDbPolyline
 90
        2
 70
     0
 39
0.003
 10
-0.77798
 20
-2.304921
 40
0.003
 41
0.003
 10
-0.104524
 20
-2.699134
 40
0.003
 41
0.003
  0
LWPOLYLINE
  5
1D3
100
AcDbEntity
  8
0
 62
   254
100
AcDbPolyline
 90
        2
 70
     0
 39
0.003
 10
-0.104524
 20
-2.699134
 40
0.003
 41
0.003
 10
-0.126677
 20
-2.699646
 40
0.003
 41
0.003
  0
LWPOLYLINE
  5
1D4
100
AcDbEntity
  8
0
 62
   254
100
AcDbPolyline
 90
        2
 70
     0
 39
0.003
 10
-0.126677
 20
-2.699646
 40
0.003
 41
0.003
 10
-0.800134
 20
-2.305433
 40
0.003
 41
0.003
  0
LWPOLYLINE
  5
1D5
100
AcDbEntity
  8
0
 62
   254
100
AcDbPolyline
 90
        2
 70
     0
 39
0.003
 10
-0.800134
 20
-2.305433
 40
0.003
 41
0.003
 10
-0.77798
 20
-2.304921
 40
0.003
 41
0.003
  0
LWPOLYLINE
  5
1D6
100
AcDbEntity
  8
0
 62
   254
100
AcDbPolyline
 90
        2
 70
     0
 39
0.003
 10
-0.800134
 20
-2.305433
 40
0.003
 41
0.003
 10
-0.126677
 20
-2.699646
 40
0.003
 41
0.003
  0
LWPOLYLINE
  5
1D7
100
AcDbEntity
  8
0
 62
   254
100
AcDbPolyline
 90
        2
 70
     0
 39
0.003
 10
-0.126677
 20
-2.699646
 40
0.003
 41
0.003
 10
-0.150177
 20
-2.701268
 40
0.003
 41
0.003
  0
LWPOLYLINE
  5
1D8
100
AcDbEntity
  8
0
 62
   254
100
AcDbPolyline
 90
        2
 70
     0
 39
0.003
 10
-0.150177
 20
-2.701268
 40
0.003
 41
0.003
 10
-0.823634
 20
-2.307055
 40
0.003
 41
0.003
  0
LWPOLYLINE
  5
1D9
100
AcDbEntity
  8
0
 62
   254
100
AcDbPolyline
 90
        2
 70
     0
 39
0.003
 10
-0.823634
 20
-2.307055
 40
0.003
 41
0.003
 10
-0.800134
 20
-2.305433
 40
0.003
 41
0.003
  0
LWPOLYLINE
  5
1DA
100
AcDbEntity
  8
0
 62
   254
100
AcDbPolyline
 90
        2
 70
     0
 39
0.003
 10
-0.823634
 20
-2.307055
 40
0.003
 41
0.003
 10
-0.150177
 20
-2.701268
 40
0.003
 41
0.003
  0
LWPOLYLINE
  5
1DB
100
AcDbEntity
  8
0
 62
   254
100
AcDbPolyline
 90
        2
 70
     0
 39
0.003
 10
-0.150177
 20
-2.701268
 40
0.003
 41
0.003
 10
-0.17487
 20
-2.704087
 40
0.003
 41
0.003
  0
LWPOLYLINE
  5
1DC
100
AcDbEntity
  8
0
 62
   254
100
AcDbPolyline
 90
        2
 70
     0
 39
0.003
 10
-0.17487
 20
-2.704087
 40
0.003
 41
0.003
 10
-0.848327
 20
-2.309874
 40
0.003
 41
0.003
  0
LWPOLYLINE
  5
1DD
100
AcDbEntity
  8
0
 62
   254
100
AcDbPolyline
 90
        2
 70
     0
 39
0.003
 10
-0.848327
 20
-2.309874
 40
0.003
 41
0.003
 10
-0.823634
 20
-2.307055
 40
0.003
 41
0.003
  0
LWPOLYLINE
  5
1DE
100
AcDbEntity
  8
0
 62
   254
100
AcDbPolyline
 90
        2
 70
     0
 39
0.003
 10
-0.848327
 20
-2.309874
 40
0.003
 41
0.003
 10
-0.17487
 20
-2.704087
 40
0.003
 41
0.003
  0
LWPOLYLINE
  5
1DF
100
AcDbEntity
  8
0
 62
   254
100
AcDbPolyline
 90
        2
 70
     0
 39
0.003
 10
-0.17487
 20
-2.704087
 40
0.003
 41
0.003
 10
-0.200571
 20
-2.708169
 40
0.003
 41
0.003
  0
LWPOLYLINE
  5
1E0
100
AcDbEntity
  8
0
 62
   254
100
AcDbPolyline
 90
        2
 70
     0
 39
0.003
 10
-0.200571
 20
-2.708169
 40
0.003
 41
0.003
 10
-0.874028
 20
-2.313957
 40
0.003
 41
0.003
  0
LWPOLYLINE
  5
1E1
100
AcDbEntity
  8
0
 62
   254
100
AcDbPolyline
 90
        2
 70
     0
 39
0.003
 10
-0.874028
 20
-2.313957
 40
0.003
 41
0.003
 10
-0.848327
 20
-2.309874
 40
0.003
 41
0.003
  0
LWPOLYLINE
  5
1E2
100
AcDbEntity
  8
0
 62
   254
100
AcDbPolyline
 90
        2
 70
     0
 39
0.003
 10
-0.874028
 20
-2.313957
 40
0.003
 41
0.003
 10
-0.200571
 20
-2.708169
 40
0.003
 41
0.003
  0
LWPOLYLINE
  5
1E3
100
AcDbEntity
  8
0
 62
   254
100
AcDbPolyline
 90
        2
 70
     0
 39
0.003
 10
-0.200571
 20
-2.708169
 40
0.003
 41
0.003
 10
-0.227106
 20
-2.713602
 40
0.003
 41
0.003
  0
LWPOLYLINE
  5
1E4
100
AcDbEntity
  8
0
 62
   254
100
AcDbPolyline
 90
        2
 70
     0
 39
0.003
 10
-0.227106
 20
-2.713602
 40
0.003
 41
0.003
 10
-0.900563
 20
-2.31939
 40
0.003
 41
0.003
  0
LWPOLYLINE
  5
1E5
100
AcDbEntity
  8
0
 62
   254
100
AcDbPolyline
 90
        2
 70
     0
 39
0.003
 10
-0.900563
 20
-2.31939
 40
0.003
 41
0.003
 10
-0.874028
 20
-2.313957
 40
0.003
 41
0.003
  0
LWPOLYLINE
  5
1E6
100
AcDbEntity
  8
0
 62
   254
100
AcDbPolyline
 90
        2
 70
     0
 39
0.003
 10
-0.900563
 20
-2.31939
 40
0.003
 41
0.003
 10
-0.227106
 20
-2.713602
 40
0.003
 41
0.003
  0
LWPOLYLINE
  5
1E7
100
AcDbEntity
  8
0
 62
   254
100
AcDbPolyline
 90
        2
 70
     0
 39
0.003
 10
-0.227106
 20
-2.713602
 40
0.003
 41
0.003
 10
-0.254303
 20
-2.720441
 40
0.003
 41
0.003
  0
LWPOLYLINE
  5
1E8
100
AcDbEntity
  8
0
 62
   254
100
AcDbPolyline
 90
        2
 70
     0
 39
0.003
 10
-0.254303
 20
-2.720441
 40
0.003
 41
0.003
 10
-0.92776
 20
-2.326228
 40
0.003
 41
0.003
  0
LWPOLYLINE
  5
1E9
100
AcDbEntity
  8
0
 62
   254
100
AcDbPolyline
 90
        2
 70
     0
 39
0.003
 10
-0.92776
 20
-2.326228
 40
0.003
 41
0.003
 10
-0.900563
 20
-2.31939
 40
0.003
 41
0.003
  0
LWPOLYLINE
  5
1EA
100
AcDbEntity
  8
0
 62
   254
100
AcDbPolyline
 90
        2
 70
     0
 39
0.003
 10
-0.92776
 20
-2.326228
 40
0.003
 41
0.003
 10
-0.254303
 20
-2.720441
 40
0.003
 41
0.003
  0
LWPOLYLINE
  5
1EB
100
AcDbEntity
  8
0
 62
   254
100
AcDbPolyline
 90
        2
 70
     0
 39
0.003
 10
-0.254303
 20
-2.720441
 40
0.003
 41
0.003
 10
-0.281992
 20
-2.728772
 40
0.003
 41
0.003
  0
LWPOLYLINE
  5
1EC
100
AcDbEntity
  8
0
 62
   254
100
AcDbPolyline
 90
        2
 70
     0
 39
0.003
 10
-0.281992
 20
-2.728772
 40
0.003
 41
0.003
 10
-0.955449
 20
-2.334559
 40
0.003
 41
0.003
  0
LWPOLYLINE
  5
1ED
100
AcDbEntity
  8
0
 62
   254
100
AcDbPolyline
 90
        2
 70
     0
 39
0.003
 10
-0.955449
 20
-2.334559
 40
0.003
 41
0.003
 10
-0.92776
 20
-2.326228
 40
0.003
 41
0.003
  0
LWPOLYLINE
  5
1EE
100
AcDbEntity
  8
0
 62
   254
100
AcDbPolyline
 90
        2
 70
     0
 39
0.003
 10
-0.955449
 20
-2.334559
 40
0.003
 41
0.003
 10
-0.281992
 20
-2.728772
 40
0.003
 41
0.003
  0
LWPOLYLINE
  5
1EF
100
AcDbEntity
  8
0
 62
   254
100
AcDbPolyline
 90
        2
 70
     0
 39
0.003
 10
-0.281992
 20
-2.728772
 40
0.003
 41
0.003
 10
-0.309992
 20
-2.738657
 40
0.003
 41
0.003
  0
LWPOLYLINE
  5
1F0
100
AcDbEntity
  8
0
 62
   254
100
AcDbPolyline
 90
        2
 70
     0
 39
0.003
 10
-0.309992
 20
-2.738657
 40
0.003
 41
0.003
 10
-0.983449
 20
-2.344445
 40
0.003
 41
0.003
  0
LWPOLYLINE
  5
1F1
100
AcDbEntity
  8
0
 62
   254
100
AcDbPolyline
 90
        2
 70
     0
 39
0.003
 10
-0.983449
 20
-2.344445
 40
0.003
 41
0.003
 10
-0.955449
 20
-2.334559
 40
0.003
 41
0.003
  0
LWPOLYLINE
  5
1F2
100
AcDbEntity
  8
0
 62
   254
100
AcDbPolyline
 90
        2
 70
     0
 39
0.003
 10
-0.983449
 20
-2.344445
 40
0.003
 41
0.003
 10
-0.309992
 20
-2.738657
 40
0.003
 41
0.003
  0
LWPOLYLINE
  5
1F3
100
AcDbEntity
  8
0
 62
   254
100
AcDbPolyline
 90
        2
 70
     0
 39
0.003
 10
-0.309992
 20
-2.738657
 40
0.003
 41
0.003
 10
-0.338142
 20
-2.750177
 40
0.003
 41
0.003
  0
LWPOLYLINE
  5
1F4
100
AcDbEntity
  8
0
 62
   254
100
AcDbPolyline
 90
        2
 70
     0
 39
0.003
 10
-0.338142
 20
-2.750177
 40
0.003
 41
0.003
 10
-1.011598
 20
-2.355965
 40
0.003
 41
0.003
  0
LWPOLYLINE
  5
1F5
100
AcDbEntity
  8
0
 62
   254
100
AcDbPolyline
 90
        2
 70
     0
 39
0.003
 10
-1.011598
 20
-2.355965
 40
0.003
 41
0.003
 10
-0.983449
 20
-2.344445
 40
0.003
 41
0.003
  0
LWPOLYLINE
  5
1F6
100
AcDbEntity
  8
0
 62
   254
100
AcDbPolyline
 90
        2
 70
     0
 39
0.003
 10
-1.011598
 20
-2.355965
 40
0.003
 41
0.003
 10
-0.338142
 20
-2.750177
 40
0.003
 41
0.003
  0
LWPOLYLINE
  5
1F7
100
AcDbEntity
  8
0
 62
   254
100
AcDbPolyline
 90
        2
 70
     0
 39
0.003
 10
-0.338142
 20
-2.750177
 40
0.003
 41
0.003
 10
-0.366244
 20
-2.763394
 40
0.003
 41
0.003
  0
LWPOLYLINE
  5
1F8
100
AcDbEntity
  8
0
 62
   254
100
AcDbPolyline
 90
        2
 70
     0
 39
0.003
 10
-0.366244
 20
-2.763394
 40
0.003
 41
0.003
 10
-1.039701
 20
-2.369181
 40
0.003
 41
0.003
  0
LWPOLYLINE
  5
1F9
100
AcDbEntity
  8
0
 62
   254
100
AcDbPolyline
 90
        2
 70
     0
 39
0.003
 10
-1.039701
 20
-2.369181
 40
0.003
 41
0.003
 10
-1.011598
 20
-2.355965
 40
0.003
 41
0.003
  0
LWPOLYLINE
  5
1FA
100
AcDbEntity
  8
0
 62
   254
100
AcDbPolyline
 90
        2
 70
     0
 39
0.003
 10
-1.039701
 20
-2.369181
 40
0.003
 41
0.003
 10
-0.366244
 20
-2.763394
 40
0.003
 41
0.003
  0
LWPOLYLINE
  5
1FB
100
AcDbEntity
  8
0
 62
   254
100
AcDbPolyline
 90
        2
 70
     0
 39
0.003
 10
-0.366244
 20
-2.763394
 40
0.003
 41
0.003
 10
-0.39415
 20
-2.77839
 40
0.003
 41
0.003
  0
LWPOLYLINE
  5
1FC
100
AcDbEntity
  8
0
 62
   254
100
AcDbPolyline
 90
        2
 70
     0
 39
0.003
 10
-0.39415
 20
-2.77839
 40
0.003
 41
0.003
 10
-1.067606
 20
-2.384177
 40
0.003
 41
0.003
  0
LWPOLYLINE
  5
1FD
100
AcDbEntity
  8
0
 62
   254
100
AcDbPolyline
 90
        2
 70
     0
 39
0.003
 10
-1.067606
 20
-2.384177
 40
0.003
 41
0.003
 10
-1.039701
 20
-2.369181
 40
0.003
 41
0.003
  0
LWPOLYLINE
  5
1FE
100
AcDbEntity
  8
0
 62
   254
100
AcDbPolyline
 90
        2
 70
     0
 39
0.003
 10
-1.067606
 20
-2.384177
 40
0.003
 41
0.003
 10
-0.39415
 20
-2.77839
 40
0.003
 41
0.003
  0
LWPOLYLINE
  5
1FF
100
AcDbEntity
  8
0
 62
   254
100
AcDbPolyline
 90
        2
 70
     0
 39
0.003
 10
-0.39415
 20
-2.77839
 40
0.003
 41
0.003
 10
-0.421673
 20
-2.795236
 40
0.003
 41
0.003
  0
LWPOLYLINE
  5
200
100
AcDbEntity
  8
0
 62
   254
100
AcDbPolyline
 90
        2
 70
     0
 39
0.003
 10
-0.421673
 20
-2.795236
 40
0.003
 41
0.003
 10
-1.09513
 20
-2.401024
 40
0.003
 41
0.003
  0
LWPOLYLINE
  5
201
100
AcDbEntity
  8
0
 62
   254
100
AcDbPolyline
 90
        2
 70
     0
 39
0.003
 10
-1.09513
 20
-2.401024
 40
0.003
 41
0.003
 10
-1.067606
 20
-2.384177
 40
0.003
 41
0.003
  0
LWPOLYLINE
  5
202
100
AcDbEntity
  8
0
 62
   254
100
AcDbPolyline
 90
        2
 70
     0
 39
0.003
 10
-1.09513
 20
-2.401024
 40
0.003
 41
0.003
 10
-0.421673
 20
-2.795236
 40
0.003
 41
0.003
  0
LWPOLYLINE
  5
203
100
AcDbEntity
  8
0
 62
   254
100
AcDbPolyline
 90
        2
 70
     0
 39
0.003
 10
-0.421673
 20
-2.795236
 40
0.003
 41
0.003
 10
-0.448646
 20
-2.814008
 40
0.003
 41
0.003
  0
LWPOLYLINE
  5
204
100
AcDbEntity
  8
0
 62
   254
100
AcDbPolyline
 90
        2
 70
     0
 39
0.003
 10
-0.448646
 20
-2.814008
 40
0.003
 41
0.003
 10
-1.122102
 20
-2.419795
 40
0.003
 41
0.003
  0
LWPOLYLINE
  5
205
100
AcDbEntity
  8
0
 62
   254
100
AcDbPolyline
 90
        2
 70
     0
 39
0.003
 10
-1.122102
 20
-2.419795
 40
0.003
 41
0.003
 10
-1.09513
 20
-2.401024
 40
0.003
 41
0.003
  0
LWPOLYLINE
  5
206
100
AcDbEntity
  8
0
 62
   254
100
AcDbPolyline
 90
        2
 70
     0
 39
0.003
 10
-1.122102
 20
-2.419795
 40
0.003
 41
0.003
 10
-0.448646
 20
-2.814008
 40
0.003
 41
0.003
  0
LWPOLYLINE
  5
207
100
AcDbEntity
  8
0
 62
   254
100
AcDbPolyline
 90
        2
 70
     0
 39
0.003
 10
-0.448646
 20
-2.814008
 40
0.003
 41
0.003
 10
-0.474886
 20
-2.834768
 40
0.003
 41
0.003
  0
LWPOLYLINE
  5
208
100
AcDbEntity
  8
0
 62
   254
100
AcDbPolyline
 90
        2
 70
     0
 39
0.003
 10
-0.474886
 20
-2.834768
 40
0.003
 41
0.003
 10
-1.148343
 20
-2.440555
 40
0.003
 41
0.003
  0
LWPOLYLINE
  5
209
100
AcDbEntity
  8
0
 62
   254
100
AcDbPolyline
 90
        2
 70
     0
 39
0.003
 10
-1.148343
 20
-2.440555
 40
0.003
 41
0.003
 10
-1.122102
 20
-2.419795
 40
0.003
 41
0.003
  0
LWPOLYLINE
  5
20A
100
AcDbEntity
  8
0
 62
   254
100
AcDbPolyline
 90
        2
 70
     0
 39
0.003
 10
-1.148343
 20
-2.440555
 40
0.003
 41
0.003
 10
-0.474886
 20
-2.834768
 40
0.003
 41
0.003
  0
LWPOLYLINE
  5
20B
100
AcDbEntity
  8
0
 62
   254
100
AcDbPolyline
 90
        2
 70
     0
 39
0.003
 10
-0.474886
 20
-2.834768
 40
0.003
 41
0.003
 10
-0.500228
 20
-2.857602
 40
0.003
 41
0.003
  0
LWPOLYLINE
  5
20C
100
AcDbEntity
  8
0
 62
   254
100
AcDbPolyline
 90
        2
 70
     0
 39
0.003
 10
-0.500228
 20
-2.857602
 40
0.003
 41
0.003
 10
-1.173685
 20
-2.46339
 40
0.003
 41
0.003
  0
LWPOLYLINE
  5
20D
100
AcDbEntity
  8
0
 62
   254
100
AcDbPolyline
 90
        2
 70
     0
 39
0.003
 10
-1.173685
 20
-2.46339
 40
0.003
 41
0.003
 10
-1.148343
 20
-2.440555
 40
0.003
 41
0.003
  0
LWPOLYLINE
  5
20E
100
AcDbEntity
  8
0
 62
   254
100
AcDbPolyline
 90
        2
 70
     0
 39
0.003
 10
-1.173685
 20
-2.46339
 40
0.003
 41
0.003
 10
-0.500228
 20
-2.857602
 40
0.003
 41
0.003
  0
LWPOLYLINE
  5
20F
100
AcDbEntity
  8
0
 62
   254
100
AcDbPolyline
 90
        2
 70
     0
 39
0.003
 10
-0.500228
 20
-2.857602
 40
0.003
 41
0.003
 10
-0.524492
 20
-2.882575
 40
0.003
 41
0.003
  0
LWPOLYLINE
  5
210
100
AcDbEntity
  8
0
 62
   254
100
AcDbPolyline
 90
        2
 70
     0
 39
0.003
 10
-0.524492
 20
-2.882575
 40
0.003
 41
0.003
 10
-1.197949
 20
-2.488362
 40
0.003
 41
0.003
  0
LWPOLYLINE
  5
211
100
AcDbEntity
  8
0
 62
   254
100
AcDbPolyline
 90
        2
 70
     0
 39
0.003
 10
-1.197949
 20
-2.488362
 40
0.003
 41
0.003
 10
-1.173685
 20
-2.46339
 40
0.003
 41
0.003
  0
LWPOLYLINE
  5
212
100
AcDbEntity
  8
0
 62
   254
100
AcDbPolyline
 90
        2
 70
     0
 39
0.003
 10
-1.197949
 20
-2.488362
 40
0.003
 41
0.003
 10
-0.524492
 20
-2.882575
 40
0.003
 41
0.003
  0
LWPOLYLINE
  5
213
100
AcDbEntity
  8
0
 62
   254
100
AcDbPolyline
 90
        2
 70
     0
 39
0.003
 10
-0.524492
 20
-2.882575
 40
0.003
 41
0.003
 10
-0.547516
 20
-2.909768
 40
0.003
 41
0.003
  0
LWPOLYLINE
  5
214
100
AcDbEntity
  8
0
 62
   254
100
AcDbPolyline
 90
        2
 70
     0
 39
0.003
 10
-0.547516
 20
-2.909768
 40
0.003
 41
0.003
 10
-1.220972
 20
-2.515555
 40
0.003
 41
0.003
  0
LWPOLYLINE
  5
215
100
AcDbEntity
  8
0
 62
   254
100
AcDbPolyline
 90
        2
 70
     0
 39
0.003
 10
-1.220972
 20
-2.515555
 40
0.003
 41
0.003
 10
-1.197949
 20
-2.488362
 40
0.003
 41
0.003
  0
LWPOLYLINE
  5
216
100
AcDbEntity
  8
0
 62
   254
100
AcDbPolyline
 90
        2
 70
     0
 39
0.003
 10
-1.220972
 20
-2.515555
 40
0.003
 41
0.003
 10
-0.547516
 20
-2.909768
 40
0.003
 41
0.003
  0
LWPOLYLINE
  5
217
100
AcDbEntity
  8
0
 62
   254
100
AcDbPolyline
 90
        2
 70
     0
 39
0.003
 10
-0.547516
 20
-2.909768
 40
0.003
 41
0.003
 10
-0.569106
 20
-2.939236
 40
0.003
 41
0.003
  0
LWPOLYLINE
  5
218
100
AcDbEntity
  8
0
 62
   254
100
AcDbPolyline
 90
        2
 70
     0
 39
0.003
 10
-0.569106
 20
-2.939236
 40
0.003
 41
0.003
 10
-1.242563
 20
-2.545024
 40
0.003
 41
0.003
  0
LWPOLYLINE
  5
219
100
AcDbEntity
  8
0
 62
   254
100
AcDbPolyline
 90
        2
 70
     0
 39
0.003
 10
-1.242563
 20
-2.545024
 40
0.003
 41
0.003
 10
-1.220972
 20
-2.515555
 40
0.003
 41
0.003
  0
LWPOLYLINE
  5
21A
100
AcDbEntity
  8
0
 62
   254
100
AcDbPolyline
 90
        2
 70
     0
 39
0.003
 10
-1.242563
 20
-2.545024
 40
0.003
 41
0.003
 10
-0.569106
 20
-2.939236
 40
0.003
 41
0.003
  0
LWPOLYLINE
  5
21B
100
AcDbEntity
  8
0
 62
   254
100
AcDbPolyline
 90
        2
 70
     0
 39
0.003
 10
-0.569106
 20
-2.939236
 40
0.003
 41
0.003
 10
-0.58911
 20
-2.971071
 40
0.003
 41
0.003
  0
LWPOLYLINE
  5
21C
100
AcDbEntity
  8
0
 62
   254
100
AcDbPolyline
 90
        2
 70
     0
 39
0.003
 10
-0.58911
 20
-2.971071
 40
0.003
 41
0.003
 10
-1.262567
 20
-2.576858
 40
0.003
 41
0.003
  0
LWPOLYLINE
  5
21D
100
AcDbEntity
  8
0
 62
   254
100
AcDbPolyline
 90
        2
 70
     0
 39
0.003
 10
-1.262567
 20
-2.576858
 40
0.003
 41
0.003
 10
-1.242563
 20
-2.545024
 40
0.003
 41
0.003
  0
LWPOLYLINE
  5
21E
100
AcDbEntity
  8
0
 62
   254
100
AcDbPolyline
 90
        2
 70
     0
 39
0.003
 10
-1.262567
 20
-2.576858
 40
0.003
 41
0.003
 10
-0.58911
 20
-2.971071
 40
0.003
 41
0.003
  0
LWPOLYLINE
  5
21F
100
AcDbEntity
  8
0
 62
   254
100
AcDbPolyline
 90
        2
 70
     0
 39
0.003
 10
-0.58911
 20
-2.971071
 40
0.003
 41
0.003
 10
-0.607339
 20
-3.005335
 40
0.003
 41
0.003
  0
LWPOLYLINE
  5
220
100
AcDbEntity
  8
0
 62
   254
100
AcDbPolyline
 90
        2
 70
     0
 39
0.003
 10
-0.607339
 20
-3.005335
 40
0.003
 41
0.003
 10
-1.280795
 20
-2.611122
 40
0.003
 41
0.003
  0
LWPOLYLINE
  5
221
100
AcDbEntity
  8
0
 62
   254
100
AcDbPolyline
 90
        2
 70
     0
 39
0.003
 10
-1.280795
 20
-2.611122
 40
0.003
 41
0.003
 10
-1.262567
 20
-2.576858
 40
0.003
 41
0.003
  0
LWPOLYLINE
  5
222
100
AcDbEntity
  8
0
 62
   254
100
AcDbPolyline
 90
        2
 70
     0
 39
0.003
 10
-1.280795
 20
-2.611122
 40
0.003
 41
0.003
 10
-0.607339
 20
-3.005335
 40
0.003
 41
0.003
  0
LWPOLYLINE
  5
223
100
AcDbEntity
  8
0
 62
   254
100
AcDbPolyline
 90
        2
 70
     0
 39
0.003
 10
-0.607339
 20
-3.005335
 40
0.003
 41
0.003
 10
-0.62363
 20
-3.04211
 40
0.003
 41
0.003
  0
LWPOLYLINE
  5
224
100
AcDbEntity
  8
0
 62
   254
100
AcDbPolyline
 90
        2
 70
     0
 39
0.003
 10
-0.62363
 20
-3.04211
 40
0.003
 41
0.003
 10
-1.297087
 20
-2.647898
 40
0.003
 41
0.003
  0
LWPOLYLINE
  5
225
100
AcDbEntity
  8
0
 62
   254
100
AcDbPolyline
 90
        2
 70
     0
 39
0.003
 10
-1.297087
 20
-2.647898
 40
0.003
 41
0.003
 10
-1.280795
 20
-2.611122
 40
0.003
 41
0.003
  0
LWPOLYLINE
  5
226
100
AcDbEntity
  8
0
 62
   254
100
AcDbPolyline
 90
        2
 70
     0
 39
0.003
 10
-1.297087
 20
-2.647898
 40
0.003
 41
0.003
 10
-0.62363
 20
-3.04211
 40
0.003
 41
0.003
  0
LWPOLYLINE
  5
227
100
AcDbEntity
  8
0
 62
   254
100
AcDbPolyline
 90
        2
 70
     0
 39
0.003
 10
-0.62363
 20
-3.04211
 40
0.003
 41
0.003
 10
-0.637799
 20
-3.081457
 40
0.003
 41
0.003
  0
LWPOLYLINE
  5
228
100
AcDbEntity
  8
0
 62
   254
100
AcDbPolyline
 90
        2
 70
     0
 39
0.003
 10
-0.637799
 20
-3.081457
 40
0.003
 41
0.003
 10
-1.311256
 20
-2.687244
 40
0.003
 41
0.003
  0
LWPOLYLINE
  5
229
100
AcDbEntity
  8
0
 62
   254
100
AcDbPolyline
 90
        2
 70
     0
 39
0.003
 10
-1.311256
 20
-2.687244
 40
0.003
 41
0.003
 10
-1.297087
 20
-2.647898
 40
0.003
 41
0.003
  0
LWPOLYLINE
  5
22A
100
AcDbEntity
  8
0
 62
   254
100
AcDbPolyline
 90
        2
 70
     0
 39
0.003
 10
-1.311256
 20
-2.687244
 40
0.003
 41
0.003
 10
-0.637799
 20
-3.081457
 40
0.003
 41
0.003
  0
LWPOLYLINE
  5
22B
100
AcDbEntity
  8
0
 62
   254
100
AcDbPolyline
 90
        2
 70
     0
 39
0.003
 10
-0.637799
 20
-3.081457
 40
0.003
 41
0.003
 10
-0.649681
 20
-3.123457
 40
0.003
 41
0.003
  0
LWPOLYLINE
  5
22C
100
AcDbEntity
  8
0
 62
   254
100
AcDbPolyline
 90
        2
 70
     0
 39
0.003
 10
-0.649681
 20
-3.123457
 40
0.003
 41
0.003
 10
-1.323138
 20
-2.729244
 40
0.003
 41
0.003
  0
LWPOLYLINE
  5
22D
100
AcDbEntity
  8
0
 62
   254
100
AcDbPolyline
 90
        2
 70
     0
 39
0.003
 10
-1.323138
 20
-2.729244
 40
0.003
 41
0.003
 10
-1.311256
 20
-2.687244
 40
0.003
 41
0.003
  0
LWPOLYLINE
  5
22E
100
AcDbEntity
  8
0
 62
   254
100
AcDbPolyline
 90
        2
 70
     0
 39
0.003
 10
-1.323138
 20
-2.729244
 40
0.003
 41
0.003
 10
-0.649681
 20
-3.123457
 40
0.003
 41
0.003
  0
LWPOLYLINE
  5
22F
100
AcDbEntity
  8
0
 62
   254
100
AcDbPolyline
 90
        2
 70
     0
 39
0.003
 10
-0.649681
 20
-3.123457
 40
0.003
 41
0.003
 10
-0.659094
 20
-3.168177
 40
0.003
 41
0.003
  0
LWPOLYLINE
  5
230
100
AcDbEntity
  8
0
 62
   254
100
AcDbPolyline
 90
        2
 70
     0
 39
0.003
 10
-0.659094
 20
-3.168177
 40
0.003
 41
0.003
 10
-1.332551
 20
-2.773965
 40
0.003
 41
0.003
  0
LWPOLYLINE
  5
231
100
AcDbEntity
  8
0
 62
   254
100
AcDbPolyline
 90
        2
 70
     0
 39
0.003
 10
-1.332551
 20
-2.773965
 40
0.003
 41
0.003
 10
-1.323138
 20
-2.729244
 40
0.003
 41
0.003
  0
LWPOLYLINE
  5
232
100
AcDbEntity
  8
0
 62
   254
100
AcDbPolyline
 90
        2
 70
     0
 39
0.003
 10
-1.332551
 20
-2.773965
 40
0.003
 41
0.003
 10
-0.659094
 20
-3.168177
 40
0.003
 41
0.003
  0
LWPOLYLINE
  5
233
100
AcDbEntity
  8
0
 62
   254
100
AcDbPolyline
 90
        2
 70
     0
 39
0.003
 10
-0.659094
 20
-3.168177
 40
0.003
 41
0.003
 10
-0.665878
 20
-3.215697
 40
0.003
 41
0.003
  0
LWPOLYLINE
  5
234
100
AcDbEntity
  8
0
 62
   254
100
AcDbPolyline
 90
        2
 70
     0
 39
0.003
 10
-0.665878
 20
-3.215697
 40
0.003
 41
0.003
 10
-1.339335
 20
-2.821484
 40
0.003
 41
0.003
  0
LWPOLYLINE
  5
235
100
AcDbEntity
  8
0
 62
   254
100
AcDbPolyline
 90
        2
 70
     0
 39
0.003
 10
-1.339335
 20
-2.821484
 40
0.003
 41
0.003
 10
-1.332551
 20
-2.773965
 40
0.003
 41
0.003
  0
LWPOLYLINE
  5
236
100
AcDbEntity
  8
0
 62
     0
100
AcDbPolyline
 90
        2
 70
     0
 39
0.003
 10
-0.683319
 20
-2.321378
 40
0.003
 41
0.003
 10
-0.009862
 20
-2.715591
 40
0.003
 41
0.003
  0
LWPOLYLINE
  5
237
100
AcDbEntity
  8
0
 62
     0
100
AcDbPolyline
 90
        2
 70
     0
 39
0.003
 10
-0.009862
 20
-2.715591
 40
0.003
 41
0.003
 10
-0.02022
 20
-2.710894
 40
0.003
 41
0.003
  0
LWPOLYLINE
  5
238
100
AcDbEntity
  8
0
 62
     0
100
AcDbPolyline
 90
        2
 70
     0
 39
0.003
 10
-0.02022
 20
-2.710894
 40
0.003
 41
0.003
 10
-0.032976
 20
-2.706878
 40
0.003
 41
0.003
  0
LWPOLYLINE
  5
239
100
AcDbEntity
  8
0
 62
     0
100
AcDbPolyline
 90
        2
 70
     0
 39
0.003
 10
-0.032976
 20
-2.706878
 40
0.003
 41
0.003
 10
-0.047961
 20
-2.70363
 40
0.003
 41
0.003
  0
LWPOLYLINE
  5
23A
100
AcDbEntity
  8
0
 62
     0
100
AcDbPolyline
 90
        2
 70
     0
 39
0.003
 10
-0.047961
 20
-2.70363
 40
0.003
 41
0.003
 10
-0.064992
 20
-2.701201
 40
0.003
 41
0.003
  0
LWPOLYLINE
  5
23B
100
AcDbEntity
  8
0
 62
     0
100
AcDbPolyline
 90
        2
 70
     0
 39
0.003
 10
-0.064992
 20
-2.701201
 40
0.003
 41
0.003
 10
-0.083906
 20
-2.699681
 40
0.003
 41
0.003
  0
LWPOLYLINE
  5
23C
100
AcDbEntity
  8
0
 62
     0
100
AcDbPolyline
 90
        2
 70
     0
 39
0.003
 10
-0.083906
 20
-2.699681
 40
0.003
 41
0.003
 10
-0.104524
 20
-2.699134
 40
0.003
 41
0.003
  0
LWPOLYLINE
  5
23D
100
AcDbEntity
  8
0
 62
     0
100
AcDbPolyline
 90
        2
 70
     0
 39
0.003
 10
-0.104524
 20
-2.699134
 40
0.003
 41
0.003
 10
-0.126677
 20
-2.699646
 40
0.003
 41
0.003
  0
LWPOLYLINE
  5
23E
100
AcDbEntity
  8
0
 62
     0
100
AcDbPolyline
 90
        2
 70
     0
 39
0.003
 10
-0.126677
 20
-2.699646
 40
0.003
 41
0.003
 10
-0.150177
 20
-2.701268
 40
0.003
 41
0.003
  0
LWPOLYLINE
  5
23F
100
AcDbEntity
  8
0
 62
     0
100
AcDbPolyline
 90
        2
 70
     0
 39
0.003
 10
-0.150177
 20
-2.701268
 40
0.003
 41
0.003
 10
-0.17487
 20
-2.704087
 40
0.003
 41
0.003
  0
LWPOLYLINE
  5
240
100
AcDbEntity
  8
0
 62
     0
100
AcDbPolyline
 90
        2
 70
     0
 39
0.003
 10
-0.17487
 20
-2.704087
 40
0.003
 41
0.003
 10
-0.200571
 20
-2.708169
 40
0.003
 41
0.003
  0
LWPOLYLINE
  5
241
100
AcDbEntity
  8
0
 62
     0
100
AcDbPolyline
 90
        2
 70
     0
 39
0.003
 10
-0.200571
 20
-2.708169
 40
0.003
 41
0.003
 10
-0.227106
 20
-2.713602
 40
0.003
 41
0.003
  0
LWPOLYLINE
  5
242
100
AcDbEntity
  8
0
 62
     0
100
AcDbPolyline
 90
        2
 70
     0
 39
0.003
 10
-0.227106
 20
-2.713602
 40
0.003
 41
0.003
 10
-0.254303
 20
-2.720441
 40
0.003
 41
0.003
  0
LWPOLYLINE
  5
243
100
AcDbEntity
  8
0
 62
     0
100
AcDbPolyline
 90
        2
 70
     0
 39
0.003
 10
-0.254303
 20
-2.720441
 40
0.003
 41
0.003
 10
-0.281992
 20
-2.728772
 40
0.003
 41
0.003
  0
LWPOLYLINE
  5
244
100
AcDbEntity
  8
0
 62
     0
100
AcDbPolyline
 90
        2
 70
     0
 39
0.003
 10
-0.281992
 20
-2.728772
 40
0.003
 41
0.003
 10
-0.309992
 20
-2.738657
 40
0.003
 41
0.003
  0
LWPOLYLINE
  5
245
100
AcDbEntity
  8
0
 62
     0
100
AcDbPolyline
 90
        2
 70
     0
 39
0.003
 10
-0.309992
 20
-2.738657
 40
0.003
 41
0.003
 10
-0.338142
 20
-2.750177
 40
0.003
 41
0.003
  0
LWPOLYLINE
  5
246
100
AcDbEntity
  8
0
 62
     0
100
AcDbPolyline
 90
        2
 70
     0
 39
0.003
 10
-0.338142
 20
-2.750177
 40
0.003
 41
0.003
 10
-0.366244
 20
-2.763394
 40
0.003
 41
0.003
  0
LWPOLYLINE
  5
247
100
AcDbEntity
  8
0
 62
     0
100
AcDbPolyline
 90
        2
 70
     0
 39
0.003
 10
-0.366244
 20
-2.763394
 40
0.003
 41
0.003
 10
-0.39415
 20
-2.77839
 40
0.003
 41
0.003
  0
LWPOLYLINE
  5
248
100
AcDbEntity
  8
0
 62
     0
100
AcDbPolyline
 90
        2
 70
     0
 39
0.003
 10
-0.39415
 20
-2.77839
 40
0.003
 41
0.003
 10
-0.421673
 20
-2.795236
 40
0.003
 41
0.003
  0
LWPOLYLINE
  5
249
100
AcDbEntity
  8
0
 62
     0
100
AcDbPolyline
 90
        2
 70
     0
 39
0.003
 10
-0.421673
 20
-2.795236
 40
0.003
 41
0.003
 10
-0.448646
 20
-2.814008
 40
0.003
 41
0.003
  0
LWPOLYLINE
  5
24A
100
AcDbEntity
  8
0
 62
     0
100
AcDbPolyline
 90
        2
 70
     0
 39
0.003
 10
-0.448646
 20
-2.814008
 40
0.003
 41
0.003
 10
-0.474886
 20
-2.834768
 40
0.003
 41
0.003
  0
LWPOLYLINE
  5
24B
100
AcDbEntity
  8
0
 62
     0
100
AcDbPolyline
 90
        2
 70
     0
 39
0.003
 10
-0.474886
 20
-2.834768
 40
0.003
 41
0.003
 10
-0.500228
 20
-2.857602
 40
0.003
 41
0.003
  0
LWPOLYLINE
  5
24C
100
AcDbEntity
  8
0
 62
     0
100
AcDbPolyline
 90
        2
 70
     0
 39
0.003
 10
-0.500228
 20
-2.857602
 40
0.003
 41
0.003
 10
-0.524492
 20
-2.882575
 40
0.003
 41
0.003
  0
LWPOLYLINE
  5
24D
100
AcDbEntity
  8
0
 62
     0
100
AcDbPolyline
 90
        2
 70
     0
 39
0.003
 10
-0.524492
 20
-2.882575
 40
0.003
 41
0.003
 10
-0.547516
 20
-2.909768
 40
0.003
 41
0.003
  0
LWPOLYLINE
  5
24E
100
AcDbEntity
  8
0
 62
     0
100
AcDbPolyline
 90
        2
 70
     0
 39
0.003
 10
-0.547516
 20
-2.909768
 40
0.003
 41
0.003
 10
-0.569106
 20
-2.939236
 40
0.003
 41
0.003
  0
LWPOLYLINE
  5
24F
100
AcDbEntity
  8
0
 62
     0
100
AcDbPolyline
 90
        2
 70
     0
 39
0.003
 10
-0.569106
 20
-2.939236
 40
0.003
 41
0.003
 10
-0.58911
 20
-2.971071
 40
0.003
 41
0.003
  0
LWPOLYLINE
  5
250
100
AcDbEntity
  8
0
 62
     0
100
AcDbPolyline
 90
        2
 70
     0
 39
0.003
 10
-0.58911
 20
-2.971071
 40
0.003
 41
0.003
 10
-0.607339
 20
-3.005335
 40
0.003
 41
0.003
  0
LWPOLYLINE
  5
251
100
AcDbEntity
  8
0
 62
     0
100
AcDbPolyline
 90
        2
 70
     0
 39
0.003
 10
-0.607339
 20
-3.005335
 40
0.003
 41
0.003
 10
-0.62363
 20
-3.04211
 40
0.003
 41
0.003
  0
LWPOLYLINE
  5
252
100
AcDbEntity
  8
0
 62
     0
100
AcDbPolyline
 90
        2
 70
     0
 39
0.003
 10
-0.62363
 20
-3.04211
 40
0.003
 41
0.003
 10
-0.637799
 20
-3.081457
 40
0.003
 41
0.003
  0
LWPOLYLINE
  5
253
100
AcDbEntity
  8
0
 62
     0
100
AcDbPolyline
 90
        2
 70
     0
 39
0.003
 10
-0.637799
 20
-3.081457
 40
0.003
 41
0.003
 10
-0.649681
 20
-3.123457
 40
0.003
 41
0.003
  0
LWPOLYLINE
  5
254
100
AcDbEntity
  8
0
 62
     0
100
AcDbPolyline
 90
        2
 70
     0
 39
0.003
 10
-0.649681
 20
-3.123457
 40
0.003
 41
0.003
 10
-0.659094
 20
-3.168177
 40
0.003
 41
0.003
  0
LWPOLYLINE
  5
255
100
AcDbEntity
  8
0
 62
     0
100
AcDbPolyline
 90
        2
 70
     0
 39
0.003
 10
-0.659094
 20
-3.168177
 40
0.003
 41
0.003
 10
-0.665878
 20
-3.215697
 40
0.003
 41
0.003
  0
LWPOLYLINE
  5
256
100
AcDbEntity
  8
0
 62
     0
100
AcDbPolyline
 90
        2
 70
     0
 39
0.003
 10
-0.665878
 20
-3.215697
 40
0.003
 41
0.003
 10
-1.339335
 20
-2.821484
 40
0.003
 41
0.003
  0
LWPOLYLINE
  5
257
100
AcDbEntity
  8
0
 62
     0
100
AcDbPolyline
 90
        2
 70
     0
 39
0.003
 10
-1.339335
 20
-2.821484
 40
0.003
 41
0.003
 10
-1.332551
 20
-2.773965
 40
0.003
 41
0.003
  0
LWPOLYLINE
  5
258
100
AcDbEntity
  8
0
 62
     0
100
AcDbPolyline
 90
        2
 70
     0
 39
0.003
 10
-1.332551
 20
-2.773965
 40
0.003
 41
0.003
 10
-1.323138
 20
-2.729244
 40
0.003
 41
0.003
  0
LWPOLYLINE
  5
259
100
AcDbEntity
  8
0
 62
     0
100
AcDbPolyline
 90
        2
 70
     0
 39
0.003
 10
-1.323138
 20
-2.729244
 40
0.003
 41
0.003
 10
-1.311256
 20
-2.687244
 40
0.003
 41
0.003
  0
LWPOLYLINE
  5
25A
100
AcDbEntity
  8
0
 62
     0
100
AcDbPolyline
 90
        2
 70
     0
 39
0.003
 10
-1.311256
 20
-2.687244
 40
0.003
 41
0.003
 10
-1.297087
 20
-2.647898
 40
0.003
 41
0.003
  0
LWPOLYLINE
  5
25B
100
AcDbEntity
  8
0
 62
     0
100
AcDbPolyline
 90
        2
 70
     0
 39
0.003
 10
-1.297087
 20
-2.647898
 40
0.003
 41
0.003
 10
-1.280795
 20
-2.611122
 40
0.003
 41
0.003
  0
LWPOLYLINE
  5
25C
100
AcDbEntity
  8
0
 62
     0
100
AcDbPolyline
 90
        2
 70
     0
 39
0.003
 10
-1.280795
 20
-2.611122
 40
0.003
 41
0.003
 10
-1.262567
 20
-2.576858
 40
0.003
 41
0.003
  0
LWPOLYLINE
  5
25D
100
AcDbEntity
  8
0
 62
     0
100
AcDbPolyline
 90
        2
 70
     0
 39
0.003
 10
-1.262567
 20
-2.576858
 40
0.003
 41
0.003
 10
-1.242563
 20
-2.545024
 40
0.003
 41
0.003
  0
LWPOLYLINE
  5
25E
100
AcDbEntity
  8
0
 62
     0
100
AcDbPolyline
 90
        2
 70
     0
 39
0.003
 10
-1.242563
 20
-2.545024
 40
0.003
 41
0.003
 10
-1.220972
 20
-2.515555
 40
0.003
 41
0.003
  0
LWPOLYLINE
  5
25F
100
AcDbEntity
  8
0
 62
     0
100
AcDbPolyline
 90
        2
 70
     0
 39
0.003
 10
-1.220972
 20
-2.515555
 40
0.003
 41
0.003
 10
-1.197949
 20
-2.488362
 40
0.003
 41
0.003
  0
LWPOLYLINE
  5
260
100
AcDbEntity
  8
0
 62
     0
100
AcDbPolyline
 90
        2
 70
     0
 39
0.003
 10
-1.197949
 20
-2.488362
 40
0.003
 41
0.003
 10
-1.173685
 20
-2.46339
 40
0.003
 41
0.003
  0
LWPOLYLINE
  5
261
100
AcDbEntity
  8
0
 62
     0
100
AcDbPolyline
 90
        2
 70
     0
 39
0.003
 10
-1.173685
 20
-2.46339
 40
0.003
 41
0.003
 10
-1.148343
 20
-2.440555
 40
0.003
 41
0.003
  0
LWPOLYLINE
  5
262
100
AcDbEntity
  8
0
 62
     0
100
AcDbPolyline
 90
        2
 70
     0
 39
0.003
 10
-1.148343
 20
-2.440555
 40
0.003
 41
0.003
 10
-1.122102
 20
-2.419795
 40
0.003
 41
0.003
  0
LWPOLYLINE
  5
263
100
AcDbEntity
  8
0
 62
     0
100
AcDbPolyline
 90
        2
 70
     0
 39
0.003
 10
-1.122102
 20
-2.419795
 40
0.003
 41
0.003
 10
-1.09513
 20
-2.401024
 40
0.003
 41
0.003
  0
LWPOLYLINE
  5
264
100
AcDbEntity
  8
0
 62
     0
100
AcDbPolyline
 90
        2
 70
     0
 39
0.003
 10
-1.09513
 20
-2.401024
 40
0.003
 41
0.003
 10
-1.067606
 20
-2.384177
 40
0.003
 41
0.003
  0
LWPOLYLINE
  5
265
100
AcDbEntity
  8
0
 62
     0
100
AcDbPolyline
 90
        2
 70
     0
 39
0.003
 10
-1.067606
 20
-2.384177
 40
0.003
 41
0.003
 10
-1.039701
 20
-2.369181
 40
0.003
 41
0.003
  0
LWPOLYLINE
  5
266
100
AcDbEntity
  8
0
 62
     0
100
AcDbPolyline
 90
        2
 70
     0
 39
0.003
 10
-1.039701
 20
-2.369181
 40
0.003
 41
0.003
 10
-1.011598
 20
-2.355965
 40
0.003
 41
0.003
  0
LWPOLYLINE
  5
267
100
AcDbEntity
  8
0
 62
     0
100
AcDbPolyline
 90
        2
 70
     0
 39
0.003
 10
-1.011598
 20
-2.355965
 40
0.003
 41
0.003
 10
-0.983449
 20
-2.344445
 40
0.003
 41
0.003
  0
LWPOLYLINE
  5
268
100
AcDbEntity
  8
0
 62
     0
100
AcDbPolyline
 90
        2
 70
     0
 39
0.003
 10
-0.983449
 20
-2.344445
 40
0.003
 41
0.003
 10
-0.955449
 20
-2.334559
 40
0.003
 41
0.003
  0
LWPOLYLINE
  5
269
100
AcDbEntity
  8
0
 62
     0
100
AcDbPolyline
 90
        2
 70
     0
 39
0.003
 10
-0.955449
 20
-2.334559
 40
0.003
 41
0.003
 10
-0.92776
 20
-2.326228
 40
0.003
 41
0.003
  0
LWPOLYLINE
  5
26A
100
AcDbEntity
  8
0
 62
     0
100
AcDbPolyline
 90
        2
 70
     0
 39
0.003
 10
-0.92776
 20
-2.326228
 40
0.003
 41
0.003
 10
-0.900563
 20
-2.31939
 40
0.003
 41
0.003
  0
LWPOLYLINE
  5
26B
100
AcDbEntity
  8
0
 62
     0
100
AcDbPolyline
 90
        2
 70
     0
 39
0.003
 10
-0.900563
 20
-2.31939
 40
0.003
 41
0.003
 10
-0.874028
 20
-2.313957
 40
0.003
 41
0.003
  0
LWPOLYLINE
  5
26C
100
AcDbEntity
  8
0
 62
     0
100
AcDbPolyline
 90
        2
 70
     0
 39
0.003
 10
-0.874028
 20
-2.313957
 40
0.003
 41
0.003
 10
-0.848327
 20
-2.309874
 40
0.003
 41
0.003
  0
LWPOLYLINE
  5
26D
100
AcDbEntity
  8
0
 62
     0
100
AcDbPolyline
 90
        2
 70
     0
 39
0.003
 10
-0.848327
 20
-2.309874
 40
0.003
 41
0.003
 10
-0.823634
 20
-2.307055
 40
0.003
 41
0.003
  0
LWPOLYLINE
  5
26E
100
AcDbEntity
  8
0
 62
     0
100
AcDbPolyline
 90
        2
 70
     0
 39
0.003
 10
-0.823634
 20
-2.307055
 40
0.003
 41
0.003
 10
-0.800134
 20
-2.305433
 40
0.003
 41
0.003
  0
LWPOLYLINE
  5
26F
100
AcDbEntity
  8
0
 62
     0
100
AcDbPolyline
 90
        2
 70
     0
 39
0.003
 10
-0.800134
 20
-2.305433
 40
0.003
 41
0.003
 10
-0.77798
 20
-2.304921
 40
0.003
 41
0.003
  0
LWPOLYLINE
  5
270
100
AcDbEntity
  8
0
 62
     0
100
AcDbPolyline
 90
        2
 70
     0
 39
0.003
 10
-0.77798
 20
-2.304921
 40
0.003
 41
0.003
 10
-0.757362
 20
-2.305469
 40
0.003
 41
0.003
  0
LWPOLYLINE
  5
271
100
AcDbEntity
  8
0
 62
     0
100
AcDbPolyline
 90
        2
 70
     0
 39
0.003
 10
-0.757362
 20
-2.305469
 40
0.003
 41
0.003
 10
-0.738449
 20
-2.306988
 40
0.003
 41
0.003
  0
LWPOLYLINE
  5
272
100
AcDbEntity
  8
0
 62
     0
100
AcDbPolyline
 90
        2
 70
     0
 39
0.003
 10
-0.738449
 20
-2.306988
 40
0.003
 41
0.003
 10
-0.721417
 20
-2.309417
 40
0.003
 41
0.003
  0
LWPOLYLINE
  5
273
100
AcDbEntity
  8
0
 62
     0
100
AcDbPolyline
 90
        2
 70
     0
 39
0.003
 10
-0.721417
 20
-2.309417
 40
0.003
 41
0.003
 10
-0.706433
 20
-2.312665
 40
0.003
 41
0.003
  0
LWPOLYLINE
  5
274
100
AcDbEntity
  8
0
 62
     0
100
AcDbPolyline
 90
        2
 70
     0
 39
0.003
 10
-0.706433
 20
-2.312665
 40
0.003
 41
0.003
 10
-0.693677
 20
-2.316681
 40
0.003
 41
0.003
  0
LWPOLYLINE
  5
275
100
AcDbEntity
  8
0
 62
     0
100
AcDbPolyline
 90
        2
 70
     0
 39
0.003
 10
-0.693677
 20
-2.316681
 40
0.003
 41
0.003
 10
-0.683319
 20
-2.321378
 40
0.003
 41
0.003
  0
LWPOLYLINE
  5
276
100
AcDbEntity
  8
0
 62
   254
100
AcDbPolyline
 90
        2
 70
     0
 39
0.003
 10
-0.6265
 20
-2.080102
 40
0.003
 41
0.003
 10
0.046957
 20
-2.474315
 40
0.003
 41
0.003
  0
LWPOLYLINE
  5
277
100
AcDbEntity
  8
0
 62
   254
100
AcDbPolyline
 90
        2
 70
     0
 39
0.003
 10
0.046957
 20
-2.474315
 40
0.003
 41
0.003
 10
-0.002083
 20
-2.720906
 40
0.003
 41
0.003
  0
LWPOLYLINE
  5
278
100
AcDbEntity
  8
0
 62
   254
100
AcDbPolyline
 90
        2
 70
     0
 39
0.003
 10
-0.002083
 20
-2.720906
 40
0.003
 41
0.003
 10
-0.675539
 20
-2.326693
 40
0.003
 41
0.003
  0
LWPOLYLINE
  5
279
100
AcDbEntity
  8
0
 62
   254
100
AcDbPolyline
 90
        2
 70
     0
 39
0.003
 10
-0.675539
 20
-2.326693
 40
0.003
 41
0.003
 10
-0.6265
 20
-2.080102
 40
0.003
 41
0.003
  0
LWPOLYLINE
  5
27A
100
AcDbEntity
  8
0
 62
     0
100
AcDbPolyline
 90
        2
 70
     0
 39
0.003
 10
-0.6265
 20
-2.080102
 40
0.003
 41
0.003
 10
0.046957
 20
-2.474315
 40
0.003
 41
0.003
  0
LWPOLYLINE
  5
27B
100
AcDbEntity
  8
0
 62
     0
100
AcDbPolyline
 90
        2
 70
     0
 39
0.003
 10
0.046957
 20
-2.474315
 40
0.003
 41
0.003
 10
-0.002083
 20
-2.720906
 40
0.003
 41
0.003
  0
LWPOLYLINE
  5
27C
100
AcDbEntity
  8
0
 62
     0
100
AcDbPolyline
 90
        2
 70
     0
 39
0.003
 10
-0.002083
 20
-2.720906
 40
0.003
 41
0.003
 10
-0.675539
 20
-2.326693
 40
0.003
 41
0.003
  0
LWPOLYLINE
  5
27D
100
AcDbEntity
  8
0
 62
     0
100
AcDbPolyline
 90
        2
 70
     0
 39
0.003
 10
-0.675539
 20
-2.326693
 40
0.003
 41
0.003
 10
-0.6265
 20
-2.080102
 40
0.003
 41
0.003
  0
LWPOLYLINE
  5
27E
100
AcDbEntity
  8
0
 62
     9
100
AcDbPolyline
 90
        2
 70
     0
 39
0.003
 10
-1.339335
 20
-2.821484
 40
0.003
 41
0.003
 10
-0.665878
 20
-3.215697
 40
0.003
 41
0.003
  0
LWPOLYLINE
  5
27F
100
AcDbEntity
  8
0
 62
     9
100
AcDbPolyline
 90
        2
 70
     0
 39
0.003
 10
-0.665878
 20
-3.215697
 40
0.003
 41
0.003
 10
-1.036961
 20
-3.166693
 40
0.003
 41
0.003
  0
LWPOLYLINE
  5
280
100
AcDbEntity
  8
0
 62
     9
100
AcDbPolyline
 90
        2
 70
     0
 39
0.003
 10
-1.036961
 20
-3.166693
 40
0.003
 41
0.003
 10
-1.710417
 20
-2.77248
 40
0.003
 41
0.003
  0
LWPOLYLINE
  5
281
100
AcDbEntity
  8
0
 62
     9
100
AcDbPolyline
 90
        2
 70
     0
 39
0.003
 10
-1.710417
 20
-2.77248
 40
0.003
 41
0.003
 10
-1.339335
 20
-2.821484
 40
0.003
 41
0.003
  0
LWPOLYLINE
  5
282
100
AcDbEntity
  8
0
 62
     0
100
AcDbPolyline
 90
        2
 70
     0
 39
0.003
 10
-1.339335
 20
-2.821484
 40
0.003
 41
0.003
 10
-0.665878
 20
-3.215697
 40
0.003
 41
0.003
  0
LWPOLYLINE
  5
283
100
AcDbEntity
  8
0
 62
     0
100
AcDbPolyline
 90
        2
 70
     0
 39
0.003
 10
-0.665878
 20
-3.215697
 40
0.003
 41
0.003
 10
-1.036961
 20
-3.166693
 40
0.003
 41
0.003
  0
LWPOLYLINE
  5
284
100
AcDbEntity
  8
0
 62
     0
100
AcDbPolyline
 90
        2
 70
     0
 39
0.003
 10
-1.036961
 20
-3.166693
 40
0.003
 41
0.003
 10
-1.710417
 20
-2.77248
 40
0.003
 41
0.003
  0
LWPOLYLINE
  5
285
100
AcDbEntity
  8
0
 62
     0
100
AcDbPolyline
 90
        2
 70
     0
 39
0.003
 10
-1.710417
 20
-2.77248
 40
0.003
 41
0.003
 10
-1.339335
 20
-2.821484
 40
0.003
 41
0.003
  0
LWPOLYLINE
  5
286
100
AcDbEntity
  8
0
 62
   254
100
AcDbPolyline
 90
        2
 70
     0
 39
0.003
 10
2.324555
 20
0.977189
 40
0.003
 41
0.003
 10
2.998012
 20
0.582976
 40
0.003
 41
0.003
  0
LWPOLYLINE
  5
287
100
AcDbEntity
  8
0
 62
   254
100
AcDbPolyline
 90
        2
 70
     0
 39
0.003
 10
2.998012
 20
0.582976
 40
0.003
 41
0.003
 10
2.7985
 20
-0.052465
 40
0.003
 41
0.003
  0
LWPOLYLINE
  5
288
100
AcDbEntity
  8
0
 62
   254
100
AcDbPolyline
 90
        2
 70
     0
 39
0.003
 10
2.7985
 20
-0.052465
 40
0.003
 41
0.003
 10
2.125043
 20
0.341748
 40
0.003
 41
0.003
  0
LWPOLYLINE
  5
289
100
AcDbEntity
  8
0
 62
   254
100
AcDbPolyline
 90
        2
 70
     0
 39
0.003
 10
2.125043
 20
0.341748
 40
0.003
 41
0.003
 10
2.324555
 20
0.977189
 40
0.003
 41
0.003
  0
LWPOLYLINE
  5
28A
100
AcDbEntity
  8
0
 62
     0
100
AcDbPolyline
 90
        2
 70
     0
 39
0.003
 10
2.324555
 20
0.977189
 40
0.003
 41
0.003
 10
2.998012
 20
0.582976
 40
0.003
 41
0.003
  0
LWPOLYLINE
  5
28B
100
AcDbEntity
  8
0
 62
     0
100
AcDbPolyline
 90
        2
 70
     0
 39
0.003
 10
2.998012
 20
0.582976
 40
0.003
 41
0.003
 10
2.7985
 20
-0.052465
 40
0.003
 41
0.003
  0
LWPOLYLINE
  5
28C
100
AcDbEntity
  8
0
 62
     0
100
AcDbPolyline
 90
        2
 70
     0
 39
0.003
 10
2.7985
 20
-0.052465
 40
0.003
 41
0.003
 10
2.125043
 20
0.341748
 40
0.003
 41
0.003
  0
LWPOLYLINE
  5
28D
100
AcDbEntity
  8
0
 62
     0
100
AcDbPolyline
 90
        2
 70
     0
 39
0.003
 10
2.125043
 20
0.341748
 40
0.003
 41
0.003
 10
2.324555
 20
0.977189
 40
0.003
 41
0.003
  0
LWPOLYLINE
  5
28E
100
AcDbEntity
  8
0
 62
   254
100
AcDbPolyline
 90
        2
 70
     0
 39
0.003
 10
2.125043
 20
0.341748
 40
0.003
 41
0.003
 10
2.7985
 20
-0.052465
 40
0.003
 41
0.003
  0
LWPOLYLINE
  5
28F
100
AcDbEntity
  8
0
 62
   254
100
AcDbPolyline
 90
        2
 70
     0
 39
0.003
 10
2.7985
 20
-0.052465
 40
0.003
 41
0.003
 10
2.682484
 20
-0.079858
 40
0.003
 41
0.003
  0
LWPOLYLINE
  5
290
100
AcDbEntity
  8
0
 62
   254
100
AcDbPolyline
 90
        2
 70
     0
 39
0.003
 10
2.682484
 20
-0.079858
 40
0.003
 41
0.003
 10
2.009028
 20
0.314354
 40
0.003
 41
0.003
  0
LWPOLYLINE
  5
291
100
AcDbEntity
  8
0
 62
   254
100
AcDbPolyline
 90
        2
 70
     0
 39
0.003
 10
2.009028
 20
0.314354
 40
0.003
 41
0.003
 10
2.125043
 20
0.341748
 40
0.003
 41
0.003
  0
LWPOLYLINE
  5
292
100
AcDbEntity
  8
0
 62
   254
100
AcDbPolyline
 90
        2
 70
     0
 39
0.003
 10
2.009028
 20
0.314354
 40
0.003
 41
0.003
 10
2.682484
 20
-0.079858
 40
0.003
 41
0.003
  0
LWPOLYLINE
  5
293
100
AcDbEntity
  8
0
 62
   254
100
AcDbPolyline
 90
        2
 70
     0
 39
0.003
 10
2.682484
 20
-0.079858
 40
0.003
 41
0.003
 10
2.572787
 20
-0.10937
 40
0.003
 41
0.003
  0
LWPOLYLINE
  5
294
100
AcDbEntity
  8
0
 62
   254
100
AcDbPolyline
 90
        2
 70
     0
 39
0.003
 10
2.572787
 20
-0.10937
 40
0.003
 41
0.003
 10
1.899331
 20
0.284843
 40
0.003
 41
0.003
  0
LWPOLYLINE
  5
295
100
AcDbEntity
  8
0
 62
   254
100
AcDbPolyline
 90
        2
 70
     0
 39
0.003
 10
1.899331
 20
0.284843
 40
0.003
 41
0.003
 10
2.009028
 20
0.314354
 40
0.003
 41
0.003
  0
LWPOLYLINE
  5
296
100
AcDbEntity
  8
0
 62
   254
100
AcDbPolyline
 90
        2
 70
     0
 39
0.003
 10
1.899331
 20
0.284843
 40
0.003
 41
0.003
 10
2.572787
 20
-0.10937
 40
0.003
 41
0.003
  0
LWPOLYLINE
  5
297
100
AcDbEntity
  8
0
 62
   254
100
AcDbPolyline
 90
        2
 70
     0
 39
0.003
 10
2.572787
 20
-0.10937
 40
0.003
 41
0.003
 10
2.469146
 20
-0.140957
 40
0.003
 41
0.003
  0
LWPOLYLINE
  5
298
100
AcDbEntity
  8
0
 62
   254
100
AcDbPolyline
 90
        2
 70
     0
 39
0.003
 10
2.469146
 20
-0.140957
 40
0.003
 41
0.003
 10
1.795689
 20
0.253256
 40
0.003
 41
0.003
  0
LWPOLYLINE
  5
299
100
AcDbEntity
  8
0
 62
   254
100
AcDbPolyline
 90
        2
 70
     0
 39
0.003
 10
1.795689
 20
0.253256
 40
0.003
 41
0.003
 10
1.899331
 20
0.284843
 40
0.003
 41
0.003
  0
LWPOLYLINE
  5
29A
100
AcDbEntity
  8
0
 62
   254
100
AcDbPolyline
 90
        2
 70
     0
 39
0.003
 10
1.795689
 20
0.253256
 40
0.003
 41
0.003
 10
2.469146
 20
-0.140957
 40
0.003
 41
0.003
  0
LWPOLYLINE
  5
29B
100
AcDbEntity
  8
0
 62
   254
100
AcDbPolyline
 90
        2
 70
     0
 39
0.003
 10
2.469146
 20
-0.140957
 40
0.003
 41
0.003
 10
2.371315
 20
-0.174551
 40
0.003
 41
0.003
  0
LWPOLYLINE
  5
29C
100
AcDbEntity
  8
0
 62
   254
100
AcDbPolyline
 90
        2
 70
     0
 39
0.003
 10
2.371315
 20
-0.174551
 40
0.003
 41
0.003
 10
1.697858
 20
0.219661
 40
0.003
 41
0.003
  0
LWPOLYLINE
  5
29D
100
AcDbEntity
  8
0
 62
   254
100
AcDbPolyline
 90
        2
 70
     0
 39
0.003
 10
1.697858
 20
0.219661
 40
0.003
 41
0.003
 10
1.795689
 20
0.253256
 40
0.003
 41
0.003
  0
LWPOLYLINE
  5
29E
100
AcDbEntity
  8
0
 62
   254
100
AcDbPolyline
 90
        2
 70
     0
 39
0.003
 10
1.697858
 20
0.219661
 40
0.003
 41
0.003
 10
2.371315
 20
-0.174551
 40
0.003
 41
0.003
  0
LWPOLYLINE
  5
29F
100
AcDbEntity
  8
0
 62
   254
100
AcDbPolyline
 90
        2
 70
     0
 39
0.003
 10
2.371315
 20
-0.174551
 40
0.003
 41
0.003
 10
2.279035
 20
-0.21011
 40
0.003
 41
0.003
  0
LWPOLYLINE
  5
2A0
100
AcDbEntity
  8
0
 62
   254
100
AcDbPolyline
 90
        2
 70
     0
 39
0.003
 10
2.279035
 20
-0.21011
 40
0.003
 41
0.003
 10
1.605579
 20
0.184102
 40
0.003
 41
0.003
  0
LWPOLYLINE
  5
2A1
100
AcDbEntity
  8
0
 62
   254
100
AcDbPolyline
 90
        2
 70
     0
 39
0.003
 10
1.605579
 20
0.184102
 40
0.003
 41
0.003
 10
1.697858
 20
0.219661
 40
0.003
 41
0.003
  0
LWPOLYLINE
  5
2A2
100
AcDbEntity
  8
0
 62
   254
100
AcDbPolyline
 90
        2
 70
     0
 39
0.003
 10
1.605579
 20
0.184102
 40
0.003
 41
0.003
 10
2.279035
 20
-0.21011
 40
0.003
 41
0.003
  0
LWPOLYLINE
  5
2A3
100
AcDbEntity
  8
0
 62
   254
100
AcDbPolyline
 90
        2
 70
     0
 39
0.003
 10
2.279035
 20
-0.21011
 40
0.003
 41
0.003
 10
2.192067
 20
-0.247563
 40
0.003
 41
0.003
  0
LWPOLYLINE
  5
2A4
100
AcDbEntity
  8
0
 62
   254
100
AcDbPolyline
 90
        2
 70
     0
 39
0.003
 10
2.192067
 20
-0.247563
 40
0.003
 41
0.003
 10
1.51861
 20
0.14665
 40
0.003
 41
0.003
  0
LWPOLYLINE
  5
2A5
100
AcDbEntity
  8
0
 62
   254
100
AcDbPolyline
 90
        2
 70
     0
 39
0.003
 10
1.51861
 20
0.14665
 40
0.003
 41
0.003
 10
1.605579
 20
0.184102
 40
0.003
 41
0.003
  0
LWPOLYLINE
  5
2A6
100
AcDbEntity
  8
0
 62
   254
100
AcDbPolyline
 90
        2
 70
     0
 39
0.003
 10
1.51861
 20
0.14665
 40
0.003
 41
0.003
 10
2.192067
 20
-0.247563
 40
0.003
 41
0.003
  0
LWPOLYLINE
  5
2A7
100
AcDbEntity
  8
0
 62
   254
100
AcDbPolyline
 90
        2
 70
     0
 39
0.003
 10
2.192067
 20
-0.247563
 40
0.003
 41
0.003
 10
2.11015
 20
-0.286858
 40
0.003
 41
0.003
  0
LWPOLYLINE
  5
2A8
100
AcDbEntity
  8
0
 62
   254
100
AcDbPolyline
 90
        2
 70
     0
 39
0.003
 10
2.11015
 20
-0.286858
 40
0.003
 41
0.003
 10
1.436693
 20
0.107354
 40
0.003
 41
0.003
  0
LWPOLYLINE
  5
2A9
100
AcDbEntity
  8
0
 62
   254
100
AcDbPolyline
 90
        2
 70
     0
 39
0.003
 10
1.436693
 20
0.107354
 40
0.003
 41
0.003
 10
1.51861
 20
0.14665
 40
0.003
 41
0.003
  0
LWPOLYLINE
  5
2AA
100
AcDbEntity
  8
0
 62
   254
100
AcDbPolyline
 90
        2
 70
     0
 39
0.003
 10
1.436693
 20
0.107354
 40
0.003
 41
0.003
 10
2.11015
 20
-0.286858
 40
0.003
 41
0.003
  0
LWPOLYLINE
  5
2AB
100
AcDbEntity
  8
0
 62
   254
100
AcDbPolyline
 90
        2
 70
     0
 39
0.003
 10
2.11015
 20
-0.286858
 40
0.003
 41
0.003
 10
2.033043
 20
-0.327929
 40
0.003
 41
0.003
  0
LWPOLYLINE
  5
2AC
100
AcDbEntity
  8
0
 62
   254
100
AcDbPolyline
 90
        2
 70
     0
 39
0.003
 10
2.033043
 20
-0.327929
 40
0.003
 41
0.003
 10
1.359587
 20
0.066283
 40
0.003
 41
0.003
  0
LWPOLYLINE
  5
2AD
100
AcDbEntity
  8
0
 62
   254
100
AcDbPolyline
 90
        2
 70
     0
 39
0.003
 10
1.359587
 20
0.066283
 40
0.003
 41
0.003
 10
1.436693
 20
0.107354
 40
0.003
 41
0.003
  0
LWPOLYLINE
  5
2AE
100
AcDbEntity
  8
0
 62
   254
100
AcDbPolyline
 90
        2
 70
     0
 39
0.003
 10
1.359587
 20
0.066283
 40
0.003
 41
0.003
 10
2.033043
 20
-0.327929
 40
0.003
 41
0.003
  0
LWPOLYLINE
  5
2AF
100
AcDbEntity
  8
0
 62
   254
100
AcDbPolyline
 90
        2
 70
     0
 39
0.003
 10
2.033043
 20
-0.327929
 40
0.003
 41
0.003
 10
1.96048
 20
-0.370736
 40
0.003
 41
0.003
  0
LWPOLYLINE
  5
2B0
100
AcDbEntity
  8
0
 62
   254
100
AcDbPolyline
 90
        2
 70
     0
 39
0.003
 10
1.96048
 20
-0.370736
 40
0.003
 41
0.003
 10
1.287024
 20
0.023476
 40
0.003
 41
0.003
  0
LWPOLYLINE
  5
2B1
100
AcDbEntity
  8
0
 62
   254
100
AcDbPolyline
 90
        2
 70
     0
 39
0.003
 10
1.287024
 20
0.023476
 40
0.003
 41
0.003
 10
1.359587
 20
0.066283
 40
0.003
 41
0.003
  0
LWPOLYLINE
  5
2B2
100
AcDbEntity
  8
0
 62
   254
100
AcDbPolyline
 90
        2
 70
     0
 39
0.003
 10
1.287024
 20
0.023476
 40
0.003
 41
0.003
 10
1.96048
 20
-0.370736
 40
0.003
 41
0.003
  0
LWPOLYLINE
  5
2B3
100
AcDbEntity
  8
0
 62
   254
100
AcDbPolyline
 90
        2
 70
     0
 39
0.003
 10
1.96048
 20
-0.370736
 40
0.003
 41
0.003
 10
1.892228
 20
-0.415209
 40
0.003
 41
0.003
  0
LWPOLYLINE
  5
2B4
100
AcDbEntity
  8
0
 62
   254
100
AcDbPolyline
 90
        2
 70
     0
 39
0.003
 10
1.892228
 20
-0.415209
 40
0.003
 41
0.003
 10
1.218772
 20
-0.020996
 40
0.003
 41
0.003
  0
LWPOLYLINE
  5
2B5
100
AcDbEntity
  8
0
 62
   254
100
AcDbPolyline
 90
        2
 70
     0
 39
0.003
 10
1.218772
 20
-0.020996
 40
0.003
 41
0.003
 10
1.287024
 20
0.023476
 40
0.003
 41
0.003
  0
LWPOLYLINE
  5
2B6
100
AcDbEntity
  8
0
 62
   254
100
AcDbPolyline
 90
        2
 70
     0
 39
0.003
 10
1.218772
 20
-0.020996
 40
0.003
 41
0.003
 10
1.892228
 20
-0.415209
 40
0.003
 41
0.003
  0
LWPOLYLINE
  5
2B7
100
AcDbEntity
  8
0
 62
   254
100
AcDbPolyline
 90
        2
 70
     0
 39
0.003
 10
1.892228
 20
-0.415209
 40
0.003
 41
0.003
 10
1.828024
 20
-0.461291
 40
0.003
 41
0.003
  0
LWPOLYLINE
  5
2B8
100
AcDbEntity
  8
0
 62
   254
100
AcDbPolyline
 90
        2
 70
     0
 39
0.003
 10
1.828024
 20
-0.461291
 40
0.003
 41
0.003
 10
1.154567
 20
-0.067079
 40
0.003
 41
0.003
  0
LWPOLYLINE
  5
2B9
100
AcDbEntity
  8
0
 62
   254
100
AcDbPolyline
 90
        2
 70
     0
 39
0.003
 10
1.154567
 20
-0.067079
 40
0.003
 41
0.003
 10
1.218772
 20
-0.020996
 40
0.003
 41
0.003
  0
LWPOLYLINE
  5
2BA
100
AcDbEntity
  8
0
 62
   254
100
AcDbPolyline
 90
        2
 70
     0
 39
0.003
 10
1.154567
 20
-0.067079
 40
0.003
 41
0.003
 10
1.828024
 20
-0.461291
 40
0.003
 41
0.003
  0
LWPOLYLINE
  5
2BB
100
AcDbEntity
  8
0
 62
   254
100
AcDbPolyline
 90
        2
 70
     0
 39
0.003
 10
1.828024
 20
-0.461291
 40
0.003
 41
0.003
 10
1.767626
 20
-0.508937
 40
0.003
 41
0.003
  0
LWPOLYLINE
  5
2BC
100
AcDbEntity
  8
0
 62
   254
100
AcDbPolyline
 90
        2
 70
     0
 39
0.003
 10
1.767626
 20
-0.508937
 40
0.003
 41
0.003
 10
1.094169
 20
-0.114724
 40
0.003
 41
0.003
  0
LWPOLYLINE
  5
2BD
100
AcDbEntity
  8
0
 62
   254
100
AcDbPolyline
 90
        2
 70
     0
 39
0.003
 10
1.094169
 20
-0.114724
 40
0.003
 41
0.003
 10
1.154567
 20
-0.067079
 40
0.003
 41
0.003
  0
LWPOLYLINE
  5
2BE
100
AcDbEntity
  8
0
 62
   254
100
AcDbPolyline
 90
        2
 70
     0
 39
0.003
 10
1.094169
 20
-0.114724
 40
0.003
 41
0.003
 10
1.767626
 20
-0.508937
 40
0.003
 41
0.003
  0
LWPOLYLINE
  5
2BF
100
AcDbEntity
  8
0
 62
   254
100
AcDbPolyline
 90
        2
 70
     0
 39
0.003
 10
1.767626
 20
-0.508937
 40
0.003
 41
0.003
 10
1.710772
 20
-0.558075
 40
0.003
 41
0.003
  0
LWPOLYLINE
  5
2C0
100
AcDbEntity
  8
0
 62
   254
100
AcDbPolyline
 90
        2
 70
     0
 39
0.003
 10
1.710772
 20
-0.558075
 40
0.003
 41
0.003
 10
1.037315
 20
-0.163862
 40
0.003
 41
0.003
  0
LWPOLYLINE
  5
2C1
100
AcDbEntity
  8
0
 62
   254
100
AcDbPolyline
 90
        2
 70
     0
 39
0.003
 10
1.037315
 20
-0.163862
 40
0.003
 41
0.003
 10
1.094169
 20
-0.114724
 40
0.003
 41
0.003
  0
LWPOLYLINE
  5
2C2
100
AcDbEntity
  8
0
 62
   254
100
AcDbPolyline
 90
        2
 70
     0
 39
0.003
 10
1.037315
 20
-0.163862
 40
0.003
 41
0.003
 10
1.710772
 20
-0.558075
 40
0.003
 41
0.003
  0
LWPOLYLINE
  5
2C3
100
AcDbEntity
  8
0
 62
   254
100
AcDbPolyline
 90
        2
 70
     0
 39
0.003
 10
1.710772
 20
-0.558075
 40
0.003
 41
0.003
 10
1.657224
 20
-0.608657
 40
0.003
 41
0.003
  0
LWPOLYLINE
  5
2C4
100
AcDbEntity
  8
0
 62
   254
100
AcDbPolyline
 90
        2
 70
     0
 39
0.003
 10
1.657224
 20
-0.608657
 40
0.003
 41
0.003
 10
0.983768
 20
-0.214445
 40
0.003
 41
0.003
  0
LWPOLYLINE
  5
2C5
100
AcDbEntity
  8
0
 62
   254
100
AcDbPolyline
 90
        2
 70
     0
 39
0.003
 10
0.983768
 20
-0.214445
 40
0.003
 41
0.003
 10
1.037315
 20
-0.163862
 40
0.003
 41
0.003
  0
LWPOLYLINE
  5
2C6
100
AcDbEntity
  8
0
 62
   254
100
AcDbPolyline
 90
        2
 70
     0
 39
0.003
 10
0.983768
 20
-0.214445
 40
0.003
 41
0.003
 10
1.657224
 20
-0.608657
 40
0.003
 41
0.003
  0
LWPOLYLINE
  5
2C7
100
AcDbEntity
  8
0
 62
   254
100
AcDbPolyline
 90
        2
 70
     0
 39
0.003
 10
1.657224
 20
-0.608657
 40
0.003
 41
0.003
 10
1.60672
 20
-0.660622
 40
0.003
 41
0.003
  0
LWPOLYLINE
  5
2C8
100
AcDbEntity
  8
0
 62
   254
100
AcDbPolyline
 90
        2
 70
     0
 39
0.003
 10
1.60672
 20
-0.660622
 40
0.003
 41
0.003
 10
0.933264
 20
-0.266409
 40
0.003
 41
0.003
  0
LWPOLYLINE
  5
2C9
100
AcDbEntity
  8
0
 62
   254
100
AcDbPolyline
 90
        2
 70
     0
 39
0.003
 10
0.933264
 20
-0.266409
 40
0.003
 41
0.003
 10
0.983768
 20
-0.214445
 40
0.003
 41
0.003
  0
LWPOLYLINE
  5
2CA
100
AcDbEntity
  8
0
 62
   254
100
AcDbPolyline
 90
        2
 70
     0
 39
0.003
 10
0.933264
 20
-0.266409
 40
0.003
 41
0.003
 10
1.60672
 20
-0.660622
 40
0.003
 41
0.003
  0
LWPOLYLINE
  5
2CB
100
AcDbEntity
  8
0
 62
   254
100
AcDbPolyline
 90
        2
 70
     0
 39
0.003
 10
1.60672
 20
-0.660622
 40
0.003
 41
0.003
 10
1.55902
 20
-0.713917
 40
0.003
 41
0.003
  0
LWPOLYLINE
  5
2CC
100
AcDbEntity
  8
0
 62
   254
100
AcDbPolyline
 90
        2
 70
     0
 39
0.003
 10
1.55902
 20
-0.713917
 40
0.003
 41
0.003
 10
0.885563
 20
-0.319705
 40
0.003
 41
0.003
  0
LWPOLYLINE
  5
2CD
100
AcDbEntity
  8
0
 62
   254
100
AcDbPolyline
 90
        2
 70
     0
 39
0.003
 10
0.885563
 20
-0.319705
 40
0.003
 41
0.003
 10
0.933264
 20
-0.266409
 40
0.003
 41
0.003
  0
LWPOLYLINE
  5
2CE
100
AcDbEntity
  8
0
 62
   254
100
AcDbPolyline
 90
        2
 70
     0
 39
0.003
 10
0.885563
 20
-0.319705
 40
0.003
 41
0.003
 10
1.55902
 20
-0.713917
 40
0.003
 41
0.003
  0
LWPOLYLINE
  5
2CF
100
AcDbEntity
  8
0
 62
   254
100
AcDbPolyline
 90
        2
 70
     0
 39
0.003
 10
1.55902
 20
-0.713917
 40
0.003
 41
0.003
 10
1.513858
 20
-0.768472
 40
0.003
 41
0.003
  0
LWPOLYLINE
  5
2D0
100
AcDbEntity
  8
0
 62
   254
100
AcDbPolyline
 90
        2
 70
     0
 39
0.003
 10
1.513858
 20
-0.768472
 40
0.003
 41
0.003
 10
0.840402
 20
-0.37426
 40
0.003
 41
0.003
  0
LWPOLYLINE
  5
2D1
100
AcDbEntity
  8
0
 62
   254
100
AcDbPolyline
 90
        2
 70
     0
 39
0.003
 10
0.840402
 20
-0.37426
 40
0.003
 41
0.003
 10
0.885563
 20
-0.319705
 40
0.003
 41
0.003
  0
LWPOLYLINE
  5
2D2
100
AcDbEntity
  8
0
 62
   254
100
AcDbPolyline
 90
        2
 70
     0
 39
0.003
 10
0.840402
 20
-0.37426
 40
0.003
 41
0.003
 10
1.513858
 20
-0.768472
 40
0.003
 41
0.003
  0
LWPOLYLINE
  5
2D3
100
AcDbEntity
  8
0
 62
   254
100
AcDbPolyline
 90
        2
 70
     0
 39
0.003
 10
1.513858
 20
-0.768472
 40
0.003
 41
0.003
 10
1.470996
 20
-0.824244
 40
0.003
 41
0.003
  0
LWPOLYLINE
  5
2D4
100
AcDbEntity
  8
0
 62
   254
100
AcDbPolyline
 90
        2
 70
     0
 39
0.003
 10
1.470996
 20
-0.824244
 40
0.003
 41
0.003
 10
0.797539
 20
-0.430031
 40
0.003
 41
0.003
  0
LWPOLYLINE
  5
2D5
100
AcDbEntity
  8
0
 62
   254
100
AcDbPolyline
 90
        2
 70
     0
 39
0.003
 10
0.797539
 20
-0.430031
 40
0.003
 41
0.003
 10
0.840402
 20
-0.37426
 40
0.003
 41
0.003
  0
LWPOLYLINE
  5
2D6
100
AcDbEntity
  8
0
 62
   254
100
AcDbPolyline
 90
        2
 70
     0
 39
0.003
 10
0.797539
 20
-0.430031
 40
0.003
 41
0.003
 10
1.470996
 20
-0.824244
 40
0.003
 41
0.003
  0
LWPOLYLINE
  5
2D7
100
AcDbEntity
  8
0
 62
   254
100
AcDbPolyline
 90
        2
 70
     0
 39
0.003
 10
1.470996
 20
-0.824244
 40
0.003
 41
0.003
 10
1.430181
 20
-0.881165
 40
0.003
 41
0.003
  0
LWPOLYLINE
  5
2D8
100
AcDbEntity
  8
0
 62
   254
100
AcDbPolyline
 90
        2
 70
     0
 39
0.003
 10
1.430181
 20
-0.881165
 40
0.003
 41
0.003
 10
0.756724
 20
-0.486953
 40
0.003
 41
0.003
  0
LWPOLYLINE
  5
2D9
100
AcDbEntity
  8
0
 62
   254
100
AcDbPolyline
 90
        2
 70
     0
 39
0.003
 10
0.756724
 20
-0.486953
 40
0.003
 41
0.003
 10
0.797539
 20
-0.430031
 40
0.003
 41
0.003
  0
LWPOLYLINE
  5
2DA
100
AcDbEntity
  8
0
 62
   254
100
AcDbPolyline
 90
        2
 70
     0
 39
0.003
 10
0.756724
 20
-0.486953
 40
0.003
 41
0.003
 10
1.430181
 20
-0.881165
 40
0.003
 41
0.003
  0
LWPOLYLINE
  5
2DB
100
AcDbEntity
  8
0
 62
   254
100
AcDbPolyline
 90
        2
 70
     0
 39
0.003
 10
1.430181
 20
-0.881165
 40
0.003
 41
0.003
 10
1.391165
 20
-0.939193
 40
0.003
 41
0.003
  0
LWPOLYLINE
  5
2DC
100
AcDbEntity
  8
0
 62
   254
100
AcDbPolyline
 90
        2
 70
     0
 39
0.003
 10
1.391165
 20
-0.939193
 40
0.003
 41
0.003
 10
0.717709
 20
-0.54498
 40
0.003
 41
0.003
  0
LWPOLYLINE
  5
2DD
100
AcDbEntity
  8
0
 62
   254
100
AcDbPolyline
 90
        2
 70
     0
 39
0.003
 10
0.717709
 20
-0.54498
 40
0.003
 41
0.003
 10
0.756724
 20
-0.486953
 40
0.003
 41
0.003
  0
LWPOLYLINE
  5
2DE
100
AcDbEntity
  8
0
 62
   254
100
AcDbPolyline
 90
        2
 70
     0
 39
0.003
 10
0.717709
 20
-0.54498
 40
0.003
 41
0.003
 10
1.391165
 20
-0.939193
 40
0.003
 41
0.003
  0
LWPOLYLINE
  5
2DF
100
AcDbEntity
  8
0
 62
   254
100
AcDbPolyline
 90
        2
 70
     0
 39
0.003
 10
1.391165
 20
-0.939193
 40
0.003
 41
0.003
 10
1.353685
 20
-0.998252
 40
0.003
 41
0.003
  0
LWPOLYLINE
  5
2E0
100
AcDbEntity
  8
0
 62
   254
100
AcDbPolyline
 90
        2
 70
     0
 39
0.003
 10
1.353685
 20
-0.998252
 40
0.003
 41
0.003
 10
0.680228
 20
-0.604039
 40
0.003
 41
0.003
  0
LWPOLYLINE
  5
2E1
100
AcDbEntity
  8
0
 62
   254
100
AcDbPolyline
 90
        2
 70
     0
 39
0.003
 10
0.680228
 20
-0.604039
 40
0.003
 41
0.003
 10
0.717709
 20
-0.54498
 40
0.003
 41
0.003
  0
LWPOLYLINE
  5
2E2
100
AcDbEntity
  8
0
 62
   254
100
AcDbPolyline
 90
        2
 70
     0
 39
0.003
 10
0.680228
 20
-0.604039
 40
0.003
 41
0.003
 10
1.353685
 20
-0.998252
 40
0.003
 41
0.003
  0
LWPOLYLINE
  5
2E3
100
AcDbEntity
  8
0
 62
   254
100
AcDbPolyline
 90
        2
 70
     0
 39
0.003
 10
1.353685
 20
-0.998252
 40
0.003
 41
0.003
 10
1.317508
 20
-1.058299
 40
0.003
 41
0.003
  0
LWPOLYLINE
  5
2E4
100
AcDbEntity
  8
0
 62
   254
100
AcDbPolyline
 90
        2
 70
     0
 39
0.003
 10
1.317508
 20
-1.058299
 40
0.003
 41
0.003
 10
0.644051
 20
-0.664087
 40
0.003
 41
0.003
  0
LWPOLYLINE
  5
2E5
100
AcDbEntity
  8
0
 62
   254
100
AcDbPolyline
 90
        2
 70
     0
 39
0.003
 10
0.644051
 20
-0.664087
 40
0.003
 41
0.003
 10
0.680228
 20
-0.604039
 40
0.003
 41
0.003
  0
LWPOLYLINE
  5
2E6
100
AcDbEntity
  8
0
 62
   254
100
AcDbPolyline
 90
        2
 70
     0
 39
0.003
 10
0.644051
 20
-0.664087
 40
0.003
 41
0.003
 10
1.317508
 20
-1.058299
 40
0.003
 41
0.003
  0
LWPOLYLINE
  5
2E7
100
AcDbEntity
  8
0
 62
   254
100
AcDbPolyline
 90
        2
 70
     0
 39
0.003
 10
1.317508
 20
-1.058299
 40
0.003
 41
0.003
 10
1.28237
 20
-1.119268
 40
0.003
 41
0.003
  0
LWPOLYLINE
  5
2E8
100
AcDbEntity
  8
0
 62
   254
100
AcDbPolyline
 90
        2
 70
     0
 39
0.003
 10
1.28237
 20
-1.119268
 40
0.003
 41
0.003
 10
0.608913
 20
-0.725055
 40
0.003
 41
0.003
  0
LWPOLYLINE
  5
2E9
100
AcDbEntity
  8
0
 62
   254
100
AcDbPolyline
 90
        2
 70
     0
 39
0.003
 10
0.608913
 20
-0.725055
 40
0.003
 41
0.003
 10
0.644051
 20
-0.664087
 40
0.003
 41
0.003
  0
LWPOLYLINE
  5
2EA
100
AcDbEntity
  8
0
 62
   254
100
AcDbPolyline
 90
        2
 70
     0
 39
0.003
 10
0.608913
 20
-0.725055
 40
0.003
 41
0.003
 10
1.28237
 20
-1.119268
 40
0.003
 41
0.003
  0
LWPOLYLINE
  5
2EB
100
AcDbEntity
  8
0
 62
   254
100
AcDbPolyline
 90
        2
 70
     0
 39
0.003
 10
1.28237
 20
-1.119268
 40
0.003
 41
0.003
 10
1.248028
 20
-1.18111
 40
0.003
 41
0.003
  0
LWPOLYLINE
  5
2EC
100
AcDbEntity
  8
0
 62
   254
100
AcDbPolyline
 90
        2
 70
     0
 39
0.003
 10
1.248028
 20
-1.18111
 40
0.003
 41
0.003
 10
0.574571
 20
-0.786898
 40
0.003
 41
0.003
  0
LWPOLYLINE
  5
2ED
100
AcDbEntity
  8
0
 62
   254
100
AcDbPolyline
 90
        2
 70
     0
 39
0.003
 10
0.574571
 20
-0.786898
 40
0.003
 41
0.003
 10
0.608913
 20
-0.725055
 40
0.003
 41
0.003
  0
LWPOLYLINE
  5
2EE
100
AcDbEntity
  8
0
 62
   254
100
AcDbPolyline
 90
        2
 70
     0
 39
0.003
 10
0.574571
 20
-0.786898
 40
0.003
 41
0.003
 10
1.248028
 20
-1.18111
 40
0.003
 41
0.003
  0
LWPOLYLINE
  5
2EF
100
AcDbEntity
  8
0
 62
   254
100
AcDbPolyline
 90
        2
 70
     0
 39
0.003
 10
1.248028
 20
-1.18111
 40
0.003
 41
0.003
 10
1.214217
 20
-1.243756
 40
0.003
 41
0.003
  0
LWPOLYLINE
  5
2F0
100
AcDbEntity
  8
0
 62
   254
100
AcDbPolyline
 90
        2
 70
     0
 39
0.003
 10
1.214217
 20
-1.243756
 40
0.003
 41
0.003
 10
0.54076
 20
-0.849543
 40
0.003
 41
0.003
  0
LWPOLYLINE
  5
2F1
100
AcDbEntity
  8
0
 62
   254
100
AcDbPolyline
 90
        2
 70
     0
 39
0.003
 10
0.54076
 20
-0.849543
 40
0.003
 41
0.003
 10
0.574571
 20
-0.786898
 40
0.003
 41
0.003
  0
LWPOLYLINE
  5
2F2
100
AcDbEntity
  8
0
 62
   254
100
AcDbPolyline
 90
        2
 70
     0
 39
0.003
 10
0.54076
 20
-0.849543
 40
0.003
 41
0.003
 10
1.214217
 20
-1.243756
 40
0.003
 41
0.003
  0
LWPOLYLINE
  5
2F3
100
AcDbEntity
  8
0
 62
   254
100
AcDbPolyline
 90
        2
 70
     0
 39
0.003
 10
1.214217
 20
-1.243756
 40
0.003
 41
0.003
 10
1.180705
 20
-1.307161
 40
0.003
 41
0.003
  0
LWPOLYLINE
  5
2F4
100
AcDbEntity
  8
0
 62
   254
100
AcDbPolyline
 90
        2
 70
     0
 39
0.003
 10
1.180705
 20
-1.307161
 40
0.003
 41
0.003
 10
0.507248
 20
-0.912949
 40
0.003
 41
0.003
  0
LWPOLYLINE
  5
2F5
100
AcDbEntity
  8
0
 62
   254
100
AcDbPolyline
 90
        2
 70
     0
 39
0.003
 10
0.507248
 20
-0.912949
 40
0.003
 41
0.003
 10
0.54076
 20
-0.849543
 40
0.003
 41
0.003
  0
LWPOLYLINE
  5
2F6
100
AcDbEntity
  8
0
 62
   254
100
AcDbPolyline
 90
        2
 70
     0
 39
0.003
 10
0.507248
 20
-0.912949
 40
0.003
 41
0.003
 10
1.180705
 20
-1.307161
 40
0.003
 41
0.003
  0
LWPOLYLINE
  5
2F7
100
AcDbEntity
  8
0
 62
   254
100
AcDbPolyline
 90
        2
 70
     0
 39
0.003
 10
1.180705
 20
-1.307161
 40
0.003
 41
0.003
 10
1.147224
 20
-1.37126
 40
0.003
 41
0.003
  0
LWPOLYLINE
  5
2F8
100
AcDbEntity
  8
0
 62
   254
100
AcDbPolyline
 90
        2
 70
     0
 39
0.003
 10
1.147224
 20
-1.37126
 40
0.003
 41
0.003
 10
0.473768
 20
-0.977047
 40
0.003
 41
0.003
  0
LWPOLYLINE
  5
2F9
100
AcDbEntity
  8
0
 62
   254
100
AcDbPolyline
 90
        2
 70
     0
 39
0.003
 10
0.473768
 20
-0.977047
 40
0.003
 41
0.003
 10
0.507248
 20
-0.912949
 40
0.003
 41
0.003
  0
LWPOLYLINE
  5
2FA
100
AcDbEntity
  8
0
 62
   254
100
AcDbPolyline
 90
        2
 70
     0
 39
0.003
 10
0.473768
 20
-0.977047
 40
0.003
 41
0.003
 10
1.147224
 20
-1.37126
 40
0.003
 41
0.003
  0
LWPOLYLINE
  5
2FB
100
AcDbEntity
  8
0
 62
   254
100
AcDbPolyline
 90
        2
 70
     0
 39
0.003
 10
1.147224
 20
-1.37126
 40
0.003
 41
0.003
 10
1.113543
 20
-1.436
 40
0.003
 41
0.003
  0
LWPOLYLINE
  5
2FC
100
AcDbEntity
  8
0
 62
   254
100
AcDbPolyline
 90
        2
 70
     0
 39
0.003
 10
1.113543
 20
-1.436
 40
0.003
 41
0.003
 10
0.440087
 20
-1.041787
 40
0.003
 41
0.003
  0
LWPOLYLINE
  5
2FD
100
AcDbEntity
  8
0
 62
   254
100
AcDbPolyline
 90
        2
 70
     0
 39
0.003
 10
0.440087
 20
-1.041787
 40
0.003
 41
0.003
 10
0.473768
 20
-0.977047
 40
0.003
 41
0.003
  0
LWPOLYLINE
  5
2FE
100
AcDbEntity
  8
0
 62
   254
100
AcDbPolyline
 90
        2
 70
     0
 39
0.003
 10
0.440087
 20
-1.041787
 40
0.003
 41
0.003
 10
1.113543
 20
-1.436
 40
0.003
 41
0.003
  0
LWPOLYLINE
  5
2FF
100
AcDbEntity
  8
0
 62
   254
100
AcDbPolyline
 90
        2
 70
     0
 39
0.003
 10
1.113543
 20
-1.436
 40
0.003
 41
0.003
 10
1.079394
 20
-1.501315
 40
0.003
 41
0.003
  0
LWPOLYLINE
  5
300
100
AcDbEntity
  8
0
 62
   254
100
AcDbPolyline
 90
        2
 70
     0
 39
0.003
 10
1.079394
 20
-1.501315
 40
0.003
 41
0.003
 10
0.405937
 20
-1.107102
 40
0.003
 41
0.003
  0
LWPOLYLINE
  5
301
100
AcDbEntity
  8
0
 62
   254
100
AcDbPolyline
 90
        2
 70
     0
 39
0.003
 10
0.405937
 20
-1.107102
 40
0.003
 41
0.003
 10
0.440087
 20
-1.041787
 40
0.003
 41
0.003
  0
LWPOLYLINE
  5
302
100
AcDbEntity
  8
0
 62
   254
100
AcDbPolyline
 90
        2
 70
     0
 39
0.003
 10
0.405937
 20
-1.107102
 40
0.003
 41
0.003
 10
1.079394
 20
-1.501315
 40
0.003
 41
0.003
  0
LWPOLYLINE
  5
303
100
AcDbEntity
  8
0
 62
   254
100
AcDbPolyline
 90
        2
 70
     0
 39
0.003
 10
1.079394
 20
-1.501315
 40
0.003
 41
0.003
 10
1.044531
 20
-1.567165
 40
0.003
 41
0.003
  0
LWPOLYLINE
  5
304
100
AcDbEntity
  8
0
 62
   254
100
AcDbPolyline
 90
        2
 70
     0
 39
0.003
 10
1.044531
 20
-1.567165
 40
0.003
 41
0.003
 10
0.371075
 20
-1.172953
 40
0.003
 41
0.003
  0
LWPOLYLINE
  5
305
100
AcDbEntity
  8
0
 62
   254
100
AcDbPolyline
 90
        2
 70
     0
 39
0.003
 10
0.371075
 20
-1.172953
 40
0.003
 41
0.003
 10
0.405937
 20
-1.107102
 40
0.003
 41
0.003
  0
LWPOLYLINE
  5
306
100
AcDbEntity
  8
0
 62
   254
100
AcDbPolyline
 90
        2
 70
     0
 39
0.003
 10
0.371075
 20
-1.172953
 40
0.003
 41
0.003
 10
1.044531
 20
-1.567165
 40
0.003
 41
0.003
  0
LWPOLYLINE
  5
307
100
AcDbEntity
  8
0
 62
   254
100
AcDbPolyline
 90
        2
 70
     0
 39
0.003
 10
1.044531
 20
-1.567165
 40
0.003
 41
0.003
 10
1.008709
 20
-1.633476
 40
0.003
 41
0.003
  0
LWPOLYLINE
  5
308
100
AcDbEntity
  8
0
 62
   254
100
AcDbPolyline
 90
        2
 70
     0
 39
0.003
 10
1.008709
 20
-1.633476
 40
0.003
 41
0.003
 10
0.335252
 20
-1.239264
 40
0.003
 41
0.003
  0
LWPOLYLINE
  5
309
100
AcDbEntity
  8
0
 62
   254
100
AcDbPolyline
 90
        2
 70
     0
 39
0.003
 10
0.335252
 20
-1.239264
 40
0.003
 41
0.003
 10
0.371075
 20
-1.172953
 40
0.003
 41
0.003
  0
LWPOLYLINE
  5
30A
100
AcDbEntity
  8
0
 62
   254
100
AcDbPolyline
 90
        2
 70
     0
 39
0.003
 10
0.335252
 20
-1.239264
 40
0.003
 41
0.003
 10
1.008709
 20
-1.633476
 40
0.003
 41
0.003
  0
LWPOLYLINE
  5
30B
100
AcDbEntity
  8
0
 62
   254
100
AcDbPolyline
 90
        2
 70
     0
 39
0.003
 10
1.008709
 20
-1.633476
 40
0.003
 41
0.003
 10
0.971677
 20
-1.700205
 40
0.003
 41
0.003
  0
LWPOLYLINE
  5
30C
100
AcDbEntity
  8
0
 62
   254
100
AcDbPolyline
 90
        2
 70
     0
 39
0.003
 10
0.971677
 20
-1.700205
 40
0.003
 41
0.003
 10
0.29822
 20
-1.305992
 40
0.003
 41
0.003
  0
LWPOLYLINE
  5
30D
100
AcDbEntity
  8
0
 62
   254
100
AcDbPolyline
 90
        2
 70
     0
 39
0.003
 10
0.29822
 20
-1.305992
 40
0.003
 41
0.003
 10
0.335252
 20
-1.239264
 40
0.003
 41
0.003
  0
LWPOLYLINE
  5
30E
100
AcDbEntity
  8
0
 62
   254
100
AcDbPolyline
 90
        2
 70
     0
 39
0.003
 10
0.29822
 20
-1.305992
 40
0.003
 41
0.003
 10
0.971677
 20
-1.700205
 40
0.003
 41
0.003
  0
LWPOLYLINE
  5
30F
100
AcDbEntity
  8
0
 62
   254
100
AcDbPolyline
 90
        2
 70
     0
 39
0.003
 10
0.971677
 20
-1.700205
 40
0.003
 41
0.003
 10
0.933614
 20
-1.765209
 40
0.003
 41
0.003
  0
LWPOLYLINE
  5
310
100
AcDbEntity
  8
0
 62
   254
100
AcDbPolyline
 90
        2
 70
     0
 39
0.003
 10
0.933614
 20
-1.765209
 40
0.003
 41
0.003
 10
0.260157
 20
-1.370996
 40
0.003
 41
0.003
  0
LWPOLYLINE
  5
311
100
AcDbEntity
  8
0
 62
   254
100
AcDbPolyline
 90
        2
 70
     0
 39
0.003
 10
0.260157
 20
-1.370996
 40
0.003
 41
0.003
 10
0.29822
 20
-1.305992
 40
0.003
 41
0.003
  0
LWPOLYLINE
  5
312
100
AcDbEntity
  8
0
 62
   254
100
AcDbPolyline
 90
        2
 70
     0
 39
0.003
 10
0.260157
 20
-1.370996
 40
0.003
 41
0.003
 10
0.933614
 20
-1.765209
 40
0.003
 41
0.003
  0
LWPOLYLINE
  5
313
100
AcDbEntity
  8
0
 62
   254
100
AcDbPolyline
 90
        2
 70
     0
 39
0.003
 10
0.933614
 20
-1.765209
 40
0.003
 41
0.003
 10
0.894969
 20
-1.826504
 40
0.003
 41
0.003
  0
LWPOLYLINE
  5
314
100
AcDbEntity
  8
0
 62
   254
100
AcDbPolyline
 90
        2
 70
     0
 39
0.003
 10
0.894969
 20
-1.826504
 40
0.003
 41
0.003
 10
0.221512
 20
-1.432291
 40
0.003
 41
0.003
  0
LWPOLYLINE
  5
315
100
AcDbEntity
  8
0
 62
   254
100
AcDbPolyline
 90
        2
 70
     0
 39
0.003
 10
0.221512
 20
-1.432291
 40
0.003
 41
0.003
 10
0.260157
 20
-1.370996
 40
0.003
 41
0.003
  0
LWPOLYLINE
  5
316
100
AcDbEntity
  8
0
 62
   254
100
AcDbPolyline
 90
        2
 70
     0
 39
0.003
 10
0.221512
 20
-1.432291
 40
0.003
 41
0.003
 10
0.894969
 20
-1.826504
 40
0.003
 41
0.003
  0
LWPOLYLINE
  5
317
100
AcDbEntity
  8
0
 62
   254
100
AcDbPolyline
 90
        2
 70
     0
 39
0.003
 10
0.894969
 20
-1.826504
 40
0.003
 41
0.003
 10
0.855854
 20
-1.884185
 40
0.003
 41
0.003
  0
LWPOLYLINE
  5
318
100
AcDbEntity
  8
0
 62
   254
100
AcDbPolyline
 90
        2
 70
     0
 39
0.003
 10
0.855854
 20
-1.884185
 40
0.003
 41
0.003
 10
0.182398
 20
-1.489972
 40
0.003
 41
0.003
  0
LWPOLYLINE
  5
319
100
AcDbEntity
  8
0
 62
   254
100
AcDbPolyline
 90
        2
 70
     0
 39
0.003
 10
0.182398
 20
-1.489972
 40
0.003
 41
0.003
 10
0.221512
 20
-1.432291
 40
0.003
 41
0.003
  0
LWPOLYLINE
  5
31A
100
AcDbEntity
  8
0
 62
   254
100
AcDbPolyline
 90
        2
 70
     0
 39
0.003
 10
0.182398
 20
-1.489972
 40
0.003
 41
0.003
 10
0.855854
 20
-1.884185
 40
0.003
 41
0.003
  0
LWPOLYLINE
  5
31B
100
AcDbEntity
  8
0
 62
   254
100
AcDbPolyline
 90
        2
 70
     0
 39
0.003
 10
0.855854
 20
-1.884185
 40
0.003
 41
0.003
 10
0.816398
 20
-1.938366
 40
0.003
 41
0.003
  0
LWPOLYLINE
  5
31C
100
AcDbEntity
  8
0
 62
   254
100
AcDbPolyline
 90
        2
 70
     0
 39
0.003
 10
0.816398
 20
-1.938366
 40
0.003
 41
0.003
 10
0.142941
 20
-1.544154
 40
0.003
 41
0.003
  0
LWPOLYLINE
  5
31D
100
AcDbEntity
  8
0
 62
   254
100
AcDbPolyline
 90
        2
 70
     0
 39
0.003
 10
0.142941
 20
-1.544154
 40
0.003
 41
0.003
 10
0.182398
 20
-1.489972
 40
0.003
 41
0.003
  0
LWPOLYLINE
  5
31E
100
AcDbEntity
  8
0
 62
   254
100
AcDbPolyline
 90
        2
 70
     0
 39
0.003
 10
0.142941
 20
-1.544154
 40
0.003
 41
0.003
 10
0.816398
 20
-1.938366
 40
0.003
 41
0.003
  0
LWPOLYLINE
  5
31F
100
AcDbEntity
  8
0
 62
   254
100
AcDbPolyline
 90
        2
 70
     0
 39
0.003
 10
0.816398
 20
-1.938366
 40
0.003
 41
0.003
 10
0.776701
 20
-1.98915
 40
0.003
 41
0.003
  0
LWPOLYLINE
  5
320
100
AcDbEntity
  8
0
 62
   254
100
AcDbPolyline
 90
        2
 70
     0
 39
0.003
 10
0.776701
 20
-1.98915
 40
0.003
 41
0.003
 10
0.103244
 20
-1.594937
 40
0.003
 41
0.003
  0
LWPOLYLINE
  5
321
100
AcDbEntity
  8
0
 62
   254
100
AcDbPolyline
 90
        2
 70
     0
 39
0.003
 10
0.103244
 20
-1.594937
 40
0.003
 41
0.003
 10
0.142941
 20
-1.544154
 40
0.003
 41
0.003
  0
LWPOLYLINE
  5
322
100
AcDbEntity
  8
0
 62
   254
100
AcDbPolyline
 90
        2
 70
     0
 39
0.003
 10
0.103244
 20
-1.594937
 40
0.003
 41
0.003
 10
0.776701
 20
-1.98915
 40
0.003
 41
0.003
  0
LWPOLYLINE
  5
323
100
AcDbEntity
  8
0
 62
   254
100
AcDbPolyline
 90
        2
 70
     0
 39
0.003
 10
0.776701
 20
-1.98915
 40
0.003
 41
0.003
 10
0.736894
 20
-2.036654
 40
0.003
 41
0.003
  0
LWPOLYLINE
  5
324
100
AcDbEntity
  8
0
 62
   254
100
AcDbPolyline
 90
        2
 70
     0
 39
0.003
 10
0.736894
 20
-2.036654
 40
0.003
 41
0.003
 10
0.063437
 20
-1.642441
 40
0.003
 41
0.003
  0
LWPOLYLINE
  5
325
100
AcDbEntity
  8
0
 62
   254
100
AcDbPolyline
 90
        2
 70
     0
 39
0.003
 10
0.063437
 20
-1.642441
 40
0.003
 41
0.003
 10
0.103244
 20
-1.594937
 40
0.003
 41
0.003
  0
LWPOLYLINE
  5
326
100
AcDbEntity
  8
0
 62
   254
100
AcDbPolyline
 90
        2
 70
     0
 39
0.003
 10
0.063437
 20
-1.642441
 40
0.003
 41
0.003
 10
0.736894
 20
-2.036654
 40
0.003
 41
0.003
  0
LWPOLYLINE
  5
327
100
AcDbEntity
  8
0
 62
   254
100
AcDbPolyline
 90
        2
 70
     0
 39
0.003
 10
0.736894
 20
-2.036654
 40
0.003
 41
0.003
 10
0.697091
 20
-2.080976
 40
0.003
 41
0.003
  0
LWPOLYLINE
  5
328
100
AcDbEntity
  8
0
 62
   254
100
AcDbPolyline
 90
        2
 70
     0
 39
0.003
 10
0.697091
 20
-2.080976
 40
0.003
 41
0.003
 10
0.023634
 20
-1.686764
 40
0.003
 41
0.003
  0
LWPOLYLINE
  5
329
100
AcDbEntity
  8
0
 62
   254
100
AcDbPolyline
 90
        2
 70
     0
 39
0.003
 10
0.023634
 20
-1.686764
 40
0.003
 41
0.003
 10
0.063437
 20
-1.642441
 40
0.003
 41
0.003
  0
LWPOLYLINE
  5
32A
100
AcDbEntity
  8
0
 62
   254
100
AcDbPolyline
 90
        2
 70
     0
 39
0.003
 10
0.023634
 20
-1.686764
 40
0.003
 41
0.003
 10
0.697091
 20
-2.080976
 40
0.003
 41
0.003
  0
LWPOLYLINE
  5
32B
100
AcDbEntity
  8
0
 62
   254
100
AcDbPolyline
 90
        2
 70
     0
 39
0.003
 10
0.697091
 20
-2.080976
 40
0.003
 41
0.003
 10
0.657413
 20
-2.12224
 40
0.003
 41
0.003
  0
LWPOLYLINE
  5
32C
100
AcDbEntity
  8
0
 62
   254
100
AcDbPolyline
 90
        2
 70
     0
 39
0.003
 10
0.657413
 20
-2.12224
 40
0.003
 41
0.003
 10
-0.016043
 20
-1.728028
 40
0.003
 41
0.003
  0
LWPOLYLINE
  5
32D
100
AcDbEntity
  8
0
 62
   254
100
AcDbPolyline
 90
        2
 70
     0
 39
0.003
 10
-0.016043
 20
-1.728028
 40
0.003
 41
0.003
 10
0.023634
 20
-1.686764
 40
0.003
 41
0.003
  0
LWPOLYLINE
  5
32E
100
AcDbEntity
  8
0
 62
   254
100
AcDbPolyline
 90
        2
 70
     0
 39
0.003
 10
-0.016043
 20
-1.728028
 40
0.003
 41
0.003
 10
0.657413
 20
-2.12224
 40
0.003
 41
0.003
  0
LWPOLYLINE
  5
32F
100
AcDbEntity
  8
0
 62
   254
100
AcDbPolyline
 90
        2
 70
     0
 39
0.003
 10
0.657413
 20
-2.12224
 40
0.003
 41
0.003
 10
0.617972
 20
-2.160531
 40
0.003
 41
0.003
  0
LWPOLYLINE
  5
330
100
AcDbEntity
  8
0
 62
   254
100
AcDbPolyline
 90
        2
 70
     0
 39
0.003
 10
0.617972
 20
-2.160531
 40
0.003
 41
0.003
 10
-0.055484
 20
-1.766319
 40
0.003
 41
0.003
  0
LWPOLYLINE
  5
331
100
AcDbEntity
  8
0
 62
   254
100
AcDbPolyline
 90
        2
 70
     0
 39
0.003
 10
-0.055484
 20
-1.766319
 40
0.003
 41
0.003
 10
-0.016043
 20
-1.728028
 40
0.003
 41
0.003
  0
LWPOLYLINE
  5
332
100
AcDbEntity
  8
0
 62
   254
100
AcDbPolyline
 90
        2
 70
     0
 39
0.003
 10
-0.055484
 20
-1.766319
 40
0.003
 41
0.003
 10
0.617972
 20
-2.160531
 40
0.003
 41
0.003
  0
LWPOLYLINE
  5
333
100
AcDbEntity
  8
0
 62
   254
100
AcDbPolyline
 90
        2
 70
     0
 39
0.003
 10
0.617972
 20
-2.160531
 40
0.003
 41
0.003
 10
0.578886
 20
-2.19598
 40
0.003
 41
0.003
  0
LWPOLYLINE
  5
334
100
AcDbEntity
  8
0
 62
   254
100
AcDbPolyline
 90
        2
 70
     0
 39
0.003
 10
0.578886
 20
-2.19598
 40
0.003
 41
0.003
 10
-0.094571
 20
-1.801768
 40
0.003
 41
0.003
  0
LWPOLYLINE
  5
335
100
AcDbEntity
  8
0
 62
   254
100
AcDbPolyline
 90
        2
 70
     0
 39
0.003
 10
-0.094571
 20
-1.801768
 40
0.003
 41
0.003
 10
-0.055484
 20
-1.766319
 40
0.003
 41
0.003
  0
LWPOLYLINE
  5
336
100
AcDbEntity
  8
0
 62
   254
100
AcDbPolyline
 90
        2
 70
     0
 39
0.003
 10
-0.094571
 20
-1.801768
 40
0.003
 41
0.003
 10
0.578886
 20
-2.19598
 40
0.003
 41
0.003
  0
LWPOLYLINE
  5
337
100
AcDbEntity
  8
0
 62
   254
100
AcDbPolyline
 90
        2
 70
     0
 39
0.003
 10
0.578886
 20
-2.19598
 40
0.003
 41
0.003
 10
0.540272
 20
-2.228685
 40
0.003
 41
0.003
  0
LWPOLYLINE
  5
338
100
AcDbEntity
  8
0
 62
   254
100
AcDbPolyline
 90
        2
 70
     0
 39
0.003
 10
0.540272
 20
-2.228685
 40
0.003
 41
0.003
 10
-0.133185
 20
-1.834472
 40
0.003
 41
0.003
  0
LWPOLYLINE
  5
339
100
AcDbEntity
  8
0
 62
   254
100
AcDbPolyline
 90
        2
 70
     0
 39
0.003
 10
-0.133185
 20
-1.834472
 40
0.003
 41
0.003
 10
-0.094571
 20
-1.801768
 40
0.003
 41
0.003
  0
LWPOLYLINE
  5
33A
100
AcDbEntity
  8
0
 62
   254
100
AcDbPolyline
 90
        2
 70
     0
 39
0.003
 10
-0.133185
 20
-1.834472
 40
0.003
 41
0.003
 10
0.540272
 20
-2.228685
 40
0.003
 41
0.003
  0
LWPOLYLINE
  5
33B
100
AcDbEntity
  8
0
 62
   254
100
AcDbPolyline
 90
        2
 70
     0
 39
0.003
 10
0.540272
 20
-2.228685
 40
0.003
 41
0.003
 10
0.502244
 20
-2.25876
 40
0.003
 41
0.003
  0
LWPOLYLINE
  5
33C
100
AcDbEntity
  8
0
 62
   254
100
AcDbPolyline
 90
        2
 70
     0
 39
0.003
 10
0.502244
 20
-2.25876
 40
0.003
 41
0.003
 10
-0.171213
 20
-1.864547
 40
0.003
 41
0.003
  0
LWPOLYLINE
  5
33D
100
AcDbEntity
  8
0
 62
   254
100
AcDbPolyline
 90
        2
 70
     0
 39
0.003
 10
-0.171213
 20
-1.864547
 40
0.003
 41
0.003
 10
-0.133185
 20
-1.834472
 40
0.003
 41
0.003
  0
LWPOLYLINE
  5
33E
100
AcDbEntity
  8
0
 62
   254
100
AcDbPolyline
 90
        2
 70
     0
 39
0.003
 10
-0.171213
 20
-1.864547
 40
0.003
 41
0.003
 10
0.502244
 20
-2.25876
 40
0.003
 41
0.003
  0
LWPOLYLINE
  5
33F
100
AcDbEntity
  8
0
 62
   254
100
AcDbPolyline
 90
        2
 70
     0
 39
0.003
 10
0.502244
 20
-2.25876
 40
0.003
 41
0.003
 10
0.464929
 20
-2.286303
 40
0.003
 41
0.003
  0
LWPOLYLINE
  5
340
100
AcDbEntity
  8
0
 62
   254
100
AcDbPolyline
 90
        2
 70
     0
 39
0.003
 10
0.464929
 20
-2.286303
 40
0.003
 41
0.003
 10
-0.208528
 20
-1.892091
 40
0.003
 41
0.003
  0
LWPOLYLINE
  5
341
100
AcDbEntity
  8
0
 62
   254
100
AcDbPolyline
 90
        2
 70
     0
 39
0.003
 10
-0.208528
 20
-1.892091
 40
0.003
 41
0.003
 10
-0.171213
 20
-1.864547
 40
0.003
 41
0.003
  0
LWPOLYLINE
  5
342
100
AcDbEntity
  8
0
 62
   254
100
AcDbPolyline
 90
        2
 70
     0
 39
0.003
 10
-0.208528
 20
-1.892091
 40
0.003
 41
0.003
 10
0.464929
 20
-2.286303
 40
0.003
 41
0.003
  0
LWPOLYLINE
  5
343
100
AcDbEntity
  8
0
 62
   254
100
AcDbPolyline
 90
        2
 70
     0
 39
0.003
 10
0.464929
 20
-2.286303
 40
0.003
 41
0.003
 10
0.428441
 20
-2.311437
 40
0.003
 41
0.003
  0
LWPOLYLINE
  5
344
100
AcDbEntity
  8
0
 62
   254
100
AcDbPolyline
 90
        2
 70
     0
 39
0.003
 10
0.428441
 20
-2.311437
 40
0.003
 41
0.003
 10
-0.245016
 20
-1.917224
 40
0.003
 41
0.003
  0
LWPOLYLINE
  5
345
100
AcDbEntity
  8
0
 62
   254
100
AcDbPolyline
 90
        2
 70
     0
 39
0.003
 10
-0.245016
 20
-1.917224
 40
0.003
 41
0.003
 10
-0.208528
 20
-1.892091
 40
0.003
 41
0.003
  0
LWPOLYLINE
  5
346
100
AcDbEntity
  8
0
 62
   254
100
AcDbPolyline
 90
        2
 70
     0
 39
0.003
 10
-0.245016
 20
-1.917224
 40
0.003
 41
0.003
 10
0.428441
 20
-2.311437
 40
0.003
 41
0.003
  0
LWPOLYLINE
  5
347
100
AcDbEntity
  8
0
 62
   254
100
AcDbPolyline
 90
        2
 70
     0
 39
0.003
 10
0.428441
 20
-2.311437
 40
0.003
 41
0.003
 10
0.392898
 20
-2.33426
 40
0.003
 41
0.003
  0
LWPOLYLINE
  5
348
100
AcDbEntity
  8
0
 62
   254
100
AcDbPolyline
 90
        2
 70
     0
 39
0.003
 10
0.392898
 20
-2.33426
 40
0.003
 41
0.003
 10
-0.280559
 20
-1.940047
 40
0.003
 41
0.003
  0
LWPOLYLINE
  5
349
100
AcDbEntity
  8
0
 62
   254
100
AcDbPolyline
 90
        2
 70
     0
 39
0.003
 10
-0.280559
 20
-1.940047
 40
0.003
 41
0.003
 10
-0.245016
 20
-1.917224
 40
0.003
 41
0.003
  0
LWPOLYLINE
  5
34A
100
AcDbEntity
  8
0
 62
   254
100
AcDbPolyline
 90
        2
 70
     0
 39
0.003
 10
-0.280559
 20
-1.940047
 40
0.003
 41
0.003
 10
0.392898
 20
-2.33426
 40
0.003
 41
0.003
  0
LWPOLYLINE
  5
34B
100
AcDbEntity
  8
0
 62
   254
100
AcDbPolyline
 90
        2
 70
     0
 39
0.003
 10
0.392898
 20
-2.33426
 40
0.003
 41
0.003
 10
0.358406
 20
-2.354886
 40
0.003
 41
0.003
  0
LWPOLYLINE
  5
34C
100
AcDbEntity
  8
0
 62
   254
100
AcDbPolyline
 90
        2
 70
     0
 39
0.003
 10
0.358406
 20
-2.354886
 40
0.003
 41
0.003
 10
-0.315051
 20
-1.960673
 40
0.003
 41
0.003
  0
LWPOLYLINE
  5
34D
100
AcDbEntity
  8
0
 62
   254
100
AcDbPolyline
 90
        2
 70
     0
 39
0.003
 10
-0.315051
 20
-1.960673
 40
0.003
 41
0.003
 10
-0.280559
 20
-1.940047
 40
0.003
 41
0.003
  0
LWPOLYLINE
  5
34E
100
AcDbEntity
  8
0
 62
   254
100
AcDbPolyline
 90
        2
 70
     0
 39
0.003
 10
-0.315051
 20
-1.960673
 40
0.003
 41
0.003
 10
0.358406
 20
-2.354886
 40
0.003
 41
0.003
  0
LWPOLYLINE
  5
34F
100
AcDbEntity
  8
0
 62
   254
100
AcDbPolyline
 90
        2
 70
     0
 39
0.003
 10
0.358406
 20
-2.354886
 40
0.003
 41
0.003
 10
0.325106
 20
-2.373413
 40
0.003
 41
0.003
  0
LWPOLYLINE
  5
350
100
AcDbEntity
  8
0
 62
   254
100
AcDbPolyline
 90
        2
 70
     0
 39
0.003
 10
0.325106
 20
-2.373413
 40
0.003
 41
0.003
 10
-0.34835
 20
-1.979201
 40
0.003
 41
0.003
  0
LWPOLYLINE
  5
351
100
AcDbEntity
  8
0
 62
   254
100
AcDbPolyline
 90
        2
 70
     0
 39
0.003
 10
-0.34835
 20
-1.979201
 40
0.003
 41
0.003
 10
-0.315051
 20
-1.960673
 40
0.003
 41
0.003
  0
LWPOLYLINE
  5
352
100
AcDbEntity
  8
0
 62
   254
100
AcDbPolyline
 90
        2
 70
     0
 39
0.003
 10
-0.34835
 20
-1.979201
 40
0.003
 41
0.003
 10
0.325106
 20
-2.373413
 40
0.003
 41
0.003
  0
LWPOLYLINE
  5
353
100
AcDbEntity
  8
0
 62
   254
100
AcDbPolyline
 90
        2
 70
     0
 39
0.003
 10
0.325106
 20
-2.373413
 40
0.003
 41
0.003
 10
0.293098
 20
-2.389965
 40
0.003
 41
0.003
  0
LWPOLYLINE
  5
354
100
AcDbEntity
  8
0
 62
   254
100
AcDbPolyline
 90
        2
 70
     0
 39
0.003
 10
0.293098
 20
-2.389965
 40
0.003
 41
0.003
 10
-0.380358
 20
-1.995752
 40
0.003
 41
0.003
  0
LWPOLYLINE
  5
355
100
AcDbEntity
  8
0
 62
   254
100
AcDbPolyline
 90
        2
 70
     0
 39
0.003
 10
-0.380358
 20
-1.995752
 40
0.003
 41
0.003
 10
-0.34835
 20
-1.979201
 40
0.003
 41
0.003
  0
LWPOLYLINE
  5
356
100
AcDbEntity
  8
0
 62
   254
100
AcDbPolyline
 90
        2
 70
     0
 39
0.003
 10
-0.380358
 20
-1.995752
 40
0.003
 41
0.003
 10
0.293098
 20
-2.389965
 40
0.003
 41
0.003
  0
LWPOLYLINE
  5
357
100
AcDbEntity
  8
0
 62
   254
100
AcDbPolyline
 90
        2
 70
     0
 39
0.003
 10
0.293098
 20
-2.389965
 40
0.003
 41
0.003
 10
0.262504
 20
-2.404638
 40
0.003
 41
0.003
  0
LWPOLYLINE
  5
358
100
AcDbEntity
  8
0
 62
   254
100
AcDbPolyline
 90
        2
 70
     0
 39
0.003
 10
0.262504
 20
-2.404638
 40
0.003
 41
0.003
 10
-0.410953
 20
-2.010425
 40
0.003
 41
0.003
  0
LWPOLYLINE
  5
359
100
AcDbEntity
  8
0
 62
   254
100
AcDbPolyline
 90
        2
 70
     0
 39
0.003
 10
-0.410953
 20
-2.010425
 40
0.003
 41
0.003
 10
-0.380358
 20
-1.995752
 40
0.003
 41
0.003
  0
LWPOLYLINE
  5
35A
100
AcDbEntity
  8
0
 62
   254
100
AcDbPolyline
 90
        2
 70
     0
 39
0.003
 10
-0.410953
 20
-2.010425
 40
0.003
 41
0.003
 10
0.262504
 20
-2.404638
 40
0.003
 41
0.003
  0
LWPOLYLINE
  5
35B
100
AcDbEntity
  8
0
 62
   254
100
AcDbPolyline
 90
        2
 70
     0
 39
0.003
 10
0.262504
 20
-2.404638
 40
0.003
 41
0.003
 10
0.233437
 20
-2.417551
 40
0.003
 41
0.003
  0
LWPOLYLINE
  5
35C
100
AcDbEntity
  8
0
 62
   254
100
AcDbPolyline
 90
        2
 70
     0
 39
0.003
 10
0.233437
 20
-2.417551
 40
0.003
 41
0.003
 10
-0.44002
 20
-2.023339
 40
0.003
 41
0.003
  0
LWPOLYLINE
  5
35D
100
AcDbEntity
  8
0
 62
   254
100
AcDbPolyline
 90
        2
 70
     0
 39
0.003
 10
-0.44002
 20
-2.023339
 40
0.003
 41
0.003
 10
-0.410953
 20
-2.010425
 40
0.003
 41
0.003
  0
LWPOLYLINE
  5
35E
100
AcDbEntity
  8
0
 62
   254
100
AcDbPolyline
 90
        2
 70
     0
 39
0.003
 10
-0.44002
 20
-2.023339
 40
0.003
 41
0.003
 10
0.233437
 20
-2.417551
 40
0.003
 41
0.003
  0
LWPOLYLINE
  5
35F
100
AcDbEntity
  8
0
 62
   254
100
AcDbPolyline
 90
        2
 70
     0
 39
0.003
 10
0.233437
 20
-2.417551
 40
0.003
 41
0.003
 10
0.206028
 20
-2.428803
 40
0.003
 41
0.003
  0
LWPOLYLINE
  5
360
100
AcDbEntity
  8
0
 62
   254
100
AcDbPolyline
 90
        2
 70
     0
 39
0.003
 10
0.206028
 20
-2.428803
 40
0.003
 41
0.003
 10
-0.467429
 20
-2.034591
 40
0.003
 41
0.003
  0
LWPOLYLINE
  5
361
100
AcDbEntity
  8
0
 62
   254
100
AcDbPolyline
 90
        2
 70
     0
 39
0.003
 10
-0.467429
 20
-2.034591
 40
0.003
 41
0.003
 10
-0.44002
 20
-2.023339
 40
0.003
 41
0.003
  0
LWPOLYLINE
  5
362
100
AcDbEntity
  8
0
 62
   254
100
AcDbPolyline
 90
        2
 70
     0
 39
0.003
 10
-0.467429
 20
-2.034591
 40
0.003
 41
0.003
 10
0.206028
 20
-2.428803
 40
0.003
 41
0.003
  0
LWPOLYLINE
  5
363
100
AcDbEntity
  8
0
 62
   254
100
AcDbPolyline
 90
        2
 70
     0
 39
0.003
 10
0.206028
 20
-2.428803
 40
0.003
 41
0.003
 10
0.180382
 20
-2.438512
 40
0.003
 41
0.003
  0
LWPOLYLINE
  5
364
100
AcDbEntity
  8
0
 62
   254
100
AcDbPolyline
 90
        2
 70
     0
 39
0.003
 10
0.180382
 20
-2.438512
 40
0.003
 41
0.003
 10
-0.493075
 20
-2.044299
 40
0.003
 41
0.003
  0
LWPOLYLINE
  5
365
100
AcDbEntity
  8
0
 62
   254
100
AcDbPolyline
 90
        2
 70
     0
 39
0.003
 10
-0.493075
 20
-2.044299
 40
0.003
 41
0.003
 10
-0.467429
 20
-2.034591
 40
0.003
 41
0.003
  0
LWPOLYLINE
  5
366
100
AcDbEntity
  8
0
 62
   254
100
AcDbPolyline
 90
        2
 70
     0
 39
0.003
 10
-0.493075
 20
-2.044299
 40
0.003
 41
0.003
 10
0.180382
 20
-2.438512
 40
0.003
 41
0.003
  0
LWPOLYLINE
  5
367
100
AcDbEntity
  8
0
 62
   254
100
AcDbPolyline
 90
        2
 70
     0
 39
0.003
 10
0.180382
 20
-2.438512
 40
0.003
 41
0.003
 10
0.156618
 20
-2.446776
 40
0.003
 41
0.003
  0
LWPOLYLINE
  5
368
100
AcDbEntity
  8
0
 62
   254
100
AcDbPolyline
 90
        2
 70
     0
 39
0.003
 10
0.156618
 20
-2.446776
 40
0.003
 41
0.003
 10
-0.516839
 20
-2.052563
 40
0.003
 41
0.003
  0
LWPOLYLINE
  5
369
100
AcDbEntity
  8
0
 62
   254
100
AcDbPolyline
 90
        2
 70
     0
 39
0.003
 10
-0.516839
 20
-2.052563
 40
0.003
 41
0.003
 10
-0.493075
 20
-2.044299
 40
0.003
 41
0.003
  0
LWPOLYLINE
  5
36A
100
AcDbEntity
  8
0
 62
   254
100
AcDbPolyline
 90
        2
 70
     0
 39
0.003
 10
-0.516839
 20
-2.052563
 40
0.003
 41
0.003
 10
0.156618
 20
-2.446776
 40
0.003
 41
0.003
  0
LWPOLYLINE
  5
36B
100
AcDbEntity
  8
0
 62
   254
100
AcDbPolyline
 90
        2
 70
     0
 39
0.003
 10
0.156618
 20
-2.446776
 40
0.003
 41
0.003
 10
0.134854
 20
-2.453717
 40
0.003
 41
0.003
  0
LWPOLYLINE
  5
36C
100
AcDbEntity
  8
0
 62
   254
100
AcDbPolyline
 90
        2
 70
     0
 39
0.003
 10
0.134854
 20
-2.453717
 40
0.003
 41
0.003
 10
-0.538602
 20
-2.059504
 40
0.003
 41
0.003
  0
LWPOLYLINE
  5
36D
100
AcDbEntity
  8
0
 62
   254
100
AcDbPolyline
 90
        2
 70
     0
 39
0.003
 10
-0.538602
 20
-2.059504
 40
0.003
 41
0.003
 10
-0.516839
 20
-2.052563
 40
0.003
 41
0.003
  0
LWPOLYLINE
  5
36E
100
AcDbEntity
  8
0
 62
   254
100
AcDbPolyline
 90
        2
 70
     0
 39
0.003
 10
-0.538602
 20
-2.059504
 40
0.003
 41
0.003
 10
0.134854
 20
-2.453717
 40
0.003
 41
0.003
  0
LWPOLYLINE
  5
36F
100
AcDbEntity
  8
0
 62
   254
100
AcDbPolyline
 90
        2
 70
     0
 39
0.003
 10
0.134854
 20
-2.453717
 40
0.003
 41
0.003
 10
0.11522
 20
-2.459429
 40
0.003
 41
0.003
  0
LWPOLYLINE
  5
370
100
AcDbEntity
  8
0
 62
   254
100
AcDbPolyline
 90
        2
 70
     0
 39
0.003
 10
0.11522
 20
-2.459429
 40
0.003
 41
0.003
 10
-0.558236
 20
-2.065217
 40
0.003
 41
0.003
  0
LWPOLYLINE
  5
371
100
AcDbEntity
  8
0
 62
   254
100
AcDbPolyline
 90
        2
 70
     0
 39
0.003
 10
-0.558236
 20
-2.065217
 40
0.003
 41
0.003
 10
-0.538602
 20
-2.059504
 40
0.003
 41
0.003
  0
LWPOLYLINE
  5
372
100
AcDbEntity
  8
0
 62
   254
100
AcDbPolyline
 90
        2
 70
     0
 39
0.003
 10
-0.558236
 20
-2.065217
 40
0.003
 41
0.003
 10
0.11522
 20
-2.459429
 40
0.003
 41
0.003
  0
LWPOLYLINE
  5
373
100
AcDbEntity
  8
0
 62
   254
100
AcDbPolyline
 90
        2
 70
     0
 39
0.003
 10
0.11522
 20
-2.459429
 40
0.003
 41
0.003
 10
0.097815
 20
-2.464028
 40
0.003
 41
0.003
  0
LWPOLYLINE
  5
374
100
AcDbEntity
  8
0
 62
   254
100
AcDbPolyline
 90
        2
 70
     0
 39
0.003
 10
0.097815
 20
-2.464028
 40
0.003
 41
0.003
 10
-0.575642
 20
-2.069815
 40
0.003
 41
0.003
  0
LWPOLYLINE
  5
375
100
AcDbEntity
  8
0
 62
   254
100
AcDbPolyline
 90
        2
 70
     0
 39
0.003
 10
-0.575642
 20
-2.069815
 40
0.003
 41
0.003
 10
-0.558236
 20
-2.065217
 40
0.003
 41
0.003
  0
LWPOLYLINE
  5
376
100
AcDbEntity
  8
0
 62
   254
100
AcDbPolyline
 90
        2
 70
     0
 39
0.003
 10
-0.575642
 20
-2.069815
 40
0.003
 41
0.003
 10
0.097815
 20
-2.464028
 40
0.003
 41
0.003
  0
LWPOLYLINE
  5
377
100
AcDbEntity
  8
0
 62
   254
100
AcDbPolyline
 90
        2
 70
     0
 39
0.003
 10
0.097815
 20
-2.464028
 40
0.003
 41
0.003
 10
0.082768
 20
-2.467622
 40
0.003
 41
0.003
  0
LWPOLYLINE
  5
378
100
AcDbEntity
  8
0
 62
   254
100
AcDbPolyline
 90
        2
 70
     0
 39
0.003
 10
0.082768
 20
-2.467622
 40
0.003
 41
0.003
 10
-0.590689
 20
-2.073409
 40
0.003
 41
0.003
  0
LWPOLYLINE
  5
379
100
AcDbEntity
  8
0
 62
   254
100
AcDbPolyline
 90
        2
 70
     0
 39
0.003
 10
-0.590689
 20
-2.073409
 40
0.003
 41
0.003
 10
-0.575642
 20
-2.069815
 40
0.003
 41
0.003
  0
LWPOLYLINE
  5
37A
100
AcDbEntity
  8
0
 62
   254
100
AcDbPolyline
 90
        2
 70
     0
 39
0.003
 10
-0.590689
 20
-2.073409
 40
0.003
 41
0.003
 10
0.082768
 20
-2.467622
 40
0.003
 41
0.003
  0
LWPOLYLINE
  5
37B
100
AcDbEntity
  8
0
 62
   254
100
AcDbPolyline
 90
        2
 70
     0
 39
0.003
 10
0.082768
 20
-2.467622
 40
0.003
 41
0.003
 10
0.070189
 20
-2.470323
 40
0.003
 41
0.003
  0
LWPOLYLINE
  5
37C
100
AcDbEntity
  8
0
 62
   254
100
AcDbPolyline
 90
        2
 70
     0
 39
0.003
 10
0.070189
 20
-2.470323
 40
0.003
 41
0.003
 10
-0.603268
 20
-2.07611
 40
0.003
 41
0.003
  0
LWPOLYLINE
  5
37D
100
AcDbEntity
  8
0
 62
   254
100
AcDbPolyline
 90
        2
 70
     0
 39
0.003
 10
-0.603268
 20
-2.07611
 40
0.003
 41
0.003
 10
-0.590689
 20
-2.073409
 40
0.003
 41
0.003
  0
LWPOLYLINE
  5
37E
100
AcDbEntity
  8
0
 62
   254
100
AcDbPolyline
 90
        2
 70
     0
 39
0.003
 10
-0.603268
 20
-2.07611
 40
0.003
 41
0.003
 10
0.070189
 20
-2.470323
 40
0.003
 41
0.003
  0
LWPOLYLINE
  5
37F
100
AcDbEntity
  8
0
 62
   254
100
AcDbPolyline
 90
        2
 70
     0
 39
0.003
 10
0.070189
 20
-2.470323
 40
0.003
 41
0.003
 10
0.060205
 20
-2.472228
 40
0.003
 41
0.003
  0
LWPOLYLINE
  5
380
100
AcDbEntity
  8
0
 62
   254
100
AcDbPolyline
 90
        2
 70
     0
 39
0.003
 10
0.060205
 20
-2.472228
 40
0.003
 41
0.003
 10
-0.613252
 20
-2.078016
 40
0.003
 41
0.003
  0
LWPOLYLINE
  5
381
100
AcDbEntity
  8
0
 62
   254
100
AcDbPolyline
 90
        2
 70
     0
 39
0.003
 10
-0.613252
 20
-2.078016
 40
0.003
 41
0.003
 10
-0.603268
 20
-2.07611
 40
0.003
 41
0.003
  0
LWPOLYLINE
  5
382
100
AcDbEntity
  8
0
 62
   254
100
AcDbPolyline
 90
        2
 70
     0
 39
0.003
 10
-0.613252
 20
-2.078016
 40
0.003
 41
0.003
 10
0.060205
 20
-2.472228
 40
0.003
 41
0.003
  0
LWPOLYLINE
  5
383
100
AcDbEntity
  8
0
 62
   254
100
AcDbPolyline
 90
        2
 70
     0
 39
0.003
 10
0.060205
 20
-2.472228
 40
0.003
 41
0.003
 10
0.052925
 20
-2.473461
 40
0.003
 41
0.003
  0
LWPOLYLINE
  5
384
100
AcDbEntity
  8
0
 62
   254
100
AcDbPolyline
 90
        2
 70
     0
 39
0.003
 10
0.052925
 20
-2.473461
 40
0.003
 41
0.003
 10
-0.620531
 20
-2.079248
 40
0.003
 41
0.003
  0
LWPOLYLINE
  5
385
100
AcDbEntity
  8
0
 62
   254
100
AcDbPolyline
 90
        2
 70
     0
 39
0.003
 10
-0.620531
 20
-2.079248
 40
0.003
 41
0.003
 10
-0.613252
 20
-2.078016
 40
0.003
 41
0.003
  0
LWPOLYLINE
  5
386
100
AcDbEntity
  8
0
 62
   254
100
AcDbPolyline
 90
        2
 70
     0
 39
0.003
 10
-0.620531
 20
-2.079248
 40
0.003
 41
0.003
 10
0.052925
 20
-2.473461
 40
0.003
 41
0.003
  0
LWPOLYLINE
  5
387
100
AcDbEntity
  8
0
 62
   254
100
AcDbPolyline
 90
        2
 70
     0
 39
0.003
 10
0.052925
 20
-2.473461
 40
0.003
 41
0.003
 10
0.048472
 20
-2.474118
 40
0.003
 41
0.003
  0
LWPOLYLINE
  5
388
100
AcDbEntity
  8
0
 62
   254
100
AcDbPolyline
 90
        2
 70
     0
 39
0.003
 10
0.048472
 20
-2.474118
 40
0.003
 41
0.003
 10
-0.624984
 20
-2.079906
 40
0.003
 41
0.003
  0
LWPOLYLINE
  5
389
100
AcDbEntity
  8
0
 62
   254
100
AcDbPolyline
 90
        2
 70
     0
 39
0.003
 10
-0.624984
 20
-2.079906
 40
0.003
 41
0.003
 10
-0.620531
 20
-2.079248
 40
0.003
 41
0.003
  0
LWPOLYLINE
  5
38A
100
AcDbEntity
  8
0
 62
   254
100
AcDbPolyline
 90
        2
 70
     0
 39
0.003
 10
-0.624984
 20
-2.079906
 40
0.003
 41
0.003
 10
0.048472
 20
-2.474118
 40
0.003
 41
0.003
  0
LWPOLYLINE
  5
38B
100
AcDbEntity
  8
0
 62
   254
100
AcDbPolyline
 90
        2
 70
     0
 39
0.003
 10
0.048472
 20
-2.474118
 40
0.003
 41
0.003
 10
0.046957
 20
-2.474315
 40
0.003
 41
0.003
  0
LWPOLYLINE
  5
38C
100
AcDbEntity
  8
0
 62
   254
100
AcDbPolyline
 90
        2
 70
     0
 39
0.003
 10
0.046957
 20
-2.474315
 40
0.003
 41
0.003
 10
-0.6265
 20
-2.080102
 40
0.003
 41
0.003
  0
LWPOLYLINE
  5
38D
100
AcDbEntity
  8
0
 62
   254
100
AcDbPolyline
 90
        2
 70
     0
 39
0.003
 10
-0.6265
 20
-2.080102
 40
0.003
 41
0.003
 10
-0.624984
 20
-2.079906
 40
0.003
 41
0.003
  0
LWPOLYLINE
  5
38E
100
AcDbEntity
  8
0
 62
     0
100
AcDbPolyline
 90
        2
 70
     0
 39
0.003
 10
2.125043
 20
0.341748
 40
0.003
 41
0.003
 10
2.7985
 20
-0.052465
 40
0.003
 41
0.003
  0
LWPOLYLINE
  5
38F
100
AcDbEntity
  8
0
 62
     0
100
AcDbPolyline
 90
        2
 70
     0
 39
0.003
 10
2.7985
 20
-0.052465
 40
0.003
 41
0.003
 10
2.682484
 20
-0.079858
 40
0.003
 41
0.003
  0
LWPOLYLINE
  5
390
100
AcDbEntity
  8
0
 62
     0
100
AcDbPolyline
 90
        2
 70
     0
 39
0.003
 10
2.682484
 20
-0.079858
 40
0.003
 41
0.003
 10
2.572787
 20
-0.10937
 40
0.003
 41
0.003
  0
LWPOLYLINE
  5
391
100
AcDbEntity
  8
0
 62
     0
100
AcDbPolyline
 90
        2
 70
     0
 39
0.003
 10
2.572787
 20
-0.10937
 40
0.003
 41
0.003
 10
2.469146
 20
-0.140957
 40
0.003
 41
0.003
  0
LWPOLYLINE
  5
392
100
AcDbEntity
  8
0
 62
     0
100
AcDbPolyline
 90
        2
 70
     0
 39
0.003
 10
2.469146
 20
-0.140957
 40
0.003
 41
0.003
 10
2.371315
 20
-0.174551
 40
0.003
 41
0.003
  0
LWPOLYLINE
  5
393
100
AcDbEntity
  8
0
 62
     0
100
AcDbPolyline
 90
        2
 70
     0
 39
0.003
 10
2.371315
 20
-0.174551
 40
0.003
 41
0.003
 10
2.279035
 20
-0.21011
 40
0.003
 41
0.003
  0
LWPOLYLINE
  5
394
100
AcDbEntity
  8
0
 62
     0
100
AcDbPolyline
 90
        2
 70
     0
 39
0.003
 10
2.279035
 20
-0.21011
 40
0.003
 41
0.003
 10
2.192067
 20
-0.247563
 40
0.003
 41
0.003
  0
LWPOLYLINE
  5
395
100
AcDbEntity
  8
0
 62
     0
100
AcDbPolyline
 90
        2
 70
     0
 39
0.003
 10
2.192067
 20
-0.247563
 40
0.003
 41
0.003
 10
2.11015
 20
-0.286858
 40
0.003
 41
0.003
  0
LWPOLYLINE
  5
396
100
AcDbEntity
  8
0
 62
     0
100
AcDbPolyline
 90
        2
 70
     0
 39
0.003
 10
2.11015
 20
-0.286858
 40
0.003
 41
0.003
 10
2.033043
 20
-0.327929
 40
0.003
 41
0.003
  0
LWPOLYLINE
  5
397
100
AcDbEntity
  8
0
 62
     0
100
AcDbPolyline
 90
        2
 70
     0
 39
0.003
 10
2.033043
 20
-0.327929
 40
0.003
 41
0.003
 10
1.96048
 20
-0.370736
 40
0.003
 41
0.003
  0
LWPOLYLINE
  5
398
100
AcDbEntity
  8
0
 62
     0
100
AcDbPolyline
 90
        2
 70
     0
 39
0.003
 10
1.96048
 20
-0.370736
 40
0.003
 41
0.003
 10
1.892228
 20
-0.415209
 40
0.003
 41
0.003
  0
LWPOLYLINE
  5
399
100
AcDbEntity
  8
0
 62
     0
100
AcDbPolyline
 90
        2
 70
     0
 39
0.003
 10
1.892228
 20
-0.415209
 40
0.003
 41
0.003
 10
1.828024
 20
-0.461291
 40
0.003
 41
0.003
  0
LWPOLYLINE
  5
39A
100
AcDbEntity
  8
0
 62
     0
100
AcDbPolyline
 90
        2
 70
     0
 39
0.003
 10
1.828024
 20
-0.461291
 40
0.003
 41
0.003
 10
1.767626
 20
-0.508937
 40
0.003
 41
0.003
  0
LWPOLYLINE
  5
39B
100
AcDbEntity
  8
0
 62
     0
100
AcDbPolyline
 90
        2
 70
     0
 39
0.003
 10
1.767626
 20
-0.508937
 40
0.003
 41
0.003
 10
1.710772
 20
-0.558075
 40
0.003
 41
0.003
  0
LWPOLYLINE
  5
39C
100
AcDbEntity
  8
0
 62
     0
100
AcDbPolyline
 90
        2
 70
     0
 39
0.003
 10
1.710772
 20
-0.558075
 40
0.003
 41
0.003
 10
1.657224
 20
-0.608657
 40
0.003
 41
0.003
  0
LWPOLYLINE
  5
39D
100
AcDbEntity
  8
0
 62
     0
100
AcDbPolyline
 90
        2
 70
     0
 39
0.003
 10
1.657224
 20
-0.608657
 40
0.003
 41
0.003
 10
1.60672
 20
-0.660622
 40
0.003
 41
0.003
  0
LWPOLYLINE
  5
39E
100
AcDbEntity
  8
0
 62
     0
100
AcDbPolyline
 90
        2
 70
     0
 39
0.003
 10
1.60672
 20
-0.660622
 40
0.003
 41
0.003
 10
1.55902
 20
-0.713917
 40
0.003
 41
0.003
  0
LWPOLYLINE
  5
39F
100
AcDbEntity
  8
0
 62
     0
100
AcDbPolyline
 90
        2
 70
     0
 39
0.003
 10
1.55902
 20
-0.713917
 40
0.003
 41
0.003
 10
1.513858
 20
-0.768472
 40
0.003
 41
0.003
  0
LWPOLYLINE
  5
3A0
100
AcDbEntity
  8
0
 62
     0
100
AcDbPolyline
 90
        2
 70
     0
 39
0.003
 10
1.513858
 20
-0.768472
 40
0.003
 41
0.003
 10
1.470996
 20
-0.824244
 40
0.003
 41
0.003
  0
LWPOLYLINE
  5
3A1
100
AcDbEntity
  8
0
 62
     0
100
AcDbPolyline
 90
        2
 70
     0
 39
0.003
 10
1.470996
 20
-0.824244
 40
0.003
 41
0.003
 10
1.430181
 20
-0.881165
 40
0.003
 41
0.003
  0
LWPOLYLINE
  5
3A2
100
AcDbEntity
  8
0
 62
     0
100
AcDbPolyline
 90
        2
 70
     0
 39
0.003
 10
1.430181
 20
-0.881165
 40
0.003
 41
0.003
 10
1.391165
 20
-0.939193
 40
0.003
 41
0.003
  0
LWPOLYLINE
  5
3A3
100
AcDbEntity
  8
0
 62
     0
100
AcDbPolyline
 90
        2
 70
     0
 39
0.003
 10
1.391165
 20
-0.939193
 40
0.003
 41
0.003
 10
1.353685
 20
-0.998252
 40
0.003
 41
0.003
  0
LWPOLYLINE
  5
3A4
100
AcDbEntity
  8
0
 62
     0
100
AcDbPolyline
 90
        2
 70
     0
 39
0.003
 10
1.353685
 20
-0.998252
 40
0.003
 41
0.003
 10
1.317508
 20
-1.058299
 40
0.003
 41
0.003
  0
LWPOLYLINE
  5
3A5
100
AcDbEntity
  8
0
 62
     0
100
AcDbPolyline
 90
        2
 70
     0
 39
0.003
 10
1.317508
 20
-1.058299
 40
0.003
 41
0.003
 10
1.28237
 20
-1.119268
 40
0.003
 41
0.003
  0
LWPOLYLINE
  5
3A6
100
AcDbEntity
  8
0
 62
     0
100
AcDbPolyline
 90
        2
 70
     0
 39
0.003
 10
1.28237
 20
-1.119268
 40
0.003
 41
0.003
 10
1.248028
 20
-1.18111
 40
0.003
 41
0.003
  0
LWPOLYLINE
  5
3A7
100
AcDbEntity
  8
0
 62
     0
100
AcDbPolyline
 90
        2
 70
     0
 39
0.003
 10
1.248028
 20
-1.18111
 40
0.003
 41
0.003
 10
1.214217
 20
-1.243756
 40
0.003
 41
0.003
  0
LWPOLYLINE
  5
3A8
100
AcDbEntity
  8
0
 62
     0
100
AcDbPolyline
 90
        2
 70
     0
 39
0.003
 10
1.214217
 20
-1.243756
 40
0.003
 41
0.003
 10
1.180705
 20
-1.307161
 40
0.003
 41
0.003
  0
LWPOLYLINE
  5
3A9
100
AcDbEntity
  8
0
 62
     0
100
AcDbPolyline
 90
        2
 70
     0
 39
0.003
 10
1.180705
 20
-1.307161
 40
0.003
 41
0.003
 10
1.147224
 20
-1.37126
 40
0.003
 41
0.003
  0
LWPOLYLINE
  5
3AA
100
AcDbEntity
  8
0
 62
     0
100
AcDbPolyline
 90
        2
 70
     0
 39
0.003
 10
1.147224
 20
-1.37126
 40
0.003
 41
0.003
 10
1.113543
 20
-1.436
 40
0.003
 41
0.003
  0
LWPOLYLINE
  5
3AB
100
AcDbEntity
  8
0
 62
     0
100
AcDbPolyline
 90
        2
 70
     0
 39
0.003
 10
1.113543
 20
-1.436
 40
0.003
 41
0.003
 10
1.079394
 20
-1.501315
 40
0.003
 41
0.003
  0
LWPOLYLINE
  5
3AC
100
AcDbEntity
  8
0
 62
     0
100
AcDbPolyline
 90
        2
 70
     0
 39
0.003
 10
1.079394
 20
-1.501315
 40
0.003
 41
0.003
 10
1.044531
 20
-1.567165
 40
0.003
 41
0.003
  0
LWPOLYLINE
  5
3AD
100
AcDbEntity
  8
0
 62
     0
100
AcDbPolyline
 90
        2
 70
     0
 39
0.003
 10
1.044531
 20
-1.567165
 40
0.003
 41
0.003
 10
1.008709
 20
-1.633476
 40
0.003
 41
0.003
  0
LWPOLYLINE
  5
3AE
100
AcDbEntity
  8
0
 62
     0
100
AcDbPolyline
 90
        2
 70
     0
 39
0.003
 10
1.008709
 20
-1.633476
 40
0.003
 41
0.003
 10
0.971677
 20
-1.700205
 40
0.003
 41
0.003
  0
LWPOLYLINE
  5
3AF
100
AcDbEntity
  8
0
 62
     0
100
AcDbPolyline
 90
        2
 70
     0
 39
0.003
 10
0.971677
 20
-1.700205
 40
0.003
 41
0.003
 10
0.933614
 20
-1.765209
 40
0.003
 41
0.003
  0
LWPOLYLINE
  5
3B0
100
AcDbEntity
  8
0
 62
     0
100
AcDbPolyline
 90
        2
 70
     0
 39
0.003
 10
0.933614
 20
-1.765209
 40
0.003
 41
0.003
 10
0.894969
 20
-1.826504
 40
0.003
 41
0.003
  0
LWPOLYLINE
  5
3B1
100
AcDbEntity
  8
0
 62
     0
100
AcDbPolyline
 90
        2
 70
     0
 39
0.003
 10
0.894969
 20
-1.826504
 40
0.003
 41
0.003
 10
0.855854
 20
-1.884185
 40
0.003
 41
0.003
  0
LWPOLYLINE
  5
3B2
100
AcDbEntity
  8
0
 62
     0
100
AcDbPolyline
 90
        2
 70
     0
 39
0.003
 10
0.855854
 20
-1.884185
 40
0.003
 41
0.003
 10
0.816398
 20
-1.938366
 40
0.003
 41
0.003
  0
LWPOLYLINE
  5
3B3
100
AcDbEntity
  8
0
 62
     0
100
AcDbPolyline
 90
        2
 70
     0
 39
0.003
 10
0.816398
 20
-1.938366
 40
0.003
 41
0.003
 10
0.776701
 20
-1.98915
 40
0.003
 41
0.003
  0
LWPOLYLINE
  5
3B4
100
AcDbEntity
  8
0
 62
     0
100
AcDbPolyline
 90
        2
 70
     0
 39
0.003
 10
0.776701
 20
-1.98915
 40
0.003
 41
0.003
 10
0.736894
 20
-2.036654
 40
0.003
 41
0.003
  0
LWPOLYLINE
  5
3B5
100
AcDbEntity
  8
0
 62
     0
100
AcDbPolyline
 90
        2
 70
     0
 39
0.003
 10
0.736894
 20
-2.036654
 40
0.003
 41
0.003
 10
0.697091
 20
-2.080976
 40
0.003
 41
0.003
  0
LWPOLYLINE
  5
3B6
100
AcDbEntity
  8
0
 62
     0
100
AcDbPolyline
 90
        2
 70
     0
 39
0.003
 10
0.697091
 20
-2.080976
 40
0.003
 41
0.003
 10
0.657413
 20
-2.12224
 40
0.003
 41
0.003
  0
LWPOLYLINE
  5
3B7
100
AcDbEntity
  8
0
 62
     0
100
AcDbPolyline
 90
        2
 70
     0
 39
0.003
 10
0.657413
 20
-2.12224
 40
0.003
 41
0.003
 10
0.617972
 20
-2.160531
 40
0.003
 41
0.003
  0
LWPOLYLINE
  5
3B8
100
AcDbEntity
  8
0
 62
     0
100
AcDbPolyline
 90
        2
 70
     0
 39
0.003
 10
0.617972
 20
-2.160531
 40
0.003
 41
0.003
 10
0.578886
 20
-2.19598
 40
0.003
 41
0.003
  0
LWPOLYLINE
  5
3B9
100
AcDbEntity
  8
0
 62
     0
100
AcDbPolyline
 90
        2
 70
     0
 39
0.003
 10
0.578886
 20
-2.19598
 40
0.003
 41
0.003
 10
0.540272
 20
-2.228685
 40
0.003
 41
0.003
  0
LWPOLYLINE
  5
3BA
100
AcDbEntity
  8
0
 62
     0
100
AcDbPolyline
 90
        2
 70
     0
 39
0.003
 10
0.540272
 20
-2.228685
 40
0.003
 41
0.003
 10
0.502244
 20
-2.25876
 40
0.003
 41
0.003
  0
LWPOLYLINE
  5
3BB
100
AcDbEntity
  8
0
 62
     0
100
AcDbPolyline
 90
        2
 70
     0
 39
0.003
 10
0.502244
 20
-2.25876
 40
0.003
 41
0.003
 10
0.464929
 20
-2.286303
 40
0.003
 41
0.003
  0
LWPOLYLINE
  5
3BC
100
AcDbEntity
  8
0
 62
     0
100
AcDbPolyline
 90
        2
 70
     0
 39
0.003
 10
0.464929
 20
-2.286303
 40
0.003
 41
0.003
 10
0.428441
 20
-2.311437
 40
0.003
 41
0.003
  0
LWPOLYLINE
  5
3BD
100
AcDbEntity
  8
0
 62
     0
100
AcDbPolyline
 90
        2
 70
     0
 39
0.003
 10
0.428441
 20
-2.311437
 40
0.003
 41
0.003
 10
0.392898
 20
-2.33426
 40
0.003
 41
0.003
  0
LWPOLYLINE
  5
3BE
100
AcDbEntity
  8
0
 62
     0
100
AcDbPolyline
 90
        2
 70
     0
 39
0.003
 10
0.392898
 20
-2.33426
 40
0.003
 41
0.003
 10
0.358406
 20
-2.354886
 40
0.003
 41
0.003
  0
LWPOLYLINE
  5
3BF
100
AcDbEntity
  8
0
 62
     0
100
AcDbPolyline
 90
        2
 70
     0
 39
0.003
 10
0.358406
 20
-2.354886
 40
0.003
 41
0.003
 10
0.325106
 20
-2.373413
 40
0.003
 41
0.003
  0
LWPOLYLINE
  5
3C0
100
AcDbEntity
  8
0
 62
     0
100
AcDbPolyline
 90
        2
 70
     0
 39
0.003
 10
0.325106
 20
-2.373413
 40
0.003
 41
0.003
 10
0.293098
 20
-2.389965
 40
0.003
 41
0.003
  0
LWPOLYLINE
  5
3C1
100
AcDbEntity
  8
0
 62
     0
100
AcDbPolyline
 90
        2
 70
     0
 39
0.003
 10
0.293098
 20
-2.389965
 40
0.003
 41
0.003
 10
0.262504
 20
-2.404638
 40
0.003
 41
0.003
  0
LWPOLYLINE
  5
3C2
100
AcDbEntity
  8
0
 62
     0
100
AcDbPolyline
 90
        2
 70
     0
 39
0.003
 10
0.262504
 20
-2.404638
 40
0.003
 41
0.003
 10
0.233437
 20
-2.417551
 40
0.003
 41
0.003
  0
LWPOLYLINE
  5
3C3
100
AcDbEntity
  8
0
 62
     0
100
AcDbPolyline
 90
        2
 70
     0
 39
0.003
 10
0.233437
 20
-2.417551
 40
0.003
 41
0.003
 10
0.206028
 20
-2.428803
 40
0.003
 41
0.003
  0
LWPOLYLINE
  5
3C4
100
AcDbEntity
  8
0
 62
     0
100
AcDbPolyline
 90
        2
 70
     0
 39
0.003
 10
0.206028
 20
-2.428803
 40
0.003
 41
0.003
 10
0.180382
 20
-2.438512
 40
0.003
 41
0.003
  0
LWPOLYLINE
  5
3C5
100
AcDbEntity
  8
0
 62
     0
100
AcDbPolyline
 90
        2
 70
     0
 39
0.003
 10
0.180382
 20
-2.438512
 40
0.003
 41
0.003
 10
0.156618
 20
-2.446776
 40
0.003
 41
0.003
  0
LWPOLYLINE
  5
3C6
100
AcDbEntity
  8
0
 62
     0
100
AcDbPolyline
 90
        2
 70
     0
 39
0.003
 10
0.156618
 20
-2.446776
 40
0.003
 41
0.003
 10
0.134854
 20
-2.453717
 40
0.003
 41
0.003
  0
LWPOLYLINE
  5
3C7
100
AcDbEntity
  8
0
 62
     0
100
AcDbPolyline
 90
        2
 70
     0
 39
0.003
 10
0.134854
 20
-2.453717
 40
0.003
 41
0.003
 10
0.11522
 20
-2.459429
 40
0.003
 41
0.003
  0
LWPOLYLINE
  5
3C8
100
AcDbEntity
  8
0
 62
     0
100
AcDbPolyline
 90
        2
 70
     0
 39
0.003
 10
0.11522
 20
-2.459429
 40
0.003
 41
0.003
 10
0.097815
 20
-2.464028
 40
0.003
 41
0.003
  0
LWPOLYLINE
  5
3C9
100
AcDbEntity
  8
0
 62
     0
100
AcDbPolyline
 90
        2
 70
     0
 39
0.003
 10
0.097815
 20
-2.464028
 40
0.003
 41
0.003
 10
0.082768
 20
-2.467622
 40
0.003
 41
0.003
  0
LWPOLYLINE
  5
3CA
100
AcDbEntity
  8
0
 62
     0
100
AcDbPolyline
 90
        2
 70
     0
 39
0.003
 10
0.082768
 20
-2.467622
 40
0.003
 41
0.003
 10
0.070189
 20
-2.470323
 40
0.003
 41
0.003
  0
LWPOLYLINE
  5
3CB
100
AcDbEntity
  8
0
 62
     0
100
AcDbPolyline
 90
        2
 70
     0
 39
0.003
 10
0.070189
 20
-2.470323
 40
0.003
 41
0.003
 10
0.060205
 20
-2.472228
 40
0.003
 41
0.003
  0
LWPOLYLINE
  5
3CC
100
AcDbEntity
  8
0
 62
     0
100
AcDbPolyline
 90
        2
 70
     0
 39
0.003
 10
0.060205
 20
-2.472228
 40
0.003
 41
0.003
 10
0.052925
 20
-2.473461
 40
0.003
 41
0.003
  0
LWPOLYLINE
  5
3CD
100
AcDbEntity
  8
0
 62
     0
100
AcDbPolyline
 90
        2
 70
     0
 39
0.003
 10
0.052925
 20
-2.473461
 40
0.003
 41
0.003
 10
0.048472
 20
-2.474118
 40
0.003
 41
0.003
  0
LWPOLYLINE
  5
3CE
100
AcDbEntity
  8
0
 62
     0
100
AcDbPolyline
 90
        2
 70
     0
 39
0.003
 10
0.048472
 20
-2.474118
 40
0.003
 41
0.003
 10
0.046957
 20
-2.474315
 40
0.003
 41
0.003
  0
LWPOLYLINE
  5
3CF
100
AcDbEntity
  8
0
 62
     0
100
AcDbPolyline
 90
        2
 70
     0
 39
0.003
 10
0.046957
 20
-2.474315
 40
0.003
 41
0.003
 10
-0.6265
 20
-2.080102
 40
0.003
 41
0.003
  0
LWPOLYLINE
  5
3D0
100
AcDbEntity
  8
0
 62
     0
100
AcDbPolyline
 90
        2
 70
     0
 39
0.003
 10
-0.6265
 20
-2.080102
 40
0.003
 41
0.003
 10
-0.624984
 20
-2.079906
 40
0.003
 41
0.003
  0
LWPOLYLINE
  5
3D1
100
AcDbEntity
  8
0
 62
     0
100
AcDbPolyline
 90
        2
 70
     0
 39
0.003
 10
-0.624984
 20
-2.079906
 40
0.003
 41
0.003
 10
-0.620531
 20
-2.079248
 40
0.003
 41
0.003
  0
LWPOLYLINE
  5
3D2
100
AcDbEntity
  8
0
 62
     0
100
AcDbPolyline
 90
        2
 70
     0
 39
0.003
 10
-0.620531
 20
-2.079248
 40
0.003
 41
0.003
 10
-0.613252
 20
-2.078016
 40
0.003
 41
0.003
  0
LWPOLYLINE
  5
3D3
100
AcDbEntity
  8
0
 62
     0
100
AcDbPolyline
 90
        2
 70
     0
 39
0.003
 10
-0.613252
 20
-2.078016
 40
0.003
 41
0.003
 10
-0.603268
 20
-2.07611
 40
0.003
 41
0.003
  0
LWPOLYLINE
  5
3D4
100
AcDbEntity
  8
0
 62
     0
100
AcDbPolyline
 90
        2
 70
     0
 39
0.003
 10
-0.603268
 20
-2.07611
 40
0.003
 41
0.003
 10
-0.590689
 20
-2.073409
 40
0.003
 41
0.003
  0
LWPOLYLINE
  5
3D5
100
AcDbEntity
  8
0
 62
     0
100
AcDbPolyline
 90
        2
 70
     0
 39
0.003
 10
-0.590689
 20
-2.073409
 40
0.003
 41
0.003
 10
-0.575642
 20
-2.069815
 40
0.003
 41
0.003
  0
LWPOLYLINE
  5
3D6
100
AcDbEntity
  8
0
 62
     0
100
AcDbPolyline
 90
        2
 70
     0
 39
0.003
 10
-0.575642
 20
-2.069815
 40
0.003
 41
0.003
 10
-0.558236
 20
-2.065217
 40
0.003
 41
0.003
  0
LWPOLYLINE
  5
3D7
100
AcDbEntity
  8
0
 62
     0
100
AcDbPolyline
 90
        2
 70
     0
 39
0.003
 10
-0.558236
 20
-2.065217
 40
0.003
 41
0.003
 10
-0.538602
 20
-2.059504
 40
0.003
 41
0.003
  0
LWPOLYLINE
  5
3D8
100
AcDbEntity
  8
0
 62
     0
100
AcDbPolyline
 90
        2
 70
     0
 39
0.003
 10
-0.538602
 20
-2.059504
 40
0.003
 41
0.003
 10
-0.516839
 20
-2.052563
 40
0.003
 41
0.003
  0
LWPOLYLINE
  5
3D9
100
AcDbEntity
  8
0
 62
     0
100
AcDbPolyline
 90
        2
 70
     0
 39
0.003
 10
-0.516839
 20
-2.052563
 40
0.003
 41
0.003
 10
-0.493075
 20
-2.044299
 40
0.003
 41
0.003
  0
LWPOLYLINE
  5
3DA
100
AcDbEntity
  8
0
 62
     0
100
AcDbPolyline
 90
        2
 70
     0
 39
0.003
 10
-0.493075
 20
-2.044299
 40
0.003
 41
0.003
 10
-0.467429
 20
-2.034591
 40
0.003
 41
0.003
  0
LWPOLYLINE
  5
3DB
100
AcDbEntity
  8
0
 62
     0
100
AcDbPolyline
 90
        2
 70
     0
 39
0.003
 10
-0.467429
 20
-2.034591
 40
0.003
 41
0.003
 10
-0.44002
 20
-2.023339
 40
0.003
 41
0.003
  0
LWPOLYLINE
  5
3DC
100
AcDbEntity
  8
0
 62
     0
100
AcDbPolyline
 90
        2
 70
     0
 39
0.003
 10
-0.44002
 20
-2.023339
 40
0.003
 41
0.003
 10
-0.410953
 20
-2.010425
 40
0.003
 41
0.003
  0
LWPOLYLINE
  5
3DD
100
AcDbEntity
  8
0
 62
     0
100
AcDbPolyline
 90
        2
 70
     0
 39
0.003
 10
-0.410953
 20
-2.010425
 40
0.003
 41
0.003
 10
-0.380358
 20
-1.995752
 40
0.003
 41
0.003
  0
LWPOLYLINE
  5
3DE
100
AcDbEntity
  8
0
 62
     0
100
AcDbPolyline
 90
        2
 70
     0
 39
0.003
 10
-0.380358
 20
-1.995752
 40
0.003
 41
0.003
 10
-0.34835
 20
-1.979201
 40
0.003
 41
0.003
  0
LWPOLYLINE
  5
3DF
100
AcDbEntity
  8
0
 62
     0
100
AcDbPolyline
 90
        2
 70
     0
 39
0.003
 10
-0.34835
 20
-1.979201
 40
0.003
 41
0.003
 10
-0.315051
 20
-1.960673
 40
0.003
 41
0.003
  0
LWPOLYLINE
  5
3E0
100
AcDbEntity
  8
0
 62
     0
100
AcDbPolyline
 90
        2
 70
     0
 39
0.003
 10
-0.315051
 20
-1.960673
 40
0.003
 41
0.003
 10
-0.280559
 20
-1.940047
 40
0.003
 41
0.003
  0
LWPOLYLINE
  5
3E1
100
AcDbEntity
  8
0
 62
     0
100
AcDbPolyline
 90
        2
 70
     0
 39
0.003
 10
-0.280559
 20
-1.940047
 40
0.003
 41
0.003
 10
-0.245016
 20
-1.917224
 40
0.003
 41
0.003
  0
LWPOLYLINE
  5
3E2
100
AcDbEntity
  8
0
 62
     0
100
AcDbPolyline
 90
        2
 70
     0
 39
0.003
 10
-0.245016
 20
-1.917224
 40
0.003
 41
0.003
 10
-0.208528
 20
-1.892091
 40
0.003
 41
0.003
  0
LWPOLYLINE
  5
3E3
100
AcDbEntity
  8
0
 62
     0
100
AcDbPolyline
 90
        2
 70
     0
 39
0.003
 10
-0.208528
 20
-1.892091
 40
0.003
 41
0.003
 10
-0.171213
 20
-1.864547
 40
0.003
 41
0.003
  0
LWPOLYLINE
  5
3E4
100
AcDbEntity
  8
0
 62
     0
100
AcDbPolyline
 90
        2
 70
     0
 39
0.003
 10
-0.171213
 20
-1.864547
 40
0.003
 41
0.003
 10
-0.133185
 20
-1.834472
 40
0.003
 41
0.003
  0
LWPOLYLINE
  5
3E5
100
AcDbEntity
  8
0
 62
     0
100
AcDbPolyline
 90
        2
 70
     0
 39
0.003
 10
-0.133185
 20
-1.834472
 40
0.003
 41
0.003
 10
-0.094571
 20
-1.801768
 40
0.003
 41
0.003
  0
LWPOLYLINE
  5
3E6
100
AcDbEntity
  8
0
 62
     0
100
AcDbPolyline
 90
        2
 70
     0
 39
0.003
 10
-0.094571
 20
-1.801768
 40
0.003
 41
0.003
 10
-0.055484
 20
-1.766319
 40
0.003
 41
0.003
  0
LWPOLYLINE
  5
3E7
100
AcDbEntity
  8
0
 62
     0
100
AcDbPolyline
 90
        2
 70
     0
 39
0.003
 10
-0.055484
 20
-1.766319
 40
0.003
 41
0.003
 10
-0.016043
 20
-1.728028
 40
0.003
 41
0.003
  0
LWPOLYLINE
  5
3E8
100
AcDbEntity
  8
0
 62
     0
100
AcDbPolyline
 90
        2
 70
     0
 39
0.003
 10
-0.016043
 20
-1.728028
 40
0.003
 41
0.003
 10
0.023634
 20
-1.686764
 40
0.003
 41
0.003
  0
LWPOLYLINE
  5
3E9
100
AcDbEntity
  8
0
 62
     0
100
AcDbPolyline
 90
        2
 70
     0
 39
0.003
 10
0.023634
 20
-1.686764
 40
0.003
 41
0.003
 10
0.063437
 20
-1.642441
 40
0.003
 41
0.003
  0
LWPOLYLINE
  5
3EA
100
AcDbEntity
  8
0
 62
     0
100
AcDbPolyline
 90
        2
 70
     0
 39
0.003
 10
0.063437
 20
-1.642441
 40
0.003
 41
0.003
 10
0.103244
 20
-1.594937
 40
0.003
 41
0.003
  0
LWPOLYLINE
  5
3EB
100
AcDbEntity
  8
0
 62
     0
100
AcDbPolyline
 90
        2
 70
     0
 39
0.003
 10
0.103244
 20
-1.594937
 40
0.003
 41
0.003
 10
0.142941
 20
-1.544154
 40
0.003
 41
0.003
  0
LWPOLYLINE
  5
3EC
100
AcDbEntity
  8
0
 62
     0
100
AcDbPolyline
 90
        2
 70
     0
 39
0.003
 10
0.142941
 20
-1.544154
 40
0.003
 41
0.003
 10
0.182398
 20
-1.489972
 40
0.003
 41
0.003
  0
LWPOLYLINE
  5
3ED
100
AcDbEntity
  8
0
 62
     0
100
AcDbPolyline
 90
        2
 70
     0
 39
0.003
 10
0.182398
 20
-1.489972
 40
0.003
 41
0.003
 10
0.221512
 20
-1.432291
 40
0.003
 41
0.003
  0
LWPOLYLINE
  5
3EE
100
AcDbEntity
  8
0
 62
     0
100
AcDbPolyline
 90
        2
 70
     0
 39
0.003
 10
0.221512
 20
-1.432291
 40
0.003
 41
0.003
 10
0.260157
 20
-1.370996
 40
0.003
 41
0.003
  0
LWPOLYLINE
  5
3EF
100
AcDbEntity
  8
0
 62
     0
100
AcDbPolyline
 90
        2
 70
     0
 39
0.003
 10
0.260157
 20
-1.370996
 40
0.003
 41
0.003
 10
0.29822
 20
-1.305992
 40
0.003
 41
0.003
  0
LWPOLYLINE
  5
3F0
100
AcDbEntity
  8
0
 62
     0
100
AcDbPolyline
 90
        2
 70
     0
 39
0.003
 10
0.29822
 20
-1.305992
 40
0.003
 41
0.003
 10
0.335252
 20
-1.239264
 40
0.003
 41
0.003
  0
LWPOLYLINE
  5
3F1
100
AcDbEntity
  8
0
 62
     0
100
AcDbPolyline
 90
        2
 70
     0
 39
0.003
 10
0.335252
 20
-1.239264
 40
0.003
 41
0.003
 10
0.371075
 20
-1.172953
 40
0.003
 41
0.003
  0
LWPOLYLINE
  5
3F2
100
AcDbEntity
  8
0
 62
     0
100
AcDbPolyline
 90
        2
 70
     0
 39
0.003
 10
0.371075
 20
-1.172953
 40
0.003
 41
0.003
 10
0.405937
 20
-1.107102
 40
0.003
 41
0.003
  0
LWPOLYLINE
  5
3F3
100
AcDbEntity
  8
0
 62
     0
100
AcDbPolyline
 90
        2
 70
     0
 39
0.003
 10
0.405937
 20
-1.107102
 40
0.003
 41
0.003
 10
0.440087
 20
-1.041787
 40
0.003
 41
0.003
  0
LWPOLYLINE
  5
3F4
100
AcDbEntity
  8
0
 62
     0
100
AcDbPolyline
 90
        2
 70
     0
 39
0.003
 10
0.440087
 20
-1.041787
 40
0.003
 41
0.003
 10
0.473768
 20
-0.977047
 40
0.003
 41
0.003
  0
LWPOLYLINE
  5
3F5
100
AcDbEntity
  8
0
 62
     0
100
AcDbPolyline
 90
        2
 70
     0
 39
0.003
 10
0.473768
 20
-0.977047
 40
0.003
 41
0.003
 10
0.507248
 20
-0.912949
 40
0.003
 41
0.003
  0
LWPOLYLINE
  5
3F6
100
AcDbEntity
  8
0
 62
     0
100
AcDbPolyline
 90
        2
 70
     0
 39
0.003
 10
0.507248
 20
-0.912949
 40
0.003
 41
0.003
 10
0.54076
 20
-0.849543
 40
0.003
 41
0.003
  0
LWPOLYLINE
  5
3F7
100
AcDbEntity
  8
0
 62
     0
100
AcDbPolyline
 90
        2
 70
     0
 39
0.003
 10
0.54076
 20
-0.849543
 40
0.003
 41
0.003
 10
0.574571
 20
-0.786898
 40
0.003
 41
0.003
  0
LWPOLYLINE
  5
3F8
100
AcDbEntity
  8
0
 62
     0
100
AcDbPolyline
 90
        2
 70
     0
 39
0.003
 10
0.574571
 20
-0.786898
 40
0.003
 41
0.003
 10
0.608913
 20
-0.725055
 40
0.003
 41
0.003
  0
LWPOLYLINE
  5
3F9
100
AcDbEntity
  8
0
 62
     0
100
AcDbPolyline
 90
        2
 70
     0
 39
0.003
 10
0.608913
 20
-0.725055
 40
0.003
 41
0.003
 10
0.644051
 20
-0.664087
 40
0.003
 41
0.003
  0
LWPOLYLINE
  5
3FA
100
AcDbEntity
  8
0
 62
     0
100
AcDbPolyline
 90
        2
 70
     0
 39
0.003
 10
0.644051
 20
-0.664087
 40
0.003
 41
0.003
 10
0.680228
 20
-0.604039
 40
0.003
 41
0.003
  0
LWPOLYLINE
  5
3FB
100
AcDbEntity
  8
0
 62
     0
100
AcDbPolyline
 90
        2
 70
     0
 39
0.003
 10
0.680228
 20
-0.604039
 40
0.003
 41
0.003
 10
0.717709
 20
-0.54498
 40
0.003
 41
0.003
  0
LWPOLYLINE
  5
3FC
100
AcDbEntity
  8
0
 62
     0
100
AcDbPolyline
 90
        2
 70
     0
 39
0.003
 10
0.717709
 20
-0.54498
 40
0.003
 41
0.003
 10
0.756724
 20
-0.486953
 40
0.003
 41
0.003
  0
LWPOLYLINE
  5
3FD
100
AcDbEntity
  8
0
 62
     0
100
AcDbPolyline
 90
        2
 70
     0
 39
0.003
 10
0.756724
 20
-0.486953
 40
0.003
 41
0.003
 10
0.797539
 20
-0.430031
 40
0.003
 41
0.003
  0
LWPOLYLINE
  5
3FE
100
AcDbEntity
  8
0
 62
     0
100
AcDbPolyline
 90
        2
 70
     0
 39
0.003
 10
0.797539
 20
-0.430031
 40
0.003
 41
0.003
 10
0.840402
 20
-0.37426
 40
0.003
 41
0.003
  0
LWPOLYLINE
  5
3FF
100
AcDbEntity
  8
0
 62
     0
100
AcDbPolyline
 90
        2
 70
     0
 39
0.003
 10
0.840402
 20
-0.37426
 40
0.003
 41
0.003
 10
0.885563
 20
-0.319705
 40
0.003
 41
0.003
  0
LWPOLYLINE
  5
400
100
AcDbEntity
  8
0
 62
     0
100
AcDbPolyline
 90
        2
 70
     0
 39
0.003
 10
0.885563
 20
-0.319705
 40
0.003
 41
0.003
 10
0.933264
 20
-0.266409
 40
0.003
 41
0.003
  0
LWPOLYLINE
  5
401
100
AcDbEntity
  8
0
 62
     0
100
AcDbPolyline
 90
        2
 70
     0
 39
0.003
 10
0.933264
 20
-0.266409
 40
0.003
 41
0.003
 10
0.983768
 20
-0.214445
 40
0.003
 41
0.003
  0
LWPOLYLINE
  5
402
100
AcDbEntity
  8
0
 62
     0
100
AcDbPolyline
 90
        2
 70
     0
 39
0.003
 10
0.983768
 20
-0.214445
 40
0.003
 41
0.003
 10
1.037315
 20
-0.163862
 40
0.003
 41
0.003
  0
LWPOLYLINE
  5
403
100
AcDbEntity
  8
0
 62
     0
100
AcDbPolyline
 90
        2
 70
     0
 39
0.003
 10
1.037315
 20
-0.163862
 40
0.003
 41
0.003
 10
1.094169
 20
-0.114724
 40
0.003
 41
0.003
  0
LWPOLYLINE
  5
404
100
AcDbEntity
  8
0
 62
     0
100
AcDbPolyline
 90
        2
 70
     0
 39
0.003
 10
1.094169
 20
-0.114724
 40
0.003
 41
0.003
 10
1.154567
 20
-0.067079
 40
0.003
 41
0.003
  0
LWPOLYLINE
  5
405
100
AcDbEntity
  8
0
 62
     0
100
AcDbPolyline
 90
        2
 70
     0
 39
0.003
 10
1.154567
 20
-0.067079
 40
0.003
 41
0.003
 10
1.218772
 20
-0.020996
 40
0.003
 41
0.003
  0
LWPOLYLINE
  5
406
100
AcDbEntity
  8
0
 62
     0
100
AcDbPolyline
 90
        2
 70
     0
 39
0.003
 10
1.218772
 20
-0.020996
 40
0.003
 41
0.003
 10
1.287024
 20
0.023476
 40
0.003
 41
0.003
  0
LWPOLYLINE
  5
407
100
AcDbEntity
  8
0
 62
     0
100
AcDbPolyline
 90
        2
 70
     0
 39
0.003
 10
1.287024
 20
0.023476
 40
0.003
 41
0.003
 10
1.359587
 20
0.066283
 40
0.003
 41
0.003
  0
LWPOLYLINE
  5
408
100
AcDbEntity
  8
0
 62
     0
100
AcDbPolyline
 90
        2
 70
     0
 39
0.003
 10
1.359587
 20
0.066283
 40
0.003
 41
0.003
 10
1.436693
 20
0.107354
 40
0.003
 41
0.003
  0
LWPOLYLINE
  5
409
100
AcDbEntity
  8
0
 62
     0
100
AcDbPolyline
 90
        2
 70
     0
 39
0.003
 10
1.436693
 20
0.107354
 40
0.003
 41
0.003
 10
1.51861
 20
0.14665
 40
0.003
 41
0.003
  0
LWPOLYLINE
  5
40A
100
AcDbEntity
  8
0
 62
     0
100
AcDbPolyline
 90
        2
 70
     0
 39
0.003
 10
1.51861
 20
0.14665
 40
0.003
 41
0.003
 10
1.605579
 20
0.184102
 40
0.003
 41
0.003
  0
LWPOLYLINE
  5
40B
100
AcDbEntity
  8
0
 62
     0
100
AcDbPolyline
 90
        2
 70
     0
 39
0.003
 10
1.605579
 20
0.184102
 40
0.003
 41
0.003
 10
1.697858
 20
0.219661
 40
0.003
 41
0.003
  0
LWPOLYLINE
  5
40C
100
AcDbEntity
  8
0
 62
     0
100
AcDbPolyline
 90
        2
 70
     0
 39
0.003
 10
1.697858
 20
0.219661
 40
0.003
 41
0.003
 10
1.795689
 20
0.253256
 40
0.003
 41
0.003
  0
LWPOLYLINE
  5
40D
100
AcDbEntity
  8
0
 62
     0
100
AcDbPolyline
 90
        2
 70
     0
 39
0.003
 10
1.795689
 20
0.253256
 40
0.003
 41
0.003
 10
1.899331
 20
0.284843
 40
0.003
 41
0.003
  0
LWPOLYLINE
  5
40E
100
AcDbEntity
  8
0
 62
     0
100
AcDbPolyline
 90
        2
 70
     0
 39
0.003
 10
1.899331
 20
0.284843
 40
0.003
 41
0.003
 10
2.009028
 20
0.314354
 40
0.003
 41
0.003
  0
LWPOLYLINE
  5
40F
100
AcDbEntity
  8
0
 62
     0
100
AcDbPolyline
 90
        2
 70
     0
 39
0.003
 10
2.009028
 20
0.314354
 40
0.003
 41
0.003
 10
2.125043
 20
0.341748
 40
0.003
 41
0.003
  0
LWPOLYLINE
  5
410
100
AcDbEntity
  8
0
 62
   127
100
AcDbPolyline
 90
        2
 70
     0
 39
0.003
 10
-0.683319
 20
-2.321378
 40
0.003
 41
0.003
 10
-0.009862
 20
-2.715591
 40
0.003
 41
0.003
  0
LWPOLYLINE
  5
411
100
AcDbEntity
  8
0
 62
   127
100
AcDbPolyline
 90
        2
 70
     0
 39
0.003
 10
-0.009862
 20
-2.715591
 40
0.003
 41
0.003
 10
-0.02022
 20
-2.710894
 40
0.003
 41
0.003
  0
LWPOLYLINE
  5
412
100
AcDbEntity
  8
0
 62
   127
100
AcDbPolyline
 90
        2
 70
     0
 39
0.003
 10
-0.02022
 20
-2.710894
 40
0.003
 41
0.003
 10
-0.693677
 20
-2.316681
 40
0.003
 41
0.003
  0
LWPOLYLINE
  5
413
100
AcDbEntity
  8
0
 62
   127
100
AcDbPolyline
 90
        2
 70
     0
 39
0.003
 10
-0.693677
 20
-2.316681
 40
0.003
 41
0.003
 10
-0.683319
 20
-2.321378
 40
0.003
 41
0.003
  0
LWPOLYLINE
  5
414
100
AcDbEntity
  8
0
 62
   253
100
AcDbPolyline
 90
        2
 70
     0
 39
0.003
 10
-0.693677
 20
-2.316681
 40
0.003
 41
0.003
 10
-0.02022
 20
-2.710894
 40
0.003
 41
0.003
  0
LWPOLYLINE
  5
415
100
AcDbEntity
  8
0
 62
   253
100
AcDbPolyline
 90
        2
 70
     0
 39
0.003
 10
-0.02022
 20
-2.710894
 40
0.003
 41
0.003
 10
-0.032976
 20
-2.706878
 40
0.003
 41
0.003
  0
LWPOLYLINE
  5
416
100
AcDbEntity
  8
0
 62
   253
100
AcDbPolyline
 90
        2
 70
     0
 39
0.003
 10
-0.032976
 20
-2.706878
 40
0.003
 41
0.003
 10
-0.706433
 20
-2.312665
 40
0.003
 41
0.003
  0
LWPOLYLINE
  5
417
100
AcDbEntity
  8
0
 62
   253
100
AcDbPolyline
 90
        2
 70
     0
 39
0.003
 10
-0.706433
 20
-2.312665
 40
0.003
 41
0.003
 10
-0.693677
 20
-2.316681
 40
0.003
 41
0.003
  0
LWPOLYLINE
  5
418
100
AcDbEntity
  8
0
 62
     9
100
AcDbPolyline
 90
        2
 70
     0
 39
0.003
 10
-0.706433
 20
-2.312665
 40
0.003
 41
0.003
 10
-0.032976
 20
-2.706878
 40
0.003
 41
0.003
  0
LWPOLYLINE
  5
419
100
AcDbEntity
  8
0
 62
     9
100
AcDbPolyline
 90
        2
 70
     0
 39
0.003
 10
-0.032976
 20
-2.706878
 40
0.003
 41
0.003
 10
-0.047961
 20
-2.70363
 40
0.003
 41
0.003
  0
LWPOLYLINE
  5
41A
100
AcDbEntity
  8
0
 62
     9
100
AcDbPolyline
 90
        2
 70
     0
 39
0.003
 10
-0.047961
 20
-2.70363
 40
0.003
 41
0.003
 10
-0.721417
 20
-2.309417
 40
0.003
 41
0.003
  0
LWPOLYLINE
  5
41B
100
AcDbEntity
  8
0
 62
     9
100
AcDbPolyline
 90
        2
 70
     0
 39
0.003
 10
-0.721417
 20
-2.309417
 40
0.003
 41
0.003
 10
-0.706433
 20
-2.312665
 40
0.003
 41
0.003
  0
LWPOLYLINE
  5
41C
100
AcDbEntity
  8
0
 62
     9
100
AcDbPolyline
 90
        2
 70
     0
 39
0.003
 10
-0.721417
 20
-2.309417
 40
0.003
 41
0.003
 10
-0.047961
 20
-2.70363
 40
0.003
 41
0.003
  0
LWPOLYLINE
  5
41D
100
AcDbEntity
  8
0
 62
     9
100
AcDbPolyline
 90
        2
 70
     0
 39
0.003
 10
-0.047961
 20
-2.70363
 40
0.003
 41
0.003
 10
-0.064992
 20
-2.701201
 40
0.003
 41
0.003
  0
LWPOLYLINE
  5
41E
100
AcDbEntity
  8
0
 62
     9
100
AcDbPolyline
 90
        2
 70
     0
 39
0.003
 10
-0.064992
 20
-2.701201
 40
0.003
 41
0.003
 10
-0.738449
 20
-2.306988
 40
0.003
 41
0.003
  0
LWPOLYLINE
  5
41F
100
AcDbEntity
  8
0
 62
     9
100
AcDbPolyline
 90
        2
 70
     0
 39
0.003
 10
-0.738449
 20
-2.306988
 40
0.003
 41
0.003
 10
-0.721417
 20
-2.309417
 40
0.003
 41
0.003
  0
LWPOLYLINE
  5
420
100
AcDbEntity
  8
0
 62
     9
100
AcDbPolyline
 90
        2
 70
     0
 39
0.003
 10
-0.738449
 20
-2.306988
 40
0.003
 41
0.003
 10
-0.064992
 20
-2.701201
 40
0.003
 41
0.003
  0
LWPOLYLINE
  5
421
100
AcDbEntity
  8
0
 62
     9
100
AcDbPolyline
 90
        2
 70
     0
 39
0.003
 10
-0.064992
 20
-2.701201
 40
0.003
 41
0.003
 10
-0.083906
 20
-2.699681
 40
0.003
 41
0.003
  0
LWPOLYLINE
  5
422
100
AcDbEntity
  8
0
 62
     9
100
AcDbPolyline
 90
        2
 70
     0
 39
0.003
 10
-0.083906
 20
-2.699681
 40
0.003
 41
0.003
 10
-0.757362
 20
-2.305469
 40
0.003
 41
0.003
  0
LWPOLYLINE
  5
423
100
AcDbEntity
  8
0
 62
     9
100
AcDbPolyline
 90
        2
 70
     0
 39
0.003
 10
-0.757362
 20
-2.305469
 40
0.003
 41
0.003
 10
-0.738449
 20
-2.306988
 40
0.003
 41
0.003
  0
LWPOLYLINE
  5
424
100
AcDbEntity
  8
0
 62
     9
100
AcDbPolyline
 90
        2
 70
     0
 39
0.003
 10
-0.757362
 20
-2.305469
 40
0.003
 41
0.003
 10
-0.083906
 20
-2.699681
 40
0.003
 41
0.003
  0
LWPOLYLINE
  5
425
100
AcDbEntity
  8
0
 62
     9
100
AcDbPolyline
 90
        2
 70
     0
 39
0.003
 10
-0.083906
 20
-2.699681
 40
0.003
 41
0.003
 10
-0.104524
 20
-2.699134
 40
0.003
 41
0.003
  0
LWPOLYLINE
  5
426
100
AcDbEntity
  8
0
 62
     9
100
AcDbPolyline
 90
        2
 70
     0
 39
0.003
 10
-0.104524
 20
-2.699134
 40
0.003
 41
0.003
 10
-0.77798
 20
-2.304921
 40
0.003
 41
0.003
  0
LWPOLYLINE
  5
427
100
AcDbEntity
  8
0
 62
     9
100
AcDbPolyline
 90
        2
 70
     0
 39
0.003
 10
-0.77798
 20
-2.304921
 40
0.003
 41
0.003
 10
-0.757362
 20
-2.305469
 40
0.003
 41
0.003
  0
LWPOLYLINE
  5
428
100
AcDbEntity
  8
0
 62
   254
100
AcDbPolyline
 90
        2
 70
     0
 39
0.003
 10
-0.77798
 20
-2.304921
 40
0.003
 41
0.003
 10
-0.104524
 20
-2.699134
 40
0.003
 41
0.003
  0
LWPOLYLINE
  5
429
100
AcDbEntity
  8
0
 62
   254
100
AcDbPolyline
 90
        2
 70
     0
 39
0.003
 10
-0.104524
 20
-2.699134
 40
0.003
 41
0.003
 10
-0.126677
 20
-2.699646
 40
0.003
 41
0.003
  0
LWPOLYLINE
  5
42A
100
AcDbEntity
  8
0
 62
   254
100
AcDbPolyline
 90
        2
 70
     0
 39
0.003
 10
-0.126677
 20
-2.699646
 40
0.003
 41
0.003
 10
-0.800134
 20
-2.305433
 40
0.003
 41
0.003
  0
LWPOLYLINE
  5
42B
100
AcDbEntity
  8
0
 62
   254
100
AcDbPolyline
 90
        2
 70
     0
 39
0.003
 10
-0.800134
 20
-2.305433
 40
0.003
 41
0.003
 10
-0.77798
 20
-2.304921
 40
0.003
 41
0.003
  0
LWPOLYLINE
  5
42C
100
AcDbEntity
  8
0
 62
   254
100
AcDbPolyline
 90
        2
 70
     0
 39
0.003
 10
-0.800134
 20
-2.305433
 40
0.003
 41
0.003
 10
-0.126677
 20
-2.699646
 40
0.003
 41
0.003
  0
LWPOLYLINE
  5
42D
100
AcDbEntity
  8
0
 62
   254
100
AcDbPolyline
 90
        2
 70
     0
 39
0.003
 10
-0.126677
 20
-2.699646
 40
0.003
 41
0.003
 10
-0.150177
 20
-2.701268
 40
0.003
 41
0.003
  0
LWPOLYLINE
  5
42E
100
AcDbEntity
  8
0
 62
   254
100
AcDbPolyline
 90
        2
 70
     0
 39
0.003
 10
-0.150177
 20
-2.701268
 40
0.003
 41
0.003
 10
-0.823634
 20
-2.307055
 40
0.003
 41
0.003
  0
LWPOLYLINE
  5
42F
100
AcDbEntity
  8
0
 62
   254
100
AcDbPolyline
 90
        2
 70
     0
 39
0.003
 10
-0.823634
 20
-2.307055
 40
0.003
 41
0.003
 10
-0.800134
 20
-2.305433
 40
0.003
 41
0.003
  0
LWPOLYLINE
  5
430
100
AcDbEntity
  8
0
 62
   254
100
AcDbPolyline
 90
        2
 70
     0
 39
0.003
 10
-0.823634
 20
-2.307055
 40
0.003
 41
0.003
 10
-0.150177
 20
-2.701268
 40
0.003
 41
0.003
  0
LWPOLYLINE
  5
431
100
AcDbEntity
  8
0
 62
   254
100
AcDbPolyline
 90
        2
 70
     0
 39
0.003
 10
-0.150177
 20
-2.701268
 40
0.003
 41
0.003
 10
-0.17487
 20
-2.704087
 40
0.003
 41
0.003
  0
LWPOLYLINE
  5
432
100
AcDbEntity
  8
0
 62
   254
100
AcDbPolyline
 90
        2
 70
     0
 39
0.003
 10
-0.17487
 20
-2.704087
 40
0.003
 41
0.003
 10
-0.848327
 20
-2.309874
 40
0.003
 41
0.003
  0
LWPOLYLINE
  5
433
100
AcDbEntity
  8
0
 62
   254
100
AcDbPolyline
 90
        2
 70
     0
 39
0.003
 10
-0.848327
 20
-2.309874
 40
0.003
 41
0.003
 10
-0.823634
 20
-2.307055
 40
0.003
 41
0.003
  0
LWPOLYLINE
  5
434
100
AcDbEntity
  8
0
 62
   254
100
AcDbPolyline
 90
        2
 70
     0
 39
0.003
 10
-0.848327
 20
-2.309874
 40
0.003
 41
0.003
 10
-0.17487
 20
-2.704087
 40
0.003
 41
0.003
  0
LWPOLYLINE
  5
435
100
AcDbEntity
  8
0
 62
   254
100
AcDbPolyline
 90
        2
 70
     0
 39
0.003
 10
-0.17487
 20
-2.704087
 40
0.003
 41
0.003
 10
-0.200571
 20
-2.708169
 40
0.003
 41
0.003
  0
LWPOLYLINE
  5
436
100
AcDbEntity
  8
0
 62
   254
100
AcDbPolyline
 90
        2
 70
     0
 39
0.003
 10
-0.200571
 20
-2.708169
 40
0.003
 41
0.003
 10
-0.874028
 20
-2.313957
 40
0.003
 41
0.003
  0
LWPOLYLINE
  5
437
100
AcDbEntity
  8
0
 62
   254
100
AcDbPolyline
 90
        2
 70
     0
 39
0.003
 10
-0.874028
 20
-2.313957
 40
0.003
 41
0.003
 10
-0.848327
 20
-2.309874
 40
0.003
 41
0.003
  0
LWPOLYLINE
  5
438
100
AcDbEntity
  8
0
 62
   254
100
AcDbPolyline
 90
        2
 70
     0
 39
0.003
 10
-0.874028
 20
-2.313957
 40
0.003
 41
0.003
 10
-0.200571
 20
-2.708169
 40
0.003
 41
0.003
  0
LWPOLYLINE
  5
439
100
AcDbEntity
  8
0
 62
   254
100
AcDbPolyline
 90
        2
 70
     0
 39
0.003
 10
-0.200571
 20
-2.708169
 40
0.003
 41
0.003
 10
-0.227106
 20
-2.713602
 40
0.003
 41
0.003
  0
LWPOLYLINE
  5
43A
100
AcDbEntity
  8
0
 62
   254
100
AcDbPolyline
 90
        2
 70
     0
 39
0.003
 10
-0.227106
 20
-2.713602
 40
0.003
 41
0.003
 10
-0.900563
 20
-2.31939
 40
0.003
 41
0.003
  0
LWPOLYLINE
  5
43B
100
AcDbEntity
  8
0
 62
   254
100
AcDbPolyline
 90
        2
 70
     0
 39
0.003
 10
-0.900563
 20
-2.31939
 40
0.003
 41
0.003
 10
-0.874028
 20
-2.313957
 40
0.003
 41
0.003
  0
LWPOLYLINE
  5
43C
100
AcDbEntity
  8
0
 62
   254
100
AcDbPolyline
 90
        2
 70
     0
 39
0.003
 10
-0.900563
 20
-2.31939
 40
0.003
 41
0.003
 10
-0.227106
 20
-2.713602
 40
0.003
 41
0.003
  0
LWPOLYLINE
  5
43D
100
AcDbEntity
  8
0
 62
   254
100
AcDbPolyline
 90
        2
 70
     0
 39
0.003
 10
-0.227106
 20
-2.713602
 40
0.003
 41
0.003
 10
-0.254303
 20
-2.720441
 40
0.003
 41
0.003
  0
LWPOLYLINE
  5
43E
100
AcDbEntity
  8
0
 62
   254
100
AcDbPolyline
 90
        2
 70
     0
 39
0.003
 10
-0.254303
 20
-2.720441
 40
0.003
 41
0.003
 10
-0.92776
 20
-2.326228
 40
0.003
 41
0.003
  0
LWPOLYLINE
  5
43F
100
AcDbEntity
  8
0
 62
   254
100
AcDbPolyline
 90
        2
 70
     0
 39
0.003
 10
-0.92776
 20
-2.326228
 40
0.003
 41
0.003
 10
-0.900563
 20
-2.31939
 40
0.003
 41
0.003
  0
LWPOLYLINE
  5
440
100
AcDbEntity
  8
0
 62
   254
100
AcDbPolyline
 90
        2
 70
     0
 39
0.003
 10
-0.92776
 20
-2.326228
 40
0.003
 41
0.003
 10
-0.254303
 20
-2.720441
 40
0.003
 41
0.003
  0
LWPOLYLINE
  5
441
100
AcDbEntity
  8
0
 62
   254
100
AcDbPolyline
 90
        2
 70
     0
 39
0.003
 10
-0.254303
 20
-2.720441
 40
0.003
 41
0.003
 10
-0.281992
 20
-2.728772
 40
0.003
 41
0.003
  0
LWPOLYLINE
  5
442
100
AcDbEntity
  8
0
 62
   254
100
AcDbPolyline
 90
        2
 70
     0
 39
0.003
 10
-0.281992
 20
-2.728772
 40
0.003
 41
0.003
 10
-0.955449
 20
-2.334559
 40
0.003
 41
0.003
  0
LWPOLYLINE
  5
443
100
AcDbEntity
  8
0
 62
   254
100
AcDbPolyline
 90
        2
 70
     0
 39
0.003
 10
-0.955449
 20
-2.334559
 40
0.003
 41
0.003
 10
-0.92776
 20
-2.326228
 40
0.003
 41
0.003
  0
LWPOLYLINE
  5
444
100
AcDbEntity
  8
0
 62
   254
100
AcDbPolyline
 90
        2
 70
     0
 39
0.003
 10
-0.955449
 20
-2.334559
 40
0.003
 41
0.003
 10
-0.281992
 20
-2.728772
 40
0.003
 41
0.003
  0
LWPOLYLINE
  5
445
100
AcDbEntity
  8
0
 62
   254
100
AcDbPolyline
 90
        2
 70
     0
 39
0.003
 10
-0.281992
 20
-2.728772
 40
0.003
 41
0.003
 10
-0.309992
 20
-2.738657
 40
0.003
 41
0.003
  0
LWPOLYLINE
  5
446
100
AcDbEntity
  8
0
 62
   254
100
AcDbPolyline
 90
        2
 70
     0
 39
0.003
 10
-0.309992
 20
-2.738657
 40
0.003
 41
0.003
 10
-0.983449
 20
-2.344445
 40
0.003
 41
0.003
  0
LWPOLYLINE
  5
447
100
AcDbEntity
  8
0
 62
   254
100
AcDbPolyline
 90
        2
 70
     0
 39
0.003
 10
-0.983449
 20
-2.344445
 40
0.003
 41
0.003
 10
-0.955449
 20
-2.334559
 40
0.003
 41
0.003
  0
LWPOLYLINE
  5
448
100
AcDbEntity
  8
0
 62
   254
100
AcDbPolyline
 90
        2
 70
     0
 39
0.003
 10
-0.983449
 20
-2.344445
 40
0.003
 41
0.003
 10
-0.309992
 20
-2.738657
 40
0.003
 41
0.003
  0
LWPOLYLINE
  5
449
100
AcDbEntity
  8
0
 62
   254
100
AcDbPolyline
 90
        2
 70
     0
 39
0.003
 10
-0.309992
 20
-2.738657
 40
0.003
 41
0.003
 10
-0.338142
 20
-2.750177
 40
0.003
 41
0.003
  0
LWPOLYLINE
  5
44A
100
AcDbEntity
  8
0
 62
   254
100
AcDbPolyline
 90
        2
 70
     0
 39
0.003
 10
-0.338142
 20
-2.750177
 40
0.003
 41
0.003
 10
-1.011598
 20
-2.355965
 40
0.003
 41
0.003
  0
LWPOLYLINE
  5
44B
100
AcDbEntity
  8
0
 62
   254
100
AcDbPolyline
 90
        2
 70
     0
 39
0.003
 10
-1.011598
 20
-2.355965
 40
0.003
 41
0.003
 10
-0.983449
 20
-2.344445
 40
0.003
 41
0.003
  0
LWPOLYLINE
  5
44C
100
AcDbEntity
  8
0
 62
   254
100
AcDbPolyline
 90
        2
 70
     0
 39
0.003
 10
-1.011598
 20
-2.355965
 40
0.003
 41
0.003
 10
-0.338142
 20
-2.750177
 40
0.003
 41
0.003
  0
LWPOLYLINE
  5
44D
100
AcDbEntity
  8
0
 62
   254
100
AcDbPolyline
 90
        2
 70
     0
 39
0.003
 10
-0.338142
 20
-2.750177
 40
0.003
 41
0.003
 10
-0.366244
 20
-2.763394
 40
0.003
 41
0.003
  0
LWPOLYLINE
  5
44E
100
AcDbEntity
  8
0
 62
   254
100
AcDbPolyline
 90
        2
 70
     0
 39
0.003
 10
-0.366244
 20
-2.763394
 40
0.003
 41
0.003
 10
-1.039701
 20
-2.369181
 40
0.003
 41
0.003
  0
LWPOLYLINE
  5
44F
100
AcDbEntity
  8
0
 62
   254
100
AcDbPolyline
 90
        2
 70
     0
 39
0.003
 10
-1.039701
 20
-2.369181
 40
0.003
 41
0.003
 10
-1.011598
 20
-2.355965
 40
0.003
 41
0.003
  0
LWPOLYLINE
  5
450
100
AcDbEntity
  8
0
 62
   254
100
AcDbPolyline
 90
        2
 70
     0
 39
0.003
 10
-1.039701
 20
-2.369181
 40
0.003
 41
0.003
 10
-0.366244
 20
-2.763394
 40
0.003
 41
0.003
  0
LWPOLYLINE
  5
451
100
AcDbEntity
  8
0
 62
   254
100
AcDbPolyline
 90
        2
 70
     0
 39
0.003
 10
-0.366244
 20
-2.763394
 40
0.003
 41
0.003
 10
-0.39415
 20
-2.77839
 40
0.003
 41
0.003
  0
LWPOLYLINE
  5
452
100
AcDbEntity
  8
0
 62
   254
100
AcDbPolyline
 90
        2
 70
     0
 39
0.003
 10
-0.39415
 20
-2.77839
 40
0.003
 41
0.003
 10
-1.067606
 20
-2.384177
 40
0.003
 41
0.003
  0
LWPOLYLINE
  5
453
100
AcDbEntity
  8
0
 62
   254
100
AcDbPolyline
 90
        2
 70
     0
 39
0.003
 10
-1.067606
 20
-2.384177
 40
0.003
 41
0.003
 10
-1.039701
 20
-2.369181
 40
0.003
 41
0.003
  0
LWPOLYLINE
  5
454
100
AcDbEntity
  8
0
 62
   254
100
AcDbPolyline
 90
        2
 70
     0
 39
0.003
 10
-1.067606
 20
-2.384177
 40
0.003
 41
0.003
 10
-0.39415
 20
-2.77839
 40
0.003
 41
0.003
  0
LWPOLYLINE
  5
455
100
AcDbEntity
  8
0
 62
   254
100
AcDbPolyline
 90
        2
 70
     0
 39
0.003
 10
-0.39415
 20
-2.77839
 40
0.003
 41
0.003
 10
-0.421673
 20
-2.795236
 40
0.003
 41
0.003
  0
LWPOLYLINE
  5
456
100
AcDbEntity
  8
0
 62
   254
100
AcDbPolyline
 90
        2
 70
     0
 39
0.003
 10
-0.421673
 20
-2.795236
 40
0.003
 41
0.003
 10
-1.09513
 20
-2.401024
 40
0.003
 41
0.003
  0
LWPOLYLINE
  5
457
100
AcDbEntity
  8
0
 62
   254
100
AcDbPolyline
 90
        2
 70
     0
 39
0.003
 10
-1.09513
 20
-2.401024
 40
0.003
 41
0.003
 10
-1.067606
 20
-2.384177
 40
0.003
 41
0.003
  0
LWPOLYLINE
  5
458
100
AcDbEntity
  8
0
 62
   254
100
AcDbPolyline
 90
        2
 70
     0
 39
0.003
 10
-1.09513
 20
-2.401024
 40
0.003
 41
0.003
 10
-0.421673
 20
-2.795236
 40
0.003
 41
0.003
  0
LWPOLYLINE
  5
459
100
AcDbEntity
  8
0
 62
   254
100
AcDbPolyline
 90
        2
 70
     0
 39
0.003
 10
-0.421673
 20
-2.795236
 40
0.003
 41
0.003
 10
-0.448646
 20
-2.814008
 40
0.003
 41
0.003
  0
LWPOLYLINE
  5
45A
100
AcDbEntity
  8
0
 62
   254
100
AcDbPolyline
 90
        2
 70
     0
 39
0.003
 10
-0.448646
 20
-2.814008
 40
0.003
 41
0.003
 10
-1.122102
 20
-2.419795
 40
0.003
 41
0.003
  0
LWPOLYLINE
  5
45B
100
AcDbEntity
  8
0
 62
   254
100
AcDbPolyline
 90
        2
 70
     0
 39
0.003
 10
-1.122102
 20
-2.419795
 40
0.003
 41
0.003
 10
-1.09513
 20
-2.401024
 40
0.003
 41
0.003
  0
LWPOLYLINE
  5
45C
100
AcDbEntity
  8
0
 62
   254
100
AcDbPolyline
 90
        2
 70
     0
 39
0.003
 10
-1.122102
 20
-2.419795
 40
0.003
 41
0.003
 10
-0.448646
 20
-2.814008
 40
0.003
 41
0.003
  0
LWPOLYLINE
  5
45D
100
AcDbEntity
  8
0
 62
   254
100
AcDbPolyline
 90
        2
 70
     0
 39
0.003
 10
-0.448646
 20
-2.814008
 40
0.003
 41
0.003
 10
-0.474886
 20
-2.834768
 40
0.003
 41
0.003
  0
LWPOLYLINE
  5
45E
100
AcDbEntity
  8
0
 62
   254
100
AcDbPolyline
 90
        2
 70
     0
 39
0.003
 10
-0.474886
 20
-2.834768
 40
0.003
 41
0.003
 10
-1.148343
 20
-2.440555
 40
0.003
 41
0.003
  0
LWPOLYLINE
  5
45F
100
AcDbEntity
  8
0
 62
   254
100
AcDbPolyline
 90
        2
 70
     0
 39
0.003
 10
-1.148343
 20
-2.440555
 40
0.003
 41
0.003
 10
-1.122102
 20
-2.419795
 40
0.003
 41
0.003
  0
LWPOLYLINE
  5
460
100
AcDbEntity
  8
0
 62
   254
100
AcDbPolyline
 90
        2
 70
     0
 39
0.003
 10
-1.148343
 20
-2.440555
 40
0.003
 41
0.003
 10
-0.474886
 20
-2.834768
 40
0.003
 41
0.003
  0
LWPOLYLINE
  5
461
100
AcDbEntity
  8
0
 62
   254
100
AcDbPolyline
 90
        2
 70
     0
 39
0.003
 10
-0.474886
 20
-2.834768
 40
0.003
 41
0.003
 10
-0.500228
 20
-2.857602
 40
0.003
 41
0.003
  0
LWPOLYLINE
  5
462
100
AcDbEntity
  8
0
 62
   254
100
AcDbPolyline
 90
        2
 70
     0
 39
0.003
 10
-0.500228
 20
-2.857602
 40
0.003
 41
0.003
 10
-1.173685
 20
-2.46339
 40
0.003
 41
0.003
  0
LWPOLYLINE
  5
463
100
AcDbEntity
  8
0
 62
   254
100
AcDbPolyline
 90
        2
 70
     0
 39
0.003
 10
-1.173685
 20
-2.46339
 40
0.003
 41
0.003
 10
-1.148343
 20
-2.440555
 40
0.003
 41
0.003
  0
LWPOLYLINE
  5
464
100
AcDbEntity
  8
0
 62
   254
100
AcDbPolyline
 90
        2
 70
     0
 39
0.003
 10
-1.173685
 20
-2.46339
 40
0.003
 41
0.003
 10
-0.500228
 20
-2.857602
 40
0.003
 41
0.003
  0
LWPOLYLINE
  5
465
100
AcDbEntity
  8
0
 62
   254
100
AcDbPolyline
 90
        2
 70
     0
 39
0.003
 10
-0.500228
 20
-2.857602
 40
0.003
 41
0.003
 10
-0.524492
 20
-2.882575
 40
0.003
 41
0.003
  0
LWPOLYLINE
  5
466
100
AcDbEntity
  8
0
 62
   254
100
AcDbPolyline
 90
        2
 70
     0
 39
0.003
 10
-0.524492
 20
-2.882575
 40
0.003
 41
0.003
 10
-1.197949
 20
-2.488362
 40
0.003
 41
0.003
  0
LWPOLYLINE
  5
467
100
AcDbEntity
  8
0
 62
   254
100
AcDbPolyline
 90
        2
 70
     0
 39
0.003
 10
-1.197949
 20
-2.488362
 40
0.003
 41
0.003
 10
-1.173685
 20
-2.46339
 40
0.003
 41
0.003
  0
LWPOLYLINE
  5
468
100
AcDbEntity
  8
0
 62
   254
100
AcDbPolyline
 90
        2
 70
     0
 39
0.003
 10
-1.197949
 20
-2.488362
 40
0.003
 41
0.003
 10
-0.524492
 20
-2.882575
 40
0.003
 41
0.003
  0
LWPOLYLINE
  5
469
100
AcDbEntity
  8
0
 62
   254
100
AcDbPolyline
 90
        2
 70
     0
 39
0.003
 10
-0.524492
 20
-2.882575
 40
0.003
 41
0.003
 10
-0.547516
 20
-2.909768
 40
0.003
 41
0.003
  0
LWPOLYLINE
  5
46A
100
AcDbEntity
  8
0
 62
   254
100
AcDbPolyline
 90
        2
 70
     0
 39
0.003
 10
-0.547516
 20
-2.909768
 40
0.003
 41
0.003
 10
-1.220972
 20
-2.515555
 40
0.003
 41
0.003
  0
LWPOLYLINE
  5
46B
100
AcDbEntity
  8
0
 62
   254
100
AcDbPolyline
 90
        2
 70
     0
 39
0.003
 10
-1.220972
 20
-2.515555
 40
0.003
 41
0.003
 10
-1.197949
 20
-2.488362
 40
0.003
 41
0.003
  0
LWPOLYLINE
  5
46C
100
AcDbEntity
  8
0
 62
   254
100
AcDbPolyline
 90
        2
 70
     0
 39
0.003
 10
-1.220972
 20
-2.515555
 40
0.003
 41
0.003
 10
-0.547516
 20
-2.909768
 40
0.003
 41
0.003
  0
LWPOLYLINE
  5
46D
100
AcDbEntity
  8
0
 62
   254
100
AcDbPolyline
 90
        2
 70
     0
 39
0.003
 10
-0.547516
 20
-2.909768
 40
0.003
 41
0.003
 10
-0.569106
 20
-2.939236
 40
0.003
 41
0.003
  0
LWPOLYLINE
  5
46E
100
AcDbEntity
  8
0
 62
   254
100
AcDbPolyline
 90
        2
 70
     0
 39
0.003
 10
-0.569106
 20
-2.939236
 40
0.003
 41
0.003
 10
-1.242563
 20
-2.545024
 40
0.003
 41
0.003
  0
LWPOLYLINE
  5
46F
100
AcDbEntity
  8
0
 62
   254
100
AcDbPolyline
 90
        2
 70
     0
 39
0.003
 10
-1.242563
 20
-2.545024
 40
0.003
 41
0.003
 10
-1.220972
 20
-2.515555
 40
0.003
 41
0.003
  0
LWPOLYLINE
  5
470
100
AcDbEntity
  8
0
 62
   254
100
AcDbPolyline
 90
        2
 70
     0
 39
0.003
 10
-1.242563
 20
-2.545024
 40
0.003
 41
0.003
 10
-0.569106
 20
-2.939236
 40
0.003
 41
0.003
  0
LWPOLYLINE
  5
471
100
AcDbEntity
  8
0
 62
   254
100
AcDbPolyline
 90
        2
 70
     0
 39
0.003
 10
-0.569106
 20
-2.939236
 40
0.003
 41
0.003
 10
-0.58911
 20
-2.971071
 40
0.003
 41
0.003
  0
LWPOLYLINE
  5
472
100
AcDbEntity
  8
0
 62
   254
100
AcDbPolyline
 90
        2
 70
     0
 39
0.003
 10
-0.58911
 20
-2.971071
 40
0.003
 41
0.003
 10
-1.262567
 20
-2.576858
 40
0.003
 41
0.003
  0
LWPOLYLINE
  5
473
100
AcDbEntity
  8
0
 62
   254
100
AcDbPolyline
 90
        2
 70
     0
 39
0.003
 10
-1.262567
 20
-2.576858
 40
0.003
 41
0.003
 10
-1.242563
 20
-2.545024
 40
0.003
 41
0.003
  0
LWPOLYLINE
  5
474
100
AcDbEntity
  8
0
 62
   254
100
AcDbPolyline
 90
        2
 70
     0
 39
0.003
 10
-1.262567
 20
-2.576858
 40
0.003
 41
0.003
 10
-0.58911
 20
-2.971071
 40
0.003
 41
0.003
  0
LWPOLYLINE
  5
475
100
AcDbEntity
  8
0
 62
   254
100
AcDbPolyline
 90
        2
 70
     0
 39
0.003
 10
-0.58911
 20
-2.971071
 40
0.003
 41
0.003
 10
-0.607339
 20
-3.005335
 40
0.003
 41
0.003
  0
LWPOLYLINE
  5
476
100
AcDbEntity
  8
0
 62
   254
100
AcDbPolyline
 90
        2
 70
     0
 39
0.003
 10
-0.607339
 20
-3.005335
 40
0.003
 41
0.003
 10
-1.280795
 20
-2.611122
 40
0.003
 41
0.003
  0
LWPOLYLINE
  5
477
100
AcDbEntity
  8
0
 62
   254
100
AcDbPolyline
 90
        2
 70
     0
 39
0.003
 10
-1.280795
 20
-2.611122
 40
0.003
 41
0.003
 10
-1.262567
 20
-2.576858
 40
0.003
 41
0.003
  0
LWPOLYLINE
  5
478
100
AcDbEntity
  8
0
 62
   254
100
AcDbPolyline
 90
        2
 70
     0
 39
0.003
 10
-1.280795
 20
-2.611122
 40
0.003
 41
0.003
 10
-0.607339
 20
-3.005335
 40
0.003
 41
0.003
  0
LWPOLYLINE
  5
479
100
AcDbEntity
  8
0
 62
   254
100
AcDbPolyline
 90
        2
 70
     0
 39
0.003
 10
-0.607339
 20
-3.005335
 40
0.003
 41
0.003
 10
-0.62363
 20
-3.04211
 40
0.003
 41
0.003
  0
LWPOLYLINE
  5
47A
100
AcDbEntity
  8
0
 62
   254
100
AcDbPolyline
 90
        2
 70
     0
 39
0.003
 10
-0.62363
 20
-3.04211
 40
0.003
 41
0.003
 10
-1.297087
 20
-2.647898
 40
0.003
 41
0.003
  0
LWPOLYLINE
  5
47B
100
AcDbEntity
  8
0
 62
   254
100
AcDbPolyline
 90
        2
 70
     0
 39
0.003
 10
-1.297087
 20
-2.647898
 40
0.003
 41
0.003
 10
-1.280795
 20
-2.611122
 40
0.003
 41
0.003
  0
LWPOLYLINE
  5
47C
100
AcDbEntity
  8
0
 62
   254
100
AcDbPolyline
 90
        2
 70
     0
 39
0.003
 10
-1.297087
 20
-2.647898
 40
0.003
 41
0.003
 10
-0.62363
 20
-3.04211
 40
0.003
 41
0.003
  0
LWPOLYLINE
  5
47D
100
AcDbEntity
  8
0
 62
   254
100
AcDbPolyline
 90
        2
 70
     0
 39
0.003
 10
-0.62363
 20
-3.04211
 40
0.003
 41
0.003
 10
-0.637799
 20
-3.081457
 40
0.003
 41
0.003
  0
LWPOLYLINE
  5
47E
100
AcDbEntity
  8
0
 62
   254
100
AcDbPolyline
 90
        2
 70
     0
 39
0.003
 10
-0.637799
 20
-3.081457
 40
0.003
 41
0.003
 10
-1.311256
 20
-2.687244
 40
0.003
 41
0.003
  0
LWPOLYLINE
  5
47F
100
AcDbEntity
  8
0
 62
   254
100
AcDbPolyline
 90
        2
 70
     0
 39
0.003
 10
-1.311256
 20
-2.687244
 40
0.003
 41
0.003
 10
-1.297087
 20
-2.647898
 40
0.003
 41
0.003
  0
LWPOLYLINE
  5
480
100
AcDbEntity
  8
0
 62
   254
100
AcDbPolyline
 90
        2
 70
     0
 39
0.003
 10
-1.311256
 20
-2.687244
 40
0.003
 41
0.003
 10
-0.637799
 20
-3.081457
 40
0.003
 41
0.003
  0
LWPOLYLINE
  5
481
100
AcDbEntity
  8
0
 62
   254
100
AcDbPolyline
 90
        2
 70
     0
 39
0.003
 10
-0.637799
 20
-3.081457
 40
0.003
 41
0.003
 10
-0.649681
 20
-3.123457
 40
0.003
 41
0.003
  0
LWPOLYLINE
  5
482
100
AcDbEntity
  8
0
 62
   254
100
AcDbPolyline
 90
        2
 70
     0
 39
0.003
 10
-0.649681
 20
-3.123457
 40
0.003
 41
0.003
 10
-1.323138
 20
-2.729244
 40
0.003
 41
0.003
  0
LWPOLYLINE
  5
483
100
AcDbEntity
  8
0
 62
   254
100
AcDbPolyline
 90
        2
 70
     0
 39
0.003
 10
-1.323138
 20
-2.729244
 40
0.003
 41
0.003
 10
-1.311256
 20
-2.687244
 40
0.003
 41
0.003
  0
LWPOLYLINE
  5
484
100
AcDbEntity
  8
0
 62
   254
100
AcDbPolyline
 90
        2
 70
     0
 39
0.003
 10
-1.323138
 20
-2.729244
 40
0.003
 41
0.003
 10
-0.649681
 20
-3.123457
 40
0.003
 41
0.003
  0
LWPOLYLINE
  5
485
100
AcDbEntity
  8
0
 62
   254
100
AcDbPolyline
 90
        2
 70
     0
 39
0.003
 10
-0.649681
 20
-3.123457
 40
0.003
 41
0.003
 10
-0.659094
 20
-3.168177
 40
0.003
 41
0.003
  0
LWPOLYLINE
  5
486
100
AcDbEntity
  8
0
 62
   254
100
AcDbPolyline
 90
        2
 70
     0
 39
0.003
 10
-0.659094
 20
-3.168177
 40
0.003
 41
0.003
 10
-1.332551
 20
-2.773965
 40
0.003
 41
0.003
  0
LWPOLYLINE
  5
487
100
AcDbEntity
  8
0
 62
   254
100
AcDbPolyline
 90
        2
 70
     0
 39
0.003
 10
-1.332551
 20
-2.773965
 40
0.003
 41
0.003
 10
-1.323138
 20
-2.729244
 40
0.003
 41
0.003
  0
LWPOLYLINE
  5
488
100
AcDbEntity
  8
0
 62
   254
100
AcDbPolyline
 90
        2
 70
     0
 39
0.003
 10
-1.332551
 20
-2.773965
 40
0.003
 41
0.003
 10
-0.659094
 20
-3.168177
 40
0.003
 41
0.003
  0
LWPOLYLINE
  5
489
100
AcDbEntity
  8
0
 62
   254
100
AcDbPolyline
 90
        2
 70
     0
 39
0.003
 10
-0.659094
 20
-3.168177
 40
0.003
 41
0.003
 10
-0.665878
 20
-3.215697
 40
0.003
 41
0.003
  0
LWPOLYLINE
  5
48A
100
AcDbEntity
  8
0
 62
   254
100
AcDbPolyline
 90
        2
 70
     0
 39
0.003
 10
-0.665878
 20
-3.215697
 40
0.003
 41
0.003
 10
-1.339335
 20
-2.821484
 40
0.003
 41
0.003
  0
LWPOLYLINE
  5
48B
100
AcDbEntity
  8
0
 62
   254
100
AcDbPolyline
 90
        2
 70
     0
 39
0.003
 10
-1.339335
 20
-2.821484
 40
0.003
 41
0.003
 10
-1.332551
 20
-2.773965
 40
0.003
 41
0.003
  0
LWPOLYLINE
  5
48C
100
AcDbEntity
  8
0
 62
     0
100
AcDbPolyline
 90
        2
 70
     0
 39
0.003
 10
-0.683319
 20
-2.321378
 40
0.003
 41
0.003
 10
-0.009862
 20
-2.715591
 40
0.003
 41
0.003
  0
LWPOLYLINE
  5
48D
100
AcDbEntity
  8
0
 62
     0
100
AcDbPolyline
 90
        2
 70
     0
 39
0.003
 10
-0.009862
 20
-2.715591
 40
0.003
 41
0.003
 10
-0.02022
 20
-2.710894
 40
0.003
 41
0.003
  0
LWPOLYLINE
  5
48E
100
AcDbEntity
  8
0
 62
     0
100
AcDbPolyline
 90
        2
 70
     0
 39
0.003
 10
-0.02022
 20
-2.710894
 40
0.003
 41
0.003
 10
-0.032976
 20
-2.706878
 40
0.003
 41
0.003
  0
LWPOLYLINE
  5
48F
100
AcDbEntity
  8
0
 62
     0
100
AcDbPolyline
 90
        2
 70
     0
 39
0.003
 10
-0.032976
 20
-2.706878
 40
0.003
 41
0.003
 10
-0.047961
 20
-2.70363
 40
0.003
 41
0.003
  0
LWPOLYLINE
  5
490
100
AcDbEntity
  8
0
 62
     0
100
AcDbPolyline
 90
        2
 70
     0
 39
0.003
 10
-0.047961
 20
-2.70363
 40
0.003
 41
0.003
 10
-0.064992
 20
-2.701201
 40
0.003
 41
0.003
  0
LWPOLYLINE
  5
491
100
AcDbEntity
  8
0
 62
     0
100
AcDbPolyline
 90
        2
 70
     0
 39
0.003
 10
-0.064992
 20
-2.701201
 40
0.003
 41
0.003
 10
-0.083906
 20
-2.699681
 40
0.003
 41
0.003
  0
LWPOLYLINE
  5
492
100
AcDbEntity
  8
0
 62
     0
100
AcDbPolyline
 90
        2
 70
     0
 39
0.003
 10
-0.083906
 20
-2.699681
 40
0.003
 41
0.003
 10
-0.104524
 20
-2.699134
 40
0.003
 41
0.003
  0
LWPOLYLINE
  5
493
100
AcDbEntity
  8
0
 62
     0
100
AcDbPolyline
 90
        2
 70
     0
 39
0.003
 10
-0.104524
 20
-2.699134
 40
0.003
 41
0.003
 10
-0.126677
 20
-2.699646
 40
0.003
 41
0.003
  0
LWPOLYLINE
  5
494
100
AcDbEntity
  8
0
 62
     0
100
AcDbPolyline
 90
        2
 70
     0
 39
0.003
 10
-0.126677
 20
-2.699646
 40
0.003
 41
0.003
 10
-0.150177
 20
-2.701268
 40
0.003
 41
0.003
  0
LWPOLYLINE
  5
495
100
AcDbEntity
  8
0
 62
     0
100
AcDbPolyline
 90
        2
 70
     0
 39
0.003
 10
-0.150177
 20
-2.701268
 40
0.003
 41
0.003
 10
-0.17487
 20
-2.704087
 40
0.003
 41
0.003
  0
LWPOLYLINE
  5
496
100
AcDbEntity
  8
0
 62
     0
100
AcDbPolyline
 90
        2
 70
     0
 39
0.003
 10
-0.17487
 20
-2.704087
 40
0.003
 41
0.003
 10
-0.200571
 20
-2.708169
 40
0.003
 41
0.003
  0
LWPOLYLINE
  5
497
100
AcDbEntity
  8
0
 62
     0
100
AcDbPolyline
 90
        2
 70
     0
 39
0.003
 10
-0.200571
 20
-2.708169
 40
0.003
 41
0.003
 10
-0.227106
 20
-2.713602
 40
0.003
 41
0.003
  0
LWPOLYLINE
  5
498
100
AcDbEntity
  8
0
 62
     0
100
AcDbPolyline
 90
        2
 70
     0
 39
0.003
 10
-0.227106
 20
-2.713602
 40
0.003
 41
0.003
 10
-0.254303
 20
-2.720441
 40
0.003
 41
0.003
  0
LWPOLYLINE
  5
499
100
AcDbEntity
  8
0
 62
     0
100
AcDbPolyline
 90
        2
 70
     0
 39
0.003
 10
-0.254303
 20
-2.720441
 40
0.003
 41
0.003
 10
-0.281992
 20
-2.728772
 40
0.003
 41
0.003
  0
LWPOLYLINE
  5
49A
100
AcDbEntity
  8
0
 62
     0
100
AcDbPolyline
 90
        2
 70
     0
 39
0.003
 10
-0.281992
 20
-2.728772
 40
0.003
 41
0.003
 10
-0.309992
 20
-2.738657
 40
0.003
 41
0.003
  0
LWPOLYLINE
  5
49B
100
AcDbEntity
  8
0
 62
     0
100
AcDbPolyline
 90
        2
 70
     0
 39
0.003
 10
-0.309992
 20
-2.738657
 40
0.003
 41
0.003
 10
-0.338142
 20
-2.750177
 40
0.003
 41
0.003
  0
LWPOLYLINE
  5
49C
100
AcDbEntity
  8
0
 62
     0
100
AcDbPolyline
 90
        2
 70
     0
 39
0.003
 10
-0.338142
 20
-2.750177
 40
0.003
 41
0.003
 10
-0.366244
 20
-2.763394
 40
0.003
 41
0.003
  0
LWPOLYLINE
  5
49D
100
AcDbEntity
  8
0
 62
     0
100
AcDbPolyline
 90
        2
 70
     0
 39
0.003
 10
-0.366244
 20
-2.763394
 40
0.003
 41
0.003
 10
-0.39415
 20
-2.77839
 40
0.003
 41
0.003
  0
LWPOLYLINE
  5
49E
100
AcDbEntity
  8
0
 62
     0
100
AcDbPolyline
 90
        2
 70
     0
 39
0.003
 10
-0.39415
 20
-2.77839
 40
0.003
 41
0.003
 10
-0.421673
 20
-2.795236
 40
0.003
 41
0.003
  0
LWPOLYLINE
  5
49F
100
AcDbEntity
  8
0
 62
     0
100
AcDbPolyline
 90
        2
 70
     0
 39
0.003
 10
-0.421673
 20
-2.795236
 40
0.003
 41
0.003
 10
-0.448646
 20
-2.814008
 40
0.003
 41
0.003
  0
LWPOLYLINE
  5
4A0
100
AcDbEntity
  8
0
 62
     0
100
AcDbPolyline
 90
        2
 70
     0
 39
0.003
 10
-0.448646
 20
-2.814008
 40
0.003
 41
0.003
 10
-0.474886
 20
-2.834768
 40
0.003
 41
0.003
  0
LWPOLYLINE
  5
4A1
100
AcDbEntity
  8
0
 62
     0
100
AcDbPolyline
 90
        2
 70
     0
 39
0.003
 10
-0.474886
 20
-2.834768
 40
0.003
 41
0.003
 10
-0.500228
 20
-2.857602
 40
0.003
 41
0.003
  0
LWPOLYLINE
  5
4A2
100
AcDbEntity
  8
0
 62
     0
100
AcDbPolyline
 90
        2
 70
     0
 39
0.003
 10
-0.500228
 20
-2.857602
 40
0.003
 41
0.003
 10
-0.524492
 20
-2.882575
 40
0.003
 41
0.003
  0
LWPOLYLINE
  5
4A3
100
AcDbEntity
  8
0
 62
     0
100
AcDbPolyline
 90
        2
 70
     0
 39
0.003
 10
-0.524492
 20
-2.882575
 40
0.003
 41
0.003
 10
-0.547516
 20
-2.909768
 40
0.003
 41
0.003
  0
LWPOLYLINE
  5
4A4
100
AcDbEntity
  8
0
 62
     0
100
AcDbPolyline
 90
        2
 70
     0
 39
0.003
 10
-0.547516
 20
-2.909768
 40
0.003
 41
0.003
 10
-0.569106
 20
-2.939236
 40
0.003
 41
0.003
  0
LWPOLYLINE
  5
4A5
100
AcDbEntity
  8
0
 62
     0
100
AcDbPolyline
 90
        2
 70
     0
 39
0.003
 10
-0.569106
 20
-2.939236
 40
0.003
 41
0.003
 10
-0.58911
 20
-2.971071
 40
0.003
 41
0.003
  0
LWPOLYLINE
  5
4A6
100
AcDbEntity
  8
0
 62
     0
100
AcDbPolyline
 90
        2
 70
     0
 39
0.003
 10
-0.58911
 20
-2.971071
 40
0.003
 41
0.003
 10
-0.607339
 20
-3.005335
 40
0.003
 41
0.003
  0
LWPOLYLINE
  5
4A7
100
AcDbEntity
  8
0
 62
     0
100
AcDbPolyline
 90
        2
 70
     0
 39
0.003
 10
-0.607339
 20
-3.005335
 40
0.003
 41
0.003
 10
-0.62363
 20
-3.04211
 40
0.003
 41
0.003
  0
LWPOLYLINE
  5
4A8
100
AcDbEntity
  8
0
 62
     0
100
AcDbPolyline
 90
        2
 70
     0
 39
0.003
 10
-0.62363
 20
-3.04211
 40
0.003
 41
0.003
 10
-0.637799
 20
-3.081457
 40
0.003
 41
0.003
  0
LWPOLYLINE
  5
4A9
100
AcDbEntity
  8
0
 62
     0
100
AcDbPolyline
 90
        2
 70
     0
 39
0.003
 10
-0.637799
 20
-3.081457
 40
0.003
 41
0.003
 10
-0.649681
 20
-3.123457
 40
0.003
 41
0.003
  0
LWPOLYLINE
  5
4AA
100
AcDbEntity
  8
0
 62
     0
100
AcDbPolyline
 90
        2
 70
     0
 39
0.003
 10
-0.649681
 20
-3.123457
 40
0.003
 41
0.003
 10
-0.659094
 20
-3.168177
 40
0.003
 41
0.003
  0
LWPOLYLINE
  5
4AB
100
AcDbEntity
  8
0
 62
     0
100
AcDbPolyline
 90
        2
 70
     0
 39
0.003
 10
-0.659094
 20
-3.168177
 40
0.003
 41
0.003
 10
-0.665878
 20
-3.215697
 40
0.003
 41
0.003
  0
LWPOLYLINE
  5
4AC
100
AcDbEntity
  8
0
 62
     0
100
AcDbPolyline
 90
        2
 70
     0
 39
0.003
 10
-0.665878
 20
-3.215697
 40
0.003
 41
0.003
 10
-1.339335
 20
-2.821484
 40
0.003
 41
0.003
  0
LWPOLYLINE
  5
4AD
100
AcDbEntity
  8
0
 62
     0
100
AcDbPolyline
 90
        2
 70
     0
 39
0.003
 10
-1.339335
 20
-2.821484
 40
0.003
 41
0.003
 10
-1.332551
 20
-2.773965
 40
0.003
 41
0.003
  0
LWPOLYLINE
  5
4AE
100
AcDbEntity
  8
0
 62
     0
100
AcDbPolyline
 90
        2
 70
     0
 39
0.003
 10
-1.332551
 20
-2.773965
 40
0.003
 41
0.003
 10
-1.323138
 20
-2.729244
 40
0.003
 41
0.003
  0
LWPOLYLINE
  5
4AF
100
AcDbEntity
  8
0
 62
     0
100
AcDbPolyline
 90
        2
 70
     0
 39
0.003
 10
-1.323138
 20
-2.729244
 40
0.003
 41
0.003
 10
-1.311256
 20
-2.687244
 40
0.003
 41
0.003
  0
LWPOLYLINE
  5
4B0
100
AcDbEntity
  8
0
 62
     0
100
AcDbPolyline
 90
        2
 70
     0
 39
0.003
 10
-1.311256
 20
-2.687244
 40
0.003
 41
0.003
 10
-1.297087
 20
-2.647898
 40
0.003
 41
0.003
  0
LWPOLYLINE
  5
4B1
100
AcDbEntity
  8
0
 62
     0
100
AcDbPolyline
 90
        2
 70
     0
 39
0.003
 10
-1.297087
 20
-2.647898
 40
0.003
 41
0.003
 10
-1.280795
 20
-2.611122
 40
0.003
 41
0.003
  0
LWPOLYLINE
  5
4B2
100
AcDbEntity
  8
0
 62
     0
100
AcDbPolyline
 90
        2
 70
     0
 39
0.003
 10
-1.280795
 20
-2.611122
 40
0.003
 41
0.003
 10
-1.262567
 20
-2.576858
 40
0.003
 41
0.003
  0
LWPOLYLINE
  5
4B3
100
AcDbEntity
  8
0
 62
     0
100
AcDbPolyline
 90
        2
 70
     0
 39
0.003
 10
-1.262567
 20
-2.576858
 40
0.003
 41
0.003
 10
-1.242563
 20
-2.545024
 40
0.003
 41
0.003
  0
LWPOLYLINE
  5
4B4
100
AcDbEntity
  8
0
 62
     0
100
AcDbPolyline
 90
        2
 70
     0
 39
0.003
 10
-1.242563
 20
-2.545024
 40
0.003
 41
0.003
 10
-1.220972
 20
-2.515555
 40
0.003
 41
0.003
  0
LWPOLYLINE
  5
4B5
100
AcDbEntity
  8
0
 62
     0
100
AcDbPolyline
 90
        2
 70
     0
 39
0.003
 10
-1.220972
 20
-2.515555
 40
0.003
 41
0.003
 10
-1.197949
 20
-2.488362
 40
0.003
 41
0.003
  0
LWPOLYLINE
  5
4B6
100
AcDbEntity
  8
0
 62
     0
100
AcDbPolyline
 90
        2
 70
     0
 39
0.003
 10
-1.197949
 20
-2.488362
 40
0.003
 41
0.003
 10
-1.173685
 20
-2.46339
 40
0.003
 41
0.003
  0
LWPOLYLINE
  5
4B7
100
AcDbEntity
  8
0
 62
     0
100
AcDbPolyline
 90
        2
 70
     0
 39
0.003
 10
-1.173685
 20
-2.46339
 40
0.003
 41
0.003
 10
-1.148343
 20
-2.440555
 40
0.003
 41
0.003
  0
LWPOLYLINE
  5
4B8
100
AcDbEntity
  8
0
 62
     0
100
AcDbPolyline
 90
        2
 70
     0
 39
0.003
 10
-1.148343
 20
-2.440555
 40
0.003
 41
0.003
 10
-1.122102
 20
-2.419795
 40
0.003
 41
0.003
  0
LWPOLYLINE
  5
4B9
100
AcDbEntity
  8
0
 62
     0
100
AcDbPolyline
 90
        2
 70
     0
 39
0.003
 10
-1.122102
 20
-2.419795
 40
0.003
 41
0.003
 10
-1.09513
 20
-2.401024
 40
0.003
 41
0.003
  0
LWPOLYLINE
  5
4BA
100
AcDbEntity
  8
0
 62
     0
100
AcDbPolyline
 90
        2
 70
     0
 39
0.003
 10
-1.09513
 20
-2.401024
 40
0.003
 41
0.003
 10
-1.067606
 20
-2.384177
 40
0.003
 41
0.003
  0
LWPOLYLINE
  5
4BB
100
AcDbEntity
  8
0
 62
     0
100
AcDbPolyline
 90
        2
 70
     0
 39
0.003
 10
-1.067606
 20
-2.384177
 40
0.003
 41
0.003
 10
-1.039701
 20
-2.369181
 40
0.003
 41
0.003
  0
LWPOLYLINE
  5
4BC
100
AcDbEntity
  8
0
 62
     0
100
AcDbPolyline
 90
        2
 70
     0
 39
0.003
 10
-1.039701
 20
-2.369181
 40
0.003
 41
0.003
 10
-1.011598
 20
-2.355965
 40
0.003
 41
0.003
  0
LWPOLYLINE
  5
4BD
100
AcDbEntity
  8
0
 62
     0
100
AcDbPolyline
 90
        2
 70
     0
 39
0.003
 10
-1.011598
 20
-2.355965
 40
0.003
 41
0.003
 10
-0.983449
 20
-2.344445
 40
0.003
 41
0.003
  0
LWPOLYLINE
  5
4BE
100
AcDbEntity
  8
0
 62
     0
100
AcDbPolyline
 90
        2
 70
     0
 39
0.003
 10
-0.983449
 20
-2.344445
 40
0.003
 41
0.003
 10
-0.955449
 20
-2.334559
 40
0.003
 41
0.003
  0
LWPOLYLINE
  5
4BF
100
AcDbEntity
  8
0
 62
     0
100
AcDbPolyline
 90
        2
 70
     0
 39
0.003
 10
-0.955449
 20
-2.334559
 40
0.003
 41
0.003
 10
-0.92776
 20
-2.326228
 40
0.003
 41
0.003
  0
LWPOLYLINE
  5
4C0
100
AcDbEntity
  8
0
 62
     0
100
AcDbPolyline
 90
        2
 70
     0
 39
0.003
 10
-0.92776
 20
-2.326228
 40
0.003
 41
0.003
 10
-0.900563
 20
-2.31939
 40
0.003
 41
0.003
  0
LWPOLYLINE
  5
4C1
100
AcDbEntity
  8
0
 62
     0
100
AcDbPolyline
 90
        2
 70
     0
 39
0.003
 10
-0.900563
 20
-2.31939
 40
0.003
 41
0.003
 10
-0.874028
 20
-2.313957
 40
0.003
 41
0.003
  0
LWPOLYLINE
  5
4C2
100
AcDbEntity
  8
0
 62
     0
100
AcDbPolyline
 90
        2
 70
     0
 39
0.003
 10
-0.874028
 20
-2.313957
 40
0.003
 41
0.003
 10
-0.848327
 20
-2.309874
 40
0.003
 41
0.003
  0
LWPOLYLINE
  5
4C3
100
AcDbEntity
  8
0
 62
     0
100
AcDbPolyline
 90
        2
 70
     0
 39
0.003
 10
-0.848327
 20
-2.309874
 40
0.003
 41
0.003
 10
-0.823634
 20
-2.307055
 40
0.003
 41
0.003
  0
LWPOLYLINE
  5
4C4
100
AcDbEntity
  8
0
 62
     0
100
AcDbPolyline
 90
        2
 70
     0
 39
0.003
 10
-0.823634
 20
-2.307055
 40
0.003
 41
0.003
 10
-0.800134
 20
-2.305433
 40
0.003
 41
0.003
  0
LWPOLYLINE
  5
4C5
100
AcDbEntity
  8
0
 62
     0
100
AcDbPolyline
 90
        2
 70
     0
 39
0.003
 10
-0.800134
 20
-2.305433
 40
0.003
 41
0.003
 10
-0.77798
 20
-2.304921
 40
0.003
 41
0.003
  0
LWPOLYLINE
  5
4C6
100
AcDbEntity
  8
0
 62
     0
100
AcDbPolyline
 90
        2
 70
     0
 39
0.003
 10
-0.77798
 20
-2.304921
 40
0.003
 41
0.003
 10
-0.757362
 20
-2.305469
 40
0.003
 41
0.003
  0
LWPOLYLINE
  5
4C7
100
AcDbEntity
  8
0
 62
     0
100
AcDbPolyline
 90
        2
 70
     0
 39
0.003
 10
-0.757362
 20
-2.305469
 40
0.003
 41
0.003
 10
-0.738449
 20
-2.306988
 40
0.003
 41
0.003
  0
LWPOLYLINE
  5
4C8
100
AcDbEntity
  8
0
 62
     0
100
AcDbPolyline
 90
        2
 70
     0
 39
0.003
 10
-0.738449
 20
-2.306988
 40
0.003
 41
0.003
 10
-0.721417
 20
-2.309417
 40
0.003
 41
0.003
  0
LWPOLYLINE
  5
4C9
100
AcDbEntity
  8
0
 62
     0
100
AcDbPolyline
 90
        2
 70
     0
 39
0.003
 10
-0.721417
 20
-2.309417
 40
0.003
 41
0.003
 10
-0.706433
 20
-2.312665
 40
0.003
 41
0.003
  0
LWPOLYLINE
  5
4CA
100
AcDbEntity
  8
0
 62
     0
100
AcDbPolyline
 90
        2
 70
     0
 39
0.003
 10
-0.706433
 20
-2.312665
 40
0.003
 41
0.003
 10
-0.693677
 20
-2.316681
 40
0.003
 41
0.003
  0
LWPOLYLINE
  5
4CB
100
AcDbEntity
  8
0
 62
     0
100
AcDbPolyline
 90
        2
 70
     0
 39
0.003
 10
-0.693677
 20
-2.316681
 40
0.003
 41
0.003
 10
-0.683319
 20
-2.321378
 40
0.003
 41
0.003
  0
LWPOLYLINE
  5
4CC
100
AcDbEntity
  8
0
 62
   254
100
AcDbPolyline
 90
        2
 70
     0
 39
0.003
 10
-0.6265
 20
-2.080102
 40
0.003
 41
0.003
 10
0.046957
 20
-2.474315
 40
0.003
 41
0.003
  0
LWPOLYLINE
  5
4CD
100
AcDbEntity
  8
0
 62
   254
100
AcDbPolyline
 90
        2
 70
     0
 39
0.003
 10
0.046957
 20
-2.474315
 40
0.003
 41
0.003
 10
-0.002083
 20
-2.720906
 40
0.003
 41
0.003
  0
LWPOLYLINE
  5
4CE
100
AcDbEntity
  8
0
 62
   254
100
AcDbPolyline
 90
        2
 70
     0
 39
0.003
 10
-0.002083
 20
-2.720906
 40
0.003
 41
0.003
 10
-0.675539
 20
-2.326693
 40
0.003
 41
0.003
  0
LWPOLYLINE
  5
4CF
100
AcDbEntity
  8
0
 62
   254
100
AcDbPolyline
 90
        2
 70
     0
 39
0.003
 10
-0.675539
 20
-2.326693
 40
0.003
 41
0.003
 10
-0.6265
 20
-2.080102
 40
0.003
 41
0.003
  0
LWPOLYLINE
  5
4D0
100
AcDbEntity
  8
0
 62
     0
100
AcDbPolyline
 90
        2
 70
     0
 39
0.003
 10
-0.6265
 20
-2.080102
 40
0.003
 41
0.003
 10
0.046957
 20
-2.474315
 40
0.003
 41
0.003
  0
LWPOLYLINE
  5
4D1
100
AcDbEntity
  8
0
 62
     0
100
AcDbPolyline
 90
        2
 70
     0
 39
0.003
 10
0.046957
 20
-2.474315
 40
0.003
 41
0.003
 10
-0.002083
 20
-2.720906
 40
0.003
 41
0.003
  0
LWPOLYLINE
  5
4D2
100
AcDbEntity
  8
0
 62
     0
100
AcDbPolyline
 90
        2
 70
     0
 39
0.003
 10
-0.002083
 20
-2.720906
 40
0.003
 41
0.003
 10
-0.675539
 20
-2.326693
 40
0.003
 41
0.003
  0
LWPOLYLINE
  5
4D3
100
AcDbEntity
  8
0
 62
     0
100
AcDbPolyline
 90
        2
 70
     0
 39
0.003
 10
-0.675539
 20
-2.326693
 40
0.003
 41
0.003
 10
-0.6265
 20
-2.080102
 40
0.003
 41
0.003
  0
LWPOLYLINE
  5
4D4
100
AcDbEntity
  8
0
 62
     9
100
AcDbPolyline
 90
        2
 70
     0
 39
0.003
 10
-1.339335
 20
-2.821484
 40
0.003
 41
0.003
 10
-0.665878
 20
-3.215697
 40
0.003
 41
0.003
  0
LWPOLYLINE
  5
4D5
100
AcDbEntity
  8
0
 62
     9
100
AcDbPolyline
 90
        2
 70
     0
 39
0.003
 10
-0.665878
 20
-3.215697
 40
0.003
 41
0.003
 10
-1.036961
 20
-3.166693
 40
0.003
 41
0.003
  0
LWPOLYLINE
  5
4D6
100
AcDbEntity
  8
0
 62
     9
100
AcDbPolyline
 90
        2
 70
     0
 39
0.003
 10
-1.036961
 20
-3.166693
 40
0.003
 41
0.003
 10
-1.710417
 20
-2.77248
 40
0.003
 41
0.003
  0
LWPOLYLINE
  5
4D7
100
AcDbEntity
  8
0
 62
     9
100
AcDbPolyline
 90
        2
 70
     0
 39
0.003
 10
-1.710417
 20
-2.77248
 40
0.003
 41
0.003
 10
-1.339335
 20
-2.821484
 40
0.003
 41
0.003
  0
LWPOLYLINE
  5
4D8
100
AcDbEntity
  8
0
 62
     0
100
AcDbPolyline
 90
        2
 70
     0
 39
0.003
 10
-1.339335
 20
-2.821484
 40
0.003
 41
0.003
 10
-0.665878
 20
-3.215697
 40
0.003
 41
0.003
  0
LWPOLYLINE
  5
4D9
100
AcDbEntity
  8
0
 62
     0
100
AcDbPolyline
 90
        2
 70
     0
 39
0.003
 10
-0.665878
 20
-3.215697
 40
0.003
 41
0.003
 10
-1.036961
 20
-3.166693
 40
0.003
 41
0.003
  0
LWPOLYLINE
  5
4DA
100
AcDbEntity
  8
0
 62
     0
100
AcDbPolyline
 90
        2
 70
     0
 39
0.003
 10
-1.036961
 20
-3.166693
 40
0.003
 41
0.003
 10
-1.710417
 20
-2.77248
 40
0.003
 41
0.003
  0
LWPOLYLINE
  5
4DB
100
AcDbEntity
  8
0
 62
     0
100
AcDbPolyline
 90
        2
 70
     0
 39
0.003
 10
-1.710417
 20
-2.77248
 40
0.003
 41
0.003
 10
-1.339335
 20
-2.821484
 40
0.003
 41
0.003
  0
LWPOLYLINE
  5
4DC
100
AcDbEntity
  8
0
 62
     7
100
AcDbPolyline
 90
        2
 70
     0
 39
0.003
 10
1.786252
 20
0.981268
 40
0.003
 41
0.003
 10
2.324555
 20
0.977189
 40
0.003
 41
0.003
  0
LWPOLYLINE
  5
4DD
100
AcDbEntity
  8
0
 62
     7
100
AcDbPolyline
 90
        2
 70
     0
 39
0.003
 10
2.324555
 20
0.977189
 40
0.003
 41
0.003
 10
2.125043
 20
0.341748
 40
0.003
 41
0.003
  0
SPLINE
  5
4DE
100
AcDbEntity
  8
0
 62
     7
100
AcDbSpline
210
0.0
220
0.0
230
1.0
 70
     0
 71
     3
 72
     0
 73
     0
 74
    32
 44
0.0000000001
 11
2.1250433070866142
 21
0.341748031496063
 31
0.0
 11
1.8993307086614173
 21
0.2848425196850394
 31
0.0
 11
1.6978582677165355
 21
0.2196614173228347
 31
0.0
 11
1.5186102362204725
 21
0.1466496062992126
 31
0.0
 11
1.3595866141732282
 21
0.0662834645669291
 31
0.0
 11
1.2187716535433071
 21
-0.020996062992126
 31
0.0
 11
1.0941692913385828
 21
-0.1147244094488189
 31
0.0
 11
0.9837677165354331
 21
-0.2144448818897638
 31
0.0
 11
0.8855629921259842
 21
-0.3197047244094488
 31
0.0
 11
0.7975393700787402
 21
-0.4300314960629921
 31
0.0
 11
0.7177086614173228
 21
-0.5449803149606299
 31
0.0
 11
0.6440511811023623
 21
-0.6640866141732283
 31
0.0
 11
0.5745708661417323
 21
-0.7868976377952756
 31
0.0
 11
0.507248031496063
 21
-0.9129488188976378
 31
0.0
 11
0.4400866141732284
 21
-1.0417874015748032
 31
0.0
 11
0.3710748031496063
 21
-1.1729527559055117
 31
0.0
 11
0.2982204724409449
 21
-1.305992125984252
 31
0.0
 11
0.2215118110236221
 21
-1.4322913385826772
 31
0.0
 11
0.1429409448818898
 21
-1.5441535433070865
 31
0.0
 11
0.0634370078740158
 21
-1.6424409448818897
 31
0.0
 11
-0.0160433070866142
 21
-1.7280275590551182
 31
0.0
 11
-0.0945708661417323
 21
-1.8017677165354331
 31
0.0
 11
-0.1712125984251968
 21
-1.8645472440944881
 31
0.0
 11
-0.2450157480314961
 21
-1.9172244094488189
 31
0.0
 11
-0.3150511811023622
 21
-1.9606732283464567
 31
0.0
 11
-0.3803582677165354
 21
-1.9957519685039371
 31
0.0
 11
-0.4400196850393701
 21
-2.0233385826771655
 31
0.0
 11
-0.4930748031496063
 21
-2.0442992125984252
 31
0.0
 11
-0.5386023622047245
 21
-2.0595039370078738
 31
0.0
 11
-0.5756417322834646
 21
-2.0698149606299214
 31
0.0
 11
-0.6032677165354331
 21
-2.0761102362204724
 31
0.0
 11
-0.6205314960629921
 21
-2.0792480314960629
 31
0.0
  0
LWPOLYLINE
  5
4DF
100
AcDbEntity
  8
0
 62
     7
100
AcDbPolyline
 90
        2
 70
     0
 39
0.003
 10
-0.620531
 20
-2.079248
 40
0.003
 41
0.003
 10
-0.6265
 20
-2.080102
 40
0.003
 41
0.003
  0
LWPOLYLINE
  5
4E0
100
AcDbEntity
  8
0
 62
     7
100
AcDbPolyline
 90
        2
 70
     0
 39
0.003
 10
-0.6265
 20
-2.080102
 40
0.003
 41
0.003
 10
-0.675539
 20
-2.326693
 40
0.003
 41
0.003
  0
SPLINE
  5
4E1
100
AcDbEntity
  8
0
 62
     7
100
AcDbSpline
210
0.0
220
0.0
230
1.0
 70
     0
 71
     3
 72
     0
 73
     0
 74
    16
 44
0.0000000001
 11
-0.6755393700787402
 21
-2.326692913385827
 31
0.0
 11
-0.6936771653543307
 21
-2.3166811023622049
 31
0.0
 11
-0.7214173228346457
 21
-2.3094173228346455
 31
0.0
 11
-0.7573622047244094
 21
-2.305468503937008
 31
0.0
 11
-0.8001338582677166
 21
-2.3054330708661417
 31
0.0
 11
-0.8483267716535433
 21
-2.3098740157480315
 31
0.0
 11
-0.9005629921259842
 21
-2.3193897637795278
 31
0.0
 11
-0.9554488188976378
 21
-2.3345590551181101
 31
0.0
 11
-1.0115984251968504
 21
-2.355964566929134
 31
0.0
 11
-1.0676062992125985
 21
-2.3841771653543309
 31
0.0
 11
-1.1221023622047244
 21
-2.419795275590551
 31
0.0
 11
-1.1736850393700788
 21
-2.4633897637795275
 31
0.0
 11
-1.2209724409448819
 21
-2.5155551181102362
 31
0.0
 11
-1.2625669291338584
 21
-2.5768582677165353
 31
0.0
 11
-1.2970866141732282
 21
-2.6478976377952756
 31
0.0
 11
-1.3231377952755905
 21
-2.7292440944881888
 31
0.0
  0
LWPOLYLINE
  5
4E2
100
AcDbEntity
  8
0
 62
     7
100
AcDbPolyline
 90
        2
 70
     0
 39
0.003
 10
-1.323138
 20
-2.729244
 40
0.003
 41
0.003
 10
-1.339335
 20
-2.821484
 40
0.003
 41
0.003
  0
LWPOLYLINE
  5
4E3
100
AcDbEntity
  8
0
 62
     7
100
AcDbPolyline
 90
        2
 70
     0
 39
0.003
 10
-1.339335
 20
-2.821484
 40
0.003
 41
0.003
 10
-1.710417
 20
-2.77248
 40
0.003
 41
0.003
  0
LWPOLYLINE
  5
4E4
100
AcDbEntity
  8
0
 62
     7
100
AcDbPolyline
 90
        2
 70
     0
 39
0.003
 10
-1.710417
 20
-2.77248
 40
0.003
 41
0.003
 10
-1.706717
 20
-2.447185
 40
0.003
 41
0.003
  0
LWPOLYLINE
  5
4E5
100
AcDbEntity
  8
0
 62
     7
100
AcDbPolyline
 90
        2
 70
     0
 39
0.003
 10
-1.706717
 20
-2.447185
 40
0.003
 41
0.003
 10
1.786252
 20
0.981268
 40
0.003
 41
0.003
  0
MTEXT
  5
4E6
100
AcDbEntity
  8
0
 62
     0
100
AcDbMText
 10
-0.99
 20
-2.722201
 30
0.0
 40
0.166665
 41
0.0
 71
     1
 72
     1
  1
{\fBookman Old Style|b0|i0|c0|p32;BA  1461}
 73
     1
 44
1.0
  0
MTEXT
  5
4E7
100
AcDbEntity
  8
0
 62
     0
100
AcDbMText
 10
-0.99
 20
-2.909701
 30
0.0
 40
0.166665
 41
0.0
 71
     1
 72
     1
  1
{\fBookman Old Style|b0|i0|c0|p32;11/16" x 5-1/2"}
 73
     1
 44
1.0
  0
ENDSEC
  0
SECTION
  2
OBJECTS
  0
DICTIONARY
  5
19
100
AcDbDictionary
280
     0
281
     1
  3
ACAD_GROUP
350
1A
  3
ACAD_MLINESTYLE
350
1B
  3
ACAD_LAYOUT
350
1E
  3
ACAD_PLOTSETTINGS
350
22
  3
ACAD_PLOTSTYLENAME
350
1F
  3
ACAD_WIPEOUT_VARS
350
23
  0
DICTIONARY
  5
1A
102
{ACAD_REACTORS
330
19
102
}
100
AcDbDictionary
280
     0
281
     1
  0
DICTIONARY
  5
1B
102
{ACAD_REACTORS
330
19
102
}
100
AcDbDictionary
280
     0
281
     1
  3
Standard
350
1C
  0
MLINESTYLE
  5
1C
102
{ACAD_REACTORS
330
1B
102
}
100
AcDbMlineStyle
  2
Standard
 70
     0
  3

 62
     0
 51
90.0
 52
90.0
 71
     2
 49
0.5
 62
   256
  6
BYLAYER
 49
-0.5
 62
   256
  6
BYLAYER
  0
ACDBDICTIONARYWDFLT
  5
1F
102
{ACAD_REACTORS
330
19
102
}
100
AcDbDictionary
281
     1
  3
Normal
350
1D
100
AcDbDictionaryWithDefault
340
1D
  0
ACDBPLACEHOLDER
  5
1D
102
{ACAD_REACTORS
330
1F
102
}
  0
LAYOUT
  5
20
102
{ACAD_REACTORS
330
1E
102
}
100
AcDbPlotSettings
  1

  2

  4

  6

 40
0.0
 41
0.0
 42
0.0
 43
0.0
 44
0.0
 45
0.0
 46
0.0
 47
0.0
 48
0.0
 49
0.0
140
0.0
141
0.0
142
1.0
143
1.0
 70
  1024
 72
     0
 73
     0
 74
     0
  7

 75
     0
147
1.0
148
0.0
149
0.0
100
AcDbLayout
  1
Model
 70
     0
 71
     0
 10
0.0
 20
0.0
 11
0.0
 21
0.0
 12
0.0
 22
0.0
 32
0.0
 14
0.0
 24
0.0
 34
0.0
 15
0.0
 25
0.0
 35
0.0
146
0.0
 13
0.0
 23
0.0
 33
0.0
 16
0.0
 26
0.0
 36
0.0
 17
0.0
 27
0.0
 37
0.0
 76
     0
330
A
331
0
345
0
346
0
  0
LAYOUT
  5
21
102
{ACAD_REACTORS
330
1E
102
}
100
AcDbPlotSettings
  1

  2

  4

  6

 40
0.0
 41
0.0
 42
0.0
 43
0.0
 44
0.0
 45
0.0
 46
0.0
 47
0.0
 48
0.0
 49
0.0
140
0.0
141
0.0
142
1.0
143
1.0
 70
     0
 72
     0
 73
     0
 74
     0
  7

 75
     0
147
1.0
148
0.0
149
0.0
100
AcDbLayout
  1
Layout1
 70
     0
 71
     0
 10
0.0
 20
0.0
 11
0.0
 21
0.0
 12
0.0
 22
0.0
 32
0.0
 14
0.0
 24
0.0
 34
0.0
 15
0.0
 25
0.0
 35
0.0
146
0.0
 13
0.0
 23
0.0
 33
0.0
 16
0.0
 26
0.0
 36
0.0
 17
0.0
 27
0.0
 37
0.0
 76
     0
330
B
331
0
345
0
346
0
  0
DICTIONARY
  5
1E
102
{ACAD_REACTORS
330
19
102
}
100
AcDbDictionary
280
     0
281
     1
  3
Layout1
350
21
  3
Model
350
20
  0
DICTIONARY
  5
22
102
{ACAD_REACTORS
330
19
102
}
100
AcDbDictionary
280
     0
281
     1
  0
WIPEOUTVARIABLES
  5
23
100
AcDbWipeoutVariables
 70
     1
  0
ENDSEC
  0
EOF
