  0
SECTION
  2
HEADER
  9
$ACADVER
  1
AC1015
  9
$ACADMAINTVER
 70
     6
  9
$DWGCODEPAGE
  3
DOS850
  9
$INSBASE
 10
0.0
 20
0.0
 30
0.0
  9
$EXTMIN
 10
1.000000E+20
 20
1.000000E+20
 30
1.000000E+20
  9
$EXTMAX
 10
-1.000000E+20
 20
-1.000000E+20
 30
-1.000000E+20
  9
$LIMMIN
 10
0.0
 20
0.0
  9
$LIMMAX
 10
0.0
 20
0.0
  9
$ORTHOMODE
 70
     0
  9
$REGENMODE
 70
     1
  9
$FILLMODE
 70
     1
  9
$QTEXTMODE
 70
     0
  9
$MIRRTEXT
 70
     1
  9
$LTSCALE
 40
1.0
  9
$ATTMODE
 70
     1
  9
$TEXTSIZE
 40
0.2
  9
$TRACEWID
 40
0.05
  9
$TEXTSTYLE
  7
Standard
  9
$CLAYER
  8
0
  9
$CELTYPE
  6
Continuous
  9
$CECOLOR
 62
   256
  9
$CELTSCALE
 40
1.0
  9
$DISPSILH
 70
     0
  9
$DIMSCALE
 40
1.0
  9
$DIMASZ
 40
0.18
  9
$DIMEXO
 40
0.0625
  9
$DIMDLI
 40
0.38
  9
$DIMRND
 40
0.0
  9
$DIMDLE
 40
0.0
  9
$DIMEXE
 40
0.18
  9
$DIMTP
 40
0.0
  9
$DIMTM
 40
0.0
  9
$DIMTXT
 40
0.18
  9
$DIMCEN
 40
0.09
  9
$DIMTSZ
 40
0.0
  9
$DIMTOL
 70
     0
  9
$DIMLIM
 70
     0
  9
$DIMTIH
 70
     1
  9
$DIMTOH
 70
     1
  9
$DIMSE1
 70
     0
  9
$DIMSE2
 70
     0
  9
$DIMTAD
 70
     0
  9
$DIMZIN
 70
     0
  9
$DIMBLK
  1

  9
$DIMASO
 70
     1
  9
$DIMSHO
 70
     1
  9
$DIMPOST
  1

  9
$DIMAPOST
  1

  9
$DIMALT
 70
     0
  9
$DIMALTD
 70
     2
  9
$DIMALTF
 40
25.4
  9
$DIMLFAC
 40
1.0
  9
$DIMTOFL
 70
     0
  9
$DIMTVP
 40
0.0
  9
$DIMTIX
 70
     0
  9
$DIMSOXD
 70
     0
  9
$DIMSAH
 70
     0
  9
$DIMBLK1
  1

  9
$DIMBLK2
  1

  9
$DIMSTYLE
  2
Standard
  9
$DIMCLRD
 70
     0
  9
$DIMCLRE
 70
     0
  9
$DIMCLRT
 70
     0
  9
$DIMTFAC
 40
1.0
  9
$DIMGAP
 40
0.09
  9
$DIMJUST
 70
     0
  9
$DIMSD1
 70
     0
  9
$DIMSD2
 70
     0
  9
$DIMTOLJ
 70
     1
  9
$DIMTZIN
 70
     0
  9
$DIMALTZ
 70
     0
  9
$DIMALTTZ
 70
     0
  9
$DIMUPT
 70
     0
  9
$DIMDEC
 70
     4
  9
$DIMTDEC
 70
     4
  9
$DIMALTU
 70
     2
  9
$DIMALTTD
 70
     2
  9
$DIMTXSTY
  7
Standard
  9
$DIMAUNIT
 70
     0
  9
$DIMADEC
 70
     0
  9
$DIMALTRND
 40
0.0
  9
$DIMAZIN
 70
     0
  9
$DIMDSEP
 70
     0
  9
$DIMATFIT
 70
     3
  9
$DIMFRAC
 70
     0
  9
$DIMLDRBLK
  1

  9
$DIMLUNIT
 70
     2
  9
$DIMLWD
 70
     0
  9
$DIMLWE
 70
     0
  9
$DIMTMOVE
 70
     0
  9
$LUNITS
 70
     2
  9
$LUPREC
 70
     4
  9
$SKETCHINC
 40
0.1
  9
$FILLETRAD
 40
0.0
  9
$AUNITS
 70
     0
  9
$AUPREC
 70
     0
  9
$MENU
  1
acad
  9
$ELEVATION
 40
0.0
  9
$PELEVATION
 40
0.0
  9
$THICKNESS
 40
0.0
  9
$LIMCHECK
 70
     0
  9
$CHAMFERA
 40
0.0
  9
$CHAMFERB
 40
0.0
  9
$CHAMFERC
 40
0.0
  9
$CHAMFERD
 40
0.0
  9
$SKPOLY
 70
     0
  9
$TDCREATE
 40
0.000000000
  9
$TDUCREATE
 40
0.000000000
  9
$TDUPDATE
 40
0.000000000
  9
$TDUUPDATE
 40
0.000000000
  9
$TDINDWG
 40
0.0000000000
  9
$TDUSRTIMER
 40
0.0000000000
  9
$USRTIMER
 70
     1
  9
$ANGBASE
 50
0.0
  9
$ANGDIR
 70
     0
  9
$PDMODE
 70
     0
  9
$PDSIZE
 40
0.0
  9
$PLINEWID
 40
0.0
  9
$SPLFRAME
 70
     0
  9
$SPLINETYPE
 70
     6
  9
$SPLINESEGS
 70
     8
  9
$HANDSEED
  5
20E
  9
$SURFTAB1
 70
     6
  9
$SURFTAB2
 70
     6
  9
$SURFTYPE
 70
     6
  9
$SURFU
 70
     6
  9
$SURFV
 70
     6
  9
$UCSBASE
  2

  9
$UCSNAME
  2

  9
$UCSORG
 10
0.0
 20
0.0
 30
0.0
  9
$UCSXDIR
 10
1.0
 20
0.0
 30
0.0
  9
$UCSYDIR
 10
0.0
 20
1.0
 30
0.0
  9
$UCSORTHOREF
  2

  9
$UCSORTHOVIEW
 70
     0
  9
$UCSORGTOP
 10
0.0
 20
0.0
 30
0.0
  9
$UCSORGBOTTOM
 10
0.0
 20
0.0
 30
0.0
  9
$UCSORGLEFT
 10
0.0
 20
0.0
 30
0.0
  9
$UCSORGRIGHT
 10
0.0
 20
0.0
 30
0.0
  9
$UCSORGFRONT
 10
0.0
 20
0.0
 30
0.0
  9
$UCSORGBACK
 10
0.0
 20
0.0
 30
0.0
  9
$PUCSBASE
  2

  9
$PUCSNAME
  2

  9
$PUCSORG
 10
0.0
 20
0.0
 30
0.0
  9
$PUCSXDIR
 10
1.0
 20
0.0
 30
0.0
  9
$PUCSYDIR
 10
0.0
 20
1.0
 30
0.0
  9
$PUCSORTHOREF
  2

  9
$PUCSORTHOVIEW
 70
     0
  9
$PUCSORGTOP
 10
0.0
 20
0.0
 30
0.0
  9
$PUCSORGBOTTOM
 10
0.0
 20
0.0
 30
0.0
  9
$PUCSORGLEFT
 10
0.0
 20
0.0
 30
0.0
  9
$PUCSORGRIGHT
 10
0.0
 20
0.0
 30
0.0
  9
$PUCSORGFRONT
 10
0.0
 20
0.0
 30
0.0
  9
$PUCSORGBACK
 10
0.0
 20
0.0
 30
0.0
  9
$USERI1
 70
     0
  9
$USERI2
 70
     0
  9
$USERI3
 70
     0
  9
$USERI4
 70
     0
  9
$USERI5
 70
     0
  9
$USERR1
 40
0.0
  9
$USERR2
 40
0.0
  9
$USERR3
 40
0.0
  9
$USERR4
 40
0.0
  9
$USERR5
 40
0.0
  9
$WORLDVIEW
 70
     1
  9
$SHADEDGE
 70
     3
  9
$SHADEDIF
 70
    70
  9
$TILEMODE
 70
     1
  9
$MAXACTVP
 70
    16
  9
$PINSBASE
 10
0.0
 20
0.0
 30
0.0
  9
$PLIMCHECK
 70
     0
  9
$PEXTMIN
 10
1.000000E+20
 20
1.000000E+20
 30
1.000000E+20
  9
$PEXTMAX
 10
-1.000000E+20
 20
-1.000000E+20
 30
-1.000000E+20
  9
$PLIMMIN
 10
0.0
 20
0.0
  9
$PLIMMAX
 10
12.0
 20
9.0
  9
$UNITMODE
 70
     0
  9
$VISRETAIN
 70
     0
  9
$PLINEGEN
 70
     1
  9
$PSLTSCALE
 70
     0
  9
$TREEDEPTH
 70
  3020
  9
$CMLSTYLE
  2
Standard
  9
$CMLJUST
 70
     0
  9
$CMLSCALE
 40
1.0
  9
$PROXYGRAPHICS
 70
     0
  9
$MEASUREMENT
 70
     0
  9
$CELWEIGHT
370
     0
  9
$ENDCAPS
280
     0
  9
$JOINSTYLE
280
     0
  9
$LWDISPLAY
290
     0
  9
$INSUNITS
 70
     0
  9
$HYPERLINKBASE
  1

  9
$XEDIT
290
     1
  9
$CEPSNTYPE
380
     0
  9
$PSTYLEMODE
290
     1
  9
$FINGERPRINTGUID
  2

  9
$VERSIONGUID
  2

  9
$EXTNAMES
290
     1
  9
$PSVPSCALE
 40
0.0
  0
ENDSEC
  0
SECTION
  2
CLASSES
  0
CLASS
  1
LWPOLYLINE
  2
AcDbPolyline
  3
AutoCAD 2000
 90
        0
280
     0
281
     1
  0
CLASS
  1
IMAGE
  2
AcDbRasterImage
  3
ISM
 90
    32895
280
     0
281
     1
  0
CLASS
  1
OLE2FRAME
  2
AcDbOle2Frame
  3
AutoCAD 2000
 90
    32768
280
     0
281
     1
  0
CLASS
  1
HATCH
  2
AcDbHatch
  3
AutoCAD 2000
 90
    32768
280
     0
281
     1
  0
CLASS
  1
DICTIONARYVAR
  2
AcDbDictionaryVar
  3
AutoCAD 2000
 90
    32768
280
     0
281
     0
  0
CLASS
  1
RASTERVARIABLES
  2
AcDbRasterVariables
  3
ISM
 90
    32768
280
     0
281
     0
  0
CLASS
  1
IMAGEDEF
  2
AcDbRasterImageDef
  3
ISM
 90
    32768
280
     0
281
     0
  0
CLASS
  1
IMAGEDEF_REACTOR
  2
AcDbRasterImageDefReactor
  3
ISM
 90
    32769
280
     0
281
     0
  0
CLASS
  1
IDBUFFER
  2
AcDbIdBuffer
  3
AutoCAD 2000
 90
    32768
280
     0
281
     0
  0
CLASS
  1
SPATIAL_FILTER
  2
AcDbSpatialFilter
  3
AutoCAD 2000
 90
    32768
280
     0
281
     0
  0
CLASS
  1
XRECORD
  2
AcDbXrecord
  3
AutoCAD 2000
 90
    32768
280
     0
281
     0
  0
CLASS
  1
SORTENTSTABLE
  2
AcDbSortentsTable
  3
AutoCAD 2000
 90
    32768
280
     0
281
     0
  0
CLASS
  1
LAYER_INDEX
  2
AcDbLayerIndex
  3
AutoCAD 2000
 90
    32768
280
     0
281
     0
  0
CLASS
  1
SPATIAL_INDEX
  2
AcDbSpatialIndex
  3
AutoCAD 2000
 90
    32768
280
     0
281
     0
  0
CLASS
  1
OBJECT_PTR
  2
CAseDLPNTableRecord
  3
"ASE-LPNTableRecord"
 90
    32769
280
     0
281
     0
  0
CLASS
  1
LAYOUT
  2
AcDbLayout
  3
AutoCAD 2000
 90
        0
280
     0
281
     0
  0
CLASS
  1
PLOTSETTINGS
  2
AcDbPlotSettings
  3
AutoCAD 2000
 90
    32768
280
     0
281
     0
  0
CLASS
  1
ACDBDICTIONARYWDFLT
  2
AcDbDictionaryWithDefault
  3
AutoCAD 2000
 90
        0
280
     0
281
     0
  0
CLASS
  1
ACDBPLACEHOLDER
  2
AcDbPlaceHolder
  3
AutoCAD 2000
 90
        0
280
     0
281
     0
  0
CLASS
  1
VBA_PROJECT
  2
AcDbVbaProject
  3
acadvba
 90
    32768
280
     0
281
     0
  0
CLASS
  1
WIPEOUT
  2
AcDbWipeout
  3
WipeOut|AutoCAD Express Tool|expresstools@autodesk.com
 90
    32895
280
     0
281
     1
  0
CLASS
  1
WIPEOUTVARIABLES
  2
AcDbWipeoutVariables
  3
WipeOut|AutoCAD Express Tool|expresstools@autodesk.com
 90
        0
280
     0
281
     0
  0
CLASS
  1
RTEXT
  2
RText
  3
RText|AutoCAD Express Tool|expresstools@autodesk.com
 90
    32768
280
     0
281
     1
  0
CLASS
  1
ARCALIGNEDTEXT
  2
AcDbArcAlignedText
  3
ATEXT|AutoCAD Express Tool|expresstools@autodesk.com
 90
    32768
280
     0
281
     1
  0
ENDSEC
  0
SECTION
  2
TABLES
  0
TABLE
  2
VPORT
  5
7
100
AcDbSymbolTable
 70
     1
  0
VPORT
  5
15
100
AcDbSymbolTableRecord
100
AcDbViewportTableRecord
  2
*ACTIVE
 70
     0
 10
0.0
 20
0.0
 11
1.0
 21
1.0
 12
6.591288
 22
4.579184
 13
0.0
 23
0.0
 14
1.0
 24
1.0
 15
0.0
 25
0.0
 16
0.0
 26
0.0
 36
1.0
 17
0.0
 27
0.0
 37
0.0
 40
9.158369
 41
0.688564
 42
50.0
 43
0.0
 44
0.0
 50
0.0
 51
0.0
 71
     0
 72
   100
 73
     1
 74
     1
 75
     0
 76
     0
 77
     0
 78
     0
281
     0
 65
     0
110
0.0
120
0.0
130
0.0
111
1.0
121
0.0
131
0.0
112
0.0
122
1.0
132
0.0
345
0
346
0
 79
     0
146
0.0
  0
ENDTAB
  0
TABLE
  2
LTYPE
  5
4
100
AcDbSymbolTable
 70
     3
  0
LTYPE
  5
11
100
AcDbSymbolTableRecord
100
AcDbLinetypeTableRecord
  2
ByBlock
 70
    64
  3

 72
    65
 73
     0
 40
0.0
  0
LTYPE
  5
12
100
AcDbSymbolTableRecord
100
AcDbLinetypeTableRecord
  2
ByLayer
 70
    64
  3

 72
    65
 73
     0
 40
0.0
  0
LTYPE
  5
13
100
AcDbSymbolTableRecord
100
AcDbLinetypeTableRecord
  2
Continuous
 70
    64
  3
Solid line
 72
    65
 73
     0
 40
0.0
  0
ENDTAB
  0
TABLE
  2
LAYER
  5
2
100
AcDbSymbolTable
 70
     1
  0
LAYER
  5
14
100
AcDbSymbolTableRecord
100
AcDbLayerTableRecord
  2
0
 70
     0
 62
     7
  6
Continuous
290
     1
370
    -3
390
1D
  0
ENDTAB
  0
TABLE
  2
STYLE
  5
3
100
AcDbSymbolTable
 70
     1
  0
STYLE
  5
17
100
AcDbSymbolTableRecord
100
AcDbTextStyleTableRecord
  2
Standard
 70
     0
 40
0.0
 41
1.0
 50
0.0
 71
     0
 42
0.0
  3
txt
  4

  0
ENDTAB
  0
TABLE
  2
VIEW
  5
5
100
AcDbSymbolTable
 70
     0
  0
ENDTAB
  0
TABLE
  2
UCS
  5
6
100
AcDbSymbolTable
 70
     0
  0
ENDTAB
  0
TABLE
  2
APPID
  5
8
100
AcDbSymbolTable
 70
     1
  0
APPID
  5
16
100
AcDbSymbolTableRecord
100
AcDbRegAppTableRecord
  2
ACAD
 70
     0
  0
ENDTAB
  0
TABLE
  2
DIMSTYLE
  5
9
100
AcDbSymbolTable
 70
     1
100
AcDbDimStyleTable
 71
     0
  0
DIMSTYLE
105
18
100
AcDbSymbolTableRecord
100
AcDbDimStyleTableRecord
  2
Standard
 70
     0
  3

  4

 40
1.0
 41
0.18
 42
0.0625
 43
0.38
 44
0.18
 45
0.0
 46
0.0
 47
0.0
 48
0.0
 71
     0
 72
     0
 73
     1
 74
     1
 75
     0
 76
     0
 77
     0
 78
     0
 79
     0
140
0.18
141
0.09
142
0.0
143
25.4
144
1.0
145
0.0
146
1.0
147
0.09
148
0.0
170
     0
171
     2
172
     0
173
     0
174
     0
175
     0
176
     0
177
     0
178
     0
179
     0
271
     4
272
     4
273
     2
274
     2
275
     0
276
     0
277
     2
278
    46
279
     0
280
     0
281
     0
282
     0
283
     1
284
     0
285
     0
286
     0
288
     0
340
17
341
0
342
0
343
0
344
0
371
    -2
372
    -2
  0
ENDTAB
  0
TABLE
  2
BLOCK_RECORD
  5
1
100
AcDbSymbolTable
 70
     0
  0
BLOCK_RECORD
  5
A
100
AcDbSymbolTableRecord
100
AcDbBlockTableRecord
  2
*MODEL_SPACE
340
20
  0
BLOCK_RECORD
  5
B
100
AcDbSymbolTableRecord
100
AcDbBlockTableRecord
  2
*PAPER_SPACE
340
21
  0
ENDTAB
  0
ENDSEC
  0
SECTION
  2
BLOCKS
  0
BLOCK
  5
D
100
AcDbEntity
  8
0
100
AcDbBlockBegin
  2
*MODEL_SPACE
 70
     0
 10
0.0
 20
0.0
 30
0.0
  3
*MODEL_SPACE
  1

  0
ENDBLK
  5
E
100
AcDbEntity
  8
0
100
AcDbBlockEnd
  0
BLOCK
  5
F
100
AcDbEntity
 67
     1
  8
0
100
AcDbBlockBegin
  2
*PAPER_SPACE
 70
     0
 10
0.0
 20
0.0
 30
0.0
  3
*PAPER_SPACE
  1

  0
ENDBLK
  5
10
100
AcDbEntity
 67
     1
  8
0
100
AcDbBlockEnd
  0
ENDSEC
  0
SECTION
  2
ENTITIES
  0
SPLINE
  5
24
100
AcDbEntity
  8
0
 62
     0
100
AcDbSpline
210
0.0
220
0.0
230
1.0
 70
     0
 71
     3
 72
     0
 73
     0
 74
    16
 44
0.0000000001
 11
-0.9956614173228346
 21
1.6833937007874016
 31
0.0
 11
-0.9968543307086614
 21
1.7110629921259843
 31
0.0
 11
-0.9999448818897638
 21
1.7468464566929134
 31
0.0
 11
-1.0056889763779528
 21
1.7894606299212599
 31
0.0
 11
-1.0148582677165354
 21
1.8376259842519684
 31
0.0
 11
-1.0281889763779528
 21
1.8900551181102363
 31
0.0
 11
-1.0464685039370079
 21
1.9454803149606299
 31
0.0
 11
-1.0704370078740157
 21
2.0026141732283467
 31
0.0
 11
-1.1008661417322834
 21
2.0601811023622045
 31
0.0
 11
-1.1385000000000001
 21
2.1168858267716537
 31
0.0
 11
-1.1841220472440945
 21
2.171472440944882
 31
0.0
 11
-1.238472440944882
 21
2.2226417322834644
 31
0.0
 11
-1.3023267716535434
 21
2.2691220472440943
 31
0.0
 11
-1.3764330708661416
 21
2.3096259842519684
 31
0.0
 11
-1.4615590551181101
 21
2.3428858267716537
 31
0.0
 11
-1.5584566929133858
 21
2.3676062992125986
 31
0.0
  0
LWPOLYLINE
  5
25
100
AcDbEntity
  8
0
 62
     0
100
AcDbPolyline
 90
        2
 70
     0
 39
0.003
 10
-1.558457
 20
2.367606
 40
0.003
 41
0.003
 10
-1.667906
 20
2.382528
 40
0.003
 41
0.003
  0
LWPOLYLINE
  5
26
100
AcDbEntity
  8
0
 62
     0
100
AcDbPolyline
 90
        2
 70
     0
 39
0.003
 10
-1.667906
 20
2.382528
 40
0.003
 41
0.003
 10
-1.678661
 20
2.538488
 40
0.003
 41
0.003
  0
LWPOLYLINE
  5
27
100
AcDbEntity
  8
0
 62
     0
100
AcDbPolyline
 90
        2
 70
     0
 39
0.003
 10
-1.678661
 20
2.538488
 40
0.003
 41
0.003
 10
-1.874957
 20
2.538488
 40
0.003
 41
0.003
  0
LWPOLYLINE
  5
28
100
AcDbEntity
  8
0
 62
     0
100
AcDbPolyline
 90
        2
 70
     0
 39
0.003
 10
-1.874957
 20
2.538488
 40
0.003
 41
0.003
 10
-1.874957
 20
1.683051
 40
0.003
 41
0.003
  0
LWPOLYLINE
  5
29
100
AcDbEntity
  8
0
 62
     0
100
AcDbPolyline
 90
        2
 70
     0
 39
0.003
 10
-1.874957
 20
1.683051
 40
0.003
 41
0.003
 10
-0.995661
 20
1.683394
 40
0.003
 41
0.003
  0
SPLINE
  5
2A
100
AcDbEntity
  8
0
 62
     0
100
AcDbSpline
210
0.0
220
0.0
230
1.0
 70
     0
 71
     3
 72
     0
 73
     0
 74
    16
 44
0.0000000001
 11
-0.000496062992126
 21
1.6931850393700787
 31
0.0
 11
-0.0016889763779528
 21
1.7208543307086615
 31
0.0
 11
-0.0047795275590551
 21
1.7566377952755905
 31
0.0
 11
-0.0105236220472441
 21
1.799251968503937
 31
0.0
 11
-0.0196929133858268
 21
1.8474173228346458
 31
0.0
 11
-0.0330236220472441
 21
1.8998464566929134
 31
0.0
 11
-0.0513031496062992
 21
1.955271653543307
 31
0.0
 11
-0.0752716535433071
 21
2.0124055118110236
 31
0.0
 11
-0.1057007874015748
 21
2.0699724409448819
 31
0.0
 11
-0.1433346456692913
 21
2.1266771653543306
 31
0.0
 11
-0.1889566929133858
 21
2.1812637795275589
 31
0.0
 11
-0.2433070866141732
 21
2.2324330708661417
 31
0.0
 11
-0.3071614173228346
 21
2.2789133858267716
 31
0.0
 11
-0.3812677165354331
 21
2.3194173228346457
 31
0.0
 11
-0.4663937007874016
 21
2.3526771653543306
 31
0.0
 11
-0.5632913385826772
 21
2.3773976377952755
 31
0.0
  0
LWPOLYLINE
  5
2B
100
AcDbEntity
  8
0
 62
     0
100
AcDbPolyline
 90
        2
 70
     0
 39
0.003
 10
-0.563291
 20
2.377398
 40
0.003
 41
0.003
 10
-0.67274
 20
2.392319
 40
0.003
 41
0.003
  0
LWPOLYLINE
  5
2C
100
AcDbEntity
  8
0
 62
     0
100
AcDbPolyline
 90
        2
 70
     0
 39
0.003
 10
-0.67274
 20
2.392319
 40
0.003
 41
0.003
 10
-0.683496
 20
2.54828
 40
0.003
 41
0.003
  0
LWPOLYLINE
  5
2D
100
AcDbEntity
  8
0
 62
     0
100
AcDbPolyline
 90
        2
 70
     0
 39
0.003
 10
-0.683496
 20
2.54828
 40
0.003
 41
0.003
 10
-0.879791
 20
2.54828
 40
0.003
 41
0.003
  0
LWPOLYLINE
  5
2E
100
AcDbEntity
  8
0
 62
     0
100
AcDbPolyline
 90
        2
 70
     0
 39
0.003
 10
-0.879791
 20
2.54828
 40
0.003
 41
0.003
 10
-0.879791
 20
3.16435
 40
0.003
 41
0.003
  0
LWPOLYLINE
  5
2F
100
AcDbEntity
  8
0
 62
     0
100
AcDbPolyline
 90
        2
 70
     0
 39
0.003
 10
-0.879791
 20
3.16435
 40
0.003
 41
0.003
 10
1.834287
 20
3.16435
 40
0.003
 41
0.003
  0
LWPOLYLINE
  5
30
100
AcDbEntity
  8
0
 62
     0
100
AcDbPolyline
 90
        2
 70
     0
 39
0.003
 10
1.834287
 20
3.16435
 40
0.003
 41
0.003
 10
1.834287
 20
1.69252
 40
0.003
 41
0.003
  0
LWPOLYLINE
  5
31
100
AcDbEntity
  8
0
 62
     0
100
AcDbPolyline
 90
        2
 70
     0
 39
0.003
 10
1.834287
 20
1.69252
 40
0.003
 41
0.003
 10
-0.000496
 20
1.693185
 40
0.003
 41
0.003
  0
MTEXT
  5
32
100
AcDbEntity
  8
0
 62
     0
100
AcDbMText
 10
-2.32363
 20
1.702795
 30
0.0
 40
0.166665
 41
0.0
 71
     1
 72
     1
  1
{\fBookman Old Style|b0|i0|c0|p32;BA  1458}
 73
     1
 44
1.0
  0
MTEXT
  5
33
100
AcDbEntity
  8
0
 62
     0
100
AcDbMText
 10
-2.32363
 20
1.515295
 30
0.0
 40
0.166665
 41
0.0
 71
     1
 72
     1
  1
{\fBookman Old Style|b0|i0|c0|p32;7/8" x 7/8"}
 73
     1
 44
1.0
  0
MTEXT
  5
34
100
AcDbEntity
  8
0
 62
     0
100
AcDbMText
 10
0.020697
 20
2.474697
 30
0.0
 40
0.166665
 41
0.0
 71
     1
 72
     1
  1
{\fBookman Old Style|b0|i0|c0|p32;BA  1459}
 73
     1
 44
1.0
  0
MTEXT
  5
35
100
AcDbEntity
  8
0
 62
     0
100
AcDbMText
 10
0.027346
 20
2.287197
 30
0.0
 40
0.166665
 41
0.0
 71
     1
 72
     1
  1
{\fBookman Old Style|b0|i0|c0|p32;Coping Knife}
 73
     1
 44
1.0
  0
MTEXT
  5
36
100
AcDbEntity
  8
0
 62
     0
100
AcDbMText
 10
0.027346
 20
2.099697
 30
0.0
 40
0.166665
 41
0.0
 71
     1
 72
     1
  1
{\fBookman Old Style|b0|i0|c0|p32;for BA  1458}
 73
     1
 44
1.0
  0
LWPOLYLINE
  5
37
100
AcDbEntity
  8
0
 62
   254
100
AcDbPolyline
 90
        2
 70
     0
 39
0.003
 10
-1.183768
 20
-1.780079
 40
0.003
 41
0.003
 10
-0.542925
 20
-1.396488
 40
0.003
 41
0.003
  0
LWPOLYLINE
  5
38
100
AcDbEntity
  8
0
 62
   254
100
AcDbPolyline
 90
        2
 70
     0
 39
0.003
 10
-0.542925
 20
-1.396488
 40
0.003
 41
0.003
 10
-0.543343
 20
-1.38374
 40
0.003
 41
0.003
  0
LWPOLYLINE
  5
39
100
AcDbEntity
  8
0
 62
   254
100
AcDbPolyline
 90
        2
 70
     0
 39
0.003
 10
-0.543343
 20
-1.38374
 40
0.003
 41
0.003
 10
-1.184185
 20
-1.767331
 40
0.003
 41
0.003
  0
LWPOLYLINE
  5
3A
100
AcDbEntity
  8
0
 62
   254
100
AcDbPolyline
 90
        2
 70
     0
 39
0.003
 10
-1.184185
 20
-1.767331
 40
0.003
 41
0.003
 10
-1.183768
 20
-1.780079
 40
0.003
 41
0.003
  0
LWPOLYLINE
  5
3B
100
AcDbEntity
  8
0
 62
   254
100
AcDbPolyline
 90
        2
 70
     0
 39
0.003
 10
-1.184185
 20
-1.767331
 40
0.003
 41
0.003
 10
-0.543343
 20
-1.38374
 40
0.003
 41
0.003
  0
LWPOLYLINE
  5
3C
100
AcDbEntity
  8
0
 62
   254
100
AcDbPolyline
 90
        2
 70
     0
 39
0.003
 10
-0.543343
 20
-1.38374
 40
0.003
 41
0.003
 10
-0.54413
 20
-1.368807
 40
0.003
 41
0.003
  0
LWPOLYLINE
  5
3D
100
AcDbEntity
  8
0
 62
   254
100
AcDbPolyline
 90
        2
 70
     0
 39
0.003
 10
-0.54413
 20
-1.368807
 40
0.003
 41
0.003
 10
-1.184972
 20
-1.752398
 40
0.003
 41
0.003
  0
LWPOLYLINE
  5
3E
100
AcDbEntity
  8
0
 62
   254
100
AcDbPolyline
 90
        2
 70
     0
 39
0.003
 10
-1.184972
 20
-1.752398
 40
0.003
 41
0.003
 10
-1.184185
 20
-1.767331
 40
0.003
 41
0.003
  0
LWPOLYLINE
  5
3F
100
AcDbEntity
  8
0
 62
   254
100
AcDbPolyline
 90
        2
 70
     0
 39
0.003
 10
-1.184972
 20
-1.752398
 40
0.003
 41
0.003
 10
-0.54413
 20
-1.368807
 40
0.003
 41
0.003
  0
LWPOLYLINE
  5
40
100
AcDbEntity
  8
0
 62
   254
100
AcDbPolyline
 90
        2
 70
     0
 39
0.003
 10
-0.54413
 20
-1.368807
 40
0.003
 41
0.003
 10
-0.545398
 20
-1.351846
 40
0.003
 41
0.003
  0
LWPOLYLINE
  5
41
100
AcDbEntity
  8
0
 62
   254
100
AcDbPolyline
 90
        2
 70
     0
 39
0.003
 10
-0.545398
 20
-1.351846
 40
0.003
 41
0.003
 10
-1.18624
 20
-1.735437
 40
0.003
 41
0.003
  0
LWPOLYLINE
  5
42
100
AcDbEntity
  8
0
 62
   254
100
AcDbPolyline
 90
        2
 70
     0
 39
0.003
 10
-1.18624
 20
-1.735437
 40
0.003
 41
0.003
 10
-1.184972
 20
-1.752398
 40
0.003
 41
0.003
  0
LWPOLYLINE
  5
43
100
AcDbEntity
  8
0
 62
   254
100
AcDbPolyline
 90
        2
 70
     0
 39
0.003
 10
-1.18624
 20
-1.735437
 40
0.003
 41
0.003
 10
-0.545398
 20
-1.351846
 40
0.003
 41
0.003
  0
LWPOLYLINE
  5
44
100
AcDbEntity
  8
0
 62
   254
100
AcDbPolyline
 90
        2
 70
     0
 39
0.003
 10
-0.545398
 20
-1.351846
 40
0.003
 41
0.003
 10
-0.54722
 20
-1.333024
 40
0.003
 41
0.003
  0
LWPOLYLINE
  5
45
100
AcDbEntity
  8
0
 62
   254
100
AcDbPolyline
 90
        2
 70
     0
 39
0.003
 10
-0.54722
 20
-1.333024
 40
0.003
 41
0.003
 10
-1.188063
 20
-1.716614
 40
0.003
 41
0.003
  0
LWPOLYLINE
  5
46
100
AcDbEntity
  8
0
 62
   254
100
AcDbPolyline
 90
        2
 70
     0
 39
0.003
 10
-1.188063
 20
-1.716614
 40
0.003
 41
0.003
 10
-1.18624
 20
-1.735437
 40
0.003
 41
0.003
  0
LWPOLYLINE
  5
47
100
AcDbEntity
  8
0
 62
   254
100
AcDbPolyline
 90
        2
 70
     0
 39
0.003
 10
-1.188063
 20
-1.716614
 40
0.003
 41
0.003
 10
-0.54722
 20
-1.333024
 40
0.003
 41
0.003
  0
LWPOLYLINE
  5
48
100
AcDbEntity
  8
0
 62
   254
100
AcDbPolyline
 90
        2
 70
     0
 39
0.003
 10
-0.54722
 20
-1.333024
 40
0.003
 41
0.003
 10
-0.54972
 20
-1.312488
 40
0.003
 41
0.003
  0
LWPOLYLINE
  5
49
100
AcDbEntity
  8
0
 62
   254
100
AcDbPolyline
 90
        2
 70
     0
 39
0.003
 10
-0.54972
 20
-1.312488
 40
0.003
 41
0.003
 10
-1.190563
 20
-1.696079
 40
0.003
 41
0.003
  0
LWPOLYLINE
  5
4A
100
AcDbEntity
  8
0
 62
   254
100
AcDbPolyline
 90
        2
 70
     0
 39
0.003
 10
-1.190563
 20
-1.696079
 40
0.003
 41
0.003
 10
-1.188063
 20
-1.716614
 40
0.003
 41
0.003
  0
LWPOLYLINE
  5
4B
100
AcDbEntity
  8
0
 62
   254
100
AcDbPolyline
 90
        2
 70
     0
 39
0.003
 10
-1.190563
 20
-1.696079
 40
0.003
 41
0.003
 10
-0.54972
 20
-1.312488
 40
0.003
 41
0.003
  0
LWPOLYLINE
  5
4C
100
AcDbEntity
  8
0
 62
   254
100
AcDbPolyline
 90
        2
 70
     0
 39
0.003
 10
-0.54972
 20
-1.312488
 40
0.003
 41
0.003
 10
-0.552972
 20
-1.290409
 40
0.003
 41
0.003
  0
LWPOLYLINE
  5
4D
100
AcDbEntity
  8
0
 62
   254
100
AcDbPolyline
 90
        2
 70
     0
 39
0.003
 10
-0.552972
 20
-1.290409
 40
0.003
 41
0.003
 10
-1.193815
 20
-1.674
 40
0.003
 41
0.003
  0
LWPOLYLINE
  5
4E
100
AcDbEntity
  8
0
 62
   254
100
AcDbPolyline
 90
        2
 70
     0
 39
0.003
 10
-1.193815
 20
-1.674
 40
0.003
 41
0.003
 10
-1.190563
 20
-1.696079
 40
0.003
 41
0.003
  0
LWPOLYLINE
  5
4F
100
AcDbEntity
  8
0
 62
   254
100
AcDbPolyline
 90
        2
 70
     0
 39
0.003
 10
-1.193815
 20
-1.674
 40
0.003
 41
0.003
 10
-0.552972
 20
-1.290409
 40
0.003
 41
0.003
  0
LWPOLYLINE
  5
50
100
AcDbEntity
  8
0
 62
   254
100
AcDbPolyline
 90
        2
 70
     0
 39
0.003
 10
-0.552972
 20
-1.290409
 40
0.003
 41
0.003
 10
-0.557083
 20
-1.266941
 40
0.003
 41
0.003
  0
LWPOLYLINE
  5
51
100
AcDbEntity
  8
0
 62
   254
100
AcDbPolyline
 90
        2
 70
     0
 39
0.003
 10
-0.557083
 20
-1.266941
 40
0.003
 41
0.003
 10
-1.197925
 20
-1.650531
 40
0.003
 41
0.003
  0
LWPOLYLINE
  5
52
100
AcDbEntity
  8
0
 62
   254
100
AcDbPolyline
 90
        2
 70
     0
 39
0.003
 10
-1.197925
 20
-1.650531
 40
0.003
 41
0.003
 10
-1.193815
 20
-1.674
 40
0.003
 41
0.003
  0
LWPOLYLINE
  5
53
100
AcDbEntity
  8
0
 62
   254
100
AcDbPolyline
 90
        2
 70
     0
 39
0.003
 10
-1.197925
 20
-1.650531
 40
0.003
 41
0.003
 10
-0.557083
 20
-1.266941
 40
0.003
 41
0.003
  0
LWPOLYLINE
  5
54
100
AcDbEntity
  8
0
 62
   254
100
AcDbPolyline
 90
        2
 70
     0
 39
0.003
 10
-0.557083
 20
-1.266941
 40
0.003
 41
0.003
 10
-0.56213
 20
-1.242248
 40
0.003
 41
0.003
  0
LWPOLYLINE
  5
55
100
AcDbEntity
  8
0
 62
   254
100
AcDbPolyline
 90
        2
 70
     0
 39
0.003
 10
-0.56213
 20
-1.242248
 40
0.003
 41
0.003
 10
-1.202972
 20
-1.625839
 40
0.003
 41
0.003
  0
LWPOLYLINE
  5
56
100
AcDbEntity
  8
0
 62
   254
100
AcDbPolyline
 90
        2
 70
     0
 39
0.003
 10
-1.202972
 20
-1.625839
 40
0.003
 41
0.003
 10
-1.197925
 20
-1.650531
 40
0.003
 41
0.003
  0
LWPOLYLINE
  5
57
100
AcDbEntity
  8
0
 62
   254
100
AcDbPolyline
 90
        2
 70
     0
 39
0.003
 10
-1.202972
 20
-1.625839
 40
0.003
 41
0.003
 10
-0.56213
 20
-1.242248
 40
0.003
 41
0.003
  0
LWPOLYLINE
  5
58
100
AcDbEntity
  8
0
 62
   254
100
AcDbPolyline
 90
        2
 70
     0
 39
0.003
 10
-0.56213
 20
-1.242248
 40
0.003
 41
0.003
 10
-0.568236
 20
-1.21648
 40
0.003
 41
0.003
  0
LWPOLYLINE
  5
59
100
AcDbEntity
  8
0
 62
   254
100
AcDbPolyline
 90
        2
 70
     0
 39
0.003
 10
-0.568236
 20
-1.21648
 40
0.003
 41
0.003
 10
-1.209079
 20
-1.600071
 40
0.003
 41
0.003
  0
LWPOLYLINE
  5
5A
100
AcDbEntity
  8
0
 62
   254
100
AcDbPolyline
 90
        2
 70
     0
 39
0.003
 10
-1.209079
 20
-1.600071
 40
0.003
 41
0.003
 10
-1.202972
 20
-1.625839
 40
0.003
 41
0.003
  0
LWPOLYLINE
  5
5B
100
AcDbEntity
  8
0
 62
   254
100
AcDbPolyline
 90
        2
 70
     0
 39
0.003
 10
-1.209079
 20
-1.600071
 40
0.003
 41
0.003
 10
-0.568236
 20
-1.21648
 40
0.003
 41
0.003
  0
LWPOLYLINE
  5
5C
100
AcDbEntity
  8
0
 62
   254
100
AcDbPolyline
 90
        2
 70
     0
 39
0.003
 10
-0.568236
 20
-1.21648
 40
0.003
 41
0.003
 10
-0.575472
 20
-1.189807
 40
0.003
 41
0.003
  0
LWPOLYLINE
  5
5D
100
AcDbEntity
  8
0
 62
   254
100
AcDbPolyline
 90
        2
 70
     0
 39
0.003
 10
-0.575472
 20
-1.189807
 40
0.003
 41
0.003
 10
-1.216315
 20
-1.573398
 40
0.003
 41
0.003
  0
LWPOLYLINE
  5
5E
100
AcDbEntity
  8
0
 62
   254
100
AcDbPolyline
 90
        2
 70
     0
 39
0.003
 10
-1.216315
 20
-1.573398
 40
0.003
 41
0.003
 10
-1.209079
 20
-1.600071
 40
0.003
 41
0.003
  0
LWPOLYLINE
  5
5F
100
AcDbEntity
  8
0
 62
   254
100
AcDbPolyline
 90
        2
 70
     0
 39
0.003
 10
-1.216315
 20
-1.573398
 40
0.003
 41
0.003
 10
-0.575472
 20
-1.189807
 40
0.003
 41
0.003
  0
LWPOLYLINE
  5
60
100
AcDbEntity
  8
0
 62
   254
100
AcDbPolyline
 90
        2
 70
     0
 39
0.003
 10
-0.575472
 20
-1.189807
 40
0.003
 41
0.003
 10
-0.583949
 20
-1.162386
 40
0.003
 41
0.003
  0
LWPOLYLINE
  5
61
100
AcDbEntity
  8
0
 62
   254
100
AcDbPolyline
 90
        2
 70
     0
 39
0.003
 10
-0.583949
 20
-1.162386
 40
0.003
 41
0.003
 10
-1.224791
 20
-1.545976
 40
0.003
 41
0.003
  0
LWPOLYLINE
  5
62
100
AcDbEntity
  8
0
 62
   254
100
AcDbPolyline
 90
        2
 70
     0
 39
0.003
 10
-1.224791
 20
-1.545976
 40
0.003
 41
0.003
 10
-1.216315
 20
-1.573398
 40
0.003
 41
0.003
  0
LWPOLYLINE
  5
63
100
AcDbEntity
  8
0
 62
   254
100
AcDbPolyline
 90
        2
 70
     0
 39
0.003
 10
-1.224791
 20
-1.545976
 40
0.003
 41
0.003
 10
-0.583949
 20
-1.162386
 40
0.003
 41
0.003
  0
LWPOLYLINE
  5
64
100
AcDbEntity
  8
0
 62
   254
100
AcDbPolyline
 90
        2
 70
     0
 39
0.003
 10
-0.583949
 20
-1.162386
 40
0.003
 41
0.003
 10
-0.593744
 20
-1.134386
 40
0.003
 41
0.003
  0
LWPOLYLINE
  5
65
100
AcDbEntity
  8
0
 62
   254
100
AcDbPolyline
 90
        2
 70
     0
 39
0.003
 10
-0.593744
 20
-1.134386
 40
0.003
 41
0.003
 10
-1.234587
 20
-1.517976
 40
0.003
 41
0.003
  0
LWPOLYLINE
  5
66
100
AcDbEntity
  8
0
 62
   254
100
AcDbPolyline
 90
        2
 70
     0
 39
0.003
 10
-1.234587
 20
-1.517976
 40
0.003
 41
0.003
 10
-1.224791
 20
-1.545976
 40
0.003
 41
0.003
  0
LWPOLYLINE
  5
67
100
AcDbEntity
  8
0
 62
   254
100
AcDbPolyline
 90
        2
 70
     0
 39
0.003
 10
-1.234587
 20
-1.517976
 40
0.003
 41
0.003
 10
-0.593744
 20
-1.134386
 40
0.003
 41
0.003
  0
LWPOLYLINE
  5
68
100
AcDbEntity
  8
0
 62
   254
100
AcDbPolyline
 90
        2
 70
     0
 39
0.003
 10
-0.593744
 20
-1.134386
 40
0.003
 41
0.003
 10
-0.604976
 20
-1.105949
 40
0.003
 41
0.003
  0
LWPOLYLINE
  5
69
100
AcDbEntity
  8
0
 62
   254
100
AcDbPolyline
 90
        2
 70
     0
 39
0.003
 10
-0.604976
 20
-1.105949
 40
0.003
 41
0.003
 10
-1.245819
 20
-1.489539
 40
0.003
 41
0.003
  0
LWPOLYLINE
  5
6A
100
AcDbEntity
  8
0
 62
   254
100
AcDbPolyline
 90
        2
 70
     0
 39
0.003
 10
-1.245819
 20
-1.489539
 40
0.003
 41
0.003
 10
-1.234587
 20
-1.517976
 40
0.003
 41
0.003
  0
LWPOLYLINE
  5
6B
100
AcDbEntity
  8
0
 62
   254
100
AcDbPolyline
 90
        2
 70
     0
 39
0.003
 10
-1.245819
 20
-1.489539
 40
0.003
 41
0.003
 10
-0.604976
 20
-1.105949
 40
0.003
 41
0.003
  0
LWPOLYLINE
  5
6C
100
AcDbEntity
  8
0
 62
   254
100
AcDbPolyline
 90
        2
 70
     0
 39
0.003
 10
-0.604976
 20
-1.105949
 40
0.003
 41
0.003
 10
-0.617717
 20
-1.077248
 40
0.003
 41
0.003
  0
LWPOLYLINE
  5
6D
100
AcDbEntity
  8
0
 62
   254
100
AcDbPolyline
 90
        2
 70
     0
 39
0.003
 10
-0.617717
 20
-1.077248
 40
0.003
 41
0.003
 10
-1.258559
 20
-1.460839
 40
0.003
 41
0.003
  0
LWPOLYLINE
  5
6E
100
AcDbEntity
  8
0
 62
   254
100
AcDbPolyline
 90
        2
 70
     0
 39
0.003
 10
-1.258559
 20
-1.460839
 40
0.003
 41
0.003
 10
-1.245819
 20
-1.489539
 40
0.003
 41
0.003
  0
LWPOLYLINE
  5
6F
100
AcDbEntity
  8
0
 62
   254
100
AcDbPolyline
 90
        2
 70
     0
 39
0.003
 10
-1.258559
 20
-1.460839
 40
0.003
 41
0.003
 10
-0.617717
 20
-1.077248
 40
0.003
 41
0.003
  0
LWPOLYLINE
  5
70
100
AcDbEntity
  8
0
 62
   254
100
AcDbPolyline
 90
        2
 70
     0
 39
0.003
 10
-0.617717
 20
-1.077248
 40
0.003
 41
0.003
 10
-0.632075
 20
-1.048441
 40
0.003
 41
0.003
  0
LWPOLYLINE
  5
71
100
AcDbEntity
  8
0
 62
   254
100
AcDbPolyline
 90
        2
 70
     0
 39
0.003
 10
-0.632075
 20
-1.048441
 40
0.003
 41
0.003
 10
-1.272917
 20
-1.432031
 40
0.003
 41
0.003
  0
LWPOLYLINE
  5
72
100
AcDbEntity
  8
0
 62
   254
100
AcDbPolyline
 90
        2
 70
     0
 39
0.003
 10
-1.272917
 20
-1.432031
 40
0.003
 41
0.003
 10
-1.258559
 20
-1.460839
 40
0.003
 41
0.003
  0
LWPOLYLINE
  5
73
100
AcDbEntity
  8
0
 62
   254
100
AcDbPolyline
 90
        2
 70
     0
 39
0.003
 10
-1.272917
 20
-1.432031
 40
0.003
 41
0.003
 10
-0.632075
 20
-1.048441
 40
0.003
 41
0.003
  0
LWPOLYLINE
  5
74
100
AcDbEntity
  8
0
 62
   254
100
AcDbPolyline
 90
        2
 70
     0
 39
0.003
 10
-0.632075
 20
-1.048441
 40
0.003
 41
0.003
 10
-0.648134
 20
-1.019693
 40
0.003
 41
0.003
  0
LWPOLYLINE
  5
75
100
AcDbEntity
  8
0
 62
   254
100
AcDbPolyline
 90
        2
 70
     0
 39
0.003
 10
-0.648134
 20
-1.019693
 40
0.003
 41
0.003
 10
-1.288976
 20
-1.403283
 40
0.003
 41
0.003
  0
LWPOLYLINE
  5
76
100
AcDbEntity
  8
0
 62
   254
100
AcDbPolyline
 90
        2
 70
     0
 39
0.003
 10
-1.288976
 20
-1.403283
 40
0.003
 41
0.003
 10
-1.272917
 20
-1.432031
 40
0.003
 41
0.003
  0
LWPOLYLINE
  5
77
100
AcDbEntity
  8
0
 62
   254
100
AcDbPolyline
 90
        2
 70
     0
 39
0.003
 10
-1.288976
 20
-1.403283
 40
0.003
 41
0.003
 10
-0.648134
 20
-1.019693
 40
0.003
 41
0.003
  0
LWPOLYLINE
  5
78
100
AcDbEntity
  8
0
 62
   254
100
AcDbPolyline
 90
        2
 70
     0
 39
0.003
 10
-0.648134
 20
-1.019693
 40
0.003
 41
0.003
 10
-0.666012
 20
-0.991146
 40
0.003
 41
0.003
  0
LWPOLYLINE
  5
79
100
AcDbEntity
  8
0
 62
   254
100
AcDbPolyline
 90
        2
 70
     0
 39
0.003
 10
-0.666012
 20
-0.991146
 40
0.003
 41
0.003
 10
-1.306854
 20
-1.374736
 40
0.003
 41
0.003
  0
LWPOLYLINE
  5
7A
100
AcDbEntity
  8
0
 62
   254
100
AcDbPolyline
 90
        2
 70
     0
 39
0.003
 10
-1.306854
 20
-1.374736
 40
0.003
 41
0.003
 10
-1.288976
 20
-1.403283
 40
0.003
 41
0.003
  0
LWPOLYLINE
  5
7B
100
AcDbEntity
  8
0
 62
   254
100
AcDbPolyline
 90
        2
 70
     0
 39
0.003
 10
-1.306854
 20
-1.374736
 40
0.003
 41
0.003
 10
-0.666012
 20
-0.991146
 40
0.003
 41
0.003
  0
LWPOLYLINE
  5
7C
100
AcDbEntity
  8
0
 62
   254
100
AcDbPolyline
 90
        2
 70
     0
 39
0.003
 10
-0.666012
 20
-0.991146
 40
0.003
 41
0.003
 10
-0.68578
 20
-0.962976
 40
0.003
 41
0.003
  0
LWPOLYLINE
  5
7D
100
AcDbEntity
  8
0
 62
   254
100
AcDbPolyline
 90
        2
 70
     0
 39
0.003
 10
-0.68578
 20
-0.962976
 40
0.003
 41
0.003
 10
-1.326622
 20
-1.346567
 40
0.003
 41
0.003
  0
LWPOLYLINE
  5
7E
100
AcDbEntity
  8
0
 62
   254
100
AcDbPolyline
 90
        2
 70
     0
 39
0.003
 10
-1.326622
 20
-1.346567
 40
0.003
 41
0.003
 10
-1.306854
 20
-1.374736
 40
0.003
 41
0.003
  0
LWPOLYLINE
  5
7F
100
AcDbEntity
  8
0
 62
   254
100
AcDbPolyline
 90
        2
 70
     0
 39
0.003
 10
-1.326622
 20
-1.346567
 40
0.003
 41
0.003
 10
-0.68578
 20
-0.962976
 40
0.003
 41
0.003
  0
LWPOLYLINE
  5
80
100
AcDbEntity
  8
0
 62
   254
100
AcDbPolyline
 90
        2
 70
     0
 39
0.003
 10
-0.68578
 20
-0.962976
 40
0.003
 41
0.003
 10
-0.707547
 20
-0.935335
 40
0.003
 41
0.003
  0
LWPOLYLINE
  5
81
100
AcDbEntity
  8
0
 62
   254
100
AcDbPolyline
 90
        2
 70
     0
 39
0.003
 10
-0.707547
 20
-0.935335
 40
0.003
 41
0.003
 10
-1.34839
 20
-1.318925
 40
0.003
 41
0.003
  0
LWPOLYLINE
  5
82
100
AcDbEntity
  8
0
 62
   254
100
AcDbPolyline
 90
        2
 70
     0
 39
0.003
 10
-1.34839
 20
-1.318925
 40
0.003
 41
0.003
 10
-1.326622
 20
-1.346567
 40
0.003
 41
0.003
  0
LWPOLYLINE
  5
83
100
AcDbEntity
  8
0
 62
   254
100
AcDbPolyline
 90
        2
 70
     0
 39
0.003
 10
-1.34839
 20
-1.318925
 40
0.003
 41
0.003
 10
-0.707547
 20
-0.935335
 40
0.003
 41
0.003
  0
LWPOLYLINE
  5
84
100
AcDbEntity
  8
0
 62
   254
100
AcDbPolyline
 90
        2
 70
     0
 39
0.003
 10
-0.707547
 20
-0.935335
 40
0.003
 41
0.003
 10
-0.731398
 20
-0.908394
 40
0.003
 41
0.003
  0
LWPOLYLINE
  5
85
100
AcDbEntity
  8
0
 62
   254
100
AcDbPolyline
 90
        2
 70
     0
 39
0.003
 10
-0.731398
 20
-0.908394
 40
0.003
 41
0.003
 10
-1.37224
 20
-1.291984
 40
0.003
 41
0.003
  0
LWPOLYLINE
  5
86
100
AcDbEntity
  8
0
 62
   254
100
AcDbPolyline
 90
        2
 70
     0
 39
0.003
 10
-1.37224
 20
-1.291984
 40
0.003
 41
0.003
 10
-1.34839
 20
-1.318925
 40
0.003
 41
0.003
  0
LWPOLYLINE
  5
87
100
AcDbEntity
  8
0
 62
   254
100
AcDbPolyline
 90
        2
 70
     0
 39
0.003
 10
-1.37224
 20
-1.291984
 40
0.003
 41
0.003
 10
-0.731398
 20
-0.908394
 40
0.003
 41
0.003
  0
LWPOLYLINE
  5
88
100
AcDbEntity
  8
0
 62
   254
100
AcDbPolyline
 90
        2
 70
     0
 39
0.003
 10
-0.731398
 20
-0.908394
 40
0.003
 41
0.003
 10
-0.757437
 20
-0.882299
 40
0.003
 41
0.003
  0
LWPOLYLINE
  5
89
100
AcDbEntity
  8
0
 62
   254
100
AcDbPolyline
 90
        2
 70
     0
 39
0.003
 10
-0.757437
 20
-0.882299
 40
0.003
 41
0.003
 10
-1.39828
 20
-1.26589
 40
0.003
 41
0.003
  0
LWPOLYLINE
  5
8A
100
AcDbEntity
  8
0
 62
   254
100
AcDbPolyline
 90
        2
 70
     0
 39
0.003
 10
-1.39828
 20
-1.26589
 40
0.003
 41
0.003
 10
-1.37224
 20
-1.291984
 40
0.003
 41
0.003
  0
LWPOLYLINE
  5
8B
100
AcDbEntity
  8
0
 62
   254
100
AcDbPolyline
 90
        2
 70
     0
 39
0.003
 10
-1.39828
 20
-1.26589
 40
0.003
 41
0.003
 10
-0.757437
 20
-0.882299
 40
0.003
 41
0.003
  0
LWPOLYLINE
  5
8C
100
AcDbEntity
  8
0
 62
   254
100
AcDbPolyline
 90
        2
 70
     0
 39
0.003
 10
-0.757437
 20
-0.882299
 40
0.003
 41
0.003
 10
-0.785752
 20
-0.857224
 40
0.003
 41
0.003
  0
LWPOLYLINE
  5
8D
100
AcDbEntity
  8
0
 62
   254
100
AcDbPolyline
 90
        2
 70
     0
 39
0.003
 10
-0.785752
 20
-0.857224
 40
0.003
 41
0.003
 10
-1.426594
 20
-1.240815
 40
0.003
 41
0.003
  0
LWPOLYLINE
  5
8E
100
AcDbEntity
  8
0
 62
   254
100
AcDbPolyline
 90
        2
 70
     0
 39
0.003
 10
-1.426594
 20
-1.240815
 40
0.003
 41
0.003
 10
-1.39828
 20
-1.26589
 40
0.003
 41
0.003
  0
LWPOLYLINE
  5
8F
100
AcDbEntity
  8
0
 62
   254
100
AcDbPolyline
 90
        2
 70
     0
 39
0.003
 10
-1.426594
 20
-1.240815
 40
0.003
 41
0.003
 10
-0.785752
 20
-0.857224
 40
0.003
 41
0.003
  0
LWPOLYLINE
  5
90
100
AcDbEntity
  8
0
 62
   254
100
AcDbPolyline
 90
        2
 70
     0
 39
0.003
 10
-0.785752
 20
-0.857224
 40
0.003
 41
0.003
 10
-0.816445
 20
-0.833315
 40
0.003
 41
0.003
  0
LWPOLYLINE
  5
91
100
AcDbEntity
  8
0
 62
   254
100
AcDbPolyline
 90
        2
 70
     0
 39
0.003
 10
-0.816445
 20
-0.833315
 40
0.003
 41
0.003
 10
-1.457287
 20
-1.216906
 40
0.003
 41
0.003
  0
LWPOLYLINE
  5
92
100
AcDbEntity
  8
0
 62
   254
100
AcDbPolyline
 90
        2
 70
     0
 39
0.003
 10
-1.457287
 20
-1.216906
 40
0.003
 41
0.003
 10
-1.426594
 20
-1.240815
 40
0.003
 41
0.003
  0
LWPOLYLINE
  5
93
100
AcDbEntity
  8
0
 62
   254
100
AcDbPolyline
 90
        2
 70
     0
 39
0.003
 10
-1.457287
 20
-1.216906
 40
0.003
 41
0.003
 10
-0.816445
 20
-0.833315
 40
0.003
 41
0.003
  0
LWPOLYLINE
  5
94
100
AcDbEntity
  8
0
 62
   254
100
AcDbPolyline
 90
        2
 70
     0
 39
0.003
 10
-0.816445
 20
-0.833315
 40
0.003
 41
0.003
 10
-0.849598
 20
-0.810748
 40
0.003
 41
0.003
  0
LWPOLYLINE
  5
95
100
AcDbEntity
  8
0
 62
   254
100
AcDbPolyline
 90
        2
 70
     0
 39
0.003
 10
-0.849598
 20
-0.810748
 40
0.003
 41
0.003
 10
-1.490441
 20
-1.194339
 40
0.003
 41
0.003
  0
LWPOLYLINE
  5
96
100
AcDbEntity
  8
0
 62
   254
100
AcDbPolyline
 90
        2
 70
     0
 39
0.003
 10
-1.490441
 20
-1.194339
 40
0.003
 41
0.003
 10
-1.457287
 20
-1.216906
 40
0.003
 41
0.003
  0
LWPOLYLINE
  5
97
100
AcDbEntity
  8
0
 62
   254
100
AcDbPolyline
 90
        2
 70
     0
 39
0.003
 10
-1.490441
 20
-1.194339
 40
0.003
 41
0.003
 10
-0.849598
 20
-0.810748
 40
0.003
 41
0.003
  0
LWPOLYLINE
  5
98
100
AcDbEntity
  8
0
 62
   254
100
AcDbPolyline
 90
        2
 70
     0
 39
0.003
 10
-0.849598
 20
-0.810748
 40
0.003
 41
0.003
 10
-0.885327
 20
-0.789661
 40
0.003
 41
0.003
  0
LWPOLYLINE
  5
99
100
AcDbEntity
  8
0
 62
   254
100
AcDbPolyline
 90
        2
 70
     0
 39
0.003
 10
-0.885327
 20
-0.789661
 40
0.003
 41
0.003
 10
-1.526169
 20
-1.173252
 40
0.003
 41
0.003
  0
LWPOLYLINE
  5
9A
100
AcDbEntity
  8
0
 62
   254
100
AcDbPolyline
 90
        2
 70
     0
 39
0.003
 10
-1.526169
 20
-1.173252
 40
0.003
 41
0.003
 10
-1.490441
 20
-1.194339
 40
0.003
 41
0.003
  0
LWPOLYLINE
  5
9B
100
AcDbEntity
  8
0
 62
     9
100
AcDbPolyline
 90
        2
 70
     0
 39
0.003
 10
-1.526169
 20
-1.173252
 40
0.003
 41
0.003
 10
-0.885327
 20
-0.789661
 40
0.003
 41
0.003
  0
LWPOLYLINE
  5
9C
100
AcDbEntity
  8
0
 62
     9
100
AcDbPolyline
 90
        2
 70
     0
 39
0.003
 10
-0.885327
 20
-0.789661
 40
0.003
 41
0.003
 10
-0.923709
 20
-0.770236
 40
0.003
 41
0.003
  0
LWPOLYLINE
  5
9D
100
AcDbEntity
  8
0
 62
     9
100
AcDbPolyline
 90
        2
 70
     0
 39
0.003
 10
-0.923709
 20
-0.770236
 40
0.003
 41
0.003
 10
-1.564551
 20
-1.153827
 40
0.003
 41
0.003
  0
LWPOLYLINE
  5
9E
100
AcDbEntity
  8
0
 62
     9
100
AcDbPolyline
 90
        2
 70
     0
 39
0.003
 10
-1.564551
 20
-1.153827
 40
0.003
 41
0.003
 10
-1.526169
 20
-1.173252
 40
0.003
 41
0.003
  0
LWPOLYLINE
  5
9F
100
AcDbEntity
  8
0
 62
     9
100
AcDbPolyline
 90
        2
 70
     0
 39
0.003
 10
-1.564551
 20
-1.153827
 40
0.003
 41
0.003
 10
-0.923709
 20
-0.770236
 40
0.003
 41
0.003
  0
LWPOLYLINE
  5
A0
100
AcDbEntity
  8
0
 62
     9
100
AcDbPolyline
 90
        2
 70
     0
 39
0.003
 10
-0.923709
 20
-0.770236
 40
0.003
 41
0.003
 10
-0.964843
 20
-0.752622
 40
0.003
 41
0.003
  0
LWPOLYLINE
  5
A1
100
AcDbEntity
  8
0
 62
     9
100
AcDbPolyline
 90
        2
 70
     0
 39
0.003
 10
-0.964843
 20
-0.752622
 40
0.003
 41
0.003
 10
-1.605685
 20
-1.136213
 40
0.003
 41
0.003
  0
LWPOLYLINE
  5
A2
100
AcDbEntity
  8
0
 62
     9
100
AcDbPolyline
 90
        2
 70
     0
 39
0.003
 10
-1.605685
 20
-1.136213
 40
0.003
 41
0.003
 10
-1.564551
 20
-1.153827
 40
0.003
 41
0.003
  0
LWPOLYLINE
  5
A3
100
AcDbEntity
  8
0
 62
     9
100
AcDbPolyline
 90
        2
 70
     0
 39
0.003
 10
-1.605685
 20
-1.136213
 40
0.003
 41
0.003
 10
-0.964843
 20
-0.752622
 40
0.003
 41
0.003
  0
LWPOLYLINE
  5
A4
100
AcDbEntity
  8
0
 62
     9
100
AcDbPolyline
 90
        2
 70
     0
 39
0.003
 10
-0.964843
 20
-0.752622
 40
0.003
 41
0.003
 10
-1.008823
 20
-0.736984
 40
0.003
 41
0.003
  0
LWPOLYLINE
  5
A5
100
AcDbEntity
  8
0
 62
     9
100
AcDbPolyline
 90
        2
 70
     0
 39
0.003
 10
-1.008823
 20
-0.736984
 40
0.003
 41
0.003
 10
-1.649665
 20
-1.120575
 40
0.003
 41
0.003
  0
LWPOLYLINE
  5
A6
100
AcDbEntity
  8
0
 62
     9
100
AcDbPolyline
 90
        2
 70
     0
 39
0.003
 10
-1.649665
 20
-1.120575
 40
0.003
 41
0.003
 10
-1.605685
 20
-1.136213
 40
0.003
 41
0.003
  0
LWPOLYLINE
  5
A7
100
AcDbEntity
  8
0
 62
     9
100
AcDbPolyline
 90
        2
 70
     0
 39
0.003
 10
-1.649665
 20
-1.120575
 40
0.003
 41
0.003
 10
-1.008823
 20
-0.736984
 40
0.003
 41
0.003
  0
LWPOLYLINE
  5
A8
100
AcDbEntity
  8
0
 62
     9
100
AcDbPolyline
 90
        2
 70
     0
 39
0.003
 10
-1.008823
 20
-0.736984
 40
0.003
 41
0.003
 10
-1.055748
 20
-0.723476
 40
0.003
 41
0.003
  0
LWPOLYLINE
  5
A9
100
AcDbEntity
  8
0
 62
     9
100
AcDbPolyline
 90
        2
 70
     0
 39
0.003
 10
-1.055748
 20
-0.723476
 40
0.003
 41
0.003
 10
-1.696591
 20
-1.107067
 40
0.003
 41
0.003
  0
LWPOLYLINE
  5
AA
100
AcDbEntity
  8
0
 62
     9
100
AcDbPolyline
 90
        2
 70
     0
 39
0.003
 10
-1.696591
 20
-1.107067
 40
0.003
 41
0.003
 10
-1.649665
 20
-1.120575
 40
0.003
 41
0.003
  0
LWPOLYLINE
  5
AB
100
AcDbEntity
  8
0
 62
     9
100
AcDbPolyline
 90
        2
 70
     0
 39
0.003
 10
-1.696591
 20
-1.107067
 40
0.003
 41
0.003
 10
-1.055748
 20
-0.723476
 40
0.003
 41
0.003
  0
LWPOLYLINE
  5
AC
100
AcDbEntity
  8
0
 62
     9
100
AcDbPolyline
 90
        2
 70
     0
 39
0.003
 10
-1.055748
 20
-0.723476
 40
0.003
 41
0.003
 10
-1.10572
 20
-0.712264
 40
0.003
 41
0.003
  0
LWPOLYLINE
  5
AD
100
AcDbEntity
  8
0
 62
     9
100
AcDbPolyline
 90
        2
 70
     0
 39
0.003
 10
-1.10572
 20
-0.712264
 40
0.003
 41
0.003
 10
-1.746563
 20
-1.095854
 40
0.003
 41
0.003
  0
LWPOLYLINE
  5
AE
100
AcDbEntity
  8
0
 62
     9
100
AcDbPolyline
 90
        2
 70
     0
 39
0.003
 10
-1.746563
 20
-1.095854
 40
0.003
 41
0.003
 10
-1.696591
 20
-1.107067
 40
0.003
 41
0.003
  0
LWPOLYLINE
  5
AF
100
AcDbEntity
  8
0
 62
     9
100
AcDbPolyline
 90
        2
 70
     0
 39
0.003
 10
-1.746563
 20
-1.095854
 40
0.003
 41
0.003
 10
-1.10572
 20
-0.712264
 40
0.003
 41
0.003
  0
LWPOLYLINE
  5
B0
100
AcDbEntity
  8
0
 62
     9
100
AcDbPolyline
 90
        2
 70
     0
 39
0.003
 10
-1.10572
 20
-0.712264
 40
0.003
 41
0.003
 10
-1.158827
 20
-0.7035
 40
0.003
 41
0.003
  0
LWPOLYLINE
  5
B1
100
AcDbEntity
  8
0
 62
     9
100
AcDbPolyline
 90
        2
 70
     0
 39
0.003
 10
-1.158827
 20
-0.7035
 40
0.003
 41
0.003
 10
-1.799669
 20
-1.087091
 40
0.003
 41
0.003
  0
LWPOLYLINE
  5
B2
100
AcDbEntity
  8
0
 62
     9
100
AcDbPolyline
 90
        2
 70
     0
 39
0.003
 10
-1.799669
 20
-1.087091
 40
0.003
 41
0.003
 10
-1.746563
 20
-1.095854
 40
0.003
 41
0.003
  0
LWPOLYLINE
  5
B3
100
AcDbEntity
  8
0
 62
     9
100
AcDbPolyline
 90
        2
 70
     0
 39
0.003
 10
-1.799669
 20
-1.087091
 40
0.003
 41
0.003
 10
-1.158827
 20
-0.7035
 40
0.003
 41
0.003
  0
LWPOLYLINE
  5
B4
100
AcDbEntity
  8
0
 62
     9
100
AcDbPolyline
 90
        2
 70
     0
 39
0.003
 10
-1.158827
 20
-0.7035
 40
0.003
 41
0.003
 10
-1.215169
 20
-0.697354
 40
0.003
 41
0.003
  0
LWPOLYLINE
  5
B5
100
AcDbEntity
  8
0
 62
     9
100
AcDbPolyline
 90
        2
 70
     0
 39
0.003
 10
-1.215169
 20
-0.697354
 40
0.003
 41
0.003
 10
-1.856012
 20
-1.080945
 40
0.003
 41
0.003
  0
LWPOLYLINE
  5
B6
100
AcDbEntity
  8
0
 62
     9
100
AcDbPolyline
 90
        2
 70
     0
 39
0.003
 10
-1.856012
 20
-1.080945
 40
0.003
 41
0.003
 10
-1.799669
 20
-1.087091
 40
0.003
 41
0.003
  0
LWPOLYLINE
  5
B7
100
AcDbEntity
  8
0
 62
     0
100
AcDbPolyline
 90
        2
 70
     0
 39
0.003
 10
-1.183768
 20
-1.780079
 40
0.003
 41
0.003
 10
-0.542925
 20
-1.396488
 40
0.003
 41
0.003
  0
LWPOLYLINE
  5
B8
100
AcDbEntity
  8
0
 62
     0
100
AcDbPolyline
 90
        2
 70
     0
 39
0.003
 10
-0.542925
 20
-1.396488
 40
0.003
 41
0.003
 10
-0.543343
 20
-1.38374
 40
0.003
 41
0.003
  0
LWPOLYLINE
  5
B9
100
AcDbEntity
  8
0
 62
     0
100
AcDbPolyline
 90
        2
 70
     0
 39
0.003
 10
-0.543343
 20
-1.38374
 40
0.003
 41
0.003
 10
-0.54413
 20
-1.368807
 40
0.003
 41
0.003
  0
LWPOLYLINE
  5
BA
100
AcDbEntity
  8
0
 62
     0
100
AcDbPolyline
 90
        2
 70
     0
 39
0.003
 10
-0.54413
 20
-1.368807
 40
0.003
 41
0.003
 10
-0.545398
 20
-1.351846
 40
0.003
 41
0.003
  0
LWPOLYLINE
  5
BB
100
AcDbEntity
  8
0
 62
     0
100
AcDbPolyline
 90
        2
 70
     0
 39
0.003
 10
-0.545398
 20
-1.351846
 40
0.003
 41
0.003
 10
-0.54722
 20
-1.333024
 40
0.003
 41
0.003
  0
LWPOLYLINE
  5
BC
100
AcDbEntity
  8
0
 62
     0
100
AcDbPolyline
 90
        2
 70
     0
 39
0.003
 10
-0.54722
 20
-1.333024
 40
0.003
 41
0.003
 10
-0.54972
 20
-1.312488
 40
0.003
 41
0.003
  0
LWPOLYLINE
  5
BD
100
AcDbEntity
  8
0
 62
     0
100
AcDbPolyline
 90
        2
 70
     0
 39
0.003
 10
-0.54972
 20
-1.312488
 40
0.003
 41
0.003
 10
-0.552972
 20
-1.290409
 40
0.003
 41
0.003
  0
LWPOLYLINE
  5
BE
100
AcDbEntity
  8
0
 62
     0
100
AcDbPolyline
 90
        2
 70
     0
 39
0.003
 10
-0.552972
 20
-1.290409
 40
0.003
 41
0.003
 10
-0.557083
 20
-1.266941
 40
0.003
 41
0.003
  0
LWPOLYLINE
  5
BF
100
AcDbEntity
  8
0
 62
     0
100
AcDbPolyline
 90
        2
 70
     0
 39
0.003
 10
-0.557083
 20
-1.266941
 40
0.003
 41
0.003
 10
-0.56213
 20
-1.242248
 40
0.003
 41
0.003
  0
LWPOLYLINE
  5
C0
100
AcDbEntity
  8
0
 62
     0
100
AcDbPolyline
 90
        2
 70
     0
 39
0.003
 10
-0.56213
 20
-1.242248
 40
0.003
 41
0.003
 10
-0.568236
 20
-1.21648
 40
0.003
 41
0.003
  0
LWPOLYLINE
  5
C1
100
AcDbEntity
  8
0
 62
     0
100
AcDbPolyline
 90
        2
 70
     0
 39
0.003
 10
-0.568236
 20
-1.21648
 40
0.003
 41
0.003
 10
-0.575472
 20
-1.189807
 40
0.003
 41
0.003
  0
LWPOLYLINE
  5
C2
100
AcDbEntity
  8
0
 62
     0
100
AcDbPolyline
 90
        2
 70
     0
 39
0.003
 10
-0.575472
 20
-1.189807
 40
0.003
 41
0.003
 10
-0.583949
 20
-1.162386
 40
0.003
 41
0.003
  0
LWPOLYLINE
  5
C3
100
AcDbEntity
  8
0
 62
     0
100
AcDbPolyline
 90
        2
 70
     0
 39
0.003
 10
-0.583949
 20
-1.162386
 40
0.003
 41
0.003
 10
-0.593744
 20
-1.134386
 40
0.003
 41
0.003
  0
LWPOLYLINE
  5
C4
100
AcDbEntity
  8
0
 62
     0
100
AcDbPolyline
 90
        2
 70
     0
 39
0.003
 10
-0.593744
 20
-1.134386
 40
0.003
 41
0.003
 10
-0.604976
 20
-1.105949
 40
0.003
 41
0.003
  0
LWPOLYLINE
  5
C5
100
AcDbEntity
  8
0
 62
     0
100
AcDbPolyline
 90
        2
 70
     0
 39
0.003
 10
-0.604976
 20
-1.105949
 40
0.003
 41
0.003
 10
-0.617717
 20
-1.077248
 40
0.003
 41
0.003
  0
LWPOLYLINE
  5
C6
100
AcDbEntity
  8
0
 62
     0
100
AcDbPolyline
 90
        2
 70
     0
 39
0.003
 10
-0.617717
 20
-1.077248
 40
0.003
 41
0.003
 10
-0.632075
 20
-1.048441
 40
0.003
 41
0.003
  0
LWPOLYLINE
  5
C7
100
AcDbEntity
  8
0
 62
     0
100
AcDbPolyline
 90
        2
 70
     0
 39
0.003
 10
-0.632075
 20
-1.048441
 40
0.003
 41
0.003
 10
-0.648134
 20
-1.019693
 40
0.003
 41
0.003
  0
LWPOLYLINE
  5
C8
100
AcDbEntity
  8
0
 62
     0
100
AcDbPolyline
 90
        2
 70
     0
 39
0.003
 10
-0.648134
 20
-1.019693
 40
0.003
 41
0.003
 10
-0.666012
 20
-0.991146
 40
0.003
 41
0.003
  0
LWPOLYLINE
  5
C9
100
AcDbEntity
  8
0
 62
     0
100
AcDbPolyline
 90
        2
 70
     0
 39
0.003
 10
-0.666012
 20
-0.991146
 40
0.003
 41
0.003
 10
-0.68578
 20
-0.962976
 40
0.003
 41
0.003
  0
LWPOLYLINE
  5
CA
100
AcDbEntity
  8
0
 62
     0
100
AcDbPolyline
 90
        2
 70
     0
 39
0.003
 10
-0.68578
 20
-0.962976
 40
0.003
 41
0.003
 10
-0.707547
 20
-0.935335
 40
0.003
 41
0.003
  0
LWPOLYLINE
  5
CB
100
AcDbEntity
  8
0
 62
     0
100
AcDbPolyline
 90
        2
 70
     0
 39
0.003
 10
-0.707547
 20
-0.935335
 40
0.003
 41
0.003
 10
-0.731398
 20
-0.908394
 40
0.003
 41
0.003
  0
LWPOLYLINE
  5
CC
100
AcDbEntity
  8
0
 62
     0
100
AcDbPolyline
 90
        2
 70
     0
 39
0.003
 10
-0.731398
 20
-0.908394
 40
0.003
 41
0.003
 10
-0.757437
 20
-0.882299
 40
0.003
 41
0.003
  0
LWPOLYLINE
  5
CD
100
AcDbEntity
  8
0
 62
     0
100
AcDbPolyline
 90
        2
 70
     0
 39
0.003
 10
-0.757437
 20
-0.882299
 40
0.003
 41
0.003
 10
-0.785752
 20
-0.857224
 40
0.003
 41
0.003
  0
LWPOLYLINE
  5
CE
100
AcDbEntity
  8
0
 62
     0
100
AcDbPolyline
 90
        2
 70
     0
 39
0.003
 10
-0.785752
 20
-0.857224
 40
0.003
 41
0.003
 10
-0.816445
 20
-0.833315
 40
0.003
 41
0.003
  0
LWPOLYLINE
  5
CF
100
AcDbEntity
  8
0
 62
     0
100
AcDbPolyline
 90
        2
 70
     0
 39
0.003
 10
-0.816445
 20
-0.833315
 40
0.003
 41
0.003
 10
-0.849598
 20
-0.810748
 40
0.003
 41
0.003
  0
LWPOLYLINE
  5
D0
100
AcDbEntity
  8
0
 62
     0
100
AcDbPolyline
 90
        2
 70
     0
 39
0.003
 10
-0.849598
 20
-0.810748
 40
0.003
 41
0.003
 10
-0.885327
 20
-0.789661
 40
0.003
 41
0.003
  0
LWPOLYLINE
  5
D1
100
AcDbEntity
  8
0
 62
     0
100
AcDbPolyline
 90
        2
 70
     0
 39
0.003
 10
-0.885327
 20
-0.789661
 40
0.003
 41
0.003
 10
-0.923709
 20
-0.770236
 40
0.003
 41
0.003
  0
LWPOLYLINE
  5
D2
100
AcDbEntity
  8
0
 62
     0
100
AcDbPolyline
 90
        2
 70
     0
 39
0.003
 10
-0.923709
 20
-0.770236
 40
0.003
 41
0.003
 10
-0.964843
 20
-0.752622
 40
0.003
 41
0.003
  0
LWPOLYLINE
  5
D3
100
AcDbEntity
  8
0
 62
     0
100
AcDbPolyline
 90
        2
 70
     0
 39
0.003
 10
-0.964843
 20
-0.752622
 40
0.003
 41
0.003
 10
-1.008823
 20
-0.736984
 40
0.003
 41
0.003
  0
LWPOLYLINE
  5
D4
100
AcDbEntity
  8
0
 62
     0
100
AcDbPolyline
 90
        2
 70
     0
 39
0.003
 10
-1.008823
 20
-0.736984
 40
0.003
 41
0.003
 10
-1.055748
 20
-0.723476
 40
0.003
 41
0.003
  0
LWPOLYLINE
  5
D5
100
AcDbEntity
  8
0
 62
     0
100
AcDbPolyline
 90
        2
 70
     0
 39
0.003
 10
-1.055748
 20
-0.723476
 40
0.003
 41
0.003
 10
-1.10572
 20
-0.712264
 40
0.003
 41
0.003
  0
LWPOLYLINE
  5
D6
100
AcDbEntity
  8
0
 62
     0
100
AcDbPolyline
 90
        2
 70
     0
 39
0.003
 10
-1.10572
 20
-0.712264
 40
0.003
 41
0.003
 10
-1.158827
 20
-0.7035
 40
0.003
 41
0.003
  0
LWPOLYLINE
  5
D7
100
AcDbEntity
  8
0
 62
     0
100
AcDbPolyline
 90
        2
 70
     0
 39
0.003
 10
-1.158827
 20
-0.7035
 40
0.003
 41
0.003
 10
-1.215169
 20
-0.697354
 40
0.003
 41
0.003
  0
LWPOLYLINE
  5
D8
100
AcDbEntity
  8
0
 62
     0
100
AcDbPolyline
 90
        2
 70
     0
 39
0.003
 10
-1.215169
 20
-0.697354
 40
0.003
 41
0.003
 10
-1.856012
 20
-1.080945
 40
0.003
 41
0.003
  0
LWPOLYLINE
  5
D9
100
AcDbEntity
  8
0
 62
     0
100
AcDbPolyline
 90
        2
 70
     0
 39
0.003
 10
-1.856012
 20
-1.080945
 40
0.003
 41
0.003
 10
-1.799669
 20
-1.087091
 40
0.003
 41
0.003
  0
LWPOLYLINE
  5
DA
100
AcDbEntity
  8
0
 62
     0
100
AcDbPolyline
 90
        2
 70
     0
 39
0.003
 10
-1.799669
 20
-1.087091
 40
0.003
 41
0.003
 10
-1.746563
 20
-1.095854
 40
0.003
 41
0.003
  0
LWPOLYLINE
  5
DB
100
AcDbEntity
  8
0
 62
     0
100
AcDbPolyline
 90
        2
 70
     0
 39
0.003
 10
-1.746563
 20
-1.095854
 40
0.003
 41
0.003
 10
-1.696591
 20
-1.107067
 40
0.003
 41
0.003
  0
LWPOLYLINE
  5
DC
100
AcDbEntity
  8
0
 62
     0
100
AcDbPolyline
 90
        2
 70
     0
 39
0.003
 10
-1.696591
 20
-1.107067
 40
0.003
 41
0.003
 10
-1.649665
 20
-1.120575
 40
0.003
 41
0.003
  0
LWPOLYLINE
  5
DD
100
AcDbEntity
  8
0
 62
     0
100
AcDbPolyline
 90
        2
 70
     0
 39
0.003
 10
-1.649665
 20
-1.120575
 40
0.003
 41
0.003
 10
-1.605685
 20
-1.136213
 40
0.003
 41
0.003
  0
LWPOLYLINE
  5
DE
100
AcDbEntity
  8
0
 62
     0
100
AcDbPolyline
 90
        2
 70
     0
 39
0.003
 10
-1.605685
 20
-1.136213
 40
0.003
 41
0.003
 10
-1.564551
 20
-1.153827
 40
0.003
 41
0.003
  0
LWPOLYLINE
  5
DF
100
AcDbEntity
  8
0
 62
     0
100
AcDbPolyline
 90
        2
 70
     0
 39
0.003
 10
-1.564551
 20
-1.153827
 40
0.003
 41
0.003
 10
-1.526169
 20
-1.173252
 40
0.003
 41
0.003
  0
LWPOLYLINE
  5
E0
100
AcDbEntity
  8
0
 62
     0
100
AcDbPolyline
 90
        2
 70
     0
 39
0.003
 10
-1.526169
 20
-1.173252
 40
0.003
 41
0.003
 10
-1.490441
 20
-1.194339
 40
0.003
 41
0.003
  0
LWPOLYLINE
  5
E1
100
AcDbEntity
  8
0
 62
     0
100
AcDbPolyline
 90
        2
 70
     0
 39
0.003
 10
-1.490441
 20
-1.194339
 40
0.003
 41
0.003
 10
-1.457287
 20
-1.216906
 40
0.003
 41
0.003
  0
LWPOLYLINE
  5
E2
100
AcDbEntity
  8
0
 62
     0
100
AcDbPolyline
 90
        2
 70
     0
 39
0.003
 10
-1.457287
 20
-1.216906
 40
0.003
 41
0.003
 10
-1.426594
 20
-1.240815
 40
0.003
 41
0.003
  0
LWPOLYLINE
  5
E3
100
AcDbEntity
  8
0
 62
     0
100
AcDbPolyline
 90
        2
 70
     0
 39
0.003
 10
-1.426594
 20
-1.240815
 40
0.003
 41
0.003
 10
-1.39828
 20
-1.26589
 40
0.003
 41
0.003
  0
LWPOLYLINE
  5
E4
100
AcDbEntity
  8
0
 62
     0
100
AcDbPolyline
 90
        2
 70
     0
 39
0.003
 10
-1.39828
 20
-1.26589
 40
0.003
 41
0.003
 10
-1.37224
 20
-1.291984
 40
0.003
 41
0.003
  0
LWPOLYLINE
  5
E5
100
AcDbEntity
  8
0
 62
     0
100
AcDbPolyline
 90
        2
 70
     0
 39
0.003
 10
-1.37224
 20
-1.291984
 40
0.003
 41
0.003
 10
-1.34839
 20
-1.318925
 40
0.003
 41
0.003
  0
LWPOLYLINE
  5
E6
100
AcDbEntity
  8
0
 62
     0
100
AcDbPolyline
 90
        2
 70
     0
 39
0.003
 10
-1.34839
 20
-1.318925
 40
0.003
 41
0.003
 10
-1.326622
 20
-1.346567
 40
0.003
 41
0.003
  0
LWPOLYLINE
  5
E7
100
AcDbEntity
  8
0
 62
     0
100
AcDbPolyline
 90
        2
 70
     0
 39
0.003
 10
-1.326622
 20
-1.346567
 40
0.003
 41
0.003
 10
-1.306854
 20
-1.374736
 40
0.003
 41
0.003
  0
LWPOLYLINE
  5
E8
100
AcDbEntity
  8
0
 62
     0
100
AcDbPolyline
 90
        2
 70
     0
 39
0.003
 10
-1.306854
 20
-1.374736
 40
0.003
 41
0.003
 10
-1.288976
 20
-1.403283
 40
0.003
 41
0.003
  0
LWPOLYLINE
  5
E9
100
AcDbEntity
  8
0
 62
     0
100
AcDbPolyline
 90
        2
 70
     0
 39
0.003
 10
-1.288976
 20
-1.403283
 40
0.003
 41
0.003
 10
-1.272917
 20
-1.432031
 40
0.003
 41
0.003
  0
LWPOLYLINE
  5
EA
100
AcDbEntity
  8
0
 62
     0
100
AcDbPolyline
 90
        2
 70
     0
 39
0.003
 10
-1.272917
 20
-1.432031
 40
0.003
 41
0.003
 10
-1.258559
 20
-1.460839
 40
0.003
 41
0.003
  0
LWPOLYLINE
  5
EB
100
AcDbEntity
  8
0
 62
     0
100
AcDbPolyline
 90
        2
 70
     0
 39
0.003
 10
-1.258559
 20
-1.460839
 40
0.003
 41
0.003
 10
-1.245819
 20
-1.489539
 40
0.003
 41
0.003
  0
LWPOLYLINE
  5
EC
100
AcDbEntity
  8
0
 62
     0
100
AcDbPolyline
 90
        2
 70
     0
 39
0.003
 10
-1.245819
 20
-1.489539
 40
0.003
 41
0.003
 10
-1.234587
 20
-1.517976
 40
0.003
 41
0.003
  0
LWPOLYLINE
  5
ED
100
AcDbEntity
  8
0
 62
     0
100
AcDbPolyline
 90
        2
 70
     0
 39
0.003
 10
-1.234587
 20
-1.517976
 40
0.003
 41
0.003
 10
-1.224791
 20
-1.545976
 40
0.003
 41
0.003
  0
LWPOLYLINE
  5
EE
100
AcDbEntity
  8
0
 62
     0
100
AcDbPolyline
 90
        2
 70
     0
 39
0.003
 10
-1.224791
 20
-1.545976
 40
0.003
 41
0.003
 10
-1.216315
 20
-1.573398
 40
0.003
 41
0.003
  0
LWPOLYLINE
  5
EF
100
AcDbEntity
  8
0
 62
     0
100
AcDbPolyline
 90
        2
 70
     0
 39
0.003
 10
-1.216315
 20
-1.573398
 40
0.003
 41
0.003
 10
-1.209079
 20
-1.600071
 40
0.003
 41
0.003
  0
LWPOLYLINE
  5
F0
100
AcDbEntity
  8
0
 62
     0
100
AcDbPolyline
 90
        2
 70
     0
 39
0.003
 10
-1.209079
 20
-1.600071
 40
0.003
 41
0.003
 10
-1.202972
 20
-1.625839
 40
0.003
 41
0.003
  0
LWPOLYLINE
  5
F1
100
AcDbEntity
  8
0
 62
     0
100
AcDbPolyline
 90
        2
 70
     0
 39
0.003
 10
-1.202972
 20
-1.625839
 40
0.003
 41
0.003
 10
-1.197925
 20
-1.650531
 40
0.003
 41
0.003
  0
LWPOLYLINE
  5
F2
100
AcDbEntity
  8
0
 62
     0
100
AcDbPolyline
 90
        2
 70
     0
 39
0.003
 10
-1.197925
 20
-1.650531
 40
0.003
 41
0.003
 10
-1.193815
 20
-1.674
 40
0.003
 41
0.003
  0
LWPOLYLINE
  5
F3
100
AcDbEntity
  8
0
 62
     0
100
AcDbPolyline
 90
        2
 70
     0
 39
0.003
 10
-1.193815
 20
-1.674
 40
0.003
 41
0.003
 10
-1.190563
 20
-1.696079
 40
0.003
 41
0.003
  0
LWPOLYLINE
  5
F4
100
AcDbEntity
  8
0
 62
     0
100
AcDbPolyline
 90
        2
 70
     0
 39
0.003
 10
-1.190563
 20
-1.696079
 40
0.003
 41
0.003
 10
-1.188063
 20
-1.716614
 40
0.003
 41
0.003
  0
LWPOLYLINE
  5
F5
100
AcDbEntity
  8
0
 62
     0
100
AcDbPolyline
 90
        2
 70
     0
 39
0.003
 10
-1.188063
 20
-1.716614
 40
0.003
 41
0.003
 10
-1.18624
 20
-1.735437
 40
0.003
 41
0.003
  0
LWPOLYLINE
  5
F6
100
AcDbEntity
  8
0
 62
     0
100
AcDbPolyline
 90
        2
 70
     0
 39
0.003
 10
-1.18624
 20
-1.735437
 40
0.003
 41
0.003
 10
-1.184972
 20
-1.752398
 40
0.003
 41
0.003
  0
LWPOLYLINE
  5
F7
100
AcDbEntity
  8
0
 62
     0
100
AcDbPolyline
 90
        2
 70
     0
 39
0.003
 10
-1.184972
 20
-1.752398
 40
0.003
 41
0.003
 10
-1.184185
 20
-1.767331
 40
0.003
 41
0.003
  0
LWPOLYLINE
  5
F8
100
AcDbEntity
  8
0
 62
     0
100
AcDbPolyline
 90
        2
 70
     0
 39
0.003
 10
-1.184185
 20
-1.767331
 40
0.003
 41
0.003
 10
-1.183768
 20
-1.780079
 40
0.003
 41
0.003
  0
LWPOLYLINE
  5
F9
100
AcDbEntity
  8
0
 62
   254
100
AcDbPolyline
 90
        2
 70
     0
 39
0.003
 10
-1.856012
 20
-1.080945
 40
0.003
 41
0.003
 10
-1.215169
 20
-0.697354
 40
0.003
 41
0.003
  0
LWPOLYLINE
  5
FA
100
AcDbEntity
  8
0
 62
   254
100
AcDbPolyline
 90
        2
 70
     0
 39
0.003
 10
-1.215169
 20
-0.697354
 40
0.003
 41
0.003
 10
-1.225925
 20
-0.541394
 40
0.003
 41
0.003
  0
LWPOLYLINE
  5
FB
100
AcDbEntity
  8
0
 62
   254
100
AcDbPolyline
 90
        2
 70
     0
 39
0.003
 10
-1.225925
 20
-0.541394
 40
0.003
 41
0.003
 10
-1.866768
 20
-0.924984
 40
0.003
 41
0.003
  0
LWPOLYLINE
  5
FC
100
AcDbEntity
  8
0
 62
   254
100
AcDbPolyline
 90
        2
 70
     0
 39
0.003
 10
-1.866768
 20
-0.924984
 40
0.003
 41
0.003
 10
-1.856012
 20
-1.080945
 40
0.003
 41
0.003
  0
LWPOLYLINE
  5
FD
100
AcDbEntity
  8
0
 62
     0
100
AcDbPolyline
 90
        2
 70
     0
 39
0.003
 10
-1.856012
 20
-1.080945
 40
0.003
 41
0.003
 10
-1.215169
 20
-0.697354
 40
0.003
 41
0.003
  0
LWPOLYLINE
  5
FE
100
AcDbEntity
  8
0
 62
     0
100
AcDbPolyline
 90
        2
 70
     0
 39
0.003
 10
-1.215169
 20
-0.697354
 40
0.003
 41
0.003
 10
-1.225925
 20
-0.541394
 40
0.003
 41
0.003
  0
LWPOLYLINE
  5
FF
100
AcDbEntity
  8
0
 62
     0
100
AcDbPolyline
 90
        2
 70
     0
 39
0.003
 10
-1.225925
 20
-0.541394
 40
0.003
 41
0.003
 10
-1.866768
 20
-0.924984
 40
0.003
 41
0.003
  0
LWPOLYLINE
  5
100
100
AcDbEntity
  8
0
 62
     0
100
AcDbPolyline
 90
        2
 70
     0
 39
0.003
 10
-1.866768
 20
-0.924984
 40
0.003
 41
0.003
 10
-1.856012
 20
-1.080945
 40
0.003
 41
0.003
  0
LWPOLYLINE
  5
101
100
AcDbEntity
  8
0
 62
   253
100
AcDbPolyline
 90
        2
 70
     0
 39
0.003
 10
-1.866768
 20
-0.924984
 40
0.003
 41
0.003
 10
-1.225925
 20
-0.541394
 40
0.003
 41
0.003
  0
LWPOLYLINE
  5
102
100
AcDbEntity
  8
0
 62
   253
100
AcDbPolyline
 90
        2
 70
     0
 39
0.003
 10
-1.225925
 20
-0.541394
 40
0.003
 41
0.003
 10
-1.42222
 20
-0.541394
 40
0.003
 41
0.003
  0
LWPOLYLINE
  5
103
100
AcDbEntity
  8
0
 62
   253
100
AcDbPolyline
 90
        2
 70
     0
 39
0.003
 10
-1.42222
 20
-0.541394
 40
0.003
 41
0.003
 10
-2.063063
 20
-0.924984
 40
0.003
 41
0.003
  0
LWPOLYLINE
  5
104
100
AcDbEntity
  8
0
 62
   253
100
AcDbPolyline
 90
        2
 70
     0
 39
0.003
 10
-2.063063
 20
-0.924984
 40
0.003
 41
0.003
 10
-1.866768
 20
-0.924984
 40
0.003
 41
0.003
  0
LWPOLYLINE
  5
105
100
AcDbEntity
  8
0
 62
     0
100
AcDbPolyline
 90
        2
 70
     0
 39
0.003
 10
-1.866768
 20
-0.924984
 40
0.003
 41
0.003
 10
-1.225925
 20
-0.541394
 40
0.003
 41
0.003
  0
LWPOLYLINE
  5
106
100
AcDbEntity
  8
0
 62
     0
100
AcDbPolyline
 90
        2
 70
     0
 39
0.003
 10
-1.225925
 20
-0.541394
 40
0.003
 41
0.003
 10
-1.42222
 20
-0.541394
 40
0.003
 41
0.003
  0
LWPOLYLINE
  5
107
100
AcDbEntity
  8
0
 62
     0
100
AcDbPolyline
 90
        2
 70
     0
 39
0.003
 10
-1.42222
 20
-0.541394
 40
0.003
 41
0.003
 10
-2.063063
 20
-0.924984
 40
0.003
 41
0.003
  0
LWPOLYLINE
  5
108
100
AcDbEntity
  8
0
 62
     0
100
AcDbPolyline
 90
        2
 70
     0
 39
0.003
 10
-2.063063
 20
-0.924984
 40
0.003
 41
0.003
 10
-1.866768
 20
-0.924984
 40
0.003
 41
0.003
  0
LWPOLYLINE
  5
109
100
AcDbEntity
  8
0
 62
   254
100
AcDbPolyline
 90
        2
 70
     0
 39
0.003
 10
-1.183768
 20
-1.780079
 40
0.003
 41
0.003
 10
-0.542925
 20
-1.396488
 40
0.003
 41
0.003
  0
LWPOLYLINE
  5
10A
100
AcDbEntity
  8
0
 62
   254
100
AcDbPolyline
 90
        2
 70
     0
 39
0.003
 10
-0.542925
 20
-1.396488
 40
0.003
 41
0.003
 10
-0.543343
 20
-1.38374
 40
0.003
 41
0.003
  0
LWPOLYLINE
  5
10B
100
AcDbEntity
  8
0
 62
   254
100
AcDbPolyline
 90
        2
 70
     0
 39
0.003
 10
-0.543343
 20
-1.38374
 40
0.003
 41
0.003
 10
-1.184185
 20
-1.767331
 40
0.003
 41
0.003
  0
LWPOLYLINE
  5
10C
100
AcDbEntity
  8
0
 62
   254
100
AcDbPolyline
 90
        2
 70
     0
 39
0.003
 10
-1.184185
 20
-1.767331
 40
0.003
 41
0.003
 10
-1.183768
 20
-1.780079
 40
0.003
 41
0.003
  0
LWPOLYLINE
  5
10D
100
AcDbEntity
  8
0
 62
   254
100
AcDbPolyline
 90
        2
 70
     0
 39
0.003
 10
-1.184185
 20
-1.767331
 40
0.003
 41
0.003
 10
-0.543343
 20
-1.38374
 40
0.003
 41
0.003
  0
LWPOLYLINE
  5
10E
100
AcDbEntity
  8
0
 62
   254
100
AcDbPolyline
 90
        2
 70
     0
 39
0.003
 10
-0.543343
 20
-1.38374
 40
0.003
 41
0.003
 10
-0.54413
 20
-1.368807
 40
0.003
 41
0.003
  0
LWPOLYLINE
  5
10F
100
AcDbEntity
  8
0
 62
   254
100
AcDbPolyline
 90
        2
 70
     0
 39
0.003
 10
-0.54413
 20
-1.368807
 40
0.003
 41
0.003
 10
-1.184972
 20
-1.752398
 40
0.003
 41
0.003
  0
LWPOLYLINE
  5
110
100
AcDbEntity
  8
0
 62
   254
100
AcDbPolyline
 90
        2
 70
     0
 39
0.003
 10
-1.184972
 20
-1.752398
 40
0.003
 41
0.003
 10
-1.184185
 20
-1.767331
 40
0.003
 41
0.003
  0
LWPOLYLINE
  5
111
100
AcDbEntity
  8
0
 62
   254
100
AcDbPolyline
 90
        2
 70
     0
 39
0.003
 10
-1.184972
 20
-1.752398
 40
0.003
 41
0.003
 10
-0.54413
 20
-1.368807
 40
0.003
 41
0.003
  0
LWPOLYLINE
  5
112
100
AcDbEntity
  8
0
 62
   254
100
AcDbPolyline
 90
        2
 70
     0
 39
0.003
 10
-0.54413
 20
-1.368807
 40
0.003
 41
0.003
 10
-0.545398
 20
-1.351846
 40
0.003
 41
0.003
  0
LWPOLYLINE
  5
113
100
AcDbEntity
  8
0
 62
   254
100
AcDbPolyline
 90
        2
 70
     0
 39
0.003
 10
-0.545398
 20
-1.351846
 40
0.003
 41
0.003
 10
-1.18624
 20
-1.735437
 40
0.003
 41
0.003
  0
LWPOLYLINE
  5
114
100
AcDbEntity
  8
0
 62
   254
100
AcDbPolyline
 90
        2
 70
     0
 39
0.003
 10
-1.18624
 20
-1.735437
 40
0.003
 41
0.003
 10
-1.184972
 20
-1.752398
 40
0.003
 41
0.003
  0
LWPOLYLINE
  5
115
100
AcDbEntity
  8
0
 62
   254
100
AcDbPolyline
 90
        2
 70
     0
 39
0.003
 10
-1.18624
 20
-1.735437
 40
0.003
 41
0.003
 10
-0.545398
 20
-1.351846
 40
0.003
 41
0.003
  0
LWPOLYLINE
  5
116
100
AcDbEntity
  8
0
 62
   254
100
AcDbPolyline
 90
        2
 70
     0
 39
0.003
 10
-0.545398
 20
-1.351846
 40
0.003
 41
0.003
 10
-0.54722
 20
-1.333024
 40
0.003
 41
0.003
  0
LWPOLYLINE
  5
117
100
AcDbEntity
  8
0
 62
   254
100
AcDbPolyline
 90
        2
 70
     0
 39
0.003
 10
-0.54722
 20
-1.333024
 40
0.003
 41
0.003
 10
-1.188063
 20
-1.716614
 40
0.003
 41
0.003
  0
LWPOLYLINE
  5
118
100
AcDbEntity
  8
0
 62
   254
100
AcDbPolyline
 90
        2
 70
     0
 39
0.003
 10
-1.188063
 20
-1.716614
 40
0.003
 41
0.003
 10
-1.18624
 20
-1.735437
 40
0.003
 41
0.003
  0
LWPOLYLINE
  5
119
100
AcDbEntity
  8
0
 62
   254
100
AcDbPolyline
 90
        2
 70
     0
 39
0.003
 10
-1.188063
 20
-1.716614
 40
0.003
 41
0.003
 10
-0.54722
 20
-1.333024
 40
0.003
 41
0.003
  0
LWPOLYLINE
  5
11A
100
AcDbEntity
  8
0
 62
   254
100
AcDbPolyline
 90
        2
 70
     0
 39
0.003
 10
-0.54722
 20
-1.333024
 40
0.003
 41
0.003
 10
-0.54972
 20
-1.312488
 40
0.003
 41
0.003
  0
LWPOLYLINE
  5
11B
100
AcDbEntity
  8
0
 62
   254
100
AcDbPolyline
 90
        2
 70
     0
 39
0.003
 10
-0.54972
 20
-1.312488
 40
0.003
 41
0.003
 10
-1.190563
 20
-1.696079
 40
0.003
 41
0.003
  0
LWPOLYLINE
  5
11C
100
AcDbEntity
  8
0
 62
   254
100
AcDbPolyline
 90
        2
 70
     0
 39
0.003
 10
-1.190563
 20
-1.696079
 40
0.003
 41
0.003
 10
-1.188063
 20
-1.716614
 40
0.003
 41
0.003
  0
LWPOLYLINE
  5
11D
100
AcDbEntity
  8
0
 62
   254
100
AcDbPolyline
 90
        2
 70
     0
 39
0.003
 10
-1.190563
 20
-1.696079
 40
0.003
 41
0.003
 10
-0.54972
 20
-1.312488
 40
0.003
 41
0.003
  0
LWPOLYLINE
  5
11E
100
AcDbEntity
  8
0
 62
   254
100
AcDbPolyline
 90
        2
 70
     0
 39
0.003
 10
-0.54972
 20
-1.312488
 40
0.003
 41
0.003
 10
-0.552972
 20
-1.290409
 40
0.003
 41
0.003
  0
LWPOLYLINE
  5
11F
100
AcDbEntity
  8
0
 62
   254
100
AcDbPolyline
 90
        2
 70
     0
 39
0.003
 10
-0.552972
 20
-1.290409
 40
0.003
 41
0.003
 10
-1.193815
 20
-1.674
 40
0.003
 41
0.003
  0
LWPOLYLINE
  5
120
100
AcDbEntity
  8
0
 62
   254
100
AcDbPolyline
 90
        2
 70
     0
 39
0.003
 10
-1.193815
 20
-1.674
 40
0.003
 41
0.003
 10
-1.190563
 20
-1.696079
 40
0.003
 41
0.003
  0
LWPOLYLINE
  5
121
100
AcDbEntity
  8
0
 62
   254
100
AcDbPolyline
 90
        2
 70
     0
 39
0.003
 10
-1.193815
 20
-1.674
 40
0.003
 41
0.003
 10
-0.552972
 20
-1.290409
 40
0.003
 41
0.003
  0
LWPOLYLINE
  5
122
100
AcDbEntity
  8
0
 62
   254
100
AcDbPolyline
 90
        2
 70
     0
 39
0.003
 10
-0.552972
 20
-1.290409
 40
0.003
 41
0.003
 10
-0.557083
 20
-1.266941
 40
0.003
 41
0.003
  0
LWPOLYLINE
  5
123
100
AcDbEntity
  8
0
 62
   254
100
AcDbPolyline
 90
        2
 70
     0
 39
0.003
 10
-0.557083
 20
-1.266941
 40
0.003
 41
0.003
 10
-1.197925
 20
-1.650531
 40
0.003
 41
0.003
  0
LWPOLYLINE
  5
124
100
AcDbEntity
  8
0
 62
   254
100
AcDbPolyline
 90
        2
 70
     0
 39
0.003
 10
-1.197925
 20
-1.650531
 40
0.003
 41
0.003
 10
-1.193815
 20
-1.674
 40
0.003
 41
0.003
  0
LWPOLYLINE
  5
125
100
AcDbEntity
  8
0
 62
   254
100
AcDbPolyline
 90
        2
 70
     0
 39
0.003
 10
-1.197925
 20
-1.650531
 40
0.003
 41
0.003
 10
-0.557083
 20
-1.266941
 40
0.003
 41
0.003
  0
LWPOLYLINE
  5
126
100
AcDbEntity
  8
0
 62
   254
100
AcDbPolyline
 90
        2
 70
     0
 39
0.003
 10
-0.557083
 20
-1.266941
 40
0.003
 41
0.003
 10
-0.56213
 20
-1.242248
 40
0.003
 41
0.003
  0
LWPOLYLINE
  5
127
100
AcDbEntity
  8
0
 62
   254
100
AcDbPolyline
 90
        2
 70
     0
 39
0.003
 10
-0.56213
 20
-1.242248
 40
0.003
 41
0.003
 10
-1.202972
 20
-1.625839
 40
0.003
 41
0.003
  0
LWPOLYLINE
  5
128
100
AcDbEntity
  8
0
 62
   254
100
AcDbPolyline
 90
        2
 70
     0
 39
0.003
 10
-1.202972
 20
-1.625839
 40
0.003
 41
0.003
 10
-1.197925
 20
-1.650531
 40
0.003
 41
0.003
  0
LWPOLYLINE
  5
129
100
AcDbEntity
  8
0
 62
   254
100
AcDbPolyline
 90
        2
 70
     0
 39
0.003
 10
-1.202972
 20
-1.625839
 40
0.003
 41
0.003
 10
-0.56213
 20
-1.242248
 40
0.003
 41
0.003
  0
LWPOLYLINE
  5
12A
100
AcDbEntity
  8
0
 62
   254
100
AcDbPolyline
 90
        2
 70
     0
 39
0.003
 10
-0.56213
 20
-1.242248
 40
0.003
 41
0.003
 10
-0.568236
 20
-1.21648
 40
0.003
 41
0.003
  0
LWPOLYLINE
  5
12B
100
AcDbEntity
  8
0
 62
   254
100
AcDbPolyline
 90
        2
 70
     0
 39
0.003
 10
-0.568236
 20
-1.21648
 40
0.003
 41
0.003
 10
-1.209079
 20
-1.600071
 40
0.003
 41
0.003
  0
LWPOLYLINE
  5
12C
100
AcDbEntity
  8
0
 62
   254
100
AcDbPolyline
 90
        2
 70
     0
 39
0.003
 10
-1.209079
 20
-1.600071
 40
0.003
 41
0.003
 10
-1.202972
 20
-1.625839
 40
0.003
 41
0.003
  0
LWPOLYLINE
  5
12D
100
AcDbEntity
  8
0
 62
   254
100
AcDbPolyline
 90
        2
 70
     0
 39
0.003
 10
-1.209079
 20
-1.600071
 40
0.003
 41
0.003
 10
-0.568236
 20
-1.21648
 40
0.003
 41
0.003
  0
LWPOLYLINE
  5
12E
100
AcDbEntity
  8
0
 62
   254
100
AcDbPolyline
 90
        2
 70
     0
 39
0.003
 10
-0.568236
 20
-1.21648
 40
0.003
 41
0.003
 10
-0.575472
 20
-1.189807
 40
0.003
 41
0.003
  0
LWPOLYLINE
  5
12F
100
AcDbEntity
  8
0
 62
   254
100
AcDbPolyline
 90
        2
 70
     0
 39
0.003
 10
-0.575472
 20
-1.189807
 40
0.003
 41
0.003
 10
-1.216315
 20
-1.573398
 40
0.003
 41
0.003
  0
LWPOLYLINE
  5
130
100
AcDbEntity
  8
0
 62
   254
100
AcDbPolyline
 90
        2
 70
     0
 39
0.003
 10
-1.216315
 20
-1.573398
 40
0.003
 41
0.003
 10
-1.209079
 20
-1.600071
 40
0.003
 41
0.003
  0
LWPOLYLINE
  5
131
100
AcDbEntity
  8
0
 62
   254
100
AcDbPolyline
 90
        2
 70
     0
 39
0.003
 10
-1.216315
 20
-1.573398
 40
0.003
 41
0.003
 10
-0.575472
 20
-1.189807
 40
0.003
 41
0.003
  0
LWPOLYLINE
  5
132
100
AcDbEntity
  8
0
 62
   254
100
AcDbPolyline
 90
        2
 70
     0
 39
0.003
 10
-0.575472
 20
-1.189807
 40
0.003
 41
0.003
 10
-0.583949
 20
-1.162386
 40
0.003
 41
0.003
  0
LWPOLYLINE
  5
133
100
AcDbEntity
  8
0
 62
   254
100
AcDbPolyline
 90
        2
 70
     0
 39
0.003
 10
-0.583949
 20
-1.162386
 40
0.003
 41
0.003
 10
-1.224791
 20
-1.545976
 40
0.003
 41
0.003
  0
LWPOLYLINE
  5
134
100
AcDbEntity
  8
0
 62
   254
100
AcDbPolyline
 90
        2
 70
     0
 39
0.003
 10
-1.224791
 20
-1.545976
 40
0.003
 41
0.003
 10
-1.216315
 20
-1.573398
 40
0.003
 41
0.003
  0
LWPOLYLINE
  5
135
100
AcDbEntity
  8
0
 62
   254
100
AcDbPolyline
 90
        2
 70
     0
 39
0.003
 10
-1.224791
 20
-1.545976
 40
0.003
 41
0.003
 10
-0.583949
 20
-1.162386
 40
0.003
 41
0.003
  0
LWPOLYLINE
  5
136
100
AcDbEntity
  8
0
 62
   254
100
AcDbPolyline
 90
        2
 70
     0
 39
0.003
 10
-0.583949
 20
-1.162386
 40
0.003
 41
0.003
 10
-0.593744
 20
-1.134386
 40
0.003
 41
0.003
  0
LWPOLYLINE
  5
137
100
AcDbEntity
  8
0
 62
   254
100
AcDbPolyline
 90
        2
 70
     0
 39
0.003
 10
-0.593744
 20
-1.134386
 40
0.003
 41
0.003
 10
-1.234587
 20
-1.517976
 40
0.003
 41
0.003
  0
LWPOLYLINE
  5
138
100
AcDbEntity
  8
0
 62
   254
100
AcDbPolyline
 90
        2
 70
     0
 39
0.003
 10
-1.234587
 20
-1.517976
 40
0.003
 41
0.003
 10
-1.224791
 20
-1.545976
 40
0.003
 41
0.003
  0
LWPOLYLINE
  5
139
100
AcDbEntity
  8
0
 62
   254
100
AcDbPolyline
 90
        2
 70
     0
 39
0.003
 10
-1.234587
 20
-1.517976
 40
0.003
 41
0.003
 10
-0.593744
 20
-1.134386
 40
0.003
 41
0.003
  0
LWPOLYLINE
  5
13A
100
AcDbEntity
  8
0
 62
   254
100
AcDbPolyline
 90
        2
 70
     0
 39
0.003
 10
-0.593744
 20
-1.134386
 40
0.003
 41
0.003
 10
-0.604976
 20
-1.105949
 40
0.003
 41
0.003
  0
LWPOLYLINE
  5
13B
100
AcDbEntity
  8
0
 62
   254
100
AcDbPolyline
 90
        2
 70
     0
 39
0.003
 10
-0.604976
 20
-1.105949
 40
0.003
 41
0.003
 10
-1.245819
 20
-1.489539
 40
0.003
 41
0.003
  0
LWPOLYLINE
  5
13C
100
AcDbEntity
  8
0
 62
   254
100
AcDbPolyline
 90
        2
 70
     0
 39
0.003
 10
-1.245819
 20
-1.489539
 40
0.003
 41
0.003
 10
-1.234587
 20
-1.517976
 40
0.003
 41
0.003
  0
LWPOLYLINE
  5
13D
100
AcDbEntity
  8
0
 62
   254
100
AcDbPolyline
 90
        2
 70
     0
 39
0.003
 10
-1.245819
 20
-1.489539
 40
0.003
 41
0.003
 10
-0.604976
 20
-1.105949
 40
0.003
 41
0.003
  0
LWPOLYLINE
  5
13E
100
AcDbEntity
  8
0
 62
   254
100
AcDbPolyline
 90
        2
 70
     0
 39
0.003
 10
-0.604976
 20
-1.105949
 40
0.003
 41
0.003
 10
-0.617717
 20
-1.077248
 40
0.003
 41
0.003
  0
LWPOLYLINE
  5
13F
100
AcDbEntity
  8
0
 62
   254
100
AcDbPolyline
 90
        2
 70
     0
 39
0.003
 10
-0.617717
 20
-1.077248
 40
0.003
 41
0.003
 10
-1.258559
 20
-1.460839
 40
0.003
 41
0.003
  0
LWPOLYLINE
  5
140
100
AcDbEntity
  8
0
 62
   254
100
AcDbPolyline
 90
        2
 70
     0
 39
0.003
 10
-1.258559
 20
-1.460839
 40
0.003
 41
0.003
 10
-1.245819
 20
-1.489539
 40
0.003
 41
0.003
  0
LWPOLYLINE
  5
141
100
AcDbEntity
  8
0
 62
   254
100
AcDbPolyline
 90
        2
 70
     0
 39
0.003
 10
-1.258559
 20
-1.460839
 40
0.003
 41
0.003
 10
-0.617717
 20
-1.077248
 40
0.003
 41
0.003
  0
LWPOLYLINE
  5
142
100
AcDbEntity
  8
0
 62
   254
100
AcDbPolyline
 90
        2
 70
     0
 39
0.003
 10
-0.617717
 20
-1.077248
 40
0.003
 41
0.003
 10
-0.632075
 20
-1.048441
 40
0.003
 41
0.003
  0
LWPOLYLINE
  5
143
100
AcDbEntity
  8
0
 62
   254
100
AcDbPolyline
 90
        2
 70
     0
 39
0.003
 10
-0.632075
 20
-1.048441
 40
0.003
 41
0.003
 10
-1.272917
 20
-1.432031
 40
0.003
 41
0.003
  0
LWPOLYLINE
  5
144
100
AcDbEntity
  8
0
 62
   254
100
AcDbPolyline
 90
        2
 70
     0
 39
0.003
 10
-1.272917
 20
-1.432031
 40
0.003
 41
0.003
 10
-1.258559
 20
-1.460839
 40
0.003
 41
0.003
  0
LWPOLYLINE
  5
145
100
AcDbEntity
  8
0
 62
   254
100
AcDbPolyline
 90
        2
 70
     0
 39
0.003
 10
-1.272917
 20
-1.432031
 40
0.003
 41
0.003
 10
-0.632075
 20
-1.048441
 40
0.003
 41
0.003
  0
LWPOLYLINE
  5
146
100
AcDbEntity
  8
0
 62
   254
100
AcDbPolyline
 90
        2
 70
     0
 39
0.003
 10
-0.632075
 20
-1.048441
 40
0.003
 41
0.003
 10
-0.648134
 20
-1.019693
 40
0.003
 41
0.003
  0
LWPOLYLINE
  5
147
100
AcDbEntity
  8
0
 62
   254
100
AcDbPolyline
 90
        2
 70
     0
 39
0.003
 10
-0.648134
 20
-1.019693
 40
0.003
 41
0.003
 10
-1.288976
 20
-1.403283
 40
0.003
 41
0.003
  0
LWPOLYLINE
  5
148
100
AcDbEntity
  8
0
 62
   254
100
AcDbPolyline
 90
        2
 70
     0
 39
0.003
 10
-1.288976
 20
-1.403283
 40
0.003
 41
0.003
 10
-1.272917
 20
-1.432031
 40
0.003
 41
0.003
  0
LWPOLYLINE
  5
149
100
AcDbEntity
  8
0
 62
   254
100
AcDbPolyline
 90
        2
 70
     0
 39
0.003
 10
-1.288976
 20
-1.403283
 40
0.003
 41
0.003
 10
-0.648134
 20
-1.019693
 40
0.003
 41
0.003
  0
LWPOLYLINE
  5
14A
100
AcDbEntity
  8
0
 62
   254
100
AcDbPolyline
 90
        2
 70
     0
 39
0.003
 10
-0.648134
 20
-1.019693
 40
0.003
 41
0.003
 10
-0.666012
 20
-0.991146
 40
0.003
 41
0.003
  0
LWPOLYLINE
  5
14B
100
AcDbEntity
  8
0
 62
   254
100
AcDbPolyline
 90
        2
 70
     0
 39
0.003
 10
-0.666012
 20
-0.991146
 40
0.003
 41
0.003
 10
-1.306854
 20
-1.374736
 40
0.003
 41
0.003
  0
LWPOLYLINE
  5
14C
100
AcDbEntity
  8
0
 62
   254
100
AcDbPolyline
 90
        2
 70
     0
 39
0.003
 10
-1.306854
 20
-1.374736
 40
0.003
 41
0.003
 10
-1.288976
 20
-1.403283
 40
0.003
 41
0.003
  0
LWPOLYLINE
  5
14D
100
AcDbEntity
  8
0
 62
   254
100
AcDbPolyline
 90
        2
 70
     0
 39
0.003
 10
-1.306854
 20
-1.374736
 40
0.003
 41
0.003
 10
-0.666012
 20
-0.991146
 40
0.003
 41
0.003
  0
LWPOLYLINE
  5
14E
100
AcDbEntity
  8
0
 62
   254
100
AcDbPolyline
 90
        2
 70
     0
 39
0.003
 10
-0.666012
 20
-0.991146
 40
0.003
 41
0.003
 10
-0.68578
 20
-0.962976
 40
0.003
 41
0.003
  0
LWPOLYLINE
  5
14F
100
AcDbEntity
  8
0
 62
   254
100
AcDbPolyline
 90
        2
 70
     0
 39
0.003
 10
-0.68578
 20
-0.962976
 40
0.003
 41
0.003
 10
-1.326622
 20
-1.346567
 40
0.003
 41
0.003
  0
LWPOLYLINE
  5
150
100
AcDbEntity
  8
0
 62
   254
100
AcDbPolyline
 90
        2
 70
     0
 39
0.003
 10
-1.326622
 20
-1.346567
 40
0.003
 41
0.003
 10
-1.306854
 20
-1.374736
 40
0.003
 41
0.003
  0
LWPOLYLINE
  5
151
100
AcDbEntity
  8
0
 62
   254
100
AcDbPolyline
 90
        2
 70
     0
 39
0.003
 10
-1.326622
 20
-1.346567
 40
0.003
 41
0.003
 10
-0.68578
 20
-0.962976
 40
0.003
 41
0.003
  0
LWPOLYLINE
  5
152
100
AcDbEntity
  8
0
 62
   254
100
AcDbPolyline
 90
        2
 70
     0
 39
0.003
 10
-0.68578
 20
-0.962976
 40
0.003
 41
0.003
 10
-0.707547
 20
-0.935335
 40
0.003
 41
0.003
  0
LWPOLYLINE
  5
153
100
AcDbEntity
  8
0
 62
   254
100
AcDbPolyline
 90
        2
 70
     0
 39
0.003
 10
-0.707547
 20
-0.935335
 40
0.003
 41
0.003
 10
-1.34839
 20
-1.318925
 40
0.003
 41
0.003
  0
LWPOLYLINE
  5
154
100
AcDbEntity
  8
0
 62
   254
100
AcDbPolyline
 90
        2
 70
     0
 39
0.003
 10
-1.34839
 20
-1.318925
 40
0.003
 41
0.003
 10
-1.326622
 20
-1.346567
 40
0.003
 41
0.003
  0
LWPOLYLINE
  5
155
100
AcDbEntity
  8
0
 62
   254
100
AcDbPolyline
 90
        2
 70
     0
 39
0.003
 10
-1.34839
 20
-1.318925
 40
0.003
 41
0.003
 10
-0.707547
 20
-0.935335
 40
0.003
 41
0.003
  0
LWPOLYLINE
  5
156
100
AcDbEntity
  8
0
 62
   254
100
AcDbPolyline
 90
        2
 70
     0
 39
0.003
 10
-0.707547
 20
-0.935335
 40
0.003
 41
0.003
 10
-0.731398
 20
-0.908394
 40
0.003
 41
0.003
  0
LWPOLYLINE
  5
157
100
AcDbEntity
  8
0
 62
   254
100
AcDbPolyline
 90
        2
 70
     0
 39
0.003
 10
-0.731398
 20
-0.908394
 40
0.003
 41
0.003
 10
-1.37224
 20
-1.291984
 40
0.003
 41
0.003
  0
LWPOLYLINE
  5
158
100
AcDbEntity
  8
0
 62
   254
100
AcDbPolyline
 90
        2
 70
     0
 39
0.003
 10
-1.37224
 20
-1.291984
 40
0.003
 41
0.003
 10
-1.34839
 20
-1.318925
 40
0.003
 41
0.003
  0
LWPOLYLINE
  5
159
100
AcDbEntity
  8
0
 62
   254
100
AcDbPolyline
 90
        2
 70
     0
 39
0.003
 10
-1.37224
 20
-1.291984
 40
0.003
 41
0.003
 10
-0.731398
 20
-0.908394
 40
0.003
 41
0.003
  0
LWPOLYLINE
  5
15A
100
AcDbEntity
  8
0
 62
   254
100
AcDbPolyline
 90
        2
 70
     0
 39
0.003
 10
-0.731398
 20
-0.908394
 40
0.003
 41
0.003
 10
-0.757437
 20
-0.882299
 40
0.003
 41
0.003
  0
LWPOLYLINE
  5
15B
100
AcDbEntity
  8
0
 62
   254
100
AcDbPolyline
 90
        2
 70
     0
 39
0.003
 10
-0.757437
 20
-0.882299
 40
0.003
 41
0.003
 10
-1.39828
 20
-1.26589
 40
0.003
 41
0.003
  0
LWPOLYLINE
  5
15C
100
AcDbEntity
  8
0
 62
   254
100
AcDbPolyline
 90
        2
 70
     0
 39
0.003
 10
-1.39828
 20
-1.26589
 40
0.003
 41
0.003
 10
-1.37224
 20
-1.291984
 40
0.003
 41
0.003
  0
LWPOLYLINE
  5
15D
100
AcDbEntity
  8
0
 62
   254
100
AcDbPolyline
 90
        2
 70
     0
 39
0.003
 10
-1.39828
 20
-1.26589
 40
0.003
 41
0.003
 10
-0.757437
 20
-0.882299
 40
0.003
 41
0.003
  0
LWPOLYLINE
  5
15E
100
AcDbEntity
  8
0
 62
   254
100
AcDbPolyline
 90
        2
 70
     0
 39
0.003
 10
-0.757437
 20
-0.882299
 40
0.003
 41
0.003
 10
-0.785752
 20
-0.857224
 40
0.003
 41
0.003
  0
LWPOLYLINE
  5
15F
100
AcDbEntity
  8
0
 62
   254
100
AcDbPolyline
 90
        2
 70
     0
 39
0.003
 10
-0.785752
 20
-0.857224
 40
0.003
 41
0.003
 10
-1.426594
 20
-1.240815
 40
0.003
 41
0.003
  0
LWPOLYLINE
  5
160
100
AcDbEntity
  8
0
 62
   254
100
AcDbPolyline
 90
        2
 70
     0
 39
0.003
 10
-1.426594
 20
-1.240815
 40
0.003
 41
0.003
 10
-1.39828
 20
-1.26589
 40
0.003
 41
0.003
  0
LWPOLYLINE
  5
161
100
AcDbEntity
  8
0
 62
   254
100
AcDbPolyline
 90
        2
 70
     0
 39
0.003
 10
-1.426594
 20
-1.240815
 40
0.003
 41
0.003
 10
-0.785752
 20
-0.857224
 40
0.003
 41
0.003
  0
LWPOLYLINE
  5
162
100
AcDbEntity
  8
0
 62
   254
100
AcDbPolyline
 90
        2
 70
     0
 39
0.003
 10
-0.785752
 20
-0.857224
 40
0.003
 41
0.003
 10
-0.816445
 20
-0.833315
 40
0.003
 41
0.003
  0
LWPOLYLINE
  5
163
100
AcDbEntity
  8
0
 62
   254
100
AcDbPolyline
 90
        2
 70
     0
 39
0.003
 10
-0.816445
 20
-0.833315
 40
0.003
 41
0.003
 10
-1.457287
 20
-1.216906
 40
0.003
 41
0.003
  0
LWPOLYLINE
  5
164
100
AcDbEntity
  8
0
 62
   254
100
AcDbPolyline
 90
        2
 70
     0
 39
0.003
 10
-1.457287
 20
-1.216906
 40
0.003
 41
0.003
 10
-1.426594
 20
-1.240815
 40
0.003
 41
0.003
  0
LWPOLYLINE
  5
165
100
AcDbEntity
  8
0
 62
   254
100
AcDbPolyline
 90
        2
 70
     0
 39
0.003
 10
-1.457287
 20
-1.216906
 40
0.003
 41
0.003
 10
-0.816445
 20
-0.833315
 40
0.003
 41
0.003
  0
LWPOLYLINE
  5
166
100
AcDbEntity
  8
0
 62
   254
100
AcDbPolyline
 90
        2
 70
     0
 39
0.003
 10
-0.816445
 20
-0.833315
 40
0.003
 41
0.003
 10
-0.849598
 20
-0.810748
 40
0.003
 41
0.003
  0
LWPOLYLINE
  5
167
100
AcDbEntity
  8
0
 62
   254
100
AcDbPolyline
 90
        2
 70
     0
 39
0.003
 10
-0.849598
 20
-0.810748
 40
0.003
 41
0.003
 10
-1.490441
 20
-1.194339
 40
0.003
 41
0.003
  0
LWPOLYLINE
  5
168
100
AcDbEntity
  8
0
 62
   254
100
AcDbPolyline
 90
        2
 70
     0
 39
0.003
 10
-1.490441
 20
-1.194339
 40
0.003
 41
0.003
 10
-1.457287
 20
-1.216906
 40
0.003
 41
0.003
  0
LWPOLYLINE
  5
169
100
AcDbEntity
  8
0
 62
   254
100
AcDbPolyline
 90
        2
 70
     0
 39
0.003
 10
-1.490441
 20
-1.194339
 40
0.003
 41
0.003
 10
-0.849598
 20
-0.810748
 40
0.003
 41
0.003
  0
LWPOLYLINE
  5
16A
100
AcDbEntity
  8
0
 62
   254
100
AcDbPolyline
 90
        2
 70
     0
 39
0.003
 10
-0.849598
 20
-0.810748
 40
0.003
 41
0.003
 10
-0.885327
 20
-0.789661
 40
0.003
 41
0.003
  0
LWPOLYLINE
  5
16B
100
AcDbEntity
  8
0
 62
   254
100
AcDbPolyline
 90
        2
 70
     0
 39
0.003
 10
-0.885327
 20
-0.789661
 40
0.003
 41
0.003
 10
-1.526169
 20
-1.173252
 40
0.003
 41
0.003
  0
LWPOLYLINE
  5
16C
100
AcDbEntity
  8
0
 62
   254
100
AcDbPolyline
 90
        2
 70
     0
 39
0.003
 10
-1.526169
 20
-1.173252
 40
0.003
 41
0.003
 10
-1.490441
 20
-1.194339
 40
0.003
 41
0.003
  0
LWPOLYLINE
  5
16D
100
AcDbEntity
  8
0
 62
     9
100
AcDbPolyline
 90
        2
 70
     0
 39
0.003
 10
-1.526169
 20
-1.173252
 40
0.003
 41
0.003
 10
-0.885327
 20
-0.789661
 40
0.003
 41
0.003
  0
LWPOLYLINE
  5
16E
100
AcDbEntity
  8
0
 62
     9
100
AcDbPolyline
 90
        2
 70
     0
 39
0.003
 10
-0.885327
 20
-0.789661
 40
0.003
 41
0.003
 10
-0.923709
 20
-0.770236
 40
0.003
 41
0.003
  0
LWPOLYLINE
  5
16F
100
AcDbEntity
  8
0
 62
     9
100
AcDbPolyline
 90
        2
 70
     0
 39
0.003
 10
-0.923709
 20
-0.770236
 40
0.003
 41
0.003
 10
-1.564551
 20
-1.153827
 40
0.003
 41
0.003
  0
LWPOLYLINE
  5
170
100
AcDbEntity
  8
0
 62
     9
100
AcDbPolyline
 90
        2
 70
     0
 39
0.003
 10
-1.564551
 20
-1.153827
 40
0.003
 41
0.003
 10
-1.526169
 20
-1.173252
 40
0.003
 41
0.003
  0
LWPOLYLINE
  5
171
100
AcDbEntity
  8
0
 62
     9
100
AcDbPolyline
 90
        2
 70
     0
 39
0.003
 10
-1.564551
 20
-1.153827
 40
0.003
 41
0.003
 10
-0.923709
 20
-0.770236
 40
0.003
 41
0.003
  0
LWPOLYLINE
  5
172
100
AcDbEntity
  8
0
 62
     9
100
AcDbPolyline
 90
        2
 70
     0
 39
0.003
 10
-0.923709
 20
-0.770236
 40
0.003
 41
0.003
 10
-0.964843
 20
-0.752622
 40
0.003
 41
0.003
  0
LWPOLYLINE
  5
173
100
AcDbEntity
  8
0
 62
     9
100
AcDbPolyline
 90
        2
 70
     0
 39
0.003
 10
-0.964843
 20
-0.752622
 40
0.003
 41
0.003
 10
-1.605685
 20
-1.136213
 40
0.003
 41
0.003
  0
LWPOLYLINE
  5
174
100
AcDbEntity
  8
0
 62
     9
100
AcDbPolyline
 90
        2
 70
     0
 39
0.003
 10
-1.605685
 20
-1.136213
 40
0.003
 41
0.003
 10
-1.564551
 20
-1.153827
 40
0.003
 41
0.003
  0
LWPOLYLINE
  5
175
100
AcDbEntity
  8
0
 62
     9
100
AcDbPolyline
 90
        2
 70
     0
 39
0.003
 10
-1.605685
 20
-1.136213
 40
0.003
 41
0.003
 10
-0.964843
 20
-0.752622
 40
0.003
 41
0.003
  0
LWPOLYLINE
  5
176
100
AcDbEntity
  8
0
 62
     9
100
AcDbPolyline
 90
        2
 70
     0
 39
0.003
 10
-0.964843
 20
-0.752622
 40
0.003
 41
0.003
 10
-1.008823
 20
-0.736984
 40
0.003
 41
0.003
  0
LWPOLYLINE
  5
177
100
AcDbEntity
  8
0
 62
     9
100
AcDbPolyline
 90
        2
 70
     0
 39
0.003
 10
-1.008823
 20
-0.736984
 40
0.003
 41
0.003
 10
-1.649665
 20
-1.120575
 40
0.003
 41
0.003
  0
LWPOLYLINE
  5
178
100
AcDbEntity
  8
0
 62
     9
100
AcDbPolyline
 90
        2
 70
     0
 39
0.003
 10
-1.649665
 20
-1.120575
 40
0.003
 41
0.003
 10
-1.605685
 20
-1.136213
 40
0.003
 41
0.003
  0
LWPOLYLINE
  5
179
100
AcDbEntity
  8
0
 62
     9
100
AcDbPolyline
 90
        2
 70
     0
 39
0.003
 10
-1.649665
 20
-1.120575
 40
0.003
 41
0.003
 10
-1.008823
 20
-0.736984
 40
0.003
 41
0.003
  0
LWPOLYLINE
  5
17A
100
AcDbEntity
  8
0
 62
     9
100
AcDbPolyline
 90
        2
 70
     0
 39
0.003
 10
-1.008823
 20
-0.736984
 40
0.003
 41
0.003
 10
-1.055748
 20
-0.723476
 40
0.003
 41
0.003
  0
LWPOLYLINE
  5
17B
100
AcDbEntity
  8
0
 62
     9
100
AcDbPolyline
 90
        2
 70
     0
 39
0.003
 10
-1.055748
 20
-0.723476
 40
0.003
 41
0.003
 10
-1.696591
 20
-1.107067
 40
0.003
 41
0.003
  0
LWPOLYLINE
  5
17C
100
AcDbEntity
  8
0
 62
     9
100
AcDbPolyline
 90
        2
 70
     0
 39
0.003
 10
-1.696591
 20
-1.107067
 40
0.003
 41
0.003
 10
-1.649665
 20
-1.120575
 40
0.003
 41
0.003
  0
LWPOLYLINE
  5
17D
100
AcDbEntity
  8
0
 62
     9
100
AcDbPolyline
 90
        2
 70
     0
 39
0.003
 10
-1.696591
 20
-1.107067
 40
0.003
 41
0.003
 10
-1.055748
 20
-0.723476
 40
0.003
 41
0.003
  0
LWPOLYLINE
  5
17E
100
AcDbEntity
  8
0
 62
     9
100
AcDbPolyline
 90
        2
 70
     0
 39
0.003
 10
-1.055748
 20
-0.723476
 40
0.003
 41
0.003
 10
-1.10572
 20
-0.712264
 40
0.003
 41
0.003
  0
LWPOLYLINE
  5
17F
100
AcDbEntity
  8
0
 62
     9
100
AcDbPolyline
 90
        2
 70
     0
 39
0.003
 10
-1.10572
 20
-0.712264
 40
0.003
 41
0.003
 10
-1.746563
 20
-1.095854
 40
0.003
 41
0.003
  0
LWPOLYLINE
  5
180
100
AcDbEntity
  8
0
 62
     9
100
AcDbPolyline
 90
        2
 70
     0
 39
0.003
 10
-1.746563
 20
-1.095854
 40
0.003
 41
0.003
 10
-1.696591
 20
-1.107067
 40
0.003
 41
0.003
  0
LWPOLYLINE
  5
181
100
AcDbEntity
  8
0
 62
     9
100
AcDbPolyline
 90
        2
 70
     0
 39
0.003
 10
-1.746563
 20
-1.095854
 40
0.003
 41
0.003
 10
-1.10572
 20
-0.712264
 40
0.003
 41
0.003
  0
LWPOLYLINE
  5
182
100
AcDbEntity
  8
0
 62
     9
100
AcDbPolyline
 90
        2
 70
     0
 39
0.003
 10
-1.10572
 20
-0.712264
 40
0.003
 41
0.003
 10
-1.158827
 20
-0.7035
 40
0.003
 41
0.003
  0
LWPOLYLINE
  5
183
100
AcDbEntity
  8
0
 62
     9
100
AcDbPolyline
 90
        2
 70
     0
 39
0.003
 10
-1.158827
 20
-0.7035
 40
0.003
 41
0.003
 10
-1.799669
 20
-1.087091
 40
0.003
 41
0.003
  0
LWPOLYLINE
  5
184
100
AcDbEntity
  8
0
 62
     9
100
AcDbPolyline
 90
        2
 70
     0
 39
0.003
 10
-1.799669
 20
-1.087091
 40
0.003
 41
0.003
 10
-1.746563
 20
-1.095854
 40
0.003
 41
0.003
  0
LWPOLYLINE
  5
185
100
AcDbEntity
  8
0
 62
     9
100
AcDbPolyline
 90
        2
 70
     0
 39
0.003
 10
-1.799669
 20
-1.087091
 40
0.003
 41
0.003
 10
-1.158827
 20
-0.7035
 40
0.003
 41
0.003
  0
LWPOLYLINE
  5
186
100
AcDbEntity
  8
0
 62
     9
100
AcDbPolyline
 90
        2
 70
     0
 39
0.003
 10
-1.158827
 20
-0.7035
 40
0.003
 41
0.003
 10
-1.215169
 20
-0.697354
 40
0.003
 41
0.003
  0
LWPOLYLINE
  5
187
100
AcDbEntity
  8
0
 62
     9
100
AcDbPolyline
 90
        2
 70
     0
 39
0.003
 10
-1.215169
 20
-0.697354
 40
0.003
 41
0.003
 10
-1.856012
 20
-1.080945
 40
0.003
 41
0.003
  0
LWPOLYLINE
  5
188
100
AcDbEntity
  8
0
 62
     9
100
AcDbPolyline
 90
        2
 70
     0
 39
0.003
 10
-1.856012
 20
-1.080945
 40
0.003
 41
0.003
 10
-1.799669
 20
-1.087091
 40
0.003
 41
0.003
  0
LWPOLYLINE
  5
189
100
AcDbEntity
  8
0
 62
     0
100
AcDbPolyline
 90
        2
 70
     0
 39
0.003
 10
-1.183768
 20
-1.780079
 40
0.003
 41
0.003
 10
-0.542925
 20
-1.396488
 40
0.003
 41
0.003
  0
LWPOLYLINE
  5
18A
100
AcDbEntity
  8
0
 62
     0
100
AcDbPolyline
 90
        2
 70
     0
 39
0.003
 10
-0.542925
 20
-1.396488
 40
0.003
 41
0.003
 10
-0.543343
 20
-1.38374
 40
0.003
 41
0.003
  0
LWPOLYLINE
  5
18B
100
AcDbEntity
  8
0
 62
     0
100
AcDbPolyline
 90
        2
 70
     0
 39
0.003
 10
-0.543343
 20
-1.38374
 40
0.003
 41
0.003
 10
-0.54413
 20
-1.368807
 40
0.003
 41
0.003
  0
LWPOLYLINE
  5
18C
100
AcDbEntity
  8
0
 62
     0
100
AcDbPolyline
 90
        2
 70
     0
 39
0.003
 10
-0.54413
 20
-1.368807
 40
0.003
 41
0.003
 10
-0.545398
 20
-1.351846
 40
0.003
 41
0.003
  0
LWPOLYLINE
  5
18D
100
AcDbEntity
  8
0
 62
     0
100
AcDbPolyline
 90
        2
 70
     0
 39
0.003
 10
-0.545398
 20
-1.351846
 40
0.003
 41
0.003
 10
-0.54722
 20
-1.333024
 40
0.003
 41
0.003
  0
LWPOLYLINE
  5
18E
100
AcDbEntity
  8
0
 62
     0
100
AcDbPolyline
 90
        2
 70
     0
 39
0.003
 10
-0.54722
 20
-1.333024
 40
0.003
 41
0.003
 10
-0.54972
 20
-1.312488
 40
0.003
 41
0.003
  0
LWPOLYLINE
  5
18F
100
AcDbEntity
  8
0
 62
     0
100
AcDbPolyline
 90
        2
 70
     0
 39
0.003
 10
-0.54972
 20
-1.312488
 40
0.003
 41
0.003
 10
-0.552972
 20
-1.290409
 40
0.003
 41
0.003
  0
LWPOLYLINE
  5
190
100
AcDbEntity
  8
0
 62
     0
100
AcDbPolyline
 90
        2
 70
     0
 39
0.003
 10
-0.552972
 20
-1.290409
 40
0.003
 41
0.003
 10
-0.557083
 20
-1.266941
 40
0.003
 41
0.003
  0
LWPOLYLINE
  5
191
100
AcDbEntity
  8
0
 62
     0
100
AcDbPolyline
 90
        2
 70
     0
 39
0.003
 10
-0.557083
 20
-1.266941
 40
0.003
 41
0.003
 10
-0.56213
 20
-1.242248
 40
0.003
 41
0.003
  0
LWPOLYLINE
  5
192
100
AcDbEntity
  8
0
 62
     0
100
AcDbPolyline
 90
        2
 70
     0
 39
0.003
 10
-0.56213
 20
-1.242248
 40
0.003
 41
0.003
 10
-0.568236
 20
-1.21648
 40
0.003
 41
0.003
  0
LWPOLYLINE
  5
193
100
AcDbEntity
  8
0
 62
     0
100
AcDbPolyline
 90
        2
 70
     0
 39
0.003
 10
-0.568236
 20
-1.21648
 40
0.003
 41
0.003
 10
-0.575472
 20
-1.189807
 40
0.003
 41
0.003
  0
LWPOLYLINE
  5
194
100
AcDbEntity
  8
0
 62
     0
100
AcDbPolyline
 90
        2
 70
     0
 39
0.003
 10
-0.575472
 20
-1.189807
 40
0.003
 41
0.003
 10
-0.583949
 20
-1.162386
 40
0.003
 41
0.003
  0
LWPOLYLINE
  5
195
100
AcDbEntity
  8
0
 62
     0
100
AcDbPolyline
 90
        2
 70
     0
 39
0.003
 10
-0.583949
 20
-1.162386
 40
0.003
 41
0.003
 10
-0.593744
 20
-1.134386
 40
0.003
 41
0.003
  0
LWPOLYLINE
  5
196
100
AcDbEntity
  8
0
 62
     0
100
AcDbPolyline
 90
        2
 70
     0
 39
0.003
 10
-0.593744
 20
-1.134386
 40
0.003
 41
0.003
 10
-0.604976
 20
-1.105949
 40
0.003
 41
0.003
  0
LWPOLYLINE
  5
197
100
AcDbEntity
  8
0
 62
     0
100
AcDbPolyline
 90
        2
 70
     0
 39
0.003
 10
-0.604976
 20
-1.105949
 40
0.003
 41
0.003
 10
-0.617717
 20
-1.077248
 40
0.003
 41
0.003
  0
LWPOLYLINE
  5
198
100
AcDbEntity
  8
0
 62
     0
100
AcDbPolyline
 90
        2
 70
     0
 39
0.003
 10
-0.617717
 20
-1.077248
 40
0.003
 41
0.003
 10
-0.632075
 20
-1.048441
 40
0.003
 41
0.003
  0
LWPOLYLINE
  5
199
100
AcDbEntity
  8
0
 62
     0
100
AcDbPolyline
 90
        2
 70
     0
 39
0.003
 10
-0.632075
 20
-1.048441
 40
0.003
 41
0.003
 10
-0.648134
 20
-1.019693
 40
0.003
 41
0.003
  0
LWPOLYLINE
  5
19A
100
AcDbEntity
  8
0
 62
     0
100
AcDbPolyline
 90
        2
 70
     0
 39
0.003
 10
-0.648134
 20
-1.019693
 40
0.003
 41
0.003
 10
-0.666012
 20
-0.991146
 40
0.003
 41
0.003
  0
LWPOLYLINE
  5
19B
100
AcDbEntity
  8
0
 62
     0
100
AcDbPolyline
 90
        2
 70
     0
 39
0.003
 10
-0.666012
 20
-0.991146
 40
0.003
 41
0.003
 10
-0.68578
 20
-0.962976
 40
0.003
 41
0.003
  0
LWPOLYLINE
  5
19C
100
AcDbEntity
  8
0
 62
     0
100
AcDbPolyline
 90
        2
 70
     0
 39
0.003
 10
-0.68578
 20
-0.962976
 40
0.003
 41
0.003
 10
-0.707547
 20
-0.935335
 40
0.003
 41
0.003
  0
LWPOLYLINE
  5
19D
100
AcDbEntity
  8
0
 62
     0
100
AcDbPolyline
 90
        2
 70
     0
 39
0.003
 10
-0.707547
 20
-0.935335
 40
0.003
 41
0.003
 10
-0.731398
 20
-0.908394
 40
0.003
 41
0.003
  0
LWPOLYLINE
  5
19E
100
AcDbEntity
  8
0
 62
     0
100
AcDbPolyline
 90
        2
 70
     0
 39
0.003
 10
-0.731398
 20
-0.908394
 40
0.003
 41
0.003
 10
-0.757437
 20
-0.882299
 40
0.003
 41
0.003
  0
LWPOLYLINE
  5
19F
100
AcDbEntity
  8
0
 62
     0
100
AcDbPolyline
 90
        2
 70
     0
 39
0.003
 10
-0.757437
 20
-0.882299
 40
0.003
 41
0.003
 10
-0.785752
 20
-0.857224
 40
0.003
 41
0.003
  0
LWPOLYLINE
  5
1A0
100
AcDbEntity
  8
0
 62
     0
100
AcDbPolyline
 90
        2
 70
     0
 39
0.003
 10
-0.785752
 20
-0.857224
 40
0.003
 41
0.003
 10
-0.816445
 20
-0.833315
 40
0.003
 41
0.003
  0
LWPOLYLINE
  5
1A1
100
AcDbEntity
  8
0
 62
     0
100
AcDbPolyline
 90
        2
 70
     0
 39
0.003
 10
-0.816445
 20
-0.833315
 40
0.003
 41
0.003
 10
-0.849598
 20
-0.810748
 40
0.003
 41
0.003
  0
LWPOLYLINE
  5
1A2
100
AcDbEntity
  8
0
 62
     0
100
AcDbPolyline
 90
        2
 70
     0
 39
0.003
 10
-0.849598
 20
-0.810748
 40
0.003
 41
0.003
 10
-0.885327
 20
-0.789661
 40
0.003
 41
0.003
  0
LWPOLYLINE
  5
1A3
100
AcDbEntity
  8
0
 62
     0
100
AcDbPolyline
 90
        2
 70
     0
 39
0.003
 10
-0.885327
 20
-0.789661
 40
0.003
 41
0.003
 10
-0.923709
 20
-0.770236
 40
0.003
 41
0.003
  0
LWPOLYLINE
  5
1A4
100
AcDbEntity
  8
0
 62
     0
100
AcDbPolyline
 90
        2
 70
     0
 39
0.003
 10
-0.923709
 20
-0.770236
 40
0.003
 41
0.003
 10
-0.964843
 20
-0.752622
 40
0.003
 41
0.003
  0
LWPOLYLINE
  5
1A5
100
AcDbEntity
  8
0
 62
     0
100
AcDbPolyline
 90
        2
 70
     0
 39
0.003
 10
-0.964843
 20
-0.752622
 40
0.003
 41
0.003
 10
-1.008823
 20
-0.736984
 40
0.003
 41
0.003
  0
LWPOLYLINE
  5
1A6
100
AcDbEntity
  8
0
 62
     0
100
AcDbPolyline
 90
        2
 70
     0
 39
0.003
 10
-1.008823
 20
-0.736984
 40
0.003
 41
0.003
 10
-1.055748
 20
-0.723476
 40
0.003
 41
0.003
  0
LWPOLYLINE
  5
1A7
100
AcDbEntity
  8
0
 62
     0
100
AcDbPolyline
 90
        2
 70
     0
 39
0.003
 10
-1.055748
 20
-0.723476
 40
0.003
 41
0.003
 10
-1.10572
 20
-0.712264
 40
0.003
 41
0.003
  0
LWPOLYLINE
  5
1A8
100
AcDbEntity
  8
0
 62
     0
100
AcDbPolyline
 90
        2
 70
     0
 39
0.003
 10
-1.10572
 20
-0.712264
 40
0.003
 41
0.003
 10
-1.158827
 20
-0.7035
 40
0.003
 41
0.003
  0
LWPOLYLINE
  5
1A9
100
AcDbEntity
  8
0
 62
     0
100
AcDbPolyline
 90
        2
 70
     0
 39
0.003
 10
-1.158827
 20
-0.7035
 40
0.003
 41
0.003
 10
-1.215169
 20
-0.697354
 40
0.003
 41
0.003
  0
LWPOLYLINE
  5
1AA
100
AcDbEntity
  8
0
 62
     0
100
AcDbPolyline
 90
        2
 70
     0
 39
0.003
 10
-1.215169
 20
-0.697354
 40
0.003
 41
0.003
 10
-1.856012
 20
-1.080945
 40
0.003
 41
0.003
  0
LWPOLYLINE
  5
1AB
100
AcDbEntity
  8
0
 62
     0
100
AcDbPolyline
 90
        2
 70
     0
 39
0.003
 10
-1.856012
 20
-1.080945
 40
0.003
 41
0.003
 10
-1.799669
 20
-1.087091
 40
0.003
 41
0.003
  0
LWPOLYLINE
  5
1AC
100
AcDbEntity
  8
0
 62
     0
100
AcDbPolyline
 90
        2
 70
     0
 39
0.003
 10
-1.799669
 20
-1.087091
 40
0.003
 41
0.003
 10
-1.746563
 20
-1.095854
 40
0.003
 41
0.003
  0
LWPOLYLINE
  5
1AD
100
AcDbEntity
  8
0
 62
     0
100
AcDbPolyline
 90
        2
 70
     0
 39
0.003
 10
-1.746563
 20
-1.095854
 40
0.003
 41
0.003
 10
-1.696591
 20
-1.107067
 40
0.003
 41
0.003
  0
LWPOLYLINE
  5
1AE
100
AcDbEntity
  8
0
 62
     0
100
AcDbPolyline
 90
        2
 70
     0
 39
0.003
 10
-1.696591
 20
-1.107067
 40
0.003
 41
0.003
 10
-1.649665
 20
-1.120575
 40
0.003
 41
0.003
  0
LWPOLYLINE
  5
1AF
100
AcDbEntity
  8
0
 62
     0
100
AcDbPolyline
 90
        2
 70
     0
 39
0.003
 10
-1.649665
 20
-1.120575
 40
0.003
 41
0.003
 10
-1.605685
 20
-1.136213
 40
0.003
 41
0.003
  0
LWPOLYLINE
  5
1B0
100
AcDbEntity
  8
0
 62
     0
100
AcDbPolyline
 90
        2
 70
     0
 39
0.003
 10
-1.605685
 20
-1.136213
 40
0.003
 41
0.003
 10
-1.564551
 20
-1.153827
 40
0.003
 41
0.003
  0
LWPOLYLINE
  5
1B1
100
AcDbEntity
  8
0
 62
     0
100
AcDbPolyline
 90
        2
 70
     0
 39
0.003
 10
-1.564551
 20
-1.153827
 40
0.003
 41
0.003
 10
-1.526169
 20
-1.173252
 40
0.003
 41
0.003
  0
LWPOLYLINE
  5
1B2
100
AcDbEntity
  8
0
 62
     0
100
AcDbPolyline
 90
        2
 70
     0
 39
0.003
 10
-1.526169
 20
-1.173252
 40
0.003
 41
0.003
 10
-1.490441
 20
-1.194339
 40
0.003
 41
0.003
  0
LWPOLYLINE
  5
1B3
100
AcDbEntity
  8
0
 62
     0
100
AcDbPolyline
 90
        2
 70
     0
 39
0.003
 10
-1.490441
 20
-1.194339
 40
0.003
 41
0.003
 10
-1.457287
 20
-1.216906
 40
0.003
 41
0.003
  0
LWPOLYLINE
  5
1B4
100
AcDbEntity
  8
0
 62
     0
100
AcDbPolyline
 90
        2
 70
     0
 39
0.003
 10
-1.457287
 20
-1.216906
 40
0.003
 41
0.003
 10
-1.426594
 20
-1.240815
 40
0.003
 41
0.003
  0
LWPOLYLINE
  5
1B5
100
AcDbEntity
  8
0
 62
     0
100
AcDbPolyline
 90
        2
 70
     0
 39
0.003
 10
-1.426594
 20
-1.240815
 40
0.003
 41
0.003
 10
-1.39828
 20
-1.26589
 40
0.003
 41
0.003
  0
LWPOLYLINE
  5
1B6
100
AcDbEntity
  8
0
 62
     0
100
AcDbPolyline
 90
        2
 70
     0
 39
0.003
 10
-1.39828
 20
-1.26589
 40
0.003
 41
0.003
 10
-1.37224
 20
-1.291984
 40
0.003
 41
0.003
  0
LWPOLYLINE
  5
1B7
100
AcDbEntity
  8
0
 62
     0
100
AcDbPolyline
 90
        2
 70
     0
 39
0.003
 10
-1.37224
 20
-1.291984
 40
0.003
 41
0.003
 10
-1.34839
 20
-1.318925
 40
0.003
 41
0.003
  0
LWPOLYLINE
  5
1B8
100
AcDbEntity
  8
0
 62
     0
100
AcDbPolyline
 90
        2
 70
     0
 39
0.003
 10
-1.34839
 20
-1.318925
 40
0.003
 41
0.003
 10
-1.326622
 20
-1.346567
 40
0.003
 41
0.003
  0
LWPOLYLINE
  5
1B9
100
AcDbEntity
  8
0
 62
     0
100
AcDbPolyline
 90
        2
 70
     0
 39
0.003
 10
-1.326622
 20
-1.346567
 40
0.003
 41
0.003
 10
-1.306854
 20
-1.374736
 40
0.003
 41
0.003
  0
LWPOLYLINE
  5
1BA
100
AcDbEntity
  8
0
 62
     0
100
AcDbPolyline
 90
        2
 70
     0
 39
0.003
 10
-1.306854
 20
-1.374736
 40
0.003
 41
0.003
 10
-1.288976
 20
-1.403283
 40
0.003
 41
0.003
  0
LWPOLYLINE
  5
1BB
100
AcDbEntity
  8
0
 62
     0
100
AcDbPolyline
 90
        2
 70
     0
 39
0.003
 10
-1.288976
 20
-1.403283
 40
0.003
 41
0.003
 10
-1.272917
 20
-1.432031
 40
0.003
 41
0.003
  0
LWPOLYLINE
  5
1BC
100
AcDbEntity
  8
0
 62
     0
100
AcDbPolyline
 90
        2
 70
     0
 39
0.003
 10
-1.272917
 20
-1.432031
 40
0.003
 41
0.003
 10
-1.258559
 20
-1.460839
 40
0.003
 41
0.003
  0
LWPOLYLINE
  5
1BD
100
AcDbEntity
  8
0
 62
     0
100
AcDbPolyline
 90
        2
 70
     0
 39
0.003
 10
-1.258559
 20
-1.460839
 40
0.003
 41
0.003
 10
-1.245819
 20
-1.489539
 40
0.003
 41
0.003
  0
LWPOLYLINE
  5
1BE
100
AcDbEntity
  8
0
 62
     0
100
AcDbPolyline
 90
        2
 70
     0
 39
0.003
 10
-1.245819
 20
-1.489539
 40
0.003
 41
0.003
 10
-1.234587
 20
-1.517976
 40
0.003
 41
0.003
  0
LWPOLYLINE
  5
1BF
100
AcDbEntity
  8
0
 62
     0
100
AcDbPolyline
 90
        2
 70
     0
 39
0.003
 10
-1.234587
 20
-1.517976
 40
0.003
 41
0.003
 10
-1.224791
 20
-1.545976
 40
0.003
 41
0.003
  0
LWPOLYLINE
  5
1C0
100
AcDbEntity
  8
0
 62
     0
100
AcDbPolyline
 90
        2
 70
     0
 39
0.003
 10
-1.224791
 20
-1.545976
 40
0.003
 41
0.003
 10
-1.216315
 20
-1.573398
 40
0.003
 41
0.003
  0
LWPOLYLINE
  5
1C1
100
AcDbEntity
  8
0
 62
     0
100
AcDbPolyline
 90
        2
 70
     0
 39
0.003
 10
-1.216315
 20
-1.573398
 40
0.003
 41
0.003
 10
-1.209079
 20
-1.600071
 40
0.003
 41
0.003
  0
LWPOLYLINE
  5
1C2
100
AcDbEntity
  8
0
 62
     0
100
AcDbPolyline
 90
        2
 70
     0
 39
0.003
 10
-1.209079
 20
-1.600071
 40
0.003
 41
0.003
 10
-1.202972
 20
-1.625839
 40
0.003
 41
0.003
  0
LWPOLYLINE
  5
1C3
100
AcDbEntity
  8
0
 62
     0
100
AcDbPolyline
 90
        2
 70
     0
 39
0.003
 10
-1.202972
 20
-1.625839
 40
0.003
 41
0.003
 10
-1.197925
 20
-1.650531
 40
0.003
 41
0.003
  0
LWPOLYLINE
  5
1C4
100
AcDbEntity
  8
0
 62
     0
100
AcDbPolyline
 90
        2
 70
     0
 39
0.003
 10
-1.197925
 20
-1.650531
 40
0.003
 41
0.003
 10
-1.193815
 20
-1.674
 40
0.003
 41
0.003
  0
LWPOLYLINE
  5
1C5
100
AcDbEntity
  8
0
 62
     0
100
AcDbPolyline
 90
        2
 70
     0
 39
0.003
 10
-1.193815
 20
-1.674
 40
0.003
 41
0.003
 10
-1.190563
 20
-1.696079
 40
0.003
 41
0.003
  0
LWPOLYLINE
  5
1C6
100
AcDbEntity
  8
0
 62
     0
100
AcDbPolyline
 90
        2
 70
     0
 39
0.003
 10
-1.190563
 20
-1.696079
 40
0.003
 41
0.003
 10
-1.188063
 20
-1.716614
 40
0.003
 41
0.003
  0
LWPOLYLINE
  5
1C7
100
AcDbEntity
  8
0
 62
     0
100
AcDbPolyline
 90
        2
 70
     0
 39
0.003
 10
-1.188063
 20
-1.716614
 40
0.003
 41
0.003
 10
-1.18624
 20
-1.735437
 40
0.003
 41
0.003
  0
LWPOLYLINE
  5
1C8
100
AcDbEntity
  8
0
 62
     0
100
AcDbPolyline
 90
        2
 70
     0
 39
0.003
 10
-1.18624
 20
-1.735437
 40
0.003
 41
0.003
 10
-1.184972
 20
-1.752398
 40
0.003
 41
0.003
  0
LWPOLYLINE
  5
1C9
100
AcDbEntity
  8
0
 62
     0
100
AcDbPolyline
 90
        2
 70
     0
 39
0.003
 10
-1.184972
 20
-1.752398
 40
0.003
 41
0.003
 10
-1.184185
 20
-1.767331
 40
0.003
 41
0.003
  0
LWPOLYLINE
  5
1CA
100
AcDbEntity
  8
0
 62
     0
100
AcDbPolyline
 90
        2
 70
     0
 39
0.003
 10
-1.184185
 20
-1.767331
 40
0.003
 41
0.003
 10
-1.183768
 20
-1.780079
 40
0.003
 41
0.003
  0
LWPOLYLINE
  5
1CB
100
AcDbEntity
  8
0
 62
   254
100
AcDbPolyline
 90
        2
 70
     0
 39
0.003
 10
-1.856012
 20
-1.080945
 40
0.003
 41
0.003
 10
-1.215169
 20
-0.697354
 40
0.003
 41
0.003
  0
LWPOLYLINE
  5
1CC
100
AcDbEntity
  8
0
 62
   254
100
AcDbPolyline
 90
        2
 70
     0
 39
0.003
 10
-1.215169
 20
-0.697354
 40
0.003
 41
0.003
 10
-1.225925
 20
-0.541394
 40
0.003
 41
0.003
  0
LWPOLYLINE
  5
1CD
100
AcDbEntity
  8
0
 62
   254
100
AcDbPolyline
 90
        2
 70
     0
 39
0.003
 10
-1.225925
 20
-0.541394
 40
0.003
 41
0.003
 10
-1.866768
 20
-0.924984
 40
0.003
 41
0.003
  0
LWPOLYLINE
  5
1CE
100
AcDbEntity
  8
0
 62
   254
100
AcDbPolyline
 90
        2
 70
     0
 39
0.003
 10
-1.866768
 20
-0.924984
 40
0.003
 41
0.003
 10
-1.856012
 20
-1.080945
 40
0.003
 41
0.003
  0
LWPOLYLINE
  5
1CF
100
AcDbEntity
  8
0
 62
     0
100
AcDbPolyline
 90
        2
 70
     0
 39
0.003
 10
-1.856012
 20
-1.080945
 40
0.003
 41
0.003
 10
-1.215169
 20
-0.697354
 40
0.003
 41
0.003
  0
LWPOLYLINE
  5
1D0
100
AcDbEntity
  8
0
 62
     0
100
AcDbPolyline
 90
        2
 70
     0
 39
0.003
 10
-1.215169
 20
-0.697354
 40
0.003
 41
0.003
 10
-1.225925
 20
-0.541394
 40
0.003
 41
0.003
  0
LWPOLYLINE
  5
1D1
100
AcDbEntity
  8
0
 62
     0
100
AcDbPolyline
 90
        2
 70
     0
 39
0.003
 10
-1.225925
 20
-0.541394
 40
0.003
 41
0.003
 10
-1.866768
 20
-0.924984
 40
0.003
 41
0.003
  0
LWPOLYLINE
  5
1D2
100
AcDbEntity
  8
0
 62
     0
100
AcDbPolyline
 90
        2
 70
     0
 39
0.003
 10
-1.866768
 20
-0.924984
 40
0.003
 41
0.003
 10
-1.856012
 20
-1.080945
 40
0.003
 41
0.003
  0
LWPOLYLINE
  5
1D3
100
AcDbEntity
  8
0
 62
   253
100
AcDbPolyline
 90
        2
 70
     0
 39
0.003
 10
-1.866768
 20
-0.924984
 40
0.003
 41
0.003
 10
-1.225925
 20
-0.541394
 40
0.003
 41
0.003
  0
LWPOLYLINE
  5
1D4
100
AcDbEntity
  8
0
 62
   253
100
AcDbPolyline
 90
        2
 70
     0
 39
0.003
 10
-1.225925
 20
-0.541394
 40
0.003
 41
0.003
 10
-1.42222
 20
-0.541394
 40
0.003
 41
0.003
  0
LWPOLYLINE
  5
1D5
100
AcDbEntity
  8
0
 62
   253
100
AcDbPolyline
 90
        2
 70
     0
 39
0.003
 10
-1.42222
 20
-0.541394
 40
0.003
 41
0.003
 10
-2.063063
 20
-0.924984
 40
0.003
 41
0.003
  0
LWPOLYLINE
  5
1D6
100
AcDbEntity
  8
0
 62
   253
100
AcDbPolyline
 90
        2
 70
     0
 39
0.003
 10
-2.063063
 20
-0.924984
 40
0.003
 41
0.003
 10
-1.866768
 20
-0.924984
 40
0.003
 41
0.003
  0
LWPOLYLINE
  5
1D7
100
AcDbEntity
  8
0
 62
     0
100
AcDbPolyline
 90
        2
 70
     0
 39
0.003
 10
-1.866768
 20
-0.924984
 40
0.003
 41
0.003
 10
-1.225925
 20
-0.541394
 40
0.003
 41
0.003
  0
LWPOLYLINE
  5
1D8
100
AcDbEntity
  8
0
 62
     0
100
AcDbPolyline
 90
        2
 70
     0
 39
0.003
 10
-1.225925
 20
-0.541394
 40
0.003
 41
0.003
 10
-1.42222
 20
-0.541394
 40
0.003
 41
0.003
  0
LWPOLYLINE
  5
1D9
100
AcDbEntity
  8
0
 62
     0
100
AcDbPolyline
 90
        2
 70
     0
 39
0.003
 10
-1.42222
 20
-0.541394
 40
0.003
 41
0.003
 10
-2.063063
 20
-0.924984
 40
0.003
 41
0.003
  0
LWPOLYLINE
  5
1DA
100
AcDbEntity
  8
0
 62
     0
100
AcDbPolyline
 90
        2
 70
     0
 39
0.003
 10
-2.063063
 20
-0.924984
 40
0.003
 41
0.003
 10
-1.866768
 20
-0.924984
 40
0.003
 41
0.003
  0
SPLINE
  5
1DB
100
AcDbEntity
  8
0
 62
     7
100
AcDbSpline
210
0.0
220
0.0
230
1.0
 70
     0
 71
     3
 72
     0
 73
     0
 74
    16
 44
0.0000000001
 11
-1.183767716535433
 21
-1.7800787401574802
 31
0.0
 11
-1.1849606299212598
 21
-1.7523976377952757
 31
0.0
 11
-1.1880511811023622
 21
-1.7166141732283464
 31
0.0
 11
-1.1937952755905512
 21
-1.6739999999999999
 31
0.0
 11
-1.2029645669291338
 21
-1.6258385826771653
 31
0.0
 11
-1.2162952755905512
 21
-1.5733976377952756
 31
0.0
 11
-1.2345748031496062
 21
-1.517976377952756
 31
0.0
 11
-1.2585433070866141
 21
-1.4608385826771653
 31
0.0
 11
-1.2889724409448819
 21
-1.4032834645669292
 31
0.0
 11
-1.3266062992125984
 21
-1.3465669291338582
 31
0.0
 11
-1.3722283464566929
 21
-1.2919842519685039
 31
0.0
 11
-1.4265787401574803
 21
-1.2408149606299212
 31
0.0
 11
-1.4904330708661417
 21
-1.1943385826771653
 31
0.0
 11
-1.5645393700787402
 21
-1.1538267716535433
 31
0.0
 11
-1.6496653543307087
 21
-1.1205748031496063
 31
0.0
 11
-1.7465629921259842
 21
-1.0958543307086615
 31
0.0
  0
LWPOLYLINE
  5
1DC
100
AcDbEntity
  8
0
 62
     7
100
AcDbPolyline
 90
        2
 70
     0
 39
0.003
 10
-1.746563
 20
-1.095854
 40
0.003
 41
0.003
 10
-1.856012
 20
-1.080945
 40
0.003
 41
0.003
  0
LWPOLYLINE
  5
1DD
100
AcDbEntity
  8
0
 62
     7
100
AcDbPolyline
 90
        2
 70
     0
 39
0.003
 10
-1.856012
 20
-1.080945
 40
0.003
 41
0.003
 10
-1.866768
 20
-0.924984
 40
0.003
 41
0.003
  0
LWPOLYLINE
  5
1DE
100
AcDbEntity
  8
0
 62
     7
100
AcDbPolyline
 90
        2
 70
     0
 39
0.003
 10
-1.866768
 20
-0.924984
 40
0.003
 41
0.003
 10
-2.063063
 20
-0.924984
 40
0.003
 41
0.003
  0
LWPOLYLINE
  5
1DF
100
AcDbEntity
  8
0
 62
     7
100
AcDbPolyline
 90
        2
 70
     0
 39
0.003
 10
-2.063063
 20
-0.924984
 40
0.003
 41
0.003
 10
-2.063063
 20
-1.780421
 40
0.003
 41
0.003
  0
LWPOLYLINE
  5
1E0
100
AcDbEntity
  8
0
 62
     7
100
AcDbPolyline
 90
        2
 70
     0
 39
0.003
 10
-2.063063
 20
-1.780421
 40
0.003
 41
0.003
 10
-1.183768
 20
-1.780079
 40
0.003
 41
0.003
  0
MTEXT
  5
1E1
100
AcDbEntity
  8
0
 62
     0
100
AcDbMText
 10
-2.24672
 20
-1.698465
 30
0.0
 40
0.166665
 41
0.0
 71
     1
 72
     1
  1
{\fBookman Old Style|b0|i0|c0|p32;BA  1458}
 73
     1
 44
1.0
  0
MTEXT
  5
1E2
100
AcDbEntity
  8
0
 62
     0
100
AcDbMText
 10
-2.24672
 20
-1.885965
 30
0.0
 40
0.166665
 41
0.0
 71
     1
 72
     1
  1
{\fBookman Old Style|b0|i0|c0|p32;7/8" x 7/8"}
 73
     1
 44
1.0
  0
LWPOLYLINE
  5
1E3
100
AcDbEntity
  8
0
 62
   253
100
AcDbPolyline
 90
        2
 70
     0
 39
0.003
 10
-1.233783
 20
0.143346
 40
0.003
 41
0.003
 10
-0.606693
 20
0.529878
 40
0.003
 41
0.003
  0
LWPOLYLINE
  5
1E4
100
AcDbEntity
  8
0
 62
   253
100
AcDbPolyline
 90
        2
 70
     0
 39
0.003
 10
-0.606693
 20
0.529878
 40
0.003
 41
0.003
 10
2.107386
 20
0.529878
 40
0.003
 41
0.003
  0
LWPOLYLINE
  5
1E5
100
AcDbEntity
  8
0
 62
   253
100
AcDbPolyline
 90
        2
 70
     0
 39
0.003
 10
2.107386
 20
0.529878
 40
0.003
 41
0.003
 10
1.480295
 20
0.143346
 40
0.003
 41
0.003
  0
LWPOLYLINE
  5
1E6
100
AcDbEntity
  8
0
 62
   253
100
AcDbPolyline
 90
        2
 70
     0
 39
0.003
 10
1.480295
 20
0.143346
 40
0.003
 41
0.003
 10
-1.233783
 20
0.143346
 40
0.003
 41
0.003
  0
LWPOLYLINE
  5
1E7
100
AcDbEntity
  8
0
 62
     0
100
AcDbPolyline
 90
        2
 70
     0
 39
0.003
 10
-1.233783
 20
0.143346
 40
0.003
 41
0.003
 10
-0.606693
 20
0.529878
 40
0.003
 41
0.003
  0
LWPOLYLINE
  5
1E8
100
AcDbEntity
  8
0
 62
     0
100
AcDbPolyline
 90
        2
 70
     0
 39
0.003
 10
-0.606693
 20
0.529878
 40
0.003
 41
0.003
 10
2.107386
 20
0.529878
 40
0.003
 41
0.003
  0
LWPOLYLINE
  5
1E9
100
AcDbEntity
  8
0
 62
     0
100
AcDbPolyline
 90
        2
 70
     0
 39
0.003
 10
2.107386
 20
0.529878
 40
0.003
 41
0.003
 10
1.480295
 20
0.143346
 40
0.003
 41
0.003
  0
LWPOLYLINE
  5
1EA
100
AcDbEntity
  8
0
 62
     0
100
AcDbPolyline
 90
        2
 70
     0
 39
0.003
 10
1.480295
 20
0.143346
 40
0.003
 41
0.003
 10
-1.233783
 20
0.143346
 40
0.003
 41
0.003
  0
LWPOLYLINE
  5
1EB
100
AcDbEntity
  8
0
 62
   254
100
AcDbPolyline
 90
        2
 70
     0
 39
0.003
 10
1.480295
 20
0.143346
 40
0.003
 41
0.003
 10
2.107386
 20
0.529878
 40
0.003
 41
0.003
  0
LWPOLYLINE
  5
1EC
100
AcDbEntity
  8
0
 62
   254
100
AcDbPolyline
 90
        2
 70
     0
 39
0.003
 10
2.107386
 20
0.529878
 40
0.003
 41
0.003
 10
2.107386
 20
-0.941953
 40
0.003
 41
0.003
  0
LWPOLYLINE
  5
1ED
100
AcDbEntity
  8
0
 62
   254
100
AcDbPolyline
 90
        2
 70
     0
 39
0.003
 10
2.107386
 20
-0.941953
 40
0.003
 41
0.003
 10
1.480295
 20
-1.328484
 40
0.003
 41
0.003
  0
LWPOLYLINE
  5
1EE
100
AcDbEntity
  8
0
 62
   254
100
AcDbPolyline
 90
        2
 70
     0
 39
0.003
 10
1.480295
 20
-1.328484
 40
0.003
 41
0.003
 10
1.480295
 20
0.143346
 40
0.003
 41
0.003
  0
LWPOLYLINE
  5
1EF
100
AcDbEntity
  8
0
 62
     0
100
AcDbPolyline
 90
        2
 70
     0
 39
0.003
 10
1.480295
 20
0.143346
 40
0.003
 41
0.003
 10
2.107386
 20
0.529878
 40
0.003
 41
0.003
  0
LWPOLYLINE
  5
1F0
100
AcDbEntity
  8
0
 62
     0
100
AcDbPolyline
 90
        2
 70
     0
 39
0.003
 10
2.107386
 20
0.529878
 40
0.003
 41
0.003
 10
2.107386
 20
-0.941953
 40
0.003
 41
0.003
  0
LWPOLYLINE
  5
1F1
100
AcDbEntity
  8
0
 62
     0
100
AcDbPolyline
 90
        2
 70
     0
 39
0.003
 10
2.107386
 20
-0.941953
 40
0.003
 41
0.003
 10
1.480295
 20
-1.328484
 40
0.003
 41
0.003
  0
LWPOLYLINE
  5
1F2
100
AcDbEntity
  8
0
 62
     0
100
AcDbPolyline
 90
        2
 70
     0
 39
0.003
 10
1.480295
 20
-1.328484
 40
0.003
 41
0.003
 10
1.480295
 20
0.143346
 40
0.003
 41
0.003
  0
LWPOLYLINE
  5
1F3
100
AcDbEntity
  8
0
 62
   253
100
AcDbPolyline
 90
        2
 70
     0
 39
0.003
 10
-1.233783
 20
0.143346
 40
0.003
 41
0.003
 10
-0.606693
 20
0.529878
 40
0.003
 41
0.003
  0
LWPOLYLINE
  5
1F4
100
AcDbEntity
  8
0
 62
   253
100
AcDbPolyline
 90
        2
 70
     0
 39
0.003
 10
-0.606693
 20
0.529878
 40
0.003
 41
0.003
 10
2.107386
 20
0.529878
 40
0.003
 41
0.003
  0
LWPOLYLINE
  5
1F5
100
AcDbEntity
  8
0
 62
   253
100
AcDbPolyline
 90
        2
 70
     0
 39
0.003
 10
2.107386
 20
0.529878
 40
0.003
 41
0.003
 10
1.480295
 20
0.143346
 40
0.003
 41
0.003
  0
LWPOLYLINE
  5
1F6
100
AcDbEntity
  8
0
 62
   253
100
AcDbPolyline
 90
        2
 70
     0
 39
0.003
 10
1.480295
 20
0.143346
 40
0.003
 41
0.003
 10
-1.233783
 20
0.143346
 40
0.003
 41
0.003
  0
LWPOLYLINE
  5
1F7
100
AcDbEntity
  8
0
 62
     0
100
AcDbPolyline
 90
        2
 70
     0
 39
0.003
 10
-1.233783
 20
0.143346
 40
0.003
 41
0.003
 10
-0.606693
 20
0.529878
 40
0.003
 41
0.003
  0
LWPOLYLINE
  5
1F8
100
AcDbEntity
  8
0
 62
     0
100
AcDbPolyline
 90
        2
 70
     0
 39
0.003
 10
-0.606693
 20
0.529878
 40
0.003
 41
0.003
 10
2.107386
 20
0.529878
 40
0.003
 41
0.003
  0
LWPOLYLINE
  5
1F9
100
AcDbEntity
  8
0
 62
     0
100
AcDbPolyline
 90
        2
 70
     0
 39
0.003
 10
2.107386
 20
0.529878
 40
0.003
 41
0.003
 10
1.480295
 20
0.143346
 40
0.003
 41
0.003
  0
LWPOLYLINE
  5
1FA
100
AcDbEntity
  8
0
 62
     0
100
AcDbPolyline
 90
        2
 70
     0
 39
0.003
 10
1.480295
 20
0.143346
 40
0.003
 41
0.003
 10
-1.233783
 20
0.143346
 40
0.003
 41
0.003
  0
LWPOLYLINE
  5
1FB
100
AcDbEntity
  8
0
 62
   254
100
AcDbPolyline
 90
        2
 70
     0
 39
0.003
 10
1.480295
 20
0.143346
 40
0.003
 41
0.003
 10
2.107386
 20
0.529878
 40
0.003
 41
0.003
  0
LWPOLYLINE
  5
1FC
100
AcDbEntity
  8
0
 62
   254
100
AcDbPolyline
 90
        2
 70
     0
 39
0.003
 10
2.107386
 20
0.529878
 40
0.003
 41
0.003
 10
2.107386
 20
-0.941953
 40
0.003
 41
0.003
  0
LWPOLYLINE
  5
1FD
100
AcDbEntity
  8
0
 62
   254
100
AcDbPolyline
 90
        2
 70
     0
 39
0.003
 10
2.107386
 20
-0.941953
 40
0.003
 41
0.003
 10
1.480295
 20
-1.328484
 40
0.003
 41
0.003
  0
LWPOLYLINE
  5
1FE
100
AcDbEntity
  8
0
 62
   254
100
AcDbPolyline
 90
        2
 70
     0
 39
0.003
 10
1.480295
 20
-1.328484
 40
0.003
 41
0.003
 10
1.480295
 20
0.143346
 40
0.003
 41
0.003
  0
LWPOLYLINE
  5
1FF
100
AcDbEntity
  8
0
 62
     0
100
AcDbPolyline
 90
        2
 70
     0
 39
0.003
 10
1.480295
 20
0.143346
 40
0.003
 41
0.003
 10
2.107386
 20
0.529878
 40
0.003
 41
0.003
  0
LWPOLYLINE
  5
200
100
AcDbEntity
  8
0
 62
     0
100
AcDbPolyline
 90
        2
 70
     0
 39
0.003
 10
2.107386
 20
0.529878
 40
0.003
 41
0.003
 10
2.107386
 20
-0.941953
 40
0.003
 41
0.003
  0
LWPOLYLINE
  5
201
100
AcDbEntity
  8
0
 62
     0
100
AcDbPolyline
 90
        2
 70
     0
 39
0.003
 10
2.107386
 20
-0.941953
 40
0.003
 41
0.003
 10
1.480295
 20
-1.328484
 40
0.003
 41
0.003
  0
LWPOLYLINE
  5
202
100
AcDbEntity
  8
0
 62
     0
100
AcDbPolyline
 90
        2
 70
     0
 39
0.003
 10
1.480295
 20
-1.328484
 40
0.003
 41
0.003
 10
1.480295
 20
0.143346
 40
0.003
 41
0.003
  0
SPLINE
  5
203
100
AcDbEntity
  8
0
 62
     7
100
AcDbSpline
210
0.0
220
0.0
230
1.0
 70
     0
 71
     3
 72
     0
 73
     0
 74
    16
 44
0.0000000001
 11
-0.354488188976378
 21
-1.3278188976377954
 31
0.0
 11
-0.3556811023622047
 21
-1.3001377952755906
 31
0.0
 11
-0.3587716535433071
 21
-1.2643543307086613
 31
0.0
 11
-0.3645157480314961
 21
-1.2217401574803151
 31
0.0
 11
-0.3736850393700787
 21
-1.1735787401574802
 31
0.0
 11
-0.3870157480314961
 21
-1.1211377952755905
 31
0.0
 11
-0.4052952755905512
 21
-1.0657165354330709
 31
0.0
 11
-0.4292637795275591
 21
-1.0085787401574804
 31
0.0
 11
-0.4596929133858268
 21
-0.9510236220472441
 31
0.0
 11
-0.4973267716535433
 21
-0.8943070866141732
 31
0.0
 11
-0.5429488188976378
 21
-0.8397244094488189
 31
0.0
 11
-0.5972992125984252
 21
-0.7885551181102363
 31
0.0
 11
-0.6611535433070866
 21
-0.7420787401574803
 31
0.0
 11
-0.735259842519685
 21
-0.7015669291338583
 31
0.0
 11
-0.8203858267716535
 21
-0.6683149606299212
 31
0.0
 11
-0.9172834645669291
 21
-0.6435944881889764
 31
0.0
  0
LWPOLYLINE
  5
204
100
AcDbEntity
  8
0
 62
     7
100
AcDbPolyline
 90
        2
 70
     0
 39
0.003
 10
-0.917283
 20
-0.643594
 40
0.003
 41
0.003
 10
-1.026732
 20
-0.628685
 40
0.003
 41
0.003
  0
LWPOLYLINE
  5
205
100
AcDbEntity
  8
0
 62
     7
100
AcDbPolyline
 90
        2
 70
     0
 39
0.003
 10
-1.026732
 20
-0.628685
 40
0.003
 41
0.003
 10
-1.037488
 20
-0.472724
 40
0.003
 41
0.003
  0
LWPOLYLINE
  5
206
100
AcDbEntity
  8
0
 62
     7
100
AcDbPolyline
 90
        2
 70
     0
 39
0.003
 10
-1.037488
 20
-0.472724
 40
0.003
 41
0.003
 10
-1.233783
 20
-0.472724
 40
0.003
 41
0.003
  0
LWPOLYLINE
  5
207
100
AcDbEntity
  8
0
 62
     7
100
AcDbPolyline
 90
        2
 70
     0
 39
0.003
 10
-1.233783
 20
-0.472724
 40
0.003
 41
0.003
 10
-1.233783
 20
0.143346
 40
0.003
 41
0.003
  0
LWPOLYLINE
  5
208
100
AcDbEntity
  8
0
 62
     7
100
AcDbPolyline
 90
        2
 70
     0
 39
0.003
 10
-1.233783
 20
0.143346
 40
0.003
 41
0.003
 10
1.480295
 20
0.143346
 40
0.003
 41
0.003
  0
LWPOLYLINE
  5
209
100
AcDbEntity
  8
0
 62
     7
100
AcDbPolyline
 90
        2
 70
     0
 39
0.003
 10
1.480295
 20
0.143346
 40
0.003
 41
0.003
 10
1.480295
 20
-1.328484
 40
0.003
 41
0.003
  0
LWPOLYLINE
  5
20A
100
AcDbEntity
  8
0
 62
     7
100
AcDbPolyline
 90
        2
 70
     0
 39
0.003
 10
1.480295
 20
-1.328484
 40
0.003
 41
0.003
 10
-0.354488
 20
-1.327819
 40
0.003
 41
0.003
  0
MTEXT
  5
20B
100
AcDbEntity
  8
0
 62
     0
100
AcDbMText
 10
-0.325583
 20
-1.253409
 30
0.0
 40
0.166665
 41
0.0
 71
     1
 72
     1
  1
{\fBookman Old Style|b0|i0|c0|p32;BA  1459}
 73
     1
 44
1.0
  0
MTEXT
  5
20C
100
AcDbEntity
  8
0
 62
     0
100
AcDbMText
 10
-0.318933
 20
-1.440909
 30
0.0
 40
0.166665
 41
0.0
 71
     1
 72
     1
  1
{\fBookman Old Style|b0|i0|c0|p32;Coping Knife}
 73
     1
 44
1.0
  0
MTEXT
  5
20D
100
AcDbEntity
  8
0
 62
     0
100
AcDbMText
 10
-0.318933
 20
-1.628409
 30
0.0
 40
0.166665
 41
0.0
 71
     1
 72
     1
  1
{\fBookman Old Style|b0|i0|c0|p32;for BA  1458}
 73
     1
 44
1.0
  0
ENDSEC
  0
SECTION
  2
OBJECTS
  0
DICTIONARY
  5
19
100
AcDbDictionary
280
     0
281
     1
  3
ACAD_GROUP
350
1A
  3
ACAD_MLINESTYLE
350
1B
  3
ACAD_LAYOUT
350
1E
  3
ACAD_PLOTSETTINGS
350
22
  3
ACAD_PLOTSTYLENAME
350
1F
  3
ACAD_WIPEOUT_VARS
350
23
  0
DICTIONARY
  5
1A
102
{ACAD_REACTORS
330
19
102
}
100
AcDbDictionary
280
     0
281
     1
  0
DICTIONARY
  5
1B
102
{ACAD_REACTORS
330
19
102
}
100
AcDbDictionary
280
     0
281
     1
  3
Standard
350
1C
  0
MLINESTYLE
  5
1C
102
{ACAD_REACTORS
330
1B
102
}
100
AcDbMlineStyle
  2
Standard
 70
     0
  3

 62
     0
 51
90.0
 52
90.0
 71
     2
 49
0.5
 62
   256
  6
BYLAYER
 49
-0.5
 62
   256
  6
BYLAYER
  0
ACDBDICTIONARYWDFLT
  5
1F
102
{ACAD_REACTORS
330
19
102
}
100
AcDbDictionary
281
     1
  3
Normal
350
1D
100
AcDbDictionaryWithDefault
340
1D
  0
ACDBPLACEHOLDER
  5
1D
102
{ACAD_REACTORS
330
1F
102
}
  0
LAYOUT
  5
20
102
{ACAD_REACTORS
330
1E
102
}
100
AcDbPlotSettings
  1

  2

  4

  6

 40
0.0
 41
0.0
 42
0.0
 43
0.0
 44
0.0
 45
0.0
 46
0.0
 47
0.0
 48
0.0
 49
0.0
140
0.0
141
0.0
142
1.0
143
1.0
 70
  1024
 72
     0
 73
     0
 74
     0
  7

 75
     0
147
1.0
148
0.0
149
0.0
100
AcDbLayout
  1
Model
 70
     0
 71
     0
 10
0.0
 20
0.0
 11
0.0
 21
0.0
 12
0.0
 22
0.0
 32
0.0
 14
0.0
 24
0.0
 34
0.0
 15
0.0
 25
0.0
 35
0.0
146
0.0
 13
0.0
 23
0.0
 33
0.0
 16
0.0
 26
0.0
 36
0.0
 17
0.0
 27
0.0
 37
0.0
 76
     0
330
A
331
0
345
0
346
0
  0
LAYOUT
  5
21
102
{ACAD_REACTORS
330
1E
102
}
100
AcDbPlotSettings
  1

  2

  4

  6

 40
0.0
 41
0.0
 42
0.0
 43
0.0
 44
0.0
 45
0.0
 46
0.0
 47
0.0
 48
0.0
 49
0.0
140
0.0
141
0.0
142
1.0
143
1.0
 70
     0
 72
     0
 73
     0
 74
     0
  7

 75
     0
147
1.0
148
0.0
149
0.0
100
AcDbLayout
  1
Layout1
 70
     0
 71
     0
 10
0.0
 20
0.0
 11
0.0
 21
0.0
 12
0.0
 22
0.0
 32
0.0
 14
0.0
 24
0.0
 34
0.0
 15
0.0
 25
0.0
 35
0.0
146
0.0
 13
0.0
 23
0.0
 33
0.0
 16
0.0
 26
0.0
 36
0.0
 17
0.0
 27
0.0
 37
0.0
 76
     0
330
B
331
0
345
0
346
0
  0
DICTIONARY
  5
1E
102
{ACAD_REACTORS
330
19
102
}
100
AcDbDictionary
280
     0
281
     1
  3
Layout1
350
21
  3
Model
350
20
  0
DICTIONARY
  5
22
102
{ACAD_REACTORS
330
19
102
}
100
AcDbDictionary
280
     0
281
     1
  0
WIPEOUTVARIABLES
  5
23
100
AcDbWipeoutVariables
 70
     1
  0
ENDSEC
  0
EOF
