  0
SECTION
  2
HEADER
  9
$ACADVER
  1
AC1015
  9
$ACADMAINTVER
 70
     6
  9
$DWGCODEPAGE
  3
DOS850
  9
$INSBASE
 10
0.0
 20
0.0
 30
0.0
  9
$EXTMIN
 10
1.000000E+20
 20
1.000000E+20
 30
1.000000E+20
  9
$EXTMAX
 10
-1.000000E+20
 20
-1.000000E+20
 30
-1.000000E+20
  9
$LIMMIN
 10
0.0
 20
0.0
  9
$LIMMAX
 10
0.0
 20
0.0
  9
$ORTHOMODE
 70
     0
  9
$REGENMODE
 70
     1
  9
$FILLMODE
 70
     1
  9
$QTEXTMODE
 70
     0
  9
$MIRRTEXT
 70
     1
  9
$LTSCALE
 40
1.0
  9
$ATTMODE
 70
     1
  9
$TEXTSIZE
 40
0.2
  9
$TRACEWID
 40
0.05
  9
$TEXTSTYLE
  7
Standard
  9
$CLAYER
  8
0
  9
$CELTYPE
  6
Continuous
  9
$CECOLOR
 62
   256
  9
$CELTSCALE
 40
1.0
  9
$DISPSILH
 70
     0
  9
$DIMSCALE
 40
1.0
  9
$DIMASZ
 40
0.18
  9
$DIMEXO
 40
0.0625
  9
$DIMDLI
 40
0.38
  9
$DIMRND
 40
0.0
  9
$DIMDLE
 40
0.0
  9
$DIMEXE
 40
0.18
  9
$DIMTP
 40
0.0
  9
$DIMTM
 40
0.0
  9
$DIMTXT
 40
0.18
  9
$DIMCEN
 40
0.09
  9
$DIMTSZ
 40
0.0
  9
$DIMTOL
 70
     0
  9
$DIMLIM
 70
     0
  9
$DIMTIH
 70
     1
  9
$DIMTOH
 70
     1
  9
$DIMSE1
 70
     0
  9
$DIMSE2
 70
     0
  9
$DIMTAD
 70
     0
  9
$DIMZIN
 70
     0
  9
$DIMBLK
  1

  9
$DIMASO
 70
     1
  9
$DIMSHO
 70
     1
  9
$DIMPOST
  1

  9
$DIMAPOST
  1

  9
$DIMALT
 70
     0
  9
$DIMALTD
 70
     2
  9
$DIMALTF
 40
25.4
  9
$DIMLFAC
 40
1.0
  9
$DIMTOFL
 70
     0
  9
$DIMTVP
 40
0.0
  9
$DIMTIX
 70
     0
  9
$DIMSOXD
 70
     0
  9
$DIMSAH
 70
     0
  9
$DIMBLK1
  1

  9
$DIMBLK2
  1

  9
$DIMSTYLE
  2
Standard
  9
$DIMCLRD
 70
     0
  9
$DIMCLRE
 70
     0
  9
$DIMCLRT
 70
     0
  9
$DIMTFAC
 40
1.0
  9
$DIMGAP
 40
0.09
  9
$DIMJUST
 70
     0
  9
$DIMSD1
 70
     0
  9
$DIMSD2
 70
     0
  9
$DIMTOLJ
 70
     1
  9
$DIMTZIN
 70
     0
  9
$DIMALTZ
 70
     0
  9
$DIMALTTZ
 70
     0
  9
$DIMUPT
 70
     0
  9
$DIMDEC
 70
     4
  9
$DIMTDEC
 70
     4
  9
$DIMALTU
 70
     2
  9
$DIMALTTD
 70
     2
  9
$DIMTXSTY
  7
Standard
  9
$DIMAUNIT
 70
     0
  9
$DIMADEC
 70
     0
  9
$DIMALTRND
 40
0.0
  9
$DIMAZIN
 70
     0
  9
$DIMDSEP
 70
     0
  9
$DIMATFIT
 70
     3
  9
$DIMFRAC
 70
     0
  9
$DIMLDRBLK
  1

  9
$DIMLUNIT
 70
     2
  9
$DIMLWD
 70
     0
  9
$DIMLWE
 70
     0
  9
$DIMTMOVE
 70
     0
  9
$LUNITS
 70
     2
  9
$LUPREC
 70
     4
  9
$SKETCHINC
 40
0.1
  9
$FILLETRAD
 40
0.0
  9
$AUNITS
 70
     0
  9
$AUPREC
 70
     0
  9
$MENU
  1
acad
  9
$ELEVATION
 40
0.0
  9
$PELEVATION
 40
0.0
  9
$THICKNESS
 40
0.0
  9
$LIMCHECK
 70
     0
  9
$CHAMFERA
 40
0.0
  9
$CHAMFERB
 40
0.0
  9
$CHAMFERC
 40
0.0
  9
$CHAMFERD
 40
0.0
  9
$SKPOLY
 70
     0
  9
$TDCREATE
 40
0.000000000
  9
$TDUCREATE
 40
0.000000000
  9
$TDUPDATE
 40
0.000000000
  9
$TDUUPDATE
 40
0.000000000
  9
$TDINDWG
 40
0.0000000000
  9
$TDUSRTIMER
 40
0.0000000000
  9
$USRTIMER
 70
     1
  9
$ANGBASE
 50
0.0
  9
$ANGDIR
 70
     0
  9
$PDMODE
 70
     0
  9
$PDSIZE
 40
0.0
  9
$PLINEWID
 40
0.0
  9
$SPLFRAME
 70
     0
  9
$SPLINETYPE
 70
     6
  9
$SPLINESEGS
 70
     8
  9
$HANDSEED
  5
492
  9
$SURFTAB1
 70
     6
  9
$SURFTAB2
 70
     6
  9
$SURFTYPE
 70
     6
  9
$SURFU
 70
     6
  9
$SURFV
 70
     6
  9
$UCSBASE
  2

  9
$UCSNAME
  2

  9
$UCSORG
 10
0.0
 20
0.0
 30
0.0
  9
$UCSXDIR
 10
1.0
 20
0.0
 30
0.0
  9
$UCSYDIR
 10
0.0
 20
1.0
 30
0.0
  9
$UCSORTHOREF
  2

  9
$UCSORTHOVIEW
 70
     0
  9
$UCSORGTOP
 10
0.0
 20
0.0
 30
0.0
  9
$UCSORGBOTTOM
 10
0.0
 20
0.0
 30
0.0
  9
$UCSORGLEFT
 10
0.0
 20
0.0
 30
0.0
  9
$UCSORGRIGHT
 10
0.0
 20
0.0
 30
0.0
  9
$UCSORGFRONT
 10
0.0
 20
0.0
 30
0.0
  9
$UCSORGBACK
 10
0.0
 20
0.0
 30
0.0
  9
$PUCSBASE
  2

  9
$PUCSNAME
  2

  9
$PUCSORG
 10
0.0
 20
0.0
 30
0.0
  9
$PUCSXDIR
 10
1.0
 20
0.0
 30
0.0
  9
$PUCSYDIR
 10
0.0
 20
1.0
 30
0.0
  9
$PUCSORTHOREF
  2

  9
$PUCSORTHOVIEW
 70
     0
  9
$PUCSORGTOP
 10
0.0
 20
0.0
 30
0.0
  9
$PUCSORGBOTTOM
 10
0.0
 20
0.0
 30
0.0
  9
$PUCSORGLEFT
 10
0.0
 20
0.0
 30
0.0
  9
$PUCSORGRIGHT
 10
0.0
 20
0.0
 30
0.0
  9
$PUCSORGFRONT
 10
0.0
 20
0.0
 30
0.0
  9
$PUCSORGBACK
 10
0.0
 20
0.0
 30
0.0
  9
$USERI1
 70
     0
  9
$USERI2
 70
     0
  9
$USERI3
 70
     0
  9
$USERI4
 70
     0
  9
$USERI5
 70
     0
  9
$USERR1
 40
0.0
  9
$USERR2
 40
0.0
  9
$USERR3
 40
0.0
  9
$USERR4
 40
0.0
  9
$USERR5
 40
0.0
  9
$WORLDVIEW
 70
     1
  9
$SHADEDGE
 70
     3
  9
$SHADEDIF
 70
    70
  9
$TILEMODE
 70
     1
  9
$MAXACTVP
 70
    16
  9
$PINSBASE
 10
0.0
 20
0.0
 30
0.0
  9
$PLIMCHECK
 70
     0
  9
$PEXTMIN
 10
1.000000E+20
 20
1.000000E+20
 30
1.000000E+20
  9
$PEXTMAX
 10
-1.000000E+20
 20
-1.000000E+20
 30
-1.000000E+20
  9
$PLIMMIN
 10
0.0
 20
0.0
  9
$PLIMMAX
 10
12.0
 20
9.0
  9
$UNITMODE
 70
     0
  9
$VISRETAIN
 70
     0
  9
$PLINEGEN
 70
     1
  9
$PSLTSCALE
 70
     0
  9
$TREEDEPTH
 70
  3020
  9
$CMLSTYLE
  2
Standard
  9
$CMLJUST
 70
     0
  9
$CMLSCALE
 40
1.0
  9
$PROXYGRAPHICS
 70
     0
  9
$MEASUREMENT
 70
     0
  9
$CELWEIGHT
370
     0
  9
$ENDCAPS
280
     0
  9
$JOINSTYLE
280
     0
  9
$LWDISPLAY
290
     0
  9
$INSUNITS
 70
     0
  9
$HYPERLINKBASE
  1

  9
$XEDIT
290
     1
  9
$CEPSNTYPE
380
     0
  9
$PSTYLEMODE
290
     1
  9
$FINGERPRINTGUID
  2

  9
$VERSIONGUID
  2

  9
$EXTNAMES
290
     1
  9
$PSVPSCALE
 40
0.0
  0
ENDSEC
  0
SECTION
  2
CLASSES
  0
CLASS
  1
LWPOLYLINE
  2
AcDbPolyline
  3
AutoCAD 2000
 90
        0
280
     0
281
     1
  0
CLASS
  1
IMAGE
  2
AcDbRasterImage
  3
ISM
 90
    32895
280
     0
281
     1
  0
CLASS
  1
OLE2FRAME
  2
AcDbOle2Frame
  3
AutoCAD 2000
 90
    32768
280
     0
281
     1
  0
CLASS
  1
HATCH
  2
AcDbHatch
  3
AutoCAD 2000
 90
    32768
280
     0
281
     1
  0
CLASS
  1
DICTIONARYVAR
  2
AcDbDictionaryVar
  3
AutoCAD 2000
 90
    32768
280
     0
281
     0
  0
CLASS
  1
RASTERVARIABLES
  2
AcDbRasterVariables
  3
ISM
 90
    32768
280
     0
281
     0
  0
CLASS
  1
IMAGEDEF
  2
AcDbRasterImageDef
  3
ISM
 90
    32768
280
     0
281
     0
  0
CLASS
  1
IMAGEDEF_REACTOR
  2
AcDbRasterImageDefReactor
  3
ISM
 90
    32769
280
     0
281
     0
  0
CLASS
  1
IDBUFFER
  2
AcDbIdBuffer
  3
AutoCAD 2000
 90
    32768
280
     0
281
     0
  0
CLASS
  1
SPATIAL_FILTER
  2
AcDbSpatialFilter
  3
AutoCAD 2000
 90
    32768
280
     0
281
     0
  0
CLASS
  1
XRECORD
  2
AcDbXrecord
  3
AutoCAD 2000
 90
    32768
280
     0
281
     0
  0
CLASS
  1
SORTENTSTABLE
  2
AcDbSortentsTable
  3
AutoCAD 2000
 90
    32768
280
     0
281
     0
  0
CLASS
  1
LAYER_INDEX
  2
AcDbLayerIndex
  3
AutoCAD 2000
 90
    32768
280
     0
281
     0
  0
CLASS
  1
SPATIAL_INDEX
  2
AcDbSpatialIndex
  3
AutoCAD 2000
 90
    32768
280
     0
281
     0
  0
CLASS
  1
OBJECT_PTR
  2
CAseDLPNTableRecord
  3
"ASE-LPNTableRecord"
 90
    32769
280
     0
281
     0
  0
CLASS
  1
LAYOUT
  2
AcDbLayout
  3
AutoCAD 2000
 90
        0
280
     0
281
     0
  0
CLASS
  1
PLOTSETTINGS
  2
AcDbPlotSettings
  3
AutoCAD 2000
 90
    32768
280
     0
281
     0
  0
CLASS
  1
ACDBDICTIONARYWDFLT
  2
AcDbDictionaryWithDefault
  3
AutoCAD 2000
 90
        0
280
     0
281
     0
  0
CLASS
  1
ACDBPLACEHOLDER
  2
AcDbPlaceHolder
  3
AutoCAD 2000
 90
        0
280
     0
281
     0
  0
CLASS
  1
VBA_PROJECT
  2
AcDbVbaProject
  3
acadvba
 90
    32768
280
     0
281
     0
  0
CLASS
  1
WIPEOUT
  2
AcDbWipeout
  3
WipeOut|AutoCAD Express Tool|expresstools@autodesk.com
 90
    32895
280
     0
281
     1
  0
CLASS
  1
WIPEOUTVARIABLES
  2
AcDbWipeoutVariables
  3
WipeOut|AutoCAD Express Tool|expresstools@autodesk.com
 90
        0
280
     0
281
     0
  0
CLASS
  1
RTEXT
  2
RText
  3
RText|AutoCAD Express Tool|expresstools@autodesk.com
 90
    32768
280
     0
281
     1
  0
CLASS
  1
ARCALIGNEDTEXT
  2
AcDbArcAlignedText
  3
ATEXT|AutoCAD Express Tool|expresstools@autodesk.com
 90
    32768
280
     0
281
     1
  0
ENDSEC
  0
SECTION
  2
TABLES
  0
TABLE
  2
VPORT
  5
7
100
AcDbSymbolTable
 70
     1
  0
VPORT
  5
15
100
AcDbSymbolTableRecord
100
AcDbViewportTableRecord
  2
*ACTIVE
 70
     0
 10
0.0
 20
0.0
 11
1.0
 21
1.0
 12
6.591288
 22
4.579184
 13
0.0
 23
0.0
 14
1.0
 24
1.0
 15
0.0
 25
0.0
 16
0.0
 26
0.0
 36
1.0
 17
0.0
 27
0.0
 37
0.0
 40
9.158369
 41
0.688564
 42
50.0
 43
0.0
 44
0.0
 50
0.0
 51
0.0
 71
     0
 72
   100
 73
     1
 74
     1
 75
     0
 76
     0
 77
     0
 78
     0
281
     0
 65
     0
110
0.0
120
0.0
130
0.0
111
1.0
121
0.0
131
0.0
112
0.0
122
1.0
132
0.0
345
0
346
0
 79
     0
146
0.0
  0
ENDTAB
  0
TABLE
  2
LTYPE
  5
4
100
AcDbSymbolTable
 70
     3
  0
LTYPE
  5
11
100
AcDbSymbolTableRecord
100
AcDbLinetypeTableRecord
  2
ByBlock
 70
    64
  3

 72
    65
 73
     0
 40
0.0
  0
LTYPE
  5
12
100
AcDbSymbolTableRecord
100
AcDbLinetypeTableRecord
  2
ByLayer
 70
    64
  3

 72
    65
 73
     0
 40
0.0
  0
LTYPE
  5
13
100
AcDbSymbolTableRecord
100
AcDbLinetypeTableRecord
  2
Continuous
 70
    64
  3
Solid line
 72
    65
 73
     0
 40
0.0
  0
ENDTAB
  0
TABLE
  2
LAYER
  5
2
100
AcDbSymbolTable
 70
     1
  0
LAYER
  5
14
100
AcDbSymbolTableRecord
100
AcDbLayerTableRecord
  2
0
 70
     0
 62
     7
  6
Continuous
290
     1
370
    -3
390
1D
  0
ENDTAB
  0
TABLE
  2
STYLE
  5
3
100
AcDbSymbolTable
 70
     1
  0
STYLE
  5
17
100
AcDbSymbolTableRecord
100
AcDbTextStyleTableRecord
  2
Standard
 70
     0
 40
0.0
 41
1.0
 50
0.0
 71
     0
 42
0.0
  3
txt
  4

  0
ENDTAB
  0
TABLE
  2
VIEW
  5
5
100
AcDbSymbolTable
 70
     0
  0
ENDTAB
  0
TABLE
  2
UCS
  5
6
100
AcDbSymbolTable
 70
     0
  0
ENDTAB
  0
TABLE
  2
APPID
  5
8
100
AcDbSymbolTable
 70
     1
  0
APPID
  5
16
100
AcDbSymbolTableRecord
100
AcDbRegAppTableRecord
  2
ACAD
 70
     0
  0
ENDTAB
  0
TABLE
  2
DIMSTYLE
  5
9
100
AcDbSymbolTable
 70
     1
100
AcDbDimStyleTable
 71
     0
  0
DIMSTYLE
105
18
100
AcDbSymbolTableRecord
100
AcDbDimStyleTableRecord
  2
Standard
 70
     0
  3

  4

 40
1.0
 41
0.18
 42
0.0625
 43
0.38
 44
0.18
 45
0.0
 46
0.0
 47
0.0
 48
0.0
 71
     0
 72
     0
 73
     1
 74
     1
 75
     0
 76
     0
 77
     0
 78
     0
 79
     0
140
0.18
141
0.09
142
0.0
143
25.4
144
1.0
145
0.0
146
1.0
147
0.09
148
0.0
170
     0
171
     2
172
     0
173
     0
174
     0
175
     0
176
     0
177
     0
178
     0
179
     0
271
     4
272
     4
273
     2
274
     2
275
     0
276
     0
277
     2
278
    46
279
     0
280
     0
281
     0
282
     0
283
     1
284
     0
285
     0
286
     0
288
     0
340
17
341
0
342
0
343
0
344
0
371
    -2
372
    -2
  0
ENDTAB
  0
TABLE
  2
BLOCK_RECORD
  5
1
100
AcDbSymbolTable
 70
     0
  0
BLOCK_RECORD
  5
A
100
AcDbSymbolTableRecord
100
AcDbBlockTableRecord
  2
*MODEL_SPACE
340
20
  0
BLOCK_RECORD
  5
B
100
AcDbSymbolTableRecord
100
AcDbBlockTableRecord
  2
*PAPER_SPACE
340
21
  0
ENDTAB
  0
ENDSEC
  0
SECTION
  2
BLOCKS
  0
BLOCK
  5
D
100
AcDbEntity
  8
0
100
AcDbBlockBegin
  2
*MODEL_SPACE
 70
     0
 10
0.0
 20
0.0
 30
0.0
  3
*MODEL_SPACE
  1

  0
ENDBLK
  5
E
100
AcDbEntity
  8
0
100
AcDbBlockEnd
  0
BLOCK
  5
F
100
AcDbEntity
 67
     1
  8
0
100
AcDbBlockBegin
  2
*PAPER_SPACE
 70
     0
 10
0.0
 20
0.0
 30
0.0
  3
*PAPER_SPACE
  1

  0
ENDBLK
  5
10
100
AcDbEntity
 67
     1
  8
0
100
AcDbBlockEnd
  0
ENDSEC
  0
SECTION
  2
ENTITIES
  0
LWPOLYLINE
  5
24
100
AcDbEntity
  8
0
 62
     0
100
AcDbPolyline
 90
        2
 70
     0
 39
0.003
 10
-0.37328
 20
2.692551
 40
0.003
 41
0.003
 10
0.741343
 20
2.692551
 40
0.003
 41
0.003
  0
LWPOLYLINE
  5
25
100
AcDbEntity
  8
0
 62
     0
100
AcDbPolyline
 90
        2
 70
     0
 39
0.003
 10
0.741343
 20
2.692551
 40
0.003
 41
0.003
 10
0.741343
 20
3.290461
 40
0.003
 41
0.003
  0
LWPOLYLINE
  5
26
100
AcDbEntity
  8
0
 62
     0
100
AcDbPolyline
 90
        2
 70
     0
 39
0.003
 10
0.741343
 20
3.290461
 40
0.003
 41
0.003
 10
0.680709
 20
3.290461
 40
0.003
 41
0.003
  0
SPLINE
  5
27
100
AcDbEntity
  8
0
 62
     0
100
AcDbSpline
210
0.0
220
0.0
230
1.0
 70
     0
 71
     3
 72
     0
 73
     0
 74
    16
 44
0.0000000001
 11
0.6807086614173228
 21
3.29046062992126
 31
0.0
 11
0.6774724409448819
 21
3.3292874015748031
 31
0.0
 11
0.6683543307086615
 21
3.3628385826771652
 31
0.0
 11
0.6541929133858268
 21
3.3911338582677164
 31
0.0
 11
0.6358346456692914
 21
3.4142047244094487
 31
0.0
 11
0.6141062992125984
 21
3.4320669291338581
 31
0.0
 11
0.5898622047244094
 21
3.444759842519685
 31
0.0
 11
0.5639330708661418
 21
3.452303149606299
 31
0.0
 11
0.5371692913385827
 21
3.4547322834645668
 31
0.0
 11
0.5103976377952756
 21
3.4520590551181103
 31
0.0
 11
0.4844724409448819
 21
3.4443267716535435
 31
0.0
 11
0.4602283464566929
 21
3.4315551181102362
 31
0.0
 11
0.438511811023622
 21
3.4137755905511811
 31
0.0
 11
0.4201496062992126
 21
3.3910078740157479
 31
0.0
 11
0.406
 21
3.3632834645669289
 31
0.0
 11
0.3968897637795276
 21
3.3306259842519683
 31
0.0
  0
LWPOLYLINE
  5
28
100
AcDbEntity
  8
0
 62
     0
100
AcDbPolyline
 90
        2
 70
     0
 39
0.003
 10
0.39689
 20
3.330626
 40
0.003
 41
0.003
 10
0.393673
 20
3.293071
 40
0.003
 41
0.003
  0
LWPOLYLINE
  5
29
100
AcDbEntity
  8
0
 62
     0
100
AcDbPolyline
 90
        2
 70
     0
 39
0.003
 10
0.393673
 20
3.293071
 40
0.003
 41
0.003
 10
0.29065
 20
3.293071
 40
0.003
 41
0.003
  0
SPLINE
  5
2A
100
AcDbEntity
  8
0
 62
     0
100
AcDbSpline
210
0.0
220
0.0
230
1.0
 70
     0
 71
     3
 72
     0
 73
     0
 74
    32
 44
0.0000000001
 11
0.2906496062992126
 21
3.2930708661417323
 31
0.0
 11
0.2874448818897638
 21
3.2468031496062992
 31
0.0
 11
0.281763779527559
 21
3.2019803149606298
 31
0.0
 11
0.2737086614173228
 21
3.1588110236220475
 31
0.0
 11
0.2634133858267717
 21
3.1175039370078741
 31
0.0
 11
0.2509724409448819
 21
3.0782598425196852
 31
0.0
 11
0.2365196850393701
 21
3.0412952755905511
 31
0.0
 11
0.2201614173228347
 21
3.0068110236220473
 31
0.0
 11
0.2020196850393701
 21
2.9750275590551181
 31
0.0
 11
0.1822047244094488
 21
2.9461377952755905
 31
0.0
 11
0.1608346456692913
 21
2.9203622047244093
 31
0.0
 11
0.1380236220472441
 21
2.8979015748031496
 31
0.0
 11
0.1139015748031496
 21
2.878972440944882
 31
0.0
 11
0.0885629921259843
 21
2.8637716535433069
 31
0.0
 11
0.0621417322834646
 21
2.8525236220472441
 31
0.0
 11
0.034744094488189
 21
2.8454173228346455
 31
0.0
 11
0.006496062992126
 21
2.8426811023622047
 31
0.0
 11
0.0016535433070866
 21
2.8760393700787401
 31
0.0
 11
-0.0084055118110236
 21
2.9049842519685041
 31
0.0
 11
-0.0229133858267717
 21
2.9294842519685038
 31
0.0
 11
-0.0411141732283465
 21
2.9495118110236223
 31
0.0
 11
-0.0622244094488189
 21
2.9650275590551183
 31
0.0
 11
-0.085492125984252
 21
2.9760118110236222
 31
0.0
 11
-0.1101377952755906
 21
2.9824251968503939
 31
0.0
 11
-0.1354015748031496
 21
2.9842480314960631
 31
0.0
 11
-0.1605
 21
2.9814291338582679
 31
0.0
 11
-0.1846811023622047
 21
2.973956692913386
 31
0.0
 11
-0.2071732283464567
 21
2.9617874015748034
 31
0.0
 11
-0.2272125984251968
 21
2.9449055118110237
 31
0.0
 11
-0.2440196850393701
 21
2.923259842519685
 31
0.0
 11
-0.2568385826771654
 21
2.8968346456692915
 31
0.0
 11
-0.2648937007874016
 21
2.8655905511811022
 31
0.0
  0
LWPOLYLINE
  5
2B
100
AcDbEntity
  8
0
 62
     0
100
AcDbPolyline
 90
        2
 70
     0
 39
0.003
 10
-0.264894
 20
2.865591
 40
0.003
 41
0.003
 10
-0.267425
 20
2.829512
 40
0.003
 41
0.003
  0
LWPOLYLINE
  5
2C
100
AcDbEntity
  8
0
 62
     0
100
AcDbPolyline
 90
        2
 70
     0
 39
0.003
 10
-0.267425
 20
2.829512
 40
0.003
 41
0.003
 10
-0.373303
 20
2.829512
 40
0.003
 41
0.003
  0
LWPOLYLINE
  5
2D
100
AcDbEntity
  8
0
 62
     0
100
AcDbPolyline
 90
        2
 70
     0
 39
0.003
 10
-0.373303
 20
2.829512
 40
0.003
 41
0.003
 10
-0.373303
 20
2.695169
 40
0.003
 41
0.003
  0
LWPOLYLINE
  5
2E
100
AcDbEntity
  8
0
 62
     0
100
AcDbPolyline
 90
        2
 70
     0
 39
0.003
 10
-0.373303
 20
2.695169
 40
0.003
 41
0.003
 10
-0.37328
 20
2.692551
 40
0.003
 41
0.003
  0
MTEXT
  5
2F
100
AcDbEntity
  8
0
 62
     0
100
AcDbMText
 10
-0.935646
 20
2.770516
 30
0.0
 40
0.166665
 41
0.0
 71
     1
 72
     1
  1
{\fBookman Old Style|b0|i0|c0|p32;BA  1455}
 73
     1
 44
1.0
  0
MTEXT
  5
30
100
AcDbEntity
  8
0
 62
     0
100
AcDbMText
 10
-0.935646
 20
2.583016
 30
0.0
 40
0.166665
 41
0.0
 71
     1
 72
     1
  1
{\fBookman Old Style|b0|i0|c0|p32;3/4" x 1-1/8"}
 73
     1
 44
1.0
  0
LWPOLYLINE
  5
31
100
AcDbEntity
  8
0
 62
   254
100
AcDbPolyline
 90
        2
 70
     0
 39
0.003
 10
0.190957
 20
0.526965
 40
0.003
 41
0.003
 10
0.829583
 20
0.893177
 40
0.003
 41
0.003
  0
LWPOLYLINE
  5
32
100
AcDbEntity
  8
0
 62
   254
100
AcDbPolyline
 90
        2
 70
     0
 39
0.003
 10
0.829583
 20
0.893177
 40
0.003
 41
0.003
 10
0.829583
 20
0.953811
 40
0.003
 41
0.003
  0
LWPOLYLINE
  5
33
100
AcDbEntity
  8
0
 62
   254
100
AcDbPolyline
 90
        2
 70
     0
 39
0.003
 10
0.829583
 20
0.953811
 40
0.003
 41
0.003
 10
0.190957
 20
0.587598
 40
0.003
 41
0.003
  0
LWPOLYLINE
  5
34
100
AcDbEntity
  8
0
 62
   254
100
AcDbPolyline
 90
        2
 70
     0
 39
0.003
 10
0.190957
 20
0.587598
 40
0.003
 41
0.003
 10
0.190957
 20
0.526965
 40
0.003
 41
0.003
  0
LWPOLYLINE
  5
35
100
AcDbEntity
  8
0
 62
     0
100
AcDbPolyline
 90
        2
 70
     0
 39
0.003
 10
0.190957
 20
0.526965
 40
0.003
 41
0.003
 10
0.829583
 20
0.893177
 40
0.003
 41
0.003
  0
LWPOLYLINE
  5
36
100
AcDbEntity
  8
0
 62
     0
100
AcDbPolyline
 90
        2
 70
     0
 39
0.003
 10
0.829583
 20
0.893177
 40
0.003
 41
0.003
 10
0.829583
 20
0.953811
 40
0.003
 41
0.003
  0
LWPOLYLINE
  5
37
100
AcDbEntity
  8
0
 62
     0
100
AcDbPolyline
 90
        2
 70
     0
 39
0.003
 10
0.829583
 20
0.953811
 40
0.003
 41
0.003
 10
0.190957
 20
0.587598
 40
0.003
 41
0.003
  0
LWPOLYLINE
  5
38
100
AcDbEntity
  8
0
 62
     0
100
AcDbPolyline
 90
        2
 70
     0
 39
0.003
 10
0.190957
 20
0.587598
 40
0.003
 41
0.003
 10
0.190957
 20
0.526965
 40
0.003
 41
0.003
  0
LWPOLYLINE
  5
39
100
AcDbEntity
  8
0
 62
     9
100
AcDbPolyline
 90
        2
 70
     0
 39
0.003
 10
0.29163
 20
0.614098
 40
0.003
 41
0.003
 10
0.930256
 20
0.980311
 40
0.003
 41
0.003
  0
LWPOLYLINE
  5
3A
100
AcDbEntity
  8
0
 62
     9
100
AcDbPolyline
 90
        2
 70
     0
 39
0.003
 10
0.930256
 20
0.980311
 40
0.003
 41
0.003
 10
0.942437
 20
0.98902
 40
0.003
 41
0.003
  0
LWPOLYLINE
  5
3B
100
AcDbEntity
  8
0
 62
     9
100
AcDbPolyline
 90
        2
 70
     0
 39
0.003
 10
0.942437
 20
0.98902
 40
0.003
 41
0.003
 10
0.303811
 20
0.622807
 40
0.003
 41
0.003
  0
LWPOLYLINE
  5
3C
100
AcDbEntity
  8
0
 62
     9
100
AcDbPolyline
 90
        2
 70
     0
 39
0.003
 10
0.303811
 20
0.622807
 40
0.003
 41
0.003
 10
0.29163
 20
0.614098
 40
0.003
 41
0.003
  0
LWPOLYLINE
  5
3D
100
AcDbEntity
  8
0
 62
   254
100
AcDbPolyline
 90
        2
 70
     0
 39
0.003
 10
0.303811
 20
0.622807
 40
0.003
 41
0.003
 10
0.942437
 20
0.98902
 40
0.003
 41
0.003
  0
LWPOLYLINE
  5
3E
100
AcDbEntity
  8
0
 62
   254
100
AcDbPolyline
 90
        2
 70
     0
 39
0.003
 10
0.942437
 20
0.98902
 40
0.003
 41
0.003
 10
0.953327
 20
0.998677
 40
0.003
 41
0.003
  0
LWPOLYLINE
  5
3F
100
AcDbEntity
  8
0
 62
   254
100
AcDbPolyline
 90
        2
 70
     0
 39
0.003
 10
0.953327
 20
0.998677
 40
0.003
 41
0.003
 10
0.314701
 20
0.632465
 40
0.003
 41
0.003
  0
LWPOLYLINE
  5
40
100
AcDbEntity
  8
0
 62
   254
100
AcDbPolyline
 90
        2
 70
     0
 39
0.003
 10
0.314701
 20
0.632465
 40
0.003
 41
0.003
 10
0.303811
 20
0.622807
 40
0.003
 41
0.003
  0
LWPOLYLINE
  5
41
100
AcDbEntity
  8
0
 62
   254
100
AcDbPolyline
 90
        2
 70
     0
 39
0.003
 10
0.314701
 20
0.632465
 40
0.003
 41
0.003
 10
0.953327
 20
0.998677
 40
0.003
 41
0.003
  0
LWPOLYLINE
  5
42
100
AcDbEntity
  8
0
 62
   254
100
AcDbPolyline
 90
        2
 70
     0
 39
0.003
 10
0.953327
 20
0.998677
 40
0.003
 41
0.003
 10
0.962906
 20
1.009165
 40
0.003
 41
0.003
  0
LWPOLYLINE
  5
43
100
AcDbEntity
  8
0
 62
   254
100
AcDbPolyline
 90
        2
 70
     0
 39
0.003
 10
0.962906
 20
1.009165
 40
0.003
 41
0.003
 10
0.32428
 20
0.642953
 40
0.003
 41
0.003
  0
LWPOLYLINE
  5
44
100
AcDbEntity
  8
0
 62
   254
100
AcDbPolyline
 90
        2
 70
     0
 39
0.003
 10
0.32428
 20
0.642953
 40
0.003
 41
0.003
 10
0.314701
 20
0.632465
 40
0.003
 41
0.003
  0
LWPOLYLINE
  5
45
100
AcDbEntity
  8
0
 62
   254
100
AcDbPolyline
 90
        2
 70
     0
 39
0.003
 10
0.32428
 20
0.642953
 40
0.003
 41
0.003
 10
0.962906
 20
1.009165
 40
0.003
 41
0.003
  0
LWPOLYLINE
  5
46
100
AcDbEntity
  8
0
 62
   254
100
AcDbPolyline
 90
        2
 70
     0
 39
0.003
 10
0.962906
 20
1.009165
 40
0.003
 41
0.003
 10
0.971189
 20
1.020394
 40
0.003
 41
0.003
  0
LWPOLYLINE
  5
47
100
AcDbEntity
  8
0
 62
   254
100
AcDbPolyline
 90
        2
 70
     0
 39
0.003
 10
0.971189
 20
1.020394
 40
0.003
 41
0.003
 10
0.332563
 20
0.654181
 40
0.003
 41
0.003
  0
LWPOLYLINE
  5
48
100
AcDbEntity
  8
0
 62
   254
100
AcDbPolyline
 90
        2
 70
     0
 39
0.003
 10
0.332563
 20
0.654181
 40
0.003
 41
0.003
 10
0.32428
 20
0.642953
 40
0.003
 41
0.003
  0
LWPOLYLINE
  5
49
100
AcDbEntity
  8
0
 62
   254
100
AcDbPolyline
 90
        2
 70
     0
 39
0.003
 10
0.332563
 20
0.654181
 40
0.003
 41
0.003
 10
0.971189
 20
1.020394
 40
0.003
 41
0.003
  0
LWPOLYLINE
  5
4A
100
AcDbEntity
  8
0
 62
   254
100
AcDbPolyline
 90
        2
 70
     0
 39
0.003
 10
0.971189
 20
1.020394
 40
0.003
 41
0.003
 10
0.978181
 20
1.032252
 40
0.003
 41
0.003
  0
LWPOLYLINE
  5
4B
100
AcDbEntity
  8
0
 62
   254
100
AcDbPolyline
 90
        2
 70
     0
 39
0.003
 10
0.978181
 20
1.032252
 40
0.003
 41
0.003
 10
0.339555
 20
0.666039
 40
0.003
 41
0.003
  0
LWPOLYLINE
  5
4C
100
AcDbEntity
  8
0
 62
   254
100
AcDbPolyline
 90
        2
 70
     0
 39
0.003
 10
0.339555
 20
0.666039
 40
0.003
 41
0.003
 10
0.332563
 20
0.654181
 40
0.003
 41
0.003
  0
LWPOLYLINE
  5
4D
100
AcDbEntity
  8
0
 62
   254
100
AcDbPolyline
 90
        2
 70
     0
 39
0.003
 10
0.339555
 20
0.666039
 40
0.003
 41
0.003
 10
0.978181
 20
1.032252
 40
0.003
 41
0.003
  0
LWPOLYLINE
  5
4E
100
AcDbEntity
  8
0
 62
   254
100
AcDbPolyline
 90
        2
 70
     0
 39
0.003
 10
0.978181
 20
1.032252
 40
0.003
 41
0.003
 10
0.983882
 20
1.044642
 40
0.003
 41
0.003
  0
LWPOLYLINE
  5
4F
100
AcDbEntity
  8
0
 62
   254
100
AcDbPolyline
 90
        2
 70
     0
 39
0.003
 10
0.983882
 20
1.044642
 40
0.003
 41
0.003
 10
0.345256
 20
0.678429
 40
0.003
 41
0.003
  0
LWPOLYLINE
  5
50
100
AcDbEntity
  8
0
 62
   254
100
AcDbPolyline
 90
        2
 70
     0
 39
0.003
 10
0.345256
 20
0.678429
 40
0.003
 41
0.003
 10
0.339555
 20
0.666039
 40
0.003
 41
0.003
  0
LWPOLYLINE
  5
51
100
AcDbEntity
  8
0
 62
   254
100
AcDbPolyline
 90
        2
 70
     0
 39
0.003
 10
0.345256
 20
0.678429
 40
0.003
 41
0.003
 10
0.983882
 20
1.044642
 40
0.003
 41
0.003
  0
LWPOLYLINE
  5
52
100
AcDbEntity
  8
0
 62
   254
100
AcDbPolyline
 90
        2
 70
     0
 39
0.003
 10
0.983882
 20
1.044642
 40
0.003
 41
0.003
 10
0.988291
 20
1.057445
 40
0.003
 41
0.003
  0
LWPOLYLINE
  5
53
100
AcDbEntity
  8
0
 62
   254
100
AcDbPolyline
 90
        2
 70
     0
 39
0.003
 10
0.988291
 20
1.057445
 40
0.003
 41
0.003
 10
0.349665
 20
0.691232
 40
0.003
 41
0.003
  0
LWPOLYLINE
  5
54
100
AcDbEntity
  8
0
 62
   254
100
AcDbPolyline
 90
        2
 70
     0
 39
0.003
 10
0.349665
 20
0.691232
 40
0.003
 41
0.003
 10
0.345256
 20
0.678429
 40
0.003
 41
0.003
  0
LWPOLYLINE
  5
55
100
AcDbEntity
  8
0
 62
   254
100
AcDbPolyline
 90
        2
 70
     0
 39
0.003
 10
0.349665
 20
0.691232
 40
0.003
 41
0.003
 10
0.988291
 20
1.057445
 40
0.003
 41
0.003
  0
LWPOLYLINE
  5
56
100
AcDbEntity
  8
0
 62
   254
100
AcDbPolyline
 90
        2
 70
     0
 39
0.003
 10
0.988291
 20
1.057445
 40
0.003
 41
0.003
 10
0.991425
 20
1.070567
 40
0.003
 41
0.003
  0
LWPOLYLINE
  5
57
100
AcDbEntity
  8
0
 62
   254
100
AcDbPolyline
 90
        2
 70
     0
 39
0.003
 10
0.991425
 20
1.070567
 40
0.003
 41
0.003
 10
0.352799
 20
0.704354
 40
0.003
 41
0.003
  0
LWPOLYLINE
  5
58
100
AcDbEntity
  8
0
 62
   254
100
AcDbPolyline
 90
        2
 70
     0
 39
0.003
 10
0.352799
 20
0.704354
 40
0.003
 41
0.003
 10
0.349665
 20
0.691232
 40
0.003
 41
0.003
  0
LWPOLYLINE
  5
59
100
AcDbEntity
  8
0
 62
   254
100
AcDbPolyline
 90
        2
 70
     0
 39
0.003
 10
0.352799
 20
0.704354
 40
0.003
 41
0.003
 10
0.991425
 20
1.070567
 40
0.003
 41
0.003
  0
LWPOLYLINE
  5
5A
100
AcDbEntity
  8
0
 62
   254
100
AcDbPolyline
 90
        2
 70
     0
 39
0.003
 10
0.991425
 20
1.070567
 40
0.003
 41
0.003
 10
0.993276
 20
1.083898
 40
0.003
 41
0.003
  0
LWPOLYLINE
  5
5B
100
AcDbEntity
  8
0
 62
   254
100
AcDbPolyline
 90
        2
 70
     0
 39
0.003
 10
0.993276
 20
1.083898
 40
0.003
 41
0.003
 10
0.35465
 20
0.717685
 40
0.003
 41
0.003
  0
LWPOLYLINE
  5
5C
100
AcDbEntity
  8
0
 62
   254
100
AcDbPolyline
 90
        2
 70
     0
 39
0.003
 10
0.35465
 20
0.717685
 40
0.003
 41
0.003
 10
0.352799
 20
0.704354
 40
0.003
 41
0.003
  0
LWPOLYLINE
  5
5D
100
AcDbEntity
  8
0
 62
   254
100
AcDbPolyline
 90
        2
 70
     0
 39
0.003
 10
0.35465
 20
0.717685
 40
0.003
 41
0.003
 10
0.993276
 20
1.083898
 40
0.003
 41
0.003
  0
LWPOLYLINE
  5
5E
100
AcDbEntity
  8
0
 62
   254
100
AcDbPolyline
 90
        2
 70
     0
 39
0.003
 10
0.993276
 20
1.083898
 40
0.003
 41
0.003
 10
0.993854
 20
1.097343
 40
0.003
 41
0.003
  0
LWPOLYLINE
  5
5F
100
AcDbEntity
  8
0
 62
   254
100
AcDbPolyline
 90
        2
 70
     0
 39
0.003
 10
0.993854
 20
1.097343
 40
0.003
 41
0.003
 10
0.355228
 20
0.73113
 40
0.003
 41
0.003
  0
LWPOLYLINE
  5
60
100
AcDbEntity
  8
0
 62
   254
100
AcDbPolyline
 90
        2
 70
     0
 39
0.003
 10
0.355228
 20
0.73113
 40
0.003
 41
0.003
 10
0.35465
 20
0.717685
 40
0.003
 41
0.003
  0
LWPOLYLINE
  5
61
100
AcDbEntity
  8
0
 62
   254
100
AcDbPolyline
 90
        2
 70
     0
 39
0.003
 10
0.355228
 20
0.73113
 40
0.003
 41
0.003
 10
0.993854
 20
1.097343
 40
0.003
 41
0.003
  0
LWPOLYLINE
  5
62
100
AcDbEntity
  8
0
 62
   254
100
AcDbPolyline
 90
        2
 70
     0
 39
0.003
 10
0.993854
 20
1.097343
 40
0.003
 41
0.003
 10
0.99315
 20
1.110776
 40
0.003
 41
0.003
  0
LWPOLYLINE
  5
63
100
AcDbEntity
  8
0
 62
   254
100
AcDbPolyline
 90
        2
 70
     0
 39
0.003
 10
0.99315
 20
1.110776
 40
0.003
 41
0.003
 10
0.354524
 20
0.744563
 40
0.003
 41
0.003
  0
LWPOLYLINE
  5
64
100
AcDbEntity
  8
0
 62
   254
100
AcDbPolyline
 90
        2
 70
     0
 39
0.003
 10
0.354524
 20
0.744563
 40
0.003
 41
0.003
 10
0.355228
 20
0.73113
 40
0.003
 41
0.003
  0
LWPOLYLINE
  5
65
100
AcDbEntity
  8
0
 62
   254
100
AcDbPolyline
 90
        2
 70
     0
 39
0.003
 10
0.354524
 20
0.744563
 40
0.003
 41
0.003
 10
0.99315
 20
1.110776
 40
0.003
 41
0.003
  0
LWPOLYLINE
  5
66
100
AcDbEntity
  8
0
 62
   254
100
AcDbPolyline
 90
        2
 70
     0
 39
0.003
 10
0.99315
 20
1.110776
 40
0.003
 41
0.003
 10
0.991181
 20
1.124106
 40
0.003
 41
0.003
  0
LWPOLYLINE
  5
67
100
AcDbEntity
  8
0
 62
   254
100
AcDbPolyline
 90
        2
 70
     0
 39
0.003
 10
0.991181
 20
1.124106
 40
0.003
 41
0.003
 10
0.352555
 20
0.757894
 40
0.003
 41
0.003
  0
LWPOLYLINE
  5
68
100
AcDbEntity
  8
0
 62
   254
100
AcDbPolyline
 90
        2
 70
     0
 39
0.003
 10
0.352555
 20
0.757894
 40
0.003
 41
0.003
 10
0.354524
 20
0.744563
 40
0.003
 41
0.003
  0
LWPOLYLINE
  5
69
100
AcDbEntity
  8
0
 62
   254
100
AcDbPolyline
 90
        2
 70
     0
 39
0.003
 10
0.352555
 20
0.757894
 40
0.003
 41
0.003
 10
0.991181
 20
1.124106
 40
0.003
 41
0.003
  0
LWPOLYLINE
  5
6A
100
AcDbEntity
  8
0
 62
   254
100
AcDbPolyline
 90
        2
 70
     0
 39
0.003
 10
0.991181
 20
1.124106
 40
0.003
 41
0.003
 10
0.987941
 20
1.137224
 40
0.003
 41
0.003
  0
LWPOLYLINE
  5
6B
100
AcDbEntity
  8
0
 62
   254
100
AcDbPolyline
 90
        2
 70
     0
 39
0.003
 10
0.987941
 20
1.137224
 40
0.003
 41
0.003
 10
0.349315
 20
0.771012
 40
0.003
 41
0.003
  0
LWPOLYLINE
  5
6C
100
AcDbEntity
  8
0
 62
   254
100
AcDbPolyline
 90
        2
 70
     0
 39
0.003
 10
0.349315
 20
0.771012
 40
0.003
 41
0.003
 10
0.352555
 20
0.757894
 40
0.003
 41
0.003
  0
LWPOLYLINE
  5
6D
100
AcDbEntity
  8
0
 62
   254
100
AcDbPolyline
 90
        2
 70
     0
 39
0.003
 10
0.349315
 20
0.771012
 40
0.003
 41
0.003
 10
0.987941
 20
1.137224
 40
0.003
 41
0.003
  0
LWPOLYLINE
  5
6E
100
AcDbEntity
  8
0
 62
   254
100
AcDbPolyline
 90
        2
 70
     0
 39
0.003
 10
0.987941
 20
1.137224
 40
0.003
 41
0.003
 10
0.983449
 20
1.150031
 40
0.003
 41
0.003
  0
LWPOLYLINE
  5
6F
100
AcDbEntity
  8
0
 62
   254
100
AcDbPolyline
 90
        2
 70
     0
 39
0.003
 10
0.983449
 20
1.150031
 40
0.003
 41
0.003
 10
0.344823
 20
0.783819
 40
0.003
 41
0.003
  0
LWPOLYLINE
  5
70
100
AcDbEntity
  8
0
 62
   254
100
AcDbPolyline
 90
        2
 70
     0
 39
0.003
 10
0.344823
 20
0.783819
 40
0.003
 41
0.003
 10
0.349315
 20
0.771012
 40
0.003
 41
0.003
  0
LWPOLYLINE
  5
71
100
AcDbEntity
  8
0
 62
   254
100
AcDbPolyline
 90
        2
 70
     0
 39
0.003
 10
0.344823
 20
0.783819
 40
0.003
 41
0.003
 10
0.983449
 20
1.150031
 40
0.003
 41
0.003
  0
LWPOLYLINE
  5
72
100
AcDbEntity
  8
0
 62
   254
100
AcDbPolyline
 90
        2
 70
     0
 39
0.003
 10
0.983449
 20
1.150031
 40
0.003
 41
0.003
 10
0.977689
 20
1.162413
 40
0.003
 41
0.003
  0
LWPOLYLINE
  5
73
100
AcDbEntity
  8
0
 62
   254
100
AcDbPolyline
 90
        2
 70
     0
 39
0.003
 10
0.977689
 20
1.162413
 40
0.003
 41
0.003
 10
0.339063
 20
0.796201
 40
0.003
 41
0.003
  0
LWPOLYLINE
  5
74
100
AcDbEntity
  8
0
 62
   254
100
AcDbPolyline
 90
        2
 70
     0
 39
0.003
 10
0.339063
 20
0.796201
 40
0.003
 41
0.003
 10
0.344823
 20
0.783819
 40
0.003
 41
0.003
  0
LWPOLYLINE
  5
75
100
AcDbEntity
  8
0
 62
   254
100
AcDbPolyline
 90
        2
 70
     0
 39
0.003
 10
0.339063
 20
0.796201
 40
0.003
 41
0.003
 10
0.977689
 20
1.162413
 40
0.003
 41
0.003
  0
LWPOLYLINE
  5
76
100
AcDbEntity
  8
0
 62
   254
100
AcDbPolyline
 90
        2
 70
     0
 39
0.003
 10
0.977689
 20
1.162413
 40
0.003
 41
0.003
 10
0.970677
 20
1.174276
 40
0.003
 41
0.003
  0
LWPOLYLINE
  5
77
100
AcDbEntity
  8
0
 62
   254
100
AcDbPolyline
 90
        2
 70
     0
 39
0.003
 10
0.970677
 20
1.174276
 40
0.003
 41
0.003
 10
0.332051
 20
0.808063
 40
0.003
 41
0.003
  0
LWPOLYLINE
  5
78
100
AcDbEntity
  8
0
 62
   254
100
AcDbPolyline
 90
        2
 70
     0
 39
0.003
 10
0.332051
 20
0.808063
 40
0.003
 41
0.003
 10
0.339063
 20
0.796201
 40
0.003
 41
0.003
  0
LWPOLYLINE
  5
79
100
AcDbEntity
  8
0
 62
   254
100
AcDbPolyline
 90
        2
 70
     0
 39
0.003
 10
0.332051
 20
0.808063
 40
0.003
 41
0.003
 10
0.970677
 20
1.174276
 40
0.003
 41
0.003
  0
LWPOLYLINE
  5
7A
100
AcDbEntity
  8
0
 62
   254
100
AcDbPolyline
 90
        2
 70
     0
 39
0.003
 10
0.970677
 20
1.174276
 40
0.003
 41
0.003
 10
0.962409
 20
1.185504
 40
0.003
 41
0.003
  0
LWPOLYLINE
  5
7B
100
AcDbEntity
  8
0
 62
   254
100
AcDbPolyline
 90
        2
 70
     0
 39
0.003
 10
0.962409
 20
1.185504
 40
0.003
 41
0.003
 10
0.323783
 20
0.819291
 40
0.003
 41
0.003
  0
LWPOLYLINE
  5
7C
100
AcDbEntity
  8
0
 62
   254
100
AcDbPolyline
 90
        2
 70
     0
 39
0.003
 10
0.323783
 20
0.819291
 40
0.003
 41
0.003
 10
0.332051
 20
0.808063
 40
0.003
 41
0.003
  0
LWPOLYLINE
  5
7D
100
AcDbEntity
  8
0
 62
   254
100
AcDbPolyline
 90
        2
 70
     0
 39
0.003
 10
0.323783
 20
0.819291
 40
0.003
 41
0.003
 10
0.962409
 20
1.185504
 40
0.003
 41
0.003
  0
LWPOLYLINE
  5
7E
100
AcDbEntity
  8
0
 62
   254
100
AcDbPolyline
 90
        2
 70
     0
 39
0.003
 10
0.962409
 20
1.185504
 40
0.003
 41
0.003
 10
0.952898
 20
1.196
 40
0.003
 41
0.003
  0
LWPOLYLINE
  5
7F
100
AcDbEntity
  8
0
 62
   254
100
AcDbPolyline
 90
        2
 70
     0
 39
0.003
 10
0.952898
 20
1.196
 40
0.003
 41
0.003
 10
0.314272
 20
0.829787
 40
0.003
 41
0.003
  0
LWPOLYLINE
  5
80
100
AcDbEntity
  8
0
 62
   254
100
AcDbPolyline
 90
        2
 70
     0
 39
0.003
 10
0.314272
 20
0.829787
 40
0.003
 41
0.003
 10
0.323783
 20
0.819291
 40
0.003
 41
0.003
  0
LWPOLYLINE
  5
81
100
AcDbEntity
  8
0
 62
   254
100
AcDbPolyline
 90
        2
 70
     0
 39
0.003
 10
0.314272
 20
0.829787
 40
0.003
 41
0.003
 10
0.952898
 20
1.196
 40
0.003
 41
0.003
  0
LWPOLYLINE
  5
82
100
AcDbEntity
  8
0
 62
   254
100
AcDbPolyline
 90
        2
 70
     0
 39
0.003
 10
0.952898
 20
1.196
 40
0.003
 41
0.003
 10
0.942134
 20
1.205646
 40
0.003
 41
0.003
  0
LWPOLYLINE
  5
83
100
AcDbEntity
  8
0
 62
   254
100
AcDbPolyline
 90
        2
 70
     0
 39
0.003
 10
0.942134
 20
1.205646
 40
0.003
 41
0.003
 10
0.303508
 20
0.839433
 40
0.003
 41
0.003
  0
LWPOLYLINE
  5
84
100
AcDbEntity
  8
0
 62
   254
100
AcDbPolyline
 90
        2
 70
     0
 39
0.003
 10
0.303508
 20
0.839433
 40
0.003
 41
0.003
 10
0.314272
 20
0.829787
 40
0.003
 41
0.003
  0
LWPOLYLINE
  5
85
100
AcDbEntity
  8
0
 62
   254
100
AcDbPolyline
 90
        2
 70
     0
 39
0.003
 10
0.303508
 20
0.839433
 40
0.003
 41
0.003
 10
0.942134
 20
1.205646
 40
0.003
 41
0.003
  0
LWPOLYLINE
  5
86
100
AcDbEntity
  8
0
 62
   254
100
AcDbPolyline
 90
        2
 70
     0
 39
0.003
 10
0.942134
 20
1.205646
 40
0.003
 41
0.003
 10
0.93013
 20
1.214354
 40
0.003
 41
0.003
  0
LWPOLYLINE
  5
87
100
AcDbEntity
  8
0
 62
   254
100
AcDbPolyline
 90
        2
 70
     0
 39
0.003
 10
0.93013
 20
1.214354
 40
0.003
 41
0.003
 10
0.291504
 20
0.848142
 40
0.003
 41
0.003
  0
LWPOLYLINE
  5
88
100
AcDbEntity
  8
0
 62
   254
100
AcDbPolyline
 90
        2
 70
     0
 39
0.003
 10
0.291504
 20
0.848142
 40
0.003
 41
0.003
 10
0.303508
 20
0.839433
 40
0.003
 41
0.003
  0
LWPOLYLINE
  5
89
100
AcDbEntity
  8
0
 62
   254
100
AcDbPolyline
 90
        2
 70
     0
 39
0.003
 10
0.291504
 20
0.848142
 40
0.003
 41
0.003
 10
0.93013
 20
1.214354
 40
0.003
 41
0.003
  0
LWPOLYLINE
  5
8A
100
AcDbEntity
  8
0
 62
   254
100
AcDbPolyline
 90
        2
 70
     0
 39
0.003
 10
0.93013
 20
1.214354
 40
0.003
 41
0.003
 10
0.916882
 20
1.222008
 40
0.003
 41
0.003
  0
LWPOLYLINE
  5
8B
100
AcDbEntity
  8
0
 62
   254
100
AcDbPolyline
 90
        2
 70
     0
 39
0.003
 10
0.916882
 20
1.222008
 40
0.003
 41
0.003
 10
0.278256
 20
0.855795
 40
0.003
 41
0.003
  0
LWPOLYLINE
  5
8C
100
AcDbEntity
  8
0
 62
   254
100
AcDbPolyline
 90
        2
 70
     0
 39
0.003
 10
0.278256
 20
0.855795
 40
0.003
 41
0.003
 10
0.291504
 20
0.848142
 40
0.003
 41
0.003
  0
LWPOLYLINE
  5
8D
100
AcDbEntity
  8
0
 62
     9
100
AcDbPolyline
 90
        2
 70
     0
 39
0.003
 10
0.278256
 20
0.855795
 40
0.003
 41
0.003
 10
0.916882
 20
1.222008
 40
0.003
 41
0.003
  0
LWPOLYLINE
  5
8E
100
AcDbEntity
  8
0
 62
     9
100
AcDbPolyline
 90
        2
 70
     0
 39
0.003
 10
0.916882
 20
1.222008
 40
0.003
 41
0.003
 10
0.902406
 20
1.228512
 40
0.003
 41
0.003
  0
LWPOLYLINE
  5
8F
100
AcDbEntity
  8
0
 62
     9
100
AcDbPolyline
 90
        2
 70
     0
 39
0.003
 10
0.902406
 20
1.228512
 40
0.003
 41
0.003
 10
0.26378
 20
0.862299
 40
0.003
 41
0.003
  0
LWPOLYLINE
  5
90
100
AcDbEntity
  8
0
 62
     9
100
AcDbPolyline
 90
        2
 70
     0
 39
0.003
 10
0.26378
 20
0.862299
 40
0.003
 41
0.003
 10
0.278256
 20
0.855795
 40
0.003
 41
0.003
  0
LWPOLYLINE
  5
91
100
AcDbEntity
  8
0
 62
     9
100
AcDbPolyline
 90
        2
 70
     0
 39
0.003
 10
0.26378
 20
0.862299
 40
0.003
 41
0.003
 10
0.902406
 20
1.228512
 40
0.003
 41
0.003
  0
LWPOLYLINE
  5
92
100
AcDbEntity
  8
0
 62
     9
100
AcDbPolyline
 90
        2
 70
     0
 39
0.003
 10
0.902406
 20
1.228512
 40
0.003
 41
0.003
 10
0.886685
 20
1.233748
 40
0.003
 41
0.003
  0
LWPOLYLINE
  5
93
100
AcDbEntity
  8
0
 62
     9
100
AcDbPolyline
 90
        2
 70
     0
 39
0.003
 10
0.886685
 20
1.233748
 40
0.003
 41
0.003
 10
0.248059
 20
0.867535
 40
0.003
 41
0.003
  0
LWPOLYLINE
  5
94
100
AcDbEntity
  8
0
 62
     9
100
AcDbPolyline
 90
        2
 70
     0
 39
0.003
 10
0.248059
 20
0.867535
 40
0.003
 41
0.003
 10
0.26378
 20
0.862299
 40
0.003
 41
0.003
  0
LWPOLYLINE
  5
95
100
AcDbEntity
  8
0
 62
     9
100
AcDbPolyline
 90
        2
 70
     0
 39
0.003
 10
0.248059
 20
0.867535
 40
0.003
 41
0.003
 10
0.886685
 20
1.233748
 40
0.003
 41
0.003
  0
LWPOLYLINE
  5
96
100
AcDbEntity
  8
0
 62
     9
100
AcDbPolyline
 90
        2
 70
     0
 39
0.003
 10
0.886685
 20
1.233748
 40
0.003
 41
0.003
 10
0.869748
 20
1.237622
 40
0.003
 41
0.003
  0
LWPOLYLINE
  5
97
100
AcDbEntity
  8
0
 62
     9
100
AcDbPolyline
 90
        2
 70
     0
 39
0.003
 10
0.869748
 20
1.237622
 40
0.003
 41
0.003
 10
0.231122
 20
0.871409
 40
0.003
 41
0.003
  0
LWPOLYLINE
  5
98
100
AcDbEntity
  8
0
 62
     9
100
AcDbPolyline
 90
        2
 70
     0
 39
0.003
 10
0.231122
 20
0.871409
 40
0.003
 41
0.003
 10
0.248059
 20
0.867535
 40
0.003
 41
0.003
  0
LWPOLYLINE
  5
99
100
AcDbEntity
  8
0
 62
     9
100
AcDbPolyline
 90
        2
 70
     0
 39
0.003
 10
0.231122
 20
0.871409
 40
0.003
 41
0.003
 10
0.869748
 20
1.237622
 40
0.003
 41
0.003
  0
LWPOLYLINE
  5
9A
100
AcDbEntity
  8
0
 62
     9
100
AcDbPolyline
 90
        2
 70
     0
 39
0.003
 10
0.869748
 20
1.237622
 40
0.003
 41
0.003
 10
0.851579
 20
1.24002
 40
0.003
 41
0.003
  0
LWPOLYLINE
  5
9B
100
AcDbEntity
  8
0
 62
     9
100
AcDbPolyline
 90
        2
 70
     0
 39
0.003
 10
0.851579
 20
1.24002
 40
0.003
 41
0.003
 10
0.212953
 20
0.873807
 40
0.003
 41
0.003
  0
LWPOLYLINE
  5
9C
100
AcDbEntity
  8
0
 62
     9
100
AcDbPolyline
 90
        2
 70
     0
 39
0.003
 10
0.212953
 20
0.873807
 40
0.003
 41
0.003
 10
0.231122
 20
0.871409
 40
0.003
 41
0.003
  0
LWPOLYLINE
  5
9D
100
AcDbEntity
  8
0
 62
   253
100
AcDbPolyline
 90
        2
 70
     0
 39
0.003
 10
0.212953
 20
0.873807
 40
0.003
 41
0.003
 10
0.851579
 20
1.24002
 40
0.003
 41
0.003
  0
LWPOLYLINE
  5
9E
100
AcDbEntity
  8
0
 62
   253
100
AcDbPolyline
 90
        2
 70
     0
 39
0.003
 10
0.851579
 20
1.24002
 40
0.003
 41
0.003
 10
0.832193
 20
1.240846
 40
0.003
 41
0.003
  0
LWPOLYLINE
  5
9F
100
AcDbEntity
  8
0
 62
   253
100
AcDbPolyline
 90
        2
 70
     0
 39
0.003
 10
0.832193
 20
1.240846
 40
0.003
 41
0.003
 10
0.193567
 20
0.874634
 40
0.003
 41
0.003
  0
LWPOLYLINE
  5
A0
100
AcDbEntity
  8
0
 62
   253
100
AcDbPolyline
 90
        2
 70
     0
 39
0.003
 10
0.193567
 20
0.874634
 40
0.003
 41
0.003
 10
0.212953
 20
0.873807
 40
0.003
 41
0.003
  0
LWPOLYLINE
  5
A1
100
AcDbEntity
  8
0
 62
     0
100
AcDbPolyline
 90
        2
 70
     0
 39
0.003
 10
0.29163
 20
0.614098
 40
0.003
 41
0.003
 10
0.930256
 20
0.980311
 40
0.003
 41
0.003
  0
LWPOLYLINE
  5
A2
100
AcDbEntity
  8
0
 62
     0
100
AcDbPolyline
 90
        2
 70
     0
 39
0.003
 10
0.930256
 20
0.980311
 40
0.003
 41
0.003
 10
0.942437
 20
0.98902
 40
0.003
 41
0.003
  0
LWPOLYLINE
  5
A3
100
AcDbEntity
  8
0
 62
     0
100
AcDbPolyline
 90
        2
 70
     0
 39
0.003
 10
0.942437
 20
0.98902
 40
0.003
 41
0.003
 10
0.953327
 20
0.998677
 40
0.003
 41
0.003
  0
LWPOLYLINE
  5
A4
100
AcDbEntity
  8
0
 62
     0
100
AcDbPolyline
 90
        2
 70
     0
 39
0.003
 10
0.953327
 20
0.998677
 40
0.003
 41
0.003
 10
0.962906
 20
1.009165
 40
0.003
 41
0.003
  0
LWPOLYLINE
  5
A5
100
AcDbEntity
  8
0
 62
     0
100
AcDbPolyline
 90
        2
 70
     0
 39
0.003
 10
0.962906
 20
1.009165
 40
0.003
 41
0.003
 10
0.971189
 20
1.020394
 40
0.003
 41
0.003
  0
LWPOLYLINE
  5
A6
100
AcDbEntity
  8
0
 62
     0
100
AcDbPolyline
 90
        2
 70
     0
 39
0.003
 10
0.971189
 20
1.020394
 40
0.003
 41
0.003
 10
0.978181
 20
1.032252
 40
0.003
 41
0.003
  0
LWPOLYLINE
  5
A7
100
AcDbEntity
  8
0
 62
     0
100
AcDbPolyline
 90
        2
 70
     0
 39
0.003
 10
0.978181
 20
1.032252
 40
0.003
 41
0.003
 10
0.983882
 20
1.044642
 40
0.003
 41
0.003
  0
LWPOLYLINE
  5
A8
100
AcDbEntity
  8
0
 62
     0
100
AcDbPolyline
 90
        2
 70
     0
 39
0.003
 10
0.983882
 20
1.044642
 40
0.003
 41
0.003
 10
0.988291
 20
1.057445
 40
0.003
 41
0.003
  0
LWPOLYLINE
  5
A9
100
AcDbEntity
  8
0
 62
     0
100
AcDbPolyline
 90
        2
 70
     0
 39
0.003
 10
0.988291
 20
1.057445
 40
0.003
 41
0.003
 10
0.991425
 20
1.070567
 40
0.003
 41
0.003
  0
LWPOLYLINE
  5
AA
100
AcDbEntity
  8
0
 62
     0
100
AcDbPolyline
 90
        2
 70
     0
 39
0.003
 10
0.991425
 20
1.070567
 40
0.003
 41
0.003
 10
0.993276
 20
1.083898
 40
0.003
 41
0.003
  0
LWPOLYLINE
  5
AB
100
AcDbEntity
  8
0
 62
     0
100
AcDbPolyline
 90
        2
 70
     0
 39
0.003
 10
0.993276
 20
1.083898
 40
0.003
 41
0.003
 10
0.993854
 20
1.097343
 40
0.003
 41
0.003
  0
LWPOLYLINE
  5
AC
100
AcDbEntity
  8
0
 62
     0
100
AcDbPolyline
 90
        2
 70
     0
 39
0.003
 10
0.993854
 20
1.097343
 40
0.003
 41
0.003
 10
0.99315
 20
1.110776
 40
0.003
 41
0.003
  0
LWPOLYLINE
  5
AD
100
AcDbEntity
  8
0
 62
     0
100
AcDbPolyline
 90
        2
 70
     0
 39
0.003
 10
0.99315
 20
1.110776
 40
0.003
 41
0.003
 10
0.991181
 20
1.124106
 40
0.003
 41
0.003
  0
LWPOLYLINE
  5
AE
100
AcDbEntity
  8
0
 62
     0
100
AcDbPolyline
 90
        2
 70
     0
 39
0.003
 10
0.991181
 20
1.124106
 40
0.003
 41
0.003
 10
0.987941
 20
1.137224
 40
0.003
 41
0.003
  0
LWPOLYLINE
  5
AF
100
AcDbEntity
  8
0
 62
     0
100
AcDbPolyline
 90
        2
 70
     0
 39
0.003
 10
0.987941
 20
1.137224
 40
0.003
 41
0.003
 10
0.983449
 20
1.150031
 40
0.003
 41
0.003
  0
LWPOLYLINE
  5
B0
100
AcDbEntity
  8
0
 62
     0
100
AcDbPolyline
 90
        2
 70
     0
 39
0.003
 10
0.983449
 20
1.150031
 40
0.003
 41
0.003
 10
0.977689
 20
1.162413
 40
0.003
 41
0.003
  0
LWPOLYLINE
  5
B1
100
AcDbEntity
  8
0
 62
     0
100
AcDbPolyline
 90
        2
 70
     0
 39
0.003
 10
0.977689
 20
1.162413
 40
0.003
 41
0.003
 10
0.970677
 20
1.174276
 40
0.003
 41
0.003
  0
LWPOLYLINE
  5
B2
100
AcDbEntity
  8
0
 62
     0
100
AcDbPolyline
 90
        2
 70
     0
 39
0.003
 10
0.970677
 20
1.174276
 40
0.003
 41
0.003
 10
0.962409
 20
1.185504
 40
0.003
 41
0.003
  0
LWPOLYLINE
  5
B3
100
AcDbEntity
  8
0
 62
     0
100
AcDbPolyline
 90
        2
 70
     0
 39
0.003
 10
0.962409
 20
1.185504
 40
0.003
 41
0.003
 10
0.952898
 20
1.196
 40
0.003
 41
0.003
  0
LWPOLYLINE
  5
B4
100
AcDbEntity
  8
0
 62
     0
100
AcDbPolyline
 90
        2
 70
     0
 39
0.003
 10
0.952898
 20
1.196
 40
0.003
 41
0.003
 10
0.942134
 20
1.205646
 40
0.003
 41
0.003
  0
LWPOLYLINE
  5
B5
100
AcDbEntity
  8
0
 62
     0
100
AcDbPolyline
 90
        2
 70
     0
 39
0.003
 10
0.942134
 20
1.205646
 40
0.003
 41
0.003
 10
0.93013
 20
1.214354
 40
0.003
 41
0.003
  0
LWPOLYLINE
  5
B6
100
AcDbEntity
  8
0
 62
     0
100
AcDbPolyline
 90
        2
 70
     0
 39
0.003
 10
0.93013
 20
1.214354
 40
0.003
 41
0.003
 10
0.916882
 20
1.222008
 40
0.003
 41
0.003
  0
LWPOLYLINE
  5
B7
100
AcDbEntity
  8
0
 62
     0
100
AcDbPolyline
 90
        2
 70
     0
 39
0.003
 10
0.916882
 20
1.222008
 40
0.003
 41
0.003
 10
0.902406
 20
1.228512
 40
0.003
 41
0.003
  0
LWPOLYLINE
  5
B8
100
AcDbEntity
  8
0
 62
     0
100
AcDbPolyline
 90
        2
 70
     0
 39
0.003
 10
0.902406
 20
1.228512
 40
0.003
 41
0.003
 10
0.886685
 20
1.233748
 40
0.003
 41
0.003
  0
LWPOLYLINE
  5
B9
100
AcDbEntity
  8
0
 62
     0
100
AcDbPolyline
 90
        2
 70
     0
 39
0.003
 10
0.886685
 20
1.233748
 40
0.003
 41
0.003
 10
0.869748
 20
1.237622
 40
0.003
 41
0.003
  0
LWPOLYLINE
  5
BA
100
AcDbEntity
  8
0
 62
     0
100
AcDbPolyline
 90
        2
 70
     0
 39
0.003
 10
0.869748
 20
1.237622
 40
0.003
 41
0.003
 10
0.851579
 20
1.24002
 40
0.003
 41
0.003
  0
LWPOLYLINE
  5
BB
100
AcDbEntity
  8
0
 62
     0
100
AcDbPolyline
 90
        2
 70
     0
 39
0.003
 10
0.851579
 20
1.24002
 40
0.003
 41
0.003
 10
0.832193
 20
1.240846
 40
0.003
 41
0.003
  0
LWPOLYLINE
  5
BC
100
AcDbEntity
  8
0
 62
     0
100
AcDbPolyline
 90
        2
 70
     0
 39
0.003
 10
0.832193
 20
1.240846
 40
0.003
 41
0.003
 10
0.193567
 20
0.874634
 40
0.003
 41
0.003
  0
LWPOLYLINE
  5
BD
100
AcDbEntity
  8
0
 62
     0
100
AcDbPolyline
 90
        2
 70
     0
 39
0.003
 10
0.193567
 20
0.874634
 40
0.003
 41
0.003
 10
0.212953
 20
0.873807
 40
0.003
 41
0.003
  0
LWPOLYLINE
  5
BE
100
AcDbEntity
  8
0
 62
     0
100
AcDbPolyline
 90
        2
 70
     0
 39
0.003
 10
0.212953
 20
0.873807
 40
0.003
 41
0.003
 10
0.231122
 20
0.871409
 40
0.003
 41
0.003
  0
LWPOLYLINE
  5
BF
100
AcDbEntity
  8
0
 62
     0
100
AcDbPolyline
 90
        2
 70
     0
 39
0.003
 10
0.231122
 20
0.871409
 40
0.003
 41
0.003
 10
0.248059
 20
0.867535
 40
0.003
 41
0.003
  0
LWPOLYLINE
  5
C0
100
AcDbEntity
  8
0
 62
     0
100
AcDbPolyline
 90
        2
 70
     0
 39
0.003
 10
0.248059
 20
0.867535
 40
0.003
 41
0.003
 10
0.26378
 20
0.862299
 40
0.003
 41
0.003
  0
LWPOLYLINE
  5
C1
100
AcDbEntity
  8
0
 62
     0
100
AcDbPolyline
 90
        2
 70
     0
 39
0.003
 10
0.26378
 20
0.862299
 40
0.003
 41
0.003
 10
0.278256
 20
0.855795
 40
0.003
 41
0.003
  0
LWPOLYLINE
  5
C2
100
AcDbEntity
  8
0
 62
     0
100
AcDbPolyline
 90
        2
 70
     0
 39
0.003
 10
0.278256
 20
0.855795
 40
0.003
 41
0.003
 10
0.291504
 20
0.848142
 40
0.003
 41
0.003
  0
LWPOLYLINE
  5
C3
100
AcDbEntity
  8
0
 62
     0
100
AcDbPolyline
 90
        2
 70
     0
 39
0.003
 10
0.291504
 20
0.848142
 40
0.003
 41
0.003
 10
0.303508
 20
0.839433
 40
0.003
 41
0.003
  0
LWPOLYLINE
  5
C4
100
AcDbEntity
  8
0
 62
     0
100
AcDbPolyline
 90
        2
 70
     0
 39
0.003
 10
0.303508
 20
0.839433
 40
0.003
 41
0.003
 10
0.314272
 20
0.829787
 40
0.003
 41
0.003
  0
LWPOLYLINE
  5
C5
100
AcDbEntity
  8
0
 62
     0
100
AcDbPolyline
 90
        2
 70
     0
 39
0.003
 10
0.314272
 20
0.829787
 40
0.003
 41
0.003
 10
0.323783
 20
0.819291
 40
0.003
 41
0.003
  0
LWPOLYLINE
  5
C6
100
AcDbEntity
  8
0
 62
     0
100
AcDbPolyline
 90
        2
 70
     0
 39
0.003
 10
0.323783
 20
0.819291
 40
0.003
 41
0.003
 10
0.332051
 20
0.808063
 40
0.003
 41
0.003
  0
LWPOLYLINE
  5
C7
100
AcDbEntity
  8
0
 62
     0
100
AcDbPolyline
 90
        2
 70
     0
 39
0.003
 10
0.332051
 20
0.808063
 40
0.003
 41
0.003
 10
0.339063
 20
0.796201
 40
0.003
 41
0.003
  0
LWPOLYLINE
  5
C8
100
AcDbEntity
  8
0
 62
     0
100
AcDbPolyline
 90
        2
 70
     0
 39
0.003
 10
0.339063
 20
0.796201
 40
0.003
 41
0.003
 10
0.344823
 20
0.783819
 40
0.003
 41
0.003
  0
LWPOLYLINE
  5
C9
100
AcDbEntity
  8
0
 62
     0
100
AcDbPolyline
 90
        2
 70
     0
 39
0.003
 10
0.344823
 20
0.783819
 40
0.003
 41
0.003
 10
0.349315
 20
0.771012
 40
0.003
 41
0.003
  0
LWPOLYLINE
  5
CA
100
AcDbEntity
  8
0
 62
     0
100
AcDbPolyline
 90
        2
 70
     0
 39
0.003
 10
0.349315
 20
0.771012
 40
0.003
 41
0.003
 10
0.352555
 20
0.757894
 40
0.003
 41
0.003
  0
LWPOLYLINE
  5
CB
100
AcDbEntity
  8
0
 62
     0
100
AcDbPolyline
 90
        2
 70
     0
 39
0.003
 10
0.352555
 20
0.757894
 40
0.003
 41
0.003
 10
0.354524
 20
0.744563
 40
0.003
 41
0.003
  0
LWPOLYLINE
  5
CC
100
AcDbEntity
  8
0
 62
     0
100
AcDbPolyline
 90
        2
 70
     0
 39
0.003
 10
0.354524
 20
0.744563
 40
0.003
 41
0.003
 10
0.355228
 20
0.73113
 40
0.003
 41
0.003
  0
LWPOLYLINE
  5
CD
100
AcDbEntity
  8
0
 62
     0
100
AcDbPolyline
 90
        2
 70
     0
 39
0.003
 10
0.355228
 20
0.73113
 40
0.003
 41
0.003
 10
0.35465
 20
0.717685
 40
0.003
 41
0.003
  0
LWPOLYLINE
  5
CE
100
AcDbEntity
  8
0
 62
     0
100
AcDbPolyline
 90
        2
 70
     0
 39
0.003
 10
0.35465
 20
0.717685
 40
0.003
 41
0.003
 10
0.352799
 20
0.704354
 40
0.003
 41
0.003
  0
LWPOLYLINE
  5
CF
100
AcDbEntity
  8
0
 62
     0
100
AcDbPolyline
 90
        2
 70
     0
 39
0.003
 10
0.352799
 20
0.704354
 40
0.003
 41
0.003
 10
0.349665
 20
0.691232
 40
0.003
 41
0.003
  0
LWPOLYLINE
  5
D0
100
AcDbEntity
  8
0
 62
     0
100
AcDbPolyline
 90
        2
 70
     0
 39
0.003
 10
0.349665
 20
0.691232
 40
0.003
 41
0.003
 10
0.345256
 20
0.678429
 40
0.003
 41
0.003
  0
LWPOLYLINE
  5
D1
100
AcDbEntity
  8
0
 62
     0
100
AcDbPolyline
 90
        2
 70
     0
 39
0.003
 10
0.345256
 20
0.678429
 40
0.003
 41
0.003
 10
0.339555
 20
0.666039
 40
0.003
 41
0.003
  0
LWPOLYLINE
  5
D2
100
AcDbEntity
  8
0
 62
     0
100
AcDbPolyline
 90
        2
 70
     0
 39
0.003
 10
0.339555
 20
0.666039
 40
0.003
 41
0.003
 10
0.332563
 20
0.654181
 40
0.003
 41
0.003
  0
LWPOLYLINE
  5
D3
100
AcDbEntity
  8
0
 62
     0
100
AcDbPolyline
 90
        2
 70
     0
 39
0.003
 10
0.332563
 20
0.654181
 40
0.003
 41
0.003
 10
0.32428
 20
0.642953
 40
0.003
 41
0.003
  0
LWPOLYLINE
  5
D4
100
AcDbEntity
  8
0
 62
     0
100
AcDbPolyline
 90
        2
 70
     0
 39
0.003
 10
0.32428
 20
0.642953
 40
0.003
 41
0.003
 10
0.314701
 20
0.632465
 40
0.003
 41
0.003
  0
LWPOLYLINE
  5
D5
100
AcDbEntity
  8
0
 62
     0
100
AcDbPolyline
 90
        2
 70
     0
 39
0.003
 10
0.314701
 20
0.632465
 40
0.003
 41
0.003
 10
0.303811
 20
0.622807
 40
0.003
 41
0.003
  0
LWPOLYLINE
  5
D6
100
AcDbEntity
  8
0
 62
     0
100
AcDbPolyline
 90
        2
 70
     0
 39
0.003
 10
0.303811
 20
0.622807
 40
0.003
 41
0.003
 10
0.29163
 20
0.614098
 40
0.003
 41
0.003
  0
LWPOLYLINE
  5
D7
100
AcDbEntity
  8
0
 62
   254
100
AcDbPolyline
 90
        2
 70
     0
 39
0.003
 10
0.193567
 20
0.874634
 40
0.003
 41
0.003
 10
0.832193
 20
1.240846
 40
0.003
 41
0.003
  0
LWPOLYLINE
  5
D8
100
AcDbEntity
  8
0
 62
   254
100
AcDbPolyline
 90
        2
 70
     0
 39
0.003
 10
0.832193
 20
1.240846
 40
0.003
 41
0.003
 10
0.832193
 20
1.34387
 40
0.003
 41
0.003
  0
LWPOLYLINE
  5
D9
100
AcDbEntity
  8
0
 62
   254
100
AcDbPolyline
 90
        2
 70
     0
 39
0.003
 10
0.832193
 20
1.34387
 40
0.003
 41
0.003
 10
0.193567
 20
0.977657
 40
0.003
 41
0.003
  0
LWPOLYLINE
  5
DA
100
AcDbEntity
  8
0
 62
   254
100
AcDbPolyline
 90
        2
 70
     0
 39
0.003
 10
0.193567
 20
0.977657
 40
0.003
 41
0.003
 10
0.193567
 20
0.874634
 40
0.003
 41
0.003
  0
LWPOLYLINE
  5
DB
100
AcDbEntity
  8
0
 62
   253
100
AcDbPolyline
 90
        2
 70
     0
 39
0.003
 10
0.193567
 20
0.977657
 40
0.003
 41
0.003
 10
0.832193
 20
1.34387
 40
0.003
 41
0.003
  0
LWPOLYLINE
  5
DC
100
AcDbEntity
  8
0
 62
   253
100
AcDbPolyline
 90
        2
 70
     0
 39
0.003
 10
0.832193
 20
1.34387
 40
0.003
 41
0.003
 10
0.80889
 20
1.345146
 40
0.003
 41
0.003
  0
LWPOLYLINE
  5
DD
100
AcDbEntity
  8
0
 62
   253
100
AcDbPolyline
 90
        2
 70
     0
 39
0.003
 10
0.80889
 20
1.345146
 40
0.003
 41
0.003
 10
0.170264
 20
0.978933
 40
0.003
 41
0.003
  0
LWPOLYLINE
  5
DE
100
AcDbEntity
  8
0
 62
   253
100
AcDbPolyline
 90
        2
 70
     0
 39
0.003
 10
0.170264
 20
0.978933
 40
0.003
 41
0.003
 10
0.193567
 20
0.977657
 40
0.003
 41
0.003
  0
LWPOLYLINE
  5
DF
100
AcDbEntity
  8
0
 62
   253
100
AcDbPolyline
 90
        2
 70
     0
 39
0.003
 10
0.170264
 20
0.978933
 40
0.003
 41
0.003
 10
0.80889
 20
1.345146
 40
0.003
 41
0.003
  0
LWPOLYLINE
  5
E0
100
AcDbEntity
  8
0
 62
   253
100
AcDbPolyline
 90
        2
 70
     0
 39
0.003
 10
0.80889
 20
1.345146
 40
0.003
 41
0.003
 10
0.785925
 20
1.347063
 40
0.003
 41
0.003
  0
LWPOLYLINE
  5
E1
100
AcDbEntity
  8
0
 62
   253
100
AcDbPolyline
 90
        2
 70
     0
 39
0.003
 10
0.785925
 20
1.347063
 40
0.003
 41
0.003
 10
0.147299
 20
0.98085
 40
0.003
 41
0.003
  0
LWPOLYLINE
  5
E2
100
AcDbEntity
  8
0
 62
   253
100
AcDbPolyline
 90
        2
 70
     0
 39
0.003
 10
0.147299
 20
0.98085
 40
0.003
 41
0.003
 10
0.170264
 20
0.978933
 40
0.003
 41
0.003
  0
LWPOLYLINE
  5
E3
100
AcDbEntity
  8
0
 62
   253
100
AcDbPolyline
 90
        2
 70
     0
 39
0.003
 10
0.147299
 20
0.98085
 40
0.003
 41
0.003
 10
0.785925
 20
1.347063
 40
0.003
 41
0.003
  0
LWPOLYLINE
  5
E4
100
AcDbEntity
  8
0
 62
   253
100
AcDbPolyline
 90
        2
 70
     0
 39
0.003
 10
0.785925
 20
1.347063
 40
0.003
 41
0.003
 10
0.763319
 20
1.349594
 40
0.003
 41
0.003
  0
LWPOLYLINE
  5
E5
100
AcDbEntity
  8
0
 62
   253
100
AcDbPolyline
 90
        2
 70
     0
 39
0.003
 10
0.763319
 20
1.349594
 40
0.003
 41
0.003
 10
0.124693
 20
0.983382
 40
0.003
 41
0.003
  0
LWPOLYLINE
  5
E6
100
AcDbEntity
  8
0
 62
   253
100
AcDbPolyline
 90
        2
 70
     0
 39
0.003
 10
0.124693
 20
0.983382
 40
0.003
 41
0.003
 10
0.147299
 20
0.98085
 40
0.003
 41
0.003
  0
LWPOLYLINE
  5
E7
100
AcDbEntity
  8
0
 62
     9
100
AcDbPolyline
 90
        2
 70
     0
 39
0.003
 10
0.124693
 20
0.983382
 40
0.003
 41
0.003
 10
0.763319
 20
1.349594
 40
0.003
 41
0.003
  0
LWPOLYLINE
  5
E8
100
AcDbEntity
  8
0
 62
     9
100
AcDbPolyline
 90
        2
 70
     0
 39
0.003
 10
0.763319
 20
1.349594
 40
0.003
 41
0.003
 10
0.741102
 20
1.352744
 40
0.003
 41
0.003
  0
LWPOLYLINE
  5
E9
100
AcDbEntity
  8
0
 62
     9
100
AcDbPolyline
 90
        2
 70
     0
 39
0.003
 10
0.741102
 20
1.352744
 40
0.003
 41
0.003
 10
0.102476
 20
0.986531
 40
0.003
 41
0.003
  0
LWPOLYLINE
  5
EA
100
AcDbEntity
  8
0
 62
     9
100
AcDbPolyline
 90
        2
 70
     0
 39
0.003
 10
0.102476
 20
0.986531
 40
0.003
 41
0.003
 10
0.124693
 20
0.983382
 40
0.003
 41
0.003
  0
LWPOLYLINE
  5
EB
100
AcDbEntity
  8
0
 62
     9
100
AcDbPolyline
 90
        2
 70
     0
 39
0.003
 10
0.102476
 20
0.986531
 40
0.003
 41
0.003
 10
0.741102
 20
1.352744
 40
0.003
 41
0.003
  0
LWPOLYLINE
  5
EC
100
AcDbEntity
  8
0
 62
     9
100
AcDbPolyline
 90
        2
 70
     0
 39
0.003
 10
0.741102
 20
1.352744
 40
0.003
 41
0.003
 10
0.719295
 20
1.356476
 40
0.003
 41
0.003
  0
LWPOLYLINE
  5
ED
100
AcDbEntity
  8
0
 62
     9
100
AcDbPolyline
 90
        2
 70
     0
 39
0.003
 10
0.719295
 20
1.356476
 40
0.003
 41
0.003
 10
0.080669
 20
0.990264
 40
0.003
 41
0.003
  0
LWPOLYLINE
  5
EE
100
AcDbEntity
  8
0
 62
     9
100
AcDbPolyline
 90
        2
 70
     0
 39
0.003
 10
0.080669
 20
0.990264
 40
0.003
 41
0.003
 10
0.102476
 20
0.986531
 40
0.003
 41
0.003
  0
LWPOLYLINE
  5
EF
100
AcDbEntity
  8
0
 62
     9
100
AcDbPolyline
 90
        2
 70
     0
 39
0.003
 10
0.080669
 20
0.990264
 40
0.003
 41
0.003
 10
0.719295
 20
1.356476
 40
0.003
 41
0.003
  0
LWPOLYLINE
  5
F0
100
AcDbEntity
  8
0
 62
     9
100
AcDbPolyline
 90
        2
 70
     0
 39
0.003
 10
0.719295
 20
1.356476
 40
0.003
 41
0.003
 10
0.697933
 20
1.360791
 40
0.003
 41
0.003
  0
LWPOLYLINE
  5
F1
100
AcDbEntity
  8
0
 62
     9
100
AcDbPolyline
 90
        2
 70
     0
 39
0.003
 10
0.697933
 20
1.360791
 40
0.003
 41
0.003
 10
0.059307
 20
0.994579
 40
0.003
 41
0.003
  0
LWPOLYLINE
  5
F2
100
AcDbEntity
  8
0
 62
     9
100
AcDbPolyline
 90
        2
 70
     0
 39
0.003
 10
0.059307
 20
0.994579
 40
0.003
 41
0.003
 10
0.080669
 20
0.990264
 40
0.003
 41
0.003
  0
LWPOLYLINE
  5
F3
100
AcDbEntity
  8
0
 62
     9
100
AcDbPolyline
 90
        2
 70
     0
 39
0.003
 10
0.059307
 20
0.994579
 40
0.003
 41
0.003
 10
0.697933
 20
1.360791
 40
0.003
 41
0.003
  0
LWPOLYLINE
  5
F4
100
AcDbEntity
  8
0
 62
     9
100
AcDbPolyline
 90
        2
 70
     0
 39
0.003
 10
0.697933
 20
1.360791
 40
0.003
 41
0.003
 10
0.677031
 20
1.365665
 40
0.003
 41
0.003
  0
LWPOLYLINE
  5
F5
100
AcDbEntity
  8
0
 62
     9
100
AcDbPolyline
 90
        2
 70
     0
 39
0.003
 10
0.677031
 20
1.365665
 40
0.003
 41
0.003
 10
0.038406
 20
0.999453
 40
0.003
 41
0.003
  0
LWPOLYLINE
  5
F6
100
AcDbEntity
  8
0
 62
     9
100
AcDbPolyline
 90
        2
 70
     0
 39
0.003
 10
0.038406
 20
0.999453
 40
0.003
 41
0.003
 10
0.059307
 20
0.994579
 40
0.003
 41
0.003
  0
LWPOLYLINE
  5
F7
100
AcDbEntity
  8
0
 62
     9
100
AcDbPolyline
 90
        2
 70
     0
 39
0.003
 10
0.038406
 20
0.999453
 40
0.003
 41
0.003
 10
0.677031
 20
1.365665
 40
0.003
 41
0.003
  0
LWPOLYLINE
  5
F8
100
AcDbEntity
  8
0
 62
     9
100
AcDbPolyline
 90
        2
 70
     0
 39
0.003
 10
0.677031
 20
1.365665
 40
0.003
 41
0.003
 10
0.656626
 20
1.371098
 40
0.003
 41
0.003
  0
LWPOLYLINE
  5
F9
100
AcDbEntity
  8
0
 62
     9
100
AcDbPolyline
 90
        2
 70
     0
 39
0.003
 10
0.656626
 20
1.371098
 40
0.003
 41
0.003
 10
0.018
 20
1.004886
 40
0.003
 41
0.003
  0
LWPOLYLINE
  5
FA
100
AcDbEntity
  8
0
 62
     9
100
AcDbPolyline
 90
        2
 70
     0
 39
0.003
 10
0.018
 20
1.004886
 40
0.003
 41
0.003
 10
0.038406
 20
0.999453
 40
0.003
 41
0.003
  0
LWPOLYLINE
  5
FB
100
AcDbEntity
  8
0
 62
     9
100
AcDbPolyline
 90
        2
 70
     0
 39
0.003
 10
0.018
 20
1.004886
 40
0.003
 41
0.003
 10
0.656626
 20
1.371098
 40
0.003
 41
0.003
  0
LWPOLYLINE
  5
FC
100
AcDbEntity
  8
0
 62
     9
100
AcDbPolyline
 90
        2
 70
     0
 39
0.003
 10
0.656626
 20
1.371098
 40
0.003
 41
0.003
 10
0.636728
 20
1.377051
 40
0.003
 41
0.003
  0
LWPOLYLINE
  5
FD
100
AcDbEntity
  8
0
 62
     9
100
AcDbPolyline
 90
        2
 70
     0
 39
0.003
 10
0.636728
 20
1.377051
 40
0.003
 41
0.003
 10
-0.001898
 20
1.010839
 40
0.003
 41
0.003
  0
LWPOLYLINE
  5
FE
100
AcDbEntity
  8
0
 62
     9
100
AcDbPolyline
 90
        2
 70
     0
 39
0.003
 10
-0.001898
 20
1.010839
 40
0.003
 41
0.003
 10
0.018
 20
1.004886
 40
0.003
 41
0.003
  0
LWPOLYLINE
  5
FF
100
AcDbEntity
  8
0
 62
     9
100
AcDbPolyline
 90
        2
 70
     0
 39
0.003
 10
-0.001898
 20
1.010839
 40
0.003
 41
0.003
 10
0.636728
 20
1.377051
 40
0.003
 41
0.003
  0
LWPOLYLINE
  5
100
100
AcDbEntity
  8
0
 62
     9
100
AcDbPolyline
 90
        2
 70
     0
 39
0.003
 10
0.636728
 20
1.377051
 40
0.003
 41
0.003
 10
0.617382
 20
1.383531
 40
0.003
 41
0.003
  0
LWPOLYLINE
  5
101
100
AcDbEntity
  8
0
 62
     9
100
AcDbPolyline
 90
        2
 70
     0
 39
0.003
 10
0.617382
 20
1.383531
 40
0.003
 41
0.003
 10
-0.021244
 20
1.017319
 40
0.003
 41
0.003
  0
LWPOLYLINE
  5
102
100
AcDbEntity
  8
0
 62
     9
100
AcDbPolyline
 90
        2
 70
     0
 39
0.003
 10
-0.021244
 20
1.017319
 40
0.003
 41
0.003
 10
-0.001898
 20
1.010839
 40
0.003
 41
0.003
  0
LWPOLYLINE
  5
103
100
AcDbEntity
  8
0
 62
     9
100
AcDbPolyline
 90
        2
 70
     0
 39
0.003
 10
-0.021244
 20
1.017319
 40
0.003
 41
0.003
 10
0.617382
 20
1.383531
 40
0.003
 41
0.003
  0
LWPOLYLINE
  5
104
100
AcDbEntity
  8
0
 62
     9
100
AcDbPolyline
 90
        2
 70
     0
 39
0.003
 10
0.617382
 20
1.383531
 40
0.003
 41
0.003
 10
0.598598
 20
1.390512
 40
0.003
 41
0.003
  0
LWPOLYLINE
  5
105
100
AcDbEntity
  8
0
 62
     9
100
AcDbPolyline
 90
        2
 70
     0
 39
0.003
 10
0.598598
 20
1.390512
 40
0.003
 41
0.003
 10
-0.040028
 20
1.024299
 40
0.003
 41
0.003
  0
LWPOLYLINE
  5
106
100
AcDbEntity
  8
0
 62
     9
100
AcDbPolyline
 90
        2
 70
     0
 39
0.003
 10
-0.040028
 20
1.024299
 40
0.003
 41
0.003
 10
-0.021244
 20
1.017319
 40
0.003
 41
0.003
  0
LWPOLYLINE
  5
107
100
AcDbEntity
  8
0
 62
     9
100
AcDbPolyline
 90
        2
 70
     0
 39
0.003
 10
-0.040028
 20
1.024299
 40
0.003
 41
0.003
 10
0.598598
 20
1.390512
 40
0.003
 41
0.003
  0
LWPOLYLINE
  5
108
100
AcDbEntity
  8
0
 62
     9
100
AcDbPolyline
 90
        2
 70
     0
 39
0.003
 10
0.598598
 20
1.390512
 40
0.003
 41
0.003
 10
0.580417
 20
1.397988
 40
0.003
 41
0.003
  0
LWPOLYLINE
  5
109
100
AcDbEntity
  8
0
 62
     9
100
AcDbPolyline
 90
        2
 70
     0
 39
0.003
 10
0.580417
 20
1.397988
 40
0.003
 41
0.003
 10
-0.058209
 20
1.031776
 40
0.003
 41
0.003
  0
LWPOLYLINE
  5
10A
100
AcDbEntity
  8
0
 62
     9
100
AcDbPolyline
 90
        2
 70
     0
 39
0.003
 10
-0.058209
 20
1.031776
 40
0.003
 41
0.003
 10
-0.040028
 20
1.024299
 40
0.003
 41
0.003
  0
LWPOLYLINE
  5
10B
100
AcDbEntity
  8
0
 62
     9
100
AcDbPolyline
 90
        2
 70
     0
 39
0.003
 10
-0.058209
 20
1.031776
 40
0.003
 41
0.003
 10
0.580417
 20
1.397988
 40
0.003
 41
0.003
  0
LWPOLYLINE
  5
10C
100
AcDbEntity
  8
0
 62
     9
100
AcDbPolyline
 90
        2
 70
     0
 39
0.003
 10
0.580417
 20
1.397988
 40
0.003
 41
0.003
 10
0.56285
 20
1.405933
 40
0.003
 41
0.003
  0
LWPOLYLINE
  5
10D
100
AcDbEntity
  8
0
 62
     9
100
AcDbPolyline
 90
        2
 70
     0
 39
0.003
 10
0.56285
 20
1.405933
 40
0.003
 41
0.003
 10
-0.075776
 20
1.03972
 40
0.003
 41
0.003
  0
LWPOLYLINE
  5
10E
100
AcDbEntity
  8
0
 62
     9
100
AcDbPolyline
 90
        2
 70
     0
 39
0.003
 10
-0.075776
 20
1.03972
 40
0.003
 41
0.003
 10
-0.058209
 20
1.031776
 40
0.003
 41
0.003
  0
LWPOLYLINE
  5
10F
100
AcDbEntity
  8
0
 62
     9
100
AcDbPolyline
 90
        2
 70
     0
 39
0.003
 10
-0.075776
 20
1.03972
 40
0.003
 41
0.003
 10
0.56285
 20
1.405933
 40
0.003
 41
0.003
  0
LWPOLYLINE
  5
110
100
AcDbEntity
  8
0
 62
     9
100
AcDbPolyline
 90
        2
 70
     0
 39
0.003
 10
0.56285
 20
1.405933
 40
0.003
 41
0.003
 10
0.545933
 20
1.414343
 40
0.003
 41
0.003
  0
LWPOLYLINE
  5
111
100
AcDbEntity
  8
0
 62
     9
100
AcDbPolyline
 90
        2
 70
     0
 39
0.003
 10
0.545933
 20
1.414343
 40
0.003
 41
0.003
 10
-0.092693
 20
1.04813
 40
0.003
 41
0.003
  0
LWPOLYLINE
  5
112
100
AcDbEntity
  8
0
 62
     9
100
AcDbPolyline
 90
        2
 70
     0
 39
0.003
 10
-0.092693
 20
1.04813
 40
0.003
 41
0.003
 10
-0.075776
 20
1.03972
 40
0.003
 41
0.003
  0
LWPOLYLINE
  5
113
100
AcDbEntity
  8
0
 62
   254
100
AcDbPolyline
 90
        2
 70
     0
 39
0.003
 10
-0.092693
 20
1.04813
 40
0.003
 41
0.003
 10
0.545933
 20
1.414343
 40
0.003
 41
0.003
  0
LWPOLYLINE
  5
114
100
AcDbEntity
  8
0
 62
   254
100
AcDbPolyline
 90
        2
 70
     0
 39
0.003
 10
0.545933
 20
1.414343
 40
0.003
 41
0.003
 10
0.529689
 20
1.423201
 40
0.003
 41
0.003
  0
LWPOLYLINE
  5
115
100
AcDbEntity
  8
0
 62
   254
100
AcDbPolyline
 90
        2
 70
     0
 39
0.003
 10
0.529689
 20
1.423201
 40
0.003
 41
0.003
 10
-0.108937
 20
1.056988
 40
0.003
 41
0.003
  0
LWPOLYLINE
  5
116
100
AcDbEntity
  8
0
 62
   254
100
AcDbPolyline
 90
        2
 70
     0
 39
0.003
 10
-0.108937
 20
1.056988
 40
0.003
 41
0.003
 10
-0.092693
 20
1.04813
 40
0.003
 41
0.003
  0
LWPOLYLINE
  5
117
100
AcDbEntity
  8
0
 62
   254
100
AcDbPolyline
 90
        2
 70
     0
 39
0.003
 10
-0.108937
 20
1.056988
 40
0.003
 41
0.003
 10
0.529689
 20
1.423201
 40
0.003
 41
0.003
  0
LWPOLYLINE
  5
118
100
AcDbEntity
  8
0
 62
   254
100
AcDbPolyline
 90
        2
 70
     0
 39
0.003
 10
0.529689
 20
1.423201
 40
0.003
 41
0.003
 10
0.51415
 20
1.432496
 40
0.003
 41
0.003
  0
LWPOLYLINE
  5
119
100
AcDbEntity
  8
0
 62
   254
100
AcDbPolyline
 90
        2
 70
     0
 39
0.003
 10
0.51415
 20
1.432496
 40
0.003
 41
0.003
 10
-0.124476
 20
1.066283
 40
0.003
 41
0.003
  0
LWPOLYLINE
  5
11A
100
AcDbEntity
  8
0
 62
   254
100
AcDbPolyline
 90
        2
 70
     0
 39
0.003
 10
-0.124476
 20
1.066283
 40
0.003
 41
0.003
 10
-0.108937
 20
1.056988
 40
0.003
 41
0.003
  0
LWPOLYLINE
  5
11B
100
AcDbEntity
  8
0
 62
   254
100
AcDbPolyline
 90
        2
 70
     0
 39
0.003
 10
-0.124476
 20
1.066283
 40
0.003
 41
0.003
 10
0.51415
 20
1.432496
 40
0.003
 41
0.003
  0
LWPOLYLINE
  5
11C
100
AcDbEntity
  8
0
 62
   254
100
AcDbPolyline
 90
        2
 70
     0
 39
0.003
 10
0.51415
 20
1.432496
 40
0.003
 41
0.003
 10
0.499323
 20
1.442197
 40
0.003
 41
0.003
  0
LWPOLYLINE
  5
11D
100
AcDbEntity
  8
0
 62
   254
100
AcDbPolyline
 90
        2
 70
     0
 39
0.003
 10
0.499323
 20
1.442197
 40
0.003
 41
0.003
 10
-0.139303
 20
1.075984
 40
0.003
 41
0.003
  0
LWPOLYLINE
  5
11E
100
AcDbEntity
  8
0
 62
   254
100
AcDbPolyline
 90
        2
 70
     0
 39
0.003
 10
-0.139303
 20
1.075984
 40
0.003
 41
0.003
 10
-0.124476
 20
1.066283
 40
0.003
 41
0.003
  0
LWPOLYLINE
  5
11F
100
AcDbEntity
  8
0
 62
   254
100
AcDbPolyline
 90
        2
 70
     0
 39
0.003
 10
-0.139303
 20
1.075984
 40
0.003
 41
0.003
 10
0.499323
 20
1.442197
 40
0.003
 41
0.003
  0
LWPOLYLINE
  5
120
100
AcDbEntity
  8
0
 62
   254
100
AcDbPolyline
 90
        2
 70
     0
 39
0.003
 10
0.499323
 20
1.442197
 40
0.003
 41
0.003
 10
0.48526
 20
1.452307
 40
0.003
 41
0.003
  0
LWPOLYLINE
  5
121
100
AcDbEntity
  8
0
 62
   254
100
AcDbPolyline
 90
        2
 70
     0
 39
0.003
 10
0.48526
 20
1.452307
 40
0.003
 41
0.003
 10
-0.153366
 20
1.086094
 40
0.003
 41
0.003
  0
LWPOLYLINE
  5
122
100
AcDbEntity
  8
0
 62
   254
100
AcDbPolyline
 90
        2
 70
     0
 39
0.003
 10
-0.153366
 20
1.086094
 40
0.003
 41
0.003
 10
-0.139303
 20
1.075984
 40
0.003
 41
0.003
  0
LWPOLYLINE
  5
123
100
AcDbEntity
  8
0
 62
   254
100
AcDbPolyline
 90
        2
 70
     0
 39
0.003
 10
-0.153366
 20
1.086094
 40
0.003
 41
0.003
 10
0.48526
 20
1.452307
 40
0.003
 41
0.003
  0
LWPOLYLINE
  5
124
100
AcDbEntity
  8
0
 62
   254
100
AcDbPolyline
 90
        2
 70
     0
 39
0.003
 10
0.48526
 20
1.452307
 40
0.003
 41
0.003
 10
0.471965
 20
1.462803
 40
0.003
 41
0.003
  0
LWPOLYLINE
  5
125
100
AcDbEntity
  8
0
 62
   254
100
AcDbPolyline
 90
        2
 70
     0
 39
0.003
 10
0.471965
 20
1.462803
 40
0.003
 41
0.003
 10
-0.166661
 20
1.096591
 40
0.003
 41
0.003
  0
LWPOLYLINE
  5
126
100
AcDbEntity
  8
0
 62
   254
100
AcDbPolyline
 90
        2
 70
     0
 39
0.003
 10
-0.166661
 20
1.096591
 40
0.003
 41
0.003
 10
-0.153366
 20
1.086094
 40
0.003
 41
0.003
  0
LWPOLYLINE
  5
127
100
AcDbEntity
  8
0
 62
   254
100
AcDbPolyline
 90
        2
 70
     0
 39
0.003
 10
-0.166661
 20
1.096591
 40
0.003
 41
0.003
 10
0.471965
 20
1.462803
 40
0.003
 41
0.003
  0
LWPOLYLINE
  5
128
100
AcDbEntity
  8
0
 62
   254
100
AcDbPolyline
 90
        2
 70
     0
 39
0.003
 10
0.471965
 20
1.462803
 40
0.003
 41
0.003
 10
0.459484
 20
1.473677
 40
0.003
 41
0.003
  0
LWPOLYLINE
  5
129
100
AcDbEntity
  8
0
 62
   254
100
AcDbPolyline
 90
        2
 70
     0
 39
0.003
 10
0.459484
 20
1.473677
 40
0.003
 41
0.003
 10
-0.179142
 20
1.107465
 40
0.003
 41
0.003
  0
LWPOLYLINE
  5
12A
100
AcDbEntity
  8
0
 62
   254
100
AcDbPolyline
 90
        2
 70
     0
 39
0.003
 10
-0.179142
 20
1.107465
 40
0.003
 41
0.003
 10
-0.166661
 20
1.096591
 40
0.003
 41
0.003
  0
LWPOLYLINE
  5
12B
100
AcDbEntity
  8
0
 62
   254
100
AcDbPolyline
 90
        2
 70
     0
 39
0.003
 10
-0.179142
 20
1.107465
 40
0.003
 41
0.003
 10
0.459484
 20
1.473677
 40
0.003
 41
0.003
  0
LWPOLYLINE
  5
12C
100
AcDbEntity
  8
0
 62
   254
100
AcDbPolyline
 90
        2
 70
     0
 39
0.003
 10
0.459484
 20
1.473677
 40
0.003
 41
0.003
 10
0.447823
 20
1.484906
 40
0.003
 41
0.003
  0
LWPOLYLINE
  5
12D
100
AcDbEntity
  8
0
 62
   254
100
AcDbPolyline
 90
        2
 70
     0
 39
0.003
 10
0.447823
 20
1.484906
 40
0.003
 41
0.003
 10
-0.190803
 20
1.118693
 40
0.003
 41
0.003
  0
LWPOLYLINE
  5
12E
100
AcDbEntity
  8
0
 62
   254
100
AcDbPolyline
 90
        2
 70
     0
 39
0.003
 10
-0.190803
 20
1.118693
 40
0.003
 41
0.003
 10
-0.179142
 20
1.107465
 40
0.003
 41
0.003
  0
LWPOLYLINE
  5
12F
100
AcDbEntity
  8
0
 62
   254
100
AcDbPolyline
 90
        2
 70
     0
 39
0.003
 10
-0.190803
 20
1.118693
 40
0.003
 41
0.003
 10
0.447823
 20
1.484906
 40
0.003
 41
0.003
  0
LWPOLYLINE
  5
130
100
AcDbEntity
  8
0
 62
   254
100
AcDbPolyline
 90
        2
 70
     0
 39
0.003
 10
0.447823
 20
1.484906
 40
0.003
 41
0.003
 10
0.437024
 20
1.49648
 40
0.003
 41
0.003
  0
LWPOLYLINE
  5
131
100
AcDbEntity
  8
0
 62
   254
100
AcDbPolyline
 90
        2
 70
     0
 39
0.003
 10
0.437024
 20
1.49648
 40
0.003
 41
0.003
 10
-0.201602
 20
1.130268
 40
0.003
 41
0.003
  0
LWPOLYLINE
  5
132
100
AcDbEntity
  8
0
 62
   254
100
AcDbPolyline
 90
        2
 70
     0
 39
0.003
 10
-0.201602
 20
1.130268
 40
0.003
 41
0.003
 10
-0.190803
 20
1.118693
 40
0.003
 41
0.003
  0
LWPOLYLINE
  5
133
100
AcDbEntity
  8
0
 62
   254
100
AcDbPolyline
 90
        2
 70
     0
 39
0.003
 10
-0.201602
 20
1.130268
 40
0.003
 41
0.003
 10
0.437024
 20
1.49648
 40
0.003
 41
0.003
  0
LWPOLYLINE
  5
134
100
AcDbEntity
  8
0
 62
   254
100
AcDbPolyline
 90
        2
 70
     0
 39
0.003
 10
0.437024
 20
1.49648
 40
0.003
 41
0.003
 10
0.427102
 20
1.508386
 40
0.003
 41
0.003
  0
LWPOLYLINE
  5
135
100
AcDbEntity
  8
0
 62
   254
100
AcDbPolyline
 90
        2
 70
     0
 39
0.003
 10
0.427102
 20
1.508386
 40
0.003
 41
0.003
 10
-0.211524
 20
1.142173
 40
0.003
 41
0.003
  0
LWPOLYLINE
  5
136
100
AcDbEntity
  8
0
 62
   254
100
AcDbPolyline
 90
        2
 70
     0
 39
0.003
 10
-0.211524
 20
1.142173
 40
0.003
 41
0.003
 10
-0.201602
 20
1.130268
 40
0.003
 41
0.003
  0
LWPOLYLINE
  5
137
100
AcDbEntity
  8
0
 62
   254
100
AcDbPolyline
 90
        2
 70
     0
 39
0.003
 10
-0.211524
 20
1.142173
 40
0.003
 41
0.003
 10
0.427102
 20
1.508386
 40
0.003
 41
0.003
  0
LWPOLYLINE
  5
138
100
AcDbEntity
  8
0
 62
   254
100
AcDbPolyline
 90
        2
 70
     0
 39
0.003
 10
0.427102
 20
1.508386
 40
0.003
 41
0.003
 10
0.418094
 20
1.520614
 40
0.003
 41
0.003
  0
LWPOLYLINE
  5
139
100
AcDbEntity
  8
0
 62
   254
100
AcDbPolyline
 90
        2
 70
     0
 39
0.003
 10
0.418094
 20
1.520614
 40
0.003
 41
0.003
 10
-0.220531
 20
1.154402
 40
0.003
 41
0.003
  0
LWPOLYLINE
  5
13A
100
AcDbEntity
  8
0
 62
   254
100
AcDbPolyline
 90
        2
 70
     0
 39
0.003
 10
-0.220531
 20
1.154402
 40
0.003
 41
0.003
 10
-0.211524
 20
1.142173
 40
0.003
 41
0.003
  0
LWPOLYLINE
  5
13B
100
AcDbEntity
  8
0
 62
   254
100
AcDbPolyline
 90
        2
 70
     0
 39
0.003
 10
-0.220531
 20
1.154402
 40
0.003
 41
0.003
 10
0.418094
 20
1.520614
 40
0.003
 41
0.003
  0
LWPOLYLINE
  5
13C
100
AcDbEntity
  8
0
 62
   254
100
AcDbPolyline
 90
        2
 70
     0
 39
0.003
 10
0.418094
 20
1.520614
 40
0.003
 41
0.003
 10
0.410012
 20
1.53313
 40
0.003
 41
0.003
  0
LWPOLYLINE
  5
13D
100
AcDbEntity
  8
0
 62
   254
100
AcDbPolyline
 90
        2
 70
     0
 39
0.003
 10
0.410012
 20
1.53313
 40
0.003
 41
0.003
 10
-0.228614
 20
1.166917
 40
0.003
 41
0.003
  0
LWPOLYLINE
  5
13E
100
AcDbEntity
  8
0
 62
   254
100
AcDbPolyline
 90
        2
 70
     0
 39
0.003
 10
-0.228614
 20
1.166917
 40
0.003
 41
0.003
 10
-0.220531
 20
1.154402
 40
0.003
 41
0.003
  0
LWPOLYLINE
  5
13F
100
AcDbEntity
  8
0
 62
   254
100
AcDbPolyline
 90
        2
 70
     0
 39
0.003
 10
-0.228614
 20
1.166917
 40
0.003
 41
0.003
 10
0.410012
 20
1.53313
 40
0.003
 41
0.003
  0
LWPOLYLINE
  5
140
100
AcDbEntity
  8
0
 62
   254
100
AcDbPolyline
 90
        2
 70
     0
 39
0.003
 10
0.410012
 20
1.53313
 40
0.003
 41
0.003
 10
0.402894
 20
1.545945
 40
0.003
 41
0.003
  0
LWPOLYLINE
  5
141
100
AcDbEntity
  8
0
 62
   254
100
AcDbPolyline
 90
        2
 70
     0
 39
0.003
 10
0.402894
 20
1.545945
 40
0.003
 41
0.003
 10
-0.235732
 20
1.179732
 40
0.003
 41
0.003
  0
LWPOLYLINE
  5
142
100
AcDbEntity
  8
0
 62
   254
100
AcDbPolyline
 90
        2
 70
     0
 39
0.003
 10
-0.235732
 20
1.179732
 40
0.003
 41
0.003
 10
-0.228614
 20
1.166917
 40
0.003
 41
0.003
  0
LWPOLYLINE
  5
143
100
AcDbEntity
  8
0
 62
   254
100
AcDbPolyline
 90
        2
 70
     0
 39
0.003
 10
-0.235732
 20
1.179732
 40
0.003
 41
0.003
 10
0.402894
 20
1.545945
 40
0.003
 41
0.003
  0
LWPOLYLINE
  5
144
100
AcDbEntity
  8
0
 62
   254
100
AcDbPolyline
 90
        2
 70
     0
 39
0.003
 10
0.402894
 20
1.545945
 40
0.003
 41
0.003
 10
0.39676
 20
1.559028
 40
0.003
 41
0.003
  0
LWPOLYLINE
  5
145
100
AcDbEntity
  8
0
 62
   254
100
AcDbPolyline
 90
        2
 70
     0
 39
0.003
 10
0.39676
 20
1.559028
 40
0.003
 41
0.003
 10
-0.241866
 20
1.192815
 40
0.003
 41
0.003
  0
LWPOLYLINE
  5
146
100
AcDbEntity
  8
0
 62
   254
100
AcDbPolyline
 90
        2
 70
     0
 39
0.003
 10
-0.241866
 20
1.192815
 40
0.003
 41
0.003
 10
-0.235732
 20
1.179732
 40
0.003
 41
0.003
  0
LWPOLYLINE
  5
147
100
AcDbEntity
  8
0
 62
   254
100
AcDbPolyline
 90
        2
 70
     0
 39
0.003
 10
-0.241866
 20
1.192815
 40
0.003
 41
0.003
 10
0.39676
 20
1.559028
 40
0.003
 41
0.003
  0
LWPOLYLINE
  5
148
100
AcDbEntity
  8
0
 62
   254
100
AcDbPolyline
 90
        2
 70
     0
 39
0.003
 10
0.39676
 20
1.559028
 40
0.003
 41
0.003
 10
0.391646
 20
1.57237
 40
0.003
 41
0.003
  0
LWPOLYLINE
  5
149
100
AcDbEntity
  8
0
 62
   254
100
AcDbPolyline
 90
        2
 70
     0
 39
0.003
 10
0.391646
 20
1.57237
 40
0.003
 41
0.003
 10
-0.24698
 20
1.206157
 40
0.003
 41
0.003
  0
LWPOLYLINE
  5
14A
100
AcDbEntity
  8
0
 62
   254
100
AcDbPolyline
 90
        2
 70
     0
 39
0.003
 10
-0.24698
 20
1.206157
 40
0.003
 41
0.003
 10
-0.241866
 20
1.192815
 40
0.003
 41
0.003
  0
LWPOLYLINE
  5
14B
100
AcDbEntity
  8
0
 62
   254
100
AcDbPolyline
 90
        2
 70
     0
 39
0.003
 10
-0.24698
 20
1.206157
 40
0.003
 41
0.003
 10
0.391646
 20
1.57237
 40
0.003
 41
0.003
  0
LWPOLYLINE
  5
14C
100
AcDbEntity
  8
0
 62
   254
100
AcDbPolyline
 90
        2
 70
     0
 39
0.003
 10
0.391646
 20
1.57237
 40
0.003
 41
0.003
 10
0.387559
 20
1.585949
 40
0.003
 41
0.003
  0
LWPOLYLINE
  5
14D
100
AcDbEntity
  8
0
 62
   254
100
AcDbPolyline
 90
        2
 70
     0
 39
0.003
 10
0.387559
 20
1.585949
 40
0.003
 41
0.003
 10
-0.251067
 20
1.219736
 40
0.003
 41
0.003
  0
LWPOLYLINE
  5
14E
100
AcDbEntity
  8
0
 62
   254
100
AcDbPolyline
 90
        2
 70
     0
 39
0.003
 10
-0.251067
 20
1.219736
 40
0.003
 41
0.003
 10
-0.24698
 20
1.206157
 40
0.003
 41
0.003
  0
LWPOLYLINE
  5
14F
100
AcDbEntity
  8
0
 62
   254
100
AcDbPolyline
 90
        2
 70
     0
 39
0.003
 10
-0.251067
 20
1.219736
 40
0.003
 41
0.003
 10
0.387559
 20
1.585949
 40
0.003
 41
0.003
  0
LWPOLYLINE
  5
150
100
AcDbEntity
  8
0
 62
   254
100
AcDbPolyline
 90
        2
 70
     0
 39
0.003
 10
0.387559
 20
1.585949
 40
0.003
 41
0.003
 10
0.384539
 20
1.599764
 40
0.003
 41
0.003
  0
LWPOLYLINE
  5
151
100
AcDbEntity
  8
0
 62
   254
100
AcDbPolyline
 90
        2
 70
     0
 39
0.003
 10
0.384539
 20
1.599764
 40
0.003
 41
0.003
 10
-0.254087
 20
1.233551
 40
0.003
 41
0.003
  0
LWPOLYLINE
  5
152
100
AcDbEntity
  8
0
 62
   254
100
AcDbPolyline
 90
        2
 70
     0
 39
0.003
 10
-0.254087
 20
1.233551
 40
0.003
 41
0.003
 10
-0.251067
 20
1.219736
 40
0.003
 41
0.003
  0
LWPOLYLINE
  5
153
100
AcDbEntity
  8
0
 62
   254
100
AcDbPolyline
 90
        2
 70
     0
 39
0.003
 10
-0.254087
 20
1.233551
 40
0.003
 41
0.003
 10
0.384539
 20
1.599764
 40
0.003
 41
0.003
  0
LWPOLYLINE
  5
154
100
AcDbEntity
  8
0
 62
   254
100
AcDbPolyline
 90
        2
 70
     0
 39
0.003
 10
0.384539
 20
1.599764
 40
0.003
 41
0.003
 10
0.38261
 20
1.613791
 40
0.003
 41
0.003
  0
LWPOLYLINE
  5
155
100
AcDbEntity
  8
0
 62
   254
100
AcDbPolyline
 90
        2
 70
     0
 39
0.003
 10
0.38261
 20
1.613791
 40
0.003
 41
0.003
 10
-0.256016
 20
1.247579
 40
0.003
 41
0.003
  0
LWPOLYLINE
  5
156
100
AcDbEntity
  8
0
 62
   254
100
AcDbPolyline
 90
        2
 70
     0
 39
0.003
 10
-0.256016
 20
1.247579
 40
0.003
 41
0.003
 10
-0.254087
 20
1.233551
 40
0.003
 41
0.003
  0
LWPOLYLINE
  5
157
100
AcDbEntity
  8
0
 62
   254
100
AcDbPolyline
 90
        2
 70
     0
 39
0.003
 10
-0.256016
 20
1.247579
 40
0.003
 41
0.003
 10
0.38261
 20
1.613791
 40
0.003
 41
0.003
  0
LWPOLYLINE
  5
158
100
AcDbEntity
  8
0
 62
   254
100
AcDbPolyline
 90
        2
 70
     0
 39
0.003
 10
0.38261
 20
1.613791
 40
0.003
 41
0.003
 10
0.381803
 20
1.628024
 40
0.003
 41
0.003
  0
LWPOLYLINE
  5
159
100
AcDbEntity
  8
0
 62
   254
100
AcDbPolyline
 90
        2
 70
     0
 39
0.003
 10
0.381803
 20
1.628024
 40
0.003
 41
0.003
 10
-0.256823
 20
1.261811
 40
0.003
 41
0.003
  0
LWPOLYLINE
  5
15A
100
AcDbEntity
  8
0
 62
   254
100
AcDbPolyline
 90
        2
 70
     0
 39
0.003
 10
-0.256823
 20
1.261811
 40
0.003
 41
0.003
 10
-0.256016
 20
1.247579
 40
0.003
 41
0.003
  0
LWPOLYLINE
  5
15B
100
AcDbEntity
  8
0
 62
     0
100
AcDbPolyline
 90
        2
 70
     0
 39
0.003
 10
0.193567
 20
0.874634
 40
0.003
 41
0.003
 10
0.832193
 20
1.240846
 40
0.003
 41
0.003
  0
LWPOLYLINE
  5
15C
100
AcDbEntity
  8
0
 62
     0
100
AcDbPolyline
 90
        2
 70
     0
 39
0.003
 10
0.832193
 20
1.240846
 40
0.003
 41
0.003
 10
0.832193
 20
1.34387
 40
0.003
 41
0.003
  0
LWPOLYLINE
  5
15D
100
AcDbEntity
  8
0
 62
     0
100
AcDbPolyline
 90
        2
 70
     0
 39
0.003
 10
0.832193
 20
1.34387
 40
0.003
 41
0.003
 10
0.80889
 20
1.345146
 40
0.003
 41
0.003
  0
LWPOLYLINE
  5
15E
100
AcDbEntity
  8
0
 62
     0
100
AcDbPolyline
 90
        2
 70
     0
 39
0.003
 10
0.80889
 20
1.345146
 40
0.003
 41
0.003
 10
0.785925
 20
1.347063
 40
0.003
 41
0.003
  0
LWPOLYLINE
  5
15F
100
AcDbEntity
  8
0
 62
     0
100
AcDbPolyline
 90
        2
 70
     0
 39
0.003
 10
0.785925
 20
1.347063
 40
0.003
 41
0.003
 10
0.763319
 20
1.349594
 40
0.003
 41
0.003
  0
LWPOLYLINE
  5
160
100
AcDbEntity
  8
0
 62
     0
100
AcDbPolyline
 90
        2
 70
     0
 39
0.003
 10
0.763319
 20
1.349594
 40
0.003
 41
0.003
 10
0.741102
 20
1.352744
 40
0.003
 41
0.003
  0
LWPOLYLINE
  5
161
100
AcDbEntity
  8
0
 62
     0
100
AcDbPolyline
 90
        2
 70
     0
 39
0.003
 10
0.741102
 20
1.352744
 40
0.003
 41
0.003
 10
0.719295
 20
1.356476
 40
0.003
 41
0.003
  0
LWPOLYLINE
  5
162
100
AcDbEntity
  8
0
 62
     0
100
AcDbPolyline
 90
        2
 70
     0
 39
0.003
 10
0.719295
 20
1.356476
 40
0.003
 41
0.003
 10
0.697933
 20
1.360791
 40
0.003
 41
0.003
  0
LWPOLYLINE
  5
163
100
AcDbEntity
  8
0
 62
     0
100
AcDbPolyline
 90
        2
 70
     0
 39
0.003
 10
0.697933
 20
1.360791
 40
0.003
 41
0.003
 10
0.677031
 20
1.365665
 40
0.003
 41
0.003
  0
LWPOLYLINE
  5
164
100
AcDbEntity
  8
0
 62
     0
100
AcDbPolyline
 90
        2
 70
     0
 39
0.003
 10
0.677031
 20
1.365665
 40
0.003
 41
0.003
 10
0.656626
 20
1.371098
 40
0.003
 41
0.003
  0
LWPOLYLINE
  5
165
100
AcDbEntity
  8
0
 62
     0
100
AcDbPolyline
 90
        2
 70
     0
 39
0.003
 10
0.656626
 20
1.371098
 40
0.003
 41
0.003
 10
0.636728
 20
1.377051
 40
0.003
 41
0.003
  0
LWPOLYLINE
  5
166
100
AcDbEntity
  8
0
 62
     0
100
AcDbPolyline
 90
        2
 70
     0
 39
0.003
 10
0.636728
 20
1.377051
 40
0.003
 41
0.003
 10
0.617382
 20
1.383531
 40
0.003
 41
0.003
  0
LWPOLYLINE
  5
167
100
AcDbEntity
  8
0
 62
     0
100
AcDbPolyline
 90
        2
 70
     0
 39
0.003
 10
0.617382
 20
1.383531
 40
0.003
 41
0.003
 10
0.598598
 20
1.390512
 40
0.003
 41
0.003
  0
LWPOLYLINE
  5
168
100
AcDbEntity
  8
0
 62
     0
100
AcDbPolyline
 90
        2
 70
     0
 39
0.003
 10
0.598598
 20
1.390512
 40
0.003
 41
0.003
 10
0.580417
 20
1.397988
 40
0.003
 41
0.003
  0
LWPOLYLINE
  5
169
100
AcDbEntity
  8
0
 62
     0
100
AcDbPolyline
 90
        2
 70
     0
 39
0.003
 10
0.580417
 20
1.397988
 40
0.003
 41
0.003
 10
0.56285
 20
1.405933
 40
0.003
 41
0.003
  0
LWPOLYLINE
  5
16A
100
AcDbEntity
  8
0
 62
     0
100
AcDbPolyline
 90
        2
 70
     0
 39
0.003
 10
0.56285
 20
1.405933
 40
0.003
 41
0.003
 10
0.545933
 20
1.414343
 40
0.003
 41
0.003
  0
LWPOLYLINE
  5
16B
100
AcDbEntity
  8
0
 62
     0
100
AcDbPolyline
 90
        2
 70
     0
 39
0.003
 10
0.545933
 20
1.414343
 40
0.003
 41
0.003
 10
0.529689
 20
1.423201
 40
0.003
 41
0.003
  0
LWPOLYLINE
  5
16C
100
AcDbEntity
  8
0
 62
     0
100
AcDbPolyline
 90
        2
 70
     0
 39
0.003
 10
0.529689
 20
1.423201
 40
0.003
 41
0.003
 10
0.51415
 20
1.432496
 40
0.003
 41
0.003
  0
LWPOLYLINE
  5
16D
100
AcDbEntity
  8
0
 62
     0
100
AcDbPolyline
 90
        2
 70
     0
 39
0.003
 10
0.51415
 20
1.432496
 40
0.003
 41
0.003
 10
0.499323
 20
1.442197
 40
0.003
 41
0.003
  0
LWPOLYLINE
  5
16E
100
AcDbEntity
  8
0
 62
     0
100
AcDbPolyline
 90
        2
 70
     0
 39
0.003
 10
0.499323
 20
1.442197
 40
0.003
 41
0.003
 10
0.48526
 20
1.452307
 40
0.003
 41
0.003
  0
LWPOLYLINE
  5
16F
100
AcDbEntity
  8
0
 62
     0
100
AcDbPolyline
 90
        2
 70
     0
 39
0.003
 10
0.48526
 20
1.452307
 40
0.003
 41
0.003
 10
0.471965
 20
1.462803
 40
0.003
 41
0.003
  0
LWPOLYLINE
  5
170
100
AcDbEntity
  8
0
 62
     0
100
AcDbPolyline
 90
        2
 70
     0
 39
0.003
 10
0.471965
 20
1.462803
 40
0.003
 41
0.003
 10
0.459484
 20
1.473677
 40
0.003
 41
0.003
  0
LWPOLYLINE
  5
171
100
AcDbEntity
  8
0
 62
     0
100
AcDbPolyline
 90
        2
 70
     0
 39
0.003
 10
0.459484
 20
1.473677
 40
0.003
 41
0.003
 10
0.447823
 20
1.484906
 40
0.003
 41
0.003
  0
LWPOLYLINE
  5
172
100
AcDbEntity
  8
0
 62
     0
100
AcDbPolyline
 90
        2
 70
     0
 39
0.003
 10
0.447823
 20
1.484906
 40
0.003
 41
0.003
 10
0.437024
 20
1.49648
 40
0.003
 41
0.003
  0
LWPOLYLINE
  5
173
100
AcDbEntity
  8
0
 62
     0
100
AcDbPolyline
 90
        2
 70
     0
 39
0.003
 10
0.437024
 20
1.49648
 40
0.003
 41
0.003
 10
0.427102
 20
1.508386
 40
0.003
 41
0.003
  0
LWPOLYLINE
  5
174
100
AcDbEntity
  8
0
 62
     0
100
AcDbPolyline
 90
        2
 70
     0
 39
0.003
 10
0.427102
 20
1.508386
 40
0.003
 41
0.003
 10
0.418094
 20
1.520614
 40
0.003
 41
0.003
  0
LWPOLYLINE
  5
175
100
AcDbEntity
  8
0
 62
     0
100
AcDbPolyline
 90
        2
 70
     0
 39
0.003
 10
0.418094
 20
1.520614
 40
0.003
 41
0.003
 10
0.410012
 20
1.53313
 40
0.003
 41
0.003
  0
LWPOLYLINE
  5
176
100
AcDbEntity
  8
0
 62
     0
100
AcDbPolyline
 90
        2
 70
     0
 39
0.003
 10
0.410012
 20
1.53313
 40
0.003
 41
0.003
 10
0.402894
 20
1.545945
 40
0.003
 41
0.003
  0
LWPOLYLINE
  5
177
100
AcDbEntity
  8
0
 62
     0
100
AcDbPolyline
 90
        2
 70
     0
 39
0.003
 10
0.402894
 20
1.545945
 40
0.003
 41
0.003
 10
0.39676
 20
1.559028
 40
0.003
 41
0.003
  0
LWPOLYLINE
  5
178
100
AcDbEntity
  8
0
 62
     0
100
AcDbPolyline
 90
        2
 70
     0
 39
0.003
 10
0.39676
 20
1.559028
 40
0.003
 41
0.003
 10
0.391646
 20
1.57237
 40
0.003
 41
0.003
  0
LWPOLYLINE
  5
179
100
AcDbEntity
  8
0
 62
     0
100
AcDbPolyline
 90
        2
 70
     0
 39
0.003
 10
0.391646
 20
1.57237
 40
0.003
 41
0.003
 10
0.387559
 20
1.585949
 40
0.003
 41
0.003
  0
LWPOLYLINE
  5
17A
100
AcDbEntity
  8
0
 62
     0
100
AcDbPolyline
 90
        2
 70
     0
 39
0.003
 10
0.387559
 20
1.585949
 40
0.003
 41
0.003
 10
0.384539
 20
1.599764
 40
0.003
 41
0.003
  0
LWPOLYLINE
  5
17B
100
AcDbEntity
  8
0
 62
     0
100
AcDbPolyline
 90
        2
 70
     0
 39
0.003
 10
0.384539
 20
1.599764
 40
0.003
 41
0.003
 10
0.38261
 20
1.613791
 40
0.003
 41
0.003
  0
LWPOLYLINE
  5
17C
100
AcDbEntity
  8
0
 62
     0
100
AcDbPolyline
 90
        2
 70
     0
 39
0.003
 10
0.38261
 20
1.613791
 40
0.003
 41
0.003
 10
0.381803
 20
1.628024
 40
0.003
 41
0.003
  0
LWPOLYLINE
  5
17D
100
AcDbEntity
  8
0
 62
     0
100
AcDbPolyline
 90
        2
 70
     0
 39
0.003
 10
0.381803
 20
1.628024
 40
0.003
 41
0.003
 10
-0.256823
 20
1.261811
 40
0.003
 41
0.003
  0
LWPOLYLINE
  5
17E
100
AcDbEntity
  8
0
 62
     0
100
AcDbPolyline
 90
        2
 70
     0
 39
0.003
 10
-0.256823
 20
1.261811
 40
0.003
 41
0.003
 10
-0.256016
 20
1.247579
 40
0.003
 41
0.003
  0
LWPOLYLINE
  5
17F
100
AcDbEntity
  8
0
 62
     0
100
AcDbPolyline
 90
        2
 70
     0
 39
0.003
 10
-0.256016
 20
1.247579
 40
0.003
 41
0.003
 10
-0.254087
 20
1.233551
 40
0.003
 41
0.003
  0
LWPOLYLINE
  5
180
100
AcDbEntity
  8
0
 62
     0
100
AcDbPolyline
 90
        2
 70
     0
 39
0.003
 10
-0.254087
 20
1.233551
 40
0.003
 41
0.003
 10
-0.251067
 20
1.219736
 40
0.003
 41
0.003
  0
LWPOLYLINE
  5
181
100
AcDbEntity
  8
0
 62
     0
100
AcDbPolyline
 90
        2
 70
     0
 39
0.003
 10
-0.251067
 20
1.219736
 40
0.003
 41
0.003
 10
-0.24698
 20
1.206157
 40
0.003
 41
0.003
  0
LWPOLYLINE
  5
182
100
AcDbEntity
  8
0
 62
     0
100
AcDbPolyline
 90
        2
 70
     0
 39
0.003
 10
-0.24698
 20
1.206157
 40
0.003
 41
0.003
 10
-0.241866
 20
1.192815
 40
0.003
 41
0.003
  0
LWPOLYLINE
  5
183
100
AcDbEntity
  8
0
 62
     0
100
AcDbPolyline
 90
        2
 70
     0
 39
0.003
 10
-0.241866
 20
1.192815
 40
0.003
 41
0.003
 10
-0.235732
 20
1.179732
 40
0.003
 41
0.003
  0
LWPOLYLINE
  5
184
100
AcDbEntity
  8
0
 62
     0
100
AcDbPolyline
 90
        2
 70
     0
 39
0.003
 10
-0.235732
 20
1.179732
 40
0.003
 41
0.003
 10
-0.228614
 20
1.166917
 40
0.003
 41
0.003
  0
LWPOLYLINE
  5
185
100
AcDbEntity
  8
0
 62
     0
100
AcDbPolyline
 90
        2
 70
     0
 39
0.003
 10
-0.228614
 20
1.166917
 40
0.003
 41
0.003
 10
-0.220531
 20
1.154402
 40
0.003
 41
0.003
  0
LWPOLYLINE
  5
186
100
AcDbEntity
  8
0
 62
     0
100
AcDbPolyline
 90
        2
 70
     0
 39
0.003
 10
-0.220531
 20
1.154402
 40
0.003
 41
0.003
 10
-0.211524
 20
1.142173
 40
0.003
 41
0.003
  0
LWPOLYLINE
  5
187
100
AcDbEntity
  8
0
 62
     0
100
AcDbPolyline
 90
        2
 70
     0
 39
0.003
 10
-0.211524
 20
1.142173
 40
0.003
 41
0.003
 10
-0.201602
 20
1.130268
 40
0.003
 41
0.003
  0
LWPOLYLINE
  5
188
100
AcDbEntity
  8
0
 62
     0
100
AcDbPolyline
 90
        2
 70
     0
 39
0.003
 10
-0.201602
 20
1.130268
 40
0.003
 41
0.003
 10
-0.190803
 20
1.118693
 40
0.003
 41
0.003
  0
LWPOLYLINE
  5
189
100
AcDbEntity
  8
0
 62
     0
100
AcDbPolyline
 90
        2
 70
     0
 39
0.003
 10
-0.190803
 20
1.118693
 40
0.003
 41
0.003
 10
-0.179142
 20
1.107465
 40
0.003
 41
0.003
  0
LWPOLYLINE
  5
18A
100
AcDbEntity
  8
0
 62
     0
100
AcDbPolyline
 90
        2
 70
     0
 39
0.003
 10
-0.179142
 20
1.107465
 40
0.003
 41
0.003
 10
-0.166661
 20
1.096591
 40
0.003
 41
0.003
  0
LWPOLYLINE
  5
18B
100
AcDbEntity
  8
0
 62
     0
100
AcDbPolyline
 90
        2
 70
     0
 39
0.003
 10
-0.166661
 20
1.096591
 40
0.003
 41
0.003
 10
-0.153366
 20
1.086094
 40
0.003
 41
0.003
  0
LWPOLYLINE
  5
18C
100
AcDbEntity
  8
0
 62
     0
100
AcDbPolyline
 90
        2
 70
     0
 39
0.003
 10
-0.153366
 20
1.086094
 40
0.003
 41
0.003
 10
-0.139303
 20
1.075984
 40
0.003
 41
0.003
  0
LWPOLYLINE
  5
18D
100
AcDbEntity
  8
0
 62
     0
100
AcDbPolyline
 90
        2
 70
     0
 39
0.003
 10
-0.139303
 20
1.075984
 40
0.003
 41
0.003
 10
-0.124476
 20
1.066283
 40
0.003
 41
0.003
  0
LWPOLYLINE
  5
18E
100
AcDbEntity
  8
0
 62
     0
100
AcDbPolyline
 90
        2
 70
     0
 39
0.003
 10
-0.124476
 20
1.066283
 40
0.003
 41
0.003
 10
-0.108937
 20
1.056988
 40
0.003
 41
0.003
  0
LWPOLYLINE
  5
18F
100
AcDbEntity
  8
0
 62
     0
100
AcDbPolyline
 90
        2
 70
     0
 39
0.003
 10
-0.108937
 20
1.056988
 40
0.003
 41
0.003
 10
-0.092693
 20
1.04813
 40
0.003
 41
0.003
  0
LWPOLYLINE
  5
190
100
AcDbEntity
  8
0
 62
     0
100
AcDbPolyline
 90
        2
 70
     0
 39
0.003
 10
-0.092693
 20
1.04813
 40
0.003
 41
0.003
 10
-0.075776
 20
1.03972
 40
0.003
 41
0.003
  0
LWPOLYLINE
  5
191
100
AcDbEntity
  8
0
 62
     0
100
AcDbPolyline
 90
        2
 70
     0
 39
0.003
 10
-0.075776
 20
1.03972
 40
0.003
 41
0.003
 10
-0.058209
 20
1.031776
 40
0.003
 41
0.003
  0
LWPOLYLINE
  5
192
100
AcDbEntity
  8
0
 62
     0
100
AcDbPolyline
 90
        2
 70
     0
 39
0.003
 10
-0.058209
 20
1.031776
 40
0.003
 41
0.003
 10
-0.040028
 20
1.024299
 40
0.003
 41
0.003
  0
LWPOLYLINE
  5
193
100
AcDbEntity
  8
0
 62
     0
100
AcDbPolyline
 90
        2
 70
     0
 39
0.003
 10
-0.040028
 20
1.024299
 40
0.003
 41
0.003
 10
-0.021244
 20
1.017319
 40
0.003
 41
0.003
  0
LWPOLYLINE
  5
194
100
AcDbEntity
  8
0
 62
     0
100
AcDbPolyline
 90
        2
 70
     0
 39
0.003
 10
-0.021244
 20
1.017319
 40
0.003
 41
0.003
 10
-0.001898
 20
1.010839
 40
0.003
 41
0.003
  0
LWPOLYLINE
  5
195
100
AcDbEntity
  8
0
 62
     0
100
AcDbPolyline
 90
        2
 70
     0
 39
0.003
 10
-0.001898
 20
1.010839
 40
0.003
 41
0.003
 10
0.018
 20
1.004886
 40
0.003
 41
0.003
  0
LWPOLYLINE
  5
196
100
AcDbEntity
  8
0
 62
     0
100
AcDbPolyline
 90
        2
 70
     0
 39
0.003
 10
0.018
 20
1.004886
 40
0.003
 41
0.003
 10
0.038406
 20
0.999453
 40
0.003
 41
0.003
  0
LWPOLYLINE
  5
197
100
AcDbEntity
  8
0
 62
     0
100
AcDbPolyline
 90
        2
 70
     0
 39
0.003
 10
0.038406
 20
0.999453
 40
0.003
 41
0.003
 10
0.059307
 20
0.994579
 40
0.003
 41
0.003
  0
LWPOLYLINE
  5
198
100
AcDbEntity
  8
0
 62
     0
100
AcDbPolyline
 90
        2
 70
     0
 39
0.003
 10
0.059307
 20
0.994579
 40
0.003
 41
0.003
 10
0.080669
 20
0.990264
 40
0.003
 41
0.003
  0
LWPOLYLINE
  5
199
100
AcDbEntity
  8
0
 62
     0
100
AcDbPolyline
 90
        2
 70
     0
 39
0.003
 10
0.080669
 20
0.990264
 40
0.003
 41
0.003
 10
0.102476
 20
0.986531
 40
0.003
 41
0.003
  0
LWPOLYLINE
  5
19A
100
AcDbEntity
  8
0
 62
     0
100
AcDbPolyline
 90
        2
 70
     0
 39
0.003
 10
0.102476
 20
0.986531
 40
0.003
 41
0.003
 10
0.124693
 20
0.983382
 40
0.003
 41
0.003
  0
LWPOLYLINE
  5
19B
100
AcDbEntity
  8
0
 62
     0
100
AcDbPolyline
 90
        2
 70
     0
 39
0.003
 10
0.124693
 20
0.983382
 40
0.003
 41
0.003
 10
0.147299
 20
0.98085
 40
0.003
 41
0.003
  0
LWPOLYLINE
  5
19C
100
AcDbEntity
  8
0
 62
     0
100
AcDbPolyline
 90
        2
 70
     0
 39
0.003
 10
0.147299
 20
0.98085
 40
0.003
 41
0.003
 10
0.170264
 20
0.978933
 40
0.003
 41
0.003
  0
LWPOLYLINE
  5
19D
100
AcDbEntity
  8
0
 62
     0
100
AcDbPolyline
 90
        2
 70
     0
 39
0.003
 10
0.170264
 20
0.978933
 40
0.003
 41
0.003
 10
0.193567
 20
0.977657
 40
0.003
 41
0.003
  0
LWPOLYLINE
  5
19E
100
AcDbEntity
  8
0
 62
     0
100
AcDbPolyline
 90
        2
 70
     0
 39
0.003
 10
0.193567
 20
0.977657
 40
0.003
 41
0.003
 10
0.193567
 20
0.874634
 40
0.003
 41
0.003
  0
LWPOLYLINE
  5
19F
100
AcDbEntity
  8
0
 62
     9
100
AcDbPolyline
 90
        2
 70
     0
 39
0.003
 10
-0.181717
 20
1.283453
 40
0.003
 41
0.003
 10
0.456909
 20
1.649665
 40
0.003
 41
0.003
  0
LWPOLYLINE
  5
1A0
100
AcDbEntity
  8
0
 62
     9
100
AcDbPolyline
 90
        2
 70
     0
 39
0.003
 10
0.456909
 20
1.649665
 40
0.003
 41
0.003
 10
0.468606
 20
1.657433
 40
0.003
 41
0.003
  0
LWPOLYLINE
  5
1A1
100
AcDbEntity
  8
0
 62
     9
100
AcDbPolyline
 90
        2
 70
     0
 39
0.003
 10
0.468606
 20
1.657433
 40
0.003
 41
0.003
 10
-0.17002
 20
1.29122
 40
0.003
 41
0.003
  0
LWPOLYLINE
  5
1A2
100
AcDbEntity
  8
0
 62
     9
100
AcDbPolyline
 90
        2
 70
     0
 39
0.003
 10
-0.17002
 20
1.29122
 40
0.003
 41
0.003
 10
-0.181717
 20
1.283453
 40
0.003
 41
0.003
  0
LWPOLYLINE
  5
1A3
100
AcDbEntity
  8
0
 62
     9
100
AcDbPolyline
 90
        2
 70
     0
 39
0.003
 10
-0.17002
 20
1.29122
 40
0.003
 41
0.003
 10
0.468606
 20
1.657433
 40
0.003
 41
0.003
  0
LWPOLYLINE
  5
1A4
100
AcDbEntity
  8
0
 62
     9
100
AcDbPolyline
 90
        2
 70
     0
 39
0.003
 10
0.468606
 20
1.657433
 40
0.003
 41
0.003
 10
0.479181
 20
1.666118
 40
0.003
 41
0.003
  0
LWPOLYLINE
  5
1A5
100
AcDbEntity
  8
0
 62
     9
100
AcDbPolyline
 90
        2
 70
     0
 39
0.003
 10
0.479181
 20
1.666118
 40
0.003
 41
0.003
 10
-0.159445
 20
1.299906
 40
0.003
 41
0.003
  0
LWPOLYLINE
  5
1A6
100
AcDbEntity
  8
0
 62
     9
100
AcDbPolyline
 90
        2
 70
     0
 39
0.003
 10
-0.159445
 20
1.299906
 40
0.003
 41
0.003
 10
-0.17002
 20
1.29122
 40
0.003
 41
0.003
  0
LWPOLYLINE
  5
1A7
100
AcDbEntity
  8
0
 62
   254
100
AcDbPolyline
 90
        2
 70
     0
 39
0.003
 10
-0.159445
 20
1.299906
 40
0.003
 41
0.003
 10
0.479181
 20
1.666118
 40
0.003
 41
0.003
  0
LWPOLYLINE
  5
1A8
100
AcDbEntity
  8
0
 62
   254
100
AcDbPolyline
 90
        2
 70
     0
 39
0.003
 10
0.479181
 20
1.666118
 40
0.003
 41
0.003
 10
0.488634
 20
1.675634
 40
0.003
 41
0.003
  0
LWPOLYLINE
  5
1A9
100
AcDbEntity
  8
0
 62
   254
100
AcDbPolyline
 90
        2
 70
     0
 39
0.003
 10
0.488634
 20
1.675634
 40
0.003
 41
0.003
 10
-0.149992
 20
1.309421
 40
0.003
 41
0.003
  0
LWPOLYLINE
  5
1AA
100
AcDbEntity
  8
0
 62
   254
100
AcDbPolyline
 90
        2
 70
     0
 39
0.003
 10
-0.149992
 20
1.309421
 40
0.003
 41
0.003
 10
-0.159445
 20
1.299906
 40
0.003
 41
0.003
  0
LWPOLYLINE
  5
1AB
100
AcDbEntity
  8
0
 62
   254
100
AcDbPolyline
 90
        2
 70
     0
 39
0.003
 10
-0.149992
 20
1.309421
 40
0.003
 41
0.003
 10
0.488634
 20
1.675634
 40
0.003
 41
0.003
  0
LWPOLYLINE
  5
1AC
100
AcDbEntity
  8
0
 62
   254
100
AcDbPolyline
 90
        2
 70
     0
 39
0.003
 10
0.488634
 20
1.675634
 40
0.003
 41
0.003
 10
0.496957
 20
1.68587
 40
0.003
 41
0.003
  0
LWPOLYLINE
  5
1AD
100
AcDbEntity
  8
0
 62
   254
100
AcDbPolyline
 90
        2
 70
     0
 39
0.003
 10
0.496957
 20
1.68587
 40
0.003
 41
0.003
 10
-0.141669
 20
1.319657
 40
0.003
 41
0.003
  0
LWPOLYLINE
  5
1AE
100
AcDbEntity
  8
0
 62
   254
100
AcDbPolyline
 90
        2
 70
     0
 39
0.003
 10
-0.141669
 20
1.319657
 40
0.003
 41
0.003
 10
-0.149992
 20
1.309421
 40
0.003
 41
0.003
  0
LWPOLYLINE
  5
1AF
100
AcDbEntity
  8
0
 62
   254
100
AcDbPolyline
 90
        2
 70
     0
 39
0.003
 10
-0.141669
 20
1.319657
 40
0.003
 41
0.003
 10
0.496957
 20
1.68587
 40
0.003
 41
0.003
  0
LWPOLYLINE
  5
1B0
100
AcDbEntity
  8
0
 62
   254
100
AcDbPolyline
 90
        2
 70
     0
 39
0.003
 10
0.496957
 20
1.68587
 40
0.003
 41
0.003
 10
0.50415
 20
1.696744
 40
0.003
 41
0.003
  0
LWPOLYLINE
  5
1B1
100
AcDbEntity
  8
0
 62
   254
100
AcDbPolyline
 90
        2
 70
     0
 39
0.003
 10
0.50415
 20
1.696744
 40
0.003
 41
0.003
 10
-0.134476
 20
1.330531
 40
0.003
 41
0.003
  0
LWPOLYLINE
  5
1B2
100
AcDbEntity
  8
0
 62
   254
100
AcDbPolyline
 90
        2
 70
     0
 39
0.003
 10
-0.134476
 20
1.330531
 40
0.003
 41
0.003
 10
-0.141669
 20
1.319657
 40
0.003
 41
0.003
  0
LWPOLYLINE
  5
1B3
100
AcDbEntity
  8
0
 62
   254
100
AcDbPolyline
 90
        2
 70
     0
 39
0.003
 10
-0.134476
 20
1.330531
 40
0.003
 41
0.003
 10
0.50415
 20
1.696744
 40
0.003
 41
0.003
  0
LWPOLYLINE
  5
1B4
100
AcDbEntity
  8
0
 62
   254
100
AcDbPolyline
 90
        2
 70
     0
 39
0.003
 10
0.50415
 20
1.696744
 40
0.003
 41
0.003
 10
0.510209
 20
1.708154
 40
0.003
 41
0.003
  0
LWPOLYLINE
  5
1B5
100
AcDbEntity
  8
0
 62
   254
100
AcDbPolyline
 90
        2
 70
     0
 39
0.003
 10
0.510209
 20
1.708154
 40
0.003
 41
0.003
 10
-0.128417
 20
1.341941
 40
0.003
 41
0.003
  0
LWPOLYLINE
  5
1B6
100
AcDbEntity
  8
0
 62
   254
100
AcDbPolyline
 90
        2
 70
     0
 39
0.003
 10
-0.128417
 20
1.341941
 40
0.003
 41
0.003
 10
-0.134476
 20
1.330531
 40
0.003
 41
0.003
  0
LWPOLYLINE
  5
1B7
100
AcDbEntity
  8
0
 62
   254
100
AcDbPolyline
 90
        2
 70
     0
 39
0.003
 10
-0.128417
 20
1.341941
 40
0.003
 41
0.003
 10
0.510209
 20
1.708154
 40
0.003
 41
0.003
  0
LWPOLYLINE
  5
1B8
100
AcDbEntity
  8
0
 62
   254
100
AcDbPolyline
 90
        2
 70
     0
 39
0.003
 10
0.510209
 20
1.708154
 40
0.003
 41
0.003
 10
0.515134
 20
1.720012
 40
0.003
 41
0.003
  0
LWPOLYLINE
  5
1B9
100
AcDbEntity
  8
0
 62
   254
100
AcDbPolyline
 90
        2
 70
     0
 39
0.003
 10
0.515134
 20
1.720012
 40
0.003
 41
0.003
 10
-0.123492
 20
1.353799
 40
0.003
 41
0.003
  0
LWPOLYLINE
  5
1BA
100
AcDbEntity
  8
0
 62
   254
100
AcDbPolyline
 90
        2
 70
     0
 39
0.003
 10
-0.123492
 20
1.353799
 40
0.003
 41
0.003
 10
-0.128417
 20
1.341941
 40
0.003
 41
0.003
  0
LWPOLYLINE
  5
1BB
100
AcDbEntity
  8
0
 62
   254
100
AcDbPolyline
 90
        2
 70
     0
 39
0.003
 10
-0.123492
 20
1.353799
 40
0.003
 41
0.003
 10
0.515134
 20
1.720012
 40
0.003
 41
0.003
  0
LWPOLYLINE
  5
1BC
100
AcDbEntity
  8
0
 62
   254
100
AcDbPolyline
 90
        2
 70
     0
 39
0.003
 10
0.515134
 20
1.720012
 40
0.003
 41
0.003
 10
0.518909
 20
1.732209
 40
0.003
 41
0.003
  0
LWPOLYLINE
  5
1BD
100
AcDbEntity
  8
0
 62
   254
100
AcDbPolyline
 90
        2
 70
     0
 39
0.003
 10
0.518909
 20
1.732209
 40
0.003
 41
0.003
 10
-0.119717
 20
1.365996
 40
0.003
 41
0.003
  0
LWPOLYLINE
  5
1BE
100
AcDbEntity
  8
0
 62
   254
100
AcDbPolyline
 90
        2
 70
     0
 39
0.003
 10
-0.119717
 20
1.365996
 40
0.003
 41
0.003
 10
-0.123492
 20
1.353799
 40
0.003
 41
0.003
  0
LWPOLYLINE
  5
1BF
100
AcDbEntity
  8
0
 62
   254
100
AcDbPolyline
 90
        2
 70
     0
 39
0.003
 10
-0.119717
 20
1.365996
 40
0.003
 41
0.003
 10
0.518909
 20
1.732209
 40
0.003
 41
0.003
  0
LWPOLYLINE
  5
1C0
100
AcDbEntity
  8
0
 62
   254
100
AcDbPolyline
 90
        2
 70
     0
 39
0.003
 10
0.518909
 20
1.732209
 40
0.003
 41
0.003
 10
0.521547
 20
1.744657
 40
0.003
 41
0.003
  0
LWPOLYLINE
  5
1C1
100
AcDbEntity
  8
0
 62
   254
100
AcDbPolyline
 90
        2
 70
     0
 39
0.003
 10
0.521547
 20
1.744657
 40
0.003
 41
0.003
 10
-0.117079
 20
1.378445
 40
0.003
 41
0.003
  0
LWPOLYLINE
  5
1C2
100
AcDbEntity
  8
0
 62
   254
100
AcDbPolyline
 90
        2
 70
     0
 39
0.003
 10
-0.117079
 20
1.378445
 40
0.003
 41
0.003
 10
-0.119717
 20
1.365996
 40
0.003
 41
0.003
  0
LWPOLYLINE
  5
1C3
100
AcDbEntity
  8
0
 62
   254
100
AcDbPolyline
 90
        2
 70
     0
 39
0.003
 10
-0.117079
 20
1.378445
 40
0.003
 41
0.003
 10
0.521547
 20
1.744657
 40
0.003
 41
0.003
  0
LWPOLYLINE
  5
1C4
100
AcDbEntity
  8
0
 62
   254
100
AcDbPolyline
 90
        2
 70
     0
 39
0.003
 10
0.521547
 20
1.744657
 40
0.003
 41
0.003
 10
0.523031
 20
1.75726
 40
0.003
 41
0.003
  0
LWPOLYLINE
  5
1C5
100
AcDbEntity
  8
0
 62
   254
100
AcDbPolyline
 90
        2
 70
     0
 39
0.003
 10
0.523031
 20
1.75726
 40
0.003
 41
0.003
 10
-0.115594
 20
1.391047
 40
0.003
 41
0.003
  0
LWPOLYLINE
  5
1C6
100
AcDbEntity
  8
0
 62
   254
100
AcDbPolyline
 90
        2
 70
     0
 39
0.003
 10
-0.115594
 20
1.391047
 40
0.003
 41
0.003
 10
-0.117079
 20
1.378445
 40
0.003
 41
0.003
  0
LWPOLYLINE
  5
1C7
100
AcDbEntity
  8
0
 62
   254
100
AcDbPolyline
 90
        2
 70
     0
 39
0.003
 10
-0.115594
 20
1.391047
 40
0.003
 41
0.003
 10
0.523031
 20
1.75726
 40
0.003
 41
0.003
  0
LWPOLYLINE
  5
1C8
100
AcDbEntity
  8
0
 62
   254
100
AcDbPolyline
 90
        2
 70
     0
 39
0.003
 10
0.523031
 20
1.75726
 40
0.003
 41
0.003
 10
0.52337
 20
1.769921
 40
0.003
 41
0.003
  0
LWPOLYLINE
  5
1C9
100
AcDbEntity
  8
0
 62
   254
100
AcDbPolyline
 90
        2
 70
     0
 39
0.003
 10
0.52337
 20
1.769921
 40
0.003
 41
0.003
 10
-0.115256
 20
1.403709
 40
0.003
 41
0.003
  0
LWPOLYLINE
  5
1CA
100
AcDbEntity
  8
0
 62
   254
100
AcDbPolyline
 90
        2
 70
     0
 39
0.003
 10
-0.115256
 20
1.403709
 40
0.003
 41
0.003
 10
-0.115594
 20
1.391047
 40
0.003
 41
0.003
  0
LWPOLYLINE
  5
1CB
100
AcDbEntity
  8
0
 62
   254
100
AcDbPolyline
 90
        2
 70
     0
 39
0.003
 10
-0.115256
 20
1.403709
 40
0.003
 41
0.003
 10
0.52337
 20
1.769921
 40
0.003
 41
0.003
  0
LWPOLYLINE
  5
1CC
100
AcDbEntity
  8
0
 62
   254
100
AcDbPolyline
 90
        2
 70
     0
 39
0.003
 10
0.52337
 20
1.769921
 40
0.003
 41
0.003
 10
0.522539
 20
1.782535
 40
0.003
 41
0.003
  0
LWPOLYLINE
  5
1CD
100
AcDbEntity
  8
0
 62
   254
100
AcDbPolyline
 90
        2
 70
     0
 39
0.003
 10
0.522539
 20
1.782535
 40
0.003
 41
0.003
 10
-0.116087
 20
1.416323
 40
0.003
 41
0.003
  0
LWPOLYLINE
  5
1CE
100
AcDbEntity
  8
0
 62
   254
100
AcDbPolyline
 90
        2
 70
     0
 39
0.003
 10
-0.116087
 20
1.416323
 40
0.003
 41
0.003
 10
-0.115256
 20
1.403709
 40
0.003
 41
0.003
  0
LWPOLYLINE
  5
1CF
100
AcDbEntity
  8
0
 62
   254
100
AcDbPolyline
 90
        2
 70
     0
 39
0.003
 10
-0.116087
 20
1.416323
 40
0.003
 41
0.003
 10
0.522539
 20
1.782535
 40
0.003
 41
0.003
  0
LWPOLYLINE
  5
1D0
100
AcDbEntity
  8
0
 62
   254
100
AcDbPolyline
 90
        2
 70
     0
 39
0.003
 10
0.522539
 20
1.782535
 40
0.003
 41
0.003
 10
0.520551
 20
1.79502
 40
0.003
 41
0.003
  0
LWPOLYLINE
  5
1D1
100
AcDbEntity
  8
0
 62
   254
100
AcDbPolyline
 90
        2
 70
     0
 39
0.003
 10
0.520551
 20
1.79502
 40
0.003
 41
0.003
 10
-0.118075
 20
1.428807
 40
0.003
 41
0.003
  0
LWPOLYLINE
  5
1D2
100
AcDbEntity
  8
0
 62
   254
100
AcDbPolyline
 90
        2
 70
     0
 39
0.003
 10
-0.118075
 20
1.428807
 40
0.003
 41
0.003
 10
-0.116087
 20
1.416323
 40
0.003
 41
0.003
  0
LWPOLYLINE
  5
1D3
100
AcDbEntity
  8
0
 62
   254
100
AcDbPolyline
 90
        2
 70
     0
 39
0.003
 10
-0.118075
 20
1.428807
 40
0.003
 41
0.003
 10
0.520551
 20
1.79502
 40
0.003
 41
0.003
  0
LWPOLYLINE
  5
1D4
100
AcDbEntity
  8
0
 62
   254
100
AcDbPolyline
 90
        2
 70
     0
 39
0.003
 10
0.520551
 20
1.79502
 40
0.003
 41
0.003
 10
0.517398
 20
1.807272
 40
0.003
 41
0.003
  0
LWPOLYLINE
  5
1D5
100
AcDbEntity
  8
0
 62
   254
100
AcDbPolyline
 90
        2
 70
     0
 39
0.003
 10
0.517398
 20
1.807272
 40
0.003
 41
0.003
 10
-0.121228
 20
1.441059
 40
0.003
 41
0.003
  0
LWPOLYLINE
  5
1D6
100
AcDbEntity
  8
0
 62
   254
100
AcDbPolyline
 90
        2
 70
     0
 39
0.003
 10
-0.121228
 20
1.441059
 40
0.003
 41
0.003
 10
-0.118075
 20
1.428807
 40
0.003
 41
0.003
  0
LWPOLYLINE
  5
1D7
100
AcDbEntity
  8
0
 62
   254
100
AcDbPolyline
 90
        2
 70
     0
 39
0.003
 10
-0.121228
 20
1.441059
 40
0.003
 41
0.003
 10
0.517398
 20
1.807272
 40
0.003
 41
0.003
  0
LWPOLYLINE
  5
1D8
100
AcDbEntity
  8
0
 62
   254
100
AcDbPolyline
 90
        2
 70
     0
 39
0.003
 10
0.517398
 20
1.807272
 40
0.003
 41
0.003
 10
0.513079
 20
1.819201
 40
0.003
 41
0.003
  0
LWPOLYLINE
  5
1D9
100
AcDbEntity
  8
0
 62
   254
100
AcDbPolyline
 90
        2
 70
     0
 39
0.003
 10
0.513079
 20
1.819201
 40
0.003
 41
0.003
 10
-0.125547
 20
1.452988
 40
0.003
 41
0.003
  0
LWPOLYLINE
  5
1DA
100
AcDbEntity
  8
0
 62
   254
100
AcDbPolyline
 90
        2
 70
     0
 39
0.003
 10
-0.125547
 20
1.452988
 40
0.003
 41
0.003
 10
-0.121228
 20
1.441059
 40
0.003
 41
0.003
  0
LWPOLYLINE
  5
1DB
100
AcDbEntity
  8
0
 62
   254
100
AcDbPolyline
 90
        2
 70
     0
 39
0.003
 10
-0.125547
 20
1.452988
 40
0.003
 41
0.003
 10
0.513079
 20
1.819201
 40
0.003
 41
0.003
  0
LWPOLYLINE
  5
1DC
100
AcDbEntity
  8
0
 62
   254
100
AcDbPolyline
 90
        2
 70
     0
 39
0.003
 10
0.513079
 20
1.819201
 40
0.003
 41
0.003
 10
0.507583
 20
1.830701
 40
0.003
 41
0.003
  0
LWPOLYLINE
  5
1DD
100
AcDbEntity
  8
0
 62
   254
100
AcDbPolyline
 90
        2
 70
     0
 39
0.003
 10
0.507583
 20
1.830701
 40
0.003
 41
0.003
 10
-0.131043
 20
1.464488
 40
0.003
 41
0.003
  0
LWPOLYLINE
  5
1DE
100
AcDbEntity
  8
0
 62
   254
100
AcDbPolyline
 90
        2
 70
     0
 39
0.003
 10
-0.131043
 20
1.464488
 40
0.003
 41
0.003
 10
-0.125547
 20
1.452988
 40
0.003
 41
0.003
  0
LWPOLYLINE
  5
1DF
100
AcDbEntity
  8
0
 62
   254
100
AcDbPolyline
 90
        2
 70
     0
 39
0.003
 10
-0.131043
 20
1.464488
 40
0.003
 41
0.003
 10
0.507583
 20
1.830701
 40
0.003
 41
0.003
  0
LWPOLYLINE
  5
1E0
100
AcDbEntity
  8
0
 62
   254
100
AcDbPolyline
 90
        2
 70
     0
 39
0.003
 10
0.507583
 20
1.830701
 40
0.003
 41
0.003
 10
0.500909
 20
1.841693
 40
0.003
 41
0.003
  0
LWPOLYLINE
  5
1E1
100
AcDbEntity
  8
0
 62
   254
100
AcDbPolyline
 90
        2
 70
     0
 39
0.003
 10
0.500909
 20
1.841693
 40
0.003
 41
0.003
 10
-0.137717
 20
1.47548
 40
0.003
 41
0.003
  0
LWPOLYLINE
  5
1E2
100
AcDbEntity
  8
0
 62
   254
100
AcDbPolyline
 90
        2
 70
     0
 39
0.003
 10
-0.137717
 20
1.47548
 40
0.003
 41
0.003
 10
-0.131043
 20
1.464488
 40
0.003
 41
0.003
  0
LWPOLYLINE
  5
1E3
100
AcDbEntity
  8
0
 62
   254
100
AcDbPolyline
 90
        2
 70
     0
 39
0.003
 10
-0.137717
 20
1.47548
 40
0.003
 41
0.003
 10
0.500909
 20
1.841693
 40
0.003
 41
0.003
  0
LWPOLYLINE
  5
1E4
100
AcDbEntity
  8
0
 62
   254
100
AcDbPolyline
 90
        2
 70
     0
 39
0.003
 10
0.500909
 20
1.841693
 40
0.003
 41
0.003
 10
0.493055
 20
1.852063
 40
0.003
 41
0.003
  0
LWPOLYLINE
  5
1E5
100
AcDbEntity
  8
0
 62
   254
100
AcDbPolyline
 90
        2
 70
     0
 39
0.003
 10
0.493055
 20
1.852063
 40
0.003
 41
0.003
 10
-0.145571
 20
1.48585
 40
0.003
 41
0.003
  0
LWPOLYLINE
  5
1E6
100
AcDbEntity
  8
0
 62
   254
100
AcDbPolyline
 90
        2
 70
     0
 39
0.003
 10
-0.145571
 20
1.48585
 40
0.003
 41
0.003
 10
-0.137717
 20
1.47548
 40
0.003
 41
0.003
  0
LWPOLYLINE
  5
1E7
100
AcDbEntity
  8
0
 62
   254
100
AcDbPolyline
 90
        2
 70
     0
 39
0.003
 10
-0.145571
 20
1.48585
 40
0.003
 41
0.003
 10
0.493055
 20
1.852063
 40
0.003
 41
0.003
  0
LWPOLYLINE
  5
1E8
100
AcDbEntity
  8
0
 62
   254
100
AcDbPolyline
 90
        2
 70
     0
 39
0.003
 10
0.493055
 20
1.852063
 40
0.003
 41
0.003
 10
0.484028
 20
1.861732
 40
0.003
 41
0.003
  0
LWPOLYLINE
  5
1E9
100
AcDbEntity
  8
0
 62
   254
100
AcDbPolyline
 90
        2
 70
     0
 39
0.003
 10
0.484028
 20
1.861732
 40
0.003
 41
0.003
 10
-0.154598
 20
1.49552
 40
0.003
 41
0.003
  0
LWPOLYLINE
  5
1EA
100
AcDbEntity
  8
0
 62
   254
100
AcDbPolyline
 90
        2
 70
     0
 39
0.003
 10
-0.154598
 20
1.49552
 40
0.003
 41
0.003
 10
-0.145571
 20
1.48585
 40
0.003
 41
0.003
  0
LWPOLYLINE
  5
1EB
100
AcDbEntity
  8
0
 62
   254
100
AcDbPolyline
 90
        2
 70
     0
 39
0.003
 10
-0.154598
 20
1.49552
 40
0.003
 41
0.003
 10
0.484028
 20
1.861732
 40
0.003
 41
0.003
  0
LWPOLYLINE
  5
1EC
100
AcDbEntity
  8
0
 62
   254
100
AcDbPolyline
 90
        2
 70
     0
 39
0.003
 10
0.484028
 20
1.861732
 40
0.003
 41
0.003
 10
0.473799
 20
1.870583
 40
0.003
 41
0.003
  0
LWPOLYLINE
  5
1ED
100
AcDbEntity
  8
0
 62
   254
100
AcDbPolyline
 90
        2
 70
     0
 39
0.003
 10
0.473799
 20
1.870583
 40
0.003
 41
0.003
 10
-0.164827
 20
1.50437
 40
0.003
 41
0.003
  0
LWPOLYLINE
  5
1EE
100
AcDbEntity
  8
0
 62
   254
100
AcDbPolyline
 90
        2
 70
     0
 39
0.003
 10
-0.164827
 20
1.50437
 40
0.003
 41
0.003
 10
-0.154598
 20
1.49552
 40
0.003
 41
0.003
  0
LWPOLYLINE
  5
1EF
100
AcDbEntity
  8
0
 62
   254
100
AcDbPolyline
 90
        2
 70
     0
 39
0.003
 10
-0.164827
 20
1.50437
 40
0.003
 41
0.003
 10
0.473799
 20
1.870583
 40
0.003
 41
0.003
  0
LWPOLYLINE
  5
1F0
100
AcDbEntity
  8
0
 62
   254
100
AcDbPolyline
 90
        2
 70
     0
 39
0.003
 10
0.473799
 20
1.870583
 40
0.003
 41
0.003
 10
0.462382
 20
1.878539
 40
0.003
 41
0.003
  0
LWPOLYLINE
  5
1F1
100
AcDbEntity
  8
0
 62
   254
100
AcDbPolyline
 90
        2
 70
     0
 39
0.003
 10
0.462382
 20
1.878539
 40
0.003
 41
0.003
 10
-0.176244
 20
1.512327
 40
0.003
 41
0.003
  0
LWPOLYLINE
  5
1F2
100
AcDbEntity
  8
0
 62
   254
100
AcDbPolyline
 90
        2
 70
     0
 39
0.003
 10
-0.176244
 20
1.512327
 40
0.003
 41
0.003
 10
-0.164827
 20
1.50437
 40
0.003
 41
0.003
  0
LWPOLYLINE
  5
1F3
100
AcDbEntity
  8
0
 62
   254
100
AcDbPolyline
 90
        2
 70
     0
 39
0.003
 10
-0.176244
 20
1.512327
 40
0.003
 41
0.003
 10
0.462382
 20
1.878539
 40
0.003
 41
0.003
  0
LWPOLYLINE
  5
1F4
100
AcDbEntity
  8
0
 62
   254
100
AcDbPolyline
 90
        2
 70
     0
 39
0.003
 10
0.462382
 20
1.878539
 40
0.003
 41
0.003
 10
0.449768
 20
1.885492
 40
0.003
 41
0.003
  0
LWPOLYLINE
  5
1F5
100
AcDbEntity
  8
0
 62
   254
100
AcDbPolyline
 90
        2
 70
     0
 39
0.003
 10
0.449768
 20
1.885492
 40
0.003
 41
0.003
 10
-0.188858
 20
1.51928
 40
0.003
 41
0.003
  0
LWPOLYLINE
  5
1F6
100
AcDbEntity
  8
0
 62
   254
100
AcDbPolyline
 90
        2
 70
     0
 39
0.003
 10
-0.188858
 20
1.51928
 40
0.003
 41
0.003
 10
-0.176244
 20
1.512327
 40
0.003
 41
0.003
  0
LWPOLYLINE
  5
1F7
100
AcDbEntity
  8
0
 62
     9
100
AcDbPolyline
 90
        2
 70
     0
 39
0.003
 10
-0.188858
 20
1.51928
 40
0.003
 41
0.003
 10
0.449768
 20
1.885492
 40
0.003
 41
0.003
  0
LWPOLYLINE
  5
1F8
100
AcDbEntity
  8
0
 62
     9
100
AcDbPolyline
 90
        2
 70
     0
 39
0.003
 10
0.449768
 20
1.885492
 40
0.003
 41
0.003
 10
0.435957
 20
1.891358
 40
0.003
 41
0.003
  0
LWPOLYLINE
  5
1F9
100
AcDbEntity
  8
0
 62
     9
100
AcDbPolyline
 90
        2
 70
     0
 39
0.003
 10
0.435957
 20
1.891358
 40
0.003
 41
0.003
 10
-0.202669
 20
1.525146
 40
0.003
 41
0.003
  0
LWPOLYLINE
  5
1FA
100
AcDbEntity
  8
0
 62
     9
100
AcDbPolyline
 90
        2
 70
     0
 39
0.003
 10
-0.202669
 20
1.525146
 40
0.003
 41
0.003
 10
-0.188858
 20
1.51928
 40
0.003
 41
0.003
  0
LWPOLYLINE
  5
1FB
100
AcDbEntity
  8
0
 62
     9
100
AcDbPolyline
 90
        2
 70
     0
 39
0.003
 10
-0.202669
 20
1.525146
 40
0.003
 41
0.003
 10
0.435957
 20
1.891358
 40
0.003
 41
0.003
  0
LWPOLYLINE
  5
1FC
100
AcDbEntity
  8
0
 62
     9
100
AcDbPolyline
 90
        2
 70
     0
 39
0.003
 10
0.435957
 20
1.891358
 40
0.003
 41
0.003
 10
0.420933
 20
1.896024
 40
0.003
 41
0.003
  0
LWPOLYLINE
  5
1FD
100
AcDbEntity
  8
0
 62
     9
100
AcDbPolyline
 90
        2
 70
     0
 39
0.003
 10
0.420933
 20
1.896024
 40
0.003
 41
0.003
 10
-0.217693
 20
1.529811
 40
0.003
 41
0.003
  0
LWPOLYLINE
  5
1FE
100
AcDbEntity
  8
0
 62
     9
100
AcDbPolyline
 90
        2
 70
     0
 39
0.003
 10
-0.217693
 20
1.529811
 40
0.003
 41
0.003
 10
-0.202669
 20
1.525146
 40
0.003
 41
0.003
  0
LWPOLYLINE
  5
1FF
100
AcDbEntity
  8
0
 62
     9
100
AcDbPolyline
 90
        2
 70
     0
 39
0.003
 10
-0.217693
 20
1.529811
 40
0.003
 41
0.003
 10
0.420933
 20
1.896024
 40
0.003
 41
0.003
  0
LWPOLYLINE
  5
200
100
AcDbEntity
  8
0
 62
     9
100
AcDbPolyline
 90
        2
 70
     0
 39
0.003
 10
0.420933
 20
1.896024
 40
0.003
 41
0.003
 10
0.404713
 20
1.899413
 40
0.003
 41
0.003
  0
LWPOLYLINE
  5
201
100
AcDbEntity
  8
0
 62
     9
100
AcDbPolyline
 90
        2
 70
     0
 39
0.003
 10
0.404713
 20
1.899413
 40
0.003
 41
0.003
 10
-0.233913
 20
1.533201
 40
0.003
 41
0.003
  0
LWPOLYLINE
  5
202
100
AcDbEntity
  8
0
 62
     9
100
AcDbPolyline
 90
        2
 70
     0
 39
0.003
 10
-0.233913
 20
1.533201
 40
0.003
 41
0.003
 10
-0.217693
 20
1.529811
 40
0.003
 41
0.003
  0
LWPOLYLINE
  5
203
100
AcDbEntity
  8
0
 62
     9
100
AcDbPolyline
 90
        2
 70
     0
 39
0.003
 10
-0.233913
 20
1.533201
 40
0.003
 41
0.003
 10
0.404713
 20
1.899413
 40
0.003
 41
0.003
  0
LWPOLYLINE
  5
204
100
AcDbEntity
  8
0
 62
     9
100
AcDbPolyline
 90
        2
 70
     0
 39
0.003
 10
0.404713
 20
1.899413
 40
0.003
 41
0.003
 10
0.38728
 20
1.901413
 40
0.003
 41
0.003
  0
LWPOLYLINE
  5
205
100
AcDbEntity
  8
0
 62
     9
100
AcDbPolyline
 90
        2
 70
     0
 39
0.003
 10
0.38728
 20
1.901413
 40
0.003
 41
0.003
 10
-0.251346
 20
1.535201
 40
0.003
 41
0.003
  0
LWPOLYLINE
  5
206
100
AcDbEntity
  8
0
 62
     9
100
AcDbPolyline
 90
        2
 70
     0
 39
0.003
 10
-0.251346
 20
1.535201
 40
0.003
 41
0.003
 10
-0.233913
 20
1.533201
 40
0.003
 41
0.003
  0
LWPOLYLINE
  5
207
100
AcDbEntity
  8
0
 62
   253
100
AcDbPolyline
 90
        2
 70
     0
 39
0.003
 10
-0.251346
 20
1.535201
 40
0.003
 41
0.003
 10
0.38728
 20
1.901413
 40
0.003
 41
0.003
  0
LWPOLYLINE
  5
208
100
AcDbEntity
  8
0
 62
   253
100
AcDbPolyline
 90
        2
 70
     0
 39
0.003
 10
0.38728
 20
1.901413
 40
0.003
 41
0.003
 10
0.368634
 20
1.901945
 40
0.003
 41
0.003
  0
LWPOLYLINE
  5
209
100
AcDbEntity
  8
0
 62
   253
100
AcDbPolyline
 90
        2
 70
     0
 39
0.003
 10
0.368634
 20
1.901945
 40
0.003
 41
0.003
 10
-0.269992
 20
1.535732
 40
0.003
 41
0.003
  0
LWPOLYLINE
  5
20A
100
AcDbEntity
  8
0
 62
   253
100
AcDbPolyline
 90
        2
 70
     0
 39
0.003
 10
-0.269992
 20
1.535732
 40
0.003
 41
0.003
 10
-0.251346
 20
1.535201
 40
0.003
 41
0.003
  0
LWPOLYLINE
  5
20B
100
AcDbEntity
  8
0
 62
     0
100
AcDbPolyline
 90
        2
 70
     0
 39
0.003
 10
-0.181717
 20
1.283453
 40
0.003
 41
0.003
 10
0.456909
 20
1.649665
 40
0.003
 41
0.003
  0
LWPOLYLINE
  5
20C
100
AcDbEntity
  8
0
 62
     0
100
AcDbPolyline
 90
        2
 70
     0
 39
0.003
 10
0.456909
 20
1.649665
 40
0.003
 41
0.003
 10
0.468606
 20
1.657433
 40
0.003
 41
0.003
  0
LWPOLYLINE
  5
20D
100
AcDbEntity
  8
0
 62
     0
100
AcDbPolyline
 90
        2
 70
     0
 39
0.003
 10
0.468606
 20
1.657433
 40
0.003
 41
0.003
 10
0.479181
 20
1.666118
 40
0.003
 41
0.003
  0
LWPOLYLINE
  5
20E
100
AcDbEntity
  8
0
 62
     0
100
AcDbPolyline
 90
        2
 70
     0
 39
0.003
 10
0.479181
 20
1.666118
 40
0.003
 41
0.003
 10
0.488634
 20
1.675634
 40
0.003
 41
0.003
  0
LWPOLYLINE
  5
20F
100
AcDbEntity
  8
0
 62
     0
100
AcDbPolyline
 90
        2
 70
     0
 39
0.003
 10
0.488634
 20
1.675634
 40
0.003
 41
0.003
 10
0.496957
 20
1.68587
 40
0.003
 41
0.003
  0
LWPOLYLINE
  5
210
100
AcDbEntity
  8
0
 62
     0
100
AcDbPolyline
 90
        2
 70
     0
 39
0.003
 10
0.496957
 20
1.68587
 40
0.003
 41
0.003
 10
0.50415
 20
1.696744
 40
0.003
 41
0.003
  0
LWPOLYLINE
  5
211
100
AcDbEntity
  8
0
 62
     0
100
AcDbPolyline
 90
        2
 70
     0
 39
0.003
 10
0.50415
 20
1.696744
 40
0.003
 41
0.003
 10
0.510209
 20
1.708154
 40
0.003
 41
0.003
  0
LWPOLYLINE
  5
212
100
AcDbEntity
  8
0
 62
     0
100
AcDbPolyline
 90
        2
 70
     0
 39
0.003
 10
0.510209
 20
1.708154
 40
0.003
 41
0.003
 10
0.515134
 20
1.720012
 40
0.003
 41
0.003
  0
LWPOLYLINE
  5
213
100
AcDbEntity
  8
0
 62
     0
100
AcDbPolyline
 90
        2
 70
     0
 39
0.003
 10
0.515134
 20
1.720012
 40
0.003
 41
0.003
 10
0.518909
 20
1.732209
 40
0.003
 41
0.003
  0
LWPOLYLINE
  5
214
100
AcDbEntity
  8
0
 62
     0
100
AcDbPolyline
 90
        2
 70
     0
 39
0.003
 10
0.518909
 20
1.732209
 40
0.003
 41
0.003
 10
0.521547
 20
1.744657
 40
0.003
 41
0.003
  0
LWPOLYLINE
  5
215
100
AcDbEntity
  8
0
 62
     0
100
AcDbPolyline
 90
        2
 70
     0
 39
0.003
 10
0.521547
 20
1.744657
 40
0.003
 41
0.003
 10
0.523031
 20
1.75726
 40
0.003
 41
0.003
  0
LWPOLYLINE
  5
216
100
AcDbEntity
  8
0
 62
     0
100
AcDbPolyline
 90
        2
 70
     0
 39
0.003
 10
0.523031
 20
1.75726
 40
0.003
 41
0.003
 10
0.52337
 20
1.769921
 40
0.003
 41
0.003
  0
LWPOLYLINE
  5
217
100
AcDbEntity
  8
0
 62
     0
100
AcDbPolyline
 90
        2
 70
     0
 39
0.003
 10
0.52337
 20
1.769921
 40
0.003
 41
0.003
 10
0.522539
 20
1.782535
 40
0.003
 41
0.003
  0
LWPOLYLINE
  5
218
100
AcDbEntity
  8
0
 62
     0
100
AcDbPolyline
 90
        2
 70
     0
 39
0.003
 10
0.522539
 20
1.782535
 40
0.003
 41
0.003
 10
0.520551
 20
1.79502
 40
0.003
 41
0.003
  0
LWPOLYLINE
  5
219
100
AcDbEntity
  8
0
 62
     0
100
AcDbPolyline
 90
        2
 70
     0
 39
0.003
 10
0.520551
 20
1.79502
 40
0.003
 41
0.003
 10
0.517398
 20
1.807272
 40
0.003
 41
0.003
  0
LWPOLYLINE
  5
21A
100
AcDbEntity
  8
0
 62
     0
100
AcDbPolyline
 90
        2
 70
     0
 39
0.003
 10
0.517398
 20
1.807272
 40
0.003
 41
0.003
 10
0.513079
 20
1.819201
 40
0.003
 41
0.003
  0
LWPOLYLINE
  5
21B
100
AcDbEntity
  8
0
 62
     0
100
AcDbPolyline
 90
        2
 70
     0
 39
0.003
 10
0.513079
 20
1.819201
 40
0.003
 41
0.003
 10
0.507583
 20
1.830701
 40
0.003
 41
0.003
  0
LWPOLYLINE
  5
21C
100
AcDbEntity
  8
0
 62
     0
100
AcDbPolyline
 90
        2
 70
     0
 39
0.003
 10
0.507583
 20
1.830701
 40
0.003
 41
0.003
 10
0.500909
 20
1.841693
 40
0.003
 41
0.003
  0
LWPOLYLINE
  5
21D
100
AcDbEntity
  8
0
 62
     0
100
AcDbPolyline
 90
        2
 70
     0
 39
0.003
 10
0.500909
 20
1.841693
 40
0.003
 41
0.003
 10
0.493055
 20
1.852063
 40
0.003
 41
0.003
  0
LWPOLYLINE
  5
21E
100
AcDbEntity
  8
0
 62
     0
100
AcDbPolyline
 90
        2
 70
     0
 39
0.003
 10
0.493055
 20
1.852063
 40
0.003
 41
0.003
 10
0.484028
 20
1.861732
 40
0.003
 41
0.003
  0
LWPOLYLINE
  5
21F
100
AcDbEntity
  8
0
 62
     0
100
AcDbPolyline
 90
        2
 70
     0
 39
0.003
 10
0.484028
 20
1.861732
 40
0.003
 41
0.003
 10
0.473799
 20
1.870583
 40
0.003
 41
0.003
  0
LWPOLYLINE
  5
220
100
AcDbEntity
  8
0
 62
     0
100
AcDbPolyline
 90
        2
 70
     0
 39
0.003
 10
0.473799
 20
1.870583
 40
0.003
 41
0.003
 10
0.462382
 20
1.878539
 40
0.003
 41
0.003
  0
LWPOLYLINE
  5
221
100
AcDbEntity
  8
0
 62
     0
100
AcDbPolyline
 90
        2
 70
     0
 39
0.003
 10
0.462382
 20
1.878539
 40
0.003
 41
0.003
 10
0.449768
 20
1.885492
 40
0.003
 41
0.003
  0
LWPOLYLINE
  5
222
100
AcDbEntity
  8
0
 62
     0
100
AcDbPolyline
 90
        2
 70
     0
 39
0.003
 10
0.449768
 20
1.885492
 40
0.003
 41
0.003
 10
0.435957
 20
1.891358
 40
0.003
 41
0.003
  0
LWPOLYLINE
  5
223
100
AcDbEntity
  8
0
 62
     0
100
AcDbPolyline
 90
        2
 70
     0
 39
0.003
 10
0.435957
 20
1.891358
 40
0.003
 41
0.003
 10
0.420933
 20
1.896024
 40
0.003
 41
0.003
  0
LWPOLYLINE
  5
224
100
AcDbEntity
  8
0
 62
     0
100
AcDbPolyline
 90
        2
 70
     0
 39
0.003
 10
0.420933
 20
1.896024
 40
0.003
 41
0.003
 10
0.404713
 20
1.899413
 40
0.003
 41
0.003
  0
LWPOLYLINE
  5
225
100
AcDbEntity
  8
0
 62
     0
100
AcDbPolyline
 90
        2
 70
     0
 39
0.003
 10
0.404713
 20
1.899413
 40
0.003
 41
0.003
 10
0.38728
 20
1.901413
 40
0.003
 41
0.003
  0
LWPOLYLINE
  5
226
100
AcDbEntity
  8
0
 62
     0
100
AcDbPolyline
 90
        2
 70
     0
 39
0.003
 10
0.38728
 20
1.901413
 40
0.003
 41
0.003
 10
0.368634
 20
1.901945
 40
0.003
 41
0.003
  0
LWPOLYLINE
  5
227
100
AcDbEntity
  8
0
 62
     0
100
AcDbPolyline
 90
        2
 70
     0
 39
0.003
 10
0.368634
 20
1.901945
 40
0.003
 41
0.003
 10
-0.269992
 20
1.535732
 40
0.003
 41
0.003
  0
LWPOLYLINE
  5
228
100
AcDbEntity
  8
0
 62
     0
100
AcDbPolyline
 90
        2
 70
     0
 39
0.003
 10
-0.269992
 20
1.535732
 40
0.003
 41
0.003
 10
-0.251346
 20
1.535201
 40
0.003
 41
0.003
  0
LWPOLYLINE
  5
229
100
AcDbEntity
  8
0
 62
     0
100
AcDbPolyline
 90
        2
 70
     0
 39
0.003
 10
-0.251346
 20
1.535201
 40
0.003
 41
0.003
 10
-0.233913
 20
1.533201
 40
0.003
 41
0.003
  0
LWPOLYLINE
  5
22A
100
AcDbEntity
  8
0
 62
     0
100
AcDbPolyline
 90
        2
 70
     0
 39
0.003
 10
-0.233913
 20
1.533201
 40
0.003
 41
0.003
 10
-0.217693
 20
1.529811
 40
0.003
 41
0.003
  0
LWPOLYLINE
  5
22B
100
AcDbEntity
  8
0
 62
     0
100
AcDbPolyline
 90
        2
 70
     0
 39
0.003
 10
-0.217693
 20
1.529811
 40
0.003
 41
0.003
 10
-0.202669
 20
1.525146
 40
0.003
 41
0.003
  0
LWPOLYLINE
  5
22C
100
AcDbEntity
  8
0
 62
     0
100
AcDbPolyline
 90
        2
 70
     0
 39
0.003
 10
-0.202669
 20
1.525146
 40
0.003
 41
0.003
 10
-0.188858
 20
1.51928
 40
0.003
 41
0.003
  0
LWPOLYLINE
  5
22D
100
AcDbEntity
  8
0
 62
     0
100
AcDbPolyline
 90
        2
 70
     0
 39
0.003
 10
-0.188858
 20
1.51928
 40
0.003
 41
0.003
 10
-0.176244
 20
1.512327
 40
0.003
 41
0.003
  0
LWPOLYLINE
  5
22E
100
AcDbEntity
  8
0
 62
     0
100
AcDbPolyline
 90
        2
 70
     0
 39
0.003
 10
-0.176244
 20
1.512327
 40
0.003
 41
0.003
 10
-0.164827
 20
1.50437
 40
0.003
 41
0.003
  0
LWPOLYLINE
  5
22F
100
AcDbEntity
  8
0
 62
     0
100
AcDbPolyline
 90
        2
 70
     0
 39
0.003
 10
-0.164827
 20
1.50437
 40
0.003
 41
0.003
 10
-0.154598
 20
1.49552
 40
0.003
 41
0.003
  0
LWPOLYLINE
  5
230
100
AcDbEntity
  8
0
 62
     0
100
AcDbPolyline
 90
        2
 70
     0
 39
0.003
 10
-0.154598
 20
1.49552
 40
0.003
 41
0.003
 10
-0.145571
 20
1.48585
 40
0.003
 41
0.003
  0
LWPOLYLINE
  5
231
100
AcDbEntity
  8
0
 62
     0
100
AcDbPolyline
 90
        2
 70
     0
 39
0.003
 10
-0.145571
 20
1.48585
 40
0.003
 41
0.003
 10
-0.137717
 20
1.47548
 40
0.003
 41
0.003
  0
LWPOLYLINE
  5
232
100
AcDbEntity
  8
0
 62
     0
100
AcDbPolyline
 90
        2
 70
     0
 39
0.003
 10
-0.137717
 20
1.47548
 40
0.003
 41
0.003
 10
-0.131043
 20
1.464488
 40
0.003
 41
0.003
  0
LWPOLYLINE
  5
233
100
AcDbEntity
  8
0
 62
     0
100
AcDbPolyline
 90
        2
 70
     0
 39
0.003
 10
-0.131043
 20
1.464488
 40
0.003
 41
0.003
 10
-0.125547
 20
1.452988
 40
0.003
 41
0.003
  0
LWPOLYLINE
  5
234
100
AcDbEntity
  8
0
 62
     0
100
AcDbPolyline
 90
        2
 70
     0
 39
0.003
 10
-0.125547
 20
1.452988
 40
0.003
 41
0.003
 10
-0.121228
 20
1.441059
 40
0.003
 41
0.003
  0
LWPOLYLINE
  5
235
100
AcDbEntity
  8
0
 62
     0
100
AcDbPolyline
 90
        2
 70
     0
 39
0.003
 10
-0.121228
 20
1.441059
 40
0.003
 41
0.003
 10
-0.118075
 20
1.428807
 40
0.003
 41
0.003
  0
LWPOLYLINE
  5
236
100
AcDbEntity
  8
0
 62
     0
100
AcDbPolyline
 90
        2
 70
     0
 39
0.003
 10
-0.118075
 20
1.428807
 40
0.003
 41
0.003
 10
-0.116087
 20
1.416323
 40
0.003
 41
0.003
  0
LWPOLYLINE
  5
237
100
AcDbEntity
  8
0
 62
     0
100
AcDbPolyline
 90
        2
 70
     0
 39
0.003
 10
-0.116087
 20
1.416323
 40
0.003
 41
0.003
 10
-0.115256
 20
1.403709
 40
0.003
 41
0.003
  0
LWPOLYLINE
  5
238
100
AcDbEntity
  8
0
 62
     0
100
AcDbPolyline
 90
        2
 70
     0
 39
0.003
 10
-0.115256
 20
1.403709
 40
0.003
 41
0.003
 10
-0.115594
 20
1.391047
 40
0.003
 41
0.003
  0
LWPOLYLINE
  5
239
100
AcDbEntity
  8
0
 62
     0
100
AcDbPolyline
 90
        2
 70
     0
 39
0.003
 10
-0.115594
 20
1.391047
 40
0.003
 41
0.003
 10
-0.117079
 20
1.378445
 40
0.003
 41
0.003
  0
LWPOLYLINE
  5
23A
100
AcDbEntity
  8
0
 62
     0
100
AcDbPolyline
 90
        2
 70
     0
 39
0.003
 10
-0.117079
 20
1.378445
 40
0.003
 41
0.003
 10
-0.119717
 20
1.365996
 40
0.003
 41
0.003
  0
LWPOLYLINE
  5
23B
100
AcDbEntity
  8
0
 62
     0
100
AcDbPolyline
 90
        2
 70
     0
 39
0.003
 10
-0.119717
 20
1.365996
 40
0.003
 41
0.003
 10
-0.123492
 20
1.353799
 40
0.003
 41
0.003
  0
LWPOLYLINE
  5
23C
100
AcDbEntity
  8
0
 62
     0
100
AcDbPolyline
 90
        2
 70
     0
 39
0.003
 10
-0.123492
 20
1.353799
 40
0.003
 41
0.003
 10
-0.128417
 20
1.341941
 40
0.003
 41
0.003
  0
LWPOLYLINE
  5
23D
100
AcDbEntity
  8
0
 62
     0
100
AcDbPolyline
 90
        2
 70
     0
 39
0.003
 10
-0.128417
 20
1.341941
 40
0.003
 41
0.003
 10
-0.134476
 20
1.330531
 40
0.003
 41
0.003
  0
LWPOLYLINE
  5
23E
100
AcDbEntity
  8
0
 62
     0
100
AcDbPolyline
 90
        2
 70
     0
 39
0.003
 10
-0.134476
 20
1.330531
 40
0.003
 41
0.003
 10
-0.141669
 20
1.319657
 40
0.003
 41
0.003
  0
LWPOLYLINE
  5
23F
100
AcDbEntity
  8
0
 62
     0
100
AcDbPolyline
 90
        2
 70
     0
 39
0.003
 10
-0.141669
 20
1.319657
 40
0.003
 41
0.003
 10
-0.149992
 20
1.309421
 40
0.003
 41
0.003
  0
LWPOLYLINE
  5
240
100
AcDbEntity
  8
0
 62
     0
100
AcDbPolyline
 90
        2
 70
     0
 39
0.003
 10
-0.149992
 20
1.309421
 40
0.003
 41
0.003
 10
-0.159445
 20
1.299906
 40
0.003
 41
0.003
  0
LWPOLYLINE
  5
241
100
AcDbEntity
  8
0
 62
     0
100
AcDbPolyline
 90
        2
 70
     0
 39
0.003
 10
-0.159445
 20
1.299906
 40
0.003
 41
0.003
 10
-0.17002
 20
1.29122
 40
0.003
 41
0.003
  0
LWPOLYLINE
  5
242
100
AcDbEntity
  8
0
 62
     0
100
AcDbPolyline
 90
        2
 70
     0
 39
0.003
 10
-0.17002
 20
1.29122
 40
0.003
 41
0.003
 10
-0.181717
 20
1.283453
 40
0.003
 41
0.003
  0
LWPOLYLINE
  5
243
100
AcDbEntity
  8
0
 62
   254
100
AcDbPolyline
 90
        2
 70
     0
 39
0.003
 10
-0.269992
 20
1.535732
 40
0.003
 41
0.003
 10
0.368634
 20
1.901945
 40
0.003
 41
0.003
  0
LWPOLYLINE
  5
244
100
AcDbEntity
  8
0
 62
   254
100
AcDbPolyline
 90
        2
 70
     0
 39
0.003
 10
0.368634
 20
1.901945
 40
0.003
 41
0.003
 10
0.368634
 20
2.007823
 40
0.003
 41
0.003
  0
LWPOLYLINE
  5
245
100
AcDbEntity
  8
0
 62
   254
100
AcDbPolyline
 90
        2
 70
     0
 39
0.003
 10
0.368634
 20
2.007823
 40
0.003
 41
0.003
 10
-0.269992
 20
1.64161
 40
0.003
 41
0.003
  0
LWPOLYLINE
  5
246
100
AcDbEntity
  8
0
 62
   254
100
AcDbPolyline
 90
        2
 70
     0
 39
0.003
 10
-0.269992
 20
1.64161
 40
0.003
 41
0.003
 10
-0.269992
 20
1.535732
 40
0.003
 41
0.003
  0
LWPOLYLINE
  5
247
100
AcDbEntity
  8
0
 62
     0
100
AcDbPolyline
 90
        2
 70
     0
 39
0.003
 10
-0.269992
 20
1.535732
 40
0.003
 41
0.003
 10
0.368634
 20
1.901945
 40
0.003
 41
0.003
  0
LWPOLYLINE
  5
248
100
AcDbEntity
  8
0
 62
     0
100
AcDbPolyline
 90
        2
 70
     0
 39
0.003
 10
0.368634
 20
1.901945
 40
0.003
 41
0.003
 10
0.368634
 20
2.007823
 40
0.003
 41
0.003
  0
LWPOLYLINE
  5
249
100
AcDbEntity
  8
0
 62
     0
100
AcDbPolyline
 90
        2
 70
     0
 39
0.003
 10
0.368634
 20
2.007823
 40
0.003
 41
0.003
 10
-0.269992
 20
1.64161
 40
0.003
 41
0.003
  0
LWPOLYLINE
  5
24A
100
AcDbEntity
  8
0
 62
     0
100
AcDbPolyline
 90
        2
 70
     0
 39
0.003
 10
-0.269992
 20
1.64161
 40
0.003
 41
0.003
 10
-0.269992
 20
1.535732
 40
0.003
 41
0.003
  0
LWPOLYLINE
  5
24B
100
AcDbEntity
  8
0
 62
   253
100
AcDbPolyline
 90
        2
 70
     0
 39
0.003
 10
-0.269992
 20
1.64161
 40
0.003
 41
0.003
 10
0.368634
 20
2.007823
 40
0.003
 41
0.003
  0
LWPOLYLINE
  5
24C
100
AcDbEntity
  8
0
 62
   253
100
AcDbPolyline
 90
        2
 70
     0
 39
0.003
 10
0.368634
 20
2.007823
 40
0.003
 41
0.003
 10
0.234291
 20
2.007823
 40
0.003
 41
0.003
  0
LWPOLYLINE
  5
24D
100
AcDbEntity
  8
0
 62
   253
100
AcDbPolyline
 90
        2
 70
     0
 39
0.003
 10
0.234291
 20
2.007823
 40
0.003
 41
0.003
 10
-0.404335
 20
1.64161
 40
0.003
 41
0.003
  0
LWPOLYLINE
  5
24E
100
AcDbEntity
  8
0
 62
   253
100
AcDbPolyline
 90
        2
 70
     0
 39
0.003
 10
-0.404335
 20
1.64161
 40
0.003
 41
0.003
 10
-0.269992
 20
1.64161
 40
0.003
 41
0.003
  0
LWPOLYLINE
  5
24F
100
AcDbEntity
  8
0
 62
     0
100
AcDbPolyline
 90
        2
 70
     0
 39
0.003
 10
-0.269992
 20
1.64161
 40
0.003
 41
0.003
 10
0.368634
 20
2.007823
 40
0.003
 41
0.003
  0
LWPOLYLINE
  5
250
100
AcDbEntity
  8
0
 62
     0
100
AcDbPolyline
 90
        2
 70
     0
 39
0.003
 10
0.368634
 20
2.007823
 40
0.003
 41
0.003
 10
0.234291
 20
2.007823
 40
0.003
 41
0.003
  0
LWPOLYLINE
  5
251
100
AcDbEntity
  8
0
 62
     0
100
AcDbPolyline
 90
        2
 70
     0
 39
0.003
 10
0.234291
 20
2.007823
 40
0.003
 41
0.003
 10
-0.404335
 20
1.64161
 40
0.003
 41
0.003
  0
LWPOLYLINE
  5
252
100
AcDbEntity
  8
0
 62
     0
100
AcDbPolyline
 90
        2
 70
     0
 39
0.003
 10
-0.404335
 20
1.64161
 40
0.003
 41
0.003
 10
-0.269992
 20
1.64161
 40
0.003
 41
0.003
  0
LWPOLYLINE
  5
253
100
AcDbEntity
  8
0
 62
   253
100
AcDbPolyline
 90
        2
 70
     0
 39
0.003
 10
-0.404335
 20
1.64161
 40
0.003
 41
0.003
 10
0.234291
 20
2.007823
 40
0.003
 41
0.003
  0
LWPOLYLINE
  5
254
100
AcDbEntity
  8
0
 62
   253
100
AcDbPolyline
 90
        2
 70
     0
 39
0.003
 10
0.234291
 20
2.007823
 40
0.003
 41
0.003
 10
0.231673
 20
2.007799
 40
0.003
 41
0.003
  0
LWPOLYLINE
  5
255
100
AcDbEntity
  8
0
 62
   253
100
AcDbPolyline
 90
        2
 70
     0
 39
0.003
 10
0.231673
 20
2.007799
 40
0.003
 41
0.003
 10
-0.406953
 20
1.641587
 40
0.003
 41
0.003
  0
LWPOLYLINE
  5
256
100
AcDbEntity
  8
0
 62
   253
100
AcDbPolyline
 90
        2
 70
     0
 39
0.003
 10
-0.406953
 20
1.641587
 40
0.003
 41
0.003
 10
-0.404335
 20
1.64161
 40
0.003
 41
0.003
  0
LWPOLYLINE
  5
257
100
AcDbEntity
  8
0
 62
     0
100
AcDbPolyline
 90
        2
 70
     0
 39
0.003
 10
-0.404335
 20
1.64161
 40
0.003
 41
0.003
 10
0.234291
 20
2.007823
 40
0.003
 41
0.003
  0
LWPOLYLINE
  5
258
100
AcDbEntity
  8
0
 62
     0
100
AcDbPolyline
 90
        2
 70
     0
 39
0.003
 10
0.234291
 20
2.007823
 40
0.003
 41
0.003
 10
0.231673
 20
2.007799
 40
0.003
 41
0.003
  0
LWPOLYLINE
  5
259
100
AcDbEntity
  8
0
 62
     0
100
AcDbPolyline
 90
        2
 70
     0
 39
0.003
 10
0.231673
 20
2.007799
 40
0.003
 41
0.003
 10
-0.406953
 20
1.641587
 40
0.003
 41
0.003
  0
LWPOLYLINE
  5
25A
100
AcDbEntity
  8
0
 62
     0
100
AcDbPolyline
 90
        2
 70
     0
 39
0.003
 10
-0.406953
 20
1.641587
 40
0.003
 41
0.003
 10
-0.404335
 20
1.64161
 40
0.003
 41
0.003
  0
LWPOLYLINE
  5
25B
100
AcDbEntity
  8
0
 62
   254
100
AcDbPolyline
 90
        2
 70
     0
 39
0.003
 10
0.190957
 20
0.526965
 40
0.003
 41
0.003
 10
0.829583
 20
0.893177
 40
0.003
 41
0.003
  0
LWPOLYLINE
  5
25C
100
AcDbEntity
  8
0
 62
   254
100
AcDbPolyline
 90
        2
 70
     0
 39
0.003
 10
0.829583
 20
0.893177
 40
0.003
 41
0.003
 10
0.829583
 20
0.953811
 40
0.003
 41
0.003
  0
LWPOLYLINE
  5
25D
100
AcDbEntity
  8
0
 62
   254
100
AcDbPolyline
 90
        2
 70
     0
 39
0.003
 10
0.829583
 20
0.953811
 40
0.003
 41
0.003
 10
0.190957
 20
0.587598
 40
0.003
 41
0.003
  0
LWPOLYLINE
  5
25E
100
AcDbEntity
  8
0
 62
   254
100
AcDbPolyline
 90
        2
 70
     0
 39
0.003
 10
0.190957
 20
0.587598
 40
0.003
 41
0.003
 10
0.190957
 20
0.526965
 40
0.003
 41
0.003
  0
LWPOLYLINE
  5
25F
100
AcDbEntity
  8
0
 62
     0
100
AcDbPolyline
 90
        2
 70
     0
 39
0.003
 10
0.190957
 20
0.526965
 40
0.003
 41
0.003
 10
0.829583
 20
0.893177
 40
0.003
 41
0.003
  0
LWPOLYLINE
  5
260
100
AcDbEntity
  8
0
 62
     0
100
AcDbPolyline
 90
        2
 70
     0
 39
0.003
 10
0.829583
 20
0.893177
 40
0.003
 41
0.003
 10
0.829583
 20
0.953811
 40
0.003
 41
0.003
  0
LWPOLYLINE
  5
261
100
AcDbEntity
  8
0
 62
     0
100
AcDbPolyline
 90
        2
 70
     0
 39
0.003
 10
0.829583
 20
0.953811
 40
0.003
 41
0.003
 10
0.190957
 20
0.587598
 40
0.003
 41
0.003
  0
LWPOLYLINE
  5
262
100
AcDbEntity
  8
0
 62
     0
100
AcDbPolyline
 90
        2
 70
     0
 39
0.003
 10
0.190957
 20
0.587598
 40
0.003
 41
0.003
 10
0.190957
 20
0.526965
 40
0.003
 41
0.003
  0
LWPOLYLINE
  5
263
100
AcDbEntity
  8
0
 62
     9
100
AcDbPolyline
 90
        2
 70
     0
 39
0.003
 10
0.29163
 20
0.614098
 40
0.003
 41
0.003
 10
0.930256
 20
0.980311
 40
0.003
 41
0.003
  0
LWPOLYLINE
  5
264
100
AcDbEntity
  8
0
 62
     9
100
AcDbPolyline
 90
        2
 70
     0
 39
0.003
 10
0.930256
 20
0.980311
 40
0.003
 41
0.003
 10
0.942437
 20
0.98902
 40
0.003
 41
0.003
  0
LWPOLYLINE
  5
265
100
AcDbEntity
  8
0
 62
     9
100
AcDbPolyline
 90
        2
 70
     0
 39
0.003
 10
0.942437
 20
0.98902
 40
0.003
 41
0.003
 10
0.303811
 20
0.622807
 40
0.003
 41
0.003
  0
LWPOLYLINE
  5
266
100
AcDbEntity
  8
0
 62
     9
100
AcDbPolyline
 90
        2
 70
     0
 39
0.003
 10
0.303811
 20
0.622807
 40
0.003
 41
0.003
 10
0.29163
 20
0.614098
 40
0.003
 41
0.003
  0
LWPOLYLINE
  5
267
100
AcDbEntity
  8
0
 62
   254
100
AcDbPolyline
 90
        2
 70
     0
 39
0.003
 10
0.303811
 20
0.622807
 40
0.003
 41
0.003
 10
0.942437
 20
0.98902
 40
0.003
 41
0.003
  0
LWPOLYLINE
  5
268
100
AcDbEntity
  8
0
 62
   254
100
AcDbPolyline
 90
        2
 70
     0
 39
0.003
 10
0.942437
 20
0.98902
 40
0.003
 41
0.003
 10
0.953327
 20
0.998677
 40
0.003
 41
0.003
  0
LWPOLYLINE
  5
269
100
AcDbEntity
  8
0
 62
   254
100
AcDbPolyline
 90
        2
 70
     0
 39
0.003
 10
0.953327
 20
0.998677
 40
0.003
 41
0.003
 10
0.314701
 20
0.632465
 40
0.003
 41
0.003
  0
LWPOLYLINE
  5
26A
100
AcDbEntity
  8
0
 62
   254
100
AcDbPolyline
 90
        2
 70
     0
 39
0.003
 10
0.314701
 20
0.632465
 40
0.003
 41
0.003
 10
0.303811
 20
0.622807
 40
0.003
 41
0.003
  0
LWPOLYLINE
  5
26B
100
AcDbEntity
  8
0
 62
   254
100
AcDbPolyline
 90
        2
 70
     0
 39
0.003
 10
0.314701
 20
0.632465
 40
0.003
 41
0.003
 10
0.953327
 20
0.998677
 40
0.003
 41
0.003
  0
LWPOLYLINE
  5
26C
100
AcDbEntity
  8
0
 62
   254
100
AcDbPolyline
 90
        2
 70
     0
 39
0.003
 10
0.953327
 20
0.998677
 40
0.003
 41
0.003
 10
0.962906
 20
1.009165
 40
0.003
 41
0.003
  0
LWPOLYLINE
  5
26D
100
AcDbEntity
  8
0
 62
   254
100
AcDbPolyline
 90
        2
 70
     0
 39
0.003
 10
0.962906
 20
1.009165
 40
0.003
 41
0.003
 10
0.32428
 20
0.642953
 40
0.003
 41
0.003
  0
LWPOLYLINE
  5
26E
100
AcDbEntity
  8
0
 62
   254
100
AcDbPolyline
 90
        2
 70
     0
 39
0.003
 10
0.32428
 20
0.642953
 40
0.003
 41
0.003
 10
0.314701
 20
0.632465
 40
0.003
 41
0.003
  0
LWPOLYLINE
  5
26F
100
AcDbEntity
  8
0
 62
   254
100
AcDbPolyline
 90
        2
 70
     0
 39
0.003
 10
0.32428
 20
0.642953
 40
0.003
 41
0.003
 10
0.962906
 20
1.009165
 40
0.003
 41
0.003
  0
LWPOLYLINE
  5
270
100
AcDbEntity
  8
0
 62
   254
100
AcDbPolyline
 90
        2
 70
     0
 39
0.003
 10
0.962906
 20
1.009165
 40
0.003
 41
0.003
 10
0.971189
 20
1.020394
 40
0.003
 41
0.003
  0
LWPOLYLINE
  5
271
100
AcDbEntity
  8
0
 62
   254
100
AcDbPolyline
 90
        2
 70
     0
 39
0.003
 10
0.971189
 20
1.020394
 40
0.003
 41
0.003
 10
0.332563
 20
0.654181
 40
0.003
 41
0.003
  0
LWPOLYLINE
  5
272
100
AcDbEntity
  8
0
 62
   254
100
AcDbPolyline
 90
        2
 70
     0
 39
0.003
 10
0.332563
 20
0.654181
 40
0.003
 41
0.003
 10
0.32428
 20
0.642953
 40
0.003
 41
0.003
  0
LWPOLYLINE
  5
273
100
AcDbEntity
  8
0
 62
   254
100
AcDbPolyline
 90
        2
 70
     0
 39
0.003
 10
0.332563
 20
0.654181
 40
0.003
 41
0.003
 10
0.971189
 20
1.020394
 40
0.003
 41
0.003
  0
LWPOLYLINE
  5
274
100
AcDbEntity
  8
0
 62
   254
100
AcDbPolyline
 90
        2
 70
     0
 39
0.003
 10
0.971189
 20
1.020394
 40
0.003
 41
0.003
 10
0.978181
 20
1.032252
 40
0.003
 41
0.003
  0
LWPOLYLINE
  5
275
100
AcDbEntity
  8
0
 62
   254
100
AcDbPolyline
 90
        2
 70
     0
 39
0.003
 10
0.978181
 20
1.032252
 40
0.003
 41
0.003
 10
0.339555
 20
0.666039
 40
0.003
 41
0.003
  0
LWPOLYLINE
  5
276
100
AcDbEntity
  8
0
 62
   254
100
AcDbPolyline
 90
        2
 70
     0
 39
0.003
 10
0.339555
 20
0.666039
 40
0.003
 41
0.003
 10
0.332563
 20
0.654181
 40
0.003
 41
0.003
  0
LWPOLYLINE
  5
277
100
AcDbEntity
  8
0
 62
   254
100
AcDbPolyline
 90
        2
 70
     0
 39
0.003
 10
0.339555
 20
0.666039
 40
0.003
 41
0.003
 10
0.978181
 20
1.032252
 40
0.003
 41
0.003
  0
LWPOLYLINE
  5
278
100
AcDbEntity
  8
0
 62
   254
100
AcDbPolyline
 90
        2
 70
     0
 39
0.003
 10
0.978181
 20
1.032252
 40
0.003
 41
0.003
 10
0.983882
 20
1.044642
 40
0.003
 41
0.003
  0
LWPOLYLINE
  5
279
100
AcDbEntity
  8
0
 62
   254
100
AcDbPolyline
 90
        2
 70
     0
 39
0.003
 10
0.983882
 20
1.044642
 40
0.003
 41
0.003
 10
0.345256
 20
0.678429
 40
0.003
 41
0.003
  0
LWPOLYLINE
  5
27A
100
AcDbEntity
  8
0
 62
   254
100
AcDbPolyline
 90
        2
 70
     0
 39
0.003
 10
0.345256
 20
0.678429
 40
0.003
 41
0.003
 10
0.339555
 20
0.666039
 40
0.003
 41
0.003
  0
LWPOLYLINE
  5
27B
100
AcDbEntity
  8
0
 62
   254
100
AcDbPolyline
 90
        2
 70
     0
 39
0.003
 10
0.345256
 20
0.678429
 40
0.003
 41
0.003
 10
0.983882
 20
1.044642
 40
0.003
 41
0.003
  0
LWPOLYLINE
  5
27C
100
AcDbEntity
  8
0
 62
   254
100
AcDbPolyline
 90
        2
 70
     0
 39
0.003
 10
0.983882
 20
1.044642
 40
0.003
 41
0.003
 10
0.988291
 20
1.057445
 40
0.003
 41
0.003
  0
LWPOLYLINE
  5
27D
100
AcDbEntity
  8
0
 62
   254
100
AcDbPolyline
 90
        2
 70
     0
 39
0.003
 10
0.988291
 20
1.057445
 40
0.003
 41
0.003
 10
0.349665
 20
0.691232
 40
0.003
 41
0.003
  0
LWPOLYLINE
  5
27E
100
AcDbEntity
  8
0
 62
   254
100
AcDbPolyline
 90
        2
 70
     0
 39
0.003
 10
0.349665
 20
0.691232
 40
0.003
 41
0.003
 10
0.345256
 20
0.678429
 40
0.003
 41
0.003
  0
LWPOLYLINE
  5
27F
100
AcDbEntity
  8
0
 62
   254
100
AcDbPolyline
 90
        2
 70
     0
 39
0.003
 10
0.349665
 20
0.691232
 40
0.003
 41
0.003
 10
0.988291
 20
1.057445
 40
0.003
 41
0.003
  0
LWPOLYLINE
  5
280
100
AcDbEntity
  8
0
 62
   254
100
AcDbPolyline
 90
        2
 70
     0
 39
0.003
 10
0.988291
 20
1.057445
 40
0.003
 41
0.003
 10
0.991425
 20
1.070567
 40
0.003
 41
0.003
  0
LWPOLYLINE
  5
281
100
AcDbEntity
  8
0
 62
   254
100
AcDbPolyline
 90
        2
 70
     0
 39
0.003
 10
0.991425
 20
1.070567
 40
0.003
 41
0.003
 10
0.352799
 20
0.704354
 40
0.003
 41
0.003
  0
LWPOLYLINE
  5
282
100
AcDbEntity
  8
0
 62
   254
100
AcDbPolyline
 90
        2
 70
     0
 39
0.003
 10
0.352799
 20
0.704354
 40
0.003
 41
0.003
 10
0.349665
 20
0.691232
 40
0.003
 41
0.003
  0
LWPOLYLINE
  5
283
100
AcDbEntity
  8
0
 62
   254
100
AcDbPolyline
 90
        2
 70
     0
 39
0.003
 10
0.352799
 20
0.704354
 40
0.003
 41
0.003
 10
0.991425
 20
1.070567
 40
0.003
 41
0.003
  0
LWPOLYLINE
  5
284
100
AcDbEntity
  8
0
 62
   254
100
AcDbPolyline
 90
        2
 70
     0
 39
0.003
 10
0.991425
 20
1.070567
 40
0.003
 41
0.003
 10
0.993276
 20
1.083898
 40
0.003
 41
0.003
  0
LWPOLYLINE
  5
285
100
AcDbEntity
  8
0
 62
   254
100
AcDbPolyline
 90
        2
 70
     0
 39
0.003
 10
0.993276
 20
1.083898
 40
0.003
 41
0.003
 10
0.35465
 20
0.717685
 40
0.003
 41
0.003
  0
LWPOLYLINE
  5
286
100
AcDbEntity
  8
0
 62
   254
100
AcDbPolyline
 90
        2
 70
     0
 39
0.003
 10
0.35465
 20
0.717685
 40
0.003
 41
0.003
 10
0.352799
 20
0.704354
 40
0.003
 41
0.003
  0
LWPOLYLINE
  5
287
100
AcDbEntity
  8
0
 62
   254
100
AcDbPolyline
 90
        2
 70
     0
 39
0.003
 10
0.35465
 20
0.717685
 40
0.003
 41
0.003
 10
0.993276
 20
1.083898
 40
0.003
 41
0.003
  0
LWPOLYLINE
  5
288
100
AcDbEntity
  8
0
 62
   254
100
AcDbPolyline
 90
        2
 70
     0
 39
0.003
 10
0.993276
 20
1.083898
 40
0.003
 41
0.003
 10
0.993854
 20
1.097343
 40
0.003
 41
0.003
  0
LWPOLYLINE
  5
289
100
AcDbEntity
  8
0
 62
   254
100
AcDbPolyline
 90
        2
 70
     0
 39
0.003
 10
0.993854
 20
1.097343
 40
0.003
 41
0.003
 10
0.355228
 20
0.73113
 40
0.003
 41
0.003
  0
LWPOLYLINE
  5
28A
100
AcDbEntity
  8
0
 62
   254
100
AcDbPolyline
 90
        2
 70
     0
 39
0.003
 10
0.355228
 20
0.73113
 40
0.003
 41
0.003
 10
0.35465
 20
0.717685
 40
0.003
 41
0.003
  0
LWPOLYLINE
  5
28B
100
AcDbEntity
  8
0
 62
   254
100
AcDbPolyline
 90
        2
 70
     0
 39
0.003
 10
0.355228
 20
0.73113
 40
0.003
 41
0.003
 10
0.993854
 20
1.097343
 40
0.003
 41
0.003
  0
LWPOLYLINE
  5
28C
100
AcDbEntity
  8
0
 62
   254
100
AcDbPolyline
 90
        2
 70
     0
 39
0.003
 10
0.993854
 20
1.097343
 40
0.003
 41
0.003
 10
0.99315
 20
1.110776
 40
0.003
 41
0.003
  0
LWPOLYLINE
  5
28D
100
AcDbEntity
  8
0
 62
   254
100
AcDbPolyline
 90
        2
 70
     0
 39
0.003
 10
0.99315
 20
1.110776
 40
0.003
 41
0.003
 10
0.354524
 20
0.744563
 40
0.003
 41
0.003
  0
LWPOLYLINE
  5
28E
100
AcDbEntity
  8
0
 62
   254
100
AcDbPolyline
 90
        2
 70
     0
 39
0.003
 10
0.354524
 20
0.744563
 40
0.003
 41
0.003
 10
0.355228
 20
0.73113
 40
0.003
 41
0.003
  0
LWPOLYLINE
  5
28F
100
AcDbEntity
  8
0
 62
   254
100
AcDbPolyline
 90
        2
 70
     0
 39
0.003
 10
0.354524
 20
0.744563
 40
0.003
 41
0.003
 10
0.99315
 20
1.110776
 40
0.003
 41
0.003
  0
LWPOLYLINE
  5
290
100
AcDbEntity
  8
0
 62
   254
100
AcDbPolyline
 90
        2
 70
     0
 39
0.003
 10
0.99315
 20
1.110776
 40
0.003
 41
0.003
 10
0.991181
 20
1.124106
 40
0.003
 41
0.003
  0
LWPOLYLINE
  5
291
100
AcDbEntity
  8
0
 62
   254
100
AcDbPolyline
 90
        2
 70
     0
 39
0.003
 10
0.991181
 20
1.124106
 40
0.003
 41
0.003
 10
0.352555
 20
0.757894
 40
0.003
 41
0.003
  0
LWPOLYLINE
  5
292
100
AcDbEntity
  8
0
 62
   254
100
AcDbPolyline
 90
        2
 70
     0
 39
0.003
 10
0.352555
 20
0.757894
 40
0.003
 41
0.003
 10
0.354524
 20
0.744563
 40
0.003
 41
0.003
  0
LWPOLYLINE
  5
293
100
AcDbEntity
  8
0
 62
   254
100
AcDbPolyline
 90
        2
 70
     0
 39
0.003
 10
0.352555
 20
0.757894
 40
0.003
 41
0.003
 10
0.991181
 20
1.124106
 40
0.003
 41
0.003
  0
LWPOLYLINE
  5
294
100
AcDbEntity
  8
0
 62
   254
100
AcDbPolyline
 90
        2
 70
     0
 39
0.003
 10
0.991181
 20
1.124106
 40
0.003
 41
0.003
 10
0.987941
 20
1.137224
 40
0.003
 41
0.003
  0
LWPOLYLINE
  5
295
100
AcDbEntity
  8
0
 62
   254
100
AcDbPolyline
 90
        2
 70
     0
 39
0.003
 10
0.987941
 20
1.137224
 40
0.003
 41
0.003
 10
0.349315
 20
0.771012
 40
0.003
 41
0.003
  0
LWPOLYLINE
  5
296
100
AcDbEntity
  8
0
 62
   254
100
AcDbPolyline
 90
        2
 70
     0
 39
0.003
 10
0.349315
 20
0.771012
 40
0.003
 41
0.003
 10
0.352555
 20
0.757894
 40
0.003
 41
0.003
  0
LWPOLYLINE
  5
297
100
AcDbEntity
  8
0
 62
   254
100
AcDbPolyline
 90
        2
 70
     0
 39
0.003
 10
0.349315
 20
0.771012
 40
0.003
 41
0.003
 10
0.987941
 20
1.137224
 40
0.003
 41
0.003
  0
LWPOLYLINE
  5
298
100
AcDbEntity
  8
0
 62
   254
100
AcDbPolyline
 90
        2
 70
     0
 39
0.003
 10
0.987941
 20
1.137224
 40
0.003
 41
0.003
 10
0.983449
 20
1.150031
 40
0.003
 41
0.003
  0
LWPOLYLINE
  5
299
100
AcDbEntity
  8
0
 62
   254
100
AcDbPolyline
 90
        2
 70
     0
 39
0.003
 10
0.983449
 20
1.150031
 40
0.003
 41
0.003
 10
0.344823
 20
0.783819
 40
0.003
 41
0.003
  0
LWPOLYLINE
  5
29A
100
AcDbEntity
  8
0
 62
   254
100
AcDbPolyline
 90
        2
 70
     0
 39
0.003
 10
0.344823
 20
0.783819
 40
0.003
 41
0.003
 10
0.349315
 20
0.771012
 40
0.003
 41
0.003
  0
LWPOLYLINE
  5
29B
100
AcDbEntity
  8
0
 62
   254
100
AcDbPolyline
 90
        2
 70
     0
 39
0.003
 10
0.344823
 20
0.783819
 40
0.003
 41
0.003
 10
0.983449
 20
1.150031
 40
0.003
 41
0.003
  0
LWPOLYLINE
  5
29C
100
AcDbEntity
  8
0
 62
   254
100
AcDbPolyline
 90
        2
 70
     0
 39
0.003
 10
0.983449
 20
1.150031
 40
0.003
 41
0.003
 10
0.977689
 20
1.162413
 40
0.003
 41
0.003
  0
LWPOLYLINE
  5
29D
100
AcDbEntity
  8
0
 62
   254
100
AcDbPolyline
 90
        2
 70
     0
 39
0.003
 10
0.977689
 20
1.162413
 40
0.003
 41
0.003
 10
0.339063
 20
0.796201
 40
0.003
 41
0.003
  0
LWPOLYLINE
  5
29E
100
AcDbEntity
  8
0
 62
   254
100
AcDbPolyline
 90
        2
 70
     0
 39
0.003
 10
0.339063
 20
0.796201
 40
0.003
 41
0.003
 10
0.344823
 20
0.783819
 40
0.003
 41
0.003
  0
LWPOLYLINE
  5
29F
100
AcDbEntity
  8
0
 62
   254
100
AcDbPolyline
 90
        2
 70
     0
 39
0.003
 10
0.339063
 20
0.796201
 40
0.003
 41
0.003
 10
0.977689
 20
1.162413
 40
0.003
 41
0.003
  0
LWPOLYLINE
  5
2A0
100
AcDbEntity
  8
0
 62
   254
100
AcDbPolyline
 90
        2
 70
     0
 39
0.003
 10
0.977689
 20
1.162413
 40
0.003
 41
0.003
 10
0.970677
 20
1.174276
 40
0.003
 41
0.003
  0
LWPOLYLINE
  5
2A1
100
AcDbEntity
  8
0
 62
   254
100
AcDbPolyline
 90
        2
 70
     0
 39
0.003
 10
0.970677
 20
1.174276
 40
0.003
 41
0.003
 10
0.332051
 20
0.808063
 40
0.003
 41
0.003
  0
LWPOLYLINE
  5
2A2
100
AcDbEntity
  8
0
 62
   254
100
AcDbPolyline
 90
        2
 70
     0
 39
0.003
 10
0.332051
 20
0.808063
 40
0.003
 41
0.003
 10
0.339063
 20
0.796201
 40
0.003
 41
0.003
  0
LWPOLYLINE
  5
2A3
100
AcDbEntity
  8
0
 62
   254
100
AcDbPolyline
 90
        2
 70
     0
 39
0.003
 10
0.332051
 20
0.808063
 40
0.003
 41
0.003
 10
0.970677
 20
1.174276
 40
0.003
 41
0.003
  0
LWPOLYLINE
  5
2A4
100
AcDbEntity
  8
0
 62
   254
100
AcDbPolyline
 90
        2
 70
     0
 39
0.003
 10
0.970677
 20
1.174276
 40
0.003
 41
0.003
 10
0.962409
 20
1.185504
 40
0.003
 41
0.003
  0
LWPOLYLINE
  5
2A5
100
AcDbEntity
  8
0
 62
   254
100
AcDbPolyline
 90
        2
 70
     0
 39
0.003
 10
0.962409
 20
1.185504
 40
0.003
 41
0.003
 10
0.323783
 20
0.819291
 40
0.003
 41
0.003
  0
LWPOLYLINE
  5
2A6
100
AcDbEntity
  8
0
 62
   254
100
AcDbPolyline
 90
        2
 70
     0
 39
0.003
 10
0.323783
 20
0.819291
 40
0.003
 41
0.003
 10
0.332051
 20
0.808063
 40
0.003
 41
0.003
  0
LWPOLYLINE
  5
2A7
100
AcDbEntity
  8
0
 62
   254
100
AcDbPolyline
 90
        2
 70
     0
 39
0.003
 10
0.323783
 20
0.819291
 40
0.003
 41
0.003
 10
0.962409
 20
1.185504
 40
0.003
 41
0.003
  0
LWPOLYLINE
  5
2A8
100
AcDbEntity
  8
0
 62
   254
100
AcDbPolyline
 90
        2
 70
     0
 39
0.003
 10
0.962409
 20
1.185504
 40
0.003
 41
0.003
 10
0.952898
 20
1.196
 40
0.003
 41
0.003
  0
LWPOLYLINE
  5
2A9
100
AcDbEntity
  8
0
 62
   254
100
AcDbPolyline
 90
        2
 70
     0
 39
0.003
 10
0.952898
 20
1.196
 40
0.003
 41
0.003
 10
0.314272
 20
0.829787
 40
0.003
 41
0.003
  0
LWPOLYLINE
  5
2AA
100
AcDbEntity
  8
0
 62
   254
100
AcDbPolyline
 90
        2
 70
     0
 39
0.003
 10
0.314272
 20
0.829787
 40
0.003
 41
0.003
 10
0.323783
 20
0.819291
 40
0.003
 41
0.003
  0
LWPOLYLINE
  5
2AB
100
AcDbEntity
  8
0
 62
   254
100
AcDbPolyline
 90
        2
 70
     0
 39
0.003
 10
0.314272
 20
0.829787
 40
0.003
 41
0.003
 10
0.952898
 20
1.196
 40
0.003
 41
0.003
  0
LWPOLYLINE
  5
2AC
100
AcDbEntity
  8
0
 62
   254
100
AcDbPolyline
 90
        2
 70
     0
 39
0.003
 10
0.952898
 20
1.196
 40
0.003
 41
0.003
 10
0.942134
 20
1.205646
 40
0.003
 41
0.003
  0
LWPOLYLINE
  5
2AD
100
AcDbEntity
  8
0
 62
   254
100
AcDbPolyline
 90
        2
 70
     0
 39
0.003
 10
0.942134
 20
1.205646
 40
0.003
 41
0.003
 10
0.303508
 20
0.839433
 40
0.003
 41
0.003
  0
LWPOLYLINE
  5
2AE
100
AcDbEntity
  8
0
 62
   254
100
AcDbPolyline
 90
        2
 70
     0
 39
0.003
 10
0.303508
 20
0.839433
 40
0.003
 41
0.003
 10
0.314272
 20
0.829787
 40
0.003
 41
0.003
  0
LWPOLYLINE
  5
2AF
100
AcDbEntity
  8
0
 62
   254
100
AcDbPolyline
 90
        2
 70
     0
 39
0.003
 10
0.303508
 20
0.839433
 40
0.003
 41
0.003
 10
0.942134
 20
1.205646
 40
0.003
 41
0.003
  0
LWPOLYLINE
  5
2B0
100
AcDbEntity
  8
0
 62
   254
100
AcDbPolyline
 90
        2
 70
     0
 39
0.003
 10
0.942134
 20
1.205646
 40
0.003
 41
0.003
 10
0.93013
 20
1.214354
 40
0.003
 41
0.003
  0
LWPOLYLINE
  5
2B1
100
AcDbEntity
  8
0
 62
   254
100
AcDbPolyline
 90
        2
 70
     0
 39
0.003
 10
0.93013
 20
1.214354
 40
0.003
 41
0.003
 10
0.291504
 20
0.848142
 40
0.003
 41
0.003
  0
LWPOLYLINE
  5
2B2
100
AcDbEntity
  8
0
 62
   254
100
AcDbPolyline
 90
        2
 70
     0
 39
0.003
 10
0.291504
 20
0.848142
 40
0.003
 41
0.003
 10
0.303508
 20
0.839433
 40
0.003
 41
0.003
  0
LWPOLYLINE
  5
2B3
100
AcDbEntity
  8
0
 62
   254
100
AcDbPolyline
 90
        2
 70
     0
 39
0.003
 10
0.291504
 20
0.848142
 40
0.003
 41
0.003
 10
0.93013
 20
1.214354
 40
0.003
 41
0.003
  0
LWPOLYLINE
  5
2B4
100
AcDbEntity
  8
0
 62
   254
100
AcDbPolyline
 90
        2
 70
     0
 39
0.003
 10
0.93013
 20
1.214354
 40
0.003
 41
0.003
 10
0.916882
 20
1.222008
 40
0.003
 41
0.003
  0
LWPOLYLINE
  5
2B5
100
AcDbEntity
  8
0
 62
   254
100
AcDbPolyline
 90
        2
 70
     0
 39
0.003
 10
0.916882
 20
1.222008
 40
0.003
 41
0.003
 10
0.278256
 20
0.855795
 40
0.003
 41
0.003
  0
LWPOLYLINE
  5
2B6
100
AcDbEntity
  8
0
 62
   254
100
AcDbPolyline
 90
        2
 70
     0
 39
0.003
 10
0.278256
 20
0.855795
 40
0.003
 41
0.003
 10
0.291504
 20
0.848142
 40
0.003
 41
0.003
  0
LWPOLYLINE
  5
2B7
100
AcDbEntity
  8
0
 62
     9
100
AcDbPolyline
 90
        2
 70
     0
 39
0.003
 10
0.278256
 20
0.855795
 40
0.003
 41
0.003
 10
0.916882
 20
1.222008
 40
0.003
 41
0.003
  0
LWPOLYLINE
  5
2B8
100
AcDbEntity
  8
0
 62
     9
100
AcDbPolyline
 90
        2
 70
     0
 39
0.003
 10
0.916882
 20
1.222008
 40
0.003
 41
0.003
 10
0.902406
 20
1.228512
 40
0.003
 41
0.003
  0
LWPOLYLINE
  5
2B9
100
AcDbEntity
  8
0
 62
     9
100
AcDbPolyline
 90
        2
 70
     0
 39
0.003
 10
0.902406
 20
1.228512
 40
0.003
 41
0.003
 10
0.26378
 20
0.862299
 40
0.003
 41
0.003
  0
LWPOLYLINE
  5
2BA
100
AcDbEntity
  8
0
 62
     9
100
AcDbPolyline
 90
        2
 70
     0
 39
0.003
 10
0.26378
 20
0.862299
 40
0.003
 41
0.003
 10
0.278256
 20
0.855795
 40
0.003
 41
0.003
  0
LWPOLYLINE
  5
2BB
100
AcDbEntity
  8
0
 62
     9
100
AcDbPolyline
 90
        2
 70
     0
 39
0.003
 10
0.26378
 20
0.862299
 40
0.003
 41
0.003
 10
0.902406
 20
1.228512
 40
0.003
 41
0.003
  0
LWPOLYLINE
  5
2BC
100
AcDbEntity
  8
0
 62
     9
100
AcDbPolyline
 90
        2
 70
     0
 39
0.003
 10
0.902406
 20
1.228512
 40
0.003
 41
0.003
 10
0.886685
 20
1.233748
 40
0.003
 41
0.003
  0
LWPOLYLINE
  5
2BD
100
AcDbEntity
  8
0
 62
     9
100
AcDbPolyline
 90
        2
 70
     0
 39
0.003
 10
0.886685
 20
1.233748
 40
0.003
 41
0.003
 10
0.248059
 20
0.867535
 40
0.003
 41
0.003
  0
LWPOLYLINE
  5
2BE
100
AcDbEntity
  8
0
 62
     9
100
AcDbPolyline
 90
        2
 70
     0
 39
0.003
 10
0.248059
 20
0.867535
 40
0.003
 41
0.003
 10
0.26378
 20
0.862299
 40
0.003
 41
0.003
  0
LWPOLYLINE
  5
2BF
100
AcDbEntity
  8
0
 62
     9
100
AcDbPolyline
 90
        2
 70
     0
 39
0.003
 10
0.248059
 20
0.867535
 40
0.003
 41
0.003
 10
0.886685
 20
1.233748
 40
0.003
 41
0.003
  0
LWPOLYLINE
  5
2C0
100
AcDbEntity
  8
0
 62
     9
100
AcDbPolyline
 90
        2
 70
     0
 39
0.003
 10
0.886685
 20
1.233748
 40
0.003
 41
0.003
 10
0.869748
 20
1.237622
 40
0.003
 41
0.003
  0
LWPOLYLINE
  5
2C1
100
AcDbEntity
  8
0
 62
     9
100
AcDbPolyline
 90
        2
 70
     0
 39
0.003
 10
0.869748
 20
1.237622
 40
0.003
 41
0.003
 10
0.231122
 20
0.871409
 40
0.003
 41
0.003
  0
LWPOLYLINE
  5
2C2
100
AcDbEntity
  8
0
 62
     9
100
AcDbPolyline
 90
        2
 70
     0
 39
0.003
 10
0.231122
 20
0.871409
 40
0.003
 41
0.003
 10
0.248059
 20
0.867535
 40
0.003
 41
0.003
  0
LWPOLYLINE
  5
2C3
100
AcDbEntity
  8
0
 62
     9
100
AcDbPolyline
 90
        2
 70
     0
 39
0.003
 10
0.231122
 20
0.871409
 40
0.003
 41
0.003
 10
0.869748
 20
1.237622
 40
0.003
 41
0.003
  0
LWPOLYLINE
  5
2C4
100
AcDbEntity
  8
0
 62
     9
100
AcDbPolyline
 90
        2
 70
     0
 39
0.003
 10
0.869748
 20
1.237622
 40
0.003
 41
0.003
 10
0.851579
 20
1.24002
 40
0.003
 41
0.003
  0
LWPOLYLINE
  5
2C5
100
AcDbEntity
  8
0
 62
     9
100
AcDbPolyline
 90
        2
 70
     0
 39
0.003
 10
0.851579
 20
1.24002
 40
0.003
 41
0.003
 10
0.212953
 20
0.873807
 40
0.003
 41
0.003
  0
LWPOLYLINE
  5
2C6
100
AcDbEntity
  8
0
 62
     9
100
AcDbPolyline
 90
        2
 70
     0
 39
0.003
 10
0.212953
 20
0.873807
 40
0.003
 41
0.003
 10
0.231122
 20
0.871409
 40
0.003
 41
0.003
  0
LWPOLYLINE
  5
2C7
100
AcDbEntity
  8
0
 62
   253
100
AcDbPolyline
 90
        2
 70
     0
 39
0.003
 10
0.212953
 20
0.873807
 40
0.003
 41
0.003
 10
0.851579
 20
1.24002
 40
0.003
 41
0.003
  0
LWPOLYLINE
  5
2C8
100
AcDbEntity
  8
0
 62
   253
100
AcDbPolyline
 90
        2
 70
     0
 39
0.003
 10
0.851579
 20
1.24002
 40
0.003
 41
0.003
 10
0.832193
 20
1.240846
 40
0.003
 41
0.003
  0
LWPOLYLINE
  5
2C9
100
AcDbEntity
  8
0
 62
   253
100
AcDbPolyline
 90
        2
 70
     0
 39
0.003
 10
0.832193
 20
1.240846
 40
0.003
 41
0.003
 10
0.193567
 20
0.874634
 40
0.003
 41
0.003
  0
LWPOLYLINE
  5
2CA
100
AcDbEntity
  8
0
 62
   253
100
AcDbPolyline
 90
        2
 70
     0
 39
0.003
 10
0.193567
 20
0.874634
 40
0.003
 41
0.003
 10
0.212953
 20
0.873807
 40
0.003
 41
0.003
  0
LWPOLYLINE
  5
2CB
100
AcDbEntity
  8
0
 62
     0
100
AcDbPolyline
 90
        2
 70
     0
 39
0.003
 10
0.29163
 20
0.614098
 40
0.003
 41
0.003
 10
0.930256
 20
0.980311
 40
0.003
 41
0.003
  0
LWPOLYLINE
  5
2CC
100
AcDbEntity
  8
0
 62
     0
100
AcDbPolyline
 90
        2
 70
     0
 39
0.003
 10
0.930256
 20
0.980311
 40
0.003
 41
0.003
 10
0.942437
 20
0.98902
 40
0.003
 41
0.003
  0
LWPOLYLINE
  5
2CD
100
AcDbEntity
  8
0
 62
     0
100
AcDbPolyline
 90
        2
 70
     0
 39
0.003
 10
0.942437
 20
0.98902
 40
0.003
 41
0.003
 10
0.953327
 20
0.998677
 40
0.003
 41
0.003
  0
LWPOLYLINE
  5
2CE
100
AcDbEntity
  8
0
 62
     0
100
AcDbPolyline
 90
        2
 70
     0
 39
0.003
 10
0.953327
 20
0.998677
 40
0.003
 41
0.003
 10
0.962906
 20
1.009165
 40
0.003
 41
0.003
  0
LWPOLYLINE
  5
2CF
100
AcDbEntity
  8
0
 62
     0
100
AcDbPolyline
 90
        2
 70
     0
 39
0.003
 10
0.962906
 20
1.009165
 40
0.003
 41
0.003
 10
0.971189
 20
1.020394
 40
0.003
 41
0.003
  0
LWPOLYLINE
  5
2D0
100
AcDbEntity
  8
0
 62
     0
100
AcDbPolyline
 90
        2
 70
     0
 39
0.003
 10
0.971189
 20
1.020394
 40
0.003
 41
0.003
 10
0.978181
 20
1.032252
 40
0.003
 41
0.003
  0
LWPOLYLINE
  5
2D1
100
AcDbEntity
  8
0
 62
     0
100
AcDbPolyline
 90
        2
 70
     0
 39
0.003
 10
0.978181
 20
1.032252
 40
0.003
 41
0.003
 10
0.983882
 20
1.044642
 40
0.003
 41
0.003
  0
LWPOLYLINE
  5
2D2
100
AcDbEntity
  8
0
 62
     0
100
AcDbPolyline
 90
        2
 70
     0
 39
0.003
 10
0.983882
 20
1.044642
 40
0.003
 41
0.003
 10
0.988291
 20
1.057445
 40
0.003
 41
0.003
  0
LWPOLYLINE
  5
2D3
100
AcDbEntity
  8
0
 62
     0
100
AcDbPolyline
 90
        2
 70
     0
 39
0.003
 10
0.988291
 20
1.057445
 40
0.003
 41
0.003
 10
0.991425
 20
1.070567
 40
0.003
 41
0.003
  0
LWPOLYLINE
  5
2D4
100
AcDbEntity
  8
0
 62
     0
100
AcDbPolyline
 90
        2
 70
     0
 39
0.003
 10
0.991425
 20
1.070567
 40
0.003
 41
0.003
 10
0.993276
 20
1.083898
 40
0.003
 41
0.003
  0
LWPOLYLINE
  5
2D5
100
AcDbEntity
  8
0
 62
     0
100
AcDbPolyline
 90
        2
 70
     0
 39
0.003
 10
0.993276
 20
1.083898
 40
0.003
 41
0.003
 10
0.993854
 20
1.097343
 40
0.003
 41
0.003
  0
LWPOLYLINE
  5
2D6
100
AcDbEntity
  8
0
 62
     0
100
AcDbPolyline
 90
        2
 70
     0
 39
0.003
 10
0.993854
 20
1.097343
 40
0.003
 41
0.003
 10
0.99315
 20
1.110776
 40
0.003
 41
0.003
  0
LWPOLYLINE
  5
2D7
100
AcDbEntity
  8
0
 62
     0
100
AcDbPolyline
 90
        2
 70
     0
 39
0.003
 10
0.99315
 20
1.110776
 40
0.003
 41
0.003
 10
0.991181
 20
1.124106
 40
0.003
 41
0.003
  0
LWPOLYLINE
  5
2D8
100
AcDbEntity
  8
0
 62
     0
100
AcDbPolyline
 90
        2
 70
     0
 39
0.003
 10
0.991181
 20
1.124106
 40
0.003
 41
0.003
 10
0.987941
 20
1.137224
 40
0.003
 41
0.003
  0
LWPOLYLINE
  5
2D9
100
AcDbEntity
  8
0
 62
     0
100
AcDbPolyline
 90
        2
 70
     0
 39
0.003
 10
0.987941
 20
1.137224
 40
0.003
 41
0.003
 10
0.983449
 20
1.150031
 40
0.003
 41
0.003
  0
LWPOLYLINE
  5
2DA
100
AcDbEntity
  8
0
 62
     0
100
AcDbPolyline
 90
        2
 70
     0
 39
0.003
 10
0.983449
 20
1.150031
 40
0.003
 41
0.003
 10
0.977689
 20
1.162413
 40
0.003
 41
0.003
  0
LWPOLYLINE
  5
2DB
100
AcDbEntity
  8
0
 62
     0
100
AcDbPolyline
 90
        2
 70
     0
 39
0.003
 10
0.977689
 20
1.162413
 40
0.003
 41
0.003
 10
0.970677
 20
1.174276
 40
0.003
 41
0.003
  0
LWPOLYLINE
  5
2DC
100
AcDbEntity
  8
0
 62
     0
100
AcDbPolyline
 90
        2
 70
     0
 39
0.003
 10
0.970677
 20
1.174276
 40
0.003
 41
0.003
 10
0.962409
 20
1.185504
 40
0.003
 41
0.003
  0
LWPOLYLINE
  5
2DD
100
AcDbEntity
  8
0
 62
     0
100
AcDbPolyline
 90
        2
 70
     0
 39
0.003
 10
0.962409
 20
1.185504
 40
0.003
 41
0.003
 10
0.952898
 20
1.196
 40
0.003
 41
0.003
  0
LWPOLYLINE
  5
2DE
100
AcDbEntity
  8
0
 62
     0
100
AcDbPolyline
 90
        2
 70
     0
 39
0.003
 10
0.952898
 20
1.196
 40
0.003
 41
0.003
 10
0.942134
 20
1.205646
 40
0.003
 41
0.003
  0
LWPOLYLINE
  5
2DF
100
AcDbEntity
  8
0
 62
     0
100
AcDbPolyline
 90
        2
 70
     0
 39
0.003
 10
0.942134
 20
1.205646
 40
0.003
 41
0.003
 10
0.93013
 20
1.214354
 40
0.003
 41
0.003
  0
LWPOLYLINE
  5
2E0
100
AcDbEntity
  8
0
 62
     0
100
AcDbPolyline
 90
        2
 70
     0
 39
0.003
 10
0.93013
 20
1.214354
 40
0.003
 41
0.003
 10
0.916882
 20
1.222008
 40
0.003
 41
0.003
  0
LWPOLYLINE
  5
2E1
100
AcDbEntity
  8
0
 62
     0
100
AcDbPolyline
 90
        2
 70
     0
 39
0.003
 10
0.916882
 20
1.222008
 40
0.003
 41
0.003
 10
0.902406
 20
1.228512
 40
0.003
 41
0.003
  0
LWPOLYLINE
  5
2E2
100
AcDbEntity
  8
0
 62
     0
100
AcDbPolyline
 90
        2
 70
     0
 39
0.003
 10
0.902406
 20
1.228512
 40
0.003
 41
0.003
 10
0.886685
 20
1.233748
 40
0.003
 41
0.003
  0
LWPOLYLINE
  5
2E3
100
AcDbEntity
  8
0
 62
     0
100
AcDbPolyline
 90
        2
 70
     0
 39
0.003
 10
0.886685
 20
1.233748
 40
0.003
 41
0.003
 10
0.869748
 20
1.237622
 40
0.003
 41
0.003
  0
LWPOLYLINE
  5
2E4
100
AcDbEntity
  8
0
 62
     0
100
AcDbPolyline
 90
        2
 70
     0
 39
0.003
 10
0.869748
 20
1.237622
 40
0.003
 41
0.003
 10
0.851579
 20
1.24002
 40
0.003
 41
0.003
  0
LWPOLYLINE
  5
2E5
100
AcDbEntity
  8
0
 62
     0
100
AcDbPolyline
 90
        2
 70
     0
 39
0.003
 10
0.851579
 20
1.24002
 40
0.003
 41
0.003
 10
0.832193
 20
1.240846
 40
0.003
 41
0.003
  0
LWPOLYLINE
  5
2E6
100
AcDbEntity
  8
0
 62
     0
100
AcDbPolyline
 90
        2
 70
     0
 39
0.003
 10
0.832193
 20
1.240846
 40
0.003
 41
0.003
 10
0.193567
 20
0.874634
 40
0.003
 41
0.003
  0
LWPOLYLINE
  5
2E7
100
AcDbEntity
  8
0
 62
     0
100
AcDbPolyline
 90
        2
 70
     0
 39
0.003
 10
0.193567
 20
0.874634
 40
0.003
 41
0.003
 10
0.212953
 20
0.873807
 40
0.003
 41
0.003
  0
LWPOLYLINE
  5
2E8
100
AcDbEntity
  8
0
 62
     0
100
AcDbPolyline
 90
        2
 70
     0
 39
0.003
 10
0.212953
 20
0.873807
 40
0.003
 41
0.003
 10
0.231122
 20
0.871409
 40
0.003
 41
0.003
  0
LWPOLYLINE
  5
2E9
100
AcDbEntity
  8
0
 62
     0
100
AcDbPolyline
 90
        2
 70
     0
 39
0.003
 10
0.231122
 20
0.871409
 40
0.003
 41
0.003
 10
0.248059
 20
0.867535
 40
0.003
 41
0.003
  0
LWPOLYLINE
  5
2EA
100
AcDbEntity
  8
0
 62
     0
100
AcDbPolyline
 90
        2
 70
     0
 39
0.003
 10
0.248059
 20
0.867535
 40
0.003
 41
0.003
 10
0.26378
 20
0.862299
 40
0.003
 41
0.003
  0
LWPOLYLINE
  5
2EB
100
AcDbEntity
  8
0
 62
     0
100
AcDbPolyline
 90
        2
 70
     0
 39
0.003
 10
0.26378
 20
0.862299
 40
0.003
 41
0.003
 10
0.278256
 20
0.855795
 40
0.003
 41
0.003
  0
LWPOLYLINE
  5
2EC
100
AcDbEntity
  8
0
 62
     0
100
AcDbPolyline
 90
        2
 70
     0
 39
0.003
 10
0.278256
 20
0.855795
 40
0.003
 41
0.003
 10
0.291504
 20
0.848142
 40
0.003
 41
0.003
  0
LWPOLYLINE
  5
2ED
100
AcDbEntity
  8
0
 62
     0
100
AcDbPolyline
 90
        2
 70
     0
 39
0.003
 10
0.291504
 20
0.848142
 40
0.003
 41
0.003
 10
0.303508
 20
0.839433
 40
0.003
 41
0.003
  0
LWPOLYLINE
  5
2EE
100
AcDbEntity
  8
0
 62
     0
100
AcDbPolyline
 90
        2
 70
     0
 39
0.003
 10
0.303508
 20
0.839433
 40
0.003
 41
0.003
 10
0.314272
 20
0.829787
 40
0.003
 41
0.003
  0
LWPOLYLINE
  5
2EF
100
AcDbEntity
  8
0
 62
     0
100
AcDbPolyline
 90
        2
 70
     0
 39
0.003
 10
0.314272
 20
0.829787
 40
0.003
 41
0.003
 10
0.323783
 20
0.819291
 40
0.003
 41
0.003
  0
LWPOLYLINE
  5
2F0
100
AcDbEntity
  8
0
 62
     0
100
AcDbPolyline
 90
        2
 70
     0
 39
0.003
 10
0.323783
 20
0.819291
 40
0.003
 41
0.003
 10
0.332051
 20
0.808063
 40
0.003
 41
0.003
  0
LWPOLYLINE
  5
2F1
100
AcDbEntity
  8
0
 62
     0
100
AcDbPolyline
 90
        2
 70
     0
 39
0.003
 10
0.332051
 20
0.808063
 40
0.003
 41
0.003
 10
0.339063
 20
0.796201
 40
0.003
 41
0.003
  0
LWPOLYLINE
  5
2F2
100
AcDbEntity
  8
0
 62
     0
100
AcDbPolyline
 90
        2
 70
     0
 39
0.003
 10
0.339063
 20
0.796201
 40
0.003
 41
0.003
 10
0.344823
 20
0.783819
 40
0.003
 41
0.003
  0
LWPOLYLINE
  5
2F3
100
AcDbEntity
  8
0
 62
     0
100
AcDbPolyline
 90
        2
 70
     0
 39
0.003
 10
0.344823
 20
0.783819
 40
0.003
 41
0.003
 10
0.349315
 20
0.771012
 40
0.003
 41
0.003
  0
LWPOLYLINE
  5
2F4
100
AcDbEntity
  8
0
 62
     0
100
AcDbPolyline
 90
        2
 70
     0
 39
0.003
 10
0.349315
 20
0.771012
 40
0.003
 41
0.003
 10
0.352555
 20
0.757894
 40
0.003
 41
0.003
  0
LWPOLYLINE
  5
2F5
100
AcDbEntity
  8
0
 62
     0
100
AcDbPolyline
 90
        2
 70
     0
 39
0.003
 10
0.352555
 20
0.757894
 40
0.003
 41
0.003
 10
0.354524
 20
0.744563
 40
0.003
 41
0.003
  0
LWPOLYLINE
  5
2F6
100
AcDbEntity
  8
0
 62
     0
100
AcDbPolyline
 90
        2
 70
     0
 39
0.003
 10
0.354524
 20
0.744563
 40
0.003
 41
0.003
 10
0.355228
 20
0.73113
 40
0.003
 41
0.003
  0
LWPOLYLINE
  5
2F7
100
AcDbEntity
  8
0
 62
     0
100
AcDbPolyline
 90
        2
 70
     0
 39
0.003
 10
0.355228
 20
0.73113
 40
0.003
 41
0.003
 10
0.35465
 20
0.717685
 40
0.003
 41
0.003
  0
LWPOLYLINE
  5
2F8
100
AcDbEntity
  8
0
 62
     0
100
AcDbPolyline
 90
        2
 70
     0
 39
0.003
 10
0.35465
 20
0.717685
 40
0.003
 41
0.003
 10
0.352799
 20
0.704354
 40
0.003
 41
0.003
  0
LWPOLYLINE
  5
2F9
100
AcDbEntity
  8
0
 62
     0
100
AcDbPolyline
 90
        2
 70
     0
 39
0.003
 10
0.352799
 20
0.704354
 40
0.003
 41
0.003
 10
0.349665
 20
0.691232
 40
0.003
 41
0.003
  0
LWPOLYLINE
  5
2FA
100
AcDbEntity
  8
0
 62
     0
100
AcDbPolyline
 90
        2
 70
     0
 39
0.003
 10
0.349665
 20
0.691232
 40
0.003
 41
0.003
 10
0.345256
 20
0.678429
 40
0.003
 41
0.003
  0
LWPOLYLINE
  5
2FB
100
AcDbEntity
  8
0
 62
     0
100
AcDbPolyline
 90
        2
 70
     0
 39
0.003
 10
0.345256
 20
0.678429
 40
0.003
 41
0.003
 10
0.339555
 20
0.666039
 40
0.003
 41
0.003
  0
LWPOLYLINE
  5
2FC
100
AcDbEntity
  8
0
 62
     0
100
AcDbPolyline
 90
        2
 70
     0
 39
0.003
 10
0.339555
 20
0.666039
 40
0.003
 41
0.003
 10
0.332563
 20
0.654181
 40
0.003
 41
0.003
  0
LWPOLYLINE
  5
2FD
100
AcDbEntity
  8
0
 62
     0
100
AcDbPolyline
 90
        2
 70
     0
 39
0.003
 10
0.332563
 20
0.654181
 40
0.003
 41
0.003
 10
0.32428
 20
0.642953
 40
0.003
 41
0.003
  0
LWPOLYLINE
  5
2FE
100
AcDbEntity
  8
0
 62
     0
100
AcDbPolyline
 90
        2
 70
     0
 39
0.003
 10
0.32428
 20
0.642953
 40
0.003
 41
0.003
 10
0.314701
 20
0.632465
 40
0.003
 41
0.003
  0
LWPOLYLINE
  5
2FF
100
AcDbEntity
  8
0
 62
     0
100
AcDbPolyline
 90
        2
 70
     0
 39
0.003
 10
0.314701
 20
0.632465
 40
0.003
 41
0.003
 10
0.303811
 20
0.622807
 40
0.003
 41
0.003
  0
LWPOLYLINE
  5
300
100
AcDbEntity
  8
0
 62
     0
100
AcDbPolyline
 90
        2
 70
     0
 39
0.003
 10
0.303811
 20
0.622807
 40
0.003
 41
0.003
 10
0.29163
 20
0.614098
 40
0.003
 41
0.003
  0
LWPOLYLINE
  5
301
100
AcDbEntity
  8
0
 62
   254
100
AcDbPolyline
 90
        2
 70
     0
 39
0.003
 10
0.193567
 20
0.874634
 40
0.003
 41
0.003
 10
0.832193
 20
1.240846
 40
0.003
 41
0.003
  0
LWPOLYLINE
  5
302
100
AcDbEntity
  8
0
 62
   254
100
AcDbPolyline
 90
        2
 70
     0
 39
0.003
 10
0.832193
 20
1.240846
 40
0.003
 41
0.003
 10
0.832193
 20
1.34387
 40
0.003
 41
0.003
  0
LWPOLYLINE
  5
303
100
AcDbEntity
  8
0
 62
   254
100
AcDbPolyline
 90
        2
 70
     0
 39
0.003
 10
0.832193
 20
1.34387
 40
0.003
 41
0.003
 10
0.193567
 20
0.977657
 40
0.003
 41
0.003
  0
LWPOLYLINE
  5
304
100
AcDbEntity
  8
0
 62
   254
100
AcDbPolyline
 90
        2
 70
     0
 39
0.003
 10
0.193567
 20
0.977657
 40
0.003
 41
0.003
 10
0.193567
 20
0.874634
 40
0.003
 41
0.003
  0
LWPOLYLINE
  5
305
100
AcDbEntity
  8
0
 62
   253
100
AcDbPolyline
 90
        2
 70
     0
 39
0.003
 10
0.193567
 20
0.977657
 40
0.003
 41
0.003
 10
0.832193
 20
1.34387
 40
0.003
 41
0.003
  0
LWPOLYLINE
  5
306
100
AcDbEntity
  8
0
 62
   253
100
AcDbPolyline
 90
        2
 70
     0
 39
0.003
 10
0.832193
 20
1.34387
 40
0.003
 41
0.003
 10
0.80889
 20
1.345146
 40
0.003
 41
0.003
  0
LWPOLYLINE
  5
307
100
AcDbEntity
  8
0
 62
   253
100
AcDbPolyline
 90
        2
 70
     0
 39
0.003
 10
0.80889
 20
1.345146
 40
0.003
 41
0.003
 10
0.170264
 20
0.978933
 40
0.003
 41
0.003
  0
LWPOLYLINE
  5
308
100
AcDbEntity
  8
0
 62
   253
100
AcDbPolyline
 90
        2
 70
     0
 39
0.003
 10
0.170264
 20
0.978933
 40
0.003
 41
0.003
 10
0.193567
 20
0.977657
 40
0.003
 41
0.003
  0
LWPOLYLINE
  5
309
100
AcDbEntity
  8
0
 62
   253
100
AcDbPolyline
 90
        2
 70
     0
 39
0.003
 10
0.170264
 20
0.978933
 40
0.003
 41
0.003
 10
0.80889
 20
1.345146
 40
0.003
 41
0.003
  0
LWPOLYLINE
  5
30A
100
AcDbEntity
  8
0
 62
   253
100
AcDbPolyline
 90
        2
 70
     0
 39
0.003
 10
0.80889
 20
1.345146
 40
0.003
 41
0.003
 10
0.785925
 20
1.347063
 40
0.003
 41
0.003
  0
LWPOLYLINE
  5
30B
100
AcDbEntity
  8
0
 62
   253
100
AcDbPolyline
 90
        2
 70
     0
 39
0.003
 10
0.785925
 20
1.347063
 40
0.003
 41
0.003
 10
0.147299
 20
0.98085
 40
0.003
 41
0.003
  0
LWPOLYLINE
  5
30C
100
AcDbEntity
  8
0
 62
   253
100
AcDbPolyline
 90
        2
 70
     0
 39
0.003
 10
0.147299
 20
0.98085
 40
0.003
 41
0.003
 10
0.170264
 20
0.978933
 40
0.003
 41
0.003
  0
LWPOLYLINE
  5
30D
100
AcDbEntity
  8
0
 62
   253
100
AcDbPolyline
 90
        2
 70
     0
 39
0.003
 10
0.147299
 20
0.98085
 40
0.003
 41
0.003
 10
0.785925
 20
1.347063
 40
0.003
 41
0.003
  0
LWPOLYLINE
  5
30E
100
AcDbEntity
  8
0
 62
   253
100
AcDbPolyline
 90
        2
 70
     0
 39
0.003
 10
0.785925
 20
1.347063
 40
0.003
 41
0.003
 10
0.763319
 20
1.349594
 40
0.003
 41
0.003
  0
LWPOLYLINE
  5
30F
100
AcDbEntity
  8
0
 62
   253
100
AcDbPolyline
 90
        2
 70
     0
 39
0.003
 10
0.763319
 20
1.349594
 40
0.003
 41
0.003
 10
0.124693
 20
0.983382
 40
0.003
 41
0.003
  0
LWPOLYLINE
  5
310
100
AcDbEntity
  8
0
 62
   253
100
AcDbPolyline
 90
        2
 70
     0
 39
0.003
 10
0.124693
 20
0.983382
 40
0.003
 41
0.003
 10
0.147299
 20
0.98085
 40
0.003
 41
0.003
  0
LWPOLYLINE
  5
311
100
AcDbEntity
  8
0
 62
     9
100
AcDbPolyline
 90
        2
 70
     0
 39
0.003
 10
0.124693
 20
0.983382
 40
0.003
 41
0.003
 10
0.763319
 20
1.349594
 40
0.003
 41
0.003
  0
LWPOLYLINE
  5
312
100
AcDbEntity
  8
0
 62
     9
100
AcDbPolyline
 90
        2
 70
     0
 39
0.003
 10
0.763319
 20
1.349594
 40
0.003
 41
0.003
 10
0.741102
 20
1.352744
 40
0.003
 41
0.003
  0
LWPOLYLINE
  5
313
100
AcDbEntity
  8
0
 62
     9
100
AcDbPolyline
 90
        2
 70
     0
 39
0.003
 10
0.741102
 20
1.352744
 40
0.003
 41
0.003
 10
0.102476
 20
0.986531
 40
0.003
 41
0.003
  0
LWPOLYLINE
  5
314
100
AcDbEntity
  8
0
 62
     9
100
AcDbPolyline
 90
        2
 70
     0
 39
0.003
 10
0.102476
 20
0.986531
 40
0.003
 41
0.003
 10
0.124693
 20
0.983382
 40
0.003
 41
0.003
  0
LWPOLYLINE
  5
315
100
AcDbEntity
  8
0
 62
     9
100
AcDbPolyline
 90
        2
 70
     0
 39
0.003
 10
0.102476
 20
0.986531
 40
0.003
 41
0.003
 10
0.741102
 20
1.352744
 40
0.003
 41
0.003
  0
LWPOLYLINE
  5
316
100
AcDbEntity
  8
0
 62
     9
100
AcDbPolyline
 90
        2
 70
     0
 39
0.003
 10
0.741102
 20
1.352744
 40
0.003
 41
0.003
 10
0.719295
 20
1.356476
 40
0.003
 41
0.003
  0
LWPOLYLINE
  5
317
100
AcDbEntity
  8
0
 62
     9
100
AcDbPolyline
 90
        2
 70
     0
 39
0.003
 10
0.719295
 20
1.356476
 40
0.003
 41
0.003
 10
0.080669
 20
0.990264
 40
0.003
 41
0.003
  0
LWPOLYLINE
  5
318
100
AcDbEntity
  8
0
 62
     9
100
AcDbPolyline
 90
        2
 70
     0
 39
0.003
 10
0.080669
 20
0.990264
 40
0.003
 41
0.003
 10
0.102476
 20
0.986531
 40
0.003
 41
0.003
  0
LWPOLYLINE
  5
319
100
AcDbEntity
  8
0
 62
     9
100
AcDbPolyline
 90
        2
 70
     0
 39
0.003
 10
0.080669
 20
0.990264
 40
0.003
 41
0.003
 10
0.719295
 20
1.356476
 40
0.003
 41
0.003
  0
LWPOLYLINE
  5
31A
100
AcDbEntity
  8
0
 62
     9
100
AcDbPolyline
 90
        2
 70
     0
 39
0.003
 10
0.719295
 20
1.356476
 40
0.003
 41
0.003
 10
0.697933
 20
1.360791
 40
0.003
 41
0.003
  0
LWPOLYLINE
  5
31B
100
AcDbEntity
  8
0
 62
     9
100
AcDbPolyline
 90
        2
 70
     0
 39
0.003
 10
0.697933
 20
1.360791
 40
0.003
 41
0.003
 10
0.059307
 20
0.994579
 40
0.003
 41
0.003
  0
LWPOLYLINE
  5
31C
100
AcDbEntity
  8
0
 62
     9
100
AcDbPolyline
 90
        2
 70
     0
 39
0.003
 10
0.059307
 20
0.994579
 40
0.003
 41
0.003
 10
0.080669
 20
0.990264
 40
0.003
 41
0.003
  0
LWPOLYLINE
  5
31D
100
AcDbEntity
  8
0
 62
     9
100
AcDbPolyline
 90
        2
 70
     0
 39
0.003
 10
0.059307
 20
0.994579
 40
0.003
 41
0.003
 10
0.697933
 20
1.360791
 40
0.003
 41
0.003
  0
LWPOLYLINE
  5
31E
100
AcDbEntity
  8
0
 62
     9
100
AcDbPolyline
 90
        2
 70
     0
 39
0.003
 10
0.697933
 20
1.360791
 40
0.003
 41
0.003
 10
0.677031
 20
1.365665
 40
0.003
 41
0.003
  0
LWPOLYLINE
  5
31F
100
AcDbEntity
  8
0
 62
     9
100
AcDbPolyline
 90
        2
 70
     0
 39
0.003
 10
0.677031
 20
1.365665
 40
0.003
 41
0.003
 10
0.038406
 20
0.999453
 40
0.003
 41
0.003
  0
LWPOLYLINE
  5
320
100
AcDbEntity
  8
0
 62
     9
100
AcDbPolyline
 90
        2
 70
     0
 39
0.003
 10
0.038406
 20
0.999453
 40
0.003
 41
0.003
 10
0.059307
 20
0.994579
 40
0.003
 41
0.003
  0
LWPOLYLINE
  5
321
100
AcDbEntity
  8
0
 62
     9
100
AcDbPolyline
 90
        2
 70
     0
 39
0.003
 10
0.038406
 20
0.999453
 40
0.003
 41
0.003
 10
0.677031
 20
1.365665
 40
0.003
 41
0.003
  0
LWPOLYLINE
  5
322
100
AcDbEntity
  8
0
 62
     9
100
AcDbPolyline
 90
        2
 70
     0
 39
0.003
 10
0.677031
 20
1.365665
 40
0.003
 41
0.003
 10
0.656626
 20
1.371098
 40
0.003
 41
0.003
  0
LWPOLYLINE
  5
323
100
AcDbEntity
  8
0
 62
     9
100
AcDbPolyline
 90
        2
 70
     0
 39
0.003
 10
0.656626
 20
1.371098
 40
0.003
 41
0.003
 10
0.018
 20
1.004886
 40
0.003
 41
0.003
  0
LWPOLYLINE
  5
324
100
AcDbEntity
  8
0
 62
     9
100
AcDbPolyline
 90
        2
 70
     0
 39
0.003
 10
0.018
 20
1.004886
 40
0.003
 41
0.003
 10
0.038406
 20
0.999453
 40
0.003
 41
0.003
  0
LWPOLYLINE
  5
325
100
AcDbEntity
  8
0
 62
     9
100
AcDbPolyline
 90
        2
 70
     0
 39
0.003
 10
0.018
 20
1.004886
 40
0.003
 41
0.003
 10
0.656626
 20
1.371098
 40
0.003
 41
0.003
  0
LWPOLYLINE
  5
326
100
AcDbEntity
  8
0
 62
     9
100
AcDbPolyline
 90
        2
 70
     0
 39
0.003
 10
0.656626
 20
1.371098
 40
0.003
 41
0.003
 10
0.636728
 20
1.377051
 40
0.003
 41
0.003
  0
LWPOLYLINE
  5
327
100
AcDbEntity
  8
0
 62
     9
100
AcDbPolyline
 90
        2
 70
     0
 39
0.003
 10
0.636728
 20
1.377051
 40
0.003
 41
0.003
 10
-0.001898
 20
1.010839
 40
0.003
 41
0.003
  0
LWPOLYLINE
  5
328
100
AcDbEntity
  8
0
 62
     9
100
AcDbPolyline
 90
        2
 70
     0
 39
0.003
 10
-0.001898
 20
1.010839
 40
0.003
 41
0.003
 10
0.018
 20
1.004886
 40
0.003
 41
0.003
  0
LWPOLYLINE
  5
329
100
AcDbEntity
  8
0
 62
     9
100
AcDbPolyline
 90
        2
 70
     0
 39
0.003
 10
-0.001898
 20
1.010839
 40
0.003
 41
0.003
 10
0.636728
 20
1.377051
 40
0.003
 41
0.003
  0
LWPOLYLINE
  5
32A
100
AcDbEntity
  8
0
 62
     9
100
AcDbPolyline
 90
        2
 70
     0
 39
0.003
 10
0.636728
 20
1.377051
 40
0.003
 41
0.003
 10
0.617382
 20
1.383531
 40
0.003
 41
0.003
  0
LWPOLYLINE
  5
32B
100
AcDbEntity
  8
0
 62
     9
100
AcDbPolyline
 90
        2
 70
     0
 39
0.003
 10
0.617382
 20
1.383531
 40
0.003
 41
0.003
 10
-0.021244
 20
1.017319
 40
0.003
 41
0.003
  0
LWPOLYLINE
  5
32C
100
AcDbEntity
  8
0
 62
     9
100
AcDbPolyline
 90
        2
 70
     0
 39
0.003
 10
-0.021244
 20
1.017319
 40
0.003
 41
0.003
 10
-0.001898
 20
1.010839
 40
0.003
 41
0.003
  0
LWPOLYLINE
  5
32D
100
AcDbEntity
  8
0
 62
     9
100
AcDbPolyline
 90
        2
 70
     0
 39
0.003
 10
-0.021244
 20
1.017319
 40
0.003
 41
0.003
 10
0.617382
 20
1.383531
 40
0.003
 41
0.003
  0
LWPOLYLINE
  5
32E
100
AcDbEntity
  8
0
 62
     9
100
AcDbPolyline
 90
        2
 70
     0
 39
0.003
 10
0.617382
 20
1.383531
 40
0.003
 41
0.003
 10
0.598598
 20
1.390512
 40
0.003
 41
0.003
  0
LWPOLYLINE
  5
32F
100
AcDbEntity
  8
0
 62
     9
100
AcDbPolyline
 90
        2
 70
     0
 39
0.003
 10
0.598598
 20
1.390512
 40
0.003
 41
0.003
 10
-0.040028
 20
1.024299
 40
0.003
 41
0.003
  0
LWPOLYLINE
  5
330
100
AcDbEntity
  8
0
 62
     9
100
AcDbPolyline
 90
        2
 70
     0
 39
0.003
 10
-0.040028
 20
1.024299
 40
0.003
 41
0.003
 10
-0.021244
 20
1.017319
 40
0.003
 41
0.003
  0
LWPOLYLINE
  5
331
100
AcDbEntity
  8
0
 62
     9
100
AcDbPolyline
 90
        2
 70
     0
 39
0.003
 10
-0.040028
 20
1.024299
 40
0.003
 41
0.003
 10
0.598598
 20
1.390512
 40
0.003
 41
0.003
  0
LWPOLYLINE
  5
332
100
AcDbEntity
  8
0
 62
     9
100
AcDbPolyline
 90
        2
 70
     0
 39
0.003
 10
0.598598
 20
1.390512
 40
0.003
 41
0.003
 10
0.580417
 20
1.397988
 40
0.003
 41
0.003
  0
LWPOLYLINE
  5
333
100
AcDbEntity
  8
0
 62
     9
100
AcDbPolyline
 90
        2
 70
     0
 39
0.003
 10
0.580417
 20
1.397988
 40
0.003
 41
0.003
 10
-0.058209
 20
1.031776
 40
0.003
 41
0.003
  0
LWPOLYLINE
  5
334
100
AcDbEntity
  8
0
 62
     9
100
AcDbPolyline
 90
        2
 70
     0
 39
0.003
 10
-0.058209
 20
1.031776
 40
0.003
 41
0.003
 10
-0.040028
 20
1.024299
 40
0.003
 41
0.003
  0
LWPOLYLINE
  5
335
100
AcDbEntity
  8
0
 62
     9
100
AcDbPolyline
 90
        2
 70
     0
 39
0.003
 10
-0.058209
 20
1.031776
 40
0.003
 41
0.003
 10
0.580417
 20
1.397988
 40
0.003
 41
0.003
  0
LWPOLYLINE
  5
336
100
AcDbEntity
  8
0
 62
     9
100
AcDbPolyline
 90
        2
 70
     0
 39
0.003
 10
0.580417
 20
1.397988
 40
0.003
 41
0.003
 10
0.56285
 20
1.405933
 40
0.003
 41
0.003
  0
LWPOLYLINE
  5
337
100
AcDbEntity
  8
0
 62
     9
100
AcDbPolyline
 90
        2
 70
     0
 39
0.003
 10
0.56285
 20
1.405933
 40
0.003
 41
0.003
 10
-0.075776
 20
1.03972
 40
0.003
 41
0.003
  0
LWPOLYLINE
  5
338
100
AcDbEntity
  8
0
 62
     9
100
AcDbPolyline
 90
        2
 70
     0
 39
0.003
 10
-0.075776
 20
1.03972
 40
0.003
 41
0.003
 10
-0.058209
 20
1.031776
 40
0.003
 41
0.003
  0
LWPOLYLINE
  5
339
100
AcDbEntity
  8
0
 62
     9
100
AcDbPolyline
 90
        2
 70
     0
 39
0.003
 10
-0.075776
 20
1.03972
 40
0.003
 41
0.003
 10
0.56285
 20
1.405933
 40
0.003
 41
0.003
  0
LWPOLYLINE
  5
33A
100
AcDbEntity
  8
0
 62
     9
100
AcDbPolyline
 90
        2
 70
     0
 39
0.003
 10
0.56285
 20
1.405933
 40
0.003
 41
0.003
 10
0.545933
 20
1.414343
 40
0.003
 41
0.003
  0
LWPOLYLINE
  5
33B
100
AcDbEntity
  8
0
 62
     9
100
AcDbPolyline
 90
        2
 70
     0
 39
0.003
 10
0.545933
 20
1.414343
 40
0.003
 41
0.003
 10
-0.092693
 20
1.04813
 40
0.003
 41
0.003
  0
LWPOLYLINE
  5
33C
100
AcDbEntity
  8
0
 62
     9
100
AcDbPolyline
 90
        2
 70
     0
 39
0.003
 10
-0.092693
 20
1.04813
 40
0.003
 41
0.003
 10
-0.075776
 20
1.03972
 40
0.003
 41
0.003
  0
LWPOLYLINE
  5
33D
100
AcDbEntity
  8
0
 62
   254
100
AcDbPolyline
 90
        2
 70
     0
 39
0.003
 10
-0.092693
 20
1.04813
 40
0.003
 41
0.003
 10
0.545933
 20
1.414343
 40
0.003
 41
0.003
  0
LWPOLYLINE
  5
33E
100
AcDbEntity
  8
0
 62
   254
100
AcDbPolyline
 90
        2
 70
     0
 39
0.003
 10
0.545933
 20
1.414343
 40
0.003
 41
0.003
 10
0.529689
 20
1.423201
 40
0.003
 41
0.003
  0
LWPOLYLINE
  5
33F
100
AcDbEntity
  8
0
 62
   254
100
AcDbPolyline
 90
        2
 70
     0
 39
0.003
 10
0.529689
 20
1.423201
 40
0.003
 41
0.003
 10
-0.108937
 20
1.056988
 40
0.003
 41
0.003
  0
LWPOLYLINE
  5
340
100
AcDbEntity
  8
0
 62
   254
100
AcDbPolyline
 90
        2
 70
     0
 39
0.003
 10
-0.108937
 20
1.056988
 40
0.003
 41
0.003
 10
-0.092693
 20
1.04813
 40
0.003
 41
0.003
  0
LWPOLYLINE
  5
341
100
AcDbEntity
  8
0
 62
   254
100
AcDbPolyline
 90
        2
 70
     0
 39
0.003
 10
-0.108937
 20
1.056988
 40
0.003
 41
0.003
 10
0.529689
 20
1.423201
 40
0.003
 41
0.003
  0
LWPOLYLINE
  5
342
100
AcDbEntity
  8
0
 62
   254
100
AcDbPolyline
 90
        2
 70
     0
 39
0.003
 10
0.529689
 20
1.423201
 40
0.003
 41
0.003
 10
0.51415
 20
1.432496
 40
0.003
 41
0.003
  0
LWPOLYLINE
  5
343
100
AcDbEntity
  8
0
 62
   254
100
AcDbPolyline
 90
        2
 70
     0
 39
0.003
 10
0.51415
 20
1.432496
 40
0.003
 41
0.003
 10
-0.124476
 20
1.066283
 40
0.003
 41
0.003
  0
LWPOLYLINE
  5
344
100
AcDbEntity
  8
0
 62
   254
100
AcDbPolyline
 90
        2
 70
     0
 39
0.003
 10
-0.124476
 20
1.066283
 40
0.003
 41
0.003
 10
-0.108937
 20
1.056988
 40
0.003
 41
0.003
  0
LWPOLYLINE
  5
345
100
AcDbEntity
  8
0
 62
   254
100
AcDbPolyline
 90
        2
 70
     0
 39
0.003
 10
-0.124476
 20
1.066283
 40
0.003
 41
0.003
 10
0.51415
 20
1.432496
 40
0.003
 41
0.003
  0
LWPOLYLINE
  5
346
100
AcDbEntity
  8
0
 62
   254
100
AcDbPolyline
 90
        2
 70
     0
 39
0.003
 10
0.51415
 20
1.432496
 40
0.003
 41
0.003
 10
0.499323
 20
1.442197
 40
0.003
 41
0.003
  0
LWPOLYLINE
  5
347
100
AcDbEntity
  8
0
 62
   254
100
AcDbPolyline
 90
        2
 70
     0
 39
0.003
 10
0.499323
 20
1.442197
 40
0.003
 41
0.003
 10
-0.139303
 20
1.075984
 40
0.003
 41
0.003
  0
LWPOLYLINE
  5
348
100
AcDbEntity
  8
0
 62
   254
100
AcDbPolyline
 90
        2
 70
     0
 39
0.003
 10
-0.139303
 20
1.075984
 40
0.003
 41
0.003
 10
-0.124476
 20
1.066283
 40
0.003
 41
0.003
  0
LWPOLYLINE
  5
349
100
AcDbEntity
  8
0
 62
   254
100
AcDbPolyline
 90
        2
 70
     0
 39
0.003
 10
-0.139303
 20
1.075984
 40
0.003
 41
0.003
 10
0.499323
 20
1.442197
 40
0.003
 41
0.003
  0
LWPOLYLINE
  5
34A
100
AcDbEntity
  8
0
 62
   254
100
AcDbPolyline
 90
        2
 70
     0
 39
0.003
 10
0.499323
 20
1.442197
 40
0.003
 41
0.003
 10
0.48526
 20
1.452307
 40
0.003
 41
0.003
  0
LWPOLYLINE
  5
34B
100
AcDbEntity
  8
0
 62
   254
100
AcDbPolyline
 90
        2
 70
     0
 39
0.003
 10
0.48526
 20
1.452307
 40
0.003
 41
0.003
 10
-0.153366
 20
1.086094
 40
0.003
 41
0.003
  0
LWPOLYLINE
  5
34C
100
AcDbEntity
  8
0
 62
   254
100
AcDbPolyline
 90
        2
 70
     0
 39
0.003
 10
-0.153366
 20
1.086094
 40
0.003
 41
0.003
 10
-0.139303
 20
1.075984
 40
0.003
 41
0.003
  0
LWPOLYLINE
  5
34D
100
AcDbEntity
  8
0
 62
   254
100
AcDbPolyline
 90
        2
 70
     0
 39
0.003
 10
-0.153366
 20
1.086094
 40
0.003
 41
0.003
 10
0.48526
 20
1.452307
 40
0.003
 41
0.003
  0
LWPOLYLINE
  5
34E
100
AcDbEntity
  8
0
 62
   254
100
AcDbPolyline
 90
        2
 70
     0
 39
0.003
 10
0.48526
 20
1.452307
 40
0.003
 41
0.003
 10
0.471965
 20
1.462803
 40
0.003
 41
0.003
  0
LWPOLYLINE
  5
34F
100
AcDbEntity
  8
0
 62
   254
100
AcDbPolyline
 90
        2
 70
     0
 39
0.003
 10
0.471965
 20
1.462803
 40
0.003
 41
0.003
 10
-0.166661
 20
1.096591
 40
0.003
 41
0.003
  0
LWPOLYLINE
  5
350
100
AcDbEntity
  8
0
 62
   254
100
AcDbPolyline
 90
        2
 70
     0
 39
0.003
 10
-0.166661
 20
1.096591
 40
0.003
 41
0.003
 10
-0.153366
 20
1.086094
 40
0.003
 41
0.003
  0
LWPOLYLINE
  5
351
100
AcDbEntity
  8
0
 62
   254
100
AcDbPolyline
 90
        2
 70
     0
 39
0.003
 10
-0.166661
 20
1.096591
 40
0.003
 41
0.003
 10
0.471965
 20
1.462803
 40
0.003
 41
0.003
  0
LWPOLYLINE
  5
352
100
AcDbEntity
  8
0
 62
   254
100
AcDbPolyline
 90
        2
 70
     0
 39
0.003
 10
0.471965
 20
1.462803
 40
0.003
 41
0.003
 10
0.459484
 20
1.473677
 40
0.003
 41
0.003
  0
LWPOLYLINE
  5
353
100
AcDbEntity
  8
0
 62
   254
100
AcDbPolyline
 90
        2
 70
     0
 39
0.003
 10
0.459484
 20
1.473677
 40
0.003
 41
0.003
 10
-0.179142
 20
1.107465
 40
0.003
 41
0.003
  0
LWPOLYLINE
  5
354
100
AcDbEntity
  8
0
 62
   254
100
AcDbPolyline
 90
        2
 70
     0
 39
0.003
 10
-0.179142
 20
1.107465
 40
0.003
 41
0.003
 10
-0.166661
 20
1.096591
 40
0.003
 41
0.003
  0
LWPOLYLINE
  5
355
100
AcDbEntity
  8
0
 62
   254
100
AcDbPolyline
 90
        2
 70
     0
 39
0.003
 10
-0.179142
 20
1.107465
 40
0.003
 41
0.003
 10
0.459484
 20
1.473677
 40
0.003
 41
0.003
  0
LWPOLYLINE
  5
356
100
AcDbEntity
  8
0
 62
   254
100
AcDbPolyline
 90
        2
 70
     0
 39
0.003
 10
0.459484
 20
1.473677
 40
0.003
 41
0.003
 10
0.447823
 20
1.484906
 40
0.003
 41
0.003
  0
LWPOLYLINE
  5
357
100
AcDbEntity
  8
0
 62
   254
100
AcDbPolyline
 90
        2
 70
     0
 39
0.003
 10
0.447823
 20
1.484906
 40
0.003
 41
0.003
 10
-0.190803
 20
1.118693
 40
0.003
 41
0.003
  0
LWPOLYLINE
  5
358
100
AcDbEntity
  8
0
 62
   254
100
AcDbPolyline
 90
        2
 70
     0
 39
0.003
 10
-0.190803
 20
1.118693
 40
0.003
 41
0.003
 10
-0.179142
 20
1.107465
 40
0.003
 41
0.003
  0
LWPOLYLINE
  5
359
100
AcDbEntity
  8
0
 62
   254
100
AcDbPolyline
 90
        2
 70
     0
 39
0.003
 10
-0.190803
 20
1.118693
 40
0.003
 41
0.003
 10
0.447823
 20
1.484906
 40
0.003
 41
0.003
  0
LWPOLYLINE
  5
35A
100
AcDbEntity
  8
0
 62
   254
100
AcDbPolyline
 90
        2
 70
     0
 39
0.003
 10
0.447823
 20
1.484906
 40
0.003
 41
0.003
 10
0.437024
 20
1.49648
 40
0.003
 41
0.003
  0
LWPOLYLINE
  5
35B
100
AcDbEntity
  8
0
 62
   254
100
AcDbPolyline
 90
        2
 70
     0
 39
0.003
 10
0.437024
 20
1.49648
 40
0.003
 41
0.003
 10
-0.201602
 20
1.130268
 40
0.003
 41
0.003
  0
LWPOLYLINE
  5
35C
100
AcDbEntity
  8
0
 62
   254
100
AcDbPolyline
 90
        2
 70
     0
 39
0.003
 10
-0.201602
 20
1.130268
 40
0.003
 41
0.003
 10
-0.190803
 20
1.118693
 40
0.003
 41
0.003
  0
LWPOLYLINE
  5
35D
100
AcDbEntity
  8
0
 62
   254
100
AcDbPolyline
 90
        2
 70
     0
 39
0.003
 10
-0.201602
 20
1.130268
 40
0.003
 41
0.003
 10
0.437024
 20
1.49648
 40
0.003
 41
0.003
  0
LWPOLYLINE
  5
35E
100
AcDbEntity
  8
0
 62
   254
100
AcDbPolyline
 90
        2
 70
     0
 39
0.003
 10
0.437024
 20
1.49648
 40
0.003
 41
0.003
 10
0.427102
 20
1.508386
 40
0.003
 41
0.003
  0
LWPOLYLINE
  5
35F
100
AcDbEntity
  8
0
 62
   254
100
AcDbPolyline
 90
        2
 70
     0
 39
0.003
 10
0.427102
 20
1.508386
 40
0.003
 41
0.003
 10
-0.211524
 20
1.142173
 40
0.003
 41
0.003
  0
LWPOLYLINE
  5
360
100
AcDbEntity
  8
0
 62
   254
100
AcDbPolyline
 90
        2
 70
     0
 39
0.003
 10
-0.211524
 20
1.142173
 40
0.003
 41
0.003
 10
-0.201602
 20
1.130268
 40
0.003
 41
0.003
  0
LWPOLYLINE
  5
361
100
AcDbEntity
  8
0
 62
   254
100
AcDbPolyline
 90
        2
 70
     0
 39
0.003
 10
-0.211524
 20
1.142173
 40
0.003
 41
0.003
 10
0.427102
 20
1.508386
 40
0.003
 41
0.003
  0
LWPOLYLINE
  5
362
100
AcDbEntity
  8
0
 62
   254
100
AcDbPolyline
 90
        2
 70
     0
 39
0.003
 10
0.427102
 20
1.508386
 40
0.003
 41
0.003
 10
0.418094
 20
1.520614
 40
0.003
 41
0.003
  0
LWPOLYLINE
  5
363
100
AcDbEntity
  8
0
 62
   254
100
AcDbPolyline
 90
        2
 70
     0
 39
0.003
 10
0.418094
 20
1.520614
 40
0.003
 41
0.003
 10
-0.220531
 20
1.154402
 40
0.003
 41
0.003
  0
LWPOLYLINE
  5
364
100
AcDbEntity
  8
0
 62
   254
100
AcDbPolyline
 90
        2
 70
     0
 39
0.003
 10
-0.220531
 20
1.154402
 40
0.003
 41
0.003
 10
-0.211524
 20
1.142173
 40
0.003
 41
0.003
  0
LWPOLYLINE
  5
365
100
AcDbEntity
  8
0
 62
   254
100
AcDbPolyline
 90
        2
 70
     0
 39
0.003
 10
-0.220531
 20
1.154402
 40
0.003
 41
0.003
 10
0.418094
 20
1.520614
 40
0.003
 41
0.003
  0
LWPOLYLINE
  5
366
100
AcDbEntity
  8
0
 62
   254
100
AcDbPolyline
 90
        2
 70
     0
 39
0.003
 10
0.418094
 20
1.520614
 40
0.003
 41
0.003
 10
0.410012
 20
1.53313
 40
0.003
 41
0.003
  0
LWPOLYLINE
  5
367
100
AcDbEntity
  8
0
 62
   254
100
AcDbPolyline
 90
        2
 70
     0
 39
0.003
 10
0.410012
 20
1.53313
 40
0.003
 41
0.003
 10
-0.228614
 20
1.166917
 40
0.003
 41
0.003
  0
LWPOLYLINE
  5
368
100
AcDbEntity
  8
0
 62
   254
100
AcDbPolyline
 90
        2
 70
     0
 39
0.003
 10
-0.228614
 20
1.166917
 40
0.003
 41
0.003
 10
-0.220531
 20
1.154402
 40
0.003
 41
0.003
  0
LWPOLYLINE
  5
369
100
AcDbEntity
  8
0
 62
   254
100
AcDbPolyline
 90
        2
 70
     0
 39
0.003
 10
-0.228614
 20
1.166917
 40
0.003
 41
0.003
 10
0.410012
 20
1.53313
 40
0.003
 41
0.003
  0
LWPOLYLINE
  5
36A
100
AcDbEntity
  8
0
 62
   254
100
AcDbPolyline
 90
        2
 70
     0
 39
0.003
 10
0.410012
 20
1.53313
 40
0.003
 41
0.003
 10
0.402894
 20
1.545945
 40
0.003
 41
0.003
  0
LWPOLYLINE
  5
36B
100
AcDbEntity
  8
0
 62
   254
100
AcDbPolyline
 90
        2
 70
     0
 39
0.003
 10
0.402894
 20
1.545945
 40
0.003
 41
0.003
 10
-0.235732
 20
1.179732
 40
0.003
 41
0.003
  0
LWPOLYLINE
  5
36C
100
AcDbEntity
  8
0
 62
   254
100
AcDbPolyline
 90
        2
 70
     0
 39
0.003
 10
-0.235732
 20
1.179732
 40
0.003
 41
0.003
 10
-0.228614
 20
1.166917
 40
0.003
 41
0.003
  0
LWPOLYLINE
  5
36D
100
AcDbEntity
  8
0
 62
   254
100
AcDbPolyline
 90
        2
 70
     0
 39
0.003
 10
-0.235732
 20
1.179732
 40
0.003
 41
0.003
 10
0.402894
 20
1.545945
 40
0.003
 41
0.003
  0
LWPOLYLINE
  5
36E
100
AcDbEntity
  8
0
 62
   254
100
AcDbPolyline
 90
        2
 70
     0
 39
0.003
 10
0.402894
 20
1.545945
 40
0.003
 41
0.003
 10
0.39676
 20
1.559028
 40
0.003
 41
0.003
  0
LWPOLYLINE
  5
36F
100
AcDbEntity
  8
0
 62
   254
100
AcDbPolyline
 90
        2
 70
     0
 39
0.003
 10
0.39676
 20
1.559028
 40
0.003
 41
0.003
 10
-0.241866
 20
1.192815
 40
0.003
 41
0.003
  0
LWPOLYLINE
  5
370
100
AcDbEntity
  8
0
 62
   254
100
AcDbPolyline
 90
        2
 70
     0
 39
0.003
 10
-0.241866
 20
1.192815
 40
0.003
 41
0.003
 10
-0.235732
 20
1.179732
 40
0.003
 41
0.003
  0
LWPOLYLINE
  5
371
100
AcDbEntity
  8
0
 62
   254
100
AcDbPolyline
 90
        2
 70
     0
 39
0.003
 10
-0.241866
 20
1.192815
 40
0.003
 41
0.003
 10
0.39676
 20
1.559028
 40
0.003
 41
0.003
  0
LWPOLYLINE
  5
372
100
AcDbEntity
  8
0
 62
   254
100
AcDbPolyline
 90
        2
 70
     0
 39
0.003
 10
0.39676
 20
1.559028
 40
0.003
 41
0.003
 10
0.391646
 20
1.57237
 40
0.003
 41
0.003
  0
LWPOLYLINE
  5
373
100
AcDbEntity
  8
0
 62
   254
100
AcDbPolyline
 90
        2
 70
     0
 39
0.003
 10
0.391646
 20
1.57237
 40
0.003
 41
0.003
 10
-0.24698
 20
1.206157
 40
0.003
 41
0.003
  0
LWPOLYLINE
  5
374
100
AcDbEntity
  8
0
 62
   254
100
AcDbPolyline
 90
        2
 70
     0
 39
0.003
 10
-0.24698
 20
1.206157
 40
0.003
 41
0.003
 10
-0.241866
 20
1.192815
 40
0.003
 41
0.003
  0
LWPOLYLINE
  5
375
100
AcDbEntity
  8
0
 62
   254
100
AcDbPolyline
 90
        2
 70
     0
 39
0.003
 10
-0.24698
 20
1.206157
 40
0.003
 41
0.003
 10
0.391646
 20
1.57237
 40
0.003
 41
0.003
  0
LWPOLYLINE
  5
376
100
AcDbEntity
  8
0
 62
   254
100
AcDbPolyline
 90
        2
 70
     0
 39
0.003
 10
0.391646
 20
1.57237
 40
0.003
 41
0.003
 10
0.387559
 20
1.585949
 40
0.003
 41
0.003
  0
LWPOLYLINE
  5
377
100
AcDbEntity
  8
0
 62
   254
100
AcDbPolyline
 90
        2
 70
     0
 39
0.003
 10
0.387559
 20
1.585949
 40
0.003
 41
0.003
 10
-0.251067
 20
1.219736
 40
0.003
 41
0.003
  0
LWPOLYLINE
  5
378
100
AcDbEntity
  8
0
 62
   254
100
AcDbPolyline
 90
        2
 70
     0
 39
0.003
 10
-0.251067
 20
1.219736
 40
0.003
 41
0.003
 10
-0.24698
 20
1.206157
 40
0.003
 41
0.003
  0
LWPOLYLINE
  5
379
100
AcDbEntity
  8
0
 62
   254
100
AcDbPolyline
 90
        2
 70
     0
 39
0.003
 10
-0.251067
 20
1.219736
 40
0.003
 41
0.003
 10
0.387559
 20
1.585949
 40
0.003
 41
0.003
  0
LWPOLYLINE
  5
37A
100
AcDbEntity
  8
0
 62
   254
100
AcDbPolyline
 90
        2
 70
     0
 39
0.003
 10
0.387559
 20
1.585949
 40
0.003
 41
0.003
 10
0.384539
 20
1.599764
 40
0.003
 41
0.003
  0
LWPOLYLINE
  5
37B
100
AcDbEntity
  8
0
 62
   254
100
AcDbPolyline
 90
        2
 70
     0
 39
0.003
 10
0.384539
 20
1.599764
 40
0.003
 41
0.003
 10
-0.254087
 20
1.233551
 40
0.003
 41
0.003
  0
LWPOLYLINE
  5
37C
100
AcDbEntity
  8
0
 62
   254
100
AcDbPolyline
 90
        2
 70
     0
 39
0.003
 10
-0.254087
 20
1.233551
 40
0.003
 41
0.003
 10
-0.251067
 20
1.219736
 40
0.003
 41
0.003
  0
LWPOLYLINE
  5
37D
100
AcDbEntity
  8
0
 62
   254
100
AcDbPolyline
 90
        2
 70
     0
 39
0.003
 10
-0.254087
 20
1.233551
 40
0.003
 41
0.003
 10
0.384539
 20
1.599764
 40
0.003
 41
0.003
  0
LWPOLYLINE
  5
37E
100
AcDbEntity
  8
0
 62
   254
100
AcDbPolyline
 90
        2
 70
     0
 39
0.003
 10
0.384539
 20
1.599764
 40
0.003
 41
0.003
 10
0.38261
 20
1.613791
 40
0.003
 41
0.003
  0
LWPOLYLINE
  5
37F
100
AcDbEntity
  8
0
 62
   254
100
AcDbPolyline
 90
        2
 70
     0
 39
0.003
 10
0.38261
 20
1.613791
 40
0.003
 41
0.003
 10
-0.256016
 20
1.247579
 40
0.003
 41
0.003
  0
LWPOLYLINE
  5
380
100
AcDbEntity
  8
0
 62
   254
100
AcDbPolyline
 90
        2
 70
     0
 39
0.003
 10
-0.256016
 20
1.247579
 40
0.003
 41
0.003
 10
-0.254087
 20
1.233551
 40
0.003
 41
0.003
  0
LWPOLYLINE
  5
381
100
AcDbEntity
  8
0
 62
   254
100
AcDbPolyline
 90
        2
 70
     0
 39
0.003
 10
-0.256016
 20
1.247579
 40
0.003
 41
0.003
 10
0.38261
 20
1.613791
 40
0.003
 41
0.003
  0
LWPOLYLINE
  5
382
100
AcDbEntity
  8
0
 62
   254
100
AcDbPolyline
 90
        2
 70
     0
 39
0.003
 10
0.38261
 20
1.613791
 40
0.003
 41
0.003
 10
0.381803
 20
1.628024
 40
0.003
 41
0.003
  0
LWPOLYLINE
  5
383
100
AcDbEntity
  8
0
 62
   254
100
AcDbPolyline
 90
        2
 70
     0
 39
0.003
 10
0.381803
 20
1.628024
 40
0.003
 41
0.003
 10
-0.256823
 20
1.261811
 40
0.003
 41
0.003
  0
LWPOLYLINE
  5
384
100
AcDbEntity
  8
0
 62
   254
100
AcDbPolyline
 90
        2
 70
     0
 39
0.003
 10
-0.256823
 20
1.261811
 40
0.003
 41
0.003
 10
-0.256016
 20
1.247579
 40
0.003
 41
0.003
  0
LWPOLYLINE
  5
385
100
AcDbEntity
  8
0
 62
     0
100
AcDbPolyline
 90
        2
 70
     0
 39
0.003
 10
0.193567
 20
0.874634
 40
0.003
 41
0.003
 10
0.832193
 20
1.240846
 40
0.003
 41
0.003
  0
LWPOLYLINE
  5
386
100
AcDbEntity
  8
0
 62
     0
100
AcDbPolyline
 90
        2
 70
     0
 39
0.003
 10
0.832193
 20
1.240846
 40
0.003
 41
0.003
 10
0.832193
 20
1.34387
 40
0.003
 41
0.003
  0
LWPOLYLINE
  5
387
100
AcDbEntity
  8
0
 62
     0
100
AcDbPolyline
 90
        2
 70
     0
 39
0.003
 10
0.832193
 20
1.34387
 40
0.003
 41
0.003
 10
0.80889
 20
1.345146
 40
0.003
 41
0.003
  0
LWPOLYLINE
  5
388
100
AcDbEntity
  8
0
 62
     0
100
AcDbPolyline
 90
        2
 70
     0
 39
0.003
 10
0.80889
 20
1.345146
 40
0.003
 41
0.003
 10
0.785925
 20
1.347063
 40
0.003
 41
0.003
  0
LWPOLYLINE
  5
389
100
AcDbEntity
  8
0
 62
     0
100
AcDbPolyline
 90
        2
 70
     0
 39
0.003
 10
0.785925
 20
1.347063
 40
0.003
 41
0.003
 10
0.763319
 20
1.349594
 40
0.003
 41
0.003
  0
LWPOLYLINE
  5
38A
100
AcDbEntity
  8
0
 62
     0
100
AcDbPolyline
 90
        2
 70
     0
 39
0.003
 10
0.763319
 20
1.349594
 40
0.003
 41
0.003
 10
0.741102
 20
1.352744
 40
0.003
 41
0.003
  0
LWPOLYLINE
  5
38B
100
AcDbEntity
  8
0
 62
     0
100
AcDbPolyline
 90
        2
 70
     0
 39
0.003
 10
0.741102
 20
1.352744
 40
0.003
 41
0.003
 10
0.719295
 20
1.356476
 40
0.003
 41
0.003
  0
LWPOLYLINE
  5
38C
100
AcDbEntity
  8
0
 62
     0
100
AcDbPolyline
 90
        2
 70
     0
 39
0.003
 10
0.719295
 20
1.356476
 40
0.003
 41
0.003
 10
0.697933
 20
1.360791
 40
0.003
 41
0.003
  0
LWPOLYLINE
  5
38D
100
AcDbEntity
  8
0
 62
     0
100
AcDbPolyline
 90
        2
 70
     0
 39
0.003
 10
0.697933
 20
1.360791
 40
0.003
 41
0.003
 10
0.677031
 20
1.365665
 40
0.003
 41
0.003
  0
LWPOLYLINE
  5
38E
100
AcDbEntity
  8
0
 62
     0
100
AcDbPolyline
 90
        2
 70
     0
 39
0.003
 10
0.677031
 20
1.365665
 40
0.003
 41
0.003
 10
0.656626
 20
1.371098
 40
0.003
 41
0.003
  0
LWPOLYLINE
  5
38F
100
AcDbEntity
  8
0
 62
     0
100
AcDbPolyline
 90
        2
 70
     0
 39
0.003
 10
0.656626
 20
1.371098
 40
0.003
 41
0.003
 10
0.636728
 20
1.377051
 40
0.003
 41
0.003
  0
LWPOLYLINE
  5
390
100
AcDbEntity
  8
0
 62
     0
100
AcDbPolyline
 90
        2
 70
     0
 39
0.003
 10
0.636728
 20
1.377051
 40
0.003
 41
0.003
 10
0.617382
 20
1.383531
 40
0.003
 41
0.003
  0
LWPOLYLINE
  5
391
100
AcDbEntity
  8
0
 62
     0
100
AcDbPolyline
 90
        2
 70
     0
 39
0.003
 10
0.617382
 20
1.383531
 40
0.003
 41
0.003
 10
0.598598
 20
1.390512
 40
0.003
 41
0.003
  0
LWPOLYLINE
  5
392
100
AcDbEntity
  8
0
 62
     0
100
AcDbPolyline
 90
        2
 70
     0
 39
0.003
 10
0.598598
 20
1.390512
 40
0.003
 41
0.003
 10
0.580417
 20
1.397988
 40
0.003
 41
0.003
  0
LWPOLYLINE
  5
393
100
AcDbEntity
  8
0
 62
     0
100
AcDbPolyline
 90
        2
 70
     0
 39
0.003
 10
0.580417
 20
1.397988
 40
0.003
 41
0.003
 10
0.56285
 20
1.405933
 40
0.003
 41
0.003
  0
LWPOLYLINE
  5
394
100
AcDbEntity
  8
0
 62
     0
100
AcDbPolyline
 90
        2
 70
     0
 39
0.003
 10
0.56285
 20
1.405933
 40
0.003
 41
0.003
 10
0.545933
 20
1.414343
 40
0.003
 41
0.003
  0
LWPOLYLINE
  5
395
100
AcDbEntity
  8
0
 62
     0
100
AcDbPolyline
 90
        2
 70
     0
 39
0.003
 10
0.545933
 20
1.414343
 40
0.003
 41
0.003
 10
0.529689
 20
1.423201
 40
0.003
 41
0.003
  0
LWPOLYLINE
  5
396
100
AcDbEntity
  8
0
 62
     0
100
AcDbPolyline
 90
        2
 70
     0
 39
0.003
 10
0.529689
 20
1.423201
 40
0.003
 41
0.003
 10
0.51415
 20
1.432496
 40
0.003
 41
0.003
  0
LWPOLYLINE
  5
397
100
AcDbEntity
  8
0
 62
     0
100
AcDbPolyline
 90
        2
 70
     0
 39
0.003
 10
0.51415
 20
1.432496
 40
0.003
 41
0.003
 10
0.499323
 20
1.442197
 40
0.003
 41
0.003
  0
LWPOLYLINE
  5
398
100
AcDbEntity
  8
0
 62
     0
100
AcDbPolyline
 90
        2
 70
     0
 39
0.003
 10
0.499323
 20
1.442197
 40
0.003
 41
0.003
 10
0.48526
 20
1.452307
 40
0.003
 41
0.003
  0
LWPOLYLINE
  5
399
100
AcDbEntity
  8
0
 62
     0
100
AcDbPolyline
 90
        2
 70
     0
 39
0.003
 10
0.48526
 20
1.452307
 40
0.003
 41
0.003
 10
0.471965
 20
1.462803
 40
0.003
 41
0.003
  0
LWPOLYLINE
  5
39A
100
AcDbEntity
  8
0
 62
     0
100
AcDbPolyline
 90
        2
 70
     0
 39
0.003
 10
0.471965
 20
1.462803
 40
0.003
 41
0.003
 10
0.459484
 20
1.473677
 40
0.003
 41
0.003
  0
LWPOLYLINE
  5
39B
100
AcDbEntity
  8
0
 62
     0
100
AcDbPolyline
 90
        2
 70
     0
 39
0.003
 10
0.459484
 20
1.473677
 40
0.003
 41
0.003
 10
0.447823
 20
1.484906
 40
0.003
 41
0.003
  0
LWPOLYLINE
  5
39C
100
AcDbEntity
  8
0
 62
     0
100
AcDbPolyline
 90
        2
 70
     0
 39
0.003
 10
0.447823
 20
1.484906
 40
0.003
 41
0.003
 10
0.437024
 20
1.49648
 40
0.003
 41
0.003
  0
LWPOLYLINE
  5
39D
100
AcDbEntity
  8
0
 62
     0
100
AcDbPolyline
 90
        2
 70
     0
 39
0.003
 10
0.437024
 20
1.49648
 40
0.003
 41
0.003
 10
0.427102
 20
1.508386
 40
0.003
 41
0.003
  0
LWPOLYLINE
  5
39E
100
AcDbEntity
  8
0
 62
     0
100
AcDbPolyline
 90
        2
 70
     0
 39
0.003
 10
0.427102
 20
1.508386
 40
0.003
 41
0.003
 10
0.418094
 20
1.520614
 40
0.003
 41
0.003
  0
LWPOLYLINE
  5
39F
100
AcDbEntity
  8
0
 62
     0
100
AcDbPolyline
 90
        2
 70
     0
 39
0.003
 10
0.418094
 20
1.520614
 40
0.003
 41
0.003
 10
0.410012
 20
1.53313
 40
0.003
 41
0.003
  0
LWPOLYLINE
  5
3A0
100
AcDbEntity
  8
0
 62
     0
100
AcDbPolyline
 90
        2
 70
     0
 39
0.003
 10
0.410012
 20
1.53313
 40
0.003
 41
0.003
 10
0.402894
 20
1.545945
 40
0.003
 41
0.003
  0
LWPOLYLINE
  5
3A1
100
AcDbEntity
  8
0
 62
     0
100
AcDbPolyline
 90
        2
 70
     0
 39
0.003
 10
0.402894
 20
1.545945
 40
0.003
 41
0.003
 10
0.39676
 20
1.559028
 40
0.003
 41
0.003
  0
LWPOLYLINE
  5
3A2
100
AcDbEntity
  8
0
 62
     0
100
AcDbPolyline
 90
        2
 70
     0
 39
0.003
 10
0.39676
 20
1.559028
 40
0.003
 41
0.003
 10
0.391646
 20
1.57237
 40
0.003
 41
0.003
  0
LWPOLYLINE
  5
3A3
100
AcDbEntity
  8
0
 62
     0
100
AcDbPolyline
 90
        2
 70
     0
 39
0.003
 10
0.391646
 20
1.57237
 40
0.003
 41
0.003
 10
0.387559
 20
1.585949
 40
0.003
 41
0.003
  0
LWPOLYLINE
  5
3A4
100
AcDbEntity
  8
0
 62
     0
100
AcDbPolyline
 90
        2
 70
     0
 39
0.003
 10
0.387559
 20
1.585949
 40
0.003
 41
0.003
 10
0.384539
 20
1.599764
 40
0.003
 41
0.003
  0
LWPOLYLINE
  5
3A5
100
AcDbEntity
  8
0
 62
     0
100
AcDbPolyline
 90
        2
 70
     0
 39
0.003
 10
0.384539
 20
1.599764
 40
0.003
 41
0.003
 10
0.38261
 20
1.613791
 40
0.003
 41
0.003
  0
LWPOLYLINE
  5
3A6
100
AcDbEntity
  8
0
 62
     0
100
AcDbPolyline
 90
        2
 70
     0
 39
0.003
 10
0.38261
 20
1.613791
 40
0.003
 41
0.003
 10
0.381803
 20
1.628024
 40
0.003
 41
0.003
  0
LWPOLYLINE
  5
3A7
100
AcDbEntity
  8
0
 62
     0
100
AcDbPolyline
 90
        2
 70
     0
 39
0.003
 10
0.381803
 20
1.628024
 40
0.003
 41
0.003
 10
-0.256823
 20
1.261811
 40
0.003
 41
0.003
  0
LWPOLYLINE
  5
3A8
100
AcDbEntity
  8
0
 62
     0
100
AcDbPolyline
 90
        2
 70
     0
 39
0.003
 10
-0.256823
 20
1.261811
 40
0.003
 41
0.003
 10
-0.256016
 20
1.247579
 40
0.003
 41
0.003
  0
LWPOLYLINE
  5
3A9
100
AcDbEntity
  8
0
 62
     0
100
AcDbPolyline
 90
        2
 70
     0
 39
0.003
 10
-0.256016
 20
1.247579
 40
0.003
 41
0.003
 10
-0.254087
 20
1.233551
 40
0.003
 41
0.003
  0
LWPOLYLINE
  5
3AA
100
AcDbEntity
  8
0
 62
     0
100
AcDbPolyline
 90
        2
 70
     0
 39
0.003
 10
-0.254087
 20
1.233551
 40
0.003
 41
0.003
 10
-0.251067
 20
1.219736
 40
0.003
 41
0.003
  0
LWPOLYLINE
  5
3AB
100
AcDbEntity
  8
0
 62
     0
100
AcDbPolyline
 90
        2
 70
     0
 39
0.003
 10
-0.251067
 20
1.219736
 40
0.003
 41
0.003
 10
-0.24698
 20
1.206157
 40
0.003
 41
0.003
  0
LWPOLYLINE
  5
3AC
100
AcDbEntity
  8
0
 62
     0
100
AcDbPolyline
 90
        2
 70
     0
 39
0.003
 10
-0.24698
 20
1.206157
 40
0.003
 41
0.003
 10
-0.241866
 20
1.192815
 40
0.003
 41
0.003
  0
LWPOLYLINE
  5
3AD
100
AcDbEntity
  8
0
 62
     0
100
AcDbPolyline
 90
        2
 70
     0
 39
0.003
 10
-0.241866
 20
1.192815
 40
0.003
 41
0.003
 10
-0.235732
 20
1.179732
 40
0.003
 41
0.003
  0
LWPOLYLINE
  5
3AE
100
AcDbEntity
  8
0
 62
     0
100
AcDbPolyline
 90
        2
 70
     0
 39
0.003
 10
-0.235732
 20
1.179732
 40
0.003
 41
0.003
 10
-0.228614
 20
1.166917
 40
0.003
 41
0.003
  0
LWPOLYLINE
  5
3AF
100
AcDbEntity
  8
0
 62
     0
100
AcDbPolyline
 90
        2
 70
     0
 39
0.003
 10
-0.228614
 20
1.166917
 40
0.003
 41
0.003
 10
-0.220531
 20
1.154402
 40
0.003
 41
0.003
  0
LWPOLYLINE
  5
3B0
100
AcDbEntity
  8
0
 62
     0
100
AcDbPolyline
 90
        2
 70
     0
 39
0.003
 10
-0.220531
 20
1.154402
 40
0.003
 41
0.003
 10
-0.211524
 20
1.142173
 40
0.003
 41
0.003
  0
LWPOLYLINE
  5
3B1
100
AcDbEntity
  8
0
 62
     0
100
AcDbPolyline
 90
        2
 70
     0
 39
0.003
 10
-0.211524
 20
1.142173
 40
0.003
 41
0.003
 10
-0.201602
 20
1.130268
 40
0.003
 41
0.003
  0
LWPOLYLINE
  5
3B2
100
AcDbEntity
  8
0
 62
     0
100
AcDbPolyline
 90
        2
 70
     0
 39
0.003
 10
-0.201602
 20
1.130268
 40
0.003
 41
0.003
 10
-0.190803
 20
1.118693
 40
0.003
 41
0.003
  0
LWPOLYLINE
  5
3B3
100
AcDbEntity
  8
0
 62
     0
100
AcDbPolyline
 90
        2
 70
     0
 39
0.003
 10
-0.190803
 20
1.118693
 40
0.003
 41
0.003
 10
-0.179142
 20
1.107465
 40
0.003
 41
0.003
  0
LWPOLYLINE
  5
3B4
100
AcDbEntity
  8
0
 62
     0
100
AcDbPolyline
 90
        2
 70
     0
 39
0.003
 10
-0.179142
 20
1.107465
 40
0.003
 41
0.003
 10
-0.166661
 20
1.096591
 40
0.003
 41
0.003
  0
LWPOLYLINE
  5
3B5
100
AcDbEntity
  8
0
 62
     0
100
AcDbPolyline
 90
        2
 70
     0
 39
0.003
 10
-0.166661
 20
1.096591
 40
0.003
 41
0.003
 10
-0.153366
 20
1.086094
 40
0.003
 41
0.003
  0
LWPOLYLINE
  5
3B6
100
AcDbEntity
  8
0
 62
     0
100
AcDbPolyline
 90
        2
 70
     0
 39
0.003
 10
-0.153366
 20
1.086094
 40
0.003
 41
0.003
 10
-0.139303
 20
1.075984
 40
0.003
 41
0.003
  0
LWPOLYLINE
  5
3B7
100
AcDbEntity
  8
0
 62
     0
100
AcDbPolyline
 90
        2
 70
     0
 39
0.003
 10
-0.139303
 20
1.075984
 40
0.003
 41
0.003
 10
-0.124476
 20
1.066283
 40
0.003
 41
0.003
  0
LWPOLYLINE
  5
3B8
100
AcDbEntity
  8
0
 62
     0
100
AcDbPolyline
 90
        2
 70
     0
 39
0.003
 10
-0.124476
 20
1.066283
 40
0.003
 41
0.003
 10
-0.108937
 20
1.056988
 40
0.003
 41
0.003
  0
LWPOLYLINE
  5
3B9
100
AcDbEntity
  8
0
 62
     0
100
AcDbPolyline
 90
        2
 70
     0
 39
0.003
 10
-0.108937
 20
1.056988
 40
0.003
 41
0.003
 10
-0.092693
 20
1.04813
 40
0.003
 41
0.003
  0
LWPOLYLINE
  5
3BA
100
AcDbEntity
  8
0
 62
     0
100
AcDbPolyline
 90
        2
 70
     0
 39
0.003
 10
-0.092693
 20
1.04813
 40
0.003
 41
0.003
 10
-0.075776
 20
1.03972
 40
0.003
 41
0.003
  0
LWPOLYLINE
  5
3BB
100
AcDbEntity
  8
0
 62
     0
100
AcDbPolyline
 90
        2
 70
     0
 39
0.003
 10
-0.075776
 20
1.03972
 40
0.003
 41
0.003
 10
-0.058209
 20
1.031776
 40
0.003
 41
0.003
  0
LWPOLYLINE
  5
3BC
100
AcDbEntity
  8
0
 62
     0
100
AcDbPolyline
 90
        2
 70
     0
 39
0.003
 10
-0.058209
 20
1.031776
 40
0.003
 41
0.003
 10
-0.040028
 20
1.024299
 40
0.003
 41
0.003
  0
LWPOLYLINE
  5
3BD
100
AcDbEntity
  8
0
 62
     0
100
AcDbPolyline
 90
        2
 70
     0
 39
0.003
 10
-0.040028
 20
1.024299
 40
0.003
 41
0.003
 10
-0.021244
 20
1.017319
 40
0.003
 41
0.003
  0
LWPOLYLINE
  5
3BE
100
AcDbEntity
  8
0
 62
     0
100
AcDbPolyline
 90
        2
 70
     0
 39
0.003
 10
-0.021244
 20
1.017319
 40
0.003
 41
0.003
 10
-0.001898
 20
1.010839
 40
0.003
 41
0.003
  0
LWPOLYLINE
  5
3BF
100
AcDbEntity
  8
0
 62
     0
100
AcDbPolyline
 90
        2
 70
     0
 39
0.003
 10
-0.001898
 20
1.010839
 40
0.003
 41
0.003
 10
0.018
 20
1.004886
 40
0.003
 41
0.003
  0
LWPOLYLINE
  5
3C0
100
AcDbEntity
  8
0
 62
     0
100
AcDbPolyline
 90
        2
 70
     0
 39
0.003
 10
0.018
 20
1.004886
 40
0.003
 41
0.003
 10
0.038406
 20
0.999453
 40
0.003
 41
0.003
  0
LWPOLYLINE
  5
3C1
100
AcDbEntity
  8
0
 62
     0
100
AcDbPolyline
 90
        2
 70
     0
 39
0.003
 10
0.038406
 20
0.999453
 40
0.003
 41
0.003
 10
0.059307
 20
0.994579
 40
0.003
 41
0.003
  0
LWPOLYLINE
  5
3C2
100
AcDbEntity
  8
0
 62
     0
100
AcDbPolyline
 90
        2
 70
     0
 39
0.003
 10
0.059307
 20
0.994579
 40
0.003
 41
0.003
 10
0.080669
 20
0.990264
 40
0.003
 41
0.003
  0
LWPOLYLINE
  5
3C3
100
AcDbEntity
  8
0
 62
     0
100
AcDbPolyline
 90
        2
 70
     0
 39
0.003
 10
0.080669
 20
0.990264
 40
0.003
 41
0.003
 10
0.102476
 20
0.986531
 40
0.003
 41
0.003
  0
LWPOLYLINE
  5
3C4
100
AcDbEntity
  8
0
 62
     0
100
AcDbPolyline
 90
        2
 70
     0
 39
0.003
 10
0.102476
 20
0.986531
 40
0.003
 41
0.003
 10
0.124693
 20
0.983382
 40
0.003
 41
0.003
  0
LWPOLYLINE
  5
3C5
100
AcDbEntity
  8
0
 62
     0
100
AcDbPolyline
 90
        2
 70
     0
 39
0.003
 10
0.124693
 20
0.983382
 40
0.003
 41
0.003
 10
0.147299
 20
0.98085
 40
0.003
 41
0.003
  0
LWPOLYLINE
  5
3C6
100
AcDbEntity
  8
0
 62
     0
100
AcDbPolyline
 90
        2
 70
     0
 39
0.003
 10
0.147299
 20
0.98085
 40
0.003
 41
0.003
 10
0.170264
 20
0.978933
 40
0.003
 41
0.003
  0
LWPOLYLINE
  5
3C7
100
AcDbEntity
  8
0
 62
     0
100
AcDbPolyline
 90
        2
 70
     0
 39
0.003
 10
0.170264
 20
0.978933
 40
0.003
 41
0.003
 10
0.193567
 20
0.977657
 40
0.003
 41
0.003
  0
LWPOLYLINE
  5
3C8
100
AcDbEntity
  8
0
 62
     0
100
AcDbPolyline
 90
        2
 70
     0
 39
0.003
 10
0.193567
 20
0.977657
 40
0.003
 41
0.003
 10
0.193567
 20
0.874634
 40
0.003
 41
0.003
  0
LWPOLYLINE
  5
3C9
100
AcDbEntity
  8
0
 62
     9
100
AcDbPolyline
 90
        2
 70
     0
 39
0.003
 10
-0.181717
 20
1.283453
 40
0.003
 41
0.003
 10
0.456909
 20
1.649665
 40
0.003
 41
0.003
  0
LWPOLYLINE
  5
3CA
100
AcDbEntity
  8
0
 62
     9
100
AcDbPolyline
 90
        2
 70
     0
 39
0.003
 10
0.456909
 20
1.649665
 40
0.003
 41
0.003
 10
0.468606
 20
1.657433
 40
0.003
 41
0.003
  0
LWPOLYLINE
  5
3CB
100
AcDbEntity
  8
0
 62
     9
100
AcDbPolyline
 90
        2
 70
     0
 39
0.003
 10
0.468606
 20
1.657433
 40
0.003
 41
0.003
 10
-0.17002
 20
1.29122
 40
0.003
 41
0.003
  0
LWPOLYLINE
  5
3CC
100
AcDbEntity
  8
0
 62
     9
100
AcDbPolyline
 90
        2
 70
     0
 39
0.003
 10
-0.17002
 20
1.29122
 40
0.003
 41
0.003
 10
-0.181717
 20
1.283453
 40
0.003
 41
0.003
  0
LWPOLYLINE
  5
3CD
100
AcDbEntity
  8
0
 62
     9
100
AcDbPolyline
 90
        2
 70
     0
 39
0.003
 10
-0.17002
 20
1.29122
 40
0.003
 41
0.003
 10
0.468606
 20
1.657433
 40
0.003
 41
0.003
  0
LWPOLYLINE
  5
3CE
100
AcDbEntity
  8
0
 62
     9
100
AcDbPolyline
 90
        2
 70
     0
 39
0.003
 10
0.468606
 20
1.657433
 40
0.003
 41
0.003
 10
0.479181
 20
1.666118
 40
0.003
 41
0.003
  0
LWPOLYLINE
  5
3CF
100
AcDbEntity
  8
0
 62
     9
100
AcDbPolyline
 90
        2
 70
     0
 39
0.003
 10
0.479181
 20
1.666118
 40
0.003
 41
0.003
 10
-0.159445
 20
1.299906
 40
0.003
 41
0.003
  0
LWPOLYLINE
  5
3D0
100
AcDbEntity
  8
0
 62
     9
100
AcDbPolyline
 90
        2
 70
     0
 39
0.003
 10
-0.159445
 20
1.299906
 40
0.003
 41
0.003
 10
-0.17002
 20
1.29122
 40
0.003
 41
0.003
  0
LWPOLYLINE
  5
3D1
100
AcDbEntity
  8
0
 62
   254
100
AcDbPolyline
 90
        2
 70
     0
 39
0.003
 10
-0.159445
 20
1.299906
 40
0.003
 41
0.003
 10
0.479181
 20
1.666118
 40
0.003
 41
0.003
  0
LWPOLYLINE
  5
3D2
100
AcDbEntity
  8
0
 62
   254
100
AcDbPolyline
 90
        2
 70
     0
 39
0.003
 10
0.479181
 20
1.666118
 40
0.003
 41
0.003
 10
0.488634
 20
1.675634
 40
0.003
 41
0.003
  0
LWPOLYLINE
  5
3D3
100
AcDbEntity
  8
0
 62
   254
100
AcDbPolyline
 90
        2
 70
     0
 39
0.003
 10
0.488634
 20
1.675634
 40
0.003
 41
0.003
 10
-0.149992
 20
1.309421
 40
0.003
 41
0.003
  0
LWPOLYLINE
  5
3D4
100
AcDbEntity
  8
0
 62
   254
100
AcDbPolyline
 90
        2
 70
     0
 39
0.003
 10
-0.149992
 20
1.309421
 40
0.003
 41
0.003
 10
-0.159445
 20
1.299906
 40
0.003
 41
0.003
  0
LWPOLYLINE
  5
3D5
100
AcDbEntity
  8
0
 62
   254
100
AcDbPolyline
 90
        2
 70
     0
 39
0.003
 10
-0.149992
 20
1.309421
 40
0.003
 41
0.003
 10
0.488634
 20
1.675634
 40
0.003
 41
0.003
  0
LWPOLYLINE
  5
3D6
100
AcDbEntity
  8
0
 62
   254
100
AcDbPolyline
 90
        2
 70
     0
 39
0.003
 10
0.488634
 20
1.675634
 40
0.003
 41
0.003
 10
0.496957
 20
1.68587
 40
0.003
 41
0.003
  0
LWPOLYLINE
  5
3D7
100
AcDbEntity
  8
0
 62
   254
100
AcDbPolyline
 90
        2
 70
     0
 39
0.003
 10
0.496957
 20
1.68587
 40
0.003
 41
0.003
 10
-0.141669
 20
1.319657
 40
0.003
 41
0.003
  0
LWPOLYLINE
  5
3D8
100
AcDbEntity
  8
0
 62
   254
100
AcDbPolyline
 90
        2
 70
     0
 39
0.003
 10
-0.141669
 20
1.319657
 40
0.003
 41
0.003
 10
-0.149992
 20
1.309421
 40
0.003
 41
0.003
  0
LWPOLYLINE
  5
3D9
100
AcDbEntity
  8
0
 62
   254
100
AcDbPolyline
 90
        2
 70
     0
 39
0.003
 10
-0.141669
 20
1.319657
 40
0.003
 41
0.003
 10
0.496957
 20
1.68587
 40
0.003
 41
0.003
  0
LWPOLYLINE
  5
3DA
100
AcDbEntity
  8
0
 62
   254
100
AcDbPolyline
 90
        2
 70
     0
 39
0.003
 10
0.496957
 20
1.68587
 40
0.003
 41
0.003
 10
0.50415
 20
1.696744
 40
0.003
 41
0.003
  0
LWPOLYLINE
  5
3DB
100
AcDbEntity
  8
0
 62
   254
100
AcDbPolyline
 90
        2
 70
     0
 39
0.003
 10
0.50415
 20
1.696744
 40
0.003
 41
0.003
 10
-0.134476
 20
1.330531
 40
0.003
 41
0.003
  0
LWPOLYLINE
  5
3DC
100
AcDbEntity
  8
0
 62
   254
100
AcDbPolyline
 90
        2
 70
     0
 39
0.003
 10
-0.134476
 20
1.330531
 40
0.003
 41
0.003
 10
-0.141669
 20
1.319657
 40
0.003
 41
0.003
  0
LWPOLYLINE
  5
3DD
100
AcDbEntity
  8
0
 62
   254
100
AcDbPolyline
 90
        2
 70
     0
 39
0.003
 10
-0.134476
 20
1.330531
 40
0.003
 41
0.003
 10
0.50415
 20
1.696744
 40
0.003
 41
0.003
  0
LWPOLYLINE
  5
3DE
100
AcDbEntity
  8
0
 62
   254
100
AcDbPolyline
 90
        2
 70
     0
 39
0.003
 10
0.50415
 20
1.696744
 40
0.003
 41
0.003
 10
0.510209
 20
1.708154
 40
0.003
 41
0.003
  0
LWPOLYLINE
  5
3DF
100
AcDbEntity
  8
0
 62
   254
100
AcDbPolyline
 90
        2
 70
     0
 39
0.003
 10
0.510209
 20
1.708154
 40
0.003
 41
0.003
 10
-0.128417
 20
1.341941
 40
0.003
 41
0.003
  0
LWPOLYLINE
  5
3E0
100
AcDbEntity
  8
0
 62
   254
100
AcDbPolyline
 90
        2
 70
     0
 39
0.003
 10
-0.128417
 20
1.341941
 40
0.003
 41
0.003
 10
-0.134476
 20
1.330531
 40
0.003
 41
0.003
  0
LWPOLYLINE
  5
3E1
100
AcDbEntity
  8
0
 62
   254
100
AcDbPolyline
 90
        2
 70
     0
 39
0.003
 10
-0.128417
 20
1.341941
 40
0.003
 41
0.003
 10
0.510209
 20
1.708154
 40
0.003
 41
0.003
  0
LWPOLYLINE
  5
3E2
100
AcDbEntity
  8
0
 62
   254
100
AcDbPolyline
 90
        2
 70
     0
 39
0.003
 10
0.510209
 20
1.708154
 40
0.003
 41
0.003
 10
0.515134
 20
1.720012
 40
0.003
 41
0.003
  0
LWPOLYLINE
  5
3E3
100
AcDbEntity
  8
0
 62
   254
100
AcDbPolyline
 90
        2
 70
     0
 39
0.003
 10
0.515134
 20
1.720012
 40
0.003
 41
0.003
 10
-0.123492
 20
1.353799
 40
0.003
 41
0.003
  0
LWPOLYLINE
  5
3E4
100
AcDbEntity
  8
0
 62
   254
100
AcDbPolyline
 90
        2
 70
     0
 39
0.003
 10
-0.123492
 20
1.353799
 40
0.003
 41
0.003
 10
-0.128417
 20
1.341941
 40
0.003
 41
0.003
  0
LWPOLYLINE
  5
3E5
100
AcDbEntity
  8
0
 62
   254
100
AcDbPolyline
 90
        2
 70
     0
 39
0.003
 10
-0.123492
 20
1.353799
 40
0.003
 41
0.003
 10
0.515134
 20
1.720012
 40
0.003
 41
0.003
  0
LWPOLYLINE
  5
3E6
100
AcDbEntity
  8
0
 62
   254
100
AcDbPolyline
 90
        2
 70
     0
 39
0.003
 10
0.515134
 20
1.720012
 40
0.003
 41
0.003
 10
0.518909
 20
1.732209
 40
0.003
 41
0.003
  0
LWPOLYLINE
  5
3E7
100
AcDbEntity
  8
0
 62
   254
100
AcDbPolyline
 90
        2
 70
     0
 39
0.003
 10
0.518909
 20
1.732209
 40
0.003
 41
0.003
 10
-0.119717
 20
1.365996
 40
0.003
 41
0.003
  0
LWPOLYLINE
  5
3E8
100
AcDbEntity
  8
0
 62
   254
100
AcDbPolyline
 90
        2
 70
     0
 39
0.003
 10
-0.119717
 20
1.365996
 40
0.003
 41
0.003
 10
-0.123492
 20
1.353799
 40
0.003
 41
0.003
  0
LWPOLYLINE
  5
3E9
100
AcDbEntity
  8
0
 62
   254
100
AcDbPolyline
 90
        2
 70
     0
 39
0.003
 10
-0.119717
 20
1.365996
 40
0.003
 41
0.003
 10
0.518909
 20
1.732209
 40
0.003
 41
0.003
  0
LWPOLYLINE
  5
3EA
100
AcDbEntity
  8
0
 62
   254
100
AcDbPolyline
 90
        2
 70
     0
 39
0.003
 10
0.518909
 20
1.732209
 40
0.003
 41
0.003
 10
0.521547
 20
1.744657
 40
0.003
 41
0.003
  0
LWPOLYLINE
  5
3EB
100
AcDbEntity
  8
0
 62
   254
100
AcDbPolyline
 90
        2
 70
     0
 39
0.003
 10
0.521547
 20
1.744657
 40
0.003
 41
0.003
 10
-0.117079
 20
1.378445
 40
0.003
 41
0.003
  0
LWPOLYLINE
  5
3EC
100
AcDbEntity
  8
0
 62
   254
100
AcDbPolyline
 90
        2
 70
     0
 39
0.003
 10
-0.117079
 20
1.378445
 40
0.003
 41
0.003
 10
-0.119717
 20
1.365996
 40
0.003
 41
0.003
  0
LWPOLYLINE
  5
3ED
100
AcDbEntity
  8
0
 62
   254
100
AcDbPolyline
 90
        2
 70
     0
 39
0.003
 10
-0.117079
 20
1.378445
 40
0.003
 41
0.003
 10
0.521547
 20
1.744657
 40
0.003
 41
0.003
  0
LWPOLYLINE
  5
3EE
100
AcDbEntity
  8
0
 62
   254
100
AcDbPolyline
 90
        2
 70
     0
 39
0.003
 10
0.521547
 20
1.744657
 40
0.003
 41
0.003
 10
0.523031
 20
1.75726
 40
0.003
 41
0.003
  0
LWPOLYLINE
  5
3EF
100
AcDbEntity
  8
0
 62
   254
100
AcDbPolyline
 90
        2
 70
     0
 39
0.003
 10
0.523031
 20
1.75726
 40
0.003
 41
0.003
 10
-0.115594
 20
1.391047
 40
0.003
 41
0.003
  0
LWPOLYLINE
  5
3F0
100
AcDbEntity
  8
0
 62
   254
100
AcDbPolyline
 90
        2
 70
     0
 39
0.003
 10
-0.115594
 20
1.391047
 40
0.003
 41
0.003
 10
-0.117079
 20
1.378445
 40
0.003
 41
0.003
  0
LWPOLYLINE
  5
3F1
100
AcDbEntity
  8
0
 62
   254
100
AcDbPolyline
 90
        2
 70
     0
 39
0.003
 10
-0.115594
 20
1.391047
 40
0.003
 41
0.003
 10
0.523031
 20
1.75726
 40
0.003
 41
0.003
  0
LWPOLYLINE
  5
3F2
100
AcDbEntity
  8
0
 62
   254
100
AcDbPolyline
 90
        2
 70
     0
 39
0.003
 10
0.523031
 20
1.75726
 40
0.003
 41
0.003
 10
0.52337
 20
1.769921
 40
0.003
 41
0.003
  0
LWPOLYLINE
  5
3F3
100
AcDbEntity
  8
0
 62
   254
100
AcDbPolyline
 90
        2
 70
     0
 39
0.003
 10
0.52337
 20
1.769921
 40
0.003
 41
0.003
 10
-0.115256
 20
1.403709
 40
0.003
 41
0.003
  0
LWPOLYLINE
  5
3F4
100
AcDbEntity
  8
0
 62
   254
100
AcDbPolyline
 90
        2
 70
     0
 39
0.003
 10
-0.115256
 20
1.403709
 40
0.003
 41
0.003
 10
-0.115594
 20
1.391047
 40
0.003
 41
0.003
  0
LWPOLYLINE
  5
3F5
100
AcDbEntity
  8
0
 62
   254
100
AcDbPolyline
 90
        2
 70
     0
 39
0.003
 10
-0.115256
 20
1.403709
 40
0.003
 41
0.003
 10
0.52337
 20
1.769921
 40
0.003
 41
0.003
  0
LWPOLYLINE
  5
3F6
100
AcDbEntity
  8
0
 62
   254
100
AcDbPolyline
 90
        2
 70
     0
 39
0.003
 10
0.52337
 20
1.769921
 40
0.003
 41
0.003
 10
0.522539
 20
1.782535
 40
0.003
 41
0.003
  0
LWPOLYLINE
  5
3F7
100
AcDbEntity
  8
0
 62
   254
100
AcDbPolyline
 90
        2
 70
     0
 39
0.003
 10
0.522539
 20
1.782535
 40
0.003
 41
0.003
 10
-0.116087
 20
1.416323
 40
0.003
 41
0.003
  0
LWPOLYLINE
  5
3F8
100
AcDbEntity
  8
0
 62
   254
100
AcDbPolyline
 90
        2
 70
     0
 39
0.003
 10
-0.116087
 20
1.416323
 40
0.003
 41
0.003
 10
-0.115256
 20
1.403709
 40
0.003
 41
0.003
  0
LWPOLYLINE
  5
3F9
100
AcDbEntity
  8
0
 62
   254
100
AcDbPolyline
 90
        2
 70
     0
 39
0.003
 10
-0.116087
 20
1.416323
 40
0.003
 41
0.003
 10
0.522539
 20
1.782535
 40
0.003
 41
0.003
  0
LWPOLYLINE
  5
3FA
100
AcDbEntity
  8
0
 62
   254
100
AcDbPolyline
 90
        2
 70
     0
 39
0.003
 10
0.522539
 20
1.782535
 40
0.003
 41
0.003
 10
0.520551
 20
1.79502
 40
0.003
 41
0.003
  0
LWPOLYLINE
  5
3FB
100
AcDbEntity
  8
0
 62
   254
100
AcDbPolyline
 90
        2
 70
     0
 39
0.003
 10
0.520551
 20
1.79502
 40
0.003
 41
0.003
 10
-0.118075
 20
1.428807
 40
0.003
 41
0.003
  0
LWPOLYLINE
  5
3FC
100
AcDbEntity
  8
0
 62
   254
100
AcDbPolyline
 90
        2
 70
     0
 39
0.003
 10
-0.118075
 20
1.428807
 40
0.003
 41
0.003
 10
-0.116087
 20
1.416323
 40
0.003
 41
0.003
  0
LWPOLYLINE
  5
3FD
100
AcDbEntity
  8
0
 62
   254
100
AcDbPolyline
 90
        2
 70
     0
 39
0.003
 10
-0.118075
 20
1.428807
 40
0.003
 41
0.003
 10
0.520551
 20
1.79502
 40
0.003
 41
0.003
  0
LWPOLYLINE
  5
3FE
100
AcDbEntity
  8
0
 62
   254
100
AcDbPolyline
 90
        2
 70
     0
 39
0.003
 10
0.520551
 20
1.79502
 40
0.003
 41
0.003
 10
0.517398
 20
1.807272
 40
0.003
 41
0.003
  0
LWPOLYLINE
  5
3FF
100
AcDbEntity
  8
0
 62
   254
100
AcDbPolyline
 90
        2
 70
     0
 39
0.003
 10
0.517398
 20
1.807272
 40
0.003
 41
0.003
 10
-0.121228
 20
1.441059
 40
0.003
 41
0.003
  0
LWPOLYLINE
  5
400
100
AcDbEntity
  8
0
 62
   254
100
AcDbPolyline
 90
        2
 70
     0
 39
0.003
 10
-0.121228
 20
1.441059
 40
0.003
 41
0.003
 10
-0.118075
 20
1.428807
 40
0.003
 41
0.003
  0
LWPOLYLINE
  5
401
100
AcDbEntity
  8
0
 62
   254
100
AcDbPolyline
 90
        2
 70
     0
 39
0.003
 10
-0.121228
 20
1.441059
 40
0.003
 41
0.003
 10
0.517398
 20
1.807272
 40
0.003
 41
0.003
  0
LWPOLYLINE
  5
402
100
AcDbEntity
  8
0
 62
   254
100
AcDbPolyline
 90
        2
 70
     0
 39
0.003
 10
0.517398
 20
1.807272
 40
0.003
 41
0.003
 10
0.513079
 20
1.819201
 40
0.003
 41
0.003
  0
LWPOLYLINE
  5
403
100
AcDbEntity
  8
0
 62
   254
100
AcDbPolyline
 90
        2
 70
     0
 39
0.003
 10
0.513079
 20
1.819201
 40
0.003
 41
0.003
 10
-0.125547
 20
1.452988
 40
0.003
 41
0.003
  0
LWPOLYLINE
  5
404
100
AcDbEntity
  8
0
 62
   254
100
AcDbPolyline
 90
        2
 70
     0
 39
0.003
 10
-0.125547
 20
1.452988
 40
0.003
 41
0.003
 10
-0.121228
 20
1.441059
 40
0.003
 41
0.003
  0
LWPOLYLINE
  5
405
100
AcDbEntity
  8
0
 62
   254
100
AcDbPolyline
 90
        2
 70
     0
 39
0.003
 10
-0.125547
 20
1.452988
 40
0.003
 41
0.003
 10
0.513079
 20
1.819201
 40
0.003
 41
0.003
  0
LWPOLYLINE
  5
406
100
AcDbEntity
  8
0
 62
   254
100
AcDbPolyline
 90
        2
 70
     0
 39
0.003
 10
0.513079
 20
1.819201
 40
0.003
 41
0.003
 10
0.507583
 20
1.830701
 40
0.003
 41
0.003
  0
LWPOLYLINE
  5
407
100
AcDbEntity
  8
0
 62
   254
100
AcDbPolyline
 90
        2
 70
     0
 39
0.003
 10
0.507583
 20
1.830701
 40
0.003
 41
0.003
 10
-0.131043
 20
1.464488
 40
0.003
 41
0.003
  0
LWPOLYLINE
  5
408
100
AcDbEntity
  8
0
 62
   254
100
AcDbPolyline
 90
        2
 70
     0
 39
0.003
 10
-0.131043
 20
1.464488
 40
0.003
 41
0.003
 10
-0.125547
 20
1.452988
 40
0.003
 41
0.003
  0
LWPOLYLINE
  5
409
100
AcDbEntity
  8
0
 62
   254
100
AcDbPolyline
 90
        2
 70
     0
 39
0.003
 10
-0.131043
 20
1.464488
 40
0.003
 41
0.003
 10
0.507583
 20
1.830701
 40
0.003
 41
0.003
  0
LWPOLYLINE
  5
40A
100
AcDbEntity
  8
0
 62
   254
100
AcDbPolyline
 90
        2
 70
     0
 39
0.003
 10
0.507583
 20
1.830701
 40
0.003
 41
0.003
 10
0.500909
 20
1.841693
 40
0.003
 41
0.003
  0
LWPOLYLINE
  5
40B
100
AcDbEntity
  8
0
 62
   254
100
AcDbPolyline
 90
        2
 70
     0
 39
0.003
 10
0.500909
 20
1.841693
 40
0.003
 41
0.003
 10
-0.137717
 20
1.47548
 40
0.003
 41
0.003
  0
LWPOLYLINE
  5
40C
100
AcDbEntity
  8
0
 62
   254
100
AcDbPolyline
 90
        2
 70
     0
 39
0.003
 10
-0.137717
 20
1.47548
 40
0.003
 41
0.003
 10
-0.131043
 20
1.464488
 40
0.003
 41
0.003
  0
LWPOLYLINE
  5
40D
100
AcDbEntity
  8
0
 62
   254
100
AcDbPolyline
 90
        2
 70
     0
 39
0.003
 10
-0.137717
 20
1.47548
 40
0.003
 41
0.003
 10
0.500909
 20
1.841693
 40
0.003
 41
0.003
  0
LWPOLYLINE
  5
40E
100
AcDbEntity
  8
0
 62
   254
100
AcDbPolyline
 90
        2
 70
     0
 39
0.003
 10
0.500909
 20
1.841693
 40
0.003
 41
0.003
 10
0.493055
 20
1.852063
 40
0.003
 41
0.003
  0
LWPOLYLINE
  5
40F
100
AcDbEntity
  8
0
 62
   254
100
AcDbPolyline
 90
        2
 70
     0
 39
0.003
 10
0.493055
 20
1.852063
 40
0.003
 41
0.003
 10
-0.145571
 20
1.48585
 40
0.003
 41
0.003
  0
LWPOLYLINE
  5
410
100
AcDbEntity
  8
0
 62
   254
100
AcDbPolyline
 90
        2
 70
     0
 39
0.003
 10
-0.145571
 20
1.48585
 40
0.003
 41
0.003
 10
-0.137717
 20
1.47548
 40
0.003
 41
0.003
  0
LWPOLYLINE
  5
411
100
AcDbEntity
  8
0
 62
   254
100
AcDbPolyline
 90
        2
 70
     0
 39
0.003
 10
-0.145571
 20
1.48585
 40
0.003
 41
0.003
 10
0.493055
 20
1.852063
 40
0.003
 41
0.003
  0
LWPOLYLINE
  5
412
100
AcDbEntity
  8
0
 62
   254
100
AcDbPolyline
 90
        2
 70
     0
 39
0.003
 10
0.493055
 20
1.852063
 40
0.003
 41
0.003
 10
0.484028
 20
1.861732
 40
0.003
 41
0.003
  0
LWPOLYLINE
  5
413
100
AcDbEntity
  8
0
 62
   254
100
AcDbPolyline
 90
        2
 70
     0
 39
0.003
 10
0.484028
 20
1.861732
 40
0.003
 41
0.003
 10
-0.154598
 20
1.49552
 40
0.003
 41
0.003
  0
LWPOLYLINE
  5
414
100
AcDbEntity
  8
0
 62
   254
100
AcDbPolyline
 90
        2
 70
     0
 39
0.003
 10
-0.154598
 20
1.49552
 40
0.003
 41
0.003
 10
-0.145571
 20
1.48585
 40
0.003
 41
0.003
  0
LWPOLYLINE
  5
415
100
AcDbEntity
  8
0
 62
   254
100
AcDbPolyline
 90
        2
 70
     0
 39
0.003
 10
-0.154598
 20
1.49552
 40
0.003
 41
0.003
 10
0.484028
 20
1.861732
 40
0.003
 41
0.003
  0
LWPOLYLINE
  5
416
100
AcDbEntity
  8
0
 62
   254
100
AcDbPolyline
 90
        2
 70
     0
 39
0.003
 10
0.484028
 20
1.861732
 40
0.003
 41
0.003
 10
0.473799
 20
1.870583
 40
0.003
 41
0.003
  0
LWPOLYLINE
  5
417
100
AcDbEntity
  8
0
 62
   254
100
AcDbPolyline
 90
        2
 70
     0
 39
0.003
 10
0.473799
 20
1.870583
 40
0.003
 41
0.003
 10
-0.164827
 20
1.50437
 40
0.003
 41
0.003
  0
LWPOLYLINE
  5
418
100
AcDbEntity
  8
0
 62
   254
100
AcDbPolyline
 90
        2
 70
     0
 39
0.003
 10
-0.164827
 20
1.50437
 40
0.003
 41
0.003
 10
-0.154598
 20
1.49552
 40
0.003
 41
0.003
  0
LWPOLYLINE
  5
419
100
AcDbEntity
  8
0
 62
   254
100
AcDbPolyline
 90
        2
 70
     0
 39
0.003
 10
-0.164827
 20
1.50437
 40
0.003
 41
0.003
 10
0.473799
 20
1.870583
 40
0.003
 41
0.003
  0
LWPOLYLINE
  5
41A
100
AcDbEntity
  8
0
 62
   254
100
AcDbPolyline
 90
        2
 70
     0
 39
0.003
 10
0.473799
 20
1.870583
 40
0.003
 41
0.003
 10
0.462382
 20
1.878539
 40
0.003
 41
0.003
  0
LWPOLYLINE
  5
41B
100
AcDbEntity
  8
0
 62
   254
100
AcDbPolyline
 90
        2
 70
     0
 39
0.003
 10
0.462382
 20
1.878539
 40
0.003
 41
0.003
 10
-0.176244
 20
1.512327
 40
0.003
 41
0.003
  0
LWPOLYLINE
  5
41C
100
AcDbEntity
  8
0
 62
   254
100
AcDbPolyline
 90
        2
 70
     0
 39
0.003
 10
-0.176244
 20
1.512327
 40
0.003
 41
0.003
 10
-0.164827
 20
1.50437
 40
0.003
 41
0.003
  0
LWPOLYLINE
  5
41D
100
AcDbEntity
  8
0
 62
   254
100
AcDbPolyline
 90
        2
 70
     0
 39
0.003
 10
-0.176244
 20
1.512327
 40
0.003
 41
0.003
 10
0.462382
 20
1.878539
 40
0.003
 41
0.003
  0
LWPOLYLINE
  5
41E
100
AcDbEntity
  8
0
 62
   254
100
AcDbPolyline
 90
        2
 70
     0
 39
0.003
 10
0.462382
 20
1.878539
 40
0.003
 41
0.003
 10
0.449768
 20
1.885492
 40
0.003
 41
0.003
  0
LWPOLYLINE
  5
41F
100
AcDbEntity
  8
0
 62
   254
100
AcDbPolyline
 90
        2
 70
     0
 39
0.003
 10
0.449768
 20
1.885492
 40
0.003
 41
0.003
 10
-0.188858
 20
1.51928
 40
0.003
 41
0.003
  0
LWPOLYLINE
  5
420
100
AcDbEntity
  8
0
 62
   254
100
AcDbPolyline
 90
        2
 70
     0
 39
0.003
 10
-0.188858
 20
1.51928
 40
0.003
 41
0.003
 10
-0.176244
 20
1.512327
 40
0.003
 41
0.003
  0
LWPOLYLINE
  5
421
100
AcDbEntity
  8
0
 62
     9
100
AcDbPolyline
 90
        2
 70
     0
 39
0.003
 10
-0.188858
 20
1.51928
 40
0.003
 41
0.003
 10
0.449768
 20
1.885492
 40
0.003
 41
0.003
  0
LWPOLYLINE
  5
422
100
AcDbEntity
  8
0
 62
     9
100
AcDbPolyline
 90
        2
 70
     0
 39
0.003
 10
0.449768
 20
1.885492
 40
0.003
 41
0.003
 10
0.435957
 20
1.891358
 40
0.003
 41
0.003
  0
LWPOLYLINE
  5
423
100
AcDbEntity
  8
0
 62
     9
100
AcDbPolyline
 90
        2
 70
     0
 39
0.003
 10
0.435957
 20
1.891358
 40
0.003
 41
0.003
 10
-0.202669
 20
1.525146
 40
0.003
 41
0.003
  0
LWPOLYLINE
  5
424
100
AcDbEntity
  8
0
 62
     9
100
AcDbPolyline
 90
        2
 70
     0
 39
0.003
 10
-0.202669
 20
1.525146
 40
0.003
 41
0.003
 10
-0.188858
 20
1.51928
 40
0.003
 41
0.003
  0
LWPOLYLINE
  5
425
100
AcDbEntity
  8
0
 62
     9
100
AcDbPolyline
 90
        2
 70
     0
 39
0.003
 10
-0.202669
 20
1.525146
 40
0.003
 41
0.003
 10
0.435957
 20
1.891358
 40
0.003
 41
0.003
  0
LWPOLYLINE
  5
426
100
AcDbEntity
  8
0
 62
     9
100
AcDbPolyline
 90
        2
 70
     0
 39
0.003
 10
0.435957
 20
1.891358
 40
0.003
 41
0.003
 10
0.420933
 20
1.896024
 40
0.003
 41
0.003
  0
LWPOLYLINE
  5
427
100
AcDbEntity
  8
0
 62
     9
100
AcDbPolyline
 90
        2
 70
     0
 39
0.003
 10
0.420933
 20
1.896024
 40
0.003
 41
0.003
 10
-0.217693
 20
1.529811
 40
0.003
 41
0.003
  0
LWPOLYLINE
  5
428
100
AcDbEntity
  8
0
 62
     9
100
AcDbPolyline
 90
        2
 70
     0
 39
0.003
 10
-0.217693
 20
1.529811
 40
0.003
 41
0.003
 10
-0.202669
 20
1.525146
 40
0.003
 41
0.003
  0
LWPOLYLINE
  5
429
100
AcDbEntity
  8
0
 62
     9
100
AcDbPolyline
 90
        2
 70
     0
 39
0.003
 10
-0.217693
 20
1.529811
 40
0.003
 41
0.003
 10
0.420933
 20
1.896024
 40
0.003
 41
0.003
  0
LWPOLYLINE
  5
42A
100
AcDbEntity
  8
0
 62
     9
100
AcDbPolyline
 90
        2
 70
     0
 39
0.003
 10
0.420933
 20
1.896024
 40
0.003
 41
0.003
 10
0.404713
 20
1.899413
 40
0.003
 41
0.003
  0
LWPOLYLINE
  5
42B
100
AcDbEntity
  8
0
 62
     9
100
AcDbPolyline
 90
        2
 70
     0
 39
0.003
 10
0.404713
 20
1.899413
 40
0.003
 41
0.003
 10
-0.233913
 20
1.533201
 40
0.003
 41
0.003
  0
LWPOLYLINE
  5
42C
100
AcDbEntity
  8
0
 62
     9
100
AcDbPolyline
 90
        2
 70
     0
 39
0.003
 10
-0.233913
 20
1.533201
 40
0.003
 41
0.003
 10
-0.217693
 20
1.529811
 40
0.003
 41
0.003
  0
LWPOLYLINE
  5
42D
100
AcDbEntity
  8
0
 62
     9
100
AcDbPolyline
 90
        2
 70
     0
 39
0.003
 10
-0.233913
 20
1.533201
 40
0.003
 41
0.003
 10
0.404713
 20
1.899413
 40
0.003
 41
0.003
  0
LWPOLYLINE
  5
42E
100
AcDbEntity
  8
0
 62
     9
100
AcDbPolyline
 90
        2
 70
     0
 39
0.003
 10
0.404713
 20
1.899413
 40
0.003
 41
0.003
 10
0.38728
 20
1.901413
 40
0.003
 41
0.003
  0
LWPOLYLINE
  5
42F
100
AcDbEntity
  8
0
 62
     9
100
AcDbPolyline
 90
        2
 70
     0
 39
0.003
 10
0.38728
 20
1.901413
 40
0.003
 41
0.003
 10
-0.251346
 20
1.535201
 40
0.003
 41
0.003
  0
LWPOLYLINE
  5
430
100
AcDbEntity
  8
0
 62
     9
100
AcDbPolyline
 90
        2
 70
     0
 39
0.003
 10
-0.251346
 20
1.535201
 40
0.003
 41
0.003
 10
-0.233913
 20
1.533201
 40
0.003
 41
0.003
  0
LWPOLYLINE
  5
431
100
AcDbEntity
  8
0
 62
   253
100
AcDbPolyline
 90
        2
 70
     0
 39
0.003
 10
-0.251346
 20
1.535201
 40
0.003
 41
0.003
 10
0.38728
 20
1.901413
 40
0.003
 41
0.003
  0
LWPOLYLINE
  5
432
100
AcDbEntity
  8
0
 62
   253
100
AcDbPolyline
 90
        2
 70
     0
 39
0.003
 10
0.38728
 20
1.901413
 40
0.003
 41
0.003
 10
0.368634
 20
1.901945
 40
0.003
 41
0.003
  0
LWPOLYLINE
  5
433
100
AcDbEntity
  8
0
 62
   253
100
AcDbPolyline
 90
        2
 70
     0
 39
0.003
 10
0.368634
 20
1.901945
 40
0.003
 41
0.003
 10
-0.269992
 20
1.535732
 40
0.003
 41
0.003
  0
LWPOLYLINE
  5
434
100
AcDbEntity
  8
0
 62
   253
100
AcDbPolyline
 90
        2
 70
     0
 39
0.003
 10
-0.269992
 20
1.535732
 40
0.003
 41
0.003
 10
-0.251346
 20
1.535201
 40
0.003
 41
0.003
  0
LWPOLYLINE
  5
435
100
AcDbEntity
  8
0
 62
     0
100
AcDbPolyline
 90
        2
 70
     0
 39
0.003
 10
-0.181717
 20
1.283453
 40
0.003
 41
0.003
 10
0.456909
 20
1.649665
 40
0.003
 41
0.003
  0
LWPOLYLINE
  5
436
100
AcDbEntity
  8
0
 62
     0
100
AcDbPolyline
 90
        2
 70
     0
 39
0.003
 10
0.456909
 20
1.649665
 40
0.003
 41
0.003
 10
0.468606
 20
1.657433
 40
0.003
 41
0.003
  0
LWPOLYLINE
  5
437
100
AcDbEntity
  8
0
 62
     0
100
AcDbPolyline
 90
        2
 70
     0
 39
0.003
 10
0.468606
 20
1.657433
 40
0.003
 41
0.003
 10
0.479181
 20
1.666118
 40
0.003
 41
0.003
  0
LWPOLYLINE
  5
438
100
AcDbEntity
  8
0
 62
     0
100
AcDbPolyline
 90
        2
 70
     0
 39
0.003
 10
0.479181
 20
1.666118
 40
0.003
 41
0.003
 10
0.488634
 20
1.675634
 40
0.003
 41
0.003
  0
LWPOLYLINE
  5
439
100
AcDbEntity
  8
0
 62
     0
100
AcDbPolyline
 90
        2
 70
     0
 39
0.003
 10
0.488634
 20
1.675634
 40
0.003
 41
0.003
 10
0.496957
 20
1.68587
 40
0.003
 41
0.003
  0
LWPOLYLINE
  5
43A
100
AcDbEntity
  8
0
 62
     0
100
AcDbPolyline
 90
        2
 70
     0
 39
0.003
 10
0.496957
 20
1.68587
 40
0.003
 41
0.003
 10
0.50415
 20
1.696744
 40
0.003
 41
0.003
  0
LWPOLYLINE
  5
43B
100
AcDbEntity
  8
0
 62
     0
100
AcDbPolyline
 90
        2
 70
     0
 39
0.003
 10
0.50415
 20
1.696744
 40
0.003
 41
0.003
 10
0.510209
 20
1.708154
 40
0.003
 41
0.003
  0
LWPOLYLINE
  5
43C
100
AcDbEntity
  8
0
 62
     0
100
AcDbPolyline
 90
        2
 70
     0
 39
0.003
 10
0.510209
 20
1.708154
 40
0.003
 41
0.003
 10
0.515134
 20
1.720012
 40
0.003
 41
0.003
  0
LWPOLYLINE
  5
43D
100
AcDbEntity
  8
0
 62
     0
100
AcDbPolyline
 90
        2
 70
     0
 39
0.003
 10
0.515134
 20
1.720012
 40
0.003
 41
0.003
 10
0.518909
 20
1.732209
 40
0.003
 41
0.003
  0
LWPOLYLINE
  5
43E
100
AcDbEntity
  8
0
 62
     0
100
AcDbPolyline
 90
        2
 70
     0
 39
0.003
 10
0.518909
 20
1.732209
 40
0.003
 41
0.003
 10
0.521547
 20
1.744657
 40
0.003
 41
0.003
  0
LWPOLYLINE
  5
43F
100
AcDbEntity
  8
0
 62
     0
100
AcDbPolyline
 90
        2
 70
     0
 39
0.003
 10
0.521547
 20
1.744657
 40
0.003
 41
0.003
 10
0.523031
 20
1.75726
 40
0.003
 41
0.003
  0
LWPOLYLINE
  5
440
100
AcDbEntity
  8
0
 62
     0
100
AcDbPolyline
 90
        2
 70
     0
 39
0.003
 10
0.523031
 20
1.75726
 40
0.003
 41
0.003
 10
0.52337
 20
1.769921
 40
0.003
 41
0.003
  0
LWPOLYLINE
  5
441
100
AcDbEntity
  8
0
 62
     0
100
AcDbPolyline
 90
        2
 70
     0
 39
0.003
 10
0.52337
 20
1.769921
 40
0.003
 41
0.003
 10
0.522539
 20
1.782535
 40
0.003
 41
0.003
  0
LWPOLYLINE
  5
442
100
AcDbEntity
  8
0
 62
     0
100
AcDbPolyline
 90
        2
 70
     0
 39
0.003
 10
0.522539
 20
1.782535
 40
0.003
 41
0.003
 10
0.520551
 20
1.79502
 40
0.003
 41
0.003
  0
LWPOLYLINE
  5
443
100
AcDbEntity
  8
0
 62
     0
100
AcDbPolyline
 90
        2
 70
     0
 39
0.003
 10
0.520551
 20
1.79502
 40
0.003
 41
0.003
 10
0.517398
 20
1.807272
 40
0.003
 41
0.003
  0
LWPOLYLINE
  5
444
100
AcDbEntity
  8
0
 62
     0
100
AcDbPolyline
 90
        2
 70
     0
 39
0.003
 10
0.517398
 20
1.807272
 40
0.003
 41
0.003
 10
0.513079
 20
1.819201
 40
0.003
 41
0.003
  0
LWPOLYLINE
  5
445
100
AcDbEntity
  8
0
 62
     0
100
AcDbPolyline
 90
        2
 70
     0
 39
0.003
 10
0.513079
 20
1.819201
 40
0.003
 41
0.003
 10
0.507583
 20
1.830701
 40
0.003
 41
0.003
  0
LWPOLYLINE
  5
446
100
AcDbEntity
  8
0
 62
     0
100
AcDbPolyline
 90
        2
 70
     0
 39
0.003
 10
0.507583
 20
1.830701
 40
0.003
 41
0.003
 10
0.500909
 20
1.841693
 40
0.003
 41
0.003
  0
LWPOLYLINE
  5
447
100
AcDbEntity
  8
0
 62
     0
100
AcDbPolyline
 90
        2
 70
     0
 39
0.003
 10
0.500909
 20
1.841693
 40
0.003
 41
0.003
 10
0.493055
 20
1.852063
 40
0.003
 41
0.003
  0
LWPOLYLINE
  5
448
100
AcDbEntity
  8
0
 62
     0
100
AcDbPolyline
 90
        2
 70
     0
 39
0.003
 10
0.493055
 20
1.852063
 40
0.003
 41
0.003
 10
0.484028
 20
1.861732
 40
0.003
 41
0.003
  0
LWPOLYLINE
  5
449
100
AcDbEntity
  8
0
 62
     0
100
AcDbPolyline
 90
        2
 70
     0
 39
0.003
 10
0.484028
 20
1.861732
 40
0.003
 41
0.003
 10
0.473799
 20
1.870583
 40
0.003
 41
0.003
  0
LWPOLYLINE
  5
44A
100
AcDbEntity
  8
0
 62
     0
100
AcDbPolyline
 90
        2
 70
     0
 39
0.003
 10
0.473799
 20
1.870583
 40
0.003
 41
0.003
 10
0.462382
 20
1.878539
 40
0.003
 41
0.003
  0
LWPOLYLINE
  5
44B
100
AcDbEntity
  8
0
 62
     0
100
AcDbPolyline
 90
        2
 70
     0
 39
0.003
 10
0.462382
 20
1.878539
 40
0.003
 41
0.003
 10
0.449768
 20
1.885492
 40
0.003
 41
0.003
  0
LWPOLYLINE
  5
44C
100
AcDbEntity
  8
0
 62
     0
100
AcDbPolyline
 90
        2
 70
     0
 39
0.003
 10
0.449768
 20
1.885492
 40
0.003
 41
0.003
 10
0.435957
 20
1.891358
 40
0.003
 41
0.003
  0
LWPOLYLINE
  5
44D
100
AcDbEntity
  8
0
 62
     0
100
AcDbPolyline
 90
        2
 70
     0
 39
0.003
 10
0.435957
 20
1.891358
 40
0.003
 41
0.003
 10
0.420933
 20
1.896024
 40
0.003
 41
0.003
  0
LWPOLYLINE
  5
44E
100
AcDbEntity
  8
0
 62
     0
100
AcDbPolyline
 90
        2
 70
     0
 39
0.003
 10
0.420933
 20
1.896024
 40
0.003
 41
0.003
 10
0.404713
 20
1.899413
 40
0.003
 41
0.003
  0
LWPOLYLINE
  5
44F
100
AcDbEntity
  8
0
 62
     0
100
AcDbPolyline
 90
        2
 70
     0
 39
0.003
 10
0.404713
 20
1.899413
 40
0.003
 41
0.003
 10
0.38728
 20
1.901413
 40
0.003
 41
0.003
  0
LWPOLYLINE
  5
450
100
AcDbEntity
  8
0
 62
     0
100
AcDbPolyline
 90
        2
 70
     0
 39
0.003
 10
0.38728
 20
1.901413
 40
0.003
 41
0.003
 10
0.368634
 20
1.901945
 40
0.003
 41
0.003
  0
LWPOLYLINE
  5
451
100
AcDbEntity
  8
0
 62
     0
100
AcDbPolyline
 90
        2
 70
     0
 39
0.003
 10
0.368634
 20
1.901945
 40
0.003
 41
0.003
 10
-0.269992
 20
1.535732
 40
0.003
 41
0.003
  0
LWPOLYLINE
  5
452
100
AcDbEntity
  8
0
 62
     0
100
AcDbPolyline
 90
        2
 70
     0
 39
0.003
 10
-0.269992
 20
1.535732
 40
0.003
 41
0.003
 10
-0.251346
 20
1.535201
 40
0.003
 41
0.003
  0
LWPOLYLINE
  5
453
100
AcDbEntity
  8
0
 62
     0
100
AcDbPolyline
 90
        2
 70
     0
 39
0.003
 10
-0.251346
 20
1.535201
 40
0.003
 41
0.003
 10
-0.233913
 20
1.533201
 40
0.003
 41
0.003
  0
LWPOLYLINE
  5
454
100
AcDbEntity
  8
0
 62
     0
100
AcDbPolyline
 90
        2
 70
     0
 39
0.003
 10
-0.233913
 20
1.533201
 40
0.003
 41
0.003
 10
-0.217693
 20
1.529811
 40
0.003
 41
0.003
  0
LWPOLYLINE
  5
455
100
AcDbEntity
  8
0
 62
     0
100
AcDbPolyline
 90
        2
 70
     0
 39
0.003
 10
-0.217693
 20
1.529811
 40
0.003
 41
0.003
 10
-0.202669
 20
1.525146
 40
0.003
 41
0.003
  0
LWPOLYLINE
  5
456
100
AcDbEntity
  8
0
 62
     0
100
AcDbPolyline
 90
        2
 70
     0
 39
0.003
 10
-0.202669
 20
1.525146
 40
0.003
 41
0.003
 10
-0.188858
 20
1.51928
 40
0.003
 41
0.003
  0
LWPOLYLINE
  5
457
100
AcDbEntity
  8
0
 62
     0
100
AcDbPolyline
 90
        2
 70
     0
 39
0.003
 10
-0.188858
 20
1.51928
 40
0.003
 41
0.003
 10
-0.176244
 20
1.512327
 40
0.003
 41
0.003
  0
LWPOLYLINE
  5
458
100
AcDbEntity
  8
0
 62
     0
100
AcDbPolyline
 90
        2
 70
     0
 39
0.003
 10
-0.176244
 20
1.512327
 40
0.003
 41
0.003
 10
-0.164827
 20
1.50437
 40
0.003
 41
0.003
  0
LWPOLYLINE
  5
459
100
AcDbEntity
  8
0
 62
     0
100
AcDbPolyline
 90
        2
 70
     0
 39
0.003
 10
-0.164827
 20
1.50437
 40
0.003
 41
0.003
 10
-0.154598
 20
1.49552
 40
0.003
 41
0.003
  0
LWPOLYLINE
  5
45A
100
AcDbEntity
  8
0
 62
     0
100
AcDbPolyline
 90
        2
 70
     0
 39
0.003
 10
-0.154598
 20
1.49552
 40
0.003
 41
0.003
 10
-0.145571
 20
1.48585
 40
0.003
 41
0.003
  0
LWPOLYLINE
  5
45B
100
AcDbEntity
  8
0
 62
     0
100
AcDbPolyline
 90
        2
 70
     0
 39
0.003
 10
-0.145571
 20
1.48585
 40
0.003
 41
0.003
 10
-0.137717
 20
1.47548
 40
0.003
 41
0.003
  0
LWPOLYLINE
  5
45C
100
AcDbEntity
  8
0
 62
     0
100
AcDbPolyline
 90
        2
 70
     0
 39
0.003
 10
-0.137717
 20
1.47548
 40
0.003
 41
0.003
 10
-0.131043
 20
1.464488
 40
0.003
 41
0.003
  0
LWPOLYLINE
  5
45D
100
AcDbEntity
  8
0
 62
     0
100
AcDbPolyline
 90
        2
 70
     0
 39
0.003
 10
-0.131043
 20
1.464488
 40
0.003
 41
0.003
 10
-0.125547
 20
1.452988
 40
0.003
 41
0.003
  0
LWPOLYLINE
  5
45E
100
AcDbEntity
  8
0
 62
     0
100
AcDbPolyline
 90
        2
 70
     0
 39
0.003
 10
-0.125547
 20
1.452988
 40
0.003
 41
0.003
 10
-0.121228
 20
1.441059
 40
0.003
 41
0.003
  0
LWPOLYLINE
  5
45F
100
AcDbEntity
  8
0
 62
     0
100
AcDbPolyline
 90
        2
 70
     0
 39
0.003
 10
-0.121228
 20
1.441059
 40
0.003
 41
0.003
 10
-0.118075
 20
1.428807
 40
0.003
 41
0.003
  0
LWPOLYLINE
  5
460
100
AcDbEntity
  8
0
 62
     0
100
AcDbPolyline
 90
        2
 70
     0
 39
0.003
 10
-0.118075
 20
1.428807
 40
0.003
 41
0.003
 10
-0.116087
 20
1.416323
 40
0.003
 41
0.003
  0
LWPOLYLINE
  5
461
100
AcDbEntity
  8
0
 62
     0
100
AcDbPolyline
 90
        2
 70
     0
 39
0.003
 10
-0.116087
 20
1.416323
 40
0.003
 41
0.003
 10
-0.115256
 20
1.403709
 40
0.003
 41
0.003
  0
LWPOLYLINE
  5
462
100
AcDbEntity
  8
0
 62
     0
100
AcDbPolyline
 90
        2
 70
     0
 39
0.003
 10
-0.115256
 20
1.403709
 40
0.003
 41
0.003
 10
-0.115594
 20
1.391047
 40
0.003
 41
0.003
  0
LWPOLYLINE
  5
463
100
AcDbEntity
  8
0
 62
     0
100
AcDbPolyline
 90
        2
 70
     0
 39
0.003
 10
-0.115594
 20
1.391047
 40
0.003
 41
0.003
 10
-0.117079
 20
1.378445
 40
0.003
 41
0.003
  0
LWPOLYLINE
  5
464
100
AcDbEntity
  8
0
 62
     0
100
AcDbPolyline
 90
        2
 70
     0
 39
0.003
 10
-0.117079
 20
1.378445
 40
0.003
 41
0.003
 10
-0.119717
 20
1.365996
 40
0.003
 41
0.003
  0
LWPOLYLINE
  5
465
100
AcDbEntity
  8
0
 62
     0
100
AcDbPolyline
 90
        2
 70
     0
 39
0.003
 10
-0.119717
 20
1.365996
 40
0.003
 41
0.003
 10
-0.123492
 20
1.353799
 40
0.003
 41
0.003
  0
LWPOLYLINE
  5
466
100
AcDbEntity
  8
0
 62
     0
100
AcDbPolyline
 90
        2
 70
     0
 39
0.003
 10
-0.123492
 20
1.353799
 40
0.003
 41
0.003
 10
-0.128417
 20
1.341941
 40
0.003
 41
0.003
  0
LWPOLYLINE
  5
467
100
AcDbEntity
  8
0
 62
     0
100
AcDbPolyline
 90
        2
 70
     0
 39
0.003
 10
-0.128417
 20
1.341941
 40
0.003
 41
0.003
 10
-0.134476
 20
1.330531
 40
0.003
 41
0.003
  0
LWPOLYLINE
  5
468
100
AcDbEntity
  8
0
 62
     0
100
AcDbPolyline
 90
        2
 70
     0
 39
0.003
 10
-0.134476
 20
1.330531
 40
0.003
 41
0.003
 10
-0.141669
 20
1.319657
 40
0.003
 41
0.003
  0
LWPOLYLINE
  5
469
100
AcDbEntity
  8
0
 62
     0
100
AcDbPolyline
 90
        2
 70
     0
 39
0.003
 10
-0.141669
 20
1.319657
 40
0.003
 41
0.003
 10
-0.149992
 20
1.309421
 40
0.003
 41
0.003
  0
LWPOLYLINE
  5
46A
100
AcDbEntity
  8
0
 62
     0
100
AcDbPolyline
 90
        2
 70
     0
 39
0.003
 10
-0.149992
 20
1.309421
 40
0.003
 41
0.003
 10
-0.159445
 20
1.299906
 40
0.003
 41
0.003
  0
LWPOLYLINE
  5
46B
100
AcDbEntity
  8
0
 62
     0
100
AcDbPolyline
 90
        2
 70
     0
 39
0.003
 10
-0.159445
 20
1.299906
 40
0.003
 41
0.003
 10
-0.17002
 20
1.29122
 40
0.003
 41
0.003
  0
LWPOLYLINE
  5
46C
100
AcDbEntity
  8
0
 62
     0
100
AcDbPolyline
 90
        2
 70
     0
 39
0.003
 10
-0.17002
 20
1.29122
 40
0.003
 41
0.003
 10
-0.181717
 20
1.283453
 40
0.003
 41
0.003
  0
LWPOLYLINE
  5
46D
100
AcDbEntity
  8
0
 62
   254
100
AcDbPolyline
 90
        2
 70
     0
 39
0.003
 10
-0.269992
 20
1.535732
 40
0.003
 41
0.003
 10
0.368634
 20
1.901945
 40
0.003
 41
0.003
  0
LWPOLYLINE
  5
46E
100
AcDbEntity
  8
0
 62
   254
100
AcDbPolyline
 90
        2
 70
     0
 39
0.003
 10
0.368634
 20
1.901945
 40
0.003
 41
0.003
 10
0.368634
 20
2.007823
 40
0.003
 41
0.003
  0
LWPOLYLINE
  5
46F
100
AcDbEntity
  8
0
 62
   254
100
AcDbPolyline
 90
        2
 70
     0
 39
0.003
 10
0.368634
 20
2.007823
 40
0.003
 41
0.003
 10
-0.269992
 20
1.64161
 40
0.003
 41
0.003
  0
LWPOLYLINE
  5
470
100
AcDbEntity
  8
0
 62
   254
100
AcDbPolyline
 90
        2
 70
     0
 39
0.003
 10
-0.269992
 20
1.64161
 40
0.003
 41
0.003
 10
-0.269992
 20
1.535732
 40
0.003
 41
0.003
  0
LWPOLYLINE
  5
471
100
AcDbEntity
  8
0
 62
     0
100
AcDbPolyline
 90
        2
 70
     0
 39
0.003
 10
-0.269992
 20
1.535732
 40
0.003
 41
0.003
 10
0.368634
 20
1.901945
 40
0.003
 41
0.003
  0
LWPOLYLINE
  5
472
100
AcDbEntity
  8
0
 62
     0
100
AcDbPolyline
 90
        2
 70
     0
 39
0.003
 10
0.368634
 20
1.901945
 40
0.003
 41
0.003
 10
0.368634
 20
2.007823
 40
0.003
 41
0.003
  0
LWPOLYLINE
  5
473
100
AcDbEntity
  8
0
 62
     0
100
AcDbPolyline
 90
        2
 70
     0
 39
0.003
 10
0.368634
 20
2.007823
 40
0.003
 41
0.003
 10
-0.269992
 20
1.64161
 40
0.003
 41
0.003
  0
LWPOLYLINE
  5
474
100
AcDbEntity
  8
0
 62
     0
100
AcDbPolyline
 90
        2
 70
     0
 39
0.003
 10
-0.269992
 20
1.64161
 40
0.003
 41
0.003
 10
-0.269992
 20
1.535732
 40
0.003
 41
0.003
  0
LWPOLYLINE
  5
475
100
AcDbEntity
  8
0
 62
   253
100
AcDbPolyline
 90
        2
 70
     0
 39
0.003
 10
-0.269992
 20
1.64161
 40
0.003
 41
0.003
 10
0.368634
 20
2.007823
 40
0.003
 41
0.003
  0
LWPOLYLINE
  5
476
100
AcDbEntity
  8
0
 62
   253
100
AcDbPolyline
 90
        2
 70
     0
 39
0.003
 10
0.368634
 20
2.007823
 40
0.003
 41
0.003
 10
0.234291
 20
2.007823
 40
0.003
 41
0.003
  0
LWPOLYLINE
  5
477
100
AcDbEntity
  8
0
 62
   253
100
AcDbPolyline
 90
        2
 70
     0
 39
0.003
 10
0.234291
 20
2.007823
 40
0.003
 41
0.003
 10
-0.404335
 20
1.64161
 40
0.003
 41
0.003
  0
LWPOLYLINE
  5
478
100
AcDbEntity
  8
0
 62
   253
100
AcDbPolyline
 90
        2
 70
     0
 39
0.003
 10
-0.404335
 20
1.64161
 40
0.003
 41
0.003
 10
-0.269992
 20
1.64161
 40
0.003
 41
0.003
  0
LWPOLYLINE
  5
479
100
AcDbEntity
  8
0
 62
     0
100
AcDbPolyline
 90
        2
 70
     0
 39
0.003
 10
-0.269992
 20
1.64161
 40
0.003
 41
0.003
 10
0.368634
 20
2.007823
 40
0.003
 41
0.003
  0
LWPOLYLINE
  5
47A
100
AcDbEntity
  8
0
 62
     0
100
AcDbPolyline
 90
        2
 70
     0
 39
0.003
 10
0.368634
 20
2.007823
 40
0.003
 41
0.003
 10
0.234291
 20
2.007823
 40
0.003
 41
0.003
  0
LWPOLYLINE
  5
47B
100
AcDbEntity
  8
0
 62
     0
100
AcDbPolyline
 90
        2
 70
     0
 39
0.003
 10
0.234291
 20
2.007823
 40
0.003
 41
0.003
 10
-0.404335
 20
1.64161
 40
0.003
 41
0.003
  0
LWPOLYLINE
  5
47C
100
AcDbEntity
  8
0
 62
     0
100
AcDbPolyline
 90
        2
 70
     0
 39
0.003
 10
-0.404335
 20
1.64161
 40
0.003
 41
0.003
 10
-0.269992
 20
1.64161
 40
0.003
 41
0.003
  0
LWPOLYLINE
  5
47D
100
AcDbEntity
  8
0
 62
   253
100
AcDbPolyline
 90
        2
 70
     0
 39
0.003
 10
-0.404335
 20
1.64161
 40
0.003
 41
0.003
 10
0.234291
 20
2.007823
 40
0.003
 41
0.003
  0
LWPOLYLINE
  5
47E
100
AcDbEntity
  8
0
 62
   253
100
AcDbPolyline
 90
        2
 70
     0
 39
0.003
 10
0.234291
 20
2.007823
 40
0.003
 41
0.003
 10
0.231673
 20
2.007799
 40
0.003
 41
0.003
  0
LWPOLYLINE
  5
47F
100
AcDbEntity
  8
0
 62
   253
100
AcDbPolyline
 90
        2
 70
     0
 39
0.003
 10
0.231673
 20
2.007799
 40
0.003
 41
0.003
 10
-0.406953
 20
1.641587
 40
0.003
 41
0.003
  0
LWPOLYLINE
  5
480
100
AcDbEntity
  8
0
 62
   253
100
AcDbPolyline
 90
        2
 70
     0
 39
0.003
 10
-0.406953
 20
1.641587
 40
0.003
 41
0.003
 10
-0.404335
 20
1.64161
 40
0.003
 41
0.003
  0
LWPOLYLINE
  5
481
100
AcDbEntity
  8
0
 62
     0
100
AcDbPolyline
 90
        2
 70
     0
 39
0.003
 10
-0.404335
 20
1.64161
 40
0.003
 41
0.003
 10
0.234291
 20
2.007823
 40
0.003
 41
0.003
  0
LWPOLYLINE
  5
482
100
AcDbEntity
  8
0
 62
     0
100
AcDbPolyline
 90
        2
 70
     0
 39
0.003
 10
0.234291
 20
2.007823
 40
0.003
 41
0.003
 10
0.231673
 20
2.007799
 40
0.003
 41
0.003
  0
LWPOLYLINE
  5
483
100
AcDbEntity
  8
0
 62
     0
100
AcDbPolyline
 90
        2
 70
     0
 39
0.003
 10
0.231673
 20
2.007799
 40
0.003
 41
0.003
 10
-0.406953
 20
1.641587
 40
0.003
 41
0.003
  0
LWPOLYLINE
  5
484
100
AcDbEntity
  8
0
 62
     0
100
AcDbPolyline
 90
        2
 70
     0
 39
0.003
 10
-0.406953
 20
1.641587
 40
0.003
 41
0.003
 10
-0.404335
 20
1.64161
 40
0.003
 41
0.003
  0
LWPOLYLINE
  5
485
100
AcDbEntity
  8
0
 62
     7
100
AcDbPolyline
 90
        2
 70
     0
 39
0.003
 10
-0.406953
 20
1.641587
 40
0.003
 41
0.003
 10
-0.406953
 20
0.526965
 40
0.003
 41
0.003
  0
LWPOLYLINE
  5
486
100
AcDbEntity
  8
0
 62
     7
100
AcDbPolyline
 90
        2
 70
     0
 39
0.003
 10
-0.406953
 20
0.526965
 40
0.003
 41
0.003
 10
0.190957
 20
0.526965
 40
0.003
 41
0.003
  0
LWPOLYLINE
  5
487
100
AcDbEntity
  8
0
 62
     7
100
AcDbPolyline
 90
        2
 70
     0
 39
0.003
 10
0.190957
 20
0.526965
 40
0.003
 41
0.003
 10
0.190957
 20
0.587598
 40
0.003
 41
0.003
  0
SPLINE
  5
488
100
AcDbEntity
  8
0
 62
     7
100
AcDbSpline
210
0.0
220
0.0
230
1.0
 70
     0
 71
     3
 72
     0
 73
     0
 74
    16
 44
0.0000000001
 11
0.1909566929133858
 21
0.5875984251968504
 31
0.0
 11
0.2297834645669291
 21
0.5908228346456693
 31
0.0
 11
0.2633346456692913
 21
0.5999409448818898
 31
0.0
 11
0.2916299212598425
 21
0.6140984251968504
 31
0.0
 11
0.3147007874015748
 21
0.6324645669291339
 31
0.0
 11
0.3325629921259842
 21
0.6541811023622047
 31
0.0
 11
0.345255905511811
 21
0.6784291338582678
 31
0.0
 11
0.3527992125984252
 21
0.7043543307086614
 31
0.0
 11
0.3552283464566929
 21
0.7311299212598426
 31
0.0
 11
0.3525551181102362
 21
0.7578937007874016
 31
0.0
 11
0.3448228346456693
 21
0.7838188976377953
 31
0.0
 11
0.3320511811023622
 21
0.8080629921259842
 31
0.0
 11
0.3142716535433071
 21
0.8297874015748031
 31
0.0
 11
0.291503937007874
 21
0.8481417322834646
 31
0.0
 11
0.2637795275590551
 21
0.8622992125984252
 31
0.0
 11
0.2311220472440945
 21
0.8714094488188976
 31
0.0
  0
LWPOLYLINE
  5
489
100
AcDbEntity
  8
0
 62
     7
100
AcDbPolyline
 90
        2
 70
     0
 39
0.003
 10
0.231122
 20
0.871409
 40
0.003
 41
0.003
 10
0.193567
 20
0.874634
 40
0.003
 41
0.003
  0
LWPOLYLINE
  5
48A
100
AcDbEntity
  8
0
 62
     7
100
AcDbPolyline
 90
        2
 70
     0
 39
0.003
 10
0.193567
 20
0.874634
 40
0.003
 41
0.003
 10
0.193567
 20
0.977657
 40
0.003
 41
0.003
  0
SPLINE
  5
48B
100
AcDbEntity
  8
0
 62
     7
100
AcDbSpline
210
0.0
220
0.0
230
1.0
 70
     0
 71
     3
 72
     0
 73
     0
 74
    32
 44
0.0000000001
 11
0.1935669291338583
 21
0.9776574803149606
 31
0.0
 11
0.1472992125984252
 21
0.9808503937007874
 31
0.0
 11
0.1024763779527559
 21
0.9865314960629922
 31
0.0
 11
0.0593070866141732
 21
0.9945787401574803
 31
0.0
 11
0.018003937007874
 21
1.0048858267716536
 31
0.0
 11
-0.0212283464566929
 21
1.0173188976377954
 31
0.0
 11
-0.0581968503937008
 21
1.0317755905511812
 31
0.0
 11
-0.0926732283464567
 21
1.0481299212598425
 31
0.0
 11
-0.1244685039370079
 21
1.0662834645669292
 31
0.0
 11
-0.1533503937007874
 21
1.0860944881889765
 31
0.0
 11
-0.1791259842519685
 21
1.1074645669291339
 31
0.0
 11
-0.2015826771653543
 21
1.1302677165354331
 31
0.0
 11
-0.2205196850393701
 21
1.1544015748031495
 31
0.0
 11
-0.2357125984251969
 21
1.1797322834645669
 31
0.0
 11
-0.2469685039370079
 21
1.2061574803149606
 31
0.0
 11
-0.2540748031496063
 21
1.2335511811023623
 31
0.0
 11
-0.2568228346456693
 21
1.2618110236220472
 31
0.0
 11
-0.2234566929133858
 21
1.2666456692913386
 31
0.0
 11
-0.1945118110236221
 21
1.2767086614173229
 31
0.0
 11
-0.1700078740157481
 21
1.2912204724409448
 31
0.0
 11
-0.1499842519685039
 21
1.3094212598425197
 31
0.0
 11
-0.1344566929133858
 21
1.3305314960629921
 31
0.0
 11
-0.1234763779527559
 21
1.3537992125984253
 31
0.0
 11
-0.1170590551181102
 21
1.3784448818897639
 31
0.0
 11
-0.115248031496063
 21
1.4037086614173229
 31
0.0
 11
-0.1180551181102362
 21
1.4288070866141733
 31
0.0
 11
-0.1255314960629921
 21
1.452988188976378
 31
0.0
 11
-0.1376968503937008
 21
1.4754803149606299
 31
0.0
 11
-0.1545905511811024
 21
1.4955196850393702
 31
0.0
 11
-0.1762283464566929
 21
1.5123267716535433
 31
0.0
 11
-0.2026574803149606
 21
1.5251456692913385
 31
0.0
 11
-0.2339015748031496
 21
1.5332007874015747
 31
0.0
  0
LWPOLYLINE
  5
48C
100
AcDbEntity
  8
0
 62
     7
100
AcDbPolyline
 90
        2
 70
     0
 39
0.003
 10
-0.233902
 20
1.533201
 40
0.003
 41
0.003
 10
-0.269992
 20
1.535732
 40
0.003
 41
0.003
  0
LWPOLYLINE
  5
48D
100
AcDbEntity
  8
0
 62
     7
100
AcDbPolyline
 90
        2
 70
     0
 39
0.003
 10
-0.269992
 20
1.535732
 40
0.003
 41
0.003
 10
-0.269992
 20
1.64161
 40
0.003
 41
0.003
  0
LWPOLYLINE
  5
48E
100
AcDbEntity
  8
0
 62
     7
100
AcDbPolyline
 90
        2
 70
     0
 39
0.003
 10
-0.269992
 20
1.64161
 40
0.003
 41
0.003
 10
-0.404335
 20
1.64161
 40
0.003
 41
0.003
  0
LWPOLYLINE
  5
48F
100
AcDbEntity
  8
0
 62
     7
100
AcDbPolyline
 90
        2
 70
     0
 39
0.003
 10
-0.404335
 20
1.64161
 40
0.003
 41
0.003
 10
-0.406953
 20
1.641587
 40
0.003
 41
0.003
  0
MTEXT
  5
490
100
AcDbEntity
  8
0
 62
     0
100
AcDbMText
 10
-0.820276
 20
0.603811
 30
0.0
 40
0.166665
 41
0.0
 71
     1
 72
     1
  1
{\fBookman Old Style|b0|i0|c0|p32;BA  1455}
 73
     1
 44
1.0
  0
MTEXT
  5
491
100
AcDbEntity
  8
0
 62
     0
100
AcDbMText
 10
-0.820276
 20
0.416311
 30
0.0
 40
0.166665
 41
0.0
 71
     1
 72
     1
  1
{\fBookman Old Style|b0|i0|c0|p32;3/4" x 1-1/8"}
 73
     1
 44
1.0
  0
ENDSEC
  0
SECTION
  2
OBJECTS
  0
DICTIONARY
  5
19
100
AcDbDictionary
280
     0
281
     1
  3
ACAD_GROUP
350
1A
  3
ACAD_MLINESTYLE
350
1B
  3
ACAD_LAYOUT
350
1E
  3
ACAD_PLOTSETTINGS
350
22
  3
ACAD_PLOTSTYLENAME
350
1F
  3
ACAD_WIPEOUT_VARS
350
23
  0
DICTIONARY
  5
1A
102
{ACAD_REACTORS
330
19
102
}
100
AcDbDictionary
280
     0
281
     1
  0
DICTIONARY
  5
1B
102
{ACAD_REACTORS
330
19
102
}
100
AcDbDictionary
280
     0
281
     1
  3
Standard
350
1C
  0
MLINESTYLE
  5
1C
102
{ACAD_REACTORS
330
1B
102
}
100
AcDbMlineStyle
  2
Standard
 70
     0
  3

 62
     0
 51
90.0
 52
90.0
 71
     2
 49
0.5
 62
   256
  6
BYLAYER
 49
-0.5
 62
   256
  6
BYLAYER
  0
ACDBDICTIONARYWDFLT
  5
1F
102
{ACAD_REACTORS
330
19
102
}
100
AcDbDictionary
281
     1
  3
Normal
350
1D
100
AcDbDictionaryWithDefault
340
1D
  0
ACDBPLACEHOLDER
  5
1D
102
{ACAD_REACTORS
330
1F
102
}
  0
LAYOUT
  5
20
102
{ACAD_REACTORS
330
1E
102
}
100
AcDbPlotSettings
  1

  2

  4

  6

 40
0.0
 41
0.0
 42
0.0
 43
0.0
 44
0.0
 45
0.0
 46
0.0
 47
0.0
 48
0.0
 49
0.0
140
0.0
141
0.0
142
1.0
143
1.0
 70
  1024
 72
     0
 73
     0
 74
     0
  7

 75
     0
147
1.0
148
0.0
149
0.0
100
AcDbLayout
  1
Model
 70
     0
 71
     0
 10
0.0
 20
0.0
 11
0.0
 21
0.0
 12
0.0
 22
0.0
 32
0.0
 14
0.0
 24
0.0
 34
0.0
 15
0.0
 25
0.0
 35
0.0
146
0.0
 13
0.0
 23
0.0
 33
0.0
 16
0.0
 26
0.0
 36
0.0
 17
0.0
 27
0.0
 37
0.0
 76
     0
330
A
331
0
345
0
346
0
  0
LAYOUT
  5
21
102
{ACAD_REACTORS
330
1E
102
}
100
AcDbPlotSettings
  1

  2

  4

  6

 40
0.0
 41
0.0
 42
0.0
 43
0.0
 44
0.0
 45
0.0
 46
0.0
 47
0.0
 48
0.0
 49
0.0
140
0.0
141
0.0
142
1.0
143
1.0
 70
     0
 72
     0
 73
     0
 74
     0
  7

 75
     0
147
1.0
148
0.0
149
0.0
100
AcDbLayout
  1
Layout1
 70
     0
 71
     0
 10
0.0
 20
0.0
 11
0.0
 21
0.0
 12
0.0
 22
0.0
 32
0.0
 14
0.0
 24
0.0
 34
0.0
 15
0.0
 25
0.0
 35
0.0
146
0.0
 13
0.0
 23
0.0
 33
0.0
 16
0.0
 26
0.0
 36
0.0
 17
0.0
 27
0.0
 37
0.0
 76
     0
330
B
331
0
345
0
346
0
  0
DICTIONARY
  5
1E
102
{ACAD_REACTORS
330
19
102
}
100
AcDbDictionary
280
     0
281
     1
  3
Layout1
350
21
  3
Model
350
20
  0
DICTIONARY
  5
22
102
{ACAD_REACTORS
330
19
102
}
100
AcDbDictionary
280
     0
281
     1
  0
WIPEOUTVARIABLES
  5
23
100
AcDbWipeoutVariables
 70
     1
  0
ENDSEC
  0
EOF
