  0
SECTION
  2
HEADER
  9
$ACADVER
  1
AC1015
  9
$ACADMAINTVER
 70
     6
  9
$DWGCODEPAGE
  3
DOS850
  9
$INSBASE
 10
0.0
 20
0.0
 30
0.0
  9
$EXTMIN
 10
1.000000E+20
 20
1.000000E+20
 30
1.000000E+20
  9
$EXTMAX
 10
-1.000000E+20
 20
-1.000000E+20
 30
-1.000000E+20
  9
$LIMMIN
 10
0.0
 20
0.0
  9
$LIMMAX
 10
0.0
 20
0.0
  9
$ORTHOMODE
 70
     0
  9
$REGENMODE
 70
     1
  9
$FILLMODE
 70
     1
  9
$QTEXTMODE
 70
     0
  9
$MIRRTEXT
 70
     1
  9
$LTSCALE
 40
1.0
  9
$ATTMODE
 70
     1
  9
$TEXTSIZE
 40
0.2
  9
$TRACEWID
 40
0.05
  9
$TEXTSTYLE
  7
Standard
  9
$CLAYER
  8
0
  9
$CELTYPE
  6
Continuous
  9
$CECOLOR
 62
   256
  9
$CELTSCALE
 40
1.0
  9
$DISPSILH
 70
     0
  9
$DIMSCALE
 40
1.0
  9
$DIMASZ
 40
0.18
  9
$DIMEXO
 40
0.0625
  9
$DIMDLI
 40
0.38
  9
$DIMRND
 40
0.0
  9
$DIMDLE
 40
0.0
  9
$DIMEXE
 40
0.18
  9
$DIMTP
 40
0.0
  9
$DIMTM
 40
0.0
  9
$DIMTXT
 40
0.18
  9
$DIMCEN
 40
0.09
  9
$DIMTSZ
 40
0.0
  9
$DIMTOL
 70
     0
  9
$DIMLIM
 70
     0
  9
$DIMTIH
 70
     1
  9
$DIMTOH
 70
     1
  9
$DIMSE1
 70
     0
  9
$DIMSE2
 70
     0
  9
$DIMTAD
 70
     0
  9
$DIMZIN
 70
     0
  9
$DIMBLK
  1

  9
$DIMASO
 70
     1
  9
$DIMSHO
 70
     1
  9
$DIMPOST
  1

  9
$DIMAPOST
  1

  9
$DIMALT
 70
     0
  9
$DIMALTD
 70
     2
  9
$DIMALTF
 40
25.4
  9
$DIMLFAC
 40
1.0
  9
$DIMTOFL
 70
     0
  9
$DIMTVP
 40
0.0
  9
$DIMTIX
 70
     0
  9
$DIMSOXD
 70
     0
  9
$DIMSAH
 70
     0
  9
$DIMBLK1
  1

  9
$DIMBLK2
  1

  9
$DIMSTYLE
  2
Standard
  9
$DIMCLRD
 70
     0
  9
$DIMCLRE
 70
     0
  9
$DIMCLRT
 70
     0
  9
$DIMTFAC
 40
1.0
  9
$DIMGAP
 40
0.09
  9
$DIMJUST
 70
     0
  9
$DIMSD1
 70
     0
  9
$DIMSD2
 70
     0
  9
$DIMTOLJ
 70
     1
  9
$DIMTZIN
 70
     0
  9
$DIMALTZ
 70
     0
  9
$DIMALTTZ
 70
     0
  9
$DIMUPT
 70
     0
  9
$DIMDEC
 70
     4
  9
$DIMTDEC
 70
     4
  9
$DIMALTU
 70
     2
  9
$DIMALTTD
 70
     2
  9
$DIMTXSTY
  7
Standard
  9
$DIMAUNIT
 70
     0
  9
$DIMADEC
 70
     0
  9
$DIMALTRND
 40
0.0
  9
$DIMAZIN
 70
     0
  9
$DIMDSEP
 70
     0
  9
$DIMATFIT
 70
     3
  9
$DIMFRAC
 70
     0
  9
$DIMLDRBLK
  1

  9
$DIMLUNIT
 70
     2
  9
$DIMLWD
 70
     0
  9
$DIMLWE
 70
     0
  9
$DIMTMOVE
 70
     0
  9
$LUNITS
 70
     2
  9
$LUPREC
 70
     4
  9
$SKETCHINC
 40
0.1
  9
$FILLETRAD
 40
0.0
  9
$AUNITS
 70
     0
  9
$AUPREC
 70
     0
  9
$MENU
  1
acad
  9
$ELEVATION
 40
0.0
  9
$PELEVATION
 40
0.0
  9
$THICKNESS
 40
0.0
  9
$LIMCHECK
 70
     0
  9
$CHAMFERA
 40
0.0
  9
$CHAMFERB
 40
0.0
  9
$CHAMFERC
 40
0.0
  9
$CHAMFERD
 40
0.0
  9
$SKPOLY
 70
     0
  9
$TDCREATE
 40
0.000000000
  9
$TDUCREATE
 40
0.000000000
  9
$TDUPDATE
 40
0.000000000
  9
$TDUUPDATE
 40
0.000000000
  9
$TDINDWG
 40
0.0000000000
  9
$TDUSRTIMER
 40
0.0000000000
  9
$USRTIMER
 70
     1
  9
$ANGBASE
 50
0.0
  9
$ANGDIR
 70
     0
  9
$PDMODE
 70
     0
  9
$PDSIZE
 40
0.0
  9
$PLINEWID
 40
0.0
  9
$SPLFRAME
 70
     0
  9
$SPLINETYPE
 70
     6
  9
$SPLINESEGS
 70
     8
  9
$HANDSEED
  5
1E2
  9
$SURFTAB1
 70
     6
  9
$SURFTAB2
 70
     6
  9
$SURFTYPE
 70
     6
  9
$SURFU
 70
     6
  9
$SURFV
 70
     6
  9
$UCSBASE
  2

  9
$UCSNAME
  2

  9
$UCSORG
 10
0.0
 20
0.0
 30
0.0
  9
$UCSXDIR
 10
1.0
 20
0.0
 30
0.0
  9
$UCSYDIR
 10
0.0
 20
1.0
 30
0.0
  9
$UCSORTHOREF
  2

  9
$UCSORTHOVIEW
 70
     0
  9
$UCSORGTOP
 10
0.0
 20
0.0
 30
0.0
  9
$UCSORGBOTTOM
 10
0.0
 20
0.0
 30
0.0
  9
$UCSORGLEFT
 10
0.0
 20
0.0
 30
0.0
  9
$UCSORGRIGHT
 10
0.0
 20
0.0
 30
0.0
  9
$UCSORGFRONT
 10
0.0
 20
0.0
 30
0.0
  9
$UCSORGBACK
 10
0.0
 20
0.0
 30
0.0
  9
$PUCSBASE
  2

  9
$PUCSNAME
  2

  9
$PUCSORG
 10
0.0
 20
0.0
 30
0.0
  9
$PUCSXDIR
 10
1.0
 20
0.0
 30
0.0
  9
$PUCSYDIR
 10
0.0
 20
1.0
 30
0.0
  9
$PUCSORTHOREF
  2

  9
$PUCSORTHOVIEW
 70
     0
  9
$PUCSORGTOP
 10
0.0
 20
0.0
 30
0.0
  9
$PUCSORGBOTTOM
 10
0.0
 20
0.0
 30
0.0
  9
$PUCSORGLEFT
 10
0.0
 20
0.0
 30
0.0
  9
$PUCSORGRIGHT
 10
0.0
 20
0.0
 30
0.0
  9
$PUCSORGFRONT
 10
0.0
 20
0.0
 30
0.0
  9
$PUCSORGBACK
 10
0.0
 20
0.0
 30
0.0
  9
$USERI1
 70
     0
  9
$USERI2
 70
     0
  9
$USERI3
 70
     0
  9
$USERI4
 70
     0
  9
$USERI5
 70
     0
  9
$USERR1
 40
0.0
  9
$USERR2
 40
0.0
  9
$USERR3
 40
0.0
  9
$USERR4
 40
0.0
  9
$USERR5
 40
0.0
  9
$WORLDVIEW
 70
     1
  9
$SHADEDGE
 70
     3
  9
$SHADEDIF
 70
    70
  9
$TILEMODE
 70
     1
  9
$MAXACTVP
 70
    16
  9
$PINSBASE
 10
0.0
 20
0.0
 30
0.0
  9
$PLIMCHECK
 70
     0
  9
$PEXTMIN
 10
1.000000E+20
 20
1.000000E+20
 30
1.000000E+20
  9
$PEXTMAX
 10
-1.000000E+20
 20
-1.000000E+20
 30
-1.000000E+20
  9
$PLIMMIN
 10
0.0
 20
0.0
  9
$PLIMMAX
 10
12.0
 20
9.0
  9
$UNITMODE
 70
     0
  9
$VISRETAIN
 70
     0
  9
$PLINEGEN
 70
     1
  9
$PSLTSCALE
 70
     0
  9
$TREEDEPTH
 70
  3020
  9
$CMLSTYLE
  2
Standard
  9
$CMLJUST
 70
     0
  9
$CMLSCALE
 40
1.0
  9
$PROXYGRAPHICS
 70
     0
  9
$MEASUREMENT
 70
     0
  9
$CELWEIGHT
370
     0
  9
$ENDCAPS
280
     0
  9
$JOINSTYLE
280
     0
  9
$LWDISPLAY
290
     0
  9
$INSUNITS
 70
     0
  9
$HYPERLINKBASE
  1

  9
$XEDIT
290
     1
  9
$CEPSNTYPE
380
     0
  9
$PSTYLEMODE
290
     1
  9
$FINGERPRINTGUID
  2

  9
$VERSIONGUID
  2

  9
$EXTNAMES
290
     1
  9
$PSVPSCALE
 40
0.0
  0
ENDSEC
  0
SECTION
  2
CLASSES
  0
CLASS
  1
LWPOLYLINE
  2
AcDbPolyline
  3
AutoCAD 2000
 90
        0
280
     0
281
     1
  0
CLASS
  1
IMAGE
  2
AcDbRasterImage
  3
ISM
 90
    32895
280
     0
281
     1
  0
CLASS
  1
OLE2FRAME
  2
AcDbOle2Frame
  3
AutoCAD 2000
 90
    32768
280
     0
281
     1
  0
CLASS
  1
HATCH
  2
AcDbHatch
  3
AutoCAD 2000
 90
    32768
280
     0
281
     1
  0
CLASS
  1
DICTIONARYVAR
  2
AcDbDictionaryVar
  3
AutoCAD 2000
 90
    32768
280
     0
281
     0
  0
CLASS
  1
RASTERVARIABLES
  2
AcDbRasterVariables
  3
ISM
 90
    32768
280
     0
281
     0
  0
CLASS
  1
IMAGEDEF
  2
AcDbRasterImageDef
  3
ISM
 90
    32768
280
     0
281
     0
  0
CLASS
  1
IMAGEDEF_REACTOR
  2
AcDbRasterImageDefReactor
  3
ISM
 90
    32769
280
     0
281
     0
  0
CLASS
  1
IDBUFFER
  2
AcDbIdBuffer
  3
AutoCAD 2000
 90
    32768
280
     0
281
     0
  0
CLASS
  1
SPATIAL_FILTER
  2
AcDbSpatialFilter
  3
AutoCAD 2000
 90
    32768
280
     0
281
     0
  0
CLASS
  1
XRECORD
  2
AcDbXrecord
  3
AutoCAD 2000
 90
    32768
280
     0
281
     0
  0
CLASS
  1
SORTENTSTABLE
  2
AcDbSortentsTable
  3
AutoCAD 2000
 90
    32768
280
     0
281
     0
  0
CLASS
  1
LAYER_INDEX
  2
AcDbLayerIndex
  3
AutoCAD 2000
 90
    32768
280
     0
281
     0
  0
CLASS
  1
SPATIAL_INDEX
  2
AcDbSpatialIndex
  3
AutoCAD 2000
 90
    32768
280
     0
281
     0
  0
CLASS
  1
OBJECT_PTR
  2
CAseDLPNTableRecord
  3
"ASE-LPNTableRecord"
 90
    32769
280
     0
281
     0
  0
CLASS
  1
LAYOUT
  2
AcDbLayout
  3
AutoCAD 2000
 90
        0
280
     0
281
     0
  0
CLASS
  1
PLOTSETTINGS
  2
AcDbPlotSettings
  3
AutoCAD 2000
 90
    32768
280
     0
281
     0
  0
CLASS
  1
ACDBDICTIONARYWDFLT
  2
AcDbDictionaryWithDefault
  3
AutoCAD 2000
 90
        0
280
     0
281
     0
  0
CLASS
  1
ACDBPLACEHOLDER
  2
AcDbPlaceHolder
  3
AutoCAD 2000
 90
        0
280
     0
281
     0
  0
CLASS
  1
VBA_PROJECT
  2
AcDbVbaProject
  3
acadvba
 90
    32768
280
     0
281
     0
  0
CLASS
  1
WIPEOUT
  2
AcDbWipeout
  3
WipeOut|AutoCAD Express Tool|expresstools@autodesk.com
 90
    32895
280
     0
281
     1
  0
CLASS
  1
WIPEOUTVARIABLES
  2
AcDbWipeoutVariables
  3
WipeOut|AutoCAD Express Tool|expresstools@autodesk.com
 90
        0
280
     0
281
     0
  0
CLASS
  1
RTEXT
  2
RText
  3
RText|AutoCAD Express Tool|expresstools@autodesk.com
 90
    32768
280
     0
281
     1
  0
CLASS
  1
ARCALIGNEDTEXT
  2
AcDbArcAlignedText
  3
ATEXT|AutoCAD Express Tool|expresstools@autodesk.com
 90
    32768
280
     0
281
     1
  0
ENDSEC
  0
SECTION
  2
TABLES
  0
TABLE
  2
VPORT
  5
7
100
AcDbSymbolTable
 70
     1
  0
VPORT
  5
15
100
AcDbSymbolTableRecord
100
AcDbViewportTableRecord
  2
*ACTIVE
 70
     0
 10
0.0
 20
0.0
 11
1.0
 21
1.0
 12
6.591288
 22
4.579184
 13
0.0
 23
0.0
 14
1.0
 24
1.0
 15
0.0
 25
0.0
 16
0.0
 26
0.0
 36
1.0
 17
0.0
 27
0.0
 37
0.0
 40
9.158369
 41
0.688564
 42
50.0
 43
0.0
 44
0.0
 50
0.0
 51
0.0
 71
     0
 72
   100
 73
     1
 74
     1
 75
     0
 76
     0
 77
     0
 78
     0
281
     0
 65
     0
110
0.0
120
0.0
130
0.0
111
1.0
121
0.0
131
0.0
112
0.0
122
1.0
132
0.0
345
0
346
0
 79
     0
146
0.0
  0
ENDTAB
  0
TABLE
  2
LTYPE
  5
4
100
AcDbSymbolTable
 70
     3
  0
LTYPE
  5
11
100
AcDbSymbolTableRecord
100
AcDbLinetypeTableRecord
  2
ByBlock
 70
    64
  3

 72
    65
 73
     0
 40
0.0
  0
LTYPE
  5
12
100
AcDbSymbolTableRecord
100
AcDbLinetypeTableRecord
  2
ByLayer
 70
    64
  3

 72
    65
 73
     0
 40
0.0
  0
LTYPE
  5
13
100
AcDbSymbolTableRecord
100
AcDbLinetypeTableRecord
  2
Continuous
 70
    64
  3
Solid line
 72
    65
 73
     0
 40
0.0
  0
ENDTAB
  0
TABLE
  2
LAYER
  5
2
100
AcDbSymbolTable
 70
     1
  0
LAYER
  5
14
100
AcDbSymbolTableRecord
100
AcDbLayerTableRecord
  2
0
 70
     0
 62
     7
  6
Continuous
290
     1
370
    -3
390
1D
  0
ENDTAB
  0
TABLE
  2
STYLE
  5
3
100
AcDbSymbolTable
 70
     1
  0
STYLE
  5
17
100
AcDbSymbolTableRecord
100
AcDbTextStyleTableRecord
  2
Standard
 70
     0
 40
0.0
 41
1.0
 50
0.0
 71
     0
 42
0.0
  3
txt
  4

  0
ENDTAB
  0
TABLE
  2
VIEW
  5
5
100
AcDbSymbolTable
 70
     0
  0
ENDTAB
  0
TABLE
  2
UCS
  5
6
100
AcDbSymbolTable
 70
     0
  0
ENDTAB
  0
TABLE
  2
APPID
  5
8
100
AcDbSymbolTable
 70
     1
  0
APPID
  5
16
100
AcDbSymbolTableRecord
100
AcDbRegAppTableRecord
  2
ACAD
 70
     0
  0
ENDTAB
  0
TABLE
  2
DIMSTYLE
  5
9
100
AcDbSymbolTable
 70
     1
100
AcDbDimStyleTable
 71
     0
  0
DIMSTYLE
105
18
100
AcDbSymbolTableRecord
100
AcDbDimStyleTableRecord
  2
Standard
 70
     0
  3

  4

 40
1.0
 41
0.18
 42
0.0625
 43
0.38
 44
0.18
 45
0.0
 46
0.0
 47
0.0
 48
0.0
 71
     0
 72
     0
 73
     1
 74
     1
 75
     0
 76
     0
 77
     0
 78
     0
 79
     0
140
0.18
141
0.09
142
0.0
143
25.4
144
1.0
145
0.0
146
1.0
147
0.09
148
0.0
170
     0
171
     2
172
     0
173
     0
174
     0
175
     0
176
     0
177
     0
178
     0
179
     0
271
     4
272
     4
273
     2
274
     2
275
     0
276
     0
277
     2
278
    46
279
     0
280
     0
281
     0
282
     0
283
     1
284
     0
285
     0
286
     0
288
     0
340
17
341
0
342
0
343
0
344
0
371
    -2
372
    -2
  0
ENDTAB
  0
TABLE
  2
BLOCK_RECORD
  5
1
100
AcDbSymbolTable
 70
     0
  0
BLOCK_RECORD
  5
A
100
AcDbSymbolTableRecord
100
AcDbBlockTableRecord
  2
*MODEL_SPACE
340
20
  0
BLOCK_RECORD
  5
B
100
AcDbSymbolTableRecord
100
AcDbBlockTableRecord
  2
*PAPER_SPACE
340
21
  0
ENDTAB
  0
ENDSEC
  0
SECTION
  2
BLOCKS
  0
BLOCK
  5
D
100
AcDbEntity
  8
0
100
AcDbBlockBegin
  2
*MODEL_SPACE
 70
     0
 10
0.0
 20
0.0
 30
0.0
  3
*MODEL_SPACE
  1

  0
ENDBLK
  5
E
100
AcDbEntity
  8
0
100
AcDbBlockEnd
  0
BLOCK
  5
F
100
AcDbEntity
 67
     1
  8
0
100
AcDbBlockBegin
  2
*PAPER_SPACE
 70
     0
 10
0.0
 20
0.0
 30
0.0
  3
*PAPER_SPACE
  1

  0
ENDBLK
  5
10
100
AcDbEntity
 67
     1
  8
0
100
AcDbBlockEnd
  0
ENDSEC
  0
SECTION
  2
ENTITIES
  0
SPLINE
  5
24
100
AcDbEntity
  8
0
 62
     0
100
AcDbSpline
210
0.0
220
0.0
230
1.0
 70
     0
 71
     3
 72
     0
 73
     0
 74
    32
 44
0.0000000001
 11
-0.0790866141732283
 21
1.307992125984252
 31
0.0
 11
0.2126496062992126
 21
1.3672244094488188
 31
0.0
 11
0.443259842519685
 21
1.4526692913385826
 31
0.0
 11
0.6166141732283464
 21
1.5601771653543308
 31
0.0
 11
0.7366023622047244
 21
1.6855984251968503
 31
0.0
 11
0.8070787401574803
 21
1.824779527559055
 31
0.0
 11
0.8319370078740157
 21
1.9735787401574802
 31
0.0
 11
0.8150433070866142
 21
2.1278464566929132
 31
0.0
 11
0.7602795275590552
 21
2.2834370078740158
 31
0.0
 11
0.6715078740157481
 21
2.4361889763779527
 31
0.0
 11
0.5526181102362204
 21
2.5819685039370079
 31
0.0
 11
0.4074803149606299
 21
2.7166220472440945
 31
0.0
 11
0.2399763779527559
 21
2.8360039370078742
 31
0.0
 11
0.0539724409448819
 21
2.9359606299212597
 31
0.0
 11
-0.1466496062992126
 21
3.0123503937007876
 31
0.0
 11
-0.3580157480314961
 21
3.0610157480314961
 31
0.0
 11
-0.576263779527559
 21
3.0778228346456693
 31
0.0
 11
-0.7945
 21
3.0610157480314961
 31
0.0
 11
-1.0058740157480315
 21
3.0123503937007876
 31
0.0
 11
-1.2065039370078741
 21
2.9359606299212597
 31
0.0
 11
-1.3925196850393702
 21
2.8360039370078742
 31
0.0
 11
-1.5600314960629922
 21
2.7166220472440945
 31
0.0
 11
-1.7051811023622048
 21
2.5819685039370079
 31
0.0
 11
-1.8240748031496063
 21
2.4361889763779527
 31
0.0
 11
-1.9128582677165353
 21
2.2834370078740158
 31
0.0
 11
-1.9676299212598425
 21
2.1278464566929132
 31
0.0
 11
-1.9845354330708662
 21
1.9735787401574802
 31
0.0
 11
-1.9596850393700787
 21
1.824779527559055
 31
0.0
 11
-1.8892165354330708
 21
1.6855984251968503
 31
0.0
 11
-1.7692401574803149
 21
1.5601771653543308
 31
0.0
 11
-1.5958858267716536
 21
1.4526692913385826
 31
0.0
 11
-1.365279527559055
 21
1.3672244094488188
 31
0.0
  0
LWPOLYLINE
  5
25
100
AcDbEntity
  8
0
 62
     0
100
AcDbPolyline
 90
        2
 70
     0
 39
0.01389
 10
-1.36528
 20
1.367224
 40
0.01389
 41
0.01389
 10
-1.073543
 20
1.307992
 40
0.01389
 41
0.01389
  0
LWPOLYLINE
  5
26
100
AcDbEntity
  8
0
 62
     0
100
AcDbPolyline
 90
        2
 70
     0
 39
0.01389
 10
-1.073543
 20
1.307992
 40
0.01389
 41
0.01389
 10
-1.073543
 20
1.807665
 40
0.01389
 41
0.01389
  0
LWPOLYLINE
  5
27
100
AcDbEntity
  8
0
 62
     0
100
AcDbPolyline
 90
        2
 70
     0
 39
0.01389
 10
-1.073543
 20
1.807665
 40
0.01389
 41
0.01389
 10
-0.079898
 20
1.807665
 40
0.01389
 41
0.01389
  0
LWPOLYLINE
  5
28
100
AcDbEntity
  8
0
 62
     0
100
AcDbPolyline
 90
        2
 70
     0
 39
0.01389
 10
-0.079898
 20
1.807665
 40
0.01389
 41
0.01389
 10
-0.079087
 20
1.307992
 40
0.01389
 41
0.01389
  0
MTEXT
  5
29
100
AcDbEntity
  8
0
 62
     0
100
AcDbMText
 10
-2.152028
 20
1.418858
 30
0.0
 40
0.166665
 41
0.0
 71
     1
 72
     1
  1
{\fBookman Old Style|b0|i0|c0|p32;BA  1447}
 73
     1
 44
1.0
  0
MTEXT
  5
2A
100
AcDbEntity
  8
0
 62
     0
100
AcDbMText
 10
-2.152028
 20
1.231358
 30
0.0
 40
0.166665
 41
0.0
 71
     1
 72
     1
  1
{\fBookman Old Style|b0|i0|c0|p32;1-3/4" x 2-13/16"}
 73
     1
 44
1.0
  0
LWPOLYLINE
  5
2B
100
AcDbEntity
  8
0
 62
     9
100
AcDbPolyline
 90
        2
 70
     0
 39
0.01389
 10
0.215228
 20
-1.810846
 40
0.01389
 41
0.01389
 10
0.861028
 20
-1.422862
 40
0.01389
 41
0.01389
  0
LWPOLYLINE
  5
2C
100
AcDbEntity
  8
0
 62
     9
100
AcDbPolyline
 90
        2
 70
     0
 39
0.01389
 10
0.861028
 20
-1.422862
 40
0.01389
 41
0.01389
 10
0.940795
 20
-1.366614
 40
0.01389
 41
0.01389
  0
LWPOLYLINE
  5
2D
100
AcDbEntity
  8
0
 62
     9
100
AcDbPolyline
 90
        2
 70
     0
 39
0.01389
 10
0.940795
 20
-1.366614
 40
0.01389
 41
0.01389
 10
0.294996
 20
-1.754598
 40
0.01389
 41
0.01389
  0
LWPOLYLINE
  5
2E
100
AcDbEntity
  8
0
 62
     9
100
AcDbPolyline
 90
        2
 70
     0
 39
0.01389
 10
0.294996
 20
-1.754598
 40
0.01389
 41
0.01389
 10
0.215228
 20
-1.810846
 40
0.01389
 41
0.01389
  0
LWPOLYLINE
  5
2F
100
AcDbEntity
  8
0
 62
   254
100
AcDbPolyline
 90
        2
 70
     0
 39
0.01389
 10
0.294996
 20
-1.754598
 40
0.01389
 41
0.01389
 10
0.940795
 20
-1.366614
 40
0.01389
 41
0.01389
  0
LWPOLYLINE
  5
30
100
AcDbEntity
  8
0
 62
   254
100
AcDbPolyline
 90
        2
 70
     0
 39
0.01389
 10
0.940795
 20
-1.366614
 40
0.01389
 41
0.01389
 10
1.007217
 20
-1.305882
 40
0.01389
 41
0.01389
  0
LWPOLYLINE
  5
31
100
AcDbEntity
  8
0
 62
   254
100
AcDbPolyline
 90
        2
 70
     0
 39
0.01389
 10
1.007217
 20
-1.305882
 40
0.01389
 41
0.01389
 10
0.361417
 20
-1.693866
 40
0.01389
 41
0.01389
  0
LWPOLYLINE
  5
32
100
AcDbEntity
  8
0
 62
   254
100
AcDbPolyline
 90
        2
 70
     0
 39
0.01389
 10
0.361417
 20
-1.693866
 40
0.01389
 41
0.01389
 10
0.294996
 20
-1.754598
 40
0.01389
 41
0.01389
  0
LWPOLYLINE
  5
33
100
AcDbEntity
  8
0
 62
   254
100
AcDbPolyline
 90
        2
 70
     0
 39
0.01389
 10
0.361417
 20
-1.693866
 40
0.01389
 41
0.01389
 10
1.007217
 20
-1.305882
 40
0.01389
 41
0.01389
  0
LWPOLYLINE
  5
34
100
AcDbEntity
  8
0
 62
   254
100
AcDbPolyline
 90
        2
 70
     0
 39
0.01389
 10
1.007217
 20
-1.305882
 40
0.01389
 41
0.01389
 10
1.060783
 20
-1.241197
 40
0.01389
 41
0.01389
  0
LWPOLYLINE
  5
35
100
AcDbEntity
  8
0
 62
   254
100
AcDbPolyline
 90
        2
 70
     0
 39
0.01389
 10
1.060783
 20
-1.241197
 40
0.01389
 41
0.01389
 10
0.414984
 20
-1.629181
 40
0.01389
 41
0.01389
  0
LWPOLYLINE
  5
36
100
AcDbEntity
  8
0
 62
   254
100
AcDbPolyline
 90
        2
 70
     0
 39
0.01389
 10
0.414984
 20
-1.629181
 40
0.01389
 41
0.01389
 10
0.361417
 20
-1.693866
 40
0.01389
 41
0.01389
  0
LWPOLYLINE
  5
37
100
AcDbEntity
  8
0
 62
   254
100
AcDbPolyline
 90
        2
 70
     0
 39
0.01389
 10
0.414984
 20
-1.629181
 40
0.01389
 41
0.01389
 10
1.060783
 20
-1.241197
 40
0.01389
 41
0.01389
  0
LWPOLYLINE
  5
38
100
AcDbEntity
  8
0
 62
   254
100
AcDbPolyline
 90
        2
 70
     0
 39
0.01389
 10
1.060783
 20
-1.241197
 40
0.01389
 41
0.01389
 10
1.101965
 20
-1.173063
 40
0.01389
 41
0.01389
  0
LWPOLYLINE
  5
39
100
AcDbEntity
  8
0
 62
   254
100
AcDbPolyline
 90
        2
 70
     0
 39
0.01389
 10
1.101965
 20
-1.173063
 40
0.01389
 41
0.01389
 10
0.456165
 20
-1.561047
 40
0.01389
 41
0.01389
  0
LWPOLYLINE
  5
3A
100
AcDbEntity
  8
0
 62
   254
100
AcDbPolyline
 90
        2
 70
     0
 39
0.01389
 10
0.456165
 20
-1.561047
 40
0.01389
 41
0.01389
 10
0.414984
 20
-1.629181
 40
0.01389
 41
0.01389
  0
LWPOLYLINE
  5
3B
100
AcDbEntity
  8
0
 62
   254
100
AcDbPolyline
 90
        2
 70
     0
 39
0.01389
 10
0.456165
 20
-1.561047
 40
0.01389
 41
0.01389
 10
1.101965
 20
-1.173063
 40
0.01389
 41
0.01389
  0
LWPOLYLINE
  5
3C
100
AcDbEntity
  8
0
 62
   254
100
AcDbPolyline
 90
        2
 70
     0
 39
0.01389
 10
1.101965
 20
-1.173063
 40
0.01389
 41
0.01389
 10
1.13126
 20
-1.102016
 40
0.01389
 41
0.01389
  0
LWPOLYLINE
  5
3D
100
AcDbEntity
  8
0
 62
   254
100
AcDbPolyline
 90
        2
 70
     0
 39
0.01389
 10
1.13126
 20
-1.102016
 40
0.01389
 41
0.01389
 10
0.485461
 20
-1.49
 40
0.01389
 41
0.01389
  0
LWPOLYLINE
  5
3E
100
AcDbEntity
  8
0
 62
   254
100
AcDbPolyline
 90
        2
 70
     0
 39
0.01389
 10
0.485461
 20
-1.49
 40
0.01389
 41
0.01389
 10
0.456165
 20
-1.561047
 40
0.01389
 41
0.01389
  0
LWPOLYLINE
  5
3F
100
AcDbEntity
  8
0
 62
   254
100
AcDbPolyline
 90
        2
 70
     0
 39
0.01389
 10
0.485461
 20
-1.49
 40
0.01389
 41
0.01389
 10
1.13126
 20
-1.102016
 40
0.01389
 41
0.01389
  0
LWPOLYLINE
  5
40
100
AcDbEntity
  8
0
 62
   254
100
AcDbPolyline
 90
        2
 70
     0
 39
0.01389
 10
1.13126
 20
-1.102016
 40
0.01389
 41
0.01389
 10
1.149146
 20
-1.028567
 40
0.01389
 41
0.01389
  0
LWPOLYLINE
  5
41
100
AcDbEntity
  8
0
 62
   254
100
AcDbPolyline
 90
        2
 70
     0
 39
0.01389
 10
1.149146
 20
-1.028567
 40
0.01389
 41
0.01389
 10
0.503346
 20
-1.416551
 40
0.01389
 41
0.01389
  0
LWPOLYLINE
  5
42
100
AcDbEntity
  8
0
 62
   254
100
AcDbPolyline
 90
        2
 70
     0
 39
0.01389
 10
0.503346
 20
-1.416551
 40
0.01389
 41
0.01389
 10
0.485461
 20
-1.49
 40
0.01389
 41
0.01389
  0
LWPOLYLINE
  5
43
100
AcDbEntity
  8
0
 62
   254
100
AcDbPolyline
 90
        2
 70
     0
 39
0.01389
 10
0.503346
 20
-1.416551
 40
0.01389
 41
0.01389
 10
1.149146
 20
-1.028567
 40
0.01389
 41
0.01389
  0
LWPOLYLINE
  5
44
100
AcDbEntity
  8
0
 62
   254
100
AcDbPolyline
 90
        2
 70
     0
 39
0.01389
 10
1.149146
 20
-1.028567
 40
0.01389
 41
0.01389
 10
1.156118
 20
-0.95322
 40
0.01389
 41
0.01389
  0
LWPOLYLINE
  5
45
100
AcDbEntity
  8
0
 62
   254
100
AcDbPolyline
 90
        2
 70
     0
 39
0.01389
 10
1.156118
 20
-0.95322
 40
0.01389
 41
0.01389
 10
0.510319
 20
-1.341205
 40
0.01389
 41
0.01389
  0
LWPOLYLINE
  5
46
100
AcDbEntity
  8
0
 62
   254
100
AcDbPolyline
 90
        2
 70
     0
 39
0.01389
 10
0.510319
 20
-1.341205
 40
0.01389
 41
0.01389
 10
0.503346
 20
-1.416551
 40
0.01389
 41
0.01389
  0
LWPOLYLINE
  5
47
100
AcDbEntity
  8
0
 62
   254
100
AcDbPolyline
 90
        2
 70
     0
 39
0.01389
 10
0.510319
 20
-1.341205
 40
0.01389
 41
0.01389
 10
1.156118
 20
-0.95322
 40
0.01389
 41
0.01389
  0
LWPOLYLINE
  5
48
100
AcDbEntity
  8
0
 62
   254
100
AcDbPolyline
 90
        2
 70
     0
 39
0.01389
 10
1.156118
 20
-0.95322
 40
0.01389
 41
0.01389
 10
1.152646
 20
-0.876516
 40
0.01389
 41
0.01389
  0
LWPOLYLINE
  5
49
100
AcDbEntity
  8
0
 62
   254
100
AcDbPolyline
 90
        2
 70
     0
 39
0.01389
 10
1.152646
 20
-0.876516
 40
0.01389
 41
0.01389
 10
0.506846
 20
-1.2645
 40
0.01389
 41
0.01389
  0
LWPOLYLINE
  5
4A
100
AcDbEntity
  8
0
 62
   254
100
AcDbPolyline
 90
        2
 70
     0
 39
0.01389
 10
0.506846
 20
-1.2645
 40
0.01389
 41
0.01389
 10
0.510319
 20
-1.341205
 40
0.01389
 41
0.01389
  0
LWPOLYLINE
  5
4B
100
AcDbEntity
  8
0
 62
   254
100
AcDbPolyline
 90
        2
 70
     0
 39
0.01389
 10
0.506846
 20
-1.2645
 40
0.01389
 41
0.01389
 10
1.152646
 20
-0.876516
 40
0.01389
 41
0.01389
  0
LWPOLYLINE
  5
4C
100
AcDbEntity
  8
0
 62
   254
100
AcDbPolyline
 90
        2
 70
     0
 39
0.01389
 10
1.152646
 20
-0.876516
 40
0.01389
 41
0.01389
 10
1.139224
 20
-0.798957
 40
0.01389
 41
0.01389
  0
LWPOLYLINE
  5
4D
100
AcDbEntity
  8
0
 62
   254
100
AcDbPolyline
 90
        2
 70
     0
 39
0.01389
 10
1.139224
 20
-0.798957
 40
0.01389
 41
0.01389
 10
0.493425
 20
-1.186941
 40
0.01389
 41
0.01389
  0
LWPOLYLINE
  5
4E
100
AcDbEntity
  8
0
 62
   254
100
AcDbPolyline
 90
        2
 70
     0
 39
0.01389
 10
0.493425
 20
-1.186941
 40
0.01389
 41
0.01389
 10
0.506846
 20
-1.2645
 40
0.01389
 41
0.01389
  0
LWPOLYLINE
  5
4F
100
AcDbEntity
  8
0
 62
   254
100
AcDbPolyline
 90
        2
 70
     0
 39
0.01389
 10
0.493425
 20
-1.186941
 40
0.01389
 41
0.01389
 10
1.139224
 20
-0.798957
 40
0.01389
 41
0.01389
  0
LWPOLYLINE
  5
50
100
AcDbEntity
  8
0
 62
   254
100
AcDbPolyline
 90
        2
 70
     0
 39
0.01389
 10
1.139224
 20
-0.798957
 40
0.01389
 41
0.01389
 10
1.116331
 20
-0.721067
 40
0.01389
 41
0.01389
  0
LWPOLYLINE
  5
51
100
AcDbEntity
  8
0
 62
   254
100
AcDbPolyline
 90
        2
 70
     0
 39
0.01389
 10
1.116331
 20
-0.721067
 40
0.01389
 41
0.01389
 10
0.470531
 20
-1.109051
 40
0.01389
 41
0.01389
  0
LWPOLYLINE
  5
52
100
AcDbEntity
  8
0
 62
   254
100
AcDbPolyline
 90
        2
 70
     0
 39
0.01389
 10
0.470531
 20
-1.109051
 40
0.01389
 41
0.01389
 10
0.493425
 20
-1.186941
 40
0.01389
 41
0.01389
  0
LWPOLYLINE
  5
53
100
AcDbEntity
  8
0
 62
   254
100
AcDbPolyline
 90
        2
 70
     0
 39
0.01389
 10
0.470531
 20
-1.109051
 40
0.01389
 41
0.01389
 10
1.116331
 20
-0.721067
 40
0.01389
 41
0.01389
  0
LWPOLYLINE
  5
54
100
AcDbEntity
  8
0
 62
   254
100
AcDbPolyline
 90
        2
 70
     0
 39
0.01389
 10
1.116331
 20
-0.721067
 40
0.01389
 41
0.01389
 10
1.084461
 20
-0.643366
 40
0.01389
 41
0.01389
  0
LWPOLYLINE
  5
55
100
AcDbEntity
  8
0
 62
   254
100
AcDbPolyline
 90
        2
 70
     0
 39
0.01389
 10
1.084461
 20
-0.643366
 40
0.01389
 41
0.01389
 10
0.438661
 20
-1.03135
 40
0.01389
 41
0.01389
  0
LWPOLYLINE
  5
56
100
AcDbEntity
  8
0
 62
   254
100
AcDbPolyline
 90
        2
 70
     0
 39
0.01389
 10
0.438661
 20
-1.03135
 40
0.01389
 41
0.01389
 10
0.470531
 20
-1.109051
 40
0.01389
 41
0.01389
  0
LWPOLYLINE
  5
57
100
AcDbEntity
  8
0
 62
   254
100
AcDbPolyline
 90
        2
 70
     0
 39
0.01389
 10
0.438661
 20
-1.03135
 40
0.01389
 41
0.01389
 10
1.084461
 20
-0.643366
 40
0.01389
 41
0.01389
  0
LWPOLYLINE
  5
58
100
AcDbEntity
  8
0
 62
   254
100
AcDbPolyline
 90
        2
 70
     0
 39
0.01389
 10
1.084461
 20
-0.643366
 40
0.01389
 41
0.01389
 10
1.044079
 20
-0.566378
 40
0.01389
 41
0.01389
  0
LWPOLYLINE
  5
59
100
AcDbEntity
  8
0
 62
   254
100
AcDbPolyline
 90
        2
 70
     0
 39
0.01389
 10
1.044079
 20
-0.566378
 40
0.01389
 41
0.01389
 10
0.39828
 20
-0.954362
 40
0.01389
 41
0.01389
  0
LWPOLYLINE
  5
5A
100
AcDbEntity
  8
0
 62
   254
100
AcDbPolyline
 90
        2
 70
     0
 39
0.01389
 10
0.39828
 20
-0.954362
 40
0.01389
 41
0.01389
 10
0.438661
 20
-1.03135
 40
0.01389
 41
0.01389
  0
LWPOLYLINE
  5
5B
100
AcDbEntity
  8
0
 62
   254
100
AcDbPolyline
 90
        2
 70
     0
 39
0.01389
 10
0.39828
 20
-0.954362
 40
0.01389
 41
0.01389
 10
1.044079
 20
-0.566378
 40
0.01389
 41
0.01389
  0
LWPOLYLINE
  5
5C
100
AcDbEntity
  8
0
 62
   254
100
AcDbPolyline
 90
        2
 70
     0
 39
0.01389
 10
1.044079
 20
-0.566378
 40
0.01389
 41
0.01389
 10
0.995689
 20
-0.490614
 40
0.01389
 41
0.01389
  0
LWPOLYLINE
  5
5D
100
AcDbEntity
  8
0
 62
   254
100
AcDbPolyline
 90
        2
 70
     0
 39
0.01389
 10
0.995689
 20
-0.490614
 40
0.01389
 41
0.01389
 10
0.34989
 20
-0.878598
 40
0.01389
 41
0.01389
  0
LWPOLYLINE
  5
5E
100
AcDbEntity
  8
0
 62
   254
100
AcDbPolyline
 90
        2
 70
     0
 39
0.01389
 10
0.34989
 20
-0.878598
 40
0.01389
 41
0.01389
 10
0.39828
 20
-0.954362
 40
0.01389
 41
0.01389
  0
LWPOLYLINE
  5
5F
100
AcDbEntity
  8
0
 62
   254
100
AcDbPolyline
 90
        2
 70
     0
 39
0.01389
 10
0.34989
 20
-0.878598
 40
0.01389
 41
0.01389
 10
0.995689
 20
-0.490614
 40
0.01389
 41
0.01389
  0
LWPOLYLINE
  5
60
100
AcDbEntity
  8
0
 62
   254
100
AcDbPolyline
 90
        2
 70
     0
 39
0.01389
 10
0.995689
 20
-0.490614
 40
0.01389
 41
0.01389
 10
0.939764
 20
-0.416594
 40
0.01389
 41
0.01389
  0
LWPOLYLINE
  5
61
100
AcDbEntity
  8
0
 62
   254
100
AcDbPolyline
 90
        2
 70
     0
 39
0.01389
 10
0.939764
 20
-0.416594
 40
0.01389
 41
0.01389
 10
0.293965
 20
-0.804579
 40
0.01389
 41
0.01389
  0
LWPOLYLINE
  5
62
100
AcDbEntity
  8
0
 62
   254
100
AcDbPolyline
 90
        2
 70
     0
 39
0.01389
 10
0.293965
 20
-0.804579
 40
0.01389
 41
0.01389
 10
0.34989
 20
-0.878598
 40
0.01389
 41
0.01389
  0
LWPOLYLINE
  5
63
100
AcDbEntity
  8
0
 62
   254
100
AcDbPolyline
 90
        2
 70
     0
 39
0.01389
 10
0.293965
 20
-0.804579
 40
0.01389
 41
0.01389
 10
0.939764
 20
-0.416594
 40
0.01389
 41
0.01389
  0
LWPOLYLINE
  5
64
100
AcDbEntity
  8
0
 62
   254
100
AcDbPolyline
 90
        2
 70
     0
 39
0.01389
 10
0.939764
 20
-0.416594
 40
0.01389
 41
0.01389
 10
0.876799
 20
-0.344835
 40
0.01389
 41
0.01389
  0
LWPOLYLINE
  5
65
100
AcDbEntity
  8
0
 62
   254
100
AcDbPolyline
 90
        2
 70
     0
 39
0.01389
 10
0.876799
 20
-0.344835
 40
0.01389
 41
0.01389
 10
0.231
 20
-0.732819
 40
0.01389
 41
0.01389
  0
LWPOLYLINE
  5
66
100
AcDbEntity
  8
0
 62
   254
100
AcDbPolyline
 90
        2
 70
     0
 39
0.01389
 10
0.231
 20
-0.732819
 40
0.01389
 41
0.01389
 10
0.293965
 20
-0.804579
 40
0.01389
 41
0.01389
  0
LWPOLYLINE
  5
67
100
AcDbEntity
  8
0
 62
   254
100
AcDbPolyline
 90
        2
 70
     0
 39
0.01389
 10
0.231
 20
-0.732819
 40
0.01389
 41
0.01389
 10
0.876799
 20
-0.344835
 40
0.01389
 41
0.01389
  0
LWPOLYLINE
  5
68
100
AcDbEntity
  8
0
 62
   254
100
AcDbPolyline
 90
        2
 70
     0
 39
0.01389
 10
0.876799
 20
-0.344835
 40
0.01389
 41
0.01389
 10
0.807268
 20
-0.275862
 40
0.01389
 41
0.01389
  0
LWPOLYLINE
  5
69
100
AcDbEntity
  8
0
 62
   254
100
AcDbPolyline
 90
        2
 70
     0
 39
0.01389
 10
0.807268
 20
-0.275862
 40
0.01389
 41
0.01389
 10
0.161469
 20
-0.663846
 40
0.01389
 41
0.01389
  0
LWPOLYLINE
  5
6A
100
AcDbEntity
  8
0
 62
   254
100
AcDbPolyline
 90
        2
 70
     0
 39
0.01389
 10
0.161469
 20
-0.663846
 40
0.01389
 41
0.01389
 10
0.231
 20
-0.732819
 40
0.01389
 41
0.01389
  0
LWPOLYLINE
  5
6B
100
AcDbEntity
  8
0
 62
   254
100
AcDbPolyline
 90
        2
 70
     0
 39
0.01389
 10
0.161469
 20
-0.663846
 40
0.01389
 41
0.01389
 10
0.807268
 20
-0.275862
 40
0.01389
 41
0.01389
  0
LWPOLYLINE
  5
6C
100
AcDbEntity
  8
0
 62
   254
100
AcDbPolyline
 90
        2
 70
     0
 39
0.01389
 10
0.807268
 20
-0.275862
 40
0.01389
 41
0.01389
 10
0.731661
 20
-0.210181
 40
0.01389
 41
0.01389
  0
LWPOLYLINE
  5
6D
100
AcDbEntity
  8
0
 62
   254
100
AcDbPolyline
 90
        2
 70
     0
 39
0.01389
 10
0.731661
 20
-0.210181
 40
0.01389
 41
0.01389
 10
0.085862
 20
-0.598165
 40
0.01389
 41
0.01389
  0
LWPOLYLINE
  5
6E
100
AcDbEntity
  8
0
 62
   254
100
AcDbPolyline
 90
        2
 70
     0
 39
0.01389
 10
0.085862
 20
-0.598165
 40
0.01389
 41
0.01389
 10
0.161469
 20
-0.663846
 40
0.01389
 41
0.01389
  0
LWPOLYLINE
  5
6F
100
AcDbEntity
  8
0
 62
   254
100
AcDbPolyline
 90
        2
 70
     0
 39
0.01389
 10
0.085862
 20
-0.598165
 40
0.01389
 41
0.01389
 10
0.731661
 20
-0.210181
 40
0.01389
 41
0.01389
  0
LWPOLYLINE
  5
70
100
AcDbEntity
  8
0
 62
   254
100
AcDbPolyline
 90
        2
 70
     0
 39
0.01389
 10
0.731661
 20
-0.210181
 40
0.01389
 41
0.01389
 10
0.650461
 20
-0.148323
 40
0.01389
 41
0.01389
  0
LWPOLYLINE
  5
71
100
AcDbEntity
  8
0
 62
   254
100
AcDbPolyline
 90
        2
 70
     0
 39
0.01389
 10
0.650461
 20
-0.148323
 40
0.01389
 41
0.01389
 10
0.004661
 20
-0.536307
 40
0.01389
 41
0.01389
  0
LWPOLYLINE
  5
72
100
AcDbEntity
  8
0
 62
   254
100
AcDbPolyline
 90
        2
 70
     0
 39
0.01389
 10
0.004661
 20
-0.536307
 40
0.01389
 41
0.01389
 10
0.085862
 20
-0.598165
 40
0.01389
 41
0.01389
  0
LWPOLYLINE
  5
73
100
AcDbEntity
  8
0
 62
   254
100
AcDbPolyline
 90
        2
 70
     0
 39
0.01389
 10
0.004661
 20
-0.536307
 40
0.01389
 41
0.01389
 10
0.650461
 20
-0.148323
 40
0.01389
 41
0.01389
  0
LWPOLYLINE
  5
74
100
AcDbEntity
  8
0
 62
   254
100
AcDbPolyline
 90
        2
 70
     0
 39
0.01389
 10
0.650461
 20
-0.148323
 40
0.01389
 41
0.01389
 10
0.564154
 20
-0.090799
 40
0.01389
 41
0.01389
  0
LWPOLYLINE
  5
75
100
AcDbEntity
  8
0
 62
   254
100
AcDbPolyline
 90
        2
 70
     0
 39
0.01389
 10
0.564154
 20
-0.090799
 40
0.01389
 41
0.01389
 10
-0.081646
 20
-0.478783
 40
0.01389
 41
0.01389
  0
LWPOLYLINE
  5
76
100
AcDbEntity
  8
0
 62
   254
100
AcDbPolyline
 90
        2
 70
     0
 39
0.01389
 10
-0.081646
 20
-0.478783
 40
0.01389
 41
0.01389
 10
0.004661
 20
-0.536307
 40
0.01389
 41
0.01389
  0
LWPOLYLINE
  5
77
100
AcDbEntity
  8
0
 62
   254
100
AcDbPolyline
 90
        2
 70
     0
 39
0.01389
 10
-0.081646
 20
-0.478783
 40
0.01389
 41
0.01389
 10
0.564154
 20
-0.090799
 40
0.01389
 41
0.01389
  0
LWPOLYLINE
  5
78
100
AcDbEntity
  8
0
 62
   254
100
AcDbPolyline
 90
        2
 70
     0
 39
0.01389
 10
0.564154
 20
-0.090799
 40
0.01389
 41
0.01389
 10
0.47322
 20
-0.038138
 40
0.01389
 41
0.01389
  0
LWPOLYLINE
  5
79
100
AcDbEntity
  8
0
 62
   254
100
AcDbPolyline
 90
        2
 70
     0
 39
0.01389
 10
0.47322
 20
-0.038138
 40
0.01389
 41
0.01389
 10
-0.172579
 20
-0.426122
 40
0.01389
 41
0.01389
  0
LWPOLYLINE
  5
7A
100
AcDbEntity
  8
0
 62
   254
100
AcDbPolyline
 90
        2
 70
     0
 39
0.01389
 10
-0.172579
 20
-0.426122
 40
0.01389
 41
0.01389
 10
-0.081646
 20
-0.478783
 40
0.01389
 41
0.01389
  0
LWPOLYLINE
  5
7B
100
AcDbEntity
  8
0
 62
     9
100
AcDbPolyline
 90
        2
 70
     0
 39
0.01389
 10
-0.172579
 20
-0.426122
 40
0.01389
 41
0.01389
 10
0.47322
 20
-0.038138
 40
0.01389
 41
0.01389
  0
LWPOLYLINE
  5
7C
100
AcDbEntity
  8
0
 62
     9
100
AcDbPolyline
 90
        2
 70
     0
 39
0.01389
 10
0.47322
 20
-0.038138
 40
0.01389
 41
0.01389
 10
0.37815
 20
0.009157
 40
0.01389
 41
0.01389
  0
LWPOLYLINE
  5
7D
100
AcDbEntity
  8
0
 62
     9
100
AcDbPolyline
 90
        2
 70
     0
 39
0.01389
 10
0.37815
 20
0.009157
 40
0.01389
 41
0.01389
 10
-0.26765
 20
-0.378827
 40
0.01389
 41
0.01389
  0
LWPOLYLINE
  5
7E
100
AcDbEntity
  8
0
 62
     9
100
AcDbPolyline
 90
        2
 70
     0
 39
0.01389
 10
-0.26765
 20
-0.378827
 40
0.01389
 41
0.01389
 10
-0.172579
 20
-0.426122
 40
0.01389
 41
0.01389
  0
LWPOLYLINE
  5
7F
100
AcDbEntity
  8
0
 62
     9
100
AcDbPolyline
 90
        2
 70
     0
 39
0.01389
 10
-0.26765
 20
-0.378827
 40
0.01389
 41
0.01389
 10
0.37815
 20
0.009157
 40
0.01389
 41
0.01389
  0
LWPOLYLINE
  5
80
100
AcDbEntity
  8
0
 62
     9
100
AcDbPolyline
 90
        2
 70
     0
 39
0.01389
 10
0.37815
 20
0.009157
 40
0.01389
 41
0.01389
 10
0.279421
 20
0.050555
 40
0.01389
 41
0.01389
  0
LWPOLYLINE
  5
81
100
AcDbEntity
  8
0
 62
     9
100
AcDbPolyline
 90
        2
 70
     0
 39
0.01389
 10
0.279421
 20
0.050555
 40
0.01389
 41
0.01389
 10
-0.366378
 20
-0.337429
 40
0.01389
 41
0.01389
  0
LWPOLYLINE
  5
82
100
AcDbEntity
  8
0
 62
     9
100
AcDbPolyline
 90
        2
 70
     0
 39
0.01389
 10
-0.366378
 20
-0.337429
 40
0.01389
 41
0.01389
 10
-0.26765
 20
-0.378827
 40
0.01389
 41
0.01389
  0
LWPOLYLINE
  5
83
100
AcDbEntity
  8
0
 62
     9
100
AcDbPolyline
 90
        2
 70
     0
 39
0.01389
 10
-0.366378
 20
-0.337429
 40
0.01389
 41
0.01389
 10
0.279421
 20
0.050555
 40
0.01389
 41
0.01389
  0
LWPOLYLINE
  5
84
100
AcDbEntity
  8
0
 62
     9
100
AcDbPolyline
 90
        2
 70
     0
 39
0.01389
 10
0.279421
 20
0.050555
 40
0.01389
 41
0.01389
 10
0.177524
 20
0.085547
 40
0.01389
 41
0.01389
  0
LWPOLYLINE
  5
85
100
AcDbEntity
  8
0
 62
     9
100
AcDbPolyline
 90
        2
 70
     0
 39
0.01389
 10
0.177524
 20
0.085547
 40
0.01389
 41
0.01389
 10
-0.468276
 20
-0.302437
 40
0.01389
 41
0.01389
  0
LWPOLYLINE
  5
86
100
AcDbEntity
  8
0
 62
     9
100
AcDbPolyline
 90
        2
 70
     0
 39
0.01389
 10
-0.468276
 20
-0.302437
 40
0.01389
 41
0.01389
 10
-0.366378
 20
-0.337429
 40
0.01389
 41
0.01389
  0
LWPOLYLINE
  5
87
100
AcDbEntity
  8
0
 62
     9
100
AcDbPolyline
 90
        2
 70
     0
 39
0.01389
 10
-0.468276
 20
-0.302437
 40
0.01389
 41
0.01389
 10
0.177524
 20
0.085547
 40
0.01389
 41
0.01389
  0
LWPOLYLINE
  5
88
100
AcDbEntity
  8
0
 62
     9
100
AcDbPolyline
 90
        2
 70
     0
 39
0.01389
 10
0.177524
 20
0.085547
 40
0.01389
 41
0.01389
 10
0.072937
 20
0.113598
 40
0.01389
 41
0.01389
  0
LWPOLYLINE
  5
89
100
AcDbEntity
  8
0
 62
     9
100
AcDbPolyline
 90
        2
 70
     0
 39
0.01389
 10
0.072937
 20
0.113598
 40
0.01389
 41
0.01389
 10
-0.572862
 20
-0.274386
 40
0.01389
 41
0.01389
  0
LWPOLYLINE
  5
8A
100
AcDbEntity
  8
0
 62
     9
100
AcDbPolyline
 90
        2
 70
     0
 39
0.01389
 10
-0.572862
 20
-0.274386
 40
0.01389
 41
0.01389
 10
-0.468276
 20
-0.302437
 40
0.01389
 41
0.01389
  0
LWPOLYLINE
  5
8B
100
AcDbEntity
  8
0
 62
     9
100
AcDbPolyline
 90
        2
 70
     0
 39
0.01389
 10
-0.572862
 20
-0.274386
 40
0.01389
 41
0.01389
 10
0.072937
 20
0.113598
 40
0.01389
 41
0.01389
  0
LWPOLYLINE
  5
8C
100
AcDbEntity
  8
0
 62
     9
100
AcDbPolyline
 90
        2
 70
     0
 39
0.01389
 10
0.072937
 20
0.113598
 40
0.01389
 41
0.01389
 10
-0.033846
 20
0.134213
 40
0.01389
 41
0.01389
  0
LWPOLYLINE
  5
8D
100
AcDbEntity
  8
0
 62
     9
100
AcDbPolyline
 90
        2
 70
     0
 39
0.01389
 10
-0.033846
 20
0.134213
 40
0.01389
 41
0.01389
 10
-0.679646
 20
-0.253772
 40
0.01389
 41
0.01389
  0
LWPOLYLINE
  5
8E
100
AcDbEntity
  8
0
 62
     9
100
AcDbPolyline
 90
        2
 70
     0
 39
0.01389
 10
-0.679646
 20
-0.253772
 40
0.01389
 41
0.01389
 10
-0.572862
 20
-0.274386
 40
0.01389
 41
0.01389
  0
LWPOLYLINE
  5
8F
100
AcDbEntity
  8
0
 62
   253
100
AcDbPolyline
 90
        2
 70
     0
 39
0.01389
 10
-0.679646
 20
-0.253772
 40
0.01389
 41
0.01389
 10
-0.033846
 20
0.134213
 40
0.01389
 41
0.01389
  0
LWPOLYLINE
  5
90
100
AcDbEntity
  8
0
 62
   253
100
AcDbPolyline
 90
        2
 70
     0
 39
0.01389
 10
-0.033846
 20
0.134213
 40
0.01389
 41
0.01389
 10
-0.142343
 20
0.146854
 40
0.01389
 41
0.01389
  0
LWPOLYLINE
  5
91
100
AcDbEntity
  8
0
 62
   253
100
AcDbPolyline
 90
        2
 70
     0
 39
0.01389
 10
-0.142343
 20
0.146854
 40
0.01389
 41
0.01389
 10
-0.788142
 20
-0.24113
 40
0.01389
 41
0.01389
  0
LWPOLYLINE
  5
92
100
AcDbEntity
  8
0
 62
   253
100
AcDbPolyline
 90
        2
 70
     0
 39
0.01389
 10
-0.788142
 20
-0.24113
 40
0.01389
 41
0.01389
 10
-0.679646
 20
-0.253772
 40
0.01389
 41
0.01389
  0
LWPOLYLINE
  5
93
100
AcDbEntity
  8
0
 62
   253
100
AcDbPolyline
 90
        2
 70
     0
 39
0.01389
 10
-0.788142
 20
-0.24113
 40
0.01389
 41
0.01389
 10
-0.142343
 20
0.146854
 40
0.01389
 41
0.01389
  0
LWPOLYLINE
  5
94
100
AcDbEntity
  8
0
 62
   253
100
AcDbPolyline
 90
        2
 70
     0
 39
0.01389
 10
-0.142343
 20
0.146854
 40
0.01389
 41
0.01389
 10
-0.252083
 20
0.15102
 40
0.01389
 41
0.01389
  0
LWPOLYLINE
  5
95
100
AcDbEntity
  8
0
 62
   253
100
AcDbPolyline
 90
        2
 70
     0
 39
0.01389
 10
-0.252083
 20
0.15102
 40
0.01389
 41
0.01389
 10
-0.897882
 20
-0.236965
 40
0.01389
 41
0.01389
  0
LWPOLYLINE
  5
96
100
AcDbEntity
  8
0
 62
   253
100
AcDbPolyline
 90
        2
 70
     0
 39
0.01389
 10
-0.897882
 20
-0.236965
 40
0.01389
 41
0.01389
 10
-0.788142
 20
-0.24113
 40
0.01389
 41
0.01389
  0
LWPOLYLINE
  5
97
100
AcDbEntity
  8
0
 62
     0
100
AcDbPolyline
 90
        2
 70
     0
 39
0.003
 10
0.215228
 20
-1.810846
 40
0.003
 41
0.003
 10
0.861028
 20
-1.422862
 40
0.003
 41
0.003
  0
LWPOLYLINE
  5
98
100
AcDbEntity
  8
0
 62
     0
100
AcDbPolyline
 90
        2
 70
     0
 39
0.003
 10
0.861028
 20
-1.422862
 40
0.003
 41
0.003
 10
0.940795
 20
-1.366614
 40
0.003
 41
0.003
  0
LWPOLYLINE
  5
99
100
AcDbEntity
  8
0
 62
     0
100
AcDbPolyline
 90
        2
 70
     0
 39
0.003
 10
0.940795
 20
-1.366614
 40
0.003
 41
0.003
 10
1.007217
 20
-1.305882
 40
0.003
 41
0.003
  0
LWPOLYLINE
  5
9A
100
AcDbEntity
  8
0
 62
     0
100
AcDbPolyline
 90
        2
 70
     0
 39
0.003
 10
1.007217
 20
-1.305882
 40
0.003
 41
0.003
 10
1.060783
 20
-1.241197
 40
0.003
 41
0.003
  0
LWPOLYLINE
  5
9B
100
AcDbEntity
  8
0
 62
     0
100
AcDbPolyline
 90
        2
 70
     0
 39
0.003
 10
1.060783
 20
-1.241197
 40
0.003
 41
0.003
 10
1.101965
 20
-1.173063
 40
0.003
 41
0.003
  0
LWPOLYLINE
  5
9C
100
AcDbEntity
  8
0
 62
     0
100
AcDbPolyline
 90
        2
 70
     0
 39
0.003
 10
1.101965
 20
-1.173063
 40
0.003
 41
0.003
 10
1.13126
 20
-1.102016
 40
0.003
 41
0.003
  0
LWPOLYLINE
  5
9D
100
AcDbEntity
  8
0
 62
     0
100
AcDbPolyline
 90
        2
 70
     0
 39
0.003
 10
1.13126
 20
-1.102016
 40
0.003
 41
0.003
 10
1.149146
 20
-1.028567
 40
0.003
 41
0.003
  0
LWPOLYLINE
  5
9E
100
AcDbEntity
  8
0
 62
     0
100
AcDbPolyline
 90
        2
 70
     0
 39
0.003
 10
1.149146
 20
-1.028567
 40
0.003
 41
0.003
 10
1.156118
 20
-0.95322
 40
0.003
 41
0.003
  0
LWPOLYLINE
  5
9F
100
AcDbEntity
  8
0
 62
     0
100
AcDbPolyline
 90
        2
 70
     0
 39
0.003
 10
1.156118
 20
-0.95322
 40
0.003
 41
0.003
 10
1.152646
 20
-0.876516
 40
0.003
 41
0.003
  0
LWPOLYLINE
  5
A0
100
AcDbEntity
  8
0
 62
     0
100
AcDbPolyline
 90
        2
 70
     0
 39
0.003
 10
1.152646
 20
-0.876516
 40
0.003
 41
0.003
 10
1.139224
 20
-0.798957
 40
0.003
 41
0.003
  0
LWPOLYLINE
  5
A1
100
AcDbEntity
  8
0
 62
     0
100
AcDbPolyline
 90
        2
 70
     0
 39
0.003
 10
1.139224
 20
-0.798957
 40
0.003
 41
0.003
 10
1.116331
 20
-0.721067
 40
0.003
 41
0.003
  0
LWPOLYLINE
  5
A2
100
AcDbEntity
  8
0
 62
     0
100
AcDbPolyline
 90
        2
 70
     0
 39
0.003
 10
1.116331
 20
-0.721067
 40
0.003
 41
0.003
 10
1.084461
 20
-0.643366
 40
0.003
 41
0.003
  0
LWPOLYLINE
  5
A3
100
AcDbEntity
  8
0
 62
     0
100
AcDbPolyline
 90
        2
 70
     0
 39
0.003
 10
1.084461
 20
-0.643366
 40
0.003
 41
0.003
 10
1.044079
 20
-0.566378
 40
0.003
 41
0.003
  0
LWPOLYLINE
  5
A4
100
AcDbEntity
  8
0
 62
     0
100
AcDbPolyline
 90
        2
 70
     0
 39
0.003
 10
1.044079
 20
-0.566378
 40
0.003
 41
0.003
 10
0.995689
 20
-0.490614
 40
0.003
 41
0.003
  0
LWPOLYLINE
  5
A5
100
AcDbEntity
  8
0
 62
     0
100
AcDbPolyline
 90
        2
 70
     0
 39
0.003
 10
0.995689
 20
-0.490614
 40
0.003
 41
0.003
 10
0.939764
 20
-0.416594
 40
0.003
 41
0.003
  0
LWPOLYLINE
  5
A6
100
AcDbEntity
  8
0
 62
     0
100
AcDbPolyline
 90
        2
 70
     0
 39
0.003
 10
0.939764
 20
-0.416594
 40
0.003
 41
0.003
 10
0.876799
 20
-0.344835
 40
0.003
 41
0.003
  0
LWPOLYLINE
  5
A7
100
AcDbEntity
  8
0
 62
     0
100
AcDbPolyline
 90
        2
 70
     0
 39
0.003
 10
0.876799
 20
-0.344835
 40
0.003
 41
0.003
 10
0.807268
 20
-0.275862
 40
0.003
 41
0.003
  0
LWPOLYLINE
  5
A8
100
AcDbEntity
  8
0
 62
     0
100
AcDbPolyline
 90
        2
 70
     0
 39
0.003
 10
0.807268
 20
-0.275862
 40
0.003
 41
0.003
 10
0.731661
 20
-0.210181
 40
0.003
 41
0.003
  0
LWPOLYLINE
  5
A9
100
AcDbEntity
  8
0
 62
     0
100
AcDbPolyline
 90
        2
 70
     0
 39
0.003
 10
0.731661
 20
-0.210181
 40
0.003
 41
0.003
 10
0.650461
 20
-0.148323
 40
0.003
 41
0.003
  0
LWPOLYLINE
  5
AA
100
AcDbEntity
  8
0
 62
     0
100
AcDbPolyline
 90
        2
 70
     0
 39
0.003
 10
0.650461
 20
-0.148323
 40
0.003
 41
0.003
 10
0.564154
 20
-0.090799
 40
0.003
 41
0.003
  0
LWPOLYLINE
  5
AB
100
AcDbEntity
  8
0
 62
     0
100
AcDbPolyline
 90
        2
 70
     0
 39
0.003
 10
0.564154
 20
-0.090799
 40
0.003
 41
0.003
 10
0.47322
 20
-0.038138
 40
0.003
 41
0.003
  0
LWPOLYLINE
  5
AC
100
AcDbEntity
  8
0
 62
     0
100
AcDbPolyline
 90
        2
 70
     0
 39
0.003
 10
0.47322
 20
-0.038138
 40
0.003
 41
0.003
 10
0.37815
 20
0.009157
 40
0.003
 41
0.003
  0
LWPOLYLINE
  5
AD
100
AcDbEntity
  8
0
 62
     0
100
AcDbPolyline
 90
        2
 70
     0
 39
0.003
 10
0.37815
 20
0.009157
 40
0.003
 41
0.003
 10
0.279421
 20
0.050555
 40
0.003
 41
0.003
  0
LWPOLYLINE
  5
AE
100
AcDbEntity
  8
0
 62
     0
100
AcDbPolyline
 90
        2
 70
     0
 39
0.003
 10
0.279421
 20
0.050555
 40
0.003
 41
0.003
 10
0.177524
 20
0.085547
 40
0.003
 41
0.003
  0
LWPOLYLINE
  5
AF
100
AcDbEntity
  8
0
 62
     0
100
AcDbPolyline
 90
        2
 70
     0
 39
0.003
 10
0.177524
 20
0.085547
 40
0.003
 41
0.003
 10
0.072937
 20
0.113598
 40
0.003
 41
0.003
  0
LWPOLYLINE
  5
B0
100
AcDbEntity
  8
0
 62
     0
100
AcDbPolyline
 90
        2
 70
     0
 39
0.003
 10
0.072937
 20
0.113598
 40
0.003
 41
0.003
 10
-0.033846
 20
0.134213
 40
0.003
 41
0.003
  0
LWPOLYLINE
  5
B1
100
AcDbEntity
  8
0
 62
     0
100
AcDbPolyline
 90
        2
 70
     0
 39
0.003
 10
-0.033846
 20
0.134213
 40
0.003
 41
0.003
 10
-0.142343
 20
0.146854
 40
0.003
 41
0.003
  0
LWPOLYLINE
  5
B2
100
AcDbEntity
  8
0
 62
     0
100
AcDbPolyline
 90
        2
 70
     0
 39
0.003
 10
-0.142343
 20
0.146854
 40
0.003
 41
0.003
 10
-0.252083
 20
0.15102
 40
0.003
 41
0.003
  0
LWPOLYLINE
  5
B3
100
AcDbEntity
  8
0
 62
     0
100
AcDbPolyline
 90
        2
 70
     0
 39
0.003
 10
-0.252083
 20
0.15102
 40
0.003
 41
0.003
 10
-0.897882
 20
-0.236965
 40
0.003
 41
0.003
  0
LWPOLYLINE
  5
B4
100
AcDbEntity
  8
0
 62
     0
100
AcDbPolyline
 90
        2
 70
     0
 39
0.003
 10
-0.897882
 20
-0.236965
 40
0.003
 41
0.003
 10
-0.788142
 20
-0.24113
 40
0.003
 41
0.003
  0
LWPOLYLINE
  5
B5
100
AcDbEntity
  8
0
 62
     0
100
AcDbPolyline
 90
        2
 70
     0
 39
0.003
 10
-0.788142
 20
-0.24113
 40
0.003
 41
0.003
 10
-0.679646
 20
-0.253772
 40
0.003
 41
0.003
  0
LWPOLYLINE
  5
B6
100
AcDbEntity
  8
0
 62
     0
100
AcDbPolyline
 90
        2
 70
     0
 39
0.003
 10
-0.679646
 20
-0.253772
 40
0.003
 41
0.003
 10
-0.572862
 20
-0.274386
 40
0.003
 41
0.003
  0
LWPOLYLINE
  5
B7
100
AcDbEntity
  8
0
 62
     0
100
AcDbPolyline
 90
        2
 70
     0
 39
0.003
 10
-0.572862
 20
-0.274386
 40
0.003
 41
0.003
 10
-0.468276
 20
-0.302437
 40
0.003
 41
0.003
  0
LWPOLYLINE
  5
B8
100
AcDbEntity
  8
0
 62
     0
100
AcDbPolyline
 90
        2
 70
     0
 39
0.003
 10
-0.468276
 20
-0.302437
 40
0.003
 41
0.003
 10
-0.366378
 20
-0.337429
 40
0.003
 41
0.003
  0
LWPOLYLINE
  5
B9
100
AcDbEntity
  8
0
 62
     0
100
AcDbPolyline
 90
        2
 70
     0
 39
0.003
 10
-0.366378
 20
-0.337429
 40
0.003
 41
0.003
 10
-0.26765
 20
-0.378827
 40
0.003
 41
0.003
  0
LWPOLYLINE
  5
BA
100
AcDbEntity
  8
0
 62
     0
100
AcDbPolyline
 90
        2
 70
     0
 39
0.003
 10
-0.26765
 20
-0.378827
 40
0.003
 41
0.003
 10
-0.172579
 20
-0.426122
 40
0.003
 41
0.003
  0
LWPOLYLINE
  5
BB
100
AcDbEntity
  8
0
 62
     0
100
AcDbPolyline
 90
        2
 70
     0
 39
0.003
 10
-0.172579
 20
-0.426122
 40
0.003
 41
0.003
 10
-0.081646
 20
-0.478783
 40
0.003
 41
0.003
  0
LWPOLYLINE
  5
BC
100
AcDbEntity
  8
0
 62
     0
100
AcDbPolyline
 90
        2
 70
     0
 39
0.003
 10
-0.081646
 20
-0.478783
 40
0.003
 41
0.003
 10
0.004661
 20
-0.536307
 40
0.003
 41
0.003
  0
LWPOLYLINE
  5
BD
100
AcDbEntity
  8
0
 62
     0
100
AcDbPolyline
 90
        2
 70
     0
 39
0.003
 10
0.004661
 20
-0.536307
 40
0.003
 41
0.003
 10
0.085862
 20
-0.598165
 40
0.003
 41
0.003
  0
LWPOLYLINE
  5
BE
100
AcDbEntity
  8
0
 62
     0
100
AcDbPolyline
 90
        2
 70
     0
 39
0.003
 10
0.085862
 20
-0.598165
 40
0.003
 41
0.003
 10
0.161469
 20
-0.663846
 40
0.003
 41
0.003
  0
LWPOLYLINE
  5
BF
100
AcDbEntity
  8
0
 62
     0
100
AcDbPolyline
 90
        2
 70
     0
 39
0.003
 10
0.161469
 20
-0.663846
 40
0.003
 41
0.003
 10
0.231
 20
-0.732819
 40
0.003
 41
0.003
  0
LWPOLYLINE
  5
C0
100
AcDbEntity
  8
0
 62
     0
100
AcDbPolyline
 90
        2
 70
     0
 39
0.003
 10
0.231
 20
-0.732819
 40
0.003
 41
0.003
 10
0.293965
 20
-0.804579
 40
0.003
 41
0.003
  0
LWPOLYLINE
  5
C1
100
AcDbEntity
  8
0
 62
     0
100
AcDbPolyline
 90
        2
 70
     0
 39
0.003
 10
0.293965
 20
-0.804579
 40
0.003
 41
0.003
 10
0.34989
 20
-0.878598
 40
0.003
 41
0.003
  0
LWPOLYLINE
  5
C2
100
AcDbEntity
  8
0
 62
     0
100
AcDbPolyline
 90
        2
 70
     0
 39
0.003
 10
0.34989
 20
-0.878598
 40
0.003
 41
0.003
 10
0.39828
 20
-0.954362
 40
0.003
 41
0.003
  0
LWPOLYLINE
  5
C3
100
AcDbEntity
  8
0
 62
     0
100
AcDbPolyline
 90
        2
 70
     0
 39
0.003
 10
0.39828
 20
-0.954362
 40
0.003
 41
0.003
 10
0.438661
 20
-1.03135
 40
0.003
 41
0.003
  0
LWPOLYLINE
  5
C4
100
AcDbEntity
  8
0
 62
     0
100
AcDbPolyline
 90
        2
 70
     0
 39
0.003
 10
0.438661
 20
-1.03135
 40
0.003
 41
0.003
 10
0.470531
 20
-1.109051
 40
0.003
 41
0.003
  0
LWPOLYLINE
  5
C5
100
AcDbEntity
  8
0
 62
     0
100
AcDbPolyline
 90
        2
 70
     0
 39
0.003
 10
0.470531
 20
-1.109051
 40
0.003
 41
0.003
 10
0.493425
 20
-1.186941
 40
0.003
 41
0.003
  0
LWPOLYLINE
  5
C6
100
AcDbEntity
  8
0
 62
     0
100
AcDbPolyline
 90
        2
 70
     0
 39
0.003
 10
0.493425
 20
-1.186941
 40
0.003
 41
0.003
 10
0.506846
 20
-1.2645
 40
0.003
 41
0.003
  0
LWPOLYLINE
  5
C7
100
AcDbEntity
  8
0
 62
     0
100
AcDbPolyline
 90
        2
 70
     0
 39
0.003
 10
0.506846
 20
-1.2645
 40
0.003
 41
0.003
 10
0.510319
 20
-1.341205
 40
0.003
 41
0.003
  0
LWPOLYLINE
  5
C8
100
AcDbEntity
  8
0
 62
     0
100
AcDbPolyline
 90
        2
 70
     0
 39
0.003
 10
0.510319
 20
-1.341205
 40
0.003
 41
0.003
 10
0.503346
 20
-1.416551
 40
0.003
 41
0.003
  0
LWPOLYLINE
  5
C9
100
AcDbEntity
  8
0
 62
     0
100
AcDbPolyline
 90
        2
 70
     0
 39
0.003
 10
0.503346
 20
-1.416551
 40
0.003
 41
0.003
 10
0.485461
 20
-1.49
 40
0.003
 41
0.003
  0
LWPOLYLINE
  5
CA
100
AcDbEntity
  8
0
 62
     0
100
AcDbPolyline
 90
        2
 70
     0
 39
0.003
 10
0.485461
 20
-1.49
 40
0.003
 41
0.003
 10
0.456165
 20
-1.561047
 40
0.003
 41
0.003
  0
LWPOLYLINE
  5
CB
100
AcDbEntity
  8
0
 62
     0
100
AcDbPolyline
 90
        2
 70
     0
 39
0.003
 10
0.456165
 20
-1.561047
 40
0.003
 41
0.003
 10
0.414984
 20
-1.629181
 40
0.003
 41
0.003
  0
LWPOLYLINE
  5
CC
100
AcDbEntity
  8
0
 62
     0
100
AcDbPolyline
 90
        2
 70
     0
 39
0.003
 10
0.414984
 20
-1.629181
 40
0.003
 41
0.003
 10
0.361417
 20
-1.693866
 40
0.003
 41
0.003
  0
LWPOLYLINE
  5
CD
100
AcDbEntity
  8
0
 62
     0
100
AcDbPolyline
 90
        2
 70
     0
 39
0.003
 10
0.361417
 20
-1.693866
 40
0.003
 41
0.003
 10
0.294996
 20
-1.754598
 40
0.003
 41
0.003
  0
LWPOLYLINE
  5
CE
100
AcDbEntity
  8
0
 62
     0
100
AcDbPolyline
 90
        2
 70
     0
 39
0.003
 10
0.294996
 20
-1.754598
 40
0.003
 41
0.003
 10
0.215228
 20
-1.810846
 40
0.003
 41
0.003
  0
LWPOLYLINE
  5
CF
100
AcDbEntity
  8
0
 62
   253
100
AcDbPolyline
 90
        2
 70
     0
 39
0.003
 10
-0.897882
 20
-0.236965
 40
0.003
 41
0.003
 10
-0.252083
 20
0.15102
 40
0.003
 41
0.003
  0
LWPOLYLINE
  5
D0
100
AcDbEntity
  8
0
 62
   253
100
AcDbPolyline
 90
        2
 70
     0
 39
0.003
 10
-0.252083
 20
0.15102
 40
0.003
 41
0.003
 10
-0.361815
 20
0.146854
 40
0.003
 41
0.003
  0
LWPOLYLINE
  5
D1
100
AcDbEntity
  8
0
 62
   253
100
AcDbPolyline
 90
        2
 70
     0
 39
0.003
 10
-0.361815
 20
0.146854
 40
0.003
 41
0.003
 10
-1.007614
 20
-0.24113
 40
0.003
 41
0.003
  0
LWPOLYLINE
  5
D2
100
AcDbEntity
  8
0
 62
   253
100
AcDbPolyline
 90
        2
 70
     0
 39
0.003
 10
-1.007614
 20
-0.24113
 40
0.003
 41
0.003
 10
-0.897882
 20
-0.236965
 40
0.003
 41
0.003
  0
LWPOLYLINE
  5
D3
100
AcDbEntity
  8
0
 62
   252
100
AcDbPolyline
 90
        2
 70
     0
 39
0.003
 10
-1.007614
 20
-0.24113
 40
0.003
 41
0.003
 10
-0.361815
 20
0.146854
 40
0.003
 41
0.003
  0
LWPOLYLINE
  5
D4
100
AcDbEntity
  8
0
 62
   252
100
AcDbPolyline
 90
        2
 70
     0
 39
0.003
 10
-0.361815
 20
0.146854
 40
0.003
 41
0.003
 10
-0.470319
 20
0.134213
 40
0.003
 41
0.003
  0
LWPOLYLINE
  5
D5
100
AcDbEntity
  8
0
 62
   252
100
AcDbPolyline
 90
        2
 70
     0
 39
0.003
 10
-0.470319
 20
0.134213
 40
0.003
 41
0.003
 10
-1.116118
 20
-0.253772
 40
0.003
 41
0.003
  0
LWPOLYLINE
  5
D6
100
AcDbEntity
  8
0
 62
   252
100
AcDbPolyline
 90
        2
 70
     0
 39
0.003
 10
-1.116118
 20
-0.253772
 40
0.003
 41
0.003
 10
-1.007614
 20
-0.24113
 40
0.003
 41
0.003
  0
LWPOLYLINE
  5
D7
100
AcDbEntity
  8
0
 62
   252
100
AcDbPolyline
 90
        2
 70
     0
 39
0.003
 10
-1.116118
 20
-0.253772
 40
0.003
 41
0.003
 10
-0.470319
 20
0.134213
 40
0.003
 41
0.003
  0
LWPOLYLINE
  5
D8
100
AcDbEntity
  8
0
 62
   252
100
AcDbPolyline
 90
        2
 70
     0
 39
0.003
 10
-0.470319
 20
0.134213
 40
0.003
 41
0.003
 10
-0.577106
 20
0.113598
 40
0.003
 41
0.003
  0
LWPOLYLINE
  5
D9
100
AcDbEntity
  8
0
 62
   252
100
AcDbPolyline
 90
        2
 70
     0
 39
0.003
 10
-0.577106
 20
0.113598
 40
0.003
 41
0.003
 10
-1.222906
 20
-0.274386
 40
0.003
 41
0.003
  0
LWPOLYLINE
  5
DA
100
AcDbEntity
  8
0
 62
   252
100
AcDbPolyline
 90
        2
 70
     0
 39
0.003
 10
-1.222906
 20
-0.274386
 40
0.003
 41
0.003
 10
-1.116118
 20
-0.253772
 40
0.003
 41
0.003
  0
LWPOLYLINE
  5
DB
100
AcDbEntity
  8
0
 62
   127
100
AcDbPolyline
 90
        2
 70
     0
 39
0.003
 10
-1.222906
 20
-0.274386
 40
0.003
 41
0.003
 10
-0.577106
 20
0.113598
 40
0.003
 41
0.003
  0
LWPOLYLINE
  5
DC
100
AcDbEntity
  8
0
 62
   127
100
AcDbPolyline
 90
        2
 70
     0
 39
0.003
 10
-0.577106
 20
0.113598
 40
0.003
 41
0.003
 10
-0.681693
 20
0.085547
 40
0.003
 41
0.003
  0
LWPOLYLINE
  5
DD
100
AcDbEntity
  8
0
 62
   127
100
AcDbPolyline
 90
        2
 70
     0
 39
0.003
 10
-0.681693
 20
0.085547
 40
0.003
 41
0.003
 10
-1.327492
 20
-0.302437
 40
0.003
 41
0.003
  0
LWPOLYLINE
  5
DE
100
AcDbEntity
  8
0
 62
   127
100
AcDbPolyline
 90
        2
 70
     0
 39
0.003
 10
-1.327492
 20
-0.302437
 40
0.003
 41
0.003
 10
-1.222906
 20
-0.274386
 40
0.003
 41
0.003
  0
LWPOLYLINE
  5
DF
100
AcDbEntity
  8
0
 62
   139
100
AcDbPolyline
 90
        2
 70
     0
 39
0.003
 10
-1.327492
 20
-0.302437
 40
0.003
 41
0.003
 10
-0.681693
 20
0.085547
 40
0.003
 41
0.003
  0
LWPOLYLINE
  5
E0
100
AcDbEntity
  8
0
 62
   139
100
AcDbPolyline
 90
        2
 70
     0
 39
0.003
 10
-0.681693
 20
0.085547
 40
0.003
 41
0.003
 10
-0.783591
 20
0.050555
 40
0.003
 41
0.003
  0
LWPOLYLINE
  5
E1
100
AcDbEntity
  8
0
 62
   139
100
AcDbPolyline
 90
        2
 70
     0
 39
0.003
 10
-0.783591
 20
0.050555
 40
0.003
 41
0.003
 10
-1.42939
 20
-0.337429
 40
0.003
 41
0.003
  0
LWPOLYLINE
  5
E2
100
AcDbEntity
  8
0
 62
   139
100
AcDbPolyline
 90
        2
 70
     0
 39
0.003
 10
-1.42939
 20
-0.337429
 40
0.003
 41
0.003
 10
-1.327492
 20
-0.302437
 40
0.003
 41
0.003
  0
LWPOLYLINE
  5
E3
100
AcDbEntity
  8
0
 62
   118
100
AcDbPolyline
 90
        2
 70
     0
 39
0.003
 10
-1.42939
 20
-0.337429
 40
0.003
 41
0.003
 10
-0.783591
 20
0.050555
 40
0.003
 41
0.003
  0
LWPOLYLINE
  5
E4
100
AcDbEntity
  8
0
 62
   118
100
AcDbPolyline
 90
        2
 70
     0
 39
0.003
 10
-0.783591
 20
0.050555
 40
0.003
 41
0.003
 10
-0.882323
 20
0.009157
 40
0.003
 41
0.003
  0
LWPOLYLINE
  5
E5
100
AcDbEntity
  8
0
 62
   118
100
AcDbPolyline
 90
        2
 70
     0
 39
0.003
 10
-0.882323
 20
0.009157
 40
0.003
 41
0.003
 10
-1.528122
 20
-0.378827
 40
0.003
 41
0.003
  0
LWPOLYLINE
  5
E6
100
AcDbEntity
  8
0
 62
   118
100
AcDbPolyline
 90
        2
 70
     0
 39
0.003
 10
-1.528122
 20
-0.378827
 40
0.003
 41
0.003
 10
-1.42939
 20
-0.337429
 40
0.003
 41
0.003
  0
LWPOLYLINE
  5
E7
100
AcDbEntity
  8
0
 62
     0
100
AcDbPolyline
 90
        2
 70
     0
 39
0.003
 10
-1.528122
 20
-0.378827
 40
0.003
 41
0.003
 10
-0.882323
 20
0.009157
 40
0.003
 41
0.003
  0
LWPOLYLINE
  5
E8
100
AcDbEntity
  8
0
 62
     0
100
AcDbPolyline
 90
        2
 70
     0
 39
0.003
 10
-0.882323
 20
0.009157
 40
0.003
 41
0.003
 10
-0.977398
 20
-0.038138
 40
0.003
 41
0.003
  0
LWPOLYLINE
  5
E9
100
AcDbEntity
  8
0
 62
     0
100
AcDbPolyline
 90
        2
 70
     0
 39
0.003
 10
-0.977398
 20
-0.038138
 40
0.003
 41
0.003
 10
-1.623197
 20
-0.426122
 40
0.003
 41
0.003
  0
LWPOLYLINE
  5
EA
100
AcDbEntity
  8
0
 62
     0
100
AcDbPolyline
 90
        2
 70
     0
 39
0.003
 10
-1.623197
 20
-0.426122
 40
0.003
 41
0.003
 10
-1.528122
 20
-0.378827
 40
0.003
 41
0.003
  0
LWPOLYLINE
  5
EB
100
AcDbEntity
  8
0
 62
     0
100
AcDbPolyline
 90
        2
 70
     0
 39
0.003
 10
-0.897882
 20
-0.236965
 40
0.003
 41
0.003
 10
-0.252083
 20
0.15102
 40
0.003
 41
0.003
  0
LWPOLYLINE
  5
EC
100
AcDbEntity
  8
0
 62
     0
100
AcDbPolyline
 90
        2
 70
     0
 39
0.003
 10
-0.252083
 20
0.15102
 40
0.003
 41
0.003
 10
-0.361815
 20
0.146854
 40
0.003
 41
0.003
  0
LWPOLYLINE
  5
ED
100
AcDbEntity
  8
0
 62
     0
100
AcDbPolyline
 90
        2
 70
     0
 39
0.003
 10
-0.361815
 20
0.146854
 40
0.003
 41
0.003
 10
-0.470319
 20
0.134213
 40
0.003
 41
0.003
  0
LWPOLYLINE
  5
EE
100
AcDbEntity
  8
0
 62
     0
100
AcDbPolyline
 90
        2
 70
     0
 39
0.003
 10
-0.470319
 20
0.134213
 40
0.003
 41
0.003
 10
-0.577106
 20
0.113598
 40
0.003
 41
0.003
  0
LWPOLYLINE
  5
EF
100
AcDbEntity
  8
0
 62
     0
100
AcDbPolyline
 90
        2
 70
     0
 39
0.003
 10
-0.577106
 20
0.113598
 40
0.003
 41
0.003
 10
-0.681693
 20
0.085547
 40
0.003
 41
0.003
  0
LWPOLYLINE
  5
F0
100
AcDbEntity
  8
0
 62
     0
100
AcDbPolyline
 90
        2
 70
     0
 39
0.003
 10
-0.681693
 20
0.085547
 40
0.003
 41
0.003
 10
-0.783591
 20
0.050555
 40
0.003
 41
0.003
  0
LWPOLYLINE
  5
F1
100
AcDbEntity
  8
0
 62
     0
100
AcDbPolyline
 90
        2
 70
     0
 39
0.003
 10
-0.783591
 20
0.050555
 40
0.003
 41
0.003
 10
-0.882323
 20
0.009157
 40
0.003
 41
0.003
  0
LWPOLYLINE
  5
F2
100
AcDbEntity
  8
0
 62
     0
100
AcDbPolyline
 90
        2
 70
     0
 39
0.003
 10
-0.882323
 20
0.009157
 40
0.003
 41
0.003
 10
-0.977398
 20
-0.038138
 40
0.003
 41
0.003
  0
LWPOLYLINE
  5
F3
100
AcDbEntity
  8
0
 62
     0
100
AcDbPolyline
 90
        2
 70
     0
 39
0.003
 10
-0.977398
 20
-0.038138
 40
0.003
 41
0.003
 10
-1.623197
 20
-0.426122
 40
0.003
 41
0.003
  0
LWPOLYLINE
  5
F4
100
AcDbEntity
  8
0
 62
     0
100
AcDbPolyline
 90
        2
 70
     0
 39
0.003
 10
-1.623197
 20
-0.426122
 40
0.003
 41
0.003
 10
-1.528122
 20
-0.378827
 40
0.003
 41
0.003
  0
LWPOLYLINE
  5
F5
100
AcDbEntity
  8
0
 62
     0
100
AcDbPolyline
 90
        2
 70
     0
 39
0.003
 10
-1.528122
 20
-0.378827
 40
0.003
 41
0.003
 10
-1.42939
 20
-0.337429
 40
0.003
 41
0.003
  0
LWPOLYLINE
  5
F6
100
AcDbEntity
  8
0
 62
     0
100
AcDbPolyline
 90
        2
 70
     0
 39
0.003
 10
-1.42939
 20
-0.337429
 40
0.003
 41
0.003
 10
-1.327492
 20
-0.302437
 40
0.003
 41
0.003
  0
LWPOLYLINE
  5
F7
100
AcDbEntity
  8
0
 62
     0
100
AcDbPolyline
 90
        2
 70
     0
 39
0.003
 10
-1.327492
 20
-0.302437
 40
0.003
 41
0.003
 10
-1.222906
 20
-0.274386
 40
0.003
 41
0.003
  0
LWPOLYLINE
  5
F8
100
AcDbEntity
  8
0
 62
     0
100
AcDbPolyline
 90
        2
 70
     0
 39
0.003
 10
-1.222906
 20
-0.274386
 40
0.003
 41
0.003
 10
-1.116118
 20
-0.253772
 40
0.003
 41
0.003
  0
LWPOLYLINE
  5
F9
100
AcDbEntity
  8
0
 62
     0
100
AcDbPolyline
 90
        2
 70
     0
 39
0.003
 10
-1.116118
 20
-0.253772
 40
0.003
 41
0.003
 10
-1.007614
 20
-0.24113
 40
0.003
 41
0.003
  0
LWPOLYLINE
  5
FA
100
AcDbEntity
  8
0
 62
     0
100
AcDbPolyline
 90
        2
 70
     0
 39
0.003
 10
-1.007614
 20
-0.24113
 40
0.003
 41
0.003
 10
-0.897882
 20
-0.236965
 40
0.003
 41
0.003
  0
LWPOLYLINE
  5
FB
100
AcDbEntity
  8
0
 62
   254
100
AcDbPolyline
 90
        2
 70
     0
 39
0.003
 10
-1.395161
 20
-2.006795
 40
0.003
 41
0.003
 10
-0.749362
 20
-1.618811
 40
0.003
 41
0.003
  0
LWPOLYLINE
  5
FC
100
AcDbEntity
  8
0
 62
   254
100
AcDbPolyline
 90
        2
 70
     0
 39
0.003
 10
-0.749362
 20
-1.618811
 40
0.003
 41
0.003
 10
-0.749362
 20
-1.119138
 40
0.003
 41
0.003
  0
LWPOLYLINE
  5
FD
100
AcDbEntity
  8
0
 62
   254
100
AcDbPolyline
 90
        2
 70
     0
 39
0.003
 10
-0.749362
 20
-1.119138
 40
0.003
 41
0.003
 10
-1.395161
 20
-1.507122
 40
0.003
 41
0.003
  0
LWPOLYLINE
  5
FE
100
AcDbEntity
  8
0
 62
   254
100
AcDbPolyline
 90
        2
 70
     0
 39
0.003
 10
-1.395161
 20
-1.507122
 40
0.003
 41
0.003
 10
-1.395161
 20
-2.006795
 40
0.003
 41
0.003
  0
LWPOLYLINE
  5
FF
100
AcDbEntity
  8
0
 62
     0
100
AcDbPolyline
 90
        2
 70
     0
 39
0.003
 10
-1.395161
 20
-2.006795
 40
0.003
 41
0.003
 10
-0.749362
 20
-1.618811
 40
0.003
 41
0.003
  0
LWPOLYLINE
  5
100
100
AcDbEntity
  8
0
 62
     0
100
AcDbPolyline
 90
        2
 70
     0
 39
0.003
 10
-0.749362
 20
-1.618811
 40
0.003
 41
0.003
 10
-0.749362
 20
-1.119138
 40
0.003
 41
0.003
  0
LWPOLYLINE
  5
101
100
AcDbEntity
  8
0
 62
     0
100
AcDbPolyline
 90
        2
 70
     0
 39
0.003
 10
-0.749362
 20
-1.119138
 40
0.003
 41
0.003
 10
-1.395161
 20
-1.507122
 40
0.003
 41
0.003
  0
LWPOLYLINE
  5
102
100
AcDbEntity
  8
0
 62
     0
100
AcDbPolyline
 90
        2
 70
     0
 39
0.003
 10
-1.395161
 20
-1.507122
 40
0.003
 41
0.003
 10
-1.395161
 20
-2.006795
 40
0.003
 41
0.003
  0
LWPOLYLINE
  5
103
100
AcDbEntity
  8
0
 62
     9
100
AcDbPolyline
 90
        2
 70
     0
 39
0.003
 10
0.215228
 20
-1.810846
 40
0.003
 41
0.003
 10
0.861028
 20
-1.422862
 40
0.003
 41
0.003
  0
LWPOLYLINE
  5
104
100
AcDbEntity
  8
0
 62
     9
100
AcDbPolyline
 90
        2
 70
     0
 39
0.003
 10
0.861028
 20
-1.422862
 40
0.003
 41
0.003
 10
0.940795
 20
-1.366614
 40
0.003
 41
0.003
  0
LWPOLYLINE
  5
105
100
AcDbEntity
  8
0
 62
     9
100
AcDbPolyline
 90
        2
 70
     0
 39
0.003
 10
0.940795
 20
-1.366614
 40
0.003
 41
0.003
 10
0.294996
 20
-1.754598
 40
0.003
 41
0.003
  0
LWPOLYLINE
  5
106
100
AcDbEntity
  8
0
 62
     9
100
AcDbPolyline
 90
        2
 70
     0
 39
0.003
 10
0.294996
 20
-1.754598
 40
0.003
 41
0.003
 10
0.215228
 20
-1.810846
 40
0.003
 41
0.003
  0
LWPOLYLINE
  5
107
100
AcDbEntity
  8
0
 62
   254
100
AcDbPolyline
 90
        2
 70
     0
 39
0.003
 10
0.294996
 20
-1.754598
 40
0.003
 41
0.003
 10
0.940795
 20
-1.366614
 40
0.003
 41
0.003
  0
LWPOLYLINE
  5
108
100
AcDbEntity
  8
0
 62
   254
100
AcDbPolyline
 90
        2
 70
     0
 39
0.003
 10
0.940795
 20
-1.366614
 40
0.003
 41
0.003
 10
1.007217
 20
-1.305882
 40
0.003
 41
0.003
  0
LWPOLYLINE
  5
109
100
AcDbEntity
  8
0
 62
   254
100
AcDbPolyline
 90
        2
 70
     0
 39
0.003
 10
1.007217
 20
-1.305882
 40
0.003
 41
0.003
 10
0.361417
 20
-1.693866
 40
0.003
 41
0.003
  0
LWPOLYLINE
  5
10A
100
AcDbEntity
  8
0
 62
   254
100
AcDbPolyline
 90
        2
 70
     0
 39
0.003
 10
0.361417
 20
-1.693866
 40
0.003
 41
0.003
 10
0.294996
 20
-1.754598
 40
0.003
 41
0.003
  0
LWPOLYLINE
  5
10B
100
AcDbEntity
  8
0
 62
   254
100
AcDbPolyline
 90
        2
 70
     0
 39
0.003
 10
0.361417
 20
-1.693866
 40
0.003
 41
0.003
 10
1.007217
 20
-1.305882
 40
0.003
 41
0.003
  0
LWPOLYLINE
  5
10C
100
AcDbEntity
  8
0
 62
   254
100
AcDbPolyline
 90
        2
 70
     0
 39
0.003
 10
1.007217
 20
-1.305882
 40
0.003
 41
0.003
 10
1.060783
 20
-1.241197
 40
0.003
 41
0.003
  0
LWPOLYLINE
  5
10D
100
AcDbEntity
  8
0
 62
   254
100
AcDbPolyline
 90
        2
 70
     0
 39
0.003
 10
1.060783
 20
-1.241197
 40
0.003
 41
0.003
 10
0.414984
 20
-1.629181
 40
0.003
 41
0.003
  0
LWPOLYLINE
  5
10E
100
AcDbEntity
  8
0
 62
   254
100
AcDbPolyline
 90
        2
 70
     0
 39
0.003
 10
0.414984
 20
-1.629181
 40
0.003
 41
0.003
 10
0.361417
 20
-1.693866
 40
0.003
 41
0.003
  0
LWPOLYLINE
  5
10F
100
AcDbEntity
  8
0
 62
   254
100
AcDbPolyline
 90
        2
 70
     0
 39
0.003
 10
0.414984
 20
-1.629181
 40
0.003
 41
0.003
 10
1.060783
 20
-1.241197
 40
0.003
 41
0.003
  0
LWPOLYLINE
  5
110
100
AcDbEntity
  8
0
 62
   254
100
AcDbPolyline
 90
        2
 70
     0
 39
0.003
 10
1.060783
 20
-1.241197
 40
0.003
 41
0.003
 10
1.101965
 20
-1.173063
 40
0.003
 41
0.003
  0
LWPOLYLINE
  5
111
100
AcDbEntity
  8
0
 62
   254
100
AcDbPolyline
 90
        2
 70
     0
 39
0.003
 10
1.101965
 20
-1.173063
 40
0.003
 41
0.003
 10
0.456165
 20
-1.561047
 40
0.003
 41
0.003
  0
LWPOLYLINE
  5
112
100
AcDbEntity
  8
0
 62
   254
100
AcDbPolyline
 90
        2
 70
     0
 39
0.003
 10
0.456165
 20
-1.561047
 40
0.003
 41
0.003
 10
0.414984
 20
-1.629181
 40
0.003
 41
0.003
  0
LWPOLYLINE
  5
113
100
AcDbEntity
  8
0
 62
   254
100
AcDbPolyline
 90
        2
 70
     0
 39
0.003
 10
0.456165
 20
-1.561047
 40
0.003
 41
0.003
 10
1.101965
 20
-1.173063
 40
0.003
 41
0.003
  0
LWPOLYLINE
  5
114
100
AcDbEntity
  8
0
 62
   254
100
AcDbPolyline
 90
        2
 70
     0
 39
0.003
 10
1.101965
 20
-1.173063
 40
0.003
 41
0.003
 10
1.13126
 20
-1.102016
 40
0.003
 41
0.003
  0
LWPOLYLINE
  5
115
100
AcDbEntity
  8
0
 62
   254
100
AcDbPolyline
 90
        2
 70
     0
 39
0.003
 10
1.13126
 20
-1.102016
 40
0.003
 41
0.003
 10
0.485461
 20
-1.49
 40
0.003
 41
0.003
  0
LWPOLYLINE
  5
116
100
AcDbEntity
  8
0
 62
   254
100
AcDbPolyline
 90
        2
 70
     0
 39
0.003
 10
0.485461
 20
-1.49
 40
0.003
 41
0.003
 10
0.456165
 20
-1.561047
 40
0.003
 41
0.003
  0
LWPOLYLINE
  5
117
100
AcDbEntity
  8
0
 62
   254
100
AcDbPolyline
 90
        2
 70
     0
 39
0.003
 10
0.485461
 20
-1.49
 40
0.003
 41
0.003
 10
1.13126
 20
-1.102016
 40
0.003
 41
0.003
  0
LWPOLYLINE
  5
118
100
AcDbEntity
  8
0
 62
   254
100
AcDbPolyline
 90
        2
 70
     0
 39
0.003
 10
1.13126
 20
-1.102016
 40
0.003
 41
0.003
 10
1.149146
 20
-1.028567
 40
0.003
 41
0.003
  0
LWPOLYLINE
  5
119
100
AcDbEntity
  8
0
 62
   254
100
AcDbPolyline
 90
        2
 70
     0
 39
0.003
 10
1.149146
 20
-1.028567
 40
0.003
 41
0.003
 10
0.503346
 20
-1.416551
 40
0.003
 41
0.003
  0
LWPOLYLINE
  5
11A
100
AcDbEntity
  8
0
 62
   254
100
AcDbPolyline
 90
        2
 70
     0
 39
0.003
 10
0.503346
 20
-1.416551
 40
0.003
 41
0.003
 10
0.485461
 20
-1.49
 40
0.003
 41
0.003
  0
LWPOLYLINE
  5
11B
100
AcDbEntity
  8
0
 62
   254
100
AcDbPolyline
 90
        2
 70
     0
 39
0.003
 10
0.503346
 20
-1.416551
 40
0.003
 41
0.003
 10
1.149146
 20
-1.028567
 40
0.003
 41
0.003
  0
LWPOLYLINE
  5
11C
100
AcDbEntity
  8
0
 62
   254
100
AcDbPolyline
 90
        2
 70
     0
 39
0.003
 10
1.149146
 20
-1.028567
 40
0.003
 41
0.003
 10
1.156118
 20
-0.95322
 40
0.003
 41
0.003
  0
LWPOLYLINE
  5
11D
100
AcDbEntity
  8
0
 62
   254
100
AcDbPolyline
 90
        2
 70
     0
 39
0.003
 10
1.156118
 20
-0.95322
 40
0.003
 41
0.003
 10
0.510319
 20
-1.341205
 40
0.003
 41
0.003
  0
LWPOLYLINE
  5
11E
100
AcDbEntity
  8
0
 62
   254
100
AcDbPolyline
 90
        2
 70
     0
 39
0.003
 10
0.510319
 20
-1.341205
 40
0.003
 41
0.003
 10
0.503346
 20
-1.416551
 40
0.003
 41
0.003
  0
LWPOLYLINE
  5
11F
100
AcDbEntity
  8
0
 62
   254
100
AcDbPolyline
 90
        2
 70
     0
 39
0.003
 10
0.510319
 20
-1.341205
 40
0.003
 41
0.003
 10
1.156118
 20
-0.95322
 40
0.003
 41
0.003
  0
LWPOLYLINE
  5
120
100
AcDbEntity
  8
0
 62
   254
100
AcDbPolyline
 90
        2
 70
     0
 39
0.003
 10
1.156118
 20
-0.95322
 40
0.003
 41
0.003
 10
1.152646
 20
-0.876516
 40
0.003
 41
0.003
  0
LWPOLYLINE
  5
121
100
AcDbEntity
  8
0
 62
   254
100
AcDbPolyline
 90
        2
 70
     0
 39
0.003
 10
1.152646
 20
-0.876516
 40
0.003
 41
0.003
 10
0.506846
 20
-1.2645
 40
0.003
 41
0.003
  0
LWPOLYLINE
  5
122
100
AcDbEntity
  8
0
 62
   254
100
AcDbPolyline
 90
        2
 70
     0
 39
0.003
 10
0.506846
 20
-1.2645
 40
0.003
 41
0.003
 10
0.510319
 20
-1.341205
 40
0.003
 41
0.003
  0
LWPOLYLINE
  5
123
100
AcDbEntity
  8
0
 62
   254
100
AcDbPolyline
 90
        2
 70
     0
 39
0.003
 10
0.506846
 20
-1.2645
 40
0.003
 41
0.003
 10
1.152646
 20
-0.876516
 40
0.003
 41
0.003
  0
LWPOLYLINE
  5
124
100
AcDbEntity
  8
0
 62
   254
100
AcDbPolyline
 90
        2
 70
     0
 39
0.003
 10
1.152646
 20
-0.876516
 40
0.003
 41
0.003
 10
1.139224
 20
-0.798957
 40
0.003
 41
0.003
  0
LWPOLYLINE
  5
125
100
AcDbEntity
  8
0
 62
   254
100
AcDbPolyline
 90
        2
 70
     0
 39
0.003
 10
1.139224
 20
-0.798957
 40
0.003
 41
0.003
 10
0.493425
 20
-1.186941
 40
0.003
 41
0.003
  0
LWPOLYLINE
  5
126
100
AcDbEntity
  8
0
 62
   254
100
AcDbPolyline
 90
        2
 70
     0
 39
0.003
 10
0.493425
 20
-1.186941
 40
0.003
 41
0.003
 10
0.506846
 20
-1.2645
 40
0.003
 41
0.003
  0
LWPOLYLINE
  5
127
100
AcDbEntity
  8
0
 62
   254
100
AcDbPolyline
 90
        2
 70
     0
 39
0.003
 10
0.493425
 20
-1.186941
 40
0.003
 41
0.003
 10
1.139224
 20
-0.798957
 40
0.003
 41
0.003
  0
LWPOLYLINE
  5
128
100
AcDbEntity
  8
0
 62
   254
100
AcDbPolyline
 90
        2
 70
     0
 39
0.003
 10
1.139224
 20
-0.798957
 40
0.003
 41
0.003
 10
1.116331
 20
-0.721067
 40
0.003
 41
0.003
  0
LWPOLYLINE
  5
129
100
AcDbEntity
  8
0
 62
   254
100
AcDbPolyline
 90
        2
 70
     0
 39
0.003
 10
1.116331
 20
-0.721067
 40
0.003
 41
0.003
 10
0.470531
 20
-1.109051
 40
0.003
 41
0.003
  0
LWPOLYLINE
  5
12A
100
AcDbEntity
  8
0
 62
   254
100
AcDbPolyline
 90
        2
 70
     0
 39
0.003
 10
0.470531
 20
-1.109051
 40
0.003
 41
0.003
 10
0.493425
 20
-1.186941
 40
0.003
 41
0.003
  0
LWPOLYLINE
  5
12B
100
AcDbEntity
  8
0
 62
   254
100
AcDbPolyline
 90
        2
 70
     0
 39
0.003
 10
0.470531
 20
-1.109051
 40
0.003
 41
0.003
 10
1.116331
 20
-0.721067
 40
0.003
 41
0.003
  0
LWPOLYLINE
  5
12C
100
AcDbEntity
  8
0
 62
   254
100
AcDbPolyline
 90
        2
 70
     0
 39
0.003
 10
1.116331
 20
-0.721067
 40
0.003
 41
0.003
 10
1.084461
 20
-0.643366
 40
0.003
 41
0.003
  0
LWPOLYLINE
  5
12D
100
AcDbEntity
  8
0
 62
   254
100
AcDbPolyline
 90
        2
 70
     0
 39
0.003
 10
1.084461
 20
-0.643366
 40
0.003
 41
0.003
 10
0.438661
 20
-1.03135
 40
0.003
 41
0.003
  0
LWPOLYLINE
  5
12E
100
AcDbEntity
  8
0
 62
   254
100
AcDbPolyline
 90
        2
 70
     0
 39
0.003
 10
0.438661
 20
-1.03135
 40
0.003
 41
0.003
 10
0.470531
 20
-1.109051
 40
0.003
 41
0.003
  0
LWPOLYLINE
  5
12F
100
AcDbEntity
  8
0
 62
   254
100
AcDbPolyline
 90
        2
 70
     0
 39
0.003
 10
0.438661
 20
-1.03135
 40
0.003
 41
0.003
 10
1.084461
 20
-0.643366
 40
0.003
 41
0.003
  0
LWPOLYLINE
  5
130
100
AcDbEntity
  8
0
 62
   254
100
AcDbPolyline
 90
        2
 70
     0
 39
0.003
 10
1.084461
 20
-0.643366
 40
0.003
 41
0.003
 10
1.044079
 20
-0.566378
 40
0.003
 41
0.003
  0
LWPOLYLINE
  5
131
100
AcDbEntity
  8
0
 62
   254
100
AcDbPolyline
 90
        2
 70
     0
 39
0.003
 10
1.044079
 20
-0.566378
 40
0.003
 41
0.003
 10
0.39828
 20
-0.954362
 40
0.003
 41
0.003
  0
LWPOLYLINE
  5
132
100
AcDbEntity
  8
0
 62
   254
100
AcDbPolyline
 90
        2
 70
     0
 39
0.003
 10
0.39828
 20
-0.954362
 40
0.003
 41
0.003
 10
0.438661
 20
-1.03135
 40
0.003
 41
0.003
  0
LWPOLYLINE
  5
133
100
AcDbEntity
  8
0
 62
   254
100
AcDbPolyline
 90
        2
 70
     0
 39
0.003
 10
0.39828
 20
-0.954362
 40
0.003
 41
0.003
 10
1.044079
 20
-0.566378
 40
0.003
 41
0.003
  0
LWPOLYLINE
  5
134
100
AcDbEntity
  8
0
 62
   254
100
AcDbPolyline
 90
        2
 70
     0
 39
0.003
 10
1.044079
 20
-0.566378
 40
0.003
 41
0.003
 10
0.995689
 20
-0.490614
 40
0.003
 41
0.003
  0
LWPOLYLINE
  5
135
100
AcDbEntity
  8
0
 62
   254
100
AcDbPolyline
 90
        2
 70
     0
 39
0.003
 10
0.995689
 20
-0.490614
 40
0.003
 41
0.003
 10
0.34989
 20
-0.878598
 40
0.003
 41
0.003
  0
LWPOLYLINE
  5
136
100
AcDbEntity
  8
0
 62
   254
100
AcDbPolyline
 90
        2
 70
     0
 39
0.003
 10
0.34989
 20
-0.878598
 40
0.003
 41
0.003
 10
0.39828
 20
-0.954362
 40
0.003
 41
0.003
  0
LWPOLYLINE
  5
137
100
AcDbEntity
  8
0
 62
   254
100
AcDbPolyline
 90
        2
 70
     0
 39
0.003
 10
0.34989
 20
-0.878598
 40
0.003
 41
0.003
 10
0.995689
 20
-0.490614
 40
0.003
 41
0.003
  0
LWPOLYLINE
  5
138
100
AcDbEntity
  8
0
 62
   254
100
AcDbPolyline
 90
        2
 70
     0
 39
0.003
 10
0.995689
 20
-0.490614
 40
0.003
 41
0.003
 10
0.939764
 20
-0.416594
 40
0.003
 41
0.003
  0
LWPOLYLINE
  5
139
100
AcDbEntity
  8
0
 62
   254
100
AcDbPolyline
 90
        2
 70
     0
 39
0.003
 10
0.939764
 20
-0.416594
 40
0.003
 41
0.003
 10
0.293965
 20
-0.804579
 40
0.003
 41
0.003
  0
LWPOLYLINE
  5
13A
100
AcDbEntity
  8
0
 62
   254
100
AcDbPolyline
 90
        2
 70
     0
 39
0.003
 10
0.293965
 20
-0.804579
 40
0.003
 41
0.003
 10
0.34989
 20
-0.878598
 40
0.003
 41
0.003
  0
LWPOLYLINE
  5
13B
100
AcDbEntity
  8
0
 62
   254
100
AcDbPolyline
 90
        2
 70
     0
 39
0.003
 10
0.293965
 20
-0.804579
 40
0.003
 41
0.003
 10
0.939764
 20
-0.416594
 40
0.003
 41
0.003
  0
LWPOLYLINE
  5
13C
100
AcDbEntity
  8
0
 62
   254
100
AcDbPolyline
 90
        2
 70
     0
 39
0.003
 10
0.939764
 20
-0.416594
 40
0.003
 41
0.003
 10
0.876799
 20
-0.344835
 40
0.003
 41
0.003
  0
LWPOLYLINE
  5
13D
100
AcDbEntity
  8
0
 62
   254
100
AcDbPolyline
 90
        2
 70
     0
 39
0.003
 10
0.876799
 20
-0.344835
 40
0.003
 41
0.003
 10
0.231
 20
-0.732819
 40
0.003
 41
0.003
  0
LWPOLYLINE
  5
13E
100
AcDbEntity
  8
0
 62
   254
100
AcDbPolyline
 90
        2
 70
     0
 39
0.003
 10
0.231
 20
-0.732819
 40
0.003
 41
0.003
 10
0.293965
 20
-0.804579
 40
0.003
 41
0.003
  0
LWPOLYLINE
  5
13F
100
AcDbEntity
  8
0
 62
   254
100
AcDbPolyline
 90
        2
 70
     0
 39
0.003
 10
0.231
 20
-0.732819
 40
0.003
 41
0.003
 10
0.876799
 20
-0.344835
 40
0.003
 41
0.003
  0
LWPOLYLINE
  5
140
100
AcDbEntity
  8
0
 62
   254
100
AcDbPolyline
 90
        2
 70
     0
 39
0.003
 10
0.876799
 20
-0.344835
 40
0.003
 41
0.003
 10
0.807268
 20
-0.275862
 40
0.003
 41
0.003
  0
LWPOLYLINE
  5
141
100
AcDbEntity
  8
0
 62
   254
100
AcDbPolyline
 90
        2
 70
     0
 39
0.003
 10
0.807268
 20
-0.275862
 40
0.003
 41
0.003
 10
0.161469
 20
-0.663846
 40
0.003
 41
0.003
  0
LWPOLYLINE
  5
142
100
AcDbEntity
  8
0
 62
   254
100
AcDbPolyline
 90
        2
 70
     0
 39
0.003
 10
0.161469
 20
-0.663846
 40
0.003
 41
0.003
 10
0.231
 20
-0.732819
 40
0.003
 41
0.003
  0
LWPOLYLINE
  5
143
100
AcDbEntity
  8
0
 62
   254
100
AcDbPolyline
 90
        2
 70
     0
 39
0.003
 10
0.161469
 20
-0.663846
 40
0.003
 41
0.003
 10
0.807268
 20
-0.275862
 40
0.003
 41
0.003
  0
LWPOLYLINE
  5
144
100
AcDbEntity
  8
0
 62
   254
100
AcDbPolyline
 90
        2
 70
     0
 39
0.003
 10
0.807268
 20
-0.275862
 40
0.003
 41
0.003
 10
0.731661
 20
-0.210181
 40
0.003
 41
0.003
  0
LWPOLYLINE
  5
145
100
AcDbEntity
  8
0
 62
   254
100
AcDbPolyline
 90
        2
 70
     0
 39
0.003
 10
0.731661
 20
-0.210181
 40
0.003
 41
0.003
 10
0.085862
 20
-0.598165
 40
0.003
 41
0.003
  0
LWPOLYLINE
  5
146
100
AcDbEntity
  8
0
 62
   254
100
AcDbPolyline
 90
        2
 70
     0
 39
0.003
 10
0.085862
 20
-0.598165
 40
0.003
 41
0.003
 10
0.161469
 20
-0.663846
 40
0.003
 41
0.003
  0
LWPOLYLINE
  5
147
100
AcDbEntity
  8
0
 62
   254
100
AcDbPolyline
 90
        2
 70
     0
 39
0.003
 10
0.085862
 20
-0.598165
 40
0.003
 41
0.003
 10
0.731661
 20
-0.210181
 40
0.003
 41
0.003
  0
LWPOLYLINE
  5
148
100
AcDbEntity
  8
0
 62
   254
100
AcDbPolyline
 90
        2
 70
     0
 39
0.003
 10
0.731661
 20
-0.210181
 40
0.003
 41
0.003
 10
0.650461
 20
-0.148323
 40
0.003
 41
0.003
  0
LWPOLYLINE
  5
149
100
AcDbEntity
  8
0
 62
   254
100
AcDbPolyline
 90
        2
 70
     0
 39
0.003
 10
0.650461
 20
-0.148323
 40
0.003
 41
0.003
 10
0.004661
 20
-0.536307
 40
0.003
 41
0.003
  0
LWPOLYLINE
  5
14A
100
AcDbEntity
  8
0
 62
   254
100
AcDbPolyline
 90
        2
 70
     0
 39
0.003
 10
0.004661
 20
-0.536307
 40
0.003
 41
0.003
 10
0.085862
 20
-0.598165
 40
0.003
 41
0.003
  0
LWPOLYLINE
  5
14B
100
AcDbEntity
  8
0
 62
   254
100
AcDbPolyline
 90
        2
 70
     0
 39
0.003
 10
0.004661
 20
-0.536307
 40
0.003
 41
0.003
 10
0.650461
 20
-0.148323
 40
0.003
 41
0.003
  0
LWPOLYLINE
  5
14C
100
AcDbEntity
  8
0
 62
   254
100
AcDbPolyline
 90
        2
 70
     0
 39
0.003
 10
0.650461
 20
-0.148323
 40
0.003
 41
0.003
 10
0.564154
 20
-0.090799
 40
0.003
 41
0.003
  0
LWPOLYLINE
  5
14D
100
AcDbEntity
  8
0
 62
   254
100
AcDbPolyline
 90
        2
 70
     0
 39
0.003
 10
0.564154
 20
-0.090799
 40
0.003
 41
0.003
 10
-0.081646
 20
-0.478783
 40
0.003
 41
0.003
  0
LWPOLYLINE
  5
14E
100
AcDbEntity
  8
0
 62
   254
100
AcDbPolyline
 90
        2
 70
     0
 39
0.003
 10
-0.081646
 20
-0.478783
 40
0.003
 41
0.003
 10
0.004661
 20
-0.536307
 40
0.003
 41
0.003
  0
LWPOLYLINE
  5
14F
100
AcDbEntity
  8
0
 62
   254
100
AcDbPolyline
 90
        2
 70
     0
 39
0.003
 10
-0.081646
 20
-0.478783
 40
0.003
 41
0.003
 10
0.564154
 20
-0.090799
 40
0.003
 41
0.003
  0
LWPOLYLINE
  5
150
100
AcDbEntity
  8
0
 62
   254
100
AcDbPolyline
 90
        2
 70
     0
 39
0.003
 10
0.564154
 20
-0.090799
 40
0.003
 41
0.003
 10
0.47322
 20
-0.038138
 40
0.003
 41
0.003
  0
LWPOLYLINE
  5
151
100
AcDbEntity
  8
0
 62
   254
100
AcDbPolyline
 90
        2
 70
     0
 39
0.003
 10
0.47322
 20
-0.038138
 40
0.003
 41
0.003
 10
-0.172579
 20
-0.426122
 40
0.003
 41
0.003
  0
LWPOLYLINE
  5
152
100
AcDbEntity
  8
0
 62
   254
100
AcDbPolyline
 90
        2
 70
     0
 39
0.003
 10
-0.172579
 20
-0.426122
 40
0.003
 41
0.003
 10
-0.081646
 20
-0.478783
 40
0.003
 41
0.003
  0
LWPOLYLINE
  5
153
100
AcDbEntity
  8
0
 62
     9
100
AcDbPolyline
 90
        2
 70
     0
 39
0.003
 10
-0.172579
 20
-0.426122
 40
0.003
 41
0.003
 10
0.47322
 20
-0.038138
 40
0.003
 41
0.003
  0
LWPOLYLINE
  5
154
100
AcDbEntity
  8
0
 62
     9
100
AcDbPolyline
 90
        2
 70
     0
 39
0.003
 10
0.47322
 20
-0.038138
 40
0.003
 41
0.003
 10
0.37815
 20
0.009157
 40
0.003
 41
0.003
  0
LWPOLYLINE
  5
155
100
AcDbEntity
  8
0
 62
     9
100
AcDbPolyline
 90
        2
 70
     0
 39
0.003
 10
0.37815
 20
0.009157
 40
0.003
 41
0.003
 10
-0.26765
 20
-0.378827
 40
0.003
 41
0.003
  0
LWPOLYLINE
  5
156
100
AcDbEntity
  8
0
 62
     9
100
AcDbPolyline
 90
        2
 70
     0
 39
0.003
 10
-0.26765
 20
-0.378827
 40
0.003
 41
0.003
 10
-0.172579
 20
-0.426122
 40
0.003
 41
0.003
  0
LWPOLYLINE
  5
157
100
AcDbEntity
  8
0
 62
     9
100
AcDbPolyline
 90
        2
 70
     0
 39
0.003
 10
-0.26765
 20
-0.378827
 40
0.003
 41
0.003
 10
0.37815
 20
0.009157
 40
0.003
 41
0.003
  0
LWPOLYLINE
  5
158
100
AcDbEntity
  8
0
 62
     9
100
AcDbPolyline
 90
        2
 70
     0
 39
0.003
 10
0.37815
 20
0.009157
 40
0.003
 41
0.003
 10
0.279421
 20
0.050555
 40
0.003
 41
0.003
  0
LWPOLYLINE
  5
159
100
AcDbEntity
  8
0
 62
     9
100
AcDbPolyline
 90
        2
 70
     0
 39
0.003
 10
0.279421
 20
0.050555
 40
0.003
 41
0.003
 10
-0.366378
 20
-0.337429
 40
0.003
 41
0.003
  0
LWPOLYLINE
  5
15A
100
AcDbEntity
  8
0
 62
     9
100
AcDbPolyline
 90
        2
 70
     0
 39
0.003
 10
-0.366378
 20
-0.337429
 40
0.003
 41
0.003
 10
-0.26765
 20
-0.378827
 40
0.003
 41
0.003
  0
LWPOLYLINE
  5
15B
100
AcDbEntity
  8
0
 62
     9
100
AcDbPolyline
 90
        2
 70
     0
 39
0.003
 10
-0.366378
 20
-0.337429
 40
0.003
 41
0.003
 10
0.279421
 20
0.050555
 40
0.003
 41
0.003
  0
LWPOLYLINE
  5
15C
100
AcDbEntity
  8
0
 62
     9
100
AcDbPolyline
 90
        2
 70
     0
 39
0.003
 10
0.279421
 20
0.050555
 40
0.003
 41
0.003
 10
0.177524
 20
0.085547
 40
0.003
 41
0.003
  0
LWPOLYLINE
  5
15D
100
AcDbEntity
  8
0
 62
     9
100
AcDbPolyline
 90
        2
 70
     0
 39
0.003
 10
0.177524
 20
0.085547
 40
0.003
 41
0.003
 10
-0.468276
 20
-0.302437
 40
0.003
 41
0.003
  0
LWPOLYLINE
  5
15E
100
AcDbEntity
  8
0
 62
     9
100
AcDbPolyline
 90
        2
 70
     0
 39
0.003
 10
-0.468276
 20
-0.302437
 40
0.003
 41
0.003
 10
-0.366378
 20
-0.337429
 40
0.003
 41
0.003
  0
LWPOLYLINE
  5
15F
100
AcDbEntity
  8
0
 62
     9
100
AcDbPolyline
 90
        2
 70
     0
 39
0.003
 10
-0.468276
 20
-0.302437
 40
0.003
 41
0.003
 10
0.177524
 20
0.085547
 40
0.003
 41
0.003
  0
LWPOLYLINE
  5
160
100
AcDbEntity
  8
0
 62
     9
100
AcDbPolyline
 90
        2
 70
     0
 39
0.003
 10
0.177524
 20
0.085547
 40
0.003
 41
0.003
 10
0.072937
 20
0.113598
 40
0.003
 41
0.003
  0
LWPOLYLINE
  5
161
100
AcDbEntity
  8
0
 62
     9
100
AcDbPolyline
 90
        2
 70
     0
 39
0.003
 10
0.072937
 20
0.113598
 40
0.003
 41
0.003
 10
-0.572862
 20
-0.274386
 40
0.003
 41
0.003
  0
LWPOLYLINE
  5
162
100
AcDbEntity
  8
0
 62
     9
100
AcDbPolyline
 90
        2
 70
     0
 39
0.003
 10
-0.572862
 20
-0.274386
 40
0.003
 41
0.003
 10
-0.468276
 20
-0.302437
 40
0.003
 41
0.003
  0
LWPOLYLINE
  5
163
100
AcDbEntity
  8
0
 62
     9
100
AcDbPolyline
 90
        2
 70
     0
 39
0.003
 10
-0.572862
 20
-0.274386
 40
0.003
 41
0.003
 10
0.072937
 20
0.113598
 40
0.003
 41
0.003
  0
LWPOLYLINE
  5
164
100
AcDbEntity
  8
0
 62
     9
100
AcDbPolyline
 90
        2
 70
     0
 39
0.003
 10
0.072937
 20
0.113598
 40
0.003
 41
0.003
 10
-0.033846
 20
0.134213
 40
0.003
 41
0.003
  0
LWPOLYLINE
  5
165
100
AcDbEntity
  8
0
 62
     9
100
AcDbPolyline
 90
        2
 70
     0
 39
0.003
 10
-0.033846
 20
0.134213
 40
0.003
 41
0.003
 10
-0.679646
 20
-0.253772
 40
0.003
 41
0.003
  0
LWPOLYLINE
  5
166
100
AcDbEntity
  8
0
 62
     9
100
AcDbPolyline
 90
        2
 70
     0
 39
0.003
 10
-0.679646
 20
-0.253772
 40
0.003
 41
0.003
 10
-0.572862
 20
-0.274386
 40
0.003
 41
0.003
  0
LWPOLYLINE
  5
167
100
AcDbEntity
  8
0
 62
   253
100
AcDbPolyline
 90
        2
 70
     0
 39
0.003
 10
-0.679646
 20
-0.253772
 40
0.003
 41
0.003
 10
-0.033846
 20
0.134213
 40
0.003
 41
0.003
  0
LWPOLYLINE
  5
168
100
AcDbEntity
  8
0
 62
   253
100
AcDbPolyline
 90
        2
 70
     0
 39
0.003
 10
-0.033846
 20
0.134213
 40
0.003
 41
0.003
 10
-0.142343
 20
0.146854
 40
0.003
 41
0.003
  0
LWPOLYLINE
  5
169
100
AcDbEntity
  8
0
 62
   253
100
AcDbPolyline
 90
        2
 70
     0
 39
0.003
 10
-0.142343
 20
0.146854
 40
0.003
 41
0.003
 10
-0.788142
 20
-0.24113
 40
0.003
 41
0.003
  0
LWPOLYLINE
  5
16A
100
AcDbEntity
  8
0
 62
   253
100
AcDbPolyline
 90
        2
 70
     0
 39
0.003
 10
-0.788142
 20
-0.24113
 40
0.003
 41
0.003
 10
-0.679646
 20
-0.253772
 40
0.003
 41
0.003
  0
LWPOLYLINE
  5
16B
100
AcDbEntity
  8
0
 62
   253
100
AcDbPolyline
 90
        2
 70
     0
 39
0.003
 10
-0.788142
 20
-0.24113
 40
0.003
 41
0.003
 10
-0.142343
 20
0.146854
 40
0.003
 41
0.003
  0
LWPOLYLINE
  5
16C
100
AcDbEntity
  8
0
 62
   253
100
AcDbPolyline
 90
        2
 70
     0
 39
0.003
 10
-0.142343
 20
0.146854
 40
0.003
 41
0.003
 10
-0.252083
 20
0.15102
 40
0.003
 41
0.003
  0
LWPOLYLINE
  5
16D
100
AcDbEntity
  8
0
 62
   253
100
AcDbPolyline
 90
        2
 70
     0
 39
0.003
 10
-0.252083
 20
0.15102
 40
0.003
 41
0.003
 10
-0.897882
 20
-0.236965
 40
0.003
 41
0.003
  0
LWPOLYLINE
  5
16E
100
AcDbEntity
  8
0
 62
   253
100
AcDbPolyline
 90
        2
 70
     0
 39
0.003
 10
-0.897882
 20
-0.236965
 40
0.003
 41
0.003
 10
-0.788142
 20
-0.24113
 40
0.003
 41
0.003
  0
LWPOLYLINE
  5
16F
100
AcDbEntity
  8
0
 62
     0
100
AcDbPolyline
 90
        2
 70
     0
 39
0.003
 10
0.215228
 20
-1.810846
 40
0.003
 41
0.003
 10
0.861028
 20
-1.422862
 40
0.003
 41
0.003
  0
LWPOLYLINE
  5
170
100
AcDbEntity
  8
0
 62
     0
100
AcDbPolyline
 90
        2
 70
     0
 39
0.003
 10
0.861028
 20
-1.422862
 40
0.003
 41
0.003
 10
0.940795
 20
-1.366614
 40
0.003
 41
0.003
  0
LWPOLYLINE
  5
171
100
AcDbEntity
  8
0
 62
     0
100
AcDbPolyline
 90
        2
 70
     0
 39
0.003
 10
0.940795
 20
-1.366614
 40
0.003
 41
0.003
 10
1.007217
 20
-1.305882
 40
0.003
 41
0.003
  0
LWPOLYLINE
  5
172
100
AcDbEntity
  8
0
 62
     0
100
AcDbPolyline
 90
        2
 70
     0
 39
0.003
 10
1.007217
 20
-1.305882
 40
0.003
 41
0.003
 10
1.060783
 20
-1.241197
 40
0.003
 41
0.003
  0
LWPOLYLINE
  5
173
100
AcDbEntity
  8
0
 62
     0
100
AcDbPolyline
 90
        2
 70
     0
 39
0.003
 10
1.060783
 20
-1.241197
 40
0.003
 41
0.003
 10
1.101965
 20
-1.173063
 40
0.003
 41
0.003
  0
LWPOLYLINE
  5
174
100
AcDbEntity
  8
0
 62
     0
100
AcDbPolyline
 90
        2
 70
     0
 39
0.003
 10
1.101965
 20
-1.173063
 40
0.003
 41
0.003
 10
1.13126
 20
-1.102016
 40
0.003
 41
0.003
  0
LWPOLYLINE
  5
175
100
AcDbEntity
  8
0
 62
     0
100
AcDbPolyline
 90
        2
 70
     0
 39
0.003
 10
1.13126
 20
-1.102016
 40
0.003
 41
0.003
 10
1.149146
 20
-1.028567
 40
0.003
 41
0.003
  0
LWPOLYLINE
  5
176
100
AcDbEntity
  8
0
 62
     0
100
AcDbPolyline
 90
        2
 70
     0
 39
0.003
 10
1.149146
 20
-1.028567
 40
0.003
 41
0.003
 10
1.156118
 20
-0.95322
 40
0.003
 41
0.003
  0
LWPOLYLINE
  5
177
100
AcDbEntity
  8
0
 62
     0
100
AcDbPolyline
 90
        2
 70
     0
 39
0.003
 10
1.156118
 20
-0.95322
 40
0.003
 41
0.003
 10
1.152646
 20
-0.876516
 40
0.003
 41
0.003
  0
LWPOLYLINE
  5
178
100
AcDbEntity
  8
0
 62
     0
100
AcDbPolyline
 90
        2
 70
     0
 39
0.003
 10
1.152646
 20
-0.876516
 40
0.003
 41
0.003
 10
1.139224
 20
-0.798957
 40
0.003
 41
0.003
  0
LWPOLYLINE
  5
179
100
AcDbEntity
  8
0
 62
     0
100
AcDbPolyline
 90
        2
 70
     0
 39
0.003
 10
1.139224
 20
-0.798957
 40
0.003
 41
0.003
 10
1.116331
 20
-0.721067
 40
0.003
 41
0.003
  0
LWPOLYLINE
  5
17A
100
AcDbEntity
  8
0
 62
     0
100
AcDbPolyline
 90
        2
 70
     0
 39
0.003
 10
1.116331
 20
-0.721067
 40
0.003
 41
0.003
 10
1.084461
 20
-0.643366
 40
0.003
 41
0.003
  0
LWPOLYLINE
  5
17B
100
AcDbEntity
  8
0
 62
     0
100
AcDbPolyline
 90
        2
 70
     0
 39
0.003
 10
1.084461
 20
-0.643366
 40
0.003
 41
0.003
 10
1.044079
 20
-0.566378
 40
0.003
 41
0.003
  0
LWPOLYLINE
  5
17C
100
AcDbEntity
  8
0
 62
     0
100
AcDbPolyline
 90
        2
 70
     0
 39
0.003
 10
1.044079
 20
-0.566378
 40
0.003
 41
0.003
 10
0.995689
 20
-0.490614
 40
0.003
 41
0.003
  0
LWPOLYLINE
  5
17D
100
AcDbEntity
  8
0
 62
     0
100
AcDbPolyline
 90
        2
 70
     0
 39
0.003
 10
0.995689
 20
-0.490614
 40
0.003
 41
0.003
 10
0.939764
 20
-0.416594
 40
0.003
 41
0.003
  0
LWPOLYLINE
  5
17E
100
AcDbEntity
  8
0
 62
     0
100
AcDbPolyline
 90
        2
 70
     0
 39
0.003
 10
0.939764
 20
-0.416594
 40
0.003
 41
0.003
 10
0.876799
 20
-0.344835
 40
0.003
 41
0.003
  0
LWPOLYLINE
  5
17F
100
AcDbEntity
  8
0
 62
     0
100
AcDbPolyline
 90
        2
 70
     0
 39
0.003
 10
0.876799
 20
-0.344835
 40
0.003
 41
0.003
 10
0.807268
 20
-0.275862
 40
0.003
 41
0.003
  0
LWPOLYLINE
  5
180
100
AcDbEntity
  8
0
 62
     0
100
AcDbPolyline
 90
        2
 70
     0
 39
0.003
 10
0.807268
 20
-0.275862
 40
0.003
 41
0.003
 10
0.731661
 20
-0.210181
 40
0.003
 41
0.003
  0
LWPOLYLINE
  5
181
100
AcDbEntity
  8
0
 62
     0
100
AcDbPolyline
 90
        2
 70
     0
 39
0.003
 10
0.731661
 20
-0.210181
 40
0.003
 41
0.003
 10
0.650461
 20
-0.148323
 40
0.003
 41
0.003
  0
LWPOLYLINE
  5
182
100
AcDbEntity
  8
0
 62
     0
100
AcDbPolyline
 90
        2
 70
     0
 39
0.003
 10
0.650461
 20
-0.148323
 40
0.003
 41
0.003
 10
0.564154
 20
-0.090799
 40
0.003
 41
0.003
  0
LWPOLYLINE
  5
183
100
AcDbEntity
  8
0
 62
     0
100
AcDbPolyline
 90
        2
 70
     0
 39
0.003
 10
0.564154
 20
-0.090799
 40
0.003
 41
0.003
 10
0.47322
 20
-0.038138
 40
0.003
 41
0.003
  0
LWPOLYLINE
  5
184
100
AcDbEntity
  8
0
 62
     0
100
AcDbPolyline
 90
        2
 70
     0
 39
0.003
 10
0.47322
 20
-0.038138
 40
0.003
 41
0.003
 10
0.37815
 20
0.009157
 40
0.003
 41
0.003
  0
LWPOLYLINE
  5
185
100
AcDbEntity
  8
0
 62
     0
100
AcDbPolyline
 90
        2
 70
     0
 39
0.003
 10
0.37815
 20
0.009157
 40
0.003
 41
0.003
 10
0.279421
 20
0.050555
 40
0.003
 41
0.003
  0
LWPOLYLINE
  5
186
100
AcDbEntity
  8
0
 62
     0
100
AcDbPolyline
 90
        2
 70
     0
 39
0.003
 10
0.279421
 20
0.050555
 40
0.003
 41
0.003
 10
0.177524
 20
0.085547
 40
0.003
 41
0.003
  0
LWPOLYLINE
  5
187
100
AcDbEntity
  8
0
 62
     0
100
AcDbPolyline
 90
        2
 70
     0
 39
0.003
 10
0.177524
 20
0.085547
 40
0.003
 41
0.003
 10
0.072937
 20
0.113598
 40
0.003
 41
0.003
  0
LWPOLYLINE
  5
188
100
AcDbEntity
  8
0
 62
     0
100
AcDbPolyline
 90
        2
 70
     0
 39
0.003
 10
0.072937
 20
0.113598
 40
0.003
 41
0.003
 10
-0.033846
 20
0.134213
 40
0.003
 41
0.003
  0
LWPOLYLINE
  5
189
100
AcDbEntity
  8
0
 62
     0
100
AcDbPolyline
 90
        2
 70
     0
 39
0.003
 10
-0.033846
 20
0.134213
 40
0.003
 41
0.003
 10
-0.142343
 20
0.146854
 40
0.003
 41
0.003
  0
LWPOLYLINE
  5
18A
100
AcDbEntity
  8
0
 62
     0
100
AcDbPolyline
 90
        2
 70
     0
 39
0.003
 10
-0.142343
 20
0.146854
 40
0.003
 41
0.003
 10
-0.252083
 20
0.15102
 40
0.003
 41
0.003
  0
LWPOLYLINE
  5
18B
100
AcDbEntity
  8
0
 62
     0
100
AcDbPolyline
 90
        2
 70
     0
 39
0.003
 10
-0.252083
 20
0.15102
 40
0.003
 41
0.003
 10
-0.897882
 20
-0.236965
 40
0.003
 41
0.003
  0
LWPOLYLINE
  5
18C
100
AcDbEntity
  8
0
 62
     0
100
AcDbPolyline
 90
        2
 70
     0
 39
0.003
 10
-0.897882
 20
-0.236965
 40
0.003
 41
0.003
 10
-0.788142
 20
-0.24113
 40
0.003
 41
0.003
  0
LWPOLYLINE
  5
18D
100
AcDbEntity
  8
0
 62
     0
100
AcDbPolyline
 90
        2
 70
     0
 39
0.003
 10
-0.788142
 20
-0.24113
 40
0.003
 41
0.003
 10
-0.679646
 20
-0.253772
 40
0.003
 41
0.003
  0
LWPOLYLINE
  5
18E
100
AcDbEntity
  8
0
 62
     0
100
AcDbPolyline
 90
        2
 70
     0
 39
0.003
 10
-0.679646
 20
-0.253772
 40
0.003
 41
0.003
 10
-0.572862
 20
-0.274386
 40
0.003
 41
0.003
  0
LWPOLYLINE
  5
18F
100
AcDbEntity
  8
0
 62
     0
100
AcDbPolyline
 90
        2
 70
     0
 39
0.003
 10
-0.572862
 20
-0.274386
 40
0.003
 41
0.003
 10
-0.468276
 20
-0.302437
 40
0.003
 41
0.003
  0
LWPOLYLINE
  5
190
100
AcDbEntity
  8
0
 62
     0
100
AcDbPolyline
 90
        2
 70
     0
 39
0.003
 10
-0.468276
 20
-0.302437
 40
0.003
 41
0.003
 10
-0.366378
 20
-0.337429
 40
0.003
 41
0.003
  0
LWPOLYLINE
  5
191
100
AcDbEntity
  8
0
 62
     0
100
AcDbPolyline
 90
        2
 70
     0
 39
0.003
 10
-0.366378
 20
-0.337429
 40
0.003
 41
0.003
 10
-0.26765
 20
-0.378827
 40
0.003
 41
0.003
  0
LWPOLYLINE
  5
192
100
AcDbEntity
  8
0
 62
     0
100
AcDbPolyline
 90
        2
 70
     0
 39
0.003
 10
-0.26765
 20
-0.378827
 40
0.003
 41
0.003
 10
-0.172579
 20
-0.426122
 40
0.003
 41
0.003
  0
LWPOLYLINE
  5
193
100
AcDbEntity
  8
0
 62
     0
100
AcDbPolyline
 90
        2
 70
     0
 39
0.003
 10
-0.172579
 20
-0.426122
 40
0.003
 41
0.003
 10
-0.081646
 20
-0.478783
 40
0.003
 41
0.003
  0
LWPOLYLINE
  5
194
100
AcDbEntity
  8
0
 62
     0
100
AcDbPolyline
 90
        2
 70
     0
 39
0.003
 10
-0.081646
 20
-0.478783
 40
0.003
 41
0.003
 10
0.004661
 20
-0.536307
 40
0.003
 41
0.003
  0
LWPOLYLINE
  5
195
100
AcDbEntity
  8
0
 62
     0
100
AcDbPolyline
 90
        2
 70
     0
 39
0.003
 10
0.004661
 20
-0.536307
 40
0.003
 41
0.003
 10
0.085862
 20
-0.598165
 40
0.003
 41
0.003
  0
LWPOLYLINE
  5
196
100
AcDbEntity
  8
0
 62
     0
100
AcDbPolyline
 90
        2
 70
     0
 39
0.003
 10
0.085862
 20
-0.598165
 40
0.003
 41
0.003
 10
0.161469
 20
-0.663846
 40
0.003
 41
0.003
  0
LWPOLYLINE
  5
197
100
AcDbEntity
  8
0
 62
     0
100
AcDbPolyline
 90
        2
 70
     0
 39
0.003
 10
0.161469
 20
-0.663846
 40
0.003
 41
0.003
 10
0.231
 20
-0.732819
 40
0.003
 41
0.003
  0
LWPOLYLINE
  5
198
100
AcDbEntity
  8
0
 62
     0
100
AcDbPolyline
 90
        2
 70
     0
 39
0.003
 10
0.231
 20
-0.732819
 40
0.003
 41
0.003
 10
0.293965
 20
-0.804579
 40
0.003
 41
0.003
  0
LWPOLYLINE
  5
199
100
AcDbEntity
  8
0
 62
     0
100
AcDbPolyline
 90
        2
 70
     0
 39
0.003
 10
0.293965
 20
-0.804579
 40
0.003
 41
0.003
 10
0.34989
 20
-0.878598
 40
0.003
 41
0.003
  0
LWPOLYLINE
  5
19A
100
AcDbEntity
  8
0
 62
     0
100
AcDbPolyline
 90
        2
 70
     0
 39
0.003
 10
0.34989
 20
-0.878598
 40
0.003
 41
0.003
 10
0.39828
 20
-0.954362
 40
0.003
 41
0.003
  0
LWPOLYLINE
  5
19B
100
AcDbEntity
  8
0
 62
     0
100
AcDbPolyline
 90
        2
 70
     0
 39
0.003
 10
0.39828
 20
-0.954362
 40
0.003
 41
0.003
 10
0.438661
 20
-1.03135
 40
0.003
 41
0.003
  0
LWPOLYLINE
  5
19C
100
AcDbEntity
  8
0
 62
     0
100
AcDbPolyline
 90
        2
 70
     0
 39
0.003
 10
0.438661
 20
-1.03135
 40
0.003
 41
0.003
 10
0.470531
 20
-1.109051
 40
0.003
 41
0.003
  0
LWPOLYLINE
  5
19D
100
AcDbEntity
  8
0
 62
     0
100
AcDbPolyline
 90
        2
 70
     0
 39
0.003
 10
0.470531
 20
-1.109051
 40
0.003
 41
0.003
 10
0.493425
 20
-1.186941
 40
0.003
 41
0.003
  0
LWPOLYLINE
  5
19E
100
AcDbEntity
  8
0
 62
     0
100
AcDbPolyline
 90
        2
 70
     0
 39
0.003
 10
0.493425
 20
-1.186941
 40
0.003
 41
0.003
 10
0.506846
 20
-1.2645
 40
0.003
 41
0.003
  0
LWPOLYLINE
  5
19F
100
AcDbEntity
  8
0
 62
     0
100
AcDbPolyline
 90
        2
 70
     0
 39
0.003
 10
0.506846
 20
-1.2645
 40
0.003
 41
0.003
 10
0.510319
 20
-1.341205
 40
0.003
 41
0.003
  0
LWPOLYLINE
  5
1A0
100
AcDbEntity
  8
0
 62
     0
100
AcDbPolyline
 90
        2
 70
     0
 39
0.003
 10
0.510319
 20
-1.341205
 40
0.003
 41
0.003
 10
0.503346
 20
-1.416551
 40
0.003
 41
0.003
  0
LWPOLYLINE
  5
1A1
100
AcDbEntity
  8
0
 62
     0
100
AcDbPolyline
 90
        2
 70
     0
 39
0.003
 10
0.503346
 20
-1.416551
 40
0.003
 41
0.003
 10
0.485461
 20
-1.49
 40
0.003
 41
0.003
  0
LWPOLYLINE
  5
1A2
100
AcDbEntity
  8
0
 62
     0
100
AcDbPolyline
 90
        2
 70
     0
 39
0.003
 10
0.485461
 20
-1.49
 40
0.003
 41
0.003
 10
0.456165
 20
-1.561047
 40
0.003
 41
0.003
  0
LWPOLYLINE
  5
1A3
100
AcDbEntity
  8
0
 62
     0
100
AcDbPolyline
 90
        2
 70
     0
 39
0.003
 10
0.456165
 20
-1.561047
 40
0.003
 41
0.003
 10
0.414984
 20
-1.629181
 40
0.003
 41
0.003
  0
LWPOLYLINE
  5
1A4
100
AcDbEntity
  8
0
 62
     0
100
AcDbPolyline
 90
        2
 70
     0
 39
0.003
 10
0.414984
 20
-1.629181
 40
0.003
 41
0.003
 10
0.361417
 20
-1.693866
 40
0.003
 41
0.003
  0
LWPOLYLINE
  5
1A5
100
AcDbEntity
  8
0
 62
     0
100
AcDbPolyline
 90
        2
 70
     0
 39
0.003
 10
0.361417
 20
-1.693866
 40
0.003
 41
0.003
 10
0.294996
 20
-1.754598
 40
0.003
 41
0.003
  0
LWPOLYLINE
  5
1A6
100
AcDbEntity
  8
0
 62
     0
100
AcDbPolyline
 90
        2
 70
     0
 39
0.003
 10
0.294996
 20
-1.754598
 40
0.003
 41
0.003
 10
0.215228
 20
-1.810846
 40
0.003
 41
0.003
  0
LWPOLYLINE
  5
1A7
100
AcDbEntity
  8
0
 62
   253
100
AcDbPolyline
 90
        2
 70
     0
 39
0.003
 10
-0.897882
 20
-0.236965
 40
0.003
 41
0.003
 10
-0.252083
 20
0.15102
 40
0.003
 41
0.003
  0
LWPOLYLINE
  5
1A8
100
AcDbEntity
  8
0
 62
   253
100
AcDbPolyline
 90
        2
 70
     0
 39
0.003
 10
-0.252083
 20
0.15102
 40
0.003
 41
0.003
 10
-0.361815
 20
0.146854
 40
0.003
 41
0.003
  0
LWPOLYLINE
  5
1A9
100
AcDbEntity
  8
0
 62
   253
100
AcDbPolyline
 90
        2
 70
     0
 39
0.003
 10
-0.361815
 20
0.146854
 40
0.003
 41
0.003
 10
-1.007614
 20
-0.24113
 40
0.003
 41
0.003
  0
LWPOLYLINE
  5
1AA
100
AcDbEntity
  8
0
 62
   253
100
AcDbPolyline
 90
        2
 70
     0
 39
0.003
 10
-1.007614
 20
-0.24113
 40
0.003
 41
0.003
 10
-0.897882
 20
-0.236965
 40
0.003
 41
0.003
  0
LWPOLYLINE
  5
1AB
100
AcDbEntity
  8
0
 62
   252
100
AcDbPolyline
 90
        2
 70
     0
 39
0.003
 10
-1.007614
 20
-0.24113
 40
0.003
 41
0.003
 10
-0.361815
 20
0.146854
 40
0.003
 41
0.003
  0
LWPOLYLINE
  5
1AC
100
AcDbEntity
  8
0
 62
   252
100
AcDbPolyline
 90
        2
 70
     0
 39
0.003
 10
-0.361815
 20
0.146854
 40
0.003
 41
0.003
 10
-0.470319
 20
0.134213
 40
0.003
 41
0.003
  0
LWPOLYLINE
  5
1AD
100
AcDbEntity
  8
0
 62
   252
100
AcDbPolyline
 90
        2
 70
     0
 39
0.003
 10
-0.470319
 20
0.134213
 40
0.003
 41
0.003
 10
-1.116118
 20
-0.253772
 40
0.003
 41
0.003
  0
LWPOLYLINE
  5
1AE
100
AcDbEntity
  8
0
 62
   252
100
AcDbPolyline
 90
        2
 70
     0
 39
0.003
 10
-1.116118
 20
-0.253772
 40
0.003
 41
0.003
 10
-1.007614
 20
-0.24113
 40
0.003
 41
0.003
  0
LWPOLYLINE
  5
1AF
100
AcDbEntity
  8
0
 62
   252
100
AcDbPolyline
 90
        2
 70
     0
 39
0.003
 10
-1.116118
 20
-0.253772
 40
0.003
 41
0.003
 10
-0.470319
 20
0.134213
 40
0.003
 41
0.003
  0
LWPOLYLINE
  5
1B0
100
AcDbEntity
  8
0
 62
   252
100
AcDbPolyline
 90
        2
 70
     0
 39
0.003
 10
-0.470319
 20
0.134213
 40
0.003
 41
0.003
 10
-0.577106
 20
0.113598
 40
0.003
 41
0.003
  0
LWPOLYLINE
  5
1B1
100
AcDbEntity
  8
0
 62
   252
100
AcDbPolyline
 90
        2
 70
     0
 39
0.003
 10
-0.577106
 20
0.113598
 40
0.003
 41
0.003
 10
-1.222906
 20
-0.274386
 40
0.003
 41
0.003
  0
LWPOLYLINE
  5
1B2
100
AcDbEntity
  8
0
 62
   252
100
AcDbPolyline
 90
        2
 70
     0
 39
0.003
 10
-1.222906
 20
-0.274386
 40
0.003
 41
0.003
 10
-1.116118
 20
-0.253772
 40
0.003
 41
0.003
  0
LWPOLYLINE
  5
1B3
100
AcDbEntity
  8
0
 62
   127
100
AcDbPolyline
 90
        2
 70
     0
 39
0.003
 10
-1.222906
 20
-0.274386
 40
0.003
 41
0.003
 10
-0.577106
 20
0.113598
 40
0.003
 41
0.003
  0
LWPOLYLINE
  5
1B4
100
AcDbEntity
  8
0
 62
   127
100
AcDbPolyline
 90
        2
 70
     0
 39
0.003
 10
-0.577106
 20
0.113598
 40
0.003
 41
0.003
 10
-0.681693
 20
0.085547
 40
0.003
 41
0.003
  0
LWPOLYLINE
  5
1B5
100
AcDbEntity
  8
0
 62
   127
100
AcDbPolyline
 90
        2
 70
     0
 39
0.003
 10
-0.681693
 20
0.085547
 40
0.003
 41
0.003
 10
-1.327492
 20
-0.302437
 40
0.003
 41
0.003
  0
LWPOLYLINE
  5
1B6
100
AcDbEntity
  8
0
 62
   127
100
AcDbPolyline
 90
        2
 70
     0
 39
0.003
 10
-1.327492
 20
-0.302437
 40
0.003
 41
0.003
 10
-1.222906
 20
-0.274386
 40
0.003
 41
0.003
  0
LWPOLYLINE
  5
1B7
100
AcDbEntity
  8
0
 62
   139
100
AcDbPolyline
 90
        2
 70
     0
 39
0.003
 10
-1.327492
 20
-0.302437
 40
0.003
 41
0.003
 10
-0.681693
 20
0.085547
 40
0.003
 41
0.003
  0
LWPOLYLINE
  5
1B8
100
AcDbEntity
  8
0
 62
   139
100
AcDbPolyline
 90
        2
 70
     0
 39
0.003
 10
-0.681693
 20
0.085547
 40
0.003
 41
0.003
 10
-0.783591
 20
0.050555
 40
0.003
 41
0.003
  0
LWPOLYLINE
  5
1B9
100
AcDbEntity
  8
0
 62
   139
100
AcDbPolyline
 90
        2
 70
     0
 39
0.003
 10
-0.783591
 20
0.050555
 40
0.003
 41
0.003
 10
-1.42939
 20
-0.337429
 40
0.003
 41
0.003
  0
LWPOLYLINE
  5
1BA
100
AcDbEntity
  8
0
 62
   139
100
AcDbPolyline
 90
        2
 70
     0
 39
0.003
 10
-1.42939
 20
-0.337429
 40
0.003
 41
0.003
 10
-1.327492
 20
-0.302437
 40
0.003
 41
0.003
  0
LWPOLYLINE
  5
1BB
100
AcDbEntity
  8
0
 62
   118
100
AcDbPolyline
 90
        2
 70
     0
 39
0.003
 10
-1.42939
 20
-0.337429
 40
0.003
 41
0.003
 10
-0.783591
 20
0.050555
 40
0.003
 41
0.003
  0
LWPOLYLINE
  5
1BC
100
AcDbEntity
  8
0
 62
   118
100
AcDbPolyline
 90
        2
 70
     0
 39
0.003
 10
-0.783591
 20
0.050555
 40
0.003
 41
0.003
 10
-0.882323
 20
0.009157
 40
0.003
 41
0.003
  0
LWPOLYLINE
  5
1BD
100
AcDbEntity
  8
0
 62
   118
100
AcDbPolyline
 90
        2
 70
     0
 39
0.003
 10
-0.882323
 20
0.009157
 40
0.003
 41
0.003
 10
-1.528122
 20
-0.378827
 40
0.003
 41
0.003
  0
LWPOLYLINE
  5
1BE
100
AcDbEntity
  8
0
 62
   118
100
AcDbPolyline
 90
        2
 70
     0
 39
0.003
 10
-1.528122
 20
-0.378827
 40
0.003
 41
0.003
 10
-1.42939
 20
-0.337429
 40
0.003
 41
0.003
  0
LWPOLYLINE
  5
1BF
100
AcDbEntity
  8
0
 62
     0
100
AcDbPolyline
 90
        2
 70
     0
 39
0.003
 10
-1.528122
 20
-0.378827
 40
0.003
 41
0.003
 10
-0.882323
 20
0.009157
 40
0.003
 41
0.003
  0
LWPOLYLINE
  5
1C0
100
AcDbEntity
  8
0
 62
     0
100
AcDbPolyline
 90
        2
 70
     0
 39
0.003
 10
-0.882323
 20
0.009157
 40
0.003
 41
0.003
 10
-0.977398
 20
-0.038138
 40
0.003
 41
0.003
  0
LWPOLYLINE
  5
1C1
100
AcDbEntity
  8
0
 62
     0
100
AcDbPolyline
 90
        2
 70
     0
 39
0.003
 10
-0.977398
 20
-0.038138
 40
0.003
 41
0.003
 10
-1.623197
 20
-0.426122
 40
0.003
 41
0.003
  0
LWPOLYLINE
  5
1C2
100
AcDbEntity
  8
0
 62
     0
100
AcDbPolyline
 90
        2
 70
     0
 39
0.003
 10
-1.623197
 20
-0.426122
 40
0.003
 41
0.003
 10
-1.528122
 20
-0.378827
 40
0.003
 41
0.003
  0
LWPOLYLINE
  5
1C3
100
AcDbEntity
  8
0
 62
     0
100
AcDbPolyline
 90
        2
 70
     0
 39
0.003
 10
-0.897882
 20
-0.236965
 40
0.003
 41
0.003
 10
-0.252083
 20
0.15102
 40
0.003
 41
0.003
  0
LWPOLYLINE
  5
1C4
100
AcDbEntity
  8
0
 62
     0
100
AcDbPolyline
 90
        2
 70
     0
 39
0.003
 10
-0.252083
 20
0.15102
 40
0.003
 41
0.003
 10
-0.361815
 20
0.146854
 40
0.003
 41
0.003
  0
LWPOLYLINE
  5
1C5
100
AcDbEntity
  8
0
 62
     0
100
AcDbPolyline
 90
        2
 70
     0
 39
0.003
 10
-0.361815
 20
0.146854
 40
0.003
 41
0.003
 10
-0.470319
 20
0.134213
 40
0.003
 41
0.003
  0
LWPOLYLINE
  5
1C6
100
AcDbEntity
  8
0
 62
     0
100
AcDbPolyline
 90
        2
 70
     0
 39
0.003
 10
-0.470319
 20
0.134213
 40
0.003
 41
0.003
 10
-0.577106
 20
0.113598
 40
0.003
 41
0.003
  0
LWPOLYLINE
  5
1C7
100
AcDbEntity
  8
0
 62
     0
100
AcDbPolyline
 90
        2
 70
     0
 39
0.003
 10
-0.577106
 20
0.113598
 40
0.003
 41
0.003
 10
-0.681693
 20
0.085547
 40
0.003
 41
0.003
  0
LWPOLYLINE
  5
1C8
100
AcDbEntity
  8
0
 62
     0
100
AcDbPolyline
 90
        2
 70
     0
 39
0.003
 10
-0.681693
 20
0.085547
 40
0.003
 41
0.003
 10
-0.783591
 20
0.050555
 40
0.003
 41
0.003
  0
LWPOLYLINE
  5
1C9
100
AcDbEntity
  8
0
 62
     0
100
AcDbPolyline
 90
        2
 70
     0
 39
0.003
 10
-0.783591
 20
0.050555
 40
0.003
 41
0.003
 10
-0.882323
 20
0.009157
 40
0.003
 41
0.003
  0
LWPOLYLINE
  5
1CA
100
AcDbEntity
  8
0
 62
     0
100
AcDbPolyline
 90
        2
 70
     0
 39
0.003
 10
-0.882323
 20
0.009157
 40
0.003
 41
0.003
 10
-0.977398
 20
-0.038138
 40
0.003
 41
0.003
  0
LWPOLYLINE
  5
1CB
100
AcDbEntity
  8
0
 62
     0
100
AcDbPolyline
 90
        2
 70
     0
 39
0.003
 10
-0.977398
 20
-0.038138
 40
0.003
 41
0.003
 10
-1.623197
 20
-0.426122
 40
0.003
 41
0.003
  0
LWPOLYLINE
  5
1CC
100
AcDbEntity
  8
0
 62
     0
100
AcDbPolyline
 90
        2
 70
     0
 39
0.003
 10
-1.623197
 20
-0.426122
 40
0.003
 41
0.003
 10
-1.528122
 20
-0.378827
 40
0.003
 41
0.003
  0
LWPOLYLINE
  5
1CD
100
AcDbEntity
  8
0
 62
     0
100
AcDbPolyline
 90
        2
 70
     0
 39
0.003
 10
-1.528122
 20
-0.378827
 40
0.003
 41
0.003
 10
-1.42939
 20
-0.337429
 40
0.003
 41
0.003
  0
LWPOLYLINE
  5
1CE
100
AcDbEntity
  8
0
 62
     0
100
AcDbPolyline
 90
        2
 70
     0
 39
0.003
 10
-1.42939
 20
-0.337429
 40
0.003
 41
0.003
 10
-1.327492
 20
-0.302437
 40
0.003
 41
0.003
  0
LWPOLYLINE
  5
1CF
100
AcDbEntity
  8
0
 62
     0
100
AcDbPolyline
 90
        2
 70
     0
 39
0.003
 10
-1.327492
 20
-0.302437
 40
0.003
 41
0.003
 10
-1.222906
 20
-0.274386
 40
0.003
 41
0.003
  0
LWPOLYLINE
  5
1D0
100
AcDbEntity
  8
0
 62
     0
100
AcDbPolyline
 90
        2
 70
     0
 39
0.003
 10
-1.222906
 20
-0.274386
 40
0.003
 41
0.003
 10
-1.116118
 20
-0.253772
 40
0.003
 41
0.003
  0
LWPOLYLINE
  5
1D1
100
AcDbEntity
  8
0
 62
     0
100
AcDbPolyline
 90
        2
 70
     0
 39
0.003
 10
-1.116118
 20
-0.253772
 40
0.003
 41
0.003
 10
-1.007614
 20
-0.24113
 40
0.003
 41
0.003
  0
LWPOLYLINE
  5
1D2
100
AcDbEntity
  8
0
 62
     0
100
AcDbPolyline
 90
        2
 70
     0
 39
0.003
 10
-1.007614
 20
-0.24113
 40
0.003
 41
0.003
 10
-0.897882
 20
-0.236965
 40
0.003
 41
0.003
  0
LWPOLYLINE
  5
1D3
100
AcDbEntity
  8
0
 62
   254
100
AcDbPolyline
 90
        2
 70
     0
 39
0.003
 10
-1.395161
 20
-2.006795
 40
0.003
 41
0.003
 10
-0.749362
 20
-1.618811
 40
0.003
 41
0.003
  0
LWPOLYLINE
  5
1D4
100
AcDbEntity
  8
0
 62
   254
100
AcDbPolyline
 90
        2
 70
     0
 39
0.003
 10
-0.749362
 20
-1.618811
 40
0.003
 41
0.003
 10
-0.749362
 20
-1.119138
 40
0.003
 41
0.003
  0
LWPOLYLINE
  5
1D5
100
AcDbEntity
  8
0
 62
   254
100
AcDbPolyline
 90
        2
 70
     0
 39
0.003
 10
-0.749362
 20
-1.119138
 40
0.003
 41
0.003
 10
-1.395161
 20
-1.507122
 40
0.003
 41
0.003
  0
LWPOLYLINE
  5
1D6
100
AcDbEntity
  8
0
 62
   254
100
AcDbPolyline
 90
        2
 70
     0
 39
0.003
 10
-1.395161
 20
-1.507122
 40
0.003
 41
0.003
 10
-1.395161
 20
-2.006795
 40
0.003
 41
0.003
  0
LWPOLYLINE
  5
1D7
100
AcDbEntity
  8
0
 62
     0
100
AcDbPolyline
 90
        2
 70
     0
 39
0.003
 10
-1.395161
 20
-2.006795
 40
0.003
 41
0.003
 10
-0.749362
 20
-1.618811
 40
0.003
 41
0.003
  0
LWPOLYLINE
  5
1D8
100
AcDbEntity
  8
0
 62
     0
100
AcDbPolyline
 90
        2
 70
     0
 39
0.003
 10
-0.749362
 20
-1.618811
 40
0.003
 41
0.003
 10
-0.749362
 20
-1.119138
 40
0.003
 41
0.003
  0
LWPOLYLINE
  5
1D9
100
AcDbEntity
  8
0
 62
     0
100
AcDbPolyline
 90
        2
 70
     0
 39
0.003
 10
-0.749362
 20
-1.119138
 40
0.003
 41
0.003
 10
-1.395161
 20
-1.507122
 40
0.003
 41
0.003
  0
LWPOLYLINE
  5
1DA
100
AcDbEntity
  8
0
 62
     0
100
AcDbPolyline
 90
        2
 70
     0
 39
0.003
 10
-1.395161
 20
-1.507122
 40
0.003
 41
0.003
 10
-1.395161
 20
-2.006795
 40
0.003
 41
0.003
  0
SPLINE
  5
1DB
100
AcDbEntity
  8
0
 62
     7
100
AcDbSpline
210
0.0
220
0.0
230
1.0
 70
     0
 71
     3
 72
     0
 73
     0
 74
    32
 44
0.0000000001
 11
-0.4007047244094488
 21
-2.0067952755905512
 31
0.0
 11
-0.1089645669291339
 21
-1.9475511811023622
 31
0.0
 11
0.1216417322834646
 21
-1.8621062992125985
 31
0.0
 11
0.294996062992126
 21
-1.7545944881889763
 31
0.0
 11
0.4149842519685039
 21
-1.6291771653543308
 31
0.0
 11
0.4854606299212598
 21
-1.4899921259842519
 31
0.0
 11
0.5103188976377953
 21
-1.3411929133858267
 31
0.0
 11
0.4934251968503937
 21
-1.1869212598425196
 31
0.0
 11
0.4386614173228347
 21
-1.0313425196850394
 31
0.0
 11
0.3498897637795276
 21
-0.8785787401574803
 31
0.0
 11
0.231003937007874
 21
-0.7327992125984252
 31
0.0
 11
0.0858661417322835
 21
-0.5981456692913386
 31
0.0
 11
-0.0816377952755905
 21
-0.4787716535433071
 31
0.0
 11
-0.2676377952755906
 21
-0.3788110236220473
 31
0.0
 11
-0.468263779527559
 21
-0.3024251968503937
 31
0.0
 11
-0.6796338582677165
 21
-0.253759842519685
 31
0.0
 11
-0.8978818897637795
 21
-0.2369645669291339
 31
0.0
 11
-1.1161181102362205
 21
-0.253759842519685
 31
0.0
 11
-1.327492125984252
 21
-0.3024251968503937
 31
0.0
 11
-1.5281220472440944
 21
-0.3788110236220473
 31
0.0
 11
-1.7141377952755905
 21
-0.4787716535433071
 31
0.0
 11
-1.8816496062992125
 21
-0.5981456692913386
 31
0.0
 11
-2.0267992125984251
 21
-0.7327992125984252
 31
0.0
 11
-2.1456929133858269
 21
-0.8785787401574803
 31
0.0
 11
-2.2344763779527561
 21
-1.0313425196850394
 31
0.0
 11
-2.2892480314960628
 21
-1.1869212598425196
 31
0.0
 11
-2.3061535433070866
 21
-1.3411929133858267
 31
0.0
 11
-2.2813031496062992
 21
-1.4899921259842519
 31
0.0
 11
-2.2108346456692916
 21
-1.6291771653543308
 31
0.0
 11
-2.0908582677165355
 21
-1.7545944881889763
 31
0.0
 11
-1.9175039370078739
 21
-1.8621062992125985
 31
0.0
 11
-1.6868976377952756
 21
-1.9475511811023622
 31
0.0
  0
LWPOLYLINE
  5
1DC
100
AcDbEntity
  8
0
 62
     7
100
AcDbPolyline
 90
        2
 70
     0
 39
0.003
 10
-1.686898
 20
-1.947551
 40
0.003
 41
0.003
 10
-1.395161
 20
-2.006795
 40
0.003
 41
0.003
  0
LWPOLYLINE
  5
1DD
100
AcDbEntity
  8
0
 62
     7
100
AcDbPolyline
 90
        2
 70
     0
 39
0.003
 10
-1.395161
 20
-2.006795
 40
0.003
 41
0.003
 10
-1.395161
 20
-1.507122
 40
0.003
 41
0.003
  0
LWPOLYLINE
  5
1DE
100
AcDbEntity
  8
0
 62
     7
100
AcDbPolyline
 90
        2
 70
     0
 39
0.003
 10
-1.395161
 20
-1.507122
 40
0.003
 41
0.003
 10
-0.401516
 20
-1.507122
 40
0.003
 41
0.003
  0
LWPOLYLINE
  5
1DF
100
AcDbEntity
  8
0
 62
     7
100
AcDbPolyline
 90
        2
 70
     0
 39
0.003
 10
-0.401516
 20
-1.507122
 40
0.003
 41
0.003
 10
-0.400705
 20
-2.006795
 40
0.003
 41
0.003
  0
MTEXT
  5
1E0
100
AcDbEntity
  8
0
 62
     0
100
AcDbMText
 10
-2.065469
 20
-1.907717
 30
0.0
 40
0.166665
 41
0.0
 71
     1
 72
     1
  1
{\fBookman Old Style|b0|i0|c0|p32;BA  1447}
 73
     1
 44
1.0
  0
MTEXT
  5
1E1
100
AcDbEntity
  8
0
 62
     0
100
AcDbMText
 10
-2.065469
 20
-2.095217
 30
0.0
 40
0.166665
 41
0.0
 71
     1
 72
     1
  1
{\fBookman Old Style|b0|i0|c0|p32;1-3/4" x 2-13/16"}
 73
     1
 44
1.0
  0
ENDSEC
  0
SECTION
  2
OBJECTS
  0
DICTIONARY
  5
19
100
AcDbDictionary
280
     0
281
     1
  3
ACAD_GROUP
350
1A
  3
ACAD_MLINESTYLE
350
1B
  3
ACAD_LAYOUT
350
1E
  3
ACAD_PLOTSETTINGS
350
22
  3
ACAD_PLOTSTYLENAME
350
1F
  3
ACAD_WIPEOUT_VARS
350
23
  0
DICTIONARY
  5
1A
102
{ACAD_REACTORS
330
19
102
}
100
AcDbDictionary
280
     0
281
     1
  0
DICTIONARY
  5
1B
102
{ACAD_REACTORS
330
19
102
}
100
AcDbDictionary
280
     0
281
     1
  3
Standard
350
1C
  0
MLINESTYLE
  5
1C
102
{ACAD_REACTORS
330
1B
102
}
100
AcDbMlineStyle
  2
Standard
 70
     0
  3

 62
     0
 51
90.0
 52
90.0
 71
     2
 49
0.5
 62
   256
  6
BYLAYER
 49
-0.5
 62
   256
  6
BYLAYER
  0
ACDBDICTIONARYWDFLT
  5
1F
102
{ACAD_REACTORS
330
19
102
}
100
AcDbDictionary
281
     1
  3
Normal
350
1D
100
AcDbDictionaryWithDefault
340
1D
  0
ACDBPLACEHOLDER
  5
1D
102
{ACAD_REACTORS
330
1F
102
}
  0
LAYOUT
  5
20
102
{ACAD_REACTORS
330
1E
102
}
100
AcDbPlotSettings
  1

  2

  4

  6

 40
0.0
 41
0.0
 42
0.0
 43
0.0
 44
0.0
 45
0.0
 46
0.0
 47
0.0
 48
0.0
 49
0.0
140
0.0
141
0.0
142
1.0
143
1.0
 70
  1024
 72
     0
 73
     0
 74
     0
  7

 75
     0
147
1.0
148
0.0
149
0.0
100
AcDbLayout
  1
Model
 70
     0
 71
     0
 10
0.0
 20
0.0
 11
0.0
 21
0.0
 12
0.0
 22
0.0
 32
0.0
 14
0.0
 24
0.0
 34
0.0
 15
0.0
 25
0.0
 35
0.0
146
0.0
 13
0.0
 23
0.0
 33
0.0
 16
0.0
 26
0.0
 36
0.0
 17
0.0
 27
0.0
 37
0.0
 76
     0
330
A
331
0
345
0
346
0
  0
LAYOUT
  5
21
102
{ACAD_REACTORS
330
1E
102
}
100
AcDbPlotSettings
  1

  2

  4

  6

 40
0.0
 41
0.0
 42
0.0
 43
0.0
 44
0.0
 45
0.0
 46
0.0
 47
0.0
 48
0.0
 49
0.0
140
0.0
141
0.0
142
1.0
143
1.0
 70
     0
 72
     0
 73
     0
 74
     0
  7

 75
     0
147
1.0
148
0.0
149
0.0
100
AcDbLayout
  1
Layout1
 70
     0
 71
     0
 10
0.0
 20
0.0
 11
0.0
 21
0.0
 12
0.0
 22
0.0
 32
0.0
 14
0.0
 24
0.0
 34
0.0
 15
0.0
 25
0.0
 35
0.0
146
0.0
 13
0.0
 23
0.0
 33
0.0
 16
0.0
 26
0.0
 36
0.0
 17
0.0
 27
0.0
 37
0.0
 76
     0
330
B
331
0
345
0
346
0
  0
DICTIONARY
  5
1E
102
{ACAD_REACTORS
330
19
102
}
100
AcDbDictionary
280
     0
281
     1
  3
Layout1
350
21
  3
Model
350
20
  0
DICTIONARY
  5
22
102
{ACAD_REACTORS
330
19
102
}
100
AcDbDictionary
280
     0
281
     1
  0
WIPEOUTVARIABLES
  5
23
100
AcDbWipeoutVariables
 70
     1
  0
ENDSEC
  0
EOF
