  0
SECTION
  2
HEADER
  9
$ACADVER
  1
AC1015
  9
$ACADMAINTVER
 70
     6
  9
$DWGCODEPAGE
  3
DOS850
  9
$INSBASE
 10
0.0
 20
0.0
 30
0.0
  9
$EXTMIN
 10
1.000000E+20
 20
1.000000E+20
 30
1.000000E+20
  9
$EXTMAX
 10
-1.000000E+20
 20
-1.000000E+20
 30
-1.000000E+20
  9
$LIMMIN
 10
0.0
 20
0.0
  9
$LIMMAX
 10
0.0
 20
0.0
  9
$ORTHOMODE
 70
     0
  9
$REGENMODE
 70
     1
  9
$FILLMODE
 70
     1
  9
$QTEXTMODE
 70
     0
  9
$MIRRTEXT
 70
     1
  9
$LTSCALE
 40
1.0
  9
$ATTMODE
 70
     1
  9
$TEXTSIZE
 40
0.2
  9
$TRACEWID
 40
0.05
  9
$TEXTSTYLE
  7
Standard
  9
$CLAYER
  8
0
  9
$CELTYPE
  6
Continuous
  9
$CECOLOR
 62
   256
  9
$CELTSCALE
 40
1.0
  9
$DISPSILH
 70
     0
  9
$DIMSCALE
 40
1.0
  9
$DIMASZ
 40
0.18
  9
$DIMEXO
 40
0.0625
  9
$DIMDLI
 40
0.38
  9
$DIMRND
 40
0.0
  9
$DIMDLE
 40
0.0
  9
$DIMEXE
 40
0.18
  9
$DIMTP
 40
0.0
  9
$DIMTM
 40
0.0
  9
$DIMTXT
 40
0.18
  9
$DIMCEN
 40
0.09
  9
$DIMTSZ
 40
0.0
  9
$DIMTOL
 70
     0
  9
$DIMLIM
 70
     0
  9
$DIMTIH
 70
     1
  9
$DIMTOH
 70
     1
  9
$DIMSE1
 70
     0
  9
$DIMSE2
 70
     0
  9
$DIMTAD
 70
     0
  9
$DIMZIN
 70
     0
  9
$DIMBLK
  1

  9
$DIMASO
 70
     1
  9
$DIMSHO
 70
     1
  9
$DIMPOST
  1

  9
$DIMAPOST
  1

  9
$DIMALT
 70
     0
  9
$DIMALTD
 70
     2
  9
$DIMALTF
 40
25.4
  9
$DIMLFAC
 40
1.0
  9
$DIMTOFL
 70
     0
  9
$DIMTVP
 40
0.0
  9
$DIMTIX
 70
     0
  9
$DIMSOXD
 70
     0
  9
$DIMSAH
 70
     0
  9
$DIMBLK1
  1

  9
$DIMBLK2
  1

  9
$DIMSTYLE
  2
Standard
  9
$DIMCLRD
 70
     0
  9
$DIMCLRE
 70
     0
  9
$DIMCLRT
 70
     0
  9
$DIMTFAC
 40
1.0
  9
$DIMGAP
 40
0.09
  9
$DIMJUST
 70
     0
  9
$DIMSD1
 70
     0
  9
$DIMSD2
 70
     0
  9
$DIMTOLJ
 70
     1
  9
$DIMTZIN
 70
     0
  9
$DIMALTZ
 70
     0
  9
$DIMALTTZ
 70
     0
  9
$DIMUPT
 70
     0
  9
$DIMDEC
 70
     4
  9
$DIMTDEC
 70
     4
  9
$DIMALTU
 70
     2
  9
$DIMALTTD
 70
     2
  9
$DIMTXSTY
  7
Standard
  9
$DIMAUNIT
 70
     0
  9
$DIMADEC
 70
     0
  9
$DIMALTRND
 40
0.0
  9
$DIMAZIN
 70
     0
  9
$DIMDSEP
 70
     0
  9
$DIMATFIT
 70
     3
  9
$DIMFRAC
 70
     0
  9
$DIMLDRBLK
  1

  9
$DIMLUNIT
 70
     2
  9
$DIMLWD
 70
     0
  9
$DIMLWE
 70
     0
  9
$DIMTMOVE
 70
     0
  9
$LUNITS
 70
     2
  9
$LUPREC
 70
     4
  9
$SKETCHINC
 40
0.1
  9
$FILLETRAD
 40
0.0
  9
$AUNITS
 70
     0
  9
$AUPREC
 70
     0
  9
$MENU
  1
acad
  9
$ELEVATION
 40
0.0
  9
$PELEVATION
 40
0.0
  9
$THICKNESS
 40
0.0
  9
$LIMCHECK
 70
     0
  9
$CHAMFERA
 40
0.0
  9
$CHAMFERB
 40
0.0
  9
$CHAMFERC
 40
0.0
  9
$CHAMFERD
 40
0.0
  9
$SKPOLY
 70
     0
  9
$TDCREATE
 40
0.000000000
  9
$TDUCREATE
 40
0.000000000
  9
$TDUPDATE
 40
0.000000000
  9
$TDUUPDATE
 40
0.000000000
  9
$TDINDWG
 40
0.0000000000
  9
$TDUSRTIMER
 40
0.0000000000
  9
$USRTIMER
 70
     1
  9
$ANGBASE
 50
0.0
  9
$ANGDIR
 70
     0
  9
$PDMODE
 70
     0
  9
$PDSIZE
 40
0.0
  9
$PLINEWID
 40
0.0
  9
$SPLFRAME
 70
     0
  9
$SPLINETYPE
 70
     6
  9
$SPLINESEGS
 70
     8
  9
$HANDSEED
  5
362
  9
$SURFTAB1
 70
     6
  9
$SURFTAB2
 70
     6
  9
$SURFTYPE
 70
     6
  9
$SURFU
 70
     6
  9
$SURFV
 70
     6
  9
$UCSBASE
  2

  9
$UCSNAME
  2

  9
$UCSORG
 10
0.0
 20
0.0
 30
0.0
  9
$UCSXDIR
 10
1.0
 20
0.0
 30
0.0
  9
$UCSYDIR
 10
0.0
 20
1.0
 30
0.0
  9
$UCSORTHOREF
  2

  9
$UCSORTHOVIEW
 70
     0
  9
$UCSORGTOP
 10
0.0
 20
0.0
 30
0.0
  9
$UCSORGBOTTOM
 10
0.0
 20
0.0
 30
0.0
  9
$UCSORGLEFT
 10
0.0
 20
0.0
 30
0.0
  9
$UCSORGRIGHT
 10
0.0
 20
0.0
 30
0.0
  9
$UCSORGFRONT
 10
0.0
 20
0.0
 30
0.0
  9
$UCSORGBACK
 10
0.0
 20
0.0
 30
0.0
  9
$PUCSBASE
  2

  9
$PUCSNAME
  2

  9
$PUCSORG
 10
0.0
 20
0.0
 30
0.0
  9
$PUCSXDIR
 10
1.0
 20
0.0
 30
0.0
  9
$PUCSYDIR
 10
0.0
 20
1.0
 30
0.0
  9
$PUCSORTHOREF
  2

  9
$PUCSORTHOVIEW
 70
     0
  9
$PUCSORGTOP
 10
0.0
 20
0.0
 30
0.0
  9
$PUCSORGBOTTOM
 10
0.0
 20
0.0
 30
0.0
  9
$PUCSORGLEFT
 10
0.0
 20
0.0
 30
0.0
  9
$PUCSORGRIGHT
 10
0.0
 20
0.0
 30
0.0
  9
$PUCSORGFRONT
 10
0.0
 20
0.0
 30
0.0
  9
$PUCSORGBACK
 10
0.0
 20
0.0
 30
0.0
  9
$USERI1
 70
     0
  9
$USERI2
 70
     0
  9
$USERI3
 70
     0
  9
$USERI4
 70
     0
  9
$USERI5
 70
     0
  9
$USERR1
 40
0.0
  9
$USERR2
 40
0.0
  9
$USERR3
 40
0.0
  9
$USERR4
 40
0.0
  9
$USERR5
 40
0.0
  9
$WORLDVIEW
 70
     1
  9
$SHADEDGE
 70
     3
  9
$SHADEDIF
 70
    70
  9
$TILEMODE
 70
     1
  9
$MAXACTVP
 70
    16
  9
$PINSBASE
 10
0.0
 20
0.0
 30
0.0
  9
$PLIMCHECK
 70
     0
  9
$PEXTMIN
 10
1.000000E+20
 20
1.000000E+20
 30
1.000000E+20
  9
$PEXTMAX
 10
-1.000000E+20
 20
-1.000000E+20
 30
-1.000000E+20
  9
$PLIMMIN
 10
0.0
 20
0.0
  9
$PLIMMAX
 10
12.0
 20
9.0
  9
$UNITMODE
 70
     0
  9
$VISRETAIN
 70
     0
  9
$PLINEGEN
 70
     1
  9
$PSLTSCALE
 70
     0
  9
$TREEDEPTH
 70
  3020
  9
$CMLSTYLE
  2
Standard
  9
$CMLJUST
 70
     0
  9
$CMLSCALE
 40
1.0
  9
$PROXYGRAPHICS
 70
     0
  9
$MEASUREMENT
 70
     0
  9
$CELWEIGHT
370
     0
  9
$ENDCAPS
280
     0
  9
$JOINSTYLE
280
     0
  9
$LWDISPLAY
290
     0
  9
$INSUNITS
 70
     0
  9
$HYPERLINKBASE
  1

  9
$XEDIT
290
     1
  9
$CEPSNTYPE
380
     0
  9
$PSTYLEMODE
290
     1
  9
$FINGERPRINTGUID
  2

  9
$VERSIONGUID
  2

  9
$EXTNAMES
290
     1
  9
$PSVPSCALE
 40
0.0
  0
ENDSEC
  0
SECTION
  2
CLASSES
  0
CLASS
  1
LWPOLYLINE
  2
AcDbPolyline
  3
AutoCAD 2000
 90
        0
280
     0
281
     1
  0
CLASS
  1
IMAGE
  2
AcDbRasterImage
  3
ISM
 90
    32895
280
     0
281
     1
  0
CLASS
  1
OLE2FRAME
  2
AcDbOle2Frame
  3
AutoCAD 2000
 90
    32768
280
     0
281
     1
  0
CLASS
  1
HATCH
  2
AcDbHatch
  3
AutoCAD 2000
 90
    32768
280
     0
281
     1
  0
CLASS
  1
DICTIONARYVAR
  2
AcDbDictionaryVar
  3
AutoCAD 2000
 90
    32768
280
     0
281
     0
  0
CLASS
  1
RASTERVARIABLES
  2
AcDbRasterVariables
  3
ISM
 90
    32768
280
     0
281
     0
  0
CLASS
  1
IMAGEDEF
  2
AcDbRasterImageDef
  3
ISM
 90
    32768
280
     0
281
     0
  0
CLASS
  1
IMAGEDEF_REACTOR
  2
AcDbRasterImageDefReactor
  3
ISM
 90
    32769
280
     0
281
     0
  0
CLASS
  1
IDBUFFER
  2
AcDbIdBuffer
  3
AutoCAD 2000
 90
    32768
280
     0
281
     0
  0
CLASS
  1
SPATIAL_FILTER
  2
AcDbSpatialFilter
  3
AutoCAD 2000
 90
    32768
280
     0
281
     0
  0
CLASS
  1
XRECORD
  2
AcDbXrecord
  3
AutoCAD 2000
 90
    32768
280
     0
281
     0
  0
CLASS
  1
SORTENTSTABLE
  2
AcDbSortentsTable
  3
AutoCAD 2000
 90
    32768
280
     0
281
     0
  0
CLASS
  1
LAYER_INDEX
  2
AcDbLayerIndex
  3
AutoCAD 2000
 90
    32768
280
     0
281
     0
  0
CLASS
  1
SPATIAL_INDEX
  2
AcDbSpatialIndex
  3
AutoCAD 2000
 90
    32768
280
     0
281
     0
  0
CLASS
  1
OBJECT_PTR
  2
CAseDLPNTableRecord
  3
"ASE-LPNTableRecord"
 90
    32769
280
     0
281
     0
  0
CLASS
  1
LAYOUT
  2
AcDbLayout
  3
AutoCAD 2000
 90
        0
280
     0
281
     0
  0
CLASS
  1
PLOTSETTINGS
  2
AcDbPlotSettings
  3
AutoCAD 2000
 90
    32768
280
     0
281
     0
  0
CLASS
  1
ACDBDICTIONARYWDFLT
  2
AcDbDictionaryWithDefault
  3
AutoCAD 2000
 90
        0
280
     0
281
     0
  0
CLASS
  1
ACDBPLACEHOLDER
  2
AcDbPlaceHolder
  3
AutoCAD 2000
 90
        0
280
     0
281
     0
  0
CLASS
  1
VBA_PROJECT
  2
AcDbVbaProject
  3
acadvba
 90
    32768
280
     0
281
     0
  0
CLASS
  1
WIPEOUT
  2
AcDbWipeout
  3
WipeOut|AutoCAD Express Tool|expresstools@autodesk.com
 90
    32895
280
     0
281
     1
  0
CLASS
  1
WIPEOUTVARIABLES
  2
AcDbWipeoutVariables
  3
WipeOut|AutoCAD Express Tool|expresstools@autodesk.com
 90
        0
280
     0
281
     0
  0
CLASS
  1
RTEXT
  2
RText
  3
RText|AutoCAD Express Tool|expresstools@autodesk.com
 90
    32768
280
     0
281
     1
  0
CLASS
  1
ARCALIGNEDTEXT
  2
AcDbArcAlignedText
  3
ATEXT|AutoCAD Express Tool|expresstools@autodesk.com
 90
    32768
280
     0
281
     1
  0
ENDSEC
  0
SECTION
  2
TABLES
  0
TABLE
  2
VPORT
  5
7
100
AcDbSymbolTable
 70
     1
  0
VPORT
  5
15
100
AcDbSymbolTableRecord
100
AcDbViewportTableRecord
  2
*ACTIVE
 70
     0
 10
0.0
 20
0.0
 11
1.0
 21
1.0
 12
6.591288
 22
4.579184
 13
0.0
 23
0.0
 14
1.0
 24
1.0
 15
0.0
 25
0.0
 16
0.0
 26
0.0
 36
1.0
 17
0.0
 27
0.0
 37
0.0
 40
9.158369
 41
0.688564
 42
50.0
 43
0.0
 44
0.0
 50
0.0
 51
0.0
 71
     0
 72
   100
 73
     1
 74
     1
 75
     0
 76
     0
 77
     0
 78
     0
281
     0
 65
     0
110
0.0
120
0.0
130
0.0
111
1.0
121
0.0
131
0.0
112
0.0
122
1.0
132
0.0
345
0
346
0
 79
     0
146
0.0
  0
ENDTAB
  0
TABLE
  2
LTYPE
  5
4
100
AcDbSymbolTable
 70
     3
  0
LTYPE
  5
11
100
AcDbSymbolTableRecord
100
AcDbLinetypeTableRecord
  2
ByBlock
 70
    64
  3

 72
    65
 73
     0
 40
0.0
  0
LTYPE
  5
12
100
AcDbSymbolTableRecord
100
AcDbLinetypeTableRecord
  2
ByLayer
 70
    64
  3

 72
    65
 73
     0
 40
0.0
  0
LTYPE
  5
13
100
AcDbSymbolTableRecord
100
AcDbLinetypeTableRecord
  2
Continuous
 70
    64
  3
Solid line
 72
    65
 73
     0
 40
0.0
  0
ENDTAB
  0
TABLE
  2
LAYER
  5
2
100
AcDbSymbolTable
 70
     1
  0
LAYER
  5
14
100
AcDbSymbolTableRecord
100
AcDbLayerTableRecord
  2
0
 70
     0
 62
     7
  6
Continuous
290
     1
370
    -3
390
1D
  0
ENDTAB
  0
TABLE
  2
STYLE
  5
3
100
AcDbSymbolTable
 70
     1
  0
STYLE
  5
17
100
AcDbSymbolTableRecord
100
AcDbTextStyleTableRecord
  2
Standard
 70
     0
 40
0.0
 41
1.0
 50
0.0
 71
     0
 42
0.0
  3
txt
  4

  0
ENDTAB
  0
TABLE
  2
VIEW
  5
5
100
AcDbSymbolTable
 70
     0
  0
ENDTAB
  0
TABLE
  2
UCS
  5
6
100
AcDbSymbolTable
 70
     0
  0
ENDTAB
  0
TABLE
  2
APPID
  5
8
100
AcDbSymbolTable
 70
     1
  0
APPID
  5
16
100
AcDbSymbolTableRecord
100
AcDbRegAppTableRecord
  2
ACAD
 70
     0
  0
ENDTAB
  0
TABLE
  2
DIMSTYLE
  5
9
100
AcDbSymbolTable
 70
     1
100
AcDbDimStyleTable
 71
     0
  0
DIMSTYLE
105
18
100
AcDbSymbolTableRecord
100
AcDbDimStyleTableRecord
  2
Standard
 70
     0
  3

  4

 40
1.0
 41
0.18
 42
0.0625
 43
0.38
 44
0.18
 45
0.0
 46
0.0
 47
0.0
 48
0.0
 71
     0
 72
     0
 73
     1
 74
     1
 75
     0
 76
     0
 77
     0
 78
     0
 79
     0
140
0.18
141
0.09
142
0.0
143
25.4
144
1.0
145
0.0
146
1.0
147
0.09
148
0.0
170
     0
171
     2
172
     0
173
     0
174
     0
175
     0
176
     0
177
     0
178
     0
179
     0
271
     4
272
     4
273
     2
274
     2
275
     0
276
     0
277
     2
278
    46
279
     0
280
     0
281
     0
282
     0
283
     1
284
     0
285
     0
286
     0
288
     0
340
17
341
0
342
0
343
0
344
0
371
    -2
372
    -2
  0
ENDTAB
  0
TABLE
  2
BLOCK_RECORD
  5
1
100
AcDbSymbolTable
 70
     0
  0
BLOCK_RECORD
  5
A
100
AcDbSymbolTableRecord
100
AcDbBlockTableRecord
  2
*MODEL_SPACE
340
20
  0
BLOCK_RECORD
  5
B
100
AcDbSymbolTableRecord
100
AcDbBlockTableRecord
  2
*PAPER_SPACE
340
21
  0
ENDTAB
  0
ENDSEC
  0
SECTION
  2
BLOCKS
  0
BLOCK
  5
D
100
AcDbEntity
  8
0
100
AcDbBlockBegin
  2
*MODEL_SPACE
 70
     0
 10
0.0
 20
0.0
 30
0.0
  3
*MODEL_SPACE
  1

  0
ENDBLK
  5
E
100
AcDbEntity
  8
0
100
AcDbBlockEnd
  0
BLOCK
  5
F
100
AcDbEntity
 67
     1
  8
0
100
AcDbBlockBegin
  2
*PAPER_SPACE
 70
     0
 10
0.0
 20
0.0
 30
0.0
  3
*PAPER_SPACE
  1

  0
ENDBLK
  5
10
100
AcDbEntity
 67
     1
  8
0
100
AcDbBlockEnd
  0
ENDSEC
  0
SECTION
  2
ENTITIES
  0
LINE
  5
24
100
AcDbEntity
  8
0
 62
   254
100
AcDbLine
 10
0.187146
 20
-0.434717
 30
0.0
 11
0.934287
 21
-0.437496
 31
0.0
  0
LINE
  5
25
100
AcDbEntity
  8
0
 62
   254
100
AcDbLine
 10
0.934287
 20
-0.437496
 30
0.0
 11
0.935031
 21
-0.422618
 31
0.0
  0
LINE
  5
26
100
AcDbEntity
  8
0
 62
   254
100
AcDbLine
 10
0.935031
 20
-0.422618
 30
0.0
 11
0.18789
 21
-0.419839
 31
0.0
  0
LINE
  5
27
100
AcDbEntity
  8
0
 62
   254
100
AcDbLine
 10
0.18789
 20
-0.419839
 30
0.0
 11
0.187146
 21
-0.434717
 31
0.0
  0
LINE
  5
28
100
AcDbEntity
  8
0
 62
   254
100
AcDbLine
 10
0.18789
 20
-0.419839
 30
0.0
 11
0.935031
 21
-0.422618
 31
0.0
  0
LINE
  5
29
100
AcDbEntity
  8
0
 62
   254
100
AcDbLine
 10
0.935031
 20
-0.422618
 30
0.0
 11
0.935913
 21
-0.408091
 31
0.0
  0
LINE
  5
2A
100
AcDbEntity
  8
0
 62
   254
100
AcDbLine
 10
0.935913
 20
-0.408091
 30
0.0
 11
0.188772
 21
-0.405311
 31
0.0
  0
LINE
  5
2B
100
AcDbEntity
  8
0
 62
   254
100
AcDbLine
 10
0.188772
 20
-0.405311
 30
0.0
 11
0.18789
 21
-0.419839
 31
0.0
  0
LINE
  5
2C
100
AcDbEntity
  8
0
 62
   254
100
AcDbLine
 10
0.188772
 20
-0.405311
 30
0.0
 11
0.935913
 21
-0.408091
 31
0.0
  0
LINE
  5
2D
100
AcDbEntity
  8
0
 62
   254
100
AcDbLine
 10
0.935913
 20
-0.408091
 30
0.0
 11
0.936949
 21
-0.393894
 31
0.0
  0
LINE
  5
2E
100
AcDbEntity
  8
0
 62
   254
100
AcDbLine
 10
0.936949
 20
-0.393894
 30
0.0
 11
0.189807
 21
-0.391114
 31
0.0
  0
LINE
  5
2F
100
AcDbEntity
  8
0
 62
   254
100
AcDbLine
 10
0.189807
 20
-0.391114
 30
0.0
 11
0.188772
 21
-0.405311
 31
0.0
  0
LINE
  5
30
100
AcDbEntity
  8
0
 62
   254
100
AcDbLine
 10
0.189807
 20
-0.391114
 30
0.0
 11
0.936949
 21
-0.393894
 31
0.0
  0
LINE
  5
31
100
AcDbEntity
  8
0
 62
   254
100
AcDbLine
 10
0.936949
 20
-0.393894
 30
0.0
 11
0.938157
 21
-0.380028
 31
0.0
  0
LINE
  5
32
100
AcDbEntity
  8
0
 62
   254
100
AcDbLine
 10
0.938157
 20
-0.380028
 30
0.0
 11
0.191016
 21
-0.377248
 31
0.0
  0
LINE
  5
33
100
AcDbEntity
  8
0
 62
   254
100
AcDbLine
 10
0.191016
 20
-0.377248
 30
0.0
 11
0.189807
 21
-0.391114
 31
0.0
  0
LINE
  5
34
100
AcDbEntity
  8
0
 62
   254
100
AcDbLine
 10
0.191016
 20
-0.377248
 30
0.0
 11
0.938157
 21
-0.380028
 31
0.0
  0
LINE
  5
35
100
AcDbEntity
  8
0
 62
   254
100
AcDbLine
 10
0.938157
 20
-0.380028
 30
0.0
 11
0.939555
 21
-0.366476
 31
0.0
  0
LINE
  5
36
100
AcDbEntity
  8
0
 62
   254
100
AcDbLine
 10
0.939555
 20
-0.366476
 30
0.0
 11
0.192413
 21
-0.363697
 31
0.0
  0
LINE
  5
37
100
AcDbEntity
  8
0
 62
   254
100
AcDbLine
 10
0.192413
 20
-0.363697
 30
0.0
 11
0.191016
 21
-0.377248
 31
0.0
  0
LINE
  5
38
100
AcDbEntity
  8
0
 62
   254
100
AcDbLine
 10
0.192413
 20
-0.363697
 30
0.0
 11
0.939555
 21
-0.366476
 31
0.0
  0
LINE
  5
39
100
AcDbEntity
  8
0
 62
   254
100
AcDbLine
 10
0.939555
 20
-0.366476
 30
0.0
 11
0.941173
 21
-0.353244
 31
0.0
  0
LINE
  5
3A
100
AcDbEntity
  8
0
 62
   254
100
AcDbLine
 10
0.941173
 20
-0.353244
 30
0.0
 11
0.194031
 21
-0.350465
 31
0.0
  0
LINE
  5
3B
100
AcDbEntity
  8
0
 62
   254
100
AcDbLine
 10
0.194031
 20
-0.350465
 30
0.0
 11
0.192413
 21
-0.363697
 31
0.0
  0
LINE
  5
3C
100
AcDbEntity
  8
0
 62
   254
100
AcDbLine
 10
0.194031
 20
-0.350465
 30
0.0
 11
0.941173
 21
-0.353244
 31
0.0
  0
LINE
  5
3D
100
AcDbEntity
  8
0
 62
   254
100
AcDbLine
 10
0.941173
 20
-0.353244
 30
0.0
 11
0.943028
 21
-0.340311
 31
0.0
  0
LINE
  5
3E
100
AcDbEntity
  8
0
 62
   254
100
AcDbLine
 10
0.943028
 20
-0.340311
 30
0.0
 11
0.195886
 21
-0.337531
 31
0.0
  0
LINE
  5
3F
100
AcDbEntity
  8
0
 62
   254
100
AcDbLine
 10
0.195886
 20
-0.337531
 30
0.0
 11
0.194031
 21
-0.350465
 31
0.0
  0
LINE
  5
40
100
AcDbEntity
  8
0
 62
   254
100
AcDbLine
 10
0.195886
 20
-0.337531
 30
0.0
 11
0.943028
 21
-0.340311
 31
0.0
  0
LINE
  5
41
100
AcDbEntity
  8
0
 62
   254
100
AcDbLine
 10
0.943028
 20
-0.340311
 30
0.0
 11
0.945146
 21
-0.327685
 31
0.0
  0
LINE
  5
42
100
AcDbEntity
  8
0
 62
   254
100
AcDbLine
 10
0.945146
 20
-0.327685
 30
0.0
 11
0.198004
 21
-0.324906
 31
0.0
  0
LINE
  5
43
100
AcDbEntity
  8
0
 62
   254
100
AcDbLine
 10
0.198004
 20
-0.324906
 30
0.0
 11
0.195886
 21
-0.337531
 31
0.0
  0
LINE
  5
44
100
AcDbEntity
  8
0
 62
   254
100
AcDbLine
 10
0.198004
 20
-0.324906
 30
0.0
 11
0.945146
 21
-0.327685
 31
0.0
  0
LINE
  5
45
100
AcDbEntity
  8
0
 62
   254
100
AcDbLine
 10
0.945146
 20
-0.327685
 30
0.0
 11
0.947531
 21
-0.315335
 31
0.0
  0
LINE
  5
46
100
AcDbEntity
  8
0
 62
   254
100
AcDbLine
 10
0.947531
 20
-0.315335
 30
0.0
 11
0.20039
 21
-0.312555
 31
0.0
  0
LINE
  5
47
100
AcDbEntity
  8
0
 62
   254
100
AcDbLine
 10
0.20039
 20
-0.312555
 30
0.0
 11
0.198004
 21
-0.324906
 31
0.0
  0
LINE
  5
48
100
AcDbEntity
  8
0
 62
   254
100
AcDbLine
 10
0.20039
 20
-0.312555
 30
0.0
 11
0.947531
 21
-0.315335
 31
0.0
  0
LINE
  5
49
100
AcDbEntity
  8
0
 62
   254
100
AcDbLine
 10
0.947531
 20
-0.315335
 30
0.0
 11
0.950224
 21
-0.303276
 31
0.0
  0
LINE
  5
4A
100
AcDbEntity
  8
0
 62
   254
100
AcDbLine
 10
0.950224
 20
-0.303276
 30
0.0
 11
0.203083
 21
-0.300496
 31
0.0
  0
LINE
  5
4B
100
AcDbEntity
  8
0
 62
   254
100
AcDbLine
 10
0.203083
 20
-0.300496
 30
0.0
 11
0.20039
 21
-0.312555
 31
0.0
  0
LINE
  5
4C
100
AcDbEntity
  8
0
 62
   254
100
AcDbLine
 10
0.203083
 20
-0.300496
 30
0.0
 11
0.950224
 21
-0.303276
 31
0.0
  0
LINE
  5
4D
100
AcDbEntity
  8
0
 62
   254
100
AcDbLine
 10
0.950224
 20
-0.303276
 30
0.0
 11
0.953232
 21
-0.291488
 31
0.0
  0
LINE
  5
4E
100
AcDbEntity
  8
0
 62
   254
100
AcDbLine
 10
0.953232
 20
-0.291488
 30
0.0
 11
0.206091
 21
-0.288709
 31
0.0
  0
LINE
  5
4F
100
AcDbEntity
  8
0
 62
   254
100
AcDbLine
 10
0.206091
 20
-0.288709
 30
0.0
 11
0.203083
 21
-0.300496
 31
0.0
  0
LINE
  5
50
100
AcDbEntity
  8
0
 62
   254
100
AcDbLine
 10
0.206091
 20
-0.288709
 30
0.0
 11
0.953232
 21
-0.291488
 31
0.0
  0
LINE
  5
51
100
AcDbEntity
  8
0
 62
   254
100
AcDbLine
 10
0.953232
 20
-0.291488
 30
0.0
 11
0.956594
 21
-0.279972
 31
0.0
  0
LINE
  5
52
100
AcDbEntity
  8
0
 62
   254
100
AcDbLine
 10
0.956594
 20
-0.279972
 30
0.0
 11
0.209453
 21
-0.277193
 31
0.0
  0
LINE
  5
53
100
AcDbEntity
  8
0
 62
   254
100
AcDbLine
 10
0.209453
 20
-0.277193
 30
0.0
 11
0.206091
 21
-0.288709
 31
0.0
  0
LINE
  5
54
100
AcDbEntity
  8
0
 62
   254
100
AcDbLine
 10
0.209453
 20
-0.277193
 30
0.0
 11
0.956594
 21
-0.279972
 31
0.0
  0
LINE
  5
55
100
AcDbEntity
  8
0
 62
   254
100
AcDbLine
 10
0.956594
 20
-0.279972
 30
0.0
 11
0.960311
 21
-0.268705
 31
0.0
  0
LINE
  5
56
100
AcDbEntity
  8
0
 62
   254
100
AcDbLine
 10
0.960311
 20
-0.268705
 30
0.0
 11
0.213169
 21
-0.265925
 31
0.0
  0
LINE
  5
57
100
AcDbEntity
  8
0
 62
   254
100
AcDbLine
 10
0.213169
 20
-0.265925
 30
0.0
 11
0.209453
 21
-0.277193
 31
0.0
  0
LINE
  5
58
100
AcDbEntity
  8
0
 62
   254
100
AcDbLine
 10
0.213169
 20
-0.265925
 30
0.0
 11
0.960311
 21
-0.268705
 31
0.0
  0
LINE
  5
59
100
AcDbEntity
  8
0
 62
   254
100
AcDbLine
 10
0.960311
 20
-0.268705
 30
0.0
 11
0.964417
 21
-0.257701
 31
0.0
  0
LINE
  5
5A
100
AcDbEntity
  8
0
 62
   254
100
AcDbLine
 10
0.964417
 20
-0.257701
 30
0.0
 11
0.217276
 21
-0.254921
 31
0.0
  0
LINE
  5
5B
100
AcDbEntity
  8
0
 62
   254
100
AcDbLine
 10
0.217276
 20
-0.254921
 30
0.0
 11
0.213169
 21
-0.265925
 31
0.0
  0
LINE
  5
5C
100
AcDbEntity
  8
0
 62
   254
100
AcDbLine
 10
0.217276
 20
-0.254921
 30
0.0
 11
0.964417
 21
-0.257701
 31
0.0
  0
LINE
  5
5D
100
AcDbEntity
  8
0
 62
   254
100
AcDbLine
 10
0.964417
 20
-0.257701
 30
0.0
 11
0.968933
 21
-0.246937
 31
0.0
  0
LINE
  5
5E
100
AcDbEntity
  8
0
 62
   254
100
AcDbLine
 10
0.968933
 20
-0.246937
 30
0.0
 11
0.221791
 21
-0.244157
 31
0.0
  0
LINE
  5
5F
100
AcDbEntity
  8
0
 62
   254
100
AcDbLine
 10
0.221791
 20
-0.244157
 30
0.0
 11
0.217276
 21
-0.254921
 31
0.0
  0
LINE
  5
60
100
AcDbEntity
  8
0
 62
   254
100
AcDbLine
 10
0.221791
 20
-0.244157
 30
0.0
 11
0.968933
 21
-0.246937
 31
0.0
  0
LINE
  5
61
100
AcDbEntity
  8
0
 62
   254
100
AcDbLine
 10
0.968933
 20
-0.246937
 30
0.0
 11
0.973874
 21
-0.236417
 31
0.0
  0
LINE
  5
62
100
AcDbEntity
  8
0
 62
   254
100
AcDbLine
 10
0.973874
 20
-0.236417
 30
0.0
 11
0.226732
 21
-0.233638
 31
0.0
  0
LINE
  5
63
100
AcDbEntity
  8
0
 62
   254
100
AcDbLine
 10
0.226732
 20
-0.233638
 30
0.0
 11
0.221791
 21
-0.244157
 31
0.0
  0
LINE
  5
64
100
AcDbEntity
  8
0
 62
   254
100
AcDbLine
 10
0.226732
 20
-0.233638
 30
0.0
 11
0.973874
 21
-0.236417
 31
0.0
  0
LINE
  5
65
100
AcDbEntity
  8
0
 62
   254
100
AcDbLine
 10
0.973874
 20
-0.236417
 30
0.0
 11
0.979252
 21
-0.226118
 31
0.0
  0
LINE
  5
66
100
AcDbEntity
  8
0
 62
   254
100
AcDbLine
 10
0.979252
 20
-0.226118
 30
0.0
 11
0.23211
 21
-0.223339
 31
0.0
  0
LINE
  5
67
100
AcDbEntity
  8
0
 62
   254
100
AcDbLine
 10
0.23211
 20
-0.223339
 30
0.0
 11
0.226732
 21
-0.233638
 31
0.0
  0
LINE
  5
68
100
AcDbEntity
  8
0
 62
   254
100
AcDbLine
 10
0.23211
 20
-0.223339
 30
0.0
 11
0.979252
 21
-0.226118
 31
0.0
  0
LINE
  5
69
100
AcDbEntity
  8
0
 62
   254
100
AcDbLine
 10
0.979252
 20
-0.226118
 30
0.0
 11
0.985114
 21
-0.216043
 31
0.0
  0
LINE
  5
6A
100
AcDbEntity
  8
0
 62
   254
100
AcDbLine
 10
0.985114
 20
-0.216043
 30
0.0
 11
0.237972
 21
-0.213264
 31
0.0
  0
LINE
  5
6B
100
AcDbEntity
  8
0
 62
   254
100
AcDbLine
 10
0.237972
 20
-0.213264
 30
0.0
 11
0.23211
 21
-0.223339
 31
0.0
  0
LINE
  5
6C
100
AcDbEntity
  8
0
 62
   254
100
AcDbLine
 10
0.237972
 20
-0.213264
 30
0.0
 11
0.985114
 21
-0.216043
 31
0.0
  0
LINE
  5
6D
100
AcDbEntity
  8
0
 62
   254
100
AcDbLine
 10
0.985114
 20
-0.216043
 30
0.0
 11
0.991461
 21
-0.206181
 31
0.0
  0
LINE
  5
6E
100
AcDbEntity
  8
0
 62
   254
100
AcDbLine
 10
0.991461
 20
-0.206181
 30
0.0
 11
0.244319
 21
-0.203402
 31
0.0
  0
LINE
  5
6F
100
AcDbEntity
  8
0
 62
   254
100
AcDbLine
 10
0.244319
 20
-0.203402
 30
0.0
 11
0.237972
 21
-0.213264
 31
0.0
  0
LINE
  5
70
100
AcDbEntity
  8
0
 62
   254
100
AcDbLine
 10
0.244319
 20
-0.203402
 30
0.0
 11
0.991461
 21
-0.206181
 31
0.0
  0
LINE
  5
71
100
AcDbEntity
  8
0
 62
   254
100
AcDbLine
 10
0.991461
 20
-0.206181
 30
0.0
 11
0.998323
 21
-0.196531
 31
0.0
  0
LINE
  5
72
100
AcDbEntity
  8
0
 62
   254
100
AcDbLine
 10
0.998323
 20
-0.196531
 30
0.0
 11
0.251181
 21
-0.193752
 31
0.0
  0
LINE
  5
73
100
AcDbEntity
  8
0
 62
   254
100
AcDbLine
 10
0.251181
 20
-0.193752
 30
0.0
 11
0.244319
 21
-0.203402
 31
0.0
  0
LINE
  5
74
100
AcDbEntity
  8
0
 62
   254
100
AcDbLine
 10
0.251181
 20
-0.193752
 30
0.0
 11
0.998323
 21
-0.196531
 31
0.0
  0
LINE
  5
75
100
AcDbEntity
  8
0
 62
   254
100
AcDbLine
 10
0.998323
 20
-0.196531
 30
0.0
 11
1.005713
 21
-0.187075
 31
0.0
  0
LINE
  5
76
100
AcDbEntity
  8
0
 62
   254
100
AcDbLine
 10
1.005713
 20
-0.187075
 30
0.0
 11
0.258571
 21
-0.184295
 31
0.0
  0
LINE
  5
77
100
AcDbEntity
  8
0
 62
   254
100
AcDbLine
 10
0.258571
 20
-0.184295
 30
0.0
 11
0.251181
 21
-0.193752
 31
0.0
  0
LINE
  5
78
100
AcDbEntity
  8
0
 62
   254
100
AcDbLine
 10
0.258571
 20
-0.184295
 30
0.0
 11
1.005713
 21
-0.187075
 31
0.0
  0
LINE
  5
79
100
AcDbEntity
  8
0
 62
   254
100
AcDbLine
 10
1.005713
 20
-0.187075
 30
0.0
 11
1.013665
 21
-0.177815
 31
0.0
  0
LINE
  5
7A
100
AcDbEntity
  8
0
 62
   254
100
AcDbLine
 10
1.013665
 20
-0.177815
 30
0.0
 11
0.266524
 21
-0.175035
 31
0.0
  0
LINE
  5
7B
100
AcDbEntity
  8
0
 62
   254
100
AcDbLine
 10
0.266524
 20
-0.175035
 30
0.0
 11
0.258571
 21
-0.184295
 31
0.0
  0
LINE
  5
7C
100
AcDbEntity
  8
0
 62
   254
100
AcDbLine
 10
0.266524
 20
-0.175035
 30
0.0
 11
1.013665
 21
-0.177815
 31
0.0
  0
LINE
  5
7D
100
AcDbEntity
  8
0
 62
   254
100
AcDbLine
 10
1.013665
 20
-0.177815
 30
0.0
 11
1.022189
 21
-0.16874
 31
0.0
  0
LINE
  5
7E
100
AcDbEntity
  8
0
 62
   254
100
AcDbLine
 10
1.022189
 20
-0.16874
 30
0.0
 11
0.275047
 21
-0.165961
 31
0.0
  0
LINE
  5
7F
100
AcDbEntity
  8
0
 62
   254
100
AcDbLine
 10
0.275047
 20
-0.165961
 30
0.0
 11
0.266524
 21
-0.175035
 31
0.0
  0
LINE
  5
80
100
AcDbEntity
  8
0
 62
   254
100
AcDbLine
 10
0.275047
 20
-0.165961
 30
0.0
 11
1.022189
 21
-0.16874
 31
0.0
  0
LINE
  5
81
100
AcDbEntity
  8
0
 62
   254
100
AcDbLine
 10
1.022189
 20
-0.16874
 30
0.0
 11
1.031311
 21
-0.159846
 31
0.0
  0
LINE
  5
82
100
AcDbEntity
  8
0
 62
   254
100
AcDbLine
 10
1.031311
 20
-0.159846
 30
0.0
 11
0.284169
 21
-0.157067
 31
0.0
  0
LINE
  5
83
100
AcDbEntity
  8
0
 62
   254
100
AcDbLine
 10
0.284169
 20
-0.157067
 30
0.0
 11
0.275047
 21
-0.165961
 31
0.0
  0
LINE
  5
84
100
AcDbEntity
  8
0
 62
   254
100
AcDbLine
 10
0.284169
 20
-0.157067
 30
0.0
 11
1.031311
 21
-0.159846
 31
0.0
  0
LINE
  5
85
100
AcDbEntity
  8
0
 62
   254
100
AcDbLine
 10
1.031311
 20
-0.159846
 30
0.0
 11
1.041047
 21
-0.15111
 31
0.0
  0
LINE
  5
86
100
AcDbEntity
  8
0
 62
   254
100
AcDbLine
 10
1.041047
 20
-0.15111
 30
0.0
 11
0.293906
 21
-0.148331
 31
0.0
  0
LINE
  5
87
100
AcDbEntity
  8
0
 62
   254
100
AcDbLine
 10
0.293906
 20
-0.148331
 30
0.0
 11
0.284169
 21
-0.157067
 31
0.0
  0
LINE
  5
88
100
AcDbEntity
  8
0
 62
   254
100
AcDbLine
 10
0.293906
 20
-0.148331
 30
0.0
 11
1.041047
 21
-0.15111
 31
0.0
  0
LINE
  5
89
100
AcDbEntity
  8
0
 62
   254
100
AcDbLine
 10
1.041047
 20
-0.15111
 30
0.0
 11
1.051421
 21
-0.142543
 31
0.0
  0
LINE
  5
8A
100
AcDbEntity
  8
0
 62
   254
100
AcDbLine
 10
1.051421
 20
-0.142543
 30
0.0
 11
0.30428
 21
-0.139764
 31
0.0
  0
LINE
  5
8B
100
AcDbEntity
  8
0
 62
   254
100
AcDbLine
 10
0.30428
 20
-0.139764
 30
0.0
 11
0.293906
 21
-0.148331
 31
0.0
  0
LINE
  5
8C
100
AcDbEntity
  8
0
 62
   254
100
AcDbLine
 10
0.30428
 20
-0.139764
 30
0.0
 11
1.051421
 21
-0.142543
 31
0.0
  0
LINE
  5
8D
100
AcDbEntity
  8
0
 62
   254
100
AcDbLine
 10
1.051421
 20
-0.142543
 30
0.0
 11
1.062457
 21
-0.13413
 31
0.0
  0
LINE
  5
8E
100
AcDbEntity
  8
0
 62
   254
100
AcDbLine
 10
1.062457
 20
-0.13413
 30
0.0
 11
0.315315
 21
-0.13135
 31
0.0
  0
LINE
  5
8F
100
AcDbEntity
  8
0
 62
   254
100
AcDbLine
 10
0.315315
 20
-0.13135
 30
0.0
 11
0.30428
 21
-0.139764
 31
0.0
  0
LINE
  5
90
100
AcDbEntity
  8
0
 62
   254
100
AcDbLine
 10
0.315315
 20
-0.13135
 30
0.0
 11
1.062457
 21
-0.13413
 31
0.0
  0
LINE
  5
91
100
AcDbEntity
  8
0
 62
   254
100
AcDbLine
 10
1.062457
 20
-0.13413
 30
0.0
 11
1.074177
 21
-0.12587
 31
0.0
  0
LINE
  5
92
100
AcDbEntity
  8
0
 62
   254
100
AcDbLine
 10
1.074177
 20
-0.12587
 30
0.0
 11
0.327035
 21
-0.123091
 31
0.0
  0
LINE
  5
93
100
AcDbEntity
  8
0
 62
   254
100
AcDbLine
 10
0.327035
 20
-0.123091
 30
0.0
 11
0.315315
 21
-0.13135
 31
0.0
  0
LINE
  5
94
100
AcDbEntity
  8
0
 62
   254
100
AcDbLine
 10
0.327035
 20
-0.123091
 30
0.0
 11
1.074177
 21
-0.12587
 31
0.0
  0
LINE
  5
95
100
AcDbEntity
  8
0
 62
   254
100
AcDbLine
 10
1.074177
 20
-0.12587
 30
0.0
 11
1.086594
 21
-0.11774
 31
0.0
  0
LINE
  5
96
100
AcDbEntity
  8
0
 62
   254
100
AcDbLine
 10
1.086594
 20
-0.11774
 30
0.0
 11
0.339453
 21
-0.114961
 31
0.0
  0
LINE
  5
97
100
AcDbEntity
  8
0
 62
   254
100
AcDbLine
 10
0.339453
 20
-0.114961
 30
0.0
 11
0.327035
 21
-0.123091
 31
0.0
  0
LINE
  5
98
100
AcDbEntity
  8
0
 62
   254
100
AcDbLine
 10
0.339453
 20
-0.114961
 30
0.0
 11
1.086594
 21
-0.11774
 31
0.0
  0
LINE
  5
99
100
AcDbEntity
  8
0
 62
   254
100
AcDbLine
 10
1.086594
 20
-0.11774
 30
0.0
 11
1.09974
 21
-0.109748
 31
0.0
  0
LINE
  5
9A
100
AcDbEntity
  8
0
 62
   254
100
AcDbLine
 10
1.09974
 20
-0.109748
 30
0.0
 11
0.352598
 21
-0.106969
 31
0.0
  0
LINE
  5
9B
100
AcDbEntity
  8
0
 62
   254
100
AcDbLine
 10
0.352598
 20
-0.106969
 30
0.0
 11
0.339453
 21
-0.114961
 31
0.0
  0
LINE
  5
9C
100
AcDbEntity
  8
0
 62
   254
100
AcDbLine
 10
0.352598
 20
-0.106969
 30
0.0
 11
1.09974
 21
-0.109748
 31
0.0
  0
LINE
  5
9D
100
AcDbEntity
  8
0
 62
   254
100
AcDbLine
 10
1.09974
 20
-0.109748
 30
0.0
 11
1.11363
 21
-0.101874
 31
0.0
  0
LINE
  5
9E
100
AcDbEntity
  8
0
 62
   254
100
AcDbLine
 10
1.11363
 20
-0.101874
 30
0.0
 11
0.366488
 21
-0.099094
 31
0.0
  0
LINE
  5
9F
100
AcDbEntity
  8
0
 62
   254
100
AcDbLine
 10
0.366488
 20
-0.099094
 30
0.0
 11
0.352598
 21
-0.106969
 31
0.0
  0
LINE
  5
A0
100
AcDbEntity
  8
0
 62
   254
100
AcDbLine
 10
0.366488
 20
-0.099094
 30
0.0
 11
1.11363
 21
-0.101874
 31
0.0
  0
LINE
  5
A1
100
AcDbEntity
  8
0
 62
   254
100
AcDbLine
 10
1.11363
 20
-0.101874
 30
0.0
 11
1.128291
 21
-0.094126
 31
0.0
  0
LINE
  5
A2
100
AcDbEntity
  8
0
 62
   254
100
AcDbLine
 10
1.128291
 20
-0.094126
 30
0.0
 11
0.38115
 21
-0.091346
 31
0.0
  0
LINE
  5
A3
100
AcDbEntity
  8
0
 62
   254
100
AcDbLine
 10
0.38115
 20
-0.091346
 30
0.0
 11
0.366488
 21
-0.099094
 31
0.0
  0
LWPOLYLINE
  5
A4
100
AcDbEntity
  8
0
 62
     0
100
AcDbPolyline
 90
        2
 70
     0
 39
0.003
 10
0.187146
 20
-0.434717
 40
0.003
 41
0.003
 10
0.934287
 20
-0.437496
 40
0.003
 41
0.003
  0
LWPOLYLINE
  5
A5
100
AcDbEntity
  8
0
 62
     0
100
AcDbPolyline
 90
        2
 70
     0
 39
0.003
 10
0.934287
 20
-0.437496
 40
0.003
 41
0.003
 10
0.935031
 20
-0.422618
 40
0.003
 41
0.003
  0
LWPOLYLINE
  5
A6
100
AcDbEntity
  8
0
 62
     0
100
AcDbPolyline
 90
        2
 70
     0
 39
0.003
 10
0.935031
 20
-0.422618
 40
0.003
 41
0.003
 10
0.935913
 20
-0.408091
 40
0.003
 41
0.003
  0
LWPOLYLINE
  5
A7
100
AcDbEntity
  8
0
 62
     0
100
AcDbPolyline
 90
        2
 70
     0
 39
0.003
 10
0.935913
 20
-0.408091
 40
0.003
 41
0.003
 10
0.936949
 20
-0.393894
 40
0.003
 41
0.003
  0
LWPOLYLINE
  5
A8
100
AcDbEntity
  8
0
 62
     0
100
AcDbPolyline
 90
        2
 70
     0
 39
0.003
 10
0.936949
 20
-0.393894
 40
0.003
 41
0.003
 10
0.938157
 20
-0.380028
 40
0.003
 41
0.003
  0
LWPOLYLINE
  5
A9
100
AcDbEntity
  8
0
 62
     0
100
AcDbPolyline
 90
        2
 70
     0
 39
0.003
 10
0.938157
 20
-0.380028
 40
0.003
 41
0.003
 10
0.939555
 20
-0.366476
 40
0.003
 41
0.003
  0
LWPOLYLINE
  5
AA
100
AcDbEntity
  8
0
 62
     0
100
AcDbPolyline
 90
        2
 70
     0
 39
0.003
 10
0.939555
 20
-0.366476
 40
0.003
 41
0.003
 10
0.941173
 20
-0.353244
 40
0.003
 41
0.003
  0
LWPOLYLINE
  5
AB
100
AcDbEntity
  8
0
 62
     0
100
AcDbPolyline
 90
        2
 70
     0
 39
0.003
 10
0.941173
 20
-0.353244
 40
0.003
 41
0.003
 10
0.943028
 20
-0.340311
 40
0.003
 41
0.003
  0
LWPOLYLINE
  5
AC
100
AcDbEntity
  8
0
 62
     0
100
AcDbPolyline
 90
        2
 70
     0
 39
0.003
 10
0.943028
 20
-0.340311
 40
0.003
 41
0.003
 10
0.945146
 20
-0.327685
 40
0.003
 41
0.003
  0
LWPOLYLINE
  5
AD
100
AcDbEntity
  8
0
 62
     0
100
AcDbPolyline
 90
        2
 70
     0
 39
0.003
 10
0.945146
 20
-0.327685
 40
0.003
 41
0.003
 10
0.947531
 20
-0.315335
 40
0.003
 41
0.003
  0
LWPOLYLINE
  5
AE
100
AcDbEntity
  8
0
 62
     0
100
AcDbPolyline
 90
        2
 70
     0
 39
0.003
 10
0.947531
 20
-0.315335
 40
0.003
 41
0.003
 10
0.950224
 20
-0.303276
 40
0.003
 41
0.003
  0
LWPOLYLINE
  5
AF
100
AcDbEntity
  8
0
 62
     0
100
AcDbPolyline
 90
        2
 70
     0
 39
0.003
 10
0.950224
 20
-0.303276
 40
0.003
 41
0.003
 10
0.953232
 20
-0.291488
 40
0.003
 41
0.003
  0
LWPOLYLINE
  5
B0
100
AcDbEntity
  8
0
 62
     0
100
AcDbPolyline
 90
        2
 70
     0
 39
0.003
 10
0.953232
 20
-0.291488
 40
0.003
 41
0.003
 10
0.956594
 20
-0.279972
 40
0.003
 41
0.003
  0
LWPOLYLINE
  5
B1
100
AcDbEntity
  8
0
 62
     0
100
AcDbPolyline
 90
        2
 70
     0
 39
0.003
 10
0.956594
 20
-0.279972
 40
0.003
 41
0.003
 10
0.960311
 20
-0.268705
 40
0.003
 41
0.003
  0
LWPOLYLINE
  5
B2
100
AcDbEntity
  8
0
 62
     0
100
AcDbPolyline
 90
        2
 70
     0
 39
0.003
 10
0.960311
 20
-0.268705
 40
0.003
 41
0.003
 10
0.964417
 20
-0.257701
 40
0.003
 41
0.003
  0
LWPOLYLINE
  5
B3
100
AcDbEntity
  8
0
 62
     0
100
AcDbPolyline
 90
        2
 70
     0
 39
0.003
 10
0.964417
 20
-0.257701
 40
0.003
 41
0.003
 10
0.968933
 20
-0.246937
 40
0.003
 41
0.003
  0
LWPOLYLINE
  5
B4
100
AcDbEntity
  8
0
 62
     0
100
AcDbPolyline
 90
        2
 70
     0
 39
0.003
 10
0.968933
 20
-0.246937
 40
0.003
 41
0.003
 10
0.973874
 20
-0.236417
 40
0.003
 41
0.003
  0
LWPOLYLINE
  5
B5
100
AcDbEntity
  8
0
 62
     0
100
AcDbPolyline
 90
        2
 70
     0
 39
0.003
 10
0.973874
 20
-0.236417
 40
0.003
 41
0.003
 10
0.979252
 20
-0.226118
 40
0.003
 41
0.003
  0
LWPOLYLINE
  5
B6
100
AcDbEntity
  8
0
 62
     0
100
AcDbPolyline
 90
        2
 70
     0
 39
0.003
 10
0.979252
 20
-0.226118
 40
0.003
 41
0.003
 10
0.985114
 20
-0.216043
 40
0.003
 41
0.003
  0
LWPOLYLINE
  5
B7
100
AcDbEntity
  8
0
 62
     0
100
AcDbPolyline
 90
        2
 70
     0
 39
0.003
 10
0.985114
 20
-0.216043
 40
0.003
 41
0.003
 10
0.991461
 20
-0.206181
 40
0.003
 41
0.003
  0
LWPOLYLINE
  5
B8
100
AcDbEntity
  8
0
 62
     0
100
AcDbPolyline
 90
        2
 70
     0
 39
0.003
 10
0.991461
 20
-0.206181
 40
0.003
 41
0.003
 10
0.998323
 20
-0.196531
 40
0.003
 41
0.003
  0
LWPOLYLINE
  5
B9
100
AcDbEntity
  8
0
 62
     0
100
AcDbPolyline
 90
        2
 70
     0
 39
0.003
 10
0.998323
 20
-0.196531
 40
0.003
 41
0.003
 10
1.005713
 20
-0.187075
 40
0.003
 41
0.003
  0
LWPOLYLINE
  5
BA
100
AcDbEntity
  8
0
 62
     0
100
AcDbPolyline
 90
        2
 70
     0
 39
0.003
 10
1.005713
 20
-0.187075
 40
0.003
 41
0.003
 10
1.013665
 20
-0.177815
 40
0.003
 41
0.003
  0
LWPOLYLINE
  5
BB
100
AcDbEntity
  8
0
 62
     0
100
AcDbPolyline
 90
        2
 70
     0
 39
0.003
 10
1.013665
 20
-0.177815
 40
0.003
 41
0.003
 10
1.022189
 20
-0.16874
 40
0.003
 41
0.003
  0
LWPOLYLINE
  5
BC
100
AcDbEntity
  8
0
 62
     0
100
AcDbPolyline
 90
        2
 70
     0
 39
0.003
 10
1.022189
 20
-0.16874
 40
0.003
 41
0.003
 10
1.031311
 20
-0.159846
 40
0.003
 41
0.003
  0
LWPOLYLINE
  5
BD
100
AcDbEntity
  8
0
 62
     0
100
AcDbPolyline
 90
        2
 70
     0
 39
0.003
 10
1.031311
 20
-0.159846
 40
0.003
 41
0.003
 10
1.041047
 20
-0.15111
 40
0.003
 41
0.003
  0
LWPOLYLINE
  5
BE
100
AcDbEntity
  8
0
 62
     0
100
AcDbPolyline
 90
        2
 70
     0
 39
0.003
 10
1.041047
 20
-0.15111
 40
0.003
 41
0.003
 10
1.051421
 20
-0.142543
 40
0.003
 41
0.003
  0
LWPOLYLINE
  5
BF
100
AcDbEntity
  8
0
 62
     0
100
AcDbPolyline
 90
        2
 70
     0
 39
0.003
 10
1.051421
 20
-0.142543
 40
0.003
 41
0.003
 10
1.062457
 20
-0.13413
 40
0.003
 41
0.003
  0
LWPOLYLINE
  5
C0
100
AcDbEntity
  8
0
 62
     0
100
AcDbPolyline
 90
        2
 70
     0
 39
0.003
 10
1.062457
 20
-0.13413
 40
0.003
 41
0.003
 10
1.074177
 20
-0.12587
 40
0.003
 41
0.003
  0
LWPOLYLINE
  5
C1
100
AcDbEntity
  8
0
 62
     0
100
AcDbPolyline
 90
        2
 70
     0
 39
0.003
 10
1.074177
 20
-0.12587
 40
0.003
 41
0.003
 10
1.086594
 20
-0.11774
 40
0.003
 41
0.003
  0
LWPOLYLINE
  5
C2
100
AcDbEntity
  8
0
 62
     0
100
AcDbPolyline
 90
        2
 70
     0
 39
0.003
 10
1.086594
 20
-0.11774
 40
0.003
 41
0.003
 10
1.09974
 20
-0.109748
 40
0.003
 41
0.003
  0
LWPOLYLINE
  5
C3
100
AcDbEntity
  8
0
 62
     0
100
AcDbPolyline
 90
        2
 70
     0
 39
0.003
 10
1.09974
 20
-0.109748
 40
0.003
 41
0.003
 10
1.11363
 20
-0.101874
 40
0.003
 41
0.003
  0
LWPOLYLINE
  5
C4
100
AcDbEntity
  8
0
 62
     0
100
AcDbPolyline
 90
        2
 70
     0
 39
0.003
 10
1.11363
 20
-0.101874
 40
0.003
 41
0.003
 10
1.128291
 20
-0.094126
 40
0.003
 41
0.003
  0
LWPOLYLINE
  5
C5
100
AcDbEntity
  8
0
 62
     0
100
AcDbPolyline
 90
        2
 70
     0
 39
0.003
 10
1.128291
 20
-0.094126
 40
0.003
 41
0.003
 10
0.38115
 20
-0.091346
 40
0.003
 41
0.003
  0
LWPOLYLINE
  5
C6
100
AcDbEntity
  8
0
 62
     0
100
AcDbPolyline
 90
        2
 70
     0
 39
0.003
 10
0.38115
 20
-0.091346
 40
0.003
 41
0.003
 10
0.366488
 20
-0.099094
 40
0.003
 41
0.003
  0
LWPOLYLINE
  5
C7
100
AcDbEntity
  8
0
 62
     0
100
AcDbPolyline
 90
        2
 70
     0
 39
0.003
 10
0.366488
 20
-0.099094
 40
0.003
 41
0.003
 10
0.352598
 20
-0.106969
 40
0.003
 41
0.003
  0
LWPOLYLINE
  5
C8
100
AcDbEntity
  8
0
 62
     0
100
AcDbPolyline
 90
        2
 70
     0
 39
0.003
 10
0.352598
 20
-0.106969
 40
0.003
 41
0.003
 10
0.339453
 20
-0.114961
 40
0.003
 41
0.003
  0
LWPOLYLINE
  5
C9
100
AcDbEntity
  8
0
 62
     0
100
AcDbPolyline
 90
        2
 70
     0
 39
0.003
 10
0.339453
 20
-0.114961
 40
0.003
 41
0.003
 10
0.327035
 20
-0.123091
 40
0.003
 41
0.003
  0
LWPOLYLINE
  5
CA
100
AcDbEntity
  8
0
 62
     0
100
AcDbPolyline
 90
        2
 70
     0
 39
0.003
 10
0.327035
 20
-0.123091
 40
0.003
 41
0.003
 10
0.315315
 20
-0.13135
 40
0.003
 41
0.003
  0
LWPOLYLINE
  5
CB
100
AcDbEntity
  8
0
 62
     0
100
AcDbPolyline
 90
        2
 70
     0
 39
0.003
 10
0.315315
 20
-0.13135
 40
0.003
 41
0.003
 10
0.30428
 20
-0.139764
 40
0.003
 41
0.003
  0
LWPOLYLINE
  5
CC
100
AcDbEntity
  8
0
 62
     0
100
AcDbPolyline
 90
        2
 70
     0
 39
0.003
 10
0.30428
 20
-0.139764
 40
0.003
 41
0.003
 10
0.293906
 20
-0.148331
 40
0.003
 41
0.003
  0
LWPOLYLINE
  5
CD
100
AcDbEntity
  8
0
 62
     0
100
AcDbPolyline
 90
        2
 70
     0
 39
0.003
 10
0.293906
 20
-0.148331
 40
0.003
 41
0.003
 10
0.284169
 20
-0.157067
 40
0.003
 41
0.003
  0
LWPOLYLINE
  5
CE
100
AcDbEntity
  8
0
 62
     0
100
AcDbPolyline
 90
        2
 70
     0
 39
0.003
 10
0.284169
 20
-0.157067
 40
0.003
 41
0.003
 10
0.275047
 20
-0.165961
 40
0.003
 41
0.003
  0
LWPOLYLINE
  5
CF
100
AcDbEntity
  8
0
 62
     0
100
AcDbPolyline
 90
        2
 70
     0
 39
0.003
 10
0.275047
 20
-0.165961
 40
0.003
 41
0.003
 10
0.266524
 20
-0.175035
 40
0.003
 41
0.003
  0
LWPOLYLINE
  5
D0
100
AcDbEntity
  8
0
 62
     0
100
AcDbPolyline
 90
        2
 70
     0
 39
0.003
 10
0.266524
 20
-0.175035
 40
0.003
 41
0.003
 10
0.258571
 20
-0.184295
 40
0.003
 41
0.003
  0
LWPOLYLINE
  5
D1
100
AcDbEntity
  8
0
 62
     0
100
AcDbPolyline
 90
        2
 70
     0
 39
0.003
 10
0.258571
 20
-0.184295
 40
0.003
 41
0.003
 10
0.251181
 20
-0.193752
 40
0.003
 41
0.003
  0
LWPOLYLINE
  5
D2
100
AcDbEntity
  8
0
 62
     0
100
AcDbPolyline
 90
        2
 70
     0
 39
0.003
 10
0.251181
 20
-0.193752
 40
0.003
 41
0.003
 10
0.244319
 20
-0.203402
 40
0.003
 41
0.003
  0
LWPOLYLINE
  5
D3
100
AcDbEntity
  8
0
 62
     0
100
AcDbPolyline
 90
        2
 70
     0
 39
0.003
 10
0.244319
 20
-0.203402
 40
0.003
 41
0.003
 10
0.237972
 20
-0.213264
 40
0.003
 41
0.003
  0
LWPOLYLINE
  5
D4
100
AcDbEntity
  8
0
 62
     0
100
AcDbPolyline
 90
        2
 70
     0
 39
0.003
 10
0.237972
 20
-0.213264
 40
0.003
 41
0.003
 10
0.23211
 20
-0.223339
 40
0.003
 41
0.003
  0
LWPOLYLINE
  5
D5
100
AcDbEntity
  8
0
 62
     0
100
AcDbPolyline
 90
        2
 70
     0
 39
0.003
 10
0.23211
 20
-0.223339
 40
0.003
 41
0.003
 10
0.226732
 20
-0.233638
 40
0.003
 41
0.003
  0
LWPOLYLINE
  5
D6
100
AcDbEntity
  8
0
 62
     0
100
AcDbPolyline
 90
        2
 70
     0
 39
0.003
 10
0.226732
 20
-0.233638
 40
0.003
 41
0.003
 10
0.221791
 20
-0.244157
 40
0.003
 41
0.003
  0
LWPOLYLINE
  5
D7
100
AcDbEntity
  8
0
 62
     0
100
AcDbPolyline
 90
        2
 70
     0
 39
0.003
 10
0.221791
 20
-0.244157
 40
0.003
 41
0.003
 10
0.217276
 20
-0.254921
 40
0.003
 41
0.003
  0
LWPOLYLINE
  5
D8
100
AcDbEntity
  8
0
 62
     0
100
AcDbPolyline
 90
        2
 70
     0
 39
0.003
 10
0.217276
 20
-0.254921
 40
0.003
 41
0.003
 10
0.213169
 20
-0.265925
 40
0.003
 41
0.003
  0
LWPOLYLINE
  5
D9
100
AcDbEntity
  8
0
 62
     0
100
AcDbPolyline
 90
        2
 70
     0
 39
0.003
 10
0.213169
 20
-0.265925
 40
0.003
 41
0.003
 10
0.209453
 20
-0.277193
 40
0.003
 41
0.003
  0
LWPOLYLINE
  5
DA
100
AcDbEntity
  8
0
 62
     0
100
AcDbPolyline
 90
        2
 70
     0
 39
0.003
 10
0.209453
 20
-0.277193
 40
0.003
 41
0.003
 10
0.206091
 20
-0.288709
 40
0.003
 41
0.003
  0
LWPOLYLINE
  5
DB
100
AcDbEntity
  8
0
 62
     0
100
AcDbPolyline
 90
        2
 70
     0
 39
0.003
 10
0.206091
 20
-0.288709
 40
0.003
 41
0.003
 10
0.203083
 20
-0.300496
 40
0.003
 41
0.003
  0
LWPOLYLINE
  5
DC
100
AcDbEntity
  8
0
 62
     0
100
AcDbPolyline
 90
        2
 70
     0
 39
0.003
 10
0.203083
 20
-0.300496
 40
0.003
 41
0.003
 10
0.20039
 20
-0.312555
 40
0.003
 41
0.003
  0
LWPOLYLINE
  5
DD
100
AcDbEntity
  8
0
 62
     0
100
AcDbPolyline
 90
        2
 70
     0
 39
0.003
 10
0.20039
 20
-0.312555
 40
0.003
 41
0.003
 10
0.198004
 20
-0.324906
 40
0.003
 41
0.003
  0
LWPOLYLINE
  5
DE
100
AcDbEntity
  8
0
 62
     0
100
AcDbPolyline
 90
        2
 70
     0
 39
0.003
 10
0.198004
 20
-0.324906
 40
0.003
 41
0.003
 10
0.195886
 20
-0.337531
 40
0.003
 41
0.003
  0
LWPOLYLINE
  5
DF
100
AcDbEntity
  8
0
 62
     0
100
AcDbPolyline
 90
        2
 70
     0
 39
0.003
 10
0.195886
 20
-0.337531
 40
0.003
 41
0.003
 10
0.194031
 20
-0.350465
 40
0.003
 41
0.003
  0
LWPOLYLINE
  5
E0
100
AcDbEntity
  8
0
 62
     0
100
AcDbPolyline
 90
        2
 70
     0
 39
0.003
 10
0.194031
 20
-0.350465
 40
0.003
 41
0.003
 10
0.192413
 20
-0.363697
 40
0.003
 41
0.003
  0
LWPOLYLINE
  5
E1
100
AcDbEntity
  8
0
 62
     0
100
AcDbPolyline
 90
        2
 70
     0
 39
0.003
 10
0.192413
 20
-0.363697
 40
0.003
 41
0.003
 10
0.191016
 20
-0.377248
 40
0.003
 41
0.003
  0
LWPOLYLINE
  5
E2
100
AcDbEntity
  8
0
 62
     0
100
AcDbPolyline
 90
        2
 70
     0
 39
0.003
 10
0.191016
 20
-0.377248
 40
0.003
 41
0.003
 10
0.189807
 20
-0.391114
 40
0.003
 41
0.003
  0
LWPOLYLINE
  5
E3
100
AcDbEntity
  8
0
 62
     0
100
AcDbPolyline
 90
        2
 70
     0
 39
0.003
 10
0.189807
 20
-0.391114
 40
0.003
 41
0.003
 10
0.188772
 20
-0.405311
 40
0.003
 41
0.003
  0
LWPOLYLINE
  5
E4
100
AcDbEntity
  8
0
 62
     0
100
AcDbPolyline
 90
        2
 70
     0
 39
0.003
 10
0.188772
 20
-0.405311
 40
0.003
 41
0.003
 10
0.18789
 20
-0.419839
 40
0.003
 41
0.003
  0
LWPOLYLINE
  5
E5
100
AcDbEntity
  8
0
 62
     0
100
AcDbPolyline
 90
        2
 70
     0
 39
0.003
 10
0.18789
 20
-0.419839
 40
0.003
 41
0.003
 10
0.187146
 20
-0.434717
 40
0.003
 41
0.003
  0
LWPOLYLINE
  5
E6
100
AcDbEntity
  8
0
 62
   254
100
AcDbPolyline
 90
        2
 70
     0
 39
0.003
 10
0.38115
 20
-0.091346
 40
0.003
 41
0.003
 10
1.128291
 20
-0.094126
 40
0.003
 41
0.003
  0
LWPOLYLINE
  5
E7
100
AcDbEntity
  8
0
 62
   254
100
AcDbPolyline
 90
        2
 70
     0
 39
0.003
 10
1.128291
 20
-0.094126
 40
0.003
 41
0.003
 10
1.128291
 20
-0.000744
 40
0.003
 41
0.003
  0
LWPOLYLINE
  5
E8
100
AcDbEntity
  8
0
 62
   254
100
AcDbPolyline
 90
        2
 70
     0
 39
0.003
 10
1.128291
 20
-0.000744
 40
0.003
 41
0.003
 10
0.38115
 20
0.002035
 40
0.003
 41
0.003
  0
LWPOLYLINE
  5
E9
100
AcDbEntity
  8
0
 62
   254
100
AcDbPolyline
 90
        2
 70
     0
 39
0.003
 10
0.38115
 20
0.002035
 40
0.003
 41
0.003
 10
0.38115
 20
-0.091346
 40
0.003
 41
0.003
  0
LWPOLYLINE
  5
EA
100
AcDbEntity
  8
0
 62
     0
100
AcDbPolyline
 90
        2
 70
     0
 39
0.003
 10
0.38115
 20
-0.091346
 40
0.003
 41
0.003
 10
1.128291
 20
-0.094126
 40
0.003
 41
0.003
  0
LWPOLYLINE
  5
EB
100
AcDbEntity
  8
0
 62
     0
100
AcDbPolyline
 90
        2
 70
     0
 39
0.003
 10
1.128291
 20
-0.094126
 40
0.003
 41
0.003
 10
1.128291
 20
-0.000744
 40
0.003
 41
0.003
  0
LWPOLYLINE
  5
EC
100
AcDbEntity
  8
0
 62
     0
100
AcDbPolyline
 90
        2
 70
     0
 39
0.003
 10
1.128291
 20
-0.000744
 40
0.003
 41
0.003
 10
0.38115
 20
0.002035
 40
0.003
 41
0.003
  0
LWPOLYLINE
  5
ED
100
AcDbEntity
  8
0
 62
     0
100
AcDbPolyline
 90
        2
 70
     0
 39
0.003
 10
0.38115
 20
0.002035
 40
0.003
 41
0.003
 10
0.38115
 20
-0.091346
 40
0.003
 41
0.003
  0
LWPOLYLINE
  5
EE
100
AcDbEntity
  8
0
 62
     9
100
AcDbPolyline
 90
        2
 70
     0
 39
0.003
 10
0.38115
 20
0.002035
 40
0.003
 41
0.003
 10
1.128291
 20
-0.000744
 40
0.003
 41
0.003
  0
LWPOLYLINE
  5
EF
100
AcDbEntity
  8
0
 62
     9
100
AcDbPolyline
 90
        2
 70
     0
 39
0.003
 10
1.128291
 20
-0.000744
 40
0.003
 41
0.003
 10
1.165339
 20
0.002217
 40
0.003
 41
0.003
  0
LWPOLYLINE
  5
F0
100
AcDbEntity
  8
0
 62
     9
100
AcDbPolyline
 90
        2
 70
     0
 39
0.003
 10
1.165339
 20
0.002217
 40
0.003
 41
0.003
 10
0.418197
 20
0.004996
 40
0.003
 41
0.003
  0
LWPOLYLINE
  5
F1
100
AcDbEntity
  8
0
 62
     9
100
AcDbPolyline
 90
        2
 70
     0
 39
0.003
 10
0.418197
 20
0.004996
 40
0.003
 41
0.003
 10
0.38115
 20
0.002035
 40
0.003
 41
0.003
  0
LWPOLYLINE
  5
F2
100
AcDbEntity
  8
0
 62
     9
100
AcDbPolyline
 90
        2
 70
     0
 39
0.003
 10
0.418197
 20
0.004996
 40
0.003
 41
0.003
 10
1.165339
 20
0.002217
 40
0.003
 41
0.003
  0
LWPOLYLINE
  5
F3
100
AcDbEntity
  8
0
 62
     9
100
AcDbPolyline
 90
        2
 70
     0
 39
0.003
 10
1.165339
 20
0.002217
 40
0.003
 41
0.003
 10
1.200319
 20
0.00839
 40
0.003
 41
0.003
  0
LWPOLYLINE
  5
F4
100
AcDbEntity
  8
0
 62
     9
100
AcDbPolyline
 90
        2
 70
     0
 39
0.003
 10
1.200319
 20
0.00839
 40
0.003
 41
0.003
 10
0.453177
 20
0.011169
 40
0.003
 41
0.003
  0
LWPOLYLINE
  5
F5
100
AcDbEntity
  8
0
 62
     9
100
AcDbPolyline
 90
        2
 70
     0
 39
0.003
 10
0.453177
 20
0.011169
 40
0.003
 41
0.003
 10
0.418197
 20
0.004996
 40
0.003
 41
0.003
  0
LWPOLYLINE
  5
F6
100
AcDbEntity
  8
0
 62
   254
100
AcDbPolyline
 90
        2
 70
     0
 39
0.003
 10
0.453177
 20
0.011169
 40
0.003
 41
0.003
 10
1.200319
 20
0.00839
 40
0.003
 41
0.003
  0
LWPOLYLINE
  5
F7
100
AcDbEntity
  8
0
 62
   254
100
AcDbPolyline
 90
        2
 70
     0
 39
0.003
 10
1.200319
 20
0.00839
 40
0.003
 41
0.003
 10
1.233189
 20
0.017559
 40
0.003
 41
0.003
  0
LWPOLYLINE
  5
F8
100
AcDbEntity
  8
0
 62
   254
100
AcDbPolyline
 90
        2
 70
     0
 39
0.003
 10
1.233189
 20
0.017559
 40
0.003
 41
0.003
 10
0.486047
 20
0.020339
 40
0.003
 41
0.003
  0
LWPOLYLINE
  5
F9
100
AcDbEntity
  8
0
 62
   254
100
AcDbPolyline
 90
        2
 70
     0
 39
0.003
 10
0.486047
 20
0.020339
 40
0.003
 41
0.003
 10
0.453177
 20
0.011169
 40
0.003
 41
0.003
  0
LWPOLYLINE
  5
FA
100
AcDbEntity
  8
0
 62
   254
100
AcDbPolyline
 90
        2
 70
     0
 39
0.003
 10
0.486047
 20
0.020339
 40
0.003
 41
0.003
 10
1.233189
 20
0.017559
 40
0.003
 41
0.003
  0
LWPOLYLINE
  5
FB
100
AcDbEntity
  8
0
 62
   254
100
AcDbPolyline
 90
        2
 70
     0
 39
0.003
 10
1.233189
 20
0.017559
 40
0.003
 41
0.003
 10
1.263929
 20
0.029528
 40
0.003
 41
0.003
  0
LWPOLYLINE
  5
FC
100
AcDbEntity
  8
0
 62
   254
100
AcDbPolyline
 90
        2
 70
     0
 39
0.003
 10
1.263929
 20
0.029528
 40
0.003
 41
0.003
 10
0.516787
 20
0.032307
 40
0.003
 41
0.003
  0
LWPOLYLINE
  5
FD
100
AcDbEntity
  8
0
 62
   254
100
AcDbPolyline
 90
        2
 70
     0
 39
0.003
 10
0.516787
 20
0.032307
 40
0.003
 41
0.003
 10
0.486047
 20
0.020339
 40
0.003
 41
0.003
  0
LWPOLYLINE
  5
FE
100
AcDbEntity
  8
0
 62
   254
100
AcDbPolyline
 90
        2
 70
     0
 39
0.003
 10
0.516787
 20
0.032307
 40
0.003
 41
0.003
 10
1.263929
 20
0.029528
 40
0.003
 41
0.003
  0
LWPOLYLINE
  5
FF
100
AcDbEntity
  8
0
 62
   254
100
AcDbPolyline
 90
        2
 70
     0
 39
0.003
 10
1.263929
 20
0.029528
 40
0.003
 41
0.003
 10
1.292496
 20
0.044075
 40
0.003
 41
0.003
  0
LWPOLYLINE
  5
100
100
AcDbEntity
  8
0
 62
   254
100
AcDbPolyline
 90
        2
 70
     0
 39
0.003
 10
1.292496
 20
0.044075
 40
0.003
 41
0.003
 10
0.545354
 20
0.046854
 40
0.003
 41
0.003
  0
LWPOLYLINE
  5
101
100
AcDbEntity
  8
0
 62
   254
100
AcDbPolyline
 90
        2
 70
     0
 39
0.003
 10
0.545354
 20
0.046854
 40
0.003
 41
0.003
 10
0.516787
 20
0.032307
 40
0.003
 41
0.003
  0
LWPOLYLINE
  5
102
100
AcDbEntity
  8
0
 62
   254
100
AcDbPolyline
 90
        2
 70
     0
 39
0.003
 10
0.545354
 20
0.046854
 40
0.003
 41
0.003
 10
1.292496
 20
0.044075
 40
0.003
 41
0.003
  0
LWPOLYLINE
  5
103
100
AcDbEntity
  8
0
 62
   254
100
AcDbPolyline
 90
        2
 70
     0
 39
0.003
 10
1.292496
 20
0.044075
 40
0.003
 41
0.003
 10
1.31887
 20
0.061012
 40
0.003
 41
0.003
  0
LWPOLYLINE
  5
104
100
AcDbEntity
  8
0
 62
   254
100
AcDbPolyline
 90
        2
 70
     0
 39
0.003
 10
1.31887
 20
0.061012
 40
0.003
 41
0.003
 10
0.571728
 20
0.063791
 40
0.003
 41
0.003
  0
LWPOLYLINE
  5
105
100
AcDbEntity
  8
0
 62
   254
100
AcDbPolyline
 90
        2
 70
     0
 39
0.003
 10
0.571728
 20
0.063791
 40
0.003
 41
0.003
 10
0.545354
 20
0.046854
 40
0.003
 41
0.003
  0
LWPOLYLINE
  5
106
100
AcDbEntity
  8
0
 62
   254
100
AcDbPolyline
 90
        2
 70
     0
 39
0.003
 10
0.571728
 20
0.063791
 40
0.003
 41
0.003
 10
1.31887
 20
0.061012
 40
0.003
 41
0.003
  0
LWPOLYLINE
  5
107
100
AcDbEntity
  8
0
 62
   254
100
AcDbPolyline
 90
        2
 70
     0
 39
0.003
 10
1.31887
 20
0.061012
 40
0.003
 41
0.003
 10
1.343016
 20
0.080114
 40
0.003
 41
0.003
  0
LWPOLYLINE
  5
108
100
AcDbEntity
  8
0
 62
   254
100
AcDbPolyline
 90
        2
 70
     0
 39
0.003
 10
1.343016
 20
0.080114
 40
0.003
 41
0.003
 10
0.595874
 20
0.082894
 40
0.003
 41
0.003
  0
LWPOLYLINE
  5
109
100
AcDbEntity
  8
0
 62
   254
100
AcDbPolyline
 90
        2
 70
     0
 39
0.003
 10
0.595874
 20
0.082894
 40
0.003
 41
0.003
 10
0.571728
 20
0.063791
 40
0.003
 41
0.003
  0
LWPOLYLINE
  5
10A
100
AcDbEntity
  8
0
 62
   254
100
AcDbPolyline
 90
        2
 70
     0
 39
0.003
 10
0.595874
 20
0.082894
 40
0.003
 41
0.003
 10
1.343016
 20
0.080114
 40
0.003
 41
0.003
  0
LWPOLYLINE
  5
10B
100
AcDbEntity
  8
0
 62
   254
100
AcDbPolyline
 90
        2
 70
     0
 39
0.003
 10
1.343016
 20
0.080114
 40
0.003
 41
0.003
 10
1.364913
 20
0.101189
 40
0.003
 41
0.003
  0
LWPOLYLINE
  5
10C
100
AcDbEntity
  8
0
 62
   254
100
AcDbPolyline
 90
        2
 70
     0
 39
0.003
 10
1.364913
 20
0.101189
 40
0.003
 41
0.003
 10
0.617772
 20
0.103969
 40
0.003
 41
0.003
  0
LWPOLYLINE
  5
10D
100
AcDbEntity
  8
0
 62
   254
100
AcDbPolyline
 90
        2
 70
     0
 39
0.003
 10
0.617772
 20
0.103969
 40
0.003
 41
0.003
 10
0.595874
 20
0.082894
 40
0.003
 41
0.003
  0
LWPOLYLINE
  5
10E
100
AcDbEntity
  8
0
 62
   254
100
AcDbPolyline
 90
        2
 70
     0
 39
0.003
 10
0.617772
 20
0.103969
 40
0.003
 41
0.003
 10
1.364913
 20
0.101189
 40
0.003
 41
0.003
  0
LWPOLYLINE
  5
10F
100
AcDbEntity
  8
0
 62
   254
100
AcDbPolyline
 90
        2
 70
     0
 39
0.003
 10
1.364913
 20
0.101189
 40
0.003
 41
0.003
 10
1.384516
 20
0.124016
 40
0.003
 41
0.003
  0
LWPOLYLINE
  5
110
100
AcDbEntity
  8
0
 62
   254
100
AcDbPolyline
 90
        2
 70
     0
 39
0.003
 10
1.384516
 20
0.124016
 40
0.003
 41
0.003
 10
0.637374
 20
0.126795
 40
0.003
 41
0.003
  0
LWPOLYLINE
  5
111
100
AcDbEntity
  8
0
 62
   254
100
AcDbPolyline
 90
        2
 70
     0
 39
0.003
 10
0.637374
 20
0.126795
 40
0.003
 41
0.003
 10
0.617772
 20
0.103969
 40
0.003
 41
0.003
  0
LWPOLYLINE
  5
112
100
AcDbEntity
  8
0
 62
   254
100
AcDbPolyline
 90
        2
 70
     0
 39
0.003
 10
0.637374
 20
0.126795
 40
0.003
 41
0.003
 10
1.384516
 20
0.124016
 40
0.003
 41
0.003
  0
LWPOLYLINE
  5
113
100
AcDbEntity
  8
0
 62
   254
100
AcDbPolyline
 90
        2
 70
     0
 39
0.003
 10
1.384516
 20
0.124016
 40
0.003
 41
0.003
 10
1.401807
 20
0.148406
 40
0.003
 41
0.003
  0
LWPOLYLINE
  5
114
100
AcDbEntity
  8
0
 62
   254
100
AcDbPolyline
 90
        2
 70
     0
 39
0.003
 10
1.401807
 20
0.148406
 40
0.003
 41
0.003
 10
0.654665
 20
0.151185
 40
0.003
 41
0.003
  0
LWPOLYLINE
  5
115
100
AcDbEntity
  8
0
 62
   254
100
AcDbPolyline
 90
        2
 70
     0
 39
0.003
 10
0.654665
 20
0.151185
 40
0.003
 41
0.003
 10
0.637374
 20
0.126795
 40
0.003
 41
0.003
  0
LWPOLYLINE
  5
116
100
AcDbEntity
  8
0
 62
   254
100
AcDbPolyline
 90
        2
 70
     0
 39
0.003
 10
0.654665
 20
0.151185
 40
0.003
 41
0.003
 10
1.401807
 20
0.148406
 40
0.003
 41
0.003
  0
LWPOLYLINE
  5
117
100
AcDbEntity
  8
0
 62
   254
100
AcDbPolyline
 90
        2
 70
     0
 39
0.003
 10
1.401807
 20
0.148406
 40
0.003
 41
0.003
 10
1.416748
 20
0.174134
 40
0.003
 41
0.003
  0
LWPOLYLINE
  5
118
100
AcDbEntity
  8
0
 62
   254
100
AcDbPolyline
 90
        2
 70
     0
 39
0.003
 10
1.416748
 20
0.174134
 40
0.003
 41
0.003
 10
0.669606
 20
0.176913
 40
0.003
 41
0.003
  0
LWPOLYLINE
  5
119
100
AcDbEntity
  8
0
 62
   254
100
AcDbPolyline
 90
        2
 70
     0
 39
0.003
 10
0.669606
 20
0.176913
 40
0.003
 41
0.003
 10
0.654665
 20
0.151185
 40
0.003
 41
0.003
  0
LWPOLYLINE
  5
11A
100
AcDbEntity
  8
0
 62
   254
100
AcDbPolyline
 90
        2
 70
     0
 39
0.003
 10
0.669606
 20
0.176913
 40
0.003
 41
0.003
 10
1.416748
 20
0.174134
 40
0.003
 41
0.003
  0
LWPOLYLINE
  5
11B
100
AcDbEntity
  8
0
 62
   254
100
AcDbPolyline
 90
        2
 70
     0
 39
0.003
 10
1.416748
 20
0.174134
 40
0.003
 41
0.003
 10
1.429323
 20
0.201012
 40
0.003
 41
0.003
  0
LWPOLYLINE
  5
11C
100
AcDbEntity
  8
0
 62
   254
100
AcDbPolyline
 90
        2
 70
     0
 39
0.003
 10
1.429323
 20
0.201012
 40
0.003
 41
0.003
 10
0.682181
 20
0.203791
 40
0.003
 41
0.003
  0
LWPOLYLINE
  5
11D
100
AcDbEntity
  8
0
 62
   254
100
AcDbPolyline
 90
        2
 70
     0
 39
0.003
 10
0.682181
 20
0.203791
 40
0.003
 41
0.003
 10
0.669606
 20
0.176913
 40
0.003
 41
0.003
  0
LWPOLYLINE
  5
11E
100
AcDbEntity
  8
0
 62
   254
100
AcDbPolyline
 90
        2
 70
     0
 39
0.003
 10
0.682181
 20
0.203791
 40
0.003
 41
0.003
 10
1.429323
 20
0.201012
 40
0.003
 41
0.003
  0
LWPOLYLINE
  5
11F
100
AcDbEntity
  8
0
 62
   254
100
AcDbPolyline
 90
        2
 70
     0
 39
0.003
 10
1.429323
 20
0.201012
 40
0.003
 41
0.003
 10
1.43948
 20
0.228815
 40
0.003
 41
0.003
  0
LWPOLYLINE
  5
120
100
AcDbEntity
  8
0
 62
   254
100
AcDbPolyline
 90
        2
 70
     0
 39
0.003
 10
1.43948
 20
0.228815
 40
0.003
 41
0.003
 10
0.692339
 20
0.231594
 40
0.003
 41
0.003
  0
LWPOLYLINE
  5
121
100
AcDbEntity
  8
0
 62
   254
100
AcDbPolyline
 90
        2
 70
     0
 39
0.003
 10
0.692339
 20
0.231594
 40
0.003
 41
0.003
 10
0.682181
 20
0.203791
 40
0.003
 41
0.003
  0
LWPOLYLINE
  5
122
100
AcDbEntity
  8
0
 62
   254
100
AcDbPolyline
 90
        2
 70
     0
 39
0.003
 10
0.692339
 20
0.231594
 40
0.003
 41
0.003
 10
1.43948
 20
0.228815
 40
0.003
 41
0.003
  0
LWPOLYLINE
  5
123
100
AcDbEntity
  8
0
 62
   254
100
AcDbPolyline
 90
        2
 70
     0
 39
0.003
 10
1.43948
 20
0.228815
 40
0.003
 41
0.003
 10
1.447213
 20
0.257354
 40
0.003
 41
0.003
  0
LWPOLYLINE
  5
124
100
AcDbEntity
  8
0
 62
   254
100
AcDbPolyline
 90
        2
 70
     0
 39
0.003
 10
1.447213
 20
0.257354
 40
0.003
 41
0.003
 10
0.700071
 20
0.260134
 40
0.003
 41
0.003
  0
LWPOLYLINE
  5
125
100
AcDbEntity
  8
0
 62
   254
100
AcDbPolyline
 90
        2
 70
     0
 39
0.003
 10
0.700071
 20
0.260134
 40
0.003
 41
0.003
 10
0.692339
 20
0.231594
 40
0.003
 41
0.003
  0
LWPOLYLINE
  5
126
100
AcDbEntity
  8
0
 62
   254
100
AcDbPolyline
 90
        2
 70
     0
 39
0.003
 10
0.700071
 20
0.260134
 40
0.003
 41
0.003
 10
1.447213
 20
0.257354
 40
0.003
 41
0.003
  0
LWPOLYLINE
  5
127
100
AcDbEntity
  8
0
 62
   254
100
AcDbPolyline
 90
        2
 70
     0
 39
0.003
 10
1.447213
 20
0.257354
 40
0.003
 41
0.003
 10
1.452476
 20
0.286409
 40
0.003
 41
0.003
  0
LWPOLYLINE
  5
128
100
AcDbEntity
  8
0
 62
   254
100
AcDbPolyline
 90
        2
 70
     0
 39
0.003
 10
1.452476
 20
0.286409
 40
0.003
 41
0.003
 10
0.705335
 20
0.289189
 40
0.003
 41
0.003
  0
LWPOLYLINE
  5
129
100
AcDbEntity
  8
0
 62
   254
100
AcDbPolyline
 90
        2
 70
     0
 39
0.003
 10
0.705335
 20
0.289189
 40
0.003
 41
0.003
 10
0.700071
 20
0.260134
 40
0.003
 41
0.003
  0
LWPOLYLINE
  5
12A
100
AcDbEntity
  8
0
 62
   254
100
AcDbPolyline
 90
        2
 70
     0
 39
0.003
 10
0.705335
 20
0.289189
 40
0.003
 41
0.003
 10
1.452476
 20
0.286409
 40
0.003
 41
0.003
  0
LWPOLYLINE
  5
12B
100
AcDbEntity
  8
0
 62
   254
100
AcDbPolyline
 90
        2
 70
     0
 39
0.003
 10
1.452476
 20
0.286409
 40
0.003
 41
0.003
 10
1.455248
 20
0.31578
 40
0.003
 41
0.003
  0
LWPOLYLINE
  5
12C
100
AcDbEntity
  8
0
 62
   254
100
AcDbPolyline
 90
        2
 70
     0
 39
0.003
 10
1.455248
 20
0.31578
 40
0.003
 41
0.003
 10
0.708106
 20
0.318559
 40
0.003
 41
0.003
  0
LWPOLYLINE
  5
12D
100
AcDbEntity
  8
0
 62
   254
100
AcDbPolyline
 90
        2
 70
     0
 39
0.003
 10
0.708106
 20
0.318559
 40
0.003
 41
0.003
 10
0.705335
 20
0.289189
 40
0.003
 41
0.003
  0
LWPOLYLINE
  5
12E
100
AcDbEntity
  8
0
 62
   254
100
AcDbPolyline
 90
        2
 70
     0
 39
0.003
 10
0.708106
 20
0.318559
 40
0.003
 41
0.003
 10
1.455248
 20
0.31578
 40
0.003
 41
0.003
  0
LWPOLYLINE
  5
12F
100
AcDbEntity
  8
0
 62
   254
100
AcDbPolyline
 90
        2
 70
     0
 39
0.003
 10
1.455248
 20
0.31578
 40
0.003
 41
0.003
 10
1.455484
 20
0.345252
 40
0.003
 41
0.003
  0
LWPOLYLINE
  5
130
100
AcDbEntity
  8
0
 62
   254
100
AcDbPolyline
 90
        2
 70
     0
 39
0.003
 10
1.455484
 20
0.345252
 40
0.003
 41
0.003
 10
0.708343
 20
0.348031
 40
0.003
 41
0.003
  0
LWPOLYLINE
  5
131
100
AcDbEntity
  8
0
 62
   254
100
AcDbPolyline
 90
        2
 70
     0
 39
0.003
 10
0.708343
 20
0.348031
 40
0.003
 41
0.003
 10
0.708106
 20
0.318559
 40
0.003
 41
0.003
  0
LWPOLYLINE
  5
132
100
AcDbEntity
  8
0
 62
   254
100
AcDbPolyline
 90
        2
 70
     0
 39
0.003
 10
0.708343
 20
0.348031
 40
0.003
 41
0.003
 10
1.455484
 20
0.345252
 40
0.003
 41
0.003
  0
LWPOLYLINE
  5
133
100
AcDbEntity
  8
0
 62
   254
100
AcDbPolyline
 90
        2
 70
     0
 39
0.003
 10
1.455484
 20
0.345252
 40
0.003
 41
0.003
 10
1.453173
 20
0.37463
 40
0.003
 41
0.003
  0
LWPOLYLINE
  5
134
100
AcDbEntity
  8
0
 62
   254
100
AcDbPolyline
 90
        2
 70
     0
 39
0.003
 10
1.453173
 20
0.37463
 40
0.003
 41
0.003
 10
0.706031
 20
0.377409
 40
0.003
 41
0.003
  0
LWPOLYLINE
  5
135
100
AcDbEntity
  8
0
 62
   254
100
AcDbPolyline
 90
        2
 70
     0
 39
0.003
 10
0.706031
 20
0.377409
 40
0.003
 41
0.003
 10
0.708343
 20
0.348031
 40
0.003
 41
0.003
  0
LWPOLYLINE
  5
136
100
AcDbEntity
  8
0
 62
   254
100
AcDbPolyline
 90
        2
 70
     0
 39
0.003
 10
0.706031
 20
0.377409
 40
0.003
 41
0.003
 10
1.453173
 20
0.37463
 40
0.003
 41
0.003
  0
LWPOLYLINE
  5
137
100
AcDbEntity
  8
0
 62
   254
100
AcDbPolyline
 90
        2
 70
     0
 39
0.003
 10
1.453173
 20
0.37463
 40
0.003
 41
0.003
 10
1.448272
 20
0.403697
 40
0.003
 41
0.003
  0
LWPOLYLINE
  5
138
100
AcDbEntity
  8
0
 62
   254
100
AcDbPolyline
 90
        2
 70
     0
 39
0.003
 10
1.448272
 20
0.403697
 40
0.003
 41
0.003
 10
0.70113
 20
0.406476
 40
0.003
 41
0.003
  0
LWPOLYLINE
  5
139
100
AcDbEntity
  8
0
 62
   254
100
AcDbPolyline
 90
        2
 70
     0
 39
0.003
 10
0.70113
 20
0.406476
 40
0.003
 41
0.003
 10
0.706031
 20
0.377409
 40
0.003
 41
0.003
  0
LWPOLYLINE
  5
13A
100
AcDbEntity
  8
0
 62
   254
100
AcDbPolyline
 90
        2
 70
     0
 39
0.003
 10
0.70113
 20
0.406476
 40
0.003
 41
0.003
 10
1.448272
 20
0.403697
 40
0.003
 41
0.003
  0
LWPOLYLINE
  5
13B
100
AcDbEntity
  8
0
 62
   254
100
AcDbPolyline
 90
        2
 70
     0
 39
0.003
 10
1.448272
 20
0.403697
 40
0.003
 41
0.003
 10
1.440764
 20
0.43226
 40
0.003
 41
0.003
  0
LWPOLYLINE
  5
13C
100
AcDbEntity
  8
0
 62
   254
100
AcDbPolyline
 90
        2
 70
     0
 39
0.003
 10
1.440764
 20
0.43226
 40
0.003
 41
0.003
 10
0.693622
 20
0.435039
 40
0.003
 41
0.003
  0
LWPOLYLINE
  5
13D
100
AcDbEntity
  8
0
 62
   254
100
AcDbPolyline
 90
        2
 70
     0
 39
0.003
 10
0.693622
 20
0.435039
 40
0.003
 41
0.003
 10
0.70113
 20
0.406476
 40
0.003
 41
0.003
  0
LWPOLYLINE
  5
13E
100
AcDbEntity
  8
0
 62
   254
100
AcDbPolyline
 90
        2
 70
     0
 39
0.003
 10
0.693622
 20
0.435039
 40
0.003
 41
0.003
 10
1.440764
 20
0.43226
 40
0.003
 41
0.003
  0
LWPOLYLINE
  5
13F
100
AcDbEntity
  8
0
 62
   254
100
AcDbPolyline
 90
        2
 70
     0
 39
0.003
 10
1.440764
 20
0.43226
 40
0.003
 41
0.003
 10
1.430602
 20
0.460094
 40
0.003
 41
0.003
  0
LWPOLYLINE
  5
140
100
AcDbEntity
  8
0
 62
   254
100
AcDbPolyline
 90
        2
 70
     0
 39
0.003
 10
1.430602
 20
0.460094
 40
0.003
 41
0.003
 10
0.683461
 20
0.462874
 40
0.003
 41
0.003
  0
LWPOLYLINE
  5
141
100
AcDbEntity
  8
0
 62
   254
100
AcDbPolyline
 90
        2
 70
     0
 39
0.003
 10
0.683461
 20
0.462874
 40
0.003
 41
0.003
 10
0.693622
 20
0.435039
 40
0.003
 41
0.003
  0
LWPOLYLINE
  5
142
100
AcDbEntity
  8
0
 62
   254
100
AcDbPolyline
 90
        2
 70
     0
 39
0.003
 10
0.683461
 20
0.462874
 40
0.003
 41
0.003
 10
1.430602
 20
0.460094
 40
0.003
 41
0.003
  0
LWPOLYLINE
  5
143
100
AcDbEntity
  8
0
 62
   254
100
AcDbPolyline
 90
        2
 70
     0
 39
0.003
 10
1.430602
 20
0.460094
 40
0.003
 41
0.003
 10
1.417776
 20
0.487012
 40
0.003
 41
0.003
  0
LWPOLYLINE
  5
144
100
AcDbEntity
  8
0
 62
   254
100
AcDbPolyline
 90
        2
 70
     0
 39
0.003
 10
1.417776
 20
0.487012
 40
0.003
 41
0.003
 10
0.670634
 20
0.489791
 40
0.003
 41
0.003
  0
LWPOLYLINE
  5
145
100
AcDbEntity
  8
0
 62
   254
100
AcDbPolyline
 90
        2
 70
     0
 39
0.003
 10
0.670634
 20
0.489791
 40
0.003
 41
0.003
 10
0.683461
 20
0.462874
 40
0.003
 41
0.003
  0
LWPOLYLINE
  5
146
100
AcDbEntity
  8
0
 62
   254
100
AcDbPolyline
 90
        2
 70
     0
 39
0.003
 10
0.670634
 20
0.489791
 40
0.003
 41
0.003
 10
1.417776
 20
0.487012
 40
0.003
 41
0.003
  0
LWPOLYLINE
  5
147
100
AcDbEntity
  8
0
 62
   254
100
AcDbPolyline
 90
        2
 70
     0
 39
0.003
 10
1.417776
 20
0.487012
 40
0.003
 41
0.003
 10
1.402236
 20
0.512795
 40
0.003
 41
0.003
  0
LWPOLYLINE
  5
148
100
AcDbEntity
  8
0
 62
   254
100
AcDbPolyline
 90
        2
 70
     0
 39
0.003
 10
1.402236
 20
0.512795
 40
0.003
 41
0.003
 10
0.655094
 20
0.515575
 40
0.003
 41
0.003
  0
LWPOLYLINE
  5
149
100
AcDbEntity
  8
0
 62
   254
100
AcDbPolyline
 90
        2
 70
     0
 39
0.003
 10
0.655094
 20
0.515575
 40
0.003
 41
0.003
 10
0.670634
 20
0.489791
 40
0.003
 41
0.003
  0
LWPOLYLINE
  5
14A
100
AcDbEntity
  8
0
 62
   254
100
AcDbPolyline
 90
        2
 70
     0
 39
0.003
 10
0.655094
 20
0.515575
 40
0.003
 41
0.003
 10
1.402236
 20
0.512795
 40
0.003
 41
0.003
  0
LWPOLYLINE
  5
14B
100
AcDbEntity
  8
0
 62
   254
100
AcDbPolyline
 90
        2
 70
     0
 39
0.003
 10
1.402236
 20
0.512795
 40
0.003
 41
0.003
 10
1.383969
 20
0.53724
 40
0.003
 41
0.003
  0
LWPOLYLINE
  5
14C
100
AcDbEntity
  8
0
 62
   254
100
AcDbPolyline
 90
        2
 70
     0
 39
0.003
 10
1.383969
 20
0.53724
 40
0.003
 41
0.003
 10
0.636827
 20
0.54002
 40
0.003
 41
0.003
  0
LWPOLYLINE
  5
14D
100
AcDbEntity
  8
0
 62
   254
100
AcDbPolyline
 90
        2
 70
     0
 39
0.003
 10
0.636827
 20
0.54002
 40
0.003
 41
0.003
 10
0.655094
 20
0.515575
 40
0.003
 41
0.003
  0
LWPOLYLINE
  5
14E
100
AcDbEntity
  8
0
 62
   254
100
AcDbPolyline
 90
        2
 70
     0
 39
0.003
 10
0.636827
 20
0.54002
 40
0.003
 41
0.003
 10
1.383969
 20
0.53724
 40
0.003
 41
0.003
  0
LWPOLYLINE
  5
14F
100
AcDbEntity
  8
0
 62
   254
100
AcDbPolyline
 90
        2
 70
     0
 39
0.003
 10
1.383969
 20
0.53724
 40
0.003
 41
0.003
 10
1.362925
 20
0.560134
 40
0.003
 41
0.003
  0
LWPOLYLINE
  5
150
100
AcDbEntity
  8
0
 62
   254
100
AcDbPolyline
 90
        2
 70
     0
 39
0.003
 10
1.362925
 20
0.560134
 40
0.003
 41
0.003
 10
0.615783
 20
0.562913
 40
0.003
 41
0.003
  0
LWPOLYLINE
  5
151
100
AcDbEntity
  8
0
 62
   254
100
AcDbPolyline
 90
        2
 70
     0
 39
0.003
 10
0.615783
 20
0.562913
 40
0.003
 41
0.003
 10
0.636827
 20
0.54002
 40
0.003
 41
0.003
  0
LWPOLYLINE
  5
152
100
AcDbEntity
  8
0
 62
     9
100
AcDbPolyline
 90
        2
 70
     0
 39
0.003
 10
0.615783
 20
0.562913
 40
0.003
 41
0.003
 10
1.362925
 20
0.560134
 40
0.003
 41
0.003
  0
LWPOLYLINE
  5
153
100
AcDbEntity
  8
0
 62
     9
100
AcDbPolyline
 90
        2
 70
     0
 39
0.003
 10
1.362925
 20
0.560134
 40
0.003
 41
0.003
 10
1.339094
 20
0.58128
 40
0.003
 41
0.003
  0
LWPOLYLINE
  5
154
100
AcDbEntity
  8
0
 62
     9
100
AcDbPolyline
 90
        2
 70
     0
 39
0.003
 10
1.339094
 20
0.58128
 40
0.003
 41
0.003
 10
0.591953
 20
0.584059
 40
0.003
 41
0.003
  0
LWPOLYLINE
  5
155
100
AcDbEntity
  8
0
 62
     9
100
AcDbPolyline
 90
        2
 70
     0
 39
0.003
 10
0.591953
 20
0.584059
 40
0.003
 41
0.003
 10
0.615783
 20
0.562913
 40
0.003
 41
0.003
  0
LWPOLYLINE
  5
156
100
AcDbEntity
  8
0
 62
     9
100
AcDbPolyline
 90
        2
 70
     0
 39
0.003
 10
0.591953
 20
0.584059
 40
0.003
 41
0.003
 10
1.339094
 20
0.58128
 40
0.003
 41
0.003
  0
LWPOLYLINE
  5
157
100
AcDbEntity
  8
0
 62
     9
100
AcDbPolyline
 90
        2
 70
     0
 39
0.003
 10
1.339094
 20
0.58128
 40
0.003
 41
0.003
 10
1.312441
 20
0.600465
 40
0.003
 41
0.003
  0
LWPOLYLINE
  5
158
100
AcDbEntity
  8
0
 62
     9
100
AcDbPolyline
 90
        2
 70
     0
 39
0.003
 10
1.312441
 20
0.600465
 40
0.003
 41
0.003
 10
0.565299
 20
0.603244
 40
0.003
 41
0.003
  0
LWPOLYLINE
  5
159
100
AcDbEntity
  8
0
 62
     9
100
AcDbPolyline
 90
        2
 70
     0
 39
0.003
 10
0.565299
 20
0.603244
 40
0.003
 41
0.003
 10
0.591953
 20
0.584059
 40
0.003
 41
0.003
  0
LWPOLYLINE
  5
15A
100
AcDbEntity
  8
0
 62
     9
100
AcDbPolyline
 90
        2
 70
     0
 39
0.003
 10
0.565299
 20
0.603244
 40
0.003
 41
0.003
 10
1.312441
 20
0.600465
 40
0.003
 41
0.003
  0
LWPOLYLINE
  5
15B
100
AcDbEntity
  8
0
 62
     9
100
AcDbPolyline
 90
        2
 70
     0
 39
0.003
 10
1.312441
 20
0.600465
 40
0.003
 41
0.003
 10
1.282933
 20
0.617488
 40
0.003
 41
0.003
  0
LWPOLYLINE
  5
15C
100
AcDbEntity
  8
0
 62
     9
100
AcDbPolyline
 90
        2
 70
     0
 39
0.003
 10
1.282933
 20
0.617488
 40
0.003
 41
0.003
 10
0.535791
 20
0.620268
 40
0.003
 41
0.003
  0
LWPOLYLINE
  5
15D
100
AcDbEntity
  8
0
 62
     9
100
AcDbPolyline
 90
        2
 70
     0
 39
0.003
 10
0.535791
 20
0.620268
 40
0.003
 41
0.003
 10
0.565299
 20
0.603244
 40
0.003
 41
0.003
  0
LWPOLYLINE
  5
15E
100
AcDbEntity
  8
0
 62
     9
100
AcDbPolyline
 90
        2
 70
     0
 39
0.003
 10
0.535791
 20
0.620268
 40
0.003
 41
0.003
 10
1.282933
 20
0.617488
 40
0.003
 41
0.003
  0
LWPOLYLINE
  5
15F
100
AcDbEntity
  8
0
 62
     9
100
AcDbPolyline
 90
        2
 70
     0
 39
0.003
 10
1.282933
 20
0.617488
 40
0.003
 41
0.003
 10
1.250535
 20
0.632134
 40
0.003
 41
0.003
  0
LWPOLYLINE
  5
160
100
AcDbEntity
  8
0
 62
     9
100
AcDbPolyline
 90
        2
 70
     0
 39
0.003
 10
1.250535
 20
0.632134
 40
0.003
 41
0.003
 10
0.503394
 20
0.634913
 40
0.003
 41
0.003
  0
LWPOLYLINE
  5
161
100
AcDbEntity
  8
0
 62
     9
100
AcDbPolyline
 90
        2
 70
     0
 39
0.003
 10
0.503394
 20
0.634913
 40
0.003
 41
0.003
 10
0.535791
 20
0.620268
 40
0.003
 41
0.003
  0
LWPOLYLINE
  5
162
100
AcDbEntity
  8
0
 62
     9
100
AcDbPolyline
 90
        2
 70
     0
 39
0.003
 10
0.503394
 20
0.634913
 40
0.003
 41
0.003
 10
1.250535
 20
0.632134
 40
0.003
 41
0.003
  0
LWPOLYLINE
  5
163
100
AcDbEntity
  8
0
 62
     9
100
AcDbPolyline
 90
        2
 70
     0
 39
0.003
 10
1.250535
 20
0.632134
 40
0.003
 41
0.003
 10
1.215232
 20
0.644209
 40
0.003
 41
0.003
  0
LWPOLYLINE
  5
164
100
AcDbEntity
  8
0
 62
     9
100
AcDbPolyline
 90
        2
 70
     0
 39
0.003
 10
1.215232
 20
0.644209
 40
0.003
 41
0.003
 10
0.468091
 20
0.646988
 40
0.003
 41
0.003
  0
LWPOLYLINE
  5
165
100
AcDbEntity
  8
0
 62
     9
100
AcDbPolyline
 90
        2
 70
     0
 39
0.003
 10
0.468091
 20
0.646988
 40
0.003
 41
0.003
 10
0.503394
 20
0.634913
 40
0.003
 41
0.003
  0
LWPOLYLINE
  5
166
100
AcDbEntity
  8
0
 62
   253
100
AcDbPolyline
 90
        2
 70
     0
 39
0.003
 10
0.468091
 20
0.646988
 40
0.003
 41
0.003
 10
1.215232
 20
0.644209
 40
0.003
 41
0.003
  0
LWPOLYLINE
  5
167
100
AcDbEntity
  8
0
 62
   253
100
AcDbPolyline
 90
        2
 70
     0
 39
0.003
 10
1.215232
 20
0.644209
 40
0.003
 41
0.003
 10
1.17698
 20
0.653496
 40
0.003
 41
0.003
  0
LWPOLYLINE
  5
168
100
AcDbEntity
  8
0
 62
   253
100
AcDbPolyline
 90
        2
 70
     0
 39
0.003
 10
1.17698
 20
0.653496
 40
0.003
 41
0.003
 10
0.429839
 20
0.656276
 40
0.003
 41
0.003
  0
LWPOLYLINE
  5
169
100
AcDbEntity
  8
0
 62
   253
100
AcDbPolyline
 90
        2
 70
     0
 39
0.003
 10
0.429839
 20
0.656276
 40
0.003
 41
0.003
 10
0.468091
 20
0.646988
 40
0.003
 41
0.003
  0
LWPOLYLINE
  5
16A
100
AcDbEntity
  8
0
 62
   252
100
AcDbPolyline
 90
        2
 70
     0
 39
0.003
 10
0.429839
 20
0.656276
 40
0.003
 41
0.003
 10
1.17698
 20
0.653496
 40
0.003
 41
0.003
  0
LWPOLYLINE
  5
16B
100
AcDbEntity
  8
0
 62
   252
100
AcDbPolyline
 90
        2
 70
     0
 39
0.003
 10
1.17698
 20
0.653496
 40
0.003
 41
0.003
 10
1.135756
 20
0.659795
 40
0.003
 41
0.003
  0
LWPOLYLINE
  5
16C
100
AcDbEntity
  8
0
 62
   252
100
AcDbPolyline
 90
        2
 70
     0
 39
0.003
 10
1.135756
 20
0.659795
 40
0.003
 41
0.003
 10
0.388614
 20
0.662575
 40
0.003
 41
0.003
  0
LWPOLYLINE
  5
16D
100
AcDbEntity
  8
0
 62
   252
100
AcDbPolyline
 90
        2
 70
     0
 39
0.003
 10
0.388614
 20
0.662575
 40
0.003
 41
0.003
 10
0.429839
 20
0.656276
 40
0.003
 41
0.003
  0
LWPOLYLINE
  5
16E
100
AcDbEntity
  8
0
 62
     0
100
AcDbPolyline
 90
        2
 70
     0
 39
0.003
 10
0.38115
 20
0.002035
 40
0.003
 41
0.003
 10
1.128291
 20
-0.000744
 40
0.003
 41
0.003
  0
LWPOLYLINE
  5
16F
100
AcDbEntity
  8
0
 62
     0
100
AcDbPolyline
 90
        2
 70
     0
 39
0.003
 10
1.128291
 20
-0.000744
 40
0.003
 41
0.003
 10
1.165339
 20
0.002217
 40
0.003
 41
0.003
  0
LWPOLYLINE
  5
170
100
AcDbEntity
  8
0
 62
     0
100
AcDbPolyline
 90
        2
 70
     0
 39
0.003
 10
1.165339
 20
0.002217
 40
0.003
 41
0.003
 10
1.200319
 20
0.00839
 40
0.003
 41
0.003
  0
LWPOLYLINE
  5
171
100
AcDbEntity
  8
0
 62
     0
100
AcDbPolyline
 90
        2
 70
     0
 39
0.003
 10
1.200319
 20
0.00839
 40
0.003
 41
0.003
 10
1.233189
 20
0.017559
 40
0.003
 41
0.003
  0
LWPOLYLINE
  5
172
100
AcDbEntity
  8
0
 62
     0
100
AcDbPolyline
 90
        2
 70
     0
 39
0.003
 10
1.233189
 20
0.017559
 40
0.003
 41
0.003
 10
1.263929
 20
0.029528
 40
0.003
 41
0.003
  0
LWPOLYLINE
  5
173
100
AcDbEntity
  8
0
 62
     0
100
AcDbPolyline
 90
        2
 70
     0
 39
0.003
 10
1.263929
 20
0.029528
 40
0.003
 41
0.003
 10
1.292496
 20
0.044075
 40
0.003
 41
0.003
  0
LWPOLYLINE
  5
174
100
AcDbEntity
  8
0
 62
     0
100
AcDbPolyline
 90
        2
 70
     0
 39
0.003
 10
1.292496
 20
0.044075
 40
0.003
 41
0.003
 10
1.31887
 20
0.061012
 40
0.003
 41
0.003
  0
LWPOLYLINE
  5
175
100
AcDbEntity
  8
0
 62
     0
100
AcDbPolyline
 90
        2
 70
     0
 39
0.003
 10
1.31887
 20
0.061012
 40
0.003
 41
0.003
 10
1.343016
 20
0.080114
 40
0.003
 41
0.003
  0
LWPOLYLINE
  5
176
100
AcDbEntity
  8
0
 62
     0
100
AcDbPolyline
 90
        2
 70
     0
 39
0.003
 10
1.343016
 20
0.080114
 40
0.003
 41
0.003
 10
1.364913
 20
0.101189
 40
0.003
 41
0.003
  0
LWPOLYLINE
  5
177
100
AcDbEntity
  8
0
 62
     0
100
AcDbPolyline
 90
        2
 70
     0
 39
0.003
 10
1.364913
 20
0.101189
 40
0.003
 41
0.003
 10
1.384516
 20
0.124016
 40
0.003
 41
0.003
  0
LWPOLYLINE
  5
178
100
AcDbEntity
  8
0
 62
     0
100
AcDbPolyline
 90
        2
 70
     0
 39
0.003
 10
1.384516
 20
0.124016
 40
0.003
 41
0.003
 10
1.401807
 20
0.148406
 40
0.003
 41
0.003
  0
LWPOLYLINE
  5
179
100
AcDbEntity
  8
0
 62
     0
100
AcDbPolyline
 90
        2
 70
     0
 39
0.003
 10
1.401807
 20
0.148406
 40
0.003
 41
0.003
 10
1.416748
 20
0.174134
 40
0.003
 41
0.003
  0
LWPOLYLINE
  5
17A
100
AcDbEntity
  8
0
 62
     0
100
AcDbPolyline
 90
        2
 70
     0
 39
0.003
 10
1.416748
 20
0.174134
 40
0.003
 41
0.003
 10
1.429323
 20
0.201012
 40
0.003
 41
0.003
  0
LWPOLYLINE
  5
17B
100
AcDbEntity
  8
0
 62
     0
100
AcDbPolyline
 90
        2
 70
     0
 39
0.003
 10
1.429323
 20
0.201012
 40
0.003
 41
0.003
 10
1.43948
 20
0.228815
 40
0.003
 41
0.003
  0
LWPOLYLINE
  5
17C
100
AcDbEntity
  8
0
 62
     0
100
AcDbPolyline
 90
        2
 70
     0
 39
0.003
 10
1.43948
 20
0.228815
 40
0.003
 41
0.003
 10
1.447213
 20
0.257354
 40
0.003
 41
0.003
  0
LWPOLYLINE
  5
17D
100
AcDbEntity
  8
0
 62
     0
100
AcDbPolyline
 90
        2
 70
     0
 39
0.003
 10
1.447213
 20
0.257354
 40
0.003
 41
0.003
 10
1.452476
 20
0.286409
 40
0.003
 41
0.003
  0
LWPOLYLINE
  5
17E
100
AcDbEntity
  8
0
 62
     0
100
AcDbPolyline
 90
        2
 70
     0
 39
0.003
 10
1.452476
 20
0.286409
 40
0.003
 41
0.003
 10
1.455248
 20
0.31578
 40
0.003
 41
0.003
  0
LWPOLYLINE
  5
17F
100
AcDbEntity
  8
0
 62
     0
100
AcDbPolyline
 90
        2
 70
     0
 39
0.003
 10
1.455248
 20
0.31578
 40
0.003
 41
0.003
 10
1.455484
 20
0.345252
 40
0.003
 41
0.003
  0
LWPOLYLINE
  5
180
100
AcDbEntity
  8
0
 62
     0
100
AcDbPolyline
 90
        2
 70
     0
 39
0.003
 10
1.455484
 20
0.345252
 40
0.003
 41
0.003
 10
1.453173
 20
0.37463
 40
0.003
 41
0.003
  0
LWPOLYLINE
  5
181
100
AcDbEntity
  8
0
 62
     0
100
AcDbPolyline
 90
        2
 70
     0
 39
0.003
 10
1.453173
 20
0.37463
 40
0.003
 41
0.003
 10
1.448272
 20
0.403697
 40
0.003
 41
0.003
  0
LWPOLYLINE
  5
182
100
AcDbEntity
  8
0
 62
     0
100
AcDbPolyline
 90
        2
 70
     0
 39
0.003
 10
1.448272
 20
0.403697
 40
0.003
 41
0.003
 10
1.440764
 20
0.43226
 40
0.003
 41
0.003
  0
LWPOLYLINE
  5
183
100
AcDbEntity
  8
0
 62
     0
100
AcDbPolyline
 90
        2
 70
     0
 39
0.003
 10
1.440764
 20
0.43226
 40
0.003
 41
0.003
 10
1.430602
 20
0.460094
 40
0.003
 41
0.003
  0
LWPOLYLINE
  5
184
100
AcDbEntity
  8
0
 62
     0
100
AcDbPolyline
 90
        2
 70
     0
 39
0.003
 10
1.430602
 20
0.460094
 40
0.003
 41
0.003
 10
1.417776
 20
0.487012
 40
0.003
 41
0.003
  0
LWPOLYLINE
  5
185
100
AcDbEntity
  8
0
 62
     0
100
AcDbPolyline
 90
        2
 70
     0
 39
0.003
 10
1.417776
 20
0.487012
 40
0.003
 41
0.003
 10
1.402236
 20
0.512795
 40
0.003
 41
0.003
  0
LWPOLYLINE
  5
186
100
AcDbEntity
  8
0
 62
     0
100
AcDbPolyline
 90
        2
 70
     0
 39
0.003
 10
1.402236
 20
0.512795
 40
0.003
 41
0.003
 10
1.383969
 20
0.53724
 40
0.003
 41
0.003
  0
LWPOLYLINE
  5
187
100
AcDbEntity
  8
0
 62
     0
100
AcDbPolyline
 90
        2
 70
     0
 39
0.003
 10
1.383969
 20
0.53724
 40
0.003
 41
0.003
 10
1.362925
 20
0.560134
 40
0.003
 41
0.003
  0
LWPOLYLINE
  5
188
100
AcDbEntity
  8
0
 62
     0
100
AcDbPolyline
 90
        2
 70
     0
 39
0.003
 10
1.362925
 20
0.560134
 40
0.003
 41
0.003
 10
1.339094
 20
0.58128
 40
0.003
 41
0.003
  0
LWPOLYLINE
  5
189
100
AcDbEntity
  8
0
 62
     0
100
AcDbPolyline
 90
        2
 70
     0
 39
0.003
 10
1.339094
 20
0.58128
 40
0.003
 41
0.003
 10
1.312441
 20
0.600465
 40
0.003
 41
0.003
  0
LWPOLYLINE
  5
18A
100
AcDbEntity
  8
0
 62
     0
100
AcDbPolyline
 90
        2
 70
     0
 39
0.003
 10
1.312441
 20
0.600465
 40
0.003
 41
0.003
 10
1.282933
 20
0.617488
 40
0.003
 41
0.003
  0
LWPOLYLINE
  5
18B
100
AcDbEntity
  8
0
 62
     0
100
AcDbPolyline
 90
        2
 70
     0
 39
0.003
 10
1.282933
 20
0.617488
 40
0.003
 41
0.003
 10
1.250535
 20
0.632134
 40
0.003
 41
0.003
  0
LWPOLYLINE
  5
18C
100
AcDbEntity
  8
0
 62
     0
100
AcDbPolyline
 90
        2
 70
     0
 39
0.003
 10
1.250535
 20
0.632134
 40
0.003
 41
0.003
 10
1.215232
 20
0.644209
 40
0.003
 41
0.003
  0
LWPOLYLINE
  5
18D
100
AcDbEntity
  8
0
 62
     0
100
AcDbPolyline
 90
        2
 70
     0
 39
0.003
 10
1.215232
 20
0.644209
 40
0.003
 41
0.003
 10
1.17698
 20
0.653496
 40
0.003
 41
0.003
  0
LWPOLYLINE
  5
18E
100
AcDbEntity
  8
0
 62
     0
100
AcDbPolyline
 90
        2
 70
     0
 39
0.003
 10
1.17698
 20
0.653496
 40
0.003
 41
0.003
 10
1.135756
 20
0.659795
 40
0.003
 41
0.003
  0
LWPOLYLINE
  5
18F
100
AcDbEntity
  8
0
 62
     0
100
AcDbPolyline
 90
        2
 70
     0
 39
0.003
 10
1.135756
 20
0.659795
 40
0.003
 41
0.003
 10
0.388614
 20
0.662575
 40
0.003
 41
0.003
  0
LWPOLYLINE
  5
190
100
AcDbEntity
  8
0
 62
     0
100
AcDbPolyline
 90
        2
 70
     0
 39
0.003
 10
0.388614
 20
0.662575
 40
0.003
 41
0.003
 10
0.429839
 20
0.656276
 40
0.003
 41
0.003
  0
LWPOLYLINE
  5
191
100
AcDbEntity
  8
0
 62
     0
100
AcDbPolyline
 90
        2
 70
     0
 39
0.003
 10
0.429839
 20
0.656276
 40
0.003
 41
0.003
 10
0.468091
 20
0.646988
 40
0.003
 41
0.003
  0
LWPOLYLINE
  5
192
100
AcDbEntity
  8
0
 62
     0
100
AcDbPolyline
 90
        2
 70
     0
 39
0.003
 10
0.468091
 20
0.646988
 40
0.003
 41
0.003
 10
0.503394
 20
0.634913
 40
0.003
 41
0.003
  0
LWPOLYLINE
  5
193
100
AcDbEntity
  8
0
 62
     0
100
AcDbPolyline
 90
        2
 70
     0
 39
0.003
 10
0.503394
 20
0.634913
 40
0.003
 41
0.003
 10
0.535791
 20
0.620268
 40
0.003
 41
0.003
  0
LWPOLYLINE
  5
194
100
AcDbEntity
  8
0
 62
     0
100
AcDbPolyline
 90
        2
 70
     0
 39
0.003
 10
0.535791
 20
0.620268
 40
0.003
 41
0.003
 10
0.565299
 20
0.603244
 40
0.003
 41
0.003
  0
LWPOLYLINE
  5
195
100
AcDbEntity
  8
0
 62
     0
100
AcDbPolyline
 90
        2
 70
     0
 39
0.003
 10
0.565299
 20
0.603244
 40
0.003
 41
0.003
 10
0.591953
 20
0.584059
 40
0.003
 41
0.003
  0
LWPOLYLINE
  5
196
100
AcDbEntity
  8
0
 62
     0
100
AcDbPolyline
 90
        2
 70
     0
 39
0.003
 10
0.591953
 20
0.584059
 40
0.003
 41
0.003
 10
0.615783
 20
0.562913
 40
0.003
 41
0.003
  0
LWPOLYLINE
  5
197
100
AcDbEntity
  8
0
 62
     0
100
AcDbPolyline
 90
        2
 70
     0
 39
0.003
 10
0.615783
 20
0.562913
 40
0.003
 41
0.003
 10
0.636827
 20
0.54002
 40
0.003
 41
0.003
  0
LWPOLYLINE
  5
198
100
AcDbEntity
  8
0
 62
     0
100
AcDbPolyline
 90
        2
 70
     0
 39
0.003
 10
0.636827
 20
0.54002
 40
0.003
 41
0.003
 10
0.655094
 20
0.515575
 40
0.003
 41
0.003
  0
LWPOLYLINE
  5
199
100
AcDbEntity
  8
0
 62
     0
100
AcDbPolyline
 90
        2
 70
     0
 39
0.003
 10
0.655094
 20
0.515575
 40
0.003
 41
0.003
 10
0.670634
 20
0.489791
 40
0.003
 41
0.003
  0
LWPOLYLINE
  5
19A
100
AcDbEntity
  8
0
 62
     0
100
AcDbPolyline
 90
        2
 70
     0
 39
0.003
 10
0.670634
 20
0.489791
 40
0.003
 41
0.003
 10
0.683461
 20
0.462874
 40
0.003
 41
0.003
  0
LWPOLYLINE
  5
19B
100
AcDbEntity
  8
0
 62
     0
100
AcDbPolyline
 90
        2
 70
     0
 39
0.003
 10
0.683461
 20
0.462874
 40
0.003
 41
0.003
 10
0.693622
 20
0.435039
 40
0.003
 41
0.003
  0
LWPOLYLINE
  5
19C
100
AcDbEntity
  8
0
 62
     0
100
AcDbPolyline
 90
        2
 70
     0
 39
0.003
 10
0.693622
 20
0.435039
 40
0.003
 41
0.003
 10
0.70113
 20
0.406476
 40
0.003
 41
0.003
  0
LWPOLYLINE
  5
19D
100
AcDbEntity
  8
0
 62
     0
100
AcDbPolyline
 90
        2
 70
     0
 39
0.003
 10
0.70113
 20
0.406476
 40
0.003
 41
0.003
 10
0.706031
 20
0.377409
 40
0.003
 41
0.003
  0
LWPOLYLINE
  5
19E
100
AcDbEntity
  8
0
 62
     0
100
AcDbPolyline
 90
        2
 70
     0
 39
0.003
 10
0.706031
 20
0.377409
 40
0.003
 41
0.003
 10
0.708343
 20
0.348031
 40
0.003
 41
0.003
  0
LWPOLYLINE
  5
19F
100
AcDbEntity
  8
0
 62
     0
100
AcDbPolyline
 90
        2
 70
     0
 39
0.003
 10
0.708343
 20
0.348031
 40
0.003
 41
0.003
 10
0.708106
 20
0.318559
 40
0.003
 41
0.003
  0
LWPOLYLINE
  5
1A0
100
AcDbEntity
  8
0
 62
     0
100
AcDbPolyline
 90
        2
 70
     0
 39
0.003
 10
0.708106
 20
0.318559
 40
0.003
 41
0.003
 10
0.705335
 20
0.289189
 40
0.003
 41
0.003
  0
LWPOLYLINE
  5
1A1
100
AcDbEntity
  8
0
 62
     0
100
AcDbPolyline
 90
        2
 70
     0
 39
0.003
 10
0.705335
 20
0.289189
 40
0.003
 41
0.003
 10
0.700071
 20
0.260134
 40
0.003
 41
0.003
  0
LWPOLYLINE
  5
1A2
100
AcDbEntity
  8
0
 62
     0
100
AcDbPolyline
 90
        2
 70
     0
 39
0.003
 10
0.700071
 20
0.260134
 40
0.003
 41
0.003
 10
0.692339
 20
0.231594
 40
0.003
 41
0.003
  0
LWPOLYLINE
  5
1A3
100
AcDbEntity
  8
0
 62
     0
100
AcDbPolyline
 90
        2
 70
     0
 39
0.003
 10
0.692339
 20
0.231594
 40
0.003
 41
0.003
 10
0.682181
 20
0.203791
 40
0.003
 41
0.003
  0
LWPOLYLINE
  5
1A4
100
AcDbEntity
  8
0
 62
     0
100
AcDbPolyline
 90
        2
 70
     0
 39
0.003
 10
0.682181
 20
0.203791
 40
0.003
 41
0.003
 10
0.669606
 20
0.176913
 40
0.003
 41
0.003
  0
LWPOLYLINE
  5
1A5
100
AcDbEntity
  8
0
 62
     0
100
AcDbPolyline
 90
        2
 70
     0
 39
0.003
 10
0.669606
 20
0.176913
 40
0.003
 41
0.003
 10
0.654665
 20
0.151185
 40
0.003
 41
0.003
  0
LWPOLYLINE
  5
1A6
100
AcDbEntity
  8
0
 62
     0
100
AcDbPolyline
 90
        2
 70
     0
 39
0.003
 10
0.654665
 20
0.151185
 40
0.003
 41
0.003
 10
0.637374
 20
0.126795
 40
0.003
 41
0.003
  0
LWPOLYLINE
  5
1A7
100
AcDbEntity
  8
0
 62
     0
100
AcDbPolyline
 90
        2
 70
     0
 39
0.003
 10
0.637374
 20
0.126795
 40
0.003
 41
0.003
 10
0.617772
 20
0.103969
 40
0.003
 41
0.003
  0
LWPOLYLINE
  5
1A8
100
AcDbEntity
  8
0
 62
     0
100
AcDbPolyline
 90
        2
 70
     0
 39
0.003
 10
0.617772
 20
0.103969
 40
0.003
 41
0.003
 10
0.595874
 20
0.082894
 40
0.003
 41
0.003
  0
LWPOLYLINE
  5
1A9
100
AcDbEntity
  8
0
 62
     0
100
AcDbPolyline
 90
        2
 70
     0
 39
0.003
 10
0.595874
 20
0.082894
 40
0.003
 41
0.003
 10
0.571728
 20
0.063791
 40
0.003
 41
0.003
  0
LWPOLYLINE
  5
1AA
100
AcDbEntity
  8
0
 62
     0
100
AcDbPolyline
 90
        2
 70
     0
 39
0.003
 10
0.571728
 20
0.063791
 40
0.003
 41
0.003
 10
0.545354
 20
0.046854
 40
0.003
 41
0.003
  0
LWPOLYLINE
  5
1AB
100
AcDbEntity
  8
0
 62
     0
100
AcDbPolyline
 90
        2
 70
     0
 39
0.003
 10
0.545354
 20
0.046854
 40
0.003
 41
0.003
 10
0.516787
 20
0.032307
 40
0.003
 41
0.003
  0
LWPOLYLINE
  5
1AC
100
AcDbEntity
  8
0
 62
     0
100
AcDbPolyline
 90
        2
 70
     0
 39
0.003
 10
0.516787
 20
0.032307
 40
0.003
 41
0.003
 10
0.486047
 20
0.020339
 40
0.003
 41
0.003
  0
LWPOLYLINE
  5
1AD
100
AcDbEntity
  8
0
 62
     0
100
AcDbPolyline
 90
        2
 70
     0
 39
0.003
 10
0.486047
 20
0.020339
 40
0.003
 41
0.003
 10
0.453177
 20
0.011169
 40
0.003
 41
0.003
  0
LWPOLYLINE
  5
1AE
100
AcDbEntity
  8
0
 62
     0
100
AcDbPolyline
 90
        2
 70
     0
 39
0.003
 10
0.453177
 20
0.011169
 40
0.003
 41
0.003
 10
0.418197
 20
0.004996
 40
0.003
 41
0.003
  0
LWPOLYLINE
  5
1AF
100
AcDbEntity
  8
0
 62
     0
100
AcDbPolyline
 90
        2
 70
     0
 39
0.003
 10
0.418197
 20
0.004996
 40
0.003
 41
0.003
 10
0.38115
 20
0.002035
 40
0.003
 41
0.003
  0
LWPOLYLINE
  5
1B0
100
AcDbEntity
  8
0
 62
   254
100
AcDbPolyline
 90
        2
 70
     0
 39
0.003
 10
0.388614
 20
0.662575
 40
0.003
 41
0.003
 10
1.135756
 20
0.659795
 40
0.003
 41
0.003
  0
LWPOLYLINE
  5
1B1
100
AcDbEntity
  8
0
 62
   254
100
AcDbPolyline
 90
        2
 70
     0
 39
0.003
 10
1.135756
 20
0.659795
 40
0.003
 41
0.003
 10
1.135756
 20
0.749449
 40
0.003
 41
0.003
  0
LWPOLYLINE
  5
1B2
100
AcDbEntity
  8
0
 62
   254
100
AcDbPolyline
 90
        2
 70
     0
 39
0.003
 10
1.135756
 20
0.749449
 40
0.003
 41
0.003
 10
0.388614
 20
0.752228
 40
0.003
 41
0.003
  0
LWPOLYLINE
  5
1B3
100
AcDbEntity
  8
0
 62
   254
100
AcDbPolyline
 90
        2
 70
     0
 39
0.003
 10
0.388614
 20
0.752228
 40
0.003
 41
0.003
 10
0.388614
 20
0.662575
 40
0.003
 41
0.003
  0
LWPOLYLINE
  5
1B4
100
AcDbEntity
  8
0
 62
     0
100
AcDbPolyline
 90
        2
 70
     0
 39
0.003
 10
0.388614
 20
0.662575
 40
0.003
 41
0.003
 10
1.135756
 20
0.659795
 40
0.003
 41
0.003
  0
LWPOLYLINE
  5
1B5
100
AcDbEntity
  8
0
 62
     0
100
AcDbPolyline
 90
        2
 70
     0
 39
0.003
 10
1.135756
 20
0.659795
 40
0.003
 41
0.003
 10
1.135756
 20
0.749449
 40
0.003
 41
0.003
  0
LWPOLYLINE
  5
1B6
100
AcDbEntity
  8
0
 62
     0
100
AcDbPolyline
 90
        2
 70
     0
 39
0.003
 10
1.135756
 20
0.749449
 40
0.003
 41
0.003
 10
0.388614
 20
0.752228
 40
0.003
 41
0.003
  0
LWPOLYLINE
  5
1B7
100
AcDbEntity
  8
0
 62
     0
100
AcDbPolyline
 90
        2
 70
     0
 39
0.003
 10
0.388614
 20
0.752228
 40
0.003
 41
0.003
 10
0.388614
 20
0.662575
 40
0.003
 41
0.003
  0
LWPOLYLINE
  5
1B8
100
AcDbEntity
  8
0
 62
   254
100
AcDbPolyline
 90
        2
 70
     0
 39
0.003
 10
0.187146
 20
-0.434717
 40
0.003
 41
0.003
 10
0.934287
 20
-0.437496
 40
0.003
 41
0.003
  0
LWPOLYLINE
  5
1B9
100
AcDbEntity
  8
0
 62
   254
100
AcDbPolyline
 90
        2
 70
     0
 39
0.003
 10
0.934287
 20
-0.437496
 40
0.003
 41
0.003
 10
0.935031
 20
-0.422618
 40
0.003
 41
0.003
  0
LWPOLYLINE
  5
1BA
100
AcDbEntity
  8
0
 62
   254
100
AcDbPolyline
 90
        2
 70
     0
 39
0.003
 10
0.935031
 20
-0.422618
 40
0.003
 41
0.003
 10
0.18789
 20
-0.419839
 40
0.003
 41
0.003
  0
LWPOLYLINE
  5
1BB
100
AcDbEntity
  8
0
 62
   254
100
AcDbPolyline
 90
        2
 70
     0
 39
0.003
 10
0.18789
 20
-0.419839
 40
0.003
 41
0.003
 10
0.187146
 20
-0.434717
 40
0.003
 41
0.003
  0
LWPOLYLINE
  5
1BC
100
AcDbEntity
  8
0
 62
   254
100
AcDbPolyline
 90
        2
 70
     0
 39
0.003
 10
0.18789
 20
-0.419839
 40
0.003
 41
0.003
 10
0.935031
 20
-0.422618
 40
0.003
 41
0.003
  0
LWPOLYLINE
  5
1BD
100
AcDbEntity
  8
0
 62
   254
100
AcDbPolyline
 90
        2
 70
     0
 39
0.003
 10
0.935031
 20
-0.422618
 40
0.003
 41
0.003
 10
0.935913
 20
-0.408091
 40
0.003
 41
0.003
  0
LWPOLYLINE
  5
1BE
100
AcDbEntity
  8
0
 62
   254
100
AcDbPolyline
 90
        2
 70
     0
 39
0.003
 10
0.935913
 20
-0.408091
 40
0.003
 41
0.003
 10
0.188772
 20
-0.405311
 40
0.003
 41
0.003
  0
LWPOLYLINE
  5
1BF
100
AcDbEntity
  8
0
 62
   254
100
AcDbPolyline
 90
        2
 70
     0
 39
0.003
 10
0.188772
 20
-0.405311
 40
0.003
 41
0.003
 10
0.18789
 20
-0.419839
 40
0.003
 41
0.003
  0
LWPOLYLINE
  5
1C0
100
AcDbEntity
  8
0
 62
   254
100
AcDbPolyline
 90
        2
 70
     0
 39
0.003
 10
0.188772
 20
-0.405311
 40
0.003
 41
0.003
 10
0.935913
 20
-0.408091
 40
0.003
 41
0.003
  0
LWPOLYLINE
  5
1C1
100
AcDbEntity
  8
0
 62
   254
100
AcDbPolyline
 90
        2
 70
     0
 39
0.003
 10
0.935913
 20
-0.408091
 40
0.003
 41
0.003
 10
0.936949
 20
-0.393894
 40
0.003
 41
0.003
  0
LWPOLYLINE
  5
1C2
100
AcDbEntity
  8
0
 62
   254
100
AcDbPolyline
 90
        2
 70
     0
 39
0.003
 10
0.936949
 20
-0.393894
 40
0.003
 41
0.003
 10
0.189807
 20
-0.391114
 40
0.003
 41
0.003
  0
LWPOLYLINE
  5
1C3
100
AcDbEntity
  8
0
 62
   254
100
AcDbPolyline
 90
        2
 70
     0
 39
0.003
 10
0.189807
 20
-0.391114
 40
0.003
 41
0.003
 10
0.188772
 20
-0.405311
 40
0.003
 41
0.003
  0
LWPOLYLINE
  5
1C4
100
AcDbEntity
  8
0
 62
   254
100
AcDbPolyline
 90
        2
 70
     0
 39
0.003
 10
0.189807
 20
-0.391114
 40
0.003
 41
0.003
 10
0.936949
 20
-0.393894
 40
0.003
 41
0.003
  0
LWPOLYLINE
  5
1C5
100
AcDbEntity
  8
0
 62
   254
100
AcDbPolyline
 90
        2
 70
     0
 39
0.003
 10
0.936949
 20
-0.393894
 40
0.003
 41
0.003
 10
0.938157
 20
-0.380028
 40
0.003
 41
0.003
  0
LWPOLYLINE
  5
1C6
100
AcDbEntity
  8
0
 62
   254
100
AcDbPolyline
 90
        2
 70
     0
 39
0.003
 10
0.938157
 20
-0.380028
 40
0.003
 41
0.003
 10
0.191016
 20
-0.377248
 40
0.003
 41
0.003
  0
LWPOLYLINE
  5
1C7
100
AcDbEntity
  8
0
 62
   254
100
AcDbPolyline
 90
        2
 70
     0
 39
0.003
 10
0.191016
 20
-0.377248
 40
0.003
 41
0.003
 10
0.189807
 20
-0.391114
 40
0.003
 41
0.003
  0
LWPOLYLINE
  5
1C8
100
AcDbEntity
  8
0
 62
   254
100
AcDbPolyline
 90
        2
 70
     0
 39
0.003
 10
0.191016
 20
-0.377248
 40
0.003
 41
0.003
 10
0.938157
 20
-0.380028
 40
0.003
 41
0.003
  0
LWPOLYLINE
  5
1C9
100
AcDbEntity
  8
0
 62
   254
100
AcDbPolyline
 90
        2
 70
     0
 39
0.003
 10
0.938157
 20
-0.380028
 40
0.003
 41
0.003
 10
0.939555
 20
-0.366476
 40
0.003
 41
0.003
  0
LWPOLYLINE
  5
1CA
100
AcDbEntity
  8
0
 62
   254
100
AcDbPolyline
 90
        2
 70
     0
 39
0.003
 10
0.939555
 20
-0.366476
 40
0.003
 41
0.003
 10
0.192413
 20
-0.363697
 40
0.003
 41
0.003
  0
LWPOLYLINE
  5
1CB
100
AcDbEntity
  8
0
 62
   254
100
AcDbPolyline
 90
        2
 70
     0
 39
0.003
 10
0.192413
 20
-0.363697
 40
0.003
 41
0.003
 10
0.191016
 20
-0.377248
 40
0.003
 41
0.003
  0
LWPOLYLINE
  5
1CC
100
AcDbEntity
  8
0
 62
   254
100
AcDbPolyline
 90
        2
 70
     0
 39
0.003
 10
0.192413
 20
-0.363697
 40
0.003
 41
0.003
 10
0.939555
 20
-0.366476
 40
0.003
 41
0.003
  0
LWPOLYLINE
  5
1CD
100
AcDbEntity
  8
0
 62
   254
100
AcDbPolyline
 90
        2
 70
     0
 39
0.003
 10
0.939555
 20
-0.366476
 40
0.003
 41
0.003
 10
0.941173
 20
-0.353244
 40
0.003
 41
0.003
  0
LWPOLYLINE
  5
1CE
100
AcDbEntity
  8
0
 62
   254
100
AcDbPolyline
 90
        2
 70
     0
 39
0.003
 10
0.941173
 20
-0.353244
 40
0.003
 41
0.003
 10
0.194031
 20
-0.350465
 40
0.003
 41
0.003
  0
LWPOLYLINE
  5
1CF
100
AcDbEntity
  8
0
 62
   254
100
AcDbPolyline
 90
        2
 70
     0
 39
0.003
 10
0.194031
 20
-0.350465
 40
0.003
 41
0.003
 10
0.192413
 20
-0.363697
 40
0.003
 41
0.003
  0
LWPOLYLINE
  5
1D0
100
AcDbEntity
  8
0
 62
   254
100
AcDbPolyline
 90
        2
 70
     0
 39
0.003
 10
0.194031
 20
-0.350465
 40
0.003
 41
0.003
 10
0.941173
 20
-0.353244
 40
0.003
 41
0.003
  0
LWPOLYLINE
  5
1D1
100
AcDbEntity
  8
0
 62
   254
100
AcDbPolyline
 90
        2
 70
     0
 39
0.003
 10
0.941173
 20
-0.353244
 40
0.003
 41
0.003
 10
0.943028
 20
-0.340311
 40
0.003
 41
0.003
  0
LWPOLYLINE
  5
1D2
100
AcDbEntity
  8
0
 62
   254
100
AcDbPolyline
 90
        2
 70
     0
 39
0.003
 10
0.943028
 20
-0.340311
 40
0.003
 41
0.003
 10
0.195886
 20
-0.337531
 40
0.003
 41
0.003
  0
LWPOLYLINE
  5
1D3
100
AcDbEntity
  8
0
 62
   254
100
AcDbPolyline
 90
        2
 70
     0
 39
0.003
 10
0.195886
 20
-0.337531
 40
0.003
 41
0.003
 10
0.194031
 20
-0.350465
 40
0.003
 41
0.003
  0
LWPOLYLINE
  5
1D4
100
AcDbEntity
  8
0
 62
   254
100
AcDbPolyline
 90
        2
 70
     0
 39
0.003
 10
0.195886
 20
-0.337531
 40
0.003
 41
0.003
 10
0.943028
 20
-0.340311
 40
0.003
 41
0.003
  0
LWPOLYLINE
  5
1D5
100
AcDbEntity
  8
0
 62
   254
100
AcDbPolyline
 90
        2
 70
     0
 39
0.003
 10
0.943028
 20
-0.340311
 40
0.003
 41
0.003
 10
0.945146
 20
-0.327685
 40
0.003
 41
0.003
  0
LWPOLYLINE
  5
1D6
100
AcDbEntity
  8
0
 62
   254
100
AcDbPolyline
 90
        2
 70
     0
 39
0.003
 10
0.945146
 20
-0.327685
 40
0.003
 41
0.003
 10
0.198004
 20
-0.324906
 40
0.003
 41
0.003
  0
LWPOLYLINE
  5
1D7
100
AcDbEntity
  8
0
 62
   254
100
AcDbPolyline
 90
        2
 70
     0
 39
0.003
 10
0.198004
 20
-0.324906
 40
0.003
 41
0.003
 10
0.195886
 20
-0.337531
 40
0.003
 41
0.003
  0
LWPOLYLINE
  5
1D8
100
AcDbEntity
  8
0
 62
   254
100
AcDbPolyline
 90
        2
 70
     0
 39
0.003
 10
0.198004
 20
-0.324906
 40
0.003
 41
0.003
 10
0.945146
 20
-0.327685
 40
0.003
 41
0.003
  0
LWPOLYLINE
  5
1D9
100
AcDbEntity
  8
0
 62
   254
100
AcDbPolyline
 90
        2
 70
     0
 39
0.003
 10
0.945146
 20
-0.327685
 40
0.003
 41
0.003
 10
0.947531
 20
-0.315335
 40
0.003
 41
0.003
  0
LWPOLYLINE
  5
1DA
100
AcDbEntity
  8
0
 62
   254
100
AcDbPolyline
 90
        2
 70
     0
 39
0.003
 10
0.947531
 20
-0.315335
 40
0.003
 41
0.003
 10
0.20039
 20
-0.312555
 40
0.003
 41
0.003
  0
LWPOLYLINE
  5
1DB
100
AcDbEntity
  8
0
 62
   254
100
AcDbPolyline
 90
        2
 70
     0
 39
0.003
 10
0.20039
 20
-0.312555
 40
0.003
 41
0.003
 10
0.198004
 20
-0.324906
 40
0.003
 41
0.003
  0
LWPOLYLINE
  5
1DC
100
AcDbEntity
  8
0
 62
   254
100
AcDbPolyline
 90
        2
 70
     0
 39
0.003
 10
0.20039
 20
-0.312555
 40
0.003
 41
0.003
 10
0.947531
 20
-0.315335
 40
0.003
 41
0.003
  0
LWPOLYLINE
  5
1DD
100
AcDbEntity
  8
0
 62
   254
100
AcDbPolyline
 90
        2
 70
     0
 39
0.003
 10
0.947531
 20
-0.315335
 40
0.003
 41
0.003
 10
0.950224
 20
-0.303276
 40
0.003
 41
0.003
  0
LWPOLYLINE
  5
1DE
100
AcDbEntity
  8
0
 62
   254
100
AcDbPolyline
 90
        2
 70
     0
 39
0.003
 10
0.950224
 20
-0.303276
 40
0.003
 41
0.003
 10
0.203083
 20
-0.300496
 40
0.003
 41
0.003
  0
LWPOLYLINE
  5
1DF
100
AcDbEntity
  8
0
 62
   254
100
AcDbPolyline
 90
        2
 70
     0
 39
0.003
 10
0.203083
 20
-0.300496
 40
0.003
 41
0.003
 10
0.20039
 20
-0.312555
 40
0.003
 41
0.003
  0
LWPOLYLINE
  5
1E0
100
AcDbEntity
  8
0
 62
   254
100
AcDbPolyline
 90
        2
 70
     0
 39
0.003
 10
0.203083
 20
-0.300496
 40
0.003
 41
0.003
 10
0.950224
 20
-0.303276
 40
0.003
 41
0.003
  0
LWPOLYLINE
  5
1E1
100
AcDbEntity
  8
0
 62
   254
100
AcDbPolyline
 90
        2
 70
     0
 39
0.003
 10
0.950224
 20
-0.303276
 40
0.003
 41
0.003
 10
0.953232
 20
-0.291488
 40
0.003
 41
0.003
  0
LWPOLYLINE
  5
1E2
100
AcDbEntity
  8
0
 62
   254
100
AcDbPolyline
 90
        2
 70
     0
 39
0.003
 10
0.953232
 20
-0.291488
 40
0.003
 41
0.003
 10
0.206091
 20
-0.288709
 40
0.003
 41
0.003
  0
LWPOLYLINE
  5
1E3
100
AcDbEntity
  8
0
 62
   254
100
AcDbPolyline
 90
        2
 70
     0
 39
0.003
 10
0.206091
 20
-0.288709
 40
0.003
 41
0.003
 10
0.203083
 20
-0.300496
 40
0.003
 41
0.003
  0
LWPOLYLINE
  5
1E4
100
AcDbEntity
  8
0
 62
   254
100
AcDbPolyline
 90
        2
 70
     0
 39
0.003
 10
0.206091
 20
-0.288709
 40
0.003
 41
0.003
 10
0.953232
 20
-0.291488
 40
0.003
 41
0.003
  0
LWPOLYLINE
  5
1E5
100
AcDbEntity
  8
0
 62
   254
100
AcDbPolyline
 90
        2
 70
     0
 39
0.003
 10
0.953232
 20
-0.291488
 40
0.003
 41
0.003
 10
0.956594
 20
-0.279972
 40
0.003
 41
0.003
  0
LWPOLYLINE
  5
1E6
100
AcDbEntity
  8
0
 62
   254
100
AcDbPolyline
 90
        2
 70
     0
 39
0.003
 10
0.956594
 20
-0.279972
 40
0.003
 41
0.003
 10
0.209453
 20
-0.277193
 40
0.003
 41
0.003
  0
LWPOLYLINE
  5
1E7
100
AcDbEntity
  8
0
 62
   254
100
AcDbPolyline
 90
        2
 70
     0
 39
0.003
 10
0.209453
 20
-0.277193
 40
0.003
 41
0.003
 10
0.206091
 20
-0.288709
 40
0.003
 41
0.003
  0
LWPOLYLINE
  5
1E8
100
AcDbEntity
  8
0
 62
   254
100
AcDbPolyline
 90
        2
 70
     0
 39
0.003
 10
0.209453
 20
-0.277193
 40
0.003
 41
0.003
 10
0.956594
 20
-0.279972
 40
0.003
 41
0.003
  0
LWPOLYLINE
  5
1E9
100
AcDbEntity
  8
0
 62
   254
100
AcDbPolyline
 90
        2
 70
     0
 39
0.003
 10
0.956594
 20
-0.279972
 40
0.003
 41
0.003
 10
0.960311
 20
-0.268705
 40
0.003
 41
0.003
  0
LWPOLYLINE
  5
1EA
100
AcDbEntity
  8
0
 62
   254
100
AcDbPolyline
 90
        2
 70
     0
 39
0.003
 10
0.960311
 20
-0.268705
 40
0.003
 41
0.003
 10
0.213169
 20
-0.265925
 40
0.003
 41
0.003
  0
LWPOLYLINE
  5
1EB
100
AcDbEntity
  8
0
 62
   254
100
AcDbPolyline
 90
        2
 70
     0
 39
0.003
 10
0.213169
 20
-0.265925
 40
0.003
 41
0.003
 10
0.209453
 20
-0.277193
 40
0.003
 41
0.003
  0
LWPOLYLINE
  5
1EC
100
AcDbEntity
  8
0
 62
   254
100
AcDbPolyline
 90
        2
 70
     0
 39
0.003
 10
0.213169
 20
-0.265925
 40
0.003
 41
0.003
 10
0.960311
 20
-0.268705
 40
0.003
 41
0.003
  0
LWPOLYLINE
  5
1ED
100
AcDbEntity
  8
0
 62
   254
100
AcDbPolyline
 90
        2
 70
     0
 39
0.003
 10
0.960311
 20
-0.268705
 40
0.003
 41
0.003
 10
0.964417
 20
-0.257701
 40
0.003
 41
0.003
  0
LWPOLYLINE
  5
1EE
100
AcDbEntity
  8
0
 62
   254
100
AcDbPolyline
 90
        2
 70
     0
 39
0.003
 10
0.964417
 20
-0.257701
 40
0.003
 41
0.003
 10
0.217276
 20
-0.254921
 40
0.003
 41
0.003
  0
LWPOLYLINE
  5
1EF
100
AcDbEntity
  8
0
 62
   254
100
AcDbPolyline
 90
        2
 70
     0
 39
0.003
 10
0.217276
 20
-0.254921
 40
0.003
 41
0.003
 10
0.213169
 20
-0.265925
 40
0.003
 41
0.003
  0
LWPOLYLINE
  5
1F0
100
AcDbEntity
  8
0
 62
   254
100
AcDbPolyline
 90
        2
 70
     0
 39
0.003
 10
0.217276
 20
-0.254921
 40
0.003
 41
0.003
 10
0.964417
 20
-0.257701
 40
0.003
 41
0.003
  0
LWPOLYLINE
  5
1F1
100
AcDbEntity
  8
0
 62
   254
100
AcDbPolyline
 90
        2
 70
     0
 39
0.003
 10
0.964417
 20
-0.257701
 40
0.003
 41
0.003
 10
0.968933
 20
-0.246937
 40
0.003
 41
0.003
  0
LWPOLYLINE
  5
1F2
100
AcDbEntity
  8
0
 62
   254
100
AcDbPolyline
 90
        2
 70
     0
 39
0.003
 10
0.968933
 20
-0.246937
 40
0.003
 41
0.003
 10
0.221791
 20
-0.244157
 40
0.003
 41
0.003
  0
LWPOLYLINE
  5
1F3
100
AcDbEntity
  8
0
 62
   254
100
AcDbPolyline
 90
        2
 70
     0
 39
0.003
 10
0.221791
 20
-0.244157
 40
0.003
 41
0.003
 10
0.217276
 20
-0.254921
 40
0.003
 41
0.003
  0
LWPOLYLINE
  5
1F4
100
AcDbEntity
  8
0
 62
   254
100
AcDbPolyline
 90
        2
 70
     0
 39
0.003
 10
0.221791
 20
-0.244157
 40
0.003
 41
0.003
 10
0.968933
 20
-0.246937
 40
0.003
 41
0.003
  0
LWPOLYLINE
  5
1F5
100
AcDbEntity
  8
0
 62
   254
100
AcDbPolyline
 90
        2
 70
     0
 39
0.003
 10
0.968933
 20
-0.246937
 40
0.003
 41
0.003
 10
0.973874
 20
-0.236417
 40
0.003
 41
0.003
  0
LWPOLYLINE
  5
1F6
100
AcDbEntity
  8
0
 62
   254
100
AcDbPolyline
 90
        2
 70
     0
 39
0.003
 10
0.973874
 20
-0.236417
 40
0.003
 41
0.003
 10
0.226732
 20
-0.233638
 40
0.003
 41
0.003
  0
LWPOLYLINE
  5
1F7
100
AcDbEntity
  8
0
 62
   254
100
AcDbPolyline
 90
        2
 70
     0
 39
0.003
 10
0.226732
 20
-0.233638
 40
0.003
 41
0.003
 10
0.221791
 20
-0.244157
 40
0.003
 41
0.003
  0
LWPOLYLINE
  5
1F8
100
AcDbEntity
  8
0
 62
   254
100
AcDbPolyline
 90
        2
 70
     0
 39
0.003
 10
0.226732
 20
-0.233638
 40
0.003
 41
0.003
 10
0.973874
 20
-0.236417
 40
0.003
 41
0.003
  0
LWPOLYLINE
  5
1F9
100
AcDbEntity
  8
0
 62
   254
100
AcDbPolyline
 90
        2
 70
     0
 39
0.003
 10
0.973874
 20
-0.236417
 40
0.003
 41
0.003
 10
0.979252
 20
-0.226118
 40
0.003
 41
0.003
  0
LWPOLYLINE
  5
1FA
100
AcDbEntity
  8
0
 62
   254
100
AcDbPolyline
 90
        2
 70
     0
 39
0.003
 10
0.979252
 20
-0.226118
 40
0.003
 41
0.003
 10
0.23211
 20
-0.223339
 40
0.003
 41
0.003
  0
LWPOLYLINE
  5
1FB
100
AcDbEntity
  8
0
 62
   254
100
AcDbPolyline
 90
        2
 70
     0
 39
0.003
 10
0.23211
 20
-0.223339
 40
0.003
 41
0.003
 10
0.226732
 20
-0.233638
 40
0.003
 41
0.003
  0
LWPOLYLINE
  5
1FC
100
AcDbEntity
  8
0
 62
   254
100
AcDbPolyline
 90
        2
 70
     0
 39
0.003
 10
0.23211
 20
-0.223339
 40
0.003
 41
0.003
 10
0.979252
 20
-0.226118
 40
0.003
 41
0.003
  0
LWPOLYLINE
  5
1FD
100
AcDbEntity
  8
0
 62
   254
100
AcDbPolyline
 90
        2
 70
     0
 39
0.003
 10
0.979252
 20
-0.226118
 40
0.003
 41
0.003
 10
0.985114
 20
-0.216043
 40
0.003
 41
0.003
  0
LWPOLYLINE
  5
1FE
100
AcDbEntity
  8
0
 62
   254
100
AcDbPolyline
 90
        2
 70
     0
 39
0.003
 10
0.985114
 20
-0.216043
 40
0.003
 41
0.003
 10
0.237972
 20
-0.213264
 40
0.003
 41
0.003
  0
LWPOLYLINE
  5
1FF
100
AcDbEntity
  8
0
 62
   254
100
AcDbPolyline
 90
        2
 70
     0
 39
0.003
 10
0.237972
 20
-0.213264
 40
0.003
 41
0.003
 10
0.23211
 20
-0.223339
 40
0.003
 41
0.003
  0
LWPOLYLINE
  5
200
100
AcDbEntity
  8
0
 62
   254
100
AcDbPolyline
 90
        2
 70
     0
 39
0.003
 10
0.237972
 20
-0.213264
 40
0.003
 41
0.003
 10
0.985114
 20
-0.216043
 40
0.003
 41
0.003
  0
LWPOLYLINE
  5
201
100
AcDbEntity
  8
0
 62
   254
100
AcDbPolyline
 90
        2
 70
     0
 39
0.003
 10
0.985114
 20
-0.216043
 40
0.003
 41
0.003
 10
0.991461
 20
-0.206181
 40
0.003
 41
0.003
  0
LWPOLYLINE
  5
202
100
AcDbEntity
  8
0
 62
   254
100
AcDbPolyline
 90
        2
 70
     0
 39
0.003
 10
0.991461
 20
-0.206181
 40
0.003
 41
0.003
 10
0.244319
 20
-0.203402
 40
0.003
 41
0.003
  0
LWPOLYLINE
  5
203
100
AcDbEntity
  8
0
 62
   254
100
AcDbPolyline
 90
        2
 70
     0
 39
0.003
 10
0.244319
 20
-0.203402
 40
0.003
 41
0.003
 10
0.237972
 20
-0.213264
 40
0.003
 41
0.003
  0
LWPOLYLINE
  5
204
100
AcDbEntity
  8
0
 62
   254
100
AcDbPolyline
 90
        2
 70
     0
 39
0.003
 10
0.244319
 20
-0.203402
 40
0.003
 41
0.003
 10
0.991461
 20
-0.206181
 40
0.003
 41
0.003
  0
LWPOLYLINE
  5
205
100
AcDbEntity
  8
0
 62
   254
100
AcDbPolyline
 90
        2
 70
     0
 39
0.003
 10
0.991461
 20
-0.206181
 40
0.003
 41
0.003
 10
0.998323
 20
-0.196531
 40
0.003
 41
0.003
  0
LWPOLYLINE
  5
206
100
AcDbEntity
  8
0
 62
   254
100
AcDbPolyline
 90
        2
 70
     0
 39
0.003
 10
0.998323
 20
-0.196531
 40
0.003
 41
0.003
 10
0.251181
 20
-0.193752
 40
0.003
 41
0.003
  0
LWPOLYLINE
  5
207
100
AcDbEntity
  8
0
 62
   254
100
AcDbPolyline
 90
        2
 70
     0
 39
0.003
 10
0.251181
 20
-0.193752
 40
0.003
 41
0.003
 10
0.244319
 20
-0.203402
 40
0.003
 41
0.003
  0
LWPOLYLINE
  5
208
100
AcDbEntity
  8
0
 62
   254
100
AcDbPolyline
 90
        2
 70
     0
 39
0.003
 10
0.251181
 20
-0.193752
 40
0.003
 41
0.003
 10
0.998323
 20
-0.196531
 40
0.003
 41
0.003
  0
LWPOLYLINE
  5
209
100
AcDbEntity
  8
0
 62
   254
100
AcDbPolyline
 90
        2
 70
     0
 39
0.003
 10
0.998323
 20
-0.196531
 40
0.003
 41
0.003
 10
1.005713
 20
-0.187075
 40
0.003
 41
0.003
  0
LWPOLYLINE
  5
20A
100
AcDbEntity
  8
0
 62
   254
100
AcDbPolyline
 90
        2
 70
     0
 39
0.003
 10
1.005713
 20
-0.187075
 40
0.003
 41
0.003
 10
0.258571
 20
-0.184295
 40
0.003
 41
0.003
  0
LWPOLYLINE
  5
20B
100
AcDbEntity
  8
0
 62
   254
100
AcDbPolyline
 90
        2
 70
     0
 39
0.003
 10
0.258571
 20
-0.184295
 40
0.003
 41
0.003
 10
0.251181
 20
-0.193752
 40
0.003
 41
0.003
  0
LWPOLYLINE
  5
20C
100
AcDbEntity
  8
0
 62
   254
100
AcDbPolyline
 90
        2
 70
     0
 39
0.003
 10
0.258571
 20
-0.184295
 40
0.003
 41
0.003
 10
1.005713
 20
-0.187075
 40
0.003
 41
0.003
  0
LWPOLYLINE
  5
20D
100
AcDbEntity
  8
0
 62
   254
100
AcDbPolyline
 90
        2
 70
     0
 39
0.003
 10
1.005713
 20
-0.187075
 40
0.003
 41
0.003
 10
1.013665
 20
-0.177815
 40
0.003
 41
0.003
  0
LWPOLYLINE
  5
20E
100
AcDbEntity
  8
0
 62
   254
100
AcDbPolyline
 90
        2
 70
     0
 39
0.003
 10
1.013665
 20
-0.177815
 40
0.003
 41
0.003
 10
0.266524
 20
-0.175035
 40
0.003
 41
0.003
  0
LWPOLYLINE
  5
20F
100
AcDbEntity
  8
0
 62
   254
100
AcDbPolyline
 90
        2
 70
     0
 39
0.003
 10
0.266524
 20
-0.175035
 40
0.003
 41
0.003
 10
0.258571
 20
-0.184295
 40
0.003
 41
0.003
  0
LWPOLYLINE
  5
210
100
AcDbEntity
  8
0
 62
   254
100
AcDbPolyline
 90
        2
 70
     0
 39
0.003
 10
0.266524
 20
-0.175035
 40
0.003
 41
0.003
 10
1.013665
 20
-0.177815
 40
0.003
 41
0.003
  0
LWPOLYLINE
  5
211
100
AcDbEntity
  8
0
 62
   254
100
AcDbPolyline
 90
        2
 70
     0
 39
0.003
 10
1.013665
 20
-0.177815
 40
0.003
 41
0.003
 10
1.022189
 20
-0.16874
 40
0.003
 41
0.003
  0
LWPOLYLINE
  5
212
100
AcDbEntity
  8
0
 62
   254
100
AcDbPolyline
 90
        2
 70
     0
 39
0.003
 10
1.022189
 20
-0.16874
 40
0.003
 41
0.003
 10
0.275047
 20
-0.165961
 40
0.003
 41
0.003
  0
LWPOLYLINE
  5
213
100
AcDbEntity
  8
0
 62
   254
100
AcDbPolyline
 90
        2
 70
     0
 39
0.003
 10
0.275047
 20
-0.165961
 40
0.003
 41
0.003
 10
0.266524
 20
-0.175035
 40
0.003
 41
0.003
  0
LWPOLYLINE
  5
214
100
AcDbEntity
  8
0
 62
   254
100
AcDbPolyline
 90
        2
 70
     0
 39
0.003
 10
0.275047
 20
-0.165961
 40
0.003
 41
0.003
 10
1.022189
 20
-0.16874
 40
0.003
 41
0.003
  0
LWPOLYLINE
  5
215
100
AcDbEntity
  8
0
 62
   254
100
AcDbPolyline
 90
        2
 70
     0
 39
0.003
 10
1.022189
 20
-0.16874
 40
0.003
 41
0.003
 10
1.031311
 20
-0.159846
 40
0.003
 41
0.003
  0
LWPOLYLINE
  5
216
100
AcDbEntity
  8
0
 62
   254
100
AcDbPolyline
 90
        2
 70
     0
 39
0.003
 10
1.031311
 20
-0.159846
 40
0.003
 41
0.003
 10
0.284169
 20
-0.157067
 40
0.003
 41
0.003
  0
LWPOLYLINE
  5
217
100
AcDbEntity
  8
0
 62
   254
100
AcDbPolyline
 90
        2
 70
     0
 39
0.003
 10
0.284169
 20
-0.157067
 40
0.003
 41
0.003
 10
0.275047
 20
-0.165961
 40
0.003
 41
0.003
  0
LWPOLYLINE
  5
218
100
AcDbEntity
  8
0
 62
   254
100
AcDbPolyline
 90
        2
 70
     0
 39
0.003
 10
0.284169
 20
-0.157067
 40
0.003
 41
0.003
 10
1.031311
 20
-0.159846
 40
0.003
 41
0.003
  0
LWPOLYLINE
  5
219
100
AcDbEntity
  8
0
 62
   254
100
AcDbPolyline
 90
        2
 70
     0
 39
0.003
 10
1.031311
 20
-0.159846
 40
0.003
 41
0.003
 10
1.041047
 20
-0.15111
 40
0.003
 41
0.003
  0
LWPOLYLINE
  5
21A
100
AcDbEntity
  8
0
 62
   254
100
AcDbPolyline
 90
        2
 70
     0
 39
0.003
 10
1.041047
 20
-0.15111
 40
0.003
 41
0.003
 10
0.293906
 20
-0.148331
 40
0.003
 41
0.003
  0
LWPOLYLINE
  5
21B
100
AcDbEntity
  8
0
 62
   254
100
AcDbPolyline
 90
        2
 70
     0
 39
0.003
 10
0.293906
 20
-0.148331
 40
0.003
 41
0.003
 10
0.284169
 20
-0.157067
 40
0.003
 41
0.003
  0
LWPOLYLINE
  5
21C
100
AcDbEntity
  8
0
 62
   254
100
AcDbPolyline
 90
        2
 70
     0
 39
0.003
 10
0.293906
 20
-0.148331
 40
0.003
 41
0.003
 10
1.041047
 20
-0.15111
 40
0.003
 41
0.003
  0
LWPOLYLINE
  5
21D
100
AcDbEntity
  8
0
 62
   254
100
AcDbPolyline
 90
        2
 70
     0
 39
0.003
 10
1.041047
 20
-0.15111
 40
0.003
 41
0.003
 10
1.051421
 20
-0.142543
 40
0.003
 41
0.003
  0
LWPOLYLINE
  5
21E
100
AcDbEntity
  8
0
 62
   254
100
AcDbPolyline
 90
        2
 70
     0
 39
0.003
 10
1.051421
 20
-0.142543
 40
0.003
 41
0.003
 10
0.30428
 20
-0.139764
 40
0.003
 41
0.003
  0
LWPOLYLINE
  5
21F
100
AcDbEntity
  8
0
 62
   254
100
AcDbPolyline
 90
        2
 70
     0
 39
0.003
 10
0.30428
 20
-0.139764
 40
0.003
 41
0.003
 10
0.293906
 20
-0.148331
 40
0.003
 41
0.003
  0
LWPOLYLINE
  5
220
100
AcDbEntity
  8
0
 62
   254
100
AcDbPolyline
 90
        2
 70
     0
 39
0.003
 10
0.30428
 20
-0.139764
 40
0.003
 41
0.003
 10
1.051421
 20
-0.142543
 40
0.003
 41
0.003
  0
LWPOLYLINE
  5
221
100
AcDbEntity
  8
0
 62
   254
100
AcDbPolyline
 90
        2
 70
     0
 39
0.003
 10
1.051421
 20
-0.142543
 40
0.003
 41
0.003
 10
1.062457
 20
-0.13413
 40
0.003
 41
0.003
  0
LWPOLYLINE
  5
222
100
AcDbEntity
  8
0
 62
   254
100
AcDbPolyline
 90
        2
 70
     0
 39
0.003
 10
1.062457
 20
-0.13413
 40
0.003
 41
0.003
 10
0.315315
 20
-0.13135
 40
0.003
 41
0.003
  0
LWPOLYLINE
  5
223
100
AcDbEntity
  8
0
 62
   254
100
AcDbPolyline
 90
        2
 70
     0
 39
0.003
 10
0.315315
 20
-0.13135
 40
0.003
 41
0.003
 10
0.30428
 20
-0.139764
 40
0.003
 41
0.003
  0
LWPOLYLINE
  5
224
100
AcDbEntity
  8
0
 62
   254
100
AcDbPolyline
 90
        2
 70
     0
 39
0.003
 10
0.315315
 20
-0.13135
 40
0.003
 41
0.003
 10
1.062457
 20
-0.13413
 40
0.003
 41
0.003
  0
LWPOLYLINE
  5
225
100
AcDbEntity
  8
0
 62
   254
100
AcDbPolyline
 90
        2
 70
     0
 39
0.003
 10
1.062457
 20
-0.13413
 40
0.003
 41
0.003
 10
1.074177
 20
-0.12587
 40
0.003
 41
0.003
  0
LWPOLYLINE
  5
226
100
AcDbEntity
  8
0
 62
   254
100
AcDbPolyline
 90
        2
 70
     0
 39
0.003
 10
1.074177
 20
-0.12587
 40
0.003
 41
0.003
 10
0.327035
 20
-0.123091
 40
0.003
 41
0.003
  0
LWPOLYLINE
  5
227
100
AcDbEntity
  8
0
 62
   254
100
AcDbPolyline
 90
        2
 70
     0
 39
0.003
 10
0.327035
 20
-0.123091
 40
0.003
 41
0.003
 10
0.315315
 20
-0.13135
 40
0.003
 41
0.003
  0
LWPOLYLINE
  5
228
100
AcDbEntity
  8
0
 62
   254
100
AcDbPolyline
 90
        2
 70
     0
 39
0.003
 10
0.327035
 20
-0.123091
 40
0.003
 41
0.003
 10
1.074177
 20
-0.12587
 40
0.003
 41
0.003
  0
LWPOLYLINE
  5
229
100
AcDbEntity
  8
0
 62
   254
100
AcDbPolyline
 90
        2
 70
     0
 39
0.003
 10
1.074177
 20
-0.12587
 40
0.003
 41
0.003
 10
1.086594
 20
-0.11774
 40
0.003
 41
0.003
  0
LWPOLYLINE
  5
22A
100
AcDbEntity
  8
0
 62
   254
100
AcDbPolyline
 90
        2
 70
     0
 39
0.003
 10
1.086594
 20
-0.11774
 40
0.003
 41
0.003
 10
0.339453
 20
-0.114961
 40
0.003
 41
0.003
  0
LWPOLYLINE
  5
22B
100
AcDbEntity
  8
0
 62
   254
100
AcDbPolyline
 90
        2
 70
     0
 39
0.003
 10
0.339453
 20
-0.114961
 40
0.003
 41
0.003
 10
0.327035
 20
-0.123091
 40
0.003
 41
0.003
  0
LWPOLYLINE
  5
22C
100
AcDbEntity
  8
0
 62
   254
100
AcDbPolyline
 90
        2
 70
     0
 39
0.003
 10
0.339453
 20
-0.114961
 40
0.003
 41
0.003
 10
1.086594
 20
-0.11774
 40
0.003
 41
0.003
  0
LWPOLYLINE
  5
22D
100
AcDbEntity
  8
0
 62
   254
100
AcDbPolyline
 90
        2
 70
     0
 39
0.003
 10
1.086594
 20
-0.11774
 40
0.003
 41
0.003
 10
1.09974
 20
-0.109748
 40
0.003
 41
0.003
  0
LWPOLYLINE
  5
22E
100
AcDbEntity
  8
0
 62
   254
100
AcDbPolyline
 90
        2
 70
     0
 39
0.003
 10
1.09974
 20
-0.109748
 40
0.003
 41
0.003
 10
0.352598
 20
-0.106969
 40
0.003
 41
0.003
  0
LWPOLYLINE
  5
22F
100
AcDbEntity
  8
0
 62
   254
100
AcDbPolyline
 90
        2
 70
     0
 39
0.003
 10
0.352598
 20
-0.106969
 40
0.003
 41
0.003
 10
0.339453
 20
-0.114961
 40
0.003
 41
0.003
  0
LWPOLYLINE
  5
230
100
AcDbEntity
  8
0
 62
   254
100
AcDbPolyline
 90
        2
 70
     0
 39
0.003
 10
0.352598
 20
-0.106969
 40
0.003
 41
0.003
 10
1.09974
 20
-0.109748
 40
0.003
 41
0.003
  0
LWPOLYLINE
  5
231
100
AcDbEntity
  8
0
 62
   254
100
AcDbPolyline
 90
        2
 70
     0
 39
0.003
 10
1.09974
 20
-0.109748
 40
0.003
 41
0.003
 10
1.11363
 20
-0.101874
 40
0.003
 41
0.003
  0
LWPOLYLINE
  5
232
100
AcDbEntity
  8
0
 62
   254
100
AcDbPolyline
 90
        2
 70
     0
 39
0.003
 10
1.11363
 20
-0.101874
 40
0.003
 41
0.003
 10
0.366488
 20
-0.099094
 40
0.003
 41
0.003
  0
LWPOLYLINE
  5
233
100
AcDbEntity
  8
0
 62
   254
100
AcDbPolyline
 90
        2
 70
     0
 39
0.003
 10
0.366488
 20
-0.099094
 40
0.003
 41
0.003
 10
0.352598
 20
-0.106969
 40
0.003
 41
0.003
  0
LWPOLYLINE
  5
234
100
AcDbEntity
  8
0
 62
   254
100
AcDbPolyline
 90
        2
 70
     0
 39
0.003
 10
0.366488
 20
-0.099094
 40
0.003
 41
0.003
 10
1.11363
 20
-0.101874
 40
0.003
 41
0.003
  0
LWPOLYLINE
  5
235
100
AcDbEntity
  8
0
 62
   254
100
AcDbPolyline
 90
        2
 70
     0
 39
0.003
 10
1.11363
 20
-0.101874
 40
0.003
 41
0.003
 10
1.128291
 20
-0.094126
 40
0.003
 41
0.003
  0
LWPOLYLINE
  5
236
100
AcDbEntity
  8
0
 62
   254
100
AcDbPolyline
 90
        2
 70
     0
 39
0.003
 10
1.128291
 20
-0.094126
 40
0.003
 41
0.003
 10
0.38115
 20
-0.091346
 40
0.003
 41
0.003
  0
LWPOLYLINE
  5
237
100
AcDbEntity
  8
0
 62
   254
100
AcDbPolyline
 90
        2
 70
     0
 39
0.003
 10
0.38115
 20
-0.091346
 40
0.003
 41
0.003
 10
0.366488
 20
-0.099094
 40
0.003
 41
0.003
  0
LWPOLYLINE
  5
238
100
AcDbEntity
  8
0
 62
     0
100
AcDbPolyline
 90
        2
 70
     0
 39
0.003
 10
0.187146
 20
-0.434717
 40
0.003
 41
0.003
 10
0.934287
 20
-0.437496
 40
0.003
 41
0.003
  0
LWPOLYLINE
  5
239
100
AcDbEntity
  8
0
 62
     0
100
AcDbPolyline
 90
        2
 70
     0
 39
0.003
 10
0.934287
 20
-0.437496
 40
0.003
 41
0.003
 10
0.935031
 20
-0.422618
 40
0.003
 41
0.003
  0
LWPOLYLINE
  5
23A
100
AcDbEntity
  8
0
 62
     0
100
AcDbPolyline
 90
        2
 70
     0
 39
0.003
 10
0.935031
 20
-0.422618
 40
0.003
 41
0.003
 10
0.935913
 20
-0.408091
 40
0.003
 41
0.003
  0
LWPOLYLINE
  5
23B
100
AcDbEntity
  8
0
 62
     0
100
AcDbPolyline
 90
        2
 70
     0
 39
0.003
 10
0.935913
 20
-0.408091
 40
0.003
 41
0.003
 10
0.936949
 20
-0.393894
 40
0.003
 41
0.003
  0
LWPOLYLINE
  5
23C
100
AcDbEntity
  8
0
 62
     0
100
AcDbPolyline
 90
        2
 70
     0
 39
0.003
 10
0.936949
 20
-0.393894
 40
0.003
 41
0.003
 10
0.938157
 20
-0.380028
 40
0.003
 41
0.003
  0
LWPOLYLINE
  5
23D
100
AcDbEntity
  8
0
 62
     0
100
AcDbPolyline
 90
        2
 70
     0
 39
0.003
 10
0.938157
 20
-0.380028
 40
0.003
 41
0.003
 10
0.939555
 20
-0.366476
 40
0.003
 41
0.003
  0
LWPOLYLINE
  5
23E
100
AcDbEntity
  8
0
 62
     0
100
AcDbPolyline
 90
        2
 70
     0
 39
0.003
 10
0.939555
 20
-0.366476
 40
0.003
 41
0.003
 10
0.941173
 20
-0.353244
 40
0.003
 41
0.003
  0
LWPOLYLINE
  5
23F
100
AcDbEntity
  8
0
 62
     0
100
AcDbPolyline
 90
        2
 70
     0
 39
0.003
 10
0.941173
 20
-0.353244
 40
0.003
 41
0.003
 10
0.943028
 20
-0.340311
 40
0.003
 41
0.003
  0
LWPOLYLINE
  5
240
100
AcDbEntity
  8
0
 62
     0
100
AcDbPolyline
 90
        2
 70
     0
 39
0.003
 10
0.943028
 20
-0.340311
 40
0.003
 41
0.003
 10
0.945146
 20
-0.327685
 40
0.003
 41
0.003
  0
LWPOLYLINE
  5
241
100
AcDbEntity
  8
0
 62
     0
100
AcDbPolyline
 90
        2
 70
     0
 39
0.003
 10
0.945146
 20
-0.327685
 40
0.003
 41
0.003
 10
0.947531
 20
-0.315335
 40
0.003
 41
0.003
  0
LWPOLYLINE
  5
242
100
AcDbEntity
  8
0
 62
     0
100
AcDbPolyline
 90
        2
 70
     0
 39
0.003
 10
0.947531
 20
-0.315335
 40
0.003
 41
0.003
 10
0.950224
 20
-0.303276
 40
0.003
 41
0.003
  0
LWPOLYLINE
  5
243
100
AcDbEntity
  8
0
 62
     0
100
AcDbPolyline
 90
        2
 70
     0
 39
0.003
 10
0.950224
 20
-0.303276
 40
0.003
 41
0.003
 10
0.953232
 20
-0.291488
 40
0.003
 41
0.003
  0
LWPOLYLINE
  5
244
100
AcDbEntity
  8
0
 62
     0
100
AcDbPolyline
 90
        2
 70
     0
 39
0.003
 10
0.953232
 20
-0.291488
 40
0.003
 41
0.003
 10
0.956594
 20
-0.279972
 40
0.003
 41
0.003
  0
LWPOLYLINE
  5
245
100
AcDbEntity
  8
0
 62
     0
100
AcDbPolyline
 90
        2
 70
     0
 39
0.003
 10
0.956594
 20
-0.279972
 40
0.003
 41
0.003
 10
0.960311
 20
-0.268705
 40
0.003
 41
0.003
  0
LWPOLYLINE
  5
246
100
AcDbEntity
  8
0
 62
     0
100
AcDbPolyline
 90
        2
 70
     0
 39
0.003
 10
0.960311
 20
-0.268705
 40
0.003
 41
0.003
 10
0.964417
 20
-0.257701
 40
0.003
 41
0.003
  0
LWPOLYLINE
  5
247
100
AcDbEntity
  8
0
 62
     0
100
AcDbPolyline
 90
        2
 70
     0
 39
0.003
 10
0.964417
 20
-0.257701
 40
0.003
 41
0.003
 10
0.968933
 20
-0.246937
 40
0.003
 41
0.003
  0
LWPOLYLINE
  5
248
100
AcDbEntity
  8
0
 62
     0
100
AcDbPolyline
 90
        2
 70
     0
 39
0.003
 10
0.968933
 20
-0.246937
 40
0.003
 41
0.003
 10
0.973874
 20
-0.236417
 40
0.003
 41
0.003
  0
LWPOLYLINE
  5
249
100
AcDbEntity
  8
0
 62
     0
100
AcDbPolyline
 90
        2
 70
     0
 39
0.003
 10
0.973874
 20
-0.236417
 40
0.003
 41
0.003
 10
0.979252
 20
-0.226118
 40
0.003
 41
0.003
  0
LWPOLYLINE
  5
24A
100
AcDbEntity
  8
0
 62
     0
100
AcDbPolyline
 90
        2
 70
     0
 39
0.003
 10
0.979252
 20
-0.226118
 40
0.003
 41
0.003
 10
0.985114
 20
-0.216043
 40
0.003
 41
0.003
  0
LWPOLYLINE
  5
24B
100
AcDbEntity
  8
0
 62
     0
100
AcDbPolyline
 90
        2
 70
     0
 39
0.003
 10
0.985114
 20
-0.216043
 40
0.003
 41
0.003
 10
0.991461
 20
-0.206181
 40
0.003
 41
0.003
  0
LWPOLYLINE
  5
24C
100
AcDbEntity
  8
0
 62
     0
100
AcDbPolyline
 90
        2
 70
     0
 39
0.003
 10
0.991461
 20
-0.206181
 40
0.003
 41
0.003
 10
0.998323
 20
-0.196531
 40
0.003
 41
0.003
  0
LWPOLYLINE
  5
24D
100
AcDbEntity
  8
0
 62
     0
100
AcDbPolyline
 90
        2
 70
     0
 39
0.003
 10
0.998323
 20
-0.196531
 40
0.003
 41
0.003
 10
1.005713
 20
-0.187075
 40
0.003
 41
0.003
  0
LWPOLYLINE
  5
24E
100
AcDbEntity
  8
0
 62
     0
100
AcDbPolyline
 90
        2
 70
     0
 39
0.003
 10
1.005713
 20
-0.187075
 40
0.003
 41
0.003
 10
1.013665
 20
-0.177815
 40
0.003
 41
0.003
  0
LWPOLYLINE
  5
24F
100
AcDbEntity
  8
0
 62
     0
100
AcDbPolyline
 90
        2
 70
     0
 39
0.003
 10
1.013665
 20
-0.177815
 40
0.003
 41
0.003
 10
1.022189
 20
-0.16874
 40
0.003
 41
0.003
  0
LWPOLYLINE
  5
250
100
AcDbEntity
  8
0
 62
     0
100
AcDbPolyline
 90
        2
 70
     0
 39
0.003
 10
1.022189
 20
-0.16874
 40
0.003
 41
0.003
 10
1.031311
 20
-0.159846
 40
0.003
 41
0.003
  0
LWPOLYLINE
  5
251
100
AcDbEntity
  8
0
 62
     0
100
AcDbPolyline
 90
        2
 70
     0
 39
0.003
 10
1.031311
 20
-0.159846
 40
0.003
 41
0.003
 10
1.041047
 20
-0.15111
 40
0.003
 41
0.003
  0
LWPOLYLINE
  5
252
100
AcDbEntity
  8
0
 62
     0
100
AcDbPolyline
 90
        2
 70
     0
 39
0.003
 10
1.041047
 20
-0.15111
 40
0.003
 41
0.003
 10
1.051421
 20
-0.142543
 40
0.003
 41
0.003
  0
LWPOLYLINE
  5
253
100
AcDbEntity
  8
0
 62
     0
100
AcDbPolyline
 90
        2
 70
     0
 39
0.003
 10
1.051421
 20
-0.142543
 40
0.003
 41
0.003
 10
1.062457
 20
-0.13413
 40
0.003
 41
0.003
  0
LWPOLYLINE
  5
254
100
AcDbEntity
  8
0
 62
     0
100
AcDbPolyline
 90
        2
 70
     0
 39
0.003
 10
1.062457
 20
-0.13413
 40
0.003
 41
0.003
 10
1.074177
 20
-0.12587
 40
0.003
 41
0.003
  0
LWPOLYLINE
  5
255
100
AcDbEntity
  8
0
 62
     0
100
AcDbPolyline
 90
        2
 70
     0
 39
0.003
 10
1.074177
 20
-0.12587
 40
0.003
 41
0.003
 10
1.086594
 20
-0.11774
 40
0.003
 41
0.003
  0
LWPOLYLINE
  5
256
100
AcDbEntity
  8
0
 62
     0
100
AcDbPolyline
 90
        2
 70
     0
 39
0.003
 10
1.086594
 20
-0.11774
 40
0.003
 41
0.003
 10
1.09974
 20
-0.109748
 40
0.003
 41
0.003
  0
LWPOLYLINE
  5
257
100
AcDbEntity
  8
0
 62
     0
100
AcDbPolyline
 90
        2
 70
     0
 39
0.003
 10
1.09974
 20
-0.109748
 40
0.003
 41
0.003
 10
1.11363
 20
-0.101874
 40
0.003
 41
0.003
  0
LWPOLYLINE
  5
258
100
AcDbEntity
  8
0
 62
     0
100
AcDbPolyline
 90
        2
 70
     0
 39
0.003
 10
1.11363
 20
-0.101874
 40
0.003
 41
0.003
 10
1.128291
 20
-0.094126
 40
0.003
 41
0.003
  0
LWPOLYLINE
  5
259
100
AcDbEntity
  8
0
 62
     0
100
AcDbPolyline
 90
        2
 70
     0
 39
0.003
 10
1.128291
 20
-0.094126
 40
0.003
 41
0.003
 10
0.38115
 20
-0.091346
 40
0.003
 41
0.003
  0
LWPOLYLINE
  5
25A
100
AcDbEntity
  8
0
 62
     0
100
AcDbPolyline
 90
        2
 70
     0
 39
0.003
 10
0.38115
 20
-0.091346
 40
0.003
 41
0.003
 10
0.366488
 20
-0.099094
 40
0.003
 41
0.003
  0
LWPOLYLINE
  5
25B
100
AcDbEntity
  8
0
 62
     0
100
AcDbPolyline
 90
        2
 70
     0
 39
0.003
 10
0.366488
 20
-0.099094
 40
0.003
 41
0.003
 10
0.352598
 20
-0.106969
 40
0.003
 41
0.003
  0
LWPOLYLINE
  5
25C
100
AcDbEntity
  8
0
 62
     0
100
AcDbPolyline
 90
        2
 70
     0
 39
0.003
 10
0.352598
 20
-0.106969
 40
0.003
 41
0.003
 10
0.339453
 20
-0.114961
 40
0.003
 41
0.003
  0
LWPOLYLINE
  5
25D
100
AcDbEntity
  8
0
 62
     0
100
AcDbPolyline
 90
        2
 70
     0
 39
0.003
 10
0.339453
 20
-0.114961
 40
0.003
 41
0.003
 10
0.327035
 20
-0.123091
 40
0.003
 41
0.003
  0
LWPOLYLINE
  5
25E
100
AcDbEntity
  8
0
 62
     0
100
AcDbPolyline
 90
        2
 70
     0
 39
0.003
 10
0.327035
 20
-0.123091
 40
0.003
 41
0.003
 10
0.315315
 20
-0.13135
 40
0.003
 41
0.003
  0
LWPOLYLINE
  5
25F
100
AcDbEntity
  8
0
 62
     0
100
AcDbPolyline
 90
        2
 70
     0
 39
0.003
 10
0.315315
 20
-0.13135
 40
0.003
 41
0.003
 10
0.30428
 20
-0.139764
 40
0.003
 41
0.003
  0
LWPOLYLINE
  5
260
100
AcDbEntity
  8
0
 62
     0
100
AcDbPolyline
 90
        2
 70
     0
 39
0.003
 10
0.30428
 20
-0.139764
 40
0.003
 41
0.003
 10
0.293906
 20
-0.148331
 40
0.003
 41
0.003
  0
LWPOLYLINE
  5
261
100
AcDbEntity
  8
0
 62
     0
100
AcDbPolyline
 90
        2
 70
     0
 39
0.003
 10
0.293906
 20
-0.148331
 40
0.003
 41
0.003
 10
0.284169
 20
-0.157067
 40
0.003
 41
0.003
  0
LWPOLYLINE
  5
262
100
AcDbEntity
  8
0
 62
     0
100
AcDbPolyline
 90
        2
 70
     0
 39
0.003
 10
0.284169
 20
-0.157067
 40
0.003
 41
0.003
 10
0.275047
 20
-0.165961
 40
0.003
 41
0.003
  0
LWPOLYLINE
  5
263
100
AcDbEntity
  8
0
 62
     0
100
AcDbPolyline
 90
        2
 70
     0
 39
0.003
 10
0.275047
 20
-0.165961
 40
0.003
 41
0.003
 10
0.266524
 20
-0.175035
 40
0.003
 41
0.003
  0
LWPOLYLINE
  5
264
100
AcDbEntity
  8
0
 62
     0
100
AcDbPolyline
 90
        2
 70
     0
 39
0.003
 10
0.266524
 20
-0.175035
 40
0.003
 41
0.003
 10
0.258571
 20
-0.184295
 40
0.003
 41
0.003
  0
LWPOLYLINE
  5
265
100
AcDbEntity
  8
0
 62
     0
100
AcDbPolyline
 90
        2
 70
     0
 39
0.003
 10
0.258571
 20
-0.184295
 40
0.003
 41
0.003
 10
0.251181
 20
-0.193752
 40
0.003
 41
0.003
  0
LWPOLYLINE
  5
266
100
AcDbEntity
  8
0
 62
     0
100
AcDbPolyline
 90
        2
 70
     0
 39
0.003
 10
0.251181
 20
-0.193752
 40
0.003
 41
0.003
 10
0.244319
 20
-0.203402
 40
0.003
 41
0.003
  0
LWPOLYLINE
  5
267
100
AcDbEntity
  8
0
 62
     0
100
AcDbPolyline
 90
        2
 70
     0
 39
0.003
 10
0.244319
 20
-0.203402
 40
0.003
 41
0.003
 10
0.237972
 20
-0.213264
 40
0.003
 41
0.003
  0
LWPOLYLINE
  5
268
100
AcDbEntity
  8
0
 62
     0
100
AcDbPolyline
 90
        2
 70
     0
 39
0.003
 10
0.237972
 20
-0.213264
 40
0.003
 41
0.003
 10
0.23211
 20
-0.223339
 40
0.003
 41
0.003
  0
LWPOLYLINE
  5
269
100
AcDbEntity
  8
0
 62
     0
100
AcDbPolyline
 90
        2
 70
     0
 39
0.003
 10
0.23211
 20
-0.223339
 40
0.003
 41
0.003
 10
0.226732
 20
-0.233638
 40
0.003
 41
0.003
  0
LWPOLYLINE
  5
26A
100
AcDbEntity
  8
0
 62
     0
100
AcDbPolyline
 90
        2
 70
     0
 39
0.003
 10
0.226732
 20
-0.233638
 40
0.003
 41
0.003
 10
0.221791
 20
-0.244157
 40
0.003
 41
0.003
  0
LWPOLYLINE
  5
26B
100
AcDbEntity
  8
0
 62
     0
100
AcDbPolyline
 90
        2
 70
     0
 39
0.003
 10
0.221791
 20
-0.244157
 40
0.003
 41
0.003
 10
0.217276
 20
-0.254921
 40
0.003
 41
0.003
  0
LWPOLYLINE
  5
26C
100
AcDbEntity
  8
0
 62
     0
100
AcDbPolyline
 90
        2
 70
     0
 39
0.003
 10
0.217276
 20
-0.254921
 40
0.003
 41
0.003
 10
0.213169
 20
-0.265925
 40
0.003
 41
0.003
  0
LWPOLYLINE
  5
26D
100
AcDbEntity
  8
0
 62
     0
100
AcDbPolyline
 90
        2
 70
     0
 39
0.003
 10
0.213169
 20
-0.265925
 40
0.003
 41
0.003
 10
0.209453
 20
-0.277193
 40
0.003
 41
0.003
  0
LWPOLYLINE
  5
26E
100
AcDbEntity
  8
0
 62
     0
100
AcDbPolyline
 90
        2
 70
     0
 39
0.003
 10
0.209453
 20
-0.277193
 40
0.003
 41
0.003
 10
0.206091
 20
-0.288709
 40
0.003
 41
0.003
  0
LWPOLYLINE
  5
26F
100
AcDbEntity
  8
0
 62
     0
100
AcDbPolyline
 90
        2
 70
     0
 39
0.003
 10
0.206091
 20
-0.288709
 40
0.003
 41
0.003
 10
0.203083
 20
-0.300496
 40
0.003
 41
0.003
  0
LWPOLYLINE
  5
270
100
AcDbEntity
  8
0
 62
     0
100
AcDbPolyline
 90
        2
 70
     0
 39
0.003
 10
0.203083
 20
-0.300496
 40
0.003
 41
0.003
 10
0.20039
 20
-0.312555
 40
0.003
 41
0.003
  0
LWPOLYLINE
  5
271
100
AcDbEntity
  8
0
 62
     0
100
AcDbPolyline
 90
        2
 70
     0
 39
0.003
 10
0.20039
 20
-0.312555
 40
0.003
 41
0.003
 10
0.198004
 20
-0.324906
 40
0.003
 41
0.003
  0
LWPOLYLINE
  5
272
100
AcDbEntity
  8
0
 62
     0
100
AcDbPolyline
 90
        2
 70
     0
 39
0.003
 10
0.198004
 20
-0.324906
 40
0.003
 41
0.003
 10
0.195886
 20
-0.337531
 40
0.003
 41
0.003
  0
LWPOLYLINE
  5
273
100
AcDbEntity
  8
0
 62
     0
100
AcDbPolyline
 90
        2
 70
     0
 39
0.003
 10
0.195886
 20
-0.337531
 40
0.003
 41
0.003
 10
0.194031
 20
-0.350465
 40
0.003
 41
0.003
  0
LWPOLYLINE
  5
274
100
AcDbEntity
  8
0
 62
     0
100
AcDbPolyline
 90
        2
 70
     0
 39
0.003
 10
0.194031
 20
-0.350465
 40
0.003
 41
0.003
 10
0.192413
 20
-0.363697
 40
0.003
 41
0.003
  0
LWPOLYLINE
  5
275
100
AcDbEntity
  8
0
 62
     0
100
AcDbPolyline
 90
        2
 70
     0
 39
0.003
 10
0.192413
 20
-0.363697
 40
0.003
 41
0.003
 10
0.191016
 20
-0.377248
 40
0.003
 41
0.003
  0
LWPOLYLINE
  5
276
100
AcDbEntity
  8
0
 62
     0
100
AcDbPolyline
 90
        2
 70
     0
 39
0.003
 10
0.191016
 20
-0.377248
 40
0.003
 41
0.003
 10
0.189807
 20
-0.391114
 40
0.003
 41
0.003
  0
LWPOLYLINE
  5
277
100
AcDbEntity
  8
0
 62
     0
100
AcDbPolyline
 90
        2
 70
     0
 39
0.003
 10
0.189807
 20
-0.391114
 40
0.003
 41
0.003
 10
0.188772
 20
-0.405311
 40
0.003
 41
0.003
  0
LWPOLYLINE
  5
278
100
AcDbEntity
  8
0
 62
     0
100
AcDbPolyline
 90
        2
 70
     0
 39
0.003
 10
0.188772
 20
-0.405311
 40
0.003
 41
0.003
 10
0.18789
 20
-0.419839
 40
0.003
 41
0.003
  0
LWPOLYLINE
  5
279
100
AcDbEntity
  8
0
 62
     0
100
AcDbPolyline
 90
        2
 70
     0
 39
0.003
 10
0.18789
 20
-0.419839
 40
0.003
 41
0.003
 10
0.187146
 20
-0.434717
 40
0.003
 41
0.003
  0
LWPOLYLINE
  5
27A
100
AcDbEntity
  8
0
 62
   254
100
AcDbPolyline
 90
        2
 70
     0
 39
0.003
 10
0.38115
 20
-0.091346
 40
0.003
 41
0.003
 10
1.128291
 20
-0.094126
 40
0.003
 41
0.003
  0
LWPOLYLINE
  5
27B
100
AcDbEntity
  8
0
 62
   254
100
AcDbPolyline
 90
        2
 70
     0
 39
0.003
 10
1.128291
 20
-0.094126
 40
0.003
 41
0.003
 10
1.128291
 20
-0.000744
 40
0.003
 41
0.003
  0
LWPOLYLINE
  5
27C
100
AcDbEntity
  8
0
 62
   254
100
AcDbPolyline
 90
        2
 70
     0
 39
0.003
 10
1.128291
 20
-0.000744
 40
0.003
 41
0.003
 10
0.38115
 20
0.002035
 40
0.003
 41
0.003
  0
LWPOLYLINE
  5
27D
100
AcDbEntity
  8
0
 62
   254
100
AcDbPolyline
 90
        2
 70
     0
 39
0.003
 10
0.38115
 20
0.002035
 40
0.003
 41
0.003
 10
0.38115
 20
-0.091346
 40
0.003
 41
0.003
  0
LWPOLYLINE
  5
27E
100
AcDbEntity
  8
0
 62
     0
100
AcDbPolyline
 90
        2
 70
     0
 39
0.003
 10
0.38115
 20
-0.091346
 40
0.003
 41
0.003
 10
1.128291
 20
-0.094126
 40
0.003
 41
0.003
  0
LWPOLYLINE
  5
27F
100
AcDbEntity
  8
0
 62
     0
100
AcDbPolyline
 90
        2
 70
     0
 39
0.003
 10
1.128291
 20
-0.094126
 40
0.003
 41
0.003
 10
1.128291
 20
-0.000744
 40
0.003
 41
0.003
  0
LWPOLYLINE
  5
280
100
AcDbEntity
  8
0
 62
     0
100
AcDbPolyline
 90
        2
 70
     0
 39
0.003
 10
1.128291
 20
-0.000744
 40
0.003
 41
0.003
 10
0.38115
 20
0.002035
 40
0.003
 41
0.003
  0
LWPOLYLINE
  5
281
100
AcDbEntity
  8
0
 62
     0
100
AcDbPolyline
 90
        2
 70
     0
 39
0.003
 10
0.38115
 20
0.002035
 40
0.003
 41
0.003
 10
0.38115
 20
-0.091346
 40
0.003
 41
0.003
  0
LWPOLYLINE
  5
282
100
AcDbEntity
  8
0
 62
     9
100
AcDbPolyline
 90
        2
 70
     0
 39
0.003
 10
0.38115
 20
0.002035
 40
0.003
 41
0.003
 10
1.128291
 20
-0.000744
 40
0.003
 41
0.003
  0
LWPOLYLINE
  5
283
100
AcDbEntity
  8
0
 62
     9
100
AcDbPolyline
 90
        2
 70
     0
 39
0.003
 10
1.128291
 20
-0.000744
 40
0.003
 41
0.003
 10
1.165339
 20
0.002217
 40
0.003
 41
0.003
  0
LWPOLYLINE
  5
284
100
AcDbEntity
  8
0
 62
     9
100
AcDbPolyline
 90
        2
 70
     0
 39
0.003
 10
1.165339
 20
0.002217
 40
0.003
 41
0.003
 10
0.418197
 20
0.004996
 40
0.003
 41
0.003
  0
LWPOLYLINE
  5
285
100
AcDbEntity
  8
0
 62
     9
100
AcDbPolyline
 90
        2
 70
     0
 39
0.003
 10
0.418197
 20
0.004996
 40
0.003
 41
0.003
 10
0.38115
 20
0.002035
 40
0.003
 41
0.003
  0
LWPOLYLINE
  5
286
100
AcDbEntity
  8
0
 62
     9
100
AcDbPolyline
 90
        2
 70
     0
 39
0.003
 10
0.418197
 20
0.004996
 40
0.003
 41
0.003
 10
1.165339
 20
0.002217
 40
0.003
 41
0.003
  0
LWPOLYLINE
  5
287
100
AcDbEntity
  8
0
 62
     9
100
AcDbPolyline
 90
        2
 70
     0
 39
0.003
 10
1.165339
 20
0.002217
 40
0.003
 41
0.003
 10
1.200319
 20
0.00839
 40
0.003
 41
0.003
  0
LWPOLYLINE
  5
288
100
AcDbEntity
  8
0
 62
     9
100
AcDbPolyline
 90
        2
 70
     0
 39
0.003
 10
1.200319
 20
0.00839
 40
0.003
 41
0.003
 10
0.453177
 20
0.011169
 40
0.003
 41
0.003
  0
LWPOLYLINE
  5
289
100
AcDbEntity
  8
0
 62
     9
100
AcDbPolyline
 90
        2
 70
     0
 39
0.003
 10
0.453177
 20
0.011169
 40
0.003
 41
0.003
 10
0.418197
 20
0.004996
 40
0.003
 41
0.003
  0
LWPOLYLINE
  5
28A
100
AcDbEntity
  8
0
 62
   254
100
AcDbPolyline
 90
        2
 70
     0
 39
0.003
 10
0.453177
 20
0.011169
 40
0.003
 41
0.003
 10
1.200319
 20
0.00839
 40
0.003
 41
0.003
  0
LWPOLYLINE
  5
28B
100
AcDbEntity
  8
0
 62
   254
100
AcDbPolyline
 90
        2
 70
     0
 39
0.003
 10
1.200319
 20
0.00839
 40
0.003
 41
0.003
 10
1.233189
 20
0.017559
 40
0.003
 41
0.003
  0
LWPOLYLINE
  5
28C
100
AcDbEntity
  8
0
 62
   254
100
AcDbPolyline
 90
        2
 70
     0
 39
0.003
 10
1.233189
 20
0.017559
 40
0.003
 41
0.003
 10
0.486047
 20
0.020339
 40
0.003
 41
0.003
  0
LWPOLYLINE
  5
28D
100
AcDbEntity
  8
0
 62
   254
100
AcDbPolyline
 90
        2
 70
     0
 39
0.003
 10
0.486047
 20
0.020339
 40
0.003
 41
0.003
 10
0.453177
 20
0.011169
 40
0.003
 41
0.003
  0
LWPOLYLINE
  5
28E
100
AcDbEntity
  8
0
 62
   254
100
AcDbPolyline
 90
        2
 70
     0
 39
0.003
 10
0.486047
 20
0.020339
 40
0.003
 41
0.003
 10
1.233189
 20
0.017559
 40
0.003
 41
0.003
  0
LWPOLYLINE
  5
28F
100
AcDbEntity
  8
0
 62
   254
100
AcDbPolyline
 90
        2
 70
     0
 39
0.003
 10
1.233189
 20
0.017559
 40
0.003
 41
0.003
 10
1.263929
 20
0.029528
 40
0.003
 41
0.003
  0
LWPOLYLINE
  5
290
100
AcDbEntity
  8
0
 62
   254
100
AcDbPolyline
 90
        2
 70
     0
 39
0.003
 10
1.263929
 20
0.029528
 40
0.003
 41
0.003
 10
0.516787
 20
0.032307
 40
0.003
 41
0.003
  0
LWPOLYLINE
  5
291
100
AcDbEntity
  8
0
 62
   254
100
AcDbPolyline
 90
        2
 70
     0
 39
0.003
 10
0.516787
 20
0.032307
 40
0.003
 41
0.003
 10
0.486047
 20
0.020339
 40
0.003
 41
0.003
  0
LWPOLYLINE
  5
292
100
AcDbEntity
  8
0
 62
   254
100
AcDbPolyline
 90
        2
 70
     0
 39
0.003
 10
0.516787
 20
0.032307
 40
0.003
 41
0.003
 10
1.263929
 20
0.029528
 40
0.003
 41
0.003
  0
LWPOLYLINE
  5
293
100
AcDbEntity
  8
0
 62
   254
100
AcDbPolyline
 90
        2
 70
     0
 39
0.003
 10
1.263929
 20
0.029528
 40
0.003
 41
0.003
 10
1.292496
 20
0.044075
 40
0.003
 41
0.003
  0
LWPOLYLINE
  5
294
100
AcDbEntity
  8
0
 62
   254
100
AcDbPolyline
 90
        2
 70
     0
 39
0.003
 10
1.292496
 20
0.044075
 40
0.003
 41
0.003
 10
0.545354
 20
0.046854
 40
0.003
 41
0.003
  0
LWPOLYLINE
  5
295
100
AcDbEntity
  8
0
 62
   254
100
AcDbPolyline
 90
        2
 70
     0
 39
0.003
 10
0.545354
 20
0.046854
 40
0.003
 41
0.003
 10
0.516787
 20
0.032307
 40
0.003
 41
0.003
  0
LWPOLYLINE
  5
296
100
AcDbEntity
  8
0
 62
   254
100
AcDbPolyline
 90
        2
 70
     0
 39
0.003
 10
0.545354
 20
0.046854
 40
0.003
 41
0.003
 10
1.292496
 20
0.044075
 40
0.003
 41
0.003
  0
LWPOLYLINE
  5
297
100
AcDbEntity
  8
0
 62
   254
100
AcDbPolyline
 90
        2
 70
     0
 39
0.003
 10
1.292496
 20
0.044075
 40
0.003
 41
0.003
 10
1.31887
 20
0.061012
 40
0.003
 41
0.003
  0
LWPOLYLINE
  5
298
100
AcDbEntity
  8
0
 62
   254
100
AcDbPolyline
 90
        2
 70
     0
 39
0.003
 10
1.31887
 20
0.061012
 40
0.003
 41
0.003
 10
0.571728
 20
0.063791
 40
0.003
 41
0.003
  0
LWPOLYLINE
  5
299
100
AcDbEntity
  8
0
 62
   254
100
AcDbPolyline
 90
        2
 70
     0
 39
0.003
 10
0.571728
 20
0.063791
 40
0.003
 41
0.003
 10
0.545354
 20
0.046854
 40
0.003
 41
0.003
  0
LWPOLYLINE
  5
29A
100
AcDbEntity
  8
0
 62
   254
100
AcDbPolyline
 90
        2
 70
     0
 39
0.003
 10
0.571728
 20
0.063791
 40
0.003
 41
0.003
 10
1.31887
 20
0.061012
 40
0.003
 41
0.003
  0
LWPOLYLINE
  5
29B
100
AcDbEntity
  8
0
 62
   254
100
AcDbPolyline
 90
        2
 70
     0
 39
0.003
 10
1.31887
 20
0.061012
 40
0.003
 41
0.003
 10
1.343016
 20
0.080114
 40
0.003
 41
0.003
  0
LWPOLYLINE
  5
29C
100
AcDbEntity
  8
0
 62
   254
100
AcDbPolyline
 90
        2
 70
     0
 39
0.003
 10
1.343016
 20
0.080114
 40
0.003
 41
0.003
 10
0.595874
 20
0.082894
 40
0.003
 41
0.003
  0
LWPOLYLINE
  5
29D
100
AcDbEntity
  8
0
 62
   254
100
AcDbPolyline
 90
        2
 70
     0
 39
0.003
 10
0.595874
 20
0.082894
 40
0.003
 41
0.003
 10
0.571728
 20
0.063791
 40
0.003
 41
0.003
  0
LWPOLYLINE
  5
29E
100
AcDbEntity
  8
0
 62
   254
100
AcDbPolyline
 90
        2
 70
     0
 39
0.003
 10
0.595874
 20
0.082894
 40
0.003
 41
0.003
 10
1.343016
 20
0.080114
 40
0.003
 41
0.003
  0
LWPOLYLINE
  5
29F
100
AcDbEntity
  8
0
 62
   254
100
AcDbPolyline
 90
        2
 70
     0
 39
0.003
 10
1.343016
 20
0.080114
 40
0.003
 41
0.003
 10
1.364913
 20
0.101189
 40
0.003
 41
0.003
  0
LWPOLYLINE
  5
2A0
100
AcDbEntity
  8
0
 62
   254
100
AcDbPolyline
 90
        2
 70
     0
 39
0.003
 10
1.364913
 20
0.101189
 40
0.003
 41
0.003
 10
0.617772
 20
0.103969
 40
0.003
 41
0.003
  0
LWPOLYLINE
  5
2A1
100
AcDbEntity
  8
0
 62
   254
100
AcDbPolyline
 90
        2
 70
     0
 39
0.003
 10
0.617772
 20
0.103969
 40
0.003
 41
0.003
 10
0.595874
 20
0.082894
 40
0.003
 41
0.003
  0
LWPOLYLINE
  5
2A2
100
AcDbEntity
  8
0
 62
   254
100
AcDbPolyline
 90
        2
 70
     0
 39
0.003
 10
0.617772
 20
0.103969
 40
0.003
 41
0.003
 10
1.364913
 20
0.101189
 40
0.003
 41
0.003
  0
LWPOLYLINE
  5
2A3
100
AcDbEntity
  8
0
 62
   254
100
AcDbPolyline
 90
        2
 70
     0
 39
0.003
 10
1.364913
 20
0.101189
 40
0.003
 41
0.003
 10
1.384516
 20
0.124016
 40
0.003
 41
0.003
  0
LWPOLYLINE
  5
2A4
100
AcDbEntity
  8
0
 62
   254
100
AcDbPolyline
 90
        2
 70
     0
 39
0.003
 10
1.384516
 20
0.124016
 40
0.003
 41
0.003
 10
0.637374
 20
0.126795
 40
0.003
 41
0.003
  0
LWPOLYLINE
  5
2A5
100
AcDbEntity
  8
0
 62
   254
100
AcDbPolyline
 90
        2
 70
     0
 39
0.003
 10
0.637374
 20
0.126795
 40
0.003
 41
0.003
 10
0.617772
 20
0.103969
 40
0.003
 41
0.003
  0
LWPOLYLINE
  5
2A6
100
AcDbEntity
  8
0
 62
   254
100
AcDbPolyline
 90
        2
 70
     0
 39
0.003
 10
0.637374
 20
0.126795
 40
0.003
 41
0.003
 10
1.384516
 20
0.124016
 40
0.003
 41
0.003
  0
LWPOLYLINE
  5
2A7
100
AcDbEntity
  8
0
 62
   254
100
AcDbPolyline
 90
        2
 70
     0
 39
0.003
 10
1.384516
 20
0.124016
 40
0.003
 41
0.003
 10
1.401807
 20
0.148406
 40
0.003
 41
0.003
  0
LWPOLYLINE
  5
2A8
100
AcDbEntity
  8
0
 62
   254
100
AcDbPolyline
 90
        2
 70
     0
 39
0.003
 10
1.401807
 20
0.148406
 40
0.003
 41
0.003
 10
0.654665
 20
0.151185
 40
0.003
 41
0.003
  0
LWPOLYLINE
  5
2A9
100
AcDbEntity
  8
0
 62
   254
100
AcDbPolyline
 90
        2
 70
     0
 39
0.003
 10
0.654665
 20
0.151185
 40
0.003
 41
0.003
 10
0.637374
 20
0.126795
 40
0.003
 41
0.003
  0
LWPOLYLINE
  5
2AA
100
AcDbEntity
  8
0
 62
   254
100
AcDbPolyline
 90
        2
 70
     0
 39
0.003
 10
0.654665
 20
0.151185
 40
0.003
 41
0.003
 10
1.401807
 20
0.148406
 40
0.003
 41
0.003
  0
LWPOLYLINE
  5
2AB
100
AcDbEntity
  8
0
 62
   254
100
AcDbPolyline
 90
        2
 70
     0
 39
0.003
 10
1.401807
 20
0.148406
 40
0.003
 41
0.003
 10
1.416748
 20
0.174134
 40
0.003
 41
0.003
  0
LWPOLYLINE
  5
2AC
100
AcDbEntity
  8
0
 62
   254
100
AcDbPolyline
 90
        2
 70
     0
 39
0.003
 10
1.416748
 20
0.174134
 40
0.003
 41
0.003
 10
0.669606
 20
0.176913
 40
0.003
 41
0.003
  0
LWPOLYLINE
  5
2AD
100
AcDbEntity
  8
0
 62
   254
100
AcDbPolyline
 90
        2
 70
     0
 39
0.003
 10
0.669606
 20
0.176913
 40
0.003
 41
0.003
 10
0.654665
 20
0.151185
 40
0.003
 41
0.003
  0
LWPOLYLINE
  5
2AE
100
AcDbEntity
  8
0
 62
   254
100
AcDbPolyline
 90
        2
 70
     0
 39
0.003
 10
0.669606
 20
0.176913
 40
0.003
 41
0.003
 10
1.416748
 20
0.174134
 40
0.003
 41
0.003
  0
LWPOLYLINE
  5
2AF
100
AcDbEntity
  8
0
 62
   254
100
AcDbPolyline
 90
        2
 70
     0
 39
0.003
 10
1.416748
 20
0.174134
 40
0.003
 41
0.003
 10
1.429323
 20
0.201012
 40
0.003
 41
0.003
  0
LWPOLYLINE
  5
2B0
100
AcDbEntity
  8
0
 62
   254
100
AcDbPolyline
 90
        2
 70
     0
 39
0.003
 10
1.429323
 20
0.201012
 40
0.003
 41
0.003
 10
0.682181
 20
0.203791
 40
0.003
 41
0.003
  0
LWPOLYLINE
  5
2B1
100
AcDbEntity
  8
0
 62
   254
100
AcDbPolyline
 90
        2
 70
     0
 39
0.003
 10
0.682181
 20
0.203791
 40
0.003
 41
0.003
 10
0.669606
 20
0.176913
 40
0.003
 41
0.003
  0
LWPOLYLINE
  5
2B2
100
AcDbEntity
  8
0
 62
   254
100
AcDbPolyline
 90
        2
 70
     0
 39
0.003
 10
0.682181
 20
0.203791
 40
0.003
 41
0.003
 10
1.429323
 20
0.201012
 40
0.003
 41
0.003
  0
LWPOLYLINE
  5
2B3
100
AcDbEntity
  8
0
 62
   254
100
AcDbPolyline
 90
        2
 70
     0
 39
0.003
 10
1.429323
 20
0.201012
 40
0.003
 41
0.003
 10
1.43948
 20
0.228815
 40
0.003
 41
0.003
  0
LWPOLYLINE
  5
2B4
100
AcDbEntity
  8
0
 62
   254
100
AcDbPolyline
 90
        2
 70
     0
 39
0.003
 10
1.43948
 20
0.228815
 40
0.003
 41
0.003
 10
0.692339
 20
0.231594
 40
0.003
 41
0.003
  0
LWPOLYLINE
  5
2B5
100
AcDbEntity
  8
0
 62
   254
100
AcDbPolyline
 90
        2
 70
     0
 39
0.003
 10
0.692339
 20
0.231594
 40
0.003
 41
0.003
 10
0.682181
 20
0.203791
 40
0.003
 41
0.003
  0
LWPOLYLINE
  5
2B6
100
AcDbEntity
  8
0
 62
   254
100
AcDbPolyline
 90
        2
 70
     0
 39
0.003
 10
0.692339
 20
0.231594
 40
0.003
 41
0.003
 10
1.43948
 20
0.228815
 40
0.003
 41
0.003
  0
LWPOLYLINE
  5
2B7
100
AcDbEntity
  8
0
 62
   254
100
AcDbPolyline
 90
        2
 70
     0
 39
0.003
 10
1.43948
 20
0.228815
 40
0.003
 41
0.003
 10
1.447213
 20
0.257354
 40
0.003
 41
0.003
  0
LWPOLYLINE
  5
2B8
100
AcDbEntity
  8
0
 62
   254
100
AcDbPolyline
 90
        2
 70
     0
 39
0.003
 10
1.447213
 20
0.257354
 40
0.003
 41
0.003
 10
0.700071
 20
0.260134
 40
0.003
 41
0.003
  0
LWPOLYLINE
  5
2B9
100
AcDbEntity
  8
0
 62
   254
100
AcDbPolyline
 90
        2
 70
     0
 39
0.003
 10
0.700071
 20
0.260134
 40
0.003
 41
0.003
 10
0.692339
 20
0.231594
 40
0.003
 41
0.003
  0
LWPOLYLINE
  5
2BA
100
AcDbEntity
  8
0
 62
   254
100
AcDbPolyline
 90
        2
 70
     0
 39
0.003
 10
0.700071
 20
0.260134
 40
0.003
 41
0.003
 10
1.447213
 20
0.257354
 40
0.003
 41
0.003
  0
LWPOLYLINE
  5
2BB
100
AcDbEntity
  8
0
 62
   254
100
AcDbPolyline
 90
        2
 70
     0
 39
0.003
 10
1.447213
 20
0.257354
 40
0.003
 41
0.003
 10
1.452476
 20
0.286409
 40
0.003
 41
0.003
  0
LWPOLYLINE
  5
2BC
100
AcDbEntity
  8
0
 62
   254
100
AcDbPolyline
 90
        2
 70
     0
 39
0.003
 10
1.452476
 20
0.286409
 40
0.003
 41
0.003
 10
0.705335
 20
0.289189
 40
0.003
 41
0.003
  0
LWPOLYLINE
  5
2BD
100
AcDbEntity
  8
0
 62
   254
100
AcDbPolyline
 90
        2
 70
     0
 39
0.003
 10
0.705335
 20
0.289189
 40
0.003
 41
0.003
 10
0.700071
 20
0.260134
 40
0.003
 41
0.003
  0
LWPOLYLINE
  5
2BE
100
AcDbEntity
  8
0
 62
   254
100
AcDbPolyline
 90
        2
 70
     0
 39
0.003
 10
0.705335
 20
0.289189
 40
0.003
 41
0.003
 10
1.452476
 20
0.286409
 40
0.003
 41
0.003
  0
LWPOLYLINE
  5
2BF
100
AcDbEntity
  8
0
 62
   254
100
AcDbPolyline
 90
        2
 70
     0
 39
0.003
 10
1.452476
 20
0.286409
 40
0.003
 41
0.003
 10
1.455248
 20
0.31578
 40
0.003
 41
0.003
  0
LWPOLYLINE
  5
2C0
100
AcDbEntity
  8
0
 62
   254
100
AcDbPolyline
 90
        2
 70
     0
 39
0.003
 10
1.455248
 20
0.31578
 40
0.003
 41
0.003
 10
0.708106
 20
0.318559
 40
0.003
 41
0.003
  0
LWPOLYLINE
  5
2C1
100
AcDbEntity
  8
0
 62
   254
100
AcDbPolyline
 90
        2
 70
     0
 39
0.003
 10
0.708106
 20
0.318559
 40
0.003
 41
0.003
 10
0.705335
 20
0.289189
 40
0.003
 41
0.003
  0
LWPOLYLINE
  5
2C2
100
AcDbEntity
  8
0
 62
   254
100
AcDbPolyline
 90
        2
 70
     0
 39
0.003
 10
0.708106
 20
0.318559
 40
0.003
 41
0.003
 10
1.455248
 20
0.31578
 40
0.003
 41
0.003
  0
LWPOLYLINE
  5
2C3
100
AcDbEntity
  8
0
 62
   254
100
AcDbPolyline
 90
        2
 70
     0
 39
0.003
 10
1.455248
 20
0.31578
 40
0.003
 41
0.003
 10
1.455484
 20
0.345252
 40
0.003
 41
0.003
  0
LWPOLYLINE
  5
2C4
100
AcDbEntity
  8
0
 62
   254
100
AcDbPolyline
 90
        2
 70
     0
 39
0.003
 10
1.455484
 20
0.345252
 40
0.003
 41
0.003
 10
0.708343
 20
0.348031
 40
0.003
 41
0.003
  0
LWPOLYLINE
  5
2C5
100
AcDbEntity
  8
0
 62
   254
100
AcDbPolyline
 90
        2
 70
     0
 39
0.003
 10
0.708343
 20
0.348031
 40
0.003
 41
0.003
 10
0.708106
 20
0.318559
 40
0.003
 41
0.003
  0
LWPOLYLINE
  5
2C6
100
AcDbEntity
  8
0
 62
   254
100
AcDbPolyline
 90
        2
 70
     0
 39
0.003
 10
0.708343
 20
0.348031
 40
0.003
 41
0.003
 10
1.455484
 20
0.345252
 40
0.003
 41
0.003
  0
LWPOLYLINE
  5
2C7
100
AcDbEntity
  8
0
 62
   254
100
AcDbPolyline
 90
        2
 70
     0
 39
0.003
 10
1.455484
 20
0.345252
 40
0.003
 41
0.003
 10
1.453173
 20
0.37463
 40
0.003
 41
0.003
  0
LWPOLYLINE
  5
2C8
100
AcDbEntity
  8
0
 62
   254
100
AcDbPolyline
 90
        2
 70
     0
 39
0.003
 10
1.453173
 20
0.37463
 40
0.003
 41
0.003
 10
0.706031
 20
0.377409
 40
0.003
 41
0.003
  0
LWPOLYLINE
  5
2C9
100
AcDbEntity
  8
0
 62
   254
100
AcDbPolyline
 90
        2
 70
     0
 39
0.003
 10
0.706031
 20
0.377409
 40
0.003
 41
0.003
 10
0.708343
 20
0.348031
 40
0.003
 41
0.003
  0
LWPOLYLINE
  5
2CA
100
AcDbEntity
  8
0
 62
   254
100
AcDbPolyline
 90
        2
 70
     0
 39
0.003
 10
0.706031
 20
0.377409
 40
0.003
 41
0.003
 10
1.453173
 20
0.37463
 40
0.003
 41
0.003
  0
LWPOLYLINE
  5
2CB
100
AcDbEntity
  8
0
 62
   254
100
AcDbPolyline
 90
        2
 70
     0
 39
0.003
 10
1.453173
 20
0.37463
 40
0.003
 41
0.003
 10
1.448272
 20
0.403697
 40
0.003
 41
0.003
  0
LWPOLYLINE
  5
2CC
100
AcDbEntity
  8
0
 62
   254
100
AcDbPolyline
 90
        2
 70
     0
 39
0.003
 10
1.448272
 20
0.403697
 40
0.003
 41
0.003
 10
0.70113
 20
0.406476
 40
0.003
 41
0.003
  0
LWPOLYLINE
  5
2CD
100
AcDbEntity
  8
0
 62
   254
100
AcDbPolyline
 90
        2
 70
     0
 39
0.003
 10
0.70113
 20
0.406476
 40
0.003
 41
0.003
 10
0.706031
 20
0.377409
 40
0.003
 41
0.003
  0
LWPOLYLINE
  5
2CE
100
AcDbEntity
  8
0
 62
   254
100
AcDbPolyline
 90
        2
 70
     0
 39
0.003
 10
0.70113
 20
0.406476
 40
0.003
 41
0.003
 10
1.448272
 20
0.403697
 40
0.003
 41
0.003
  0
LWPOLYLINE
  5
2CF
100
AcDbEntity
  8
0
 62
   254
100
AcDbPolyline
 90
        2
 70
     0
 39
0.003
 10
1.448272
 20
0.403697
 40
0.003
 41
0.003
 10
1.440764
 20
0.43226
 40
0.003
 41
0.003
  0
LWPOLYLINE
  5
2D0
100
AcDbEntity
  8
0
 62
   254
100
AcDbPolyline
 90
        2
 70
     0
 39
0.003
 10
1.440764
 20
0.43226
 40
0.003
 41
0.003
 10
0.693622
 20
0.435039
 40
0.003
 41
0.003
  0
LWPOLYLINE
  5
2D1
100
AcDbEntity
  8
0
 62
   254
100
AcDbPolyline
 90
        2
 70
     0
 39
0.003
 10
0.693622
 20
0.435039
 40
0.003
 41
0.003
 10
0.70113
 20
0.406476
 40
0.003
 41
0.003
  0
LWPOLYLINE
  5
2D2
100
AcDbEntity
  8
0
 62
   254
100
AcDbPolyline
 90
        2
 70
     0
 39
0.003
 10
0.693622
 20
0.435039
 40
0.003
 41
0.003
 10
1.440764
 20
0.43226
 40
0.003
 41
0.003
  0
LWPOLYLINE
  5
2D3
100
AcDbEntity
  8
0
 62
   254
100
AcDbPolyline
 90
        2
 70
     0
 39
0.003
 10
1.440764
 20
0.43226
 40
0.003
 41
0.003
 10
1.430602
 20
0.460094
 40
0.003
 41
0.003
  0
LWPOLYLINE
  5
2D4
100
AcDbEntity
  8
0
 62
   254
100
AcDbPolyline
 90
        2
 70
     0
 39
0.003
 10
1.430602
 20
0.460094
 40
0.003
 41
0.003
 10
0.683461
 20
0.462874
 40
0.003
 41
0.003
  0
LWPOLYLINE
  5
2D5
100
AcDbEntity
  8
0
 62
   254
100
AcDbPolyline
 90
        2
 70
     0
 39
0.003
 10
0.683461
 20
0.462874
 40
0.003
 41
0.003
 10
0.693622
 20
0.435039
 40
0.003
 41
0.003
  0
LWPOLYLINE
  5
2D6
100
AcDbEntity
  8
0
 62
   254
100
AcDbPolyline
 90
        2
 70
     0
 39
0.003
 10
0.683461
 20
0.462874
 40
0.003
 41
0.003
 10
1.430602
 20
0.460094
 40
0.003
 41
0.003
  0
LWPOLYLINE
  5
2D7
100
AcDbEntity
  8
0
 62
   254
100
AcDbPolyline
 90
        2
 70
     0
 39
0.003
 10
1.430602
 20
0.460094
 40
0.003
 41
0.003
 10
1.417776
 20
0.487012
 40
0.003
 41
0.003
  0
LWPOLYLINE
  5
2D8
100
AcDbEntity
  8
0
 62
   254
100
AcDbPolyline
 90
        2
 70
     0
 39
0.003
 10
1.417776
 20
0.487012
 40
0.003
 41
0.003
 10
0.670634
 20
0.489791
 40
0.003
 41
0.003
  0
LWPOLYLINE
  5
2D9
100
AcDbEntity
  8
0
 62
   254
100
AcDbPolyline
 90
        2
 70
     0
 39
0.003
 10
0.670634
 20
0.489791
 40
0.003
 41
0.003
 10
0.683461
 20
0.462874
 40
0.003
 41
0.003
  0
LWPOLYLINE
  5
2DA
100
AcDbEntity
  8
0
 62
   254
100
AcDbPolyline
 90
        2
 70
     0
 39
0.003
 10
0.670634
 20
0.489791
 40
0.003
 41
0.003
 10
1.417776
 20
0.487012
 40
0.003
 41
0.003
  0
LWPOLYLINE
  5
2DB
100
AcDbEntity
  8
0
 62
   254
100
AcDbPolyline
 90
        2
 70
     0
 39
0.003
 10
1.417776
 20
0.487012
 40
0.003
 41
0.003
 10
1.402236
 20
0.512795
 40
0.003
 41
0.003
  0
LWPOLYLINE
  5
2DC
100
AcDbEntity
  8
0
 62
   254
100
AcDbPolyline
 90
        2
 70
     0
 39
0.003
 10
1.402236
 20
0.512795
 40
0.003
 41
0.003
 10
0.655094
 20
0.515575
 40
0.003
 41
0.003
  0
LWPOLYLINE
  5
2DD
100
AcDbEntity
  8
0
 62
   254
100
AcDbPolyline
 90
        2
 70
     0
 39
0.003
 10
0.655094
 20
0.515575
 40
0.003
 41
0.003
 10
0.670634
 20
0.489791
 40
0.003
 41
0.003
  0
LWPOLYLINE
  5
2DE
100
AcDbEntity
  8
0
 62
   254
100
AcDbPolyline
 90
        2
 70
     0
 39
0.003
 10
0.655094
 20
0.515575
 40
0.003
 41
0.003
 10
1.402236
 20
0.512795
 40
0.003
 41
0.003
  0
LWPOLYLINE
  5
2DF
100
AcDbEntity
  8
0
 62
   254
100
AcDbPolyline
 90
        2
 70
     0
 39
0.003
 10
1.402236
 20
0.512795
 40
0.003
 41
0.003
 10
1.383969
 20
0.53724
 40
0.003
 41
0.003
  0
LWPOLYLINE
  5
2E0
100
AcDbEntity
  8
0
 62
   254
100
AcDbPolyline
 90
        2
 70
     0
 39
0.003
 10
1.383969
 20
0.53724
 40
0.003
 41
0.003
 10
0.636827
 20
0.54002
 40
0.003
 41
0.003
  0
LWPOLYLINE
  5
2E1
100
AcDbEntity
  8
0
 62
   254
100
AcDbPolyline
 90
        2
 70
     0
 39
0.003
 10
0.636827
 20
0.54002
 40
0.003
 41
0.003
 10
0.655094
 20
0.515575
 40
0.003
 41
0.003
  0
LWPOLYLINE
  5
2E2
100
AcDbEntity
  8
0
 62
   254
100
AcDbPolyline
 90
        2
 70
     0
 39
0.003
 10
0.636827
 20
0.54002
 40
0.003
 41
0.003
 10
1.383969
 20
0.53724
 40
0.003
 41
0.003
  0
LWPOLYLINE
  5
2E3
100
AcDbEntity
  8
0
 62
   254
100
AcDbPolyline
 90
        2
 70
     0
 39
0.003
 10
1.383969
 20
0.53724
 40
0.003
 41
0.003
 10
1.362925
 20
0.560134
 40
0.003
 41
0.003
  0
LWPOLYLINE
  5
2E4
100
AcDbEntity
  8
0
 62
   254
100
AcDbPolyline
 90
        2
 70
     0
 39
0.003
 10
1.362925
 20
0.560134
 40
0.003
 41
0.003
 10
0.615783
 20
0.562913
 40
0.003
 41
0.003
  0
LWPOLYLINE
  5
2E5
100
AcDbEntity
  8
0
 62
   254
100
AcDbPolyline
 90
        2
 70
     0
 39
0.003
 10
0.615783
 20
0.562913
 40
0.003
 41
0.003
 10
0.636827
 20
0.54002
 40
0.003
 41
0.003
  0
LWPOLYLINE
  5
2E6
100
AcDbEntity
  8
0
 62
     9
100
AcDbPolyline
 90
        2
 70
     0
 39
0.003
 10
0.615783
 20
0.562913
 40
0.003
 41
0.003
 10
1.362925
 20
0.560134
 40
0.003
 41
0.003
  0
LWPOLYLINE
  5
2E7
100
AcDbEntity
  8
0
 62
     9
100
AcDbPolyline
 90
        2
 70
     0
 39
0.003
 10
1.362925
 20
0.560134
 40
0.003
 41
0.003
 10
1.339094
 20
0.58128
 40
0.003
 41
0.003
  0
LWPOLYLINE
  5
2E8
100
AcDbEntity
  8
0
 62
     9
100
AcDbPolyline
 90
        2
 70
     0
 39
0.003
 10
1.339094
 20
0.58128
 40
0.003
 41
0.003
 10
0.591953
 20
0.584059
 40
0.003
 41
0.003
  0
LWPOLYLINE
  5
2E9
100
AcDbEntity
  8
0
 62
     9
100
AcDbPolyline
 90
        2
 70
     0
 39
0.003
 10
0.591953
 20
0.584059
 40
0.003
 41
0.003
 10
0.615783
 20
0.562913
 40
0.003
 41
0.003
  0
LWPOLYLINE
  5
2EA
100
AcDbEntity
  8
0
 62
     9
100
AcDbPolyline
 90
        2
 70
     0
 39
0.003
 10
0.591953
 20
0.584059
 40
0.003
 41
0.003
 10
1.339094
 20
0.58128
 40
0.003
 41
0.003
  0
LWPOLYLINE
  5
2EB
100
AcDbEntity
  8
0
 62
     9
100
AcDbPolyline
 90
        2
 70
     0
 39
0.003
 10
1.339094
 20
0.58128
 40
0.003
 41
0.003
 10
1.312441
 20
0.600465
 40
0.003
 41
0.003
  0
LWPOLYLINE
  5
2EC
100
AcDbEntity
  8
0
 62
     9
100
AcDbPolyline
 90
        2
 70
     0
 39
0.003
 10
1.312441
 20
0.600465
 40
0.003
 41
0.003
 10
0.565299
 20
0.603244
 40
0.003
 41
0.003
  0
LWPOLYLINE
  5
2ED
100
AcDbEntity
  8
0
 62
     9
100
AcDbPolyline
 90
        2
 70
     0
 39
0.003
 10
0.565299
 20
0.603244
 40
0.003
 41
0.003
 10
0.591953
 20
0.584059
 40
0.003
 41
0.003
  0
LWPOLYLINE
  5
2EE
100
AcDbEntity
  8
0
 62
     9
100
AcDbPolyline
 90
        2
 70
     0
 39
0.003
 10
0.565299
 20
0.603244
 40
0.003
 41
0.003
 10
1.312441
 20
0.600465
 40
0.003
 41
0.003
  0
LWPOLYLINE
  5
2EF
100
AcDbEntity
  8
0
 62
     9
100
AcDbPolyline
 90
        2
 70
     0
 39
0.003
 10
1.312441
 20
0.600465
 40
0.003
 41
0.003
 10
1.282933
 20
0.617488
 40
0.003
 41
0.003
  0
LWPOLYLINE
  5
2F0
100
AcDbEntity
  8
0
 62
     9
100
AcDbPolyline
 90
        2
 70
     0
 39
0.003
 10
1.282933
 20
0.617488
 40
0.003
 41
0.003
 10
0.535791
 20
0.620268
 40
0.003
 41
0.003
  0
LWPOLYLINE
  5
2F1
100
AcDbEntity
  8
0
 62
     9
100
AcDbPolyline
 90
        2
 70
     0
 39
0.003
 10
0.535791
 20
0.620268
 40
0.003
 41
0.003
 10
0.565299
 20
0.603244
 40
0.003
 41
0.003
  0
LWPOLYLINE
  5
2F2
100
AcDbEntity
  8
0
 62
     9
100
AcDbPolyline
 90
        2
 70
     0
 39
0.003
 10
0.535791
 20
0.620268
 40
0.003
 41
0.003
 10
1.282933
 20
0.617488
 40
0.003
 41
0.003
  0
LWPOLYLINE
  5
2F3
100
AcDbEntity
  8
0
 62
     9
100
AcDbPolyline
 90
        2
 70
     0
 39
0.003
 10
1.282933
 20
0.617488
 40
0.003
 41
0.003
 10
1.250535
 20
0.632134
 40
0.003
 41
0.003
  0
LWPOLYLINE
  5
2F4
100
AcDbEntity
  8
0
 62
     9
100
AcDbPolyline
 90
        2
 70
     0
 39
0.003
 10
1.250535
 20
0.632134
 40
0.003
 41
0.003
 10
0.503394
 20
0.634913
 40
0.003
 41
0.003
  0
LWPOLYLINE
  5
2F5
100
AcDbEntity
  8
0
 62
     9
100
AcDbPolyline
 90
        2
 70
     0
 39
0.003
 10
0.503394
 20
0.634913
 40
0.003
 41
0.003
 10
0.535791
 20
0.620268
 40
0.003
 41
0.003
  0
LWPOLYLINE
  5
2F6
100
AcDbEntity
  8
0
 62
     9
100
AcDbPolyline
 90
        2
 70
     0
 39
0.003
 10
0.503394
 20
0.634913
 40
0.003
 41
0.003
 10
1.250535
 20
0.632134
 40
0.003
 41
0.003
  0
LWPOLYLINE
  5
2F7
100
AcDbEntity
  8
0
 62
     9
100
AcDbPolyline
 90
        2
 70
     0
 39
0.003
 10
1.250535
 20
0.632134
 40
0.003
 41
0.003
 10
1.215232
 20
0.644209
 40
0.003
 41
0.003
  0
LWPOLYLINE
  5
2F8
100
AcDbEntity
  8
0
 62
     9
100
AcDbPolyline
 90
        2
 70
     0
 39
0.003
 10
1.215232
 20
0.644209
 40
0.003
 41
0.003
 10
0.468091
 20
0.646988
 40
0.003
 41
0.003
  0
LWPOLYLINE
  5
2F9
100
AcDbEntity
  8
0
 62
     9
100
AcDbPolyline
 90
        2
 70
     0
 39
0.003
 10
0.468091
 20
0.646988
 40
0.003
 41
0.003
 10
0.503394
 20
0.634913
 40
0.003
 41
0.003
  0
LWPOLYLINE
  5
2FA
100
AcDbEntity
  8
0
 62
   253
100
AcDbPolyline
 90
        2
 70
     0
 39
0.003
 10
0.468091
 20
0.646988
 40
0.003
 41
0.003
 10
1.215232
 20
0.644209
 40
0.003
 41
0.003
  0
LWPOLYLINE
  5
2FB
100
AcDbEntity
  8
0
 62
   253
100
AcDbPolyline
 90
        2
 70
     0
 39
0.003
 10
1.215232
 20
0.644209
 40
0.003
 41
0.003
 10
1.17698
 20
0.653496
 40
0.003
 41
0.003
  0
LWPOLYLINE
  5
2FC
100
AcDbEntity
  8
0
 62
   253
100
AcDbPolyline
 90
        2
 70
     0
 39
0.003
 10
1.17698
 20
0.653496
 40
0.003
 41
0.003
 10
0.429839
 20
0.656276
 40
0.003
 41
0.003
  0
LWPOLYLINE
  5
2FD
100
AcDbEntity
  8
0
 62
   253
100
AcDbPolyline
 90
        2
 70
     0
 39
0.003
 10
0.429839
 20
0.656276
 40
0.003
 41
0.003
 10
0.468091
 20
0.646988
 40
0.003
 41
0.003
  0
LWPOLYLINE
  5
2FE
100
AcDbEntity
  8
0
 62
   252
100
AcDbPolyline
 90
        2
 70
     0
 39
0.003
 10
0.429839
 20
0.656276
 40
0.003
 41
0.003
 10
1.17698
 20
0.653496
 40
0.003
 41
0.003
  0
LWPOLYLINE
  5
2FF
100
AcDbEntity
  8
0
 62
   252
100
AcDbPolyline
 90
        2
 70
     0
 39
0.003
 10
1.17698
 20
0.653496
 40
0.003
 41
0.003
 10
1.135756
 20
0.659795
 40
0.003
 41
0.003
  0
LWPOLYLINE
  5
300
100
AcDbEntity
  8
0
 62
   252
100
AcDbPolyline
 90
        2
 70
     0
 39
0.003
 10
1.135756
 20
0.659795
 40
0.003
 41
0.003
 10
0.388614
 20
0.662575
 40
0.003
 41
0.003
  0
LWPOLYLINE
  5
301
100
AcDbEntity
  8
0
 62
   252
100
AcDbPolyline
 90
        2
 70
     0
 39
0.003
 10
0.388614
 20
0.662575
 40
0.003
 41
0.003
 10
0.429839
 20
0.656276
 40
0.003
 41
0.003
  0
LWPOLYLINE
  5
302
100
AcDbEntity
  8
0
 62
     0
100
AcDbPolyline
 90
        2
 70
     0
 39
0.003
 10
0.38115
 20
0.002035
 40
0.003
 41
0.003
 10
1.128291
 20
-0.000744
 40
0.003
 41
0.003
  0
LWPOLYLINE
  5
303
100
AcDbEntity
  8
0
 62
     0
100
AcDbPolyline
 90
        2
 70
     0
 39
0.003
 10
1.128291
 20
-0.000744
 40
0.003
 41
0.003
 10
1.165339
 20
0.002217
 40
0.003
 41
0.003
  0
LWPOLYLINE
  5
304
100
AcDbEntity
  8
0
 62
     0
100
AcDbPolyline
 90
        2
 70
     0
 39
0.003
 10
1.165339
 20
0.002217
 40
0.003
 41
0.003
 10
1.200319
 20
0.00839
 40
0.003
 41
0.003
  0
LWPOLYLINE
  5
305
100
AcDbEntity
  8
0
 62
     0
100
AcDbPolyline
 90
        2
 70
     0
 39
0.003
 10
1.200319
 20
0.00839
 40
0.003
 41
0.003
 10
1.233189
 20
0.017559
 40
0.003
 41
0.003
  0
LWPOLYLINE
  5
306
100
AcDbEntity
  8
0
 62
     0
100
AcDbPolyline
 90
        2
 70
     0
 39
0.003
 10
1.233189
 20
0.017559
 40
0.003
 41
0.003
 10
1.263929
 20
0.029528
 40
0.003
 41
0.003
  0
LWPOLYLINE
  5
307
100
AcDbEntity
  8
0
 62
     0
100
AcDbPolyline
 90
        2
 70
     0
 39
0.003
 10
1.263929
 20
0.029528
 40
0.003
 41
0.003
 10
1.292496
 20
0.044075
 40
0.003
 41
0.003
  0
LWPOLYLINE
  5
308
100
AcDbEntity
  8
0
 62
     0
100
AcDbPolyline
 90
        2
 70
     0
 39
0.003
 10
1.292496
 20
0.044075
 40
0.003
 41
0.003
 10
1.31887
 20
0.061012
 40
0.003
 41
0.003
  0
LWPOLYLINE
  5
309
100
AcDbEntity
  8
0
 62
     0
100
AcDbPolyline
 90
        2
 70
     0
 39
0.003
 10
1.31887
 20
0.061012
 40
0.003
 41
0.003
 10
1.343016
 20
0.080114
 40
0.003
 41
0.003
  0
LWPOLYLINE
  5
30A
100
AcDbEntity
  8
0
 62
     0
100
AcDbPolyline
 90
        2
 70
     0
 39
0.003
 10
1.343016
 20
0.080114
 40
0.003
 41
0.003
 10
1.364913
 20
0.101189
 40
0.003
 41
0.003
  0
LWPOLYLINE
  5
30B
100
AcDbEntity
  8
0
 62
     0
100
AcDbPolyline
 90
        2
 70
     0
 39
0.003
 10
1.364913
 20
0.101189
 40
0.003
 41
0.003
 10
1.384516
 20
0.124016
 40
0.003
 41
0.003
  0
LWPOLYLINE
  5
30C
100
AcDbEntity
  8
0
 62
     0
100
AcDbPolyline
 90
        2
 70
     0
 39
0.003
 10
1.384516
 20
0.124016
 40
0.003
 41
0.003
 10
1.401807
 20
0.148406
 40
0.003
 41
0.003
  0
LWPOLYLINE
  5
30D
100
AcDbEntity
  8
0
 62
     0
100
AcDbPolyline
 90
        2
 70
     0
 39
0.003
 10
1.401807
 20
0.148406
 40
0.003
 41
0.003
 10
1.416748
 20
0.174134
 40
0.003
 41
0.003
  0
LWPOLYLINE
  5
30E
100
AcDbEntity
  8
0
 62
     0
100
AcDbPolyline
 90
        2
 70
     0
 39
0.003
 10
1.416748
 20
0.174134
 40
0.003
 41
0.003
 10
1.429323
 20
0.201012
 40
0.003
 41
0.003
  0
LWPOLYLINE
  5
30F
100
AcDbEntity
  8
0
 62
     0
100
AcDbPolyline
 90
        2
 70
     0
 39
0.003
 10
1.429323
 20
0.201012
 40
0.003
 41
0.003
 10
1.43948
 20
0.228815
 40
0.003
 41
0.003
  0
LWPOLYLINE
  5
310
100
AcDbEntity
  8
0
 62
     0
100
AcDbPolyline
 90
        2
 70
     0
 39
0.003
 10
1.43948
 20
0.228815
 40
0.003
 41
0.003
 10
1.447213
 20
0.257354
 40
0.003
 41
0.003
  0
LWPOLYLINE
  5
311
100
AcDbEntity
  8
0
 62
     0
100
AcDbPolyline
 90
        2
 70
     0
 39
0.003
 10
1.447213
 20
0.257354
 40
0.003
 41
0.003
 10
1.452476
 20
0.286409
 40
0.003
 41
0.003
  0
LWPOLYLINE
  5
312
100
AcDbEntity
  8
0
 62
     0
100
AcDbPolyline
 90
        2
 70
     0
 39
0.003
 10
1.452476
 20
0.286409
 40
0.003
 41
0.003
 10
1.455248
 20
0.31578
 40
0.003
 41
0.003
  0
LWPOLYLINE
  5
313
100
AcDbEntity
  8
0
 62
     0
100
AcDbPolyline
 90
        2
 70
     0
 39
0.003
 10
1.455248
 20
0.31578
 40
0.003
 41
0.003
 10
1.455484
 20
0.345252
 40
0.003
 41
0.003
  0
LWPOLYLINE
  5
314
100
AcDbEntity
  8
0
 62
     0
100
AcDbPolyline
 90
        2
 70
     0
 39
0.003
 10
1.455484
 20
0.345252
 40
0.003
 41
0.003
 10
1.453173
 20
0.37463
 40
0.003
 41
0.003
  0
LWPOLYLINE
  5
315
100
AcDbEntity
  8
0
 62
     0
100
AcDbPolyline
 90
        2
 70
     0
 39
0.003
 10
1.453173
 20
0.37463
 40
0.003
 41
0.003
 10
1.448272
 20
0.403697
 40
0.003
 41
0.003
  0
LWPOLYLINE
  5
316
100
AcDbEntity
  8
0
 62
     0
100
AcDbPolyline
 90
        2
 70
     0
 39
0.003
 10
1.448272
 20
0.403697
 40
0.003
 41
0.003
 10
1.440764
 20
0.43226
 40
0.003
 41
0.003
  0
LWPOLYLINE
  5
317
100
AcDbEntity
  8
0
 62
     0
100
AcDbPolyline
 90
        2
 70
     0
 39
0.003
 10
1.440764
 20
0.43226
 40
0.003
 41
0.003
 10
1.430602
 20
0.460094
 40
0.003
 41
0.003
  0
LWPOLYLINE
  5
318
100
AcDbEntity
  8
0
 62
     0
100
AcDbPolyline
 90
        2
 70
     0
 39
0.003
 10
1.430602
 20
0.460094
 40
0.003
 41
0.003
 10
1.417776
 20
0.487012
 40
0.003
 41
0.003
  0
LWPOLYLINE
  5
319
100
AcDbEntity
  8
0
 62
     0
100
AcDbPolyline
 90
        2
 70
     0
 39
0.003
 10
1.417776
 20
0.487012
 40
0.003
 41
0.003
 10
1.402236
 20
0.512795
 40
0.003
 41
0.003
  0
LWPOLYLINE
  5
31A
100
AcDbEntity
  8
0
 62
     0
100
AcDbPolyline
 90
        2
 70
     0
 39
0.003
 10
1.402236
 20
0.512795
 40
0.003
 41
0.003
 10
1.383969
 20
0.53724
 40
0.003
 41
0.003
  0
LWPOLYLINE
  5
31B
100
AcDbEntity
  8
0
 62
     0
100
AcDbPolyline
 90
        2
 70
     0
 39
0.003
 10
1.383969
 20
0.53724
 40
0.003
 41
0.003
 10
1.362925
 20
0.560134
 40
0.003
 41
0.003
  0
LWPOLYLINE
  5
31C
100
AcDbEntity
  8
0
 62
     0
100
AcDbPolyline
 90
        2
 70
     0
 39
0.003
 10
1.362925
 20
0.560134
 40
0.003
 41
0.003
 10
1.339094
 20
0.58128
 40
0.003
 41
0.003
  0
LWPOLYLINE
  5
31D
100
AcDbEntity
  8
0
 62
     0
100
AcDbPolyline
 90
        2
 70
     0
 39
0.003
 10
1.339094
 20
0.58128
 40
0.003
 41
0.003
 10
1.312441
 20
0.600465
 40
0.003
 41
0.003
  0
LWPOLYLINE
  5
31E
100
AcDbEntity
  8
0
 62
     0
100
AcDbPolyline
 90
        2
 70
     0
 39
0.003
 10
1.312441
 20
0.600465
 40
0.003
 41
0.003
 10
1.282933
 20
0.617488
 40
0.003
 41
0.003
  0
LWPOLYLINE
  5
31F
100
AcDbEntity
  8
0
 62
     0
100
AcDbPolyline
 90
        2
 70
     0
 39
0.003
 10
1.282933
 20
0.617488
 40
0.003
 41
0.003
 10
1.250535
 20
0.632134
 40
0.003
 41
0.003
  0
LWPOLYLINE
  5
320
100
AcDbEntity
  8
0
 62
     0
100
AcDbPolyline
 90
        2
 70
     0
 39
0.003
 10
1.250535
 20
0.632134
 40
0.003
 41
0.003
 10
1.215232
 20
0.644209
 40
0.003
 41
0.003
  0
LWPOLYLINE
  5
321
100
AcDbEntity
  8
0
 62
     0
100
AcDbPolyline
 90
        2
 70
     0
 39
0.003
 10
1.215232
 20
0.644209
 40
0.003
 41
0.003
 10
1.17698
 20
0.653496
 40
0.003
 41
0.003
  0
LWPOLYLINE
  5
322
100
AcDbEntity
  8
0
 62
     0
100
AcDbPolyline
 90
        2
 70
     0
 39
0.003
 10
1.17698
 20
0.653496
 40
0.003
 41
0.003
 10
1.135756
 20
0.659795
 40
0.003
 41
0.003
  0
LWPOLYLINE
  5
323
100
AcDbEntity
  8
0
 62
     0
100
AcDbPolyline
 90
        2
 70
     0
 39
0.003
 10
1.135756
 20
0.659795
 40
0.003
 41
0.003
 10
0.388614
 20
0.662575
 40
0.003
 41
0.003
  0
LWPOLYLINE
  5
324
100
AcDbEntity
  8
0
 62
     0
100
AcDbPolyline
 90
        2
 70
     0
 39
0.003
 10
0.388614
 20
0.662575
 40
0.003
 41
0.003
 10
0.429839
 20
0.656276
 40
0.003
 41
0.003
  0
LWPOLYLINE
  5
325
100
AcDbEntity
  8
0
 62
     0
100
AcDbPolyline
 90
        2
 70
     0
 39
0.003
 10
0.429839
 20
0.656276
 40
0.003
 41
0.003
 10
0.468091
 20
0.646988
 40
0.003
 41
0.003
  0
LWPOLYLINE
  5
326
100
AcDbEntity
  8
0
 62
     0
100
AcDbPolyline
 90
        2
 70
     0
 39
0.003
 10
0.468091
 20
0.646988
 40
0.003
 41
0.003
 10
0.503394
 20
0.634913
 40
0.003
 41
0.003
  0
LWPOLYLINE
  5
327
100
AcDbEntity
  8
0
 62
     0
100
AcDbPolyline
 90
        2
 70
     0
 39
0.003
 10
0.503394
 20
0.634913
 40
0.003
 41
0.003
 10
0.535791
 20
0.620268
 40
0.003
 41
0.003
  0
LWPOLYLINE
  5
328
100
AcDbEntity
  8
0
 62
     0
100
AcDbPolyline
 90
        2
 70
     0
 39
0.003
 10
0.535791
 20
0.620268
 40
0.003
 41
0.003
 10
0.565299
 20
0.603244
 40
0.003
 41
0.003
  0
LWPOLYLINE
  5
329
100
AcDbEntity
  8
0
 62
     0
100
AcDbPolyline
 90
        2
 70
     0
 39
0.003
 10
0.565299
 20
0.603244
 40
0.003
 41
0.003
 10
0.591953
 20
0.584059
 40
0.003
 41
0.003
  0
LWPOLYLINE
  5
32A
100
AcDbEntity
  8
0
 62
     0
100
AcDbPolyline
 90
        2
 70
     0
 39
0.003
 10
0.591953
 20
0.584059
 40
0.003
 41
0.003
 10
0.615783
 20
0.562913
 40
0.003
 41
0.003
  0
LWPOLYLINE
  5
32B
100
AcDbEntity
  8
0
 62
     0
100
AcDbPolyline
 90
        2
 70
     0
 39
0.003
 10
0.615783
 20
0.562913
 40
0.003
 41
0.003
 10
0.636827
 20
0.54002
 40
0.003
 41
0.003
  0
LWPOLYLINE
  5
32C
100
AcDbEntity
  8
0
 62
     0
100
AcDbPolyline
 90
        2
 70
     0
 39
0.003
 10
0.636827
 20
0.54002
 40
0.003
 41
0.003
 10
0.655094
 20
0.515575
 40
0.003
 41
0.003
  0
LWPOLYLINE
  5
32D
100
AcDbEntity
  8
0
 62
     0
100
AcDbPolyline
 90
        2
 70
     0
 39
0.003
 10
0.655094
 20
0.515575
 40
0.003
 41
0.003
 10
0.670634
 20
0.489791
 40
0.003
 41
0.003
  0
LWPOLYLINE
  5
32E
100
AcDbEntity
  8
0
 62
     0
100
AcDbPolyline
 90
        2
 70
     0
 39
0.003
 10
0.670634
 20
0.489791
 40
0.003
 41
0.003
 10
0.683461
 20
0.462874
 40
0.003
 41
0.003
  0
LWPOLYLINE
  5
32F
100
AcDbEntity
  8
0
 62
     0
100
AcDbPolyline
 90
        2
 70
     0
 39
0.003
 10
0.683461
 20
0.462874
 40
0.003
 41
0.003
 10
0.693622
 20
0.435039
 40
0.003
 41
0.003
  0
LWPOLYLINE
  5
330
100
AcDbEntity
  8
0
 62
     0
100
AcDbPolyline
 90
        2
 70
     0
 39
0.003
 10
0.693622
 20
0.435039
 40
0.003
 41
0.003
 10
0.70113
 20
0.406476
 40
0.003
 41
0.003
  0
LWPOLYLINE
  5
331
100
AcDbEntity
  8
0
 62
     0
100
AcDbPolyline
 90
        2
 70
     0
 39
0.003
 10
0.70113
 20
0.406476
 40
0.003
 41
0.003
 10
0.706031
 20
0.377409
 40
0.003
 41
0.003
  0
LWPOLYLINE
  5
332
100
AcDbEntity
  8
0
 62
     0
100
AcDbPolyline
 90
        2
 70
     0
 39
0.003
 10
0.706031
 20
0.377409
 40
0.003
 41
0.003
 10
0.708343
 20
0.348031
 40
0.003
 41
0.003
  0
LWPOLYLINE
  5
333
100
AcDbEntity
  8
0
 62
     0
100
AcDbPolyline
 90
        2
 70
     0
 39
0.003
 10
0.708343
 20
0.348031
 40
0.003
 41
0.003
 10
0.708106
 20
0.318559
 40
0.003
 41
0.003
  0
LWPOLYLINE
  5
334
100
AcDbEntity
  8
0
 62
     0
100
AcDbPolyline
 90
        2
 70
     0
 39
0.003
 10
0.708106
 20
0.318559
 40
0.003
 41
0.003
 10
0.705335
 20
0.289189
 40
0.003
 41
0.003
  0
LWPOLYLINE
  5
335
100
AcDbEntity
  8
0
 62
     0
100
AcDbPolyline
 90
        2
 70
     0
 39
0.003
 10
0.705335
 20
0.289189
 40
0.003
 41
0.003
 10
0.700071
 20
0.260134
 40
0.003
 41
0.003
  0
LWPOLYLINE
  5
336
100
AcDbEntity
  8
0
 62
     0
100
AcDbPolyline
 90
        2
 70
     0
 39
0.003
 10
0.700071
 20
0.260134
 40
0.003
 41
0.003
 10
0.692339
 20
0.231594
 40
0.003
 41
0.003
  0
LWPOLYLINE
  5
337
100
AcDbEntity
  8
0
 62
     0
100
AcDbPolyline
 90
        2
 70
     0
 39
0.003
 10
0.692339
 20
0.231594
 40
0.003
 41
0.003
 10
0.682181
 20
0.203791
 40
0.003
 41
0.003
  0
LWPOLYLINE
  5
338
100
AcDbEntity
  8
0
 62
     0
100
AcDbPolyline
 90
        2
 70
     0
 39
0.003
 10
0.682181
 20
0.203791
 40
0.003
 41
0.003
 10
0.669606
 20
0.176913
 40
0.003
 41
0.003
  0
LWPOLYLINE
  5
339
100
AcDbEntity
  8
0
 62
     0
100
AcDbPolyline
 90
        2
 70
     0
 39
0.003
 10
0.669606
 20
0.176913
 40
0.003
 41
0.003
 10
0.654665
 20
0.151185
 40
0.003
 41
0.003
  0
LWPOLYLINE
  5
33A
100
AcDbEntity
  8
0
 62
     0
100
AcDbPolyline
 90
        2
 70
     0
 39
0.003
 10
0.654665
 20
0.151185
 40
0.003
 41
0.003
 10
0.637374
 20
0.126795
 40
0.003
 41
0.003
  0
LWPOLYLINE
  5
33B
100
AcDbEntity
  8
0
 62
     0
100
AcDbPolyline
 90
        2
 70
     0
 39
0.003
 10
0.637374
 20
0.126795
 40
0.003
 41
0.003
 10
0.617772
 20
0.103969
 40
0.003
 41
0.003
  0
LWPOLYLINE
  5
33C
100
AcDbEntity
  8
0
 62
     0
100
AcDbPolyline
 90
        2
 70
     0
 39
0.003
 10
0.617772
 20
0.103969
 40
0.003
 41
0.003
 10
0.595874
 20
0.082894
 40
0.003
 41
0.003
  0
LWPOLYLINE
  5
33D
100
AcDbEntity
  8
0
 62
     0
100
AcDbPolyline
 90
        2
 70
     0
 39
0.003
 10
0.595874
 20
0.082894
 40
0.003
 41
0.003
 10
0.571728
 20
0.063791
 40
0.003
 41
0.003
  0
LWPOLYLINE
  5
33E
100
AcDbEntity
  8
0
 62
     0
100
AcDbPolyline
 90
        2
 70
     0
 39
0.003
 10
0.571728
 20
0.063791
 40
0.003
 41
0.003
 10
0.545354
 20
0.046854
 40
0.003
 41
0.003
  0
LWPOLYLINE
  5
33F
100
AcDbEntity
  8
0
 62
     0
100
AcDbPolyline
 90
        2
 70
     0
 39
0.003
 10
0.545354
 20
0.046854
 40
0.003
 41
0.003
 10
0.516787
 20
0.032307
 40
0.003
 41
0.003
  0
LWPOLYLINE
  5
340
100
AcDbEntity
  8
0
 62
     0
100
AcDbPolyline
 90
        2
 70
     0
 39
0.003
 10
0.516787
 20
0.032307
 40
0.003
 41
0.003
 10
0.486047
 20
0.020339
 40
0.003
 41
0.003
  0
LWPOLYLINE
  5
341
100
AcDbEntity
  8
0
 62
     0
100
AcDbPolyline
 90
        2
 70
     0
 39
0.003
 10
0.486047
 20
0.020339
 40
0.003
 41
0.003
 10
0.453177
 20
0.011169
 40
0.003
 41
0.003
  0
LWPOLYLINE
  5
342
100
AcDbEntity
  8
0
 62
     0
100
AcDbPolyline
 90
        2
 70
     0
 39
0.003
 10
0.453177
 20
0.011169
 40
0.003
 41
0.003
 10
0.418197
 20
0.004996
 40
0.003
 41
0.003
  0
LWPOLYLINE
  5
343
100
AcDbEntity
  8
0
 62
     0
100
AcDbPolyline
 90
        2
 70
     0
 39
0.003
 10
0.418197
 20
0.004996
 40
0.003
 41
0.003
 10
0.38115
 20
0.002035
 40
0.003
 41
0.003
  0
LWPOLYLINE
  5
344
100
AcDbEntity
  8
0
 62
   254
100
AcDbPolyline
 90
        2
 70
     0
 39
0.003
 10
0.388614
 20
0.662575
 40
0.003
 41
0.003
 10
1.135756
 20
0.659795
 40
0.003
 41
0.003
  0
LWPOLYLINE
  5
345
100
AcDbEntity
  8
0
 62
   254
100
AcDbPolyline
 90
        2
 70
     0
 39
0.003
 10
1.135756
 20
0.659795
 40
0.003
 41
0.003
 10
1.135756
 20
0.749449
 40
0.003
 41
0.003
  0
LWPOLYLINE
  5
346
100
AcDbEntity
  8
0
 62
   254
100
AcDbPolyline
 90
        2
 70
     0
 39
0.003
 10
1.135756
 20
0.749449
 40
0.003
 41
0.003
 10
0.388614
 20
0.752228
 40
0.003
 41
0.003
  0
LWPOLYLINE
  5
347
100
AcDbEntity
  8
0
 62
   254
100
AcDbPolyline
 90
        2
 70
     0
 39
0.003
 10
0.388614
 20
0.752228
 40
0.003
 41
0.003
 10
0.388614
 20
0.662575
 40
0.003
 41
0.003
  0
LWPOLYLINE
  5
348
100
AcDbEntity
  8
0
 62
     0
100
AcDbPolyline
 90
        2
 70
     0
 39
0.003
 10
0.388614
 20
0.662575
 40
0.003
 41
0.003
 10
1.135756
 20
0.659795
 40
0.003
 41
0.003
  0
LWPOLYLINE
  5
349
100
AcDbEntity
  8
0
 62
     0
100
AcDbPolyline
 90
        2
 70
     0
 39
0.003
 10
1.135756
 20
0.659795
 40
0.003
 41
0.003
 10
1.135756
 20
0.749449
 40
0.003
 41
0.003
  0
LWPOLYLINE
  5
34A
100
AcDbEntity
  8
0
 62
     0
100
AcDbPolyline
 90
        2
 70
     0
 39
0.003
 10
1.135756
 20
0.749449
 40
0.003
 41
0.003
 10
0.388614
 20
0.752228
 40
0.003
 41
0.003
  0
LWPOLYLINE
  5
34B
100
AcDbEntity
  8
0
 62
     0
100
AcDbPolyline
 90
        2
 70
     0
 39
0.003
 10
0.388614
 20
0.752228
 40
0.003
 41
0.003
 10
0.388614
 20
0.662575
 40
0.003
 41
0.003
  0
SPLINE
  5
34C
100
AcDbEntity
  8
0
 62
     7
100
AcDbSpline
210
0.0
220
0.0
230
1.0
 70
     0
 71
     3
 72
     0
 73
     0
 74
    16
 44
0.0000000001
 11
0.1871456692913386
 21
-0.4347165354330709
 31
0.0
 11
0.1887716535433071
 21
-0.4053110236220472
 31
0.0
 11
0.1910157480314961
 21
-0.377248031496063
 31
0.0
 11
0.1940314960629921
 21
-0.3504645669291339
 31
0.0
 11
0.198003937007874
 21
-0.3249055118110236
 31
0.0
 11
0.2030826771653543
 21
-0.300496062992126
 31
0.0
 11
0.2094527559055118
 21
-0.2771929133858267
 31
0.0
 11
0.2172755905511811
 21
-0.2549212598425197
 31
0.0
 11
0.2267322834645669
 21
-0.2336377952755906
 31
0.0
 11
0.2379724409448819
 21
-0.2132637795275591
 31
0.0
 11
0.2511811023622047
 21
-0.193751968503937
 31
0.0
 11
0.2665236220472441
 21
-0.1750354330708661
 31
0.0
 11
0.2841692913385827
 21
-0.1570669291338583
 31
0.0
 11
0.3042795275590551
 21
-0.1397637795275591
 31
0.0
 11
0.3270354330708661
 21
-0.1230905511811024
 31
0.0
 11
0.3525984251968504
 21
-0.1069685039370079
 31
0.0
  0
LWPOLYLINE
  5
34D
100
AcDbEntity
  8
0
 62
     7
100
AcDbPolyline
 90
        2
 70
     0
 39
0.003
 10
0.352598
 20
-0.106969
 40
0.003
 41
0.003
 10
0.38115
 20
-0.091346
 40
0.003
 41
0.003
  0
LWPOLYLINE
  5
34E
100
AcDbEntity
  8
0
 62
     7
100
AcDbPolyline
 90
        2
 70
     0
 39
0.003
 10
0.38115
 20
-0.091346
 40
0.003
 41
0.003
 10
0.38115
 20
0.002035
 40
0.003
 41
0.003
  0
SPLINE
  5
34F
100
AcDbEntity
  8
0
 62
     7
100
AcDbSpline
210
0.0
220
0.0
230
1.0
 70
     0
 71
     3
 72
     0
 73
     0
 74
    16
 44
0.0000000001
 11
0.3811496062992126
 21
0.0020354330708661
 31
0.0
 11
0.4531771653543307
 21
0.0111692913385827
 31
0.0
 11
0.5167874015748032
 21
0.0323070866141732
 31
0.0
 11
0.5717283464566929
 21
0.0637913385826772
 31
0.0
 11
0.6177716535433071
 21
0.1039685039370079
 31
0.0
 11
0.6546653543307087
 21
0.1511850393700787
 31
0.0
 11
0.6821811023622048
 21
0.2037913385826772
 31
0.0
 11
0.7000708661417323
 21
0.2601338582677165
 31
0.0
 11
0.7081062992125984
 21
0.3185590551181102
 31
0.0
 11
0.7060314960629921
 21
0.3774094488188977
 31
0.0
 11
0.6936220472440945
 21
0.4350393700787402
 31
0.0
 11
0.6706338582677165
 21
0.4897913385826772
 31
0.0
 11
0.6368267716535433
 21
0.54001968503937
 31
0.0
 11
0.5919527559055118
 21
0.5840590551181102
 31
0.0
 11
0.5357913385826771
 21
0.6202677165354331
 31
0.0
 11
0.4680905511811024
 21
0.646988188976378
 31
0.0
  0
LWPOLYLINE
  5
350
100
AcDbEntity
  8
0
 62
     7
100
AcDbPolyline
 90
        2
 70
     0
 39
0.003
 10
0.468091
 20
0.646988
 40
0.003
 41
0.003
 10
0.388614
 20
0.662575
 40
0.003
 41
0.003
  0
LWPOLYLINE
  5
351
100
AcDbEntity
  8
0
 62
     7
100
AcDbPolyline
 90
        2
 70
     0
 39
0.003
 10
0.388614
 20
0.662575
 40
0.003
 41
0.003
 10
0.388614
 20
0.752228
 40
0.003
 41
0.003
  0
LWPOLYLINE
  5
352
100
AcDbEntity
  8
0
 62
     7
100
AcDbPolyline
 90
        2
 70
     0
 39
0.003
 10
0.388614
 20
0.752228
 40
0.003
 41
0.003
 10
-0.290661
 20
0.752228
 40
0.003
 41
0.003
  0
LWPOLYLINE
  5
353
100
AcDbEntity
  8
0
 62
     7
100
AcDbPolyline
 90
        2
 70
     0
 39
0.003
 10
-0.290661
 20
0.752228
 40
0.003
 41
0.003
 10
-0.290661
 20
-0.43439
 40
0.003
 41
0.003
  0
LWPOLYLINE
  5
354
100
AcDbEntity
  8
0
 62
     7
100
AcDbPolyline
 90
        2
 70
     0
 39
0.003
 10
-0.290661
 20
-0.43439
 40
0.003
 41
0.003
 10
0.187146
 20
-0.434717
 40
0.003
 41
0.003
  0
MTEXT
  5
355
100
AcDbEntity
  8
0
 62
     0
100
AcDbMText
 10
-0.431287
 20
-0.329559
 30
0.0
 40
0.166665
 41
0.0
 71
     1
 72
     1
  1
{\fBookman Old Style|b0|i0|c0|p32;BA  1445}
 73
     1
 44
1.0
  0
MTEXT
  5
356
100
AcDbEntity
  8
0
 62
     0
100
AcDbMText
 10
-0.431287
 20
-0.517059
 30
0.0
 40
0.166665
 41
0.0
 71
     1
 72
     1
  1
{\fBookman Old Style|b0|i0|c0|p32;1" x 1-3/16"}
 73
     1
 44
1.0
  0
SPLINE
  5
357
100
AcDbEntity
  8
0
 62
     7
100
AcDbSpline
210
0.0
220
0.0
230
1.0
 70
     0
 71
     3
 72
     0
 73
     0
 74
    16
 44
0.0000000001
 11
0.6401692913385827
 21
1.9875787401574803
 31
0.0
 11
0.610763779527559
 21
1.9892047244094488
 31
0.0
 11
0.5827007874015748
 21
1.9914488188976378
 31
0.0
 11
0.5559173228346457
 21
1.9944645669291339
 31
0.0
 11
0.5303582677165354
 21
1.9984370078740157
 31
0.0
 11
0.5059488188976378
 21
2.003515748031496
 31
0.0
 11
0.4826456692913386
 21
2.0098858267716535
 31
0.0
 11
0.4603740157480315
 21
2.017708661417323
 31
0.0
 11
0.4390905511811024
 21
2.0271653543307089
 31
0.0
 11
0.4187165354330709
 21
2.0384055118110238
 31
0.0
 11
0.3992047244094488
 21
2.0516141732283466
 31
0.0
 11
0.3804881889763779
 21
2.066956692913386
 31
0.0
 11
0.3625196850393701
 21
2.0846023622047243
 31
0.0
 11
0.3452165354330709
 21
2.1047125984251966
 31
0.0
 11
0.3285433070866142
 21
2.127468503937008
 31
0.0
 11
0.3124212598425197
 21
2.1530314960629919
 31
0.0
  0
LWPOLYLINE
  5
358
100
AcDbEntity
  8
0
 62
     7
100
AcDbPolyline
 90
        2
 70
     0
 39
0.003
 10
0.312421
 20
2.153031
 40
0.003
 41
0.003
 10
0.296799
 20
2.181583
 40
0.003
 41
0.003
  0
LWPOLYLINE
  5
359
100
AcDbEntity
  8
0
 62
     7
100
AcDbPolyline
 90
        2
 70
     0
 39
0.003
 10
0.296799
 20
2.181583
 40
0.003
 41
0.003
 10
0.203417
 20
2.181583
 40
0.003
 41
0.003
  0
SPLINE
  5
35A
100
AcDbEntity
  8
0
 62
     7
100
AcDbSpline
210
0.0
220
0.0
230
1.0
 70
     0
 71
     3
 72
     0
 73
     0
 74
    16
 44
0.0000000001
 11
0.2034173228346457
 21
2.1815826771653541
 31
0.0
 11
0.1942755905511811
 21
2.2536102362204726
 31
0.0
 11
0.1731377952755906
 21
2.3172204724409449
 31
0.0
 11
0.1416535433070866
 21
2.3721614173228347
 31
0.0
 11
0.1014763779527559
 21
2.4182047244094487
 31
0.0
 11
0.054255905511811
 21
2.4550984251968502
 31
0.0
 11
0.0016535433070866
 21
2.4826141732283467
 31
0.0
 11
-0.0546811023622047
 21
2.5005039370078741
 31
0.0
 11
-0.1131062992125984
 21
2.5085393700787399
 31
0.0
 11
-0.1719566929133858
 21
2.5064645669291337
 31
0.0
 11
-0.2295866141732283
 21
2.4940551181102362
 31
0.0
 11
-0.2843385826771653
 21
2.4710669291338583
 31
0.0
 11
-0.3345669291338583
 21
2.4372598425196852
 31
0.0
 11
-0.3786062992125984
 21
2.3923858267716533
 31
0.0
 11
-0.4148149606299212
 21
2.3362244094488189
 31
0.0
 11
-0.4415354330708661
 21
2.268523622047244
 31
0.0
  0
LWPOLYLINE
  5
35B
100
AcDbEntity
  8
0
 62
     7
100
AcDbPolyline
 90
        2
 70
     0
 39
0.003
 10
-0.441535
 20
2.268524
 40
0.003
 41
0.003
 10
-0.457122
 20
2.189047
 40
0.003
 41
0.003
  0
LWPOLYLINE
  5
35C
100
AcDbEntity
  8
0
 62
     7
100
AcDbPolyline
 90
        2
 70
     0
 39
0.003
 10
-0.457122
 20
2.189047
 40
0.003
 41
0.003
 10
-0.546776
 20
2.189047
 40
0.003
 41
0.003
  0
LWPOLYLINE
  5
35D
100
AcDbEntity
  8
0
 62
     7
100
AcDbPolyline
 90
        2
 70
     0
 39
0.003
 10
-0.546776
 20
2.189047
 40
0.003
 41
0.003
 10
-0.546776
 20
1.509772
 40
0.003
 41
0.003
  0
LWPOLYLINE
  5
35E
100
AcDbEntity
  8
0
 62
     7
100
AcDbPolyline
 90
        2
 70
     0
 39
0.003
 10
-0.546776
 20
1.509772
 40
0.003
 41
0.003
 10
0.639843
 20
1.509772
 40
0.003
 41
0.003
  0
LWPOLYLINE
  5
35F
100
AcDbEntity
  8
0
 62
     7
100
AcDbPolyline
 90
        2
 70
     0
 39
0.003
 10
0.639843
 20
1.509772
 40
0.003
 41
0.003
 10
0.640169
 20
1.987579
 40
0.003
 41
0.003
  0
MTEXT
  5
360
100
AcDbEntity
  8
0
 62
     0
100
AcDbMText
 10
-0.86974
 20
1.568555
 30
0.0
 40
0.166665
 41
0.0
 71
     1
 72
     1
  1
{\fBookman Old Style|b0|i0|c0|p32;BA  1445}
 73
     1
 44
1.0
  0
MTEXT
  5
361
100
AcDbEntity
  8
0
 62
     0
100
AcDbMText
 10
-0.86974
 20
1.381055
 30
0.0
 40
0.166665
 41
0.0
 71
     1
 72
     1
  1
{\fBookman Old Style|b0|i0|c0|p32;1" x 1-3/16"}
 73
     1
 44
1.0
  0
ENDSEC
  0
SECTION
  2
OBJECTS
  0
DICTIONARY
  5
19
100
AcDbDictionary
280
     0
281
     1
  3
ACAD_GROUP
350
1A
  3
ACAD_MLINESTYLE
350
1B
  3
ACAD_LAYOUT
350
1E
  3
ACAD_PLOTSETTINGS
350
22
  3
ACAD_PLOTSTYLENAME
350
1F
  3
ACAD_WIPEOUT_VARS
350
23
  0
DICTIONARY
  5
1A
102
{ACAD_REACTORS
330
19
102
}
100
AcDbDictionary
280
     0
281
     1
  0
DICTIONARY
  5
1B
102
{ACAD_REACTORS
330
19
102
}
100
AcDbDictionary
280
     0
281
     1
  3
Standard
350
1C
  0
MLINESTYLE
  5
1C
102
{ACAD_REACTORS
330
1B
102
}
100
AcDbMlineStyle
  2
Standard
 70
     0
  3

 62
     0
 51
90.0
 52
90.0
 71
     2
 49
0.5
 62
   256
  6
BYLAYER
 49
-0.5
 62
   256
  6
BYLAYER
  0
ACDBDICTIONARYWDFLT
  5
1F
102
{ACAD_REACTORS
330
19
102
}
100
AcDbDictionary
281
     1
  3
Normal
350
1D
100
AcDbDictionaryWithDefault
340
1D
  0
ACDBPLACEHOLDER
  5
1D
102
{ACAD_REACTORS
330
1F
102
}
  0
LAYOUT
  5
20
102
{ACAD_REACTORS
330
1E
102
}
100
AcDbPlotSettings
  1

  2

  4

  6

 40
0.0
 41
0.0
 42
0.0
 43
0.0
 44
0.0
 45
0.0
 46
0.0
 47
0.0
 48
0.0
 49
0.0
140
0.0
141
0.0
142
1.0
143
1.0
 70
  1024
 72
     0
 73
     0
 74
     0
  7

 75
     0
147
1.0
148
0.0
149
0.0
100
AcDbLayout
  1
Model
 70
     0
 71
     0
 10
0.0
 20
0.0
 11
0.0
 21
0.0
 12
0.0
 22
0.0
 32
0.0
 14
0.0
 24
0.0
 34
0.0
 15
0.0
 25
0.0
 35
0.0
146
0.0
 13
0.0
 23
0.0
 33
0.0
 16
0.0
 26
0.0
 36
0.0
 17
0.0
 27
0.0
 37
0.0
 76
     0
330
A
331
0
345
0
346
0
  0
LAYOUT
  5
21
102
{ACAD_REACTORS
330
1E
102
}
100
AcDbPlotSettings
  1

  2

  4

  6

 40
0.0
 41
0.0
 42
0.0
 43
0.0
 44
0.0
 45
0.0
 46
0.0
 47
0.0
 48
0.0
 49
0.0
140
0.0
141
0.0
142
1.0
143
1.0
 70
     0
 72
     0
 73
     0
 74
     0
  7

 75
     0
147
1.0
148
0.0
149
0.0
100
AcDbLayout
  1
Layout1
 70
     0
 71
     0
 10
0.0
 20
0.0
 11
0.0
 21
0.0
 12
0.0
 22
0.0
 32
0.0
 14
0.0
 24
0.0
 34
0.0
 15
0.0
 25
0.0
 35
0.0
146
0.0
 13
0.0
 23
0.0
 33
0.0
 16
0.0
 26
0.0
 36
0.0
 17
0.0
 27
0.0
 37
0.0
 76
     0
330
B
331
0
345
0
346
0
  0
DICTIONARY
  5
1E
102
{ACAD_REACTORS
330
19
102
}
100
AcDbDictionary
280
     0
281
     1
  3
Layout1
350
21
  3
Model
350
20
  0
DICTIONARY
  5
22
102
{ACAD_REACTORS
330
19
102
}
100
AcDbDictionary
280
     0
281
     1
  0
WIPEOUTVARIABLES
  5
23
100
AcDbWipeoutVariables
 70
     1
  0
ENDSEC
  0
EOF
