  0
SECTION
  2
HEADER
  9
$ACADVER
  1
AC1015
  9
$ACADMAINTVER
 70
     6
  9
$DWGCODEPAGE
  3
DOS850
  9
$INSBASE
 10
0.0
 20
0.0
 30
0.0
  9
$EXTMIN
 10
1.000000E+20
 20
1.000000E+20
 30
1.000000E+20
  9
$EXTMAX
 10
-1.000000E+20
 20
-1.000000E+20
 30
-1.000000E+20
  9
$LIMMIN
 10
0.0
 20
0.0
  9
$LIMMAX
 10
0.0
 20
0.0
  9
$ORTHOMODE
 70
     0
  9
$REGENMODE
 70
     1
  9
$FILLMODE
 70
     1
  9
$QTEXTMODE
 70
     0
  9
$MIRRTEXT
 70
     1
  9
$LTSCALE
 40
1.0
  9
$ATTMODE
 70
     1
  9
$TEXTSIZE
 40
0.2
  9
$TRACEWID
 40
0.05
  9
$TEXTSTYLE
  7
Standard
  9
$CLAYER
  8
0
  9
$CELTYPE
  6
Continuous
  9
$CECOLOR
 62
   256
  9
$CELTSCALE
 40
1.0
  9
$DISPSILH
 70
     0
  9
$DIMSCALE
 40
1.0
  9
$DIMASZ
 40
0.18
  9
$DIMEXO
 40
0.0625
  9
$DIMDLI
 40
0.38
  9
$DIMRND
 40
0.0
  9
$DIMDLE
 40
0.0
  9
$DIMEXE
 40
0.18
  9
$DIMTP
 40
0.0
  9
$DIMTM
 40
0.0
  9
$DIMTXT
 40
0.18
  9
$DIMCEN
 40
0.09
  9
$DIMTSZ
 40
0.0
  9
$DIMTOL
 70
     0
  9
$DIMLIM
 70
     0
  9
$DIMTIH
 70
     1
  9
$DIMTOH
 70
     1
  9
$DIMSE1
 70
     0
  9
$DIMSE2
 70
     0
  9
$DIMTAD
 70
     0
  9
$DIMZIN
 70
     0
  9
$DIMBLK
  1

  9
$DIMASO
 70
     1
  9
$DIMSHO
 70
     1
  9
$DIMPOST
  1

  9
$DIMAPOST
  1

  9
$DIMALT
 70
     0
  9
$DIMALTD
 70
     2
  9
$DIMALTF
 40
25.4
  9
$DIMLFAC
 40
1.0
  9
$DIMTOFL
 70
     0
  9
$DIMTVP
 40
0.0
  9
$DIMTIX
 70
     0
  9
$DIMSOXD
 70
     0
  9
$DIMSAH
 70
     0
  9
$DIMBLK1
  1

  9
$DIMBLK2
  1

  9
$DIMSTYLE
  2
Standard
  9
$DIMCLRD
 70
     0
  9
$DIMCLRE
 70
     0
  9
$DIMCLRT
 70
     0
  9
$DIMTFAC
 40
1.0
  9
$DIMGAP
 40
0.09
  9
$DIMJUST
 70
     0
  9
$DIMSD1
 70
     0
  9
$DIMSD2
 70
     0
  9
$DIMTOLJ
 70
     1
  9
$DIMTZIN
 70
     0
  9
$DIMALTZ
 70
     0
  9
$DIMALTTZ
 70
     0
  9
$DIMUPT
 70
     0
  9
$DIMDEC
 70
     4
  9
$DIMTDEC
 70
     4
  9
$DIMALTU
 70
     2
  9
$DIMALTTD
 70
     2
  9
$DIMTXSTY
  7
Standard
  9
$DIMAUNIT
 70
     0
  9
$DIMADEC
 70
     0
  9
$DIMALTRND
 40
0.0
  9
$DIMAZIN
 70
     0
  9
$DIMDSEP
 70
     0
  9
$DIMATFIT
 70
     3
  9
$DIMFRAC
 70
     0
  9
$DIMLDRBLK
  1

  9
$DIMLUNIT
 70
     2
  9
$DIMLWD
 70
     0
  9
$DIMLWE
 70
     0
  9
$DIMTMOVE
 70
     0
  9
$LUNITS
 70
     2
  9
$LUPREC
 70
     4
  9
$SKETCHINC
 40
0.1
  9
$FILLETRAD
 40
0.0
  9
$AUNITS
 70
     0
  9
$AUPREC
 70
     0
  9
$MENU
  1
acad
  9
$ELEVATION
 40
0.0
  9
$PELEVATION
 40
0.0
  9
$THICKNESS
 40
0.0
  9
$LIMCHECK
 70
     0
  9
$CHAMFERA
 40
0.0
  9
$CHAMFERB
 40
0.0
  9
$CHAMFERC
 40
0.0
  9
$CHAMFERD
 40
0.0
  9
$SKPOLY
 70
     0
  9
$TDCREATE
 40
0.000000000
  9
$TDUCREATE
 40
0.000000000
  9
$TDUPDATE
 40
0.000000000
  9
$TDUUPDATE
 40
0.000000000
  9
$TDINDWG
 40
0.0000000000
  9
$TDUSRTIMER
 40
0.0000000000
  9
$USRTIMER
 70
     1
  9
$ANGBASE
 50
0.0
  9
$ANGDIR
 70
     0
  9
$PDMODE
 70
     0
  9
$PDSIZE
 40
0.0
  9
$PLINEWID
 40
0.0
  9
$SPLFRAME
 70
     0
  9
$SPLINETYPE
 70
     6
  9
$SPLINESEGS
 70
     8
  9
$HANDSEED
  5
2F4
  9
$SURFTAB1
 70
     6
  9
$SURFTAB2
 70
     6
  9
$SURFTYPE
 70
     6
  9
$SURFU
 70
     6
  9
$SURFV
 70
     6
  9
$UCSBASE
  2

  9
$UCSNAME
  2

  9
$UCSORG
 10
0.0
 20
0.0
 30
0.0
  9
$UCSXDIR
 10
1.0
 20
0.0
 30
0.0
  9
$UCSYDIR
 10
0.0
 20
1.0
 30
0.0
  9
$UCSORTHOREF
  2

  9
$UCSORTHOVIEW
 70
     0
  9
$UCSORGTOP
 10
0.0
 20
0.0
 30
0.0
  9
$UCSORGBOTTOM
 10
0.0
 20
0.0
 30
0.0
  9
$UCSORGLEFT
 10
0.0
 20
0.0
 30
0.0
  9
$UCSORGRIGHT
 10
0.0
 20
0.0
 30
0.0
  9
$UCSORGFRONT
 10
0.0
 20
0.0
 30
0.0
  9
$UCSORGBACK
 10
0.0
 20
0.0
 30
0.0
  9
$PUCSBASE
  2

  9
$PUCSNAME
  2

  9
$PUCSORG
 10
0.0
 20
0.0
 30
0.0
  9
$PUCSXDIR
 10
1.0
 20
0.0
 30
0.0
  9
$PUCSYDIR
 10
0.0
 20
1.0
 30
0.0
  9
$PUCSORTHOREF
  2

  9
$PUCSORTHOVIEW
 70
     0
  9
$PUCSORGTOP
 10
0.0
 20
0.0
 30
0.0
  9
$PUCSORGBOTTOM
 10
0.0
 20
0.0
 30
0.0
  9
$PUCSORGLEFT
 10
0.0
 20
0.0
 30
0.0
  9
$PUCSORGRIGHT
 10
0.0
 20
0.0
 30
0.0
  9
$PUCSORGFRONT
 10
0.0
 20
0.0
 30
0.0
  9
$PUCSORGBACK
 10
0.0
 20
0.0
 30
0.0
  9
$USERI1
 70
     0
  9
$USERI2
 70
     0
  9
$USERI3
 70
     0
  9
$USERI4
 70
     0
  9
$USERI5
 70
     0
  9
$USERR1
 40
0.0
  9
$USERR2
 40
0.0
  9
$USERR3
 40
0.0
  9
$USERR4
 40
0.0
  9
$USERR5
 40
0.0
  9
$WORLDVIEW
 70
     1
  9
$SHADEDGE
 70
     3
  9
$SHADEDIF
 70
    70
  9
$TILEMODE
 70
     1
  9
$MAXACTVP
 70
    16
  9
$PINSBASE
 10
0.0
 20
0.0
 30
0.0
  9
$PLIMCHECK
 70
     0
  9
$PEXTMIN
 10
1.000000E+20
 20
1.000000E+20
 30
1.000000E+20
  9
$PEXTMAX
 10
-1.000000E+20
 20
-1.000000E+20
 30
-1.000000E+20
  9
$PLIMMIN
 10
0.0
 20
0.0
  9
$PLIMMAX
 10
12.0
 20
9.0
  9
$UNITMODE
 70
     0
  9
$VISRETAIN
 70
     0
  9
$PLINEGEN
 70
     1
  9
$PSLTSCALE
 70
     0
  9
$TREEDEPTH
 70
  3020
  9
$CMLSTYLE
  2
Standard
  9
$CMLJUST
 70
     0
  9
$CMLSCALE
 40
1.0
  9
$PROXYGRAPHICS
 70
     0
  9
$MEASUREMENT
 70
     0
  9
$CELWEIGHT
370
     0
  9
$ENDCAPS
280
     0
  9
$JOINSTYLE
280
     0
  9
$LWDISPLAY
290
     0
  9
$INSUNITS
 70
     0
  9
$HYPERLINKBASE
  1

  9
$XEDIT
290
     1
  9
$CEPSNTYPE
380
     0
  9
$PSTYLEMODE
290
     1
  9
$FINGERPRINTGUID
  2

  9
$VERSIONGUID
  2

  9
$EXTNAMES
290
     1
  9
$PSVPSCALE
 40
0.0
  0
ENDSEC
  0
SECTION
  2
CLASSES
  0
CLASS
  1
LWPOLYLINE
  2
AcDbPolyline
  3
AutoCAD 2000
 90
        0
280
     0
281
     1
  0
CLASS
  1
IMAGE
  2
AcDbRasterImage
  3
ISM
 90
    32895
280
     0
281
     1
  0
CLASS
  1
OLE2FRAME
  2
AcDbOle2Frame
  3
AutoCAD 2000
 90
    32768
280
     0
281
     1
  0
CLASS
  1
HATCH
  2
AcDbHatch
  3
AutoCAD 2000
 90
    32768
280
     0
281
     1
  0
CLASS
  1
DICTIONARYVAR
  2
AcDbDictionaryVar
  3
AutoCAD 2000
 90
    32768
280
     0
281
     0
  0
CLASS
  1
RASTERVARIABLES
  2
AcDbRasterVariables
  3
ISM
 90
    32768
280
     0
281
     0
  0
CLASS
  1
IMAGEDEF
  2
AcDbRasterImageDef
  3
ISM
 90
    32768
280
     0
281
     0
  0
CLASS
  1
IMAGEDEF_REACTOR
  2
AcDbRasterImageDefReactor
  3
ISM
 90
    32769
280
     0
281
     0
  0
CLASS
  1
IDBUFFER
  2
AcDbIdBuffer
  3
AutoCAD 2000
 90
    32768
280
     0
281
     0
  0
CLASS
  1
SPATIAL_FILTER
  2
AcDbSpatialFilter
  3
AutoCAD 2000
 90
    32768
280
     0
281
     0
  0
CLASS
  1
XRECORD
  2
AcDbXrecord
  3
AutoCAD 2000
 90
    32768
280
     0
281
     0
  0
CLASS
  1
SORTENTSTABLE
  2
AcDbSortentsTable
  3
AutoCAD 2000
 90
    32768
280
     0
281
     0
  0
CLASS
  1
LAYER_INDEX
  2
AcDbLayerIndex
  3
AutoCAD 2000
 90
    32768
280
     0
281
     0
  0
CLASS
  1
SPATIAL_INDEX
  2
AcDbSpatialIndex
  3
AutoCAD 2000
 90
    32768
280
     0
281
     0
  0
CLASS
  1
OBJECT_PTR
  2
CAseDLPNTableRecord
  3
"ASE-LPNTableRecord"
 90
    32769
280
     0
281
     0
  0
CLASS
  1
LAYOUT
  2
AcDbLayout
  3
AutoCAD 2000
 90
        0
280
     0
281
     0
  0
CLASS
  1
PLOTSETTINGS
  2
AcDbPlotSettings
  3
AutoCAD 2000
 90
    32768
280
     0
281
     0
  0
CLASS
  1
ACDBDICTIONARYWDFLT
  2
AcDbDictionaryWithDefault
  3
AutoCAD 2000
 90
        0
280
     0
281
     0
  0
CLASS
  1
ACDBPLACEHOLDER
  2
AcDbPlaceHolder
  3
AutoCAD 2000
 90
        0
280
     0
281
     0
  0
CLASS
  1
VBA_PROJECT
  2
AcDbVbaProject
  3
acadvba
 90
    32768
280
     0
281
     0
  0
CLASS
  1
WIPEOUT
  2
AcDbWipeout
  3
WipeOut|AutoCAD Express Tool|expresstools@autodesk.com
 90
    32895
280
     0
281
     1
  0
CLASS
  1
WIPEOUTVARIABLES
  2
AcDbWipeoutVariables
  3
WipeOut|AutoCAD Express Tool|expresstools@autodesk.com
 90
        0
280
     0
281
     0
  0
CLASS
  1
RTEXT
  2
RText
  3
RText|AutoCAD Express Tool|expresstools@autodesk.com
 90
    32768
280
     0
281
     1
  0
CLASS
  1
ARCALIGNEDTEXT
  2
AcDbArcAlignedText
  3
ATEXT|AutoCAD Express Tool|expresstools@autodesk.com
 90
    32768
280
     0
281
     1
  0
ENDSEC
  0
SECTION
  2
TABLES
  0
TABLE
  2
VPORT
  5
7
100
AcDbSymbolTable
 70
     1
  0
VPORT
  5
15
100
AcDbSymbolTableRecord
100
AcDbViewportTableRecord
  2
*ACTIVE
 70
     0
 10
0.0
 20
0.0
 11
1.0
 21
1.0
 12
6.591288
 22
4.579184
 13
0.0
 23
0.0
 14
1.0
 24
1.0
 15
0.0
 25
0.0
 16
0.0
 26
0.0
 36
1.0
 17
0.0
 27
0.0
 37
0.0
 40
9.158369
 41
0.688564
 42
50.0
 43
0.0
 44
0.0
 50
0.0
 51
0.0
 71
     0
 72
   100
 73
     1
 74
     1
 75
     0
 76
     0
 77
     0
 78
     0
281
     0
 65
     0
110
0.0
120
0.0
130
0.0
111
1.0
121
0.0
131
0.0
112
0.0
122
1.0
132
0.0
345
0
346
0
 79
     0
146
0.0
  0
ENDTAB
  0
TABLE
  2
LTYPE
  5
4
100
AcDbSymbolTable
 70
     3
  0
LTYPE
  5
11
100
AcDbSymbolTableRecord
100
AcDbLinetypeTableRecord
  2
ByBlock
 70
    64
  3

 72
    65
 73
     0
 40
0.0
  0
LTYPE
  5
12
100
AcDbSymbolTableRecord
100
AcDbLinetypeTableRecord
  2
ByLayer
 70
    64
  3

 72
    65
 73
     0
 40
0.0
  0
LTYPE
  5
13
100
AcDbSymbolTableRecord
100
AcDbLinetypeTableRecord
  2
Continuous
 70
    64
  3
Solid line
 72
    65
 73
     0
 40
0.0
  0
ENDTAB
  0
TABLE
  2
LAYER
  5
2
100
AcDbSymbolTable
 70
     1
  0
LAYER
  5
14
100
AcDbSymbolTableRecord
100
AcDbLayerTableRecord
  2
0
 70
     0
 62
     7
  6
Continuous
290
     1
370
    -3
390
1D
  0
ENDTAB
  0
TABLE
  2
STYLE
  5
3
100
AcDbSymbolTable
 70
     1
  0
STYLE
  5
17
100
AcDbSymbolTableRecord
100
AcDbTextStyleTableRecord
  2
Standard
 70
     0
 40
0.0
 41
1.0
 50
0.0
 71
     0
 42
0.0
  3
txt
  4

  0
ENDTAB
  0
TABLE
  2
VIEW
  5
5
100
AcDbSymbolTable
 70
     0
  0
ENDTAB
  0
TABLE
  2
UCS
  5
6
100
AcDbSymbolTable
 70
     0
  0
ENDTAB
  0
TABLE
  2
APPID
  5
8
100
AcDbSymbolTable
 70
     1
  0
APPID
  5
16
100
AcDbSymbolTableRecord
100
AcDbRegAppTableRecord
  2
ACAD
 70
     0
  0
ENDTAB
  0
TABLE
  2
DIMSTYLE
  5
9
100
AcDbSymbolTable
 70
     1
100
AcDbDimStyleTable
 71
     0
  0
DIMSTYLE
105
18
100
AcDbSymbolTableRecord
100
AcDbDimStyleTableRecord
  2
Standard
 70
     0
  3

  4

 40
1.0
 41
0.18
 42
0.0625
 43
0.38
 44
0.18
 45
0.0
 46
0.0
 47
0.0
 48
0.0
 71
     0
 72
     0
 73
     1
 74
     1
 75
     0
 76
     0
 77
     0
 78
     0
 79
     0
140
0.18
141
0.09
142
0.0
143
25.4
144
1.0
145
0.0
146
1.0
147
0.09
148
0.0
170
     0
171
     2
172
     0
173
     0
174
     0
175
     0
176
     0
177
     0
178
     0
179
     0
271
     4
272
     4
273
     2
274
     2
275
     0
276
     0
277
     2
278
    46
279
     0
280
     0
281
     0
282
     0
283
     1
284
     0
285
     0
286
     0
288
     0
340
17
341
0
342
0
343
0
344
0
371
    -2
372
    -2
  0
ENDTAB
  0
TABLE
  2
BLOCK_RECORD
  5
1
100
AcDbSymbolTable
 70
     0
  0
BLOCK_RECORD
  5
A
100
AcDbSymbolTableRecord
100
AcDbBlockTableRecord
  2
*MODEL_SPACE
340
20
  0
BLOCK_RECORD
  5
B
100
AcDbSymbolTableRecord
100
AcDbBlockTableRecord
  2
*PAPER_SPACE
340
21
  0
ENDTAB
  0
ENDSEC
  0
SECTION
  2
BLOCKS
  0
BLOCK
  5
D
100
AcDbEntity
  8
0
100
AcDbBlockBegin
  2
*MODEL_SPACE
 70
     0
 10
0.0
 20
0.0
 30
0.0
  3
*MODEL_SPACE
  1

  0
ENDBLK
  5
E
100
AcDbEntity
  8
0
100
AcDbBlockEnd
  0
BLOCK
  5
F
100
AcDbEntity
 67
     1
  8
0
100
AcDbBlockBegin
  2
*PAPER_SPACE
 70
     0
 10
0.0
 20
0.0
 30
0.0
  3
*PAPER_SPACE
  1

  0
ENDBLK
  5
10
100
AcDbEntity
 67
     1
  8
0
100
AcDbBlockEnd
  0
ENDSEC
  0
SECTION
  2
ENTITIES
  0
LINE
  5
24
100
AcDbEntity
  8
0
 62
     7
100
AcDbLine
 10
-0.230799
 20
2.150154
 30
0.0
 11
0.487961
 21
2.150154
 31
0.0
  0
SPLINE
  5
25
100
AcDbEntity
  8
0
 62
     7
100
AcDbSpline
210
0.0
220
0.0
230
1.0
 70
     0
 71
     3
 72
     0
 73
     0
 74
    16
 44
0.0000000001
 11
0.4879606299212598
 21
2.1501535433070864
 31
0.0
 11
0.5164212598425196
 21
2.1466889763779529
 31
0.0
 11
0.5429055118110236
 21
2.1400236220472442
 31
0.0
 11
0.5674212598425197
 21
2.1305196850393702
 31
0.0
 11
0.590003937007874
 21
2.118555118110236
 31
0.0
 11
0.6106535433070867
 21
2.1044803149606297
 31
0.0
 11
0.6294055118110237
 21
2.0886850393700787
 31
0.0
 11
0.6462716535433071
 21
2.0715236220472439
 31
0.0
 11
0.6612834645669291
 21
2.0533779527559055
 31
0.0
 11
0.6744448818897638
 21
2.0345984251968505
 31
0.0
 11
0.6857913385826772
 21
2.0155708661417324
 31
0.0
 11
0.6953307086614173
 21
1.9966535433070867
 31
0.0
 11
0.7030984251968504
 21
1.978228346456693
 31
0.0
 11
0.7090984251968504
 21
1.9606496062992127
 31
0.0
 11
0.7133622047244095
 21
1.9442992125984251
 31
0.0
 11
0.7159055118110236
 21
1.9295393700787402
 31
0.0
  0
LINE
  5
26
100
AcDbEntity
  8
0
 62
     7
100
AcDbLine
 10
0.715906
 20
1.929539
 30
0.0
 11
0.716752
 21
1.91674
 31
0.0
  0
LINE
  5
27
100
AcDbEntity
  8
0
 62
     7
100
AcDbLine
 10
0.716752
 20
1.91674
 30
0.0
 11
0.718083
 21
1.735488
 31
0.0
  0
SPLINE
  5
28
100
AcDbEntity
  8
0
 62
     7
100
AcDbSpline
210
0.0
220
0.0
230
1.0
 70
     0
 71
     3
 72
     0
 73
     0
 74
    16
 44
0.0000000001
 11
0.7180826771653543
 21
1.735488188976378
 31
0.0
 11
0.6940472440944882
 21
1.7331299212598426
 31
0.0
 11
0.6710511811023622
 21
1.7283031496062993
 31
0.0
 11
0.6491535433070866
 21
1.7211574803149605
 31
0.0
 11
0.6284370078740158
 21
1.7118661417322836
 31
0.0
 11
0.6089606299212599
 21
1.7005708661417323
 31
0.0
 11
0.5908031496062992
 21
1.6874488188976378
 31
0.0
 11
0.5740314960629921
 21
1.6726535433070866
 31
0.0
 11
0.5587244094488189
 21
1.6563464566929134
 31
0.0
 11
0.5449330708661417
 21
1.6386732283464567
 31
0.0
 11
0.532751968503937
 21
1.6198149606299213
 31
0.0
 11
0.5222362204724409
 21
1.5999173228346457
 31
0.0
 11
0.5134685039370078
 21
1.5791535433070867
 31
0.0
 11
0.506503937007874
 21
1.5576653543307086
 31
0.0
 11
0.5014251968503937
 21
1.5356299212598425
 31
0.0
 11
0.4982992125984252
 21
1.5131929133858268
 31
0.0
  0
LINE
  5
29
100
AcDbEntity
  8
0
 62
     7
100
AcDbLine
 10
0.498299
 20
1.513193
 30
0.0
 11
0.497205
 21
1.490531
 31
0.0
  0
LINE
  5
2A
100
AcDbEntity
  8
0
 62
     7
100
AcDbLine
 10
0.497205
 20
1.490531
 30
0.0
 11
-0.233795
 21
1.489201
 31
0.0
  0
LINE
  5
2B
100
AcDbEntity
  8
0
 62
     7
100
AcDbLine
 10
-0.233795
 20
1.489201
 30
0.0
 11
-0.230799
 21
2.150154
 31
0.0
  0
MTEXT
  5
2C
100
AcDbEntity
  8
0
 62
     0
100
AcDbMText
 10
-0.604909
 20
1.579327
 30
0.0
 40
0.166665
 41
0.0
 71
     1
 72
     1
  1
{\fBookman Old Style|b0|i0|c0|p32;BA  1444}
 73
     1
 44
1.0
  0
MTEXT
  5
2D
100
AcDbEntity
  8
0
 62
     0
100
AcDbMText
 10
-0.604909
 20
1.391827
 30
0.0
 40
0.166665
 41
0.0
 71
     1
 72
     1
  1
{\fBookman Old Style|b0|i0|c0|p32;5/8" x 1"}
 73
     1
 44
1.0
  0
LINE
  5
2E
100
AcDbEntity
  8
0
 62
   253
100
AcDbLine
 10
-0.995811
 20
0.224114
 30
0.0
 11
-0.359563
 21
0.599244
 31
0.0
  0
LINE
  5
2F
100
AcDbEntity
  8
0
 62
   253
100
AcDbLine
 10
-0.359563
 20
0.599244
 30
0.0
 11
0.359197
 21
0.599244
 31
0.0
  0
LINE
  5
30
100
AcDbEntity
  8
0
 62
   253
100
AcDbLine
 10
0.359197
 20
0.599244
 30
0.0
 11
-0.277051
 21
0.224114
 31
0.0
  0
LINE
  5
31
100
AcDbEntity
  8
0
 62
   253
100
AcDbLine
 10
-0.277051
 20
0.224114
 30
0.0
 11
-0.995811
 21
0.224114
 31
0.0
  0
LWPOLYLINE
  5
32
100
AcDbEntity
  8
0
 62
     0
100
AcDbPolyline
 90
        2
 70
     0
 39
0.003
 10
-0.995811
 20
0.224114
 40
0.003
 41
0.003
 10
-0.359563
 20
0.599244
 40
0.003
 41
0.003
  0
LWPOLYLINE
  5
33
100
AcDbEntity
  8
0
 62
     0
100
AcDbPolyline
 90
        2
 70
     0
 39
0.003
 10
-0.359563
 20
0.599244
 40
0.003
 41
0.003
 10
0.359197
 20
0.599244
 40
0.003
 41
0.003
  0
LWPOLYLINE
  5
34
100
AcDbEntity
  8
0
 62
     0
100
AcDbPolyline
 90
        2
 70
     0
 39
0.003
 10
0.359197
 20
0.599244
 40
0.003
 41
0.003
 10
-0.277051
 20
0.224114
 40
0.003
 41
0.003
  0
LWPOLYLINE
  5
35
100
AcDbEntity
  8
0
 62
     0
100
AcDbPolyline
 90
        2
 70
     0
 39
0.003
 10
-0.277051
 20
0.224114
 40
0.003
 41
0.003
 10
-0.995811
 20
0.224114
 40
0.003
 41
0.003
  0
LWPOLYLINE
  5
36
100
AcDbEntity
  8
0
 62
   253
100
AcDbPolyline
 90
        2
 70
     0
 39
0.003
 10
-0.277051
 20
0.224114
 40
0.003
 41
0.003
 10
0.359197
 20
0.599244
 40
0.003
 41
0.003
  0
LWPOLYLINE
  5
37
100
AcDbEntity
  8
0
 62
   253
100
AcDbPolyline
 90
        2
 70
     0
 39
0.003
 10
0.359197
 20
0.599244
 40
0.003
 41
0.003
 10
0.373673
 20
0.597933
 40
0.003
 41
0.003
  0
LWPOLYLINE
  5
38
100
AcDbEntity
  8
0
 62
   253
100
AcDbPolyline
 90
        2
 70
     0
 39
0.003
 10
0.373673
 20
0.597933
 40
0.003
 41
0.003
 10
-0.262575
 20
0.222803
 40
0.003
 41
0.003
  0
LWPOLYLINE
  5
39
100
AcDbEntity
  8
0
 62
   253
100
AcDbPolyline
 90
        2
 70
     0
 39
0.003
 10
-0.262575
 20
0.222803
 40
0.003
 41
0.003
 10
-0.277051
 20
0.224114
 40
0.003
 41
0.003
  0
LWPOLYLINE
  5
3A
100
AcDbEntity
  8
0
 62
     9
100
AcDbPolyline
 90
        2
 70
     0
 39
0.003
 10
-0.262575
 20
0.222803
 40
0.003
 41
0.003
 10
0.373673
 20
0.597933
 40
0.003
 41
0.003
  0
LWPOLYLINE
  5
3B
100
AcDbEntity
  8
0
 62
     9
100
AcDbPolyline
 90
        2
 70
     0
 39
0.003
 10
0.373673
 20
0.597933
 40
0.003
 41
0.003
 10
0.387657
 20
0.59578
 40
0.003
 41
0.003
  0
LWPOLYLINE
  5
3C
100
AcDbEntity
  8
0
 62
     9
100
AcDbPolyline
 90
        2
 70
     0
 39
0.003
 10
0.387657
 20
0.59578
 40
0.003
 41
0.003
 10
-0.248591
 20
0.22065
 40
0.003
 41
0.003
  0
LWPOLYLINE
  5
3D
100
AcDbEntity
  8
0
 62
     9
100
AcDbPolyline
 90
        2
 70
     0
 39
0.003
 10
-0.248591
 20
0.22065
 40
0.003
 41
0.003
 10
-0.262575
 20
0.222803
 40
0.003
 41
0.003
  0
LWPOLYLINE
  5
3E
100
AcDbEntity
  8
0
 62
     9
100
AcDbPolyline
 90
        2
 70
     0
 39
0.003
 10
-0.248591
 20
0.22065
 40
0.003
 41
0.003
 10
0.387657
 20
0.59578
 40
0.003
 41
0.003
  0
LWPOLYLINE
  5
3F
100
AcDbEntity
  8
0
 62
     9
100
AcDbPolyline
 90
        2
 70
     0
 39
0.003
 10
0.387657
 20
0.59578
 40
0.003
 41
0.003
 10
0.401146
 20
0.592823
 40
0.003
 41
0.003
  0
LWPOLYLINE
  5
40
100
AcDbEntity
  8
0
 62
     9
100
AcDbPolyline
 90
        2
 70
     0
 39
0.003
 10
0.401146
 20
0.592823
 40
0.003
 41
0.003
 10
-0.235102
 20
0.217693
 40
0.003
 41
0.003
  0
LWPOLYLINE
  5
41
100
AcDbEntity
  8
0
 62
     9
100
AcDbPolyline
 90
        2
 70
     0
 39
0.003
 10
-0.235102
 20
0.217693
 40
0.003
 41
0.003
 10
-0.248591
 20
0.22065
 40
0.003
 41
0.003
  0
LWPOLYLINE
  5
42
100
AcDbEntity
  8
0
 62
     9
100
AcDbPolyline
 90
        2
 70
     0
 39
0.003
 10
-0.235102
 20
0.217693
 40
0.003
 41
0.003
 10
0.401146
 20
0.592823
 40
0.003
 41
0.003
  0
LWPOLYLINE
  5
43
100
AcDbEntity
  8
0
 62
     9
100
AcDbPolyline
 90
        2
 70
     0
 39
0.003
 10
0.401146
 20
0.592823
 40
0.003
 41
0.003
 10
0.414142
 20
0.589114
 40
0.003
 41
0.003
  0
LWPOLYLINE
  5
44
100
AcDbEntity
  8
0
 62
     9
100
AcDbPolyline
 90
        2
 70
     0
 39
0.003
 10
0.414142
 20
0.589114
 40
0.003
 41
0.003
 10
-0.222106
 20
0.213984
 40
0.003
 41
0.003
  0
LWPOLYLINE
  5
45
100
AcDbEntity
  8
0
 62
     9
100
AcDbPolyline
 90
        2
 70
     0
 39
0.003
 10
-0.222106
 20
0.213984
 40
0.003
 41
0.003
 10
-0.235102
 20
0.217693
 40
0.003
 41
0.003
  0
LWPOLYLINE
  5
46
100
AcDbEntity
  8
0
 62
     9
100
AcDbPolyline
 90
        2
 70
     0
 39
0.003
 10
-0.222106
 20
0.213984
 40
0.003
 41
0.003
 10
0.414142
 20
0.589114
 40
0.003
 41
0.003
  0
LWPOLYLINE
  5
47
100
AcDbEntity
  8
0
 62
     9
100
AcDbPolyline
 90
        2
 70
     0
 39
0.003
 10
0.414142
 20
0.589114
 40
0.003
 41
0.003
 10
0.426642
 20
0.584693
 40
0.003
 41
0.003
  0
LWPOLYLINE
  5
48
100
AcDbEntity
  8
0
 62
     9
100
AcDbPolyline
 90
        2
 70
     0
 39
0.003
 10
0.426642
 20
0.584693
 40
0.003
 41
0.003
 10
-0.209606
 20
0.209563
 40
0.003
 41
0.003
  0
LWPOLYLINE
  5
49
100
AcDbEntity
  8
0
 62
     9
100
AcDbPolyline
 90
        2
 70
     0
 39
0.003
 10
-0.209606
 20
0.209563
 40
0.003
 41
0.003
 10
-0.222106
 20
0.213984
 40
0.003
 41
0.003
  0
LWPOLYLINE
  5
4A
100
AcDbEntity
  8
0
 62
     9
100
AcDbPolyline
 90
        2
 70
     0
 39
0.003
 10
-0.209606
 20
0.209563
 40
0.003
 41
0.003
 10
0.426642
 20
0.584693
 40
0.003
 41
0.003
  0
LWPOLYLINE
  5
4B
100
AcDbEntity
  8
0
 62
     9
100
AcDbPolyline
 90
        2
 70
     0
 39
0.003
 10
0.426642
 20
0.584693
 40
0.003
 41
0.003
 10
0.438657
 20
0.57961
 40
0.003
 41
0.003
  0
LWPOLYLINE
  5
4C
100
AcDbEntity
  8
0
 62
     9
100
AcDbPolyline
 90
        2
 70
     0
 39
0.003
 10
0.438657
 20
0.57961
 40
0.003
 41
0.003
 10
-0.197591
 20
0.20448
 40
0.003
 41
0.003
  0
LWPOLYLINE
  5
4D
100
AcDbEntity
  8
0
 62
     9
100
AcDbPolyline
 90
        2
 70
     0
 39
0.003
 10
-0.197591
 20
0.20448
 40
0.003
 41
0.003
 10
-0.209606
 20
0.209563
 40
0.003
 41
0.003
  0
LWPOLYLINE
  5
4E
100
AcDbEntity
  8
0
 62
     9
100
AcDbPolyline
 90
        2
 70
     0
 39
0.003
 10
-0.197591
 20
0.20448
 40
0.003
 41
0.003
 10
0.438657
 20
0.57961
 40
0.003
 41
0.003
  0
LWPOLYLINE
  5
4F
100
AcDbEntity
  8
0
 62
     9
100
AcDbPolyline
 90
        2
 70
     0
 39
0.003
 10
0.438657
 20
0.57961
 40
0.003
 41
0.003
 10
0.450189
 20
0.573909
 40
0.003
 41
0.003
  0
LWPOLYLINE
  5
50
100
AcDbEntity
  8
0
 62
     9
100
AcDbPolyline
 90
        2
 70
     0
 39
0.003
 10
0.450189
 20
0.573909
 40
0.003
 41
0.003
 10
-0.186059
 20
0.19878
 40
0.003
 41
0.003
  0
LWPOLYLINE
  5
51
100
AcDbEntity
  8
0
 62
     9
100
AcDbPolyline
 90
        2
 70
     0
 39
0.003
 10
-0.186059
 20
0.19878
 40
0.003
 41
0.003
 10
-0.197591
 20
0.20448
 40
0.003
 41
0.003
  0
LWPOLYLINE
  5
52
100
AcDbEntity
  8
0
 62
   254
100
AcDbPolyline
 90
        2
 70
     0
 39
0.003
 10
-0.186059
 20
0.19878
 40
0.003
 41
0.003
 10
0.450189
 20
0.573909
 40
0.003
 41
0.003
  0
LWPOLYLINE
  5
53
100
AcDbEntity
  8
0
 62
   254
100
AcDbPolyline
 90
        2
 70
     0
 39
0.003
 10
0.450189
 20
0.573909
 40
0.003
 41
0.003
 10
0.46124
 20
0.567646
 40
0.003
 41
0.003
  0
LWPOLYLINE
  5
54
100
AcDbEntity
  8
0
 62
   254
100
AcDbPolyline
 90
        2
 70
     0
 39
0.003
 10
0.46124
 20
0.567646
 40
0.003
 41
0.003
 10
-0.175008
 20
0.192516
 40
0.003
 41
0.003
  0
LWPOLYLINE
  5
55
100
AcDbEntity
  8
0
 62
   254
100
AcDbPolyline
 90
        2
 70
     0
 39
0.003
 10
-0.175008
 20
0.192516
 40
0.003
 41
0.003
 10
-0.186059
 20
0.19878
 40
0.003
 41
0.003
  0
LWPOLYLINE
  5
56
100
AcDbEntity
  8
0
 62
   254
100
AcDbPolyline
 90
        2
 70
     0
 39
0.003
 10
-0.175008
 20
0.192516
 40
0.003
 41
0.003
 10
0.46124
 20
0.567646
 40
0.003
 41
0.003
  0
LWPOLYLINE
  5
57
100
AcDbEntity
  8
0
 62
   254
100
AcDbPolyline
 90
        2
 70
     0
 39
0.003
 10
0.46124
 20
0.567646
 40
0.003
 41
0.003
 10
0.471799
 20
0.560843
 40
0.003
 41
0.003
  0
LWPOLYLINE
  5
58
100
AcDbEntity
  8
0
 62
   254
100
AcDbPolyline
 90
        2
 70
     0
 39
0.003
 10
0.471799
 20
0.560843
 40
0.003
 41
0.003
 10
-0.164449
 20
0.185713
 40
0.003
 41
0.003
  0
LWPOLYLINE
  5
59
100
AcDbEntity
  8
0
 62
   254
100
AcDbPolyline
 90
        2
 70
     0
 39
0.003
 10
-0.164449
 20
0.185713
 40
0.003
 41
0.003
 10
-0.175008
 20
0.192516
 40
0.003
 41
0.003
  0
LWPOLYLINE
  5
5A
100
AcDbEntity
  8
0
 62
   254
100
AcDbPolyline
 90
        2
 70
     0
 39
0.003
 10
-0.164449
 20
0.185713
 40
0.003
 41
0.003
 10
0.471799
 20
0.560843
 40
0.003
 41
0.003
  0
LWPOLYLINE
  5
5B
100
AcDbEntity
  8
0
 62
   254
100
AcDbPolyline
 90
        2
 70
     0
 39
0.003
 10
0.471799
 20
0.560843
 40
0.003
 41
0.003
 10
0.48189
 20
0.553571
 40
0.003
 41
0.003
  0
LWPOLYLINE
  5
5C
100
AcDbEntity
  8
0
 62
   254
100
AcDbPolyline
 90
        2
 70
     0
 39
0.003
 10
0.48189
 20
0.553571
 40
0.003
 41
0.003
 10
-0.154358
 20
0.178441
 40
0.003
 41
0.003
  0
LWPOLYLINE
  5
5D
100
AcDbEntity
  8
0
 62
   254
100
AcDbPolyline
 90
        2
 70
     0
 39
0.003
 10
-0.154358
 20
0.178441
 40
0.003
 41
0.003
 10
-0.164449
 20
0.185713
 40
0.003
 41
0.003
  0
LWPOLYLINE
  5
5E
100
AcDbEntity
  8
0
 62
   254
100
AcDbPolyline
 90
        2
 70
     0
 39
0.003
 10
-0.154358
 20
0.178441
 40
0.003
 41
0.003
 10
0.48189
 20
0.553571
 40
0.003
 41
0.003
  0
LWPOLYLINE
  5
5F
100
AcDbEntity
  8
0
 62
   254
100
AcDbPolyline
 90
        2
 70
     0
 39
0.003
 10
0.48189
 20
0.553571
 40
0.003
 41
0.003
 10
0.4915
 20
0.545862
 40
0.003
 41
0.003
  0
LWPOLYLINE
  5
60
100
AcDbEntity
  8
0
 62
   254
100
AcDbPolyline
 90
        2
 70
     0
 39
0.003
 10
0.4915
 20
0.545862
 40
0.003
 41
0.003
 10
-0.144748
 20
0.170732
 40
0.003
 41
0.003
  0
LWPOLYLINE
  5
61
100
AcDbEntity
  8
0
 62
   254
100
AcDbPolyline
 90
        2
 70
     0
 39
0.003
 10
-0.144748
 20
0.170732
 40
0.003
 41
0.003
 10
-0.154358
 20
0.178441
 40
0.003
 41
0.003
  0
LWPOLYLINE
  5
62
100
AcDbEntity
  8
0
 62
   254
100
AcDbPolyline
 90
        2
 70
     0
 39
0.003
 10
-0.144748
 20
0.170732
 40
0.003
 41
0.003
 10
0.4915
 20
0.545862
 40
0.003
 41
0.003
  0
LWPOLYLINE
  5
63
100
AcDbEntity
  8
0
 62
   254
100
AcDbPolyline
 90
        2
 70
     0
 39
0.003
 10
0.4915
 20
0.545862
 40
0.003
 41
0.003
 10
0.500642
 20
0.537776
 40
0.003
 41
0.003
  0
LWPOLYLINE
  5
64
100
AcDbEntity
  8
0
 62
   254
100
AcDbPolyline
 90
        2
 70
     0
 39
0.003
 10
0.500642
 20
0.537776
 40
0.003
 41
0.003
 10
-0.135606
 20
0.162646
 40
0.003
 41
0.003
  0
LWPOLYLINE
  5
65
100
AcDbEntity
  8
0
 62
   254
100
AcDbPolyline
 90
        2
 70
     0
 39
0.003
 10
-0.135606
 20
0.162646
 40
0.003
 41
0.003
 10
-0.144748
 20
0.170732
 40
0.003
 41
0.003
  0
LWPOLYLINE
  5
66
100
AcDbEntity
  8
0
 62
   254
100
AcDbPolyline
 90
        2
 70
     0
 39
0.003
 10
-0.135606
 20
0.162646
 40
0.003
 41
0.003
 10
0.500642
 20
0.537776
 40
0.003
 41
0.003
  0
LWPOLYLINE
  5
67
100
AcDbEntity
  8
0
 62
   254
100
AcDbPolyline
 90
        2
 70
     0
 39
0.003
 10
0.500642
 20
0.537776
 40
0.003
 41
0.003
 10
0.509307
 20
0.529339
 40
0.003
 41
0.003
  0
LWPOLYLINE
  5
68
100
AcDbEntity
  8
0
 62
   254
100
AcDbPolyline
 90
        2
 70
     0
 39
0.003
 10
0.509307
 20
0.529339
 40
0.003
 41
0.003
 10
-0.126941
 20
0.154209
 40
0.003
 41
0.003
  0
LWPOLYLINE
  5
69
100
AcDbEntity
  8
0
 62
   254
100
AcDbPolyline
 90
        2
 70
     0
 39
0.003
 10
-0.126941
 20
0.154209
 40
0.003
 41
0.003
 10
-0.135606
 20
0.162646
 40
0.003
 41
0.003
  0
LWPOLYLINE
  5
6A
100
AcDbEntity
  8
0
 62
   254
100
AcDbPolyline
 90
        2
 70
     0
 39
0.003
 10
-0.126941
 20
0.154209
 40
0.003
 41
0.003
 10
0.509307
 20
0.529339
 40
0.003
 41
0.003
  0
LWPOLYLINE
  5
6B
100
AcDbEntity
  8
0
 62
   254
100
AcDbPolyline
 90
        2
 70
     0
 39
0.003
 10
0.509307
 20
0.529339
 40
0.003
 41
0.003
 10
0.517508
 20
0.520614
 40
0.003
 41
0.003
  0
LWPOLYLINE
  5
6C
100
AcDbEntity
  8
0
 62
   254
100
AcDbPolyline
 90
        2
 70
     0
 39
0.003
 10
0.517508
 20
0.520614
 40
0.003
 41
0.003
 10
-0.11874
 20
0.145484
 40
0.003
 41
0.003
  0
LWPOLYLINE
  5
6D
100
AcDbEntity
  8
0
 62
   254
100
AcDbPolyline
 90
        2
 70
     0
 39
0.003
 10
-0.11874
 20
0.145484
 40
0.003
 41
0.003
 10
-0.126941
 20
0.154209
 40
0.003
 41
0.003
  0
LWPOLYLINE
  5
6E
100
AcDbEntity
  8
0
 62
   254
100
AcDbPolyline
 90
        2
 70
     0
 39
0.003
 10
-0.11874
 20
0.145484
 40
0.003
 41
0.003
 10
0.517508
 20
0.520614
 40
0.003
 41
0.003
  0
LWPOLYLINE
  5
6F
100
AcDbEntity
  8
0
 62
   254
100
AcDbPolyline
 90
        2
 70
     0
 39
0.003
 10
0.517508
 20
0.520614
 40
0.003
 41
0.003
 10
0.52524
 20
0.511638
 40
0.003
 41
0.003
  0
LWPOLYLINE
  5
70
100
AcDbEntity
  8
0
 62
   254
100
AcDbPolyline
 90
        2
 70
     0
 39
0.003
 10
0.52524
 20
0.511638
 40
0.003
 41
0.003
 10
-0.111008
 20
0.136508
 40
0.003
 41
0.003
  0
LWPOLYLINE
  5
71
100
AcDbEntity
  8
0
 62
   254
100
AcDbPolyline
 90
        2
 70
     0
 39
0.003
 10
-0.111008
 20
0.136508
 40
0.003
 41
0.003
 10
-0.11874
 20
0.145484
 40
0.003
 41
0.003
  0
LWPOLYLINE
  5
72
100
AcDbEntity
  8
0
 62
   254
100
AcDbPolyline
 90
        2
 70
     0
 39
0.003
 10
-0.111008
 20
0.136508
 40
0.003
 41
0.003
 10
0.52524
 20
0.511638
 40
0.003
 41
0.003
  0
LWPOLYLINE
  5
73
100
AcDbEntity
  8
0
 62
   254
100
AcDbPolyline
 90
        2
 70
     0
 39
0.003
 10
0.52524
 20
0.511638
 40
0.003
 41
0.003
 10
0.53252
 20
0.502469
 40
0.003
 41
0.003
  0
LWPOLYLINE
  5
74
100
AcDbEntity
  8
0
 62
   254
100
AcDbPolyline
 90
        2
 70
     0
 39
0.003
 10
0.53252
 20
0.502469
 40
0.003
 41
0.003
 10
-0.103728
 20
0.127339
 40
0.003
 41
0.003
  0
LWPOLYLINE
  5
75
100
AcDbEntity
  8
0
 62
   254
100
AcDbPolyline
 90
        2
 70
     0
 39
0.003
 10
-0.103728
 20
0.127339
 40
0.003
 41
0.003
 10
-0.111008
 20
0.136508
 40
0.003
 41
0.003
  0
LWPOLYLINE
  5
76
100
AcDbEntity
  8
0
 62
   254
100
AcDbPolyline
 90
        2
 70
     0
 39
0.003
 10
-0.103728
 20
0.127339
 40
0.003
 41
0.003
 10
0.53252
 20
0.502469
 40
0.003
 41
0.003
  0
LWPOLYLINE
  5
77
100
AcDbEntity
  8
0
 62
   254
100
AcDbPolyline
 90
        2
 70
     0
 39
0.003
 10
0.53252
 20
0.502469
 40
0.003
 41
0.003
 10
0.539327
 20
0.49313
 40
0.003
 41
0.003
  0
LWPOLYLINE
  5
78
100
AcDbEntity
  8
0
 62
   254
100
AcDbPolyline
 90
        2
 70
     0
 39
0.003
 10
0.539327
 20
0.49313
 40
0.003
 41
0.003
 10
-0.096921
 20
0.118
 40
0.003
 41
0.003
  0
LWPOLYLINE
  5
79
100
AcDbEntity
  8
0
 62
   254
100
AcDbPolyline
 90
        2
 70
     0
 39
0.003
 10
-0.096921
 20
0.118
 40
0.003
 41
0.003
 10
-0.103728
 20
0.127339
 40
0.003
 41
0.003
  0
LWPOLYLINE
  5
7A
100
AcDbEntity
  8
0
 62
   254
100
AcDbPolyline
 90
        2
 70
     0
 39
0.003
 10
-0.096921
 20
0.118
 40
0.003
 41
0.003
 10
0.539327
 20
0.49313
 40
0.003
 41
0.003
  0
LWPOLYLINE
  5
7B
100
AcDbEntity
  8
0
 62
   254
100
AcDbPolyline
 90
        2
 70
     0
 39
0.003
 10
0.539327
 20
0.49313
 40
0.003
 41
0.003
 10
0.545681
 20
0.483689
 40
0.003
 41
0.003
  0
LWPOLYLINE
  5
7C
100
AcDbEntity
  8
0
 62
   254
100
AcDbPolyline
 90
        2
 70
     0
 39
0.003
 10
0.545681
 20
0.483689
 40
0.003
 41
0.003
 10
-0.090567
 20
0.108559
 40
0.003
 41
0.003
  0
LWPOLYLINE
  5
7D
100
AcDbEntity
  8
0
 62
   254
100
AcDbPolyline
 90
        2
 70
     0
 39
0.003
 10
-0.090567
 20
0.108559
 40
0.003
 41
0.003
 10
-0.096921
 20
0.118
 40
0.003
 41
0.003
  0
LWPOLYLINE
  5
7E
100
AcDbEntity
  8
0
 62
   254
100
AcDbPolyline
 90
        2
 70
     0
 39
0.003
 10
-0.090567
 20
0.108559
 40
0.003
 41
0.003
 10
0.545681
 20
0.483689
 40
0.003
 41
0.003
  0
LWPOLYLINE
  5
7F
100
AcDbEntity
  8
0
 62
   254
100
AcDbPolyline
 90
        2
 70
     0
 39
0.003
 10
0.545681
 20
0.483689
 40
0.003
 41
0.003
 10
0.551575
 20
0.474181
 40
0.003
 41
0.003
  0
LWPOLYLINE
  5
80
100
AcDbEntity
  8
0
 62
   254
100
AcDbPolyline
 90
        2
 70
     0
 39
0.003
 10
0.551575
 20
0.474181
 40
0.003
 41
0.003
 10
-0.084673
 20
0.099051
 40
0.003
 41
0.003
  0
LWPOLYLINE
  5
81
100
AcDbEntity
  8
0
 62
   254
100
AcDbPolyline
 90
        2
 70
     0
 39
0.003
 10
-0.084673
 20
0.099051
 40
0.003
 41
0.003
 10
-0.090567
 20
0.108559
 40
0.003
 41
0.003
  0
LWPOLYLINE
  5
82
100
AcDbEntity
  8
0
 62
   254
100
AcDbPolyline
 90
        2
 70
     0
 39
0.003
 10
-0.084673
 20
0.099051
 40
0.003
 41
0.003
 10
0.551575
 20
0.474181
 40
0.003
 41
0.003
  0
LWPOLYLINE
  5
83
100
AcDbEntity
  8
0
 62
   254
100
AcDbPolyline
 90
        2
 70
     0
 39
0.003
 10
0.551575
 20
0.474181
 40
0.003
 41
0.003
 10
0.557028
 20
0.464661
 40
0.003
 41
0.003
  0
LWPOLYLINE
  5
84
100
AcDbEntity
  8
0
 62
   254
100
AcDbPolyline
 90
        2
 70
     0
 39
0.003
 10
0.557028
 20
0.464661
 40
0.003
 41
0.003
 10
-0.07922
 20
0.089531
 40
0.003
 41
0.003
  0
LWPOLYLINE
  5
85
100
AcDbEntity
  8
0
 62
   254
100
AcDbPolyline
 90
        2
 70
     0
 39
0.003
 10
-0.07922
 20
0.089531
 40
0.003
 41
0.003
 10
-0.084673
 20
0.099051
 40
0.003
 41
0.003
  0
LWPOLYLINE
  5
86
100
AcDbEntity
  8
0
 62
   254
100
AcDbPolyline
 90
        2
 70
     0
 39
0.003
 10
-0.07922
 20
0.089531
 40
0.003
 41
0.003
 10
0.557028
 20
0.464661
 40
0.003
 41
0.003
  0
LWPOLYLINE
  5
87
100
AcDbEntity
  8
0
 62
   254
100
AcDbPolyline
 90
        2
 70
     0
 39
0.003
 10
0.557028
 20
0.464661
 40
0.003
 41
0.003
 10
0.56202
 20
0.455161
 40
0.003
 41
0.003
  0
LWPOLYLINE
  5
88
100
AcDbEntity
  8
0
 62
   254
100
AcDbPolyline
 90
        2
 70
     0
 39
0.003
 10
0.56202
 20
0.455161
 40
0.003
 41
0.003
 10
-0.074228
 20
0.080031
 40
0.003
 41
0.003
  0
LWPOLYLINE
  5
89
100
AcDbEntity
  8
0
 62
   254
100
AcDbPolyline
 90
        2
 70
     0
 39
0.003
 10
-0.074228
 20
0.080031
 40
0.003
 41
0.003
 10
-0.07922
 20
0.089531
 40
0.003
 41
0.003
  0
LWPOLYLINE
  5
8A
100
AcDbEntity
  8
0
 62
   254
100
AcDbPolyline
 90
        2
 70
     0
 39
0.003
 10
-0.074228
 20
0.080031
 40
0.003
 41
0.003
 10
0.56202
 20
0.455161
 40
0.003
 41
0.003
  0
LWPOLYLINE
  5
8B
100
AcDbEntity
  8
0
 62
   254
100
AcDbPolyline
 90
        2
 70
     0
 39
0.003
 10
0.56202
 20
0.455161
 40
0.003
 41
0.003
 10
0.566567
 20
0.445744
 40
0.003
 41
0.003
  0
LWPOLYLINE
  5
8C
100
AcDbEntity
  8
0
 62
   254
100
AcDbPolyline
 90
        2
 70
     0
 39
0.003
 10
0.566567
 20
0.445744
 40
0.003
 41
0.003
 10
-0.069681
 20
0.070614
 40
0.003
 41
0.003
  0
LWPOLYLINE
  5
8D
100
AcDbEntity
  8
0
 62
   254
100
AcDbPolyline
 90
        2
 70
     0
 39
0.003
 10
-0.069681
 20
0.070614
 40
0.003
 41
0.003
 10
-0.074228
 20
0.080031
 40
0.003
 41
0.003
  0
LWPOLYLINE
  5
8E
100
AcDbEntity
  8
0
 62
   254
100
AcDbPolyline
 90
        2
 70
     0
 39
0.003
 10
-0.069681
 20
0.070614
 40
0.003
 41
0.003
 10
0.566567
 20
0.445744
 40
0.003
 41
0.003
  0
LWPOLYLINE
  5
8F
100
AcDbEntity
  8
0
 62
   254
100
AcDbPolyline
 90
        2
 70
     0
 39
0.003
 10
0.566567
 20
0.445744
 40
0.003
 41
0.003
 10
0.570669
 20
0.436445
 40
0.003
 41
0.003
  0
LWPOLYLINE
  5
90
100
AcDbEntity
  8
0
 62
   254
100
AcDbPolyline
 90
        2
 70
     0
 39
0.003
 10
0.570669
 20
0.436445
 40
0.003
 41
0.003
 10
-0.065579
 20
0.061315
 40
0.003
 41
0.003
  0
LWPOLYLINE
  5
91
100
AcDbEntity
  8
0
 62
   254
100
AcDbPolyline
 90
        2
 70
     0
 39
0.003
 10
-0.065579
 20
0.061315
 40
0.003
 41
0.003
 10
-0.069681
 20
0.070614
 40
0.003
 41
0.003
  0
LWPOLYLINE
  5
92
100
AcDbEntity
  8
0
 62
   254
100
AcDbPolyline
 90
        2
 70
     0
 39
0.003
 10
-0.065579
 20
0.061315
 40
0.003
 41
0.003
 10
0.570669
 20
0.436445
 40
0.003
 41
0.003
  0
LWPOLYLINE
  5
93
100
AcDbEntity
  8
0
 62
   254
100
AcDbPolyline
 90
        2
 70
     0
 39
0.003
 10
0.570669
 20
0.436445
 40
0.003
 41
0.003
 10
0.574335
 20
0.427319
 40
0.003
 41
0.003
  0
LWPOLYLINE
  5
94
100
AcDbEntity
  8
0
 62
   254
100
AcDbPolyline
 90
        2
 70
     0
 39
0.003
 10
0.574335
 20
0.427319
 40
0.003
 41
0.003
 10
-0.061913
 20
0.052189
 40
0.003
 41
0.003
  0
LWPOLYLINE
  5
95
100
AcDbEntity
  8
0
 62
   254
100
AcDbPolyline
 90
        2
 70
     0
 39
0.003
 10
-0.061913
 20
0.052189
 40
0.003
 41
0.003
 10
-0.065579
 20
0.061315
 40
0.003
 41
0.003
  0
LWPOLYLINE
  5
96
100
AcDbEntity
  8
0
 62
   254
100
AcDbPolyline
 90
        2
 70
     0
 39
0.003
 10
-0.061913
 20
0.052189
 40
0.003
 41
0.003
 10
0.574335
 20
0.427319
 40
0.003
 41
0.003
  0
LWPOLYLINE
  5
97
100
AcDbEntity
  8
0
 62
   254
100
AcDbPolyline
 90
        2
 70
     0
 39
0.003
 10
0.574335
 20
0.427319
 40
0.003
 41
0.003
 10
0.577551
 20
0.418398
 40
0.003
 41
0.003
  0
LWPOLYLINE
  5
98
100
AcDbEntity
  8
0
 62
   254
100
AcDbPolyline
 90
        2
 70
     0
 39
0.003
 10
0.577551
 20
0.418398
 40
0.003
 41
0.003
 10
-0.058697
 20
0.043268
 40
0.003
 41
0.003
  0
LWPOLYLINE
  5
99
100
AcDbEntity
  8
0
 62
   254
100
AcDbPolyline
 90
        2
 70
     0
 39
0.003
 10
-0.058697
 20
0.043268
 40
0.003
 41
0.003
 10
-0.061913
 20
0.052189
 40
0.003
 41
0.003
  0
LWPOLYLINE
  5
9A
100
AcDbEntity
  8
0
 62
   254
100
AcDbPolyline
 90
        2
 70
     0
 39
0.003
 10
-0.058697
 20
0.043268
 40
0.003
 41
0.003
 10
0.577551
 20
0.418398
 40
0.003
 41
0.003
  0
LWPOLYLINE
  5
9B
100
AcDbEntity
  8
0
 62
   254
100
AcDbPolyline
 90
        2
 70
     0
 39
0.003
 10
0.577551
 20
0.418398
 40
0.003
 41
0.003
 10
0.580335
 20
0.40974
 40
0.003
 41
0.003
  0
LWPOLYLINE
  5
9C
100
AcDbEntity
  8
0
 62
   254
100
AcDbPolyline
 90
        2
 70
     0
 39
0.003
 10
0.580335
 20
0.40974
 40
0.003
 41
0.003
 10
-0.055913
 20
0.03461
 40
0.003
 41
0.003
  0
LWPOLYLINE
  5
9D
100
AcDbEntity
  8
0
 62
   254
100
AcDbPolyline
 90
        2
 70
     0
 39
0.003
 10
-0.055913
 20
0.03461
 40
0.003
 41
0.003
 10
-0.058697
 20
0.043268
 40
0.003
 41
0.003
  0
LWPOLYLINE
  5
9E
100
AcDbEntity
  8
0
 62
   254
100
AcDbPolyline
 90
        2
 70
     0
 39
0.003
 10
-0.055913
 20
0.03461
 40
0.003
 41
0.003
 10
0.580335
 20
0.40974
 40
0.003
 41
0.003
  0
LWPOLYLINE
  5
9F
100
AcDbEntity
  8
0
 62
   254
100
AcDbPolyline
 90
        2
 70
     0
 39
0.003
 10
0.580335
 20
0.40974
 40
0.003
 41
0.003
 10
0.582677
 20
0.401386
 40
0.003
 41
0.003
  0
LWPOLYLINE
  5
A0
100
AcDbEntity
  8
0
 62
   254
100
AcDbPolyline
 90
        2
 70
     0
 39
0.003
 10
0.582677
 20
0.401386
 40
0.003
 41
0.003
 10
-0.053571
 20
0.026256
 40
0.003
 41
0.003
  0
LWPOLYLINE
  5
A1
100
AcDbEntity
  8
0
 62
   254
100
AcDbPolyline
 90
        2
 70
     0
 39
0.003
 10
-0.053571
 20
0.026256
 40
0.003
 41
0.003
 10
-0.055913
 20
0.03461
 40
0.003
 41
0.003
  0
LWPOLYLINE
  5
A2
100
AcDbEntity
  8
0
 62
   254
100
AcDbPolyline
 90
        2
 70
     0
 39
0.003
 10
-0.053571
 20
0.026256
 40
0.003
 41
0.003
 10
0.582677
 20
0.401386
 40
0.003
 41
0.003
  0
LWPOLYLINE
  5
A3
100
AcDbEntity
  8
0
 62
   254
100
AcDbPolyline
 90
        2
 70
     0
 39
0.003
 10
0.582677
 20
0.401386
 40
0.003
 41
0.003
 10
0.584598
 20
0.39339
 40
0.003
 41
0.003
  0
LWPOLYLINE
  5
A4
100
AcDbEntity
  8
0
 62
   254
100
AcDbPolyline
 90
        2
 70
     0
 39
0.003
 10
0.584598
 20
0.39339
 40
0.003
 41
0.003
 10
-0.05165
 20
0.01826
 40
0.003
 41
0.003
  0
LWPOLYLINE
  5
A5
100
AcDbEntity
  8
0
 62
   254
100
AcDbPolyline
 90
        2
 70
     0
 39
0.003
 10
-0.05165
 20
0.01826
 40
0.003
 41
0.003
 10
-0.053571
 20
0.026256
 40
0.003
 41
0.003
  0
LWPOLYLINE
  5
A6
100
AcDbEntity
  8
0
 62
   254
100
AcDbPolyline
 90
        2
 70
     0
 39
0.003
 10
-0.05165
 20
0.01826
 40
0.003
 41
0.003
 10
0.584598
 20
0.39339
 40
0.003
 41
0.003
  0
LWPOLYLINE
  5
A7
100
AcDbEntity
  8
0
 62
   254
100
AcDbPolyline
 90
        2
 70
     0
 39
0.003
 10
0.584598
 20
0.39339
 40
0.003
 41
0.003
 10
0.586079
 20
0.385783
 40
0.003
 41
0.003
  0
LWPOLYLINE
  5
A8
100
AcDbEntity
  8
0
 62
   254
100
AcDbPolyline
 90
        2
 70
     0
 39
0.003
 10
0.586079
 20
0.385783
 40
0.003
 41
0.003
 10
-0.050169
 20
0.010654
 40
0.003
 41
0.003
  0
LWPOLYLINE
  5
A9
100
AcDbEntity
  8
0
 62
   254
100
AcDbPolyline
 90
        2
 70
     0
 39
0.003
 10
-0.050169
 20
0.010654
 40
0.003
 41
0.003
 10
-0.05165
 20
0.01826
 40
0.003
 41
0.003
  0
LWPOLYLINE
  5
AA
100
AcDbEntity
  8
0
 62
   254
100
AcDbPolyline
 90
        2
 70
     0
 39
0.003
 10
-0.050169
 20
0.010654
 40
0.003
 41
0.003
 10
0.586079
 20
0.385783
 40
0.003
 41
0.003
  0
LWPOLYLINE
  5
AB
100
AcDbEntity
  8
0
 62
   254
100
AcDbPolyline
 90
        2
 70
     0
 39
0.003
 10
0.586079
 20
0.385783
 40
0.003
 41
0.003
 10
0.587142
 20
0.37863
 40
0.003
 41
0.003
  0
LWPOLYLINE
  5
AC
100
AcDbEntity
  8
0
 62
   254
100
AcDbPolyline
 90
        2
 70
     0
 39
0.003
 10
0.587142
 20
0.37863
 40
0.003
 41
0.003
 10
-0.049106
 20
0.0035
 40
0.003
 41
0.003
  0
LWPOLYLINE
  5
AD
100
AcDbEntity
  8
0
 62
   254
100
AcDbPolyline
 90
        2
 70
     0
 39
0.003
 10
-0.049106
 20
0.0035
 40
0.003
 41
0.003
 10
-0.050169
 20
0.010654
 40
0.003
 41
0.003
  0
LWPOLYLINE
  5
AE
100
AcDbEntity
  8
0
 62
   254
100
AcDbPolyline
 90
        2
 70
     0
 39
0.003
 10
-0.049106
 20
0.0035
 40
0.003
 41
0.003
 10
0.587142
 20
0.37863
 40
0.003
 41
0.003
  0
LWPOLYLINE
  5
AF
100
AcDbEntity
  8
0
 62
   254
100
AcDbPolyline
 90
        2
 70
     0
 39
0.003
 10
0.587142
 20
0.37863
 40
0.003
 41
0.003
 10
0.587776
 20
0.371957
 40
0.003
 41
0.003
  0
LWPOLYLINE
  5
B0
100
AcDbEntity
  8
0
 62
   254
100
AcDbPolyline
 90
        2
 70
     0
 39
0.003
 10
0.587776
 20
0.371957
 40
0.003
 41
0.003
 10
-0.048472
 20
-0.003173
 40
0.003
 41
0.003
  0
LWPOLYLINE
  5
B1
100
AcDbEntity
  8
0
 62
   254
100
AcDbPolyline
 90
        2
 70
     0
 39
0.003
 10
-0.048472
 20
-0.003173
 40
0.003
 41
0.003
 10
-0.049106
 20
0.0035
 40
0.003
 41
0.003
  0
LWPOLYLINE
  5
B2
100
AcDbEntity
  8
0
 62
   254
100
AcDbPolyline
 90
        2
 70
     0
 39
0.003
 10
-0.048472
 20
-0.003173
 40
0.003
 41
0.003
 10
0.587776
 20
0.371957
 40
0.003
 41
0.003
  0
LWPOLYLINE
  5
B3
100
AcDbEntity
  8
0
 62
   254
100
AcDbPolyline
 90
        2
 70
     0
 39
0.003
 10
0.587776
 20
0.371957
 40
0.003
 41
0.003
 10
0.587988
 20
0.365831
 40
0.003
 41
0.003
  0
LWPOLYLINE
  5
B4
100
AcDbEntity
  8
0
 62
   254
100
AcDbPolyline
 90
        2
 70
     0
 39
0.003
 10
0.587988
 20
0.365831
 40
0.003
 41
0.003
 10
-0.04826
 20
-0.009299
 40
0.003
 41
0.003
  0
LWPOLYLINE
  5
B5
100
AcDbEntity
  8
0
 62
   254
100
AcDbPolyline
 90
        2
 70
     0
 39
0.003
 10
-0.04826
 20
-0.009299
 40
0.003
 41
0.003
 10
-0.048472
 20
-0.003173
 40
0.003
 41
0.003
  0
LWPOLYLINE
  5
B6
100
AcDbEntity
  8
0
 62
     0
100
AcDbPolyline
 90
        2
 70
     0
 39
0.003
 10
-0.277051
 20
0.224114
 40
0.003
 41
0.003
 10
0.359197
 20
0.599244
 40
0.003
 41
0.003
  0
LWPOLYLINE
  5
B7
100
AcDbEntity
  8
0
 62
     0
100
AcDbPolyline
 90
        2
 70
     0
 39
0.003
 10
0.359197
 20
0.599244
 40
0.003
 41
0.003
 10
0.373673
 20
0.597933
 40
0.003
 41
0.003
  0
LWPOLYLINE
  5
B8
100
AcDbEntity
  8
0
 62
     0
100
AcDbPolyline
 90
        2
 70
     0
 39
0.003
 10
0.373673
 20
0.597933
 40
0.003
 41
0.003
 10
0.387657
 20
0.59578
 40
0.003
 41
0.003
  0
LWPOLYLINE
  5
B9
100
AcDbEntity
  8
0
 62
     0
100
AcDbPolyline
 90
        2
 70
     0
 39
0.003
 10
0.387657
 20
0.59578
 40
0.003
 41
0.003
 10
0.401146
 20
0.592823
 40
0.003
 41
0.003
  0
LWPOLYLINE
  5
BA
100
AcDbEntity
  8
0
 62
     0
100
AcDbPolyline
 90
        2
 70
     0
 39
0.003
 10
0.401146
 20
0.592823
 40
0.003
 41
0.003
 10
0.414142
 20
0.589114
 40
0.003
 41
0.003
  0
LWPOLYLINE
  5
BB
100
AcDbEntity
  8
0
 62
     0
100
AcDbPolyline
 90
        2
 70
     0
 39
0.003
 10
0.414142
 20
0.589114
 40
0.003
 41
0.003
 10
0.426642
 20
0.584693
 40
0.003
 41
0.003
  0
LWPOLYLINE
  5
BC
100
AcDbEntity
  8
0
 62
     0
100
AcDbPolyline
 90
        2
 70
     0
 39
0.003
 10
0.426642
 20
0.584693
 40
0.003
 41
0.003
 10
0.438657
 20
0.57961
 40
0.003
 41
0.003
  0
LWPOLYLINE
  5
BD
100
AcDbEntity
  8
0
 62
     0
100
AcDbPolyline
 90
        2
 70
     0
 39
0.003
 10
0.438657
 20
0.57961
 40
0.003
 41
0.003
 10
0.450189
 20
0.573909
 40
0.003
 41
0.003
  0
LWPOLYLINE
  5
BE
100
AcDbEntity
  8
0
 62
     0
100
AcDbPolyline
 90
        2
 70
     0
 39
0.003
 10
0.450189
 20
0.573909
 40
0.003
 41
0.003
 10
0.46124
 20
0.567646
 40
0.003
 41
0.003
  0
LWPOLYLINE
  5
BF
100
AcDbEntity
  8
0
 62
     0
100
AcDbPolyline
 90
        2
 70
     0
 39
0.003
 10
0.46124
 20
0.567646
 40
0.003
 41
0.003
 10
0.471799
 20
0.560843
 40
0.003
 41
0.003
  0
LWPOLYLINE
  5
C0
100
AcDbEntity
  8
0
 62
     0
100
AcDbPolyline
 90
        2
 70
     0
 39
0.003
 10
0.471799
 20
0.560843
 40
0.003
 41
0.003
 10
0.48189
 20
0.553571
 40
0.003
 41
0.003
  0
LWPOLYLINE
  5
C1
100
AcDbEntity
  8
0
 62
     0
100
AcDbPolyline
 90
        2
 70
     0
 39
0.003
 10
0.48189
 20
0.553571
 40
0.003
 41
0.003
 10
0.4915
 20
0.545862
 40
0.003
 41
0.003
  0
LWPOLYLINE
  5
C2
100
AcDbEntity
  8
0
 62
     0
100
AcDbPolyline
 90
        2
 70
     0
 39
0.003
 10
0.4915
 20
0.545862
 40
0.003
 41
0.003
 10
0.500642
 20
0.537776
 40
0.003
 41
0.003
  0
LWPOLYLINE
  5
C3
100
AcDbEntity
  8
0
 62
     0
100
AcDbPolyline
 90
        2
 70
     0
 39
0.003
 10
0.500642
 20
0.537776
 40
0.003
 41
0.003
 10
0.509307
 20
0.529339
 40
0.003
 41
0.003
  0
LWPOLYLINE
  5
C4
100
AcDbEntity
  8
0
 62
     0
100
AcDbPolyline
 90
        2
 70
     0
 39
0.003
 10
0.509307
 20
0.529339
 40
0.003
 41
0.003
 10
0.517508
 20
0.520614
 40
0.003
 41
0.003
  0
LWPOLYLINE
  5
C5
100
AcDbEntity
  8
0
 62
     0
100
AcDbPolyline
 90
        2
 70
     0
 39
0.003
 10
0.517508
 20
0.520614
 40
0.003
 41
0.003
 10
0.52524
 20
0.511638
 40
0.003
 41
0.003
  0
LWPOLYLINE
  5
C6
100
AcDbEntity
  8
0
 62
     0
100
AcDbPolyline
 90
        2
 70
     0
 39
0.003
 10
0.52524
 20
0.511638
 40
0.003
 41
0.003
 10
0.53252
 20
0.502469
 40
0.003
 41
0.003
  0
LWPOLYLINE
  5
C7
100
AcDbEntity
  8
0
 62
     0
100
AcDbPolyline
 90
        2
 70
     0
 39
0.003
 10
0.53252
 20
0.502469
 40
0.003
 41
0.003
 10
0.539327
 20
0.49313
 40
0.003
 41
0.003
  0
LWPOLYLINE
  5
C8
100
AcDbEntity
  8
0
 62
     0
100
AcDbPolyline
 90
        2
 70
     0
 39
0.003
 10
0.539327
 20
0.49313
 40
0.003
 41
0.003
 10
0.545681
 20
0.483689
 40
0.003
 41
0.003
  0
LWPOLYLINE
  5
C9
100
AcDbEntity
  8
0
 62
     0
100
AcDbPolyline
 90
        2
 70
     0
 39
0.003
 10
0.545681
 20
0.483689
 40
0.003
 41
0.003
 10
0.551575
 20
0.474181
 40
0.003
 41
0.003
  0
LWPOLYLINE
  5
CA
100
AcDbEntity
  8
0
 62
     0
100
AcDbPolyline
 90
        2
 70
     0
 39
0.003
 10
0.551575
 20
0.474181
 40
0.003
 41
0.003
 10
0.557028
 20
0.464661
 40
0.003
 41
0.003
  0
LWPOLYLINE
  5
CB
100
AcDbEntity
  8
0
 62
     0
100
AcDbPolyline
 90
        2
 70
     0
 39
0.003
 10
0.557028
 20
0.464661
 40
0.003
 41
0.003
 10
0.56202
 20
0.455161
 40
0.003
 41
0.003
  0
LWPOLYLINE
  5
CC
100
AcDbEntity
  8
0
 62
     0
100
AcDbPolyline
 90
        2
 70
     0
 39
0.003
 10
0.56202
 20
0.455161
 40
0.003
 41
0.003
 10
0.566567
 20
0.445744
 40
0.003
 41
0.003
  0
LWPOLYLINE
  5
CD
100
AcDbEntity
  8
0
 62
     0
100
AcDbPolyline
 90
        2
 70
     0
 39
0.003
 10
0.566567
 20
0.445744
 40
0.003
 41
0.003
 10
0.570669
 20
0.436445
 40
0.003
 41
0.003
  0
LWPOLYLINE
  5
CE
100
AcDbEntity
  8
0
 62
     0
100
AcDbPolyline
 90
        2
 70
     0
 39
0.003
 10
0.570669
 20
0.436445
 40
0.003
 41
0.003
 10
0.574335
 20
0.427319
 40
0.003
 41
0.003
  0
LWPOLYLINE
  5
CF
100
AcDbEntity
  8
0
 62
     0
100
AcDbPolyline
 90
        2
 70
     0
 39
0.003
 10
0.574335
 20
0.427319
 40
0.003
 41
0.003
 10
0.577551
 20
0.418398
 40
0.003
 41
0.003
  0
LWPOLYLINE
  5
D0
100
AcDbEntity
  8
0
 62
     0
100
AcDbPolyline
 90
        2
 70
     0
 39
0.003
 10
0.577551
 20
0.418398
 40
0.003
 41
0.003
 10
0.580335
 20
0.40974
 40
0.003
 41
0.003
  0
LWPOLYLINE
  5
D1
100
AcDbEntity
  8
0
 62
     0
100
AcDbPolyline
 90
        2
 70
     0
 39
0.003
 10
0.580335
 20
0.40974
 40
0.003
 41
0.003
 10
0.582677
 20
0.401386
 40
0.003
 41
0.003
  0
LWPOLYLINE
  5
D2
100
AcDbEntity
  8
0
 62
     0
100
AcDbPolyline
 90
        2
 70
     0
 39
0.003
 10
0.582677
 20
0.401386
 40
0.003
 41
0.003
 10
0.584598
 20
0.39339
 40
0.003
 41
0.003
  0
LWPOLYLINE
  5
D3
100
AcDbEntity
  8
0
 62
     0
100
AcDbPolyline
 90
        2
 70
     0
 39
0.003
 10
0.584598
 20
0.39339
 40
0.003
 41
0.003
 10
0.586079
 20
0.385783
 40
0.003
 41
0.003
  0
LWPOLYLINE
  5
D4
100
AcDbEntity
  8
0
 62
     0
100
AcDbPolyline
 90
        2
 70
     0
 39
0.003
 10
0.586079
 20
0.385783
 40
0.003
 41
0.003
 10
0.587142
 20
0.37863
 40
0.003
 41
0.003
  0
LWPOLYLINE
  5
D5
100
AcDbEntity
  8
0
 62
     0
100
AcDbPolyline
 90
        2
 70
     0
 39
0.003
 10
0.587142
 20
0.37863
 40
0.003
 41
0.003
 10
0.587776
 20
0.371957
 40
0.003
 41
0.003
  0
LWPOLYLINE
  5
D6
100
AcDbEntity
  8
0
 62
     0
100
AcDbPolyline
 90
        2
 70
     0
 39
0.003
 10
0.587776
 20
0.371957
 40
0.003
 41
0.003
 10
0.587988
 20
0.365831
 40
0.003
 41
0.003
  0
LWPOLYLINE
  5
D7
100
AcDbEntity
  8
0
 62
     0
100
AcDbPolyline
 90
        2
 70
     0
 39
0.003
 10
0.587988
 20
0.365831
 40
0.003
 41
0.003
 10
-0.04826
 20
-0.009299
 40
0.003
 41
0.003
  0
LWPOLYLINE
  5
D8
100
AcDbEntity
  8
0
 62
     0
100
AcDbPolyline
 90
        2
 70
     0
 39
0.003
 10
-0.04826
 20
-0.009299
 40
0.003
 41
0.003
 10
-0.048472
 20
-0.003173
 40
0.003
 41
0.003
  0
LWPOLYLINE
  5
D9
100
AcDbEntity
  8
0
 62
     0
100
AcDbPolyline
 90
        2
 70
     0
 39
0.003
 10
-0.048472
 20
-0.003173
 40
0.003
 41
0.003
 10
-0.049106
 20
0.0035
 40
0.003
 41
0.003
  0
LWPOLYLINE
  5
DA
100
AcDbEntity
  8
0
 62
     0
100
AcDbPolyline
 90
        2
 70
     0
 39
0.003
 10
-0.049106
 20
0.0035
 40
0.003
 41
0.003
 10
-0.050169
 20
0.010654
 40
0.003
 41
0.003
  0
LWPOLYLINE
  5
DB
100
AcDbEntity
  8
0
 62
     0
100
AcDbPolyline
 90
        2
 70
     0
 39
0.003
 10
-0.050169
 20
0.010654
 40
0.003
 41
0.003
 10
-0.05165
 20
0.01826
 40
0.003
 41
0.003
  0
LWPOLYLINE
  5
DC
100
AcDbEntity
  8
0
 62
     0
100
AcDbPolyline
 90
        2
 70
     0
 39
0.003
 10
-0.05165
 20
0.01826
 40
0.003
 41
0.003
 10
-0.053571
 20
0.026256
 40
0.003
 41
0.003
  0
LWPOLYLINE
  5
DD
100
AcDbEntity
  8
0
 62
     0
100
AcDbPolyline
 90
        2
 70
     0
 39
0.003
 10
-0.053571
 20
0.026256
 40
0.003
 41
0.003
 10
-0.055913
 20
0.03461
 40
0.003
 41
0.003
  0
LWPOLYLINE
  5
DE
100
AcDbEntity
  8
0
 62
     0
100
AcDbPolyline
 90
        2
 70
     0
 39
0.003
 10
-0.055913
 20
0.03461
 40
0.003
 41
0.003
 10
-0.058697
 20
0.043268
 40
0.003
 41
0.003
  0
LWPOLYLINE
  5
DF
100
AcDbEntity
  8
0
 62
     0
100
AcDbPolyline
 90
        2
 70
     0
 39
0.003
 10
-0.058697
 20
0.043268
 40
0.003
 41
0.003
 10
-0.061913
 20
0.052189
 40
0.003
 41
0.003
  0
LWPOLYLINE
  5
E0
100
AcDbEntity
  8
0
 62
     0
100
AcDbPolyline
 90
        2
 70
     0
 39
0.003
 10
-0.061913
 20
0.052189
 40
0.003
 41
0.003
 10
-0.065579
 20
0.061315
 40
0.003
 41
0.003
  0
LWPOLYLINE
  5
E1
100
AcDbEntity
  8
0
 62
     0
100
AcDbPolyline
 90
        2
 70
     0
 39
0.003
 10
-0.065579
 20
0.061315
 40
0.003
 41
0.003
 10
-0.069681
 20
0.070614
 40
0.003
 41
0.003
  0
LWPOLYLINE
  5
E2
100
AcDbEntity
  8
0
 62
     0
100
AcDbPolyline
 90
        2
 70
     0
 39
0.003
 10
-0.069681
 20
0.070614
 40
0.003
 41
0.003
 10
-0.074228
 20
0.080031
 40
0.003
 41
0.003
  0
LWPOLYLINE
  5
E3
100
AcDbEntity
  8
0
 62
     0
100
AcDbPolyline
 90
        2
 70
     0
 39
0.003
 10
-0.074228
 20
0.080031
 40
0.003
 41
0.003
 10
-0.07922
 20
0.089531
 40
0.003
 41
0.003
  0
LWPOLYLINE
  5
E4
100
AcDbEntity
  8
0
 62
     0
100
AcDbPolyline
 90
        2
 70
     0
 39
0.003
 10
-0.07922
 20
0.089531
 40
0.003
 41
0.003
 10
-0.084673
 20
0.099051
 40
0.003
 41
0.003
  0
LWPOLYLINE
  5
E5
100
AcDbEntity
  8
0
 62
     0
100
AcDbPolyline
 90
        2
 70
     0
 39
0.003
 10
-0.084673
 20
0.099051
 40
0.003
 41
0.003
 10
-0.090567
 20
0.108559
 40
0.003
 41
0.003
  0
LWPOLYLINE
  5
E6
100
AcDbEntity
  8
0
 62
     0
100
AcDbPolyline
 90
        2
 70
     0
 39
0.003
 10
-0.090567
 20
0.108559
 40
0.003
 41
0.003
 10
-0.096921
 20
0.118
 40
0.003
 41
0.003
  0
LWPOLYLINE
  5
E7
100
AcDbEntity
  8
0
 62
     0
100
AcDbPolyline
 90
        2
 70
     0
 39
0.003
 10
-0.096921
 20
0.118
 40
0.003
 41
0.003
 10
-0.103728
 20
0.127339
 40
0.003
 41
0.003
  0
LWPOLYLINE
  5
E8
100
AcDbEntity
  8
0
 62
     0
100
AcDbPolyline
 90
        2
 70
     0
 39
0.003
 10
-0.103728
 20
0.127339
 40
0.003
 41
0.003
 10
-0.111008
 20
0.136508
 40
0.003
 41
0.003
  0
LWPOLYLINE
  5
E9
100
AcDbEntity
  8
0
 62
     0
100
AcDbPolyline
 90
        2
 70
     0
 39
0.003
 10
-0.111008
 20
0.136508
 40
0.003
 41
0.003
 10
-0.11874
 20
0.145484
 40
0.003
 41
0.003
  0
LWPOLYLINE
  5
EA
100
AcDbEntity
  8
0
 62
     0
100
AcDbPolyline
 90
        2
 70
     0
 39
0.003
 10
-0.11874
 20
0.145484
 40
0.003
 41
0.003
 10
-0.126941
 20
0.154209
 40
0.003
 41
0.003
  0
LWPOLYLINE
  5
EB
100
AcDbEntity
  8
0
 62
     0
100
AcDbPolyline
 90
        2
 70
     0
 39
0.003
 10
-0.126941
 20
0.154209
 40
0.003
 41
0.003
 10
-0.135606
 20
0.162646
 40
0.003
 41
0.003
  0
LWPOLYLINE
  5
EC
100
AcDbEntity
  8
0
 62
     0
100
AcDbPolyline
 90
        2
 70
     0
 39
0.003
 10
-0.135606
 20
0.162646
 40
0.003
 41
0.003
 10
-0.144748
 20
0.170732
 40
0.003
 41
0.003
  0
LWPOLYLINE
  5
ED
100
AcDbEntity
  8
0
 62
     0
100
AcDbPolyline
 90
        2
 70
     0
 39
0.003
 10
-0.144748
 20
0.170732
 40
0.003
 41
0.003
 10
-0.154358
 20
0.178441
 40
0.003
 41
0.003
  0
LWPOLYLINE
  5
EE
100
AcDbEntity
  8
0
 62
     0
100
AcDbPolyline
 90
        2
 70
     0
 39
0.003
 10
-0.154358
 20
0.178441
 40
0.003
 41
0.003
 10
-0.164449
 20
0.185713
 40
0.003
 41
0.003
  0
LWPOLYLINE
  5
EF
100
AcDbEntity
  8
0
 62
     0
100
AcDbPolyline
 90
        2
 70
     0
 39
0.003
 10
-0.164449
 20
0.185713
 40
0.003
 41
0.003
 10
-0.175008
 20
0.192516
 40
0.003
 41
0.003
  0
LWPOLYLINE
  5
F0
100
AcDbEntity
  8
0
 62
     0
100
AcDbPolyline
 90
        2
 70
     0
 39
0.003
 10
-0.175008
 20
0.192516
 40
0.003
 41
0.003
 10
-0.186059
 20
0.19878
 40
0.003
 41
0.003
  0
LWPOLYLINE
  5
F1
100
AcDbEntity
  8
0
 62
     0
100
AcDbPolyline
 90
        2
 70
     0
 39
0.003
 10
-0.186059
 20
0.19878
 40
0.003
 41
0.003
 10
-0.197591
 20
0.20448
 40
0.003
 41
0.003
  0
LWPOLYLINE
  5
F2
100
AcDbEntity
  8
0
 62
     0
100
AcDbPolyline
 90
        2
 70
     0
 39
0.003
 10
-0.197591
 20
0.20448
 40
0.003
 41
0.003
 10
-0.209606
 20
0.209563
 40
0.003
 41
0.003
  0
LWPOLYLINE
  5
F3
100
AcDbEntity
  8
0
 62
     0
100
AcDbPolyline
 90
        2
 70
     0
 39
0.003
 10
-0.209606
 20
0.209563
 40
0.003
 41
0.003
 10
-0.222106
 20
0.213984
 40
0.003
 41
0.003
  0
LWPOLYLINE
  5
F4
100
AcDbEntity
  8
0
 62
     0
100
AcDbPolyline
 90
        2
 70
     0
 39
0.003
 10
-0.222106
 20
0.213984
 40
0.003
 41
0.003
 10
-0.235102
 20
0.217693
 40
0.003
 41
0.003
  0
LWPOLYLINE
  5
F5
100
AcDbEntity
  8
0
 62
     0
100
AcDbPolyline
 90
        2
 70
     0
 39
0.003
 10
-0.235102
 20
0.217693
 40
0.003
 41
0.003
 10
-0.248591
 20
0.22065
 40
0.003
 41
0.003
  0
LWPOLYLINE
  5
F6
100
AcDbEntity
  8
0
 62
     0
100
AcDbPolyline
 90
        2
 70
     0
 39
0.003
 10
-0.248591
 20
0.22065
 40
0.003
 41
0.003
 10
-0.262575
 20
0.222803
 40
0.003
 41
0.003
  0
LWPOLYLINE
  5
F7
100
AcDbEntity
  8
0
 62
     0
100
AcDbPolyline
 90
        2
 70
     0
 39
0.003
 10
-0.262575
 20
0.222803
 40
0.003
 41
0.003
 10
-0.277051
 20
0.224114
 40
0.003
 41
0.003
  0
LWPOLYLINE
  5
F8
100
AcDbEntity
  8
0
 62
     9
100
AcDbPolyline
 90
        2
 70
     0
 39
0.003
 10
-0.146476
 20
-0.219587
 40
0.003
 41
0.003
 10
0.489772
 20
0.155543
 40
0.003
 41
0.003
  0
LWPOLYLINE
  5
F9
100
AcDbEntity
  8
0
 62
     9
100
AcDbPolyline
 90
        2
 70
     0
 39
0.003
 10
0.489772
 20
0.155543
 40
0.003
 41
0.003
 10
0.480197
 20
0.149661
 40
0.003
 41
0.003
  0
LWPOLYLINE
  5
FA
100
AcDbEntity
  8
0
 62
     9
100
AcDbPolyline
 90
        2
 70
     0
 39
0.003
 10
0.480197
 20
0.149661
 40
0.003
 41
0.003
 10
-0.156051
 20
-0.225469
 40
0.003
 41
0.003
  0
LWPOLYLINE
  5
FB
100
AcDbEntity
  8
0
 62
     9
100
AcDbPolyline
 90
        2
 70
     0
 39
0.003
 10
-0.156051
 20
-0.225469
 40
0.003
 41
0.003
 10
-0.146476
 20
-0.219587
 40
0.003
 41
0.003
  0
LWPOLYLINE
  5
FC
100
AcDbEntity
  8
0
 62
     9
100
AcDbPolyline
 90
        2
 70
     0
 39
0.003
 10
-0.156051
 20
-0.225469
 40
0.003
 41
0.003
 10
0.480197
 20
0.149661
 40
0.003
 41
0.003
  0
LWPOLYLINE
  5
FD
100
AcDbEntity
  8
0
 62
     9
100
AcDbPolyline
 90
        2
 70
     0
 39
0.003
 10
0.480197
 20
0.149661
 40
0.003
 41
0.003
 10
0.470949
 20
0.143315
 40
0.003
 41
0.003
  0
LWPOLYLINE
  5
FE
100
AcDbEntity
  8
0
 62
     9
100
AcDbPolyline
 90
        2
 70
     0
 39
0.003
 10
0.470949
 20
0.143315
 40
0.003
 41
0.003
 10
-0.165299
 20
-0.231815
 40
0.003
 41
0.003
  0
LWPOLYLINE
  5
FF
100
AcDbEntity
  8
0
 62
     9
100
AcDbPolyline
 90
        2
 70
     0
 39
0.003
 10
-0.165299
 20
-0.231815
 40
0.003
 41
0.003
 10
-0.156051
 20
-0.225469
 40
0.003
 41
0.003
  0
LWPOLYLINE
  5
100
100
AcDbEntity
  8
0
 62
     9
100
AcDbPolyline
 90
        2
 70
     0
 39
0.003
 10
-0.165299
 20
-0.231815
 40
0.003
 41
0.003
 10
0.470949
 20
0.143315
 40
0.003
 41
0.003
  0
LWPOLYLINE
  5
101
100
AcDbEntity
  8
0
 62
     9
100
AcDbPolyline
 90
        2
 70
     0
 39
0.003
 10
0.470949
 20
0.143315
 40
0.003
 41
0.003
 10
0.462039
 20
0.136539
 40
0.003
 41
0.003
  0
LWPOLYLINE
  5
102
100
AcDbEntity
  8
0
 62
     9
100
AcDbPolyline
 90
        2
 70
     0
 39
0.003
 10
0.462039
 20
0.136539
 40
0.003
 41
0.003
 10
-0.174209
 20
-0.238591
 40
0.003
 41
0.003
  0
LWPOLYLINE
  5
103
100
AcDbEntity
  8
0
 62
     9
100
AcDbPolyline
 90
        2
 70
     0
 39
0.003
 10
-0.174209
 20
-0.238591
 40
0.003
 41
0.003
 10
-0.165299
 20
-0.231815
 40
0.003
 41
0.003
  0
LWPOLYLINE
  5
104
100
AcDbEntity
  8
0
 62
     9
100
AcDbPolyline
 90
        2
 70
     0
 39
0.003
 10
-0.174209
 20
-0.238591
 40
0.003
 41
0.003
 10
0.462039
 20
0.136539
 40
0.003
 41
0.003
  0
LWPOLYLINE
  5
105
100
AcDbEntity
  8
0
 62
     9
100
AcDbPolyline
 90
        2
 70
     0
 39
0.003
 10
0.462039
 20
0.136539
 40
0.003
 41
0.003
 10
0.453472
 20
0.129339
 40
0.003
 41
0.003
  0
LWPOLYLINE
  5
106
100
AcDbEntity
  8
0
 62
     9
100
AcDbPolyline
 90
        2
 70
     0
 39
0.003
 10
0.453472
 20
0.129339
 40
0.003
 41
0.003
 10
-0.182776
 20
-0.245791
 40
0.003
 41
0.003
  0
LWPOLYLINE
  5
107
100
AcDbEntity
  8
0
 62
     9
100
AcDbPolyline
 90
        2
 70
     0
 39
0.003
 10
-0.182776
 20
-0.245791
 40
0.003
 41
0.003
 10
-0.174209
 20
-0.238591
 40
0.003
 41
0.003
  0
LWPOLYLINE
  5
108
100
AcDbEntity
  8
0
 62
   254
100
AcDbPolyline
 90
        2
 70
     0
 39
0.003
 10
-0.182776
 20
-0.245791
 40
0.003
 41
0.003
 10
0.453472
 20
0.129339
 40
0.003
 41
0.003
  0
LWPOLYLINE
  5
109
100
AcDbEntity
  8
0
 62
   254
100
AcDbPolyline
 90
        2
 70
     0
 39
0.003
 10
0.453472
 20
0.129339
 40
0.003
 41
0.003
 10
0.445268
 20
0.121744
 40
0.003
 41
0.003
  0
LWPOLYLINE
  5
10A
100
AcDbEntity
  8
0
 62
   254
100
AcDbPolyline
 90
        2
 70
     0
 39
0.003
 10
0.445268
 20
0.121744
 40
0.003
 41
0.003
 10
-0.19098
 20
-0.253386
 40
0.003
 41
0.003
  0
LWPOLYLINE
  5
10B
100
AcDbEntity
  8
0
 62
   254
100
AcDbPolyline
 90
        2
 70
     0
 39
0.003
 10
-0.19098
 20
-0.253386
 40
0.003
 41
0.003
 10
-0.182776
 20
-0.245791
 40
0.003
 41
0.003
  0
LWPOLYLINE
  5
10C
100
AcDbEntity
  8
0
 62
   254
100
AcDbPolyline
 90
        2
 70
     0
 39
0.003
 10
-0.19098
 20
-0.253386
 40
0.003
 41
0.003
 10
0.445268
 20
0.121744
 40
0.003
 41
0.003
  0
LWPOLYLINE
  5
10D
100
AcDbEntity
  8
0
 62
   254
100
AcDbPolyline
 90
        2
 70
     0
 39
0.003
 10
0.445268
 20
0.121744
 40
0.003
 41
0.003
 10
0.437425
 20
0.113764
 40
0.003
 41
0.003
  0
LWPOLYLINE
  5
10E
100
AcDbEntity
  8
0
 62
   254
100
AcDbPolyline
 90
        2
 70
     0
 39
0.003
 10
0.437425
 20
0.113764
 40
0.003
 41
0.003
 10
-0.198823
 20
-0.261366
 40
0.003
 41
0.003
  0
LWPOLYLINE
  5
10F
100
AcDbEntity
  8
0
 62
   254
100
AcDbPolyline
 90
        2
 70
     0
 39
0.003
 10
-0.198823
 20
-0.261366
 40
0.003
 41
0.003
 10
-0.19098
 20
-0.253386
 40
0.003
 41
0.003
  0
LWPOLYLINE
  5
110
100
AcDbEntity
  8
0
 62
   254
100
AcDbPolyline
 90
        2
 70
     0
 39
0.003
 10
-0.198823
 20
-0.261366
 40
0.003
 41
0.003
 10
0.437425
 20
0.113764
 40
0.003
 41
0.003
  0
LWPOLYLINE
  5
111
100
AcDbEntity
  8
0
 62
   254
100
AcDbPolyline
 90
        2
 70
     0
 39
0.003
 10
0.437425
 20
0.113764
 40
0.003
 41
0.003
 10
0.429961
 20
0.105437
 40
0.003
 41
0.003
  0
LWPOLYLINE
  5
112
100
AcDbEntity
  8
0
 62
   254
100
AcDbPolyline
 90
        2
 70
     0
 39
0.003
 10
0.429961
 20
0.105437
 40
0.003
 41
0.003
 10
-0.206287
 20
-0.269693
 40
0.003
 41
0.003
  0
LWPOLYLINE
  5
113
100
AcDbEntity
  8
0
 62
   254
100
AcDbPolyline
 90
        2
 70
     0
 39
0.003
 10
-0.206287
 20
-0.269693
 40
0.003
 41
0.003
 10
-0.198823
 20
-0.261366
 40
0.003
 41
0.003
  0
LWPOLYLINE
  5
114
100
AcDbEntity
  8
0
 62
   254
100
AcDbPolyline
 90
        2
 70
     0
 39
0.003
 10
-0.206287
 20
-0.269693
 40
0.003
 41
0.003
 10
0.429961
 20
0.105437
 40
0.003
 41
0.003
  0
LWPOLYLINE
  5
115
100
AcDbEntity
  8
0
 62
   254
100
AcDbPolyline
 90
        2
 70
     0
 39
0.003
 10
0.429961
 20
0.105437
 40
0.003
 41
0.003
 10
0.422866
 20
0.096756
 40
0.003
 41
0.003
  0
LWPOLYLINE
  5
116
100
AcDbEntity
  8
0
 62
   254
100
AcDbPolyline
 90
        2
 70
     0
 39
0.003
 10
0.422866
 20
0.096756
 40
0.003
 41
0.003
 10
-0.213382
 20
-0.278374
 40
0.003
 41
0.003
  0
LWPOLYLINE
  5
117
100
AcDbEntity
  8
0
 62
   254
100
AcDbPolyline
 90
        2
 70
     0
 39
0.003
 10
-0.213382
 20
-0.278374
 40
0.003
 41
0.003
 10
-0.206287
 20
-0.269693
 40
0.003
 41
0.003
  0
LWPOLYLINE
  5
118
100
AcDbEntity
  8
0
 62
   254
100
AcDbPolyline
 90
        2
 70
     0
 39
0.003
 10
-0.213382
 20
-0.278374
 40
0.003
 41
0.003
 10
0.422866
 20
0.096756
 40
0.003
 41
0.003
  0
LWPOLYLINE
  5
119
100
AcDbEntity
  8
0
 62
   254
100
AcDbPolyline
 90
        2
 70
     0
 39
0.003
 10
0.422866
 20
0.096756
 40
0.003
 41
0.003
 10
0.416169
 20
0.087764
 40
0.003
 41
0.003
  0
LWPOLYLINE
  5
11A
100
AcDbEntity
  8
0
 62
   254
100
AcDbPolyline
 90
        2
 70
     0
 39
0.003
 10
0.416169
 20
0.087764
 40
0.003
 41
0.003
 10
-0.220079
 20
-0.287366
 40
0.003
 41
0.003
  0
LWPOLYLINE
  5
11B
100
AcDbEntity
  8
0
 62
   254
100
AcDbPolyline
 90
        2
 70
     0
 39
0.003
 10
-0.220079
 20
-0.287366
 40
0.003
 41
0.003
 10
-0.213382
 20
-0.278374
 40
0.003
 41
0.003
  0
LWPOLYLINE
  5
11C
100
AcDbEntity
  8
0
 62
   254
100
AcDbPolyline
 90
        2
 70
     0
 39
0.003
 10
-0.220079
 20
-0.287366
 40
0.003
 41
0.003
 10
0.416169
 20
0.087764
 40
0.003
 41
0.003
  0
LWPOLYLINE
  5
11D
100
AcDbEntity
  8
0
 62
   254
100
AcDbPolyline
 90
        2
 70
     0
 39
0.003
 10
0.416169
 20
0.087764
 40
0.003
 41
0.003
 10
0.409874
 20
0.078472
 40
0.003
 41
0.003
  0
LWPOLYLINE
  5
11E
100
AcDbEntity
  8
0
 62
   254
100
AcDbPolyline
 90
        2
 70
     0
 39
0.003
 10
0.409874
 20
0.078472
 40
0.003
 41
0.003
 10
-0.226374
 20
-0.296657
 40
0.003
 41
0.003
  0
LWPOLYLINE
  5
11F
100
AcDbEntity
  8
0
 62
   254
100
AcDbPolyline
 90
        2
 70
     0
 39
0.003
 10
-0.226374
 20
-0.296657
 40
0.003
 41
0.003
 10
-0.220079
 20
-0.287366
 40
0.003
 41
0.003
  0
LWPOLYLINE
  5
120
100
AcDbEntity
  8
0
 62
   254
100
AcDbPolyline
 90
        2
 70
     0
 39
0.003
 10
-0.226374
 20
-0.296657
 40
0.003
 41
0.003
 10
0.409874
 20
0.078472
 40
0.003
 41
0.003
  0
LWPOLYLINE
  5
121
100
AcDbEntity
  8
0
 62
   254
100
AcDbPolyline
 90
        2
 70
     0
 39
0.003
 10
0.409874
 20
0.078472
 40
0.003
 41
0.003
 10
0.403988
 20
0.068906
 40
0.003
 41
0.003
  0
LWPOLYLINE
  5
122
100
AcDbEntity
  8
0
 62
   254
100
AcDbPolyline
 90
        2
 70
     0
 39
0.003
 10
0.403988
 20
0.068906
 40
0.003
 41
0.003
 10
-0.23226
 20
-0.306224
 40
0.003
 41
0.003
  0
LWPOLYLINE
  5
123
100
AcDbEntity
  8
0
 62
   254
100
AcDbPolyline
 90
        2
 70
     0
 39
0.003
 10
-0.23226
 20
-0.306224
 40
0.003
 41
0.003
 10
-0.226374
 20
-0.296657
 40
0.003
 41
0.003
  0
LWPOLYLINE
  5
124
100
AcDbEntity
  8
0
 62
   254
100
AcDbPolyline
 90
        2
 70
     0
 39
0.003
 10
-0.23226
 20
-0.306224
 40
0.003
 41
0.003
 10
0.403988
 20
0.068906
 40
0.003
 41
0.003
  0
LWPOLYLINE
  5
125
100
AcDbEntity
  8
0
 62
   254
100
AcDbPolyline
 90
        2
 70
     0
 39
0.003
 10
0.403988
 20
0.068906
 40
0.003
 41
0.003
 10
0.398516
 20
0.059071
 40
0.003
 41
0.003
  0
LWPOLYLINE
  5
126
100
AcDbEntity
  8
0
 62
   254
100
AcDbPolyline
 90
        2
 70
     0
 39
0.003
 10
0.398516
 20
0.059071
 40
0.003
 41
0.003
 10
-0.237732
 20
-0.316059
 40
0.003
 41
0.003
  0
LWPOLYLINE
  5
127
100
AcDbEntity
  8
0
 62
   254
100
AcDbPolyline
 90
        2
 70
     0
 39
0.003
 10
-0.237732
 20
-0.316059
 40
0.003
 41
0.003
 10
-0.23226
 20
-0.306224
 40
0.003
 41
0.003
  0
LWPOLYLINE
  5
128
100
AcDbEntity
  8
0
 62
   254
100
AcDbPolyline
 90
        2
 70
     0
 39
0.003
 10
-0.237732
 20
-0.316059
 40
0.003
 41
0.003
 10
0.398516
 20
0.059071
 40
0.003
 41
0.003
  0
LWPOLYLINE
  5
129
100
AcDbEntity
  8
0
 62
   254
100
AcDbPolyline
 90
        2
 70
     0
 39
0.003
 10
0.398516
 20
0.059071
 40
0.003
 41
0.003
 10
0.393472
 20
0.049008
 40
0.003
 41
0.003
  0
LWPOLYLINE
  5
12A
100
AcDbEntity
  8
0
 62
   254
100
AcDbPolyline
 90
        2
 70
     0
 39
0.003
 10
0.393472
 20
0.049008
 40
0.003
 41
0.003
 10
-0.242776
 20
-0.326122
 40
0.003
 41
0.003
  0
LWPOLYLINE
  5
12B
100
AcDbEntity
  8
0
 62
   254
100
AcDbPolyline
 90
        2
 70
     0
 39
0.003
 10
-0.242776
 20
-0.326122
 40
0.003
 41
0.003
 10
-0.237732
 20
-0.316059
 40
0.003
 41
0.003
  0
LWPOLYLINE
  5
12C
100
AcDbEntity
  8
0
 62
   254
100
AcDbPolyline
 90
        2
 70
     0
 39
0.003
 10
-0.242776
 20
-0.326122
 40
0.003
 41
0.003
 10
0.393472
 20
0.049008
 40
0.003
 41
0.003
  0
LWPOLYLINE
  5
12D
100
AcDbEntity
  8
0
 62
   254
100
AcDbPolyline
 90
        2
 70
     0
 39
0.003
 10
0.393472
 20
0.049008
 40
0.003
 41
0.003
 10
0.388862
 20
0.038724
 40
0.003
 41
0.003
  0
LWPOLYLINE
  5
12E
100
AcDbEntity
  8
0
 62
   254
100
AcDbPolyline
 90
        2
 70
     0
 39
0.003
 10
0.388862
 20
0.038724
 40
0.003
 41
0.003
 10
-0.247386
 20
-0.336406
 40
0.003
 41
0.003
  0
LWPOLYLINE
  5
12F
100
AcDbEntity
  8
0
 62
   254
100
AcDbPolyline
 90
        2
 70
     0
 39
0.003
 10
-0.247386
 20
-0.336406
 40
0.003
 41
0.003
 10
-0.242776
 20
-0.326122
 40
0.003
 41
0.003
  0
LWPOLYLINE
  5
130
100
AcDbEntity
  8
0
 62
   254
100
AcDbPolyline
 90
        2
 70
     0
 39
0.003
 10
-0.247386
 20
-0.336406
 40
0.003
 41
0.003
 10
0.388862
 20
0.038724
 40
0.003
 41
0.003
  0
LWPOLYLINE
  5
131
100
AcDbEntity
  8
0
 62
   254
100
AcDbPolyline
 90
        2
 70
     0
 39
0.003
 10
0.388862
 20
0.038724
 40
0.003
 41
0.003
 10
0.384705
 20
0.028244
 40
0.003
 41
0.003
  0
LWPOLYLINE
  5
132
100
AcDbEntity
  8
0
 62
   254
100
AcDbPolyline
 90
        2
 70
     0
 39
0.003
 10
0.384705
 20
0.028244
 40
0.003
 41
0.003
 10
-0.251543
 20
-0.346886
 40
0.003
 41
0.003
  0
LWPOLYLINE
  5
133
100
AcDbEntity
  8
0
 62
   254
100
AcDbPolyline
 90
        2
 70
     0
 39
0.003
 10
-0.251543
 20
-0.346886
 40
0.003
 41
0.003
 10
-0.247386
 20
-0.336406
 40
0.003
 41
0.003
  0
LWPOLYLINE
  5
134
100
AcDbEntity
  8
0
 62
   254
100
AcDbPolyline
 90
        2
 70
     0
 39
0.003
 10
-0.251543
 20
-0.346886
 40
0.003
 41
0.003
 10
0.384705
 20
0.028244
 40
0.003
 41
0.003
  0
LWPOLYLINE
  5
135
100
AcDbEntity
  8
0
 62
   254
100
AcDbPolyline
 90
        2
 70
     0
 39
0.003
 10
0.384705
 20
0.028244
 40
0.003
 41
0.003
 10
0.380988
 20
0.017579
 40
0.003
 41
0.003
  0
LWPOLYLINE
  5
136
100
AcDbEntity
  8
0
 62
   254
100
AcDbPolyline
 90
        2
 70
     0
 39
0.003
 10
0.380988
 20
0.017579
 40
0.003
 41
0.003
 10
-0.25526
 20
-0.357551
 40
0.003
 41
0.003
  0
LWPOLYLINE
  5
137
100
AcDbEntity
  8
0
 62
   254
100
AcDbPolyline
 90
        2
 70
     0
 39
0.003
 10
-0.25526
 20
-0.357551
 40
0.003
 41
0.003
 10
-0.251543
 20
-0.346886
 40
0.003
 41
0.003
  0
LWPOLYLINE
  5
138
100
AcDbEntity
  8
0
 62
   254
100
AcDbPolyline
 90
        2
 70
     0
 39
0.003
 10
-0.25526
 20
-0.357551
 40
0.003
 41
0.003
 10
0.380988
 20
0.017579
 40
0.003
 41
0.003
  0
LWPOLYLINE
  5
139
100
AcDbEntity
  8
0
 62
   254
100
AcDbPolyline
 90
        2
 70
     0
 39
0.003
 10
0.380988
 20
0.017579
 40
0.003
 41
0.003
 10
0.37774
 20
0.006756
 40
0.003
 41
0.003
  0
LWPOLYLINE
  5
13A
100
AcDbEntity
  8
0
 62
   254
100
AcDbPolyline
 90
        2
 70
     0
 39
0.003
 10
0.37774
 20
0.006756
 40
0.003
 41
0.003
 10
-0.258508
 20
-0.368374
 40
0.003
 41
0.003
  0
LWPOLYLINE
  5
13B
100
AcDbEntity
  8
0
 62
   254
100
AcDbPolyline
 90
        2
 70
     0
 39
0.003
 10
-0.258508
 20
-0.368374
 40
0.003
 41
0.003
 10
-0.25526
 20
-0.357551
 40
0.003
 41
0.003
  0
LWPOLYLINE
  5
13C
100
AcDbEntity
  8
0
 62
   254
100
AcDbPolyline
 90
        2
 70
     0
 39
0.003
 10
-0.258508
 20
-0.368374
 40
0.003
 41
0.003
 10
0.37774
 20
0.006756
 40
0.003
 41
0.003
  0
LWPOLYLINE
  5
13D
100
AcDbEntity
  8
0
 62
   254
100
AcDbPolyline
 90
        2
 70
     0
 39
0.003
 10
0.37774
 20
0.006756
 40
0.003
 41
0.003
 10
0.374957
 20
-0.004205
 40
0.003
 41
0.003
  0
LWPOLYLINE
  5
13E
100
AcDbEntity
  8
0
 62
   254
100
AcDbPolyline
 90
        2
 70
     0
 39
0.003
 10
0.374957
 20
-0.004205
 40
0.003
 41
0.003
 10
-0.261291
 20
-0.379335
 40
0.003
 41
0.003
  0
LWPOLYLINE
  5
13F
100
AcDbEntity
  8
0
 62
   254
100
AcDbPolyline
 90
        2
 70
     0
 39
0.003
 10
-0.261291
 20
-0.379335
 40
0.003
 41
0.003
 10
-0.258508
 20
-0.368374
 40
0.003
 41
0.003
  0
LWPOLYLINE
  5
140
100
AcDbEntity
  8
0
 62
   254
100
AcDbPolyline
 90
        2
 70
     0
 39
0.003
 10
-0.261291
 20
-0.379335
 40
0.003
 41
0.003
 10
0.374957
 20
-0.004205
 40
0.003
 41
0.003
  0
LWPOLYLINE
  5
141
100
AcDbEntity
  8
0
 62
   254
100
AcDbPolyline
 90
        2
 70
     0
 39
0.003
 10
0.374957
 20
-0.004205
 40
0.003
 41
0.003
 10
0.372661
 20
-0.01528
 40
0.003
 41
0.003
  0
LWPOLYLINE
  5
142
100
AcDbEntity
  8
0
 62
   254
100
AcDbPolyline
 90
        2
 70
     0
 39
0.003
 10
0.372661
 20
-0.01528
 40
0.003
 41
0.003
 10
-0.263587
 20
-0.390409
 40
0.003
 41
0.003
  0
LWPOLYLINE
  5
143
100
AcDbEntity
  8
0
 62
   254
100
AcDbPolyline
 90
        2
 70
     0
 39
0.003
 10
-0.263587
 20
-0.390409
 40
0.003
 41
0.003
 10
-0.261291
 20
-0.379335
 40
0.003
 41
0.003
  0
LWPOLYLINE
  5
144
100
AcDbEntity
  8
0
 62
   254
100
AcDbPolyline
 90
        2
 70
     0
 39
0.003
 10
-0.263587
 20
-0.390409
 40
0.003
 41
0.003
 10
0.372661
 20
-0.01528
 40
0.003
 41
0.003
  0
LWPOLYLINE
  5
145
100
AcDbEntity
  8
0
 62
   254
100
AcDbPolyline
 90
        2
 70
     0
 39
0.003
 10
0.372661
 20
-0.01528
 40
0.003
 41
0.003
 10
0.370846
 20
-0.026461
 40
0.003
 41
0.003
  0
LWPOLYLINE
  5
146
100
AcDbEntity
  8
0
 62
   254
100
AcDbPolyline
 90
        2
 70
     0
 39
0.003
 10
0.370846
 20
-0.026461
 40
0.003
 41
0.003
 10
-0.265402
 20
-0.401591
 40
0.003
 41
0.003
  0
LWPOLYLINE
  5
147
100
AcDbEntity
  8
0
 62
   254
100
AcDbPolyline
 90
        2
 70
     0
 39
0.003
 10
-0.265402
 20
-0.401591
 40
0.003
 41
0.003
 10
-0.263587
 20
-0.390409
 40
0.003
 41
0.003
  0
LWPOLYLINE
  5
148
100
AcDbEntity
  8
0
 62
   254
100
AcDbPolyline
 90
        2
 70
     0
 39
0.003
 10
-0.265402
 20
-0.401591
 40
0.003
 41
0.003
 10
0.370846
 20
-0.026461
 40
0.003
 41
0.003
  0
LWPOLYLINE
  5
149
100
AcDbEntity
  8
0
 62
   254
100
AcDbPolyline
 90
        2
 70
     0
 39
0.003
 10
0.370846
 20
-0.026461
 40
0.003
 41
0.003
 10
0.369535
 20
-0.037717
 40
0.003
 41
0.003
  0
LWPOLYLINE
  5
14A
100
AcDbEntity
  8
0
 62
   254
100
AcDbPolyline
 90
        2
 70
     0
 39
0.003
 10
0.369535
 20
-0.037717
 40
0.003
 41
0.003
 10
-0.266713
 20
-0.412846
 40
0.003
 41
0.003
  0
LWPOLYLINE
  5
14B
100
AcDbEntity
  8
0
 62
   254
100
AcDbPolyline
 90
        2
 70
     0
 39
0.003
 10
-0.266713
 20
-0.412846
 40
0.003
 41
0.003
 10
-0.265402
 20
-0.401591
 40
0.003
 41
0.003
  0
LWPOLYLINE
  5
14C
100
AcDbEntity
  8
0
 62
   254
100
AcDbPolyline
 90
        2
 70
     0
 39
0.003
 10
-0.266713
 20
-0.412846
 40
0.003
 41
0.003
 10
0.369535
 20
-0.037717
 40
0.003
 41
0.003
  0
LWPOLYLINE
  5
14D
100
AcDbEntity
  8
0
 62
   254
100
AcDbPolyline
 90
        2
 70
     0
 39
0.003
 10
0.369535
 20
-0.037717
 40
0.003
 41
0.003
 10
0.368728
 20
-0.049031
 40
0.003
 41
0.003
  0
LWPOLYLINE
  5
14E
100
AcDbEntity
  8
0
 62
   254
100
AcDbPolyline
 90
        2
 70
     0
 39
0.003
 10
0.368728
 20
-0.049031
 40
0.003
 41
0.003
 10
-0.26752
 20
-0.424161
 40
0.003
 41
0.003
  0
LWPOLYLINE
  5
14F
100
AcDbEntity
  8
0
 62
   254
100
AcDbPolyline
 90
        2
 70
     0
 39
0.003
 10
-0.26752
 20
-0.424161
 40
0.003
 41
0.003
 10
-0.266713
 20
-0.412846
 40
0.003
 41
0.003
  0
LWPOLYLINE
  5
150
100
AcDbEntity
  8
0
 62
   254
100
AcDbPolyline
 90
        2
 70
     0
 39
0.003
 10
-0.26752
 20
-0.424161
 40
0.003
 41
0.003
 10
0.368728
 20
-0.049031
 40
0.003
 41
0.003
  0
LWPOLYLINE
  5
151
100
AcDbEntity
  8
0
 62
   254
100
AcDbPolyline
 90
        2
 70
     0
 39
0.003
 10
0.368728
 20
-0.049031
 40
0.003
 41
0.003
 10
0.368441
 20
-0.060378
 40
0.003
 41
0.003
  0
LWPOLYLINE
  5
152
100
AcDbEntity
  8
0
 62
   254
100
AcDbPolyline
 90
        2
 70
     0
 39
0.003
 10
0.368441
 20
-0.060378
 40
0.003
 41
0.003
 10
-0.267807
 20
-0.435508
 40
0.003
 41
0.003
  0
LWPOLYLINE
  5
153
100
AcDbEntity
  8
0
 62
   254
100
AcDbPolyline
 90
        2
 70
     0
 39
0.003
 10
-0.267807
 20
-0.435508
 40
0.003
 41
0.003
 10
-0.26752
 20
-0.424161
 40
0.003
 41
0.003
  0
LWPOLYLINE
  5
154
100
AcDbEntity
  8
0
 62
     0
100
AcDbPolyline
 90
        2
 70
     0
 39
0.003
 10
-0.146476
 20
-0.219587
 40
0.003
 41
0.003
 10
0.489772
 20
0.155543
 40
0.003
 41
0.003
  0
LWPOLYLINE
  5
155
100
AcDbEntity
  8
0
 62
     0
100
AcDbPolyline
 90
        2
 70
     0
 39
0.003
 10
0.489772
 20
0.155543
 40
0.003
 41
0.003
 10
0.480197
 20
0.149661
 40
0.003
 41
0.003
  0
LWPOLYLINE
  5
156
100
AcDbEntity
  8
0
 62
     0
100
AcDbPolyline
 90
        2
 70
     0
 39
0.003
 10
0.480197
 20
0.149661
 40
0.003
 41
0.003
 10
0.470949
 20
0.143315
 40
0.003
 41
0.003
  0
LWPOLYLINE
  5
157
100
AcDbEntity
  8
0
 62
     0
100
AcDbPolyline
 90
        2
 70
     0
 39
0.003
 10
0.470949
 20
0.143315
 40
0.003
 41
0.003
 10
0.462039
 20
0.136539
 40
0.003
 41
0.003
  0
LWPOLYLINE
  5
158
100
AcDbEntity
  8
0
 62
     0
100
AcDbPolyline
 90
        2
 70
     0
 39
0.003
 10
0.462039
 20
0.136539
 40
0.003
 41
0.003
 10
0.453472
 20
0.129339
 40
0.003
 41
0.003
  0
LWPOLYLINE
  5
159
100
AcDbEntity
  8
0
 62
     0
100
AcDbPolyline
 90
        2
 70
     0
 39
0.003
 10
0.453472
 20
0.129339
 40
0.003
 41
0.003
 10
0.445268
 20
0.121744
 40
0.003
 41
0.003
  0
LWPOLYLINE
  5
15A
100
AcDbEntity
  8
0
 62
     0
100
AcDbPolyline
 90
        2
 70
     0
 39
0.003
 10
0.445268
 20
0.121744
 40
0.003
 41
0.003
 10
0.437425
 20
0.113764
 40
0.003
 41
0.003
  0
LWPOLYLINE
  5
15B
100
AcDbEntity
  8
0
 62
     0
100
AcDbPolyline
 90
        2
 70
     0
 39
0.003
 10
0.437425
 20
0.113764
 40
0.003
 41
0.003
 10
0.429961
 20
0.105437
 40
0.003
 41
0.003
  0
LWPOLYLINE
  5
15C
100
AcDbEntity
  8
0
 62
     0
100
AcDbPolyline
 90
        2
 70
     0
 39
0.003
 10
0.429961
 20
0.105437
 40
0.003
 41
0.003
 10
0.422866
 20
0.096756
 40
0.003
 41
0.003
  0
LWPOLYLINE
  5
15D
100
AcDbEntity
  8
0
 62
     0
100
AcDbPolyline
 90
        2
 70
     0
 39
0.003
 10
0.422866
 20
0.096756
 40
0.003
 41
0.003
 10
0.416169
 20
0.087764
 40
0.003
 41
0.003
  0
LWPOLYLINE
  5
15E
100
AcDbEntity
  8
0
 62
     0
100
AcDbPolyline
 90
        2
 70
     0
 39
0.003
 10
0.416169
 20
0.087764
 40
0.003
 41
0.003
 10
0.409874
 20
0.078472
 40
0.003
 41
0.003
  0
LWPOLYLINE
  5
15F
100
AcDbEntity
  8
0
 62
     0
100
AcDbPolyline
 90
        2
 70
     0
 39
0.003
 10
0.409874
 20
0.078472
 40
0.003
 41
0.003
 10
0.403988
 20
0.068906
 40
0.003
 41
0.003
  0
LWPOLYLINE
  5
160
100
AcDbEntity
  8
0
 62
     0
100
AcDbPolyline
 90
        2
 70
     0
 39
0.003
 10
0.403988
 20
0.068906
 40
0.003
 41
0.003
 10
0.398516
 20
0.059071
 40
0.003
 41
0.003
  0
LWPOLYLINE
  5
161
100
AcDbEntity
  8
0
 62
     0
100
AcDbPolyline
 90
        2
 70
     0
 39
0.003
 10
0.398516
 20
0.059071
 40
0.003
 41
0.003
 10
0.393472
 20
0.049008
 40
0.003
 41
0.003
  0
LWPOLYLINE
  5
162
100
AcDbEntity
  8
0
 62
     0
100
AcDbPolyline
 90
        2
 70
     0
 39
0.003
 10
0.393472
 20
0.049008
 40
0.003
 41
0.003
 10
0.388862
 20
0.038724
 40
0.003
 41
0.003
  0
LWPOLYLINE
  5
163
100
AcDbEntity
  8
0
 62
     0
100
AcDbPolyline
 90
        2
 70
     0
 39
0.003
 10
0.388862
 20
0.038724
 40
0.003
 41
0.003
 10
0.384705
 20
0.028244
 40
0.003
 41
0.003
  0
LWPOLYLINE
  5
164
100
AcDbEntity
  8
0
 62
     0
100
AcDbPolyline
 90
        2
 70
     0
 39
0.003
 10
0.384705
 20
0.028244
 40
0.003
 41
0.003
 10
0.380988
 20
0.017579
 40
0.003
 41
0.003
  0
LWPOLYLINE
  5
165
100
AcDbEntity
  8
0
 62
     0
100
AcDbPolyline
 90
        2
 70
     0
 39
0.003
 10
0.380988
 20
0.017579
 40
0.003
 41
0.003
 10
0.37774
 20
0.006756
 40
0.003
 41
0.003
  0
LWPOLYLINE
  5
166
100
AcDbEntity
  8
0
 62
     0
100
AcDbPolyline
 90
        2
 70
     0
 39
0.003
 10
0.37774
 20
0.006756
 40
0.003
 41
0.003
 10
0.374957
 20
-0.004205
 40
0.003
 41
0.003
  0
LWPOLYLINE
  5
167
100
AcDbEntity
  8
0
 62
     0
100
AcDbPolyline
 90
        2
 70
     0
 39
0.003
 10
0.374957
 20
-0.004205
 40
0.003
 41
0.003
 10
0.372661
 20
-0.01528
 40
0.003
 41
0.003
  0
LWPOLYLINE
  5
168
100
AcDbEntity
  8
0
 62
     0
100
AcDbPolyline
 90
        2
 70
     0
 39
0.003
 10
0.372661
 20
-0.01528
 40
0.003
 41
0.003
 10
0.370846
 20
-0.026461
 40
0.003
 41
0.003
  0
LWPOLYLINE
  5
169
100
AcDbEntity
  8
0
 62
     0
100
AcDbPolyline
 90
        2
 70
     0
 39
0.003
 10
0.370846
 20
-0.026461
 40
0.003
 41
0.003
 10
0.369535
 20
-0.037717
 40
0.003
 41
0.003
  0
LWPOLYLINE
  5
16A
100
AcDbEntity
  8
0
 62
     0
100
AcDbPolyline
 90
        2
 70
     0
 39
0.003
 10
0.369535
 20
-0.037717
 40
0.003
 41
0.003
 10
0.368728
 20
-0.049031
 40
0.003
 41
0.003
  0
LWPOLYLINE
  5
16B
100
AcDbEntity
  8
0
 62
     0
100
AcDbPolyline
 90
        2
 70
     0
 39
0.003
 10
0.368728
 20
-0.049031
 40
0.003
 41
0.003
 10
0.368441
 20
-0.060378
 40
0.003
 41
0.003
  0
LWPOLYLINE
  5
16C
100
AcDbEntity
  8
0
 62
     0
100
AcDbPolyline
 90
        2
 70
     0
 39
0.003
 10
0.368441
 20
-0.060378
 40
0.003
 41
0.003
 10
-0.267807
 20
-0.435508
 40
0.003
 41
0.003
  0
LWPOLYLINE
  5
16D
100
AcDbEntity
  8
0
 62
     0
100
AcDbPolyline
 90
        2
 70
     0
 39
0.003
 10
-0.267807
 20
-0.435508
 40
0.003
 41
0.003
 10
-0.26752
 20
-0.424161
 40
0.003
 41
0.003
  0
LWPOLYLINE
  5
16E
100
AcDbEntity
  8
0
 62
     0
100
AcDbPolyline
 90
        2
 70
     0
 39
0.003
 10
-0.26752
 20
-0.424161
 40
0.003
 41
0.003
 10
-0.266713
 20
-0.412846
 40
0.003
 41
0.003
  0
LWPOLYLINE
  5
16F
100
AcDbEntity
  8
0
 62
     0
100
AcDbPolyline
 90
        2
 70
     0
 39
0.003
 10
-0.266713
 20
-0.412846
 40
0.003
 41
0.003
 10
-0.265402
 20
-0.401591
 40
0.003
 41
0.003
  0
LWPOLYLINE
  5
170
100
AcDbEntity
  8
0
 62
     0
100
AcDbPolyline
 90
        2
 70
     0
 39
0.003
 10
-0.265402
 20
-0.401591
 40
0.003
 41
0.003
 10
-0.263587
 20
-0.390409
 40
0.003
 41
0.003
  0
LWPOLYLINE
  5
171
100
AcDbEntity
  8
0
 62
     0
100
AcDbPolyline
 90
        2
 70
     0
 39
0.003
 10
-0.263587
 20
-0.390409
 40
0.003
 41
0.003
 10
-0.261291
 20
-0.379335
 40
0.003
 41
0.003
  0
LWPOLYLINE
  5
172
100
AcDbEntity
  8
0
 62
     0
100
AcDbPolyline
 90
        2
 70
     0
 39
0.003
 10
-0.261291
 20
-0.379335
 40
0.003
 41
0.003
 10
-0.258508
 20
-0.368374
 40
0.003
 41
0.003
  0
LWPOLYLINE
  5
173
100
AcDbEntity
  8
0
 62
     0
100
AcDbPolyline
 90
        2
 70
     0
 39
0.003
 10
-0.258508
 20
-0.368374
 40
0.003
 41
0.003
 10
-0.25526
 20
-0.357551
 40
0.003
 41
0.003
  0
LWPOLYLINE
  5
174
100
AcDbEntity
  8
0
 62
     0
100
AcDbPolyline
 90
        2
 70
     0
 39
0.003
 10
-0.25526
 20
-0.357551
 40
0.003
 41
0.003
 10
-0.251543
 20
-0.346886
 40
0.003
 41
0.003
  0
LWPOLYLINE
  5
175
100
AcDbEntity
  8
0
 62
     0
100
AcDbPolyline
 90
        2
 70
     0
 39
0.003
 10
-0.251543
 20
-0.346886
 40
0.003
 41
0.003
 10
-0.247386
 20
-0.336406
 40
0.003
 41
0.003
  0
LWPOLYLINE
  5
176
100
AcDbEntity
  8
0
 62
     0
100
AcDbPolyline
 90
        2
 70
     0
 39
0.003
 10
-0.247386
 20
-0.336406
 40
0.003
 41
0.003
 10
-0.242776
 20
-0.326122
 40
0.003
 41
0.003
  0
LWPOLYLINE
  5
177
100
AcDbEntity
  8
0
 62
     0
100
AcDbPolyline
 90
        2
 70
     0
 39
0.003
 10
-0.242776
 20
-0.326122
 40
0.003
 41
0.003
 10
-0.237732
 20
-0.316059
 40
0.003
 41
0.003
  0
LWPOLYLINE
  5
178
100
AcDbEntity
  8
0
 62
     0
100
AcDbPolyline
 90
        2
 70
     0
 39
0.003
 10
-0.237732
 20
-0.316059
 40
0.003
 41
0.003
 10
-0.23226
 20
-0.306224
 40
0.003
 41
0.003
  0
LWPOLYLINE
  5
179
100
AcDbEntity
  8
0
 62
     0
100
AcDbPolyline
 90
        2
 70
     0
 39
0.003
 10
-0.23226
 20
-0.306224
 40
0.003
 41
0.003
 10
-0.226374
 20
-0.296657
 40
0.003
 41
0.003
  0
LWPOLYLINE
  5
17A
100
AcDbEntity
  8
0
 62
     0
100
AcDbPolyline
 90
        2
 70
     0
 39
0.003
 10
-0.226374
 20
-0.296657
 40
0.003
 41
0.003
 10
-0.220079
 20
-0.287366
 40
0.003
 41
0.003
  0
LWPOLYLINE
  5
17B
100
AcDbEntity
  8
0
 62
     0
100
AcDbPolyline
 90
        2
 70
     0
 39
0.003
 10
-0.220079
 20
-0.287366
 40
0.003
 41
0.003
 10
-0.213382
 20
-0.278374
 40
0.003
 41
0.003
  0
LWPOLYLINE
  5
17C
100
AcDbEntity
  8
0
 62
     0
100
AcDbPolyline
 90
        2
 70
     0
 39
0.003
 10
-0.213382
 20
-0.278374
 40
0.003
 41
0.003
 10
-0.206287
 20
-0.269693
 40
0.003
 41
0.003
  0
LWPOLYLINE
  5
17D
100
AcDbEntity
  8
0
 62
     0
100
AcDbPolyline
 90
        2
 70
     0
 39
0.003
 10
-0.206287
 20
-0.269693
 40
0.003
 41
0.003
 10
-0.198823
 20
-0.261366
 40
0.003
 41
0.003
  0
LWPOLYLINE
  5
17E
100
AcDbEntity
  8
0
 62
     0
100
AcDbPolyline
 90
        2
 70
     0
 39
0.003
 10
-0.198823
 20
-0.261366
 40
0.003
 41
0.003
 10
-0.19098
 20
-0.253386
 40
0.003
 41
0.003
  0
LWPOLYLINE
  5
17F
100
AcDbEntity
  8
0
 62
     0
100
AcDbPolyline
 90
        2
 70
     0
 39
0.003
 10
-0.19098
 20
-0.253386
 40
0.003
 41
0.003
 10
-0.182776
 20
-0.245791
 40
0.003
 41
0.003
  0
LWPOLYLINE
  5
180
100
AcDbEntity
  8
0
 62
     0
100
AcDbPolyline
 90
        2
 70
     0
 39
0.003
 10
-0.182776
 20
-0.245791
 40
0.003
 41
0.003
 10
-0.174209
 20
-0.238591
 40
0.003
 41
0.003
  0
LWPOLYLINE
  5
181
100
AcDbEntity
  8
0
 62
     0
100
AcDbPolyline
 90
        2
 70
     0
 39
0.003
 10
-0.174209
 20
-0.238591
 40
0.003
 41
0.003
 10
-0.165299
 20
-0.231815
 40
0.003
 41
0.003
  0
LWPOLYLINE
  5
182
100
AcDbEntity
  8
0
 62
     0
100
AcDbPolyline
 90
        2
 70
     0
 39
0.003
 10
-0.165299
 20
-0.231815
 40
0.003
 41
0.003
 10
-0.156051
 20
-0.225469
 40
0.003
 41
0.003
  0
LWPOLYLINE
  5
183
100
AcDbEntity
  8
0
 62
     0
100
AcDbPolyline
 90
        2
 70
     0
 39
0.003
 10
-0.156051
 20
-0.225469
 40
0.003
 41
0.003
 10
-0.146476
 20
-0.219587
 40
0.003
 41
0.003
  0
LWPOLYLINE
  5
184
100
AcDbEntity
  8
0
 62
   254
100
AcDbPolyline
 90
        2
 70
     0
 39
0.003
 10
-0.04826
 20
-0.009299
 40
0.003
 41
0.003
 10
0.587988
 20
0.365831
 40
0.003
 41
0.003
  0
LWPOLYLINE
  5
185
100
AcDbEntity
  8
0
 62
   254
100
AcDbPolyline
 90
        2
 70
     0
 39
0.003
 10
0.587988
 20
0.365831
 40
0.003
 41
0.003
 10
0.589319
 20
0.184579
 40
0.003
 41
0.003
  0
LWPOLYLINE
  5
186
100
AcDbEntity
  8
0
 62
   254
100
AcDbPolyline
 90
        2
 70
     0
 39
0.003
 10
0.589319
 20
0.184579
 40
0.003
 41
0.003
 10
-0.046929
 20
-0.190551
 40
0.003
 41
0.003
  0
LWPOLYLINE
  5
187
100
AcDbEntity
  8
0
 62
   254
100
AcDbPolyline
 90
        2
 70
     0
 39
0.003
 10
-0.046929
 20
-0.190551
 40
0.003
 41
0.003
 10
-0.04826
 20
-0.009299
 40
0.003
 41
0.003
  0
LWPOLYLINE
  5
188
100
AcDbEntity
  8
0
 62
     0
100
AcDbPolyline
 90
        2
 70
     0
 39
0.003
 10
-0.04826
 20
-0.009299
 40
0.003
 41
0.003
 10
0.587988
 20
0.365831
 40
0.003
 41
0.003
  0
LWPOLYLINE
  5
189
100
AcDbEntity
  8
0
 62
     0
100
AcDbPolyline
 90
        2
 70
     0
 39
0.003
 10
0.587988
 20
0.365831
 40
0.003
 41
0.003
 10
0.589319
 20
0.184579
 40
0.003
 41
0.003
  0
LWPOLYLINE
  5
18A
100
AcDbEntity
  8
0
 62
     0
100
AcDbPolyline
 90
        2
 70
     0
 39
0.003
 10
0.589319
 20
0.184579
 40
0.003
 41
0.003
 10
-0.046929
 20
-0.190551
 40
0.003
 41
0.003
  0
LWPOLYLINE
  5
18B
100
AcDbEntity
  8
0
 62
     0
100
AcDbPolyline
 90
        2
 70
     0
 39
0.003
 10
-0.046929
 20
-0.190551
 40
0.003
 41
0.003
 10
-0.04826
 20
-0.009299
 40
0.003
 41
0.003
  0
LWPOLYLINE
  5
18C
100
AcDbEntity
  8
0
 62
   253
100
AcDbPolyline
 90
        2
 70
     0
 39
0.003
 10
-0.995811
 20
0.224114
 40
0.003
 41
0.003
 10
-0.359563
 20
0.599244
 40
0.003
 41
0.003
  0
LWPOLYLINE
  5
18D
100
AcDbEntity
  8
0
 62
   253
100
AcDbPolyline
 90
        2
 70
     0
 39
0.003
 10
-0.359563
 20
0.599244
 40
0.003
 41
0.003
 10
0.359197
 20
0.599244
 40
0.003
 41
0.003
  0
LWPOLYLINE
  5
18E
100
AcDbEntity
  8
0
 62
   253
100
AcDbPolyline
 90
        2
 70
     0
 39
0.003
 10
0.359197
 20
0.599244
 40
0.003
 41
0.003
 10
-0.277051
 20
0.224114
 40
0.003
 41
0.003
  0
LWPOLYLINE
  5
18F
100
AcDbEntity
  8
0
 62
   253
100
AcDbPolyline
 90
        2
 70
     0
 39
0.003
 10
-0.277051
 20
0.224114
 40
0.003
 41
0.003
 10
-0.995811
 20
0.224114
 40
0.003
 41
0.003
  0
LWPOLYLINE
  5
190
100
AcDbEntity
  8
0
 62
     0
100
AcDbPolyline
 90
        2
 70
     0
 39
0.003
 10
-0.995811
 20
0.224114
 40
0.003
 41
0.003
 10
-0.359563
 20
0.599244
 40
0.003
 41
0.003
  0
LWPOLYLINE
  5
191
100
AcDbEntity
  8
0
 62
     0
100
AcDbPolyline
 90
        2
 70
     0
 39
0.003
 10
-0.359563
 20
0.599244
 40
0.003
 41
0.003
 10
0.359197
 20
0.599244
 40
0.003
 41
0.003
  0
LWPOLYLINE
  5
192
100
AcDbEntity
  8
0
 62
     0
100
AcDbPolyline
 90
        2
 70
     0
 39
0.003
 10
0.359197
 20
0.599244
 40
0.003
 41
0.003
 10
-0.277051
 20
0.224114
 40
0.003
 41
0.003
  0
LWPOLYLINE
  5
193
100
AcDbEntity
  8
0
 62
     0
100
AcDbPolyline
 90
        2
 70
     0
 39
0.003
 10
-0.277051
 20
0.224114
 40
0.003
 41
0.003
 10
-0.995811
 20
0.224114
 40
0.003
 41
0.003
  0
LWPOLYLINE
  5
194
100
AcDbEntity
  8
0
 62
   253
100
AcDbPolyline
 90
        2
 70
     0
 39
0.003
 10
-0.277051
 20
0.224114
 40
0.003
 41
0.003
 10
0.359197
 20
0.599244
 40
0.003
 41
0.003
  0
LWPOLYLINE
  5
195
100
AcDbEntity
  8
0
 62
   253
100
AcDbPolyline
 90
        2
 70
     0
 39
0.003
 10
0.359197
 20
0.599244
 40
0.003
 41
0.003
 10
0.373673
 20
0.597933
 40
0.003
 41
0.003
  0
LWPOLYLINE
  5
196
100
AcDbEntity
  8
0
 62
   253
100
AcDbPolyline
 90
        2
 70
     0
 39
0.003
 10
0.373673
 20
0.597933
 40
0.003
 41
0.003
 10
-0.262575
 20
0.222803
 40
0.003
 41
0.003
  0
LWPOLYLINE
  5
197
100
AcDbEntity
  8
0
 62
   253
100
AcDbPolyline
 90
        2
 70
     0
 39
0.003
 10
-0.262575
 20
0.222803
 40
0.003
 41
0.003
 10
-0.277051
 20
0.224114
 40
0.003
 41
0.003
  0
LWPOLYLINE
  5
198
100
AcDbEntity
  8
0
 62
     9
100
AcDbPolyline
 90
        2
 70
     0
 39
0.003
 10
-0.262575
 20
0.222803
 40
0.003
 41
0.003
 10
0.373673
 20
0.597933
 40
0.003
 41
0.003
  0
LWPOLYLINE
  5
199
100
AcDbEntity
  8
0
 62
     9
100
AcDbPolyline
 90
        2
 70
     0
 39
0.003
 10
0.373673
 20
0.597933
 40
0.003
 41
0.003
 10
0.387657
 20
0.59578
 40
0.003
 41
0.003
  0
LWPOLYLINE
  5
19A
100
AcDbEntity
  8
0
 62
     9
100
AcDbPolyline
 90
        2
 70
     0
 39
0.003
 10
0.387657
 20
0.59578
 40
0.003
 41
0.003
 10
-0.248591
 20
0.22065
 40
0.003
 41
0.003
  0
LWPOLYLINE
  5
19B
100
AcDbEntity
  8
0
 62
     9
100
AcDbPolyline
 90
        2
 70
     0
 39
0.003
 10
-0.248591
 20
0.22065
 40
0.003
 41
0.003
 10
-0.262575
 20
0.222803
 40
0.003
 41
0.003
  0
LWPOLYLINE
  5
19C
100
AcDbEntity
  8
0
 62
     9
100
AcDbPolyline
 90
        2
 70
     0
 39
0.003
 10
-0.248591
 20
0.22065
 40
0.003
 41
0.003
 10
0.387657
 20
0.59578
 40
0.003
 41
0.003
  0
LWPOLYLINE
  5
19D
100
AcDbEntity
  8
0
 62
     9
100
AcDbPolyline
 90
        2
 70
     0
 39
0.003
 10
0.387657
 20
0.59578
 40
0.003
 41
0.003
 10
0.401146
 20
0.592823
 40
0.003
 41
0.003
  0
LWPOLYLINE
  5
19E
100
AcDbEntity
  8
0
 62
     9
100
AcDbPolyline
 90
        2
 70
     0
 39
0.003
 10
0.401146
 20
0.592823
 40
0.003
 41
0.003
 10
-0.235102
 20
0.217693
 40
0.003
 41
0.003
  0
LWPOLYLINE
  5
19F
100
AcDbEntity
  8
0
 62
     9
100
AcDbPolyline
 90
        2
 70
     0
 39
0.003
 10
-0.235102
 20
0.217693
 40
0.003
 41
0.003
 10
-0.248591
 20
0.22065
 40
0.003
 41
0.003
  0
LWPOLYLINE
  5
1A0
100
AcDbEntity
  8
0
 62
     9
100
AcDbPolyline
 90
        2
 70
     0
 39
0.003
 10
-0.235102
 20
0.217693
 40
0.003
 41
0.003
 10
0.401146
 20
0.592823
 40
0.003
 41
0.003
  0
LWPOLYLINE
  5
1A1
100
AcDbEntity
  8
0
 62
     9
100
AcDbPolyline
 90
        2
 70
     0
 39
0.003
 10
0.401146
 20
0.592823
 40
0.003
 41
0.003
 10
0.414142
 20
0.589114
 40
0.003
 41
0.003
  0
LWPOLYLINE
  5
1A2
100
AcDbEntity
  8
0
 62
     9
100
AcDbPolyline
 90
        2
 70
     0
 39
0.003
 10
0.414142
 20
0.589114
 40
0.003
 41
0.003
 10
-0.222106
 20
0.213984
 40
0.003
 41
0.003
  0
LWPOLYLINE
  5
1A3
100
AcDbEntity
  8
0
 62
     9
100
AcDbPolyline
 90
        2
 70
     0
 39
0.003
 10
-0.222106
 20
0.213984
 40
0.003
 41
0.003
 10
-0.235102
 20
0.217693
 40
0.003
 41
0.003
  0
LWPOLYLINE
  5
1A4
100
AcDbEntity
  8
0
 62
     9
100
AcDbPolyline
 90
        2
 70
     0
 39
0.003
 10
-0.222106
 20
0.213984
 40
0.003
 41
0.003
 10
0.414142
 20
0.589114
 40
0.003
 41
0.003
  0
LWPOLYLINE
  5
1A5
100
AcDbEntity
  8
0
 62
     9
100
AcDbPolyline
 90
        2
 70
     0
 39
0.003
 10
0.414142
 20
0.589114
 40
0.003
 41
0.003
 10
0.426642
 20
0.584693
 40
0.003
 41
0.003
  0
LWPOLYLINE
  5
1A6
100
AcDbEntity
  8
0
 62
     9
100
AcDbPolyline
 90
        2
 70
     0
 39
0.003
 10
0.426642
 20
0.584693
 40
0.003
 41
0.003
 10
-0.209606
 20
0.209563
 40
0.003
 41
0.003
  0
LWPOLYLINE
  5
1A7
100
AcDbEntity
  8
0
 62
     9
100
AcDbPolyline
 90
        2
 70
     0
 39
0.003
 10
-0.209606
 20
0.209563
 40
0.003
 41
0.003
 10
-0.222106
 20
0.213984
 40
0.003
 41
0.003
  0
LWPOLYLINE
  5
1A8
100
AcDbEntity
  8
0
 62
     9
100
AcDbPolyline
 90
        2
 70
     0
 39
0.003
 10
-0.209606
 20
0.209563
 40
0.003
 41
0.003
 10
0.426642
 20
0.584693
 40
0.003
 41
0.003
  0
LWPOLYLINE
  5
1A9
100
AcDbEntity
  8
0
 62
     9
100
AcDbPolyline
 90
        2
 70
     0
 39
0.003
 10
0.426642
 20
0.584693
 40
0.003
 41
0.003
 10
0.438657
 20
0.57961
 40
0.003
 41
0.003
  0
LWPOLYLINE
  5
1AA
100
AcDbEntity
  8
0
 62
     9
100
AcDbPolyline
 90
        2
 70
     0
 39
0.003
 10
0.438657
 20
0.57961
 40
0.003
 41
0.003
 10
-0.197591
 20
0.20448
 40
0.003
 41
0.003
  0
LWPOLYLINE
  5
1AB
100
AcDbEntity
  8
0
 62
     9
100
AcDbPolyline
 90
        2
 70
     0
 39
0.003
 10
-0.197591
 20
0.20448
 40
0.003
 41
0.003
 10
-0.209606
 20
0.209563
 40
0.003
 41
0.003
  0
LWPOLYLINE
  5
1AC
100
AcDbEntity
  8
0
 62
     9
100
AcDbPolyline
 90
        2
 70
     0
 39
0.003
 10
-0.197591
 20
0.20448
 40
0.003
 41
0.003
 10
0.438657
 20
0.57961
 40
0.003
 41
0.003
  0
LWPOLYLINE
  5
1AD
100
AcDbEntity
  8
0
 62
     9
100
AcDbPolyline
 90
        2
 70
     0
 39
0.003
 10
0.438657
 20
0.57961
 40
0.003
 41
0.003
 10
0.450189
 20
0.573909
 40
0.003
 41
0.003
  0
LWPOLYLINE
  5
1AE
100
AcDbEntity
  8
0
 62
     9
100
AcDbPolyline
 90
        2
 70
     0
 39
0.003
 10
0.450189
 20
0.573909
 40
0.003
 41
0.003
 10
-0.186059
 20
0.19878
 40
0.003
 41
0.003
  0
LWPOLYLINE
  5
1AF
100
AcDbEntity
  8
0
 62
     9
100
AcDbPolyline
 90
        2
 70
     0
 39
0.003
 10
-0.186059
 20
0.19878
 40
0.003
 41
0.003
 10
-0.197591
 20
0.20448
 40
0.003
 41
0.003
  0
LWPOLYLINE
  5
1B0
100
AcDbEntity
  8
0
 62
   254
100
AcDbPolyline
 90
        2
 70
     0
 39
0.003
 10
-0.186059
 20
0.19878
 40
0.003
 41
0.003
 10
0.450189
 20
0.573909
 40
0.003
 41
0.003
  0
LWPOLYLINE
  5
1B1
100
AcDbEntity
  8
0
 62
   254
100
AcDbPolyline
 90
        2
 70
     0
 39
0.003
 10
0.450189
 20
0.573909
 40
0.003
 41
0.003
 10
0.46124
 20
0.567646
 40
0.003
 41
0.003
  0
LWPOLYLINE
  5
1B2
100
AcDbEntity
  8
0
 62
   254
100
AcDbPolyline
 90
        2
 70
     0
 39
0.003
 10
0.46124
 20
0.567646
 40
0.003
 41
0.003
 10
-0.175008
 20
0.192516
 40
0.003
 41
0.003
  0
LWPOLYLINE
  5
1B3
100
AcDbEntity
  8
0
 62
   254
100
AcDbPolyline
 90
        2
 70
     0
 39
0.003
 10
-0.175008
 20
0.192516
 40
0.003
 41
0.003
 10
-0.186059
 20
0.19878
 40
0.003
 41
0.003
  0
LWPOLYLINE
  5
1B4
100
AcDbEntity
  8
0
 62
   254
100
AcDbPolyline
 90
        2
 70
     0
 39
0.003
 10
-0.175008
 20
0.192516
 40
0.003
 41
0.003
 10
0.46124
 20
0.567646
 40
0.003
 41
0.003
  0
LWPOLYLINE
  5
1B5
100
AcDbEntity
  8
0
 62
   254
100
AcDbPolyline
 90
        2
 70
     0
 39
0.003
 10
0.46124
 20
0.567646
 40
0.003
 41
0.003
 10
0.471799
 20
0.560843
 40
0.003
 41
0.003
  0
LWPOLYLINE
  5
1B6
100
AcDbEntity
  8
0
 62
   254
100
AcDbPolyline
 90
        2
 70
     0
 39
0.003
 10
0.471799
 20
0.560843
 40
0.003
 41
0.003
 10
-0.164449
 20
0.185713
 40
0.003
 41
0.003
  0
LWPOLYLINE
  5
1B7
100
AcDbEntity
  8
0
 62
   254
100
AcDbPolyline
 90
        2
 70
     0
 39
0.003
 10
-0.164449
 20
0.185713
 40
0.003
 41
0.003
 10
-0.175008
 20
0.192516
 40
0.003
 41
0.003
  0
LWPOLYLINE
  5
1B8
100
AcDbEntity
  8
0
 62
   254
100
AcDbPolyline
 90
        2
 70
     0
 39
0.003
 10
-0.164449
 20
0.185713
 40
0.003
 41
0.003
 10
0.471799
 20
0.560843
 40
0.003
 41
0.003
  0
LWPOLYLINE
  5
1B9
100
AcDbEntity
  8
0
 62
   254
100
AcDbPolyline
 90
        2
 70
     0
 39
0.003
 10
0.471799
 20
0.560843
 40
0.003
 41
0.003
 10
0.48189
 20
0.553571
 40
0.003
 41
0.003
  0
LWPOLYLINE
  5
1BA
100
AcDbEntity
  8
0
 62
   254
100
AcDbPolyline
 90
        2
 70
     0
 39
0.003
 10
0.48189
 20
0.553571
 40
0.003
 41
0.003
 10
-0.154358
 20
0.178441
 40
0.003
 41
0.003
  0
LWPOLYLINE
  5
1BB
100
AcDbEntity
  8
0
 62
   254
100
AcDbPolyline
 90
        2
 70
     0
 39
0.003
 10
-0.154358
 20
0.178441
 40
0.003
 41
0.003
 10
-0.164449
 20
0.185713
 40
0.003
 41
0.003
  0
LWPOLYLINE
  5
1BC
100
AcDbEntity
  8
0
 62
   254
100
AcDbPolyline
 90
        2
 70
     0
 39
0.003
 10
-0.154358
 20
0.178441
 40
0.003
 41
0.003
 10
0.48189
 20
0.553571
 40
0.003
 41
0.003
  0
LWPOLYLINE
  5
1BD
100
AcDbEntity
  8
0
 62
   254
100
AcDbPolyline
 90
        2
 70
     0
 39
0.003
 10
0.48189
 20
0.553571
 40
0.003
 41
0.003
 10
0.4915
 20
0.545862
 40
0.003
 41
0.003
  0
LWPOLYLINE
  5
1BE
100
AcDbEntity
  8
0
 62
   254
100
AcDbPolyline
 90
        2
 70
     0
 39
0.003
 10
0.4915
 20
0.545862
 40
0.003
 41
0.003
 10
-0.144748
 20
0.170732
 40
0.003
 41
0.003
  0
LWPOLYLINE
  5
1BF
100
AcDbEntity
  8
0
 62
   254
100
AcDbPolyline
 90
        2
 70
     0
 39
0.003
 10
-0.144748
 20
0.170732
 40
0.003
 41
0.003
 10
-0.154358
 20
0.178441
 40
0.003
 41
0.003
  0
LWPOLYLINE
  5
1C0
100
AcDbEntity
  8
0
 62
   254
100
AcDbPolyline
 90
        2
 70
     0
 39
0.003
 10
-0.144748
 20
0.170732
 40
0.003
 41
0.003
 10
0.4915
 20
0.545862
 40
0.003
 41
0.003
  0
LWPOLYLINE
  5
1C1
100
AcDbEntity
  8
0
 62
   254
100
AcDbPolyline
 90
        2
 70
     0
 39
0.003
 10
0.4915
 20
0.545862
 40
0.003
 41
0.003
 10
0.500642
 20
0.537776
 40
0.003
 41
0.003
  0
LWPOLYLINE
  5
1C2
100
AcDbEntity
  8
0
 62
   254
100
AcDbPolyline
 90
        2
 70
     0
 39
0.003
 10
0.500642
 20
0.537776
 40
0.003
 41
0.003
 10
-0.135606
 20
0.162646
 40
0.003
 41
0.003
  0
LWPOLYLINE
  5
1C3
100
AcDbEntity
  8
0
 62
   254
100
AcDbPolyline
 90
        2
 70
     0
 39
0.003
 10
-0.135606
 20
0.162646
 40
0.003
 41
0.003
 10
-0.144748
 20
0.170732
 40
0.003
 41
0.003
  0
LWPOLYLINE
  5
1C4
100
AcDbEntity
  8
0
 62
   254
100
AcDbPolyline
 90
        2
 70
     0
 39
0.003
 10
-0.135606
 20
0.162646
 40
0.003
 41
0.003
 10
0.500642
 20
0.537776
 40
0.003
 41
0.003
  0
LWPOLYLINE
  5
1C5
100
AcDbEntity
  8
0
 62
   254
100
AcDbPolyline
 90
        2
 70
     0
 39
0.003
 10
0.500642
 20
0.537776
 40
0.003
 41
0.003
 10
0.509307
 20
0.529339
 40
0.003
 41
0.003
  0
LWPOLYLINE
  5
1C6
100
AcDbEntity
  8
0
 62
   254
100
AcDbPolyline
 90
        2
 70
     0
 39
0.003
 10
0.509307
 20
0.529339
 40
0.003
 41
0.003
 10
-0.126941
 20
0.154209
 40
0.003
 41
0.003
  0
LWPOLYLINE
  5
1C7
100
AcDbEntity
  8
0
 62
   254
100
AcDbPolyline
 90
        2
 70
     0
 39
0.003
 10
-0.126941
 20
0.154209
 40
0.003
 41
0.003
 10
-0.135606
 20
0.162646
 40
0.003
 41
0.003
  0
LWPOLYLINE
  5
1C8
100
AcDbEntity
  8
0
 62
   254
100
AcDbPolyline
 90
        2
 70
     0
 39
0.003
 10
-0.126941
 20
0.154209
 40
0.003
 41
0.003
 10
0.509307
 20
0.529339
 40
0.003
 41
0.003
  0
LWPOLYLINE
  5
1C9
100
AcDbEntity
  8
0
 62
   254
100
AcDbPolyline
 90
        2
 70
     0
 39
0.003
 10
0.509307
 20
0.529339
 40
0.003
 41
0.003
 10
0.517508
 20
0.520614
 40
0.003
 41
0.003
  0
LWPOLYLINE
  5
1CA
100
AcDbEntity
  8
0
 62
   254
100
AcDbPolyline
 90
        2
 70
     0
 39
0.003
 10
0.517508
 20
0.520614
 40
0.003
 41
0.003
 10
-0.11874
 20
0.145484
 40
0.003
 41
0.003
  0
LWPOLYLINE
  5
1CB
100
AcDbEntity
  8
0
 62
   254
100
AcDbPolyline
 90
        2
 70
     0
 39
0.003
 10
-0.11874
 20
0.145484
 40
0.003
 41
0.003
 10
-0.126941
 20
0.154209
 40
0.003
 41
0.003
  0
LWPOLYLINE
  5
1CC
100
AcDbEntity
  8
0
 62
   254
100
AcDbPolyline
 90
        2
 70
     0
 39
0.003
 10
-0.11874
 20
0.145484
 40
0.003
 41
0.003
 10
0.517508
 20
0.520614
 40
0.003
 41
0.003
  0
LWPOLYLINE
  5
1CD
100
AcDbEntity
  8
0
 62
   254
100
AcDbPolyline
 90
        2
 70
     0
 39
0.003
 10
0.517508
 20
0.520614
 40
0.003
 41
0.003
 10
0.52524
 20
0.511638
 40
0.003
 41
0.003
  0
LWPOLYLINE
  5
1CE
100
AcDbEntity
  8
0
 62
   254
100
AcDbPolyline
 90
        2
 70
     0
 39
0.003
 10
0.52524
 20
0.511638
 40
0.003
 41
0.003
 10
-0.111008
 20
0.136508
 40
0.003
 41
0.003
  0
LWPOLYLINE
  5
1CF
100
AcDbEntity
  8
0
 62
   254
100
AcDbPolyline
 90
        2
 70
     0
 39
0.003
 10
-0.111008
 20
0.136508
 40
0.003
 41
0.003
 10
-0.11874
 20
0.145484
 40
0.003
 41
0.003
  0
LWPOLYLINE
  5
1D0
100
AcDbEntity
  8
0
 62
   254
100
AcDbPolyline
 90
        2
 70
     0
 39
0.003
 10
-0.111008
 20
0.136508
 40
0.003
 41
0.003
 10
0.52524
 20
0.511638
 40
0.003
 41
0.003
  0
LWPOLYLINE
  5
1D1
100
AcDbEntity
  8
0
 62
   254
100
AcDbPolyline
 90
        2
 70
     0
 39
0.003
 10
0.52524
 20
0.511638
 40
0.003
 41
0.003
 10
0.53252
 20
0.502469
 40
0.003
 41
0.003
  0
LWPOLYLINE
  5
1D2
100
AcDbEntity
  8
0
 62
   254
100
AcDbPolyline
 90
        2
 70
     0
 39
0.003
 10
0.53252
 20
0.502469
 40
0.003
 41
0.003
 10
-0.103728
 20
0.127339
 40
0.003
 41
0.003
  0
LWPOLYLINE
  5
1D3
100
AcDbEntity
  8
0
 62
   254
100
AcDbPolyline
 90
        2
 70
     0
 39
0.003
 10
-0.103728
 20
0.127339
 40
0.003
 41
0.003
 10
-0.111008
 20
0.136508
 40
0.003
 41
0.003
  0
LWPOLYLINE
  5
1D4
100
AcDbEntity
  8
0
 62
   254
100
AcDbPolyline
 90
        2
 70
     0
 39
0.003
 10
-0.103728
 20
0.127339
 40
0.003
 41
0.003
 10
0.53252
 20
0.502469
 40
0.003
 41
0.003
  0
LWPOLYLINE
  5
1D5
100
AcDbEntity
  8
0
 62
   254
100
AcDbPolyline
 90
        2
 70
     0
 39
0.003
 10
0.53252
 20
0.502469
 40
0.003
 41
0.003
 10
0.539327
 20
0.49313
 40
0.003
 41
0.003
  0
LWPOLYLINE
  5
1D6
100
AcDbEntity
  8
0
 62
   254
100
AcDbPolyline
 90
        2
 70
     0
 39
0.003
 10
0.539327
 20
0.49313
 40
0.003
 41
0.003
 10
-0.096921
 20
0.118
 40
0.003
 41
0.003
  0
LWPOLYLINE
  5
1D7
100
AcDbEntity
  8
0
 62
   254
100
AcDbPolyline
 90
        2
 70
     0
 39
0.003
 10
-0.096921
 20
0.118
 40
0.003
 41
0.003
 10
-0.103728
 20
0.127339
 40
0.003
 41
0.003
  0
LWPOLYLINE
  5
1D8
100
AcDbEntity
  8
0
 62
   254
100
AcDbPolyline
 90
        2
 70
     0
 39
0.003
 10
-0.096921
 20
0.118
 40
0.003
 41
0.003
 10
0.539327
 20
0.49313
 40
0.003
 41
0.003
  0
LWPOLYLINE
  5
1D9
100
AcDbEntity
  8
0
 62
   254
100
AcDbPolyline
 90
        2
 70
     0
 39
0.003
 10
0.539327
 20
0.49313
 40
0.003
 41
0.003
 10
0.545681
 20
0.483689
 40
0.003
 41
0.003
  0
LWPOLYLINE
  5
1DA
100
AcDbEntity
  8
0
 62
   254
100
AcDbPolyline
 90
        2
 70
     0
 39
0.003
 10
0.545681
 20
0.483689
 40
0.003
 41
0.003
 10
-0.090567
 20
0.108559
 40
0.003
 41
0.003
  0
LWPOLYLINE
  5
1DB
100
AcDbEntity
  8
0
 62
   254
100
AcDbPolyline
 90
        2
 70
     0
 39
0.003
 10
-0.090567
 20
0.108559
 40
0.003
 41
0.003
 10
-0.096921
 20
0.118
 40
0.003
 41
0.003
  0
LWPOLYLINE
  5
1DC
100
AcDbEntity
  8
0
 62
   254
100
AcDbPolyline
 90
        2
 70
     0
 39
0.003
 10
-0.090567
 20
0.108559
 40
0.003
 41
0.003
 10
0.545681
 20
0.483689
 40
0.003
 41
0.003
  0
LWPOLYLINE
  5
1DD
100
AcDbEntity
  8
0
 62
   254
100
AcDbPolyline
 90
        2
 70
     0
 39
0.003
 10
0.545681
 20
0.483689
 40
0.003
 41
0.003
 10
0.551575
 20
0.474181
 40
0.003
 41
0.003
  0
LWPOLYLINE
  5
1DE
100
AcDbEntity
  8
0
 62
   254
100
AcDbPolyline
 90
        2
 70
     0
 39
0.003
 10
0.551575
 20
0.474181
 40
0.003
 41
0.003
 10
-0.084673
 20
0.099051
 40
0.003
 41
0.003
  0
LWPOLYLINE
  5
1DF
100
AcDbEntity
  8
0
 62
   254
100
AcDbPolyline
 90
        2
 70
     0
 39
0.003
 10
-0.084673
 20
0.099051
 40
0.003
 41
0.003
 10
-0.090567
 20
0.108559
 40
0.003
 41
0.003
  0
LWPOLYLINE
  5
1E0
100
AcDbEntity
  8
0
 62
   254
100
AcDbPolyline
 90
        2
 70
     0
 39
0.003
 10
-0.084673
 20
0.099051
 40
0.003
 41
0.003
 10
0.551575
 20
0.474181
 40
0.003
 41
0.003
  0
LWPOLYLINE
  5
1E1
100
AcDbEntity
  8
0
 62
   254
100
AcDbPolyline
 90
        2
 70
     0
 39
0.003
 10
0.551575
 20
0.474181
 40
0.003
 41
0.003
 10
0.557028
 20
0.464661
 40
0.003
 41
0.003
  0
LWPOLYLINE
  5
1E2
100
AcDbEntity
  8
0
 62
   254
100
AcDbPolyline
 90
        2
 70
     0
 39
0.003
 10
0.557028
 20
0.464661
 40
0.003
 41
0.003
 10
-0.07922
 20
0.089531
 40
0.003
 41
0.003
  0
LWPOLYLINE
  5
1E3
100
AcDbEntity
  8
0
 62
   254
100
AcDbPolyline
 90
        2
 70
     0
 39
0.003
 10
-0.07922
 20
0.089531
 40
0.003
 41
0.003
 10
-0.084673
 20
0.099051
 40
0.003
 41
0.003
  0
LWPOLYLINE
  5
1E4
100
AcDbEntity
  8
0
 62
   254
100
AcDbPolyline
 90
        2
 70
     0
 39
0.003
 10
-0.07922
 20
0.089531
 40
0.003
 41
0.003
 10
0.557028
 20
0.464661
 40
0.003
 41
0.003
  0
LWPOLYLINE
  5
1E5
100
AcDbEntity
  8
0
 62
   254
100
AcDbPolyline
 90
        2
 70
     0
 39
0.003
 10
0.557028
 20
0.464661
 40
0.003
 41
0.003
 10
0.56202
 20
0.455161
 40
0.003
 41
0.003
  0
LWPOLYLINE
  5
1E6
100
AcDbEntity
  8
0
 62
   254
100
AcDbPolyline
 90
        2
 70
     0
 39
0.003
 10
0.56202
 20
0.455161
 40
0.003
 41
0.003
 10
-0.074228
 20
0.080031
 40
0.003
 41
0.003
  0
LWPOLYLINE
  5
1E7
100
AcDbEntity
  8
0
 62
   254
100
AcDbPolyline
 90
        2
 70
     0
 39
0.003
 10
-0.074228
 20
0.080031
 40
0.003
 41
0.003
 10
-0.07922
 20
0.089531
 40
0.003
 41
0.003
  0
LWPOLYLINE
  5
1E8
100
AcDbEntity
  8
0
 62
   254
100
AcDbPolyline
 90
        2
 70
     0
 39
0.003
 10
-0.074228
 20
0.080031
 40
0.003
 41
0.003
 10
0.56202
 20
0.455161
 40
0.003
 41
0.003
  0
LWPOLYLINE
  5
1E9
100
AcDbEntity
  8
0
 62
   254
100
AcDbPolyline
 90
        2
 70
     0
 39
0.003
 10
0.56202
 20
0.455161
 40
0.003
 41
0.003
 10
0.566567
 20
0.445744
 40
0.003
 41
0.003
  0
LWPOLYLINE
  5
1EA
100
AcDbEntity
  8
0
 62
   254
100
AcDbPolyline
 90
        2
 70
     0
 39
0.003
 10
0.566567
 20
0.445744
 40
0.003
 41
0.003
 10
-0.069681
 20
0.070614
 40
0.003
 41
0.003
  0
LWPOLYLINE
  5
1EB
100
AcDbEntity
  8
0
 62
   254
100
AcDbPolyline
 90
        2
 70
     0
 39
0.003
 10
-0.069681
 20
0.070614
 40
0.003
 41
0.003
 10
-0.074228
 20
0.080031
 40
0.003
 41
0.003
  0
LWPOLYLINE
  5
1EC
100
AcDbEntity
  8
0
 62
   254
100
AcDbPolyline
 90
        2
 70
     0
 39
0.003
 10
-0.069681
 20
0.070614
 40
0.003
 41
0.003
 10
0.566567
 20
0.445744
 40
0.003
 41
0.003
  0
LWPOLYLINE
  5
1ED
100
AcDbEntity
  8
0
 62
   254
100
AcDbPolyline
 90
        2
 70
     0
 39
0.003
 10
0.566567
 20
0.445744
 40
0.003
 41
0.003
 10
0.570669
 20
0.436445
 40
0.003
 41
0.003
  0
LWPOLYLINE
  5
1EE
100
AcDbEntity
  8
0
 62
   254
100
AcDbPolyline
 90
        2
 70
     0
 39
0.003
 10
0.570669
 20
0.436445
 40
0.003
 41
0.003
 10
-0.065579
 20
0.061315
 40
0.003
 41
0.003
  0
LWPOLYLINE
  5
1EF
100
AcDbEntity
  8
0
 62
   254
100
AcDbPolyline
 90
        2
 70
     0
 39
0.003
 10
-0.065579
 20
0.061315
 40
0.003
 41
0.003
 10
-0.069681
 20
0.070614
 40
0.003
 41
0.003
  0
LWPOLYLINE
  5
1F0
100
AcDbEntity
  8
0
 62
   254
100
AcDbPolyline
 90
        2
 70
     0
 39
0.003
 10
-0.065579
 20
0.061315
 40
0.003
 41
0.003
 10
0.570669
 20
0.436445
 40
0.003
 41
0.003
  0
LWPOLYLINE
  5
1F1
100
AcDbEntity
  8
0
 62
   254
100
AcDbPolyline
 90
        2
 70
     0
 39
0.003
 10
0.570669
 20
0.436445
 40
0.003
 41
0.003
 10
0.574335
 20
0.427319
 40
0.003
 41
0.003
  0
LWPOLYLINE
  5
1F2
100
AcDbEntity
  8
0
 62
   254
100
AcDbPolyline
 90
        2
 70
     0
 39
0.003
 10
0.574335
 20
0.427319
 40
0.003
 41
0.003
 10
-0.061913
 20
0.052189
 40
0.003
 41
0.003
  0
LWPOLYLINE
  5
1F3
100
AcDbEntity
  8
0
 62
   254
100
AcDbPolyline
 90
        2
 70
     0
 39
0.003
 10
-0.061913
 20
0.052189
 40
0.003
 41
0.003
 10
-0.065579
 20
0.061315
 40
0.003
 41
0.003
  0
LWPOLYLINE
  5
1F4
100
AcDbEntity
  8
0
 62
   254
100
AcDbPolyline
 90
        2
 70
     0
 39
0.003
 10
-0.061913
 20
0.052189
 40
0.003
 41
0.003
 10
0.574335
 20
0.427319
 40
0.003
 41
0.003
  0
LWPOLYLINE
  5
1F5
100
AcDbEntity
  8
0
 62
   254
100
AcDbPolyline
 90
        2
 70
     0
 39
0.003
 10
0.574335
 20
0.427319
 40
0.003
 41
0.003
 10
0.577551
 20
0.418398
 40
0.003
 41
0.003
  0
LWPOLYLINE
  5
1F6
100
AcDbEntity
  8
0
 62
   254
100
AcDbPolyline
 90
        2
 70
     0
 39
0.003
 10
0.577551
 20
0.418398
 40
0.003
 41
0.003
 10
-0.058697
 20
0.043268
 40
0.003
 41
0.003
  0
LWPOLYLINE
  5
1F7
100
AcDbEntity
  8
0
 62
   254
100
AcDbPolyline
 90
        2
 70
     0
 39
0.003
 10
-0.058697
 20
0.043268
 40
0.003
 41
0.003
 10
-0.061913
 20
0.052189
 40
0.003
 41
0.003
  0
LWPOLYLINE
  5
1F8
100
AcDbEntity
  8
0
 62
   254
100
AcDbPolyline
 90
        2
 70
     0
 39
0.003
 10
-0.058697
 20
0.043268
 40
0.003
 41
0.003
 10
0.577551
 20
0.418398
 40
0.003
 41
0.003
  0
LWPOLYLINE
  5
1F9
100
AcDbEntity
  8
0
 62
   254
100
AcDbPolyline
 90
        2
 70
     0
 39
0.003
 10
0.577551
 20
0.418398
 40
0.003
 41
0.003
 10
0.580335
 20
0.40974
 40
0.003
 41
0.003
  0
LWPOLYLINE
  5
1FA
100
AcDbEntity
  8
0
 62
   254
100
AcDbPolyline
 90
        2
 70
     0
 39
0.003
 10
0.580335
 20
0.40974
 40
0.003
 41
0.003
 10
-0.055913
 20
0.03461
 40
0.003
 41
0.003
  0
LWPOLYLINE
  5
1FB
100
AcDbEntity
  8
0
 62
   254
100
AcDbPolyline
 90
        2
 70
     0
 39
0.003
 10
-0.055913
 20
0.03461
 40
0.003
 41
0.003
 10
-0.058697
 20
0.043268
 40
0.003
 41
0.003
  0
LWPOLYLINE
  5
1FC
100
AcDbEntity
  8
0
 62
   254
100
AcDbPolyline
 90
        2
 70
     0
 39
0.003
 10
-0.055913
 20
0.03461
 40
0.003
 41
0.003
 10
0.580335
 20
0.40974
 40
0.003
 41
0.003
  0
LWPOLYLINE
  5
1FD
100
AcDbEntity
  8
0
 62
   254
100
AcDbPolyline
 90
        2
 70
     0
 39
0.003
 10
0.580335
 20
0.40974
 40
0.003
 41
0.003
 10
0.582677
 20
0.401386
 40
0.003
 41
0.003
  0
LWPOLYLINE
  5
1FE
100
AcDbEntity
  8
0
 62
   254
100
AcDbPolyline
 90
        2
 70
     0
 39
0.003
 10
0.582677
 20
0.401386
 40
0.003
 41
0.003
 10
-0.053571
 20
0.026256
 40
0.003
 41
0.003
  0
LWPOLYLINE
  5
1FF
100
AcDbEntity
  8
0
 62
   254
100
AcDbPolyline
 90
        2
 70
     0
 39
0.003
 10
-0.053571
 20
0.026256
 40
0.003
 41
0.003
 10
-0.055913
 20
0.03461
 40
0.003
 41
0.003
  0
LWPOLYLINE
  5
200
100
AcDbEntity
  8
0
 62
   254
100
AcDbPolyline
 90
        2
 70
     0
 39
0.003
 10
-0.053571
 20
0.026256
 40
0.003
 41
0.003
 10
0.582677
 20
0.401386
 40
0.003
 41
0.003
  0
LWPOLYLINE
  5
201
100
AcDbEntity
  8
0
 62
   254
100
AcDbPolyline
 90
        2
 70
     0
 39
0.003
 10
0.582677
 20
0.401386
 40
0.003
 41
0.003
 10
0.584598
 20
0.39339
 40
0.003
 41
0.003
  0
LWPOLYLINE
  5
202
100
AcDbEntity
  8
0
 62
   254
100
AcDbPolyline
 90
        2
 70
     0
 39
0.003
 10
0.584598
 20
0.39339
 40
0.003
 41
0.003
 10
-0.05165
 20
0.01826
 40
0.003
 41
0.003
  0
LWPOLYLINE
  5
203
100
AcDbEntity
  8
0
 62
   254
100
AcDbPolyline
 90
        2
 70
     0
 39
0.003
 10
-0.05165
 20
0.01826
 40
0.003
 41
0.003
 10
-0.053571
 20
0.026256
 40
0.003
 41
0.003
  0
LWPOLYLINE
  5
204
100
AcDbEntity
  8
0
 62
   254
100
AcDbPolyline
 90
        2
 70
     0
 39
0.003
 10
-0.05165
 20
0.01826
 40
0.003
 41
0.003
 10
0.584598
 20
0.39339
 40
0.003
 41
0.003
  0
LWPOLYLINE
  5
205
100
AcDbEntity
  8
0
 62
   254
100
AcDbPolyline
 90
        2
 70
     0
 39
0.003
 10
0.584598
 20
0.39339
 40
0.003
 41
0.003
 10
0.586079
 20
0.385783
 40
0.003
 41
0.003
  0
LWPOLYLINE
  5
206
100
AcDbEntity
  8
0
 62
   254
100
AcDbPolyline
 90
        2
 70
     0
 39
0.003
 10
0.586079
 20
0.385783
 40
0.003
 41
0.003
 10
-0.050169
 20
0.010654
 40
0.003
 41
0.003
  0
LWPOLYLINE
  5
207
100
AcDbEntity
  8
0
 62
   254
100
AcDbPolyline
 90
        2
 70
     0
 39
0.003
 10
-0.050169
 20
0.010654
 40
0.003
 41
0.003
 10
-0.05165
 20
0.01826
 40
0.003
 41
0.003
  0
LWPOLYLINE
  5
208
100
AcDbEntity
  8
0
 62
   254
100
AcDbPolyline
 90
        2
 70
     0
 39
0.003
 10
-0.050169
 20
0.010654
 40
0.003
 41
0.003
 10
0.586079
 20
0.385783
 40
0.003
 41
0.003
  0
LWPOLYLINE
  5
209
100
AcDbEntity
  8
0
 62
   254
100
AcDbPolyline
 90
        2
 70
     0
 39
0.003
 10
0.586079
 20
0.385783
 40
0.003
 41
0.003
 10
0.587142
 20
0.37863
 40
0.003
 41
0.003
  0
LWPOLYLINE
  5
20A
100
AcDbEntity
  8
0
 62
   254
100
AcDbPolyline
 90
        2
 70
     0
 39
0.003
 10
0.587142
 20
0.37863
 40
0.003
 41
0.003
 10
-0.049106
 20
0.0035
 40
0.003
 41
0.003
  0
LWPOLYLINE
  5
20B
100
AcDbEntity
  8
0
 62
   254
100
AcDbPolyline
 90
        2
 70
     0
 39
0.003
 10
-0.049106
 20
0.0035
 40
0.003
 41
0.003
 10
-0.050169
 20
0.010654
 40
0.003
 41
0.003
  0
LWPOLYLINE
  5
20C
100
AcDbEntity
  8
0
 62
   254
100
AcDbPolyline
 90
        2
 70
     0
 39
0.003
 10
-0.049106
 20
0.0035
 40
0.003
 41
0.003
 10
0.587142
 20
0.37863
 40
0.003
 41
0.003
  0
LWPOLYLINE
  5
20D
100
AcDbEntity
  8
0
 62
   254
100
AcDbPolyline
 90
        2
 70
     0
 39
0.003
 10
0.587142
 20
0.37863
 40
0.003
 41
0.003
 10
0.587776
 20
0.371957
 40
0.003
 41
0.003
  0
LWPOLYLINE
  5
20E
100
AcDbEntity
  8
0
 62
   254
100
AcDbPolyline
 90
        2
 70
     0
 39
0.003
 10
0.587776
 20
0.371957
 40
0.003
 41
0.003
 10
-0.048472
 20
-0.003173
 40
0.003
 41
0.003
  0
LWPOLYLINE
  5
20F
100
AcDbEntity
  8
0
 62
   254
100
AcDbPolyline
 90
        2
 70
     0
 39
0.003
 10
-0.048472
 20
-0.003173
 40
0.003
 41
0.003
 10
-0.049106
 20
0.0035
 40
0.003
 41
0.003
  0
LWPOLYLINE
  5
210
100
AcDbEntity
  8
0
 62
   254
100
AcDbPolyline
 90
        2
 70
     0
 39
0.003
 10
-0.048472
 20
-0.003173
 40
0.003
 41
0.003
 10
0.587776
 20
0.371957
 40
0.003
 41
0.003
  0
LWPOLYLINE
  5
211
100
AcDbEntity
  8
0
 62
   254
100
AcDbPolyline
 90
        2
 70
     0
 39
0.003
 10
0.587776
 20
0.371957
 40
0.003
 41
0.003
 10
0.587988
 20
0.365831
 40
0.003
 41
0.003
  0
LWPOLYLINE
  5
212
100
AcDbEntity
  8
0
 62
   254
100
AcDbPolyline
 90
        2
 70
     0
 39
0.003
 10
0.587988
 20
0.365831
 40
0.003
 41
0.003
 10
-0.04826
 20
-0.009299
 40
0.003
 41
0.003
  0
LWPOLYLINE
  5
213
100
AcDbEntity
  8
0
 62
   254
100
AcDbPolyline
 90
        2
 70
     0
 39
0.003
 10
-0.04826
 20
-0.009299
 40
0.003
 41
0.003
 10
-0.048472
 20
-0.003173
 40
0.003
 41
0.003
  0
LWPOLYLINE
  5
214
100
AcDbEntity
  8
0
 62
     0
100
AcDbPolyline
 90
        2
 70
     0
 39
0.003
 10
-0.277051
 20
0.224114
 40
0.003
 41
0.003
 10
0.359197
 20
0.599244
 40
0.003
 41
0.003
  0
LWPOLYLINE
  5
215
100
AcDbEntity
  8
0
 62
     0
100
AcDbPolyline
 90
        2
 70
     0
 39
0.003
 10
0.359197
 20
0.599244
 40
0.003
 41
0.003
 10
0.373673
 20
0.597933
 40
0.003
 41
0.003
  0
LWPOLYLINE
  5
216
100
AcDbEntity
  8
0
 62
     0
100
AcDbPolyline
 90
        2
 70
     0
 39
0.003
 10
0.373673
 20
0.597933
 40
0.003
 41
0.003
 10
0.387657
 20
0.59578
 40
0.003
 41
0.003
  0
LWPOLYLINE
  5
217
100
AcDbEntity
  8
0
 62
     0
100
AcDbPolyline
 90
        2
 70
     0
 39
0.003
 10
0.387657
 20
0.59578
 40
0.003
 41
0.003
 10
0.401146
 20
0.592823
 40
0.003
 41
0.003
  0
LWPOLYLINE
  5
218
100
AcDbEntity
  8
0
 62
     0
100
AcDbPolyline
 90
        2
 70
     0
 39
0.003
 10
0.401146
 20
0.592823
 40
0.003
 41
0.003
 10
0.414142
 20
0.589114
 40
0.003
 41
0.003
  0
LWPOLYLINE
  5
219
100
AcDbEntity
  8
0
 62
     0
100
AcDbPolyline
 90
        2
 70
     0
 39
0.003
 10
0.414142
 20
0.589114
 40
0.003
 41
0.003
 10
0.426642
 20
0.584693
 40
0.003
 41
0.003
  0
LWPOLYLINE
  5
21A
100
AcDbEntity
  8
0
 62
     0
100
AcDbPolyline
 90
        2
 70
     0
 39
0.003
 10
0.426642
 20
0.584693
 40
0.003
 41
0.003
 10
0.438657
 20
0.57961
 40
0.003
 41
0.003
  0
LWPOLYLINE
  5
21B
100
AcDbEntity
  8
0
 62
     0
100
AcDbPolyline
 90
        2
 70
     0
 39
0.003
 10
0.438657
 20
0.57961
 40
0.003
 41
0.003
 10
0.450189
 20
0.573909
 40
0.003
 41
0.003
  0
LWPOLYLINE
  5
21C
100
AcDbEntity
  8
0
 62
     0
100
AcDbPolyline
 90
        2
 70
     0
 39
0.003
 10
0.450189
 20
0.573909
 40
0.003
 41
0.003
 10
0.46124
 20
0.567646
 40
0.003
 41
0.003
  0
LWPOLYLINE
  5
21D
100
AcDbEntity
  8
0
 62
     0
100
AcDbPolyline
 90
        2
 70
     0
 39
0.003
 10
0.46124
 20
0.567646
 40
0.003
 41
0.003
 10
0.471799
 20
0.560843
 40
0.003
 41
0.003
  0
LWPOLYLINE
  5
21E
100
AcDbEntity
  8
0
 62
     0
100
AcDbPolyline
 90
        2
 70
     0
 39
0.003
 10
0.471799
 20
0.560843
 40
0.003
 41
0.003
 10
0.48189
 20
0.553571
 40
0.003
 41
0.003
  0
LWPOLYLINE
  5
21F
100
AcDbEntity
  8
0
 62
     0
100
AcDbPolyline
 90
        2
 70
     0
 39
0.003
 10
0.48189
 20
0.553571
 40
0.003
 41
0.003
 10
0.4915
 20
0.545862
 40
0.003
 41
0.003
  0
LWPOLYLINE
  5
220
100
AcDbEntity
  8
0
 62
     0
100
AcDbPolyline
 90
        2
 70
     0
 39
0.003
 10
0.4915
 20
0.545862
 40
0.003
 41
0.003
 10
0.500642
 20
0.537776
 40
0.003
 41
0.003
  0
LWPOLYLINE
  5
221
100
AcDbEntity
  8
0
 62
     0
100
AcDbPolyline
 90
        2
 70
     0
 39
0.003
 10
0.500642
 20
0.537776
 40
0.003
 41
0.003
 10
0.509307
 20
0.529339
 40
0.003
 41
0.003
  0
LWPOLYLINE
  5
222
100
AcDbEntity
  8
0
 62
     0
100
AcDbPolyline
 90
        2
 70
     0
 39
0.003
 10
0.509307
 20
0.529339
 40
0.003
 41
0.003
 10
0.517508
 20
0.520614
 40
0.003
 41
0.003
  0
LWPOLYLINE
  5
223
100
AcDbEntity
  8
0
 62
     0
100
AcDbPolyline
 90
        2
 70
     0
 39
0.003
 10
0.517508
 20
0.520614
 40
0.003
 41
0.003
 10
0.52524
 20
0.511638
 40
0.003
 41
0.003
  0
LWPOLYLINE
  5
224
100
AcDbEntity
  8
0
 62
     0
100
AcDbPolyline
 90
        2
 70
     0
 39
0.003
 10
0.52524
 20
0.511638
 40
0.003
 41
0.003
 10
0.53252
 20
0.502469
 40
0.003
 41
0.003
  0
LWPOLYLINE
  5
225
100
AcDbEntity
  8
0
 62
     0
100
AcDbPolyline
 90
        2
 70
     0
 39
0.003
 10
0.53252
 20
0.502469
 40
0.003
 41
0.003
 10
0.539327
 20
0.49313
 40
0.003
 41
0.003
  0
LWPOLYLINE
  5
226
100
AcDbEntity
  8
0
 62
     0
100
AcDbPolyline
 90
        2
 70
     0
 39
0.003
 10
0.539327
 20
0.49313
 40
0.003
 41
0.003
 10
0.545681
 20
0.483689
 40
0.003
 41
0.003
  0
LWPOLYLINE
  5
227
100
AcDbEntity
  8
0
 62
     0
100
AcDbPolyline
 90
        2
 70
     0
 39
0.003
 10
0.545681
 20
0.483689
 40
0.003
 41
0.003
 10
0.551575
 20
0.474181
 40
0.003
 41
0.003
  0
LWPOLYLINE
  5
228
100
AcDbEntity
  8
0
 62
     0
100
AcDbPolyline
 90
        2
 70
     0
 39
0.003
 10
0.551575
 20
0.474181
 40
0.003
 41
0.003
 10
0.557028
 20
0.464661
 40
0.003
 41
0.003
  0
LWPOLYLINE
  5
229
100
AcDbEntity
  8
0
 62
     0
100
AcDbPolyline
 90
        2
 70
     0
 39
0.003
 10
0.557028
 20
0.464661
 40
0.003
 41
0.003
 10
0.56202
 20
0.455161
 40
0.003
 41
0.003
  0
LWPOLYLINE
  5
22A
100
AcDbEntity
  8
0
 62
     0
100
AcDbPolyline
 90
        2
 70
     0
 39
0.003
 10
0.56202
 20
0.455161
 40
0.003
 41
0.003
 10
0.566567
 20
0.445744
 40
0.003
 41
0.003
  0
LWPOLYLINE
  5
22B
100
AcDbEntity
  8
0
 62
     0
100
AcDbPolyline
 90
        2
 70
     0
 39
0.003
 10
0.566567
 20
0.445744
 40
0.003
 41
0.003
 10
0.570669
 20
0.436445
 40
0.003
 41
0.003
  0
LWPOLYLINE
  5
22C
100
AcDbEntity
  8
0
 62
     0
100
AcDbPolyline
 90
        2
 70
     0
 39
0.003
 10
0.570669
 20
0.436445
 40
0.003
 41
0.003
 10
0.574335
 20
0.427319
 40
0.003
 41
0.003
  0
LWPOLYLINE
  5
22D
100
AcDbEntity
  8
0
 62
     0
100
AcDbPolyline
 90
        2
 70
     0
 39
0.003
 10
0.574335
 20
0.427319
 40
0.003
 41
0.003
 10
0.577551
 20
0.418398
 40
0.003
 41
0.003
  0
LWPOLYLINE
  5
22E
100
AcDbEntity
  8
0
 62
     0
100
AcDbPolyline
 90
        2
 70
     0
 39
0.003
 10
0.577551
 20
0.418398
 40
0.003
 41
0.003
 10
0.580335
 20
0.40974
 40
0.003
 41
0.003
  0
LWPOLYLINE
  5
22F
100
AcDbEntity
  8
0
 62
     0
100
AcDbPolyline
 90
        2
 70
     0
 39
0.003
 10
0.580335
 20
0.40974
 40
0.003
 41
0.003
 10
0.582677
 20
0.401386
 40
0.003
 41
0.003
  0
LWPOLYLINE
  5
230
100
AcDbEntity
  8
0
 62
     0
100
AcDbPolyline
 90
        2
 70
     0
 39
0.003
 10
0.582677
 20
0.401386
 40
0.003
 41
0.003
 10
0.584598
 20
0.39339
 40
0.003
 41
0.003
  0
LWPOLYLINE
  5
231
100
AcDbEntity
  8
0
 62
     0
100
AcDbPolyline
 90
        2
 70
     0
 39
0.003
 10
0.584598
 20
0.39339
 40
0.003
 41
0.003
 10
0.586079
 20
0.385783
 40
0.003
 41
0.003
  0
LWPOLYLINE
  5
232
100
AcDbEntity
  8
0
 62
     0
100
AcDbPolyline
 90
        2
 70
     0
 39
0.003
 10
0.586079
 20
0.385783
 40
0.003
 41
0.003
 10
0.587142
 20
0.37863
 40
0.003
 41
0.003
  0
LWPOLYLINE
  5
233
100
AcDbEntity
  8
0
 62
     0
100
AcDbPolyline
 90
        2
 70
     0
 39
0.003
 10
0.587142
 20
0.37863
 40
0.003
 41
0.003
 10
0.587776
 20
0.371957
 40
0.003
 41
0.003
  0
LWPOLYLINE
  5
234
100
AcDbEntity
  8
0
 62
     0
100
AcDbPolyline
 90
        2
 70
     0
 39
0.003
 10
0.587776
 20
0.371957
 40
0.003
 41
0.003
 10
0.587988
 20
0.365831
 40
0.003
 41
0.003
  0
LWPOLYLINE
  5
235
100
AcDbEntity
  8
0
 62
     0
100
AcDbPolyline
 90
        2
 70
     0
 39
0.003
 10
0.587988
 20
0.365831
 40
0.003
 41
0.003
 10
-0.04826
 20
-0.009299
 40
0.003
 41
0.003
  0
LWPOLYLINE
  5
236
100
AcDbEntity
  8
0
 62
     0
100
AcDbPolyline
 90
        2
 70
     0
 39
0.003
 10
-0.04826
 20
-0.009299
 40
0.003
 41
0.003
 10
-0.048472
 20
-0.003173
 40
0.003
 41
0.003
  0
LWPOLYLINE
  5
237
100
AcDbEntity
  8
0
 62
     0
100
AcDbPolyline
 90
        2
 70
     0
 39
0.003
 10
-0.048472
 20
-0.003173
 40
0.003
 41
0.003
 10
-0.049106
 20
0.0035
 40
0.003
 41
0.003
  0
LWPOLYLINE
  5
238
100
AcDbEntity
  8
0
 62
     0
100
AcDbPolyline
 90
        2
 70
     0
 39
0.003
 10
-0.049106
 20
0.0035
 40
0.003
 41
0.003
 10
-0.050169
 20
0.010654
 40
0.003
 41
0.003
  0
LWPOLYLINE
  5
239
100
AcDbEntity
  8
0
 62
     0
100
AcDbPolyline
 90
        2
 70
     0
 39
0.003
 10
-0.050169
 20
0.010654
 40
0.003
 41
0.003
 10
-0.05165
 20
0.01826
 40
0.003
 41
0.003
  0
LWPOLYLINE
  5
23A
100
AcDbEntity
  8
0
 62
     0
100
AcDbPolyline
 90
        2
 70
     0
 39
0.003
 10
-0.05165
 20
0.01826
 40
0.003
 41
0.003
 10
-0.053571
 20
0.026256
 40
0.003
 41
0.003
  0
LWPOLYLINE
  5
23B
100
AcDbEntity
  8
0
 62
     0
100
AcDbPolyline
 90
        2
 70
     0
 39
0.003
 10
-0.053571
 20
0.026256
 40
0.003
 41
0.003
 10
-0.055913
 20
0.03461
 40
0.003
 41
0.003
  0
LWPOLYLINE
  5
23C
100
AcDbEntity
  8
0
 62
     0
100
AcDbPolyline
 90
        2
 70
     0
 39
0.003
 10
-0.055913
 20
0.03461
 40
0.003
 41
0.003
 10
-0.058697
 20
0.043268
 40
0.003
 41
0.003
  0
LWPOLYLINE
  5
23D
100
AcDbEntity
  8
0
 62
     0
100
AcDbPolyline
 90
        2
 70
     0
 39
0.003
 10
-0.058697
 20
0.043268
 40
0.003
 41
0.003
 10
-0.061913
 20
0.052189
 40
0.003
 41
0.003
  0
LWPOLYLINE
  5
23E
100
AcDbEntity
  8
0
 62
     0
100
AcDbPolyline
 90
        2
 70
     0
 39
0.003
 10
-0.061913
 20
0.052189
 40
0.003
 41
0.003
 10
-0.065579
 20
0.061315
 40
0.003
 41
0.003
  0
LWPOLYLINE
  5
23F
100
AcDbEntity
  8
0
 62
     0
100
AcDbPolyline
 90
        2
 70
     0
 39
0.003
 10
-0.065579
 20
0.061315
 40
0.003
 41
0.003
 10
-0.069681
 20
0.070614
 40
0.003
 41
0.003
  0
LWPOLYLINE
  5
240
100
AcDbEntity
  8
0
 62
     0
100
AcDbPolyline
 90
        2
 70
     0
 39
0.003
 10
-0.069681
 20
0.070614
 40
0.003
 41
0.003
 10
-0.074228
 20
0.080031
 40
0.003
 41
0.003
  0
LWPOLYLINE
  5
241
100
AcDbEntity
  8
0
 62
     0
100
AcDbPolyline
 90
        2
 70
     0
 39
0.003
 10
-0.074228
 20
0.080031
 40
0.003
 41
0.003
 10
-0.07922
 20
0.089531
 40
0.003
 41
0.003
  0
LWPOLYLINE
  5
242
100
AcDbEntity
  8
0
 62
     0
100
AcDbPolyline
 90
        2
 70
     0
 39
0.003
 10
-0.07922
 20
0.089531
 40
0.003
 41
0.003
 10
-0.084673
 20
0.099051
 40
0.003
 41
0.003
  0
LWPOLYLINE
  5
243
100
AcDbEntity
  8
0
 62
     0
100
AcDbPolyline
 90
        2
 70
     0
 39
0.003
 10
-0.084673
 20
0.099051
 40
0.003
 41
0.003
 10
-0.090567
 20
0.108559
 40
0.003
 41
0.003
  0
LWPOLYLINE
  5
244
100
AcDbEntity
  8
0
 62
     0
100
AcDbPolyline
 90
        2
 70
     0
 39
0.003
 10
-0.090567
 20
0.108559
 40
0.003
 41
0.003
 10
-0.096921
 20
0.118
 40
0.003
 41
0.003
  0
LWPOLYLINE
  5
245
100
AcDbEntity
  8
0
 62
     0
100
AcDbPolyline
 90
        2
 70
     0
 39
0.003
 10
-0.096921
 20
0.118
 40
0.003
 41
0.003
 10
-0.103728
 20
0.127339
 40
0.003
 41
0.003
  0
LWPOLYLINE
  5
246
100
AcDbEntity
  8
0
 62
     0
100
AcDbPolyline
 90
        2
 70
     0
 39
0.003
 10
-0.103728
 20
0.127339
 40
0.003
 41
0.003
 10
-0.111008
 20
0.136508
 40
0.003
 41
0.003
  0
LWPOLYLINE
  5
247
100
AcDbEntity
  8
0
 62
     0
100
AcDbPolyline
 90
        2
 70
     0
 39
0.003
 10
-0.111008
 20
0.136508
 40
0.003
 41
0.003
 10
-0.11874
 20
0.145484
 40
0.003
 41
0.003
  0
LWPOLYLINE
  5
248
100
AcDbEntity
  8
0
 62
     0
100
AcDbPolyline
 90
        2
 70
     0
 39
0.003
 10
-0.11874
 20
0.145484
 40
0.003
 41
0.003
 10
-0.126941
 20
0.154209
 40
0.003
 41
0.003
  0
LWPOLYLINE
  5
249
100
AcDbEntity
  8
0
 62
     0
100
AcDbPolyline
 90
        2
 70
     0
 39
0.003
 10
-0.126941
 20
0.154209
 40
0.003
 41
0.003
 10
-0.135606
 20
0.162646
 40
0.003
 41
0.003
  0
LWPOLYLINE
  5
24A
100
AcDbEntity
  8
0
 62
     0
100
AcDbPolyline
 90
        2
 70
     0
 39
0.003
 10
-0.135606
 20
0.162646
 40
0.003
 41
0.003
 10
-0.144748
 20
0.170732
 40
0.003
 41
0.003
  0
LWPOLYLINE
  5
24B
100
AcDbEntity
  8
0
 62
     0
100
AcDbPolyline
 90
        2
 70
     0
 39
0.003
 10
-0.144748
 20
0.170732
 40
0.003
 41
0.003
 10
-0.154358
 20
0.178441
 40
0.003
 41
0.003
  0
LWPOLYLINE
  5
24C
100
AcDbEntity
  8
0
 62
     0
100
AcDbPolyline
 90
        2
 70
     0
 39
0.003
 10
-0.154358
 20
0.178441
 40
0.003
 41
0.003
 10
-0.164449
 20
0.185713
 40
0.003
 41
0.003
  0
LWPOLYLINE
  5
24D
100
AcDbEntity
  8
0
 62
     0
100
AcDbPolyline
 90
        2
 70
     0
 39
0.003
 10
-0.164449
 20
0.185713
 40
0.003
 41
0.003
 10
-0.175008
 20
0.192516
 40
0.003
 41
0.003
  0
LWPOLYLINE
  5
24E
100
AcDbEntity
  8
0
 62
     0
100
AcDbPolyline
 90
        2
 70
     0
 39
0.003
 10
-0.175008
 20
0.192516
 40
0.003
 41
0.003
 10
-0.186059
 20
0.19878
 40
0.003
 41
0.003
  0
LWPOLYLINE
  5
24F
100
AcDbEntity
  8
0
 62
     0
100
AcDbPolyline
 90
        2
 70
     0
 39
0.003
 10
-0.186059
 20
0.19878
 40
0.003
 41
0.003
 10
-0.197591
 20
0.20448
 40
0.003
 41
0.003
  0
LWPOLYLINE
  5
250
100
AcDbEntity
  8
0
 62
     0
100
AcDbPolyline
 90
        2
 70
     0
 39
0.003
 10
-0.197591
 20
0.20448
 40
0.003
 41
0.003
 10
-0.209606
 20
0.209563
 40
0.003
 41
0.003
  0
LWPOLYLINE
  5
251
100
AcDbEntity
  8
0
 62
     0
100
AcDbPolyline
 90
        2
 70
     0
 39
0.003
 10
-0.209606
 20
0.209563
 40
0.003
 41
0.003
 10
-0.222106
 20
0.213984
 40
0.003
 41
0.003
  0
LWPOLYLINE
  5
252
100
AcDbEntity
  8
0
 62
     0
100
AcDbPolyline
 90
        2
 70
     0
 39
0.003
 10
-0.222106
 20
0.213984
 40
0.003
 41
0.003
 10
-0.235102
 20
0.217693
 40
0.003
 41
0.003
  0
LWPOLYLINE
  5
253
100
AcDbEntity
  8
0
 62
     0
100
AcDbPolyline
 90
        2
 70
     0
 39
0.003
 10
-0.235102
 20
0.217693
 40
0.003
 41
0.003
 10
-0.248591
 20
0.22065
 40
0.003
 41
0.003
  0
LWPOLYLINE
  5
254
100
AcDbEntity
  8
0
 62
     0
100
AcDbPolyline
 90
        2
 70
     0
 39
0.003
 10
-0.248591
 20
0.22065
 40
0.003
 41
0.003
 10
-0.262575
 20
0.222803
 40
0.003
 41
0.003
  0
LWPOLYLINE
  5
255
100
AcDbEntity
  8
0
 62
     0
100
AcDbPolyline
 90
        2
 70
     0
 39
0.003
 10
-0.262575
 20
0.222803
 40
0.003
 41
0.003
 10
-0.277051
 20
0.224114
 40
0.003
 41
0.003
  0
LWPOLYLINE
  5
256
100
AcDbEntity
  8
0
 62
     9
100
AcDbPolyline
 90
        2
 70
     0
 39
0.003
 10
-0.146476
 20
-0.219587
 40
0.003
 41
0.003
 10
0.489772
 20
0.155543
 40
0.003
 41
0.003
  0
LWPOLYLINE
  5
257
100
AcDbEntity
  8
0
 62
     9
100
AcDbPolyline
 90
        2
 70
     0
 39
0.003
 10
0.489772
 20
0.155543
 40
0.003
 41
0.003
 10
0.480197
 20
0.149661
 40
0.003
 41
0.003
  0
LWPOLYLINE
  5
258
100
AcDbEntity
  8
0
 62
     9
100
AcDbPolyline
 90
        2
 70
     0
 39
0.003
 10
0.480197
 20
0.149661
 40
0.003
 41
0.003
 10
-0.156051
 20
-0.225469
 40
0.003
 41
0.003
  0
LWPOLYLINE
  5
259
100
AcDbEntity
  8
0
 62
     9
100
AcDbPolyline
 90
        2
 70
     0
 39
0.003
 10
-0.156051
 20
-0.225469
 40
0.003
 41
0.003
 10
-0.146476
 20
-0.219587
 40
0.003
 41
0.003
  0
LWPOLYLINE
  5
25A
100
AcDbEntity
  8
0
 62
     9
100
AcDbPolyline
 90
        2
 70
     0
 39
0.003
 10
-0.156051
 20
-0.225469
 40
0.003
 41
0.003
 10
0.480197
 20
0.149661
 40
0.003
 41
0.003
  0
LWPOLYLINE
  5
25B
100
AcDbEntity
  8
0
 62
     9
100
AcDbPolyline
 90
        2
 70
     0
 39
0.003
 10
0.480197
 20
0.149661
 40
0.003
 41
0.003
 10
0.470949
 20
0.143315
 40
0.003
 41
0.003
  0
LWPOLYLINE
  5
25C
100
AcDbEntity
  8
0
 62
     9
100
AcDbPolyline
 90
        2
 70
     0
 39
0.003
 10
0.470949
 20
0.143315
 40
0.003
 41
0.003
 10
-0.165299
 20
-0.231815
 40
0.003
 41
0.003
  0
LWPOLYLINE
  5
25D
100
AcDbEntity
  8
0
 62
     9
100
AcDbPolyline
 90
        2
 70
     0
 39
0.003
 10
-0.165299
 20
-0.231815
 40
0.003
 41
0.003
 10
-0.156051
 20
-0.225469
 40
0.003
 41
0.003
  0
LWPOLYLINE
  5
25E
100
AcDbEntity
  8
0
 62
     9
100
AcDbPolyline
 90
        2
 70
     0
 39
0.003
 10
-0.165299
 20
-0.231815
 40
0.003
 41
0.003
 10
0.470949
 20
0.143315
 40
0.003
 41
0.003
  0
LWPOLYLINE
  5
25F
100
AcDbEntity
  8
0
 62
     9
100
AcDbPolyline
 90
        2
 70
     0
 39
0.003
 10
0.470949
 20
0.143315
 40
0.003
 41
0.003
 10
0.462039
 20
0.136539
 40
0.003
 41
0.003
  0
LWPOLYLINE
  5
260
100
AcDbEntity
  8
0
 62
     9
100
AcDbPolyline
 90
        2
 70
     0
 39
0.003
 10
0.462039
 20
0.136539
 40
0.003
 41
0.003
 10
-0.174209
 20
-0.238591
 40
0.003
 41
0.003
  0
LWPOLYLINE
  5
261
100
AcDbEntity
  8
0
 62
     9
100
AcDbPolyline
 90
        2
 70
     0
 39
0.003
 10
-0.174209
 20
-0.238591
 40
0.003
 41
0.003
 10
-0.165299
 20
-0.231815
 40
0.003
 41
0.003
  0
LWPOLYLINE
  5
262
100
AcDbEntity
  8
0
 62
     9
100
AcDbPolyline
 90
        2
 70
     0
 39
0.003
 10
-0.174209
 20
-0.238591
 40
0.003
 41
0.003
 10
0.462039
 20
0.136539
 40
0.003
 41
0.003
  0
LWPOLYLINE
  5
263
100
AcDbEntity
  8
0
 62
     9
100
AcDbPolyline
 90
        2
 70
     0
 39
0.003
 10
0.462039
 20
0.136539
 40
0.003
 41
0.003
 10
0.453472
 20
0.129339
 40
0.003
 41
0.003
  0
LWPOLYLINE
  5
264
100
AcDbEntity
  8
0
 62
     9
100
AcDbPolyline
 90
        2
 70
     0
 39
0.003
 10
0.453472
 20
0.129339
 40
0.003
 41
0.003
 10
-0.182776
 20
-0.245791
 40
0.003
 41
0.003
  0
LWPOLYLINE
  5
265
100
AcDbEntity
  8
0
 62
     9
100
AcDbPolyline
 90
        2
 70
     0
 39
0.003
 10
-0.182776
 20
-0.245791
 40
0.003
 41
0.003
 10
-0.174209
 20
-0.238591
 40
0.003
 41
0.003
  0
LWPOLYLINE
  5
266
100
AcDbEntity
  8
0
 62
   254
100
AcDbPolyline
 90
        2
 70
     0
 39
0.003
 10
-0.182776
 20
-0.245791
 40
0.003
 41
0.003
 10
0.453472
 20
0.129339
 40
0.003
 41
0.003
  0
LWPOLYLINE
  5
267
100
AcDbEntity
  8
0
 62
   254
100
AcDbPolyline
 90
        2
 70
     0
 39
0.003
 10
0.453472
 20
0.129339
 40
0.003
 41
0.003
 10
0.445268
 20
0.121744
 40
0.003
 41
0.003
  0
LWPOLYLINE
  5
268
100
AcDbEntity
  8
0
 62
   254
100
AcDbPolyline
 90
        2
 70
     0
 39
0.003
 10
0.445268
 20
0.121744
 40
0.003
 41
0.003
 10
-0.19098
 20
-0.253386
 40
0.003
 41
0.003
  0
LWPOLYLINE
  5
269
100
AcDbEntity
  8
0
 62
   254
100
AcDbPolyline
 90
        2
 70
     0
 39
0.003
 10
-0.19098
 20
-0.253386
 40
0.003
 41
0.003
 10
-0.182776
 20
-0.245791
 40
0.003
 41
0.003
  0
LWPOLYLINE
  5
26A
100
AcDbEntity
  8
0
 62
   254
100
AcDbPolyline
 90
        2
 70
     0
 39
0.003
 10
-0.19098
 20
-0.253386
 40
0.003
 41
0.003
 10
0.445268
 20
0.121744
 40
0.003
 41
0.003
  0
LWPOLYLINE
  5
26B
100
AcDbEntity
  8
0
 62
   254
100
AcDbPolyline
 90
        2
 70
     0
 39
0.003
 10
0.445268
 20
0.121744
 40
0.003
 41
0.003
 10
0.437425
 20
0.113764
 40
0.003
 41
0.003
  0
LWPOLYLINE
  5
26C
100
AcDbEntity
  8
0
 62
   254
100
AcDbPolyline
 90
        2
 70
     0
 39
0.003
 10
0.437425
 20
0.113764
 40
0.003
 41
0.003
 10
-0.198823
 20
-0.261366
 40
0.003
 41
0.003
  0
LWPOLYLINE
  5
26D
100
AcDbEntity
  8
0
 62
   254
100
AcDbPolyline
 90
        2
 70
     0
 39
0.003
 10
-0.198823
 20
-0.261366
 40
0.003
 41
0.003
 10
-0.19098
 20
-0.253386
 40
0.003
 41
0.003
  0
LWPOLYLINE
  5
26E
100
AcDbEntity
  8
0
 62
   254
100
AcDbPolyline
 90
        2
 70
     0
 39
0.003
 10
-0.198823
 20
-0.261366
 40
0.003
 41
0.003
 10
0.437425
 20
0.113764
 40
0.003
 41
0.003
  0
LWPOLYLINE
  5
26F
100
AcDbEntity
  8
0
 62
   254
100
AcDbPolyline
 90
        2
 70
     0
 39
0.003
 10
0.437425
 20
0.113764
 40
0.003
 41
0.003
 10
0.429961
 20
0.105437
 40
0.003
 41
0.003
  0
LWPOLYLINE
  5
270
100
AcDbEntity
  8
0
 62
   254
100
AcDbPolyline
 90
        2
 70
     0
 39
0.003
 10
0.429961
 20
0.105437
 40
0.003
 41
0.003
 10
-0.206287
 20
-0.269693
 40
0.003
 41
0.003
  0
LWPOLYLINE
  5
271
100
AcDbEntity
  8
0
 62
   254
100
AcDbPolyline
 90
        2
 70
     0
 39
0.003
 10
-0.206287
 20
-0.269693
 40
0.003
 41
0.003
 10
-0.198823
 20
-0.261366
 40
0.003
 41
0.003
  0
LWPOLYLINE
  5
272
100
AcDbEntity
  8
0
 62
   254
100
AcDbPolyline
 90
        2
 70
     0
 39
0.003
 10
-0.206287
 20
-0.269693
 40
0.003
 41
0.003
 10
0.429961
 20
0.105437
 40
0.003
 41
0.003
  0
LWPOLYLINE
  5
273
100
AcDbEntity
  8
0
 62
   254
100
AcDbPolyline
 90
        2
 70
     0
 39
0.003
 10
0.429961
 20
0.105437
 40
0.003
 41
0.003
 10
0.422866
 20
0.096756
 40
0.003
 41
0.003
  0
LWPOLYLINE
  5
274
100
AcDbEntity
  8
0
 62
   254
100
AcDbPolyline
 90
        2
 70
     0
 39
0.003
 10
0.422866
 20
0.096756
 40
0.003
 41
0.003
 10
-0.213382
 20
-0.278374
 40
0.003
 41
0.003
  0
LWPOLYLINE
  5
275
100
AcDbEntity
  8
0
 62
   254
100
AcDbPolyline
 90
        2
 70
     0
 39
0.003
 10
-0.213382
 20
-0.278374
 40
0.003
 41
0.003
 10
-0.206287
 20
-0.269693
 40
0.003
 41
0.003
  0
LWPOLYLINE
  5
276
100
AcDbEntity
  8
0
 62
   254
100
AcDbPolyline
 90
        2
 70
     0
 39
0.003
 10
-0.213382
 20
-0.278374
 40
0.003
 41
0.003
 10
0.422866
 20
0.096756
 40
0.003
 41
0.003
  0
LWPOLYLINE
  5
277
100
AcDbEntity
  8
0
 62
   254
100
AcDbPolyline
 90
        2
 70
     0
 39
0.003
 10
0.422866
 20
0.096756
 40
0.003
 41
0.003
 10
0.416169
 20
0.087764
 40
0.003
 41
0.003
  0
LWPOLYLINE
  5
278
100
AcDbEntity
  8
0
 62
   254
100
AcDbPolyline
 90
        2
 70
     0
 39
0.003
 10
0.416169
 20
0.087764
 40
0.003
 41
0.003
 10
-0.220079
 20
-0.287366
 40
0.003
 41
0.003
  0
LWPOLYLINE
  5
279
100
AcDbEntity
  8
0
 62
   254
100
AcDbPolyline
 90
        2
 70
     0
 39
0.003
 10
-0.220079
 20
-0.287366
 40
0.003
 41
0.003
 10
-0.213382
 20
-0.278374
 40
0.003
 41
0.003
  0
LWPOLYLINE
  5
27A
100
AcDbEntity
  8
0
 62
   254
100
AcDbPolyline
 90
        2
 70
     0
 39
0.003
 10
-0.220079
 20
-0.287366
 40
0.003
 41
0.003
 10
0.416169
 20
0.087764
 40
0.003
 41
0.003
  0
LWPOLYLINE
  5
27B
100
AcDbEntity
  8
0
 62
   254
100
AcDbPolyline
 90
        2
 70
     0
 39
0.003
 10
0.416169
 20
0.087764
 40
0.003
 41
0.003
 10
0.409874
 20
0.078472
 40
0.003
 41
0.003
  0
LWPOLYLINE
  5
27C
100
AcDbEntity
  8
0
 62
   254
100
AcDbPolyline
 90
        2
 70
     0
 39
0.003
 10
0.409874
 20
0.078472
 40
0.003
 41
0.003
 10
-0.226374
 20
-0.296657
 40
0.003
 41
0.003
  0
LWPOLYLINE
  5
27D
100
AcDbEntity
  8
0
 62
   254
100
AcDbPolyline
 90
        2
 70
     0
 39
0.003
 10
-0.226374
 20
-0.296657
 40
0.003
 41
0.003
 10
-0.220079
 20
-0.287366
 40
0.003
 41
0.003
  0
LWPOLYLINE
  5
27E
100
AcDbEntity
  8
0
 62
   254
100
AcDbPolyline
 90
        2
 70
     0
 39
0.003
 10
-0.226374
 20
-0.296657
 40
0.003
 41
0.003
 10
0.409874
 20
0.078472
 40
0.003
 41
0.003
  0
LWPOLYLINE
  5
27F
100
AcDbEntity
  8
0
 62
   254
100
AcDbPolyline
 90
        2
 70
     0
 39
0.003
 10
0.409874
 20
0.078472
 40
0.003
 41
0.003
 10
0.403988
 20
0.068906
 40
0.003
 41
0.003
  0
LWPOLYLINE
  5
280
100
AcDbEntity
  8
0
 62
   254
100
AcDbPolyline
 90
        2
 70
     0
 39
0.003
 10
0.403988
 20
0.068906
 40
0.003
 41
0.003
 10
-0.23226
 20
-0.306224
 40
0.003
 41
0.003
  0
LWPOLYLINE
  5
281
100
AcDbEntity
  8
0
 62
   254
100
AcDbPolyline
 90
        2
 70
     0
 39
0.003
 10
-0.23226
 20
-0.306224
 40
0.003
 41
0.003
 10
-0.226374
 20
-0.296657
 40
0.003
 41
0.003
  0
LWPOLYLINE
  5
282
100
AcDbEntity
  8
0
 62
   254
100
AcDbPolyline
 90
        2
 70
     0
 39
0.003
 10
-0.23226
 20
-0.306224
 40
0.003
 41
0.003
 10
0.403988
 20
0.068906
 40
0.003
 41
0.003
  0
LWPOLYLINE
  5
283
100
AcDbEntity
  8
0
 62
   254
100
AcDbPolyline
 90
        2
 70
     0
 39
0.003
 10
0.403988
 20
0.068906
 40
0.003
 41
0.003
 10
0.398516
 20
0.059071
 40
0.003
 41
0.003
  0
LWPOLYLINE
  5
284
100
AcDbEntity
  8
0
 62
   254
100
AcDbPolyline
 90
        2
 70
     0
 39
0.003
 10
0.398516
 20
0.059071
 40
0.003
 41
0.003
 10
-0.237732
 20
-0.316059
 40
0.003
 41
0.003
  0
LWPOLYLINE
  5
285
100
AcDbEntity
  8
0
 62
   254
100
AcDbPolyline
 90
        2
 70
     0
 39
0.003
 10
-0.237732
 20
-0.316059
 40
0.003
 41
0.003
 10
-0.23226
 20
-0.306224
 40
0.003
 41
0.003
  0
LWPOLYLINE
  5
286
100
AcDbEntity
  8
0
 62
   254
100
AcDbPolyline
 90
        2
 70
     0
 39
0.003
 10
-0.237732
 20
-0.316059
 40
0.003
 41
0.003
 10
0.398516
 20
0.059071
 40
0.003
 41
0.003
  0
LWPOLYLINE
  5
287
100
AcDbEntity
  8
0
 62
   254
100
AcDbPolyline
 90
        2
 70
     0
 39
0.003
 10
0.398516
 20
0.059071
 40
0.003
 41
0.003
 10
0.393472
 20
0.049008
 40
0.003
 41
0.003
  0
LWPOLYLINE
  5
288
100
AcDbEntity
  8
0
 62
   254
100
AcDbPolyline
 90
        2
 70
     0
 39
0.003
 10
0.393472
 20
0.049008
 40
0.003
 41
0.003
 10
-0.242776
 20
-0.326122
 40
0.003
 41
0.003
  0
LWPOLYLINE
  5
289
100
AcDbEntity
  8
0
 62
   254
100
AcDbPolyline
 90
        2
 70
     0
 39
0.003
 10
-0.242776
 20
-0.326122
 40
0.003
 41
0.003
 10
-0.237732
 20
-0.316059
 40
0.003
 41
0.003
  0
LWPOLYLINE
  5
28A
100
AcDbEntity
  8
0
 62
   254
100
AcDbPolyline
 90
        2
 70
     0
 39
0.003
 10
-0.242776
 20
-0.326122
 40
0.003
 41
0.003
 10
0.393472
 20
0.049008
 40
0.003
 41
0.003
  0
LWPOLYLINE
  5
28B
100
AcDbEntity
  8
0
 62
   254
100
AcDbPolyline
 90
        2
 70
     0
 39
0.003
 10
0.393472
 20
0.049008
 40
0.003
 41
0.003
 10
0.388862
 20
0.038724
 40
0.003
 41
0.003
  0
LWPOLYLINE
  5
28C
100
AcDbEntity
  8
0
 62
   254
100
AcDbPolyline
 90
        2
 70
     0
 39
0.003
 10
0.388862
 20
0.038724
 40
0.003
 41
0.003
 10
-0.247386
 20
-0.336406
 40
0.003
 41
0.003
  0
LWPOLYLINE
  5
28D
100
AcDbEntity
  8
0
 62
   254
100
AcDbPolyline
 90
        2
 70
     0
 39
0.003
 10
-0.247386
 20
-0.336406
 40
0.003
 41
0.003
 10
-0.242776
 20
-0.326122
 40
0.003
 41
0.003
  0
LWPOLYLINE
  5
28E
100
AcDbEntity
  8
0
 62
   254
100
AcDbPolyline
 90
        2
 70
     0
 39
0.003
 10
-0.247386
 20
-0.336406
 40
0.003
 41
0.003
 10
0.388862
 20
0.038724
 40
0.003
 41
0.003
  0
LWPOLYLINE
  5
28F
100
AcDbEntity
  8
0
 62
   254
100
AcDbPolyline
 90
        2
 70
     0
 39
0.003
 10
0.388862
 20
0.038724
 40
0.003
 41
0.003
 10
0.384705
 20
0.028244
 40
0.003
 41
0.003
  0
LWPOLYLINE
  5
290
100
AcDbEntity
  8
0
 62
   254
100
AcDbPolyline
 90
        2
 70
     0
 39
0.003
 10
0.384705
 20
0.028244
 40
0.003
 41
0.003
 10
-0.251543
 20
-0.346886
 40
0.003
 41
0.003
  0
LWPOLYLINE
  5
291
100
AcDbEntity
  8
0
 62
   254
100
AcDbPolyline
 90
        2
 70
     0
 39
0.003
 10
-0.251543
 20
-0.346886
 40
0.003
 41
0.003
 10
-0.247386
 20
-0.336406
 40
0.003
 41
0.003
  0
LWPOLYLINE
  5
292
100
AcDbEntity
  8
0
 62
   254
100
AcDbPolyline
 90
        2
 70
     0
 39
0.003
 10
-0.251543
 20
-0.346886
 40
0.003
 41
0.003
 10
0.384705
 20
0.028244
 40
0.003
 41
0.003
  0
LWPOLYLINE
  5
293
100
AcDbEntity
  8
0
 62
   254
100
AcDbPolyline
 90
        2
 70
     0
 39
0.003
 10
0.384705
 20
0.028244
 40
0.003
 41
0.003
 10
0.380988
 20
0.017579
 40
0.003
 41
0.003
  0
LWPOLYLINE
  5
294
100
AcDbEntity
  8
0
 62
   254
100
AcDbPolyline
 90
        2
 70
     0
 39
0.003
 10
0.380988
 20
0.017579
 40
0.003
 41
0.003
 10
-0.25526
 20
-0.357551
 40
0.003
 41
0.003
  0
LWPOLYLINE
  5
295
100
AcDbEntity
  8
0
 62
   254
100
AcDbPolyline
 90
        2
 70
     0
 39
0.003
 10
-0.25526
 20
-0.357551
 40
0.003
 41
0.003
 10
-0.251543
 20
-0.346886
 40
0.003
 41
0.003
  0
LWPOLYLINE
  5
296
100
AcDbEntity
  8
0
 62
   254
100
AcDbPolyline
 90
        2
 70
     0
 39
0.003
 10
-0.25526
 20
-0.357551
 40
0.003
 41
0.003
 10
0.380988
 20
0.017579
 40
0.003
 41
0.003
  0
LWPOLYLINE
  5
297
100
AcDbEntity
  8
0
 62
   254
100
AcDbPolyline
 90
        2
 70
     0
 39
0.003
 10
0.380988
 20
0.017579
 40
0.003
 41
0.003
 10
0.37774
 20
0.006756
 40
0.003
 41
0.003
  0
LWPOLYLINE
  5
298
100
AcDbEntity
  8
0
 62
   254
100
AcDbPolyline
 90
        2
 70
     0
 39
0.003
 10
0.37774
 20
0.006756
 40
0.003
 41
0.003
 10
-0.258508
 20
-0.368374
 40
0.003
 41
0.003
  0
LWPOLYLINE
  5
299
100
AcDbEntity
  8
0
 62
   254
100
AcDbPolyline
 90
        2
 70
     0
 39
0.003
 10
-0.258508
 20
-0.368374
 40
0.003
 41
0.003
 10
-0.25526
 20
-0.357551
 40
0.003
 41
0.003
  0
LWPOLYLINE
  5
29A
100
AcDbEntity
  8
0
 62
   254
100
AcDbPolyline
 90
        2
 70
     0
 39
0.003
 10
-0.258508
 20
-0.368374
 40
0.003
 41
0.003
 10
0.37774
 20
0.006756
 40
0.003
 41
0.003
  0
LWPOLYLINE
  5
29B
100
AcDbEntity
  8
0
 62
   254
100
AcDbPolyline
 90
        2
 70
     0
 39
0.003
 10
0.37774
 20
0.006756
 40
0.003
 41
0.003
 10
0.374957
 20
-0.004205
 40
0.003
 41
0.003
  0
LWPOLYLINE
  5
29C
100
AcDbEntity
  8
0
 62
   254
100
AcDbPolyline
 90
        2
 70
     0
 39
0.003
 10
0.374957
 20
-0.004205
 40
0.003
 41
0.003
 10
-0.261291
 20
-0.379335
 40
0.003
 41
0.003
  0
LWPOLYLINE
  5
29D
100
AcDbEntity
  8
0
 62
   254
100
AcDbPolyline
 90
        2
 70
     0
 39
0.003
 10
-0.261291
 20
-0.379335
 40
0.003
 41
0.003
 10
-0.258508
 20
-0.368374
 40
0.003
 41
0.003
  0
LWPOLYLINE
  5
29E
100
AcDbEntity
  8
0
 62
   254
100
AcDbPolyline
 90
        2
 70
     0
 39
0.003
 10
-0.261291
 20
-0.379335
 40
0.003
 41
0.003
 10
0.374957
 20
-0.004205
 40
0.003
 41
0.003
  0
LWPOLYLINE
  5
29F
100
AcDbEntity
  8
0
 62
   254
100
AcDbPolyline
 90
        2
 70
     0
 39
0.003
 10
0.374957
 20
-0.004205
 40
0.003
 41
0.003
 10
0.372661
 20
-0.01528
 40
0.003
 41
0.003
  0
LWPOLYLINE
  5
2A0
100
AcDbEntity
  8
0
 62
   254
100
AcDbPolyline
 90
        2
 70
     0
 39
0.003
 10
0.372661
 20
-0.01528
 40
0.003
 41
0.003
 10
-0.263587
 20
-0.390409
 40
0.003
 41
0.003
  0
LWPOLYLINE
  5
2A1
100
AcDbEntity
  8
0
 62
   254
100
AcDbPolyline
 90
        2
 70
     0
 39
0.003
 10
-0.263587
 20
-0.390409
 40
0.003
 41
0.003
 10
-0.261291
 20
-0.379335
 40
0.003
 41
0.003
  0
LWPOLYLINE
  5
2A2
100
AcDbEntity
  8
0
 62
   254
100
AcDbPolyline
 90
        2
 70
     0
 39
0.003
 10
-0.263587
 20
-0.390409
 40
0.003
 41
0.003
 10
0.372661
 20
-0.01528
 40
0.003
 41
0.003
  0
LWPOLYLINE
  5
2A3
100
AcDbEntity
  8
0
 62
   254
100
AcDbPolyline
 90
        2
 70
     0
 39
0.003
 10
0.372661
 20
-0.01528
 40
0.003
 41
0.003
 10
0.370846
 20
-0.026461
 40
0.003
 41
0.003
  0
LWPOLYLINE
  5
2A4
100
AcDbEntity
  8
0
 62
   254
100
AcDbPolyline
 90
        2
 70
     0
 39
0.003
 10
0.370846
 20
-0.026461
 40
0.003
 41
0.003
 10
-0.265402
 20
-0.401591
 40
0.003
 41
0.003
  0
LWPOLYLINE
  5
2A5
100
AcDbEntity
  8
0
 62
   254
100
AcDbPolyline
 90
        2
 70
     0
 39
0.003
 10
-0.265402
 20
-0.401591
 40
0.003
 41
0.003
 10
-0.263587
 20
-0.390409
 40
0.003
 41
0.003
  0
LWPOLYLINE
  5
2A6
100
AcDbEntity
  8
0
 62
   254
100
AcDbPolyline
 90
        2
 70
     0
 39
0.003
 10
-0.265402
 20
-0.401591
 40
0.003
 41
0.003
 10
0.370846
 20
-0.026461
 40
0.003
 41
0.003
  0
LWPOLYLINE
  5
2A7
100
AcDbEntity
  8
0
 62
   254
100
AcDbPolyline
 90
        2
 70
     0
 39
0.003
 10
0.370846
 20
-0.026461
 40
0.003
 41
0.003
 10
0.369535
 20
-0.037717
 40
0.003
 41
0.003
  0
LWPOLYLINE
  5
2A8
100
AcDbEntity
  8
0
 62
   254
100
AcDbPolyline
 90
        2
 70
     0
 39
0.003
 10
0.369535
 20
-0.037717
 40
0.003
 41
0.003
 10
-0.266713
 20
-0.412846
 40
0.003
 41
0.003
  0
LWPOLYLINE
  5
2A9
100
AcDbEntity
  8
0
 62
   254
100
AcDbPolyline
 90
        2
 70
     0
 39
0.003
 10
-0.266713
 20
-0.412846
 40
0.003
 41
0.003
 10
-0.265402
 20
-0.401591
 40
0.003
 41
0.003
  0
LWPOLYLINE
  5
2AA
100
AcDbEntity
  8
0
 62
   254
100
AcDbPolyline
 90
        2
 70
     0
 39
0.003
 10
-0.266713
 20
-0.412846
 40
0.003
 41
0.003
 10
0.369535
 20
-0.037717
 40
0.003
 41
0.003
  0
LWPOLYLINE
  5
2AB
100
AcDbEntity
  8
0
 62
   254
100
AcDbPolyline
 90
        2
 70
     0
 39
0.003
 10
0.369535
 20
-0.037717
 40
0.003
 41
0.003
 10
0.368728
 20
-0.049031
 40
0.003
 41
0.003
  0
LWPOLYLINE
  5
2AC
100
AcDbEntity
  8
0
 62
   254
100
AcDbPolyline
 90
        2
 70
     0
 39
0.003
 10
0.368728
 20
-0.049031
 40
0.003
 41
0.003
 10
-0.26752
 20
-0.424161
 40
0.003
 41
0.003
  0
LWPOLYLINE
  5
2AD
100
AcDbEntity
  8
0
 62
   254
100
AcDbPolyline
 90
        2
 70
     0
 39
0.003
 10
-0.26752
 20
-0.424161
 40
0.003
 41
0.003
 10
-0.266713
 20
-0.412846
 40
0.003
 41
0.003
  0
LWPOLYLINE
  5
2AE
100
AcDbEntity
  8
0
 62
   254
100
AcDbPolyline
 90
        2
 70
     0
 39
0.003
 10
-0.26752
 20
-0.424161
 40
0.003
 41
0.003
 10
0.368728
 20
-0.049031
 40
0.003
 41
0.003
  0
LWPOLYLINE
  5
2AF
100
AcDbEntity
  8
0
 62
   254
100
AcDbPolyline
 90
        2
 70
     0
 39
0.003
 10
0.368728
 20
-0.049031
 40
0.003
 41
0.003
 10
0.368441
 20
-0.060378
 40
0.003
 41
0.003
  0
LWPOLYLINE
  5
2B0
100
AcDbEntity
  8
0
 62
   254
100
AcDbPolyline
 90
        2
 70
     0
 39
0.003
 10
0.368441
 20
-0.060378
 40
0.003
 41
0.003
 10
-0.267807
 20
-0.435508
 40
0.003
 41
0.003
  0
LWPOLYLINE
  5
2B1
100
AcDbEntity
  8
0
 62
   254
100
AcDbPolyline
 90
        2
 70
     0
 39
0.003
 10
-0.267807
 20
-0.435508
 40
0.003
 41
0.003
 10
-0.26752
 20
-0.424161
 40
0.003
 41
0.003
  0
LWPOLYLINE
  5
2B2
100
AcDbEntity
  8
0
 62
     0
100
AcDbPolyline
 90
        2
 70
     0
 39
0.003
 10
-0.146476
 20
-0.219587
 40
0.003
 41
0.003
 10
0.489772
 20
0.155543
 40
0.003
 41
0.003
  0
LWPOLYLINE
  5
2B3
100
AcDbEntity
  8
0
 62
     0
100
AcDbPolyline
 90
        2
 70
     0
 39
0.003
 10
0.489772
 20
0.155543
 40
0.003
 41
0.003
 10
0.480197
 20
0.149661
 40
0.003
 41
0.003
  0
LWPOLYLINE
  5
2B4
100
AcDbEntity
  8
0
 62
     0
100
AcDbPolyline
 90
        2
 70
     0
 39
0.003
 10
0.480197
 20
0.149661
 40
0.003
 41
0.003
 10
0.470949
 20
0.143315
 40
0.003
 41
0.003
  0
LWPOLYLINE
  5
2B5
100
AcDbEntity
  8
0
 62
     0
100
AcDbPolyline
 90
        2
 70
     0
 39
0.003
 10
0.470949
 20
0.143315
 40
0.003
 41
0.003
 10
0.462039
 20
0.136539
 40
0.003
 41
0.003
  0
LWPOLYLINE
  5
2B6
100
AcDbEntity
  8
0
 62
     0
100
AcDbPolyline
 90
        2
 70
     0
 39
0.003
 10
0.462039
 20
0.136539
 40
0.003
 41
0.003
 10
0.453472
 20
0.129339
 40
0.003
 41
0.003
  0
LWPOLYLINE
  5
2B7
100
AcDbEntity
  8
0
 62
     0
100
AcDbPolyline
 90
        2
 70
     0
 39
0.003
 10
0.453472
 20
0.129339
 40
0.003
 41
0.003
 10
0.445268
 20
0.121744
 40
0.003
 41
0.003
  0
LWPOLYLINE
  5
2B8
100
AcDbEntity
  8
0
 62
     0
100
AcDbPolyline
 90
        2
 70
     0
 39
0.003
 10
0.445268
 20
0.121744
 40
0.003
 41
0.003
 10
0.437425
 20
0.113764
 40
0.003
 41
0.003
  0
LWPOLYLINE
  5
2B9
100
AcDbEntity
  8
0
 62
     0
100
AcDbPolyline
 90
        2
 70
     0
 39
0.003
 10
0.437425
 20
0.113764
 40
0.003
 41
0.003
 10
0.429961
 20
0.105437
 40
0.003
 41
0.003
  0
LWPOLYLINE
  5
2BA
100
AcDbEntity
  8
0
 62
     0
100
AcDbPolyline
 90
        2
 70
     0
 39
0.003
 10
0.429961
 20
0.105437
 40
0.003
 41
0.003
 10
0.422866
 20
0.096756
 40
0.003
 41
0.003
  0
LWPOLYLINE
  5
2BB
100
AcDbEntity
  8
0
 62
     0
100
AcDbPolyline
 90
        2
 70
     0
 39
0.003
 10
0.422866
 20
0.096756
 40
0.003
 41
0.003
 10
0.416169
 20
0.087764
 40
0.003
 41
0.003
  0
LWPOLYLINE
  5
2BC
100
AcDbEntity
  8
0
 62
     0
100
AcDbPolyline
 90
        2
 70
     0
 39
0.003
 10
0.416169
 20
0.087764
 40
0.003
 41
0.003
 10
0.409874
 20
0.078472
 40
0.003
 41
0.003
  0
LWPOLYLINE
  5
2BD
100
AcDbEntity
  8
0
 62
     0
100
AcDbPolyline
 90
        2
 70
     0
 39
0.003
 10
0.409874
 20
0.078472
 40
0.003
 41
0.003
 10
0.403988
 20
0.068906
 40
0.003
 41
0.003
  0
LWPOLYLINE
  5
2BE
100
AcDbEntity
  8
0
 62
     0
100
AcDbPolyline
 90
        2
 70
     0
 39
0.003
 10
0.403988
 20
0.068906
 40
0.003
 41
0.003
 10
0.398516
 20
0.059071
 40
0.003
 41
0.003
  0
LWPOLYLINE
  5
2BF
100
AcDbEntity
  8
0
 62
     0
100
AcDbPolyline
 90
        2
 70
     0
 39
0.003
 10
0.398516
 20
0.059071
 40
0.003
 41
0.003
 10
0.393472
 20
0.049008
 40
0.003
 41
0.003
  0
LWPOLYLINE
  5
2C0
100
AcDbEntity
  8
0
 62
     0
100
AcDbPolyline
 90
        2
 70
     0
 39
0.003
 10
0.393472
 20
0.049008
 40
0.003
 41
0.003
 10
0.388862
 20
0.038724
 40
0.003
 41
0.003
  0
LWPOLYLINE
  5
2C1
100
AcDbEntity
  8
0
 62
     0
100
AcDbPolyline
 90
        2
 70
     0
 39
0.003
 10
0.388862
 20
0.038724
 40
0.003
 41
0.003
 10
0.384705
 20
0.028244
 40
0.003
 41
0.003
  0
LWPOLYLINE
  5
2C2
100
AcDbEntity
  8
0
 62
     0
100
AcDbPolyline
 90
        2
 70
     0
 39
0.003
 10
0.384705
 20
0.028244
 40
0.003
 41
0.003
 10
0.380988
 20
0.017579
 40
0.003
 41
0.003
  0
LWPOLYLINE
  5
2C3
100
AcDbEntity
  8
0
 62
     0
100
AcDbPolyline
 90
        2
 70
     0
 39
0.003
 10
0.380988
 20
0.017579
 40
0.003
 41
0.003
 10
0.37774
 20
0.006756
 40
0.003
 41
0.003
  0
LWPOLYLINE
  5
2C4
100
AcDbEntity
  8
0
 62
     0
100
AcDbPolyline
 90
        2
 70
     0
 39
0.003
 10
0.37774
 20
0.006756
 40
0.003
 41
0.003
 10
0.374957
 20
-0.004205
 40
0.003
 41
0.003
  0
LWPOLYLINE
  5
2C5
100
AcDbEntity
  8
0
 62
     0
100
AcDbPolyline
 90
        2
 70
     0
 39
0.003
 10
0.374957
 20
-0.004205
 40
0.003
 41
0.003
 10
0.372661
 20
-0.01528
 40
0.003
 41
0.003
  0
LWPOLYLINE
  5
2C6
100
AcDbEntity
  8
0
 62
     0
100
AcDbPolyline
 90
        2
 70
     0
 39
0.003
 10
0.372661
 20
-0.01528
 40
0.003
 41
0.003
 10
0.370846
 20
-0.026461
 40
0.003
 41
0.003
  0
LWPOLYLINE
  5
2C7
100
AcDbEntity
  8
0
 62
     0
100
AcDbPolyline
 90
        2
 70
     0
 39
0.003
 10
0.370846
 20
-0.026461
 40
0.003
 41
0.003
 10
0.369535
 20
-0.037717
 40
0.003
 41
0.003
  0
LWPOLYLINE
  5
2C8
100
AcDbEntity
  8
0
 62
     0
100
AcDbPolyline
 90
        2
 70
     0
 39
0.003
 10
0.369535
 20
-0.037717
 40
0.003
 41
0.003
 10
0.368728
 20
-0.049031
 40
0.003
 41
0.003
  0
LWPOLYLINE
  5
2C9
100
AcDbEntity
  8
0
 62
     0
100
AcDbPolyline
 90
        2
 70
     0
 39
0.003
 10
0.368728
 20
-0.049031
 40
0.003
 41
0.003
 10
0.368441
 20
-0.060378
 40
0.003
 41
0.003
  0
LWPOLYLINE
  5
2CA
100
AcDbEntity
  8
0
 62
     0
100
AcDbPolyline
 90
        2
 70
     0
 39
0.003
 10
0.368441
 20
-0.060378
 40
0.003
 41
0.003
 10
-0.267807
 20
-0.435508
 40
0.003
 41
0.003
  0
LWPOLYLINE
  5
2CB
100
AcDbEntity
  8
0
 62
     0
100
AcDbPolyline
 90
        2
 70
     0
 39
0.003
 10
-0.267807
 20
-0.435508
 40
0.003
 41
0.003
 10
-0.26752
 20
-0.424161
 40
0.003
 41
0.003
  0
LWPOLYLINE
  5
2CC
100
AcDbEntity
  8
0
 62
     0
100
AcDbPolyline
 90
        2
 70
     0
 39
0.003
 10
-0.26752
 20
-0.424161
 40
0.003
 41
0.003
 10
-0.266713
 20
-0.412846
 40
0.003
 41
0.003
  0
LWPOLYLINE
  5
2CD
100
AcDbEntity
  8
0
 62
     0
100
AcDbPolyline
 90
        2
 70
     0
 39
0.003
 10
-0.266713
 20
-0.412846
 40
0.003
 41
0.003
 10
-0.265402
 20
-0.401591
 40
0.003
 41
0.003
  0
LWPOLYLINE
  5
2CE
100
AcDbEntity
  8
0
 62
     0
100
AcDbPolyline
 90
        2
 70
     0
 39
0.003
 10
-0.265402
 20
-0.401591
 40
0.003
 41
0.003
 10
-0.263587
 20
-0.390409
 40
0.003
 41
0.003
  0
LWPOLYLINE
  5
2CF
100
AcDbEntity
  8
0
 62
     0
100
AcDbPolyline
 90
        2
 70
     0
 39
0.003
 10
-0.263587
 20
-0.390409
 40
0.003
 41
0.003
 10
-0.261291
 20
-0.379335
 40
0.003
 41
0.003
  0
LWPOLYLINE
  5
2D0
100
AcDbEntity
  8
0
 62
     0
100
AcDbPolyline
 90
        2
 70
     0
 39
0.003
 10
-0.261291
 20
-0.379335
 40
0.003
 41
0.003
 10
-0.258508
 20
-0.368374
 40
0.003
 41
0.003
  0
LWPOLYLINE
  5
2D1
100
AcDbEntity
  8
0
 62
     0
100
AcDbPolyline
 90
        2
 70
     0
 39
0.003
 10
-0.258508
 20
-0.368374
 40
0.003
 41
0.003
 10
-0.25526
 20
-0.357551
 40
0.003
 41
0.003
  0
LWPOLYLINE
  5
2D2
100
AcDbEntity
  8
0
 62
     0
100
AcDbPolyline
 90
        2
 70
     0
 39
0.003
 10
-0.25526
 20
-0.357551
 40
0.003
 41
0.003
 10
-0.251543
 20
-0.346886
 40
0.003
 41
0.003
  0
LWPOLYLINE
  5
2D3
100
AcDbEntity
  8
0
 62
     0
100
AcDbPolyline
 90
        2
 70
     0
 39
0.003
 10
-0.251543
 20
-0.346886
 40
0.003
 41
0.003
 10
-0.247386
 20
-0.336406
 40
0.003
 41
0.003
  0
LWPOLYLINE
  5
2D4
100
AcDbEntity
  8
0
 62
     0
100
AcDbPolyline
 90
        2
 70
     0
 39
0.003
 10
-0.247386
 20
-0.336406
 40
0.003
 41
0.003
 10
-0.242776
 20
-0.326122
 40
0.003
 41
0.003
  0
LWPOLYLINE
  5
2D5
100
AcDbEntity
  8
0
 62
     0
100
AcDbPolyline
 90
        2
 70
     0
 39
0.003
 10
-0.242776
 20
-0.326122
 40
0.003
 41
0.003
 10
-0.237732
 20
-0.316059
 40
0.003
 41
0.003
  0
LWPOLYLINE
  5
2D6
100
AcDbEntity
  8
0
 62
     0
100
AcDbPolyline
 90
        2
 70
     0
 39
0.003
 10
-0.237732
 20
-0.316059
 40
0.003
 41
0.003
 10
-0.23226
 20
-0.306224
 40
0.003
 41
0.003
  0
LWPOLYLINE
  5
2D7
100
AcDbEntity
  8
0
 62
     0
100
AcDbPolyline
 90
        2
 70
     0
 39
0.003
 10
-0.23226
 20
-0.306224
 40
0.003
 41
0.003
 10
-0.226374
 20
-0.296657
 40
0.003
 41
0.003
  0
LWPOLYLINE
  5
2D8
100
AcDbEntity
  8
0
 62
     0
100
AcDbPolyline
 90
        2
 70
     0
 39
0.003
 10
-0.226374
 20
-0.296657
 40
0.003
 41
0.003
 10
-0.220079
 20
-0.287366
 40
0.003
 41
0.003
  0
LWPOLYLINE
  5
2D9
100
AcDbEntity
  8
0
 62
     0
100
AcDbPolyline
 90
        2
 70
     0
 39
0.003
 10
-0.220079
 20
-0.287366
 40
0.003
 41
0.003
 10
-0.213382
 20
-0.278374
 40
0.003
 41
0.003
  0
LWPOLYLINE
  5
2DA
100
AcDbEntity
  8
0
 62
     0
100
AcDbPolyline
 90
        2
 70
     0
 39
0.003
 10
-0.213382
 20
-0.278374
 40
0.003
 41
0.003
 10
-0.206287
 20
-0.269693
 40
0.003
 41
0.003
  0
LWPOLYLINE
  5
2DB
100
AcDbEntity
  8
0
 62
     0
100
AcDbPolyline
 90
        2
 70
     0
 39
0.003
 10
-0.206287
 20
-0.269693
 40
0.003
 41
0.003
 10
-0.198823
 20
-0.261366
 40
0.003
 41
0.003
  0
LWPOLYLINE
  5
2DC
100
AcDbEntity
  8
0
 62
     0
100
AcDbPolyline
 90
        2
 70
     0
 39
0.003
 10
-0.198823
 20
-0.261366
 40
0.003
 41
0.003
 10
-0.19098
 20
-0.253386
 40
0.003
 41
0.003
  0
LWPOLYLINE
  5
2DD
100
AcDbEntity
  8
0
 62
     0
100
AcDbPolyline
 90
        2
 70
     0
 39
0.003
 10
-0.19098
 20
-0.253386
 40
0.003
 41
0.003
 10
-0.182776
 20
-0.245791
 40
0.003
 41
0.003
  0
LWPOLYLINE
  5
2DE
100
AcDbEntity
  8
0
 62
     0
100
AcDbPolyline
 90
        2
 70
     0
 39
0.003
 10
-0.182776
 20
-0.245791
 40
0.003
 41
0.003
 10
-0.174209
 20
-0.238591
 40
0.003
 41
0.003
  0
LWPOLYLINE
  5
2DF
100
AcDbEntity
  8
0
 62
     0
100
AcDbPolyline
 90
        2
 70
     0
 39
0.003
 10
-0.174209
 20
-0.238591
 40
0.003
 41
0.003
 10
-0.165299
 20
-0.231815
 40
0.003
 41
0.003
  0
LWPOLYLINE
  5
2E0
100
AcDbEntity
  8
0
 62
     0
100
AcDbPolyline
 90
        2
 70
     0
 39
0.003
 10
-0.165299
 20
-0.231815
 40
0.003
 41
0.003
 10
-0.156051
 20
-0.225469
 40
0.003
 41
0.003
  0
LWPOLYLINE
  5
2E1
100
AcDbEntity
  8
0
 62
     0
100
AcDbPolyline
 90
        2
 70
     0
 39
0.003
 10
-0.156051
 20
-0.225469
 40
0.003
 41
0.003
 10
-0.146476
 20
-0.219587
 40
0.003
 41
0.003
  0
LWPOLYLINE
  5
2E2
100
AcDbEntity
  8
0
 62
   254
100
AcDbPolyline
 90
        2
 70
     0
 39
0.003
 10
-0.04826
 20
-0.009299
 40
0.003
 41
0.003
 10
0.587988
 20
0.365831
 40
0.003
 41
0.003
  0
LWPOLYLINE
  5
2E3
100
AcDbEntity
  8
0
 62
   254
100
AcDbPolyline
 90
        2
 70
     0
 39
0.003
 10
0.587988
 20
0.365831
 40
0.003
 41
0.003
 10
0.589319
 20
0.184579
 40
0.003
 41
0.003
  0
LWPOLYLINE
  5
2E4
100
AcDbEntity
  8
0
 62
   254
100
AcDbPolyline
 90
        2
 70
     0
 39
0.003
 10
0.589319
 20
0.184579
 40
0.003
 41
0.003
 10
-0.046929
 20
-0.190551
 40
0.003
 41
0.003
  0
LWPOLYLINE
  5
2E5
100
AcDbEntity
  8
0
 62
   254
100
AcDbPolyline
 90
        2
 70
     0
 39
0.003
 10
-0.046929
 20
-0.190551
 40
0.003
 41
0.003
 10
-0.04826
 20
-0.009299
 40
0.003
 41
0.003
  0
LWPOLYLINE
  5
2E6
100
AcDbEntity
  8
0
 62
     0
100
AcDbPolyline
 90
        2
 70
     0
 39
0.003
 10
-0.04826
 20
-0.009299
 40
0.003
 41
0.003
 10
0.587988
 20
0.365831
 40
0.003
 41
0.003
  0
LWPOLYLINE
  5
2E7
100
AcDbEntity
  8
0
 62
     0
100
AcDbPolyline
 90
        2
 70
     0
 39
0.003
 10
0.587988
 20
0.365831
 40
0.003
 41
0.003
 10
0.589319
 20
0.184579
 40
0.003
 41
0.003
  0
LWPOLYLINE
  5
2E8
100
AcDbEntity
  8
0
 62
     0
100
AcDbPolyline
 90
        2
 70
     0
 39
0.003
 10
0.589319
 20
0.184579
 40
0.003
 41
0.003
 10
-0.046929
 20
-0.190551
 40
0.003
 41
0.003
  0
LWPOLYLINE
  5
2E9
100
AcDbEntity
  8
0
 62
     0
100
AcDbPolyline
 90
        2
 70
     0
 39
0.003
 10
-0.046929
 20
-0.190551
 40
0.003
 41
0.003
 10
-0.04826
 20
-0.009299
 40
0.003
 41
0.003
  0
LWPOLYLINE
  5
2EA
100
AcDbEntity
  8
0
 62
     7
100
AcDbPolyline
 90
        2
 70
     0
 39
0.003
 10
-0.995811
 20
0.224114
 40
0.003
 41
0.003
 10
-0.277051
 20
0.224114
 40
0.003
 41
0.003
  0
SPLINE
  5
2EB
100
AcDbEntity
  8
0
 62
     7
100
AcDbSpline
210
0.0
220
0.0
230
1.0
 70
     0
 71
     3
 72
     0
 73
     0
 74
    16
 44
0.0000000001
 11
-0.2770511811023622
 21
0.2241141732283465
 31
0.0
 11
-0.2485826771653543
 21
0.2206496062992126
 31
0.0
 11
-0.2220984251968504
 21
0.2139842519685039
 31
0.0
 11
-0.1975748031496063
 21
0.2044803149606299
 31
0.0
 11
-0.175
 21
0.1925157480314961
 31
0.0
 11
-0.1543425196850394
 21
0.1784409448818898
 31
0.0
 11
-0.1355905511811024
 21
0.1626456692913386
 31
0.0
 11
-0.1187204724409449
 21
0.1454842519685039
 31
0.0
 11
-0.1037204724409449
 21
0.1273385826771654
 31
0.0
 11
-0.0905511811023622
 21
0.1085590551181102
 31
0.0
 11
-0.0792086614173228
 21
0.0895314960629921
 31
0.0
 11
-0.0696653543307087
 21
0.0706141732283465
 31
0.0
 11
-0.0619055118110236
 21
0.0521889763779528
 31
0.0
 11
-0.0558976377952756
 21
0.0346102362204724
 31
0.0
 11
-0.0516417322834646
 21
0.018259842519685
 31
0.0
 11
-0.0490984251968504
 21
0.0035
 31
0.0
  0
LWPOLYLINE
  5
2EC
100
AcDbEntity
  8
0
 62
     7
100
AcDbPolyline
 90
        2
 70
     0
 39
0.003
 10
-0.049098
 20
0.0035
 40
0.003
 41
0.003
 10
-0.04826
 20
-0.009299
 40
0.003
 41
0.003
  0
LWPOLYLINE
  5
2ED
100
AcDbEntity
  8
0
 62
     7
100
AcDbPolyline
 90
        2
 70
     0
 39
0.003
 10
-0.04826
 20
-0.009299
 40
0.003
 41
0.003
 10
-0.046929
 20
-0.190551
 40
0.003
 41
0.003
  0
SPLINE
  5
2EE
100
AcDbEntity
  8
0
 62
     7
100
AcDbSpline
210
0.0
220
0.0
230
1.0
 70
     0
 71
     3
 72
     0
 73
     0
 74
    16
 44
0.0000000001
 11
-0.0469291338582677
 21
-0.1905511811023622
 31
0.0
 11
-0.0709527559055118
 21
-0.1928976377952756
 31
0.0
 11
-0.0939527559055118
 21
-0.1977244094488189
 31
0.0
 11
-0.1158464566929134
 21
-0.2048661417322835
 31
0.0
 11
-0.1365669291338583
 21
-0.2141614173228346
 31
0.0
 11
-0.1560393700787402
 21
-0.2254448818897638
 31
0.0
 11
-0.1741968503937008
 21
-0.2385708661417323
 31
0.0
 11
-0.1909645669291339
 21
-0.2533661417322835
 31
0.0
 11
-0.2062834645669291
 21
-0.2696850393700788
 31
0.0
 11
-0.2200629921259843
 21
-0.2873464566929134
 31
0.0
 11
-0.232248031496063
 21
-0.3062086614173228
 31
0.0
 11
-0.2427598425196851
 21
-0.3261023622047244
 31
0.0
 11
-0.2515354330708661
 21
-0.3468740157480315
 31
0.0
 11
-0.258492125984252
 21
-0.3683543307086614
 31
0.0
 11
-0.2635748031496063
 21
-0.3903976377952756
 31
0.0
 11
-0.2667007874015748
 21
-0.4128346456692913
 31
0.0
  0
LWPOLYLINE
  5
2EF
100
AcDbEntity
  8
0
 62
     7
100
AcDbPolyline
 90
        2
 70
     0
 39
0.003
 10
-0.266701
 20
-0.412835
 40
0.003
 41
0.003
 10
-0.267807
 20
-0.435508
 40
0.003
 41
0.003
  0
LWPOLYLINE
  5
2F0
100
AcDbEntity
  8
0
 62
     7
100
AcDbPolyline
 90
        2
 70
     0
 39
0.003
 10
-0.267807
 20
-0.435508
 40
0.003
 41
0.003
 10
-0.998807
 20
-0.436839
 40
0.003
 41
0.003
  0
LWPOLYLINE
  5
2F1
100
AcDbEntity
  8
0
 62
     7
100
AcDbPolyline
 90
        2
 70
     0
 39
0.003
 10
-0.998807
 20
-0.436839
 40
0.003
 41
0.003
 10
-0.995811
 20
0.224114
 40
0.003
 41
0.003
  0
MTEXT
  5
2F2
100
AcDbEntity
  8
0
 62
     0
100
AcDbMText
 10
0.064602
 20
0.067161
 30
0.0
 40
0.166665
 41
0.0
 71
     1
 72
     1
  1
{\fBookman Old Style|b0|i0|c0|p32;BA  1444}
 73
     1
 44
1.0
  0
MTEXT
  5
2F3
100
AcDbEntity
  8
0
 62
     0
100
AcDbMText
 10
0.064602
 20
-0.120339
 30
0.0
 40
0.166665
 41
0.0
 71
     1
 72
     1
  1
{\fBookman Old Style|b0|i0|c0|p32;5/8" x 1"}
 73
     1
 44
1.0
  0
ENDSEC
  0
SECTION
  2
OBJECTS
  0
DICTIONARY
  5
19
100
AcDbDictionary
280
     0
281
     1
  3
ACAD_GROUP
350
1A
  3
ACAD_MLINESTYLE
350
1B
  3
ACAD_LAYOUT
350
1E
  3
ACAD_PLOTSETTINGS
350
22
  3
ACAD_PLOTSTYLENAME
350
1F
  3
ACAD_WIPEOUT_VARS
350
23
  0
DICTIONARY
  5
1A
102
{ACAD_REACTORS
330
19
102
}
100
AcDbDictionary
280
     0
281
     1
  0
DICTIONARY
  5
1B
102
{ACAD_REACTORS
330
19
102
}
100
AcDbDictionary
280
     0
281
     1
  3
Standard
350
1C
  0
MLINESTYLE
  5
1C
102
{ACAD_REACTORS
330
1B
102
}
100
AcDbMlineStyle
  2
Standard
 70
     0
  3

 62
     0
 51
90.0
 52
90.0
 71
     2
 49
0.5
 62
   256
  6
BYLAYER
 49
-0.5
 62
   256
  6
BYLAYER
  0
ACDBDICTIONARYWDFLT
  5
1F
102
{ACAD_REACTORS
330
19
102
}
100
AcDbDictionary
281
     1
  3
Normal
350
1D
100
AcDbDictionaryWithDefault
340
1D
  0
ACDBPLACEHOLDER
  5
1D
102
{ACAD_REACTORS
330
1F
102
}
  0
LAYOUT
  5
20
102
{ACAD_REACTORS
330
1E
102
}
100
AcDbPlotSettings
  1

  2

  4

  6

 40
0.0
 41
0.0
 42
0.0
 43
0.0
 44
0.0
 45
0.0
 46
0.0
 47
0.0
 48
0.0
 49
0.0
140
0.0
141
0.0
142
1.0
143
1.0
 70
  1024
 72
     0
 73
     0
 74
     0
  7

 75
     0
147
1.0
148
0.0
149
0.0
100
AcDbLayout
  1
Model
 70
     0
 71
     0
 10
0.0
 20
0.0
 11
0.0
 21
0.0
 12
0.0
 22
0.0
 32
0.0
 14
0.0
 24
0.0
 34
0.0
 15
0.0
 25
0.0
 35
0.0
146
0.0
 13
0.0
 23
0.0
 33
0.0
 16
0.0
 26
0.0
 36
0.0
 17
0.0
 27
0.0
 37
0.0
 76
     0
330
A
331
0
345
0
346
0
  0
LAYOUT
  5
21
102
{ACAD_REACTORS
330
1E
102
}
100
AcDbPlotSettings
  1

  2

  4

  6

 40
0.0
 41
0.0
 42
0.0
 43
0.0
 44
0.0
 45
0.0
 46
0.0
 47
0.0
 48
0.0
 49
0.0
140
0.0
141
0.0
142
1.0
143
1.0
 70
     0
 72
     0
 73
     0
 74
     0
  7

 75
     0
147
1.0
148
0.0
149
0.0
100
AcDbLayout
  1
Layout1
 70
     0
 71
     0
 10
0.0
 20
0.0
 11
0.0
 21
0.0
 12
0.0
 22
0.0
 32
0.0
 14
0.0
 24
0.0
 34
0.0
 15
0.0
 25
0.0
 35
0.0
146
0.0
 13
0.0
 23
0.0
 33
0.0
 16
0.0
 26
0.0
 36
0.0
 17
0.0
 27
0.0
 37
0.0
 76
     0
330
B
331
0
345
0
346
0
  0
DICTIONARY
  5
1E
102
{ACAD_REACTORS
330
19
102
}
100
AcDbDictionary
280
     0
281
     1
  3
Layout1
350
21
  3
Model
350
20
  0
DICTIONARY
  5
22
102
{ACAD_REACTORS
330
19
102
}
100
AcDbDictionary
280
     0
281
     1
  0
WIPEOUTVARIABLES
  5
23
100
AcDbWipeoutVariables
 70
     1
  0
ENDSEC
  0
EOF
